  0
SECTION
  2
HEADER
  9
$ACADVER
  1
AC1003
  9
$EXTMIN
 10
-1.38399994E+02
 20
-9.48000031E+01
  9
$EXTMAX
 10
1.38350006E+02
 20
9.45000000E+01
  9
$LIMMIN
 10
-1.38400994E+02
 20
-9.48010031E+01
  9
$LIMMAX
 10
1.38351006E+02
 20
9.45010000E+01
  9
$SNAPUNIT
 10
1
 20
1
  9
$SNAPBASE
 10
0
 20
0
  9
$GRIDMODE
 70
0
  9
$GRIDUNIT
 10
0
 20
0
  9
$LTSCALE
 40
4.61250000E+00
  9
$TEXTSIZE
 40
3.2
  9
$DIMTAD
 70
0
  9
$LUNITS
 70
2
  9
$LUPREC
 70
4
  9
$FILLETRAD
 40
0
  9
$AUNITS
 70
0
  9
$AUPREC
 70
0
  0
ENDSEC
  0
SECTION
  2
TABLES
  0
TABLE
  2
LTYPE
 70
2
  0
LTYPE
  2
CONTINUOUS
 70
64
  3
Solid-Line
 72
65
 73
0
 40
0
  0
LTYPE
  2
DASHED
 70
64
  3
DASHED
 72
65
 73
2
 40
.75
 49
.5
 49
-.25
  0
LTYPE
  2
HIDDEN
 70
64
  3
HIDDEN
 72
65
 73
2
 40
.375
 49
.25
 49
-.125
  0
LTYPE
  2
CENTER
 70
64
  3
CENTER
 72
65
 73
4
 40
2
 49
1.25
 49
-.25
 49
.25
 49
-.25
  0
LTYPE
  2
PHANTOM
 70
64
  3
PHANTOM
 72
65
 73
6
 40
2.5
 49
1.25
 49
-.25
 49
.25
 49
-.25
 49
.25
 49
-.25
  0
ENDTAB
  0
TABLE
  2
LAYER
 70
1
  0
LAYER
  2
1
 70
0
 62
7
  6
CONTINUOUS
 0
ENDTAB
  0
TABLE
  2
STYLE
 70
2
  0
STYLE
  2
MONOTXT
 70
0
 40
0
 41
1
 50
0
 71
0
 42
.2
  3
monotxt
  0
STYLE
  2
BIGFONT
 70
0
 40
0
 41
1
 50
0
 71
0
 42
.2
  3
txt
  4
bigfont
  0
ENDTAB
  0
ENDSEC
  0
SECTION
  2
ENTITIES
  0
ARC
  8
0
 62
4
 10
5.16738236E+01
 20
-4.76792816E+01
 40
1.50000000E+00
 50
0.00000000E+00
 51
8.99999818E+01
  0
ARC
  8
0
 62
4
 10
5.16732438E+01
 20
-2.68925003E+01
 40
1.50000000E+00
 50
2.70000018E+02
 51
0.00000000E+00
  0
ARC
  8
0
 62
4
 10
1.24141191E+01
 20
-4.72824310E+01
 40
3.00000000E+00
 50
8.99999818E+01
 51
1.38189590E+02
  0
ARC
  8
0
 62
4
 10
1.24141191E+01
 20
-2.72824310E+01
 40
3.00000000E+00
 50
2.21810356E+02
 51
2.69999963E+02
  0
LINE
  8
0
 62
4
 10
6.41780656E+01
 20
-4.92824310E+01
 11
6.41780656E+01
 21
-2.52824310E+01
  0
LINE
  8
0
 62
4
 10
-1.82196701E+00
 20
-2.97823987E+01
 11
-1.32196092E+00
 21
-2.92823821E+01
  0
LINE
  8
0
 62
4
 10
-1.32194560E+00
 20
-4.52823969E+01
 11
-1.82194069E+00
 21
-4.47823909E+01
  0
LINE
  8
0
 62
4
 10
5.31780351E+01
 20
-4.76747498E+01
 11
5.31780351E+01
 21
-4.92824310E+01
  0
LINE
  8
0
 62
4
 10
5.31780351E+01
 20
-2.68901123E+01
 11
5.31780351E+01
 21
-2.52824310E+01
  0
LINE
  8
0
  6
CENTER
 62
6
 10
1.01780656E+01
 20
-4.87824310E+01
 11
1.01780656E+01
 21
-2.57824310E+01
  0
LINE
  8
0
 62
4
 10
4.21780410E+01
 20
-4.92823912E+01
 11
3.01780409E+01
 21
-4.42823911E+01
  0
LINE
  8
0
 62
4
 10
4.21780517E+01
 20
-2.52823948E+01
 11
3.01780525E+01
 21
-3.02823945E+01
  0
LINE
  8
0
 62
4
 10
2.11780638E+01
 20
-2.92823967E+01
 11
2.21780712E+01
 21
-3.02823915E+01
  0
LINE
  8
0
 62
4
 10
2.21780423E+01
 20
-4.42824042E+01
 11
2.11780350E+01
 21
-4.52823990E+01
  0
LINE
  8
0
 62
4
 10
3.01780656E+01
 20
-4.42824310E+01
 11
1.24141191E+01
 21
-4.42824310E+01
  0
LINE
  8
0
 62
4
 10
2.11780351E+01
 20
-4.52824310E+01
 11
-1.32193441E+00
 21
-4.52824310E+01
  0
LINE
  8
0
 62
4
 10
1.24141191E+01
 20
-3.02824310E+01
 11
3.01780656E+01
 21
-3.02824310E+01
  0
LINE
  8
0
 62
4
 10
-1.82193441E+00
 20
-4.47823776E+01
 11
-1.82193441E+00
 21
-2.97824310E+01
  0
LINE
  8
0
 62
4
 10
-1.32193441E+00
 20
-2.92824310E+01
 11
2.11780656E+01
 21
-2.92824310E+01
  0
LINE
  8
0
  6
CENTER
 62
6
 10
-7.32193441E+00
 20
-3.72824310E+01
 11
7.16440690E+01
 21
-3.72824310E+01
  0
LINE
  8
0
 62
4
 10
6.51780374E+01
 20
-4.82823963E+01
 11
6.41780360E+01
 21
-4.92823970E+01
  0
LINE
  8
0
 62
4
 10
4.21780656E+01
 20
-4.92824310E+01
 11
6.41780656E+01
 21
-4.92824310E+01
  0
LINE
  8
0
 62
4
 10
6.51780656E+01
 20
-4.82824463E+01
 11
6.51780656E+01
 21
-2.62824081E+01
  0
LINE
  8
0
 62
4
 10
6.41780654E+01
 20
-2.52824098E+01
 11
6.51780668E+01
 21
-2.62824105E+01
  0
LINE
  8
0
 62
4
 10
6.41780656E+01
 20
-2.52824310E+01
 11
4.21780656E+01
 21
-2.52824310E+01
  0
LINE
  8
0
  6
CENTER
 62
6
 10
-7.82236678E+01
 20
-5.47824158E+01
 11
-7.82236678E+01
 21
-1.97824616E+01
  0
LINE
  8
0
  6
CENTER
 62
6
 10
-9.57236373E+01
 20
-3.72824310E+01
 11
-6.07236983E+01
 21
-3.72824310E+01
  0
ARC
  8
0
 62
4
 10
-7.82236678E+01
 20
-3.72824463E+01
 40
1.20000000E+01
 50
2.21810233E+02
 51
3.18189748E+02
  0
ARC
  8
0
 62
4
 10
-7.82236678E+01
 20
-3.72824463E+01
 40
1.20000000E+01
 50
4.18104122E+01
 51
1.38189590E+02
  0
LINE
  8
0
 62
4
 10
-6.62236678E+01
 20
-4.52824310E+01
 11
-6.62236678E+01
 21
-2.92824310E+01
  0
LINE
  8
0
 62
4
 10
-9.02236678E+01
 20
-4.52824310E+01
 11
-9.02236678E+01
 21
-2.92824310E+01
  0
LINE
  8
0
 62
4
 10
-8.42236678E+01
 20
-2.68901428E+01
 11
-8.42236678E+01
 21
-2.52824310E+01
  0
LINE
  8
0
 62
4
 10
-7.22236678E+01
 20
-2.68901428E+01
 11
-7.22236678E+01
 21
-2.52824310E+01
  0
LINE
  8
0
 62
4
 10
-8.42236678E+01
 20
-4.92824310E+01
 11
-7.22236678E+01
 21
-4.92824310E+01
  0
LINE
  8
0
 62
4
 10
-8.42236678E+01
 20
-2.52824310E+01
 11
-7.22236678E+01
 21
-2.52824310E+01
  0
LINE
  8
0
 62
4
 10
-7.22236678E+01
 20
-4.92824310E+01
 11
-7.22236678E+01
 21
-4.76747498E+01
  0
LINE
  8
0
 62
4
 10
-8.42236678E+01
 20
-4.92824310E+01
 11
-8.42236678E+01
 21
-4.76747498E+01
  0
LINE
  8
0
 62
4
 10
-9.02236678E+01
 20
-2.92824310E+01
 11
-6.62236678E+01
 21
-2.92824310E+01
  0
LINE
  8
0
 62
4
 10
-9.02236678E+01
 20
-4.52824310E+01
 11
-6.62236678E+01
 21
-4.52824310E+01
  0
LINE
  8
0
  6
CENTER
 62
6
 10
-9.57236373E+01
 20
-3.72824310E+01
 11
-6.07236983E+01
 21
-3.72824310E+01
  0
ARC
  8
0
 62
4
 10
3.01780046E+01
 20
3.78277832E+01
 40
1.19999781E+01
 50
2.70000127E+02
 51
8.99999274E+01
  0
CIRCLE
  8
0
 62
4
 10
1.01780351E+01
 20
3.78277832E+01
 40
1.20000000E+01
  0
CIRCLE
  8
0
 62
4
 10
1.01780351E+01
 20
3.78277832E+01
 40
6.00000000E+00
  0
LINE
  8
0
 62
6
 10
5.31780314E+01
 20
4.38277175E+01
 11
6.41780327E+01
 21
3.18278077E+01
  0
LINE
  8
0
 62
6
 10
5.31780365E+01
 20
3.18279023E+01
 11
6.41780328E+01
 21
4.38278065E+01
  0
LINE
  8
0
 62
4
 10
6.41780351E+01
 20
2.58278137E+01
 11
6.41780351E+01
 21
4.98277832E+01
  0
LINE
  8
0
 62
4
 10
6.41780331E+01
 20
4.98277809E+01
 11
6.51780342E+01
 21
4.88277798E+01
  0
LINE
  8
0
 62
4
 10
6.41780385E+01
 20
2.58278148E+01
 11
6.51780288E+01
 21
2.68278050E+01
  0
LINE
  8
0
 62
4
 10
3.01780351E+01
 20
2.71319672E+01
 11
3.01780351E+01
 21
4.86933533E+01
  0
LINE
  8
0
 62
4
 10
5.31780351E+01
 20
3.18278137E+01
 11
5.31780351E+01
 21
4.38278137E+01
  0
LINE
  8
0
 62
4
 10
5.31780046E+01
 20
4.38278137E+01
 11
6.41780351E+01
 21
4.38278137E+01
  0
LINE
  8
0
 62
4
 10
5.31780046E+01
 20
3.18278137E+01
 11
6.41780351E+01
 21
3.18278137E+01
  0
LINE
  8
0
 62
4
 10
1.01780656E+01
 20
4.98277832E+01
 11
6.41780351E+01
 21
4.98277832E+01
  0
LINE
  8
0
 62
4
 10
1.01780656E+01
 20
2.58278137E+01
 11
6.41780351E+01
 21
2.58278137E+01
  0
LINE
  8
0
 62
4
 10
6.51780351E+01
 20
2.68278137E+01
 11
6.51780351E+01
 21
4.88277832E+01
  0
LINE
  8
0
  6
CENTER
 62
6
 10
-7.32193441E+00
 20
3.78278137E+01
 11
7.16440385E+01
 21
3.78278137E+01
  0
LINE
  8
0
  6
CENTER
 62
6
 10
1.01780656E+01
 20
2.03278137E+01
 11
1.01780656E+01
 21
5.53277832E+01
  0
TEXT
  8
0
 62
7
 10
-1.32642850E+02
 20
8.79000001E+01
 40
3.19999981E+00
  1
NEW DYNA CYLINDER
 41
1.07594937E+00
  7
MONOTXT
  0
TEXT
  8
0
 62
7
 10
-1.29085994E+02
 20
7.29000001E+01
 40
3.19999981E+00
  1
MODEL:DDA32-I
 41
1.00000000E+00
  7
MONOTXT
  0
LINE
  8
0
 62
7
 10
-1.38399994E+02
 20
9.45000000E+01
 11
1.38350006E+02
 21
9.45000000E+01
  0
LINE
  8
0
 62
7
 10
1.38350006E+02
 20
9.45000000E+01
 11
1.38350006E+02
 21
-9.48000031E+01
  0
LINE
  8
0
 62
7
 10
-1.38399994E+02
 20
-9.48000031E+01
 11
1.38350006E+02
 21
-9.48000031E+01
  0
LINE
  8
0
 62
7
 10
-1.38399994E+02
 20
9.45000000E+01
 11
-1.38399994E+02
 21
-9.48000031E+01
  0
LINE
  8
0
 62
7
 10
7.33500061E+01
 20
-8.48000031E+01
 11
1.38350006E+02
 21
-8.48000031E+01
  0
LINE
  8
0
 62
7
 10
-1.38399994E+02
 20
8.45000000E+01
 11
-7.33999939E+01
 21
8.45000000E+01
  0
LINE
  8
0
 62
7
 10
7.33500061E+01
 20
8.45000000E+01
 11
1.38350006E+02
 21
8.45000000E+01
  0
LINE
  8
0
 62
7
 10
7.33500061E+01
 20
-8.48000031E+01
 11
7.33500061E+01
 21
-9.48000031E+01
  0
LINE
  8
0
 62
7
 10
7.33500061E+01
 20
9.45000000E+01
 11
7.33500061E+01
 21
8.45000000E+01
  0
LINE
  8
0
 62
7
 10
-7.33999939E+01
 20
9.45000000E+01
 11
-7.33999939E+01
 21
8.45000000E+01
  0
TEXT
  8
0
 62
7
 10
7.72426624E+01
 20
-9.20500031E+01
 40
4.50000000E+00
  1
KOGANEI CORP.
 41
1.04838710E+00
  7
MONOTXT
  0
TEXT
  8
0
 62
7
 10
9.35071493E+01
 20
8.79000001E+01
 40
3.19999981E+00
  1
Ver. 1.0
 41
1.08108108E+00
  7
MONOTXT
  0
ENDSEC
  0
EOF
