  0
SECTION
  2
HEADER
  9
$ACADVER
  1
AC1003
  9
$EXTMIN
 10
-1.38399994E+02
 20
-9.48000031E+01
  9
$EXTMAX
 10
1.38350006E+02
 20
9.45000000E+01
  9
$LIMMIN
 10
-1.38400994E+02
 20
-9.48010031E+01
  9
$LIMMAX
 10
1.38351006E+02
 20
9.45010000E+01
  9
$SNAPUNIT
 10
1
 20
1
  9
$SNAPBASE
 10
0
 20
0
  9
$GRIDMODE
 70
0
  9
$GRIDUNIT
 10
0
 20
0
  9
$LTSCALE
 40
4.61250000E+00
  9
$TEXTSIZE
 40
3.2
  9
$DIMTAD
 70
0
  9
$LUNITS
 70
2
  9
$LUPREC
 70
4
  9
$FILLETRAD
 40
0
  9
$AUNITS
 70
0
  9
$AUPREC
 70
0
  0
ENDSEC
  0
SECTION
  2
TABLES
  0
TABLE
  2
LTYPE
 70
2
  0
LTYPE
  2
CONTINUOUS
 70
64
  3
Solid-Line
 72
65
 73
0
 40
0
  0
LTYPE
  2
DASHED
 70
64
  3
DASHED
 72
65
 73
2
 40
.75
 49
.5
 49
-.25
  0
LTYPE
  2
HIDDEN
 70
64
  3
HIDDEN
 72
65
 73
2
 40
.375
 49
.25
 49
-.125
  0
LTYPE
  2
CENTER
 70
64
  3
CENTER
 72
65
 73
4
 40
2
 49
1.25
 49
-.25
 49
.25
 49
-.25
  0
LTYPE
  2
PHANTOM
 70
64
  3
PHANTOM
 72
65
 73
6
 40
2.5
 49
1.25
 49
-.25
 49
.25
 49
-.25
 49
.25
 49
-.25
  0
ENDTAB
  0
TABLE
  2
LAYER
 70
1
  0
LAYER
  2
1
 70
0
 62
7
  6
CONTINUOUS
 0
ENDTAB
  0
TABLE
  2
STYLE
 70
2
  0
STYLE
  2
MONOTXT
 70
0
 40
0
 41
1
 50
0
 71
0
 42
.2
  3
monotxt
  0
STYLE
  2
BIGFONT
 70
0
 40
0
 41
1
 50
0
 71
0
 42
.2
  3
txt
  4
bigfont
  0
ENDTAB
  0
ENDSEC
  0
SECTION
  2
ENTITIES
  0
LINE
  8
0
  6
CENTER
 62
6
 10
6.57996755E+00
 20
-8.83334687E+00
 11
6.57996755E+00
 21
-6.48333469E+01
  0
LINE
  8
0
 62
4
 10
6.05799675E+01
 20
-4.88333469E+01
 11
3.92495690E+01
 21
-4.88333469E+01
  0
LINE
  8
0
 62
4
 10
3.79339773E+01
 20
-4.90095325E+01
 11
2.82259815E+01
 21
-5.16571674E+01
  0
LINE
  8
0
 62
4
 10
6.05799628E+01
 20
-4.88333490E+01
 11
6.15799643E+01
 21
-4.78333483E+01
  0
LINE
  8
0
 62
4
 10
6.15799675E+01
 20
-2.58333316E+01
 11
6.15799675E+01
 21
-4.78333621E+01
  0
LINE
  8
0
 62
4
 10
3.92495537E+01
 20
-2.48333469E+01
 11
6.05799675E+01
 21
-2.48333469E+01
  0
LINE
  8
0
 62
4
 10
2.82259564E+01
 20
-2.20095390E+01
 11
3.79339659E+01
 21
-2.46571776E+01
  0
LINE
  8
0
 62
4
 10
6.15799365E+01
 20
-2.58333636E+01
 11
6.05799350E+01
 21
-2.48333628E+01
  0
LINE
  8
0
  6
CENTER
 62
6
 10
-1.09200325E+01
 20
-3.68333469E+01
 11
6.80459710E+01
 21
-3.68333469E+01
  0
LINE
  8
0
 62
4
 10
8.81603627E+00
 20
-4.58333469E+01
 11
2.46517754E+01
 21
-4.58333469E+01
  0
LINE
  8
0
 62
4
 10
5.79967546E-01
 20
-5.98333469E+01
 11
1.25799675E+01
 21
-5.98333469E+01
  0
LINE
  8
0
 62
4
 10
-5.42003245E+00
 20
-4.48333469E+01
 11
-5.42003245E+00
 21
-5.28333469E+01
  0
LINE
  8
0
 62
4
 10
8.81603627E+00
 20
-5.18333469E+01
 11
2.69103966E+01
 21
-5.18333469E+01
  0
LINE
  8
0
 62
4
 10
5.79967546E-01
 20
-5.28333469E+01
 11
5.79967546E-01
 21
-5.98333469E+01
  0
LINE
  8
0
 62
4
 10
1.25799675E+01
 20
-5.28333469E+01
 11
1.25799675E+01
 21
-5.98333469E+01
  0
LINE
  8
0
 62
4
 10
1.63438988E+01
 20
-2.08333469E+01
 11
-5.42003245E+00
 21
-2.08333469E+01
  0
LINE
  8
0
 62
4
 10
2.46517449E+01
 20
-2.78333469E+01
 11
8.81603627E+00
 21
-2.78333469E+01
  0
LINE
  8
0
 62
4
 10
1.25799675E+01
 20
-1.38333469E+01
 11
5.79967546E-01
 21
-1.38333469E+01
  0
LINE
  8
0
 62
4
 10
-5.42003245E+00
 20
-2.08333469E+01
 11
-5.42003245E+00
 21
-2.88333469E+01
  0
LINE
  8
0
 62
4
 10
5.79967546E-01
 20
-2.88333469E+01
 11
5.79967546E-01
 21
-4.48333469E+01
  0
LINE
  8
0
 62
4
 10
1.25799675E+01
 20
-2.88333469E+01
 11
1.25799675E+01
 21
-4.48333469E+01
  0
LINE
  8
0
 62
4
 10
2.69103661E+01
 20
-2.18333469E+01
 11
8.81603627E+00
 21
-2.18333469E+01
  0
LINE
  8
0
 62
4
 10
5.79967546E-01
 20
-1.38333469E+01
 11
5.79967546E-01
 21
-2.08333469E+01
  0
LINE
  8
0
 62
4
 10
1.25799675E+01
 20
-1.38333469E+01
 11
1.25799675E+01
 21
-2.08333469E+01
  0
LINE
  8
0
 62
4
 10
2.65799675E+01
 20
-4.51316257E+01
 11
2.65799675E+01
 21
-2.85350986E+01
  0
LINE
  8
0
 62
4
 10
3.07139405E+01
 20
-3.83333735E+01
 11
2.72498487E+01
 21
-4.43333663E+01
  0
LINE
  8
0
 62
4
 10
3.07139342E+01
 20
-3.53333636E+01
 11
2.72498187E+01
 21
-2.93333494E+01
  0
LINE
  8
0
 62
4
 10
-5.42003245E+00
 20
-2.88333469E+01
 11
1.63438988E+01
 21
-2.88333469E+01
  0
LINE
  8
0
 62
4
 10
-5.42003245E+00
 20
-5.28333469E+01
 11
1.63438988E+01
 21
-5.28333469E+01
  0
LINE
  8
0
 62
4
 10
1.63438988E+01
 20
-4.48333469E+01
 11
-5.42003245E+00
 21
-4.48333469E+01
  0
LINE
  8
0
 62
4
 10
3.67997365E+00
 20
-1.68833499E+01
 11
9.47996144E+00
 21
-1.68833499E+01
  0
LINE
  8
0
 62
4
 10
3.67997365E+00
 20
-1.97833438E+01
 11
3.67997365E+00
 21
-1.68833499E+01
  0
LINE
  8
0
 62
4
 10
3.67997365E+00
 20
-1.97833438E+01
 11
9.47996144E+00
 21
-1.97833438E+01
  0
LINE
  8
0
 62
4
 10
9.47996144E+00
 20
-1.97833438E+01
 11
9.47996144E+00
 21
-1.68833499E+01
  0
LINE
  8
0
 62
4
 10
3.67997365E+00
 20
-5.38833499E+01
 11
9.47996144E+00
 21
-5.38833499E+01
  0
LINE
  8
0
 62
4
 10
3.67997365E+00
 20
-5.67833438E+01
 11
3.67997365E+00
 21
-5.38833499E+01
  0
LINE
  8
0
 62
4
 10
3.67997365E+00
 20
-5.67833438E+01
 11
9.47996144E+00
 21
-5.67833438E+01
  0
LINE
  8
0
 62
4
 10
9.47996144E+00
 20
-5.67833438E+01
 11
9.47996144E+00
 21
-5.38833499E+01
  0
LINE
  8
0
 62
4
 10
4.95799675E+01
 20
-3.08333469E+01
 11
4.95799675E+01
 21
-4.28333469E+01
  0
LINE
  8
0
 62
4
 10
4.95799675E+01
 20
-4.28333469E+01
 11
6.05799675E+01
 21
-4.28333469E+01
  0
LINE
  8
0
 62
4
 10
4.95799675E+01
 20
-3.08333469E+01
 11
6.05799675E+01
 21
-3.08333469E+01
  0
LINE
  8
0
 62
4
 10
6.05799675E+01
 20
-2.48333469E+01
 11
6.05799675E+01
 21
-4.88333469E+01
  0
LINE
  8
0
 62
6
 10
6.05799560E+01
 20
-4.28333602E+01
 11
4.95799422E+01
 21
-3.08333606E+01
  0
LINE
  8
0
 62
6
 10
6.05799557E+01
 20
-3.08333517E+01
 11
4.95799726E+01
 21
-4.28333504E+01
  0
LINE
  8
0
 62
4
 10
6.57996755E+00
 20
-1.97833438E+01
 11
6.57996755E+00
 21
-1.68833499E+01
  0
LINE
  8
0
 62
4
 10
5.12997060E+00
 20
-1.97833438E+01
 11
5.12997060E+00
 21
-1.68833499E+01
  0
LINE
  8
0
 62
4
 10
8.02996449E+00
 20
-1.97833438E+01
 11
8.02996449E+00
 21
-1.68833499E+01
  0
LINE
  8
0
 62
4
 10
6.57996755E+00
 20
-5.67833438E+01
 11
6.57996755E+00
 21
-5.38833499E+01
  0
LINE
  8
0
 62
4
 10
5.12997060E+00
 20
-5.67833438E+01
 11
5.12997060E+00
 21
-5.38833499E+01
  0
LINE
  8
0
 62
4
 10
8.02996449E+00
 20
-5.67833438E+01
 11
8.02996449E+00
 21
-5.38833499E+01
  0
ARC
  8
0
 62
4
 10
2.69103661E+01
 20
-2.68333469E+01
 40
5.00000000E+00
 50
7.47450006E+01
 51
9.00001457E+01
  0
ARC
  8
0
 62
4
 10
2.69103966E+01
 20
-4.68333469E+01
 40
5.00000000E+00
 50
2.70000018E+02
 51
2.85255109E+02
  0
ARC
  8
0
 62
4
 10
8.81603627E+00
 20
-4.28333469E+01
 40
3.00000000E+00
 50
2.21810356E+02
 51
2.69999963E+02
  0
ARC
  8
0
 62
4
 10
8.81603627E+00
 20
-5.48333469E+01
 40
3.00000000E+00
 50
9.00000369E+01
 51
1.38189644E+02
  0
ARC
  8
0
 62
4
 10
8.81603627E+00
 20
-3.08333469E+01
 40
3.00000000E+00
 50
9.00000369E+01
 51
1.38189644E+02
  0
ARC
  8
0
 62
4
 10
8.81603627E+00
 20
-1.88333469E+01
 40
3.00000000E+00
 50
2.21810411E+02
 51
2.70000018E+02
  0
ARC
  8
0
 62
4
 10
2.46517449E+01
 20
-3.08333469E+01
 40
3.00000000E+00
 50
3.00001409E+01
 51
9.00002007E+01
  0
ARC
  8
0
 62
4
 10
2.81158562E+01
 20
-3.68333621E+01
 40
3.00000000E+00
 50
3.29999842E+02
 51
3.00000759E+01
  0
ARC
  8
0
 62
4
 10
2.46517754E+01
 20
-4.28333469E+01
 40
3.00000000E+00
 50
2.69999963E+02
 51
3.30000010E+02
  0
ARC
  8
0
 62
4
 10
1.85799675E+01
 20
-1.88333469E+01
 40
3.00000000E+00
 50
2.21810301E+02
 51
2.70000018E+02
  0
ARC
  8
0
 62
4
 10
1.85799675E+01
 20
-3.08333469E+01
 40
3.00000000E+00
 50
8.99999818E+01
 51
1.38189698E+02
  0
ARC
  8
0
 62
4
 10
1.85799675E+01
 20
-5.48333469E+01
 40
3.00000000E+00
 50
8.99999818E+01
 51
1.38189698E+02
  0
ARC
  8
0
 62
4
 10
1.85799675E+01
 20
-4.28333469E+01
 40
3.00000000E+00
 50
2.21810356E+02
 51
2.70000073E+02
  0
ARC
  8
0
 62
4
 10
3.92495537E+01
 20
-1.98333469E+01
 40
5.00000000E+00
 50
2.54744818E+02
 51
2.69999909E+02
  0
ARC
  8
0
 62
4
 10
3.92495690E+01
 20
-5.38333469E+01
 40
5.00000000E+00
 50
9.00000913E+01
 51
1.05255237E+02
  0
LINE
  8
0
 62
4
 10
-8.54200325E+01
 20
-5.28333469E+01
 11
-6.14200325E+01
 21
-5.28333469E+01
  0
LINE
  8
0
  6
CENTER
 62
6
 10
-9.09200325E+01
 20
-3.68333469E+01
 11
-5.59696846E+01
 21
-3.68333469E+01
  0
LINE
  8
0
 62
4
 10
-8.54200325E+01
 20
-4.48333469E+01
 11
-6.14200325E+01
 21
-4.48333469E+01
  0
LINE
  8
0
 62
4
 10
-7.94200325E+01
 20
-5.98333469E+01
 11
-6.74200325E+01
 21
-5.98333469E+01
  0
LINE
  8
0
 62
4
 10
-7.94200325E+01
 20
-5.28333469E+01
 11
-7.94200325E+01
 21
-5.98333469E+01
  0
LINE
  8
0
 62
4
 10
-6.74200325E+01
 20
-5.28333469E+01
 11
-6.74200325E+01
 21
-5.98333469E+01
  0
LINE
  8
0
 62
4
 10
-6.14200325E+01
 20
-2.88333469E+01
 11
-8.54200325E+01
 21
-2.88333469E+01
  0
LINE
  8
0
 62
4
 10
-6.14200325E+01
 20
-2.08333469E+01
 11
-8.54200325E+01
 21
-2.08333469E+01
  0
LINE
  8
0
 62
4
 10
-6.74200325E+01
 20
-1.38333469E+01
 11
-7.94200325E+01
 21
-1.38333469E+01
  0
LINE
  8
0
 62
4
 10
-8.54200325E+01
 20
-2.08333469E+01
 11
-8.54200325E+01
 21
-5.28333469E+01
  0
LINE
  8
0
 62
4
 10
-7.94200325E+01
 20
-2.88333469E+01
 11
-7.94200325E+01
 21
-4.48333469E+01
  0
LINE
  8
0
 62
4
 10
-6.74200325E+01
 20
-2.88333469E+01
 11
-6.74200325E+01
 21
-4.48333469E+01
  0
LINE
  8
0
 62
4
 10
-7.94200325E+01
 20
-1.38333469E+01
 11
-7.94200325E+01
 21
-2.08333469E+01
  0
LINE
  8
0
 62
4
 10
-6.74200325E+01
 20
-1.38333469E+01
 11
-6.74200325E+01
 21
-2.08333469E+01
  0
LINE
  8
0
 62
4
 10
-6.14200325E+01
 20
-5.28333469E+01
 11
-6.14200325E+01
 21
-2.08333621E+01
  0
LINE
  8
0
 62
4
 10
-8.57376899E+01
 20
-5.38833347E+01
 11
-7.94200477E+01
 21
-5.38833347E+01
  0
LINE
  8
0
 62
4
 10
-8.57376899E+01
 20
-5.67833591E+01
 11
-7.94200477E+01
 21
-5.67833591E+01
  0
LINE
  8
0
 62
4
 10
-6.74200630E+01
 20
-5.38833347E+01
 11
-5.71377144E+01
 21
-5.38833347E+01
  0
LINE
  8
0
 62
4
 10
-6.74200630E+01
 20
-5.67833591E+01
 11
-5.71377144E+01
 21
-5.67833591E+01
  0
LINE
  8
0
 62
4
 10
-8.57376899E+01
 20
-1.68833347E+01
 11
-7.94200477E+01
 21
-1.68833347E+01
  0
LINE
  8
0
 62
4
 10
-8.57376899E+01
 20
-1.97833591E+01
 11
-7.94200477E+01
 21
-1.97833591E+01
  0
LINE
  8
0
 62
4
 10
-6.74200630E+01
 20
-1.68833347E+01
 11
-5.71377144E+01
 21
-1.68833347E+01
  0
LINE
  8
0
 62
4
 10
-6.74200630E+01
 20
-1.97833591E+01
 11
-5.71377144E+01
 21
-1.97833591E+01
  0
LINE
  8
0
 62
4
 10
-8.57376899E+01
 20
-5.38833347E+01
 11
-8.57376899E+01
 21
-5.67833591E+01
  0
LINE
  8
0
 62
4
 10
-8.57376899E+01
 20
-1.68833347E+01
 11
-8.57376899E+01
 21
-1.97833591E+01
  0
LINE
  8
0
 62
4
 10
-5.71377144E+01
 20
-1.68833499E+01
 11
-5.71377144E+01
 21
-1.97833743E+01
  0
LINE
  8
0
 62
4
 10
-5.71377144E+01
 20
-5.38833347E+01
 11
-5.71377144E+01
 21
-5.67833591E+01
  0
LINE
  8
0
  6
CENTER
 62
6
 10
-7.34200325E+01
 20
-8.83334687E+00
 11
-7.34200325E+01
 21
-6.48333469E+01
  0
LINE
  8
0
 62
4
 10
8.02997975E+00
 20
3.11637845E+01
 11
6.05799675E+01
 21
3.11637845E+01
  0
LINE
  8
0
 62
4
 10
7.89960866E+00
 20
5.51637845E+01
 11
6.05799675E+01
 21
5.51637845E+01
  0
LINE
  8
0
 62
4
 10
6.15799675E+01
 20
5.41637845E+01
 11
6.15799675E+01
 21
3.21637845E+01
  0
LINE
  8
0
  6
CENTER
 62
6
 10
6.57996755E+00
 20
6.06637845E+01
 11
6.57996755E+00
 21
2.56637845E+01
  0
LINE
  8
0
  6
CENTER
 62
6
 10
-1.09200325E+01
 20
4.31637845E+01
 11
6.80459710E+01
 21
4.31637845E+01
  0
LINE
  8
0
 62
4
 10
3.85799675E+01
 20
5.38596158E+01
 11
3.85799675E+01
 21
3.22981992E+01
  0
LINE
  8
0
 62
4
 10
2.75799675E+01
 20
5.38596158E+01
 11
2.75799675E+01
 21
3.22981992E+01
  0
LINE
  8
0
 62
4
 10
8.02997975E+00
 20
3.72332730E+01
 11
8.02997975E+00
 21
3.13371701E+01
  0
LINE
  8
0
 62
4
 10
5.12995534E+00
 20
3.72332730E+01
 11
5.12995534E+00
 21
2.81371732E+01
  0
LINE
  8
0
 62
4
 10
5.12997345E+00
 20
2.81371819E+01
 11
5.85496439E+00
 21
2.68814609E+01
  0
LINE
  8
0
 62
4
 10
5.85495586E+00
 20
2.68814586E+01
 11
6.57996205E+00
 21
2.81372060E+01
  0
LINE
  8
0
 62
4
 10
6.57997122E+00
 20
3.13371969E+01
 11
7.30497741E+00
 21
3.00814495E+01
  0
LINE
  8
0
 62
4
 10
7.30504352E+00
 20
3.00814382E+01
 11
8.03003445E+00
 21
3.13371591E+01
  0
LINE
  8
0
 62
4
 10
4.95799675E+01
 20
3.28905835E+01
 11
4.95799675E+01
 21
3.11637845E+01
  0
LINE
  8
0
 62
4
 10
4.95799675E+01
 20
5.34448666E+01
 11
4.95799675E+01
 21
5.51637845E+01
  0
LINE
  8
0
 62
4
 10
6.57996249E+00
 20
3.71637793E+01
 11
6.57996061E+00
 21
2.81371985E+01
  0
LINE
  8
0
 62
4
 10
6.05799675E+01
 20
5.51637845E+01
 11
6.05799675E+01
 21
3.11637845E+01
  0
LINE
  8
0
 62
4
 10
6.05799687E+01
 20
3.11637858E+01
 11
6.15799590E+01
 21
3.21637761E+01
  0
LINE
  8
0
 62
4
 10
6.05799633E+01
 20
5.51637735E+01
 11
6.15799590E+01
 21
5.41637778E+01
  0
CIRCLE
  8
0
 62
4
 10
6.57996755E+00
 20
4.31637845E+01
 40
6.00000000E+00
  0
ARC
  8
0
 62
4
 10
6.57996755E+00
 20
4.31637845E+01
 40
1.20000000E+01
 50
2.76940255E+02
 51
8.28830204E+01
  0
ARC
  8
0
 62
4
 10
2.12995534E+00
 20
4.87074857E+01
 40
3.00000000E+00
 50
4.21327732E+00
 51
4.10412714E+01
  0
ARC
  8
0
 62
4
 10
3.57996755E+00
 20
4.90943112E+01
 40
3.00000000E+00
 50
0.00000000E+00
 51
4.92941583E+01
  0
ARC
  8
0
 62
4
 10
9.57996755E+00
 20
4.90943112E+01
 40
3.00000000E+00
 50
1.30705779E+02
 51
1.79999964E+02
  0
ARC
  8
0
 62
4
 10
6.57996755E+00
 20
5.25814328E+01
 40
1.59999943E+00
 50
3.10705552E+02
 51
2.29294314E+02
  0
ARC
  8
0
 62
4
 10
6.57996755E+00
 20
5.25814328E+01
 40
2.89999962E+00
 50
3.18958725E+02
 51
2.21041123E+02
  0
ARC
  8
0
 62
4
 10
1.10299798E+01
 20
4.87074857E+01
 40
3.00000000E+00
 50
1.38958724E+02
 51
1.75786721E+02
  0
ARC
  8
0
 62
4
 10
6.57996755E+00
 20
4.31637845E+01
 40
1.20000000E+01
 50
9.71169983E+01
 51
2.63059709E+02
  0
ARC
  8
0
 62
4
 10
4.80856133E+01
 20
3.27606549E+01
 40
1.50000000E+00
 50
0.00000000E+00
 51
8.99999818E+01
  0
ARC
  8
0
 62
4
 10
4.80856133E+01
 20
5.35748105E+01
 40
1.50000000E+00
 50
2.70000018E+02
 51
0.00000000E+00
  0
TEXT
  8
0
 62
7
 10
-1.32642850E+02
 20
8.79000001E+01
 40
3.19999981E+00
  1
NEW DYNA CYLINDER
 41
1.07594937E+00
  7
MONOTXT
  0
TEXT
  8
0
 62
7
 10
-1.29085994E+02
 20
7.29000001E+01
 40
3.19999981E+00
  1
MODEL:DDA32-Y
 41
1.00000000E+00
  7
MONOTXT
  0
LINE
  8
0
 62
7
 10
-1.38399994E+02
 20
9.45000000E+01
 11
1.38350006E+02
 21
9.45000000E+01
  0
LINE
  8
0
 62
7
 10
1.38350006E+02
 20
9.45000000E+01
 11
1.38350006E+02
 21
-9.48000031E+01
  0
LINE
  8
0
 62
7
 10
-1.38399994E+02
 20
-9.48000031E+01
 11
1.38350006E+02
 21
-9.48000031E+01
  0
LINE
  8
0
 62
7
 10
-1.38399994E+02
 20
9.45000000E+01
 11
-1.38399994E+02
 21
-9.48000031E+01
  0
LINE
  8
0
 62
7
 10
7.33500061E+01
 20
-8.48000031E+01
 11
1.38350006E+02
 21
-8.48000031E+01
  0
LINE
  8
0
 62
7
 10
-1.38399994E+02
 20
8.45000000E+01
 11
-7.33999939E+01
 21
8.45000000E+01
  0
LINE
  8
0
 62
7
 10
7.33500061E+01
 20
8.45000000E+01
 11
1.38350006E+02
 21
8.45000000E+01
  0
LINE
  8
0
 62
7
 10
7.33500061E+01
 20
-8.48000031E+01
 11
7.33500061E+01
 21
-9.48000031E+01
  0
LINE
  8
0
 62
7
 10
7.33500061E+01
 20
9.45000000E+01
 11
7.33500061E+01
 21
8.45000000E+01
  0
LINE
  8
0
 62
7
 10
-7.33999939E+01
 20
9.45000000E+01
 11
-7.33999939E+01
 21
8.45000000E+01
  0
TEXT
  8
0
 62
7
 10
7.72426624E+01
 20
-9.20500031E+01
 40
4.50000000E+00
  1
KOGANEI CORP.
 41
1.04838710E+00
  7
MONOTXT
  0
TEXT
  8
0
 62
7
 10
9.35071493E+01
 20
8.79000001E+01
 40
3.19999981E+00
  1
Ver. 1.0
 41
1.08108108E+00
  7
MONOTXT
  0
ENDSEC
  0
EOF
