  0
SECTION
  2
HEADER
  9
$ACADVER
  1
AC1003
  9
$EXTMIN
 10
-3.99250000E+02
 20
-2.76750000E+02
  9
$EXTMAX
 10
3.99799805E+02
 20
4.28270058E+02
  9
$LIMMIN
 10
-3.99251000E+02
 20
-2.76751000E+02
  9
$LIMMAX
 10
3.99800805E+02
 20
4.28271058E+02
  9
$SNAPUNIT
 10
1
 20
1
  9
$SNAPBASE
 10
0
 20
0
  9
$GRIDMODE
 70
0
  9
$GRIDUNIT
 10
0
 20
0
  9
$LTSCALE
 40
1.33174967E+01
  9
$TEXTSIZE
 40
3.2
  9
$DIMTAD
 70
0
  9
$LUNITS
 70
2
  9
$LUPREC
 70
4
  9
$FILLETRAD
 40
0
  9
$AUNITS
 70
0
  9
$AUPREC
 70
0
  0
ENDSEC
  0
SECTION
  2
TABLES
  0
TABLE
  2
LTYPE
 70
2
  0
LTYPE
  2
CONTINUOUS
 70
64
  3
Solid-Line
 72
65
 73
0
 40
0
  0
LTYPE
  2
DASHED
 70
64
  3
DASHED
 72
65
 73
2
 40
.75
 49
.5
 49
-.25
  0
LTYPE
  2
HIDDEN
 70
64
  3
HIDDEN
 72
65
 73
2
 40
.375
 49
.25
 49
-.125
  0
LTYPE
  2
CENTER
 70
64
  3
CENTER
 72
65
 73
4
 40
2
 49
1.25
 49
-.25
 49
.25
 49
-.25
  0
LTYPE
  2
PHANTOM
 70
64
  3
PHANTOM
 72
65
 73
6
 40
2.5
 49
1.25
 49
-.25
 49
.25
 49
-.25
 49
.25
 49
-.25
  0
ENDTAB
  0
TABLE
  2
LAYER
 70
1
  0
LAYER
  2
1
 70
0
 62
7
  6
CONTINUOUS
 0
ENDTAB
  0
TABLE
  2
STYLE
 70
2
  0
STYLE
  2
MONOTXT
 70
0
 40
0
 41
1
 50
0
 71
0
 42
.2
  3
monotxt
  0
STYLE
  2
BIGFONT
 70
0
 40
0
 41
1
 50
0
 71
0
 42
.2
  3
txt
  4
bigfont
  0
ENDTAB
  0
ENDSEC
  0
SECTION
  2
ENTITIES
  0
LINE
  8
0
  6
PHANTOM
 10
-9.25000000E+00
 20
1.34210004E+02
 11
-9.25000000E+00
 21
4.02193517E+01
  0
LINE
  8
0
 62
7
 10
2.02499847E+01
 20
8.22194708E+01
 11
4.17499847E+01
 21
8.22194708E+01
  0
LINE
  8
0
 62
7
 10
3.55114470E+01
 20
8.75194586E+01
 11
4.17499847E+01
 21
8.75194586E+01
  0
LINE
  8
0
 62
7
 10
-1.29749985E+02
 20
6.33694952E+01
 11
-1.23249985E+02
 21
6.33694952E+01
  0
LINE
  8
0
 62
2
 10
-1.29749985E+02
 20
6.40694616E+01
 11
-1.23249985E+02
 21
6.40694616E+01
  0
LINE
  8
0
 62
2
 10
-1.29749985E+02
 20
7.26694677E+01
 11
-1.23249985E+02
 21
7.26694677E+01
  0
LINE
  8
0
 62
7
 10
-1.29749985E+02
 20
7.33694799E+01
 11
-1.23249985E+02
 21
7.33694799E+01
  0
ARC
  8
0
 62
7
 10
-1.18249985E+02
 20
6.83694647E+01
 40
6.00000000E+00
 50
3.26442567E+02
 51
3.35573785E+01
  0
ARC
  8
0
 62
7
 10
7.22499847E+01
 20
8.08694189E+01
 40
5.00000000E-01
 50
2.69999909E+02
 51
3.59999891E+02
  0
ARC
  8
0
 62
7
 10
-9.47499847E+01
 20
8.88694647E+01
 40
5.00000000E-01
 50
8.99999274E+01
 51
1.79999964E+02
  0
ARC
  8
0
 62
7
 10
-9.47499847E+01
 20
8.08694189E+01
 40
5.00000000E-01
 50
1.79999981E+02
 51
2.69999963E+02
  0
ARC
  8
0
 62
7
 10
7.22499847E+01
 20
8.88694647E+01
 40
5.00000000E-01
 50
3.59999891E+02
 51
8.99999274E+01
  0
ARC
  8
0
 62
7
 10
-9.67499847E+01
 20
8.08694494E+01
 40
5.00000000E-01
 50
8.99999818E+01
 51
1.79999964E+02
  0
ARC
  8
0
 62
7
 10
-1.04999985E+02
 20
8.03780401E+01
 40
2.50000000E-01
 50
9.20007356E+01
 51
1.79999964E+02
  0
ARC
  8
0
 62
7
 10
-1.09749985E+02
 20
7.98694494E+01
 40
5.00000000E-01
 50
8.99999818E+01
 51
1.79999964E+02
  0
ARC
  8
0
 62
7
 10
-9.47499847E+01
 20
8.90967596E+01
 40
5.00000000E-01
 50
9.15003561E+01
 51
1.79999964E+02
  0
ARC
  8
0
 62
7
 10
7.22499847E+01
 20
8.90967596E+01
 40
5.00000000E-01
 50
3.59999891E+02
 51
8.84994919E+01
  0
ARC
  8
0
 62
7
 10
7.42499847E+01
 20
8.08694494E+01
 40
5.00000000E-01
 50
3.59999891E+02
 51
8.99998730E+01
  0
ARC
  8
0
 62
7
 10
7.22499847E+01
 20
4.78694647E+01
 40
5.00000000E-01
 50
2.70000018E+02
 51
5.46415133E-05
  0
ARC
  8
0
 62
7
 10
7.22499847E+01
 20
5.58695104E+01
 40
5.00000000E-01
 50
5.46415133E-05
 51
9.00000369E+01
  0
ARC
  8
0
 62
7
 10
7.22499847E+01
 20
4.76421698E+01
 40
5.00000000E-01
 50
2.71500453E+02
 51
5.46415133E-05
  0
ARC
  8
0
 62
7
 10
7.42499847E+01
 20
5.58694799E+01
 40
5.00000000E-01
 50
2.70000073E+02
 51
5.46415133E-05
  0
ARC
  8
0
 62
7
 10
-9.47499847E+01
 20
4.76421698E+01
 40
5.00000000E-01
 50
1.79999981E+02
 51
2.68499583E+02
  0
ARC
  8
0
 62
7
 10
-9.67499847E+01
 20
5.58694799E+01
 40
5.00000000E-01
 50
1.79999981E+02
 51
2.69999963E+02
  0
ARC
  8
0
 62
7
 10
-1.04999985E+02
 20
5.63608892E+01
 40
2.50000000E-01
 50
1.79999981E+02
 51
2.67999203E+02
  0
ARC
  8
0
 62
7
 10
-1.09749985E+02
 20
5.68694799E+01
 40
5.00000000E-01
 50
1.79999981E+02
 51
2.69999963E+02
  0
ARC
  8
0
 62
7
 10
-9.47499847E+01
 20
4.78694647E+01
 40
5.00000000E-01
 50
1.79999981E+02
 51
2.70000018E+02
  0
ARC
  8
0
 62
7
 10
-9.47499847E+01
 20
5.58695104E+01
 40
5.00000000E-01
 50
8.99999818E+01
 51
1.79999964E+02
  0
LINE
  8
0
 62
7
 10
-1.23249985E+02
 20
6.40694616E+01
 11
-1.20249985E+02
 21
6.40694616E+01
  0
LINE
  8
0
 62
7
 10
-1.23249985E+02
 20
7.26694677E+01
 11
-1.20249985E+02
 21
7.26694677E+01
  0
LINE
  8
0
 62
7
 10
-1.20249979E+02
 20
6.33694955E+01
 11
-1.17249975E+02
 21
6.23694633E+01
  0
LINE
  8
0
 62
7
 10
-1.17249983E+02
 20
6.50528721E+01
 11
-1.20249982E+02
 21
6.83694595E+01
  0
LINE
  8
0
 62
7
 10
-1.20249984E+02
 20
6.83694665E+01
 11
-1.17249983E+02
 21
7.16861028E+01
  0
LINE
  8
0
 62
7
 10
-1.20249979E+02
 20
7.33694646E+01
 11
-1.17249975E+02
 21
7.43694508E+01
  0
LINE
  8
0
 62
7
 10
-1.23249985E+02
 20
7.33694799E+01
 11
-1.23249985E+02
 21
6.33694952E+01
  0
LINE
  8
0
 62
7
 10
7.22499847E+01
 20
8.93694342E+01
 11
5.07499847E+01
 21
8.93694342E+01
  0
LINE
  8
0
 62
7
 10
7.27499564E+01
 20
7.97266102E+01
 11
5.07499809E+01
 21
8.01106211E+01
  0
LINE
  8
0
 62
7
 10
7.27499847E+01
 20
4.76421698E+01
 11
7.27499847E+01
 21
8.90967596E+01
  0
LINE
  8
0
 62
7
 10
7.22499847E+01
 20
8.03694494E+01
 11
5.07499847E+01
 21
8.03694494E+01
  0
LINE
  8
0
 62
7
 10
7.22630965E+01
 20
8.95965686E+01
 11
6.77499951E+01
 21
8.97147483E+01
  0
LINE
  8
0
 62
7
 10
6.77499847E+01
 20
9.03694494E+01
 11
4.17499847E+01
 21
9.03694494E+01
  0
LINE
  8
0
 62
7
 10
-7.32499758E+01
 20
9.01599201E+01
 11
-6.42500243E+01
 21
9.03955921E+01
  0
LINE
  8
0
 62
7
 10
-1.05008715E+02
 20
8.06278840E+01
 11
-9.72499860E+01
 21
8.08988248E+01
  0
LINE
  8
0
 62
7
 10
-9.67499847E+01
 20
8.13694494E+01
 11
-9.52499847E+01
 21
8.13694494E+01
  0
LINE
  8
0
 62
7
 10
-1.09749985E+02
 20
8.03694647E+01
 11
-1.05249985E+02
 21
8.03694647E+01
  0
LINE
  8
0
 62
7
 10
-9.02499847E+01
 20
8.97147711E+01
 11
-9.02499847E+01
 21
9.03694494E+01
  0
LINE
  8
0
 62
7
 10
-7.32499847E+01
 20
8.01106298E+01
 11
-7.32499847E+01
 21
9.01599310E+01
  0
LINE
  8
0
 62
7
 10
-9.47499847E+01
 20
8.93694342E+01
 11
-7.32499847E+01
 21
8.93694342E+01
  0
LINE
  8
0
 62
7
 10
-1.17249985E+02
 20
7.43694647E+01
 11
-1.10249985E+02
 21
7.43694647E+01
  0
LINE
  8
0
 62
7
 10
-9.52499309E+01
 20
7.97266192E+01
 11
-7.32499859E+01
 21
8.01106296E+01
  0
LINE
  8
0
 62
7
 10
-9.47499847E+01
 20
8.03694494E+01
 11
-7.32499847E+01
 21
8.03694494E+01
  0
LINE
  8
0
 62
7
 10
-6.42499847E+01
 20
8.75194586E+01
 11
5.24998474E+00
 21
8.75194586E+01
  0
LINE
  8
0
 62
7
 10
-6.42499847E+01
 20
8.22194708E+01
 11
5.24998474E+00
 21
8.22194708E+01
  0
LINE
  8
0
  6
CENTER
 62
2
 10
-9.74770050E+01
 20
8.48694647E+01
 11
7.48534241E+01
 21
8.48694647E+01
  0
LINE
  8
0
 62
7
 10
-9.47630635E+01
 20
8.95965801E+01
 11
-9.02499773E+01
 21
8.97147594E+01
  0
LINE
  8
0
 62
7
 10
-9.02499847E+01
 20
9.03694494E+01
 11
-6.42499847E+01
 21
9.03694494E+01
  0
LINE
  8
0
 62
7
 10
6.77499847E+01
 20
8.97147711E+01
 11
6.77499847E+01
 21
9.03694494E+01
  0
LINE
  8
0
 62
7
 10
5.07499847E+01
 20
8.01106146E+01
 11
5.07499847E+01
 21
9.01599310E+01
  0
LINE
  8
0
 62
7
 10
5.07500088E+01
 20
9.01599086E+01
 11
4.17500421E+01
 21
9.03955810E+01
  0
LINE
  8
0
 62
7
 10
7.42499847E+01
 20
8.13694494E+01
 11
7.27499847E+01
 21
8.13694494E+01
  0
LINE
  8
0
 62
7
 10
5.07499847E+01
 20
5.66283071E+01
 11
5.07499847E+01
 21
4.65789984E+01
  0
LINE
  8
0
 62
7
 10
5.07500133E+01
 20
4.65790249E+01
 11
4.17500466E+01
 21
4.63433525E+01
  0
LINE
  8
0
 62
7
 10
4.17499847E+01
 20
9.03694494E+01
 11
4.17499847E+01
 21
4.63433493E+01
  0
LINE
  8
0
 62
7
 10
7.47499847E+01
 20
5.58694799E+01
 11
7.47499847E+01
 21
8.08694494E+01
  0
LINE
  8
0
 62
7
 10
7.42499847E+01
 20
5.53694799E+01
 11
7.27499847E+01
 21
5.53694799E+01
  0
LINE
  8
0
 62
7
 10
6.77499847E+01
 20
4.70241583E+01
 11
6.77499847E+01
 21
4.63694799E+01
  0
LINE
  8
0
 62
7
 10
7.22499847E+01
 20
4.73694952E+01
 11
5.07499847E+01
 21
4.73694952E+01
  0
LINE
  8
0
 62
7
 10
7.27499578E+01
 20
5.70123237E+01
 11
5.07499823E+01
 21
5.66283127E+01
  0
LINE
  8
0
 62
7
 10
7.22499847E+01
 20
5.63694799E+01
 11
5.07499847E+01
 21
5.63694799E+01
  0
LINE
  8
0
 62
7
 10
7.22631010E+01
 20
4.71423649E+01
 11
6.77499996E+01
 21
4.70241852E+01
  0
LINE
  8
0
 62
7
 10
6.77499847E+01
 20
4.63694799E+01
 11
4.17499847E+01
 21
4.63694799E+01
  0
LINE
  8
0
 62
7
 10
-7.32499958E+01
 20
4.65790061E+01
 11
-6.42500291E+01
 21
4.63433337E+01
  0
LINE
  8
0
 62
7
 10
-1.05008708E+02
 20
5.61110685E+01
 11
-9.72499785E+01
 21
5.58401277E+01
  0
LINE
  8
0
 62
7
 10
-9.72499847E+01
 20
5.58694799E+01
 11
-9.72499847E+01
 21
8.08988226E+01
  0
LINE
  8
0
  6
CENTER
 62
2
 10
-7.92499847E+01
 20
9.26995123E+01
 11
-7.92499847E+01
 21
8.29726293E+01
  0
LINE
  8
0
 62
7
 10
-1.05249985E+02
 20
8.03694647E+01
 11
-1.05249985E+02
 21
5.63608892E+01
  0
LINE
  8
0
 62
7
 10
-9.67499847E+01
 20
5.53694799E+01
 11
-9.52499847E+01
 21
5.53694799E+01
  0
LINE
  8
0
 62
7
 10
-1.09749985E+02
 20
5.63694647E+01
 11
-1.05249985E+02
 21
5.63694647E+01
  0
LINE
  8
0
 62
7
 10
-1.10249985E+02
 20
7.98694494E+01
 11
-1.10249985E+02
 21
5.68694799E+01
  0
LINE
  8
0
 62
7
 10
-9.02499847E+01
 20
4.70241583E+01
 11
-9.02499847E+01
 21
4.63694799E+01
  0
LINE
  8
0
 62
7
 10
-7.32499847E+01
 20
5.66282995E+01
 11
-7.32499847E+01
 21
4.65789984E+01
  0
LINE
  8
0
 62
7
 10
-9.47499847E+01
 20
4.73694952E+01
 11
-7.32499847E+01
 21
4.73694952E+01
  0
LINE
  8
0
 62
2
 10
-1.13249955E+02
 20
6.50528598E+01
 11
-1.18634598E+02
 21
7.01553600E+01
  0
LINE
  8
0
 62
2
 10
-1.18634498E+02
 20
6.65834939E+01
 11
-1.13249878E+02
 21
7.16859731E+01
  0
LINE
  8
0
 62
7
 10
-1.17249985E+02
 20
6.50528753E+01
 11
-1.13249985E+02
 21
6.50528753E+01
  0
LINE
  8
0
 62
2
 10
-1.41949936E+02
 20
6.40694616E+01
 11
-1.35749985E+02
 21
6.40694616E+01
  0
LINE
  8
0
 62
7
 10
-1.42249995E+02
 20
6.43695443E+01
 11
-1.41250049E+02
 21
6.33695749E+01
  0
LINE
  8
0
 62
7
 10
-1.41249985E+02
 20
7.33694799E+01
 11
-1.41249985E+02
 21
6.33694952E+01
  0
LINE
  8
0
 62
7
 10
-1.17249985E+02
 20
6.50528753E+01
 11
-1.17249985E+02
 21
6.23694647E+01
  0
LINE
  8
0
 62
7
 10
-1.41249985E+02
 20
6.33694952E+01
 11
-1.35749985E+02
 21
6.33694952E+01
  0
LINE
  8
0
 62
7
 10
-1.42249985E+02
 20
7.23692816E+01
 11
-1.42249985E+02
 21
6.43694799E+01
  0
LINE
  8
0
 62
7
 10
-1.20249985E+02
 20
7.33694799E+01
 11
-1.20249985E+02
 21
6.33694952E+01
  0
LINE
  8
0
 62
7
 10
-1.17249985E+02
 20
6.23694647E+01
 11
-1.10249985E+02
 21
6.23694647E+01
  0
LINE
  8
0
 62
7
 10
-1.13249985E+02
 20
6.50528753E+01
 11
-1.13249985E+02
 21
7.16860998E+01
  0
LINE
  8
0
 62
7
 10
-1.17249985E+02
 20
7.16860998E+01
 11
-1.13249985E+02
 21
7.16860998E+01
  0
LINE
  8
0
 62
2
 10
-1.41949966E+02
 20
7.26694677E+01
 11
-1.35749985E+02
 21
7.26694677E+01
  0
LINE
  8
0
 62
7
 10
-1.42249831E+02
 20
7.23694214E+01
 11
-1.41249884E+02
 21
7.33693908E+01
  0
LINE
  8
0
 62
7
 10
-1.17249985E+02
 20
7.16860998E+01
 11
-1.17249985E+02
 21
7.43694647E+01
  0
LINE
  8
0
 62
7
 10
-1.41249985E+02
 20
7.33694799E+01
 11
-1.35749985E+02
 21
7.33694799E+01
  0
LINE
  8
0
  6
CENTER
 62
2
 10
-1.44615707E+02
 20
6.83694647E+01
 11
7.71664429E+01
 21
6.83694647E+01
  0
LINE
  8
0
 62
7
 10
-9.52499322E+01
 20
5.70123222E+01
 11
-7.32499871E+01
 21
5.66283118E+01
  0
LINE
  8
0
 62
7
 10
-9.52499847E+01
 20
4.76421698E+01
 11
-9.52499847E+01
 21
8.90967596E+01
  0
LINE
  8
0
 62
7
 10
-9.47499847E+01
 20
5.63694799E+01
 11
-7.32499847E+01
 21
5.63694799E+01
  0
LINE
  8
0
 62
7
 10
-6.42499847E+01
 20
4.92194708E+01
 11
4.17499847E+01
 21
4.92194708E+01
  0
LINE
  8
0
 62
7
 10
-6.42499847E+01
 20
5.45194586E+01
 11
4.17499847E+01
 21
5.45194586E+01
  0
LINE
  8
0
  6
CENTER
 62
2
 10
-9.74770050E+01
 20
5.18694647E+01
 11
7.48534241E+01
 21
5.18694647E+01
  0
LINE
  8
0
 62
7
 10
-6.42499847E+01
 20
9.03955877E+01
 11
-6.42499847E+01
 21
4.63433340E+01
  0
LINE
  8
0
 62
7
 10
-9.47630682E+01
 20
4.71423457E+01
 11
-9.02499973E+01
 21
4.70241668E+01
  0
LINE
  8
0
 62
7
 10
-9.02499847E+01
 20
4.63694799E+01
 11
-6.42499847E+01
 21
4.63694799E+01
  0
LINE
  8
0
  6
CENTER
 62
6
 10
-6.75001526E+00
 20
8.94006737E+01
 11
4.02500343E+01
 21
8.94006737E+01
  0
LINE
  8
0
  6
CENTER
 62
6
 10
-5.87499848E+01
 20
8.94006737E+01
 11
-1.17499847E+01
 21
8.94006737E+01
  0
LINE
  8
0
 62
6
 10
-1.54820356E+01
 20
8.64006737E+01
 11
-1.20179340E+01
 21
9.24006737E+01
  0
LINE
  8
0
 62
4
 10
-3.02499847E+01
 20
8.79006737E+01
 11
-1.46160101E+01
 21
8.79006737E+01
  0
LINE
  8
0
 62
4
 10
-3.02499847E+01
 20
9.09006737E+01
 11
-1.28839593E+01
 21
9.09006737E+01
  0
LINE
  8
0
 62
6
 10
-3.01791484E+00
 20
9.24006738E+01
 11
-6.48201645E+00
 21
8.64006738E+01
  0
LINE
  8
0
 62
4
 10
5.25003434E+00
 20
9.09006737E+01
 11
-3.88394027E+00
 21
9.09006737E+01
  0
LINE
  8
0
 62
4
 10
5.25003434E+00
 20
8.79006737E+01
 11
-5.61599108E+00
 21
8.79006737E+01
  0
LINE
  8
0
  6
CENTER
 62
6
 10
1.12499847E+01
 20
8.18828974E+01
 11
6.24998474E+00
 21
8.18828974E+01
  0
LINE
  8
0
  6
CENTER
 62
6
 10
8.74998474E+00
 20
8.43828974E+01
 11
8.74998474E+00
 21
7.93828974E+01
  0
LINE
  8
0
  6
CENTER
 62
6
 10
1.67499847E+01
 20
8.43828974E+01
 11
1.67499847E+01
 21
7.93828974E+01
  0
LINE
  8
0
  6
CENTER
 62
6
 10
1.92499847E+01
 20
8.18828974E+01
 11
1.42499847E+01
 21
8.18828974E+01
  0
LINE
  8
0
 62
4
 10
2.02499847E+01
 20
1.02150364E+02
 11
2.02499847E+01
 21
7.64096852E+01
  0
LINE
  8
0
 62
4
 10
5.24998474E+00
 20
1.02330123E+02
 11
5.24998474E+00
 21
7.64096852E+01
  0
LINE
  8
0
 62
4
 10
3.52499847E+01
 20
1.02330123E+02
 11
3.52499847E+01
 21
8.61458195E+01
  0
LINE
  8
0
  6
CENTER
 62
6
 10
2.77499847E+01
 20
1.01225646E+02
 11
2.77499847E+01
 21
9.40764520E+01
  0
LINE
  8
0
  6
CENTER
 62
6
 10
3.13245816E+01
 20
9.76510489E+01
 11
2.41753879E+01
 21
9.76510489E+01
  0
CIRCLE
  8
0
 62
4
 10
2.77499847E+01
 20
9.76510489E+01
 40
2.25000000E+00
  0
LINE
  8
0
 62
4
 10
5.24998474E+00
 20
1.02330123E+02
 11
3.52499847E+01
 21
1.02330123E+02
  0
LINE
  8
0
 62
4
 10
5.24998474E+00
 20
1.02150364E+02
 11
3.52499847E+01
 21
1.02150364E+02
  0
LINE
  8
0
 62
4
 10
6.41154873E+00
 20
8.71596617E+01
 11
1.89907320E+01
 21
8.71596617E+01
  0
LINE
  8
0
 62
4
 10
2.02499847E+01
 20
8.61458195E+01
 11
3.52499847E+01
 21
8.61458195E+01
  0
LINE
  8
0
 62
4
 10
2.02499847E+01
 20
9.36446772E+01
 11
3.52499847E+01
 21
9.36446772E+01
  0
LINE
  8
0
 62
4
 10
2.02499847E+01
 20
9.36516581E+01
 11
3.52499847E+01
 21
9.36516581E+01
  0
LINE
  8
0
 62
4
 10
8.74998474E+00
 20
8.30328974E+01
 11
7.74998474E+00
 21
8.24628974E+01
  0
LINE
  8
0
 62
4
 10
9.74998474E+00
 20
8.24628974E+01
 11
8.74998474E+00
 21
8.30328974E+01
  0
LINE
  8
0
 62
4
 10
9.74998474E+00
 20
8.24628974E+01
 11
9.74998474E+00
 21
8.13028974E+01
  0
LINE
  8
0
 62
4
 10
9.74998474E+00
 20
8.13028974E+01
 11
8.74998474E+00
 21
8.07228974E+01
  0
LINE
  8
0
 62
4
 10
8.74998474E+00
 20
8.07228974E+01
 11
7.74998474E+00
 21
8.13028974E+01
  0
LINE
  8
0
 62
4
 10
7.74998474E+00
 20
8.24628974E+01
 11
7.74998474E+00
 21
8.13028974E+01
  0
CIRCLE
  8
0
 62
4
 10
8.74998474E+00
 20
8.18828974E+01
 40
2.00000000E+00
  0
CIRCLE
  8
0
 62
6
 10
8.74998474E+00
 20
8.18828974E+01
 40
1.50000000E+00
  0
LINE
  8
0
 62
4
 10
5.24998474E+00
 20
7.64096852E+01
 11
2.02499847E+01
 21
7.64096852E+01
  0
LINE
  8
0
 62
4
 10
1.77499847E+01
 20
8.24628974E+01
 11
1.67499847E+01
 21
8.30328974E+01
  0
LINE
  8
0
 62
4
 10
1.77499847E+01
 20
8.24628974E+01
 11
1.77499847E+01
 21
8.13028974E+01
  0
CIRCLE
  8
0
 62
4
 10
1.67499847E+01
 20
8.18828974E+01
 40
2.00000000E+00
  0
CIRCLE
  8
0
 62
6
 10
1.67499847E+01
 20
8.18828974E+01
 40
1.50000000E+00
  0
LINE
  8
0
 62
4
 10
1.77499847E+01
 20
8.13028974E+01
 11
1.67499847E+01
 21
8.07228974E+01
  0
LINE
  8
0
 62
4
 10
1.67499847E+01
 20
8.07228974E+01
 11
1.57499847E+01
 21
8.13028974E+01
  0
LINE
  8
0
 62
4
 10
1.57499847E+01
 20
8.24628974E+01
 11
1.57499847E+01
 21
8.13028974E+01
  0
LINE
  8
0
 62
4
 10
1.67499847E+01
 20
8.30328974E+01
 11
1.57499847E+01
 21
8.24628974E+01
  0
LINE
  8
0
 62
4
 10
3.52499847E+01
 20
9.14352739E+01
 11
3.67499847E+01
 21
9.05502229E+01
  0
LINE
  8
0
 62
4
 10
3.67499847E+01
 20
8.82855678E+01
 11
3.52499847E+01
 21
8.74358832E+01
  0
LINE
  8
0
 62
4
 10
3.67499847E+01
 20
8.82460381E+01
 11
3.52499847E+01
 21
8.73660735E+01
  0
LINE
  8
0
 62
4
 10
3.67499847E+01
 20
9.05502229E+01
 11
3.67499847E+01
 21
8.82460381E+01
  0
LINE
  8
0
 62
4
 10
-2.37499847E+01
 20
8.79006737E+01
 11
-2.37499847E+01
 21
8.75194586E+01
  0
LINE
  8
0
  6
CENTER
 62
6
 10
-3.12499847E+01
 20
1.02630809E+02
 11
-3.12499847E+01
 21
9.30308087E+01
  0
LINE
  8
0
  6
CENTER
 62
6
 10
-2.64499848E+01
 20
9.78308087E+01
 11
-3.60499848E+01
 21
9.78308087E+01
  0
LINE
  8
0
  6
CENTER
 62
6
 10
-4.62499847E+01
 20
1.01405406E+02
 11
-4.62499847E+01
 21
9.42562118E+01
  0
LINE
  8
0
  6
CENTER
 62
6
 10
-4.26753879E+01
 20
9.78308087E+01
 11
-4.98245816E+01
 21
9.78308087E+01
  0
CIRCLE
  8
0
 62
4
 10
-4.62499847E+01
 20
9.78308087E+01
 40
2.25000000E+00
  0
LINE
  8
0
  6
CENTER
 62
6
 10
-3.87499847E+01
 20
9.89813417E+01
 11
-3.87499847E+01
 21
8.96813417E+01
  0
LINE
  8
0
  6
CENTER
 62
6
 10
-3.40999847E+01
 20
9.43313417E+01
 11
-4.33999847E+01
 21
9.43313417E+01
  0
LINE
  8
0
 62
4
 10
-5.37499847E+01
 20
1.02330123E+02
 11
-5.37499847E+01
 21
9.14352739E+01
  0
LINE
  8
0
 62
4
 10
-2.37499847E+01
 20
1.02330123E+02
 11
-2.37499847E+01
 21
9.09006737E+01
  0
LINE
  8
0
 62
4
 10
-3.02499847E+01
 20
9.14352739E+01
 11
-3.02499847E+01
 21
8.75194586E+01
  0
LINE
  8
0
 62
4
 10
-5.52499847E+01
 20
9.05502229E+01
 11
-5.52499847E+01
 21
8.82460381E+01
  0
CIRCLE
  8
0
 62
4
 10
-3.12499848E+01
 20
9.78308087E+01
 40
3.80000000E+00
  0
CIRCLE
  8
0
 62
4
 10
-3.12499848E+01
 20
9.78308087E+01
 40
3.40000000E+00
  0
LINE
  8
0
 62
4
 10
-3.30177517E+01
 20
9.60630418E+01
 11
-2.94822178E+01
 21
9.95985757E+01
  0
LINE
  8
0
 62
4
 10
-3.30177517E+01
 20
9.95985757E+01
 11
-2.94822178E+01
 21
9.60630418E+01
  0
CIRCLE
  8
0
 62
4
 10
-3.87499847E+01
 20
9.43313417E+01
 40
4.15000000E+00
  0
LINE
  8
0
 62
4
 10
-4.05177518E+01
 20
9.60991087E+01
 11
-3.69822178E+01
 21
9.25635747E+01
  0
LINE
  8
0
 62
4
 10
-4.05177517E+01
 20
9.25635748E+01
 11
-3.69822179E+01
 21
9.60991087E+01
  0
LINE
  8
0
 62
4
 10
-5.37499847E+01
 20
1.02330123E+02
 11
-2.37499847E+01
 21
1.02330123E+02
  0
LINE
  8
0
 62
4
 10
-5.37499847E+01
 20
9.19317073E+01
 11
-4.21358753E+01
 21
9.19317073E+01
  0
LINE
  8
0
 62
4
 10
-3.53640942E+01
 20
9.19317073E+01
 11
-2.37499847E+01
 21
9.19317073E+01
  0
LINE
  8
0
 62
4
 10
-5.37499847E+01
 20
9.14352739E+01
 11
-4.17224065E+01
 21
9.14352739E+01
  0
LINE
  8
0
 62
4
 10
-5.37499847E+01
 20
9.14352739E+01
 11
-5.52499847E+01
 21
9.05502229E+01
  0
LINE
  8
0
 62
4
 10
-5.52499847E+01
 20
8.82855678E+01
 11
-5.38975255E+01
 21
8.75194586E+01
  0
LINE
  8
0
 62
4
 10
-5.52499847E+01
 20
8.82460381E+01
 11
-5.40114470E+01
 21
8.75194586E+01
  0
LINE
  8
0
 62
4
 10
-3.57775629E+01
 20
9.14352739E+01
 11
-3.02499847E+01
 21
9.14352739E+01
  0
LINE
  8
0
 62
4
 10
-5.37499847E+01
 20
9.14352739E+01
 11
-5.37499847E+01
 21
8.75194586E+01
  0
LINE
  8
0
 62
4
 10
-1.34990795E+02
 20
7.81844192E+01
 11
-1.30509174E+02
 21
7.81844192E+01
  0
LINE
  8
0
 62
4
 10
-1.34990795E+02
 20
7.32769420E+01
 11
-1.30509174E+02
 21
7.32769420E+01
  0
LINE
  8
0
 62
4
 10
-1.35749985E+02
 20
5.98694647E+01
 11
-1.35749985E+02
 21
7.68694646E+01
  0
LINE
  8
0
 62
4
 10
-1.34990795E+02
 20
5.85545101E+01
 11
-1.30509174E+02
 21
5.85545101E+01
  0
LINE
  8
0
 62
4
 10
-1.34990795E+02
 20
6.34619874E+01
 11
-1.30509174E+02
 21
6.34619874E+01
  0
LINE
  8
0
 62
4
 10
-1.35749985E+02
 20
7.68694647E+01
 11
-1.34990795E+02
 21
7.81844192E+01
  0
ARC
  8
0
 62
4
 10
-1.31405086E+02
 20
7.57306806E+01
 40
4.34489857E+00
 50
1.45615752E+02
 51
2.14384248E+02
  0
ARC
  8
0
 62
4
 10
-1.19509174E+02
 20
6.83694646E+01
 40
1.62408104E+01
 50
1.62412046E+02
 51
1.97587954E+02
  0
ARC
  8
0
 62
4
 10
-1.31405086E+02
 20
6.10082487E+01
 40
4.34489857E+00
 50
1.45615752E+02
 51
2.14384248E+02
  0
LINE
  8
0
 62
4
 10
-1.35749985E+02
 20
5.98694646E+01
 11
-1.34990795E+02
 21
5.85545102E+01
  0
LINE
  8
0
 62
4
 10
-1.29749985E+02
 20
5.98694647E+01
 11
-1.29749985E+02
 21
7.68694646E+01
  0
LINE
  8
0
 62
4
 10
-1.29749985E+02
 20
7.68694647E+01
 11
-1.30509174E+02
 21
7.81844192E+01
  0
ARC
  8
0
 62
4
 10
-1.34094883E+02
 20
7.57306806E+01
 40
4.34489857E+00
 50
3.25615751E+02
 51
3.43842484E+01
  0
ARC
  8
0
 62
4
 10
-1.45990795E+02
 20
6.83694646E+01
 40
1.62408104E+01
 50
3.42412046E+02
 51
1.75879541E+01
  0
ARC
  8
0
 62
4
 10
-1.34094883E+02
 20
6.10082487E+01
 40
4.34489857E+00
 50
3.25615751E+02
 51
3.43842484E+01
  0
LINE
  8
0
 62
4
 10
-1.29749985E+02
 20
5.98694646E+01
 11
-1.30509174E+02
 21
5.85545102E+01
  0
CIRCLE
  8
0
 62
7
 10
-2.12249924E+02
 20
8.48694647E+01
 40
2.45850000E+00
  0
CIRCLE
  8
0
 62
7
 10
-2.12249924E+02
 20
5.18694647E+01
 40
2.45850000E+00
  0
CIRCLE
  8
0
 62
7
 10
-2.45249924E+02
 20
5.18694647E+01
 40
2.45850000E+00
  0
CIRCLE
  8
0
 62
7
 10
-2.45249924E+02
 20
8.48694647E+01
 40
2.45850000E+00
  0
ARC
  8
0
 62
7
 10
-2.47749924E+02
 20
4.93694800E+01
 40
3.00000000E+00
 50
1.79999981E+02
 51
2.70000018E+02
  0
ARC
  8
0
 62
7
 10
-2.09749863E+02
 20
4.93694800E+01
 40
3.00000000E+00
 50
2.70000018E+02
 51
0.00000000E+00
  0
ARC
  8
0
 62
7
 10
-2.09749863E+02
 20
8.73694952E+01
 40
3.00000000E+00
 50
0.00000000E+00
 51
8.99999818E+01
  0
ARC
  8
0
 62
7
 10
-2.47749924E+02
 20
4.93694647E+01
 40
2.79999995E+00
 50
1.79999981E+02
 51
2.70000018E+02
  0
ARC
  8
0
 62
7
 10
-2.09749924E+02
 20
4.93694952E+01
 40
2.79999995E+00
 50
2.70000018E+02
 51
0.00000000E+00
  0
ARC
  8
0
 62
7
 10
-2.09749924E+02
 20
8.73694647E+01
 40
2.79999995E+00
 50
0.00000000E+00
 51
8.99999818E+01
  0
ARC
  8
0
 62
7
 10
-2.47749924E+02
 20
8.73694342E+01
 40
2.79999995E+00
 50
8.99999818E+01
 51
1.79999964E+02
  0
ARC
  8
0
 62
7
 10
-2.47749924E+02
 20
8.73694952E+01
 40
3.00000000E+00
 50
8.99999818E+01
 51
1.79999964E+02
  0
ARC
  8
0
 62
7
 10
-2.20749924E+02
 20
8.63694647E+01
 40
3.00000000E+00
 50
1.77133620E+02
 51
2.75317440E+02
  0
ARC
  8
0
 62
7
 10
-2.20379196E+02
 20
8.23866766E+01
 40
1.00000000E+00
 50
1.69828282E+01
 51
9.53179675E+01
  0
ARC
  8
0
 62
7
 10
-2.14893539E+02
 20
6.63694647E+01
 40
1.00000000E+00
 50
8.99999681E+01
 51
1.71786908E+02
  0
ARC
  8
0
 62
7
 10
-2.17849960E+02
 20
8.81694525E+01
 40
2.00000000E+00
 50
3.29489941E+02
 51
8.99999412E+01
  0
ARC
  8
0
 62
7
 10
-2.17907700E+02
 20
8.80694464E+01
 40
1.50000000E+00
 50
3.30507585E+02
 51
8.99999412E+01
  0
ARC
  8
0
 62
7
 10
-2.14732712E+02
 20
7.67401617E+01
 40
1.00000000E+00
 50
3.54682083E+02
 51
7.30172492E+01
  0
ARC
  8
0
 62
7
 10
-2.10749924E+02
 20
7.63694647E+01
 40
3.00000000E+00
 50
1.74682635E+02
 51
2.72866440E+02
  0
ARC
  8
0
 62
7
 10
-2.09049911E+02
 20
7.92117193E+01
 40
1.50000000E+00
 50
3.59999986E+02
 51
1.19492370E+02
  0
ARC
  8
0
 62
7
 10
-2.08949936E+02
 20
7.92694586E+01
 40
2.00000000E+00
 50
3.59999986E+02
 51
1.20510014E+02
  0
CIRCLE
  8
0
 62
7
 10
-2.12249924E+02
 20
8.48694647E+01
 40
4.50000000E+00
  0
ARC
  8
0
 62
7
 10
-2.12249924E+02
 20
8.48694647E+01
 40
5.00000000E+00
 50
1.50507836E+02
 51
2.99492266E+02
  0
ARC
  8
0
 62
7
 10
-2.10549911E+02
 20
7.23744696E+01
 40
1.00000000E+00
 50
3.59999986E+02
 51
9.28661070E+01
  0
ARC
  8
0
 62
7
 10
-2.12249924E+02
 20
8.48694647E+01
 40
7.50000000E+00
 50
1.96983383E+02
 51
2.53016616E+02
  0
ARC
  8
0
 62
7
 10
-2.14893539E+02
 20
7.03694647E+01
 40
1.00000000E+00
 50
1.88213065E+02
 51
2.70000018E+02
  0
ARC
  8
0
 62
7
 10
-2.10549911E+02
 20
6.63694647E+01
 40
1.00000000E+00
 50
3.59999986E+02
 51
8.99999412E+01
  0
ARC
  8
0
 62
7
 10
-2.19505783E+02
 20
8.04420050E+01
 40
1.00000000E+00
 50
3.15000624E+02
 51
3.13907981E+01
  0
ARC
  8
0
 62
7
 10
-2.20366196E+02
 20
7.95816229E+01
 40
1.00000000E+00
 50
2.33213685E+02
 51
3.15000637E+02
  0
ARC
  8
0
 62
7
 10
-2.17537766E+02
 20
7.67532232E+01
 40
1.00000000E+00
 50
1.34999973E+02
 51
2.16787008E+02
  0
ARC
  8
0
 62
7
 10
-2.16677353E+02
 20
7.76135748E+01
 40
1.00000000E+00
 50
5.86092520E+01
 51
1.34999345E+02
  0
ARC
  8
0
 62
7
 10
-2.24744980E+02
 20
8.65694769E+01
 40
1.00000000E+00
 50
3.57133929E+02
 51
9.00000500E+01
  0
ARC
  8
0
 62
7
 10
-2.10549911E+02
 20
7.03694647E+01
 40
1.00000000E+00
 50
2.70000018E+02
 51
0.00000000E+00
  0
ARC
  8
0
 62
7
 10
-2.10749924E+02
 20
6.03694647E+01
 40
3.00000000E+00
 50
8.71336247E+01
 51
1.85317430E+02
  0
ARC
  8
0
 62
7
 10
-2.14732712E+02
 20
5.99987372E+01
 40
1.00000000E+00
 50
2.86982832E+02
 51
5.31797163E+00
  0
ARC
  8
0
 62
7
 10
-2.30749924E+02
 20
5.45130804E+01
 40
1.00000000E+00
 50
3.59999973E+02
 51
8.17869052E+01
  0
ARC
  8
0
 62
7
 10
-2.08949936E+02
 20
5.74694708E+01
 40
2.00000000E+00
 50
2.39489945E+02
 51
3.59999945E+02
  0
ARC
  8
0
 62
7
 10
-2.09049973E+02
 20
5.75272101E+01
 40
1.50000000E+00
 50
2.40507589E+02
 51
3.59999945E+02
  0
ARC
  8
0
 62
7
 10
-2.20379257E+02
 20
5.43522528E+01
 40
1.00000000E+00
 50
2.64682088E+02
 51
3.43017254E+02
  0
ARC
  8
0
 62
7
 10
-2.20749924E+02
 20
5.03694647E+01
 40
3.00000000E+00
 50
8.46826453E+01
 51
1.82866444E+02
  0
ARC
  8
0
 62
7
 10
-2.17907700E+02
 20
4.86694525E+01
 40
1.50000000E+00
 50
2.69999991E+02
 51
2.94923744E+01
  0
ARC
  8
0
 62
7
 10
-2.17849960E+02
 20
4.85694769E+01
 40
2.00000000E+00
 50
2.69999991E+02
 51
3.05100179E+01
  0
CIRCLE
  8
0
 62
7
 10
-2.12249924E+02
 20
5.18694647E+01
 40
4.50000000E+00
  0
ARC
  8
0
 62
7
 10
-2.12249924E+02
 20
5.18694647E+01
 40
5.00000000E+00
 50
6.05078399E+01
 51
2.09492284E+02
  0
ARC
  8
0
 62
7
 10
-2.24744919E+02
 20
5.01694525E+01
 40
1.00000000E+00
 50
2.69999991E+02
 51
2.86611130E+00
  0
ARC
  8
0
 62
7
 10
-2.12249924E+02
 20
5.18694647E+01
 40
7.50000000E+00
 50
1.06983370E+02
 51
1.63016617E+02
  0
ARC
  8
0
 62
7
 10
-2.26749924E+02
 20
5.45130804E+01
 40
1.00000000E+00
 50
9.82130591E+01
 51
1.79999991E+02
  0
ARC
  8
0
 62
7
 10
-2.30749924E+02
 20
5.01694525E+01
 40
1.00000000E+00
 50
2.69999991E+02
 51
3.59999945E+02
  0
ARC
  8
0
 62
7
 10
-2.16677414E+02
 20
5.91253241E+01
 40
1.00000000E+00
 50
2.25000628E+02
 51
3.01390803E+02
  0
ARC
  8
0
 62
7
 10
-2.17537766E+02
 20
5.99857062E+01
 40
1.00000000E+00
 50
1.43213671E+02
 51
2.25000611E+02
  0
ARC
  8
0
 62
7
 10
-2.20366196E+02
 20
5.71572760E+01
 40
1.00000000E+00
 50
4.49999773E+01
 51
1.26787012E+02
  0
ARC
  8
0
 62
7
 10
-2.19505844E+02
 20
5.62968939E+01
 40
1.00000000E+00
 50
3.28609257E+02
 51
4.49993490E+01
  0
ARC
  8
0
 62
7
 10
-2.10549911E+02
 20
6.43644903E+01
 40
1.00000000E+00
 50
2.67133934E+02
 51
5.46415133E-05
  0
ARC
  8
0
 62
7
 10
-2.26749924E+02
 20
5.01694525E+01
 40
1.00000000E+00
 50
1.79999991E+02
 51
2.69999974E+02
  0
ARC
  8
0
 62
7
 10
-2.36749924E+02
 20
5.03694647E+01
 40
3.00000000E+00
 50
3.57133629E+02
 51
9.53174278E+01
  0
ARC
  8
0
 62
7
 10
-2.37120651E+02
 20
5.43522528E+01
 40
1.00000000E+00
 50
1.96982837E+02
 51
2.75317976E+02
  0
ARC
  8
0
 62
7
 10
-2.42606308E+02
 20
7.03694647E+01
 40
1.00000000E+00
 50
2.69999977E+02
 51
3.51786909E+02
  0
ARC
  8
0
 62
7
 10
-2.39649948E+02
 20
4.85694769E+01
 40
2.00000000E+00
 50
1.49489946E+02
 51
2.69999946E+02
  0
ARC
  8
0
 62
7
 10
-2.39592209E+02
 20
4.86694830E+01
 40
1.50000000E+00
 50
1.50507562E+02
 51
2.69999946E+02
  0
ARC
  8
0
 62
7
 10
-2.42767136E+02
 20
5.99987677E+01
 40
1.00000000E+00
 50
1.74682088E+02
 51
2.53017227E+02
  0
ARC
  8
0
 62
7
 10
-2.46749924E+02
 20
6.03694647E+01
 40
3.00000000E+00
 50
3.54682650E+02
 51
9.28664484E+01
  0
ARC
  8
0
 62
7
 10
-2.48449936E+02
 20
5.75272101E+01
 40
1.50000000E+00
 50
1.79999977E+02
 51
2.99492375E+02
  0
ARC
  8
0
 62
7
 10
-2.48549911E+02
 20
5.74694708E+01
 40
2.00000000E+00
 50
1.79999977E+02
 51
3.00510019E+02
  0
CIRCLE
  8
0
 62
7
 10
-2.45249924E+02
 20
5.18694647E+01
 40
4.50000000E+00
  0
ARC
  8
0
 62
7
 10
-2.45249924E+02
 20
5.18694647E+01
 40
5.00000000E+00
 50
3.30507844E+02
 51
1.19492288E+02
  0
ARC
  8
0
 62
7
 10
-2.46949936E+02
 20
6.43644598E+01
 40
1.00000000E+00
 50
1.79999977E+02
 51
2.72866112E+02
  0
ARC
  8
0
 62
7
 10
-2.45249924E+02
 20
5.18694647E+01
 40
7.50000000E+00
 50
1.69833747E+01
 51
7.30166213E+01
  0
ARC
  8
0
 62
7
 10
-2.42606308E+02
 20
6.63694647E+01
 40
1.00000000E+00
 50
8.21306340E+00
 51
8.99999956E+01
  0
ARC
  8
0
 62
7
 10
-2.46949936E+02
 20
7.03694647E+01
 40
1.00000000E+00
 50
1.79999977E+02
 51
2.69999946E+02
  0
ARC
  8
0
 62
7
 10
-2.37994064E+02
 20
5.62969244E+01
 40
1.00000000E+00
 50
1.35000615E+02
 51
2.11390789E+02
  0
ARC
  8
0
 62
7
 10
-2.37133713E+02
 20
5.71573065E+01
 40
1.00000000E+00
 50
5.32136794E+01
 51
1.35000615E+02
  0
ARC
  8
0
 62
7
 10
-2.39962143E+02
 20
5.99857062E+01
 40
1.00000000E+00
 50
3.14999981E+02
 51
3.67870130E+01
  0
ARC
  8
0
 62
7
 10
-2.40822495E+02
 20
5.91253546E+01
 40
1.00000000E+00
 50
2.38609261E+02
 51
3.14999353E+02
  0
ARC
  8
0
 62
7
 10
-2.32754929E+02
 20
5.01694525E+01
 40
1.00000000E+00
 50
1.77133921E+02
 51
2.70000056E+02
  0
ARC
  8
0
 62
7
 10
-2.46949936E+02
 20
6.63694647E+01
 40
1.00000000E+00
 50
8.99999956E+01
 51
1.79999977E+02
  0
ARC
  8
0
 62
7
 10
-2.39962082E+02
 20
7.67532232E+01
 40
1.00000000E+00
 50
3.23213680E+02
 51
4.50006330E+01
  0
ARC
  8
0
 62
7
 10
-2.40822495E+02
 20
7.76136053E+01
 40
1.00000000E+00
 50
4.50006194E+01
 51
1.21390794E+02
  0
ARC
  8
0
 62
7
 10
-2.37133713E+02
 20
7.95816534E+01
 40
1.00000000E+00
 50
2.24999986E+02
 51
3.06787034E+02
  0
ARC
  8
0
 62
7
 10
-2.37994064E+02
 20
8.04420355E+01
 40
1.00000000E+00
 50
1.48609248E+02
 51
2.24999340E+02
  0
ARC
  8
0
 62
7
 10
-2.46949936E+02
 20
7.23744391E+01
 40
1.00000000E+00
 50
8.71339255E+01
 51
1.80000046E+02
  0
ARC
  8
0
 62
7
 10
-2.46749924E+02
 20
7.63694647E+01
 40
3.00000000E+00
 50
2.67133634E+02
 51
5.31743887E+00
  0
ARC
  8
0
 62
7
 10
-2.42767136E+02
 20
7.67401922E+01
 40
1.00000000E+00
 50
1.06982824E+02
 51
1.85317963E+02
  0
CIRCLE
  8
0
 62
7
 10
-2.28749924E+02
 20
6.83694647E+01
 40
1.22500000E+01
  0
CIRCLE
  8
0
 62
7
 10
-2.28749924E+02
 20
6.83694647E+01
 40
1.20000000E+01
  0
ARC
  8
0
 62
7
 10
-2.48549911E+02
 20
7.92694586E+01
 40
2.00000000E+00
 50
5.94899369E+01
 51
1.79999937E+02
  0
ARC
  8
0
 62
7
 10
-2.48449936E+02
 20
7.92117193E+01
 40
1.50000000E+00
 50
6.05075804E+01
 51
1.79999937E+02
  0
ARC
  8
0
 62
7
 10
-2.32754929E+02
 20
8.65694769E+01
 40
1.00000000E+00
 50
8.99999818E+01
 51
1.82866103E+02
  0
ARC
  8
0
 62
7
 10
-2.37120651E+02
 20
8.23866766E+01
 40
1.00000000E+00
 50
8.46820787E+01
 51
1.63017245E+02
  0
ARC
  8
0
 62
7
 10
-2.36749924E+02
 20
8.63694647E+01
 40
3.00000000E+00
 50
2.64682634E+02
 51
2.86643915E+00
  0
ARC
  8
0
 62
7
 10
-2.39592209E+02
 20
8.80694769E+01
 40
1.50000000E+00
 50
8.99999818E+01
 51
2.09492366E+02
  0
ARC
  8
0
 62
7
 10
-2.39649948E+02
 20
8.81694525E+01
 40
2.00000000E+00
 50
8.99999818E+01
 51
2.10510009E+02
  0
CIRCLE
  8
0
 62
7
 10
-2.45249924E+02
 20
8.48694647E+01
 40
4.50000000E+00
  0
ARC
  8
0
 62
7
 10
-2.30749924E+02
 20
8.22258490E+01
 40
1.00000000E+00
 50
2.78213061E+02
 51
1.36603783E-05
  0
ARC
  8
0
 62
7
 10
-2.26749924E+02
 20
8.22258490E+01
 40
1.00000000E+00
 50
1.79999964E+02
 51
2.61786889E+02
  0
ARC
  8
0
 62
7
 10
-2.30749924E+02
 20
8.65694769E+01
 40
1.00000000E+00
 50
1.36603783E-05
 51
8.99999956E+01
  0
ARC
  8
0
 62
7
 10
-2.26749924E+02
 20
8.65694769E+01
 40
1.00000000E+00
 50
8.99999818E+01
 51
1.79999937E+02
  0
ARC
  8
0
 62
7
 10
-2.45249924E+02
 20
8.48694647E+01
 40
5.00000000E+00
 50
2.40507862E+02
 51
2.94922651E+01
  0
CIRCLE
  8
0
 62
2
 10
-2.12249924E+02
 20
5.18694647E+01
 40
3.00000000E+00
  0
CIRCLE
  8
0
 62
2
 10
-2.45249924E+02
 20
5.18694647E+01
 40
3.00000000E+00
  0
ARC
  8
0
 62
7
 10
-2.45249924E+02
 20
8.48694647E+01
 40
7.50000000E+00
 50
2.86983379E+02
 51
3.43016612E+02
  0
CIRCLE
  8
0
 62
2
 10
-2.45249924E+02
 20
8.48694647E+01
 40
3.00000000E+00
  0
CIRCLE
  8
0
 62
7
 10
-2.28749924E+02
 20
6.83694647E+01
 40
1.30000000E+01
  0
CIRCLE
  8
0
 62
7
 10
-2.28749924E+02
 20
6.83694647E+01
 40
4.00000000E+00
  0
CIRCLE
  8
0
 62
2
 10
-2.28749924E+02
 20
6.83694647E+01
 40
4.30000019E+00
  0
CIRCLE
  8
0
 62
7
 10
-2.28749924E+02
 20
6.83694647E+01
 40
5.00000000E+00
  0
CIRCLE
  8
0
 62
2
 10
-2.12249924E+02
 20
8.48694647E+01
 40
3.00000000E+00
  0
LINE
  8
0
 62
7
 10
-2.11749924E+02
 20
9.03694952E+01
 11
-2.11749924E+02
 21
9.01694677E+01
  0
LINE
  8
0
 62
7
 10
-2.45749924E+02
 20
9.03694952E+01
 11
-2.45749924E+02
 21
9.01694372E+01
  0
LINE
  8
0
 62
7
 10
-2.18749924E+02
 20
4.71694677E+01
 11
-2.18749924E+02
 21
4.63694800E+01
  0
LINE
  8
0
 62
7
 10
-2.38749924E+02
 20
4.71694677E+01
 11
-2.38749924E+02
 21
4.63694800E+01
  0
LINE
  8
0
 62
7
 10
-2.18749924E+02
 20
9.03694952E+01
 11
-2.18749924E+02
 21
8.95694616E+01
  0
LINE
  8
0
 62
7
 10
-2.38749924E+02
 20
9.03694952E+01
 11
-2.38749924E+02
 21
8.95694616E+01
  0
LINE
  8
0
 62
7
 10
-2.10549911E+02
 20
6.73694800E+01
 11
-2.14893539E+02
 21
6.73694800E+01
  0
LINE
  8
0
 62
7
 10
-2.10549911E+02
 20
6.93694800E+01
 11
-2.14893539E+02
 21
6.93694800E+01
  0
LINE
  8
0
 62
7
 10
-2.18798787E+02
 20
7.97349113E+01
 11
-2.19659150E+02
 21
7.88745493E+01
  0
LINE
  8
0
 62
7
 10
-2.17384574E+02
 20
7.83207405E+01
 11
-2.18244936E+02
 21
7.74603785E+01
  0
LINE
  8
0
 62
7
 10
-2.32754929E+02
 20
8.75694922E+01
 11
-2.24744980E+02
 21
8.75694311E+01
  0
LINE
  8
0
 62
7
 10
-2.07549911E+02
 20
5.75272101E+01
 11
-2.07549911E+02
 21
7.92117193E+01
  0
LINE
  8
0
 62
7
 10
-2.06949936E+02
 20
8.73694647E+01
 11
-2.06949936E+02
 21
7.92694586E+01
  0
LINE
  8
0
 62
7
 10
-2.09749924E+02
 20
9.01694677E+01
 11
-2.18749924E+02
 21
9.01694677E+01
  0
LINE
  8
0
 62
7
 10
-2.29749924E+02
 20
5.01694525E+01
 11
-2.29749924E+02
 21
5.45130804E+01
  0
LINE
  8
0
 62
7
 10
-2.27749924E+02
 20
5.01694525E+01
 11
-2.27749924E+02
 21
5.45130804E+01
  0
LINE
  8
0
 62
7
 10
-2.17384556E+02
 20
5.84182179E+01
 11
-2.18244918E+02
 21
5.92785802E+01
  0
LINE
  8
0
 62
7
 10
-2.18798824E+02
 20
5.70040800E+01
 11
-2.19659186E+02
 21
5.78644423E+01
  0
LINE
  8
0
 62
7
 10
-2.09549973E+02
 20
6.43644903E+01
 11
-2.09549911E+02
 21
7.23744696E+01
  0
LINE
  8
0
 62
7
 10
-2.09749924E+02
 20
4.65694922E+01
 11
-2.17849960E+02
 21
4.65694922E+01
  0
LINE
  8
0
 62
7
 10
-2.06949936E+02
 20
4.93694952E+01
 11
-2.06949936E+02
 21
5.74694708E+01
  0
LINE
  8
0
 62
7
 10
-2.46949936E+02
 20
6.93694494E+01
 11
-2.42606308E+02
 21
6.93694494E+01
  0
LINE
  8
0
 62
7
 10
-2.46949936E+02
 20
6.73694494E+01
 11
-2.42606308E+02
 21
6.73694494E+01
  0
LINE
  8
0
 62
7
 10
-2.38701221E+02
 20
5.70041069E+01
 11
-2.37840837E+02
 21
5.78644907E+01
  0
LINE
  8
0
 62
7
 10
-2.40115392E+02
 20
5.84182774E+01
 11
-2.39255029E+02
 21
5.92786396E+01
  0
LINE
  8
0
 62
7
 10
-2.32754929E+02
 20
4.91694983E+01
 11
-2.24744919E+02
 21
4.91694372E+01
  0
LINE
  8
0
 62
7
 10
-2.39592209E+02
 20
4.71694677E+01
 11
-2.17907700E+02
 21
4.71694677E+01
  0
LINE
  8
0
 62
7
 10
-2.49949936E+02
 20
5.75272101E+01
 11
-2.49949936E+02
 21
7.92117193E+01
  0
LINE
  8
0
 62
7
 10
-2.50549911E+02
 20
4.93694647E+01
 11
-2.50549911E+02
 21
5.74694708E+01
  0
LINE
  8
0
 62
7
 10
-2.47749924E+02
 20
4.65694616E+01
 11
-2.39649948E+02
 21
4.65694616E+01
  0
LINE
  8
0
 62
7
 10
-2.40115398E+02
 20
7.83205915E+01
 11
-2.39255036E+02
 21
7.74602291E+01
  0
LINE
  8
0
 62
7
 10
-2.38701173E+02
 20
7.97348155E+01
 11
-2.37840811E+02
 21
7.88744531E+01
  0
LINE
  8
0
  6
CENTER
 62
2
 10
-2.31749924E+02
 20
9.26995123E+01
 11
-2.31749924E+02
 21
8.29524878E+01
  0
LINE
  8
0
 62
7
 10
-2.27749924E+02
 20
8.65694769E+01
 11
-2.27749924E+02
 21
8.22258490E+01
  0
LINE
  8
0
 62
7
 10
-2.29749924E+02
 20
8.65694769E+01
 11
-2.29749924E+02
 21
8.22258490E+01
  0
LINE
  8
0
  6
CENTER
 62
2
 10
-2.52305588E+02
 20
8.48694647E+01
 11
-2.38617905E+02
 21
8.48694647E+01
  0
LINE
  8
0
  6
CENTER
 62
2
 10
-2.45249924E+02
 20
9.20829046E+01
 11
-2.45249924E+02
 21
7.82606848E+01
  0
LINE
  8
0
  6
CENTER
 62
2
 10
-2.12249924E+02
 20
9.19251593E+01
 11
-2.12249924E+02
 21
7.82374762E+01
  0
LINE
  8
0
  6
CENTER
 62
2
 10
-2.05036484E+02
 20
8.48695105E+01
 11
-2.18858688E+02
 21
8.48695105E+01
  0
LINE
  8
0
  6
CENTER
 62
2
 10
-2.05194199E+02
 20
5.18695105E+01
 11
-2.18881882E+02
 21
5.18695105E+01
  0
LINE
  8
0
  6
CENTER
 62
2
 10
-2.12249863E+02
 20
4.46560248E+01
 11
-2.12249863E+02
 21
5.84782446E+01
  0
LINE
  8
0
  6
CENTER
 62
2
 10
-2.52463364E+02
 20
5.18694647E+01
 11
-2.38641159E+02
 21
5.18694647E+01
  0
LINE
  8
0
  6
CENTER
 62
2
 10
-2.45249863E+02
 20
4.48137701E+01
 11
-2.45249863E+02
 21
5.85014532E+01
  0
LINE
  8
0
  6
CENTER
 62
2
 10
-2.28749924E+02
 20
9.26995123E+01
 11
-2.28749924E+02
 21
4.35023687E+01
  0
LINE
  8
0
  6
CENTER
 62
2
 10
-2.53148972E+02
 20
6.83694647E+01
 11
-2.03790085E+02
 21
6.83694647E+01
  0
LINE
  8
0
 62
7
 10
-2.47749924E+02
 20
4.63694800E+01
 11
-2.09749863E+02
 21
4.63694800E+01
  0
LINE
  8
0
 62
7
 10
-2.06749863E+02
 20
4.93694800E+01
 11
-2.06749863E+02
 21
8.73694952E+01
  0
LINE
  8
0
 62
7
 10
-2.47749924E+02
 20
9.03694952E+01
 11
-2.09749863E+02
 21
9.03694952E+01
  0
LINE
  8
0
 62
7
 10
-2.50749924E+02
 20
4.93694800E+01
 11
-2.50749924E+02
 21
8.73694952E+01
  0
LINE
  8
0
 62
7
 10
-2.47949936E+02
 20
6.43644598E+01
 11
-2.47949875E+02
 21
7.23744391E+01
  0
LINE
  8
0
 62
7
 10
-2.39592209E+02
 20
8.95694616E+01
 11
-2.17907700E+02
 21
8.95694616E+01
  0
LINE
  8
0
 62
7
 10
-2.47749924E+02
 20
9.01694372E+01
 11
-2.38749924E+02
 21
9.01694372E+01
  0
LINE
  8
0
 62
7
 10
-2.50549911E+02
 20
8.73694342E+01
 11
-2.50549911E+02
 21
7.92694586E+01
  0
LINE
  8
0
 62
7
 10
-2.15249863E+02
 20
5.01374701E+01
 11
-2.15249863E+02
 21
5.36015509E+01
  0
LINE
  8
0
 62
7
 10
-2.15250161E+02
 20
5.36018920E+01
 11
-2.12250184E+02
 21
5.53339413E+01
  0
LINE
  8
0
 62
7
 10
-2.12249974E+02
 20
5.53334826E+01
 11
-2.09249972E+02
 21
5.36014171E+01
  0
LINE
  8
0
 62
7
 10
-2.09249863E+02
 20
5.36015509E+01
 11
-2.09249863E+02
 21
5.01374701E+01
  0
LINE
  8
0
 62
7
 10
-2.12250091E+02
 20
4.84057447E+01
 11
-2.09250114E+02
 21
5.01377940E+01
  0
LINE
  8
0
 62
7
 10
-2.15250031E+02
 20
5.01373321E+01
 11
-2.12250055E+02
 21
4.84052818E+01
  0
LINE
  8
0
 62
7
 10
-2.48249863E+02
 20
5.01374701E+01
 11
-2.48249863E+02
 21
5.36015509E+01
  0
LINE
  8
0
 62
7
 10
-2.48250212E+02
 20
5.36021183E+01
 11
-2.45250262E+02
 21
5.53341523E+01
  0
LINE
  8
0
 62
7
 10
-2.45250170E+02
 20
5.53335363E+01
 11
-2.42250220E+02
 21
5.36015012E+01
  0
LINE
  8
0
 62
7
 10
-2.42249863E+02
 20
5.36015509E+01
 11
-2.42249863E+02
 21
5.01374701E+01
  0
LINE
  8
0
 62
7
 10
-2.45250082E+02
 20
4.84056533E+01
 11
-2.42250105E+02
 21
5.01377026E+01
  0
LINE
  8
0
 62
7
 10
-2.48250115E+02
 20
5.01373961E+01
 11
-2.45250112E+02
 21
4.84053305E+01
  0
LINE
  8
0
 62
7
 10
-2.42249924E+02
 20
8.66015509E+01
 11
-2.42249924E+02
 21
8.31374701E+01
  0
LINE
  8
0
 62
7
 10
-2.42249875E+02
 20
8.31373623E+01
 11
-2.45249851E+02
 21
8.14053126E+01
  0
LINE
  8
0
 62
7
 10
-2.45250060E+02
 20
8.14054300E+01
 11
-2.48250063E+02
 21
8.31374949E+01
  0
LINE
  8
0
 62
7
 10
-2.48249924E+02
 20
8.31374701E+01
 11
-2.48249924E+02
 21
8.66015509E+01
  0
LINE
  8
0
 62
7
 10
-2.45249898E+02
 20
8.83333955E+01
 11
-2.48249848E+02
 21
8.66013611E+01
  0
LINE
  8
0
 62
7
 10
-2.42250052E+02
 20
8.66015598E+01
 11
-2.45250107E+02
 21
8.83336553E+01
  0
LINE
  8
0
 62
7
 10
-2.09249924E+02
 20
8.66015509E+01
 11
-2.09249924E+02
 21
8.31374701E+01
  0
LINE
  8
0
 62
7
 10
-2.09250023E+02
 20
8.31376720E+01
 11
-2.12250000E+02
 21
8.14056232E+01
  0
LINE
  8
0
 62
7
 10
-2.12249866E+02
 20
8.14054015E+01
 11
-2.15249869E+02
 21
8.31374675E+01
  0
LINE
  8
0
 62
7
 10
-2.15249924E+02
 20
8.31374701E+01
 11
-2.15249924E+02
 21
8.66015509E+01
  0
LINE
  8
0
 62
7
 10
-2.12250169E+02
 20
8.83339518E+01
 11
-2.15250146E+02
 21
8.66019029E+01
  0
LINE
  8
0
 62
7
 10
-2.09249816E+02
 20
8.66014783E+01
 11
-2.12249871E+02
 21
8.83335748E+01
  0
CIRCLE
  8
0
 62
4
 10
-2.28749924E+02
 20
6.83694647E+01
 40
8.50000000E+00
  0
LINE
  8
0
 62
4
 10
-2.28749924E+02
 20
7.81844193E+01
 11
-2.37249924E+02
 21
7.32769420E+01
  0
LINE
  8
0
 62
4
 10
-2.37249924E+02
 20
7.32769420E+01
 11
-2.37249924E+02
 21
6.34619874E+01
  0
LINE
  8
0
 62
4
 10
-2.37249924E+02
 20
6.34619874E+01
 11
-2.28749924E+02
 21
5.85545101E+01
  0
LINE
  8
0
 62
4
 10
-2.28749924E+02
 20
5.85545101E+01
 11
-2.20249924E+02
 21
6.34619874E+01
  0
LINE
  8
0
 62
4
 10
-2.20249924E+02
 20
6.34619874E+01
 11
-2.20249924E+02
 21
7.32769420E+01
  0
LINE
  8
0
 62
4
 10
-2.20249924E+02
 20
7.32769420E+01
 11
-2.28749924E+02
 21
7.81844193E+01
  0
LINE
  8
0
 62
4
 10
-2.44899331E+02
 20
1.02028197E+02
 11
-2.53141095E+02
 21
8.71596617E+01
  0
LINE
  8
0
 62
4
 10
-2.38743174E+02
 20
9.31342819E+01
 11
-2.38694914E+02
 21
9.03694952E+01
  0
LINE
  8
0
 62
4
 10
-2.31212902E+02
 20
9.14654491E+01
 11
-2.31193772E+02
 21
9.03694952E+01
  0
LINE
  8
0
 62
4
 10
-2.38151991E+02
 20
9.36446772E+01
 11
-2.38094823E+02
 21
9.03694952E+01
  0
LINE
  8
0
 62
4
 10
-2.28066449E+02
 20
9.05502229E+01
 11
-2.28063295E+02
 21
9.03694952E+01
  0
LINE
  8
0
 62
4
 10
-2.31211156E+02
 20
9.13654643E+01
 11
-2.30331105E+02
 21
9.05106932E+01
  0
LINE
  8
0
 62
4
 10
-2.30331105E+02
 20
9.05106932E+01
 11
-2.28066449E+02
 21
9.05502229E+01
  0
LINE
  8
0
 62
4
 10
-2.27211766E+02
 20
9.14352740E+01
 11
-2.27193162E+02
 21
9.03694952E+01
  0
LINE
  8
0
  6
CENTER
 62
6
 10
-2.29228913E+02
 20
9.24002168E+01
 11
-2.29124199E+02
 21
8.64011307E+01
  0
LINE
  8
0
 62
4
 10
-2.27013135E+02
 20
9.03694952E+01
 11
-2.27154832E+02
 21
9.84873417E+01
  0
ARC
  8
0
 62
4
 10
-2.36380590E+02
 20
9.41679338E+01
 40
1.18100000E+01
 50
3.41238531E+02
 51
9.99999999E-01
  0
LINE
  8
0
  6
CENTER
 62
6
 10
-2.28270934E+02
 20
9.24002626E+01
 11
-2.28375648E+02
 21
8.64011765E+01
  0
LINE
  8
0
  6
DASHED
 62
4
 10
-2.30288082E+02
 20
9.14353197E+01
 11
-2.30306686E+02
 21
9.03694952E+01
  0
LINE
  8
0
 62
4
 10
-2.19347856E+02
 20
9.36447230E+01
 11
-2.19405025E+02
 21
9.03694952E+01
  0
LINE
  8
0
  6
DASHED
 62
4
 10
-2.26286946E+02
 20
9.14654949E+01
 11
-2.26306077E+02
 21
9.03694952E+01
  0
LINE
  8
0
 62
4
 10
-2.18756674E+02
 20
9.31343277E+01
 11
-2.18804934E+02
 21
9.03694952E+01
  0
LINE
  8
0
 62
4
 10
-2.12600516E+02
 20
1.02028243E+02
 11
-2.04358752E+02
 21
8.71597075E+01
  0
ARC
  8
0
  6
DASHED
 62
4
 10
-2.28323291E+02
 20
8.94007195E+01
 40
1.50000000E+00
 50
4.02294692E+01
 51
1.39770531E+02
  0
ARC
  8
0
  6
DASHED
 62
4
 10
-2.28310202E+02
 20
9.01506053E+01
 40
5.00000000E-01
 50
2.59623094E+01
 51
1.54037690E+02
  0
LINE
  8
0
  6
DASHED
 62
4
 10
-2.30486713E+02
 20
9.03694952E+01
 11
-2.30422678E+02
 21
9.40380652E+01
  0
ARC
  8
0
  6
DASHED
 62
4
 10
-2.21119258E+02
 20
9.41679796E+01
 40
1.18100000E+01
 50
1.79000000E+02
 51
1.98761704E+02
  0
LINE
  8
0
  6
DASHED
 62
4
 10
-2.30106655E+02
 20
9.03694952E+01
 11
-2.29898582E+02
 21
1.02290036E+02
  0
LINE
  8
0
  6
CENTER
 62
2
 10
-2.31749924E+02
 20
9.26995123E+01
 11
-2.31749924E+02
 21
8.29524878E+01
  0
LINE
  8
0
  6
CENTER
 62
2
 10
-2.45249924E+02
 20
9.20829046E+01
 11
-2.45249924E+02
 21
7.82606848E+01
  0
LINE
  8
0
  6
CENTER
 62
2
 10
-2.28749924E+02
 20
9.26995123E+01
 11
-2.28749924E+02
 21
4.35023687E+01
  0
LINE
  8
0
 10
-2.29898582E+02
 20
1.02290036E+02
 11
-2.29897881E+02
 21
1.02330169E+02
  0
LINE
  8
0
  6
DASHED
 62
4
 10
-2.28748612E+02
 20
1.02310109E+02
 11
-2.27601267E+02
 21
1.02290082E+02
  0
ARC
  8
0
  6
DASHED
 62
4
 10
-2.21118987E+02
 20
9.41834538E+01
 40
1.18100000E+01
 50
1.76900933E+02
 51
1.79000000E+02
  0
LINE
  8
0
  6
DASHED
 62
4
 10
-2.31042584E+02
 20
9.40488857E+01
 11
-2.30909945E+02
 21
1.01647728E+02
  0
LINE
  8
0
  6
DASHED
 62
4
 10
-2.30916926E+02
 20
1.01247789E+02
 11
-2.32046754E+02
 21
1.01267510E+02
  0
LINE
  8
0
  6
DASHED
 62
4
 10
-2.31035603E+02
 20
9.44488248E+01
 11
-2.32165431E+02
 21
9.44685460E+01
  0
ARC
  8
0
  6
DASHED
 62
4
 10
-2.21568287E+02
 20
9.76840901E+01
 40
1.18100000E+01
 50
1.66172490E+02
 51
1.91827510E+02
  0
ARC
  8
0
  6
DASHED
 62
4
 10
-2.32065009E+02
 20
1.00267677E+02
 40
1.00000000E+00
 50
8.89999998E+01
 51
1.66172490E+02
  0
ARC
  8
0
  6
DASHED
 62
4
 10
-2.32148781E+02
 20
9.54684074E+01
 40
1.00000000E+00
 50
1.91827510E+02
 51
2.69000000E+02
  0
LINE
  8
0
  6
DASHED
 62
4
 10
-2.29910098E+02
 20
1.01630276E+02
 11
-2.30909945E+02
 21
1.01647728E+02
  0
LINE
  8
0
  6
DASHED
 62
4
 10
-2.30042736E+02
 20
9.40314333E+01
 11
-2.31042584E+02
 21
9.40488857E+01
  0
LINE
  8
0
 62
4
 10
-2.27601267E+02
 20
1.02290082E+02
 11
-2.12600516E+02
 21
1.02028243E+02
  0
LINE
  8
0
 62
4
 10
-2.19747795E+02
 20
9.36517039E+01
 11
-2.19247871E+02
 21
9.36429777E+01
  0
ARC
  8
0
 62
4
 10
-2.19256598E+02
 20
9.31430539E+01
 40
5.00000000E-01
 50
3.59000000E+02
 51
8.89999998E+01
  0
LINE
  8
0
  6
CENTER
 62
6
 10
-2.18177135E+02
 20
9.41243641E+01
 11
-2.31223893E+02
 21
9.43520961E+01
  0
LINE
  8
0
  6
CENTER
 62
6
 10
-2.08741165E+02
 20
9.74601918E+01
 11
-2.31162809E+02
 21
9.78515631E+01
  0
LINE
  8
0
  6
DASHED
 62
4
 10
-2.26786870E+02
 20
9.14742211E+01
 11
-2.27179828E+02
 21
9.18811411E+01
  0
LINE
  8
0
  6
DASHED
 62
4
 10
-2.27179828E+02
 20
9.18811411E+01
 11
-2.30079386E+02
 21
9.19317531E+01
  0
LINE
  8
0
  6
DASHED
 62
4
 10
-2.26286946E+02
 20
9.14654949E+01
 11
-2.26786870E+02
 21
9.14742211E+01
  0
LINE
  8
0
 62
4
 10
-2.19599450E+02
 20
1.02150409E+02
 11
-2.19747795E+02
 21
9.36517039E+01
  0
LINE
  8
0
 62
4
 10
-2.29897881E+02
 20
1.02330169E+02
 11
-2.28748612E+02
 21
1.02310109E+02
  0
LINE
  8
0
  6
DASHED
 62
4
 10
-2.26288691E+02
 20
9.13655101E+01
 11
-2.30288082E+02
 21
9.14353197E+01
  0
LINE
  8
0
 62
4
 10
-2.27411735E+02
 20
9.14317835E+01
 11
-2.27601966E+02
 21
1.02330123E+02
  0
ARC
  8
0
 62
4
 10
-2.36380860E+02
 20
9.41834081E+01
 40
1.18100000E+01
 50
9.99999999E-01
 51
2.15326990E+01
  0
LINE
  8
0
 62
4
 10
-2.27154832E+02
 20
9.84873417E+01
 11
-2.25395101E+02
 21
9.85180579E+01
  0
LINE
  8
0
 62
4
 10
-2.27532157E+02
 20
9.83307326E+01
 11
-2.27152215E+02
 21
9.83373645E+01
  0
LINE
  8
0
 62
4
 10
-2.26534927E+02
 20
9.84981621E+01
 11
-2.26589902E+02
 21
1.01647682E+02
  0
LINE
  8
0
 62
4
 10
-2.26582921E+02
 20
1.01247743E+02
 11
-2.25453093E+02
 21
1.01267465E+02
  0
ARC
  8
0
 62
4
 10
-2.35931561E+02
 20
9.76840443E+01
 40
1.18100000E+01
 50
3.48172490E+02
 51
1.38275101E+01
  0
ARC
  8
0
 62
4
 10
-2.25434838E+02
 20
1.00267631E+02
 40
1.00000000E+00
 50
1.38275101E+01
 51
9.10000000E+01
  0
ARC
  8
0
 62
4
 10
-2.25351067E+02
 20
9.54683616E+01
 40
1.00000000E+00
 50
3.19723662E+02
 51
3.48172490E+02
  0
LINE
  8
0
 62
4
 10
-2.27589750E+02
 20
1.01630230E+02
 11
-2.26589902E+02
 21
1.01647682E+02
  0
LINE
  8
0
 62
4
 10
-2.31211156E+02
 20
9.13654643E+01
 11
-2.27211766E+02
 21
9.14352740E+01
  0
LINE
  8
0
 62
4
 10
-2.27211766E+02
 20
9.14352740E+01
 11
-2.28066449E+02
 21
9.05502229E+01
  0
LINE
  8
0
 62
4
 10
-2.44899331E+02
 20
1.02028197E+02
 11
-2.27601966E+02
 21
1.02330123E+02
  0
LINE
  8
0
 62
4
 10
-2.37900398E+02
 20
1.02150364E+02
 11
-2.37752052E+02
 21
9.36516582E+01
  0
LINE
  8
0
 62
4
 10
-2.31212902E+02
 20
9.14654491E+01
 11
-2.30712978E+02
 21
9.14741753E+01
  0
LINE
  8
0
 62
4
 10
-2.30320020E+02
 20
9.18810954E+01
 11
-2.27420461E+02
 21
9.19317073E+01
  0
LINE
  8
0
 62
4
 10
-2.30712978E+02
 20
9.14741753E+01
 11
-2.30320020E+02
 21
9.18810954E+01
  0
LINE
  8
0
  6
CENTER
 62
6
 10
-2.48758682E+02
 20
9.74601460E+01
 11
-2.26337038E+02
 21
9.78515173E+01
  0
LINE
  8
0
  6
CENTER
 62
6
 10
-2.39322712E+02
 20
9.41243184E+01
 11
-2.26275955E+02
 21
9.43520504E+01
  0
ARC
  8
0
 62
4
 10
-2.38243250E+02
 20
9.31430081E+01
 40
5.00000000E-01
 50
9.10000000E+01
 51
1.81000000E+02
  0
LINE
  8
0
 62
4
 10
-2.37752052E+02
 20
9.36516582E+01
 11
-2.38251976E+02
 21
9.36429320E+01
  0
LINE
  8
0
 62
6
 10
-2.56106964E+02
 20
8.03292917E+01
 11
-2.53022810E+02
 21
8.03831258E+01
  0
LINE
  8
0
 62
6
 10
-2.56159322E+02
 20
8.33288347E+01
 11
-2.53075167E+02
 21
8.33826689E+01
  0
LINE
  8
0
 62
4
 10
-2.56098238E+02
 20
7.98293678E+01
 11
-2.56168048E+02
 21
8.38287586E+01
  0
LINE
  8
0
 62
4
 10
-2.56098238E+02
 20
7.98293678E+01
 11
-2.53014084E+02
 21
7.98832019E+01
  0
LINE
  8
0
 62
4
 10
-2.56168048E+02
 20
8.38287586E+01
 11
-2.53083894E+02
 21
8.38825927E+01
  0
LINE
  8
0
 62
4
 10
-2.53141095E+02
 20
8.71596617E+01
 11
-2.52979179E+02
 21
7.78835066E+01
  0
ARC
  8
0
 62
4
 10
-2.51479408E+02
 20
7.79096852E+01
 40
1.50000000E+00
 50
1.81000000E+02
 51
2.71000000E+02
  0
LINE
  8
0
  6
CENTER
 62
6
 10
-2.47294534E+02
 20
8.19833418E+01
 11
-2.54874558E+02
 21
8.18510319E+01
  0
LINE
  8
0
 62
4
 10
-2.51453229E+02
 20
7.64099137E+01
 11
-2.50749924E+02
 21
7.64221899E+01
  0
LINE
  8
0
 62
4
 10
-2.01401609E+02
 20
7.98294136E+01
 11
-2.01331800E+02
 21
8.38288044E+01
  0
LINE
  8
0
  6
CENTER
 62
6
 10
-2.10205314E+02
 20
8.19833875E+01
 11
-2.02625289E+02
 21
8.18510777E+01
  0
LINE
  8
0
 62
4
 10
-2.04358752E+02
 20
8.71597075E+01
 11
-2.04520668E+02
 21
7.78835524E+01
  0
LINE
  8
0
 62
4
 10
-2.01331800E+02
 20
8.38288044E+01
 11
-2.04415954E+02
 21
8.38826385E+01
  0
LINE
  8
0
 62
6
 10
-2.01340526E+02
 20
8.33288805E+01
 11
-2.04424680E+02
 21
8.33827146E+01
  0
LINE
  8
0
 62
6
 10
-2.01392883E+02
 20
8.03293374E+01
 11
-2.04477037E+02
 21
8.03831715E+01
  0
ARC
  8
0
 62
4
 10
-2.06020440E+02
 20
7.79097310E+01
 40
1.50000000E+00
 50
2.69000000E+02
 51
3.59000000E+02
  0
LINE
  8
0
 62
4
 10
-2.01401609E+02
 20
7.98294136E+01
 11
-2.04485763E+02
 21
7.98832477E+01
  0
LINE
  8
0
 62
4
 10
-2.06046618E+02
 20
7.64099594E+01
 11
-2.06749863E+02
 21
7.64222346E+01
  0
CIRCLE
  8
0
 62
7
 10
1.59094376E+02
 20
5.18694647E+01
 40
2.45850000E+00
  0
CIRCLE
  8
0
 62
7
 10
1.92094376E+02
 20
5.18694647E+01
 40
2.45850000E+00
  0
CIRCLE
  8
0
 62
7
 10
1.92094376E+02
 20
8.48694647E+01
 40
2.45850000E+00
  0
CIRCLE
  8
0
 62
7
 10
1.59094376E+02
 20
8.48694647E+01
 40
2.45850000E+00
  0
LINE
  8
0
  6
CENTER
 62
2
 10
1.51264328E+02
 20
6.83694647E+01
 11
2.00461472E+02
 21
6.83694647E+01
  0
ARC
  8
0
 62
7
 10
1.94594376E+02
 20
4.93694799E+01
 40
3.00000000E+00
 50
2.69999984E+02
 51
1.86693353E-05
  0
ARC
  8
0
 62
7
 10
1.94594376E+02
 20
8.73694952E+01
 40
3.00000000E+00
 50
3.59721781E-05
 51
9.00000162E+01
  0
ARC
  8
0
 62
7
 10
1.67594376E+02
 20
8.63694647E+01
 40
3.00000000E+00
 50
2.64682559E+02
 51
2.86637960E+00
  0
ARC
  8
0
 62
7
 10
1.67223648E+02
 20
8.23866766E+01
 40
1.00000000E+00
 50
8.46820311E+01
 51
1.63017177E+02
  0
ARC
  8
0
 62
7
 10
1.61737991E+02
 20
6.63694647E+01
 40
1.00000000E+00
 50
8.21309245E+00
 51
9.00000300E+01
  0
ARC
  8
0
 62
7
 10
1.64694412E+02
 20
8.81694525E+01
 40
2.00000000E+00
 50
9.00000569E+01
 51
2.10510064E+02
  0
ARC
  8
0
 62
7
 10
1.64752151E+02
 20
8.80694464E+01
 40
1.50000000E+00
 50
9.00000569E+01
 51
2.09492420E+02
  0
ARC
  8
0
 62
7
 10
1.61577164E+02
 20
7.67401617E+01
 40
1.00000000E+00
 50
1.06982749E+02
 51
1.85317922E+02
  0
ARC
  8
0
 62
7
 10
1.57594376E+02
 20
7.63694647E+01
 40
3.00000000E+00
 50
2.67133559E+02
 51
5.31736545E+00
  0
ARC
  8
0
 62
7
 10
1.55894363E+02
 20
7.92117193E+01
 40
1.50000000E+00
 50
6.05076279E+01
 51
1.80000019E+02
  0
ARC
  8
0
 62
7
 10
1.55794388E+02
 20
7.92694586E+01
 40
2.00000000E+00
 50
5.94899844E+01
 51
1.80000019E+02
  0
CIRCLE
  8
0
 62
7
 10
1.59094376E+02
 20
8.48694647E+01
 40
4.50000000E+00
  0
ARC
  8
0
 62
7
 10
1.59094376E+02
 20
8.48694647E+01
 40
5.00000000E+00
 50
2.40507739E+02
 51
2.94921660E+01
  0
ARC
  8
0
 62
7
 10
1.57394363E+02
 20
7.23744696E+01
 40
1.00000000E+00
 50
8.71338911E+01
 51
1.80000019E+02
  0
ARC
  8
0
 62
7
 10
1.59094376E+02
 20
8.48694647E+01
 40
7.50000000E+00
 50
2.86983386E+02
 51
3.43016617E+02
  0
ARC
  8
0
 62
7
 10
1.61737991E+02
 20
7.03694647E+01
 40
1.00000000E+00
 50
2.69999984E+02
 51
3.51786935E+02
  0
ARC
  8
0
 62
7
 10
1.57394363E+02
 20
6.63694647E+01
 40
1.00000000E+00
 50
9.00000569E+01
 51
1.80000019E+02
  0
ARC
  8
0
 62
7
 10
1.66350235E+02
 20
8.04420050E+01
 40
1.00000000E+00
 50
1.48609207E+02
 51
2.24999381E+02
  0
ARC
  8
0
 62
7
 10
1.67210648E+02
 20
7.95816229E+01
 40
1.00000000E+00
 50
2.24999358E+02
 51
3.06786314E+02
  0
ARC
  8
0
 62
7
 10
1.64382217E+02
 20
7.67532232E+01
 40
1.00000000E+00
 50
3.23212994E+02
 51
4.50000286E+01
  0
ARC
  8
0
 62
7
 10
1.63521805E+02
 20
7.76135748E+01
 40
1.00000000E+00
 50
4.50006569E+01
 51
1.21390753E+02
  0
ARC
  8
0
 62
7
 10
1.71589432E+02
 20
8.65694769E+01
 40
1.00000000E+00
 50
8.99999480E+01
 51
1.82866075E+02
  0
ARC
  8
0
 62
7
 10
1.57394363E+02
 20
7.03694647E+01
 40
1.00000000E+00
 50
1.79999995E+02
 51
2.69999984E+02
  0
ARC
  8
0
 62
7
 10
1.57594376E+02
 20
6.03694647E+01
 40
3.00000000E+00
 50
3.54682570E+02
 51
9.28663734E+01
  0
ARC
  8
0
 62
7
 10
1.61577164E+02
 20
5.99987371E+01
 40
1.00000000E+00
 50
1.74682034E+02
 51
2.53017172E+02
  0
ARC
  8
0
 62
7
 10
1.77594376E+02
 20
5.45130804E+01
 40
1.00000000E+00
 50
9.82130935E+01
 51
1.80000032E+02
  0
ARC
  8
0
 62
7
 10
1.55794388E+02
 20
5.74694708E+01
 40
2.00000000E+00
 50
1.80000050E+02
 51
3.00510056E+02
  0
ARC
  8
0
 62
7
 10
1.55894424E+02
 20
5.75272100E+01
 40
1.50000000E+00
 50
1.80000050E+02
 51
2.99492413E+02
  0
ARC
  8
0
 62
7
 10
1.67223709E+02
 20
5.43522528E+01
 40
1.00000000E+00
 50
1.96982741E+02
 51
2.75317915E+02
  0
ARC
  8
0
 62
7
 10
1.67594376E+02
 20
5.03694647E+01
 40
3.00000000E+00
 50
3.57133556E+02
 51
9.53173528E+01
  0
ARC
  8
0
 62
7
 10
1.64752151E+02
 20
4.86694525E+01
 40
1.50000000E+00
 50
1.50507630E+02
 51
2.70000001E+02
  0
ARC
  8
0
 62
7
 10
1.64694412E+02
 20
4.85694769E+01
 40
2.00000000E+00
 50
1.49489987E+02
 51
2.70000001E+02
  0
CIRCLE
  8
0
 62
7
 10
1.59094376E+02
 20
5.18694647E+01
 40
4.50000000E+00
  0
ARC
  8
0
 62
7
 10
1.59094376E+02
 20
5.18694647E+01
 40
5.00000000E+00
 50
3.30507718E+02
 51
1.19492165E+02
  0
ARC
  8
0
 62
7
 10
1.71589371E+02
 20
5.01694525E+01
 40
1.00000000E+00
 50
1.77133894E+02
 51
2.70000001E+02
  0
ARC
  8
0
 62
7
 10
1.94594376E+02
 20
4.93694647E+01
 40
2.79999995E+00
 50
2.69999984E+02
 51
1.86693353E-05
  0
ARC
  8
0
 62
7
 10
1.59094376E+02
 20
5.18694647E+01
 40
7.50000000E+00
 50
1.69833832E+01
 51
7.30166276E+01
  0
ARC
  8
0
 62
7
 10
1.73594376E+02
 20
5.45130804E+01
 40
1.00000000E+00
 50
8.65142224E-06
 51
8.17869390E+01
  0
ARC
  8
0
 62
7
 10
1.77594376E+02
 20
5.01694525E+01
 40
1.00000000E+00
 50
1.80000050E+02
 51
2.70000011E+02
  0
ARC
  8
0
 62
7
 10
1.63521866E+02
 20
5.91253240E+01
 40
1.00000000E+00
 50
2.38609193E+02
 51
3.14999370E+02
  0
ARC
  8
0
 62
7
 10
1.64382217E+02
 20
5.99857061E+01
 40
1.00000000E+00
 50
3.14999391E+02
 51
3.67863299E+01
  0
ARC
  8
0
 62
7
 10
1.67210648E+02
 20
5.71572760E+01
 40
1.00000000E+00
 50
5.32129895E+01
 51
1.35000027E+02
  0
ARC
  8
0
 62
7
 10
1.66350296E+02
 20
5.62968939E+01
 40
1.00000000E+00
 50
1.35000656E+02
 51
2.11390749E+02
  0
ARC
  8
0
 62
7
 10
1.57394363E+02
 20
6.43644903E+01
 40
1.00000000E+00
 50
1.79999951E+02
 51
2.72866057E+02
  0
ARC
  8
0
 62
7
 10
1.73594376E+02
 20
5.01694525E+01
 40
1.00000000E+00
 50
2.70000025E+02
 51
8.65142224E-06
  0
ARC
  8
0
 62
7
 10
1.83594376E+02
 20
5.03694647E+01
 40
3.00000000E+00
 50
8.46825703E+01
 51
1.82866376E+02
  0
ARC
  8
0
 62
7
 10
1.83965103E+02
 20
5.43522528E+01
 40
1.00000000E+00
 50
2.64682026E+02
 51
3.43017163E+02
  0
ARC
  8
0
 62
7
 10
1.89450760E+02
 20
7.03694647E+01
 40
1.00000000E+00
 50
1.88213093E+02
 51
2.70000025E+02
  0
ARC
  8
0
 62
7
 10
1.86494400E+02
 20
4.85694769E+01
 40
2.00000000E+00
 50
2.70000052E+02
 51
3.05100555E+01
  0
ARC
  8
0
 62
7
 10
1.86436661E+02
 20
4.86694830E+01
 40
1.50000000E+00
 50
2.70000052E+02
 51
2.94924392E+01
  0
ARC
  8
0
 62
7
 10
1.89611588E+02
 20
5.99987677E+01
 40
1.00000000E+00
 50
2.86982771E+02
 51
5.31791186E+00
  0
ARC
  8
0
 62
7
 10
1.93594376E+02
 20
6.03694647E+01
 40
3.00000000E+00
 50
8.71335496E+01
 51
1.85317348E+02
  0
ARC
  8
0
 62
7
 10
1.95294388E+02
 20
5.75272100E+01
 40
1.50000000E+00
 50
2.40507630E+02
 51
2.23117997E-05
  0
ARC
  8
0
 62
7
 10
1.95394363E+02
 20
5.74694708E+01
 40
2.00000000E+00
 50
2.39489987E+02
 51
2.23117997E-05
  0
CIRCLE
  8
0
 62
7
 10
1.92094376E+02
 20
5.18694647E+01
 40
4.50000000E+00
  0
ARC
  8
0
 62
7
 10
1.92094376E+02
 20
5.18694647E+01
 40
5.00000000E+00
 50
6.05077099E+01
 51
2.09492161E+02
  0
ARC
  8
0
 62
7
 10
1.93794388E+02
 20
6.43644598E+01
 40
1.00000000E+00
 50
2.67133886E+02
 51
2.23117997E-05
  0
ARC
  8
0
 62
7
 10
1.56594315E+02
 20
8.73694952E+01
 40
3.00000000E+00
 50
9.00000162E+01
 51
1.80000005E+02
  0
ARC
  8
0
 62
7
 10
1.92094376E+02
 20
5.18694647E+01
 40
7.50000000E+00
 50
1.06983377E+02
 51
1.63016631E+02
  0
ARC
  8
0
 62
7
 10
1.89450760E+02
 20
6.63694647E+01
 40
1.00000000E+00
 50
9.00000025E+01
 51
1.71786935E+02
  0
ARC
  8
0
 62
7
 10
1.93794388E+02
 20
7.03694647E+01
 40
1.00000000E+00
 50
2.70000052E+02
 51
2.23117997E-05
  0
ARC
  8
0
 62
7
 10
1.84838516E+02
 20
5.62969244E+01
 40
1.00000000E+00
 50
3.28609212E+02
 51
4.49993865E+01
  0
ARC
  8
0
 62
7
 10
1.83978165E+02
 20
5.71573065E+01
 40
1.00000000E+00
 50
4.49993865E+01
 51
1.26786315E+02
  0
ARC
  8
0
 62
7
 10
1.86806595E+02
 20
5.99857061E+01
 40
1.00000000E+00
 50
1.43212988E+02
 51
2.25000023E+02
  0
ARC
  8
0
 62
7
 10
1.87666946E+02
 20
5.91253546E+01
 40
1.00000000E+00
 50
2.25000642E+02
 51
3.01390741E+02
  0
ARC
  8
0
 62
7
 10
1.79599380E+02
 20
5.01694525E+01
 40
1.00000000E+00
 50
2.69999943E+02
 51
2.86607907E+00
  0
ARC
  8
0
 62
7
 10
1.93794388E+02
 20
6.63694647E+01
 40
1.00000000E+00
 50
2.23117997E-05
 51
9.00000025E+01
  0
ARC
  8
0
 62
7
 10
1.86806534E+02
 20
7.67532232E+01
 40
1.00000000E+00
 50
1.34999372E+02
 51
2.16786325E+02
  0
ARC
  8
0
 62
7
 10
1.87666946E+02
 20
7.76136053E+01
 40
1.00000000E+00
 50
5.86092045E+01
 51
1.34999386E+02
  0
ARC
  8
0
 62
7
 10
1.83978165E+02
 20
7.95816534E+01
 40
1.00000000E+00
 50
2.33212961E+02
 51
3.15000012E+02
  0
ARC
  8
0
 62
7
 10
1.84838516E+02
 20
8.04420355E+01
 40
1.00000000E+00
 50
3.15000662E+02
 51
3.13907537E+01
  0
ARC
  8
0
 62
7
 10
1.93794388E+02
 20
7.23744390E+01
 40
1.00000000E+00
 50
3.59999954E+02
 51
9.28660726E+01
  0
ARC
  8
0
 62
7
 10
1.93594376E+02
 20
7.63694647E+01
 40
3.00000000E+00
 50
1.74682566E+02
 51
2.72866358E+02
  0
ARC
  8
0
 62
7
 10
1.89611588E+02
 20
7.67401922E+01
 40
1.00000000E+00
 50
3.54682037E+02
 51
7.30171742E+01
  0
ARC
  8
0
 62
7
 10
1.95394363E+02
 20
7.92694586E+01
 40
2.00000000E+00
 50
6.32929345E-05
 51
1.20510068E+02
  0
ARC
  8
0
 62
7
 10
1.95294388E+02
 20
7.92117193E+01
 40
1.50000000E+00
 50
6.32929345E-05
 51
1.19492425E+02
  0
ARC
  8
0
 62
7
 10
1.79599380E+02
 20
8.65694769E+01
 40
1.00000000E+00
 50
3.57133897E+02
 51
9.00000162E+01
  0
ARC
  8
0
 62
7
 10
1.83965103E+02
 20
8.23866766E+01
 40
1.00000000E+00
 50
1.69827548E+01
 51
9.53179194E+01
  0
ARC
  8
0
 62
7
 10
1.83594376E+02
 20
8.63694647E+01
 40
3.00000000E+00
 50
1.77133566E+02
 51
2.75317358E+02
  0
ARC
  8
0
 62
7
 10
1.86436661E+02
 20
8.80694769E+01
 40
1.50000000E+00
 50
3.30507636E+02
 51
9.00000162E+01
  0
ARC
  8
0
 62
7
 10
1.86494400E+02
 20
8.81694525E+01
 40
2.00000000E+00
 50
3.29489992E+02
 51
9.00000162E+01
  0
CIRCLE
  8
0
 62
7
 10
1.92094376E+02
 20
8.48694647E+01
 40
4.50000000E+00
  0
ARC
  8
0
 62
7
 10
1.77594376E+02
 20
8.22258489E+01
 40
1.00000000E+00
 50
1.79999991E+02
 51
2.61786944E+02
  0
ARC
  8
0
 62
7
 10
1.73594376E+02
 20
8.22258489E+01
 40
1.00000000E+00
 50
2.78213109E+02
 51
3.59721781E-05
  0
ARC
  8
0
 62
7
 10
1.77594376E+02
 20
8.65694769E+01
 40
1.00000000E+00
 50
9.00000025E+01
 51
1.79999991E+02
  0
ARC
  8
0
 62
7
 10
1.73594376E+02
 20
8.65694769E+01
 40
1.00000000E+00
 50
6.32929345E-05
 51
9.00000162E+01
  0
ARC
  8
0
 62
7
 10
1.56594376E+02
 20
4.93694952E+01
 40
2.79999995E+00
 50
1.79999995E+02
 51
2.69999984E+02
  0
ARC
  8
0
 62
7
 10
1.56594376E+02
 20
8.73694647E+01
 40
2.79999995E+00
 50
9.00000162E+01
 51
1.80000005E+02
  0
ARC
  8
0
 62
7
 10
1.56594315E+02
 20
4.93694799E+01
 40
3.00000000E+00
 50
1.79999995E+02
 51
2.69999984E+02
  0
ARC
  8
0
 62
7
 10
1.92094376E+02
 20
8.48694647E+01
 40
5.00000000E+00
 50
1.50507740E+02
 51
2.99492129E+02
  0
CIRCLE
  8
0
 62
2
 10
1.59094376E+02
 20
5.18694647E+01
 40
3.00000000E+00
  0
CIRCLE
  8
0
 62
2
 10
1.92094376E+02
 20
5.18694647E+01
 40
3.00000000E+00
  0
ARC
  8
0
 62
7
 10
1.94594376E+02
 20
8.73694342E+01
 40
2.79999995E+00
 50
3.59721781E-05
 51
9.00000162E+01
  0
ARC
  8
0
 62
7
 10
1.92094376E+02
 20
8.48694647E+01
 40
7.50000000E+00
 50
1.96983383E+02
 51
2.53016623E+02
  0
CIRCLE
  8
0
 62
2
 10
1.92094376E+02
 20
8.48694647E+01
 40
3.00000000E+00
  0
CIRCLE
  8
0
 62
7
 10
1.75594376E+02
 20
6.83694647E+01
 40
1.30000000E+01
  0
CIRCLE
  8
0
 62
2
 10
1.59094376E+02
 20
8.48694647E+01
 40
3.00000000E+00
  0
LINE
  8
0
 62
7
 10
1.65594376E+02
 20
4.71694677E+01
 11
1.65594376E+02
 21
4.63694799E+01
  0
LINE
  8
0
 62
7
 10
1.65594376E+02
 20
9.03694952E+01
 11
1.65594376E+02
 21
8.95694616E+01
  0
LINE
  8
0
 62
7
 10
1.85594376E+02
 20
4.71694677E+01
 11
1.85594376E+02
 21
4.63694799E+01
  0
LINE
  8
0
 62
7
 10
1.85594376E+02
 20
9.03694952E+01
 11
1.85594376E+02
 21
8.95694616E+01
  0
LINE
  8
0
 62
7
 10
1.92594376E+02
 20
9.03694952E+01
 11
1.92594376E+02
 21
9.01694372E+01
  0
LINE
  8
0
 62
7
 10
1.58594376E+02
 20
9.03694952E+01
 11
1.58594376E+02
 21
9.01694677E+01
  0
LINE
  8
0
 62
7
 10
1.57394363E+02
 20
6.73694799E+01
 11
1.61737991E+02
 21
6.73694799E+01
  0
LINE
  8
0
 62
7
 10
1.57394363E+02
 20
6.93694799E+01
 11
1.61737991E+02
 21
6.93694799E+01
  0
LINE
  8
0
 62
7
 10
1.65643234E+02
 20
7.97349097E+01
 11
1.66503591E+02
 21
7.88745530E+01
  0
LINE
  8
0
 62
7
 10
1.64229021E+02
 20
7.83207389E+01
 11
1.65089378E+02
 21
7.74603823E+01
  0
LINE
  8
0
 62
7
 10
1.71589432E+02
 20
8.75694311E+01
 11
1.79599380E+02
 21
8.75694921E+01
  0
LINE
  8
0
 62
7
 10
1.54394363E+02
 20
5.75272100E+01
 11
1.54394363E+02
 21
7.92117193E+01
  0
LINE
  8
0
 62
7
 10
1.53794388E+02
 20
8.73694647E+01
 11
1.53794388E+02
 21
7.92694586E+01
  0
LINE
  8
0
 62
7
 10
1.56594376E+02
 20
9.01694677E+01
 11
1.65594376E+02
 21
9.01694677E+01
  0
LINE
  8
0
 62
7
 10
1.76594376E+02
 20
5.01694525E+01
 11
1.76594376E+02
 21
5.45130804E+01
  0
LINE
  8
0
 62
7
 10
1.74594376E+02
 20
5.01694525E+01
 11
1.74594376E+02
 21
5.45130804E+01
  0
LINE
  8
0
 62
7
 10
1.64228998E+02
 20
5.84182201E+01
 11
1.65089360E+02
 21
5.92785824E+01
  0
LINE
  8
0
 62
7
 10
1.65643266E+02
 20
5.70040822E+01
 11
1.66503628E+02
 21
5.78644445E+01
  0
LINE
  8
0
 62
7
 10
1.56394424E+02
 20
6.43644903E+01
 11
1.56394363E+02
 21
7.23744696E+01
  0
LINE
  8
0
 62
7
 10
1.64752151E+02
 20
4.71694677E+01
 11
1.86436661E+02
 21
4.71694677E+01
  0
LINE
  8
0
 62
7
 10
1.56594376E+02
 20
4.65694921E+01
 11
1.64694412E+02
 21
4.65694921E+01
  0
LINE
  8
0
 62
7
 10
1.53794388E+02
 20
4.93694952E+01
 11
1.53794388E+02
 21
5.74694708E+01
  0
LINE
  8
0
 62
7
 10
1.71589371E+02
 20
4.91694372E+01
 11
1.79599380E+02
 21
4.91694982E+01
  0
LINE
  8
0
 62
7
 10
1.93794388E+02
 20
6.93694494E+01
 11
1.89450760E+02
 21
6.93694494E+01
  0
LINE
  8
0
 62
7
 10
1.93794388E+02
 20
6.73694494E+01
 11
1.89450760E+02
 21
6.73694494E+01
  0
LINE
  8
0
 62
7
 10
1.85545663E+02
 20
5.70041077E+01
 11
1.84685279E+02
 21
5.78644914E+01
  0
LINE
  8
0
 62
7
 10
1.86959833E+02
 20
5.84182782E+01
 11
1.86099471E+02
 21
5.92786403E+01
  0
LINE
  8
0
 62
7
 10
1.97394363E+02
 20
4.93694647E+01
 11
1.97394363E+02
 21
5.74694708E+01
  0
LINE
  8
0
 62
7
 10
1.94594376E+02
 20
4.65694616E+01
 11
1.86494400E+02
 21
4.65694616E+01
  0
LINE
  8
0
 62
7
 10
1.86959845E+02
 20
7.83205914E+01
 11
1.86099483E+02
 21
7.74602290E+01
  0
LINE
  8
0
 62
7
 10
1.85545620E+02
 20
7.97348154E+01
 11
1.84685258E+02
 21
7.88744530E+01
  0
LINE
  8
0
  6
CENTER
 62
2
 10
1.78594376E+02
 20
9.26995123E+01
 11
1.78594376E+02
 21
8.29524877E+01
  0
LINE
  8
0
 62
7
 10
1.74594376E+02
 20
8.65694769E+01
 11
1.74594376E+02
 21
8.22258489E+01
  0
LINE
  8
0
 62
7
 10
1.76594376E+02
 20
8.65694769E+01
 11
1.76594376E+02
 21
8.22258489E+01
  0
LINE
  8
0
  6
CENTER
 62
2
 10
1.99150040E+02
 20
8.48694647E+01
 11
1.85462357E+02
 21
8.48694647E+01
  0
LINE
  8
0
  6
CENTER
 62
2
 10
1.92094376E+02
 20
9.20829046E+01
 11
1.92094376E+02
 21
7.82606848E+01
  0
LINE
  8
0
  6
CENTER
 62
2
 10
1.59094376E+02
 20
9.19251593E+01
 11
1.59094376E+02
 21
7.82374761E+01
  0
LINE
  8
0
  6
CENTER
 62
2
 10
1.51880936E+02
 20
8.48695104E+01
 11
1.65703140E+02
 21
8.48695104E+01
  0
LINE
  8
0
  6
CENTER
 62
2
 10
1.52038651E+02
 20
5.18695104E+01
 11
1.65726334E+02
 21
5.18695104E+01
  0
LINE
  8
0
  6
CENTER
 62
2
 10
1.59094315E+02
 20
4.46560247E+01
 11
1.59094315E+02
 21
5.84782446E+01
  0
LINE
  8
0
  6
CENTER
 62
2
 10
1.99307816E+02
 20
5.18694647E+01
 11
1.85485611E+02
 21
5.18694647E+01
  0
LINE
  8
0
  6
CENTER
 62
2
 10
1.92094315E+02
 20
4.48137701E+01
 11
1.92094315E+02
 21
5.85014532E+01
  0
LINE
  8
0
  6
CENTER
 62
2
 10
1.75594376E+02
 20
9.26995123E+01
 11
1.75594376E+02
 21
4.35023687E+01
  0
LINE
  8
0
 62
7
 10
1.56594315E+02
 20
4.63694799E+01
 11
1.94594376E+02
 21
4.63694799E+01
  0
LINE
  8
0
 62
7
 10
1.53594315E+02
 20
4.93694799E+01
 11
1.53594315E+02
 21
8.73694952E+01
  0
LINE
  8
0
 62
7
 10
1.56594315E+02
 20
9.03694952E+01
 11
1.94594376E+02
 21
9.03694952E+01
  0
LINE
  8
0
 62
7
 10
1.97594376E+02
 20
4.93694799E+01
 11
1.97594376E+02
 21
8.73694952E+01
  0
LINE
  8
0
 62
7
 10
1.94794388E+02
 20
6.43644598E+01
 11
1.94794327E+02
 21
7.23744390E+01
  0
LINE
  8
0
 62
7
 10
1.96794388E+02
 20
5.75272100E+01
 11
1.96794388E+02
 21
7.92117193E+01
  0
LINE
  8
0
 62
7
 10
1.64752151E+02
 20
8.95694616E+01
 11
1.86436661E+02
 21
8.95694616E+01
  0
LINE
  8
0
 62
7
 10
1.94594376E+02
 20
9.01694372E+01
 11
1.85594376E+02
 21
9.01694372E+01
  0
LINE
  8
0
 62
7
 10
1.97394363E+02
 20
8.73694342E+01
 11
1.97394363E+02
 21
7.92694586E+01
  0
LINE
  8
0
 62
7
 10
1.62094315E+02
 20
5.01374700E+01
 11
1.62094315E+02
 21
5.36015509E+01
  0
LINE
  8
0
 62
7
 10
1.62094603E+02
 20
5.36018939E+01
 11
1.59094626E+02
 21
5.53339432E+01
  0
LINE
  8
0
 62
7
 10
1.59094417E+02
 20
5.53334850E+01
 11
1.56094414E+02
 21
5.36014194E+01
  0
LINE
  8
0
 62
7
 10
1.56094315E+02
 20
5.36015509E+01
 11
1.56094315E+02
 21
5.01374700E+01
  0
LINE
  8
0
 62
7
 10
1.59094533E+02
 20
4.84057466E+01
 11
1.56094556E+02
 21
5.01377959E+01
  0
LINE
  8
0
 62
7
 10
1.62094476E+02
 20
5.01373312E+01
 11
1.59094500E+02
 21
4.84052809E+01
  0
LINE
  8
0
 62
7
 10
1.95094315E+02
 20
5.01374700E+01
 11
1.95094315E+02
 21
5.36015509E+01
  0
LINE
  8
0
 62
7
 10
1.95094654E+02
 20
5.36021202E+01
 11
1.92094703E+02
 21
5.53341542E+01
  0
LINE
  8
0
 62
7
 10
1.92094613E+02
 20
5.53335386E+01
 11
1.89094663E+02
 21
5.36015036E+01
  0
LINE
  8
0
 62
7
 10
1.89094315E+02
 20
5.36015509E+01
 11
1.89094315E+02
 21
5.01374700E+01
  0
LINE
  8
0
 62
7
 10
1.92094524E+02
 20
4.84056552E+01
 11
1.89094547E+02
 21
5.01377045E+01
  0
LINE
  8
0
 62
7
 10
1.95094558E+02
 20
5.01373985E+01
 11
1.92094555E+02
 21
4.84053329E+01
  0
LINE
  8
0
 62
7
 10
1.89094376E+02
 20
8.66015509E+01
 11
1.89094376E+02
 21
8.31374700E+01
  0
LINE
  8
0
 62
7
 10
1.89094332E+02
 20
8.31373623E+01
 11
1.92094309E+02
 21
8.14053126E+01
  0
LINE
  8
0
 62
7
 10
1.92094518E+02
 20
8.14054299E+01
 11
1.95094521E+02
 21
8.31374949E+01
  0
LINE
  8
0
 62
7
 10
1.95094376E+02
 20
8.31374700E+01
 11
1.95094376E+02
 21
8.66015509E+01
  0
LINE
  8
0
 62
7
 10
1.92094351E+02
 20
8.83333889E+01
 11
1.95094302E+02
 21
8.66013545E+01
  0
LINE
  8
0
 62
7
 10
1.89094509E+02
 20
8.66015597E+01
 11
1.92094565E+02
 21
8.83336552E+01
  0
LINE
  8
0
 62
7
 10
1.56094376E+02
 20
8.66015509E+01
 11
1.56094376E+02
 21
8.31374700E+01
  0
LINE
  8
0
 62
7
 10
1.56094467E+02
 20
8.31376697E+01
 11
1.59094444E+02
 21
8.14056209E+01
  0
LINE
  8
0
 62
7
 10
1.59094325E+02
 20
8.14054058E+01
 11
1.62094327E+02
 21
8.31374718E+01
  0
LINE
  8
0
 62
7
 10
1.62094376E+02
 20
8.31374700E+01
 11
1.62094376E+02
 21
8.66015509E+01
  0
LINE
  8
0
 62
7
 10
1.59094613E+02
 20
8.83339495E+01
 11
1.62094590E+02
 21
8.66019007E+01
  0
LINE
  8
0
 62
7
 10
1.56094277E+02
 20
8.66014776E+01
 11
1.59094332E+02
 21
8.83335741E+01
  0
LINE
  8
0
 62
4
 10
1.59444968E+02
 20
1.02028197E+02
 11
1.51203204E+02
 21
8.71596617E+01
  0
LINE
  8
0
 62
4
 10
1.65601126E+02
 20
9.31342819E+01
 11
1.65649385E+02
 21
9.03694952E+01
  0
LINE
  8
0
 62
4
 10
1.73131398E+02
 20
9.14654491E+01
 11
1.73150528E+02
 21
9.03694952E+01
  0
LINE
  8
0
 62
4
 10
1.66192308E+02
 20
9.36446772E+01
 11
1.66249477E+02
 21
9.03694952E+01
  0
LINE
  8
0
 62
4
 10
1.76277850E+02
 20
9.05502229E+01
 11
1.76281004E+02
 21
9.03694952E+01
  0
LINE
  8
0
 62
4
 10
1.73133143E+02
 20
9.13654643E+01
 11
1.74013195E+02
 21
9.05106932E+01
  0
LINE
  8
0
 62
4
 10
1.74013195E+02
 20
9.05106932E+01
 11
1.76277850E+02
 21
9.05502229E+01
  0
LINE
  8
0
 62
4
 10
1.77132534E+02
 20
9.14352739E+01
 11
1.77151137E+02
 21
9.03694952E+01
  0
LINE
  8
0
  6
CENTER
 62
6
 10
1.75115386E+02
 20
9.24002168E+01
 11
1.75220100E+02
 21
8.64011307E+01
  0
LINE
  8
0
 62
4
 10
1.77331164E+02
 20
9.03694952E+01
 11
1.77189467E+02
 21
9.84873416E+01
  0
ARC
  8
0
 62
4
 10
1.67963709E+02
 20
9.41679338E+01
 40
1.18100000E+01
 50
3.41238531E+02
 51
9.99999999E-01
  0
LINE
  8
0
  6
CENTER
 62
6
 10
1.76073365E+02
 20
9.24002626E+01
 11
1.75968651E+02
 21
8.64011764E+01
  0
LINE
  8
0
  6
DASHED
 62
4
 10
1.74056217E+02
 20
9.14353197E+01
 11
1.74037613E+02
 21
9.03694952E+01
  0
LINE
  8
0
 62
4
 10
1.84996443E+02
 20
9.36447230E+01
 11
1.84939274E+02
 21
9.03694952E+01
  0
LINE
  8
0
  6
DASHED
 62
4
 10
1.78057354E+02
 20
9.14654949E+01
 11
1.78038223E+02
 21
9.03694952E+01
  0
LINE
  8
0
 62
4
 10
1.85587626E+02
 20
9.31343277E+01
 11
1.85539365E+02
 21
9.03694952E+01
  0
LINE
  8
0
 62
4
 10
1.91743783E+02
 20
1.02028242E+02
 11
1.99985547E+02
 21
8.71597075E+01
  0
ARC
  8
0
  6
DASHED
 62
4
 10
1.76021008E+02
 20
8.94007195E+01
 40
1.50000000E+00
 50
4.02294692E+01
 51
1.39770531E+02
  0
ARC
  8
0
  6
DASHED
 62
4
 10
1.76034097E+02
 20
9.01506053E+01
 40
5.00000000E-01
 50
2.59623094E+01
 51
1.54037690E+02
  0
LINE
  8
0
  6
DASHED
 62
4
 10
1.73857586E+02
 20
9.03694952E+01
 11
1.73921621E+02
 21
9.40380652E+01
  0
ARC
  8
0
  6
DASHED
 62
4
 10
1.83225042E+02
 20
9.41679796E+01
 40
1.18100000E+01
 50
1.79000000E+02
 51
1.98761704E+02
  0
LINE
  8
0
  6
DASHED
 62
4
 10
1.74237644E+02
 20
9.03694952E+01
 11
1.74445718E+02
 21
1.02290036E+02
  0
LINE
  8
0
  6
CENTER
 62
2
 10
1.59094376E+02
 20
9.20829046E+01
 11
1.59094376E+02
 21
7.82606848E+01
  0
LINE
  8
0
  6
CENTER
 62
2
 10
1.75594376E+02
 20
9.26995123E+01
 11
1.75594376E+02
 21
4.35023687E+01
  0
LINE
  8
0
 10
1.74445718E+02
 20
1.02290036E+02
 11
1.74446418E+02
 21
1.02330169E+02
  0
LINE
  8
0
  6
DASHED
 62
4
 10
1.75595687E+02
 20
1.02310109E+02
 11
1.76743032E+02
 21
1.02290082E+02
  0
ARC
  8
0
  6
DASHED
 62
4
 10
1.83225312E+02
 20
9.41834538E+01
 40
1.18100000E+01
 50
1.76900933E+02
 51
1.79000000E+02
  0
LINE
  8
0
  6
DASHED
 62
4
 10
1.73301716E+02
 20
9.40488857E+01
 11
1.73434354E+02
 21
1.01647728E+02
  0
LINE
  8
0
  6
DASHED
 62
4
 10
1.73427373E+02
 20
1.01247789E+02
 11
1.72297545E+02
 21
1.01267510E+02
  0
LINE
  8
0
  6
DASHED
 62
4
 10
1.73308697E+02
 20
9.44488247E+01
 11
1.72178869E+02
 21
9.44685459E+01
  0
ARC
  8
0
  6
DASHED
 62
4
 10
1.82776013E+02
 20
9.76840900E+01
 40
1.18100000E+01
 50
1.66172490E+02
 51
1.91827510E+02
  0
ARC
  8
0
  6
DASHED
 62
4
 10
1.72279290E+02
 20
1.00267677E+02
 40
1.00000000E+00
 50
8.89999998E+01
 51
1.66172490E+02
  0
ARC
  8
0
  6
DASHED
 62
4
 10
1.72195519E+02
 20
9.54684073E+01
 40
1.00000000E+00
 50
1.91827510E+02
 51
2.69000000E+02
  0
LINE
  8
0
  6
DASHED
 62
4
 10
1.74434202E+02
 20
1.01630276E+02
 11
1.73434354E+02
 21
1.01647728E+02
  0
LINE
  8
0
  6
DASHED
 62
4
 10
1.74301563E+02
 20
9.40314332E+01
 11
1.73301716E+02
 21
9.40488857E+01
  0
LINE
  8
0
 62
4
 10
1.76743032E+02
 20
1.02290082E+02
 11
1.91743783E+02
 21
1.02028242E+02
  0
LINE
  8
0
 62
4
 10
1.84596504E+02
 20
9.36517039E+01
 11
1.85096428E+02
 21
9.36429777E+01
  0
ARC
  8
0
 62
4
 10
1.85087702E+02
 20
9.31430539E+01
 40
5.00000000E-01
 50
3.59000000E+02
 51
8.89999998E+01
  0
LINE
  8
0
  6
CENTER
 62
6
 10
1.86167164E+02
 20
9.41243641E+01
 11
1.73120407E+02
 21
9.43520961E+01
  0
LINE
  8
0
  6
CENTER
 62
6
 10
1.95603134E+02
 20
9.74601918E+01
 11
1.73181490E+02
 21
9.78515630E+01
  0
LINE
  8
0
  6
DASHED
 62
4
 10
1.77557430E+02
 20
9.14742211E+01
 11
1.77164472E+02
 21
9.18811411E+01
  0
LINE
  8
0
  6
DASHED
 62
4
 10
1.77164472E+02
 20
9.18811411E+01
 11
1.74264913E+02
 21
9.19317531E+01
  0
LINE
  8
0
  6
DASHED
 62
4
 10
1.78057354E+02
 20
9.14654949E+01
 11
1.77557430E+02
 21
9.14742211E+01
  0
LINE
  8
0
 62
4
 10
1.84744850E+02
 20
1.02150409E+02
 11
1.84596504E+02
 21
9.36517039E+01
  0
LINE
  8
0
 62
4
 10
1.74446418E+02
 20
1.02330169E+02
 11
1.75595687E+02
 21
1.02310109E+02
  0
LINE
  8
0
  6
DASHED
 62
4
 10
1.78055608E+02
 20
9.13655101E+01
 11
1.74056217E+02
 21
9.14353197E+01
  0
LINE
  8
0
 62
4
 10
1.76932564E+02
 20
9.14317835E+01
 11
1.76742333E+02
 21
1.02330123E+02
  0
ARC
  8
0
 62
4
 10
1.67963439E+02
 20
9.41834080E+01
 40
1.18100000E+01
 50
9.99999999E-01
 51
2.15326990E+01
  0
LINE
  8
0
 62
4
 10
1.77189467E+02
 20
9.84873416E+01
 11
1.78949199E+02
 21
9.85180579E+01
  0
LINE
  8
0
 62
4
 10
1.76812143E+02
 20
9.83307326E+01
 11
1.77192085E+02
 21
9.83373645E+01
  0
LINE
  8
0
 62
4
 10
1.77809372E+02
 20
9.84981621E+01
 11
1.77754397E+02
 21
1.01647682E+02
  0
LINE
  8
0
 62
4
 10
1.77761378E+02
 20
1.01247743E+02
 11
1.78891206E+02
 21
1.01267465E+02
  0
ARC
  8
0
 62
4
 10
1.68412739E+02
 20
9.76840443E+01
 40
1.18100000E+01
 50
3.48172490E+02
 51
1.38275101E+01
  0
ARC
  8
0
 62
4
 10
1.78909461E+02
 20
1.00267631E+02
 40
1.00000000E+00
 50
1.38275101E+01
 51
9.10000000E+01
  0
ARC
  8
0
 62
4
 10
1.78993232E+02
 20
9.54683616E+01
 40
1.00000000E+00
 50
3.19723662E+02
 51
3.48172490E+02
  0
LINE
  8
0
 62
4
 10
1.76754550E+02
 20
1.01630230E+02
 11
1.77754397E+02
 21
1.01647682E+02
  0
LINE
  8
0
 62
4
 10
1.73133143E+02
 20
9.13654643E+01
 11
1.77132534E+02
 21
9.14352739E+01
  0
LINE
  8
0
 62
4
 10
1.77132534E+02
 20
9.14352739E+01
 11
1.76277850E+02
 21
9.05502229E+01
  0
LINE
  8
0
 62
4
 10
1.59444968E+02
 20
1.02028197E+02
 11
1.76742333E+02
 21
1.02330123E+02
  0
LINE
  8
0
 62
4
 10
1.66443902E+02
 20
1.02150364E+02
 11
1.66592247E+02
 21
9.36516581E+01
  0
LINE
  8
0
 62
4
 10
1.73131398E+02
 20
9.14654491E+01
 11
1.73631322E+02
 21
9.14741753E+01
  0
LINE
  8
0
 62
4
 10
1.74024280E+02
 20
9.18810953E+01
 11
1.76923838E+02
 21
9.19317073E+01
  0
LINE
  8
0
 62
4
 10
1.73631322E+02
 20
9.14741753E+01
 11
1.74024280E+02
 21
9.18810953E+01
  0
LINE
  8
0
  6
CENTER
 62
6
 10
1.55585617E+02
 20
9.74601460E+01
 11
1.78007261E+02
 21
9.78515173E+01
  0
LINE
  8
0
  6
CENTER
 62
6
 10
1.65021587E+02
 20
9.41243183E+01
 11
1.78068345E+02
 21
9.43520503E+01
  0
ARC
  8
0
 62
4
 10
1.66101050E+02
 20
9.31430081E+01
 40
5.00000000E-01
 50
9.10000000E+01
 51
1.81000000E+02
  0
LINE
  8
0
 62
4
 10
1.66592247E+02
 20
9.36516581E+01
 11
1.66092323E+02
 21
9.36429319E+01
  0
LINE
  8
0
 62
6
 10
1.48237335E+02
 20
8.03292916E+01
 11
1.51321489E+02
 21
8.03831257E+01
  0
LINE
  8
0
 62
6
 10
1.48184978E+02
 20
8.33288347E+01
 11
1.51269132E+02
 21
8.33826688E+01
  0
LINE
  8
0
 62
4
 10
1.48246061E+02
 20
7.98293678E+01
 11
1.48176252E+02
 21
8.38287586E+01
  0
LINE
  8
0
 62
4
 10
1.48246061E+02
 20
7.98293678E+01
 11
1.51330215E+02
 21
7.98832019E+01
  0
LINE
  8
0
 62
4
 10
1.48176252E+02
 20
8.38287586E+01
 11
1.51260406E+02
 21
8.38825927E+01
  0
LINE
  8
0
 62
4
 10
1.51203204E+02
 20
8.71596617E+01
 11
1.51365120E+02
 21
7.78835066E+01
  0
ARC
  8
0
 62
4
 10
1.52864892E+02
 20
7.79096852E+01
 40
1.50000000E+00
 50
1.81000000E+02
 51
2.71000000E+02
  0
LINE
  8
0
  6
CENTER
 62
6
 10
1.57049766E+02
 20
8.19833417E+01
 11
1.49469741E+02
 21
8.18510319E+01
  0
LINE
  8
0
 62
4
 10
1.52891070E+02
 20
7.64099136E+01
 11
1.53594376E+02
 21
7.64221899E+01
  0
LINE
  8
0
 62
4
 10
2.02942690E+02
 20
7.98294136E+01
 11
2.03012500E+02
 21
8.38288043E+01
  0
LINE
  8
0
  6
CENTER
 62
6
 10
1.94138986E+02
 20
8.19833875E+01
 11
2.01719010E+02
 21
8.18510777E+01
  0
LINE
  8
0
 62
4
 10
1.99985547E+02
 20
8.71597075E+01
 11
1.99823631E+02
 21
7.78835523E+01
  0
LINE
  8
0
 62
4
 10
2.03012500E+02
 20
8.38288043E+01
 11
1.99928345E+02
 21
8.38826385E+01
  0
LINE
  8
0
 62
6
 10
2.03003773E+02
 20
8.33288805E+01
 11
1.99919619E+02
 21
8.33827146E+01
  0
LINE
  8
0
 62
6
 10
2.02951416E+02
 20
8.03293374E+01
 11
1.99867262E+02
 21
8.03831715E+01
  0
ARC
  8
0
 62
4
 10
1.98323859E+02
 20
7.79097310E+01
 40
1.50000000E+00
 50
2.69000000E+02
 51
3.59000000E+02
  0
LINE
  8
0
 62
4
 10
2.02942690E+02
 20
7.98294136E+01
 11
1.99858536E+02
 21
7.98832477E+01
  0
LINE
  8
0
 62
4
 10
1.98297681E+02
 20
7.64099594E+01
 11
1.97594437E+02
 21
7.64222346E+01
  0
LINE
  8
0
  6
PHANTOM
 10
-9.25000000E+00
 20
2.27628397E+02
 11
-9.25000000E+00
 21
1.34210004E+02
  0
LINE
  8
0
 62
2
 10
-1.29749985E+02
 20
1.84069492E+02
 11
-1.23249985E+02
 21
1.84069492E+02
  0
LINE
  8
0
 62
7
 10
-1.29749985E+02
 20
1.83369480E+02
 11
-1.23249985E+02
 21
1.83369480E+02
  0
LINE
  8
0
 62
2
 10
-1.29749985E+02
 20
1.92669514E+02
 11
-1.23249985E+02
 21
1.92669514E+02
  0
LINE
  8
0
 62
7
 10
-1.29749985E+02
 20
1.93369526E+02
 11
-1.23249985E+02
 21
1.93369526E+02
  0
CIRCLE
  8
0
 62
7
 10
4.72499847E+01
 20
1.81369465E+02
 40
2.09999990E+00
  0
CIRCLE
  8
0
 62
7
 10
-6.97499847E+01
 20
1.81369465E+02
 40
2.09999990E+00
  0
ARC
  8
0
 62
7
 10
4.87499847E+01
 20
2.04369465E+02
 40
1.00000000E+00
 50
5.46415133E-05
 51
9.00000369E+01
  0
ARC
  8
0
 62
7
 10
5.07499847E+01
 20
1.99369465E+02
 40
1.00000000E+00
 50
1.80000036E+02
 51
2.70000018E+02
  0
ARC
  8
0
 62
7
 10
7.22499847E+01
 20
2.09070514E+02
 40
5.00000000E-01
 50
5.46415133E-05
 51
8.84995532E+01
  0
ARC
  8
0
 62
7
 10
7.22499847E+01
 20
2.08869465E+02
 40
5.00000000E-01
 50
5.46415133E-05
 51
9.00000369E+01
  0
ARC
  8
0
 62
7
 10
7.22499847E+01
 20
1.67668384E+02
 40
5.00000000E-01
 50
2.71500501E+02
 51
5.46415133E-05
  0
ARC
  8
0
 62
7
 10
7.22499847E+01
 20
1.67869495E+02
 40
5.00000000E-01
 50
2.70000018E+02
 51
5.46415133E-05
  0
CIRCLE
  8
0
 62
2
 10
5.67499847E+01
 20
1.91369465E+02
 40
4.86399984E+00
  0
CIRCLE
  8
0
 62
7
 10
5.67499847E+01
 20
1.91369465E+02
 40
4.28299999E+00
  0
CIRCLE
  8
0
 62
7
 10
4.72499847E+01
 20
1.81369465E+02
 40
4.00000000E+00
  0
ARC
  8
0
 62
7
 10
7.42499847E+01
 20
2.00869449E+02
 40
5.00000000E-01
 50
5.46415133E-05
 51
9.00000369E+01
  0
ARC
  8
0
 62
7
 10
7.42499847E+01
 20
1.75869480E+02
 40
5.00000000E-01
 50
2.70000073E+02
 51
5.46415133E-05
  0
ARC
  8
0
 62
7
 10
4.87499847E+01
 20
1.72369465E+02
 40
1.00000000E+00
 50
2.70000073E+02
 51
5.46415133E-05
  0
ARC
  8
0
 62
7
 10
6.67499847E+01
 20
1.97369465E+02
 40
1.00000000E+00
 50
5.46415133E-05
 51
9.00000369E+01
  0
ARC
  8
0
 62
7
 10
6.67499847E+01
 20
1.79369465E+02
 40
1.00000000E+00
 50
2.70000073E+02
 51
5.46415133E-05
  0
ARC
  8
0
 62
7
 10
5.07499847E+01
 20
1.77369465E+02
 40
1.00000000E+00
 50
9.00000913E+01
 51
1.80000073E+02
  0
ARC
  8
0
 62
7
 10
-9.67499847E+01
 20
2.00869449E+02
 40
5.00000000E-01
 50
8.99999818E+01
 51
1.79999964E+02
  0
ARC
  8
0
 62
7
 10
-1.04999985E+02
 20
2.00378040E+02
 40
2.50000000E-01
 50
9.20007424E+01
 51
1.79999964E+02
  0
ARC
  8
0
 62
7
 10
-1.04999985E+02
 20
1.76360889E+02
 40
2.50000000E-01
 50
1.79999981E+02
 51
2.67999203E+02
  0
ARC
  8
0
 62
7
 10
-9.67499847E+01
 20
1.75869480E+02
 40
5.00000000E-01
 50
1.79999981E+02
 51
2.69999963E+02
  0
ARC
  8
0
 62
7
 10
-7.12499847E+01
 20
1.72369465E+02
 40
1.00000000E+00
 50
1.79999981E+02
 51
2.69999963E+02
  0
ARC
  8
0
 62
7
 10
-7.32499847E+01
 20
1.77369465E+02
 40
1.00000000E+00
 50
3.59999945E+02
 51
8.99999274E+01
  0
ARC
  8
0
 62
7
 10
-8.92499847E+01
 20
1.79369465E+02
 40
1.00000000E+00
 50
1.79999981E+02
 51
2.69999963E+02
  0
ARC
  8
0
 62
7
 10
-8.92499847E+01
 20
1.97369465E+02
 40
1.00000000E+00
 50
8.99999818E+01
 51
1.79999964E+02
  0
ARC
  8
0
 62
7
 10
-7.12499847E+01
 20
2.04369465E+02
 40
1.00000000E+00
 50
8.99999818E+01
 51
1.79999964E+02
  0
ARC
  8
0
 62
7
 10
-7.32499847E+01
 20
1.99369465E+02
 40
1.00000000E+00
 50
2.70000018E+02
 51
0.00000000E+00
  0
ARC
  8
0
 62
7
 10
-9.47499847E+01
 20
2.09070514E+02
 40
5.00000000E-01
 50
9.15004655E+01
 51
1.79999964E+02
  0
ARC
  8
0
 62
7
 10
-9.47499847E+01
 20
2.08869465E+02
 40
5.00000000E-01
 50
8.99999818E+01
 51
1.79999964E+02
  0
ARC
  8
0
 62
7
 10
-9.47499847E+01
 20
1.67668384E+02
 40
5.00000000E-01
 50
1.79999981E+02
 51
2.68499535E+02
  0
ARC
  8
0
 62
7
 10
-9.47499847E+01
 20
1.67869495E+02
 40
5.00000000E-01
 50
1.79999981E+02
 51
2.70000018E+02
  0
CIRCLE
  8
0
 62
2
 10
-7.92499847E+01
 20
1.91369465E+02
 40
4.86399984E+00
  0
CIRCLE
  8
0
 62
7
 10
-7.92499847E+01
 20
1.91369465E+02
 40
4.28299999E+00
  0
ARC
  8
0
 62
7
 10
-1.09749985E+02
 20
1.99869449E+02
 40
5.00000000E-01
 50
8.99999818E+01
 51
1.79999964E+02
  0
CIRCLE
  8
0
 62
7
 10
-6.97499847E+01
 20
1.81369465E+02
 40
4.00000000E+00
  0
ARC
  8
0
 62
7
 10
-1.09749985E+02
 20
1.76869480E+02
 40
5.00000000E-01
 50
1.79999981E+02
 51
2.69999963E+02
  0
LINE
  8
0
 62
7
 10
-1.23249985E+02
 20
1.84069492E+02
 11
-1.20249985E+02
 21
1.84069492E+02
  0
LINE
  8
0
 62
7
 10
-1.23249985E+02
 20
1.92669514E+02
 11
-1.20249985E+02
 21
1.92669514E+02
  0
LINE
  8
0
 62
7
 10
7.47499847E+01
 20
1.75869480E+02
 11
7.47499847E+01
 21
2.00869449E+02
  0
LINE
  8
0
 62
7
 10
7.42499847E+01
 20
2.01369449E+02
 11
7.27499847E+01
 21
2.01369449E+02
  0
LINE
  8
0
 62
7
 10
7.42499847E+01
 20
1.75369480E+02
 11
7.27499847E+01
 21
1.75369480E+02
  0
LINE
  8
0
 62
7
 10
4.87499847E+01
 20
1.71369465E+02
 11
4.17499847E+01
 21
1.71369465E+02
  0
LINE
  8
0
 62
7
 10
4.97499847E+01
 20
1.77369465E+02
 11
4.97499847E+01
 21
1.72369465E+02
  0
LINE
  8
0
 62
7
 10
7.27500362E+01
 20
1.76025136E+02
 11
5.07499843E+01
 21
1.75641123E+02
  0
LINE
  8
0
 62
2
 10
7.27499847E+01
 20
1.77641086E+02
 11
5.07499847E+01
 21
1.77641086E+02
  0
LINE
  8
0
 62
7
 10
6.67499847E+01
 20
1.78369465E+02
 11
5.07499847E+01
 21
1.78369465E+02
  0
LINE
  8
0
 62
7
 10
4.97499847E+01
 20
1.99369465E+02
 11
4.97499847E+01
 21
2.04369465E+02
  0
LINE
  8
0
 62
7
 10
6.67499847E+01
 20
1.98369465E+02
 11
5.07499847E+01
 21
1.98369465E+02
  0
LINE
  8
0
 62
7
 10
7.22499847E+01
 20
2.09369465E+02
 11
5.07499847E+01
 21
2.09369465E+02
  0
LINE
  8
0
 62
7
 10
7.27500127E+01
 20
2.00713888E+02
 11
5.07499990E+01
 21
2.01097899E+02
  0
LINE
  8
0
 62
2
 10
7.27499847E+01
 20
1.99097843E+02
 11
5.07499847E+01
 21
1.99097843E+02
  0
LINE
  8
0
 62
7
 10
4.87499847E+01
 20
2.05369465E+02
 11
4.17499847E+01
 21
2.05369465E+02
  0
LINE
  8
0
 62
7
 10
7.22499847E+01
 20
1.67369495E+02
 11
5.07499847E+01
 21
1.67369495E+02
  0
LINE
  8
0
 62
7
 10
6.77499847E+01
 20
1.79369465E+02
 11
6.77499847E+01
 21
1.97369465E+02
  0
LINE
  8
0
  6
CENTER
 62
2
 10
6.50807953E+01
 20
1.91369465E+02
 11
4.83583984E+01
 21
1.91369465E+02
  0
LINE
  8
0
  6
CENTER
 62
2
 10
5.67499847E+01
 20
1.82912266E+02
 11
5.67499847E+01
 21
2.00513675E+02
  0
LINE
  8
0
 62
7
 10
4.58064551E+01
 20
1.81369472E+02
 11
4.65281430E+01
 21
1.82619488E+02
  0
LINE
  8
0
 62
7
 10
4.65283051E+01
 20
1.82619434E+02
 11
4.79716644E+01
 21
1.82619434E+02
  0
LINE
  8
0
 62
7
 10
4.79716847E+01
 20
1.82619414E+02
 11
4.86933879E+01
 21
1.81369372E+02
  0
LINE
  8
0
 62
7
 10
4.86932490E+01
 20
1.81369409E+02
 11
4.79715611E+01
 21
1.80119393E+02
  0
LINE
  8
0
 62
7
 10
4.65283051E+01
 20
1.80119404E+02
 11
4.79716644E+01
 21
1.80119404E+02
  0
LINE
  8
0
 62
7
 10
4.58066107E+01
 20
1.81369372E+02
 11
4.65282986E+01
 21
1.80119355E+02
  0
LINE
  8
0
  6
CENTER
 62
2
 10
4.72499847E+01
 20
1.76351551E+02
 11
4.72499847E+01
 21
1.86974415E+02
  0
LINE
  8
0
  6
CENTER
 62
2
 10
5.28560944E+01
 20
1.81369465E+02
 11
4.18861847E+01
 21
1.81369465E+02
  0
LINE
  8
0
 62
7
 10
5.07499847E+01
 20
1.99097843E+02
 11
5.07499847E+01
 21
2.10133686E+02
  0
LINE
  8
0
 62
7
 10
7.22630723E+01
 20
2.09570334E+02
 11
4.17500636E+01
 21
2.10369345E+02
  0
LINE
  8
0
 62
7
 10
5.07499847E+01
 20
1.77641086E+02
 11
5.07499847E+01
 21
1.66605228E+02
  0
LINE
  8
0
 62
7
 10
7.22630873E+01
 20
1.67168584E+02
 11
4.17500482E+01
 21
1.66369572E+02
  0
LINE
  8
0
 62
7
 10
7.27499847E+01
 20
1.67668384E+02
 11
7.27499847E+01
 21
2.09070514E+02
  0
LINE
  8
0
 62
7
 10
4.17499847E+01
 20
1.66369465E+02
 11
4.17499847E+01
 21
2.10369404E+02
  0
LINE
  8
0
 62
7
 10
-1.05008713E+02
 20
1.76111086E+02
 11
-9.72499841E+01
 21
1.75840145E+02
  0
LINE
  8
0
 62
7
 10
-1.05008694E+02
 20
2.00627887E+02
 11
-9.72499646E+01
 21
2.00898828E+02
  0
LINE
  8
0
 62
7
 10
-9.72499847E+01
 20
1.75869480E+02
 11
-9.72499847E+01
 21
2.00869449E+02
  0
LINE
  8
0
 62
7
 10
-1.05249985E+02
 20
1.76360889E+02
 11
-1.05249985E+02
 21
2.00378040E+02
  0
LINE
  8
0
 62
7
 10
-9.67499847E+01
 20
2.01369449E+02
 11
-9.52499847E+01
 21
2.01369449E+02
  0
LINE
  8
0
 62
7
 10
-9.67499847E+01
 20
1.75369480E+02
 11
-9.52499847E+01
 21
1.75369480E+02
  0
LINE
  8
0
 62
7
 10
-7.12499847E+01
 20
1.71369465E+02
 11
-6.42499847E+01
 21
1.71369465E+02
  0
LINE
  8
0
 62
7
 10
-7.22499847E+01
 20
1.77369465E+02
 11
-7.22499847E+01
 21
1.72369465E+02
  0
LINE
  8
0
 62
7
 10
-9.52500335E+01
 20
1.76025127E+02
 11
-7.32499969E+01
 21
1.75641115E+02
  0
LINE
  8
0
 62
2
 10
-9.52499847E+01
 20
1.77641086E+02
 11
-7.32499847E+01
 21
1.77641086E+02
  0
LINE
  8
0
 62
7
 10
-8.92499847E+01
 20
1.78369465E+02
 11
-7.32499847E+01
 21
1.78369465E+02
  0
LINE
  8
0
 62
7
 10
-7.22499847E+01
 20
1.99369465E+02
 11
-7.22499847E+01
 21
2.04369465E+02
  0
LINE
  8
0
 62
7
 10
-8.92499847E+01
 20
1.98369465E+02
 11
-7.32499847E+01
 21
1.98369465E+02
  0
LINE
  8
0
 62
7
 10
-9.47499847E+01
 20
2.09369465E+02
 11
-7.32499847E+01
 21
2.09369465E+02
  0
LINE
  8
0
 62
7
 10
-9.52500018E+01
 20
2.00713866E+02
 11
-7.32499958E+01
 21
2.01097877E+02
  0
LINE
  8
0
 62
2
 10
-9.52499847E+01
 20
1.99097843E+02
 11
-7.32499847E+01
 21
1.99097843E+02
  0
LINE
  8
0
 62
7
 10
-7.12499847E+01
 20
2.05369465E+02
 11
-6.42499847E+01
 21
2.05369465E+02
  0
LINE
  8
0
 62
7
 10
-9.47499847E+01
 20
1.67369495E+02
 11
-7.32499847E+01
 21
1.67369495E+02
  0
LINE
  8
0
 62
7
 10
-9.02499847E+01
 20
1.79369465E+02
 11
-9.02499847E+01
 21
1.97369465E+02
  0
LINE
  8
0
  6
CENTER
 62
2
 10
-8.73466492E+01
 20
1.91369465E+02
 11
-7.03408356E+01
 21
1.91369465E+02
  0
LINE
  8
0
  6
CENTER
 62
2
 10
-7.92499847E+01
 20
1.82912266E+02
 11
-7.92499847E+01
 21
2.00513675E+02
  0
LINE
  8
0
 62
7
 10
-1.09749985E+02
 20
2.00369465E+02
 11
-1.05249985E+02
 21
2.00369465E+02
  0
LINE
  8
0
 62
7
 10
-1.10249985E+02
 20
1.76869480E+02
 11
-1.10249985E+02
 21
1.99869449E+02
  0
LINE
  8
0
 62
7
 10
-6.83064701E+01
 20
1.81369492E+02
 11
-6.90281580E+01
 21
1.82619509E+02
  0
LINE
  8
0
 62
7
 10
-6.90283051E+01
 20
1.82619434E+02
 11
-7.04716644E+01
 21
1.82619434E+02
  0
LINE
  8
0
 62
7
 10
-7.04716292E+01
 20
1.82619415E+02
 11
-7.11933286E+01
 21
1.81369379E+02
  0
LINE
  8
0
 62
7
 10
-7.11932224E+01
 20
1.81369418E+02
 11
-7.04715344E+01
 21
1.80119402E+02
  0
LINE
  8
0
 62
7
 10
-6.90283051E+01
 20
1.80119404E+02
 11
-7.04716644E+01
 21
1.80119404E+02
  0
LINE
  8
0
 62
7
 10
-6.83065514E+01
 20
1.81369379E+02
 11
-6.90282394E+01
 21
1.80119363E+02
  0
LINE
  8
0
  6
CENTER
 62
2
 10
-6.97499847E+01
 20
1.76351551E+02
 11
-6.97499847E+01
 21
1.86974415E+02
  0
LINE
  8
0
  6
CENTER
 62
2
 10
-7.53560944E+01
 20
1.81369465E+02
 11
-6.43861847E+01
 21
1.81369465E+02
  0
LINE
  8
0
 62
7
 10
-6.42499847E+01
 20
1.66369465E+02
 11
-6.42499847E+01
 21
2.10369404E+02
  0
LINE
  8
0
 62
7
 10
-7.32499847E+01
 20
1.99097843E+02
 11
-7.32499847E+01
 21
2.10133686E+02
  0
LINE
  8
0
 62
7
 10
-9.47630316E+01
 20
2.09570346E+02
 11
-6.42500230E+01
 21
2.10369357E+02
  0
LINE
  8
0
 62
7
 10
-7.32499847E+01
 20
1.77641086E+02
 11
-7.32499847E+01
 21
1.66605228E+02
  0
LINE
  8
0
 62
7
 10
-1.09749985E+02
 20
1.76369465E+02
 11
-1.05249985E+02
 21
1.76369465E+02
  0
LINE
  8
0
 62
7
 10
-9.47630844E+01
 20
1.67168588E+02
 11
-6.42500148E+01
 21
1.66369576E+02
  0
LINE
  8
0
 62
7
 10
-1.12250015E+02
 20
1.94369465E+02
 11
-1.10249985E+02
 21
1.94369465E+02
  0
LINE
  8
0
 62
7
 10
-6.42499847E+01
 20
2.07519428E+02
 11
-3.87499847E+01
 21
2.07519428E+02
  0
LINE
  8
0
 62
7
 10
-6.42499847E+01
 20
2.02219440E+02
 11
-3.87499847E+01
 21
2.02219440E+02
  0
LINE
  8
0
  6
CENTER
 62
2
 10
-9.74770050E+01
 20
2.04869465E+02
 11
7.48534241E+01
 21
2.04869465E+02
  0
LINE
  8
0
 62
7
 10
-9.52499847E+01
 20
1.67668384E+02
 11
-9.52499847E+01
 21
2.09070514E+02
  0
LINE
  8
0
 62
7
 10
-1.12249985E+02
 20
1.82369449E+02
 11
-1.10249985E+02
 21
1.82369449E+02
  0
LINE
  8
0
  6
CENTER
 62
2
 10
-1.44207901E+02
 20
1.88369465E+02
 11
7.91751251E+01
 21
1.88369465E+02
  0
LINE
  8
0
 62
7
 10
-6.42499847E+01
 20
1.69219501E+02
 11
5.24998474E+00
 21
1.69219501E+02
  0
LINE
  8
0
 62
7
 10
-6.42499847E+01
 20
1.74519489E+02
 11
5.24998474E+00
 21
1.74519489E+02
  0
LINE
  8
0
  6
CENTER
 62
2
 10
-9.74770050E+01
 20
1.71869495E+02
 11
7.48534241E+01
 21
1.71869495E+02
  0
LINE
  8
0
 62
7
 10
-1.13250107E+02
 20
1.83369537E+02
 11
-1.12250106E+02
 21
1.82369536E+02
  0
LINE
  8
0
 62
7
 10
-1.13250292E+02
 20
1.93369753E+02
 11
-1.12250280E+02
 21
1.94369765E+02
  0
LINE
  8
0
 62
7
 10
-1.20249985E+02
 20
1.93369526E+02
 11
-1.13250015E+02
 21
1.93369526E+02
  0
LINE
  8
0
 62
7
 10
-1.20249985E+02
 20
1.83369480E+02
 11
-1.13249985E+02
 21
1.83369480E+02
  0
LINE
  8
0
 62
2
 10
-1.41949966E+02
 20
1.92669514E+02
 11
-1.35749985E+02
 21
1.92669514E+02
  0
LINE
  8
0
 62
7
 10
-1.42249759E+02
 20
1.92369282E+02
 11
-1.41249807E+02
 21
1.93369257E+02
  0
LINE
  8
0
 62
7
 10
-1.41249985E+02
 20
1.83369480E+02
 11
-1.41249985E+02
 21
1.93369526E+02
  0
LINE
  8
0
 62
7
 10
-1.23249985E+02
 20
1.83369480E+02
 11
-1.23249985E+02
 21
1.93369526E+02
  0
LINE
  8
0
 62
7
 10
-1.17249985E+02
 20
1.83369480E+02
 11
-1.17249985E+02
 21
1.93369526E+02
  0
LINE
  8
0
 62
7
 10
-1.41249985E+02
 20
1.93369526E+02
 11
-1.35749985E+02
 21
1.93369526E+02
  0
LINE
  8
0
 62
7
 10
-1.42249985E+02
 20
1.84369510E+02
 11
-1.42249985E+02
 21
1.92369465E+02
  0
LINE
  8
0
 62
7
 10
-1.20249985E+02
 20
1.83369480E+02
 11
-1.20249985E+02
 21
1.93369526E+02
  0
LINE
  8
0
 62
2
 10
-1.41949966E+02
 20
1.84069492E+02
 11
-1.35749985E+02
 21
1.84069492E+02
  0
LINE
  8
0
 62
7
 10
-1.42250002E+02
 20
1.84369465E+02
 11
-1.41250034E+02
 21
1.83369474E+02
  0
LINE
  8
0
 62
7
 10
-1.41249985E+02
 20
1.83369480E+02
 11
-1.35749985E+02
 21
1.83369480E+02
  0
LINE
  8
0
  6
CENTER
 62
6
 10
-2.72499847E+01
 20
2.18485044E+02
 11
-2.72499847E+01
 21
2.08219465E+02
  0
LINE
  8
0
  6
CENTER
 62
6
 10
-3.52499847E+01
 20
2.18485044E+02
 11
-3.52499847E+01
 21
2.08219465E+02
  0
LINE
  8
0
 62
4
 10
-2.92499848E+01
 20
2.15752684E+02
 11
-2.92499848E+01
 21
2.12760636E+02
  0
LINE
  8
0
 62
6
 10
-2.87499848E+01
 20
2.15767957E+02
 11
-2.87499848E+01
 21
2.12760636E+02
  0
LINE
  8
0
 62
4
 10
-2.52499848E+01
 20
2.15752684E+02
 11
-2.52499848E+01
 21
2.12760636E+02
  0
LINE
  8
0
 62
6
 10
-2.57499848E+01
 20
2.15767957E+02
 11
-2.57499848E+01
 21
2.12760636E+02
  0
LINE
  8
0
 62
4
 10
-3.32499848E+01
 20
2.15752684E+02
 11
-3.32499848E+01
 21
2.12760636E+02
  0
LINE
  8
0
 62
4
 10
-3.72499848E+01
 20
2.15752684E+02
 11
-3.72499848E+01
 21
2.12760636E+02
  0
LINE
  8
0
 62
6
 10
-3.37499848E+01
 20
2.15767957E+02
 11
-3.37499848E+01
 21
2.12760636E+02
  0
LINE
  8
0
 62
6
 10
-3.67499848E+01
 20
2.15767957E+02
 11
-3.67499848E+01
 21
2.12760636E+02
  0
LINE
  8
0
  6
CENTER
 62
6
 10
-5.87499848E+01
 20
1.88796097E+02
 11
-1.17499847E+01
 21
1.88796097E+02
  0
LINE
  8
0
 62
6
 10
-3.01796443E+00
 20
1.90942863E+02
 11
-6.48206604E+00
 21
1.84942863E+02
  0
LINE
  8
0
  6
CENTER
 62
6
 10
4.02499848E+01
 20
1.87942863E+02
 11
-6.75001526E+00
 21
1.87942863E+02
  0
LINE
  8
0
 62
4
 10
5.24998474E+00
 20
1.89442863E+02
 11
-3.88398986E+00
 21
1.89442863E+02
  0
LINE
  8
0
 62
4
 10
5.24998474E+00
 20
1.86442863E+02
 11
-5.61604066E+00
 21
1.86442863E+02
  0
LINE
  8
0
 62
6
 10
-1.54820356E+01
 20
1.85796097E+02
 11
-1.20179340E+01
 21
1.91796097E+02
  0
LINE
  8
0
 62
4
 10
-2.37499847E+01
 20
1.87296097E+02
 11
-1.46160101E+01
 21
1.87296097E+02
  0
LINE
  8
0
 62
4
 10
-2.37499847E+01
 20
1.90296097E+02
 11
-1.28839593E+01
 21
1.90296097E+02
  0
ARC
  8
0
 62
4
 10
2.02654613E+01
 20
1.80737030E+02
 40
1.18100000E+01
 50
6.94673007E+01
 51
9.00000002E+01
  0
ARC
  8
0
 62
4
 10
2.02499847E+01
 20
1.80737030E+02
 40
1.18100000E+01
 50
9.00000002E+01
 51
1.10273888E+02
  0
LINE
  8
0
 62
4
 10
2.44077230E+01
 20
1.90037014E+02
 11
2.44077230E+01
 21
1.91796767E+02
  0
LINE
  8
0
 62
4
 10
2.42499847E+01
 20
1.89657072E+02
 11
2.42499847E+01
 21
1.90031616E+02
  0
LINE
  8
0
 62
4
 10
9.34998474E+00
 20
1.90566218E+02
 11
9.34998474E+00
 21
1.91727269E+02
  0
LINE
  8
0
 62
4
 10
1.61499847E+01
 20
1.90566218E+02
 11
1.61499847E+01
 21
1.91727269E+02
  0
ARC
  8
0
 62
4
 10
1.27499847E+01
 20
1.81187858E+02
 40
1.18100000E+01
 50
7.71724899E+01
 51
1.02827510E+02
  0
ARC
  8
0
 62
4
 10
1.03499844E+01
 20
1.91728072E+02
 40
1.00000000E+00
 50
1.02827510E+02
 51
1.80000000E+02
  0
ARC
  8
0
 62
4
 10
1.51499851E+01
 20
1.91728072E+02
 40
1.00000000E+00
 50
3.60000000E+02
 51
7.71724899E+01
  0
LINE
  8
0
 62
4
 10
8.94998474E+00
 20
1.89595988E+02
 11
8.94998474E+00
 21
1.90566218E+02
  0
LINE
  8
0
 62
4
 10
1.65499847E+01
 20
1.89595988E+02
 11
1.65499847E+01
 21
1.90566218E+02
  0
LINE
  8
0
 62
6
 10
1.82499848E+01
 20
1.60971002E+02
 11
1.82499848E+01
 21
1.63978324E+02
  0
LINE
  8
0
 62
6
 10
1.52499848E+01
 20
1.60971002E+02
 11
1.52499848E+01
 21
1.63978324E+02
  0
LINE
  8
0
 62
4
 10
1.87499848E+01
 20
1.60986276E+02
 11
1.87499848E+01
 21
1.63978324E+02
  0
LINE
  8
0
 62
4
 10
1.47499848E+01
 20
1.60986276E+02
 11
1.47499848E+01
 21
1.63978324E+02
  0
LINE
  8
0
 62
4
 10
2.02499847E+01
 20
1.63978324E+02
 11
2.02499847E+01
 21
1.79219021E+02
  0
LINE
  8
0
 62
4
 10
5.24998474E+00
 20
1.63978324E+02
 11
5.24998474E+00
 21
1.89796691E+02
  0
LINE
  8
0
 62
4
 10
3.52499847E+01
 20
1.78967428E+02
 11
3.52499847E+01
 21
1.89977463E+02
  0
LINE
  8
0
  6
CENTER
 62
6
 10
8.74998471E+00
 20
1.58253916E+02
 11
8.74998471E+00
 21
1.68519495E+02
  0
LINE
  8
0
  6
CENTER
 62
6
 10
1.67499847E+01
 20
1.58253916E+02
 11
1.67499847E+01
 21
1.68519495E+02
  0
LINE
  8
0
  6
CENTER
 62
6
 10
1.27499847E+01
 20
1.87819495E+02
 11
1.27499847E+01
 21
1.91819495E+02
  0
LINE
  8
0
  6
CENTER
 62
6
 10
2.77499847E+01
 20
1.87819495E+02
 11
2.77499847E+01
 21
1.91819495E+02
  0
LINE
  8
0
  6
CENTER
 62
6
 10
2.02499847E+01
 20
1.87819495E+02
 11
2.02499847E+01
 21
1.91819495E+02
  0
LINE
  8
0
 62
4
 10
3.67499847E+01
 20
1.86788314E+02
 11
3.67499847E+01
 21
1.89092499E+02
  0
ARC
  8
0
 62
4
 10
1.67499848E+01
 20
2.18267514E+02
 40
5.73161426E+01
 50
2.68000305E+02
 51
2.71999695E+02
  0
LINE
  8
0
 62
6
 10
7.24998477E+00
 20
1.60971002E+02
 11
7.24998477E+00
 21
1.63978324E+02
  0
LINE
  8
0
 62
4
 10
6.74998477E+00
 20
1.60986276E+02
 11
6.74998477E+00
 21
1.63978324E+02
  0
ARC
  8
0
 62
4
 10
8.74998477E+00
 20
2.18267514E+02
 40
5.73161426E+01
 50
2.68000305E+02
 51
2.71999695E+02
  0
LINE
  8
0
 62
6
 10
1.02499848E+01
 20
1.60971002E+02
 11
1.02499848E+01
 21
1.63978324E+02
  0
LINE
  8
0
 62
4
 10
1.07499848E+01
 20
1.60986276E+02
 11
1.07499848E+01
 21
1.63978324E+02
  0
LINE
  8
0
 62
4
 10
2.02499847E+01
 20
1.63978324E+02
 11
5.24998474E+00
 21
1.63978324E+02
  0
LINE
  8
0
 62
4
 10
2.02499847E+01
 20
1.72220087E+02
 11
5.24998474E+00
 21
1.72220087E+02
  0
LINE
  8
0
 62
4
 10
3.52499847E+01
 20
1.79219021E+02
 11
5.24998474E+00
 21
1.79219021E+02
  0
LINE
  8
0
 62
4
 10
3.52499847E+01
 20
1.89517453E+02
 11
5.24998474E+00
 21
1.89517453E+02
  0
LINE
  8
0
 62
4
 10
3.52499847E+01
 20
1.89796691E+02
 11
2.42499847E+01
 21
1.89796691E+02
  0
LINE
  8
0
 62
4
 10
3.52499847E+01
 20
1.78967428E+02
 11
2.02499847E+01
 21
1.78967428E+02
  0
LINE
  8
0
 62
4
 10
3.52499847E+01
 20
1.85908263E+02
 11
3.67499847E+01
 21
1.86788314E+02
  0
LINE
  8
0
 62
4
 10
3.52499847E+01
 20
1.89907653E+02
 11
3.67499847E+01
 21
1.89052969E+02
  0
LINE
  8
0
 62
4
 10
3.67499847E+01
 20
1.89092499E+02
 11
3.52499847E+01
 21
1.89977463E+02
  0
LINE
  8
0
 62
4
 10
3.52499847E+01
 20
1.89977463E+02
 11
2.42499847E+01
 21
1.89977463E+02
  0
ARC
  8
0
 62
4
 10
2.02538539E+01
 20
3.09117322E+02
 40
1.19152736E+02
 50
2.68218671E+02
 51
2.71997834E+02
  0
POLYLINE
  8
0
 62
4
 66
1
  0
VERTEX
  8
0
 62
4
 10
9.34998469E+00
 20
1.90625454E+02
  0
VERTEX
  8
0
 62
4
 10
9.21340303E+00
 20
1.90620098E+02
  0
VERTEX
  8
0
 62
4
 10
9.10445516E+00
 20
1.90614553E+02
  0
VERTEX
  8
0
 62
4
 10
9.02399238E+00
 20
1.90608861E+02
  0
VERTEX
  8
0
 62
4
 10
8.97264340E+00
 20
1.90603068E+02
  0
VERTEX
  8
0
 62
4
 10
8.95080945E+00
 20
1.90597218E+02
  0
VERTEX
  8
0
 62
4
 10
8.95866112E+00
 20
1.90591357E+02
  0
VERTEX
  8
0
 62
4
 10
8.99613707E+00
 20
1.90585531E+02
  0
VERTEX
  8
0
 62
4
 10
9.06294448E+00
 20
1.90579786E+02
  0
VERTEX
  8
0
 62
4
 10
9.15856132E+00
 20
1.90574166E+02
  0
VERTEX
  8
0
 62
4
 10
9.28224048E+00
 20
1.90568716E+02
  0
VERTEX
  8
0
 62
4
 10
9.43301556E+00
 20
1.90563477E+02
  0
VERTEX
  8
0
 62
4
 10
9.60970846E+00
 20
1.90558492E+02
  0
VERTEX
  8
0
 62
4
 10
9.81093854E+00
 20
1.90553798E+02
  0
VERTEX
  8
0
 62
4
 10
1.00351335E+01
 20
1.90549432E+02
  0
VERTEX
  8
0
 62
4
 10
1.02805414E+01
 20
1.90545430E+02
  0
VERTEX
  8
0
 62
4
 10
1.05452449E+01
 20
1.90541821E+02
  0
VERTEX
  8
0
 62
4
 10
1.08271755E+01
 20
1.90538634E+02
  0
VERTEX
  8
0
 62
4
 10
1.11241304E+01
 20
1.90535894E+02
  0
VERTEX
  8
0
 62
4
 10
1.14337893E+01
 20
1.90533622E+02
  0
VERTEX
  8
0
 62
4
 10
1.17537325E+01
 20
1.90531837E+02
  0
VERTEX
  8
0
 62
4
 10
1.20814601E+01
 20
1.90530551E+02
  0
VERTEX
  8
0
 62
4
 10
1.24144114E+01
 20
1.90529776E+02
  0
VERTEX
  8
0
 62
4
 10
1.27499847E+01
 20
1.90529517E+02
  0
VERTEX
  8
0
 62
4
 10
1.30855581E+01
 20
1.90529776E+02
  0
VERTEX
  8
0
 62
4
 10
1.34185093E+01
 20
1.90530551E+02
  0
VERTEX
  8
0
 62
4
 10
1.37462370E+01
 20
1.90531837E+02
  0
VERTEX
  8
0
 62
4
 10
1.40661802E+01
 20
1.90533622E+02
  0
VERTEX
  8
0
 62
4
 10
1.43758390E+01
 20
1.90535894E+02
  0
VERTEX
  8
0
 62
4
 10
1.46727939E+01
 20
1.90538634E+02
  0
VERTEX
  8
0
 62
4
 10
1.49547246E+01
 20
1.90541821E+02
  0
VERTEX
  8
0
 62
4
 10
1.52194280E+01
 20
1.90545430E+02
  0
VERTEX
  8
0
 62
4
 10
1.54648360E+01
 20
1.90549432E+02
  0
VERTEX
  8
0
 62
4
 10
1.56890309E+01
 20
1.90553798E+02
  0
VERTEX
  8
0
 62
4
 10
1.58902610E+01
 20
1.90558492E+02
  0
VERTEX
  8
0
 62
4
 10
1.60669539E+01
 20
1.90563477E+02
  0
VERTEX
  8
0
 62
4
 10
1.62177289E+01
 20
1.90568716E+02
  0
VERTEX
  8
0
 62
4
 10
1.63414081E+01
 20
1.90574166E+02
  0
VERTEX
  8
0
 62
4
 10
1.64370249E+01
 20
1.90579786E+02
  0
VERTEX
  8
0
 62
4
 10
1.65038323E+01
 20
1.90585531E+02
  0
VERTEX
  8
0
 62
4
 10
1.65413083E+01
 20
1.90591357E+02
  0
VERTEX
  8
0
 62
4
 10
1.65491599E+01
 20
1.90597218E+02
  0
VERTEX
  8
0
 62
4
 10
1.65273260E+01
 20
1.90603068E+02
  0
VERTEX
  8
0
 62
4
 10
1.64759770E+01
 20
1.90608861E+02
  0
VERTEX
  8
0
 62
4
 10
1.63955142E+01
 20
1.90614553E+02
  0
VERTEX
  8
0
 62
4
 10
1.62865664E+01
 20
1.90620098E+02
  0
VERTEX
  8
0
 62
4
 10
1.61499847E+01
 20
1.90625454E+02
  0
SEQEND
  8
0
  0
POLYLINE
  8
0
 62
4
 66
1
  0
VERTEX
  8
0
 62
4
 10
8.94998470E+00
 20
1.89595988E+02
  0
VERTEX
  8
0
 62
4
 10
8.96528238E+00
 20
1.89590043E+02
  0
VERTEX
  8
0
 62
4
 10
9.01105226E+00
 20
1.89584146E+02
  0
VERTEX
  8
0
 62
4
 10
9.08692583E+00
 20
1.89578345E+02
  0
VERTEX
  8
0
 62
4
 10
9.19229219E+00
 20
1.89572685E+02
  0
VERTEX
  8
0
 62
4
 10
9.32630300E+00
 20
1.89567213E+02
  0
VERTEX
  8
0
 62
4
 10
9.48787928E+00
 20
1.89561973E+02
  0
VERTEX
  8
0
 62
4
 10
9.67572011E+00
 20
1.89557007E+02
  0
VERTEX
  8
0
 62
4
 10
9.88831312E+00
 20
1.89552354E+02
  0
VERTEX
  8
0
 62
4
 10
1.01239466E+01
 20
1.89548053E+02
  0
VERTEX
  8
0
 62
4
 10
1.03807234E+01
 20
1.89544138E+02
  0
VERTEX
  8
0
 62
4
 10
1.06565762E+01
 20
1.89540640E+02
  0
VERTEX
  8
0
 62
4
 10
1.09492838E+01
 20
1.89537588E+02
  0
VERTEX
  8
0
 62
4
 10
1.12564896E+01
 20
1.89535006E+02
  0
VERTEX
  8
0
 62
4
 10
1.15757201E+01
 20
1.89532915E+02
  0
VERTEX
  8
0
 62
4
 10
1.19044051E+01
 20
1.89531332E+02
  0
VERTEX
  8
0
 62
4
 10
1.22398983E+01
 20
1.89530269E+02
  0
VERTEX
  8
0
 62
4
 10
1.25794983E+01
 20
1.89529736E+02
  0
VERTEX
  8
0
 62
4
 10
1.29204710E+01
 20
1.89529736E+02
  0
VERTEX
  8
0
 62
4
 10
1.32600711E+01
 20
1.89530269E+02
  0
VERTEX
  8
0
 62
4
 10
1.35955642E+01
 20
1.89531332E+02
  0
VERTEX
  8
0
 62
4
 10
1.39242493E+01
 20
1.89532915E+02
  0
VERTEX
  8
0
 62
4
 10
1.42434798E+01
 20
1.89535006E+02
  0
VERTEX
  8
0
 62
4
 10
1.45506856E+01
 20
1.89537588E+02
  0
VERTEX
  8
0
 62
4
 10
1.48433932E+01
 20
1.89540640E+02
  0
VERTEX
  8
0
 62
4
 10
1.51192459E+01
 20
1.89544138E+02
  0
VERTEX
  8
0
 62
4
 10
1.53760227E+01
 20
1.89548053E+02
  0
VERTEX
  8
0
 62
4
 10
1.56116563E+01
 20
1.89552354E+02
  0
VERTEX
  8
0
 62
4
 10
1.58242493E+01
 20
1.89557007E+02
  0
VERTEX
  8
0
 62
4
 10
1.60120901E+01
 20
1.89561973E+02
  0
VERTEX
  8
0
 62
4
 10
1.61736664E+01
 20
1.89567213E+02
  0
VERTEX
  8
0
 62
4
 10
1.63076772E+01
 20
1.89572685E+02
  0
VERTEX
  8
0
 62
4
 10
1.64130436E+01
 20
1.89578345E+02
  0
VERTEX
  8
0
 62
4
 10
1.64889171E+01
 20
1.89584146E+02
  0
VERTEX
  8
0
 62
4
 10
1.65346870E+01
 20
1.89590043E+02
  0
VERTEX
  8
0
 62
4
 10
1.65499847E+01
 20
1.89595988E+02
  0
SEQEND
  8
0
  0
LINE
  8
0
 62
4
 10
8.94998474E+00
 20
1.89796691E+02
 11
5.24998474E+00
 21
1.89796691E+02
  0
POLYLINE
  8
0
 62
4
 66
1
  0
VERTEX
  8
0
 62
4
 10
1.65499847E+01
 20
1.89630547E+02
  0
VERTEX
  8
0
 62
4
 10
1.66992927E+01
 20
1.89624926E+02
  0
VERTEX
  8
0
 62
4
 10
1.68765613E+01
 20
1.89619559E+02
  0
VERTEX
  8
0
 62
4
 10
1.70803948E+01
 20
1.89614488E+02
  0
VERTEX
  8
0
 62
4
 10
1.73091879E+01
 20
1.89609751E+02
  0
VERTEX
  8
0
 62
4
 10
1.75611389E+01
 20
1.89605388E+02
  0
VERTEX
  8
0
 62
4
 10
1.78342639E+01
 20
1.89601431E+02
  0
VERTEX
  8
0
 62
4
 10
1.81264120E+01
 20
1.89597913E+02
  0
VERTEX
  8
0
 62
4
 10
1.84352826E+01
 20
1.89594860E+02
  0
VERTEX
  8
0
 62
4
 10
1.87584435E+01
 20
1.89592297E+02
  0
VERTEX
  8
0
 62
4
 10
1.90933499E+01
 20
1.89590245E+02
  0
VERTEX
  8
0
 62
4
 10
1.94373644E+01
 20
1.89588718E+02
  0
VERTEX
  8
0
 62
4
 10
1.97877782E+01
 20
1.89587730E+02
  0
VERTEX
  8
0
 62
4
 10
2.01418316E+01
 20
1.89587288E+02
  0
VERTEX
  8
0
 62
4
 10
2.04967368E+01
 20
1.89587395E+02
  0
VERTEX
  8
0
 62
4
 10
2.08496988E+01
 20
1.89588051E+02
  0
VERTEX
  8
0
 62
4
 10
2.11979382E+01
 20
1.89589251E+02
  0
VERTEX
  8
0
 62
4
 10
2.15387128E+01
 20
1.89590985E+02
  0
VERTEX
  8
0
 62
4
 10
2.18693390E+01
 20
1.89593239E+02
  0
VERTEX
  8
0
 62
4
 10
2.21872133E+01
 20
1.89595996E+02
  0
VERTEX
  8
0
 62
4
 10
2.24898324E+01
 20
1.89599233E+02
  0
VERTEX
  8
0
 62
4
 10
2.27748133E+01
 20
1.89602927E+02
  0
VERTEX
  8
0
 62
4
 10
2.30399119E+01
 20
1.89607046E+02
  0
VERTEX
  8
0
 62
4
 10
2.32830406E+01
 20
1.89611560E+02
  0
VERTEX
  8
0
 62
4
 10
2.35022848E+01
 20
1.89616432E+02
  0
VERTEX
  8
0
 62
4
 10
2.36959181E+01
 20
1.89621624E+02
  0
VERTEX
  8
0
 62
4
 10
2.38624156E+01
 20
1.89627095E+02
  0
VERTEX
  8
0
 62
4
 10
2.40004662E+01
 20
1.89632802E+02
  0
VERTEX
  8
0
 62
4
 10
2.41089829E+01
 20
1.89638700E+02
  0
VERTEX
  8
0
 62
4
 10
2.41871109E+01
 20
1.89644743E+02
  0
VERTEX
  8
0
 62
4
 10
2.42342353E+01
 20
1.89650883E+02
  0
VERTEX
  8
0
 62
4
 10
2.42499847E+01
 20
1.89657072E+02
  0
SEQEND
  8
0
  0
ARC
  8
0
 62
4
 10
-3.87654613E+01
 20
1.96001930E+02
 40
1.18100000E+01
 50
2.49467301E+02
 51
2.70000000E+02
  0
ARC
  8
0
 62
4
 10
-3.87499847E+01
 20
1.96001930E+02
 40
1.18100000E+01
 50
2.70000000E+02
 51
2.90273889E+02
  0
LINE
  8
0
 62
4
 10
-4.29077230E+01
 20
1.86701946E+02
 11
-4.29077230E+01
 21
1.84942193E+02
  0
LINE
  8
0
 62
4
 10
-4.27499847E+01
 20
1.87081888E+02
 11
-4.27499847E+01
 21
1.86707344E+02
  0
LINE
  8
0
 62
4
 10
-2.78499847E+01
 20
1.86172742E+02
 11
-2.78499847E+01
 21
1.85011691E+02
  0
LINE
  8
0
 62
4
 10
-3.46499847E+01
 20
1.86172742E+02
 11
-3.46499847E+01
 21
1.85011691E+02
  0
ARC
  8
0
 62
4
 10
-3.12499847E+01
 20
1.95551102E+02
 40
1.18100000E+01
 50
2.57172490E+02
 51
2.82827510E+02
  0
ARC
  8
0
 62
4
 10
-2.88499844E+01
 20
1.85010888E+02
 40
1.00000000E+00
 50
2.82827510E+02
 51
0.00000000E+00
  0
ARC
  8
0
 62
4
 10
-3.36499851E+01
 20
1.85010888E+02
 40
1.00000000E+00
 50
1.80000000E+02
 51
2.57172490E+02
  0
LINE
  8
0
 62
4
 10
-2.74499847E+01
 20
1.87142971E+02
 11
-2.74499847E+01
 21
1.86172742E+02
  0
LINE
  8
0
 62
4
 10
-3.50499847E+01
 20
1.87142971E+02
 11
-3.50499847E+01
 21
1.86172742E+02
  0
LINE
  8
0
 62
4
 10
-3.87499847E+01
 20
2.12760636E+02
 11
-3.87499847E+01
 21
1.97519939E+02
  0
LINE
  8
0
 62
4
 10
-2.37499847E+01
 20
2.12760636E+02
 11
-2.37499847E+01
 21
1.86942269E+02
  0
LINE
  8
0
 62
4
 10
-5.37499847E+01
 20
1.97771532E+02
 11
-5.37499847E+01
 21
1.86761497E+02
  0
LINE
  8
0
  6
CENTER
 62
6
 10
-3.12499847E+01
 20
1.88919465E+02
 11
-3.12499847E+01
 21
1.84919465E+02
  0
LINE
  8
0
  6
CENTER
 62
6
 10
-4.62499847E+01
 20
1.88919465E+02
 11
-4.62499847E+01
 21
1.84919465E+02
  0
LINE
  8
0
  6
CENTER
 62
6
 10
-3.87499847E+01
 20
1.88919465E+02
 11
-3.87499847E+01
 21
1.84919465E+02
  0
LINE
  8
0
 62
4
 10
-5.52499847E+01
 20
1.89950645E+02
 11
-5.52499847E+01
 21
1.87646461E+02
  0
LINE
  8
0
 62
4
 10
-3.87499847E+01
 20
2.12760636E+02
 11
-2.37499847E+01
 21
2.12760636E+02
  0
LINE
  8
0
 62
4
 10
-3.87499847E+01
 20
2.04518872E+02
 11
-2.37499847E+01
 21
2.04518872E+02
  0
LINE
  8
0
 62
4
 10
-5.37499847E+01
 20
1.97519939E+02
 11
-2.37499847E+01
 21
1.97519939E+02
  0
LINE
  8
0
 62
4
 10
-5.37499847E+01
 20
1.87221507E+02
 11
-2.37499847E+01
 21
1.87221507E+02
  0
LINE
  8
0
 62
4
 10
-5.37499847E+01
 20
1.86942269E+02
 11
-4.27499847E+01
 21
1.86942269E+02
  0
LINE
  8
0
 62
4
 10
-5.37499847E+01
 20
1.97771532E+02
 11
-3.87499847E+01
 21
1.97771532E+02
  0
LINE
  8
0
 62
4
 10
-5.37499847E+01
 20
1.90830697E+02
 11
-5.52499847E+01
 21
1.89950645E+02
  0
LINE
  8
0
 62
4
 10
-5.37499847E+01
 20
1.86831307E+02
 11
-5.52499847E+01
 21
1.87685990E+02
  0
LINE
  8
0
 62
4
 10
-5.52499847E+01
 20
1.87646461E+02
 11
-5.37499847E+01
 21
1.86761497E+02
  0
LINE
  8
0
 62
4
 10
-5.37499847E+01
 20
1.86761497E+02
 11
-4.27499847E+01
 21
1.86761497E+02
  0
ARC
  8
0
 62
4
 10
-3.87538539E+01
 20
6.76216377E+01
 40
1.19152736E+02
 50
8.82186710E+01
 51
9.19978341E+01
  0
POLYLINE
  8
0
 62
4
 66
1
  0
VERTEX
  8
0
 62
4
 10
-2.78499847E+01
 20
1.86113506E+02
  0
VERTEX
  8
0
 62
4
 10
-2.77134030E+01
 20
1.86118862E+02
  0
VERTEX
  8
0
 62
4
 10
-2.76044552E+01
 20
1.86124407E+02
  0
VERTEX
  8
0
 62
4
 10
-2.75239924E+01
 20
1.86130099E+02
  0
VERTEX
  8
0
 62
4
 10
-2.74726434E+01
 20
1.86135892E+02
  0
VERTEX
  8
0
 62
4
 10
-2.74508094E+01
 20
1.86141742E+02
  0
VERTEX
  8
0
 62
4
 10
-2.74586611E+01
 20
1.86147603E+02
  0
VERTEX
  8
0
 62
4
 10
-2.74961371E+01
 20
1.86153429E+02
  0
VERTEX
  8
0
 62
4
 10
-2.75629445E+01
 20
1.86159174E+02
  0
VERTEX
  8
0
 62
4
 10
-2.76585613E+01
 20
1.86164794E+02
  0
VERTEX
  8
0
 62
4
 10
-2.77822405E+01
 20
1.86170244E+02
  0
VERTEX
  8
0
 62
4
 10
-2.79330156E+01
 20
1.86175483E+02
  0
VERTEX
  8
0
 62
4
 10
-2.81097085E+01
 20
1.86180468E+02
  0
VERTEX
  8
0
 62
4
 10
-2.83109385E+01
 20
1.86185162E+02
  0
VERTEX
  8
0
 62
4
 10
-2.85351335E+01
 20
1.86189528E+02
  0
VERTEX
  8
0
 62
4
 10
-2.87805414E+01
 20
1.86193530E+02
  0
VERTEX
  8
0
 62
4
 10
-2.90452449E+01
 20
1.86197139E+02
  0
VERTEX
  8
0
 62
4
 10
-2.93271755E+01
 20
1.86200326E+02
  0
VERTEX
  8
0
 62
4
 10
-2.96241304E+01
 20
1.86203066E+02
  0
VERTEX
  8
0
 62
4
 10
-2.99337893E+01
 20
1.86205338E+02
  0
VERTEX
  8
0
 62
4
 10
-3.02537325E+01
 20
1.86207123E+02
  0
VERTEX
  8
0
 62
4
 10
-3.05814601E+01
 20
1.86208409E+02
  0
VERTEX
  8
0
 62
4
 10
-3.09144114E+01
 20
1.86209184E+02
  0
VERTEX
  8
0
 62
4
 10
-3.12499847E+01
 20
1.86209443E+02
  0
VERTEX
  8
0
 62
4
 10
-3.15855581E+01
 20
1.86209184E+02
  0
VERTEX
  8
0
 62
4
 10
-3.19185093E+01
 20
1.86208409E+02
  0
VERTEX
  8
0
 62
4
 10
-3.22462370E+01
 20
1.86207123E+02
  0
VERTEX
  8
0
 62
4
 10
-3.25661802E+01
 20
1.86205338E+02
  0
VERTEX
  8
0
 62
4
 10
-3.28758390E+01
 20
1.86203066E+02
  0
VERTEX
  8
0
 62
4
 10
-3.31727939E+01
 20
1.86200326E+02
  0
VERTEX
  8
0
 62
4
 10
-3.34547246E+01
 20
1.86197139E+02
  0
VERTEX
  8
0
 62
4
 10
-3.37194280E+01
 20
1.86193531E+02
  0
VERTEX
  8
0
 62
4
 10
-3.39648360E+01
 20
1.86189528E+02
  0
VERTEX
  8
0
 62
4
 10
-3.41890309E+01
 20
1.86185162E+02
  0
VERTEX
  8
0
 62
4
 10
-3.43902610E+01
 20
1.86180468E+02
  0
VERTEX
  8
0
 62
4
 10
-3.45669539E+01
 20
1.86175483E+02
  0
VERTEX
  8
0
 62
4
 10
-3.47177289E+01
 20
1.86170244E+02
  0
VERTEX
  8
0
 62
4
 10
-3.48414081E+01
 20
1.86164794E+02
  0
VERTEX
  8
0
 62
4
 10
-3.49370249E+01
 20
1.86159174E+02
  0
VERTEX
  8
0
 62
4
 10
-3.50038323E+01
 20
1.86153429E+02
  0
VERTEX
  8
0
 62
4
 10
-3.50413083E+01
 20
1.86147603E+02
  0
VERTEX
  8
0
 62
4
 10
-3.50491600E+01
 20
1.86141742E+02
  0
VERTEX
  8
0
 62
4
 10
-3.50273260E+01
 20
1.86135892E+02
  0
VERTEX
  8
0
 62
4
 10
-3.49759770E+01
 20
1.86130099E+02
  0
VERTEX
  8
0
 62
4
 10
-3.48955142E+01
 20
1.86124407E+02
  0
VERTEX
  8
0
 62
4
 10
-3.47865664E+01
 20
1.86118862E+02
  0
VERTEX
  8
0
 62
4
 10
-3.46499847E+01
 20
1.86113506E+02
  0
SEQEND
  8
0
  0
POLYLINE
  8
0
 62
4
 66
1
  0
VERTEX
  8
0
 62
4
 10
-2.74499847E+01
 20
1.87142971E+02
  0
VERTEX
  8
0
 62
4
 10
-2.74652824E+01
 20
1.87148916E+02
  0
VERTEX
  8
0
 62
4
 10
-2.75110523E+01
 20
1.87154813E+02
  0
VERTEX
  8
0
 62
4
 10
-2.75869258E+01
 20
1.87160614E+02
  0
VERTEX
  8
0
 62
4
 10
-2.76922922E+01
 20
1.87166274E+02
  0
VERTEX
  8
0
 62
4
 10
-2.78263030E+01
 20
1.87171746E+02
  0
VERTEX
  8
0
 62
4
 10
-2.79878793E+01
 20
1.87176986E+02
  0
VERTEX
  8
0
 62
4
 10
-2.81757201E+01
 20
1.87181952E+02
  0
VERTEX
  8
0
 62
4
 10
-2.83883131E+01
 20
1.87186605E+02
  0
VERTEX
  8
0
 62
4
 10
-2.86239466E+01
 20
1.87190906E+02
  0
VERTEX
  8
0
 62
4
 10
-2.88807234E+01
 20
1.87194821E+02
  0
VERTEX
  8
0
 62
4
 10
-2.91565762E+01
 20
1.87198319E+02
  0
VERTEX
  8
0
 62
4
 10
-2.94492838E+01
 20
1.87201371E+02
  0
VERTEX
  8
0
 62
4
 10
-2.97564896E+01
 20
1.87203953E+02
  0
VERTEX
  8
0
 62
4
 10
-3.00757201E+01
 20
1.87206044E+02
  0
VERTEX
  8
0
 62
4
 10
-3.04044051E+01
 20
1.87207627E+02
  0
VERTEX
  8
0
 62
4
 10
-3.07398983E+01
 20
1.87208690E+02
  0
VERTEX
  8
0
 62
4
 10
-3.10794983E+01
 20
1.87209223E+02
  0
VERTEX
  8
0
 62
4
 10
-3.14204710E+01
 20
1.87209223E+02
  0
VERTEX
  8
0
 62
4
 10
-3.17600711E+01
 20
1.87208690E+02
  0
VERTEX
  8
0
 62
4
 10
-3.20955642E+01
 20
1.87207627E+02
  0
VERTEX
  8
0
 62
4
 10
-3.24242493E+01
 20
1.87206044E+02
  0
VERTEX
  8
0
 62
4
 10
-3.27434798E+01
 20
1.87203953E+02
  0
VERTEX
  8
0
 62
4
 10
-3.30506856E+01
 20
1.87201371E+02
  0
VERTEX
  8
0
 62
4
 10
-3.33433932E+01
 20
1.87198319E+02
  0
VERTEX
  8
0
 62
4
 10
-3.36192459E+01
 20
1.87194821E+02
  0
VERTEX
  8
0
 62
4
 10
-3.38760227E+01
 20
1.87190906E+02
  0
VERTEX
  8
0
 62
4
 10
-3.41116563E+01
 20
1.87186605E+02
  0
VERTEX
  8
0
 62
4
 10
-3.43242493E+01
 20
1.87181952E+02
  0
VERTEX
  8
0
 62
4
 10
-3.45120901E+01
 20
1.87176986E+02
  0
VERTEX
  8
0
 62
4
 10
-3.46736664E+01
 20
1.87171746E+02
  0
VERTEX
  8
0
 62
4
 10
-3.48076772E+01
 20
1.87166274E+02
  0
VERTEX
  8
0
 62
4
 10
-3.49130436E+01
 20
1.87160614E+02
  0
VERTEX
  8
0
 62
4
 10
-3.49889171E+01
 20
1.87154813E+02
  0
VERTEX
  8
0
 62
4
 10
-3.50346870E+01
 20
1.87148916E+02
  0
VERTEX
  8
0
 62
4
 10
-3.50499847E+01
 20
1.87142971E+02
  0
SEQEND
  8
0
  0
LINE
  8
0
 62
4
 10
-2.74499847E+01
 20
1.86942269E+02
 11
-2.37499847E+01
 21
1.86942269E+02
  0
POLYLINE
  8
0
 62
4
 66
1
  0
VERTEX
  8
0
 62
4
 10
-3.50499847E+01
 20
1.87108413E+02
  0
VERTEX
  8
0
 62
4
 10
-3.51992927E+01
 20
1.87114034E+02
  0
VERTEX
  8
0
 62
4
 10
-3.53765613E+01
 20
1.87119401E+02
  0
VERTEX
  8
0
 62
4
 10
-3.55803948E+01
 20
1.87124472E+02
  0
VERTEX
  8
0
 62
4
 10
-3.58091879E+01
 20
1.87129209E+02
  0
VERTEX
  8
0
 62
4
 10
-3.60611389E+01
 20
1.87133572E+02
  0
VERTEX
  8
0
 62
4
 10
-3.63342639E+01
 20
1.87137529E+02
  0
VERTEX
  8
0
 62
4
 10
-3.66264120E+01
 20
1.87141047E+02
  0
VERTEX
  8
0
 62
4
 10
-3.69352826E+01
 20
1.87144100E+02
  0
VERTEX
  8
0
 62
4
 10
-3.72584435E+01
 20
1.87146663E+02
  0
VERTEX
  8
0
 62
4
 10
-3.75933499E+01
 20
1.87148715E+02
  0
VERTEX
  8
0
 62
4
 10
-3.79373644E+01
 20
1.87150242E+02
  0
VERTEX
  8
0
 62
4
 10
-3.82877782E+01
 20
1.87151230E+02
  0
VERTEX
  8
0
 62
4
 10
-3.86418316E+01
 20
1.87151672E+02
  0
VERTEX
  8
0
 62
4
 10
-3.89967368E+01
 20
1.87151565E+02
  0
VERTEX
  8
0
 62
4
 10
-3.93496988E+01
 20
1.87150909E+02
  0
VERTEX
  8
0
 62
4
 10
-3.96979382E+01
 20
1.87149709E+02
  0
VERTEX
  8
0
 62
4
 10
-4.00387128E+01
 20
1.87147975E+02
  0
VERTEX
  8
0
 62
4
 10
-4.03693390E+01
 20
1.87145721E+02
  0
VERTEX
  8
0
 62
4
 10
-4.06872133E+01
 20
1.87142964E+02
  0
VERTEX
  8
0
 62
4
 10
-4.09898324E+01
 20
1.87139727E+02
  0
VERTEX
  8
0
 62
4
 10
-4.12748133E+01
 20
1.87136033E+02
  0
VERTEX
  8
0
 62
4
 10
-4.15399119E+01
 20
1.87131914E+02
  0
VERTEX
  8
0
 62
4
 10
-4.17830406E+01
 20
1.87127400E+02
  0
VERTEX
  8
0
 62
4
 10
-4.20022848E+01
 20
1.87122528E+02
  0
VERTEX
  8
0
 62
4
 10
-4.21959181E+01
 20
1.87117336E+02
  0
VERTEX
  8
0
 62
4
 10
-4.23624156E+01
 20
1.87111865E+02
  0
VERTEX
  8
0
 62
4
 10
-4.25004662E+01
 20
1.87106158E+02
  0
VERTEX
  8
0
 62
4
 10
-4.26089829E+01
 20
1.87100260E+02
  0
VERTEX
  8
0
 62
4
 10
-4.26871109E+01
 20
1.87094217E+02
  0
VERTEX
  8
0
 62
4
 10
-4.27342353E+01
 20
1.87088077E+02
  0
VERTEX
  8
0
 62
4
 10
-4.27499847E+01
 20
1.87081888E+02
  0
SEQEND
  8
0
  0
ARC
  8
0
 62
4
 10
-3.52499848E+01
 20
1.58471446E+02
 40
5.73161426E+01
 50
8.80003047E+01
 51
9.19996957E+01
  0
ARC
  8
0
 62
4
 10
-2.72499848E+01
 20
1.58471446E+02
 40
5.73161426E+01
 50
8.80003047E+01
 51
9.19996957E+01
  0
LINE
  8
0
 62
4
 10
-1.35749985E+02
 20
1.79869465E+02
 11
-1.29749985E+02
 21
1.79869465E+02
  0
LINE
  8
0
 62
4
 10
-1.35749985E+02
 20
1.96869465E+02
 11
-1.29749985E+02
 21
1.96869465E+02
  0
LINE
  8
0
 62
4
 10
-1.35749985E+02
 20
1.96869465E+02
 11
-1.35749985E+02
 21
1.79869465E+02
  0
LINE
  8
0
 62
4
 10
-1.29749985E+02
 20
1.96869465E+02
 11
-1.29749985E+02
 21
1.79869465E+02
  0
LINE
  8
0
 62
4
 10
-1.34990795E+02
 20
1.88369465E+02
 11
-1.30509174E+02
 21
1.88369465E+02
  0
ARC
  8
0
 62
4
 10
-1.23474478E+02
 20
1.84119465E+02
 40
1.22755063E+01
 50
1.59743841E+02
 51
2.00256159E+02
  0
ARC
  8
0
 62
4
 10
-1.23474478E+02
 20
1.92619465E+02
 40
1.22755063E+01
 50
1.59743841E+02
 51
2.00256159E+02
  0
ARC
  8
0
 62
4
 10
-1.42025491E+02
 20
1.92619465E+02
 40
1.22755064E+01
 50
3.39743842E+02
 51
2.02561585E+01
  0
ARC
  8
0
 62
4
 10
-1.42025491E+02
 20
1.84119465E+02
 40
1.22755064E+01
 50
3.39743842E+02
 51
2.02561585E+01
  0
LINE
  8
0
 62
7
 10
-2.37499847E+01
 20
2.07519428E+02
 11
4.17499847E+01
 21
2.07519428E+02
  0
LINE
  8
0
 62
7
 10
-2.37499847E+01
 20
2.02219440E+02
 11
4.17499847E+01
 21
2.02219440E+02
  0
LINE
  8
0
 62
7
 10
2.02499847E+01
 20
1.74519489E+02
 11
4.17499847E+01
 21
1.74519489E+02
  0
LINE
  8
0
 62
7
 10
2.02499847E+01
 20
1.69219501E+02
 11
4.17499847E+01
 21
1.69219501E+02
  0
LINE
  8
0
 62
4
 10
-2.42499808E+01
 20
-2.05760559E+02
 11
-2.42499808E+01
 21
-2.06482931E+02
  0
LINE
  8
0
 62
4
 10
-5.72499808E+01
 20
-2.05760582E+02
 11
-5.72499808E+01
 21
-2.06482954E+02
  0
LINE
  8
0
 62
4
 10
-7.52500167E+01
 20
-1.56660725E+02
 11
-7.02500167E+01
 21
-1.56660725E+02
  0
LINE
  8
0
  6
CENTER
 62
6
 10
-5.46499910E+01
 20
-1.94008008E+02
 11
-4.18499910E+01
 21
-1.94007999E+02
  0
LINE
  8
0
 62
4
 10
-5.57500159E+01
 20
-1.57858528E+02
 11
-4.07500159E+01
 21
-1.57858518E+02
  0
LINE
  8
0
 62
4
 10
-5.77499981E+01
 20
-1.82758138E+02
 11
-3.87499981E+01
 21
-1.82758125E+02
  0
LINE
  8
0
 62
4
 10
-6.02499941E+01
 20
-1.88252373E+02
 11
-6.02499846E+01
 21
-2.01642517E+02
  0
LINE
  8
0
 62
4
 10
-5.77499981E+01
 20
-1.82758138E+02
 11
-5.77499952E+01
 21
-1.86752849E+02
  0
LINE
  8
0
 62
4
 10
-4.07500159E+01
 20
-1.57858518E+02
 11
-4.07499981E+01
 21
-1.82758126E+02
  0
LINE
  8
0
 62
4
 10
-5.57500159E+01
 20
-1.57858528E+02
 11
-5.57499981E+01
 21
-1.82758137E+02
  0
LINE
  8
0
 62
4
 10
-5.57500114E+01
 20
-1.57153653E+02
 11
-5.43402600E+01
 21
-1.57858527E+02
  0
LINE
  8
0
 62
4
 10
-3.87499981E+01
 20
-1.82758125E+02
 11
-3.87499952E+01
 21
-1.86752849E+02
  0
LINE
  8
0
 62
4
 10
-5.57499987E+01
 20
-1.81839205E+02
 11
-4.07499987E+01
 21
-1.81839194E+02
  0
LINE
  8
0
 62
4
 10
-2.12499941E+01
 20
-1.88252837E+02
 11
-2.12499846E+01
 21
-2.01642489E+02
  0
LINE
  8
0
 62
4
 10
-5.72499808E+01
 20
-2.05760582E+02
 11
-2.42499808E+01
 21
-2.05760559E+02
  0
LINE
  8
0
 62
4
 10
-6.02499846E+01
 20
-2.01642517E+02
 11
-2.12499846E+01
 21
-2.01642489E+02
  0
LINE
  8
0
 62
4
 10
-6.02499856E+01
 20
-2.00143725E+02
 11
-2.12499856E+01
 21
-2.00143697E+02
  0
LINE
  8
0
 62
4
 10
-7.52500142E+01
 20
-1.60146851E+02
 11
-7.02500142E+01
 21
-1.60146848E+02
  0
LINE
  8
0
 62
4
 10
-7.52500089E+01
 20
-1.67650801E+02
 11
-7.02500089E+01
 21
-1.67650798E+02
  0
LINE
  8
0
 62
4
 10
-5.57500114E+01
 20
-1.57153653E+02
 11
-6.47500114E+01
 21
-1.57153659E+02
  0
LINE
  8
0
 62
4
 10
-6.52500110E+01
 20
-1.57653660E+02
 11
-6.52500017E+01
 21
-1.70653660E+02
  0
LINE
  8
0
 62
4
 10
-7.52500167E+01
 20
-1.56660725E+02
 11
-7.52500060E+01
 21
-1.71658633E+02
  0
LINE
  8
0
 62
4
 10
-7.02500167E+01
 20
-1.56660725E+02
 11
-7.02500060E+01
 21
-1.71658633E+02
  0
LINE
  8
0
 62
4
 10
-7.02500108E+01
 20
-1.57903663E+02
 11
-6.52500108E+01
 21
-1.57903659E+02
  0
LINE
  8
0
 62
4
 10
-7.02500019E+01
 20
-1.70403663E+02
 11
-6.52500019E+01
 21
-1.70403659E+02
  0
LINE
  8
0
 62
4
 10
-6.87500108E+01
 20
-1.57903662E+02
 11
-6.87500019E+01
 21
-1.70403662E+02
  0
LINE
  8
0
 62
4
 10
-6.87500105E+01
 20
-1.58403662E+02
 11
-6.52500105E+01
 21
-1.58403659E+02
  0
LINE
  8
0
 62
4
 10
-6.87500022E+01
 20
-1.69903662E+02
 11
-6.52500022E+01
 21
-1.69903659E+02
  0
ARC
  8
0
 62
4
 10
-6.47505030E+01
 20
-1.57653167E+02
 40
4.99508251E-01
 50
8.99436074E+01
 51
1.80056475E+02
  0
ARC
  8
0
 62
4
 10
-5.62494937E+01
 20
-1.71654052E+02
 40
4.99492993E-01
 50
3.59941854E+02
 51
9.00582282E+01
  0
ARC
  8
0
 62
4
 10
-2.27494867E+01
 20
-1.88252331E+02
 40
1.49949266E+00
 50
3.59980652E+02
 51
9.00194298E+01
  0
ARC
  8
0
 62
4
 10
-6.47494940E+01
 20
-1.70653152E+02
 40
5.00508007E-01
 50
1.80058166E+02
 51
2.69941916E+02
  0
ARC
  8
0
 62
4
 10
-5.87504863E+01
 20
-1.88252372E+02
 40
1.49950792E+00
 50
8.99812358E+01
 51
1.80018846E+02
  0
LINE
  8
0
 62
6
 10
-4.99649321E+01
 20
-1.95722928E+02
 11
-4.65350624E+01
 21
-1.92293053E+02
  0
LINE
  8
0
 62
6
 10
-4.65350600E+01
 20
-1.95722926E+02
 11
-4.99649346E+01
 21
-1.92293056E+02
  0
LINE
  8
0
 62
4
 10
-7.52500060E+01
 20
-1.71658633E+02
 11
-7.02500060E+01
 21
-1.71658633E+02
  0
LINE
  8
0
 62
4
 10
-6.47494940E+01
 20
-1.71153659E+02
 11
-5.62489937E+01
 21
-1.71153659E+02
  0
LINE
  8
0
 62
4
 10
-5.72499808E+01
 20
-2.05940255E+02
 11
-2.42499808E+01
 21
-2.05940255E+02
  0
LINE
  8
0
 62
4
 10
-5.72499952E+01
 20
-2.05759674E+02
 11
-2.42499952E+01
 21
-2.05759650E+02
  0
LINE
  8
0
 62
4
 10
-5.72499952E+01
 20
-2.05759674E+02
 11
-6.02499846E+01
 21
-2.01642517E+02
  0
LINE
  8
0
 62
4
 10
-2.42499952E+01
 20
-2.05759650E+02
 11
-2.12499846E+01
 21
-2.01642489E+02
  0
POLYLINE
  8
0
 62
4
 66
1
  0
VERTEX
  8
0
 62
4
 10
-5.16499906E+01
 20
-1.94056952E+02
  0
VERTEX
  8
0
 62
4
 10
-5.16372032E+01
 20
-1.94353080E+02
  0
VERTEX
  8
0
 62
4
 10
-5.15986371E+01
 20
-1.94646968E+02
  0
VERTEX
  8
0
 62
4
 10
-5.15345858E+01
 20
-1.94936379E+02
  0
VERTEX
  8
0
 62
4
 10
-5.14455368E+01
 20
-1.95219109E+02
  0
VERTEX
  8
0
 62
4
 10
-5.13321677E+01
 20
-1.95493008E+02
  0
VERTEX
  8
0
 62
4
 10
-5.11953414E+01
 20
-1.95755991E+02
  0
VERTEX
  8
0
 62
4
 10
-5.10360991E+01
 20
-1.96006057E+02
  0
VERTEX
  8
0
 62
4
 10
-5.08556530E+01
 20
-1.96241302E+02
  0
VERTEX
  8
0
 62
4
 10
-5.06553761E+01
 20
-1.96459936E+02
  0
VERTEX
  8
0
 62
4
 10
-5.04367929E+01
 20
-1.96660294E+02
  0
VERTEX
  8
0
 62
4
 10
-5.02015667E+01
 20
-1.96840853E+02
  0
VERTEX
  8
0
 62
4
 10
-4.99514879E+01
 20
-1.97000238E+02
  0
VERTEX
  8
0
 62
4
 10
-4.96884597E+01
 20
-1.97137236E+02
  0
VERTEX
  8
0
 62
4
 10
-4.94144838E+01
 20
-1.97250804E+02
  0
VERTEX
  8
0
 62
4
 10
-4.91316455E+01
 20
-1.97340079E+02
  0
VERTEX
  8
0
 62
4
 10
-4.88420972E+01
 20
-1.97404379E+02
  0
VERTEX
  8
0
 62
4
 10
-4.85480426E+01
 20
-1.97443218E+02
  0
VERTEX
  8
0
 62
4
 10
-4.82517197E+01
 20
-1.97456297E+02
  0
VERTEX
  8
0
 62
4
 10
-4.79553837E+01
 20
-1.97443519E+02
  0
VERTEX
  8
0
 62
4
 10
-4.76612897E+01
 20
-1.97404980E+02
  0
VERTEX
  8
0
 62
4
 10
-4.73716762E+01
 20
-1.97340974E+02
  0
VERTEX
  8
0
 62
4
 10
-4.70887471E+01
 20
-1.97251988E+02
  0
VERTEX
  8
0
 62
4
 10
-4.68146558E+01
 20
-1.97138698E+02
  0
VERTEX
  8
0
 62
4
 10
-4.65514883E+01
 20
-1.97001968E+02
  0
VERTEX
  8
0
 62
4
 10
-4.63012474E+01
 20
-1.96842838E+02
  0
VERTEX
  8
0
 62
4
 10
-4.60658377E+01
 20
-1.96662518E+02
  0
VERTEX
  8
0
 62
4
 10
-4.58470506E+01
 20
-1.96462382E+02
  0
VERTEX
  8
0
 62
4
 10
-4.56465514E+01
 20
-1.96243952E+02
  0
VERTEX
  8
0
 62
4
 10
-4.54658660E+01
 20
-1.96008891E+02
  0
VERTEX
  8
0
 62
4
 10
-4.53063694E+01
 20
-1.95758988E+02
  0
VERTEX
  8
0
 62
4
 10
-4.51692755E+01
 20
-1.95496144E+02
  0
VERTEX
  8
0
 62
4
 10
-4.50556278E+01
 20
-1.95222360E+02
  0
VERTEX
  8
0
 62
4
 10
-4.49662910E+01
 20
-1.94939721E+02
  0
VERTEX
  8
0
 62
4
 10
-4.49019453E+01
 20
-1.94650375E+02
  0
VERTEX
  8
0
 62
4
 10
-4.48630801E+01
 20
-1.94356527E+02
  0
VERTEX
  8
0
 62
4
 10
-4.48499914E+01
 20
-1.94060412E+02
  0
VERTEX
  8
0
 62
4
 10
-4.48627788E+01
 20
-1.93764284E+02
  0
VERTEX
  8
0
 62
4
 10
-4.49013449E+01
 20
-1.93470396E+02
  0
VERTEX
  8
0
 62
4
 10
-4.49653962E+01
 20
-1.93180985E+02
  0
VERTEX
  8
0
 62
4
 10
-4.50544452E+01
 20
-1.92898255E+02
  0
VERTEX
  8
0
 62
4
 10
-4.51678143E+01
 20
-1.92624356E+02
  0
VERTEX
  8
0
 62
4
 10
-4.53046407E+01
 20
-1.92361373E+02
  0
VERTEX
  8
0
 62
4
 10
-4.54638829E+01
 20
-1.92111307E+02
  0
VERTEX
  8
0
 62
4
 10
-4.56443290E+01
 20
-1.91876062E+02
  0
VERTEX
  8
0
 62
4
 10
-4.58446059E+01
 20
-1.91657428E+02
  0
VERTEX
  8
0
 62
4
 10
-4.60631891E+01
 20
-1.91457070E+02
  0
VERTEX
  8
0
 62
4
 10
-4.62984153E+01
 20
-1.91276511E+02
  0
VERTEX
  8
0
 62
4
 10
-4.65484941E+01
 20
-1.91117126E+02
  0
VERTEX
  8
0
 62
4
 10
-4.68115224E+01
 20
-1.90980128E+02
  0
VERTEX
  8
0
 62
4
 10
-4.70854982E+01
 20
-1.90866560E+02
  0
VERTEX
  8
0
 62
4
 10
-4.73683366E+01
 20
-1.90777285E+02
  0
VERTEX
  8
0
 62
4
 10
-4.76578848E+01
 20
-1.90712985E+02
  0
VERTEX
  8
0
 62
4
 10
-4.79519394E+01
 20
-1.90674146E+02
  0
VERTEX
  8
0
 62
4
 10
-4.82482623E+01
 20
-1.90661067E+02
  0
VERTEX
  8
0
 62
4
 10
-4.85445984E+01
 20
-1.90673845E+02
  0
VERTEX
  8
0
 62
4
 10
-4.88386923E+01
 20
-1.90712384E+02
  0
VERTEX
  8
0
 62
4
 10
-4.91283058E+01
 20
-1.90776390E+02
  0
VERTEX
  8
0
 62
4
 10
-4.94112349E+01
 20
-1.90865376E+02
  0
VERTEX
  8
0
 62
4
 10
-4.96853262E+01
 20
-1.90978666E+02
  0
VERTEX
  8
0
 62
4
 10
-4.99484937E+01
 20
-1.91115396E+02
  0
VERTEX
  8
0
 62
4
 10
-5.01987346E+01
 20
-1.91274526E+02
  0
VERTEX
  8
0
 62
4
 10
-5.04341443E+01
 20
-1.91454846E+02
  0
VERTEX
  8
0
 62
4
 10
-5.06529314E+01
 20
-1.91654982E+02
  0
VERTEX
  8
0
 62
4
 10
-5.08534306E+01
 20
-1.91873412E+02
  0
VERTEX
  8
0
 62
4
 10
-5.10341160E+01
 20
-1.92108473E+02
  0
VERTEX
  8
0
 62
4
 10
-5.11936126E+01
 20
-1.92358376E+02
  0
VERTEX
  8
0
 62
4
 10
-5.13307065E+01
 20
-1.92621220E+02
  0
VERTEX
  8
0
 62
4
 10
-5.14443542E+01
 20
-1.92895004E+02
  0
VERTEX
  8
0
 62
4
 10
-5.15336910E+01
 20
-1.93177643E+02
  0
VERTEX
  8
0
 62
4
 10
-5.15980367E+01
 20
-1.93466989E+02
  0
VERTEX
  8
0
 62
4
 10
-5.16369019E+01
 20
-1.93760837E+02
  0
VERTEX
  8
0
 62
4
 10
-5.16499906E+01
 20
-1.94056952E+02
  0
SEQEND
  8
0
  0
POLYLINE
  8
0
 62
4
 66
1
  0
VERTEX
  8
0
 62
4
 10
-5.16499471E+01
 20
-1.94075951E+02
  0
VERTEX
  8
0
 62
4
 10
-5.16384362E+01
 20
-1.94376126E+02
  0
VERTEX
  8
0
 62
4
 10
-5.16009701E+01
 20
-1.94674136E+02
  0
VERTEX
  8
0
 62
4
 10
-5.15378359E+01
 20
-1.94967698E+02
  0
VERTEX
  8
0
 62
4
 10
-5.14495171E+01
 20
-1.95254563E+02
  0
VERTEX
  8
0
 62
4
 10
-5.13366902E+01
 20
-1.95532533E+02
  0
VERTEX
  8
0
 62
4
 10
-5.12002196E+01
 20
-1.95799479E+02
  0
VERTEX
  8
0
 62
4
 10
-5.10411504E+01
 20
-1.96053357E+02
  0
VERTEX
  8
0
 62
4
 10
-5.08607012E+01
 20
-1.96292222E+02
  0
VERTEX
  8
0
 62
4
 10
-5.06602543E+01
 20
-1.96514244E+02
  0
VERTEX
  8
0
 62
4
 10
-5.04413450E+01
 20
-1.96717723E+02
  0
VERTEX
  8
0
 62
4
 10
-5.02056501E+01
 20
-1.96901099E+02
  0
VERTEX
  8
0
 62
4
 10
-4.99549750E+01
 20
-1.97062969E+02
  0
VERTEX
  8
0
 62
4
 10
-4.96912399E+01
 20
-1.97202092E+02
  0
VERTEX
  8
0
 62
4
 10
-4.94164650E+01
 20
-1.97317403E+02
  0
VERTEX
  8
0
 62
4
 10
-4.91327551E+01
 20
-1.97408018E+02
  0
VERTEX
  8
0
 62
4
 10
-4.88422832E+01
 20
-1.97473244E+02
  0
VERTEX
  8
0
 62
4
 10
-4.85472745E+01
 20
-1.97512580E+02
  0
VERTEX
  8
0
 62
4
 10
-4.82499885E+01
 20
-1.97525726E+02
  0
VERTEX
  8
0
 62
4
 10
-4.79527026E+01
 20
-1.97512580E+02
  0
VERTEX
  8
0
 62
4
 10
-4.76576939E+01
 20
-1.97473244E+02
  0
VERTEX
  8
0
 62
4
 10
-4.73672222E+01
 20
-1.97408018E+02
  0
VERTEX
  8
0
 62
4
 10
-4.70835123E+01
 20
-1.97317403E+02
  0
VERTEX
  8
0
 62
4
 10
-4.68087376E+01
 20
-1.97202092E+02
  0
VERTEX
  8
0
 62
4
 10
-4.65450027E+01
 20
-1.97062969E+02
  0
VERTEX
  8
0
 62
4
 10
-4.62943279E+01
 20
-1.96901099E+02
  0
VERTEX
  8
0
 62
4
 10
-4.60586333E+01
 20
-1.96717723E+02
  0
VERTEX
  8
0
 62
4
 10
-4.58397242E+01
 20
-1.96514244E+02
  0
VERTEX
  8
0
 62
4
 10
-4.56392776E+01
 20
-1.96292222E+02
  0
VERTEX
  8
0
 62
4
 10
-4.54588288E+01
 20
-1.96053357E+02
  0
VERTEX
  8
0
 62
4
 10
-4.52997600E+01
 20
-1.95799479E+02
  0
VERTEX
  8
0
 62
4
 10
-4.51632897E+01
 20
-1.95532533E+02
  0
VERTEX
  8
0
 62
4
 10
-4.50504632E+01
 20
-1.95254562E+02
  0
VERTEX
  8
0
 62
4
 10
-4.49621448E+01
 20
-1.94967698E+02
  0
VERTEX
  8
0
 62
4
 10
-4.48990110E+01
 20
-1.94674136E+02
  0
VERTEX
  8
0
 62
4
 10
-4.48615454E+01
 20
-1.94376126E+02
  0
VERTEX
  8
0
 62
4
 10
-4.48500349E+01
 20
-1.94075951E+02
  0
SEQEND
  8
0
  0
LINE
  8
0
  6
CENTER
 62
6
 10
-4.82499847E+01
 20
-2.00408003E+02
 11
-4.82499847E+01
 21
-1.87606204E+02
  0
POLYLINE
  8
0
 62
4
 66
1
  0
VERTEX
  8
0
 62
4
 10
-4.42499847E+01
 20
-1.94128465E+02
  0
VERTEX
  8
0
 62
4
 10
-4.42652059E+01
 20
-1.93780123E+02
  0
VERTEX
  8
0
 62
4
 10
-4.43107537E+01
 20
-1.93434432E+02
  0
VERTEX
  8
0
 62
4
 10
-4.43862814E+01
 20
-1.93094023E+02
  0
VERTEX
  8
0
 62
4
 10
-4.44912142E+01
 20
-1.92761487E+02
  0
VERTEX
  8
0
 62
4
 10
-4.46247536E+01
 20
-1.92439354E+02
  0
VERTEX
  8
0
 62
4
 10
-4.47858831E+01
 20
-1.92130076E+02
  0
VERTEX
  8
0
 62
4
 10
-4.49733765E+01
 20
-1.91836008E+02
  0
VERTEX
  8
0
 62
4
 10
-4.51858069E+01
 20
-1.91559386E+02
  0
VERTEX
  8
0
 62
4
 10
-4.54215576E+01
 20
-1.91302316E+02
  0
VERTEX
  8
0
 62
4
 10
-4.56788343E+01
 20
-1.91066756E+02
  0
VERTEX
  8
0
 62
4
 10
-4.59556790E+01
 20
-1.90854496E+02
  0
VERTEX
  8
0
 62
4
 10
-4.62499847E+01
 20
-1.90667154E+02
  0
VERTEX
  8
0
 62
4
 10
-4.65595117E+01
 20
-1.90506154E+02
  0
VERTEX
  8
0
 62
4
 10
-4.68819041E+01
 20
-1.90372723E+02
  0
VERTEX
  8
0
 62
4
 10
-4.72147085E+01
 20
-1.90267874E+02
  0
VERTEX
  8
0
 62
4
 10
-4.75553920E+01
 20
-1.90192407E+02
  0
VERTEX
  8
0
 62
4
 10
-4.79013617E+01
 20
-1.90146896E+02
  0
VERTEX
  8
0
 62
4
 10
-4.82499847E+01
 20
-1.90131687E+02
  0
VERTEX
  8
0
 62
4
 10
-4.85986077E+01
 20
-1.90146896E+02
  0
VERTEX
  8
0
 62
4
 10
-4.89445774E+01
 20
-1.90192407E+02
  0
VERTEX
  8
0
 62
4
 10
-4.92852609E+01
 20
-1.90267874E+02
  0
VERTEX
  8
0
 62
4
 10
-4.96180653E+01
 20
-1.90372723E+02
  0
VERTEX
  8
0
 62
4
 10
-4.99404578E+01
 20
-1.90506154E+02
  0
VERTEX
  8
0
 62
4
 10
-5.02499847E+01
 20
-1.90667154E+02
  0
VERTEX
  8
0
 62
4
 10
-5.05442904E+01
 20
-1.90854496E+02
  0
VERTEX
  8
0
 62
4
 10
-5.08211351E+01
 20
-1.91066756E+02
  0
VERTEX
  8
0
 62
4
 10
-5.10784118E+01
 20
-1.91302316E+02
  0
VERTEX
  8
0
 62
4
 10
-5.13141625E+01
 20
-1.91559386E+02
  0
VERTEX
  8
0
 62
4
 10
-5.15265929E+01
 20
-1.91836008E+02
  0
VERTEX
  8
0
 62
4
 10
-5.17140863E+01
 20
-1.92130076E+02
  0
VERTEX
  8
0
 62
4
 10
-5.18752159E+01
 20
-1.92439354E+02
  0
VERTEX
  8
0
 62
4
 10
-5.20087552E+01
 20
-1.92761487E+02
  0
VERTEX
  8
0
 62
4
 10
-5.21136880E+01
 20
-1.93094023E+02
  0
VERTEX
  8
0
 62
4
 10
-5.21892157E+01
 20
-1.93434432E+02
  0
VERTEX
  8
0
 62
4
 10
-5.22347635E+01
 20
-1.93780123E+02
  0
VERTEX
  8
0
 62
4
 10
-5.22499847E+01
 20
-1.94128465E+02
  0
VERTEX
  8
0
 62
4
 10
-5.22347635E+01
 20
-1.94476807E+02
  0
VERTEX
  8
0
 62
4
 10
-5.21892157E+01
 20
-1.94822498E+02
  0
VERTEX
  8
0
 62
4
 10
-5.21136880E+01
 20
-1.95162907E+02
  0
VERTEX
  8
0
 62
4
 10
-5.20087552E+01
 20
-1.95495443E+02
  0
VERTEX
  8
0
 62
4
 10
-5.18752158E+01
 20
-1.95817576E+02
  0
VERTEX
  8
0
 62
4
 10
-5.17140863E+01
 20
-1.96126854E+02
  0
VERTEX
  8
0
 62
4
 10
-5.15265929E+01
 20
-1.96420922E+02
  0
VERTEX
  8
0
 62
4
 10
-5.13141625E+01
 20
-1.96697544E+02
  0
VERTEX
  8
0
 62
4
 10
-5.10784118E+01
 20
-1.96954614E+02
  0
VERTEX
  8
0
 62
4
 10
-5.08211351E+01
 20
-1.97190174E+02
  0
VERTEX
  8
0
 62
4
 10
-5.05442904E+01
 20
-1.97402434E+02
  0
VERTEX
  8
0
 62
4
 10
-5.02499847E+01
 20
-1.97589776E+02
  0
VERTEX
  8
0
 62
4
 10
-4.99404577E+01
 20
-1.97750776E+02
  0
VERTEX
  8
0
 62
4
 10
-4.96180653E+01
 20
-1.97884207E+02
  0
VERTEX
  8
0
 62
4
 10
-4.92852609E+01
 20
-1.97989056E+02
  0
VERTEX
  8
0
 62
4
 10
-4.89445774E+01
 20
-1.98064523E+02
  0
VERTEX
  8
0
 62
4
 10
-4.85986077E+01
 20
-1.98110034E+02
  0
VERTEX
  8
0
 62
4
 10
-4.82499847E+01
 20
-1.98125243E+02
  0
VERTEX
  8
0
 62
4
 10
-4.79013617E+01
 20
-1.98110034E+02
  0
VERTEX
  8
0
 62
4
 10
-4.75553920E+01
 20
-1.98064523E+02
  0
VERTEX
  8
0
 62
4
 10
-4.72147085E+01
 20
-1.97989056E+02
  0
VERTEX
  8
0
 62
4
 10
-4.68819041E+01
 20
-1.97884207E+02
  0
VERTEX
  8
0
 62
4
 10
-4.65595116E+01
 20
-1.97750776E+02
  0
VERTEX
  8
0
 62
4
 10
-4.62499847E+01
 20
-1.97589776E+02
  0
VERTEX
  8
0
 62
4
 10
-4.59556789E+01
 20
-1.97402434E+02
  0
VERTEX
  8
0
 62
4
 10
-4.56788343E+01
 20
-1.97190174E+02
  0
VERTEX
  8
0
 62
4
 10
-4.54215576E+01
 20
-1.96954614E+02
  0
VERTEX
  8
0
 62
4
 10
-4.51858069E+01
 20
-1.96697544E+02
  0
VERTEX
  8
0
 62
4
 10
-4.49733765E+01
 20
-1.96420922E+02
  0
VERTEX
  8
0
 62
4
 10
-4.47858831E+01
 20
-1.96126854E+02
  0
VERTEX
  8
0
 62
4
 10
-4.46247535E+01
 20
-1.95817576E+02
  0
VERTEX
  8
0
 62
4
 10
-4.44912142E+01
 20
-1.95495443E+02
  0
VERTEX
  8
0
 62
4
 10
-4.43862814E+01
 20
-1.95162907E+02
  0
VERTEX
  8
0
 62
4
 10
-4.43107537E+01
 20
-1.94822498E+02
  0
VERTEX
  8
0
 62
4
 10
-4.42652059E+01
 20
-1.94476807E+02
  0
VERTEX
  8
0
 62
4
 10
-4.42499847E+01
 20
-1.94128465E+02
  0
SEQEND
  8
0
  0
LINE
  8
0
 62
4
 10
-5.87499952E+01
 20
-1.86752864E+02
 11
-2.27499952E+01
 21
-1.86752838E+02
  0
LINE
  8
0
  6
CENTER
 62
6
 10
-3.22499955E+01
 20
-1.84569583E+02
 11
-3.22499897E+01
 21
-1.88600413E+02
  0
LINE
  8
0
 62
4
 10
-3.53899920E+01
 20
-1.86010946E+02
 11
-2.91099920E+01
 21
-1.86010946E+02
  0
LINE
  8
0
 62
4
 10
-2.91099920E+01
 20
-1.86010946E+02
 11
-2.88429094E+01
 21
-1.86752842E+02
  0
LINE
  8
0
 62
4
 10
-3.56570764E+01
 20
-1.86752847E+02
 11
-3.53899920E+01
 21
-1.86010946E+02
  0
LINE
  8
0
 62
4
 10
-2.45330299E+02
 20
-1.90896301E+02
 11
-2.53221634E+02
 21
-2.05935679E+02
  0
LINE
  8
0
  6
CENTER
 62
6
 10
-2.45577884E+02
 20
-1.95409873E+02
 11
-2.07678438E+02
 21
-1.93887719E+02
  0
LINE
  8
0
 10
-2.29898561E+02
 20
-1.91637153E+02
 11
-2.29897860E+02
 21
-1.91597019E+02
  0
ARC
  8
0
 62
4
 10
-2.27386560E+02
 20
-1.64153681E+02
 40
7.00000000E+00
 50
1.00407589E+02
 51
1.23318292E+02
  0
ARC
  8
0
 62
4
 10
-2.12043854E+02
 20
-1.91657219E+02
 40
9.96112687E-01
 50
1.48300739E+01
 51
9.21626168E+01
  0
ARC
  8
0
 62
4
 10
-2.11850611E+02
 20
-1.96458742E+02
 40
9.98481423E-01
 50
2.72414057E+02
 51
3.49071914E+02
  0
CIRCLE
  8
0
 62
4
 10
-2.27386560E+02
 20
-1.64153681E+02
 40
3.75000000E+00
  0
ARC
  8
0
 62
4
 10
-2.16870897E+02
 20
-1.89251899E+02
 40
2.49901570E+00
 50
2.27735998E+00
 51
9.23225035E+01
  0
ARC
  8
0
 62
4
 10
-2.35856517E+02
 20
-1.90015421E+02
 40
2.50001831E+00
 50
9.23003518E+01
 51
1.82299512E+02
  0
ARC
  8
0
 62
4
 10
-2.22473617E+02
 20
-1.94460599E+02
 40
1.18077645E+01
 50
3.49324076E+02
 51
1.50266276E+01
  0
ARC
  8
0
 62
4
 10
-2.38472878E+02
 20
-1.99628143E+02
 40
5.00000533E-01
 50
9.22999931E+01
 51
1.82299871E+02
  0
LINE
  8
0
 62
4
 10
-2.13834128E+02
 20
-1.90131725E+02
 11
-2.13513083E+02
 21
-1.98125280E+02
  0
LINE
  8
0
 62
4
 10
-2.11808555E+02
 20
-1.97456338E+02
 11
-2.13537161E+02
 21
-1.97525764E+02
  0
LINE
  8
0
 62
4
 10
-2.13810049E+02
 20
-1.90731241E+02
 11
-2.12081443E+02
 21
-1.90661815E+02
  0
LINE
  8
0
 62
4
 10
-2.14012680E+02
 20
-1.98145346E+02
 11
-2.13513083E+02
 21
-1.98125280E+02
  0
LINE
  8
0
 62
4
 10
-2.14333725E+02
 20
-1.90151790E+02
 11
-2.13834128E+02
 21
-1.90131725E+02
  0
LINE
  8
0
 62
4
 10
-2.25030397E+02
 20
-1.58055198E+02
 11
-2.20134344E+02
 21
-1.57858558E+02
  0
LINE
  8
0
 62
4
 10
-2.27688499E+02
 20
-1.56660746E+02
 11
-2.21043245E+02
 21
-1.60146876E+02
  0
LINE
  8
0
 62
4
 10
-2.33731392E+02
 20
-1.68172525E+02
 11
-2.27086138E+02
 21
-1.71658655E+02
  0
LINE
  8
0
 62
4
 10
-2.21043245E+02
 20
-1.60146876E+02
 11
-2.20741864E+02
 21
-1.67650827E+02
  0
LINE
  8
0
 62
4
 10
-2.34032773E+02
 20
-1.60668574E+02
 11
-2.33731392E+02
 21
-1.68172525E+02
  0
LINE
  8
0
 62
4
 10
-2.34032773E+02
 20
-1.60668574E+02
 11
-2.27688499E+02
 21
-1.56660746E+02
  0
LINE
  8
0
 62
4
 10
-2.27086138E+02
 20
-1.71658655E+02
 11
-2.20741864E+02
 21
-1.67650827E+02
  0
LINE
  8
0
 62
4
 10
-2.24145081E+02
 20
-1.95049471E+02
 11
-2.24044755E+02
 21
-1.97547457E+02
  0
LINE
  8
0
 62
4
 10
-2.28141859E+02
 20
-1.95209993E+02
 11
-2.28041533E+02
 21
-1.97707980E+02
  0
LINE
  8
0
 62
4
 10
-2.28041533E+02
 20
-1.97707980E+02
 11
-2.24044755E+02
 21
-1.97547457E+02
  0
LINE
  8
0
 62
4
 10
-2.28141859E+02
 20
-1.95209993E+02
 11
-2.24145081E+02
 21
-1.95049471E+02
  0
LINE
  8
0
 62
4
 10
-2.37913085E+02
 20
-2.01106869E+02
 11
-2.13932419E+02
 21
-2.00143734E+02
  0
LINE
  8
0
 62
4
 10
-2.13872223E+02
 20
-2.01642526E+02
 11
-2.15191939E+02
 21
-2.03557711E+02
  0
LINE
  8
0
 62
4
 10
-2.37852889E+02
 20
-2.02605661E+02
 11
-2.37077272E+02
 21
-2.03557685E+02
  0
LINE
  8
0
 62
4
 10
-2.38354522E+02
 20
-1.90115730E+02
 11
-2.37852889E+02
 21
-2.02605661E+02
  0
LINE
  8
0
 62
4
 10
-2.14373855E+02
 20
-1.89152596E+02
 11
-2.13872223E+02
 21
-2.01642526E+02
  0
LINE
  8
0
 62
4
 10
-2.37852889E+02
 20
-2.02605661E+02
 11
-2.13872223E+02
 21
-2.01642526E+02
  0
LINE
  8
0
 62
4
 10
-2.35956862E+02
 20
-1.87517417E+02
 11
-2.16972168E+02
 21
-1.86754936E+02
  0
LINE
  8
0
 62
4
 10
-2.36117385E+02
 20
-1.83520640E+02
 11
-2.35956862E+02
 21
-1.87517417E+02
  0
LINE
  8
0
 62
4
 10
-2.17132690E+02
 20
-1.82758158E+02
 11
-2.16972168E+02
 21
-1.86754936E+02
  0
LINE
  8
0
 62
4
 10
-2.34159127E+02
 20
-1.82441184E+02
 11
-2.19171210E+02
 21
-1.81839225E+02
  0
LINE
  8
0
 62
4
 10
-2.36117385E+02
 20
-1.83520640E+02
 11
-2.17132690E+02
 21
-1.82758158E+02
  0
LINE
  8
0
 62
4
 10
-2.35122261E+02
 20
-1.58460517E+02
 11
-2.34118996E+02
 21
-1.83440378E+02
  0
LINE
  8
0
 62
4
 10
-2.20134344E+02
 20
-1.57858558E+02
 11
-2.19131079E+02
 21
-1.82838419E+02
  0
LINE
  8
0
 62
4
 10
-2.35122261E+02
 20
-1.58460517E+02
 11
-2.30236200E+02
 21
-1.58264279E+02
  0
LINE
  8
0
 62
4
 10
-2.38972476E+02
 20
-1.99648208E+02
 11
-2.38815460E+02
 21
-2.03557683E+02
  0
LINE
  8
0
 62
4
 10
-2.38492944E+02
 20
-1.99128545E+02
 11
-2.37993347E+02
 21
-1.99108480E+02
  0
LINE
  8
0
 62
4
 10
-2.45330299E+02
 20
-1.90896301E+02
 11
-2.38334457E+02
 21
-1.90615327E+02
  0
ARC
  8
0
 62
4
 10
-2.27388558E+02
 20
-1.64153761E+02
 40
7.00000000E+00
 50
6.12815719E+01
 51
8.41922742E+01
  0
LINE
  8
0
 62
4
 10
-2.53221634E+02
 20
-2.05935679E+02
 11
-2.52849245E+02
 21
-2.15207625E+02
  0
LINE
  8
0
 62
4
 10
-2.55234810E+02
 20
-2.09568817E+02
 11
-2.55095557E+02
 21
-2.13036022E+02
  0
LINE
  8
0
 62
6
 10
-2.55225580E+02
 20
-2.09798632E+02
 11
-2.53069964E+02
 21
-2.09712056E+02
  0
LINE
  8
0
 62
4
 10
-2.54246050E+02
 20
-2.09268896E+02
 11
-2.55234810E+02
 21
-2.09568817E+02
  0
LINE
  8
0
 62
4
 10
-2.54246050E+02
 20
-2.09268896E+02
 11
-2.53089628E+02
 21
-2.09222450E+02
  0
ARC
  8
0
 62
4
 10
-2.51359080E+02
 20
-2.15156777E+02
 40
1.49103261E+00
 50
1.81954298E+02
 51
2.72645566E+02
  0
LINE
  8
0
 62
4
 10
-2.54085929E+02
 20
-2.13255681E+02
 11
-2.55095557E+02
 21
-2.13036022E+02
  0
LINE
  8
0
 62
4
 10
-2.54085929E+02
 20
-2.13255681E+02
 11
-2.52929507E+02
 21
-2.13209236E+02
  0
LINE
  8
0
 62
6
 10
-2.55105189E+02
 20
-2.12796215E+02
 11
-2.52949572E+02
 21
-2.12709639E+02
  0
LINE
  8
0
  6
CENTER
 62
6
 10
-2.56397037E+02
 20
-2.11346890E+02
 11
-2.53009768E+02
 21
-2.11210847E+02
  0
LINE
  8
0
 62
4
 10
-2.51290258E+02
 20
-2.16646221E+02
 11
-2.50749933E+02
 21
-2.16624520E+02
  0
LINE
  8
0
 62
4
 10
9.18303513E+01
 20
-1.90896301E+02
 11
9.97216684E+01
 21
-2.05935689E+02
  0
ARC
  8
0
 62
4
 10
7.38886415E+01
 20
-1.64153740E+02
 40
7.00000000E+00
 50
5.66816398E+01
 51
1.18718360E+02
  0
LINE
  8
0
 62
4
 10
9.18303513E+01
 20
-1.90896301E+02
 11
8.48345091E+01
 21
-1.90615319E+02
  0
LINE
  8
0
 62
4
 10
8.49929861E+01
 20
-1.99128537E+02
 11
8.44933889E+01
 21
-1.99108471E+02
  0
LINE
  8
0
 62
4
 10
8.54725174E+01
 20
-1.99648200E+02
 11
8.53154967E+01
 21
-2.03557675E+02
  0
LINE
  8
0
 62
4
 10
6.66344358E+01
 20
-1.57858528E+02
 11
8.16223517E+01
 21
-1.58460505E+02
  0
LINE
  8
0
 62
4
 10
6.66344358E+01
 20
-1.57858528E+02
 11
6.56311410E+01
 21
-1.82838388E+02
  0
LINE
  8
0
 62
4
 10
8.16223517E+01
 20
-1.58460505E+02
 11
8.06190569E+01
 21
-1.83440365E+02
  0
LINE
  8
0
 62
4
 10
8.26174457E+01
 20
-1.83520629E+02
 11
6.36327522E+01
 21
-1.82758125E+02
  0
LINE
  8
0
 62
4
 10
8.06591887E+01
 20
-1.82441171E+02
 11
6.56712728E+01
 21
-1.81839194E+02
  0
LINE
  8
0
 62
4
 10
6.36327522E+01
 20
-1.82758125E+02
 11
6.34722250E+01
 21
-1.86754902E+02
  0
LINE
  8
0
 62
4
 10
8.26174457E+01
 20
-1.83520629E+02
 11
8.24569185E+01
 21
-1.87517406E+02
  0
LINE
  8
0
 62
4
 10
8.24569185E+01
 20
-1.87517406E+02
 11
6.34722250E+01
 21
-1.86754902E+02
  0
LINE
  8
0
 62
4
 10
8.43529276E+01
 20
-2.02605652E+02
 11
6.03722621E+01
 21
-2.01642489E+02
  0
LINE
  8
0
 62
4
 10
6.08739095E+01
 20
-1.89152559E+02
 11
6.03722621E+01
 21
-2.01642489E+02
  0
LINE
  8
0
 62
4
 10
8.48545750E+01
 20
-1.90115722E+02
 11
8.43529276E+01
 21
-2.02605652E+02
  0
LINE
  8
0
 62
4
 10
8.43529276E+01
 20
-2.02605652E+02
 11
8.35773090E+01
 21
-2.03557675E+02
  0
LINE
  8
0
 62
4
 10
6.03722621E+01
 20
-2.01642489E+02
 11
6.16919761E+01
 21
-2.03557675E+02
  0
LINE
  8
0
 62
4
 10
8.44131253E+01
 20
-2.01106860E+02
 11
6.04324598E+01
 21
-2.00143697E+02
  0
LINE
  8
0
 62
4
 10
7.46419062E+01
 20
-1.95209973E+02
 11
7.06451286E+01
 21
-1.95049446E+02
  0
LINE
  8
0
 62
4
 10
7.45415767E+01
 20
-1.97707959E+02
 11
7.05447992E+01
 21
-1.97547432E+02
  0
LINE
  8
0
 62
4
 10
7.46419062E+01
 20
-1.95209973E+02
 11
7.45415767E+01
 21
-1.97707959E+02
  0
LINE
  8
0
 62
4
 10
7.06451286E+01
 20
-1.95049446E+02
 11
7.05447992E+01
 21
-1.97547432E+02
  0
LINE
  8
0
 62
4
 10
7.51505590E+01
 20
-1.57268425E+02
 11
7.41885914E+01
 21
-1.56660725E+02
  0
LINE
  8
0
 62
4
 10
7.41885914E+01
 20
-1.56660725E+02
 11
7.31803166E+01
 21
-1.57189669E+02
  0
LINE
  8
0
 62
4
 10
6.08337778E+01
 20
-1.90151753E+02
 11
6.03341806E+01
 21
-1.90131687E+02
  0
LINE
  8
0
 62
4
 10
6.05127234E+01
 20
-1.98145308E+02
 11
6.00131262E+01
 21
-1.98125243E+02
  0
LINE
  8
0
 62
4
 10
6.03101015E+01
 20
-1.90731204E+02
 11
5.85814952E+01
 21
-1.90661776E+02
  0
LINE
  8
0
 62
4
 10
5.83085990E+01
 20
-1.97456298E+02
 11
6.00372053E+01
 21
-1.97525726E+02
  0
LINE
  8
0
  6
CENTER
 62
6
 10
9.20779304E+01
 20
-1.95409873E+02
 11
5.41784870E+01
 21
-1.93887674E+02
  0
LINE
  8
0
 62
4
 10
6.03341806E+01
 20
-1.90131687E+02
 11
6.00131262E+01
 21
-1.98125243E+02
  0
ARC
  8
0
 62
4
 10
8.49729196E+01
 20
-1.99628135E+02
 40
5.00000533E-01
 50
3.57700061E+02
 51
8.76999390E+01
  0
ARC
  8
0
 62
4
 10
6.89736652E+01
 20
-1.94460572E+02
 40
1.18077645E+01
 50
1.64973304E+02
 51
1.90675855E+02
  0
ARC
  8
0
 62
4
 10
8.23565700E+01
 20
-1.90015410E+02
 40
2.50001831E+00
 50
3.57700420E+02
 51
8.76995804E+01
  0
ARC
  8
0
 62
4
 10
6.33709513E+01
 20
-1.89251865E+02
 40
2.49901570E+00
 50
8.76774281E+01
 51
1.77722572E+02
  0
ARC
  8
0
 62
4
 10
5.83506570E+01
 20
-1.96458703E+02
 40
9.98481423E-01
 50
1.90928018E+02
 51
2.67585875E+02
  0
ARC
  8
0
 62
4
 10
5.85439049E+01
 20
-1.91657179E+02
 40
9.96112687E-01
 50
8.78373154E+01
 51
1.65169858E+02
  0
LINE
  8
0
 10
7.63986121E+01
 20
-1.91637134E+02
 11
7.63979116E+01
 21
-1.91597001E+02
  0
LINE
  8
0
 62
4
 10
6.98672332E+01
 20
-1.86010946E+02
 11
7.61421740E+01
 21
-1.86262974E+02
  0
LINE
  8
0
  6
CENTER
 62
6
 10
7.30724162E+01
 20
-1.84451061E+02
 11
7.29047754E+01
 21
-1.88624954E+02
  0
LINE
  8
0
 62
4
 10
6.94673914E+01
 20
-1.86995693E+02
 11
6.98672332E+01
 21
-1.86010946E+02
  0
LINE
  8
0
 62
4
 10
7.61421740E+01
 20
-1.86262974E+02
 11
7.64617522E+01
 21
-1.87276616E+02
  0
LINE
  8
0
 62
4
 10
9.77902793E+01
 20
-2.16646228E+02
 11
9.72499542E+01
 21
-2.16624526E+02
  0
LINE
  8
0
 62
4
 10
9.97216684E+01
 20
-2.05935689E+02
 11
9.93492686E+01
 21
-2.15207634E+02
  0
LINE
  8
0
  6
CENTER
 62
6
 10
1.02897065E+02
 20
-2.11346903E+02
 11
9.95097958E+01
 21
-2.11210856E+02
  0
LINE
  8
0
 62
6
 10
1.01605215E+02
 20
-2.12796227E+02
 11
9.94495981E+01
 21
-2.12709648E+02
  0
LINE
  8
0
 62
4
 10
1.00746080E+02
 20
-2.09268906E+02
 11
9.95896581E+01
 21
-2.09222460E+02
  0
LINE
  8
0
 62
4
 10
1.00585954E+02
 20
-2.13255692E+02
 11
9.94295322E+01
 21
-2.13209245E+02
  0
LINE
  8
0
 62
4
 10
1.01734840E+02
 20
-2.09568829E+02
 11
1.01595583E+02
 21
-2.13036033E+02
  0
LINE
  8
0
 62
4
 10
1.00746080E+02
 20
-2.09268906E+02
 11
1.01734840E+02
 21
-2.09568829E+02
  0
LINE
  8
0
 62
4
 10
1.00585954E+02
 20
-2.13255692E+02
 11
1.01595583E+02
 21
-2.13036033E+02
  0
LINE
  8
0
 62
6
 10
1.01725610E+02
 20
-2.09798643E+02
 11
9.95699935E+01
 21
-2.09712065E+02
  0
ARC
  8
0
 62
4
 10
9.78591033E+01
 20
-2.15156785E+02
 40
1.49103261E+00
 50
2.67354366E+02
 51
3.58045634E+02
  0
LINE
  8
0
 62
4
 10
-5.87499847E+01
 20
-9.59502412E+01
 11
-2.27499847E+01
 21
-9.59502412E+01
  0
LINE
  8
0
 62
4
 10
-5.87499847E+01
 20
-1.19935724E+02
 11
-2.27499847E+01
 21
-1.19935724E+02
  0
LINE
  8
0
  6
CENTER
 62
6
 10
-3.81886079E+01
 20
-1.07802958E+02
 11
-2.63113616E+01
 21
-1.07802958E+02
  0
LINE
  8
0
 62
4
 10
-4.42499847E+01
 20
-1.20435398E+02
 11
-2.27499847E+01
 21
-1.20435398E+02
  0
POLYLINE
  8
0
 62
4
 66
1
  0
VERTEX
  8
0
 62
4
 10
-2.91099847E+01
 20
-1.07802956E+02
  0
VERTEX
  8
0
 62
4
 10
-2.91219333E+01
 20
-1.07529507E+02
  0
VERTEX
  8
0
 62
4
 10
-2.91576884E+01
 20
-1.07258140E+02
  0
VERTEX
  8
0
 62
4
 10
-2.92169776E+01
 20
-1.06990919E+02
  0
VERTEX
  8
0
 62
4
 10
-2.92993499E+01
 20
-1.06729878E+02
  0
VERTEX
  8
0
 62
4
 10
-2.94041782E+01
 20
-1.06477004E+02
  0
VERTEX
  8
0
 62
4
 10
-2.95306649E+01
 20
-1.06234221E+02
  0
VERTEX
  8
0
 62
4
 10
-2.96778473E+01
 20
-1.06003377E+02
  0
VERTEX
  8
0
 62
4
 10
-2.98446051E+01
 20
-1.05786229E+02
  0
VERTEX
  8
0
 62
4
 10
-3.00296694E+01
 20
-1.05584429E+02
  0
VERTEX
  8
0
 62
4
 10
-3.02316316E+01
 20
-1.05399514E+02
  0
VERTEX
  8
0
 62
4
 10
-3.04489547E+01
 20
-1.05232891E+02
  0
VERTEX
  8
0
 62
4
 10
-3.06799847E+01
 20
-1.05085827E+02
  0
VERTEX
  8
0
 62
4
 10
-3.09229634E+01
 20
-1.04959442E+02
  0
VERTEX
  8
0
 62
4
 10
-3.11760415E+01
 20
-1.04854698E+02
  0
VERTEX
  8
0
 62
4
 10
-3.14372929E+01
 20
-1.04772392E+02
  0
VERTEX
  8
0
 62
4
 10
-3.17047294E+01
 20
-1.04713151E+02
  0
VERTEX
  8
0
 62
4
 10
-3.19763157E+01
 20
-1.04677425E+02
  0
VERTEX
  8
0
 62
4
 10
-3.22499847E+01
 20
-1.04665486E+02
  0
VERTEX
  8
0
 62
4
 10
-3.25236537E+01
 20
-1.04677425E+02
  0
VERTEX
  8
0
 62
4
 10
-3.27952400E+01
 20
-1.04713151E+02
  0
VERTEX
  8
0
 62
4
 10
-3.30626765E+01
 20
-1.04772392E+02
  0
VERTEX
  8
0
 62
4
 10
-3.33239280E+01
 20
-1.04854698E+02
  0
VERTEX
  8
0
 62
4
 10
-3.35770060E+01
 20
-1.04959442E+02
  0
VERTEX
  8
0
 62
4
 10
-3.38199847E+01
 20
-1.05085827E+02
  0
VERTEX
  8
0
 62
4
 10
-3.40510147E+01
 20
-1.05232891E+02
  0
VERTEX
  8
0
 62
4
 10
-3.42683378E+01
 20
-1.05399514E+02
  0
VERTEX
  8
0
 62
4
 10
-3.44703000E+01
 20
-1.05584429E+02
  0
VERTEX
  8
0
 62
4
 10
-3.46553643E+01
 20
-1.05786229E+02
  0
VERTEX
  8
0
 62
4
 10
-3.48221221E+01
 20
-1.06003377E+02
  0
VERTEX
  8
0
 62
4
 10
-3.49693045E+01
 20
-1.06234221E+02
  0
VERTEX
  8
0
 62
4
 10
-3.50957912E+01
 20
-1.06477004E+02
  0
VERTEX
  8
0
 62
4
 10
-3.52006195E+01
 20
-1.06729878E+02
  0
VERTEX
  8
0
 62
4
 10
-3.52829918E+01
 20
-1.06990919E+02
  0
VERTEX
  8
0
 62
4
 10
-3.53422810E+01
 20
-1.07258140E+02
  0
VERTEX
  8
0
 62
4
 10
-3.53780361E+01
 20
-1.07529507E+02
  0
VERTEX
  8
0
 62
4
 10
-3.53899847E+01
 20
-1.07802956E+02
  0
VERTEX
  8
0
 62
4
 10
-3.53780361E+01
 20
-1.08076405E+02
  0
VERTEX
  8
0
 62
4
 10
-3.53422810E+01
 20
-1.08347772E+02
  0
VERTEX
  8
0
 62
4
 10
-3.52829918E+01
 20
-1.08614993E+02
  0
VERTEX
  8
0
 62
4
 10
-3.52006195E+01
 20
-1.08876034E+02
  0
VERTEX
  8
0
 62
4
 10
-3.50957911E+01
 20
-1.09128908E+02
  0
VERTEX
  8
0
 62
4
 10
-3.49693045E+01
 20
-1.09371691E+02
  0
VERTEX
  8
0
 62
4
 10
-3.48221221E+01
 20
-1.09602535E+02
  0
VERTEX
  8
0
 62
4
 10
-3.46553642E+01
 20
-1.09819683E+02
  0
VERTEX
  8
0
 62
4
 10
-3.44703000E+01
 20
-1.10021483E+02
  0
VERTEX
  8
0
 62
4
 10
-3.42683378E+01
 20
-1.10206398E+02
  0
VERTEX
  8
0
 62
4
 10
-3.40510147E+01
 20
-1.10373021E+02
  0
VERTEX
  8
0
 62
4
 10
-3.38199847E+01
 20
-1.10520085E+02
  0
VERTEX
  8
0
 62
4
 10
-3.35770060E+01
 20
-1.10646470E+02
  0
VERTEX
  8
0
 62
4
 10
-3.33239279E+01
 20
-1.10751214E+02
  0
VERTEX
  8
0
 62
4
 10
-3.30626765E+01
 20
-1.10833520E+02
  0
VERTEX
  8
0
 62
4
 10
-3.27952400E+01
 20
-1.10892761E+02
  0
VERTEX
  8
0
 62
4
 10
-3.25236537E+01
 20
-1.10928487E+02
  0
VERTEX
  8
0
 62
4
 10
-3.22499847E+01
 20
-1.10940426E+02
  0
VERTEX
  8
0
 62
4
 10
-3.19763157E+01
 20
-1.10928487E+02
  0
VERTEX
  8
0
 62
4
 10
-3.17047294E+01
 20
-1.10892761E+02
  0
VERTEX
  8
0
 62
4
 10
-3.14372929E+01
 20
-1.10833520E+02
  0
VERTEX
  8
0
 62
4
 10
-3.11760414E+01
 20
-1.10751214E+02
  0
VERTEX
  8
0
 62
4
 10
-3.09229634E+01
 20
-1.10646470E+02
  0
VERTEX
  8
0
 62
4
 10
-3.06799847E+01
 20
-1.10520085E+02
  0
VERTEX
  8
0
 62
4
 10
-3.04489547E+01
 20
-1.10373021E+02
  0
VERTEX
  8
0
 62
4
 10
-3.02316316E+01
 20
-1.10206398E+02
  0
VERTEX
  8
0
 62
4
 10
-3.00296694E+01
 20
-1.10021483E+02
  0
VERTEX
  8
0
 62
4
 10
-2.98446051E+01
 20
-1.09819683E+02
  0
VERTEX
  8
0
 62
4
 10
-2.96778473E+01
 20
-1.09602535E+02
  0
VERTEX
  8
0
 62
4
 10
-2.95306649E+01
 20
-1.09371691E+02
  0
VERTEX
  8
0
 62
4
 10
-2.94041782E+01
 20
-1.09128908E+02
  0
VERTEX
  8
0
 62
4
 10
-2.92993499E+01
 20
-1.08876034E+02
  0
VERTEX
  8
0
 62
4
 10
-2.92169776E+01
 20
-1.08614993E+02
  0
VERTEX
  8
0
 62
4
 10
-2.91576884E+01
 20
-1.08347772E+02
  0
VERTEX
  8
0
 62
4
 10
-2.91219333E+01
 20
-1.08076405E+02
  0
VERTEX
  8
0
 62
4
 10
-2.91099847E+01
 20
-1.07802956E+02
  0
SEQEND
  8
0
  0
POLYLINE
  8
0
 62
4
 66
1
  0
VERTEX
  8
0
 62
4
 10
-2.87499847E+01
 20
-1.07843088E+02
  0
VERTEX
  8
0
 62
4
 10
-2.87633033E+01
 20
-1.07538289E+02
  0
VERTEX
  8
0
 62
4
 10
-2.88031576E+01
 20
-1.07235809E+02
  0
VERTEX
  8
0
 62
4
 10
-2.88692443E+01
 20
-1.06937951E+02
  0
VERTEX
  8
0
 62
4
 10
-2.89610605E+01
 20
-1.06646982E+02
  0
VERTEX
  8
0
 62
4
 10
-2.90779074E+01
 20
-1.06365116E+02
  0
VERTEX
  8
0
 62
4
 10
-2.92188958E+01
 20
-1.06094498E+02
  0
VERTEX
  8
0
 62
4
 10
-2.93829525E+01
 20
-1.05837188E+02
  0
VERTEX
  8
0
 62
4
 10
-2.95688291E+01
 20
-1.05595144E+02
  0
VERTEX
  8
0
 62
4
 10
-2.97751110E+01
 20
-1.05370208E+02
  0
VERTEX
  8
0
 62
4
 10
-3.00002281E+01
 20
-1.05164092E+02
  0
VERTEX
  8
0
 62
4
 10
-3.02424672E+01
 20
-1.04978366E+02
  0
VERTEX
  8
0
 62
4
 10
-3.04999847E+01
 20
-1.04814441E+02
  0
VERTEX
  8
0
 62
4
 10
-3.07708208E+01
 20
-1.04673566E+02
  0
VERTEX
  8
0
 62
4
 10
-3.10529142E+01
 20
-1.04556813E+02
  0
VERTEX
  8
0
 62
4
 10
-3.13441180E+01
 20
-1.04465071E+02
  0
VERTEX
  8
0
 62
4
 10
-3.16422161E+01
 20
-1.04399038E+02
  0
VERTEX
  8
0
 62
4
 10
-3.19449396E+01
 20
-1.04359215E+02
  0
VERTEX
  8
0
 62
4
 10
-3.22499847E+01
 20
-1.04345908E+02
  0
VERTEX
  8
0
 62
4
 10
-3.25550298E+01
 20
-1.04359215E+02
  0
VERTEX
  8
0
 62
4
 10
-3.28577533E+01
 20
-1.04399038E+02
  0
VERTEX
  8
0
 62
4
 10
-3.31558514E+01
 20
-1.04465071E+02
  0
VERTEX
  8
0
 62
4
 10
-3.34470552E+01
 20
-1.04556813E+02
  0
VERTEX
  8
0
 62
4
 10
-3.37291486E+01
 20
-1.04673566E+02
  0
VERTEX
  8
0
 62
4
 10
-3.39999847E+01
 20
-1.04814441E+02
  0
VERTEX
  8
0
 62
4
 10
-3.42575022E+01
 20
-1.04978366E+02
  0
VERTEX
  8
0
 62
4
 10
-3.44997413E+01
 20
-1.05164092E+02
  0
VERTEX
  8
0
 62
4
 10
-3.47248584E+01
 20
-1.05370208E+02
  0
VERTEX
  8
0
 62
4
 10
-3.49311403E+01
 20
-1.05595144E+02
  0
VERTEX
  8
0
 62
4
 10
-3.51170169E+01
 20
-1.05837188E+02
  0
VERTEX
  8
0
 62
4
 10
-3.52810736E+01
 20
-1.06094498E+02
  0
VERTEX
  8
0
 62
4
 10
-3.54220620E+01
 20
-1.06365116E+02
  0
VERTEX
  8
0
 62
4
 10
-3.55389089E+01
 20
-1.06646982E+02
  0
VERTEX
  8
0
 62
4
 10
-3.56307251E+01
 20
-1.06937951E+02
  0
VERTEX
  8
0
 62
4
 10
-3.56968118E+01
 20
-1.07235809E+02
  0
VERTEX
  8
0
 62
4
 10
-3.57366661E+01
 20
-1.07538289E+02
  0
VERTEX
  8
0
 62
4
 10
-3.57499847E+01
 20
-1.07843088E+02
  0
VERTEX
  8
0
 62
4
 10
-3.57366661E+01
 20
-1.08147887E+02
  0
VERTEX
  8
0
 62
4
 10
-3.56968118E+01
 20
-1.08450367E+02
  0
VERTEX
  8
0
 62
4
 10
-3.56307251E+01
 20
-1.08748225E+02
  0
VERTEX
  8
0
 62
4
 10
-3.55389089E+01
 20
-1.09039194E+02
  0
VERTEX
  8
0
 62
4
 10
-3.54220620E+01
 20
-1.09321060E+02
  0
VERTEX
  8
0
 62
4
 10
-3.52810736E+01
 20
-1.09591678E+02
  0
VERTEX
  8
0
 62
4
 10
-3.51170169E+01
 20
-1.09848988E+02
  0
VERTEX
  8
0
 62
4
 10
-3.49311402E+01
 20
-1.10091032E+02
  0
VERTEX
  8
0
 62
4
 10
-3.47248584E+01
 20
-1.10315968E+02
  0
VERTEX
  8
0
 62
4
 10
-3.44997413E+01
 20
-1.10522084E+02
  0
VERTEX
  8
0
 62
4
 10
-3.42575022E+01
 20
-1.10707810E+02
  0
VERTEX
  8
0
 62
4
 10
-3.39999847E+01
 20
-1.10871735E+02
  0
VERTEX
  8
0
 62
4
 10
-3.37291486E+01
 20
-1.11012610E+02
  0
VERTEX
  8
0
 62
4
 10
-3.34470552E+01
 20
-1.11129363E+02
  0
VERTEX
  8
0
 62
4
 10
-3.31558514E+01
 20
-1.11221105E+02
  0
VERTEX
  8
0
 62
4
 10
-3.28577533E+01
 20
-1.11287138E+02
  0
VERTEX
  8
0
 62
4
 10
-3.25550298E+01
 20
-1.11326961E+02
  0
VERTEX
  8
0
 62
4
 10
-3.22499847E+01
 20
-1.11340268E+02
  0
VERTEX
  8
0
 62
4
 10
-3.19449396E+01
 20
-1.11326961E+02
  0
VERTEX
  8
0
 62
4
 10
-3.16422161E+01
 20
-1.11287138E+02
  0
VERTEX
  8
0
 62
4
 10
-3.13441180E+01
 20
-1.11221105E+02
  0
VERTEX
  8
0
 62
4
 10
-3.10529142E+01
 20
-1.11129363E+02
  0
VERTEX
  8
0
 62
4
 10
-3.07708208E+01
 20
-1.11012610E+02
  0
VERTEX
  8
0
 62
4
 10
-3.04999847E+01
 20
-1.10871735E+02
  0
VERTEX
  8
0
 62
4
 10
-3.02424672E+01
 20
-1.10707810E+02
  0
VERTEX
  8
0
 62
4
 10
-3.00002281E+01
 20
-1.10522084E+02
  0
VERTEX
  8
0
 62
4
 10
-2.97751110E+01
 20
-1.10315968E+02
  0
VERTEX
  8
0
 62
4
 10
-2.95688291E+01
 20
-1.10091032E+02
  0
VERTEX
  8
0
 62
4
 10
-2.93829525E+01
 20
-1.09848988E+02
  0
VERTEX
  8
0
 62
4
 10
-2.92188958E+01
 20
-1.09591678E+02
  0
VERTEX
  8
0
 62
4
 10
-2.90779074E+01
 20
-1.09321060E+02
  0
VERTEX
  8
0
 62
4
 10
-2.89610605E+01
 20
-1.09039194E+02
  0
VERTEX
  8
0
 62
4
 10
-2.88692443E+01
 20
-1.08748225E+02
  0
VERTEX
  8
0
 62
4
 10
-2.88031576E+01
 20
-1.08450367E+02
  0
VERTEX
  8
0
 62
4
 10
-2.87633033E+01
 20
-1.08147887E+02
  0
VERTEX
  8
0
 62
4
 10
-2.87499847E+01
 20
-1.07843088E+02
  0
SEQEND
  8
0
  0
LINE
  8
0
  6
CENTER
 62
6
 10
-4.82499847E+01
 20
-8.05530334E+01
 11
-4.82499847E+01
 21
-1.27315086E+02
  0
LINE
  8
0
  6
CENTER
 62
6
 10
-4.42499847E+01
 20
-7.80851611E+01
 11
-4.42499847E+01
 21
-8.85851611E+01
  0
LINE
  8
0
 62
4
 10
-4.22499847E+01
 20
-8.03451611E+01
 11
-4.22499847E+01
 21
-8.10851611E+01
  0
LINE
  8
0
 62
4
 10
-4.62499847E+01
 20
-8.03451611E+01
 11
-4.62499847E+01
 21
-8.10851611E+01
  0
LINE
  8
0
 62
4
 10
-4.25199847E+01
 20
-7.93451611E+01
 11
-4.59899847E+01
 21
-7.93451611E+01
  0
LINE
  8
0
 62
4
 10
-4.22499847E+01
 20
-8.03451611E+01
 11
-4.25199847E+01
 21
-7.93451611E+01
  0
LINE
  8
0
 62
4
 10
-4.62499847E+01
 20
-8.03451611E+01
 11
-4.59899847E+01
 21
-7.93451611E+01
  0
LINE
  8
0
 62
6
 10
-4.27499847E+01
 20
-7.93451611E+01
 11
-4.27499847E+01
 21
-8.10851611E+01
  0
LINE
  8
0
 62
6
 10
-4.57499847E+01
 20
-7.93451611E+01
 11
-4.57499847E+01
 21
-8.10851611E+01
  0
LINE
  8
0
 62
4
 10
-5.57499847E+01
 20
-8.10859914E+01
 11
-5.57499847E+01
 21
-9.59502412E+01
  0
LINE
  8
0
 62
4
 10
-4.07499847E+01
 20
-8.10859914E+01
 11
-4.07499847E+01
 21
-9.59502412E+01
  0
LINE
  8
0
 62
4
 10
-4.17499847E+01
 20
-8.89773085E+01
 11
-5.47499847E+01
 21
-8.89773085E+01
  0
LINE
  8
0
 62
4
 10
-4.07499847E+01
 20
-8.10859914E+01
 11
-5.57499847E+01
 21
-8.10859914E+01
  0
LINE
  8
0
  6
CENTER
 62
6
 10
-5.22499847E+01
 20
-7.80851611E+01
 11
-5.22499847E+01
 21
-8.85851611E+01
  0
LINE
  8
0
 62
6
 10
-5.37499847E+01
 20
-7.93451611E+01
 11
-5.37499847E+01
 21
-8.10851611E+01
  0
LINE
  8
0
 62
4
 10
-5.02499847E+01
 20
-8.03451611E+01
 11
-5.02499847E+01
 21
-8.10851611E+01
  0
LINE
  8
0
 62
4
 10
-5.42499847E+01
 20
-8.03451611E+01
 11
-5.42499847E+01
 21
-8.10851611E+01
  0
LINE
  8
0
 62
4
 10
-5.05199847E+01
 20
-7.93451611E+01
 11
-5.39899847E+01
 21
-7.93451611E+01
  0
LINE
  8
0
 62
4
 10
-5.02499847E+01
 20
-8.03451611E+01
 11
-5.05199847E+01
 21
-7.93451611E+01
  0
LINE
  8
0
 62
4
 10
-5.42499847E+01
 20
-8.03451611E+01
 11
-5.39899847E+01
 21
-7.93451611E+01
  0
LINE
  8
0
 62
6
 10
-5.07499847E+01
 20
-7.93451611E+01
 11
-5.07499847E+01
 21
-8.10851611E+01
  0
LINE
  8
0
 62
4
 10
-4.42499847E+01
 20
-1.20134409E+02
 11
-4.42499847E+01
 21
-1.20634006E+02
  0
LINE
  8
0
 62
4
 10
-5.22499847E+01
 20
-1.20134409E+02
 11
-5.22499847E+01
 21
-1.20634006E+02
  0
LINE
  8
0
 62
4
 10
-4.48499847E+01
 20
-1.20634006E+02
 11
-4.48499847E+01
 21
-1.22933962E+02
  0
LINE
  8
0
 62
4
 10
-5.16499847E+01
 20
-1.22933962E+02
 11
-5.16499847E+01
 21
-1.20634006E+02
  0
LINE
  8
0
 62
4
 10
-6.47499847E+01
 20
-1.13919018E+02
 11
-5.57499847E+01
 21
-1.13919018E+02
  0
LINE
  8
0
 62
4
 10
-6.52499847E+01
 20
-1.00419018E+02
 11
-6.52499847E+01
 21
-1.13419018E+02
  0
LINE
  8
0
 62
4
 10
-7.52499847E+01
 20
-1.00274799E+02
 11
-7.52499847E+01
 21
-1.13565716E+02
  0
LINE
  8
0
 62
4
 10
-7.02499847E+01
 20
-1.00274799E+02
 11
-7.02499847E+01
 21
-1.13565716E+02
  0
LINE
  8
0
 62
4
 10
-7.02499847E+01
 20
-1.00671016E+02
 11
-6.52499847E+01
 21
-1.00671016E+02
  0
LINE
  8
0
 62
4
 10
-7.02499847E+01
 20
-1.13171016E+02
 11
-6.52499847E+01
 21
-1.13171016E+02
  0
LINE
  8
0
 62
4
 10
-6.87499847E+01
 20
-1.00671016E+02
 11
-6.87499847E+01
 21
-1.13171016E+02
  0
LINE
  8
0
 62
4
 10
-6.87499847E+01
 20
-1.01171016E+02
 11
-6.52499847E+01
 21
-1.01171016E+02
  0
LINE
  8
0
 62
4
 10
-6.87499847E+01
 20
-1.12671016E+02
 11
-6.52499847E+01
 21
-1.12671016E+02
  0
LINE
  8
0
 62
4
 10
-4.07499847E+01
 20
-9.91853081E+01
 11
-4.07499847E+01
 21
-1.15176519E+02
  0
LINE
  8
0
 62
4
 10
-5.57499847E+01
 20
-9.91853081E+01
 11
-4.07499847E+01
 21
-9.91853081E+01
  0
LINE
  8
0
 62
4
 10
-5.57499847E+01
 20
-1.14173224E+02
 11
-4.07499847E+01
 21
-1.14173224E+02
  0
LINE
  8
0
 62
4
 10
-7.52499847E+01
 20
-1.00274799E+02
 11
-7.02499847E+01
 21
-1.00274799E+02
  0
LINE
  8
0
 62
4
 10
-7.52499847E+01
 20
-1.13264326E+02
 11
-7.02499847E+01
 21
-1.13264326E+02
  0
LINE
  8
0
 62
4
 10
-6.02499847E+01
 20
-9.72232327E+01
 11
-6.02499847E+01
 21
-9.99190183E+01
  0
LINE
  8
0
 62
4
 10
-5.77499847E+01
 20
-9.81902141E+01
 11
-5.77499847E+01
 21
-9.99190183E+01
  0
LINE
  8
0
 62
4
 10
-3.87499847E+01
 20
-9.81902141E+01
 11
-3.87499847E+01
 21
-1.17335435E+02
  0
LINE
  8
0
 62
4
 10
-6.02499847E+01
 20
-1.13919018E+02
 11
-6.02499847E+01
 21
-1.18935398E+02
  0
LINE
  8
0
 62
4
 10
-5.77499847E+01
 20
-1.13919018E+02
 11
-5.77499847E+01
 21
-1.17335435E+02
  0
LINE
  8
0
 62
4
 10
-5.57499847E+01
 20
-9.91853081E+01
 11
-5.57499847E+01
 21
-1.15176519E+02
  0
LINE
  8
0
 62
4
 10
-5.77499847E+01
 20
-1.17174908E+02
 11
-3.87499847E+01
 21
-1.17174908E+02
  0
LINE
  8
0
 62
4
 10
-3.87499847E+01
 20
-9.81902141E+01
 11
-5.77499847E+01
 21
-9.81902141E+01
  0
ARC
  8
0
 62
4
 10
-6.47504844E+01
 20
-1.13419518E+02
 40
4.99500622E-01
 50
1.79942690E+02
 51
2.70057311E+02
  0
ARC
  8
0
 62
4
 10
-5.87494848E+01
 20
-9.74507412E+01
 40
1.50050004E+00
 50
9.00190906E+01
 51
1.79980909E+02
  0
ARC
  8
0
 62
4
 10
-5.87504884E+01
 20
-1.18436228E+02
 40
1.49949647E+00
 50
1.79980757E+02
 51
2.70019243E+02
  0
LINE
  8
0
 62
4
 10
-6.47499847E+01
 20
-9.99190183E+01
 11
-5.57499847E+01
 21
-9.99190183E+01
  0
ARC
  8
0
 62
4
 10
-6.47504844E+01
 20
-1.00418519E+02
 40
4.99500622E-01
 50
8.99426895E+01
 51
1.80057310E+02
  0
LINE
  8
0
 62
4
 10
-7.52499847E+01
 20
-1.06619068E+02
 11
-7.02499847E+01
 21
-1.06619068E+02
  0
LINE
  8
0
  6
CENTER
 62
6
 10
-5.37602480E+01
 20
-1.06679266E+02
 11
-4.27184784E+01
 21
-1.06679266E+02
  0
POLYLINE
  8
0
 62
4
 66
1
  0
VERTEX
  8
0
 62
4
 10
-4.52499847E+01
 20
-1.06679266E+02
  0
VERTEX
  8
0
 62
4
 10
-4.52614006E+01
 20
-1.06418009E+02
  0
VERTEX
  8
0
 62
4
 10
-4.52955614E+01
 20
-1.06158741E+02
  0
VERTEX
  8
0
 62
4
 10
-4.53522072E+01
 20
-1.05903434E+02
  0
VERTEX
  8
0
 62
4
 10
-4.54309068E+01
 20
-1.05654032E+02
  0
VERTEX
  8
0
 62
4
 10
-4.55310613E+01
 20
-1.05412433E+02
  0
VERTEX
  8
0
 62
4
 10
-4.56519085E+01
 20
-1.05180474E+02
  0
VERTEX
  8
0
 62
4
 10
-4.57925286E+01
 20
-1.04959923E+02
  0
VERTEX
  8
0
 62
4
 10
-4.59518514E+01
 20
-1.04752457E+02
  0
VERTEX
  8
0
 62
4
 10
-4.61286644E+01
 20
-1.04559655E+02
  0
VERTEX
  8
0
 62
4
 10
-4.63216219E+01
 20
-1.04382984E+02
  0
VERTEX
  8
0
 62
4
 10
-4.65292554E+01
 20
-1.04223790E+02
  0
VERTEX
  8
0
 62
4
 10
-4.67499847E+01
 20
-1.04083283E+02
  0
VERTEX
  8
0
 62
4
 10
-4.69821299E+01
 20
-1.03962533E+02
  0
VERTEX
  8
0
 62
4
 10
-4.72239243E+01
 20
-1.03862459E+02
  0
VERTEX
  8
0
 62
4
 10
-4.74735276E+01
 20
-1.03783823E+02
  0
VERTEX
  8
0
 62
4
 10
-4.77290402E+01
 20
-1.03727223E+02
  0
VERTEX
  8
0
 62
4
 10
-4.79885175E+01
 20
-1.03693090E+02
  0
VERTEX
  8
0
 62
4
 10
-4.82499847E+01
 20
-1.03681683E+02
  0
VERTEX
  8
0
 62
4
 10
-4.85114519E+01
 20
-1.03693090E+02
  0
VERTEX
  8
0
 62
4
 10
-4.87709292E+01
 20
-1.03727223E+02
  0
VERTEX
  8
0
 62
4
 10
-4.90264418E+01
 20
-1.03783823E+02
  0
VERTEX
  8
0
 62
4
 10
-4.92760451E+01
 20
-1.03862459E+02
  0
VERTEX
  8
0
 62
4
 10
-4.95178395E+01
 20
-1.03962533E+02
  0
VERTEX
  8
0
 62
4
 10
-4.97499847E+01
 20
-1.04083283E+02
  0
VERTEX
  8
0
 62
4
 10
-4.99707140E+01
 20
-1.04223790E+02
  0
VERTEX
  8
0
 62
4
 10
-5.01783475E+01
 20
-1.04382984E+02
  0
VERTEX
  8
0
 62
4
 10
-5.03713050E+01
 20
-1.04559655E+02
  0
VERTEX
  8
0
 62
4
 10
-5.05481180E+01
 20
-1.04752457E+02
  0
VERTEX
  8
0
 62
4
 10
-5.07074408E+01
 20
-1.04959923E+02
  0
VERTEX
  8
0
 62
4
 10
-5.08480609E+01
 20
-1.05180474E+02
  0
VERTEX
  8
0
 62
4
 10
-5.09689081E+01
 20
-1.05412433E+02
  0
VERTEX
  8
0
 62
4
 10
-5.10690626E+01
 20
-1.05654032E+02
  0
VERTEX
  8
0
 62
4
 10
-5.11477622E+01
 20
-1.05903434E+02
  0
VERTEX
  8
0
 62
4
 10
-5.12044080E+01
 20
-1.06158741E+02
  0
VERTEX
  8
0
 62
4
 10
-5.12385688E+01
 20
-1.06418009E+02
  0
VERTEX
  8
0
 62
4
 10
-5.12499847E+01
 20
-1.06679266E+02
  0
VERTEX
  8
0
 62
4
 10
-5.12385688E+01
 20
-1.06940523E+02
  0
VERTEX
  8
0
 62
4
 10
-5.12044080E+01
 20
-1.07199791E+02
  0
VERTEX
  8
0
 62
4
 10
-5.11477622E+01
 20
-1.07455098E+02
  0
VERTEX
  8
0
 62
4
 10
-5.10690626E+01
 20
-1.07704500E+02
  0
VERTEX
  8
0
 62
4
 10
-5.09689081E+01
 20
-1.07946099E+02
  0
VERTEX
  8
0
 62
4
 10
-5.08480609E+01
 20
-1.08178058E+02
  0
VERTEX
  8
0
 62
4
 10
-5.07074408E+01
 20
-1.08398609E+02
  0
VERTEX
  8
0
 62
4
 10
-5.05481180E+01
 20
-1.08606075E+02
  0
VERTEX
  8
0
 62
4
 10
-5.03713050E+01
 20
-1.08798877E+02
  0
VERTEX
  8
0
 62
4
 10
-5.01783475E+01
 20
-1.08975548E+02
  0
VERTEX
  8
0
 62
4
 10
-4.99707140E+01
 20
-1.09134742E+02
  0
VERTEX
  8
0
 62
4
 10
-4.97499847E+01
 20
-1.09275249E+02
  0
VERTEX
  8
0
 62
4
 10
-4.95178395E+01
 20
-1.09395999E+02
  0
VERTEX
  8
0
 62
4
 10
-4.92760451E+01
 20
-1.09496073E+02
  0
VERTEX
  8
0
 62
4
 10
-4.90264418E+01
 20
-1.09574709E+02
  0
VERTEX
  8
0
 62
4
 10
-4.87709292E+01
 20
-1.09631309E+02
  0
VERTEX
  8
0
 62
4
 10
-4.85114519E+01
 20
-1.09665442E+02
  0
VERTEX
  8
0
 62
4
 10
-4.82499847E+01
 20
-1.09676849E+02
  0
VERTEX
  8
0
 62
4
 10
-4.79885175E+01
 20
-1.09665442E+02
  0
VERTEX
  8
0
 62
4
 10
-4.77290402E+01
 20
-1.09631309E+02
  0
VERTEX
  8
0
 62
4
 10
-4.74735276E+01
 20
-1.09574709E+02
  0
VERTEX
  8
0
 62
4
 10
-4.72239243E+01
 20
-1.09496073E+02
  0
VERTEX
  8
0
 62
4
 10
-4.69821299E+01
 20
-1.09395999E+02
  0
VERTEX
  8
0
 62
4
 10
-4.67499847E+01
 20
-1.09275249E+02
  0
VERTEX
  8
0
 62
4
 10
-4.65292554E+01
 20
-1.09134742E+02
  0
VERTEX
  8
0
 62
4
 10
-4.63216219E+01
 20
-1.08975548E+02
  0
VERTEX
  8
0
 62
4
 10
-4.61286644E+01
 20
-1.08798877E+02
  0
VERTEX
  8
0
 62
4
 10
-4.59518514E+01
 20
-1.08606075E+02
  0
VERTEX
  8
0
 62
4
 10
-4.57925286E+01
 20
-1.08398609E+02
  0
VERTEX
  8
0
 62
4
 10
-4.56519085E+01
 20
-1.08178058E+02
  0
VERTEX
  8
0
 62
4
 10
-4.55310613E+01
 20
-1.07946099E+02
  0
VERTEX
  8
0
 62
4
 10
-4.54309068E+01
 20
-1.07704500E+02
  0
VERTEX
  8
0
 62
4
 10
-4.53522072E+01
 20
-1.07455098E+02
  0
VERTEX
  8
0
 62
4
 10
-4.52955614E+01
 20
-1.07199791E+02
  0
VERTEX
  8
0
 62
4
 10
-4.52614006E+01
 20
-1.06940523E+02
  0
VERTEX
  8
0
 62
4
 10
-4.52499847E+01
 20
-1.06679266E+02
  0
SEQEND
  8
0
  0
POLYLINE
  8
0
 62
4
 66
1
  0
VERTEX
  8
0
 62
4
 10
-4.42499847E+01
 20
-1.20134409E+02
  0
VERTEX
  8
0
 62
4
 10
-4.42660875E+01
 20
-1.20120019E+02
  0
VERTEX
  8
0
 62
4
 10
-4.43142663E+01
 20
-1.20105746E+02
  0
VERTEX
  8
0
 62
4
 10
-4.43941333E+01
 20
-1.20091703E+02
  0
VERTEX
  8
0
 62
4
 10
-4.45050452E+01
 20
-1.20078004E+02
  0
VERTEX
  8
0
 62
4
 10
-4.46461092E+01
 20
-1.20064759E+02
  0
VERTEX
  8
0
 62
4
 10
-4.48161895E+01
 20
-1.20052075E+02
  0
VERTEX
  8
0
 62
4
 10
-4.50139167E+01
 20
-1.20040053E+02
  0
VERTEX
  8
0
 62
4
 10
-4.52376988E+01
 20
-1.20028792E+02
  0
VERTEX
  8
0
 62
4
 10
-4.54857341E+01
 20
-1.20018381E+02
  0
VERTEX
  8
0
 62
4
 10
-4.57560255E+01
 20
-1.20008904E+02
  0
VERTEX
  8
0
 62
4
 10
-4.60463968E+01
 20
-1.20000437E+02
  0
VERTEX
  8
0
 62
4
 10
-4.63545100E+01
 20
-1.19993049E+02
  0
VERTEX
  8
0
 62
4
 10
-4.66778846E+01
 20
-1.19986800E+02
  0
VERTEX
  8
0
 62
4
 10
-4.70139167E+01
 20
-1.19981739E+02
  0
VERTEX
  8
0
 62
4
 10
-4.73599010E+01
 20
-1.19977907E+02
  0
VERTEX
  8
0
 62
4
 10
-4.77130516E+01
 20
-1.19975335E+02
  0
VERTEX
  8
0
 62
4
 10
-4.80705254E+01
 20
-1.19974043E+02
  0
VERTEX
  8
0
 62
4
 10
-4.84294440E+01
 20
-1.19974043E+02
  0
VERTEX
  8
0
 62
4
 10
-4.87869178E+01
 20
-1.19975335E+02
  0
VERTEX
  8
0
 62
4
 10
-4.91400684E+01
 20
-1.19977907E+02
  0
VERTEX
  8
0
 62
4
 10
-4.94860527E+01
 20
-1.19981739E+02
  0
VERTEX
  8
0
 62
4
 10
-4.98220848E+01
 20
-1.19986800E+02
  0
VERTEX
  8
0
 62
4
 10
-5.01454593E+01
 20
-1.19993049E+02
  0
VERTEX
  8
0
 62
4
 10
-5.04535726E+01
 20
-1.20000437E+02
  0
VERTEX
  8
0
 62
4
 10
-5.07439439E+01
 20
-1.20008904E+02
  0
VERTEX
  8
0
 62
4
 10
-5.10142353E+01
 20
-1.20018381E+02
  0
VERTEX
  8
0
 62
4
 10
-5.12622706E+01
 20
-1.20028792E+02
  0
VERTEX
  8
0
 62
4
 10
-5.14860527E+01
 20
-1.20040053E+02
  0
VERTEX
  8
0
 62
4
 10
-5.16837799E+01
 20
-1.20052075E+02
  0
VERTEX
  8
0
 62
4
 10
-5.18538602E+01
 20
-1.20064759E+02
  0
VERTEX
  8
0
 62
4
 10
-5.19949242E+01
 20
-1.20078004E+02
  0
VERTEX
  8
0
 62
4
 10
-5.21058361E+01
 20
-1.20091703E+02
  0
VERTEX
  8
0
 62
4
 10
-5.21857031E+01
 20
-1.20105746E+02
  0
VERTEX
  8
0
 62
4
 10
-5.22338819E+01
 20
-1.20120019E+02
  0
VERTEX
  8
0
 62
4
 10
-5.22499847E+01
 20
-1.20134409E+02
  0
SEQEND
  8
0
  0
POLYLINE
  8
0
 62
4
 66
1
  0
VERTEX
  8
0
 62
4
 10
-4.48499819E+01
 20
-1.20718569E+02
  0
VERTEX
  8
0
 62
4
 10
-4.46769303E+01
 20
-1.20706168E+02
  0
VERTEX
  8
0
 62
4
 10
-4.45318879E+01
 20
-1.20693202E+02
  0
VERTEX
  8
0
 62
4
 10
-4.44159915E+01
 20
-1.20679772E+02
  0
VERTEX
  8
0
 62
4
 10
-4.43301497E+01
 20
-1.20665983E+02
  0
VERTEX
  8
0
 62
4
 10
-4.42750354E+01
 20
-1.20651944E+02
  0
VERTEX
  8
0
 62
4
 10
-4.42510805E+01
 20
-1.20637763E+02
  0
VERTEX
  8
0
 62
4
 10
-4.42584730E+01
 20
-1.20623554E+02
  0
VERTEX
  8
0
 62
4
 10
-4.42971549E+01
 20
-1.20609426E+02
  0
VERTEX
  8
0
 62
4
 10
-4.43668228E+01
 20
-1.20595491E+02
  0
VERTEX
  8
0
 62
4
 10
-4.44669308E+01
 20
-1.20581858E+02
  0
VERTEX
  8
0
 62
4
 10
-4.45966940E+01
 20
-1.20568633E+02
  0
VERTEX
  8
0
 62
4
 10
-4.47550952E+01
 20
-1.20555922E+02
  0
VERTEX
  8
0
 62
4
 10
-4.49408928E+01
 20
-1.20543822E+02
  0
VERTEX
  8
0
 62
4
 10
-4.51526303E+01
 20
-1.20532429E+02
  0
VERTEX
  8
0
 62
4
 10
-4.53886479E+01
 20
-1.20521832E+02
  0
VERTEX
  8
0
 62
4
 10
-4.56470954E+01
 20
-1.20512115E+02
  0
VERTEX
  8
0
 62
4
 10
-4.59259469E+01
 20
-1.20503353E+02
  0
VERTEX
  8
0
 62
4
 10
-4.62230164E+01
 20
-1.20495616E+02
  0
VERTEX
  8
0
 62
4
 10
-4.65359753E+01
 20
-1.20488963E+02
  0
VERTEX
  8
0
 62
4
 10
-4.68623703E+01
 20
-1.20483447E+02
  0
VERTEX
  8
0
 62
4
 10
-4.71996427E+01
 20
-1.20479112E+02
  0
VERTEX
  8
0
 62
4
 10
-4.75451488E+01
 20
-1.20475991E+02
  0
VERTEX
  8
0
 62
4
 10
-4.78961800E+01
 20
-1.20474108E+02
  0
VERTEX
  8
0
 62
4
 10
-4.82499847E+01
 20
-1.20473479E+02
  0
VERTEX
  8
0
 62
4
 10
-4.86037894E+01
 20
-1.20474108E+02
  0
VERTEX
  8
0
 62
4
 10
-4.89548207E+01
 20
-1.20475991E+02
  0
VERTEX
  8
0
 62
4
 10
-4.93003267E+01
 20
-1.20479112E+02
  0
VERTEX
  8
0
 62
4
 10
-4.96375991E+01
 20
-1.20483447E+02
  0
VERTEX
  8
0
 62
4
 10
-4.99639941E+01
 20
-1.20488963E+02
  0
VERTEX
  8
0
 62
4
 10
-5.02769530E+01
 20
-1.20495616E+02
  0
VERTEX
  8
0
 62
4
 10
-5.05740226E+01
 20
-1.20503353E+02
  0
VERTEX
  8
0
 62
4
 10
-5.08528740E+01
 20
-1.20512115E+02
  0
VERTEX
  8
0
 62
4
 10
-5.11113215E+01
 20
-1.20521832E+02
  0
VERTEX
  8
0
 62
4
 10
-5.13473391E+01
 20
-1.20532429E+02
  0
VERTEX
  8
0
 62
4
 10
-5.15590766E+01
 20
-1.20543822E+02
  0
VERTEX
  8
0
 62
4
 10
-5.17448742E+01
 20
-1.20555922E+02
  0
VERTEX
  8
0
 62
4
 10
-5.19032754E+01
 20
-1.20568633E+02
  0
VERTEX
  8
0
 62
4
 10
-5.20330386E+01
 20
-1.20581858E+02
  0
VERTEX
  8
0
 62
4
 10
-5.21331466E+01
 20
-1.20595491E+02
  0
VERTEX
  8
0
 62
4
 10
-5.22028146E+01
 20
-1.20609426E+02
  0
VERTEX
  8
0
 62
4
 10
-5.22414964E+01
 20
-1.20623554E+02
  0
VERTEX
  8
0
 62
4
 10
-5.22488889E+01
 20
-1.20637763E+02
  0
VERTEX
  8
0
 62
4
 10
-5.22249340E+01
 20
-1.20651944E+02
  0
VERTEX
  8
0
 62
4
 10
-5.21698197E+01
 20
-1.20665983E+02
  0
VERTEX
  8
0
 62
4
 10
-5.20839779E+01
 20
-1.20679772E+02
  0
VERTEX
  8
0
 62
4
 10
-5.19680815E+01
 20
-1.20693202E+02
  0
VERTEX
  8
0
 62
4
 10
-5.18230390E+01
 20
-1.20706168E+02
  0
VERTEX
  8
0
 62
4
 10
-5.16499875E+01
 20
-1.20718569E+02
  0
SEQEND
  8
0
  0
POLYLINE
  8
0
 62
4
 66
1
  0
VERTEX
  8
0
 62
4
 10
-4.48499847E+01
 20
-1.20634006E+02
  0
VERTEX
  8
0
 62
4
 10
-4.48636721E+01
 20
-1.20621775E+02
  0
VERTEX
  8
0
 62
4
 10
-4.49046241E+01
 20
-1.20609642E+02
  0
VERTEX
  8
0
 62
4
 10
-4.49725110E+01
 20
-1.20597706E+02
  0
VERTEX
  8
0
 62
4
 10
-4.50667861E+01
 20
-1.20586062E+02
  0
VERTEX
  8
0
 62
4
 10
-4.51866905E+01
 20
-1.20574803E+02
  0
VERTEX
  8
0
 62
4
 10
-4.53312588E+01
 20
-1.20564022E+02
  0
VERTEX
  8
0
 62
4
 10
-4.54993269E+01
 20
-1.20553804E+02
  0
VERTEX
  8
0
 62
4
 10
-4.56895417E+01
 20
-1.20544232E+02
  0
VERTEX
  8
0
 62
4
 10
-4.59003717E+01
 20
-1.20535382E+02
  0
VERTEX
  8
0
 62
4
 10
-4.61301194E+01
 20
-1.20527327E+02
  0
VERTEX
  8
0
 62
4
 10
-4.63769350E+01
 20
-1.20520130E+02
  0
VERTEX
  8
0
 62
4
 10
-4.66388312E+01
 20
-1.20513850E+02
  0
VERTEX
  8
0
 62
4
 10
-4.69136996E+01
 20
-1.20508538E+02
  0
VERTEX
  8
0
 62
4
 10
-4.71993269E+01
 20
-1.20504236E+02
  0
VERTEX
  8
0
 62
4
 10
-4.74934135E+01
 20
-1.20500979E+02
  0
VERTEX
  8
0
 62
4
 10
-4.77935916E+01
 20
-1.20498793E+02
  0
VERTEX
  8
0
 62
4
 10
-4.80974443E+01
 20
-1.20497695E+02
  0
VERTEX
  8
0
 62
4
 10
-4.84025251E+01
 20
-1.20497695E+02
  0
VERTEX
  8
0
 62
4
 10
-4.87063778E+01
 20
-1.20498793E+02
  0
VERTEX
  8
0
 62
4
 10
-4.90065559E+01
 20
-1.20500979E+02
  0
VERTEX
  8
0
 62
4
 10
-4.93006425E+01
 20
-1.20504236E+02
  0
VERTEX
  8
0
 62
4
 10
-4.95862698E+01
 20
-1.20508538E+02
  0
VERTEX
  8
0
 62
4
 10
-4.98611381E+01
 20
-1.20513850E+02
  0
VERTEX
  8
0
 62
4
 10
-5.01230344E+01
 20
-1.20520130E+02
  0
VERTEX
  8
0
 62
4
 10
-5.03698500E+01
 20
-1.20527327E+02
  0
VERTEX
  8
0
 62
4
 10
-5.05995977E+01
 20
-1.20535382E+02
  0
VERTEX
  8
0
 62
4
 10
-5.08104277E+01
 20
-1.20544232E+02
  0
VERTEX
  8
0
 62
4
 10
-5.10006425E+01
 20
-1.20553804E+02
  0
VERTEX
  8
0
 62
4
 10
-5.11687106E+01
 20
-1.20564022E+02
  0
VERTEX
  8
0
 62
4
 10
-5.13132788E+01
 20
-1.20574803E+02
  0
VERTEX
  8
0
 62
4
 10
-5.14331833E+01
 20
-1.20586062E+02
  0
VERTEX
  8
0
 62
4
 10
-5.15274584E+01
 20
-1.20597706E+02
  0
VERTEX
  8
0
 62
4
 10
-5.15953453E+01
 20
-1.20609642E+02
  0
VERTEX
  8
0
 62
4
 10
-5.16362973E+01
 20
-1.20621775E+02
  0
VERTEX
  8
0
 62
4
 10
-5.16499847E+01
 20
-1.20634006E+02
  0
SEQEND
  8
0
  0
POLYLINE
  8
0
 62
4
 66
1
  0
VERTEX
  8
0
 62
4
 10
-4.48499847E+01
 20
-1.22933962E+02
  0
VERTEX
  8
0
 62
4
 10
-4.48629227E+01
 20
-1.22872273E+02
  0
VERTEX
  8
0
 62
4
 10
-4.49016383E+01
 20
-1.22811054E+02
  0
VERTEX
  8
0
 62
4
 10
-4.49658369E+01
 20
-1.22750771E+02
  0
VERTEX
  8
0
 62
4
 10
-4.50550298E+01
 20
-1.22691881E+02
  0
VERTEX
  8
0
 62
4
 10
-4.51685382E+01
 20
-1.22634834E+02
  0
VERTEX
  8
0
 62
4
 10
-4.53054983E+01
 20
-1.22580063E+02
  0
VERTEX
  8
0
 62
4
 10
-4.54648677E+01
 20
-1.22527986E+02
  0
VERTEX
  8
0
 62
4
 10
-4.56454336E+01
 20
-1.22478999E+02
  0
VERTEX
  8
0
 62
4
 10
-4.58458216E+01
 20
-1.22433474E+02
  0
VERTEX
  8
0
 62
4
 10
-4.60645068E+01
 20
-1.22391758E+02
  0
VERTEX
  8
0
 62
4
 10
-4.62998248E+01
 20
-1.22354168E+02
  0
VERTEX
  8
0
 62
4
 10
-4.65499847E+01
 20
-1.22320992E+02
  0
VERTEX
  8
0
 62
4
 10
-4.68130826E+01
 20
-1.22292480E+02
  0
VERTEX
  8
0
 62
4
 10
-4.70871162E+01
 20
-1.22268850E+02
  0
VERTEX
  8
0
 62
4
 10
-4.73699999E+01
 20
-1.22250282E+02
  0
VERTEX
  8
0
 62
4
 10
-4.76595809E+01
 20
-1.22236918E+02
  0
VERTEX
  8
0
 62
4
 10
-4.79536552E+01
 20
-1.22228858E+02
  0
VERTEX
  8
0
 62
4
 10
-4.82499847E+01
 20
-1.22226165E+02
  0
VERTEX
  8
0
 62
4
 10
-4.85463142E+01
 20
-1.22228858E+02
  0
VERTEX
  8
0
 62
4
 10
-4.88403885E+01
 20
-1.22236918E+02
  0
VERTEX
  8
0
 62
4
 10
-4.91299695E+01
 20
-1.22250282E+02
  0
VERTEX
  8
0
 62
4
 10
-4.94128532E+01
 20
-1.22268850E+02
  0
VERTEX
  8
0
 62
4
 10
-4.96868868E+01
 20
-1.22292480E+02
  0
VERTEX
  8
0
 62
4
 10
-4.99499847E+01
 20
-1.22320992E+02
  0
VERTEX
  8
0
 62
4
 10
-5.02001446E+01
 20
-1.22354168E+02
  0
VERTEX
  8
0
 62
4
 10
-5.04354626E+01
 20
-1.22391758E+02
  0
VERTEX
  8
0
 62
4
 10
-5.06541478E+01
 20
-1.22433474E+02
  0
VERTEX
  8
0
 62
4
 10
-5.08545358E+01
 20
-1.22478999E+02
  0
VERTEX
  8
0
 62
4
 10
-5.10351017E+01
 20
-1.22527986E+02
  0
VERTEX
  8
0
 62
4
 10
-5.11944711E+01
 20
-1.22580063E+02
  0
VERTEX
  8
0
 62
4
 10
-5.13314312E+01
 20
-1.22634834E+02
  0
VERTEX
  8
0
 62
4
 10
-5.14449396E+01
 20
-1.22691881E+02
  0
VERTEX
  8
0
 62
4
 10
-5.15341325E+01
 20
-1.22750771E+02
  0
VERTEX
  8
0
 62
4
 10
-5.15983311E+01
 20
-1.22811054E+02
  0
VERTEX
  8
0
 62
4
 10
-5.16370467E+01
 20
-1.22872273E+02
  0
VERTEX
  8
0
 62
4
 10
-5.16499847E+01
 20
-1.22933962E+02
  0
VERTEX
  8
0
 62
4
 10
-5.16370467E+01
 20
-1.22995651E+02
  0
VERTEX
  8
0
 62
4
 10
-5.15983311E+01
 20
-1.23056870E+02
  0
VERTEX
  8
0
 62
4
 10
-5.15341325E+01
 20
-1.23117153E+02
  0
VERTEX
  8
0
 62
4
 10
-5.14449396E+01
 20
-1.23176043E+02
  0
VERTEX
  8
0
 62
4
 10
-5.13314312E+01
 20
-1.23233090E+02
  0
VERTEX
  8
0
 62
4
 10
-5.11944711E+01
 20
-1.23287861E+02
  0
VERTEX
  8
0
 62
4
 10
-5.10351016E+01
 20
-1.23339938E+02
  0
VERTEX
  8
0
 62
4
 10
-5.08545358E+01
 20
-1.23388925E+02
  0
VERTEX
  8
0
 62
4
 10
-5.06541478E+01
 20
-1.23434450E+02
  0
VERTEX
  8
0
 62
4
 10
-5.04354626E+01
 20
-1.23476166E+02
  0
VERTEX
  8
0
 62
4
 10
-5.02001446E+01
 20
-1.23513756E+02
  0
VERTEX
  8
0
 62
4
 10
-4.99499847E+01
 20
-1.23546932E+02
  0
VERTEX
  8
0
 62
4
 10
-4.96868868E+01
 20
-1.23575444E+02
  0
VERTEX
  8
0
 62
4
 10
-4.94128532E+01
 20
-1.23599074E+02
  0
VERTEX
  8
0
 62
4
 10
-4.91299694E+01
 20
-1.23617642E+02
  0
VERTEX
  8
0
 62
4
 10
-4.88403885E+01
 20
-1.23631006E+02
  0
VERTEX
  8
0
 62
4
 10
-4.85463142E+01
 20
-1.23639066E+02
  0
VERTEX
  8
0
 62
4
 10
-4.82499847E+01
 20
-1.23641759E+02
  0
VERTEX
  8
0
 62
4
 10
-4.79536552E+01
 20
-1.23639066E+02
  0
VERTEX
  8
0
 62
4
 10
-4.76595809E+01
 20
-1.23631006E+02
  0
VERTEX
  8
0
 62
4
 10
-4.73699999E+01
 20
-1.23617642E+02
  0
VERTEX
  8
0
 62
4
 10
-4.70871162E+01
 20
-1.23599074E+02
  0
VERTEX
  8
0
 62
4
 10
-4.68130826E+01
 20
-1.23575444E+02
  0
VERTEX
  8
0
 62
4
 10
-4.65499847E+01
 20
-1.23546932E+02
  0
VERTEX
  8
0
 62
4
 10
-4.62998248E+01
 20
-1.23513756E+02
  0
VERTEX
  8
0
 62
4
 10
-4.60645068E+01
 20
-1.23476166E+02
  0
VERTEX
  8
0
 62
4
 10
-4.58458216E+01
 20
-1.23434450E+02
  0
VERTEX
  8
0
 62
4
 10
-4.56454336E+01
 20
-1.23388925E+02
  0
VERTEX
  8
0
 62
4
 10
-4.54648677E+01
 20
-1.23339938E+02
  0
VERTEX
  8
0
 62
4
 10
-4.53054983E+01
 20
-1.23287861E+02
  0
VERTEX
  8
0
 62
4
 10
-4.51685382E+01
 20
-1.23233090E+02
  0
VERTEX
  8
0
 62
4
 10
-4.50550298E+01
 20
-1.23176043E+02
  0
VERTEX
  8
0
 62
4
 10
-4.49658369E+01
 20
-1.23117153E+02
  0
VERTEX
  8
0
 62
4
 10
-4.49016383E+01
 20
-1.23056870E+02
  0
VERTEX
  8
0
 62
4
 10
-4.48629227E+01
 20
-1.22995651E+02
  0
VERTEX
  8
0
 62
4
 10
-4.48499847E+01
 20
-1.22933962E+02
  0
SEQEND
  8
0
  0
ARC
  8
0
 62
4
 10
-4.40143897E+01
 20
-1.12216497E+02
 40
1.21769740E+01
 50
2.40462101E+02
 51
2.49762422E+02
  0
ARC
  8
0
 62
4
 10
-5.24855797E+01
 20
-1.12216497E+02
 40
1.21769740E+01
 50
2.90237578E+02
 51
2.99537899E+02
  0
LINE
  8
0
 62
4
 10
-5.87499847E+01
 20
-1.20435398E+02
 11
-5.22499847E+01
 21
-1.20435398E+02
  0
ARC
  8
0
 62
4
 10
-5.87504884E+01
 20
-1.18935901E+02
 40
1.49949647E+00
 50
1.79980757E+02
 51
2.70019243E+02
  0
LINE
  8
0
 62
4
 10
-7.52499847E+01
 20
-1.13565716E+02
 11
-7.02499847E+01
 21
-1.13565716E+02
  0
LINE
  8
0
 62
4
 10
-5.57499847E+01
 20
-1.15176519E+02
 11
-4.07499847E+01
 21
-1.15176519E+02
  0
LINE
  8
0
 62
4
 10
-5.77499847E+01
 20
-1.17335435E+02
 11
-3.87499847E+01
 21
-1.17335435E+02
  0
LINE
  8
0
 62
4
 10
-2.12499847E+01
 20
-9.74502412E+01
 11
-2.12499847E+01
 21
-1.18935398E+02
  0
LINE
  8
0
  6
CENTER
 62
6
 10
-3.22499847E+01
 20
-1.01864335E+02
 11
-3.22499847E+01
 21
-1.13741581E+02
  0
ARC
  8
0
 62
4
 10
-2.27504885E+01
 20
-9.74507450E+01
 40
1.50050386E+00
 50
1.92364101E-02
 51
8.99807637E+01
  0
ARC
  8
0
 62
4
 10
-2.27494849E+01
 20
-1.18935897E+02
 40
1.49950029E+00
 50
2.69980903E+02
 51
1.90971113E-02
  0
ARC
  8
0
 62
4
 10
-2.27494849E+01
 20
-1.18436224E+02
 40
1.49950029E+00
 50
2.69980903E+02
 51
1.90971113E-02
  0
LINE
  8
0
 62
4
 10
2.71802009E+02
 20
-1.57654559E+02
 11
2.71802009E+02
 21
-1.70654559E+02
  0
LINE
  8
0
 62
4
 10
2.81802009E+02
 20
-1.56661520E+02
 11
2.81802009E+02
 21
-1.71659533E+02
  0
LINE
  8
0
 62
4
 10
2.76802009E+02
 20
-1.56661520E+02
 11
2.76802009E+02
 21
-1.71659533E+02
  0
LINE
  8
0
 62
4
 10
2.75302009E+02
 20
-1.57904559E+02
 11
2.75302009E+02
 21
-1.70404559E+02
  0
LINE
  8
0
 62
4
 10
2.47302009E+02
 20
-1.57858528E+02
 11
2.47302009E+02
 21
-1.83520629E+02
  0
LINE
  8
0
 62
4
 10
2.62302009E+02
 20
-1.58460505E+02
 11
2.62302009E+02
 21
-1.83520629E+02
  0
ARC
  8
0
 62
4
 10
2.71302509E+02
 20
-1.57654060E+02
 40
4.99500622E-01
 50
3.59942689E+02
 51
9.00573103E+01
  0
LINE
  8
0
 62
4
 10
2.62302009E+02
 20
-1.57154559E+02
 11
2.59688527E+02
 21
-1.58461300E+02
  0
LINE
  8
0
 62
4
 10
2.62302009E+02
 20
-1.58460505E+02
 11
2.47302009E+02
 21
-1.58460505E+02
  0
LINE
  8
0
 62
4
 10
2.76802009E+02
 20
-1.57904559E+02
 11
2.71802009E+02
 21
-1.57904559E+02
  0
LINE
  8
0
 62
4
 10
2.62302009E+02
 20
-1.57154559E+02
 11
2.71302009E+02
 21
-1.57154559E+02
  0
LINE
  8
0
 62
4
 10
2.81802009E+02
 20
-1.68173411E+02
 11
2.76802009E+02
 21
-1.68173411E+02
  0
LINE
  8
0
 62
4
 10
2.81802009E+02
 20
-1.60669461E+02
 11
2.76802009E+02
 21
-1.60669461E+02
  0
LINE
  8
0
 62
4
 10
2.75302009E+02
 20
-1.58404559E+02
 11
2.71802009E+02
 21
-1.58404559E+02
  0
LINE
  8
0
 62
4
 10
2.60892480E+02
 20
-1.57858528E+02
 11
2.47302009E+02
 21
-1.57858528E+02
  0
LINE
  8
0
 62
4
 10
2.81802009E+02
 20
-1.56661520E+02
 11
2.76802009E+02
 21
-1.56661520E+02
  0
ARC
  8
0
 62
4
 10
2.71301509E+02
 20
-1.70654059E+02
 40
5.00500378E-01
 50
2.70057253E+02
 51
3.59942747E+02
  0
ARC
  8
0
 62
4
 10
2.62801509E+02
 20
-1.71654060E+02
 40
4.99500622E-01
 50
8.99426895E+01
 51
1.80057310E+02
  0
LINE
  8
0
 62
4
 10
2.81802009E+02
 20
-1.71659533E+02
 11
2.76802009E+02
 21
-1.71659533E+02
  0
LINE
  8
0
 62
4
 10
2.71302009E+02
 20
-1.71154559E+02
 11
2.62802009E+02
 21
-1.71154559E+02
  0
LINE
  8
0
 62
4
 10
2.75302009E+02
 20
-1.69904559E+02
 11
2.71802009E+02
 21
-1.69904559E+02
  0
LINE
  8
0
 62
4
 10
2.76802009E+02
 20
-1.70404559E+02
 11
2.71802009E+02
 21
-1.70404559E+02
  0
LINE
  8
0
 62
4
 10
2.62302009E+02
 20
-1.90896301E+02
 11
2.62302009E+02
 21
-2.16647817E+02
  0
LINE
  8
0
 62
4
 10
2.47302009E+02
 20
-1.90896301E+02
 11
2.47302009E+02
 21
-2.16647817E+02
  0
LINE
  8
0
 62
4
 10
2.66802009E+02
 20
-1.88252849E+02
 11
2.66802009E+02
 21
-2.02605652E+02
  0
LINE
  8
0
 62
4
 10
2.27802009E+02
 20
-1.88252849E+02
 11
2.27802009E+02
 21
-2.02605652E+02
  0
LINE
  8
0
 62
4
 10
2.45302009E+02
 20
-1.86752849E+02
 11
2.42163908E+02
 21
-1.86752849E+02
  0
ARC
  8
0
 62
4
 10
2.65302509E+02
 20
-1.89014892E+02
 40
1.49950029E+00
 50
3.59980903E+02
 51
9.00190969E+01
  0
ARC
  8
0
 62
4
 10
2.29301509E+02
 20
-1.89014892E+02
 40
1.49950029E+00
 50
8.99809029E+01
 51
1.80019097E+02
  0
LINE
  8
0
 62
4
 10
2.62302009E+02
 20
-1.82441171E+02
 11
2.47302009E+02
 21
-1.82441171E+02
  0
LINE
  8
0
 62
4
 10
2.45302009E+02
 20
-1.83517406E+02
 11
2.45302009E+02
 21
-1.87517406E+02
  0
LINE
  8
0
 62
4
 10
2.64302009E+02
 20
-1.83517406E+02
 11
2.64302009E+02
 21
-1.87517406E+02
  0
LINE
  8
0
 62
4
 10
2.64302009E+02
 20
-1.83520629E+02
 11
2.45302009E+02
 21
-1.83520629E+02
  0
LINE
  8
0
 62
4
 10
2.65302009E+02
 20
-1.87515392E+02
 11
2.29302009E+02
 21
-1.87515392E+02
  0
LINE
  8
0
 62
4
 10
2.47302009E+02
 20
-1.90896301E+02
 11
2.62302009E+02
 21
-1.90896301E+02
  0
ARC
  8
0
 62
4
 10
2.29301509E+02
 20
-1.88252350E+02
 40
1.49950029E+00
 50
8.99809029E+01
 51
1.80019097E+02
  0
LINE
  8
0
 62
4
 10
2.65302009E+02
 20
-1.86752849E+02
 11
2.64302009E+02
 21
-1.86752849E+02
  0
ARC
  8
0
 62
4
 10
2.65302509E+02
 20
-1.88252350E+02
 40
1.49950029E+00
 50
3.59980903E+02
 51
9.00190969E+01
  0
LINE
  8
0
  6
CENTER
 62
6
 10
2.38802009E+02
 20
-1.85592338E+02
 11
2.38802009E+02
 21
-1.87515392E+02
  0
POLYLINE
  8
0
 62
4
 66
1
  0
VERTEX
  8
0
 62
4
 10
2.35303472E+02
 20
-1.87132093E+02
  0
VERTEX
  8
0
 62
4
 10
2.35308131E+02
 20
-1.87144458E+02
  0
VERTEX
  8
0
 62
4
 10
2.35339871E+02
 20
-1.87156759E+02
  0
VERTEX
  8
0
 62
4
 10
2.35398448E+02
 20
-1.87168899E+02
  0
VERTEX
  8
0
 62
4
 10
2.35483406E+02
 20
-1.87180787E+02
  0
VERTEX
  8
0
 62
4
 10
2.35594088E+02
 20
-1.87192328E+02
  0
VERTEX
  8
0
 62
4
 10
2.35729635E+02
 20
-1.87203433E+02
  0
VERTEX
  8
0
 62
4
 10
2.35888997E+02
 20
-1.87214018E+02
  0
VERTEX
  8
0
 62
4
 10
2.36070938E+02
 20
-1.87223998E+02
  0
VERTEX
  8
0
 62
4
 10
2.36274049E+02
 20
-1.87233298E+02
  0
VERTEX
  8
0
 62
4
 10
2.36496754E+02
 20
-1.87241845E+02
  0
VERTEX
  8
0
 62
4
 10
2.36737328E+02
 20
-1.87249572E+02
  0
VERTEX
  8
0
 62
4
 10
2.36993906E+02
 20
-1.87256421E+02
  0
VERTEX
  8
0
 62
4
 10
2.37264499E+02
 20
-1.87262337E+02
  0
VERTEX
  8
0
 62
4
 10
2.37547010E+02
 20
-1.87267275E+02
  0
VERTEX
  8
0
 62
4
 10
2.37839248E+02
 20
-1.87271197E+02
  0
VERTEX
  8
0
 62
4
 10
2.38138949E+02
 20
-1.87274072E+02
  0
VERTEX
  8
0
 62
4
 10
2.38443790E+02
 20
-1.87275878E+02
  0
VERTEX
  8
0
 62
4
 10
2.38751407E+02
 20
-1.87276601E+02
  0
VERTEX
  8
0
 62
4
 10
2.39059417E+02
 20
-1.87276235E+02
  0
VERTEX
  8
0
 62
4
 10
2.39365431E+02
 20
-1.87274783E+02
  0
VERTEX
  8
0
 62
4
 10
2.39667078E+02
 20
-1.87272257E+02
  0
VERTEX
  8
0
 62
4
 10
2.39962020E+02
 20
-1.87268676E+02
  0
VERTEX
  8
0
 62
4
 10
2.40247970E+02
 20
-1.87264068E+02
  0
VERTEX
  8
0
 62
4
 10
2.40522712E+02
 20
-1.87258468E+02
  0
VERTEX
  8
0
 62
4
 10
2.40784117E+02
 20
-1.87251920E+02
  0
VERTEX
  8
0
 62
4
 10
2.41030158E+02
 20
-1.87244475E+02
  0
VERTEX
  8
0
 62
4
 10
2.41258927E+02
 20
-1.87236191E+02
  0
VERTEX
  8
0
 62
4
 10
2.41468653E+02
 20
-1.87227130E+02
  0
VERTEX
  8
0
 62
4
 10
2.41657708E+02
 20
-1.87217365E+02
  0
VERTEX
  8
0
 62
4
 10
2.41824629E+02
 20
-1.87206970E+02
  0
VERTEX
  8
0
 62
4
 10
2.41968120E+02
 20
-1.87196026E+02
  0
VERTEX
  8
0
 62
4
 10
2.42087070E+02
 20
-1.87184618E+02
  0
VERTEX
  8
0
 62
4
 10
2.42180557E+02
 20
-1.87172835E+02
  0
VERTEX
  8
0
 62
4
 10
2.42247855E+02
 20
-1.87160767E+02
  0
VERTEX
  8
0
 62
4
 10
2.42288444E+02
 20
-1.87148508E+02
  0
VERTEX
  8
0
 62
4
 10
2.42302009E+02
 20
-1.87136154E+02
  0
SEQEND
  8
0
  0
POLYLINE
  8
0
 62
4
 66
1
  0
VERTEX
  8
0
 62
4
 10
2.41942009E+02
 20
-1.86136960E+02
  0
VERTEX
  8
0
 62
4
 10
2.41930060E+02
 20
-1.86125977E+02
  0
VERTEX
  8
0
 62
4
 10
2.41894305E+02
 20
-1.86115078E+02
  0
VERTEX
  8
0
 62
4
 10
2.41835016E+02
 20
-1.86104345E+02
  0
VERTEX
  8
0
 62
4
 10
2.41752644E+02
 20
-1.86093861E+02
  0
VERTEX
  8
0
 62
4
 10
2.41647815E+02
 20
-1.86083704E+02
  0
VERTEX
  8
0
 62
4
 10
2.41521329E+02
 20
-1.86073953E+02
  0
VERTEX
  8
0
 62
4
 10
2.41374146E+02
 20
-1.86064681E+02
  0
VERTEX
  8
0
 62
4
 10
2.41207389E+02
 20
-1.86055960E+02
  0
VERTEX
  8
0
 62
4
 10
2.41022324E+02
 20
-1.86047855E+02
  0
VERTEX
  8
0
 62
4
 10
2.40820362E+02
 20
-1.86040428E+02
  0
VERTEX
  8
0
 62
4
 10
2.40603039E+02
 20
-1.86033736E+02
  0
VERTEX
  8
0
 62
4
 10
2.40372009E+02
 20
-1.86027829E+02
  0
VERTEX
  8
0
 62
4
 10
2.40129030E+02
 20
-1.86022753E+02
  0
VERTEX
  8
0
 62
4
 10
2.39875952E+02
 20
-1.86018546E+02
  0
VERTEX
  8
0
 62
4
 10
2.39614701E+02
 20
-1.86015240E+02
  0
VERTEX
  8
0
 62
4
 10
2.39347264E+02
 20
-1.86012861E+02
  0
VERTEX
  8
0
 62
4
 10
2.39075678E+02
 20
-1.86011426E+02
  0
VERTEX
  8
0
 62
4
 10
2.38802009E+02
 20
-1.86010946E+02
  0
VERTEX
  8
0
 62
4
 10
2.38528340E+02
 20
-1.86011426E+02
  0
VERTEX
  8
0
 62
4
 10
2.38256754E+02
 20
-1.86012861E+02
  0
VERTEX
  8
0
 62
4
 10
2.37989317E+02
 20
-1.86015240E+02
  0
VERTEX
  8
0
 62
4
 10
2.37728066E+02
 20
-1.86018546E+02
  0
VERTEX
  8
0
 62
4
 10
2.37474988E+02
 20
-1.86022753E+02
  0
VERTEX
  8
0
 62
4
 10
2.37232009E+02
 20
-1.86027829E+02
  0
VERTEX
  8
0
 62
4
 10
2.37000979E+02
 20
-1.86033736E+02
  0
VERTEX
  8
0
 62
4
 10
2.36783656E+02
 20
-1.86040428E+02
  0
VERTEX
  8
0
 62
4
 10
2.36581694E+02
 20
-1.86047855E+02
  0
VERTEX
  8
0
 62
4
 10
2.36396629E+02
 20
-1.86055960E+02
  0
VERTEX
  8
0
 62
4
 10
2.36229872E+02
 20
-1.86064681E+02
  0
VERTEX
  8
0
 62
4
 10
2.36082689E+02
 20
-1.86073953E+02
  0
VERTEX
  8
0
 62
4
 10
2.35956203E+02
 20
-1.86083704E+02
  0
VERTEX
  8
0
 62
4
 10
2.35851374E+02
 20
-1.86093861E+02
  0
VERTEX
  8
0
 62
4
 10
2.35769002E+02
 20
-1.86104345E+02
  0
VERTEX
  8
0
 62
4
 10
2.35709713E+02
 20
-1.86115078E+02
  0
VERTEX
  8
0
 62
4
 10
2.35673958E+02
 20
-1.86125977E+02
  0
VERTEX
  8
0
 62
4
 10
2.35662009E+02
 20
-1.86136960E+02
  0
VERTEX
  8
0
 62
4
 10
2.35673958E+02
 20
-1.86147943E+02
  0
VERTEX
  8
0
 62
4
 10
2.35709713E+02
 20
-1.86158842E+02
  0
VERTEX
  8
0
 62
4
 10
2.35769002E+02
 20
-1.86169575E+02
  0
VERTEX
  8
0
 62
4
 10
2.35851374E+02
 20
-1.86180059E+02
  0
VERTEX
  8
0
 62
4
 10
2.35956203E+02
 20
-1.86190216E+02
  0
VERTEX
  8
0
 62
4
 10
2.36082689E+02
 20
-1.86199967E+02
  0
VERTEX
  8
0
 62
4
 10
2.36229872E+02
 20
-1.86209239E+02
  0
VERTEX
  8
0
 62
4
 10
2.36396629E+02
 20
-1.86217960E+02
  0
VERTEX
  8
0
 62
4
 10
2.36581694E+02
 20
-1.86226065E+02
  0
VERTEX
  8
0
 62
4
 10
2.36783656E+02
 20
-1.86233492E+02
  0
VERTEX
  8
0
 62
4
 10
2.37000979E+02
 20
-1.86240184E+02
  0
VERTEX
  8
0
 62
4
 10
2.37232009E+02
 20
-1.86246091E+02
  0
VERTEX
  8
0
 62
4
 10
2.37474988E+02
 20
-1.86251167E+02
  0
VERTEX
  8
0
 62
4
 10
2.37728066E+02
 20
-1.86255374E+02
  0
VERTEX
  8
0
 62
4
 10
2.37989317E+02
 20
-1.86258680E+02
  0
VERTEX
  8
0
 62
4
 10
2.38256754E+02
 20
-1.86261059E+02
  0
VERTEX
  8
0
 62
4
 10
2.38528340E+02
 20
-1.86262494E+02
  0
VERTEX
  8
0
 62
4
 10
2.38802009E+02
 20
-1.86262974E+02
  0
VERTEX
  8
0
 62
4
 10
2.39075678E+02
 20
-1.86262494E+02
  0
VERTEX
  8
0
 62
4
 10
2.39347264E+02
 20
-1.86261059E+02
  0
VERTEX
  8
0
 62
4
 10
2.39614701E+02
 20
-1.86258680E+02
  0
VERTEX
  8
0
 62
4
 10
2.39875952E+02
 20
-1.86255374E+02
  0
VERTEX
  8
0
 62
4
 10
2.40129030E+02
 20
-1.86251167E+02
  0
VERTEX
  8
0
 62
4
 10
2.40372009E+02
 20
-1.86246091E+02
  0
VERTEX
  8
0
 62
4
 10
2.40603039E+02
 20
-1.86240184E+02
  0
VERTEX
  8
0
 62
4
 10
2.40820362E+02
 20
-1.86233492E+02
  0
VERTEX
  8
0
 62
4
 10
2.41022324E+02
 20
-1.86226065E+02
  0
VERTEX
  8
0
 62
4
 10
2.41207389E+02
 20
-1.86217960E+02
  0
VERTEX
  8
0
 62
4
 10
2.41374146E+02
 20
-1.86209239E+02
  0
VERTEX
  8
0
 62
4
 10
2.41521329E+02
 20
-1.86199967E+02
  0
VERTEX
  8
0
 62
4
 10
2.41647815E+02
 20
-1.86190216E+02
  0
VERTEX
  8
0
 62
4
 10
2.41752644E+02
 20
-1.86180059E+02
  0
VERTEX
  8
0
 62
4
 10
2.41835016E+02
 20
-1.86169575E+02
  0
VERTEX
  8
0
 62
4
 10
2.41894305E+02
 20
-1.86158842E+02
  0
VERTEX
  8
0
 62
4
 10
2.41930060E+02
 20
-1.86147943E+02
  0
VERTEX
  8
0
 62
4
 10
2.41942009E+02
 20
-1.86136960E+02
  0
SEQEND
  8
0
  0
LINE
  8
0
 62
4
 10
2.35302009E+02
 20
-1.87136154E+02
 11
2.35662009E+02
 21
-1.86136960E+02
  0
LINE
  8
0
 62
4
 10
2.41942009E+02
 20
-1.86136960E+02
 11
2.42302009E+02
 21
-1.87136154E+02
  0
LINE
  8
0
 62
4
 10
2.35440110E+02
 20
-1.86752849E+02
 11
2.29302009E+02
 21
-1.86752849E+02
  0
LINE
  8
0
 62
4
 10
2.63859528E+02
 20
-2.06407712E+02
 11
2.66802009E+02
 21
-2.02605652E+02
  0
LINE
  8
0
 62
4
 10
2.66802009E+02
 20
-2.01106860E+02
 11
2.62302009E+02
 21
-2.01106860E+02
  0
LINE
  8
0
 62
4
 10
2.66802009E+02
 20
-2.02605652E+02
 11
2.62302009E+02
 21
-2.02605652E+02
  0
LINE
  8
0
 62
4
 10
2.27802009E+02
 20
-2.02605652E+02
 11
2.30743886E+02
 21
-2.06407712E+02
  0
LINE
  8
0
 62
4
 10
2.47302009E+02
 20
-2.01106860E+02
 11
2.27802009E+02
 21
-2.01106860E+02
  0
LINE
  8
0
 62
4
 10
2.47302009E+02
 20
-2.02605652E+02
 11
2.27802009E+02
 21
-2.02605652E+02
  0
POLYLINE
  8
0
 62
4
 66
1
  0
VERTEX
  8
0
 62
4
 10
2.60802009E+02
 20
-2.11262299E+02
  0
VERTEX
  8
0
 62
4
 10
2.60794398E+02
 20
-2.11088563E+02
  0
VERTEX
  8
0
 62
4
 10
2.60771625E+02
 20
-2.10916150E+02
  0
VERTEX
  8
0
 62
4
 10
2.60733861E+02
 20
-2.10746371E+02
  0
VERTEX
  8
0
 62
4
 10
2.60681394E+02
 20
-2.10580519E+02
  0
VERTEX
  8
0
 62
4
 10
2.60614625E+02
 20
-2.10419855E+02
  0
VERTEX
  8
0
 62
4
 10
2.60534060E+02
 20
-2.10265603E+02
  0
VERTEX
  8
0
 62
4
 10
2.60440313E+02
 20
-2.10118936E+02
  0
VERTEX
  8
0
 62
4
 10
2.60334098E+02
 20
-2.09980971E+02
  0
VERTEX
  8
0
 62
4
 10
2.60216223E+02
 20
-2.09852757E+02
  0
VERTEX
  8
0
 62
4
 10
2.60087584E+02
 20
-2.09735272E+02
  0
VERTEX
  8
0
 62
4
 10
2.59949162E+02
 20
-2.09629407E+02
  0
VERTEX
  8
0
 62
4
 10
2.59802009E+02
 20
-2.09535970E+02
  0
VERTEX
  8
0
 62
4
 10
2.59647246E+02
 20
-2.09455672E+02
  0
VERTEX
  8
0
 62
4
 10
2.59486049E+02
 20
-2.09389122E+02
  0
VERTEX
  8
0
 62
4
 10
2.59319647E+02
 20
-2.09336829E+02
  0
VERTEX
  8
0
 62
4
 10
2.59149305E+02
 20
-2.09299190E+02
  0
VERTEX
  8
0
 62
4
 10
2.58976320E+02
 20
-2.09276492E+02
  0
VERTEX
  8
0
 62
4
 10
2.58802009E+02
 20
-2.09268906E+02
  0
VERTEX
  8
0
 62
4
 10
2.58627698E+02
 20
-2.09276492E+02
  0
VERTEX
  8
0
 62
4
 10
2.58454713E+02
 20
-2.09299190E+02
  0
VERTEX
  8
0
 62
4
 10
2.58284371E+02
 20
-2.09336829E+02
  0
VERTEX
  8
0
 62
4
 10
2.58117969E+02
 20
-2.09389122E+02
  0
VERTEX
  8
0
 62
4
 10
2.57956772E+02
 20
-2.09455672E+02
  0
VERTEX
  8
0
 62
4
 10
2.57802009E+02
 20
-2.09535970E+02
  0
VERTEX
  8
0
 62
4
 10
2.57654856E+02
 20
-2.09629407E+02
  0
VERTEX
  8
0
 62
4
 10
2.57516434E+02
 20
-2.09735272E+02
  0
VERTEX
  8
0
 62
4
 10
2.57387795E+02
 20
-2.09852757E+02
  0
VERTEX
  8
0
 62
4
 10
2.57269920E+02
 20
-2.09980971E+02
  0
VERTEX
  8
0
 62
4
 10
2.57163705E+02
 20
-2.10118936E+02
  0
VERTEX
  8
0
 62
4
 10
2.57069958E+02
 20
-2.10265603E+02
  0
VERTEX
  8
0
 62
4
 10
2.56989393E+02
 20
-2.10419855E+02
  0
VERTEX
  8
0
 62
4
 10
2.56922624E+02
 20
-2.10580519E+02
  0
VERTEX
  8
0
 62
4
 10
2.56870157E+02
 20
-2.10746371E+02
  0
VERTEX
  8
0
 62
4
 10
2.56832393E+02
 20
-2.10916150E+02
  0
VERTEX
  8
0
 62
4
 10
2.56809620E+02
 20
-2.11088563E+02
  0
VERTEX
  8
0
 62
4
 10
2.56802009E+02
 20
-2.11262299E+02
  0
VERTEX
  8
0
 62
4
 10
2.56809620E+02
 20
-2.11436035E+02
  0
VERTEX
  8
0
 62
4
 10
2.56832393E+02
 20
-2.11608448E+02
  0
VERTEX
  8
0
 62
4
 10
2.56870157E+02
 20
-2.11778227E+02
  0
VERTEX
  8
0
 62
4
 10
2.56922624E+02
 20
-2.11944080E+02
  0
VERTEX
  8
0
 62
4
 10
2.56989393E+02
 20
-2.12104743E+02
  0
VERTEX
  8
0
 62
4
 10
2.57069958E+02
 20
-2.12258995E+02
  0
VERTEX
  8
0
 62
4
 10
2.57163705E+02
 20
-2.12405662E+02
  0
VERTEX
  8
0
 62
4
 10
2.57269920E+02
 20
-2.12543627E+02
  0
VERTEX
  8
0
 62
4
 10
2.57387795E+02
 20
-2.12671841E+02
  0
VERTEX
  8
0
 62
4
 10
2.57516434E+02
 20
-2.12789326E+02
  0
VERTEX
  8
0
 62
4
 10
2.57654856E+02
 20
-2.12895191E+02
  0
VERTEX
  8
0
 62
4
 10
2.57802009E+02
 20
-2.12988628E+02
  0
VERTEX
  8
0
 62
4
 10
2.57956772E+02
 20
-2.13068926E+02
  0
VERTEX
  8
0
 62
4
 10
2.58117969E+02
 20
-2.13135476E+02
  0
VERTEX
  8
0
 62
4
 10
2.58284371E+02
 20
-2.13187769E+02
  0
VERTEX
  8
0
 62
4
 10
2.58454713E+02
 20
-2.13225408E+02
  0
VERTEX
  8
0
 62
4
 10
2.58627698E+02
 20
-2.13248106E+02
  0
VERTEX
  8
0
 62
4
 10
2.58802009E+02
 20
-2.13255692E+02
  0
VERTEX
  8
0
 62
4
 10
2.58976320E+02
 20
-2.13248106E+02
  0
VERTEX
  8
0
 62
4
 10
2.59149305E+02
 20
-2.13225408E+02
  0
VERTEX
  8
0
 62
4
 10
2.59319647E+02
 20
-2.13187769E+02
  0
VERTEX
  8
0
 62
4
 10
2.59486049E+02
 20
-2.13135476E+02
  0
VERTEX
  8
0
 62
4
 10
2.59647246E+02
 20
-2.13068926E+02
  0
VERTEX
  8
0
 62
4
 10
2.59802009E+02
 20
-2.12988628E+02
  0
VERTEX
  8
0
 62
4
 10
2.59949162E+02
 20
-2.12895191E+02
  0
VERTEX
  8
0
 62
4
 10
2.60087584E+02
 20
-2.12789326E+02
  0
VERTEX
  8
0
 62
4
 10
2.60216223E+02
 20
-2.12671841E+02
  0
VERTEX
  8
0
 62
4
 10
2.60334098E+02
 20
-2.12543627E+02
  0
VERTEX
  8
0
 62
4
 10
2.60440313E+02
 20
-2.12405662E+02
  0
VERTEX
  8
0
 62
4
 10
2.60534060E+02
 20
-2.12258995E+02
  0
VERTEX
  8
0
 62
4
 10
2.60614625E+02
 20
-2.12104743E+02
  0
VERTEX
  8
0
 62
4
 10
2.60681394E+02
 20
-2.11944079E+02
  0
VERTEX
  8
0
 62
4
 10
2.60733861E+02
 20
-2.11778227E+02
  0
VERTEX
  8
0
 62
4
 10
2.60771625E+02
 20
-2.11608448E+02
  0
VERTEX
  8
0
 62
4
 10
2.60794398E+02
 20
-2.11436035E+02
  0
VERTEX
  8
0
 62
4
 10
2.60802009E+02
 20
-2.11262299E+02
  0
SEQEND
  8
0
  0
POLYLINE
  8
0
 62
4
 66
1
  0
VERTEX
  8
0
 62
4
 10
2.52537009E+02
 20
-2.11302431E+02
  0
VERTEX
  8
0
 62
4
 10
2.52530407E+02
 20
-2.11151338E+02
  0
VERTEX
  8
0
 62
4
 10
2.52510650E+02
 20
-2.11001394E+02
  0
VERTEX
  8
0
 62
4
 10
2.52477890E+02
 20
-2.10853742E+02
  0
VERTEX
  8
0
 62
4
 10
2.52432376E+02
 20
-2.10709504E+02
  0
VERTEX
  8
0
 62
4
 10
2.52374453E+02
 20
-2.10569779E+02
  0
VERTEX
  8
0
 62
4
 10
2.52304563E+02
 20
-2.10435630E+02
  0
VERTEX
  8
0
 62
4
 10
2.52223238E+02
 20
-2.10308078E+02
  0
VERTEX
  8
0
 62
4
 10
2.52131096E+02
 20
-2.10188093E+02
  0
VERTEX
  8
0
 62
4
 10
2.52028839E+02
 20
-2.10076589E+02
  0
VERTEX
  8
0
 62
4
 10
2.51917246E+02
 20
-2.09974415E+02
  0
VERTEX
  8
0
 62
4
 10
2.51797164E+02
 20
-2.09882347E+02
  0
VERTEX
  8
0
 62
4
 10
2.51669509E+02
 20
-2.09801087E+02
  0
VERTEX
  8
0
 62
4
 10
2.51535252E+02
 20
-2.09731254E+02
  0
VERTEX
  8
0
 62
4
 10
2.51395414E+02
 20
-2.09673378E+02
  0
VERTEX
  8
0
 62
4
 10
2.51251060E+02
 20
-2.09627900E+02
  0
VERTEX
  8
0
 62
4
 10
2.51103289E+02
 20
-2.09595166E+02
  0
VERTEX
  8
0
 62
4
 10
2.50953224E+02
 20
-2.09575426E+02
  0
VERTEX
  8
0
 62
4
 10
2.50802009E+02
 20
-2.09568829E+02
  0
VERTEX
  8
0
 62
4
 10
2.50650794E+02
 20
-2.09575426E+02
  0
VERTEX
  8
0
 62
4
 10
2.50500729E+02
 20
-2.09595166E+02
  0
VERTEX
  8
0
 62
4
 10
2.50352958E+02
 20
-2.09627900E+02
  0
VERTEX
  8
0
 62
4
 10
2.50208604E+02
 20
-2.09673378E+02
  0
VERTEX
  8
0
 62
4
 10
2.50068766E+02
 20
-2.09731254E+02
  0
VERTEX
  8
0
 62
4
 10
2.49934509E+02
 20
-2.09801087E+02
  0
VERTEX
  8
0
 62
4
 10
2.49806854E+02
 20
-2.09882347E+02
  0
VERTEX
  8
0
 62
4
 10
2.49686772E+02
 20
-2.09974415E+02
  0
VERTEX
  8
0
 62
4
 10
2.49575179E+02
 20
-2.10076589E+02
  0
VERTEX
  8
0
 62
4
 10
2.49472922E+02
 20
-2.10188093E+02
  0
VERTEX
  8
0
 62
4
 10
2.49380780E+02
 20
-2.10308078E+02
  0
VERTEX
  8
0
 62
4
 10
2.49299455E+02
 20
-2.10435630E+02
  0
VERTEX
  8
0
 62
4
 10
2.49229565E+02
 20
-2.10569779E+02
  0
VERTEX
  8
0
 62
4
 10
2.49171642E+02
 20
-2.10709504E+02
  0
VERTEX
  8
0
 62
4
 10
2.49126128E+02
 20
-2.10853742E+02
  0
VERTEX
  8
0
 62
4
 10
2.49093368E+02
 20
-2.11001394E+02
  0
VERTEX
  8
0
 62
4
 10
2.49073611E+02
 20
-2.11151338E+02
  0
VERTEX
  8
0
 62
4
 10
2.49067009E+02
 20
-2.11302431E+02
  0
VERTEX
  8
0
 62
4
 10
2.49073611E+02
 20
-2.11453524E+02
  0
VERTEX
  8
0
 62
4
 10
2.49093368E+02
 20
-2.11603468E+02
  0
VERTEX
  8
0
 62
4
 10
2.49126128E+02
 20
-2.11751120E+02
  0
VERTEX
  8
0
 62
4
 10
2.49171642E+02
 20
-2.11895358E+02
  0
VERTEX
  8
0
 62
4
 10
2.49229565E+02
 20
-2.12035083E+02
  0
VERTEX
  8
0
 62
4
 10
2.49299455E+02
 20
-2.12169232E+02
  0
VERTEX
  8
0
 62
4
 10
2.49380780E+02
 20
-2.12296784E+02
  0
VERTEX
  8
0
 62
4
 10
2.49472922E+02
 20
-2.12416769E+02
  0
VERTEX
  8
0
 62
4
 10
2.49575179E+02
 20
-2.12528273E+02
  0
VERTEX
  8
0
 62
4
 10
2.49686772E+02
 20
-2.12630447E+02
  0
VERTEX
  8
0
 62
4
 10
2.49806854E+02
 20
-2.12722515E+02
  0
VERTEX
  8
0
 62
4
 10
2.49934509E+02
 20
-2.12803775E+02
  0
VERTEX
  8
0
 62
4
 10
2.50068766E+02
 20
-2.12873608E+02
  0
VERTEX
  8
0
 62
4
 10
2.50208604E+02
 20
-2.12931484E+02
  0
VERTEX
  8
0
 62
4
 10
2.50352958E+02
 20
-2.12976962E+02
  0
VERTEX
  8
0
 62
4
 10
2.50500729E+02
 20
-2.13009696E+02
  0
VERTEX
  8
0
 62
4
 10
2.50650794E+02
 20
-2.13029436E+02
  0
VERTEX
  8
0
 62
4
 10
2.50802009E+02
 20
-2.13036033E+02
  0
VERTEX
  8
0
 62
4
 10
2.50953224E+02
 20
-2.13029436E+02
  0
VERTEX
  8
0
 62
4
 10
2.51103289E+02
 20
-2.13009696E+02
  0
VERTEX
  8
0
 62
4
 10
2.51251060E+02
 20
-2.12976962E+02
  0
VERTEX
  8
0
 62
4
 10
2.51395414E+02
 20
-2.12931484E+02
  0
VERTEX
  8
0
 62
4
 10
2.51535252E+02
 20
-2.12873608E+02
  0
VERTEX
  8
0
 62
4
 10
2.51669509E+02
 20
-2.12803775E+02
  0
VERTEX
  8
0
 62
4
 10
2.51797164E+02
 20
-2.12722515E+02
  0
VERTEX
  8
0
 62
4
 10
2.51917246E+02
 20
-2.12630447E+02
  0
VERTEX
  8
0
 62
4
 10
2.52028839E+02
 20
-2.12528273E+02
  0
VERTEX
  8
0
 62
4
 10
2.52131096E+02
 20
-2.12416769E+02
  0
VERTEX
  8
0
 62
4
 10
2.52223238E+02
 20
-2.12296784E+02
  0
VERTEX
  8
0
 62
4
 10
2.52304563E+02
 20
-2.12169232E+02
  0
VERTEX
  8
0
 62
4
 10
2.52374453E+02
 20
-2.12035083E+02
  0
VERTEX
  8
0
 62
4
 10
2.52432376E+02
 20
-2.11895358E+02
  0
VERTEX
  8
0
 62
4
 10
2.52477890E+02
 20
-2.11751120E+02
  0
VERTEX
  8
0
 62
4
 10
2.52510650E+02
 20
-2.11603468E+02
  0
VERTEX
  8
0
 62
4
 10
2.52530407E+02
 20
-2.11453524E+02
  0
VERTEX
  8
0
 62
4
 10
2.52537009E+02
 20
-2.11302431E+02
  0
SEQEND
  8
0
  0
POLYLINE
  8
0
 62
6
 66
1
  0
VERTEX
  8
0
 62
6
 10
2.52302009E+02
 20
-2.11297435E+02
  0
VERTEX
  8
0
 62
6
 10
2.52296301E+02
 20
-2.11166807E+02
  0
VERTEX
  8
0
 62
6
 10
2.52279221E+02
 20
-2.11037173E+02
  0
VERTEX
  8
0
 62
6
 10
2.52250898E+02
 20
-2.10909519E+02
  0
VERTEX
  8
0
 62
6
 10
2.52211548E+02
 20
-2.10784818E+02
  0
VERTEX
  8
0
 62
6
 10
2.52161471E+02
 20
-2.10664018E+02
  0
VERTEX
  8
0
 62
6
 10
2.52101047E+02
 20
-2.10548039E+02
  0
VERTEX
  8
0
 62
6
 10
2.52030737E+02
 20
-2.10437763E+02
  0
VERTEX
  8
0
 62
6
 10
2.51951076E+02
 20
-2.10334030E+02
  0
VERTEX
  8
0
 62
6
 10
2.51862669E+02
 20
-2.10237629E+02
  0
VERTEX
  8
0
 62
6
 10
2.51766190E+02
 20
-2.10149294E+02
  0
VERTEX
  8
0
 62
6
 10
2.51662374E+02
 20
-2.10069697E+02
  0
VERTEX
  8
0
 62
6
 10
2.51552009E+02
 20
-2.09999443E+02
  0
VERTEX
  8
0
 62
6
 10
2.51435936E+02
 20
-2.09939069E+02
  0
VERTEX
  8
0
 62
6
 10
2.51315039E+02
 20
-2.09889032E+02
  0
VERTEX
  8
0
 62
6
 10
2.51190238E+02
 20
-2.09849713E+02
  0
VERTEX
  8
0
 62
6
 10
2.51062481E+02
 20
-2.09821413E+02
  0
VERTEX
  8
0
 62
6
 10
2.50932743E+02
 20
-2.09804347E+02
  0
VERTEX
  8
0
 62
6
 10
2.50802009E+02
 20
-2.09798643E+02
  0
VERTEX
  8
0
 62
6
 10
2.50671275E+02
 20
-2.09804347E+02
  0
VERTEX
  8
0
 62
6
 10
2.50541537E+02
 20
-2.09821413E+02
  0
VERTEX
  8
0
 62
6
 10
2.50413780E+02
 20
-2.09849713E+02
  0
VERTEX
  8
0
 62
6
 10
2.50288979E+02
 20
-2.09889032E+02
  0
VERTEX
  8
0
 62
6
 10
2.50168082E+02
 20
-2.09939069E+02
  0
VERTEX
  8
0
 62
6
 10
2.50052009E+02
 20
-2.09999443E+02
  0
VERTEX
  8
0
 62
6
 10
2.49941644E+02
 20
-2.10069697E+02
  0
VERTEX
  8
0
 62
6
 10
2.49837828E+02
 20
-2.10149294E+02
  0
VERTEX
  8
0
 62
6
 10
2.49741349E+02
 20
-2.10237629E+02
  0
VERTEX
  8
0
 62
6
 10
2.49652942E+02
 20
-2.10334030E+02
  0
VERTEX
  8
0
 62
6
 10
2.49573281E+02
 20
-2.10437763E+02
  0
VERTEX
  8
0
 62
6
 10
2.49502971E+02
 20
-2.10548039E+02
  0
VERTEX
  8
0
 62
6
 10
2.49442547E+02
 20
-2.10664018E+02
  0
VERTEX
  8
0
 62
6
 10
2.49392470E+02
 20
-2.10784818E+02
  0
VERTEX
  8
0
 62
6
 10
2.49353120E+02
 20
-2.10909519E+02
  0
VERTEX
  8
0
 62
6
 10
2.49324797E+02
 20
-2.11037173E+02
  0
VERTEX
  8
0
 62
6
 10
2.49307717E+02
 20
-2.11166807E+02
  0
VERTEX
  8
0
 62
6
 10
2.49302009E+02
 20
-2.11297435E+02
  0
VERTEX
  8
0
 62
6
 10
2.49307717E+02
 20
-2.11428063E+02
  0
VERTEX
  8
0
 62
6
 10
2.49324797E+02
 20
-2.11557697E+02
  0
VERTEX
  8
0
 62
6
 10
2.49353120E+02
 20
-2.11685351E+02
  0
VERTEX
  8
0
 62
6
 10
2.49392470E+02
 20
-2.11810052E+02
  0
VERTEX
  8
0
 62
6
 10
2.49442547E+02
 20
-2.11930852E+02
  0
VERTEX
  8
0
 62
6
 10
2.49502971E+02
 20
-2.12046831E+02
  0
VERTEX
  8
0
 62
6
 10
2.49573281E+02
 20
-2.12157107E+02
  0
VERTEX
  8
0
 62
6
 10
2.49652942E+02
 20
-2.12260840E+02
  0
VERTEX
  8
0
 62
6
 10
2.49741349E+02
 20
-2.12357241E+02
  0
VERTEX
  8
0
 62
6
 10
2.49837828E+02
 20
-2.12445576E+02
  0
VERTEX
  8
0
 62
6
 10
2.49941644E+02
 20
-2.12525173E+02
  0
VERTEX
  8
0
 62
6
 10
2.50052009E+02
 20
-2.12595427E+02
  0
VERTEX
  8
0
 62
6
 10
2.50168082E+02
 20
-2.12655801E+02
  0
VERTEX
  8
0
 62
6
 10
2.50288979E+02
 20
-2.12705838E+02
  0
VERTEX
  8
0
 62
6
 10
2.50413780E+02
 20
-2.12745157E+02
  0
VERTEX
  8
0
 62
6
 10
2.50541537E+02
 20
-2.12773457E+02
  0
VERTEX
  8
0
 62
6
 10
2.50671275E+02
 20
-2.12790523E+02
  0
VERTEX
  8
0
 62
6
 10
2.50802009E+02
 20
-2.12796227E+02
  0
VERTEX
  8
0
 62
6
 10
2.50932743E+02
 20
-2.12790523E+02
  0
VERTEX
  8
0
 62
6
 10
2.51062481E+02
 20
-2.12773457E+02
  0
VERTEX
  8
0
 62
6
 10
2.51190238E+02
 20
-2.12745157E+02
  0
VERTEX
  8
0
 62
6
 10
2.51315039E+02
 20
-2.12705838E+02
  0
VERTEX
  8
0
 62
6
 10
2.51435936E+02
 20
-2.12655801E+02
  0
VERTEX
  8
0
 62
6
 10
2.51552009E+02
 20
-2.12595427E+02
  0
VERTEX
  8
0
 62
6
 10
2.51662374E+02
 20
-2.12525173E+02
  0
VERTEX
  8
0
 62
6
 10
2.51766190E+02
 20
-2.12445576E+02
  0
VERTEX
  8
0
 62
6
 10
2.51862669E+02
 20
-2.12357241E+02
  0
VERTEX
  8
0
 62
6
 10
2.51951076E+02
 20
-2.12260840E+02
  0
VERTEX
  8
0
 62
6
 10
2.52030737E+02
 20
-2.12157107E+02
  0
VERTEX
  8
0
 62
6
 10
2.52101047E+02
 20
-2.12046831E+02
  0
VERTEX
  8
0
 62
6
 10
2.52161471E+02
 20
-2.11930852E+02
  0
VERTEX
  8
0
 62
6
 10
2.52211548E+02
 20
-2.11810052E+02
  0
VERTEX
  8
0
 62
6
 10
2.52250898E+02
 20
-2.11685351E+02
  0
VERTEX
  8
0
 62
6
 10
2.52279221E+02
 20
-2.11557697E+02
  0
VERTEX
  8
0
 62
6
 10
2.52296301E+02
 20
-2.11428063E+02
  0
VERTEX
  8
0
 62
6
 10
2.52302009E+02
 20
-2.11297435E+02
  0
SEQEND
  8
0
  0
POLYLINE
  8
0
 62
4
 66
1
  0
VERTEX
  8
0
 62
4
 10
2.52802009E+02
 20
-2.11262299E+02
  0
VERTEX
  8
0
 62
4
 10
2.52794398E+02
 20
-2.11088563E+02
  0
VERTEX
  8
0
 62
4
 10
2.52771625E+02
 20
-2.10916150E+02
  0
VERTEX
  8
0
 62
4
 10
2.52733861E+02
 20
-2.10746371E+02
  0
VERTEX
  8
0
 62
4
 10
2.52681394E+02
 20
-2.10580519E+02
  0
VERTEX
  8
0
 62
4
 10
2.52614625E+02
 20
-2.10419855E+02
  0
VERTEX
  8
0
 62
4
 10
2.52534060E+02
 20
-2.10265603E+02
  0
VERTEX
  8
0
 62
4
 10
2.52440313E+02
 20
-2.10118936E+02
  0
VERTEX
  8
0
 62
4
 10
2.52334098E+02
 20
-2.09980971E+02
  0
VERTEX
  8
0
 62
4
 10
2.52216223E+02
 20
-2.09852757E+02
  0
VERTEX
  8
0
 62
4
 10
2.52087584E+02
 20
-2.09735272E+02
  0
VERTEX
  8
0
 62
4
 10
2.51949162E+02
 20
-2.09629407E+02
  0
VERTEX
  8
0
 62
4
 10
2.51802009E+02
 20
-2.09535970E+02
  0
VERTEX
  8
0
 62
4
 10
2.51647246E+02
 20
-2.09455672E+02
  0
VERTEX
  8
0
 62
4
 10
2.51486049E+02
 20
-2.09389122E+02
  0
VERTEX
  8
0
 62
4
 10
2.51319647E+02
 20
-2.09336829E+02
  0
VERTEX
  8
0
 62
4
 10
2.51149305E+02
 20
-2.09299190E+02
  0
VERTEX
  8
0
 62
4
 10
2.50976320E+02
 20
-2.09276492E+02
  0
VERTEX
  8
0
 62
4
 10
2.50802009E+02
 20
-2.09268906E+02
  0
VERTEX
  8
0
 62
4
 10
2.50627698E+02
 20
-2.09276492E+02
  0
VERTEX
  8
0
 62
4
 10
2.50454713E+02
 20
-2.09299190E+02
  0
VERTEX
  8
0
 62
4
 10
2.50284371E+02
 20
-2.09336829E+02
  0
VERTEX
  8
0
 62
4
 10
2.50117969E+02
 20
-2.09389122E+02
  0
VERTEX
  8
0
 62
4
 10
2.49956772E+02
 20
-2.09455672E+02
  0
VERTEX
  8
0
 62
4
 10
2.49802009E+02
 20
-2.09535970E+02
  0
VERTEX
  8
0
 62
4
 10
2.49654856E+02
 20
-2.09629407E+02
  0
VERTEX
  8
0
 62
4
 10
2.49516434E+02
 20
-2.09735272E+02
  0
VERTEX
  8
0
 62
4
 10
2.49387795E+02
 20
-2.09852757E+02
  0
VERTEX
  8
0
 62
4
 10
2.49269920E+02
 20
-2.09980971E+02
  0
VERTEX
  8
0
 62
4
 10
2.49163705E+02
 20
-2.10118936E+02
  0
VERTEX
  8
0
 62
4
 10
2.49069958E+02
 20
-2.10265603E+02
  0
VERTEX
  8
0
 62
4
 10
2.48989393E+02
 20
-2.10419855E+02
  0
VERTEX
  8
0
 62
4
 10
2.48922624E+02
 20
-2.10580519E+02
  0
VERTEX
  8
0
 62
4
 10
2.48870157E+02
 20
-2.10746371E+02
  0
VERTEX
  8
0
 62
4
 10
2.48832393E+02
 20
-2.10916150E+02
  0
VERTEX
  8
0
 62
4
 10
2.48809620E+02
 20
-2.11088563E+02
  0
VERTEX
  8
0
 62
4
 10
2.48802009E+02
 20
-2.11262299E+02
  0
VERTEX
  8
0
 62
4
 10
2.48809620E+02
 20
-2.11436035E+02
  0
VERTEX
  8
0
 62
4
 10
2.48832393E+02
 20
-2.11608448E+02
  0
VERTEX
  8
0
 62
4
 10
2.48870157E+02
 20
-2.11778227E+02
  0
VERTEX
  8
0
 62
4
 10
2.48922624E+02
 20
-2.11944080E+02
  0
VERTEX
  8
0
 62
4
 10
2.48989393E+02
 20
-2.12104743E+02
  0
VERTEX
  8
0
 62
4
 10
2.49069958E+02
 20
-2.12258995E+02
  0
VERTEX
  8
0
 62
4
 10
2.49163705E+02
 20
-2.12405662E+02
  0
VERTEX
  8
0
 62
4
 10
2.49269920E+02
 20
-2.12543627E+02
  0
VERTEX
  8
0
 62
4
 10
2.49387795E+02
 20
-2.12671841E+02
  0
VERTEX
  8
0
 62
4
 10
2.49516434E+02
 20
-2.12789326E+02
  0
VERTEX
  8
0
 62
4
 10
2.49654856E+02
 20
-2.12895191E+02
  0
VERTEX
  8
0
 62
4
 10
2.49802009E+02
 20
-2.12988628E+02
  0
VERTEX
  8
0
 62
4
 10
2.49956772E+02
 20
-2.13068926E+02
  0
VERTEX
  8
0
 62
4
 10
2.50117969E+02
 20
-2.13135476E+02
  0
VERTEX
  8
0
 62
4
 10
2.50284371E+02
 20
-2.13187769E+02
  0
VERTEX
  8
0
 62
4
 10
2.50454713E+02
 20
-2.13225408E+02
  0
VERTEX
  8
0
 62
4
 10
2.50627698E+02
 20
-2.13248106E+02
  0
VERTEX
  8
0
 62
4
 10
2.50802009E+02
 20
-2.13255692E+02
  0
VERTEX
  8
0
 62
4
 10
2.50976320E+02
 20
-2.13248106E+02
  0
VERTEX
  8
0
 62
4
 10
2.51149305E+02
 20
-2.13225408E+02
  0
VERTEX
  8
0
 62
4
 10
2.51319647E+02
 20
-2.13187769E+02
  0
VERTEX
  8
0
 62
4
 10
2.51486049E+02
 20
-2.13135476E+02
  0
VERTEX
  8
0
 62
4
 10
2.51647246E+02
 20
-2.13068926E+02
  0
VERTEX
  8
0
 62
4
 10
2.51802009E+02
 20
-2.12988628E+02
  0
VERTEX
  8
0
 62
4
 10
2.51949162E+02
 20
-2.12895191E+02
  0
VERTEX
  8
0
 62
4
 10
2.52087584E+02
 20
-2.12789326E+02
  0
VERTEX
  8
0
 62
4
 10
2.52216223E+02
 20
-2.12671841E+02
  0
VERTEX
  8
0
 62
4
 10
2.52334098E+02
 20
-2.12543627E+02
  0
VERTEX
  8
0
 62
4
 10
2.52440313E+02
 20
-2.12405662E+02
  0
VERTEX
  8
0
 62
4
 10
2.52534060E+02
 20
-2.12258995E+02
  0
VERTEX
  8
0
 62
4
 10
2.52614625E+02
 20
-2.12104743E+02
  0
VERTEX
  8
0
 62
4
 10
2.52681394E+02
 20
-2.11944079E+02
  0
VERTEX
  8
0
 62
4
 10
2.52733861E+02
 20
-2.11778227E+02
  0
VERTEX
  8
0
 62
4
 10
2.52771625E+02
 20
-2.11608448E+02
  0
VERTEX
  8
0
 62
4
 10
2.52794398E+02
 20
-2.11436035E+02
  0
VERTEX
  8
0
 62
4
 10
2.52802009E+02
 20
-2.11262299E+02
  0
SEQEND
  8
0
  0
LINE
  8
0
 62
4
 10
2.47302009E+02
 20
-2.16647817E+02
 11
2.62302009E+02
 21
-2.16647817E+02
  0
LINE
  8
0
  6
CENTER
 62
6
 10
2.45802009E+02
 20
-2.11297435E+02
 11
2.63802009E+02
 21
-2.11297435E+02
  0
LINE
  8
0
 62
4
 10
2.48302009E+02
 20
-2.05935689E+02
 11
2.61302009E+02
 21
-2.05935689E+02
  0
LINE
  8
0
  6
CENTER
 62
6
 10
2.50802009E+02
 20
-2.06306731E+02
 11
2.50802009E+02
 21
-2.16296731E+02
  0
LINE
  8
0
  6
CENTER
 62
6
 10
2.58802009E+02
 20
-2.06306731E+02
 11
2.58802009E+02
 21
-2.16296731E+02
  0
POLYLINE
  8
0
 62
6
 66
1
  0
VERTEX
  8
0
 62
6
 10
2.60302009E+02
 20
-2.11297435E+02
  0
VERTEX
  8
0
 62
6
 10
2.60296301E+02
 20
-2.11166807E+02
  0
VERTEX
  8
0
 62
6
 10
2.60279221E+02
 20
-2.11037173E+02
  0
VERTEX
  8
0
 62
6
 10
2.60250898E+02
 20
-2.10909519E+02
  0
VERTEX
  8
0
 62
6
 10
2.60211548E+02
 20
-2.10784818E+02
  0
VERTEX
  8
0
 62
6
 10
2.60161471E+02
 20
-2.10664018E+02
  0
VERTEX
  8
0
 62
6
 10
2.60101047E+02
 20
-2.10548039E+02
  0
VERTEX
  8
0
 62
6
 10
2.60030737E+02
 20
-2.10437763E+02
  0
VERTEX
  8
0
 62
6
 10
2.59951076E+02
 20
-2.10334030E+02
  0
VERTEX
  8
0
 62
6
 10
2.59862669E+02
 20
-2.10237629E+02
  0
VERTEX
  8
0
 62
6
 10
2.59766190E+02
 20
-2.10149294E+02
  0
VERTEX
  8
0
 62
6
 10
2.59662374E+02
 20
-2.10069697E+02
  0
VERTEX
  8
0
 62
6
 10
2.59552009E+02
 20
-2.09999443E+02
  0
VERTEX
  8
0
 62
6
 10
2.59435936E+02
 20
-2.09939069E+02
  0
VERTEX
  8
0
 62
6
 10
2.59315039E+02
 20
-2.09889032E+02
  0
VERTEX
  8
0
 62
6
 10
2.59190238E+02
 20
-2.09849713E+02
  0
VERTEX
  8
0
 62
6
 10
2.59062481E+02
 20
-2.09821413E+02
  0
VERTEX
  8
0
 62
6
 10
2.58932743E+02
 20
-2.09804347E+02
  0
VERTEX
  8
0
 62
6
 10
2.58802009E+02
 20
-2.09798643E+02
  0
VERTEX
  8
0
 62
6
 10
2.58671275E+02
 20
-2.09804347E+02
  0
VERTEX
  8
0
 62
6
 10
2.58541537E+02
 20
-2.09821413E+02
  0
VERTEX
  8
0
 62
6
 10
2.58413780E+02
 20
-2.09849713E+02
  0
VERTEX
  8
0
 62
6
 10
2.58288979E+02
 20
-2.09889032E+02
  0
VERTEX
  8
0
 62
6
 10
2.58168082E+02
 20
-2.09939069E+02
  0
VERTEX
  8
0
 62
6
 10
2.58052009E+02
 20
-2.09999443E+02
  0
VERTEX
  8
0
 62
6
 10
2.57941644E+02
 20
-2.10069697E+02
  0
VERTEX
  8
0
 62
6
 10
2.57837828E+02
 20
-2.10149294E+02
  0
VERTEX
  8
0
 62
6
 10
2.57741349E+02
 20
-2.10237629E+02
  0
VERTEX
  8
0
 62
6
 10
2.57652942E+02
 20
-2.10334030E+02
  0
VERTEX
  8
0
 62
6
 10
2.57573281E+02
 20
-2.10437763E+02
  0
VERTEX
  8
0
 62
6
 10
2.57502971E+02
 20
-2.10548039E+02
  0
VERTEX
  8
0
 62
6
 10
2.57442547E+02
 20
-2.10664018E+02
  0
VERTEX
  8
0
 62
6
 10
2.57392470E+02
 20
-2.10784818E+02
  0
VERTEX
  8
0
 62
6
 10
2.57353120E+02
 20
-2.10909519E+02
  0
VERTEX
  8
0
 62
6
 10
2.57324797E+02
 20
-2.11037173E+02
  0
VERTEX
  8
0
 62
6
 10
2.57307717E+02
 20
-2.11166807E+02
  0
VERTEX
  8
0
 62
6
 10
2.57302009E+02
 20
-2.11297435E+02
  0
VERTEX
  8
0
 62
6
 10
2.57307717E+02
 20
-2.11428063E+02
  0
VERTEX
  8
0
 62
6
 10
2.57324797E+02
 20
-2.11557697E+02
  0
VERTEX
  8
0
 62
6
 10
2.57353120E+02
 20
-2.11685351E+02
  0
VERTEX
  8
0
 62
6
 10
2.57392470E+02
 20
-2.11810052E+02
  0
VERTEX
  8
0
 62
6
 10
2.57442547E+02
 20
-2.11930852E+02
  0
VERTEX
  8
0
 62
6
 10
2.57502971E+02
 20
-2.12046831E+02
  0
VERTEX
  8
0
 62
6
 10
2.57573281E+02
 20
-2.12157107E+02
  0
VERTEX
  8
0
 62
6
 10
2.57652942E+02
 20
-2.12260840E+02
  0
VERTEX
  8
0
 62
6
 10
2.57741349E+02
 20
-2.12357241E+02
  0
VERTEX
  8
0
 62
6
 10
2.57837828E+02
 20
-2.12445576E+02
  0
VERTEX
  8
0
 62
6
 10
2.57941644E+02
 20
-2.12525173E+02
  0
VERTEX
  8
0
 62
6
 10
2.58052009E+02
 20
-2.12595427E+02
  0
VERTEX
  8
0
 62
6
 10
2.58168082E+02
 20
-2.12655801E+02
  0
VERTEX
  8
0
 62
6
 10
2.58288979E+02
 20
-2.12705838E+02
  0
VERTEX
  8
0
 62
6
 10
2.58413780E+02
 20
-2.12745157E+02
  0
VERTEX
  8
0
 62
6
 10
2.58541537E+02
 20
-2.12773457E+02
  0
VERTEX
  8
0
 62
6
 10
2.58671275E+02
 20
-2.12790523E+02
  0
VERTEX
  8
0
 62
6
 10
2.58802009E+02
 20
-2.12796227E+02
  0
VERTEX
  8
0
 62
6
 10
2.58932743E+02
 20
-2.12790523E+02
  0
VERTEX
  8
0
 62
6
 10
2.59062481E+02
 20
-2.12773457E+02
  0
VERTEX
  8
0
 62
6
 10
2.59190238E+02
 20
-2.12745157E+02
  0
VERTEX
  8
0
 62
6
 10
2.59315039E+02
 20
-2.12705838E+02
  0
VERTEX
  8
0
 62
6
 10
2.59435936E+02
 20
-2.12655801E+02
  0
VERTEX
  8
0
 62
6
 10
2.59552009E+02
 20
-2.12595427E+02
  0
VERTEX
  8
0
 62
6
 10
2.59662374E+02
 20
-2.12525173E+02
  0
VERTEX
  8
0
 62
6
 10
2.59766190E+02
 20
-2.12445576E+02
  0
VERTEX
  8
0
 62
6
 10
2.59862669E+02
 20
-2.12357241E+02
  0
VERTEX
  8
0
 62
6
 10
2.59951076E+02
 20
-2.12260840E+02
  0
VERTEX
  8
0
 62
6
 10
2.60030737E+02
 20
-2.12157107E+02
  0
VERTEX
  8
0
 62
6
 10
2.60101047E+02
 20
-2.12046831E+02
  0
VERTEX
  8
0
 62
6
 10
2.60161471E+02
 20
-2.11930852E+02
  0
VERTEX
  8
0
 62
6
 10
2.60211548E+02
 20
-2.11810052E+02
  0
VERTEX
  8
0
 62
6
 10
2.60250898E+02
 20
-2.11685351E+02
  0
VERTEX
  8
0
 62
6
 10
2.60279221E+02
 20
-2.11557697E+02
  0
VERTEX
  8
0
 62
6
 10
2.60296301E+02
 20
-2.11428063E+02
  0
VERTEX
  8
0
 62
6
 10
2.60302009E+02
 20
-2.11297435E+02
  0
SEQEND
  8
0
  0
POLYLINE
  8
0
 62
4
 66
1
  0
VERTEX
  8
0
 62
4
 10
2.60537009E+02
 20
-2.11302431E+02
  0
VERTEX
  8
0
 62
4
 10
2.60530407E+02
 20
-2.11151338E+02
  0
VERTEX
  8
0
 62
4
 10
2.60510650E+02
 20
-2.11001394E+02
  0
VERTEX
  8
0
 62
4
 10
2.60477890E+02
 20
-2.10853742E+02
  0
VERTEX
  8
0
 62
4
 10
2.60432376E+02
 20
-2.10709504E+02
  0
VERTEX
  8
0
 62
4
 10
2.60374453E+02
 20
-2.10569779E+02
  0
VERTEX
  8
0
 62
4
 10
2.60304563E+02
 20
-2.10435630E+02
  0
VERTEX
  8
0
 62
4
 10
2.60223238E+02
 20
-2.10308078E+02
  0
VERTEX
  8
0
 62
4
 10
2.60131096E+02
 20
-2.10188093E+02
  0
VERTEX
  8
0
 62
4
 10
2.60028839E+02
 20
-2.10076589E+02
  0
VERTEX
  8
0
 62
4
 10
2.59917246E+02
 20
-2.09974415E+02
  0
VERTEX
  8
0
 62
4
 10
2.59797164E+02
 20
-2.09882347E+02
  0
VERTEX
  8
0
 62
4
 10
2.59669509E+02
 20
-2.09801087E+02
  0
VERTEX
  8
0
 62
4
 10
2.59535252E+02
 20
-2.09731254E+02
  0
VERTEX
  8
0
 62
4
 10
2.59395414E+02
 20
-2.09673378E+02
  0
VERTEX
  8
0
 62
4
 10
2.59251060E+02
 20
-2.09627900E+02
  0
VERTEX
  8
0
 62
4
 10
2.59103289E+02
 20
-2.09595166E+02
  0
VERTEX
  8
0
 62
4
 10
2.58953224E+02
 20
-2.09575426E+02
  0
VERTEX
  8
0
 62
4
 10
2.58802009E+02
 20
-2.09568829E+02
  0
VERTEX
  8
0
 62
4
 10
2.58650794E+02
 20
-2.09575426E+02
  0
VERTEX
  8
0
 62
4
 10
2.58500729E+02
 20
-2.09595166E+02
  0
VERTEX
  8
0
 62
4
 10
2.58352958E+02
 20
-2.09627900E+02
  0
VERTEX
  8
0
 62
4
 10
2.58208604E+02
 20
-2.09673378E+02
  0
VERTEX
  8
0
 62
4
 10
2.58068766E+02
 20
-2.09731254E+02
  0
VERTEX
  8
0
 62
4
 10
2.57934509E+02
 20
-2.09801087E+02
  0
VERTEX
  8
0
 62
4
 10
2.57806854E+02
 20
-2.09882347E+02
  0
VERTEX
  8
0
 62
4
 10
2.57686772E+02
 20
-2.09974415E+02
  0
VERTEX
  8
0
 62
4
 10
2.57575179E+02
 20
-2.10076589E+02
  0
VERTEX
  8
0
 62
4
 10
2.57472922E+02
 20
-2.10188093E+02
  0
VERTEX
  8
0
 62
4
 10
2.57380780E+02
 20
-2.10308078E+02
  0
VERTEX
  8
0
 62
4
 10
2.57299455E+02
 20
-2.10435630E+02
  0
VERTEX
  8
0
 62
4
 10
2.57229565E+02
 20
-2.10569779E+02
  0
VERTEX
  8
0
 62
4
 10
2.57171642E+02
 20
-2.10709504E+02
  0
VERTEX
  8
0
 62
4
 10
2.57126128E+02
 20
-2.10853742E+02
  0
VERTEX
  8
0
 62
4
 10
2.57093368E+02
 20
-2.11001394E+02
  0
VERTEX
  8
0
 62
4
 10
2.57073611E+02
 20
-2.11151338E+02
  0
VERTEX
  8
0
 62
4
 10
2.57067009E+02
 20
-2.11302431E+02
  0
VERTEX
  8
0
 62
4
 10
2.57073611E+02
 20
-2.11453524E+02
  0
VERTEX
  8
0
 62
4
 10
2.57093368E+02
 20
-2.11603468E+02
  0
VERTEX
  8
0
 62
4
 10
2.57126128E+02
 20
-2.11751120E+02
  0
VERTEX
  8
0
 62
4
 10
2.57171642E+02
 20
-2.11895358E+02
  0
VERTEX
  8
0
 62
4
 10
2.57229565E+02
 20
-2.12035083E+02
  0
VERTEX
  8
0
 62
4
 10
2.57299455E+02
 20
-2.12169232E+02
  0
VERTEX
  8
0
 62
4
 10
2.57380780E+02
 20
-2.12296784E+02
  0
VERTEX
  8
0
 62
4
 10
2.57472922E+02
 20
-2.12416769E+02
  0
VERTEX
  8
0
 62
4
 10
2.57575179E+02
 20
-2.12528273E+02
  0
VERTEX
  8
0
 62
4
 10
2.57686772E+02
 20
-2.12630447E+02
  0
VERTEX
  8
0
 62
4
 10
2.57806854E+02
 20
-2.12722515E+02
  0
VERTEX
  8
0
 62
4
 10
2.57934509E+02
 20
-2.12803775E+02
  0
VERTEX
  8
0
 62
4
 10
2.58068766E+02
 20
-2.12873608E+02
  0
VERTEX
  8
0
 62
4
 10
2.58208604E+02
 20
-2.12931484E+02
  0
VERTEX
  8
0
 62
4
 10
2.58352958E+02
 20
-2.12976962E+02
  0
VERTEX
  8
0
 62
4
 10
2.58500729E+02
 20
-2.13009696E+02
  0
VERTEX
  8
0
 62
4
 10
2.58650794E+02
 20
-2.13029436E+02
  0
VERTEX
  8
0
 62
4
 10
2.58802009E+02
 20
-2.13036033E+02
  0
VERTEX
  8
0
 62
4
 10
2.58953224E+02
 20
-2.13029436E+02
  0
VERTEX
  8
0
 62
4
 10
2.59103289E+02
 20
-2.13009696E+02
  0
VERTEX
  8
0
 62
4
 10
2.59251060E+02
 20
-2.12976962E+02
  0
VERTEX
  8
0
 62
4
 10
2.59395414E+02
 20
-2.12931484E+02
  0
VERTEX
  8
0
 62
4
 10
2.59535252E+02
 20
-2.12873608E+02
  0
VERTEX
  8
0
 62
4
 10
2.59669509E+02
 20
-2.12803775E+02
  0
VERTEX
  8
0
 62
4
 10
2.59797164E+02
 20
-2.12722515E+02
  0
VERTEX
  8
0
 62
4
 10
2.59917246E+02
 20
-2.12630447E+02
  0
VERTEX
  8
0
 62
4
 10
2.60028839E+02
 20
-2.12528273E+02
  0
VERTEX
  8
0
 62
4
 10
2.60131096E+02
 20
-2.12416769E+02
  0
VERTEX
  8
0
 62
4
 10
2.60223238E+02
 20
-2.12296784E+02
  0
VERTEX
  8
0
 62
4
 10
2.60304563E+02
 20
-2.12169232E+02
  0
VERTEX
  8
0
 62
4
 10
2.60374453E+02
 20
-2.12035083E+02
  0
VERTEX
  8
0
 62
4
 10
2.60432376E+02
 20
-2.11895358E+02
  0
VERTEX
  8
0
 62
4
 10
2.60477890E+02
 20
-2.11751120E+02
  0
VERTEX
  8
0
 62
4
 10
2.60510650E+02
 20
-2.11603468E+02
  0
VERTEX
  8
0
 62
4
 10
2.60530407E+02
 20
-2.11453524E+02
  0
VERTEX
  8
0
 62
4
 10
2.60537009E+02
 20
-2.11302431E+02
  0
SEQEND
  8
0
  0
CIRCLE
  8
0
 62
7
 10
5.87499542E+01
 20
-2.09057706E+02
 40
2.45850000E+00
  0
CIRCLE
  8
0
 62
7
 10
9.17499542E+01
 20
-2.09057706E+02
 40
2.45850000E+00
  0
CIRCLE
  8
0
 62
7
 10
-2.45249924E+02
 20
-2.09057706E+02
 40
2.45850000E+00
  0
CIRCLE
  8
0
 62
7
 10
-2.12249924E+02
 20
-2.09057706E+02
 40
2.45850000E+00
  0
LINE
  8
0
 62
2
 10
1.93036626E+02
 20
-2.29983209E+02
 11
2.10578804E+02
 21
-1.99599267E+02
  0
LINE
  8
0
 62
2
 10
-1.48882356E+01
 20
-2.32028750E+02
 11
2.45652753E+00
 21
-2.01986739E+02
  0
ARC
  8
0
 62
7
 10
3.24802009E+02
 20
-2.25557706E+02
 40
6.00000000E+00
 50
1.46442621E+02
 51
1.80000000E+02
  0
LINE
  8
0
 62
2
 10
3.36302009E+02
 20
-2.21257703E+02
 11
3.29802009E+02
 21
-2.21257703E+02
  0
LINE
  8
0
 62
7
 10
3.36302009E+02
 20
-2.20557690E+02
 11
3.29802009E+02
 21
-2.20557690E+02
  0
ARC
  8
0
 62
4
 10
3.52542819E+02
 20
-2.25557706E+02
 40
1.62408104E+01
 50
1.62412046E+02
 51
1.80000000E+02
  0
ARC
  8
0
 62
4
 10
3.40646907E+02
 20
-2.18196490E+02
 40
4.34489857E+00
 50
1.45615752E+02
 51
2.14384248E+02
  0
LINE
  8
0
 62
4
 10
3.36302009E+02
 20
-2.17057705E+02
 11
3.37061198E+02
 21
-2.15742751E+02
  0
LINE
  8
0
 62
4
 10
3.36302009E+02
 20
-2.25557706E+02
 11
3.36302009E+02
 21
-2.17057706E+02
  0
ARC
  8
0
 62
4
 10
3.26061198E+02
 20
-2.25557706E+02
 40
1.62408104E+01
 50
1.25181798E-07
 51
1.75879541E+01
  0
ARC
  8
0
 62
4
 10
3.37957110E+02
 20
-2.18196490E+02
 40
4.34489857E+00
 50
3.25615751E+02
 51
3.43842484E+01
  0
LINE
  8
0
 62
4
 10
3.42302009E+02
 20
-2.17057705E+02
 11
3.41542820E+02
 21
-2.15742751E+02
  0
LINE
  8
0
 62
4
 10
3.42302009E+02
 20
-2.25557706E+02
 11
3.42302009E+02
 21
-2.17057706E+02
  0
LINE
  8
0
 62
4
 10
3.41542819E+02
 20
-2.20650228E+02
 11
3.37061198E+02
 21
-2.20650228E+02
  0
LINE
  8
0
 62
4
 10
3.41542819E+02
 20
-2.15742751E+02
 11
3.37061198E+02
 21
-2.15742751E+02
  0
ARC
  8
0
 62
7
 10
3.11552009E+02
 20
-2.13549130E+02
 40
2.50000000E-01
 50
3.59721787E-05
 51
8.79992642E+01
  0
ARC
  8
0
 62
7
 10
3.16302009E+02
 20
-2.14057721E+02
 40
5.00000000E-01
 50
3.59721787E-05
 51
9.00000179E+01
  0
LINE
  8
0
 62
7
 10
3.29802009E+02
 20
-2.21257703E+02
 11
3.26802009E+02
 21
-2.21257703E+02
  0
LINE
  8
0
 62
7
 10
3.26802008E+02
 20
-2.25557704E+02
 11
3.23802007E+02
 21
-2.22241067E+02
  0
LINE
  8
0
 62
7
 10
3.26802004E+02
 20
-2.20557706E+02
 11
3.23801999E+02
 21
-2.19557719E+02
  0
LINE
  8
0
 62
7
 10
3.29802009E+02
 20
-2.20557690E+02
 11
3.29802009E+02
 21
-2.25557706E+02
  0
LINE
  8
0
 62
7
 10
3.16302009E+02
 20
-2.13557706E+02
 11
3.11802009E+02
 21
-2.13557706E+02
  0
LINE
  8
0
 62
7
 10
3.23802009E+02
 20
-2.19557706E+02
 11
3.16802009E+02
 21
-2.19557706E+02
  0
LINE
  8
0
 62
7
 10
3.11802009E+02
 20
-2.13557706E+02
 11
3.11802009E+02
 21
-2.25557706E+02
  0
LINE
  8
0
 62
7
 10
3.16802009E+02
 20
-2.14057721E+02
 11
3.16802009E+02
 21
-2.25557706E+02
  0
LINE
  8
0
 62
2
 10
3.23301976E+02
 20
-2.25557706E+02
 11
3.25186622E+02
 21
-2.23771810E+02
  0
LINE
  8
0
 62
2
 10
3.23301796E+02
 20
-2.25557706E+02
 11
3.19801902E+02
 21
-2.22241197E+02
  0
LINE
  8
0
 62
7
 10
3.47802009E+02
 20
-2.20557690E+02
 11
3.47802009E+02
 21
-2.25557706E+02
  0
LINE
  8
0
 62
7
 10
3.48802009E+02
 20
-2.21557889E+02
 11
3.48802009E+02
 21
-2.25557706E+02
  0
LINE
  8
0
 62
7
 10
3.26802009E+02
 20
-2.20557690E+02
 11
3.26802009E+02
 21
-2.25557706E+02
  0
LINE
  8
0
 62
7
 10
3.19802009E+02
 20
-2.25557706E+02
 11
3.19802009E+02
 21
-2.22241070E+02
  0
LINE
  8
0
 62
7
 10
3.23802009E+02
 20
-2.22241070E+02
 11
3.19802009E+02
 21
-2.22241070E+02
  0
LINE
  8
0
 62
2
 10
3.48501991E+02
 20
-2.21257703E+02
 11
3.42302009E+02
 21
-2.21257703E+02
  0
LINE
  8
0
 62
7
 10
3.48801855E+02
 20
-2.21557749E+02
 11
3.47801908E+02
 21
-2.20557779E+02
  0
LINE
  8
0
 62
7
 10
3.23802009E+02
 20
-2.22241070E+02
 11
3.23802009E+02
 21
-2.19557706E+02
  0
LINE
  8
0
 62
7
 10
3.47802009E+02
 20
-2.20557690E+02
 11
3.42302009E+02
 21
-2.20557690E+02
  0
LINE
  8
0
 62
7
 10
3.11560739E+02
 20
-2.13299286E+02
 11
3.03802010E+02
 21
-2.13028345E+02
  0
TEXT
  8
0
 62
7
 10
-3.47600562E+02
 20
2.28100000E+02
 40
6.30000019E+00
  1
DDAH32*75
 41
1.00000015E+00
  7
MONOTXT
  0
TEXT
  8
0
 62
7
 10
1.02839063E+02
 20
3.59999990E+00
 40
6.30000019E+00
  1
(mm)
 41
1.00000000E+00
  7
MONOTXT
  0
LINE
  8
0
  6
CENTER
 62
2
 10
-4.48499847E+01
 20
-1.22057675E+02
 11
-2.06784380E+01
 21
-1.22057675E+02
  0
LINE
  8
0
  6
CENTER
 62
2
 10
2.47302009E+02
 20
-2.09057706E+02
 11
2.05117972E+02
 21
-2.09057706E+02
  0
LINE
  8
0
 62
7
 10
2.47302009E+02
 20
-2.11707699E+02
 11
2.03587997E+02
 21
-2.11707699E+02
  0
LINE
  8
0
 62
7
 10
2.47302009E+02
 20
-2.06407712E+02
 11
2.06647946E+02
 21
-2.06407712E+02
  0
ARC
  8
0
 62
7
 10
3.01302009E+02
 20
-2.05057706E+02
 40
5.00000000E-01
 50
3.59721787E-05
 51
9.00000724E+01
  0
ARC
  8
0
 62
7
 10
3.01302009E+02
 20
-2.13057751E+02
 40
5.00000000E-01
 50
2.70000037E+02
 51
1.86693347E-05
  0
ARC
  8
0
 62
7
 10
3.03302009E+02
 20
-2.13057721E+02
 40
5.00000000E-01
 50
3.59721787E-05
 51
9.00000179E+01
  0
ARC
  8
0
 62
7
 10
3.01302009E+02
 20
-2.04830411E+02
 40
5.00000000E-01
 50
3.59721787E-05
 51
8.84996437E+01
  0
LINE
  8
0
 62
7
 10
2.79802000E+02
 20
-2.03767250E+02
 11
2.70802048E+02
 21
-2.03531578E+02
  0
LINE
  8
0
 62
7
 10
3.03302009E+02
 20
-2.12557721E+02
 11
3.01802009E+02
 21
-2.12557721E+02
  0
LINE
  8
0
 62
7
 10
2.96802009E+02
 20
-2.04212399E+02
 11
2.96802009E+02
 21
-2.03557721E+02
  0
LINE
  8
0
 62
7
 10
2.79802009E+02
 20
-2.13816540E+02
 11
2.79802009E+02
 21
-2.03767239E+02
  0
LINE
  8
0
 62
7
 10
3.01302009E+02
 20
-2.04557736E+02
 11
2.79802009E+02
 21
-2.04557736E+02
  0
LINE
  8
0
 62
7
 10
3.01801955E+02
 20
-2.14200551E+02
 11
2.79802010E+02
 21
-2.13816541E+02
  0
LINE
  8
0
 62
7
 10
3.01802009E+02
 20
-2.25557706E+02
 11
3.01802009E+02
 21
-2.04830411E+02
  0
LINE
  8
0
 62
7
 10
3.01302009E+02
 20
-2.13557721E+02
 11
2.79802009E+02
 21
-2.13557721E+02
  0
LINE
  8
0
 62
7
 10
2.70802009E+02
 20
-2.06407712E+02
 11
2.62302009E+02
 21
-2.06407712E+02
  0
LINE
  8
0
 62
7
 10
2.70802009E+02
 20
-2.11707699E+02
 11
2.62302009E+02
 21
-2.11707699E+02
  0
LINE
  8
0
  6
CENTER
 62
2
 10
3.04029029E+02
 20
-2.09057706E+02
 11
2.62302009E+02
 21
-2.09057706E+02
  0
LINE
  8
0
 62
7
 10
3.01315088E+02
 20
-2.04330590E+02
 11
2.96802001E+02
 21
-2.04212411E+02
  0
LINE
  8
0
 62
7
 10
2.96802009E+02
 20
-2.03557721E+02
 11
2.70802009E+02
 21
-2.03557721E+02
  0
LINE
  8
0
 62
7
 10
3.03802009E+02
 20
-2.25557706E+02
 11
3.03802009E+02
 21
-2.13028348E+02
  0
LINE
  8
0
  6
CENTER
 62
2
 10
2.85802009E+02
 20
-2.01227658E+02
 11
2.85802009E+02
 21
-2.10954541E+02
  0
LINE
  8
0
  6
CENTER
 62
2
 10
3.51167732E+02
 20
-2.25557706E+02
 11
1.95591692E+02
 21
-2.25557706E+02
  0
LINE
  8
0
 62
7
 10
2.70802009E+02
 20
-2.03531583E+02
 11
2.70802009E+02
 21
-2.25557706E+02
  0
LINE
  8
0
 62
2
 10
-2.49922243E+01
 20
-1.29529372E+02
 11
2.45652753E+00
 21
-8.19867393E+01
  0
LINE
  8
0
 62
7
 10
-6.42499847E+01
 20
-9.99190183E+01
 11
-6.42499847E+01
 21
-8.35577666E+01
  0
LINE
  8
0
 62
7
 10
-2.13261363E+01
 20
-1.19407681E+02
 11
-1.91484633E+01
 21
-1.19407681E+02
  0
LINE
  8
0
  6
CENTER
 62
2
 10
-2.12499847E+01
 20
-1.05557706E+02
 11
-1.11521762E+01
 21
-1.05557706E+02
  0
LINE
  8
0
  6
CENTER
 62
2
 10
-4.07499847E+01
 20
-8.90577056E+01
 11
-1.62589674E+00
 21
-8.90577056E+01
  0
LINE
  8
0
 62
7
 10
-4.07499847E+01
 20
-9.17077300E+01
 11
-3.15588905E+00
 21
-9.17077300E+01
  0
LINE
  8
0
 62
7
 10
-4.07499847E+01
 20
-8.64077422E+01
 11
-9.59396703E-02
 21
-8.64077422E+01
  0
LINE
  8
0
 62
7
 10
-6.42499847E+01
 20
-2.03531583E+02
 11
-6.42499847E+01
 21
-2.25557706E+02
  0
LINE
  8
0
  6
CENTER
 62
2
 10
-1.44615707E+02
 20
-2.25557706E+02
 11
-1.11521762E+01
 21
-2.25557706E+02
  0
LINE
  8
0
 62
7
 10
-1.41249985E+02
 20
-2.20557690E+02
 11
-1.35749985E+02
 21
-2.20557690E+02
  0
LINE
  8
0
 62
7
 10
-1.17249985E+02
 20
-2.22241070E+02
 11
-1.17249985E+02
 21
-2.19557706E+02
  0
LINE
  8
0
 62
7
 10
-1.42249831E+02
 20
-2.21557749E+02
 11
-1.41249884E+02
 21
-2.20557779E+02
  0
LINE
  8
0
 62
2
 10
-1.41949966E+02
 20
-2.21257703E+02
 11
-1.35749985E+02
 21
-2.21257703E+02
  0
LINE
  8
0
 62
7
 10
-1.17249985E+02
 20
-2.22241070E+02
 11
-1.13249985E+02
 21
-2.22241070E+02
  0
LINE
  8
0
 62
7
 10
-1.13249985E+02
 20
-2.25557706E+02
 11
-1.13249985E+02
 21
-2.22241070E+02
  0
LINE
  8
0
 62
7
 10
-1.20249985E+02
 20
-2.20557690E+02
 11
-1.20249985E+02
 21
-2.25557706E+02
  0
LINE
  8
0
 62
7
 10
-1.42249985E+02
 20
-2.21557889E+02
 11
-1.42249985E+02
 21
-2.25557706E+02
  0
LINE
  8
0
 62
7
 10
-1.41249985E+02
 20
-2.20557690E+02
 11
-1.41249985E+02
 21
-2.25557706E+02
  0
LINE
  8
0
 62
2
 10
-1.16749772E+02
 20
-2.25557706E+02
 11
-1.13249878E+02
 21
-2.22241197E+02
  0
LINE
  8
0
 62
2
 10
-1.16749952E+02
 20
-2.25557706E+02
 11
-1.18634598E+02
 21
-2.23771810E+02
  0
LINE
  8
0
 62
7
 10
-1.10249985E+02
 20
-2.14057721E+02
 11
-1.10249985E+02
 21
-2.25557706E+02
  0
LINE
  8
0
 62
7
 10
-1.41249985E+02
 20
-1.10557690E+02
 11
-1.35749985E+02
 21
-1.10557690E+02
  0
LINE
  8
0
 62
7
 10
-1.42250002E+02
 20
-1.09557706E+02
 11
-1.41250034E+02
 21
-1.10557697E+02
  0
LINE
  8
0
 62
2
 10
-1.41949966E+02
 20
-1.09857678E+02
 11
-1.35749985E+02
 21
-1.09857678E+02
  0
LINE
  8
0
 62
7
 10
-1.20249985E+02
 20
-1.10557690E+02
 11
-1.20249985E+02
 21
-1.00557645E+02
  0
LINE
  8
0
 62
7
 10
-1.42249985E+02
 20
-1.09557660E+02
 11
-1.42249985E+02
 21
-1.01557706E+02
  0
LINE
  8
0
 62
7
 10
-1.41249985E+02
 20
-1.00557645E+02
 11
-1.35749985E+02
 21
-1.00557645E+02
  0
LINE
  8
0
 62
7
 10
-1.17249985E+02
 20
-1.10557690E+02
 11
-1.17249985E+02
 21
-1.00557645E+02
  0
LINE
  8
0
 62
7
 10
-1.23249985E+02
 20
-1.10557690E+02
 11
-1.23249985E+02
 21
-1.00557645E+02
  0
LINE
  8
0
 62
7
 10
-1.41249985E+02
 20
-1.10557690E+02
 11
-1.41249985E+02
 21
-1.00557645E+02
  0
LINE
  8
0
 62
7
 10
-1.42249759E+02
 20
-1.01557888E+02
 11
-1.41249807E+02
 21
-1.00557913E+02
  0
LINE
  8
0
 62
2
 10
-1.41949966E+02
 20
-1.01257657E+02
 11
-1.35749985E+02
 21
-1.01257657E+02
  0
LINE
  8
0
 62
7
 10
-1.20249985E+02
 20
-1.10557690E+02
 11
-1.13249985E+02
 21
-1.10557690E+02
  0
LINE
  8
0
 62
7
 10
-1.20249985E+02
 20
-1.00557645E+02
 11
-1.13250015E+02
 21
-1.00557645E+02
  0
LINE
  8
0
 62
7
 10
-1.13250292E+02
 20
-1.00557417E+02
 11
-1.12250280E+02
 21
-9.95574055E+01
  0
LINE
  8
0
 62
7
 10
-1.13250107E+02
 20
-1.10557634E+02
 11
-1.12250106E+02
 21
-1.11557635E+02
  0
LINE
  8
0
  6
CENTER
 62
2
 10
-9.74770050E+01
 20
-1.22057675E+02
 11
-5.16499847E+01
 21
-1.22057675E+02
  0
LINE
  8
0
 62
7
 10
-6.42499847E+01
 20
-1.19407681E+02
 11
-6.01738342E+01
 21
-1.19407681E+02
  0
LINE
  8
0
 62
7
 10
-6.42499847E+01
 20
-1.24707669E+02
 11
-2.22084127E+01
 21
-1.24707669E+02
  0
LINE
  8
0
  6
CENTER
 62
2
 10
-1.44207901E+02
 20
-1.05557706E+02
 11
-7.57499847E+01
 21
-1.05557706E+02
  0
LINE
  8
0
 62
7
 10
-1.12249985E+02
 20
-1.11557721E+02
 11
-1.10249985E+02
 21
-1.11557721E+02
  0
LINE
  8
0
 62
7
 10
-9.52499847E+01
 20
-1.26258786E+02
 11
-9.52499847E+01
 21
-8.48566558E+01
  0
LINE
  8
0
  6
CENTER
 62
2
 10
-9.74770050E+01
 20
-8.90577056E+01
 11
-5.57499847E+01
 21
-8.90577056E+01
  0
LINE
  8
0
 62
7
 10
-6.42499847E+01
 20
-9.17077300E+01
 11
-5.57499847E+01
 21
-9.17077300E+01
  0
LINE
  8
0
 62
7
 10
-6.42499847E+01
 20
-8.64077422E+01
 11
-5.57499847E+01
 21
-8.64077422E+01
  0
LINE
  8
0
 62
7
 10
-1.12250015E+02
 20
-9.95577056E+01
 11
-1.10249985E+02
 21
-9.95577056E+01
  0
LINE
  8
0
 62
7
 10
-9.47630844E+01
 20
-1.26758582E+02
 11
-6.42500148E+01
 21
-1.27557595E+02
  0
LINE
  8
0
 62
7
 10
-1.09749985E+02
 20
-1.17557706E+02
 11
-1.05249985E+02
 21
-1.17557706E+02
  0
LINE
  8
0
 62
7
 10
-1.05249985E+02
 20
-2.13557706E+02
 11
-1.05249985E+02
 21
-2.25557706E+02
  0
LINE
  8
0
 62
7
 10
-7.32499847E+01
 20
-1.16286084E+02
 11
-7.32499847E+01
 21
-1.27321942E+02
  0
LINE
  8
0
 62
7
 10
-9.47630316E+01
 20
-8.43568247E+01
 11
-6.42500230E+01
 21
-8.35578135E+01
  0
LINE
  8
0
 62
7
 10
-7.32499847E+01
 20
-9.48293273E+01
 11
-7.32499847E+01
 21
-8.37934844E+01
  0
LINE
  8
0
 62
7
 10
-6.42499847E+01
 20
-1.27557706E+02
 11
-6.42499847E+01
 21
-1.13919018E+02
  0
LINE
  8
0
 62
7
 10
-6.86605924E+01
 20
-1.13171016E+02
 11
-6.90282394E+01
 21
-1.13807808E+02
  0
LINE
  8
0
 62
7
 10
-6.90283051E+01
 20
-1.13807767E+02
 11
-7.04716644E+01
 21
-1.13807767E+02
  0
LINE
  8
0
 62
7
 10
-7.06112815E+01
 20
-1.13565716E+02
 11
-7.04715344E+01
 21
-1.13807768E+02
  0
LINE
  8
0
 62
7
 10
-1.10249985E+02
 20
-1.17057690E+02
 11
-1.10249985E+02
 21
-9.40577208E+01
  0
LINE
  8
0
 62
7
 10
-1.09749985E+02
 20
-9.35577056E+01
 11
-1.05249985E+02
 21
-9.35577056E+01
  0
LINE
  8
0
  6
CENTER
 62
2
 10
-7.92499847E+01
 20
-1.11014905E+02
 11
-7.92499847E+01
 21
-9.34134947E+01
  0
LINE
  8
0
  6
CENTER
 62
2
 10
-8.73466492E+01
 20
-1.02557706E+02
 11
-7.52499847E+01
 21
-1.02557706E+02
  0
LINE
  8
0
 62
7
 10
-9.02499847E+01
 20
-1.14557706E+02
 11
-9.02499847E+01
 21
-9.65577056E+01
  0
LINE
  8
0
  6
CENTER
 62
2
 10
-7.92499847E+01
 20
-2.01227658E+02
 11
-7.92499847E+01
 21
-2.10954541E+02
  0
LINE
  8
0
 62
7
 10
-9.47499847E+01
 20
-1.26557675E+02
 11
-7.32499847E+01
 21
-1.26557675E+02
  0
LINE
  8
0
 62
7
 10
-7.12499847E+01
 20
-8.85577056E+01
 11
-6.42499847E+01
 21
-8.85577056E+01
  0
LINE
  8
0
 62
2
 10
-9.52499847E+01
 20
-9.48293273E+01
 11
-7.32499847E+01
 21
-9.48293273E+01
  0
LINE
  8
0
 62
7
 10
-9.52500018E+01
 20
-9.32133044E+01
 11
-7.32499958E+01
 21
-9.28292929E+01
  0
LINE
  8
0
 62
7
 10
-9.47499847E+01
 20
-8.45577056E+01
 11
-7.32499847E+01
 21
-8.45577056E+01
  0
LINE
  8
0
 62
7
 10
-8.92499847E+01
 20
-9.55577056E+01
 11
-7.32499847E+01
 21
-9.55577056E+01
  0
LINE
  8
0
 62
7
 10
-7.22499847E+01
 20
-9.45577056E+01
 11
-7.22499847E+01
 21
-8.95577056E+01
  0
LINE
  8
0
 62
7
 10
-8.92499847E+01
 20
-1.15557706E+02
 11
-7.32499847E+01
 21
-1.15557706E+02
  0
LINE
  8
0
 62
2
 10
-9.52499847E+01
 20
-1.16286084E+02
 11
-7.32499847E+01
 21
-1.16286084E+02
  0
LINE
  8
0
 62
7
 10
-9.52500335E+01
 20
-1.17902043E+02
 11
-7.32499969E+01
 21
-1.18286055E+02
  0
LINE
  8
0
 62
7
 10
-7.22499847E+01
 20
-1.16557706E+02
 11
-7.22499847E+01
 21
-1.21557706E+02
  0
LINE
  8
0
 62
7
 10
-7.12499847E+01
 20
-1.22557706E+02
 11
-6.42499847E+01
 21
-1.22557706E+02
  0
LINE
  8
0
 62
7
 10
-9.72499847E+01
 20
-2.25557706E+02
 11
-9.72499847E+01
 21
-2.13028348E+02
  0
LINE
  8
0
 62
7
 10
-9.67499847E+01
 20
-1.18557690E+02
 11
-9.52499847E+01
 21
-1.18557690E+02
  0
LINE
  8
0
 62
7
 10
-9.67499847E+01
 20
-9.25577208E+01
 11
-9.52499847E+01
 21
-9.25577208E+01
  0
LINE
  8
0
 62
7
 10
-1.05249985E+02
 20
-1.17566281E+02
 11
-1.05249985E+02
 21
-9.35491301E+01
  0
LINE
  8
0
 62
7
 10
-9.72499847E+01
 20
-1.18057690E+02
 11
-9.72499847E+01
 21
-9.30577208E+01
  0
LINE
  8
0
 62
7
 10
-1.05008694E+02
 20
-9.32992835E+01
 11
-9.72499646E+01
 21
-9.30283427E+01
  0
LINE
  8
0
 62
7
 10
-1.05008713E+02
 20
-1.17816084E+02
 11
-9.72499841E+01
 21
-1.18087025E+02
  0
LINE
  8
0
 62
7
 10
-2.09249816E+02
 20
-2.07325692E+02
 11
-2.12249871E+02
 21
-2.05593595E+02
  0
LINE
  8
0
 62
7
 10
-2.12250169E+02
 20
-2.05593218E+02
 11
-2.15250146E+02
 21
-2.07325267E+02
  0
LINE
  8
0
 62
7
 10
-2.15249924E+02
 20
-2.10789700E+02
 11
-2.15249924E+02
 21
-2.07325619E+02
  0
LINE
  8
0
 62
7
 10
-2.12249866E+02
 20
-2.12521769E+02
 11
-2.15249869E+02
 21
-2.10789703E+02
  0
LINE
  8
0
 62
7
 10
-2.09250023E+02
 20
-2.10789498E+02
 11
-2.12250000E+02
 21
-2.12521547E+02
  0
LINE
  8
0
 62
7
 10
-2.09249924E+02
 20
-2.07325619E+02
 11
-2.09249924E+02
 21
-2.10789700E+02
  0
LINE
  8
0
 62
7
 10
-2.42250052E+02
 20
-2.07325610E+02
 11
-2.45250107E+02
 21
-2.05593515E+02
  0
LINE
  8
0
 62
7
 10
-2.45249898E+02
 20
-2.05593775E+02
 11
-2.48249848E+02
 21
-2.07325809E+02
  0
LINE
  8
0
 62
7
 10
-2.48249924E+02
 20
-2.10789700E+02
 11
-2.48249924E+02
 21
-2.07325619E+02
  0
LINE
  8
0
 62
7
 10
-2.45250060E+02
 20
-2.12521740E+02
 11
-2.48250063E+02
 21
-2.10789675E+02
  0
LINE
  8
0
 62
7
 10
-2.42249875E+02
 20
-2.10789808E+02
 11
-2.45249851E+02
 21
-2.12521858E+02
  0
LINE
  8
0
 62
7
 10
-2.42249924E+02
 20
-2.07325619E+02
 11
-2.42249924E+02
 21
-2.10789700E+02
  0
LINE
  8
0
 62
7
 10
-2.50549911E+02
 20
-2.06557736E+02
 11
-2.50549911E+02
 21
-2.14657712E+02
  0
LINE
  8
0
 62
7
 10
-2.47749924E+02
 20
-2.03757733E+02
 11
-2.38749924E+02
 21
-2.03757733E+02
  0
LINE
  8
0
 62
7
 10
-2.49949936E+02
 20
-2.25557706E+02
 11
-2.49949936E+02
 21
-2.14715451E+02
  0
LINE
  8
0
 62
7
 10
-2.47949905E+02
 20
-2.25557706E+02
 11
-2.47949875E+02
 21
-2.21552731E+02
  0
LINE
  8
0
 62
7
 10
-2.50749924E+02
 20
-2.25557706E+02
 11
-2.50749924E+02
 21
-2.06557675E+02
  0
LINE
  8
0
 62
7
 10
-2.47749924E+02
 20
-2.03557675E+02
 11
-2.09749863E+02
 21
-2.03557675E+02
  0
LINE
  8
0
 62
7
 10
-2.06749863E+02
 20
-2.25557706E+02
 11
-2.06749863E+02
 21
-2.06557675E+02
  0
LINE
  8
0
  6
CENTER
 62
2
 10
-2.53148972E+02
 20
-2.25557706E+02
 11
-2.03790085E+02
 21
-2.25557706E+02
  0
LINE
  8
0
  6
CENTER
 62
2
 10
-2.28749924E+02
 20
-2.01227658E+02
 11
-2.28749924E+02
 21
-2.25557706E+02
  0
LINE
  8
0
  6
CENTER
 62
2
 10
-2.05036484E+02
 20
-2.09057660E+02
 11
-2.18858688E+02
 21
-2.09057660E+02
  0
LINE
  8
0
  6
CENTER
 62
2
 10
-2.12249924E+02
 20
-2.02002011E+02
 11
-2.12249924E+02
 21
-2.15689694E+02
  0
LINE
  8
0
  6
CENTER
 62
2
 10
-2.45249924E+02
 20
-2.01844266E+02
 11
-2.45249924E+02
 21
-2.15666485E+02
  0
LINE
  8
0
  6
CENTER
 62
2
 10
-2.52305588E+02
 20
-2.09057706E+02
 11
-2.38617905E+02
 21
-2.09057706E+02
  0
LINE
  8
0
 62
7
 10
-2.29749924E+02
 20
-2.07357693E+02
 11
-2.29749924E+02
 21
-2.11701321E+02
  0
LINE
  8
0
 62
7
 10
-2.27749924E+02
 20
-2.07357693E+02
 11
-2.27749924E+02
 21
-2.11701321E+02
  0
LINE
  8
0
  6
CENTER
 62
2
 10
-2.31749924E+02
 20
-2.01227658E+02
 11
-2.31749924E+02
 21
-2.10974682E+02
  0
LINE
  8
0
 62
7
 10
-2.38701173E+02
 20
-2.14192355E+02
 11
-2.37840811E+02
 21
-2.15052717E+02
  0
LINE
  8
0
 62
7
 10
-2.40115398E+02
 20
-2.15606579E+02
 11
-2.39255036E+02
 21
-2.16466941E+02
  0
LINE
  8
0
 62
7
 10
-2.46949936E+02
 20
-2.24557721E+02
 11
-2.42606308E+02
 21
-2.24557721E+02
  0
LINE
  8
0
 62
7
 10
-2.09549942E+02
 20
-2.25557706E+02
 11
-2.09549911E+02
 21
-2.21552701E+02
  0
LINE
  8
0
 62
7
 10
-2.09749924E+02
 20
-2.03757703E+02
 11
-2.18749924E+02
 21
-2.03757703E+02
  0
LINE
  8
0
 62
7
 10
-2.06949936E+02
 20
-2.06557706E+02
 11
-2.06949936E+02
 21
-2.14657712E+02
  0
LINE
  8
0
 62
7
 10
-2.07549911E+02
 20
-2.25557706E+02
 11
-2.07549911E+02
 21
-2.14715451E+02
  0
LINE
  8
0
 62
7
 10
-2.39592209E+02
 20
-2.04357709E+02
 11
-2.17907700E+02
 21
-2.04357709E+02
  0
LINE
  8
0
 62
7
 10
-2.32754929E+02
 20
-2.06357678E+02
 11
-2.24744980E+02
 21
-2.06357739E+02
  0
LINE
  8
0
 62
7
 10
-2.17384574E+02
 20
-2.15606430E+02
 11
-2.18244936E+02
 21
-2.16466792E+02
  0
LINE
  8
0
 62
7
 10
-2.18798787E+02
 20
-2.14192259E+02
 11
-2.19659150E+02
 21
-2.15052621E+02
  0
LINE
  8
0
 62
7
 10
-2.10549911E+02
 20
-2.24557690E+02
 11
-2.14893539E+02
 21
-2.24557690E+02
  0
LINE
  8
0
 62
7
 10
-2.38749924E+02
 20
-2.03557675E+02
 11
-2.38749924E+02
 21
-2.04357709E+02
  0
LINE
  8
0
 62
7
 10
-2.18749924E+02
 20
-2.03557675E+02
 11
-2.18749924E+02
 21
-2.04357709E+02
  0
LINE
  8
0
 62
7
 10
-2.45749924E+02
 20
-2.03557675E+02
 11
-2.45749924E+02
 21
-2.03757733E+02
  0
LINE
  8
0
 62
7
 10
-2.11749924E+02
 20
-2.03557675E+02
 11
-2.11749924E+02
 21
-2.03757703E+02
  0
LINE
  8
0
 62
7
 10
-9.02499847E+01
 20
-2.03557721E+02
 11
-6.42499847E+01
 21
-2.03557721E+02
  0
LINE
  8
0
 62
7
 10
-9.47630635E+01
 20
-2.04330590E+02
 11
-9.02499773E+01
 21
-2.04212411E+02
  0
LINE
  8
0
  6
CENTER
 62
2
 10
-9.74770050E+01
 20
-2.09057706E+02
 11
-1.62589676E+00
 21
-2.09057706E+02
  0
LINE
  8
0
 62
7
 10
-6.42499847E+01
 20
-2.11707699E+02
 11
-3.15587145E+00
 21
-2.11707699E+02
  0
LINE
  8
0
 62
7
 10
-6.42499847E+01
 20
-2.06407712E+02
 11
-9.59220686E-02
 21
-2.06407712E+02
  0
LINE
  8
0
 62
7
 10
-9.47499847E+01
 20
-2.13557721E+02
 11
-7.32499847E+01
 21
-2.13557721E+02
  0
LINE
  8
0
 62
7
 10
-9.52499847E+01
 20
-2.25557706E+02
 11
-9.52499847E+01
 21
-2.04830411E+02
  0
LINE
  8
0
 62
7
 10
-9.52499309E+01
 20
-2.14200551E+02
 11
-7.32499859E+01
 21
-2.13816541E+02
  0
LINE
  8
0
 62
7
 10
-1.17249985E+02
 20
-2.19557706E+02
 11
-1.10249985E+02
 21
-2.19557706E+02
  0
LINE
  8
0
 62
7
 10
-9.47499847E+01
 20
-2.04557736E+02
 11
-7.32499847E+01
 21
-2.04557736E+02
  0
LINE
  8
0
 62
7
 10
-7.32499847E+01
 20
-2.13816540E+02
 11
-7.32499847E+01
 21
-2.03767239E+02
  0
LINE
  8
0
 62
7
 10
-9.02499847E+01
 20
-2.04212399E+02
 11
-9.02499847E+01
 21
-2.03557721E+02
  0
LINE
  8
0
 62
7
 10
-1.09749985E+02
 20
-2.13557706E+02
 11
-1.05249985E+02
 21
-2.13557706E+02
  0
LINE
  8
0
 62
7
 10
-9.67499847E+01
 20
-2.12557721E+02
 11
-9.52499847E+01
 21
-2.12557721E+02
  0
LINE
  8
0
 62
7
 10
-1.05008715E+02
 20
-2.13299286E+02
 11
-9.72499860E+01
 21
-2.13028345E+02
  0
LINE
  8
0
 62
7
 10
-7.32499758E+01
 20
-2.03767250E+02
 11
-6.42500243E+01
 21
-2.03531578E+02
  0
LINE
  8
0
 62
7
 10
-1.23249985E+02
 20
-2.20557690E+02
 11
-1.23249985E+02
 21
-2.25557706E+02
  0
LINE
  8
0
 62
7
 10
-1.20249979E+02
 20
-2.20557706E+02
 11
-1.17249975E+02
 21
-2.19557719E+02
  0
LINE
  8
0
 62
7
 10
-1.20249984E+02
 20
-2.25557704E+02
 11
-1.17249983E+02
 21
-2.22241067E+02
  0
LINE
  8
0
 62
7
 10
-1.23249985E+02
 20
-2.21257703E+02
 11
-1.20249985E+02
 21
-2.21257703E+02
  0
LINE
  8
0
 62
7
 10
-1.23249985E+02
 20
-1.01257657E+02
 11
-1.20249985E+02
 21
-1.01257657E+02
  0
LINE
  8
0
 62
7
 10
-1.23249985E+02
 20
-1.09857678E+02
 11
-1.20249985E+02
 21
-1.09857678E+02
  0
ARC
  8
0
 62
7
 10
-1.09749985E+02
 20
-1.17057690E+02
 40
5.00000000E-01
 50
1.79999981E+02
 51
2.69999963E+02
  0
ARC
  8
0
 62
7
 10
-6.97499847E+01
 20
-1.12557706E+02
 40
4.00000000E+00
 50
1.94596046E+02
 51
3.51180181E+02
  0
ARC
  8
0
 62
7
 10
-1.09749985E+02
 20
-9.40577208E+01
 40
5.00000000E-01
 50
8.99999818E+01
 51
1.79999964E+02
  0
ARC
  8
0
 62
7
 10
-7.92499847E+01
 20
-1.02557706E+02
 40
4.28299999E+00
 50
2.09448692E+01
 51
3.39055131E+02
  0
ARC
  8
0
 62
2
 10
-7.92499847E+01
 20
-1.02557706E+02
 40
4.86399984E+00
 50
2.79919550E+01
 51
3.25322592E+02
  0
ARC
  8
0
 62
7
 10
-9.47499847E+01
 20
-1.26057675E+02
 40
5.00000000E-01
 50
1.79999981E+02
 51
2.70000018E+02
  0
ARC
  8
0
 62
7
 10
-9.47499847E+01
 20
-1.26258786E+02
 40
5.00000000E-01
 50
1.79999981E+02
 51
2.68499535E+02
  0
ARC
  8
0
 62
7
 10
-9.47499847E+01
 20
-8.50577056E+01
 40
5.00000000E-01
 50
8.99999818E+01
 51
1.79999964E+02
  0
ARC
  8
0
 62
7
 10
-9.47499847E+01
 20
-8.48566558E+01
 40
5.00000000E-01
 50
9.15004655E+01
 51
1.79999964E+02
  0
ARC
  8
0
 62
7
 10
-7.32499847E+01
 20
-9.45577056E+01
 40
1.00000000E+00
 50
2.70000018E+02
 51
0.00000000E+00
  0
ARC
  8
0
 62
7
 10
-7.12499847E+01
 20
-8.95577056E+01
 40
1.00000000E+00
 50
8.99999818E+01
 51
1.79999964E+02
  0
ARC
  8
0
 62
7
 10
-8.92499847E+01
 20
-9.65577056E+01
 40
1.00000000E+00
 50
8.99999818E+01
 51
1.79999964E+02
  0
ARC
  8
0
 62
7
 10
-8.92499847E+01
 20
-1.14557706E+02
 40
1.00000000E+00
 50
1.79999981E+02
 51
2.69999963E+02
  0
ARC
  8
0
 62
7
 10
-7.32499847E+01
 20
-1.16557706E+02
 40
1.00000000E+00
 50
3.59999945E+02
 51
8.99999274E+01
  0
ARC
  8
0
 62
7
 10
-7.12499847E+01
 20
-1.21557706E+02
 40
1.00000000E+00
 50
1.79999981E+02
 51
2.69999963E+02
  0
ARC
  8
0
 62
7
 10
-9.67499847E+01
 20
-1.18057690E+02
 40
5.00000000E-01
 50
1.79999981E+02
 51
2.69999963E+02
  0
ARC
  8
0
 62
7
 10
-1.04999985E+02
 20
-1.17566281E+02
 40
2.50000000E-01
 50
1.79999981E+02
 51
2.67999203E+02
  0
ARC
  8
0
 62
7
 10
-1.04999985E+02
 20
-9.35491301E+01
 40
2.50000000E-01
 50
9.20007424E+01
 51
1.79999964E+02
  0
ARC
  8
0
 62
7
 10
-9.67499847E+01
 20
-9.30577208E+01
 40
5.00000000E-01
 50
8.99999818E+01
 51
1.79999964E+02
  0
CIRCLE
  8
0
 62
2
 10
-2.12249924E+02
 20
-2.09057706E+02
 40
3.00000000E+00
  0
ARC
  8
0
 62
7
 10
-2.28749924E+02
 20
-2.25557706E+02
 40
5.00000000E+00
 50
0.00000000E+00
 51
1.80000000E+02
  0
ARC
  8
0
 62
2
 10
-2.28749924E+02
 20
-2.25557706E+02
 40
4.30000019E+00
 50
0.00000000E+00
 51
1.80000000E+02
  0
ARC
  8
0
 62
7
 10
-2.28749924E+02
 20
-2.25557706E+02
 40
4.00000000E+00
 50
0.00000000E+00
 51
1.80000000E+02
  0
ARC
  8
0
 62
7
 10
-2.28749924E+02
 20
-2.25557706E+02
 40
1.30000000E+01
 50
0.00000000E+00
 51
1.80000000E+02
  0
CIRCLE
  8
0
 62
2
 10
-2.45249924E+02
 20
-2.09057706E+02
 40
3.00000000E+00
  0
ARC
  8
0
 62
7
 10
-2.45249924E+02
 20
-2.09057706E+02
 40
7.50000000E+00
 50
2.86983379E+02
 51
3.43016612E+02
  0
ARC
  8
0
 62
7
 10
-2.45249924E+02
 20
-2.09057706E+02
 40
5.00000000E+00
 50
2.40507862E+02
 51
2.94922651E+01
  0
ARC
  8
0
 62
7
 10
-2.26749924E+02
 20
-2.07357693E+02
 40
1.00000000E+00
 50
8.99999818E+01
 51
1.79999937E+02
  0
ARC
  8
0
 62
7
 10
-2.30749924E+02
 20
-2.07357693E+02
 40
1.00000000E+00
 50
1.36603783E-05
 51
8.99999956E+01
  0
ARC
  8
0
 62
7
 10
-2.26749924E+02
 20
-2.11701321E+02
 40
1.00000000E+00
 50
1.79999964E+02
 51
2.61786889E+02
  0
ARC
  8
0
 62
7
 10
-2.30749924E+02
 20
-2.11701321E+02
 40
1.00000000E+00
 50
2.78213061E+02
 51
1.36603783E-05
  0
CIRCLE
  8
0
 62
7
 10
-2.45249924E+02
 20
-2.09057706E+02
 40
4.50000000E+00
  0
ARC
  8
0
 62
7
 10
-2.39649948E+02
 20
-2.05757718E+02
 40
2.00000000E+00
 50
8.99999818E+01
 51
2.10510009E+02
  0
ARC
  8
0
 62
7
 10
-2.39592209E+02
 20
-2.05857693E+02
 40
1.50000000E+00
 50
8.99999818E+01
 51
2.09492366E+02
  0
ARC
  8
0
 62
7
 10
-2.36749924E+02
 20
-2.07557706E+02
 40
3.00000000E+00
 50
2.64682634E+02
 51
2.86643915E+00
  0
ARC
  8
0
 62
7
 10
-2.37120651E+02
 20
-2.11540494E+02
 40
1.00000000E+00
 50
8.46820787E+01
 51
1.63017245E+02
  0
ARC
  8
0
 62
7
 10
-2.32754929E+02
 20
-2.07357693E+02
 40
1.00000000E+00
 50
8.99999818E+01
 51
1.82866103E+02
  0
ARC
  8
0
 62
7
 10
-2.48449936E+02
 20
-2.14715451E+02
 40
1.50000000E+00
 50
6.05075804E+01
 51
1.79999937E+02
  0
ARC
  8
0
 62
7
 10
-2.48549911E+02
 20
-2.14657712E+02
 40
2.00000000E+00
 50
5.94899369E+01
 51
1.79999937E+02
  0
ARC
  8
0
 62
7
 10
-2.28749924E+02
 20
-2.25557706E+02
 40
1.20000000E+01
 50
0.00000000E+00
 51
1.80000000E+02
  0
ARC
  8
0
 62
7
 10
-2.28749924E+02
 20
-2.25557706E+02
 40
1.22500000E+01
 50
0.00000000E+00
 51
1.80000000E+02
  0
ARC
  8
0
 62
7
 10
-2.42767136E+02
 20
-2.17186978E+02
 40
1.00000000E+00
 50
1.06982824E+02
 51
1.85317963E+02
  0
ARC
  8
0
 62
7
 10
-2.46749924E+02
 20
-2.17557706E+02
 40
3.00000000E+00
 50
2.67133634E+02
 51
5.31743887E+00
  0
ARC
  8
0
 62
7
 10
-2.46949936E+02
 20
-2.21552731E+02
 40
1.00000000E+00
 50
8.71339255E+01
 51
1.80000046E+02
  0
ARC
  8
0
 62
7
 10
-2.37994064E+02
 20
-2.13485135E+02
 40
1.00000000E+00
 50
1.48609248E+02
 51
2.24999340E+02
  0
ARC
  8
0
 62
7
 10
-2.37133713E+02
 20
-2.14345517E+02
 40
1.00000000E+00
 50
2.24999986E+02
 51
3.06787034E+02
  0
ARC
  8
0
 62
7
 10
-2.40822495E+02
 20
-2.16313565E+02
 40
1.00000000E+00
 50
4.50006194E+01
 51
1.21390794E+02
  0
ARC
  8
0
 62
7
 10
-2.39962082E+02
 20
-2.17173947E+02
 40
1.00000000E+00
 50
3.23213680E+02
 51
4.50006330E+01
  0
ARC
  8
0
 62
7
 10
-2.46949936E+02
 20
-2.23557706E+02
 40
1.00000000E+00
 50
1.79999977E+02
 51
2.69999946E+02
  0
ARC
  8
0
 62
7
 10
-2.42606308E+02
 20
-2.23557706E+02
 40
1.00000000E+00
 50
2.69999977E+02
 51
3.51786909E+02
  0
ARC
  8
0
 62
7
 10
-2.10549911E+02
 20
-2.23557706E+02
 40
1.00000000E+00
 50
2.70000018E+02
 51
0.00000000E+00
  0
ARC
  8
0
 62
7
 10
-2.24744980E+02
 20
-2.07357693E+02
 40
1.00000000E+00
 50
3.57133929E+02
 51
9.00000500E+01
  0
ARC
  8
0
 62
7
 10
-2.16677353E+02
 20
-2.16313595E+02
 40
1.00000000E+00
 50
5.86092520E+01
 51
1.34999345E+02
  0
ARC
  8
0
 62
7
 10
-2.17537766E+02
 20
-2.17173947E+02
 40
1.00000000E+00
 50
1.34999973E+02
 51
2.16787008E+02
  0
ARC
  8
0
 62
7
 10
-2.20366196E+02
 20
-2.14345547E+02
 40
1.00000000E+00
 50
2.33213685E+02
 51
3.15000637E+02
  0
ARC
  8
0
 62
7
 10
-2.19505783E+02
 20
-2.13485165E+02
 40
1.00000000E+00
 50
3.15000624E+02
 51
3.13907981E+01
  0
ARC
  8
0
 62
7
 10
-2.14893539E+02
 20
-2.23557706E+02
 40
1.00000000E+00
 50
1.88213065E+02
 51
2.70000018E+02
  0
ARC
  8
0
 62
7
 10
-2.12249924E+02
 20
-2.09057706E+02
 40
7.50000000E+00
 50
1.96983383E+02
 51
2.53016616E+02
  0
ARC
  8
0
 62
7
 10
-2.10549911E+02
 20
-2.21552701E+02
 40
1.00000000E+00
 50
3.59999986E+02
 51
9.28661070E+01
  0
ARC
  8
0
 62
7
 10
-2.12249924E+02
 20
-2.09057706E+02
 40
5.00000000E+00
 50
1.50507836E+02
 51
2.99492266E+02
  0
CIRCLE
  8
0
 62
7
 10
-2.12249924E+02
 20
-2.09057706E+02
 40
4.50000000E+00
  0
ARC
  8
0
 62
7
 10
-2.08949936E+02
 20
-2.14657712E+02
 40
2.00000000E+00
 50
3.59999986E+02
 51
1.20510014E+02
  0
ARC
  8
0
 62
7
 10
-2.09049911E+02
 20
-2.14715451E+02
 40
1.50000000E+00
 50
3.59999986E+02
 51
1.19492370E+02
  0
ARC
  8
0
 62
7
 10
-2.10749924E+02
 20
-2.17557706E+02
 40
3.00000000E+00
 50
1.74682635E+02
 51
2.72866440E+02
  0
ARC
  8
0
 62
7
 10
-2.14732712E+02
 20
-2.17187009E+02
 40
1.00000000E+00
 50
3.54682083E+02
 51
7.30172492E+01
  0
ARC
  8
0
 62
7
 10
-2.17907700E+02
 20
-2.05857724E+02
 40
1.50000000E+00
 50
3.30507585E+02
 51
8.99999412E+01
  0
ARC
  8
0
 62
7
 10
-2.17849960E+02
 20
-2.05757718E+02
 40
2.00000000E+00
 50
3.29489941E+02
 51
8.99999412E+01
  0
ARC
  8
0
 62
7
 10
-2.20379196E+02
 20
-2.11540494E+02
 40
1.00000000E+00
 50
1.69828282E+01
 51
9.53179675E+01
  0
ARC
  8
0
 62
7
 10
-2.20749924E+02
 20
-2.07557706E+02
 40
3.00000000E+00
 50
1.77133620E+02
 51
2.75317440E+02
  0
ARC
  8
0
 62
7
 10
-2.47749924E+02
 20
-2.06557675E+02
 40
3.00000000E+00
 50
8.99999818E+01
 51
1.79999964E+02
  0
ARC
  8
0
 62
7
 10
-2.47749924E+02
 20
-2.06557736E+02
 40
2.79999995E+00
 50
8.99999818E+01
 51
1.79999964E+02
  0
ARC
  8
0
 62
7
 10
-2.09749924E+02
 20
-2.06557706E+02
 40
2.79999995E+00
 50
0.00000000E+00
 51
8.99999818E+01
  0
ARC
  8
0
 62
7
 10
-2.09749863E+02
 20
-2.06557675E+02
 40
3.00000000E+00
 50
0.00000000E+00
 51
8.99999818E+01
  0
ARC
  8
0
 62
7
 10
-6.97499847E+01
 20
-1.12557706E+02
 40
2.09999990E+00
 50
2.08685725E+02
 51
3.43019111E+02
  0
ARC
  8
0
 62
7
 10
-9.47499847E+01
 20
-2.04830411E+02
 40
5.00000000E-01
 50
9.15003561E+01
 51
1.79999964E+02
  0
ARC
  8
0
 62
7
 10
-1.09749985E+02
 20
-2.14057721E+02
 40
5.00000000E-01
 50
8.99999818E+01
 51
1.79999964E+02
  0
ARC
  8
0
 62
7
 10
-1.04999985E+02
 20
-2.13549130E+02
 40
2.50000000E-01
 50
9.20007356E+01
 51
1.79999964E+02
  0
ARC
  8
0
 62
7
 10
-9.67499847E+01
 20
-2.13057721E+02
 40
5.00000000E-01
 50
8.99999818E+01
 51
1.79999964E+02
  0
ARC
  8
0
 62
7
 10
-9.47499847E+01
 20
-2.13057751E+02
 40
5.00000000E-01
 50
1.79999981E+02
 51
2.69999963E+02
  0
ARC
  8
0
 62
7
 10
-9.47499847E+01
 20
-2.05057706E+02
 40
5.00000000E-01
 50
8.99999274E+01
 51
1.79999964E+02
  0
LINE
  8
0
 62
4
 10
-1.35749985E+02
 20
-1.14057706E+02
 11
-1.29749985E+02
 21
-1.14057706E+02
  0
LINE
  8
0
 62
4
 10
-1.35749985E+02
 20
-9.70577056E+01
 11
-1.29749985E+02
 21
-9.70577056E+01
  0
LINE
  8
0
 62
4
 10
-1.35749985E+02
 20
-9.70577056E+01
 11
-1.35749985E+02
 21
-1.14057706E+02
  0
LINE
  8
0
 62
4
 10
-1.29749985E+02
 20
-9.70577056E+01
 11
-1.29749985E+02
 21
-1.14057706E+02
  0
LINE
  8
0
 62
4
 10
-1.34990795E+02
 20
-1.05557706E+02
 11
-1.30509174E+02
 21
-1.05557706E+02
  0
ARC
  8
0
 62
4
 10
-1.23474478E+02
 20
-1.09807706E+02
 40
1.22755063E+01
 50
1.59743841E+02
 51
2.00256159E+02
  0
ARC
  8
0
 62
4
 10
-1.23474478E+02
 20
-1.01307706E+02
 40
1.22755063E+01
 50
1.59743841E+02
 51
2.00256159E+02
  0
ARC
  8
0
 62
4
 10
-1.42025491E+02
 20
-1.01307706E+02
 40
1.22755064E+01
 50
3.39743842E+02
 51
2.02561585E+01
  0
ARC
  8
0
 62
4
 10
-1.42025491E+02
 20
-1.09807706E+02
 40
1.22755064E+01
 50
3.39743842E+02
 51
2.02561585E+01
  0
LINE
  8
0
 62
4
 10
-1.34990795E+02
 20
-2.15742751E+02
 11
-1.30509174E+02
 21
-2.15742751E+02
  0
LINE
  8
0
 62
4
 10
-1.34990795E+02
 20
-2.20650228E+02
 11
-1.30509174E+02
 21
-2.20650228E+02
  0
LINE
  8
0
 62
4
 10
-1.35749985E+02
 20
-2.25557706E+02
 11
-1.35749985E+02
 21
-2.17057706E+02
  0
LINE
  8
0
 62
4
 10
-1.35749985E+02
 20
-2.17057705E+02
 11
-1.34990795E+02
 21
-2.15742751E+02
  0
ARC
  8
0
 62
4
 10
-1.31405086E+02
 20
-2.18196490E+02
 40
4.34489857E+00
 50
1.45615752E+02
 51
2.14384248E+02
  0
ARC
  8
0
 62
4
 10
-1.19509174E+02
 20
-2.25557706E+02
 40
1.62408104E+01
 50
1.62412046E+02
 51
1.80000000E+02
  0
LINE
  8
0
 62
4
 10
-1.29749985E+02
 20
-2.25557706E+02
 11
-1.29749985E+02
 21
-2.17057706E+02
  0
LINE
  8
0
 62
4
 10
-1.29749985E+02
 20
-2.17057705E+02
 11
-1.30509174E+02
 21
-2.15742751E+02
  0
ARC
  8
0
 62
4
 10
-1.34094883E+02
 20
-2.18196490E+02
 40
4.34489857E+00
 50
3.25615751E+02
 51
3.43842484E+01
  0
ARC
  8
0
 62
4
 10
-1.45990795E+02
 20
-2.25557706E+02
 40
1.62408104E+01
 50
1.25181798E-07
 51
1.75879541E+01
  0
ARC
  8
0
 62
4
 10
-2.28749924E+02
 20
-2.25557706E+02
 40
8.50000000E+00
 50
0.00000000E+00
 51
1.80000000E+02
  0
LINE
  8
0
 62
4
 10
-2.28749924E+02
 20
-2.15742751E+02
 11
-2.37249924E+02
 21
-2.20650228E+02
  0
LINE
  8
0
 62
4
 10
-2.37249924E+02
 20
-2.20650228E+02
 11
-2.37249924E+02
 21
-2.25557706E+02
  0
LINE
  8
0
 62
4
 10
-2.20249924E+02
 20
-2.25557706E+02
 11
-2.20249924E+02
 21
-2.20650228E+02
  0
LINE
  8
0
 62
4
 10
-2.20249924E+02
 20
-2.20650228E+02
 11
-2.28749924E+02
 21
-2.15742751E+02
  0
LINE
  8
0
 62
7
 10
-1.29749985E+02
 20
-1.00557645E+02
 11
-1.23249985E+02
 21
-1.00557645E+02
  0
LINE
  8
0
 62
2
 10
-1.29749985E+02
 20
-1.01257657E+02
 11
-1.23249985E+02
 21
-1.01257657E+02
  0
LINE
  8
0
 62
7
 10
-1.29749985E+02
 20
-1.10557690E+02
 11
-1.23249985E+02
 21
-1.10557690E+02
  0
LINE
  8
0
 62
2
 10
-1.29749985E+02
 20
-1.09857678E+02
 11
-1.23249985E+02
 21
-1.09857678E+02
  0
LINE
  8
0
 62
7
 10
-1.29749985E+02
 20
-2.20557690E+02
 11
-1.23249985E+02
 21
-2.20557690E+02
  0
LINE
  8
0
 62
2
 10
-1.29749985E+02
 20
-2.21257703E+02
 11
-1.23249985E+02
 21
-2.21257703E+02
  0
ARC
  8
0
 62
7
 10
-1.18249985E+02
 20
-2.25557706E+02
 40
6.00000000E+00
 50
0.00000000E+00
 51
3.35573785E+01
  0
ARC
  8
0
 62
7
 10
5.62498932E+01
 20
-2.06557675E+02
 40
3.00000000E+00
 50
9.00000179E+01
 51
1.80000000E+02
  0
ARC
  8
0
 62
7
 10
5.62499542E+01
 20
-2.06557706E+02
 40
2.79999995E+00
 50
9.00000179E+01
 51
1.80000000E+02
  0
ARC
  8
0
 62
7
 10
9.42499542E+01
 20
-2.06557736E+02
 40
2.79999995E+00
 50
3.59721787E-05
 51
9.00000179E+01
  0
ARC
  8
0
 62
7
 10
9.42499542E+01
 20
-2.06557675E+02
 40
3.00000000E+00
 50
3.59721787E-05
 51
9.00000179E+01
  0
ARC
  8
0
 62
7
 10
6.72499542E+01
 20
-2.07557706E+02
 40
3.00000000E+00
 50
2.64682560E+02
 51
2.86637950E+00
  0
ARC
  8
0
 62
7
 10
6.68792267E+01
 20
-2.11540494E+02
 40
1.00000000E+00
 50
8.46820328E+01
 51
1.63017172E+02
  0
ARC
  8
0
 62
7
 10
6.43499908E+01
 20
-2.05757718E+02
 40
2.00000000E+00
 50
9.00000592E+01
 51
2.10510059E+02
  0
ARC
  8
0
 62
7
 10
6.44077301E+01
 20
-2.05857724E+02
 40
1.50000000E+00
 50
9.00000592E+01
 51
2.09492416E+02
  0
ARC
  8
0
 62
7
 10
6.12327423E+01
 20
-2.17187009E+02
 40
1.00000000E+00
 50
1.06982751E+02
 51
1.85317917E+02
  0
ARC
  8
0
 62
7
 10
5.72499542E+01
 20
-2.17557706E+02
 40
3.00000000E+00
 50
2.67133560E+02
 51
5.31736556E+00
  0
ARC
  8
0
 62
7
 10
5.55499420E+01
 20
-2.14715451E+02
 40
1.50000000E+00
 50
6.05076302E+01
 51
1.80000014E+02
  0
ARC
  8
0
 62
7
 10
5.54499664E+01
 20
-2.14657712E+02
 40
2.00000000E+00
 50
5.94899867E+01
 51
1.80000014E+02
  0
CIRCLE
  8
0
 62
7
 10
5.87499542E+01
 20
-2.09057706E+02
 40
4.50000000E+00
  0
ARC
  8
0
 62
7
 10
5.87499542E+01
 20
-2.09057706E+02
 40
5.00000000E+00
 50
2.40507734E+02
 51
2.94921644E+01
  0
ARC
  8
0
 62
7
 10
5.70499420E+01
 20
-2.21552701E+02
 40
1.00000000E+00
 50
8.71338928E+01
 51
1.80000014E+02
  0
ARC
  8
0
 62
7
 10
5.87499542E+01
 20
-2.09057706E+02
 40
7.50000000E+00
 50
2.86983384E+02
 51
3.43016617E+02
  0
ARC
  8
0
 62
7
 10
6.13935699E+01
 20
-2.23557706E+02
 40
1.00000000E+00
 50
2.69999982E+02
 51
3.51786935E+02
  0
ARC
  8
0
 62
7
 10
6.60058136E+01
 20
-2.13485165E+02
 40
1.00000000E+00
 50
1.48609202E+02
 51
2.24999376E+02
  0
ARC
  8
0
 62
7
 10
6.68662262E+01
 20
-2.14345547E+02
 40
1.00000000E+00
 50
2.24999362E+02
 51
3.06786315E+02
  0
ARC
  8
0
 62
7
 10
6.40377960E+01
 20
-2.17173947E+02
 40
1.00000000E+00
 50
3.23212992E+02
 51
4.50000270E+01
  0
ARC
  8
0
 62
7
 10
6.31773834E+01
 20
-2.16313595E+02
 40
1.00000000E+00
 50
4.50006554E+01
 51
1.21390748E+02
  0
ARC
  8
0
 62
7
 10
7.12450104E+01
 20
-2.07357693E+02
 40
1.00000000E+00
 50
8.99999498E+01
 51
1.82866070E+02
  0
ARC
  8
0
 62
7
 10
5.70499420E+01
 20
-2.23557706E+02
 40
1.00000000E+00
 50
1.80000000E+02
 51
2.69999982E+02
  0
ARC
  8
0
 62
7
 10
8.91063385E+01
 20
-2.23557706E+02
 40
1.00000000E+00
 50
1.88213091E+02
 51
2.70000023E+02
  0
ARC
  8
0
 62
7
 10
9.34499664E+01
 20
-2.23557706E+02
 40
1.00000000E+00
 50
2.70000054E+02
 51
2.23118003E-05
  0
ARC
  8
0
 62
7
 10
8.64621124E+01
 20
-2.17173947E+02
 40
1.00000000E+00
 50
1.34999367E+02
 51
2.16786320E+02
  0
ARC
  8
0
 62
7
 10
8.73225250E+01
 20
-2.16313565E+02
 40
1.00000000E+00
 50
5.86092062E+01
 51
1.34999381E+02
  0
ARC
  8
0
 62
7
 10
8.36337433E+01
 20
-2.14345517E+02
 40
1.00000000E+00
 50
2.33212966E+02
 51
3.15000014E+02
  0
ARC
  8
0
 62
7
 10
8.44940948E+01
 20
-2.13485135E+02
 40
1.00000000E+00
 50
3.15000660E+02
 51
3.13907521E+01
  0
ARC
  8
0
 62
7
 10
9.34499664E+01
 20
-2.21552731E+02
 40
1.00000000E+00
 50
3.59999954E+02
 51
9.28660749E+01
  0
ARC
  8
0
 62
7
 10
9.32499542E+01
 20
-2.17557706E+02
 40
3.00000000E+00
 50
1.74682561E+02
 51
2.72866366E+02
  0
ARC
  8
0
 62
7
 10
8.92671661E+01
 20
-2.17186978E+02
 40
1.00000000E+00
 50
3.54682037E+02
 51
7.30171759E+01
  0
ARC
  8
0
 62
7
 10
9.50499420E+01
 20
-2.14657712E+02
 40
2.00000000E+00
 50
6.32929356E-05
 51
1.20510063E+02
  0
ARC
  8
0
 62
7
 10
9.49499664E+01
 20
-2.14715451E+02
 40
1.50000000E+00
 50
6.32929356E-05
 51
1.19492419E+02
  0
ARC
  8
0
 62
7
 10
7.92549591E+01
 20
-2.07357693E+02
 40
1.00000000E+00
 50
3.57133897E+02
 51
9.00000179E+01
  0
ARC
  8
0
 62
7
 10
8.36206818E+01
 20
-2.11540494E+02
 40
1.00000000E+00
 50
1.69827550E+01
 51
9.53179211E+01
  0
ARC
  8
0
 62
7
 10
8.32499542E+01
 20
-2.07557706E+02
 40
3.00000000E+00
 50
1.77133561E+02
 51
2.75317366E+02
  0
ARC
  8
0
 62
7
 10
8.60922394E+01
 20
-2.05857693E+02
 40
1.50000000E+00
 50
3.30507634E+02
 51
9.00000179E+01
  0
ARC
  8
0
 62
7
 10
8.61499786E+01
 20
-2.05757718E+02
 40
2.00000000E+00
 50
3.29489991E+02
 51
9.00000179E+01
  0
CIRCLE
  8
0
 62
7
 10
9.17499542E+01
 20
-2.09057706E+02
 40
4.50000000E+00
  0
ARC
  8
0
 62
7
 10
7.72499542E+01
 20
-2.11701321E+02
 40
1.00000000E+00
 50
1.79999987E+02
 51
2.61786939E+02
  0
ARC
  8
0
 62
7
 10
7.32499542E+01
 20
-2.11701321E+02
 40
1.00000000E+00
 50
2.78213110E+02
 51
3.59721787E-05
  0
ARC
  8
0
 62
7
 10
7.72499542E+01
 20
-2.07357693E+02
 40
1.00000000E+00
 50
9.00000042E+01
 51
1.79999987E+02
  0
ARC
  8
0
 62
7
 10
7.32499542E+01
 20
-2.07357693E+02
 40
1.00000000E+00
 50
6.32929356E-05
 51
9.00000179E+01
  0
ARC
  8
0
 62
7
 10
9.17499542E+01
 20
-2.09057706E+02
 40
5.00000000E+00
 50
1.50507735E+02
 51
2.99492138E+02
  0
ARC
  8
0
 62
7
 10
9.17499542E+01
 20
-2.09057706E+02
 40
7.50000000E+00
 50
1.96983388E+02
 51
2.53016621E+02
  0
CIRCLE
  8
0
 62
2
 10
9.17499542E+01
 20
-2.09057706E+02
 40
3.00000000E+00
  0
ARC
  8
0
 62
7
 10
7.52499542E+01
 20
-2.25557706E+02
 40
1.30000000E+01
 50
0.00000000E+00
 51
1.80000000E+02
  0
CIRCLE
  8
0
 62
2
 10
5.87499542E+01
 20
-2.09057706E+02
 40
3.00000000E+00
  0
LINE
  8
0
 62
7
 10
5.82499542E+01
 20
-2.03557675E+02
 11
5.82499542E+01
 21
-2.03757703E+02
  0
LINE
  8
0
 62
7
 10
9.22499542E+01
 20
-2.03557675E+02
 11
9.22499542E+01
 21
-2.03757733E+02
  0
LINE
  8
0
 62
7
 10
6.52499542E+01
 20
-2.03557675E+02
 11
6.52499542E+01
 21
-2.04357709E+02
  0
LINE
  8
0
 62
7
 10
8.52499542E+01
 20
-2.03557675E+02
 11
8.52499542E+01
 21
-2.04357709E+02
  0
LINE
  8
0
 62
7
 10
5.70499420E+01
 20
-2.24557690E+02
 11
6.13935699E+01
 21
-2.24557690E+02
  0
LINE
  8
0
 62
7
 10
6.52988177E+01
 20
-2.14192259E+02
 11
6.61591801E+01
 21
-2.15052621E+02
  0
LINE
  8
0
 62
7
 10
6.38846044E+01
 20
-2.15606430E+02
 11
6.47449668E+01
 21
-2.16466792E+02
  0
LINE
  8
0
 62
7
 10
7.92549591E+01
 20
-2.06357678E+02
 11
7.12450104E+01
 21
-2.06357739E+02
  0
LINE
  8
0
 62
7
 10
8.60922394E+01
 20
-2.04357709E+02
 11
6.44077301E+01
 21
-2.04357709E+02
  0
LINE
  8
0
 62
7
 10
5.40499420E+01
 20
-2.25557706E+02
 11
5.40499420E+01
 21
-2.14715451E+02
  0
LINE
  8
0
 62
7
 10
5.34499664E+01
 20
-2.06557706E+02
 11
5.34499664E+01
 21
-2.14657712E+02
  0
LINE
  8
0
 62
7
 10
5.62499542E+01
 20
-2.03757703E+02
 11
6.52499542E+01
 21
-2.03757703E+02
  0
LINE
  8
0
 62
7
 10
5.60499725E+01
 20
-2.25557706E+02
 11
5.60499420E+01
 21
-2.21552701E+02
  0
LINE
  8
0
 62
7
 10
9.34499664E+01
 20
-2.24557721E+02
 11
8.91063385E+01
 21
-2.24557721E+02
  0
LINE
  8
0
 62
7
 10
8.66154281E+01
 20
-2.15606579E+02
 11
8.57550662E+01
 21
-2.16466941E+02
  0
LINE
  8
0
 62
7
 10
8.52012033E+01
 20
-2.14192355E+02
 11
8.43408414E+01
 21
-2.15052717E+02
  0
LINE
  8
0
  6
CENTER
 62
2
 10
7.82499542E+01
 20
-2.01227658E+02
 11
7.82499542E+01
 21
-2.10974682E+02
  0
LINE
  8
0
 62
7
 10
7.42499542E+01
 20
-2.07357693E+02
 11
7.42499542E+01
 21
-2.11701321E+02
  0
LINE
  8
0
 62
7
 10
7.62499542E+01
 20
-2.07357693E+02
 11
7.62499542E+01
 21
-2.11701321E+02
  0
LINE
  8
0
  6
CENTER
 62
2
 10
9.88056183E+01
 20
-2.09057706E+02
 11
8.51179352E+01
 21
-2.09057706E+02
  0
LINE
  8
0
  6
CENTER
 62
2
 10
9.17499542E+01
 20
-2.01844266E+02
 11
9.17499542E+01
 21
-2.15666485E+02
  0
LINE
  8
0
  6
CENTER
 62
2
 10
5.87499542E+01
 20
-2.02002011E+02
 11
5.87499542E+01
 21
-2.15689694E+02
  0
LINE
  8
0
  6
CENTER
 62
2
 10
5.15365143E+01
 20
-2.09057660E+02
 11
6.53587189E+01
 21
-2.09057660E+02
  0
LINE
  8
0
  6
CENTER
 62
2
 10
7.52499542E+01
 20
-2.01227658E+02
 11
7.52499542E+01
 21
-2.25557706E+02
  0
LINE
  8
0
  6
CENTER
 62
2
 10
9.96490021E+01
 20
-2.25557706E+02
 11
5.02901154E+01
 21
-2.25557706E+02
  0
LINE
  8
0
 62
7
 10
5.32498932E+01
 20
-2.25557706E+02
 11
5.32498932E+01
 21
-2.06557675E+02
  0
LINE
  8
0
 62
7
 10
9.42499542E+01
 20
-2.03557675E+02
 11
5.62498932E+01
 21
-2.03557675E+02
  0
LINE
  8
0
 62
7
 10
9.72499542E+01
 20
-2.25557706E+02
 11
9.72499542E+01
 21
-2.06557675E+02
  0
LINE
  8
0
 62
7
 10
9.44499359E+01
 20
-2.25557706E+02
 11
9.44499054E+01
 21
-2.21552731E+02
  0
LINE
  8
0
 62
7
 10
9.64499664E+01
 20
-2.25557706E+02
 11
9.64499664E+01
 21
-2.14715451E+02
  0
LINE
  8
0
 62
7
 10
9.42499542E+01
 20
-2.03757733E+02
 11
8.52499542E+01
 21
-2.03757733E+02
  0
LINE
  8
0
 62
7
 10
9.70499420E+01
 20
-2.06557736E+02
 11
9.70499420E+01
 21
-2.14657712E+02
  0
LINE
  8
0
 62
7
 10
8.87499542E+01
 20
-2.07325619E+02
 11
8.87499542E+01
 21
-2.10789700E+02
  0
LINE
  8
0
 62
7
 10
8.87499052E+01
 20
-2.10789808E+02
 11
9.17498817E+01
 21
-2.12521858E+02
  0
LINE
  8
0
 62
7
 10
9.17500906E+01
 20
-2.12521740E+02
 11
9.47500936E+01
 21
-2.10789675E+02
  0
LINE
  8
0
 62
7
 10
9.47499542E+01
 20
-2.10789700E+02
 11
9.47499542E+01
 21
-2.07325619E+02
  0
LINE
  8
0
 62
7
 10
9.17499283E+01
 20
-2.05593775E+02
 11
9.47498785E+01
 21
-2.07325809E+02
  0
LINE
  8
0
 62
7
 10
8.87500822E+01
 20
-2.07325610E+02
 11
9.17501380E+01
 21
-2.05593515E+02
  0
LINE
  8
0
 62
7
 10
5.57499542E+01
 20
-2.07325619E+02
 11
5.57499542E+01
 21
-2.10789700E+02
  0
LINE
  8
0
 62
7
 10
5.57500538E+01
 20
-2.10789498E+02
 11
5.87500310E+01
 21
-2.12521547E+02
  0
LINE
  8
0
 62
7
 10
5.87498968E+01
 20
-2.12521769E+02
 11
6.17498992E+01
 21
-2.10789703E+02
  0
LINE
  8
0
 62
7
 10
6.17499542E+01
 20
-2.10789700E+02
 11
6.17499542E+01
 21
-2.07325619E+02
  0
LINE
  8
0
 62
7
 10
5.87501996E+01
 20
-2.05593218E+02
 11
6.17501768E+01
 21
-2.07325267E+02
  0
LINE
  8
0
 62
7
 10
5.57498461E+01
 20
-2.07325692E+02
 11
5.87499013E+01
 21
-2.05593595E+02
  0
TEXT
  8
0
 10
-4.61502877E+01
 20
2.29478397E+02
 40
6.30000019E+00
  1
STRETCH LINE
 41
1.05263174E+00
  7
MONOTXT
  0
TEXT
  8
0
 62
7
 10
-9.73609386E+01
 20
3.59999990E+00
 40
6.30000019E+00
  1
STRETCH LIST
 41
1.05263158E+00
  7
MONOTXT
  0
TEXT
  8
0
 62
7
 10
1.07389063E+02
 20
-1.84000001E+01
 40
6.30000019E+00
  1
625
 41
1.00000000E+00
  7
MONOTXT
  0
TEXT
  8
0
 62
7
 10
1.07389063E+02
 20
-8.40000009E+00
 40
6.30000019E+00
  1
700
 41
1.00000000E+00
  7
MONOTXT
  0
TEXT
  8
0
 62
7
 10
8.21890623E+01
 20
-1.84000001E+01
 40
6.30000019E+00
  1
525
 41
1.00000000E+00
  7
MONOTXT
  0
TEXT
  8
0
 62
7
 10
8.21890623E+01
 20
-8.40000009E+00
 40
6.30000019E+00
  1
600
 41
1.00000000E+00
  7
MONOTXT
  0
TEXT
  8
0
 62
7
 10
5.69890623E+01
 20
-1.84000001E+01
 40
6.30000019E+00
  1
425
 41
1.00000000E+00
  7
MONOTXT
  0
TEXT
  8
0
 62
7
 10
5.69890623E+01
 20
-8.40000009E+00
 40
6.30000019E+00
  1
500
 41
1.00000000E+00
  7
MONOTXT
  0
TEXT
  8
0
 62
7
 10
3.17890623E+01
 20
-1.84000001E+01
 40
6.30000019E+00
  1
375
 41
1.00000000E+00
  7
MONOTXT
  0
TEXT
  8
0
 62
7
 10
3.17890623E+01
 20
-8.40000009E+00
 40
6.30000019E+00
  1
450
 41
1.00000000E+00
  7
MONOTXT
  0
TEXT
  8
0
 62
7
 10
6.58906231E+00
 20
-1.84000001E+01
 40
6.30000019E+00
  1
325
 41
1.00000000E+00
  7
MONOTXT
  0
TEXT
  8
0
 62
7
 10
6.58906231E+00
 20
-8.40000009E+00
 40
6.30000019E+00
  1
400
 41
1.00000000E+00
  7
MONOTXT
  0
TEXT
  8
0
 62
7
 10
-1.86109377E+01
 20
-1.84000001E+01
 40
6.30000019E+00
  1
275
 41
1.00000000E+00
  7
MONOTXT
  0
TEXT
  8
0
 62
7
 10
-1.86109377E+01
 20
-8.40000009E+00
 40
6.30000019E+00
  1
350
 41
1.00000000E+00
  7
MONOTXT
  0
TEXT
  8
0
 62
7
 10
-4.38109377E+01
 20
-1.84000001E+01
 40
6.30000019E+00
  1
225
 41
1.00000000E+00
  7
MONOTXT
  0
TEXT
  8
0
 62
7
 10
-4.38109377E+01
 20
-8.40000009E+00
 40
6.30000019E+00
  1
300
 41
1.00000000E+00
  7
MONOTXT
  0
TEXT
  8
0
 62
7
 10
-6.90109377E+01
 20
-1.84000001E+01
 40
6.30000019E+00
  1
175
 41
1.00000000E+00
  7
MONOTXT
  0
TEXT
  8
0
 62
7
 10
-6.90109377E+01
 20
-8.40000009E+00
 40
6.30000019E+00
  1
250
 41
1.00000000E+00
  7
MONOTXT
  0
TEXT
  8
0
 62
7
 10
-9.42109377E+01
 20
-1.84000001E+01
 40
6.30000019E+00
  1
125
 41
1.00000000E+00
  7
MONOTXT
  0
TEXT
  8
0
 62
7
 10
-9.42109377E+01
 20
-8.40000009E+00
 40
6.30000019E+00
  1
200
 41
1.00000000E+00
  7
MONOTXT
  0
TEXT
  8
0
 62
7
 10
-1.16260937E+02
 20
-1.84000001E+01
 40
6.30000019E+00
  1
75
 41
1.00000000E+00
  7
MONOTXT
  0
TEXT
  8
0
 62
7
 10
-1.19410937E+02
 20
-8.40000009E+00
 40
6.30000019E+00
  1
150
 41
1.00000000E+00
  7
MONOTXT
  0
TEXT
  8
0
 62
7
 10
-1.41460937E+02
 20
-1.84000001E+01
 40
6.30000019E+00
  1
25
 41
1.00000000E+00
  7
MONOTXT
  0
TEXT
  8
0
 62
7
 10
-1.44610937E+02
 20
-8.40000009E+00
 40
6.30000019E+00
  1
100
 41
1.00000000E+00
  7
MONOTXT
  0
TEXT
  8
0
 62
7
 10
-1.63510937E+02
 20
-1.84000001E+01
 40
6.30000019E+00
  1
0
 41
1.00000000E+00
  7
MONOTXT
  0
TEXT
  8
0
 62
7
 10
-1.66660937E+02
 20
-8.40000009E+00
 40
6.30000019E+00
  1
75
 41
1.00000000E+00
  7
MONOTXT
  0
TEXT
  8
0
 62
7
 10
-2.45410938E+02
 20
-1.84000001E+01
 40
6.30000019E+00
  1
STRETCH
 41
1.00000000E+00
  7
MONOTXT
  0
TEXT
  8
0
 62
7
 10
-2.42260938E+02
 20
-8.40000009E+00
 40
6.30000019E+00
  1
STROKE
 41
1.00000000E+00
  7
MONOTXT
  0
TEXT
  8
0
 62
7
 10
-1.95010937E+02
 20
-1.84000001E+01
 40
6.30000019E+00
  1
-25
 41
1.00000000E+00
  7
MONOTXT
  0
TEXT
  8
0
 62
7
 10
-1.91860937E+02
 20
-8.40000009E+00
 40
6.30000019E+00
  1
50
 41
1.00000000E+00
  7
MONOTXT
  0
LINE
  8
0
 62
7
 10
1.28750000E+02
 20
-2.02500000E+01
 11
1.28750000E+02
 21
-2.50000009E-01
  0
LINE
  8
0
 62
7
 10
1.03550000E+02
 20
-2.02500000E+01
 11
1.03550000E+02
 21
-2.50000009E-01
  0
LINE
  8
0
 62
7
 10
7.83500000E+01
 20
-2.02500000E+01
 11
7.83500000E+01
 21
-2.50000009E-01
  0
LINE
  8
0
 62
7
 10
5.31500000E+01
 20
-2.02500000E+01
 11
5.31500000E+01
 21
-2.50000009E-01
  0
LINE
  8
0
 62
7
 10
2.79500000E+01
 20
-2.02500000E+01
 11
2.79500000E+01
 21
-2.50000009E-01
  0
LINE
  8
0
 62
7
 10
2.75000000E+00
 20
-2.02500000E+01
 11
2.75000000E+00
 21
-2.50000009E-01
  0
LINE
  8
0
 62
7
 10
-2.24500000E+01
 20
-2.02500000E+01
 11
-2.24500000E+01
 21
-2.50000009E-01
  0
LINE
  8
0
 62
7
 10
-4.76500000E+01
 20
-2.02500000E+01
 11
-4.76500000E+01
 21
-2.50000009E-01
  0
LINE
  8
0
 62
7
 10
-7.28500000E+01
 20
-2.02500000E+01
 11
-7.28500000E+01
 21
-2.50000009E-01
  0
LINE
  8
0
 62
7
 10
-9.80500000E+01
 20
-2.02500000E+01
 11
-9.80500000E+01
 21
-2.50000009E-01
  0
LINE
  8
0
 62
7
 10
-1.23250000E+02
 20
-2.02500000E+01
 11
-1.23250000E+02
 21
-2.50000009E-01
  0
LINE
  8
0
 62
7
 10
-1.48450000E+02
 20
-2.02500000E+01
 11
-1.48450000E+02
 21
-2.50000009E-01
  0
LINE
  8
0
 62
7
 10
-1.73650000E+02
 20
-2.02500000E+01
 11
-1.73650000E+02
 21
-2.50000009E-01
  0
LINE
  8
0
 62
7
 10
-1.98850000E+02
 20
-2.02500000E+01
 11
-1.98850000E+02
 21
-2.50000009E-01
  0
LINE
  8
0
 62
7
 10
-2.49250000E+02
 20
-2.02500000E+01
 11
1.28750000E+02
 21
-2.02500000E+01
  0
LINE
  8
0
 62
7
 10
-2.49250000E+02
 20
-2.50000000E-01
 11
1.28750000E+02
 21
-2.50000000E-01
  0
LINE
  8
0
 62
7
 10
-2.49250000E+02
 20
-2.02500000E+01
 11
-2.49250000E+02
 21
-2.50000009E-01
  0
LINE
  8
0
 62
7
 10
-2.49250000E+02
 20
-1.02500000E+01
 11
1.28750000E+02
 21
-1.02500000E+01
  0
LINE
  8
0
 62
7
 10
2.79799927E+02
 20
-2.56750000E+02
 11
3.99799805E+02
 21
-2.56750000E+02
  0
LINE
  8
0
 62
7
 10
2.79799927E+02
 20
-2.56750000E+02
 11
2.79799927E+02
 21
-2.76750000E+02
  0
TEXT
  8
0
 62
7
 10
2.87585240E+02
 20
-2.71250000E+02
 40
9.00000000E+00
  1
KOGANEI CORP.
 41
1.04838710E+00
  7
MONOTXT
  0
TEXT
  8
0
 62
7
 10
3.15499641E+02
 20
2.63100000E+02
 40
6.30000019E+00
  1
Ver. 1.0
 41
1.08108124E+00
  7
MONOTXT
  0
LINE
  8
0
 62
7
 10
2.79799927E+02
 20
2.56250000E+02
 11
3.99799805E+02
 21
2.56250000E+02
  0
LINE
  8
0
 62
7
 10
2.79799927E+02
 20
2.76250000E+02
 11
2.79799927E+02
 21
2.56250000E+02
  0
TEXT
  8
0
 62
7
 10
-3.85600562E+02
 20
2.38100000E+02
 40
6.30000019E+00
  1
MODEL:DDA32*75
 41
1.00000015E+00
  7
MONOTXT
  0
LINE
  8
0
 62
7
 10
-3.99250000E+02
 20
2.56250000E+02
 11
-2.79250000E+02
 21
2.56250000E+02
  0
LINE
  8
0
 62
7
 10
-2.79250000E+02
 20
2.76250000E+02
 11
-2.79250000E+02
 21
2.56250000E+02
  0
TEXT
  8
0
 62
7
 10
-3.91900291E+02
 20
2.63100000E+02
 40
6.30000019E+00
  1
NEW DYNA CYLINDER
 41
1.07594953E+00
  7
MONOTXT
  0
LINE
  8
0
 62
7
 10
-3.99250000E+02
 20
-2.76750000E+02
 11
3.99799805E+02
 21
-2.76750000E+02
  0
LINE
  8
0
 62
7
 10
-3.99250000E+02
 20
2.76250000E+02
 11
3.99799805E+02
 21
2.76250000E+02
  0
LINE
  8
0
 62
7
 10
-3.99250000E+02
 20
2.76250000E+02
 11
-3.99250000E+02
 21
-2.76750000E+02
  0
LINE
  8
0
 62
7
 10
3.99799805E+02
 20
2.76250000E+02
 11
3.99799805E+02
 21
-2.76750000E+02
  0
ENDSEC
  0
EOF
