  0
SECTION
  2
HEADER
  9
$ACADVER
  1
AC1003
  9
$EXTMIN
 10
-1.38399994E+02
 20
-9.48000031E+01
  9
$EXTMAX
 10
1.38350006E+02
 20
9.45000000E+01
  9
$LIMMIN
 10
-1.38400994E+02
 20
-9.48010031E+01
  9
$LIMMAX
 10
1.38351006E+02
 20
9.45010000E+01
  9
$SNAPUNIT
 10
1
 20
1
  9
$SNAPBASE
 10
0
 20
0
  9
$GRIDMODE
 70
0
  9
$GRIDUNIT
 10
0
 20
0
  9
$LTSCALE
 40
4.61250000E+00
  9
$TEXTSIZE
 40
3.2
  9
$DIMTAD
 70
0
  9
$LUNITS
 70
2
  9
$LUPREC
 70
4
  9
$FILLETRAD
 40
0
  9
$AUNITS
 70
0
  9
$AUPREC
 70
0
  0
ENDSEC
  0
SECTION
  2
TABLES
  0
TABLE
  2
LTYPE
 70
2
  0
LTYPE
  2
CONTINUOUS
 70
64
  3
Solid-Line
 72
65
 73
0
 40
0
  0
LTYPE
  2
DASHED
 70
64
  3
DASHED
 72
65
 73
2
 40
.75
 49
.5
 49
-.25
  0
LTYPE
  2
HIDDEN
 70
64
  3
HIDDEN
 72
65
 73
2
 40
.375
 49
.25
 49
-.125
  0
LTYPE
  2
CENTER
 70
64
  3
CENTER
 72
65
 73
4
 40
2
 49
1.25
 49
-.25
 49
.25
 49
-.25
  0
LTYPE
  2
PHANTOM
 70
64
  3
PHANTOM
 72
65
 73
6
 40
2.5
 49
1.25
 49
-.25
 49
.25
 49
-.25
 49
.25
 49
-.25
  0
ENDTAB
  0
TABLE
  2
LAYER
 70
1
  0
LAYER
  2
1
 70
0
 62
7
  6
CONTINUOUS
 0
ENDTAB
  0
TABLE
  2
STYLE
 70
2
  0
STYLE
  2
MONOTXT
 70
0
 40
0
 41
1
 50
0
 71
0
 42
.2
  3
monotxt
  0
STYLE
  2
BIGFONT
 70
0
 40
0
 41
1
 50
0
 71
0
 42
.2
  3
txt
  4
bigfont
  0
ENDTAB
  0
ENDSEC
  0
SECTION
  2
ENTITIES
  0
LINE
  8
0
  6
CENTER
 62
6
 10
5.20776934E+01
 20
-2.87216390E+01
 11
3.79419685E+01
 21
-2.87216390E+01
  0
LINE
  8
0
  6
CENTER
 62
6
 10
3.30842548E+01
 20
-4.72216390E+01
 11
5.54842244E+01
 21
-4.72216390E+01
  0
LINE
  8
0
 62
4
 10
4.01080051E+01
 20
-2.12216390E+01
 11
4.01080051E+01
 21
-7.32216390E+01
  0
LINE
  8
0
 62
4
 10
5.01080049E+01
 20
-7.32216390E+01
 11
5.01080049E+01
 21
-2.12216390E+01
  0
LINE
  8
0
  6
CENTER
 62
6
 10
5.20776934E+01
 20
-6.57216390E+01
 11
3.79419685E+01
 21
-6.57216390E+01
  0
LINE
  8
0
 62
4
 10
4.01080051E+01
 20
-7.32216390E+01
 11
5.01080049E+01
 21
-7.32216390E+01
  0
LINE
  8
0
 62
4
 10
4.01080051E+01
 20
-2.12216390E+01
 11
5.01080049E+01
 21
-2.12216390E+01
  0
LINE
  8
0
  6
CENTER
 62
6
 10
-7.98257622E+01
 20
-2.87215627E+01
 11
-7.07982812E+01
 21
-2.87215627E+01
  0
LINE
  8
0
  6
CENTER
 62
6
 10
-7.53920464E+01
 20
-2.43313192E+01
 11
-7.53920464E+01
 21
-3.33588003E+01
  0
LINE
  8
0
  6
CENTER
 62
6
 10
-7.53921380E+01
 20
-7.01135381E+01
 11
-7.53921380E+01
 21
-6.19888051E+01
  0
LINE
  8
0
  6
CENTER
 62
6
 10
-7.95678277E+01
 20
-6.57216237E+01
 11
-7.14431023E+01
 21
-6.57216237E+01
  0
LINE
  8
0
  6
CENTER
 62
6
 10
-2.18920617E+01
 20
-5.96674550E+01
 11
-2.18920617E+01
 21
-7.08873266E+01
  0
LINE
  8
0
 62
4
 10
-2.18920617E+01
 20
-2.12216390E+01
 11
-9.18920464E+01
 21
-2.12216390E+01
  0
LINE
  8
0
 62
4
 10
-2.18920617E+01
 20
-7.32216390E+01
 11
-9.18920464E+01
 21
-7.32216390E+01
  0
LINE
  8
0
 62
4
 10
-9.88920464E+01
 20
-2.82216390E+01
 11
-9.88920464E+01
 21
-6.62216390E+01
  0
LINE
  8
0
  6
CENTER
 62
6
 10
-9.18920464E+01
 20
-5.95384878E+01
 11
-9.18920464E+01
 21
-7.03714651E+01
  0
LINE
  8
0
  6
CENTER
 62
6
 10
-1.71492486E+01
 20
-6.52216390E+01
 11
-2.70794854E+01
 21
-6.52216390E+01
  0
LINE
  8
0
  6
CENTER
 62
6
 10
-5.68920617E+01
 20
-1.87266439E+01
 11
-5.68920617E+01
 21
-7.65228856E+01
  0
LINE
  8
0
  6
CENTER
 62
6
 10
-3.83921075E+01
 20
-6.98556112E+01
 11
-3.83921075E+01
 21
-6.17308782E+01
  0
LINE
  8
0
  6
CENTER
 62
6
 10
-8.71766991E+01
 20
-6.52216390E+01
 11
-9.73648553E+01
 21
-6.52216390E+01
  0
LINE
  8
0
 62
4
 10
-1.48920617E+01
 20
-2.82216390E+01
 11
-1.48920617E+01
 21
-6.62216390E+01
  0
LINE
  8
0
  6
CENTER
 62
6
 10
-4.22972283E+01
 20
-6.57216237E+01
 11
-3.36566491E+01
 21
-6.57216237E+01
  0
LINE
  8
0
  6
CENTER
 62
6
 10
-9.69270560E+00
 20
-4.72216390E+01
 11
-1.06500094E+02
 21
-4.72216390E+01
  0
LINE
  8
0
  6
CENTER
 62
6
 10
-2.18920617E+01
 20
-2.34285711E+01
 11
-2.18920617E+01
 21
-3.45194753E+01
  0
LINE
  8
0
  6
CENTER
 62
6
 10
-8.74346337E+01
 20
-2.92216390E+01
 11
-9.67200341E+01
 21
-2.92216390E+01
  0
LINE
  8
0
  6
CENTER
 62
6
 10
-1.71492486E+01
 20
-2.92216390E+01
 11
-2.68215508E+01
 21
-2.92216390E+01
  0
LINE
  8
0
  6
CENTER
 62
6
 10
-9.18920464E+01
 20
-2.47182134E+01
 11
-9.18920464E+01
 21
-3.45194753E+01
  0
LINE
  8
0
  6
CENTER
 62
6
 10
-4.28130822E+01
 20
-2.87216543E+01
 11
-3.39145684E+01
 21
-2.87216543E+01
  0
LINE
  8
0
  6
CENTER
 62
6
 10
-3.83921075E+01
 20
-2.51051000E+01
 11
-3.83921075E+01
 21
-3.32298330E+01
  0
CIRCLE
  8
0
 62
4
 10
-9.18920464E+01
 20
-6.52216390E+01
 40
3.50000000E+00
  0
CIRCLE
  8
0
 62
4
 10
-5.68920617E+01
 20
-4.72216390E+01
 40
1.60000000E+01
  0
CIRCLE
  8
0
 62
4
 10
-2.18920617E+01
 20
-2.92216390E+01
 40
3.50000000E+00
  0
CIRCLE
  8
0
 62
4
 10
-9.18920464E+01
 20
-2.92216390E+01
 40
3.50000000E+00
  0
CIRCLE
  8
0
 62
4
 10
-2.18920617E+01
 20
-6.52216390E+01
 40
3.50000000E+00
  0
ARC
  8
0
 62
4
 10
-2.18920617E+01
 20
-2.82216390E+01
 40
7.00000000E+00
 50
0.00000000E+00
 51
8.99999818E+01
  0
ARC
  8
0
 62
4
 10
-2.18920617E+01
 20
-6.62216390E+01
 40
7.00000000E+00
 50
2.70000018E+02
 51
0.00000000E+00
  0
ARC
  8
0
 62
4
 10
-9.18920464E+01
 20
-6.62216390E+01
 40
7.00000000E+00
 50
1.79999977E+02
 51
2.70000028E+02
  0
ARC
  8
0
 62
4
 10
-9.18920464E+01
 20
-2.82216390E+01
 40
7.00000000E+00
 50
8.99999818E+01
 51
1.79999964E+02
  0
CIRCLE
  8
0
 62
4
 10
-7.53921380E+01
 20
-6.57216237E+01
 40
2.75000000E+00
  0
CIRCLE
  8
0
 62
4
 10
-3.83921075E+01
 20
-6.57216237E+01
 40
2.75000000E+00
  0
CIRCLE
  8
0
 62
4
 10
-7.53920464E+01
 20
-2.87215627E+01
 40
2.75000000E+00
  0
CIRCLE
  8
0
 62
4
 10
-3.83921075E+01
 20
-2.87216543E+01
 40
2.75000000E+00
  0
LINE
  8
0
 62
4
 10
5.01080049E+01
 20
2.77839151E+00
 11
5.01080049E+01
 21
8.67783915E+01
  0
LINE
  8
0
 62
4
 10
4.01080051E+01
 20
8.67783915E+01
 11
4.01080051E+01
 21
2.77839151E+00
  0
LINE
  8
0
 62
4
 10
4.01080051E+01
 20
2.77839151E+00
 11
5.01080049E+01
 21
2.77839151E+00
  0
LINE
  8
0
  6
CENTER
 62
6
 10
3.45092197E+01
 20
2.62783915E+01
 11
5.48208824E+01
 21
2.62783915E+01
  0
LINE
  8
0
  6
CENTER
 62
6
 10
3.45092197E+01
 20
6.32784220E+01
 11
5.56246400E+01
 21
6.32784220E+01
  0
LINE
  8
0
  6
CENTER
 62
6
 10
2.83958888E+01
 20
4.47783915E+01
 11
5.75679427E+01
 21
4.47783915E+01
  0
LINE
  8
0
  6
CENTER
 62
6
 10
3.44166904E+01
 20
9.77839151E+00
 11
5.60623813E+01
 21
9.77839151E+00
  0
LINE
  8
0
 62
4
 10
4.01080051E+01
 20
8.67783915E+01
 11
5.01080049E+01
 21
8.67783915E+01
  0
LINE
  8
0
  6
CENTER
 62
6
 10
3.44166904E+01
 20
7.97783915E+01
 11
5.62011447E+01
 21
7.97783915E+01
  0
LINE
  8
0
 62
7
 10
7.33500061E+01
 20
-8.48000031E+01
 11
1.38350006E+02
 21
-8.48000031E+01
  0
LINE
  8
0
 62
7
 10
7.33500061E+01
 20
-8.48000031E+01
 11
7.33500061E+01
 21
-9.48000031E+01
  0
TEXT
  8
0
 62
7
 10
7.72426624E+01
 20
-9.20500031E+01
 40
4.50000000E+00
  1
KOGANEI CORP.
 41
1.04838710E+00
  7
MONOTXT
  0
LINE
  8
0
 62
7
 10
7.33500061E+01
 20
9.45000000E+01
 11
7.33500061E+01
 21
8.45000000E+01
  0
TEXT
  8
0
 62
7
 10
9.35071493E+01
 20
8.79000001E+01
 40
3.19999981E+00
  1
Ver. 1.0
 41
1.08108108E+00
  7
MONOTXT
  0
LINE
  8
0
 62
7
 10
7.33500061E+01
 20
8.45000000E+01
 11
1.38350006E+02
 21
8.45000000E+01
  0
TEXT
  8
0
 62
7
 10
-1.32642850E+02
 20
8.79000001E+01
 40
3.19999981E+00
  1
NEW DYNA CYLINDER
 41
1.07594937E+00
  7
MONOTXT
  0
LINE
  8
0
 62
7
 10
-1.38399994E+02
 20
8.45000000E+01
 11
-7.33999939E+01
 21
8.45000000E+01
  0
LINE
  8
0
 62
7
 10
-7.33999939E+01
 20
9.45000000E+01
 11
-7.33999939E+01
 21
8.45000000E+01
  0
LINE
  8
0
 62
7
 10
-1.38399994E+02
 20
9.45000000E+01
 11
1.38350006E+02
 21
9.45000000E+01
  0
LINE
  8
0
 62
7
 10
1.38350006E+02
 20
9.45000000E+01
 11
1.38350006E+02
 21
-9.48000031E+01
  0
LINE
  8
0
 62
7
 10
-1.38399994E+02
 20
-9.48000031E+01
 11
1.38350006E+02
 21
-9.48000031E+01
  0
LINE
  8
0
 62
7
 10
-1.38399994E+02
 20
9.45000000E+01
 11
-1.38399994E+02
 21
-9.48000031E+01
  0
TEXT
  8
0
 62
7
 10
-1.29085994E+02
 20
7.29000001E+01
 40
3.19999981E+00
  1
MODEL:DDA40-3
 41
1.00000000E+00
  7
MONOTXT
  0
ENDSEC
  0
EOF
