  0
SECTION
  2
HEADER
  9
$ACADVER
  1
AC1003
  9
$EXTMIN
 10
-1.94250000E+02
 20
-1.33500000E+02
  9
$EXTMAX
 10
1.94800003E+02
 20
1.32600006E+02
  9
$LIMMIN
 10
-1.94251000E+02
 20
-1.33501000E+02
  9
$LIMMAX
 10
1.94801003E+02
 20
1.32601006E+02
  9
$SNAPUNIT
 10
1
 20
1
  9
$SNAPBASE
 10
0
 20
0
  9
$GRIDMODE
 70
0
  9
$GRIDUNIT
 10
0
 20
0
  9
$LTSCALE
 40
6.48416672E+00
  9
$TEXTSIZE
 40
3.2
  9
$DIMTAD
 70
0
  9
$LUNITS
 70
2
  9
$LUPREC
 70
4
  9
$FILLETRAD
 40
0
  9
$AUNITS
 70
0
  9
$AUPREC
 70
0
  0
ENDSEC
  0
SECTION
  2
TABLES
  0
TABLE
  2
LTYPE
 70
2
  0
LTYPE
  2
CONTINUOUS
 70
64
  3
Solid-Line
 72
65
 73
0
 40
0
  0
LTYPE
  2
DASHED
 70
64
  3
DASHED
 72
65
 73
2
 40
.75
 49
.5
 49
-.25
  0
LTYPE
  2
HIDDEN
 70
64
  3
HIDDEN
 72
65
 73
2
 40
.375
 49
.25
 49
-.125
  0
LTYPE
  2
CENTER
 70
64
  3
CENTER
 72
65
 73
4
 40
2
 49
1.25
 49
-.25
 49
.25
 49
-.25
  0
LTYPE
  2
PHANTOM
 70
64
  3
PHANTOM
 72
65
 73
6
 40
2.5
 49
1.25
 49
-.25
 49
.25
 49
-.25
 49
.25
 49
-.25
  0
ENDTAB
  0
TABLE
  2
LAYER
 70
1
  0
LAYER
  2
1
 70
0
 62
7
  6
CONTINUOUS
 0
ENDTAB
  0
TABLE
  2
STYLE
 70
2
  0
STYLE
  2
MONOTXT
 70
0
 40
0
 41
1
 50
0
 71
0
 42
.2
  3
monotxt
  0
STYLE
  2
BIGFONT
 70
0
 40
0
 41
1
 50
0
 71
0
 42
.2
  3
txt
  4
bigfont
  0
ENDTAB
  0
ENDSEC
  0
SECTION
  2
ENTITIES
  0
CIRCLE
  8
0
 62
4
 10
-5.52500000E+01
 20
-5.35000000E+01
 40
6.00000000E+00
  0
ARC
  8
0
 62
4
 10
-5.02500000E+01
 20
-5.80553436E+01
 40
5.50000000E+00
 50
2.80000057E+02
 51
3.59999964E+02
  0
CIRCLE
  8
0
 62
4
 10
-5.52500000E+01
 20
-5.35000000E+01
 40
7.00000000E+00
  0
ARC
  8
0
 62
4
 10
-6.82500000E+01
 20
-7.60000000E+01
 40
2.00000000E+00
 50
2.69999984E+02
 51
3.59999964E+02
  0
ARC
  8
0
 62
4
 10
-5.02500000E+01
 20
-4.89446564E+01
 40
5.50000000E+00
 50
3.59721781E-05
 51
8.00737430E+01
  0
ARC
  8
0
 62
4
 10
-6.82500000E+01
 20
-3.10000000E+01
 40
2.00000000E+00
 50
3.59999981E+02
 51
9.00000162E+01
  0
ARC
  8
0
 62
4
 10
-6.22500000E+01
 20
-3.46436005E+01
 40
4.00000000E+00
 50
1.79999995E+02
 51
2.59999993E+02
  0
ARC
  8
0
 62
4
 10
-5.02500000E+01
 20
-5.80553436E+01
 40
8.00000000E+00
 50
2.80000057E+02
 51
3.59999964E+02
  0
ARC
  8
0
 62
4
 10
-6.22500000E+01
 20
-7.23563843E+01
 40
4.00000000E+00
 50
1.00000055E+02
 51
1.80000005E+02
  0
ARC
  8
0
 62
4
 10
-5.02500000E+01
 20
-4.89446411E+01
 40
8.00000000E+00
 50
3.59999981E+02
 51
7.99999363E+01
  0
LINE
  8
0
 62
4
 10
-6.62500000E+01
 20
-7.60000000E+01
 11
-6.62500000E+01
 21
-3.10000000E+01
  0
LINE
  8
0
 62
4
 10
-4.88551267E+01
 20
-6.59328021E+01
 11
-6.29445822E+01
 21
-6.84171533E+01
  0
LINE
  8
0
 62
4
 10
-4.92879649E+01
 20
-4.35294486E+01
 11
-6.62500068E+01
 21
-4.05385829E+01
  0
LINE
  8
0
 62
4
 10
-4.92902163E+01
 20
-6.34709537E+01
 11
-6.62499966E+01
 21
-6.64614206E+01
  0
LINE
  8
0
  6
CENTER
 62
6
 10
-5.52500000E+01
 20
-4.35331116E+01
 11
-5.52500000E+01
 21
-6.26631470E+01
  0
LINE
  8
0
 62
4
 10
-4.22500000E+01
 20
-4.89446411E+01
 11
-4.22500000E+01
 21
-5.80553436E+01
  0
LINE
  8
0
  6
CENTER
 62
6
 10
-6.33047791E+01
 20
-7.20000000E+01
 11
-7.80074081E+01
 21
-7.20000000E+01
  0
LINE
  8
0
 62
4
 10
-4.88607993E+01
 20
-4.10661875E+01
 11
-6.29445897E+01
 21
-3.85828352E+01
  0
LINE
  8
0
 62
4
 10
-7.42500000E+01
 20
-7.80000000E+01
 11
-7.42500000E+01
 21
-2.90000000E+01
  0
LINE
  8
0
 62
4
 10
-6.82500000E+01
 20
-2.90000000E+01
 11
-7.42500000E+01
 21
-2.90000000E+01
  0
LINE
  8
0
  6
CENTER
 62
6
 10
-7.74282379E+01
 20
-5.35000000E+01
 11
-3.81755371E+01
 21
-5.35000000E+01
  0
LINE
  8
0
  6
CENTER
 62
6
 10
-6.37924194E+01
 20
-3.50000000E+01
 11
-7.71765976E+01
 21
-3.50000000E+01
  0
LINE
  8
0
 62
4
 10
-4.47500000E+01
 20
-5.80553436E+01
 11
-4.47500000E+01
 21
-4.89446564E+01
  0
LINE
  8
0
 62
4
 10
-6.82500000E+01
 20
-7.80000000E+01
 11
-7.42500000E+01
 21
-7.80000000E+01
  0
LINE
  8
0
 62
4
 10
2.32500010E+01
 20
-4.65000000E+01
 11
2.32500010E+01
 21
-4.05385818E+01
  0
LINE
  8
0
 62
4
 10
1.77500000E+01
 20
-6.05000000E+01
 11
1.67500000E+01
 21
-5.95000000E+01
  0
LINE
  8
0
 62
4
 10
1.77500000E+01
 20
-6.05000000E+01
 11
2.38895229E+01
 21
-6.05000000E+01
  0
POLYLINE
  8
0
 62
4
 66
1
  0
VERTEX
  8
0
 62
4
 10
2.38895229E+01
 20
-6.05000000E+01
  0
VERTEX
  8
0
 62
4
 10
2.39260040E+01
 20
-6.04718201E+01
  0
VERTEX
  8
0
 62
4
 10
2.39621914E+01
 20
-6.03875071E+01
  0
VERTEX
  8
0
 62
4
 10
2.39977937E+01
 20
-6.02477400E+01
  0
VERTEX
  8
0
 62
4
 10
2.40325243E+01
 20
-6.00536441E+01
  0
VERTEX
  8
0
 62
4
 10
2.40661035E+01
 20
-5.98067821E+01
  0
VERTEX
  8
0
 62
4
 10
2.40982610E+01
 20
-5.95091415E+01
  0
VERTEX
  8
0
 62
4
 10
2.41287378E+01
 20
-5.91631190E+01
  0
VERTEX
  8
0
 62
4
 10
2.41572886E+01
 20
-5.87715003E+01
  0
VERTEX
  8
0
 62
4
 10
2.41836836E+01
 20
-5.83374385E+01
  0
VERTEX
  8
0
 62
4
 10
2.42077101E+01
 20
-5.78644286E+01
  0
VERTEX
  8
0
 62
4
 10
2.42291748E+01
 20
-5.73562789E+01
  0
VERTEX
  8
0
 62
4
 10
2.42479048E+01
 20
-5.68170806E+01
  0
VERTEX
  8
0
 62
4
 10
2.42637493E+01
 20
-5.62511752E+01
  0
VERTEX
  8
0
 62
4
 10
2.42765808E+01
 20
-5.56631190E+01
  0
VERTEX
  8
0
 62
4
 10
2.42862959E+01
 20
-5.50576465E+01
  0
VERTEX
  8
0
 62
4
 10
2.42928164E+01
 20
-5.44396329E+01
  0
VERTEX
  8
0
 62
4
 10
2.42960898E+01
 20
-5.38140538E+01
  0
VERTEX
  8
0
 62
4
 10
2.42960899E+01
 20
-5.31859462E+01
  0
VERTEX
  8
0
 62
4
 10
2.42928164E+01
 20
-5.25603671E+01
  0
VERTEX
  8
0
 62
4
 10
2.42862959E+01
 20
-5.19423535E+01
  0
VERTEX
  8
0
 62
4
 10
2.42765808E+01
 20
-5.13368810E+01
  0
VERTEX
  8
0
 62
4
 10
2.42637493E+01
 20
-5.07488248E+01
  0
VERTEX
  8
0
 62
4
 10
2.42479048E+01
 20
-5.01829194E+01
  0
VERTEX
  8
0
 62
4
 10
2.42291748E+01
 20
-4.96437211E+01
  0
VERTEX
  8
0
 62
4
 10
2.42077101E+01
 20
-4.91355714E+01
  0
VERTEX
  8
0
 62
4
 10
2.41836836E+01
 20
-4.86625615E+01
  0
VERTEX
  8
0
 62
4
 10
2.41572887E+01
 20
-4.82284997E+01
  0
VERTEX
  8
0
 62
4
 10
2.41287379E+01
 20
-4.78368810E+01
  0
VERTEX
  8
0
 62
4
 10
2.40982610E+01
 20
-4.74908584E+01
  0
VERTEX
  8
0
 62
4
 10
2.40661035E+01
 20
-4.71932179E+01
  0
VERTEX
  8
0
 62
4
 10
2.40325243E+01
 20
-4.69463559E+01
  0
VERTEX
  8
0
 62
4
 10
2.39977937E+01
 20
-4.67522600E+01
  0
VERTEX
  8
0
 62
4
 10
2.39621914E+01
 20
-4.66124929E+01
  0
VERTEX
  8
0
 62
4
 10
2.39260040E+01
 20
-4.65281799E+01
  0
VERTEX
  8
0
 62
4
 10
2.38895229E+01
 20
-4.65000000E+01
  0
SEQEND
  8
0
  0
LINE
  8
0
 62
4
 10
1.67500000E+01
 20
-4.75000000E+01
 11
1.77500000E+01
 21
-4.65000000E+01
  0
LINE
  8
0
 62
4
 10
1.67500000E+01
 20
-5.95000000E+01
 11
1.67500000E+01
 21
-4.75000000E+01
  0
LINE
  8
0
 62
4
 10
1.77500000E+01
 20
-6.05000000E+01
 11
1.77500000E+01
 21
-4.65000000E+01
  0
LINE
  8
0
 62
4
 10
1.77500000E+01
 20
-4.65000000E+01
 11
2.38895229E+01
 21
-4.65000000E+01
  0
LINE
  8
0
 62
4
 10
6.82500000E+01
 20
-4.65000000E+01
 11
6.82500000E+01
 21
-4.05385818E+01
  0
POLYLINE
  8
0
 62
4
 66
1
  0
VERTEX
  8
0
 62
4
 10
6.76104771E+01
 20
-4.65000000E+01
  0
VERTEX
  8
0
 62
4
 10
6.75739960E+01
 20
-4.65281799E+01
  0
VERTEX
  8
0
 62
4
 10
6.75378086E+01
 20
-4.66124929E+01
  0
VERTEX
  8
0
 62
4
 10
6.75022063E+01
 20
-4.67522600E+01
  0
VERTEX
  8
0
 62
4
 10
6.74674757E+01
 20
-4.69463559E+01
  0
VERTEX
  8
0
 62
4
 10
6.74338965E+01
 20
-4.71932179E+01
  0
VERTEX
  8
0
 62
4
 10
6.74017390E+01
 20
-4.74908585E+01
  0
VERTEX
  8
0
 62
4
 10
6.73712622E+01
 20
-4.78368810E+01
  0
VERTEX
  8
0
 62
4
 10
6.73427113E+01
 20
-4.82284997E+01
  0
VERTEX
  8
0
 62
4
 10
6.73163164E+01
 20
-4.86625615E+01
  0
VERTEX
  8
0
 62
4
 10
6.72922899E+01
 20
-4.91355714E+01
  0
VERTEX
  8
0
 62
4
 10
6.72708252E+01
 20
-4.96437211E+01
  0
VERTEX
  8
0
 62
4
 10
6.72520952E+01
 20
-5.01829194E+01
  0
VERTEX
  8
0
 62
4
 10
6.72362507E+01
 20
-5.07488248E+01
  0
VERTEX
  8
0
 62
4
 10
6.72234192E+01
 20
-5.13368811E+01
  0
VERTEX
  8
0
 62
4
 10
6.72137041E+01
 20
-5.19423535E+01
  0
VERTEX
  8
0
 62
4
 10
6.72071836E+01
 20
-5.25603672E+01
  0
VERTEX
  8
0
 62
4
 10
6.72039102E+01
 20
-5.31859462E+01
  0
VERTEX
  8
0
 62
4
 10
6.72039102E+01
 20
-5.38140538E+01
  0
VERTEX
  8
0
 62
4
 10
6.72071836E+01
 20
-5.44396329E+01
  0
VERTEX
  8
0
 62
4
 10
6.72137041E+01
 20
-5.50576465E+01
  0
VERTEX
  8
0
 62
4
 10
6.72234192E+01
 20
-5.56631190E+01
  0
VERTEX
  8
0
 62
4
 10
6.72362507E+01
 20
-5.62511752E+01
  0
VERTEX
  8
0
 62
4
 10
6.72520952E+01
 20
-5.68170806E+01
  0
VERTEX
  8
0
 62
4
 10
6.72708252E+01
 20
-5.73562789E+01
  0
VERTEX
  8
0
 62
4
 10
6.72922899E+01
 20
-5.78644286E+01
  0
VERTEX
  8
0
 62
4
 10
6.73163164E+01
 20
-5.83374385E+01
  0
VERTEX
  8
0
 62
4
 10
6.73427113E+01
 20
-5.87715003E+01
  0
VERTEX
  8
0
 62
4
 10
6.73712622E+01
 20
-5.91631190E+01
  0
VERTEX
  8
0
 62
4
 10
6.74017390E+01
 20
-5.95091416E+01
  0
VERTEX
  8
0
 62
4
 10
6.74338965E+01
 20
-5.98067821E+01
  0
VERTEX
  8
0
 62
4
 10
6.74674757E+01
 20
-6.00536441E+01
  0
VERTEX
  8
0
 62
4
 10
6.75022063E+01
 20
-6.02477400E+01
  0
VERTEX
  8
0
 62
4
 10
6.75378086E+01
 20
-6.03875071E+01
  0
VERTEX
  8
0
 62
4
 10
6.75739960E+01
 20
-6.04718201E+01
  0
VERTEX
  8
0
 62
4
 10
6.76104771E+01
 20
-6.05000000E+01
  0
SEQEND
  8
0
  0
LINE
  8
0
 62
4
 10
7.02500010E+01
 20
-4.65000000E+01
 11
7.02500010E+01
 21
-3.50000000E+01
  0
LINE
  8
0
 62
4
 10
2.12499990E+01
 20
-4.65000000E+01
 11
2.12499990E+01
 21
-3.50000000E+01
  0
LINE
  8
0
 62
4
 10
5.57500001E+01
 20
-6.05000000E+01
 11
3.57500010E+01
 21
-6.05000000E+01
  0
LINE
  8
0
 62
4
 10
5.57500001E+01
 20
-4.65000000E+01
 11
3.57500010E+01
 21
-4.65000000E+01
  0
LINE
  8
0
 62
4
 10
7.47500000E+01
 20
-5.95000000E+01
 11
7.47500000E+01
 21
-4.75000000E+01
  0
LINE
  8
0
 62
4
 10
7.37500000E+01
 20
-6.05000000E+01
 11
7.37500000E+01
 21
-4.65000000E+01
  0
LINE
  8
0
 62
4
 10
7.47500000E+01
 20
-4.75000000E+01
 11
7.37500000E+01
 21
-4.65000000E+01
  0
LINE
  8
0
 62
4
 10
7.37500000E+01
 20
-6.05000000E+01
 11
7.47500000E+01
 21
-5.95000000E+01
  0
LINE
  8
0
 62
4
 10
7.37500000E+01
 20
-6.05000000E+01
 11
6.76104771E+01
 21
-6.05000000E+01
  0
LINE
  8
0
 62
4
 10
7.37500000E+01
 20
-4.65000000E+01
 11
6.76104771E+01
 21
-4.65000000E+01
  0
CIRCLE
  8
0
 62
4
 10
6.42500000E+01
 20
-7.19999847E+01
 40
2.75000000E+00
  0
CIRCLE
  8
0
 62
4
 10
6.42500000E+01
 20
-3.49999237E+01
 40
2.75000000E+00
  0
CIRCLE
  8
0
 62
4
 10
2.72499399E+01
 20
-3.49999847E+01
 40
2.75000000E+00
  0
CIRCLE
  8
0
 62
4
 10
2.72500010E+01
 20
-7.20000000E+01
 40
2.75000000E+00
  0
ARC
  8
0
 62
4
 10
3.31975718E+01
 20
-3.90000000E+01
 40
1.00000000E+00
 50
9.00000369E+01
 51
1.36567952E+02
  0
ARC
  8
0
 62
4
 10
2.47500010E+01
 20
-6.50000000E+01
 40
1.50000000E+00
 50
2.02955851E+02
 51
2.69999888E+02
  0
CIRCLE
  8
0
 62
4
 10
6.42499390E+01
 20
-3.49999847E+01
 40
5.50000000E+00
  0
ARC
  8
0
 62
4
 10
3.75000010E+01
 20
-4.12500000E+01
 40
3.00000000E+00
 50
8.99999818E+01
 51
1.25685439E+02
  0
ARC
  8
0
 62
4
 10
2.47500010E+01
 20
-4.20000000E+01
 40
1.50000000E+00
 50
9.00000369E+01
 51
1.80000019E+02
  0
ARC
  8
0
 62
4
 10
3.75000010E+01
 20
-6.57500000E+01
 40
3.00000000E+00
 50
2.34314656E+02
 51
2.70000018E+02
  0
ARC
  8
0
 62
4
 10
6.41118774E+01
 20
-3.35000000E+01
 40
7.00000000E+00
 50
2.23432567E+02
 51
2.70000018E+02
  0
ARC
  8
0
 62
4
 10
6.67500000E+01
 20
-6.50000000E+01
 40
1.50000000E+00
 50
2.69999963E+02
 51
3.59999945E+02
  0
ARC
  8
0
 62
4
 10
2.73881235E+01
 20
-3.35000000E+01
 40
7.00000000E+00
 50
2.70000018E+02
 51
3.16567469E+02
  0
ARC
  8
0
 62
4
 10
5.83024292E+01
 20
-3.90000000E+01
 40
1.00000000E+00
 50
4.34320664E+01
 51
8.99999818E+01
  0
ARC
  8
0
 62
4
 10
5.83024292E+01
 20
-6.80000000E+01
 40
1.00000000E+00
 50
2.69999963E+02
 51
3.16567879E+02
  0
ARC
  8
0
 62
4
 10
5.40000002E+01
 20
-4.12500000E+01
 40
3.00000000E+00
 50
5.43145829E+01
 51
8.99999818E+01
  0
ARC
  8
0
 62
4
 10
2.72500010E+01
 20
-3.50000000E+01
 40
6.00000000E+00
 50
8.99999818E+01
 51
1.79999964E+02
  0
ARC
  8
0
 62
4
 10
6.42500000E+01
 20
-7.20000000E+01
 40
6.00000000E+00
 50
2.70000018E+02
 51
0.00000000E+00
  0
CIRCLE
  8
0
 62
4
 10
6.42499390E+01
 20
-7.19999847E+01
 40
5.50000000E+00
  0
ARC
  8
0
 62
4
 10
2.73881235E+01
 20
-7.35000000E+01
 40
7.00000000E+00
 50
4.34324626E+01
 51
8.99999137E+01
  0
CIRCLE
  8
0
 62
4
 10
2.72499399E+01
 20
-3.49999847E+01
 40
5.50000000E+00
  0
CIRCLE
  8
0
 62
4
 10
2.72499399E+01
 20
-7.19999847E+01
 40
5.50000000E+00
  0
ARC
  8
0
 62
4
 10
3.31975718E+01
 20
-6.80000000E+01
 40
1.00000000E+00
 50
2.23431993E+02
 51
2.69999909E+02
  0
ARC
  8
0
 62
4
 10
6.67500000E+01
 20
-4.20000000E+01
 40
1.50000000E+00
 50
0.00000000E+00
 51
8.99999818E+01
  0
ARC
  8
0
 62
4
 10
5.40000002E+01
 20
-6.57500000E+01
 40
3.00000000E+00
 50
2.70000018E+02
 51
3.05685332E+02
  0
ARC
  8
0
 62
4
 10
6.41118774E+01
 20
-7.35000000E+01
 40
7.00000000E+00
 50
8.99999274E+01
 51
1.36567379E+02
  0
ARC
  8
0
 62
4
 10
2.72500010E+01
 20
-7.20000000E+01
 40
6.00000000E+00
 50
1.79999977E+02
 51
2.70000028E+02
  0
ARC
  8
0
 62
4
 10
6.42500000E+01
 20
-3.50000000E+01
 40
6.00000000E+00
 50
0.00000000E+00
 51
8.99999818E+01
  0
LINE
  8
0
  6
CENTER
 62
6
 10
2.72499399E+01
 20
-2.67367096E+01
 11
2.72499399E+01
 21
-4.36628113E+01
  0
LINE
  8
0
 62
4
 10
2.72500010E+01
 20
-2.90000000E+01
 11
6.42500000E+01
 21
-2.90000000E+01
  0
LINE
  8
0
 62
4
 10
7.02500010E+01
 20
-7.20000000E+01
 11
7.02500010E+01
 21
-6.05000000E+01
  0
LINE
  8
0
 62
4
 10
2.12499990E+01
 20
-7.20000000E+01
 11
2.12499990E+01
 21
-6.05000000E+01
  0
LINE
  8
0
 62
4
 10
3.27384043E+01
 20
-7.23563995E+01
 11
5.87500000E+01
 21
-7.23563995E+01
  0
LINE
  8
0
 62
4
 10
3.27500010E+01
 20
-3.46436157E+01
 11
5.87500000E+01
 21
-3.46436157E+01
  0
LINE
  8
0
 62
4
 10
6.70000000E+01
 20
-6.52614136E+01
 11
6.70000000E+01
 21
-4.20288086E+01
  0
LINE
  8
0
 62
4
 10
2.45000010E+01
 20
-6.52614136E+01
 11
2.45000010E+01
 21
-4.20245361E+01
  0
LINE
  8
0
  6
CENTER
 62
6
 10
6.42500000E+01
 20
-2.68058472E+01
 11
6.42500000E+01
 21
-4.37522125E+01
  0
LINE
  8
0
 62
4
 10
3.75000010E+01
 20
-3.82500000E+01
 11
5.40000002E+01
 21
-3.82500000E+01
  0
LINE
  8
0
 62
4
 10
3.75000010E+01
 20
-6.87500000E+01
 11
5.40000002E+01
 21
-6.87500000E+01
  0
LINE
  8
0
  6
CENTER
 62
6
 10
7.24441538E+01
 20
-7.19999847E+01
 11
5.73112185E+01
 21
-7.19999847E+01
  0
LINE
  8
0
  6
CENTER
 62
6
 10
6.42500000E+01
 20
-8.00634766E+01
 11
6.42500000E+01
 21
-6.33371887E+01
  0
LINE
  8
0
 62
4
 10
2.72500010E+01
 20
-7.80000000E+01
 11
6.42500000E+01
 21
-7.80000000E+01
  0
LINE
  8
0
 62
4
 10
3.27500010E+01
 20
-7.23563995E+01
 11
3.27500010E+01
 21
-3.46436157E+01
  0
LINE
  8
0
 62
4
 10
5.87500000E+01
 20
-7.23563995E+01
 11
5.87500000E+01
 21
-3.46436157E+01
  0
LINE
  8
0
  6
CENTER
 62
6
 10
7.72941236E+01
 20
-5.35000000E+01
 11
1.64397497E+01
 21
-5.35000000E+01
  0
LINE
  8
0
  6
CENTER
 62
6
 10
5.78686526E+01
 20
-3.49999237E+01
 11
7.23903208E+01
 21
-3.49999237E+01
  0
LINE
  8
0
 62
4
 10
2.32500010E+01
 20
-6.64614182E+01
 11
2.32500010E+01
 21
-6.05000000E+01
  0
LINE
  8
0
  6
CENTER
 62
6
 10
1.91864614E+01
 20
-7.20000000E+01
 11
3.43042002E+01
 21
-7.20000000E+01
  0
LINE
  8
0
 62
4
 10
5.57500001E+01
 20
-3.80000000E+01
 11
5.83024292E+01
 21
-3.80000000E+01
  0
LINE
  8
0
 62
4
 10
6.82500000E+01
 20
-6.64614182E+01
 11
6.82500000E+01
 21
-6.05000000E+01
  0
LINE
  8
0
  6
CENTER
 62
6
 10
4.57500000E+01
 20
-2.50050049E+01
 11
4.57500000E+01
 21
-8.28012466E+01
  0
LINE
  8
0
  6
CENTER
 62
6
 10
2.72500010E+01
 20
-8.01941528E+01
 11
2.72500010E+01
 21
-6.32477875E+01
  0
LINE
  8
0
 62
4
 10
6.41118774E+01
 20
-6.65000000E+01
 11
6.67500000E+01
 21
-6.65000000E+01
  0
LINE
  8
0
 62
4
 10
5.57500001E+01
 20
-6.90000000E+01
 11
5.83024292E+01
 21
-6.90000000E+01
  0
LINE
  8
0
 62
4
 10
3.57500010E+01
 20
-7.23563995E+01
 11
3.57500010E+01
 21
-3.46436157E+01
  0
LINE
  8
0
  6
CENTER
 62
6
 10
1.90558462E+01
 20
-3.49999847E+01
 11
3.45282602E+01
 21
-3.49999847E+01
  0
LINE
  8
0
 62
4
 10
5.57500001E+01
 20
-7.23563995E+01
 11
5.57500001E+01
 21
-3.46436157E+01
  0
LINE
  8
0
 62
4
 10
3.54075193E+01
 20
-6.90000000E+01
 11
3.31975718E+01
 21
-6.90000000E+01
  0
LINE
  8
0
 62
4
 10
2.73881235E+01
 20
-6.65000000E+01
 11
2.47500010E+01
 21
-6.65000000E+01
  0
LINE
  8
0
 62
4
 10
2.73881235E+01
 20
-4.05000000E+01
 11
2.47500010E+01
 21
-4.05000000E+01
  0
LINE
  8
0
 62
4
 10
3.57500010E+01
 20
-3.80000000E+01
 11
3.31975718E+01
 21
-3.80000000E+01
  0
LINE
  8
0
 62
4
 10
6.41118774E+01
 20
-4.05000000E+01
 11
6.67500000E+01
 21
-4.05000000E+01
  0
LINE
  8
0
 62
4
 10
-4.82500000E+01
 20
5.65000000E+01
 11
-4.82500000E+01
 21
7.65000000E+01
  0
LINE
  8
0
 62
4
 10
-6.22500000E+01
 20
5.65000000E+01
 11
-6.22500000E+01
 21
7.65000000E+01
  0
LINE
  8
0
 62
4
 10
-4.82500000E+01
 20
8.79534866E+01
 11
-4.82500000E+01
 21
9.45000000E+01
  0
LINE
  8
0
 62
4
 10
-6.22500000E+01
 20
8.87674401E+01
 11
-6.22500000E+01
 21
9.45000000E+01
  0
LINE
  8
0
 62
4
 10
-6.22500000E+01
 20
3.85000000E+01
 11
-6.12500000E+01
 21
3.75000000E+01
  0
LINE
  8
0
 62
4
 10
-4.92500000E+01
 20
3.75000000E+01
 11
-4.82500000E+01
 21
3.85000000E+01
  0
LINE
  8
0
 62
4
 10
-4.82500000E+01
 20
9.45000000E+01
 11
-4.92500000E+01
 21
9.55000000E+01
  0
LINE
  8
0
 62
4
 10
-6.12500000E+01
 20
9.55000000E+01
 11
-6.22500000E+01
 21
9.45000000E+01
  0
LINE
  8
0
 62
4
 10
-6.22500000E+01
 20
3.85000000E+01
 11
-4.82500000E+01
 21
3.85000000E+01
  0
LINE
  8
0
 62
4
 10
-6.22500000E+01
 20
9.45000000E+01
 11
-4.82500000E+01
 21
9.45000000E+01
  0
LINE
  8
0
 62
4
 10
-6.12500000E+01
 20
3.75000000E+01
 11
-4.92500000E+01
 21
3.75000000E+01
  0
LINE
  8
0
 62
4
 10
-6.12500000E+01
 20
9.55000000E+01
 11
-4.92500000E+01
 21
9.55000000E+01
  0
ARC
  8
0
 62
4
 10
-3.77500000E+01
 20
8.48619080E+01
 40
7.00000000E+00
 50
1.79999991E+02
 51
2.29994818E+02
  0
ARC
  8
0
 62
4
 10
-6.41654663E+01
 20
9.18838501E+01
 40
3.00000000E+00
 50
2.15223677E+02
 51
2.66672732E+02
  0
ARC
  8
0
 62
4
 10
-6.82500000E+01
 20
8.90000000E+01
 40
2.00000000E+00
 50
3.59721781E-05
 51
9.00000162E+01
  0
ARC
  8
0
 62
4
 10
-6.62500000E+01
 20
7.69028625E+01
 40
1.00000000E+00
 50
3.59721781E-05
 51
9.00000025E+01
  0
ARC
  8
0
 62
4
 10
-4.62500000E+01
 20
8.63346558E+01
 40
1.50000000E+00
 50
3.59721781E-05
 51
8.66724028E+01
  0
ARC
  8
0
 62
4
 10
-6.62500000E+01
 20
5.60971375E+01
 40
1.00000000E+00
 50
2.69999998E+02
 51
3.59999964E+02
  0
ARC
  8
0
 62
4
 10
-3.77500000E+01
 20
4.81380920E+01
 40
7.00000000E+00
 50
1.30005179E+02
 51
1.80000005E+02
  0
ARC
  8
0
 62
4
 10
-4.62500000E+01
 20
4.66653442E+01
 40
1.50000000E+00
 50
2.73327597E+02
 51
3.59999964E+02
  0
ARC
  8
0
 62
4
 10
-6.41654663E+01
 20
4.11161499E+01
 40
3.00000000E+00
 50
9.33272675E+01
 51
1.44776323E+02
  0
ARC
  8
0
 62
4
 10
-6.82500000E+01
 20
4.40000000E+01
 40
2.00000000E+00
 50
2.69999984E+02
 51
3.59999964E+02
  0
LINE
  8
0
 62
4
 10
-4.47500000E+01
 20
8.48619080E+01
 11
-4.47500000E+01
 21
8.63346558E+01
  0
LINE
  8
0
 62
4
 10
-6.22500000E+01
 20
3.85000000E+01
 11
-6.22500000E+01
 21
4.42325462E+01
  0
LINE
  8
0
 62
4
 10
-4.22500000E+01
 20
7.65000000E+01
 11
-4.22500000E+01
 21
7.95000000E+01
  0
LINE
  8
0
 62
4
 10
-6.82500000E+01
 20
9.10000000E+01
 11
-7.42500000E+01
 21
9.10000000E+01
  0
LINE
  8
0
 62
4
 10
-4.61629374E+01
 20
8.78321458E+01
 11
-6.43395788E+01
 21
8.88889273E+01
  0
LINE
  8
0
 62
4
 10
-4.22500000E+01
 20
7.95000000E+01
 11
-6.62500000E+01
 21
7.95000000E+01
  0
LINE
  8
0
 62
4
 10
-6.52500000E+01
 20
7.65000000E+01
 11
-6.52500000E+01
 21
7.69028625E+01
  0
LINE
  8
0
 62
4
 10
-4.22500000E+01
 20
5.35000000E+01
 11
-6.62500000E+01
 21
5.35000000E+01
  0
LINE
  8
0
 62
4
 10
-4.82500000E+01
 20
3.85000000E+01
 11
-4.82500000E+01
 21
4.50464997E+01
  0
LINE
  8
0
 62
4
 10
-4.22500000E+01
 20
7.65000000E+01
 11
-6.52500000E+01
 21
7.65000000E+01
  0
LINE
  8
0
 62
4
 10
-4.47500000E+01
 20
4.81380920E+01
 11
-4.47500000E+01
 21
4.66653442E+01
  0
LINE
  8
0
 62
4
 10
-4.61629438E+01
 20
4.51678402E+01
 11
-6.43395852E+01
 21
4.41110587E+01
  0
LINE
  8
0
 62
4
 10
-4.22500000E+01
 20
5.65000000E+01
 11
-6.52500000E+01
 21
5.65000000E+01
  0
LINE
  8
0
 62
4
 10
-6.52500000E+01
 20
5.65000000E+01
 11
-6.52500000E+01
 21
5.60971375E+01
  0
LINE
  8
0
 62
4
 10
-6.62500000E+01
 20
8.90000000E+01
 11
-6.62500000E+01
 21
4.40000000E+01
  0
LINE
  8
0
 62
4
 10
-4.22500000E+01
 20
5.65000000E+01
 11
-4.22500000E+01
 21
5.35000000E+01
  0
LINE
  8
0
  6
CENTER
 62
6
 10
-8.14609299E+01
 20
6.65000000E+01
 11
-3.73673935E+01
 21
6.65000000E+01
  0
LINE
  8
0
  6
CENTER
 62
6
 10
-7.64410324E+01
 20
8.50000305E+01
 11
-6.33135986E+01
 21
8.50000305E+01
  0
LINE
  8
0
  6
CENTER
 62
6
 10
-7.71581650E+01
 20
4.80000000E+01
 11
-6.30319824E+01
 21
4.80000000E+01
  0
LINE
  8
0
 62
4
 10
-6.82500000E+01
 20
4.20000000E+01
 11
-7.42500000E+01
 21
4.20000000E+01
  0
LINE
  8
0
 62
4
 10
-7.42500000E+01
 20
4.20000000E+01
 11
-7.42500000E+01
 21
9.10000000E+01
  0
LINE
  8
0
  6
CENTER
 62
6
 10
-5.52500000E+01
 20
9.20638275E+01
 11
-5.52500000E+01
 21
4.07820435E+01
  0
LINE
  8
0
 62
7
 10
1.09800003E+02
 20
-1.18500000E+02
 11
1.09800003E+02
 21
-1.33500000E+02
  0
LINE
  8
0
 62
7
 10
1.09800003E+02
 20
-1.18500000E+02
 11
1.94800003E+02
 21
-1.18500000E+02
  0
TEXT
  8
0
 62
7
 10
1.15249715E+02
 20
-1.29150000E+02
 40
6.30000019E+00
  1
KOGANEI CORP.
 41
1.04838725E+00
  7
MONOTXT
  0
TEXT
  8
0
 62
7
 10
1.34942863E+02
 20
1.22850006E+02
 40
4.50000000E+00
  1
Ver. 1.0
 41
1.08108085E+00
  7
MONOTXT
  0
LINE
  8
0
 62
7
 10
1.09800003E+02
 20
1.32600006E+02
 11
1.09800003E+02
 21
1.17600006E+02
  0
LINE
  8
0
 62
7
 10
1.09800003E+02
 20
1.17600006E+02
 11
1.94800003E+02
 21
1.17600006E+02
  0
TEXT
  8
0
 62
7
 10
-1.89357136E+02
 20
1.22850006E+02
 40
4.50000000E+00
  1
NEW DYNA CYLINDER
 41
1.07594914E+00
  7
MONOTXT
  0
LINE
  8
0
 62
7
 10
-1.94250000E+02
 20
1.17600006E+02
 11
-1.09250000E+02
 21
1.17600006E+02
  0
LINE
  8
0
 62
7
 10
-1.09250000E+02
 20
1.32600006E+02
 11
-1.09250000E+02
 21
1.17600006E+02
  0
TEXT
  8
0
 62
7
 10
-1.85214688E+02
 20
1.05350006E+02
 40
4.50000000E+00
  1
MODEL:DDA40-7
 41
1.00000000E+00
  7
MONOTXT
  0
LINE
  8
0
 62
7
 10
-1.94250000E+02
 20
1.32600006E+02
 11
1.94800003E+02
 21
1.32600006E+02
  0
LINE
  8
0
 62
7
 10
1.94800003E+02
 20
1.32600006E+02
 11
1.94800003E+02
 21
-1.33500000E+02
  0
LINE
  8
0
 62
7
 10
-1.94250000E+02
 20
1.32600006E+02
 11
-1.94250000E+02
 21
-1.33500000E+02
  0
LINE
  8
0
 62
7
 10
-1.94250000E+02
 20
-1.33500000E+02
 11
1.94800003E+02
 21
-1.33500000E+02
  0
ENDSEC
  0
EOF
