  0
SECTION
  2
HEADER
  9
$ACADVER
  1
AC1003
  9
$EXTMIN
 10
-1.38399994E+02
 20
-9.48000031E+01
  9
$EXTMAX
 10
1.38350006E+02
 20
9.45000000E+01
  9
$LIMMIN
 10
-1.38400994E+02
 20
-9.48010031E+01
  9
$LIMMAX
 10
1.38351006E+02
 20
9.45010000E+01
  9
$SNAPUNIT
 10
1
 20
1
  9
$SNAPBASE
 10
0
 20
0
  9
$GRIDMODE
 70
0
  9
$GRIDUNIT
 10
0
 20
0
  9
$LTSCALE
 40
4.61250000E+00
  9
$TEXTSIZE
 40
3.2
  9
$DIMTAD
 70
0
  9
$LUNITS
 70
2
  9
$LUPREC
 70
4
  9
$FILLETRAD
 40
0
  9
$AUNITS
 70
0
  9
$AUPREC
 70
0
  0
ENDSEC
  0
SECTION
  2
TABLES
  0
TABLE
  2
LTYPE
 70
2
  0
LTYPE
  2
CONTINUOUS
 70
64
  3
Solid-Line
 72
65
 73
0
 40
0
  0
LTYPE
  2
DASHED
 70
64
  3
DASHED
 72
65
 73
2
 40
.75
 49
.5
 49
-.25
  0
LTYPE
  2
HIDDEN
 70
64
  3
HIDDEN
 72
65
 73
2
 40
.375
 49
.25
 49
-.125
  0
LTYPE
  2
CENTER
 70
64
  3
CENTER
 72
65
 73
4
 40
2
 49
1.25
 49
-.25
 49
.25
 49
-.25
  0
LTYPE
  2
PHANTOM
 70
64
  3
PHANTOM
 72
65
 73
6
 40
2.5
 49
1.25
 49
-.25
 49
.25
 49
-.25
 49
.25
 49
-.25
  0
ENDTAB
  0
TABLE
  2
LAYER
 70
1
  0
LAYER
  2
1
 70
0
 62
7
  6
CONTINUOUS
 0
ENDTAB
  0
TABLE
  2
STYLE
 70
2
  0
STYLE
  2
MONOTXT
 70
0
 40
0
 41
1
 50
0
 71
0
 42
.2
  3
monotxt
  0
STYLE
  2
BIGFONT
 70
0
 40
0
 41
1
 50
0
 71
0
 42
.2
  3
txt
  4
bigfont
  0
ENDTAB
  0
ENDSEC
  0
SECTION
  2
ENTITIES
  0
LINE
  8
0
  6
CENTER
 62
6
 10
6.26652598E+01
 20
-4.95864007E+01
 11
5.73550392E+01
 21
-4.95864007E+01
  0
LINE
  8
0
 62
4
 10
6.21062263E+01
 20
-5.80864007E+01
 11
6.21062263E+01
 21
-3.95864007E+01
  0
LINE
  8
0
 62
4
 10
2.21062251E+01
 20
-5.93864038E+01
 11
2.21062251E+01
 21
-6.25864007E+01
  0
LINE
  8
0
 62
4
 10
5.89062141E+01
 20
-3.95864007E+01
 11
6.21062263E+01
 21
-3.95864007E+01
  0
LINE
  8
0
 62
4
 10
4.41062026E+01
 20
-5.93864191E+01
 11
5.89062141E+01
 21
-5.25864121E+01
  0
LINE
  8
0
  6
CENTER
 62
6
 10
3.41062270E+01
 20
-5.62450159E+01
 11
3.41062270E+01
 21
-6.51476495E+01
  0
LINE
  8
0
 62
4
 10
5.89062141E+01
 20
-3.95864007E+01
 11
5.89062141E+01
 21
-5.83864038E+01
  0
LINE
  8
0
 62
4
 10
2.21062251E+01
 20
-5.93864038E+01
 11
5.79062143E+01
 21
-5.93864038E+01
  0
LINE
  8
0
 62
4
 10
2.21062251E+01
 20
-6.25864007E+01
 11
5.76062265E+01
 21
-6.25864007E+01
  0
ARC
  8
0
 62
4
 10
5.76062265E+01
 20
-5.80864007E+01
 40
4.50000000E+00
 50
2.70000018E+02
 51
0.00000000E+00
  0
ARC
  8
0
 62
4
 10
5.79062143E+01
 20
-5.83864038E+01
 40
1.00000000E+00
 50
2.70000018E+02
 51
0.00000000E+00
  0
LINE
  8
0
  6
CENTER
 62
6
 10
-9.83938207E+01
 20
-4.58240945E+01
 11
-9.83938207E+01
 21
-6.53309686E+01
  0
LINE
  8
0
 62
4
 10
-1.08893897E+02
 20
-5.93864648E+01
 11
-1.08893897E+02
 21
-6.25864618E+01
  0
LINE
  8
0
 62
4
 10
-1.08893868E+02
 20
-5.93864995E+01
 11
-1.06682094E+02
 21
-4.68429133E+01
  0
LINE
  8
0
 62
4
 10
-1.01815177E+02
 20
-4.19759677E+01
 11
-8.82635369E+01
 21
-3.95864479E+01
  0
LINE
  8
0
  6
CENTER
 62
6
 10
-1.02930640E+02
 20
-4.95864618E+01
 11
-9.42267064E+01
 21
-4.95864618E+01
  0
LINE
  8
0
 62
4
 10
-4.08938649E+01
 20
-5.93864859E+01
 11
-4.31056381E+01
 21
-4.68429001E+01
  0
LINE
  8
0
 62
4
 10
-4.79726501E+01
 20
-4.19759765E+01
 11
-6.15241551E+01
 21
-3.95864805E+01
  0
LINE
  8
0
 62
4
 10
-1.08893897E+02
 20
-6.25864618E+01
 11
-4.08938970E+01
 21
-6.25864618E+01
  0
LINE
  8
0
 62
4
 10
-1.08893897E+02
 20
-5.93864648E+01
 11
-4.08938970E+01
 21
-5.93864648E+01
  0
LINE
  8
0
 62
4
 10
-4.08938970E+01
 20
-5.93864648E+01
 11
-4.08938970E+01
 21
-6.25864618E+01
  0
LINE
  8
0
 62
4
 10
-8.42420873E+01
 20
-5.25864618E+01
 11
-6.55457067E+01
 21
-5.25864618E+01
  0
LINE
  8
0
 62
4
 10
-6.48938970E+01
 20
-5.40535028E+01
 11
-6.48938970E+01
 21
-5.93864648E+01
  0
LINE
  8
0
 62
4
 10
-8.48938970E+01
 20
-5.40535028E+01
 11
-8.48938970E+01
 21
-5.93864648E+01
  0
LINE
  8
0
 62
4
 10
-8.78938982E+01
 20
-5.93864583E+01
 11
-8.51569966E+01
 21
-5.31828118E+01
  0
LINE
  8
0
 62
4
 10
-6.46307837E+01
 20
-5.31828233E+01
 11
-6.18938890E+01
 21
-5.93864541E+01
  0
LINE
  8
0
  6
CENTER
 62
6
 10
-5.55812749E+01
 20
-4.95864618E+01
 11
-4.73995885E+01
 21
-4.95864618E+01
  0
LINE
  8
0
  6
CENTER
 62
6
 10
-5.13938970E+01
 20
-4.58240945E+01
 11
-5.13938970E+01
 21
-6.57326868E+01
  0
LINE
  8
0
  6
CENTER
 62
6
 10
-7.48938664E+01
 20
-3.62497728E+01
 11
-7.48938664E+01
 21
-6.53309686E+01
  0
ARC
  8
0
 62
4
 10
-7.48938359E+01
 20
-2.60864198E+01
 40
1.90000000E+01
 50
2.25277893E+02
 51
3.14721976E+02
  0
ARC
  8
0
 62
4
 10
-1.00773276E+02
 20
-4.78848016E+01
 40
6.00000000E+00
 50
9.99999730E+01
 51
1.69999979E+02
  0
ARC
  8
0
 62
4
 10
-4.90145177E+01
 20
-4.78848016E+01
 40
6.00000000E+00
 50
9.99998435E+00
 51
7.99999907E+01
  0
ARC
  8
0
 62
4
 10
-8.42420873E+01
 20
-5.35864618E+01
 40
1.00000000E+00
 50
8.99999818E+01
 51
1.56194023E+02
  0
ARC
  8
0
 62
4
 10
-6.55457067E+01
 20
-5.35864618E+01
 40
1.00000000E+00
 50
2.38059908E+01
 51
8.99999818E+01
  0
CIRCLE
  8
0
 62
4
 10
-9.83938207E+01
 20
-4.95864618E+01
 40
2.75000000E+00
  0
CIRCLE
  8
0
 62
4
 10
-5.13938970E+01
 20
-4.95864618E+01
 40
2.75000000E+00
  0
LINE
  8
0
 62
4
 10
5.89062141E+01
 20
5.99136107E+01
 11
6.21062263E+01
 21
5.99136107E+01
  0
LINE
  8
0
 62
4
 10
5.89062141E+01
 20
2.19136107E+01
 11
6.21062263E+01
 21
2.19136107E+01
  0
LINE
  8
0
 62
4
 10
6.21062263E+01
 20
7.49140380E+01
 11
6.21062263E+01
 21
6.91403795E+00
  0
LINE
  8
0
  6
CENTER
 62
6
 10
1.86700793E+01
 20
4.09136107E+01
 11
6.60700410E+01
 21
4.09136107E+01
  0
LINE
  8
0
  6
CENTER
 62
6
 10
3.41062270E+01
 20
7.33367064E+01
 11
3.41062270E+01
 21
5.59626219E+01
  0
LINE
  8
0
 62
4
 10
5.89062141E+01
 20
6.91361070E+00
 11
5.89062141E+01
 21
7.49136107E+01
  0
LINE
  8
0
 62
4
 10
6.21062263E+01
 20
7.49136107E+01
 11
3.01062251E+01
 21
7.49136107E+01
  0
LINE
  8
0
 62
4
 10
6.21062263E+01
 20
6.91361070E+00
 11
3.01062251E+01
 21
6.91361070E+00
  0
LINE
  8
0
 62
4
 10
3.51062270E+01
 20
6.99136107E+01
 11
3.31062270E+01
 21
6.99136107E+01
  0
LINE
  8
0
 62
4
 10
3.51062270E+01
 20
5.89136107E+01
 11
3.31062270E+01
 21
5.89136107E+01
  0
LINE
  8
0
  6
CENTER
 62
6
 10
3.41062270E+01
 20
8.49051500E+00
 11
3.41062270E+01
 21
2.58645995E+01
  0
LINE
  8
0
  6
CENTER
 62
6
 10
6.34470616E+01
 20
1.74136107E+01
 11
2.52174922E+01
 21
1.74136107E+01
  0
LINE
  8
0
  6
CENTER
 62
6
 10
6.43460189E+01
 20
6.44136107E+01
 11
2.52174922E+01
 21
6.44136107E+01
  0
LINE
  8
0
 62
4
 10
2.21062251E+01
 20
1.49136107E+01
 11
2.21062251E+01
 21
6.69136107E+01
  0
LINE
  8
0
 62
4
 10
3.51062270E+01
 20
1.19136107E+01
 11
3.31062270E+01
 21
1.19136107E+01
  0
LINE
  8
0
 62
4
 10
3.51062270E+01
 20
2.29136107E+01
 11
3.31062270E+01
 21
2.29136107E+01
  0
LINE
  8
0
 62
4
 10
4.53082450E+01
 20
5.11572275E+01
 11
5.89062086E+01
 21
5.39135707E+01
  0
LINE
  8
0
 62
4
 10
5.89061993E+01
 20
2.79136012E+01
 11
4.53082367E+01
 21
3.06699442E+01
  0
LINE
  8
0
 62
4
 10
4.41062270E+01
 20
3.21400511E+01
 11
4.41062270E+01
 21
4.96871703E+01
  0
LINE
  8
0
 62
4
 10
5.89062141E+01
 20
3.09136107E+01
 11
4.56888686E+01
 21
3.09136107E+01
  0
LINE
  8
0
 62
4
 10
5.89062141E+01
 20
5.09136107E+01
 11
4.56888686E+01
 21
5.09136107E+01
  0
ARC
  8
0
 62
4
 10
3.51062270E+01
 20
6.44136107E+01
 40
5.50000000E+00
 50
2.70000038E+02
 51
9.00000025E+01
  0
ARC
  8
0
 62
4
 10
3.31062270E+01
 20
1.74136107E+01
 40
5.50000000E+00
 50
9.00000025E+01
 51
2.70000028E+02
  0
ARC
  8
0
 62
4
 10
3.31062270E+01
 20
6.44136107E+01
 40
5.50000000E+00
 50
9.00000025E+01
 51
2.70000028E+02
  0
ARC
  8
0
 62
4
 10
3.01062251E+01
 20
1.49136107E+01
 40
8.00000000E+00
 50
1.79999977E+02
 51
2.70000028E+02
  0
ARC
  8
0
 62
4
 10
3.01062251E+01
 20
6.69136107E+01
 40
8.00000000E+00
 50
9.00000025E+01
 51
1.79999977E+02
  0
ARC
  8
0
 62
4
 10
3.51062270E+01
 20
1.74136107E+01
 40
5.50000000E+00
 50
2.70000038E+02
 51
9.00000025E+01
  0
ARC
  8
0
 62
4
 10
4.56062270E+01
 20
4.96871703E+01
 40
1.50000000E+00
 50
1.01458642E+02
 51
1.79999977E+02
  0
ARC
  8
0
 62
4
 10
4.56062270E+01
 20
3.21400511E+01
 40
1.50000000E+00
 50
1.79999977E+02
 51
2.58541484E+02
  0
LINE
  8
0
 62
7
 10
-7.33999939E+01
 20
9.45000000E+01
 11
-7.33999939E+01
 21
8.45000000E+01
  0
TEXT
  8
0
 62
7
 10
-1.32642850E+02
 20
8.79000001E+01
 40
3.19999981E+00
  1
NEW DYNA CYLINDER
 41
1.07594937E+00
  7
MONOTXT
  0
LINE
  8
0
 62
7
 10
-1.38399994E+02
 20
8.45000000E+01
 11
-7.33999939E+01
 21
8.45000000E+01
  0
TEXT
  8
0
 62
7
 10
7.72426624E+01
 20
-9.20500031E+01
 40
4.50000000E+00
  1
KOGANEI CORP.
 41
1.04838710E+00
  7
MONOTXT
  0
LINE
  8
0
 62
7
 10
7.33500061E+01
 20
-8.48000031E+01
 11
1.38350006E+02
 21
-8.48000031E+01
  0
LINE
  8
0
 62
7
 10
7.33500061E+01
 20
-8.48000031E+01
 11
7.33500061E+01
 21
-9.48000031E+01
  0
TEXT
  8
0
 62
7
 10
9.35071493E+01
 20
8.79000001E+01
 40
3.19999981E+00
  1
Ver. 1.0
 41
1.08108108E+00
  7
MONOTXT
  0
LINE
  8
0
 62
7
 10
7.33500061E+01
 20
8.45000000E+01
 11
1.38350006E+02
 21
8.45000000E+01
  0
LINE
  8
0
 62
7
 10
7.33500061E+01
 20
9.45000000E+01
 11
7.33500061E+01
 21
8.45000000E+01
  0
LINE
  8
0
 62
7
 10
-1.38399994E+02
 20
9.45000000E+01
 11
1.38350006E+02
 21
9.45000000E+01
  0
LINE
  8
0
 62
7
 10
1.38350006E+02
 20
9.45000000E+01
 11
1.38350006E+02
 21
-9.48000031E+01
  0
LINE
  8
0
 62
7
 10
-1.38399994E+02
 20
-9.48000031E+01
 11
1.38350006E+02
 21
-9.48000031E+01
  0
LINE
  8
0
 62
7
 10
-1.38399994E+02
 20
9.45000000E+01
 11
-1.38399994E+02
 21
-9.48000031E+01
  0
TEXT
  8
0
 62
7
 10
-1.29085994E+02
 20
7.29000001E+01
 40
3.19999981E+00
  1
MODEL:DDA50-1
 41
1.00000000E+00
  7
MONOTXT
  0
ENDSEC
  0
EOF
