  0
SECTION
  2
HEADER
  9
$ACADVER
  1
AC1003
  9
$EXTMIN
 10
-2.81250000E+02
 20
-2.09681314E+02
  9
$EXTMAX
 10
2.82099854E+02
 20
1.95500000E+02
  9
$LIMMIN
 10
-2.81251000E+02
 20
-2.09682314E+02
  9
$LIMMAX
 10
2.82100854E+02
 20
1.95501000E+02
  9
$SNAPUNIT
 10
1
 20
1
  9
$SNAPBASE
 10
0
 20
0
  9
$GRIDMODE
 70
0
  9
$GRIDUNIT
 10
0
 20
0
  9
$LTSCALE
 40
9.38916423E+00
  9
$TEXTSIZE
 40
3.2
  9
$DIMTAD
 70
0
  9
$LUNITS
 70
2
  9
$LUPREC
 70
4
  9
$FILLETRAD
 40
0
  9
$AUNITS
 70
0
  9
$AUPREC
 70
0
  0
ENDSEC
  0
SECTION
  2
TABLES
  0
TABLE
  2
LTYPE
 70
2
  0
LTYPE
  2
CONTINUOUS
 70
64
  3
Solid-Line
 72
65
 73
0
 40
0
  0
LTYPE
  2
DASHED
 70
64
  3
DASHED
 72
65
 73
2
 40
.75
 49
.5
 49
-.25
  0
LTYPE
  2
HIDDEN
 70
64
  3
HIDDEN
 72
65
 73
2
 40
.375
 49
.25
 49
-.125
  0
LTYPE
  2
CENTER
 70
64
  3
CENTER
 72
65
 73
4
 40
2
 49
1.25
 49
-.25
 49
.25
 49
-.25
  0
LTYPE
  2
PHANTOM
 70
64
  3
PHANTOM
 72
65
 73
6
 40
2.5
 49
1.25
 49
-.25
 49
.25
 49
-.25
 49
.25
 49
-.25
  0
ENDTAB
  0
TABLE
  2
LAYER
 70
1
  0
LAYER
  2
1
 70
0
 62
7
  6
CONTINUOUS
 0
ENDTAB
  0
TABLE
  2
STYLE
 70
2
  0
STYLE
  2
MONOTXT
 70
0
 40
0
 41
1
 50
0
 71
0
 42
.2
  3
monotxt
  0
STYLE
  2
BIGFONT
 70
0
 40
0
 41
1
 50
0
 71
0
 42
.2
  3
txt
  4
bigfont
  0
ENDTAB
  0
ENDSEC
  0
SECTION
  2
ENTITIES
  0
LINE
  8
0
  6
CENTER
 62
6
 10
4.32123608E+01
 20
-1.21505700E+02
 11
4.32123608E+01
 21
-1.43184106E+02
  0
LINE
  8
0
  6
CENTER
 62
6
 10
1.23212361E+02
 20
-1.43184106E+02
 11
1.23212361E+02
 21
-1.21505700E+02
  0
LINE
  8
0
 62
4
 10
1.38712361E+02
 20
-1.27681314E+02
 11
1.38712361E+02
 21
-1.39681314E+02
  0
LINE
  8
0
 62
4
 10
1.12841086E+02
 20
-1.25681314E+02
 11
1.36712361E+02
 21
-1.25681314E+02
  0
LINE
  8
0
 62
4
 10
1.07855927E+02
 20
-1.21066290E+02
 11
1.05147025E+02
 21
-8.59874477E+01
  0
LINE
  8
0
 62
4
 10
2.77123608E+01
 20
-1.39681314E+02
 11
2.77123608E+01
 21
-1.27681314E+02
  0
LINE
  8
0
 62
4
 10
6.12776404E+01
 20
-8.59874335E+01
 11
5.85687386E+01
 21
-1.21066275E+02
  0
LINE
  8
0
 62
4
 10
2.97123608E+01
 20
-1.25681314E+02
 11
5.35835766E+01
 21
-1.25681314E+02
  0
LINE
  8
0
 62
4
 10
2.77123608E+01
 20
-1.39681314E+02
 11
1.38712361E+02
 21
-1.39681314E+02
  0
LINE
  8
0
  6
CENTER
 62
6
 10
8.32123622E+01
 20
-6.25702601E+01
 11
8.32123622E+01
 21
-1.41853509E+02
  0
ARC
  8
0
 62
4
 10
2.97123608E+01
 20
-1.27681314E+02
 40
2.00000000E+00
 50
8.99999818E+01
 51
1.79999964E+02
  0
ARC
  8
0
 62
4
 10
8.32123622E+01
 20
-8.76813136E+01
 40
2.20000000E+01
 50
4.41582316E+00
 51
1.75584165E+02
  0
ARC
  8
0
 62
4
 10
5.35835766E+01
 20
-1.20681314E+02
 40
5.00000000E+00
 50
2.70000182E+02
 51
3.55584190E+02
  0
ARC
  8
0
 62
4
 10
1.36712361E+02
 20
-1.27681314E+02
 40
2.00000000E+00
 50
3.59721781E-05
 51
8.99999818E+01
  0
ARC
  8
0
 62
4
 10
1.12841086E+02
 20
-1.20681314E+02
 40
5.00000000E+00
 50
1.84415835E+02
 51
2.69999854E+02
  0
LINE
  8
0
  6
CENTER
 62
6
 10
1.01318100E+02
 20
-6.62031321E+01
 11
6.41310824E+01
 21
-6.61583158E+01
  0
LINE
  8
0
 62
4
 10
9.82499460E+01
 20
-5.84803978E+01
 11
8.32516841E+01
 21
-5.70280117E+01
  0
LINE
  8
0
 62
4
 10
6.82500158E+01
 20
-5.84442505E+01
 11
8.32517355E+01
 21
-5.70280219E+01
  0
LINE
  8
0
 62
4
 10
9.37119026E+01
 20
-5.51939824E+01
 11
8.32551407E+01
 21
-5.41813814E+01
  0
LINE
  8
0
 62
4
 10
7.27959667E+01
 20
-5.51687683E+01
 11
8.32551392E+01
 21
-5.41813762E+01
  0
LINE
  8
0
 62
4
 10
9.82499757E+01
 20
-5.84803737E+01
 11
9.82341546E+01
 21
-7.16081759E+01
  0
LINE
  8
0
 62
4
 10
6.82499974E+01
 20
-5.84442342E+01
 11
6.82341818E+01
 21
-7.15675272E+01
  0
LINE
  8
0
 62
4
 10
9.55757011E+01
 20
-6.94838453E+01
 11
9.48758463E+01
 21
-6.41179565E+01
  0
LINE
  8
0
 62
4
 10
7.27959504E+01
 20
-5.51687860E+01
 11
7.24129314E+01
 21
-5.80512562E+01
  0
LINE
  8
0
 62
4
 10
9.82431766E+01
 20
-6.41220169E+01
 11
9.48758690E+01
 21
-6.41179588E+01
  0
LINE
  8
0
 62
4
 10
7.16105055E+01
 20
-6.40899204E+01
 11
6.82431984E+01
 21
-6.40858622E+01
  0
LINE
  8
0
 62
4
 10
9.40879906E+01
 20
-5.80773521E+01
 11
9.37119203E+01
 21
-5.51939670E+01
  0
LINE
  8
0
 62
4
 10
7.16105223E+01
 20
-6.40899139E+01
 11
7.08982112E+01
 21
-6.94505241E+01
  0
CIRCLE
  8
0
 62
4
 10
8.32123622E+01
 20
-8.96813136E+01
 40
1.25000000E+01
  0
LINE
  8
0
  6
CENTER
 62
6
 10
5.72337460E+01
 20
-8.96813136E+01
 11
1.09030927E+02
 21
-8.96813136E+01
  0
LINE
  8
0
 62
4
 10
-1.73616534E+02
 20
-6.56802742E+01
 11
-1.50616534E+02
 21
-6.56806661E+01
  0
LINE
  8
0
  6
CENTER
 62
6
 10
-6.31164368E+01
 20
-5.99745459E+01
 11
-6.31178493E+01
 21
-1.42871793E+02
  0
LINE
  8
0
 62
4
 10
-5.16177949E+01
 20
-1.39682353E+02
 11
-7.46177949E+01
 21
-1.39681961E+02
  0
LINE
  8
0
 62
4
 10
-5.16165340E+01
 20
-6.56823682E+01
 11
-5.16177949E+01
 21
-1.39682353E+02
  0
LINE
  8
0
 62
4
 10
-7.46165340E+01
 20
-6.56819611E+01
 11
-7.46177949E+01
 21
-1.39681961E+02
  0
LINE
  8
0
 62
4
 10
-5.16175564E+01
 20
-1.25682315E+02
 11
-7.46175564E+01
 21
-1.25681923E+02
  0
LINE
  8
0
 62
4
 10
-5.16165340E+01
 20
-6.56823530E+01
 11
-7.46165340E+01
 21
-6.56819611E+01
  0
LINE
  8
0
 62
4
 10
-1.73617795E+02
 20
-1.39680274E+02
 11
-1.50617795E+02
 21
-1.39680666E+02
  0
LINE
  8
0
 62
4
 10
-1.73617556E+02
 20
-1.25680236E+02
 11
-1.50617556E+02
 21
-1.25680628E+02
  0
LINE
  8
0
  6
CENTER
 62
6
 10
-1.62116437E+02
 20
-5.99728591E+01
 11
-1.62117849E+02
 21
-1.42870106E+02
  0
LINE
  8
0
 62
4
 10
-1.50616534E+02
 20
-6.56806661E+01
 11
-1.50617795E+02
 21
-1.39680666E+02
  0
LINE
  8
0
 62
4
 10
-1.73616534E+02
 20
-6.56802895E+01
 11
-1.73617795E+02
 21
-1.39680274E+02
  0
LINE
  8
0
  6
CENTER
 62
6
 10
-1.36117568E+02
 20
-1.22771871E+02
 11
-1.36117246E+02
 21
-1.03885320E+02
  0
LINE
  8
0
  6
CENTER
 62
6
 10
-8.91163725E+01
 20
-5.62034730E+01
 11
-8.91167082E+01
 21
-7.59060945E+01
  0
LINE
  8
0
  6
CENTER
 62
6
 10
-7.91633870E+01
 20
-6.61819141E+01
 11
-9.88659474E+01
 21
-6.61815784E+01
  0
LINE
  8
0
  6
CENTER
 62
6
 10
-1.36116380E+02
 20
-5.66272328E+01
 11
-1.36116677E+02
 21
-7.40652821E+01
  0
LINE
  8
0
  6
CENTER
 62
6
 10
-7.89309573E+01
 20
-1.13181933E+02
 11
-9.86335940E+01
 21
-1.13181598E+02
  0
LINE
  8
0
  6
CENTER
 62
6
 10
-8.91175843E+01
 20
-1.22842786E+02
 11
-8.91172630E+01
 21
-1.03985730E+02
  0
LINE
  8
0
  6
CENTER
 62
6
 10
-1.26729397E+02
 20
-6.61811036E+01
 11
-1.45849086E+02
 21
-6.61807779E+01
  0
LINE
  8
0
  6
CENTER
 62
6
 10
-1.27080020E+02
 20
-1.13181113E+02
 11
-1.45849887E+02
 21
-1.13180793E+02
  0
LINE
  8
0
 62
4
 10
-1.74616699E+02
 20
-7.71802572E+01
 11
-1.73616730E+02
 21
-7.71802742E+01
  0
LINE
  8
0
 62
4
 10
-5.06167758E+01
 20
-7.71823700E+01
 11
-5.16167300E+01
 21
-7.71823530E+01
  0
LINE
  8
0
 62
4
 10
-1.75617159E+02
 20
-1.01180228E+02
 11
-1.74617167E+02
 21
-1.02180239E+02
  0
LINE
  8
0
 62
4
 10
-1.75616747E+02
 20
-7.81802401E+01
 11
-1.75617139E+02
 21
-1.01180240E+02
  0
LINE
  8
0
 62
4
 10
-5.16171559E+01
 20
-1.02182353E+02
 11
-5.06172017E+01
 21
-1.02182370E+02
  0
LINE
  8
0
 62
4
 10
-1.74617125E+02
 20
-1.02180257E+02
 11
-1.74616699E+02
 21
-7.71802572E+01
  0
LINE
  8
0
 62
4
 10
-4.96167623E+01
 20
-7.81823870E+01
 11
-4.96171542E+01
 21
-1.01182387E+02
  0
LINE
  8
0
 62
4
 10
-4.96167757E+01
 20
-7.81823841E+01
 11
-5.06167675E+01
 21
-7.71823737E+01
  0
LINE
  8
0
 62
4
 10
-1.75616738E+02
 20
-7.81802255E+01
 11
-1.74616712E+02
 21
-7.71802491E+01
  0
LINE
  8
0
 62
4
 10
-4.96171601E+01
 20
-1.01182369E+02
 11
-5.06171860E+01
 21
-1.02182345E+02
  0
LINE
  8
0
 62
4
 10
-5.06167758E+01
 20
-7.71823700E+01
 11
-5.06172017E+01
 21
-1.02182370E+02
  0
LINE
  8
0
 62
4
 10
-1.73617156E+02
 20
-1.02180274E+02
 11
-1.74617125E+02
 21
-1.02180257E+02
  0
LINE
  8
0
 62
4
 10
-1.50616943E+02
 20
-8.96806661E+01
 11
-1.39616912E+02
 21
-8.96808535E+01
  0
LINE
  8
0
 62
4
 10
-8.56169735E+01
 20
-8.96817736E+01
 11
-7.46169582E+01
 21
-8.96819611E+01
  0
LINE
  8
0
 62
4
 10
-1.12617524E+02
 20
-1.24181290E+02
 11
-8.83139923E+01
 21
-1.21298761E+02
  0
LINE
  8
0
 62
4
 10
-1.12617508E+02
 20
-1.24181288E+02
 11
-1.36920972E+02
 21
-1.21297927E+02
  0
LINE
  8
0
 62
4
 10
-1.12616356E+02
 20
-5.51813442E+01
 11
-8.83129071E+01
 21
-5.80647027E+01
  0
LINE
  8
0
 62
4
 10
-1.12616356E+02
 20
-5.51813420E+01
 11
-1.36919888E+02
 21
-5.80638704E+01
  0
ARC
  8
0
 62
4
 10
-1.12616227E+02
 20
-4.76813136E+01
 40
7.80000000E+01
 50
2.52950159E+02
 51
2.87047884E+02
  0
ARC
  8
0
 62
4
 10
-1.11192301E+02
 20
-8.84874292E+01
 40
4.00000000E+01
 50
3.02417497E+02
 51
3.36117452E+02
  0
ARC
  8
0
 62
4
 10
-1.14041615E+02
 20
-9.08751980E+01
 40
4.00000000E+01
 50
1.22417501E+02
 51
1.56117422E+02
  0
ARC
  8
0
 62
4
 10
-1.11192342E+02
 20
-9.08752466E+01
 40
4.00000000E+01
 50
2.38805957E+01
 51
5.75805510E+01
  0
ARC
  8
0
 62
4
 10
-1.12617659E+02
 20
-1.31681314E+02
 40
7.80000000E+01
 50
7.29501639E+01
 51
1.07047889E+02
  0
ARC
  8
0
 62
4
 10
-1.14041575E+02
 20
-8.84873806E+01
 40
4.00000000E+01
 50
2.03880625E+02
 51
2.37580546E+02
  0
CIRCLE
  8
0
 62
4
 10
-1.12616943E+02
 20
-8.96813136E+01
 40
2.69999695E+01
  0
CIRCLE
  8
0
 62
4
 10
-8.91174197E+01
 20
-1.13181760E+02
 40
2.75000000E+00
  0
CIRCLE
  8
0
 62
4
 10
-1.36117282E+02
 20
-1.13180959E+02
 40
2.75000000E+00
  0
CIRCLE
  8
0
 62
4
 10
-8.91166188E+01
 20
-6.61816682E+01
 40
2.75000000E+00
  0
CIRCLE
  8
0
 62
4
 10
-1.36116482E+02
 20
-6.61808674E+01
 40
2.75000000E+00
  0
ARC
  8
0
 62
4
 10
-8.91174197E+01
 20
-1.13181760E+02
 40
7.83856201E+00
 50
1.68001979E+02
 51
2.80020415E+02
  0
ARC
  8
0
 62
4
 10
-8.91174197E+01
 20
-1.13181760E+02
 40
7.83856201E+00
 50
3.43568240E+02
 51
1.01995762E+02
  0
ARC
  8
0
 62
4
 10
-1.36117282E+02
 20
-1.13180959E+02
 40
7.83856201E+00
 50
2.59977631E+02
 51
1.19960615E+01
  0
ARC
  8
0
 62
4
 10
-1.36117282E+02
 20
-1.13180959E+02
 40
7.83856201E+00
 50
7.80022840E+01
 51
1.96429800E+02
  0
ARC
  8
0
 62
4
 10
-1.36116482E+02
 20
-6.61808674E+01
 40
7.83856201E+00
 50
1.63568243E+02
 51
2.81995760E+02
  0
ARC
  8
0
 62
4
 10
-1.36116482E+02
 20
-6.61808674E+01
 40
7.83856201E+00
 50
3.48001986E+02
 51
1.00020417E+02
  0
ARC
  8
0
 62
4
 10
-8.91166188E+01
 20
-6.61816682E+01
 40
7.83856201E+00
 50
7.99776293E+01
 51
1.91996065E+02
  0
ARC
  8
0
 62
4
 10
-8.91166188E+01
 20
-6.61816682E+01
 40
7.83856201E+00
 50
2.58002286E+02
 51
1.64298071E+01
  0
LINE
  8
0
  6
CENTER
 62
6
 10
-4.51475674E+01
 20
-8.96824632E+01
 11
-1.81058349E+02
 21
-8.96801474E+01
  0
LINE
  8
0
  6
CENTER
 62
6
 10
-1.12616287E+02
 20
-5.11744471E+01
 11
-1.12617844E+02
 21
-1.42573312E+02
  0
LINE
  8
0
  6
CENTER
 62
6
 10
2.12123646E+01
 20
7.47278508E+01
 11
1.45478993E+02
 21
7.47278508E+01
  0
LINE
  8
0
 62
4
 10
5.82123627E+01
 20
1.15922889E+02
 11
5.82123627E+01
 21
1.33460120E+02
  0
LINE
  8
0
  6
CENTER
 62
6
 10
4.32123608E+01
 20
1.05491309E+02
 11
4.32123608E+01
 21
1.43286963E+02
  0
LINE
  8
0
 62
4
 10
2.82123608E+01
 20
1.12727851E+02
 11
2.82123608E+01
 21
1.35727851E+02
  0
LINE
  8
0
 62
4
 10
1.38212361E+02
 20
1.12727851E+02
 11
2.82123608E+01
 21
1.12727851E+02
  0
LINE
  8
0
  6
CENTER
 62
6
 10
9.07123620E+01
 20
1.24227851E+02
 11
7.57123617E+01
 21
1.24227851E+02
  0
LINE
  8
0
 62
4
 10
1.08212363E+02
 20
1.33460120E+02
 11
1.08212363E+02
 21
1.15922889E+02
  0
LINE
  8
0
  6
CENTER
 62
6
 10
6.12973236E+01
 20
1.24227851E+02
 11
2.15362782E+01
 21
1.24227851E+02
  0
LINE
  8
0
 62
4
 10
5.82123627E+01
 20
1.59955968E+01
 11
5.82123627E+01
 21
3.35327977E+01
  0
LINE
  8
0
  6
CENTER
 62
6
 10
1.23212361E+02
 20
1.43286963E+02
 11
1.23212361E+02
 21
1.05491309E+02
  0
LINE
  8
0
 62
4
 10
1.38212361E+02
 20
1.35727851E+02
 11
1.38212361E+02
 21
1.12727851E+02
  0
LINE
  8
0
 62
4
 10
1.38212361E+02
 20
1.35727851E+02
 11
2.82123608E+01
 21
1.35727851E+02
  0
LINE
  8
0
 62
4
 10
2.82123608E+01
 20
1.37278508E+01
 11
2.82123608E+01
 21
3.67278508E+01
  0
LINE
  8
0
  6
CENTER
 62
6
 10
4.32123608E+01
 20
6.16872301E+00
 11
4.32123608E+01
 21
4.39643926E+01
  0
LINE
  8
0
  6
CENTER
 62
6
 10
7.57123617E+01
 20
2.52278508E+01
 11
9.07123620E+01
 21
2.52278508E+01
  0
LINE
  8
0
  6
CENTER
 62
6
 10
2.15362782E+01
 20
2.52278508E+01
 11
6.12973236E+01
 21
2.52278508E+01
  0
LINE
  8
0
  6
CENTER
 62
6
 10
1.05127340E+02
 20
2.52278508E+01
 11
1.44888386E+02
 21
2.52278508E+01
  0
LINE
  8
0
 62
4
 10
2.82123608E+01
 20
3.67278508E+01
 11
1.38212361E+02
 21
3.67278508E+01
  0
LINE
  8
0
 62
4
 10
1.38212361E+02
 20
3.67278508E+01
 11
1.38212361E+02
 21
1.37278508E+01
  0
LINE
  8
0
  6
CENTER
 62
6
 10
1.23212361E+02
 20
4.39643926E+01
 11
1.23212361E+02
 21
6.16872301E+00
  0
LINE
  8
0
 62
4
 10
1.08212363E+02
 20
3.35327977E+01
 11
1.08212363E+02
 21
1.59955968E+01
  0
LINE
  8
0
  6
CENTER
 62
6
 10
1.44888386E+02
 20
1.24227851E+02
 11
1.05127340E+02
 21
1.24227851E+02
  0
LINE
  8
0
 62
4
 10
2.82123608E+01
 20
1.37278508E+01
 11
1.38212361E+02
 21
1.37278508E+01
  0
ARC
  8
0
 62
4
 10
4.32123608E+01
 20
1.24227851E+02
 40
1.20000000E+01
 50
1.06597888E+02
 51
2.53402149E+02
  0
ARC
  8
0
 62
4
 10
4.32123608E+01
 20
1.24227851E+02
 40
1.20000000E+01
 50
2.86597924E+02
 51
7.34021308E+01
  0
CIRCLE
  8
0
 62
4
 10
4.32123608E+01
 20
1.24227851E+02
 40
6.00000000E+00
  0
ARC
  8
0
 62
4
 10
1.23212361E+02
 20
1.24227851E+02
 40
1.20000000E+01
 50
2.86597924E+02
 51
7.34021308E+01
  0
CIRCLE
  8
0
 62
4
 10
8.32123622E+01
 20
1.24227851E+02
 40
4.00000000E+00
  0
CIRCLE
  8
0
 62
4
 10
8.32123622E+01
 20
1.24227851E+02
 40
2.00000000E+00
  0
ARC
  8
0
 62
4
 10
1.23212361E+02
 20
1.24227851E+02
 40
1.20000000E+01
 50
1.06597833E+02
 51
2.53402149E+02
  0
CIRCLE
  8
0
 62
4
 10
1.23212361E+02
 20
1.24227851E+02
 40
6.00000000E+00
  0
ARC
  8
0
 62
4
 10
4.32123608E+01
 20
2.52278508E+01
 40
1.20000000E+01
 50
1.06597833E+02
 51
2.53402094E+02
  0
ARC
  8
0
 62
4
 10
4.32123608E+01
 20
2.52278508E+01
 40
1.20000000E+01
 50
2.86597869E+02
 51
7.34021308E+01
  0
CIRCLE
  8
0
 62
4
 10
4.32123608E+01
 20
2.52278508E+01
 40
6.00000000E+00
  0
ARC
  8
0
 62
4
 10
1.23212361E+02
 20
2.52278508E+01
 40
1.20000000E+01
 50
2.86597869E+02
 51
7.34021308E+01
  0
CIRCLE
  8
0
 62
4
 10
8.32123622E+01
 20
2.52278508E+01
 40
4.00000000E+00
  0
CIRCLE
  8
0
 62
4
 10
8.32123622E+01
 20
2.52278508E+01
 40
2.00000000E+00
  0
ARC
  8
0
 62
4
 10
1.23212361E+02
 20
2.52278508E+01
 40
1.20000000E+01
 50
1.06597833E+02
 51
2.53402149E+02
  0
CIRCLE
  8
0
 62
4
 10
1.23212361E+02
 20
2.52278508E+01
 40
6.00000000E+00
  0
LINE
  8
0
  6
CENTER
 62
6
 10
1.03696669E+02
 20
5.12278203E+01
 11
6.19761776E+01
 21
5.12278203E+01
  0
LINE
  8
0
  6
CENTER
 62
6
 10
1.06225184E+02
 20
9.82277593E+01
 11
6.37461380E+01
 21
9.82277593E+01
  0
LINE
  8
0
 62
4
 10
7.07123627E+01
 20
1.27278813E+01
 11
9.57123627E+01
 21
1.27278813E+01
  0
LINE
  8
0
 62
4
 10
7.07123627E+01
 20
1.36727820E+02
 11
9.57123627E+01
 21
1.36727820E+02
  0
LINE
  8
0
 62
4
 10
7.17124237E+01
 20
1.37727820E+02
 11
9.47123622E+01
 21
1.37727820E+02
  0
LINE
  8
0
 62
4
 10
7.17124237E+01
 20
1.17278508E+01
 11
9.47123622E+01
 21
1.17278508E+01
  0
LINE
  8
0
 62
4
 10
7.07123627E+01
 20
1.27278508E+01
 11
7.07123627E+01
 21
1.37278508E+01
  0
LINE
  8
0
 62
4
 10
7.07123846E+01
 20
1.27278356E+01
 11
7.17123886E+01
 21
1.17278375E+01
  0
LINE
  8
0
 62
4
 10
9.47123926E+01
 20
1.17278179E+01
 11
9.57123813E+01
 21
1.27277882E+01
  0
LINE
  8
0
 62
4
 10
9.47123801E+01
 20
1.37727789E+02
 11
9.57123687E+01
 21
1.36727818E+02
  0
LINE
  8
0
 62
4
 10
9.57123627E+01
 20
1.27278203E+01
 11
9.57123627E+01
 21
1.37278508E+01
  0
LINE
  8
0
 62
4
 10
7.07123765E+01
 20
1.36727775E+02
 11
7.17124022E+01
 21
1.37727795E+02
  0
LINE
  8
0
 62
4
 10
6.82123627E+01
 20
3.67278508E+01
 11
6.82123627E+01
 21
6.06899175E+01
  0
LINE
  8
0
 62
4
 10
9.57123627E+01
 20
1.35727851E+02
 11
9.57123627E+01
 21
1.36727820E+02
  0
LINE
  8
0
 62
4
 10
7.07123627E+01
 20
1.35727851E+02
 11
7.07123627E+01
 21
1.36727820E+02
  0
LINE
  8
0
 62
4
 10
9.47991006E+01
 20
9.80795413E+01
 11
9.36704049E+01
 21
7.47278349E+01
  0
LINE
  8
0
 62
4
 10
9.82123627E+01
 20
3.67278508E+01
 11
9.82123627E+01
 21
6.06899175E+01
  0
LINE
  8
0
 62
4
 10
9.36703435E+01
 20
7.47278133E+01
 11
9.47990390E+01
 21
5.13761388E+01
  0
LINE
  8
0
 62
4
 10
9.57979340E+01
 20
5.04244145E+01
 11
9.82123627E+01
 21
5.04244145E+01
  0
LINE
  8
0
 62
4
 10
9.57979340E+01
 20
9.90312871E+01
 11
9.82123627E+01
 21
9.90312871E+01
  0
LINE
  8
0
 62
4
 10
9.62387394E+01
 20
8.76055882E+01
 11
9.48450760E+01
 21
7.47277784E+01
  0
LINE
  8
0
 62
4
 10
9.48450627E+01
 20
7.47277983E+01
 11
9.62387227E+01
 21
6.18500189E+01
  0
LINE
  8
0
 62
4
 10
9.75312104E+01
 20
6.06899175E+01
 11
9.82123627E+01
 21
6.06899175E+01
  0
LINE
  8
0
 62
4
 10
9.75312104E+01
 20
8.87657231E+01
 11
9.82123627E+01
 21
8.87657231E+01
  0
LINE
  8
0
 62
4
 10
9.82123627E+01
 20
8.87657231E+01
 11
9.82123627E+01
 21
1.12727820E+02
  0
LINE
  8
0
 62
4
 10
7.27543867E+01
 20
7.47278118E+01
 11
7.16256928E+01
 21
9.80794877E+01
  0
LINE
  8
0
 62
4
 10
7.16256948E+01
 20
5.13761348E+01
 11
7.27543890E+01
 21
7.47277788E+01
  0
LINE
  8
0
 62
4
 10
6.82123627E+01
 20
5.04244145E+01
 11
7.06268524E+01
 21
5.04244145E+01
  0
LINE
  8
0
 62
4
 10
6.82123627E+01
 20
9.90312871E+01
 11
7.06268524E+01
 21
9.90312871E+01
  0
LINE
  8
0
 62
4
 10
7.15797260E+01
 20
7.47277916E+01
 11
7.01860668E+01
 21
8.76055710E+01
  0
LINE
  8
0
 62
4
 10
7.01860289E+01
 20
6.18500132E+01
 11
7.15796931E+01
 21
7.47278230E+01
  0
LINE
  8
0
 62
4
 10
6.82123627E+01
 20
6.06899175E+01
 11
6.88935761E+01
 21
6.06899175E+01
  0
LINE
  8
0
 62
4
 10
6.82123627E+01
 20
8.87657231E+01
 11
6.88935761E+01
 21
8.87657231E+01
  0
LINE
  8
0
 62
4
 10
6.82123627E+01
 20
8.87657231E+01
 11
6.82123627E+01
 21
1.12727820E+02
  0
ARC
  8
0
 62
4
 10
9.57979340E+01
 20
9.80312261E+01
 40
1.00000000E+00
 50
8.99991625E+01
 51
1.77232699E+02
  0
ARC
  8
0
 62
4
 10
9.57979340E+01
 20
5.14244145E+01
 40
1.00000000E+00
 50
1.82767301E+02
 51
2.70000838E+02
  0
ARC
  8
0
 62
4
 10
9.75312104E+01
 20
8.74657353E+01
 40
1.29999924E+00
 50
8.99996541E+01
 51
1.73823287E+02
  0
ARC
  8
0
 62
4
 10
9.75312104E+01
 20
6.19899663E+01
 40
1.29999924E+00
 50
1.86176713E+02
 51
2.70000674E+02
  0
ARC
  8
0
 62
4
 10
7.06268524E+01
 20
9.80312871E+01
 40
1.00000000E+00
 50
2.76733737E+00
 51
9.00007467E+01
  0
ARC
  8
0
 62
4
 10
7.06268524E+01
 20
5.14244145E+01
 40
1.00000000E+00
 50
2.69999253E+02
 51
3.57232736E+02
  0
ARC
  8
0
 62
4
 10
6.88935761E+01
 20
8.74657353E+01
 40
1.29999924E+00
 50
6.17674836E+00
 51
9.00003096E+01
  0
ARC
  8
0
 62
4
 10
6.88935761E+01
 20
6.19899663E+01
 40
1.29999924E+00
 50
2.69999417E+02
 51
3.53823327E+02
  0
LINE
  8
0
  6
CENTER
 62
6
 10
8.32123622E+01
 20
5.30011645E+00
 11
8.32123622E+01
 21
1.42477851E+02
  0
TEXT
  8
0
 62
7
 10
-2.67600562E+02
 20
1.57350000E+02
 40
6.30000019E+00
  1
MODEL:DDA50-11T
 41
1.00000015E+00
  7
MONOTXT
  0
TEXT
  8
0
 62
7
 10
-2.73900291E+02
 20
1.82350000E+02
 40
6.30000019E+00
  1
NEW DYNA CYLINDER
 41
1.07594953E+00
  7
MONOTXT
  0
LINE
  8
0
 62
7
 10
2.82099854E+02
 20
1.95500000E+02
 11
2.82099854E+02
 21
-1.95000000E+02
  0
LINE
  8
0
 62
7
 10
-2.81250000E+02
 20
1.95500000E+02
 11
2.82099854E+02
 21
1.95500000E+02
  0
LINE
  8
0
 62
7
 10
-2.81250000E+02
 20
1.95500000E+02
 11
-2.81250000E+02
 21
-1.95000000E+02
  0
LINE
  8
0
 62
7
 10
-2.81250000E+02
 20
-1.95000000E+02
 11
2.82099854E+02
 21
-1.95000000E+02
  0
LINE
  8
0
 62
7
 10
1.62099976E+02
 20
-1.75000000E+02
 11
1.62099976E+02
 21
-1.95000000E+02
  0
LINE
  8
0
 62
7
 10
1.62099976E+02
 20
-1.75000000E+02
 11
2.82099854E+02
 21
-1.75000000E+02
  0
LINE
  8
0
 62
7
 10
1.62099976E+02
 20
1.75500000E+02
 11
2.82099854E+02
 21
1.75500000E+02
  0
LINE
  8
0
 62
7
 10
-2.81250000E+02
 20
1.75500000E+02
 11
-1.61250000E+02
 21
1.75500000E+02
  0
LINE
  8
0
 62
7
 10
1.62099976E+02
 20
1.95500000E+02
 11
1.62099976E+02
 21
1.75500000E+02
  0
LINE
  8
0
 62
7
 10
-1.61250000E+02
 20
1.95500000E+02
 11
-1.61250000E+02
 21
1.75500000E+02
  0
TEXT
  8
0
 62
7
 10
1.97799690E+02
 20
1.82350000E+02
 40
6.30000019E+00
  1
Ver. 1.0
 41
1.08108124E+00
  7
MONOTXT
  0
TEXT
  8
0
 62
7
 10
1.69885289E+02
 20
-1.89500000E+02
 40
9.00000000E+00
  1
KOGANEI CORP.
 41
1.04838710E+00
  7
MONOTXT
  0
ENDSEC
  0
EOF
