  0
SECTION
  2
HEADER
  9
$ACADVER
  1
AC1003
  9
$EXTMIN
 10
-1.94250000E+02
 20
-1.33500000E+02
  9
$EXTMAX
 10
1.94800003E+02
 20
1.32600006E+02
  9
$LIMMIN
 10
-1.94251000E+02
 20
-1.33501000E+02
  9
$LIMMAX
 10
1.94801003E+02
 20
1.32601006E+02
  9
$SNAPUNIT
 10
1
 20
1
  9
$SNAPBASE
 10
0
 20
0
  9
$GRIDMODE
 70
0
  9
$GRIDUNIT
 10
0
 20
0
  9
$LTSCALE
 40
6.48416672E+00
  9
$TEXTSIZE
 40
3.2
  9
$DIMTAD
 70
0
  9
$LUNITS
 70
2
  9
$LUPREC
 70
4
  9
$FILLETRAD
 40
0
  9
$AUNITS
 70
0
  9
$AUPREC
 70
0
  0
ENDSEC
  0
SECTION
  2
TABLES
  0
TABLE
  2
LTYPE
 70
2
  0
LTYPE
  2
CONTINUOUS
 70
64
  3
Solid-Line
 72
65
 73
0
 40
0
  0
LTYPE
  2
DASHED
 70
64
  3
DASHED
 72
65
 73
2
 40
.75
 49
.5
 49
-.25
  0
LTYPE
  2
HIDDEN
 70
64
  3
HIDDEN
 72
65
 73
2
 40
.375
 49
.25
 49
-.125
  0
LTYPE
  2
CENTER
 70
64
  3
CENTER
 72
65
 73
4
 40
2
 49
1.25
 49
-.25
 49
.25
 49
-.25
  0
LTYPE
  2
PHANTOM
 70
64
  3
PHANTOM
 72
65
 73
6
 40
2.5
 49
1.25
 49
-.25
 49
.25
 49
-.25
 49
.25
 49
-.25
  0
ENDTAB
  0
TABLE
  2
LAYER
 70
1
  0
LAYER
  2
1
 70
0
 62
7
  6
CONTINUOUS
 0
ENDTAB
  0
TABLE
  2
STYLE
 70
2
  0
STYLE
  2
MONOTXT
 70
0
 40
0
 41
1
 50
0
 71
0
 42
.2
  3
monotxt
  0
STYLE
  2
BIGFONT
 70
0
 40
0
 41
1
 50
0
 71
0
 42
.2
  3
txt
  4
bigfont
  0
ENDTAB
  0
ENDSEC
  0
SECTION
  2
ENTITIES
  0
LINE
  8
0
  6
CENTER
 62
6
 10
5.17066449E+01
 20
-8.51273710E+01
 11
3.27324246E+01
 21
-8.51273710E+01
  0
LINE
  8
0
 62
4
 10
3.52875393E+01
 20
-9.26273863E+01
 11
7.42874707E+01
 21
-9.26273863E+01
  0
LINE
  8
0
 62
4
 10
4.42875393E+01
 20
-8.36273863E+01
 11
7.07317532E+01
 21
-8.36273863E+01
  0
LINE
  8
0
 62
4
 10
3.77875393E+01
 20
-7.56273863E+01
 11
5.02875393E+01
 21
-7.56273863E+01
  0
LINE
  8
0
 62
4
 10
3.72875393E+01
 20
-8.56273863E+01
 11
3.72875393E+01
 21
-9.26273863E+01
  0
LINE
  8
0
 62
4
 10
7.42874729E+01
 20
-9.26273887E+01
 11
7.16858991E+01
 21
-8.43282422E+01
  0
LINE
  8
0
 62
4
 10
3.52875393E+01
 20
-7.81273863E+01
 11
3.52875393E+01
 21
-9.26273863E+01
  0
LINE
  8
0
  6
CENTER
 62
6
 10
6.02875393E+01
 20
-7.87609007E+01
 11
6.02875393E+01
 21
-9.77149870E+01
  0
LINE
  8
0
 62
4
 10
3.82875393E+01
 20
-8.46273863E+01
 11
4.92875393E+01
 21
-8.46273863E+01
  0
LINE
  8
0
 62
4
 10
5.02875393E+01
 20
-8.36273863E+01
 11
5.02875393E+01
 21
-7.56273863E+01
  0
ARC
  8
0
 62
4
 10
3.82875393E+01
 20
-8.56273863E+01
 40
1.00000000E+00
 50
8.99999818E+01
 51
1.79999964E+02
  0
ARC
  8
0
 62
4
 10
3.77875393E+01
 20
-7.81273863E+01
 40
2.50000000E+00
 50
8.99999818E+01
 51
1.79999964E+02
  0
ARC
  8
0
 62
4
 10
7.07317532E+01
 20
-8.46273863E+01
 40
1.00000000E+00
 50
1.74051559E+01
 51
9.00008562E+01
  0
ARC
  8
0
 62
4
 10
4.92875393E+01
 20
-8.36273863E+01
 40
1.00000000E+00
 50
2.70000018E+02
 51
0.00000000E+00
  0
ARC
  8
0
 62
4
 10
4.42875393E+01
 20
-8.46273863E+01
 40
1.00000000E+00
 50
8.99999818E+01
 51
1.79999964E+02
  0
LINE
  8
0
  6
CENTER
 62
6
 10
-1.20212583E+02
 20
-9.47183439E+01
 11
-1.20212583E+02
 21
-7.58317930E+01
  0
LINE
  8
0
 62
4
 10
-4.42125217E+01
 20
-9.26273863E+01
 11
-4.42125217E+01
 21
-8.66273863E+01
  0
LINE
  8
0
  6
CENTER
 62
6
 10
-5.52125217E+01
 20
-9.73270018E+01
 11
-5.52125217E+01
 21
-7.91456358E+01
  0
LINE
  8
0
 62
4
 10
-1.30126169E+02
 20
-9.26273318E+01
 11
-1.27742070E+02
 21
-7.81064289E+01
  0
LINE
  8
0
 62
4
 10
-1.12182833E+02
 20
-7.81064708E+01
 11
-1.09798739E+02
 21
-9.26273436E+01
  0
LINE
  8
0
  6
CENTER
 62
6
 10
-6.30261203E+01
 20
-8.51274321E+01
 11
-8.27287571E+01
 21
-8.51274321E+01
  0
LINE
  8
0
  6
CENTER
 62
6
 10
-7.32125827E+01
 20
-9.47884581E+01
 11
-7.32125827E+01
 21
-7.59314024E+01
  0
LINE
  8
0
  6
CENTER
 62
6
 10
-1.11175199E+02
 20
-8.51274321E+01
 11
-1.29945066E+02
 21
-8.51274321E+01
  0
LINE
  8
0
 62
4
 10
-6.47094089E+01
 20
-8.36273863E+01
 11
-4.72125217E+01
 21
-8.36273863E+01
  0
LINE
  8
0
 62
4
 10
-1.10722928E+02
 20
-8.26273863E+01
 11
-8.27021152E+01
 21
-8.26273863E+01
  0
LINE
  8
0
 62
4
 10
-1.46212522E+02
 20
-8.36273863E+01
 11
-1.28715634E+02
 21
-8.36273863E+01
  0
LINE
  8
0
  6
CENTER
 62
6
 10
-1.38212522E+02
 20
-7.91456358E+01
 11
-1.38212522E+02
 21
-9.73270018E+01
  0
LINE
  8
0
 62
4
 10
-7.82877781E+01
 20
-7.56273863E+01
 11
-6.86373264E+01
 21
-7.56273863E+01
  0
LINE
  8
0
 62
4
 10
-1.10017606E+02
 20
-8.66273863E+01
 11
-8.34074070E+01
 21
-8.66273863E+01
  0
LINE
  8
0
 62
4
 10
-6.56829517E+01
 20
-7.81064474E+01
 11
-6.32988588E+01
 21
-9.26273126E+01
  0
LINE
  8
0
 62
4
 10
-8.36263255E+01
 20
-9.26273026E+01
 11
-8.12422308E+01
 21
-7.81064261E+01
  0
LINE
  8
0
 62
4
 10
-1.49212522E+02
 20
-8.66273863E+01
 11
-1.49212522E+02
 21
-9.26273863E+01
  0
LINE
  8
0
 62
4
 10
-1.24787717E+02
 20
-7.56273863E+01
 11
-1.15137296E+02
 21
-7.56273863E+01
  0
LINE
  8
0
 62
4
 10
-1.49212522E+02
 20
-9.26273863E+01
 11
-4.42125217E+01
 21
-9.26273863E+01
  0
LINE
  8
0
  6
CENTER
 62
6
 10
-9.67125217E+01
 20
-7.91456358E+01
 11
-9.67125217E+01
 21
-9.73270018E+01
  0
ARC
  8
0
 62
4
 10
-1.24787717E+02
 20
-7.86273863E+01
 40
3.00000000E+00
 50
8.99997636E+01
 51
1.69999911E+02
  0
ARC
  8
0
 62
4
 10
-4.72125217E+01
 20
-8.66273863E+01
 40
3.00000000E+00
 50
3.59721781E-05
 51
8.99999818E+01
  0
ARC
  8
0
 62
4
 10
-8.27021152E+01
 20
-8.16273863E+01
 40
1.00000000E+00
 50
2.69999963E+02
 51
3.21152957E+02
  0
ARC
  8
0
 62
4
 10
-8.34074070E+01
 20
-8.56273863E+01
 40
1.00000000E+00
 50
2.69999963E+02
 51
3.27323979E+02
  0
ARC
  8
0
 62
4
 10
-1.10017606E+02
 20
-8.56273863E+01
 40
1.00000000E+00
 50
2.12672820E+02
 51
2.70000073E+02
  0
ARC
  8
0
 62
4
 10
-6.86373264E+01
 20
-7.86273863E+01
 40
3.00000000E+00
 50
1.00000868E+01
 51
9.00002007E+01
  0
ARC
  8
0
 62
4
 10
-7.82877781E+01
 20
-7.86273863E+01
 40
3.00000000E+00
 50
8.99999818E+01
 51
1.69999966E+02
  0
ARC
  8
0
 62
4
 10
-1.46212522E+02
 20
-8.66273863E+01
 40
3.00000000E+00
 50
8.99999818E+01
 51
1.79999964E+02
  0
ARC
  8
0
 62
4
 10
-1.10722928E+02
 20
-8.16273863E+01
 40
1.00000000E+00
 50
2.18844469E+02
 51
2.70000073E+02
  0
ARC
  8
0
 62
4
 10
-1.15137296E+02
 20
-7.86273863E+01
 40
3.00000000E+00
 50
9.99999460E+00
 51
8.99999818E+01
  0
CIRCLE
  8
0
 62
4
 10
-1.20212583E+02
 20
-8.51274321E+01
 40
2.75000000E+00
  0
CIRCLE
  8
0
 62
4
 10
-7.32125827E+01
 20
-8.51274321E+01
 40
2.75000000E+00
  0
LINE
  8
0
 62
4
 10
5.02875393E+01
 20
3.43728197E+01
 11
5.02875393E+01
 21
9.63724993E+01
  0
LINE
  8
0
  6
CENTER
 62
6
 10
3.28237332E+01
 20
4.18726519E+01
 11
5.37026089E+01
 21
4.18726519E+01
  0
LINE
  8
0
  6
CENTER
 62
6
 10
3.25637844E+01
 20
8.88725908E+01
 11
5.24051922E+01
 21
8.88725908E+01
  0
LINE
  8
0
  6
CENTER
 62
6
 10
6.29147747E+01
 20
6.53726519E+01
 11
2.57727078E+01
 21
6.53726519E+01
  0
LINE
  8
0
  6
CENTER
 62
6
 10
6.02875393E+01
 20
3.13726519E+01
 11
6.02875393E+01
 21
1.63726519E+01
  0
LINE
  8
0
 62
4
 10
4.23902177E+01
 20
8.08331258E+01
 11
3.80528780E+01
 21
7.88149736E+01
  0
LINE
  8
0
 62
4
 10
5.12875393E+01
 20
3.33726519E+01
 11
7.02875393E+01
 21
3.33726519E+01
  0
LINE
  8
0
 62
4
 10
7.40463383E+01
 20
2.80045744E+01
 11
7.23405931E+01
 21
1.83308094E+01
  0
LINE
  8
0
 62
4
 10
4.82536648E+01
 20
1.33726519E+01
 11
6.64317044E+01
 21
1.33726519E+01
  0
LINE
  8
0
 62
4
 10
4.44114407E+01
 20
8.12506426E+01
 11
5.02875393E+01
 21
8.12506426E+01
  0
LINE
  8
0
 62
4
 10
5.02876730E+01
 20
3.43726836E+01
 11
5.12876953E+01
 21
3.33726606E+01
  0
LINE
  8
0
  6
CENTER
 62
6
 10
5.27875393E+01
 20
2.38726519E+01
 11
6.77875393E+01
 21
2.38726519E+01
  0
LINE
  8
0
 62
4
 10
3.52875393E+01
 20
3.19590166E+01
 11
3.52875393E+01
 21
5.22864092E+01
  0
LINE
  8
0
 62
4
 10
4.89412259E+01
 20
3.19590166E+01
 11
3.52875393E+01
 21
3.19590166E+01
  0
LINE
  8
0
 62
4
 10
4.26155407E+01
 20
1.73206216E+01
 11
3.72875920E+01
 21
3.19590413E+01
  0
LINE
  8
0
 62
4
 10
3.72875393E+01
 20
5.22864092E+01
 11
3.52875393E+01
 21
5.22864092E+01
  0
LINE
  8
0
 62
4
 10
5.12875393E+01
 20
9.73726519E+01
 11
7.02875393E+01
 21
9.73726519E+01
  0
LINE
  8
0
 62
4
 10
3.52875393E+01
 20
7.84588945E+01
 11
3.52875393E+01
 21
9.87863481E+01
  0
LINE
  8
0
 62
4
 10
7.40462741E+01
 20
1.02740699E+02
 11
7.23405182E+01
 21
1.12414524E+02
  0
LINE
  8
0
 62
4
 10
4.82536648E+01
 20
1.17372652E+02
 11
6.64317044E+01
 21
1.17372652E+02
  0
LINE
  8
0
 62
4
 10
5.02875480E+01
 20
9.63724801E+01
 11
5.12876566E+01
 21
9.73725893E+01
  0
LINE
  8
0
 62
4
 10
3.72875393E+01
 20
5.22864092E+01
 11
3.72875393E+01
 21
7.84588945E+01
  0
LINE
  8
0
 62
4
 10
3.52875393E+01
 20
9.87863481E+01
 11
4.97210720E+01
 21
9.87863481E+01
  0
LINE
  8
0
 62
4
 10
3.72875898E+01
 20
9.87862958E+01
 11
4.26155376E+01
 21
1.13424716E+02
  0
LINE
  8
0
 62
4
 10
3.52875393E+01
 20
7.84588945E+01
 11
3.72875393E+01
 21
7.84588945E+01
  0
LINE
  8
0
  6
CENTER
 62
6
 10
5.27875393E+01
 20
1.06872652E+02
 11
6.77875393E+01
 21
1.06872652E+02
  0
LINE
  8
0
  6
CENTER
 62
6
 10
6.02875393E+01
 20
9.93726519E+01
 11
6.02875393E+01
 21
1.14372652E+02
  0
LINE
  8
0
 62
4
 10
3.80529030E+01
 20
5.19303253E+01
 11
4.23902427E+01
 21
4.99121731E+01
  0
LINE
  8
0
 62
4
 10
5.02875393E+01
 20
4.94946611E+01
 11
4.44114407E+01
 21
4.94946611E+01
  0
LINE
  8
0
 62
4
 10
4.32875393E+01
 20
5.02713945E+01
 11
4.32875393E+01
 21
8.04739092E+01
  0
CIRCLE
  8
0
 62
4
 10
6.02875393E+01
 20
1.06872652E+02
 40
6.00000000E+00
  0
ARC
  8
0
 62
4
 10
6.02875393E+01
 20
1.06872652E+02
 40
1.30000000E+01
 50
3.13049099E+02
 51
7.85453076E-01
  0
ARC
  8
0
 62
4
 10
4.82536648E+01
 20
1.11372652E+02
 40
6.00000000E+00
 50
9.00000162E+01
 51
1.59999981E+02
  0
ARC
  8
0
 62
4
 10
6.02875393E+01
 20
1.06872591E+02
 40
1.30000000E+01
 50
1.26129005E+02
 51
2.26951012E+02
  0
ARC
  8
0
 62
4
 10
7.02875393E+01
 20
2.93726519E+01
 40
4.00000000E+00
 50
3.39999931E+02
 51
9.00000162E+01
  0
ARC
  8
0
 62
4
 10
6.64317044E+01
 20
1.93726519E+01
 40
6.00000000E+00
 50
2.69999929E+02
 51
3.50000021E+02
  0
ARC
  8
0
 62
4
 10
4.82536648E+01
 20
1.93726519E+01
 40
6.00000000E+00
 50
2.00000059E+02
 51
2.70000038E+02
  0
CIRCLE
  8
0
 62
4
 10
6.02875393E+01
 20
2.38726519E+01
 40
6.00000000E+00
  0
ARC
  8
0
 62
4
 10
6.02875393E+01
 20
2.38726519E+01
 40
1.30000000E+01
 50
3.59214619E+02
 51
4.69509765E+01
  0
ARC
  8
0
 62
4
 10
7.02875393E+01
 20
1.01372652E+02
 40
4.00000000E+00
 50
2.70000052E+02
 51
2.00001412E+01
  0
ARC
  8
0
 62
4
 10
6.02875393E+01
 20
2.38726824E+01
 40
1.30000000E+01
 50
1.33049039E+02
 51
2.33871059E+02
  0
ARC
  8
0
 62
4
 10
6.64317044E+01
 20
1.11372652E+02
 40
6.00000000E+00
 50
1.00000339E+01
 51
9.00001257E+01
  0
TEXT
  8
0
 62
7
 10
-1.89357136E+02
 20
1.22850006E+02
 40
4.50000000E+00
  1
NEW DYNA CYLINDER
 41
1.07594914E+00
  7
MONOTXT
  0
LINE
  8
0
 62
7
 10
-1.94250000E+02
 20
1.17600006E+02
 11
-1.09250000E+02
 21
1.17600006E+02
  0
LINE
  8
0
 62
7
 10
-1.09250000E+02
 20
1.32600006E+02
 11
-1.09250000E+02
 21
1.17600006E+02
  0
LINE
  8
0
 62
7
 10
1.09800003E+02
 20
-1.18500000E+02
 11
1.09800003E+02
 21
-1.33500000E+02
  0
LINE
  8
0
 62
7
 10
1.09800003E+02
 20
-1.18500000E+02
 11
1.94800003E+02
 21
-1.18500000E+02
  0
TEXT
  8
0
 62
7
 10
1.15249715E+02
 20
-1.29150000E+02
 40
6.30000019E+00
  1
KOGANEI CORP.
 41
1.04838725E+00
  7
MONOTXT
  0
LINE
  8
0
 62
7
 10
1.09800003E+02
 20
1.32600006E+02
 11
1.09800003E+02
 21
1.17600006E+02
  0
LINE
  8
0
 62
7
 10
1.09800003E+02
 20
1.17600006E+02
 11
1.94800003E+02
 21
1.17600006E+02
  0
TEXT
  8
0
 62
7
 10
1.34942863E+02
 20
1.22850006E+02
 40
4.50000000E+00
  1
Ver. 1.0
 41
1.08108085E+00
  7
MONOTXT
  0
TEXT
  8
0
 62
7
 10
-1.85214688E+02
 20
1.05350006E+02
 40
4.50000000E+00
  1
MODEL:DDA50-2
 41
1.00000000E+00
  7
MONOTXT
  0
LINE
  8
0
 62
7
 10
-1.94250000E+02
 20
1.32600006E+02
 11
1.94800003E+02
 21
1.32600006E+02
  0
LINE
  8
0
 62
7
 10
1.94800003E+02
 20
1.32600006E+02
 11
1.94800003E+02
 21
-1.33500000E+02
  0
LINE
  8
0
 62
7
 10
-1.94250000E+02
 20
1.32600006E+02
 11
-1.94250000E+02
 21
-1.33500000E+02
  0
LINE
  8
0
 62
7
 10
-1.94250000E+02
 20
-1.33500000E+02
 11
1.94800003E+02
 21
-1.33500000E+02
  0
ENDSEC
  0
EOF
