  0
SECTION
  2
HEADER
  9
$ACADVER
  1
AC1003
  9
$EXTMIN
 10
-1.94250000E+02
 20
-1.33500000E+02
  9
$EXTMAX
 10
1.94800003E+02
 20
1.32600006E+02
  9
$LIMMIN
 10
-1.94251000E+02
 20
-1.33501000E+02
  9
$LIMMAX
 10
1.94801003E+02
 20
1.32601006E+02
  9
$SNAPUNIT
 10
1
 20
1
  9
$SNAPBASE
 10
0
 20
0
  9
$GRIDMODE
 70
0
  9
$GRIDUNIT
 10
0
 20
0
  9
$LTSCALE
 40
6.48416672E+00
  9
$TEXTSIZE
 40
3.2
  9
$DIMTAD
 70
0
  9
$LUNITS
 70
2
  9
$LUPREC
 70
4
  9
$FILLETRAD
 40
0
  9
$AUNITS
 70
0
  9
$AUPREC
 70
0
  0
ENDSEC
  0
SECTION
  2
TABLES
  0
TABLE
  2
LTYPE
 70
2
  0
LTYPE
  2
CONTINUOUS
 70
64
  3
Solid-Line
 72
65
 73
0
 40
0
  0
LTYPE
  2
DASHED
 70
64
  3
DASHED
 72
65
 73
2
 40
.75
 49
.5
 49
-.25
  0
LTYPE
  2
HIDDEN
 70
64
  3
HIDDEN
 72
65
 73
2
 40
.375
 49
.25
 49
-.125
  0
LTYPE
  2
CENTER
 70
64
  3
CENTER
 72
65
 73
4
 40
2
 49
1.25
 49
-.25
 49
.25
 49
-.25
  0
LTYPE
  2
PHANTOM
 70
64
  3
PHANTOM
 72
65
 73
6
 40
2.5
 49
1.25
 49
-.25
 49
.25
 49
-.25
 49
.25
 49
-.25
  0
ENDTAB
  0
TABLE
  2
LAYER
 70
1
  0
LAYER
  2
1
 70
0
 62
7
  6
CONTINUOUS
 0
ENDTAB
  0
TABLE
  2
STYLE
 70
2
  0
STYLE
  2
MONOTXT
 70
0
 40
0
 41
1
 50
0
 71
0
 42
.2
  3
monotxt
  0
STYLE
  2
BIGFONT
 70
0
 40
0
 41
1
 50
0
 71
0
 42
.2
  3
txt
  4
bigfont
  0
ENDTAB
  0
ENDSEC
  0
SECTION
  2
ENTITIES
  0
LINE
  8
0
  6
CENTER
 62
6
 10
4.58597420E+01
 20
-6.36586628E+01
 11
7.50603341E+01
 21
-6.36586628E+01
  0
LINE
  8
0
  6
CENTER
 62
6
 10
6.79883126E+01
 20
-8.71586475E+01
 11
5.08785943E+01
 21
-8.71586475E+01
  0
LINE
  8
0
 62
4
 10
5.52386559E+01
 20
-9.61586628E+01
 11
5.52386559E+01
 21
-3.11586628E+01
  0
LINE
  8
0
 62
4
 10
6.52386559E+01
 20
-9.61586628E+01
 11
6.52386559E+01
 21
-3.11586628E+01
  0
LINE
  8
0
  6
CENTER
 62
6
 10
6.82164467E+01
 20
-4.01586780E+01
 11
5.13348549E+01
 21
-4.01586780E+01
  0
LINE
  8
0
 62
4
 10
5.52387169E+01
 20
-3.11586628E+01
 11
6.52386559E+01
 21
-3.11586628E+01
  0
LINE
  8
0
 62
4
 10
5.52387169E+01
 20
-9.61586628E+01
 11
6.52387169E+01
 21
-9.61586628E+01
  0
ARC
  8
0
 62
4
 10
5.54886559E+01
 20
-8.06672077E+01
 40
2.50000000E-01
 50
1.79999977E+02
 51
2.68001132E+02
  0
ARC
  8
0
 62
4
 10
5.54886559E+01
 20
-4.66501026E+01
 40
2.50000000E-01
 50
9.19988230E+01
 51
1.79999977E+02
  0
LINE
  8
0
  6
CENTER
 62
6
 10
-5.78040611E+01
 20
-4.01586628E+01
 11
-2.62613975E+01
 21
-4.01586628E+01
  0
LINE
  8
0
 62
4
 10
-1.28761398E+02
 20
-3.61586628E+01
 11
-1.28761398E+02
 21
-9.11586628E+01
  0
LINE
  8
0
  6
CENTER
 62
6
 10
-3.37613975E+01
 20
-7.96586628E+01
 11
-3.37613975E+01
 21
-9.46586628E+01
  0
LINE
  8
0
  6
CENTER
 62
6
 10
-7.67613975E+01
 20
-2.86557026E+01
 11
-7.67613975E+01
 21
-9.85334797E+01
  0
LINE
  8
0
  6
CENTER
 62
6
 10
-5.73557273E+01
 20
-8.71586628E+01
 11
-2.62613975E+01
 21
-8.71586628E+01
  0
LINE
  8
0
  6
CENTER
 62
6
 10
-5.32613975E+01
 20
-8.27423115E+01
 11
-5.32613975E+01
 21
-9.15596485E+01
  0
LINE
  8
0
  6
CENTER
 62
6
 10
-1.19761398E+02
 20
-3.26586628E+01
 11
-1.19761398E+02
 21
-4.76586628E+01
  0
LINE
  8
0
  6
CENTER
 62
6
 10
-5.32613975E+01
 20
-4.49323749E+01
 11
-5.32613975E+01
 21
-3.59655781E+01
  0
LINE
  8
0
  6
CENTER
 62
6
 10
-1.19761398E+02
 20
-7.96586628E+01
 11
-1.19761398E+02
 21
-9.46586628E+01
  0
LINE
  8
0
  6
CENTER
 62
6
 10
-1.00261398E+02
 20
-8.21445331E+01
 11
-1.00261398E+02
 21
-9.18585377E+01
  0
LINE
  8
0
  6
CENTER
 62
6
 10
-1.27261398E+02
 20
-8.71586628E+01
 11
-9.57634422E+01
 21
-8.71586628E+01
  0
LINE
  8
0
  6
CENTER
 62
6
 10
-1.31416122E+02
 20
-6.36586628E+01
 11
-2.20329734E+01
 21
-6.36586628E+01
  0
LINE
  8
0
 62
4
 10
-1.23761398E+02
 20
-9.61586628E+01
 11
-2.97613975E+01
 21
-9.61586628E+01
  0
LINE
  8
0
  6
CENTER
 62
6
 10
-1.00261398E+02
 20
-4.44840259E+01
 11
-1.00261398E+02
 21
-3.53677997E+01
  0
LINE
  8
0
 62
4
 10
-1.23761398E+02
 20
-3.11586628E+01
 11
-2.97613975E+01
 21
-3.11586628E+01
  0
LINE
  8
0
  6
CENTER
 62
6
 10
-1.27261398E+02
 20
-4.01586628E+01
 11
-9.62118064E+01
 21
-4.01586628E+01
  0
LINE
  8
0
 62
4
 10
-2.47613975E+01
 20
-3.61586628E+01
 11
-2.47613975E+01
 21
-9.11586628E+01
  0
LINE
  8
0
  6
CENTER
 62
6
 10
-3.37613975E+01
 20
-3.26586628E+01
 11
-3.37613975E+01
 21
-4.76586628E+01
  0
ARC
  8
0
 62
4
 10
-1.23761398E+02
 20
-3.61586628E+01
 40
5.00000000E+00
 50
8.99999818E+01
 51
1.79999964E+02
  0
ARC
  8
0
 62
4
 10
-2.97613975E+01
 20
-3.61586628E+01
 40
5.00000000E+00
 50
0.00000000E+00
 51
8.99999818E+01
  0
CIRCLE
  8
0
 62
4
 10
-7.67613975E+01
 20
-6.36586628E+01
 40
1.75294495E+01
  0
CIRCLE
  8
0
 62
4
 10
-3.37613975E+01
 20
-8.71586628E+01
 40
4.50000000E+00
  0
ARC
  8
0
 62
4
 10
-1.23761398E+02
 20
-9.11586628E+01
 40
5.00000000E+00
 50
1.79999964E+02
 51
2.70000001E+02
  0
ARC
  8
0
 62
4
 10
-2.97613975E+01
 20
-9.11586628E+01
 40
5.00000000E+00
 50
2.70000018E+02
 51
0.00000000E+00
  0
CIRCLE
  8
0
 62
4
 10
-1.19761398E+02
 20
-4.01586628E+01
 40
4.50000000E+00
  0
CIRCLE
  8
0
 62
4
 10
-1.19761398E+02
 20
-8.71586628E+01
 40
4.50000000E+00
  0
CIRCLE
  8
0
 62
4
 10
-3.37613975E+01
 20
-4.01586628E+01
 40
4.50000000E+00
  0
CIRCLE
  8
0
 62
4
 10
-5.32613975E+01
 20
-8.71586628E+01
 40
2.75000000E+00
  0
CIRCLE
  8
0
 62
4
 10
-5.32613975E+01
 20
-4.01586628E+01
 40
2.75000000E+00
  0
CIRCLE
  8
0
 62
4
 10
-1.00261398E+02
 20
-4.01586628E+01
 40
2.75000000E+00
  0
CIRCLE
  8
0
 62
4
 10
-1.00261398E+02
 20
-8.71586628E+01
 40
2.75000000E+00
  0
LINE
  8
0
 62
4
 10
5.52386559E+01
 20
1.15341368E+02
 11
5.52386559E+01
 21
1.13413677E+01
  0
LINE
  8
0
 62
4
 10
6.52386559E+01
 20
1.15341368E+02
 11
6.52386559E+01
 21
1.13413677E+01
  0
LINE
  8
0
  6
CENTER
 62
6
 10
7.03767632E+01
 20
3.98413677E+01
 11
4.96725625E+01
 21
3.98413677E+01
  0
LINE
  8
0
  6
CENTER
 62
6
 10
7.03767632E+01
 20
8.68413067E+01
 11
4.96725625E+01
 21
8.68413067E+01
  0
LINE
  8
0
  6
CENTER
 62
6
 10
4.13908852E+01
 20
6.33413677E+01
 11
7.99006966E+01
 21
6.33413677E+01
  0
LINE
  8
0
 62
4
 10
5.52386559E+01
 20
1.13413677E+01
 11
6.52386559E+01
 21
1.13413677E+01
  0
LINE
  8
0
 62
4
 10
5.52386559E+01
 20
1.15341368E+02
 11
6.52386559E+01
 21
1.15341368E+02
  0
LINE
  8
0
  6
CENTER
 62
6
 10
4.96725625E+01
 20
1.06341368E+02
 11
7.03767632E+01
 21
1.06341368E+02
  0
LINE
  8
0
  6
CENTER
 62
6
 10
4.96725625E+01
 20
2.03413677E+01
 11
7.03767632E+01
 21
2.03413677E+01
  0
LINE
  8
0
 62
7
 10
1.09800003E+02
 20
-1.18500000E+02
 11
1.09800003E+02
 21
-1.33500000E+02
  0
LINE
  8
0
 62
7
 10
1.09800003E+02
 20
-1.18500000E+02
 11
1.94800003E+02
 21
-1.18500000E+02
  0
TEXT
  8
0
 62
7
 10
1.15249715E+02
 20
-1.29150000E+02
 40
6.30000019E+00
  1
KOGANEI CORP.
 41
1.04838725E+00
  7
MONOTXT
  0
TEXT
  8
0
 62
7
 10
1.34942863E+02
 20
1.22850006E+02
 40
4.50000000E+00
  1
Ver. 1.0
 41
1.08108085E+00
  7
MONOTXT
  0
LINE
  8
0
 62
7
 10
1.09800003E+02
 20
1.32600006E+02
 11
1.09800003E+02
 21
1.17600006E+02
  0
LINE
  8
0
 62
7
 10
1.09800003E+02
 20
1.17600006E+02
 11
1.94800003E+02
 21
1.17600006E+02
  0
TEXT
  8
0
 62
7
 10
-1.89357136E+02
 20
1.22850006E+02
 40
4.50000000E+00
  1
NEW DYNA CYLINDER
 41
1.07594914E+00
  7
MONOTXT
  0
LINE
  8
0
 62
7
 10
-1.94250000E+02
 20
1.17600006E+02
 11
-1.09250000E+02
 21
1.17600006E+02
  0
LINE
  8
0
 62
7
 10
-1.09250000E+02
 20
1.32600006E+02
 11
-1.09250000E+02
 21
1.17600006E+02
  0
TEXT
  8
0
 62
7
 10
-1.85214688E+02
 20
1.05350006E+02
 40
4.50000000E+00
  1
MODEL:DDA50-3
 41
1.00000000E+00
  7
MONOTXT
  0
LINE
  8
0
 62
7
 10
-1.94250000E+02
 20
1.32600006E+02
 11
1.94800003E+02
 21
1.32600006E+02
  0
LINE
  8
0
 62
7
 10
1.94800003E+02
 20
1.32600006E+02
 11
1.94800003E+02
 21
-1.33500000E+02
  0
LINE
  8
0
 62
7
 10
-1.94250000E+02
 20
1.32600006E+02
 11
-1.94250000E+02
 21
-1.33500000E+02
  0
LINE
  8
0
 62
7
 10
-1.94250000E+02
 20
-1.33500000E+02
 11
1.94800003E+02
 21
-1.33500000E+02
  0
ENDSEC
  0
EOF
