  0
SECTION
  2
HEADER
  9
$ACADVER
  1
AC1003
  9
$EXTMIN
 10
-1.94250000E+02
 20
-1.33500000E+02
  9
$EXTMAX
 10
1.94800003E+02
 20
1.32600006E+02
  9
$LIMMIN
 10
-1.94251000E+02
 20
-1.33501000E+02
  9
$LIMMAX
 10
1.94801003E+02
 20
1.32601006E+02
  9
$SNAPUNIT
 10
1
 20
1
  9
$SNAPBASE
 10
0
 20
0
  9
$GRIDMODE
 70
0
  9
$GRIDUNIT
 10
0
 20
0
  9
$LTSCALE
 40
6.48416672E+00
  9
$TEXTSIZE
 40
3.2
  9
$DIMTAD
 70
0
  9
$LUNITS
 70
2
  9
$LUPREC
 70
4
  9
$FILLETRAD
 40
0
  9
$AUNITS
 70
0
  9
$AUPREC
 70
0
  0
ENDSEC
  0
SECTION
  2
TABLES
  0
TABLE
  2
LTYPE
 70
2
  0
LTYPE
  2
CONTINUOUS
 70
64
  3
Solid-Line
 72
65
 73
0
 40
0
  0
LTYPE
  2
DASHED
 70
64
  3
DASHED
 72
65
 73
2
 40
.75
 49
.5
 49
-.25
  0
LTYPE
  2
HIDDEN
 70
64
  3
HIDDEN
 72
65
 73
2
 40
.375
 49
.25
 49
-.125
  0
LTYPE
  2
CENTER
 70
64
  3
CENTER
 72
65
 73
4
 40
2
 49
1.25
 49
-.25
 49
.25
 49
-.25
  0
LTYPE
  2
PHANTOM
 70
64
  3
PHANTOM
 72
65
 73
6
 40
2.5
 49
1.25
 49
-.25
 49
.25
 49
-.25
 49
.25
 49
-.25
  0
ENDTAB
  0
TABLE
  2
LAYER
 70
1
  0
LAYER
  2
1
 70
0
 62
7
  6
CONTINUOUS
 0
ENDTAB
  0
TABLE
  2
STYLE
 70
2
  0
STYLE
  2
MONOTXT
 70
0
 40
0
 41
1
 50
0
 71
0
 42
.2
  3
monotxt
  0
STYLE
  2
BIGFONT
 70
0
 40
0
 41
1
 50
0
 71
0
 42
.2
  3
txt
  4
bigfont
  0
ENDTAB
  0
ENDSEC
  0
SECTION
  2
ENTITIES
  0
CIRCLE
  8
0
 62
4
 10
-5.52500076E+01
 20
-5.35000000E+01
 40
6.00000000E+00
  0
CIRCLE
  8
0
 62
4
 10
-5.52500076E+01
 20
-5.35000000E+01
 40
7.00000000E+00
  0
ARC
  8
0
 62
4
 10
-6.82500076E+01
 20
-8.15000000E+01
 40
2.00000000E+00
 50
2.70000018E+02
 51
0.00000000E+00
  0
ARC
  8
0
 62
4
 10
-6.82500076E+01
 20
-2.55000000E+01
 40
2.00000000E+00
 50
0.00000000E+00
 51
8.99999818E+01
  0
ARC
  8
0
 62
4
 10
-6.22500076E+01
 20
-3.31436157E+01
 40
4.00000000E+00
 50
1.79999995E+02
 51
2.60000075E+02
  0
ARC
  8
0
 62
4
 10
-6.22500076E+01
 20
-7.38563995E+01
 40
4.00000000E+00
 50
9.99999798E+01
 51
1.80000005E+02
  0
ARC
  8
0
 62
4
 10
-4.82500076E+01
 20
-5.92027130E+01
 40
8.00000000E+00
 50
2.80000016E+02
 51
3.59999974E+02
  0
ARC
  8
0
 62
4
 10
-4.82500076E+01
 20
-4.77973175E+01
 40
8.00000000E+00
 50
3.59999904E+02
 51
7.99999839E+01
  0
LINE
  8
0
 62
4
 10
-7.42500000E+01
 20
-8.35000038E+01
 11
-6.82500076E+01
 21
-8.35000038E+01
  0
LINE
  8
0
  6
CENTER
 62
6
 10
-5.52500076E+01
 20
-4.41790771E+01
 11
-5.52500076E+01
 21
-6.38925858E+01
  0
LINE
  8
0
  6
CENTER
 62
6
 10
-7.75760498E+01
 20
-5.35000000E+01
 11
-3.53388519E+01
 21
-5.35000000E+01
  0
LINE
  8
0
 62
4
 10
-7.42500000E+01
 20
-2.35000000E+01
 11
-6.82500076E+01
 21
-2.35000000E+01
  0
LINE
  8
0
 62
4
 10
-4.02500076E+01
 20
-4.77973175E+01
 11
-4.02500076E+01
 21
-5.92027130E+01
  0
LINE
  8
0
 62
4
 10
-6.62500076E+01
 20
-2.55000000E+01
 11
-6.62500076E+01
 21
-8.15000000E+01
  0
LINE
  8
0
  6
CENTER
 62
6
 10
-6.12038651E+01
 20
-7.69999847E+01
 11
-7.87956085E+01
 21
-7.69999847E+01
  0
LINE
  8
0
 62
4
 10
-6.29446072E+01
 20
-3.70828358E+01
 11
-4.68608234E+01
 21
-3.99188400E+01
  0
LINE
  8
0
 62
4
 10
-7.42500000E+01
 20
-8.35000038E+01
 11
-7.42500000E+01
 21
-2.35000000E+01
  0
LINE
  8
0
  6
CENTER
 62
6
 10
-6.12038651E+01
 20
-3.00000153E+01
 11
-7.69090424E+01
 21
-3.00000153E+01
  0
LINE
  8
0
 62
4
 10
-6.29446497E+01
 20
-6.99171698E+01
 11
-4.68449222E+01
 21
-6.70783543E+01
  0
LINE
  8
0
 62
4
 10
1.57499986E+01
 20
-4.65000000E+01
 11
1.57499986E+01
 21
-3.01000061E+01
  0
LINE
  8
0
 62
4
 10
7.57500005E+01
 20
-4.65000000E+01
 11
7.57500005E+01
 21
-3.01000061E+01
  0
LINE
  8
0
 62
4
 10
7.22500005E+01
 20
-6.05000000E+01
 11
7.77500000E+01
 21
-6.05000000E+01
  0
LINE
  8
0
 62
4
 10
7.22500005E+01
 20
-4.65000000E+01
 11
7.77500000E+01
 21
-4.65000000E+01
  0
LINE
  8
0
 62
4
 10
3.57500005E+01
 20
-6.05000000E+01
 11
5.57500000E+01
 21
-6.05000000E+01
  0
LINE
  8
0
 62
4
 10
3.57500005E+01
 20
-4.65000000E+01
 11
5.57500000E+01
 21
-4.65000000E+01
  0
LINE
  8
0
 62
4
 10
7.77500000E+01
 20
-6.05000000E+01
 11
7.87500000E+01
 21
-5.95000000E+01
  0
LINE
  8
0
 62
4
 10
7.87500000E+01
 20
-4.75000000E+01
 11
7.77500000E+01
 21
-4.65000000E+01
  0
LINE
  8
0
 62
4
 10
7.77500000E+01
 20
-6.05000000E+01
 11
7.77500000E+01
 21
-4.65000000E+01
  0
LINE
  8
0
 62
4
 10
7.87500000E+01
 20
-5.95000000E+01
 11
7.87500000E+01
 21
-4.75000000E+01
  0
LINE
  8
0
 62
4
 10
1.27500000E+01
 20
-5.95000000E+01
 11
1.37500000E+01
 21
-6.05000000E+01
  0
LINE
  8
0
 62
4
 10
1.37500000E+01
 20
-4.65000000E+01
 11
1.27500000E+01
 21
-4.75000000E+01
  0
LINE
  8
0
 62
4
 10
1.37500000E+01
 20
-6.05000000E+01
 11
1.37500000E+01
 21
-4.65000000E+01
  0
LINE
  8
0
 62
4
 10
1.27500000E+01
 20
-5.95000000E+01
 11
1.27500000E+01
 21
-4.75000000E+01
  0
CIRCLE
  8
0
 62
4
 10
6.92500005E+01
 20
-7.70000000E+01
 40
2.75000000E+00
  0
CIRCLE
  8
0
 62
4
 10
6.92500005E+01
 20
-3.00000000E+01
 40
2.75000000E+00
  0
CIRCLE
  8
0
 62
4
 10
2.22500005E+01
 20
-3.00000000E+01
 40
2.75000000E+00
  0
CIRCLE
  8
0
 62
4
 10
2.22500005E+01
 20
-7.70000000E+01
 40
2.75000000E+00
  0
ARC
  8
0
 62
4
 10
6.91500249E+01
 20
-3.01000061E+01
 40
6.59999943E+00
 50
3.59721781E-05
 51
8.99999818E+01
  0
ARC
  8
0
 62
4
 10
6.91500249E+01
 20
-7.68999939E+01
 40
6.59999943E+00
 50
2.70000018E+02
 51
3.59721781E-05
  0
ARC
  8
0
 62
4
 10
2.23499761E+01
 20
-7.68999939E+01
 40
6.59999943E+00
 50
1.80000036E+02
 51
2.70000018E+02
  0
ARC
  8
0
 62
4
 10
5.57500000E+01
 20
-3.65000000E+01
 40
2.00000000E+00
 50
3.59721781E-05
 51
8.99999818E+01
  0
ARC
  8
0
 62
4
 10
3.57500005E+01
 20
-3.65000000E+01
 40
2.00000000E+00
 50
8.99999818E+01
 51
1.79999964E+02
  0
ARC
  8
0
 62
4
 10
3.57500005E+01
 20
-7.05000000E+01
 40
2.00000000E+00
 50
1.80000036E+02
 51
2.70000018E+02
  0
ARC
  8
0
 62
4
 10
5.57500000E+01
 20
-7.05000000E+01
 40
2.00000000E+00
 50
2.70000018E+02
 51
3.59721781E-05
  0
ARC
  8
0
 62
4
 10
2.23499761E+01
 20
-3.01000061E+01
 40
6.59999943E+00
 50
8.99999818E+01
 51
1.79999964E+02
  0
LINE
  8
0
 62
4
 10
7.22500005E+01
 20
-7.03923035E+01
 11
7.22500005E+01
 21
-3.66077271E+01
  0
LINE
  8
0
  6
DASHED
 62
6
 10
5.77500005E+01
 20
-3.66077271E+01
 11
5.77500005E+01
 21
-3.65000000E+01
  0
LINE
  8
0
  6
CENTER
 62
6
 10
6.92500005E+01
 20
-8.37999916E+01
 11
6.92500005E+01
 21
-7.10000000E+01
  0
LINE
  8
0
  6
CENTER
 62
6
 10
9.41369486E+00
 20
-5.35000000E+01
 11
8.17252793E+01
 21
-5.35000000E+01
  0
LINE
  8
0
  6
CENTER
 62
6
 10
6.32500005E+01
 20
-7.70000000E+01
 11
7.67500005E+01
 21
-7.70000000E+01
  0
LINE
  8
0
 62
4
 10
5.77500005E+01
 20
-7.05000000E+01
 11
5.77500005E+01
 21
-7.03923035E+01
  0
LINE
  8
0
 62
4
 10
5.57500000E+01
 20
-7.03923035E+01
 11
5.57500000E+01
 21
-3.66077271E+01
  0
LINE
  8
0
 62
4
 10
1.71422843E+01
 20
-3.44999923E+01
 11
1.92500100E+01
 21
-3.66077174E+01
  0
LINE
  8
0
 62
4
 10
7.38576183E+01
 20
-7.25000145E+01
 11
7.17499463E+01
 21
-7.03923218E+01
  0
LINE
  8
0
 62
4
 10
3.57500005E+01
 20
-3.45000000E+01
 11
5.57500000E+01
 21
-3.45000000E+01
  0
LINE
  8
0
  6
CENTER
 62
6
 10
1.47499986E+01
 20
-7.70000000E+01
 11
2.94931035E+01
 21
-7.70000000E+01
  0
LINE
  8
0
 62
4
 10
2.23499761E+01
 20
-2.35000000E+01
 11
6.91500249E+01
 21
-2.35000000E+01
  0
LINE
  8
0
 62
4
 10
3.57500005E+01
 20
-7.25000000E+01
 11
5.57500000E+01
 21
-7.25000000E+01
  0
LINE
  8
0
  6
CENTER
 62
6
 10
6.92500005E+01
 20
-3.60000000E+01
 11
6.92500005E+01
 21
-2.32000122E+01
  0
LINE
  8
0
 62
4
 10
3.57500005E+01
 20
-7.03923035E+01
 11
3.57500005E+01
 21
-3.66077271E+01
  0
LINE
  8
0
  6
CENTER
 62
6
 10
1.47499986E+01
 20
-3.00000000E+01
 11
2.82500005E+01
 21
-3.00000000E+01
  0
LINE
  8
0
 62
4
 10
7.43577242E+01
 20
-3.45000261E+01
 11
7.22499984E+01
 21
-3.66077512E+01
  0
LINE
  8
0
  6
CENTER
 62
6
 10
6.12715459E+01
 20
-3.00000000E+01
 11
7.67500005E+01
 21
-3.00000000E+01
  0
LINE
  8
0
 62
4
 10
1.37500000E+01
 20
-4.65000000E+01
 11
1.92500005E+01
 21
-4.65000000E+01
  0
LINE
  8
0
 62
4
 10
1.37500000E+01
 20
-6.05000000E+01
 11
1.92500005E+01
 21
-6.05000000E+01
  0
LINE
  8
0
 62
4
 10
5.57500000E+01
 20
-3.66077271E+01
 11
7.22500005E+01
 21
-3.66077271E+01
  0
LINE
  8
0
 62
4
 10
5.57500000E+01
 20
-7.03923035E+01
 11
7.22500005E+01
 21
-7.03923035E+01
  0
LINE
  8
0
  6
CENTER
 62
6
 10
4.57500000E+01
 20
-8.69341927E+01
 11
4.57500000E+01
 21
-1.93905334E+01
  0
LINE
  8
0
  6
CENTER
 62
6
 10
2.22500005E+01
 20
-3.60000000E+01
 11
2.22500005E+01
 21
-2.32000122E+01
  0
LINE
  8
0
 62
4
 10
1.57499986E+01
 20
-7.69177399E+01
 11
1.57499986E+01
 21
-6.05000000E+01
  0
LINE
  8
0
  6
DASHED
 62
6
 10
3.37500005E+01
 20
-3.66077271E+01
 11
3.37500005E+01
 21
-3.65000000E+01
  0
LINE
  8
0
 62
4
 10
1.76423696E+01
 20
-7.24999830E+01
 11
1.97500429E+01
 21
-7.03922890E+01
  0
LINE
  8
0
 62
4
 10
7.57500005E+01
 20
-7.69177399E+01
 11
7.57500005E+01
 21
-6.05000000E+01
  0
LINE
  8
0
 62
4
 10
2.23499761E+01
 20
-8.35000038E+01
 11
6.91500249E+01
 21
-8.35000038E+01
  0
LINE
  8
0
 62
4
 10
3.37500005E+01
 20
-7.05000000E+01
 11
3.37500005E+01
 21
-7.03923035E+01
  0
LINE
  8
0
  6
CENTER
 62
6
 10
2.22500005E+01
 20
-8.37999916E+01
 11
2.22500005E+01
 21
-6.85429840E+01
  0
LINE
  8
0
 62
4
 10
1.92500005E+01
 20
-7.03923035E+01
 11
3.57500005E+01
 21
-7.03923035E+01
  0
LINE
  8
0
 62
4
 10
1.92500005E+01
 20
-3.66077271E+01
 11
3.57500005E+01
 21
-3.66077271E+01
  0
LINE
  8
0
 62
4
 10
1.92500005E+01
 20
-7.03923035E+01
 11
1.92500005E+01
 21
-3.66077271E+01
  0
LINE
  8
0
 62
4
 10
-4.82500076E+01
 20
5.65000000E+01
 11
-4.82500076E+01
 21
7.65000000E+01
  0
LINE
  8
0
 62
4
 10
-6.22500076E+01
 20
5.65000000E+01
 11
-6.22500076E+01
 21
7.65000000E+01
  0
LINE
  8
0
 62
4
 10
-4.82500076E+01
 20
9.30000000E+01
 11
-4.82500076E+01
 21
9.85000000E+01
  0
LINE
  8
0
 62
4
 10
-6.22500076E+01
 20
9.30000000E+01
 11
-6.22500076E+01
 21
9.85000000E+01
  0
LINE
  8
0
 62
4
 10
-6.22500076E+01
 20
3.45000000E+01
 11
-4.82500076E+01
 21
3.45000000E+01
  0
LINE
  8
0
 62
4
 10
-6.22500076E+01
 20
9.85000000E+01
 11
-4.82500076E+01
 21
9.85000000E+01
  0
LINE
  8
0
 62
4
 10
-4.92500076E+01
 20
3.35000000E+01
 11
-4.82500076E+01
 21
3.45000000E+01
  0
LINE
  8
0
 62
4
 10
-6.22500076E+01
 20
3.45000000E+01
 11
-6.12500076E+01
 21
3.35000000E+01
  0
LINE
  8
0
 62
4
 10
-6.12500076E+01
 20
9.95000000E+01
 11
-6.22500076E+01
 21
9.85000000E+01
  0
LINE
  8
0
 62
4
 10
-4.82500076E+01
 20
9.85000000E+01
 11
-4.92500076E+01
 21
9.95000000E+01
  0
LINE
  8
0
 62
4
 10
-6.12500076E+01
 20
3.35000000E+01
 11
-4.92500076E+01
 21
3.35000000E+01
  0
LINE
  8
0
 62
4
 10
-6.12500076E+01
 20
9.95000000E+01
 11
-4.92500076E+01
 21
9.95000000E+01
  0
ARC
  8
0
 62
4
 10
-4.22500076E+01
 20
9.10000000E+01
 40
2.00000000E+00
 50
3.59999982E+02
 51
8.99999274E+01
  0
ARC
  8
0
 62
4
 10
-4.22500076E+01
 20
4.20000000E+01
 40
2.00000000E+00
 50
2.70000018E+02
 51
3.59999982E+02
  0
ARC
  8
0
 62
4
 10
-6.82500076E+01
 20
9.45000000E+01
 40
2.00000000E+00
 50
3.59999982E+02
 51
8.99999274E+01
  0
ARC
  8
0
 62
4
 10
-6.82500076E+01
 20
3.85000000E+01
 40
2.00000000E+00
 50
2.70000018E+02
 51
3.59999982E+02
  0
LINE
  8
0
 62
4
 10
-4.02500076E+01
 20
9.10000000E+01
 11
-4.02500076E+01
 21
7.65000000E+01
  0
LINE
  8
0
 62
4
 10
-6.82500076E+01
 20
9.65000000E+01
 11
-7.42500000E+01
 21
9.65000000E+01
  0
LINE
  8
0
 62
4
 10
-6.82500076E+01
 20
3.65000000E+01
 11
-7.42500000E+01
 21
3.65000000E+01
  0
LINE
  8
0
 62
4
 10
-7.42500000E+01
 20
3.65000000E+01
 11
-7.42500000E+01
 21
9.65000000E+01
  0
LINE
  8
0
 62
4
 10
-6.62500076E+01
 20
9.45000000E+01
 11
-6.62500076E+01
 21
3.85000000E+01
  0
LINE
  8
0
  6
CENTER
 62
6
 10
-6.37151031E+01
 20
4.30000000E+01
 11
-7.59145508E+01
 21
4.30000000E+01
  0
LINE
  8
0
  6
CENTER
 62
6
 10
-6.46685715E+01
 20
8.99999390E+01
 11
-7.52466125E+01
 21
8.99999390E+01
  0
LINE
  8
0
 62
4
 10
-4.02500076E+01
 20
5.65000000E+01
 11
-6.42500076E+01
 21
5.65000000E+01
  0
LINE
  8
0
 62
4
 10
-4.02500076E+01
 20
7.65000000E+01
 11
-6.42500076E+01
 21
7.65000000E+01
  0
LINE
  8
0
 62
4
 10
-4.22500076E+01
 20
9.30000000E+01
 11
-6.62500076E+01
 21
9.30000000E+01
  0
LINE
  8
0
  6
CENTER
 62
6
 10
-8.41971436E+01
 20
6.65000000E+01
 11
-3.42562332E+01
 21
6.65000000E+01
  0
LINE
  8
0
 62
4
 10
-4.22500076E+01
 20
4.00000000E+01
 11
-6.62500076E+01
 21
4.00000000E+01
  0
LINE
  8
0
 62
4
 10
-6.22500076E+01
 20
3.45000000E+01
 11
-6.22500076E+01
 21
4.00000000E+01
  0
LINE
  8
0
 62
4
 10
-6.42499877E+01
 20
5.65000468E+01
 11
-6.62499899E+01
 21
5.45000445E+01
  0
LINE
  8
0
 62
4
 10
-6.42499697E+01
 20
7.65000446E+01
 11
-6.62500152E+01
 21
7.85000899E+01
  0
LINE
  8
0
 62
4
 10
-4.02500076E+01
 20
5.65000000E+01
 11
-4.02500076E+01
 21
4.20000000E+01
  0
LINE
  8
0
  6
CENTER
 62
6
 10
-5.52500076E+01
 20
9.77612305E+01
 11
-5.52500076E+01
 21
3.67855835E+01
  0
LINE
  8
0
 62
4
 10
-4.82500076E+01
 20
3.45000000E+01
 11
-4.82500076E+01
 21
4.00000000E+01
  0
LINE
  8
0
 62
7
 10
1.09800003E+02
 20
-1.18500000E+02
 11
1.09800003E+02
 21
-1.33500000E+02
  0
LINE
  8
0
 62
7
 10
1.09800003E+02
 20
-1.18500000E+02
 11
1.94800003E+02
 21
-1.18500000E+02
  0
TEXT
  8
0
 62
7
 10
1.15249715E+02
 20
-1.29150000E+02
 40
6.30000019E+00
  1
KOGANEI CORP.
 41
1.04838725E+00
  7
MONOTXT
  0
TEXT
  8
0
 62
7
 10
1.34942863E+02
 20
1.22850006E+02
 40
4.50000000E+00
  1
Ver. 1.0
 41
1.08108085E+00
  7
MONOTXT
  0
LINE
  8
0
 62
7
 10
1.09800003E+02
 20
1.32600006E+02
 11
1.09800003E+02
 21
1.17600006E+02
  0
LINE
  8
0
 62
7
 10
1.09800003E+02
 20
1.17600006E+02
 11
1.94800003E+02
 21
1.17600006E+02
  0
TEXT
  8
0
 62
7
 10
-1.89357136E+02
 20
1.22850006E+02
 40
4.50000000E+00
  1
NEW DYNA CYLINDER
 41
1.07594914E+00
  7
MONOTXT
  0
LINE
  8
0
 62
7
 10
-1.94250000E+02
 20
1.17600006E+02
 11
-1.09250000E+02
 21
1.17600006E+02
  0
LINE
  8
0
 62
7
 10
-1.09250000E+02
 20
1.32600006E+02
 11
-1.09250000E+02
 21
1.17600006E+02
  0
TEXT
  8
0
 62
7
 10
-1.85214688E+02
 20
1.05350006E+02
 40
4.50000000E+00
  1
MODEL:DDA50-7
 41
1.00000000E+00
  7
MONOTXT
  0
LINE
  8
0
 62
7
 10
-1.94250000E+02
 20
1.32600006E+02
 11
1.94800003E+02
 21
1.32600006E+02
  0
LINE
  8
0
 62
7
 10
1.94800003E+02
 20
1.32600006E+02
 11
1.94800003E+02
 21
-1.33500000E+02
  0
LINE
  8
0
 62
7
 10
-1.94250000E+02
 20
1.32600006E+02
 11
-1.94250000E+02
 21
-1.33500000E+02
  0
LINE
  8
0
 62
7
 10
-1.94250000E+02
 20
-1.33500000E+02
 11
1.94800003E+02
 21
-1.33500000E+02
  0
ENDSEC
  0
EOF
