  0
SECTION
  2
HEADER
  9
$ACADVER
  1
AC1003
  9
$EXTMIN
 10
-1.94250000E+02
 20
-1.33500000E+02
  9
$EXTMAX
 10
1.94800003E+02
 20
1.32600006E+02
  9
$LIMMIN
 10
-1.94251000E+02
 20
-1.33501000E+02
  9
$LIMMAX
 10
1.94801003E+02
 20
1.32601006E+02
  9
$SNAPUNIT
 10
1
 20
1
  9
$SNAPBASE
 10
0
 20
0
  9
$GRIDMODE
 70
0
  9
$GRIDUNIT
 10
0
 20
0
  9
$LTSCALE
 40
6.48416672E+00
  9
$TEXTSIZE
 40
3.2
  9
$DIMTAD
 70
0
  9
$LUNITS
 70
2
  9
$LUPREC
 70
4
  9
$FILLETRAD
 40
0
  9
$AUNITS
 70
0
  9
$AUPREC
 70
0
  0
ENDSEC
  0
SECTION
  2
TABLES
  0
TABLE
  2
LTYPE
 70
2
  0
LTYPE
  2
CONTINUOUS
 70
64
  3
Solid-Line
 72
65
 73
0
 40
0
  0
LTYPE
  2
DASHED
 70
64
  3
DASHED
 72
65
 73
2
 40
.75
 49
.5
 49
-.25
  0
LTYPE
  2
HIDDEN
 70
64
  3
HIDDEN
 72
65
 73
2
 40
.375
 49
.25
 49
-.125
  0
LTYPE
  2
CENTER
 70
64
  3
CENTER
 72
65
 73
4
 40
2
 49
1.25
 49
-.25
 49
.25
 49
-.25
  0
LTYPE
  2
PHANTOM
 70
64
  3
PHANTOM
 72
65
 73
6
 40
2.5
 49
1.25
 49
-.25
 49
.25
 49
-.25
 49
.25
 49
-.25
  0
ENDTAB
  0
TABLE
  2
LAYER
 70
1
  0
LAYER
  2
1
 70
0
 62
7
  6
CONTINUOUS
 0
ENDTAB
  0
TABLE
  2
STYLE
 70
2
  0
STYLE
  2
MONOTXT
 70
0
 40
0
 41
1
 50
0
 71
0
 42
.2
  3
monotxt
  0
STYLE
  2
BIGFONT
 70
0
 40
0
 41
1
 50
0
 71
0
 42
.2
  3
txt
  4
bigfont
  0
ENDTAB
  0
ENDSEC
  0
SECTION
  2
ENTITIES
  0
CIRCLE
  8
0
 62
4
 10
-5.52500000E+01
 20
-5.35000000E+01
 40
1.25000000E+01
  0
CIRCLE
  8
0
 62
4
 10
-5.52500000E+01
 20
-5.35000000E+01
 40
7.00000000E+00
  0
ARC
  8
0
 62
4
 10
-4.62500000E+01
 20
-4.55627441E+01
 40
5.00000000E+00
 50
0.00000000E+00
 51
6.18421927E+01
  0
ARC
  8
0
 62
4
 10
-4.62500000E+01
 20
-6.14372559E+01
 40
5.00000000E+00
 50
2.98157760E+02
 51
0.00000000E+00
  0
ARC
  8
0
 62
4
 10
-6.62500000E+01
 20
-2.55000000E+01
 40
2.00000000E+00
 50
3.59999964E+02
 51
8.99999818E+01
  0
ARC
  8
0
 62
4
 10
-6.62500000E+01
 20
-8.15000038E+01
 40
2.00000000E+00
 50
2.70000018E+02
 51
3.59999964E+02
  0
LINE
  8
0
 62
4
 10
-6.44499512E+01
 20
-3.25980759E+01
 11
-6.44499512E+01
 21
-2.46283188E+01
  0
LINE
  8
0
 62
4
 10
-6.44499512E+01
 20
-7.44019279E+01
 11
-6.44499512E+01
 21
-8.23716812E+01
  0
LINE
  8
0
  6
DASHED
 62
4
 10
-6.44499512E+01
 20
-7.13000717E+01
 11
-6.44499512E+01
 21
-7.44019279E+01
  0
LINE
  8
0
 62
4
 10
-6.44499512E+01
 20
-7.44019279E+01
 11
-6.42500000E+01
 21
-7.44019279E+01
  0
LINE
  8
0
 62
4
 10
-6.44499512E+01
 20
-3.25980759E+01
 11
-6.42500000E+01
 21
-3.25980759E+01
  0
LINE
  8
0
  6
DASHED
 62
4
 10
-6.44499512E+01
 20
-3.56999435E+01
 11
-6.44499512E+01
 21
-3.25980759E+01
  0
LINE
  8
0
 62
4
 10
-6.44499512E+01
 20
-7.44019279E+01
 11
-6.44499512E+01
 21
-8.23716812E+01
  0
LINE
  8
0
 62
4
 10
-6.44499512E+01
 20
-7.44019279E+01
 11
-6.42500000E+01
 21
-7.44019279E+01
  0
LINE
  8
0
 62
4
 10
-6.44499512E+01
 20
-3.25980759E+01
 11
-6.44499512E+01
 21
-2.46283188E+01
  0
LINE
  8
0
 62
4
 10
-6.42500000E+01
 20
-8.15000038E+01
 11
-6.42500000E+01
 21
-7.15000038E+01
  0
LINE
  8
0
 62
4
 10
-4.12500000E+01
 20
-6.14372559E+01
 11
-4.12500000E+01
 21
-4.55627441E+01
  0
LINE
  8
0
 62
4
 10
-6.62500000E+01
 20
-8.35000038E+01
 11
-7.42500000E+01
 21
-8.35000038E+01
  0
LINE
  8
0
 62
4
 10
-7.02500068E+01
 20
-6.55000059E+01
 11
-6.42500039E+01
 21
-7.15000159E+01
  0
LINE
  8
0
 62
4
 10
-6.42500043E+01
 20
-3.54999992E+01
 11
-7.02500142E+01
 21
-4.15000020E+01
  0
LINE
  8
0
  6
CENTER
 62
6
 10
-5.52500000E+01
 20
-2.85000000E+01
 11
-5.52500000E+01
 21
-7.85000038E+01
  0
LINE
  8
0
 62
4
 10
-6.42500000E+01
 20
-3.55000000E+01
 11
-6.42500000E+01
 21
-2.55000000E+01
  0
LINE
  8
0
  6
CENTER
 62
6
 10
-8.05951233E+01
 20
-5.35000000E+01
 11
-3.34046936E+01
 21
-5.35000000E+01
  0
LINE
  8
0
 62
4
 10
-6.62500000E+01
 20
-2.35000000E+01
 11
-7.42500000E+01
 21
-2.35000000E+01
  0
LINE
  8
0
 62
4
 10
-7.02500000E+01
 20
-6.55000000E+01
 11
-7.42500000E+01
 21
-6.55000000E+01
  0
LINE
  8
0
 62
4
 10
-7.42500000E+01
 20
-4.15000000E+01
 11
-7.02500000E+01
 21
-4.15000000E+01
  0
LINE
  8
0
  6
CENTER
 62
6
 10
-6.13199463E+01
 20
-7.69999886E+01
 11
-7.73371582E+01
 21
-7.69999886E+01
  0
LINE
  8
0
 62
4
 10
-6.42500023E+01
 20
-3.02571121E+01
 11
-4.38904725E+01
 21
-4.11544992E+01
  0
LINE
  8
0
 62
4
 10
-7.42500000E+01
 20
-8.35000038E+01
 11
-7.42500000E+01
 21
-2.35000000E+01
  0
LINE
  8
0
  6
CENTER
 62
6
 10
-6.08508453E+01
 20
-3.00000153E+01
 11
-7.78949890E+01
 21
-3.00000153E+01
  0
LINE
  8
0
 62
4
 10
-6.42499988E+01
 20
-7.67428742E+01
 11
-4.38905146E+01
 21
-6.58455311E+01
  0
CIRCLE
  8
0
 62
4
 10
6.92499995E+01
 20
-7.70000038E+01
 40
2.75000000E+00
  0
CIRCLE
  8
0
 62
4
 10
6.92499995E+01
 20
-3.00000000E+01
 40
2.75000000E+00
  0
CIRCLE
  8
0
 62
4
 10
2.22499981E+01
 20
-3.00000000E+01
 40
2.75000000E+00
  0
CIRCLE
  8
0
 62
4
 10
2.22499981E+01
 20
-7.70000038E+01
 40
2.75000000E+00
  0
ARC
  8
0
 62
4
 10
6.91500239E+01
 20
-7.60788460E+01
 40
6.59999943E+00
 50
2.72000007E+02
 51
3.59999908E+02
  0
ARC
  8
0
 62
4
 10
6.91500239E+01
 20
-3.09211731E+01
 40
6.59999943E+00
 50
3.59999872E+02
 51
8.79999936E+01
  0
ARC
  8
0
 62
4
 10
2.23499737E+01
 20
-3.09211731E+01
 40
6.59999943E+00
 50
9.19999707E+01
 51
1.80000128E+02
  0
ARC
  8
0
 62
4
 10
1.87499981E+01
 20
-3.75553131E+01
 40
3.00000000E+00
 50
1.80000200E+02
 51
2.68000029E+02
  0
ARC
  8
0
 62
4
 10
7.27500000E+01
 20
-3.75553131E+01
 40
3.00000000E+00
 50
2.72000007E+02
 51
3.59999821E+02
  0
ARC
  8
0
 62
4
 10
7.27500000E+01
 20
-6.94446907E+01
 40
3.00000000E+00
 50
3.59999987E+02
 51
8.79999936E+01
  0
ARC
  8
0
 62
4
 10
1.87499981E+01
 20
-6.94446907E+01
 40
3.00000000E+00
 50
9.19999707E+01
 51
1.80000019E+02
  0
ARC
  8
0
 62
4
 10
2.22499981E+01
 20
-7.70000038E+01
 40
7.00000000E+00
 50
3.03821732E+02
 51
5.89974802E+01
  0
ARC
  8
0
 62
4
 10
3.87500000E+01
 20
-3.20000000E+01
 40
2.00000000E+00
 50
8.99999818E+01
 51
1.79999964E+02
  0
ARC
  8
0
 62
4
 10
5.27500000E+01
 20
-3.20000000E+01
 40
2.00000000E+00
 50
0.00000000E+00
 51
8.99999818E+01
  0
ARC
  8
0
 62
4
 10
5.27500000E+01
 20
-7.50000038E+01
 40
2.00000000E+00
 50
2.70000018E+02
 51
0.00000000E+00
  0
ARC
  8
0
 62
4
 10
3.87500000E+01
 20
-7.50000038E+01
 40
2.00000000E+00
 50
1.79999964E+02
 51
2.70000001E+02
  0
ARC
  8
0
 62
4
 10
2.22499981E+01
 20
-7.70000038E+01
 40
7.00000000E+00
 50
1.21002429E+02
 51
1.58213190E+02
  0
ARC
  8
0
 62
4
 10
2.23499737E+01
 20
-7.60788460E+01
 40
6.59999943E+00
 50
1.80000145E+02
 51
2.68000029E+02
  0
ARC
  8
0
 62
4
 10
6.92499995E+01
 20
-7.70000038E+01
 40
7.00000000E+00
 50
2.17868077E+01
 51
5.89975346E+01
  0
ARC
  8
0
 62
4
 10
6.92499995E+01
 20
-3.00000000E+01
 40
7.00000000E+00
 50
3.01002520E+02
 51
3.38213196E+02
  0
ARC
  8
0
 62
4
 10
6.92499995E+01
 20
-3.00000000E+01
 40
7.00000000E+00
 50
1.23821768E+02
 51
2.38997499E+02
  0
ARC
  8
0
 62
4
 10
2.22499981E+01
 20
-3.00000000E+01
 40
7.00000000E+00
 50
2.01786864E+02
 51
2.38997626E+02
  0
ARC
  8
0
 62
4
 10
2.22499981E+01
 20
-3.00000000E+01
 40
7.00000000E+00
 50
3.01002574E+02
 51
5.61782684E+01
  0
ARC
  8
0
 62
4
 10
6.92499995E+01
 20
-7.70000038E+01
 40
7.00000000E+00
 50
1.21002484E+02
 51
2.36178215E+02
  0
LINE
  8
0
  6
CENTER
 62
6
 10
6.32499996E+01
 20
-3.00000000E+01
 11
7.67500000E+01
 21
-3.00000000E+01
  0
LINE
  8
0
 62
4
 10
2.21196757E+01
 20
-8.26747857E+01
 11
4.57500476E+01
 21
-8.34999765E+01
  0
LINE
  8
0
 62
4
 10
1.86453111E+01
 20
-4.05534728E+01
 11
3.57499976E+01
 21
-4.11507816E+01
  0
LINE
  8
0
  6
CENTER
 62
6
 10
6.92499995E+01
 20
-7.00177650E+01
 11
6.92499995E+01
 21
-8.37999916E+01
  0
LINE
  8
0
  6
CENTER
 62
6
 10
4.57500000E+01
 20
-1.87393494E+01
 11
4.57500000E+01
 21
-8.68268776E+01
  0
LINE
  8
0
  6
CENTER
 62
6
 10
1.47499981E+01
 20
-3.00000000E+01
 11
3.02284527E+01
 21
-3.00000000E+01
  0
LINE
  8
0
  6
CENTER
 62
6
 10
1.11020489E+01
 20
-5.35000000E+01
 11
8.02650146E+01
 21
-5.35000000E+01
  0
LINE
  8
0
 62
4
 10
4.57500264E+01
 20
-8.34999969E+01
 11
6.93803984E+01
 21
-8.26748061E+01
  0
LINE
  8
0
  6
CENTER
 62
6
 10
1.47499981E+01
 20
-7.70000038E+01
 11
2.82499981E+01
 21
-7.70000038E+01
  0
LINE
  8
0
 62
4
 10
1.57499981E+01
 20
-6.94446907E+01
 11
1.57499981E+01
 21
-7.60788460E+01
  0
LINE
  8
0
  6
CENTER
 62
6
 10
6.20068965E+01
 20
-7.70000038E+01
 11
7.67500000E+01
 21
-7.70000038E+01
  0
LINE
  8
0
 62
4
 10
1.86453758E+01
 20
-6.64465179E+01
 11
3.57500623E+01
 21
-6.58492091E+01
  0
LINE
  8
0
  6
CENTER
 62
6
 10
2.22499981E+01
 20
-7.10000038E+01
 11
2.22499981E+01
 21
-8.37999916E+01
  0
LINE
  8
0
 62
4
 10
2.21196785E+01
 20
-2.43251805E+01
 11
4.57500504E+01
 21
-2.34999897E+01
  0
LINE
  8
0
 62
4
 10
4.57500227E+01
 20
-2.34999959E+01
 11
6.93803344E+01
 21
-2.43251846E+01
  0
LINE
  8
0
 62
4
 10
1.57499981E+01
 20
-3.09211731E+01
 11
1.57499981E+01
 21
-3.75553131E+01
  0
LINE
  8
0
  6
CENTER
 62
6
 10
6.92499995E+01
 20
-2.32000122E+01
 11
6.92499995E+01
 21
-3.60000000E+01
  0
LINE
  8
0
 62
4
 10
5.57500151E+01
 20
-4.11507927E+01
 11
7.28547016E+01
 21
-4.05534839E+01
  0
LINE
  8
0
 62
4
 10
7.57500000E+01
 20
-3.09211731E+01
 11
7.57500000E+01
 21
-3.75553131E+01
  0
LINE
  8
0
  6
CENTER
 62
6
 10
2.22499981E+01
 20
-2.32000122E+01
 11
2.22499981E+01
 21
-3.60000000E+01
  0
LINE
  8
0
 62
4
 10
5.57500123E+01
 20
-6.58492001E+01
 11
7.28546983E+01
 21
-6.64465090E+01
  0
LINE
  8
0
 62
4
 10
3.87500000E+01
 20
-3.00000000E+01
 11
5.27500000E+01
 21
-3.00000000E+01
  0
LINE
  8
0
 62
4
 10
5.47500000E+01
 20
-3.20000000E+01
 11
5.47500000E+01
 21
-7.50000038E+01
  0
LINE
  8
0
 62
4
 10
5.47500000E+01
 20
-6.60000000E+01
 11
5.57500000E+01
 21
-6.60000000E+01
  0
LINE
  8
0
 62
4
 10
5.57500000E+01
 20
-4.10000000E+01
 11
5.57500000E+01
 21
-6.60000000E+01
  0
LINE
  8
0
 62
4
 10
3.67500000E+01
 20
-3.20000000E+01
 11
3.67500000E+01
 21
-7.50000038E+01
  0
LINE
  8
0
 62
4
 10
3.57500000E+01
 20
-4.10000000E+01
 11
3.57500000E+01
 21
-6.60000000E+01
  0
LINE
  8
0
 62
4
 10
3.57500000E+01
 20
-6.60000000E+01
 11
3.67500000E+01
 21
-6.60000000E+01
  0
LINE
  8
0
 62
4
 10
5.47500000E+01
 20
-4.10000000E+01
 11
5.57500000E+01
 21
-4.10000000E+01
  0
LINE
  8
0
 62
4
 10
7.28555298E+01
 20
-3.60000153E+01
 11
6.56444699E+01
 21
-3.60000153E+01
  0
LINE
  8
0
 62
4
 10
3.67500000E+01
 20
-3.55000153E+01
 11
2.65801067E+01
 21
-3.55000153E+01
  0
LINE
  8
0
 62
4
 10
6.49198919E+01
 20
-3.55000153E+01
 11
5.47500000E+01
 21
-3.55000153E+01
  0
LINE
  8
0
 62
4
 10
1.86444683E+01
 20
-7.09999886E+01
 11
2.58555279E+01
 21
-7.09999886E+01
  0
LINE
  8
0
 62
4
 10
3.87500000E+01
 20
-7.70000038E+01
 11
5.27500000E+01
 21
-7.70000038E+01
  0
LINE
  8
0
 62
4
 10
6.56444699E+01
 20
-7.09999886E+01
 11
7.28555298E+01
 21
-7.09999886E+01
  0
LINE
  8
0
 62
4
 10
2.65801067E+01
 20
-7.14999886E+01
 11
3.67500000E+01
 21
-7.14999886E+01
  0
LINE
  8
0
 62
4
 10
5.47500000E+01
 20
-7.14999886E+01
 11
6.49198919E+01
 21
-7.14999886E+01
  0
LINE
  8
0
 62
4
 10
2.58555279E+01
 20
-3.60000153E+01
 11
1.86444683E+01
 21
-3.60000153E+01
  0
LINE
  8
0
 62
4
 10
7.57500000E+01
 20
-6.94446907E+01
 11
7.57500000E+01
 21
-7.60788460E+01
  0
LINE
  8
0
 62
4
 10
3.57500000E+01
 20
-4.10000000E+01
 11
3.67500000E+01
 21
-4.10000000E+01
  0
LINE
  8
0
 62
4
 10
3.67500000E+01
 20
-4.40000000E+01
 11
5.47500000E+01
 21
-4.40000000E+01
  0
LINE
  8
0
 62
4
 10
3.67500000E+01
 20
-6.30000000E+01
 11
5.47500000E+01
 21
-6.30000000E+01
  0
ARC
  8
0
 62
4
 10
-6.62500000E+01
 20
3.85000000E+01
 40
2.00000000E+00
 50
2.70000018E+02
 51
3.59999982E+02
  0
ARC
  8
0
 62
4
 10
-6.62500000E+01
 20
9.45000000E+01
 40
2.00000000E+00
 50
3.59999982E+02
 51
8.99999274E+01
  0
ARC
  8
0
 62
4
 10
-4.32500000E+01
 20
5.95000000E+01
 40
2.00000000E+00
 50
2.70000018E+02
 51
3.59999982E+02
  0
ARC
  8
0
 62
4
 10
-4.32500000E+01
 20
7.35000000E+01
 40
2.00000000E+00
 50
3.59999982E+02
 51
8.99999818E+01
  0
ARC
  8
0
 62
4
 10
-6.02500000E+01
 20
5.35000000E+01
 40
4.00000000E+00
 50
8.99999274E+01
 51
1.79999964E+02
  0
ARC
  8
0
 62
4
 10
-6.02500000E+01
 20
7.95000000E+01
 40
4.00000000E+00
 50
1.80000036E+02
 51
2.70000018E+02
  0
LINE
  8
0
 62
4
 10
-6.44499512E+01
 20
8.61037445E+01
 11
-6.44499512E+01
 21
9.53716736E+01
  0
LINE
  8
0
 62
4
 10
-6.44499512E+01
 20
8.61037445E+01
 11
-6.42500000E+01
 21
8.61037445E+01
  0
LINE
  8
0
 62
4
 10
-6.44499512E+01
 20
4.68962555E+01
 11
-6.42500000E+01
 21
4.68962555E+01
  0
LINE
  8
0
 62
4
 10
-6.44499512E+01
 20
3.77500000E+01
 11
-6.44499512E+01
 21
4.68962555E+01
  0
LINE
  8
0
 62
4
 10
-4.32500000E+01
 20
7.65000000E+01
 11
-6.28957520E+01
 21
7.65000000E+01
  0
LINE
  8
0
 62
4
 10
-4.32500000E+01
 20
5.65000000E+01
 11
-6.28957520E+01
 21
5.65000000E+01
  0
LINE
  8
0
 62
4
 10
-4.32500000E+01
 20
7.55000000E+01
 11
-6.02500000E+01
 21
7.55000000E+01
  0
LINE
  8
0
 62
4
 10
-7.42500000E+01
 20
3.62854614E+01
 11
-7.42500000E+01
 21
9.67143555E+01
  0
LINE
  8
0
 62
4
 10
-6.42500000E+01
 20
9.45000000E+01
 11
-6.42500000E+01
 21
3.85000000E+01
  0
LINE
  8
0
  6
CENTER
 62
6
 10
-6.15451965E+01
 20
4.30000000E+01
 11
-7.63410034E+01
 21
4.30000000E+01
  0
LINE
  8
0
  6
CENTER
 62
6
 10
-6.20979767E+01
 20
8.99999390E+01
 11
-7.65616760E+01
 21
8.99999390E+01
  0
LINE
  8
0
 62
4
 10
-4.12500000E+01
 20
7.35000000E+01
 11
-4.12500000E+01
 21
5.95000000E+01
  0
LINE
  8
0
 62
4
 10
-4.32500000E+01
 20
5.75000000E+01
 11
-6.02500000E+01
 21
5.75000000E+01
  0
LINE
  8
0
  6
CENTER
 62
6
 10
-7.72236938E+01
 20
6.65000000E+01
 11
-3.61860046E+01
 21
6.65000000E+01
  0
LINE
  8
0
 62
4
 10
-6.62500000E+01
 20
9.65000000E+01
 11
-7.42500000E+01
 21
9.65000000E+01
  0
LINE
  8
0
 62
4
 10
-4.27499987E+01
 20
7.60000229E+01
 11
-4.32500079E+01
 21
7.65000363E+01
  0
LINE
  8
0
 62
4
 10
-4.27500000E+01
 20
7.60000000E+01
 11
-4.27500000E+01
 21
7.54364624E+01
  0
LINE
  8
0
  6
CENTER
 62
6
 10
-5.52500000E+01
 20
8.15000000E+01
 11
-5.52500000E+01
 21
5.15000000E+01
  0
LINE
  8
0
 62
4
 10
-6.62500000E+01
 20
3.65000000E+01
 11
-7.42500000E+01
 21
3.65000000E+01
  0
LINE
  8
0
 62
4
 10
-4.27500000E+01
 20
5.75635376E+01
 11
-4.27500000E+01
 21
5.70000000E+01
  0
LINE
  8
0
 62
4
 10
-4.27500453E+01
 20
5.69999832E+01
 11
-4.32500330E+01
 21
5.64999913E+01
  0
LINE
  8
0
 62
7
 10
1.09800003E+02
 20
-1.18500000E+02
 11
1.09800003E+02
 21
-1.33500000E+02
  0
LINE
  8
0
 62
7
 10
1.09800003E+02
 20
-1.18500000E+02
 11
1.94800003E+02
 21
-1.18500000E+02
  0
TEXT
  8
0
 62
7
 10
1.15249715E+02
 20
-1.29150000E+02
 40
6.30000019E+00
  1
KOGANEI CORP.
 41
1.04838725E+00
  7
MONOTXT
  0
TEXT
  8
0
 62
7
 10
1.34942863E+02
 20
1.22850006E+02
 40
4.50000000E+00
  1
Ver. 1.0
 41
1.08108085E+00
  7
MONOTXT
  0
LINE
  8
0
 62
7
 10
1.09800003E+02
 20
1.32600006E+02
 11
1.09800003E+02
 21
1.17600006E+02
  0
LINE
  8
0
 62
7
 10
1.09800003E+02
 20
1.17600006E+02
 11
1.94800003E+02
 21
1.17600006E+02
  0
TEXT
  8
0
 62
7
 10
-1.89357136E+02
 20
1.22850006E+02
 40
4.50000000E+00
  1
NEW DYNA CYLINDER
 41
1.07594914E+00
  7
MONOTXT
  0
LINE
  8
0
 62
7
 10
-1.94250000E+02
 20
1.17600006E+02
 11
-1.09250000E+02
 21
1.17600006E+02
  0
LINE
  8
0
 62
7
 10
-1.09250000E+02
 20
1.32600006E+02
 11
-1.09250000E+02
 21
1.17600006E+02
  0
TEXT
  8
0
 62
7
 10
-1.85214688E+02
 20
1.05350006E+02
 40
4.50000000E+00
  1
MODEL:DDA50-8
 41
1.00000000E+00
  7
MONOTXT
  0
LINE
  8
0
 62
7
 10
-1.94250000E+02
 20
1.32600006E+02
 11
1.94800003E+02
 21
1.32600006E+02
  0
LINE
  8
0
 62
7
 10
1.94800003E+02
 20
1.32600006E+02
 11
1.94800003E+02
 21
-1.33500000E+02
  0
LINE
  8
0
 62
7
 10
-1.94250000E+02
 20
1.32600006E+02
 11
-1.94250000E+02
 21
-1.33500000E+02
  0
LINE
  8
0
 62
7
 10
-1.94250000E+02
 20
-1.33500000E+02
 11
1.94800003E+02
 21
-1.33500000E+02
  0
ENDSEC
  0
EOF
