  0
SECTION
  2
HEADER
  9
$ACADVER
  1
AC1003
  9
$EXTMIN
 10
-1.38399994E+02
 20
-9.48000031E+01
  9
$EXTMAX
 10
1.38350006E+02
 20
9.45000000E+01
  9
$LIMMIN
 10
-1.38400994E+02
 20
-9.48010031E+01
  9
$LIMMAX
 10
1.38351006E+02
 20
9.45010000E+01
  9
$SNAPUNIT
 10
1
 20
1
  9
$SNAPBASE
 10
0
 20
0
  9
$GRIDMODE
 70
0
  9
$GRIDUNIT
 10
0
 20
0
  9
$LTSCALE
 40
4.61250000E+00
  9
$TEXTSIZE
 40
3.2
  9
$DIMTAD
 70
0
  9
$LUNITS
 70
2
  9
$LUPREC
 70
4
  9
$FILLETRAD
 40
0
  9
$AUNITS
 70
0
  9
$AUPREC
 70
0
  0
ENDSEC
  0
SECTION
  2
TABLES
  0
TABLE
  2
LTYPE
 70
2
  0
LTYPE
  2
CONTINUOUS
 70
64
  3
Solid-Line
 72
65
 73
0
 40
0
  0
LTYPE
  2
DASHED
 70
64
  3
DASHED
 72
65
 73
2
 40
.75
 49
.5
 49
-.25
  0
LTYPE
  2
HIDDEN
 70
64
  3
HIDDEN
 72
65
 73
2
 40
.375
 49
.25
 49
-.125
  0
LTYPE
  2
CENTER
 70
64
  3
CENTER
 72
65
 73
4
 40
2
 49
1.25
 49
-.25
 49
.25
 49
-.25
  0
LTYPE
  2
PHANTOM
 70
64
  3
PHANTOM
 72
65
 73
6
 40
2.5
 49
1.25
 49
-.25
 49
.25
 49
-.25
 49
.25
 49
-.25
  0
ENDTAB
  0
TABLE
  2
LAYER
 70
1
  0
LAYER
  2
1
 70
0
 62
7
  6
CONTINUOUS
 0
ENDTAB
  0
TABLE
  2
STYLE
 70
2
  0
STYLE
  2
MONOTXT
 70
0
 40
0
 41
1
 50
0
 71
0
 42
.2
  3
monotxt
  0
STYLE
  2
BIGFONT
 70
0
 40
0
 41
1
 50
0
 71
0
 42
.2
  3
txt
  4
bigfont
  0
ENDTAB
  0
ENDSEC
  0
SECTION
  2
ENTITIES
  0
LINE
  8
0
  6
CENTER
 62
6
 10
6.03544967E+01
 20
-5.71484122E+01
 11
5.29787252E+01
 21
-5.71484122E+01
  0
LINE
  8
0
 62
4
 10
5.82001846E+01
 20
-6.55984549E+01
 11
5.82001846E+01
 21
-4.41484122E+01
  0
LINE
  8
0
 62
4
 10
1.42001837E+01
 20
-7.01484122E+01
 11
5.37001837E+01
 21
-7.01484122E+01
  0
LINE
  8
0
 62
4
 10
1.42001837E+01
 20
-6.69484000E+01
 11
5.40001715E+01
 21
-6.69484000E+01
  0
LINE
  8
0
 62
4
 10
5.50001715E+01
 20
-4.41484122E+01
 11
5.50001715E+01
 21
-6.59484000E+01
  0
LINE
  8
0
  6
CENTER
 62
6
 10
2.72001837E+01
 20
-6.38070121E+01
 11
2.72001837E+01
 21
-7.27096610E+01
  0
LINE
  8
0
 62
4
 10
1.42001837E+01
 20
-6.69484000E+01
 11
1.42001837E+01
 21
-7.01484122E+01
  0
LINE
  8
0
 62
4
 10
5.50001715E+01
 20
-4.41484122E+01
 11
5.82001846E+01
 21
-4.41484122E+01
  0
LINE
  8
0
 62
4
 10
3.82001379E+01
 20
-6.69484299E+01
 11
5.50001727E+01
 21
-5.81484100E+01
  0
ARC
  8
0
 62
4
 10
5.40001715E+01
 20
-6.59484000E+01
 40
1.00000000E+00
 50
2.70000018E+02
 51
0.00000000E+00
  0
ARC
  8
0
 62
4
 10
5.37001837E+01
 20
-6.56484122E+01
 40
4.50000000E+00
 50
2.70000018E+02
 51
0.00000000E+00
  0
LINE
  8
0
  6
CENTER
 62
6
 10
-1.07414475E+02
 20
-5.71484122E+01
 11
-9.66141512E+01
 21
-5.71484122E+01
  0
LINE
  8
0
  6
CENTER
 62
6
 10
-1.01799881E+02
 20
-5.21893668E+01
 11
-1.01799881E+02
 21
-7.23309989E+01
  0
LINE
  8
0
  6
CENTER
 62
6
 10
-4.57999422E+01
 20
-5.17330146E+01
 11
-4.57999422E+01
 21
-7.23309989E+01
  0
LINE
  8
0
 62
4
 10
-1.13799881E+02
 20
-7.01484122E+01
 11
-3.37998812E+01
 21
-7.01484122E+01
  0
LINE
  8
0
 62
4
 10
-1.13799881E+02
 20
-6.69484305E+01
 11
-3.37998812E+01
 21
-6.69484305E+01
  0
LINE
  8
0
 62
4
 10
-1.13799881E+02
 20
-6.69484305E+01
 11
-1.13799881E+02
 21
-7.01484122E+01
  0
LINE
  8
0
  6
CENTER
 62
6
 10
-5.11311342E+01
 20
-5.71484122E+01
 11
-4.10914004E+01
 21
-5.71484122E+01
  0
LINE
  8
0
 62
4
 10
-1.13799840E+02
 20
-6.69484161E+01
 11
-1.11532636E+02
 21
-5.40904661E+01
  0
LINE
  8
0
 62
4
 10
-1.05043357E+02
 20
-4.76011977E+01
 11
-8.54617228E+01
 21
-4.41484272E+01
  0
LINE
  8
0
 62
4
 10
-3.37998812E+01
 20
-6.69484305E+01
 11
-3.37998812E+01
 21
-7.01484122E+01
  0
LINE
  8
0
 62
4
 10
-3.37998461E+01
 20
-6.69484156E+01
 11
-3.60670556E+01
 21
-5.40904355E+01
  0
LINE
  8
0
 62
4
 10
-4.25563816E+01
 20
-4.76011796E+01
 11
-6.21380006E+01
 21
-4.41484117E+01
  0
LINE
  8
0
 62
4
 10
-8.45120394E+01
 20
-5.81484122E+01
 11
-6.30877230E+01
 21
-5.81484122E+01
  0
LINE
  8
0
 62
4
 10
-8.57998812E+01
 20
-5.95474906E+01
 11
-8.57998812E+01
 21
-6.69484305E+01
  0
LINE
  8
0
 62
4
 10
-8.97998597E+01
 20
-6.69484101E+01
 11
-8.63327646E+01
 21
-5.93207982E+01
  0
LINE
  8
0
 62
4
 10
-6.17998812E+01
 20
-5.95474906E+01
 11
-6.17998812E+01
 21
-6.69484305E+01
  0
LINE
  8
0
 62
4
 10
-5.77998444E+01
 20
-6.69484207E+01
 11
-6.12669333E+01
 21
-5.93208227E+01
  0
LINE
  8
0
  6
CENTER
 62
6
 10
-7.37999117E+01
 20
-4.11402335E+01
 11
-7.37999117E+01
 21
-7.23309989E+01
  0
ARC
  8
0
 62
4
 10
-7.37998812E+01
 20
-2.91483817E+01
 40
1.90000000E+01
 50
2.32136577E+02
 51
3.07863517E+02
  0
ARC
  8
0
 62
4
 10
-1.03654190E+02
 20
-5.54796500E+01
 40
8.00000000E+00
 50
1.00000062E+02
 51
1.70000034E+02
  0
ARC
  8
0
 62
4
 10
-4.39455721E+01
 20
-5.54796500E+01
 40
8.00000000E+00
 50
9.99992969E+00
 51
7.99999019E+01
  0
ARC
  8
0
 62
4
 10
-8.45120394E+01
 20
-6.01484122E+01
 40
2.00000000E+00
 50
8.99999818E+01
 51
1.55555960E+02
  0
ARC
  8
0
 62
4
 10
-6.30877230E+01
 20
-6.01484122E+01
 40
2.00000000E+00
 50
2.44440039E+01
 51
8.99999818E+01
  0
CIRCLE
  8
0
 62
4
 10
-4.57999422E+01
 20
-5.71484122E+01
 40
3.84999990E+00
  0
CIRCLE
  8
0
 62
4
 10
-1.01799881E+02
 20
-5.71484122E+01
 40
3.84999990E+00
  0
LINE
  8
0
  6
CENTER
 62
6
 10
8.04540232E+00
 20
4.28516717E+01
 11
6.35322178E+01
 21
4.28516717E+01
  0
LINE
  8
0
 62
4
 10
5.50001715E+01
 20
2.38516107E+01
 11
5.82001846E+01
 21
2.38516107E+01
  0
LINE
  8
0
 62
4
 10
5.50001715E+01
 20
6.18516717E+01
 11
5.82001846E+01
 21
6.18516717E+01
  0
LINE
  8
0
 62
4
 10
5.82001846E+01
 20
2.85167170E+00
 11
5.82001846E+01
 21
8.28516717E+01
  0
LINE
  8
0
 62
4
 10
5.50001715E+01
 20
8.28516717E+01
 11
5.50001715E+01
 21
2.85167170E+00
  0
LINE
  8
0
  6
CENTER
 62
6
 10
2.72001837E+01
 20
7.82461267E+01
 11
2.72001837E+01
 21
6.34257836E+01
  0
LINE
  8
0
  6
CENTER
 62
6
 10
5.97544067E+01
 20
7.08516717E+01
 11
1.83114508E+01
 21
7.08516717E+01
  0
LINE
  8
0
 62
4
 10
2.82001837E+01
 20
7.63516717E+01
 11
2.62001837E+01
 21
7.63516717E+01
  0
LINE
  8
0
 62
4
 10
2.82001837E+01
 20
6.53516717E+01
 11
2.62001837E+01
 21
6.53516717E+01
  0
LINE
  8
0
  6
CENTER
 62
6
 10
2.72001837E+01
 20
6.94827509E+00
 11
2.72001837E+01
 21
2.29702630E+01
  0
LINE
  8
0
  6
CENTER
 62
6
 10
6.04128807E+01
 20
1.48516717E+01
 11
1.83114508E+01
 21
1.48516717E+01
  0
LINE
  8
0
 62
4
 10
2.82001837E+01
 20
9.35167170E+00
 11
2.62001837E+01
 21
9.35167170E+00
  0
LINE
  8
0
 62
4
 10
2.82001837E+01
 20
2.03516717E+01
 11
2.62001837E+01
 21
2.03516717E+01
  0
LINE
  8
0
 62
4
 10
1.42001837E+01
 20
7.28516717E+01
 11
1.42001837E+01
 21
1.28516717E+01
  0
LINE
  8
0
 62
4
 10
5.82001846E+01
 20
8.28516717E+01
 11
2.42001837E+01
 21
8.28516717E+01
  0
LINE
  8
0
 62
4
 10
5.82001846E+01
 20
2.85167170E+00
 11
2.42001837E+01
 21
2.85167170E+00
  0
LINE
  8
0
 62
4
 10
5.50001715E+01
 20
3.08516717E+01
 11
4.07646978E+01
 21
3.08516717E+01
  0
LINE
  8
0
 62
4
 10
3.82001226E+01
 20
5.32719598E+01
 11
3.82001226E+01
 21
3.24313836E+01
  0
LINE
  8
0
 62
4
 10
5.50001251E+01
 20
5.88515939E+01
 11
3.97369119E+01
 21
5.52174961E+01
  0
LINE
  8
0
 62
4
 10
5.50001258E+01
 20
2.68516855E+01
 11
3.97368495E+01
 21
3.04857983E+01
  0
LINE
  8
0
 62
4
 10
5.50001715E+01
 20
5.48516717E+01
 11
4.07646978E+01
 21
5.48516717E+01
  0
ARC
  8
0
 62
4
 10
2.82001837E+01
 20
7.08516717E+01
 40
5.50000000E+00
 50
2.69999998E+02
 51
8.99999618E+01
  0
ARC
  8
0
 62
4
 10
2.62001837E+01
 20
7.08516717E+01
 40
5.50000000E+00
 50
8.99999750E+01
 51
2.70000001E+02
  0
ARC
  8
0
 62
4
 10
2.82001837E+01
 20
1.48516717E+01
 40
5.50000000E+00
 50
2.69999998E+02
 51
8.99999618E+01
  0
ARC
  8
0
 62
4
 10
2.62001837E+01
 20
1.48516717E+01
 40
5.50000000E+00
 50
8.99999618E+01
 51
2.70000001E+02
  0
ARC
  8
0
 62
4
 10
2.42001837E+01
 20
7.28516717E+01
 40
1.00000000E+01
 50
8.99999750E+01
 51
1.80000032E+02
  0
ARC
  8
0
 62
4
 10
2.42001837E+01
 20
1.28516717E+01
 40
1.00000000E+01
 50
1.79999964E+02
 51
2.70000001E+02
  0
ARC
  8
0
 62
4
 10
4.02001226E+01
 20
5.32719598E+01
 40
2.00000000E+00
 50
1.03392453E+02
 51
1.80000019E+02
  0
ARC
  8
0
 62
4
 10
4.02001226E+01
 20
3.24313836E+01
 40
2.00000000E+00
 50
1.79999964E+02
 51
2.56607530E+02
  0
LINE
  8
0
 62
7
 10
-7.33999939E+01
 20
9.45000000E+01
 11
-7.33999939E+01
 21
8.45000000E+01
  0
TEXT
  8
0
 62
7
 10
-1.32642850E+02
 20
8.79000001E+01
 40
3.19999981E+00
  1
NEW DYNA CYLINDER
 41
1.07594937E+00
  7
MONOTXT
  0
LINE
  8
0
 62
7
 10
-1.38399994E+02
 20
8.45000000E+01
 11
-7.33999939E+01
 21
8.45000000E+01
  0
TEXT
  8
0
 62
7
 10
7.72426624E+01
 20
-9.20500031E+01
 40
4.50000000E+00
  1
KOGANEI CORP.
 41
1.04838710E+00
  7
MONOTXT
  0
LINE
  8
0
 62
7
 10
7.33500061E+01
 20
-8.48000031E+01
 11
1.38350006E+02
 21
-8.48000031E+01
  0
LINE
  8
0
 62
7
 10
7.33500061E+01
 20
-8.48000031E+01
 11
7.33500061E+01
 21
-9.48000031E+01
  0
TEXT
  8
0
 62
7
 10
9.35071493E+01
 20
8.79000001E+01
 40
3.19999981E+00
  1
Ver. 1.0
 41
1.08108108E+00
  7
MONOTXT
  0
LINE
  8
0
 62
7
 10
7.33500061E+01
 20
8.45000000E+01
 11
1.38350006E+02
 21
8.45000000E+01
  0
LINE
  8
0
 62
7
 10
7.33500061E+01
 20
9.45000000E+01
 11
7.33500061E+01
 21
8.45000000E+01
  0
LINE
  8
0
 62
7
 10
-1.38399994E+02
 20
9.45000000E+01
 11
1.38350006E+02
 21
9.45000000E+01
  0
LINE
  8
0
 62
7
 10
1.38350006E+02
 20
9.45000000E+01
 11
1.38350006E+02
 21
-9.48000031E+01
  0
LINE
  8
0
 62
7
 10
-1.38399994E+02
 20
-9.48000031E+01
 11
1.38350006E+02
 21
-9.48000031E+01
  0
LINE
  8
0
 62
7
 10
-1.38399994E+02
 20
9.45000000E+01
 11
-1.38399994E+02
 21
-9.48000031E+01
  0
TEXT
  8
0
 62
7
 10
-1.29085994E+02
 20
7.29000001E+01
 40
3.19999981E+00
  1
MODEL:DDA63-1
 41
1.00000000E+00
  7
MONOTXT
  0
ENDSEC
  0
EOF
