  0
SECTION
  2
HEADER
  9
$ACADVER
  1
AC1003
  9
$EXTMIN
 10
-2.81250000E+02
 20
-2.12707992E+02
  9
$EXTMAX
 10
2.82099854E+02
 20
1.95500000E+02
  9
$LIMMIN
 10
-2.81251000E+02
 20
-2.12708992E+02
  9
$LIMMAX
 10
2.82100854E+02
 20
1.95501000E+02
  9
$SNAPUNIT
 10
1
 20
1
  9
$SNAPBASE
 10
0
 20
0
  9
$GRIDMODE
 70
0
  9
$GRIDUNIT
 10
0
 20
0
  9
$LTSCALE
 40
9.38916423E+00
  9
$TEXTSIZE
 40
3.2
  9
$DIMTAD
 70
0
  9
$LUNITS
 70
2
  9
$LUPREC
 70
4
  9
$FILLETRAD
 40
0
  9
$AUNITS
 70
0
  9
$AUPREC
 70
0
  0
ENDSEC
  0
SECTION
  2
TABLES
  0
TABLE
  2
LTYPE
 70
2
  0
LTYPE
  2
CONTINUOUS
 70
64
  3
Solid-Line
 72
65
 73
0
 40
0
  0
LTYPE
  2
DASHED
 70
64
  3
DASHED
 72
65
 73
2
 40
.75
 49
.5
 49
-.25
  0
LTYPE
  2
HIDDEN
 70
64
  3
HIDDEN
 72
65
 73
2
 40
.375
 49
.25
 49
-.125
  0
LTYPE
  2
CENTER
 70
64
  3
CENTER
 72
65
 73
4
 40
2
 49
1.25
 49
-.25
 49
.25
 49
-.25
  0
LTYPE
  2
PHANTOM
 70
64
  3
PHANTOM
 72
65
 73
6
 40
2.5
 49
1.25
 49
-.25
 49
.25
 49
-.25
 49
.25
 49
-.25
  0
ENDTAB
  0
TABLE
  2
LAYER
 70
1
  0
LAYER
  2
1
 70
0
 62
7
  6
CONTINUOUS
 0
ENDTAB
  0
TABLE
  2
STYLE
 70
2
  0
STYLE
  2
MONOTXT
 70
0
 40
0
 41
1
 50
0
 71
0
 42
.2
  3
monotxt
  0
STYLE
  2
BIGFONT
 70
0
 40
0
 41
1
 50
0
 71
0
 42
.2
  3
txt
  4
bigfont
  0
ENDTAB
  0
ENDSEC
  0
SECTION
  2
ENTITIES
  0
LINE
  8
0
  6
CENTER
 62
6
 10
1.07186703E+02
 20
-9.82079324E+01
 11
6.57320682E+01
 21
-9.82081244E+01
  0
LINE
  8
0
  6
CENTER
 62
6
 10
5.94981586E+01
 20
-7.02081228E+01
 11
1.12796975E+02
 21
-7.02078759E+01
  0
LINE
  8
0
  6
CENTER
 62
6
 10
1.06251377E+02
 20
-4.22079062E+01
 11
6.60434962E+01
 21
-4.22080924E+01
  0
LINE
  8
0
 62
4
 10
7.37281668E+01
 20
-9.02080568E+01
 11
1.00228655E+02
 21
-9.02079341E+01
  0
LINE
  8
0
 62
4
 10
7.37279815E+01
 20
-5.02080568E+01
 11
1.00228409E+02
 21
-5.02079341E+01
  0
LINE
  8
0
 62
4
 10
1.01978239E+02
 20
-5.32045996E+01
 11
1.00490629E+02
 21
-5.32046065E+01
  0
LINE
  8
0
 62
4
 10
7.34658494E+01
 20
-5.32047316E+01
 11
7.19782396E+01
 21
-5.32047385E+01
  0
LINE
  8
0
 62
4
 10
1.01978191E+02
 20
-4.22079631E+01
 11
9.95284843E+01
 21
-4.22079616E+01
  0
LINE
  8
0
 62
4
 10
7.19781682E+01
 20
-4.22081161E+01
 11
7.44278142E+01
 21
-4.22080973E+01
  0
LINE
  8
0
 62
4
 10
9.84497041E+01
 20
-2.98784444E+01
 11
9.87050858E+01
 21
-3.27973169E+01
  0
LINE
  8
0
 62
4
 10
7.19764952E+01
 20
-7.02288272E+01
 11
7.44278602E+01
 21
-4.22080880E+01
  0
LINE
  8
0
 62
4
 10
1.01978159E+02
 20
-3.30863225E+01
 11
8.69781014E+01
 21
-3.17619312E+01
  0
LINE
  8
0
 62
4
 10
7.19781187E+01
 20
-3.30864453E+01
 11
8.69781645E+01
 21
-3.17619222E+01
  0
LINE
  8
0
 62
4
 10
7.73229527E+01
 20
-2.80605996E+01
 11
8.69780725E+01
 21
-2.72080408E+01
  0
LINE
  8
0
 62
4
 10
9.66332212E+01
 20
-2.80604928E+01
 11
8.69780932E+01
 21
-2.72080223E+01
  0
LINE
  8
0
 62
4
 10
7.52511424E+01
 20
-3.27974217E+01
 11
7.55064971E+01
 21
-2.98785468E+01
  0
LINE
  8
0
 62
4
 10
1.01978146E+02
 20
-3.30862677E+01
 11
1.01978239E+02
 21
-5.32045996E+01
  0
LINE
  8
0
 62
4
 10
7.19781464E+01
 20
-3.30864066E+01
 11
7.19782396E+01
 21
-5.32047385E+01
  0
LINE
  8
0
 62
4
 10
1.00490787E+02
 20
-8.72112593E+01
 11
1.01978397E+02
 21
-8.72112524E+01
  0
LINE
  8
0
 62
4
 10
7.19783971E+01
 20
-8.72113914E+01
 11
7.34660070E+01
 21
-8.72113845E+01
  0
LINE
  8
0
 62
4
 10
9.95287251E+01
 20
-9.82079054E+01
 11
1.01978432E+02
 21
-9.82078813E+01
  0
LINE
  8
0
 62
4
 10
7.44281261E+01
 20
-9.82080252E+01
 11
7.19784801E+01
 21
-9.82080290E+01
  0
LINE
  8
0
 62
4
 10
9.87054434E+01
 20
-1.07618578E+02
 11
9.84500887E+01
 21
-1.10537453E+02
  0
LINE
  8
0
 62
4
 10
8.69784708E+01
 20
-1.08654083E+02
 11
1.01978516E+02
 21
-1.07329553E+02
  0
LINE
  8
0
 62
4
 10
8.69784866E+01
 20
-1.08654080E+02
 11
7.19784894E+01
 21
-1.07329701E+02
  0
LINE
  8
0
 62
4
 10
8.69785315E+01
 20
-1.13207972E+02
 11
7.73233428E+01
 21
-1.12355497E+02
  0
LINE
  8
0
 62
4
 10
8.69784996E+01
 20
-1.13207972E+02
 11
9.66336201E+01
 21
-1.12355412E+02
  0
LINE
  8
0
 62
4
 10
7.55068610E+01
 20
-1.10537556E+02
 11
7.52514793E+01
 21
-1.07618683E+02
  0
LINE
  8
0
  6
CENTER
 62
6
 10
8.69780851E+01
 20
-1.98692198E+01
 11
8.69785276E+01
 21
-1.15379424E+02
  0
LINE
  8
0
 62
4
 10
1.01978397E+02
 20
-8.72112524E+01
 11
1.01978490E+02
 21
-1.07329584E+02
  0
LINE
  8
0
 62
4
 10
7.19783971E+01
 20
-8.72113914E+01
 11
7.19784903E+01
 21
-1.07329723E+02
  0
LINE
  8
0
 62
4
 10
1.01978274E+02
 20
-7.02079371E+01
 11
9.95287264E+01
 21
-9.82079045E+01
  0
LINE
  8
0
 62
4
 10
9.95284539E+01
 20
-4.22079604E+01
 11
1.01978264E+02
 21
-7.02079355E+01
  0
LINE
  8
0
 62
4
 10
7.44281151E+01
 20
-9.82080853E+01
 11
7.19764852E+01
 21
-7.01873080E+01
  0
ARC
  8
0
 62
4
 10
9.64573804E+01
 20
-3.00527392E+01
 40
2.00000000E+00
 50
4.99991266E+00
 51
8.49544863E+01
  0
ARC
  8
0
 62
4
 10
7.74988843E+01
 20
-3.00528270E+01
 40
2.00000000E+00
 50
9.50463913E+01
 51
1.75000258E+02
  0
ARC
  8
0
 62
4
 10
9.64577524E+01
 20
-1.10363179E+02
 40
2.00000000E+00
 50
2.75046099E+02
 51
3.55000588E+02
  0
ARC
  8
0
 62
4
 10
7.74992563E+01
 20
-1.10363267E+02
 40
2.00000000E+00
 50
1.85000219E+02
 51
2.64954085E+02
  0
CIRCLE
  8
0
 62
4
 10
8.69783183E+01
 20
-7.02079955E+01
 40
1.20000000E+01
  0
CIRCLE
  8
0
 62
4
 10
8.69783183E+01
 20
-7.02079955E+01
 40
1.25000000E+01
  0
LINE
  8
0
  6
CENTER
 62
6
 10
-1.51021827E+02
 20
-1.10206393E+02
 11
-1.51021827E+02
 21
-8.76734038E+01
  0
LINE
  8
0
  6
CENTER
 62
6
 10
-1.51021735E+02
 20
-5.34375945E+01
 11
-1.51021735E+02
 21
-3.06500121E+01
  0
LINE
  8
0
  6
CENTER
 62
6
 10
-9.50216435E+01
 20
-3.05227232E+01
 11
-9.50216435E+01
 21
-5.34375945E+01
  0
LINE
  8
0
  6
CENTER
 62
6
 10
-1.96041663E+02
 20
-7.02079955E+01
 11
-5.07821568E+01
 21
-7.02079955E+01
  0
LINE
  8
0
  6
CENTER
 62
6
 10
-1.63066779E+02
 20
-4.22079497E+01
 11
-1.40915686E+02
 21
-4.22079497E+01
  0
LINE
  8
0
  6
CENTER
 62
6
 10
-8.29919804E+01
 20
-9.82080412E+01
 11
-1.05524939E+02
 21
-9.82080412E+01
  0
LINE
  8
0
  6
CENTER
 62
6
 10
-1.40788398E+02
 20
-9.82080412E+01
 11
-1.63066779E+02
 21
-9.82080412E+01
  0
LINE
  8
0
  6
CENTER
 62
6
 10
-1.05652228E+02
 20
-4.22079497E+01
 11
-8.31192693E+01
 21
-4.22079497E+01
  0
LINE
  8
0
  6
CENTER
 62
6
 10
-9.50216740E+01
 20
-8.86475249E+01
 11
-9.50216740E+01
 21
-1.10203906E+02
  0
LINE
  8
0
  6
CENTER
 62
6
 10
-1.23021705E+02
 20
-2.44372130E+01
 11
-1.23021705E+02
 21
-1.16214065E+02
  0
LINE
  8
0
 62
4
 10
-7.74217137E+01
 20
-5.77079955E+01
 11
-5.50217198E+01
 21
-5.77079955E+01
  0
LINE
  8
0
 62
4
 10
-7.90217198E+01
 20
-5.02079955E+01
 11
-7.90217198E+01
 21
-9.02079955E+01
  0
LINE
  8
0
 62
4
 10
-1.67021705E+02
 20
-5.02079955E+01
 11
-1.67021705E+02
 21
-9.02079802E+01
  0
LINE
  8
0
 62
4
 10
-1.92021705E+02
 20
-5.87080107E+01
 11
-1.92021705E+02
 21
-8.17079955E+01
  0
LINE
  8
0
 62
4
 10
-7.74217137E+01
 20
-8.27079955E+01
 11
-5.50217503E+01
 21
-8.27079955E+01
  0
LINE
  8
0
 62
4
 10
-1.91021705E+02
 20
-5.77079955E+01
 11
-1.68621711E+02
 21
-5.77079955E+01
  0
LINE
  8
0
 62
4
 10
-1.91021705E+02
 20
-8.27079955E+01
 11
-1.68621711E+02
 21
-8.27079955E+01
  0
LINE
  8
0
 62
4
 10
-5.40217198E+01
 20
-5.87080107E+01
 11
-5.40217198E+01
 21
-8.17079955E+01
  0
LINE
  8
0
 62
4
 10
-1.91021691E+02
 20
-5.77079753E+01
 11
-1.92021710E+02
 21
-5.87080024E+01
  0
LINE
  8
0
 62
4
 10
-1.91021705E+02
 20
-8.27079955E+01
 11
-1.91021705E+02
 21
-5.77079955E+01
  0
LINE
  8
0
 62
4
 10
-1.92021716E+02
 20
-8.17079846E+01
 11
-1.91021689E+02
 21
-8.27080029E+01
  0
LINE
  8
0
 62
4
 10
-5.40217321E+01
 20
-8.17079865E+01
 11
-5.50217377E+01
 21
-8.27079832E+01
  0
LINE
  8
0
 62
4
 10
-5.50217349E+01
 20
-5.77079987E+01
 11
-5.40217382E+01
 21
-5.87080043E+01
  0
LINE
  8
0
 62
4
 10
-5.50217198E+01
 20
-5.77079955E+01
 11
-5.50217198E+01
 21
-8.27079955E+01
  0
LINE
  8
0
 62
4
 10
-1.23021732E+02
 20
-1.12207965E+02
 11
-9.29023892E+01
 21
-1.07618620E+02
  0
LINE
  8
0
 62
4
 10
-1.23021707E+02
 20
-1.12207971E+02
 11
-1.53141050E+02
 21
-1.07618625E+02
  0
LINE
  8
0
 62
4
 10
-1.23021703E+02
 20
-2.82080131E+01
 11
-1.53141046E+02
 21
-3.27973587E+01
  0
LINE
  8
0
 62
4
 10
-1.23021721E+02
 20
-2.82080205E+01
 11
-9.29023782E+01
 21
-3.27973660E+01
  0
LINE
  8
0
 62
4
 10
-1.67021705E+02
 20
-7.02079955E+01
 11
-1.57021689E+02
 21
-7.02079955E+01
  0
LINE
  8
0
 62
4
 10
-8.90217198E+01
 20
-7.02079955E+01
 11
-7.90217198E+01
 21
-7.02079955E+01
  0
ARC
  8
0
 62
4
 10
-1.23572944E+02
 20
-7.06091033E+01
 40
4.80000000E+01
 50
1.24071998E+02
 51
1.54847875E+02
  0
ARC
  8
0
 62
4
 10
-1.22470466E+02
 20
-6.98068877E+01
 40
4.80000000E+01
 50
3.04072003E+02
 51
3.34847876E+02
  0
ARC
  8
0
 62
4
 10
-1.23572944E+02
 20
-6.98068877E+01
 40
4.80000000E+01
 50
2.05152126E+02
 51
2.35928002E+02
  0
ARC
  8
0
 62
4
 10
-1.68621711E+02
 20
-5.61079894E+01
 40
1.59999943E+00
 50
2.70000018E+02
 51
0.00000000E+00
  0
ARC
  8
0
 62
4
 10
-1.68621711E+02
 20
-8.43080016E+01
 40
1.59999943E+00
 50
0.00000000E+00
 51
8.99999818E+01
  0
ARC
  8
0
 62
4
 10
-1.22470466E+02
 20
-7.06091033E+01
 40
4.80000000E+01
 50
2.51521170E+01
 51
5.59279966E+01
  0
ARC
  8
0
 62
4
 10
-1.23021705E+02
 20
-1.19707992E+02
 40
9.30000000E+01
 50
7.28376361E+01
 51
1.07162363E+02
  0
ARC
  8
0
 62
4
 10
-1.23021705E+02
 20
-2.07079955E+01
 40
9.30000000E+01
 50
2.52837638E+02
 51
2.87162364E+02
  0
ARC
  8
0
 62
4
 10
-7.74217137E+01
 20
-8.43080016E+01
 40
1.59999943E+00
 50
8.99999818E+01
 51
1.79999964E+02
  0
ARC
  8
0
 62
4
 10
-7.74217137E+01
 20
-5.61079894E+01
 40
1.59999943E+00
 50
1.79999964E+02
 51
2.70000001E+02
  0
CIRCLE
  8
0
 62
4
 10
-1.23021705E+02
 20
-7.02079955E+01
 40
3.39999847E+01
  0
ARC
  8
0
 62
4
 10
-9.50216740E+01
 20
-9.82080412E+01
 40
9.45408154E+00
 50
3.42805741E+02
 51
8.70400991E+01
  0
ARC
  8
0
 62
4
 10
-9.50216740E+01
 20
-9.82080412E+01
 40
9.45408154E+00
 50
1.82959871E+02
 51
2.85240417E+02
  0
ARC
  8
0
 62
4
 10
-1.51021735E+02
 20
-9.82080412E+01
 40
9.45408154E+00
 50
2.54759584E+02
 51
3.57040129E+02
  0
ARC
  8
0
 62
4
 10
-1.51021735E+02
 20
-9.82080412E+01
 40
9.45408154E+00
 50
9.29598990E+01
 51
1.97194255E+02
  0
CIRCLE
  8
0
 62
4
 10
-1.51021827E+02
 20
-9.82080412E+01
 40
3.84999990E+00
  0
CIRCLE
  8
0
 62
4
 10
-9.50216740E+01
 20
-9.82080412E+01
 40
3.84999990E+00
  0
ARC
  8
0
 62
4
 10
-1.51021735E+02
 20
-4.22079497E+01
 40
9.45408154E+00
 50
2.95987123E+00
 51
1.05240415E+02
  0
ARC
  8
0
 62
4
 10
-9.50216740E+01
 20
-4.22079497E+01
 40
9.45408154E+00
 50
7.47595830E+01
 51
1.77040129E+02
  0
ARC
  8
0
 62
4
 10
-1.51021735E+02
 20
-4.22079497E+01
 40
9.45408154E+00
 50
1.62805741E+02
 51
2.67040097E+02
  0
ARC
  8
0
 62
4
 10
-9.50216740E+01
 20
-4.22079497E+01
 40
9.45408154E+00
 50
2.72959901E+02
 51
1.71942584E+01
  0
CIRCLE
  8
0
 62
4
 10
-1.51021827E+02
 20
-4.22079497E+01
 40
3.84999990E+00
  0
CIRCLE
  8
0
 62
4
 10
-9.50216740E+01
 20
-4.22079497E+01
 40
3.84999990E+00
  0
LINE
  8
0
  6
CENTER
 62
6
 10
6.46299907E+01
 20
1.06791994E+02
 11
1.07868364E+02
 21
1.06792103E+02
  0
LINE
  8
0
  6
CENTER
 62
6
 10
1.06221259E+02
 20
7.87920376E+01
 11
6.77185162E+01
 21
7.87919409E+01
  0
LINE
  8
0
  6
CENTER
 62
6
 10
1.05809324E+02
 20
1.34792159E+02
 11
6.81301721E+01
 21
1.34792064E+02
  0
LINE
  8
0
 62
4
 10
7.19782756E+01
 20
1.23795370E+02
 11
7.19782078E+01
 21
1.50792013E+02
  0
LINE
  8
0
 62
4
 10
1.01978276E+02
 20
1.23795445E+02
 11
1.01978208E+02
 21
1.50792088E+02
  0
LINE
  8
0
 62
4
 10
7.35353786E+01
 20
6.27921200E+01
 11
7.44280774E+01
 21
6.82300764E+01
  0
LINE
  8
0
 62
4
 10
7.44281222E+01
 20
6.82300071E+01
 11
7.19784152E+01
 21
6.82300009E+01
  0
LINE
  8
0
 62
4
 10
7.44279064E+01
 20
1.45353981E+02
 11
7.35351758E+01
 21
1.50791963E+02
  0
LINE
  8
0
 62
4
 10
7.19782215E+01
 20
1.45354024E+02
 11
7.44279285E+01
 21
1.45354031E+02
  0
LINE
  8
0
 62
4
 10
7.35353536E+01
 20
9.10152222E+01
 11
7.44280097E+01
 21
1.06791991E+02
  0
LINE
  8
0
 62
4
 10
7.44280005E+01
 20
1.06791974E+02
 11
7.35352661E+01
 21
1.22568739E+02
  0
LINE
  8
0
 62
4
 10
7.19782461E+01
 20
1.35537069E+02
 11
7.34696402E+01
 21
1.35537073E+02
  0
LINE
  8
0
 62
4
 10
7.19783905E+01
 20
7.80470175E+01
 11
7.34697846E+01
 21
7.80470213E+01
  0
LINE
  8
0
 62
4
 10
7.44689037E+01
 20
7.90044210E+01
 11
7.56528895E+01
 21
1.06792014E+02
  0
LINE
  8
0
 62
4
 10
7.56528620E+01
 20
1.06792008E+02
 11
7.44687374E+01
 21
1.34579596E+02
  0
LINE
  8
0
 62
4
 10
9.95287783E+01
 20
6.82300768E+01
 11
1.00421509E+02
 21
6.27920948E+01
  0
LINE
  8
0
 62
4
 10
1.01978415E+02
 20
6.82300763E+01
 11
9.95287692E+01
 21
6.82300701E+01
  0
LINE
  8
0
 62
4
 10
1.00421281E+02
 20
1.50792121E+02
 11
9.95285722E+01
 21
1.45354105E+02
  0
LINE
  8
0
 62
4
 10
9.95285755E+01
 20
1.45354094E+02
 11
1.01978221E+02
 21
1.45354100E+02
  0
LINE
  8
0
 62
4
 10
9.95286662E+01
 20
1.06792070E+02
 11
1.00421400E+02
 21
9.10153363E+01
  0
LINE
  8
0
 62
4
 10
1.00421326E+02
 20
1.22568819E+02
 11
9.95286705E+01
 21
1.06792050E+02
  0
LINE
  8
0
 62
4
 10
1.00486852E+02
 20
1.35537140E+02
 11
1.01978246E+02
 21
1.35537144E+02
  0
LINE
  8
0
 62
4
 10
1.00486996E+02
 20
7.80470891E+01
 11
1.01978390E+02
 21
7.80470929E+01
  0
LINE
  8
0
 62
4
 10
9.83038178E+01
 20
1.06792074E+02
 11
9.94879444E+01
 21
7.90044564E+01
  0
LINE
  8
0
 62
4
 10
9.94877728E+01
 20
1.34579688E+02
 11
9.83037876E+01
 21
1.06792094E+02
  0
LINE
  8
0
 62
4
 10
7.44782038E+01
 20
1.52391994E+02
 11
7.44781475E+01
 21
1.74792019E+02
  0
LINE
  8
0
 62
4
 10
9.94782038E+01
 20
1.52392057E+02
 11
9.94781475E+01
 21
1.74792082E+02
  0
LINE
  8
0
 62
4
 10
1.01978429E+02
 20
6.27921185E+01
 11
1.01978361E+02
 21
8.97887921E+01
  0
LINE
  8
0
 62
4
 10
7.19784289E+01
 20
6.27920431E+01
 11
7.19783610E+01
 21
8.97887167E+01
  0
LINE
  8
0
 62
4
 10
7.44781516E+01
 20
1.74791996E+02
 11
7.54781734E+01
 21
1.75792020E+02
  0
LINE
  8
0
 62
4
 10
9.84781697E+01
 20
1.75792074E+02
 11
9.94781767E+01
 21
1.74792079E+02
  0
LINE
  8
0
 62
4
 10
9.84785143E+01
 20
3.77920824E+01
 11
9.94784948E+01
 21
3.87920609E+01
  0
LINE
  8
0
 62
4
 10
7.44784674E+01
 20
3.87920010E+01
 11
7.54784726E+01
 21
3.77920040E+01
  0
LINE
  8
0
 62
4
 10
7.44784892E+01
 20
3.87920494E+01
 11
7.44784329E+01
 21
6.11920433E+01
  0
LINE
  8
0
 62
4
 10
9.94784892E+01
 20
3.87921122E+01
 11
9.94784329E+01
 21
6.11921061E+01
  0
LINE
  8
0
 62
4
 10
7.54781450E+01
 20
1.75792021E+02
 11
9.84781450E+01
 21
1.75792079E+02
  0
LINE
  8
0
 62
4
 10
7.44781475E+01
 20
1.74792019E+02
 11
9.94781475E+01
 21
1.74792082E+02
  0
LINE
  8
0
 62
4
 10
7.19782078E+01
 20
1.50792013E+02
 11
1.01978208E+02
 21
1.50792088E+02
  0
LINE
  8
0
 62
4
 10
7.19784289E+01
 20
6.27920431E+01
 11
1.01978429E+02
 21
6.27921185E+01
  0
LINE
  8
0
 62
4
 10
7.44784892E+01
 20
3.87920494E+01
 11
9.94784892E+01
 21
3.87921122E+01
  0
LINE
  8
0
 62
4
 10
7.54784917E+01
 20
3.77920519E+01
 11
9.84784917E+01
 21
3.77921097E+01
  0
LINE
  8
0
  6
CENTER
 62
6
 10
8.69785121E+01
 20
2.96681642E+01
 11
8.69781320E+01
 21
1.80951962E+02
  0
ARC
  8
0
 62
4
 10
7.22373910E+01
 20
9.10887052E+01
 40
1.29999924E+00
 50
2.70000107E+02
 51
3.56761651E+02
  0
ARC
  8
0
 62
4
 10
7.22373121E+01
 20
1.22495321E+02
 40
1.29999924E+00
 50
3.23870972E+00
 51
9.00001807E+01
  0
ARC
  8
0
 62
4
 10
7.34696427E+01
 20
1.34537073E+02
 40
1.00000000E+00
 50
2.44017864E+00
 51
9.00002901E+01
  0
ARC
  8
0
 62
4
 10
7.34697821E+01
 20
7.90469602E+01
 40
1.00000000E+00
 50
2.69999998E+02
 51
3.57560183E+02
  0
ARC
  8
0
 62
4
 10
1.01719324E+02
 20
9.10887792E+01
 40
1.29999924E+00
 50
1.83238673E+02
 51
2.70000271E+02
  0
ARC
  8
0
 62
4
 10
1.01719246E+02
 20
1.22495395E+02
 40
1.29999924E+00
 50
9.00000712E+01
 51
1.76761615E+02
  0
ARC
  8
0
 62
4
 10
1.00486915E+02
 20
1.34537140E+02
 40
1.00000000E+00
 50
8.99999074E+01
 51
1.77560146E+02
  0
ARC
  8
0
 62
4
 10
1.00486994E+02
 20
7.90470281E+01
 40
1.00000000E+00
 50
1.82440142E+02
 51
2.70000380E+02
  0
ARC
  8
0
 62
4
 10
7.28782282E+01
 20
1.52391990E+02
 40
1.59999943E+00
 50
2.70000162E+02
 51
1.44615548E-04
  0
ARC
  8
0
 62
4
 10
1.01078240E+02
 20
1.52392061E+02
 40
1.59999943E+00
 50
1.80000108E+02
 51
2.70000090E+02
  0
ARC
  8
0
 62
4
 10
1.01078408E+02
 20
6.11921101E+01
 40
1.59999943E+00
 50
9.00001257E+01
 51
1.80000108E+02
  0
ARC
  8
0
 62
4
 10
7.28784573E+01
 20
6.11920393E+01
 40
1.59999943E+00
 50
1.61918393E-04
 51
9.00001257E+01
  0
LINE
  8
0
 62
7
 10
-2.81250000E+02
 20
1.75500000E+02
 11
-1.61250000E+02
 21
1.75500000E+02
  0
LINE
  8
0
 62
7
 10
-1.61250000E+02
 20
1.95500000E+02
 11
-1.61250000E+02
 21
1.75500000E+02
  0
TEXT
  8
0
 62
7
 10
-2.73900291E+02
 20
1.82350000E+02
 40
6.30000019E+00
  1
NEW DYNA CYLINDER
 41
1.07594953E+00
  7
MONOTXT
  0
LINE
  8
0
 62
7
 10
2.82099854E+02
 20
1.95500000E+02
 11
2.82099854E+02
 21
-1.95000000E+02
  0
LINE
  8
0
 62
7
 10
-2.81250000E+02
 20
1.95500000E+02
 11
2.82099854E+02
 21
1.95500000E+02
  0
LINE
  8
0
 62
7
 10
-2.81250000E+02
 20
1.95500000E+02
 11
-2.81250000E+02
 21
-1.95000000E+02
  0
LINE
  8
0
 62
7
 10
-2.81250000E+02
 20
-1.95000000E+02
 11
2.82099854E+02
 21
-1.95000000E+02
  0
LINE
  8
0
 62
7
 10
1.62099976E+02
 20
-1.75000000E+02
 11
1.62099976E+02
 21
-1.95000000E+02
  0
LINE
  8
0
 62
7
 10
1.62099976E+02
 20
-1.75000000E+02
 11
2.82099854E+02
 21
-1.75000000E+02
  0
LINE
  8
0
 62
7
 10
1.62099976E+02
 20
1.75500000E+02
 11
2.82099854E+02
 21
1.75500000E+02
  0
LINE
  8
0
 62
7
 10
1.62099976E+02
 20
1.95500000E+02
 11
1.62099976E+02
 21
1.75500000E+02
  0
TEXT
  8
0
 62
7
 10
1.97799690E+02
 20
1.82350000E+02
 40
6.30000019E+00
  1
Ver. 1.0
 41
1.08108124E+00
  7
MONOTXT
  0
TEXT
  8
0
 62
7
 10
1.69885289E+02
 20
-1.89500000E+02
 40
9.00000000E+00
  1
KOGANEI CORP.
 41
1.04838710E+00
  7
MONOTXT
  0
TEXT
  8
0
 62
7
 10
-2.67600562E+02
 20
1.57350000E+02
 40
6.30000019E+00
  1
MODEL:DDA63-11
 41
1.00000015E+00
  7
MONOTXT
  0
ENDSEC
  0
EOF
