  0
SECTION
  2
HEADER
  9
$ACADVER
  1
AC1003
  9
$EXTMIN
 10
-2.81250000E+02
 20
-2.21143736E+02
  9
$EXTMAX
 10
2.82099854E+02
 20
1.95500000E+02
  9
$LIMMIN
 10
-2.81251000E+02
 20
-2.21144736E+02
  9
$LIMMAX
 10
2.82100854E+02
 20
1.95501000E+02
  9
$SNAPUNIT
 10
1
 20
1
  9
$SNAPBASE
 10
0
 20
0
  9
$GRIDMODE
 70
0
  9
$GRIDUNIT
 10
0
 20
0
  9
$LTSCALE
 40
9.38916423E+00
  9
$TEXTSIZE
 40
3.2
  9
$DIMTAD
 70
0
  9
$LUNITS
 70
2
  9
$LUPREC
 70
4
  9
$FILLETRAD
 40
0
  9
$AUNITS
 70
0
  9
$AUPREC
 70
0
  0
ENDSEC
  0
SECTION
  2
TABLES
  0
TABLE
  2
LTYPE
 70
2
  0
LTYPE
  2
CONTINUOUS
 70
64
  3
Solid-Line
 72
65
 73
0
 40
0
  0
LTYPE
  2
DASHED
 70
64
  3
DASHED
 72
65
 73
2
 40
.75
 49
.5
 49
-.25
  0
LTYPE
  2
HIDDEN
 70
64
  3
HIDDEN
 72
65
 73
2
 40
.375
 49
.25
 49
-.125
  0
LTYPE
  2
CENTER
 70
64
  3
CENTER
 72
65
 73
4
 40
2
 49
1.25
 49
-.25
 49
.25
 49
-.25
  0
LTYPE
  2
PHANTOM
 70
64
  3
PHANTOM
 72
65
 73
6
 40
2.5
 49
1.25
 49
-.25
 49
.25
 49
-.25
 49
.25
 49
-.25
  0
ENDTAB
  0
TABLE
  2
LAYER
 70
1
  0
LAYER
  2
1
 70
0
 62
7
  6
CONTINUOUS
 0
ENDTAB
  0
TABLE
  2
STYLE
 70
2
  0
STYLE
  2
MONOTXT
 70
0
 40
0
 41
1
 50
0
 71
0
 42
.2
  3
monotxt
  0
STYLE
  2
BIGFONT
 70
0
 40
0
 41
1
 50
0
 71
0
 42
.2
  3
txt
  4
bigfont
  0
ENDTAB
  0
ENDSEC
  0
SECTION
  2
ENTITIES
  0
CIRCLE
  8
0
 62
4
 10
9.00304080E+01
 20
-7.86437395E+01
 40
1.25000000E+01
  0
LINE
  8
0
 62
4
 10
1.02679435E+02
 20
-5.86436809E+01
 11
1.03280498E+02
 21
-5.86436781E+01
  0
ARC
  8
0
 62
4
 10
8.05509740E+01
 20
-3.84885710E+01
 40
2.00000000E+00
 50
9.50463913E+01
 51
1.75000258E+02
  0
ARC
  8
0
 62
4
 10
9.95094701E+01
 20
-3.84884831E+01
 40
2.00000000E+00
 50
4.99991266E+00
 51
8.49544863E+01
  0
LINE
  8
0
 62
4
 10
1.02580544E+02
 20
-5.06437044E+01
 11
1.03321500E+02
 21
-5.91124283E+01
  0
LINE
  8
0
  6
CENTER
 62
6
 10
9.00301748E+01
 20
-2.83049638E+01
 11
9.00306703E+01
 21
-1.35260349E+02
  0
LINE
  8
0
 62
4
 10
7.50302361E+01
 20
-4.15221506E+01
 11
7.50303242E+01
 21
-6.05503406E+01
  0
LINE
  8
0
 62
4
 10
1.05030236E+02
 20
-4.15220117E+01
 11
1.05030324E+02
 21
-6.05501843E+01
  0
LINE
  8
0
 62
4
 10
7.83032321E+01
 20
-4.12331657E+01
 11
7.85585868E+01
 21
-3.83142908E+01
  0
LINE
  8
0
 62
4
 10
9.96853109E+01
 20
-3.64962368E+01
 11
9.00301829E+01
 21
-3.56437663E+01
  0
LINE
  8
0
 62
4
 10
8.03750424E+01
 20
-3.64963436E+01
 11
9.00301622E+01
 21
-3.56437848E+01
  0
LINE
  8
0
 62
4
 10
7.50302084E+01
 20
-4.15221893E+01
 11
9.00302542E+01
 21
-4.01976662E+01
  0
LINE
  8
0
 62
4
 10
1.05030249E+02
 20
-4.15220665E+01
 11
9.00301911E+01
 21
-4.01976752E+01
  0
LINE
  8
0
 62
4
 10
7.67390671E+01
 20
-5.91126170E+01
 11
7.74799499E+01
 21
-5.06438320E+01
  0
LINE
  8
0
 62
4
 10
1.01501794E+02
 20
-3.83141884E+01
 11
1.01757176E+02
 21
-4.12330609E+01
  0
LINE
  8
0
 62
4
 10
7.50302579E+01
 20
-5.06438601E+01
 11
7.74799039E+01
 21
-5.06438413E+01
  0
LINE
  8
0
 62
4
 10
1.05030281E+02
 20
-5.06437071E+01
 11
1.02580574E+02
 21
-5.06437056E+01
  0
LINE
  8
0
 62
4
 10
7.67800712E+01
 20
-5.86438008E+01
 11
7.73812140E+01
 21
-5.86437981E+01
  0
LINE
  8
0
  6
CENTER
 62
6
 10
1.09303467E+02
 20
-5.06436502E+01
 11
6.90955859E+01
 21
-5.06438364E+01
  0
ARC
  8
0
 62
4
 10
1.19659132E+02
 20
-1.09643739E+02
 40
5.00000000E+00
 50
1.84415835E+02
 51
2.69999854E+02
  0
ARC
  8
0
 62
4
 10
1.43530407E+02
 20
-1.16643739E+02
 40
2.00000000E+00
 50
3.59721781E-05
 51
8.99999818E+01
  0
ARC
  8
0
 62
4
 10
6.04016224E+01
 20
-1.09643739E+02
 40
5.00000000E+00
 50
2.70000182E+02
 51
3.55584190E+02
  0
ARC
  8
0
 62
4
 10
9.00304080E+01
 20
-7.66437395E+01
 40
2.20000000E+01
 50
4.41582316E+00
 51
1.75584165E+02
  0
ARC
  8
0
 62
4
 10
3.65304066E+01
 20
-1.16643739E+02
 40
2.00000000E+00
 50
8.99999818E+01
 51
1.79999964E+02
  0
LINE
  8
0
 62
4
 10
3.45304066E+01
 20
-1.28643739E+02
 11
1.45530407E+02
 21
-1.28643739E+02
  0
LINE
  8
0
 62
4
 10
3.65304066E+01
 20
-1.14643739E+02
 11
6.04016224E+01
 21
-1.14643739E+02
  0
LINE
  8
0
 62
4
 10
6.80956863E+01
 20
-7.49498593E+01
 11
6.53867844E+01
 21
-1.10028701E+02
  0
LINE
  8
0
 62
4
 10
3.45304066E+01
 20
-1.28643739E+02
 11
3.45304066E+01
 21
-1.16643739E+02
  0
LINE
  8
0
 62
4
 10
1.14673972E+02
 20
-1.10028715E+02
 11
1.11965070E+02
 21
-7.49498736E+01
  0
LINE
  8
0
 62
4
 10
1.19659132E+02
 20
-1.14643739E+02
 11
1.43530407E+02
 21
-1.14643739E+02
  0
LINE
  8
0
 62
4
 10
1.45530407E+02
 20
-1.16643739E+02
 11
1.45530407E+02
 21
-1.28643739E+02
  0
LINE
  8
0
  6
CENTER
 62
6
 10
1.30030407E+02
 20
-1.32146532E+02
 11
1.30030407E+02
 21
-1.10468126E+02
  0
LINE
  8
0
  6
CENTER
 62
6
 10
6.50304085E+01
 20
-7.86437395E+01
 11
1.15030409E+02
 21
-7.86437395E+01
  0
LINE
  8
0
  6
CENTER
 62
6
 10
5.00304066E+01
 20
-1.10468126E+02
 11
5.00304066E+01
 21
-1.32146532E+02
  0
LINE
  8
0
  6
CENTER
 62
6
 10
-1.05798943E+02
 20
-3.28729570E+01
 11
-1.05798844E+02
 21
-1.31535738E+02
  0
CIRCLE
  8
0
 62
4
 10
-7.77988948E+01
 20
-5.06436655E+01
 40
3.84999990E+00
  0
CIRCLE
  8
0
 62
4
 10
-1.33799047E+02
 20
-5.06437219E+01
 40
3.84999990E+00
  0
ARC
  8
0
 62
4
 10
-7.77988948E+01
 20
-5.06436655E+01
 40
9.45408154E+00
 50
2.72959958E+02
 51
1.71943161E+01
  0
ARC
  8
0
 62
4
 10
-1.33798956E+02
 20
-5.06437219E+01
 40
9.45408154E+00
 50
1.62805799E+02
 51
2.67040155E+02
  0
ARC
  8
0
 62
4
 10
-7.77988948E+01
 20
-5.06436655E+01
 40
9.45408154E+00
 50
7.47596408E+01
 51
1.77040186E+02
  0
ARC
  8
0
 62
4
 10
-1.33798956E+02
 20
-5.06437219E+01
 40
9.45408154E+00
 50
2.95992893E+00
 51
1.05240473E+02
  0
CIRCLE
  8
0
 62
4
 10
-7.77988384E+01
 20
-1.06643757E+02
 40
3.84999990E+00
  0
CIRCLE
  8
0
 62
4
 10
-1.33798991E+02
 20
-1.06643813E+02
 40
3.84999990E+00
  0
ARC
  8
0
 62
4
 10
-1.33798899E+02
 20
-1.06643813E+02
 40
9.45408154E+00
 50
9.29599569E+01
 51
1.97194313E+02
  0
ARC
  8
0
 62
4
 10
-1.33798899E+02
 20
-1.06643813E+02
 40
9.45408154E+00
 50
2.54759642E+02
 51
3.57040187E+02
  0
ARC
  8
0
 62
4
 10
-7.77988384E+01
 20
-1.06643757E+02
 40
9.45408154E+00
 50
1.82959929E+02
 51
2.85240475E+02
  0
ARC
  8
0
 62
4
 10
-7.77988384E+01
 20
-1.06643757E+02
 40
9.45408154E+00
 50
3.42805799E+02
 51
8.70401569E+01
  0
CIRCLE
  8
0
 62
4
 10
-1.05798897E+02
 20
-7.86437395E+01
 40
3.39999847E+01
  0
ARC
  8
0
 62
4
 10
-1.05798947E+02
 20
-2.91437395E+01
 40
9.30000000E+01
 50
2.52837696E+02
 51
2.87162422E+02
  0
ARC
  8
0
 62
4
 10
-1.05798847E+02
 20
-1.28143736E+02
 40
9.30000000E+01
 50
7.28376934E+01
 51
1.07162420E+02
  0
ARC
  8
0
 62
4
 10
-1.05247658E+02
 20
-7.90448467E+01
 40
4.80000000E+01
 50
2.51521747E+01
 51
5.59280543E+01
  0
ARC
  8
0
 62
4
 10
-1.06350137E+02
 20
-7.82426322E+01
 40
4.80000000E+01
 50
2.05152184E+02
 51
2.35928060E+02
  0
ARC
  8
0
 62
4
 10
-1.05247659E+02
 20
-7.82426311E+01
 40
4.80000000E+01
 50
3.04072061E+02
 51
3.34847934E+02
  0
ARC
  8
0
 62
4
 10
-1.06350136E+02
 20
-7.90448478E+01
 40
4.80000000E+01
 50
1.24072056E+02
 51
1.54847932E+02
  0
LINE
  8
0
 62
4
 10
-7.17989124E+01
 20
-7.86437052E+01
 11
-6.17989124E+01
 21
-7.86436952E+01
  0
LINE
  8
0
 62
4
 10
-1.49798897E+02
 20
-7.86437838E+01
 11
-1.39798882E+02
 21
-7.86437737E+01
  0
LINE
  8
0
 62
4
 10
-1.05798956E+02
 20
-3.66437645E+01
 11
-7.56796085E+01
 21
-4.12330797E+01
  0
LINE
  8
0
 62
4
 10
-1.05798938E+02
 20
-3.66437571E+01
 11
-1.35918276E+02
 21
-4.12331330E+01
  0
LINE
  8
0
 62
4
 10
-1.05798857E+02
 20
-1.20643715E+02
 11
-1.35918205E+02
 21
-1.16054399E+02
  0
LINE
  8
0
 62
4
 10
-1.05798882E+02
 20
-1.20643709E+02
 11
-7.56795441E+01
 21
-1.16054334E+02
  0
LINE
  8
0
 62
4
 10
-3.77989250E+01
 20
-6.61436710E+01
 11
-3.77988998E+01
 21
-9.11436710E+01
  0
LINE
  8
0
 62
4
 10
-3.77989401E+01
 20
-6.61436742E+01
 11
-3.67989424E+01
 21
-6.71436788E+01
  0
LINE
  8
0
 62
4
 10
-3.67989131E+01
 20
-9.01436610E+01
 11
-3.77989177E+01
 21
-9.11436587E+01
  0
LINE
  8
0
 62
4
 10
-1.74798897E+02
 20
-9.01437981E+01
 11
-1.73798869E+02
 21
-9.11438154E+01
  0
LINE
  8
0
 62
4
 10
-1.73798885E+02
 20
-9.11438079E+01
 11
-1.73798910E+02
 21
-6.61438079E+01
  0
LINE
  8
0
 62
4
 10
-1.73798896E+02
 20
-6.61437878E+01
 11
-1.74798914E+02
 21
-6.71438159E+01
  0
LINE
  8
0
 62
4
 10
-3.67989240E+01
 20
-6.71436852E+01
 11
-3.67989008E+01
 21
-9.01436700E+01
  0
LINE
  8
0
 62
4
 10
-1.73798885E+02
 20
-9.11438079E+01
 11
-1.72798885E+02
 21
-9.11438069E+01
  0
LINE
  8
0
 62
4
 10
-1.73798910E+02
 20
-6.61438079E+01
 11
-1.72798910E+02
 21
-6.61438069E+01
  0
LINE
  8
0
 62
4
 10
-3.87988846E+01
 20
-9.11436720E+01
 11
-3.77989303E+01
 21
-9.11436710E+01
  0
LINE
  8
0
 62
4
 10
-1.74798909E+02
 20
-6.71438242E+01
 11
-1.74798886E+02
 21
-9.01438089E+01
  0
LINE
  8
0
 62
4
 10
-3.87989097E+01
 20
-6.61436720E+01
 11
-3.77989250E+01
 21
-6.61436710E+01
  0
LINE
  8
0
  6
CENTER
 62
6
 10
-7.77988481E+01
 20
-9.70832407E+01
 11
-7.77988263E+01
 21
-1.18639622E+02
  0
LINE
  8
0
  6
CENTER
 62
6
 10
-8.84294490E+01
 20
-5.06436762E+01
 11
-6.58964900E+01
 21
-5.06436535E+01
  0
LINE
  8
0
  6
CENTER
 62
6
 10
-1.23565562E+02
 20
-1.06643803E+02
 11
-1.45843943E+02
 21
-1.06643826E+02
  0
LINE
  8
0
  6
CENTER
 62
6
 10
-6.57691448E+01
 20
-1.06643745E+02
 11
-8.83021038E+01
 21
-1.06643768E+02
  0
LINE
  8
0
  6
CENTER
 62
6
 10
-1.45844000E+02
 20
-5.06437340E+01
 11
-1.23692907E+02
 21
-5.06437117E+01
  0
LINE
  8
0
  6
CENTER
 62
6
 10
-7.77988761E+01
 20
-3.89584390E+01
 11
-7.77988530E+01
 21
-6.18733103E+01
  0
LINE
  8
0
  6
CENTER
 62
6
 10
-1.33798945E+02
 20
-6.18733667E+01
 11
-1.33798967E+02
 21
-3.90857843E+01
  0
LINE
  8
0
  6
CENTER
 62
6
 10
-1.33798979E+02
 20
-1.18642165E+02
 11
-1.33799002E+02
 21
-9.61091760E+01
  0
LINE
  8
0
 62
4
 10
-1.72798921E+02
 20
-5.46438222E+01
 11
-1.72798847E+02
 21
-1.28643807E+02
  0
LINE
  8
0
 62
4
 10
-1.49798921E+02
 20
-5.46437838E+01
 11
-1.49798847E+02
 21
-1.28643784E+02
  0
LINE
  8
0
  6
CENTER
 62
6
 10
-1.61298927E+02
 20
-4.89361843E+01
 11
-1.61298844E+02
 21
-1.31833432E+02
  0
LINE
  8
0
 62
4
 10
-1.72798861E+02
 20
-1.14643769E+02
 11
-1.49798861E+02
 21
-1.14643746E+02
  0
LINE
  8
0
 62
4
 10
-1.72798847E+02
 20
-1.28643807E+02
 11
-1.49798847E+02
 21
-1.28643784E+02
  0
LINE
  8
0
  6
CENTER
 62
6
 10
-1.80240303E+02
 20
-7.86438144E+01
 11
-3.24051593E+01
 21
-7.86436656E+01
  0
LINE
  8
0
 62
4
 10
-3.87989213E+01
 20
-5.46436720E+01
 11
-6.17989213E+01
 21
-5.46436952E+01
  0
LINE
  8
0
 62
4
 10
-3.87988609E+01
 20
-1.14643634E+02
 11
-6.17988609E+01
 21
-1.14643657E+02
  0
LINE
  8
0
 62
4
 10
-6.17989213E+01
 20
-5.46436952E+01
 11
-6.17988468E+01
 21
-1.28643695E+02
  0
LINE
  8
0
 62
4
 10
-3.87989213E+01
 20
-5.46436872E+01
 11
-3.87988468E+01
 21
-1.28643672E+02
  0
LINE
  8
0
 62
4
 10
-3.87988468E+01
 20
-1.28643672E+02
 11
-6.17988468E+01
 21
-1.28643695E+02
  0
LINE
  8
0
  6
CENTER
 62
6
 10
-5.02989271E+01
 20
-4.89360725E+01
 11
-5.02988436E+01
 21
-1.31833320E+02
  0
LINE
  8
0
 62
4
 10
-1.72798921E+02
 20
-5.46438069E+01
 11
-1.49798921E+02
 21
-5.46437838E+01
  0
ARC
  8
0
 62
4
 10
1.03539014E+02
 20
6.80203688E+01
 40
1.00000000E+00
 50
1.82439998E+02
 51
2.70000237E+02
  0
ARC
  8
0
 62
4
 10
1.03539075E+02
 20
1.23510481E+02
 40
1.00000000E+00
 50
8.99997636E+01
 51
1.77560002E+02
  0
ARC
  8
0
 62
4
 10
1.04771375E+02
 20
1.11468733E+02
 40
1.29999924E+00
 50
8.99999274E+01
 51
1.76761471E+02
  0
ARC
  8
0
 62
4
 10
1.04771375E+02
 20
8.00621169E+01
 40
1.29999924E+00
 50
1.83238529E+02
 51
2.70000127E+02
  0
ARC
  8
0
 62
4
 10
7.65218021E+01
 20
6.80203688E+01
 40
1.00000000E+00
 50
2.69999854E+02
 51
3.57560039E+02
  0
ARC
  8
0
 62
4
 10
7.65218021E+01
 20
1.23510481E+02
 40
1.00000000E+00
 50
2.44003471E+00
 51
9.00001457E+01
  0
ARC
  8
0
 62
4
 10
7.52894412E+01
 20
1.11468733E+02
 40
1.29999924E+00
 50
3.23856579E+00
 51
9.00000369E+01
  0
ARC
  8
0
 62
4
 10
7.52894412E+01
 20
8.00621169E+01
 40
1.29999924E+00
 50
2.69999963E+02
 51
3.56761507E+02
  0
LINE
  8
0
 62
4
 10
7.85304080E+01
 20
2.67654555E+01
 11
1.01530408E+02
 21
2.67654555E+01
  0
LINE
  8
0
 62
4
 10
7.75304080E+01
 20
2.77654555E+01
 11
1.02530408E+02
 21
2.77654555E+01
  0
LINE
  8
0
 62
4
 10
7.75304080E+01
 20
1.63765425E+02
 11
1.02530408E+02
 21
1.63765425E+02
  0
LINE
  8
0
 62
4
 10
7.85304080E+01
 20
1.64765425E+02
 11
1.01530408E+02
 21
1.64765425E+02
  0
LINE
  8
0
 62
4
 10
1.02530408E+02
 20
2.77654555E+01
 11
1.02530408E+02
 21
2.87653936E+01
  0
LINE
  8
0
 62
4
 10
7.75304080E+01
 20
2.77654555E+01
 11
7.75304080E+01
 21
2.87654564E+01
  0
LINE
  8
0
 62
4
 10
7.75303863E+01
 20
2.77654070E+01
 11
7.85303890E+01
 21
2.67654075E+01
  0
LINE
  8
0
 62
4
 10
1.01530431E+02
 20
2.67654282E+01
 11
1.02530414E+02
 21
2.77654041E+01
  0
LINE
  8
0
 62
4
 10
1.01530433E+02
 20
1.64765420E+02
 11
1.02530437E+02
 21
1.63765422E+02
  0
LINE
  8
0
 62
4
 10
7.75304121E+01
 20
1.63765402E+02
 11
7.85304364E+01
 21
1.64765423E+02
  0
LINE
  8
0
 62
4
 10
7.50304080E+01
 20
5.17654555E+01
 11
7.50304080E+01
 21
7.87621291E+01
  0
LINE
  8
0
 62
4
 10
1.05030408E+02
 20
5.17654555E+01
 11
1.05030408E+02
 21
7.87621291E+01
  0
LINE
  8
0
 62
4
 10
1.02530408E+02
 20
1.62765394E+02
 11
1.02530408E+02
 21
1.63765425E+02
  0
LINE
  8
0
 62
4
 10
7.75304080E+01
 20
1.62765456E+02
 11
7.75304080E+01
 21
1.63765425E+02
  0
LINE
  8
0
 62
4
 10
1.02539932E+02
 20
1.23553031E+02
 11
1.01355877E+02
 21
9.57654407E+01
  0
LINE
  8
0
 62
4
 10
1.01355908E+02
 20
9.57654206E+01
 11
1.02539964E+02
 21
6.79777996E+01
  0
LINE
  8
0
 62
4
 10
1.03539014E+02
 20
6.70204298E+01
 11
1.05030408E+02
 21
6.70204298E+01
  0
LINE
  8
0
 62
4
 10
1.03539014E+02
 20
1.24510481E+02
 11
1.05030408E+02
 21
1.24510481E+02
  0
LINE
  8
0
 62
4
 10
1.03473455E+02
 20
1.11542160E+02
 11
1.02580760E+02
 21
9.57653934E+01
  0
LINE
  8
0
 62
4
 10
1.02580756E+02
 20
9.57654131E+01
 11
1.03473450E+02
 21
7.99886772E+01
  0
LINE
  8
0
 62
4
 10
1.02580762E+02
 20
1.34327437E+02
 11
1.05030408E+02
 21
1.34327437E+02
  0
LINE
  8
0
 62
4
 10
1.03473481E+02
 20
1.39765462E+02
 11
1.02580759E+02
 21
1.34327448E+02
  0
LINE
  8
0
 62
4
 10
1.05030408E+02
 20
5.72034132E+01
 11
1.02580762E+02
 21
5.72034132E+01
  0
LINE
  8
0
 62
4
 10
1.02580771E+02
 20
5.72034199E+01
 11
1.03473488E+02
 21
5.17654357E+01
  0
LINE
  8
0
 62
4
 10
7.87049517E+01
 20
9.57654116E+01
 11
7.75208969E+01
 21
1.23553002E+02
  0
LINE
  8
0
 62
4
 10
7.75209236E+01
 20
6.79778271E+01
 11
7.87049792E+01
 21
9.57654176E+01
  0
LINE
  8
0
 62
4
 10
7.50304080E+01
 20
6.70204298E+01
 11
7.65218021E+01
 21
6.70204298E+01
  0
LINE
  8
0
 62
4
 10
7.50304080E+01
 20
1.24510481E+02
 11
7.65218021E+01
 21
1.24510481E+02
  0
LINE
  8
0
 62
4
 10
7.74800902E+01
 20
9.57653807E+01
 11
7.65873954E+01
 21
1.11542147E+02
  0
LINE
  8
0
 62
4
 10
7.65874036E+01
 20
7.99886306E+01
 11
7.74800993E+01
 21
9.57653970E+01
  0
LINE
  8
0
 62
4
 10
7.50304080E+01
 20
1.34327437E+02
 11
7.74801151E+01
 21
1.34327437E+02
  0
LINE
  8
0
 62
4
 10
7.74800930E+01
 20
1.34327387E+02
 11
7.65873760E+01
 21
1.39765371E+02
  0
LINE
  8
0
 62
4
 10
7.74801151E+01
 20
5.72034132E+01
 11
7.50304080E+01
 21
5.72034132E+01
  0
LINE
  8
0
 62
4
 10
7.65873578E+01
 20
5.17655284E+01
 11
7.74800702E+01
 21
5.72034826E+01
  0
LINE
  8
0
 62
4
 10
1.05030408E+02
 20
1.12768782E+02
 11
1.05030408E+02
 21
1.39765425E+02
  0
LINE
  8
0
 62
4
 10
7.50304080E+01
 20
1.12768782E+02
 11
7.50304080E+01
 21
1.39765425E+02
  0
LINE
  8
0
  6
CENTER
 62
6
 10
1.08861484E+02
 20
1.23765486E+02
 11
7.11823322E+01
 21
1.23765486E+02
  0
LINE
  8
0
  6
CENTER
 62
6
 10
1.09273278E+02
 20
6.77653639E+01
 11
7.07705356E+01
 21
6.77653639E+01
  0
CIRCLE
  8
0
 62
4
 10
1.30030267E+02
 20
4.02653245E+01
 40
6.00000000E+00
  0
ARC
  8
0
 62
4
 10
1.30030267E+02
 20
4.02653245E+01
 40
1.20000000E+01
 50
1.06597690E+02
 51
2.53402005E+02
  0
CIRCLE
  8
0
 62
4
 10
9.00302686E+01
 20
4.02654250E+01
 40
2.00000000E+00
  0
CIRCLE
  8
0
 62
4
 10
9.00302686E+01
 20
4.02654250E+01
 40
4.00000000E+00
  0
ARC
  8
0
 62
4
 10
1.30030267E+02
 20
4.02653245E+01
 40
1.20000000E+01
 50
2.86597726E+02
 51
7.34019864E+01
  0
CIRCLE
  8
0
 62
4
 10
5.00302672E+01
 20
4.02655255E+01
 40
6.00000000E+00
  0
ARC
  8
0
 62
4
 10
5.00302672E+01
 20
4.02655255E+01
 40
1.20000000E+01
 50
2.86597726E+02
 51
7.34019864E+01
  0
ARC
  8
0
 62
4
 10
5.00302672E+01
 20
4.02655255E+01
 40
1.20000000E+01
 50
1.06597690E+02
 51
2.53401951E+02
  0
CIRCLE
  8
0
 62
4
 10
1.30030546E+02
 20
1.51265324E+02
 40
6.00000000E+00
  0
ARC
  8
0
 62
4
 10
1.30030546E+02
 20
1.51265324E+02
 40
1.20000000E+01
 50
1.06597690E+02
 51
2.53402005E+02
  0
CIRCLE
  8
0
 62
4
 10
9.00305475E+01
 20
1.51265425E+02
 40
2.00000000E+00
  0
CIRCLE
  8
0
 62
4
 10
9.00305475E+01
 20
1.51265425E+02
 40
4.00000000E+00
  0
ARC
  8
0
 62
4
 10
1.30030546E+02
 20
1.51265324E+02
 40
1.20000000E+01
 50
2.86597780E+02
 51
7.34019864E+01
  0
CIRCLE
  8
0
 62
4
 10
5.00305460E+01
 20
1.51265525E+02
 40
6.00000000E+00
  0
ARC
  8
0
 62
4
 10
5.00305460E+01
 20
1.51265525E+02
 40
1.20000000E+01
 50
2.86597780E+02
 51
7.34019864E+01
  0
ARC
  8
0
 62
4
 10
5.00305460E+01
 20
1.51265525E+02
 40
1.20000000E+01
 50
1.06597744E+02
 51
2.53402005E+02
  0
LINE
  8
0
 62
4
 10
3.50302383E+01
 20
2.87655631E+01
 11
1.45030238E+02
 21
2.87652868E+01
  0
LINE
  8
0
  6
CENTER
 62
6
 10
1.51706571E+02
 20
1.51265270E+02
 11
1.11945525E+02
 21
1.51265370E+02
  0
LINE
  8
0
 62
4
 10
1.15030290E+02
 20
4.85703091E+01
 11
1.15030246E+02
 21
3.10331081E+01
  0
LINE
  8
0
  6
CENTER
 62
6
 10
1.30030314E+02
 20
5.90018662E+01
 11
1.30030219E+02
 21
2.12061967E+01
  0
LINE
  8
0
 62
4
 10
1.45030296E+02
 20
5.17652868E+01
 11
1.45030238E+02
 21
2.87652868E+01
  0
LINE
  8
0
 62
4
 10
3.50302961E+01
 20
5.17655631E+01
 11
1.45030296E+02
 21
5.17652868E+01
  0
LINE
  8
0
  6
CENTER
 62
6
 10
1.11945246E+02
 20
4.02653699E+01
 11
1.51706293E+02
 21
4.02652700E+01
  0
LINE
  8
0
  6
CENTER
 62
6
 10
2.83541846E+01
 20
4.02655799E+01
 11
6.81152300E+01
 21
4.02654800E+01
  0
LINE
  8
0
  6
CENTER
 62
6
 10
8.25302681E+01
 20
4.02654438E+01
 11
9.75302684E+01
 21
4.02654061E+01
  0
LINE
  8
0
  6
CENTER
 62
6
 10
5.00302193E+01
 20
2.12063976E+01
 11
5.00303142E+01
 21
5.90020672E+01
  0
LINE
  8
0
 62
4
 10
3.50302383E+01
 20
2.87655631E+01
 11
3.50302961E+01
 21
5.17655631E+01
  0
LINE
  8
0
 62
4
 10
1.45030575E+02
 20
1.62765287E+02
 11
3.50305749E+01
 21
1.62765563E+02
  0
LINE
  8
0
 62
4
 10
1.45030575E+02
 20
1.62765287E+02
 11
1.45030517E+02
 21
1.39765287E+02
  0
LINE
  8
0
 62
4
 10
6.50302459E+01
 20
3.10332337E+01
 11
6.50302900E+01
 21
4.85704347E+01
  0
LINE
  8
0
  6
CENTER
 62
6
 10
6.81155089E+01
 20
1.51265480E+02
 11
2.83544634E+01
 21
1.51265580E+02
  0
LINE
  8
0
 62
4
 10
1.15030571E+02
 20
1.60497631E+02
 11
1.15030527E+02
 21
1.42960400E+02
  0
LINE
  8
0
  6
CENTER
 62
6
 10
9.75305472E+01
 20
1.51265406E+02
 11
8.25305470E+01
 21
1.51265444E+02
  0
LINE
  8
0
 62
4
 10
1.45030517E+02
 20
1.39765287E+02
 11
3.50305171E+01
 21
1.39765563E+02
  0
LINE
  8
0
 62
4
 10
3.50305171E+01
 20
1.39765563E+02
 11
3.50305749E+01
 21
1.62765563E+02
  0
LINE
  8
0
 62
4
 10
6.50305271E+01
 20
1.42960526E+02
 11
6.50305711E+01
 21
1.60497757E+02
  0
LINE
  8
0
  6
CENTER
 62
6
 10
2.80304104E+01
 20
9.57655807E+01
 11
1.52297039E+02
 21
9.57652685E+01
  0
LINE
  8
0
  6
CENTER
 62
6
 10
5.00304990E+01
 20
1.32528984E+02
 11
5.00305939E+01
 21
1.70324638E+02
  0
LINE
  8
0
  6
CENTER
 62
6
 10
1.30030594E+02
 20
1.70324437E+02
 11
1.30030499E+02
 21
1.32528783E+02
  0
LINE
  8
0
  6
CENTER
 62
6
 10
9.00305933E+01
 20
1.69515425E+02
 11
9.00302211E+01
 21
2.13574812E+01
  0
LINE
  8
0
  6
CENTER
 62
6
 10
9.00304080E+01
 20
1.86415389E+01
 11
9.00304080E+01
 21
1.69925337E+02
  0
TEXT
  8
0
 62
7
 10
-2.73900291E+02
 20
1.82350000E+02
 40
6.30000019E+00
  1
NEW DYNA CYLINDER
 41
1.07594953E+00
  7
MONOTXT
  0
TEXT
  8
0
 62
7
 10
-2.67600562E+02
 20
1.57350000E+02
 40
6.30000019E+00
  1
MODEL:DDA63-11T
 41
1.00000015E+00
  7
MONOTXT
  0
LINE
  8
0
 62
7
 10
2.82099854E+02
 20
1.95500000E+02
 11
2.82099854E+02
 21
-1.95000000E+02
  0
LINE
  8
0
 62
7
 10
-2.81250000E+02
 20
1.95500000E+02
 11
2.82099854E+02
 21
1.95500000E+02
  0
LINE
  8
0
 62
7
 10
-2.81250000E+02
 20
1.95500000E+02
 11
-2.81250000E+02
 21
-1.95000000E+02
  0
LINE
  8
0
 62
7
 10
-2.81250000E+02
 20
-1.95000000E+02
 11
2.82099854E+02
 21
-1.95000000E+02
  0
LINE
  8
0
 62
7
 10
1.62099976E+02
 20
-1.75000000E+02
 11
1.62099976E+02
 21
-1.95000000E+02
  0
LINE
  8
0
 62
7
 10
1.62099976E+02
 20
-1.75000000E+02
 11
2.82099854E+02
 21
-1.75000000E+02
  0
LINE
  8
0
 62
7
 10
1.62099976E+02
 20
1.75500000E+02
 11
2.82099854E+02
 21
1.75500000E+02
  0
LINE
  8
0
 62
7
 10
-2.81250000E+02
 20
1.75500000E+02
 11
-1.61250000E+02
 21
1.75500000E+02
  0
LINE
  8
0
 62
7
 10
1.62099976E+02
 20
1.95500000E+02
 11
1.62099976E+02
 21
1.75500000E+02
  0
LINE
  8
0
 62
7
 10
-1.61250000E+02
 20
1.95500000E+02
 11
-1.61250000E+02
 21
1.75500000E+02
  0
TEXT
  8
0
 62
7
 10
1.97799690E+02
 20
1.82350000E+02
 40
6.30000019E+00
  1
Ver. 1.0
 41
1.08108124E+00
  7
MONOTXT
  0
TEXT
  8
0
 62
7
 10
1.69885289E+02
 20
-1.89500000E+02
 40
9.00000000E+00
  1
KOGANEI CORP.
 41
1.04838710E+00
  7
MONOTXT
  0
ENDSEC
  0
EOF
