  0
SECTION
  2
HEADER
  9
$ACADVER
  1
AC1003
  9
$EXTMIN
 10
-1.94250000E+02
 20
-1.33500000E+02
  9
$EXTMAX
 10
1.94800003E+02
 20
1.32600006E+02
  9
$LIMMIN
 10
-1.94251000E+02
 20
-1.33501000E+02
  9
$LIMMAX
 10
1.94801003E+02
 20
1.32601006E+02
  9
$SNAPUNIT
 10
1
 20
1
  9
$SNAPBASE
 10
0
 20
0
  9
$GRIDMODE
 70
0
  9
$GRIDUNIT
 10
0
 20
0
  9
$LTSCALE
 40
6.48416672E+00
  9
$TEXTSIZE
 40
3.2
  9
$DIMTAD
 70
0
  9
$LUNITS
 70
2
  9
$LUPREC
 70
4
  9
$FILLETRAD
 40
0
  9
$AUNITS
 70
0
  9
$AUPREC
 70
0
  0
ENDSEC
  0
SECTION
  2
TABLES
  0
TABLE
  2
LTYPE
 70
2
  0
LTYPE
  2
CONTINUOUS
 70
64
  3
Solid-Line
 72
65
 73
0
 40
0
  0
LTYPE
  2
DASHED
 70
64
  3
DASHED
 72
65
 73
2
 40
.75
 49
.5
 49
-.25
  0
LTYPE
  2
HIDDEN
 70
64
  3
HIDDEN
 72
65
 73
2
 40
.375
 49
.25
 49
-.125
  0
LTYPE
  2
CENTER
 70
64
  3
CENTER
 72
65
 73
4
 40
2
 49
1.25
 49
-.25
 49
.25
 49
-.25
  0
LTYPE
  2
PHANTOM
 70
64
  3
PHANTOM
 72
65
 73
6
 40
2.5
 49
1.25
 49
-.25
 49
.25
 49
-.25
 49
.25
 49
-.25
  0
ENDTAB
  0
TABLE
  2
LAYER
 70
1
  0
LAYER
  2
1
 70
0
 62
7
  6
CONTINUOUS
 0
ENDTAB
  0
TABLE
  2
STYLE
 70
2
  0
STYLE
  2
MONOTXT
 70
0
 40
0
 41
1
 50
0
 71
0
 42
.2
  3
monotxt
  0
STYLE
  2
BIGFONT
 70
0
 40
0
 41
1
 50
0
 71
0
 42
.2
  3
txt
  4
bigfont
  0
ENDTAB
  0
ENDSEC
  0
SECTION
  2
ENTITIES
  0
CIRCLE
  8
0
 62
4
 10
-5.52500000E+01
 20
-5.35000000E+01
 40
6.00000000E+00
  0
ARC
  8
0
 62
4
 10
-6.82500000E+01
 20
-1.80000000E+01
 40
2.00000000E+00
 50
3.59999981E+02
 51
8.99999618E+01
  0
ARC
  8
0
 62
4
 10
-6.22500000E+01
 20
-3.31436005E+01
 40
4.00000000E+00
 50
1.79999951E+02
 51
2.59999893E+02
  0
ARC
  8
0
 62
4
 10
-4.82500000E+01
 20
-4.77973022E+01
 40
8.00000000E+00
 50
3.59999981E+02
 51
7.99998813E+01
  0
ARC
  8
0
 62
4
 10
-6.22500000E+01
 20
-7.38563995E+01
 40
4.00000000E+00
 50
1.00000055E+02
 51
1.80000005E+02
  0
ARC
  8
0
 62
4
 10
-4.82500000E+01
 20
-5.92026978E+01
 40
8.00000000E+00
 50
2.80000064E+02
 51
3.59999964E+02
  0
ARC
  8
0
 62
4
 10
-6.82500000E+01
 20
-8.90000000E+01
 40
2.00000000E+00
 50
2.69999984E+02
 51
3.59999964E+02
  0
CIRCLE
  8
0
 62
4
 10
-5.52500000E+01
 20
-5.35000000E+01
 40
7.00000000E+00
  0
LINE
  8
0
 62
4
 10
-4.02500000E+01
 20
-4.77973022E+01
 11
-4.02500000E+01
 21
-5.92026978E+01
  0
LINE
  8
0
 62
4
 10
-6.62500000E+01
 20
-1.80000000E+01
 11
-6.62500000E+01
 21
-8.90000000E+01
  0
LINE
  8
0
 62
4
 10
-6.82500000E+01
 20
-9.10000000E+01
 11
-7.42500000E+01
 21
-9.10000000E+01
  0
LINE
  8
0
 62
4
 10
-4.68608373E+01
 20
-6.70811806E+01
 11
-6.29445676E+01
 21
-6.99171763E+01
  0
LINE
  8
0
 62
4
 10
-4.68608082E+01
 20
-3.99188452E+01
 11
-6.29445986E+01
 21
-3.70828389E+01
  0
LINE
  8
0
 62
4
 10
-6.82500000E+01
 20
-1.60000000E+01
 11
-7.42500000E+01
 21
-1.60000000E+01
  0
LINE
  8
0
  6
CENTER
 62
6
 10
-5.52500000E+01
 20
-4.09138336E+01
 11
-5.52500000E+01
 21
-6.51414032E+01
  0
LINE
  8
0
  6
CENTER
 62
6
 10
-6.30279846E+01
 20
-2.55000000E+01
 11
-7.78118744E+01
 21
-2.55000000E+01
  0
LINE
  8
0
 62
4
 10
-7.42500000E+01
 20
-9.10000000E+01
 11
-7.42500000E+01
 21
-1.60000000E+01
  0
LINE
  8
0
  6
CENTER
 62
6
 10
-8.17940674E+01
 20
-5.35000000E+01
 11
-3.51138306E+01
 21
-5.35000000E+01
  0
LINE
  8
0
  6
CENTER
 62
6
 10
-6.21319885E+01
 20
-8.15000305E+01
 11
-7.82598724E+01
 21
-8.15000305E+01
  0
LINE
  8
0
 62
4
 10
7.42500000E+01
 20
-6.05000000E+01
 11
7.42500000E+01
 21
-7.05000000E+01
  0
LINE
  8
0
 62
4
 10
7.22500000E+01
 20
-6.05000000E+01
 11
7.22500000E+01
 21
-6.85000000E+01
  0
LINE
  8
0
 62
4
 10
5.57500000E+01
 20
-6.05000000E+01
 11
3.57500000E+01
 21
-6.05000000E+01
  0
LINE
  8
0
 62
4
 10
5.57500000E+01
 20
-4.65000000E+01
 11
3.57500000E+01
 21
-4.65000000E+01
  0
LINE
  8
0
 62
4
 10
1.99423523E+01
 20
-6.05000000E+01
 11
1.37500000E+01
 21
-6.05000000E+01
  0
LINE
  8
0
 62
4
 10
1.99423523E+01
 20
-4.65000000E+01
 11
1.37500000E+01
 21
-4.65000000E+01
  0
LINE
  8
0
 62
4
 10
1.92500000E+01
 20
-6.05000000E+01
 11
1.92500000E+01
 21
-6.85000000E+01
  0
LINE
  8
0
 62
4
 10
1.72500000E+01
 20
-6.05000000E+01
 11
1.72500000E+01
 21
-7.05000000E+01
  0
LINE
  8
0
 62
4
 10
1.27500000E+01
 20
-5.95000000E+01
 11
1.37500000E+01
 21
-6.05000000E+01
  0
LINE
  8
0
 62
4
 10
1.37500000E+01
 20
-4.65000000E+01
 11
1.27500000E+01
 21
-4.75000000E+01
  0
LINE
  8
0
 62
4
 10
7.87500000E+01
 20
-5.95000000E+01
 11
7.77500000E+01
 21
-6.05000000E+01
  0
LINE
  8
0
 62
4
 10
7.87500000E+01
 20
-4.75000000E+01
 11
7.77500000E+01
 21
-4.65000000E+01
  0
LINE
  8
0
 62
4
 10
7.77500000E+01
 20
-4.65000000E+01
 11
7.77500000E+01
 21
-6.05000000E+01
  0
LINE
  8
0
 62
4
 10
1.37500000E+01
 20
-4.65000000E+01
 11
1.37500000E+01
 21
-6.05000000E+01
  0
LINE
  8
0
 62
4
 10
1.27500000E+01
 20
-4.75000000E+01
 11
1.27500000E+01
 21
-5.95000000E+01
  0
LINE
  8
0
 62
4
 10
7.87500000E+01
 20
-4.75000000E+01
 11
7.87500000E+01
 21
-5.95000000E+01
  0
LINE
  8
0
 62
4
 10
7.77500000E+01
 20
-4.65000000E+01
 11
7.15576477E+01
 21
-4.65000000E+01
  0
LINE
  8
0
 62
4
 10
7.77500000E+01
 20
-6.05000000E+01
 11
7.15576477E+01
 21
-6.05000000E+01
  0
POLYLINE
  8
0
 62
4
 66
1
  0
VERTEX
  8
0
 62
4
 10
1.99423523E+01
 20
-6.05000000E+01
  0
VERTEX
  8
0
 62
4
 10
1.99906201E+01
 20
-6.04718201E+01
  0
VERTEX
  8
0
 62
4
 10
2.00384994E+01
 20
-6.03875071E+01
  0
VERTEX
  8
0
 62
4
 10
2.00856045E+01
 20
-6.02477400E+01
  0
VERTEX
  8
0
 62
4
 10
2.01315562E+01
 20
-6.00536441E+01
  0
VERTEX
  8
0
 62
4
 10
2.01759845E+01
 20
-5.98067821E+01
  0
VERTEX
  8
0
 62
4
 10
2.02185318E+01
 20
-5.95091416E+01
  0
VERTEX
  8
0
 62
4
 10
2.02588555E+01
 20
-5.91631190E+01
  0
VERTEX
  8
0
 62
4
 10
2.02966309E+01
 20
-5.87715003E+01
  0
VERTEX
  8
0
 62
4
 10
2.03315538E+01
 20
-5.83374385E+01
  0
VERTEX
  8
0
 62
4
 10
2.03633431E+01
 20
-5.78644286E+01
  0
VERTEX
  8
0
 62
4
 10
2.03917428E+01
 20
-5.73562789E+01
  0
VERTEX
  8
0
 62
4
 10
2.04165243E+01
 20
-5.68170806E+01
  0
VERTEX
  8
0
 62
4
 10
2.04374880E+01
 20
-5.62511752E+01
  0
VERTEX
  8
0
 62
4
 10
2.04544652E+01
 20
-5.56631190E+01
  0
VERTEX
  8
0
 62
4
 10
2.04673192E+01
 20
-5.50576465E+01
  0
VERTEX
  8
0
 62
4
 10
2.04759464E+01
 20
-5.44396329E+01
  0
VERTEX
  8
0
 62
4
 10
2.04802775E+01
 20
-5.38140538E+01
  0
VERTEX
  8
0
 62
4
 10
2.04802775E+01
 20
-5.31859462E+01
  0
VERTEX
  8
0
 62
4
 10
2.04759464E+01
 20
-5.25603672E+01
  0
VERTEX
  8
0
 62
4
 10
2.04673192E+01
 20
-5.19423535E+01
  0
VERTEX
  8
0
 62
4
 10
2.04544652E+01
 20
-5.13368811E+01
  0
VERTEX
  8
0
 62
4
 10
2.04374880E+01
 20
-5.07488248E+01
  0
VERTEX
  8
0
 62
4
 10
2.04165243E+01
 20
-5.01829194E+01
  0
VERTEX
  8
0
 62
4
 10
2.03917428E+01
 20
-4.96437211E+01
  0
VERTEX
  8
0
 62
4
 10
2.03633431E+01
 20
-4.91355714E+01
  0
VERTEX
  8
0
 62
4
 10
2.03315538E+01
 20
-4.86625615E+01
  0
VERTEX
  8
0
 62
4
 10
2.02966309E+01
 20
-4.82284998E+01
  0
VERTEX
  8
0
 62
4
 10
2.02588555E+01
 20
-4.78368811E+01
  0
VERTEX
  8
0
 62
4
 10
2.02185318E+01
 20
-4.74908585E+01
  0
VERTEX
  8
0
 62
4
 10
2.01759846E+01
 20
-4.71932179E+01
  0
VERTEX
  8
0
 62
4
 10
2.01315562E+01
 20
-4.69463559E+01
  0
VERTEX
  8
0
 62
4
 10
2.00856045E+01
 20
-4.67522600E+01
  0
VERTEX
  8
0
 62
4
 10
2.00384994E+01
 20
-4.66124929E+01
  0
VERTEX
  8
0
 62
4
 10
1.99906202E+01
 20
-4.65281799E+01
  0
VERTEX
  8
0
 62
4
 10
1.99423523E+01
 20
-4.65000000E+01
  0
SEQEND
  8
0
  0
POLYLINE
  8
0
 62
4
 66
1
  0
VERTEX
  8
0
 62
4
 10
7.15576412E+01
 20
-4.65000000E+01
  0
VERTEX
  8
0
 62
4
 10
7.15093734E+01
 20
-4.65281875E+01
  0
VERTEX
  8
0
 62
4
 10
7.14614943E+01
 20
-4.66125079E+01
  0
VERTEX
  8
0
 62
4
 10
7.14143893E+01
 20
-4.67522823E+01
  0
VERTEX
  8
0
 62
4
 10
7.13684378E+01
 20
-4.69463854E+01
  0
VERTEX
  8
0
 62
4
 10
7.13240096E+01
 20
-4.71932543E+01
  0
VERTEX
  8
0
 62
4
 10
7.12814626E+01
 20
-4.74909015E+01
  0
VERTEX
  8
0
 62
4
 10
7.12411393E+01
 20
-4.78369304E+01
  0
VERTEX
  8
0
 62
4
 10
7.12033643E+01
 20
-4.82285549E+01
  0
VERTEX
  8
0
 62
4
 10
7.11684418E+01
 20
-4.86626221E+01
  0
VERTEX
  8
0
 62
4
 10
7.11366529E+01
 20
-4.91356370E+01
  0
VERTEX
  8
0
 62
4
 10
7.11082537E+01
 20
-4.96437911E+01
  0
VERTEX
  8
0
 62
4
 10
7.10834727E+01
 20
-5.01829932E+01
  0
VERTEX
  8
0
 62
4
 10
7.10625094E+01
 20
-5.07489019E+01
  0
VERTEX
  8
0
 62
4
 10
7.10455328E+01
 20
-5.13369608E+01
  0
VERTEX
  8
0
 62
4
 10
7.10326794E+01
 20
-5.19424353E+01
  0
VERTEX
  8
0
 62
4
 10
7.10240527E+01
 20
-5.25604503E+01
  0
VERTEX
  8
0
 62
4
 10
7.10197222E+01
 20
-5.31860300E+01
  0
VERTEX
  8
0
 62
4
 10
7.10197228E+01
 20
-5.38141376E+01
  0
VERTEX
  8
0
 62
4
 10
7.10240544E+01
 20
-5.44397160E+01
  0
VERTEX
  8
0
 62
4
 10
7.10326822E+01
 20
-5.50577283E+01
  0
VERTEX
  8
0
 62
4
 10
7.10455368E+01
 20
-5.56631987E+01
  0
VERTEX
  8
0
 62
4
 10
7.10625145E+01
 20
-5.62512524E+01
  0
VERTEX
  8
0
 62
4
 10
7.10834788E+01
 20
-5.68171545E+01
  0
VERTEX
  8
0
 62
4
 10
7.11082608E+01
 20
-5.73563489E+01
  0
VERTEX
  8
0
 62
4
 10
7.11366610E+01
 20
-5.78644942E+01
  0
VERTEX
  8
0
 62
4
 10
7.11684507E+01
 20
-5.83374992E+01
  0
VERTEX
  8
0
 62
4
 10
7.12033740E+01
 20
-5.87715555E+01
  0
VERTEX
  8
0
 62
4
 10
7.12411497E+01
 20
-5.91631683E+01
  0
VERTEX
  8
0
 62
4
 10
7.12814737E+01
 20
-5.95091846E+01
  0
VERTEX
  8
0
 62
4
 10
7.13240213E+01
 20
-5.98068185E+01
  0
VERTEX
  8
0
 62
4
 10
7.13684498E+01
 20
-6.00536736E+01
  0
VERTEX
  8
0
 62
4
 10
7.14144017E+01
 20
-6.02477623E+01
  0
VERTEX
  8
0
 62
4
 10
7.14615070E+01
 20
-6.03875221E+01
  0
VERTEX
  8
0
 62
4
 10
7.15093863E+01
 20
-6.04718276E+01
  0
VERTEX
  8
0
 62
4
 10
7.15576541E+01
 20
-6.05000000E+01
  0
SEQEND
  8
0
  0
CIRCLE
  8
0
 62
4
 10
1.77500000E+01
 20
-2.55000000E+01
 40
3.84999990E+00
  0
CIRCLE
  8
0
 62
4
 10
7.37500000E+01
 20
-2.55000153E+01
 40
3.84999990E+00
  0
CIRCLE
  8
0
 62
4
 10
1.77500000E+01
 20
-8.15000000E+01
 40
3.84999990E+00
  0
CIRCLE
  8
0
 62
4
 10
7.37500000E+01
 20
-8.14999847E+01
 40
3.84999990E+00
  0
CIRCLE
  8
0
 62
4
 10
1.77500000E+01
 20
-8.15000000E+01
 40
7.50000000E+00
  0
CIRCLE
  8
0
 62
4
 10
7.37500000E+01
 20
-8.14999847E+01
 40
7.50000000E+00
  0
ARC
  8
0
 62
4
 10
7.42500000E+01
 20
-8.20000000E+01
 40
9.00000000E+00
 50
2.69999977E+02
 51
3.59999973E+02
  0
ARC
  8
0
 62
4
 10
1.72500000E+01
 20
-8.20000000E+01
 40
9.00000000E+00
 50
1.80000008E+02
 51
2.69999977E+02
  0
ARC
  8
0
 62
4
 10
1.72500000E+01
 20
-2.50000000E+01
 40
9.00000000E+00
 50
9.00000162E+01
 51
1.80000005E+02
  0
ARC
  8
0
 62
4
 10
7.42500000E+01
 20
-2.50000000E+01
 40
9.00000000E+00
 50
3.59999977E+02
 51
9.00000300E+01
  0
ARC
  8
0
 62
4
 10
7.02500000E+01
 20
-6.85000000E+01
 40
2.00000000E+00
 50
2.69999977E+02
 51
3.59999973E+02
  0
ARC
  8
0
 62
4
 10
7.02500000E+01
 20
-7.05000000E+01
 40
4.00000000E+00
 50
2.69999977E+02
 51
3.59999973E+02
  0
ARC
  8
0
 62
4
 10
5.52500000E+01
 20
-7.07500000E+01
 40
2.00000000E+00
 50
2.69999977E+02
 51
3.59999973E+02
  0
ARC
  8
0
 62
4
 10
3.62500000E+01
 20
-7.07500000E+01
 40
2.00000000E+00
 50
1.80000063E+02
 51
2.70000031E+02
  0
ARC
  8
0
 62
4
 10
2.12500000E+01
 20
-6.85000000E+01
 40
2.00000000E+00
 50
1.80000063E+02
 51
2.70000031E+02
  0
ARC
  8
0
 62
4
 10
2.12500000E+01
 20
-7.05000000E+01
 40
4.00000000E+00
 50
1.80000063E+02
 51
2.70000031E+02
  0
ARC
  8
0
 62
4
 10
2.12500000E+01
 20
-3.85000000E+01
 40
2.00000000E+00
 50
8.99999068E+01
 51
1.79999896E+02
  0
ARC
  8
0
 62
4
 10
2.12500000E+01
 20
-3.65000000E+01
 40
4.00000000E+00
 50
8.99999068E+01
 51
1.79999896E+02
  0
ARC
  8
0
 62
4
 10
5.52500000E+01
 20
-3.62500000E+01
 40
2.00000000E+00
 50
3.59999977E+02
 51
8.99999750E+01
  0
ARC
  8
0
 62
4
 10
3.62500000E+01
 20
-3.62500000E+01
 40
2.00000000E+00
 50
8.99999068E+01
 51
1.79999896E+02
  0
ARC
  8
0
 62
4
 10
7.02500000E+01
 20
-3.85000000E+01
 40
2.00000000E+00
 50
3.59999977E+02
 51
8.99999750E+01
  0
ARC
  8
0
 62
4
 10
7.02500000E+01
 20
-3.65000000E+01
 40
4.00000000E+00
 50
3.59999977E+02
 51
8.99999750E+01
  0
CIRCLE
  8
0
 62
4
 10
7.37500000E+01
 20
-2.55000153E+01
 40
7.50000000E+00
  0
CIRCLE
  8
0
 62
4
 10
1.77500000E+01
 20
-2.55000000E+01
 40
7.50000000E+00
  0
LINE
  8
0
 62
4
 10
2.12500000E+01
 20
-7.05000000E+01
 11
3.42656860E+01
 21
-7.05000000E+01
  0
LINE
  8
0
  6
CENTER
 62
6
 10
7.37500000E+01
 20
-3.69046478E+01
 11
7.37500000E+01
 21
-1.33188934E+01
  0
LINE
  8
0
 62
4
 10
3.42500000E+01
 20
-7.00000000E+01
 11
3.42500000E+01
 21
-7.07500000E+01
  0
LINE
  8
0
 62
4
 10
7.02500000E+01
 20
-6.59155121E+01
 11
5.72500000E+01
 21
-6.59155121E+01
  0
LINE
  8
0
 62
4
 10
8.24993896E+00
 20
-8.20000000E+01
 11
8.24993896E+00
 21
-2.50000000E+01
  0
LINE
  8
0
  6
CENTER
 62
6
 10
2.91546631E+01
 20
-2.55000305E+01
 11
5.56884766E+00
 21
-2.55000305E+01
  0
LINE
  8
0
  6
CENTER
 62
6
 10
4.57500000E+01
 20
-9.49675598E+01
 11
4.57500000E+01
 21
-1.24739380E+01
  0
LINE
  8
0
  6
CENTER
 62
6
 10
8.65177002E+01
 20
-5.35000000E+01
 11
3.27227783E+00
 21
-5.35000000E+01
  0
LINE
  8
0
  6
CENTER
 62
6
 10
1.77500000E+01
 20
-7.00953827E+01
 11
1.77500000E+01
 21
-9.36811218E+01
  0
LINE
  8
0
 62
4
 10
8.32500000E+01
 20
-2.50000000E+01
 11
8.32500000E+01
 21
-8.20000000E+01
  0
LINE
  8
0
 62
4
 10
3.57500000E+01
 20
-3.70000000E+01
 11
3.57500000E+01
 21
-7.00000000E+01
  0
LINE
  8
0
 62
4
 10
7.42500000E+01
 20
-9.10000153E+01
 11
1.72500000E+01
 21
-9.10000153E+01
  0
LINE
  8
0
  6
CENTER
 62
6
 10
6.20972900E+01
 20
-2.55000305E+01
 11
8.58403320E+01
 21
-2.55000305E+01
  0
LINE
  8
0
 62
4
 10
2.12500000E+01
 20
-4.10844879E+01
 11
3.42500000E+01
 21
-4.10844879E+01
  0
LINE
  8
0
 62
4
 10
5.52500000E+01
 20
-7.27500000E+01
 11
3.62500000E+01
 21
-7.27500000E+01
  0
LINE
  8
0
 62
4
 10
5.72500000E+01
 20
-7.00000000E+01
 11
5.57500000E+01
 21
-7.00000000E+01
  0
LINE
  8
0
 62
4
 10
3.42500000E+01
 20
-3.70000000E+01
 11
3.57500000E+01
 21
-3.70000000E+01
  0
LINE
  8
0
  6
CENTER
 62
6
 10
1.77500000E+01
 20
-3.71526947E+01
 11
1.77500000E+01
 21
-1.34097137E+01
  0
LINE
  8
0
 62
4
 10
7.02500000E+01
 20
-7.45000000E+01
 11
2.12500000E+01
 21
-7.45000000E+01
  0
LINE
  8
0
 62
4
 10
7.02500000E+01
 20
-7.05000000E+01
 11
5.72343140E+01
 21
-7.05000000E+01
  0
LINE
  8
0
 62
4
 10
5.72500000E+01
 20
-7.00000000E+01
 11
5.72500000E+01
 21
-7.07500000E+01
  0
LINE
  8
0
 62
4
 10
7.42500000E+01
 20
-1.60000000E+01
 11
1.72500000E+01
 21
-1.60000000E+01
  0
LINE
  8
0
  6
CENTER
 62
6
 10
7.37500000E+01
 20
-6.98473358E+01
 11
7.37500000E+01
 21
-9.35903015E+01
  0
LINE
  8
0
 62
4
 10
5.57500000E+01
 20
-3.70000000E+01
 11
5.57500000E+01
 21
-7.00000000E+01
  0
LINE
  8
0
 62
4
 10
2.12500000E+01
 20
-3.65000000E+01
 11
3.42656860E+01
 21
-3.65000000E+01
  0
LINE
  8
0
 62
4
 10
3.42500000E+01
 20
-3.70000000E+01
 11
3.42500000E+01
 21
-3.62500000E+01
  0
LINE
  8
0
 62
4
 10
7.02500000E+01
 20
-4.10844879E+01
 11
5.72500000E+01
 21
-4.10844879E+01
  0
LINE
  8
0
 62
4
 10
5.52500000E+01
 20
-3.42500000E+01
 11
3.62500000E+01
 21
-3.42500000E+01
  0
LINE
  8
0
 62
4
 10
5.72500000E+01
 20
-3.70000000E+01
 11
5.57500000E+01
 21
-3.70000000E+01
  0
LINE
  8
0
 62
4
 10
7.02500000E+01
 20
-3.25000000E+01
 11
2.12500000E+01
 21
-3.25000000E+01
  0
LINE
  8
0
 62
4
 10
7.02500000E+01
 20
-3.65000000E+01
 11
5.72343140E+01
 21
-3.65000000E+01
  0
LINE
  8
0
 62
4
 10
5.72500000E+01
 20
-3.70000000E+01
 11
5.72500000E+01
 21
-3.62500000E+01
  0
LINE
  8
0
 62
4
 10
2.12500000E+01
 20
-6.59155121E+01
 11
3.42500000E+01
 21
-6.59155121E+01
  0
LINE
  8
0
 62
4
 10
3.42500000E+01
 20
-7.00000000E+01
 11
3.57500000E+01
 21
-7.00000000E+01
  0
LINE
  8
0
  6
CENTER
 62
6
 10
6.23453369E+01
 20
-8.14999847E+01
 11
8.59311523E+01
 21
-8.14999847E+01
  0
LINE
  8
0
 62
4
 10
1.92500000E+01
 20
-3.85000000E+01
 11
1.92500000E+01
 21
-4.65000000E+01
  0
LINE
  8
0
  6
CENTER
 62
6
 10
2.94027100E+01
 20
-8.15000000E+01
 11
5.65966797E+00
 21
-8.15000000E+01
  0
LINE
  8
0
 62
4
 10
1.72500000E+01
 20
-3.65000000E+01
 11
1.72500000E+01
 21
-4.65000000E+01
  0
LINE
  8
0
 62
4
 10
7.42500000E+01
 20
-3.65000000E+01
 11
7.42500000E+01
 21
-4.65000000E+01
  0
LINE
  8
0
 62
4
 10
7.22500000E+01
 20
-3.85000000E+01
 11
7.22500000E+01
 21
-4.65000000E+01
  0
LINE
  8
0
 62
4
 10
-6.22500000E+01
 20
5.65000305E+01
 11
-6.22500000E+01
 21
7.65000000E+01
  0
LINE
  8
0
 62
4
 10
-4.82500000E+01
 20
5.65000305E+01
 11
-4.82500000E+01
 21
7.65000000E+01
  0
LINE
  8
0
 62
4
 10
-6.22500000E+01
 20
9.28461617E+01
 11
-6.22500000E+01
 21
9.85000000E+01
  0
LINE
  8
0
 62
4
 10
-4.82500000E+01
 20
9.23077002E+01
 11
-4.82500000E+01
 21
9.85000000E+01
  0
LINE
  8
0
 62
4
 10
-4.92500000E+01
 20
3.35000000E+01
 11
-4.82500000E+01
 21
3.45000000E+01
  0
LINE
  8
0
 62
4
 10
-6.22500000E+01
 20
3.45000000E+01
 11
-6.12500000E+01
 21
3.35000000E+01
  0
LINE
  8
0
 62
4
 10
-6.22500000E+01
 20
3.45000000E+01
 11
-4.82500000E+01
 21
3.45000000E+01
  0
LINE
  8
0
 62
4
 10
-6.12500000E+01
 20
3.35000000E+01
 11
-4.92500000E+01
 21
3.35000000E+01
  0
LINE
  8
0
 62
4
 10
-6.22500000E+01
 20
9.85000000E+01
 11
-4.82500000E+01
 21
9.85000000E+01
  0
LINE
  8
0
 62
4
 10
-4.92500000E+01
 20
9.95000000E+01
 11
-4.82500000E+01
 21
9.85000000E+01
  0
LINE
  8
0
 62
4
 10
-6.12500000E+01
 20
9.95000000E+01
 11
-6.22500000E+01
 21
9.85000000E+01
  0
LINE
  8
0
 62
4
 10
-6.12500000E+01
 20
9.95000000E+01
 11
-4.92500000E+01
 21
9.95000000E+01
  0
LINE
  8
0
 62
4
 10
-4.82500000E+01
 20
3.45000000E+01
 11
-4.82500000E+01
 21
4.06923625E+01
  0
LINE
  8
0
 62
4
 10
-6.22500000E+01
 20
3.45000000E+01
 11
-6.22500000E+01
 21
4.01539010E+01
  0
LINE
  8
0
  6
CENTER
 62
6
 10
-8.17940674E+01
 20
6.65000000E+01
 11
-3.51138306E+01
 21
6.65000000E+01
  0
ARC
  8
0
 62
4
 10
-6.82500000E+01
 20
1.02000000E+02
 40
2.00000000E+00
 50
3.59999981E+02
 51
9.00000162E+01
  0
ARC
  8
0
 62
4
 10
-6.82500000E+01
 20
3.10000305E+01
 40
2.00000000E+00
 50
2.69999984E+02
 51
3.59999964E+02
  0
ARC
  8
0
 62
4
 10
-4.22500000E+01
 20
4.29245911E+01
 40
2.00000000E+00
 50
2.72202399E+02
 51
3.59999964E+02
  0
ARC
  8
0
 62
4
 10
-4.22500000E+01
 20
9.00754395E+01
 40
2.00000000E+00
 50
3.59999981E+02
 51
8.77975464E+01
  0
LINE
  8
0
 62
4
 10
-4.21731341E+01
 20
4.09260881E+01
 11
-6.62499985E+01
 21
4.00000549E+01
  0
LINE
  8
0
 62
4
 10
-4.21731726E+01
 20
9.20739761E+01
 11
-6.62500065E+01
 21
9.30000081E+01
  0
LINE
  8
0
 62
4
 10
-6.62500000E+01
 20
1.02000000E+02
 11
-6.62500000E+01
 21
3.10000305E+01
  0
LINE
  8
0
 62
4
 10
-4.02500000E+01
 20
7.65000000E+01
 11
-6.47500000E+01
 21
7.65000000E+01
  0
LINE
  8
0
 62
4
 10
-4.02500000E+01
 20
7.65000000E+01
 11
-4.02500000E+01
 21
9.00754395E+01
  0
LINE
  8
0
 62
4
 10
-6.82500000E+01
 20
2.90000305E+01
 11
-7.42500000E+01
 21
2.90000305E+01
  0
LINE
  8
0
 62
4
 10
-6.47499748E+01
 20
5.50000276E+01
 11
-6.62499852E+01
 21
5.48026578E+01
  0
LINE
  8
0
 62
4
 10
-6.47500000E+01
 20
7.65000000E+01
 11
-6.47500000E+01
 21
7.80000000E+01
  0
LINE
  8
0
 62
4
 10
-6.47500000E+01
 20
5.65000305E+01
 11
-6.47500000E+01
 21
5.50000305E+01
  0
LINE
  8
0
 62
4
 10
-4.02500000E+01
 20
5.65000305E+01
 11
-4.02500000E+01
 21
4.29245911E+01
  0
LINE
  8
0
 62
4
 10
-4.02500000E+01
 20
5.65000305E+01
 11
-6.47500000E+01
 21
5.65000305E+01
  0
LINE
  8
0
 62
4
 10
-6.82500000E+01
 20
1.04000000E+02
 11
-7.42500000E+01
 21
1.04000000E+02
  0
LINE
  8
0
  6
CENTER
 62
6
 10
-5.52500000E+01
 20
2.90000305E+01
 11
-5.52500000E+01
 21
1.04000000E+02
  0
LINE
  8
0
 62
4
 10
-6.47500222E+01
 20
7.80000185E+01
 11
-6.62500325E+01
 21
7.81973883E+01
  0
LINE
  8
0
  6
CENTER
 62
6
 10
-6.30878296E+01
 20
9.45000610E+01
 11
-7.71227417E+01
 21
9.45000610E+01
  0
LINE
  8
0
  6
CENTER
 62
6
 10
-6.30878296E+01
 20
3.84999695E+01
 11
-7.67854462E+01
 21
3.84999695E+01
  0
LINE
  8
0
 62
4
 10
-7.42500000E+01
 20
1.04000000E+02
 11
-7.42500000E+01
 21
2.90000305E+01
  0
LINE
  8
0
 62
7
 10
1.09800003E+02
 20
-1.18500000E+02
 11
1.09800003E+02
 21
-1.33500000E+02
  0
LINE
  8
0
 62
7
 10
1.09800003E+02
 20
-1.18500000E+02
 11
1.94800003E+02
 21
-1.18500000E+02
  0
TEXT
  8
0
 62
7
 10
1.15249715E+02
 20
-1.29150000E+02
 40
6.30000019E+00
  1
KOGANEI CORP.
 41
1.04838725E+00
  7
MONOTXT
  0
TEXT
  8
0
 62
7
 10
1.34942863E+02
 20
1.22850006E+02
 40
4.50000000E+00
  1
Ver. 1.0
 41
1.08108085E+00
  7
MONOTXT
  0
LINE
  8
0
 62
7
 10
1.09800003E+02
 20
1.32600006E+02
 11
1.09800003E+02
 21
1.17600006E+02
  0
LINE
  8
0
 62
7
 10
1.09800003E+02
 20
1.17600006E+02
 11
1.94800003E+02
 21
1.17600006E+02
  0
TEXT
  8
0
 62
7
 10
-1.89357136E+02
 20
1.22850006E+02
 40
4.50000000E+00
  1
NEW DYNA CYLINDER
 41
1.07594914E+00
  7
MONOTXT
  0
LINE
  8
0
 62
7
 10
-1.94250000E+02
 20
1.17600006E+02
 11
-1.09250000E+02
 21
1.17600006E+02
  0
LINE
  8
0
 62
7
 10
-1.09250000E+02
 20
1.32600006E+02
 11
-1.09250000E+02
 21
1.17600006E+02
  0
TEXT
  8
0
 62
7
 10
-1.85214688E+02
 20
1.05350006E+02
 40
4.50000000E+00
  1
MODEL:DDA63-7
 41
1.00000000E+00
  7
MONOTXT
  0
LINE
  8
0
 62
7
 10
-1.94250000E+02
 20
1.32600006E+02
 11
1.94800003E+02
 21
1.32600006E+02
  0
LINE
  8
0
 62
7
 10
1.94800003E+02
 20
1.32600006E+02
 11
1.94800003E+02
 21
-1.33500000E+02
  0
LINE
  8
0
 62
7
 10
-1.94250000E+02
 20
1.32600006E+02
 11
-1.94250000E+02
 21
-1.33500000E+02
  0
LINE
  8
0
 62
7
 10
-1.94250000E+02
 20
-1.33500000E+02
 11
1.94800003E+02
 21
-1.33500000E+02
  0
ENDSEC
  0
EOF
