  0
SECTION
  2
HEADER
  9
$ACADVER
  1
AC1003
  9
$EXTMIN
 10
-1.94250000E+02
 20
-1.33500000E+02
  9
$EXTMAX
 10
1.94800003E+02
 20
1.32600006E+02
  9
$LIMMIN
 10
-1.94251000E+02
 20
-1.33501000E+02
  9
$LIMMAX
 10
1.94801003E+02
 20
1.32601006E+02
  9
$SNAPUNIT
 10
1
 20
1
  9
$SNAPBASE
 10
0
 20
0
  9
$GRIDMODE
 70
0
  9
$GRIDUNIT
 10
0
 20
0
  9
$LTSCALE
 40
6.48416672E+00
  9
$TEXTSIZE
 40
3.2
  9
$DIMTAD
 70
0
  9
$LUNITS
 70
2
  9
$LUPREC
 70
4
  9
$FILLETRAD
 40
0
  9
$AUNITS
 70
0
  9
$AUPREC
 70
0
  0
ENDSEC
  0
SECTION
  2
TABLES
  0
TABLE
  2
LTYPE
 70
2
  0
LTYPE
  2
CONTINUOUS
 70
64
  3
Solid-Line
 72
65
 73
0
 40
0
  0
LTYPE
  2
DASHED
 70
64
  3
DASHED
 72
65
 73
2
 40
.75
 49
.5
 49
-.25
  0
LTYPE
  2
HIDDEN
 70
64
  3
HIDDEN
 72
65
 73
2
 40
.375
 49
.25
 49
-.125
  0
LTYPE
  2
CENTER
 70
64
  3
CENTER
 72
65
 73
4
 40
2
 49
1.25
 49
-.25
 49
.25
 49
-.25
  0
LTYPE
  2
PHANTOM
 70
64
  3
PHANTOM
 72
65
 73
6
 40
2.5
 49
1.25
 49
-.25
 49
.25
 49
-.25
 49
.25
 49
-.25
  0
ENDTAB
  0
TABLE
  2
LAYER
 70
1
  0
LAYER
  2
1
 70
0
 62
7
  6
CONTINUOUS
 0
ENDTAB
  0
TABLE
  2
STYLE
 70
2
  0
STYLE
  2
MONOTXT
 70
0
 40
0
 41
1
 50
0
 71
0
 42
.2
  3
monotxt
  0
STYLE
  2
BIGFONT
 70
0
 40
0
 41
1
 50
0
 71
0
 42
.2
  3
txt
  4
bigfont
  0
ENDTAB
  0
ENDSEC
  0
SECTION
  2
ENTITIES
  0
ARC
  8
0
 62
4
 10
-5.52500000E+01
 20
-5.35000000E+01
 40
1.50000000E+01
 50
2.71406877E+02
 51
2.88593123E+02
  0
ARC
  8
0
 62
4
 10
-5.52500000E+01
 20
-5.35000000E+01
 40
1.50000000E+01
 50
7.14063561E+01
 51
8.85936438E+01
  0
ARC
  8
0
 62
4
 10
-6.17500000E+01
 20
-8.57917976E+01
 40
5.00000000E+00
 50
2.86601585E+02
 51
3.34750192E+02
  0
ARC
  8
0
 62
4
 10
-5.97500000E+01
 20
-9.25000038E+01
 40
2.00000000E+00
 50
8.99999818E+01
 51
1.79999964E+02
  0
ARC
  8
0
 62
4
 10
9.25000000E+00
 20
-9.25000038E+01
 40
2.00000000E+00
 50
3.59721781E-05
 51
8.99999818E+01
  0
ARC
  8
0
 62
4
 10
-7.28550110E+01
 20
-8.05543785E+01
 40
1.72780991E+01
 50
3.34750192E+02
 51
4.04437133E+01
  0
LINE
  8
0
  6
CENTER
 62
6
 10
-4.52500000E+01
 20
-1.01651386E+02
 11
-4.52500000E+01
 21
-8.63164558E+01
  0
LINE
  8
0
  6
CENTER
 62
6
 10
-5.25000000E+00
 20
-1.01651386E+02
 11
-5.25000000E+00
 21
-8.63164558E+01
  0
LINE
  8
0
 62
4
 10
-4.03398257E+01
 20
-4.66018348E+01
 11
1.05847304E+01
 21
-9.10105592E+01
  0
LINE
  8
0
 62
4
 10
-6.00669250E+01
 20
-9.05000038E+01
 11
9.25000000E+00
 21
-9.05000038E+01
  0
LINE
  8
0
 62
4
 10
-6.17500000E+01
 20
-9.85000038E+01
 11
1.12500000E+01
 21
-9.85000038E+01
  0
LINE
  8
0
 62
4
 10
-6.17500000E+01
 20
-9.85000038E+01
 11
-6.17500000E+01
 21
-9.25000038E+01
  0
LINE
  8
0
 62
4
 10
1.12500000E+01
 20
-9.85000038E+01
 11
1.12500000E+01
 21
-9.25000038E+01
  0
CIRCLE
  8
0
 62
4
 10
-5.52500000E+01
 20
-5.35000000E+01
 40
6.00000000E+00
  0
ARC
  8
0
 62
4
 10
-6.82500000E+01
 20
-1.80000000E+01
 40
2.00000000E+00
 50
3.59999981E+02
 51
8.99999618E+01
  0
ARC
  8
0
 62
4
 10
-6.22500000E+01
 20
-3.31436005E+01
 40
4.00000000E+00
 50
1.79999951E+02
 51
2.59999893E+02
  0
ARC
  8
0
 62
4
 10
-4.82500000E+01
 20
-4.77973022E+01
 40
8.00000000E+00
 50
3.59999981E+02
 51
7.99998813E+01
  0
ARC
  8
0
 62
4
 10
-6.22500000E+01
 20
-7.38563995E+01
 40
4.00000000E+00
 50
1.00000055E+02
 51
1.80000005E+02
  0
ARC
  8
0
 62
4
 10
-4.82500000E+01
 20
-5.92026978E+01
 40
8.00000000E+00
 50
2.80000064E+02
 51
3.59999964E+02
  0
ARC
  8
0
 62
4
 10
-6.82500000E+01
 20
-8.90000000E+01
 40
2.00000000E+00
 50
2.69999984E+02
 51
3.59999964E+02
  0
CIRCLE
  8
0
 62
4
 10
-5.52500000E+01
 20
-5.35000000E+01
 40
7.00000000E+00
  0
LINE
  8
0
 62
4
 10
-4.02500000E+01
 20
-4.77973022E+01
 11
-4.02500000E+01
 21
-5.92026978E+01
  0
LINE
  8
0
 62
4
 10
-6.62500000E+01
 20
-1.80000000E+01
 11
-6.62500000E+01
 21
-8.90000000E+01
  0
LINE
  8
0
 62
4
 10
-6.82500000E+01
 20
-9.10000000E+01
 11
-7.42500000E+01
 21
-9.10000000E+01
  0
LINE
  8
0
 62
4
 10
-4.68608373E+01
 20
-6.70811806E+01
 11
-6.29445676E+01
 21
-6.99171763E+01
  0
LINE
  8
0
 62
4
 10
-4.68608082E+01
 20
-3.99188452E+01
 11
-6.29445986E+01
 21
-3.70828389E+01
  0
LINE
  8
0
 62
4
 10
-6.82500000E+01
 20
-1.60000000E+01
 11
-7.42500000E+01
 21
-1.60000000E+01
  0
LINE
  8
0
  6
CENTER
 62
6
 10
-5.52500000E+01
 20
-4.09138336E+01
 11
-5.52500000E+01
 21
-6.51414032E+01
  0
LINE
  8
0
  6
CENTER
 62
6
 10
-6.30279846E+01
 20
-2.55000000E+01
 11
-7.78118744E+01
 21
-2.55000000E+01
  0
LINE
  8
0
 62
4
 10
-7.42500000E+01
 20
-9.10000000E+01
 11
-7.42500000E+01
 21
-1.60000000E+01
  0
LINE
  8
0
  6
CENTER
 62
6
 10
-8.17940674E+01
 20
-5.35000000E+01
 11
-3.51138306E+01
 21
-5.35000000E+01
  0
LINE
  8
0
  6
CENTER
 62
6
 10
-6.21319885E+01
 20
-8.15000305E+01
 11
-7.82598724E+01
 21
-8.15000305E+01
  0
LINE
  8
0
 62
4
 10
8.77500305E+01
 20
-7.27500000E+01
 11
8.62500000E+01
 21
-7.27500000E+01
  0
LINE
  8
0
 62
4
 10
8.77500305E+01
 20
-7.45000000E+01
 11
7.12500000E+01
 21
-7.45000000E+01
  0
ARC
  8
0
 62
4
 10
1.06778900E+02
 20
-4.51696167E+01
 40
3.00000000E+00
 50
1.10057570E+02
 51
1.80147319E+02
  0
ARC
  8
0
 62
4
 10
8.47785034E+01
 20
-4.51696167E+01
 40
3.00000000E+00
 50
7.90415275E+00
 51
7.11051109E+01
  0
ARC
  8
0
 62
4
 10
8.47500000E+01
 20
-7.13283997E+01
 40
3.00000000E+00
 50
3.59999963E+02
 51
7.05285881E+01
  0
ARC
  8
0
 62
4
 10
4.52500000E+01
 20
-9.24999886E+01
 40
2.00000000E+00
 50
8.99999274E+01
 51
1.79999964E+02
  0
ARC
  8
0
 62
4
 10
7.77500000E+01
 20
-8.04999886E+01
 40
1.00000000E+01
 50
2.70000018E+02
 51
3.59999891E+02
  0
ARC
  8
0
 62
4
 10
1.06750000E+02
 20
-7.13284149E+01
 40
3.00000000E+00
 50
1.09471267E+02
 51
1.79999964E+02
  0
ARC
  8
0
 62
4
 10
1.46249999E+02
 20
-9.25000038E+01
 40
2.00000000E+00
 50
1.79860890E-05
 51
8.99999818E+01
  0
ARC
  8
0
 62
4
 10
1.13750000E+02
 20
-8.05000038E+01
 40
1.00000000E+01
 50
1.79999964E+02
 51
2.69999946E+02
  0
LINE
  8
0
  6
CENTER
 62
6
 10
1.35749999E+02
 20
-1.01651371E+02
 11
1.35749999E+02
 21
-8.63164406E+01
  0
LINE
  8
0
  6
CENTER
 62
6
 10
5.57500000E+01
 20
-1.01651371E+02
 11
5.57500000E+01
 21
-8.63164406E+01
  0
LINE
  8
0
 62
4
 10
4.32500305E+01
 20
-9.24999886E+01
 11
4.32500305E+01
 21
-9.84999886E+01
  0
LINE
  8
0
 62
4
 10
8.77500305E+01
 20
-4.47570648E+01
 11
8.77500305E+01
 21
-8.04999886E+01
  0
LINE
  8
0
 62
4
 10
9.57500606E+01
 20
-3.84999345E+01
 11
8.57500399E+01
 21
-3.87617901E+01
  0
LINE
  8
0
 62
4
 10
7.77500305E+01
 20
-9.04999886E+01
 11
4.52500305E+01
 21
-9.04999886E+01
  0
LINE
  8
0
 62
4
 10
1.05750034E+02
 20
-3.87618025E+01
 11
9.57500441E+01
 21
-3.84999477E+01
  0
LINE
  8
0
 62
4
 10
1.03750000E+02
 20
-8.04999886E+01
 11
1.03750000E+02
 21
-4.51696167E+01
  0
LINE
  8
0
 62
4
 10
1.48250000E+02
 20
-9.84999886E+01
 11
1.48250000E+02
 21
-9.24999886E+01
  0
LINE
  8
0
 62
4
 10
1.46249999E+02
 20
-9.04999886E+01
 11
1.13750000E+02
 21
-9.04999886E+01
  0
LINE
  8
0
 62
4
 10
1.48250000E+02
 20
-9.84999886E+01
 11
4.32500305E+01
 21
-9.84999886E+01
  0
LINE
  8
0
 62
4
 10
1.24250000E+02
 20
-6.05000000E+01
 11
1.24250000E+02
 21
-7.05000000E+01
  0
LINE
  8
0
 62
4
 10
1.22250000E+02
 20
-6.05000000E+01
 11
1.22250000E+02
 21
-6.85000000E+01
  0
LINE
  8
0
 62
4
 10
6.99423523E+01
 20
-6.05000000E+01
 11
6.37500000E+01
 21
-6.05000000E+01
  0
LINE
  8
0
 62
4
 10
6.99423523E+01
 20
-4.65000000E+01
 11
6.37500000E+01
 21
-4.65000000E+01
  0
LINE
  8
0
 62
4
 10
6.92500000E+01
 20
-6.05000000E+01
 11
6.92500000E+01
 21
-6.85000000E+01
  0
LINE
  8
0
 62
4
 10
6.72500000E+01
 20
-6.05000000E+01
 11
6.72500000E+01
 21
-7.05000000E+01
  0
LINE
  8
0
 62
4
 10
6.27500000E+01
 20
-5.95000000E+01
 11
6.37500000E+01
 21
-6.05000000E+01
  0
LINE
  8
0
 62
4
 10
6.37500000E+01
 20
-4.65000000E+01
 11
6.27500000E+01
 21
-4.75000000E+01
  0
LINE
  8
0
 62
4
 10
1.28750000E+02
 20
-5.95000000E+01
 11
1.27750000E+02
 21
-6.05000000E+01
  0
LINE
  8
0
 62
4
 10
1.28750000E+02
 20
-4.75000000E+01
 11
1.27750000E+02
 21
-4.65000000E+01
  0
LINE
  8
0
 62
4
 10
1.27750000E+02
 20
-4.65000000E+01
 11
1.27750000E+02
 21
-6.05000000E+01
  0
LINE
  8
0
 62
4
 10
6.37500000E+01
 20
-4.65000000E+01
 11
6.37500000E+01
 21
-6.05000000E+01
  0
LINE
  8
0
 62
4
 10
6.27500000E+01
 20
-4.75000000E+01
 11
6.27500000E+01
 21
-5.95000000E+01
  0
LINE
  8
0
 62
4
 10
1.28750000E+02
 20
-4.75000000E+01
 11
1.28750000E+02
 21
-5.95000000E+01
  0
LINE
  8
0
 62
4
 10
1.27750000E+02
 20
-4.65000000E+01
 11
1.21557648E+02
 21
-4.65000000E+01
  0
LINE
  8
0
 62
4
 10
1.27750000E+02
 20
-6.05000000E+01
 11
1.21557648E+02
 21
-6.05000000E+01
  0
POLYLINE
  8
0
 62
4
 66
1
  0
VERTEX
  8
0
 62
4
 10
6.99423523E+01
 20
-6.05000000E+01
  0
VERTEX
  8
0
 62
4
 10
6.99906201E+01
 20
-6.04718201E+01
  0
VERTEX
  8
0
 62
4
 10
7.00384994E+01
 20
-6.03875071E+01
  0
VERTEX
  8
0
 62
4
 10
7.00856045E+01
 20
-6.02477400E+01
  0
VERTEX
  8
0
 62
4
 10
7.01315562E+01
 20
-6.00536441E+01
  0
VERTEX
  8
0
 62
4
 10
7.01759845E+01
 20
-5.98067821E+01
  0
VERTEX
  8
0
 62
4
 10
7.02185318E+01
 20
-5.95091416E+01
  0
VERTEX
  8
0
 62
4
 10
7.02588555E+01
 20
-5.91631190E+01
  0
VERTEX
  8
0
 62
4
 10
7.02966309E+01
 20
-5.87715003E+01
  0
VERTEX
  8
0
 62
4
 10
7.03315538E+01
 20
-5.83374385E+01
  0
VERTEX
  8
0
 62
4
 10
7.03633431E+01
 20
-5.78644286E+01
  0
VERTEX
  8
0
 62
4
 10
7.03917428E+01
 20
-5.73562789E+01
  0
VERTEX
  8
0
 62
4
 10
7.04165243E+01
 20
-5.68170806E+01
  0
VERTEX
  8
0
 62
4
 10
7.04374880E+01
 20
-5.62511752E+01
  0
VERTEX
  8
0
 62
4
 10
7.04544652E+01
 20
-5.56631190E+01
  0
VERTEX
  8
0
 62
4
 10
7.04673192E+01
 20
-5.50576465E+01
  0
VERTEX
  8
0
 62
4
 10
7.04759464E+01
 20
-5.44396329E+01
  0
VERTEX
  8
0
 62
4
 10
7.04802775E+01
 20
-5.38140538E+01
  0
VERTEX
  8
0
 62
4
 10
7.04802775E+01
 20
-5.31859462E+01
  0
VERTEX
  8
0
 62
4
 10
7.04759464E+01
 20
-5.25603672E+01
  0
VERTEX
  8
0
 62
4
 10
7.04673192E+01
 20
-5.19423535E+01
  0
VERTEX
  8
0
 62
4
 10
7.04544652E+01
 20
-5.13368811E+01
  0
VERTEX
  8
0
 62
4
 10
7.04374880E+01
 20
-5.07488248E+01
  0
VERTEX
  8
0
 62
4
 10
7.04165243E+01
 20
-5.01829194E+01
  0
VERTEX
  8
0
 62
4
 10
7.03917428E+01
 20
-4.96437211E+01
  0
VERTEX
  8
0
 62
4
 10
7.03633431E+01
 20
-4.91355714E+01
  0
VERTEX
  8
0
 62
4
 10
7.03315538E+01
 20
-4.86625615E+01
  0
VERTEX
  8
0
 62
4
 10
7.02966309E+01
 20
-4.82284998E+01
  0
VERTEX
  8
0
 62
4
 10
7.02588555E+01
 20
-4.78368811E+01
  0
VERTEX
  8
0
 62
4
 10
7.02185318E+01
 20
-4.74908585E+01
  0
VERTEX
  8
0
 62
4
 10
7.01759846E+01
 20
-4.71932179E+01
  0
VERTEX
  8
0
 62
4
 10
7.01315562E+01
 20
-4.69463559E+01
  0
VERTEX
  8
0
 62
4
 10
7.00856045E+01
 20
-4.67522600E+01
  0
VERTEX
  8
0
 62
4
 10
7.00384994E+01
 20
-4.66124929E+01
  0
VERTEX
  8
0
 62
4
 10
6.99906202E+01
 20
-4.65281799E+01
  0
VERTEX
  8
0
 62
4
 10
6.99423523E+01
 20
-4.65000000E+01
  0
SEQEND
  8
0
  0
POLYLINE
  8
0
 62
4
 66
1
  0
VERTEX
  8
0
 62
4
 10
1.21557642E+02
 20
-4.65000000E+01
  0
VERTEX
  8
0
 62
4
 10
1.21509374E+02
 20
-4.65281875E+01
  0
VERTEX
  8
0
 62
4
 10
1.21461495E+02
 20
-4.66125079E+01
  0
VERTEX
  8
0
 62
4
 10
1.21414390E+02
 20
-4.67522823E+01
  0
VERTEX
  8
0
 62
4
 10
1.21368438E+02
 20
-4.69463854E+01
  0
VERTEX
  8
0
 62
4
 10
1.21324010E+02
 20
-4.71932543E+01
  0
VERTEX
  8
0
 62
4
 10
1.21281463E+02
 20
-4.74909015E+01
  0
VERTEX
  8
0
 62
4
 10
1.21241140E+02
 20
-4.78369304E+01
  0
VERTEX
  8
0
 62
4
 10
1.21203365E+02
 20
-4.82285549E+01
  0
VERTEX
  8
0
 62
4
 10
1.21168442E+02
 20
-4.86626221E+01
  0
VERTEX
  8
0
 62
4
 10
1.21136653E+02
 20
-4.91356370E+01
  0
VERTEX
  8
0
 62
4
 10
1.21108254E+02
 20
-4.96437911E+01
  0
VERTEX
  8
0
 62
4
 10
1.21083473E+02
 20
-5.01829932E+01
  0
VERTEX
  8
0
 62
4
 10
1.21062510E+02
 20
-5.07489019E+01
  0
VERTEX
  8
0
 62
4
 10
1.21045533E+02
 20
-5.13369608E+01
  0
VERTEX
  8
0
 62
4
 10
1.21032680E+02
 20
-5.19424353E+01
  0
VERTEX
  8
0
 62
4
 10
1.21024053E+02
 20
-5.25604503E+01
  0
VERTEX
  8
0
 62
4
 10
1.21019723E+02
 20
-5.31860300E+01
  0
VERTEX
  8
0
 62
4
 10
1.21019723E+02
 20
-5.38141376E+01
  0
VERTEX
  8
0
 62
4
 10
1.21024055E+02
 20
-5.44397160E+01
  0
VERTEX
  8
0
 62
4
 10
1.21032683E+02
 20
-5.50577283E+01
  0
VERTEX
  8
0
 62
4
 10
1.21045537E+02
 20
-5.56631987E+01
  0
VERTEX
  8
0
 62
4
 10
1.21062515E+02
 20
-5.62512524E+01
  0
VERTEX
  8
0
 62
4
 10
1.21083479E+02
 20
-5.68171545E+01
  0
VERTEX
  8
0
 62
4
 10
1.21108261E+02
 20
-5.73563489E+01
  0
VERTEX
  8
0
 62
4
 10
1.21136661E+02
 20
-5.78644942E+01
  0
VERTEX
  8
0
 62
4
 10
1.21168451E+02
 20
-5.83374992E+01
  0
VERTEX
  8
0
 62
4
 10
1.21203374E+02
 20
-5.87715555E+01
  0
VERTEX
  8
0
 62
4
 10
1.21241150E+02
 20
-5.91631683E+01
  0
VERTEX
  8
0
 62
4
 10
1.21281474E+02
 20
-5.95091846E+01
  0
VERTEX
  8
0
 62
4
 10
1.21324022E+02
 20
-5.98068185E+01
  0
VERTEX
  8
0
 62
4
 10
1.21368450E+02
 20
-6.00536736E+01
  0
VERTEX
  8
0
 62
4
 10
1.21414402E+02
 20
-6.02477623E+01
  0
VERTEX
  8
0
 62
4
 10
1.21461507E+02
 20
-6.03875221E+01
  0
VERTEX
  8
0
 62
4
 10
1.21509387E+02
 20
-6.04718276E+01
  0
VERTEX
  8
0
 62
4
 10
1.21557654E+02
 20
-6.05000000E+01
  0
SEQEND
  8
0
  0
CIRCLE
  8
0
 62
4
 10
6.77500000E+01
 20
-2.55000000E+01
 40
3.84999990E+00
  0
CIRCLE
  8
0
 62
4
 10
1.23750000E+02
 20
-2.55000153E+01
 40
3.84999990E+00
  0
CIRCLE
  8
0
 62
4
 10
6.77500000E+01
 20
-8.15000000E+01
 40
3.84999990E+00
  0
CIRCLE
  8
0
 62
4
 10
1.23750000E+02
 20
-8.14999847E+01
 40
3.84999990E+00
  0
CIRCLE
  8
0
 62
4
 10
6.77500000E+01
 20
-8.15000000E+01
 40
7.50000000E+00
  0
CIRCLE
  8
0
 62
4
 10
1.23750000E+02
 20
-8.14999847E+01
 40
7.50000000E+00
  0
ARC
  8
0
 62
4
 10
1.24250000E+02
 20
-8.20000000E+01
 40
9.00000000E+00
 50
2.89188358E+02
 51
3.59999973E+02
  0
ARC
  8
0
 62
4
 10
6.72500000E+01
 20
-8.20000000E+01
 40
9.00000000E+00
 50
1.80000008E+02
 51
2.50811642E+02
  0
ARC
  8
0
 62
4
 10
6.72500000E+01
 20
-2.50000000E+01
 40
9.00000000E+00
 50
9.00000162E+01
 51
1.80000005E+02
  0
ARC
  8
0
 62
4
 10
1.24250000E+02
 20
-2.50000000E+01
 40
9.00000000E+00
 50
3.59999977E+02
 51
9.00000300E+01
  0
ARC
  8
0
 62
4
 10
1.20250000E+02
 20
-6.85000000E+01
 40
2.00000000E+00
 50
2.69999977E+02
 51
3.59999973E+02
  0
ARC
  8
0
 62
4
 10
1.20250000E+02
 20
-7.05000000E+01
 40
4.00000000E+00
 50
2.69999977E+02
 51
3.59999973E+02
  0
ARC
  8
0
 62
4
 10
1.05250000E+02
 20
-7.07500000E+01
 40
2.00000000E+00
 50
2.69999977E+02
 51
3.59999973E+02
  0
ARC
  8
0
 62
4
 10
8.62500000E+01
 20
-7.07500000E+01
 40
2.00000000E+00
 50
1.80000063E+02
 51
2.70000031E+02
  0
ARC
  8
0
 62
4
 10
7.12500000E+01
 20
-6.85000000E+01
 40
2.00000000E+00
 50
1.80000063E+02
 51
2.70000031E+02
  0
ARC
  8
0
 62
4
 10
7.12500000E+01
 20
-7.05000000E+01
 40
4.00000000E+00
 50
1.80000063E+02
 51
2.70000031E+02
  0
ARC
  8
0
 62
4
 10
7.12500000E+01
 20
-3.85000000E+01
 40
2.00000000E+00
 50
8.99999068E+01
 51
1.79999896E+02
  0
ARC
  8
0
 62
4
 10
7.12500000E+01
 20
-3.65000000E+01
 40
4.00000000E+00
 50
8.99999068E+01
 51
1.79999896E+02
  0
ARC
  8
0
 62
4
 10
1.05250000E+02
 20
-3.62500000E+01
 40
2.00000000E+00
 50
3.59999977E+02
 51
8.99999750E+01
  0
ARC
  8
0
 62
4
 10
8.62500000E+01
 20
-3.62500000E+01
 40
2.00000000E+00
 50
8.99999068E+01
 51
1.79999896E+02
  0
ARC
  8
0
 62
4
 10
1.20250000E+02
 20
-3.85000000E+01
 40
2.00000000E+00
 50
3.59999977E+02
 51
8.99999750E+01
  0
ARC
  8
0
 62
4
 10
1.20250000E+02
 20
-3.65000000E+01
 40
4.00000000E+00
 50
3.59999977E+02
 51
8.99999750E+01
  0
CIRCLE
  8
0
 62
4
 10
1.23750000E+02
 20
-2.55000153E+01
 40
7.50000000E+00
  0
CIRCLE
  8
0
 62
4
 10
6.77500000E+01
 20
-2.55000000E+01
 40
7.50000000E+00
  0
LINE
  8
0
 62
4
 10
7.12500000E+01
 20
-7.05000000E+01
 11
8.42656860E+01
 21
-7.05000000E+01
  0
LINE
  8
0
  6
CENTER
 62
6
 10
1.23750000E+02
 20
-3.69046478E+01
 11
1.23750000E+02
 21
-1.33188934E+01
  0
LINE
  8
0
 62
4
 10
8.42500000E+01
 20
-7.00000000E+01
 11
8.42500000E+01
 21
-7.07500000E+01
  0
LINE
  8
0
 62
4
 10
1.20250000E+02
 20
-6.59155121E+01
 11
1.07250000E+02
 21
-6.59155121E+01
  0
LINE
  8
0
 62
4
 10
5.82499390E+01
 20
-8.20000000E+01
 11
5.82499390E+01
 21
-2.50000000E+01
  0
LINE
  8
0
  6
CENTER
 62
6
 10
7.91546631E+01
 20
-2.55000305E+01
 11
5.55688477E+01
 21
-2.55000305E+01
  0
LINE
  8
0
  6
CENTER
 62
6
 10
9.57500000E+01
 20
-9.49675598E+01
 11
9.57500000E+01
 21
-1.24739380E+01
  0
LINE
  8
0
  6
CENTER
 62
6
 10
1.36517700E+02
 20
-5.35000000E+01
 11
5.32722778E+01
 21
-5.35000000E+01
  0
LINE
  8
0
  6
CENTER
 62
6
 10
6.77500000E+01
 20
-7.00953827E+01
 11
6.77500000E+01
 21
-9.36811218E+01
  0
LINE
  8
0
 62
4
 10
1.33250000E+02
 20
-2.50000000E+01
 11
1.33250000E+02
 21
-8.20000000E+01
  0
LINE
  8
0
 62
4
 10
8.57500000E+01
 20
-3.70000000E+01
 11
8.57500000E+01
 21
-7.00000000E+01
  0
LINE
  8
0
  6
CENTER
 62
6
 10
1.12097290E+02
 20
-2.55000305E+01
 11
1.35840332E+02
 21
-2.55000305E+01
  0
LINE
  8
0
 62
4
 10
7.12500000E+01
 20
-4.10844879E+01
 11
8.42500000E+01
 21
-4.10844879E+01
  0
LINE
  8
0
 62
4
 10
1.05250000E+02
 20
-7.27500000E+01
 11
1.03750000E+02
 21
-7.27500000E+01
  0
LINE
  8
0
 62
4
 10
1.07250000E+02
 20
-7.00000000E+01
 11
1.05750000E+02
 21
-7.00000000E+01
  0
LINE
  8
0
 62
4
 10
8.42500000E+01
 20
-3.70000000E+01
 11
8.57500000E+01
 21
-3.70000000E+01
  0
LINE
  8
0
  6
CENTER
 62
6
 10
6.77500000E+01
 20
-3.71526947E+01
 11
6.77500000E+01
 21
-1.34097137E+01
  0
LINE
  8
0
 62
4
 10
1.20250000E+02
 20
-7.45000000E+01
 11
1.03750000E+02
 21
-7.45000000E+01
  0
LINE
  8
0
 62
4
 10
1.20250000E+02
 20
-7.05000000E+01
 11
1.07234314E+02
 21
-7.05000000E+01
  0
LINE
  8
0
 62
4
 10
1.07250000E+02
 20
-7.00000000E+01
 11
1.07250000E+02
 21
-7.07500000E+01
  0
LINE
  8
0
 62
4
 10
1.24250000E+02
 20
-1.60000000E+01
 11
6.72500000E+01
 21
-1.60000000E+01
  0
LINE
  8
0
  6
CENTER
 62
6
 10
1.23750000E+02
 20
-6.98473358E+01
 11
1.23750000E+02
 21
-9.35903015E+01
  0
LINE
  8
0
 62
4
 10
1.05750000E+02
 20
-3.70000000E+01
 11
1.05750000E+02
 21
-7.00000000E+01
  0
LINE
  8
0
 62
4
 10
7.12500000E+01
 20
-3.65000000E+01
 11
8.42656860E+01
 21
-3.65000000E+01
  0
LINE
  8
0
 62
4
 10
8.42500000E+01
 20
-3.70000000E+01
 11
8.42500000E+01
 21
-3.62500000E+01
  0
LINE
  8
0
 62
4
 10
1.20250000E+02
 20
-4.10844879E+01
 11
1.07250000E+02
 21
-4.10844879E+01
  0
LINE
  8
0
 62
4
 10
1.05250000E+02
 20
-3.42500000E+01
 11
8.62500000E+01
 21
-3.42500000E+01
  0
LINE
  8
0
 62
4
 10
1.07250000E+02
 20
-3.70000000E+01
 11
1.05750000E+02
 21
-3.70000000E+01
  0
LINE
  8
0
 62
4
 10
1.20250000E+02
 20
-3.25000000E+01
 11
7.12500000E+01
 21
-3.25000000E+01
  0
LINE
  8
0
 62
4
 10
1.20250000E+02
 20
-3.65000000E+01
 11
1.07234314E+02
 21
-3.65000000E+01
  0
LINE
  8
0
 62
4
 10
1.07250000E+02
 20
-3.70000000E+01
 11
1.07250000E+02
 21
-3.62500000E+01
  0
LINE
  8
0
 62
4
 10
7.12500000E+01
 20
-6.59155121E+01
 11
8.42500000E+01
 21
-6.59155121E+01
  0
LINE
  8
0
 62
4
 10
8.42500000E+01
 20
-7.00000000E+01
 11
8.57500000E+01
 21
-7.00000000E+01
  0
LINE
  8
0
  6
CENTER
 62
6
 10
1.12345337E+02
 20
-8.14999847E+01
 11
1.35931152E+02
 21
-8.14999847E+01
  0
LINE
  8
0
 62
4
 10
6.92500000E+01
 20
-3.85000000E+01
 11
6.92500000E+01
 21
-4.65000000E+01
  0
LINE
  8
0
  6
CENTER
 62
6
 10
7.94027100E+01
 20
-8.15000000E+01
 11
5.56596680E+01
 21
-8.15000000E+01
  0
LINE
  8
0
 62
4
 10
6.72500000E+01
 20
-3.65000000E+01
 11
6.72500000E+01
 21
-4.65000000E+01
  0
LINE
  8
0
 62
4
 10
1.24250000E+02
 20
-3.65000000E+01
 11
1.24250000E+02
 21
-4.65000000E+01
  0
LINE
  8
0
 62
4
 10
1.22250000E+02
 20
-3.85000000E+01
 11
1.22250000E+02
 21
-4.65000000E+01
  0
LINE
  8
0
  6
CENTER
 62
6
 10
-5.25000000E+00
 20
1.15000000E+01
 11
-5.25000000E+00
 21
4.15000000E+01
  0
LINE
  8
0
  6
CENTER
 62
6
 10
-4.52500000E+01
 20
4.15000000E+01
 11
-4.52500000E+01
 21
1.15000000E+01
  0
ARC
  8
0
 62
4
 10
4.87921143E+00
 20
1.90000000E+01
 40
5.00000000E+00
 50
2.69999963E+02
 51
3.58500000E+02
  0
ARC
  8
0
 62
4
 10
-5.53792114E+01
 20
1.90000000E+01
 40
5.00000000E+00
 50
1.81500000E+02
 51
2.70000073E+02
  0
CIRCLE
  8
0
 62
4
 10
-5.25000000E+00
 20
2.65000000E+01
 40
1.20000000E+01
  0
ARC
  8
0
 62
4
 10
-4.52500000E+01
 20
2.65000000E+01
 40
1.20000000E+01
 50
1.44314665E+02
 51
1.04477512E+02
  0
ARC
  8
0
 62
4
 10
-4.24110413E+01
 20
7.75000000E+01
 40
3.00000000E+00
 50
1.99471266E+02
 51
2.69999963E+02
  0
ARC
  8
0
 62
4
 10
-3.74216003E+01
 20
7.75000000E+01
 40
3.00000000E+00
 50
1.99471266E+02
 51
2.69999963E+02
  0
ARC
  8
0
 62
4
 10
6.75000000E+00
 20
7.75000000E+01
 40
3.00000000E+00
 50
2.69999963E+02
 51
3.59999910E+02
  0
ARC
  8
0
 62
4
 10
-4.52500000E+01
 20
1.06500000E+02
 40
1.20000000E+01
 50
2.55522488E+02
 51
2.15685335E+02
  0
CIRCLE
  8
0
 62
4
 10
-4.52500000E+01
 20
1.06500000E+02
 40
5.50000000E+00
  0
CIRCLE
  8
0
 62
4
 10
-5.25000000E+00
 20
1.06500000E+02
 40
1.20000000E+01
  0
CIRCLE
  8
0
 62
4
 10
-5.25000000E+00
 20
1.06500000E+02
 40
5.50000000E+00
  0
ARC
  8
0
 62
4
 10
-5.53792114E+01
 20
1.14000000E+02
 40
5.00000000E+00
 50
8.99999274E+01
 51
1.78500000E+02
  0
ARC
  8
0
 62
4
 10
4.87921143E+00
 20
1.14000000E+02
 40
5.00000000E+00
 50
1.50000004E+00
 51
9.00000369E+01
  0
ARC
  8
0
 62
4
 10
-4.24110413E+01
 20
5.55000000E+01
 40
3.00000000E+00
 50
8.99999818E+01
 51
1.60528734E+02
  0
ARC
  8
0
 62
4
 10
-3.74216003E+01
 20
5.55000000E+01
 40
3.00000000E+00
 50
8.99999818E+01
 51
1.60528734E+02
  0
CIRCLE
  8
0
 62
4
 10
-5.52500000E+01
 20
6.65000000E+01
 40
1.50000000E+00
  0
CIRCLE
  8
0
 62
4
 10
-5.52500000E+01
 20
6.65000000E+01
 40
3.00000000E+00
  0
ARC
  8
0
 62
4
 10
6.75000000E+00
 20
5.55000000E+01
 40
3.00000000E+00
 50
3.59721781E-05
 51
8.99999818E+01
  0
CIRCLE
  8
0
 62
4
 10
-4.52500000E+01
 20
2.65000000E+01
 40
5.50000000E+00
  0
CIRCLE
  8
0
 62
4
 10
-5.25000000E+00
 20
2.65000000E+01
 40
5.50000000E+00
  0
LINE
  8
0
 62
4
 10
6.75000000E+00
 20
7.45000000E+01
 11
-4.24110413E+01
 21
7.45000000E+01
  0
LINE
  8
0
  6
CENTER
 62
6
 10
-4.52500000E+01
 20
1.21500000E+02
 11
-4.52500000E+01
 21
9.15000000E+01
  0
LINE
  8
0
  6
CENTER
 62
6
 10
-3.02500000E+01
 20
1.06500000E+02
 11
-6.02500000E+01
 21
1.06500000E+02
  0
LINE
  8
0
  6
CENTER
 62
6
 10
-5.25000000E+00
 20
9.15000000E+01
 11
-5.25000000E+00
 21
1.21500000E+02
  0
LINE
  8
0
  6
CENTER
 62
6
 10
9.75000000E+00
 20
1.06500000E+02
 11
-2.02500000E+01
 21
1.06500000E+02
  0
LINE
  8
0
 62
4
 10
9.87746321E+00
 20
1.14130844E+02
 11
1.11247168E+01
 21
6.64999852E+01
  0
LINE
  8
0
 62
4
 10
-6.03774769E+01
 20
1.14130844E+02
 11
-6.07605976E+01
 21
9.95000000E+01
  0
LINE
  8
0
 62
4
 10
4.87921143E+00
 20
1.19000000E+02
 11
-5.53792114E+01
 21
1.19000000E+02
  0
LINE
  8
0
 62
4
 10
-6.62500000E+01
 20
5.65000000E+01
 11
-4.02500000E+01
 21
5.65000000E+01
  0
LINE
  8
0
 62
4
 10
-4.24110413E+01
 20
5.85000000E+01
 11
6.75000000E+00
 21
5.85000000E+01
  0
LINE
  8
0
  6
CENTER
 62
6
 10
-6.02500000E+01
 20
2.65000000E+01
 11
-3.02500000E+01
 21
2.65000000E+01
  0
LINE
  8
0
  6
CENTER
 62
6
 10
-2.02500000E+01
 20
2.65000000E+01
 11
9.75000000E+00
 21
2.65000000E+01
  0
LINE
  8
0
 62
4
 10
1.11247168E+01
 20
6.64999753E+01
 11
9.87746323E+00
 21
1.88691162E+01
  0
LINE
  8
0
 62
4
 10
-6.07606140E+01
 20
3.35000000E+01
 11
-6.03774921E+01
 21
1.88691164E+01
  0
LINE
  8
0
 62
4
 10
-6.22500000E+01
 20
9.28461617E+01
 11
-6.22500000E+01
 21
9.85000000E+01
  0
LINE
  8
0
 62
4
 10
-4.82500000E+01
 20
9.23077002E+01
 11
-4.82500000E+01
 21
9.85000000E+01
  0
LINE
  8
0
 62
4
 10
-4.92500000E+01
 20
3.35000000E+01
 11
-4.82500000E+01
 21
3.45000000E+01
  0
LINE
  8
0
 62
4
 10
-6.22500000E+01
 20
3.45000000E+01
 11
-6.12500000E+01
 21
3.35000000E+01
  0
LINE
  8
0
 62
4
 10
-6.22500000E+01
 20
3.45000000E+01
 11
-4.82500000E+01
 21
3.45000000E+01
  0
LINE
  8
0
 62
4
 10
-6.12500000E+01
 20
3.35000000E+01
 11
-4.92500000E+01
 21
3.35000000E+01
  0
LINE
  8
0
 62
4
 10
-6.22500000E+01
 20
9.85000000E+01
 11
-4.82500000E+01
 21
9.85000000E+01
  0
LINE
  8
0
 62
4
 10
-4.92500000E+01
 20
9.95000000E+01
 11
-4.82500000E+01
 21
9.85000000E+01
  0
LINE
  8
0
 62
4
 10
-6.12500000E+01
 20
9.95000000E+01
 11
-6.22500000E+01
 21
9.85000000E+01
  0
LINE
  8
0
 62
4
 10
-6.12500000E+01
 20
9.95000000E+01
 11
-4.92500000E+01
 21
9.95000000E+01
  0
LINE
  8
0
 62
4
 10
-4.82500000E+01
 20
3.45000000E+01
 11
-4.82500000E+01
 21
4.06923625E+01
  0
LINE
  8
0
 62
4
 10
-6.22500000E+01
 20
3.45000000E+01
 11
-6.22500000E+01
 21
4.01539010E+01
  0
LINE
  8
0
  6
CENTER
 62
6
 10
-8.17940674E+01
 20
6.65000000E+01
 11
-3.51138306E+01
 21
6.65000000E+01
  0
ARC
  8
0
 62
4
 10
-6.82500000E+01
 20
1.02000000E+02
 40
2.00000000E+00
 50
3.59999981E+02
 51
9.00000162E+01
  0
ARC
  8
0
 62
4
 10
-6.82500000E+01
 20
3.10000305E+01
 40
2.00000000E+00
 50
2.69999984E+02
 51
3.59999964E+02
  0
ARC
  8
0
 62
4
 10
-4.22500000E+01
 20
4.29245911E+01
 40
2.00000000E+00
 50
2.72202399E+02
 51
3.59999964E+02
  0
ARC
  8
0
 62
4
 10
-4.22500000E+01
 20
9.00754395E+01
 40
2.00000000E+00
 50
3.59999981E+02
 51
8.77975464E+01
  0
LINE
  8
0
 62
4
 10
-4.21731341E+01
 20
4.09260881E+01
 11
-6.62499985E+01
 21
4.00000549E+01
  0
LINE
  8
0
 62
4
 10
-4.21731726E+01
 20
9.20739761E+01
 11
-6.62500065E+01
 21
9.30000081E+01
  0
LINE
  8
0
 62
4
 10
-6.62500000E+01
 20
1.02000000E+02
 11
-6.62500000E+01
 21
3.10000305E+01
  0
LINE
  8
0
 62
4
 10
-4.02500000E+01
 20
7.65000000E+01
 11
-6.62500000E+01
 21
7.65000000E+01
  0
LINE
  8
0
 62
4
 10
-4.02500000E+01
 20
7.65000000E+01
 11
-4.02500000E+01
 21
9.00754395E+01
  0
LINE
  8
0
 62
4
 10
-6.82500000E+01
 20
2.90000305E+01
 11
-7.42500000E+01
 21
2.90000305E+01
  0
LINE
  8
0
 62
4
 10
-6.47499748E+01
 20
5.50000276E+01
 11
-6.62499852E+01
 21
5.48026578E+01
  0
LINE
  8
0
 62
4
 10
-6.47500000E+01
 20
7.65000000E+01
 11
-6.47500000E+01
 21
7.80000000E+01
  0
LINE
  8
0
 62
4
 10
-6.47500000E+01
 20
5.65000305E+01
 11
-6.47500000E+01
 21
5.50000305E+01
  0
LINE
  8
0
 62
4
 10
-4.02500000E+01
 20
5.65000305E+01
 11
-4.02500000E+01
 21
4.29245911E+01
  0
LINE
  8
0
 62
4
 10
-6.82500000E+01
 20
1.04000000E+02
 11
-7.42500000E+01
 21
1.04000000E+02
  0
LINE
  8
0
  6
CENTER
 62
6
 10
-5.52500000E+01
 20
2.90000305E+01
 11
-5.52500000E+01
 21
1.04000000E+02
  0
LINE
  8
0
 62
4
 10
-6.47500222E+01
 20
7.80000185E+01
 11
-6.62500325E+01
 21
7.81973883E+01
  0
LINE
  8
0
  6
CENTER
 62
6
 10
-6.30878296E+01
 20
9.45000610E+01
 11
-7.71227417E+01
 21
9.45000610E+01
  0
LINE
  8
0
  6
CENTER
 62
6
 10
-6.30878296E+01
 20
3.84999695E+01
 11
-7.67854462E+01
 21
3.84999695E+01
  0
LINE
  8
0
 62
4
 10
-7.42500000E+01
 20
1.04000000E+02
 11
-7.42500000E+01
 21
2.90000305E+01
  0
LINE
  8
0
 62
4
 10
-5.53792114E+01
 20
1.40000000E+01
 11
4.87921143E+00
 21
1.40000000E+01
  0
LINE
  8
0
 62
7
 10
1.09800003E+02
 20
-1.18500000E+02
 11
1.09800003E+02
 21
-1.33500000E+02
  0
LINE
  8
0
 62
7
 10
1.09800003E+02
 20
-1.18500000E+02
 11
1.94800003E+02
 21
-1.18500000E+02
  0
TEXT
  8
0
 62
7
 10
1.15249715E+02
 20
-1.29150000E+02
 40
6.30000019E+00
  1
KOGANEI CORP.
 41
1.04838725E+00
  7
MONOTXT
  0
TEXT
  8
0
 62
7
 10
1.34942863E+02
 20
1.22850006E+02
 40
4.50000000E+00
  1
Ver. 1.0
 41
1.08108085E+00
  7
MONOTXT
  0
LINE
  8
0
 62
7
 10
1.09800003E+02
 20
1.32600006E+02
 11
1.09800003E+02
 21
1.17600006E+02
  0
LINE
  8
0
 62
7
 10
1.09800003E+02
 20
1.17600006E+02
 11
1.94800003E+02
 21
1.17600006E+02
  0
TEXT
  8
0
 62
7
 10
-1.89357136E+02
 20
1.22850006E+02
 40
4.50000000E+00
  1
NEW DYNA CYLINDER
 41
1.07594914E+00
  7
MONOTXT
  0
LINE
  8
0
 62
7
 10
-1.94250000E+02
 20
1.17600006E+02
 11
-1.09250000E+02
 21
1.17600006E+02
  0
LINE
  8
0
 62
7
 10
-1.09250000E+02
 20
1.32600006E+02
 11
-1.09250000E+02
 21
1.17600006E+02
  0
TEXT
  8
0
 62
7
 10
-1.85214688E+02
 20
1.05350006E+02
 40
4.50000000E+00
  1
MODEL:DDA63-7C
 41
1.00000000E+00
  7
MONOTXT
  0
LINE
  8
0
 62
7
 10
-1.94250000E+02
 20
1.32600006E+02
 11
1.94800003E+02
 21
1.32600006E+02
  0
LINE
  8
0
 62
7
 10
1.94800003E+02
 20
1.32600006E+02
 11
1.94800003E+02
 21
-1.33500000E+02
  0
LINE
  8
0
 62
7
 10
-1.94250000E+02
 20
1.32600006E+02
 11
-1.94250000E+02
 21
-1.33500000E+02
  0
LINE
  8
0
 62
7
 10
-1.94250000E+02
 20
-1.33500000E+02
 11
1.94800003E+02
 21
-1.33500000E+02
  0
ENDSEC
  0
EOF
