  0
SECTION
  2
HEADER
  9
$ACADVER
  1
AC1003
  9
$EXTMIN
 10
-1.38399994E+02
 20
-9.48000031E+01
  9
$EXTMAX
 10
1.38350006E+02
 20
9.45000000E+01
  9
$LIMMIN
 10
-1.38400994E+02
 20
-9.48010031E+01
  9
$LIMMAX
 10
1.38351006E+02
 20
9.45010000E+01
  9
$SNAPUNIT
 10
1
 20
1
  9
$SNAPBASE
 10
0
 20
0
  9
$GRIDMODE
 70
0
  9
$GRIDUNIT
 10
0
 20
0
  9
$LTSCALE
 40
4.61250000E+00
  9
$TEXTSIZE
 40
3.2
  9
$DIMTAD
 70
0
  9
$LUNITS
 70
2
  9
$LUPREC
 70
4
  9
$FILLETRAD
 40
0
  9
$AUNITS
 70
0
  9
$AUPREC
 70
0
  0
ENDSEC
  0
SECTION
  2
TABLES
  0
TABLE
  2
LTYPE
 70
2
  0
LTYPE
  2
CONTINUOUS
 70
64
  3
Solid-Line
 72
65
 73
0
 40
0
  0
LTYPE
  2
DASHED
 70
64
  3
DASHED
 72
65
 73
2
 40
.75
 49
.5
 49
-.25
  0
LTYPE
  2
HIDDEN
 70
64
  3
HIDDEN
 72
65
 73
2
 40
.375
 49
.25
 49
-.125
  0
LTYPE
  2
CENTER
 70
64
  3
CENTER
 72
65
 73
4
 40
2
 49
1.25
 49
-.25
 49
.25
 49
-.25
  0
LTYPE
  2
PHANTOM
 70
64
  3
PHANTOM
 72
65
 73
6
 40
2.5
 49
1.25
 49
-.25
 49
.25
 49
-.25
 49
.25
 49
-.25
  0
ENDTAB
  0
TABLE
  2
LAYER
 70
1
  0
LAYER
  2
1
 70
0
 62
7
  6
CONTINUOUS
 0
ENDTAB
  0
TABLE
  2
STYLE
 70
2
  0
STYLE
  2
MONOTXT
 70
0
 40
0
 41
1
 50
0
 71
0
 42
.2
  3
monotxt
  0
STYLE
  2
BIGFONT
 70
0
 40
0
 41
1
 50
0
 71
0
 42
.2
  3
txt
  4
bigfont
  0
ENDTAB
  0
ENDSEC
  0
SECTION
  2
ENTITIES
  0
LINE
  8
0
 62
4
 10
5.75257575E+01
 20
-5.00607671E+01
 11
5.75257575E+01
 21
-2.00607595E+01
  0
LINE
  8
0
 62
4
 10
2.75257575E+01
 20
-1.90607595E+01
 11
5.65257575E+01
 21
-1.90607595E+01
  0
LINE
  8
0
 62
4
 10
2.75257575E+01
 20
-5.10607671E+01
 11
5.65257575E+01
 21
-5.10607671E+01
  0
LINE
  8
0
 62
4
 10
2.75257575E+01
 20
-2.40607595E+01
 11
2.75257575E+01
 21
-1.90607595E+01
  0
LINE
  8
0
 62
4
 10
5.75257565E+01
 20
-5.00607541E+01
 11
5.65257554E+01
 21
-5.10607552E+01
  0
LINE
  8
0
 62
4
 10
5.75257609E+01
 20
-2.00607584E+01
 11
5.65257598E+01
 21
-1.90607573E+01
  0
LINE
  8
0
  6
CENTER
 62
6
 10
-1.07606762E+01
 20
-3.50607595E+01
 11
6.07523849E+01
 21
-3.50607595E+01
  0
LINE
  8
0
 62
4
 10
2.75257575E+01
 20
-5.10607671E+01
 11
2.75257575E+01
 21
-4.60607595E+01
  0
LINE
  8
0
  6
CENTER
 62
6
 10
7.52575753E+00
 20
-4.88297489E+01
 11
7.52575753E+00
 21
-2.23933019E+01
  0
LINE
  8
0
 62
4
 10
-4.09318819E+00
 20
-2.40607595E+01
 11
2.75257575E+01
 21
-2.40607595E+01
  0
LINE
  8
0
 62
4
 10
-4.09318819E+00
 20
-4.60607595E+01
 11
2.75257575E+01
 21
-4.60607595E+01
  0
ARC
  8
0
 62
4
 10
7.52574610E+00
 20
-3.50607595E+01
 40
1.59999886E+01
 50
1.36567425E+02
 51
2.23432576E+02
  0
LINE
  8
0
  6
CENTER
 62
6
 10
-7.24742348E+01
 20
-5.52069502E+01
 11
-7.24742348E+01
 21
-1.49145688E+01
  0
LINE
  8
0
 62
4
 10
-6.08552848E+01
 20
-2.40607595E+01
 11
-8.40931849E+01
 21
-2.40607595E+01
  0
LINE
  8
0
 62
4
 10
-6.08552848E+01
 20
-4.60607595E+01
 11
-8.40931849E+01
 21
-4.60607595E+01
  0
LINE
  8
0
  6
CENTER
 62
6
 10
-5.23280441E+01
 20
-3.50607595E+01
 11
-9.26204255E+01
 21
-3.50607595E+01
  0
CIRCLE
  8
0
 62
4
 10
-7.24742348E+01
 20
-3.50607595E+01
 40
1.60000000E+01
  0
LINE
  8
0
  6
CENTER
 62
6
 10
7.52575753E+00
 20
6.03787983E+01
 11
7.52575753E+00
 21
1.92996858E+01
  0
LINE
  8
0
 62
4
 10
7.51579355E+00
 20
5.14581835E+01
 11
2.75257575E+01
 21
5.14581835E+01
  0
LINE
  8
0
 62
4
 10
7.52575743E+00
 20
2.82202853E+01
 11
2.75257574E+01
 21
2.82202853E+01
  0
LINE
  8
0
 62
4
 10
5.75257599E+01
 20
2.48392469E+01
 11
5.65257587E+01
 21
2.38392458E+01
  0
LINE
  8
0
 62
4
 10
5.75257618E+01
 20
5.48392415E+01
 11
5.65257607E+01
 21
5.58392426E+01
  0
LINE
  8
0
 62
4
 10
2.75257575E+01
 20
5.14581835E+01
 11
2.75257575E+01
 21
2.82202853E+01
  0
LINE
  8
0
 62
4
 10
7.52575753E+00
 20
2.38392420E+01
 11
5.65257575E+01
 21
2.38392420E+01
  0
LINE
  8
0
 62
4
 10
7.52575753E+00
 20
5.58392420E+01
 11
5.65257575E+01
 21
5.58392420E+01
  0
LINE
  8
0
 62
4
 10
5.75257575E+01
 20
2.48392469E+01
 11
5.75257575E+01
 21
5.48392420E+01
  0
LINE
  8
0
  6
CENTER
 62
6
 10
-1.61834901E+01
 20
3.98392420E+01
 11
6.47523849E+01
 21
3.98392420E+01
  0
ARC
  8
0
 62
4
 10
7.52575753E+00
 20
3.98392420E+01
 40
1.60000000E+01
 50
9.00000002E+01
 51
2.70000000E+02
  0
ARC
  8
0
 62
4
 10
7.52575753E+00
 20
3.98392420E+01
 40
1.16189457E+01
 50
8.99508650E+01
 51
2.70000000E+02
  0
CIRCLE
  8
0
 62
4
 10
7.52575753E+00
 20
3.98392420E+01
 40
8.00000000E+00
  0
TEXT
  8
0
 62
7
 10
-1.32642850E+02
 20
8.79000001E+01
 40
3.19999981E+00
  1
NEW DYNA CYLINDER
 41
1.07594937E+00
  7
MONOTXT
  0
TEXT
  8
0
 62
7
 10
-1.29085994E+02
 20
7.29000001E+01
 40
3.19999981E+00
  1
MODEL:DDA63-I
 41
1.00000000E+00
  7
MONOTXT
  0
LINE
  8
0
 62
7
 10
-1.38399994E+02
 20
9.45000000E+01
 11
1.38350006E+02
 21
9.45000000E+01
  0
LINE
  8
0
 62
7
 10
1.38350006E+02
 20
9.45000000E+01
 11
1.38350006E+02
 21
-9.48000031E+01
  0
LINE
  8
0
 62
7
 10
-1.38399994E+02
 20
-9.48000031E+01
 11
1.38350006E+02
 21
-9.48000031E+01
  0
LINE
  8
0
 62
7
 10
-1.38399994E+02
 20
9.45000000E+01
 11
-1.38399994E+02
 21
-9.48000031E+01
  0
LINE
  8
0
 62
7
 10
7.33500061E+01
 20
-8.48000031E+01
 11
1.38350006E+02
 21
-8.48000031E+01
  0
LINE
  8
0
 62
7
 10
-1.38399994E+02
 20
8.45000000E+01
 11
-7.33999939E+01
 21
8.45000000E+01
  0
LINE
  8
0
 62
7
 10
7.33500061E+01
 20
8.45000000E+01
 11
1.38350006E+02
 21
8.45000000E+01
  0
LINE
  8
0
 62
7
 10
7.33500061E+01
 20
-8.48000031E+01
 11
7.33500061E+01
 21
-9.48000031E+01
  0
LINE
  8
0
 62
7
 10
7.33500061E+01
 20
9.45000000E+01
 11
7.33500061E+01
 21
8.45000000E+01
  0
LINE
  8
0
 62
7
 10
-7.33999939E+01
 20
9.45000000E+01
 11
-7.33999939E+01
 21
8.45000000E+01
  0
TEXT
  8
0
 62
7
 10
7.72426624E+01
 20
-9.20500031E+01
 40
4.50000000E+00
  1
KOGANEI CORP.
 41
1.04838710E+00
  7
MONOTXT
  0
TEXT
  8
0
 62
7
 10
9.35071493E+01
 20
8.79000001E+01
 40
3.19999981E+00
  1
Ver. 1.0
 41
1.08108108E+00
  7
MONOTXT
  0
ENDSEC
  0
EOF
