  0
SECTION
  2
HEADER
  9
$ACADVER
  1
AC1003
  9
$EXTMIN
 10
-1.38399994E+02
 20
-9.48000031E+01
  9
$EXTMAX
 10
1.38350006E+02
 20
9.45000000E+01
  9
$LIMMIN
 10
-1.38400994E+02
 20
-9.48010031E+01
  9
$LIMMAX
 10
1.38351006E+02
 20
9.45010000E+01
  9
$SNAPUNIT
 10
1
 20
1
  9
$SNAPBASE
 10
0
 20
0
  9
$GRIDMODE
 70
0
  9
$GRIDUNIT
 10
0
 20
0
  9
$LTSCALE
 40
4.61250000E+00
  9
$TEXTSIZE
 40
3.2
  9
$DIMTAD
 70
0
  9
$LUNITS
 70
2
  9
$LUPREC
 70
4
  9
$FILLETRAD
 40
0
  9
$AUNITS
 70
0
  9
$AUPREC
 70
0
  0
ENDSEC
  0
SECTION
  2
TABLES
  0
TABLE
  2
LTYPE
 70
2
  0
LTYPE
  2
CONTINUOUS
 70
64
  3
Solid-Line
 72
65
 73
0
 40
0
  0
LTYPE
  2
DASHED
 70
64
  3
DASHED
 72
65
 73
2
 40
.75
 49
.5
 49
-.25
  0
LTYPE
  2
HIDDEN
 70
64
  3
HIDDEN
 72
65
 73
2
 40
.375
 49
.25
 49
-.125
  0
LTYPE
  2
CENTER
 70
64
  3
CENTER
 72
65
 73
4
 40
2
 49
1.25
 49
-.25
 49
.25
 49
-.25
  0
LTYPE
  2
PHANTOM
 70
64
  3
PHANTOM
 72
65
 73
6
 40
2.5
 49
1.25
 49
-.25
 49
.25
 49
-.25
 49
.25
 49
-.25
  0
ENDTAB
  0
TABLE
  2
LAYER
 70
1
  0
LAYER
  2
1
 70
0
 62
7
  6
CONTINUOUS
 0
ENDTAB
  0
TABLE
  2
STYLE
 70
2
  0
STYLE
  2
MONOTXT
 70
0
 40
0
 41
1
 50
0
 71
0
 42
.2
  3
monotxt
  0
STYLE
  2
BIGFONT
 70
0
 40
0
 41
1
 50
0
 71
0
 42
.2
  3
txt
  4
bigfont
  0
ENDTAB
  0
ENDSEC
  0
SECTION
  2
ENTITIES
  0
LINE
  8
0
 62
4
 10
2.42081363E+00
 20
-2.17744410E+01
 11
3.09208136E+01
 21
-2.17744410E+01
  0
LINE
  8
0
 62
4
 10
2.42081363E+00
 20
-1.07744410E+01
 11
4.19208136E+01
 21
-1.07744410E+01
  0
LINE
  8
0
 62
4
 10
2.42081363E+00
 20
-4.37744410E+01
 11
3.09208136E+01
 21
-4.37744410E+01
  0
LINE
  8
0
 62
4
 10
2.42081363E+00
 20
-5.47744410E+01
 11
4.19208136E+01
 21
-5.47744410E+01
  0
LINE
  8
0
  6
CENTER
 62
6
 10
-1.31882565E+00
 20
-3.27744410E+01
 11
6.81474410E+01
 21
-3.27744410E+01
  0
LINE
  8
0
  6
CENTER
 62
6
 10
-1.31882565E+00
 20
-3.27744410E+01
 11
6.81474410E+01
 21
-3.27744410E+01
  0
ARC
  8
0
 62
4
 10
3.09208136E+01
 20
-2.37744410E+01
 40
1.00000000E+00
 50
3.60000000E+02
 51
9.00000094E+01
  0
ARC
  8
0
 62
4
 10
3.09208136E+01
 20
-4.17744410E+01
 40
1.00000000E+00
 50
2.69999998E+02
 51
2.50447807E-06
  0
ARC
  8
0
 62
4
 10
4.29208136E+01
 20
-4.97744410E+01
 40
1.00000000E+00
 50
8.99999956E+01
 51
1.79999991E+02
  0
ARC
  8
0
 62
4
 10
4.29208136E+01
 20
-1.57744410E+01
 40
1.00000000E+00
 50
1.79999991E+02
 51
2.70000001E+02
  0
LINE
  8
0
 62
4
 10
1.34708014E+01
 20
-5.82244380E+01
 11
1.34708014E+01
 21
-5.53244441E+01
  0
LINE
  8
0
 62
4
 10
1.63708258E+01
 20
-5.82244380E+01
 11
1.63708258E+01
 21
-5.53244441E+01
  0
LINE
  8
0
 62
4
 10
1.49208136E+01
 20
-5.82244380E+01
 11
1.49208136E+01
 21
-5.53244441E+01
  0
LINE
  8
0
 62
4
 10
1.78208075E+01
 20
-5.82244380E+01
 11
1.78208075E+01
 21
-5.53244441E+01
  0
LINE
  8
0
 62
4
 10
1.20208197E+01
 20
-5.82244380E+01
 11
1.78208075E+01
 21
-5.82244380E+01
  0
LINE
  8
0
 62
4
 10
1.20208197E+01
 20
-5.82244380E+01
 11
1.20208197E+01
 21
-5.53244441E+01
  0
LINE
  8
0
 62
4
 10
1.20208197E+01
 20
-5.53244441E+01
 11
1.78208075E+01
 21
-5.53244441E+01
  0
LINE
  8
0
 62
4
 10
1.34708014E+01
 20
-1.02244380E+01
 11
1.34708014E+01
 21
-7.32444409E+00
  0
LINE
  8
0
 62
4
 10
1.63708258E+01
 20
-1.02244380E+01
 11
1.63708258E+01
 21
-7.32444409E+00
  0
LINE
  8
0
 62
4
 10
1.49208136E+01
 20
-1.02244380E+01
 11
1.49208136E+01
 21
-7.32444409E+00
  0
LINE
  8
0
 62
4
 10
1.78208075E+01
 20
-1.02244380E+01
 11
1.78208075E+01
 21
-7.32444409E+00
  0
LINE
  8
0
 62
4
 10
1.20208197E+01
 20
-1.02244380E+01
 11
1.78208075E+01
 21
-1.02244380E+01
  0
LINE
  8
0
 62
4
 10
1.20208197E+01
 20
-1.02244380E+01
 11
1.20208197E+01
 21
-7.32444409E+00
  0
LINE
  8
0
 62
4
 10
1.20208197E+01
 20
-7.32444409E+00
 11
1.78208075E+01
 21
-7.32444409E+00
  0
LINE
  8
0
 62
4
 10
2.29208136E+01
 20
-5.47744410E+01
 11
2.29208136E+01
 21
-5.97744410E+01
  0
LINE
  8
0
 62
4
 10
6.92081363E+00
 20
-5.45168600E+01
 11
6.92081363E+00
 21
-5.95168600E+01
  0
LINE
  8
0
 62
4
 10
6.92081363E+00
 20
-2.17744410E+01
 11
6.92081363E+00
 21
-4.37744410E+01
  0
LINE
  8
0
 62
4
 10
2.29208136E+01
 20
-2.17744410E+01
 11
2.29208136E+01
 21
-4.37744410E+01
  0
LINE
  8
0
 62
4
 10
2.29208135E+01
 20
-5.97744390E+01
 11
2.21783925E+01
 21
-6.05168600E+01
  0
LINE
  8
0
 62
4
 10
7.92081343E+00
 20
-6.05168573E+01
 11
6.92081237E+00
 21
-5.95168562E+01
  0
LINE
  8
0
 62
4
 10
2.29208123E+01
 20
-5.77444060E+00
 11
2.19208111E+01
 21
-4.77443954E+00
  0
LINE
  8
0
 62
4
 10
7.92081086E+00
 20
-4.77443996E+00
 11
6.92081249E+00
 21
-5.77443841E+00
  0
LINE
  8
0
 62
4
 10
7.92081363E+00
 20
-6.05168600E+01
 11
2.21783925E+01
 21
-6.05168600E+01
  0
LINE
  8
0
 62
4
 10
6.92081363E+00
 20
-5.95168600E+01
 11
2.29208136E+01
 21
-5.95168600E+01
  0
LINE
  8
0
 62
4
 10
7.92081363E+00
 20
-4.77444104E+00
 11
2.19208111E+01
 21
-4.77444104E+00
  0
LINE
  8
0
 62
4
 10
6.92081363E+00
 20
-5.77444104E+00
 11
2.29208136E+01
 21
-5.77444104E+00
  0
LINE
  8
0
 62
4
 10
2.29208136E+01
 20
-5.77444104E+00
 11
2.29208136E+01
 21
-1.07744410E+01
  0
LINE
  8
0
 62
4
 10
6.92081363E+00
 20
-5.77444104E+00
 11
6.92081363E+00
 21
-1.07744410E+01
  0
LINE
  8
0
 62
4
 10
3.09208136E+01
 20
-4.27744410E+01
 11
3.09208136E+01
 21
-4.37744410E+01
  0
LINE
  8
0
 62
4
 10
3.19208136E+01
 20
-2.37744410E+01
 11
3.19208136E+01
 21
-4.17744410E+01
  0
LINE
  8
0
 62
4
 10
6.39208123E+01
 20
-4.87744390E+01
 11
6.49208133E+01
 21
-4.77744379E+01
  0
LINE
  8
0
 62
4
 10
6.39208159E+01
 20
-1.67744436E+01
 11
6.49208116E+01
 21
-1.77744394E+01
  0
LINE
  8
0
 62
4
 10
4.29208136E+01
 20
-4.87744410E+01
 11
6.39208136E+01
 21
-4.87744410E+01
  0
LINE
  8
0
 62
4
 10
4.29208136E+01
 20
-1.67744410E+01
 11
6.39208136E+01
 21
-1.67744410E+01
  0
LINE
  8
0
 62
4
 10
4.19208136E+01
 20
-3.63118747E+01
 11
4.19208136E+01
 21
-5.47744410E+01
  0
LINE
  8
0
 62
4
 10
3.09208136E+01
 20
-2.17744410E+01
 11
3.09208136E+01
 21
-2.27744410E+01
  0
LINE
  8
0
  6
CENTER
 62
6
 10
1.49208136E+01
 20
-3.53521374E+00
 11
1.49208136E+01
 21
-6.30783351E+01
  0
LINE
  8
0
 62
4
 10
6.49208136E+01
 20
-1.77744410E+01
 11
6.49208136E+01
 21
-4.77744410E+01
  0
LINE
  8
0
 62
4
 10
4.19208136E+01
 20
-1.07744410E+01
 11
4.19208136E+01
 21
-2.88771174E+01
  0
LINE
  8
0
 62
4
 10
2.42081363E+00
 20
-4.37744410E+01
 11
2.42081363E+00
 21
-5.47744410E+01
  0
LINE
  8
0
 62
4
 10
2.42081363E+00
 20
-1.07744410E+01
 11
2.42081363E+00
 21
-2.17744410E+01
  0
LINE
  8
0
 62
4
 10
-7.45496913E+01
 20
-6.05168573E+01
 11
-7.55496924E+01
 21
-5.95168562E+01
  0
LINE
  8
0
 62
4
 10
-7.55496911E+01
 20
-5.45168600E+01
 11
-7.55496911E+01
 21
-5.95168600E+01
  0
LINE
  8
0
 62
4
 10
-5.95496912E+01
 20
-5.97744390E+01
 11
-6.02921123E+01
 21
-6.05168600E+01
  0
LINE
  8
0
 62
4
 10
-5.95496911E+01
 20
-5.47744410E+01
 11
-5.95496911E+01
 21
-5.97744410E+01
  0
LINE
  8
0
 62
4
 10
-7.45496911E+01
 20
-6.05168600E+01
 11
-6.02921123E+01
 21
-6.05168600E+01
  0
LINE
  8
0
 62
4
 10
-7.55496911E+01
 20
-5.95168600E+01
 11
-5.95496911E+01
 21
-5.95168600E+01
  0
LINE
  8
0
 62
4
 10
-5.95496911E+01
 20
-2.17744410E+01
 11
-5.95496911E+01
 21
-4.37744410E+01
  0
LINE
  8
0
 62
4
 10
-7.55496911E+01
 20
-2.17744410E+01
 11
-7.55496911E+01
 21
-4.37744410E+01
  0
LINE
  8
0
 62
4
 10
-7.45496939E+01
 20
-4.77443996E+00
 11
-7.55496923E+01
 21
-5.77443841E+00
  0
LINE
  8
0
 62
4
 10
-7.55496911E+01
 20
-5.77444104E+00
 11
-7.55496911E+01
 21
-1.07744410E+01
  0
LINE
  8
0
 62
4
 10
-5.95496925E+01
 20
-5.77444060E+00
 11
-6.05496937E+01
 21
-4.77443954E+00
  0
LINE
  8
0
 62
4
 10
-7.45496911E+01
 20
-4.77444104E+00
 11
-6.05496937E+01
 21
-4.77444104E+00
  0
LINE
  8
0
 62
4
 10
-7.55496911E+01
 20
-5.77444104E+00
 11
-5.95496911E+01
 21
-5.77444104E+00
  0
LINE
  8
0
 62
4
 10
-5.95496911E+01
 20
-5.77444104E+00
 11
-5.95496911E+01
 21
-1.07744410E+01
  0
LINE
  8
0
 62
4
 10
-7.98673333E+01
 20
-7.32442883E+00
 11
-7.98673333E+01
 21
-1.02244532E+01
  0
LINE
  8
0
 62
4
 10
-5.02673578E+01
 20
-7.32442883E+00
 11
-5.02673578E+01
 21
-1.02244532E+01
  0
LINE
  8
0
 62
4
 10
-5.95496911E+01
 20
-1.02244532E+01
 11
-5.02673578E+01
 21
-1.02244532E+01
  0
LINE
  8
0
 62
4
 10
-5.95496911E+01
 20
-7.32442883E+00
 11
-5.02673578E+01
 21
-7.32442883E+00
  0
LINE
  8
0
 62
4
 10
-7.98673333E+01
 20
-1.02244532E+01
 11
-7.55496911E+01
 21
-1.02244532E+01
  0
LINE
  8
0
 62
4
 10
-7.98673333E+01
 20
-7.32442883E+00
 11
-7.55496911E+01
 21
-7.32442883E+00
  0
LINE
  8
0
 62
4
 10
-7.98673333E+01
 20
-5.53244288E+01
 11
-7.98673333E+01
 21
-5.82244532E+01
  0
LINE
  8
0
 62
4
 10
-5.02673578E+01
 20
-5.53244288E+01
 11
-5.02673578E+01
 21
-5.82244532E+01
  0
LINE
  8
0
 62
4
 10
-5.95496911E+01
 20
-5.82244532E+01
 11
-5.02673578E+01
 21
-5.82244532E+01
  0
LINE
  8
0
 62
4
 10
-5.95496911E+01
 20
-5.53244288E+01
 11
-5.02673578E+01
 21
-5.53244288E+01
  0
LINE
  8
0
 62
4
 10
-7.98673333E+01
 20
-5.82244532E+01
 11
-7.55496911E+01
 21
-5.82244532E+01
  0
LINE
  8
0
 62
4
 10
-7.98673333E+01
 20
-5.53244288E+01
 11
-7.55496911E+01
 21
-5.53244288E+01
  0
LINE
  8
0
 62
4
 10
-5.95496911E+01
 20
-4.27744410E+01
 11
-5.50496911E+01
 21
-4.27744410E+01
  0
LINE
  8
0
 62
4
 10
-5.95496911E+01
 20
-2.27744410E+01
 11
-5.50496911E+01
 21
-2.27744410E+01
  0
LINE
  8
0
  6
CENTER
 62
6
 10
-6.75496911E+01
 20
-3.53521374E+00
 11
-6.75496911E+01
 21
-6.30783351E+01
  0
LINE
  8
0
 62
4
 10
-8.00496911E+01
 20
-4.27744410E+01
 11
-7.55496911E+01
 21
-4.27744410E+01
  0
LINE
  8
0
 62
4
 10
-8.00496911E+01
 20
-2.27744410E+01
 11
-7.55496911E+01
 21
-2.27744410E+01
  0
LINE
  8
0
 62
4
 10
-8.00496911E+01
 20
-4.37744410E+01
 11
-5.50496911E+01
 21
-4.37744410E+01
  0
LINE
  8
0
 62
4
 10
-8.00496911E+01
 20
-2.17744410E+01
 11
-5.50496911E+01
 21
-2.17744410E+01
  0
LINE
  8
0
 62
4
 10
-8.00496911E+01
 20
-1.07744410E+01
 11
-8.00496911E+01
 21
-5.47744410E+01
  0
LINE
  8
0
 62
4
 10
-5.50496911E+01
 20
-1.07744410E+01
 11
-5.50496911E+01
 21
-5.47744410E+01
  0
LINE
  8
0
 62
4
 10
-8.00496911E+01
 20
-5.47744410E+01
 11
-5.50496911E+01
 21
-5.47744410E+01
  0
LINE
  8
0
 62
4
 10
-8.00496911E+01
 20
-1.07744410E+01
 11
-5.50496911E+01
 21
-1.07744410E+01
  0
LINE
  8
0
  6
CENTER
 62
6
 10
-8.79623803E+01
 20
-3.27744410E+01
 11
-4.81555566E+01
 21
-3.27744410E+01
  0
CIRCLE
  8
0
 62
4
 10
1.49208136E+01
 20
5.32255590E+01
 40
8.00000000E+00
  0
LINE
  8
0
 62
4
 10
6.39208136E+01
 20
6.92255590E+01
 11
6.49208136E+01
 21
6.82255590E+01
  0
LINE
  8
0
 62
4
 10
6.39208136E+01
 20
3.72255590E+01
 11
6.49208136E+01
 21
3.82255590E+01
  0
LINE
  8
0
 62
4
 10
1.49208136E+01
 20
3.72255590E+01
 11
6.39208136E+01
 21
3.72255590E+01
  0
LINE
  8
0
 62
4
 10
1.49208136E+01
 20
6.92255590E+01
 11
6.39208136E+01
 21
6.92255590E+01
  0
ARC
  8
0
 62
4
 10
1.93716300E+01
 20
6.07692602E+01
 40
3.00000000E+00
 50
1.38958724E+02
 51
1.73345775E+02
  0
ARC
  8
0
 62
4
 10
1.49216178E+01
 20
6.46432226E+01
 40
2.89999962E+00
 50
3.18958725E+02
 51
2.21041232E+02
  0
ARC
  8
0
 62
4
 10
1.49216178E+01
 20
6.46432226E+01
 40
1.59999943E+00
 50
3.10705552E+02
 51
2.29294314E+02
  0
ARC
  8
0
 62
4
 10
1.79216178E+01
 20
6.11561010E+01
 40
3.00000000E+00
 50
1.30705779E+02
 51
1.79999964E+02
  0
ARC
  8
0
 62
4
 10
1.19216178E+01
 20
6.11561010E+01
 40
3.00000000E+00
 50
0.00000000E+00
 51
4.92941583E+01
  0
ARC
  8
0
 62
4
 10
1.04716056E+01
 20
6.07692602E+01
 40
3.00000000E+00
 50
6.65420595E+00
 51
4.10412714E+01
  0
LINE
  8
0
 62
4
 10
1.49208136E+01
 20
4.52255590E+01
 11
1.49208136E+01
 21
3.51989324E+01
  0
LINE
  8
0
 62
4
 10
1.56459070E+01
 20
3.71432053E+01
 11
1.63708980E+01
 21
3.83989262E+01
  0
LINE
  8
0
 62
4
 10
1.49208408E+01
 20
3.83989541E+01
 11
1.56458470E+01
 21
3.71432067E+01
  0
LINE
  8
0
 62
4
 10
1.41958194E+01
 20
3.39432257E+01
 11
1.49208256E+01
 21
3.51989731E+01
  0
LINE
  8
0
 62
4
 10
1.34708384E+01
 20
3.51989453E+01
 11
1.41958293E+01
 21
3.39432243E+01
  0
LINE
  8
0
 62
4
 10
1.34708014E+01
 20
4.54034001E+01
 11
1.34708014E+01
 21
3.51989324E+01
  0
LINE
  8
0
 62
4
 10
1.63708258E+01
 20
4.54034001E+01
 11
1.63708258E+01
 21
3.83989293E+01
  0
LINE
  8
0
 62
4
 10
4.19208136E+01
 20
6.57255590E+01
 11
4.19208136E+01
 21
4.07255590E+01
  0
LINE
  8
0
 62
4
 10
6.49208136E+01
 20
6.82255590E+01
 11
6.49208136E+01
 21
3.82255590E+01
  0
LINE
  8
0
  6
CENTER
 62
6
 10
1.49208136E+01
 20
7.41158273E+01
 11
1.49208136E+01
 21
3.23352907E+01
  0
LINE
  8
0
  6
CENTER
 62
6
 10
-5.96945466E+00
 20
5.32255590E+01
 11
6.81474410E+01
 21
5.32255590E+01
  0
ARC
  8
0
 62
4
 10
1.49208136E+01
 20
5.32255590E+01
 40
1.60000000E+01
 50
9.00000002E+01
 51
2.64800392E+02
  0
CIRCLE
  8
0
 62
4
 10
1.49208136E+01
 20
5.32255590E+01
 40
6.99999748E+00
  0
LINE
  8
0
 62
7
 10
7.33500061E+01
 20
-8.48000031E+01
 11
7.33500061E+01
 21
-9.48000031E+01
  0
LINE
  8
0
 62
7
 10
7.33500061E+01
 20
-8.48000031E+01
 11
1.38350006E+02
 21
-8.48000031E+01
  0
TEXT
  8
0
 62
7
 10
-1.29085994E+02
 20
7.29000001E+01
 40
3.19999981E+00
  1
MODEL:DDA63-Y
 41
1.00000000E+00
  7
MONOTXT
  0
TEXT
  8
0
 62
7
 10
-1.32642850E+02
 20
8.79000001E+01
 40
3.19999981E+00
  1
NEW DYNA CYLINDER
 41
1.07594937E+00
  7
MONOTXT
  0
LINE
  8
0
 62
7
 10
-1.38399994E+02
 20
9.45000000E+01
 11
1.38350006E+02
 21
9.45000000E+01
  0
LINE
  8
0
 62
7
 10
1.38350006E+02
 20
9.45000000E+01
 11
1.38350006E+02
 21
-9.48000031E+01
  0
LINE
  8
0
 62
7
 10
-1.38399994E+02
 20
-9.48000031E+01
 11
1.38350006E+02
 21
-9.48000031E+01
  0
LINE
  8
0
 62
7
 10
-1.38399994E+02
 20
9.45000000E+01
 11
-1.38399994E+02
 21
-9.48000031E+01
  0
LINE
  8
0
 62
7
 10
-1.38399994E+02
 20
8.45000000E+01
 11
-7.33999939E+01
 21
8.45000000E+01
  0
LINE
  8
0
 62
7
 10
7.33500061E+01
 20
8.45000000E+01
 11
1.38350006E+02
 21
8.45000000E+01
  0
LINE
  8
0
 62
7
 10
7.33500061E+01
 20
9.45000000E+01
 11
7.33500061E+01
 21
8.45000000E+01
  0
LINE
  8
0
 62
7
 10
-7.33999939E+01
 20
9.45000000E+01
 11
-7.33999939E+01
 21
8.45000000E+01
  0
TEXT
  8
0
 62
7
 10
7.72426624E+01
 20
-9.20500031E+01
 40
4.50000000E+00
  1
KOGANEI CORP.
 41
1.04838710E+00
  7
MONOTXT
  0
TEXT
  8
0
 62
7
 10
9.35071493E+01
 20
8.79000001E+01
 40
3.19999981E+00
  1
Ver. 1.0
 41
1.08108108E+00
  7
MONOTXT
  0
ENDSEC
  0
EOF
