  0
SECTION
  2
HEADER
  9
$ACADVER
  1
AC1003
  9
$EXTMIN
 10
-5.69500000E+02
 20
-4.01250000E+02
  9
$EXTMAX
 10
5.69500000E+02
 20
3.99750000E+02
  9
$LIMMIN
 10
-5.69501000E+02
 20
-4.01251000E+02
  9
$LIMMAX
 10
5.69501000E+02
 20
3.99751000E+02
  9
$SNAPUNIT
 10
1
 20
1
  9
$SNAPBASE
 10
0
 20
0
  9
$GRIDMODE
 70
0
  9
$GRIDUNIT
 10
0
 20
0
  9
$LTSCALE
 40
1.89833333E+01
  9
$TEXTSIZE
 40
3.2
  9
$DIMTAD
 70
0
  9
$LUNITS
 70
2
  9
$LUPREC
 70
4
  9
$FILLETRAD
 40
0
  9
$AUNITS
 70
0
  9
$AUPREC
 70
0
  0
ENDSEC
  0
SECTION
  2
TABLES
  0
TABLE
  2
LTYPE
 70
2
  0
LTYPE
  2
CONTINUOUS
 70
64
  3
Solid-Line
 72
65
 73
0
 40
0
  0
LTYPE
  2
DASHED
 70
64
  3
DASHED
 72
65
 73
2
 40
.75
 49
.5
 49
-.25
  0
LTYPE
  2
HIDDEN
 70
64
  3
HIDDEN
 72
65
 73
2
 40
.375
 49
.25
 49
-.125
  0
LTYPE
  2
CENTER
 70
64
  3
CENTER
 72
65
 73
4
 40
2
 49
1.25
 49
-.25
 49
.25
 49
-.25
  0
LTYPE
  2
PHANTOM
 70
64
  3
PHANTOM
 72
65
 73
6
 40
2.5
 49
1.25
 49
-.25
 49
.25
 49
-.25
 49
.25
 49
-.25
  0
ENDTAB
  0
TABLE
  2
LAYER
 70
1
  0
LAYER
  2
1
 70
0
 62
7
  6
CONTINUOUS
 0
ENDTAB
  0
TABLE
  2
STYLE
 70
2
  0
STYLE
  2
MONOTXT
 70
0
 40
0
 41
1
 50
0
 71
0
 42
.2
  3
monotxt
  0
STYLE
  2
BIGFONT
 70
0
 40
0
 41
1
 50
0
 71
0
 42
.2
  3
txt
  4
bigfont
  0
ENDTAB
  0
ENDSEC
  0
SECTION
  2
ENTITIES
  0
LINE
  8
0
  6
PHANTOM
 10
-2.95000000E+01
 20
2.73813474E+01
 11
-2.95000000E+01
 21
1.85991639E+02
  0
LINE
  8
0
 62
7
 10
-1.53999962E+02
 20
9.07500076E+01
 11
-1.44999947E+02
 21
9.07500076E+01
  0
LINE
  8
0
 62
2
 10
-1.53999962E+02
 20
9.15699997E+01
 11
-1.44999947E+02
 21
9.15699997E+01
  0
LINE
  8
0
 62
7
 10
-1.53999962E+02
 20
1.08750000E+02
 11
-1.44999947E+02
 21
1.08750000E+02
  0
LINE
  8
0
 62
2
 10
-1.53999962E+02
 20
1.07929993E+02
 11
-1.44999947E+02
 21
1.07929993E+02
  0
LINE
  8
0
 62
4
 10
-1.63794190E+02
 20
9.19557714E+01
 11
-1.55205733E+02
 21
9.19557714E+01
  0
LINE
  8
0
 62
4
 10
-1.63794190E+02
 20
1.07544229E+02
 11
-1.55205733E+02
 21
1.07544229E+02
  0
ARC
  8
0
 62
4
 10
-1.79794190E+02
 20
9.97500000E+01
 40
2.57942282E+01
 50
3.42412046E+02
 51
1.75879541E+01
  0
ARC
  8
0
 62
4
 10
-1.39205734E+02
 20
9.97500000E+01
 40
2.57942282E+01
 50
1.62412046E+02
 51
1.97587954E+02
  0
LINE
  8
0
 62
4
 10
-1.64999962E+02
 20
8.62500000E+01
 11
-1.63794190E+02
 21
8.41615427E+01
  0
LINE
  8
0
 62
4
 10
-1.53999962E+02
 20
8.62500000E+01
 11
-1.55205733E+02
 21
8.41615427E+01
  0
LINE
  8
0
 62
4
 10
-1.63794190E+02
 20
8.41615427E+01
 11
-1.55205733E+02
 21
8.41615427E+01
  0
ARC
  8
0
 62
4
 10
-1.58099241E+02
 20
8.80586570E+01
 40
6.90072132E+00
 50
1.45615752E+02
 51
2.14384248E+02
  0
ARC
  8
0
 62
4
 10
-1.60900683E+02
 20
8.80586570E+01
 40
6.90072132E+00
 50
3.25615752E+02
 51
3.43842480E+01
  0
LINE
  8
0
 62
4
 10
-1.55205733E+02
 20
1.15338457E+02
 11
-1.53999962E+02
 21
1.13250000E+02
  0
LINE
  8
0
 62
4
 10
-1.63794190E+02
 20
1.15338457E+02
 11
-1.64999962E+02
 21
1.13250000E+02
  0
LINE
  8
0
 62
4
 10
-1.63794190E+02
 20
1.15338457E+02
 11
-1.55205733E+02
 21
1.15338457E+02
  0
ARC
  8
0
 62
4
 10
-1.58099241E+02
 20
1.11441343E+02
 40
6.90072132E+00
 50
1.45615752E+02
 51
2.14384248E+02
  0
ARC
  8
0
 62
4
 10
-1.60900683E+02
 20
1.11441343E+02
 40
6.90072132E+00
 50
3.25615752E+02
 51
3.43842480E+01
  0
LINE
  8
0
 62
4
 10
-1.64999962E+02
 20
8.62500000E+01
 11
-1.64999962E+02
 21
1.13250000E+02
  0
LINE
  8
0
 62
4
 10
-1.53999962E+02
 20
8.62500000E+01
 11
-1.53999962E+02
 21
1.13250000E+02
  0
LINE
  8
0
 62
4
 10
1.49999771E+01
 20
1.36886138E+02
 11
1.65000076E+01
 21
1.36326018E+02
  0
LINE
  8
0
 62
4
 10
1.65000076E+01
 20
1.34171875E+02
 11
1.49999771E+01
 21
1.33081889E+02
  0
LINE
  8
0
 62
4
 10
1.50000076E+01
 20
1.38122205E+02
 11
1.65000076E+01
 21
1.37025942E+02
  0
LINE
  8
0
 62
4
 10
1.65000076E+01
 20
1.37025942E+02
 11
1.65000076E+01
 21
1.34171875E+02
  0
LINE
  8
0
 62
4
 10
-4.40000076E+01
 20
1.37102058E+02
 11
-4.40000076E+01
 21
1.48426918E+02
  0
LINE
  8
0
 62
6
 10
-2.32679110E+01
 20
1.38602059E+02
 11
-2.67320126E+01
 21
1.32602059E+02
  0
LINE
  8
0
 62
6
 10
-3.57320737E+01
 20
1.32602058E+02
 11
-3.22679721E+01
 21
1.38602058E+02
  0
LINE
  8
0
 62
4
 10
-1.49999618E+01
 20
1.37102058E+02
 11
-2.41339365E+01
 21
1.37102058E+02
  0
LINE
  8
0
  6
CENTER
 62
6
 10
2.00000381E+01
 20
1.35602058E+02
 11
-2.69999619E+01
 21
1.35602058E+02
  0
LINE
  8
0
 62
4
 10
-1.49999619E+01
 20
1.34102058E+02
 11
-2.58659873E+01
 21
1.34102058E+02
  0
LINE
  8
0
 62
4
 10
-4.40000076E+01
 20
1.34102058E+02
 11
-3.48660483E+01
 21
1.34102058E+02
  0
LINE
  8
0
  6
CENTER
 62
6
 10
-7.90000229E+01
 20
1.35602058E+02
 11
-3.20000229E+01
 21
1.35602058E+02
  0
LINE
  8
0
 62
4
 10
-5.05000229E+01
 20
1.37102058E+02
 11
-3.31339975E+01
 21
1.37102058E+02
  0
LINE
  8
0
 62
4
 10
-4.40000076E+01
 20
1.33749969E+02
 11
-4.40000076E+01
 21
1.34161070E+02
  0
LINE
  8
0
 62
7
 10
-1.50000229E+01
 20
1.24149963E+02
 11
-8.50000076E+01
 21
1.24149963E+02
  0
LINE
  8
0
 62
7
 10
-1.50000229E+01
 20
1.31349976E+02
 11
-8.50000076E+01
 21
1.31349976E+02
  0
LINE
  8
0
 62
7
 10
-1.50000229E+01
 20
1.33749969E+02
 11
-8.50000076E+01
 21
1.33749969E+02
  0
LINE
  8
0
 62
4
 10
-5.05000076E+01
 20
1.38122205E+02
 11
-5.05000076E+01
 21
1.34161070E+02
  0
LINE
  8
0
 62
4
 10
-7.40000076E+01
 20
1.48426918E+02
 11
-7.40000076E+01
 21
1.38122205E+02
  0
LINE
  8
0
  6
CENTER
 62
6
 10
-5.43500076E+01
 20
1.40818466E+02
 11
-6.36500076E+01
 21
1.40818466E+02
  0
LINE
  8
0
  6
CENTER
 62
6
 10
-5.90000076E+01
 20
1.45468466E+02
 11
-5.90000076E+01
 21
1.36168466E+02
  0
LINE
  8
0
 62
4
 10
1.49999771E+01
 20
1.48426918E+02
 11
1.49999771E+01
 21
1.29903532E+02
  0
LINE
  8
0
  6
CENTER
 62
6
 10
-1.50000229E+01
 20
1.21766172E+02
 11
-8.00002289E+00
 21
1.21766172E+02
  0
LINE
  8
0
  6
CENTER
 62
6
 10
-7.00002289E+00
 20
1.21766172E+02
 11
-2.28881836E-05
 21
1.21766172E+02
  0
LINE
  8
0
  6
CENTER
 62
6
 10
-3.50002289E+00
 20
1.18266172E+02
 11
-3.50002289E+00
 21
1.25266172E+02
  0
LINE
  8
0
  6
CENTER
 62
6
 10
-1.15000229E+01
 20
1.18266172E+02
 11
-1.15000229E+01
 21
1.25266172E+02
  0
LINE
  8
0
 62
4
 10
-1.50000229E+01
 20
1.16925471E+02
 11
-1.50000229E+01
 21
1.48426918E+02
  0
LINE
  8
0
 62
4
 10
-2.28881835E-05
 20
1.45244043E+02
 11
-2.28881835E-05
 21
1.16925471E+02
  0
LINE
  8
0
  6
CENTER
 62
6
 10
1.10745740E+01
 20
1.40964289E+02
 11
3.92538022E+00
 21
1.40964289E+02
  0
LINE
  8
0
  6
CENTER
 62
6
 10
7.49997711E+00
 20
1.44538886E+02
 11
7.49997711E+00
 21
1.37389692E+02
  0
LINE
  8
0
 62
4
 10
-7.40000076E+01
 20
1.48426918E+02
 11
-4.40000076E+01
 21
1.48426918E+02
  0
LINE
  8
0
 62
4
 10
-1.50000229E+01
 20
1.48426918E+02
 11
1.49999771E+01
 21
1.48426918E+02
  0
LINE
  8
0
 62
4
 10
-1.50000229E+01
 20
1.16925471E+02
 11
-2.28881835E-05
 21
1.16925471E+02
  0
LINE
  8
0
 62
4
 10
-1.50000229E+01
 20
1.45244043E+02
 11
1.49999771E+01
 21
1.45244043E+02
  0
LINE
  8
0
 62
4
 10
-1.50000229E+01
 20
1.43853467E+02
 11
-2.28881835E-05
 21
1.43853467E+02
  0
LINE
  8
0
 62
4
 10
-1.40000229E+01
 20
1.27472511E+02
 11
-1.00002290E+00
 21
1.27472511E+02
  0
LINE
  8
0
 62
4
 10
-2.28881835E-05
 20
1.37160063E+02
 11
1.49999771E+01
 21
1.37160063E+02
  0
LINE
  8
0
 62
4
 10
-2.28881835E-05
 20
1.37036456E+02
 11
1.49999771E+01
 21
1.37036456E+02
  0
LINE
  8
0
 62
4
 10
-2.28971444E-05
 20
1.29903532E+02
 11
1.49999771E+01
 21
1.29903532E+02
  0
POLYLINE
  8
0
 62
4
 66
1
  0
VERTEX
  8
0
 62
4
 10
5.24997711E+00
 20
1.40964289E+02
  0
VERTEX
  8
0
 62
4
 10
5.25853904E+00
 20
1.40777786E+02
  0
VERTEX
  8
0
 62
4
 10
5.28415966E+00
 20
1.40592703E+02
  0
VERTEX
  8
0
 62
4
 10
5.32664400E+00
 20
1.40410448E+02
  0
VERTEX
  8
0
 62
4
 10
5.38566871E+00
 20
1.40232408E+02
  0
VERTEX
  8
0
 62
4
 10
5.46078459E+00
 20
1.40059938E+02
  0
VERTEX
  8
0
 62
4
 10
5.55141995E+00
 20
1.39894350E+02
  0
VERTEX
  8
0
 62
4
 10
5.65688501E+00
 20
1.39736906E+02
  0
VERTEX
  8
0
 62
4
 10
5.77637711E+00
 20
1.39588802E+02
  0
VERTEX
  8
0
 62
4
 10
5.90898685E+00
 20
1.39451167E+02
  0
VERTEX
  8
0
 62
4
 10
6.05370498E+00
 20
1.39325048E+02
  0
VERTEX
  8
0
 62
4
 10
6.20943012E+00
 20
1.39211404E+02
  0
VERTEX
  8
0
 62
4
 10
6.37497710E+00
 20
1.39111101E+02
  0
VERTEX
  8
0
 62
4
 10
6.54908602E+00
 20
1.39024902E+02
  0
VERTEX
  8
0
 62
4
 10
6.73043178E+00
 20
1.38953462E+02
  0
VERTEX
  8
0
 62
4
 10
6.91763425E+00
 20
1.38897326E+02
  0
VERTEX
  8
0
 62
4
 10
7.10926870E+00
 20
1.38856921E+02
  0
VERTEX
  8
0
 62
4
 10
7.30387668E+00
 20
1.38832555E+02
  0
VERTEX
  8
0
 62
4
 10
7.49997710E+00
 20
1.38824412E+02
  0
VERTEX
  8
0
 62
4
 10
7.69607753E+00
 20
1.38832555E+02
  0
VERTEX
  8
0
 62
4
 10
7.89068550E+00
 20
1.38856921E+02
  0
VERTEX
  8
0
 62
4
 10
8.08231996E+00
 20
1.38897326E+02
  0
VERTEX
  8
0
 62
4
 10
8.26952243E+00
 20
1.38953462E+02
  0
VERTEX
  8
0
 62
4
 10
8.45086819E+00
 20
1.39024902E+02
  0
VERTEX
  8
0
 62
4
 10
8.62497711E+00
 20
1.39111101E+02
  0
VERTEX
  8
0
 62
4
 10
8.79052409E+00
 20
1.39211404E+02
  0
VERTEX
  8
0
 62
4
 10
8.94624923E+00
 20
1.39325048E+02
  0
VERTEX
  8
0
 62
4
 10
9.09096736E+00
 20
1.39451167E+02
  0
VERTEX
  8
0
 62
4
 10
9.22357710E+00
 20
1.39588802E+02
  0
VERTEX
  8
0
 62
4
 10
9.34306921E+00
 20
1.39736906E+02
  0
VERTEX
  8
0
 62
4
 10
9.44853427E+00
 20
1.39894350E+02
  0
VERTEX
  8
0
 62
4
 10
9.53916963E+00
 20
1.40059938E+02
  0
VERTEX
  8
0
 62
4
 10
9.61428551E+00
 20
1.40232408E+02
  0
VERTEX
  8
0
 62
4
 10
9.67331022E+00
 20
1.40410448E+02
  0
VERTEX
  8
0
 62
4
 10
9.71579455E+00
 20
1.40592703E+02
  0
VERTEX
  8
0
 62
4
 10
9.74141518E+00
 20
1.40777786E+02
  0
VERTEX
  8
0
 62
4
 10
9.74997711E+00
 20
1.40964289E+02
  0
VERTEX
  8
0
 62
4
 10
9.74141518E+00
 20
1.41150792E+02
  0
VERTEX
  8
0
 62
4
 10
9.71579456E+00
 20
1.41335875E+02
  0
VERTEX
  8
0
 62
4
 10
9.67331022E+00
 20
1.41518130E+02
  0
VERTEX
  8
0
 62
4
 10
9.61428551E+00
 20
1.41696170E+02
  0
VERTEX
  8
0
 62
4
 10
9.53916963E+00
 20
1.41868640E+02
  0
VERTEX
  8
0
 62
4
 10
9.44853427E+00
 20
1.42034228E+02
  0
VERTEX
  8
0
 62
4
 10
9.34306921E+00
 20
1.42191672E+02
  0
VERTEX
  8
0
 62
4
 10
9.22357711E+00
 20
1.42339776E+02
  0
VERTEX
  8
0
 62
4
 10
9.09096737E+00
 20
1.42477411E+02
  0
VERTEX
  8
0
 62
4
 10
8.94624923E+00
 20
1.42603530E+02
  0
VERTEX
  8
0
 62
4
 10
8.79052409E+00
 20
1.42717174E+02
  0
VERTEX
  8
0
 62
4
 10
8.62497711E+00
 20
1.42817477E+02
  0
VERTEX
  8
0
 62
4
 10
8.45086820E+00
 20
1.42903676E+02
  0
VERTEX
  8
0
 62
4
 10
8.26952244E+00
 20
1.42975116E+02
  0
VERTEX
  8
0
 62
4
 10
8.08231996E+00
 20
1.43031252E+02
  0
VERTEX
  8
0
 62
4
 10
7.89068551E+00
 20
1.43071657E+02
  0
VERTEX
  8
0
 62
4
 10
7.69607753E+00
 20
1.43096023E+02
  0
VERTEX
  8
0
 62
4
 10
7.49997711E+00
 20
1.43104166E+02
  0
VERTEX
  8
0
 62
4
 10
7.30387669E+00
 20
1.43096023E+02
  0
VERTEX
  8
0
 62
4
 10
7.10926871E+00
 20
1.43071657E+02
  0
VERTEX
  8
0
 62
4
 10
6.91763426E+00
 20
1.43031252E+02
  0
VERTEX
  8
0
 62
4
 10
6.73043179E+00
 20
1.42975116E+02
  0
VERTEX
  8
0
 62
4
 10
6.54908602E+00
 20
1.42903676E+02
  0
VERTEX
  8
0
 62
4
 10
6.37497711E+00
 20
1.42817477E+02
  0
VERTEX
  8
0
 62
4
 10
6.20943013E+00
 20
1.42717174E+02
  0
VERTEX
  8
0
 62
4
 10
6.05370499E+00
 20
1.42603530E+02
  0
VERTEX
  8
0
 62
4
 10
5.90898685E+00
 20
1.42477411E+02
  0
VERTEX
  8
0
 62
4
 10
5.77637711E+00
 20
1.42339776E+02
  0
VERTEX
  8
0
 62
4
 10
5.65688501E+00
 20
1.42191672E+02
  0
VERTEX
  8
0
 62
4
 10
5.55141995E+00
 20
1.42034228E+02
  0
VERTEX
  8
0
 62
4
 10
5.46078459E+00
 20
1.41868640E+02
  0
VERTEX
  8
0
 62
4
 10
5.38566871E+00
 20
1.41696170E+02
  0
VERTEX
  8
0
 62
4
 10
5.32664400E+00
 20
1.41518130E+02
  0
VERTEX
  8
0
 62
4
 10
5.28415967E+00
 20
1.41335875E+02
  0
VERTEX
  8
0
 62
4
 10
5.25853904E+00
 20
1.41150792E+02
  0
VERTEX
  8
0
 62
4
 10
5.24997711E+00
 20
1.40964289E+02
  0
SEQEND
  8
0
  0
POLYLINE
  8
0
 62
4
 66
1
  0
VERTEX
  8
0
 62
4
 10
-1.50002289E+00
 20
1.21766172E+02
  0
VERTEX
  8
0
 62
4
 10
-1.50807430E+00
 20
1.21936676E+02
  0
VERTEX
  8
0
 62
4
 10
-1.53216371E+00
 20
1.22105807E+02
  0
VERTEX
  8
0
 62
4
 10
-1.57209717E+00
 20
1.22272204E+02
  0
VERTEX
  8
0
 62
4
 10
-1.62755315E+00
 20
1.22434527E+02
  0
VERTEX
  8
0
 62
4
 10
-1.69808515E+00
 20
1.22591468E+02
  0
VERTEX
  8
0
 62
4
 10
-1.78312530E+00
 20
1.22741764E+02
  0
VERTEX
  8
0
 62
4
 10
-1.88198890E+00
 20
1.22884206E+02
  0
VERTEX
  8
0
 62
4
 10
-1.99387996E+00
 20
1.23017646E+02
  0
VERTEX
  8
0
 62
4
 10
-2.11789759E+00
 20
1.23141010E+02
  0
VERTEX
  8
0
 62
4
 10
-2.25304328E+00
 20
1.23253304E+02
  0
VERTEX
  8
0
 62
4
 10
-2.39822893E+00
 20
1.23353625E+02
  0
VERTEX
  8
0
 62
4
 10
-2.55228556E+00
 20
1.23441164E+02
  0
VERTEX
  8
0
 62
4
 10
-2.71397282E+00
 20
1.23515218E+02
  0
VERTEX
  8
0
 62
4
 10
-2.88198890E+00
 20
1.23575189E+02
  0
VERTEX
  8
0
 62
4
 10
-3.05498102E+00
 20
1.23620595E+02
  0
VERTEX
  8
0
 62
4
 10
-3.23155636E+00
 20
1.23651070E+02
  0
VERTEX
  8
0
 62
4
 10
-3.41029323E+00
 20
1.23666370E+02
  0
VERTEX
  8
0
 62
4
 10
-3.58975255E+00
 20
1.23666370E+02
  0
VERTEX
  8
0
 62
4
 10
-3.76848942E+00
 20
1.23651070E+02
  0
VERTEX
  8
0
 62
4
 10
-3.94506475E+00
 20
1.23620595E+02
  0
VERTEX
  8
0
 62
4
 10
-4.11805687E+00
 20
1.23575189E+02
  0
VERTEX
  8
0
 62
4
 10
-4.28607295E+00
 20
1.23515218E+02
  0
VERTEX
  8
0
 62
4
 10
-4.44776021E+00
 20
1.23441164E+02
  0
VERTEX
  8
0
 62
4
 10
-4.60181685E+00
 20
1.23353625E+02
  0
VERTEX
  8
0
 62
4
 10
-4.74700249E+00
 20
1.23253304E+02
  0
VERTEX
  8
0
 62
4
 10
-4.88214818E+00
 20
1.23141010E+02
  0
VERTEX
  8
0
 62
4
 10
-5.00616582E+00
 20
1.23017646E+02
  0
VERTEX
  8
0
 62
4
 10
-5.11805688E+00
 20
1.22884206E+02
  0
VERTEX
  8
0
 62
4
 10
-5.21692047E+00
 20
1.22741764E+02
  0
VERTEX
  8
0
 62
4
 10
-5.30196062E+00
 20
1.22591468E+02
  0
VERTEX
  8
0
 62
4
 10
-5.37249263E+00
 20
1.22434527E+02
  0
VERTEX
  8
0
 62
4
 10
-5.42794861E+00
 20
1.22272204E+02
  0
VERTEX
  8
0
 62
4
 10
-5.46788207E+00
 20
1.22105807E+02
  0
VERTEX
  8
0
 62
4
 10
-5.49197148E+00
 20
1.21936676E+02
  0
VERTEX
  8
0
 62
4
 10
-5.50002289E+00
 20
1.21766172E+02
  0
SEQEND
  8
0
  0
POLYLINE
  8
0
 62
4
 66
1
  0
VERTEX
  8
0
 62
4
 10
-1.50002289E+00
 20
1.20890831E+02
  0
VERTEX
  8
0
 62
4
 10
-1.50763349E+00
 20
1.21056611E+02
  0
VERTEX
  8
0
 62
4
 10
-1.53040738E+00
 20
1.21221129E+02
  0
VERTEX
  8
0
 62
4
 10
-1.56817124E+00
 20
1.21383134E+02
  0
VERTEX
  8
0
 62
4
 10
-1.62063765E+00
 20
1.21541392E+02
  0
VERTEX
  8
0
 62
4
 10
-1.68740732E+00
 20
1.21694699E+02
  0
VERTEX
  8
0
 62
4
 10
-1.76797208E+00
 20
1.21841888E+02
  0
VERTEX
  8
0
 62
4
 10
-1.86171880E+00
 20
1.21981838E+02
  0
VERTEX
  8
0
 62
4
 10
-1.96793400E+00
 20
1.22113486E+02
  0
VERTEX
  8
0
 62
4
 10
-2.08580933E+00
 20
1.22235828E+02
  0
VERTEX
  8
0
 62
4
 10
-2.21444767E+00
 20
1.22347934E+02
  0
VERTEX
  8
0
 62
4
 10
-2.35287002E+00
 20
1.22448951E+02
  0
VERTEX
  8
0
 62
4
 10
-2.50002289E+00
 20
1.22538109E+02
  0
VERTEX
  8
0
 62
4
 10
-2.65478637E+00
 20
1.22614731E+02
  0
VERTEX
  8
0
 62
4
 10
-2.81598260E+00
 20
1.22678233E+02
  0
VERTEX
  8
0
 62
4
 10
-2.98238480E+00
 20
1.22728131E+02
  0
VERTEX
  8
0
 62
4
 10
-3.15272654E+00
 20
1.22764047E+02
  0
VERTEX
  8
0
 62
4
 10
-3.32571141E+00
 20
1.22785706E+02
  0
VERTEX
  8
0
 62
4
 10
-3.50002289E+00
 20
1.22792944E+02
  0
VERTEX
  8
0
 62
4
 10
-3.67433438E+00
 20
1.22785706E+02
  0
VERTEX
  8
0
 62
4
 10
-3.84731925E+00
 20
1.22764047E+02
  0
VERTEX
  8
0
 62
4
 10
-4.01766098E+00
 20
1.22728131E+02
  0
VERTEX
  8
0
 62
4
 10
-4.18406318E+00
 20
1.22678233E+02
  0
VERTEX
  8
0
 62
4
 10
-4.34525942E+00
 20
1.22614731E+02
  0
VERTEX
  8
0
 62
4
 10
-4.50002289E+00
 20
1.22538109E+02
  0
VERTEX
  8
0
 62
4
 10
-4.64717576E+00
 20
1.22448951E+02
  0
VERTEX
  8
0
 62
4
 10
-4.78559811E+00
 20
1.22347934E+02
  0
VERTEX
  8
0
 62
4
 10
-4.91423645E+00
 20
1.22235828E+02
  0
VERTEX
  8
0
 62
4
 10
-5.03211178E+00
 20
1.22113486E+02
  0
VERTEX
  8
0
 62
4
 10
-5.13832698E+00
 20
1.21981838E+02
  0
VERTEX
  8
0
 62
4
 10
-5.23207370E+00
 20
1.21841888E+02
  0
VERTEX
  8
0
 62
4
 10
-5.31263847E+00
 20
1.21694699E+02
  0
VERTEX
  8
0
 62
4
 10
-5.37940813E+00
 20
1.21541392E+02
  0
VERTEX
  8
0
 62
4
 10
-5.43187454E+00
 20
1.21383134E+02
  0
VERTEX
  8
0
 62
4
 10
-5.46963840E+00
 20
1.21221129E+02
  0
VERTEX
  8
0
 62
4
 10
-5.49241229E+00
 20
1.21056611E+02
  0
VERTEX
  8
0
 62
4
 10
-5.50002289E+00
 20
1.20890831E+02
  0
VERTEX
  8
0
 62
4
 10
-5.49241229E+00
 20
1.20725051E+02
  0
VERTEX
  8
0
 62
4
 10
-5.46963840E+00
 20
1.20560533E+02
  0
VERTEX
  8
0
 62
4
 10
-5.43187454E+00
 20
1.20398528E+02
  0
VERTEX
  8
0
 62
4
 10
-5.37940813E+00
 20
1.20240270E+02
  0
VERTEX
  8
0
 62
4
 10
-5.31263846E+00
 20
1.20086963E+02
  0
VERTEX
  8
0
 62
4
 10
-5.23207370E+00
 20
1.19939774E+02
  0
VERTEX
  8
0
 62
4
 10
-5.13832698E+00
 20
1.19799824E+02
  0
VERTEX
  8
0
 62
4
 10
-5.03211177E+00
 20
1.19668176E+02
  0
VERTEX
  8
0
 62
4
 10
-4.91423645E+00
 20
1.19545834E+02
  0
VERTEX
  8
0
 62
4
 10
-4.78559811E+00
 20
1.19433728E+02
  0
VERTEX
  8
0
 62
4
 10
-4.64717576E+00
 20
1.19332711E+02
  0
VERTEX
  8
0
 62
4
 10
-4.50002289E+00
 20
1.19243553E+02
  0
VERTEX
  8
0
 62
4
 10
-4.34525941E+00
 20
1.19166931E+02
  0
VERTEX
  8
0
 62
4
 10
-4.18406317E+00
 20
1.19103429E+02
  0
VERTEX
  8
0
 62
4
 10
-4.01766098E+00
 20
1.19053531E+02
  0
VERTEX
  8
0
 62
4
 10
-3.84731924E+00
 20
1.19017615E+02
  0
VERTEX
  8
0
 62
4
 10
-3.67433437E+00
 20
1.18995956E+02
  0
VERTEX
  8
0
 62
4
 10
-3.50002289E+00
 20
1.18988718E+02
  0
VERTEX
  8
0
 62
4
 10
-3.32571140E+00
 20
1.18995956E+02
  0
VERTEX
  8
0
 62
4
 10
-3.15272653E+00
 20
1.19017615E+02
  0
VERTEX
  8
0
 62
4
 10
-2.98238480E+00
 20
1.19053531E+02
  0
VERTEX
  8
0
 62
4
 10
-2.81598260E+00
 20
1.19103429E+02
  0
VERTEX
  8
0
 62
4
 10
-2.65478636E+00
 20
1.19166931E+02
  0
VERTEX
  8
0
 62
4
 10
-2.50002289E+00
 20
1.19243553E+02
  0
VERTEX
  8
0
 62
4
 10
-2.35287001E+00
 20
1.19332711E+02
  0
VERTEX
  8
0
 62
4
 10
-2.21444767E+00
 20
1.19433728E+02
  0
VERTEX
  8
0
 62
4
 10
-2.08580932E+00
 20
1.19545834E+02
  0
VERTEX
  8
0
 62
4
 10
-1.96793400E+00
 20
1.19668176E+02
  0
VERTEX
  8
0
 62
4
 10
-1.86171880E+00
 20
1.19799824E+02
  0
VERTEX
  8
0
 62
4
 10
-1.76797208E+00
 20
1.19939774E+02
  0
VERTEX
  8
0
 62
4
 10
-1.68740731E+00
 20
1.20086963E+02
  0
VERTEX
  8
0
 62
4
 10
-1.62063765E+00
 20
1.20240270E+02
  0
VERTEX
  8
0
 62
4
 10
-1.56817124E+00
 20
1.20398528E+02
  0
VERTEX
  8
0
 62
4
 10
-1.53040738E+00
 20
1.20560533E+02
  0
VERTEX
  8
0
 62
4
 10
-1.50763349E+00
 20
1.20725051E+02
  0
VERTEX
  8
0
 62
4
 10
-1.50002289E+00
 20
1.20890831E+02
  0
SEQEND
  8
0
  0
LINE
  8
0
 62
4
 10
-5.50002289E+00
 20
1.20890831E+02
 11
-5.50002289E+00
 21
1.21766172E+02
  0
LINE
  8
0
 62
4
 10
-1.50002289E+00
 20
1.20890831E+02
 11
-1.50002289E+00
 21
1.21766172E+02
  0
POLYLINE
  8
0
 62
6
 66
1
  0
VERTEX
  8
0
 62
6
 10
-5.00002289E+00
 20
1.20890831E+02
  0
VERTEX
  8
0
 62
6
 10
-4.99431494E+00
 20
1.20766496E+02
  0
VERTEX
  8
0
 62
6
 10
-4.97723452E+00
 20
1.20643107E+02
  0
VERTEX
  8
0
 62
6
 10
-4.94891163E+00
 20
1.20521604E+02
  0
VERTEX
  8
0
 62
6
 10
-4.90956182E+00
 20
1.20402910E+02
  0
VERTEX
  8
0
 62
6
 10
-4.85948457E+00
 20
1.20287930E+02
  0
VERTEX
  8
0
 62
6
 10
-4.79906100E+00
 20
1.20177539E+02
  0
VERTEX
  8
0
 62
6
 10
-4.72875096E+00
 20
1.20072576E+02
  0
VERTEX
  8
0
 62
6
 10
-4.64908956E+00
 20
1.19973840E+02
  0
VERTEX
  8
0
 62
6
 10
-4.56068307E+00
 20
1.19882083E+02
  0
VERTEX
  8
0
 62
6
 10
-4.46420431E+00
 20
1.19798004E+02
  0
VERTEX
  8
0
 62
6
 10
-4.36038755E+00
 20
1.19722241E+02
  0
VERTEX
  8
0
 62
6
 10
-4.25002289E+00
 20
1.19655372E+02
  0
VERTEX
  8
0
 62
6
 10
-4.13395029E+00
 20
1.19597906E+02
  0
VERTEX
  8
0
 62
6
 10
-4.01305311E+00
 20
1.19550280E+02
  0
VERTEX
  8
0
 62
6
 10
-3.88825146E+00
 20
1.19512856E+02
  0
VERTEX
  8
0
 62
6
 10
-3.76049516E+00
 20
1.19485919E+02
  0
VERTEX
  8
0
 62
6
 10
-3.63075651E+00
 20
1.19469675E+02
  0
VERTEX
  8
0
 62
6
 10
-3.50002289E+00
 20
1.19464246E+02
  0
VERTEX
  8
0
 62
6
 10
-3.36928928E+00
 20
1.19469675E+02
  0
VERTEX
  8
0
 62
6
 10
-3.23955063E+00
 20
1.19485919E+02
  0
VERTEX
  8
0
 62
6
 10
-3.11179433E+00
 20
1.19512856E+02
  0
VERTEX
  8
0
 62
6
 10
-2.98699268E+00
 20
1.19550280E+02
  0
VERTEX
  8
0
 62
6
 10
-2.86609550E+00
 20
1.19597906E+02
  0
VERTEX
  8
0
 62
6
 10
-2.75002289E+00
 20
1.19655372E+02
  0
VERTEX
  8
0
 62
6
 10
-2.63965824E+00
 20
1.19722241E+02
  0
VERTEX
  8
0
 62
6
 10
-2.53584148E+00
 20
1.19798004E+02
  0
VERTEX
  8
0
 62
6
 10
-2.43936272E+00
 20
1.19882083E+02
  0
VERTEX
  8
0
 62
6
 10
-2.35095623E+00
 20
1.19973840E+02
  0
VERTEX
  8
0
 62
6
 10
-2.27129483E+00
 20
1.20072576E+02
  0
VERTEX
  8
0
 62
6
 10
-2.20098479E+00
 20
1.20177539E+02
  0
VERTEX
  8
0
 62
6
 10
-2.14056121E+00
 20
1.20287930E+02
  0
VERTEX
  8
0
 62
6
 10
-2.09048396E+00
 20
1.20402910E+02
  0
VERTEX
  8
0
 62
6
 10
-2.05113415E+00
 20
1.20521604E+02
  0
VERTEX
  8
0
 62
6
 10
-2.02281126E+00
 20
1.20643107E+02
  0
VERTEX
  8
0
 62
6
 10
-2.00573084E+00
 20
1.20766496E+02
  0
VERTEX
  8
0
 62
6
 10
-2.00002289E+00
 20
1.20890831E+02
  0
VERTEX
  8
0
 62
6
 10
-2.00573084E+00
 20
1.21015166E+02
  0
VERTEX
  8
0
 62
6
 10
-2.02281126E+00
 20
1.21138555E+02
  0
VERTEX
  8
0
 62
6
 10
-2.05113415E+00
 20
1.21260058E+02
  0
VERTEX
  8
0
 62
6
 10
-2.09048396E+00
 20
1.21378752E+02
  0
VERTEX
  8
0
 62
6
 10
-2.14056121E+00
 20
1.21493732E+02
  0
VERTEX
  8
0
 62
6
 10
-2.20098478E+00
 20
1.21604123E+02
  0
VERTEX
  8
0
 62
6
 10
-2.27129482E+00
 20
1.21709086E+02
  0
VERTEX
  8
0
 62
6
 10
-2.35095622E+00
 20
1.21807822E+02
  0
VERTEX
  8
0
 62
6
 10
-2.43936272E+00
 20
1.21899579E+02
  0
VERTEX
  8
0
 62
6
 10
-2.53584147E+00
 20
1.21983658E+02
  0
VERTEX
  8
0
 62
6
 10
-2.63965823E+00
 20
1.22059421E+02
  0
VERTEX
  8
0
 62
6
 10
-2.75002289E+00
 20
1.22126290E+02
  0
VERTEX
  8
0
 62
6
 10
-2.86609550E+00
 20
1.22183756E+02
  0
VERTEX
  8
0
 62
6
 10
-2.98699267E+00
 20
1.22231382E+02
  0
VERTEX
  8
0
 62
6
 10
-3.11179432E+00
 20
1.22268806E+02
  0
VERTEX
  8
0
 62
6
 10
-3.23955062E+00
 20
1.22295743E+02
  0
VERTEX
  8
0
 62
6
 10
-3.36928927E+00
 20
1.22311987E+02
  0
VERTEX
  8
0
 62
6
 10
-3.50002289E+00
 20
1.22317416E+02
  0
VERTEX
  8
0
 62
6
 10
-3.63075650E+00
 20
1.22311987E+02
  0
VERTEX
  8
0
 62
6
 10
-3.76049515E+00
 20
1.22295743E+02
  0
VERTEX
  8
0
 62
6
 10
-3.88825146E+00
 20
1.22268806E+02
  0
VERTEX
  8
0
 62
6
 10
-4.01305310E+00
 20
1.22231382E+02
  0
VERTEX
  8
0
 62
6
 10
-4.13395028E+00
 20
1.22183756E+02
  0
VERTEX
  8
0
 62
6
 10
-4.25002289E+00
 20
1.22126290E+02
  0
VERTEX
  8
0
 62
6
 10
-4.36038754E+00
 20
1.22059421E+02
  0
VERTEX
  8
0
 62
6
 10
-4.46420430E+00
 20
1.21983658E+02
  0
VERTEX
  8
0
 62
6
 10
-4.56068306E+00
 20
1.21899579E+02
  0
VERTEX
  8
0
 62
6
 10
-4.64908955E+00
 20
1.21807822E+02
  0
VERTEX
  8
0
 62
6
 10
-4.72875096E+00
 20
1.21709086E+02
  0
VERTEX
  8
0
 62
6
 10
-4.79906100E+00
 20
1.21604123E+02
  0
VERTEX
  8
0
 62
6
 10
-4.85948457E+00
 20
1.21493732E+02
  0
VERTEX
  8
0
 62
6
 10
-4.90956182E+00
 20
1.21378752E+02
  0
VERTEX
  8
0
 62
6
 10
-4.94891163E+00
 20
1.21260058E+02
  0
VERTEX
  8
0
 62
6
 10
-4.97723452E+00
 20
1.21138555E+02
  0
VERTEX
  8
0
 62
6
 10
-4.99431494E+00
 20
1.21015166E+02
  0
VERTEX
  8
0
 62
6
 10
-5.00002289E+00
 20
1.20890831E+02
  0
SEQEND
  8
0
  0
LINE
  8
0
 62
4
 10
-4.50002289E+00
 20
1.20339219E+02
 11
-4.50002289E+00
 21
1.21442444E+02
  0
LINE
  8
0
 62
4
 10
-2.50002289E+00
 20
1.20339219E+02
 11
-2.50002289E+00
 21
1.21442444E+02
  0
LINE
  8
0
 62
4
 10
-3.50002289E+00
 20
1.21984546E+02
 11
-4.50002289E+00
 21
1.21442444E+02
  0
LINE
  8
0
 62
4
 10
-3.50002289E+00
 20
1.21984546E+02
 11
-2.50002289E+00
 21
1.21442444E+02
  0
LINE
  8
0
 62
4
 10
-2.50002289E+00
 20
1.20339219E+02
 11
-3.50002289E+00
 21
1.19787606E+02
  0
LINE
  8
0
 62
4
 10
-3.50002289E+00
 20
1.19787606E+02
 11
-4.50002289E+00
 21
1.20339219E+02
  0
LINE
  8
0
 62
4
 10
-1.15000229E+01
 20
1.19787606E+02
 11
-1.25000229E+01
 21
1.20339219E+02
  0
LINE
  8
0
 62
4
 10
-1.05000229E+01
 20
1.20339219E+02
 11
-1.15000229E+01
 21
1.19787606E+02
  0
LINE
  8
0
 62
4
 10
-1.15000229E+01
 20
1.21984546E+02
 11
-1.05000229E+01
 21
1.21442444E+02
  0
LINE
  8
0
 62
4
 10
-1.15000229E+01
 20
1.21984546E+02
 11
-1.25000229E+01
 21
1.21442444E+02
  0
LINE
  8
0
 62
4
 10
-1.05000229E+01
 20
1.20339219E+02
 11
-1.05000229E+01
 21
1.21442444E+02
  0
LINE
  8
0
 62
4
 10
-1.25000229E+01
 20
1.20339219E+02
 11
-1.25000229E+01
 21
1.21442444E+02
  0
POLYLINE
  8
0
 62
6
 66
1
  0
VERTEX
  8
0
 62
6
 10
-1.30000229E+01
 20
1.20890831E+02
  0
VERTEX
  8
0
 62
6
 10
-1.29943149E+01
 20
1.20766496E+02
  0
VERTEX
  8
0
 62
6
 10
-1.29772345E+01
 20
1.20643107E+02
  0
VERTEX
  8
0
 62
6
 10
-1.29489116E+01
 20
1.20521604E+02
  0
VERTEX
  8
0
 62
6
 10
-1.29095618E+01
 20
1.20402910E+02
  0
VERTEX
  8
0
 62
6
 10
-1.28594846E+01
 20
1.20287930E+02
  0
VERTEX
  8
0
 62
6
 10
-1.27990610E+01
 20
1.20177539E+02
  0
VERTEX
  8
0
 62
6
 10
-1.27287510E+01
 20
1.20072576E+02
  0
VERTEX
  8
0
 62
6
 10
-1.26490896E+01
 20
1.19973840E+02
  0
VERTEX
  8
0
 62
6
 10
-1.25606831E+01
 20
1.19882083E+02
  0
VERTEX
  8
0
 62
6
 10
-1.24642043E+01
 20
1.19798004E+02
  0
VERTEX
  8
0
 62
6
 10
-1.23603876E+01
 20
1.19722241E+02
  0
VERTEX
  8
0
 62
6
 10
-1.22500229E+01
 20
1.19655372E+02
  0
VERTEX
  8
0
 62
6
 10
-1.21339503E+01
 20
1.19597906E+02
  0
VERTEX
  8
0
 62
6
 10
-1.20130531E+01
 20
1.19550280E+02
  0
VERTEX
  8
0
 62
6
 10
-1.18882515E+01
 20
1.19512856E+02
  0
VERTEX
  8
0
 62
6
 10
-1.17604952E+01
 20
1.19485919E+02
  0
VERTEX
  8
0
 62
6
 10
-1.16307565E+01
 20
1.19469675E+02
  0
VERTEX
  8
0
 62
6
 10
-1.15000229E+01
 20
1.19464246E+02
  0
VERTEX
  8
0
 62
6
 10
-1.13692893E+01
 20
1.19469675E+02
  0
VERTEX
  8
0
 62
6
 10
-1.12395506E+01
 20
1.19485919E+02
  0
VERTEX
  8
0
 62
6
 10
-1.11117943E+01
 20
1.19512856E+02
  0
VERTEX
  8
0
 62
6
 10
-1.09869927E+01
 20
1.19550280E+02
  0
VERTEX
  8
0
 62
6
 10
-1.08660955E+01
 20
1.19597906E+02
  0
VERTEX
  8
0
 62
6
 10
-1.07500229E+01
 20
1.19655372E+02
  0
VERTEX
  8
0
 62
6
 10
-1.06396582E+01
 20
1.19722241E+02
  0
VERTEX
  8
0
 62
6
 10
-1.05358415E+01
 20
1.19798004E+02
  0
VERTEX
  8
0
 62
6
 10
-1.04393627E+01
 20
1.19882083E+02
  0
VERTEX
  8
0
 62
6
 10
-1.03509562E+01
 20
1.19973840E+02
  0
VERTEX
  8
0
 62
6
 10
-1.02712948E+01
 20
1.20072576E+02
  0
VERTEX
  8
0
 62
6
 10
-1.02009848E+01
 20
1.20177539E+02
  0
VERTEX
  8
0
 62
6
 10
-1.01405612E+01
 20
1.20287930E+02
  0
VERTEX
  8
0
 62
6
 10
-1.00904840E+01
 20
1.20402910E+02
  0
VERTEX
  8
0
 62
6
 10
-1.00511342E+01
 20
1.20521604E+02
  0
VERTEX
  8
0
 62
6
 10
-1.00228113E+01
 20
1.20643107E+02
  0
VERTEX
  8
0
 62
6
 10
-1.00057309E+01
 20
1.20766496E+02
  0
VERTEX
  8
0
 62
6
 10
-1.00000229E+01
 20
1.20890831E+02
  0
VERTEX
  8
0
 62
6
 10
-1.00057309E+01
 20
1.21015166E+02
  0
VERTEX
  8
0
 62
6
 10
-1.00228113E+01
 20
1.21138555E+02
  0
VERTEX
  8
0
 62
6
 10
-1.00511342E+01
 20
1.21260058E+02
  0
VERTEX
  8
0
 62
6
 10
-1.00904840E+01
 20
1.21378752E+02
  0
VERTEX
  8
0
 62
6
 10
-1.01405612E+01
 20
1.21493732E+02
  0
VERTEX
  8
0
 62
6
 10
-1.02009848E+01
 20
1.21604123E+02
  0
VERTEX
  8
0
 62
6
 10
-1.02712948E+01
 20
1.21709086E+02
  0
VERTEX
  8
0
 62
6
 10
-1.03509562E+01
 20
1.21807822E+02
  0
VERTEX
  8
0
 62
6
 10
-1.04393627E+01
 20
1.21899579E+02
  0
VERTEX
  8
0
 62
6
 10
-1.05358415E+01
 20
1.21983658E+02
  0
VERTEX
  8
0
 62
6
 10
-1.06396582E+01
 20
1.22059421E+02
  0
VERTEX
  8
0
 62
6
 10
-1.07500229E+01
 20
1.22126290E+02
  0
VERTEX
  8
0
 62
6
 10
-1.08660955E+01
 20
1.22183756E+02
  0
VERTEX
  8
0
 62
6
 10
-1.09869927E+01
 20
1.22231382E+02
  0
VERTEX
  8
0
 62
6
 10
-1.11117943E+01
 20
1.22268806E+02
  0
VERTEX
  8
0
 62
6
 10
-1.12395506E+01
 20
1.22295743E+02
  0
VERTEX
  8
0
 62
6
 10
-1.13692893E+01
 20
1.22311987E+02
  0
VERTEX
  8
0
 62
6
 10
-1.15000229E+01
 20
1.22317416E+02
  0
VERTEX
  8
0
 62
6
 10
-1.16307565E+01
 20
1.22311987E+02
  0
VERTEX
  8
0
 62
6
 10
-1.17604952E+01
 20
1.22295743E+02
  0
VERTEX
  8
0
 62
6
 10
-1.18882515E+01
 20
1.22268806E+02
  0
VERTEX
  8
0
 62
6
 10
-1.20130531E+01
 20
1.22231382E+02
  0
VERTEX
  8
0
 62
6
 10
-1.21339503E+01
 20
1.22183756E+02
  0
VERTEX
  8
0
 62
6
 10
-1.22500229E+01
 20
1.22126290E+02
  0
VERTEX
  8
0
 62
6
 10
-1.23603876E+01
 20
1.22059421E+02
  0
VERTEX
  8
0
 62
6
 10
-1.24642043E+01
 20
1.21983658E+02
  0
VERTEX
  8
0
 62
6
 10
-1.25606831E+01
 20
1.21899579E+02
  0
VERTEX
  8
0
 62
6
 10
-1.26490896E+01
 20
1.21807822E+02
  0
VERTEX
  8
0
 62
6
 10
-1.27287510E+01
 20
1.21709086E+02
  0
VERTEX
  8
0
 62
6
 10
-1.27990610E+01
 20
1.21604123E+02
  0
VERTEX
  8
0
 62
6
 10
-1.28594846E+01
 20
1.21493732E+02
  0
VERTEX
  8
0
 62
6
 10
-1.29095618E+01
 20
1.21378752E+02
  0
VERTEX
  8
0
 62
6
 10
-1.29489116E+01
 20
1.21260058E+02
  0
VERTEX
  8
0
 62
6
 10
-1.29772345E+01
 20
1.21138555E+02
  0
VERTEX
  8
0
 62
6
 10
-1.29943149E+01
 20
1.21015166E+02
  0
VERTEX
  8
0
 62
6
 10
-1.30000229E+01
 20
1.20890831E+02
  0
SEQEND
  8
0
  0
LINE
  8
0
 62
4
 10
-9.50002289E+00
 20
1.20890831E+02
 11
-9.50002289E+00
 21
1.21766172E+02
  0
LINE
  8
0
 62
4
 10
-1.35000229E+01
 20
1.20890831E+02
 11
-1.35000229E+01
 21
1.21766172E+02
  0
POLYLINE
  8
0
 62
4
 66
1
  0
VERTEX
  8
0
 62
4
 10
-9.50002290E+00
 20
1.20890831E+02
  0
VERTEX
  8
0
 62
4
 10
-9.50763350E+00
 20
1.21056611E+02
  0
VERTEX
  8
0
 62
4
 10
-9.53040739E+00
 20
1.21221129E+02
  0
VERTEX
  8
0
 62
4
 10
-9.56817125E+00
 20
1.21383134E+02
  0
VERTEX
  8
0
 62
4
 10
-9.62063766E+00
 20
1.21541392E+02
  0
VERTEX
  8
0
 62
4
 10
-9.68740733E+00
 20
1.21694699E+02
  0
VERTEX
  8
0
 62
4
 10
-9.76797209E+00
 20
1.21841888E+02
  0
VERTEX
  8
0
 62
4
 10
-9.86171881E+00
 20
1.21981838E+02
  0
VERTEX
  8
0
 62
4
 10
-9.96793401E+00
 20
1.22113486E+02
  0
VERTEX
  8
0
 62
4
 10
-1.00858093E+01
 20
1.22235828E+02
  0
VERTEX
  8
0
 62
4
 10
-1.02144477E+01
 20
1.22347934E+02
  0
VERTEX
  8
0
 62
4
 10
-1.03528700E+01
 20
1.22448951E+02
  0
VERTEX
  8
0
 62
4
 10
-1.05000229E+01
 20
1.22538109E+02
  0
VERTEX
  8
0
 62
4
 10
-1.06547864E+01
 20
1.22614731E+02
  0
VERTEX
  8
0
 62
4
 10
-1.08159826E+01
 20
1.22678233E+02
  0
VERTEX
  8
0
 62
4
 10
-1.09823848E+01
 20
1.22728131E+02
  0
VERTEX
  8
0
 62
4
 10
-1.11527265E+01
 20
1.22764047E+02
  0
VERTEX
  8
0
 62
4
 10
-1.13257114E+01
 20
1.22785706E+02
  0
VERTEX
  8
0
 62
4
 10
-1.15000229E+01
 20
1.22792944E+02
  0
VERTEX
  8
0
 62
4
 10
-1.16743344E+01
 20
1.22785706E+02
  0
VERTEX
  8
0
 62
4
 10
-1.18473193E+01
 20
1.22764047E+02
  0
VERTEX
  8
0
 62
4
 10
-1.20176610E+01
 20
1.22728131E+02
  0
VERTEX
  8
0
 62
4
 10
-1.21840632E+01
 20
1.22678233E+02
  0
VERTEX
  8
0
 62
4
 10
-1.23452594E+01
 20
1.22614731E+02
  0
VERTEX
  8
0
 62
4
 10
-1.25000229E+01
 20
1.22538109E+02
  0
VERTEX
  8
0
 62
4
 10
-1.26471758E+01
 20
1.22448951E+02
  0
VERTEX
  8
0
 62
4
 10
-1.27855981E+01
 20
1.22347934E+02
  0
VERTEX
  8
0
 62
4
 10
-1.29142365E+01
 20
1.22235828E+02
  0
VERTEX
  8
0
 62
4
 10
-1.30321118E+01
 20
1.22113486E+02
  0
VERTEX
  8
0
 62
4
 10
-1.31383270E+01
 20
1.21981838E+02
  0
VERTEX
  8
0
 62
4
 10
-1.32320737E+01
 20
1.21841888E+02
  0
VERTEX
  8
0
 62
4
 10
-1.33126385E+01
 20
1.21694699E+02
  0
VERTEX
  8
0
 62
4
 10
-1.33794081E+01
 20
1.21541392E+02
  0
VERTEX
  8
0
 62
4
 10
-1.34318746E+01
 20
1.21383134E+02
  0
VERTEX
  8
0
 62
4
 10
-1.34696384E+01
 20
1.21221129E+02
  0
VERTEX
  8
0
 62
4
 10
-1.34924123E+01
 20
1.21056611E+02
  0
VERTEX
  8
0
 62
4
 10
-1.35000229E+01
 20
1.20890831E+02
  0
VERTEX
  8
0
 62
4
 10
-1.34924123E+01
 20
1.20725051E+02
  0
VERTEX
  8
0
 62
4
 10
-1.34696384E+01
 20
1.20560533E+02
  0
VERTEX
  8
0
 62
4
 10
-1.34318746E+01
 20
1.20398528E+02
  0
VERTEX
  8
0
 62
4
 10
-1.33794081E+01
 20
1.20240270E+02
  0
VERTEX
  8
0
 62
4
 10
-1.33126385E+01
 20
1.20086963E+02
  0
VERTEX
  8
0
 62
4
 10
-1.32320737E+01
 20
1.19939774E+02
  0
VERTEX
  8
0
 62
4
 10
-1.31383270E+01
 20
1.19799824E+02
  0
VERTEX
  8
0
 62
4
 10
-1.30321118E+01
 20
1.19668176E+02
  0
VERTEX
  8
0
 62
4
 10
-1.29142365E+01
 20
1.19545834E+02
  0
VERTEX
  8
0
 62
4
 10
-1.27855981E+01
 20
1.19433728E+02
  0
VERTEX
  8
0
 62
4
 10
-1.26471758E+01
 20
1.19332711E+02
  0
VERTEX
  8
0
 62
4
 10
-1.25000229E+01
 20
1.19243553E+02
  0
VERTEX
  8
0
 62
4
 10
-1.23452594E+01
 20
1.19166931E+02
  0
VERTEX
  8
0
 62
4
 10
-1.21840632E+01
 20
1.19103429E+02
  0
VERTEX
  8
0
 62
4
 10
-1.20176610E+01
 20
1.19053531E+02
  0
VERTEX
  8
0
 62
4
 10
-1.18473193E+01
 20
1.19017615E+02
  0
VERTEX
  8
0
 62
4
 10
-1.16743344E+01
 20
1.18995956E+02
  0
VERTEX
  8
0
 62
4
 10
-1.15000229E+01
 20
1.18988718E+02
  0
VERTEX
  8
0
 62
4
 10
-1.13257114E+01
 20
1.18995956E+02
  0
VERTEX
  8
0
 62
4
 10
-1.11527265E+01
 20
1.19017615E+02
  0
VERTEX
  8
0
 62
4
 10
-1.09823848E+01
 20
1.19053531E+02
  0
VERTEX
  8
0
 62
4
 10
-1.08159826E+01
 20
1.19103429E+02
  0
VERTEX
  8
0
 62
4
 10
-1.06547864E+01
 20
1.19166931E+02
  0
VERTEX
  8
0
 62
4
 10
-1.05000229E+01
 20
1.19243553E+02
  0
VERTEX
  8
0
 62
4
 10
-1.03528700E+01
 20
1.19332711E+02
  0
VERTEX
  8
0
 62
4
 10
-1.02144477E+01
 20
1.19433728E+02
  0
VERTEX
  8
0
 62
4
 10
-1.00858093E+01
 20
1.19545834E+02
  0
VERTEX
  8
0
 62
4
 10
-9.96793401E+00
 20
1.19668176E+02
  0
VERTEX
  8
0
 62
4
 10
-9.86171881E+00
 20
1.19799824E+02
  0
VERTEX
  8
0
 62
4
 10
-9.76797209E+00
 20
1.19939774E+02
  0
VERTEX
  8
0
 62
4
 10
-9.68740732E+00
 20
1.20086963E+02
  0
VERTEX
  8
0
 62
4
 10
-9.62063766E+00
 20
1.20240270E+02
  0
VERTEX
  8
0
 62
4
 10
-9.56817125E+00
 20
1.20398528E+02
  0
VERTEX
  8
0
 62
4
 10
-9.53040739E+00
 20
1.20560533E+02
  0
VERTEX
  8
0
 62
4
 10
-9.50763350E+00
 20
1.20725051E+02
  0
VERTEX
  8
0
 62
4
 10
-9.50002290E+00
 20
1.20890831E+02
  0
SEQEND
  8
0
  0
POLYLINE
  8
0
 62
4
 66
1
  0
VERTEX
  8
0
 62
4
 10
-9.50002290E+00
 20
1.21766172E+02
  0
VERTEX
  8
0
 62
4
 10
-9.50807431E+00
 20
1.21936676E+02
  0
VERTEX
  8
0
 62
4
 10
-9.53216372E+00
 20
1.22105807E+02
  0
VERTEX
  8
0
 62
4
 10
-9.57209718E+00
 20
1.22272204E+02
  0
VERTEX
  8
0
 62
4
 10
-9.62755316E+00
 20
1.22434527E+02
  0
VERTEX
  8
0
 62
4
 10
-9.69808516E+00
 20
1.22591468E+02
  0
VERTEX
  8
0
 62
4
 10
-9.78312531E+00
 20
1.22741764E+02
  0
VERTEX
  8
0
 62
4
 10
-9.88198891E+00
 20
1.22884206E+02
  0
VERTEX
  8
0
 62
4
 10
-9.99387997E+00
 20
1.23017646E+02
  0
VERTEX
  8
0
 62
4
 10
-1.01178976E+01
 20
1.23141010E+02
  0
VERTEX
  8
0
 62
4
 10
-1.02530433E+01
 20
1.23253304E+02
  0
VERTEX
  8
0
 62
4
 10
-1.03982289E+01
 20
1.23353625E+02
  0
VERTEX
  8
0
 62
4
 10
-1.05522856E+01
 20
1.23441164E+02
  0
VERTEX
  8
0
 62
4
 10
-1.07139728E+01
 20
1.23515218E+02
  0
VERTEX
  8
0
 62
4
 10
-1.08819889E+01
 20
1.23575189E+02
  0
VERTEX
  8
0
 62
4
 10
-1.10549810E+01
 20
1.23620595E+02
  0
VERTEX
  8
0
 62
4
 10
-1.12315564E+01
 20
1.23651070E+02
  0
VERTEX
  8
0
 62
4
 10
-1.14102932E+01
 20
1.23666370E+02
  0
VERTEX
  8
0
 62
4
 10
-1.15897526E+01
 20
1.23666370E+02
  0
VERTEX
  8
0
 62
4
 10
-1.17684894E+01
 20
1.23651070E+02
  0
VERTEX
  8
0
 62
4
 10
-1.19450648E+01
 20
1.23620595E+02
  0
VERTEX
  8
0
 62
4
 10
-1.21180569E+01
 20
1.23575189E+02
  0
VERTEX
  8
0
 62
4
 10
-1.22860730E+01
 20
1.23515218E+02
  0
VERTEX
  8
0
 62
4
 10
-1.24477602E+01
 20
1.23441164E+02
  0
VERTEX
  8
0
 62
4
 10
-1.26018169E+01
 20
1.23353625E+02
  0
VERTEX
  8
0
 62
4
 10
-1.27470025E+01
 20
1.23253304E+02
  0
VERTEX
  8
0
 62
4
 10
-1.28821482E+01
 20
1.23141010E+02
  0
VERTEX
  8
0
 62
4
 10
-1.30061658E+01
 20
1.23017646E+02
  0
VERTEX
  8
0
 62
4
 10
-1.31180569E+01
 20
1.22884206E+02
  0
VERTEX
  8
0
 62
4
 10
-1.32169205E+01
 20
1.22741764E+02
  0
VERTEX
  8
0
 62
4
 10
-1.33019606E+01
 20
1.22591468E+02
  0
VERTEX
  8
0
 62
4
 10
-1.33724926E+01
 20
1.22434527E+02
  0
VERTEX
  8
0
 62
4
 10
-1.34279486E+01
 20
1.22272204E+02
  0
VERTEX
  8
0
 62
4
 10
-1.34678821E+01
 20
1.22105807E+02
  0
VERTEX
  8
0
 62
4
 10
-1.34919715E+01
 20
1.21936676E+02
  0
VERTEX
  8
0
 62
4
 10
-1.35000229E+01
 20
1.21766172E+02
  0
SEQEND
  8
0
  0
LINE
  8
0
  6
CENTER
 62
6
 10
-4.67000077E+01
 20
1.44147164E+02
 11
-5.63000077E+01
 21
1.44147164E+02
  0
LINE
  8
0
  6
CENTER
 62
6
 10
-5.15000076E+01
 20
1.48947164E+02
 11
-5.15000076E+01
 21
1.39347164E+02
  0
LINE
  8
0
  6
CENTER
 62
6
 10
-6.29254107E+01
 20
1.44147164E+02
 11
-7.00746045E+01
 21
1.44147164E+02
  0
LINE
  8
0
  6
CENTER
 62
6
 10
-6.65000076E+01
 20
1.47721761E+02
 11
-6.65000076E+01
 21
1.40572567E+02
  0
LINE
  8
0
 62
4
 10
-7.40000076E+01
 20
1.38122205E+02
 11
-7.55000076E+01
 21
1.37025942E+02
  0
LINE
  8
0
 62
4
 10
-7.55000076E+01
 20
1.37025942E+02
 11
-7.55000076E+01
 21
1.34171875E+02
  0
LINE
  8
0
 62
4
 10
-7.55000076E+01
 20
1.34871799E+02
 11
-7.40000076E+01
 21
1.34317979E+02
  0
LINE
  8
0
 62
4
 10
-7.55000076E+01
 20
1.34171875E+02
 11
-7.49193843E+01
 21
1.33749969E+02
  0
LINE
  8
0
 62
4
 10
-7.40000076E+01
 20
1.34317979E+02
 11
-5.05000076E+01
 21
1.34317979E+02
  0
LINE
  8
0
 62
4
 10
-7.40000076E+01
 20
1.38122205E+02
 11
-6.19103106E+01
 21
1.38122205E+02
  0
LINE
  8
0
 62
4
 10
-7.40000076E+01
 20
1.38535930E+02
 11
-6.22946399E+01
 21
1.38535930E+02
  0
LINE
  8
0
 62
4
 10
-7.40000076E+01
 20
1.34161070E+02
 11
-4.40000076E+01
 21
1.34161070E+02
  0
LINE
  8
0
 62
4
 10
-7.40000076E+01
 20
1.38122205E+02
 11
-7.40000076E+01
 21
1.34161070E+02
  0
LINE
  8
0
 62
4
 10
-7.40000076E+01
 20
1.34161070E+02
 11
-7.40000076E+01
 21
1.33749969E+02
  0
POLYLINE
  8
0
 62
4
 66
1
  0
VERTEX
  8
0
 62
4
 10
-6.31500076E+01
 20
1.41479762E+02
  0
VERTEX
  8
0
 62
4
 10
-6.31342156E+01
 20
1.41135768E+02
  0
VERTEX
  8
0
 62
4
 10
-6.30869598E+01
 20
1.40794393E+02
  0
VERTEX
  8
0
 62
4
 10
-6.30085998E+01
 20
1.40458233E+02
  0
VERTEX
  8
0
 62
4
 10
-6.28997320E+01
 20
1.40129848E+02
  0
VERTEX
  8
0
 62
4
 10
-6.27611849E+01
 20
1.39811737E+02
  0
VERTEX
  8
0
 62
4
 10
-6.25940130E+01
 20
1.39506320E+02
  0
VERTEX
  8
0
 62
4
 10
-6.23994886E+01
 20
1.39215922E+02
  0
VERTEX
  8
0
 62
4
 10
-6.21790920E+01
 20
1.38942754E+02
  0
VERTEX
  8
0
 62
4
 10
-6.19345008E+01
 20
1.38688893E+02
  0
VERTEX
  8
0
 62
4
 10
-6.16675762E+01
 20
1.38456273E+02
  0
VERTEX
  8
0
 62
4
 10
-6.13803498E+01
 20
1.38246663E+02
  0
VERTEX
  8
0
 62
4
 10
-6.10750076E+01
 20
1.38061660E+02
  0
VERTEX
  8
0
 62
4
 10
-6.07538734E+01
 20
1.37902670E+02
  0
VERTEX
  8
0
 62
4
 10
-6.04193912E+01
 20
1.37770904E+02
  0
VERTEX
  8
0
 62
4
 10
-6.00741066E+01
 20
1.37667364E+02
  0
VERTEX
  8
0
 62
4
 10
-5.97206475E+01
 20
1.37592840E+02
  0
VERTEX
  8
0
 62
4
 10
-5.93617039E+01
 20
1.37547897E+02
  0
VERTEX
  8
0
 62
4
 10
-5.90000076E+01
 20
1.37532877E+02
  0
VERTEX
  8
0
 62
4
 10
-5.86383113E+01
 20
1.37547897E+02
  0
VERTEX
  8
0
 62
4
 10
-5.82793677E+01
 20
1.37592840E+02
  0
VERTEX
  8
0
 62
4
 10
-5.79259086E+01
 20
1.37667364E+02
  0
VERTEX
  8
0
 62
4
 10
-5.75806240E+01
 20
1.37770904E+02
  0
VERTEX
  8
0
 62
4
 10
-5.72461418E+01
 20
1.37902670E+02
  0
VERTEX
  8
0
 62
4
 10
-5.69250076E+01
 20
1.38061660E+02
  0
VERTEX
  8
0
 62
4
 10
-5.66196654E+01
 20
1.38246663E+02
  0
VERTEX
  8
0
 62
4
 10
-5.63324390E+01
 20
1.38456273E+02
  0
VERTEX
  8
0
 62
4
 10
-5.60655145E+01
 20
1.38688893E+02
  0
VERTEX
  8
0
 62
4
 10
-5.58209232E+01
 20
1.38942754E+02
  0
VERTEX
  8
0
 62
4
 10
-5.56005266E+01
 20
1.39215922E+02
  0
VERTEX
  8
0
 62
4
 10
-5.54060022E+01
 20
1.39506320E+02
  0
VERTEX
  8
0
 62
4
 10
-5.52388303E+01
 20
1.39811737E+02
  0
VERTEX
  8
0
 62
4
 10
-5.51002832E+01
 20
1.40129848E+02
  0
VERTEX
  8
0
 62
4
 10
-5.49914154E+01
 20
1.40458233E+02
  0
VERTEX
  8
0
 62
4
 10
-5.49130554E+01
 20
1.40794393E+02
  0
VERTEX
  8
0
 62
4
 10
-5.48657996E+01
 20
1.41135768E+02
  0
VERTEX
  8
0
 62
4
 10
-5.48500076E+01
 20
1.41479762E+02
  0
VERTEX
  8
0
 62
4
 10
-5.48657996E+01
 20
1.41823756E+02
  0
VERTEX
  8
0
 62
4
 10
-5.49130554E+01
 20
1.42165131E+02
  0
VERTEX
  8
0
 62
4
 10
-5.49914154E+01
 20
1.42501291E+02
  0
VERTEX
  8
0
 62
4
 10
-5.51002832E+01
 20
1.42829676E+02
  0
VERTEX
  8
0
 62
4
 10
-5.52388303E+01
 20
1.43147787E+02
  0
VERTEX
  8
0
 62
4
 10
-5.54060022E+01
 20
1.43453204E+02
  0
VERTEX
  8
0
 62
4
 10
-5.56005266E+01
 20
1.43743602E+02
  0
VERTEX
  8
0
 62
4
 10
-5.58209232E+01
 20
1.44016770E+02
  0
VERTEX
  8
0
 62
4
 10
-5.60655145E+01
 20
1.44270631E+02
  0
VERTEX
  8
0
 62
4
 10
-5.63324390E+01
 20
1.44503251E+02
  0
VERTEX
  8
0
 62
4
 10
-5.66196654E+01
 20
1.44712861E+02
  0
VERTEX
  8
0
 62
4
 10
-5.69250076E+01
 20
1.44897864E+02
  0
VERTEX
  8
0
 62
4
 10
-5.72461418E+01
 20
1.45056854E+02
  0
VERTEX
  8
0
 62
4
 10
-5.75806240E+01
 20
1.45188620E+02
  0
VERTEX
  8
0
 62
4
 10
-5.79259086E+01
 20
1.45292160E+02
  0
VERTEX
  8
0
 62
4
 10
-5.82793677E+01
 20
1.45366684E+02
  0
VERTEX
  8
0
 62
4
 10
-5.86383113E+01
 20
1.45411627E+02
  0
VERTEX
  8
0
 62
4
 10
-5.90000076E+01
 20
1.45426647E+02
  0
VERTEX
  8
0
 62
4
 10
-5.93617039E+01
 20
1.45411627E+02
  0
VERTEX
  8
0
 62
4
 10
-5.97206475E+01
 20
1.45366684E+02
  0
VERTEX
  8
0
 62
4
 10
-6.00741066E+01
 20
1.45292160E+02
  0
VERTEX
  8
0
 62
4
 10
-6.04193912E+01
 20
1.45188620E+02
  0
VERTEX
  8
0
 62
4
 10
-6.07538734E+01
 20
1.45056854E+02
  0
VERTEX
  8
0
 62
4
 10
-6.10750076E+01
 20
1.44897864E+02
  0
VERTEX
  8
0
 62
4
 10
-6.13803498E+01
 20
1.44712861E+02
  0
VERTEX
  8
0
 62
4
 10
-6.16675762E+01
 20
1.44503251E+02
  0
VERTEX
  8
0
 62
4
 10
-6.19345007E+01
 20
1.44270631E+02
  0
VERTEX
  8
0
 62
4
 10
-6.21790920E+01
 20
1.44016770E+02
  0
VERTEX
  8
0
 62
4
 10
-6.23994886E+01
 20
1.43743602E+02
  0
VERTEX
  8
0
 62
4
 10
-6.25940130E+01
 20
1.43453204E+02
  0
VERTEX
  8
0
 62
4
 10
-6.27611849E+01
 20
1.43147787E+02
  0
VERTEX
  8
0
 62
4
 10
-6.28997320E+01
 20
1.42829676E+02
  0
VERTEX
  8
0
 62
4
 10
-6.30085998E+01
 20
1.42501291E+02
  0
VERTEX
  8
0
 62
4
 10
-6.30869598E+01
 20
1.42165131E+02
  0
VERTEX
  8
0
 62
4
 10
-6.31342156E+01
 20
1.41823756E+02
  0
VERTEX
  8
0
 62
4
 10
-6.31500076E+01
 20
1.41479762E+02
  0
SEQEND
  8
0
  0
ARC
  8
0
 62
4
 10
1.29293589E+01
 20
6.60469992E+01
 40
1.04392782E+02
 50
1.32228766E+02
 51
1.34907157E+02
  0
ARC
  8
0
 62
4
 10
-1.30929150E+02
 20
6.60472345E+01
 40
1.04392457E+02
 50
4.50928385E+01
 51
4.77712376E+01
  0
POLYLINE
  8
0
 62
4
 66
1
  0
VERTEX
  8
0
 62
4
 10
-6.31500076E+01
 20
1.40935892E+02
  0
VERTEX
  8
0
 62
4
 10
-6.31333009E+01
 20
1.40582096E+02
  0
VERTEX
  8
0
 62
4
 10
-6.30833154E+01
 20
1.40231149E+02
  0
VERTEX
  8
0
 62
4
 10
-6.30004535E+01
 20
1.39885875E+02
  0
VERTEX
  8
0
 62
4
 10
-6.28853823E+01
 20
1.39549056E+02
  0
VERTEX
  8
0
 62
4
 10
-6.27390284E+01
 20
1.39223403E+02
  0
VERTEX
  8
0
 62
4
 10
-6.25625701E+01
 20
1.38911538E+02
  0
VERTEX
  8
0
 62
4
 10
-6.23574281E+01
 20
1.38615971E+02
  0
VERTEX
  8
0
 62
4
 10
-6.21252542E+01
 20
1.38339084E+02
  0
VERTEX
  8
0
 62
4
 10
-6.18679176E+01
 20
1.38083104E+02
  0
VERTEX
  8
0
 62
4
 10
-6.15874903E+01
 20
1.37850093E+02
  0
VERTEX
  8
0
 62
4
 10
-6.12862301E+01
 20
1.37641928E+02
  0
VERTEX
  8
0
 62
4
 10
-6.09665626E+01
 20
1.37460283E+02
  0
VERTEX
  8
0
 62
4
 10
-6.06310615E+01
 20
1.37306622E+02
  0
VERTEX
  8
0
 62
4
 10
-6.02824281E+01
 20
1.37182182E+02
  0
VERTEX
  8
0
 62
4
 10
-5.99234695E+01
 20
1.37087964E+02
  0
VERTEX
  8
0
 62
4
 10
-5.95570757E+01
 20
1.37024728E+02
  0
VERTEX
  8
0
 62
4
 10
-5.91861967E+01
 20
1.36992982E+02
  0
VERTEX
  8
0
 62
4
 10
-5.88138186E+01
 20
1.36992982E+02
  0
VERTEX
  8
0
 62
4
 10
-5.84429396E+01
 20
1.37024728E+02
  0
VERTEX
  8
0
 62
4
 10
-5.80765457E+01
 20
1.37087964E+02
  0
VERTEX
  8
0
 62
4
 10
-5.77175871E+01
 20
1.37182182E+02
  0
VERTEX
  8
0
 62
4
 10
-5.73689537E+01
 20
1.37306622E+02
  0
VERTEX
  8
0
 62
4
 10
-5.70334527E+01
 20
1.37460283E+02
  0
VERTEX
  8
0
 62
4
 10
-5.67137851E+01
 20
1.37641928E+02
  0
VERTEX
  8
0
 62
4
 10
-5.64125249E+01
 20
1.37850093E+02
  0
VERTEX
  8
0
 62
4
 10
-5.61320976E+01
 20
1.38083104E+02
  0
VERTEX
  8
0
 62
4
 10
-5.58747610E+01
 20
1.38339084E+02
  0
VERTEX
  8
0
 62
4
 10
-5.56425871E+01
 20
1.38615971E+02
  0
VERTEX
  8
0
 62
4
 10
-5.54374451E+01
 20
1.38911538E+02
  0
VERTEX
  8
0
 62
4
 10
-5.52609868E+01
 20
1.39223403E+02
  0
VERTEX
  8
0
 62
4
 10
-5.51146329E+01
 20
1.39549056E+02
  0
VERTEX
  8
0
 62
4
 10
-5.49995617E+01
 20
1.39885875E+02
  0
VERTEX
  8
0
 62
4
 10
-5.49166998E+01
 20
1.40231149E+02
  0
VERTEX
  8
0
 62
4
 10
-5.48667143E+01
 20
1.40582096E+02
  0
VERTEX
  8
0
 62
4
 10
-5.48500076E+01
 20
1.40935892E+02
  0
SEQEND
  8
0
  0
LINE
  8
0
 62
4
 10
-6.31500076E+01
 20
1.40935892E+02
 11
-6.31500076E+01
 21
1.41479762E+02
  0
LINE
  8
0
 62
4
 10
-5.48500076E+01
 20
1.40935892E+02
 11
-5.48500076E+01
 21
1.41479762E+02
  0
POLYLINE
  8
0
 62
4
 66
1
  0
VERTEX
  8
0
 62
4
 10
-5.53000076E+01
 20
1.44147164E+02
  0
VERTEX
  8
0
 62
4
 10
-5.52847099E+01
 20
1.43823206E+02
  0
VERTEX
  8
0
 62
4
 10
-5.52389401E+01
 20
1.43501857E+02
  0
VERTEX
  8
0
 62
4
 10
-5.51630665E+01
 20
1.43185703E+02
  0
VERTEX
  8
0
 62
4
 10
-5.50577001E+01
 20
1.42877290E+02
  0
VERTEX
  8
0
 62
4
 10
-5.49236893E+01
 20
1.42579102E+02
  0
VERTEX
  8
0
 62
4
 10
-5.47621130E+01
 20
1.42293538E+02
  0
VERTEX
  8
0
 62
4
 10
-5.45742722E+01
 20
1.42022899E+02
  0
VERTEX
  8
0
 62
4
 10
-5.43616792E+01
 20
1.41769364E+02
  0
VERTEX
  8
0
 62
4
 10
-5.41260457E+01
 20
1.41534973E+02
  0
VERTEX
  8
0
 62
4
 10
-5.38692689E+01
 20
1.41321613E+02
  0
VERTEX
  8
0
 62
4
 10
-5.35934162E+01
 20
1.41131004E+02
  0
VERTEX
  8
0
 62
4
 10
-5.33007085E+01
 20
1.40964679E+02
  0
VERTEX
  8
0
 62
4
 10
-5.29935027E+01
 20
1.40823977E+02
  0
VERTEX
  8
0
 62
4
 10
-5.26742722E+01
 20
1.40710032E+02
  0
VERTEX
  8
0
 62
4
 10
-5.23455872E+01
 20
1.40623760E+02
  0
VERTEX
  8
0
 62
4
 10
-5.20100940E+01
 20
1.40565857E+02
  0
VERTEX
  8
0
 62
4
 10
-5.16704940E+01
 20
1.40536788E+02
  0
VERTEX
  8
0
 62
4
 10
-5.13295213E+01
 20
1.40536788E+02
  0
VERTEX
  8
0
 62
4
 10
-5.09899212E+01
 20
1.40565857E+02
  0
VERTEX
  8
0
 62
4
 10
-5.06544281E+01
 20
1.40623760E+02
  0
VERTEX
  8
0
 62
4
 10
-5.03257430E+01
 20
1.40710032E+02
  0
VERTEX
  8
0
 62
4
 10
-5.00065125E+01
 20
1.40823977E+02
  0
VERTEX
  8
0
 62
4
 10
-4.96993067E+01
 20
1.40964679E+02
  0
VERTEX
  8
0
 62
4
 10
-4.94065991E+01
 20
1.41131004E+02
  0
VERTEX
  8
0
 62
4
 10
-4.91307464E+01
 20
1.41321613E+02
  0
VERTEX
  8
0
 62
4
 10
-4.88739695E+01
 20
1.41534973E+02
  0
VERTEX
  8
0
 62
4
 10
-4.86383360E+01
 20
1.41769364E+02
  0
VERTEX
  8
0
 62
4
 10
-4.84257430E+01
 20
1.42022899E+02
  0
VERTEX
  8
0
 62
4
 10
-4.82379022E+01
 20
1.42293538E+02
  0
VERTEX
  8
0
 62
4
 10
-4.80763259E+01
 20
1.42579102E+02
  0
VERTEX
  8
0
 62
4
 10
-4.79423151E+01
 20
1.42877290E+02
  0
VERTEX
  8
0
 62
4
 10
-4.78369487E+01
 20
1.43185703E+02
  0
VERTEX
  8
0
 62
4
 10
-4.77610751E+01
 20
1.43501857E+02
  0
VERTEX
  8
0
 62
4
 10
-4.77153053E+01
 20
1.43823206E+02
  0
VERTEX
  8
0
 62
4
 10
-4.77000076E+01
 20
1.44147164E+02
  0
SEQEND
  8
0
  0
POLYLINE
  8
0
 62
4
 66
1
  0
VERTEX
  8
0
 62
4
 10
-5.53000076E+01
 20
1.44456181E+02
  0
VERTEX
  8
0
 62
4
 10
-5.52855475E+01
 20
1.44141199E+02
  0
VERTEX
  8
0
 62
4
 10
-5.52422771E+01
 20
1.43828614E+02
  0
VERTEX
  8
0
 62
4
 10
-5.51705258E+01
 20
1.43520805E+02
  0
VERTEX
  8
0
 62
4
 10
-5.50708396E+01
 20
1.43220115E+02
  0
VERTEX
  8
0
 62
4
 10
-5.49439772E+01
 20
1.42928832E+02
  0
VERTEX
  8
0
 62
4
 10
-5.47909042E+01
 20
1.42649174E+02
  0
VERTEX
  8
0
 62
4
 10
-5.46127854E+01
 20
1.42383267E+02
  0
VERTEX
  8
0
 62
4
 10
-5.44109765E+01
 20
1.42133137E+02
  0
VERTEX
  8
0
 62
4
 10
-5.41870134E+01
 20
1.41900687E+02
  0
VERTEX
  8
0
 62
4
 10
-5.39426005E+01
 20
1.41687685E+02
  0
VERTEX
  8
0
 62
4
 10
-5.36795981E+01
 20
1.41495753E+02
  0
VERTEX
  8
0
 62
4
 10
-5.34000076E+01
 20
1.41326352E+02
  0
VERTEX
  8
0
 62
4
 10
-5.31059570E+01
 20
1.41180771E+02
  0
VERTEX
  8
0
 62
4
 10
-5.27996842E+01
 20
1.41060118E+02
  0
VERTEX
  8
0
 62
4
 10
-5.24835200E+01
 20
1.40965311E+02
  0
VERTEX
  8
0
 62
4
 10
-5.21598707E+01
 20
1.40897071E+02
  0
VERTEX
  8
0
 62
4
 10
-5.18311994E+01
 20
1.40855919E+02
  0
VERTEX
  8
0
 62
4
 10
-5.15000076E+01
 20
1.40842166E+02
  0
VERTEX
  8
0
 62
4
 10
-5.11688158E+01
 20
1.40855919E+02
  0
VERTEX
  8
0
 62
4
 10
-5.08401445E+01
 20
1.40897071E+02
  0
VERTEX
  8
0
 62
4
 10
-5.05164952E+01
 20
1.40965311E+02
  0
VERTEX
  8
0
 62
4
 10
-5.02003311E+01
 20
1.41060118E+02
  0
VERTEX
  8
0
 62
4
 10
-4.98940582E+01
 20
1.41180771E+02
  0
VERTEX
  8
0
 62
4
 10
-4.96000076E+01
 20
1.41326352E+02
  0
VERTEX
  8
0
 62
4
 10
-4.93204171E+01
 20
1.41495753E+02
  0
VERTEX
  8
0
 62
4
 10
-4.90574147E+01
 20
1.41687685E+02
  0
VERTEX
  8
0
 62
4
 10
-4.88130018E+01
 20
1.41900687E+02
  0
VERTEX
  8
0
 62
4
 10
-4.85890387E+01
 20
1.42133137E+02
  0
VERTEX
  8
0
 62
4
 10
-4.83872298E+01
 20
1.42383267E+02
  0
VERTEX
  8
0
 62
4
 10
-4.82091110E+01
 20
1.42649174E+02
  0
VERTEX
  8
0
 62
4
 10
-4.80560380E+01
 20
1.42928832E+02
  0
VERTEX
  8
0
 62
4
 10
-4.79291756E+01
 20
1.43220115E+02
  0
VERTEX
  8
0
 62
4
 10
-4.78294894E+01
 20
1.43520805E+02
  0
VERTEX
  8
0
 62
4
 10
-4.77577381E+01
 20
1.43828614E+02
  0
VERTEX
  8
0
 62
4
 10
-4.77144677E+01
 20
1.44141199E+02
  0
VERTEX
  8
0
 62
4
 10
-4.77000076E+01
 20
1.44456181E+02
  0
VERTEX
  8
0
 62
4
 10
-4.77144677E+01
 20
1.44771163E+02
  0
VERTEX
  8
0
 62
4
 10
-4.77577381E+01
 20
1.45083748E+02
  0
VERTEX
  8
0
 62
4
 10
-4.78294894E+01
 20
1.45391557E+02
  0
VERTEX
  8
0
 62
4
 10
-4.79291756E+01
 20
1.45692247E+02
  0
VERTEX
  8
0
 62
4
 10
-4.80560380E+01
 20
1.45983530E+02
  0
VERTEX
  8
0
 62
4
 10
-4.82091110E+01
 20
1.46263188E+02
  0
VERTEX
  8
0
 62
4
 10
-4.83872298E+01
 20
1.46529095E+02
  0
VERTEX
  8
0
 62
4
 10
-4.85890387E+01
 20
1.46779225E+02
  0
VERTEX
  8
0
 62
4
 10
-4.88130018E+01
 20
1.47011675E+02
  0
VERTEX
  8
0
 62
4
 10
-4.90574147E+01
 20
1.47224677E+02
  0
VERTEX
  8
0
 62
4
 10
-4.93204171E+01
 20
1.47416609E+02
  0
VERTEX
  8
0
 62
4
 10
-4.96000076E+01
 20
1.47586010E+02
  0
VERTEX
  8
0
 62
4
 10
-4.98940582E+01
 20
1.47731591E+02
  0
VERTEX
  8
0
 62
4
 10
-5.02003310E+01
 20
1.47852244E+02
  0
VERTEX
  8
0
 62
4
 10
-5.05164952E+01
 20
1.47947051E+02
  0
VERTEX
  8
0
 62
4
 10
-5.08401445E+01
 20
1.48015291E+02
  0
VERTEX
  8
0
 62
4
 10
-5.11688158E+01
 20
1.48056443E+02
  0
VERTEX
  8
0
 62
4
 10
-5.15000076E+01
 20
1.48070196E+02
  0
VERTEX
  8
0
 62
4
 10
-5.18311994E+01
 20
1.48056443E+02
  0
VERTEX
  8
0
 62
4
 10
-5.21598707E+01
 20
1.48015291E+02
  0
VERTEX
  8
0
 62
4
 10
-5.24835200E+01
 20
1.47947051E+02
  0
VERTEX
  8
0
 62
4
 10
-5.27996842E+01
 20
1.47852244E+02
  0
VERTEX
  8
0
 62
4
 10
-5.31059570E+01
 20
1.47731591E+02
  0
VERTEX
  8
0
 62
4
 10
-5.34000076E+01
 20
1.47586010E+02
  0
VERTEX
  8
0
 62
4
 10
-5.36795981E+01
 20
1.47416609E+02
  0
VERTEX
  8
0
 62
4
 10
-5.39426005E+01
 20
1.47224677E+02
  0
VERTEX
  8
0
 62
4
 10
-5.41870134E+01
 20
1.47011675E+02
  0
VERTEX
  8
0
 62
4
 10
-5.44109765E+01
 20
1.46779225E+02
  0
VERTEX
  8
0
 62
4
 10
-5.46127854E+01
 20
1.46529095E+02
  0
VERTEX
  8
0
 62
4
 10
-5.47909042E+01
 20
1.46263188E+02
  0
VERTEX
  8
0
 62
4
 10
-5.49439772E+01
 20
1.45983530E+02
  0
VERTEX
  8
0
 62
4
 10
-5.50708396E+01
 20
1.45692247E+02
  0
VERTEX
  8
0
 62
4
 10
-5.51705258E+01
 20
1.45391557E+02
  0
VERTEX
  8
0
 62
4
 10
-5.52422771E+01
 20
1.45083748E+02
  0
VERTEX
  8
0
 62
4
 10
-5.52855475E+01
 20
1.44771163E+02
  0
VERTEX
  8
0
 62
4
 10
-5.53000076E+01
 20
1.44456181E+02
  0
SEQEND
  8
0
  0
LINE
  8
0
 62
4
 10
-5.53000077E+01
 20
1.44147164E+02
 11
-5.53000077E+01
 21
1.44456181E+02
  0
LINE
  8
0
 62
4
 10
-4.77000077E+01
 20
1.44147164E+02
 11
-4.77000077E+01
 21
1.44456181E+02
  0
POLYLINE
  8
0
 62
4
 66
1
  0
VERTEX
  8
0
 62
4
 10
-5.49000076E+01
 20
1.44456181E+02
  0
VERTEX
  8
0
 62
4
 10
-5.48863202E+01
 20
1.44166324E+02
  0
VERTEX
  8
0
 62
4
 10
-5.48453682E+01
 20
1.43878801E+02
  0
VERTEX
  8
0
 62
4
 10
-5.47774814E+01
 20
1.43595926E+02
  0
VERTEX
  8
0
 62
4
 10
-5.46832062E+01
 20
1.43319978E+02
  0
VERTEX
  8
0
 62
4
 10
-5.45633018E+01
 20
1.43053178E+02
  0
VERTEX
  8
0
 62
4
 10
-5.44187335E+01
 20
1.42797674E+02
  0
VERTEX
  8
0
 62
4
 10
-5.42506654E+01
 20
1.42555523E+02
  0
VERTEX
  8
0
 62
4
 10
-5.40604506E+01
 20
1.42328676E+02
  0
VERTEX
  8
0
 62
4
 10
-5.38496206E+01
 20
1.42118957E+02
  0
VERTEX
  8
0
 62
4
 10
-5.36198730E+01
 20
1.41928057E+02
  0
VERTEX
  8
0
 62
4
 10
-5.33730574E+01
 20
1.41757511E+02
  0
VERTEX
  8
0
 62
4
 10
-5.31111611E+01
 20
1.41608694E+02
  0
VERTEX
  8
0
 62
4
 10
-5.28362927E+01
 20
1.41482803E+02
  0
VERTEX
  8
0
 62
4
 10
-5.25506654E+01
 20
1.41380852E+02
  0
VERTEX
  8
0
 62
4
 10
-5.22565788E+01
 20
1.41303662E+02
  0
VERTEX
  8
0
 62
4
 10
-5.19564007E+01
 20
1.41251854E+02
  0
VERTEX
  8
0
 62
4
 10
-5.16525480E+01
 20
1.41225845E+02
  0
VERTEX
  8
0
 62
4
 10
-5.13474672E+01
 20
1.41225845E+02
  0
VERTEX
  8
0
 62
4
 10
-5.10436145E+01
 20
1.41251854E+02
  0
VERTEX
  8
0
 62
4
 10
-5.07434364E+01
 20
1.41303662E+02
  0
VERTEX
  8
0
 62
4
 10
-5.04493498E+01
 20
1.41380852E+02
  0
VERTEX
  8
0
 62
4
 10
-5.01637225E+01
 20
1.41482803E+02
  0
VERTEX
  8
0
 62
4
 10
-4.98888542E+01
 20
1.41608694E+02
  0
VERTEX
  8
0
 62
4
 10
-4.96269579E+01
 20
1.41757511E+02
  0
VERTEX
  8
0
 62
4
 10
-4.93801423E+01
 20
1.41928057E+02
  0
VERTEX
  8
0
 62
4
 10
-4.91503946E+01
 20
1.42118957E+02
  0
VERTEX
  8
0
 62
4
 10
-4.89395646E+01
 20
1.42328675E+02
  0
VERTEX
  8
0
 62
4
 10
-4.87493498E+01
 20
1.42555523E+02
  0
VERTEX
  8
0
 62
4
 10
-4.85812817E+01
 20
1.42797674E+02
  0
VERTEX
  8
0
 62
4
 10
-4.84367134E+01
 20
1.43053178E+02
  0
VERTEX
  8
0
 62
4
 10
-4.83168090E+01
 20
1.43319978E+02
  0
VERTEX
  8
0
 62
4
 10
-4.82225339E+01
 20
1.43595926E+02
  0
VERTEX
  8
0
 62
4
 10
-4.81546470E+01
 20
1.43878801E+02
  0
VERTEX
  8
0
 62
4
 10
-4.81136950E+01
 20
1.44166324E+02
  0
VERTEX
  8
0
 62
4
 10
-4.81000076E+01
 20
1.44456181E+02
  0
SEQEND
  8
0
  0
LINE
  8
0
 62
4
 10
-4.81000076E+01
 20
1.44854562E+02
 11
-4.81000076E+01
 21
1.44456181E+02
  0
LINE
  8
0
 62
4
 10
-5.49000076E+01
 20
1.44456181E+02
 11
-5.49000076E+01
 21
1.44854562E+02
  0
POLYLINE
  8
0
 62
4
 66
1
  0
VERTEX
  8
0
 62
4
 10
-5.49000076E+01
 20
1.44854562E+02
  0
VERTEX
  8
0
 62
4
 10
-5.48870696E+01
 20
1.44572736E+02
  0
VERTEX
  8
0
 62
4
 10
-5.48483540E+01
 20
1.44293055E+02
  0
VERTEX
  8
0
 62
4
 10
-5.47841554E+01
 20
1.44017647E+02
  0
VERTEX
  8
0
 62
4
 10
-5.46949625E+01
 20
1.43748608E+02
  0
VERTEX
  8
0
 62
4
 10
-5.45814541E+01
 20
1.43487987E+02
  0
VERTEX
  8
0
 62
4
 10
-5.44444940E+01
 20
1.43237766E+02
  0
VERTEX
  8
0
 62
4
 10
-5.42851246E+01
 20
1.42999850E+02
  0
VERTEX
  8
0
 62
4
 10
-5.41045587E+01
 20
1.42776049E+02
  0
VERTEX
  8
0
 62
4
 10
-5.39041707E+01
 20
1.42568067E+02
  0
VERTEX
  8
0
 62
4
 10
-5.36854855E+01
 20
1.42377487E+02
  0
VERTEX
  8
0
 62
4
 10
-5.34501675E+01
 20
1.42205758E+02
  0
VERTEX
  8
0
 62
4
 10
-5.32000076E+01
 20
1.42054189E+02
  0
VERTEX
  8
0
 62
4
 10
-5.29369097E+01
 20
1.41923932E+02
  0
VERTEX
  8
0
 62
4
 10
-5.26628761E+01
 20
1.41815979E+02
  0
VERTEX
  8
0
 62
4
 10
-5.23799924E+01
 20
1.41731152E+02
  0
VERTEX
  8
0
 62
4
 10
-5.20904114E+01
 20
1.41670095E+02
  0
VERTEX
  8
0
 62
4
 10
-5.17963371E+01
 20
1.41633275E+02
  0
VERTEX
  8
0
 62
4
 10
-5.15000076E+01
 20
1.41620970E+02
  0
VERTEX
  8
0
 62
4
 10
-5.12036781E+01
 20
1.41633275E+02
  0
VERTEX
  8
0
 62
4
 10
-5.09096038E+01
 20
1.41670095E+02
  0
VERTEX
  8
0
 62
4
 10
-5.06200228E+01
 20
1.41731152E+02
  0
VERTEX
  8
0
 62
4
 10
-5.03371391E+01
 20
1.41815979E+02
  0
VERTEX
  8
0
 62
4
 10
-5.00631055E+01
 20
1.41923932E+02
  0
VERTEX
  8
0
 62
4
 10
-4.98000076E+01
 20
1.42054189E+02
  0
VERTEX
  8
0
 62
4
 10
-4.95498477E+01
 20
1.42205758E+02
  0
VERTEX
  8
0
 62
4
 10
-4.93145297E+01
 20
1.42377487E+02
  0
VERTEX
  8
0
 62
4
 10
-4.90958445E+01
 20
1.42568067E+02
  0
VERTEX
  8
0
 62
4
 10
-4.88954565E+01
 20
1.42776049E+02
  0
VERTEX
  8
0
 62
4
 10
-4.87148906E+01
 20
1.42999850E+02
  0
VERTEX
  8
0
 62
4
 10
-4.85555212E+01
 20
1.43237766E+02
  0
VERTEX
  8
0
 62
4
 10
-4.84185611E+01
 20
1.43487987E+02
  0
VERTEX
  8
0
 62
4
 10
-4.83050527E+01
 20
1.43748608E+02
  0
VERTEX
  8
0
 62
4
 10
-4.82158598E+01
 20
1.44017647E+02
  0
VERTEX
  8
0
 62
4
 10
-4.81516612E+01
 20
1.44293055E+02
  0
VERTEX
  8
0
 62
4
 10
-4.81129456E+01
 20
1.44572736E+02
  0
VERTEX
  8
0
 62
4
 10
-4.81000076E+01
 20
1.44854562E+02
  0
VERTEX
  8
0
 62
4
 10
-4.81129456E+01
 20
1.45136388E+02
  0
VERTEX
  8
0
 62
4
 10
-4.81516612E+01
 20
1.45416069E+02
  0
VERTEX
  8
0
 62
4
 10
-4.82158598E+01
 20
1.45691477E+02
  0
VERTEX
  8
0
 62
4
 10
-4.83050527E+01
 20
1.45960516E+02
  0
VERTEX
  8
0
 62
4
 10
-4.84185611E+01
 20
1.46221137E+02
  0
VERTEX
  8
0
 62
4
 10
-4.85555212E+01
 20
1.46471358E+02
  0
VERTEX
  8
0
 62
4
 10
-4.87148906E+01
 20
1.46709274E+02
  0
VERTEX
  8
0
 62
4
 10
-4.88954565E+01
 20
1.46933075E+02
  0
VERTEX
  8
0
 62
4
 10
-4.90958445E+01
 20
1.47141057E+02
  0
VERTEX
  8
0
 62
4
 10
-4.93145297E+01
 20
1.47331637E+02
  0
VERTEX
  8
0
 62
4
 10
-4.95498477E+01
 20
1.47503366E+02
  0
VERTEX
  8
0
 62
4
 10
-4.98000076E+01
 20
1.47654935E+02
  0
VERTEX
  8
0
 62
4
 10
-5.00631055E+01
 20
1.47785192E+02
  0
VERTEX
  8
0
 62
4
 10
-5.03371391E+01
 20
1.47893145E+02
  0
VERTEX
  8
0
 62
4
 10
-5.06200228E+01
 20
1.47977972E+02
  0
VERTEX
  8
0
 62
4
 10
-5.09096038E+01
 20
1.48039029E+02
  0
VERTEX
  8
0
 62
4
 10
-5.12036781E+01
 20
1.48075849E+02
  0
VERTEX
  8
0
 62
4
 10
-5.15000076E+01
 20
1.48088154E+02
  0
VERTEX
  8
0
 62
4
 10
-5.17963371E+01
 20
1.48075849E+02
  0
VERTEX
  8
0
 62
4
 10
-5.20904114E+01
 20
1.48039029E+02
  0
VERTEX
  8
0
 62
4
 10
-5.23799924E+01
 20
1.47977972E+02
  0
VERTEX
  8
0
 62
4
 10
-5.26628761E+01
 20
1.47893145E+02
  0
VERTEX
  8
0
 62
4
 10
-5.29369097E+01
 20
1.47785192E+02
  0
VERTEX
  8
0
 62
4
 10
-5.32000076E+01
 20
1.47654935E+02
  0
VERTEX
  8
0
 62
4
 10
-5.34501675E+01
 20
1.47503366E+02
  0
VERTEX
  8
0
 62
4
 10
-5.36854855E+01
 20
1.47331637E+02
  0
VERTEX
  8
0
 62
4
 10
-5.39041707E+01
 20
1.47141057E+02
  0
VERTEX
  8
0
 62
4
 10
-5.41045587E+01
 20
1.46933075E+02
  0
VERTEX
  8
0
 62
4
 10
-5.42851246E+01
 20
1.46709274E+02
  0
VERTEX
  8
0
 62
4
 10
-5.44444940E+01
 20
1.46471358E+02
  0
VERTEX
  8
0
 62
4
 10
-5.45814541E+01
 20
1.46221137E+02
  0
VERTEX
  8
0
 62
4
 10
-5.46949625E+01
 20
1.45960516E+02
  0
VERTEX
  8
0
 62
4
 10
-5.47841554E+01
 20
1.45691477E+02
  0
VERTEX
  8
0
 62
4
 10
-5.48483540E+01
 20
1.45416069E+02
  0
VERTEX
  8
0
 62
4
 10
-5.48870696E+01
 20
1.45136388E+02
  0
VERTEX
  8
0
 62
4
 10
-5.49000076E+01
 20
1.44854562E+02
  0
SEQEND
  8
0
  0
ARC
  8
0
 62
4
 10
1.73145117E+01
 20
7.28010205E+01
 40
9.98837386E+01
 50
1.32163454E+02
 51
1.34962547E+02
  0
ARC
  8
0
 62
4
 10
-1.20314527E+02
 20
7.28010205E+01
 40
9.98837386E+01
 50
4.50374523E+01
 51
4.78365464E+01
  0
LINE
  8
0
 62
4
 10
-5.57053754E+01
 20
1.38535930E+02
 11
-4.40000076E+01
 21
1.38535930E+02
  0
LINE
  8
0
 62
4
 10
-5.60897047E+01
 20
1.38122205E+02
 11
-5.05000076E+01
 21
1.38122205E+02
  0
LINE
  8
0
  6
CENTER
 62
2
 10
-1.77773201E+02
 20
9.97500000E+01
 11
6.02532616E+01
 21
9.97500000E+01
  0
LINE
  8
0
 62
7
 10
-1.31999992E+02
 20
8.32500305E+01
 11
-1.31999992E+02
 21
1.16249985E+02
  0
LINE
  8
0
 62
7
 10
-1.18499992E+02
 20
8.07500076E+01
 11
-1.16999992E+02
 21
8.07500076E+01
  0
LINE
  8
0
 62
7
 10
-1.31500008E+02
 20
8.27500000E+01
 11
-1.26991447E+02
 21
8.27500000E+01
  0
LINE
  8
0
 62
7
 10
-1.26999992E+02
 20
8.27500000E+01
 11
-1.26999992E+02
 21
8.27414551E+01
  0
LINE
  8
0
 62
7
 10
-1.26758675E+02
 20
8.24915223E+01
 11
-1.18999961E+02
 21
8.22205821E+01
  0
LINE
  8
0
 62
7
 10
5.39999809E+01
 20
1.36200073E+02
 11
5.39999809E+01
 21
6.32999268E+01
  0
LINE
  8
0
 62
7
 10
2.19999771E+01
 20
1.37250000E+02
 11
2.19999771E+01
 21
6.22500000E+01
  0
LINE
  8
0
 62
7
 10
5.35087218E+01
 20
6.28000395E+01
 11
2.20000170E+01
 21
6.22500530E+01
  0
LINE
  8
0
 62
7
 10
-1.19000008E+02
 20
1.18250000E+02
 11
-1.19000008E+02
 21
8.12500000E+01
  0
LINE
  8
0
 62
7
 10
4.99999847E+01
 20
6.22500000E+01
 11
2.19999771E+01
 21
6.22500000E+01
  0
LINE
  8
0
 62
7
 10
4.99999847E+01
 20
6.27387695E+01
 11
4.99999847E+01
 21
6.22500000E+01
  0
LINE
  8
0
 62
7
 10
-1.26999992E+02
 20
8.27500000E+01
 11
-1.26999992E+02
 21
1.16750015E+02
  0
LINE
  8
0
 62
7
 10
5.54999924E+01
 20
8.07500076E+01
 11
5.39999924E+01
 21
8.07500076E+01
  0
LINE
  8
0
 62
7
 10
-1.16999992E+02
 20
1.36200073E+02
 11
-1.16999992E+02
 21
6.32999268E+01
  0
LINE
  8
0
 62
7
 10
-8.50000076E+01
 20
1.37250000E+02
 11
-8.50000076E+01
 21
6.22500000E+01
  0
LINE
  8
0
 62
7
 10
-1.16508717E+02
 20
6.28000483E+01
 11
-8.50000277E+01
 21
6.22500621E+01
  0
LINE
  8
0
 62
7
 10
5.59999886E+01
 20
1.18250000E+02
 11
5.59999886E+01
 21
8.12500000E+01
  0
LINE
  8
0
 62
7
 10
-1.13000008E+02
 20
6.22500000E+01
 11
-8.50000076E+01
 21
6.22500000E+01
  0
LINE
  8
0
 62
7
 10
-1.13000008E+02
 20
6.27387695E+01
 11
-1.13000008E+02
 21
6.22500000E+01
  0
LINE
  8
0
  6
CENTER
 62
2
 10
5.82292213E+01
 20
7.17499924E+01
 11
-1.20248100E+02
 21
7.17499924E+01
  0
LINE
  8
0
 62
7
 10
2.19999771E+01
 20
7.53500366E+01
 11
-8.50000076E+01
 21
7.53500366E+01
  0
LINE
  8
0
 62
7
 10
2.19999771E+01
 20
6.81500244E+01
 11
-8.50000076E+01
 21
6.81500244E+01
  0
LINE
  8
0
 62
7
 10
2.19999771E+01
 20
6.57500229E+01
 11
-8.50000076E+01
 21
6.57500229E+01
  0
LINE
  8
0
 62
7
 10
-1.41999962E+02
 20
1.08750000E+02
 11
-1.41999962E+02
 21
9.07500076E+01
  0
LINE
  8
0
 62
7
 10
-1.39000084E+02
 20
1.05017853E+02
 11
-1.35000023E+02
 21
1.05017853E+02
  0
LINE
  8
0
 62
7
 10
-1.35000023E+02
 20
9.44822006E+01
 11
-1.35000023E+02
 21
9.97500076E+01
  0
LINE
  8
0
 62
7
 10
-1.39000084E+02
 20
9.44821930E+01
 11
-1.35000023E+02
 21
9.44821930E+01
  0
LINE
  8
0
 62
7
 10
-1.38999962E+02
 20
8.97500305E+01
 11
-1.38999962E+02
 21
9.44822006E+01
  0
LINE
  8
0
 62
2
 10
-1.41033577E+02
 20
1.03563419E+02
 11
-1.34999986E+02
 21
9.44822372E+01
  0
LINE
  8
0
 62
2
 10
-1.41033571E+02
 20
9.59363928E+01
 11
-1.34999829E+02
 21
1.05017803E+02
  0
LINE
  8
0
 62
7
 10
-1.39000084E+02
 20
8.97500229E+01
 11
-1.32000038E+02
 21
8.97500229E+01
  0
LINE
  8
0
 62
7
 10
-1.38999962E+02
 20
1.09750046E+02
 11
-1.38999962E+02
 21
1.05017868E+02
  0
LINE
  8
0
 62
7
 10
-1.35000023E+02
 20
1.05017868E+02
 11
-1.35000023E+02
 21
9.97500076E+01
  0
LINE
  8
0
 62
7
 10
-1.44999947E+02
 20
9.07500153E+01
 11
-1.44999947E+02
 21
1.08750015E+02
  0
LINE
  8
0
 62
7
 10
-1.73999977E+02
 20
9.22500381E+01
 11
-1.73999977E+02
 21
1.07249847E+02
  0
LINE
  8
0
 62
7
 10
-1.72499947E+02
 20
9.07500153E+01
 11
-1.72499947E+02
 21
1.08750015E+02
  0
LINE
  8
0
 62
7
 10
-1.72499916E+02
 20
1.08750000E+02
 11
-1.64999962E+02
 21
1.08750000E+02
  0
LINE
  8
0
 62
2
 10
-1.73319923E+02
 20
1.07929993E+02
 11
-1.64999962E+02
 21
1.07929993E+02
  0
LINE
  8
0
 62
7
 10
-1.73999867E+02
 20
1.07249808E+02
 11
-1.72499820E+02
 21
1.08749808E+02
  0
LINE
  8
0
 62
7
 10
-1.72499916E+02
 20
9.07500076E+01
 11
-1.64999962E+02
 21
9.07500076E+01
  0
LINE
  8
0
 62
2
 10
-1.73319923E+02
 20
9.15699997E+01
 11
-1.64999962E+02
 21
9.15699997E+01
  0
LINE
  8
0
 62
7
 10
-1.73999973E+02
 20
9.22501265E+01
 11
-1.72499916E+02
 21
9.07501154E+01
  0
LINE
  8
0
 62
7
 10
-1.39000084E+02
 20
1.09749985E+02
 11
-1.32000038E+02
 21
1.09749985E+02
  0
LINE
  8
0
  6
CENTER
 62
2
 10
3.60000458E+01
 20
1.39435059E+02
 11
3.60000458E+01
 21
1.27549774E+02
  0
LINE
  8
0
 62
7
 10
-1.18499992E+02
 20
1.18750000E+02
 11
-1.16999992E+02
 21
1.18750000E+02
  0
LINE
  8
0
 62
7
 10
-1.31500008E+02
 20
1.16750015E+02
 11
-1.26991447E+02
 21
1.16750015E+02
  0
LINE
  8
0
 62
7
 10
-1.26999992E+02
 20
1.16750015E+02
 11
-1.26999992E+02
 21
1.16758560E+02
  0
LINE
  8
0
 62
7
 10
-1.26758667E+02
 20
1.17008481E+02
 11
-1.18999954E+02
 21
1.17279421E+02
  0
LINE
  8
0
 62
7
 10
5.35087308E+01
 20
1.36699980E+02
 11
2.20000336E+01
 21
1.37249966E+02
  0
LINE
  8
0
 62
7
 10
4.99999847E+01
 20
1.37250000E+02
 11
2.19999771E+01
 21
1.37250000E+02
  0
LINE
  8
0
 62
7
 10
4.99999847E+01
 20
1.36761215E+02
 11
4.99999847E+01
 21
1.37250000E+02
  0
LINE
  8
0
 62
7
 10
2.19999771E+01
 20
1.33749969E+02
 11
1.59193843E+01
 21
1.33749969E+02
  0
LINE
  8
0
 62
7
 10
5.54999924E+01
 20
1.18750000E+02
 11
5.39999924E+01
 21
1.18750000E+02
  0
LINE
  8
0
 62
7
 10
-1.16508741E+02
 20
1.36699956E+02
 11
-8.50000364E+01
 21
1.37249942E+02
  0
LINE
  8
0
 62
7
 10
-1.13000008E+02
 20
1.37250000E+02
 11
-8.50000076E+01
 21
1.37250000E+02
  0
LINE
  8
0
 62
7
 10
-1.13000008E+02
 20
1.36761215E+02
 11
-1.13000008E+02
 21
1.37250000E+02
  0
LINE
  8
0
  6
CENTER
 62
2
 10
5.82292213E+01
 20
1.27750015E+02
 11
-1.20248100E+02
 21
1.27750015E+02
  0
LINE
  8
0
 62
7
 10
2.19999771E+01
 20
1.24149963E+02
 11
-2.28881835E-05
 21
1.24149963E+02
  0
LINE
  8
0
 62
7
 10
2.19999771E+01
 20
1.31349976E+02
 11
1.49999771E+01
 21
1.31349976E+02
  0
LINE
  8
0
  6
CENTER
 62
2
 10
-9.90000687E+01
 20
1.39435059E+02
 11
-9.90000687E+01
 21
1.27549774E+02
  0
LINE
  8
0
 62
7
 10
-1.41999961E+02
 20
1.02872441E+02
 11
-1.38999972E+02
 21
1.05017538E+02
  0
LINE
  8
0
 62
7
 10
-1.41999961E+02
 20
9.66275651E+01
 11
-1.38999961E+02
 21
9.44819072E+01
  0
LINE
  8
0
 62
7
 10
-1.41999936E+02
 20
1.08749982E+02
 11
-1.38999947E+02
 21
1.09749966E+02
  0
LINE
  8
0
 62
7
 10
-1.41999978E+02
 20
9.07500123E+01
 11
-1.38999986E+02
 21
8.97500373E+01
  0
LINE
  8
0
 62
7
 10
-1.44999947E+02
 20
1.07929993E+02
 11
-1.41999962E+02
 21
1.07929993E+02
  0
LINE
  8
0
 62
7
 10
-1.44999947E+02
 20
9.15699997E+01
 11
-1.41999962E+02
 21
9.15699997E+01
  0
ARC
  8
0
 62
7
 10
-1.18499992E+02
 20
8.12500000E+01
 40
5.00000000E-01
 50
1.79999977E+02
 51
2.69999974E+02
  0
ARC
  8
0
 62
7
 10
5.34999886E+01
 20
6.32999268E+01
 40
5.00000000E-01
 50
2.71000258E+02
 51
3.59999993E+02
  0
ARC
  8
0
 62
7
 10
-1.26750008E+02
 20
8.27414551E+01
 40
2.50000000E-01
 50
1.79999977E+02
 51
2.68001132E+02
  0
ARC
  8
0
 62
7
 10
-1.31500008E+02
 20
8.32500305E+01
 40
5.00000000E-01
 50
1.79999977E+02
 51
2.69999974E+02
  0
ARC
  8
0
 62
7
 10
5.54999962E+01
 20
1.18250000E+02
 40
5.00000000E-01
 50
5.46415133E-05
 51
9.00000369E+01
  0
ARC
  8
0
 62
7
 10
5.54999962E+01
 20
8.12500000E+01
 40
5.00000000E-01
 50
2.70000073E+02
 51
5.46415133E-05
  0
ARC
  8
0
 62
7
 10
-1.16500008E+02
 20
6.32999268E+01
 40
5.00000000E-01
 50
1.79999909E+02
 51
2.68999651E+02
  0
ARC
  8
0
 62
7
 10
-1.43499977E+02
 20
9.97500000E+01
 40
9.99998474E+00
 50
0.00000000E+00
 51
3.17883527E+01
  0
ARC
  8
0
 62
7
 10
-1.43499977E+02
 20
9.97500000E+01
 40
9.99998474E+00
 50
3.28211647E+02
 51
0.00000000E+00
  0
ARC
  8
0
 62
7
 10
-1.18499992E+02
 20
1.18250000E+02
 40
5.00000000E-01
 50
8.99999818E+01
 51
1.79999964E+02
  0
ARC
  8
0
 62
7
 10
5.34999886E+01
 20
1.36200073E+02
 40
5.00000000E-01
 50
3.59999952E+02
 51
8.89996869E+01
  0
ARC
  8
0
 62
7
 10
-1.31500008E+02
 20
1.16249985E+02
 40
5.00000000E-01
 50
8.99999818E+01
 51
1.79999964E+02
  0
ARC
  8
0
 62
7
 10
-1.16500008E+02
 20
1.36200073E+02
 40
5.00000000E-01
 50
9.10002768E+01
 51
1.80000019E+02
  0
ARC
  8
0
 62
7
 10
-1.26750008E+02
 20
1.16758560E+02
 40
2.50000000E-01
 50
9.19988230E+01
 51
1.79999977E+02
  0
LINE
  8
0
 62
4
 10
-3.43499992E+02
 20
9.19557714E+01
 11
-3.43499992E+02
 21
1.07544229E+02
  0
LINE
  8
0
 62
4
 10
-3.56999992E+02
 20
8.41615427E+01
 11
-3.43499992E+02
 21
9.19557714E+01
  0
LINE
  8
0
 62
4
 10
-3.70499992E+02
 20
9.19557714E+01
 11
-3.56999992E+02
 21
8.41615427E+01
  0
LINE
  8
0
 62
4
 10
-3.70499992E+02
 20
1.07544229E+02
 11
-3.70499992E+02
 21
9.19557714E+01
  0
LINE
  8
0
 62
4
 10
-3.56999992E+02
 20
1.15338457E+02
 11
-3.70499992E+02
 21
1.07544229E+02
  0
CIRCLE
  8
0
 62
4
 10
-3.56999992E+02
 20
9.97500000E+01
 40
1.35000000E+01
  0
LINE
  8
0
 62
4
 10
-3.43499992E+02
 20
1.07544229E+02
 11
-3.56999992E+02
 21
1.15338457E+02
  0
CIRCLE
  8
0
 62
4
 10
-3.85000084E+02
 20
1.27750061E+02
 40
3.60000000E+00
  0
LINE
  8
0
 62
4
 10
-3.95725884E+02
 20
1.22792990E+02
 11
-3.94500084E+02
 21
1.23191277E+02
  0
LINE
  8
0
 62
4
 10
-3.94500084E+02
 20
1.19020366E+02
 11
-3.95725884E+02
 21
1.22792990E+02
  0
LINE
  8
0
 62
6
 10
-3.95571375E+02
 20
1.22317462E+02
 11
-3.94500084E+02
 21
1.22665546E+02
  0
LINE
  8
0
 62
6
 10
-3.94644324E+02
 20
1.19464292E+02
 11
-3.94500084E+02
 21
1.19511159E+02
  0
LINE
  8
0
  6
CENTER
 62
6
 10
-3.72424533E+02
 20
1.34675053E+02
 11
-3.66718194E+02
 21
1.36529155E+02
  0
LINE
  8
0
  6
CENTER
 62
6
 10
-3.70498414E+02
 20
1.38455274E+02
 11
-3.68644312E+02
 21
1.32748935E+02
  0
LINE
  8
0
 62
4
 10
-3.68287284E+02
 20
1.38122251E+02
 11
-3.68003883E+02
 21
1.37250031E+02
  0
LINE
  8
0
 62
4
 10
-3.70971704E+02
 20
1.37250031E+02
 11
-3.68287284E+02
 21
1.38122251E+02
  0
LINE
  8
0
 62
4
 10
-3.68287284E+02
 20
1.38122251E+02
 11
-3.68731703E+02
 21
1.37250031E+02
  0
LINE
  8
0
 62
4
 10
-3.71845781E+02
 20
1.48426964E+02
 11
-3.81641663E+02
 21
1.45244089E+02
  0
LINE
  8
0
 62
4
 10
-3.71390068E+02
 20
1.37639827E+02
 11
-3.68632004E+02
 21
1.38535976E+02
  0
LINE
  8
0
 62
4
 10
-3.71588679E+02
 20
1.37250031E+02
 11
-3.71390068E+02
 21
1.37639827E+02
  0
LINE
  8
0
  6
CENTER
 62
6
 10
-3.90654205E+02
 20
1.37584156E+02
 11
-3.65259150E+02
 21
1.45835510E+02
  0
LINE
  8
0
  6
CENTER
 62
6
 10
-3.80655241E+02
 20
1.37152899E+02
 11
-3.64177590E+02
 21
1.42506812E+02
  0
LINE
  8
0
 62
4
 10
-3.85921417E+02
 20
1.43853512E+02
 11
-3.81641663E+02
 21
1.45244089E+02
  0
LINE
  8
0
 62
4
 10
-3.79044236E+02
 20
1.37250031E+02
 11
-3.81641663E+02
 21
1.45244089E+02
  0
LINE
  8
0
 62
4
 10
-3.89286059E+02
 20
1.37250031E+02
 11
-3.85921417E+02
 21
1.43853512E+02
  0
LINE
  8
0
 62
4
 10
-3.71629469E+02
 20
1.47761224E+02
 11
-3.70678412E+02
 21
1.48070241E+02
  0
ARC
  8
0
 62
4
 10
-3.67687050E+02
 20
1.42523128E+02
 40
1.00000000E+00
 50
3.36723662E+02
 51
5.17248996E+00
  0
ARC
  8
0
 62
4
 10
-3.69170332E+02
 20
1.47088200E+02
 40
1.00000000E+00
 50
3.08275100E+01
 51
1.08000000E+02
  0
ARC
  8
0
 62
4
 10
-3.78453030E+02
 20
1.41548559E+02
 40
1.18100000E+01
 50
5.17248996E+00
 51
3.08275100E+01
  0
LINE
  8
0
 62
4
 10
-3.70554806E+02
 20
1.47689819E+02
 11
-3.69480112E+02
 21
1.48039008E+02
  0
LINE
  8
0
 62
4
 10
-3.69705009E+02
 20
1.45074413E+02
 11
-3.70678412E+02
 21
1.48070241E+02
  0
LINE
  8
0
 62
4
 10
-3.67814619E+02
 20
1.37250031E+02
 11
-3.70294664E+02
 21
1.44882823E+02
  0
LINE
  8
0
 62
4
 10
-3.70609713E+02
 20
1.44622738E+02
 11
-3.70248311E+02
 21
1.44740164E+02
  0
LINE
  8
0
 62
4
 10
-3.70294664E+02
 20
1.44882823E+02
 11
-3.68620805E+02
 21
1.45426693E+02
  0
LINE
  8
0
 62
4
 10
-3.66926619E+02
 20
1.37250031E+02
 11
-3.66055963E+02
 21
1.37532924E+02
  0
ARC
  8
0
 62
4
 10
-3.77859210E+02
 20
1.38069521E+02
 40
1.18100000E+01
 50
1.80000000E+01
 51
3.85326990E+01
  0
ARC
  8
0
 62
4
 10
-3.77854427E+02
 20
1.38054802E+02
 40
1.18100000E+01
 50
3.57467301E+02
 51
1.80000000E+01
  0
LINE
  8
0
 62
4
 10
-3.68214175E+02
 20
1.37250031E+02
 11
-3.71845781E+02
 21
1.48426964E+02
  0
LINE
  8
0
 62
4
 10
-3.19499992E+02
 20
1.19020178E+02
 11
-3.18274131E+02
 21
1.22792990E+02
  0
LINE
  8
0
 62
4
 10
-3.18274131E+02
 20
1.22792990E+02
 11
-3.19499992E+02
 21
1.23191297E+02
  0
LINE
  8
0
 62
6
 10
-3.18428640E+02
 20
1.22317462E+02
 11
-3.19499992E+02
 21
1.22665566E+02
  0
LINE
  8
0
 62
6
 10
-3.19355691E+02
 20
1.19464292E+02
 11
-3.19499992E+02
 21
1.19511179E+02
  0
CIRCLE
  8
0
 62
4
 10
-3.28999931E+02
 20
1.27750061E+02
 40
3.60000000E+00
  0
LINE
  8
0
  6
CENTER
 62
6
 10
-3.33344774E+02
 20
1.37152899E+02
 11
-3.49463807E+02
 21
1.42390290E+02
  0
LINE
  8
0
  6
CENTER
 62
6
 10
-3.23345810E+02
 20
1.37584156E+02
 11
-3.48382248E+02
 21
1.45718988E+02
  0
LINE
  8
0
 62
4
 10
-3.42411336E+02
 20
1.37250031E+02
 11
-3.42609947E+02
 21
1.37639827E+02
  0
LINE
  8
0
 62
4
 10
-3.42609947E+02
 20
1.37639827E+02
 11
-3.45368011E+02
 21
1.38535976E+02
  0
LINE
  8
0
 62
4
 10
-3.42154234E+02
 20
1.48426964E+02
 11
-3.32358352E+02
 21
1.45244089E+02
  0
LINE
  8
0
 62
4
 10
-3.43028312E+02
 20
1.37250031E+02
 11
-3.45712731E+02
 21
1.38122251E+02
  0
LINE
  8
0
 62
4
 10
-3.45712731E+02
 20
1.38122251E+02
 11
-3.45996133E+02
 21
1.37250031E+02
  0
LINE
  8
0
  6
CENTER
 62
6
 10
-3.43501601E+02
 20
1.38455274E+02
 11
-3.45355703E+02
 21
1.32748935E+02
  0
LINE
  8
0
  6
CENTER
 62
6
 10
-3.41575482E+02
 20
1.34675053E+02
 11
-3.47281821E+02
 21
1.36529155E+02
  0
LINE
  8
0
 62
4
 10
-3.24713956E+02
 20
1.37250031E+02
 11
-3.28078598E+02
 21
1.43853512E+02
  0
LINE
  8
0
 62
4
 10
-3.28078598E+02
 20
1.43853512E+02
 11
-3.32358352E+02
 21
1.45244089E+02
  0
LINE
  8
0
 62
4
 10
-3.32358352E+02
 20
1.45244089E+02
 11
-3.34955779E+02
 21
1.37250031E+02
  0
LINE
  8
0
 62
4
 10
-3.44719075E+02
 20
1.40533195E+02
 11
-3.45670132E+02
 21
1.40842212E+02
  0
LINE
  8
0
 62
4
 10
-3.42370546E+02
 20
1.47761224E+02
 11
-3.43321603E+02
 21
1.48070241E+02
  0
ARC
  8
0
 62
4
 10
-3.46312965E+02
 20
1.42523128E+02
 40
1.00000000E+00
 50
1.74827510E+02
 51
2.52000000E+02
  0
ARC
  8
0
 62
4
 10
-3.44829683E+02
 20
1.47088200E+02
 40
1.00000000E+00
 50
7.19999999E+01
 51
1.49172490E+02
  0
LINE
  8
0
 62
4
 10
-3.45546525E+02
 20
1.41222634E+02
 11
-3.46621219E+02
 21
1.41571824E+02
  0
LINE
  8
0
 62
4
 10
-3.43445210E+02
 20
1.47689819E+02
 11
-3.44519903E+02
 21
1.48039008E+02
  0
LINE
  8
0
 62
4
 10
-3.45670132E+02
 20
1.40842212E+02
 11
-3.43321603E+02
 21
1.48070241E+02
  0
ARC
  8
0
 62
4
 10
-3.35546986E+02
 20
1.41548559E+02
 40
1.18100000E+01
 50
1.49172490E+02
 51
1.74827510E+02
  0
LINE
  8
0
 62
4
 10
-3.46185396E+02
 20
1.37250031E+02
 11
-3.45080477E+02
 21
1.40650621E+02
  0
LINE
  8
0
 62
4
 10
-3.47073396E+02
 20
1.37250031E+02
 11
-3.47944052E+02
 21
1.37532924E+02
  0
ARC
  8
0
 62
4
 10
-3.36140806E+02
 20
1.38069521E+02
 40
1.18100000E+01
 50
1.59900933E+02
 51
1.62000000E+02
  0
ARC
  8
0
 62
4
 10
-3.36145588E+02
 20
1.38054802E+02
 40
1.18100000E+01
 50
1.62000000E+02
 51
1.82532699E+02
  0
LINE
  8
0
 62
4
 10
-3.45785840E+02
 20
1.37250031E+02
 11
-3.42154234E+02
 21
1.48426964E+02
  0
LINE
  8
0
  6
DASHED
 62
7
 10
-3.50000114E+02
 20
1.36750137E+02
 11
-3.40000023E+02
 21
1.36750137E+02
  0
LINE
  8
0
 62
7
 10
-3.70364266E+02
 20
1.14528120E+02
 11
-3.77726113E+02
 21
1.21889967E+02
  0
LINE
  8
0
 62
7
 10
-3.71778566E+02
 20
8.63860759E+01
 11
-3.79140403E+02
 21
7.90242395E+01
  0
LINE
  8
0
 62
7
 10
-3.58000023E+02
 20
1.33250000E+02
 11
-3.58000023E+02
 21
1.19649750E+02
  0
LINE
  8
0
 62
7
 10
-3.90500053E+02
 20
9.87499695E+01
 11
-3.76899803E+02
 21
9.87499695E+01
  0
LINE
  8
0
 62
7
 10
-3.70364320E+02
 20
8.49718083E+01
 11
-3.77726168E+02
 21
7.76099611E+01
  0
LINE
  8
0
 62
7
 10
-3.71778468E+02
 20
1.13113961E+02
 11
-3.79140316E+02
 21
1.20475808E+02
  0
LINE
  8
0
 62
7
 10
-3.56000023E+02
 20
1.33250015E+02
 11
-3.56000023E+02
 21
1.19649750E+02
  0
LINE
  8
0
 62
7
 10
-3.94000084E+02
 20
6.62499695E+01
 11
-3.94000084E+02
 21
1.33250000E+02
  0
LINE
  8
0
 62
7
 10
-3.90499992E+02
 20
6.27500000E+01
 11
-3.23500023E+02
 21
6.27500000E+01
  0
LINE
  8
0
 62
7
 10
-3.91500084E+02
 20
8.67498779E+01
 11
-3.91500084E+02
 21
1.12750076E+02
  0
LINE
  8
0
 62
7
 10
-3.90499992E+02
 20
1.00749969E+02
 11
-3.76899803E+02
 21
1.00749969E+02
  0
LINE
  8
0
 62
7
 10
-3.58000053E+02
 20
6.62499695E+01
 11
-3.58000053E+02
 21
7.98502502E+01
  0
LINE
  8
0
 62
7
 10
-3.90500053E+02
 20
1.37250031E+02
 11
-3.23500023E+02
 21
1.37250031E+02
  0
LINE
  8
0
 62
7
 10
-3.94500084E+02
 20
6.62499695E+01
 11
-3.94500084E+02
 21
1.33250000E+02
  0
LINE
  8
0
  6
CENTER
 62
2
 10
-3.85000145E+02
 20
6.02516174E+01
 11
-3.85000145E+02
 21
8.27845917E+01
  0
LINE
  8
0
  6
CENTER
 62
2
 10
-3.85000084E+02
 20
1.16520401E+02
 11
-3.85000084E+02
 21
1.39307983E+02
  0
LINE
  8
0
  6
CENTER
 62
2
 10
-3.56999992E+02
 20
1.41217545E+02
 11
-3.56999992E+02
 21
5.87239532E+01
  0
LINE
  8
0
 62
7
 10
-3.43636099E+02
 20
1.14528619E+02
 11
-3.36274283E+02
 21
1.21890433E+02
  0
LINE
  8
0
 62
7
 10
-3.42221886E+02
 20
1.13114405E+02
 11
-3.34860037E+02
 21
1.20476251E+02
  0
LINE
  8
0
 62
7
 10
-3.90500053E+02
 20
1.36750031E+02
 11
-3.23500023E+02
 21
1.36750031E+02
  0
LINE
  8
0
 62
7
 10
-3.22499992E+02
 20
8.67498779E+01
 11
-3.22499992E+02
 21
1.12750076E+02
  0
LINE
  8
0
 62
7
 10
-3.23500023E+02
 20
1.00749985E+02
 11
-3.37100304E+02
 21
1.00749985E+02
  0
LINE
  8
0
 62
7
 10
-3.19499992E+02
 20
6.62500000E+01
 11
-3.19499992E+02
 21
1.33250015E+02
  0
LINE
  8
0
  6
CENTER
 62
2
 10
-3.28999931E+02
 20
1.39435287E+02
 11
-3.28999931E+02
 21
1.16520401E+02
  0
LINE
  8
0
  6
CENTER
 62
2
 10
-3.16232292E+02
 20
9.97500000E+01
 11
-3.99477715E+02
 21
9.97500000E+01
  0
LINE
  8
0
  6
CENTER
 62
2
 10
-3.64999992E+02
 20
1.39435287E+02
 11
-3.64999992E+02
 21
1.27550018E+02
  0
LINE
  8
0
  6
CENTER
 62
2
 10
-3.97045097E+02
 20
1.27750061E+02
 11
-3.74894035E+02
 21
1.27750061E+02
  0
LINE
  8
0
 62
7
 10
-3.56000053E+02
 20
6.62500000E+01
 11
-3.56000053E+02
 21
7.98502502E+01
  0
LINE
  8
0
 62
7
 10
-3.42221706E+02
 20
8.63857693E+01
 11
-3.34859881E+02
 21
7.90239424E+01
  0
LINE
  8
0
 62
7
 10
-3.43636017E+02
 20
8.49715882E+01
 11
-3.36274171E+02
 21
7.76097398E+01
  0
LINE
  8
0
 62
7
 10
-3.19999992E+02
 20
6.62500000E+01
 11
-3.19999992E+02
 21
1.33250015E+02
  0
LINE
  8
0
 62
7
 10
-3.70000114E+02
 20
6.52499924E+01
 11
-3.43999931E+02
 21
6.52499924E+01
  0
LINE
  8
0
 62
7
 10
-3.23500023E+02
 20
9.87500000E+01
 11
-3.37100304E+02
 21
9.87500000E+01
  0
LINE
  8
0
 62
7
 10
-3.90499992E+02
 20
6.22500000E+01
 11
-3.23500023E+02
 21
6.22500000E+01
  0
LINE
  8
0
  6
CENTER
 62
2
 10
-3.16970299E+02
 20
7.17499695E+01
 11
-3.39503258E+02
 21
7.17499695E+01
  0
LINE
  8
0
 62
7
 10
-3.81999992E+02
 20
1.37250031E+02
 11
-3.81999992E+02
 21
1.36750031E+02
  0
LINE
  8
0
 62
7
 10
-3.31999992E+02
 20
1.37250031E+02
 11
-3.31999992E+02
 21
1.36750031E+02
  0
LINE
  8
0
 62
7
 10
-3.81999992E+02
 20
6.27500000E+01
 11
-3.81999992E+02
 21
6.22500000E+01
  0
LINE
  8
0
 62
7
 10
-3.31999992E+02
 20
6.27500000E+01
 11
-3.31999992E+02
 21
6.22500000E+01
  0
LINE
  8
0
 62
7
 10
-3.70000084E+02
 20
1.34250031E+02
 11
-3.43999901E+02
 21
1.34250031E+02
  0
LINE
  8
0
 62
7
 10
-3.74500084E+02
 20
1.29750214E+02
 11
-3.75763634E+02
 21
1.29750214E+02
  0
LINE
  8
0
 62
7
 10
-3.87000267E+02
 20
1.17250061E+02
 11
-3.87000267E+02
 21
1.18513657E+02
  0
LINE
  8
0
 62
7
 10
-3.39499901E+02
 20
1.29750244E+02
 11
-3.38236473E+02
 21
1.29750244E+02
  0
LINE
  8
0
 62
7
 10
-3.26999809E+02
 20
1.17250061E+02
 11
-3.26999809E+02
 21
1.18513794E+02
  0
LINE
  8
0
 62
7
 10
-3.39499931E+02
 20
6.97498093E+01
 11
-3.38236198E+02
 21
6.97498093E+01
  0
LINE
  8
0
 62
7
 10
-3.26999809E+02
 20
8.22498779E+01
 11
-3.26999809E+02
 21
8.09863129E+01
  0
LINE
  8
0
 62
7
 10
-3.87000267E+02
 20
8.22498779E+01
 11
-3.87000267E+02
 21
8.09864655E+01
  0
LINE
  8
0
 62
7
 10
-3.74500114E+02
 20
6.97497940E+01
 11
-3.75763664E+02
 21
6.97497940E+01
  0
LINE
  8
0
  6
CENTER
 62
2
 10
-3.74766685E+02
 20
7.17499695E+01
 11
-3.97045097E+02
 21
7.17499695E+01
  0
LINE
  8
0
  6
CENTER
 62
2
 10
-3.39630547E+02
 20
1.27750061E+02
 11
-3.17097588E+02
 21
1.27750061E+02
  0
LINE
  8
0
  6
CENTER
 62
2
 10
-3.29000023E+02
 20
8.18104782E+01
 11
-3.29000023E+02
 21
6.02541046E+01
  0
CIRCLE
  8
0
 62
7
 10
-3.85000084E+02
 20
1.27750061E+02
 40
6.50000048E+00
  0
ARC
  8
0
 62
7
 10
-3.79847282E+02
 20
1.19768860E+02
 40
1.00000000E+00
 50
4.49999910E+01
 51
1.22846171E+02
  0
ARC
  8
0
 62
7
 10
-3.77018883E+02
 20
1.22597290E+02
 40
1.00000000E+00
 50
1.47153243E+02
 51
2.24999955E+02
  0
CIRCLE
  8
0
 62
7
 10
-3.85000084E+02
 20
7.17499695E+01
 40
6.50000048E+00
  0
ARC
  8
0
 62
7
 10
-3.72485497E+02
 20
1.12407028E+02
 40
1.00000000E+00
 50
3.20738994E+02
 51
4.49999910E+01
  0
ARC
  8
0
 62
7
 10
-3.69657066E+02
 20
1.15235458E+02
 40
1.00000000E+00
 50
2.24999972E+02
 51
3.09260983E+02
  0
ARC
  8
0
 62
7
 10
-3.59000023E+02
 20
1.19649750E+02
 40
1.00000000E+00
 50
2.75739453E+02
 51
3.59999959E+02
  0
ARC
  8
0
 62
7
 10
-3.76899803E+02
 20
9.77500000E+01
 40
1.00000000E+00
 50
5.73948995E+00
 51
9.00000369E+01
  0
ARC
  8
0
 62
7
 10
-3.90500053E+02
 20
9.77500000E+01
 40
1.00000000E+00
 50
9.00000369E+01
 51
1.80000019E+02
  0
ARC
  8
0
 62
7
 10
-3.28999931E+02
 20
1.27750031E+02
 40
8.50000000E+00
 50
1.73823315E+02
 51
2.76176459E+02
  0
ARC
  8
0
 62
7
 10
-3.72485497E+02
 20
8.70929565E+01
 40
1.00000000E+00
 50
3.14999968E+02
 51
3.92609655E+01
  0
ARC
  8
0
 62
7
 10
-3.69657066E+02
 20
8.42645264E+01
 40
1.00000000E+00
 50
5.07389892E+01
 51
1.34999987E+02
  0
ARC
  8
0
 62
7
 10
-3.77018883E+02
 20
7.69026947E+01
 40
1.00000000E+00
 50
1.34999987E+02
 51
2.12846166E+02
  0
ARC
  8
0
 62
7
 10
-3.79847282E+02
 20
7.97311172E+01
 40
1.00000000E+00
 50
2.37153256E+02
 51
3.14999968E+02
  0
ARC
  8
0
 62
7
 10
-3.90500053E+02
 20
1.33250000E+02
 40
3.50000000E+00
 50
9.00000231E+01
 51
1.79999977E+02
  0
ARC
  8
0
 62
7
 10
-3.59000023E+02
 20
1.33250000E+02
 40
1.00000000E+00
 50
3.59999959E+02
 51
8.99999956E+01
  0
ARC
  8
0
 62
7
 10
-3.54999992E+02
 20
1.19649750E+02
 40
1.00000000E+00
 50
1.79999964E+02
 51
2.64260484E+02
  0
ARC
  8
0
 62
7
 10
-3.54999992E+02
 20
1.33250015E+02
 40
1.00000000E+00
 50
8.99999818E+01
 51
1.79999964E+02
  0
ARC
  8
0
 62
7
 10
-3.90500023E+02
 20
6.62499695E+01
 40
3.50000000E+00
 50
1.80000036E+02
 51
2.69999991E+02
  0
ARC
  8
0
 62
7
 10
-3.90500023E+02
 20
1.01750000E+02
 40
1.00000000E+00
 50
1.80000008E+02
 51
2.70000045E+02
  0
ARC
  8
0
 62
7
 10
-3.76899803E+02
 20
1.01750000E+02
 40
1.00000000E+00
 50
2.70000045E+02
 51
3.54260551E+02
  0
ARC
  8
0
 62
7
 10
-3.59000023E+02
 20
7.98502502E+01
 40
1.00000000E+00
 50
3.59999973E+02
 51
8.42604992E+01
  0
ARC
  8
0
 62
7
 10
-3.59000023E+02
 20
6.62499695E+01
 40
1.00000000E+00
 50
2.69999991E+02
 51
3.59999973E+02
  0
ARC
  8
0
 62
7
 10
-3.90500053E+02
 20
1.33250000E+02
 40
4.00000000E+00
 50
9.00000231E+01
 51
1.79999977E+02
  0
ARC
  8
0
 62
7
 10
-3.90500023E+02
 20
6.62499695E+01
 40
4.00000000E+00
 50
1.80000036E+02
 51
2.69999991E+02
  0
CIRCLE
  8
0
 62
7
 10
-3.85000084E+02
 20
7.17499695E+01
 40
6.00000000E+00
  0
CIRCLE
  8
0
 62
7
 10
-3.85000084E+02
 20
1.27750061E+02
 40
6.00000000E+00
  0
CIRCLE
  8
0
 62
7
 10
-3.28999931E+02
 20
1.27750031E+02
 40
6.50000048E+00
  0
ARC
  8
0
 62
7
 10
-3.41514549E+02
 20
1.12407059E+02
 40
1.00000000E+00
 50
1.34999959E+02
 51
2.19260957E+02
  0
ARC
  8
0
 62
7
 10
-3.44342949E+02
 20
1.15235474E+02
 40
1.00000000E+00
 50
2.30738998E+02
 51
3.14999995E+02
  0
ARC
  8
0
 62
7
 10
-3.36981163E+02
 20
1.22597305E+02
 40
1.00000000E+00
 50
3.14999995E+02
 51
3.28461612E+01
  0
ARC
  8
0
 62
7
 10
-3.34152702E+02
 20
1.19768890E+02
 40
1.00000000E+00
 50
5.71532472E+01
 51
1.34999959E+02
  0
ARC
  8
0
 62
7
 10
-3.23500023E+02
 20
1.33250015E+02
 40
3.50000000E+00
 50
0.00000000E+00
 51
8.99999818E+01
  0
ARC
  8
0
 62
7
 10
-3.23500023E+02
 20
1.01749992E+02
 40
1.00000000E+00
 50
2.69999963E+02
 51
0.00000000E+00
  0
ARC
  8
0
 62
7
 10
-3.37100304E+02
 20
1.01749992E+02
 40
1.00000000E+00
 50
1.85739458E+02
 51
2.69999963E+02
  0
ARC
  8
0
 62
7
 10
-3.23500023E+02
 20
1.33250015E+02
 40
4.00000000E+00
 50
0.00000000E+00
 51
8.99999818E+01
  0
CIRCLE
  8
0
 62
7
 10
-3.28999931E+02
 20
1.27750031E+02
 40
6.00000000E+00
  0
ARC
  8
0
 62
7
 10
-3.39499901E+02
 20
1.33250153E+02
 40
3.50000000E+00
 50
1.80001511E+02
 51
2.70000018E+02
  0
ARC
  8
0
 62
7
 10
-3.43999901E+02
 20
1.33250015E+02
 40
1.00000000E+00
 50
1.77584919E-03
 51
8.99999549E+01
  0
ARC
  8
0
 62
7
 10
-3.38444817E+02
 20
1.28772171E+02
 40
1.00000000E+00
 50
3.53822790E+02
 51
8.43256382E+01
  0
ARC
  8
0
 62
7
 10
-3.23499870E+02
 20
1.17250061E+02
 40
3.50000000E+00
 50
1.79999977E+02
 51
2.69999017E+02
  0
ARC
  8
0
 62
7
 10
-3.27977867E+02
 20
1.18305191E+02
 40
1.00000000E+00
 50
5.67452116E+00
 51
9.61763036E+01
  0
ARC
  8
0
 62
7
 10
-3.23500023E+02
 20
1.12750076E+02
 40
1.00000000E+00
 50
3.59999986E+02
 51
8.99982469E+01
  0
ARC
  8
0
 62
7
 10
-3.90500053E+02
 20
8.67498779E+01
 40
1.00000000E+00
 50
1.80000036E+02
 51
2.69998235E+02
  0
ARC
  8
0
 62
7
 10
-3.90500175E+02
 20
8.22498703E+01
 40
3.50000000E+00
 50
0.00000000E+00
 51
8.99984996E+01
  0
ARC
  8
0
 62
7
 10
-3.86022209E+02
 20
8.11948013E+01
 40
1.00000000E+00
 50
1.85674380E+02
 51
2.76177221E+02
  0
ARC
  8
0
 62
7
 10
-3.85000084E+02
 20
7.17499313E+01
 40
8.50000000E+00
 50
3.53823551E+02
 51
9.61766726E+01
  0
ARC
  8
0
 62
7
 10
-3.75555199E+02
 20
1.28772171E+02
 40
1.00000000E+00
 50
9.56745100E+01
 51
1.86176313E+02
  0
ARC
  8
0
 62
7
 10
-3.74500084E+02
 20
1.33250122E+02
 40
3.50000000E+00
 50
2.70000018E+02
 51
3.59999001E+02
  0
ARC
  8
0
 62
7
 10
-3.70000084E+02
 20
1.33250015E+02
 40
1.00000000E+00
 50
8.99999818E+01
 51
1.79998270E+02
  0
ARC
  8
0
 62
7
 10
-3.70000145E+02
 20
6.62499695E+01
 40
1.00000000E+00
 50
1.80001785E+02
 51
2.69999963E+02
  0
ARC
  8
0
 62
7
 10
-3.74500114E+02
 20
6.62498474E+01
 40
3.50000000E+00
 50
1.49581143E-03
 51
8.99999818E+01
  0
ARC
  8
0
 62
7
 10
-3.75555260E+02
 20
7.07278137E+01
 40
1.00000000E+00
 50
1.73822768E+02
 51
2.64325616E+02
  0
ARC
  8
0
 62
7
 10
-3.85000084E+02
 20
1.27750031E+02
 40
8.50000000E+00
 50
2.63823553E+02
 51
6.17667669E+00
  0
ARC
  8
0
 62
7
 10
-3.86022209E+02
 20
1.18305191E+02
 40
1.00000000E+00
 50
8.38236876E+01
 51
1.74325470E+02
  0
ARC
  8
0
 62
7
 10
-3.90500145E+02
 20
1.17250061E+02
 40
3.50000000E+00
 50
2.70001002E+02
 51
0.00000000E+00
  0
ARC
  8
0
 62
7
 10
-3.90500053E+02
 20
1.12750076E+02
 40
1.00000000E+00
 50
9.00017305E+01
 51
1.80000005E+02
  0
ARC
  8
0
 62
7
 10
-3.39499962E+02
 20
6.62498856E+01
 40
3.50000000E+00
 50
8.99999818E+01
 51
1.79998994E+02
  0
ARC
  8
0
 62
7
 10
-3.43999931E+02
 20
6.62499695E+01
 40
1.00000000E+00
 50
2.70000018E+02
 51
3.59998251E+02
  0
ARC
  8
0
 62
7
 10
-3.54999992E+02
 20
6.62500000E+01
 40
1.00000000E+00
 50
1.79999951E+02
 51
2.70000001E+02
  0
ARC
  8
0
 62
7
 10
-3.54999992E+02
 20
7.98502502E+01
 40
1.00000000E+00
 50
9.57394445E+01
 51
1.79999951E+02
  0
CIRCLE
  8
0
 62
7
 10
-3.56999992E+02
 20
9.97500000E+01
 40
1.75294495E+01
  0
CIRCLE
  8
0
 62
7
 10
-3.56999992E+02
 20
9.97500000E+01
 40
1.90000000E+01
  0
CIRCLE
  8
0
 62
7
 10
-3.29000023E+02
 20
7.17499313E+01
 40
6.50000048E+00
  0
ARC
  8
0
 62
7
 10
-3.44342949E+02
 20
8.42645416E+01
 40
1.00000000E+00
 50
4.49999637E+01
 51
1.29260961E+02
  0
ARC
  8
0
 62
7
 10
-3.41514549E+02
 20
8.70929718E+01
 40
1.00000000E+00
 50
1.40738985E+02
 51
2.24999982E+02
  0
ARC
  8
0
 62
7
 10
-3.34152702E+02
 20
7.97311401E+01
 40
1.00000000E+00
 50
2.25000000E+02
 51
3.02846179E+02
  0
ARC
  8
0
 62
7
 10
-3.36981163E+02
 20
7.69027100E+01
 40
1.00000000E+00
 50
3.27153252E+02
 51
4.49999637E+01
  0
ARC
  8
0
 62
7
 10
-3.23500023E+02
 20
6.62500000E+01
 40
3.50000000E+00
 50
2.70000018E+02
 51
3.59999986E+02
  0
ARC
  8
0
 62
7
 10
-3.37100304E+02
 20
9.77500000E+01
 40
1.00000000E+00
 50
8.99999681E+01
 51
1.74260502E+02
  0
ARC
  8
0
 62
7
 10
-3.23500023E+02
 20
9.77500000E+01
 40
1.00000000E+00
 50
3.59999986E+02
 51
8.99999681E+01
  0
ARC
  8
0
 62
7
 10
-3.23500023E+02
 20
6.62500000E+01
 40
4.00000000E+00
 50
2.70000018E+02
 51
3.59999986E+02
  0
CIRCLE
  8
0
 62
7
 10
-3.29000023E+02
 20
7.17499313E+01
 40
6.00000000E+00
  0
CIRCLE
  8
0
 62
7
 10
-3.56999992E+02
 20
9.97500000E+01
 40
1.70000000E+01
  0
ARC
  8
0
 62
7
 10
-3.23500023E+02
 20
8.67498779E+01
 40
1.00000000E+00
 50
2.70001780E+02
 51
3.59999959E+02
  0
ARC
  8
0
 62
7
 10
-3.23499870E+02
 20
8.22498703E+01
 40
3.50000000E+00
 50
9.00014916E+01
 51
1.79999964E+02
  0
ARC
  8
0
 62
7
 10
-3.27977867E+02
 20
8.11948013E+01
 40
1.00000000E+00
 50
2.63822795E+02
 51
3.54325643E+02
  0
ARC
  8
0
 62
7
 10
-3.29000023E+02
 20
7.17499313E+01
 40
8.50000000E+00
 50
8.38233192E+01
 51
1.86176449E+02
  0
ARC
  8
0
 62
7
 10
-3.38444817E+02
 20
7.07278137E+01
 40
1.00000000E+00
 50
2.75674525E+02
 51
6.17630782E+00
  0
CIRCLE
  8
0
 62
2
 10
-3.85000084E+02
 20
1.27750061E+02
 40
4.00000000E+00
  0
CIRCLE
  8
0
 62
2
 10
-3.28999931E+02
 20
1.27750061E+02
 40
4.00000000E+00
  0
CIRCLE
  8
0
 62
2
 10
-3.29000023E+02
 20
7.17499695E+01
 40
4.00000000E+00
  0
CIRCLE
  8
0
 62
2
 10
-3.85000145E+02
 20
7.17499695E+01
 40
4.00000000E+00
  0
CIRCLE
  8
0
 62
7
 10
-3.85000145E+02
 20
7.17499695E+01
 40
3.32000017E+00
  0
CIRCLE
  8
0
 62
7
 10
-3.85000084E+02
 20
1.27750061E+02
 40
3.32000017E+00
  0
CIRCLE
  8
0
 62
7
 10
-3.28999931E+02
 20
1.27750061E+02
 40
3.32000017E+00
  0
CIRCLE
  8
0
 62
7
 10
-3.29000023E+02
 20
7.17499695E+01
 40
3.32000017E+00
  0
CIRCLE
  8
0
 62
7
 10
-3.56999992E+02
 20
9.97500000E+01
 40
8.99999237E+00
  0
CIRCLE
  8
0
 62
2
 10
-3.56999992E+02
 20
9.97500000E+01
 40
8.18000031E+00
  0
CIRCLE
  8
0
 62
7
 10
-3.56999992E+02
 20
9.97500000E+01
 40
7.49999237E+00
  0
CIRCLE
  8
0
 62
4
 10
2.14999916E+02
 20
1.27750061E+02
 40
3.60000000E+00
  0
LINE
  8
0
 62
4
 10
2.04274116E+02
 20
1.22792990E+02
 11
2.05499916E+02
 21
1.23191277E+02
  0
LINE
  8
0
 62
4
 10
2.05499916E+02
 20
1.19020366E+02
 11
2.04274116E+02
 21
1.22792990E+02
  0
LINE
  8
0
 62
6
 10
2.04428625E+02
 20
1.22317462E+02
 11
2.05499916E+02
 21
1.22665546E+02
  0
LINE
  8
0
 62
6
 10
2.05355676E+02
 20
1.19464292E+02
 11
2.05499916E+02
 21
1.19511159E+02
  0
LINE
  8
0
  6
CENTER
 62
6
 10
2.27575467E+02
 20
1.34675053E+02
 11
2.33281806E+02
 21
1.36529155E+02
  0
LINE
  8
0
  6
CENTER
 62
6
 10
2.29501586E+02
 20
1.38455274E+02
 11
2.31355688E+02
 21
1.32748935E+02
  0
LINE
  8
0
 62
4
 10
2.31712716E+02
 20
1.38122251E+02
 11
2.31996117E+02
 21
1.37250031E+02
  0
LINE
  8
0
 62
4
 10
2.29028296E+02
 20
1.37250031E+02
 11
2.31712716E+02
 21
1.38122251E+02
  0
LINE
  8
0
 62
4
 10
2.31712716E+02
 20
1.38122251E+02
 11
2.31268297E+02
 21
1.37250031E+02
  0
LINE
  8
0
 62
4
 10
2.28154219E+02
 20
1.48426964E+02
 11
2.18358337E+02
 21
1.45244089E+02
  0
LINE
  8
0
 62
4
 10
2.28609932E+02
 20
1.37639827E+02
 11
2.31367996E+02
 21
1.38535976E+02
  0
LINE
  8
0
 62
4
 10
2.28411321E+02
 20
1.37250031E+02
 11
2.28609932E+02
 21
1.37639827E+02
  0
LINE
  8
0
  6
CENTER
 62
6
 10
2.09345795E+02
 20
1.37584156E+02
 11
2.34740850E+02
 21
1.45835510E+02
  0
LINE
  8
0
  6
CENTER
 62
6
 10
2.19344759E+02
 20
1.37152899E+02
 11
2.35822410E+02
 21
1.42506812E+02
  0
LINE
  8
0
 62
4
 10
2.14078583E+02
 20
1.43853512E+02
 11
2.18358337E+02
 21
1.45244089E+02
  0
LINE
  8
0
 62
4
 10
2.20955764E+02
 20
1.37250031E+02
 11
2.18358337E+02
 21
1.45244089E+02
  0
LINE
  8
0
 62
4
 10
2.10713941E+02
 20
1.37250031E+02
 11
2.14078583E+02
 21
1.43853512E+02
  0
LINE
  8
0
 62
4
 10
2.28370531E+02
 20
1.47761224E+02
 11
2.29321588E+02
 21
1.48070241E+02
  0
ARC
  8
0
 62
4
 10
2.32312950E+02
 20
1.42523128E+02
 40
1.00000000E+00
 50
3.36723662E+02
 51
5.17248996E+00
  0
ARC
  8
0
 62
4
 10
2.30829668E+02
 20
1.47088200E+02
 40
1.00000000E+00
 50
3.08275100E+01
 51
1.08000000E+02
  0
ARC
  8
0
 62
4
 10
2.21546970E+02
 20
1.41548559E+02
 40
1.18100000E+01
 50
5.17248996E+00
 51
3.08275100E+01
  0
LINE
  8
0
 62
4
 10
2.29445194E+02
 20
1.47689819E+02
 11
2.30519888E+02
 21
1.48039008E+02
  0
LINE
  8
0
 62
4
 10
2.30294991E+02
 20
1.45074413E+02
 11
2.29321588E+02
 21
1.48070241E+02
  0
LINE
  8
0
 62
4
 10
2.32185381E+02
 20
1.37250031E+02
 11
2.29705336E+02
 21
1.44882823E+02
  0
LINE
  8
0
 62
4
 10
2.29390287E+02
 20
1.44622738E+02
 11
2.29751689E+02
 21
1.44740164E+02
  0
LINE
  8
0
 62
4
 10
2.29705336E+02
 20
1.44882823E+02
 11
2.31379195E+02
 21
1.45426693E+02
  0
LINE
  8
0
 62
4
 10
2.33073381E+02
 20
1.37250031E+02
 11
2.33944037E+02
 21
1.37532924E+02
  0
ARC
  8
0
 62
4
 10
2.22140790E+02
 20
1.38069521E+02
 40
1.18100000E+01
 50
1.80000000E+01
 51
3.85326990E+01
  0
ARC
  8
0
 62
4
 10
2.22145573E+02
 20
1.38054802E+02
 40
1.18100000E+01
 50
3.57467301E+02
 51
1.80000000E+01
  0
LINE
  8
0
 62
4
 10
2.31785825E+02
 20
1.37250031E+02
 11
2.28154219E+02
 21
1.48426964E+02
  0
LINE
  8
0
 62
4
 10
2.80500008E+02
 20
1.19020178E+02
 11
2.81725869E+02
 21
1.22792990E+02
  0
LINE
  8
0
 62
4
 10
2.81725869E+02
 20
1.22792990E+02
 11
2.80500008E+02
 21
1.23191297E+02
  0
LINE
  8
0
 62
6
 10
2.81571360E+02
 20
1.22317462E+02
 11
2.80500008E+02
 21
1.22665566E+02
  0
LINE
  8
0
 62
6
 10
2.80644309E+02
 20
1.19464292E+02
 11
2.80500008E+02
 21
1.19511179E+02
  0
CIRCLE
  8
0
 62
4
 10
2.71000069E+02
 20
1.27750061E+02
 40
3.60000000E+00
  0
LINE
  8
0
  6
CENTER
 62
6
 10
2.66655226E+02
 20
1.37152899E+02
 11
2.50536193E+02
 21
1.42390290E+02
  0
LINE
  8
0
  6
CENTER
 62
6
 10
2.76654190E+02
 20
1.37584156E+02
 11
2.51617752E+02
 21
1.45718988E+02
  0
LINE
  8
0
 62
4
 10
2.57588664E+02
 20
1.37250031E+02
 11
2.57390053E+02
 21
1.37639827E+02
  0
LINE
  8
0
 62
4
 10
2.57390053E+02
 20
1.37639827E+02
 11
2.54631989E+02
 21
1.38535976E+02
  0
LINE
  8
0
 62
4
 10
2.57845766E+02
 20
1.48426964E+02
 11
2.67641648E+02
 21
1.45244089E+02
  0
LINE
  8
0
 62
4
 10
2.56971688E+02
 20
1.37250031E+02
 11
2.54287269E+02
 21
1.38122251E+02
  0
LINE
  8
0
 62
4
 10
2.54287269E+02
 20
1.38122251E+02
 11
2.54003867E+02
 21
1.37250031E+02
  0
LINE
  8
0
  6
CENTER
 62
6
 10
2.56498399E+02
 20
1.38455274E+02
 11
2.54644297E+02
 21
1.32748935E+02
  0
LINE
  8
0
  6
CENTER
 62
6
 10
2.58424518E+02
 20
1.34675053E+02
 11
2.52718179E+02
 21
1.36529155E+02
  0
LINE
  8
0
 62
4
 10
2.75286044E+02
 20
1.37250031E+02
 11
2.71921402E+02
 21
1.43853512E+02
  0
LINE
  8
0
 62
4
 10
2.71921402E+02
 20
1.43853512E+02
 11
2.67641648E+02
 21
1.45244089E+02
  0
LINE
  8
0
 62
4
 10
2.67641648E+02
 20
1.45244089E+02
 11
2.65044221E+02
 21
1.37250031E+02
  0
LINE
  8
0
 62
4
 10
2.55280925E+02
 20
1.40533195E+02
 11
2.54329868E+02
 21
1.40842212E+02
  0
LINE
  8
0
 62
4
 10
2.57629454E+02
 20
1.47761224E+02
 11
2.56678397E+02
 21
1.48070241E+02
  0
ARC
  8
0
 62
4
 10
2.53687035E+02
 20
1.42523128E+02
 40
1.00000000E+00
 50
1.74827510E+02
 51
2.52000000E+02
  0
ARC
  8
0
 62
4
 10
2.55170317E+02
 20
1.47088200E+02
 40
1.00000000E+00
 50
7.19999999E+01
 51
1.49172490E+02
  0
LINE
  8
0
 62
4
 10
2.54453475E+02
 20
1.41222634E+02
 11
2.53378781E+02
 21
1.41571824E+02
  0
LINE
  8
0
 62
4
 10
2.56554790E+02
 20
1.47689819E+02
 11
2.55480097E+02
 21
1.48039008E+02
  0
LINE
  8
0
 62
4
 10
2.54329868E+02
 20
1.40842212E+02
 11
2.56678397E+02
 21
1.48070241E+02
  0
ARC
  8
0
 62
4
 10
2.64453014E+02
 20
1.41548559E+02
 40
1.18100000E+01
 50
1.49172490E+02
 51
1.74827510E+02
  0
LINE
  8
0
 62
4
 10
2.53814604E+02
 20
1.37250031E+02
 11
2.54919523E+02
 21
1.40650621E+02
  0
LINE
  8
0
 62
4
 10
2.52926604E+02
 20
1.37250031E+02
 11
2.52055948E+02
 21
1.37532924E+02
  0
ARC
  8
0
 62
4
 10
2.63859194E+02
 20
1.38069521E+02
 40
1.18100000E+01
 50
1.59900933E+02
 51
1.62000000E+02
  0
ARC
  8
0
 62
4
 10
2.63854412E+02
 20
1.38054802E+02
 40
1.18100000E+01
 50
1.62000000E+02
 51
1.82532699E+02
  0
LINE
  8
0
 62
4
 10
2.54214160E+02
 20
1.37250031E+02
 11
2.57845766E+02
 21
1.48426964E+02
  0
LINE
  8
0
  6
DASHED
 62
7
 10
2.36000116E+02
 20
1.36750137E+02
 11
2.26000040E+02
 21
1.36750137E+02
  0
LINE
  8
0
 62
7
 10
2.09500025E+02
 20
1.36750031E+02
 11
2.76500072E+02
 21
1.36750031E+02
  0
LINE
  8
0
 62
7
 10
2.56364255E+02
 20
1.14528112E+02
 11
2.63726103E+02
 21
1.21889960E+02
  0
LINE
  8
0
 62
7
 10
2.57778555E+02
 20
8.63860730E+01
 11
2.65140391E+02
 21
7.90242379E+01
  0
LINE
  8
0
 62
7
 10
2.80000095E+02
 20
6.62499695E+01
 11
2.80000095E+02
 21
1.33250000E+02
  0
LINE
  8
0
 62
7
 10
2.44000031E+02
 20
1.33250000E+02
 11
2.44000031E+02
 21
1.19649750E+02
  0
LINE
  8
0
 62
7
 10
2.76500072E+02
 20
9.87499695E+01
 11
2.62899796E+02
 21
9.87499695E+01
  0
LINE
  8
0
 62
7
 10
2.56364323E+02
 20
8.49718134E+01
 11
2.63726172E+02
 21
7.76099649E+01
  0
LINE
  8
0
 62
7
 10
2.57778466E+02
 20
1.13113966E+02
 11
2.65140313E+02
 21
1.20475813E+02
  0
LINE
  8
0
 62
7
 10
2.42000023E+02
 20
1.33250015E+02
 11
2.42000023E+02
 21
1.19649750E+02
  0
LINE
  8
0
 62
7
 10
2.29999941E+02
 20
6.52499924E+01
 11
2.56000114E+02
 21
6.52499924E+01
  0
LINE
  8
0
 62
7
 10
2.77500095E+02
 20
8.67498779E+01
 11
2.77500095E+02
 21
1.12750076E+02
  0
LINE
  8
0
 62
7
 10
2.76499996E+02
 20
1.00749969E+02
 11
2.62899796E+02
 21
1.00749969E+02
  0
LINE
  8
0
 62
7
 10
2.44000069E+02
 20
6.62499695E+01
 11
2.44000069E+02
 21
7.98502502E+01
  0
LINE
  8
0
 62
7
 10
2.80500088E+02
 20
6.62499695E+01
 11
2.80500088E+02
 21
1.33250000E+02
  0
LINE
  8
0
 62
7
 10
2.09500025E+02
 20
6.22500000E+01
 11
2.76499996E+02
 21
6.22500000E+01
  0
LINE
  8
0
  6
CENTER
 62
2
 10
2.71000153E+02
 20
6.02516174E+01
 11
2.71000153E+02
 21
8.27845917E+01
  0
LINE
  8
0
  6
CENTER
 62
2
 10
2.71000076E+02
 20
1.16520401E+02
 11
2.71000076E+02
 21
1.39307983E+02
  0
LINE
  8
0
  6
CENTER
 62
2
 10
2.43000008E+02
 20
1.41217545E+02
 11
2.43000008E+02
 21
5.87239532E+01
  0
LINE
  8
0
 62
7
 10
2.29636094E+02
 20
1.14528621E+02
 11
2.22274272E+02
 21
1.21890440E+02
  0
LINE
  8
0
 62
7
 10
2.28221875E+02
 20
1.13114401E+02
 11
2.20860026E+02
 21
1.20476247E+02
  0
LINE
  8
0
 62
7
 10
2.09500025E+02
 20
1.00749985E+02
 11
2.23100298E+02
 21
1.00749985E+02
  0
LINE
  8
0
  6
CENTER
 62
2
 10
2.14999941E+02
 20
1.39435287E+02
 11
2.14999941E+02
 21
1.16520401E+02
  0
LINE
  8
0
 62
7
 10
2.06000002E+02
 20
6.62500000E+01
 11
2.06000002E+02
 21
1.33250015E+02
  0
LINE
  8
0
  6
CENTER
 62
2
 10
2.02232302E+02
 20
9.97500000E+01
 11
2.85477734E+02
 21
9.97500000E+01
  0
LINE
  8
0
  6
CENTER
 62
2
 10
2.51000000E+02
 20
1.39435287E+02
 11
2.51000000E+02
 21
1.27550018E+02
  0
LINE
  8
0
  6
CENTER
 62
2
 10
2.83045101E+02
 20
1.27750061E+02
 11
2.60894028E+02
 21
1.27750061E+02
  0
LINE
  8
0
 62
7
 10
2.42000061E+02
 20
6.62500000E+01
 11
2.42000061E+02
 21
7.98502502E+01
  0
LINE
  8
0
 62
7
 10
2.28221709E+02
 20
8.63857685E+01
 11
2.20859890E+02
 21
7.90239471E+01
  0
LINE
  8
0
 62
7
 10
2.29636009E+02
 20
8.49715767E+01
 11
2.22274163E+02
 21
7.76097282E+01
  0
LINE
  8
0
 62
7
 10
2.09500025E+02
 20
6.27500000E+01
 11
2.76499996E+02
 21
6.27500000E+01
  0
LINE
  8
0
 62
7
 10
2.08500002E+02
 20
8.67498779E+01
 11
2.08500002E+02
 21
1.12750076E+02
  0
LINE
  8
0
 62
7
 10
2.09500025E+02
 20
9.87500000E+01
 11
2.23100298E+02
 21
9.87500000E+01
  0
LINE
  8
0
 62
7
 10
2.05500010E+02
 20
6.62500000E+01
 11
2.05500010E+02
 21
1.33250015E+02
  0
LINE
  8
0
  6
CENTER
 62
2
 10
2.02970293E+02
 20
7.17499695E+01
 11
2.25503252E+02
 21
7.17499695E+01
  0
LINE
  8
0
 62
7
 10
2.68000008E+02
 20
1.37250031E+02
 11
2.68000008E+02
 21
1.36750031E+02
  0
LINE
  8
0
 62
7
 10
2.18000010E+02
 20
1.37250031E+02
 11
2.18000010E+02
 21
1.36750031E+02
  0
LINE
  8
0
 62
7
 10
2.68000008E+02
 20
6.27500000E+01
 11
2.68000008E+02
 21
6.22500000E+01
  0
LINE
  8
0
 62
7
 10
2.18000010E+02
 20
6.27500000E+01
 11
2.18000010E+02
 21
6.22500000E+01
  0
LINE
  8
0
 62
7
 10
2.29999903E+02
 20
1.34250031E+02
 11
2.56000076E+02
 21
1.34250031E+02
  0
LINE
  8
0
 62
7
 10
2.09500025E+02
 20
1.37250031E+02
 11
2.76500072E+02
 21
1.37250031E+02
  0
LINE
  8
0
 62
7
 10
2.60500084E+02
 20
1.29750214E+02
 11
2.61763626E+02
 21
1.29750214E+02
  0
LINE
  8
0
 62
7
 10
2.73000278E+02
 20
1.17250061E+02
 11
2.73000278E+02
 21
1.18513657E+02
  0
LINE
  8
0
 62
7
 10
2.25499895E+02
 20
1.29750244E+02
 11
2.24236467E+02
 21
1.29750244E+02
  0
LINE
  8
0
 62
7
 10
2.12999819E+02
 20
1.17250061E+02
 11
2.12999819E+02
 21
1.18513794E+02
  0
LINE
  8
0
 62
7
 10
2.25499933E+02
 20
6.97498093E+01
 11
2.24236200E+02
 21
6.97498093E+01
  0
LINE
  8
0
 62
7
 10
2.12999819E+02
 20
8.22498779E+01
 11
2.12999819E+02
 21
8.09863129E+01
  0
LINE
  8
0
 62
7
 10
2.73000278E+02
 20
8.22498779E+01
 11
2.73000278E+02
 21
8.09864655E+01
  0
LINE
  8
0
 62
7
 10
2.60500122E+02
 20
6.97497940E+01
 11
2.61763664E+02
 21
6.97497940E+01
  0
LINE
  8
0
  6
CENTER
 62
2
 10
2.60766693E+02
 20
7.17499695E+01
 11
2.83045101E+02
 21
7.17499695E+01
  0
LINE
  8
0
  6
CENTER
 62
2
 10
2.25630548E+02
 20
1.27750061E+02
 11
2.03097589E+02
 21
1.27750061E+02
  0
LINE
  8
0
  6
CENTER
 62
2
 10
2.15000017E+02
 20
8.18104782E+01
 11
2.15000017E+02
 21
6.02541046E+01
  0
LINE
  8
0
 62
7
 10
2.71000075E+02
 20
1.32368872E+02
 11
2.67000073E+02
 21
1.30059470E+02
  0
LINE
  8
0
 62
7
 10
2.67000076E+02
 20
1.30059464E+02
 11
2.67000076E+02
 21
1.25440674E+02
  0
LINE
  8
0
 62
7
 10
2.71000076E+02
 20
1.23131262E+02
 11
2.67000077E+02
 21
1.25440663E+02
  0
LINE
  8
0
 62
7
 10
2.75000075E+02
 20
1.25440669E+02
 11
2.71000073E+02
 21
1.23131267E+02
  0
LINE
  8
0
 62
7
 10
2.75000080E+02
 20
1.30059464E+02
 11
2.75000080E+02
 21
1.25440674E+02
  0
LINE
  8
0
 62
7
 10
2.71000077E+02
 20
1.32368866E+02
 11
2.75000076E+02
 21
1.30059466E+02
  0
LINE
  8
0
 62
7
 10
2.71000151E+02
 20
7.63687729E+01
 11
2.67000149E+02
 21
7.40593705E+01
  0
LINE
  8
0
 62
7
 10
2.67000153E+02
 20
7.40593719E+01
 11
2.67000153E+02
 21
6.94405670E+01
  0
LINE
  8
0
 62
7
 10
2.71000154E+02
 20
6.71311670E+01
 11
2.67000154E+02
 21
6.94405681E+01
  0
LINE
  8
0
 62
7
 10
2.75000151E+02
 20
6.94405698E+01
 11
2.71000149E+02
 21
6.71311674E+01
  0
LINE
  8
0
 62
7
 10
2.75000156E+02
 20
7.40593719E+01
 11
2.75000156E+02
 21
6.94405670E+01
  0
LINE
  8
0
 62
7
 10
2.71000154E+02
 20
7.63687712E+01
 11
2.75000154E+02
 21
7.40593701E+01
  0
LINE
  8
0
 62
7
 10
2.15000018E+02
 20
7.63687702E+01
 11
2.11000016E+02
 21
7.40593678E+01
  0
LINE
  8
0
 62
7
 10
2.11000017E+02
 20
7.40593719E+01
 11
2.11000017E+02
 21
6.94405670E+01
  0
LINE
  8
0
 62
7
 10
2.15000016E+02
 20
6.71311679E+01
 11
2.11000017E+02
 21
6.94405684E+01
  0
LINE
  8
0
 62
7
 10
2.19000018E+02
 20
6.94405671E+01
 11
2.15000016E+02
 21
6.71311646E+01
  0
LINE
  8
0
 62
7
 10
2.19000017E+02
 20
7.40593719E+01
 11
2.19000017E+02
 21
6.94405670E+01
  0
LINE
  8
0
 62
7
 10
2.15000017E+02
 20
7.63687715E+01
 11
2.19000016E+02
 21
7.40593710E+01
  0
LINE
  8
0
 62
7
 10
2.14999941E+02
 20
1.32368864E+02
 11
2.10999939E+02
 21
1.30059462E+02
  0
LINE
  8
0
 62
7
 10
2.10999941E+02
 20
1.30059464E+02
 11
2.10999941E+02
 21
1.25440674E+02
  0
LINE
  8
0
 62
7
 10
2.14999940E+02
 20
1.23131263E+02
 11
2.10999937E+02
 21
1.25440665E+02
  0
LINE
  8
0
 62
7
 10
2.18999937E+02
 20
1.25440668E+02
 11
2.14999935E+02
 21
1.23131266E+02
  0
LINE
  8
0
 62
7
 10
2.18999941E+02
 20
1.30059464E+02
 11
2.18999941E+02
 21
1.25440674E+02
  0
LINE
  8
0
 62
7
 10
2.14999941E+02
 20
1.32368875E+02
 11
2.18999944E+02
 21
1.30059473E+02
  0
ARC
  8
0
 62
7
 10
2.65847298E+02
 20
1.19768860E+02
 40
1.00000000E+00
 50
5.71538311E+01
 51
1.35000014E+02
  0
ARC
  8
0
 62
7
 10
2.63018890E+02
 20
1.22597290E+02
 40
1.00000000E+00
 50
3.15000047E+02
 51
3.28467588E+01
  0
CIRCLE
  8
0
 62
7
 10
2.71000076E+02
 20
7.17499695E+01
 40
6.50000048E+00
  0
ARC
  8
0
 62
7
 10
2.58485504E+02
 20
1.12407028E+02
 40
1.00000000E+00
 50
1.35000014E+02
 51
2.19261011E+02
  0
ARC
  8
0
 62
7
 10
2.55657059E+02
 20
1.15235458E+02
 40
1.00000000E+00
 50
2.30739011E+02
 51
3.15000026E+02
  0
ARC
  8
0
 62
7
 10
2.45000015E+02
 20
1.19649750E+02
 40
1.00000000E+00
 50
1.80000036E+02
 51
2.64260549E+02
  0
ARC
  8
0
 62
7
 10
2.62899796E+02
 20
9.77500000E+01
 40
1.00000000E+00
 50
8.99999618E+01
 51
1.74260515E+02
  0
ARC
  8
0
 62
7
 10
2.76500072E+02
 20
9.77500000E+01
 40
1.00000000E+00
 50
3.59999981E+02
 51
8.99999618E+01
  0
ARC
  8
0
 62
7
 10
2.14999941E+02
 20
1.27750031E+02
 40
8.50000000E+00
 50
2.63823540E+02
 51
6.17668522E+00
  0
ARC
  8
0
 62
7
 10
2.58485504E+02
 20
8.70929565E+01
 40
1.00000000E+00
 50
1.40739039E+02
 51
2.25000037E+02
  0
ARC
  8
0
 62
7
 10
2.55657059E+02
 20
8.42645264E+01
 40
1.00000000E+00
 50
4.50000149E+01
 51
1.29261016E+02
  0
ARC
  8
0
 62
7
 10
2.63018890E+02
 20
7.69026947E+01
 40
1.00000000E+00
 50
3.27153835E+02
 51
4.50000149E+01
  0
ARC
  8
0
 62
7
 10
2.65847298E+02
 20
7.97311172E+01
 40
1.00000000E+00
 50
2.25000027E+02
 51
3.02846743E+02
  0
ARC
  8
0
 62
7
 10
2.76500072E+02
 20
1.33250000E+02
 40
3.50000000E+00
 50
2.23117997E-05
 51
8.99999750E+01
  0
ARC
  8
0
 62
7
 10
2.45000015E+02
 20
1.33250000E+02
 40
1.00000000E+00
 50
9.00000025E+01
 51
1.80000046E+02
  0
ARC
  8
0
 62
7
 10
2.41000000E+02
 20
1.19649750E+02
 40
1.00000000E+00
 50
2.75739515E+02
 51
3.59721781E-05
  0
ARC
  8
0
 62
7
 10
2.41000000E+02
 20
1.33250015E+02
 40
1.00000000E+00
 50
3.59721781E-05
 51
9.00000162E+01
  0
ARC
  8
0
 62
7
 10
2.76500034E+02
 20
6.62499695E+01
 40
3.50000000E+00
 50
2.70000011E+02
 51
3.59999964E+02
  0
ARC
  8
0
 62
7
 10
2.76500034E+02
 20
1.01750000E+02
 40
1.00000000E+00
 50
2.69999956E+02
 51
3.59999992E+02
  0
ARC
  8
0
 62
7
 10
2.62899796E+02
 20
1.01750000E+02
 40
1.00000000E+00
 50
1.85739444E+02
 51
2.69999956E+02
  0
ARC
  8
0
 62
7
 10
2.45000015E+02
 20
7.98502502E+01
 40
1.00000000E+00
 50
9.57394995E+01
 51
1.80000032E+02
  0
ARC
  8
0
 62
7
 10
2.45000015E+02
 20
6.62499695E+01
 40
1.00000000E+00
 50
1.80000022E+02
 51
2.70000011E+02
  0
ARC
  8
0
 62
7
 10
2.76500072E+02
 20
1.33250000E+02
 40
4.00000000E+00
 50
2.23117997E-05
 51
8.99999750E+01
  0
ARC
  8
0
 62
7
 10
2.76500034E+02
 20
6.62499695E+01
 40
4.00000000E+00
 50
2.70000011E+02
 51
3.59999964E+02
  0
CIRCLE
  8
0
 62
7
 10
2.71000076E+02
 20
7.17499695E+01
 40
6.00000000E+00
  0
CIRCLE
  8
0
 62
2
 10
2.14999941E+02
 20
1.27750061E+02
 40
4.00000000E+00
  0
CIRCLE
  8
0
 62
7
 10
2.71000076E+02
 20
1.27750061E+02
 40
6.00000000E+00
  0
CIRCLE
  8
0
 62
7
 10
2.14999941E+02
 20
1.27750031E+02
 40
6.50000048E+00
  0
ARC
  8
0
 62
7
 10
2.27514551E+02
 20
1.12407059E+02
 40
1.00000000E+00
 50
3.20739045E+02
 51
4.50000423E+01
  0
ARC
  8
0
 62
7
 10
2.30342958E+02
 20
1.15235474E+02
 40
1.00000000E+00
 50
2.25000000E+02
 51
3.09261001E+02
  0
ARC
  8
0
 62
7
 10
2.22981165E+02
 20
1.22597305E+02
 40
1.00000000E+00
 50
1.47153844E+02
 51
2.25000010E+02
  0
ARC
  8
0
 62
7
 10
2.20152719E+02
 20
1.19768890E+02
 40
1.00000000E+00
 50
4.50000423E+01
 51
1.22846758E+02
  0
ARC
  8
0
 62
7
 10
2.09500025E+02
 20
1.33250015E+02
 40
3.50000000E+00
 50
9.00000162E+01
 51
1.80000005E+02
  0
ARC
  8
0
 62
7
 10
2.09500025E+02
 20
1.01749992E+02
 40
1.00000000E+00
 50
1.79999995E+02
 51
2.70000038E+02
  0
ARC
  8
0
 62
7
 10
2.23100298E+02
 20
1.01749992E+02
 40
1.00000000E+00
 50
2.70000038E+02
 51
3.54260543E+02
  0
ARC
  8
0
 62
7
 10
2.09500025E+02
 20
1.33250015E+02
 40
4.00000000E+00
 50
9.00000162E+01
 51
1.80000005E+02
  0
CIRCLE
  8
0
 62
7
 10
2.14999941E+02
 20
1.27750031E+02
 40
6.00000000E+00
  0
ARC
  8
0
 62
7
 10
2.25499895E+02
 20
1.33250153E+02
 40
3.50000000E+00
 50
2.69999984E+02
 51
3.59998489E+02
  0
ARC
  8
0
 62
7
 10
2.29999903E+02
 20
1.33250015E+02
 40
1.00000000E+00
 50
9.00000437E+01
 51
1.79998229E+02
  0
ARC
  8
0
 62
7
 10
2.24444826E+02
 20
1.28772171E+02
 40
1.00000000E+00
 50
9.56743599E+01
 51
1.86177214E+02
  0
ARC
  8
0
 62
7
 10
2.09499872E+02
 20
1.17250061E+02
 40
3.50000000E+00
 50
2.70000995E+02
 51
1.86693353E-05
  0
ARC
  8
0
 62
7
 10
2.13977869E+02
 20
1.18305191E+02
 40
1.00000000E+00
 50
8.38236945E+01
 51
1.74325484E+02
  0
ARC
  8
0
 62
7
 10
2.09500025E+02
 20
1.12750076E+02
 40
1.00000000E+00
 50
9.00017511E+01
 51
1.80000019E+02
  0
ARC
  8
0
 62
7
 10
2.76500072E+02
 20
8.67498779E+01
 40
1.00000000E+00
 50
2.70001766E+02
 51
3.59999964E+02
  0
ARC
  8
0
 62
7
 10
2.76500187E+02
 20
8.22498703E+01
 40
3.50000000E+00
 50
9.00014985E+01
 51
1.80000005E+02
  0
ARC
  8
0
 62
7
 10
2.72022224E+02
 20
8.11948013E+01
 40
1.00000000E+00
 50
2.63822781E+02
 51
3.54325620E+02
  0
ARC
  8
0
 62
7
 10
2.71000076E+02
 20
7.17499313E+01
 40
8.50000000E+00
 50
8.38233261E+01
 51
1.86176449E+02
  0
ARC
  8
0
 62
7
 10
2.61555191E+02
 20
1.28772171E+02
 40
1.00000000E+00
 50
3.53823687E+02
 51
8.43254881E+01
  0
ARC
  8
0
 62
7
 10
2.60500084E+02
 20
1.33250122E+02
 40
3.50000000E+00
 50
1.80001006E+02
 51
2.69999984E+02
  0
ARC
  8
0
 62
7
 10
2.56000076E+02
 20
1.33250015E+02
 40
1.00000000E+00
 50
1.72985911E-03
 51
9.00000162E+01
  0
ARC
  8
0
 62
7
 10
2.56000153E+02
 20
6.62499695E+01
 40
1.00000000E+00
 50
2.70000038E+02
 51
3.59998215E+02
  0
ARC
  8
0
 62
7
 10
2.60500122E+02
 20
6.62498474E+01
 40
3.50000000E+00
 50
9.00000162E+01
 51
1.79998502E+02
  0
ARC
  8
0
 62
7
 10
2.61555267E+02
 20
7.07278137E+01
 40
1.00000000E+00
 50
2.75674382E+02
 51
6.17723160E+00
  0
ARC
  8
0
 62
7
 10
2.71000076E+02
 20
1.27750031E+02
 40
8.50000000E+00
 50
1.73823329E+02
 51
2.76176459E+02
  0
ARC
  8
0
 62
7
 10
2.72022224E+02
 20
1.18305191E+02
 40
1.00000000E+00
 50
5.67452970E+00
 51
9.61763105E+01
  0
ARC
  8
0
 62
7
 10
2.76500149E+02
 20
1.17250061E+02
 40
3.50000000E+00
 50
1.79999995E+02
 51
2.69999000E+02
  0
ARC
  8
0
 62
7
 10
2.76500072E+02
 20
1.12750076E+02
 40
1.00000000E+00
 50
3.59999995E+02
 51
8.99982676E+01
  0
ARC
  8
0
 62
7
 10
2.25499971E+02
 20
6.62498856E+01
 40
3.50000000E+00
 50
1.00585906E-03
 51
9.00000162E+01
  0
ARC
  8
0
 62
7
 10
2.29999941E+02
 20
6.62499695E+01
 40
1.00000000E+00
 50
1.80001743E+02
 51
2.69999984E+02
  0
ARC
  8
0
 62
7
 10
2.41000000E+02
 20
6.62500000E+01
 40
1.00000000E+00
 50
2.69999998E+02
 51
4.96325564E-05
  0
ARC
  8
0
 62
7
 10
2.41000000E+02
 20
7.98502502E+01
 40
1.00000000E+00
 50
4.96325564E-05
 51
8.42605536E+01
  0
CIRCLE
  8
0
 62
7
 10
2.43000008E+02
 20
9.97500000E+01
 40
1.90000000E+01
  0
CIRCLE
  8
0
 62
7
 10
2.15000017E+02
 20
7.17499313E+01
 40
6.50000048E+00
  0
ARC
  8
0
 62
7
 10
2.30342958E+02
 20
8.42645416E+01
 40
1.00000000E+00
 50
5.07390404E+01
 51
1.35000041E+02
  0
ARC
  8
0
 62
7
 10
2.27514551E+02
 20
8.70929718E+01
 40
1.00000000E+00
 50
3.15000019E+02
 51
3.92610168E+01
  0
ARC
  8
0
 62
7
 10
2.20152719E+02
 20
7.97311401E+01
 40
1.00000000E+00
 50
2.37153816E+02
 51
3.14999999E+02
  0
ARC
  8
0
 62
7
 10
2.22981165E+02
 20
7.69027100E+01
 40
1.00000000E+00
 50
1.35000041E+02
 51
2.12846753E+02
  0
ARC
  8
0
 62
7
 10
2.09500025E+02
 20
6.62500000E+01
 40
3.50000000E+00
 50
1.80000008E+02
 51
2.69999984E+02
  0
ARC
  8
0
 62
7
 10
2.23100298E+02
 20
9.77500000E+01
 40
1.00000000E+00
 50
5.73949849E+00
 51
9.00000300E+01
  0
ARC
  8
0
 62
7
 10
2.09500025E+02
 20
9.77500000E+01
 40
1.00000000E+00
 50
9.00000300E+01
 51
1.80000019E+02
  0
ARC
  8
0
 62
7
 10
2.09500025E+02
 20
6.62500000E+01
 40
4.00000000E+00
 50
1.80000008E+02
 51
2.69999984E+02
  0
CIRCLE
  8
0
 62
7
 10
2.15000017E+02
 20
7.17499313E+01
 40
6.00000000E+00
  0
CIRCLE
  8
0
 62
2
 10
2.71000076E+02
 20
1.27750061E+02
 40
4.00000000E+00
  0
ARC
  8
0
 62
7
 10
2.09500025E+02
 20
8.67498779E+01
 40
1.00000000E+00
 50
1.80000036E+02
 51
2.69998222E+02
  0
ARC
  8
0
 62
7
 10
2.09499872E+02
 20
8.22498703E+01
 40
3.50000000E+00
 50
3.59721781E-05
 51
8.99985065E+01
  0
ARC
  8
0
 62
7
 10
2.13977869E+02
 20
8.11948013E+01
 40
1.00000000E+00
 50
1.85674352E+02
 51
2.76177207E+02
  0
ARC
  8
0
 62
7
 10
2.15000017E+02
 20
7.17499313E+01
 40
8.50000000E+00
 50
3.53823551E+02
 51
9.61766794E+01
  0
ARC
  8
0
 62
7
 10
2.24444826E+02
 20
7.07278137E+01
 40
1.00000000E+00
 50
1.73823697E+02
 51
2.64325479E+02
  0
CIRCLE
  8
0
 62
2
 10
2.71000153E+02
 20
7.17499695E+01
 40
4.00000000E+00
  0
CIRCLE
  8
0
 62
7
 10
2.71000153E+02
 20
7.17499695E+01
 40
3.32000017E+00
  0
CIRCLE
  8
0
 62
7
 10
2.71000076E+02
 20
1.27750061E+02
 40
3.32000017E+00
  0
CIRCLE
  8
0
 62
7
 10
2.14999941E+02
 20
1.27750061E+02
 40
3.32000017E+00
  0
CIRCLE
  8
0
 62
7
 10
2.15000017E+02
 20
7.17499695E+01
 40
3.32000017E+00
  0
CIRCLE
  8
0
 62
2
 10
2.15000017E+02
 20
7.17499695E+01
 40
4.00000000E+00
  0
LINE
  8
0
  6
PHANTOM
 10
-2.95000000E+01
 20
1.85991639E+02
 11
-2.95000000E+01
 21
3.53066712E+02
  0
LINE
  8
0
 62
7
 10
-1.53999962E+02
 20
2.70750031E+02
 11
-1.44999947E+02
 21
2.70750031E+02
  0
LINE
  8
0
 62
2
 10
-1.53999962E+02
 20
2.71570038E+02
 11
-1.44999947E+02
 21
2.71570038E+02
  0
LINE
  8
0
 62
7
 10
-1.53999962E+02
 20
2.88750015E+02
 11
-1.44999947E+02
 21
2.88750015E+02
  0
LINE
  8
0
 62
2
 10
-1.53999962E+02
 20
2.87930008E+02
 11
-1.44999947E+02
 21
2.87930008E+02
  0
LINE
  8
0
 62
4
 10
-1.53999962E+02
 20
2.66250000E+02
 11
-1.64999962E+02
 21
2.66250000E+02
  0
ARC
  8
0
 62
4
 10
-1.45503569E+02
 20
2.73000000E+02
 40
1.94963929E+01
 50
1.59743842E+02
 51
2.00256158E+02
  0
ARC
  8
0
 62
4
 10
-1.73496355E+02
 20
2.73000000E+02
 40
1.94963929E+01
 50
3.39743842E+02
 51
2.02561580E+01
  0
LINE
  8
0
 62
4
 10
-1.55205733E+02
 20
2.79750000E+02
 11
-1.63794190E+02
 21
2.79750000E+02
  0
LINE
  8
0
 62
4
 10
-1.53999962E+02
 20
2.93250000E+02
 11
-1.64999962E+02
 21
2.93250000E+02
  0
LINE
  8
0
 62
4
 10
-1.53999962E+02
 20
2.93250000E+02
 11
-1.53999962E+02
 21
2.66250000E+02
  0
LINE
  8
0
 62
4
 10
-1.64999962E+02
 20
2.93250000E+02
 11
-1.64999962E+02
 21
2.66250000E+02
  0
ARC
  8
0
 62
4
 10
-1.45503569E+02
 20
2.86500000E+02
 40
1.94963929E+01
 50
1.59743842E+02
 51
2.00256158E+02
  0
ARC
  8
0
 62
4
 10
-1.73496355E+02
 20
2.86500000E+02
 40
1.94963929E+01
 50
3.39743842E+02
 51
2.02561580E+01
  0
LINE
  8
0
 62
6
 10
-2.32679568E+01
 20
2.70178690E+02
 11
-2.67320584E+01
 21
2.64178690E+02
  0
LINE
  8
0
 62
4
 10
-1.50000076E+01
 20
2.68678690E+02
 11
-2.41339822E+01
 21
2.68678690E+02
  0
LINE
  8
0
  6
CENTER
 62
6
 10
1.99999924E+01
 20
2.67178690E+02
 11
-2.70000076E+01
 21
2.67178690E+02
  0
LINE
  8
0
 62
4
 10
-1.50000076E+01
 20
2.65678690E+02
 11
-2.58660330E+01
 21
2.65678690E+02
  0
LINE
  8
0
 62
6
 10
-3.57320432E+01
 20
2.89321310E+02
 11
-3.22679416E+01
 21
2.95321310E+02
  0
LINE
  8
0
 62
4
 10
-4.39999924E+01
 20
2.90821310E+02
 11
-3.48660178E+01
 21
2.90821310E+02
  0
LINE
  8
0
  6
CENTER
 62
6
 10
-7.89999924E+01
 20
2.92321310E+02
 11
-3.19999924E+01
 21
2.92321310E+02
  0
LINE
  8
0
 62
4
 10
-4.39999924E+01
 20
2.93821310E+02
 11
-3.31339670E+01
 21
2.93821310E+02
  0
LINE
  8
0
 62
7
 10
-1.50000076E+01
 20
2.45750031E+02
 11
-8.49999924E+01
 21
2.45750031E+02
  0
LINE
  8
0
 62
7
 10
-1.50000076E+01
 20
2.48150009E+02
 11
-8.49999924E+01
 21
2.48150009E+02
  0
LINE
  8
0
 62
7
 10
-1.50000076E+01
 20
2.55350021E+02
 11
-8.49999924E+01
 21
2.55350021E+02
  0
LINE
  8
0
 62
7
 10
-7.39999924E+01
 20
3.04149994E+02
 11
-8.49999924E+01
 21
3.04149994E+02
  0
LINE
  8
0
 62
7
 10
-5.89999924E+01
 20
3.11350006E+02
 11
-8.49999924E+01
 21
3.11350006E+02
  0
LINE
  8
0
 62
7
 10
-5.89999924E+01
 20
3.13749969E+02
 11
-8.49999924E+01
 21
3.13749969E+02
  0
LINE
  8
0
 62
4
 10
-5.50000766E+00
 20
2.41642203E+02
 11
-5.50000766E+00
 21
2.42482122E+02
  0
LINE
  8
0
 62
4
 10
-1.50000766E+00
 20
2.41642203E+02
 11
-1.50000766E+00
 21
2.42482122E+02
  0
LINE
  8
0
 62
6
 10
-5.00000766E+00
 20
2.41233412E+02
 11
-5.00000766E+00
 21
2.42482122E+02
  0
LINE
  8
0
 62
6
 10
-2.00000766E+00
 20
2.41233412E+02
 11
-2.00000766E+00
 21
2.42482122E+02
  0
LINE
  8
0
  6
CENTER
 62
6
 10
7.49999237E+00
 20
2.63794849E+02
 11
7.49999237E+00
 21
2.68794849E+02
  0
LINE
  8
0
  6
CENTER
 62
6
 10
-3.50000766E+00
 20
2.37084391E+02
 11
-3.50000766E+00
 21
2.47349969E+02
  0
LINE
  8
0
  6
CENTER
 62
6
 10
-1.15000077E+01
 20
2.37084391E+02
 11
-1.15000077E+01
 21
2.47349969E+02
  0
LINE
  8
0
 62
4
 10
1.49999924E+01
 20
2.55108390E+02
 11
1.49999924E+01
 21
2.68118049E+02
  0
LINE
  8
0
 62
4
 10
-1.50000076E+01
 20
2.42482122E+02
 11
-1.50000076E+01
 21
2.69848544E+02
  0
LINE
  8
0
 62
4
 10
-7.62939442E-06
 20
2.42482122E+02
 11
-7.62939442E-06
 21
2.55108390E+02
  0
LINE
  8
0
 62
4
 10
1.64999924E+01
 20
2.65750052E+02
 11
1.64999924E+01
 21
2.68604118E+02
  0
LINE
  8
0
 62
4
 10
-7.62939442E-06
 20
2.42482122E+02
 11
-1.50000076E+01
 21
2.42482122E+02
  0
LINE
  8
0
 62
4
 10
-7.62939442E-06
 20
2.50828636E+02
 11
-1.50000076E+01
 21
2.50828636E+02
  0
LINE
  8
0
 62
4
 10
1.49999924E+01
 20
2.55108390E+02
 11
-1.50000076E+01
 21
2.55108390E+02
  0
LINE
  8
0
 62
4
 10
1.49999924E+01
 20
2.64904273E+02
 11
-1.50000076E+01
 21
2.64904273E+02
  0
LINE
  8
0
 62
4
 10
1.49999924E+01
 20
2.69848544E+02
 11
3.90175995E+00
 21
2.69848544E+02
  0
POLYLINE
  8
0
 62
4
 66
1
  0
VERTEX
  8
0
 62
4
 10
-5.50000766E+00
 20
2.41642203E+02
  0
VERTEX
  8
0
 62
4
 10
-5.49195625E+00
 20
2.41586803E+02
  0
VERTEX
  8
0
 62
4
 10
-5.46786684E+00
 20
2.41531849E+02
  0
VERTEX
  8
0
 62
4
 10
-5.42793338E+00
 20
2.41477783E+02
  0
VERTEX
  8
0
 62
4
 10
-5.37247740E+00
 20
2.41425041E+02
  0
VERTEX
  8
0
 62
4
 10
-5.30194540E+00
 20
2.41374048E+02
  0
VERTEX
  8
0
 62
4
 10
-5.21690525E+00
 20
2.41325214E+02
  0
VERTEX
  8
0
 62
4
 10
-5.11804165E+00
 20
2.41278932E+02
  0
VERTEX
  8
0
 62
4
 10
-5.00615060E+00
 20
2.41235575E+02
  0
VERTEX
  8
0
 62
4
 10
-4.88213296E+00
 20
2.41195491E+02
  0
VERTEX
  8
0
 62
4
 10
-4.74698727E+00
 20
2.41159005E+02
  0
VERTEX
  8
0
 62
4
 10
-4.60180163E+00
 20
2.41126408E+02
  0
VERTEX
  8
0
 62
4
 10
-4.44774499E+00
 20
2.41097965E+02
  0
VERTEX
  8
0
 62
4
 10
-4.28605773E+00
 20
2.41073904E+02
  0
VERTEX
  8
0
 62
4
 10
-4.11804166E+00
 20
2.41054418E+02
  0
VERTEX
  8
0
 62
4
 10
-3.94504954E+00
 20
2.41039664E+02
  0
VERTEX
  8
0
 62
4
 10
-3.76847420E+00
 20
2.41029762E+02
  0
VERTEX
  8
0
 62
4
 10
-3.58973733E+00
 20
2.41024791E+02
  0
VERTEX
  8
0
 62
4
 10
-3.41027801E+00
 20
2.41024791E+02
  0
VERTEX
  8
0
 62
4
 10
-3.23154114E+00
 20
2.41029762E+02
  0
VERTEX
  8
0
 62
4
 10
-3.05496580E+00
 20
2.41039664E+02
  0
VERTEX
  8
0
 62
4
 10
-2.88197368E+00
 20
2.41054418E+02
  0
VERTEX
  8
0
 62
4
 10
-2.71395761E+00
 20
2.41073904E+02
  0
VERTEX
  8
0
 62
4
 10
-2.55227035E+00
 20
2.41097965E+02
  0
VERTEX
  8
0
 62
4
 10
-2.39821371E+00
 20
2.41126408E+02
  0
VERTEX
  8
0
 62
4
 10
-2.25302807E+00
 20
2.41159005E+02
  0
VERTEX
  8
0
 62
4
 10
-2.11788237E+00
 20
2.41195491E+02
  0
VERTEX
  8
0
 62
4
 10
-1.99386474E+00
 20
2.41235575E+02
  0
VERTEX
  8
0
 62
4
 10
-1.88197368E+00
 20
2.41278932E+02
  0
VERTEX
  8
0
 62
4
 10
-1.78311008E+00
 20
2.41325214E+02
  0
VERTEX
  8
0
 62
4
 10
-1.69806993E+00
 20
2.41374048E+02
  0
VERTEX
  8
0
 62
4
 10
-1.62753792E+00
 20
2.41425041E+02
  0
VERTEX
  8
0
 62
4
 10
-1.57208194E+00
 20
2.41477783E+02
  0
VERTEX
  8
0
 62
4
 10
-1.53214849E+00
 20
2.41531849E+02
  0
VERTEX
  8
0
 62
4
 10
-1.50805907E+00
 20
2.41586803E+02
  0
VERTEX
  8
0
 62
4
 10
-1.50000766E+00
 20
2.41642203E+02
  0
SEQEND
  8
0
  0
LINE
  8
0
 62
4
 10
-1.35000077E+01
 20
2.41642203E+02
 11
-1.35000077E+01
 21
2.42482122E+02
  0
LINE
  8
0
 62
6
 10
-1.30000077E+01
 20
2.41233412E+02
 11
-1.30000077E+01
 21
2.42482122E+02
  0
POLYLINE
  8
0
 62
4
 66
1
  0
VERTEX
  8
0
 62
4
 10
-1.35000077E+01
 20
2.41642203E+02
  0
VERTEX
  8
0
 62
4
 10
-1.34919563E+01
 20
2.41586803E+02
  0
VERTEX
  8
0
 62
4
 10
-1.34678669E+01
 20
2.41531849E+02
  0
VERTEX
  8
0
 62
4
 10
-1.34279334E+01
 20
2.41477783E+02
  0
VERTEX
  8
0
 62
4
 10
-1.33724774E+01
 20
2.41425041E+02
  0
VERTEX
  8
0
 62
4
 10
-1.33019454E+01
 20
2.41374048E+02
  0
VERTEX
  8
0
 62
4
 10
-1.32169053E+01
 20
2.41325214E+02
  0
VERTEX
  8
0
 62
4
 10
-1.31180417E+01
 20
2.41278932E+02
  0
VERTEX
  8
0
 62
4
 10
-1.30061506E+01
 20
2.41235575E+02
  0
VERTEX
  8
0
 62
4
 10
-1.28821330E+01
 20
2.41195491E+02
  0
VERTEX
  8
0
 62
4
 10
-1.27469873E+01
 20
2.41159005E+02
  0
VERTEX
  8
0
 62
4
 10
-1.26018017E+01
 20
2.41126408E+02
  0
VERTEX
  8
0
 62
4
 10
-1.24477450E+01
 20
2.41097965E+02
  0
VERTEX
  8
0
 62
4
 10
-1.22860578E+01
 20
2.41073904E+02
  0
VERTEX
  8
0
 62
4
 10
-1.21180417E+01
 20
2.41054418E+02
  0
VERTEX
  8
0
 62
4
 10
-1.19450496E+01
 20
2.41039664E+02
  0
VERTEX
  8
0
 62
4
 10
-1.17684742E+01
 20
2.41029762E+02
  0
VERTEX
  8
0
 62
4
 10
-1.15897374E+01
 20
2.41024791E+02
  0
VERTEX
  8
0
 62
4
 10
-1.14102781E+01
 20
2.41024791E+02
  0
VERTEX
  8
0
 62
4
 10
-1.12315412E+01
 20
2.41029762E+02
  0
VERTEX
  8
0
 62
4
 10
-1.10549658E+01
 20
2.41039664E+02
  0
VERTEX
  8
0
 62
4
 10
-1.08819737E+01
 20
2.41054418E+02
  0
VERTEX
  8
0
 62
4
 10
-1.07139576E+01
 20
2.41073904E+02
  0
VERTEX
  8
0
 62
4
 10
-1.05522704E+01
 20
2.41097965E+02
  0
VERTEX
  8
0
 62
4
 10
-1.03982137E+01
 20
2.41126408E+02
  0
VERTEX
  8
0
 62
4
 10
-1.02530281E+01
 20
2.41159005E+02
  0
VERTEX
  8
0
 62
4
 10
-1.01178824E+01
 20
2.41195491E+02
  0
VERTEX
  8
0
 62
4
 10
-9.99386478E+00
 20
2.41235575E+02
  0
VERTEX
  8
0
 62
4
 10
-9.88197372E+00
 20
2.41278932E+02
  0
VERTEX
  8
0
 62
4
 10
-9.78311012E+00
 20
2.41325214E+02
  0
VERTEX
  8
0
 62
4
 10
-9.69806997E+00
 20
2.41374048E+02
  0
VERTEX
  8
0
 62
4
 10
-9.62753796E+00
 20
2.41425041E+02
  0
VERTEX
  8
0
 62
4
 10
-9.57208198E+00
 20
2.41477783E+02
  0
VERTEX
  8
0
 62
4
 10
-9.53214853E+00
 20
2.41531849E+02
  0
VERTEX
  8
0
 62
4
 10
-9.50805911E+00
 20
2.41586803E+02
  0
VERTEX
  8
0
 62
4
 10
-9.50000770E+00
 20
2.41642203E+02
  0
SEQEND
  8
0
  0
LINE
  8
0
 62
4
 10
-9.50000766E+00
 20
2.41642203E+02
 11
-9.50000766E+00
 21
2.42482122E+02
  0
LINE
  8
0
 62
6
 10
-1.00000077E+01
 20
2.41233412E+02
 11
-1.00000077E+01
 21
2.42482122E+02
  0
LINE
  8
0
 62
4
 10
1.49999924E+01
 20
2.64658543E+02
 11
1.64999924E+01
 21
2.65750052E+02
  0
LINE
  8
0
 62
4
 10
1.64999924E+01
 20
2.67904195E+02
 11
1.49999924E+01
 21
2.68462769E+02
  0
LINE
  8
0
 62
4
 10
1.49999924E+01
 20
2.69698837E+02
 11
1.64999924E+01
 21
2.68604118E+02
  0
LINE
  8
0
 62
4
 10
1.49999924E+01
 20
2.68118049E+02
 11
4.14999239E+00
 21
2.68118049E+02
  0
LINE
  8
0
 62
4
 10
-1.05656057E+01
 20
2.69539527E+02
 11
-1.50000076E+01
 21
2.69539527E+02
  0
LINE
  8
0
 62
4
 10
1.49999924E+01
 20
2.68462769E+02
 11
4.14999239E+00
 21
2.68462769E+02
  0
LINE
  8
0
 62
4
 10
1.49999924E+01
 20
2.69698837E+02
 11
4.04460764E+00
 21
2.69698837E+02
  0
LINE
  8
0
 62
4
 10
1.49999924E+01
 20
2.68118049E+02
 11
1.49999924E+01
 21
2.69698837E+02
  0
LINE
  8
0
 62
4
 10
1.49999924E+01
 20
2.69698837E+02
 11
1.49999924E+01
 21
2.69848544E+02
  0
ARC
  8
0
 62
4
 10
-5.10000731E+00
 20
2.68793217E+02
 40
1.00000000E+00
 50
3.60000000E+02
 51
7.71724899E+01
  0
ARC
  8
0
 62
4
 10
-9.90000795E+00
 20
2.68793217E+02
 40
1.00000000E+00
 50
1.02827510E+02
 51
1.80000000E+02
  0
ARC
  8
0
 62
4
 10
-7.50000763E+00
 20
2.58253003E+02
 40
1.18100000E+01
 50
7.71724899E+01
 51
1.02827510E+02
  0
LINE
  8
0
 62
4
 10
4.14999239E+00
 20
2.69411669E+02
 11
4.14999239E+00
 21
2.67737810E+02
  0
LINE
  8
0
 62
4
 10
-4.15000761E+00
 20
2.69411669E+02
 11
-4.15000761E+00
 21
2.69105468E+02
  0
POLYLINE
  8
0
 62
4
 66
1
  0
VERTEX
  8
0
 62
4
 10
-3.70000762E+00
 20
2.67157014E+02
  0
VERTEX
  8
0
 62
4
 10
-3.51819264E+00
 20
2.67057630E+02
  0
VERTEX
  8
0
 62
4
 10
-3.30849539E+00
 20
2.66963637E+02
  0
VERTEX
  8
0
 62
4
 10
-3.07257775E+00
 20
2.66875779E+02
  0
VERTEX
  8
0
 62
4
 10
-2.81230943E+00
 20
2.66794753E+02
  0
VERTEX
  8
0
 62
4
 10
-2.52975309E+00
 20
2.66721201E+02
  0
VERTEX
  8
0
 62
4
 10
-2.22714804E+00
 20
2.66655706E+02
  0
VERTEX
  8
0
 62
4
 10
-1.90689249E+00
 20
2.66598786E+02
  0
VERTEX
  8
0
 62
4
 10
-1.57152452E+00
 20
2.66550894E+02
  0
VERTEX
  8
0
 62
4
 10
-1.22370199E+00
 20
2.66512408E+02
  0
VERTEX
  8
0
 62
4
 10
-8.66181454E-01
 20
2.66483633E+02
  0
VERTEX
  8
0
 62
4
 10
-5.01796328E-01
 20
2.66464798E+02
  0
VERTEX
  8
0
 62
4
 10
-1.33434432E-01
 20
2.66456052E+02
  0
VERTEX
  8
0
 62
4
 10
2.35984895E-01
 20
2.66457465E+02
  0
VERTEX
  8
0
 62
4
 10
6.03533938E-01
 20
2.66469024E+02
  0
VERTEX
  8
0
 62
4
 10
9.66299802E-01
 20
2.66490638E+02
  0
VERTEX
  8
0
 62
4
 10
1.32140750E+00
 20
2.66522137E+02
  0
VERTEX
  8
0
 62
4
 10
1.66604273E+00
 20
2.66563270E+02
  0
VERTEX
  8
0
 62
4
 10
1.99747421E+00
 20
2.66613711E+02
  0
VERTEX
  8
0
 62
4
 10
2.31307527E+00
 20
2.66673062E+02
  0
VERTEX
  8
0
 62
4
 10
2.61034472E+00
 20
2.66740850E+02
  0
VERTEX
  8
0
 62
4
 10
2.88692664E+00
 20
2.66816540E+02
  0
VERTEX
  8
0
 62
4
 10
3.14062906E+00
 20
2.66899531E+02
  0
VERTEX
  8
0
 62
4
 10
3.36944136E+00
 20
2.66989165E+02
  0
VERTEX
  8
0
 62
4
 10
3.57155014E+00
 20
2.67084732E+02
  0
VERTEX
  8
0
 62
4
 10
3.74535366E+00
 20
2.67185476E+02
  0
VERTEX
  8
0
 62
4
 10
3.88947450E+00
 20
2.67290596E+02
  0
VERTEX
  8
0
 62
4
 10
4.00277046E+00
 20
2.67399261E+02
  0
VERTEX
  8
0
 62
4
 10
4.08434366E+00
 20
2.67510609E+02
  0
VERTEX
  8
0
 62
4
 10
4.13354762E+00
 20
2.67623758E+02
  0
VERTEX
  8
0
 62
4
 10
4.14999238E+00
 20
2.67737810E+02
  0
SEQEND
  8
0
  0
POLYLINE
  8
0
 62
4
 66
1
  0
VERTEX
  8
0
 62
4
 10
4.14999238E+00
 20
2.69411669E+02
  0
VERTEX
  8
0
 62
4
 10
4.13420038E+00
 20
2.69523439E+02
  0
VERTEX
  8
0
 62
4
 10
4.08694456E+00
 20
2.69634359E+02
  0
VERTEX
  8
0
 62
4
 10
4.00858456E+00
 20
2.69743584E+02
  0
VERTEX
  8
0
 62
4
 10
3.89971676E+00
 20
2.69850283E+02
  0
VERTEX
  8
0
 62
4
 10
3.76116970E+00
 20
2.69953643E+02
  0
VERTEX
  8
0
 62
4
 10
3.59399780E+00
 20
2.70052879E+02
  0
VERTEX
  8
0
 62
4
 10
3.39947336E+00
 20
2.70147235E+02
  0
VERTEX
  8
0
 62
4
 10
3.17907682E+00
 20
2.70235993E+02
  0
VERTEX
  8
0
 62
4
 10
2.93448552E+00
 20
2.70318477E+02
  0
VERTEX
  8
0
 62
4
 10
2.66756096E+00
 20
2.70394060E+02
  0
VERTEX
  8
0
 62
4
 10
2.38033459E+00
 20
2.70462166E+02
  0
VERTEX
  8
0
 62
4
 10
2.07499237E+00
 20
2.70522278E+02
  0
VERTEX
  8
0
 62
4
 10
1.75385816E+00
 20
2.70573937E+02
  0
VERTEX
  8
0
 62
4
 10
1.41937597E+00
 20
2.70616750E+02
  0
VERTEX
  8
0
 62
4
 10
1.07409141E+00
 20
2.70650392E+02
  0
VERTEX
  8
0
 62
4
 10
7.20632307E-01
 20
2.70674607E+02
  0
VERTEX
  8
0
 62
4
 10
3.61688701E-01
 20
2.70689210E+02
  0
VERTEX
  8
0
 62
4
 10
-7.63232060E-06
 20
2.70694090E+02
  0
VERTEX
  8
0
 62
4
 10
-3.61703966E-01
 20
2.70689210E+02
  0
VERTEX
  8
0
 62
4
 10
-7.20647572E-01
 20
2.70674607E+02
  0
VERTEX
  8
0
 62
4
 10
-1.07410667E+00
 20
2.70650392E+02
  0
VERTEX
  8
0
 62
4
 10
-1.41939123E+00
 20
2.70616750E+02
  0
VERTEX
  8
0
 62
4
 10
-1.75387342E+00
 20
2.70573937E+02
  0
VERTEX
  8
0
 62
4
 10
-2.07500764E+00
 20
2.70522278E+02
  0
VERTEX
  8
0
 62
4
 10
-2.38034985E+00
 20
2.70462166E+02
  0
VERTEX
  8
0
 62
4
 10
-2.66757622E+00
 20
2.70394060E+02
  0
VERTEX
  8
0
 62
4
 10
-2.93450078E+00
 20
2.70318477E+02
  0
VERTEX
  8
0
 62
4
 10
-3.17909208E+00
 20
2.70235993E+02
  0
VERTEX
  8
0
 62
4
 10
-3.39948862E+00
 20
2.70147235E+02
  0
VERTEX
  8
0
 62
4
 10
-3.59401307E+00
 20
2.70052879E+02
  0
VERTEX
  8
0
 62
4
 10
-3.76118496E+00
 20
2.69953643E+02
  0
VERTEX
  8
0
 62
4
 10
-3.89973202E+00
 20
2.69850283E+02
  0
VERTEX
  8
0
 62
4
 10
-4.00859982E+00
 20
2.69743584E+02
  0
VERTEX
  8
0
 62
4
 10
-4.08695982E+00
 20
2.69634359E+02
  0
VERTEX
  8
0
 62
4
 10
-4.13421564E+00
 20
2.69523439E+02
  0
VERTEX
  8
0
 62
4
 10
-4.15000764E+00
 20
2.69411669E+02
  0
VERTEX
  8
0
 62
4
 10
-4.13421564E+00
 20
2.69299899E+02
  0
VERTEX
  8
0
 62
4
 10
-4.08695981E+00
 20
2.69188979E+02
  0
VERTEX
  8
0
 62
4
 10
-4.00859982E+00
 20
2.69079754E+02
  0
VERTEX
  8
0
 62
4
 10
-3.89973201E+00
 20
2.68973055E+02
  0
VERTEX
  8
0
 62
4
 10
-3.76118495E+00
 20
2.68869695E+02
  0
VERTEX
  8
0
 62
4
 10
-3.59401306E+00
 20
2.68770459E+02
  0
VERTEX
  8
0
 62
4
 10
-3.39948862E+00
 20
2.68676103E+02
  0
VERTEX
  8
0
 62
4
 10
-3.17909207E+00
 20
2.68587345E+02
  0
VERTEX
  8
0
 62
4
 10
-2.93450077E+00
 20
2.68504861E+02
  0
VERTEX
  8
0
 62
4
 10
-2.66757621E+00
 20
2.68429278E+02
  0
VERTEX
  8
0
 62
4
 10
-2.38034984E+00
 20
2.68361172E+02
  0
VERTEX
  8
0
 62
4
 10
-2.07500763E+00
 20
2.68301060E+02
  0
VERTEX
  8
0
 62
4
 10
-1.75387341E+00
 20
2.68249401E+02
  0
VERTEX
  8
0
 62
4
 10
-1.41939122E+00
 20
2.68206588E+02
  0
VERTEX
  8
0
 62
4
 10
-1.07410666E+00
 20
2.68172946E+02
  0
VERTEX
  8
0
 62
4
 10
-7.20647560E-01
 20
2.68148731E+02
  0
VERTEX
  8
0
 62
4
 10
-3.61703954E-01
 20
2.68134128E+02
  0
VERTEX
  8
0
 62
4
 10
-7.62061588E-06
 20
2.68129249E+02
  0
VERTEX
  8
0
 62
4
 10
3.61688713E-01
 20
2.68134128E+02
  0
VERTEX
  8
0
 62
4
 10
7.20632319E-01
 20
2.68148731E+02
  0
VERTEX
  8
0
 62
4
 10
1.07409142E+00
 20
2.68172946E+02
  0
VERTEX
  8
0
 62
4
 10
1.41937598E+00
 20
2.68206588E+02
  0
VERTEX
  8
0
 62
4
 10
1.75385817E+00
 20
2.68249401E+02
  0
VERTEX
  8
0
 62
4
 10
2.07499238E+00
 20
2.68301060E+02
  0
VERTEX
  8
0
 62
4
 10
2.38033460E+00
 20
2.68361172E+02
  0
VERTEX
  8
0
 62
4
 10
2.66756096E+00
 20
2.68429278E+02
  0
VERTEX
  8
0
 62
4
 10
2.93448553E+00
 20
2.68504861E+02
  0
VERTEX
  8
0
 62
4
 10
3.17907682E+00
 20
2.68587345E+02
  0
VERTEX
  8
0
 62
4
 10
3.39947337E+00
 20
2.68676103E+02
  0
VERTEX
  8
0
 62
4
 10
3.59399781E+00
 20
2.68770459E+02
  0
VERTEX
  8
0
 62
4
 10
3.76116970E+00
 20
2.68869695E+02
  0
VERTEX
  8
0
 62
4
 10
3.89971676E+00
 20
2.68973055E+02
  0
VERTEX
  8
0
 62
4
 10
4.00858456E+00
 20
2.69079754E+02
  0
VERTEX
  8
0
 62
4
 10
4.08694456E+00
 20
2.69188979E+02
  0
VERTEX
  8
0
 62
4
 10
4.13420038E+00
 20
2.69299899E+02
  0
VERTEX
  8
0
 62
4
 10
4.14999238E+00
 20
2.69411669E+02
  0
SEQEND
  8
0
  0
LINE
  8
0
 62
4
 10
3.99999237E+00
 20
2.67396140E+02
 11
3.99999237E+00
 21
2.67376408E+02
  0
POLYLINE
  8
0
 62
4
 66
1
  0
VERTEX
  8
0
 62
4
 10
-3.70000762E+00
 20
2.66906743E+02
  0
VERTEX
  8
0
 62
4
 10
-3.55069965E+00
 20
2.66807230E+02
  0
VERTEX
  8
0
 62
4
 10
-3.37343097E+00
 20
2.66712200E+02
  0
VERTEX
  8
0
 62
4
 10
-3.16959752E+00
 20
2.66622400E+02
  0
VERTEX
  8
0
 62
4
 10
-2.94080443E+00
 20
2.66538538E+02
  0
VERTEX
  8
0
 62
4
 10
-2.68885338E+00
 20
2.66461274E+02
  0
VERTEX
  8
0
 62
4
 10
-2.41572842E+00
 20
2.66391216E+02
  0
VERTEX
  8
0
 62
4
 10
-2.12358033E+00
 20
2.66328916E+02
  0
VERTEX
  8
0
 62
4
 10
-1.81470970E+00
 20
2.66274865E+02
  0
VERTEX
  8
0
 62
4
 10
-1.49154879E+00
 20
2.66229488E+02
  0
VERTEX
  8
0
 62
4
 10
-1.15664242E+00
 20
2.66193143E+02
  0
VERTEX
  8
0
 62
4
 10
-8.12627860E-01
 20
2.66166116E+02
  0
VERTEX
  8
0
 62
4
 10
-4.62214146E-01
 20
2.66148620E+02
  0
VERTEX
  8
0
 62
4
 10
-1.08160685E-01
 20
2.66140792E+02
  0
VERTEX
  8
0
 62
4
 10
2.46744452E-01
 20
2.66142694E+02
  0
VERTEX
  8
0
 62
4
 10
5.99706485E-01
 20
2.66154311E+02
  0
VERTEX
  8
0
 62
4
 10
9.47945936E-01
 20
2.66175553E+02
  0
VERTEX
  8
0
 62
4
 10
1.28872052E+00
 20
2.66206250E+02
  0
VERTEX
  8
0
 62
4
 10
1.61934672E+00
 20
2.66246162E+02
  0
VERTEX
  8
0
 62
4
 10
1.93722096E+00
 20
2.66294975E+02
  0
VERTEX
  8
0
 62
4
 10
2.23984006E+00
 20
2.66352303E+02
  0
VERTEX
  8
0
 62
4
 10
2.52482099E+00
 20
2.66417696E+02
  0
VERTEX
  8
0
 62
4
 10
2.78991959E+00
 20
2.66490639E+02
  0
VERTEX
  8
0
 62
4
 10
3.03304830E+00
 20
2.66570556E+02
  0
VERTEX
  8
0
 62
4
 10
3.25229253E+00
 20
2.66656820E+02
  0
VERTEX
  8
0
 62
4
 10
3.44592580E+00
 20
2.66748750E+02
  0
VERTEX
  8
0
 62
4
 10
3.61242331E+00
 20
2.66845623E+02
  0
VERTEX
  8
0
 62
4
 10
3.75047392E+00
 20
2.66946676E+02
  0
VERTEX
  8
0
 62
4
 10
3.85899054E+00
 20
2.67051112E+02
  0
VERTEX
  8
0
 62
4
 10
3.93711862E+00
 20
2.67158111E+02
  0
VERTEX
  8
0
 62
4
 10
3.98424293E+00
 20
2.67266828E+02
  0
VERTEX
  8
0
 62
4
 10
3.99999237E+00
 20
2.67376408E+02
  0
SEQEND
  8
0
  0
ARC
  8
0
 62
4
 10
4.18761442E+00
 20
2.56423172E+02
 40
1.43299558E+01
 50
9.97219440E+01
 51
1.14556488E+02
  0
ARC
  8
0
 62
4
 10
-4.18763115E+00
 20
2.56423167E+02
 40
1.43299613E+01
 50
6.54435144E+01
 51
8.02780535E+01
  0
LINE
  8
0
 62
4
 10
-3.70000763E+00
 20
2.67245906E+02
 11
-3.70000763E+00
 21
2.66294849E+02
  0
POLYLINE
  8
0
 62
4
 66
1
  0
VERTEX
  8
0
 62
4
 10
-1.13000076E+01
 20
2.66294849E+02
  0
VERTEX
  8
0
 62
4
 10
-1.12847099E+01
 20
2.66189589E+02
  0
VERTEX
  8
0
 62
4
 10
-1.12389401E+01
 20
2.66085176E+02
  0
VERTEX
  8
0
 62
4
 10
-1.11630665E+01
 20
2.65982451E+02
  0
VERTEX
  8
0
 62
4
 10
-1.10577001E+01
 20
2.65882242E+02
  0
VERTEX
  8
0
 62
4
 10
-1.09236893E+01
 20
2.65785355E+02
  0
VERTEX
  8
0
 62
4
 10
-1.07621131E+01
 20
2.65692570E+02
  0
VERTEX
  8
0
 62
4
 10
-1.05742722E+01
 20
2.65604634E+02
  0
VERTEX
  8
0
 62
4
 10
-1.03616792E+01
 20
2.65522255E+02
  0
VERTEX
  8
0
 62
4
 10
-1.01260457E+01
 20
2.65446097E+02
  0
VERTEX
  8
0
 62
4
 10
-9.86926889E+00
 20
2.65376772E+02
  0
VERTEX
  8
0
 62
4
 10
-9.59341617E+00
 20
2.65314839E+02
  0
VERTEX
  8
0
 62
4
 10
-9.30070856E+00
 20
2.65260797E+02
  0
VERTEX
  8
0
 62
4
 10
-8.99350277E+00
 20
2.65215080E+02
  0
VERTEX
  8
0
 62
4
 10
-8.67427223E+00
 20
2.65178057E+02
  0
VERTEX
  8
0
 62
4
 10
-8.34558720E+00
 20
2.65150026E+02
  0
VERTEX
  8
0
 62
4
 10
-8.01009406E+00
 20
2.65131212E+02
  0
VERTEX
  8
0
 62
4
 10
-7.67049401E+00
 20
2.65121767E+02
  0
VERTEX
  8
0
 62
4
 10
-7.32952130E+00
 20
2.65121767E+02
  0
VERTEX
  8
0
 62
4
 10
-6.98992124E+00
 20
2.65131212E+02
  0
VERTEX
  8
0
 62
4
 10
-6.65442810E+00
 20
2.65150026E+02
  0
VERTEX
  8
0
 62
4
 10
-6.32574307E+00
 20
2.65178057E+02
  0
VERTEX
  8
0
 62
4
 10
-6.00651253E+00
 20
2.65215080E+02
  0
VERTEX
  8
0
 62
4
 10
-5.69930673E+00
 20
2.65260797E+02
  0
VERTEX
  8
0
 62
4
 10
-5.40659912E+00
 20
2.65314839E+02
  0
VERTEX
  8
0
 62
4
 10
-5.13074640E+00
 20
2.65376772E+02
  0
VERTEX
  8
0
 62
4
 10
-4.87396958E+00
 20
2.65446097E+02
  0
VERTEX
  8
0
 62
4
 10
-4.63833608E+00
 20
2.65522255E+02
  0
VERTEX
  8
0
 62
4
 10
-4.42574307E+00
 20
2.65604634E+02
  0
VERTEX
  8
0
 62
4
 10
-4.23790223E+00
 20
2.65692570E+02
  0
VERTEX
  8
0
 62
4
 10
-4.07632594E+00
 20
2.65785355E+02
  0
VERTEX
  8
0
 62
4
 10
-3.94231513E+00
 20
2.65882242E+02
  0
VERTEX
  8
0
 62
4
 10
-3.83694877E+00
 20
2.65982451E+02
  0
VERTEX
  8
0
 62
4
 10
-3.76107520E+00
 20
2.66085176E+02
  0
VERTEX
  8
0
 62
4
 10
-3.71530532E+00
 20
2.66189589E+02
  0
VERTEX
  8
0
 62
4
 10
-3.70000763E+00
 20
2.66294849E+02
  0
SEQEND
  8
0
  0
POLYLINE
  8
0
 62
4
 66
1
  0
VERTEX
  8
0
 62
4
 10
-1.09000076E+01
 20
2.67770325E+02
  0
VERTEX
  8
0
 62
4
 10
-1.10365893E+01
 20
2.67675494E+02
  0
VERTEX
  8
0
 62
4
 10
-1.11455372E+01
 20
2.67577306E+02
  0
VERTEX
  8
0
 62
4
 10
-1.12259999E+01
 20
2.67476529E+02
  0
VERTEX
  8
0
 62
4
 10
-1.12773489E+01
 20
2.67373950E+02
  0
VERTEX
  8
0
 62
4
 10
-1.12991829E+01
 20
2.67270370E+02
  0
VERTEX
  8
0
 62
4
 10
-1.12913312E+01
 20
2.67166599E+02
  0
VERTEX
  8
0
 62
4
 10
-1.12538553E+01
 20
2.67063448E+02
  0
VERTEX
  8
0
 62
4
 10
-1.11870479E+01
 20
2.66961722E+02
  0
VERTEX
  8
0
 62
4
 10
-1.10914310E+01
 20
2.66862217E+02
  0
VERTEX
  8
0
 62
4
 10
-1.09677519E+01
 20
2.66765710E+02
  0
VERTEX
  8
0
 62
4
 10
-1.08169768E+01
 20
2.66672955E+02
  0
VERTEX
  8
0
 62
4
 10
-1.06402839E+01
 20
2.66584677E+02
  0
VERTEX
  8
0
 62
4
 10
-1.04390538E+01
 20
2.66501566E+02
  0
VERTEX
  8
0
 62
4
 10
-1.02148589E+01
 20
2.66424270E+02
  0
VERTEX
  8
0
 62
4
 10
-9.96945091E+00
 20
2.66353395E+02
  0
VERTEX
  8
0
 62
4
 10
-9.70474745E+00
 20
2.66289494E+02
  0
VERTEX
  8
0
 62
4
 10
-9.42281681E+00
 20
2.66233065E+02
  0
VERTEX
  8
0
 62
4
 10
-9.12586191E+00
 20
2.66184551E+02
  0
VERTEX
  8
0
 62
4
 10
-8.81620307E+00
 20
2.66144330E+02
  0
VERTEX
  8
0
 62
4
 10
-8.49625986E+00
 20
2.66112716E+02
  0
VERTEX
  8
0
 62
4
 10
-8.16853224E+00
 20
2.66089956E+02
  0
VERTEX
  8
0
 62
4
 10
-7.83558096E+00
 20
2.66076229E+02
  0
VERTEX
  8
0
 62
4
 10
-7.50000761E+00
 20
2.66071641E+02
  0
VERTEX
  8
0
 62
4
 10
-7.16443426E+00
 20
2.66076229E+02
  0
VERTEX
  8
0
 62
4
 10
-6.83148299E+00
 20
2.66089956E+02
  0
VERTEX
  8
0
 62
4
 10
-6.50375536E+00
 20
2.66112716E+02
  0
VERTEX
  8
0
 62
4
 10
-6.18381216E+00
 20
2.66144330E+02
  0
VERTEX
  8
0
 62
4
 10
-5.87415332E+00
 20
2.66184551E+02
  0
VERTEX
  8
0
 62
4
 10
-5.57719842E+00
 20
2.66233065E+02
  0
VERTEX
  8
0
 62
4
 10
-5.29526778E+00
 20
2.66289494E+02
  0
VERTEX
  8
0
 62
4
 10
-5.03056432E+00
 20
2.66353395E+02
  0
VERTEX
  8
0
 62
4
 10
-4.78515636E+00
 20
2.66424270E+02
  0
VERTEX
  8
0
 62
4
 10
-4.56096145E+00
 20
2.66501566E+02
  0
VERTEX
  8
0
 62
4
 10
-4.35973137E+00
 20
2.66584677E+02
  0
VERTEX
  8
0
 62
4
 10
-4.18303847E+00
 20
2.66672955E+02
  0
VERTEX
  8
0
 62
4
 10
-4.03226339E+00
 20
2.66765710E+02
  0
VERTEX
  8
0
 62
4
 10
-3.90858424E+00
 20
2.66862217E+02
  0
VERTEX
  8
0
 62
4
 10
-3.81296740E+00
 20
2.66961722E+02
  0
VERTEX
  8
0
 62
4
 10
-3.74616000E+00
 20
2.67063448E+02
  0
VERTEX
  8
0
 62
4
 10
-3.70868405E+00
 20
2.67166599E+02
  0
VERTEX
  8
0
 62
4
 10
-3.70083238E+00
 20
2.67270370E+02
  0
VERTEX
  8
0
 62
4
 10
-3.72266634E+00
 20
2.67373950E+02
  0
VERTEX
  8
0
 62
4
 10
-3.77401532E+00
 20
2.67476529E+02
  0
VERTEX
  8
0
 62
4
 10
-3.85447810E+00
 20
2.67577306E+02
  0
VERTEX
  8
0
 62
4
 10
-3.96342597E+00
 20
2.67675494E+02
  0
VERTEX
  8
0
 62
4
 10
-4.10000764E+00
 20
2.67770325E+02
  0
SEQEND
  8
0
  0
LINE
  8
0
 62
4
 10
-1.13000076E+01
 20
2.67245906E+02
 11
-1.13000076E+01
 21
2.66294849E+02
  0
LINE
  8
0
 62
4
 10
-4.10000763E+00
 20
2.68793217E+02
 11
-4.10000763E+00
 21
2.67245906E+02
  0
POLYLINE
  8
0
 62
4
 66
1
  0
VERTEX
  8
0
 62
4
 10
-1.09000076E+01
 20
2.67245906E+02
  0
VERTEX
  8
0
 62
4
 10
-1.08863202E+01
 20
2.67151726E+02
  0
VERTEX
  8
0
 62
4
 10
-1.08453682E+01
 20
2.67058304E+02
  0
VERTEX
  8
0
 62
4
 10
-1.07774814E+01
 20
2.66966392E+02
  0
VERTEX
  8
0
 62
4
 10
-1.06832062E+01
 20
2.66876731E+02
  0
VERTEX
  8
0
 62
4
 10
-1.05633018E+01
 20
2.66790043E+02
  0
VERTEX
  8
0
 62
4
 10
-1.04187335E+01
 20
2.66707024E+02
  0
VERTEX
  8
0
 62
4
 10
-1.02506654E+01
 20
2.66628345E+02
  0
VERTEX
  8
0
 62
4
 10
-1.00604506E+01
 20
2.66554638E+02
  0
VERTEX
  8
0
 62
4
 10
-9.84962065E+00
 20
2.66486496E+02
  0
VERTEX
  8
0
 62
4
 10
-9.61987297E+00
 20
2.66424469E+02
  0
VERTEX
  8
0
 62
4
 10
-9.37305738E+00
 20
2.66369055E+02
  0
VERTEX
  8
0
 62
4
 10
-9.11116110E+00
 20
2.66320701E+02
  0
VERTEX
  8
0
 62
4
 10
-8.83629275E+00
 20
2.66279797E+02
  0
VERTEX
  8
0
 62
4
 10
-8.55066543E+00
 20
2.66246671E+02
  0
VERTEX
  8
0
 62
4
 10
-8.25657882E+00
 20
2.66221590E+02
  0
VERTEX
  8
0
 62
4
 10
-7.95640075E+00
 20
2.66204757E+02
  0
VERTEX
  8
0
 62
4
 10
-7.65254807E+00
 20
2.66196306E+02
  0
VERTEX
  8
0
 62
4
 10
-7.34746723E+00
 20
2.66196306E+02
  0
VERTEX
  8
0
 62
4
 10
-7.04361454E+00
 20
2.66204757E+02
  0
VERTEX
  8
0
 62
4
 10
-6.74343647E+00
 20
2.66221590E+02
  0
VERTEX
  8
0
 62
4
 10
-6.44934987E+00
 20
2.66246671E+02
  0
VERTEX
  8
0
 62
4
 10
-6.16372254E+00
 20
2.66279797E+02
  0
VERTEX
  8
0
 62
4
 10
-5.88885420E+00
 20
2.66320701E+02
  0
VERTEX
  8
0
 62
4
 10
-5.62695791E+00
 20
2.66369055E+02
  0
VERTEX
  8
0
 62
4
 10
-5.38014232E+00
 20
2.66424469E+02
  0
VERTEX
  8
0
 62
4
 10
-5.15039464E+00
 20
2.66486496E+02
  0
VERTEX
  8
0
 62
4
 10
-4.93956466E+00
 20
2.66554638E+02
  0
VERTEX
  8
0
 62
4
 10
-4.74934986E+00
 20
2.66628345E+02
  0
VERTEX
  8
0
 62
4
 10
-4.58128174E+00
 20
2.66707024E+02
  0
VERTEX
  8
0
 62
4
 10
-4.43671349E+00
 20
2.66790043E+02
  0
VERTEX
  8
0
 62
4
 10
-4.31680908E+00
 20
2.66876731E+02
  0
VERTEX
  8
0
 62
4
 10
-4.22253391E+00
 20
2.66966392E+02
  0
VERTEX
  8
0
 62
4
 10
-4.15464703E+00
 20
2.67058304E+02
  0
VERTEX
  8
0
 62
4
 10
-4.11369503E+00
 20
2.67151726E+02
  0
VERTEX
  8
0
 62
4
 10
-4.10000763E+00
 20
2.67245906E+02
  0
SEQEND
  8
0
  0
LINE
  8
0
 62
4
 10
-1.09000076E+01
 20
2.68793217E+02
 11
-1.09000076E+01
 21
2.67245906E+02
  0
POLYLINE
  8
0
 62
4
 66
1
  0
VERTEX
  8
0
 62
4
 10
-1.09000076E+01
 20
2.68793211E+02
  0
VERTEX
  8
0
 62
4
 10
-1.08863184E+01
 20
2.68699030E+02
  0
VERTEX
  8
0
 62
4
 10
-1.08453646E+01
 20
2.68605609E+02
  0
VERTEX
  8
0
 62
4
 10
-1.07774759E+01
 20
2.68513697E+02
  0
VERTEX
  8
0
 62
4
 10
-1.06831990E+01
 20
2.68424036E+02
  0
VERTEX
  8
0
 62
4
 10
-1.05632929E+01
 20
2.68337348E+02
  0
VERTEX
  8
0
 62
4
 10
-1.04187231E+01
 20
2.68254330E+02
  0
VERTEX
  8
0
 62
4
 10
-1.02506534E+01
 20
2.68175651E+02
  0
VERTEX
  8
0
 62
4
 10
-1.00604372E+01
 20
2.68101944E+02
  0
VERTEX
  8
0
 62
4
 10
-9.84960590E+00
 20
2.68033803E+02
  0
VERTEX
  8
0
 62
4
 10
-9.61985702E+00
 20
2.67971776E+02
  0
VERTEX
  8
0
 62
4
 10
-9.37304035E+00
 20
2.67916363E+02
  0
VERTEX
  8
0
 62
4
 10
-9.11114313E+00
 20
2.67868009E+02
  0
VERTEX
  8
0
 62
4
 10
-8.83627399E+00
 20
2.67827106E+02
  0
VERTEX
  8
0
 62
4
 10
-8.55064603E+00
 20
2.67793980E+02
  0
VERTEX
  8
0
 62
4
 10
-8.25655893E+00
 20
2.67768900E+02
  0
VERTEX
  8
0
 62
4
 10
-7.95638054E+00
 20
2.67752067E+02
  0
VERTEX
  8
0
 62
4
 10
-7.65252769E+00
 20
2.67743617E+02
  0
VERTEX
  8
0
 62
4
 10
-7.34744685E+00
 20
2.67743617E+02
  0
VERTEX
  8
0
 62
4
 10
-7.04359433E+00
 20
2.67752069E+02
  0
VERTEX
  8
0
 62
4
 10
-6.74341658E+00
 20
2.67768903E+02
  0
VERTEX
  8
0
 62
4
 10
-6.44933047E+00
 20
2.67793984E+02
  0
VERTEX
  8
0
 62
4
 10
-6.16370378E+00
 20
2.67827110E+02
  0
VERTEX
  8
0
 62
4
 10
-5.88883623E+00
 20
2.67868015E+02
  0
VERTEX
  8
0
 62
4
 10
-5.62694088E+00
 20
2.67916370E+02
  0
VERTEX
  8
0
 62
4
 10
-5.38012637E+00
 20
2.67971784E+02
  0
VERTEX
  8
0
 62
4
 10
-5.15037989E+00
 20
2.68033811E+02
  0
VERTEX
  8
0
 62
4
 10
-4.93955124E+00
 20
2.68101953E+02
  0
VERTEX
  8
0
 62
4
 10
-4.74933787E+00
 20
2.68175661E+02
  0
VERTEX
  8
0
 62
4
 10
-4.58127128E+00
 20
2.68254341E+02
  0
VERTEX
  8
0
 62
4
 10
-4.43670464E+00
 20
2.68337359E+02
  0
VERTEX
  8
0
 62
4
 10
-4.31680191E+00
 20
2.68424048E+02
  0
VERTEX
  8
0
 62
4
 10
-4.22252848E+00
 20
2.68513709E+02
  0
VERTEX
  8
0
 62
4
 10
-4.15464339E+00
 20
2.68605621E+02
  0
VERTEX
  8
0
 62
4
 10
-4.11369320E+00
 20
2.68699043E+02
  0
VERTEX
  8
0
 62
4
 10
-4.10000763E+00
 20
2.68793223E+02
  0
SEQEND
  8
0
  0
ARC
  8
0
 62
4
 10
-3.33950774E+00
 20
2.55938800E+02
 40
1.42127873E+01
 50
9.99307184E+01
 51
1.14652136E+02
  0
ARC
  8
0
 62
4
 10
-1.16605078E+01
 20
2.55938799E+02
 40
1.42127883E+01
 50
6.53478648E+01
 51
8.00692808E+01
  0
LINE
  8
0
  6
CENTER
 62
6
 10
9.99999237E+00
 20
2.66294849E+02
 11
4.99999237E+00
 21
2.66294849E+02
  0
LINE
  8
0
  6
CENTER
 62
6
 10
-7.62939442E-06
 20
2.64876408E+02
 11
-7.62939442E-06
 21
2.69876408E+02
  0
LINE
  8
0
  6
CENTER
 62
6
 10
2.49999237E+00
 20
2.67376408E+02
 11
-2.50000763E+00
 21
2.67376408E+02
  0
LINE
  8
0
  6
CENTER
 62
6
 10
-7.50000763E+00
 20
2.63794849E+02
 11
-7.50000763E+00
 21
2.68794849E+02
  0
LINE
  8
0
  6
CENTER
 62
6
 10
-5.00000763E+00
 20
2.66294849E+02
 11
-1.00000076E+01
 21
2.66294849E+02
  0
LINE
  8
0
 62
4
 10
-3.90177521E+00
 20
2.69848544E+02
 11
-5.25957735E+00
 21
2.69848544E+02
  0
LINE
  8
0
 62
4
 10
-4.04462290E+00
 20
2.69698837E+02
 11
-4.67591776E+00
 21
2.69698837E+02
  0
LINE
  8
0
 62
4
 10
-1.09000076E+01
 20
2.68118049E+02
 11
-1.50000076E+01
 21
2.68118049E+02
  0
LINE
  8
0
 62
4
 10
-9.74043791E+00
 20
2.69848544E+02
 11
-1.50000076E+01
 21
2.69848544E+02
  0
LINE
  8
0
 62
4
 10
-5.34999923E+01
 20
3.17857797E+02
 11
-5.34999923E+01
 21
3.17017878E+02
  0
LINE
  8
0
 62
4
 10
-5.74999923E+01
 20
3.17857797E+02
 11
-5.74999923E+01
 21
3.17017878E+02
  0
LINE
  8
0
 62
6
 10
-5.39999923E+01
 20
3.18266588E+02
 11
-5.39999923E+01
 21
3.17017878E+02
  0
LINE
  8
0
 62
6
 10
-5.69999923E+01
 20
3.18266588E+02
 11
-5.69999923E+01
 21
3.17017878E+02
  0
LINE
  8
0
  6
CENTER
 62
6
 10
-6.64999924E+01
 20
2.95705151E+02
 11
-6.64999924E+01
 21
2.90705151E+02
  0
LINE
  8
0
  6
CENTER
 62
6
 10
-5.54999923E+01
 20
3.22415609E+02
 11
-5.54999923E+01
 21
3.12150031E+02
  0
LINE
  8
0
  6
CENTER
 62
6
 10
-4.74999923E+01
 20
3.22415609E+02
 11
-4.74999923E+01
 21
3.12150031E+02
  0
LINE
  8
0
 62
4
 10
-7.39999924E+01
 20
3.04391610E+02
 11
-7.39999924E+01
 21
2.91381951E+02
  0
LINE
  8
0
 62
4
 10
-4.39999924E+01
 20
3.17017878E+02
 11
-4.39999924E+01
 21
2.89651456E+02
  0
LINE
  8
0
 62
4
 10
-5.89999924E+01
 20
3.17017878E+02
 11
-5.89999924E+01
 21
3.04391610E+02
  0
LINE
  8
0
 62
4
 10
-7.54999924E+01
 20
2.93749948E+02
 11
-7.54999924E+01
 21
2.90895882E+02
  0
LINE
  8
0
 62
4
 10
-5.89999924E+01
 20
3.17017878E+02
 11
-4.39999924E+01
 21
3.17017878E+02
  0
LINE
  8
0
 62
4
 10
-5.89999924E+01
 20
3.08671364E+02
 11
-4.39999924E+01
 21
3.08671364E+02
  0
LINE
  8
0
 62
4
 10
-7.39999924E+01
 20
3.04391610E+02
 11
-4.39999924E+01
 21
3.04391610E+02
  0
LINE
  8
0
 62
4
 10
-7.39999924E+01
 20
2.94595727E+02
 11
-4.39999924E+01
 21
2.94595727E+02
  0
LINE
  8
0
 62
4
 10
-7.39999924E+01
 20
2.89651456E+02
 11
-6.29017600E+01
 21
2.89651456E+02
  0
POLYLINE
  8
0
 62
4
 66
1
  0
VERTEX
  8
0
 62
4
 10
-5.34999923E+01
 20
3.17857797E+02
  0
VERTEX
  8
0
 62
4
 10
-5.35080437E+01
 20
3.17913197E+02
  0
VERTEX
  8
0
 62
4
 10
-5.35321331E+01
 20
3.17968151E+02
  0
VERTEX
  8
0
 62
4
 10
-5.35720666E+01
 20
3.18022217E+02
  0
VERTEX
  8
0
 62
4
 10
-5.36275226E+01
 20
3.18074959E+02
  0
VERTEX
  8
0
 62
4
 10
-5.36980546E+01
 20
3.18125952E+02
  0
VERTEX
  8
0
 62
4
 10
-5.37830947E+01
 20
3.18174786E+02
  0
VERTEX
  8
0
 62
4
 10
-5.38819583E+01
 20
3.18221068E+02
  0
VERTEX
  8
0
 62
4
 10
-5.39938494E+01
 20
3.18264425E+02
  0
VERTEX
  8
0
 62
4
 10
-5.41178670E+01
 20
3.18304509E+02
  0
VERTEX
  8
0
 62
4
 10
-5.42530127E+01
 20
3.18340995E+02
  0
VERTEX
  8
0
 62
4
 10
-5.43981983E+01
 20
3.18373592E+02
  0
VERTEX
  8
0
 62
4
 10
-5.45522550E+01
 20
3.18402035E+02
  0
VERTEX
  8
0
 62
4
 10
-5.47139422E+01
 20
3.18426096E+02
  0
VERTEX
  8
0
 62
4
 10
-5.48819583E+01
 20
3.18445582E+02
  0
VERTEX
  8
0
 62
4
 10
-5.50549504E+01
 20
3.18460336E+02
  0
VERTEX
  8
0
 62
4
 10
-5.52315258E+01
 20
3.18470238E+02
  0
VERTEX
  8
0
 62
4
 10
-5.54102626E+01
 20
3.18475209E+02
  0
VERTEX
  8
0
 62
4
 10
-5.55897219E+01
 20
3.18475209E+02
  0
VERTEX
  8
0
 62
4
 10
-5.57684588E+01
 20
3.18470238E+02
  0
VERTEX
  8
0
 62
4
 10
-5.59450342E+01
 20
3.18460336E+02
  0
VERTEX
  8
0
 62
4
 10
-5.61180263E+01
 20
3.18445582E+02
  0
VERTEX
  8
0
 62
4
 10
-5.62860424E+01
 20
3.18426096E+02
  0
VERTEX
  8
0
 62
4
 10
-5.64477296E+01
 20
3.18402035E+02
  0
VERTEX
  8
0
 62
4
 10
-5.66017863E+01
 20
3.18373592E+02
  0
VERTEX
  8
0
 62
4
 10
-5.67469719E+01
 20
3.18340995E+02
  0
VERTEX
  8
0
 62
4
 10
-5.68821176E+01
 20
3.18304509E+02
  0
VERTEX
  8
0
 62
4
 10
-5.70061352E+01
 20
3.18264426E+02
  0
VERTEX
  8
0
 62
4
 10
-5.71180263E+01
 20
3.18221068E+02
  0
VERTEX
  8
0
 62
4
 10
-5.72168899E+01
 20
3.18174786E+02
  0
VERTEX
  8
0
 62
4
 10
-5.73019300E+01
 20
3.18125952E+02
  0
VERTEX
  8
0
 62
4
 10
-5.73724620E+01
 20
3.18074959E+02
  0
VERTEX
  8
0
 62
4
 10
-5.74279180E+01
 20
3.18022217E+02
  0
VERTEX
  8
0
 62
4
 10
-5.74678515E+01
 20
3.17968151E+02
  0
VERTEX
  8
0
 62
4
 10
-5.74919409E+01
 20
3.17913197E+02
  0
VERTEX
  8
0
 62
4
 10
-5.74999923E+01
 20
3.17857797E+02
  0
SEQEND
  8
0
  0
LINE
  8
0
 62
4
 10
-4.54999923E+01
 20
3.17857797E+02
 11
-4.54999923E+01
 21
3.17017878E+02
  0
LINE
  8
0
 62
6
 10
-4.59999923E+01
 20
3.18266588E+02
 11
-4.59999923E+01
 21
3.17017878E+02
  0
POLYLINE
  8
0
 62
4
 66
1
  0
VERTEX
  8
0
 62
4
 10
-4.54999923E+01
 20
3.17857797E+02
  0
VERTEX
  8
0
 62
4
 10
-4.55080437E+01
 20
3.17913197E+02
  0
VERTEX
  8
0
 62
4
 10
-4.55321331E+01
 20
3.17968151E+02
  0
VERTEX
  8
0
 62
4
 10
-4.55720666E+01
 20
3.18022217E+02
  0
VERTEX
  8
0
 62
4
 10
-4.56275226E+01
 20
3.18074959E+02
  0
VERTEX
  8
0
 62
4
 10
-4.56980546E+01
 20
3.18125952E+02
  0
VERTEX
  8
0
 62
4
 10
-4.57830947E+01
 20
3.18174786E+02
  0
VERTEX
  8
0
 62
4
 10
-4.58819583E+01
 20
3.18221068E+02
  0
VERTEX
  8
0
 62
4
 10
-4.59938494E+01
 20
3.18264425E+02
  0
VERTEX
  8
0
 62
4
 10
-4.61178670E+01
 20
3.18304509E+02
  0
VERTEX
  8
0
 62
4
 10
-4.62530127E+01
 20
3.18340995E+02
  0
VERTEX
  8
0
 62
4
 10
-4.63981983E+01
 20
3.18373592E+02
  0
VERTEX
  8
0
 62
4
 10
-4.65522550E+01
 20
3.18402035E+02
  0
VERTEX
  8
0
 62
4
 10
-4.67139422E+01
 20
3.18426096E+02
  0
VERTEX
  8
0
 62
4
 10
-4.68819583E+01
 20
3.18445582E+02
  0
VERTEX
  8
0
 62
4
 10
-4.70549504E+01
 20
3.18460336E+02
  0
VERTEX
  8
0
 62
4
 10
-4.72315258E+01
 20
3.18470238E+02
  0
VERTEX
  8
0
 62
4
 10
-4.74102626E+01
 20
3.18475209E+02
  0
VERTEX
  8
0
 62
4
 10
-4.75897219E+01
 20
3.18475209E+02
  0
VERTEX
  8
0
 62
4
 10
-4.77684588E+01
 20
3.18470238E+02
  0
VERTEX
  8
0
 62
4
 10
-4.79450342E+01
 20
3.18460336E+02
  0
VERTEX
  8
0
 62
4
 10
-4.81180263E+01
 20
3.18445582E+02
  0
VERTEX
  8
0
 62
4
 10
-4.82860424E+01
 20
3.18426096E+02
  0
VERTEX
  8
0
 62
4
 10
-4.84477296E+01
 20
3.18402035E+02
  0
VERTEX
  8
0
 62
4
 10
-4.86017863E+01
 20
3.18373592E+02
  0
VERTEX
  8
0
 62
4
 10
-4.87469719E+01
 20
3.18340995E+02
  0
VERTEX
  8
0
 62
4
 10
-4.88821176E+01
 20
3.18304509E+02
  0
VERTEX
  8
0
 62
4
 10
-4.90061352E+01
 20
3.18264426E+02
  0
VERTEX
  8
0
 62
4
 10
-4.91180263E+01
 20
3.18221068E+02
  0
VERTEX
  8
0
 62
4
 10
-4.92168899E+01
 20
3.18174786E+02
  0
VERTEX
  8
0
 62
4
 10
-4.93019300E+01
 20
3.18125952E+02
  0
VERTEX
  8
0
 62
4
 10
-4.93724620E+01
 20
3.18074959E+02
  0
VERTEX
  8
0
 62
4
 10
-4.94279180E+01
 20
3.18022217E+02
  0
VERTEX
  8
0
 62
4
 10
-4.94678515E+01
 20
3.17968151E+02
  0
VERTEX
  8
0
 62
4
 10
-4.94919409E+01
 20
3.17913197E+02
  0
VERTEX
  8
0
 62
4
 10
-4.94999923E+01
 20
3.17857797E+02
  0
SEQEND
  8
0
  0
LINE
  8
0
 62
4
 10
-4.94999923E+01
 20
3.17857797E+02
 11
-4.94999923E+01
 21
3.17017878E+02
  0
LINE
  8
0
 62
6
 10
-4.89999923E+01
 20
3.18266588E+02
 11
-4.89999923E+01
 21
3.17017878E+02
  0
LINE
  8
0
 62
4
 10
-7.39999924E+01
 20
2.94841457E+02
 11
-7.54999924E+01
 21
2.93749948E+02
  0
LINE
  8
0
 62
4
 10
-7.54999924E+01
 20
2.91595805E+02
 11
-7.39999924E+01
 21
2.91037231E+02
  0
LINE
  8
0
 62
4
 10
-7.39999924E+01
 20
2.89801163E+02
 11
-7.54999924E+01
 21
2.90895882E+02
  0
LINE
  8
0
 62
4
 10
-7.39999924E+01
 20
2.91381951E+02
 11
-6.31499924E+01
 21
2.91381951E+02
  0
LINE
  8
0
 62
4
 10
-4.84343943E+01
 20
2.89960473E+02
 11
-4.39999924E+01
 21
2.89960473E+02
  0
LINE
  8
0
 62
4
 10
-7.39999924E+01
 20
2.91037231E+02
 11
-6.31499924E+01
 21
2.91037231E+02
  0
LINE
  8
0
 62
4
 10
-7.39999924E+01
 20
2.89801163E+02
 11
-6.30446076E+01
 21
2.89801163E+02
  0
LINE
  8
0
 62
4
 10
-7.39999924E+01
 20
2.91381951E+02
 11
-7.39999924E+01
 21
2.89801163E+02
  0
LINE
  8
0
 62
4
 10
-7.39999924E+01
 20
2.89801163E+02
 11
-7.39999924E+01
 21
2.89651456E+02
  0
ARC
  8
0
 62
4
 10
-5.38999927E+01
 20
2.90706783E+02
 40
1.00000000E+00
 50
1.80000000E+02
 51
2.57172490E+02
  0
ARC
  8
0
 62
4
 10
-4.90999920E+01
 20
2.90706783E+02
 40
1.00000000E+00
 50
2.82827510E+02
 51
0.00000000E+00
  0
ARC
  8
0
 62
4
 10
-5.14999924E+01
 20
3.01246997E+02
 40
1.18100000E+01
 50
2.57172490E+02
 51
2.82827510E+02
  0
LINE
  8
0
 62
4
 10
-6.31499924E+01
 20
2.90088331E+02
 11
-6.31499924E+01
 21
2.91762190E+02
  0
LINE
  8
0
 62
4
 10
-5.48499924E+01
 20
2.90088331E+02
 11
-5.48499924E+01
 21
2.90394532E+02
  0
POLYLINE
  8
0
 62
4
 66
1
  0
VERTEX
  8
0
 62
4
 10
-5.52999924E+01
 20
2.92342986E+02
  0
VERTEX
  8
0
 62
4
 10
-5.54818074E+01
 20
2.92442370E+02
  0
VERTEX
  8
0
 62
4
 10
-5.56915046E+01
 20
2.92536363E+02
  0
VERTEX
  8
0
 62
4
 10
-5.59274223E+01
 20
2.92624221E+02
  0
VERTEX
  8
0
 62
4
 10
-5.61876906E+01
 20
2.92705247E+02
  0
VERTEX
  8
0
 62
4
 10
-5.64702469E+01
 20
2.92778799E+02
  0
VERTEX
  8
0
 62
4
 10
-5.67728520E+01
 20
2.92844294E+02
  0
VERTEX
  8
0
 62
4
 10
-5.70931075E+01
 20
2.92901214E+02
  0
VERTEX
  8
0
 62
4
 10
-5.74284755E+01
 20
2.92949106E+02
  0
VERTEX
  8
0
 62
4
 10
-5.77762980E+01
 20
2.92987592E+02
  0
VERTEX
  8
0
 62
4
 10
-5.81338186E+01
 20
2.93016367E+02
  0
VERTEX
  8
0
 62
4
 10
-5.84982037E+01
 20
2.93035202E+02
  0
VERTEX
  8
0
 62
4
 10
-5.88665656E+01
 20
2.93043948E+02
  0
VERTEX
  8
0
 62
4
 10
-5.92359849E+01
 20
2.93042535E+02
  0
VERTEX
  8
0
 62
4
 10
-5.96035340E+01
 20
2.93030976E+02
  0
VERTEX
  8
0
 62
4
 10
-5.99662998E+01
 20
2.93009362E+02
  0
VERTEX
  8
0
 62
4
 10
-6.03214075E+01
 20
2.92977863E+02
  0
VERTEX
  8
0
 62
4
 10
-6.06660428E+01
 20
2.92936730E+02
  0
VERTEX
  8
0
 62
4
 10
-6.09974742E+01
 20
2.92886289E+02
  0
VERTEX
  8
0
 62
4
 10
-6.13130753E+01
 20
2.92826938E+02
  0
VERTEX
  8
0
 62
4
 10
-6.16103447E+01
 20
2.92759150E+02
  0
VERTEX
  8
0
 62
4
 10
-6.18869267E+01
 20
2.92683460E+02
  0
VERTEX
  8
0
 62
4
 10
-6.21406291E+01
 20
2.92600470E+02
  0
VERTEX
  8
0
 62
4
 10
-6.23694414E+01
 20
2.92510835E+02
  0
VERTEX
  8
0
 62
4
 10
-6.25715502E+01
 20
2.92415268E+02
  0
VERTEX
  8
0
 62
4
 10
-6.27453537E+01
 20
2.92314524E+02
  0
VERTEX
  8
0
 62
4
 10
-6.28894745E+01
 20
2.92209404E+02
  0
VERTEX
  8
0
 62
4
 10
-6.30027705E+01
 20
2.92100739E+02
  0
VERTEX
  8
0
 62
4
 10
-6.30843437E+01
 20
2.91989391E+02
  0
VERTEX
  8
0
 62
4
 10
-6.31335476E+01
 20
2.91876242E+02
  0
VERTEX
  8
0
 62
4
 10
-6.31499924E+01
 20
2.91762190E+02
  0
SEQEND
  8
0
  0
POLYLINE
  8
0
 62
4
 66
1
  0
VERTEX
  8
0
 62
4
 10
-6.31499924E+01
 20
2.90088331E+02
  0
VERTEX
  8
0
 62
4
 10
-6.31342004E+01
 20
2.89976561E+02
  0
VERTEX
  8
0
 62
4
 10
-6.30869446E+01
 20
2.89865641E+02
  0
VERTEX
  8
0
 62
4
 10
-6.30085846E+01
 20
2.89756416E+02
  0
VERTEX
  8
0
 62
4
 10
-6.28997168E+01
 20
2.89649717E+02
  0
VERTEX
  8
0
 62
4
 10
-6.27611697E+01
 20
2.89546357E+02
  0
VERTEX
  8
0
 62
4
 10
-6.25939978E+01
 20
2.89447121E+02
  0
VERTEX
  8
0
 62
4
 10
-6.23994734E+01
 20
2.89352765E+02
  0
VERTEX
  8
0
 62
4
 10
-6.21790768E+01
 20
2.89264007E+02
  0
VERTEX
  8
0
 62
4
 10
-6.19344856E+01
 20
2.89181523E+02
  0
VERTEX
  8
0
 62
4
 10
-6.16675610E+01
 20
2.89105940E+02
  0
VERTEX
  8
0
 62
4
 10
-6.13803346E+01
 20
2.89037834E+02
  0
VERTEX
  8
0
 62
4
 10
-6.10749924E+01
 20
2.88977722E+02
  0
VERTEX
  8
0
 62
4
 10
-6.07538582E+01
 20
2.88926063E+02
  0
VERTEX
  8
0
 62
4
 10
-6.04193760E+01
 20
2.88883250E+02
  0
VERTEX
  8
0
 62
4
 10
-6.00740914E+01
 20
2.88849608E+02
  0
VERTEX
  8
0
 62
4
 10
-5.97206323E+01
 20
2.88825393E+02
  0
VERTEX
  8
0
 62
4
 10
-5.93616887E+01
 20
2.88810790E+02
  0
VERTEX
  8
0
 62
4
 10
-5.89999924E+01
 20
2.88805910E+02
  0
VERTEX
  8
0
 62
4
 10
-5.86382961E+01
 20
2.88810790E+02
  0
VERTEX
  8
0
 62
4
 10
-5.82793525E+01
 20
2.88825393E+02
  0
VERTEX
  8
0
 62
4
 10
-5.79258934E+01
 20
2.88849608E+02
  0
VERTEX
  8
0
 62
4
 10
-5.75806088E+01
 20
2.88883250E+02
  0
VERTEX
  8
0
 62
4
 10
-5.72461266E+01
 20
2.88926063E+02
  0
VERTEX
  8
0
 62
4
 10
-5.69249924E+01
 20
2.88977722E+02
  0
VERTEX
  8
0
 62
4
 10
-5.66196502E+01
 20
2.89037834E+02
  0
VERTEX
  8
0
 62
4
 10
-5.63324238E+01
 20
2.89105940E+02
  0
VERTEX
  8
0
 62
4
 10
-5.60654993E+01
 20
2.89181523E+02
  0
VERTEX
  8
0
 62
4
 10
-5.58209080E+01
 20
2.89264007E+02
  0
VERTEX
  8
0
 62
4
 10
-5.56005114E+01
 20
2.89352765E+02
  0
VERTEX
  8
0
 62
4
 10
-5.54059870E+01
 20
2.89447121E+02
  0
VERTEX
  8
0
 62
4
 10
-5.52388151E+01
 20
2.89546357E+02
  0
VERTEX
  8
0
 62
4
 10
-5.51002680E+01
 20
2.89649717E+02
  0
VERTEX
  8
0
 62
4
 10
-5.49914002E+01
 20
2.89756416E+02
  0
VERTEX
  8
0
 62
4
 10
-5.49130402E+01
 20
2.89865641E+02
  0
VERTEX
  8
0
 62
4
 10
-5.48657844E+01
 20
2.89976561E+02
  0
VERTEX
  8
0
 62
4
 10
-5.48499924E+01
 20
2.90088331E+02
  0
VERTEX
  8
0
 62
4
 10
-5.48657844E+01
 20
2.90200101E+02
  0
VERTEX
  8
0
 62
4
 10
-5.49130402E+01
 20
2.90311021E+02
  0
VERTEX
  8
0
 62
4
 10
-5.49914002E+01
 20
2.90420246E+02
  0
VERTEX
  8
0
 62
4
 10
-5.51002680E+01
 20
2.90526945E+02
  0
VERTEX
  8
0
 62
4
 10
-5.52388151E+01
 20
2.90630305E+02
  0
VERTEX
  8
0
 62
4
 10
-5.54059870E+01
 20
2.90729541E+02
  0
VERTEX
  8
0
 62
4
 10
-5.56005114E+01
 20
2.90823897E+02
  0
VERTEX
  8
0
 62
4
 10
-5.58209080E+01
 20
2.90912655E+02
  0
VERTEX
  8
0
 62
4
 10
-5.60654993E+01
 20
2.90995139E+02
  0
VERTEX
  8
0
 62
4
 10
-5.63324238E+01
 20
2.91070722E+02
  0
VERTEX
  8
0
 62
4
 10
-5.66196502E+01
 20
2.91138828E+02
  0
VERTEX
  8
0
 62
4
 10
-5.69249924E+01
 20
2.91198940E+02
  0
VERTEX
  8
0
 62
4
 10
-5.72461266E+01
 20
2.91250599E+02
  0
VERTEX
  8
0
 62
4
 10
-5.75806088E+01
 20
2.91293412E+02
  0
VERTEX
  8
0
 62
4
 10
-5.79258934E+01
 20
2.91327054E+02
  0
VERTEX
  8
0
 62
4
 10
-5.82793525E+01
 20
2.91351269E+02
  0
VERTEX
  8
0
 62
4
 10
-5.86382961E+01
 20
2.91365872E+02
  0
VERTEX
  8
0
 62
4
 10
-5.89999924E+01
 20
2.91370751E+02
  0
VERTEX
  8
0
 62
4
 10
-5.93616887E+01
 20
2.91365872E+02
  0
VERTEX
  8
0
 62
4
 10
-5.97206323E+01
 20
2.91351269E+02
  0
VERTEX
  8
0
 62
4
 10
-6.00740914E+01
 20
2.91327054E+02
  0
VERTEX
  8
0
 62
4
 10
-6.04193760E+01
 20
2.91293412E+02
  0
VERTEX
  8
0
 62
4
 10
-6.07538582E+01
 20
2.91250599E+02
  0
VERTEX
  8
0
 62
4
 10
-6.10749924E+01
 20
2.91198940E+02
  0
VERTEX
  8
0
 62
4
 10
-6.13803346E+01
 20
2.91138828E+02
  0
VERTEX
  8
0
 62
4
 10
-6.16675610E+01
 20
2.91070722E+02
  0
VERTEX
  8
0
 62
4
 10
-6.19344856E+01
 20
2.90995139E+02
  0
VERTEX
  8
0
 62
4
 10
-6.21790769E+01
 20
2.90912655E+02
  0
VERTEX
  8
0
 62
4
 10
-6.23994734E+01
 20
2.90823897E+02
  0
VERTEX
  8
0
 62
4
 10
-6.25939978E+01
 20
2.90729541E+02
  0
VERTEX
  8
0
 62
4
 10
-6.27611697E+01
 20
2.90630305E+02
  0
VERTEX
  8
0
 62
4
 10
-6.28997168E+01
 20
2.90526945E+02
  0
VERTEX
  8
0
 62
4
 10
-6.30085846E+01
 20
2.90420246E+02
  0
VERTEX
  8
0
 62
4
 10
-6.30869446E+01
 20
2.90311021E+02
  0
VERTEX
  8
0
 62
4
 10
-6.31342004E+01
 20
2.90200101E+02
  0
VERTEX
  8
0
 62
4
 10
-6.31499924E+01
 20
2.90088331E+02
  0
SEQEND
  8
0
  0
LINE
  8
0
 62
4
 10
-6.29999924E+01
 20
2.92103860E+02
 11
-6.29999924E+01
 21
2.92123592E+02
  0
POLYLINE
  8
0
 62
4
 66
1
  0
VERTEX
  8
0
 62
4
 10
-5.52999924E+01
 20
2.92593257E+02
  0
VERTEX
  8
0
 62
4
 10
-5.54493004E+01
 20
2.92692770E+02
  0
VERTEX
  8
0
 62
4
 10
-5.56265691E+01
 20
2.92787800E+02
  0
VERTEX
  8
0
 62
4
 10
-5.58304025E+01
 20
2.92877600E+02
  0
VERTEX
  8
0
 62
4
 10
-5.60591956E+01
 20
2.92961462E+02
  0
VERTEX
  8
0
 62
4
 10
-5.63111466E+01
 20
2.93038726E+02
  0
VERTEX
  8
0
 62
4
 10
-5.65842716E+01
 20
2.93108784E+02
  0
VERTEX
  8
0
 62
4
 10
-5.68764197E+01
 20
2.93171084E+02
  0
VERTEX
  8
0
 62
4
 10
-5.71852903E+01
 20
2.93225135E+02
  0
VERTEX
  8
0
 62
4
 10
-5.75084512E+01
 20
2.93270512E+02
  0
VERTEX
  8
0
 62
4
 10
-5.78433576E+01
 20
2.93306857E+02
  0
VERTEX
  8
0
 62
4
 10
-5.81873722E+01
 20
2.93333884E+02
  0
VERTEX
  8
0
 62
4
 10
-5.85377859E+01
 20
2.93351380E+02
  0
VERTEX
  8
0
 62
4
 10
-5.88918393E+01
 20
2.93359208E+02
  0
VERTEX
  8
0
 62
4
 10
-5.92467445E+01
 20
2.93357306E+02
  0
VERTEX
  8
0
 62
4
 10
-5.95997065E+01
 20
2.93345689E+02
  0
VERTEX
  8
0
 62
4
 10
-5.99479460E+01
 20
2.93324447E+02
  0
VERTEX
  8
0
 62
4
 10
-6.02887205E+01
 20
2.93293750E+02
  0
VERTEX
  8
0
 62
4
 10
-6.06193467E+01
 20
2.93253838E+02
  0
VERTEX
  8
0
 62
4
 10
-6.09372210E+01
 20
2.93205025E+02
  0
VERTEX
  8
0
 62
4
 10
-6.12398401E+01
 20
2.93147697E+02
  0
VERTEX
  8
0
 62
4
 10
-6.15248210E+01
 20
2.93082304E+02
  0
VERTEX
  8
0
 62
4
 10
-6.17899196E+01
 20
2.93009361E+02
  0
VERTEX
  8
0
 62
4
 10
-6.20330483E+01
 20
2.92929444E+02
  0
VERTEX
  8
0
 62
4
 10
-6.22522926E+01
 20
2.92843180E+02
  0
VERTEX
  8
0
 62
4
 10
-6.24459258E+01
 20
2.92751250E+02
  0
VERTEX
  8
0
 62
4
 10
-6.26124233E+01
 20
2.92654377E+02
  0
VERTEX
  8
0
 62
4
 10
-6.27504739E+01
 20
2.92553324E+02
  0
VERTEX
  8
0
 62
4
 10
-6.28589906E+01
 20
2.92448888E+02
  0
VERTEX
  8
0
 62
4
 10
-6.29371186E+01
 20
2.92341889E+02
  0
VERTEX
  8
0
 62
4
 10
-6.29842430E+01
 20
2.92233172E+02
  0
VERTEX
  8
0
 62
4
 10
-6.29999924E+01
 20
2.92123592E+02
  0
SEQEND
  8
0
  0
ARC
  8
0
 62
4
 10
-6.31876144E+01
 20
3.03076828E+02
 40
1.43299558E+01
 50
2.79721944E+02
 51
2.94556489E+02
  0
ARC
  8
0
 62
4
 10
-5.48123689E+01
 20
3.03076833E+02
 40
1.43299613E+01
 50
2.45443514E+02
 51
2.60278053E+02
  0
LINE
  8
0
 62
4
 10
-5.52999924E+01
 20
2.92254094E+02
 11
-5.52999924E+01
 21
2.93205151E+02
  0
POLYLINE
  8
0
 62
4
 66
1
  0
VERTEX
  8
0
 62
4
 10
-4.76999924E+01
 20
2.93205151E+02
  0
VERTEX
  8
0
 62
4
 10
-4.77152901E+01
 20
2.93310411E+02
  0
VERTEX
  8
0
 62
4
 10
-4.77610600E+01
 20
2.93414824E+02
  0
VERTEX
  8
0
 62
4
 10
-4.78369335E+01
 20
2.93517549E+02
  0
VERTEX
  8
0
 62
4
 10
-4.79422999E+01
 20
2.93617758E+02
  0
VERTEX
  8
0
 62
4
 10
-4.80763107E+01
 20
2.93714645E+02
  0
VERTEX
  8
0
 62
4
 10
-4.82378870E+01
 20
2.93807430E+02
  0
VERTEX
  8
0
 62
4
 10
-4.84257278E+01
 20
2.93895366E+02
  0
VERTEX
  8
0
 62
4
 10
-4.86383208E+01
 20
2.93977745E+02
  0
VERTEX
  8
0
 62
4
 10
-4.88739543E+01
 20
2.94053903E+02
  0
VERTEX
  8
0
 62
4
 10
-4.91307311E+01
 20
2.94123228E+02
  0
VERTEX
  8
0
 62
4
 10
-4.94065839E+01
 20
2.94185161E+02
  0
VERTEX
  8
0
 62
4
 10
-4.96992915E+01
 20
2.94239203E+02
  0
VERTEX
  8
0
 62
4
 10
-5.00064973E+01
 20
2.94284920E+02
  0
VERTEX
  8
0
 62
4
 10
-5.03257278E+01
 20
2.94321943E+02
  0
VERTEX
  8
0
 62
4
 10
-5.06544128E+01
 20
2.94349974E+02
  0
VERTEX
  8
0
 62
4
 10
-5.09899060E+01
 20
2.94368788E+02
  0
VERTEX
  8
0
 62
4
 10
-5.13295060E+01
 20
2.94378233E+02
  0
VERTEX
  8
0
 62
4
 10
-5.16704787E+01
 20
2.94378233E+02
  0
VERTEX
  8
0
 62
4
 10
-5.20100788E+01
 20
2.94368788E+02
  0
VERTEX
  8
0
 62
4
 10
-5.23455719E+01
 20
2.94349974E+02
  0
VERTEX
  8
0
 62
4
 10
-5.26742570E+01
 20
2.94321943E+02
  0
VERTEX
  8
0
 62
4
 10
-5.29934875E+01
 20
2.94284920E+02
  0
VERTEX
  8
0
 62
4
 10
-5.33006933E+01
 20
2.94239203E+02
  0
VERTEX
  8
0
 62
4
 10
-5.35934009E+01
 20
2.94185161E+02
  0
VERTEX
  8
0
 62
4
 10
-5.38692536E+01
 20
2.94123228E+02
  0
VERTEX
  8
0
 62
4
 10
-5.41260304E+01
 20
2.94053903E+02
  0
VERTEX
  8
0
 62
4
 10
-5.43616640E+01
 20
2.93977745E+02
  0
VERTEX
  8
0
 62
4
 10
-5.45742570E+01
 20
2.93895366E+02
  0
VERTEX
  8
0
 62
4
 10
-5.47620978E+01
 20
2.93807430E+02
  0
VERTEX
  8
0
 62
4
 10
-5.49236741E+01
 20
2.93714645E+02
  0
VERTEX
  8
0
 62
4
 10
-5.50576849E+01
 20
2.93617758E+02
  0
VERTEX
  8
0
 62
4
 10
-5.51630513E+01
 20
2.93517549E+02
  0
VERTEX
  8
0
 62
4
 10
-5.52389248E+01
 20
2.93414824E+02
  0
VERTEX
  8
0
 62
4
 10
-5.52846947E+01
 20
2.93310411E+02
  0
VERTEX
  8
0
 62
4
 10
-5.52999924E+01
 20
2.93205151E+02
  0
SEQEND
  8
0
  0
POLYLINE
  8
0
 62
4
 66
1
  0
VERTEX
  8
0
 62
4
 10
-4.80999924E+01
 20
2.91729675E+02
  0
VERTEX
  8
0
 62
4
 10
-4.79634107E+01
 20
2.91824506E+02
  0
VERTEX
  8
0
 62
4
 10
-4.78544629E+01
 20
2.91922694E+02
  0
VERTEX
  8
0
 62
4
 10
-4.77740001E+01
 20
2.92023471E+02
  0
VERTEX
  8
0
 62
4
 10
-4.77226511E+01
 20
2.92126050E+02
  0
VERTEX
  8
0
 62
4
 10
-4.77008171E+01
 20
2.92229630E+02
  0
VERTEX
  8
0
 62
4
 10
-4.77086688E+01
 20
2.92333401E+02
  0
VERTEX
  8
0
 62
4
 10
-4.77461448E+01
 20
2.92436552E+02
  0
VERTEX
  8
0
 62
4
 10
-4.78129522E+01
 20
2.92538278E+02
  0
VERTEX
  8
0
 62
4
 10
-4.79085690E+01
 20
2.92637783E+02
  0
VERTEX
  8
0
 62
4
 10
-4.80322482E+01
 20
2.92734290E+02
  0
VERTEX
  8
0
 62
4
 10
-4.81830233E+01
 20
2.92827045E+02
  0
VERTEX
  8
0
 62
4
 10
-4.83597162E+01
 20
2.92915323E+02
  0
VERTEX
  8
0
 62
4
 10
-4.85609462E+01
 20
2.92998434E+02
  0
VERTEX
  8
0
 62
4
 10
-4.87851412E+01
 20
2.93075730E+02
  0
VERTEX
  8
0
 62
4
 10
-4.90305491E+01
 20
2.93146605E+02
  0
VERTEX
  8
0
 62
4
 10
-4.92952526E+01
 20
2.93210506E+02
  0
VERTEX
  8
0
 62
4
 10
-4.95771832E+01
 20
2.93266935E+02
  0
VERTEX
  8
0
 62
4
 10
-4.98741381E+01
 20
2.93315449E+02
  0
VERTEX
  8
0
 62
4
 10
-5.01837970E+01
 20
2.93355670E+02
  0
VERTEX
  8
0
 62
4
 10
-5.05037402E+01
 20
2.93387284E+02
  0
VERTEX
  8
0
 62
4
 10
-5.08314678E+01
 20
2.93410044E+02
  0
VERTEX
  8
0
 62
4
 10
-5.11644191E+01
 20
2.93423771E+02
  0
VERTEX
  8
0
 62
4
 10
-5.14999924E+01
 20
2.93428359E+02
  0
VERTEX
  8
0
 62
4
 10
-5.18355658E+01
 20
2.93423771E+02
  0
VERTEX
  8
0
 62
4
 10
-5.21685170E+01
 20
2.93410044E+02
  0
VERTEX
  8
0
 62
4
 10
-5.24962447E+01
 20
2.93387284E+02
  0
VERTEX
  8
0
 62
4
 10
-5.28161879E+01
 20
2.93355670E+02
  0
VERTEX
  8
0
 62
4
 10
-5.31258467E+01
 20
2.93315449E+02
  0
VERTEX
  8
0
 62
4
 10
-5.34228016E+01
 20
2.93266935E+02
  0
VERTEX
  8
0
 62
4
 10
-5.37047322E+01
 20
2.93210506E+02
  0
VERTEX
  8
0
 62
4
 10
-5.39694357E+01
 20
2.93146605E+02
  0
VERTEX
  8
0
 62
4
 10
-5.42148437E+01
 20
2.93075730E+02
  0
VERTEX
  8
0
 62
4
 10
-5.44390386E+01
 20
2.92998434E+02
  0
VERTEX
  8
0
 62
4
 10
-5.46402687E+01
 20
2.92915323E+02
  0
VERTEX
  8
0
 62
4
 10
-5.48169616E+01
 20
2.92827045E+02
  0
VERTEX
  8
0
 62
4
 10
-5.49677366E+01
 20
2.92734290E+02
  0
VERTEX
  8
0
 62
4
 10
-5.50914158E+01
 20
2.92637783E+02
  0
VERTEX
  8
0
 62
4
 10
-5.51870326E+01
 20
2.92538278E+02
  0
VERTEX
  8
0
 62
4
 10
-5.52538400E+01
 20
2.92436552E+02
  0
VERTEX
  8
0
 62
4
 10
-5.52913160E+01
 20
2.92333401E+02
  0
VERTEX
  8
0
 62
4
 10
-5.52991677E+01
 20
2.92229630E+02
  0
VERTEX
  8
0
 62
4
 10
-5.52773337E+01
 20
2.92126050E+02
  0
VERTEX
  8
0
 62
4
 10
-5.52259847E+01
 20
2.92023471E+02
  0
VERTEX
  8
0
 62
4
 10
-5.51455219E+01
 20
2.91922694E+02
  0
VERTEX
  8
0
 62
4
 10
-5.50365741E+01
 20
2.91824506E+02
  0
VERTEX
  8
0
 62
4
 10
-5.48999924E+01
 20
2.91729675E+02
  0
SEQEND
  8
0
  0
LINE
  8
0
 62
4
 10
-4.76999924E+01
 20
2.92254094E+02
 11
-4.76999924E+01
 21
2.93205151E+02
  0
LINE
  8
0
 62
4
 10
-5.48999924E+01
 20
2.90706783E+02
 11
-5.48999924E+01
 21
2.92254094E+02
  0
POLYLINE
  8
0
 62
4
 66
1
  0
VERTEX
  8
0
 62
4
 10
-4.80999924E+01
 20
2.92254094E+02
  0
VERTEX
  8
0
 62
4
 10
-4.81136798E+01
 20
2.92348274E+02
  0
VERTEX
  8
0
 62
4
 10
-4.81546318E+01
 20
2.92441696E+02
  0
VERTEX
  8
0
 62
4
 10
-4.82225187E+01
 20
2.92533608E+02
  0
VERTEX
  8
0
 62
4
 10
-4.83167938E+01
 20
2.92623269E+02
  0
VERTEX
  8
0
 62
4
 10
-4.84366982E+01
 20
2.92709957E+02
  0
VERTEX
  8
0
 62
4
 10
-4.85812665E+01
 20
2.92792976E+02
  0
VERTEX
  8
0
 62
4
 10
-4.87493346E+01
 20
2.92871655E+02
  0
VERTEX
  8
0
 62
4
 10
-4.89395494E+01
 20
2.92945362E+02
  0
VERTEX
  8
0
 62
4
 10
-4.91503794E+01
 20
2.93013504E+02
  0
VERTEX
  8
0
 62
4
 10
-4.93801271E+01
 20
2.93075531E+02
  0
VERTEX
  8
0
 62
4
 10
-4.96269426E+01
 20
2.93130945E+02
  0
VERTEX
  8
0
 62
4
 10
-4.98888389E+01
 20
2.93179299E+02
  0
VERTEX
  8
0
 62
4
 10
-5.01637073E+01
 20
2.93220203E+02
  0
VERTEX
  8
0
 62
4
 10
-5.04493346E+01
 20
2.93253329E+02
  0
VERTEX
  8
0
 62
4
 10
-5.07434212E+01
 20
2.93278410E+02
  0
VERTEX
  8
0
 62
4
 10
-5.10435993E+01
 20
2.93295243E+02
  0
VERTEX
  8
0
 62
4
 10
-5.13474520E+01
 20
2.93303694E+02
  0
VERTEX
  8
0
 62
4
 10
-5.16525328E+01
 20
2.93303694E+02
  0
VERTEX
  8
0
 62
4
 10
-5.19563855E+01
 20
2.93295243E+02
  0
VERTEX
  8
0
 62
4
 10
-5.22565636E+01
 20
2.93278410E+02
  0
VERTEX
  8
0
 62
4
 10
-5.25506502E+01
 20
2.93253329E+02
  0
VERTEX
  8
0
 62
4
 10
-5.28362775E+01
 20
2.93220203E+02
  0
VERTEX
  8
0
 62
4
 10
-5.31111458E+01
 20
2.93179299E+02
  0
VERTEX
  8
0
 62
4
 10
-5.33730421E+01
 20
2.93130945E+02
  0
VERTEX
  8
0
 62
4
 10
-5.36198577E+01
 20
2.93075531E+02
  0
VERTEX
  8
0
 62
4
 10
-5.38496054E+01
 20
2.93013504E+02
  0
VERTEX
  8
0
 62
4
 10
-5.40604354E+01
 20
2.92945362E+02
  0
VERTEX
  8
0
 62
4
 10
-5.42506502E+01
 20
2.92871655E+02
  0
VERTEX
  8
0
 62
4
 10
-5.44187183E+01
 20
2.92792976E+02
  0
VERTEX
  8
0
 62
4
 10
-5.45632865E+01
 20
2.92709957E+02
  0
VERTEX
  8
0
 62
4
 10
-5.46831910E+01
 20
2.92623269E+02
  0
VERTEX
  8
0
 62
4
 10
-5.47774661E+01
 20
2.92533608E+02
  0
VERTEX
  8
0
 62
4
 10
-5.48453530E+01
 20
2.92441696E+02
  0
VERTEX
  8
0
 62
4
 10
-5.48863050E+01
 20
2.92348274E+02
  0
VERTEX
  8
0
 62
4
 10
-5.48999924E+01
 20
2.92254094E+02
  0
SEQEND
  8
0
  0
LINE
  8
0
 62
4
 10
-4.80999924E+01
 20
2.90706783E+02
 11
-4.80999924E+01
 21
2.92254094E+02
  0
POLYLINE
  8
0
 62
4
 66
1
  0
VERTEX
  8
0
 62
4
 10
-4.80999924E+01
 20
2.90706789E+02
  0
VERTEX
  8
0
 62
4
 10
-4.81136816E+01
 20
2.90800969E+02
  0
VERTEX
  8
0
 62
4
 10
-4.81546354E+01
 20
2.90894391E+02
  0
VERTEX
  8
0
 62
4
 10
-4.82225241E+01
 20
2.90986303E+02
  0
VERTEX
  8
0
 62
4
 10
-4.83168010E+01
 20
2.91075964E+02
  0
VERTEX
  8
0
 62
4
 10
-4.84367071E+01
 20
2.91162652E+02
  0
VERTEX
  8
0
 62
4
 10
-4.85812770E+01
 20
2.91245670E+02
  0
VERTEX
  8
0
 62
4
 10
-4.87493466E+01
 20
2.91324349E+02
  0
VERTEX
  8
0
 62
4
 10
-4.89395628E+01
 20
2.91398056E+02
  0
VERTEX
  8
0
 62
4
 10
-4.91503941E+01
 20
2.91466197E+02
  0
VERTEX
  8
0
 62
4
 10
-4.93801430E+01
 20
2.91528224E+02
  0
VERTEX
  8
0
 62
4
 10
-4.96269597E+01
 20
2.91583637E+02
  0
VERTEX
  8
0
 62
4
 10
-4.98888569E+01
 20
2.91631991E+02
  0
VERTEX
  8
0
 62
4
 10
-5.01637260E+01
 20
2.91672894E+02
  0
VERTEX
  8
0
 62
4
 10
-5.04493540E+01
 20
2.91706020E+02
  0
VERTEX
  8
0
 62
4
 10
-5.07434411E+01
 20
2.91731100E+02
  0
VERTEX
  8
0
 62
4
 10
-5.10436195E+01
 20
2.91747933E+02
  0
VERTEX
  8
0
 62
4
 10
-5.13474723E+01
 20
2.91756383E+02
  0
VERTEX
  8
0
 62
4
 10
-5.16525532E+01
 20
2.91756383E+02
  0
VERTEX
  8
0
 62
4
 10
-5.19564057E+01
 20
2.91747931E+02
  0
VERTEX
  8
0
 62
4
 10
-5.22565834E+01
 20
2.91731097E+02
  0
VERTEX
  8
0
 62
4
 10
-5.25506696E+01
 20
2.91706016E+02
  0
VERTEX
  8
0
 62
4
 10
-5.28362962E+01
 20
2.91672890E+02
  0
VERTEX
  8
0
 62
4
 10
-5.31111638E+01
 20
2.91631985E+02
  0
VERTEX
  8
0
 62
4
 10
-5.33730591E+01
 20
2.91583630E+02
  0
VERTEX
  8
0
 62
4
 10
-5.36198737E+01
 20
2.91528216E+02
  0
VERTEX
  8
0
 62
4
 10
-5.38496201E+01
 20
2.91466189E+02
  0
VERTEX
  8
0
 62
4
 10
-5.40604488E+01
 20
2.91398047E+02
  0
VERTEX
  8
0
 62
4
 10
-5.42506622E+01
 20
2.91324339E+02
  0
VERTEX
  8
0
 62
4
 10
-5.44187287E+01
 20
2.91245659E+02
  0
VERTEX
  8
0
 62
4
 10
-5.45632954E+01
 20
2.91162641E+02
  0
VERTEX
  8
0
 62
4
 10
-5.46831981E+01
 20
2.91075952E+02
  0
VERTEX
  8
0
 62
4
 10
-5.47774715E+01
 20
2.90986291E+02
  0
VERTEX
  8
0
 62
4
 10
-5.48453566E+01
 20
2.90894379E+02
  0
VERTEX
  8
0
 62
4
 10
-5.48863068E+01
 20
2.90800957E+02
  0
VERTEX
  8
0
 62
4
 10
-5.48999924E+01
 20
2.90706777E+02
  0
SEQEND
  8
0
  0
ARC
  8
0
 62
4
 10
-5.56604923E+01
 20
3.03561200E+02
 40
1.42127873E+01
 50
2.79930719E+02
 51
2.94652135E+02
  0
ARC
  8
0
 62
4
 10
-4.73394922E+01
 20
3.03561201E+02
 40
1.42127883E+01
 50
2.45347865E+02
 51
2.60069281E+02
  0
LINE
  8
0
  6
CENTER
 62
6
 10
-6.89999924E+01
 20
2.93205151E+02
 11
-6.39999924E+01
 21
2.93205151E+02
  0
LINE
  8
0
  6
CENTER
 62
6
 10
-5.89999924E+01
 20
2.94623592E+02
 11
-5.89999924E+01
 21
2.89623592E+02
  0
LINE
  8
0
  6
CENTER
 62
6
 10
-6.14999924E+01
 20
2.92123592E+02
 11
-5.64999924E+01
 21
2.92123592E+02
  0
LINE
  8
0
  6
CENTER
 62
6
 10
-5.14999924E+01
 20
2.95705151E+02
 11
-5.14999924E+01
 21
2.90705151E+02
  0
LINE
  8
0
  6
CENTER
 62
6
 10
-5.39999924E+01
 20
2.93205151E+02
 11
-4.89999924E+01
 21
2.93205151E+02
  0
LINE
  8
0
 62
4
 10
-5.50982248E+01
 20
2.89651456E+02
 11
-5.37404226E+01
 21
2.89651456E+02
  0
LINE
  8
0
 62
4
 10
-5.49553771E+01
 20
2.89801163E+02
 11
-5.43240822E+01
 21
2.89801163E+02
  0
LINE
  8
0
 62
4
 10
-4.80999924E+01
 20
2.91381951E+02
 11
-4.39999924E+01
 21
2.91381951E+02
  0
LINE
  8
0
 62
4
 10
-4.92595621E+01
 20
2.89651456E+02
 11
-4.39999924E+01
 21
2.89651456E+02
  0
LINE
  8
0
  6
CENTER
 62
2
 10
-1.77033272E+02
 20
2.79750000E+02
 11
5.97908058E+01
 21
2.79750000E+02
  0
LINE
  8
0
  6
CENTER
 62
2
 10
-1.09364861E+02
 20
2.87750000E+02
 11
-8.77606888E+01
 21
2.87750000E+02
  0
LINE
  8
0
  6
CENTER
 62
2
 10
-9.90000687E+01
 20
2.77749985E+02
 11
-9.90000687E+01
 21
2.98296265E+02
  0
LINE
  8
0
 62
7
 10
-1.18499992E+02
 20
2.60749985E+02
 11
-1.16999992E+02
 21
2.60749985E+02
  0
LINE
  8
0
 62
7
 10
-1.31500008E+02
 20
2.62750000E+02
 11
-1.26991447E+02
 21
2.62750000E+02
  0
LINE
  8
0
 62
7
 10
-1.26999992E+02
 20
2.62749985E+02
 11
-1.26999992E+02
 21
2.62741440E+02
  0
LINE
  8
0
 62
7
 10
-1.26758764E+02
 20
2.62491520E+02
 11
-1.19000066E+02
 21
2.62220580E+02
  0
LINE
  8
0
 62
7
 10
-1.16508758E+02
 20
2.42800071E+02
 11
-8.50000536E+01
 21
2.42250085E+02
  0
LINE
  8
0
 62
7
 10
-1.31999992E+02
 20
2.63250015E+02
 11
-1.31999992E+02
 21
2.96249969E+02
  0
LINE
  8
0
 62
7
 10
-1.18499992E+02
 20
2.98750000E+02
 11
-1.16999992E+02
 21
2.98750000E+02
  0
LINE
  8
0
 62
7
 10
-1.31500008E+02
 20
2.96749969E+02
 11
-1.26991447E+02
 21
2.96749969E+02
  0
LINE
  8
0
 62
7
 10
-1.26999992E+02
 20
2.96750000E+02
 11
-1.26999992E+02
 21
2.96758545E+02
  0
LINE
  8
0
 62
7
 10
-1.26758735E+02
 20
2.97008618E+02
 11
-1.19000052E+02
 21
2.97279557E+02
  0
LINE
  8
0
 62
7
 10
-1.16999992E+02
 20
2.43299911E+02
 11
-1.16999992E+02
 21
3.16200073E+02
  0
LINE
  8
0
 62
7
 10
-8.49999924E+01
 20
2.42250031E+02
 11
-8.49999924E+01
 21
3.17250000E+02
  0
LINE
  8
0
 62
7
 10
-1.16508731E+02
 20
3.16700001E+02
 11
-8.50000108E+01
 21
3.17249988E+02
  0
LINE
  8
0
 62
7
 10
-1.19000008E+02
 20
2.61249985E+02
 11
-1.19000008E+02
 21
2.98250015E+02
  0
LINE
  8
0
 62
7
 10
-1.26999992E+02
 20
2.96750000E+02
 11
-1.26999992E+02
 21
2.62749985E+02
  0
LINE
  8
0
 62
7
 10
-1.10999992E+02
 20
3.04750000E+02
 11
-8.49999924E+01
 21
3.04750000E+02
  0
LINE
  8
0
 62
7
 10
-1.10999992E+02
 20
2.54749985E+02
 11
-8.49999924E+01
 21
2.54749985E+02
  0
LINE
  8
0
 62
7
 10
-1.13000008E+02
 20
3.02750000E+02
 11
-1.13000008E+02
 21
2.56750000E+02
  0
LINE
  8
0
  6
CENTER
 62
2
 10
4.63648529E+01
 20
2.87750000E+02
 11
2.47606735E+01
 21
2.87750000E+02
  0
LINE
  8
0
  6
CENTER
 62
2
 10
3.60000458E+01
 20
2.77749985E+02
 11
3.60000458E+01
 21
2.98296265E+02
  0
LINE
  8
0
 62
7
 10
5.54999924E+01
 20
2.98749985E+02
 11
5.39999924E+01
 21
2.98749985E+02
  0
LINE
  8
0
 62
7
 10
5.35087352E+01
 20
3.16699995E+02
 11
2.20000456E+01
 21
3.17249981E+02
  0
LINE
  8
0
 62
7
 10
5.54999924E+01
 20
2.60749985E+02
 11
5.39999924E+01
 21
2.60749985E+02
  0
LINE
  8
0
 62
7
 10
5.39999809E+01
 20
3.16200073E+02
 11
5.39999809E+01
 21
2.43299911E+02
  0
LINE
  8
0
 62
7
 10
2.19999924E+01
 20
3.17249939E+02
 11
2.19999924E+01
 21
2.42249969E+02
  0
LINE
  8
0
 62
7
 10
5.35087298E+01
 20
2.42800001E+02
 11
2.20000135E+01
 21
2.42250014E+02
  0
LINE
  8
0
 62
7
 10
5.59999886E+01
 20
2.98249985E+02
 11
5.59999886E+01
 21
2.61249985E+02
  0
LINE
  8
0
 62
7
 10
4.79999847E+01
 20
2.54749985E+02
 11
2.19999924E+01
 21
2.54749985E+02
  0
LINE
  8
0
 62
7
 10
4.79999847E+01
 20
3.04750000E+02
 11
2.19999924E+01
 21
3.04750000E+02
  0
LINE
  8
0
 62
7
 10
4.99999847E+01
 20
2.56750000E+02
 11
4.99999847E+01
 21
3.02750000E+02
  0
LINE
  8
0
  6
CENTER
 62
2
 10
5.82292404E+01
 20
2.51749969E+02
 11
-1.20248085E+02
 21
2.51749969E+02
  0
LINE
  8
0
 62
7
 10
2.19999924E+01
 20
2.55350021E+02
 11
1.49999924E+01
 21
2.55350021E+02
  0
LINE
  8
0
 62
7
 10
2.19999924E+01
 20
2.48150009E+02
 11
-7.62939442E-06
 21
2.48150009E+02
  0
LINE
  8
0
 62
7
 10
2.19999924E+01
 20
2.45750031E+02
 11
-7.62939442E-06
 21
2.45750031E+02
  0
LINE
  8
0
  6
CENTER
 62
2
 10
2.90000229E+01
 20
2.74161148E+02
 11
2.90000229E+01
 21
2.60684402E+02
  0
LINE
  8
0
  6
CENTER
 62
2
 10
2.23342972E+01
 20
2.67750000E+02
 11
3.51630478E+01
 21
2.67750000E+02
  0
LINE
  8
0
 62
7
 10
3.07320801E+01
 20
2.67749894E+02
 11
2.98660485E+01
 21
2.69249913E+02
  0
LINE
  8
0
 62
7
 10
2.98660355E+01
 20
2.69250015E+02
 11
2.81339722E+01
 21
2.69250015E+02
  0
LINE
  8
0
 62
7
 10
2.72681294E+01
 20
2.67749876E+02
 11
2.81341380E+01
 21
2.69249856E+02
  0
LINE
  8
0
 62
7
 10
2.81340299E+01
 20
2.66249971E+02
 11
2.72679831E+01
 21
2.67750017E+02
  0
LINE
  8
0
 62
7
 10
2.98660355E+01
 20
2.66249985E+02
 11
2.81339722E+01
 21
2.66249985E+02
  0
LINE
  8
0
 62
7
 10
3.07321521E+01
 20
2.67749901E+02
 11
2.98661205E+01
 21
2.66249882E+02
  0
LINE
  8
0
 62
7
 10
-9.02679675E+01
 20
2.67749922E+02
 11
-9.11339914E+01
 21
2.69249929E+02
  0
LINE
  8
0
 62
7
 10
-9.11340256E+01
 20
2.69250015E+02
 11
-9.28660965E+01
 21
2.69250015E+02
  0
LINE
  8
0
 62
7
 10
-9.37319309E+01
 20
2.67749864E+02
 11
-9.28659108E+01
 21
2.69249864E+02
  0
LINE
  8
0
 62
7
 10
-9.28659882E+01
 20
2.66249963E+02
 11
-9.37320273E+01
 21
2.67749996E+02
  0
LINE
  8
0
 62
7
 10
-9.11340256E+01
 20
2.66249985E+02
 11
-9.28660965E+01
 21
2.66249985E+02
  0
LINE
  8
0
 62
7
 10
-9.02679441E+01
 20
2.67749918E+02
 11
-9.11339794E+01
 21
2.66249892E+02
  0
LINE
  8
0
  6
CENTER
 62
2
 10
-9.86657639E+01
 20
2.67750000E+02
 11
-8.58370132E+01
 21
2.67750000E+02
  0
LINE
  8
0
  6
CENTER
 62
2
 10
-9.20000381E+01
 20
2.74161148E+02
 11
-9.20000381E+01
 21
2.60684402E+02
  0
LINE
  8
0
  6
CENTER
 62
2
 10
5.82292404E+01
 20
3.07750031E+02
 11
-1.20248085E+02
 21
3.07750031E+02
  0
LINE
  8
0
 62
7
 10
2.19999924E+01
 20
3.04149994E+02
 11
-4.40000000E+01
 21
3.04149994E+02
  0
LINE
  8
0
 62
7
 10
2.19999924E+01
 20
3.11350006E+02
 11
-4.39999924E+01
 21
3.11350006E+02
  0
LINE
  8
0
 62
7
 10
2.19999924E+01
 20
3.13749969E+02
 11
-4.40000000E+01
 21
3.13749969E+02
  0
LINE
  8
0
 62
7
 10
-1.38999962E+02
 20
2.88250015E+02
 11
-1.38999962E+02
 21
2.71250015E+02
  0
LINE
  8
0
 62
7
 10
-1.33500008E+02
 20
2.69750046E+02
 11
-1.32000038E+02
 21
2.69750046E+02
  0
LINE
  8
0
 62
7
 10
-1.33499977E+02
 20
2.89750046E+02
 11
-1.31999992E+02
 21
2.89750046E+02
  0
LINE
  8
0
 62
7
 10
-1.44999947E+02
 20
2.70750015E+02
 11
-1.44999947E+02
 21
2.88750015E+02
  0
LINE
  8
0
 62
7
 10
-1.73999977E+02
 20
2.72250046E+02
 11
-1.73999977E+02
 21
2.87249847E+02
  0
LINE
  8
0
 62
7
 10
-1.72499947E+02
 20
2.70750015E+02
 11
-1.72499947E+02
 21
2.88750015E+02
  0
LINE
  8
0
 62
7
 10
-1.72499916E+02
 20
2.88750015E+02
 11
-1.64999962E+02
 21
2.88750015E+02
  0
LINE
  8
0
 62
2
 10
-1.73319923E+02
 20
2.87930008E+02
 11
-1.64999962E+02
 21
2.87930008E+02
  0
LINE
  8
0
 62
7
 10
-1.73999817E+02
 20
2.87249836E+02
 11
-1.72499784E+02
 21
2.88749823E+02
  0
LINE
  8
0
 62
7
 10
-1.72499916E+02
 20
2.70750031E+02
 11
-1.64999962E+02
 21
2.70750031E+02
  0
LINE
  8
0
 62
2
 10
-1.73319923E+02
 20
2.71570038E+02
 11
-1.64999962E+02
 21
2.71570038E+02
  0
LINE
  8
0
 62
7
 10
-1.74000014E+02
 20
2.72250151E+02
 11
-1.72499979E+02
 21
2.70750161E+02
  0
LINE
  8
0
 62
7
 10
-1.41999962E+02
 20
2.79749969E+02
 11
-1.41999962E+02
 21
2.88250015E+02
  0
LINE
  8
0
 62
7
 10
-1.41999962E+02
 20
2.79749969E+02
 11
-1.41999962E+02
 21
2.71250015E+02
  0
LINE
  8
0
 62
7
 10
-1.41999962E+02
 20
2.71250015E+02
 11
-1.35000023E+02
 21
2.71250015E+02
  0
LINE
  8
0
 62
7
 10
-1.41999962E+02
 20
2.88250031E+02
 11
-1.35000023E+02
 21
2.88250031E+02
  0
LINE
  8
0
 62
7
 10
-1.35000084E+02
 20
2.71250091E+02
 11
-1.33500115E+02
 21
2.69750122E+02
  0
LINE
  8
0
 62
7
 10
-1.35000141E+02
 20
2.88250160E+02
 11
-1.33500118E+02
 21
2.89750183E+02
  0
LINE
  8
0
 62
7
 10
-1.44999947E+02
 20
2.87930008E+02
 11
-1.41999962E+02
 21
2.87930008E+02
  0
LINE
  8
0
 62
7
 10
-1.44999947E+02
 20
2.71570038E+02
 11
-1.41999962E+02
 21
2.71570038E+02
  0
ARC
  8
0
 62
7
 10
-1.31500008E+02
 20
2.63250031E+02
 40
5.00000000E-01
 50
1.79999977E+02
 51
2.69999974E+02
  0
ARC
  8
0
 62
7
 10
-1.26750008E+02
 20
2.62741455E+02
 40
2.50000000E-01
 50
1.79999977E+02
 51
2.68001132E+02
  0
ARC
  8
0
 62
7
 10
-1.16500008E+02
 20
2.43299927E+02
 40
5.00000000E-01
 50
1.79999977E+02
 51
2.68999706E+02
  0
ARC
  8
0
 62
7
 10
-1.18499992E+02
 20
2.61249985E+02
 40
5.00000000E-01
 50
1.79999977E+02
 51
2.69999974E+02
  0
ARC
  8
0
 62
7
 10
-1.31500008E+02
 20
2.96249939E+02
 40
5.00000000E-01
 50
8.99999818E+01
 51
1.79999964E+02
  0
ARC
  8
0
 62
7
 10
-1.26750008E+02
 20
2.96758514E+02
 40
2.50000000E-01
 50
9.19988230E+01
 51
1.79999977E+02
  0
ARC
  8
0
 62
7
 10
-1.16500008E+02
 20
3.16200073E+02
 40
5.00000000E-01
 50
9.10002223E+01
 51
1.79999964E+02
  0
ARC
  8
0
 62
7
 10
-1.18499992E+02
 20
2.98249985E+02
 40
5.00000000E-01
 50
8.99999818E+01
 51
1.79999964E+02
  0
CIRCLE
  8
0
 62
7
 10
-9.90000687E+01
 20
2.87750000E+02
 40
8.71000004E+00
  0
CIRCLE
  8
0
 62
7
 10
-9.90000687E+01
 20
2.87750000E+02
 40
7.44000006E+00
  0
ARC
  8
0
 62
7
 10
-1.10999992E+02
 20
3.02750000E+02
 40
2.00000000E+00
 50
8.99999818E+01
 51
1.79999964E+02
  0
ARC
  8
0
 62
7
 10
-1.10999992E+02
 20
2.56749969E+02
 40
2.00000000E+00
 50
1.79999977E+02
 51
2.70000028E+02
  0
CIRCLE
  8
0
 62
2
 10
-9.90000687E+01
 20
2.87750000E+02
 40
8.32999992E+00
  0
ARC
  8
0
 62
7
 10
5.34999886E+01
 20
3.16200073E+02
 40
5.00000000E-01
 50
5.46415133E-05
 51
8.89997964E+01
  0
ARC
  8
0
 62
7
 10
5.54999962E+01
 20
2.98249985E+02
 40
5.00000000E-01
 50
5.46415133E-05
 51
9.00000369E+01
  0
ARC
  8
0
 62
7
 10
5.34999886E+01
 20
2.43299881E+02
 40
5.00000000E-01
 50
2.71000313E+02
 51
5.46415133E-05
  0
ARC
  8
0
 62
7
 10
5.54999962E+01
 20
2.61249985E+02
 40
5.00000000E-01
 50
2.70000073E+02
 51
5.46415133E-05
  0
CIRCLE
  8
0
 62
7
 10
3.60000458E+01
 20
2.87750000E+02
 40
8.71000004E+00
  0
CIRCLE
  8
0
 62
7
 10
3.60000458E+01
 20
2.87750000E+02
 40
7.44000006E+00
  0
ARC
  8
0
 62
7
 10
4.80000000E+01
 20
2.56749969E+02
 40
2.00000000E+00
 50
2.70000073E+02
 51
5.46415133E-05
  0
ARC
  8
0
 62
7
 10
4.80000000E+01
 20
3.02750000E+02
 40
2.00000000E+00
 50
5.46415133E-05
 51
9.00000913E+01
  0
CIRCLE
  8
0
 62
2
 10
3.60000458E+01
 20
2.87750000E+02
 40
8.32999992E+00
  0
CIRCLE
  8
0
 62
7
 10
2.90000229E+01
 20
2.67750000E+02
 40
5.00000000E+00
  0
CIRCLE
  8
0
 62
7
 10
-9.20000381E+01
 20
2.67750000E+02
 40
5.00000000E+00
  0
CIRCLE
  8
0
 62
7
 10
-9.20000381E+01
 20
2.67750000E+02
 40
2.59999990E+00
  0
CIRCLE
  8
0
 62
7
 10
2.90000229E+01
 20
2.67750000E+02
 40
2.59999990E+00
  0
LINE
  8
0
 62
6
 10
-7.07149553E+01
 20
-2.72101747E+02
 11
-6.72850856E+01
 21
-2.68671872E+02
  0
LINE
  8
0
 62
6
 10
-6.72850831E+01
 20
-2.72101745E+02
 11
-7.07149577E+01
 21
-2.68671875E+02
  0
ARC
  8
0
 62
4
 10
-7.95025109E+01
 20
-2.66223675E+02
 40
1.49752302E+00
 50
8.99052542E+01
 51
1.80094952E+02
  0
ARC
  8
0
 62
4
 10
-8.54975769E+01
 20
-2.52700853E+02
 40
5.02493390E-01
 50
1.80283706E+02
 51
2.69716500E+02
  0
ARC
  8
0
 62
4
 10
-4.34975528E+01
 20
-2.66223610E+02
 40
1.49752302E+00
 50
3.59905254E+02
 51
9.00949513E+01
  0
ARC
  8
0
 62
4
 10
-7.69975875E+01
 20
-2.53700850E+02
 40
4.97531232E-01
 50
3.59715089E+02
 51
9.02851166E+01
  0
ARC
  8
0
 62
4
 10
-8.55025704E+01
 20
-2.39700872E+02
 40
4.97531232E-01
 50
8.97150889E+01
 51
1.80285117E+02
  0
LINE
  8
0
 62
4
 10
-8.95000735E+01
 20
-2.51953337E+02
 11
-8.60000735E+01
 21
-2.51953331E+02
  0
LINE
  8
0
 62
4
 10
-8.95000941E+01
 20
-2.40453337E+02
 11
-8.60000941E+01
 21
-2.40453331E+02
  0
LINE
  8
0
 62
4
 10
-8.95000950E+01
 20
-2.39953337E+02
 11
-8.95000726E+01
 21
-2.52453337E+02
  0
LINE
  8
0
 62
4
 10
-9.10000726E+01
 20
-2.52453340E+02
 11
-8.60000726E+01
 21
-2.52453331E+02
  0
LINE
  8
0
 62
4
 10
-9.10000950E+01
 20
-2.39953340E+02
 11
-8.60000950E+01
 21
-2.39953331E+02
  0
LINE
  8
0
 62
4
 10
-9.10000966E+01
 20
-2.39108818E+02
 11
-9.10000711E+01
 21
-2.53310507E+02
  0
LINE
  8
0
 62
4
 10
-9.60000966E+01
 20
-2.39108818E+02
 11
-9.60000711E+01
 21
-2.53310507E+02
  0
LINE
  8
0
 62
4
 10
-8.60000955E+01
 20
-2.39703348E+02
 11
-8.60000722E+01
 21
-2.52703348E+02
  0
LINE
  8
0
 62
4
 10
-7.65000964E+01
 20
-2.39203331E+02
 11
-8.55000964E+01
 21
-2.39203347E+02
  0
LINE
  8
0
 62
4
 10
-8.55000633E+01
 20
-2.53203340E+02
 11
-7.70000633E+01
 21
-2.53203325E+02
  0
LINE
  8
0
 62
4
 10
-9.60000711E+01
 20
-2.53310507E+02
 11
-9.10000711E+01
 21
-2.53310498E+02
  0
LINE
  8
0
 62
4
 10
-9.60000813E+01
 20
-2.47639164E+02
 11
-9.10000813E+01
 21
-2.47639155E+02
  0
LINE
  8
0
 62
4
 10
-9.60000940E+01
 20
-2.40547775E+02
 11
-9.10000940E+01
 21
-2.40547766E+02
  0
LINE
  8
0
 62
4
 10
-7.95000346E+01
 20
-2.64726154E+02
 11
-4.35000346E+01
 21
-2.64726089E+02
  0
LINE
  8
0
 62
4
 10
-8.10000129E+01
 20
-2.76814272E+02
 11
-4.20000129E+01
 21
-2.76814202E+02
  0
LINE
  8
0
 62
4
 10
-8.10000103E+01
 20
-2.78232550E+02
 11
-4.20000103E+01
 21
-2.78232480E+02
  0
LINE
  8
0
 62
4
 10
-7.80000005E+01
 20
-2.82981874E+02
 11
-4.50000005E+01
 21
-2.82981815E+02
  0
LINE
  8
0
 62
4
 10
-4.20000319E+01
 20
-2.66226087E+02
 11
-4.20000103E+01
 21
-2.78232480E+02
  0
LINE
  8
0
 62
4
 10
-7.65000576E+01
 20
-2.60787262E+02
 11
-6.15000576E+01
 21
-2.60787235E+02
  0
LINE
  8
0
 62
4
 10
-5.95000571E+01
 20
-2.61081614E+02
 11
-5.95000506E+01
 21
-2.64726118E+02
  0
LINE
  8
0
 62
4
 10
-7.65000984E+01
 20
-2.38094790E+02
 11
-7.65000571E+01
 21
-2.61081645E+02
  0
LINE
  8
0
 62
4
 10
-6.15000984E+01
 20
-2.38094790E+02
 11
-6.15000571E+01
 21
-2.61081618E+02
  0
LINE
  8
0
 62
4
 10
-7.85000571E+01
 20
-2.61081648E+02
 11
-7.85000506E+01
 21
-2.64726132E+02
  0
LINE
  8
0
 62
4
 10
-8.10000319E+01
 20
-2.66226157E+02
 11
-8.10000103E+01
 21
-2.78232550E+02
  0
LINE
  8
0
 62
4
 10
-7.85000571E+01
 20
-2.61081648E+02
 11
-5.95000571E+01
 21
-2.61081614E+02
  0
LINE
  8
0
 62
4
 10
-7.65000984E+01
 20
-2.38094817E+02
 11
-6.15000984E+01
 21
-2.38094790E+02
  0
LINE
  8
0
  6
CENTER
 62
6
 10
-7.54000211E+01
 20
-2.70001773E+02
 11
-6.26000211E+01
 21
-2.70001750E+02
  0
LINE
  8
0
  6
CENTER
 62
6
 10
-6.90000096E+01
 20
-2.76401761E+02
 11
-6.90000326E+01
 21
-2.63601761E+02
  0
POLYLINE
  8
0
 62
4
 66
1
  0
VERTEX
  8
0
 62
4
 10
-7.24000193E+01
 20
-2.70978326E+02
  0
VERTEX
  8
0
 62
4
 10
-7.23870496E+01
 20
-2.71258899E+02
  0
VERTEX
  8
0
 62
4
 10
-7.23482310E+01
 20
-2.71537331E+02
  0
VERTEX
  8
0
 62
4
 10
-7.22838597E+01
 20
-2.71811498E+02
  0
VERTEX
  8
0
 62
4
 10
-7.21944270E+01
 20
-2.72079306E+02
  0
VERTEX
  8
0
 62
4
 10
-7.20806154E+01
 20
-2.72338713E+02
  0
VERTEX
  8
0
 62
4
 10
-7.19432936E+01
 20
-2.72587737E+02
  0
VERTEX
  8
0
 62
4
 10
-7.17835094E+01
 20
-2.72824480E+02
  0
VERTEX
  8
0
 62
4
 10
-7.16024824E+01
 20
-2.73047133E+02
  0
VERTEX
  8
0
 62
4
 10
-7.14015941E+01
 20
-2.73253999E+02
  0
VERTEX
  8
0
 62
4
 10
-7.11823776E+01
 20
-2.73443497E+02
  0
VERTEX
  8
0
 62
4
 10
-7.09465059E+01
 20
-2.73614182E+02
  0
VERTEX
  8
0
 62
4
 10
-7.06957792E+01
 20
-2.73764752E+02
  0
VERTEX
  8
0
 62
4
 10
-7.04321109E+01
 20
-2.73894056E+02
  0
VERTEX
  8
0
 62
4
 10
-7.01575132E+01
 20
-2.74001109E+02
  0
VERTEX
  8
0
 62
4
 10
-6.98740818E+01
 20
-2.74085093E+02
  0
VERTEX
  8
0
 62
4
 10
-6.95839798E+01
 20
-2.74145368E+02
  0
VERTEX
  8
0
 62
4
 10
-6.92894212E+01
 20
-2.74181473E+02
  0
VERTEX
  8
0
 62
4
 10
-6.89926539E+01
 20
-2.74193133E+02
  0
VERTEX
  8
0
 62
4
 10
-6.86959429E+01
 20
-2.74180258E+02
  0
VERTEX
  8
0
 62
4
 10
-6.84015525E+01
 20
-2.74142948E+02
  0
VERTEX
  8
0
 62
4
 10
-6.81117294E+01
 20
-2.74081486E+02
  0
VERTEX
  8
0
 62
4
 10
-6.78286855E+01
 20
-2.73996343E+02
  0
VERTEX
  8
0
 62
4
 10
-6.75545809E+01
 20
-2.73888167E+02
  0
VERTEX
  8
0
 62
4
 10
-6.72915076E+01
 20
-2.73757784E+02
  0
VERTEX
  8
0
 62
4
 10
-6.70414731E+01
 20
-2.73606190E+02
  0
VERTEX
  8
0
 62
4
 10
-6.68063858E+01
 20
-2.73434541E+02
  0
VERTEX
  8
0
 62
4
 10
-6.65880396E+01
 20
-2.73244147E+02
  0
VERTEX
  8
0
 62
4
 10
-6.63881011E+01
 20
-2.73036461E+02
  0
VERTEX
  8
0
 62
4
 10
-6.62080960E+01
 20
-2.72813069E+02
  0
VERTEX
  8
0
 62
4
 10
-6.60493982E+01
 20
-2.72575674E+02
  0
VERTEX
  8
0
 62
4
 10
-6.59132187E+01
 20
-2.72326090E+02
  0
VERTEX
  8
0
 62
4
 10
-6.58005969E+01
 20
-2.72066220E+02
  0
VERTEX
  8
0
 62
4
 10
-6.57123922E+01
 20
-2.71798048E+02
  0
VERTEX
  8
0
 62
4
 10
-6.56492778E+01
 20
-2.71523621E+02
  0
VERTEX
  8
0
 62
4
 10
-6.56117354E+01
 20
-2.71245032E+02
  0
VERTEX
  8
0
 62
4
 10
-6.56000514E+01
 20
-2.70964408E+02
  0
VERTEX
  8
0
 62
4
 10
-6.56143151E+01
 20
-2.70683891E+02
  0
SEQEND
  8
0
  0
POLYLINE
  8
0
 62
4
 66
1
  0
VERTEX
  8
0
 62
4
 10
-7.24000204E+01
 20
-2.70386748E+02
  0
VERTEX
  8
0
 62
4
 10
-7.23870875E+01
 20
-2.70669403E+02
  0
VERTEX
  8
0
 62
4
 10
-7.23483770E+01
 20
-2.70949907E+02
  0
VERTEX
  8
0
 62
4
 10
-7.22841834E+01
 20
-2.71226126E+02
  0
VERTEX
  8
0
 62
4
 10
-7.21949954E+01
 20
-2.71495957E+02
  0
VERTEX
  8
0
 62
4
 10
-7.20814917E+01
 20
-2.71757346E+02
  0
VERTEX
  8
0
 62
4
 10
-7.19445361E+01
 20
-2.72008305E+02
  0
VERTEX
  8
0
 62
4
 10
-7.17851710E+01
 20
-2.72246924E+02
  0
VERTEX
  8
0
 62
4
 10
-7.16046093E+01
 20
-2.72471386E+02
  0
VERTEX
  8
0
 62
4
 10
-7.14042250E+01
 20
-2.72679983E+02
  0
VERTEX
  8
0
 62
4
 10
-7.11855433E+01
 20
-2.72871127E+02
  0
VERTEX
  8
0
 62
4
 10
-7.09502284E+01
 20
-2.73043365E+02
  0
VERTEX
  8
0
 62
4
 10
-7.07000713E+01
 20
-2.73195384E+02
  0
VERTEX
  8
0
 62
4
 10
-7.04369757E+01
 20
-2.73326028E+02
  0
VERTEX
  8
0
 62
4
 10
-7.01629441E+01
 20
-2.73434304E+02
  0
VERTEX
  8
0
 62
4
 10
-6.98800619E+01
 20
-2.73519386E+02
  0
VERTEX
  8
0
 62
4
 10
-6.95904821E+01
 20
-2.73580627E+02
  0
VERTEX
  8
0
 62
4
 10
-6.92964084E+01
 20
-2.73617561E+02
  0
VERTEX
  8
0
 62
4
 10
-6.90000791E+01
 20
-2.73629907E+02
  0
VERTEX
  8
0
 62
4
 10
-6.87037494E+01
 20
-2.73617572E+02
  0
VERTEX
  8
0
 62
4
 10
-6.84096744E+01
 20
-2.73580648E+02
  0
VERTEX
  8
0
 62
4
 10
-6.81200924E+01
 20
-2.73519417E+02
  0
VERTEX
  8
0
 62
4
 10
-6.78372071E+01
 20
-2.73434346E+02
  0
VERTEX
  8
0
 62
4
 10
-6.75631715E+01
 20
-2.73326080E+02
  0
VERTEX
  8
0
 62
4
 10
-6.73000713E+01
 20
-2.73195446E+02
  0
VERTEX
  8
0
 62
4
 10
-6.70499086E+01
 20
-2.73043435E+02
  0
VERTEX
  8
0
 62
4
 10
-6.68145875E+01
 20
-2.72871206E+02
  0
VERTEX
  8
0
 62
4
 10
-6.65958989E+01
 20
-2.72680070E+02
  0
VERTEX
  8
0
 62
4
 10
-6.63955071E+01
 20
-2.72471480E+02
  0
VERTEX
  8
0
 62
4
 10
-6.62149371E+01
 20
-2.72247025E+02
  0
VERTEX
  8
0
 62
4
 10
-6.60555634E+01
 20
-2.72008412E+02
  0
VERTEX
  8
0
 62
4
 10
-6.59185987E+01
 20
-2.71757458E+02
  0
VERTEX
  8
0
 62
4
 10
-6.58050856E+01
 20
-2.71496073E+02
  0
VERTEX
  8
0
 62
4
 10
-6.57158878E+01
 20
-2.71226245E+02
  0
VERTEX
  8
0
 62
4
 10
-6.56516842E+01
 20
-2.70950029E+02
  0
VERTEX
  8
0
 62
4
 10
-6.56129635E+01
 20
-2.70669526E+02
  0
VERTEX
  8
0
 62
4
 10
-6.56000204E+01
 20
-2.70386872E+02
  0
VERTEX
  8
0
 62
4
 10
-6.56129533E+01
 20
-2.70104217E+02
  0
VERTEX
  8
0
 62
4
 10
-6.56516638E+01
 20
-2.69823713E+02
  0
VERTEX
  8
0
 62
4
 10
-6.57158574E+01
 20
-2.69547494E+02
  0
VERTEX
  8
0
 62
4
 10
-6.58050454E+01
 20
-2.69277663E+02
  0
VERTEX
  8
0
 62
4
 10
-6.59185491E+01
 20
-2.69016274E+02
  0
VERTEX
  8
0
 62
4
 10
-6.60555047E+01
 20
-2.68765315E+02
  0
VERTEX
  8
0
 62
4
 10
-6.62148698E+01
 20
-2.68526696E+02
  0
VERTEX
  8
0
 62
4
 10
-6.63954315E+01
 20
-2.68302234E+02
  0
VERTEX
  8
0
 62
4
 10
-6.65958158E+01
 20
-2.68093637E+02
  0
VERTEX
  8
0
 62
4
 10
-6.68144975E+01
 20
-2.67902493E+02
  0
VERTEX
  8
0
 62
4
 10
-6.70498124E+01
 20
-2.67730255E+02
  0
VERTEX
  8
0
 62
4
 10
-6.72999695E+01
 20
-2.67578236E+02
  0
VERTEX
  8
0
 62
4
 10
-6.75630651E+01
 20
-2.67447592E+02
  0
VERTEX
  8
0
 62
4
 10
-6.78370967E+01
 20
-2.67339316E+02
  0
VERTEX
  8
0
 62
4
 10
-6.81199789E+01
 20
-2.67254234E+02
  0
VERTEX
  8
0
 62
4
 10
-6.84095588E+01
 20
-2.67192993E+02
  0
VERTEX
  8
0
 62
4
 10
-6.87036324E+01
 20
-2.67156059E+02
  0
VERTEX
  8
0
 62
4
 10
-6.89999617E+01
 20
-2.67143713E+02
  0
VERTEX
  8
0
 62
4
 10
-6.92962914E+01
 20
-2.67156048E+02
  0
VERTEX
  8
0
 62
4
 10
-6.95903664E+01
 20
-2.67192972E+02
  0
VERTEX
  8
0
 62
4
 10
-6.98799484E+01
 20
-2.67254203E+02
  0
VERTEX
  8
0
 62
4
 10
-7.01628337E+01
 20
-2.67339274E+02
  0
VERTEX
  8
0
 62
4
 10
-7.04368693E+01
 20
-2.67447540E+02
  0
VERTEX
  8
0
 62
4
 10
-7.06999695E+01
 20
-2.67578174E+02
  0
VERTEX
  8
0
 62
4
 10
-7.09501322E+01
 20
-2.67730185E+02
  0
VERTEX
  8
0
 62
4
 10
-7.11854533E+01
 20
-2.67902414E+02
  0
VERTEX
  8
0
 62
4
 10
-7.14041419E+01
 20
-2.68093550E+02
  0
VERTEX
  8
0
 62
4
 10
-7.16045338E+01
 20
-2.68302140E+02
  0
VERTEX
  8
0
 62
4
 10
-7.17851037E+01
 20
-2.68526595E+02
  0
VERTEX
  8
0
 62
4
 10
-7.19444774E+01
 20
-2.68765208E+02
  0
VERTEX
  8
0
 62
4
 10
-7.20814421E+01
 20
-2.69016162E+02
  0
VERTEX
  8
0
 62
4
 10
-7.21949552E+01
 20
-2.69277547E+02
  0
VERTEX
  8
0
 62
4
 10
-7.22841530E+01
 20
-2.69547375E+02
  0
VERTEX
  8
0
 62
4
 10
-7.23483566E+01
 20
-2.69823591E+02
  0
VERTEX
  8
0
 62
4
 10
-7.23870773E+01
 20
-2.70104094E+02
  0
VERTEX
  8
0
 62
4
 10
-7.24000204E+01
 20
-2.70386748E+02
  0
SEQEND
  8
0
  0
POLYLINE
  8
0
 62
4
 66
1
  0
VERTEX
  8
0
 62
4
 10
-7.30000193E+01
 20
-2.70978316E+02
  0
VERTEX
  8
0
 62
4
 10
-7.29848031E+01
 20
-2.71307946E+02
  0
VERTEX
  8
0
 62
4
 10
-7.29392603E+01
 20
-2.71635068E+02
  0
VERTEX
  8
0
 62
4
 10
-7.28637374E+01
 20
-2.71957191E+02
  0
VERTEX
  8
0
 62
4
 10
-7.27588094E+01
 20
-2.72271866E+02
  0
VERTEX
  8
0
 62
4
 10
-7.26252747E+01
 20
-2.72576696E+02
  0
VERTEX
  8
0
 62
4
 10
-7.24641496E+01
 20
-2.72869362E+02
  0
VERTEX
  8
0
 62
4
 10
-7.22766603E+01
 20
-2.73147636E+02
  0
VERTEX
  8
0
 62
4
 10
-7.20642339E+01
 20
-2.73409401E+02
  0
VERTEX
  8
0
 62
4
 10
-7.18284869E+01
 20
-2.73652665E+02
  0
VERTEX
  8
0
 62
4
 10
-7.15712136E+01
 20
-2.73875575E+02
  0
VERTEX
  8
0
 62
4
 10
-7.12943720E+01
 20
-2.74076436E+02
  0
VERTEX
  8
0
 62
4
 10
-7.10000689E+01
 20
-2.74253719E+02
  0
VERTEX
  8
0
 62
4
 10
-7.06905443E+01
 20
-2.74406075E+02
  0
VERTEX
  8
0
 62
4
 10
-7.03681537E+01
 20
-2.74532344E+02
  0
VERTEX
  8
0
 62
4
 10
-7.00353508E+01
 20
-2.74631565E+02
  0
VERTEX
  8
0
 62
4
 10
-6.96946684E+01
 20
-2.74702983E+02
  0
VERTEX
  8
0
 62
4
 10
-6.93486993E+01
 20
-2.74746054E+02
  0
VERTEX
  8
0
 62
4
 10
-6.90000766E+01
 20
-2.74760451E+02
  0
VERTEX
  8
0
 62
4
 10
-6.86514534E+01
 20
-2.74746065E+02
  0
VERTEX
  8
0
 62
4
 10
-6.83054830E+01
 20
-2.74703004E+02
  0
VERTEX
  8
0
 62
4
 10
-6.79647984E+01
 20
-2.74631596E+02
  0
VERTEX
  8
0
 62
4
 10
-6.76319925E+01
 20
-2.74532385E+02
  0
VERTEX
  8
0
 62
4
 10
-6.73095982E+01
 20
-2.74406126E+02
  0
VERTEX
  8
0
 62
4
 10
-6.70000689E+01
 20
-2.74253780E+02
  0
VERTEX
  8
0
 62
4
 10
-6.67057605E+01
 20
-2.74076506E+02
  0
VERTEX
  8
0
 62
4
 10
-6.64289127E+01
 20
-2.73875653E+02
  0
VERTEX
  8
0
 62
4
 10
-6.61716327E+01
 20
-2.73652750E+02
  0
VERTEX
  8
0
 62
4
 10
-6.59358783E+01
 20
-2.73409494E+02
  0
VERTEX
  8
0
 62
4
 10
-6.57234440E+01
 20
-2.73147735E+02
  0
VERTEX
  8
0
 62
4
 10
-6.55359463E+01
 20
-2.72869467E+02
  0
VERTEX
  8
0
 62
4
 10
-6.53748124E+01
 20
-2.72576806E+02
  0
VERTEX
  8
0
 62
4
 10
-6.52412684E+01
 20
-2.72271980E+02
  0
VERTEX
  8
0
 62
4
 10
-6.51363308E+01
 20
-2.71957308E+02
  0
VERTEX
  8
0
 62
4
 10
-6.50607982E+01
 20
-2.71635187E+02
  0
VERTEX
  8
0
 62
4
 10
-6.50152455E+01
 20
-2.71308067E+02
  0
VERTEX
  8
0
 62
4
 10
-6.50000193E+01
 20
-2.70978438E+02
  0
VERTEX
  8
0
 62
4
 10
-6.50152355E+01
 20
-2.70648808E+02
  0
VERTEX
  8
0
 62
4
 10
-6.50607783E+01
 20
-2.70321686E+02
  0
VERTEX
  8
0
 62
4
 10
-6.51363012E+01
 20
-2.69999563E+02
  0
VERTEX
  8
0
 62
4
 10
-6.52412292E+01
 20
-2.69684888E+02
  0
VERTEX
  8
0
 62
4
 10
-6.53747639E+01
 20
-2.69380058E+02
  0
VERTEX
  8
0
 62
4
 10
-6.55358891E+01
 20
-2.69087392E+02
  0
VERTEX
  8
0
 62
4
 10
-6.57233783E+01
 20
-2.68809118E+02
  0
VERTEX
  8
0
 62
4
 10
-6.59358047E+01
 20
-2.68547353E+02
  0
VERTEX
  8
0
 62
4
 10
-6.61715517E+01
 20
-2.68304089E+02
  0
VERTEX
  8
0
 62
4
 10
-6.64288250E+01
 20
-2.68081179E+02
  0
VERTEX
  8
0
 62
4
 10
-6.67056666E+01
 20
-2.67880318E+02
  0
VERTEX
  8
0
 62
4
 10
-6.69999697E+01
 20
-2.67703035E+02
  0
VERTEX
  8
0
 62
4
 10
-6.73094944E+01
 20
-2.67550679E+02
  0
VERTEX
  8
0
 62
4
 10
-6.76318849E+01
 20
-2.67424410E+02
  0
VERTEX
  8
0
 62
4
 10
-6.79646878E+01
 20
-2.67325189E+02
  0
VERTEX
  8
0
 62
4
 10
-6.83053702E+01
 20
-2.67253771E+02
  0
VERTEX
  8
0
 62
4
 10
-6.86513393E+01
 20
-2.67210700E+02
  0
VERTEX
  8
0
 62
4
 10
-6.89999620E+01
 20
-2.67196303E+02
  0
VERTEX
  8
0
 62
4
 10
-6.93485852E+01
 20
-2.67210689E+02
  0
VERTEX
  8
0
 62
4
 10
-6.96945556E+01
 20
-2.67253750E+02
  0
VERTEX
  8
0
 62
4
 10
-7.00352402E+01
 20
-2.67325158E+02
  0
VERTEX
  8
0
 62
4
 10
-7.03680461E+01
 20
-2.67424369E+02
  0
VERTEX
  8
0
 62
4
 10
-7.06904404E+01
 20
-2.67550628E+02
  0
VERTEX
  8
0
 62
4
 10
-7.09999697E+01
 20
-2.67702974E+02
  0
VERTEX
  8
0
 62
4
 10
-7.12942781E+01
 20
-2.67880248E+02
  0
VERTEX
  8
0
 62
4
 10
-7.15711259E+01
 20
-2.68081101E+02
  0
VERTEX
  8
0
 62
4
 10
-7.18284059E+01
 20
-2.68304004E+02
  0
VERTEX
  8
0
 62
4
 10
-7.20641603E+01
 20
-2.68547260E+02
  0
VERTEX
  8
0
 62
4
 10
-7.22765946E+01
 20
-2.68809019E+02
  0
VERTEX
  8
0
 62
4
 10
-7.24640923E+01
 20
-2.69087287E+02
  0
VERTEX
  8
0
 62
4
 10
-7.26252262E+01
 20
-2.69379948E+02
  0
VERTEX
  8
0
 62
4
 10
-7.27587702E+01
 20
-2.69684774E+02
  0
VERTEX
  8
0
 62
4
 10
-7.28637078E+01
 20
-2.69999446E+02
  0
VERTEX
  8
0
 62
4
 10
-7.29392404E+01
 20
-2.70321567E+02
  0
VERTEX
  8
0
 62
4
 10
-7.29847931E+01
 20
-2.70648687E+02
  0
VERTEX
  8
0
 62
4
 10
-7.30000193E+01
 20
-2.70978316E+02
  0
SEQEND
  8
0
  0
LINE
  8
0
 62
4
 10
-8.10000103E+01
 20
-2.78232550E+02
 11
-7.80000005E+01
 21
-2.82981874E+02
  0
LINE
  8
0
 62
4
 10
-4.20000103E+01
 20
-2.78232480E+02
 11
-4.50000005E+01
 21
-2.82981815E+02
  0
LINE
  8
0
 62
4
 10
-7.80000005E+01
 20
-2.86250031E+02
 11
-7.80000005E+01
 21
-2.82981874E+02
  0
LINE
  8
0
 62
4
 10
-4.50000005E+01
 20
-2.86250031E+02
 11
-4.50000005E+01
 21
-2.82981815E+02
  0
LINE
  8
0
 62
4
 10
-7.80000005E+01
 20
-2.84446990E+02
 11
-4.50000005E+01
 21
-2.84446931E+02
  0
LINE
  8
0
 62
4
 10
-9.60000966E+01
 20
-2.39108818E+02
 11
-9.10000966E+01
 21
-2.39108809E+02
  0
LINE
  8
0
 62
4
 10
-3.87148086E+02
 20
-2.76490673E+02
 11
-3.81947487E+02
 21
-2.74699963E+02
  0
LINE
  8
0
 62
4
 10
-3.79218199E+02
 20
-2.82749969E+02
 11
-3.79180158E+02
 21
-2.82736871E+02
  0
LINE
  8
0
 62
4
 10
-3.87148086E+02
 20
-2.76490673E+02
 11
-3.90197464E+02
 21
-2.82749969E+02
  0
LINE
  8
0
 62
4
 10
-3.88110835E+02
 20
-2.42978312E+02
 11
-3.83487249E+02
 21
-2.41386284E+02
  0
LINE
  8
0
 62
4
 10
-3.73928056E+02
 20
-2.38094790E+02
 11
-3.65788852E+02
 21
-2.61732754E+02
  0
LINE
  8
0
 62
4
 10
-3.88110835E+02
 20
-2.42978312E+02
 11
-3.79971631E+02
 21
-2.66616276E+02
  0
LINE
  8
0
 62
4
 10
-3.81862668E+02
 20
-2.67267413E+02
 11
-3.63897815E+02
 21
-2.61081618E+02
  0
LINE
  8
0
 62
4
 10
-3.80297199E+02
 20
-2.65670758E+02
 11
-3.66114420E+02
 21
-2.60787235E+02
  0
LINE
  8
0
 62
4
 10
-3.63897815E+02
 20
-2.61081618E+02
 11
-3.62595542E+02
 21
-2.64863692E+02
  0
LINE
  8
0
 62
4
 10
-3.81862668E+02
 20
-2.67267413E+02
 11
-3.80560395E+02
 21
-2.71049487E+02
  0
LINE
  8
0
 62
4
 10
-3.80560395E+02
 20
-2.71049487E+02
 11
-3.62595542E+02
 21
-2.64863692E+02
  0
LINE
  8
0
 62
4
 10
-3.68467762E+02
 20
-2.82749969E+02
 11
-3.55348224E+02
 21
-2.78232550E+02
  0
LINE
  8
0
 62
4
 10
-3.59417826E+02
 20
-2.66413568E+02
 11
-3.55348224E+02
 21
-2.78232550E+02
  0
LINE
  8
0
 62
4
 10
-3.82110271E+02
 20
-2.74227204E+02
 11
-3.79175648E+02
 21
-2.82749969E+02
  0
LINE
  8
0
 62
4
 10
-3.55348224E+02
 20
-2.78232550E+02
 11
-3.56810686E+02
 21
-2.82749969E+02
  0
LINE
  8
0
 62
4
 10
-3.73075092E+02
 20
-2.82749969E+02
 11
-3.55836576E+02
 21
-2.76814272E+02
  0
LINE
  8
0
 62
4
 10
-3.70864461E+02
 20
-2.76171874E+02
 11
-3.67082387E+02
 21
-2.74869602E+02
  0
LINE
  8
0
 62
4
 10
-3.70050540E+02
 20
-2.78535671E+02
 11
-3.66268466E+02
 21
-2.77233398E+02
  0
LINE
  8
0
 62
4
 10
-3.70864461E+02
 20
-2.76171874E+02
 11
-3.70050540E+02
 21
-2.78535671E+02
  0
LINE
  8
0
 62
4
 10
-3.67082387E+02
 20
-2.74869602E+02
 11
-3.66268466E+02
 21
-2.77233398E+02
  0
LINE
  8
0
 62
4
 10
-3.76621020E+02
 20
-2.53310507E+02
 11
-3.71699285E+02
 21
-2.47639164E+02
  0
LINE
  8
0
 62
4
 10
-3.86432788E+02
 20
-2.44780161E+02
 11
-3.81511053E+02
 21
-2.39108818E+02
  0
LINE
  8
0
 62
4
 10
-3.86432788E+02
 20
-2.44780161E+02
 11
-3.83991027E+02
 21
-2.51871550E+02
  0
LINE
  8
0
 62
4
 10
-3.74141046E+02
 20
-2.40547775E+02
 11
-3.71699285E+02
 21
-2.47639164E+02
  0
LINE
  8
0
 62
4
 10
-3.83991027E+02
 20
-2.51871550E+02
 11
-3.76621020E+02
 21
-2.53310507E+02
  0
LINE
  8
0
 62
4
 10
-3.81511053E+02
 20
-2.39108818E+02
 11
-3.74141046E+02
 21
-2.40547775E+02
  0
LINE
  8
0
 62
4
 10
-3.78551642E+02
 20
-2.39686818E+02
 11
-3.73928056E+02
 21
-2.38094790E+02
  0
LINE
  8
0
 62
4
 10
-3.59092257E+02
 20
-2.67359087E+02
 11
-3.58619498E+02
 21
-2.67196303E+02
  0
LINE
  8
0
 62
4
 10
-3.56487712E+02
 20
-2.74923235E+02
 11
-3.56014953E+02
 21
-2.74760451E+02
  0
LINE
  8
0
 62
4
 10
-3.58424157E+02
 20
-2.67763614E+02
 11
-3.56788410E+02
 21
-2.67200381E+02
  0
LINE
  8
0
 62
4
 10
-3.54574547E+02
 20
-2.73629907E+02
 11
-3.56210294E+02
 21
-2.74193140E+02
  0
LINE
  8
0
  6
CENTER
 62
6
 10
-3.87507634E+02
 20
-2.81373768E+02
 11
-3.51644114E+02
 21
-2.69024968E+02
  0
LINE
  8
0
 62
4
 10
-3.58619498E+02
 20
-2.67196303E+02
 11
-3.56014953E+02
 21
-2.74760451E+02
  0
ARC
  8
0
 62
4
 10
-3.54898795E+02
 20
-2.72681064E+02
 40
1.00271607E+00
 50
2.88866852E+02
 51
6.16700057E+00
  0
ARC
  8
0
 62
4
 10
-3.65651090E+02
 20
-2.73826392E+02
 40
1.18067922E+01
 50
6.08754926E+00
 51
3.17195580E+01
  0
ARC
  8
0
 62
4
 10
-3.56457138E+02
 20
-2.68140322E+02
 40
9.96609194E-01
 50
3.15516728E+01
 51
1.09414475E+02
  0
CIRCLE
  8
0
 62
4
 10
-3.79062936E+02
 20
-2.46203331E+02
 40
3.75000000E+00
  0
ARC
  8
0
 62
4
 10
-3.79746454E+02
 20
-2.73413294E+02
 40
2.50001642E+00
 50
1.09000376E+02
 51
1.98999623E+02
  0
ARC
  8
0
 62
4
 10
-3.61778532E+02
 20
-2.67221152E+02
 40
2.49501993E+00
 50
1.88855230E+01
 51
1.09114477E+02
  0
ARC
  8
0
 62
4
 10
-3.79062936E+02
 20
-2.46203331E+02
 40
7.00000000E+00
 50
1.17236957E+02
 51
1.40081725E+02
  0
ARC
  8
0
 62
4
 10
-3.79062936E+02
 20
-2.46203331E+02
 40
7.00000000E+00
 50
7.79182752E+01
 51
1.00872928E+02
  0
ARC
  8
0
 62
4
 10
1.27778524E+02
 20
-2.67221152E+02
 40
2.49501993E+00
 50
7.08855231E+01
 51
1.61114477E+02
  0
ARC
  8
0
 62
4
 10
1.45746447E+02
 20
-2.73413294E+02
 40
2.50001642E+00
 50
3.41000376E+02
 51
7.09996236E+01
  0
ARC
  8
0
 62
4
 10
1.31639108E+02
 20
-2.73865214E+02
 40
1.18081149E+01
 50
1.48089798E+02
 51
1.73718975E+02
  0
ARC
  8
0
 62
4
 10
1.22457130E+02
 20
-2.68140322E+02
 40
9.96609194E-01
 50
7.05855253E+01
 51
1.48448327E+02
  0
ARC
  8
0
 62
4
 10
1.20898787E+02
 20
-2.72681064E+02
 40
1.00271607E+00
 50
1.73833000E+02
 51
2.51133148E+02
  0
ARC
  8
0
 62
4
 10
1.52432397E+02
 20
-2.77299240E+02
 40
9.97523260E-01
 50
2.61759467E+01
 51
7.08169962E+01
  0
LINE
  8
0
 62
4
 10
1.24619491E+02
 20
-2.67196303E+02
 11
1.22014945E+02
 21
-2.74760451E+02
  0
LINE
  8
0
  6
CENTER
 62
6
 10
1.53507626E+02
 20
-2.81373768E+02
 11
1.17644107E+02
 21
-2.69024968E+02
  0
LINE
  8
0
 62
4
 10
1.20574539E+02
 20
-2.73629907E+02
 11
1.22210286E+02
 21
-2.74193140E+02
  0
LINE
  8
0
 62
4
 10
1.24424150E+02
 20
-2.67763614E+02
 11
1.22788403E+02
 21
-2.67200381E+02
  0
LINE
  8
0
 62
4
 10
1.22487705E+02
 20
-2.74923235E+02
 11
1.22014945E+02
 21
-2.74760451E+02
  0
LINE
  8
0
 62
4
 10
1.25092250E+02
 20
-2.67359087E+02
 11
1.24619491E+02
 21
-2.67196303E+02
  0
LINE
  8
0
 62
4
 10
1.47511046E+02
 20
-2.39108818E+02
 11
1.46381485E+02
 21
-2.39329359E+02
  0
LINE
  8
0
 62
4
 10
1.48265373E+02
 20
-2.39978034E+02
 11
1.47511046E+02
 21
-2.39108818E+02
  0
LINE
  8
0
 62
4
 10
1.33082379E+02
 20
-2.74869602E+02
 11
1.32268459E+02
 21
-2.77233398E+02
  0
LINE
  8
0
 62
4
 10
1.36864453E+02
 20
-2.76171874E+02
 11
1.36050533E+02
 21
-2.78535671E+02
  0
LINE
  8
0
 62
4
 10
1.36050533E+02
 20
-2.78535671E+02
 11
1.32268459E+02
 21
-2.77233398E+02
  0
LINE
  8
0
 62
4
 10
1.36864453E+02
 20
-2.76171874E+02
 11
1.33082379E+02
 21
-2.74869602E+02
  0
LINE
  8
0
 62
4
 10
1.39075084E+02
 20
-2.82749969E+02
 11
1.21836568E+02
 21
-2.76814272E+02
  0
LINE
  8
0
 62
4
 10
1.21348216E+02
 20
-2.78232550E+02
 11
1.22810679E+02
 21
-2.82749969E+02
  0
LINE
  8
0
 62
4
 10
1.48110264E+02
 20
-2.74227204E+02
 11
1.45175640E+02
 21
-2.82749969E+02
  0
LINE
  8
0
 62
4
 10
1.25417818E+02
 20
-2.66413568E+02
 11
1.21348216E+02
 21
-2.78232550E+02
  0
LINE
  8
0
 62
4
 10
1.34467754E+02
 20
-2.82749969E+02
 11
1.21348216E+02
 21
-2.78232550E+02
  0
LINE
  8
0
 62
4
 10
1.46560388E+02
 20
-2.71049487E+02
 11
1.28595535E+02
 21
-2.64863692E+02
  0
LINE
  8
0
 62
4
 10
1.47862660E+02
 20
-2.67267413E+02
 11
1.46560388E+02
 21
-2.71049487E+02
  0
LINE
  8
0
 62
4
 10
1.29897807E+02
 20
-2.61081618E+02
 11
1.28595535E+02
 21
-2.64863692E+02
  0
LINE
  8
0
 62
4
 10
1.46297191E+02
 20
-2.65670758E+02
 11
1.32114413E+02
 21
-2.60787235E+02
  0
LINE
  8
0
 62
4
 10
1.47862660E+02
 20
-2.67267413E+02
 11
1.29897807E+02
 21
-2.61081618E+02
  0
LINE
  8
0
 62
4
 10
1.54110827E+02
 20
-2.42978312E+02
 11
1.45971623E+02
 21
-2.66616276E+02
  0
LINE
  8
0
 62
4
 10
1.39928048E+02
 20
-2.38094790E+02
 11
1.31788845E+02
 21
-2.61732754E+02
  0
LINE
  8
0
 62
4
 10
1.39928048E+02
 20
-2.38094790E+02
 11
1.54110827E+02
 21
-2.42978312E+02
  0
LINE
  8
0
 62
4
 10
1.53327618E+02
 20
-2.76859203E+02
 11
1.56197457E+02
 21
-2.82749969E+02
  0
LINE
  8
0
 62
4
 10
1.52760169E+02
 20
-2.76357105E+02
 11
1.47947480E+02
 21
-2.74699963E+02
  0
ARC
  8
0
 62
4
 10
1.45067649E+02
 20
-2.46204956E+02
 40
7.00000000E+00
 50
3.99182754E+01
 51
1.02081725E+02
  0
LINE
  8
0
  6
CENTER
 62
6
 10
1.38600402E+02
 20
-2.64987207E+02
 11
1.37092865E+02
 21
-2.69365412E+02
  0
LINE
  8
0
 62
4
 10
1.34268646E+02
 20
-2.66817101E+02
 11
1.34934601E+02
 21
-2.65988787E+02
  0
LINE
  8
0
 62
4
 10
1.40872458E+02
 20
-2.68033355E+02
 11
1.40887276E+02
 21
-2.69096078E+02
  0
LINE
  8
0
 62
4
 10
1.34934601E+02
 20
-2.65988787E+02
 11
1.40872458E+02
 21
-2.68033355E+02
  0
LINE
  8
0
  6
CENTER
 62
6
 10
-6.89999860E+01
 20
-1.01362871E+02
 11
-6.89999860E+01
 21
-1.51349969E+02
  0
POLYLINE
  8
0
 62
4
 66
1
  0
VERTEX
  8
0
 62
4
 10
-6.55999860E+01
 20
-1.41907748E+02
  0
VERTEX
  8
0
 62
4
 10
-6.56129240E+01
 20
-1.41781706E+02
  0
VERTEX
  8
0
 62
4
 10
-6.56516396E+01
 20
-1.41656624E+02
  0
VERTEX
  8
0
 62
4
 10
-6.57158382E+01
 20
-1.41533453E+02
  0
VERTEX
  8
0
 62
4
 10
-6.58050311E+01
 20
-1.41413130E+02
  0
VERTEX
  8
0
 62
4
 10
-6.59185395E+01
 20
-1.41296572E+02
  0
VERTEX
  8
0
 62
4
 10
-6.60554996E+01
 20
-1.41184665E+02
  0
VERTEX
  8
0
 62
4
 10
-6.62148690E+01
 20
-1.41078261E+02
  0
VERTEX
  8
0
 62
4
 10
-6.63954349E+01
 20
-1.40978171E+02
  0
VERTEX
  8
0
 62
4
 10
-6.65958229E+01
 20
-1.40885154E+02
  0
VERTEX
  8
0
 62
4
 10
-6.68145081E+01
 20
-1.40799921E+02
  0
VERTEX
  8
0
 62
4
 10
-6.70498261E+01
 20
-1.40723118E+02
  0
VERTEX
  8
0
 62
4
 10
-6.72999860E+01
 20
-1.40655332E+02
  0
VERTEX
  8
0
 62
4
 10
-6.75630839E+01
 20
-1.40597077E+02
  0
VERTEX
  8
0
 62
4
 10
-6.78371175E+01
 20
-1.40548797E+02
  0
VERTEX
  8
0
 62
4
 10
-6.81200012E+01
 20
-1.40510859E+02
  0
VERTEX
  8
0
 62
4
 10
-6.84095822E+01
 20
-1.40483553E+02
  0
VERTEX
  8
0
 62
4
 10
-6.87036565E+01
 20
-1.40467085E+02
  0
VERTEX
  8
0
 62
4
 10
-6.89999860E+01
 20
-1.40461582E+02
  0
VERTEX
  8
0
 62
4
 10
-6.92963155E+01
 20
-1.40467085E+02
  0
VERTEX
  8
0
 62
4
 10
-6.95903898E+01
 20
-1.40483553E+02
  0
VERTEX
  8
0
 62
4
 10
-6.98799708E+01
 20
-1.40510859E+02
  0
VERTEX
  8
0
 62
4
 10
-7.01628545E+01
 20
-1.40548797E+02
  0
VERTEX
  8
0
 62
4
 10
-7.04368881E+01
 20
-1.40597077E+02
  0
VERTEX
  8
0
 62
4
 10
-7.06999860E+01
 20
-1.40655332E+02
  0
VERTEX
  8
0
 62
4
 10
-7.09501459E+01
 20
-1.40723118E+02
  0
VERTEX
  8
0
 62
4
 10
-7.11854639E+01
 20
-1.40799921E+02
  0
VERTEX
  8
0
 62
4
 10
-7.14041491E+01
 20
-1.40885154E+02
  0
VERTEX
  8
0
 62
4
 10
-7.16045371E+01
 20
-1.40978171E+02
  0
VERTEX
  8
0
 62
4
 10
-7.17851030E+01
 20
-1.41078261E+02
  0
VERTEX
  8
0
 62
4
 10
-7.19444724E+01
 20
-1.41184665E+02
  0
VERTEX
  8
0
 62
4
 10
-7.20814325E+01
 20
-1.41296572E+02
  0
VERTEX
  8
0
 62
4
 10
-7.21949409E+01
 20
-1.41413130E+02
  0
VERTEX
  8
0
 62
4
 10
-7.22841338E+01
 20
-1.41533453E+02
  0
VERTEX
  8
0
 62
4
 10
-7.23483324E+01
 20
-1.41656624E+02
  0
VERTEX
  8
0
 62
4
 10
-7.23870480E+01
 20
-1.41781706E+02
  0
VERTEX
  8
0
 62
4
 10
-7.23999860E+01
 20
-1.41907748E+02
  0
VERTEX
  8
0
 62
4
 10
-7.23870480E+01
 20
-1.42033790E+02
  0
VERTEX
  8
0
 62
4
 10
-7.23483324E+01
 20
-1.42158872E+02
  0
VERTEX
  8
0
 62
4
 10
-7.22841338E+01
 20
-1.42282043E+02
  0
VERTEX
  8
0
 62
4
 10
-7.21949409E+01
 20
-1.42402366E+02
  0
VERTEX
  8
0
 62
4
 10
-7.20814325E+01
 20
-1.42518924E+02
  0
VERTEX
  8
0
 62
4
 10
-7.19444724E+01
 20
-1.42630831E+02
  0
VERTEX
  8
0
 62
4
 10
-7.17851029E+01
 20
-1.42737235E+02
  0
VERTEX
  8
0
 62
4
 10
-7.16045371E+01
 20
-1.42837325E+02
  0
VERTEX
  8
0
 62
4
 10
-7.14041491E+01
 20
-1.42930342E+02
  0
VERTEX
  8
0
 62
4
 10
-7.11854639E+01
 20
-1.43015575E+02
  0
VERTEX
  8
0
 62
4
 10
-7.09501459E+01
 20
-1.43092378E+02
  0
VERTEX
  8
0
 62
4
 10
-7.06999860E+01
 20
-1.43160164E+02
  0
VERTEX
  8
0
 62
4
 10
-7.04368881E+01
 20
-1.43218419E+02
  0
VERTEX
  8
0
 62
4
 10
-7.01628545E+01
 20
-1.43266699E+02
  0
VERTEX
  8
0
 62
4
 10
-6.98799707E+01
 20
-1.43304637E+02
  0
VERTEX
  8
0
 62
4
 10
-6.95903898E+01
 20
-1.43331943E+02
  0
VERTEX
  8
0
 62
4
 10
-6.92963155E+01
 20
-1.43348411E+02
  0
VERTEX
  8
0
 62
4
 10
-6.89999860E+01
 20
-1.43353914E+02
  0
VERTEX
  8
0
 62
4
 10
-6.87036565E+01
 20
-1.43348411E+02
  0
VERTEX
  8
0
 62
4
 10
-6.84095822E+01
 20
-1.43331943E+02
  0
VERTEX
  8
0
 62
4
 10
-6.81200012E+01
 20
-1.43304637E+02
  0
VERTEX
  8
0
 62
4
 10
-6.78371175E+01
 20
-1.43266699E+02
  0
VERTEX
  8
0
 62
4
 10
-6.75630839E+01
 20
-1.43218419E+02
  0
VERTEX
  8
0
 62
4
 10
-6.72999860E+01
 20
-1.43160164E+02
  0
VERTEX
  8
0
 62
4
 10
-6.70498261E+01
 20
-1.43092378E+02
  0
VERTEX
  8
0
 62
4
 10
-6.68145081E+01
 20
-1.43015575E+02
  0
VERTEX
  8
0
 62
4
 10
-6.65958229E+01
 20
-1.42930342E+02
  0
VERTEX
  8
0
 62
4
 10
-6.63954349E+01
 20
-1.42837325E+02
  0
VERTEX
  8
0
 62
4
 10
-6.62148690E+01
 20
-1.42737235E+02
  0
VERTEX
  8
0
 62
4
 10
-6.60554996E+01
 20
-1.42630831E+02
  0
VERTEX
  8
0
 62
4
 10
-6.59185395E+01
 20
-1.42518924E+02
  0
VERTEX
  8
0
 62
4
 10
-6.58050311E+01
 20
-1.42402366E+02
  0
VERTEX
  8
0
 62
4
 10
-6.57158382E+01
 20
-1.42282043E+02
  0
VERTEX
  8
0
 62
4
 10
-6.56516396E+01
 20
-1.42158872E+02
  0
VERTEX
  8
0
 62
4
 10
-6.56129240E+01
 20
-1.42033790E+02
  0
VERTEX
  8
0
 62
4
 10
-6.55999860E+01
 20
-1.41907748E+02
  0
SEQEND
  8
0
  0
ARC
  8
0
 62
4
 10
-6.47643910E+01
 20
-1.31352479E+02
 40
1.21769740E+01
 50
2.40462101E+02
 51
2.56878396E+02
  0
ARC
  8
0
 62
4
 10
-7.32355810E+01
 20
-1.31352479E+02
 40
1.21769740E+01
 50
2.83121604E+02
 51
2.99537899E+02
  0
POLYLINE
  8
0
 62
4
 66
1
  0
VERTEX
  8
0
 62
4
 10
-6.55999860E+01
 20
-1.41907748E+02
  0
VERTEX
  8
0
 62
4
 10
-6.56129240E+01
 20
-1.41781706E+02
  0
VERTEX
  8
0
 62
4
 10
-6.56516396E+01
 20
-1.41656624E+02
  0
VERTEX
  8
0
 62
4
 10
-6.57158382E+01
 20
-1.41533453E+02
  0
VERTEX
  8
0
 62
4
 10
-6.58050311E+01
 20
-1.41413130E+02
  0
VERTEX
  8
0
 62
4
 10
-6.59185395E+01
 20
-1.41296572E+02
  0
VERTEX
  8
0
 62
4
 10
-6.60554996E+01
 20
-1.41184665E+02
  0
VERTEX
  8
0
 62
4
 10
-6.62148690E+01
 20
-1.41078261E+02
  0
VERTEX
  8
0
 62
4
 10
-6.63954349E+01
 20
-1.40978171E+02
  0
VERTEX
  8
0
 62
4
 10
-6.65958229E+01
 20
-1.40885154E+02
  0
VERTEX
  8
0
 62
4
 10
-6.68145081E+01
 20
-1.40799921E+02
  0
VERTEX
  8
0
 62
4
 10
-6.70498261E+01
 20
-1.40723118E+02
  0
VERTEX
  8
0
 62
4
 10
-6.72999860E+01
 20
-1.40655332E+02
  0
VERTEX
  8
0
 62
4
 10
-6.75630839E+01
 20
-1.40597077E+02
  0
VERTEX
  8
0
 62
4
 10
-6.78371175E+01
 20
-1.40548797E+02
  0
VERTEX
  8
0
 62
4
 10
-6.81200012E+01
 20
-1.40510859E+02
  0
VERTEX
  8
0
 62
4
 10
-6.84095822E+01
 20
-1.40483553E+02
  0
VERTEX
  8
0
 62
4
 10
-6.87036565E+01
 20
-1.40467085E+02
  0
VERTEX
  8
0
 62
4
 10
-6.89999860E+01
 20
-1.40461582E+02
  0
VERTEX
  8
0
 62
4
 10
-6.92963155E+01
 20
-1.40467085E+02
  0
VERTEX
  8
0
 62
4
 10
-6.95903898E+01
 20
-1.40483553E+02
  0
VERTEX
  8
0
 62
4
 10
-6.98799708E+01
 20
-1.40510859E+02
  0
VERTEX
  8
0
 62
4
 10
-7.01628545E+01
 20
-1.40548797E+02
  0
VERTEX
  8
0
 62
4
 10
-7.04368881E+01
 20
-1.40597077E+02
  0
VERTEX
  8
0
 62
4
 10
-7.06999860E+01
 20
-1.40655332E+02
  0
VERTEX
  8
0
 62
4
 10
-7.09501459E+01
 20
-1.40723118E+02
  0
VERTEX
  8
0
 62
4
 10
-7.11854639E+01
 20
-1.40799921E+02
  0
VERTEX
  8
0
 62
4
 10
-7.14041491E+01
 20
-1.40885154E+02
  0
VERTEX
  8
0
 62
4
 10
-7.16045371E+01
 20
-1.40978171E+02
  0
VERTEX
  8
0
 62
4
 10
-7.17851030E+01
 20
-1.41078261E+02
  0
VERTEX
  8
0
 62
4
 10
-7.19444724E+01
 20
-1.41184665E+02
  0
VERTEX
  8
0
 62
4
 10
-7.20814325E+01
 20
-1.41296572E+02
  0
VERTEX
  8
0
 62
4
 10
-7.21949409E+01
 20
-1.41413130E+02
  0
VERTEX
  8
0
 62
4
 10
-7.22841338E+01
 20
-1.41533453E+02
  0
VERTEX
  8
0
 62
4
 10
-7.23483324E+01
 20
-1.41656624E+02
  0
VERTEX
  8
0
 62
4
 10
-7.23870480E+01
 20
-1.41781706E+02
  0
VERTEX
  8
0
 62
4
 10
-7.23999860E+01
 20
-1.41907748E+02
  0
VERTEX
  8
0
 62
4
 10
-7.23870480E+01
 20
-1.42033790E+02
  0
VERTEX
  8
0
 62
4
 10
-7.23483324E+01
 20
-1.42158872E+02
  0
VERTEX
  8
0
 62
4
 10
-7.22841338E+01
 20
-1.42282043E+02
  0
VERTEX
  8
0
 62
4
 10
-7.21949409E+01
 20
-1.42402366E+02
  0
VERTEX
  8
0
 62
4
 10
-7.20814325E+01
 20
-1.42518924E+02
  0
VERTEX
  8
0
 62
4
 10
-7.19444724E+01
 20
-1.42630831E+02
  0
VERTEX
  8
0
 62
4
 10
-7.17851029E+01
 20
-1.42737235E+02
  0
VERTEX
  8
0
 62
4
 10
-7.16045371E+01
 20
-1.42837325E+02
  0
VERTEX
  8
0
 62
4
 10
-7.14041491E+01
 20
-1.42930342E+02
  0
VERTEX
  8
0
 62
4
 10
-7.11854639E+01
 20
-1.43015575E+02
  0
VERTEX
  8
0
 62
4
 10
-7.09501459E+01
 20
-1.43092378E+02
  0
VERTEX
  8
0
 62
4
 10
-7.06999860E+01
 20
-1.43160164E+02
  0
VERTEX
  8
0
 62
4
 10
-7.04368881E+01
 20
-1.43218419E+02
  0
VERTEX
  8
0
 62
4
 10
-7.01628545E+01
 20
-1.43266699E+02
  0
VERTEX
  8
0
 62
4
 10
-6.98799707E+01
 20
-1.43304637E+02
  0
VERTEX
  8
0
 62
4
 10
-6.95903898E+01
 20
-1.43331943E+02
  0
VERTEX
  8
0
 62
4
 10
-6.92963155E+01
 20
-1.43348411E+02
  0
VERTEX
  8
0
 62
4
 10
-6.89999860E+01
 20
-1.43353914E+02
  0
VERTEX
  8
0
 62
4
 10
-6.87036565E+01
 20
-1.43348411E+02
  0
VERTEX
  8
0
 62
4
 10
-6.84095822E+01
 20
-1.43331943E+02
  0
VERTEX
  8
0
 62
4
 10
-6.81200012E+01
 20
-1.43304637E+02
  0
VERTEX
  8
0
 62
4
 10
-6.78371175E+01
 20
-1.43266699E+02
  0
VERTEX
  8
0
 62
4
 10
-6.75630839E+01
 20
-1.43218419E+02
  0
VERTEX
  8
0
 62
4
 10
-6.72999860E+01
 20
-1.43160164E+02
  0
VERTEX
  8
0
 62
4
 10
-6.70498261E+01
 20
-1.43092378E+02
  0
VERTEX
  8
0
 62
4
 10
-6.68145081E+01
 20
-1.43015575E+02
  0
VERTEX
  8
0
 62
4
 10
-6.65958229E+01
 20
-1.42930342E+02
  0
VERTEX
  8
0
 62
4
 10
-6.63954349E+01
 20
-1.42837325E+02
  0
VERTEX
  8
0
 62
4
 10
-6.62148690E+01
 20
-1.42737235E+02
  0
VERTEX
  8
0
 62
4
 10
-6.60554996E+01
 20
-1.42630831E+02
  0
VERTEX
  8
0
 62
4
 10
-6.59185395E+01
 20
-1.42518924E+02
  0
VERTEX
  8
0
 62
4
 10
-6.58050311E+01
 20
-1.42402366E+02
  0
VERTEX
  8
0
 62
4
 10
-6.57158382E+01
 20
-1.42282043E+02
  0
VERTEX
  8
0
 62
4
 10
-6.56516396E+01
 20
-1.42158872E+02
  0
VERTEX
  8
0
 62
4
 10
-6.56129240E+01
 20
-1.42033790E+02
  0
VERTEX
  8
0
 62
4
 10
-6.55999860E+01
 20
-1.41907748E+02
  0
SEQEND
  8
0
  0
ARC
  8
0
 62
4
 10
-6.47643910E+01
 20
-1.31352479E+02
 40
1.21769740E+01
 50
2.40462101E+02
 51
2.56878396E+02
  0
ARC
  8
0
 62
4
 10
-7.32355810E+01
 20
-1.31352479E+02
 40
1.21769740E+01
 50
2.83121604E+02
 51
2.99537899E+02
  0
ARC
  8
0
 62
4
 10
-7.95024841E+01
 20
-1.35520744E+02
 40
1.49750400E+00
 50
1.79904421E+02
 51
2.70095579E+02
  0
ARC
  8
0
 62
4
 10
-4.34974841E+01
 20
-1.35520748E+02
 40
1.49750021E+00
 50
2.69904276E+02
 51
9.57242462E-02
  0
LINE
  8
0
  6
CENTER
 62
6
 10
-6.49999860E+01
 20
-9.96723758E+01
 11
-6.49999860E+01
 21
-1.10172376E+02
  0
LINE
  8
0
 62
4
 10
-6.29999860E+01
 20
-1.02502376E+02
 11
-6.29999860E+01
 21
-1.02672376E+02
  0
LINE
  8
0
 62
4
 10
-6.69999860E+01
 20
-1.02502376E+02
 11
-6.69999860E+01
 21
-1.02672376E+02
  0
LINE
  8
0
 62
4
 10
-6.32699860E+01
 20
-1.01502376E+02
 11
-6.67399860E+01
 21
-1.01502376E+02
  0
LINE
  8
0
 62
4
 10
-6.29999860E+01
 20
-1.02502376E+02
 11
-6.32699860E+01
 21
-1.01502376E+02
  0
LINE
  8
0
 62
4
 10
-6.69999860E+01
 20
-1.02502376E+02
 11
-6.67399860E+01
 21
-1.01502376E+02
  0
LINE
  8
0
 62
6
 10
-6.34999860E+01
 20
-1.01502376E+02
 11
-6.34999860E+01
 21
-1.02672376E+02
  0
LINE
  8
0
 62
6
 10
-6.64999860E+01
 20
-1.01502376E+02
 11
-6.64999860E+01
 21
-1.02672376E+02
  0
LINE
  8
0
 62
4
 10
-7.64999860E+01
 20
-1.02672376E+02
 11
-7.64999860E+01
 21
-1.31461140E+02
  0
LINE
  8
0
 62
4
 10
-6.14999860E+01
 20
-1.02672376E+02
 11
-6.14999860E+01
 21
-1.31461140E+02
  0
LINE
  8
0
 62
4
 10
-6.14999860E+01
 20
-1.02672376E+02
 11
-7.64999860E+01
 21
-1.02672376E+02
  0
LINE
  8
0
  6
CENTER
 62
6
 10
-7.29999860E+01
 20
-9.96723758E+01
 11
-7.29999860E+01
 21
-1.10172376E+02
  0
LINE
  8
0
 62
6
 10
-7.44999860E+01
 20
-1.01502376E+02
 11
-7.44999860E+01
 21
-1.02672376E+02
  0
LINE
  8
0
 62
4
 10
-7.09999860E+01
 20
-1.02502376E+02
 11
-7.09999860E+01
 21
-1.02672376E+02
  0
LINE
  8
0
 62
4
 10
-7.49999860E+01
 20
-1.02502376E+02
 11
-7.49999860E+01
 21
-1.02672376E+02
  0
LINE
  8
0
 62
4
 10
-7.12699860E+01
 20
-1.01502376E+02
 11
-7.47399860E+01
 21
-1.01502376E+02
  0
LINE
  8
0
 62
4
 10
-7.09999860E+01
 20
-1.02502376E+02
 11
-7.12699860E+01
 21
-1.01502376E+02
  0
LINE
  8
0
 62
4
 10
-7.49999860E+01
 20
-1.02502376E+02
 11
-7.47399860E+01
 21
-1.01502376E+02
  0
LINE
  8
0
 62
6
 10
-7.14999860E+01
 20
-1.01502376E+02
 11
-7.14999860E+01
 21
-1.02672376E+02
  0
LINE
  8
0
 62
4
 10
-6.55999860E+01
 20
-1.39932767E+02
 11
-6.55999860E+01
 21
-1.41907748E+02
  0
LINE
  8
0
 62
4
 10
-7.23999860E+01
 20
-1.41901769E+02
 11
-7.23999860E+01
 21
-1.39932767E+02
  0
LINE
  8
0
 62
4
 10
-8.54999860E+01
 20
-1.25187056E+02
 11
-7.64999860E+01
 21
-1.25187056E+02
  0
LINE
  8
0
 62
4
 10
-9.59999860E+01
 20
-1.25550707E+02
 11
-9.59999860E+01
 21
-1.10817205E+02
  0
LINE
  8
0
 62
4
 10
-9.09999860E+01
 20
-1.10817205E+02
 11
-9.09999860E+01
 21
-1.25550707E+02
  0
LINE
  8
0
 62
4
 10
-9.09999860E+01
 20
-1.11937056E+02
 11
-8.59999860E+01
 21
-1.11937056E+02
  0
LINE
  8
0
 62
4
 10
-9.09999860E+01
 20
-1.24437056E+02
 11
-8.59999860E+01
 21
-1.24437056E+02
  0
LINE
  8
0
 62
4
 10
-8.94999860E+01
 20
-1.11937056E+02
 11
-8.94999860E+01
 21
-1.24437056E+02
  0
LINE
  8
0
 62
4
 10
-8.94999860E+01
 20
-1.12437056E+02
 11
-8.59999860E+01
 21
-1.12437056E+02
  0
LINE
  8
0
 62
4
 10
-8.94999860E+01
 20
-1.23937056E+02
 11
-8.59999860E+01
 21
-1.23937056E+02
  0
LINE
  8
0
 62
4
 10
-7.64999860E+01
 20
-1.23321936E+02
 11
-6.14999860E+01
 21
-1.23321936E+02
  0
LINE
  8
0
 62
4
 10
-9.59999860E+01
 20
-1.10817205E+02
 11
-9.09999860E+01
 21
-1.10817205E+02
  0
LINE
  8
0
 62
4
 10
-4.19999860E+01
 20
-1.16503522E+02
 11
-4.19999860E+01
 21
-1.40401769E+02
  0
LINE
  8
0
 62
4
 10
-7.84999860E+01
 20
-1.34654450E+02
 11
-7.84999860E+01
 21
-1.25187056E+02
  0
LINE
  8
0
 62
4
 10
-5.94999860E+01
 20
-1.15387324E+02
 11
-5.94999860E+01
 21
-1.34654450E+02
  0
LINE
  8
0
 62
4
 10
-8.09999860E+01
 20
-1.25187056E+02
 11
-8.09999860E+01
 21
-1.40250000E+02
  0
LINE
  8
0
 62
4
 10
-6.14999860E+01
 20
-1.15003522E+02
 11
-4.34999860E+01
 21
-1.15003522E+02
  0
LINE
  8
0
 62
4
 10
-7.94999860E+01
 20
-1.37018246E+02
 11
-4.34999860E+01
 21
-1.37018246E+02
  0
ARC
  8
0
 62
4
 10
-4.35024921E+01
 20
-1.16506028E+02
 40
1.50250815E+00
 50
9.55645858E-02
 51
8.99044354E+01
  0
ARC
  8
0
 62
4
 10
-8.55024761E+01
 20
-1.24689546E+02
 40
4.97516125E-01
 50
1.79713229E+02
 51
2.70286771E+02
  0
LINE
  8
0
 62
4
 10
-7.64999860E+01
 20
-1.09139158E+02
 11
-6.14999860E+01
 21
-1.09139158E+02
  0
LINE
  8
0
 62
4
 10
-7.84999860E+01
 20
-1.33352177E+02
 11
-5.94999860E+01
 21
-1.33352177E+02
  0
LINE
  8
0
 62
4
 10
-6.14999860E+01
 20
-1.15387324E+02
 11
-5.94999860E+01
 21
-1.15387324E+02
  0
POLYLINE
  8
0
 62
4
 66
1
  0
VERTEX
  8
0
 62
4
 10
-6.59999860E+01
 20
-1.16230547E+02
  0
VERTEX
  8
0
 62
4
 10
-6.60114019E+01
 20
-1.15983325E+02
  0
VERTEX
  8
0
 62
4
 10
-6.60455627E+01
 20
-1.15737984E+02
  0
VERTEX
  8
0
 62
4
 10
-6.61022085E+01
 20
-1.15496392E+02
  0
VERTEX
  8
0
 62
4
 10
-6.61809081E+01
 20
-1.15260388E+02
  0
VERTEX
  8
0
 62
4
 10
-6.62810626E+01
 20
-1.15031767E+02
  0
VERTEX
  8
0
 62
4
 10
-6.64019098E+01
 20
-1.14812269E+02
  0
VERTEX
  8
0
 62
4
 10
-6.65425299E+01
 20
-1.14603565E+02
  0
VERTEX
  8
0
 62
4
 10
-6.67018527E+01
 20
-1.14407244E+02
  0
VERTEX
  8
0
 62
4
 10
-6.68786657E+01
 20
-1.14224799E+02
  0
VERTEX
  8
0
 62
4
 10
-6.70716232E+01
 20
-1.14057619E+02
  0
VERTEX
  8
0
 62
4
 10
-6.72792567E+01
 20
-1.13906977E+02
  0
VERTEX
  8
0
 62
4
 10
-6.74999860E+01
 20
-1.13774018E+02
  0
VERTEX
  8
0
 62
4
 10
-6.77321312E+01
 20
-1.13659754E+02
  0
VERTEX
  8
0
 62
4
 10
-6.79739256E+01
 20
-1.13565057E+02
  0
VERTEX
  8
0
 62
4
 10
-6.82235289E+01
 20
-1.13490645E+02
  0
VERTEX
  8
0
 62
4
 10
-6.84790415E+01
 20
-1.13437085E+02
  0
VERTEX
  8
0
 62
4
 10
-6.87385188E+01
 20
-1.13404785E+02
  0
VERTEX
  8
0
 62
4
 10
-6.89999860E+01
 20
-1.13393991E+02
  0
VERTEX
  8
0
 62
4
 10
-6.92614532E+01
 20
-1.13404785E+02
  0
VERTEX
  8
0
 62
4
 10
-6.95209305E+01
 20
-1.13437085E+02
  0
VERTEX
  8
0
 62
4
 10
-6.97764431E+01
 20
-1.13490645E+02
  0
VERTEX
  8
0
 62
4
 10
-7.00260464E+01
 20
-1.13565057E+02
  0
VERTEX
  8
0
 62
4
 10
-7.02678408E+01
 20
-1.13659754E+02
  0
VERTEX
  8
0
 62
4
 10
-7.04999860E+01
 20
-1.13774018E+02
  0
VERTEX
  8
0
 62
4
 10
-7.07207153E+01
 20
-1.13906977E+02
  0
VERTEX
  8
0
 62
4
 10
-7.09283488E+01
 20
-1.14057619E+02
  0
VERTEX
  8
0
 62
4
 10
-7.11213063E+01
 20
-1.14224799E+02
  0
VERTEX
  8
0
 62
4
 10
-7.12981193E+01
 20
-1.14407244E+02
  0
VERTEX
  8
0
 62
4
 10
-7.14574421E+01
 20
-1.14603565E+02
  0
VERTEX
  8
0
 62
4
 10
-7.15980622E+01
 20
-1.14812269E+02
  0
VERTEX
  8
0
 62
4
 10
-7.17189094E+01
 20
-1.15031767E+02
  0
VERTEX
  8
0
 62
4
 10
-7.18190639E+01
 20
-1.15260388E+02
  0
VERTEX
  8
0
 62
4
 10
-7.18977635E+01
 20
-1.15496392E+02
  0
VERTEX
  8
0
 62
4
 10
-7.19544093E+01
 20
-1.15737984E+02
  0
VERTEX
  8
0
 62
4
 10
-7.19885701E+01
 20
-1.15983325E+02
  0
VERTEX
  8
0
 62
4
 10
-7.19999860E+01
 20
-1.16230547E+02
  0
VERTEX
  8
0
 62
4
 10
-7.19885701E+01
 20
-1.16477769E+02
  0
VERTEX
  8
0
 62
4
 10
-7.19544093E+01
 20
-1.16723110E+02
  0
VERTEX
  8
0
 62
4
 10
-7.18977635E+01
 20
-1.16964702E+02
  0
VERTEX
  8
0
 62
4
 10
-7.18190639E+01
 20
-1.17200706E+02
  0
VERTEX
  8
0
 62
4
 10
-7.17189094E+01
 20
-1.17429327E+02
  0
VERTEX
  8
0
 62
4
 10
-7.15980622E+01
 20
-1.17648825E+02
  0
VERTEX
  8
0
 62
4
 10
-7.14574421E+01
 20
-1.17857529E+02
  0
VERTEX
  8
0
 62
4
 10
-7.12981193E+01
 20
-1.18053850E+02
  0
VERTEX
  8
0
 62
4
 10
-7.11213063E+01
 20
-1.18236295E+02
  0
VERTEX
  8
0
 62
4
 10
-7.09283488E+01
 20
-1.18403475E+02
  0
VERTEX
  8
0
 62
4
 10
-7.07207153E+01
 20
-1.18554117E+02
  0
VERTEX
  8
0
 62
4
 10
-7.04999860E+01
 20
-1.18687076E+02
  0
VERTEX
  8
0
 62
4
 10
-7.02678408E+01
 20
-1.18801340E+02
  0
VERTEX
  8
0
 62
4
 10
-7.00260464E+01
 20
-1.18896037E+02
  0
VERTEX
  8
0
 62
4
 10
-6.97764431E+01
 20
-1.18970449E+02
  0
VERTEX
  8
0
 62
4
 10
-6.95209305E+01
 20
-1.19024009E+02
  0
VERTEX
  8
0
 62
4
 10
-6.92614532E+01
 20
-1.19056309E+02
  0
VERTEX
  8
0
 62
4
 10
-6.89999860E+01
 20
-1.19067103E+02
  0
VERTEX
  8
0
 62
4
 10
-6.87385188E+01
 20
-1.19056309E+02
  0
VERTEX
  8
0
 62
4
 10
-6.84790415E+01
 20
-1.19024009E+02
  0
VERTEX
  8
0
 62
4
 10
-6.82235289E+01
 20
-1.18970449E+02
  0
VERTEX
  8
0
 62
4
 10
-6.79739256E+01
 20
-1.18896037E+02
  0
VERTEX
  8
0
 62
4
 10
-6.77321312E+01
 20
-1.18801340E+02
  0
VERTEX
  8
0
 62
4
 10
-6.74999860E+01
 20
-1.18687076E+02
  0
VERTEX
  8
0
 62
4
 10
-6.72792567E+01
 20
-1.18554117E+02
  0
VERTEX
  8
0
 62
4
 10
-6.70716232E+01
 20
-1.18403475E+02
  0
VERTEX
  8
0
 62
4
 10
-6.68786657E+01
 20
-1.18236295E+02
  0
VERTEX
  8
0
 62
4
 10
-6.67018527E+01
 20
-1.18053850E+02
  0
VERTEX
  8
0
 62
4
 10
-6.65425299E+01
 20
-1.17857529E+02
  0
VERTEX
  8
0
 62
4
 10
-6.64019098E+01
 20
-1.17648825E+02
  0
VERTEX
  8
0
 62
4
 10
-6.62810626E+01
 20
-1.17429327E+02
  0
VERTEX
  8
0
 62
4
 10
-6.61809081E+01
 20
-1.17200706E+02
  0
VERTEX
  8
0
 62
4
 10
-6.61022085E+01
 20
-1.16964702E+02
  0
VERTEX
  8
0
 62
4
 10
-6.60455627E+01
 20
-1.16723110E+02
  0
VERTEX
  8
0
 62
4
 10
-6.60114019E+01
 20
-1.16477769E+02
  0
VERTEX
  8
0
 62
4
 10
-6.59999860E+01
 20
-1.16230547E+02
  0
SEQEND
  8
0
  0
ARC
  8
0
 62
4
 10
-4.34974841E+01
 20
-1.40404271E+02
 40
1.49750021E+00
 50
2.69904276E+02
 51
9.57242462E-02
  0
LINE
  8
0
 62
4
 10
-7.94999860E+01
 20
-1.41901769E+02
 11
-7.23999860E+01
 21
-1.41901769E+02
  0
ARC
  8
0
 62
4
 10
-7.95024841E+01
 20
-1.40404267E+02
 40
1.49750400E+00
 50
1.79904421E+02
 51
2.70095579E+02
  0
LINE
  8
0
 62
4
 10
-9.59999860E+01
 20
-1.15738939E+02
 11
-9.09999860E+01
 21
-1.15738939E+02
  0
LINE
  8
0
 62
4
 10
-9.59999860E+01
 20
-1.23108946E+02
 11
-9.09999860E+01
 21
-1.23108946E+02
  0
LINE
  8
0
 62
4
 10
-9.59999860E+01
 20
-1.25550707E+02
 11
-9.09999860E+01
 21
-1.25550707E+02
  0
LINE
  8
0
 62
4
 10
-7.64999860E+01
 20
-1.11187056E+02
 11
-8.54999860E+01
 21
-1.11187056E+02
  0
ARC
  8
0
 62
4
 10
-8.54974834E+01
 20
-1.11689559E+02
 40
5.02508801E-01
 50
9.02853429E+01
 51
1.79714657E+02
  0
LINE
  8
0
 62
4
 10
-8.59999860E+01
 20
-1.11687056E+02
 11
-8.59999860E+01
 21
-1.24687056E+02
  0
LINE
  8
0
  6
CENTER
 62
6
 10
-5.87442369E+01
 20
-1.25346480E+02
 11
-4.72557350E+01
 21
-1.25346480E+02
  0
LINE
  8
0
  6
CENTER
 62
6
 10
-5.29999860E+01
 20
-1.19602229E+02
 11
-5.29999860E+01
 21
-1.31090731E+02
  0
POLYLINE
  8
0
 62
4
 66
1
  0
VERTEX
  8
0
 62
4
 10
-6.49999860E+01
 20
-1.39460007E+02
  0
VERTEX
  8
0
 62
4
 10
-6.50160888E+01
 20
-1.39343272E+02
  0
VERTEX
  8
0
 62
4
 10
-6.50642676E+01
 20
-1.39227477E+02
  0
VERTEX
  8
0
 62
4
 10
-6.51441346E+01
 20
-1.39113555E+02
  0
VERTEX
  8
0
 62
4
 10
-6.52550465E+01
 20
-1.39002421E+02
  0
VERTEX
  8
0
 62
4
 10
-6.53961105E+01
 20
-1.38894972E+02
  0
VERTEX
  8
0
 62
4
 10
-6.55661908E+01
 20
-1.38792072E+02
  0
VERTEX
  8
0
 62
4
 10
-6.57639180E+01
 20
-1.38694550E+02
  0
VERTEX
  8
0
 62
4
 10
-6.59877001E+01
 20
-1.38603191E+02
  0
VERTEX
  8
0
 62
4
 10
-6.62357354E+01
 20
-1.38518731E+02
  0
VERTEX
  8
0
 62
4
 10
-6.65060268E+01
 20
-1.38441849E+02
  0
VERTEX
  8
0
 62
4
 10
-6.67963981E+01
 20
-1.38373165E+02
  0
VERTEX
  8
0
 62
4
 10
-6.71045113E+01
 20
-1.38313232E+02
  0
VERTEX
  8
0
 62
4
 10
-6.74278859E+01
 20
-1.38262531E+02
  0
VERTEX
  8
0
 62
4
 10
-6.77639180E+01
 20
-1.38221472E+02
  0
VERTEX
  8
0
 62
4
 10
-6.81099023E+01
 20
-1.38190385E+02
  0
VERTEX
  8
0
 62
4
 10
-6.84630529E+01
 20
-1.38169520E+02
  0
VERTEX
  8
0
 62
4
 10
-6.88205267E+01
 20
-1.38159046E+02
  0
VERTEX
  8
0
 62
4
 10
-6.91794453E+01
 20
-1.38159046E+02
  0
VERTEX
  8
0
 62
4
 10
-6.95369191E+01
 20
-1.38169520E+02
  0
VERTEX
  8
0
 62
4
 10
-6.98900697E+01
 20
-1.38190385E+02
  0
VERTEX
  8
0
 62
4
 10
-7.02360540E+01
 20
-1.38221472E+02
  0
VERTEX
  8
0
 62
4
 10
-7.05720861E+01
 20
-1.38262531E+02
  0
VERTEX
  8
0
 62
4
 10
-7.08954606E+01
 20
-1.38313232E+02
  0
VERTEX
  8
0
 62
4
 10
-7.12035739E+01
 20
-1.38373165E+02
  0
VERTEX
  8
0
 62
4
 10
-7.14939452E+01
 20
-1.38441849E+02
  0
VERTEX
  8
0
 62
4
 10
-7.17642366E+01
 20
-1.38518731E+02
  0
VERTEX
  8
0
 62
4
 10
-7.20122719E+01
 20
-1.38603191E+02
  0
VERTEX
  8
0
 62
4
 10
-7.22360540E+01
 20
-1.38694550E+02
  0
VERTEX
  8
0
 62
4
 10
-7.24337812E+01
 20
-1.38792072E+02
  0
VERTEX
  8
0
 62
4
 10
-7.26038615E+01
 20
-1.38894972E+02
  0
VERTEX
  8
0
 62
4
 10
-7.27449255E+01
 20
-1.39002421E+02
  0
VERTEX
  8
0
 62
4
 10
-7.28558374E+01
 20
-1.39113554E+02
  0
VERTEX
  8
0
 62
4
 10
-7.29357044E+01
 20
-1.39227477E+02
  0
VERTEX
  8
0
 62
4
 10
-7.29838832E+01
 20
-1.39343272E+02
  0
VERTEX
  8
0
 62
4
 10
-7.29999860E+01
 20
-1.39460007E+02
  0
SEQEND
  8
0
  0
POLYLINE
  8
0
 62
4
 66
1
  0
VERTEX
  8
0
 62
4
 10
-6.55999860E+01
 20
-1.40618782E+02
  0
VERTEX
  8
0
 62
4
 10
-6.54269340E+01
 20
-1.40518183E+02
  0
VERTEX
  8
0
 62
4
 10
-6.52818910E+01
 20
-1.40412996E+02
  0
VERTEX
  8
0
 62
4
 10
-6.51659942E+01
 20
-1.40304044E+02
  0
VERTEX
  8
0
 62
4
 10
-6.50801519E+01
 20
-1.40192182E+02
  0
VERTEX
  8
0
 62
4
 10
-6.50250371E+01
 20
-1.40078286E+02
  0
VERTEX
  8
0
 62
4
 10
-6.50010819E+01
 20
-1.39963249E+02
  0
VERTEX
  8
0
 62
4
 10
-6.50084741E+01
 20
-1.39847974E+02
  0
VERTEX
  8
0
 62
4
 10
-6.50471556E+01
 20
-1.39733363E+02
  0
VERTEX
  8
0
 62
4
 10
-6.51168233E+01
 20
-1.39620315E+02
  0
VERTEX
  8
0
 62
4
 10
-6.52169310E+01
 20
-1.39509717E+02
  0
VERTEX
  8
0
 62
4
 10
-6.53466941E+01
 20
-1.39402435E+02
  0
VERTEX
  8
0
 62
4
 10
-6.55050952E+01
 20
-1.39299310E+02
  0
VERTEX
  8
0
 62
4
 10
-6.56908927E+01
 20
-1.39201151E+02
  0
VERTEX
  8
0
 62
4
 10
-6.59026302E+01
 20
-1.39108727E+02
  0
VERTEX
  8
0
 62
4
 10
-6.61386478E+01
 20
-1.39022762E+02
  0
VERTEX
  8
0
 62
4
 10
-6.63970953E+01
 20
-1.38943931E+02
  0
VERTEX
  8
0
 62
4
 10
-6.66759469E+01
 20
-1.38872852E+02
  0
VERTEX
  8
0
 62
4
 10
-6.69730165E+01
 20
-1.38810081E+02
  0
VERTEX
  8
0
 62
4
 10
-6.72859756E+01
 20
-1.38756111E+02
  0
VERTEX
  8
0
 62
4
 10
-6.76123707E+01
 20
-1.38711365E+02
  0
VERTEX
  8
0
 62
4
 10
-6.79496434E+01
 20
-1.38676193E+02
  0
VERTEX
  8
0
 62
4
 10
-6.82951496E+01
 20
-1.38650871E+02
  0
VERTEX
  8
0
 62
4
 10
-6.86461811E+01
 20
-1.38635599E+02
  0
VERTEX
  8
0
 62
4
 10
-6.89999860E+01
 20
-1.38630494E+02
  0
VERTEX
  8
0
 62
4
 10
-6.93537909E+01
 20
-1.38635599E+02
  0
VERTEX
  8
0
 62
4
 10
-6.97048224E+01
 20
-1.38650871E+02
  0
VERTEX
  8
0
 62
4
 10
-7.00503286E+01
 20
-1.38676193E+02
  0
VERTEX
  8
0
 62
4
 10
-7.03876012E+01
 20
-1.38711365E+02
  0
VERTEX
  8
0
 62
4
 10
-7.07139964E+01
 20
-1.38756111E+02
  0
VERTEX
  8
0
 62
4
 10
-7.10269554E+01
 20
-1.38810081E+02
  0
VERTEX
  8
0
 62
4
 10
-7.13240251E+01
 20
-1.38872852E+02
  0
VERTEX
  8
0
 62
4
 10
-7.16028767E+01
 20
-1.38943931E+02
  0
VERTEX
  8
0
 62
4
 10
-7.18613242E+01
 20
-1.39022762E+02
  0
VERTEX
  8
0
 62
4
 10
-7.20973418E+01
 20
-1.39108727E+02
  0
VERTEX
  8
0
 62
4
 10
-7.23090792E+01
 20
-1.39201151E+02
  0
VERTEX
  8
0
 62
4
 10
-7.24948768E+01
 20
-1.39299310E+02
  0
VERTEX
  8
0
 62
4
 10
-7.26532779E+01
 20
-1.39402435E+02
  0
VERTEX
  8
0
 62
4
 10
-7.27830410E+01
 20
-1.39509717E+02
  0
VERTEX
  8
0
 62
4
 10
-7.28831487E+01
 20
-1.39620315E+02
  0
VERTEX
  8
0
 62
4
 10
-7.29528164E+01
 20
-1.39733363E+02
  0
VERTEX
  8
0
 62
4
 10
-7.29914979E+01
 20
-1.39847974E+02
  0
VERTEX
  8
0
 62
4
 10
-7.29988901E+01
 20
-1.39963249E+02
  0
VERTEX
  8
0
 62
4
 10
-7.29749349E+01
 20
-1.40078286E+02
  0
VERTEX
  8
0
 62
4
 10
-7.29198201E+01
 20
-1.40192182E+02
  0
VERTEX
  8
0
 62
4
 10
-7.28339778E+01
 20
-1.40304044E+02
  0
VERTEX
  8
0
 62
4
 10
-7.27180810E+01
 20
-1.40412996E+02
  0
VERTEX
  8
0
 62
4
 10
-7.25730380E+01
 20
-1.40518183E+02
  0
VERTEX
  8
0
 62
4
 10
-7.23999860E+01
 20
-1.40618782E+02
  0
SEQEND
  8
0
  0
LINE
  8
0
 62
4
 10
-6.49999860E+01
 20
-1.39460007E+02
 11
-6.49999860E+01
 21
-1.39932767E+02
  0
LINE
  8
0
 62
4
 10
-7.29999860E+01
 20
-1.39460007E+02
 11
-7.29999860E+01
 21
-1.39932767E+02
  0
POLYLINE
  8
0
 62
4
 66
1
  0
VERTEX
  8
0
 62
4
 10
-6.55999860E+01
 20
-1.39932767E+02
  0
VERTEX
  8
0
 62
4
 10
-6.56136734E+01
 20
-1.39833542E+02
  0
VERTEX
  8
0
 62
4
 10
-6.56546254E+01
 20
-1.39735117E+02
  0
VERTEX
  8
0
 62
4
 10
-6.57225123E+01
 20
-1.39638282E+02
  0
VERTEX
  8
0
 62
4
 10
-6.58167874E+01
 20
-1.39543819E+02
  0
VERTEX
  8
0
 62
4
 10
-6.59366918E+01
 20
-1.39452487E+02
  0
VERTEX
  8
0
 62
4
 10
-6.60812601E+01
 20
-1.39365023E+02
  0
VERTEX
  8
0
 62
4
 10
-6.62493282E+01
 20
-1.39282129E+02
  0
VERTEX
  8
0
 62
4
 10
-6.64395430E+01
 20
-1.39204474E+02
  0
VERTEX
  8
0
 62
4
 10
-6.66503730E+01
 20
-1.39132682E+02
  0
VERTEX
  8
0
 62
4
 10
-6.68801207E+01
 20
-1.39067333E+02
  0
VERTEX
  8
0
 62
4
 10
-6.71269363E+01
 20
-1.39008951E+02
  0
VERTEX
  8
0
 62
4
 10
-6.73888325E+01
 20
-1.38958008E+02
  0
VERTEX
  8
0
 62
4
 10
-6.76637009E+01
 20
-1.38914913E+02
  0
VERTEX
  8
0
 62
4
 10
-6.79493282E+01
 20
-1.38880012E+02
  0
VERTEX
  8
0
 62
4
 10
-6.82434148E+01
 20
-1.38853588E+02
  0
VERTEX
  8
0
 62
4
 10
-6.85435929E+01
 20
-1.38835853E+02
  0
VERTEX
  8
0
 62
4
 10
-6.88474456E+01
 20
-1.38826950E+02
  0
VERTEX
  8
0
 62
4
 10
-6.91525264E+01
 20
-1.38826950E+02
  0
VERTEX
  8
0
 62
4
 10
-6.94563791E+01
 20
-1.38835853E+02
  0
VERTEX
  8
0
 62
4
 10
-6.97565572E+01
 20
-1.38853588E+02
  0
VERTEX
  8
0
 62
4
 10
-7.00506438E+01
 20
-1.38880012E+02
  0
VERTEX
  8
0
 62
4
 10
-7.03362711E+01
 20
-1.38914913E+02
  0
VERTEX
  8
0
 62
4
 10
-7.06111394E+01
 20
-1.38958008E+02
  0
VERTEX
  8
0
 62
4
 10
-7.08730357E+01
 20
-1.39008951E+02
  0
VERTEX
  8
0
 62
4
 10
-7.11198513E+01
 20
-1.39067333E+02
  0
VERTEX
  8
0
 62
4
 10
-7.13495990E+01
 20
-1.39132682E+02
  0
VERTEX
  8
0
 62
4
 10
-7.15604290E+01
 20
-1.39204474E+02
  0
VERTEX
  8
0
 62
4
 10
-7.17506438E+01
 20
-1.39282129E+02
  0
VERTEX
  8
0
 62
4
 10
-7.19187119E+01
 20
-1.39365023E+02
  0
VERTEX
  8
0
 62
4
 10
-7.20632801E+01
 20
-1.39452487E+02
  0
VERTEX
  8
0
 62
4
 10
-7.21831846E+01
 20
-1.39543819E+02
  0
VERTEX
  8
0
 62
4
 10
-7.22774597E+01
 20
-1.39638282E+02
  0
VERTEX
  8
0
 62
4
 10
-7.23453466E+01
 20
-1.39735117E+02
  0
VERTEX
  8
0
 62
4
 10
-7.23862986E+01
 20
-1.39833542E+02
  0
VERTEX
  8
0
 62
4
 10
-7.23999860E+01
 20
-1.39932767E+02
  0
SEQEND
  8
0
  0
LINE
  8
0
 62
4
 10
-6.55999860E+01
 20
-1.41901769E+02
 11
-4.34999860E+01
 21
-1.41901769E+02
  0
LINE
  8
0
  6
CENTER
 62
6
 10
-7.36760838E+01
 20
-1.16230547E+02
 11
-6.43238882E+01
 21
-1.16230547E+02
  0
LINE
  8
0
 62
4
 10
-7.64999860E+01
 20
-1.31461140E+02
 11
-6.14999860E+01
 21
-1.31461140E+02
  0
POLYLINE
  8
0
 62
4
 66
1
  0
VERTEX
  8
0
 62
4
 10
-4.94999860E+01
 20
-1.25672048E+02
  0
VERTEX
  8
0
 62
4
 10
-4.95133046E+01
 20
-1.25383622E+02
  0
VERTEX
  8
0
 62
4
 10
-4.95531589E+01
 20
-1.25097391E+02
  0
VERTEX
  8
0
 62
4
 10
-4.96192456E+01
 20
-1.24815534E+02
  0
VERTEX
  8
0
 62
4
 10
-4.97110618E+01
 20
-1.24540196E+02
  0
VERTEX
  8
0
 62
4
 10
-4.98279087E+01
 20
-1.24273471E+02
  0
VERTEX
  8
0
 62
4
 10
-4.99688971E+01
 20
-1.24017390E+02
  0
VERTEX
  8
0
 62
4
 10
-5.01329538E+01
 20
-1.23773903E+02
  0
VERTEX
  8
0
 62
4
 10
-5.03188304E+01
 20
-1.23544861E+02
  0
VERTEX
  8
0
 62
4
 10
-5.05251123E+01
 20
-1.23332009E+02
  0
VERTEX
  8
0
 62
4
 10
-5.07502294E+01
 20
-1.23136966E+02
  0
VERTEX
  8
0
 62
4
 10
-5.09924685E+01
 20
-1.22961216E+02
  0
VERTEX
  8
0
 62
4
 10
-5.12499860E+01
 20
-1.22806097E+02
  0
VERTEX
  8
0
 62
4
 10
-5.15208221E+01
 20
-1.22672790E+02
  0
VERTEX
  8
0
 62
4
 10
-5.18029155E+01
 20
-1.22562309E+02
  0
VERTEX
  8
0
 62
4
 10
-5.20941193E+01
 20
-1.22475495E+02
  0
VERTEX
  8
0
 62
4
 10
-5.23922174E+01
 20
-1.22413009E+02
  0
VERTEX
  8
0
 62
4
 10
-5.26949409E+01
 20
-1.22375326E+02
  0
VERTEX
  8
0
 62
4
 10
-5.29999860E+01
 20
-1.22362733E+02
  0
VERTEX
  8
0
 62
4
 10
-5.33050311E+01
 20
-1.22375326E+02
  0
VERTEX
  8
0
 62
4
 10
-5.36077546E+01
 20
-1.22413009E+02
  0
VERTEX
  8
0
 62
4
 10
-5.39058527E+01
 20
-1.22475495E+02
  0
VERTEX
  8
0
 62
4
 10
-5.41970565E+01
 20
-1.22562309E+02
  0
VERTEX
  8
0
 62
4
 10
-5.44791499E+01
 20
-1.22672790E+02
  0
VERTEX
  8
0
 62
4
 10
-5.47499860E+01
 20
-1.22806097E+02
  0
VERTEX
  8
0
 62
4
 10
-5.50075035E+01
 20
-1.22961216E+02
  0
VERTEX
  8
0
 62
4
 10
-5.52497426E+01
 20
-1.23136966E+02
  0
VERTEX
  8
0
 62
4
 10
-5.54748597E+01
 20
-1.23332009E+02
  0
VERTEX
  8
0
 62
4
 10
-5.56811416E+01
 20
-1.23544861E+02
  0
VERTEX
  8
0
 62
4
 10
-5.58670182E+01
 20
-1.23773903E+02
  0
VERTEX
  8
0
 62
4
 10
-5.60310749E+01
 20
-1.24017390E+02
  0
VERTEX
  8
0
 62
4
 10
-5.61720633E+01
 20
-1.24273471E+02
  0
VERTEX
  8
0
 62
4
 10
-5.62889102E+01
 20
-1.24540196E+02
  0
VERTEX
  8
0
 62
4
 10
-5.63807264E+01
 20
-1.24815534E+02
  0
VERTEX
  8
0
 62
4
 10
-5.64468131E+01
 20
-1.25097391E+02
  0
VERTEX
  8
0
 62
4
 10
-5.64866674E+01
 20
-1.25383622E+02
  0
VERTEX
  8
0
 62
4
 10
-5.64999860E+01
 20
-1.25672048E+02
  0
VERTEX
  8
0
 62
4
 10
-5.64866674E+01
 20
-1.25960474E+02
  0
VERTEX
  8
0
 62
4
 10
-5.64468131E+01
 20
-1.26246705E+02
  0
VERTEX
  8
0
 62
4
 10
-5.63807264E+01
 20
-1.26528562E+02
  0
VERTEX
  8
0
 62
4
 10
-5.62889102E+01
 20
-1.26803900E+02
  0
VERTEX
  8
0
 62
4
 10
-5.61720633E+01
 20
-1.27070625E+02
  0
VERTEX
  8
0
 62
4
 10
-5.60310749E+01
 20
-1.27326706E+02
  0
VERTEX
  8
0
 62
4
 10
-5.58670182E+01
 20
-1.27570193E+02
  0
VERTEX
  8
0
 62
4
 10
-5.56811415E+01
 20
-1.27799235E+02
  0
VERTEX
  8
0
 62
4
 10
-5.54748597E+01
 20
-1.28012087E+02
  0
VERTEX
  8
0
 62
4
 10
-5.52497426E+01
 20
-1.28207130E+02
  0
VERTEX
  8
0
 62
4
 10
-5.50075035E+01
 20
-1.28382880E+02
  0
VERTEX
  8
0
 62
4
 10
-5.47499860E+01
 20
-1.28537999E+02
  0
VERTEX
  8
0
 62
4
 10
-5.44791499E+01
 20
-1.28671306E+02
  0
VERTEX
  8
0
 62
4
 10
-5.41970565E+01
 20
-1.28781787E+02
  0
VERTEX
  8
0
 62
4
 10
-5.39058527E+01
 20
-1.28868601E+02
  0
VERTEX
  8
0
 62
4
 10
-5.36077546E+01
 20
-1.28931087E+02
  0
VERTEX
  8
0
 62
4
 10
-5.33050311E+01
 20
-1.28968770E+02
  0
VERTEX
  8
0
 62
4
 10
-5.29999860E+01
 20
-1.28981363E+02
  0
VERTEX
  8
0
 62
4
 10
-5.26949409E+01
 20
-1.28968770E+02
  0
VERTEX
  8
0
 62
4
 10
-5.23922174E+01
 20
-1.28931087E+02
  0
VERTEX
  8
0
 62
4
 10
-5.20941193E+01
 20
-1.28868601E+02
  0
VERTEX
  8
0
 62
4
 10
-5.18029155E+01
 20
-1.28781787E+02
  0
VERTEX
  8
0
 62
4
 10
-5.15208221E+01
 20
-1.28671306E+02
  0
VERTEX
  8
0
 62
4
 10
-5.12499860E+01
 20
-1.28537999E+02
  0
VERTEX
  8
0
 62
4
 10
-5.09924685E+01
 20
-1.28382880E+02
  0
VERTEX
  8
0
 62
4
 10
-5.07502294E+01
 20
-1.28207130E+02
  0
VERTEX
  8
0
 62
4
 10
-5.05251123E+01
 20
-1.28012087E+02
  0
VERTEX
  8
0
 62
4
 10
-5.03188304E+01
 20
-1.27799235E+02
  0
VERTEX
  8
0
 62
4
 10
-5.01329538E+01
 20
-1.27570193E+02
  0
VERTEX
  8
0
 62
4
 10
-4.99688971E+01
 20
-1.27326705E+02
  0
VERTEX
  8
0
 62
4
 10
-4.98279087E+01
 20
-1.27070625E+02
  0
VERTEX
  8
0
 62
4
 10
-4.97110618E+01
 20
-1.26803900E+02
  0
VERTEX
  8
0
 62
4
 10
-4.96192456E+01
 20
-1.26528562E+02
  0
VERTEX
  8
0
 62
4
 10
-4.95531589E+01
 20
-1.26246705E+02
  0
VERTEX
  8
0
 62
4
 10
-4.95133046E+01
 20
-1.25960474E+02
  0
VERTEX
  8
0
 62
4
 10
-4.94999860E+01
 20
-1.25672048E+02
  0
SEQEND
  8
0
  0
POLYLINE
  8
0
 62
4
 66
1
  0
VERTEX
  8
0
 62
4
 10
-4.98599860E+01
 20
-1.25346480E+02
  0
VERTEX
  8
0
 62
4
 10
-4.98719346E+01
 20
-1.25087721E+02
  0
VERTEX
  8
0
 62
4
 10
-4.99076897E+01
 20
-1.24830931E+02
  0
VERTEX
  8
0
 62
4
 10
-4.99669789E+01
 20
-1.24578065E+02
  0
VERTEX
  8
0
 62
4
 10
-5.00493512E+01
 20
-1.24331047E+02
  0
VERTEX
  8
0
 62
4
 10
-5.01541795E+01
 20
-1.24091757E+02
  0
VERTEX
  8
0
 62
4
 10
-5.02806662E+01
 20
-1.23862016E+02
  0
VERTEX
  8
0
 62
4
 10
-5.04278486E+01
 20
-1.23643573E+02
  0
VERTEX
  8
0
 62
4
 10
-5.05946064E+01
 20
-1.23438090E+02
  0
VERTEX
  8
0
 62
4
 10
-5.07796707E+01
 20
-1.23247131E+02
  0
VERTEX
  8
0
 62
4
 10
-5.09816329E+01
 20
-1.23072149E+02
  0
VERTEX
  8
0
 62
4
 10
-5.11989560E+01
 20
-1.22914476E+02
  0
VERTEX
  8
0
 62
4
 10
-5.14299860E+01
 20
-1.22775313E+02
  0
VERTEX
  8
0
 62
4
 10
-5.16729647E+01
 20
-1.22655717E+02
  0
VERTEX
  8
0
 62
4
 10
-5.19260428E+01
 20
-1.22556600E+02
  0
VERTEX
  8
0
 62
4
 10
-5.21872942E+01
 20
-1.22478715E+02
  0
VERTEX
  8
0
 62
4
 10
-5.24547307E+01
 20
-1.22422656E+02
  0
VERTEX
  8
0
 62
4
 10
-5.27263170E+01
 20
-1.22388849E+02
  0
VERTEX
  8
0
 62
4
 10
-5.29999860E+01
 20
-1.22377552E+02
  0
VERTEX
  8
0
 62
4
 10
-5.32736550E+01
 20
-1.22388849E+02
  0
VERTEX
  8
0
 62
4
 10
-5.35452413E+01
 20
-1.22422656E+02
  0
VERTEX
  8
0
 62
4
 10
-5.38126778E+01
 20
-1.22478715E+02
  0
VERTEX
  8
0
 62
4
 10
-5.40739293E+01
 20
-1.22556600E+02
  0
VERTEX
  8
0
 62
4
 10
-5.43270073E+01
 20
-1.22655717E+02
  0
VERTEX
  8
0
 62
4
 10
-5.45699860E+01
 20
-1.22775313E+02
  0
VERTEX
  8
0
 62
4
 10
-5.48010160E+01
 20
-1.22914476E+02
  0
VERTEX
  8
0
 62
4
 10
-5.50183391E+01
 20
-1.23072149E+02
  0
VERTEX
  8
0
 62
4
 10
-5.52203013E+01
 20
-1.23247131E+02
  0
VERTEX
  8
0
 62
4
 10
-5.54053656E+01
 20
-1.23438090E+02
  0
VERTEX
  8
0
 62
4
 10
-5.55721234E+01
 20
-1.23643573E+02
  0
VERTEX
  8
0
 62
4
 10
-5.57193058E+01
 20
-1.23862016E+02
  0
VERTEX
  8
0
 62
4
 10
-5.58457925E+01
 20
-1.24091757E+02
  0
VERTEX
  8
0
 62
4
 10
-5.59506208E+01
 20
-1.24331047E+02
  0
VERTEX
  8
0
 62
4
 10
-5.60329931E+01
 20
-1.24578065E+02
  0
VERTEX
  8
0
 62
4
 10
-5.60922823E+01
 20
-1.24830931E+02
  0
VERTEX
  8
0
 62
4
 10
-5.61280374E+01
 20
-1.25087721E+02
  0
VERTEX
  8
0
 62
4
 10
-5.61399860E+01
 20
-1.25346480E+02
  0
VERTEX
  8
0
 62
4
 10
-5.61280374E+01
 20
-1.25605239E+02
  0
VERTEX
  8
0
 62
4
 10
-5.60922823E+01
 20
-1.25862029E+02
  0
VERTEX
  8
0
 62
4
 10
-5.60329931E+01
 20
-1.26114895E+02
  0
VERTEX
  8
0
 62
4
 10
-5.59506208E+01
 20
-1.26361913E+02
  0
VERTEX
  8
0
 62
4
 10
-5.58457924E+01
 20
-1.26601203E+02
  0
VERTEX
  8
0
 62
4
 10
-5.57193058E+01
 20
-1.26830944E+02
  0
VERTEX
  8
0
 62
4
 10
-5.55721234E+01
 20
-1.27049387E+02
  0
VERTEX
  8
0
 62
4
 10
-5.54053655E+01
 20
-1.27254870E+02
  0
VERTEX
  8
0
 62
4
 10
-5.52203013E+01
 20
-1.27445829E+02
  0
VERTEX
  8
0
 62
4
 10
-5.50183391E+01
 20
-1.27620811E+02
  0
VERTEX
  8
0
 62
4
 10
-5.48010160E+01
 20
-1.27778484E+02
  0
VERTEX
  8
0
 62
4
 10
-5.45699860E+01
 20
-1.27917647E+02
  0
VERTEX
  8
0
 62
4
 10
-5.43270073E+01
 20
-1.28037243E+02
  0
VERTEX
  8
0
 62
4
 10
-5.40739292E+01
 20
-1.28136360E+02
  0
VERTEX
  8
0
 62
4
 10
-5.38126778E+01
 20
-1.28214245E+02
  0
VERTEX
  8
0
 62
4
 10
-5.35452413E+01
 20
-1.28270304E+02
  0
VERTEX
  8
0
 62
4
 10
-5.32736550E+01
 20
-1.28304111E+02
  0
VERTEX
  8
0
 62
4
 10
-5.29999860E+01
 20
-1.28315408E+02
  0
VERTEX
  8
0
 62
4
 10
-5.27263170E+01
 20
-1.28304111E+02
  0
VERTEX
  8
0
 62
4
 10
-5.24547307E+01
 20
-1.28270304E+02
  0
VERTEX
  8
0
 62
4
 10
-5.21872942E+01
 20
-1.28214245E+02
  0
VERTEX
  8
0
 62
4
 10
-5.19260427E+01
 20
-1.28136360E+02
  0
VERTEX
  8
0
 62
4
 10
-5.16729647E+01
 20
-1.28037243E+02
  0
VERTEX
  8
0
 62
4
 10
-5.14299860E+01
 20
-1.27917647E+02
  0
VERTEX
  8
0
 62
4
 10
-5.11989560E+01
 20
-1.27778484E+02
  0
VERTEX
  8
0
 62
4
 10
-5.09816329E+01
 20
-1.27620811E+02
  0
VERTEX
  8
0
 62
4
 10
-5.07796707E+01
 20
-1.27445829E+02
  0
VERTEX
  8
0
 62
4
 10
-5.05946064E+01
 20
-1.27254870E+02
  0
VERTEX
  8
0
 62
4
 10
-5.04278486E+01
 20
-1.27049387E+02
  0
VERTEX
  8
0
 62
4
 10
-5.02806662E+01
 20
-1.26830944E+02
  0
VERTEX
  8
0
 62
4
 10
-5.01541795E+01
 20
-1.26601203E+02
  0
VERTEX
  8
0
 62
4
 10
-5.00493512E+01
 20
-1.26361913E+02
  0
VERTEX
  8
0
 62
4
 10
-4.99669789E+01
 20
-1.26114895E+02
  0
VERTEX
  8
0
 62
4
 10
-4.99076897E+01
 20
-1.25862029E+02
  0
VERTEX
  8
0
 62
4
 10
-4.98719346E+01
 20
-1.25605239E+02
  0
VERTEX
  8
0
 62
4
 10
-4.98599860E+01
 20
-1.25346480E+02
  0
SEQEND
  8
0
  0
LINE
  8
0
 62
4
 10
-7.84999860E+01
 20
-1.34654450E+02
 11
-5.94999860E+01
 21
-1.34654450E+02
  0
LINE
  8
0
 62
4
 10
3.37500023E+02
 20
-2.76859203E+02
 11
3.52500023E+02
 21
-2.76859203E+02
  0
LINE
  8
0
 62
4
 10
3.37500023E+02
 20
-3.03144634E+02
 11
3.52500023E+02
 21
-3.03144634E+02
  0
LINE
  8
0
 62
4
 10
3.38500023E+02
 20
-2.91740835E+02
 11
3.51500023E+02
 21
-2.91740835E+02
  0
LINE
  8
0
 62
4
 10
3.52500023E+02
 20
-2.76859203E+02
 11
3.52500023E+02
 21
-3.03144634E+02
  0
LINE
  8
0
 62
4
 10
3.37500023E+02
 20
-2.76859203E+02
 11
3.37500023E+02
 21
-3.03144634E+02
  0
LINE
  8
0
  6
CENTER
 62
6
 10
3.49000023E+02
 20
-2.93784577E+02
 11
3.49000023E+02
 21
-3.03774577E+02
  0
LINE
  8
0
  6
CENTER
 62
6
 10
3.41000023E+02
 20
-2.93784577E+02
 11
3.41000023E+02
 21
-3.03774577E+02
  0
LINE
  8
0
  6
CENTER
 62
6
 10
3.36000023E+02
 20
-2.98774577E+02
 11
3.54000023E+02
 21
-2.98774577E+02
  0
LINE
  8
0
 62
4
 10
3.65500023E+02
 20
-2.40454956E+02
 11
3.62000023E+02
 21
-2.40454956E+02
  0
LINE
  8
0
 62
4
 10
3.55500023E+02
 20
-2.71049487E+02
 11
3.19500023E+02
 21
-2.71049487E+02
  0
LINE
  8
0
 62
4
 10
3.72000023E+02
 20
-2.39108818E+02
 11
3.67000023E+02
 21
-2.39108818E+02
  0
LINE
  8
0
 62
4
 10
3.72000023E+02
 20
-2.44780161E+02
 11
3.67000023E+02
 21
-2.44780161E+02
  0
LINE
  8
0
 62
4
 10
3.72000023E+02
 20
-2.51871550E+02
 11
3.67000023E+02
 21
-2.51871550E+02
  0
LINE
  8
0
 62
4
 10
3.52500023E+02
 20
-2.39204956E+02
 11
3.61500023E+02
 21
-2.39204956E+02
  0
LINE
  8
0
 62
4
 10
3.62000023E+02
 20
-2.39704956E+02
 11
3.62000023E+02
 21
-2.52704956E+02
  0
LINE
  8
0
 62
4
 10
3.72000023E+02
 20
-2.39108818E+02
 11
3.72000023E+02
 21
-2.53310507E+02
  0
LINE
  8
0
 62
4
 10
3.67000023E+02
 20
-2.39108818E+02
 11
3.67000023E+02
 21
-2.53310507E+02
  0
LINE
  8
0
 62
4
 10
3.67000023E+02
 20
-2.39954956E+02
 11
3.62000023E+02
 21
-2.39954956E+02
  0
LINE
  8
0
 62
4
 10
3.67000023E+02
 20
-2.52454956E+02
 11
3.62000023E+02
 21
-2.52454956E+02
  0
LINE
  8
0
 62
4
 10
3.65500023E+02
 20
-2.39954956E+02
 11
3.65500023E+02
 21
-2.52454956E+02
  0
LINE
  8
0
 62
4
 10
3.65500023E+02
 20
-2.51954956E+02
 11
3.62000023E+02
 21
-2.51954956E+02
  0
LINE
  8
0
 62
4
 10
3.61500023E+02
 20
-2.53204956E+02
 11
3.53000023E+02
 21
-2.53204956E+02
  0
LINE
  8
0
 62
4
 10
3.72000023E+02
 20
-2.53310507E+02
 11
3.67000023E+02
 21
-2.53310507E+02
  0
LINE
  8
0
 62
4
 10
3.37500023E+02
 20
-2.86046186E+02
 11
3.18000023E+02
 21
-2.86046186E+02
  0
LINE
  8
0
 62
4
 10
3.37500023E+02
 20
-2.84627908E+02
 11
3.18000023E+02
 21
-2.84627908E+02
  0
LINE
  8
0
 62
4
 10
3.52500023E+02
 20
-2.42978312E+02
 11
3.37500023E+02
 21
-2.42978312E+02
  0
LINE
  8
0
 62
4
 10
3.54500023E+02
 20
-2.67267413E+02
 11
3.35500023E+02
 21
-2.67267413E+02
  0
LINE
  8
0
 62
4
 10
3.57000023E+02
 20
-2.66226132E+02
 11
3.57000023E+02
 21
-2.86046186E+02
  0
LINE
  8
0
 62
4
 10
3.57000023E+02
 20
-2.86046186E+02
 11
3.52500023E+02
 21
-2.86046186E+02
  0
LINE
  8
0
 62
4
 10
3.57000023E+02
 20
-2.84627908E+02
 11
3.52500023E+02
 21
-2.84627908E+02
  0
LINE
  8
0
 62
4
 10
3.54500023E+02
 20
-2.67267413E+02
 11
3.54500023E+02
 21
-2.71267413E+02
  0
LINE
  8
0
 62
4
 10
3.37500023E+02
 20
-2.38094790E+02
 11
3.37500023E+02
 21
-2.67267413E+02
  0
LINE
  8
0
 62
4
 10
3.52500023E+02
 20
-2.38094790E+02
 11
3.52500023E+02
 21
-2.67267413E+02
  0
LINE
  8
0
 62
4
 10
3.35500023E+02
 20
-2.67267413E+02
 11
3.35500023E+02
 21
-2.71267413E+02
  0
LINE
  8
0
 62
4
 10
3.18000023E+02
 20
-2.66226132E+02
 11
3.18000023E+02
 21
-2.86046186E+02
  0
ARC
  8
0
 62
4
 10
3.55502510E+02
 20
-2.72547000E+02
 40
1.49751542E+00
 50
3.59904859E+02
 51
9.00951404E+01
  0
ARC
  8
0
 62
4
 10
3.61497528E+02
 20
-2.52702461E+02
 40
5.02501096E-01
 50
2.70284473E+02
 51
3.59715527E+02
  0
ARC
  8
0
 62
4
 10
3.61502505E+02
 20
-2.39702473E+02
 40
4.97523679E-01
 50
3.59714107E+02
 51
9.02858924E+01
  0
ARC
  8
0
 62
4
 10
3.52997540E+02
 20
-2.53702473E+02
 40
4.97523679E-01
 50
8.97141074E+01
 51
1.80285893E+02
  0
ARC
  8
0
 62
4
 10
3.19497536E+02
 20
-2.72547000E+02
 40
1.49751542E+00
 50
8.99048594E+01
 51
1.80095141E+02
  0
LINE
  8
0
 62
4
 10
3.52500023E+02
 20
-2.38094790E+02
 11
3.37500023E+02
 21
-2.38094790E+02
  0
LINE
  8
0
 62
4
 10
3.52500023E+02
 20
-2.65670758E+02
 11
3.37500023E+02
 21
-2.65670758E+02
  0
LINE
  8
0
 62
4
 10
3.54206120E+02
 20
-2.88650024E+02
 11
3.57000023E+02
 21
-2.86046186E+02
  0
LINE
  8
0
 62
4
 10
3.20793926E+02
 20
-2.88650024E+02
 11
3.18000023E+02
 21
-2.86046186E+02
  0
POLYLINE
  8
0
 62
4
 66
1
  0
VERTEX
  8
0
 62
4
 10
3.42493100E+02
 20
-2.99607735E+02
  0
VERTEX
  8
0
 62
4
 10
3.42604765E+02
 20
-2.99478167E+02
  0
VERTEX
  8
0
 62
4
 10
3.42703895E+02
 20
-2.99339783E+02
  0
VERTEX
  8
0
 62
4
 10
3.42789713E+02
 20
-2.99193663E+02
  0
VERTEX
  8
0
 62
4
 10
3.42861552E+02
 20
-2.99040949E+02
  0
VERTEX
  8
0
 62
4
 10
3.42918848E+02
 20
-2.98882833E+02
  0
VERTEX
  8
0
 62
4
 10
3.42961154E+02
 20
-2.98720552E+02
  0
VERTEX
  8
0
 62
4
 10
3.42988141E+02
 20
-2.98555373E+02
  0
VERTEX
  8
0
 62
4
 10
3.42999597E+02
 20
-2.98388586E+02
  0
VERTEX
  8
0
 62
4
 10
3.42995432E+02
 20
-2.98221493E+02
  0
VERTEX
  8
0
 62
4
 10
3.42975680E+02
 20
-2.98055402E+02
  0
VERTEX
  8
0
 62
4
 10
3.42940494E+02
 20
-2.97891608E+02
  0
VERTEX
  8
0
 62
4
 10
3.42890149E+02
 20
-2.97731391E+02
  0
VERTEX
  8
0
 62
4
 10
3.42825039E+02
 20
-2.97576003E+02
  0
VERTEX
  8
0
 62
4
 10
3.42745673E+02
 20
-2.97426658E+02
  0
VERTEX
  8
0
 62
4
 10
3.42652669E+02
 20
-2.97284523E+02
  0
VERTEX
  8
0
 62
4
 10
3.42546756E+02
 20
-2.97150707E+02
  0
VERTEX
  8
0
 62
4
 10
3.42428759E+02
 20
-2.97026257E+02
  0
VERTEX
  8
0
 62
4
 10
3.42299602E+02
 20
-2.96912144E+02
  0
VERTEX
  8
0
 62
4
 10
3.42160292E+02
 20
-2.96809259E+02
  0
VERTEX
  8
0
 62
4
 10
3.42011919E+02
 20
-2.96718407E+02
  0
VERTEX
  8
0
 62
4
 10
3.41855640E+02
 20
-2.96640298E+02
  0
VERTEX
  8
0
 62
4
 10
3.41692678E+02
 20
-2.96575540E+02
  0
VERTEX
  8
0
 62
4
 10
3.41524305E+02
 20
-2.96524641E+02
  0
VERTEX
  8
0
 62
4
 10
3.41351836E+02
 20
-2.96487998E+02
  0
VERTEX
  8
0
 62
4
 10
3.41176620E+02
 20
-2.96465897E+02
  0
VERTEX
  8
0
 62
4
 10
3.41000023E+02
 20
-2.96458511E+02
  0
VERTEX
  8
0
 62
4
 10
3.40823426E+02
 20
-2.96465897E+02
  0
VERTEX
  8
0
 62
4
 10
3.40648209E+02
 20
-2.96487998E+02
  0
VERTEX
  8
0
 62
4
 10
3.40475741E+02
 20
-2.96524641E+02
  0
VERTEX
  8
0
 62
4
 10
3.40307368E+02
 20
-2.96575540E+02
  0
VERTEX
  8
0
 62
4
 10
3.40144406E+02
 20
-2.96640298E+02
  0
VERTEX
  8
0
 62
4
 10
3.39988127E+02
 20
-2.96718407E+02
  0
VERTEX
  8
0
 62
4
 10
3.39839754E+02
 20
-2.96809259E+02
  0
VERTEX
  8
0
 62
4
 10
3.39700444E+02
 20
-2.96912144E+02
  0
VERTEX
  8
0
 62
4
 10
3.39571287E+02
 20
-2.97026257E+02
  0
VERTEX
  8
0
 62
4
 10
3.39453290E+02
 20
-2.97150707E+02
  0
VERTEX
  8
0
 62
4
 10
3.39347377E+02
 20
-2.97284523E+02
  0
VERTEX
  8
0
 62
4
 10
3.39254373E+02
 20
-2.97426658E+02
  0
VERTEX
  8
0
 62
4
 10
3.39175007E+02
 20
-2.97576003E+02
  0
VERTEX
  8
0
 62
4
 10
3.39109897E+02
 20
-2.97731391E+02
  0
VERTEX
  8
0
 62
4
 10
3.39059552E+02
 20
-2.97891608E+02
  0
VERTEX
  8
0
 62
4
 10
3.39024366E+02
 20
-2.98055402E+02
  0
VERTEX
  8
0
 62
4
 10
3.39004614E+02
 20
-2.98221493E+02
  0
VERTEX
  8
0
 62
4
 10
3.39000449E+02
 20
-2.98388586E+02
  0
VERTEX
  8
0
 62
4
 10
3.39011905E+02
 20
-2.98555373E+02
  0
VERTEX
  8
0
 62
4
 10
3.39038892E+02
 20
-2.98720552E+02
  0
VERTEX
  8
0
 62
4
 10
3.39081198E+02
 20
-2.98882833E+02
  0
VERTEX
  8
0
 62
4
 10
3.39138494E+02
 20
-2.99040949E+02
  0
VERTEX
  8
0
 62
4
 10
3.39210333E+02
 20
-2.99193663E+02
  0
VERTEX
  8
0
 62
4
 10
3.39296151E+02
 20
-2.99339783E+02
  0
VERTEX
  8
0
 62
4
 10
3.39395281E+02
 20
-2.99478167E+02
  0
VERTEX
  8
0
 62
4
 10
3.39506946E+02
 20
-2.99607735E+02
  0
SEQEND
  8
0
  0
POLYLINE
  8
0
 62
4
 66
1
  0
VERTEX
  8
0
 62
4
 10
3.42735023E+02
 20
-2.98774577E+02
  0
VERTEX
  8
0
 62
4
 10
3.42728421E+02
 20
-2.98632012E+02
  0
VERTEX
  8
0
 62
4
 10
3.42708664E+02
 20
-2.98490532E+02
  0
VERTEX
  8
0
 62
4
 10
3.42675904E+02
 20
-2.98351214E+02
  0
VERTEX
  8
0
 62
4
 10
3.42630390E+02
 20
-2.98215119E+02
  0
VERTEX
  8
0
 62
4
 10
3.42572467E+02
 20
-2.98083280E+02
  0
VERTEX
  8
0
 62
4
 10
3.42502577E+02
 20
-2.97956703E+02
  0
VERTEX
  8
0
 62
4
 10
3.42421252E+02
 20
-2.97836351E+02
  0
VERTEX
  8
0
 62
4
 10
3.42329110E+02
 20
-2.97723139E+02
  0
VERTEX
  8
0
 62
4
 10
3.42226853E+02
 20
-2.97617929E+02
  0
VERTEX
  8
0
 62
4
 10
3.42115260E+02
 20
-2.97521522E+02
  0
VERTEX
  8
0
 62
4
 10
3.41995178E+02
 20
-2.97434651E+02
  0
VERTEX
  8
0
 62
4
 10
3.41867523E+02
 20
-2.97357978E+02
  0
VERTEX
  8
0
 62
4
 10
3.41733266E+02
 20
-2.97292087E+02
  0
VERTEX
  8
0
 62
4
 10
3.41593428E+02
 20
-2.97237477E+02
  0
VERTEX
  8
0
 62
4
 10
3.41449074E+02
 20
-2.97194567E+02
  0
VERTEX
  8
0
 62
4
 10
3.41301303E+02
 20
-2.97163681E+02
  0
VERTEX
  8
0
 62
4
 10
3.41151238E+02
 20
-2.97145054E+02
  0
VERTEX
  8
0
 62
4
 10
3.41000023E+02
 20
-2.97138830E+02
  0
VERTEX
  8
0
 62
4
 10
3.40848808E+02
 20
-2.97145054E+02
  0
VERTEX
  8
0
 62
4
 10
3.40698743E+02
 20
-2.97163681E+02
  0
VERTEX
  8
0
 62
4
 10
3.40550972E+02
 20
-2.97194567E+02
  0
VERTEX
  8
0
 62
4
 10
3.40406618E+02
 20
-2.97237477E+02
  0
VERTEX
  8
0
 62
4
 10
3.40266780E+02
 20
-2.97292087E+02
  0
VERTEX
  8
0
 62
4
 10
3.40132523E+02
 20
-2.97357978E+02
  0
VERTEX
  8
0
 62
4
 10
3.40004868E+02
 20
-2.97434651E+02
  0
VERTEX
  8
0
 62
4
 10
3.39884786E+02
 20
-2.97521522E+02
  0
VERTEX
  8
0
 62
4
 10
3.39773193E+02
 20
-2.97617929E+02
  0
VERTEX
  8
0
 62
4
 10
3.39670936E+02
 20
-2.97723139E+02
  0
VERTEX
  8
0
 62
4
 10
3.39578794E+02
 20
-2.97836351E+02
  0
VERTEX
  8
0
 62
4
 10
3.39497469E+02
 20
-2.97956703E+02
  0
VERTEX
  8
0
 62
4
 10
3.39427579E+02
 20
-2.98083280E+02
  0
VERTEX
  8
0
 62
4
 10
3.39369656E+02
 20
-2.98215119E+02
  0
VERTEX
  8
0
 62
4
 10
3.39324142E+02
 20
-2.98351214E+02
  0
VERTEX
  8
0
 62
4
 10
3.39291382E+02
 20
-2.98490532E+02
  0
VERTEX
  8
0
 62
4
 10
3.39271625E+02
 20
-2.98632012E+02
  0
VERTEX
  8
0
 62
4
 10
3.39265023E+02
 20
-2.98774577E+02
  0
VERTEX
  8
0
 62
4
 10
3.39271625E+02
 20
-2.98917142E+02
  0
VERTEX
  8
0
 62
4
 10
3.39291382E+02
 20
-2.99058622E+02
  0
VERTEX
  8
0
 62
4
 10
3.39324142E+02
 20
-2.99197940E+02
  0
VERTEX
  8
0
 62
4
 10
3.39369656E+02
 20
-2.99334035E+02
  0
VERTEX
  8
0
 62
4
 10
3.39427579E+02
 20
-2.99465874E+02
  0
VERTEX
  8
0
 62
4
 10
3.39497469E+02
 20
-2.99592451E+02
  0
VERTEX
  8
0
 62
4
 10
3.39578794E+02
 20
-2.99712803E+02
  0
VERTEX
  8
0
 62
4
 10
3.39670936E+02
 20
-2.99826015E+02
  0
VERTEX
  8
0
 62
4
 10
3.39773193E+02
 20
-2.99931225E+02
  0
VERTEX
  8
0
 62
4
 10
3.39884786E+02
 20
-3.00027632E+02
  0
VERTEX
  8
0
 62
4
 10
3.40004868E+02
 20
-3.00114503E+02
  0
VERTEX
  8
0
 62
4
 10
3.40132523E+02
 20
-3.00191176E+02
  0
VERTEX
  8
0
 62
4
 10
3.40266780E+02
 20
-3.00257067E+02
  0
VERTEX
  8
0
 62
4
 10
3.40406618E+02
 20
-3.00311677E+02
  0
VERTEX
  8
0
 62
4
 10
3.40550972E+02
 20
-3.00354587E+02
  0
VERTEX
  8
0
 62
4
 10
3.40698743E+02
 20
-3.00385473E+02
  0
VERTEX
  8
0
 62
4
 10
3.40848808E+02
 20
-3.00404100E+02
  0
VERTEX
  8
0
 62
4
 10
3.41000023E+02
 20
-3.00410324E+02
  0
VERTEX
  8
0
 62
4
 10
3.41151238E+02
 20
-3.00404100E+02
  0
VERTEX
  8
0
 62
4
 10
3.41301303E+02
 20
-3.00385473E+02
  0
VERTEX
  8
0
 62
4
 10
3.41449074E+02
 20
-3.00354587E+02
  0
VERTEX
  8
0
 62
4
 10
3.41593428E+02
 20
-3.00311677E+02
  0
VERTEX
  8
0
 62
4
 10
3.41733266E+02
 20
-3.00257067E+02
  0
VERTEX
  8
0
 62
4
 10
3.41867523E+02
 20
-3.00191176E+02
  0
VERTEX
  8
0
 62
4
 10
3.41995178E+02
 20
-3.00114503E+02
  0
VERTEX
  8
0
 62
4
 10
3.42115260E+02
 20
-3.00027632E+02
  0
VERTEX
  8
0
 62
4
 10
3.42226853E+02
 20
-2.99931225E+02
  0
VERTEX
  8
0
 62
4
 10
3.42329110E+02
 20
-2.99826015E+02
  0
VERTEX
  8
0
 62
4
 10
3.42421252E+02
 20
-2.99712803E+02
  0
VERTEX
  8
0
 62
4
 10
3.42502577E+02
 20
-2.99592451E+02
  0
VERTEX
  8
0
 62
4
 10
3.42572467E+02
 20
-2.99465874E+02
  0
VERTEX
  8
0
 62
4
 10
3.42630390E+02
 20
-2.99334035E+02
  0
VERTEX
  8
0
 62
4
 10
3.42675904E+02
 20
-2.99197940E+02
  0
VERTEX
  8
0
 62
4
 10
3.42708664E+02
 20
-2.99058622E+02
  0
VERTEX
  8
0
 62
4
 10
3.42728421E+02
 20
-2.98917142E+02
  0
VERTEX
  8
0
 62
4
 10
3.42735023E+02
 20
-2.98774577E+02
  0
SEQEND
  8
0
  0
POLYLINE
  8
0
 62
6
 66
1
  0
VERTEX
  8
0
 62
6
 10
3.42500023E+02
 20
-2.98774577E+02
  0
VERTEX
  8
0
 62
6
 10
3.42494315E+02
 20
-2.98650966E+02
  0
VERTEX
  8
0
 62
6
 10
3.42477235E+02
 20
-2.98528296E+02
  0
VERTEX
  8
0
 62
6
 10
3.42448912E+02
 20
-2.98407500E+02
  0
VERTEX
  8
0
 62
6
 10
3.42409562E+02
 20
-2.98289497E+02
  0
VERTEX
  8
0
 62
6
 10
3.42359485E+02
 20
-2.98175187E+02
  0
VERTEX
  8
0
 62
6
 10
3.42299061E+02
 20
-2.98065438E+02
  0
VERTEX
  8
0
 62
6
 10
3.42228751E+02
 20
-2.97961086E+02
  0
VERTEX
  8
0
 62
6
 10
3.42149090E+02
 20
-2.97862926E+02
  0
VERTEX
  8
0
 62
6
 10
3.42060683E+02
 20
-2.97771703E+02
  0
VERTEX
  8
0
 62
6
 10
3.41964204E+02
 20
-2.97688113E+02
  0
VERTEX
  8
0
 62
6
 10
3.41860388E+02
 20
-2.97612792E+02
  0
VERTEX
  8
0
 62
6
 10
3.41750023E+02
 20
-2.97546312E+02
  0
VERTEX
  8
0
 62
6
 10
3.41633950E+02
 20
-2.97489181E+02
  0
VERTEX
  8
0
 62
6
 10
3.41513053E+02
 20
-2.97441832E+02
  0
VERTEX
  8
0
 62
6
 10
3.41388252E+02
 20
-2.97404626E+02
  0
VERTEX
  8
0
 62
6
 10
3.41260495E+02
 20
-2.97377846E+02
  0
VERTEX
  8
0
 62
6
 10
3.41130757E+02
 20
-2.97361696E+02
  0
VERTEX
  8
0
 62
6
 10
3.41000023E+02
 20
-2.97356299E+02
  0
VERTEX
  8
0
 62
6
 10
3.40869289E+02
 20
-2.97361696E+02
  0
VERTEX
  8
0
 62
6
 10
3.40739551E+02
 20
-2.97377846E+02
  0
VERTEX
  8
0
 62
6
 10
3.40611794E+02
 20
-2.97404626E+02
  0
VERTEX
  8
0
 62
6
 10
3.40486993E+02
 20
-2.97441832E+02
  0
VERTEX
  8
0
 62
6
 10
3.40366096E+02
 20
-2.97489181E+02
  0
VERTEX
  8
0
 62
6
 10
3.40250023E+02
 20
-2.97546312E+02
  0
VERTEX
  8
0
 62
6
 10
3.40139658E+02
 20
-2.97612792E+02
  0
VERTEX
  8
0
 62
6
 10
3.40035842E+02
 20
-2.97688113E+02
  0
VERTEX
  8
0
 62
6
 10
3.39939363E+02
 20
-2.97771703E+02
  0
VERTEX
  8
0
 62
6
 10
3.39850956E+02
 20
-2.97862926E+02
  0
VERTEX
  8
0
 62
6
 10
3.39771295E+02
 20
-2.97961086E+02
  0
VERTEX
  8
0
 62
6
 10
3.39700985E+02
 20
-2.98065438E+02
  0
VERTEX
  8
0
 62
6
 10
3.39640561E+02
 20
-2.98175187E+02
  0
VERTEX
  8
0
 62
6
 10
3.39590484E+02
 20
-2.98289497E+02
  0
VERTEX
  8
0
 62
6
 10
3.39551134E+02
 20
-2.98407500E+02
  0
VERTEX
  8
0
 62
6
 10
3.39522811E+02
 20
-2.98528296E+02
  0
VERTEX
  8
0
 62
6
 10
3.39505731E+02
 20
-2.98650966E+02
  0
VERTEX
  8
0
 62
6
 10
3.39500023E+02
 20
-2.98774577E+02
  0
VERTEX
  8
0
 62
6
 10
3.39505731E+02
 20
-2.98898188E+02
  0
VERTEX
  8
0
 62
6
 10
3.39522811E+02
 20
-2.99020858E+02
  0
VERTEX
  8
0
 62
6
 10
3.39551134E+02
 20
-2.99141654E+02
  0
VERTEX
  8
0
 62
6
 10
3.39590484E+02
 20
-2.99259657E+02
  0
VERTEX
  8
0
 62
6
 10
3.39640561E+02
 20
-2.99373967E+02
  0
VERTEX
  8
0
 62
6
 10
3.39700985E+02
 20
-2.99483716E+02
  0
VERTEX
  8
0
 62
6
 10
3.39771295E+02
 20
-2.99588068E+02
  0
VERTEX
  8
0
 62
6
 10
3.39850956E+02
 20
-2.99686228E+02
  0
VERTEX
  8
0
 62
6
 10
3.39939363E+02
 20
-2.99777451E+02
  0
VERTEX
  8
0
 62
6
 10
3.40035842E+02
 20
-2.99861041E+02
  0
VERTEX
  8
0
 62
6
 10
3.40139658E+02
 20
-2.99936362E+02
  0
VERTEX
  8
0
 62
6
 10
3.40250023E+02
 20
-3.00002842E+02
  0
VERTEX
  8
0
 62
6
 10
3.40366096E+02
 20
-3.00059973E+02
  0
VERTEX
  8
0
 62
6
 10
3.40486993E+02
 20
-3.00107322E+02
  0
VERTEX
  8
0
 62
6
 10
3.40611794E+02
 20
-3.00144528E+02
  0
VERTEX
  8
0
 62
6
 10
3.40739551E+02
 20
-3.00171308E+02
  0
VERTEX
  8
0
 62
6
 10
3.40869289E+02
 20
-3.00187458E+02
  0
VERTEX
  8
0
 62
6
 10
3.41000023E+02
 20
-3.00192855E+02
  0
VERTEX
  8
0
 62
6
 10
3.41130757E+02
 20
-3.00187458E+02
  0
VERTEX
  8
0
 62
6
 10
3.41260495E+02
 20
-3.00171308E+02
  0
VERTEX
  8
0
 62
6
 10
3.41388252E+02
 20
-3.00144528E+02
  0
VERTEX
  8
0
 62
6
 10
3.41513053E+02
 20
-3.00107322E+02
  0
VERTEX
  8
0
 62
6
 10
3.41633950E+02
 20
-3.00059973E+02
  0
VERTEX
  8
0
 62
6
 10
3.41750023E+02
 20
-3.00002842E+02
  0
VERTEX
  8
0
 62
6
 10
3.41860388E+02
 20
-2.99936362E+02
  0
VERTEX
  8
0
 62
6
 10
3.41964204E+02
 20
-2.99861041E+02
  0
VERTEX
  8
0
 62
6
 10
3.42060683E+02
 20
-2.99777451E+02
  0
VERTEX
  8
0
 62
6
 10
3.42149090E+02
 20
-2.99686228E+02
  0
VERTEX
  8
0
 62
6
 10
3.42228751E+02
 20
-2.99588068E+02
  0
VERTEX
  8
0
 62
6
 10
3.42299061E+02
 20
-2.99483716E+02
  0
VERTEX
  8
0
 62
6
 10
3.42359485E+02
 20
-2.99373967E+02
  0
VERTEX
  8
0
 62
6
 10
3.42409562E+02
 20
-2.99259657E+02
  0
VERTEX
  8
0
 62
6
 10
3.42448912E+02
 20
-2.99141654E+02
  0
VERTEX
  8
0
 62
6
 10
3.42477235E+02
 20
-2.99020858E+02
  0
VERTEX
  8
0
 62
6
 10
3.42494315E+02
 20
-2.98898188E+02
  0
VERTEX
  8
0
 62
6
 10
3.42500023E+02
 20
-2.98774577E+02
  0
SEQEND
  8
0
  0
POLYLINE
  8
0
 62
4
 66
1
  0
VERTEX
  8
0
 62
4
 10
3.50493100E+02
 20
-2.99607735E+02
  0
VERTEX
  8
0
 62
4
 10
3.50604765E+02
 20
-2.99478167E+02
  0
VERTEX
  8
0
 62
4
 10
3.50703895E+02
 20
-2.99339783E+02
  0
VERTEX
  8
0
 62
4
 10
3.50789713E+02
 20
-2.99193663E+02
  0
VERTEX
  8
0
 62
4
 10
3.50861552E+02
 20
-2.99040949E+02
  0
VERTEX
  8
0
 62
4
 10
3.50918848E+02
 20
-2.98882833E+02
  0
VERTEX
  8
0
 62
4
 10
3.50961154E+02
 20
-2.98720552E+02
  0
VERTEX
  8
0
 62
4
 10
3.50988141E+02
 20
-2.98555373E+02
  0
VERTEX
  8
0
 62
4
 10
3.50999597E+02
 20
-2.98388586E+02
  0
VERTEX
  8
0
 62
4
 10
3.50995432E+02
 20
-2.98221493E+02
  0
VERTEX
  8
0
 62
4
 10
3.50975680E+02
 20
-2.98055402E+02
  0
VERTEX
  8
0
 62
4
 10
3.50940494E+02
 20
-2.97891608E+02
  0
VERTEX
  8
0
 62
4
 10
3.50890149E+02
 20
-2.97731391E+02
  0
VERTEX
  8
0
 62
4
 10
3.50825039E+02
 20
-2.97576003E+02
  0
VERTEX
  8
0
 62
4
 10
3.50745673E+02
 20
-2.97426658E+02
  0
VERTEX
  8
0
 62
4
 10
3.50652669E+02
 20
-2.97284523E+02
  0
VERTEX
  8
0
 62
4
 10
3.50546756E+02
 20
-2.97150707E+02
  0
VERTEX
  8
0
 62
4
 10
3.50428759E+02
 20
-2.97026257E+02
  0
VERTEX
  8
0
 62
4
 10
3.50299602E+02
 20
-2.96912144E+02
  0
VERTEX
  8
0
 62
4
 10
3.50160292E+02
 20
-2.96809259E+02
  0
VERTEX
  8
0
 62
4
 10
3.50011919E+02
 20
-2.96718407E+02
  0
VERTEX
  8
0
 62
4
 10
3.49855640E+02
 20
-2.96640298E+02
  0
VERTEX
  8
0
 62
4
 10
3.49692678E+02
 20
-2.96575540E+02
  0
VERTEX
  8
0
 62
4
 10
3.49524305E+02
 20
-2.96524641E+02
  0
VERTEX
  8
0
 62
4
 10
3.49351836E+02
 20
-2.96487998E+02
  0
VERTEX
  8
0
 62
4
 10
3.49176620E+02
 20
-2.96465897E+02
  0
VERTEX
  8
0
 62
4
 10
3.49000023E+02
 20
-2.96458511E+02
  0
VERTEX
  8
0
 62
4
 10
3.48823426E+02
 20
-2.96465897E+02
  0
VERTEX
  8
0
 62
4
 10
3.48648209E+02
 20
-2.96487998E+02
  0
VERTEX
  8
0
 62
4
 10
3.48475741E+02
 20
-2.96524641E+02
  0
VERTEX
  8
0
 62
4
 10
3.48307368E+02
 20
-2.96575540E+02
  0
VERTEX
  8
0
 62
4
 10
3.48144406E+02
 20
-2.96640298E+02
  0
VERTEX
  8
0
 62
4
 10
3.47988127E+02
 20
-2.96718407E+02
  0
VERTEX
  8
0
 62
4
 10
3.47839754E+02
 20
-2.96809259E+02
  0
VERTEX
  8
0
 62
4
 10
3.47700444E+02
 20
-2.96912144E+02
  0
VERTEX
  8
0
 62
4
 10
3.47571287E+02
 20
-2.97026257E+02
  0
VERTEX
  8
0
 62
4
 10
3.47453290E+02
 20
-2.97150707E+02
  0
VERTEX
  8
0
 62
4
 10
3.47347377E+02
 20
-2.97284523E+02
  0
VERTEX
  8
0
 62
4
 10
3.47254373E+02
 20
-2.97426658E+02
  0
VERTEX
  8
0
 62
4
 10
3.47175007E+02
 20
-2.97576003E+02
  0
VERTEX
  8
0
 62
4
 10
3.47109897E+02
 20
-2.97731391E+02
  0
VERTEX
  8
0
 62
4
 10
3.47059552E+02
 20
-2.97891608E+02
  0
VERTEX
  8
0
 62
4
 10
3.47024366E+02
 20
-2.98055402E+02
  0
VERTEX
  8
0
 62
4
 10
3.47004614E+02
 20
-2.98221493E+02
  0
VERTEX
  8
0
 62
4
 10
3.47000449E+02
 20
-2.98388586E+02
  0
VERTEX
  8
0
 62
4
 10
3.47011905E+02
 20
-2.98555373E+02
  0
VERTEX
  8
0
 62
4
 10
3.47038892E+02
 20
-2.98720552E+02
  0
VERTEX
  8
0
 62
4
 10
3.47081198E+02
 20
-2.98882833E+02
  0
VERTEX
  8
0
 62
4
 10
3.47138494E+02
 20
-2.99040949E+02
  0
VERTEX
  8
0
 62
4
 10
3.47210333E+02
 20
-2.99193663E+02
  0
VERTEX
  8
0
 62
4
 10
3.47296151E+02
 20
-2.99339783E+02
  0
VERTEX
  8
0
 62
4
 10
3.47395281E+02
 20
-2.99478167E+02
  0
VERTEX
  8
0
 62
4
 10
3.47506946E+02
 20
-2.99607735E+02
  0
SEQEND
  8
0
  0
POLYLINE
  8
0
 62
4
 66
1
  0
VERTEX
  8
0
 62
4
 10
3.50735023E+02
 20
-2.98774577E+02
  0
VERTEX
  8
0
 62
4
 10
3.50728421E+02
 20
-2.98632012E+02
  0
VERTEX
  8
0
 62
4
 10
3.50708664E+02
 20
-2.98490532E+02
  0
VERTEX
  8
0
 62
4
 10
3.50675904E+02
 20
-2.98351214E+02
  0
VERTEX
  8
0
 62
4
 10
3.50630390E+02
 20
-2.98215119E+02
  0
VERTEX
  8
0
 62
4
 10
3.50572467E+02
 20
-2.98083280E+02
  0
VERTEX
  8
0
 62
4
 10
3.50502577E+02
 20
-2.97956703E+02
  0
VERTEX
  8
0
 62
4
 10
3.50421252E+02
 20
-2.97836351E+02
  0
VERTEX
  8
0
 62
4
 10
3.50329110E+02
 20
-2.97723139E+02
  0
VERTEX
  8
0
 62
4
 10
3.50226853E+02
 20
-2.97617929E+02
  0
VERTEX
  8
0
 62
4
 10
3.50115260E+02
 20
-2.97521522E+02
  0
VERTEX
  8
0
 62
4
 10
3.49995178E+02
 20
-2.97434651E+02
  0
VERTEX
  8
0
 62
4
 10
3.49867523E+02
 20
-2.97357978E+02
  0
VERTEX
  8
0
 62
4
 10
3.49733266E+02
 20
-2.97292087E+02
  0
VERTEX
  8
0
 62
4
 10
3.49593428E+02
 20
-2.97237477E+02
  0
VERTEX
  8
0
 62
4
 10
3.49449074E+02
 20
-2.97194567E+02
  0
VERTEX
  8
0
 62
4
 10
3.49301303E+02
 20
-2.97163681E+02
  0
VERTEX
  8
0
 62
4
 10
3.49151238E+02
 20
-2.97145054E+02
  0
VERTEX
  8
0
 62
4
 10
3.49000023E+02
 20
-2.97138830E+02
  0
VERTEX
  8
0
 62
4
 10
3.48848808E+02
 20
-2.97145054E+02
  0
VERTEX
  8
0
 62
4
 10
3.48698743E+02
 20
-2.97163681E+02
  0
VERTEX
  8
0
 62
4
 10
3.48550972E+02
 20
-2.97194567E+02
  0
VERTEX
  8
0
 62
4
 10
3.48406618E+02
 20
-2.97237477E+02
  0
VERTEX
  8
0
 62
4
 10
3.48266780E+02
 20
-2.97292087E+02
  0
VERTEX
  8
0
 62
4
 10
3.48132523E+02
 20
-2.97357978E+02
  0
VERTEX
  8
0
 62
4
 10
3.48004868E+02
 20
-2.97434651E+02
  0
VERTEX
  8
0
 62
4
 10
3.47884786E+02
 20
-2.97521522E+02
  0
VERTEX
  8
0
 62
4
 10
3.47773193E+02
 20
-2.97617929E+02
  0
VERTEX
  8
0
 62
4
 10
3.47670936E+02
 20
-2.97723139E+02
  0
VERTEX
  8
0
 62
4
 10
3.47578794E+02
 20
-2.97836351E+02
  0
VERTEX
  8
0
 62
4
 10
3.47497469E+02
 20
-2.97956703E+02
  0
VERTEX
  8
0
 62
4
 10
3.47427579E+02
 20
-2.98083280E+02
  0
VERTEX
  8
0
 62
4
 10
3.47369656E+02
 20
-2.98215119E+02
  0
VERTEX
  8
0
 62
4
 10
3.47324142E+02
 20
-2.98351214E+02
  0
VERTEX
  8
0
 62
4
 10
3.47291382E+02
 20
-2.98490532E+02
  0
VERTEX
  8
0
 62
4
 10
3.47271625E+02
 20
-2.98632012E+02
  0
VERTEX
  8
0
 62
4
 10
3.47265023E+02
 20
-2.98774577E+02
  0
VERTEX
  8
0
 62
4
 10
3.47271625E+02
 20
-2.98917142E+02
  0
VERTEX
  8
0
 62
4
 10
3.47291382E+02
 20
-2.99058622E+02
  0
VERTEX
  8
0
 62
4
 10
3.47324142E+02
 20
-2.99197940E+02
  0
VERTEX
  8
0
 62
4
 10
3.47369656E+02
 20
-2.99334035E+02
  0
VERTEX
  8
0
 62
4
 10
3.47427579E+02
 20
-2.99465874E+02
  0
VERTEX
  8
0
 62
4
 10
3.47497469E+02
 20
-2.99592451E+02
  0
VERTEX
  8
0
 62
4
 10
3.47578794E+02
 20
-2.99712803E+02
  0
VERTEX
  8
0
 62
4
 10
3.47670936E+02
 20
-2.99826015E+02
  0
VERTEX
  8
0
 62
4
 10
3.47773193E+02
 20
-2.99931225E+02
  0
VERTEX
  8
0
 62
4
 10
3.47884786E+02
 20
-3.00027632E+02
  0
VERTEX
  8
0
 62
4
 10
3.48004868E+02
 20
-3.00114503E+02
  0
VERTEX
  8
0
 62
4
 10
3.48132523E+02
 20
-3.00191176E+02
  0
VERTEX
  8
0
 62
4
 10
3.48266780E+02
 20
-3.00257067E+02
  0
VERTEX
  8
0
 62
4
 10
3.48406618E+02
 20
-3.00311677E+02
  0
VERTEX
  8
0
 62
4
 10
3.48550972E+02
 20
-3.00354587E+02
  0
VERTEX
  8
0
 62
4
 10
3.48698743E+02
 20
-3.00385473E+02
  0
VERTEX
  8
0
 62
4
 10
3.48848808E+02
 20
-3.00404100E+02
  0
VERTEX
  8
0
 62
4
 10
3.49000023E+02
 20
-3.00410324E+02
  0
VERTEX
  8
0
 62
4
 10
3.49151238E+02
 20
-3.00404100E+02
  0
VERTEX
  8
0
 62
4
 10
3.49301303E+02
 20
-3.00385473E+02
  0
VERTEX
  8
0
 62
4
 10
3.49449074E+02
 20
-3.00354587E+02
  0
VERTEX
  8
0
 62
4
 10
3.49593428E+02
 20
-3.00311677E+02
  0
VERTEX
  8
0
 62
4
 10
3.49733266E+02
 20
-3.00257067E+02
  0
VERTEX
  8
0
 62
4
 10
3.49867523E+02
 20
-3.00191176E+02
  0
VERTEX
  8
0
 62
4
 10
3.49995178E+02
 20
-3.00114503E+02
  0
VERTEX
  8
0
 62
4
 10
3.50115260E+02
 20
-3.00027632E+02
  0
VERTEX
  8
0
 62
4
 10
3.50226853E+02
 20
-2.99931225E+02
  0
VERTEX
  8
0
 62
4
 10
3.50329110E+02
 20
-2.99826015E+02
  0
VERTEX
  8
0
 62
4
 10
3.50421252E+02
 20
-2.99712803E+02
  0
VERTEX
  8
0
 62
4
 10
3.50502577E+02
 20
-2.99592451E+02
  0
VERTEX
  8
0
 62
4
 10
3.50572467E+02
 20
-2.99465874E+02
  0
VERTEX
  8
0
 62
4
 10
3.50630390E+02
 20
-2.99334035E+02
  0
VERTEX
  8
0
 62
4
 10
3.50675904E+02
 20
-2.99197940E+02
  0
VERTEX
  8
0
 62
4
 10
3.50708664E+02
 20
-2.99058622E+02
  0
VERTEX
  8
0
 62
4
 10
3.50728421E+02
 20
-2.98917142E+02
  0
VERTEX
  8
0
 62
4
 10
3.50735023E+02
 20
-2.98774577E+02
  0
SEQEND
  8
0
  0
POLYLINE
  8
0
 62
6
 66
1
  0
VERTEX
  8
0
 62
6
 10
3.50500023E+02
 20
-2.98774577E+02
  0
VERTEX
  8
0
 62
6
 10
3.50494315E+02
 20
-2.98650966E+02
  0
VERTEX
  8
0
 62
6
 10
3.50477235E+02
 20
-2.98528296E+02
  0
VERTEX
  8
0
 62
6
 10
3.50448912E+02
 20
-2.98407500E+02
  0
VERTEX
  8
0
 62
6
 10
3.50409562E+02
 20
-2.98289497E+02
  0
VERTEX
  8
0
 62
6
 10
3.50359485E+02
 20
-2.98175187E+02
  0
VERTEX
  8
0
 62
6
 10
3.50299061E+02
 20
-2.98065438E+02
  0
VERTEX
  8
0
 62
6
 10
3.50228751E+02
 20
-2.97961086E+02
  0
VERTEX
  8
0
 62
6
 10
3.50149090E+02
 20
-2.97862926E+02
  0
VERTEX
  8
0
 62
6
 10
3.50060683E+02
 20
-2.97771703E+02
  0
VERTEX
  8
0
 62
6
 10
3.49964204E+02
 20
-2.97688113E+02
  0
VERTEX
  8
0
 62
6
 10
3.49860388E+02
 20
-2.97612792E+02
  0
VERTEX
  8
0
 62
6
 10
3.49750023E+02
 20
-2.97546312E+02
  0
VERTEX
  8
0
 62
6
 10
3.49633950E+02
 20
-2.97489181E+02
  0
VERTEX
  8
0
 62
6
 10
3.49513053E+02
 20
-2.97441832E+02
  0
VERTEX
  8
0
 62
6
 10
3.49388252E+02
 20
-2.97404626E+02
  0
VERTEX
  8
0
 62
6
 10
3.49260495E+02
 20
-2.97377846E+02
  0
VERTEX
  8
0
 62
6
 10
3.49130757E+02
 20
-2.97361696E+02
  0
VERTEX
  8
0
 62
6
 10
3.49000023E+02
 20
-2.97356299E+02
  0
VERTEX
  8
0
 62
6
 10
3.48869289E+02
 20
-2.97361696E+02
  0
VERTEX
  8
0
 62
6
 10
3.48739551E+02
 20
-2.97377846E+02
  0
VERTEX
  8
0
 62
6
 10
3.48611794E+02
 20
-2.97404626E+02
  0
VERTEX
  8
0
 62
6
 10
3.48486993E+02
 20
-2.97441832E+02
  0
VERTEX
  8
0
 62
6
 10
3.48366096E+02
 20
-2.97489181E+02
  0
VERTEX
  8
0
 62
6
 10
3.48250023E+02
 20
-2.97546312E+02
  0
VERTEX
  8
0
 62
6
 10
3.48139658E+02
 20
-2.97612792E+02
  0
VERTEX
  8
0
 62
6
 10
3.48035842E+02
 20
-2.97688113E+02
  0
VERTEX
  8
0
 62
6
 10
3.47939363E+02
 20
-2.97771703E+02
  0
VERTEX
  8
0
 62
6
 10
3.47850956E+02
 20
-2.97862926E+02
  0
VERTEX
  8
0
 62
6
 10
3.47771295E+02
 20
-2.97961086E+02
  0
VERTEX
  8
0
 62
6
 10
3.47700985E+02
 20
-2.98065438E+02
  0
VERTEX
  8
0
 62
6
 10
3.47640561E+02
 20
-2.98175187E+02
  0
VERTEX
  8
0
 62
6
 10
3.47590484E+02
 20
-2.98289497E+02
  0
VERTEX
  8
0
 62
6
 10
3.47551134E+02
 20
-2.98407500E+02
  0
VERTEX
  8
0
 62
6
 10
3.47522811E+02
 20
-2.98528296E+02
  0
VERTEX
  8
0
 62
6
 10
3.47505731E+02
 20
-2.98650966E+02
  0
VERTEX
  8
0
 62
6
 10
3.47500023E+02
 20
-2.98774577E+02
  0
VERTEX
  8
0
 62
6
 10
3.47505731E+02
 20
-2.98898188E+02
  0
VERTEX
  8
0
 62
6
 10
3.47522811E+02
 20
-2.99020858E+02
  0
VERTEX
  8
0
 62
6
 10
3.47551134E+02
 20
-2.99141654E+02
  0
VERTEX
  8
0
 62
6
 10
3.47590484E+02
 20
-2.99259657E+02
  0
VERTEX
  8
0
 62
6
 10
3.47640561E+02
 20
-2.99373967E+02
  0
VERTEX
  8
0
 62
6
 10
3.47700985E+02
 20
-2.99483716E+02
  0
VERTEX
  8
0
 62
6
 10
3.47771295E+02
 20
-2.99588068E+02
  0
VERTEX
  8
0
 62
6
 10
3.47850956E+02
 20
-2.99686228E+02
  0
VERTEX
  8
0
 62
6
 10
3.47939363E+02
 20
-2.99777451E+02
  0
VERTEX
  8
0
 62
6
 10
3.48035842E+02
 20
-2.99861041E+02
  0
VERTEX
  8
0
 62
6
 10
3.48139658E+02
 20
-2.99936362E+02
  0
VERTEX
  8
0
 62
6
 10
3.48250023E+02
 20
-3.00002842E+02
  0
VERTEX
  8
0
 62
6
 10
3.48366096E+02
 20
-3.00059973E+02
  0
VERTEX
  8
0
 62
6
 10
3.48486993E+02
 20
-3.00107322E+02
  0
VERTEX
  8
0
 62
6
 10
3.48611794E+02
 20
-3.00144528E+02
  0
VERTEX
  8
0
 62
6
 10
3.48739551E+02
 20
-3.00171308E+02
  0
VERTEX
  8
0
 62
6
 10
3.48869289E+02
 20
-3.00187458E+02
  0
VERTEX
  8
0
 62
6
 10
3.49000023E+02
 20
-3.00192855E+02
  0
VERTEX
  8
0
 62
6
 10
3.49130757E+02
 20
-3.00187458E+02
  0
VERTEX
  8
0
 62
6
 10
3.49260495E+02
 20
-3.00171308E+02
  0
VERTEX
  8
0
 62
6
 10
3.49388252E+02
 20
-3.00144528E+02
  0
VERTEX
  8
0
 62
6
 10
3.49513053E+02
 20
-3.00107322E+02
  0
VERTEX
  8
0
 62
6
 10
3.49633950E+02
 20
-3.00059973E+02
  0
VERTEX
  8
0
 62
6
 10
3.49750023E+02
 20
-3.00002842E+02
  0
VERTEX
  8
0
 62
6
 10
3.49860388E+02
 20
-2.99936362E+02
  0
VERTEX
  8
0
 62
6
 10
3.49964204E+02
 20
-2.99861041E+02
  0
VERTEX
  8
0
 62
6
 10
3.50060683E+02
 20
-2.99777451E+02
  0
VERTEX
  8
0
 62
6
 10
3.50149090E+02
 20
-2.99686228E+02
  0
VERTEX
  8
0
 62
6
 10
3.50228751E+02
 20
-2.99588068E+02
  0
VERTEX
  8
0
 62
6
 10
3.50299061E+02
 20
-2.99483716E+02
  0
VERTEX
  8
0
 62
6
 10
3.50359485E+02
 20
-2.99373967E+02
  0
VERTEX
  8
0
 62
6
 10
3.50409562E+02
 20
-2.99259657E+02
  0
VERTEX
  8
0
 62
6
 10
3.50448912E+02
 20
-2.99141654E+02
  0
VERTEX
  8
0
 62
6
 10
3.50477235E+02
 20
-2.99020858E+02
  0
VERTEX
  8
0
 62
6
 10
3.50494315E+02
 20
-2.98898188E+02
  0
VERTEX
  8
0
 62
6
 10
3.50500023E+02
 20
-2.98774577E+02
  0
SEQEND
  8
0
  0
ARC
  8
0
 62
4
 10
3.19497536E+02
 20
-2.66223645E+02
 40
1.49751542E+00
 50
8.99048594E+01
 51
1.80095141E+02
  0
LINE
  8
0
 62
4
 10
3.55500023E+02
 20
-2.64726132E+02
 11
3.52500023E+02
 21
-2.64726132E+02
  0
ARC
  8
0
 62
4
 10
3.55502510E+02
 20
-2.66223645E+02
 40
1.49751542E+00
 50
3.59904859E+02
 51
9.00951404E+01
  0
LINE
  8
0
 62
4
 10
3.19500023E+02
 20
-2.69452750E+02
 11
3.19500023E+02
 21
-2.65825965E+02
  0
LINE
  8
0
 62
4
 10
3.37500023E+02
 20
-2.64726132E+02
 11
3.19500023E+02
 21
-2.64726132E+02
  0
LINE
  8
0
 62
4
 10
3.55500023E+02
 20
-2.69452750E+02
 11
3.55500023E+02
 21
-2.65825965E+02
  0
LINE
  8
0
  6
CENTER
 62
6
 10
3.29000023E+02
 20
-2.64351546E+02
 11
3.29000023E+02
 21
-2.67011071E+02
  0
POLYLINE
  8
0
 62
4
 66
1
  0
VERTEX
  8
0
 62
4
 10
3.32140023E+02
 20
-2.67011071E+02
  0
VERTEX
  8
0
 62
4
 10
3.32128074E+02
 20
-2.66921973E+02
  0
VERTEX
  8
0
 62
4
 10
3.32092319E+02
 20
-2.66833553E+02
  0
VERTEX
  8
0
 62
4
 10
3.32033030E+02
 20
-2.66746484E+02
  0
VERTEX
  8
0
 62
4
 10
3.31950658E+02
 20
-2.66661429E+02
  0
VERTEX
  8
0
 62
4
 10
3.31845829E+02
 20
-2.66579035E+02
  0
VERTEX
  8
0
 62
4
 10
3.31719343E+02
 20
-2.66499929E+02
  0
VERTEX
  8
0
 62
4
 10
3.31572160E+02
 20
-2.66424713E+02
  0
VERTEX
  8
0
 62
4
 10
3.31405403E+02
 20
-2.66353960E+02
  0
VERTEX
  8
0
 62
4
 10
3.31220338E+02
 20
-2.66288207E+02
  0
VERTEX
  8
0
 62
4
 10
3.31018376E+02
 20
-2.66227956E+02
  0
VERTEX
  8
0
 62
4
 10
3.30801053E+02
 20
-2.66173665E+02
  0
VERTEX
  8
0
 62
4
 10
3.30570023E+02
 20
-2.66125747E+02
  0
VERTEX
  8
0
 62
4
 10
3.30327044E+02
 20
-2.66084567E+02
  0
VERTEX
  8
0
 62
4
 10
3.30073966E+02
 20
-2.66050438E+02
  0
VERTEX
  8
0
 62
4
 10
3.29812715E+02
 20
-2.66023620E+02
  0
VERTEX
  8
0
 62
4
 10
3.29545278E+02
 20
-2.66004318E+02
  0
VERTEX
  8
0
 62
4
 10
3.29273692E+02
 20
-2.65992677E+02
  0
VERTEX
  8
0
 62
4
 10
3.29000023E+02
 20
-2.65988787E+02
  0
VERTEX
  8
0
 62
4
 10
3.28726354E+02
 20
-2.65992677E+02
  0
VERTEX
  8
0
 62
4
 10
3.28454768E+02
 20
-2.66004318E+02
  0
VERTEX
  8
0
 62
4
 10
3.28187331E+02
 20
-2.66023620E+02
  0
VERTEX
  8
0
 62
4
 10
3.27926080E+02
 20
-2.66050438E+02
  0
VERTEX
  8
0
 62
4
 10
3.27673002E+02
 20
-2.66084567E+02
  0
VERTEX
  8
0
 62
4
 10
3.27430023E+02
 20
-2.66125747E+02
  0
VERTEX
  8
0
 62
4
 10
3.27198993E+02
 20
-2.66173665E+02
  0
VERTEX
  8
0
 62
4
 10
3.26981670E+02
 20
-2.66227956E+02
  0
VERTEX
  8
0
 62
4
 10
3.26779708E+02
 20
-2.66288207E+02
  0
VERTEX
  8
0
 62
4
 10
3.26594643E+02
 20
-2.66353960E+02
  0
VERTEX
  8
0
 62
4
 10
3.26427886E+02
 20
-2.66424713E+02
  0
VERTEX
  8
0
 62
4
 10
3.26280703E+02
 20
-2.66499929E+02
  0
VERTEX
  8
0
 62
4
 10
3.26154217E+02
 20
-2.66579035E+02
  0
VERTEX
  8
0
 62
4
 10
3.26049388E+02
 20
-2.66661429E+02
  0
VERTEX
  8
0
 62
4
 10
3.25967016E+02
 20
-2.66746484E+02
  0
VERTEX
  8
0
 62
4
 10
3.25907727E+02
 20
-2.66833553E+02
  0
VERTEX
  8
0
 62
4
 10
3.25871972E+02
 20
-2.66921973E+02
  0
VERTEX
  8
0
 62
4
 10
3.25860023E+02
 20
-2.67011071E+02
  0
VERTEX
  8
0
 62
4
 10
3.25871972E+02
 20
-2.67100169E+02
  0
VERTEX
  8
0
 62
4
 10
3.25907727E+02
 20
-2.67188589E+02
  0
VERTEX
  8
0
 62
4
 10
3.25967016E+02
 20
-2.67275658E+02
  0
VERTEX
  8
0
 62
4
 10
3.26049388E+02
 20
-2.67360713E+02
  0
VERTEX
  8
0
 62
4
 10
3.26154217E+02
 20
-2.67443107E+02
  0
VERTEX
  8
0
 62
4
 10
3.26280703E+02
 20
-2.67522213E+02
  0
VERTEX
  8
0
 62
4
 10
3.26427886E+02
 20
-2.67597429E+02
  0
VERTEX
  8
0
 62
4
 10
3.26594643E+02
 20
-2.67668182E+02
  0
VERTEX
  8
0
 62
4
 10
3.26779708E+02
 20
-2.67733935E+02
  0
VERTEX
  8
0
 62
4
 10
3.26981670E+02
 20
-2.67794186E+02
  0
VERTEX
  8
0
 62
4
 10
3.27198993E+02
 20
-2.67848477E+02
  0
VERTEX
  8
0
 62
4
 10
3.27430023E+02
 20
-2.67896395E+02
  0
VERTEX
  8
0
 62
4
 10
3.27673002E+02
 20
-2.67937575E+02
  0
VERTEX
  8
0
 62
4
 10
3.27926080E+02
 20
-2.67971704E+02
  0
VERTEX
  8
0
 62
4
 10
3.28187331E+02
 20
-2.67998522E+02
  0
VERTEX
  8
0
 62
4
 10
3.28454768E+02
 20
-2.68017824E+02
  0
VERTEX
  8
0
 62
4
 10
3.28726354E+02
 20
-2.68029465E+02
  0
VERTEX
  8
0
 62
4
 10
3.29000023E+02
 20
-2.68033355E+02
  0
VERTEX
  8
0
 62
4
 10
3.29273692E+02
 20
-2.68029465E+02
  0
VERTEX
  8
0
 62
4
 10
3.29545278E+02
 20
-2.68017824E+02
  0
VERTEX
  8
0
 62
4
 10
3.29812715E+02
 20
-2.67998522E+02
  0
VERTEX
  8
0
 62
4
 10
3.30073966E+02
 20
-2.67971704E+02
  0
VERTEX
  8
0
 62
4
 10
3.30327044E+02
 20
-2.67937575E+02
  0
VERTEX
  8
0
 62
4
 10
3.30570023E+02
 20
-2.67896395E+02
  0
VERTEX
  8
0
 62
4
 10
3.30801053E+02
 20
-2.67848477E+02
  0
VERTEX
  8
0
 62
4
 10
3.31018376E+02
 20
-2.67794186E+02
  0
VERTEX
  8
0
 62
4
 10
3.31220338E+02
 20
-2.67733935E+02
  0
VERTEX
  8
0
 62
4
 10
3.31405403E+02
 20
-2.67668182E+02
  0
VERTEX
  8
0
 62
4
 10
3.31572160E+02
 20
-2.67597429E+02
  0
VERTEX
  8
0
 62
4
 10
3.31719343E+02
 20
-2.67522213E+02
  0
VERTEX
  8
0
 62
4
 10
3.31845829E+02
 20
-2.67443107E+02
  0
VERTEX
  8
0
 62
4
 10
3.31950658E+02
 20
-2.67360713E+02
  0
VERTEX
  8
0
 62
4
 10
3.32033030E+02
 20
-2.67275658E+02
  0
VERTEX
  8
0
 62
4
 10
3.32092319E+02
 20
-2.67188589E+02
  0
VERTEX
  8
0
 62
4
 10
3.32128074E+02
 20
-2.67100169E+02
  0
VERTEX
  8
0
 62
4
 10
3.32140023E+02
 20
-2.67011071E+02
  0
SEQEND
  8
0
  0
POLYLINE
  8
0
 62
4
 66
1
  0
VERTEX
  8
0
 62
4
 10
3.25531427E+02
 20
-2.67804286E+02
  0
VERTEX
  8
0
 62
4
 10
3.25503650E+02
 20
-2.67904727E+02
  0
VERTEX
  8
0
 62
4
 10
3.25503259E+02
 20
-2.68005574E+02
  0
VERTEX
  8
0
 62
4
 10
3.25530256E+02
 20
-2.68106038E+02
  0
VERTEX
  8
0
 62
4
 10
3.25584431E+02
 20
-2.68205331E+02
  0
VERTEX
  8
0
 62
4
 10
3.25665359E+02
 20
-2.68302675E+02
  0
VERTEX
  8
0
 62
4
 10
3.25772407E+02
 20
-2.68397309E+02
  0
VERTEX
  8
0
 62
4
 10
3.25904735E+02
 20
-2.68488491E+02
  0
VERTEX
  8
0
 62
4
 10
3.26061307E+02
 20
-2.68575507E+02
  0
VERTEX
  8
0
 62
4
 10
3.26240898E+02
 20
-2.68657675E+02
  0
VERTEX
  8
0
 62
4
 10
3.26442099E+02
 20
-2.68734351E+02
  0
VERTEX
  8
0
 62
4
 10
3.26663336E+02
 20
-2.68804936E+02
  0
VERTEX
  8
0
 62
4
 10
3.26902876E+02
 20
-2.68868876E+02
  0
VERTEX
  8
0
 62
4
 10
3.27158841E+02
 20
-2.68925670E+02
  0
VERTEX
  8
0
 62
4
 10
3.27429228E+02
 20
-2.68974874E+02
  0
VERTEX
  8
0
 62
4
 10
3.27711919E+02
 20
-2.69016101E+02
  0
VERTEX
  8
0
 62
4
 10
3.28004699E+02
 20
-2.69049030E+02
  0
VERTEX
  8
0
 62
4
 10
3.28305274E+02
 20
-2.69073403E+02
  0
VERTEX
  8
0
 62
4
 10
3.28611292E+02
 20
-2.69089028E+02
  0
VERTEX
  8
0
 62
4
 10
3.28920354E+02
 20
-2.69095782E+02
  0
VERTEX
  8
0
 62
4
 10
3.29230040E+02
 20
-2.69093614E+02
  0
VERTEX
  8
0
 62
4
 10
3.29537925E+02
 20
-2.69082540E+02
  0
VERTEX
  8
0
 62
4
 10
3.29841596E+02
 20
-2.69062647E+02
  0
VERTEX
  8
0
 62
4
 10
3.30138676E+02
 20
-2.69034090E+02
  0
VERTEX
  8
0
 62
4
 10
3.30426837E+02
 20
-2.68997094E+02
  0
VERTEX
  8
0
 62
4
 10
3.30703822E+02
 20
-2.68951948E+02
  0
VERTEX
  8
0
 62
4
 10
3.30967462E+02
 20
-2.68899005E+02
  0
VERTEX
  8
0
 62
4
 10
3.31215692E+02
 20
-2.68838681E+02
  0
VERTEX
  8
0
 62
4
 10
3.31446567E+02
 20
-2.68771448E+02
  0
VERTEX
  8
0
 62
4
 10
3.31658280E+02
 20
-2.68697832E+02
  0
VERTEX
  8
0
 62
4
 10
3.31849171E+02
 20
-2.68618410E+02
  0
VERTEX
  8
0
 62
4
 10
3.32017745E+02
 20
-2.68533805E+02
  0
VERTEX
  8
0
 62
4
 10
3.32162683E+02
 20
-2.68444678E+02
  0
VERTEX
  8
0
 62
4
 10
3.32282849E+02
 20
-2.68351729E+02
  0
VERTEX
  8
0
 62
4
 10
3.32377302E+02
 20
-2.68255684E+02
  0
VERTEX
  8
0
 62
4
 10
3.32445302E+02
 20
-2.68157297E+02
  0
VERTEX
  8
0
 62
4
 10
3.32486316E+02
 20
-2.68057338E+02
  0
VERTEX
  8
0
 62
4
 10
3.32500023E+02
 20
-2.67956589E+02
  0
SEQEND
  8
0
  0
LINE
  8
0
 62
4
 10
3.32140023E+02
 20
-2.67011071E+02
 11
3.32500023E+02
 21
-2.67956589E+02
  0
LINE
  8
0
 62
4
 10
3.25860023E+02
 20
-2.67011071E+02
 11
3.25531427E+02
 21
-2.67804287E+02
  0
LINE
  8
0
 62
2
 10
-3.39960482E+01
 20
-3.26609772E+02
 11
-7.04224410E+00
 21
-2.79924414E+02
  0
LINE
  8
0
 62
4
 10
4.40999977E+02
 20
-3.20250000E+02
 11
4.40999977E+02
 21
-3.06750000E+02
  0
LINE
  8
0
 62
4
 10
4.29999977E+02
 20
-3.20250000E+02
 11
4.29999977E+02
 21
-3.06750000E+02
  0
LINE
  8
0
 62
4
 10
-3.43499992E+02
 20
-3.20250000E+02
 11
-3.43499992E+02
 21
-3.12455771E+02
  0
LINE
  8
0
 62
4
 10
-1.64999962E+02
 20
-3.20250000E+02
 11
-1.64999962E+02
 21
-3.06750000E+02
  0
LINE
  8
0
 62
4
 10
-1.53999962E+02
 20
-3.20250000E+02
 11
-1.53999962E+02
 21
-3.06750000E+02
  0
LINE
  8
0
 62
2
 10
4.29999977E+02
 20
-3.12070007E+02
 11
4.20999962E+02
 21
-3.12070007E+02
  0
LINE
  8
0
 62
7
 10
4.29999977E+02
 20
-3.11250000E+02
 11
4.20999962E+02
 21
-3.11250000E+02
  0
LINE
  8
0
 62
2
 10
-1.53999962E+02
 20
-3.12070007E+02
 11
-1.44999947E+02
 21
-3.12070007E+02
  0
LINE
  8
0
 62
7
 10
-1.53999962E+02
 20
-3.11250000E+02
 11
-1.44999947E+02
 21
-3.11250000E+02
  0
LINE
  8
0
 62
7
 10
-1.53999962E+02
 20
-1.49249969E+02
 11
-1.44999947E+02
 21
-1.49249969E+02
  0
LINE
  8
0
 62
2
 10
-1.53999962E+02
 20
-1.48429962E+02
 11
-1.44999947E+02
 21
-1.48429962E+02
  0
LINE
  8
0
 62
7
 10
-1.53999962E+02
 20
-1.31249985E+02
 11
-1.44999947E+02
 21
-1.31249985E+02
  0
LINE
  8
0
 62
2
 10
-1.53999962E+02
 20
-1.32069992E+02
 11
-1.44999947E+02
 21
-1.32069992E+02
  0
LINE
  8
0
 62
4
 10
-3.70499992E+02
 20
-3.12455771E+02
 11
-3.70499992E+02
 21
-3.20250000E+02
  0
LINE
  8
0
 62
4
 10
-3.56999992E+02
 20
-3.04661543E+02
 11
-3.70499992E+02
 21
-3.12455771E+02
  0
ARC
  8
0
 62
4
 10
-3.56999992E+02
 20
-3.20250000E+02
 40
1.35000000E+01
 50
0.00000000E+00
 51
1.80000000E+02
  0
LINE
  8
0
 62
4
 10
-3.43499992E+02
 20
-3.12455771E+02
 11
-3.56999992E+02
 21
-3.04661543E+02
  0
LINE
  8
0
 62
4
 10
4.39794206E+02
 20
-3.12455771E+02
 11
4.31205748E+02
 21
-3.12455771E+02
  0
ARC
  8
0
 62
4
 10
4.55794205E+02
 20
-3.20250000E+02
 40
2.57942282E+01
 50
1.62412046E+02
 51
1.80000000E+02
  0
ARC
  8
0
 62
4
 10
4.15205749E+02
 20
-3.20250000E+02
 40
2.57942282E+01
 50
0.00000000E+00
 51
1.75879541E+01
  0
LINE
  8
0
 62
4
 10
4.31205748E+02
 20
-3.04661543E+02
 11
4.29999977E+02
 21
-3.06750000E+02
  0
LINE
  8
0
 62
4
 10
4.39794206E+02
 20
-3.04661543E+02
 11
4.40999977E+02
 21
-3.06750000E+02
  0
LINE
  8
0
 62
4
 10
4.39794206E+02
 20
-3.04661543E+02
 11
4.31205748E+02
 21
-3.04661543E+02
  0
ARC
  8
0
 62
4
 10
4.34099256E+02
 20
-3.08558657E+02
 40
6.90072132E+00
 50
3.25615752E+02
 51
3.43842480E+01
  0
ARC
  8
0
 62
4
 10
4.36900698E+02
 20
-3.08558657E+02
 40
6.90072132E+00
 50
1.45615752E+02
 51
2.14384248E+02
  0
LINE
  8
0
 62
4
 10
-1.63794190E+02
 20
-3.12455771E+02
 11
-1.55205733E+02
 21
-3.12455771E+02
  0
ARC
  8
0
 62
4
 10
-1.79794190E+02
 20
-3.20250000E+02
 40
2.57942282E+01
 50
0.00000000E+00
 51
1.75879541E+01
  0
ARC
  8
0
 62
4
 10
-1.39205734E+02
 20
-3.20250000E+02
 40
2.57942282E+01
 50
1.62412046E+02
 51
1.80000000E+02
  0
LINE
  8
0
 62
4
 10
-1.55205733E+02
 20
-3.04661543E+02
 11
-1.53999962E+02
 21
-3.06750000E+02
  0
LINE
  8
0
 62
4
 10
-1.63794190E+02
 20
-3.04661543E+02
 11
-1.64999962E+02
 21
-3.06750000E+02
  0
LINE
  8
0
 62
4
 10
-1.63794190E+02
 20
-3.04661543E+02
 11
-1.55205733E+02
 21
-3.04661543E+02
  0
ARC
  8
0
 62
4
 10
-1.58099241E+02
 20
-3.08558657E+02
 40
6.90072132E+00
 50
1.45615752E+02
 51
2.14384248E+02
  0
ARC
  8
0
 62
4
 10
-1.60900683E+02
 20
-3.08558657E+02
 40
6.90072132E+00
 50
3.25615752E+02
 51
3.43842480E+01
  0
LINE
  8
0
 62
4
 10
-1.53999962E+02
 20
-1.53750000E+02
 11
-1.64999962E+02
 21
-1.53750000E+02
  0
ARC
  8
0
 62
4
 10
-1.45503569E+02
 20
-1.47000000E+02
 40
1.94963929E+01
 50
1.59743842E+02
 51
2.00256158E+02
  0
ARC
  8
0
 62
4
 10
-1.73496355E+02
 20
-1.47000000E+02
 40
1.94963929E+01
 50
3.39743842E+02
 51
2.02561580E+01
  0
LINE
  8
0
 62
4
 10
-1.55205733E+02
 20
-1.40250000E+02
 11
-1.63794190E+02
 21
-1.40250000E+02
  0
LINE
  8
0
 62
4
 10
-1.53999962E+02
 20
-1.26750000E+02
 11
-1.64999962E+02
 21
-1.26750000E+02
  0
LINE
  8
0
 62
4
 10
-1.53999962E+02
 20
-1.26750000E+02
 11
-1.53999962E+02
 21
-1.53750000E+02
  0
LINE
  8
0
 62
4
 10
-1.64999962E+02
 20
-1.26750000E+02
 11
-1.64999962E+02
 21
-1.53750000E+02
  0
ARC
  8
0
 62
4
 10
-1.45503569E+02
 20
-1.33500000E+02
 40
1.94963929E+01
 50
1.59743842E+02
 51
2.00256158E+02
  0
ARC
  8
0
 62
4
 10
-1.73496355E+02
 20
-1.33500000E+02
 40
1.94963929E+01
 50
3.39743842E+02
 51
2.02561580E+01
  0
TEXT
  8
0
 62
7
 10
-4.66179687E+02
 20
3.13500000E+02
 40
1.25000000E+01
  1
DDAH63*75
 41
1.00000015E+00
  7
MONOTXT
  0
TEXT
  8
0
 62
7
 10
3.64969840E+02
 20
-9.78922101E+00
 40
9.00000000E+00
  1
(mm)
 41
1.00000000E+00
  7
MONOTXT
  0
TEXT
  8
0
 62
7
 10
-4.10301596E+01
 20
-9.78922101E+00
 40
9.00000000E+00
  1
STRETCH LIST
 41
1.05263158E+00
  7
MONOTXT
  0
TEXT
  8
0
 62
7
 10
3.72969840E+02
 20
-4.22892210E+01
 40
9.00000000E+00
  1
925
 41
1.00000000E+00
  7
MONOTXT
  0
TEXT
  8
0
 62
7
 10
3.27969840E+02
 20
-4.22892210E+01
 40
9.00000000E+00
  1
825
 41
1.00000000E+00
  7
MONOTXT
  0
TEXT
  8
0
 62
7
 10
2.82969840E+02
 20
-4.22892210E+01
 40
9.00000000E+00
  1
725
 41
1.00000000E+00
  7
MONOTXT
  0
TEXT
  8
0
 62
7
 10
2.37969840E+02
 20
-4.22892210E+01
 40
9.00000000E+00
  1
625
 41
1.00000000E+00
  7
MONOTXT
  0
TEXT
  8
0
 62
7
 10
1.92969840E+02
 20
-4.22892210E+01
 40
9.00000000E+00
  1
525
 41
1.00000000E+00
  7
MONOTXT
  0
TEXT
  8
0
 62
7
 10
1.47969840E+02
 20
-4.22892210E+01
 40
9.00000000E+00
  1
425
 41
1.00000000E+00
  7
MONOTXT
  0
TEXT
  8
0
 62
7
 10
1.02969840E+02
 20
-4.22892210E+01
 40
9.00000000E+00
  1
375
 41
1.00000000E+00
  7
MONOTXT
  0
TEXT
  8
0
 62
7
 10
5.79698404E+01
 20
-4.22892210E+01
 40
9.00000000E+00
  1
325
 41
1.00000000E+00
  7
MONOTXT
  0
TEXT
  8
0
 62
7
 10
1.29698404E+01
 20
-4.22892210E+01
 40
9.00000000E+00
  1
275
 41
1.00000000E+00
  7
MONOTXT
  0
TEXT
  8
0
 62
7
 10
-3.20301596E+01
 20
-4.22892210E+01
 40
9.00000000E+00
  1
225
 41
1.00000000E+00
  7
MONOTXT
  0
TEXT
  8
0
 62
7
 10
-7.70301596E+01
 20
-4.22892210E+01
 40
9.00000000E+00
  1
175
 41
1.00000000E+00
  7
MONOTXT
  0
TEXT
  8
0
 62
7
 10
-1.22030160E+02
 20
-4.22892210E+01
 40
9.00000000E+00
  1
125
 41
1.00000000E+00
  7
MONOTXT
  0
TEXT
  8
0
 62
7
 10
-1.62530160E+02
 20
-4.22892210E+01
 40
9.00000000E+00
  1
75
 41
1.00000000E+00
  7
MONOTXT
  0
TEXT
  8
0
 62
7
 10
-2.07530160E+02
 20
-4.22892210E+01
 40
9.00000000E+00
  1
25
 41
1.00000000E+00
  7
MONOTXT
  0
TEXT
  8
0
 62
7
 10
-2.48030160E+02
 20
-4.22892210E+01
 40
9.00000000E+00
  1
0
 41
1.00000000E+00
  7
MONOTXT
  0
TEXT
  8
0
 62
7
 10
-3.02030160E+02
 20
-4.22892210E+01
 40
9.00000000E+00
  1
-25
 41
1.00000000E+00
  7
MONOTXT
  0
TEXT
  8
0
 62
7
 10
3.68469840E+02
 20
-2.72892210E+01
 40
9.00000000E+00
  1
1000
 41
1.00000000E+00
  7
MONOTXT
  0
TEXT
  8
0
 62
7
 10
3.27969840E+02
 20
-2.72892210E+01
 40
9.00000000E+00
  1
900
 41
1.00000000E+00
  7
MONOTXT
  0
TEXT
  8
0
 62
7
 10
2.82969840E+02
 20
-2.72892210E+01
 40
9.00000000E+00
  1
800
 41
1.00000000E+00
  7
MONOTXT
  0
TEXT
  8
0
 62
7
 10
2.37969840E+02
 20
-2.72892210E+01
 40
9.00000000E+00
  1
700
 41
1.00000000E+00
  7
MONOTXT
  0
TEXT
  8
0
 62
7
 10
1.92969840E+02
 20
-2.72892210E+01
 40
9.00000000E+00
  1
600
 41
1.00000000E+00
  7
MONOTXT
  0
TEXT
  8
0
 62
7
 10
1.47969840E+02
 20
-2.72892210E+01
 40
9.00000000E+00
  1
500
 41
1.00000000E+00
  7
MONOTXT
  0
TEXT
  8
0
 62
7
 10
1.02969840E+02
 20
-2.72892210E+01
 40
9.00000000E+00
  1
450
 41
1.00000000E+00
  7
MONOTXT
  0
TEXT
  8
0
 62
7
 10
5.79698404E+01
 20
-2.72892210E+01
 40
9.00000000E+00
  1
400
 41
1.00000000E+00
  7
MONOTXT
  0
TEXT
  8
0
 62
7
 10
1.29698404E+01
 20
-2.72892210E+01
 40
9.00000000E+00
  1
350
 41
1.00000000E+00
  7
MONOTXT
  0
TEXT
  8
0
 62
7
 10
-3.20301596E+01
 20
-2.72892210E+01
 40
9.00000000E+00
  1
300
 41
1.00000000E+00
  7
MONOTXT
  0
TEXT
  8
0
 62
7
 10
-7.70301596E+01
 20
-2.72892210E+01
 40
9.00000000E+00
  1
250
 41
1.00000000E+00
  7
MONOTXT
  0
TEXT
  8
0
 62
7
 10
-1.22030160E+02
 20
-2.72892210E+01
 40
9.00000000E+00
  1
200
 41
1.00000000E+00
  7
MONOTXT
  0
TEXT
  8
0
 62
7
 10
-1.67030160E+02
 20
-2.72892210E+01
 40
9.00000000E+00
  1
150
 41
1.00000000E+00
  7
MONOTXT
  0
TEXT
  8
0
 62
7
 10
-2.12030160E+02
 20
-2.72892210E+01
 40
9.00000000E+00
  1
100
 41
1.00000000E+00
  7
MONOTXT
  0
TEXT
  8
0
 62
7
 10
-2.52530160E+02
 20
-2.72892210E+01
 40
9.00000000E+00
  1
75
 41
1.00000000E+00
  7
MONOTXT
  0
TEXT
  8
0
 62
7
 10
-2.97530160E+02
 20
-2.72892210E+01
 40
9.00000000E+00
  1
50
 41
1.00000000E+00
  7
MONOTXT
  0
LINE
  8
0
 62
7
 10
4.07985465E+02
 20
-4.52892210E+01
 11
4.07985465E+02
 21
-1.52892210E+01
  0
LINE
  8
0
 62
7
 10
3.62985465E+02
 20
-4.52892210E+01
 11
3.62985465E+02
 21
-1.52892210E+01
  0
LINE
  8
0
 62
7
 10
3.17985465E+02
 20
-4.52892210E+01
 11
3.17985465E+02
 21
-1.52892210E+01
  0
LINE
  8
0
 62
7
 10
2.72985465E+02
 20
-4.52892210E+01
 11
2.72985465E+02
 21
-1.52892210E+01
  0
LINE
  8
0
 62
7
 10
2.27985465E+02
 20
-4.52892210E+01
 11
2.27985465E+02
 21
-1.52892210E+01
  0
LINE
  8
0
 62
7
 10
1.82985465E+02
 20
-4.52892210E+01
 11
1.82985465E+02
 21
-1.52892210E+01
  0
LINE
  8
0
 62
7
 10
1.37985465E+02
 20
-4.52892210E+01
 11
1.37985465E+02
 21
-1.52892210E+01
  0
LINE
  8
0
 62
7
 10
9.29854654E+01
 20
-4.52892210E+01
 11
9.29854654E+01
 21
-1.52892210E+01
  0
LINE
  8
0
 62
7
 10
4.79854654E+01
 20
-4.52892210E+01
 11
4.79854654E+01
 21
-1.52892210E+01
  0
LINE
  8
0
 62
7
 10
2.98546542E+00
 20
-4.52892210E+01
 11
2.98546542E+00
 21
-1.52892210E+01
  0
LINE
  8
0
 62
7
 10
-4.20145346E+01
 20
-4.52892210E+01
 11
-4.20145346E+01
 21
-1.52892210E+01
  0
LINE
  8
0
 62
7
 10
-8.70145346E+01
 20
-4.52892210E+01
 11
-8.70145346E+01
 21
-1.52892210E+01
  0
LINE
  8
0
 62
7
 10
-1.32014535E+02
 20
-4.52892210E+01
 11
-1.32014535E+02
 21
-1.52892210E+01
  0
LINE
  8
0
 62
7
 10
-1.77014535E+02
 20
-4.52892210E+01
 11
-1.77014535E+02
 21
-1.52892210E+01
  0
LINE
  8
0
 62
7
 10
-2.22014535E+02
 20
-4.52892210E+01
 11
-2.22014535E+02
 21
-1.52892210E+01
  0
LINE
  8
0
 62
7
 10
-2.67014535E+02
 20
-4.52892210E+01
 11
-2.67014535E+02
 21
-1.52892210E+01
  0
LINE
  8
0
 62
7
 10
-3.12014535E+02
 20
-4.52892210E+01
 11
-3.12014535E+02
 21
-1.52892210E+01
  0
LINE
  8
0
 62
7
 10
-3.84014535E+02
 20
-3.02892210E+01
 11
4.07985465E+02
 21
-3.02892210E+01
  0
TEXT
  8
0
 62
7
 10
-3.78229222E+02
 20
-4.22892210E+01
 40
9.00000000E+00
  1
STRETCH
 41
1.00000000E+00
  7
MONOTXT
  0
TEXT
  8
0
 62
7
 10
-3.73729222E+02
 20
-2.72892210E+01
 40
9.00000000E+00
  1
STROKE
 41
1.00000000E+00
  7
MONOTXT
  0
LINE
  8
0
 62
7
 10
-3.84014535E+02
 20
-4.52892210E+01
 11
-3.84014535E+02
 21
-1.52892210E+01
  0
LINE
  8
0
 62
7
 10
-3.84014535E+02
 20
-4.52892210E+01
 11
4.07985465E+02
 21
-4.52892210E+01
  0
LINE
  8
0
 62
7
 10
-3.84014535E+02
 20
-1.52892210E+01
 11
4.07985465E+02
 21
-1.52892210E+01
  0
LINE
  8
0
 62
7
 10
3.52500023E+02
 20
-2.95850037E+02
 11
3.61000023E+02
 21
-2.95850037E+02
  0
LINE
  8
0
 62
7
 10
2.81151790E+02
 20
-2.95850037E+02
 11
3.37500023E+02
 21
-2.95850037E+02
  0
LINE
  8
0
  6
CENTER
 62
2
 10
-1.77033272E+02
 20
-1.40250000E+02
 11
-8.09999860E+01
 21
-1.40250000E+02
  0
LINE
  8
0
  6
CENTER
 62
2
 10
4.53773216E+02
 20
-3.20250000E+02
 11
2.67064464E+02
 21
-3.20250000E+02
  0
LINE
  8
0
  6
DASHED
 62
7
 10
-3.50000114E+02
 20
-2.83249863E+02
 11
-3.40000023E+02
 21
-2.83249863E+02
  0
LINE
  8
0
 62
7
 10
-3.70364266E+02
 20
-3.05471880E+02
 11
-3.77726113E+02
 21
-2.98110033E+02
  0
LINE
  8
0
 62
7
 10
-3.58000023E+02
 20
-2.86750000E+02
 11
-3.58000023E+02
 21
-3.00350250E+02
  0
LINE
  8
0
 62
7
 10
-3.71778468E+02
 20
-3.06886039E+02
 11
-3.79140316E+02
 21
-2.99524192E+02
  0
LINE
  8
0
 62
7
 10
-3.56000023E+02
 20
-2.86749985E+02
 11
-3.56000023E+02
 21
-3.00350250E+02
  0
LINE
  8
0
 62
7
 10
-3.94000084E+02
 20
-3.20250000E+02
 11
-3.94000084E+02
 21
-2.86750000E+02
  0
LINE
  8
0
 62
7
 10
-3.91500084E+02
 20
-3.20250000E+02
 11
-3.91500084E+02
 21
-3.07249924E+02
  0
LINE
  8
0
 62
7
 10
-3.90499992E+02
 20
-3.19250031E+02
 11
-3.76899803E+02
 21
-3.19250031E+02
  0
LINE
  8
0
 62
7
 10
-3.90500053E+02
 20
-2.82749969E+02
 11
-3.23500023E+02
 21
-2.82749969E+02
  0
LINE
  8
0
 62
7
 10
-3.94500084E+02
 20
-3.20250000E+02
 11
-3.94500084E+02
 21
-2.86750000E+02
  0
LINE
  8
0
  6
CENTER
 62
2
 10
-3.85000084E+02
 20
-3.03479599E+02
 11
-3.85000084E+02
 21
-2.80692017E+02
  0
LINE
  8
0
  6
CENTER
 62
2
 10
-3.56999992E+02
 20
-2.78782455E+02
 11
-3.56999992E+02
 21
-3.20250000E+02
  0
LINE
  8
0
  6
CENTER
 62
2
 10
-1.09364861E+02
 20
-1.32250000E+02
 11
-8.77606888E+01
 21
-1.32250000E+02
  0
LINE
  8
0
  6
CENTER
 62
2
 10
-9.90000687E+01
 20
-1.42250015E+02
 11
-9.90000687E+01
 21
-1.21703735E+02
  0
LINE
  8
0
 62
7
 10
-1.18499992E+02
 20
-1.59250015E+02
 11
-1.16999992E+02
 21
-1.59250015E+02
  0
LINE
  8
0
 62
7
 10
-1.31500008E+02
 20
-1.57250000E+02
 11
-1.26991447E+02
 21
-1.57250000E+02
  0
LINE
  8
0
 62
7
 10
-1.26999992E+02
 20
-1.57250015E+02
 11
-1.26999992E+02
 21
-1.57258560E+02
  0
LINE
  8
0
 62
7
 10
-1.26758764E+02
 20
-1.57508480E+02
 11
-1.19000066E+02
 21
-1.57779420E+02
  0
LINE
  8
0
 62
7
 10
-1.16508758E+02
 20
-1.77199929E+02
 11
-8.50000536E+01
 21
-1.77749915E+02
  0
LINE
  8
0
 62
7
 10
-1.31999992E+02
 20
-1.56749985E+02
 11
-1.31999992E+02
 21
-1.23750031E+02
  0
LINE
  8
0
 62
7
 10
-1.18499992E+02
 20
-1.21250000E+02
 11
-1.16999992E+02
 21
-1.21250000E+02
  0
LINE
  8
0
 62
7
 10
-1.31500008E+02
 20
-1.23250031E+02
 11
-1.26991447E+02
 21
-1.23250031E+02
  0
LINE
  8
0
 62
7
 10
-1.26999992E+02
 20
-1.23250000E+02
 11
-1.26999992E+02
 21
-1.23241455E+02
  0
LINE
  8
0
 62
7
 10
-1.26758735E+02
 20
-1.22991382E+02
 11
-1.19000052E+02
 21
-1.22720443E+02
  0
LINE
  8
0
 62
7
 10
-1.16999992E+02
 20
-1.76700089E+02
 11
-1.16999992E+02
 21
-1.03799927E+02
  0
LINE
  8
0
 62
7
 10
-8.49999924E+01
 20
-1.77749969E+02
 11
-8.49999924E+01
 21
-1.25187056E+02
  0
LINE
  8
0
 62
7
 10
-1.16508731E+02
 20
-1.03299999E+02
 11
-8.50000108E+01
 21
-1.02750012E+02
  0
LINE
  8
0
 62
7
 10
-1.19000008E+02
 20
-1.58750015E+02
 11
-1.19000008E+02
 21
-1.21749985E+02
  0
LINE
  8
0
 62
7
 10
-1.26999992E+02
 20
-1.23250000E+02
 11
-1.26999992E+02
 21
-1.57250015E+02
  0
LINE
  8
0
 62
7
 10
-1.10999992E+02
 20
-1.15250000E+02
 11
-9.59999860E+01
 21
-1.15250000E+02
  0
LINE
  8
0
 62
7
 10
-1.10999992E+02
 20
-1.65250015E+02
 11
-8.49999924E+01
 21
-1.65250015E+02
  0
LINE
  8
0
 62
7
 10
-1.13000008E+02
 20
-1.17250000E+02
 11
-1.13000008E+02
 21
-1.63250000E+02
  0
LINE
  8
0
 62
7
 10
4.08000008E+02
 20
-3.20250000E+02
 11
4.08000008E+02
 21
-3.03750015E+02
  0
LINE
  8
0
 62
7
 10
-3.43636099E+02
 20
-3.05471381E+02
 11
-3.36274283E+02
 21
-2.98109567E+02
  0
LINE
  8
0
 62
7
 10
-3.42221886E+02
 20
-3.06885595E+02
 11
-3.34860037E+02
 21
-2.99523749E+02
  0
LINE
  8
0
 62
7
 10
-3.90500053E+02
 20
-2.83249969E+02
 11
-3.23500023E+02
 21
-2.83249969E+02
  0
LINE
  8
0
 62
7
 10
-3.22499992E+02
 20
-3.20250000E+02
 11
-3.22499992E+02
 21
-3.07249924E+02
  0
LINE
  8
0
 62
7
 10
-3.23500023E+02
 20
-3.19250015E+02
 11
-3.37100304E+02
 21
-3.19250015E+02
  0
LINE
  8
0
 62
7
 10
-3.19499992E+02
 20
-3.20250000E+02
 11
-3.19499992E+02
 21
-2.86749985E+02
  0
LINE
  8
0
  6
CENTER
 62
2
 10
-3.28999931E+02
 20
-2.80564713E+02
 11
-3.28999931E+02
 21
-3.03479599E+02
  0
LINE
  8
0
  6
CENTER
 62
2
 10
-3.16232292E+02
 20
-3.20250000E+02
 11
-3.99477715E+02
 21
-3.20250000E+02
  0
LINE
  8
0
  6
CENTER
 62
2
 10
-3.64999992E+02
 20
-2.80564713E+02
 11
-3.64999992E+02
 21
-2.92449982E+02
  0
LINE
  8
0
  6
CENTER
 62
2
 10
-3.97045097E+02
 20
-2.92249939E+02
 11
-3.74894035E+02
 21
-2.92249939E+02
  0
LINE
  8
0
 62
7
 10
-3.19999992E+02
 20
-3.20250000E+02
 11
-3.19999992E+02
 21
-2.86749985E+02
  0
LINE
  8
0
 62
7
 10
-3.81999992E+02
 20
-2.82749969E+02
 11
-3.81999992E+02
 21
-2.83249969E+02
  0
LINE
  8
0
 62
7
 10
-3.31999992E+02
 20
-2.82749969E+02
 11
-3.31999992E+02
 21
-2.83249969E+02
  0
LINE
  8
0
 62
7
 10
3.95000023E+02
 20
-3.01750000E+02
 11
3.95000023E+02
 21
-3.20250000E+02
  0
LINE
  8
0
 62
7
 10
-3.70000084E+02
 20
-2.85749969E+02
 11
-3.43999901E+02
 21
-2.85749969E+02
  0
LINE
  8
0
 62
7
 10
-3.74500084E+02
 20
-2.90249786E+02
 11
-3.75763634E+02
 21
-2.90249786E+02
  0
LINE
  8
0
 62
7
 10
-3.87000267E+02
 20
-3.02749939E+02
 11
-3.87000267E+02
 21
-3.01486343E+02
  0
LINE
  8
0
 62
7
 10
-3.39499901E+02
 20
-2.90249756E+02
 11
-3.38236473E+02
 21
-2.90249756E+02
  0
LINE
  8
0
 62
7
 10
-3.26999809E+02
 20
-3.02749939E+02
 11
-3.26999809E+02
 21
-3.01486206E+02
  0
LINE
  8
0
  6
CENTER
 62
2
 10
-3.39630547E+02
 20
-2.92249939E+02
 11
-3.17097588E+02
 21
-2.92249939E+02
  0
LINE
  8
0
 62
7
 10
4.03000008E+02
 20
-3.20250000E+02
 11
4.03000008E+02
 21
-3.03249985E+02
  0
LINE
  8
0
 62
7
 10
3.93000008E+02
 20
-2.83799927E+02
 11
3.93000008E+02
 21
-3.20250000E+02
  0
LINE
  8
0
 62
7
 10
3.61000023E+02
 20
-2.82750000E+02
 11
3.61000023E+02
 21
-3.20250000E+02
  0
LINE
  8
0
  6
CENTER
 62
2
 10
-4.64900571E+01
 20
-1.68250031E+02
 11
-1.20248085E+02
 21
-1.68250031E+02
  0
LINE
  8
0
 62
7
 10
-4.44115662E+01
 20
-1.64649979E+02
 11
-8.49999924E+01
 21
-1.64649979E+02
  0
LINE
  8
0
 62
7
 10
-4.85684952E+01
 20
-1.71849991E+02
 11
-8.49999924E+01
 21
-1.71849991E+02
  0
LINE
  8
0
 62
7
 10
-4.99541235E+01
 20
-1.74249969E+02
 11
-8.49999924E+01
 21
-1.74249969E+02
  0
LINE
  8
0
 62
7
 10
-9.02679675E+01
 20
-1.52250078E+02
 11
-9.11339914E+01
 21
-1.50750071E+02
  0
LINE
  8
0
 62
7
 10
-9.11340256E+01
 20
-1.50749985E+02
 11
-9.28660965E+01
 21
-1.50749985E+02
  0
LINE
  8
0
 62
7
 10
-9.37319309E+01
 20
-1.52250136E+02
 11
-9.28659108E+01
 21
-1.50750136E+02
  0
LINE
  8
0
 62
7
 10
-9.28659882E+01
 20
-1.53750037E+02
 11
-9.37320273E+01
 21
-1.52250004E+02
  0
LINE
  8
0
 62
7
 10
-9.11340256E+01
 20
-1.53750015E+02
 11
-9.28660965E+01
 21
-1.53750015E+02
  0
LINE
  8
0
 62
7
 10
-9.02679441E+01
 20
-1.52250082E+02
 11
-9.11339794E+01
 21
-1.53750108E+02
  0
LINE
  8
0
  6
CENTER
 62
2
 10
-9.86657639E+01
 20
-1.52250000E+02
 11
-8.58370132E+01
 21
-1.52250000E+02
  0
LINE
  8
0
  6
CENTER
 62
2
 10
-9.20000381E+01
 20
-1.45838852E+02
 11
-9.20000381E+01
 21
-1.59315598E+02
  0
LINE
  8
0
  6
CENTER
 62
2
 10
-1.41584068E+01
 20
-1.12249969E+02
 11
-6.14999860E+01
 21
-1.12249969E+02
  0
LINE
  8
0
 62
7
 10
-2.17368889E+01
 20
-1.15850006E+02
 11
-4.24999860E+01
 21
-1.15850006E+02
  0
LINE
  8
0
 62
7
 10
-1.20799599E+01
 20
-1.08649994E+02
 11
-6.14999860E+01
 21
-1.08649994E+02
  0
LINE
  8
0
 62
7
 10
-1.06943404E+01
 20
-1.06250031E+02
 11
-6.14999860E+01
 21
-1.06250031E+02
  0
LINE
  8
0
 62
7
 10
4.17999977E+02
 20
-3.11250000E+02
 11
4.17999977E+02
 21
-3.20250000E+02
  0
LINE
  8
0
 62
7
 10
4.15000099E+02
 20
-3.14982147E+02
 11
4.11000038E+02
 21
-3.14982147E+02
  0
LINE
  8
0
 62
2
 10
4.17033592E+02
 20
-3.16436581E+02
 11
4.14499934E+02
 21
-3.20250000E+02
  0
LINE
  8
0
 62
2
 10
4.14499803E+02
 20
-3.20250000E+02
 11
4.10999844E+02
 21
-3.14982197E+02
  0
LINE
  8
0
 62
7
 10
4.14999977E+02
 20
-3.10249954E+02
 11
4.14999977E+02
 21
-3.14982132E+02
  0
LINE
  8
0
 62
7
 10
4.11000038E+02
 20
-3.14982132E+02
 11
4.11000038E+02
 21
-3.20249992E+02
  0
LINE
  8
0
 62
7
 10
4.20999962E+02
 20
-3.20250000E+02
 11
4.20999962E+02
 21
-3.11249985E+02
  0
LINE
  8
0
 62
7
 10
4.49999992E+02
 20
-3.20250000E+02
 11
4.49999992E+02
 21
-3.12750153E+02
  0
LINE
  8
0
 62
7
 10
4.48499962E+02
 20
-3.20250000E+02
 11
4.48499962E+02
 21
-3.11249985E+02
  0
LINE
  8
0
 62
7
 10
4.48499931E+02
 20
-3.11250000E+02
 11
4.40999977E+02
 21
-3.11250000E+02
  0
LINE
  8
0
 62
2
 10
4.49319939E+02
 20
-3.12070007E+02
 11
4.40999977E+02
 21
-3.12070007E+02
  0
LINE
  8
0
 62
7
 10
4.49999882E+02
 20
-3.12750192E+02
 11
4.48499836E+02
 21
-3.11250192E+02
  0
LINE
  8
0
 62
7
 10
4.15000099E+02
 20
-3.10250015E+02
 11
4.08000053E+02
 21
-3.10250015E+02
  0
LINE
  8
0
 62
7
 10
-1.38999962E+02
 20
-1.31749985E+02
 11
-1.38999962E+02
 21
-1.48749985E+02
  0
LINE
  8
0
 62
7
 10
-1.33500008E+02
 20
-1.50249954E+02
 11
-1.32000038E+02
 21
-1.50249954E+02
  0
LINE
  8
0
 62
7
 10
-1.33499977E+02
 20
-1.30249954E+02
 11
-1.31999992E+02
 21
-1.30249954E+02
  0
LINE
  8
0
 62
7
 10
-1.44999947E+02
 20
-1.49249985E+02
 11
-1.44999947E+02
 21
-1.31249985E+02
  0
LINE
  8
0
 62
7
 10
-1.73999977E+02
 20
-1.47749954E+02
 11
-1.73999977E+02
 21
-1.32750153E+02
  0
LINE
  8
0
 62
7
 10
-1.72499947E+02
 20
-1.49249985E+02
 11
-1.72499947E+02
 21
-1.31249985E+02
  0
LINE
  8
0
 62
7
 10
-1.72499916E+02
 20
-1.31249985E+02
 11
-1.64999962E+02
 21
-1.31249985E+02
  0
LINE
  8
0
 62
2
 10
-1.73319923E+02
 20
-1.32069992E+02
 11
-1.64999962E+02
 21
-1.32069992E+02
  0
LINE
  8
0
 62
7
 10
-1.73999817E+02
 20
-1.32750164E+02
 11
-1.72499784E+02
 21
-1.31250177E+02
  0
LINE
  8
0
 62
7
 10
-1.72499916E+02
 20
-1.49249969E+02
 11
-1.64999962E+02
 21
-1.49249969E+02
  0
LINE
  8
0
 62
2
 10
-1.73319923E+02
 20
-1.48429962E+02
 11
-1.64999962E+02
 21
-1.48429962E+02
  0
LINE
  8
0
 62
7
 10
-1.74000014E+02
 20
-1.47749849E+02
 11
-1.72499979E+02
 21
-1.49249839E+02
  0
LINE
  8
0
 62
7
 10
-1.41999962E+02
 20
-1.40250031E+02
 11
-1.41999962E+02
 21
-1.31749985E+02
  0
LINE
  8
0
 62
7
 10
-1.41999962E+02
 20
-1.40250031E+02
 11
-1.41999962E+02
 21
-1.48749985E+02
  0
LINE
  8
0
 62
7
 10
-1.41999962E+02
 20
-1.48749985E+02
 11
-1.35000023E+02
 21
-1.48749985E+02
  0
LINE
  8
0
 62
7
 10
-1.41999962E+02
 20
-1.31749969E+02
 11
-1.35000023E+02
 21
-1.31749969E+02
  0
LINE
  8
0
 62
7
 10
-1.35000084E+02
 20
-1.48749909E+02
 11
-1.33500115E+02
 21
-1.50249878E+02
  0
LINE
  8
0
 62
7
 10
-1.35000141E+02
 20
-1.31749840E+02
 11
-1.33500118E+02
 21
-1.30249817E+02
  0
LINE
  8
0
 62
7
 10
3.94500008E+02
 20
-3.01250000E+02
 11
3.93000008E+02
 21
-3.01250000E+02
  0
LINE
  8
0
 62
7
 10
4.07500023E+02
 20
-3.03249985E+02
 11
4.02991463E+02
 21
-3.03249985E+02
  0
LINE
  8
0
 62
7
 10
4.03000008E+02
 20
-3.03249985E+02
 11
4.03000008E+02
 21
-3.03241440E+02
  0
LINE
  8
0
 62
7
 10
4.02758683E+02
 20
-3.02991519E+02
 11
3.94999969E+02
 21
-3.02720579E+02
  0
LINE
  8
0
 62
7
 10
2.86694356E+02
 20
-2.86250031E+02
 11
3.18218747E+02
 21
-2.86250031E+02
  0
LINE
  8
0
 62
7
 10
3.92508756E+02
 20
-2.83300044E+02
 11
3.61000052E+02
 21
-2.82750058E+02
  0
LINE
  8
0
 62
7
 10
3.89000023E+02
 20
-2.82750000E+02
 11
3.61000023E+02
 21
-2.82750000E+02
  0
LINE
  8
0
 62
7
 10
3.89000023E+02
 20
-2.83238785E+02
 11
3.89000023E+02
 21
-2.82750000E+02
  0
LINE
  8
0
  6
CENTER
 62
2
 10
2.83230280E+02
 20
-2.92249985E+02
 11
3.37500023E+02
 21
-2.92249985E+02
  0
LINE
  8
0
 62
7
 10
2.85308719E+02
 20
-2.88650024E+02
 11
3.37500023E+02
 21
-2.88650024E+02
  0
LINE
  8
0
  6
CENTER
 62
2
 10
3.75000084E+02
 20
-2.80564941E+02
 11
3.75000084E+02
 21
-2.92450226E+02
  0
LINE
  8
0
 62
7
 10
4.17999976E+02
 20
-3.17127559E+02
 11
4.14999988E+02
 21
-3.14982462E+02
  0
LINE
  8
0
 62
7
 10
4.17999951E+02
 20
-3.11250018E+02
 11
4.14999962E+02
 21
-3.10250034E+02
  0
LINE
  8
0
  6
DASHED
 62
7
 10
1.16000116E+02
 20
-2.83249863E+02
 11
1.06000040E+02
 21
-2.83249863E+02
  0
LINE
  8
0
 62
7
 10
8.95000249E+01
 20
-2.83249969E+02
 11
1.56500072E+02
 21
-2.83249969E+02
  0
LINE
  8
0
 62
7
 10
1.36364255E+02
 20
-3.05471888E+02
 11
1.43726103E+02
 21
-2.98110040E+02
  0
LINE
  8
0
 62
7
 10
1.60000095E+02
 20
-3.20250000E+02
 11
1.60000095E+02
 21
-2.86750000E+02
  0
LINE
  8
0
 62
7
 10
1.24000031E+02
 20
-2.86750000E+02
 11
1.24000031E+02
 21
-3.00350250E+02
  0
LINE
  8
0
 62
7
 10
1.37778466E+02
 20
-3.06886034E+02
 11
1.45140313E+02
 21
-2.99524187E+02
  0
LINE
  8
0
 62
7
 10
1.22000023E+02
 20
-2.86749985E+02
 11
1.22000023E+02
 21
-3.00350250E+02
  0
LINE
  8
0
 62
7
 10
1.57500095E+02
 20
-3.20250000E+02
 11
1.57500095E+02
 21
-3.07249924E+02
  0
LINE
  8
0
 62
7
 10
1.56499996E+02
 20
-3.19250031E+02
 11
1.42899796E+02
 21
-3.19250031E+02
  0
LINE
  8
0
 62
7
 10
1.60500088E+02
 20
-3.20250000E+02
 11
1.60500088E+02
 21
-2.86750000E+02
  0
LINE
  8
0
  6
CENTER
 62
2
 10
1.51000076E+02
 20
-3.03479599E+02
 11
1.51000076E+02
 21
-2.80692017E+02
  0
LINE
  8
0
  6
CENTER
 62
2
 10
1.23000008E+02
 20
-2.78782455E+02
 11
1.23000008E+02
 21
-3.20250000E+02
  0
LINE
  8
0
 62
7
 10
1.09636094E+02
 20
-3.05471379E+02
 11
1.02274272E+02
 21
-2.98109560E+02
  0
LINE
  8
0
 62
7
 10
1.08221875E+02
 20
-3.06885599E+02
 11
1.00860026E+02
 21
-2.99523753E+02
  0
LINE
  8
0
 62
7
 10
8.95000249E+01
 20
-3.19250015E+02
 11
1.03100298E+02
 21
-3.19250015E+02
  0
LINE
  8
0
  6
CENTER
 62
2
 10
9.49999409E+01
 20
-2.80564713E+02
 11
9.49999409E+01
 21
-3.03479599E+02
  0
LINE
  8
0
 62
7
 10
8.60000019E+01
 20
-3.20250000E+02
 11
8.60000019E+01
 21
-2.86749985E+02
  0
LINE
  8
0
  6
CENTER
 62
2
 10
8.22323017E+01
 20
-3.20250000E+02
 11
1.65477734E+02
 21
-3.20250000E+02
  0
LINE
  8
0
  6
CENTER
 62
2
 10
1.31000000E+02
 20
-2.80564713E+02
 11
1.31000000E+02
 21
-2.92449982E+02
  0
LINE
  8
0
  6
CENTER
 62
2
 10
1.63045101E+02
 20
-2.92249939E+02
 11
1.40894028E+02
 21
-2.92249939E+02
  0
LINE
  8
0
 62
7
 10
8.85000020E+01
 20
-3.20250000E+02
 11
8.85000020E+01
 21
-3.07249924E+02
  0
LINE
  8
0
 62
7
 10
8.55000098E+01
 20
-3.20250000E+02
 11
8.55000098E+01
 21
-2.86749985E+02
  0
LINE
  8
0
 62
7
 10
1.48000008E+02
 20
-2.82749969E+02
 11
1.48000008E+02
 21
-2.83249969E+02
  0
LINE
  8
0
 62
7
 10
9.80000095E+01
 20
-2.82749969E+02
 11
9.80000095E+01
 21
-2.83249969E+02
  0
LINE
  8
0
 62
7
 10
1.09999903E+02
 20
-2.85749969E+02
 11
1.36000076E+02
 21
-2.85749969E+02
  0
LINE
  8
0
 62
7
 10
8.95000249E+01
 20
-2.82749969E+02
 11
1.56500072E+02
 21
-2.82749969E+02
  0
LINE
  8
0
 62
7
 10
1.40500084E+02
 20
-2.90249786E+02
 11
1.41763626E+02
 21
-2.90249786E+02
  0
LINE
  8
0
 62
7
 10
1.53000278E+02
 20
-3.02749939E+02
 11
1.53000278E+02
 21
-3.01486343E+02
  0
LINE
  8
0
 62
7
 10
1.05499895E+02
 20
-2.90249756E+02
 11
1.04236467E+02
 21
-2.90249756E+02
  0
LINE
  8
0
 62
7
 10
9.29998188E+01
 20
-3.02749939E+02
 11
9.29998188E+01
 21
-3.01486206E+02
  0
LINE
  8
0
  6
CENTER
 62
2
 10
1.05630548E+02
 20
-2.92249939E+02
 11
8.30975895E+01
 21
-2.92249939E+02
  0
LINE
  8
0
 62
7
 10
1.51000075E+02
 20
-2.87631128E+02
 11
1.47000073E+02
 21
-2.89940530E+02
  0
LINE
  8
0
 62
7
 10
1.47000076E+02
 20
-2.89940536E+02
 11
1.47000076E+02
 21
-2.94559326E+02
  0
LINE
  8
0
 62
7
 10
1.51000076E+02
 20
-2.96868738E+02
 11
1.47000077E+02
 21
-2.94559337E+02
  0
LINE
  8
0
 62
7
 10
1.55000075E+02
 20
-2.94559331E+02
 11
1.51000073E+02
 21
-2.96868733E+02
  0
LINE
  8
0
 62
7
 10
1.55000080E+02
 20
-2.89940536E+02
 11
1.55000080E+02
 21
-2.94559326E+02
  0
LINE
  8
0
 62
7
 10
1.51000077E+02
 20
-2.87631134E+02
 11
1.55000076E+02
 21
-2.89940534E+02
  0
LINE
  8
0
 62
7
 10
9.49999410E+01
 20
-2.87631136E+02
 11
9.09999387E+01
 21
-2.89940538E+02
  0
LINE
  8
0
 62
7
 10
9.09999409E+01
 20
-2.89940536E+02
 11
9.09999409E+01
 21
-2.94559326E+02
  0
LINE
  8
0
 62
7
 10
9.49999398E+01
 20
-2.96868737E+02
 11
9.09999375E+01
 21
-2.94559335E+02
  0
LINE
  8
0
 62
7
 10
9.89999372E+01
 20
-2.94559332E+02
 11
9.49999348E+01
 21
-2.96868734E+02
  0
LINE
  8
0
 62
7
 10
9.89999409E+01
 20
-2.89940536E+02
 11
9.89999409E+01
 21
-2.94559326E+02
  0
LINE
  8
0
 62
7
 10
9.49999413E+01
 20
-2.87631125E+02
 11
9.89999436E+01
 21
-2.89940527E+02
  0
LINE
  8
0
 62
7
 10
-1.44999947E+02
 20
-1.32069992E+02
 11
-1.41999962E+02
 21
-1.32069992E+02
  0
LINE
  8
0
 62
7
 10
-1.44999947E+02
 20
-1.48429962E+02
 11
-1.41999962E+02
 21
-1.48429962E+02
  0
LINE
  8
0
 62
7
 10
4.20999962E+02
 20
-3.12070007E+02
 11
4.17999977E+02
 21
-3.12070007E+02
  0
LINE
  8
0
 62
7
 10
-3.48499992E+02
 20
-3.14982208E+02
 11
-3.48499992E+02
 21
-3.17291985E+02
  0
LINE
  8
0
 62
7
 10
-3.65499992E+02
 20
-3.14982208E+02
 11
-3.65499992E+02
 21
-3.17291985E+02
  0
CIRCLE
  8
0
 62
7
 10
-3.85000084E+02
 20
-2.92249939E+02
 40
6.50000048E+00
  0
ARC
  8
0
 62
7
 10
-3.79847282E+02
 20
-3.00231140E+02
 40
1.00000000E+00
 50
4.49999910E+01
 51
1.22846171E+02
  0
ARC
  8
0
 62
7
 10
-3.77018883E+02
 20
-2.97402710E+02
 40
1.00000000E+00
 50
1.47153243E+02
 51
2.24999955E+02
  0
ARC
  8
0
 62
7
 10
-3.72485497E+02
 20
-3.07592972E+02
 40
1.00000000E+00
 50
3.20738994E+02
 51
4.49999910E+01
  0
ARC
  8
0
 62
7
 10
-3.69657066E+02
 20
-3.04764542E+02
 40
1.00000000E+00
 50
2.24999972E+02
 51
3.09260983E+02
  0
ARC
  8
0
 62
7
 10
-3.59000023E+02
 20
-3.00350250E+02
 40
1.00000000E+00
 50
2.75739453E+02
 51
3.59999959E+02
  0
ARC
  8
0
 62
7
 10
-3.28999931E+02
 20
-2.92249969E+02
 40
8.50000000E+00
 50
1.73823315E+02
 51
2.76176459E+02
  0
ARC
  8
0
 62
7
 10
-3.90500053E+02
 20
-2.86750000E+02
 40
3.50000000E+00
 50
9.00000231E+01
 51
1.79999977E+02
  0
ARC
  8
0
 62
7
 10
-3.59000023E+02
 20
-2.86750000E+02
 40
1.00000000E+00
 50
3.59999959E+02
 51
8.99999956E+01
  0
ARC
  8
0
 62
7
 10
-3.54999992E+02
 20
-3.00350250E+02
 40
1.00000000E+00
 50
1.79999964E+02
 51
2.64260484E+02
  0
ARC
  8
0
 62
7
 10
-3.54999992E+02
 20
-2.86749985E+02
 40
1.00000000E+00
 50
8.99999818E+01
 51
1.79999964E+02
  0
ARC
  8
0
 62
7
 10
-3.90500023E+02
 20
-3.18250000E+02
 40
1.00000000E+00
 50
1.80000008E+02
 51
2.70000045E+02
  0
ARC
  8
0
 62
7
 10
-3.76899803E+02
 20
-3.18250000E+02
 40
1.00000000E+00
 50
2.70000045E+02
 51
3.54260551E+02
  0
ARC
  8
0
 62
7
 10
-3.90500053E+02
 20
-2.86750000E+02
 40
4.00000000E+00
 50
9.00000231E+01
 51
1.79999977E+02
  0
CIRCLE
  8
0
 62
7
 10
-3.85000084E+02
 20
-2.92249939E+02
 40
6.00000000E+00
  0
ARC
  8
0
 62
7
 10
-1.31500008E+02
 20
-1.56749969E+02
 40
5.00000000E-01
 50
1.79999977E+02
 51
2.69999974E+02
  0
ARC
  8
0
 62
7
 10
-1.26750008E+02
 20
-1.57258545E+02
 40
2.50000000E-01
 50
1.79999977E+02
 51
2.68001132E+02
  0
ARC
  8
0
 62
7
 10
-1.16500008E+02
 20
-1.76700073E+02
 40
5.00000000E-01
 50
1.79999977E+02
 51
2.68999706E+02
  0
ARC
  8
0
 62
7
 10
-1.18499992E+02
 20
-1.58750015E+02
 40
5.00000000E-01
 50
1.79999977E+02
 51
2.69999974E+02
  0
ARC
  8
0
 62
7
 10
-1.31500008E+02
 20
-1.23750061E+02
 40
5.00000000E-01
 50
8.99999818E+01
 51
1.79999964E+02
  0
ARC
  8
0
 62
7
 10
-1.26750008E+02
 20
-1.23241486E+02
 40
2.50000000E-01
 50
9.19988230E+01
 51
1.79999977E+02
  0
ARC
  8
0
 62
7
 10
-1.16500008E+02
 20
-1.03799927E+02
 40
5.00000000E-01
 50
9.10002223E+01
 51
1.79999964E+02
  0
ARC
  8
0
 62
7
 10
-1.18499992E+02
 20
-1.21750015E+02
 40
5.00000000E-01
 50
8.99999818E+01
 51
1.79999964E+02
  0
ARC
  8
0
 62
7
 10
-9.90000687E+01
 20
-1.32250000E+02
 40
8.71000004E+00
 50
6.98523129E+01
 51
5.02775825E+01
  0
CIRCLE
  8
0
 62
7
 10
-9.90000687E+01
 20
-1.32250000E+02
 40
7.44000006E+00
  0
ARC
  8
0
 62
7
 10
-1.10999992E+02
 20
-1.17250000E+02
 40
2.00000000E+00
 50
8.99999818E+01
 51
1.79999964E+02
  0
ARC
  8
0
 62
7
 10
-1.10999992E+02
 20
-1.63250031E+02
 40
2.00000000E+00
 50
1.79999977E+02
 51
2.70000028E+02
  0
CIRCLE
  8
0
 62
7
 10
-3.28999931E+02
 20
-2.92249969E+02
 40
6.50000048E+00
  0
ARC
  8
0
 62
7
 10
-3.41514549E+02
 20
-3.07592941E+02
 40
1.00000000E+00
 50
1.34999959E+02
 51
2.19260957E+02
  0
ARC
  8
0
 62
7
 10
-3.44342949E+02
 20
-3.04764526E+02
 40
1.00000000E+00
 50
2.30738998E+02
 51
3.14999995E+02
  0
ARC
  8
0
 62
7
 10
-3.36981163E+02
 20
-2.97402695E+02
 40
1.00000000E+00
 50
3.14999995E+02
 51
3.28461612E+01
  0
ARC
  8
0
 62
7
 10
-3.34152702E+02
 20
-3.00231110E+02
 40
1.00000000E+00
 50
5.71532472E+01
 51
1.34999959E+02
  0
ARC
  8
0
 62
7
 10
-3.23500023E+02
 20
-2.86749985E+02
 40
3.50000000E+00
 50
0.00000000E+00
 51
8.99999818E+01
  0
ARC
  8
0
 62
7
 10
-3.23500023E+02
 20
-3.18250008E+02
 40
1.00000000E+00
 50
2.69999963E+02
 51
0.00000000E+00
  0
ARC
  8
0
 62
7
 10
-3.37100304E+02
 20
-3.18250008E+02
 40
1.00000000E+00
 50
1.85739458E+02
 51
2.69999963E+02
  0
ARC
  8
0
 62
7
 10
-3.23500023E+02
 20
-2.86749985E+02
 40
4.00000000E+00
 50
0.00000000E+00
 51
8.99999818E+01
  0
CIRCLE
  8
0
 62
7
 10
-3.28999931E+02
 20
-2.92249969E+02
 40
6.00000000E+00
  0
ARC
  8
0
 62
7
 10
-3.39499901E+02
 20
-2.86749847E+02
 40
3.50000000E+00
 50
1.80001511E+02
 51
2.70000018E+02
  0
ARC
  8
0
 62
7
 10
-3.43999901E+02
 20
-2.86749985E+02
 40
1.00000000E+00
 50
1.77584919E-03
 51
8.99999549E+01
  0
ARC
  8
0
 62
7
 10
-3.38444817E+02
 20
-2.91227829E+02
 40
1.00000000E+00
 50
3.53822790E+02
 51
8.43256382E+01
  0
ARC
  8
0
 62
7
 10
-3.23499870E+02
 20
-3.02749939E+02
 40
3.50000000E+00
 50
1.79999977E+02
 51
2.69999017E+02
  0
ARC
  8
0
 62
7
 10
-3.27977867E+02
 20
-3.01694809E+02
 40
1.00000000E+00
 50
5.67452116E+00
 51
9.61763036E+01
  0
ARC
  8
0
 62
7
 10
-3.23500023E+02
 20
-3.07249924E+02
 40
1.00000000E+00
 50
3.59999986E+02
 51
8.99982469E+01
  0
ARC
  8
0
 62
7
 10
-3.75555199E+02
 20
-2.91227829E+02
 40
1.00000000E+00
 50
9.56745100E+01
 51
1.86176313E+02
  0
ARC
  8
0
 62
7
 10
-3.74500084E+02
 20
-2.86749878E+02
 40
3.50000000E+00
 50
2.70000018E+02
 51
3.59999001E+02
  0
ARC
  8
0
 62
7
 10
-3.70000084E+02
 20
-2.86749985E+02
 40
1.00000000E+00
 50
8.99999818E+01
 51
1.79998270E+02
  0
ARC
  8
0
 62
7
 10
-3.85000084E+02
 20
-2.92249969E+02
 40
8.50000000E+00
 50
2.63823553E+02
 51
6.17667669E+00
  0
ARC
  8
0
 62
7
 10
-3.86022209E+02
 20
-3.01694809E+02
 40
1.00000000E+00
 50
8.38236876E+01
 51
1.74325470E+02
  0
ARC
  8
0
 62
7
 10
-3.90500145E+02
 20
-3.02749939E+02
 40
3.50000000E+00
 50
2.70001002E+02
 51
0.00000000E+00
  0
ARC
  8
0
 62
7
 10
-3.90500053E+02
 20
-3.07249924E+02
 40
1.00000000E+00
 50
9.00017305E+01
 51
1.80000005E+02
  0
ARC
  8
0
 62
7
 10
-3.56999992E+02
 20
-3.20250000E+02
 40
1.75294495E+01
 50
0.00000000E+00
 51
1.80000000E+02
  0
ARC
  8
0
 62
7
 10
-3.56999992E+02
 20
-3.20250000E+02
 40
1.90000000E+01
 50
0.00000000E+00
 51
1.80000000E+02
  0
ARC
  8
0
 62
7
 10
-3.56999992E+02
 20
-3.20250000E+02
 40
1.70000000E+01
 50
0.00000000E+00
 51
1.80000000E+02
  0
ARC
  8
0
 62
2
 10
-9.90000687E+01
 20
-1.32250000E+02
 40
8.32999992E+00
 50
6.88903471E+01
 51
5.35366168E+01
  0
CIRCLE
  8
0
 62
7
 10
-9.20000381E+01
 20
-1.52250000E+02
 40
5.00000000E+00
  0
CIRCLE
  8
0
 62
2
 10
-3.85000084E+02
 20
-2.92249939E+02
 40
4.00000000E+00
  0
CIRCLE
  8
0
 62
2
 10
-3.28999931E+02
 20
-2.92249939E+02
 40
4.00000000E+00
  0
CIRCLE
  8
0
 62
7
 10
-3.85000084E+02
 20
-2.92249939E+02
 40
3.32000017E+00
  0
CIRCLE
  8
0
 62
7
 10
-3.28999931E+02
 20
-2.92249939E+02
 40
3.32000017E+00
  0
ARC
  8
0
 62
7
 10
4.19499992E+02
 20
-3.20250000E+02
 40
9.99998474E+00
 50
1.48211648E+02
 51
1.80000000E+02
  0
ARC
  8
0
 62
7
 10
3.94500008E+02
 20
-3.01750000E+02
 40
5.00000000E-01
 50
3.59721787E-05
 51
9.00000179E+01
  0
ARC
  8
0
 62
7
 10
4.07500023E+02
 20
-3.03750015E+02
 40
5.00000000E-01
 50
3.59721787E-05
 51
9.00000179E+01
  0
ARC
  8
0
 62
7
 10
3.92500023E+02
 20
-2.83799927E+02
 40
5.00000000E-01
 50
3.59999981E+02
 51
8.89997230E+01
  0
ARC
  8
0
 62
7
 10
4.02750023E+02
 20
-3.03241440E+02
 40
2.50000000E-01
 50
2.23118003E-05
 51
8.80011768E+01
  0
CIRCLE
  8
0
 62
7
 10
-9.20000381E+01
 20
-1.52250000E+02
 40
2.59999990E+00
  0
ARC
  8
0
 62
7
 10
-3.56999992E+02
 20
-3.20250000E+02
 40
8.99999237E+00
 50
0.00000000E+00
 51
1.80000000E+02
  0
ARC
  8
0
 62
2
 10
-3.56999992E+02
 20
-3.20250000E+02
 40
8.18000031E+00
 50
0.00000000E+00
 51
1.80000000E+02
  0
ARC
  8
0
 62
7
 10
-3.56999992E+02
 20
-3.20250000E+02
 40
7.49999237E+00
 50
0.00000000E+00
 51
1.80000000E+02
  0
ARC
  8
0
 62
7
 10
1.45847298E+02
 20
-3.00231140E+02
 40
1.00000000E+00
 50
5.71538311E+01
 51
1.35000014E+02
  0
ARC
  8
0
 62
7
 10
1.43018890E+02
 20
-2.97402710E+02
 40
1.00000000E+00
 50
3.15000047E+02
 51
3.28467588E+01
  0
ARC
  8
0
 62
7
 10
1.38485504E+02
 20
-3.07592972E+02
 40
1.00000000E+00
 50
1.35000014E+02
 51
2.19261011E+02
  0
ARC
  8
0
 62
7
 10
1.35657059E+02
 20
-3.04764542E+02
 40
1.00000000E+00
 50
2.30739011E+02
 51
3.15000026E+02
  0
ARC
  8
0
 62
7
 10
1.25000015E+02
 20
-3.00350250E+02
 40
1.00000000E+00
 50
1.80000036E+02
 51
2.64260549E+02
  0
ARC
  8
0
 62
7
 10
9.49999409E+01
 20
-2.92249969E+02
 40
8.50000000E+00
 50
2.63823540E+02
 51
6.17668522E+00
  0
ARC
  8
0
 62
7
 10
1.56500072E+02
 20
-2.86750000E+02
 40
3.50000000E+00
 50
2.23117997E-05
 51
8.99999750E+01
  0
ARC
  8
0
 62
7
 10
1.25000015E+02
 20
-2.86750000E+02
 40
1.00000000E+00
 50
9.00000025E+01
 51
1.80000046E+02
  0
ARC
  8
0
 62
7
 10
1.21000000E+02
 20
-3.00350250E+02
 40
1.00000000E+00
 50
2.75739515E+02
 51
3.59721781E-05
  0
ARC
  8
0
 62
7
 10
1.21000000E+02
 20
-2.86749985E+02
 40
1.00000000E+00
 50
3.59721781E-05
 51
9.00000162E+01
  0
ARC
  8
0
 62
7
 10
1.56500034E+02
 20
-3.18250000E+02
 40
1.00000000E+00
 50
2.69999956E+02
 51
3.59999992E+02
  0
ARC
  8
0
 62
7
 10
1.42899796E+02
 20
-3.18250000E+02
 40
1.00000000E+00
 50
1.85739444E+02
 51
2.69999956E+02
  0
ARC
  8
0
 62
7
 10
1.56500072E+02
 20
-2.86750000E+02
 40
4.00000000E+00
 50
2.23117997E-05
 51
8.99999750E+01
  0
CIRCLE
  8
0
 62
2
 10
9.49999409E+01
 20
-2.92249939E+02
 40
4.00000000E+00
  0
CIRCLE
  8
0
 62
7
 10
1.51000076E+02
 20
-2.92249939E+02
 40
6.00000000E+00
  0
CIRCLE
  8
0
 62
7
 10
9.49999409E+01
 20
-2.92249969E+02
 40
6.50000048E+00
  0
ARC
  8
0
 62
7
 10
1.07514551E+02
 20
-3.07592941E+02
 40
1.00000000E+00
 50
3.20739045E+02
 51
4.50000423E+01
  0
ARC
  8
0
 62
7
 10
1.10342958E+02
 20
-3.04764526E+02
 40
1.00000000E+00
 50
2.25000000E+02
 51
3.09261001E+02
  0
ARC
  8
0
 62
7
 10
1.02981165E+02
 20
-2.97402695E+02
 40
1.00000000E+00
 50
1.47153844E+02
 51
2.25000010E+02
  0
ARC
  8
0
 62
7
 10
1.00152719E+02
 20
-3.00231110E+02
 40
1.00000000E+00
 50
4.50000423E+01
 51
1.22846758E+02
  0
ARC
  8
0
 62
7
 10
8.95000249E+01
 20
-2.86749985E+02
 40
3.50000000E+00
 50
9.00000162E+01
 51
1.80000005E+02
  0
ARC
  8
0
 62
7
 10
8.95000249E+01
 20
-3.18250008E+02
 40
1.00000000E+00
 50
1.79999995E+02
 51
2.70000038E+02
  0
ARC
  8
0
 62
7
 10
1.03100298E+02
 20
-3.18250008E+02
 40
1.00000000E+00
 50
2.70000038E+02
 51
3.54260543E+02
  0
ARC
  8
0
 62
7
 10
8.95000249E+01
 20
-2.86749985E+02
 40
4.00000000E+00
 50
9.00000162E+01
 51
1.80000005E+02
  0
CIRCLE
  8
0
 62
7
 10
9.49999409E+01
 20
-2.92249969E+02
 40
6.00000000E+00
  0
ARC
  8
0
 62
7
 10
1.05499895E+02
 20
-2.86749847E+02
 40
3.50000000E+00
 50
2.69999984E+02
 51
3.59998489E+02
  0
ARC
  8
0
 62
7
 10
1.09999903E+02
 20
-2.86749985E+02
 40
1.00000000E+00
 50
9.00000437E+01
 51
1.79998229E+02
  0
ARC
  8
0
 62
7
 10
1.04444826E+02
 20
-2.91227829E+02
 40
1.00000000E+00
 50
9.56743599E+01
 51
1.86177214E+02
  0
ARC
  8
0
 62
7
 10
8.94998723E+01
 20
-3.02749939E+02
 40
3.50000000E+00
 50
2.70000995E+02
 51
1.86693353E-05
  0
ARC
  8
0
 62
7
 10
9.39778690E+01
 20
-3.01694809E+02
 40
1.00000000E+00
 50
8.38236945E+01
 51
1.74325484E+02
  0
ARC
  8
0
 62
7
 10
8.95000249E+01
 20
-3.07249924E+02
 40
1.00000000E+00
 50
9.00017511E+01
 51
1.80000019E+02
  0
ARC
  8
0
 62
7
 10
1.41555191E+02
 20
-2.91227829E+02
 40
1.00000000E+00
 50
3.53823687E+02
 51
8.43254881E+01
  0
ARC
  8
0
 62
7
 10
1.40500084E+02
 20
-2.86749878E+02
 40
3.50000000E+00
 50
1.80001006E+02
 51
2.69999984E+02
  0
ARC
  8
0
 62
7
 10
1.36000076E+02
 20
-2.86749985E+02
 40
1.00000000E+00
 50
1.72985911E-03
 51
9.00000162E+01
  0
ARC
  8
0
 62
7
 10
1.51000076E+02
 20
-2.92249969E+02
 40
8.50000000E+00
 50
1.73823329E+02
 51
2.76176459E+02
  0
ARC
  8
0
 62
7
 10
1.52022224E+02
 20
-3.01694809E+02
 40
1.00000000E+00
 50
5.67452970E+00
 51
9.61763105E+01
  0
ARC
  8
0
 62
7
 10
1.56500149E+02
 20
-3.02749939E+02
 40
3.50000000E+00
 50
1.79999995E+02
 51
2.69999000E+02
  0
ARC
  8
0
 62
7
 10
1.56500072E+02
 20
-3.07249924E+02
 40
1.00000000E+00
 50
3.59999995E+02
 51
8.99982676E+01
  0
ARC
  8
0
 62
7
 10
1.23000008E+02
 20
-3.20250000E+02
 40
1.90000000E+01
 50
0.00000000E+00
 51
1.80000000E+02
  0
CIRCLE
  8
0
 62
2
 10
1.51000076E+02
 20
-2.92249939E+02
 40
4.00000000E+00
  0
CIRCLE
  8
0
 62
7
 10
1.51000076E+02
 20
-2.92249939E+02
 40
3.32000017E+00
  0
CIRCLE
  8
0
 62
7
 10
9.49999409E+01
 20
-2.92249939E+02
 40
3.32000017E+00
  0
ARC
  8
0
 62
7
 10
-3.56999992E+02
 20
-3.20250000E+02
 40
9.99998093E+00
 50
0.00000000E+00
 51
1.80000000E+02
  0
ARC
  8
0
 62
7
 10
-1.26750008E+02
 20
-3.03241440E+02
 40
2.50000000E-01
 50
9.19988230E+01
 51
1.79999977E+02
  0
ARC
  8
0
 62
7
 10
-1.16500008E+02
 20
-2.83799927E+02
 40
5.00000000E-01
 50
9.10002768E+01
 51
1.80000019E+02
  0
ARC
  8
0
 62
7
 10
-1.31500008E+02
 20
-3.03750015E+02
 40
5.00000000E-01
 50
8.99999818E+01
 51
1.79999964E+02
  0
ARC
  8
0
 62
7
 10
-1.18499992E+02
 20
-3.01750000E+02
 40
5.00000000E-01
 50
8.99999818E+01
 51
1.79999964E+02
  0
ARC
  8
0
 62
7
 10
-1.43499977E+02
 20
-3.20250000E+02
 40
9.99998474E+00
 50
0.00000000E+00
 51
3.17883527E+01
  0
LINE
  8
0
 62
7
 10
-1.44999947E+02
 20
-3.12070007E+02
 11
-1.41999962E+02
 21
-3.12070007E+02
  0
LINE
  8
0
 62
7
 10
-1.41999936E+02
 20
-3.11250018E+02
 11
-1.38999947E+02
 21
-3.10250034E+02
  0
LINE
  8
0
 62
7
 10
-1.41999961E+02
 20
-3.17127559E+02
 11
-1.38999972E+02
 21
-3.14982462E+02
  0
LINE
  8
0
  6
CENTER
 62
2
 10
-9.90000687E+01
 20
-2.80564941E+02
 11
-9.90000687E+01
 21
-2.92450226E+02
  0
LINE
  8
0
 62
7
 10
-1.20799775E+01
 20
-2.88650024E+02
 11
-8.50000076E+01
 21
-2.88650024E+02
  0
LINE
  8
0
 62
7
 10
-1.62369065E+01
 20
-2.95850037E+02
 11
-8.50000076E+01
 21
-2.95850037E+02
  0
LINE
  8
0
  6
CENTER
 62
2
 10
-1.41584156E+01
 20
-2.92249985E+02
 11
-1.20248100E+02
 21
-2.92249985E+02
  0
LINE
  8
0
 62
7
 10
-1.13000008E+02
 20
-2.83238785E+02
 11
-1.13000008E+02
 21
-2.82750000E+02
  0
LINE
  8
0
 62
7
 10
-1.13000008E+02
 20
-2.82750000E+02
 11
-8.50000076E+01
 21
-2.82750000E+02
  0
LINE
  8
0
 62
7
 10
-1.16508741E+02
 20
-2.83300044E+02
 11
-8.50000364E+01
 21
-2.82750058E+02
  0
LINE
  8
0
 62
7
 10
-1.06943404E+01
 20
-2.86250031E+02
 11
-8.50000076E+01
 21
-2.86250031E+02
  0
LINE
  8
0
 62
7
 10
-1.26758667E+02
 20
-3.02991519E+02
 11
-1.18999954E+02
 21
-3.02720579E+02
  0
LINE
  8
0
 62
7
 10
-1.26999992E+02
 20
-3.03249985E+02
 11
-1.26999992E+02
 21
-3.03241440E+02
  0
LINE
  8
0
 62
7
 10
-1.31500008E+02
 20
-3.03249985E+02
 11
-1.26991447E+02
 21
-3.03249985E+02
  0
LINE
  8
0
 62
7
 10
-1.18499992E+02
 20
-3.01250000E+02
 11
-1.16999992E+02
 21
-3.01250000E+02
  0
LINE
  8
0
 62
7
 10
-1.39000084E+02
 20
-3.10250015E+02
 11
-1.32000038E+02
 21
-3.10250015E+02
  0
LINE
  8
0
 62
7
 10
-1.73999867E+02
 20
-3.12750192E+02
 11
-1.72499820E+02
 21
-3.11250192E+02
  0
LINE
  8
0
 62
2
 10
-1.73319923E+02
 20
-3.12070007E+02
 11
-1.64999962E+02
 21
-3.12070007E+02
  0
LINE
  8
0
 62
7
 10
-1.72499916E+02
 20
-3.11250000E+02
 11
-1.64999962E+02
 21
-3.11250000E+02
  0
LINE
  8
0
 62
7
 10
-1.72499947E+02
 20
-3.20250000E+02
 11
-1.72499947E+02
 21
-3.11249985E+02
  0
LINE
  8
0
 62
7
 10
-1.73999977E+02
 20
-3.20250000E+02
 11
-1.73999977E+02
 21
-3.12750153E+02
  0
LINE
  8
0
 62
7
 10
-1.44999947E+02
 20
-3.20250000E+02
 11
-1.44999947E+02
 21
-3.11249985E+02
  0
LINE
  8
0
 62
7
 10
-1.35000023E+02
 20
-3.14982132E+02
 11
-1.35000023E+02
 21
-3.20249992E+02
  0
LINE
  8
0
 62
7
 10
-1.38999962E+02
 20
-3.10249954E+02
 11
-1.38999962E+02
 21
-3.14982132E+02
  0
LINE
  8
0
 62
2
 10
-1.38499788E+02
 20
-3.20250000E+02
 11
-1.34999829E+02
 21
-3.14982197E+02
  0
LINE
  8
0
 62
2
 10
-1.41033577E+02
 20
-3.16436581E+02
 11
-1.38499919E+02
 21
-3.20250000E+02
  0
LINE
  8
0
 62
7
 10
-1.39000084E+02
 20
-3.14982147E+02
 11
-1.35000023E+02
 21
-3.14982147E+02
  0
LINE
  8
0
 62
7
 10
-1.41999962E+02
 20
-3.11250000E+02
 11
-1.41999962E+02
 21
-3.20250000E+02
  0
LINE
  8
0
 62
7
 10
-8.50000076E+01
 20
-2.82750000E+02
 11
-8.50000076E+01
 21
-3.20250000E+02
  0
LINE
  8
0
 62
7
 10
-1.16999992E+02
 20
-2.83799927E+02
 11
-1.16999992E+02
 21
-3.20250000E+02
  0
LINE
  8
0
 62
7
 10
-1.26999992E+02
 20
-3.20250000E+02
 11
-1.26999992E+02
 21
-3.03249985E+02
  0
LINE
  8
0
 62
7
 10
-1.19000008E+02
 20
-3.01750000E+02
 11
-1.19000008E+02
 21
-3.20250000E+02
  0
LINE
  8
0
 62
7
 10
-1.31999992E+02
 20
-3.20250000E+02
 11
-1.31999992E+02
 21
-3.03750015E+02
  0
LINE
  8
0
  6
CENTER
 62
2
 10
-1.77773201E+02
 20
-3.20250000E+02
 11
-3.03242319E+01
 21
-3.20250000E+02
  0
LINE
  8
0
 62
2
 10
-5.23504960E+01
 20
-1.78400609E+02
 11
-7.04224410E+00
 21
-9.99244142E+01
  0
LINE
  8
0
 62
2
 10
2.61808785E+02
 20
-3.29353103E+02
 11
2.91227329E+02
 21
-2.78398690E+02
  0
LINE
  8
0
 62
7
 10
3.56781299E+02
 20
-2.86250031E+02
 11
3.61000023E+02
 21
-2.86250031E+02
  0
LINE
  8
0
 62
7
 10
-7.64999860E+01
 20
-1.08649994E+02
 11
-8.49999924E+01
 21
-1.08649994E+02
  0
LINE
  8
0
 62
7
 10
-7.64999860E+01
 20
-1.06250031E+02
 11
-8.49999924E+01
 21
-1.06250031E+02
  0
LINE
  8
0
  6
CENTER
 62
2
 10
-9.59999860E+01
 20
-1.12249969E+02
 11
-1.20248085E+02
 21
-1.12249969E+02
  0
LINE
  8
0
  6
CENTER
 62
2
 10
-4.19999860E+01
 20
-1.40250000E+02
 11
-3.03242320E+01
 21
-1.40250000E+02
  0
LINE
  8
0
 62
7
 10
-8.49999924E+01
 20
-1.11187056E+02
 11
-8.49999924E+01
 21
-1.02750000E+02
  0
LINE
  8
0
 62
7
 10
3.52500023E+02
 20
-2.88650024E+02
 11
3.61000023E+02
 21
-2.88650024E+02
  0
LINE
  8
0
  6
CENTER
 62
2
 10
3.52500023E+02
 20
-2.92249985E+02
 11
3.96248116E+02
 21
-2.92249985E+02
  0
TEXT
  8
0
 10
-8.22146873E+01
 20
3.53566712E+02
 40
9.00000000E+00
  1
STRETCH LINE
 41
1.05263158E+00
  7
MONOTXT
  0
LINE
  8
0
 62
7
 10
5.69500000E+02
 20
3.99750000E+02
 11
5.69500000E+02
 21
-4.01250000E+02
  0
LINE
  8
0
 62
7
 10
-5.69500000E+02
 20
3.99750000E+02
 11
5.69500000E+02
 21
3.99750000E+02
  0
LINE
  8
0
 62
7
 10
-5.69500000E+02
 20
-4.01250000E+02
 11
5.69500000E+02
 21
-4.01250000E+02
  0
LINE
  8
0
 62
7
 10
-5.69500000E+02
 20
3.99750000E+02
 11
-5.69500000E+02
 21
-4.01250000E+02
  0
LINE
  8
0
 62
7
 10
-5.69500000E+02
 20
3.69750000E+02
 11
-3.39500000E+02
 21
3.69750000E+02
  0
LINE
  8
0
 62
7
 10
3.39500000E+02
 20
3.69750000E+02
 11
5.69500000E+02
 21
3.69750000E+02
  0
LINE
  8
0
 62
7
 10
3.39500000E+02
 20
-3.71250000E+02
 11
5.69500000E+02
 21
-3.71250000E+02
  0
LINE
  8
0
 62
7
 10
3.39500000E+02
 20
-3.71250000E+02
 11
3.39500000E+02
 21
-4.01250000E+02
  0
LINE
  8
0
 62
7
 10
3.39500000E+02
 20
3.99750000E+02
 11
3.39500000E+02
 21
3.69750000E+02
  0
LINE
  8
0
 62
7
 10
-3.39500000E+02
 20
3.99750000E+02
 11
-3.39500000E+02
 21
3.69750000E+02
  0
TEXT
  8
0
 62
7
 10
-5.42179687E+02
 20
3.33500000E+02
 40
1.25000000E+01
  1
MODEL:DDA63*75
 41
1.00000015E+00
  7
MONOTXT
  0
TEXT
  8
0
 62
7
 10
4.06285149E+02
 20
3.78500000E+02
 40
1.25000000E+01
  1
Ver. 1.0
 41
1.08108125E+00
  7
MONOTXT
  0
TEXT
  8
0
 62
7
 10
3.45070624E+02
 20
-3.95250000E+02
 40
1.80000000E+01
  1
KOGANEI CORP.
 41
1.04838710E+00
  7
MONOTXT
  0
TEXT
  8
0
 62
7
 10
-5.58964859E+02
 20
3.78500000E+02
 40
1.25000000E+01
  1
NEW DYNA CYLINDER
 41
1.07594953E+00
  7
MONOTXT
  0
ENDSEC
  0
EOF
