  0
SECTION
  2
HEADER
  9
$ACADVER
  1
AC1003
  9
$EXTMIN
 10
-1.94250000E+02
 20
-1.33500000E+02
  9
$EXTMAX
 10
1.94800003E+02
 20
1.32600006E+02
  9
$LIMMIN
 10
-1.94251000E+02
 20
-1.33501000E+02
  9
$LIMMAX
 10
1.94801003E+02
 20
1.32601006E+02
  9
$SNAPUNIT
 10
1
 20
1
  9
$SNAPBASE
 10
0
 20
0
  9
$GRIDMODE
 70
0
  9
$GRIDUNIT
 10
0
 20
0
  9
$LTSCALE
 40
6.48416672E+00
  9
$TEXTSIZE
 40
3.2
  9
$DIMTAD
 70
0
  9
$LUNITS
 70
2
  9
$LUPREC
 70
4
  9
$FILLETRAD
 40
0
  9
$AUNITS
 70
0
  9
$AUPREC
 70
0
  0
ENDSEC
  0
SECTION
  2
TABLES
  0
TABLE
  2
LTYPE
 70
2
  0
LTYPE
  2
CONTINUOUS
 70
64
  3
Solid-Line
 72
65
 73
0
 40
0
  0
LTYPE
  2
DASHED
 70
64
  3
DASHED
 72
65
 73
2
 40
.75
 49
.5
 49
-.25
  0
LTYPE
  2
HIDDEN
 70
64
  3
HIDDEN
 72
65
 73
2
 40
.375
 49
.25
 49
-.125
  0
LTYPE
  2
CENTER
 70
64
  3
CENTER
 72
65
 73
4
 40
2
 49
1.25
 49
-.25
 49
.25
 49
-.25
  0
LTYPE
  2
PHANTOM
 70
64
  3
PHANTOM
 72
65
 73
6
 40
2.5
 49
1.25
 49
-.25
 49
.25
 49
-.25
 49
.25
 49
-.25
  0
ENDTAB
  0
TABLE
  2
LAYER
 70
1
  0
LAYER
  2
1
 70
0
 62
7
  6
CONTINUOUS
 0
ENDTAB
  0
TABLE
  2
STYLE
 70
2
  0
STYLE
  2
MONOTXT
 70
0
 40
0
 41
1
 50
0
 71
0
 42
.2
  3
monotxt
  0
STYLE
  2
BIGFONT
 70
0
 40
0
 41
1
 50
0
 71
0
 42
.2
  3
txt
  4
bigfont
  0
ENDTAB
  0
ENDSEC
  0
SECTION
  2
ENTITIES
  0
LINE
  8
0
 62
4
 10
6.39714666E+01
 20
-8.40539195E+01
 11
8.49714691E+01
 21
-7.30539183E+01
  0
LINE
  8
0
 62
4
 10
4.29714690E+01
 20
-8.80539292E+01
 11
8.39714705E+01
 21
-8.80539292E+01
  0
LINE
  8
0
 62
4
 10
4.29714690E+01
 20
-8.40539292E+01
 11
4.29714690E+01
 21
-8.80539292E+01
  0
LINE
  8
0
  6
CENTER
 62
6
 10
9.18788496E+01
 20
-7.40539139E+01
 11
8.30246721E+01
 21
-7.40539139E+01
  0
LINE
  8
0
 62
4
 10
8.89714705E+01
 20
-8.30539292E+01
 11
8.89714705E+01
 21
-5.80539292E+01
  0
LINE
  8
0
 62
4
 10
8.49714706E+01
 20
-5.80539292E+01
 11
8.49714706E+01
 21
-8.30539292E+01
  0
LINE
  8
0
 62
4
 10
4.29714690E+01
 20
-8.40539292E+01
 11
8.39714705E+01
 21
-8.40539292E+01
  0
LINE
  8
0
  6
CENTER
 62
6
 10
5.89714709E+01
 20
-8.02576646E+01
 11
5.89714709E+01
 21
-9.19892663E+01
  0
LINE
  8
0
 62
4
 10
8.49714706E+01
 20
-5.80539292E+01
 11
8.89714705E+01
 21
-5.80539292E+01
  0
ARC
  8
0
 62
4
 10
8.39714705E+01
 20
-8.30539292E+01
 40
1.00000000E+00
 50
2.70000018E+02
 51
0.00000000E+00
  0
ARC
  8
0
 62
4
 10
8.39714705E+01
 20
-8.30539292E+01
 40
5.00000000E+00
 50
2.70000018E+02
 51
0.00000000E+00
  0
LINE
  8
0
 62
4
 10
-1.38528554E+02
 20
-8.40539421E+01
 11
-1.35970081E+02
 21
-6.95441238E+01
  0
LINE
  8
0
 62
4
 10
-1.38528588E+02
 20
-8.40538987E+01
 11
-1.38528588E+02
 21
-8.80538987E+01
  0
LINE
  8
0
 62
4
 10
-1.38528588E+02
 20
-8.40538987E+01
 11
-4.15285882E+01
 21
-8.40538987E+01
  0
LINE
  8
0
 62
4
 10
-1.38528588E+02
 20
-8.80538987E+01
 11
-4.15285882E+01
 21
-8.80538987E+01
  0
LINE
  8
0
 62
4
 10
-1.03028588E+02
 20
-7.45332535E+01
 11
-1.03028588E+02
 21
-8.40538987E+01
  0
LINE
  8
0
 62
4
 10
-1.08028598E+02
 20
-8.40538793E+01
 11
-1.03561514E+02
 21
-7.42262938E+01
  0
LINE
  8
0
 62
4
 10
-1.01740762E+02
 20
-7.30538987E+01
 11
-7.83164147E+01
 21
-7.30538987E+01
  0
LINE
  8
0
 62
4
 10
-7.70285882E+01
 20
-7.45332535E+01
 11
-7.70285882E+01
 21
-8.40538987E+01
  0
LINE
  8
0
 62
4
 10
-7.20286019E+01
 20
-8.40539019E+01
 11
-7.64956987E+01
 21
-7.42262891E+01
  0
LINE
  8
0
 62
4
 10
-4.15285991E+01
 20
-8.40539343E+01
 11
-4.40870726E+01
 21
-6.95441142E+01
  0
LINE
  8
0
 62
4
 10
-4.15285882E+01
 20
-8.40538987E+01
 11
-4.15285882E+01
 21
-8.80538987E+01
  0
LINE
  8
0
 62
4
 10
-5.05763328E+01
 20
-6.30548361E+01
 11
-7.89381222E+01
 21
-5.80538873E+01
  0
LINE
  8
0
 62
4
 10
-1.29480867E+02
 20
-6.30548390E+01
 11
-1.01118973E+02
 21
-5.80538716E+01
  0
LINE
  8
0
  6
CENTER
 62
6
 10
-1.25028588E+02
 20
-6.72182511E+01
 11
-1.25028588E+02
 21
-9.12001275E+01
  0
LINE
  8
0
  6
CENTER
 62
6
 10
-1.31390008E+02
 20
-7.40538987E+01
 11
-1.18768945E+02
 21
-7.40538987E+01
  0
LINE
  8
0
  6
CENTER
 62
6
 10
-5.50285882E+01
 20
-6.72182511E+01
 11
-5.50285882E+01
 21
-9.12001275E+01
  0
LINE
  8
0
  6
CENTER
 62
6
 10
-6.17130517E+01
 20
-7.40538987E+01
 11
-4.87302789E+01
 21
-7.40538987E+01
  0
LINE
  8
0
  6
CENTER
 62
6
 10
-9.00285882E+01
 20
-5.25040864E+01
 11
-9.00285882E+01
 21
-9.12001275E+01
  0
ARC
  8
0
 62
4
 10
-9.00285271E+01
 20
-3.90538071E+01
 40
2.20000019E+01
 50
2.39727650E+02
 51
3.00272257E+02
  0
ARC
  8
0
 62
4
 10
-1.01740762E+02
 20
-7.50538987E+01
 40
2.00000000E+00
 50
8.99999818E+01
 51
1.55556137E+02
  0
ARC
  8
0
 62
4
 10
-7.83164147E+01
 20
-7.50538987E+01
 40
2.00000000E+00
 50
2.44438264E+01
 51
8.99999818E+01
  0
ARC
  8
0
 62
4
 10
-5.19655389E+01
 20
-7.09332932E+01
 40
8.00000000E+00
 50
9.99992969E+00
 51
7.99999088E+01
  0
ARC
  8
0
 62
4
 10
-1.28091653E+02
 20
-7.09332932E+01
 40
8.00000000E+00
 50
1.00000055E+02
 51
1.70000034E+02
  0
CIRCLE
  8
0
 62
4
 10
-5.50285882E+01
 20
-7.40538987E+01
 40
4.84999990E+00
  0
CIRCLE
  8
0
 62
4
 10
-1.25028588E+02
 20
-7.40538987E+01
 40
4.84999990E+00
  0
LINE
  8
0
  6
CENTER
 62
6
 10
3.64047042E+01
 20
6.59460708E+01
 11
9.43636299E+01
 21
6.59460708E+01
  0
LINE
  8
0
 62
4
 10
8.89714705E+01
 20
1.14446056E+02
 11
8.89714705E+01
 21
1.74461013E+01
  0
LINE
  8
0
 62
4
 10
5.99714709E+01
 20
2.39461013E+01
 11
5.79714709E+01
 21
2.39461013E+01
  0
LINE
  8
0
 62
4
 10
8.49714706E+01
 20
4.39460403E+01
 11
8.89714705E+01
 21
4.39460403E+01
  0
LINE
  8
0
 62
4
 10
8.49714706E+01
 20
8.79460708E+01
 11
8.89714705E+01
 21
8.79460708E+01
  0
LINE
  8
0
 62
4
 10
8.89714705E+01
 20
1.74461013E+01
 11
5.49714709E+01
 21
1.74461013E+01
  0
LINE
  8
0
  6
CENTER
 62
6
 10
5.89714709E+01
 20
2.07403823E+01
 11
5.89714709E+01
 21
4.11360427E+01
  0
LINE
  8
0
 62
4
 10
5.99714709E+01
 20
3.79461013E+01
 11
5.79714709E+01
 21
3.79461013E+01
  0
LINE
  8
0
  6
CENTER
 62
6
 10
9.09123899E+01
 20
3.09461013E+01
 11
4.74723235E+01
 21
3.09461013E+01
  0
LINE
  8
0
  6
CENTER
 62
6
 10
5.89714709E+01
 20
1.11151866E+02
 11
5.89714709E+01
 21
9.07562515E+01
  0
LINE
  8
0
 62
4
 10
5.99714709E+01
 20
1.07946056E+02
 11
5.79714709E+01
 21
1.07946056E+02
  0
LINE
  8
0
 62
4
 10
5.99714709E+01
 20
9.39460555E+01
 11
5.79714709E+01
 21
9.39460555E+01
  0
LINE
  8
0
  6
CENTER
 62
6
 10
9.13462878E+01
 20
1.00946056E+02
 11
4.74723235E+01
 21
1.00946056E+02
  0
LINE
  8
0
 62
4
 10
8.89714705E+01
 20
1.14446056E+02
 11
5.49714709E+01
 21
1.14446056E+02
  0
LINE
  8
0
 62
4
 10
8.49714706E+01
 20
1.74461013E+01
 11
8.49714706E+01
 21
1.14446056E+02
  0
LINE
  8
0
 62
4
 10
4.29714690E+01
 20
2.94461013E+01
 11
4.29714690E+01
 21
1.02446056E+02
  0
LINE
  8
0
 62
4
 10
6.39714709E+01
 20
5.45259048E+01
 11
6.39714709E+01
 21
7.73663589E+01
  0
LINE
  8
0
 62
4
 10
8.49715069E+01
 20
8.39461343E+01
 11
6.55082576E+01
 21
7.93120259E+01
  0
LINE
  8
0
 62
4
 10
8.49715086E+01
 20
4.79461105E+01
 11
6.55082555E+01
 21
5.25802167E+01
  0
LINE
  8
0
 62
4
 10
8.49714706E+01
 20
7.89460708E+01
 11
6.60481311E+01
 21
7.89460708E+01
  0
LINE
  8
0
 62
4
 10
8.49714706E+01
 20
5.29460708E+01
 11
6.60481311E+01
 21
5.29460708E+01
  0
ARC
  8
0
 62
4
 10
5.99714709E+01
 20
3.09461013E+01
 40
7.00000000E+00
 50
2.70000018E+02
 51
8.99999681E+01
  0
ARC
  8
0
 62
4
 10
5.79714709E+01
 20
3.09461013E+01
 40
7.00000000E+00
 50
8.99999681E+01
 51
2.70000001E+02
  0
ARC
  8
0
 62
4
 10
5.49714709E+01
 20
2.94461013E+01
 40
1.20000000E+01
 50
1.79999951E+02
 51
2.70000001E+02
  0
ARC
  8
0
 62
4
 10
5.99714709E+01
 20
1.00946056E+02
 40
7.00000000E+00
 50
2.70000018E+02
 51
8.99999681E+01
  0
ARC
  8
0
 62
4
 10
5.79714709E+01
 20
1.00946056E+02
 40
7.00000000E+00
 50
8.99999818E+01
 51
2.70000001E+02
  0
ARC
  8
0
 62
4
 10
5.49714709E+01
 20
1.02446056E+02
 40
1.20000000E+01
 50
8.99999681E+01
 51
1.80000005E+02
  0
ARC
  8
0
 62
4
 10
6.59714709E+01
 20
5.45259048E+01
 40
2.00000000E+00
 50
1.79999991E+02
 51
2.56607557E+02
  0
ARC
  8
0
 62
4
 10
6.59714709E+01
 20
7.73663589E+01
 40
2.00000000E+00
 50
1.03392473E+02
 51
1.80000046E+02
  0
TEXT
  8
0
 62
7
 10
-1.89357136E+02
 20
1.22850006E+02
 40
4.50000000E+00
  1
NEW DYNA CYLINDER
 41
1.07594914E+00
  7
MONOTXT
  0
LINE
  8
0
 62
7
 10
-1.94250000E+02
 20
1.17600006E+02
 11
-1.09250000E+02
 21
1.17600006E+02
  0
LINE
  8
0
 62
7
 10
-1.09250000E+02
 20
1.32600006E+02
 11
-1.09250000E+02
 21
1.17600006E+02
  0
LINE
  8
0
 62
7
 10
1.09800003E+02
 20
-1.18500000E+02
 11
1.09800003E+02
 21
-1.33500000E+02
  0
LINE
  8
0
 62
7
 10
1.09800003E+02
 20
-1.18500000E+02
 11
1.94800003E+02
 21
-1.18500000E+02
  0
TEXT
  8
0
 62
7
 10
1.15249715E+02
 20
-1.29150000E+02
 40
6.30000019E+00
  1
KOGANEI CORP.
 41
1.04838725E+00
  7
MONOTXT
  0
LINE
  8
0
 62
7
 10
1.09800003E+02
 20
1.32600006E+02
 11
1.09800003E+02
 21
1.17600006E+02
  0
LINE
  8
0
 62
7
 10
1.09800003E+02
 20
1.17600006E+02
 11
1.94800003E+02
 21
1.17600006E+02
  0
TEXT
  8
0
 62
7
 10
1.34942863E+02
 20
1.22850006E+02
 40
4.50000000E+00
  1
Ver. 1.0
 41
1.08108085E+00
  7
MONOTXT
  0
TEXT
  8
0
 62
7
 10
-1.85214688E+02
 20
1.05350006E+02
 40
4.50000000E+00
  1
MODEL:DDA80-1
 41
1.00000000E+00
  7
MONOTXT
  0
LINE
  8
0
 62
7
 10
-1.94250000E+02
 20
1.32600006E+02
 11
1.94800003E+02
 21
1.32600006E+02
  0
LINE
  8
0
 62
7
 10
1.94800003E+02
 20
1.32600006E+02
 11
1.94800003E+02
 21
-1.33500000E+02
  0
LINE
  8
0
 62
7
 10
-1.94250000E+02
 20
1.32600006E+02
 11
-1.94250000E+02
 21
-1.33500000E+02
  0
LINE
  8
0
 62
7
 10
-1.94250000E+02
 20
-1.33500000E+02
 11
1.94800003E+02
 21
-1.33500000E+02
  0
ENDSEC
  0
EOF
