  0
SECTION
  2
HEADER
  9
$ACADVER
  1
AC1003
  9
$EXTMIN
 10
-5.22852401E+02
 20
-8.21598255E+02
  9
$EXTMAX
 10
2.82099854E+02
 20
6.21966671E+02
  9
$LIMMIN
 10
-5.22853401E+02
 20
-8.21599255E+02
  9
$LIMMAX
 10
2.82100854E+02
 20
6.21967671E+02
  9
$SNAPUNIT
 10
1
 20
1
  9
$SNAPBASE
 10
0
 20
0
  9
$GRIDMODE
 70
0
  9
$GRIDUNIT
 10
0
 20
0
  9
$LTSCALE
 40
2.40594154E+01
  9
$TEXTSIZE
 40
3.2
  9
$DIMTAD
 70
0
  9
$LUNITS
 70
2
  9
$LUPREC
 70
4
  9
$FILLETRAD
 40
0
  9
$AUNITS
 70
0
  9
$AUPREC
 70
0
  0
ENDSEC
  0
SECTION
  2
TABLES
  0
TABLE
  2
LTYPE
 70
2
  0
LTYPE
  2
CONTINUOUS
 70
64
  3
Solid-Line
 72
65
 73
0
 40
0
  0
LTYPE
  2
DASHED
 70
64
  3
DASHED
 72
65
 73
2
 40
.75
 49
.5
 49
-.25
  0
LTYPE
  2
HIDDEN
 70
64
  3
HIDDEN
 72
65
 73
2
 40
.375
 49
.25
 49
-.125
  0
LTYPE
  2
CENTER
 70
64
  3
CENTER
 72
65
 73
4
 40
2
 49
1.25
 49
-.25
 49
.25
 49
-.25
  0
LTYPE
  2
PHANTOM
 70
64
  3
PHANTOM
 72
65
 73
6
 40
2.5
 49
1.25
 49
-.25
 49
.25
 49
-.25
 49
.25
 49
-.25
  0
ENDTAB
  0
TABLE
  2
LAYER
 70
1
  0
LAYER
  2
1
 70
0
 62
7
  6
CONTINUOUS
 0
ENDTAB
  0
TABLE
  2
STYLE
 70
2
  0
STYLE
  2
MONOTXT
 70
0
 40
0
 41
1
 50
0
 71
0
 42
.2
  3
monotxt
  0
STYLE
  2
BIGFONT
 70
0
 40
0
 41
1
 50
0
 71
0
 42
.2
  3
txt
  4
bigfont
  0
ENDTAB
  0
ENDSEC
  0
SECTION
  2
ENTITIES
  0
LINE
  8
0
  6
CENTER
 62
6
 10
1.02617577E+02
 20
-1.34815740E+02
 11
5.18095061E+01
 21
-1.34815798E+02
  0
LINE
  8
0
  6
CENTER
 62
6
 10
5.01344760E+01
 20
-9.98158155E+01
 11
1.07921677E+02
 21
-9.98157489E+01
  0
LINE
  8
0
  6
CENTER
 62
6
 10
1.00384174E+02
 20
-6.48156966E+01
 11
5.20885906E+01
 21
-6.48157522E+01
  0
LINE
  8
0
 62
4
 10
7.72892627E+01
 20
-4.90655390E+01
 11
6.17194685E+01
 21
-4.96092661E+01
  0
LINE
  8
0
 62
4
 10
6.60673671E+01
 20
-4.82077053E+01
 11
7.72892257E+01
 21
-4.78158165E+01
  0
LINE
  8
0
 62
4
 10
7.72892497E+01
 20
-4.78158149E+01
 11
8.85111088E+01
 21
-4.82076779E+01
  0
LINE
  8
0
 62
4
 10
9.28590101E+01
 20
-4.96092286E+01
 11
7.72892155E+01
 21
-4.90655373E+01
  0
LINE
  8
0
 62
4
 10
9.47893409E+01
 20
-5.15205370E+01
 11
9.47893721E+01
 21
-7.85515734E+01
  0
LINE
  8
0
 62
4
 10
5.97893731E+01
 20
-7.85516137E+01
 11
5.97893420E+01
 21
-5.16080407E+01
  0
LINE
  8
0
 62
4
 10
6.16497246E+01
 20
-7.85516116E+01
 11
5.97893731E+01
 21
-7.85516137E+01
  0
LINE
  8
0
 62
4
 10
6.28516052E+01
 20
-6.48140315E+01
 11
5.97893882E+01
 21
-9.98158327E+01
  0
LINE
  8
0
 62
4
 10
6.15391304E+01
 20
-7.98157871E+01
 11
9.30394956E+01
 21
-7.98157508E+01
  0
LINE
  8
0
 62
4
 10
9.47893021E+01
 20
-9.98157842E+01
 11
9.17270080E+01
 21
-6.48140053E+01
  0
LINE
  8
0
 62
4
 10
9.47893721E+01
 20
-7.85515734E+01
 11
9.29288985E+01
 21
-7.85515755E+01
  0
LINE
  8
0
 62
4
 10
5.97894146E+01
 20
-9.98157841E+01
 11
6.28517099E+01
 21
-1.34817578E+02
  0
LINE
  8
0
 62
4
 10
6.15391765E+01
 20
-1.19815818E+02
 11
9.30395418E+01
 21
-1.19815781E+02
  0
LINE
  8
0
 62
4
 10
5.97894221E+01
 20
-1.21079995E+02
 11
6.16497737E+01
 21
-1.21079993E+02
  0
LINE
  8
0
 62
4
 10
5.97894532E+01
 20
-1.48023568E+02
 11
5.97894221E+01
 21
-1.21079995E+02
  0
LINE
  8
0
 62
4
 10
9.29289475E+01
 20
-1.21079957E+02
 11
9.47894211E+01
 21
-1.21079955E+02
  0
LINE
  8
0
 62
4
 10
9.47894211E+01
 20
-1.21079955E+02
 11
9.47894523E+01
 21
-1.48110991E+02
  0
LINE
  8
0
 62
4
 10
9.17270625E+01
 20
-1.34817525E+02
 11
9.47892768E+01
 21
-9.98157543E+01
  0
LINE
  8
0
 62
4
 10
6.17195177E+01
 20
-1.50022353E+02
 11
7.72893742E+01
 21
-1.50566046E+02
  0
LINE
  8
0
 62
4
 10
7.72893400E+01
 20
-1.51815769E+02
 11
6.60604046E+01
 21
-1.51423659E+02
  0
LINE
  8
0
 62
4
 10
7.72893969E+01
 20
-1.50566015E+02
 11
9.28592521E+01
 21
-1.50022286E+02
  0
LINE
  8
0
 62
4
 10
8.85113541E+01
 20
-1.51423862E+02
 11
7.72894345E+01
 21
-1.51815753E+02
  0
LINE
  8
0
  6
CENTER
 62
6
 10
7.72893310E+01
 20
-4.23157842E+01
 11
7.72894636E+01
 21
-1.57315784E+02
  0
ARC
  8
0
 62
4
 10
6.61372408E+01
 20
-5.02064526E+01
 40
2.00000000E+00
 50
9.20004737E+01
 51
1.59944136E+02
  0
ARC
  8
0
 62
4
 10
8.84414400E+01
 20
-5.02064269E+01
 40
2.00000000E+00
 50
2.00556667E+01
 51
8.79995679E+01
  0
ARC
  8
0
 62
4
 10
9.27893410E+01
 20
-5.16080027E+01
 40
2.00000000E+00
 50
3.59999648E+02
 51
8.80000051E+01
  0
ARC
  8
0
 62
4
 10
6.17893420E+01
 20
-5.16080384E+01
 40
2.00000000E+00
 50
9.20000916E+01
 51
1.80000412E+02
  0
CIRCLE
  8
0
 62
4
 10
7.72893973E+01
 20
-9.98157842E+01
 40
1.15000000E+01
  0
CIRCLE
  8
0
 62
4
 10
7.72893973E+01
 20
-9.98157842E+01
 40
1.25000000E+01
  0
ARC
  8
0
 62
4
 10
6.17894532E+01
 20
-1.48023566E+02
 40
2.00000000E+00
 50
1.79999702E+02
 51
2.68000023E+02
  0
ARC
  8
0
 62
4
 10
6.61373552E+01
 20
-1.49425142E+02
 40
2.00000000E+00
 50
2.00056106E+02
 51
2.67999713E+02
  0
ARC
  8
0
 62
4
 10
8.84415544E+01
 20
-1.49425116E+02
 40
2.00000000E+00
 50
2.72000565E+02
 51
3.39944466E+02
  0
ARC
  8
0
 62
4
 10
9.27894522E+01
 20
-1.48023530E+02
 40
2.00000000E+00
 50
2.72000072E+02
 51
3.57951673E-04
  0
LINE
  8
0
  6
CENTER
 62
6
 10
-1.70710678E+02
 20
-1.49552875E+02
 11
-1.70710678E+02
 21
-1.19408710E+02
  0
LINE
  8
0
  6
CENTER
 62
6
 10
-1.85266098E+02
 20
-1.34815738E+02
 11
-1.56845504E+02
 21
-1.34815738E+02
  0
LINE
  8
0
  6
CENTER
 62
6
 10
-1.35710617E+02
 20
-3.91193426E+01
 11
-1.35710617E+02
 21
-1.56022159E+02
  0
LINE
  8
0
  6
CENTER
 62
6
 10
-1.00710663E+02
 20
-5.04430730E+01
 11
-1.00710663E+02
 21
-8.01799810E+01
  0
LINE
  8
0
  6
CENTER
 62
6
 10
-1.85266098E+02
 20
-6.48157537E+01
 11
-1.56019638E+02
 21
-6.48157537E+01
  0
LINE
  8
0
  6
CENTER
 62
6
 10
-1.14519760E+02
 20
-1.34815738E+02
 11
-8.57228695E+01
 21
-1.34815738E+02
  0
LINE
  8
0
  6
CENTER
 62
6
 10
-1.14932724E+02
 20
-6.48157537E+01
 11
-8.57228695E+01
 21
-6.48157537E+01
  0
LINE
  8
0
  6
CENTER
 62
6
 10
-1.00710663E+02
 20
-1.49418094E+02
 11
-1.00710663E+02
 21
-1.20736820E+02
  0
LINE
  8
0
  6
CENTER
 62
6
 10
-5.00502926E+01
 20
-9.98157842E+01
 11
-2.22892746E+02
 21
-9.98157842E+01
  0
LINE
  8
0
  6
CENTER
 62
6
 10
-1.70710556E+02
 20
-5.04430730E+01
 11
-1.70710556E+02
 21
-8.01799810E+01
  0
LINE
  8
0
 62
4
 10
-2.17710601E+02
 20
-1.11315784E+02
 11
-2.16710592E+02
 21
-1.12315777E+02
  0
LINE
  8
0
 62
4
 10
-1.92710617E+02
 20
-7.98157842E+01
 11
-1.92710617E+02
 21
-1.19815784E+02
  0
LINE
  8
0
 62
4
 10
-7.87106015E+01
 20
-7.98157842E+01
 11
-7.87106015E+01
 21
-1.19815784E+02
  0
LINE
  8
0
 62
4
 10
-2.16710586E+02
 20
-1.12315784E+02
 11
-1.94310592E+02
 21
-1.12315784E+02
  0
LINE
  8
0
 62
4
 10
-2.16710586E+02
 20
-8.73157842E+01
 11
-1.94310592E+02
 21
-8.73157842E+01
  0
LINE
  8
0
 62
4
 10
-2.16710617E+02
 20
-8.73157842E+01
 11
-2.16710617E+02
 21
-1.12315784E+02
  0
LINE
  8
0
 62
4
 10
-2.17710570E+02
 20
-8.83157837E+01
 11
-2.16710569E+02
 21
-8.73157829E+01
  0
LINE
  8
0
 62
4
 10
-2.17710617E+02
 20
-8.83157842E+01
 11
-2.17710617E+02
 21
-1.11315784E+02
  0
LINE
  8
0
 62
4
 10
-5.37106140E+01
 20
-1.11315766E+02
 11
-5.47106447E+01
 21
-1.12315781E+02
  0
LINE
  8
0
 62
4
 10
-5.47106154E+01
 20
-8.73157694E+01
 11
-5.37106145E+01
 21
-8.83157706E+01
  0
LINE
  8
0
 62
4
 10
-5.37106015E+01
 20
-8.83157842E+01
 11
-5.37106015E+01
 21
-1.11315784E+02
  0
LINE
  8
0
 62
4
 10
-5.47106015E+01
 20
-8.73157842E+01
 11
-5.47106015E+01
 21
-1.12315784E+02
  0
LINE
  8
0
 62
4
 10
-7.71106259E+01
 20
-8.73157842E+01
 11
-5.47106015E+01
 21
-8.73157842E+01
  0
LINE
  8
0
 62
4
 10
-7.71106259E+01
 20
-1.12315784E+02
 11
-5.47106015E+01
 21
-1.12315784E+02
  0
LINE
  8
0
 62
4
 10
-1.92710617E+02
 20
-9.98157842E+01
 11
-1.79210647E+02
 21
-9.98157842E+01
  0
LINE
  8
0
 62
4
 10
-9.22105862E+01
 20
-9.98157842E+01
 11
-7.87106015E+01
 21
-9.98157842E+01
  0
LINE
  8
0
 62
4
 10
-1.35710632E+02
 20
-1.51359199E+02
 11
-9.44528957E+01
 21
-1.50111018E+02
  0
LINE
  8
0
 62
4
 10
-1.35710621E+02
 20
-1.51359206E+02
 11
-1.76968357E+02
 21
-1.50111025E+02
  0
LINE
  8
0
 62
4
 10
-1.35710614E+02
 20
-4.82723564E+01
 11
-9.44529087E+01
 21
-4.95205360E+01
  0
LINE
  8
0
 62
4
 10
-1.35710639E+02
 20
-4.82723495E+01
 11
-1.76968344E+02
 21
-4.95205292E+01
  0
ARC
  8
0
 62
4
 10
-1.35711166E+02
 20
2.34825436E+02
 40
3.87141235E+02
 50
2.63882457E+02
 51
2.76117723E+02
  0
ARC
  8
0
 62
4
 10
-1.94310592E+02
 20
-8.57157781E+01
 40
1.59999943E+00
 50
2.70000018E+02
 51
0.00000000E+00
  0
ARC
  8
0
 62
4
 10
-1.94310592E+02
 20
-1.13915775E+02
 40
1.59999943E+00
 50
0.00000000E+00
 51
8.99999818E+01
  0
ARC
  8
0
 62
4
 10
-7.87106015E+01
 20
-1.19815784E+02
 40
1.20813904E+02
 50
1.44419351E+02
 51
1.60665174E+02
  0
ARC
  8
0
 62
4
 10
-7.87106015E+01
 20
-7.98157842E+01
 40
1.20813904E+02
 50
1.99334881E+02
 51
2.15580650E+02
  0
ARC
  8
0
 62
4
 10
-1.35711166E+02
 20
-4.34457020E+02
 40
3.87141235E+02
 50
8.38822771E+01
 51
9.61175433E+01
  0
ARC
  8
0
 62
4
 10
-7.71106259E+01
 20
-1.13915775E+02
 40
1.59999943E+00
 50
8.99999818E+01
 51
1.79999964E+02
  0
ARC
  8
0
 62
4
 10
-1.92710617E+02
 20
-7.98157842E+01
 40
1.20813904E+02
 50
3.24419424E+02
 51
3.40665121E+02
  0
ARC
  8
0
 62
4
 10
-1.92710617E+02
 20
-1.19815784E+02
 40
1.20813904E+02
 50
1.93348244E+01
 51
3.55805727E+01
  0
ARC
  8
0
 62
4
 10
-7.71106259E+01
 20
-8.57157781E+01
 40
1.59999943E+00
 50
1.79999964E+02
 51
2.70000001E+02
  0
CIRCLE
  8
0
 62
4
 10
-1.35710617E+02
 20
-9.98157842E+01
 40
4.35000305E+01
  0
CIRCLE
  8
0
 62
4
 10
-1.00710663E+02
 20
-1.34815738E+02
 40
4.84999990E+00
  0
ARC
  8
0
 62
4
 10
-1.00710663E+02
 20
-1.34815738E+02
 40
1.40486650E+01
 50
1.92115275E+02
 51
3.14172668E+02
  0
ARC
  8
0
 62
4
 10
-1.00710663E+02
 20
-1.34815738E+02
 40
1.40486650E+01
 50
3.44083182E+02
 51
7.78847291E+01
  0
CIRCLE
  8
0
 62
4
 10
-1.70710556E+02
 20
-1.34815738E+02
 40
4.84999990E+00
  0
ARC
  8
0
 62
4
 10
-1.70710556E+02
 20
-1.34815738E+02
 40
1.40486650E+01
 50
2.25827327E+02
 51
3.47884729E+02
  0
ARC
  8
0
 62
4
 10
-1.70710556E+02
 20
-1.34815738E+02
 40
1.40486650E+01
 50
1.02115269E+02
 51
1.95916818E+02
  0
CIRCLE
  8
0
 62
4
 10
-1.00710663E+02
 20
-6.48158300E+01
 40
4.84999990E+00
  0
ARC
  8
0
 62
4
 10
-1.00710663E+02
 20
-6.48158300E+01
 40
1.40486650E+01
 50
4.58273318E+01
 51
1.67884725E+02
  0
ARC
  8
0
 62
4
 10
-1.00710663E+02
 20
-6.48158300E+01
 40
1.40486650E+01
 50
2.82115271E+02
 51
1.59168184E+01
  0
CIRCLE
  8
0
 62
4
 10
-1.70710556E+02
 20
-6.48158300E+01
 40
4.84999990E+00
  0
ARC
  8
0
 62
4
 10
-1.70710556E+02
 20
-6.48158300E+01
 40
1.40486650E+01
 50
1.21152717E+01
 51
1.34172673E+02
  0
ARC
  8
0
 62
4
 10
-1.70710556E+02
 20
-6.48158300E+01
 40
1.40486650E+01
 50
1.64083178E+02
 51
2.57884720E+02
  0
LINE
  8
0
  6
CENTER
 62
6
 10
4.64283775E+01
 20
9.51842310E+01
 11
1.06443249E+02
 21
9.51842310E+01
  0
LINE
  8
0
  6
CENTER
 62
6
 10
1.01073496E+02
 20
6.01842310E+01
 11
5.30616001E+01
 21
6.01842310E+01
  0
LINE
  8
0
  6
CENTER
 62
6
 10
1.01389365E+02
 20
1.30184201E+02
 11
5.30616001E+01
 21
1.30184201E+02
  0
LINE
  8
0
 62
4
 10
6.47893399E+01
 20
1.76184172E+02
 11
6.57893628E+01
 21
1.77184194E+02
  0
LINE
  8
0
 62
4
 10
6.57893976E+01
 20
1.77184201E+02
 11
8.87893976E+01
 21
1.77184201E+02
  0
LINE
  8
0
 62
4
 10
6.47893976E+01
 20
1.76184201E+02
 11
8.97893976E+01
 21
1.76184201E+02
  0
LINE
  8
0
 62
4
 10
6.47893976E+01
 20
1.53784176E+02
 11
6.47893976E+01
 21
1.76184201E+02
  0
LINE
  8
0
 62
4
 10
8.97893976E+01
 20
1.53784176E+02
 11
8.97893976E+01
 21
1.76184201E+02
  0
LINE
  8
0
 62
4
 10
8.87893672E+01
 20
1.77184207E+02
 11
8.97893631E+01
 21
1.76184201E+02
  0
LINE
  8
0
  6
CENTER
 62
6
 10
7.72893973E+01
 20
5.18426156E+00
 11
7.72893973E+01
 21
1.85184201E+02
  0
LINE
  8
0
 62
4
 10
5.97893976E+01
 20
1.52184201E+02
 11
9.47893966E+01
 21
1.52184201E+02
  0
LINE
  8
0
 62
4
 10
5.97893976E+01
 20
1.16448391E+02
 11
5.97893976E+01
 21
1.52184201E+02
  0
LINE
  8
0
 62
4
 10
6.07195516E+01
 20
1.52184204E+02
 11
6.16497545E+01
 21
1.44589715E+02
  0
LINE
  8
0
 62
4
 10
5.97893976E+01
 20
1.44589718E+02
 11
6.16497491E+01
 21
1.44589718E+02
  0
LINE
  8
0
 62
4
 10
9.29289935E+01
 20
1.44589665E+02
 11
9.38591969E+01
 21
1.52184155E+02
  0
LINE
  8
0
 62
4
 10
9.47893966E+01
 20
1.16448391E+02
 11
9.47893966E+01
 21
1.52184201E+02
  0
LINE
  8
0
 62
4
 10
9.29290451E+01
 20
1.44589718E+02
 11
9.47893966E+01
 21
1.44589718E+02
  0
LINE
  8
0
 62
4
 10
9.16693111E+01
 20
1.28746181E+02
 11
9.03202802E+01
 21
9.51842635E+01
  0
LINE
  8
0
 62
4
 10
6.42585666E+01
 20
9.51842200E+01
 11
6.29095347E+01
 21
1.28746168E+02
  0
LINE
  8
0
 62
4
 10
6.28516646E+01
 20
9.51842347E+01
 11
6.15971298E+01
 21
1.15509996E+02
  0
LINE
  8
0
 62
4
 10
5.97893976E+01
 20
1.16448391E+02
 11
6.05989679E+01
 21
1.16448391E+02
  0
LINE
  8
0
 62
4
 10
9.39798263E+01
 20
1.16448391E+02
 11
9.47893966E+01
 21
1.16448391E+02
  0
LINE
  8
0
 62
4
 10
9.29816795E+01
 20
1.15509985E+02
 11
9.17271482E+01
 21
9.51842842E+01
  0
LINE
  8
0
 62
4
 10
6.29095075E+01
 20
6.16222761E+01
 11
6.42585396E+01
 21
9.51842244E+01
  0
LINE
  8
0
 62
4
 10
6.15970887E+01
 20
7.48585066E+01
 11
6.28516236E+01
 21
9.51842680E+01
  0
LINE
  8
0
 62
4
 10
6.05989679E+01
 20
7.39201014E+01
 11
5.97893976E+01
 21
7.39201014E+01
  0
LINE
  8
0
 62
4
 10
5.97893976E+01
 20
3.81842616E+01
 11
5.97893976E+01
 21
7.39201014E+01
  0
LINE
  8
0
 62
4
 10
6.16497491E+01
 20
4.57788050E+01
 11
5.97893976E+01
 21
4.57788050E+01
  0
LINE
  8
0
 62
4
 10
6.16497579E+01
 20
4.57787845E+01
 11
6.07195471E+01
 21
3.81842342E+01
  0
LINE
  8
0
 62
4
 10
9.47893966E+01
 20
3.81842616E+01
 11
5.97893976E+01
 21
3.81842616E+01
  0
LINE
  8
0
 62
4
 10
6.47893976E+01
 20
1.41842616E+01
 11
6.47893976E+01
 21
3.65842860E+01
  0
LINE
  8
0
 62
4
 10
8.97893976E+01
 20
1.41842921E+01
 11
8.97893976E+01
 21
3.65842860E+01
  0
LINE
  8
0
 62
4
 10
9.38591973E+01
 20
3.81842827E+01
 11
9.29289944E+01
 21
4.57787724E+01
  0
LINE
  8
0
 62
4
 10
9.47893966E+01
 20
4.57788050E+01
 11
9.29290451E+01
 21
4.57788050E+01
  0
LINE
  8
0
 62
4
 10
9.47893966E+01
 20
3.81842616E+01
 11
9.47893966E+01
 21
7.39201014E+01
  0
LINE
  8
0
 62
4
 10
9.03202418E+01
 20
9.51842392E+01
 11
9.16692762E+01
 21
6.16222299E+01
  0
LINE
  8
0
 62
4
 10
9.47893966E+01
 20
7.39201014E+01
 11
9.39798263E+01
 21
7.39201014E+01
  0
LINE
  8
0
 62
4
 10
9.17271902E+01
 20
9.51842183E+01
 11
9.29817231E+01
 21
7.48584873E+01
  0
LINE
  8
0
 62
4
 10
6.47893714E+01
 20
1.41842310E+01
 11
6.57893727E+01
 21
1.31842302E+01
  0
LINE
  8
0
 62
4
 10
6.57893976E+01
 20
1.31842616E+01
 11
8.87893976E+01
 21
1.31842616E+01
  0
LINE
  8
0
 62
4
 10
6.47893976E+01
 20
1.41842616E+01
 11
8.97893976E+01
 21
1.41842616E+01
  0
LINE
  8
0
 62
4
 10
8.87893932E+01
 20
1.31842555E+01
 11
8.97893676E+01
 21
1.41842401E+01
  0
LINE
  8
0
 62
4
 10
9.47893966E+01
 20
5.16842616E+01
 11
5.97893976E+01
 21
5.16842616E+01
  0
LINE
  8
0
 62
4
 10
9.47893966E+01
 20
1.38684323E+02
 11
5.97893976E+01
 21
1.38684323E+02
  0
ARC
  8
0
 62
4
 10
6.31894220E+01
 20
1.53784176E+02
 40
1.59999943E+00
 50
2.70000018E+02
 51
6.83245232E-07
  0
ARC
  8
0
 62
4
 10
9.13893722E+01
 20
1.53784176E+02
 40
1.59999943E+00
 50
1.79999964E+02
 51
2.69999946E+02
  0
ARC
  8
0
 62
4
 10
9.31680587E+01
 20
1.28686032E+02
 40
1.50000000E+00
 50
8.99999274E+01
 51
1.77698191E+02
  0
ARC
  8
0
 62
4
 10
6.14107355E+01
 20
1.28686032E+02
 40
1.50000000E+00
 50
2.30184632E+00
 51
9.00000369E+01
  0
ARC
  8
0
 62
4
 10
6.05989679E+01
 20
1.15448391E+02
 40
1.00000000E+00
 50
3.53199071E+00
 51
9.00005829E+01
  0
ARC
  8
0
 62
4
 10
9.39798263E+01
 20
1.15448391E+02
 40
1.00000000E+00
 50
8.99993264E+01
 51
1.76468046E+02
  0
ARC
  8
0
 62
4
 10
6.05989679E+01
 20
7.49201014E+01
 40
1.00000000E+00
 50
2.69999417E+02
 51
3.56468083E+02
  0
ARC
  8
0
 62
4
 10
6.14107355E+01
 20
6.16824915E+01
 40
1.50000000E+00
 50
2.70000018E+02
 51
3.57698227E+02
  0
ARC
  8
0
 62
4
 10
6.31894220E+01
 20
3.65842860E+01
 40
1.59999943E+00
 50
1.79860890E-05
 51
8.99999818E+01
  0
ARC
  8
0
 62
4
 10
9.13893722E+01
 20
3.65842860E+01
 40
1.59999943E+00
 50
8.99999818E+01
 51
1.79999964E+02
  0
ARC
  8
0
 62
4
 10
9.31680587E+01
 20
6.16824915E+01
 40
1.50000000E+00
 50
1.82301810E+02
 51
2.70000073E+02
  0
ARC
  8
0
 62
4
 10
9.39798263E+01
 20
7.49201014E+01
 40
1.00000000E+00
 50
1.83531954E+02
 51
2.70000674E+02
  0
LINE
  8
0
 62
7
 10
2.82099854E+02
 20
1.95500000E+02
 11
2.82099854E+02
 21
-1.95000000E+02
  0
LINE
  8
0
 62
7
 10
-2.81250000E+02
 20
1.95500000E+02
 11
2.82099854E+02
 21
1.95500000E+02
  0
LINE
  8
0
 62
7
 10
-2.81250000E+02
 20
1.95500000E+02
 11
-2.81250000E+02
 21
-1.95000000E+02
  0
LINE
  8
0
 62
7
 10
-2.81250000E+02
 20
-1.95000000E+02
 11
2.82099854E+02
 21
-1.95000000E+02
  0
LINE
  8
0
 62
7
 10
1.62099976E+02
 20
-1.75000000E+02
 11
1.62099976E+02
 21
-1.95000000E+02
  0
LINE
  8
0
 62
7
 10
1.62099976E+02
 20
-1.75000000E+02
 11
2.82099854E+02
 21
-1.75000000E+02
  0
LINE
  8
0
 62
7
 10
1.62099976E+02
 20
1.75500000E+02
 11
2.82099854E+02
 21
1.75500000E+02
  0
LINE
  8
0
 62
7
 10
-2.81250000E+02
 20
1.75500000E+02
 11
-1.61250000E+02
 21
1.75500000E+02
  0
LINE
  8
0
 62
7
 10
1.62099976E+02
 20
1.95500000E+02
 11
1.62099976E+02
 21
1.75500000E+02
  0
LINE
  8
0
 62
7
 10
-1.61250000E+02
 20
1.95500000E+02
 11
-1.61250000E+02
 21
1.75500000E+02
  0
TEXT
  8
0
 62
7
 10
1.97799690E+02
 20
1.82350000E+02
 40
6.30000019E+00
  1
Ver. 1.0
 41
1.08108124E+00
  7
MONOTXT
  0
TEXT
  8
0
 62
7
 10
1.69885289E+02
 20
-1.89500000E+02
 40
9.00000000E+00
  1
KOGANEI CORP.
 41
1.04838710E+00
  7
MONOTXT
  0
TEXT
  8
0
 62
7
 10
-2.73900291E+02
 20
1.82350000E+02
 40
6.30000019E+00
  1
NEW DYNA CYLINDER
 41
1.07594953E+00
  7
MONOTXT
  0
TEXT
  8
0
 62
7
 10
-2.67600562E+02
 20
1.57350000E+02
 40
6.30000019E+00
  1
MODEL:DDA80-11
 41
1.00000015E+00
  7
MONOTXT
  0
ENDSEC
  0
EOF
