  0
SECTION
  2
HEADER
  9
$ACADVER
  1
AC1003
  9
$EXTMIN
 10
-5.38355812E+02
 20
-8.17499162E+02
  9
$EXTMAX
 10
2.82099854E+02
 20
6.26065764E+02
  9
$LIMMIN
 10
-5.38356812E+02
 20
-8.17500162E+02
  9
$LIMMAX
 10
2.82100854E+02
 20
6.26066764E+02
  9
$SNAPUNIT
 10
1
 20
1
  9
$SNAPBASE
 10
0
 20
0
  9
$GRIDMODE
 70
0
  9
$GRIDUNIT
 10
0
 20
0
  9
$LTSCALE
 40
2.40594154E+01
  9
$TEXTSIZE
 40
3.2
  9
$DIMTAD
 70
0
  9
$LUNITS
 70
2
  9
$LUPREC
 70
4
  9
$FILLETRAD
 40
0
  9
$AUNITS
 70
0
  9
$AUPREC
 70
0
  0
ENDSEC
  0
SECTION
  2
TABLES
  0
TABLE
  2
LTYPE
 70
2
  0
LTYPE
  2
CONTINUOUS
 70
64
  3
Solid-Line
 72
65
 73
0
 40
0
  0
LTYPE
  2
DASHED
 70
64
  3
DASHED
 72
65
 73
2
 40
.75
 49
.5
 49
-.25
  0
LTYPE
  2
HIDDEN
 70
64
  3
HIDDEN
 72
65
 73
2
 40
.375
 49
.25
 49
-.125
  0
LTYPE
  2
CENTER
 70
64
  3
CENTER
 72
65
 73
4
 40
2
 49
1.25
 49
-.25
 49
.25
 49
-.25
  0
LTYPE
  2
PHANTOM
 70
64
  3
PHANTOM
 72
65
 73
6
 40
2.5
 49
1.25
 49
-.25
 49
.25
 49
-.25
 49
.25
 49
-.25
  0
ENDTAB
  0
TABLE
  2
LAYER
 70
1
  0
LAYER
  2
1
 70
0
 62
7
  6
CONTINUOUS
 0
ENDTAB
  0
TABLE
  2
STYLE
 70
2
  0
STYLE
  2
MONOTXT
 70
0
 40
0
 41
1
 50
0
 71
0
 42
.2
  3
monotxt
  0
STYLE
  2
BIGFONT
 70
0
 40
0
 41
1
 50
0
 71
0
 42
.2
  3
txt
  4
bigfont
  0
ENDTAB
  0
ENDSEC
  0
SECTION
  2
ENTITIES
  0
LINE
  8
0
  6
CENTER
 62
6
 10
5.02388918E+01
 20
-1.71216692E+02
 11
5.02388918E+01
 21
-1.46216692E+02
  0
LINE
  8
0
  6
CENTER
 62
6
 10
1.35238741E+02
 20
-1.46216692E+02
 11
1.35238741E+02
 21
-1.71216692E+02
  0
LINE
  8
0
  6
CENTER
 62
6
 10
9.27388255E+01
 20
-3.82166918E+01
 11
9.27389790E+01
 21
-1.71342506E+02
  0
LINE
  8
0
 62
4
 10
6.79899653E+01
 20
-1.46981431E+02
 11
7.07697596E+01
 21
-9.45519032E+01
  0
LINE
  8
0
 62
4
 10
3.42388918E+01
 20
-1.51716692E+02
 11
6.29969790E+01
 21
-1.51716692E+02
  0
LINE
  8
0
  6
CENTER
 62
6
 10
5.77388918E+01
 20
-9.57166918E+01
 11
1.27738741E+02
 21
-9.57166918E+01
  0
LINE
  8
0
 62
4
 10
1.14707908E+02
 20
-9.45519353E+01
 11
1.17487701E+02
 21
-1.46981440E+02
  0
LINE
  8
0
 62
4
 10
1.22480684E+02
 20
-1.51716692E+02
 11
1.51238772E+02
 21
-1.51716692E+02
  0
LINE
  8
0
 62
4
 10
1.53238772E+02
 20
-1.53716692E+02
 11
1.53238772E+02
 21
-1.65716692E+02
  0
LINE
  8
0
 62
4
 10
3.22388918E+01
 20
-1.65716692E+02
 11
3.22388918E+01
 21
-1.53716692E+02
  0
LINE
  8
0
 62
4
 10
3.22388918E+01
 20
-1.65716692E+02
 11
1.53238772E+02
 21
-1.65716692E+02
  0
ARC
  8
0
 62
4
 10
1.22480684E+02
 20
-1.46716692E+02
 40
5.00000000E+00
 50
1.83034989E+02
 51
2.69999963E+02
  0
ARC
  8
0
 62
4
 10
1.51238772E+02
 20
-1.53716692E+02
 40
2.00000000E+00
 50
3.59721781E-05
 51
8.99999818E+01
  0
ARC
  8
0
 62
4
 10
3.42388918E+01
 20
-1.53716692E+02
 40
2.00000000E+00
 50
8.99999818E+01
 51
1.79999964E+02
  0
ARC
  8
0
 62
4
 10
6.29969790E+01
 20
-1.46716692E+02
 40
5.00000000E+00
 50
2.70000073E+02
 51
3.56965011E+02
  0
ARC
  8
0
 62
4
 10
9.27388918E+01
 20
-9.57166918E+01
 40
2.20000000E+01
 50
3.03498943E+00
 51
1.76965010E+02
  0
LINE
  8
0
  6
CENTER
 62
6
 10
1.15833669E+02
 20
-6.07166041E+01
 11
6.75380851E+01
 21
-6.07166598E+01
  0
LINE
  8
0
 62
4
 10
9.27387572E+01
 20
-4.49664465E+01
 11
7.71689629E+01
 21
-4.55101736E+01
  0
LINE
  8
0
 62
4
 10
8.15168615E+01
 20
-4.41086129E+01
 11
9.27387201E+01
 21
-4.37167240E+01
  0
LINE
  8
0
 62
4
 10
9.27387442E+01
 20
-4.37167224E+01
 11
1.03960603E+02
 21
-4.41085854E+01
  0
LINE
  8
0
 62
4
 10
1.08308505E+02
 20
-4.55101361E+01
 11
9.27387100E+01
 21
-4.49664449E+01
  0
LINE
  8
0
 62
4
 10
1.10238835E+02
 20
-4.74214445E+01
 11
1.10238867E+02
 21
-7.44524809E+01
  0
LINE
  8
0
 62
4
 10
7.52388675E+01
 20
-7.44525213E+01
 11
7.52388364E+01
 21
-4.75089483E+01
  0
LINE
  8
0
 62
4
 10
7.70992191E+01
 20
-7.44525191E+01
 11
7.52388675E+01
 21
-7.44525213E+01
  0
LINE
  8
0
 62
4
 10
7.83010997E+01
 20
-6.07149391E+01
 11
7.65413628E+01
 21
-8.08291112E+01
  0
LINE
  8
0
 62
4
 10
7.69886248E+01
 20
-7.57166947E+01
 11
8.35737506E+01
 21
-7.57166871E+01
  0
LINE
  8
0
 62
4
 10
1.08936273E+02
 20
-8.08289504E+01
 11
1.07176502E+02
 21
-6.07149128E+01
  0
LINE
  8
0
 62
4
 10
1.10238867E+02
 20
-7.44524809E+01
 11
1.08378393E+02
 21
-7.44524831E+01
  0
ARC
  8
0
 62
4
 10
8.15867352E+01
 20
-4.61073601E+01
 40
2.00000000E+00
 50
9.20004737E+01
 51
1.59944136E+02
  0
ARC
  8
0
 62
4
 10
1.03890934E+02
 20
-4.61073344E+01
 40
2.00000000E+00
 50
2.00556667E+01
 51
8.79995679E+01
  0
ARC
  8
0
 62
4
 10
1.08238835E+02
 20
-4.75089102E+01
 40
2.00000000E+00
 50
3.59999648E+02
 51
8.80000051E+01
  0
ARC
  8
0
 62
4
 10
7.72388364E+01
 20
-4.75089460E+01
 40
2.00000000E+00
 50
9.20000916E+01
 51
1.80000412E+02
  0
LINE
  8
0
 62
4
 10
1.01903987E+02
 20
-7.57166659E+01
 11
1.08488990E+02
 21
-7.57166583E+01
  0
CIRCLE
  8
0
 62
4
 10
9.27388918E+01
 20
-9.57166918E+01
 40
1.25000000E+01
  0
LINE
  8
0
 62
4
 10
-2.31213936E+02
 20
-7.37166918E+01
 11
-2.08214027E+02
 21
-7.37166918E+01
  0
LINE
  8
0
 62
4
 10
-2.31213936E+02
 20
-1.51716692E+02
 11
-2.08214027E+02
 21
-1.51716692E+02
  0
LINE
  8
0
 62
4
 10
-9.42140730E+01
 20
-1.51716692E+02
 11
-7.12141646E+01
 21
-1.51716692E+02
  0
LINE
  8
0
  6
CENTER
 62
6
 10
-2.21763008E+02
 20
-6.83430193E+01
 11
-2.21763008E+02
 21
-8.83430193E+01
  0
LINE
  8
0
  6
CENTER
 62
6
 10
-8.06650007E+01
 20
-8.83430193E+01
 11
-8.06650007E+01
 21
-6.83430193E+01
  0
LINE
  8
0
 62
4
 10
-9.42140730E+01
 20
-7.37166918E+01
 11
-7.12141646E+01
 21
-7.37166918E+01
  0
LINE
  8
0
 62
4
 10
-2.31213936E+02
 20
-1.65716692E+02
 11
-2.08214027E+02
 21
-1.65716692E+02
  0
LINE
  8
0
 62
4
 10
-2.08214027E+02
 20
-7.37166918E+01
 11
-2.08214027E+02
 21
-1.65716692E+02
  0
LINE
  8
0
 62
4
 10
-2.31213936E+02
 20
-7.37166918E+01
 11
-2.31213936E+02
 21
-1.65716692E+02
  0
LINE
  8
0
 62
4
 10
-9.42140730E+01
 20
-1.65716692E+02
 11
-7.12141646E+01
 21
-1.65716692E+02
  0
LINE
  8
0
 62
4
 10
-9.42140730E+01
 20
-1.65716692E+02
 11
-9.42140730E+01
 21
-7.37166918E+01
  0
LINE
  8
0
 62
4
 10
-7.12141646E+01
 20
-1.65716692E+02
 11
-7.12141646E+01
 21
-7.37166918E+01
  0
LINE
  8
0
  6
CENTER
 62
6
 10
-1.86214088E+02
 20
-1.45453783E+02
 11
-1.86214088E+02
 21
-1.15309618E+02
  0
LINE
  8
0
  6
CENTER
 62
6
 10
-2.00769508E+02
 20
-1.30716646E+02
 11
-1.72348915E+02
 21
-1.30716646E+02
  0
LINE
  8
0
  6
CENTER
 62
6
 10
-1.16214073E+02
 20
-4.63439806E+01
 11
-1.16214073E+02
 21
-7.60808885E+01
  0
LINE
  8
0
  6
CENTER
 62
6
 10
-2.00769508E+02
 20
-6.07166612E+01
 11
-1.71523048E+02
 21
-6.07166612E+01
  0
LINE
  8
0
  6
CENTER
 62
6
 10
-1.30023170E+02
 20
-1.30716646E+02
 11
-1.01226280E+02
 21
-1.30716646E+02
  0
LINE
  8
0
  6
CENTER
 62
6
 10
-1.30436134E+02
 20
-6.07166612E+01
 11
-1.01226280E+02
 21
-6.07166612E+01
  0
LINE
  8
0
  6
CENTER
 62
6
 10
-1.16214073E+02
 20
-1.45319002E+02
 11
-1.16214073E+02
 21
-1.16637728E+02
  0
LINE
  8
0
  6
CENTER
 62
6
 10
-6.55537031E+01
 20
-9.57166918E+01
 11
-2.38396156E+02
 21
-9.57166918E+01
  0
LINE
  8
0
  6
CENTER
 62
6
 10
-1.86213966E+02
 20
-4.63439806E+01
 11
-1.86213966E+02
 21
-7.60808885E+01
  0
LINE
  8
0
 62
4
 10
-2.33214012E+02
 20
-1.07216691E+02
 11
-2.32214003E+02
 21
-1.08216684E+02
  0
LINE
  8
0
 62
4
 10
-2.32213997E+02
 20
-1.08216692E+02
 11
-2.31213936E+02
 21
-1.08216692E+02
  0
LINE
  8
0
 62
4
 10
-2.32213997E+02
 20
-8.32166918E+01
 11
-2.31213936E+02
 21
-8.32166918E+01
  0
LINE
  8
0
 62
4
 10
-2.32214027E+02
 20
-8.32166918E+01
 11
-2.32214027E+02
 21
-1.08216692E+02
  0
LINE
  8
0
 62
4
 10
-2.33213981E+02
 20
-8.42166913E+01
 11
-2.32213980E+02
 21
-8.32166904E+01
  0
LINE
  8
0
 62
4
 10
-2.33214027E+02
 20
-8.42166918E+01
 11
-2.33214027E+02
 21
-1.07216692E+02
  0
LINE
  8
0
 62
4
 10
-6.92140245E+01
 20
-1.07216674E+02
 11
-7.02140552E+01
 21
-1.08216688E+02
  0
LINE
  8
0
 62
4
 10
-7.02140259E+01
 20
-8.32166769E+01
 11
-6.92140250E+01
 21
-8.42166781E+01
  0
LINE
  8
0
 62
4
 10
-6.92140120E+01
 20
-8.42166918E+01
 11
-6.92140120E+01
 21
-1.07216692E+02
  0
LINE
  8
0
 62
4
 10
-7.02140120E+01
 20
-8.32166918E+01
 11
-7.02140120E+01
 21
-1.08216692E+02
  0
LINE
  8
0
 62
4
 10
-7.12141646E+01
 20
-8.32166918E+01
 11
-7.02140120E+01
 21
-8.32166918E+01
  0
LINE
  8
0
 62
4
 10
-7.12141646E+01
 20
-1.08216692E+02
 11
-7.02140120E+01
 21
-1.08216692E+02
  0
LINE
  8
0
 62
4
 10
-2.08214027E+02
 20
-9.57166918E+01
 11
-1.94714058E+02
 21
-9.57166918E+01
  0
LINE
  8
0
 62
4
 10
-1.07713997E+02
 20
-9.57166918E+01
 11
-9.42140120E+01
 21
-9.57166918E+01
  0
LINE
  8
0
 62
4
 10
-1.51214042E+02
 20
-1.47260106E+02
 11
-1.09956306E+02
 21
-1.46011926E+02
  0
LINE
  8
0
 62
4
 10
-1.51214031E+02
 20
-1.47260113E+02
 11
-1.92471768E+02
 21
-1.46011933E+02
  0
LINE
  8
0
 62
4
 10
-1.51214025E+02
 20
-4.41732639E+01
 11
-1.09956319E+02
 21
-4.54214435E+01
  0
LINE
  8
0
 62
4
 10
-1.51214049E+02
 20
-4.41732571E+01
 11
-1.92471755E+02
 21
-4.54214367E+01
  0
ARC
  8
0
 62
4
 10
-1.51214577E+02
 20
2.38924528E+02
 40
3.87141235E+02
 50
2.63882457E+02
 51
2.76117723E+02
  0
ARC
  8
0
 62
4
 10
-9.42140120E+01
 20
-1.15716692E+02
 40
1.20813904E+02
 50
1.44419351E+02
 51
1.60665174E+02
  0
ARC
  8
0
 62
4
 10
-9.42140120E+01
 20
-7.57166918E+01
 40
1.20813904E+02
 50
1.99334881E+02
 51
2.15580650E+02
  0
ARC
  8
0
 62
4
 10
-1.51214577E+02
 20
-4.30357927E+02
 40
3.87141235E+02
 50
8.38822771E+01
 51
9.61175433E+01
  0
ARC
  8
0
 62
4
 10
-2.08214027E+02
 20
-7.57166918E+01
 40
1.20813904E+02
 50
3.24419424E+02
 51
3.40665121E+02
  0
ARC
  8
0
 62
4
 10
-2.08214027E+02
 20
-1.15716692E+02
 40
1.20813904E+02
 50
1.93348244E+01
 51
3.55805727E+01
  0
CIRCLE
  8
0
 62
4
 10
-1.51214027E+02
 20
-9.57166918E+01
 40
4.35000305E+01
  0
CIRCLE
  8
0
 62
4
 10
-1.16214073E+02
 20
-1.30716646E+02
 40
4.84999990E+00
  0
ARC
  8
0
 62
4
 10
-1.16214073E+02
 20
-1.30716646E+02
 40
1.40486650E+01
 50
1.92115275E+02
 51
3.14172668E+02
  0
ARC
  8
0
 62
4
 10
-1.16214073E+02
 20
-1.30716646E+02
 40
1.40486650E+01
 50
3.44083182E+02
 51
7.78847291E+01
  0
CIRCLE
  8
0
 62
4
 10
-1.86213966E+02
 20
-1.30716646E+02
 40
4.84999990E+00
  0
ARC
  8
0
 62
4
 10
-1.86213966E+02
 20
-1.30716646E+02
 40
1.40486650E+01
 50
2.25827327E+02
 51
3.47884729E+02
  0
ARC
  8
0
 62
4
 10
-1.86213966E+02
 20
-1.30716646E+02
 40
1.40486650E+01
 50
1.02115269E+02
 51
1.95916818E+02
  0
CIRCLE
  8
0
 62
4
 10
-1.16214073E+02
 20
-6.07167375E+01
 40
4.84999990E+00
  0
ARC
  8
0
 62
4
 10
-1.16214073E+02
 20
-6.07167375E+01
 40
1.40486650E+01
 50
4.58273318E+01
 51
1.67884725E+02
  0
ARC
  8
0
 62
4
 10
-1.16214073E+02
 20
-6.07167375E+01
 40
1.40486650E+01
 50
2.82115271E+02
 51
1.59168184E+01
  0
CIRCLE
  8
0
 62
4
 10
-1.86213966E+02
 20
-6.07167375E+01
 40
4.84999990E+00
  0
ARC
  8
0
 62
4
 10
-1.86213966E+02
 20
-6.07167375E+01
 40
1.40486650E+01
 50
1.21152717E+01
 51
1.34172673E+02
  0
ARC
  8
0
 62
4
 10
-1.86213966E+02
 20
-6.07167375E+01
 40
1.40486650E+01
 50
1.64083178E+02
 51
2.57884720E+02
  0
LINE
  8
0
  6
CENTER
 62
6
 10
-1.51214027E+02
 20
-3.50202501E+01
 11
-1.51214027E+02
 21
-1.65716692E+02
  0
LINE
  8
0
  6
CENTER
 62
6
 10
-8.27140730E+01
 20
-1.71216692E+02
 11
-8.27140730E+01
 21
-1.46216692E+02
  0
LINE
  8
0
  6
CENTER
 62
6
 10
-2.19713936E+02
 20
-1.46216692E+02
 11
-2.19713936E+02
 21
-1.71216692E+02
  0
LINE
  8
0
  6
CENTER
 62
6
 10
9.27388918E+01
 20
2.92707651E-01
 11
9.27388918E+01
 21
1.80292647E+02
  0
LINE
  8
0
  6
CENTER
 62
6
 10
5.02388918E+01
 20
1.41292677E+02
 11
5.02388918E+01
 21
1.76292677E+02
  0
LINE
  8
0
  6
CENTER
 62
6
 10
1.35238741E+02
 20
1.76292677E+02
 11
1.35238741E+02
 21
1.41292677E+02
  0
LINE
  8
0
 62
4
 10
8.02388343E+01
 20
1.71292618E+02
 11
8.12388573E+01
 21
1.72292640E+02
  0
LINE
  8
0
 62
4
 10
8.12388920E+01
 20
1.72292647E+02
 11
1.04238892E+02
 21
1.72292647E+02
  0
LINE
  8
0
 62
4
 10
8.02388920E+01
 20
1.71292647E+02
 11
1.05238892E+02
 21
1.71292647E+02
  0
LINE
  8
0
 62
4
 10
1.04238862E+02
 20
1.72292654E+02
 11
1.05238858E+02
 21
1.71292647E+02
  0
LINE
  8
0
 62
4
 10
3.22390139E+01
 20
1.70292677E+02
 11
3.22390139E+01
 21
1.47292677E+02
  0
LINE
  8
0
 62
4
 10
1.53238772E+02
 20
1.70292677E+02
 11
3.22390139E+01
 21
1.70292677E+02
  0
LINE
  8
0
  6
CENTER
 62
6
 10
2.91389162E+01
 20
9.02926771E+01
 11
1.55272219E+02
 21
9.02926771E+01
  0
LINE
  8
0
 62
4
 10
1.15039980E+02
 20
1.48792647E+02
 11
1.15039980E+02
 21
1.68792647E+02
  0
LINE
  8
0
  6
CENTER
 62
6
 10
1.00238739E+02
 20
1.58792677E+02
 11
8.52388918E+01
 21
1.58792677E+02
  0
LINE
  8
0
  6
CENTER
 62
6
 10
1.55238772E+02
 20
1.58792677E+02
 11
1.17738741E+02
 21
1.58792677E+02
  0
LINE
  8
0
 62
4
 10
1.53238772E+02
 20
1.70292677E+02
 11
1.53238772E+02
 21
1.47292677E+02
  0
LINE
  8
0
  6
CENTER
 62
6
 10
6.77388918E+01
 20
1.58792677E+02
 11
3.02388918E+01
 21
1.58792677E+02
  0
LINE
  8
0
 62
4
 10
1.53238772E+02
 20
1.47292677E+02
 11
3.22390139E+01
 21
1.47292677E+02
  0
LINE
  8
0
 62
4
 10
7.04378054E+01
 20
1.48792647E+02
 11
7.04378054E+01
 21
1.68792647E+02
  0
ARC
  8
0
 62
4
 10
1.35238741E+02
 20
1.58792677E+02
 40
1.40000000E+01
 50
3.04771934E+02
 51
5.52280525E+01
  0
ARC
  8
0
 62
4
 10
1.35238741E+02
 20
1.58792677E+02
 40
1.40000000E+01
 50
1.24771983E+02
 51
2.35228054E+02
  0
CIRCLE
  8
0
 62
4
 10
1.35238741E+02
 20
1.58792677E+02
 40
7.00000000E+00
  0
ARC
  8
0
 62
4
 10
5.02388918E+01
 20
1.58792677E+02
 40
1.40000000E+01
 50
3.04771934E+02
 51
5.52280525E+01
  0
ARC
  8
0
 62
4
 10
5.02388918E+01
 20
1.58792677E+02
 40
1.40000000E+01
 50
1.24771929E+02
 51
2.35228054E+02
  0
CIRCLE
  8
0
 62
4
 10
5.02388918E+01
 20
1.58792677E+02
 40
7.00000000E+00
  0
CIRCLE
  8
0
 62
4
 10
9.27388918E+01
 20
1.58792677E+02
 40
2.00000000E+00
  0
CIRCLE
  8
0
 62
4
 10
9.27388918E+01
 20
1.58792677E+02
 40
4.00000000E+00
  0
LINE
  8
0
  6
CENTER
 62
6
 10
1.16838859E+02
 20
1.25292647E+02
 11
6.85110945E+01
 21
1.25292647E+02
  0
LINE
  8
0
 62
4
 10
7.52388920E+01
 20
1.11556837E+02
 11
7.52388920E+01
 21
1.47292647E+02
  0
LINE
  8
0
 62
4
 10
7.61690460E+01
 20
1.47292650E+02
 11
7.70992489E+01
 21
1.39698161E+02
  0
LINE
  8
0
 62
4
 10
7.52388920E+01
 20
1.39698164E+02
 11
7.70992436E+01
 21
1.39698164E+02
  0
LINE
  8
0
 62
4
 10
1.08378488E+02
 20
1.39698111E+02
 11
1.09308691E+02
 21
1.47292601E+02
  0
LINE
  8
0
 62
4
 10
1.10238891E+02
 20
1.11556837E+02
 11
1.10238891E+02
 21
1.47292647E+02
  0
LINE
  8
0
 62
4
 10
1.08378540E+02
 20
1.39698164E+02
 11
1.10238891E+02
 21
1.39698164E+02
  0
LINE
  8
0
 62
4
 10
1.07118806E+02
 20
1.23854627E+02
 11
1.05769775E+02
 21
9.02927096E+01
  0
LINE
  8
0
 62
4
 10
7.97080611E+01
 20
9.02926661E+01
 11
7.83590292E+01
 21
1.23854614E+02
  0
LINE
  8
0
 62
4
 10
7.83011591E+01
 20
9.02926808E+01
 11
7.70466242E+01
 21
1.10618442E+02
  0
LINE
  8
0
 62
4
 10
7.52388920E+01
 20
1.11556837E+02
 11
7.60484623E+01
 21
1.11556837E+02
  0
LINE
  8
0
 62
4
 10
1.09429321E+02
 20
1.11556837E+02
 11
1.10238891E+02
 21
1.11556837E+02
  0
LINE
  8
0
 62
4
 10
1.08431174E+02
 20
1.10618431E+02
 11
1.07176643E+02
 21
9.02927303E+01
  0
LINE
  8
0
 62
4
 10
1.10238891E+02
 20
1.33792769E+02
 11
7.52388920E+01
 21
1.33792769E+02
  0
ARC
  8
0
 62
4
 10
1.08617553E+02
 20
1.23794478E+02
 40
1.50000000E+00
 50
8.99999274E+01
 51
1.77698191E+02
  0
ARC
  8
0
 62
4
 10
7.68602299E+01
 20
1.23794478E+02
 40
1.50000000E+00
 50
2.30184632E+00
 51
9.00000369E+01
  0
ARC
  8
0
 62
4
 10
7.60484623E+01
 20
1.10556837E+02
 40
1.00000000E+00
 50
3.53199071E+00
 51
9.00005829E+01
  0
ARC
  8
0
 62
4
 10
1.09429321E+02
 20
1.10556837E+02
 40
1.00000000E+00
 50
8.99993264E+01
 51
1.76468046E+02
  0
LINE
  8
0
 62
4
 10
1.05238892E+02
 20
1.70292677E+02
 11
1.05238892E+02
 21
1.71292647E+02
  0
LINE
  8
0
 62
4
 10
8.02388920E+01
 20
1.70292677E+02
 11
8.02388920E+01
 21
1.71292647E+02
  0
LINE
  8
0
 62
4
 10
1.53238772E+02
 20
3.32927077E+01
 11
1.53238772E+02
 21
1.02927229E+01
  0
LINE
  8
0
  6
CENTER
 62
6
 10
3.02388918E+01
 20
2.17927077E+01
 11
6.77388918E+01
 21
2.17927077E+01
  0
LINE
  8
0
 62
4
 10
3.22390139E+01
 20
1.02927229E+01
 11
1.53238772E+02
 21
1.02927229E+01
  0
LINE
  8
0
 62
4
 10
3.22390139E+01
 20
3.32927077E+01
 11
1.53238772E+02
 21
3.32927077E+01
  0
LINE
  8
0
 62
4
 10
1.15039980E+02
 20
3.17927077E+01
 11
1.15039980E+02
 21
1.17927229E+01
  0
LINE
  8
0
  6
CENTER
 62
6
 10
1.17738894E+02
 20
2.17927077E+01
 11
1.55238772E+02
 21
2.17927077E+01
  0
LINE
  8
0
  6
CENTER
 62
6
 10
8.52388918E+01
 20
2.17927077E+01
 11
1.00238739E+02
 21
2.17927077E+01
  0
LINE
  8
0
 62
4
 10
7.04378054E+01
 20
3.17927077E+01
 11
7.04378054E+01
 21
1.17927229E+01
  0
LINE
  8
0
  6
CENTER
 62
6
 10
5.02388918E+01
 20
4.29272291E+00
 11
5.02388918E+01
 21
3.92927077E+01
  0
LINE
  8
0
 62
4
 10
3.22390139E+01
 20
3.32927077E+01
 11
3.22390139E+01
 21
1.02927229E+01
  0
LINE
  8
0
  6
CENTER
 62
6
 10
1.35238741E+02
 20
3.92927077E+01
 11
1.35238741E+02
 21
4.29272291E+00
  0
CIRCLE
  8
0
 62
4
 10
1.35238741E+02
 20
2.17927077E+01
 40
7.00000000E+00
  0
ARC
  8
0
 62
4
 10
5.02388918E+01
 20
2.17927077E+01
 40
1.40000000E+01
 50
3.04771947E+02
 51
5.52280695E+01
  0
ARC
  8
0
 62
4
 10
1.35238741E+02
 20
2.17927077E+01
 40
1.40000000E+01
 50
3.04771947E+02
 51
5.52280695E+01
  0
CIRCLE
  8
0
 62
4
 10
9.27388918E+01
 20
2.17927077E+01
 40
2.00000000E+00
  0
CIRCLE
  8
0
 62
4
 10
5.02388918E+01
 20
2.17927077E+01
 40
7.00000000E+00
  0
ARC
  8
0
 62
4
 10
1.35238741E+02
 20
2.17927077E+01
 40
1.40000000E+01
 50
1.24771929E+02
 51
2.35227999E+02
  0
CIRCLE
  8
0
 62
4
 10
9.27388918E+01
 20
2.17927077E+01
 40
4.00000000E+00
  0
ARC
  8
0
 62
4
 10
5.02388918E+01
 20
2.17927077E+01
 40
1.40000000E+01
 50
1.24771929E+02
 51
2.35228054E+02
  0
LINE
  8
0
  6
CENTER
 62
6
 10
1.16522991E+02
 20
5.52926771E+01
 11
6.85110945E+01
 21
5.52926771E+01
  0
LINE
  8
0
 62
4
 10
7.60484623E+01
 20
6.90285475E+01
 11
7.52388920E+01
 21
6.90285475E+01
  0
LINE
  8
0
 62
4
 10
7.52388920E+01
 20
3.32927077E+01
 11
7.52388920E+01
 21
6.90285475E+01
  0
LINE
  8
0
 62
4
 10
7.70992436E+01
 20
4.08872511E+01
 11
7.52388920E+01
 21
4.08872511E+01
  0
LINE
  8
0
 62
4
 10
7.70992524E+01
 20
4.08872306E+01
 11
7.61690416E+01
 21
3.32926803E+01
  0
LINE
  8
0
 62
4
 10
8.02388920E+01
 20
9.29270765E+00
 11
8.02388920E+01
 21
1.02927229E+01
  0
LINE
  8
0
 62
4
 10
1.05238892E+02
 20
9.29273817E+00
 11
1.05238892E+02
 21
1.02927229E+01
  0
LINE
  8
0
 62
4
 10
1.09308692E+02
 20
3.32927288E+01
 11
1.08378489E+02
 21
4.08872185E+01
  0
LINE
  8
0
 62
4
 10
1.10238891E+02
 20
4.08872511E+01
 11
1.08378540E+02
 21
4.08872511E+01
  0
LINE
  8
0
 62
4
 10
1.10238891E+02
 20
3.32927077E+01
 11
1.10238891E+02
 21
6.90285475E+01
  0
LINE
  8
0
 62
4
 10
1.10238891E+02
 20
6.90285475E+01
 11
1.09429321E+02
 21
6.90285475E+01
  0
LINE
  8
0
 62
4
 10
8.02388658E+01
 20
9.29267707E+00
 11
8.12388671E+01
 21
8.29267626E+00
  0
LINE
  8
0
 62
4
 10
8.12388920E+01
 20
8.29270765E+00
 11
1.04238892E+02
 21
8.29270765E+00
  0
LINE
  8
0
 62
4
 10
8.02388920E+01
 20
9.29270765E+00
 11
1.05238892E+02
 21
9.29270765E+00
  0
LINE
  8
0
 62
4
 10
1.04238888E+02
 20
8.29270155E+00
 11
1.05238862E+02
 21
9.29268618E+00
  0
LINE
  8
0
 62
4
 10
1.10238891E+02
 20
4.67927077E+01
 11
7.52388920E+01
 21
4.67927077E+01
  0
ARC
  8
0
 62
4
 10
7.60484623E+01
 20
7.00285475E+01
 40
1.00000000E+00
 50
2.69999417E+02
 51
3.56468083E+02
  0
ARC
  8
0
 62
4
 10
7.68602299E+01
 20
5.67909376E+01
 40
1.50000000E+00
 50
2.70000018E+02
 51
3.57698227E+02
  0
ARC
  8
0
 62
4
 10
1.08617553E+02
 20
5.67909376E+01
 40
1.50000000E+00
 50
1.82301810E+02
 51
2.70000073E+02
  0
ARC
  8
0
 62
4
 10
1.09429321E+02
 20
7.00285475E+01
 40
1.00000000E+00
 50
1.83531954E+02
 51
2.70000674E+02
  0
LINE
  8
0
 62
4
 10
1.07176685E+02
 20
9.02926644E+01
 11
1.08431218E+02
 21
6.99669334E+01
  0
LINE
  8
0
 62
4
 10
1.05769736E+02
 20
9.02926853E+01
 11
1.07118771E+02
 21
5.67306760E+01
  0
LINE
  8
0
 62
4
 10
7.70465831E+01
 20
6.99669527E+01
 11
7.83011181E+01
 21
9.02927141E+01
  0
LINE
  8
0
 62
4
 10
7.83590020E+01
 20
5.67307222E+01
 11
7.97080341E+01
 21
9.02926705E+01
  0
TEXT
  8
0
 62
7
 10
-2.67600562E+02
 20
1.57350000E+02
 40
6.30000019E+00
  1
MODEL:DDA80-11T
 41
1.00000015E+00
  7
MONOTXT
  0
TEXT
  8
0
 62
7
 10
-2.73900291E+02
 20
1.82350000E+02
 40
6.30000019E+00
  1
NEW DYNA CYLINDER
 41
1.07594953E+00
  7
MONOTXT
  0
LINE
  8
0
 62
7
 10
2.82099854E+02
 20
1.95500000E+02
 11
2.82099854E+02
 21
-1.95000000E+02
  0
LINE
  8
0
 62
7
 10
-2.81250000E+02
 20
1.95500000E+02
 11
2.82099854E+02
 21
1.95500000E+02
  0
LINE
  8
0
 62
7
 10
-2.81250000E+02
 20
1.95500000E+02
 11
-2.81250000E+02
 21
-1.95000000E+02
  0
LINE
  8
0
 62
7
 10
-2.81250000E+02
 20
-1.95000000E+02
 11
2.82099854E+02
 21
-1.95000000E+02
  0
LINE
  8
0
 62
7
 10
1.62099976E+02
 20
-1.75000000E+02
 11
1.62099976E+02
 21
-1.95000000E+02
  0
LINE
  8
0
 62
7
 10
1.62099976E+02
 20
-1.75000000E+02
 11
2.82099854E+02
 21
-1.75000000E+02
  0
LINE
  8
0
 62
7
 10
1.62099976E+02
 20
1.75500000E+02
 11
2.82099854E+02
 21
1.75500000E+02
  0
LINE
  8
0
 62
7
 10
-2.81250000E+02
 20
1.75500000E+02
 11
-1.61250000E+02
 21
1.75500000E+02
  0
LINE
  8
0
 62
7
 10
1.62099976E+02
 20
1.95500000E+02
 11
1.62099976E+02
 21
1.75500000E+02
  0
LINE
  8
0
 62
7
 10
-1.61250000E+02
 20
1.95500000E+02
 11
-1.61250000E+02
 21
1.75500000E+02
  0
TEXT
  8
0
 62
7
 10
1.97799690E+02
 20
1.82350000E+02
 40
6.30000019E+00
  1
Ver. 1.0
 41
1.08108124E+00
  7
MONOTXT
  0
TEXT
  8
0
 62
7
 10
1.69885289E+02
 20
-1.89500000E+02
 40
9.00000000E+00
  1
KOGANEI CORP.
 41
1.04838710E+00
  7
MONOTXT
  0
ENDSEC
  0
EOF
