  0
SECTION
  2
HEADER
  9
$ACADVER
  1
AC1003
  9
$EXTMIN
 10
-2.81250000E+02
 20
-1.95000000E+02
  9
$EXTMAX
 10
2.82099854E+02
 20
1.95500000E+02
  9
$LIMMIN
 10
-2.81251000E+02
 20
-1.95001000E+02
  9
$LIMMAX
 10
2.82100854E+02
 20
1.95501000E+02
  9
$SNAPUNIT
 10
1
 20
1
  9
$SNAPBASE
 10
0
 20
0
  9
$GRIDMODE
 70
0
  9
$GRIDUNIT
 10
0
 20
0
  9
$LTSCALE
 40
9.38916423E+00
  9
$TEXTSIZE
 40
3.2
  9
$DIMTAD
 70
0
  9
$LUNITS
 70
2
  9
$LUPREC
 70
4
  9
$FILLETRAD
 40
0
  9
$AUNITS
 70
0
  9
$AUPREC
 70
0
  0
ENDSEC
  0
SECTION
  2
TABLES
  0
TABLE
  2
LTYPE
 70
2
  0
LTYPE
  2
CONTINUOUS
 70
64
  3
Solid-Line
 72
65
 73
0
 40
0
  0
LTYPE
  2
DASHED
 70
64
  3
DASHED
 72
65
 73
2
 40
.75
 49
.5
 49
-.25
  0
LTYPE
  2
HIDDEN
 70
64
  3
HIDDEN
 72
65
 73
2
 40
.375
 49
.25
 49
-.125
  0
LTYPE
  2
CENTER
 70
64
  3
CENTER
 72
65
 73
4
 40
2
 49
1.25
 49
-.25
 49
.25
 49
-.25
  0
LTYPE
  2
PHANTOM
 70
64
  3
PHANTOM
 72
65
 73
6
 40
2.5
 49
1.25
 49
-.25
 49
.25
 49
-.25
 49
.25
 49
-.25
  0
ENDTAB
  0
TABLE
  2
LAYER
 70
1
  0
LAYER
  2
1
 70
0
 62
7
  6
CONTINUOUS
 0
ENDTAB
  0
TABLE
  2
STYLE
 70
2
  0
STYLE
  2
MONOTXT
 70
0
 40
0
 41
1
 50
0
 71
0
 42
.2
  3
monotxt
  0
STYLE
  2
BIGFONT
 70
0
 40
0
 41
1
 50
0
 71
0
 42
.2
  3
txt
  4
bigfont
  0
ENDTAB
  0
ENDSEC
  0
SECTION
  2
ENTITIES
  0
LINE
  8
0
 62
4
 10
8.67161942E+01
 20
-3.55013968E+01
 11
1.02716195E+02
 21
-3.55013968E+01
  0
LINE
  8
0
  6
CENTER
 62
6
 10
1.11098563E+02
 20
-1.18001382E+02
 11
8.17161942E+01
 21
-1.18001382E+02
  0
LINE
  8
0
  6
CENTER
 62
6
 10
7.42055741E+01
 20
-8.30013968E+01
 11
1.16774408E+02
 21
-8.30013968E+01
  0
LINE
  8
0
 62
4
 10
1.02716195E+02
 20
-1.30501397E+02
 11
1.02716195E+02
 21
-3.55013968E+01
  0
LINE
  8
0
  6
CENTER
 62
6
 10
1.09206615E+02
 20
-4.80014273E+01
 11
8.17161942E+01
 21
-4.80014273E+01
  0
LINE
  8
0
 62
4
 10
8.67161942E+01
 20
-3.55013968E+01
 11
8.67161942E+01
 21
-1.30501397E+02
  0
LINE
  8
0
 62
4
 10
8.67161942E+01
 20
-1.30501397E+02
 11
1.02716195E+02
 21
-1.30501397E+02
  0
LINE
  8
0
 62
4
 10
-3.47837982E+01
 20
-4.36562125E+01
 11
-3.47837982E+01
 21
-1.22656213E+02
  0
LINE
  8
0
 62
4
 10
-1.77783798E+02
 20
-4.36562125E+01
 11
-1.77783798E+02
 21
-1.22656213E+02
  0
LINE
  8
0
 62
4
 10
-1.69783798E+02
 20
-1.30656213E+02
 11
-4.27837982E+01
 21
-1.30656213E+02
  0
LINE
  8
0
  6
CENTER
 62
6
 10
-1.75783798E+02
 20
-4.81562125E+01
 11
-1.33851639E+02
 21
-4.81562125E+01
  0
LINE
  8
0
  6
CENTER
 62
6
 10
-1.06283798E+02
 20
-3.21455924E+01
 11
-1.06283798E+02
 21
-1.33977288E+02
  0
LINE
  8
0
  6
CENTER
 62
6
 10
-7.12837982E+01
 20
-1.25090531E+02
 11
-7.12837982E+01
 21
-1.11201913E+02
  0
LINE
  8
0
  6
CENTER
 62
6
 10
-4.67837982E+01
 20
-1.08156213E+02
 11
-4.67837982E+01
 21
-1.28156213E+02
  0
LINE
  8
0
  6
CENTER
 62
6
 10
-3.19019928E+01
 20
-8.30013968E+01
 11
-1.82770523E+02
 21
-8.30013968E+01
  0
LINE
  8
0
  6
CENTER
 62
6
 10
-7.87844696E+01
 20
-1.18156213E+02
 11
-3.67837982E+01
 21
-1.18156213E+02
  0
LINE
  8
0
  6
CENTER
 62
6
 10
-7.80534820E+01
 20
-4.81562125E+01
 11
-3.67837982E+01
 21
-4.81562125E+01
  0
LINE
  8
0
  6
CENTER
 62
6
 10
-4.67837982E+01
 20
-3.81562125E+01
 11
-4.67837982E+01
 21
-5.81562125E+01
  0
LINE
  8
0
  6
CENTER
 62
6
 10
-1.41283798E+02
 20
-4.02968528E+01
 11
-1.41283798E+02
 21
-5.56474387E+01
  0
LINE
  8
0
  6
CENTER
 62
6
 10
-1.41283798E+02
 20
-1.09983613E+02
 11
-1.41283798E+02
 21
-1.27039811E+02
  0
LINE
  8
0
  6
CENTER
 62
6
 10
-1.65783798E+02
 20
-3.81562125E+01
 11
-1.65783798E+02
 21
-5.81562125E+01
  0
LINE
  8
0
  6
CENTER
 62
6
 10
-1.75783798E+02
 20
-1.18156213E+02
 11
-1.33120651E+02
 21
-1.18156213E+02
  0
LINE
  8
0
  6
CENTER
 62
6
 10
-1.65783798E+02
 20
-1.08156213E+02
 11
-1.65783798E+02
 21
-1.28156213E+02
  0
LINE
  8
0
  6
CENTER
 62
6
 10
-7.12837982E+01
 20
-5.58910910E+01
 11
-7.12837982E+01
 21
-3.95658805E+01
  0
LINE
  8
0
 62
4
 10
-1.69783798E+02
 20
-3.56562125E+01
 11
-4.27837982E+01
 21
-3.56562125E+01
  0
ARC
  8
0
 62
4
 10
-4.27837982E+01
 20
-4.36562125E+01
 40
8.00000000E+00
 50
0.00000000E+00
 51
8.99999818E+01
  0
ARC
  8
0
 62
4
 10
-1.69783798E+02
 20
-1.22656213E+02
 40
8.00000000E+00
 50
1.79999964E+02
 51
2.70000001E+02
  0
ARC
  8
0
 62
4
 10
-1.69783798E+02
 20
-4.36562125E+01
 40
8.00000000E+00
 50
8.99999818E+01
 51
1.79999964E+02
  0
CIRCLE
  8
0
 62
4
 10
-4.67837982E+01
 20
-1.18156213E+02
 40
6.00000000E+00
  0
CIRCLE
  8
0
 62
4
 10
-4.67837982E+01
 20
-4.81562125E+01
 40
6.00000000E+00
  0
CIRCLE
  8
0
 62
4
 10
-1.65783798E+02
 20
-1.18156213E+02
 40
6.00000000E+00
  0
CIRCLE
  8
0
 62
4
 10
-1.65783798E+02
 20
-4.81562125E+01
 40
6.00000000E+00
  0
CIRCLE
  8
0
 62
4
 10
-1.06283798E+02
 20
-8.30013968E+01
 40
2.10111103E+01
  0
ARC
  8
0
 62
4
 10
-4.27837982E+01
 20
-1.22656213E+02
 40
8.00000000E+00
 50
2.70000018E+02
 51
0.00000000E+00
  0
CIRCLE
  8
0
 62
4
 10
-1.41283798E+02
 20
-1.18156213E+02
 40
4.84999990E+00
  0
CIRCLE
  8
0
 62
4
 10
-1.41283798E+02
 20
-4.81562125E+01
 40
4.84999990E+00
  0
CIRCLE
  8
0
 62
4
 10
-7.12837982E+01
 20
-4.81562125E+01
 40
4.84999990E+00
  0
CIRCLE
  8
0
 62
4
 10
-7.12837982E+01
 20
-1.18156213E+02
 40
4.84999990E+00
  0
LINE
  8
0
  6
CENTER
 62
6
 10
7.20819092E+01
 20
9.19986184E+01
 11
1.15239987E+02
 21
9.19986184E+01
  0
LINE
  8
0
 62
4
 10
1.02716195E+02
 20
1.63498618E+02
 11
1.02716195E+02
 21
2.04986489E+01
  0
LINE
  8
0
  6
CENTER
 62
6
 10
1.09629437E+02
 20
5.69986184E+01
 11
8.17161942E+01
 21
5.69986184E+01
  0
LINE
  8
0
  6
CENTER
 62
6
 10
1.09629437E+02
 20
1.26998618E+02
 11
8.17161942E+01
 21
1.26998618E+02
  0
LINE
  8
0
 62
4
 10
8.67163162E+01
 20
2.04986489E+01
 11
1.02716195E+02
 21
2.04986489E+01
  0
LINE
  8
0
 62
4
 10
8.67163162E+01
 20
1.63498618E+02
 11
1.02716195E+02
 21
1.63498618E+02
  0
LINE
  8
0
 62
4
 10
8.67163162E+01
 20
1.63498618E+02
 11
8.67163162E+01
 21
2.04986489E+01
  0
LINE
  8
0
  6
CENTER
 62
6
 10
8.17161942E+01
 20
1.51498618E+02
 11
1.09629437E+02
 21
1.51498618E+02
  0
LINE
  8
0
  6
CENTER
 62
6
 10
8.17161942E+01
 20
3.24986184E+01
 11
1.09629437E+02
 21
3.24986184E+01
  0
LINE
  8
0
 62
7
 10
1.62099976E+02
 20
-1.75000000E+02
 11
1.62099976E+02
 21
-1.95000000E+02
  0
LINE
  8
0
 62
7
 10
1.62099976E+02
 20
-1.75000000E+02
 11
2.82099854E+02
 21
-1.75000000E+02
  0
TEXT
  8
0
 62
7
 10
1.69885289E+02
 20
-1.89500000E+02
 40
9.00000000E+00
  1
KOGANEI CORP.
 41
1.04838710E+00
  7
MONOTXT
  0
TEXT
  8
0
 62
7
 10
1.97799690E+02
 20
1.82350000E+02
 40
6.30000019E+00
  1
Ver. 1.0
 41
1.08108124E+00
  7
MONOTXT
  0
LINE
  8
0
 62
7
 10
1.62099976E+02
 20
1.75500000E+02
 11
2.82099854E+02
 21
1.75500000E+02
  0
LINE
  8
0
 62
7
 10
1.62099976E+02
 20
1.95500000E+02
 11
1.62099976E+02
 21
1.75500000E+02
  0
TEXT
  8
0
 62
7
 10
-2.73900291E+02
 20
1.82350000E+02
 40
6.30000019E+00
  1
NEW DYNA CYLINDER
 41
1.07594953E+00
  7
MONOTXT
  0
LINE
  8
0
 62
7
 10
-2.81250000E+02
 20
1.75500000E+02
 11
-1.61250000E+02
 21
1.75500000E+02
  0
LINE
  8
0
 62
7
 10
-1.61250000E+02
 20
1.95500000E+02
 11
-1.61250000E+02
 21
1.75500000E+02
  0
LINE
  8
0
 62
7
 10
2.82099854E+02
 20
1.95500000E+02
 11
2.82099854E+02
 21
-1.95000000E+02
  0
LINE
  8
0
 62
7
 10
-2.81250000E+02
 20
1.95500000E+02
 11
2.82099854E+02
 21
1.95500000E+02
  0
LINE
  8
0
 62
7
 10
-2.81250000E+02
 20
1.95500000E+02
 11
-2.81250000E+02
 21
-1.95000000E+02
  0
LINE
  8
0
 62
7
 10
-2.81250000E+02
 20
-1.95000000E+02
 11
2.82099854E+02
 21
-1.95000000E+02
  0
TEXT
  8
0
 62
7
 10
-2.67600562E+02
 20
1.57350000E+02
 40
6.30000019E+00
  1
MODEL:DDA80-3
 41
1.00000015E+00
  7
MONOTXT
  0
ENDSEC
  0
EOF
