  0
SECTION
  2
HEADER
  9
$ACADVER
  1
AC1003
  9
$EXTMIN
 10
-2.81250000E+02
 20
-1.95000000E+02
  9
$EXTMAX
 10
2.82099854E+02
 20
1.95500000E+02
  9
$LIMMIN
 10
-2.81251000E+02
 20
-1.95001000E+02
  9
$LIMMAX
 10
2.82100854E+02
 20
1.95501000E+02
  9
$SNAPUNIT
 10
1
 20
1
  9
$SNAPBASE
 10
0
 20
0
  9
$GRIDMODE
 70
0
  9
$GRIDUNIT
 10
0
 20
0
  9
$LTSCALE
 40
9.38916423E+00
  9
$TEXTSIZE
 40
3.2
  9
$DIMTAD
 70
0
  9
$LUNITS
 70
2
  9
$LUPREC
 70
4
  9
$FILLETRAD
 40
0
  9
$AUNITS
 70
0
  9
$AUPREC
 70
0
  0
ENDSEC
  0
SECTION
  2
TABLES
  0
TABLE
  2
LTYPE
 70
2
  0
LTYPE
  2
CONTINUOUS
 70
64
  3
Solid-Line
 72
65
 73
0
 40
0
  0
LTYPE
  2
DASHED
 70
64
  3
DASHED
 72
65
 73
2
 40
.75
 49
.5
 49
-.25
  0
LTYPE
  2
HIDDEN
 70
64
  3
HIDDEN
 72
65
 73
2
 40
.375
 49
.25
 49
-.125
  0
LTYPE
  2
CENTER
 70
64
  3
CENTER
 72
65
 73
4
 40
2
 49
1.25
 49
-.25
 49
.25
 49
-.25
  0
LTYPE
  2
PHANTOM
 70
64
  3
PHANTOM
 72
65
 73
6
 40
2.5
 49
1.25
 49
-.25
 49
.25
 49
-.25
 49
.25
 49
-.25
  0
ENDTAB
  0
TABLE
  2
LAYER
 70
1
  0
LAYER
  2
1
 70
0
 62
7
  6
CONTINUOUS
 0
ENDTAB
  0
TABLE
  2
STYLE
 70
2
  0
STYLE
  2
MONOTXT
 70
0
 40
0
 41
1
 50
0
 71
0
 42
.2
  3
monotxt
  0
STYLE
  2
BIGFONT
 70
0
 40
0
 41
1
 50
0
 71
0
 42
.2
  3
txt
  4
bigfont
  0
ENDTAB
  0
ENDSEC
  0
SECTION
  2
ENTITIES
  0
CIRCLE
  8
0
 62
4
 10
-6.92500000E+01
 20
-9.00000000E+01
 40
1.00000000E+01
  0
CIRCLE
  8
0
 62
4
 10
-6.92500000E+01
 20
-9.00000000E+01
 40
9.00000000E+00
  0
ARC
  8
0
 62
4
 10
-5.12500000E+01
 20
-1.00816391E+02
 40
3.00000000E+00
 50
3.28997351E+02
 51
0.00000000E+00
  0
ARC
  8
0
 62
4
 10
-5.73476562E+01
 20
-1.07301025E+02
 40
3.00000000E+00
 50
2.75000003E+02
 51
3.04526020E+02
  0
ARC
  8
0
 62
4
 10
-5.73476562E+01
 20
-7.26989746E+01
 40
3.00000000E+00
 50
5.54739802E+01
 51
8.49999969E+01
  0
ARC
  8
0
 62
4
 10
-5.12500000E+01
 20
-7.91836090E+01
 40
3.00000000E+00
 50
0.00000000E+00
 51
3.10026487E+01
  0
ARC
  8
0
 62
4
 10
-6.92500610E+01
 20
-8.99997101E+01
 40
2.40000916E+01
 50
3.04526020E+02
 51
3.28997351E+02
  0
ARC
  8
0
 62
4
 10
-6.92500610E+01
 20
-9.00002899E+01
 40
2.40000916E+01
 50
3.10026487E+01
 51
5.54739802E+01
  0
ARC
  8
0
 62
4
 10
-9.22500000E+01
 20
-1.34499996E+02
 40
2.00000000E+00
 50
2.70000018E+02
 51
0.00000000E+00
  0
ARC
  8
0
 62
4
 10
-9.22500000E+01
 20
-4.54999924E+01
 40
2.00000000E+00
 50
0.00000000E+00
 51
8.99999818E+01
  0
ARC
  8
0
 62
4
 10
-8.62500000E+01
 20
-6.31436157E+01
 40
4.00000000E+00
 50
1.79999995E+02
 51
2.60000075E+02
  0
ARC
  8
0
 62
4
 10
-8.62500000E+01
 20
-1.16856400E+02
 40
4.00000000E+00
 50
9.50000018E+01
 51
1.80000005E+02
  0
LINE
  8
0
 62
4
 10
-8.65986164E+01
 20
-6.71283605E+01
 11
-5.70861502E+01
 21
-6.97103668E+01
  0
LINE
  8
0
 62
4
 10
-8.65986024E+01
 20
-1.12871617E+02
 11
-5.70861818E+01
 21
-1.10289615E+02
  0
LINE
  8
0
 62
4
 10
-1.01250000E+02
 20
-1.36499996E+02
 11
-9.22500000E+01
 21
-1.36499996E+02
  0
LINE
  8
0
  6
CENTER
 62
6
 10
-6.92500000E+01
 20
-7.67812195E+01
 11
-6.92500000E+01
 21
-1.03607765E+02
  0
LINE
  8
0
 62
4
 10
-9.02500000E+01
 20
-4.54999924E+01
 11
-9.02500000E+01
 21
-1.34499996E+02
  0
LINE
  8
0
  6
CENTER
 62
6
 10
-8.23023682E+01
 20
-5.49999313E+01
 11
-1.04787964E+02
 21
-5.49999313E+01
  0
LINE
  8
0
 62
4
 10
-1.01250000E+02
 20
-1.36499996E+02
 11
-1.01250000E+02
 21
-4.34999924E+01
  0
LINE
  8
0
  6
CENTER
 62
6
 10
-1.06410431E+02
 20
-9.00000000E+01
 11
-4.38493042E+01
 21
-9.00000000E+01
  0
LINE
  8
0
  6
CENTER
 62
6
 10
-8.23023682E+01
 20
-1.24999981E+02
 11
-1.07059418E+02
 21
-1.24999981E+02
  0
LINE
  8
0
 62
4
 10
-4.82500000E+01
 20
-7.91840057E+01
 11
-4.82500000E+01
 21
-1.00816391E+02
  0
LINE
  8
0
 62
4
 10
-1.01250000E+02
 20
-4.34999924E+01
 11
-9.22500000E+01
 21
-4.34999924E+01
  0
LINE
  8
0
 62
4
 10
1.24750000E+02
 20
-1.00000000E+02
 11
9.27500000E+01
 21
-1.00000000E+02
  0
LINE
  8
0
 62
4
 10
1.24750000E+02
 20
-8.00000000E+01
 11
9.27500000E+01
 21
-8.00000000E+01
  0
LINE
  8
0
 62
4
 10
7.52500000E+01
 20
-1.00000000E+02
 11
7.07500000E+01
 21
-1.00000000E+02
  0
LINE
  8
0
 62
4
 10
7.52500000E+01
 20
-8.00000000E+01
 11
7.07500000E+01
 21
-8.00000000E+01
  0
LINE
  8
0
 62
4
 10
1.46749998E+02
 20
-1.00000000E+02
 11
1.42250000E+02
 21
-1.00000000E+02
  0
LINE
  8
0
 62
4
 10
6.97499886E+01
 20
-9.89999991E+01
 11
7.07499897E+01
 21
-1.00000000E+02
  0
LINE
  8
0
 62
4
 10
1.47750004E+02
 20
-8.09999925E+01
 11
1.46750002E+02
 21
-7.99999915E+01
  0
LINE
  8
0
 62
4
 10
1.47749998E+02
 20
-9.90000000E+01
 11
1.47749998E+02
 21
-8.10000000E+01
  0
LINE
  8
0
 62
4
 10
1.46750003E+02
 20
-9.99999920E+01
 11
1.47750004E+02
 21
-9.89999908E+01
  0
LINE
  8
0
 62
4
 10
1.46749998E+02
 20
-8.00000000E+01
 11
1.42250000E+02
 21
-8.00000000E+01
  0
LINE
  8
0
 62
4
 10
1.46749998E+02
 20
-1.00000000E+02
 11
1.46749998E+02
 21
-8.00000000E+01
  0
LINE
  8
0
 62
4
 10
6.97500000E+01
 20
-9.90000000E+01
 11
6.97500000E+01
 21
-8.10000000E+01
  0
LINE
  8
0
 62
4
 10
6.97499951E+01
 20
-8.09999905E+01
 11
7.07499962E+01
 21
-7.99999895E+01
  0
LINE
  8
0
 62
4
 10
7.07500000E+01
 20
-1.00000000E+02
 11
7.07500000E+01
 21
-8.00000000E+01
  0
CIRCLE
  8
0
 62
4
 10
1.43750000E+02
 20
-1.25000008E+02
 40
4.84999990E+00
  0
CIRCLE
  8
0
 62
4
 10
1.43750000E+02
 20
-5.50000076E+01
 40
4.84999990E+00
  0
CIRCLE
  8
0
 62
4
 10
7.37500000E+01
 20
-5.50000076E+01
 40
4.84999990E+00
  0
CIRCLE
  8
0
 62
4
 10
7.37500000E+01
 20
-1.25000008E+02
 40
4.84999990E+00
  0
ARC
  8
0
 62
4
 10
7.37500000E+01
 20
-1.25000008E+02
 40
1.15000000E+01
 50
1.80000036E+02
 51
2.69999984E+02
  0
ARC
  8
0
 62
4
 10
7.37500000E+01
 20
-5.50000076E+01
 40
1.15000000E+01
 50
9.00000162E+01
 51
1.80000032E+02
  0
ARC
  8
0
 62
4
 10
1.43750000E+02
 20
-1.25000008E+02
 40
1.15000000E+01
 50
2.69999984E+02
 51
3.59999964E+02
  0
ARC
  8
0
 62
4
 10
1.43750000E+02
 20
-5.50000076E+01
 40
1.15000000E+01
 50
3.59721781E-05
 51
9.00000162E+01
  0
ARC
  8
0
 62
4
 10
9.22500000E+01
 20
-1.16500000E+02
 40
2.00000000E+00
 50
1.80000036E+02
 51
2.69999984E+02
  0
ARC
  8
0
 62
4
 10
1.25250000E+02
 20
-1.16500000E+02
 40
2.00000000E+00
 50
2.69999984E+02
 51
3.59999964E+02
  0
ARC
  8
0
 62
4
 10
1.25250000E+02
 20
-6.35000000E+01
 40
2.00000000E+00
 50
3.59721781E-05
 51
9.00000162E+01
  0
ARC
  8
0
 62
4
 10
9.22500000E+01
 20
-6.35000000E+01
 40
2.00000000E+00
 50
9.00000162E+01
 51
1.80000032E+02
  0
LINE
  8
0
  6
CENTER
 62
6
 10
1.08750000E+02
 20
-1.40855843E+02
 11
1.08750000E+02
 21
-3.90241165E+01
  0
LINE
  8
0
  6
CENTER
 62
6
 10
1.61034790E+02
 20
-9.00000000E+01
 11
5.90345459E+01
 21
-9.00000000E+01
  0
LINE
  8
0
  6
CENTER
 62
6
 10
1.43750000E+02
 20
-1.15000000E+02
 11
1.43750000E+02
 21
-1.36500008E+02
  0
LINE
  8
0
  6
CENTER
 62
6
 10
1.55750000E+02
 20
-1.25000008E+02
 11
1.33750000E+02
 21
-1.25000008E+02
  0
LINE
  8
0
 62
4
 10
1.43750000E+02
 20
-4.35000076E+01
 11
7.37500000E+01
 21
-4.35000076E+01
  0
LINE
  8
0
 62
4
 10
1.55250000E+02
 20
-5.50000076E+01
 11
1.55250000E+02
 21
-1.25000008E+02
  0
LINE
  8
0
 62
4
 10
6.22500000E+01
 20
-5.50000076E+01
 11
6.22500000E+01
 21
-1.25000008E+02
  0
LINE
  8
0
 62
4
 10
7.52500000E+01
 20
-6.65000000E+01
 11
7.52500000E+01
 21
-1.13500000E+02
  0
LINE
  8
0
 62
4
 10
1.42250000E+02
 20
-6.65000000E+01
 11
1.42250000E+02
 21
-1.13500000E+02
  0
LINE
  8
0
 62
4
 10
1.43750000E+02
 20
-1.36500008E+02
 11
7.37500000E+01
 21
-1.36500008E+02
  0
LINE
  8
0
 62
4
 10
9.27500000E+01
 20
-6.72053070E+01
 11
9.27500000E+01
 21
-1.12794678E+02
  0
LINE
  8
0
 62
4
 10
1.25250000E+02
 20
-1.18500000E+02
 11
9.22500000E+01
 21
-1.18500000E+02
  0
LINE
  8
0
 62
4
 10
1.25250000E+02
 20
-6.15000000E+01
 11
9.22500000E+01
 21
-6.15000000E+01
  0
LINE
  8
0
 62
4
 10
9.02500000E+01
 20
-1.12794678E+02
 11
9.02500000E+01
 21
-1.16500000E+02
  0
LINE
  8
0
 62
4
 10
1.27250000E+02
 20
-1.12794678E+02
 11
1.27250000E+02
 21
-1.16500000E+02
  0
LINE
  8
0
 62
4
 10
1.24750000E+02
 20
-6.72053070E+01
 11
1.24750000E+02
 21
-1.12794678E+02
  0
LINE
  8
0
 62
4
 10
9.02500000E+01
 20
-6.35000000E+01
 11
9.02500000E+01
 21
-6.72053070E+01
  0
LINE
  8
0
 62
4
 10
1.27250000E+02
 20
-6.35000000E+01
 11
1.27250000E+02
 21
-6.72053070E+01
  0
LINE
  8
0
 62
4
 10
9.27500000E+01
 20
-1.06094238E+02
 11
7.52500000E+01
 21
-1.06094238E+02
  0
LINE
  8
0
 62
4
 10
9.27500000E+01
 20
-7.39057312E+01
 11
7.52500000E+01
 21
-7.39057312E+01
  0
LINE
  8
0
 62
4
 10
9.27500000E+01
 20
-1.12794678E+02
 11
9.02500000E+01
 21
-1.12794678E+02
  0
LINE
  8
0
 62
4
 10
1.27250000E+02
 20
-1.12794678E+02
 11
1.24750000E+02
 21
-1.12794678E+02
  0
LINE
  8
0
 62
4
 10
1.27250000E+02
 20
-6.72053070E+01
 11
1.24750000E+02
 21
-6.72053070E+01
  0
LINE
  8
0
 62
4
 10
9.02500000E+01
 20
-1.13500000E+02
 11
7.52500000E+01
 21
-1.13500000E+02
  0
LINE
  8
0
 62
4
 10
9.02500000E+01
 20
-6.65000000E+01
 11
7.52500000E+01
 21
-6.65000000E+01
  0
LINE
  8
0
 62
4
 10
9.27500000E+01
 20
-6.72053070E+01
 11
9.02500000E+01
 21
-6.72053070E+01
  0
LINE
  8
0
 62
4
 10
1.42250000E+02
 20
-1.13500000E+02
 11
1.27250000E+02
 21
-1.13500000E+02
  0
LINE
  8
0
 62
4
 10
1.42250000E+02
 20
-7.39057312E+01
 11
1.24750000E+02
 21
-7.39057312E+01
  0
LINE
  8
0
 62
4
 10
1.42250000E+02
 20
-6.65000000E+01
 11
1.27250000E+02
 21
-6.65000000E+01
  0
LINE
  8
0
 62
4
 10
1.42250000E+02
 20
-1.06094238E+02
 11
1.24750000E+02
 21
-1.06094238E+02
  0
LINE
  8
0
  6
CENTER
 62
6
 10
1.43750000E+02
 20
-4.35000076E+01
 11
1.43750000E+02
 21
-6.50000000E+01
  0
LINE
  8
0
  6
CENTER
 62
6
 10
1.33750000E+02
 20
-5.50000076E+01
 11
1.55750000E+02
 21
-5.50000076E+01
  0
LINE
  8
0
  6
CENTER
 62
6
 10
7.37500000E+01
 20
-1.36500008E+02
 11
7.37500000E+01
 21
-1.15000000E+02
  0
LINE
  8
0
  6
CENTER
 62
6
 10
8.37500000E+01
 20
-1.25000008E+02
 11
6.17500000E+01
 21
-1.25000008E+02
  0
LINE
  8
0
  6
CENTER
 62
6
 10
7.37500000E+01
 20
-6.50000000E+01
 11
7.37500000E+01
 21
-4.35000076E+01
  0
LINE
  8
0
  6
CENTER
 62
6
 10
6.17500000E+01
 20
-5.50000076E+01
 11
8.37500000E+01
 21
-5.50000076E+01
  0
LINE
  8
0
 62
4
 10
-5.92500000E+01
 20
7.40000153E+01
 11
-5.92500000E+01
 21
1.06000000E+02
  0
LINE
  8
0
 62
4
 10
-7.92500000E+01
 20
7.40000153E+01
 11
-7.92500000E+01
 21
1.06000000E+02
  0
LINE
  8
0
 62
4
 10
-5.92500000E+01
 20
1.23500000E+02
 11
-5.92500000E+01
 21
1.28000000E+02
  0
LINE
  8
0
 62
4
 10
-7.92500000E+01
 20
1.23500000E+02
 11
-7.92500000E+01
 21
1.28000000E+02
  0
LINE
  8
0
 62
4
 10
-7.82500000E+01
 20
5.10000000E+01
 11
-6.02500000E+01
 21
5.10000000E+01
  0
LINE
  8
0
 62
4
 10
-5.92500000E+01
 20
5.20000000E+01
 11
-5.92500000E+01
 21
5.65000458E+01
  0
LINE
  8
0
 62
4
 10
-7.82499951E+01
 20
1.28999995E+02
 11
-7.92499961E+01
 21
1.27999993E+02
  0
LINE
  8
0
 62
4
 10
-6.02500027E+01
 20
5.10000033E+01
 11
-5.92500016E+01
 21
5.20000044E+01
  0
LINE
  8
0
 62
4
 10
-7.92500021E+01
 20
5.20000036E+01
 11
-7.82500010E+01
 21
5.10000025E+01
  0
LINE
  8
0
 62
4
 10
-7.92500000E+01
 20
5.20000000E+01
 11
-5.92500000E+01
 21
5.20000000E+01
  0
LINE
  8
0
 62
4
 10
-7.82500000E+01
 20
1.29000000E+02
 11
-6.02500000E+01
 21
1.29000000E+02
  0
LINE
  8
0
 62
4
 10
-6.02500027E+01
 20
1.29000006E+02
 11
-5.92500016E+01
 21
1.28000004E+02
  0
LINE
  8
0
 62
4
 10
-7.92500000E+01
 20
1.28000000E+02
 11
-5.92500000E+01
 21
1.28000000E+02
  0
LINE
  8
0
 62
4
 10
-7.92500000E+01
 20
5.20000000E+01
 11
-7.92500000E+01
 21
5.65000458E+01
  0
ARC
  8
0
 62
4
 10
-9.31913452E+01
 20
5.50000458E+01
 40
9.56589508E+00
 50
2.80616495E+01
 51
7.01935333E+01
  0
ARC
  8
0
 62
4
 10
-8.82500000E+01
 20
7.36901398E+01
 40
2.00000000E+00
 50
2.75194459E+02
 51
2.55221468E-04
  0
ARC
  8
0
 62
4
 10
-8.82500000E+01
 20
1.06309937E+02
 40
2.00000000E+00
 50
3.59999709E+02
 51
8.48054863E+01
  0
ARC
  8
0
 62
4
 10
-9.22500000E+01
 20
1.34500000E+02
 40
2.00000000E+00
 50
3.59999982E+02
 51
8.99999274E+01
  0
ARC
  8
0
 62
4
 10
-9.22500000E+01
 20
4.55000763E+01
 40
2.00000000E+00
 50
2.70000018E+02
 51
3.59999982E+02
  0
ARC
  8
0
 62
4
 10
-5.02500000E+01
 20
5.85000763E+01
 40
2.00000000E+00
 50
2.70000018E+02
 51
3.59999982E+02
  0
ARC
  8
0
 62
4
 10
-5.02502441E+01
 20
1.21500000E+02
 40
2.00000000E+00
 50
3.59999982E+02
 51
8.99999274E+01
  0
ARC
  8
0
 62
4
 10
-9.31913452E+01
 20
1.25000000E+02
 40
9.56589603E+00
 50
2.80616495E+01
 51
7.01935333E+01
  0
ARC
  8
0
 62
4
 10
-9.31913452E+01
 20
5.50000458E+01
 40
9.56589508E+00
 50
2.89806474E+02
 51
3.31938351E+02
  0
ARC
  8
0
 62
4
 10
-9.31913452E+01
 20
1.25000000E+02
 40
9.56589603E+00
 50
2.89806467E+02
 51
3.31938351E+02
  0
LINE
  8
0
 62
4
 10
-9.02500000E+01
 20
1.16000000E+02
 11
-8.99499512E+01
 21
1.16000000E+02
  0
LINE
  8
0
 62
4
 10
-9.02500000E+01
 20
1.34000000E+02
 11
-8.99499512E+01
 21
1.34000000E+02
  0
LINE
  8
0
 62
4
 10
-8.47500000E+01
 20
1.29500000E+02
 11
-8.47500000E+01
 21
1.20500000E+02
  0
LINE
  8
0
 62
4
 10
-8.99499512E+01
 20
1.34000000E+02
 11
-8.99499512E+01
 21
1.16000000E+02
  0
LINE
  8
0
 62
4
 10
-9.02500000E+01
 20
6.40000153E+01
 11
-8.99499512E+01
 21
6.40000153E+01
  0
LINE
  8
0
 62
4
 10
-9.02500000E+01
 20
4.60000458E+01
 11
-8.99499512E+01
 21
4.60000458E+01
  0
LINE
  8
0
 62
4
 10
-8.47500000E+01
 20
5.95000458E+01
 11
-8.47500000E+01
 21
5.05000458E+01
  0
LINE
  8
0
 62
4
 10
-8.99499512E+01
 20
6.40000153E+01
 11
-8.99499512E+01
 21
4.60000458E+01
  0
LINE
  8
0
 62
4
 10
-5.02500000E+01
 20
1.23500000E+02
 11
-8.47500000E+01
 21
1.23500000E+02
  0
LINE
  8
0
 62
4
 10
-8.62500000E+01
 20
7.40000153E+01
 11
-8.62500000E+01
 21
7.36901398E+01
  0
LINE
  8
0
 62
4
 10
-8.80689611E+01
 20
7.16983341E+01
 11
-9.02500001E+01
 21
7.15000579E+01
  0
LINE
  8
0
 62
4
 10
-8.80688871E+01
 20
1.08301759E+02
 11
-9.02499869E+01
 21
1.08500041E+02
  0
LINE
  8
0
 62
4
 10
-8.62500000E+01
 20
1.06309937E+02
 11
-8.62500000E+01
 21
1.06000000E+02
  0
LINE
  8
0
  6
CENTER
 62
6
 10
-6.92500000E+01
 20
1.30767395E+02
 11
-6.92500000E+01
 21
4.90650787E+01
  0
LINE
  8
0
 62
4
 10
-4.82500000E+01
 20
7.40000153E+01
 11
-4.82500000E+01
 21
5.85000763E+01
  0
LINE
  8
0
 62
4
 10
-5.02500000E+01
 20
5.65000458E+01
 11
-8.47500000E+01
 21
5.65000458E+01
  0
LINE
  8
0
 62
4
 10
-4.82500000E+01
 20
1.06000000E+02
 11
-8.62500000E+01
 21
1.06000000E+02
  0
LINE
  8
0
 62
4
 10
-4.82500000E+01
 20
7.40000153E+01
 11
-8.62500000E+01
 21
7.40000153E+01
  0
LINE
  8
0
 62
4
 10
-9.02500000E+01
 20
1.34500000E+02
 11
-9.02500000E+01
 21
4.55000458E+01
  0
LINE
  8
0
 62
4
 10
-9.22500000E+01
 20
4.35000458E+01
 11
-1.01250000E+02
 21
4.35000458E+01
  0
LINE
  8
0
 62
4
 10
-9.22500000E+01
 20
1.36500000E+02
 11
-1.01250000E+02
 21
1.36500000E+02
  0
LINE
  8
0
 62
4
 10
-4.82500000E+01
 20
1.21500000E+02
 11
-4.82500000E+01
 21
1.06000000E+02
  0
LINE
  8
0
  6
CENTER
 62
6
 10
-8.11036682E+01
 20
1.25000000E+02
 11
-1.04939545E+02
 21
1.25000000E+02
  0
LINE
  8
0
  6
CENTER
 62
6
 10
-8.23023682E+01
 20
5.50000153E+01
 11
-1.05162292E+02
 21
5.50000153E+01
  0
LINE
  8
0
 62
4
 10
-1.01250000E+02
 20
4.35000458E+01
 11
-1.01250000E+02
 21
1.36500000E+02
  0
LINE
  8
0
  6
CENTER
 62
6
 10
-1.06498901E+02
 20
9.00000000E+01
 11
-4.38493042E+01
 21
9.00000000E+01
  0
LINE
  8
0
 62
7
 10
1.62099976E+02
 20
-1.75000000E+02
 11
1.62099976E+02
 21
-1.95000000E+02
  0
LINE
  8
0
 62
7
 10
1.62099976E+02
 20
-1.75000000E+02
 11
2.82099854E+02
 21
-1.75000000E+02
  0
TEXT
  8
0
 62
7
 10
1.69885289E+02
 20
-1.89500000E+02
 40
9.00000000E+00
  1
KOGANEI CORP.
 41
1.04838710E+00
  7
MONOTXT
  0
TEXT
  8
0
 62
7
 10
1.97799690E+02
 20
1.82350000E+02
 40
6.30000019E+00
  1
Ver. 1.0
 41
1.08108124E+00
  7
MONOTXT
  0
LINE
  8
0
 62
7
 10
1.62099976E+02
 20
1.75500000E+02
 11
2.82099854E+02
 21
1.75500000E+02
  0
LINE
  8
0
 62
7
 10
1.62099976E+02
 20
1.95500000E+02
 11
1.62099976E+02
 21
1.75500000E+02
  0
TEXT
  8
0
 62
7
 10
-2.73900291E+02
 20
1.82350000E+02
 40
6.30000019E+00
  1
NEW DYNA CYLINDER
 41
1.07594953E+00
  7
MONOTXT
  0
LINE
  8
0
 62
7
 10
-2.81250000E+02
 20
1.75500000E+02
 11
-1.61250000E+02
 21
1.75500000E+02
  0
LINE
  8
0
 62
7
 10
-1.61250000E+02
 20
1.95500000E+02
 11
-1.61250000E+02
 21
1.75500000E+02
  0
LINE
  8
0
 62
7
 10
2.82099854E+02
 20
1.95500000E+02
 11
2.82099854E+02
 21
-1.95000000E+02
  0
LINE
  8
0
 62
7
 10
-2.81250000E+02
 20
1.95500000E+02
 11
2.82099854E+02
 21
1.95500000E+02
  0
LINE
  8
0
 62
7
 10
-2.81250000E+02
 20
1.95500000E+02
 11
-2.81250000E+02
 21
-1.95000000E+02
  0
LINE
  8
0
 62
7
 10
-2.81250000E+02
 20
-1.95000000E+02
 11
2.82099854E+02
 21
-1.95000000E+02
  0
TEXT
  8
0
 62
7
 10
-2.67600562E+02
 20
1.57350000E+02
 40
6.30000019E+00
  1
MODEL:DDA80-7
 41
1.00000015E+00
  7
MONOTXT
  0
ENDSEC
  0
EOF
