  0
SECTION
  2
HEADER
  9
$ACADVER
  1
AC1003
  9
$EXTMIN
 10
-2.81250000E+02
 20
-6.81320229E+02
  9
$EXTMAX
 10
4.72260841E+02
 20
3.95755370E+02
  9
$LIMMIN
 10
-2.81251000E+02
 20
-6.81321229E+02
  9
$LIMMAX
 10
4.72261841E+02
 20
3.95756370E+02
  9
$SNAPUNIT
 10
1
 20
1
  9
$SNAPBASE
 10
0
 20
0
  9
$GRIDMODE
 70
0
  9
$GRIDUNIT
 10
0
 20
0
  9
$LTSCALE
 40
1.79512600E+01
  9
$TEXTSIZE
 40
3.2
  9
$DIMTAD
 70
0
  9
$LUNITS
 70
2
  9
$LUPREC
 70
4
  9
$FILLETRAD
 40
0
  9
$AUNITS
 70
0
  9
$AUPREC
 70
0
  0
ENDSEC
  0
SECTION
  2
TABLES
  0
TABLE
  2
LTYPE
 70
2
  0
LTYPE
  2
CONTINUOUS
 70
64
  3
Solid-Line
 72
65
 73
0
 40
0
  0
LTYPE
  2
DASHED
 70
64
  3
DASHED
 72
65
 73
2
 40
.75
 49
.5
 49
-.25
  0
LTYPE
  2
HIDDEN
 70
64
  3
HIDDEN
 72
65
 73
2
 40
.375
 49
.25
 49
-.125
  0
LTYPE
  2
CENTER
 70
64
  3
CENTER
 72
65
 73
4
 40
2
 49
1.25
 49
-.25
 49
.25
 49
-.25
  0
LTYPE
  2
PHANTOM
 70
64
  3
PHANTOM
 72
65
 73
6
 40
2.5
 49
1.25
 49
-.25
 49
.25
 49
-.25
 49
.25
 49
-.25
  0
ENDTAB
  0
TABLE
  2
LAYER
 70
1
  0
LAYER
  2
1
 70
0
 62
7
  6
CONTINUOUS
 0
ENDTAB
  0
TABLE
  2
STYLE
 70
2
  0
STYLE
  2
MONOTXT
 70
0
 40
0
 41
1
 50
0
 71
0
 42
.2
  3
monotxt
  0
STYLE
  2
BIGFONT
 70
0
 40
0
 41
1
 50
0
 71
0
 42
.2
  3
txt
  4
bigfont
  0
ENDTAB
  0
ENDSEC
  0
SECTION
  2
ENTITIES
  0
LINE
  8
0
 62
4
 10
-1.51250000E+02
 20
-1.36499996E+02
 11
-1.51250000E+02
 21
-4.34999924E+01
  0
LINE
  8
0
 62
4
 10
-1.40250000E+02
 20
-4.54999924E+01
 11
-1.40250000E+02
 21
-1.34499996E+02
  0
LINE
  8
0
 62
4
 10
-9.82500000E+01
 20
-8.17974972E+01
 11
-3.34332090E+01
 21
-1.38494638E+02
  0
LINE
  8
0
 62
4
 10
-1.25750000E+02
 20
-1.13145905E+02
 11
-1.25750000E+02
 21
-1.33000000E+02
  0
ARC
  8
0
 62
4
 10
-1.37663910E+02
 20
-1.16277649E+02
 40
1.23186445E+01
 50
1.47278345E+01
 51
2.05396249E+01
  0
CIRCLE
  8
0
 62
4
 10
-1.19250000E+02
 20
-9.00000000E+01
 40
1.00000000E+01
  0
CIRCLE
  8
0
 62
4
 10
-1.19250000E+02
 20
-9.00000000E+01
 40
9.00000000E+00
  0
ARC
  8
0
 62
4
 10
-1.01250000E+02
 20
-1.00816391E+02
 40
3.00000000E+00
 50
3.28997351E+02
 51
0.00000000E+00
  0
ARC
  8
0
 62
4
 10
-1.07347656E+02
 20
-1.07301025E+02
 40
3.00000000E+00
 50
2.75000003E+02
 51
3.04526020E+02
  0
ARC
  8
0
 62
4
 10
-1.07347656E+02
 20
-7.26989746E+01
 40
3.00000000E+00
 50
5.54739802E+01
 51
8.49999969E+01
  0
ARC
  8
0
 62
4
 10
-1.01250000E+02
 20
-7.91836090E+01
 40
3.00000000E+00
 50
0.00000000E+00
 51
3.10026487E+01
  0
ARC
  8
0
 62
4
 10
-1.19250061E+02
 20
-8.99997101E+01
 40
2.40000916E+01
 50
3.04526020E+02
 51
3.28997351E+02
  0
ARC
  8
0
 62
4
 10
-1.19250061E+02
 20
-9.00002899E+01
 40
2.40000916E+01
 50
3.10026487E+01
 51
5.54739802E+01
  0
ARC
  8
0
 62
4
 10
-1.42250000E+02
 20
-4.54999924E+01
 40
2.00000000E+00
 50
0.00000000E+00
 51
8.99999818E+01
  0
ARC
  8
0
 62
4
 10
-1.36250000E+02
 20
-6.31436157E+01
 40
4.00000000E+00
 50
1.79999995E+02
 51
2.60000075E+02
  0
ARC
  8
0
 62
4
 10
-1.36250000E+02
 20
-1.16856400E+02
 40
4.00000000E+00
 50
9.50000018E+01
 51
1.80000005E+02
  0
LINE
  8
0
 62
4
 10
-1.36598616E+02
 20
-6.71283605E+01
 11
-1.07086150E+02
 21
-6.97103668E+01
  0
LINE
  8
0
 62
4
 10
-1.36598602E+02
 20
-1.12871617E+02
 11
-1.07086182E+02
 21
-1.10289615E+02
  0
LINE
  8
0
  6
CENTER
 62
6
 10
-1.19250000E+02
 20
-7.67812195E+01
 11
-1.19250000E+02
 21
-1.03607765E+02
  0
LINE
  8
0
  6
CENTER
 62
6
 10
-1.32302368E+02
 20
-5.49999313E+01
 11
-1.54787964E+02
 21
-5.49999313E+01
  0
LINE
  8
0
  6
CENTER
 62
6
 10
-1.56410431E+02
 20
-9.00000000E+01
 11
-9.38493042E+01
 21
-9.00000000E+01
  0
LINE
  8
0
 62
4
 10
-9.82500000E+01
 20
-7.91840057E+01
 11
-9.82500000E+01
 21
-1.00816391E+02
  0
LINE
  8
0
 62
4
 10
-1.51250000E+02
 20
-4.34999924E+01
 11
-1.42250000E+02
 21
-4.34999924E+01
  0
ARC
  8
0
 62
4
 10
-3.47499847E+01
 20
-1.40000000E+02
 40
2.00000000E+00
 50
3.59721781E-05
 51
8.99999818E+01
  0
ARC
  8
0
 62
4
 10
-1.28750000E+02
 20
-1.39708191E+02
 40
2.00000000E+00
 50
1.06601549E+02
 51
1.79999964E+02
  0
ARC
  8
0
 62
4
 10
-1.30750000E+02
 20
-1.33000000E+02
 40
5.00000000E+00
 50
2.86601585E+02
 51
0.00000000E+00
  0
LINE
  8
0
 62
4
 10
-3.27499970E+01
 20
-1.49499992E+02
 11
-3.32499993E+01
 21
-1.49999990E+02
  0
LINE
  8
0
 62
4
 10
-1.30750001E+02
 20
-1.49499993E+02
 11
-1.30250012E+02
 21
-1.49999983E+02
  0
LINE
  8
0
  6
CENTER
 62
6
 10
-4.92500000E+01
 20
-1.54250011E+02
 11
-4.92500000E+01
 21
-1.34250000E+02
  0
LINE
  8
0
  6
CENTER
 62
6
 10
-1.14250000E+02
 20
-1.54250011E+02
 11
-1.14250000E+02
 21
-1.34250000E+02
  0
LINE
  8
0
 62
4
 10
-1.29790192E+02
 20
-1.38000000E+02
 11
-3.47499847E+01
 21
-1.38000000E+02
  0
LINE
  8
0
 62
4
 10
-1.30750000E+02
 20
-1.49500004E+02
 11
-1.30750000E+02
 21
-1.39708191E+02
  0
LINE
  8
0
 62
4
 10
-3.27499847E+01
 20
-1.49500004E+02
 11
-3.27499847E+01
 21
-1.40000000E+02
  0
LINE
  8
0
 62
4
 10
-1.30250000E+02
 20
-1.50000004E+02
 11
-3.32500000E+01
 21
-1.50000004E+02
  0
ARC
  8
0
 62
4
 10
-1.42250000E+02
 20
-1.34499996E+02
 40
2.00000000E+00
 50
2.70000018E+02
 51
0.00000000E+00
  0
LINE
  8
0
 62
4
 10
-1.51250000E+02
 20
-1.36499996E+02
 11
-1.42250000E+02
 21
-1.36499996E+02
  0
LINE
  8
0
  6
CENTER
 62
6
 10
-1.32302368E+02
 20
-1.24999981E+02
 11
-1.57059418E+02
 21
-1.24999981E+02
  0
LINE
  8
0
 62
4
 10
9.47500000E+01
 20
-1.18500000E+02
 11
9.22500000E+01
 21
-1.18500000E+02
  0
LINE
  8
0
 62
4
 10
9.00178002E+01
 20
-1.36500008E+02
 11
7.37500000E+01
 21
-1.36500008E+02
  0
ARC
  8
0
 62
4
 10
1.08750000E+02
 20
-3.75660194E+02
 40
3.05660034E+02
 50
8.69994391E+01
 51
9.30005595E+01
  0
ARC
  8
0
 62
4
 10
1.25724976E+02
 20
-7.78548813E+01
 40
3.00000000E+00
 50
1.08965368E+02
 51
1.72594249E+02
  0
ARC
  8
0
 62
4
 10
9.17674561E+01
 20
-7.78548813E+01
 40
3.00000000E+00
 50
3.53816123E+02
 51
7.08820842E+01
  0
ARC
  8
0
 62
4
 10
9.17500000E+01
 20
-1.12828415E+02
 40
3.00000000E+00
 50
3.59999963E+02
 51
7.05286970E+01
  0
ARC
  8
0
 62
4
 10
8.47502441E+01
 20
-1.27999840E+02
 40
1.00000000E+01
 50
2.70000018E+02
 51
3.59999946E+02
  0
ARC
  8
0
 62
4
 10
4.32502441E+01
 20
-1.39999809E+02
 40
2.00000000E+00
 50
9.00000913E+01
 51
1.80000019E+02
  0
ARC
  8
0
 62
4
 10
1.25750000E+02
 20
-1.12828415E+02
 40
3.00000000E+00
 50
1.09471267E+02
 51
1.80000019E+02
  0
ARC
  8
0
 62
4
 10
1.32750000E+02
 20
-1.27999840E+02
 40
1.00000000E+01
 50
1.79999964E+02
 51
2.69999946E+02
  0
ARC
  8
0
 62
4
 10
1.74250000E+02
 20
-1.39999809E+02
 40
2.00000000E+00
 50
1.79860890E-05
 51
8.99999274E+01
  0
LINE
  8
0
  6
DASHED
 62
4
 10
1.75250000E+02
 20
-1.38499809E+02
 11
1.75250000E+02
 21
-1.38267761E+02
  0
LINE
  8
0
  6
DASHED
 62
4
 10
4.22502441E+01
 20
-1.38499809E+02
 11
4.22502441E+01
 21
-1.38267761E+02
  0
LINE
  8
0
 62
4
 10
1.76249971E+02
 20
-1.49499788E+02
 11
1.75749959E+02
 21
-1.49999793E+02
  0
LINE
  8
0
 62
4
 10
4.12502141E+01
 20
-1.49499777E+02
 11
4.17502301E+01
 21
-1.49999783E+02
  0
LINE
  8
0
  6
CENTER
 62
6
 10
5.62502136E+01
 20
-1.53999783E+02
 11
5.62502136E+01
 21
-1.33999809E+02
  0
LINE
  8
0
 62
4
 10
9.47500000E+01
 20
-1.27999809E+02
 11
9.47500000E+01
 21
-7.75317154E+01
  0
LINE
  8
0
 62
4
 10
8.47502136E+01
 20
-1.37999809E+02
 11
4.32502136E+01
 21
-1.37999809E+02
  0
LINE
  8
0
 62
4
 10
4.12502136E+01
 20
-1.49499783E+02
 11
4.12502136E+01
 21
-1.39999809E+02
  0
LINE
  8
0
 62
4
 10
1.75749969E+02
 20
-1.49999798E+02
 11
4.17502441E+01
 21
-1.49999798E+02
  0
LINE
  8
0
  6
CENTER
 62
6
 10
1.61250000E+02
 20
-1.33999809E+02
 11
1.61250000E+02
 21
-1.53999783E+02
  0
LINE
  8
0
 62
4
 10
1.22750000E+02
 20
-7.74681931E+01
 11
1.22750000E+02
 21
-1.27999809E+02
  0
LINE
  8
0
 62
4
 10
1.74250000E+02
 20
-1.37999809E+02
 11
1.32750000E+02
 21
-1.37999809E+02
  0
LINE
  8
0
 62
4
 10
1.76250000E+02
 20
-1.39999809E+02
 11
1.76250000E+02
 21
-1.49499798E+02
  0
LINE
  8
0
 62
4
 10
7.52500000E+01
 20
-1.00000000E+02
 11
7.07500000E+01
 21
-1.00000000E+02
  0
LINE
  8
0
 62
4
 10
7.52500000E+01
 20
-8.00000000E+01
 11
7.07500000E+01
 21
-8.00000000E+01
  0
LINE
  8
0
 62
4
 10
1.46749998E+02
 20
-1.00000000E+02
 11
1.42250000E+02
 21
-1.00000000E+02
  0
LINE
  8
0
 62
4
 10
6.97499886E+01
 20
-9.89999991E+01
 11
7.07499897E+01
 21
-1.00000000E+02
  0
LINE
  8
0
 62
4
 10
1.47750004E+02
 20
-8.09999925E+01
 11
1.46750002E+02
 21
-7.99999915E+01
  0
LINE
  8
0
 62
4
 10
1.47749998E+02
 20
-9.90000000E+01
 11
1.47749998E+02
 21
-8.10000000E+01
  0
LINE
  8
0
 62
4
 10
1.46750003E+02
 20
-9.99999920E+01
 11
1.47750004E+02
 21
-9.89999908E+01
  0
LINE
  8
0
 62
4
 10
1.46749998E+02
 20
-8.00000000E+01
 11
1.42250000E+02
 21
-8.00000000E+01
  0
LINE
  8
0
 62
4
 10
1.46749998E+02
 20
-1.00000000E+02
 11
1.46749998E+02
 21
-8.00000000E+01
  0
LINE
  8
0
 62
4
 10
6.97500000E+01
 20
-9.90000000E+01
 11
6.97500000E+01
 21
-8.10000000E+01
  0
LINE
  8
0
 62
4
 10
6.97499951E+01
 20
-8.09999905E+01
 11
7.07499962E+01
 21
-7.99999895E+01
  0
LINE
  8
0
 62
4
 10
7.07500000E+01
 20
-1.00000000E+02
 11
7.07500000E+01
 21
-8.00000000E+01
  0
CIRCLE
  8
0
 62
4
 10
1.43750000E+02
 20
-1.25000008E+02
 40
4.84999990E+00
  0
CIRCLE
  8
0
 62
4
 10
1.43750000E+02
 20
-5.50000076E+01
 40
4.84999990E+00
  0
CIRCLE
  8
0
 62
4
 10
7.37500000E+01
 20
-5.50000076E+01
 40
4.84999990E+00
  0
CIRCLE
  8
0
 62
4
 10
7.37500000E+01
 20
-1.25000008E+02
 40
4.84999990E+00
  0
ARC
  8
0
 62
4
 10
7.37500000E+01
 20
-1.25000008E+02
 40
1.15000000E+01
 50
1.80000036E+02
 51
2.69999984E+02
  0
ARC
  8
0
 62
4
 10
7.37500000E+01
 20
-5.50000076E+01
 40
1.15000000E+01
 50
9.00000162E+01
 51
1.80000032E+02
  0
ARC
  8
0
 62
4
 10
1.43750000E+02
 20
-1.25000008E+02
 40
1.15000000E+01
 50
2.69999984E+02
 51
3.59999964E+02
  0
ARC
  8
0
 62
4
 10
1.43750000E+02
 20
-5.50000076E+01
 40
1.15000000E+01
 50
3.59721781E-05
 51
9.00000162E+01
  0
ARC
  8
0
 62
4
 10
9.22500000E+01
 20
-1.16500000E+02
 40
2.00000000E+00
 50
1.80000036E+02
 51
2.69999984E+02
  0
ARC
  8
0
 62
4
 10
1.25250000E+02
 20
-1.16500000E+02
 40
2.00000000E+00
 50
2.69999984E+02
 51
3.59999964E+02
  0
ARC
  8
0
 62
4
 10
1.25250000E+02
 20
-6.35000000E+01
 40
2.00000000E+00
 50
3.59721781E-05
 51
9.00000162E+01
  0
ARC
  8
0
 62
4
 10
9.22500000E+01
 20
-6.35000000E+01
 40
2.00000000E+00
 50
9.00000162E+01
 51
1.80000032E+02
  0
LINE
  8
0
  6
CENTER
 62
6
 10
1.08750000E+02
 20
-1.40855843E+02
 11
1.08750000E+02
 21
-3.90241165E+01
  0
LINE
  8
0
  6
CENTER
 62
6
 10
1.61034790E+02
 20
-9.00000000E+01
 11
5.90345459E+01
 21
-9.00000000E+01
  0
LINE
  8
0
  6
CENTER
 62
6
 10
1.43750000E+02
 20
-1.15000000E+02
 11
1.43750000E+02
 21
-1.36500008E+02
  0
LINE
  8
0
  6
CENTER
 62
6
 10
1.55750000E+02
 20
-1.25000008E+02
 11
1.33750000E+02
 21
-1.25000008E+02
  0
LINE
  8
0
 62
4
 10
1.43750000E+02
 20
-4.35000076E+01
 11
7.37500000E+01
 21
-4.35000076E+01
  0
LINE
  8
0
 62
4
 10
1.55250000E+02
 20
-5.50000076E+01
 11
1.55250000E+02
 21
-1.25000008E+02
  0
LINE
  8
0
 62
4
 10
6.22500000E+01
 20
-5.50000076E+01
 11
6.22500000E+01
 21
-1.25000008E+02
  0
LINE
  8
0
 62
4
 10
7.52500000E+01
 20
-6.65000000E+01
 11
7.52500000E+01
 21
-1.13500000E+02
  0
LINE
  8
0
 62
4
 10
1.42250000E+02
 20
-6.65000000E+01
 11
1.42250000E+02
 21
-1.13500000E+02
  0
LINE
  8
0
 62
4
 10
1.43750000E+02
 20
-1.36500008E+02
 11
1.27482444E+02
 21
-1.36500008E+02
  0
LINE
  8
0
 62
4
 10
9.27500000E+01
 20
-6.72053070E+01
 11
9.27500000E+01
 21
-1.12794678E+02
  0
LINE
  8
0
 62
4
 10
1.25250000E+02
 20
-1.18500000E+02
 11
1.22750000E+02
 21
-1.18500000E+02
  0
LINE
  8
0
 62
4
 10
1.25250000E+02
 20
-6.15000000E+01
 11
9.22500000E+01
 21
-6.15000000E+01
  0
LINE
  8
0
 62
4
 10
9.02500000E+01
 20
-1.12794678E+02
 11
9.02500000E+01
 21
-1.16500000E+02
  0
LINE
  8
0
 62
4
 10
1.27250000E+02
 20
-1.12794678E+02
 11
1.27250000E+02
 21
-1.16500000E+02
  0
LINE
  8
0
 62
4
 10
1.24750000E+02
 20
-6.72053070E+01
 11
1.24750000E+02
 21
-1.12794678E+02
  0
LINE
  8
0
 62
4
 10
9.02500000E+01
 20
-6.35000000E+01
 11
9.02500000E+01
 21
-6.72053070E+01
  0
LINE
  8
0
 62
4
 10
1.27250000E+02
 20
-6.35000000E+01
 11
1.27250000E+02
 21
-6.72053070E+01
  0
LINE
  8
0
 62
4
 10
9.27500000E+01
 20
-1.06094238E+02
 11
7.52500000E+01
 21
-1.06094238E+02
  0
LINE
  8
0
 62
4
 10
9.27500000E+01
 20
-7.39057312E+01
 11
7.52500000E+01
 21
-7.39057312E+01
  0
LINE
  8
0
 62
4
 10
9.27500000E+01
 20
-1.12794678E+02
 11
9.02500000E+01
 21
-1.12794678E+02
  0
LINE
  8
0
 62
4
 10
1.27250000E+02
 20
-1.12794678E+02
 11
1.24750000E+02
 21
-1.12794678E+02
  0
LINE
  8
0
 62
4
 10
1.27250000E+02
 20
-6.72053070E+01
 11
1.24750000E+02
 21
-6.72053070E+01
  0
LINE
  8
0
 62
4
 10
9.02500000E+01
 20
-1.13500000E+02
 11
7.52500000E+01
 21
-1.13500000E+02
  0
LINE
  8
0
 62
4
 10
9.02500000E+01
 20
-6.65000000E+01
 11
7.52500000E+01
 21
-6.65000000E+01
  0
LINE
  8
0
 62
4
 10
9.27500000E+01
 20
-6.72053070E+01
 11
9.02500000E+01
 21
-6.72053070E+01
  0
LINE
  8
0
 62
4
 10
1.42250000E+02
 20
-1.13500000E+02
 11
1.27250000E+02
 21
-1.13500000E+02
  0
LINE
  8
0
 62
4
 10
1.42250000E+02
 20
-7.39057312E+01
 11
1.24750000E+02
 21
-7.39057312E+01
  0
LINE
  8
0
 62
4
 10
1.42250000E+02
 20
-6.65000000E+01
 11
1.27250000E+02
 21
-6.65000000E+01
  0
LINE
  8
0
 62
4
 10
1.42250000E+02
 20
-1.06094238E+02
 11
1.24750000E+02
 21
-1.06094238E+02
  0
LINE
  8
0
  6
CENTER
 62
6
 10
1.43750000E+02
 20
-4.35000076E+01
 11
1.43750000E+02
 21
-6.50000000E+01
  0
LINE
  8
0
  6
CENTER
 62
6
 10
1.33750000E+02
 20
-5.50000076E+01
 11
1.55750000E+02
 21
-5.50000076E+01
  0
LINE
  8
0
  6
CENTER
 62
6
 10
7.37500000E+01
 20
-1.36500008E+02
 11
7.37500000E+01
 21
-1.15000000E+02
  0
LINE
  8
0
  6
CENTER
 62
6
 10
8.37500000E+01
 20
-1.25000008E+02
 11
6.17500000E+01
 21
-1.25000008E+02
  0
LINE
  8
0
  6
CENTER
 62
6
 10
7.37500000E+01
 20
-6.50000000E+01
 11
7.37500000E+01
 21
-4.35000076E+01
  0
LINE
  8
0
  6
CENTER
 62
6
 10
6.17500000E+01
 20
-5.50000076E+01
 11
8.37500000E+01
 21
-5.50000076E+01
  0
CIRCLE
  8
0
 62
4
 10
-1.19250000E+02
 20
8.99999999E+01
 40
4.00000000E+00
  0
CIRCLE
  8
0
 62
4
 10
-1.19250000E+02
 20
8.99999999E+01
 40
2.00000000E+00
  0
ARC
  8
0
 62
4
 10
-3.72499848E+01
 20
7.29999996E+01
 40
3.00000000E+00
 50
3.59999981E+02
 51
8.99999818E+01
  0
ARC
  8
0
 62
4
 10
-1.03098480E+02
 20
7.29999998E+01
 40
3.00000000E+00
 50
8.99999274E+01
 51
1.60528734E+02
  0
ARC
  8
0
 62
4
 10
-9.64215699E+01
 20
7.29999998E+01
 40
3.00000000E+00
 50
8.99999274E+01
 51
1.60528734E+02
  0
ARC
  8
0
 62
4
 10
-3.72499847E+01
 20
1.07000000E+02
 40
3.00000000E+00
 50
2.70000018E+02
 51
3.57715557E-05
  0
ARC
  8
0
 62
4
 10
-1.03098480E+02
 20
1.07000000E+02
 40
3.00000000E+00
 50
1.99471266E+02
 51
2.70000072E+02
  0
ARC
  8
0
 62
4
 10
-9.64215698E+01
 20
1.07000000E+02
 40
3.00000000E+00
 50
1.99471266E+02
 51
2.70000072E+02
  0
CIRCLE
  8
0
 62
4
 10
-4.92499998E+01
 20
1.42499756E+02
 40
7.00000000E+00
  0
CIRCLE
  8
0
 62
4
 10
-4.92499998E+01
 20
1.42499756E+02
 40
1.40000000E+01
  0
CIRCLE
  8
0
 62
4
 10
-1.14250000E+02
 20
1.42499756E+02
 40
7.00000000E+00
  0
ARC
  8
0
 62
4
 10
-1.14250000E+02
 20
1.42499756E+02
 40
1.40000000E+01
 50
2.85362657E+02
 51
2.54637342E+02
  0
CIRCLE
  8
0
 62
4
 10
-4.92500002E+01
 20
3.74999996E+01
 40
7.00000000E+00
  0
CIRCLE
  8
0
 62
4
 10
-4.92500002E+01
 20
3.74999996E+01
 40
1.40000000E+01
  0
CIRCLE
  8
0
 62
4
 10
-1.14250000E+02
 20
3.74999999E+01
 40
7.00000000E+00
  0
ARC
  8
0
 62
4
 10
-1.14250000E+02
 20
3.74999999E+01
 40
1.40000000E+01
 50
1.05358886E+02
 51
7.46411142E+01
  0
ARC
  8
0
 62
4
 10
-3.91207884E+01
 20
1.52499755E+02
 40
5.00000000E+00
 50
1.50005448E+00
 51
9.00001457E+01
  0
ARC
  8
0
 62
4
 10
-3.91207888E+01
 20
2.74999996E+01
 40
5.00000000E+00
 50
2.69999854E+02
 51
3.58499945E+02
  0
ARC
  8
0
 62
4
 10
-1.24379181E+02
 20
1.52499756E+02
 40
5.00000000E+00
 50
8.99998180E+01
 51
1.78499945E+02
  0
ARC
  8
0
 62
4
 10
-1.24379181E+02
 20
2.74999999E+01
 40
5.00000000E+00
 50
1.81500055E+02
 51
2.70000182E+02
  0
ARC
  8
0
 62
4
 10
1.66505470E+02
 20
8.99999989E+01
 40
3.05755371E+02
 50
1.77000377E+02
 51
1.82999619E+02
  0
LINE
  8
0
 62
4
 10
-3.24824852E+01
 20
8.99999991E+01
 11
-3.41225315E+01
 21
1.52630843E+02
  0
LINE
  8
0
 62
4
 10
-3.41225130E+01
 20
2.73690489E+01
 11
-3.24824635E+01
 21
9.00000000E+01
  0
LINE
  8
0
 62
4
 10
-3.72499848E+01
 20
7.59999996E+01
 11
-1.03098480E+02
 21
7.59999998E+01
  0
LINE
  8
0
 62
4
 10
-1.03098480E+02
 20
1.04000000E+02
 11
-3.72499847E+01
 21
1.04000000E+02
  0
LINE
  8
0
  6
CENTER
 62
6
 10
-4.92499997E+01
 20
1.62499756E+02
 11
-4.92499999E+01
 21
1.22499756E+02
  0
LINE
  8
0
  6
CENTER
 62
6
 10
-2.92499846E+01
 20
1.42499755E+02
 11
-6.92499998E+01
 21
1.42499756E+02
  0
LINE
  8
0
  6
CENTER
 62
6
 10
-1.14250000E+02
 20
1.22499756E+02
 11
-1.14250000E+02
 21
1.62499756E+02
  0
LINE
  8
0
  6
CENTER
 62
6
 10
-9.42499998E+01
 20
1.42499756E+02
 11
-1.34250000E+02
 21
1.42499756E+02
  0
LINE
  8
0
  6
CENTER
 62
6
 10
-4.92500001E+01
 20
5.74999996E+01
 11
-4.92500003E+01
 21
1.74999996E+01
  0
LINE
  8
0
  6
CENTER
 62
6
 10
-6.92500002E+01
 20
3.74999997E+01
 11
-2.92499849E+01
 21
3.74999996E+01
  0
LINE
  8
0
  6
CENTER
 62
6
 10
-1.14250000E+02
 20
1.74999999E+01
 11
-1.14250000E+02
 21
5.74999999E+01
  0
LINE
  8
0
  6
CENTER
 62
6
 10
-1.34250000E+02
 20
3.74999999E+01
 11
-9.42500002E+01
 21
3.74999998E+01
  0
LINE
  8
0
 62
4
 10
-3.91207883E+01
 20
1.57499755E+02
 11
-1.24379181E+02
 21
1.57499756E+02
  0
LINE
  8
0
 62
4
 10
-1.24379181E+02
 20
2.24999999E+01
 11
-3.91207888E+01
 21
2.24999996E+01
  0
LINE
  8
0
 62
4
 10
-1.30140252E+02
 20
1.23500000E+02
 11
-1.29377435E+02
 21
1.52630815E+02
  0
LINE
  8
0
 62
4
 10
-1.29377469E+02
 20
2.73690627E+01
 11
-1.30140291E+02
 21
5.65000457E+01
  0
LINE
  8
0
 62
4
 10
-1.09250000E+02
 20
1.23500000E+02
 11
-1.09250000E+02
 21
1.28000000E+02
  0
LINE
  8
0
 62
4
 10
-1.29250000E+02
 20
1.23500000E+02
 11
-1.29250000E+02
 21
1.28000000E+02
  0
LINE
  8
0
 62
4
 10
-1.28250000E+02
 20
5.09999999E+01
 11
-1.10250000E+02
 21
5.09999999E+01
  0
LINE
  8
0
 62
4
 10
-1.09250000E+02
 20
5.19999999E+01
 11
-1.09250000E+02
 21
5.65000456E+01
  0
LINE
  8
0
 62
4
 10
-1.28249995E+02
 20
1.28999995E+02
 11
-1.29249996E+02
 21
1.27999993E+02
  0
LINE
  8
0
 62
4
 10
-1.10250003E+02
 20
5.10000031E+01
 11
-1.09250002E+02
 21
5.20000043E+01
  0
LINE
  8
0
 62
4
 10
-1.29250002E+02
 20
5.20000035E+01
 11
-1.28250001E+02
 21
5.10000024E+01
  0
LINE
  8
0
 62
4
 10
-1.29250000E+02
 20
5.19999999E+01
 11
-1.09250000E+02
 21
5.19999999E+01
  0
LINE
  8
0
 62
4
 10
-1.28250000E+02
 20
1.29000000E+02
 11
-1.10250000E+02
 21
1.29000000E+02
  0
LINE
  8
0
 62
4
 10
-1.10250003E+02
 20
1.29000005E+02
 11
-1.09250001E+02
 21
1.28000004E+02
  0
LINE
  8
0
 62
4
 10
-1.29250000E+02
 20
1.28000000E+02
 11
-1.09250000E+02
 21
1.28000000E+02
  0
LINE
  8
0
 62
4
 10
-1.29250000E+02
 20
5.19999999E+01
 11
-1.29250000E+02
 21
5.65000457E+01
  0
ARC
  8
0
 62
4
 10
-1.43191345E+02
 20
5.50000457E+01
 40
9.56589508E+00
 50
2.80616493E+01
 51
7.01935327E+01
  0
ARC
  8
0
 62
4
 10
-1.38250000E+02
 20
7.36901397E+01
 40
2.00000000E+00
 50
2.75194459E+02
 51
2.55020846E-04
  0
ARC
  8
0
 62
4
 10
-1.38250000E+02
 20
1.06309936E+02
 40
2.00000000E+00
 50
3.59999709E+02
 51
8.48054863E+01
  0
ARC
  8
0
 62
4
 10
-1.42250000E+02
 20
1.34500000E+02
 40
2.00000000E+00
 50
3.59999982E+02
 51
8.99999274E+01
  0
ARC
  8
0
 62
4
 10
-1.42250000E+02
 20
4.55000763E+01
 40
2.00000000E+00
 50
2.70000018E+02
 51
3.59999982E+02
  0
ARC
  8
0
 62
4
 10
-1.00250000E+02
 20
5.85000761E+01
 40
2.00000000E+00
 50
2.70000018E+02
 51
3.59999982E+02
  0
ARC
  8
0
 62
4
 10
-1.00250244E+02
 20
1.21500000E+02
 40
2.00000000E+00
 50
3.59999982E+02
 51
8.99999274E+01
  0
ARC
  8
0
 62
4
 10
-1.43191345E+02
 20
1.25000000E+02
 40
9.56589603E+00
 50
2.80616493E+01
 51
7.01935327E+01
  0
ARC
  8
0
 62
4
 10
-1.43191345E+02
 20
5.50000457E+01
 40
9.56589508E+00
 50
2.89806474E+02
 51
3.31938351E+02
  0
ARC
  8
0
 62
4
 10
-1.43191345E+02
 20
1.25000000E+02
 40
9.56589603E+00
 50
2.89806467E+02
 51
3.31938351E+02
  0
LINE
  8
0
 62
4
 10
-1.40250000E+02
 20
1.16000000E+02
 11
-1.39949951E+02
 21
1.16000000E+02
  0
LINE
  8
0
 62
4
 10
-1.40250000E+02
 20
1.34000000E+02
 11
-1.39949951E+02
 21
1.34000000E+02
  0
LINE
  8
0
 62
4
 10
-1.34750000E+02
 20
1.29500000E+02
 11
-1.34750000E+02
 21
1.20500000E+02
  0
LINE
  8
0
 62
4
 10
-1.39949951E+02
 20
1.34000000E+02
 11
-1.39949951E+02
 21
1.16000000E+02
  0
LINE
  8
0
 62
4
 10
-1.40250000E+02
 20
6.40000152E+01
 11
-1.39949951E+02
 21
6.40000152E+01
  0
LINE
  8
0
 62
4
 10
-1.40250000E+02
 20
4.60000457E+01
 11
-1.39949951E+02
 21
4.60000457E+01
  0
LINE
  8
0
 62
4
 10
-1.34750000E+02
 20
5.95000457E+01
 11
-1.34750000E+02
 21
5.05000457E+01
  0
LINE
  8
0
 62
4
 10
-1.39949951E+02
 20
6.40000152E+01
 11
-1.39949951E+02
 21
4.60000457E+01
  0
LINE
  8
0
 62
4
 10
-1.00250000E+02
 20
1.23500000E+02
 11
-1.34750000E+02
 21
1.23500000E+02
  0
LINE
  8
0
 62
4
 10
-1.36250000E+02
 20
7.40000152E+01
 11
-1.36250000E+02
 21
7.36901397E+01
  0
LINE
  8
0
 62
4
 10
-1.38068961E+02
 20
7.16983340E+01
 11
-1.40250000E+02
 21
7.15000578E+01
  0
LINE
  8
0
 62
4
 10
-1.38068887E+02
 20
1.08301759E+02
 11
-1.40249987E+02
 21
1.08500041E+02
  0
LINE
  8
0
 62
4
 10
-1.36250000E+02
 20
1.06309936E+02
 11
-1.36250000E+02
 21
1.06000000E+02
  0
LINE
  8
0
  6
CENTER
 62
6
 10
-1.19250000E+02
 20
1.30767395E+02
 11
-1.19250000E+02
 21
4.90650786E+01
  0
LINE
  8
0
 62
4
 10
-9.82500001E+01
 20
7.40000151E+01
 11
-9.82500001E+01
 21
5.85000761E+01
  0
LINE
  8
0
 62
4
 10
-1.00250000E+02
 20
5.65000456E+01
 11
-1.34750000E+02
 21
5.65000457E+01
  0
LINE
  8
0
 62
4
 10
-9.82499999E+01
 20
1.06000000E+02
 11
-1.38830978E+02
 21
1.06000000E+02
  0
LINE
  8
0
 62
4
 10
-9.82500001E+01
 20
7.40000151E+01
 11
-1.38830979E+02
 21
7.40000152E+01
  0
LINE
  8
0
 62
4
 10
-1.40250000E+02
 20
1.34500000E+02
 11
-1.40250000E+02
 21
4.55000457E+01
  0
LINE
  8
0
 62
4
 10
-1.42250000E+02
 20
4.35000457E+01
 11
-1.51250000E+02
 21
4.35000458E+01
  0
LINE
  8
0
 62
4
 10
-1.42250000E+02
 20
1.36500000E+02
 11
-1.51250000E+02
 21
1.36500000E+02
  0
LINE
  8
0
 62
4
 10
-9.82499999E+01
 20
1.21500000E+02
 11
-9.82499999E+01
 21
1.06000000E+02
  0
LINE
  8
0
  6
CENTER
 62
6
 10
-1.31103668E+02
 20
1.25000000E+02
 11
-1.54939545E+02
 21
1.25000000E+02
  0
LINE
  8
0
  6
CENTER
 62
6
 10
-1.32302368E+02
 20
5.50000152E+01
 11
-1.55162293E+02
 21
5.50000153E+01
  0
LINE
  8
0
 62
4
 10
-1.51250000E+02
 20
4.35000458E+01
 11
-1.51250000E+02
 21
1.36500000E+02
  0
LINE
  8
0
  6
CENTER
 62
6
 10
-1.56498901E+02
 20
9.00000000E+01
 11
-9.38493042E+01
 21
8.99999998E+01
  0
LINE
  8
0
 62
7
 10
1.62099976E+02
 20
-1.75000000E+02
 11
1.62099976E+02
 21
-1.95000000E+02
  0
LINE
  8
0
 62
7
 10
1.62099976E+02
 20
-1.75000000E+02
 11
2.82099854E+02
 21
-1.75000000E+02
  0
TEXT
  8
0
 62
7
 10
1.69885289E+02
 20
-1.89500000E+02
 40
9.00000000E+00
  1
KOGANEI CORP.
 41
1.04838710E+00
  7
MONOTXT
  0
TEXT
  8
0
 62
7
 10
1.97799690E+02
 20
1.82350000E+02
 40
6.30000019E+00
  1
Ver. 1.0
 41
1.08108124E+00
  7
MONOTXT
  0
LINE
  8
0
 62
7
 10
1.62099976E+02
 20
1.75500000E+02
 11
2.82099854E+02
 21
1.75500000E+02
  0
LINE
  8
0
 62
7
 10
1.62099976E+02
 20
1.95500000E+02
 11
1.62099976E+02
 21
1.75500000E+02
  0
TEXT
  8
0
 62
7
 10
-2.73900291E+02
 20
1.82350000E+02
 40
6.30000019E+00
  1
NEW DYNA CYLINDER
 41
1.07594953E+00
  7
MONOTXT
  0
LINE
  8
0
 62
7
 10
-2.81250000E+02
 20
1.75500000E+02
 11
-1.61250000E+02
 21
1.75500000E+02
  0
LINE
  8
0
 62
7
 10
-1.61250000E+02
 20
1.95500000E+02
 11
-1.61250000E+02
 21
1.75500000E+02
  0
LINE
  8
0
 62
7
 10
2.82099854E+02
 20
1.95500000E+02
 11
2.82099854E+02
 21
-1.95000000E+02
  0
LINE
  8
0
 62
7
 10
-2.81250000E+02
 20
1.95500000E+02
 11
2.82099854E+02
 21
1.95500000E+02
  0
LINE
  8
0
 62
7
 10
-2.81250000E+02
 20
1.95500000E+02
 11
-2.81250000E+02
 21
-1.95000000E+02
  0
LINE
  8
0
 62
7
 10
-2.81250000E+02
 20
-1.95000000E+02
 11
2.82099854E+02
 21
-1.95000000E+02
  0
TEXT
  8
0
 62
7
 10
-2.67600562E+02
 20
1.57350000E+02
 40
6.30000019E+00
  1
MODEL:DDA80-7C
 41
1.00000015E+00
  7
MONOTXT
  0
ENDSEC
  0
EOF
