  0
SECTION
  2
HEADER
  9
$ACADVER
  1
AC1003
  9
$EXTMIN
 10
-2.81250000E+02
 20
-1.95000000E+02
  9
$EXTMAX
 10
2.82099854E+02
 20
1.95500000E+02
  9
$LIMMIN
 10
-2.81251000E+02
 20
-1.95001000E+02
  9
$LIMMAX
 10
2.82100854E+02
 20
1.95501000E+02
  9
$SNAPUNIT
 10
1
 20
1
  9
$SNAPBASE
 10
0
 20
0
  9
$GRIDMODE
 70
0
  9
$GRIDUNIT
 10
0
 20
0
  9
$LTSCALE
 40
9.38916423E+00
  9
$TEXTSIZE
 40
3.2
  9
$DIMTAD
 70
0
  9
$LUNITS
 70
2
  9
$LUPREC
 70
4
  9
$FILLETRAD
 40
0
  9
$AUNITS
 70
0
  9
$AUPREC
 70
0
  0
ENDSEC
  0
SECTION
  2
TABLES
  0
TABLE
  2
LTYPE
 70
2
  0
LTYPE
  2
CONTINUOUS
 70
64
  3
Solid-Line
 72
65
 73
0
 40
0
  0
LTYPE
  2
DASHED
 70
64
  3
DASHED
 72
65
 73
2
 40
.75
 49
.5
 49
-.25
  0
LTYPE
  2
HIDDEN
 70
64
  3
HIDDEN
 72
65
 73
2
 40
.375
 49
.25
 49
-.125
  0
LTYPE
  2
CENTER
 70
64
  3
CENTER
 72
65
 73
4
 40
2
 49
1.25
 49
-.25
 49
.25
 49
-.25
  0
LTYPE
  2
PHANTOM
 70
64
  3
PHANTOM
 72
65
 73
6
 40
2.5
 49
1.25
 49
-.25
 49
.25
 49
-.25
 49
.25
 49
-.25
  0
ENDTAB
  0
TABLE
  2
LAYER
 70
1
  0
LAYER
  2
1
 70
0
 62
7
  6
CONTINUOUS
 0
ENDTAB
  0
TABLE
  2
STYLE
 70
2
  0
STYLE
  2
MONOTXT
 70
0
 40
0
 41
1
 50
0
 71
0
 42
.2
  3
monotxt
  0
STYLE
  2
BIGFONT
 70
0
 40
0
 41
1
 50
0
 71
0
 42
.2
  3
txt
  4
bigfont
  0
ENDTAB
  0
ENDSEC
  0
SECTION
  2
ENTITIES
  0
LINE
  8
0
 62
4
 10
-8.12500000E+01
 20
-5.25000000E+01
 11
-8.12500000E+01
 21
-3.04999924E+01
  0
LINE
  8
0
  6
CENTER
 62
6
 10
-7.32381592E+01
 20
-1.09999985E+02
 11
-1.09112976E+02
 21
-1.09999985E+02
  0
LINE
  8
0
  6
CENTER
 62
6
 10
-1.10473434E+02
 20
-7.50000000E+01
 11
-3.47790527E+01
 21
-7.50000000E+01
  0
LINE
  8
0
 62
4
 10
-1.01250000E+02
 20
-1.21500000E+02
 11
-1.01250000E+02
 21
-2.84999924E+01
  0
LINE
  8
0
  6
CENTER
 62
6
 10
-7.32381592E+01
 20
-3.99999390E+01
 11
-1.09112976E+02
 21
-3.99999390E+01
  0
LINE
  8
0
 62
4
 10
-8.12500000E+01
 20
-1.19500000E+02
 11
-8.12500000E+01
 21
-9.75000000E+01
  0
LINE
  8
0
  6
CENTER
 62
6
 10
-6.92500000E+01
 20
-1.10000000E+02
 11
-6.92500000E+01
 21
-4.00000000E+01
  0
LINE
  8
0
 62
4
 10
-8.62500000E+01
 20
-5.75000000E+01
 11
-1.01250000E+02
 21
-5.75000000E+01
  0
LINE
  8
0
 62
4
 10
-8.62500000E+01
 20
-9.25000000E+01
 11
-1.01250000E+02
 21
-9.25000000E+01
  0
LINE
  8
0
 62
4
 10
-8.32500000E+01
 20
-2.84999924E+01
 11
-1.01250000E+02
 21
-2.84999924E+01
  0
LINE
  8
0
 62
4
 10
-8.32500000E+01
 20
-1.21500000E+02
 11
-1.01250000E+02
 21
-1.21500000E+02
  0
LINE
  8
0
 62
4
 10
-8.62500281E+01
 20
-9.25000330E+01
 11
-8.12500271E+01
 21
-9.75000426E+01
  0
LINE
  8
0
 62
4
 10
-8.12500512E+01
 20
-5.25000353E+01
 11
-8.62500391E+01
 21
-5.75000148E+01
  0
LINE
  8
0
 62
4
 10
-4.82500000E+01
 20
-8.65000000E+01
 11
-4.82500000E+01
 21
-6.34999390E+01
  0
LINE
  8
0
 62
4
 10
-8.12500033E+01
 20
-4.09400522E+01
 11
-5.76370520E+01
 21
-5.39966170E+01
  0
LINE
  8
0
 62
4
 10
-8.12500013E+01
 20
-1.09059976E+02
 11
-5.76369766E+01
 21
-9.60033702E+01
  0
ARC
  8
0
 62
4
 10
-8.32500000E+01
 20
-3.04999924E+01
 40
2.00000000E+00
 50
3.59999964E+02
 51
8.99999818E+01
  0
ARC
  8
0
 62
4
 10
-8.32500000E+01
 20
-1.19500000E+02
 40
2.00000000E+00
 50
2.70000018E+02
 51
3.59999964E+02
  0
CIRCLE
  8
0
 62
4
 10
-6.92500000E+01
 20
-7.50000000E+01
 40
1.00000000E+01
  0
CIRCLE
  8
0
 62
4
 10
-6.92500000E+01
 20
-7.50000000E+01
 40
1.80000000E+01
  0
ARC
  8
0
 62
4
 10
-6.92512817E+01
 20
-7.50012054E+01
 40
2.40017490E+01
 50
2.89562898E+01
 51
6.10599994E+01
  0
ARC
  8
0
 62
4
 10
-6.92512817E+01
 20
-7.49987946E+01
 40
2.40017490E+01
 50
2.98940001E+02
 51
3.31043710E+02
  0
LINE
  8
0
  6
CENTER
 62
6
 10
7.87500000E+01
 20
-2.41441879E+01
 11
7.87500000E+01
 21
-1.25975891E+02
  0
LINE
  8
0
  6
CENTER
 62
6
 10
2.72152109E+01
 20
-7.50000000E+01
 11
1.29215455E+02
 21
-7.50000000E+01
  0
LINE
  8
0
  6
CENTER
 62
6
 10
3.71592951E+01
 20
-4.00000000E+01
 11
5.07665834E+01
 21
-4.00000000E+01
  0
LINE
  8
0
  6
CENTER
 62
6
 10
4.37500010E+01
 20
-3.23250656E+01
 11
4.37500010E+01
 21
-4.79167557E+01
  0
LINE
  8
0
 62
4
 10
3.22500010E+01
 20
-4.12292480E+01
 11
3.22500010E+01
 21
-5.10477600E+01
  0
LINE
  8
0
 62
4
 10
1.25250001E+02
 20
-4.12292480E+01
 11
1.25250001E+02
 21
-5.10477600E+01
  0
LINE
  8
0
 62
4
 10
4.33487407E+01
 20
-2.97362774E+01
 11
7.87500749E+01
 21
-2.85000355E+01
  0
LINE
  8
0
 62
4
 10
7.87499991E+01
 20
-1.21499998E+02
 11
1.14151334E+02
 21
-1.20263757E+02
  0
LINE
  8
0
 62
4
 10
4.33487344E+01
 20
-1.20263763E+02
 11
7.87500707E+01
 21
-1.21500005E+02
  0
LINE
  8
0
 62
4
 10
7.87499956E+01
 20
-2.85000305E+01
 11
1.14151330E+02
 21
-2.97362724E+01
  0
LINE
  8
0
 62
4
 10
9.37500003E+01
 20
-5.69762004E+01
 11
1.20424502E+02
 21
-5.60447062E+01
  0
LINE
  8
0
 62
4
 10
3.70755725E+01
 20
-9.39553202E+01
 11
6.27500476E+01
 21
-9.30587477E+01
  0
LINE
  8
0
 62
4
 10
3.70755668E+01
 20
-5.60447011E+01
 11
6.27500439E+01
 21
-5.69412737E+01
  0
LINE
  8
0
 62
4
 10
9.47500226E+01
 20
-9.30587579E+01
 11
1.20424496E+02
 21
-9.39553303E+01
  0
LINE
  8
0
 62
4
 10
3.22500010E+01
 20
-9.89522858E+01
 11
3.22500010E+01
 21
-1.08770782E+02
  0
LINE
  8
0
 62
4
 10
1.25250001E+02
 20
-9.89522858E+01
 11
1.25250001E+02
 21
-1.08770782E+02
  0
LINE
  8
0
 62
4
 10
6.27500010E+01
 20
-5.70000000E+01
 11
6.27500010E+01
 21
-9.30000000E+01
  0
LINE
  8
0
 62
4
 10
9.47500000E+01
 20
-5.70000000E+01
 11
9.47500000E+01
 21
-9.30000000E+01
  0
LINE
  8
0
 62
4
 10
6.37500010E+01
 20
-4.20000000E+01
 11
6.37500010E+01
 21
-1.08000000E+02
  0
LINE
  8
0
 62
4
 10
9.37500000E+01
 20
-4.20000000E+01
 11
9.37500000E+01
 21
-1.08000000E+02
  0
LINE
  8
0
 62
4
 10
6.37500010E+01
 20
-6.50000000E+01
 11
9.37500000E+01
 21
-6.50000000E+01
  0
LINE
  8
0
 62
4
 10
6.27500010E+01
 20
-8.50000000E+01
 11
9.47500000E+01
 21
-8.50000000E+01
  0
LINE
  8
0
 62
4
 10
3.24655771E+01
 20
-9.75000000E+01
 11
6.37500010E+01
 21
-9.75000000E+01
  0
LINE
  8
0
 62
4
 10
6.57500010E+01
 20
-1.10000000E+02
 11
9.17500000E+01
 21
-1.10000000E+02
  0
LINE
  8
0
 62
4
 10
6.57500010E+01
 20
-4.00000000E+01
 11
9.17500000E+01
 21
-4.00000000E+01
  0
LINE
  8
0
 62
4
 10
6.27500010E+01
 20
-5.70000000E+01
 11
6.37500010E+01
 21
-5.70000000E+01
  0
LINE
  8
0
 62
4
 10
6.27500010E+01
 20
-9.30000000E+01
 11
6.37500010E+01
 21
-9.30000000E+01
  0
LINE
  8
0
 62
4
 10
9.37500000E+01
 20
-9.30000000E+01
 11
9.47500000E+01
 21
-9.30000000E+01
  0
LINE
  8
0
 62
4
 10
6.37500010E+01
 20
-5.25000000E+01
 11
3.24655771E+01
 21
-5.25000000E+01
  0
LINE
  8
0
 62
4
 10
9.37500000E+01
 20
-9.75000000E+01
 11
1.25034425E+02
 21
-9.75000000E+01
  0
LINE
  8
0
 62
4
 10
1.25034425E+02
 20
-5.25000000E+01
 11
9.37500000E+01
 21
-5.25000000E+01
  0
LINE
  8
0
  6
CENTER
 62
6
 10
5.07665834E+01
 20
-1.10000000E+02
 11
3.60253534E+01
 21
-1.10000000E+02
  0
LINE
  8
0
  6
CENTER
 62
6
 10
4.37500010E+01
 20
-1.02345921E+02
 11
4.37500010E+01
 21
-1.17087151E+02
  0
LINE
  8
0
  6
CENTER
 62
6
 10
1.07463628E+02
 20
-4.00000000E+01
 11
1.20503949E+02
 21
-4.00000000E+01
  0
LINE
  8
0
  6
CENTER
 62
6
 10
1.13750001E+02
 20
-4.73497849E+01
 11
1.13750001E+02
 21
-3.28920364E+01
  0
LINE
  8
0
  6
CENTER
 62
6
 10
1.19936978E+02
 20
-1.10000000E+02
 11
1.07180142E+02
 21
-1.10000000E+02
  0
LINE
  8
0
  6
CENTER
 62
6
 10
1.13750001E+02
 20
-1.17087151E+02
 11
1.13750001E+02
 21
-1.02345921E+02
  0
ARC
  8
0
 62
4
 10
3.72500010E+01
 20
-9.89522858E+01
 40
5.00000000E+00
 50
9.19999707E+01
 51
1.80000183E+02
  0
ARC
  8
0
 62
4
 10
1.13750001E+02
 20
-4.12292480E+01
 40
1.15000000E+01
 50
3.59999981E+02
 51
8.79999936E+01
  0
ARC
  8
0
 62
4
 10
4.37500010E+01
 20
-1.08770782E+02
 40
1.15000000E+01
 50
1.80000091E+02
 51
2.68000029E+02
  0
ARC
  8
0
 62
4
 10
1.13750001E+02
 20
-1.08770782E+02
 40
1.15000000E+01
 50
2.72000007E+02
 51
3.59999944E+02
  0
ARC
  8
0
 62
4
 10
4.37500010E+01
 20
-4.12292480E+01
 40
1.15000000E+01
 50
9.19999707E+01
 51
1.80000019E+02
  0
ARC
  8
0
 62
4
 10
1.20250001E+02
 20
-9.89522858E+01
 40
5.00000000E+00
 50
3.59999828E+02
 51
8.79999936E+01
  0
ARC
  8
0
 62
4
 10
6.57500010E+01
 20
-4.20000000E+01
 40
2.00000000E+00
 50
8.99999818E+01
 51
1.79999964E+02
  0
ARC
  8
0
 62
4
 10
9.17500000E+01
 20
-4.20000000E+01
 40
2.00000000E+00
 50
0.00000000E+00
 51
8.99999818E+01
  0
ARC
  8
0
 62
4
 10
6.57500010E+01
 20
-1.08000000E+02
 40
2.00000000E+00
 50
1.79999964E+02
 51
2.70000001E+02
  0
ARC
  8
0
 62
4
 10
9.17500000E+01
 20
-1.08000000E+02
 40
2.00000000E+00
 50
2.70000018E+02
 51
0.00000000E+00
  0
ARC
  8
0
 62
4
 10
1.20250001E+02
 20
-5.10477600E+01
 40
5.00000000E+00
 50
2.72000007E+02
 51
3.59999825E+02
  0
ARC
  8
0
 62
4
 10
3.72500010E+01
 20
-5.10477600E+01
 40
5.00000000E+00
 50
1.80000200E+02
 51
2.68000029E+02
  0
CIRCLE
  8
0
 62
4
 10
4.37500010E+01
 20
-1.10000000E+02
 40
4.84999990E+00
  0
CIRCLE
  8
0
 62
4
 10
1.13750001E+02
 20
-1.10000000E+02
 40
4.84999990E+00
  0
CIRCLE
  8
0
 62
4
 10
1.13750001E+02
 20
-4.00000000E+01
 40
4.84999990E+00
  0
CIRCLE
  8
0
 62
4
 10
4.37500010E+01
 20
-4.00000000E+01
 40
4.84999990E+00
  0
LINE
  8
0
  6
CENTER
 62
6
 10
-1.06540726E+02
 20
7.50000000E+01
 11
-3.93857727E+01
 21
7.50000000E+01
  0
LINE
  8
0
 62
4
 10
-1.01250000E+02
 20
2.85000458E+01
 11
-1.01250000E+02
 21
1.21500000E+02
  0
LINE
  8
0
  6
CENTER
 62
6
 10
-7.11188965E+01
 20
4.00000000E+01
 11
-1.09281754E+02
 21
4.00000000E+01
  0
LINE
  8
0
  6
CENTER
 62
6
 10
-7.18253174E+01
 20
1.10000000E+02
 11
-1.05718430E+02
 21
1.10000000E+02
  0
LINE
  8
0
 62
4
 10
-8.12500000E+01
 20
1.19500000E+02
 11
-8.12500000E+01
 21
3.05000458E+01
  0
LINE
  8
0
 62
4
 10
-4.82500000E+01
 20
8.80000000E+01
 11
-4.82500000E+01
 21
6.20000000E+01
  0
LINE
  8
0
 62
4
 10
-8.32500000E+01
 20
1.21500000E+02
 11
-1.01250000E+02
 21
1.21500000E+02
  0
LINE
  8
0
 62
4
 10
-8.32500000E+01
 20
2.85000458E+01
 11
-1.01250000E+02
 21
2.85000458E+01
  0
LINE
  8
0
 62
4
 10
-5.07502441E+01
 20
9.10000000E+01
 11
-7.85666504E+01
 21
9.10000000E+01
  0
LINE
  8
0
 62
4
 10
-5.07502441E+01
 20
5.90000000E+01
 11
-7.85666504E+01
 21
5.90000000E+01
  0
LINE
  8
0
 62
4
 10
-5.02500000E+01
 20
9.00000000E+01
 11
-7.52500000E+01
 21
9.00000000E+01
  0
LINE
  8
0
 62
4
 10
-5.02500000E+01
 20
6.00000000E+01
 11
-7.52500000E+01
 21
6.00000000E+01
  0
LINE
  8
0
  6
CENTER
 62
6
 10
-6.92500000E+01
 20
9.50000000E+01
 11
-6.92500000E+01
 21
5.50000000E+01
  0
LINE
  8
0
 62
4
 10
-5.02500000E+01
 20
9.05000000E+01
 11
-5.02500000E+01
 21
9.00000000E+01
  0
LINE
  8
0
 62
4
 10
-5.02500812E+01
 20
9.05000015E+01
 11
-5.07500762E+01
 21
9.09999860E+01
  0
LINE
  8
0
 62
4
 10
-5.02501010E+01
 20
5.95000431E+01
 11
-5.07500960E+01
 21
5.90000586E+01
  0
LINE
  8
0
 62
4
 10
-5.02500000E+01
 20
6.00000000E+01
 11
-5.02500000E+01
 21
5.95000000E+01
  0
ARC
  8
0
 62
4
 10
-8.32502441E+01
 20
1.19500000E+02
 40
2.00000000E+00
 50
3.59999982E+02
 51
8.99999274E+01
  0
ARC
  8
0
 62
4
 10
-8.32500000E+01
 20
3.05000458E+01
 40
2.00000000E+00
 50
2.70000018E+02
 51
3.59999982E+02
  0
ARC
  8
0
 62
4
 10
-5.02502441E+01
 20
8.80000000E+01
 40
2.00000000E+00
 50
3.59999982E+02
 51
8.99999274E+01
  0
ARC
  8
0
 62
4
 10
-5.02500000E+01
 20
6.20000000E+01
 40
2.00000000E+00
 50
2.70000018E+02
 51
3.59999982E+02
  0
ARC
  8
0
 62
4
 10
-7.52502441E+01
 20
9.60000000E+01
 40
6.00000000E+00
 50
1.80000036E+02
 51
2.70000018E+02
  0
ARC
  8
0
 62
4
 10
-7.52500000E+01
 20
5.40000000E+01
 40
6.00000000E+00
 50
8.99999274E+01
 51
1.79999964E+02
  0
LINE
  8
0
 62
7
 10
1.62099976E+02
 20
-1.75000000E+02
 11
1.62099976E+02
 21
-1.95000000E+02
  0
LINE
  8
0
 62
7
 10
1.62099976E+02
 20
-1.75000000E+02
 11
2.82099854E+02
 21
-1.75000000E+02
  0
TEXT
  8
0
 62
7
 10
1.69885289E+02
 20
-1.89500000E+02
 40
9.00000000E+00
  1
KOGANEI CORP.
 41
1.04838710E+00
  7
MONOTXT
  0
TEXT
  8
0
 62
7
 10
1.97799690E+02
 20
1.82350000E+02
 40
6.30000019E+00
  1
Ver. 1.0
 41
1.08108124E+00
  7
MONOTXT
  0
LINE
  8
0
 62
7
 10
1.62099976E+02
 20
1.75500000E+02
 11
2.82099854E+02
 21
1.75500000E+02
  0
LINE
  8
0
 62
7
 10
1.62099976E+02
 20
1.95500000E+02
 11
1.62099976E+02
 21
1.75500000E+02
  0
TEXT
  8
0
 62
7
 10
-2.73900291E+02
 20
1.82350000E+02
 40
6.30000019E+00
  1
NEW DYNA CYLINDER
 41
1.07594953E+00
  7
MONOTXT
  0
LINE
  8
0
 62
7
 10
-2.81250000E+02
 20
1.75500000E+02
 11
-1.61250000E+02
 21
1.75500000E+02
  0
LINE
  8
0
 62
7
 10
-1.61250000E+02
 20
1.95500000E+02
 11
-1.61250000E+02
 21
1.75500000E+02
  0
LINE
  8
0
 62
7
 10
2.82099854E+02
 20
1.95500000E+02
 11
2.82099854E+02
 21
-1.95000000E+02
  0
LINE
  8
0
 62
7
 10
-2.81250000E+02
 20
1.95500000E+02
 11
2.82099854E+02
 21
1.95500000E+02
  0
LINE
  8
0
 62
7
 10
-2.81250000E+02
 20
1.95500000E+02
 11
-2.81250000E+02
 21
-1.95000000E+02
  0
LINE
  8
0
 62
7
 10
-2.81250000E+02
 20
-1.95000000E+02
 11
2.82099854E+02
 21
-1.95000000E+02
  0
TEXT
  8
0
 62
7
 10
-2.67600562E+02
 20
1.57350000E+02
 40
6.30000019E+00
  1
MODEL:DDA80-8
 41
1.00000015E+00
  7
MONOTXT
  0
ENDSEC
  0
EOF
