  0
SECTION
  2
HEADER
  9
$ACADVER
  1
AC1003
  9
$EXTMIN
 10
-1.94250000E+02
 20
-1.33500000E+02
  9
$EXTMAX
 10
1.94800003E+02
 20
1.32600006E+02
  9
$LIMMIN
 10
-1.94251000E+02
 20
-1.33501000E+02
  9
$LIMMAX
 10
1.94801003E+02
 20
1.32601006E+02
  9
$SNAPUNIT
 10
1
 20
1
  9
$SNAPBASE
 10
0
 20
0
  9
$GRIDMODE
 70
0
  9
$GRIDUNIT
 10
0
 20
0
  9
$LTSCALE
 40
6.48416672E+00
  9
$TEXTSIZE
 40
3.2
  9
$DIMTAD
 70
0
  9
$LUNITS
 70
2
  9
$LUPREC
 70
4
  9
$FILLETRAD
 40
0
  9
$AUNITS
 70
0
  9
$AUPREC
 70
0
  0
ENDSEC
  0
SECTION
  2
TABLES
  0
TABLE
  2
LTYPE
 70
2
  0
LTYPE
  2
CONTINUOUS
 70
64
  3
Solid-Line
 72
65
 73
0
 40
0
  0
LTYPE
  2
DASHED
 70
64
  3
DASHED
 72
65
 73
2
 40
.75
 49
.5
 49
-.25
  0
LTYPE
  2
HIDDEN
 70
64
  3
HIDDEN
 72
65
 73
2
 40
.375
 49
.25
 49
-.125
  0
LTYPE
  2
CENTER
 70
64
  3
CENTER
 72
65
 73
4
 40
2
 49
1.25
 49
-.25
 49
.25
 49
-.25
  0
LTYPE
  2
PHANTOM
 70
64
  3
PHANTOM
 72
65
 73
6
 40
2.5
 49
1.25
 49
-.25
 49
.25
 49
-.25
 49
.25
 49
-.25
  0
ENDTAB
  0
TABLE
  2
LAYER
 70
1
  0
LAYER
  2
1
 70
0
 62
7
  6
CONTINUOUS
 0
ENDTAB
  0
TABLE
  2
STYLE
 70
2
  0
STYLE
  2
MONOTXT
 70
0
 40
0
 41
1
 50
0
 71
0
 42
.2
  3
monotxt
  0
STYLE
  2
BIGFONT
 70
0
 40
0
 41
1
 50
0
 71
0
 42
.2
  3
txt
  4
bigfont
  0
ENDTAB
  0
ENDSEC
  0
SECTION
  2
ENTITIES
  0
LINE
  8
0
 62
4
 10
7.85937624E+00
 20
-5.89666178E+01
 11
7.35938645E+00
 21
-5.94666076E+01
  0
LINE
  8
0
  6
CENTER
 62
6
 10
1.78593911E+01
 20
-6.28867348E+01
 11
1.78593911E+01
 21
-3.14666298E+01
  0
ARC
  8
0
 62
4
 10
1.78593911E+01
 20
-4.54666298E+01
 40
2.00000000E+01
 50
1.35572998E+02
 51
2.24426970E+02
  0
LINE
  8
0
 62
4
 10
9.18593936E+01
 20
-6.54666129E+01
 11
9.28593947E+01
 21
-6.44666118E+01
  0
LINE
  8
0
 62
4
 10
9.28593911E+01
 20
-6.44666298E+01
 11
9.28593911E+01
 21
-2.64666298E+01
  0
LINE
  8
0
 62
4
 10
4.28593911E+01
 20
-6.54666298E+01
 11
4.28593911E+01
 21
-5.94666298E+01
  0
LINE
  8
0
 62
4
 10
4.28593911E+01
 20
-6.54666298E+01
 11
9.18593911E+01
 21
-6.54666298E+01
  0
LINE
  8
0
 62
4
 10
4.28593911E+01
 20
-2.54666298E+01
 11
9.18593911E+01
 21
-2.54666298E+01
  0
LINE
  8
0
 62
4
 10
4.28593911E+01
 20
-3.14666298E+01
 11
4.28593911E+01
 21
-2.54666298E+01
  0
LINE
  8
0
 62
4
 10
9.18593851E+01
 20
-2.54666158E+01
 11
9.28593807E+01
 21
-2.64666115E+01
  0
LINE
  8
0
  6
CENTER
 62
6
 10
-7.60301127E+00
 20
-4.54666298E+01
 11
9.76790169E+01
 21
-4.54666298E+01
  0
LINE
  8
0
 62
4
 10
3.57652365E+00
 20
-5.94666298E+01
 11
4.28593911E+01
 21
-5.94666298E+01
  0
LINE
  8
0
 62
4
 10
3.57652365E+00
 20
-3.14666298E+01
 11
4.28593911E+01
 21
-3.14666298E+01
  0
LINE
  8
0
  6
CENTER
 62
6
 10
-6.45848380E+01
 20
-4.54666322E+01
 11
-1.16159209E+02
 21
-4.54666277E+01
  0
LINE
  8
0
 62
4
 10
-7.78577580E+01
 20
-5.94666311E+01
 11
-1.06423462E+02
 21
-5.94666286E+01
  0
LINE
  8
0
 62
4
 10
-7.78577555E+01
 20
-3.14666311E+01
 11
-1.06423460E+02
 21
-3.14666286E+01
  0
LINE
  8
0
  6
CENTER
 62
6
 10
-9.21406109E+01
 20
-6.79666298E+01
 11
-9.21406070E+01
 21
-2.29666298E+01
  0
ARC
  8
0
 62
4
 10
-9.21406089E+01
 20
-4.54666298E+01
 40
2.00000000E+01
 50
3.59999986E+02
 51
1.80000000E+02
  0
ARC
  8
0
 62
4
 10
-9.21406089E+01
 20
-4.54666298E+01
 40
2.00000000E+01
 50
1.79999990E+02
 51
0.00000000E+00
  0
LINE
  8
0
 62
4
 10
9.18593959E+01
 20
8.95333928E+01
 11
9.28593970E+01
 21
8.85333917E+01
  0
LINE
  8
0
 62
4
 10
9.28593954E+01
 20
5.05333929E+01
 11
9.18593942E+01
 21
4.95333919E+01
  0
LINE
  8
0
  6
CENTER
 62
6
 10
-7.60301127E+00
 20
6.95333854E+01
 11
9.76790169E+01
 21
6.95333854E+01
  0
LINE
  8
0
  6
CENTER
 62
6
 10
1.78593911E+01
 20
4.19776146E+01
 11
1.78593911E+01
 21
9.35519859E+01
  0
LINE
  8
0
 62
4
 10
9.28593911E+01
 20
5.05333702E+01
 11
9.28593911E+01
 21
8.85333854E+01
  0
LINE
  8
0
 62
4
 10
1.78593911E+01
 20
8.95333854E+01
 11
9.18593911E+01
 21
8.95333854E+01
  0
LINE
  8
0
 62
4
 10
1.78593911E+01
 20
4.95333854E+01
 11
9.18593911E+01
 21
4.95333854E+01
  0
LINE
  8
0
 62
4
 10
4.28593911E+01
 20
5.52505180E+01
 11
4.28593911E+01
 21
8.38162376E+01
  0
LINE
  8
0
 62
4
 10
1.78476113E+01
 20
5.52505333E+01
 11
4.28593911E+01
 21
5.52505333E+01
  0
LINE
  8
0
 62
4
 10
1.78476113E+01
 20
8.38162376E+01
 11
4.28593911E+01
 21
8.38162376E+01
  0
ARC
  8
0
 62
4
 10
1.78593911E+01
 20
6.95333854E+01
 40
2.00000000E+01
 50
9.00000025E+01
 51
2.70000001E+02
  0
CIRCLE
  8
0
 62
4
 10
1.78593911E+01
 20
6.95333854E+01
 40
1.00000000E+01
  0
ARC
  8
0
 62
4
 10
1.78593911E+01
 20
6.95333854E+01
 40
1.42828579E+01
 50
9.00000025E+01
 51
2.70047293E+02
  0
TEXT
  8
0
 62
7
 10
-1.89357136E+02
 20
1.22850006E+02
 40
4.50000000E+00
  1
NEW DYNA CYLINDER
 41
1.07594914E+00
  7
MONOTXT
  0
TEXT
  8
0
 62
7
 10
-1.85214688E+02
 20
1.05350006E+02
 40
4.50000000E+00
  1
MODEL:DDA80-I
 41
1.00000000E+00
  7
MONOTXT
  0
LINE
  8
0
 62
7
 10
-1.94250000E+02
 20
1.32600006E+02
 11
1.94800003E+02
 21
1.32600006E+02
  0
LINE
  8
0
 62
7
 10
1.94800003E+02
 20
1.32600006E+02
 11
1.94800003E+02
 21
-1.33500000E+02
  0
LINE
  8
0
 62
7
 10
-1.94250000E+02
 20
1.32600006E+02
 11
-1.94250000E+02
 21
-1.33500000E+02
  0
LINE
  8
0
 62
7
 10
-1.94250000E+02
 20
-1.33500000E+02
 11
1.94800003E+02
 21
-1.33500000E+02
  0
LINE
  8
0
 62
7
 10
1.09800003E+02
 20
-1.18500000E+02
 11
1.09800003E+02
 21
-1.33500000E+02
  0
LINE
  8
0
 62
7
 10
1.09800003E+02
 20
-1.18500000E+02
 11
1.94800003E+02
 21
-1.18500000E+02
  0
LINE
  8
0
 62
7
 10
1.09800003E+02
 20
1.32600006E+02
 11
1.09800003E+02
 21
1.17600006E+02
  0
LINE
  8
0
 62
7
 10
1.09800003E+02
 20
1.17600006E+02
 11
1.94800003E+02
 21
1.17600006E+02
  0
LINE
  8
0
 62
7
 10
-1.94250000E+02
 20
1.17600006E+02
 11
-1.09250000E+02
 21
1.17600006E+02
  0
LINE
  8
0
 62
7
 10
-1.09250000E+02
 20
1.32600006E+02
 11
-1.09250000E+02
 21
1.17600006E+02
  0
TEXT
  8
0
 62
7
 10
1.34942863E+02
 20
1.22850006E+02
 40
4.50000000E+00
  1
Ver. 1.0
 41
1.08108085E+00
  7
MONOTXT
  0
TEXT
  8
0
 62
7
 10
1.15249715E+02
 20
-1.29150000E+02
 40
6.30000019E+00
  1
KOGANEI CORP.
 41
1.04838725E+00
  7
MONOTXT
  0
ENDSEC
  0
EOF
