  0
SECTION
  2
HEADER
  9
$ACADVER
  1
AC1003
  9
$EXTMIN
 10
-5.69500000E+02
 20
-4.00500000E+02
  9
$EXTMAX
 10
5.69500000E+02
 20
4.00500000E+02
  9
$LIMMIN
 10
-5.69501000E+02
 20
-4.00501000E+02
  9
$LIMMAX
 10
5.69501000E+02
 20
4.00501000E+02
  9
$SNAPUNIT
 10
1
 20
1
  9
$SNAPBASE
 10
0
 20
0
  9
$GRIDMODE
 70
0
  9
$GRIDUNIT
 10
0
 20
0
  9
$LTSCALE
 40
1.89833333E+01
  9
$TEXTSIZE
 40
3.2
  9
$DIMTAD
 70
0
  9
$LUNITS
 70
2
  9
$LUPREC
 70
4
  9
$FILLETRAD
 40
0
  9
$AUNITS
 70
0
  9
$AUPREC
 70
0
  0
ENDSEC
  0
SECTION
  2
TABLES
  0
TABLE
  2
LTYPE
 70
2
  0
LTYPE
  2
CONTINUOUS
 70
64
  3
Solid-Line
 72
65
 73
0
 40
0
  0
LTYPE
  2
DASHED
 70
64
  3
DASHED
 72
65
 73
2
 40
.75
 49
.5
 49
-.25
  0
LTYPE
  2
HIDDEN
 70
64
  3
HIDDEN
 72
65
 73
2
 40
.375
 49
.25
 49
-.125
  0
LTYPE
  2
CENTER
 70
64
  3
CENTER
 72
65
 73
4
 40
2
 49
1.25
 49
-.25
 49
.25
 49
-.25
  0
LTYPE
  2
PHANTOM
 70
64
  3
PHANTOM
 72
65
 73
6
 40
2.5
 49
1.25
 49
-.25
 49
.25
 49
-.25
 49
.25
 49
-.25
  0
ENDTAB
  0
TABLE
  2
LAYER
 70
1
  0
LAYER
  2
1
 70
0
 62
7
  6
CONTINUOUS
 0
ENDTAB
  0
TABLE
  2
STYLE
 70
2
  0
STYLE
  2
MONOTXT
 70
0
 40
0
 41
1
 50
0
 71
0
 42
.2
  3
monotxt
  0
STYLE
  2
BIGFONT
 70
0
 40
0
 41
1
 50
0
 71
0
 42
.2
  3
txt
  4
bigfont
  0
ENDTAB
  0
ENDSEC
  0
SECTION
  2
ENTITIES
  0
LINE
  8
0
  6
PHANTOM
 10
-2.95000000E+01
 20
2.81313474E+01
 11
-2.95000000E+01
 21
1.90686885E+02
  0
LINE
  8
0
 62
7
 10
-1.74000004E+02
 20
8.94999695E+01
 11
-1.62000004E+02
 21
8.94999695E+01
  0
LINE
  8
0
 62
2
 10
-1.74000004E+02
 20
9.03199844E+01
 11
-1.62000004E+02
 21
9.03199844E+01
  0
LINE
  8
0
 62
7
 10
-1.74000004E+02
 20
1.11500023E+02
 11
-1.62000004E+02
 21
1.11500023E+02
  0
LINE
  8
0
 62
2
 10
-1.74000004E+02
 20
1.10680008E+02
 11
-1.62000004E+02
 21
1.10680008E+02
  0
LINE
  8
0
 62
4
 10
-1.85570942E+02
 20
9.14914715E+01
 11
-1.75429066E+02
 21
9.14914715E+01
  0
LINE
  8
0
 62
4
 10
-1.85570942E+02
 20
1.09491471E+02
 11
-1.75429066E+02
 21
1.09491471E+02
  0
ARC
  8
0
 62
4
 10
-2.03054799E+02
 20
1.00491471E+02
 40
2.90548000E+01
 50
3.41955269E+02
 51
1.80446768E+01
  0
ARC
  8
0
 62
4
 10
-1.57945204E+02
 20
1.00491471E+02
 40
2.90548000E+01
 50
1.61955287E+02
 51
1.98044695E+02
  0
LINE
  8
0
 62
4
 10
-1.86999967E+02
 20
8.44915178E+01
 11
-1.85570912E+02
 21
8.20163279E+01
  0
LINE
  8
0
 62
4
 10
-1.75429040E+02
 20
8.20163146E+01
 11
-1.73999993E+02
 21
8.44914430E+01
  0
LINE
  8
0
 62
4
 10
-1.85570942E+02
 20
8.20162537E+01
 11
-1.75429066E+02
 21
8.20162537E+01
  0
ARC
  8
0
 62
4
 10
-1.82562607E+02
 20
8.67538616E+01
 40
8.56342793E+00
 50
3.26410646E+02
 51
3.35892994E+01
  0
ARC
  8
0
 62
4
 10
-1.78437401E+02
 20
8.67538616E+01
 40
8.56342793E+00
 50
1.46410624E+02
 51
2.13589277E+02
  0
LINE
  8
0
 62
4
 10
-1.75429084E+02
 20
1.18966648E+02
 11
-1.74000011E+02
 21
1.16491460E+02
  0
LINE
  8
0
 62
4
 10
-1.87000021E+02
 20
1.16491475E+02
 11
-1.85570937E+02
 21
1.18966692E+02
  0
LINE
  8
0
 62
4
 10
-1.85570942E+02
 20
1.18966695E+02
 11
-1.75429066E+02
 21
1.18966695E+02
  0
LINE
  8
0
 62
4
 10
-1.87000004E+02
 20
1.16491475E+02
 11
-1.87000004E+02
 21
8.44914715E+01
  0
LINE
  8
0
 62
4
 10
-1.74000004E+02
 20
1.16491475E+02
 11
-1.74000004E+02
 21
8.44914715E+01
  0
ARC
  8
0
 62
4
 10
-1.82562607E+02
 20
1.14229081E+02
 40
8.56342793E+00
 50
3.26410605E+02
 51
3.35892584E+01
  0
ARC
  8
0
 62
4
 10
-1.78437401E+02
 20
1.14229081E+02
 40
8.56342793E+00
 50
1.46410665E+02
 51
2.13589318E+02
  0
LINE
  8
0
 62
6
 10
-3.57320394E+01
 20
1.40726428E+02
 11
-3.22679378E+01
 21
1.46726428E+02
  0
LINE
  8
0
 62
6
 10
-2.32678767E+01
 20
1.46726428E+02
 11
-2.67319783E+01
 21
1.40726428E+02
  0
LINE
  8
0
 62
4
 10
-1.49999275E+01
 20
1.45226428E+02
 11
-2.41339021E+01
 21
1.45226428E+02
  0
LINE
  8
0
  6
CENTER
 62
6
 10
2.00000725E+01
 20
1.43726428E+02
 11
-2.69999275E+01
 21
1.43726428E+02
  0
LINE
  8
0
 62
4
 10
-1.49999275E+01
 20
1.42226428E+02
 11
-2.58659529E+01
 21
1.42226428E+02
  0
LINE
  8
0
 62
4
 10
-5.04999885E+01
 20
1.45226428E+02
 11
-3.31339631E+01
 21
1.45226428E+02
  0
LINE
  8
0
 62
4
 10
1.64999886E+01
 20
1.42248896E+02
 11
1.49999886E+01
 21
1.41122847E+02
  0
LINE
  8
0
 62
4
 10
1.64999886E+01
 20
1.43097380E+02
 11
1.49999886E+01
 21
1.42621274E+02
  0
LINE
  8
0
 62
4
 10
1.64999886E+01
 20
1.45197451E+02
 11
1.64999886E+01
 21
1.42248896E+02
  0
LINE
  8
0
 62
4
 10
1.49999886E+01
 20
1.46330009E+02
 11
1.64999886E+01
 21
1.45197451E+02
  0
LINE
  8
0
 62
4
 10
-7.39999886E+01
 20
1.44000000E+02
 11
-7.39999886E+01
 21
1.56361392E+02
  0
LINE
  8
0
 62
4
 10
-4.39999886E+01
 20
1.45226428E+02
 11
-4.39999886E+01
 21
1.56361392E+02
  0
LINE
  8
0
 62
7
 10
-1.50000114E+01
 20
1.31000000E+02
 11
-8.80000191E+01
 21
1.31000000E+02
  0
LINE
  8
0
 62
7
 10
-1.50000114E+01
 20
1.40000015E+02
 11
-8.80000191E+01
 21
1.40000015E+02
  0
LINE
  8
0
 62
7
 10
-2.48419807E+01
 20
1.44000000E+02
 11
-8.80000191E+01
 21
1.44000000E+02
  0
LINE
  8
0
 62
4
 10
-1.50000114E+01
 20
1.24976467E+02
 11
-1.50000114E+01
 21
1.56361392E+02
  0
LINE
  8
0
  6
CENTER
 62
6
 10
1.10745854E+01
 20
1.48330616E+02
 11
3.92539167E+00
 21
1.48330616E+02
  0
LINE
  8
0
  6
CENTER
 62
6
 10
7.49998856E+00
 20
1.51905213E+02
 11
7.49998856E+00
 21
1.44756020E+02
  0
LINE
  8
0
 62
4
 10
1.49999886E+01
 20
1.56361392E+02
 11
1.49999886E+01
 21
1.37518159E+02
  0
LINE
  8
0
 62
4
 10
-1.14440917E-05
 20
1.24976467E+02
 11
-1.14440917E-05
 21
1.56361392E+02
  0
LINE
  8
0
  6
CENTER
 62
6
 10
-1.50000114E+01
 20
1.29159701E+02
 11
-8.00001144E+00
 21
1.29159701E+02
  0
LINE
  8
0
  6
CENTER
 62
6
 10
-1.15000114E+01
 20
1.25659701E+02
 11
-1.15000114E+01
 21
1.32659701E+02
  0
LINE
  8
0
  6
CENTER
 62
6
 10
-7.00001144E+00
 20
1.29159701E+02
 11
-1.14440917E-05
 21
1.29159701E+02
  0
LINE
  8
0
  6
CENTER
 62
6
 10
-3.50001144E+00
 20
1.25659701E+02
 11
-3.50001144E+00
 21
1.32659701E+02
  0
LINE
  8
0
 62
4
 10
-1.50000114E+01
 20
1.56361392E+02
 11
1.49999885E+01
 21
1.56361392E+02
  0
LINE
  8
0
 62
4
 10
-1.50000114E+01
 20
1.24976467E+02
 11
-1.14440917E-05
 21
1.24976467E+02
  0
LINE
  8
0
 62
4
 10
-1.50000115E+01
 20
1.52502944E+02
 11
1.49999885E+01
 21
1.52502944E+02
  0
LINE
  8
0
 62
4
 10
-1.50000115E+01
 20
1.49880698E+02
 11
-1.14511320E-05
 21
1.49880698E+02
  0
LINE
  8
0
 62
4
 10
-1.40000115E+01
 20
1.36049423E+02
 11
-1.00001145E+00
 21
1.36049423E+02
  0
LINE
  8
0
 62
4
 10
-1.14511320E-05
 20
1.37518159E+02
 11
1.49999885E+01
 21
1.37518159E+02
  0
LINE
  8
0
 62
4
 10
-1.14511320E-05
 20
1.44621881E+02
 11
1.49999885E+01
 21
1.44621881E+02
  0
LINE
  8
0
 62
4
 10
-1.14511320E-05
 20
1.44472038E+02
 11
1.49999885E+01
 21
1.44472038E+02
  0
POLYLINE
  8
0
 62
4
 66
1
  0
VERTEX
  8
0
 62
4
 10
5.24998856E+00
 20
1.48330616E+02
  0
VERTEX
  8
0
 62
4
 10
5.25855049E+00
 20
1.48148795E+02
  0
VERTEX
  8
0
 62
4
 10
5.28417111E+00
 20
1.47968357E+02
  0
VERTEX
  8
0
 62
4
 10
5.32665545E+00
 20
1.47790677E+02
  0
VERTEX
  8
0
 62
4
 10
5.38568016E+00
 20
1.47617106E+02
  0
VERTEX
  8
0
 62
4
 10
5.46079604E+00
 20
1.47448965E+02
  0
VERTEX
  8
0
 62
4
 10
5.55143140E+00
 20
1.47287534E+02
  0
VERTEX
  8
0
 62
4
 10
5.65689646E+00
 20
1.47134042E+02
  0
VERTEX
  8
0
 62
4
 10
5.77638856E+00
 20
1.46989656E+02
  0
VERTEX
  8
0
 62
4
 10
5.90899830E+00
 20
1.46855476E+02
  0
VERTEX
  8
0
 62
4
 10
6.05371643E+00
 20
1.46732522E+02
  0
VERTEX
  8
0
 62
4
 10
6.20944157E+00
 20
1.46621731E+02
  0
VERTEX
  8
0
 62
4
 10
6.37498855E+00
 20
1.46523945E+02
  0
VERTEX
  8
0
 62
4
 10
6.54909747E+00
 20
1.46439910E+02
  0
VERTEX
  8
0
 62
4
 10
6.73044323E+00
 20
1.46370263E+02
  0
VERTEX
  8
0
 62
4
 10
6.91764570E+00
 20
1.46315537E+02
  0
VERTEX
  8
0
 62
4
 10
7.10928015E+00
 20
1.46276146E+02
  0
VERTEX
  8
0
 62
4
 10
7.30388813E+00
 20
1.46252391E+02
  0
VERTEX
  8
0
 62
4
 10
7.49998855E+00
 20
1.46244452E+02
  0
VERTEX
  8
0
 62
4
 10
7.69608898E+00
 20
1.46252391E+02
  0
VERTEX
  8
0
 62
4
 10
7.89069695E+00
 20
1.46276146E+02
  0
VERTEX
  8
0
 62
4
 10
8.08233141E+00
 20
1.46315537E+02
  0
VERTEX
  8
0
 62
4
 10
8.26953388E+00
 20
1.46370263E+02
  0
VERTEX
  8
0
 62
4
 10
8.45087964E+00
 20
1.46439910E+02
  0
VERTEX
  8
0
 62
4
 10
8.62498856E+00
 20
1.46523945E+02
  0
VERTEX
  8
0
 62
4
 10
8.79053554E+00
 20
1.46621731E+02
  0
VERTEX
  8
0
 62
4
 10
8.94626068E+00
 20
1.46732522E+02
  0
VERTEX
  8
0
 62
4
 10
9.09097881E+00
 20
1.46855476E+02
  0
VERTEX
  8
0
 62
4
 10
9.22358855E+00
 20
1.46989656E+02
  0
VERTEX
  8
0
 62
4
 10
9.34308066E+00
 20
1.47134042E+02
  0
VERTEX
  8
0
 62
4
 10
9.44854572E+00
 20
1.47287534E+02
  0
VERTEX
  8
0
 62
4
 10
9.53918108E+00
 20
1.47448965E+02
  0
VERTEX
  8
0
 62
4
 10
9.61429696E+00
 20
1.47617106E+02
  0
VERTEX
  8
0
 62
4
 10
9.67332167E+00
 20
1.47790677E+02
  0
VERTEX
  8
0
 62
4
 10
9.71580600E+00
 20
1.47968357E+02
  0
VERTEX
  8
0
 62
4
 10
9.74142663E+00
 20
1.48148795E+02
  0
VERTEX
  8
0
 62
4
 10
9.74998856E+00
 20
1.48330616E+02
  0
VERTEX
  8
0
 62
4
 10
9.74142663E+00
 20
1.48512437E+02
  0
VERTEX
  8
0
 62
4
 10
9.71580600E+00
 20
1.48692875E+02
  0
VERTEX
  8
0
 62
4
 10
9.67332167E+00
 20
1.48870555E+02
  0
VERTEX
  8
0
 62
4
 10
9.61429696E+00
 20
1.49044126E+02
  0
VERTEX
  8
0
 62
4
 10
9.53918108E+00
 20
1.49212267E+02
  0
VERTEX
  8
0
 62
4
 10
9.44854572E+00
 20
1.49373698E+02
  0
VERTEX
  8
0
 62
4
 10
9.34308066E+00
 20
1.49527190E+02
  0
VERTEX
  8
0
 62
4
 10
9.22358856E+00
 20
1.49671576E+02
  0
VERTEX
  8
0
 62
4
 10
9.09097882E+00
 20
1.49805756E+02
  0
VERTEX
  8
0
 62
4
 10
8.94626068E+00
 20
1.49928710E+02
  0
VERTEX
  8
0
 62
4
 10
8.79053554E+00
 20
1.50039501E+02
  0
VERTEX
  8
0
 62
4
 10
8.62498856E+00
 20
1.50137287E+02
  0
VERTEX
  8
0
 62
4
 10
8.45087965E+00
 20
1.50221322E+02
  0
VERTEX
  8
0
 62
4
 10
8.26953389E+00
 20
1.50290969E+02
  0
VERTEX
  8
0
 62
4
 10
8.08233141E+00
 20
1.50345695E+02
  0
VERTEX
  8
0
 62
4
 10
7.89069696E+00
 20
1.50385086E+02
  0
VERTEX
  8
0
 62
4
 10
7.69608898E+00
 20
1.50408841E+02
  0
VERTEX
  8
0
 62
4
 10
7.49998856E+00
 20
1.50416780E+02
  0
VERTEX
  8
0
 62
4
 10
7.30388814E+00
 20
1.50408841E+02
  0
VERTEX
  8
0
 62
4
 10
7.10928016E+00
 20
1.50385086E+02
  0
VERTEX
  8
0
 62
4
 10
6.91764571E+00
 20
1.50345695E+02
  0
VERTEX
  8
0
 62
4
 10
6.73044324E+00
 20
1.50290969E+02
  0
VERTEX
  8
0
 62
4
 10
6.54909747E+00
 20
1.50221322E+02
  0
VERTEX
  8
0
 62
4
 10
6.37498856E+00
 20
1.50137287E+02
  0
VERTEX
  8
0
 62
4
 10
6.20944158E+00
 20
1.50039501E+02
  0
VERTEX
  8
0
 62
4
 10
6.05371644E+00
 20
1.49928710E+02
  0
VERTEX
  8
0
 62
4
 10
5.90899830E+00
 20
1.49805756E+02
  0
VERTEX
  8
0
 62
4
 10
5.77638856E+00
 20
1.49671576E+02
  0
VERTEX
  8
0
 62
4
 10
5.65689646E+00
 20
1.49527190E+02
  0
VERTEX
  8
0
 62
4
 10
5.55143140E+00
 20
1.49373698E+02
  0
VERTEX
  8
0
 62
4
 10
5.46079604E+00
 20
1.49212267E+02
  0
VERTEX
  8
0
 62
4
 10
5.38568016E+00
 20
1.49044126E+02
  0
VERTEX
  8
0
 62
4
 10
5.32665545E+00
 20
1.48870555E+02
  0
VERTEX
  8
0
 62
4
 10
5.28417112E+00
 20
1.48692875E+02
  0
VERTEX
  8
0
 62
4
 10
5.25855049E+00
 20
1.48512437E+02
  0
VERTEX
  8
0
 62
4
 10
5.24998856E+00
 20
1.48330616E+02
  0
SEQEND
  8
0
  0
POLYLINE
  8
0
 62
4
 66
1
  0
VERTEX
  8
0
 62
4
 10
-1.50001144E+00
 20
1.29159701E+02
  0
VERTEX
  8
0
 62
4
 10
-1.50806285E+00
 20
1.29325925E+02
  0
VERTEX
  8
0
 62
4
 10
-1.53215226E+00
 20
1.29490811E+02
  0
VERTEX
  8
0
 62
4
 10
-1.57208571E+00
 20
1.29653031E+02
  0
VERTEX
  8
0
 62
4
 10
-1.62754169E+00
 20
1.29811279E+02
  0
VERTEX
  8
0
 62
4
 10
-1.69807370E+00
 20
1.29964281E+02
  0
VERTEX
  8
0
 62
4
 10
-1.78311385E+00
 20
1.30110805E+02
  0
VERTEX
  8
0
 62
4
 10
-1.88197744E+00
 20
1.30249671E+02
  0
VERTEX
  8
0
 62
4
 10
-1.99386850E+00
 20
1.30379761E+02
  0
VERTEX
  8
0
 62
4
 10
-2.11788613E+00
 20
1.30500028E+02
  0
VERTEX
  8
0
 62
4
 10
-2.25303182E+00
 20
1.30609504E+02
  0
VERTEX
  8
0
 62
4
 10
-2.39821746E+00
 20
1.30707307E+02
  0
VERTEX
  8
0
 62
4
 10
-2.55227410E+00
 20
1.30792649E+02
  0
VERTEX
  8
0
 62
4
 10
-2.71396136E+00
 20
1.30864844E+02
  0
VERTEX
  8
0
 62
4
 10
-2.88197744E+00
 20
1.30923309E+02
  0
VERTEX
  8
0
 62
4
 10
-3.05496956E+00
 20
1.30967576E+02
  0
VERTEX
  8
0
 62
4
 10
-3.23154489E+00
 20
1.30997286E+02
  0
VERTEX
  8
0
 62
4
 10
-3.41028176E+00
 20
1.31012201E+02
  0
VERTEX
  8
0
 62
4
 10
-3.58974108E+00
 20
1.31012201E+02
  0
VERTEX
  8
0
 62
4
 10
-3.76847795E+00
 20
1.30997286E+02
  0
VERTEX
  8
0
 62
4
 10
-3.94505329E+00
 20
1.30967576E+02
  0
VERTEX
  8
0
 62
4
 10
-4.11804541E+00
 20
1.30923309E+02
  0
VERTEX
  8
0
 62
4
 10
-4.28606149E+00
 20
1.30864844E+02
  0
VERTEX
  8
0
 62
4
 10
-4.44774875E+00
 20
1.30792649E+02
  0
VERTEX
  8
0
 62
4
 10
-4.60180539E+00
 20
1.30707307E+02
  0
VERTEX
  8
0
 62
4
 10
-4.74699103E+00
 20
1.30609504E+02
  0
VERTEX
  8
0
 62
4
 10
-4.88213672E+00
 20
1.30500028E+02
  0
VERTEX
  8
0
 62
4
 10
-5.00615436E+00
 20
1.30379761E+02
  0
VERTEX
  8
0
 62
4
 10
-5.11804542E+00
 20
1.30249671E+02
  0
VERTEX
  8
0
 62
4
 10
-5.21690902E+00
 20
1.30110805E+02
  0
VERTEX
  8
0
 62
4
 10
-5.30194917E+00
 20
1.29964281E+02
  0
VERTEX
  8
0
 62
4
 10
-5.37248117E+00
 20
1.29811279E+02
  0
VERTEX
  8
0
 62
4
 10
-5.42793716E+00
 20
1.29653031E+02
  0
VERTEX
  8
0
 62
4
 10
-5.46787061E+00
 20
1.29490811E+02
  0
VERTEX
  8
0
 62
4
 10
-5.49196003E+00
 20
1.29325925E+02
  0
VERTEX
  8
0
 62
4
 10
-5.50001144E+00
 20
1.29159701E+02
  0
SEQEND
  8
0
  0
LINE
  8
0
 62
4
 10
-5.50001144E+00
 20
1.27682824E+02
 11
-5.50001144E+00
 21
1.29159701E+02
  0
LINE
  8
0
 62
4
 10
-1.50001144E+00
 20
1.27682824E+02
 11
-1.50001144E+00
 21
1.29159701E+02
  0
POLYLINE
  8
0
 62
4
 66
1
  0
VERTEX
  8
0
 62
4
 10
-5.50001144E+00
 20
1.27682824E+02
  0
VERTEX
  8
0
 62
4
 10
-5.49240084E+00
 20
1.27521205E+02
  0
VERTEX
  8
0
 62
4
 10
-5.46962695E+00
 20
1.27360816E+02
  0
VERTEX
  8
0
 62
4
 10
-5.43186309E+00
 20
1.27202878E+02
  0
VERTEX
  8
0
 62
4
 10
-5.37939668E+00
 20
1.27048593E+02
  0
VERTEX
  8
0
 62
4
 10
-5.31262702E+00
 20
1.26899134E+02
  0
VERTEX
  8
0
 62
4
 10
-5.23206225E+00
 20
1.26755640E+02
  0
VERTEX
  8
0
 62
4
 10
-5.13831553E+00
 20
1.26619202E+02
  0
VERTEX
  8
0
 62
4
 10
-5.03210033E+00
 20
1.26490859E+02
  0
VERTEX
  8
0
 62
4
 10
-4.91422501E+00
 20
1.26371588E+02
  0
VERTEX
  8
0
 62
4
 10
-4.78558666E+00
 20
1.26262296E+02
  0
VERTEX
  8
0
 62
4
 10
-4.64716432E+00
 20
1.26163815E+02
  0
VERTEX
  8
0
 62
4
 10
-4.50001144E+00
 20
1.26076894E+02
  0
VERTEX
  8
0
 62
4
 10
-4.34524797E+00
 20
1.26002196E+02
  0
VERTEX
  8
0
 62
4
 10
-4.18405173E+00
 20
1.25940288E+02
  0
VERTEX
  8
0
 62
4
 10
-4.01764954E+00
 20
1.25891642E+02
  0
VERTEX
  8
0
 62
4
 10
-3.84730780E+00
 20
1.25856628E+02
  0
VERTEX
  8
0
 62
4
 10
-3.67432293E+00
 20
1.25835513E+02
  0
VERTEX
  8
0
 62
4
 10
-3.50001145E+00
 20
1.25828456E+02
  0
VERTEX
  8
0
 62
4
 10
-3.32569996E+00
 20
1.25835513E+02
  0
VERTEX
  8
0
 62
4
 10
-3.15271509E+00
 20
1.25856628E+02
  0
VERTEX
  8
0
 62
4
 10
-2.98237335E+00
 20
1.25891642E+02
  0
VERTEX
  8
0
 62
4
 10
-2.81597116E+00
 20
1.25940288E+02
  0
VERTEX
  8
0
 62
4
 10
-2.65477492E+00
 20
1.26002196E+02
  0
VERTEX
  8
0
 62
4
 10
-2.50001144E+00
 20
1.26076894E+02
  0
VERTEX
  8
0
 62
4
 10
-2.35285857E+00
 20
1.26163815E+02
  0
VERTEX
  8
0
 62
4
 10
-2.21443622E+00
 20
1.26262296E+02
  0
VERTEX
  8
0
 62
4
 10
-2.08579788E+00
 20
1.26371588E+02
  0
VERTEX
  8
0
 62
4
 10
-1.96792256E+00
 20
1.26490859E+02
  0
VERTEX
  8
0
 62
4
 10
-1.86170735E+00
 20
1.26619202E+02
  0
VERTEX
  8
0
 62
4
 10
-1.76796063E+00
 20
1.26755640E+02
  0
VERTEX
  8
0
 62
4
 10
-1.68739587E+00
 20
1.26899134E+02
  0
VERTEX
  8
0
 62
4
 10
-1.62062620E+00
 20
1.27048593E+02
  0
VERTEX
  8
0
 62
4
 10
-1.56815979E+00
 20
1.27202878E+02
  0
VERTEX
  8
0
 62
4
 10
-1.53039593E+00
 20
1.27360816E+02
  0
VERTEX
  8
0
 62
4
 10
-1.50762204E+00
 20
1.27521205E+02
  0
VERTEX
  8
0
 62
4
 10
-1.50001144E+00
 20
1.27682824E+02
  0
VERTEX
  8
0
 62
4
 10
-1.50762204E+00
 20
1.27844443E+02
  0
VERTEX
  8
0
 62
4
 10
-1.53039593E+00
 20
1.28004832E+02
  0
VERTEX
  8
0
 62
4
 10
-1.56815979E+00
 20
1.28162770E+02
  0
VERTEX
  8
0
 62
4
 10
-1.62062620E+00
 20
1.28317055E+02
  0
VERTEX
  8
0
 62
4
 10
-1.68739586E+00
 20
1.28466514E+02
  0
VERTEX
  8
0
 62
4
 10
-1.76796063E+00
 20
1.28610008E+02
  0
VERTEX
  8
0
 62
4
 10
-1.86170735E+00
 20
1.28746446E+02
  0
VERTEX
  8
0
 62
4
 10
-1.96792255E+00
 20
1.28874789E+02
  0
VERTEX
  8
0
 62
4
 10
-2.08579788E+00
 20
1.28994060E+02
  0
VERTEX
  8
0
 62
4
 10
-2.21443622E+00
 20
1.29103352E+02
  0
VERTEX
  8
0
 62
4
 10
-2.35285856E+00
 20
1.29201833E+02
  0
VERTEX
  8
0
 62
4
 10
-2.50001144E+00
 20
1.29288754E+02
  0
VERTEX
  8
0
 62
4
 10
-2.65477491E+00
 20
1.29363452E+02
  0
VERTEX
  8
0
 62
4
 10
-2.81597115E+00
 20
1.29425360E+02
  0
VERTEX
  8
0
 62
4
 10
-2.98237335E+00
 20
1.29474006E+02
  0
VERTEX
  8
0
 62
4
 10
-3.15271508E+00
 20
1.29509020E+02
  0
VERTEX
  8
0
 62
4
 10
-3.32569995E+00
 20
1.29530135E+02
  0
VERTEX
  8
0
 62
4
 10
-3.50001144E+00
 20
1.29537192E+02
  0
VERTEX
  8
0
 62
4
 10
-3.67432292E+00
 20
1.29530135E+02
  0
VERTEX
  8
0
 62
4
 10
-3.84730779E+00
 20
1.29509020E+02
  0
VERTEX
  8
0
 62
4
 10
-4.01764953E+00
 20
1.29474006E+02
  0
VERTEX
  8
0
 62
4
 10
-4.18405172E+00
 20
1.29425360E+02
  0
VERTEX
  8
0
 62
4
 10
-4.34524796E+00
 20
1.29363452E+02
  0
VERTEX
  8
0
 62
4
 10
-4.50001144E+00
 20
1.29288754E+02
  0
VERTEX
  8
0
 62
4
 10
-4.64716431E+00
 20
1.29201833E+02
  0
VERTEX
  8
0
 62
4
 10
-4.78558666E+00
 20
1.29103352E+02
  0
VERTEX
  8
0
 62
4
 10
-4.91422500E+00
 20
1.28994060E+02
  0
VERTEX
  8
0
 62
4
 10
-5.03210033E+00
 20
1.28874789E+02
  0
VERTEX
  8
0
 62
4
 10
-5.13831553E+00
 20
1.28746446E+02
  0
VERTEX
  8
0
 62
4
 10
-5.23206225E+00
 20
1.28610008E+02
  0
VERTEX
  8
0
 62
4
 10
-5.31262701E+00
 20
1.28466514E+02
  0
VERTEX
  8
0
 62
4
 10
-5.37939668E+00
 20
1.28317055E+02
  0
VERTEX
  8
0
 62
4
 10
-5.43186309E+00
 20
1.28162770E+02
  0
VERTEX
  8
0
 62
4
 10
-5.46962695E+00
 20
1.28004832E+02
  0
VERTEX
  8
0
 62
4
 10
-5.49240084E+00
 20
1.27844443E+02
  0
VERTEX
  8
0
 62
4
 10
-5.50001144E+00
 20
1.27682824E+02
  0
SEQEND
  8
0
  0
POLYLINE
  8
0
 62
6
 66
1
  0
VERTEX
  8
0
 62
6
 10
-5.00001144E+00
 20
1.27682824E+02
  0
VERTEX
  8
0
 62
6
 10
-4.99430349E+00
 20
1.27561610E+02
  0
VERTEX
  8
0
 62
6
 10
-4.97722307E+00
 20
1.27441318E+02
  0
VERTEX
  8
0
 62
6
 10
-4.94890018E+00
 20
1.27322865E+02
  0
VERTEX
  8
0
 62
6
 10
-4.90955037E+00
 20
1.27207151E+02
  0
VERTEX
  8
0
 62
6
 10
-4.85947312E+00
 20
1.27095057E+02
  0
VERTEX
  8
0
 62
6
 10
-4.79904955E+00
 20
1.26987436E+02
  0
VERTEX
  8
0
 62
6
 10
-4.72873951E+00
 20
1.26885108E+02
  0
VERTEX
  8
0
 62
6
 10
-4.64907811E+00
 20
1.26788851E+02
  0
VERTEX
  8
0
 62
6
 10
-4.56067161E+00
 20
1.26699397E+02
  0
VERTEX
  8
0
 62
6
 10
-4.46419286E+00
 20
1.26617428E+02
  0
VERTEX
  8
0
 62
6
 10
-4.36037610E+00
 20
1.26543567E+02
  0
VERTEX
  8
0
 62
6
 10
-4.25001144E+00
 20
1.26478377E+02
  0
VERTEX
  8
0
 62
6
 10
-4.13393884E+00
 20
1.26422353E+02
  0
VERTEX
  8
0
 62
6
 10
-4.01304166E+00
 20
1.26375922E+02
  0
VERTEX
  8
0
 62
6
 10
-3.88824001E+00
 20
1.26339438E+02
  0
VERTEX
  8
0
 62
6
 10
-3.76048371E+00
 20
1.26313177E+02
  0
VERTEX
  8
0
 62
6
 10
-3.63074506E+00
 20
1.26297341E+02
  0
VERTEX
  8
0
 62
6
 10
-3.50001144E+00
 20
1.26292048E+02
  0
VERTEX
  8
0
 62
6
 10
-3.36927783E+00
 20
1.26297341E+02
  0
VERTEX
  8
0
 62
6
 10
-3.23953918E+00
 20
1.26313177E+02
  0
VERTEX
  8
0
 62
6
 10
-3.11178288E+00
 20
1.26339438E+02
  0
VERTEX
  8
0
 62
6
 10
-2.98698123E+00
 20
1.26375922E+02
  0
VERTEX
  8
0
 62
6
 10
-2.86608405E+00
 20
1.26422353E+02
  0
VERTEX
  8
0
 62
6
 10
-2.75001144E+00
 20
1.26478377E+02
  0
VERTEX
  8
0
 62
6
 10
-2.63964679E+00
 20
1.26543567E+02
  0
VERTEX
  8
0
 62
6
 10
-2.53583003E+00
 20
1.26617428E+02
  0
VERTEX
  8
0
 62
6
 10
-2.43935127E+00
 20
1.26699397E+02
  0
VERTEX
  8
0
 62
6
 10
-2.35094478E+00
 20
1.26788851E+02
  0
VERTEX
  8
0
 62
6
 10
-2.27128338E+00
 20
1.26885108E+02
  0
VERTEX
  8
0
 62
6
 10
-2.20097334E+00
 20
1.26987436E+02
  0
VERTEX
  8
0
 62
6
 10
-2.14054976E+00
 20
1.27095057E+02
  0
VERTEX
  8
0
 62
6
 10
-2.09047251E+00
 20
1.27207151E+02
  0
VERTEX
  8
0
 62
6
 10
-2.05112270E+00
 20
1.27322865E+02
  0
VERTEX
  8
0
 62
6
 10
-2.02279981E+00
 20
1.27441318E+02
  0
VERTEX
  8
0
 62
6
 10
-2.00571939E+00
 20
1.27561610E+02
  0
VERTEX
  8
0
 62
6
 10
-2.00001144E+00
 20
1.27682824E+02
  0
VERTEX
  8
0
 62
6
 10
-2.00571939E+00
 20
1.27804038E+02
  0
VERTEX
  8
0
 62
6
 10
-2.02279981E+00
 20
1.27924330E+02
  0
VERTEX
  8
0
 62
6
 10
-2.05112270E+00
 20
1.28042783E+02
  0
VERTEX
  8
0
 62
6
 10
-2.09047251E+00
 20
1.28158497E+02
  0
VERTEX
  8
0
 62
6
 10
-2.14054976E+00
 20
1.28270591E+02
  0
VERTEX
  8
0
 62
6
 10
-2.20097333E+00
 20
1.28378212E+02
  0
VERTEX
  8
0
 62
6
 10
-2.27128337E+00
 20
1.28480540E+02
  0
VERTEX
  8
0
 62
6
 10
-2.35094477E+00
 20
1.28576797E+02
  0
VERTEX
  8
0
 62
6
 10
-2.43935127E+00
 20
1.28666251E+02
  0
VERTEX
  8
0
 62
6
 10
-2.53583002E+00
 20
1.28748220E+02
  0
VERTEX
  8
0
 62
6
 10
-2.63964678E+00
 20
1.28822081E+02
  0
VERTEX
  8
0
 62
6
 10
-2.75001144E+00
 20
1.28887271E+02
  0
VERTEX
  8
0
 62
6
 10
-2.86608405E+00
 20
1.28943295E+02
  0
VERTEX
  8
0
 62
6
 10
-2.98698122E+00
 20
1.28989726E+02
  0
VERTEX
  8
0
 62
6
 10
-3.11178287E+00
 20
1.29026210E+02
  0
VERTEX
  8
0
 62
6
 10
-3.23953917E+00
 20
1.29052471E+02
  0
VERTEX
  8
0
 62
6
 10
-3.36927782E+00
 20
1.29068307E+02
  0
VERTEX
  8
0
 62
6
 10
-3.50001144E+00
 20
1.29073600E+02
  0
VERTEX
  8
0
 62
6
 10
-3.63074505E+00
 20
1.29068307E+02
  0
VERTEX
  8
0
 62
6
 10
-3.76048370E+00
 20
1.29052471E+02
  0
VERTEX
  8
0
 62
6
 10
-3.88824001E+00
 20
1.29026210E+02
  0
VERTEX
  8
0
 62
6
 10
-4.01304165E+00
 20
1.28989726E+02
  0
VERTEX
  8
0
 62
6
 10
-4.13393883E+00
 20
1.28943295E+02
  0
VERTEX
  8
0
 62
6
 10
-4.25001144E+00
 20
1.28887271E+02
  0
VERTEX
  8
0
 62
6
 10
-4.36037609E+00
 20
1.28822081E+02
  0
VERTEX
  8
0
 62
6
 10
-4.46419285E+00
 20
1.28748220E+02
  0
VERTEX
  8
0
 62
6
 10
-4.56067161E+00
 20
1.28666251E+02
  0
VERTEX
  8
0
 62
6
 10
-4.64907810E+00
 20
1.28576797E+02
  0
VERTEX
  8
0
 62
6
 10
-4.72873951E+00
 20
1.28480540E+02
  0
VERTEX
  8
0
 62
6
 10
-4.79904955E+00
 20
1.28378212E+02
  0
VERTEX
  8
0
 62
6
 10
-4.85947312E+00
 20
1.28270591E+02
  0
VERTEX
  8
0
 62
6
 10
-4.90955037E+00
 20
1.28158497E+02
  0
VERTEX
  8
0
 62
6
 10
-4.94890018E+00
 20
1.28042783E+02
  0
VERTEX
  8
0
 62
6
 10
-4.97722307E+00
 20
1.27924330E+02
  0
VERTEX
  8
0
 62
6
 10
-4.99430349E+00
 20
1.27804038E+02
  0
VERTEX
  8
0
 62
6
 10
-5.00001144E+00
 20
1.27682824E+02
  0
SEQEND
  8
0
  0
LINE
  8
0
 62
4
 10
-3.50001144E+00
 20
1.28749086E+02
 11
-4.50001144E+00
 21
1.28220591E+02
  0
LINE
  8
0
 62
4
 10
-4.50001144E+00
 20
1.28220591E+02
 11
-4.50001144E+00
 21
1.27145058E+02
  0
LINE
  8
0
 62
4
 10
-4.50001144E+00
 20
1.27145058E+02
 11
-3.50001144E+00
 21
1.26607291E+02
  0
LINE
  8
0
 62
4
 10
-3.50001144E+00
 20
1.26607291E+02
 11
-2.50001144E+00
 21
1.27145058E+02
  0
LINE
  8
0
 62
4
 10
-2.50001144E+00
 20
1.27145058E+02
 11
-2.50001144E+00
 21
1.28220591E+02
  0
LINE
  8
0
 62
4
 10
-2.50001144E+00
 20
1.28220591E+02
 11
-3.50001144E+00
 21
1.28749086E+02
  0
LINE
  8
0
 62
4
 10
-1.05000114E+01
 20
1.28220591E+02
 11
-1.15000114E+01
 21
1.28749086E+02
  0
LINE
  8
0
 62
4
 10
-1.05000114E+01
 20
1.27145058E+02
 11
-1.05000114E+01
 21
1.28220591E+02
  0
LINE
  8
0
 62
4
 10
-1.15000114E+01
 20
1.26607291E+02
 11
-1.05000114E+01
 21
1.27145058E+02
  0
LINE
  8
0
 62
4
 10
-1.25000114E+01
 20
1.27145058E+02
 11
-1.15000114E+01
 21
1.26607291E+02
  0
LINE
  8
0
 62
4
 10
-1.25000114E+01
 20
1.28220591E+02
 11
-1.25000114E+01
 21
1.27145058E+02
  0
LINE
  8
0
 62
4
 10
-1.15000114E+01
 20
1.28749086E+02
 11
-1.25000114E+01
 21
1.28220591E+02
  0
POLYLINE
  8
0
 62
6
 66
1
  0
VERTEX
  8
0
 62
6
 10
-1.30000114E+01
 20
1.27682824E+02
  0
VERTEX
  8
0
 62
6
 10
-1.29943034E+01
 20
1.27561610E+02
  0
VERTEX
  8
0
 62
6
 10
-1.29772230E+01
 20
1.27441318E+02
  0
VERTEX
  8
0
 62
6
 10
-1.29489001E+01
 20
1.27322865E+02
  0
VERTEX
  8
0
 62
6
 10
-1.29095503E+01
 20
1.27207151E+02
  0
VERTEX
  8
0
 62
6
 10
-1.28594731E+01
 20
1.27095057E+02
  0
VERTEX
  8
0
 62
6
 10
-1.27990495E+01
 20
1.26987436E+02
  0
VERTEX
  8
0
 62
6
 10
-1.27287395E+01
 20
1.26885108E+02
  0
VERTEX
  8
0
 62
6
 10
-1.26490781E+01
 20
1.26788851E+02
  0
VERTEX
  8
0
 62
6
 10
-1.25606716E+01
 20
1.26699397E+02
  0
VERTEX
  8
0
 62
6
 10
-1.24641928E+01
 20
1.26617428E+02
  0
VERTEX
  8
0
 62
6
 10
-1.23603761E+01
 20
1.26543567E+02
  0
VERTEX
  8
0
 62
6
 10
-1.22500114E+01
 20
1.26478377E+02
  0
VERTEX
  8
0
 62
6
 10
-1.21339388E+01
 20
1.26422353E+02
  0
VERTEX
  8
0
 62
6
 10
-1.20130416E+01
 20
1.26375922E+02
  0
VERTEX
  8
0
 62
6
 10
-1.18882400E+01
 20
1.26339438E+02
  0
VERTEX
  8
0
 62
6
 10
-1.17604837E+01
 20
1.26313177E+02
  0
VERTEX
  8
0
 62
6
 10
-1.16307450E+01
 20
1.26297341E+02
  0
VERTEX
  8
0
 62
6
 10
-1.15000114E+01
 20
1.26292048E+02
  0
VERTEX
  8
0
 62
6
 10
-1.13692778E+01
 20
1.26297341E+02
  0
VERTEX
  8
0
 62
6
 10
-1.12395391E+01
 20
1.26313177E+02
  0
VERTEX
  8
0
 62
6
 10
-1.11117828E+01
 20
1.26339438E+02
  0
VERTEX
  8
0
 62
6
 10
-1.09869812E+01
 20
1.26375922E+02
  0
VERTEX
  8
0
 62
6
 10
-1.08660840E+01
 20
1.26422353E+02
  0
VERTEX
  8
0
 62
6
 10
-1.07500114E+01
 20
1.26478377E+02
  0
VERTEX
  8
0
 62
6
 10
-1.06396467E+01
 20
1.26543567E+02
  0
VERTEX
  8
0
 62
6
 10
-1.05358300E+01
 20
1.26617428E+02
  0
VERTEX
  8
0
 62
6
 10
-1.04393512E+01
 20
1.26699397E+02
  0
VERTEX
  8
0
 62
6
 10
-1.03509447E+01
 20
1.26788851E+02
  0
VERTEX
  8
0
 62
6
 10
-1.02712833E+01
 20
1.26885108E+02
  0
VERTEX
  8
0
 62
6
 10
-1.02009733E+01
 20
1.26987436E+02
  0
VERTEX
  8
0
 62
6
 10
-1.01405497E+01
 20
1.27095057E+02
  0
VERTEX
  8
0
 62
6
 10
-1.00904725E+01
 20
1.27207151E+02
  0
VERTEX
  8
0
 62
6
 10
-1.00511227E+01
 20
1.27322865E+02
  0
VERTEX
  8
0
 62
6
 10
-1.00227998E+01
 20
1.27441318E+02
  0
VERTEX
  8
0
 62
6
 10
-1.00057194E+01
 20
1.27561610E+02
  0
VERTEX
  8
0
 62
6
 10
-1.00000114E+01
 20
1.27682824E+02
  0
VERTEX
  8
0
 62
6
 10
-1.00057194E+01
 20
1.27804038E+02
  0
VERTEX
  8
0
 62
6
 10
-1.00227998E+01
 20
1.27924330E+02
  0
VERTEX
  8
0
 62
6
 10
-1.00511227E+01
 20
1.28042783E+02
  0
VERTEX
  8
0
 62
6
 10
-1.00904725E+01
 20
1.28158497E+02
  0
VERTEX
  8
0
 62
6
 10
-1.01405497E+01
 20
1.28270591E+02
  0
VERTEX
  8
0
 62
6
 10
-1.02009733E+01
 20
1.28378212E+02
  0
VERTEX
  8
0
 62
6
 10
-1.02712833E+01
 20
1.28480540E+02
  0
VERTEX
  8
0
 62
6
 10
-1.03509447E+01
 20
1.28576797E+02
  0
VERTEX
  8
0
 62
6
 10
-1.04393512E+01
 20
1.28666251E+02
  0
VERTEX
  8
0
 62
6
 10
-1.05358300E+01
 20
1.28748220E+02
  0
VERTEX
  8
0
 62
6
 10
-1.06396467E+01
 20
1.28822081E+02
  0
VERTEX
  8
0
 62
6
 10
-1.07500114E+01
 20
1.28887271E+02
  0
VERTEX
  8
0
 62
6
 10
-1.08660840E+01
 20
1.28943295E+02
  0
VERTEX
  8
0
 62
6
 10
-1.09869812E+01
 20
1.28989726E+02
  0
VERTEX
  8
0
 62
6
 10
-1.11117828E+01
 20
1.29026210E+02
  0
VERTEX
  8
0
 62
6
 10
-1.12395391E+01
 20
1.29052471E+02
  0
VERTEX
  8
0
 62
6
 10
-1.13692778E+01
 20
1.29068307E+02
  0
VERTEX
  8
0
 62
6
 10
-1.15000114E+01
 20
1.29073600E+02
  0
VERTEX
  8
0
 62
6
 10
-1.16307450E+01
 20
1.29068307E+02
  0
VERTEX
  8
0
 62
6
 10
-1.17604837E+01
 20
1.29052471E+02
  0
VERTEX
  8
0
 62
6
 10
-1.18882400E+01
 20
1.29026210E+02
  0
VERTEX
  8
0
 62
6
 10
-1.20130416E+01
 20
1.28989726E+02
  0
VERTEX
  8
0
 62
6
 10
-1.21339388E+01
 20
1.28943295E+02
  0
VERTEX
  8
0
 62
6
 10
-1.22500114E+01
 20
1.28887271E+02
  0
VERTEX
  8
0
 62
6
 10
-1.23603761E+01
 20
1.28822081E+02
  0
VERTEX
  8
0
 62
6
 10
-1.24641928E+01
 20
1.28748220E+02
  0
VERTEX
  8
0
 62
6
 10
-1.25606716E+01
 20
1.28666251E+02
  0
VERTEX
  8
0
 62
6
 10
-1.26490781E+01
 20
1.28576797E+02
  0
VERTEX
  8
0
 62
6
 10
-1.27287395E+01
 20
1.28480540E+02
  0
VERTEX
  8
0
 62
6
 10
-1.27990495E+01
 20
1.28378212E+02
  0
VERTEX
  8
0
 62
6
 10
-1.28594731E+01
 20
1.28270591E+02
  0
VERTEX
  8
0
 62
6
 10
-1.29095503E+01
 20
1.28158497E+02
  0
VERTEX
  8
0
 62
6
 10
-1.29489001E+01
 20
1.28042783E+02
  0
VERTEX
  8
0
 62
6
 10
-1.29772230E+01
 20
1.27924330E+02
  0
VERTEX
  8
0
 62
6
 10
-1.29943034E+01
 20
1.27804038E+02
  0
VERTEX
  8
0
 62
6
 10
-1.30000114E+01
 20
1.27682824E+02
  0
SEQEND
  8
0
  0
POLYLINE
  8
0
 62
4
 66
1
  0
VERTEX
  8
0
 62
4
 10
-1.35000114E+01
 20
1.27682824E+02
  0
VERTEX
  8
0
 62
4
 10
-1.34924008E+01
 20
1.27521205E+02
  0
VERTEX
  8
0
 62
4
 10
-1.34696269E+01
 20
1.27360816E+02
  0
VERTEX
  8
0
 62
4
 10
-1.34318631E+01
 20
1.27202878E+02
  0
VERTEX
  8
0
 62
4
 10
-1.33793966E+01
 20
1.27048593E+02
  0
VERTEX
  8
0
 62
4
 10
-1.33126270E+01
 20
1.26899134E+02
  0
VERTEX
  8
0
 62
4
 10
-1.32320622E+01
 20
1.26755640E+02
  0
VERTEX
  8
0
 62
4
 10
-1.31383155E+01
 20
1.26619202E+02
  0
VERTEX
  8
0
 62
4
 10
-1.30321003E+01
 20
1.26490859E+02
  0
VERTEX
  8
0
 62
4
 10
-1.29142250E+01
 20
1.26371588E+02
  0
VERTEX
  8
0
 62
4
 10
-1.27855866E+01
 20
1.26262296E+02
  0
VERTEX
  8
0
 62
4
 10
-1.26471643E+01
 20
1.26163815E+02
  0
VERTEX
  8
0
 62
4
 10
-1.25000114E+01
 20
1.26076894E+02
  0
VERTEX
  8
0
 62
4
 10
-1.23452479E+01
 20
1.26002196E+02
  0
VERTEX
  8
0
 62
4
 10
-1.21840517E+01
 20
1.25940288E+02
  0
VERTEX
  8
0
 62
4
 10
-1.20176495E+01
 20
1.25891642E+02
  0
VERTEX
  8
0
 62
4
 10
-1.18473078E+01
 20
1.25856628E+02
  0
VERTEX
  8
0
 62
4
 10
-1.16743229E+01
 20
1.25835513E+02
  0
VERTEX
  8
0
 62
4
 10
-1.15000114E+01
 20
1.25828456E+02
  0
VERTEX
  8
0
 62
4
 10
-1.13256999E+01
 20
1.25835513E+02
  0
VERTEX
  8
0
 62
4
 10
-1.11527150E+01
 20
1.25856628E+02
  0
VERTEX
  8
0
 62
4
 10
-1.09823733E+01
 20
1.25891642E+02
  0
VERTEX
  8
0
 62
4
 10
-1.08159711E+01
 20
1.25940288E+02
  0
VERTEX
  8
0
 62
4
 10
-1.06547749E+01
 20
1.26002196E+02
  0
VERTEX
  8
0
 62
4
 10
-1.05000114E+01
 20
1.26076894E+02
  0
VERTEX
  8
0
 62
4
 10
-1.03528585E+01
 20
1.26163815E+02
  0
VERTEX
  8
0
 62
4
 10
-1.02144362E+01
 20
1.26262296E+02
  0
VERTEX
  8
0
 62
4
 10
-1.00857978E+01
 20
1.26371588E+02
  0
VERTEX
  8
0
 62
4
 10
-9.96792252E+00
 20
1.26490859E+02
  0
VERTEX
  8
0
 62
4
 10
-9.86170731E+00
 20
1.26619202E+02
  0
VERTEX
  8
0
 62
4
 10
-9.76796059E+00
 20
1.26755640E+02
  0
VERTEX
  8
0
 62
4
 10
-9.68739583E+00
 20
1.26899134E+02
  0
VERTEX
  8
0
 62
4
 10
-9.62062616E+00
 20
1.27048593E+02
  0
VERTEX
  8
0
 62
4
 10
-9.56815975E+00
 20
1.27202878E+02
  0
VERTEX
  8
0
 62
4
 10
-9.53039589E+00
 20
1.27360816E+02
  0
VERTEX
  8
0
 62
4
 10
-9.50762200E+00
 20
1.27521205E+02
  0
VERTEX
  8
0
 62
4
 10
-9.50001140E+00
 20
1.27682824E+02
  0
VERTEX
  8
0
 62
4
 10
-9.50762200E+00
 20
1.27844443E+02
  0
VERTEX
  8
0
 62
4
 10
-9.53039589E+00
 20
1.28004832E+02
  0
VERTEX
  8
0
 62
4
 10
-9.56815975E+00
 20
1.28162770E+02
  0
VERTEX
  8
0
 62
4
 10
-9.62062616E+00
 20
1.28317055E+02
  0
VERTEX
  8
0
 62
4
 10
-9.68739582E+00
 20
1.28466514E+02
  0
VERTEX
  8
0
 62
4
 10
-9.76796059E+00
 20
1.28610008E+02
  0
VERTEX
  8
0
 62
4
 10
-9.86170731E+00
 20
1.28746446E+02
  0
VERTEX
  8
0
 62
4
 10
-9.96792251E+00
 20
1.28874789E+02
  0
VERTEX
  8
0
 62
4
 10
-1.00857978E+01
 20
1.28994060E+02
  0
VERTEX
  8
0
 62
4
 10
-1.02144362E+01
 20
1.29103352E+02
  0
VERTEX
  8
0
 62
4
 10
-1.03528585E+01
 20
1.29201833E+02
  0
VERTEX
  8
0
 62
4
 10
-1.05000114E+01
 20
1.29288754E+02
  0
VERTEX
  8
0
 62
4
 10
-1.06547749E+01
 20
1.29363452E+02
  0
VERTEX
  8
0
 62
4
 10
-1.08159711E+01
 20
1.29425360E+02
  0
VERTEX
  8
0
 62
4
 10
-1.09823733E+01
 20
1.29474006E+02
  0
VERTEX
  8
0
 62
4
 10
-1.11527150E+01
 20
1.29509020E+02
  0
VERTEX
  8
0
 62
4
 10
-1.13256999E+01
 20
1.29530135E+02
  0
VERTEX
  8
0
 62
4
 10
-1.15000114E+01
 20
1.29537192E+02
  0
VERTEX
  8
0
 62
4
 10
-1.16743229E+01
 20
1.29530135E+02
  0
VERTEX
  8
0
 62
4
 10
-1.18473078E+01
 20
1.29509020E+02
  0
VERTEX
  8
0
 62
4
 10
-1.20176495E+01
 20
1.29474006E+02
  0
VERTEX
  8
0
 62
4
 10
-1.21840517E+01
 20
1.29425360E+02
  0
VERTEX
  8
0
 62
4
 10
-1.23452479E+01
 20
1.29363452E+02
  0
VERTEX
  8
0
 62
4
 10
-1.25000114E+01
 20
1.29288754E+02
  0
VERTEX
  8
0
 62
4
 10
-1.26471643E+01
 20
1.29201833E+02
  0
VERTEX
  8
0
 62
4
 10
-1.27855866E+01
 20
1.29103352E+02
  0
VERTEX
  8
0
 62
4
 10
-1.29142250E+01
 20
1.28994060E+02
  0
VERTEX
  8
0
 62
4
 10
-1.30321003E+01
 20
1.28874789E+02
  0
VERTEX
  8
0
 62
4
 10
-1.31383155E+01
 20
1.28746446E+02
  0
VERTEX
  8
0
 62
4
 10
-1.32320622E+01
 20
1.28610008E+02
  0
VERTEX
  8
0
 62
4
 10
-1.33126270E+01
 20
1.28466514E+02
  0
VERTEX
  8
0
 62
4
 10
-1.33793966E+01
 20
1.28317055E+02
  0
VERTEX
  8
0
 62
4
 10
-1.34318631E+01
 20
1.28162770E+02
  0
VERTEX
  8
0
 62
4
 10
-1.34696269E+01
 20
1.28004832E+02
  0
VERTEX
  8
0
 62
4
 10
-1.34924008E+01
 20
1.27844443E+02
  0
VERTEX
  8
0
 62
4
 10
-1.35000114E+01
 20
1.27682824E+02
  0
SEQEND
  8
0
  0
LINE
  8
0
 62
4
 10
-9.50001144E+00
 20
1.27682824E+02
 11
-9.50001144E+00
 21
1.29159701E+02
  0
LINE
  8
0
 62
4
 10
-1.35000114E+01
 20
1.27682824E+02
 11
-1.35000114E+01
 21
1.29159701E+02
  0
POLYLINE
  8
0
 62
4
 66
1
  0
VERTEX
  8
0
 62
4
 10
-9.50001140E+00
 20
1.29159701E+02
  0
VERTEX
  8
0
 62
4
 10
-9.50806281E+00
 20
1.29325925E+02
  0
VERTEX
  8
0
 62
4
 10
-9.53215222E+00
 20
1.29490811E+02
  0
VERTEX
  8
0
 62
4
 10
-9.57208567E+00
 20
1.29653031E+02
  0
VERTEX
  8
0
 62
4
 10
-9.62754165E+00
 20
1.29811279E+02
  0
VERTEX
  8
0
 62
4
 10
-9.69807366E+00
 20
1.29964281E+02
  0
VERTEX
  8
0
 62
4
 10
-9.78311381E+00
 20
1.30110805E+02
  0
VERTEX
  8
0
 62
4
 10
-9.88197740E+00
 20
1.30249671E+02
  0
VERTEX
  8
0
 62
4
 10
-9.99386846E+00
 20
1.30379761E+02
  0
VERTEX
  8
0
 62
4
 10
-1.01178861E+01
 20
1.30500028E+02
  0
VERTEX
  8
0
 62
4
 10
-1.02530318E+01
 20
1.30609504E+02
  0
VERTEX
  8
0
 62
4
 10
-1.03982174E+01
 20
1.30707307E+02
  0
VERTEX
  8
0
 62
4
 10
-1.05522741E+01
 20
1.30792649E+02
  0
VERTEX
  8
0
 62
4
 10
-1.07139613E+01
 20
1.30864844E+02
  0
VERTEX
  8
0
 62
4
 10
-1.08819774E+01
 20
1.30923309E+02
  0
VERTEX
  8
0
 62
4
 10
-1.10549695E+01
 20
1.30967576E+02
  0
VERTEX
  8
0
 62
4
 10
-1.12315449E+01
 20
1.30997286E+02
  0
VERTEX
  8
0
 62
4
 10
-1.14102817E+01
 20
1.31012201E+02
  0
VERTEX
  8
0
 62
4
 10
-1.15897410E+01
 20
1.31012201E+02
  0
VERTEX
  8
0
 62
4
 10
-1.17684779E+01
 20
1.30997286E+02
  0
VERTEX
  8
0
 62
4
 10
-1.19450533E+01
 20
1.30967576E+02
  0
VERTEX
  8
0
 62
4
 10
-1.21180454E+01
 20
1.30923309E+02
  0
VERTEX
  8
0
 62
4
 10
-1.22860614E+01
 20
1.30864844E+02
  0
VERTEX
  8
0
 62
4
 10
-1.24477487E+01
 20
1.30792649E+02
  0
VERTEX
  8
0
 62
4
 10
-1.26018053E+01
 20
1.30707307E+02
  0
VERTEX
  8
0
 62
4
 10
-1.27469910E+01
 20
1.30609504E+02
  0
VERTEX
  8
0
 62
4
 10
-1.28821367E+01
 20
1.30500028E+02
  0
VERTEX
  8
0
 62
4
 10
-1.30061543E+01
 20
1.30379761E+02
  0
VERTEX
  8
0
 62
4
 10
-1.31180454E+01
 20
1.30249671E+02
  0
VERTEX
  8
0
 62
4
 10
-1.32169090E+01
 20
1.30110805E+02
  0
VERTEX
  8
0
 62
4
 10
-1.33019491E+01
 20
1.29964281E+02
  0
VERTEX
  8
0
 62
4
 10
-1.33724811E+01
 20
1.29811279E+02
  0
VERTEX
  8
0
 62
4
 10
-1.34279371E+01
 20
1.29653031E+02
  0
VERTEX
  8
0
 62
4
 10
-1.34678706E+01
 20
1.29490811E+02
  0
VERTEX
  8
0
 62
4
 10
-1.34919600E+01
 20
1.29325925E+02
  0
VERTEX
  8
0
 62
4
 10
-1.35000114E+01
 20
1.29159701E+02
  0
SEQEND
  8
0
  0
LINE
  8
0
 62
4
 10
-7.54999886E+01
 20
1.45197451E+02
 11
-7.54999886E+01
 21
1.44000000E+02
  0
LINE
  8
0
 62
4
 10
-5.04999886E+01
 20
1.46330009E+02
 11
-5.04999886E+01
 21
1.44000000E+02
  0
LINE
  8
0
  6
CENTER
 62
6
 10
-5.43499886E+01
 20
1.48943921E+02
 11
-6.36499886E+01
 21
1.48943921E+02
  0
LINE
  8
0
  6
CENTER
 62
6
 10
-5.89999886E+01
 20
1.53593921E+02
 11
-5.89999886E+01
 21
1.44293921E+02
  0
LINE
  8
0
  6
CENTER
 62
6
 10
-6.29253917E+01
 20
1.52189064E+02
 11
-7.00745854E+01
 21
1.52189064E+02
  0
LINE
  8
0
  6
CENTER
 62
6
 10
-6.64999886E+01
 20
1.55763661E+02
 11
-6.64999886E+01
 21
1.48614467E+02
  0
LINE
  8
0
  6
CENTER
 62
6
 10
-4.66999886E+01
 20
1.52189064E+02
 11
-5.62999886E+01
 21
1.52189064E+02
  0
LINE
  8
0
  6
CENTER
 62
6
 10
-5.14999886E+01
 20
1.56989064E+02
 11
-5.14999886E+01
 21
1.47389064E+02
  0
LINE
  8
0
 62
4
 10
-7.39999886E+01
 20
1.56361392E+02
 11
-4.39999886E+01
 21
1.56361392E+02
  0
LINE
  8
0
 62
4
 10
-7.39999886E+01
 20
1.46718680E+02
 11
-6.22713774E+01
 21
1.46718680E+02
  0
LINE
  8
0
 62
4
 10
-7.39999886E+01
 20
1.46330009E+02
 11
-6.18957454E+01
 21
1.46330009E+02
  0
LINE
  8
0
 62
4
 10
-7.39999886E+01
 20
1.46330009E+02
 11
-7.54999886E+01
 21
1.45197451E+02
  0
LINE
  8
0
 62
4
 10
-6.31499886E+01
 20
1.49086271E+02
 11
-6.31499886E+01
 21
1.49745579E+02
  0
POLYLINE
  8
0
 62
4
 66
1
  0
VERTEX
  8
0
 62
4
 10
-6.31499886E+01
 20
1.49086271E+02
  0
VERTEX
  8
0
 62
4
 10
-6.31332819E+01
 20
1.48741356E+02
  0
VERTEX
  8
0
 62
4
 10
-6.30832964E+01
 20
1.48399217E+02
  0
VERTEX
  8
0
 62
4
 10
-6.30004345E+01
 20
1.48062611E+02
  0
VERTEX
  8
0
 62
4
 10
-6.28853633E+01
 20
1.47734246E+02
  0
VERTEX
  8
0
 62
4
 10
-6.27390094E+01
 20
1.47416768E+02
  0
VERTEX
  8
0
 62
4
 10
-6.25625511E+01
 20
1.47112731E+02
  0
VERTEX
  8
0
 62
4
 10
-6.23574091E+01
 20
1.46824583E+02
  0
VERTEX
  8
0
 62
4
 10
-6.21252352E+01
 20
1.46554646E+02
  0
VERTEX
  8
0
 62
4
 10
-6.18678986E+01
 20
1.46305092E+02
  0
VERTEX
  8
0
 62
4
 10
-6.15874713E+01
 20
1.46077930E+02
  0
VERTEX
  8
0
 62
4
 10
-6.12862111E+01
 20
1.45874989E+02
  0
VERTEX
  8
0
 62
4
 10
-6.09665436E+01
 20
1.45697904E+02
  0
VERTEX
  8
0
 62
4
 10
-6.06310425E+01
 20
1.45548100E+02
  0
VERTEX
  8
0
 62
4
 10
-6.02824091E+01
 20
1.45426783E+02
  0
VERTEX
  8
0
 62
4
 10
-5.99234505E+01
 20
1.45334931E+02
  0
VERTEX
  8
0
 62
4
 10
-5.95570567E+01
 20
1.45273282E+02
  0
VERTEX
  8
0
 62
4
 10
-5.91861777E+01
 20
1.45242332E+02
  0
VERTEX
  8
0
 62
4
 10
-5.88137996E+01
 20
1.45242332E+02
  0
VERTEX
  8
0
 62
4
 10
-5.84429206E+01
 20
1.45273282E+02
  0
VERTEX
  8
0
 62
4
 10
-5.80765267E+01
 20
1.45334931E+02
  0
VERTEX
  8
0
 62
4
 10
-5.77175681E+01
 20
1.45426783E+02
  0
VERTEX
  8
0
 62
4
 10
-5.73689347E+01
 20
1.45548100E+02
  0
VERTEX
  8
0
 62
4
 10
-5.70334337E+01
 20
1.45697904E+02
  0
VERTEX
  8
0
 62
4
 10
-5.67137661E+01
 20
1.45874989E+02
  0
VERTEX
  8
0
 62
4
 10
-5.64125059E+01
 20
1.46077930E+02
  0
VERTEX
  8
0
 62
4
 10
-5.61320786E+01
 20
1.46305092E+02
  0
VERTEX
  8
0
 62
4
 10
-5.58747420E+01
 20
1.46554646E+02
  0
VERTEX
  8
0
 62
4
 10
-5.56425681E+01
 20
1.46824583E+02
  0
VERTEX
  8
0
 62
4
 10
-5.54374261E+01
 20
1.47112730E+02
  0
VERTEX
  8
0
 62
4
 10
-5.52609678E+01
 20
1.47416767E+02
  0
VERTEX
  8
0
 62
4
 10
-5.51146139E+01
 20
1.47734246E+02
  0
VERTEX
  8
0
 62
4
 10
-5.49995427E+01
 20
1.48062611E+02
  0
VERTEX
  8
0
 62
4
 10
-5.49166808E+01
 20
1.48399217E+02
  0
VERTEX
  8
0
 62
4
 10
-5.48666953E+01
 20
1.48741356E+02
  0
VERTEX
  8
0
 62
4
 10
-5.48499886E+01
 20
1.49086271E+02
  0
SEQEND
  8
0
  0
POLYLINE
  8
0
 62
4
 66
1
  0
VERTEX
  8
0
 62
4
 10
-6.31499886E+01
 20
1.49745579E+02
  0
VERTEX
  8
0
 62
4
 10
-6.31341966E+01
 20
1.49410220E+02
  0
VERTEX
  8
0
 62
4
 10
-6.30869408E+01
 20
1.49077413E+02
  0
VERTEX
  8
0
 62
4
 10
-6.30085808E+01
 20
1.48749692E+02
  0
VERTEX
  8
0
 62
4
 10
-6.28997130E+01
 20
1.48429549E+02
  0
VERTEX
  8
0
 62
4
 10
-6.27611659E+01
 20
1.48119423E+02
  0
VERTEX
  8
0
 62
4
 10
-6.25939940E+01
 20
1.47821673E+02
  0
VERTEX
  8
0
 62
4
 10
-6.23994696E+01
 20
1.47538564E+02
  0
VERTEX
  8
0
 62
4
 10
-6.21790730E+01
 20
1.47272252E+02
  0
VERTEX
  8
0
 62
4
 10
-6.19344818E+01
 20
1.47024764E+02
  0
VERTEX
  8
0
 62
4
 10
-6.16675572E+01
 20
1.46797983E+02
  0
VERTEX
  8
0
 62
4
 10
-6.13803308E+01
 20
1.46593635E+02
  0
VERTEX
  8
0
 62
4
 10
-6.10749886E+01
 20
1.46413275E+02
  0
VERTEX
  8
0
 62
4
 10
-6.07538544E+01
 20
1.46258276E+02
  0
VERTEX
  8
0
 62
4
 10
-6.04193722E+01
 20
1.46129818E+02
  0
VERTEX
  8
0
 62
4
 10
-6.00740876E+01
 20
1.46028877E+02
  0
VERTEX
  8
0
 62
4
 10
-5.97206285E+01
 20
1.45956223E+02
  0
VERTEX
  8
0
 62
4
 10
-5.93616849E+01
 20
1.45912408E+02
  0
VERTEX
  8
0
 62
4
 10
-5.89999886E+01
 20
1.45897766E+02
  0
VERTEX
  8
0
 62
4
 10
-5.86382923E+01
 20
1.45912408E+02
  0
VERTEX
  8
0
 62
4
 10
-5.82793487E+01
 20
1.45956223E+02
  0
VERTEX
  8
0
 62
4
 10
-5.79258896E+01
 20
1.46028877E+02
  0
VERTEX
  8
0
 62
4
 10
-5.75806050E+01
 20
1.46129818E+02
  0
VERTEX
  8
0
 62
4
 10
-5.72461228E+01
 20
1.46258276E+02
  0
VERTEX
  8
0
 62
4
 10
-5.69249886E+01
 20
1.46413275E+02
  0
VERTEX
  8
0
 62
4
 10
-5.66196464E+01
 20
1.46593635E+02
  0
VERTEX
  8
0
 62
4
 10
-5.63324200E+01
 20
1.46797983E+02
  0
VERTEX
  8
0
 62
4
 10
-5.60654955E+01
 20
1.47024764E+02
  0
VERTEX
  8
0
 62
4
 10
-5.58209042E+01
 20
1.47272252E+02
  0
VERTEX
  8
0
 62
4
 10
-5.56005076E+01
 20
1.47538564E+02
  0
VERTEX
  8
0
 62
4
 10
-5.54059832E+01
 20
1.47821672E+02
  0
VERTEX
  8
0
 62
4
 10
-5.52388113E+01
 20
1.48119423E+02
  0
VERTEX
  8
0
 62
4
 10
-5.51002642E+01
 20
1.48429549E+02
  0
VERTEX
  8
0
 62
4
 10
-5.49913964E+01
 20
1.48749692E+02
  0
VERTEX
  8
0
 62
4
 10
-5.49130364E+01
 20
1.49077413E+02
  0
VERTEX
  8
0
 62
4
 10
-5.48657806E+01
 20
1.49410220E+02
  0
VERTEX
  8
0
 62
4
 10
-5.48499886E+01
 20
1.49745579E+02
  0
VERTEX
  8
0
 62
4
 10
-5.48657806E+01
 20
1.50080938E+02
  0
VERTEX
  8
0
 62
4
 10
-5.49130364E+01
 20
1.50413745E+02
  0
VERTEX
  8
0
 62
4
 10
-5.49913964E+01
 20
1.50741466E+02
  0
VERTEX
  8
0
 62
4
 10
-5.51002642E+01
 20
1.51061609E+02
  0
VERTEX
  8
0
 62
4
 10
-5.52388113E+01
 20
1.51371735E+02
  0
VERTEX
  8
0
 62
4
 10
-5.54059832E+01
 20
1.51669485E+02
  0
VERTEX
  8
0
 62
4
 10
-5.56005076E+01
 20
1.51952594E+02
  0
VERTEX
  8
0
 62
4
 10
-5.58209042E+01
 20
1.52218906E+02
  0
VERTEX
  8
0
 62
4
 10
-5.60654955E+01
 20
1.52466394E+02
  0
VERTEX
  8
0
 62
4
 10
-5.63324200E+01
 20
1.52693175E+02
  0
VERTEX
  8
0
 62
4
 10
-5.66196464E+01
 20
1.52897523E+02
  0
VERTEX
  8
0
 62
4
 10
-5.69249886E+01
 20
1.53077883E+02
  0
VERTEX
  8
0
 62
4
 10
-5.72461228E+01
 20
1.53232882E+02
  0
VERTEX
  8
0
 62
4
 10
-5.75806050E+01
 20
1.53361340E+02
  0
VERTEX
  8
0
 62
4
 10
-5.79258896E+01
 20
1.53462281E+02
  0
VERTEX
  8
0
 62
4
 10
-5.82793487E+01
 20
1.53534935E+02
  0
VERTEX
  8
0
 62
4
 10
-5.86382923E+01
 20
1.53578750E+02
  0
VERTEX
  8
0
 62
4
 10
-5.89999886E+01
 20
1.53593392E+02
  0
VERTEX
  8
0
 62
4
 10
-5.93616849E+01
 20
1.53578750E+02
  0
VERTEX
  8
0
 62
4
 10
-5.97206285E+01
 20
1.53534935E+02
  0
VERTEX
  8
0
 62
4
 10
-6.00740876E+01
 20
1.53462281E+02
  0
VERTEX
  8
0
 62
4
 10
-6.04193722E+01
 20
1.53361340E+02
  0
VERTEX
  8
0
 62
4
 10
-6.07538544E+01
 20
1.53232882E+02
  0
VERTEX
  8
0
 62
4
 10
-6.10749886E+01
 20
1.53077883E+02
  0
VERTEX
  8
0
 62
4
 10
-6.13803308E+01
 20
1.52897523E+02
  0
VERTEX
  8
0
 62
4
 10
-6.16675572E+01
 20
1.52693175E+02
  0
VERTEX
  8
0
 62
4
 10
-6.19344817E+01
 20
1.52466394E+02
  0
VERTEX
  8
0
 62
4
 10
-6.21790730E+01
 20
1.52218906E+02
  0
VERTEX
  8
0
 62
4
 10
-6.23994696E+01
 20
1.51952594E+02
  0
VERTEX
  8
0
 62
4
 10
-6.25939940E+01
 20
1.51669486E+02
  0
VERTEX
  8
0
 62
4
 10
-6.27611659E+01
 20
1.51371735E+02
  0
VERTEX
  8
0
 62
4
 10
-6.28997130E+01
 20
1.51061609E+02
  0
VERTEX
  8
0
 62
4
 10
-6.30085808E+01
 20
1.50741466E+02
  0
VERTEX
  8
0
 62
4
 10
-6.30869408E+01
 20
1.50413745E+02
  0
VERTEX
  8
0
 62
4
 10
-6.31341966E+01
 20
1.50080938E+02
  0
VERTEX
  8
0
 62
4
 10
-6.31499886E+01
 20
1.49745579E+02
  0
SEQEND
  8
0
  0
LINE
  8
0
 62
4
 10
-5.48499886E+01
 20
1.49086271E+02
 11
-5.48499886E+01
 21
1.49745579E+02
  0
ARC
  8
0
 62
4
 10
-4.46340640E+00
 20
9.11661273E+01
 40
8.02368575E+01
 50
1.31121885E+02
 51
1.34565706E+02
  0
ARC
  8
0
 62
4
 10
-1.13536439E+02
 20
9.11662695E+01
 40
8.02366638E+01
 50
4.54342898E+01
 51
4.88781190E+01
  0
POLYLINE
  8
0
 62
4
 66
1
  0
VERTEX
  8
0
 62
4
 10
-5.52999886E+01
 20
1.52189064E+02
  0
VERTEX
  8
0
 62
4
 10
-5.52846909E+01
 20
1.51873238E+02
  0
VERTEX
  8
0
 62
4
 10
-5.52389211E+01
 20
1.51559955E+02
  0
VERTEX
  8
0
 62
4
 10
-5.51630475E+01
 20
1.51251737E+02
  0
VERTEX
  8
0
 62
4
 10
-5.50576811E+01
 20
1.50951066E+02
  0
VERTEX
  8
0
 62
4
 10
-5.49236703E+01
 20
1.50660362E+02
  0
VERTEX
  8
0
 62
4
 10
-5.47620940E+01
 20
1.50381967E+02
  0
VERTEX
  8
0
 62
4
 10
-5.45742532E+01
 20
1.50118121E+02
  0
VERTEX
  8
0
 62
4
 10
-5.43616602E+01
 20
1.49870949E+02
  0
VERTEX
  8
0
 62
4
 10
-5.41260267E+01
 20
1.49642442E+02
  0
VERTEX
  8
0
 62
4
 10
-5.38692499E+01
 20
1.49434438E+02
  0
VERTEX
  8
0
 62
4
 10
-5.35933972E+01
 20
1.49248613E+02
  0
VERTEX
  8
0
 62
4
 10
-5.33006895E+01
 20
1.49086463E+02
  0
VERTEX
  8
0
 62
4
 10
-5.29934837E+01
 20
1.48949293E+02
  0
VERTEX
  8
0
 62
4
 10
-5.26742532E+01
 20
1.48838208E+02
  0
VERTEX
  8
0
 62
4
 10
-5.23455682E+01
 20
1.48754102E+02
  0
VERTEX
  8
0
 62
4
 10
-5.20100750E+01
 20
1.48697652E+02
  0
VERTEX
  8
0
 62
4
 10
-5.16704750E+01
 20
1.48669313E+02
  0
VERTEX
  8
0
 62
4
 10
-5.13295023E+01
 20
1.48669313E+02
  0
VERTEX
  8
0
 62
4
 10
-5.09899022E+01
 20
1.48697652E+02
  0
VERTEX
  8
0
 62
4
 10
-5.06544091E+01
 20
1.48754102E+02
  0
VERTEX
  8
0
 62
4
 10
-5.03257240E+01
 20
1.48838208E+02
  0
VERTEX
  8
0
 62
4
 10
-5.00064935E+01
 20
1.48949293E+02
  0
VERTEX
  8
0
 62
4
 10
-4.96992877E+01
 20
1.49086463E+02
  0
VERTEX
  8
0
 62
4
 10
-4.94065801E+01
 20
1.49248613E+02
  0
VERTEX
  8
0
 62
4
 10
-4.91307274E+01
 20
1.49434438E+02
  0
VERTEX
  8
0
 62
4
 10
-4.88739505E+01
 20
1.49642442E+02
  0
VERTEX
  8
0
 62
4
 10
-4.86383170E+01
 20
1.49870949E+02
  0
VERTEX
  8
0
 62
4
 10
-4.84257240E+01
 20
1.50118121E+02
  0
VERTEX
  8
0
 62
4
 10
-4.82378832E+01
 20
1.50381967E+02
  0
VERTEX
  8
0
 62
4
 10
-4.80763069E+01
 20
1.50660362E+02
  0
VERTEX
  8
0
 62
4
 10
-4.79422961E+01
 20
1.50951066E+02
  0
VERTEX
  8
0
 62
4
 10
-4.78369297E+01
 20
1.51251737E+02
  0
VERTEX
  8
0
 62
4
 10
-4.77610561E+01
 20
1.51559955E+02
  0
VERTEX
  8
0
 62
4
 10
-4.77152863E+01
 20
1.51873238E+02
  0
VERTEX
  8
0
 62
4
 10
-4.76999886E+01
 20
1.52189064E+02
  0
SEQEND
  8
0
  0
POLYLINE
  8
0
 62
4
 66
1
  0
VERTEX
  8
0
 62
4
 10
-5.38863552E+01
 20
1.55305574E+02
  0
VERTEX
  8
0
 62
4
 10
-5.41368878E+01
 20
1.55100627E+02
  0
VERTEX
  8
0
 62
4
 10
-5.43670362E+01
 20
1.54876068E+02
  0
VERTEX
  8
0
 62
4
 10
-5.45750213E+01
 20
1.54633633E+02
  0
VERTEX
  8
0
 62
4
 10
-5.47592352E+01
 20
1.54375197E+02
  0
VERTEX
  8
0
 62
4
 10
-5.49182540E+01
 20
1.54102758E+02
  0
VERTEX
  8
0
 62
4
 10
-5.50508484E+01
 20
1.53818420E+02
  0
VERTEX
  8
0
 62
4
 10
-5.51559933E+01
 20
1.53524383E+02
  0
VERTEX
  8
0
 62
4
 10
-5.52328760E+01
 20
1.53222919E+02
  0
VERTEX
  8
0
 62
4
 10
-5.52809021E+01
 20
1.52916359E+02
  0
VERTEX
  8
0
 62
4
 10
-5.52997003E+01
 20
1.52607072E+02
  0
VERTEX
  8
0
 62
4
 10
-5.52891254E+01
 20
1.52297450E+02
  0
VERTEX
  8
0
 62
4
 10
-5.52492591E+01
 20
1.51989886E+02
  0
VERTEX
  8
0
 62
4
 10
-5.51804095E+01
 20
1.51686758E+02
  0
VERTEX
  8
0
 62
4
 10
-5.50831090E+01
 20
1.51390408E+02
  0
VERTEX
  8
0
 62
4
 10
-5.49581096E+01
 20
1.51103129E+02
  0
VERTEX
  8
0
 62
4
 10
-5.48063777E+01
 20
1.50827139E+02
  0
VERTEX
  8
0
 62
4
 10
-5.46290862E+01
 20
1.50564574E+02
  0
VERTEX
  8
0
 62
4
 10
-5.44276057E+01
 20
1.50317462E+02
  0
VERTEX
  8
0
 62
4
 10
-5.42034936E+01
 20
1.50087715E+02
  0
VERTEX
  8
0
 62
4
 10
-5.39584824E+01
 20
1.49877107E+02
  0
VERTEX
  8
0
 62
4
 10
-5.36944661E+01
 20
1.49687268E+02
  0
VERTEX
  8
0
 62
4
 10
-5.34134858E+01
 20
1.49519664E+02
  0
VERTEX
  8
0
 62
4
 10
-5.31177134E+01
 20
1.49375592E+02
  0
VERTEX
  8
0
 62
4
 10
-5.28094354E+01
 20
1.49256164E+02
  0
VERTEX
  8
0
 62
4
 10
-5.24910349E+01
 20
1.49162305E+02
  0
VERTEX
  8
0
 62
4
 10
-5.21649733E+01
 20
1.49094740E+02
  0
VERTEX
  8
0
 62
4
 10
-5.18337711E+01
 20
1.49053991E+02
  0
VERTEX
  8
0
 62
4
 10
-5.14999886E+01
 20
1.49040372E+02
  0
VERTEX
  8
0
 62
4
 10
-5.11662061E+01
 20
1.49053991E+02
  0
VERTEX
  8
0
 62
4
 10
-5.08350039E+01
 20
1.49094740E+02
  0
VERTEX
  8
0
 62
4
 10
-5.05089423E+01
 20
1.49162305E+02
  0
VERTEX
  8
0
 62
4
 10
-5.01905418E+01
 20
1.49256164E+02
  0
VERTEX
  8
0
 62
4
 10
-4.98822638E+01
 20
1.49375592E+02
  0
VERTEX
  8
0
 62
4
 10
-4.95864914E+01
 20
1.49519664E+02
  0
VERTEX
  8
0
 62
4
 10
-4.93055111E+01
 20
1.49687268E+02
  0
VERTEX
  8
0
 62
4
 10
-4.90414948E+01
 20
1.49877107E+02
  0
VERTEX
  8
0
 62
4
 10
-4.87964836E+01
 20
1.50087715E+02
  0
VERTEX
  8
0
 62
4
 10
-4.85723715E+01
 20
1.50317462E+02
  0
VERTEX
  8
0
 62
4
 10
-4.83708910E+01
 20
1.50564574E+02
  0
VERTEX
  8
0
 62
4
 10
-4.81935995E+01
 20
1.50827139E+02
  0
VERTEX
  8
0
 62
4
 10
-4.80418676E+01
 20
1.51103129E+02
  0
VERTEX
  8
0
 62
4
 10
-4.79168682E+01
 20
1.51390408E+02
  0
VERTEX
  8
0
 62
4
 10
-4.78195677E+01
 20
1.51686758E+02
  0
VERTEX
  8
0
 62
4
 10
-4.77507181E+01
 20
1.51989886E+02
  0
VERTEX
  8
0
 62
4
 10
-4.77108518E+01
 20
1.52297450E+02
  0
VERTEX
  8
0
 62
4
 10
-4.77002769E+01
 20
1.52607072E+02
  0
VERTEX
  8
0
 62
4
 10
-4.77190751E+01
 20
1.52916359E+02
  0
VERTEX
  8
0
 62
4
 10
-4.77671012E+01
 20
1.53222919E+02
  0
VERTEX
  8
0
 62
4
 10
-4.78439839E+01
 20
1.53524383E+02
  0
VERTEX
  8
0
 62
4
 10
-4.79491288E+01
 20
1.53818420E+02
  0
VERTEX
  8
0
 62
4
 10
-4.80817232E+01
 20
1.54102758E+02
  0
VERTEX
  8
0
 62
4
 10
-4.82407420E+01
 20
1.54375197E+02
  0
VERTEX
  8
0
 62
4
 10
-4.84249559E+01
 20
1.54633633E+02
  0
VERTEX
  8
0
 62
4
 10
-4.86329410E+01
 20
1.54876068E+02
  0
VERTEX
  8
0
 62
4
 10
-4.88630894E+01
 20
1.55100627E+02
  0
VERTEX
  8
0
 62
4
 10
-4.91136220E+01
 20
1.55305574E+02
  0
SEQEND
  8
0
  0
LINE
  8
0
 62
4
 10
-5.52999886E+01
 20
1.52189064E+02
 11
-5.52999886E+01
 21
1.52563671E+02
  0
LINE
  8
0
 62
4
 10
-4.76999886E+01
 20
1.52563671E+02
 11
-4.76999886E+01
 21
1.52189064E+02
  0
LINE
  8
0
 62
4
 10
-5.48999886E+01
 20
1.52563671E+02
 11
-5.48999886E+01
 21
1.53060093E+02
  0
POLYLINE
  8
0
 62
4
 66
1
  0
VERTEX
  8
0
 62
4
 10
-5.48999886E+01
 20
1.52563671E+02
  0
VERTEX
  8
0
 62
4
 10
-5.48863012E+01
 20
1.52281090E+02
  0
VERTEX
  8
0
 62
4
 10
-5.48453492E+01
 20
1.52000784E+02
  0
VERTEX
  8
0
 62
4
 10
-5.47774624E+01
 20
1.51725010E+02
  0
VERTEX
  8
0
 62
4
 10
-5.46831872E+01
 20
1.51455988E+02
  0
VERTEX
  8
0
 62
4
 10
-5.45632828E+01
 20
1.51195885E+02
  0
VERTEX
  8
0
 62
4
 10
-5.44187145E+01
 20
1.50946794E+02
  0
VERTEX
  8
0
 62
4
 10
-5.42506464E+01
 20
1.50710722E+02
  0
VERTEX
  8
0
 62
4
 10
-5.40604316E+01
 20
1.50489568E+02
  0
VERTEX
  8
0
 62
4
 10
-5.38496016E+01
 20
1.50285114E+02
  0
VERTEX
  8
0
 62
4
 10
-5.36198540E+01
 20
1.50099006E+02
  0
VERTEX
  8
0
 62
4
 10
-5.33730384E+01
 20
1.49932741E+02
  0
VERTEX
  8
0
 62
4
 10
-5.31111421E+01
 20
1.49787660E+02
  0
VERTEX
  8
0
 62
4
 10
-5.28362737E+01
 20
1.49664929E+02
  0
VERTEX
  8
0
 62
4
 10
-5.25506464E+01
 20
1.49565537E+02
  0
VERTEX
  8
0
 62
4
 10
-5.22565598E+01
 20
1.49490284E+02
  0
VERTEX
  8
0
 62
4
 10
-5.19563817E+01
 20
1.49439776E+02
  0
VERTEX
  8
0
 62
4
 10
-5.16525290E+01
 20
1.49414420E+02
  0
VERTEX
  8
0
 62
4
 10
-5.13474482E+01
 20
1.49414420E+02
  0
VERTEX
  8
0
 62
4
 10
-5.10435955E+01
 20
1.49439776E+02
  0
VERTEX
  8
0
 62
4
 10
-5.07434174E+01
 20
1.49490284E+02
  0
VERTEX
  8
0
 62
4
 10
-5.04493308E+01
 20
1.49565537E+02
  0
VERTEX
  8
0
 62
4
 10
-5.01637035E+01
 20
1.49664929E+02
  0
VERTEX
  8
0
 62
4
 10
-4.98888352E+01
 20
1.49787660E+02
  0
VERTEX
  8
0
 62
4
 10
-4.96269389E+01
 20
1.49932741E+02
  0
VERTEX
  8
0
 62
4
 10
-4.93801233E+01
 20
1.50099006E+02
  0
VERTEX
  8
0
 62
4
 10
-4.91503756E+01
 20
1.50285114E+02
  0
VERTEX
  8
0
 62
4
 10
-4.89395456E+01
 20
1.50489568E+02
  0
VERTEX
  8
0
 62
4
 10
-4.87493308E+01
 20
1.50710722E+02
  0
VERTEX
  8
0
 62
4
 10
-4.85812627E+01
 20
1.50946794E+02
  0
VERTEX
  8
0
 62
4
 10
-4.84366944E+01
 20
1.51195885E+02
  0
VERTEX
  8
0
 62
4
 10
-4.83167900E+01
 20
1.51455988E+02
  0
VERTEX
  8
0
 62
4
 10
-4.82225149E+01
 20
1.51725010E+02
  0
VERTEX
  8
0
 62
4
 10
-4.81546280E+01
 20
1.52000784E+02
  0
VERTEX
  8
0
 62
4
 10
-4.81136760E+01
 20
1.52281090E+02
  0
VERTEX
  8
0
 62
4
 10
-4.80999886E+01
 20
1.52563671E+02
  0
SEQEND
  8
0
  0
LINE
  8
0
 62
4
 10
-4.80999885E+01
 20
1.52563671E+02
 11
-4.80999885E+01
 21
1.53060093E+02
  0
POLYLINE
  8
0
 62
4
 66
1
  0
VERTEX
  8
0
 62
4
 10
-5.48999886E+01
 20
1.53060093E+02
  0
VERTEX
  8
0
 62
4
 10
-5.48870506E+01
 20
1.52785341E+02
  0
VERTEX
  8
0
 62
4
 10
-5.48483350E+01
 20
1.52512680E+02
  0
VERTEX
  8
0
 62
4
 10
-5.47841364E+01
 20
1.52244185E+02
  0
VERTEX
  8
0
 62
4
 10
-5.46949435E+01
 20
1.51981900E+02
  0
VERTEX
  8
0
 62
4
 10
-5.45814351E+01
 20
1.51727821E+02
  0
VERTEX
  8
0
 62
4
 10
-5.44444750E+01
 20
1.51483880E+02
  0
VERTEX
  8
0
 62
4
 10
-5.42851056E+01
 20
1.51251936E+02
  0
VERTEX
  8
0
 62
4
 10
-5.41045397E+01
 20
1.51033753E+02
  0
VERTEX
  8
0
 62
4
 10
-5.39041517E+01
 20
1.50830992E+02
  0
VERTEX
  8
0
 62
4
 10
-5.36854665E+01
 20
1.50645195E+02
  0
VERTEX
  8
0
 62
4
 10
-5.34501485E+01
 20
1.50477778E+02
  0
VERTEX
  8
0
 62
4
 10
-5.31999886E+01
 20
1.50330013E+02
  0
VERTEX
  8
0
 62
4
 10
-5.29368907E+01
 20
1.50203026E+02
  0
VERTEX
  8
0
 62
4
 10
-5.26628571E+01
 20
1.50097782E+02
  0
VERTEX
  8
0
 62
4
 10
-5.23799734E+01
 20
1.50015084E+02
  0
VERTEX
  8
0
 62
4
 10
-5.20903924E+01
 20
1.49955560E+02
  0
VERTEX
  8
0
 62
4
 10
-5.17963181E+01
 20
1.49919664E+02
  0
VERTEX
  8
0
 62
4
 10
-5.14999886E+01
 20
1.49907668E+02
  0
VERTEX
  8
0
 62
4
 10
-5.12036591E+01
 20
1.49919664E+02
  0
VERTEX
  8
0
 62
4
 10
-5.09095848E+01
 20
1.49955560E+02
  0
VERTEX
  8
0
 62
4
 10
-5.06200038E+01
 20
1.50015084E+02
  0
VERTEX
  8
0
 62
4
 10
-5.03371201E+01
 20
1.50097782E+02
  0
VERTEX
  8
0
 62
4
 10
-5.00630865E+01
 20
1.50203026E+02
  0
VERTEX
  8
0
 62
4
 10
-4.97999886E+01
 20
1.50330013E+02
  0
VERTEX
  8
0
 62
4
 10
-4.95498287E+01
 20
1.50477778E+02
  0
VERTEX
  8
0
 62
4
 10
-4.93145107E+01
 20
1.50645195E+02
  0
VERTEX
  8
0
 62
4
 10
-4.90958255E+01
 20
1.50830992E+02
  0
VERTEX
  8
0
 62
4
 10
-4.88954375E+01
 20
1.51033753E+02
  0
VERTEX
  8
0
 62
4
 10
-4.87148716E+01
 20
1.51251936E+02
  0
VERTEX
  8
0
 62
4
 10
-4.85555022E+01
 20
1.51483880E+02
  0
VERTEX
  8
0
 62
4
 10
-4.84185421E+01
 20
1.51727821E+02
  0
VERTEX
  8
0
 62
4
 10
-4.83050337E+01
 20
1.51981900E+02
  0
VERTEX
  8
0
 62
4
 10
-4.82158408E+01
 20
1.52244185E+02
  0
VERTEX
  8
0
 62
4
 10
-4.81516422E+01
 20
1.52512680E+02
  0
VERTEX
  8
0
 62
4
 10
-4.81129266E+01
 20
1.52785341E+02
  0
VERTEX
  8
0
 62
4
 10
-4.80999886E+01
 20
1.53060093E+02
  0
VERTEX
  8
0
 62
4
 10
-4.81129266E+01
 20
1.53334845E+02
  0
VERTEX
  8
0
 62
4
 10
-4.81516422E+01
 20
1.53607506E+02
  0
VERTEX
  8
0
 62
4
 10
-4.82158408E+01
 20
1.53876001E+02
  0
VERTEX
  8
0
 62
4
 10
-4.83050337E+01
 20
1.54138286E+02
  0
VERTEX
  8
0
 62
4
 10
-4.84185421E+01
 20
1.54392365E+02
  0
VERTEX
  8
0
 62
4
 10
-4.85555022E+01
 20
1.54636306E+02
  0
VERTEX
  8
0
 62
4
 10
-4.87148716E+01
 20
1.54868250E+02
  0
VERTEX
  8
0
 62
4
 10
-4.88954375E+01
 20
1.55086433E+02
  0
VERTEX
  8
0
 62
4
 10
-4.90958255E+01
 20
1.55289194E+02
  0
VERTEX
  8
0
 62
4
 10
-4.93145107E+01
 20
1.55474991E+02
  0
VERTEX
  8
0
 62
4
 10
-4.95498287E+01
 20
1.55642408E+02
  0
VERTEX
  8
0
 62
4
 10
-4.97999886E+01
 20
1.55790173E+02
  0
VERTEX
  8
0
 62
4
 10
-5.00630865E+01
 20
1.55917160E+02
  0
VERTEX
  8
0
 62
4
 10
-5.03371201E+01
 20
1.56022404E+02
  0
VERTEX
  8
0
 62
4
 10
-5.06200038E+01
 20
1.56105102E+02
  0
VERTEX
  8
0
 62
4
 10
-5.09095848E+01
 20
1.56164626E+02
  0
VERTEX
  8
0
 62
4
 10
-5.12036591E+01
 20
1.56200522E+02
  0
VERTEX
  8
0
 62
4
 10
-5.14999886E+01
 20
1.56212518E+02
  0
VERTEX
  8
0
 62
4
 10
-5.17963181E+01
 20
1.56200522E+02
  0
VERTEX
  8
0
 62
4
 10
-5.20903924E+01
 20
1.56164626E+02
  0
VERTEX
  8
0
 62
4
 10
-5.23799734E+01
 20
1.56105102E+02
  0
VERTEX
  8
0
 62
4
 10
-5.26628571E+01
 20
1.56022404E+02
  0
VERTEX
  8
0
 62
4
 10
-5.29368907E+01
 20
1.55917160E+02
  0
VERTEX
  8
0
 62
4
 10
-5.31999886E+01
 20
1.55790173E+02
  0
VERTEX
  8
0
 62
4
 10
-5.34501485E+01
 20
1.55642408E+02
  0
VERTEX
  8
0
 62
4
 10
-5.36854665E+01
 20
1.55474991E+02
  0
VERTEX
  8
0
 62
4
 10
-5.39041517E+01
 20
1.55289194E+02
  0
VERTEX
  8
0
 62
4
 10
-5.41045397E+01
 20
1.55086433E+02
  0
VERTEX
  8
0
 62
4
 10
-5.42851056E+01
 20
1.54868250E+02
  0
VERTEX
  8
0
 62
4
 10
-5.44444750E+01
 20
1.54636306E+02
  0
VERTEX
  8
0
 62
4
 10
-5.45814351E+01
 20
1.54392365E+02
  0
VERTEX
  8
0
 62
4
 10
-5.46949435E+01
 20
1.54138286E+02
  0
VERTEX
  8
0
 62
4
 10
-5.47841364E+01
 20
1.53876001E+02
  0
VERTEX
  8
0
 62
4
 10
-5.48483350E+01
 20
1.53607506E+02
  0
VERTEX
  8
0
 62
4
 10
-5.48870506E+01
 20
1.53334845E+02
  0
VERTEX
  8
0
 62
4
 10
-5.48999886E+01
 20
1.53060093E+02
  0
SEQEND
  8
0
  0
ARC
  8
0
 62
4
 10
2.53028844E+00
 20
9.51395741E+01
 40
7.95040043E+01
 50
1.31098609E+02
 51
1.34573756E+02
  0
ARC
  8
0
 62
4
 10
-1.05530266E+02
 20
9.51395741E+01
 40
7.95040043E+01
 50
4.54262442E+01
 51
4.89013908E+01
  0
LINE
  8
0
 62
4
 10
-5.57285997E+01
 20
1.46718680E+02
 11
-4.39999886E+01
 21
1.46718680E+02
  0
LINE
  8
0
 62
4
 10
-5.61042317E+01
 20
1.46330009E+02
 11
-5.04999886E+01
 21
1.46330009E+02
  0
LINE
  8
0
  6
CENTER
 62
2
 10
-2.07243389E+02
 20
1.00500000E+02
 11
6.74326744E+01
 21
1.00500000E+02
  0
LINE
  8
0
 62
7
 10
-1.45000004E+02
 20
8.15000000E+01
 11
-1.45000004E+02
 21
1.19500000E+02
  0
LINE
  8
0
 62
7
 10
-1.44500034E+02
 20
8.10000000E+01
 11
-1.40000034E+02
 21
8.10000000E+01
  0
LINE
  8
0
 62
7
 10
-1.20000034E+02
 20
5.34999924E+01
 11
-8.80000343E+01
 21
5.34999924E+01
  0
LINE
  8
0
 62
7
 10
-1.23508747E+02
 20
5.41198004E+01
 11
-8.80000256E+01
 21
5.34999934E+01
  0
LINE
  8
0
 62
7
 10
-1.20000004E+02
 20
5.40585480E+01
 11
-1.20000004E+02
 21
5.34999924E+01
  0
LINE
  8
0
 62
7
 10
-1.25500034E+02
 20
7.85000000E+01
 11
-1.24000034E+02
 21
7.85000000E+01
  0
LINE
  8
0
 62
7
 10
-1.40000019E+02
 20
7.99717331E+01
 11
-1.40000019E+02
 21
1.21028259E+02
  0
LINE
  8
0
 62
7
 10
-1.39517534E+02
 20
7.94720949E+01
 11
-1.26000062E+02
 21
7.90000544E+01
  0
LINE
  8
0
 62
7
 10
-1.26000004E+02
 20
1.21999954E+02
 11
-1.26000004E+02
 21
7.90000153E+01
  0
LINE
  8
0
 62
7
 10
5.49999695E+01
 20
5.34999924E+01
 11
2.29999657E+01
 21
5.34999924E+01
  0
LINE
  8
0
 62
7
 10
5.85087110E+01
 20
5.41198392E+01
 11
2.29999746E+01
 21
5.35000319E+01
  0
LINE
  8
0
 62
7
 10
5.49999809E+01
 20
5.40585480E+01
 11
5.49999809E+01
 21
5.34999924E+01
  0
LINE
  8
0
 62
7
 10
6.04999657E+01
 20
7.85000000E+01
 11
5.89999657E+01
 21
7.85000000E+01
  0
LINE
  8
0
 62
7
 10
6.09999809E+01
 20
1.22000000E+02
 11
6.09999809E+01
 21
7.90000153E+01
  0
LINE
  8
0
 62
7
 10
-1.56000004E+02
 20
1.07282280E+02
 11
-1.56000004E+02
 21
1.13000000E+02
  0
LINE
  8
0
 62
7
 10
-1.59000004E+02
 20
1.00499985E+02
 11
-1.59000004E+02
 21
1.11500023E+02
  0
LINE
  8
0
 62
7
 10
-1.59000004E+02
 20
1.00499985E+02
 11
-1.59000004E+02
 21
8.94999695E+01
  0
LINE
  8
0
 62
7
 10
-1.99000004E+02
 20
1.10000046E+02
 11
-1.99000004E+02
 21
9.09999466E+01
  0
LINE
  8
0
 62
7
 10
-1.62000004E+02
 20
1.11500023E+02
 11
-1.62000004E+02
 21
8.94999847E+01
  0
LINE
  8
0
 62
7
 10
-1.97500065E+02
 20
8.94999695E+01
 11
-1.87000004E+02
 21
8.94999695E+01
  0
LINE
  8
0
 62
7
 10
-1.97500004E+02
 20
1.11500023E+02
 11
-1.97500004E+02
 21
8.94999847E+01
  0
LINE
  8
0
 62
7
 10
-1.99000085E+02
 20
9.10000104E+01
 11
-1.97500073E+02
 21
8.94999981E+01
  0
LINE
  8
0
 62
2
 10
-1.98320072E+02
 20
9.03199844E+01
 11
-1.87000004E+02
 21
9.03199844E+01
  0
LINE
  8
0
 62
7
 10
-1.56000050E+02
 20
8.79999466E+01
 11
-1.45000034E+02
 21
8.79999466E+01
  0
LINE
  8
0
 62
7
 10
-1.56000004E+02
 20
9.37176895E+01
 11
-1.56000004E+02
 21
8.79999619E+01
  0
LINE
  8
0
 62
7
 10
2.29999886E+01
 20
5.69999847E+01
 11
-8.80000191E+01
 21
5.69999847E+01
  0
LINE
  8
0
  6
CENTER
 62
2
 10
6.17791653E+01
 20
6.54999847E+01
 11
-1.26524509E+02
 21
6.54999847E+01
  0
LINE
  8
0
 62
7
 10
2.29999886E+01
 20
6.99999847E+01
 11
-8.80000191E+01
 21
6.99999847E+01
  0
LINE
  8
0
 62
7
 10
2.29999886E+01
 20
6.09999847E+01
 11
-8.80000191E+01
 21
6.09999847E+01
  0
LINE
  8
0
 62
7
 10
-1.99000069E+02
 20
1.09999982E+02
 11
-1.97500051E+02
 21
1.11500000E+02
  0
LINE
  8
0
 62
7
 10
-1.97500065E+02
 20
1.11500023E+02
 11
-1.87000004E+02
 21
1.11500023E+02
  0
LINE
  8
0
 62
2
 10
-1.98320072E+02
 20
1.10680008E+02
 11
-1.87000004E+02
 21
1.10680008E+02
  0
LINE
  8
0
 62
7
 10
-1.56000050E+02
 20
1.13000046E+02
 11
-1.45000034E+02
 21
1.13000046E+02
  0
LINE
  8
0
 62
7
 10
-1.44500034E+02
 20
1.19999985E+02
 11
-1.40000034E+02
 21
1.19999985E+02
  0
LINE
  8
0
 62
7
 10
-1.39517550E+02
 20
1.21527927E+02
 11
-1.26000079E+02
 21
1.21999967E+02
  0
LINE
  8
0
 62
7
 10
-1.25500034E+02
 20
1.22500000E+02
 11
-1.24000034E+02
 21
1.22500000E+02
  0
LINE
  8
0
  6
CENTER
 62
2
 10
3.89999733E+01
 20
1.34800049E+02
 11
3.89999733E+01
 21
1.49952652E+02
  0
LINE
  8
0
 62
7
 10
-1.24000019E+02
 20
5.46197205E+01
 11
-1.24000019E+02
 21
1.46380280E+02
  0
LINE
  8
0
 62
7
 10
-8.80000191E+01
 20
5.34999924E+01
 11
-8.80000191E+01
 21
1.47500000E+02
  0
LINE
  8
0
 62
7
 10
-1.20000034E+02
 20
1.47500000E+02
 11
-8.80000343E+01
 21
1.47500000E+02
  0
LINE
  8
0
 62
7
 10
-1.23508792E+02
 20
1.46880208E+02
 11
-8.80000405E+01
 21
1.47500015E+02
  0
LINE
  8
0
 62
7
 10
-1.20000004E+02
 20
1.46941452E+02
 11
-1.20000004E+02
 21
1.47500000E+02
  0
LINE
  8
0
 62
7
 10
5.89999886E+01
 20
5.46197205E+01
 11
5.89999886E+01
 21
1.46380280E+02
  0
LINE
  8
0
 62
7
 10
2.29999886E+01
 20
5.34999924E+01
 11
2.29999886E+01
 21
1.47500000E+02
  0
LINE
  8
0
 62
7
 10
5.49999695E+01
 20
1.47500000E+02
 11
2.29999657E+01
 21
1.47500000E+02
  0
LINE
  8
0
 62
7
 10
5.85086805E+01
 20
1.46880189E+02
 11
2.29999517E+01
 21
1.47499996E+02
  0
LINE
  8
0
 62
7
 10
5.49999809E+01
 20
1.46941452E+02
 11
5.49999809E+01
 21
1.47500000E+02
  0
LINE
  8
0
 62
7
 10
6.04999657E+01
 20
1.22500000E+02
 11
5.89999657E+01
 21
1.22500000E+02
  0
LINE
  8
0
 62
7
 10
2.29999886E+01
 20
1.44000000E+02
 11
1.64999886E+01
 21
1.44000000E+02
  0
LINE
  8
0
  6
CENTER
 62
2
 10
6.17791653E+01
 20
1.35500015E+02
 11
-1.26524509E+02
 21
1.35500015E+02
  0
LINE
  8
0
 62
7
 10
2.29999886E+01
 20
1.31000000E+02
 11
-1.14440917E-05
 21
1.31000000E+02
  0
LINE
  8
0
 62
7
 10
2.29999886E+01
 20
1.40000015E+02
 11
1.49999886E+01
 21
1.40000015E+02
  0
LINE
  8
0
  6
CENTER
 62
2
 10
-1.04000004E+02
 20
1.34800049E+02
 11
-1.04000004E+02
 21
1.49952652E+02
  0
LINE
  8
0
 62
7
 10
-1.49000019E+02
 20
9.37176895E+01
 11
-1.49000019E+02
 21
1.07282280E+02
  0
LINE
  8
0
 62
7
 10
-1.56000004E+02
 20
9.37176895E+01
 11
-1.49000019E+02
 21
9.37176895E+01
  0
LINE
  8
0
 62
7
 10
-1.56000004E+02
 20
1.07282280E+02
 11
-1.49000019E+02
 21
1.07282280E+02
  0
LINE
  8
0
 62
7
 10
-1.55999992E+02
 20
9.37176863E+01
 11
-1.58999999E+02
 21
9.70001342E+01
  0
LINE
  8
0
 62
7
 10
-1.58999996E+02
 20
1.03999859E+02
 11
-1.55999998E+02
 21
1.07282274E+02
  0
LINE
  8
0
 62
7
 10
-1.59000025E+02
 20
1.11500032E+02
 11
-1.56000012E+02
 21
1.13000061E+02
  0
LINE
  8
0
 62
7
 10
-1.59000023E+02
 20
8.94999817E+01
 11
-1.56000011E+02
 21
8.79999527E+01
  0
LINE
  8
0
 62
2
 10
-1.49000026E+02
 20
1.07282285E+02
 11
-1.57660568E+02
 21
9.55345968E+01
  0
LINE
  8
0
 62
2
 10
-1.49000003E+02
 20
9.37176759E+01
 11
-1.57660563E+02
 21
1.05465389E+02
  0
LINE
  8
0
 62
7
 10
-1.62000004E+02
 20
1.10680008E+02
 11
-1.59000004E+02
 21
1.10680008E+02
  0
LINE
  8
0
 62
7
 10
-1.62000004E+02
 20
9.03199844E+01
 11
-1.59000004E+02
 21
9.03199844E+01
  0
ARC
  8
0
 62
7
 10
-1.44500019E+02
 20
8.15000000E+01
 40
5.00000000E-01
 50
1.79999977E+02
 51
2.69999974E+02
  0
ARC
  8
0
 62
7
 10
-1.23500019E+02
 20
5.46197205E+01
 40
5.00000000E-01
 50
1.79999977E+02
 51
2.68999679E+02
  0
ARC
  8
0
 62
7
 10
-1.25500019E+02
 20
7.89999924E+01
 40
5.00000000E-01
 50
1.79999977E+02
 51
2.69999974E+02
  0
ARC
  8
0
 62
7
 10
-1.39500004E+02
 20
7.99717331E+01
 40
5.00000000E-01
 50
1.79999977E+02
 51
2.67999192E+02
  0
ARC
  8
0
 62
7
 10
5.84999962E+01
 20
5.46197205E+01
 40
5.00000000E-01
 50
2.71000347E+02
 51
5.46415133E-05
  0
ARC
  8
0
 62
7
 10
6.04999886E+01
 20
7.89999924E+01
 40
5.00000000E-01
 50
2.70000073E+02
 51
5.46415133E-05
  0
ARC
  8
0
 62
7
 10
6.04999886E+01
 20
1.22000000E+02
 40
5.00000000E-01
 50
5.46415133E-05
 51
9.00000369E+01
  0
ARC
  8
0
 62
7
 10
-1.59500034E+02
 20
1.00499985E+02
 40
1.25000010E+01
 50
3.27140311E+02
 51
3.28596884E+01
  0
ARC
  8
0
 62
7
 10
-1.44500019E+02
 20
1.19500000E+02
 40
5.00000000E-01
 50
8.99999818E+01
 51
1.79999964E+02
  0
ARC
  8
0
 62
7
 10
-1.39500004E+02
 20
1.21028259E+02
 40
5.00000000E-01
 50
9.20007356E+01
 51
1.79999964E+02
  0
ARC
  8
0
 62
7
 10
-1.25500019E+02
 20
1.22000000E+02
 40
5.00000000E-01
 50
8.99999818E+01
 51
1.79999964E+02
  0
ARC
  8
0
 62
7
 10
5.84999962E+01
 20
1.46380280E+02
 40
5.00000000E-01
 50
3.59999891E+02
 51
8.89995981E+01
  0
ARC
  8
0
 62
7
 10
-1.23500019E+02
 20
1.46380280E+02
 40
5.00000000E-01
 50
9.10002493E+01
 51
1.79999964E+02
  0
LINE
  8
0
 62
4
 10
-3.48000019E+02
 20
1.09737610E+02
 11
-3.48000019E+02
 21
9.12623901E+01
  0
LINE
  8
0
 62
4
 10
-3.63999899E+02
 20
8.20248469E+01
 11
-3.48000020E+02
 21
9.12623953E+01
  0
LINE
  8
0
 62
4
 10
-3.79999862E+02
 20
9.12624957E+01
 11
-3.63999834E+02
 21
8.20249178E+01
  0
LINE
  8
0
 62
4
 10
-3.80000019E+02
 20
1.09737610E+02
 11
-3.80000019E+02
 21
9.12623901E+01
  0
LINE
  8
0
 62
4
 10
-3.80000053E+02
 20
1.09737581E+02
 11
-3.63999991E+02
 21
1.18975223E+02
  0
LINE
  8
0
 62
4
 10
-3.63999958E+02
 20
1.18975222E+02
 11
-3.47999985E+02
 21
1.09737641E+02
  0
CIRCLE
  8
0
 62
4
 10
-3.64000019E+02
 20
1.00500000E+02
 40
1.60000000E+01
  0
LINE
  8
0
 62
4
 10
-4.11000019E+02
 20
1.29316799E+02
 11
-4.11089057E+02
 21
1.29537177E+02
  0
LINE
  8
0
 62
4
 10
-4.11089057E+02
 20
1.29537177E+02
 11
-4.11000019E+02
 21
1.29573151E+02
  0
LINE
  8
0
 62
4
 10
-3.86073574E+02
 20
1.56361376E+02
 11
-3.95623568E+02
 21
1.52502929E+02
  0
LINE
  8
0
  6
CENTER
 62
6
 10
-4.04079826E+02
 20
1.44232972E+02
 11
-3.83287673E+02
 21
1.52633547E+02
  0
LINE
  8
0
  6
CENTER
 62
6
 10
-3.94075136E+02
 20
1.44500258E+02
 11
-3.81976550E+02
 21
1.49388404E+02
  0
LINE
  8
0
 62
4
 10
-4.02113855E+02
 20
1.49880682E+02
 11
-3.95623568E+02
 21
1.52502929E+02
  0
LINE
  8
0
 62
4
 10
-3.93602252E+02
 20
1.47499995E+02
 11
-3.95623568E+02
 21
1.52502929E+02
  0
LINE
  8
0
 62
4
 10
-4.03379687E+02
 20
1.47499999E+02
 11
-4.02113855E+02
 21
1.49880682E+02
  0
LINE
  8
0
 62
4
 10
-3.85811350E+02
 20
1.55712348E+02
 11
-3.84884166E+02
 21
1.56086954E+02
  0
ARC
  8
0
 62
4
 10
-3.81513143E+02
 20
1.50762020E+02
 40
1.00000000E+00
 50
3.40723662E+02
 51
9.17248994E+00
  0
ARC
  8
0
 62
4
 10
-3.83311255E+02
 20
1.55212503E+02
 40
1.00000000E+00
 50
3.48275100E+01
 51
1.12000000E+02
  0
ARC
  8
0
 62
4
 10
-3.92184915E+02
 20
1.49038828E+02
 40
1.18100000E+01
 50
9.17248994E+00
 51
3.48275100E+01
  0
LINE
  8
0
 62
4
 10
-3.84734323E+02
 20
1.55716081E+02
 11
-3.83686605E+02
 21
1.56139386E+02
  0
LINE
  8
0
 62
4
 10
-3.83704155E+02
 20
1.53166325E+02
 11
-3.84884166E+02
 21
1.56086954E+02
  0
LINE
  8
0
 62
4
 10
-3.82083499E+02
 20
1.47499991E+02
 11
-3.84279009E+02
 21
1.52934069E+02
  0
LINE
  8
0
 62
4
 10
-3.84575148E+02
 20
1.52652641E+02
 11
-3.84222818E+02
 21
1.52794992E+02
  0
LINE
  8
0
 62
4
 10
-3.84279009E+02
 20
1.52934069E+02
 11
-3.82647166E+02
 21
1.53593377E+02
  0
ARC
  8
0
 62
4
 10
-3.91349856E+02
 20
1.45609688E+02
 40
1.18100000E+01
 50
2.20000000E+01
 51
4.25326990E+01
  0
ARC
  8
0
 62
4
 10
-3.91344058E+02
 20
1.45595339E+02
 40
1.18100000E+01
 50
9.28087917E+00
 51
2.20000000E+01
  0
LINE
  8
0
 62
4
 10
-3.82493342E+02
 20
1.47499991E+02
 11
-3.86073574E+02
 21
1.56361376E+02
  0
LINE
  8
0
 62
4
 10
-3.16910950E+02
 20
1.29537177E+02
 11
-3.16999989E+02
 21
1.29573151E+02
  0
LINE
  8
0
  6
CENTER
 62
6
 10
-3.33924872E+02
 20
1.44500258E+02
 11
-3.46023458E+02
 21
1.49388404E+02
  0
LINE
  8
0
  6
CENTER
 62
6
 10
-3.23920181E+02
 20
1.44232972E+02
 11
-3.44712334E+02
 21
1.52633547E+02
  0
LINE
  8
0
 62
4
 10
-3.41926433E+02
 20
1.56361376E+02
 11
-3.32376440E+02
 21
1.52502929E+02
  0
LINE
  8
0
 62
4
 10
-3.25886153E+02
 20
1.49880682E+02
 11
-3.32376440E+02
 21
1.52502929E+02
  0
LINE
  8
0
 62
4
 10
-3.34397764E+02
 20
1.47499974E+02
 11
-3.32376440E+02
 21
1.52502929E+02
  0
LINE
  8
0
 62
4
 10
-3.24620306E+02
 20
1.47499971E+02
 11
-3.25886153E+02
 21
1.49880682E+02
  0
LINE
  8
0
 62
4
 10
-3.45035668E+02
 20
1.48665750E+02
 11
-3.45962852E+02
 21
1.49040357E+02
  0
LINE
  8
0
 62
4
 10
-3.42188658E+02
 20
1.55712348E+02
 11
-3.43115842E+02
 21
1.56086954E+02
  0
ARC
  8
0
 62
4
 10
-3.46486864E+02
 20
1.50762020E+02
 40
1.00000000E+00
 50
1.70827510E+02
 51
2.48000000E+02
  0
ARC
  8
0
 62
4
 10
-3.44688753E+02
 20
1.55212503E+02
 40
1.00000000E+00
 50
6.79999999E+01
 51
1.45172490E+02
  0
LINE
  8
0
 62
4
 10
-3.45813009E+02
 20
1.49411231E+02
 11
-3.46860727E+02
 21
1.49834536E+02
  0
LINE
  8
0
 62
4
 10
-3.43265684E+02
 20
1.55716081E+02
 11
-3.44313402E+02
 21
1.56139386E+02
  0
LINE
  8
0
 62
4
 10
-3.45962852E+02
 20
1.49040357E+02
 11
-3.43115842E+02
 21
1.56086954E+02
  0
ARC
  8
0
 62
4
 10
-3.35815093E+02
 20
1.49038828E+02
 40
1.18100000E+01
 50
1.45172490E+02
 51
1.70827510E+02
  0
LINE
  8
0
 62
4
 10
-3.45916514E+02
 20
1.47499978E+02
 11
-3.45387998E+02
 21
1.48808101E+02
  0
ARC
  8
0
 62
4
 10
-3.36650152E+02
 20
1.45609688E+02
 40
1.18100000E+01
 50
1.55900933E+02
 51
1.58000000E+02
  0
ARC
  8
0
 62
4
 10
-3.36655949E+02
 20
1.45595339E+02
 40
1.18100000E+01
 50
1.58000000E+02
 51
1.70719176E+02
  0
LINE
  8
0
 62
4
 10
-3.45506671E+02
 20
1.47499978E+02
 11
-3.41926433E+02
 21
1.56361376E+02
  0
LINE
  8
0
 62
4
 10
-3.16999989E+02
 20
1.29316799E+02
 11
-3.16910950E+02
 21
1.29537177E+02
  0
LINE
  8
0
 62
7
 10
-4.06999958E+02
 20
1.46900024E+02
 11
-3.20999989E+02
 21
1.46899963E+02
  0
LINE
  8
0
 62
7
 10
-4.10400043E+02
 20
5.75000229E+01
 11
-4.10400043E+02
 21
1.43499985E+02
  0
LINE
  8
0
 62
7
 10
-4.07400043E+02
 20
8.24987946E+01
 11
-4.07400043E+02
 21
1.18501083E+02
  0
LINE
  8
0
  6
CENTER
 62
2
 10
-3.99000019E+02
 20
1.49685333E+02
 11
-3.99000019E+02
 21
1.20961639E+02
  0
LINE
  8
0
  6
CENTER
 62
2
 10
-3.99000019E+02
 20
5.07628784E+01
 11
-3.99000019E+02
 21
8.09070358E+01
  0
LINE
  8
0
 62
7
 10
-4.11000019E+02
 20
5.75000229E+01
 11
-4.11000019E+02
 21
1.43499985E+02
  0
LINE
  8
0
 62
7
 10
-3.81069455E+02
 20
1.15801561E+02
 11
-3.91189511E+02
 21
1.25921617E+02
  0
LINE
  8
0
 62
7
 10
-3.79301580E+02
 20
1.17569350E+02
 11
-3.89421615E+02
 21
1.27689384E+02
  0
LINE
  8
0
 62
7
 10
-3.65250019E+02
 20
1.42899994E+02
 11
-3.65250019E+02
 21
1.23389679E+02
  0
LINE
  8
0
 62
7
 10
-4.06399952E+02
 20
1.01750000E+02
 11
-3.86889698E+02
 21
1.01750000E+02
  0
LINE
  8
0
 62
7
 10
-3.81069499E+02
 20
8.51986725E+01
 11
-3.91189534E+02
 21
7.50786384E+01
  0
LINE
  8
0
 62
7
 10
-3.79301711E+02
 20
8.34307544E+01
 11
-3.89421767E+02
 21
7.33106987E+01
  0
LINE
  8
0
 62
7
 10
-3.21599964E+02
 20
1.01749977E+02
 11
-3.41110279E+02
 21
1.01749977E+02
  0
LINE
  8
0
 62
7
 10
-3.65250019E+02
 20
5.81000366E+01
 11
-3.65250019E+02
 21
7.76102600E+01
  0
LINE
  8
0
 62
7
 10
-4.06399952E+02
 20
9.92500305E+01
 11
-3.86889668E+02
 21
9.92500305E+01
  0
LINE
  8
0
 62
7
 10
-4.06999989E+02
 20
5.41000290E+01
 11
-3.20999989E+02
 21
5.40999756E+01
  0
LINE
  8
0
 62
7
 10
-3.17600025E+02
 20
5.75000000E+01
 11
-3.17600025E+02
 21
1.43499969E+02
  0
LINE
  8
0
 62
7
 10
-3.20600025E+02
 20
8.24988861E+01
 11
-3.20600025E+02
 21
1.18501175E+02
  0
LINE
  8
0
 62
7
 10
-3.45998829E+02
 20
5.70999756E+01
 11
-3.82001118E+02
 21
5.70999756E+01
  0
LINE
  8
0
 62
7
 10
-3.16999989E+02
 20
5.75000000E+01
 11
-3.16999989E+02
 21
1.43499969E+02
  0
LINE
  8
0
  6
CENTER
 62
2
 10
-4.13555500E+02
 20
6.55000153E+01
 11
-3.85134876E+02
 21
6.55000153E+01
  0
LINE
  8
0
 62
7
 10
-4.06999989E+02
 20
5.35000305E+01
 11
-3.20999989E+02
 21
5.34999924E+01
  0
LINE
  8
0
 62
7
 10
-3.48698434E+02
 20
8.34306228E+01
 11
-3.38578401E+02
 21
7.33105870E+01
  0
LINE
  8
0
 62
7
 10
-3.46930646E+02
 20
8.51984112E+01
 11
-3.36810612E+02
 21
7.50783754E+01
  0
LINE
  8
0
 62
7
 10
-3.21600025E+02
 20
9.92499924E+01
 11
-3.41110218E+02
 21
9.92499924E+01
  0
LINE
  8
0
 62
7
 10
-3.62749989E+02
 20
5.81000061E+01
 11
-3.62749989E+02
 21
7.76103134E+01
  0
LINE
  8
0
  6
CENTER
 62
2
 10
-3.64000019E+02
 20
1.51355759E+02
 11
-3.64000019E+02
 21
4.95240784E+01
  0
LINE
  8
0
  6
CENTER
 62
2
 10
-3.28999989E+02
 20
1.49872681E+02
 11
-3.28999989E+02
 21
1.20135757E+02
  0
LINE
  8
0
  6
CENTER
 62
2
 10
-4.13555500E+02
 20
1.35500000E+02
 11
-3.84309010E+02
 21
1.35500000E+02
  0
LINE
  8
0
 62
7
 10
-3.46930674E+02
 20
1.15801657E+02
 11
-3.36810605E+02
 21
1.25921722E+02
  0
LINE
  8
0
 62
7
 10
-3.48698570E+02
 20
1.17569511E+02
 11
-3.38578512E+02
 21
1.27689565E+02
  0
LINE
  8
0
 62
7
 10
-3.62749989E+02
 20
1.42899948E+02
 11
-3.62749989E+02
 21
1.23389725E+02
  0
LINE
  8
0
 62
7
 10
-3.45998920E+02
 20
1.43899963E+02
 11
-3.82001148E+02
 21
1.43899963E+02
  0
LINE
  8
0
 62
7
 10
-4.06999958E+02
 20
1.47500000E+02
 11
-3.20999989E+02
 21
1.47499969E+02
  0
LINE
  8
0
 62
7
 10
-3.34000019E+02
 20
1.47499969E+02
 11
-3.34000019E+02
 21
1.46899963E+02
  0
LINE
  8
0
 62
7
 10
-3.94000019E+02
 20
1.47500000E+02
 11
-3.94000019E+02
 21
1.46900024E+02
  0
LINE
  8
0
 62
7
 10
-3.94000019E+02
 20
5.41000290E+01
 11
-3.94000019E+02
 21
5.35000305E+01
  0
LINE
  8
0
 62
7
 10
-3.34000019E+02
 20
5.40999756E+01
 11
-3.34000019E+02
 21
5.34999924E+01
  0
LINE
  8
0
 62
7
 10
-4.03000019E+02
 20
1.23365311E+02
 11
-4.03000019E+02
 21
1.22999969E+02
  0
LINE
  8
0
 62
7
 10
-3.86865345E+02
 20
1.39500046E+02
 11
-3.86500050E+02
 21
1.39500046E+02
  0
LINE
  8
0
 62
7
 10
-3.41134632E+02
 20
1.39499954E+02
 11
-3.41500019E+02
 21
1.39499954E+02
  0
LINE
  8
0
 62
7
 10
-3.24999928E+02
 20
1.23365326E+02
 11
-3.24999928E+02
 21
1.23000061E+02
  0
LINE
  8
0
 62
7
 10
-4.03000050E+02
 20
7.76346436E+01
 11
-4.03000050E+02
 21
7.79999084E+01
  0
LINE
  8
0
 62
7
 10
-3.25000019E+02
 20
7.76346664E+01
 11
-3.25000019E+02
 21
7.80000000E+01
  0
LINE
  8
0
 62
7
 10
-3.41134632E+02
 20
6.14999390E+01
 11
-3.41499928E+02
 21
6.14999390E+01
  0
LINE
  8
0
 62
7
 10
-3.86865314E+02
 20
6.15000305E+01
 11
-3.86500019E+02
 21
6.15000305E+01
  0
LINE
  8
0
  6
CENTER
 62
2
 10
-3.42809132E+02
 20
6.55000153E+01
 11
-3.14012257E+02
 21
6.55000153E+01
  0
LINE
  8
0
  6
CENTER
 62
2
 10
-3.43222126E+02
 20
1.35500000E+02
 11
-3.14012257E+02
 21
1.35500000E+02
  0
LINE
  8
0
  6
CENTER
 62
2
 10
-3.28999989E+02
 20
5.08976555E+01
 11
-3.28999989E+02
 21
7.95789261E+01
  0
LINE
  8
0
  6
CENTER
 62
2
 10
-3.12465199E+02
 20
1.00500000E+02
 11
-4.14465443E+02
 21
1.00500000E+02
  0
LINE
  8
0
  6
CENTER
 62
2
 10
-3.75000080E+02
 20
1.34800034E+02
 11
-3.75000080E+02
 21
1.49952621E+02
  0
CIRCLE
  8
0
 62
7
 10
-3.99000019E+02
 20
1.35499969E+02
 40
8.00000000E+00
  0
CIRCLE
  8
0
 62
7
 10
-3.99000019E+02
 20
1.35499969E+02
 40
8.69999981E+00
  0
CIRCLE
  8
0
 62
7
 10
-3.99000019E+02
 20
6.54999924E+01
 40
8.00000000E+00
  0
CIRCLE
  8
0
 62
7
 10
-3.99000019E+02
 20
6.54999924E+01
 40
8.69999981E+00
  0
ARC
  8
0
 62
7
 10
-3.88714527E+02
 20
1.28396545E+02
 40
1.00000000E+00
 50
1.45369634E+02
 51
2.24999955E+02
  0
ARC
  8
0
 62
7
 10
-3.91896534E+02
 20
1.25214508E+02
 40
1.00000000E+00
 50
4.49999910E+01
 51
1.24630380E+02
  0
ARC
  8
0
 62
7
 10
-3.66250019E+02
 20
1.42899994E+02
 40
1.00000000E+00
 50
3.59999959E+02
 51
8.99999956E+01
  0
ARC
  8
0
 62
7
 10
-3.99000019E+02
 20
1.35499969E+02
 40
1.15000000E+01
 50
2.56113404E+02
 51
1.38868930E+01
  0
ARC
  8
0
 62
7
 10
-4.06399952E+02
 20
1.02750000E+02
 40
1.00000000E+00
 50
1.79999964E+02
 51
2.69999946E+02
  0
ARC
  8
0
 62
7
 10
-3.91896534E+02
 20
7.57854767E+01
 40
1.00000000E+00
 50
2.35369648E+02
 51
3.14999968E+02
  0
ARC
  8
0
 62
7
 10
-3.88714527E+02
 20
7.26034698E+01
 40
1.00000000E+00
 50
1.34999987E+02
 51
2.14630376E+02
  0
ARC
  8
0
 62
7
 10
-4.06999989E+02
 20
1.43499985E+02
 40
3.40000033E+00
 50
9.00000231E+01
 51
1.79999977E+02
  0
ARC
  8
0
 62
7
 10
-3.66250019E+02
 20
5.81000366E+01
 40
1.00000000E+00
 50
2.69999991E+02
 51
3.59999973E+02
  0
ARC
  8
0
 62
7
 10
-4.06400043E+02
 20
9.82500076E+01
 40
1.00000000E+00
 50
8.99999549E+01
 51
1.79999991E+02
  0
ARC
  8
0
 62
7
 10
-4.06999989E+02
 20
5.75000000E+01
 40
3.40000033E+00
 50
1.80000036E+02
 51
2.69999991E+02
  0
ARC
  8
0
 62
7
 10
-3.99000019E+02
 20
6.54999924E+01
 40
1.15000000E+01
 50
3.46113659E+02
 51
1.03886911E+02
  0
ARC
  8
0
 62
7
 10
-4.06999989E+02
 20
1.43499985E+02
 40
4.00000000E+00
 50
9.00000231E+01
 51
1.79999977E+02
  0
ARC
  8
0
 62
7
 10
-4.06999989E+02
 20
5.75000000E+01
 40
4.00000000E+00
 50
1.80000036E+02
 51
2.69999991E+02
  0
ARC
  8
0
 62
7
 10
-3.86500050E+02
 20
1.43000000E+02
 40
3.50000024E+00
 50
2.70000018E+02
 51
3.58726970E+02
  0
ARC
  8
0
 62
7
 10
-4.06500080E+02
 20
1.22999969E+02
 40
3.50000024E+00
 50
2.71274531E+02
 51
4.99579573E-04
  0
ARC
  8
0
 62
7
 10
-4.06399952E+02
 20
1.18501083E+02
 40
1.00000000E+00
 50
9.12747958E+01
 51
1.79999964E+02
  0
ARC
  8
0
 62
7
 10
-3.82001148E+02
 20
1.42900024E+02
 40
1.00000000E+00
 50
8.99999818E+01
 51
1.78726994E+02
  0
ARC
  8
0
 62
7
 10
-4.06500019E+02
 20
7.79999084E+01
 40
3.50000024E+00
 50
0.00000000E+00
 51
8.87269647E+01
  0
ARC
  8
0
 62
7
 10
-3.86500019E+02
 20
5.79999390E+01
 40
3.50000024E+00
 50
1.27452835E+00
 51
8.99999818E+01
  0
ARC
  8
0
 62
7
 10
-4.06400043E+02
 20
8.24987946E+01
 40
1.00000000E+00
 50
1.79999977E+02
 51
2.68726963E+02
  0
ARC
  8
0
 62
7
 10
-3.82001118E+02
 20
5.81000366E+01
 40
1.00000000E+00
 50
1.81274754E+02
 51
2.70000018E+02
  0
ARC
  8
0
 62
7
 10
-3.78594471E+02
 20
1.18276489E+02
 40
1.00000000E+00
 50
2.24999972E+02
 51
3.09385511E+02
  0
ARC
  8
0
 62
7
 10
-3.81776478E+02
 20
1.15094475E+02
 40
1.00000000E+00
 50
3.20613837E+02
 51
4.49999910E+01
  0
ARC
  8
0
 62
7
 10
-3.66250019E+02
 20
1.23389679E+02
 40
1.00000000E+00
 50
2.75613832E+02
 51
3.59999959E+02
  0
ARC
  8
0
 62
7
 10
-3.86889698E+02
 20
1.02750000E+02
 40
1.00000000E+00
 50
2.69999963E+02
 51
3.54386117E+02
  0
ARC
  8
0
 62
7
 10
-3.81776478E+02
 20
8.59055328E+01
 40
1.00000000E+00
 50
3.14999968E+02
 51
3.93854936E+01
  0
ARC
  8
0
 62
7
 10
-3.78594471E+02
 20
8.27235107E+01
 40
1.00000000E+00
 50
5.06138328E+01
 51
1.34999987E+02
  0
ARC
  8
0
 62
7
 10
-3.86889668E+02
 20
9.82500076E+01
 40
1.00000000E+00
 50
5.61382810E+00
 51
8.99999549E+01
  0
ARC
  8
0
 62
7
 10
-3.66250019E+02
 20
7.76102600E+01
 40
1.00000000E+00
 50
3.59999973E+02
 51
8.43861127E+01
  0
CIRCLE
  8
0
 62
7
 10
-3.28999989E+02
 20
6.54999924E+01
 40
8.00000000E+00
  0
CIRCLE
  8
0
 62
7
 10
-3.28999989E+02
 20
6.54999924E+01
 40
8.69999981E+00
  0
ARC
  8
0
 62
7
 10
-3.39285480E+02
 20
7.26034546E+01
 40
1.00000000E+00
 50
3.25369629E+02
 51
4.49999637E+01
  0
ARC
  8
0
 62
7
 10
-3.36103474E+02
 20
7.57854767E+01
 40
1.00000000E+00
 50
2.25000000E+02
 51
3.04630388E+02
  0
ARC
  8
0
 62
7
 10
-3.21600025E+02
 20
9.82500000E+01
 40
1.00000000E+00
 50
3.59999986E+02
 51
8.99999681E+01
  0
ARC
  8
0
 62
7
 10
-3.61750019E+02
 20
5.80999908E+01
 40
1.00000000E+00
 50
1.79999951E+02
 51
2.70000001E+02
  0
ARC
  8
0
 62
7
 10
-3.20999989E+02
 20
5.75000000E+01
 40
3.40000033E+00
 50
2.70000018E+02
 51
3.59999986E+02
  0
ARC
  8
0
 62
7
 10
-3.28999989E+02
 20
6.54999924E+01
 40
1.15000000E+01
 50
7.61135653E+01
 51
1.93886777E+02
  0
ARC
  8
0
 62
7
 10
-3.20999989E+02
 20
5.75000000E+01
 40
4.00000000E+00
 50
2.70000018E+02
 51
3.59999986E+02
  0
ARC
  8
0
 62
7
 10
-3.21499958E+02
 20
7.80000000E+01
 40
3.50000024E+00
 50
9.12745500E+01
 51
1.79999964E+02
  0
ARC
  8
0
 62
7
 10
-3.41499958E+02
 20
5.79999924E+01
 40
3.50000024E+00
 50
8.99999818E+01
 51
1.78726994E+02
  0
ARC
  8
0
 62
7
 10
-3.21600025E+02
 20
8.24988861E+01
 40
1.00000000E+00
 50
2.71274777E+02
 51
0.00000000E+00
  0
ARC
  8
0
 62
7
 10
-3.49405537E+02
 20
8.27235107E+01
 40
1.00000000E+00
 50
4.49999637E+01
 51
1.29385489E+02
  0
ARC
  8
0
 62
7
 10
-3.46223530E+02
 20
8.59055176E+01
 40
1.00000000E+00
 50
1.40613828E+02
 51
2.24999982E+02
  0
ARC
  8
0
 62
7
 10
-3.61750019E+02
 20
7.76103134E+01
 40
1.00000000E+00
 50
9.56138240E+01
 51
1.79999951E+02
  0
ARC
  8
0
 62
7
 10
-3.41110218E+02
 20
9.82500000E+01
 40
1.00000000E+00
 50
8.99999681E+01
 51
1.74386108E+02
  0
ARC
  8
0
 62
7
 10
-3.45998859E+02
 20
5.80999680E+01
 40
1.00000000E+00
 50
2.70000018E+02
 51
3.58726970E+02
  0
CIRCLE
  8
0
 62
7
 10
-3.28999989E+02
 20
1.35499969E+02
 40
8.00000000E+00
  0
CIRCLE
  8
0
 62
7
 10
-3.28999989E+02
 20
1.35499969E+02
 40
8.69999981E+00
  0
ARC
  8
0
 62
7
 10
-3.36103474E+02
 20
1.25214508E+02
 40
1.00000000E+00
 50
5.53696252E+01
 51
1.34999959E+02
  0
ARC
  8
0
 62
7
 10
-3.39285480E+02
 20
1.28396515E+02
 40
1.00000000E+00
 50
3.14999995E+02
 51
3.46303842E+01
  0
ARC
  8
0
 62
7
 10
-3.61750019E+02
 20
1.42899948E+02
 40
1.00000000E+00
 50
8.99999818E+01
 51
1.79999964E+02
  0
ARC
  8
0
 62
7
 10
-3.21599964E+02
 20
1.02749985E+02
 40
1.00000000E+00
 50
2.69999963E+02
 51
0.00000000E+00
  0
ARC
  8
0
 62
7
 10
-3.20999989E+02
 20
1.43499969E+02
 40
3.40000033E+00
 50
0.00000000E+00
 51
8.99999818E+01
  0
ARC
  8
0
 62
7
 10
-3.28999989E+02
 20
1.35499969E+02
 40
1.15000000E+01
 50
1.66113425E+02
 51
2.83886868E+02
  0
ARC
  8
0
 62
7
 10
-3.20999989E+02
 20
1.43499969E+02
 40
4.00000000E+00
 50
0.00000000E+00
 51
8.99999818E+01
  0
ARC
  8
0
 62
7
 10
-3.21499989E+02
 20
1.23000061E+02
 40
3.50000024E+00
 50
1.79999977E+02
 51
2.68726963E+02
  0
ARC
  8
0
 62
7
 10
-3.41500019E+02
 20
1.43000061E+02
 40
3.50000024E+00
 50
1.81274508E+02
 51
2.70000018E+02
  0
ARC
  8
0
 62
7
 10
-3.21599964E+02
 20
1.18501175E+02
 40
1.00000000E+00
 50
0.00000000E+00
 51
8.87269716E+01
  0
ARC
  8
0
 62
7
 10
-3.45998920E+02
 20
1.42899948E+02
 40
1.00000000E+00
 50
1.27477808E+00
 51
8.99999818E+01
  0
ARC
  8
0
 62
7
 10
-3.46223530E+02
 20
1.15094452E+02
 40
1.00000000E+00
 50
1.34999959E+02
 51
2.19385485E+02
  0
ARC
  8
0
 62
7
 10
-3.49405537E+02
 20
1.18276489E+02
 40
1.00000000E+00
 50
2.30613841E+02
 51
3.14999995E+02
  0
ARC
  8
0
 62
7
 10
-3.41110310E+02
 20
1.02749985E+02
 40
1.00000000E+00
 50
1.85613837E+02
 51
2.69999963E+02
  0
ARC
  8
0
 62
7
 10
-3.61750019E+02
 20
1.23389725E+02
 40
1.00000000E+00
 50
1.79999964E+02
 51
2.64386104E+02
  0
CIRCLE
  8
0
 62
7
 10
-3.64000019E+02
 20
1.00500076E+02
 40
2.20000000E+01
  0
CIRCLE
  8
0
 62
7
 10
-3.64000019E+02
 20
1.00500076E+02
 40
1.95000000E+01
  0
CIRCLE
  8
0
 62
7
 10
-3.64000019E+02
 20
1.00500000E+02
 40
2.10111084E+01
  0
ARC
  8
0
 62
7
 10
-3.25999958E+02
 20
1.23365326E+02
 40
1.00000000E+00
 50
0.00000000E+00
 51
1.03886139E+02
  0
ARC
  8
0
 62
7
 10
-3.41134663E+02
 20
1.38499969E+02
 40
1.00000000E+00
 50
3.46114302E+02
 51
8.99999818E+01
  0
ARC
  8
0
 62
7
 10
-3.86865345E+02
 20
1.38500061E+02
 40
1.00000000E+00
 50
8.99999818E+01
 51
1.93887774E+02
  0
ARC
  8
0
 62
7
 10
-4.02000019E+02
 20
1.23365311E+02
 40
1.00000000E+00
 50
7.61138799E+01
 51
1.79999964E+02
  0
ARC
  8
0
 62
7
 10
-4.02000080E+02
 20
7.76346436E+01
 40
1.00000000E+00
 50
1.79999977E+02
 51
2.83886131E+02
  0
ARC
  8
0
 62
7
 10
-3.86865314E+02
 20
6.25000305E+01
 40
1.00000000E+00
 50
1.66113056E+02
 51
2.70000001E+02
  0
ARC
  8
0
 62
7
 10
-3.41134663E+02
 20
6.24999390E+01
 40
1.00000000E+00
 50
2.70000018E+02
 51
1.38869656E+01
  0
ARC
  8
0
 62
7
 10
-3.25999989E+02
 20
7.76346664E+01
 40
1.00000000E+00
 50
2.56114073E+02
 51
0.00000000E+00
  0
CIRCLE
  8
0
 62
2
 10
-3.99000019E+02
 20
1.35500000E+02
 40
5.00000000E+00
  0
CIRCLE
  8
0
 62
2
 10
-3.28999989E+02
 20
1.35500000E+02
 40
5.00000000E+00
  0
CIRCLE
  8
0
 62
2
 10
-3.28999989E+02
 20
6.55000153E+01
 40
5.00000000E+00
  0
CIRCLE
  8
0
 62
2
 10
-3.99000019E+02
 20
6.55000153E+01
 40
5.00000000E+00
  0
CIRCLE
  8
0
 62
7
 10
-3.99000019E+02
 20
6.55000153E+01
 40
4.18000031E+00
  0
CIRCLE
  8
0
 62
7
 10
-3.99000019E+02
 20
1.35500000E+02
 40
4.18000031E+00
  0
CIRCLE
  8
0
 62
7
 10
-3.28999989E+02
 20
1.35500000E+02
 40
4.18000031E+00
  0
CIRCLE
  8
0
 62
7
 10
-3.28999989E+02
 20
6.55000153E+01
 40
4.18000031E+00
  0
CIRCLE
  8
0
 62
7
 10
-3.64000019E+02
 20
1.00500000E+02
 40
1.10000267E+01
  0
CIRCLE
  8
0
 62
2
 10
-3.64000019E+02
 20
1.00500000E+02
 40
1.01800117E+01
  0
CIRCLE
  8
0
 62
7
 10
-3.64000019E+02
 20
1.00500000E+02
 40
9.50002670E+00
  0
LINE
  8
0
 62
4
 10
1.58999981E+02
 20
1.29316799E+02
 11
1.58910943E+02
 21
1.29537177E+02
  0
LINE
  8
0
 62
4
 10
1.58910943E+02
 20
1.29537177E+02
 11
1.58999981E+02
 21
1.29573151E+02
  0
LINE
  8
0
 62
4
 10
1.83926426E+02
 20
1.56361376E+02
 11
1.74376432E+02
 21
1.52502929E+02
  0
LINE
  8
0
  6
CENTER
 62
6
 10
1.65920174E+02
 20
1.44232972E+02
 11
1.86712327E+02
 21
1.52633547E+02
  0
LINE
  8
0
  6
CENTER
 62
6
 10
1.75924864E+02
 20
1.44500258E+02
 11
1.88023450E+02
 21
1.49388404E+02
  0
LINE
  8
0
 62
4
 10
1.67886145E+02
 20
1.49880682E+02
 11
1.74376432E+02
 21
1.52502929E+02
  0
LINE
  8
0
 62
4
 10
1.76397748E+02
 20
1.47499995E+02
 11
1.74376432E+02
 21
1.52502929E+02
  0
LINE
  8
0
 62
4
 10
1.66620313E+02
 20
1.47499999E+02
 11
1.67886145E+02
 21
1.49880682E+02
  0
LINE
  8
0
 62
4
 10
1.84188650E+02
 20
1.55712348E+02
 11
1.85115834E+02
 21
1.56086954E+02
  0
ARC
  8
0
 62
4
 10
1.88486857E+02
 20
1.50762020E+02
 40
1.00000000E+00
 50
3.40723662E+02
 51
9.17248994E+00
  0
ARC
  8
0
 62
4
 10
1.86688745E+02
 20
1.55212503E+02
 40
1.00000000E+00
 50
3.48275100E+01
 51
1.12000000E+02
  0
ARC
  8
0
 62
4
 10
1.77815085E+02
 20
1.49038828E+02
 40
1.18100000E+01
 50
9.17248994E+00
 51
3.48275100E+01
  0
LINE
  8
0
 62
4
 10
1.85265677E+02
 20
1.55716081E+02
 11
1.86313395E+02
 21
1.56139386E+02
  0
LINE
  8
0
 62
4
 10
1.86295845E+02
 20
1.53166325E+02
 11
1.85115834E+02
 21
1.56086954E+02
  0
LINE
  8
0
 62
4
 10
1.87916501E+02
 20
1.47499991E+02
 11
1.85720991E+02
 21
1.52934069E+02
  0
LINE
  8
0
 62
4
 10
1.85424852E+02
 20
1.52652641E+02
 11
1.85777182E+02
 21
1.52794992E+02
  0
LINE
  8
0
 62
4
 10
1.85720991E+02
 20
1.52934069E+02
 11
1.87352834E+02
 21
1.53593377E+02
  0
ARC
  8
0
 62
4
 10
1.78650144E+02
 20
1.45609688E+02
 40
1.18100000E+01
 50
2.20000000E+01
 51
4.25326990E+01
  0
ARC
  8
0
 62
4
 10
1.78655942E+02
 20
1.45595339E+02
 40
1.18100000E+01
 50
9.28087917E+00
 51
2.20000000E+01
  0
LINE
  8
0
 62
4
 10
1.87506658E+02
 20
1.47499991E+02
 11
1.83926426E+02
 21
1.56361376E+02
  0
LINE
  8
0
 62
4
 10
2.53089050E+02
 20
1.29537177E+02
 11
2.53000011E+02
 21
1.29573151E+02
  0
LINE
  8
0
  6
CENTER
 62
6
 10
2.36075128E+02
 20
1.44500258E+02
 11
2.23976542E+02
 21
1.49388404E+02
  0
LINE
  8
0
  6
CENTER
 62
6
 10
2.46079819E+02
 20
1.44232972E+02
 11
2.25287666E+02
 21
1.52633547E+02
  0
LINE
  8
0
 62
4
 10
2.28073567E+02
 20
1.56361376E+02
 11
2.37623560E+02
 21
1.52502929E+02
  0
LINE
  8
0
 62
4
 10
2.44113847E+02
 20
1.49880682E+02
 11
2.37623560E+02
 21
1.52502929E+02
  0
LINE
  8
0
 62
4
 10
2.35602236E+02
 20
1.47499974E+02
 11
2.37623560E+02
 21
1.52502929E+02
  0
LINE
  8
0
 62
4
 10
2.45379694E+02
 20
1.47499971E+02
 11
2.44113847E+02
 21
1.49880682E+02
  0
LINE
  8
0
 62
4
 10
2.24964332E+02
 20
1.48665750E+02
 11
2.24037148E+02
 21
1.49040357E+02
  0
LINE
  8
0
 62
4
 10
2.27811342E+02
 20
1.55712348E+02
 11
2.26884158E+02
 21
1.56086954E+02
  0
ARC
  8
0
 62
4
 10
2.23513136E+02
 20
1.50762020E+02
 40
1.00000000E+00
 50
1.70827510E+02
 51
2.48000000E+02
  0
ARC
  8
0
 62
4
 10
2.25311247E+02
 20
1.55212503E+02
 40
1.00000000E+00
 50
6.79999999E+01
 51
1.45172490E+02
  0
LINE
  8
0
 62
4
 10
2.24186991E+02
 20
1.49411231E+02
 11
2.23139273E+02
 21
1.49834536E+02
  0
LINE
  8
0
 62
4
 10
2.26734316E+02
 20
1.55716081E+02
 11
2.25686598E+02
 21
1.56139386E+02
  0
LINE
  8
0
 62
4
 10
2.24037148E+02
 20
1.49040357E+02
 11
2.26884158E+02
 21
1.56086954E+02
  0
ARC
  8
0
 62
4
 10
2.34184907E+02
 20
1.49038828E+02
 40
1.18100000E+01
 50
1.45172490E+02
 51
1.70827510E+02
  0
LINE
  8
0
 62
4
 10
2.24083486E+02
 20
1.47499978E+02
 11
2.24612002E+02
 21
1.48808101E+02
  0
ARC
  8
0
 62
4
 10
2.33349848E+02
 20
1.45609688E+02
 40
1.18100000E+01
 50
1.55900933E+02
 51
1.58000000E+02
  0
ARC
  8
0
 62
4
 10
2.33344051E+02
 20
1.45595339E+02
 40
1.18100000E+01
 50
1.58000000E+02
 51
1.70719176E+02
  0
LINE
  8
0
 62
4
 10
2.24493329E+02
 20
1.47499978E+02
 11
2.28073567E+02
 21
1.56361376E+02
  0
LINE
  8
0
 62
4
 10
2.53000011E+02
 20
1.29316799E+02
 11
2.53089050E+02
 21
1.29537177E+02
  0
LINE
  8
0
 62
7
 10
2.52400013E+02
 20
5.75000229E+01
 11
2.52400013E+02
 21
1.43499985E+02
  0
LINE
  8
0
 62
7
 10
1.62999954E+02
 20
5.40999756E+01
 11
2.48999966E+02
 21
5.41000290E+01
  0
LINE
  8
0
 62
7
 10
2.49400005E+02
 20
8.24987946E+01
 11
2.49400005E+02
 21
1.18501083E+02
  0
LINE
  8
0
 62
7
 10
1.62999954E+02
 20
1.47499969E+02
 11
2.48999920E+02
 21
1.47500000E+02
  0
LINE
  8
0
  6
CENTER
 62
2
 10
2.40999996E+02
 20
1.49685333E+02
 11
2.40999996E+02
 21
1.20961639E+02
  0
LINE
  8
0
  6
CENTER
 62
2
 10
2.40999996E+02
 20
5.07628784E+01
 11
2.40999996E+02
 21
8.09070358E+01
  0
LINE
  8
0
 62
7
 10
2.53000004E+02
 20
5.75000229E+01
 11
2.53000004E+02
 21
1.43499985E+02
  0
LINE
  8
0
 62
7
 10
1.62999954E+02
 20
5.34999924E+01
 11
2.48999966E+02
 21
5.35000305E+01
  0
LINE
  8
0
 62
7
 10
2.23069420E+02
 20
1.15801565E+02
 11
2.33189487E+02
 21
1.25921631E+02
  0
LINE
  8
0
 62
7
 10
2.21301550E+02
 20
1.17569370E+02
 11
2.31421585E+02
 21
1.27689404E+02
  0
LINE
  8
0
 62
7
 10
2.07249996E+02
 20
1.42899994E+02
 11
2.07249996E+02
 21
1.23389679E+02
  0
LINE
  8
0
 62
7
 10
2.48399929E+02
 20
1.01750000E+02
 11
2.28889675E+02
 21
1.01750000E+02
  0
LINE
  8
0
 62
7
 10
2.23069465E+02
 20
8.51986705E+01
 11
2.33189500E+02
 21
7.50786363E+01
  0
LINE
  8
0
 62
7
 10
2.21301677E+02
 20
8.34307524E+01
 11
2.31421728E+02
 21
7.33107020E+01
  0
LINE
  8
0
 62
7
 10
1.63599945E+02
 20
1.01749977E+02
 11
1.83110245E+02
 21
1.01749977E+02
  0
LINE
  8
0
 62
7
 10
2.07249996E+02
 20
5.81000366E+01
 11
2.07249996E+02
 21
7.76102600E+01
  0
LINE
  8
0
 62
7
 10
2.48399929E+02
 20
9.92500305E+01
 11
2.28889629E+02
 21
9.92500305E+01
  0
LINE
  8
0
 62
7
 10
1.59600006E+02
 20
5.75000000E+01
 11
1.59600006E+02
 21
1.43499969E+02
  0
LINE
  8
0
 62
7
 10
1.62600006E+02
 20
8.24988861E+01
 11
1.62600006E+02
 21
1.18501175E+02
  0
LINE
  8
0
 62
7
 10
1.87998791E+02
 20
5.70999756E+01
 11
2.24001080E+02
 21
5.70999756E+01
  0
LINE
  8
0
 62
7
 10
1.58999969E+02
 20
5.75000000E+01
 11
1.58999969E+02
 21
1.43499969E+02
  0
LINE
  8
0
  6
CENTER
 62
2
 10
2.55555470E+02
 20
6.55000153E+01
 11
2.27134838E+02
 21
6.55000153E+01
  0
LINE
  8
0
 62
7
 10
1.90698391E+02
 20
8.34306151E+01
 11
1.80578358E+02
 21
7.33105794E+01
  0
LINE
  8
0
 62
7
 10
1.88930602E+02
 20
8.51984035E+01
 11
1.78810569E+02
 21
7.50783677E+01
  0
LINE
  8
0
 62
7
 10
1.63599991E+02
 20
9.92499924E+01
 11
1.83110199E+02
 21
9.92499924E+01
  0
LINE
  8
0
 62
7
 10
2.04749966E+02
 20
5.81000061E+01
 11
2.04749966E+02
 21
7.76103134E+01
  0
LINE
  8
0
  6
CENTER
 62
2
 10
2.05999981E+02
 20
1.51355759E+02
 11
2.05999981E+02
 21
4.95240784E+01
  0
LINE
  8
0
 62
7
 10
1.62999954E+02
 20
1.46899963E+02
 11
2.48999920E+02
 21
1.46900024E+02
  0
LINE
  8
0
  6
CENTER
 62
2
 10
1.70999969E+02
 20
1.49872681E+02
 11
1.70999969E+02
 21
1.20135757E+02
  0
LINE
  8
0
  6
CENTER
 62
2
 10
2.55555470E+02
 20
1.35500000E+02
 11
2.26308987E+02
 21
1.35500000E+02
  0
LINE
  8
0
 62
7
 10
1.88930632E+02
 20
1.15801655E+02
 11
1.78810563E+02
 21
1.25921719E+02
  0
LINE
  8
0
 62
7
 10
1.90698534E+02
 20
1.17569525E+02
 11
1.80578481E+02
 21
1.27689573E+02
  0
LINE
  8
0
 62
7
 10
2.04749966E+02
 20
1.42899948E+02
 11
2.04749966E+02
 21
1.23389725E+02
  0
LINE
  8
0
 62
7
 10
1.87998882E+02
 20
1.43899963E+02
 11
2.24001125E+02
 21
1.43899963E+02
  0
LINE
  8
0
 62
7
 10
1.75999985E+02
 20
1.47499969E+02
 11
1.75999985E+02
 21
1.46899963E+02
  0
LINE
  8
0
 62
7
 10
2.35999981E+02
 20
1.47500000E+02
 11
2.35999981E+02
 21
1.46900024E+02
  0
LINE
  8
0
 62
7
 10
2.35999981E+02
 20
5.41000290E+01
 11
2.35999981E+02
 21
5.35000305E+01
  0
LINE
  8
0
 62
7
 10
1.75999985E+02
 20
5.40999756E+01
 11
1.75999985E+02
 21
5.34999924E+01
  0
LINE
  8
0
 62
7
 10
2.44999981E+02
 20
1.23365311E+02
 11
2.44999981E+02
 21
1.22999969E+02
  0
LINE
  8
0
 62
7
 10
2.28865322E+02
 20
1.39500046E+02
 11
2.28500027E+02
 21
1.39500046E+02
  0
LINE
  8
0
 62
7
 10
1.83134598E+02
 20
1.39499954E+02
 11
1.83499985E+02
 21
1.39499954E+02
  0
LINE
  8
0
 62
7
 10
1.66999893E+02
 20
1.23365326E+02
 11
1.66999893E+02
 21
1.23000061E+02
  0
LINE
  8
0
 62
7
 10
2.45000027E+02
 20
7.76346436E+01
 11
2.45000027E+02
 21
7.79999084E+01
  0
LINE
  8
0
 62
7
 10
1.66999985E+02
 20
7.76346664E+01
 11
1.66999985E+02
 21
7.80000000E+01
  0
LINE
  8
0
 62
7
 10
1.83134598E+02
 20
6.14999390E+01
 11
1.83499893E+02
 21
6.14999390E+01
  0
LINE
  8
0
 62
7
 10
2.28865276E+02
 20
6.15000305E+01
 11
2.28499981E+02
 21
6.15000305E+01
  0
LINE
  8
0
  6
CENTER
 62
2
 10
1.84809097E+02
 20
6.55000153E+01
 11
1.56012238E+02
 21
6.55000153E+01
  0
LINE
  8
0
  6
CENTER
 62
2
 10
1.85222092E+02
 20
1.35500000E+02
 11
1.56012238E+02
 21
1.35500000E+02
  0
LINE
  8
0
  6
CENTER
 62
2
 10
1.70999969E+02
 20
5.08976555E+01
 11
1.70999969E+02
 21
7.95789261E+01
  0
LINE
  8
0
  6
CENTER
 62
2
 10
1.54465179E+02
 20
1.00500000E+02
 11
2.56465412E+02
 21
1.00500000E+02
  0
LINE
  8
0
  6
CENTER
 62
2
 10
2.17000042E+02
 20
1.34800034E+02
 11
2.17000042E+02
 21
1.49952621E+02
  0
LINE
  8
0
 62
7
 10
2.40999992E+02
 20
1.41273497E+02
 11
2.35999995E+02
 21
1.38386748E+02
  0
LINE
  8
0
 62
7
 10
2.35999996E+02
 20
1.38386749E+02
 11
2.35999996E+02
 21
1.32613251E+02
  0
LINE
  8
0
 62
7
 10
2.40999995E+02
 20
1.29726492E+02
 11
2.35999995E+02
 21
1.32613243E+02
  0
LINE
  8
0
 62
7
 10
2.45999990E+02
 20
1.32613247E+02
 11
2.40999993E+02
 21
1.29726498E+02
  0
LINE
  8
0
 62
7
 10
2.45999996E+02
 20
1.38386749E+02
 11
2.45999996E+02
 21
1.32613251E+02
  0
LINE
  8
0
 62
7
 10
2.40999995E+02
 20
1.41273497E+02
 11
2.45999995E+02
 21
1.38386746E+02
  0
LINE
  8
0
 62
7
 10
2.40999997E+02
 20
7.12735207E+01
 11
2.36000001E+02
 21
6.83867714E+01
  0
LINE
  8
0
 62
7
 10
2.35999996E+02
 20
6.83867722E+01
 11
2.35999996E+02
 21
6.26132660E+01
  0
LINE
  8
0
 62
7
 10
2.40999994E+02
 20
5.97265167E+01
 11
2.35999998E+02
 21
6.26132660E+01
  0
LINE
  8
0
 62
7
 10
2.45999997E+02
 20
6.26132668E+01
 11
2.41000001E+02
 21
5.97265175E+01
  0
LINE
  8
0
 62
7
 10
2.45999996E+02
 20
6.83867722E+01
 11
2.45999996E+02
 21
6.26132660E+01
  0
LINE
  8
0
 62
7
 10
2.40999994E+02
 20
7.12735132E+01
 11
2.45999991E+02
 21
6.83867640E+01
  0
LINE
  8
0
 62
7
 10
1.70999969E+02
 20
7.12735209E+01
 11
1.65999966E+02
 21
6.83867678E+01
  0
LINE
  8
0
 62
7
 10
1.65999969E+02
 20
6.83867722E+01
 11
1.65999969E+02
 21
6.26132660E+01
  0
LINE
  8
0
 62
7
 10
1.70999969E+02
 20
5.97265146E+01
 11
1.65999969E+02
 21
6.26132660E+01
  0
LINE
  8
0
 62
7
 10
1.75999969E+02
 20
6.26132670E+01
 11
1.70999966E+02
 21
5.97265139E+01
  0
LINE
  8
0
 62
7
 10
1.75999969E+02
 20
6.83867722E+01
 11
1.75999969E+02
 21
6.26132660E+01
  0
LINE
  8
0
 62
7
 10
1.70999969E+02
 20
7.12735199E+01
 11
1.75999969E+02
 21
6.83867685E+01
  0
LINE
  8
0
 62
7
 10
1.70999970E+02
 20
1.41273501E+02
 11
1.65999967E+02
 21
1.38386748E+02
  0
LINE
  8
0
 62
7
 10
1.65999969E+02
 20
1.38386749E+02
 11
1.65999969E+02
 21
1.32613251E+02
  0
LINE
  8
0
 62
7
 10
1.70999968E+02
 20
1.29726491E+02
 11
1.65999967E+02
 21
1.32613243E+02
  0
LINE
  8
0
 62
7
 10
1.75999970E+02
 20
1.32613248E+02
 11
1.70999967E+02
 21
1.29726494E+02
  0
LINE
  8
0
 62
7
 10
1.75999969E+02
 20
1.38386749E+02
 11
1.75999969E+02
 21
1.32613251E+02
  0
LINE
  8
0
 62
7
 10
1.70999967E+02
 20
1.41273497E+02
 11
1.75999968E+02
 21
1.38386745E+02
  0
CIRCLE
  8
0
 62
2
 10
1.70999969E+02
 20
6.55000153E+01
 40
5.00000000E+00
  0
CIRCLE
  8
0
 62
2
 10
2.40999996E+02
 20
6.55000153E+01
 40
5.00000000E+00
  0
CIRCLE
  8
0
 62
7
 10
2.40999996E+02
 20
6.55000153E+01
 40
4.18000031E+00
  0
CIRCLE
  8
0
 62
7
 10
2.40999996E+02
 20
1.35500000E+02
 40
4.18000031E+00
  0
CIRCLE
  8
0
 62
7
 10
1.70999969E+02
 20
1.35500000E+02
 40
4.18000031E+00
  0
CIRCLE
  8
0
 62
7
 10
1.70999969E+02
 20
6.55000153E+01
 40
4.18000031E+00
  0
CIRCLE
  8
0
 62
7
 10
2.40999996E+02
 20
1.35499969E+02
 40
8.00000000E+00
  0
CIRCLE
  8
0
 62
7
 10
2.40999996E+02
 20
1.35499969E+02
 40
8.69999981E+00
  0
CIRCLE
  8
0
 62
7
 10
2.40999996E+02
 20
6.54999924E+01
 40
8.00000000E+00
  0
CIRCLE
  8
0
 62
7
 10
2.40999996E+02
 20
6.54999924E+01
 40
8.69999981E+00
  0
ARC
  8
0
 62
7
 10
2.30714504E+02
 20
1.28396545E+02
 40
1.00000000E+00
 50
3.15000047E+02
 51
3.46303671E+01
  0
ARC
  8
0
 62
7
 10
2.33896511E+02
 20
1.25214508E+02
 40
1.00000000E+00
 50
5.53696217E+01
 51
1.35000014E+02
  0
ARC
  8
0
 62
7
 10
2.08249981E+02
 20
1.42899994E+02
 40
1.00000000E+00
 50
9.00000025E+01
 51
1.80000046E+02
  0
ARC
  8
0
 62
7
 10
2.40999996E+02
 20
1.35499969E+02
 40
1.15000000E+01
 50
1.66113111E+02
 51
2.83886595E+02
  0
ARC
  8
0
 62
7
 10
2.48399929E+02
 20
1.02750000E+02
 40
1.00000000E+00
 50
2.70000052E+02
 51
3.59721781E-05
  0
ARC
  8
0
 62
7
 10
2.33896511E+02
 20
7.57854767E+01
 40
1.00000000E+00
 50
2.25000027E+02
 51
3.04630351E+02
  0
ARC
  8
0
 62
7
 10
2.30714504E+02
 20
7.26034698E+01
 40
1.00000000E+00
 50
3.25369626E+02
 51
4.50000149E+01
  0
ARC
  8
0
 62
7
 10
2.48999966E+02
 20
1.43499985E+02
 40
3.40000033E+00
 50
2.23117997E-05
 51
8.99999750E+01
  0
ARC
  8
0
 62
7
 10
2.08249981E+02
 20
5.81000366E+01
 40
1.00000000E+00
 50
1.80000022E+02
 51
2.70000011E+02
  0
ARC
  8
0
 62
7
 10
2.48400021E+02
 20
9.82500076E+01
 40
1.00000000E+00
 50
8.65142224E-06
 51
9.00000437E+01
  0
ARC
  8
0
 62
7
 10
2.48999966E+02
 20
5.75000000E+01
 40
3.40000033E+00
 50
2.70000011E+02
 51
3.59999964E+02
  0
ARC
  8
0
 62
7
 10
2.40999996E+02
 20
6.54999924E+01
 40
1.15000000E+01
 50
7.61130875E+01
 51
1.93886340E+02
  0
ARC
  8
0
 62
7
 10
2.48999966E+02
 20
1.43499985E+02
 40
4.00000000E+00
 50
2.23117997E-05
 51
8.99999750E+01
  0
CIRCLE
  8
0
 62
2
 10
1.70999969E+02
 20
1.35500000E+02
 40
5.00000000E+00
  0
ARC
  8
0
 62
7
 10
2.48999966E+02
 20
5.75000000E+01
 40
4.00000000E+00
 50
2.70000011E+02
 51
3.59999964E+02
  0
ARC
  8
0
 62
7
 10
2.28500027E+02
 20
1.43000000E+02
 40
3.50000024E+00
 50
1.81273033E+02
 51
2.69999984E+02
  0
ARC
  8
0
 62
7
 10
2.48500042E+02
 20
1.22999969E+02
 40
3.50000024E+00
 50
1.79999500E+02
 51
2.68725460E+02
  0
ARC
  8
0
 62
7
 10
2.48399929E+02
 20
1.18501083E+02
 40
1.00000000E+00
 50
3.59721781E-05
 51
8.87252023E+01
  0
ARC
  8
0
 62
7
 10
2.24001125E+02
 20
1.42900024E+02
 40
1.00000000E+00
 50
1.27300564E+00
 51
9.00000162E+01
  0
ARC
  8
0
 62
7
 10
2.48499996E+02
 20
7.79999084E+01
 40
3.50000024E+00
 50
9.12730339E+01
 51
1.80000005E+02
  0
ARC
  8
0
 62
7
 10
2.28499981E+02
 20
5.79999390E+01
 40
3.50000024E+00
 50
9.00000162E+01
 51
1.78725478E+02
  0
ARC
  8
0
 62
7
 10
2.48400021E+02
 20
8.24987946E+01
 40
1.00000000E+00
 50
2.71273049E+02
 51
1.86693353E-05
  0
ARC
  8
0
 62
7
 10
2.24001080E+02
 20
5.81000366E+01
 40
1.00000000E+00
 50
2.69999984E+02
 51
3.58725246E+02
  0
ARC
  8
0
 62
7
 10
2.20594448E+02
 20
1.18276489E+02
 40
1.00000000E+00
 50
2.30614484E+02
 51
3.15000026E+02
  0
ARC
  8
0
 62
7
 10
2.23776455E+02
 20
1.15094475E+02
 40
1.00000000E+00
 50
1.35000014E+02
 51
2.19386168E+02
  0
ARC
  8
0
 62
7
 10
2.08249981E+02
 20
1.23389679E+02
 40
1.00000000E+00
 50
1.80000036E+02
 51
2.64386169E+02
  0
ARC
  8
0
 62
7
 10
2.28889675E+02
 20
1.02750000E+02
 40
1.00000000E+00
 50
1.85613878E+02
 51
2.70000038E+02
  0
ARC
  8
0
 62
7
 10
2.23776455E+02
 20
8.59055328E+01
 40
1.00000000E+00
 50
1.40614511E+02
 51
2.25000037E+02
  0
ARC
  8
0
 62
7
 10
2.20594448E+02
 20
8.27235107E+01
 40
1.00000000E+00
 50
4.50000149E+01
 51
1.29386172E+02
  0
ARC
  8
0
 62
7
 10
2.28889629E+02
 20
9.82500076E+01
 40
1.00000000E+00
 50
9.00000437E+01
 51
1.74386177E+02
  0
ARC
  8
0
 62
7
 10
2.08249981E+02
 20
7.76102600E+01
 40
1.00000000E+00
 50
9.56138854E+01
 51
1.80000032E+02
  0
CIRCLE
  8
0
 62
7
 10
1.70999969E+02
 20
6.54999924E+01
 40
8.00000000E+00
  0
CIRCLE
  8
0
 62
7
 10
1.70999969E+02
 20
6.54999924E+01
 40
8.69999981E+00
  0
ARC
  8
0
 62
7
 10
1.81285461E+02
 20
7.26034546E+01
 40
1.00000000E+00
 50
1.35000041E+02
 51
2.14630376E+02
  0
ARC
  8
0
 62
7
 10
1.78103455E+02
 20
7.57854767E+01
 40
1.00000000E+00
 50
2.35369606E+02
 51
3.14999999E+02
  0
ARC
  8
0
 62
7
 10
1.63599991E+02
 20
9.82500000E+01
 40
1.00000000E+00
 50
9.00000300E+01
 51
1.80000019E+02
  0
ARC
  8
0
 62
7
 10
2.03749981E+02
 20
5.80999908E+01
 40
1.00000000E+00
 50
2.69999998E+02
 51
4.96325564E-05
  0
ARC
  8
0
 62
7
 10
1.62999954E+02
 20
5.75000000E+01
 40
3.40000033E+00
 50
1.80000008E+02
 51
2.69999984E+02
  0
ARC
  8
0
 62
7
 10
1.70999969E+02
 20
6.54999924E+01
 40
1.15000000E+01
 50
3.46113223E+02
 51
1.03886433E+02
  0
ARC
  8
0
 62
7
 10
1.62999954E+02
 20
5.75000000E+01
 40
4.00000000E+00
 50
1.80000008E+02
 51
2.69999984E+02
  0
CIRCLE
  8
0
 62
2
 10
2.40999996E+02
 20
1.35500000E+02
 40
5.00000000E+00
  0
ARC
  8
0
 62
7
 10
1.63499924E+02
 20
7.80000000E+01
 40
3.50000024E+00
 50
3.59721781E-05
 51
8.87254481E+01
  0
ARC
  8
0
 62
7
 10
1.83499939E+02
 20
5.79999924E+01
 40
3.50000024E+00
 50
1.27300564E+00
 51
9.00000162E+01
  0
ARC
  8
0
 62
7
 10
1.63599991E+02
 20
8.24988861E+01
 40
1.00000000E+00
 50
1.79999995E+02
 51
2.68725224E+02
  0
ARC
  8
0
 62
7
 10
1.91405514E+02
 20
8.27235107E+01
 40
1.00000000E+00
 50
5.06145124E+01
 51
1.35000041E+02
  0
ARC
  8
0
 62
7
 10
1.88223507E+02
 20
8.59055176E+01
 40
1.00000000E+00
 50
3.15000019E+02
 51
3.93861731E+01
  0
ARC
  8
0
 62
7
 10
2.03749981E+02
 20
7.76103134E+01
 40
1.00000000E+00
 50
4.96325564E-05
 51
8.43861746E+01
  0
ARC
  8
0
 62
7
 10
1.83110199E+02
 20
9.82500000E+01
 40
1.00000000E+00
 50
5.61389128E+00
 51
9.00000300E+01
  0
ARC
  8
0
 62
7
 10
1.87998837E+02
 20
5.80999680E+01
 40
1.00000000E+00
 50
1.81273033E+02
 51
2.69999984E+02
  0
CIRCLE
  8
0
 62
7
 10
1.70999969E+02
 20
1.35499969E+02
 40
8.00000000E+00
  0
CIRCLE
  8
0
 62
7
 10
1.70999969E+02
 20
1.35499969E+02
 40
8.69999981E+00
  0
ARC
  8
0
 62
7
 10
1.78103455E+02
 20
1.25214508E+02
 40
1.00000000E+00
 50
4.50000423E+01
 51
1.24630380E+02
  0
ARC
  8
0
 62
7
 10
1.81285461E+02
 20
1.28396515E+02
 40
1.00000000E+00
 50
1.45369621E+02
 51
2.25000010E+02
  0
ARC
  8
0
 62
7
 10
2.03749981E+02
 20
1.42899948E+02
 40
1.00000000E+00
 50
3.59721781E-05
 51
9.00000162E+01
  0
ARC
  8
0
 62
7
 10
1.63599945E+02
 20
1.02749985E+02
 40
1.00000000E+00
 50
1.79999995E+02
 51
2.70000038E+02
  0
ARC
  8
0
 62
7
 10
1.62999954E+02
 20
1.43499969E+02
 40
3.40000033E+00
 50
9.00000162E+01
 51
1.80000005E+02
  0
ARC
  8
0
 62
7
 10
1.70999969E+02
 20
1.35499969E+02
 40
1.15000000E+01
 50
2.56113130E+02
 51
1.38865754E+01
  0
ARC
  8
0
 62
7
 10
1.62999954E+02
 20
1.43499969E+02
 40
4.00000000E+00
 50
9.00000162E+01
 51
1.80000005E+02
  0
ARC
  8
0
 62
7
 10
1.63499969E+02
 20
1.23000061E+02
 40
3.50000024E+00
 50
2.71273049E+02
 51
1.86693353E-05
  0
ARC
  8
0
 62
7
 10
1.83499985E+02
 20
1.43000061E+02
 40
3.50000024E+00
 50
2.69999984E+02
 51
3.58725492E+02
  0
ARC
  8
0
 62
7
 10
1.63599945E+02
 20
1.18501175E+02
 40
1.00000000E+00
 50
9.12730270E+01
 51
1.80000005E+02
  0
ARC
  8
0
 62
7
 10
1.87998882E+02
 20
1.42899948E+02
 40
1.00000000E+00
 50
9.00000162E+01
 51
1.78725219E+02
  0
ARC
  8
0
 62
7
 10
1.88223507E+02
 20
1.15094452E+02
 40
1.00000000E+00
 50
3.20614517E+02
 51
4.50000423E+01
  0
ARC
  8
0
 62
7
 10
1.91405514E+02
 20
1.18276489E+02
 40
1.00000000E+00
 50
2.25000000E+02
 51
3.09386157E+02
  0
ARC
  8
0
 62
7
 10
1.83110291E+02
 20
1.02749985E+02
 40
1.00000000E+00
 50
2.70000038E+02
 51
3.54386163E+02
  0
ARC
  8
0
 62
7
 10
2.03749981E+02
 20
1.23389725E+02
 40
1.00000000E+00
 50
2.75613894E+02
 51
3.59721781E-05
  0
CIRCLE
  8
0
 62
7
 10
2.05999981E+02
 20
1.00500076E+02
 40
2.20000000E+01
  0
ARC
  8
0
 62
7
 10
1.67999924E+02
 20
1.23365326E+02
 40
1.00000000E+00
 50
7.61138592E+01
 51
1.80000005E+02
  0
ARC
  8
0
 62
7
 10
1.83134644E+02
 20
1.38499969E+02
 40
1.00000000E+00
 50
9.00000162E+01
 51
1.93885698E+02
  0
ARC
  8
0
 62
7
 10
2.28865322E+02
 20
1.38500061E+02
 40
1.00000000E+00
 50
3.46112226E+02
 51
9.00000162E+01
  0
ARC
  8
0
 62
7
 10
2.43999996E+02
 20
1.23365311E+02
 40
1.00000000E+00
 50
3.59721781E-05
 51
1.03886119E+02
  0
ARC
  8
0
 62
7
 10
2.44000042E+02
 20
7.76346436E+01
 40
1.00000000E+00
 50
2.56113881E+02
 51
1.86693353E-05
  0
ARC
  8
0
 62
7
 10
2.28865276E+02
 20
6.25000305E+01
 40
1.00000000E+00
 50
2.69999998E+02
 51
1.38869442E+01
  0
ARC
  8
0
 62
7
 10
1.83134644E+02
 20
6.24999390E+01
 40
1.00000000E+00
 50
1.66113028E+02
 51
2.69999974E+02
  0
ARC
  8
0
 62
7
 10
1.67999969E+02
 20
7.76346664E+01
 40
1.00000000E+00
 50
1.79999995E+02
 51
2.83885929E+02
  0
LINE
  8
0
  6
PHANTOM
 10
-2.95000000E+01
 20
1.90686885E+02
 11
-2.95000000E+01
 21
3.53816712E+02
  0
LINE
  8
0
 62
7
 10
-1.74000019E+02
 20
2.69500000E+02
 11
-1.62000004E+02
 21
2.69500000E+02
  0
LINE
  8
0
 62
2
 10
-1.74000019E+02
 20
2.70320023E+02
 11
-1.62000004E+02
 21
2.70320023E+02
  0
LINE
  8
0
 62
7
 10
-1.74000019E+02
 20
2.91500031E+02
 11
-1.62000004E+02
 21
2.91500031E+02
  0
LINE
  8
0
 62
2
 10
-1.74000019E+02
 20
2.90680023E+02
 11
-1.62000004E+02
 21
2.90680023E+02
  0
LINE
  8
0
 62
4
 10
-1.87000019E+02
 20
2.64500000E+02
 11
-1.74000019E+02
 21
2.64500000E+02
  0
ARC
  8
0
 62
4
 10
-1.63893232E+02
 20
2.72500000E+02
 40
2.31067870E+01
 50
1.59743797E+02
 51
2.00256203E+02
  0
ARC
  8
0
 62
4
 10
-1.97106806E+02
 20
2.72500000E+02
 40
2.31067870E+01
 50
3.39743797E+02
 51
2.02562028E+01
  0
LINE
  8
0
 62
4
 10
-1.85570953E+02
 20
2.80500000E+02
 11
-1.75429085E+02
 21
2.80500000E+02
  0
LINE
  8
0
 62
4
 10
-1.87000019E+02
 20
2.96500000E+02
 11
-1.74000019E+02
 21
2.96500000E+02
  0
LINE
  8
0
 62
4
 10
-1.87000019E+02
 20
2.96500000E+02
 11
-1.87000019E+02
 21
2.64500000E+02
  0
LINE
  8
0
 62
4
 10
-1.74000019E+02
 20
2.96500000E+02
 11
-1.74000019E+02
 21
2.64500000E+02
  0
ARC
  8
0
 62
4
 10
-1.63893232E+02
 20
2.88500000E+02
 40
2.31067870E+01
 50
1.59743797E+02
 51
2.00256203E+02
  0
ARC
  8
0
 62
4
 10
-1.97106806E+02
 20
2.88500000E+02
 40
2.31067870E+01
 50
3.39743797E+02
 51
2.02562028E+01
  0
LINE
  8
0
 62
6
 10
-2.32679606E+01
 20
2.64589924E+02
 11
-2.67320622E+01
 21
2.58589924E+02
  0
LINE
  8
0
 62
4
 10
-1.50000115E+01
 20
2.63089924E+02
 11
-2.41339861E+01
 21
2.63089924E+02
  0
LINE
  8
0
  6
CENTER
 62
6
 10
1.99999885E+01
 20
2.61589924E+02
 11
-2.70000115E+01
 21
2.61589924E+02
  0
LINE
  8
0
 62
4
 10
-1.50000115E+01
 20
2.60089924E+02
 11
-2.58660369E+01
 21
2.60089924E+02
  0
LINE
  8
0
 62
6
 10
-3.57320394E+01
 20
2.96410061E+02
 11
-3.22679378E+01
 21
3.02410061E+02
  0
LINE
  8
0
 62
4
 10
-4.39999885E+01
 20
2.97910061E+02
 11
-3.48660139E+01
 21
2.97910061E+02
  0
LINE
  8
0
  6
CENTER
 62
6
 10
-7.89999885E+01
 20
2.99410061E+02
 11
-3.19999885E+01
 21
2.99410061E+02
  0
LINE
  8
0
 62
4
 10
-4.39999885E+01
 20
3.00910061E+02
 11
-3.31339631E+01
 21
3.00910061E+02
  0
LINE
  8
0
 62
7
 10
-1.50000114E+01
 20
2.36999969E+02
 11
-8.79999886E+01
 21
2.36999969E+02
  0
LINE
  8
0
 62
7
 10
-1.50000114E+01
 20
2.40999985E+02
 11
-8.79999886E+01
 21
2.40999985E+02
  0
LINE
  8
0
 62
7
 10
-1.50000114E+01
 20
2.49999985E+02
 11
-8.79999886E+01
 21
2.49999985E+02
  0
LINE
  8
0
 62
7
 10
-7.39999886E+01
 20
3.11000000E+02
 11
-8.79999886E+01
 21
3.11000000E+02
  0
LINE
  8
0
 62
7
 10
-5.89999886E+01
 20
3.20000000E+02
 11
-8.79999886E+01
 21
3.20000000E+02
  0
LINE
  8
0
 62
7
 10
-5.89999886E+01
 20
3.24000031E+02
 11
-8.79999886E+01
 21
3.24000031E+02
  0
LINE
  8
0
 62
6
 10
-2.00001147E+00
 20
2.33664602E+02
 11
-2.00001147E+00
 21
2.35031930E+02
  0
LINE
  8
0
 62
6
 10
-5.00001147E+00
 20
2.33664602E+02
 11
-5.00001147E+00
 21
2.35031930E+02
  0
LINE
  8
0
 62
4
 10
-1.50001147E+00
 20
2.34160160E+02
 11
-1.50001147E+00
 21
2.35031930E+02
  0
LINE
  8
0
 62
4
 10
-5.50001147E+00
 20
2.34160160E+02
 11
-5.50001147E+00
 21
2.35031930E+02
  0
LINE
  8
0
 62
4
 10
-1.14440918E-05
 20
2.35031930E+02
 11
-1.14440918E-05
 21
2.48876436E+02
  0
LINE
  8
0
 62
4
 10
-1.50000114E+01
 20
2.35031930E+02
 11
-1.50000114E+01
 21
2.64420135E+02
  0
LINE
  8
0
  6
CENTER
 62
6
 10
-1.15000115E+01
 20
2.30234406E+02
 11
-1.15000115E+01
 21
2.40499985E+02
  0
LINE
  8
0
  6
CENTER
 62
6
 10
-3.50001147E+00
 20
2.30234406E+02
 11
-3.50001147E+00
 21
2.40499985E+02
  0
LINE
  8
0
  6
CENTER
 62
6
 10
7.49998856E+00
 20
2.57612159E+02
 11
7.49998856E+00
 21
2.62612159E+02
  0
LINE
  8
0
 62
4
 10
-1.00000114E+01
 20
2.64193504E+02
 11
-1.00000114E+01
 21
2.63549596E+02
  0
LINE
  8
0
 62
4
 10
1.49999886E+01
 20
2.48876436E+02
 11
1.49999886E+01
 21
2.62322338E+02
  0
LINE
  8
0
 62
4
 10
-8.50001144E+00
 20
2.64193504E+02
 11
-8.50001144E+00
 21
2.63918659E+02
  0
LINE
  8
0
 62
4
 10
1.64999886E+01
 20
2.60114264E+02
 11
1.64999886E+01
 21
2.63062820E+02
  0
LINE
  8
0
 62
4
 10
-1.14370514E-05
 20
2.35031930E+02
 11
-1.50000114E+01
 21
2.35031930E+02
  0
LINE
  8
0
 62
4
 10
-1.14370514E-05
 20
2.42386149E+02
 11
-1.50000114E+01
 21
2.42386149E+02
  0
LINE
  8
0
 62
4
 10
1.49999886E+01
 20
2.48876436E+02
 11
-1.50000114E+01
 21
2.48876436E+02
  0
LINE
  8
0
 62
4
 10
1.49999886E+01
 20
2.58426429E+02
 11
-1.50000114E+01
 21
2.58426429E+02
  0
LINE
  8
0
 62
4
 10
1.49999886E+01
 20
2.64420135E+02
 11
3.14873318E+00
 21
2.64420135E+02
  0
POLYLINE
  8
0
 62
4
 66
1
  0
VERTEX
  8
0
 62
4
 10
-5.50001147E+00
 20
2.34160160E+02
  0
VERTEX
  8
0
 62
4
 10
-5.49196006E+00
 20
2.34093001E+02
  0
VERTEX
  8
0
 62
4
 10
-5.46787065E+00
 20
2.34026383E+02
  0
VERTEX
  8
0
 62
4
 10
-5.42793719E+00
 20
2.33960842E+02
  0
VERTEX
  8
0
 62
4
 10
-5.37248121E+00
 20
2.33896905E+02
  0
VERTEX
  8
0
 62
4
 10
-5.30194921E+00
 20
2.33835089E+02
  0
VERTEX
  8
0
 62
4
 10
-5.21690906E+00
 20
2.33775889E+02
  0
VERTEX
  8
0
 62
4
 10
-5.11804546E+00
 20
2.33719784E+02
  0
VERTEX
  8
0
 62
4
 10
-5.00615441E+00
 20
2.33667224E+02
  0
VERTEX
  8
0
 62
4
 10
-4.88213677E+00
 20
2.33618633E+02
  0
VERTEX
  8
0
 62
4
 10
-4.74699108E+00
 20
2.33574402E+02
  0
VERTEX
  8
0
 62
4
 10
-4.60180544E+00
 20
2.33534887E+02
  0
VERTEX
  8
0
 62
4
 10
-4.44774880E+00
 20
2.33500406E+02
  0
VERTEX
  8
0
 62
4
 10
-4.28606154E+00
 20
2.33471238E+02
  0
VERTEX
  8
0
 62
4
 10
-4.11804547E+00
 20
2.33447616E+02
  0
VERTEX
  8
0
 62
4
 10
-3.94505335E+00
 20
2.33429731E+02
  0
VERTEX
  8
0
 62
4
 10
-3.76847801E+00
 20
2.33417727E+02
  0
VERTEX
  8
0
 62
4
 10
-3.58974114E+00
 20
2.33411701E+02
  0
VERTEX
  8
0
 62
4
 10
-3.41028182E+00
 20
2.33411701E+02
  0
VERTEX
  8
0
 62
4
 10
-3.23154495E+00
 20
2.33417727E+02
  0
VERTEX
  8
0
 62
4
 10
-3.05496961E+00
 20
2.33429731E+02
  0
VERTEX
  8
0
 62
4
 10
-2.88197749E+00
 20
2.33447616E+02
  0
VERTEX
  8
0
 62
4
 10
-2.71396142E+00
 20
2.33471238E+02
  0
VERTEX
  8
0
 62
4
 10
-2.55227416E+00
 20
2.33500406E+02
  0
VERTEX
  8
0
 62
4
 10
-2.39821752E+00
 20
2.33534887E+02
  0
VERTEX
  8
0
 62
4
 10
-2.25303188E+00
 20
2.33574402E+02
  0
VERTEX
  8
0
 62
4
 10
-2.11788618E+00
 20
2.33618633E+02
  0
VERTEX
  8
0
 62
4
 10
-1.99386855E+00
 20
2.33667224E+02
  0
VERTEX
  8
0
 62
4
 10
-1.88197749E+00
 20
2.33719784E+02
  0
VERTEX
  8
0
 62
4
 10
-1.78311389E+00
 20
2.33775889E+02
  0
VERTEX
  8
0
 62
4
 10
-1.69807374E+00
 20
2.33835089E+02
  0
VERTEX
  8
0
 62
4
 10
-1.62754173E+00
 20
2.33896905E+02
  0
VERTEX
  8
0
 62
4
 10
-1.57208575E+00
 20
2.33960842E+02
  0
VERTEX
  8
0
 62
4
 10
-1.53215230E+00
 20
2.34026383E+02
  0
VERTEX
  8
0
 62
4
 10
-1.50806288E+00
 20
2.34093001E+02
  0
VERTEX
  8
0
 62
4
 10
-1.50001147E+00
 20
2.34160160E+02
  0
SEQEND
  8
0
  0
LINE
  8
0
 62
6
 10
-1.30000115E+01
 20
2.33664602E+02
 11
-1.30000115E+01
 21
2.35031930E+02
  0
LINE
  8
0
 62
4
 10
-1.35000115E+01
 20
2.34160160E+02
 11
-1.35000115E+01
 21
2.35031930E+02
  0
POLYLINE
  8
0
 62
4
 66
1
  0
VERTEX
  8
0
 62
4
 10
-1.35000115E+01
 20
2.34160160E+02
  0
VERTEX
  8
0
 62
4
 10
-1.34919601E+01
 20
2.34093001E+02
  0
VERTEX
  8
0
 62
4
 10
-1.34678707E+01
 20
2.34026383E+02
  0
VERTEX
  8
0
 62
4
 10
-1.34279372E+01
 20
2.33960842E+02
  0
VERTEX
  8
0
 62
4
 10
-1.33724812E+01
 20
2.33896905E+02
  0
VERTEX
  8
0
 62
4
 10
-1.33019492E+01
 20
2.33835089E+02
  0
VERTEX
  8
0
 62
4
 10
-1.32169091E+01
 20
2.33775889E+02
  0
VERTEX
  8
0
 62
4
 10
-1.31180455E+01
 20
2.33719784E+02
  0
VERTEX
  8
0
 62
4
 10
-1.30061544E+01
 20
2.33667224E+02
  0
VERTEX
  8
0
 62
4
 10
-1.28821368E+01
 20
2.33618633E+02
  0
VERTEX
  8
0
 62
4
 10
-1.27469911E+01
 20
2.33574402E+02
  0
VERTEX
  8
0
 62
4
 10
-1.26018055E+01
 20
2.33534887E+02
  0
VERTEX
  8
0
 62
4
 10
-1.24477488E+01
 20
2.33500406E+02
  0
VERTEX
  8
0
 62
4
 10
-1.22860616E+01
 20
2.33471238E+02
  0
VERTEX
  8
0
 62
4
 10
-1.21180455E+01
 20
2.33447616E+02
  0
VERTEX
  8
0
 62
4
 10
-1.19450534E+01
 20
2.33429731E+02
  0
VERTEX
  8
0
 62
4
 10
-1.17684780E+01
 20
2.33417727E+02
  0
VERTEX
  8
0
 62
4
 10
-1.15897412E+01
 20
2.33411701E+02
  0
VERTEX
  8
0
 62
4
 10
-1.14102819E+01
 20
2.33411701E+02
  0
VERTEX
  8
0
 62
4
 10
-1.12315450E+01
 20
2.33417727E+02
  0
VERTEX
  8
0
 62
4
 10
-1.10549696E+01
 20
2.33429731E+02
  0
VERTEX
  8
0
 62
4
 10
-1.08819775E+01
 20
2.33447616E+02
  0
VERTEX
  8
0
 62
4
 10
-1.07139614E+01
 20
2.33471238E+02
  0
VERTEX
  8
0
 62
4
 10
-1.05522742E+01
 20
2.33500406E+02
  0
VERTEX
  8
0
 62
4
 10
-1.03982175E+01
 20
2.33534887E+02
  0
VERTEX
  8
0
 62
4
 10
-1.02530319E+01
 20
2.33574402E+02
  0
VERTEX
  8
0
 62
4
 10
-1.01178862E+01
 20
2.33618633E+02
  0
VERTEX
  8
0
 62
4
 10
-9.99386858E+00
 20
2.33667224E+02
  0
VERTEX
  8
0
 62
4
 10
-9.88197752E+00
 20
2.33719784E+02
  0
VERTEX
  8
0
 62
4
 10
-9.78311392E+00
 20
2.33775889E+02
  0
VERTEX
  8
0
 62
4
 10
-9.69807377E+00
 20
2.33835089E+02
  0
VERTEX
  8
0
 62
4
 10
-9.62754176E+00
 20
2.33896905E+02
  0
VERTEX
  8
0
 62
4
 10
-9.57208578E+00
 20
2.33960842E+02
  0
VERTEX
  8
0
 62
4
 10
-9.53215233E+00
 20
2.34026383E+02
  0
VERTEX
  8
0
 62
4
 10
-9.50806291E+00
 20
2.34093001E+02
  0
VERTEX
  8
0
 62
4
 10
-9.50001150E+00
 20
2.34160160E+02
  0
SEQEND
  8
0
  0
LINE
  8
0
 62
6
 10
-1.00000115E+01
 20
2.33664602E+02
 11
-1.00000115E+01
 21
2.35031930E+02
  0
LINE
  8
0
 62
4
 10
-9.50001147E+00
 20
2.34160160E+02
 11
-9.50001147E+00
 21
2.35031930E+02
  0
LINE
  8
0
 62
4
 10
-4.15001144E+00
 20
2.62829325E+02
 11
-4.15001144E+00
 21
2.63407456E+02
  0
LINE
  8
0
 62
4
 10
4.14998856E+00
 20
2.61775612E+02
 11
4.14998856E+00
 21
2.63407456E+02
  0
POLYLINE
  8
0
 62
4
 66
1
  0
VERTEX
  8
0
 62
4
 10
-3.70102953E+00
 20
2.61072292E+02
  0
VERTEX
  8
0
 62
4
 10
-3.51934915E+00
 20
2.60951753E+02
  0
VERTEX
  8
0
 62
4
 10
-3.30976606E+00
 20
2.60837746E+02
  0
VERTEX
  8
0
 62
4
 10
-3.07394191E+00
 20
2.60731175E+02
  0
VERTEX
  8
0
 62
4
 10
-2.81374640E+00
 20
2.60632884E+02
  0
VERTEX
  8
0
 62
4
 10
-2.53124248E+00
 20
2.60543653E+02
  0
VERTEX
  8
0
 62
4
 10
-2.22866995E+00
 20
2.60464190E+02
  0
VERTEX
  8
0
 62
4
 10
-1.90842772E+00
 20
2.60395125E+02
  0
VERTEX
  8
0
 62
4
 10
-1.57305480E+00
 20
2.60337004E+02
  0
VERTEX
  8
0
 62
4
 10
-1.22521016E+00
 20
2.60290289E+02
  0
VERTEX
  8
0
 62
4
 10
-8.67651664E-01
 20
2.60255351E+02
  0
VERTEX
  8
0
 62
4
 10
-5.03214164E-01
 20
2.60232465E+02
  0
VERTEX
  8
0
 62
4
 10
-1.34787072E-01
 20
2.60221815E+02
  0
VERTEX
  8
0
 62
4
 10
2.34708575E-01
 20
2.60223483E+02
  0
VERTEX
  8
0
 62
4
 10
6.02343268E-01
 20
2.60237458E+02
  0
VERTEX
  8
0
 62
4
 10
9.65202252E-01
 20
2.60263627E+02
  0
VERTEX
  8
0
 62
4
 10
1.32040864E+00
 20
2.60301784E+02
  0
VERTEX
  8
0
 62
4
 10
1.66514620E+00
 20
2.60351626E+02
  0
VERTEX
  8
0
 62
4
 10
1.99668173E+00
 20
2.60412759E+02
  0
VERTEX
  8
0
 62
4
 10
2.31238667E+00
 20
2.60484696E+02
  0
VERTEX
  8
0
 62
4
 10
2.60975800E+00
 20
2.60566868E+02
  0
VERTEX
  8
0
 62
4
 10
2.88643804E+00
 20
2.60658624E+02
  0
VERTEX
  8
0
 62
4
 10
3.14023314E+00
 20
2.60759236E+02
  0
VERTEX
  8
0
 62
4
 10
3.36913113E+00
 20
2.60867905E+02
  0
VERTEX
  8
0
 62
4
 10
3.57131721E+00
 20
2.60983772E+02
  0
VERTEX
  8
0
 62
4
 10
3.74518837E+00
 20
2.61105917E+02
  0
VERTEX
  8
0
 62
4
 10
3.88936608E+00
 20
2.61233371E+02
  0
VERTEX
  8
0
 62
4
 10
4.00270725E+00
 20
2.61365124E+02
  0
VERTEX
  8
0
 62
4
 10
4.08431327E+00
 20
2.61500132E+02
  0
VERTEX
  8
0
 62
4
 10
4.13353713E+00
 20
2.61637324E+02
  0
VERTEX
  8
0
 62
4
 10
4.14998856E+00
 20
2.61775612E+02
  0
SEQEND
  8
0
  0
POLYLINE
  8
0
 62
4
 66
1
  0
VERTEX
  8
0
 62
4
 10
4.14998856E+00
 20
2.63407456E+02
  0
VERTEX
  8
0
 62
4
 10
4.13419655E+00
 20
2.63542950E+02
  0
VERTEX
  8
0
 62
4
 10
4.08694073E+00
 20
2.63677412E+02
  0
VERTEX
  8
0
 62
4
 10
4.00858073E+00
 20
2.63809821E+02
  0
VERTEX
  8
0
 62
4
 10
3.89971293E+00
 20
2.63939166E+02
  0
VERTEX
  8
0
 62
4
 10
3.76116587E+00
 20
2.64064466E+02
  0
VERTEX
  8
0
 62
4
 10
3.59399398E+00
 20
2.64184765E+02
  0
VERTEX
  8
0
 62
4
 10
3.39946954E+00
 20
2.64299148E+02
  0
VERTEX
  8
0
 62
4
 10
3.17907299E+00
 20
2.64406745E+02
  0
VERTEX
  8
0
 62
4
 10
2.93448170E+00
 20
2.64506736E+02
  0
VERTEX
  8
0
 62
4
 10
2.66755713E+00
 20
2.64598362E+02
  0
VERTEX
  8
0
 62
4
 10
2.38033077E+00
 20
2.64680924E+02
  0
VERTEX
  8
0
 62
4
 10
2.07498855E+00
 20
2.64753794E+02
  0
VERTEX
  8
0
 62
4
 10
1.75385434E+00
 20
2.64816418E+02
  0
VERTEX
  8
0
 62
4
 10
1.41937215E+00
 20
2.64868318E+02
  0
VERTEX
  8
0
 62
4
 10
1.07408759E+00
 20
2.64909101E+02
  0
VERTEX
  8
0
 62
4
 10
7.20628491E-01
 20
2.64938455E+02
  0
VERTEX
  8
0
 62
4
 10
3.61684886E-01
 20
2.64956158E+02
  0
VERTEX
  8
0
 62
4
 10
-1.14470180E-05
 20
2.64962073E+02
  0
VERTEX
  8
0
 62
4
 10
-3.61707780E-01
 20
2.64956158E+02
  0
VERTEX
  8
0
 62
4
 10
-7.20651385E-01
 20
2.64938455E+02
  0
VERTEX
  8
0
 62
4
 10
-1.07411048E+00
 20
2.64909101E+02
  0
VERTEX
  8
0
 62
4
 10
-1.41939504E+00
 20
2.64868318E+02
  0
VERTEX
  8
0
 62
4
 10
-1.75387723E+00
 20
2.64816418E+02
  0
VERTEX
  8
0
 62
4
 10
-2.07501145E+00
 20
2.64753794E+02
  0
VERTEX
  8
0
 62
4
 10
-2.38035366E+00
 20
2.64680924E+02
  0
VERTEX
  8
0
 62
4
 10
-2.66758003E+00
 20
2.64598362E+02
  0
VERTEX
  8
0
 62
4
 10
-2.93450459E+00
 20
2.64506736E+02
  0
VERTEX
  8
0
 62
4
 10
-3.17909589E+00
 20
2.64406745E+02
  0
VERTEX
  8
0
 62
4
 10
-3.39949243E+00
 20
2.64299148E+02
  0
VERTEX
  8
0
 62
4
 10
-3.59401687E+00
 20
2.64184765E+02
  0
VERTEX
  8
0
 62
4
 10
-3.76118876E+00
 20
2.64064466E+02
  0
VERTEX
  8
0
 62
4
 10
-3.89973582E+00
 20
2.63939166E+02
  0
VERTEX
  8
0
 62
4
 10
-4.00860362E+00
 20
2.63809821E+02
  0
VERTEX
  8
0
 62
4
 10
-4.08696362E+00
 20
2.63677412E+02
  0
VERTEX
  8
0
 62
4
 10
-4.13421944E+00
 20
2.63542950E+02
  0
VERTEX
  8
0
 62
4
 10
-4.15001144E+00
 20
2.63407456E+02
  0
VERTEX
  8
0
 62
4
 10
-4.13421944E+00
 20
2.63271962E+02
  0
VERTEX
  8
0
 62
4
 10
-4.08696362E+00
 20
2.63137500E+02
  0
VERTEX
  8
0
 62
4
 10
-4.00860362E+00
 20
2.63005091E+02
  0
VERTEX
  8
0
 62
4
 10
-3.89973582E+00
 20
2.62875746E+02
  0
VERTEX
  8
0
 62
4
 10
-3.76118876E+00
 20
2.62750446E+02
  0
VERTEX
  8
0
 62
4
 10
-3.59401687E+00
 20
2.62630147E+02
  0
VERTEX
  8
0
 62
4
 10
-3.39949242E+00
 20
2.62515764E+02
  0
VERTEX
  8
0
 62
4
 10
-3.17909588E+00
 20
2.62408167E+02
  0
VERTEX
  8
0
 62
4
 10
-2.93450458E+00
 20
2.62308176E+02
  0
VERTEX
  8
0
 62
4
 10
-2.66758002E+00
 20
2.62216550E+02
  0
VERTEX
  8
0
 62
4
 10
-2.38035365E+00
 20
2.62133988E+02
  0
VERTEX
  8
0
 62
4
 10
-2.07501144E+00
 20
2.62061118E+02
  0
VERTEX
  8
0
 62
4
 10
-1.75387722E+00
 20
2.61998494E+02
  0
VERTEX
  8
0
 62
4
 10
-1.41939503E+00
 20
2.61946594E+02
  0
VERTEX
  8
0
 62
4
 10
-1.07411047E+00
 20
2.61905811E+02
  0
VERTEX
  8
0
 62
4
 10
-7.20651373E-01
 20
2.61876457E+02
  0
VERTEX
  8
0
 62
4
 10
-3.61707768E-01
 20
2.61858754E+02
  0
VERTEX
  8
0
 62
4
 10
-1.14353133E-05
 20
2.61852839E+02
  0
VERTEX
  8
0
 62
4
 10
3.61684897E-01
 20
2.61858754E+02
  0
VERTEX
  8
0
 62
4
 10
7.20628502E-01
 20
2.61876457E+02
  0
VERTEX
  8
0
 62
4
 10
1.07408760E+00
 20
2.61905811E+02
  0
VERTEX
  8
0
 62
4
 10
1.41937216E+00
 20
2.61946594E+02
  0
VERTEX
  8
0
 62
4
 10
1.75385435E+00
 20
2.61998494E+02
  0
VERTEX
  8
0
 62
4
 10
2.07498856E+00
 20
2.62061118E+02
  0
VERTEX
  8
0
 62
4
 10
2.38033077E+00
 20
2.62133988E+02
  0
VERTEX
  8
0
 62
4
 10
2.66755714E+00
 20
2.62216550E+02
  0
VERTEX
  8
0
 62
4
 10
2.93448171E+00
 20
2.62308176E+02
  0
VERTEX
  8
0
 62
4
 10
3.17907300E+00
 20
2.62408167E+02
  0
VERTEX
  8
0
 62
4
 10
3.39946955E+00
 20
2.62515764E+02
  0
VERTEX
  8
0
 62
4
 10
3.59399399E+00
 20
2.62630147E+02
  0
VERTEX
  8
0
 62
4
 10
3.76116588E+00
 20
2.62750446E+02
  0
VERTEX
  8
0
 62
4
 10
3.89971294E+00
 20
2.62875746E+02
  0
VERTEX
  8
0
 62
4
 10
4.00858074E+00
 20
2.63005091E+02
  0
VERTEX
  8
0
 62
4
 10
4.08694073E+00
 20
2.63137500E+02
  0
VERTEX
  8
0
 62
4
 10
4.13419655E+00
 20
2.63271962E+02
  0
VERTEX
  8
0
 62
4
 10
4.14998856E+00
 20
2.63407456E+02
  0
SEQEND
  8
0
  0
ARC
  8
0
 62
4
 10
5.61669576E+00
 20
2.48987314E+02
 40
1.61228529E+01
 50
1.03811346E+02
 51
1.17258955E+02
  0
ARC
  8
0
 62
4
 10
-5.61672130E+00
 20
2.48987307E+02
 40
1.61228609E+01
 50
6.27410478E+01
 51
7.61886514E+01
  0
POLYLINE
  8
0
 62
4
 66
1
  0
VERTEX
  8
0
 62
4
 10
-3.70001144E+00
 20
2.60853929E+02
  0
VERTEX
  8
0
 62
4
 10
-3.55336888E+00
 20
2.60735223E+02
  0
VERTEX
  8
0
 62
4
 10
-3.37965017E+00
 20
2.60621760E+02
  0
VERTEX
  8
0
 62
4
 10
-3.18017902E+00
 20
2.60514405E+02
  0
VERTEX
  8
0
 62
4
 10
-2.95647540E+00
 20
2.60413975E+02
  0
VERTEX
  8
0
 62
4
 10
-2.71024387E+00
 20
2.60321235E+02
  0
VERTEX
  8
0
 62
4
 10
-2.44336071E+00
 20
2.60236894E+02
  0
VERTEX
  8
0
 62
4
 10
-2.15785953E+00
 20
2.60161592E+02
  0
VERTEX
  8
0
 62
4
 10
-1.85591581E+00
 20
2.60095904E+02
  0
VERTEX
  8
0
 62
4
 10
-1.53983032E+00
 20
2.60040331E+02
  0
VERTEX
  8
0
 62
4
 10
-1.21201161E+00
 20
2.59995296E+02
  0
VERTEX
  8
0
 62
4
 10
-8.74957598E-01
 20
2.59961142E+02
  0
VERTEX
  8
0
 62
4
 10
-5.31236607E-01
 20
2.59938129E+02
  0
VERTEX
  8
0
 62
4
 10
-1.83467745E-01
 20
2.59926432E+02
  0
VERTEX
  8
0
 62
4
 10
1.65699031E-01
 20
2.59926142E+02
  0
VERTEX
  8
0
 62
4
 10
5.13603114E-01
 20
2.59937260E+02
  0
VERTEX
  8
0
 62
4
 10
8.57593517E-01
 20
2.59959701E+02
  0
VERTEX
  8
0
 62
4
 10
1.19504907E+00
 20
2.59993294E+02
  0
VERTEX
  8
0
 62
4
 10
1.52339842E+00
 20
2.60037783E+02
  0
VERTEX
  8
0
 62
4
 10
1.84013957E+00
 20
2.60092830E+02
  0
VERTEX
  8
0
 62
4
 10
2.14285899E+00
 20
2.60158015E+02
  0
VERTEX
  8
0
 62
4
 10
2.42925000E+00
 20
2.60232841E+02
  0
VERTEX
  8
0
 62
4
 10
2.69713034E+00
 20
2.60316738E+02
  0
VERTEX
  8
0
 62
4
 10
2.94445878E+00
 20
2.60409067E+02
  0
VERTEX
  8
0
 62
4
 10
3.16935073E+00
 20
2.60509123E+02
  0
VERTEX
  8
0
 62
4
 10
3.37009252E+00
 20
2.60616146E+02
  0
VERTEX
  8
0
 62
4
 10
3.54515454E+00
 20
2.60729319E+02
  0
VERTEX
  8
0
 62
4
 10
3.69320282E+00
 20
2.60847780E+02
  0
VERTEX
  8
0
 62
4
 10
3.81310927E+00
 20
2.60970626E+02
  0
VERTEX
  8
0
 62
4
 10
3.90396020E+00
 20
2.61096921E+02
  0
VERTEX
  8
0
 62
4
 10
3.96506335E+00
 20
2.61225703E+02
  0
VERTEX
  8
0
 62
4
 10
3.99595311E+00
 20
2.61355991E+02
  0
SEQEND
  8
0
  0
LINE
  8
0
 62
4
 10
-4.10001144E+00
 20
2.61039343E+02
 11
-4.10001144E+00
 21
2.62517074E+02
  0
POLYLINE
  8
0
 62
4
 66
1
  0
VERTEX
  8
0
 62
4
 10
-1.09000114E+01
 20
2.61039343E+02
  0
VERTEX
  8
0
 62
4
 10
-1.08863240E+01
 20
2.60925173E+02
  0
VERTEX
  8
0
 62
4
 10
-1.08453720E+01
 20
2.60811922E+02
  0
VERTEX
  8
0
 62
4
 10
-1.07774852E+01
 20
2.60700502E+02
  0
VERTEX
  8
0
 62
4
 10
-1.06832100E+01
 20
2.60591810E+02
  0
VERTEX
  8
0
 62
4
 10
-1.05633056E+01
 20
2.60486722E+02
  0
VERTEX
  8
0
 62
4
 10
-1.04187373E+01
 20
2.60386082E+02
  0
VERTEX
  8
0
 62
4
 10
-1.02506692E+01
 20
2.60290703E+02
  0
VERTEX
  8
0
 62
4
 10
-1.00604544E+01
 20
2.60201351E+02
  0
VERTEX
  8
0
 62
4
 10
-9.84962446E+00
 20
2.60118746E+02
  0
VERTEX
  8
0
 62
4
 10
-9.61987678E+00
 20
2.60043554E+02
  0
VERTEX
  8
0
 62
4
 10
-9.37306119E+00
 20
2.59976378E+02
  0
VERTEX
  8
0
 62
4
 10
-9.11116491E+00
 20
2.59917762E+02
  0
VERTEX
  8
0
 62
4
 10
-8.83629656E+00
 20
2.59868175E+02
  0
VERTEX
  8
0
 62
4
 10
-8.55066924E+00
 20
2.59828018E+02
  0
VERTEX
  8
0
 62
4
 10
-8.25658263E+00
 20
2.59797614E+02
  0
VERTEX
  8
0
 62
4
 10
-7.95640456E+00
 20
2.59777208E+02
  0
VERTEX
  8
0
 62
4
 10
-7.65255188E+00
 20
2.59766963E+02
  0
VERTEX
  8
0
 62
4
 10
-7.34747104E+00
 20
2.59766963E+02
  0
VERTEX
  8
0
 62
4
 10
-7.04361835E+00
 20
2.59777208E+02
  0
VERTEX
  8
0
 62
4
 10
-6.74344028E+00
 20
2.59797614E+02
  0
VERTEX
  8
0
 62
4
 10
-6.44935368E+00
 20
2.59828018E+02
  0
VERTEX
  8
0
 62
4
 10
-6.16372635E+00
 20
2.59868175E+02
  0
VERTEX
  8
0
 62
4
 10
-5.88885801E+00
 20
2.59917762E+02
  0
VERTEX
  8
0
 62
4
 10
-5.62696172E+00
 20
2.59976378E+02
  0
VERTEX
  8
0
 62
4
 10
-5.38014613E+00
 20
2.60043554E+02
  0
VERTEX
  8
0
 62
4
 10
-5.15039845E+00
 20
2.60118746E+02
  0
VERTEX
  8
0
 62
4
 10
-4.93956847E+00
 20
2.60201351E+02
  0
VERTEX
  8
0
 62
4
 10
-4.74935367E+00
 20
2.60290703E+02
  0
VERTEX
  8
0
 62
4
 10
-4.58128555E+00
 20
2.60386082E+02
  0
VERTEX
  8
0
 62
4
 10
-4.43671730E+00
 20
2.60486722E+02
  0
VERTEX
  8
0
 62
4
 10
-4.31681289E+00
 20
2.60591810E+02
  0
VERTEX
  8
0
 62
4
 10
-4.22253772E+00
 20
2.60700502E+02
  0
VERTEX
  8
0
 62
4
 10
-4.15465084E+00
 20
2.60811922E+02
  0
VERTEX
  8
0
 62
4
 10
-4.11369884E+00
 20
2.60925173E+02
  0
VERTEX
  8
0
 62
4
 10
-4.10001144E+00
 20
2.61039343E+02
  0
SEQEND
  8
0
  0
POLYLINE
  8
0
 62
4
 66
1
  0
VERTEX
  8
0
 62
4
 10
-1.09000114E+01
 20
2.62087061E+02
  0
VERTEX
  8
0
 62
4
 10
-1.08863240E+01
 20
2.61972891E+02
  0
VERTEX
  8
0
 62
4
 10
-1.08453720E+01
 20
2.61859640E+02
  0
VERTEX
  8
0
 62
4
 10
-1.07774852E+01
 20
2.61748220E+02
  0
VERTEX
  8
0
 62
4
 10
-1.06832100E+01
 20
2.61639528E+02
  0
VERTEX
  8
0
 62
4
 10
-1.05633056E+01
 20
2.61534440E+02
  0
VERTEX
  8
0
 62
4
 10
-1.04187373E+01
 20
2.61433800E+02
  0
VERTEX
  8
0
 62
4
 10
-1.02506692E+01
 20
2.61338421E+02
  0
VERTEX
  8
0
 62
4
 10
-1.00604544E+01
 20
2.61249069E+02
  0
VERTEX
  8
0
 62
4
 10
-9.84962446E+00
 20
2.61166464E+02
  0
VERTEX
  8
0
 62
4
 10
-9.61987678E+00
 20
2.61091272E+02
  0
VERTEX
  8
0
 62
4
 10
-9.37306119E+00
 20
2.61024096E+02
  0
VERTEX
  8
0
 62
4
 10
-9.11116491E+00
 20
2.60965480E+02
  0
VERTEX
  8
0
 62
4
 10
-8.83629656E+00
 20
2.60915893E+02
  0
VERTEX
  8
0
 62
4
 10
-8.55066924E+00
 20
2.60875736E+02
  0
VERTEX
  8
0
 62
4
 10
-8.25658263E+00
 20
2.60845332E+02
  0
VERTEX
  8
0
 62
4
 10
-7.95640456E+00
 20
2.60824926E+02
  0
VERTEX
  8
0
 62
4
 10
-7.65255188E+00
 20
2.60814681E+02
  0
VERTEX
  8
0
 62
4
 10
-7.34747104E+00
 20
2.60814681E+02
  0
VERTEX
  8
0
 62
4
 10
-7.04361835E+00
 20
2.60824926E+02
  0
VERTEX
  8
0
 62
4
 10
-6.74344028E+00
 20
2.60845332E+02
  0
VERTEX
  8
0
 62
4
 10
-6.44935368E+00
 20
2.60875736E+02
  0
VERTEX
  8
0
 62
4
 10
-6.16372635E+00
 20
2.60915893E+02
  0
VERTEX
  8
0
 62
4
 10
-5.88885801E+00
 20
2.60965480E+02
  0
VERTEX
  8
0
 62
4
 10
-5.62696172E+00
 20
2.61024096E+02
  0
VERTEX
  8
0
 62
4
 10
-5.38014613E+00
 20
2.61091272E+02
  0
VERTEX
  8
0
 62
4
 10
-5.15039845E+00
 20
2.61166464E+02
  0
VERTEX
  8
0
 62
4
 10
-4.93956847E+00
 20
2.61249069E+02
  0
VERTEX
  8
0
 62
4
 10
-4.74935367E+00
 20
2.61338421E+02
  0
VERTEX
  8
0
 62
4
 10
-4.58128555E+00
 20
2.61433800E+02
  0
VERTEX
  8
0
 62
4
 10
-4.43671730E+00
 20
2.61534440E+02
  0
VERTEX
  8
0
 62
4
 10
-4.31681289E+00
 20
2.61639528E+02
  0
VERTEX
  8
0
 62
4
 10
-4.22253772E+00
 20
2.61748220E+02
  0
VERTEX
  8
0
 62
4
 10
-4.15465084E+00
 20
2.61859640E+02
  0
VERTEX
  8
0
 62
4
 10
-4.11369884E+00
 20
2.61972891E+02
  0
VERTEX
  8
0
 62
4
 10
-4.10001144E+00
 20
2.62087061E+02
  0
SEQEND
  8
0
  0
LINE
  8
0
 62
4
 10
-1.09000114E+01
 20
2.62517074E+02
 11
-1.09000114E+01
 21
2.61039343E+02
  0
ARC
  8
0
 62
4
 10
-9.90001177E+00
 20
2.62517074E+02
 40
1.00000000E+00
 50
1.02827510E+02
 51
1.80000000E+02
  0
ARC
  8
0
 62
4
 10
-5.10001112E+00
 20
2.62517074E+02
 40
1.00000000E+00
 50
3.60000000E+02
 51
7.71724899E+01
  0
ARC
  8
0
 62
4
 10
-2.11262664E+00
 20
2.48760319E+02
 40
1.54729912E+01
 50
1.03783165E+02
 51
1.17543924E+02
  0
ARC
  8
0
 62
4
 10
-1.28873967E+01
 20
2.48760318E+02
 40
1.54729926E+01
 50
6.24560769E+01
 51
7.62168346E+01
  0
LINE
  8
0
 62
4
 10
-1.13000114E+01
 20
2.60112159E+02
 11
-1.13000114E+01
 21
2.61039343E+02
  0
LINE
  8
0
 62
4
 10
-3.70001144E+00
 20
2.60112159E+02
 11
-3.70001144E+00
 21
2.61039343E+02
  0
POLYLINE
  8
0
 62
4
 66
1
  0
VERTEX
  8
0
 62
4
 10
-1.13000114E+01
 20
2.60112159E+02
  0
VERTEX
  8
0
 62
4
 10
-1.12847138E+01
 20
2.59984557E+02
  0
VERTEX
  8
0
 62
4
 10
-1.12389439E+01
 20
2.59857982E+02
  0
VERTEX
  8
0
 62
4
 10
-1.11630703E+01
 20
2.59733454E+02
  0
VERTEX
  8
0
 62
4
 10
-1.10577040E+01
 20
2.59611975E+02
  0
VERTEX
  8
0
 62
4
 10
-1.09236931E+01
 20
2.59494523E+02
  0
VERTEX
  8
0
 62
4
 10
-1.07621169E+01
 20
2.59382044E+02
  0
VERTEX
  8
0
 62
4
 10
-1.05742760E+01
 20
2.59275444E+02
  0
VERTEX
  8
0
 62
4
 10
-1.03616830E+01
 20
2.59175580E+02
  0
VERTEX
  8
0
 62
4
 10
-1.01260495E+01
 20
2.59083257E+02
  0
VERTEX
  8
0
 62
4
 10
-9.86927270E+00
 20
2.58999218E+02
  0
VERTEX
  8
0
 62
4
 10
-9.59341998E+00
 20
2.58924140E+02
  0
VERTEX
  8
0
 62
4
 10
-9.30071237E+00
 20
2.58858627E+02
  0
VERTEX
  8
0
 62
4
 10
-8.99350658E+00
 20
2.58803207E+02
  0
VERTEX
  8
0
 62
4
 10
-8.67427604E+00
 20
2.58758325E+02
  0
VERTEX
  8
0
 62
4
 10
-8.34559101E+00
 20
2.58724344E+02
  0
VERTEX
  8
0
 62
4
 10
-8.01009787E+00
 20
2.58701537E+02
  0
VERTEX
  8
0
 62
4
 10
-7.67049782E+00
 20
2.58690087E+02
  0
VERTEX
  8
0
 62
4
 10
-7.32952511E+00
 20
2.58690087E+02
  0
VERTEX
  8
0
 62
4
 10
-6.98992505E+00
 20
2.58701537E+02
  0
VERTEX
  8
0
 62
4
 10
-6.65443191E+00
 20
2.58724344E+02
  0
VERTEX
  8
0
 62
4
 10
-6.32574688E+00
 20
2.58758325E+02
  0
VERTEX
  8
0
 62
4
 10
-6.00651634E+00
 20
2.58803207E+02
  0
VERTEX
  8
0
 62
4
 10
-5.69931054E+00
 20
2.58858627E+02
  0
VERTEX
  8
0
 62
4
 10
-5.40660293E+00
 20
2.58924140E+02
  0
VERTEX
  8
0
 62
4
 10
-5.13075021E+00
 20
2.58999218E+02
  0
VERTEX
  8
0
 62
4
 10
-4.87397339E+00
 20
2.59083257E+02
  0
VERTEX
  8
0
 62
4
 10
-4.63833989E+00
 20
2.59175580E+02
  0
VERTEX
  8
0
 62
4
 10
-4.42574688E+00
 20
2.59275444E+02
  0
VERTEX
  8
0
 62
4
 10
-4.23790604E+00
 20
2.59382044E+02
  0
VERTEX
  8
0
 62
4
 10
-4.07632975E+00
 20
2.59494523E+02
  0
VERTEX
  8
0
 62
4
 10
-3.94231894E+00
 20
2.59611975E+02
  0
VERTEX
  8
0
 62
4
 10
-3.83695258E+00
 20
2.59733454E+02
  0
VERTEX
  8
0
 62
4
 10
-3.76107901E+00
 20
2.59857982E+02
  0
VERTEX
  8
0
 62
4
 10
-3.71530913E+00
 20
2.59984557E+02
  0
VERTEX
  8
0
 62
4
 10
-3.70001144E+00
 20
2.60112159E+02
  0
SEQEND
  8
0
  0
POLYLINE
  8
0
 62
4
 66
1
  0
VERTEX
  8
0
 62
4
 10
-1.09000114E+01
 20
2.61675071E+02
  0
VERTEX
  8
0
 62
4
 10
-1.10365931E+01
 20
2.61560112E+02
  0
VERTEX
  8
0
 62
4
 10
-1.11455410E+01
 20
2.61441084E+02
  0
VERTEX
  8
0
 62
4
 10
-1.12260038E+01
 20
2.61318916E+02
  0
VERTEX
  8
0
 62
4
 10
-1.12773527E+01
 20
2.61194564E+02
  0
VERTEX
  8
0
 62
4
 10
-1.12991867E+01
 20
2.61068999E+02
  0
VERTEX
  8
0
 62
4
 10
-1.12913350E+01
 20
2.60943203E+02
  0
VERTEX
  8
0
 62
4
 10
-1.12538591E+01
 20
2.60818158E+02
  0
VERTEX
  8
0
 62
4
 10
-1.11870517E+01
 20
2.60694840E+02
  0
VERTEX
  8
0
 62
4
 10
-1.10914348E+01
 20
2.60574215E+02
  0
VERTEX
  8
0
 62
4
 10
-1.09677557E+01
 20
2.60457224E+02
  0
VERTEX
  8
0
 62
4
 10
-1.08169806E+01
 20
2.60344782E+02
  0
VERTEX
  8
0
 62
4
 10
-1.06402877E+01
 20
2.60237767E+02
  0
VERTEX
  8
0
 62
4
 10
-1.04390576E+01
 20
2.60137015E+02
  0
VERTEX
  8
0
 62
4
 10
-1.02148627E+01
 20
2.60043313E+02
  0
VERTEX
  8
0
 62
4
 10
-9.96945472E+00
 20
2.59957394E+02
  0
VERTEX
  8
0
 62
4
 10
-9.70475126E+00
 20
2.59879930E+02
  0
VERTEX
  8
0
 62
4
 10
-9.42282062E+00
 20
2.59811524E+02
  0
VERTEX
  8
0
 62
4
 10
-9.12586572E+00
 20
2.59752713E+02
  0
VERTEX
  8
0
 62
4
 10
-8.81620688E+00
 20
2.59703954E+02
  0
VERTEX
  8
0
 62
4
 10
-8.49626367E+00
 20
2.59665630E+02
  0
VERTEX
  8
0
 62
4
 10
-8.16853605E+00
 20
2.59638040E+02
  0
VERTEX
  8
0
 62
4
 10
-7.83558477E+00
 20
2.59621399E+02
  0
VERTEX
  8
0
 62
4
 10
-7.50001142E+00
 20
2.59615838E+02
  0
VERTEX
  8
0
 62
4
 10
-7.16443807E+00
 20
2.59621399E+02
  0
VERTEX
  8
0
 62
4
 10
-6.83148680E+00
 20
2.59638040E+02
  0
VERTEX
  8
0
 62
4
 10
-6.50375917E+00
 20
2.59665630E+02
  0
VERTEX
  8
0
 62
4
 10
-6.18381597E+00
 20
2.59703954E+02
  0
VERTEX
  8
0
 62
4
 10
-5.87415713E+00
 20
2.59752713E+02
  0
VERTEX
  8
0
 62
4
 10
-5.57720223E+00
 20
2.59811524E+02
  0
VERTEX
  8
0
 62
4
 10
-5.29527159E+00
 20
2.59879930E+02
  0
VERTEX
  8
0
 62
4
 10
-5.03056813E+00
 20
2.59957394E+02
  0
VERTEX
  8
0
 62
4
 10
-4.78516017E+00
 20
2.60043313E+02
  0
VERTEX
  8
0
 62
4
 10
-4.56096526E+00
 20
2.60137015E+02
  0
VERTEX
  8
0
 62
4
 10
-4.35973518E+00
 20
2.60237767E+02
  0
VERTEX
  8
0
 62
4
 10
-4.18304228E+00
 20
2.60344782E+02
  0
VERTEX
  8
0
 62
4
 10
-4.03226720E+00
 20
2.60457224E+02
  0
VERTEX
  8
0
 62
4
 10
-3.90858805E+00
 20
2.60574215E+02
  0
VERTEX
  8
0
 62
4
 10
-3.81297121E+00
 20
2.60694840E+02
  0
VERTEX
  8
0
 62
4
 10
-3.74616381E+00
 20
2.60818158E+02
  0
VERTEX
  8
0
 62
4
 10
-3.70868786E+00
 20
2.60943203E+02
  0
VERTEX
  8
0
 62
4
 10
-3.70083619E+00
 20
2.61068999E+02
  0
VERTEX
  8
0
 62
4
 10
-3.72267015E+00
 20
2.61194564E+02
  0
VERTEX
  8
0
 62
4
 10
-3.77401913E+00
 20
2.61318916E+02
  0
VERTEX
  8
0
 62
4
 10
-3.85448191E+00
 20
2.61441084E+02
  0
VERTEX
  8
0
 62
4
 10
-3.96342978E+00
 20
2.61560112E+02
  0
VERTEX
  8
0
 62
4
 10
-4.10001145E+00
 20
2.61675071E+02
  0
SEQEND
  8
0
  0
ARC
  8
0
 62
4
 10
-7.50001144E+00
 20
2.56621523E+02
 40
7.36533796E+00
 50
6.78494174E+01
 51
1.12150583E+02
  0
LINE
  8
0
  6
CENTER
 62
6
 10
9.99998856E+00
 20
2.60112159E+02
 11
4.99998856E+00
 21
2.60112159E+02
  0
LINE
  8
0
  6
CENTER
 62
6
 10
-1.14440918E-05
 20
2.58923282E+02
 11
-1.14440918E-05
 21
2.63923282E+02
  0
LINE
  8
0
  6
CENTER
 62
6
 10
2.49998856E+00
 20
2.61423282E+02
 11
-2.50001144E+00
 21
2.61423282E+02
  0
LINE
  8
0
  6
CENTER
 62
6
 10
-7.50001144E+00
 20
2.57612159E+02
 11
-7.50001144E+00
 21
2.62612159E+02
  0
LINE
  8
0
  6
CENTER
 62
6
 10
-5.00001144E+00
 20
2.60112159E+02
 11
-1.00000114E+01
 21
2.60112159E+02
  0
LINE
  8
0
 62
4
 10
-3.14875607E+00
 20
2.64420135E+02
 11
-1.50000114E+01
 21
2.64420135E+02
  0
LINE
  8
0
 62
4
 10
1.49999886E+01
 20
2.58986343E+02
 11
1.64999886E+01
 21
2.60114264E+02
  0
LINE
  8
0
 62
4
 10
1.64999886E+01
 20
2.62214336E+02
 11
1.49999886E+01
 21
2.62695078E+02
  0
LINE
  8
0
 62
4
 10
1.64999886E+01
 20
2.63062820E+02
 11
1.49999886E+01
 21
2.64193504E+02
  0
LINE
  8
0
 62
4
 10
1.49999886E+01
 20
2.62695078E+02
 11
4.14998856E+00
 21
2.62695078E+02
  0
LINE
  8
0
 62
4
 10
1.49999886E+01
 20
2.64193504E+02
 11
3.58042217E+00
 21
2.64193504E+02
  0
LINE
  8
0
 62
4
 10
1.49999886E+01
 20
2.62322338E+02
 11
4.14998856E+00
 21
2.62322338E+02
  0
LINE
  8
0
 62
4
 10
-1.00000114E+01
 20
2.64045528E+02
 11
-1.50000114E+01
 21
2.64045528E+02
  0
LINE
  8
0
 62
4
 10
-1.09000114E+01
 20
2.62322338E+02
 11
-1.50000114E+01
 21
2.62322338E+02
  0
LINE
  8
0
 62
4
 10
-3.58044506E+00
 20
2.64193504E+02
 11
-1.00000114E+01
 21
2.64193504E+02
  0
LINE
  8
0
 62
4
 10
1.49999886E+01
 20
2.64193504E+02
 11
1.49999886E+01
 21
2.64420135E+02
  0
LINE
  8
0
 62
4
 10
1.49999886E+01
 20
2.62322338E+02
 11
1.49999886E+01
 21
2.64193504E+02
  0
LINE
  8
0
 62
6
 10
-5.69999885E+01
 20
3.27335383E+02
 11
-5.69999885E+01
 21
3.25968055E+02
  0
LINE
  8
0
 62
6
 10
-5.39999885E+01
 20
3.27335383E+02
 11
-5.39999885E+01
 21
3.25968055E+02
  0
LINE
  8
0
 62
4
 10
-5.74999885E+01
 20
3.26839825E+02
 11
-5.74999885E+01
 21
3.25968055E+02
  0
LINE
  8
0
 62
4
 10
-5.34999885E+01
 20
3.26839825E+02
 11
-5.34999885E+01
 21
3.25968055E+02
  0
LINE
  8
0
 62
4
 10
-5.89999886E+01
 20
3.25968055E+02
 11
-5.89999886E+01
 21
3.12123549E+02
  0
LINE
  8
0
 62
4
 10
-4.39999886E+01
 20
3.25968055E+02
 11
-4.39999886E+01
 21
2.96579850E+02
  0
LINE
  8
0
  6
CENTER
 62
6
 10
-4.74999885E+01
 20
3.30765579E+02
 11
-4.74999885E+01
 21
3.20500000E+02
  0
LINE
  8
0
  6
CENTER
 62
6
 10
-5.54999885E+01
 20
3.30765579E+02
 11
-5.54999885E+01
 21
3.20500000E+02
  0
LINE
  8
0
  6
CENTER
 62
6
 10
-6.64999886E+01
 20
3.03387826E+02
 11
-6.64999886E+01
 21
2.98387826E+02
  0
LINE
  8
0
 62
4
 10
-4.89999886E+01
 20
2.96806480E+02
 11
-4.89999886E+01
 21
2.97450388E+02
  0
LINE
  8
0
 62
4
 10
-7.39999886E+01
 20
3.12123549E+02
 11
-7.39999886E+01
 21
2.98677647E+02
  0
LINE
  8
0
 62
4
 10
-5.04999886E+01
 20
2.96806480E+02
 11
-5.04999886E+01
 21
2.97081325E+02
  0
LINE
  8
0
 62
4
 10
-7.54999886E+01
 20
3.00885720E+02
 11
-7.54999886E+01
 21
2.97937165E+02
  0
LINE
  8
0
 62
4
 10
-5.89999886E+01
 20
3.25968055E+02
 11
-4.39999886E+01
 21
3.25968055E+02
  0
LINE
  8
0
 62
4
 10
-5.89999886E+01
 20
3.18613836E+02
 11
-4.39999886E+01
 21
3.18613836E+02
  0
LINE
  8
0
 62
4
 10
-7.39999886E+01
 20
3.12123549E+02
 11
-4.39999886E+01
 21
3.12123549E+02
  0
LINE
  8
0
 62
4
 10
-7.39999886E+01
 20
3.02573555E+02
 11
-4.39999886E+01
 21
3.02573555E+02
  0
LINE
  8
0
 62
4
 10
-7.39999886E+01
 20
2.96579850E+02
 11
-6.21487332E+01
 21
2.96579850E+02
  0
POLYLINE
  8
0
 62
4
 66
1
  0
VERTEX
  8
0
 62
4
 10
-5.34999885E+01
 20
3.26839825E+02
  0
VERTEX
  8
0
 62
4
 10
-5.35080399E+01
 20
3.26906984E+02
  0
VERTEX
  8
0
 62
4
 10
-5.35321293E+01
 20
3.26973602E+02
  0
VERTEX
  8
0
 62
4
 10
-5.35720628E+01
 20
3.27039143E+02
  0
VERTEX
  8
0
 62
4
 10
-5.36275188E+01
 20
3.27103080E+02
  0
VERTEX
  8
0
 62
4
 10
-5.36980508E+01
 20
3.27164896E+02
  0
VERTEX
  8
0
 62
4
 10
-5.37830909E+01
 20
3.27224096E+02
  0
VERTEX
  8
0
 62
4
 10
-5.38819545E+01
 20
3.27280201E+02
  0
VERTEX
  8
0
 62
4
 10
-5.39938456E+01
 20
3.27332761E+02
  0
VERTEX
  8
0
 62
4
 10
-5.41178632E+01
 20
3.27381352E+02
  0
VERTEX
  8
0
 62
4
 10
-5.42530089E+01
 20
3.27425583E+02
  0
VERTEX
  8
0
 62
4
 10
-5.43981945E+01
 20
3.27465098E+02
  0
VERTEX
  8
0
 62
4
 10
-5.45522512E+01
 20
3.27499579E+02
  0
VERTEX
  8
0
 62
4
 10
-5.47139384E+01
 20
3.27528747E+02
  0
VERTEX
  8
0
 62
4
 10
-5.48819545E+01
 20
3.27552369E+02
  0
VERTEX
  8
0
 62
4
 10
-5.50549466E+01
 20
3.27570254E+02
  0
VERTEX
  8
0
 62
4
 10
-5.52315220E+01
 20
3.27582258E+02
  0
VERTEX
  8
0
 62
4
 10
-5.54102588E+01
 20
3.27588284E+02
  0
VERTEX
  8
0
 62
4
 10
-5.55897181E+01
 20
3.27588284E+02
  0
VERTEX
  8
0
 62
4
 10
-5.57684550E+01
 20
3.27582258E+02
  0
VERTEX
  8
0
 62
4
 10
-5.59450304E+01
 20
3.27570254E+02
  0
VERTEX
  8
0
 62
4
 10
-5.61180225E+01
 20
3.27552369E+02
  0
VERTEX
  8
0
 62
4
 10
-5.62860386E+01
 20
3.27528747E+02
  0
VERTEX
  8
0
 62
4
 10
-5.64477258E+01
 20
3.27499579E+02
  0
VERTEX
  8
0
 62
4
 10
-5.66017825E+01
 20
3.27465098E+02
  0
VERTEX
  8
0
 62
4
 10
-5.67469681E+01
 20
3.27425583E+02
  0
VERTEX
  8
0
 62
4
 10
-5.68821138E+01
 20
3.27381352E+02
  0
VERTEX
  8
0
 62
4
 10
-5.70061314E+01
 20
3.27332761E+02
  0
VERTEX
  8
0
 62
4
 10
-5.71180225E+01
 20
3.27280201E+02
  0
VERTEX
  8
0
 62
4
 10
-5.72168861E+01
 20
3.27224096E+02
  0
VERTEX
  8
0
 62
4
 10
-5.73019262E+01
 20
3.27164896E+02
  0
VERTEX
  8
0
 62
4
 10
-5.73724582E+01
 20
3.27103080E+02
  0
VERTEX
  8
0
 62
4
 10
-5.74279142E+01
 20
3.27039143E+02
  0
VERTEX
  8
0
 62
4
 10
-5.74678477E+01
 20
3.26973602E+02
  0
VERTEX
  8
0
 62
4
 10
-5.74919371E+01
 20
3.26906984E+02
  0
VERTEX
  8
0
 62
4
 10
-5.74999885E+01
 20
3.26839825E+02
  0
SEQEND
  8
0
  0
LINE
  8
0
 62
6
 10
-4.59999885E+01
 20
3.27335383E+02
 11
-4.59999885E+01
 21
3.25968055E+02
  0
LINE
  8
0
 62
4
 10
-4.54999885E+01
 20
3.26839825E+02
 11
-4.54999885E+01
 21
3.25968055E+02
  0
POLYLINE
  8
0
 62
4
 66
1
  0
VERTEX
  8
0
 62
4
 10
-4.54999885E+01
 20
3.26839825E+02
  0
VERTEX
  8
0
 62
4
 10
-4.55080399E+01
 20
3.26906984E+02
  0
VERTEX
  8
0
 62
4
 10
-4.55321293E+01
 20
3.26973602E+02
  0
VERTEX
  8
0
 62
4
 10
-4.55720628E+01
 20
3.27039143E+02
  0
VERTEX
  8
0
 62
4
 10
-4.56275188E+01
 20
3.27103080E+02
  0
VERTEX
  8
0
 62
4
 10
-4.56980508E+01
 20
3.27164896E+02
  0
VERTEX
  8
0
 62
4
 10
-4.57830909E+01
 20
3.27224096E+02
  0
VERTEX
  8
0
 62
4
 10
-4.58819545E+01
 20
3.27280201E+02
  0
VERTEX
  8
0
 62
4
 10
-4.59938456E+01
 20
3.27332761E+02
  0
VERTEX
  8
0
 62
4
 10
-4.61178632E+01
 20
3.27381352E+02
  0
VERTEX
  8
0
 62
4
 10
-4.62530089E+01
 20
3.27425583E+02
  0
VERTEX
  8
0
 62
4
 10
-4.63981945E+01
 20
3.27465098E+02
  0
VERTEX
  8
0
 62
4
 10
-4.65522512E+01
 20
3.27499579E+02
  0
VERTEX
  8
0
 62
4
 10
-4.67139384E+01
 20
3.27528747E+02
  0
VERTEX
  8
0
 62
4
 10
-4.68819545E+01
 20
3.27552369E+02
  0
VERTEX
  8
0
 62
4
 10
-4.70549466E+01
 20
3.27570254E+02
  0
VERTEX
  8
0
 62
4
 10
-4.72315220E+01
 20
3.27582258E+02
  0
VERTEX
  8
0
 62
4
 10
-4.74102588E+01
 20
3.27588284E+02
  0
VERTEX
  8
0
 62
4
 10
-4.75897181E+01
 20
3.27588284E+02
  0
VERTEX
  8
0
 62
4
 10
-4.77684550E+01
 20
3.27582258E+02
  0
VERTEX
  8
0
 62
4
 10
-4.79450304E+01
 20
3.27570254E+02
  0
VERTEX
  8
0
 62
4
 10
-4.81180225E+01
 20
3.27552369E+02
  0
VERTEX
  8
0
 62
4
 10
-4.82860386E+01
 20
3.27528747E+02
  0
VERTEX
  8
0
 62
4
 10
-4.84477258E+01
 20
3.27499579E+02
  0
VERTEX
  8
0
 62
4
 10
-4.86017825E+01
 20
3.27465098E+02
  0
VERTEX
  8
0
 62
4
 10
-4.87469681E+01
 20
3.27425583E+02
  0
VERTEX
  8
0
 62
4
 10
-4.88821138E+01
 20
3.27381352E+02
  0
VERTEX
  8
0
 62
4
 10
-4.90061314E+01
 20
3.27332761E+02
  0
VERTEX
  8
0
 62
4
 10
-4.91180225E+01
 20
3.27280201E+02
  0
VERTEX
  8
0
 62
4
 10
-4.92168861E+01
 20
3.27224096E+02
  0
VERTEX
  8
0
 62
4
 10
-4.93019262E+01
 20
3.27164896E+02
  0
VERTEX
  8
0
 62
4
 10
-4.93724582E+01
 20
3.27103080E+02
  0
VERTEX
  8
0
 62
4
 10
-4.94279142E+01
 20
3.27039143E+02
  0
VERTEX
  8
0
 62
4
 10
-4.94678477E+01
 20
3.26973602E+02
  0
VERTEX
  8
0
 62
4
 10
-4.94919371E+01
 20
3.26906984E+02
  0
VERTEX
  8
0
 62
4
 10
-4.94999885E+01
 20
3.26839825E+02
  0
SEQEND
  8
0
  0
LINE
  8
0
 62
6
 10
-4.89999885E+01
 20
3.27335383E+02
 11
-4.89999885E+01
 21
3.25968055E+02
  0
LINE
  8
0
 62
4
 10
-4.94999885E+01
 20
3.26839825E+02
 11
-4.94999885E+01
 21
3.25968055E+02
  0
LINE
  8
0
 62
4
 10
-5.48499886E+01
 20
2.98170660E+02
 11
-5.48499886E+01
 21
2.97592529E+02
  0
LINE
  8
0
 62
4
 10
-6.31499886E+01
 20
2.99224373E+02
 11
-6.31499886E+01
 21
2.97592529E+02
  0
POLYLINE
  8
0
 62
4
 66
1
  0
VERTEX
  8
0
 62
4
 10
-5.52989705E+01
 20
2.99927693E+02
  0
VERTEX
  8
0
 62
4
 10
-5.54806509E+01
 20
3.00048232E+02
  0
VERTEX
  8
0
 62
4
 10
-5.56902340E+01
 20
3.00162239E+02
  0
VERTEX
  8
0
 62
4
 10
-5.59260581E+01
 20
3.00268810E+02
  0
VERTEX
  8
0
 62
4
 10
-5.61862536E+01
 20
3.00367101E+02
  0
VERTEX
  8
0
 62
4
 10
-5.64687576E+01
 20
3.00456332E+02
  0
VERTEX
  8
0
 62
4
 10
-5.67713301E+01
 20
3.00535795E+02
  0
VERTEX
  8
0
 62
4
 10
-5.70915723E+01
 20
3.00604860E+02
  0
VERTEX
  8
0
 62
4
 10
-5.74269452E+01
 20
3.00662981E+02
  0
VERTEX
  8
0
 62
4
 10
-5.77747899E+01
 20
3.00709696E+02
  0
VERTEX
  8
0
 62
4
 10
-5.81323484E+01
 20
3.00744634E+02
  0
VERTEX
  8
0
 62
4
 10
-5.84967859E+01
 20
3.00767520E+02
  0
VERTEX
  8
0
 62
4
 10
-5.88652130E+01
 20
3.00778170E+02
  0
VERTEX
  8
0
 62
4
 10
-5.92347086E+01
 20
3.00776502E+02
  0
VERTEX
  8
0
 62
4
 10
-5.96023433E+01
 20
3.00762527E+02
  0
VERTEX
  8
0
 62
4
 10
-5.99652023E+01
 20
3.00736358E+02
  0
VERTEX
  8
0
 62
4
 10
-6.03204087E+01
 20
3.00698201E+02
  0
VERTEX
  8
0
 62
4
 10
-6.06651462E+01
 20
3.00648359E+02
  0
VERTEX
  8
0
 62
4
 10
-6.09966818E+01
 20
3.00587226E+02
  0
VERTEX
  8
0
 62
4
 10
-6.13123867E+01
 20
3.00515289E+02
  0
VERTEX
  8
0
 62
4
 10
-6.16097580E+01
 20
3.00433117E+02
  0
VERTEX
  8
0
 62
4
 10
-6.18864381E+01
 20
3.00341361E+02
  0
VERTEX
  8
0
 62
4
 10
-6.21402332E+01
 20
3.00240749E+02
  0
VERTEX
  8
0
 62
4
 10
-6.23691312E+01
 20
3.00132080E+02
  0
VERTEX
  8
0
 62
4
 10
-6.25713173E+01
 20
3.00016213E+02
  0
VERTEX
  8
0
 62
4
 10
-6.27451884E+01
 20
2.99894068E+02
  0
VERTEX
  8
0
 62
4
 10
-6.28893661E+01
 20
2.99766614E+02
  0
VERTEX
  8
0
 62
4
 10
-6.30027073E+01
 20
2.99634861E+02
  0
VERTEX
  8
0
 62
4
 10
-6.30843133E+01
 20
2.99499853E+02
  0
VERTEX
  8
0
 62
4
 10
-6.31335372E+01
 20
2.99362661E+02
  0
VERTEX
  8
0
 62
4
 10
-6.31499886E+01
 20
2.99224373E+02
  0
SEQEND
  8
0
  0
POLYLINE
  8
0
 62
4
 66
1
  0
VERTEX
  8
0
 62
4
 10
-6.31499886E+01
 20
2.97592529E+02
  0
VERTEX
  8
0
 62
4
 10
-6.31341966E+01
 20
2.97457035E+02
  0
VERTEX
  8
0
 62
4
 10
-6.30869408E+01
 20
2.97322573E+02
  0
VERTEX
  8
0
 62
4
 10
-6.30085808E+01
 20
2.97190164E+02
  0
VERTEX
  8
0
 62
4
 10
-6.28997130E+01
 20
2.97060819E+02
  0
VERTEX
  8
0
 62
4
 10
-6.27611659E+01
 20
2.96935519E+02
  0
VERTEX
  8
0
 62
4
 10
-6.25939940E+01
 20
2.96815220E+02
  0
VERTEX
  8
0
 62
4
 10
-6.23994696E+01
 20
2.96700837E+02
  0
VERTEX
  8
0
 62
4
 10
-6.21790730E+01
 20
2.96593240E+02
  0
VERTEX
  8
0
 62
4
 10
-6.19344817E+01
 20
2.96493249E+02
  0
VERTEX
  8
0
 62
4
 10
-6.16675572E+01
 20
2.96401623E+02
  0
VERTEX
  8
0
 62
4
 10
-6.13803308E+01
 20
2.96319061E+02
  0
VERTEX
  8
0
 62
4
 10
-6.10749886E+01
 20
2.96246191E+02
  0
VERTEX
  8
0
 62
4
 10
-6.07538544E+01
 20
2.96183567E+02
  0
VERTEX
  8
0
 62
4
 10
-6.04193722E+01
 20
2.96131667E+02
  0
VERTEX
  8
0
 62
4
 10
-6.00740876E+01
 20
2.96090884E+02
  0
VERTEX
  8
0
 62
4
 10
-5.97206285E+01
 20
2.96061530E+02
  0
VERTEX
  8
0
 62
4
 10
-5.93616849E+01
 20
2.96043827E+02
  0
VERTEX
  8
0
 62
4
 10
-5.89999886E+01
 20
2.96037912E+02
  0
VERTEX
  8
0
 62
4
 10
-5.86382923E+01
 20
2.96043827E+02
  0
VERTEX
  8
0
 62
4
 10
-5.82793487E+01
 20
2.96061530E+02
  0
VERTEX
  8
0
 62
4
 10
-5.79258896E+01
 20
2.96090884E+02
  0
VERTEX
  8
0
 62
4
 10
-5.75806050E+01
 20
2.96131667E+02
  0
VERTEX
  8
0
 62
4
 10
-5.72461228E+01
 20
2.96183567E+02
  0
VERTEX
  8
0
 62
4
 10
-5.69249886E+01
 20
2.96246191E+02
  0
VERTEX
  8
0
 62
4
 10
-5.66196464E+01
 20
2.96319061E+02
  0
VERTEX
  8
0
 62
4
 10
-5.63324200E+01
 20
2.96401623E+02
  0
VERTEX
  8
0
 62
4
 10
-5.60654955E+01
 20
2.96493249E+02
  0
VERTEX
  8
0
 62
4
 10
-5.58209042E+01
 20
2.96593240E+02
  0
VERTEX
  8
0
 62
4
 10
-5.56005076E+01
 20
2.96700837E+02
  0
VERTEX
  8
0
 62
4
 10
-5.54059832E+01
 20
2.96815220E+02
  0
VERTEX
  8
0
 62
4
 10
-5.52388113E+01
 20
2.96935519E+02
  0
VERTEX
  8
0
 62
4
 10
-5.51002642E+01
 20
2.97060819E+02
  0
VERTEX
  8
0
 62
4
 10
-5.49913964E+01
 20
2.97190164E+02
  0
VERTEX
  8
0
 62
4
 10
-5.49130364E+01
 20
2.97322573E+02
  0
VERTEX
  8
0
 62
4
 10
-5.48657806E+01
 20
2.97457035E+02
  0
VERTEX
  8
0
 62
4
 10
-5.48499886E+01
 20
2.97592529E+02
  0
VERTEX
  8
0
 62
4
 10
-5.48657806E+01
 20
2.97728023E+02
  0
VERTEX
  8
0
 62
4
 10
-5.49130364E+01
 20
2.97862485E+02
  0
VERTEX
  8
0
 62
4
 10
-5.49913964E+01
 20
2.97994894E+02
  0
VERTEX
  8
0
 62
4
 10
-5.51002642E+01
 20
2.98124239E+02
  0
VERTEX
  8
0
 62
4
 10
-5.52388113E+01
 20
2.98249539E+02
  0
VERTEX
  8
0
 62
4
 10
-5.54059832E+01
 20
2.98369838E+02
  0
VERTEX
  8
0
 62
4
 10
-5.56005076E+01
 20
2.98484221E+02
  0
VERTEX
  8
0
 62
4
 10
-5.58209042E+01
 20
2.98591818E+02
  0
VERTEX
  8
0
 62
4
 10
-5.60654955E+01
 20
2.98691809E+02
  0
VERTEX
  8
0
 62
4
 10
-5.63324200E+01
 20
2.98783435E+02
  0
VERTEX
  8
0
 62
4
 10
-5.66196464E+01
 20
2.98865997E+02
  0
VERTEX
  8
0
 62
4
 10
-5.69249886E+01
 20
2.98938867E+02
  0
VERTEX
  8
0
 62
4
 10
-5.72461228E+01
 20
2.99001491E+02
  0
VERTEX
  8
0
 62
4
 10
-5.75806050E+01
 20
2.99053391E+02
  0
VERTEX
  8
0
 62
4
 10
-5.79258896E+01
 20
2.99094174E+02
  0
VERTEX
  8
0
 62
4
 10
-5.82793487E+01
 20
2.99123528E+02
  0
VERTEX
  8
0
 62
4
 10
-5.86382923E+01
 20
2.99141231E+02
  0
VERTEX
  8
0
 62
4
 10
-5.89999886E+01
 20
2.99147146E+02
  0
VERTEX
  8
0
 62
4
 10
-5.93616849E+01
 20
2.99141231E+02
  0
VERTEX
  8
0
 62
4
 10
-5.97206285E+01
 20
2.99123528E+02
  0
VERTEX
  8
0
 62
4
 10
-6.00740876E+01
 20
2.99094174E+02
  0
VERTEX
  8
0
 62
4
 10
-6.04193722E+01
 20
2.99053391E+02
  0
VERTEX
  8
0
 62
4
 10
-6.07538544E+01
 20
2.99001491E+02
  0
VERTEX
  8
0
 62
4
 10
-6.10749886E+01
 20
2.98938867E+02
  0
VERTEX
  8
0
 62
4
 10
-6.13803308E+01
 20
2.98865997E+02
  0
VERTEX
  8
0
 62
4
 10
-6.16675572E+01
 20
2.98783435E+02
  0
VERTEX
  8
0
 62
4
 10
-6.19344817E+01
 20
2.98691809E+02
  0
VERTEX
  8
0
 62
4
 10
-6.21790730E+01
 20
2.98591818E+02
  0
VERTEX
  8
0
 62
4
 10
-6.23994696E+01
 20
2.98484221E+02
  0
VERTEX
  8
0
 62
4
 10
-6.25939940E+01
 20
2.98369838E+02
  0
VERTEX
  8
0
 62
4
 10
-6.27611659E+01
 20
2.98249539E+02
  0
VERTEX
  8
0
 62
4
 10
-6.28997130E+01
 20
2.98124239E+02
  0
VERTEX
  8
0
 62
4
 10
-6.30085808E+01
 20
2.97994894E+02
  0
VERTEX
  8
0
 62
4
 10
-6.30869408E+01
 20
2.97862485E+02
  0
VERTEX
  8
0
 62
4
 10
-6.31341966E+01
 20
2.97728023E+02
  0
VERTEX
  8
0
 62
4
 10
-6.31499886E+01
 20
2.97592529E+02
  0
SEQEND
  8
0
  0
ARC
  8
0
 62
4
 10
-6.46166958E+01
 20
3.12012670E+02
 40
1.61228529E+01
 50
2.83811345E+02
 51
2.97258956E+02
  0
ARC
  8
0
 62
4
 10
-5.33832787E+01
 20
3.12012678E+02
 40
1.61228609E+01
 50
2.42741048E+02
 51
2.56188651E+02
  0
POLYLINE
  8
0
 62
4
 66
1
  0
VERTEX
  8
0
 62
4
 10
-5.52999886E+01
 20
3.00146056E+02
  0
VERTEX
  8
0
 62
4
 10
-5.54466312E+01
 20
3.00264762E+02
  0
VERTEX
  8
0
 62
4
 10
-5.56203499E+01
 20
3.00378225E+02
  0
VERTEX
  8
0
 62
4
 10
-5.58198210E+01
 20
3.00485580E+02
  0
VERTEX
  8
0
 62
4
 10
-5.60435246E+01
 20
3.00586010E+02
  0
VERTEX
  8
0
 62
4
 10
-5.62897562E+01
 20
3.00678750E+02
  0
VERTEX
  8
0
 62
4
 10
-5.65566393E+01
 20
3.00763091E+02
  0
VERTEX
  8
0
 62
4
 10
-5.68421405E+01
 20
3.00838393E+02
  0
VERTEX
  8
0
 62
4
 10
-5.71440842E+01
 20
3.00904081E+02
  0
VERTEX
  8
0
 62
4
 10
-5.74601697E+01
 20
3.00959654E+02
  0
VERTEX
  8
0
 62
4
 10
-5.77879884E+01
 20
3.01004689E+02
  0
VERTEX
  8
0
 62
4
 10
-5.81250424E+01
 20
3.01038843E+02
  0
VERTEX
  8
0
 62
4
 10
-5.84687634E+01
 20
3.01061856E+02
  0
VERTEX
  8
0
 62
4
 10
-5.88165323E+01
 20
3.01073553E+02
  0
VERTEX
  8
0
 62
4
 10
-5.91656991E+01
 20
3.01073843E+02
  0
VERTEX
  8
0
 62
4
 10
-5.95136032E+01
 20
3.01062725E+02
  0
VERTEX
  8
0
 62
4
 10
-5.98575936E+01
 20
3.01040284E+02
  0
VERTEX
  8
0
 62
4
 10
-6.01950491E+01
 20
3.01006691E+02
  0
VERTEX
  8
0
 62
4
 10
-6.05233985E+01
 20
3.00962202E+02
  0
VERTEX
  8
0
 62
4
 10
-6.08401396E+01
 20
3.00907155E+02
  0
VERTEX
  8
0
 62
4
 10
-6.11428590E+01
 20
3.00841970E+02
  0
VERTEX
  8
0
 62
4
 10
-6.14292500E+01
 20
3.00767144E+02
  0
VERTEX
  8
0
 62
4
 10
-6.16971304E+01
 20
3.00683247E+02
  0
VERTEX
  8
0
 62
4
 10
-6.19444588E+01
 20
3.00590918E+02
  0
VERTEX
  8
0
 62
4
 10
-6.21693508E+01
 20
3.00490862E+02
  0
VERTEX
  8
0
 62
4
 10
-6.23700926E+01
 20
3.00383839E+02
  0
VERTEX
  8
0
 62
4
 10
-6.25451546E+01
 20
3.00270666E+02
  0
VERTEX
  8
0
 62
4
 10
-6.26932029E+01
 20
3.00152205E+02
  0
VERTEX
  8
0
 62
4
 10
-6.28131093E+01
 20
3.00029359E+02
  0
VERTEX
  8
0
 62
4
 10
-6.29039602E+01
 20
2.99903064E+02
  0
VERTEX
  8
0
 62
4
 10
-6.29650634E+01
 20
2.99774282E+02
  0
VERTEX
  8
0
 62
4
 10
-6.29959532E+01
 20
2.99643994E+02
  0
SEQEND
  8
0
  0
LINE
  8
0
 62
4
 10
-5.48999886E+01
 20
2.99960642E+02
 11
-5.48999886E+01
 21
2.98482911E+02
  0
POLYLINE
  8
0
 62
4
 66
1
  0
VERTEX
  8
0
 62
4
 10
-4.80999886E+01
 20
2.99960642E+02
  0
VERTEX
  8
0
 62
4
 10
-4.81136760E+01
 20
3.00074812E+02
  0
VERTEX
  8
0
 62
4
 10
-4.81546280E+01
 20
3.00188063E+02
  0
VERTEX
  8
0
 62
4
 10
-4.82225149E+01
 20
3.00299483E+02
  0
VERTEX
  8
0
 62
4
 10
-4.83167900E+01
 20
3.00408175E+02
  0
VERTEX
  8
0
 62
4
 10
-4.84366944E+01
 20
3.00513263E+02
  0
VERTEX
  8
0
 62
4
 10
-4.85812627E+01
 20
3.00613903E+02
  0
VERTEX
  8
0
 62
4
 10
-4.87493308E+01
 20
3.00709282E+02
  0
VERTEX
  8
0
 62
4
 10
-4.89395456E+01
 20
3.00798634E+02
  0
VERTEX
  8
0
 62
4
 10
-4.91503756E+01
 20
3.00881239E+02
  0
VERTEX
  8
0
 62
4
 10
-4.93801233E+01
 20
3.00956431E+02
  0
VERTEX
  8
0
 62
4
 10
-4.96269388E+01
 20
3.01023607E+02
  0
VERTEX
  8
0
 62
4
 10
-4.98888351E+01
 20
3.01082223E+02
  0
VERTEX
  8
0
 62
4
 10
-5.01637035E+01
 20
3.01131810E+02
  0
VERTEX
  8
0
 62
4
 10
-5.04493308E+01
 20
3.01171967E+02
  0
VERTEX
  8
0
 62
4
 10
-5.07434174E+01
 20
3.01202371E+02
  0
VERTEX
  8
0
 62
4
 10
-5.10435955E+01
 20
3.01222777E+02
  0
VERTEX
  8
0
 62
4
 10
-5.13474482E+01
 20
3.01233022E+02
  0
VERTEX
  8
0
 62
4
 10
-5.16525290E+01
 20
3.01233022E+02
  0
VERTEX
  8
0
 62
4
 10
-5.19563817E+01
 20
3.01222777E+02
  0
VERTEX
  8
0
 62
4
 10
-5.22565598E+01
 20
3.01202371E+02
  0
VERTEX
  8
0
 62
4
 10
-5.25506464E+01
 20
3.01171967E+02
  0
VERTEX
  8
0
 62
4
 10
-5.28362737E+01
 20
3.01131810E+02
  0
VERTEX
  8
0
 62
4
 10
-5.31111420E+01
 20
3.01082223E+02
  0
VERTEX
  8
0
 62
4
 10
-5.33730383E+01
 20
3.01023607E+02
  0
VERTEX
  8
0
 62
4
 10
-5.36198539E+01
 20
3.00956431E+02
  0
VERTEX
  8
0
 62
4
 10
-5.38496016E+01
 20
3.00881239E+02
  0
VERTEX
  8
0
 62
4
 10
-5.40604316E+01
 20
3.00798634E+02
  0
VERTEX
  8
0
 62
4
 10
-5.42506464E+01
 20
3.00709282E+02
  0
VERTEX
  8
0
 62
4
 10
-5.44187145E+01
 20
3.00613903E+02
  0
VERTEX
  8
0
 62
4
 10
-5.45632827E+01
 20
3.00513263E+02
  0
VERTEX
  8
0
 62
4
 10
-5.46831872E+01
 20
3.00408175E+02
  0
VERTEX
  8
0
 62
4
 10
-5.47774623E+01
 20
3.00299483E+02
  0
VERTEX
  8
0
 62
4
 10
-5.48453492E+01
 20
3.00188063E+02
  0
VERTEX
  8
0
 62
4
 10
-5.48863012E+01
 20
3.00074812E+02
  0
VERTEX
  8
0
 62
4
 10
-5.48999886E+01
 20
2.99960642E+02
  0
SEQEND
  8
0
  0
POLYLINE
  8
0
 62
4
 66
1
  0
VERTEX
  8
0
 62
4
 10
-4.80999886E+01
 20
2.98912924E+02
  0
VERTEX
  8
0
 62
4
 10
-4.81136760E+01
 20
2.99027094E+02
  0
VERTEX
  8
0
 62
4
 10
-4.81546280E+01
 20
2.99140345E+02
  0
VERTEX
  8
0
 62
4
 10
-4.82225149E+01
 20
2.99251765E+02
  0
VERTEX
  8
0
 62
4
 10
-4.83167900E+01
 20
2.99360457E+02
  0
VERTEX
  8
0
 62
4
 10
-4.84366944E+01
 20
2.99465545E+02
  0
VERTEX
  8
0
 62
4
 10
-4.85812627E+01
 20
2.99566185E+02
  0
VERTEX
  8
0
 62
4
 10
-4.87493308E+01
 20
2.99661564E+02
  0
VERTEX
  8
0
 62
4
 10
-4.89395456E+01
 20
2.99750916E+02
  0
VERTEX
  8
0
 62
4
 10
-4.91503756E+01
 20
2.99833521E+02
  0
VERTEX
  8
0
 62
4
 10
-4.93801233E+01
 20
2.99908713E+02
  0
VERTEX
  8
0
 62
4
 10
-4.96269388E+01
 20
2.99975889E+02
  0
VERTEX
  8
0
 62
4
 10
-4.98888351E+01
 20
3.00034505E+02
  0
VERTEX
  8
0
 62
4
 10
-5.01637035E+01
 20
3.00084092E+02
  0
VERTEX
  8
0
 62
4
 10
-5.04493308E+01
 20
3.00124249E+02
  0
VERTEX
  8
0
 62
4
 10
-5.07434174E+01
 20
3.00154653E+02
  0
VERTEX
  8
0
 62
4
 10
-5.10435955E+01
 20
3.00175059E+02
  0
VERTEX
  8
0
 62
4
 10
-5.13474482E+01
 20
3.00185304E+02
  0
VERTEX
  8
0
 62
4
 10
-5.16525290E+01
 20
3.00185304E+02
  0
VERTEX
  8
0
 62
4
 10
-5.19563817E+01
 20
3.00175059E+02
  0
VERTEX
  8
0
 62
4
 10
-5.22565598E+01
 20
3.00154653E+02
  0
VERTEX
  8
0
 62
4
 10
-5.25506464E+01
 20
3.00124249E+02
  0
VERTEX
  8
0
 62
4
 10
-5.28362737E+01
 20
3.00084092E+02
  0
VERTEX
  8
0
 62
4
 10
-5.31111420E+01
 20
3.00034505E+02
  0
VERTEX
  8
0
 62
4
 10
-5.33730383E+01
 20
2.99975889E+02
  0
VERTEX
  8
0
 62
4
 10
-5.36198539E+01
 20
2.99908713E+02
  0
VERTEX
  8
0
 62
4
 10
-5.38496016E+01
 20
2.99833521E+02
  0
VERTEX
  8
0
 62
4
 10
-5.40604316E+01
 20
2.99750916E+02
  0
VERTEX
  8
0
 62
4
 10
-5.42506464E+01
 20
2.99661564E+02
  0
VERTEX
  8
0
 62
4
 10
-5.44187145E+01
 20
2.99566185E+02
  0
VERTEX
  8
0
 62
4
 10
-5.45632827E+01
 20
2.99465545E+02
  0
VERTEX
  8
0
 62
4
 10
-5.46831872E+01
 20
2.99360457E+02
  0
VERTEX
  8
0
 62
4
 10
-5.47774623E+01
 20
2.99251765E+02
  0
VERTEX
  8
0
 62
4
 10
-5.48453492E+01
 20
2.99140345E+02
  0
VERTEX
  8
0
 62
4
 10
-5.48863012E+01
 20
2.99027094E+02
  0
VERTEX
  8
0
 62
4
 10
-5.48999886E+01
 20
2.98912924E+02
  0
SEQEND
  8
0
  0
LINE
  8
0
 62
4
 10
-4.80999886E+01
 20
2.98482911E+02
 11
-4.80999886E+01
 21
2.99960642E+02
  0
ARC
  8
0
 62
4
 10
-4.90999882E+01
 20
2.98482911E+02
 40
1.00000000E+00
 50
2.82827510E+02
 51
0.00000000E+00
  0
ARC
  8
0
 62
4
 10
-5.38999889E+01
 20
2.98482911E+02
 40
1.00000000E+00
 50
1.80000000E+02
 51
2.57172490E+02
  0
ARC
  8
0
 62
4
 10
-5.68873734E+01
 20
3.12239665E+02
 40
1.54729912E+01
 50
2.83783165E+02
 51
2.97543924E+02
  0
ARC
  8
0
 62
4
 10
-4.61126033E+01
 20
3.12239667E+02
 40
1.54729926E+01
 50
2.42456077E+02
 51
2.56216834E+02
  0
LINE
  8
0
 62
4
 10
-4.76999886E+01
 20
3.00887826E+02
 11
-4.76999886E+01
 21
2.99960642E+02
  0
LINE
  8
0
 62
4
 10
-5.52999886E+01
 20
3.00887826E+02
 11
-5.52999886E+01
 21
2.99960642E+02
  0
POLYLINE
  8
0
 62
4
 66
1
  0
VERTEX
  8
0
 62
4
 10
-4.76999886E+01
 20
3.00887826E+02
  0
VERTEX
  8
0
 62
4
 10
-4.77152863E+01
 20
3.01015428E+02
  0
VERTEX
  8
0
 62
4
 10
-4.77610562E+01
 20
3.01142003E+02
  0
VERTEX
  8
0
 62
4
 10
-4.78369297E+01
 20
3.01266531E+02
  0
VERTEX
  8
0
 62
4
 10
-4.79422961E+01
 20
3.01388010E+02
  0
VERTEX
  8
0
 62
4
 10
-4.80763069E+01
 20
3.01505462E+02
  0
VERTEX
  8
0
 62
4
 10
-4.82378832E+01
 20
3.01617941E+02
  0
VERTEX
  8
0
 62
4
 10
-4.84257240E+01
 20
3.01724541E+02
  0
VERTEX
  8
0
 62
4
 10
-4.86383170E+01
 20
3.01824405E+02
  0
VERTEX
  8
0
 62
4
 10
-4.88739505E+01
 20
3.01916728E+02
  0
VERTEX
  8
0
 62
4
 10
-4.91307273E+01
 20
3.02000767E+02
  0
VERTEX
  8
0
 62
4
 10
-4.94065801E+01
 20
3.02075845E+02
  0
VERTEX
  8
0
 62
4
 10
-4.96992877E+01
 20
3.02141358E+02
  0
VERTEX
  8
0
 62
4
 10
-5.00064935E+01
 20
3.02196778E+02
  0
VERTEX
  8
0
 62
4
 10
-5.03257240E+01
 20
3.02241660E+02
  0
VERTEX
  8
0
 62
4
 10
-5.06544090E+01
 20
3.02275641E+02
  0
VERTEX
  8
0
 62
4
 10
-5.09899022E+01
 20
3.02298448E+02
  0
VERTEX
  8
0
 62
4
 10
-5.13295022E+01
 20
3.02309898E+02
  0
VERTEX
  8
0
 62
4
 10
-5.16704749E+01
 20
3.02309898E+02
  0
VERTEX
  8
0
 62
4
 10
-5.20100750E+01
 20
3.02298448E+02
  0
VERTEX
  8
0
 62
4
 10
-5.23455681E+01
 20
3.02275641E+02
  0
VERTEX
  8
0
 62
4
 10
-5.26742532E+01
 20
3.02241660E+02
  0
VERTEX
  8
0
 62
4
 10
-5.29934837E+01
 20
3.02196778E+02
  0
VERTEX
  8
0
 62
4
 10
-5.33006895E+01
 20
3.02141358E+02
  0
VERTEX
  8
0
 62
4
 10
-5.35933971E+01
 20
3.02075845E+02
  0
VERTEX
  8
0
 62
4
 10
-5.38692498E+01
 20
3.02000767E+02
  0
VERTEX
  8
0
 62
4
 10
-5.41260266E+01
 20
3.01916728E+02
  0
VERTEX
  8
0
 62
4
 10
-5.43616602E+01
 20
3.01824405E+02
  0
VERTEX
  8
0
 62
4
 10
-5.45742532E+01
 20
3.01724541E+02
  0
VERTEX
  8
0
 62
4
 10
-5.47620940E+01
 20
3.01617941E+02
  0
VERTEX
  8
0
 62
4
 10
-5.49236703E+01
 20
3.01505462E+02
  0
VERTEX
  8
0
 62
4
 10
-5.50576811E+01
 20
3.01388010E+02
  0
VERTEX
  8
0
 62
4
 10
-5.51630475E+01
 20
3.01266531E+02
  0
VERTEX
  8
0
 62
4
 10
-5.52389210E+01
 20
3.01142003E+02
  0
VERTEX
  8
0
 62
4
 10
-5.52846909E+01
 20
3.01015428E+02
  0
VERTEX
  8
0
 62
4
 10
-5.52999886E+01
 20
3.00887826E+02
  0
SEQEND
  8
0
  0
POLYLINE
  8
0
 62
4
 66
1
  0
VERTEX
  8
0
 62
4
 10
-4.80999886E+01
 20
2.99324914E+02
  0
VERTEX
  8
0
 62
4
 10
-4.79634069E+01
 20
2.99439873E+02
  0
VERTEX
  8
0
 62
4
 10
-4.78544591E+01
 20
2.99558901E+02
  0
VERTEX
  8
0
 62
4
 10
-4.77739963E+01
 20
2.99681069E+02
  0
VERTEX
  8
0
 62
4
 10
-4.77226473E+01
 20
2.99805421E+02
  0
VERTEX
  8
0
 62
4
 10
-4.77008133E+01
 20
2.99930986E+02
  0
VERTEX
  8
0
 62
4
 10
-4.77086650E+01
 20
3.00056782E+02
  0
VERTEX
  8
0
 62
4
 10
-4.77461410E+01
 20
3.00181827E+02
  0
VERTEX
  8
0
 62
4
 10
-4.78129484E+01
 20
3.00305145E+02
  0
VERTEX
  8
0
 62
4
 10
-4.79085652E+01
 20
3.00425770E+02
  0
VERTEX
  8
0
 62
4
 10
-4.80322444E+01
 20
3.00542761E+02
  0
VERTEX
  8
0
 62
4
 10
-4.81830195E+01
 20
3.00655203E+02
  0
VERTEX
  8
0
 62
4
 10
-4.83597124E+01
 20
3.00762218E+02
  0
VERTEX
  8
0
 62
4
 10
-4.85609424E+01
 20
3.00862970E+02
  0
VERTEX
  8
0
 62
4
 10
-4.87851374E+01
 20
3.00956672E+02
  0
VERTEX
  8
0
 62
4
 10
-4.90305453E+01
 20
3.01042591E+02
  0
VERTEX
  8
0
 62
4
 10
-4.92952488E+01
 20
3.01120055E+02
  0
VERTEX
  8
0
 62
4
 10
-4.95771794E+01
 20
3.01188461E+02
  0
VERTEX
  8
0
 62
4
 10
-4.98741343E+01
 20
3.01247272E+02
  0
VERTEX
  8
0
 62
4
 10
-5.01837932E+01
 20
3.01296031E+02
  0
VERTEX
  8
0
 62
4
 10
-5.05037364E+01
 20
3.01334355E+02
  0
VERTEX
  8
0
 62
4
 10
-5.08314640E+01
 20
3.01361945E+02
  0
VERTEX
  8
0
 62
4
 10
-5.11644153E+01
 20
3.01378586E+02
  0
VERTEX
  8
0
 62
4
 10
-5.14999886E+01
 20
3.01384147E+02
  0
VERTEX
  8
0
 62
4
 10
-5.18355620E+01
 20
3.01378586E+02
  0
VERTEX
  8
0
 62
4
 10
-5.21685132E+01
 20
3.01361945E+02
  0
VERTEX
  8
0
 62
4
 10
-5.24962409E+01
 20
3.01334355E+02
  0
VERTEX
  8
0
 62
4
 10
-5.28161841E+01
 20
3.01296031E+02
  0
VERTEX
  8
0
 62
4
 10
-5.31258429E+01
 20
3.01247272E+02
  0
VERTEX
  8
0
 62
4
 10
-5.34227978E+01
 20
3.01188461E+02
  0
VERTEX
  8
0
 62
4
 10
-5.37047284E+01
 20
3.01120055E+02
  0
VERTEX
  8
0
 62
4
 10
-5.39694319E+01
 20
3.01042591E+02
  0
VERTEX
  8
0
 62
4
 10
-5.42148399E+01
 20
3.00956672E+02
  0
VERTEX
  8
0
 62
4
 10
-5.44390348E+01
 20
3.00862970E+02
  0
VERTEX
  8
0
 62
4
 10
-5.46402649E+01
 20
3.00762218E+02
  0
VERTEX
  8
0
 62
4
 10
-5.48169578E+01
 20
3.00655203E+02
  0
VERTEX
  8
0
 62
4
 10
-5.49677328E+01
 20
3.00542761E+02
  0
VERTEX
  8
0
 62
4
 10
-5.50914120E+01
 20
3.00425770E+02
  0
VERTEX
  8
0
 62
4
 10
-5.51870288E+01
 20
3.00305145E+02
  0
VERTEX
  8
0
 62
4
 10
-5.52538362E+01
 20
3.00181827E+02
  0
VERTEX
  8
0
 62
4
 10
-5.52913122E+01
 20
3.00056782E+02
  0
VERTEX
  8
0
 62
4
 10
-5.52991639E+01
 20
2.99930986E+02
  0
VERTEX
  8
0
 62
4
 10
-5.52773299E+01
 20
2.99805421E+02
  0
VERTEX
  8
0
 62
4
 10
-5.52259809E+01
 20
2.99681069E+02
  0
VERTEX
  8
0
 62
4
 10
-5.51455181E+01
 20
2.99558901E+02
  0
VERTEX
  8
0
 62
4
 10
-5.50365703E+01
 20
2.99439873E+02
  0
VERTEX
  8
0
 62
4
 10
-5.48999886E+01
 20
2.99324914E+02
  0
SEQEND
  8
0
  0
ARC
  8
0
 62
4
 10
-5.14999886E+01
 20
3.04378462E+02
 40
7.36533796E+00
 50
2.47849417E+02
 51
2.92150583E+02
  0
LINE
  8
0
  6
CENTER
 62
6
 10
-6.89999886E+01
 20
3.00887826E+02
 11
-6.39999886E+01
 21
3.00887826E+02
  0
LINE
  8
0
  6
CENTER
 62
6
 10
-5.89999886E+01
 20
3.02076703E+02
 11
-5.89999886E+01
 21
2.97076703E+02
  0
LINE
  8
0
  6
CENTER
 62
6
 10
-6.14999886E+01
 20
2.99576703E+02
 11
-5.64999886E+01
 21
2.99576703E+02
  0
LINE
  8
0
  6
CENTER
 62
6
 10
-5.14999886E+01
 20
3.03387826E+02
 11
-5.14999886E+01
 21
2.98387826E+02
  0
LINE
  8
0
  6
CENTER
 62
6
 10
-5.39999886E+01
 20
3.00887826E+02
 11
-4.89999886E+01
 21
3.00887826E+02
  0
LINE
  8
0
 62
4
 10
-5.58512439E+01
 20
2.96579850E+02
 11
-4.39999886E+01
 21
2.96579850E+02
  0
LINE
  8
0
 62
4
 10
-7.39999886E+01
 20
3.02013642E+02
 11
-7.54999886E+01
 21
3.00885720E+02
  0
LINE
  8
0
 62
4
 10
-7.54999886E+01
 20
2.98785649E+02
 11
-7.39999886E+01
 21
2.98304907E+02
  0
LINE
  8
0
 62
4
 10
-7.54999886E+01
 20
2.97937165E+02
 11
-7.39999886E+01
 21
2.96806480E+02
  0
LINE
  8
0
 62
4
 10
-7.39999886E+01
 20
2.98304907E+02
 11
-6.31499886E+01
 21
2.98304907E+02
  0
LINE
  8
0
 62
4
 10
-7.39999886E+01
 20
2.96806480E+02
 11
-6.25804222E+01
 21
2.96806480E+02
  0
LINE
  8
0
 62
4
 10
-7.39999886E+01
 20
2.98677647E+02
 11
-6.31499886E+01
 21
2.98677647E+02
  0
LINE
  8
0
 62
4
 10
-4.89999886E+01
 20
2.96954456E+02
 11
-4.39999886E+01
 21
2.96954456E+02
  0
LINE
  8
0
 62
4
 10
-4.80999886E+01
 20
2.98677647E+02
 11
-4.39999886E+01
 21
2.98677647E+02
  0
LINE
  8
0
 62
4
 10
-5.54195549E+01
 20
2.96806480E+02
 11
-4.89999886E+01
 21
2.96806480E+02
  0
LINE
  8
0
 62
4
 10
-7.39999886E+01
 20
2.96806480E+02
 11
-7.39999886E+01
 21
2.96579850E+02
  0
LINE
  8
0
 62
4
 10
-7.39999886E+01
 20
2.98677647E+02
 11
-7.39999886E+01
 21
2.96806480E+02
  0
LINE
  8
0
  6
CENTER
 62
2
 10
-2.07798336E+02
 20
2.80500000E+02
 11
6.68777428E+01
 21
2.80500000E+02
  0
LINE
  8
0
 62
7
 10
-1.23508697E+02
 20
3.26880416E+02
 11
-8.79999757E+01
 21
3.27500223E+02
  0
LINE
  8
0
 62
7
 10
-1.23999989E+02
 20
3.26380280E+02
 11
-1.23999989E+02
 21
2.34619720E+02
  0
LINE
  8
0
 62
7
 10
-8.79999886E+01
 20
3.27500000E+02
 11
-8.79999886E+01
 21
2.33500031E+02
  0
LINE
  8
0
 62
7
 10
-1.23508767E+02
 20
2.34119935E+02
 11
-8.80000459E+01
 21
2.33500128E+02
  0
LINE
  8
0
 62
7
 10
-1.19999989E+02
 20
3.08500031E+02
 11
-1.19999989E+02
 21
2.52500015E+02
  0
LINE
  8
0
 62
7
 10
-1.17999989E+02
 20
3.10499969E+02
 11
-8.79999886E+01
 21
3.10499969E+02
  0
LINE
  8
0
 62
7
 10
-1.17999989E+02
 20
2.50499969E+02
 11
-8.79999886E+01
 21
2.50499969E+02
  0
LINE
  8
0
 62
7
 10
-1.44499973E+02
 20
2.99999969E+02
 11
-1.39999973E+02
 21
2.99999969E+02
  0
LINE
  8
0
 62
7
 10
-1.39999989E+02
 20
3.01063232E+02
 11
-1.39999989E+02
 21
2.59971771E+02
  0
LINE
  8
0
 62
7
 10
-1.44999989E+02
 20
2.99500031E+02
 11
-1.44999989E+02
 21
2.61500015E+02
  0
LINE
  8
0
 62
7
 10
-1.44499973E+02
 20
2.60999969E+02
 11
-1.39999973E+02
 21
2.60999969E+02
  0
LINE
  8
0
 62
7
 10
-1.25499989E+02
 20
2.58499939E+02
 11
-1.23999989E+02
 21
2.58499939E+02
  0
LINE
  8
0
 62
7
 10
-1.39517463E+02
 20
2.59472242E+02
 11
-1.26000022E+02
 21
2.59000203E+02
  0
LINE
  8
0
 62
7
 10
-1.25499989E+02
 20
3.02499969E+02
 11
-1.23999989E+02
 21
3.02499969E+02
  0
LINE
  8
0
 62
7
 10
-1.39517469E+02
 20
3.01528117E+02
 11
-1.26000013E+02
 21
3.02000157E+02
  0
LINE
  8
0
 62
7
 10
-1.25999989E+02
 20
2.59000031E+02
 11
-1.25999989E+02
 21
3.02000000E+02
  0
LINE
  8
0
 62
7
 10
5.85086292E+01
 20
2.34119652E+02
 11
2.29998947E+01
 21
2.33499850E+02
  0
LINE
  8
0
 62
7
 10
5.89999886E+01
 20
2.34619690E+02
 11
5.89999886E+01
 21
3.26380249E+02
  0
LINE
  8
0
 62
7
 10
2.29999886E+01
 20
2.33499939E+02
 11
2.29999886E+01
 21
3.27499939E+02
  0
LINE
  8
0
 62
7
 10
5.85086912E+01
 20
3.26880158E+02
 11
2.29999815E+01
 21
3.27499971E+02
  0
LINE
  8
0
  6
CENTER
 62
2
 10
5.28009071E+01
 20
2.91500000E+02
 11
2.47883949E+01
 21
2.91500000E+02
  0
LINE
  8
0
  6
CENTER
 62
2
 10
3.89999733E+01
 20
2.78242966E+02
 11
3.89999733E+01
 21
3.06501221E+02
  0
LINE
  8
0
 62
7
 10
5.49999809E+01
 20
2.52499939E+02
 11
5.49999809E+01
 21
3.08499939E+02
  0
LINE
  8
0
 62
7
 10
5.29999428E+01
 20
2.50499969E+02
 11
2.29999428E+01
 21
2.50499969E+02
  0
LINE
  8
0
 62
7
 10
5.29999428E+01
 20
3.10499969E+02
 11
2.29999428E+01
 21
3.10499969E+02
  0
LINE
  8
0
 62
7
 10
6.04999428E+01
 20
3.02499969E+02
 11
5.89999428E+01
 21
3.02499969E+02
  0
LINE
  8
0
 62
7
 10
6.04999428E+01
 20
2.58499985E+02
 11
5.89999428E+01
 21
2.58499985E+02
  0
LINE
  8
0
 62
7
 10
6.09999809E+01
 20
3.01999939E+02
 11
6.09999809E+01
 21
2.58999939E+02
  0
LINE
  8
0
 62
7
 10
2.29999886E+01
 20
2.36999969E+02
 11
-1.14440918E-05
 21
2.36999969E+02
  0
LINE
  8
0
  6
CENTER
 62
2
 10
6.17791653E+01
 20
2.45499985E+02
 11
-1.26524509E+02
 21
2.45499985E+02
  0
LINE
  8
0
 62
7
 10
2.29999886E+01
 20
2.49999985E+02
 11
1.49999886E+01
 21
2.49999985E+02
  0
LINE
  8
0
 62
7
 10
2.29999886E+01
 20
2.40999985E+02
 11
-1.14440918E-05
 21
2.40999985E+02
  0
LINE
  8
0
  6
CENTER
 62
2
 10
2.99999771E+01
 20
2.72047775E+02
 11
2.99999771E+01
 21
2.57434387E+02
  0
LINE
  8
0
  6
CENTER
 62
2
 10
2.18054008E+01
 20
2.64499985E+02
 11
3.80744095E+01
 21
2.64499985E+02
  0
LINE
  8
0
 62
7
 10
-1.47000156E+02
 20
2.93000000E+02
 11
-1.45000004E+02
 21
2.93000000E+02
  0
LINE
  8
0
 62
7
 10
-1.47000019E+02
 20
2.67999954E+02
 11
-1.45000034E+02
 21
2.67999954E+02
  0
LINE
  8
0
 62
7
 10
-1.56000004E+02
 20
2.91000000E+02
 11
-1.56000004E+02
 21
2.70000000E+02
  0
LINE
  8
0
 62
7
 10
3.17320987E+01
 20
2.64499833E+02
 11
3.08660672E+01
 21
2.65999853E+02
  0
LINE
  8
0
 62
7
 10
3.08660088E+01
 20
2.65999985E+02
 11
2.91339226E+01
 21
2.65999985E+02
  0
LINE
  8
0
 62
7
 10
2.82681864E+01
 20
2.64499759E+02
 11
2.91342027E+01
 21
2.65999752E+02
  0
LINE
  8
0
 62
7
 10
2.91339543E+01
 20
2.62999944E+02
 11
2.82678922E+01
 21
2.64500016E+02
  0
LINE
  8
0
 62
7
 10
3.08660088E+01
 20
2.62999969E+02
 11
2.91339226E+01
 21
2.62999969E+02
  0
LINE
  8
0
 62
7
 10
3.17322361E+01
 20
2.64499891E+02
 11
3.08661969E+01
 21
2.62999859E+02
  0
LINE
  8
0
 62
7
 10
-1.59000004E+02
 20
2.69999969E+02
 11
-1.59000004E+02
 21
2.91000000E+02
  0
LINE
  8
0
 62
7
 10
-1.99000034E+02
 20
2.71000122E+02
 11
-1.99000034E+02
 21
2.89999939E+02
  0
LINE
  8
0
 62
7
 10
-1.62000004E+02
 20
2.69500000E+02
 11
-1.62000004E+02
 21
2.91500031E+02
  0
LINE
  8
0
 62
7
 10
-1.97500065E+02
 20
2.91500031E+02
 11
-1.87000019E+02
 21
2.91500031E+02
  0
LINE
  8
0
 62
7
 10
-1.97500034E+02
 20
2.69500000E+02
 11
-1.97500034E+02
 21
2.91500031E+02
  0
LINE
  8
0
 62
7
 10
-1.98999991E+02
 20
2.89999906E+02
 11
-1.97499956E+02
 21
2.91499941E+02
  0
LINE
  8
0
 62
2
 10
-1.98320042E+02
 20
2.90680023E+02
 11
-1.87000019E+02
 21
2.90680023E+02
  0
LINE
  8
0
 62
7
 10
-1.97500065E+02
 20
2.69500000E+02
 11
-1.87000019E+02
 21
2.69500000E+02
  0
LINE
  8
0
 62
7
 10
-1.99000003E+02
 20
2.71000069E+02
 11
-1.97500012E+02
 21
2.69500078E+02
  0
LINE
  8
0
 62
2
 10
-1.98320042E+02
 20
2.70320023E+02
 11
-1.87000019E+02
 21
2.70320023E+02
  0
LINE
  8
0
  6
CENTER
 62
2
 10
-9.50000038E+01
 20
2.72047729E+02
 11
-9.50000038E+01
 21
2.57434341E+02
  0
LINE
  8
0
  6
CENTER
 62
2
 10
-1.03194584E+02
 20
2.64499939E+02
 11
-8.69255714E+01
 21
2.64499939E+02
  0
LINE
  8
0
 62
7
 10
-9.32678799E+01
 20
2.64499859E+02
 11
-9.41339190E+01
 21
2.65999892E+02
  0
LINE
  8
0
 62
7
 10
-9.41339760E+01
 20
2.65999939E+02
 11
-9.58660622E+01
 21
2.65999939E+02
  0
LINE
  8
0
 62
7
 10
-9.67318123E+01
 20
2.64499709E+02
 11
-9.58657961E+01
 21
2.65999702E+02
  0
LINE
  8
0
 62
7
 10
-9.58659653E+01
 20
2.62999898E+02
 11
-9.67320350E+01
 21
2.64499984E+02
  0
LINE
  8
0
 62
7
 10
-9.41339760E+01
 20
2.62999924E+02
 11
-9.58660622E+01
 21
2.62999924E+02
  0
LINE
  8
0
 62
7
 10
-9.32677759E+01
 20
2.64499849E+02
 11
-9.41338151E+01
 21
2.62999817E+02
  0
LINE
  8
0
 62
7
 10
-1.59000019E+02
 20
2.91000000E+02
 11
-1.49000172E+02
 21
2.91000000E+02
  0
LINE
  8
0
 62
7
 10
-1.59000019E+02
 20
2.70000000E+02
 11
-1.49000065E+02
 21
2.70000000E+02
  0
LINE
  8
0
 62
7
 10
-1.49000065E+02
 20
2.69999994E+02
 11
-1.47000019E+02
 21
2.67999949E+02
  0
LINE
  8
0
 62
7
 10
-1.49000127E+02
 20
2.91000103E+02
 11
-1.47000171E+02
 21
2.93000060E+02
  0
LINE
  8
0
 62
7
 10
2.29999886E+01
 20
3.11000000E+02
 11
-4.39999886E+01
 21
3.11000000E+02
  0
LINE
  8
0
  6
CENTER
 62
2
 10
6.17791653E+01
 20
3.15500000E+02
 11
-1.26524509E+02
 21
3.15500000E+02
  0
LINE
  8
0
 62
7
 10
2.29999886E+01
 20
3.20000000E+02
 11
-4.39999886E+01
 21
3.20000000E+02
  0
LINE
  8
0
 62
7
 10
2.29999886E+01
 20
3.24000031E+02
 11
-4.39999886E+01
 21
3.24000031E+02
  0
LINE
  8
0
  6
CENTER
 62
2
 10
-1.04000004E+02
 20
2.77394135E+02
 11
-1.04000004E+02
 21
3.05323242E+02
  0
LINE
  8
0
  6
CENTER
 62
2
 10
-9.02976723E+01
 20
2.91499939E+02
 11
-1.18094929E+02
 21
2.91499939E+02
  0
LINE
  8
0
 62
7
 10
-1.62000004E+02
 20
2.90680023E+02
 11
-1.59000004E+02
 21
2.90680023E+02
  0
LINE
  8
0
 62
7
 10
-1.62000004E+02
 20
2.70320023E+02
 11
-1.59000004E+02
 21
2.70320023E+02
  0
ARC
  8
0
 62
7
 10
-1.23499973E+02
 20
3.26380280E+02
 40
5.00000000E-01
 50
9.10002493E+01
 51
1.79999951E+02
  0
ARC
  8
0
 62
7
 10
-1.23499973E+02
 20
2.34619720E+02
 40
5.00000000E-01
 50
1.79999977E+02
 51
2.68999679E+02
  0
ARC
  8
0
 62
7
 10
-1.17999989E+02
 20
3.08500031E+02
 40
2.00000000E+00
 50
8.99999818E+01
 51
1.79999951E+02
  0
ARC
  8
0
 62
7
 10
-1.17999989E+02
 20
2.52500061E+02
 40
2.00000000E+00
 50
1.79999977E+02
 51
2.70000028E+02
  0
ARC
  8
0
 62
7
 10
-1.25499989E+02
 20
3.02000061E+02
 40
5.00000000E-01
 50
8.99999818E+01
 51
1.79999951E+02
  0
ARC
  8
0
 62
7
 10
-1.44499973E+02
 20
2.99500031E+02
 40
5.00000000E-01
 50
8.99999818E+01
 51
1.79999951E+02
  0
ARC
  8
0
 62
7
 10
-1.44499973E+02
 20
2.61500061E+02
 40
5.00000000E-01
 50
1.79999977E+02
 51
2.69999974E+02
  0
ARC
  8
0
 62
7
 10
-1.25499989E+02
 20
2.59000031E+02
 40
5.00000000E-01
 50
1.79999977E+02
 51
2.69999974E+02
  0
ARC
  8
0
 62
7
 10
-1.39499973E+02
 20
2.59971771E+02
 40
5.00000000E-01
 50
1.79999977E+02
 51
2.67999192E+02
  0
ARC
  8
0
 62
7
 10
-1.39499973E+02
 20
3.01028320E+02
 40
5.00000000E-01
 50
9.20007356E+01
 51
1.79999951E+02
  0
ARC
  8
0
 62
7
 10
5.84999504E+01
 20
2.34619690E+02
 40
5.00000000E-01
 50
2.71000272E+02
 51
3.59999959E+02
  0
ARC
  8
0
 62
7
 10
5.84999733E+01
 20
3.26380249E+02
 40
5.00000000E-01
 50
3.59999973E+02
 51
8.89996800E+01
  0
ARC
  8
0
 62
7
 10
5.29999657E+01
 20
2.52499939E+02
 40
2.00000000E+00
 50
2.69999991E+02
 51
3.59999945E+02
  0
ARC
  8
0
 62
7
 10
5.29999657E+01
 20
3.08499939E+02
 40
2.00000000E+00
 50
3.59999973E+02
 51
9.00000094E+01
  0
ARC
  8
0
 62
7
 10
6.04999657E+01
 20
2.58999939E+02
 40
5.00000000E-01
 50
2.69999991E+02
 51
3.59999945E+02
  0
ARC
  8
0
 62
7
 10
6.04999657E+01
 20
3.01999939E+02
 40
5.00000000E-01
 50
3.59999973E+02
 51
8.99999549E+01
  0
CIRCLE
  8
0
 62
7
 10
2.99999771E+01
 20
2.64499985E+02
 40
5.00000000E+00
  0
CIRCLE
  8
0
 62
7
 10
-9.50000038E+01
 20
2.64499939E+02
 40
5.00000000E+00
  0
CIRCLE
  8
0
 62
7
 10
-1.03999973E+02
 20
2.91500031E+02
 40
9.25000000E+00
  0
CIRCLE
  8
0
 62
2
 10
-1.04000004E+02
 20
2.91499969E+02
 40
1.04775009E+01
  0
CIRCLE
  8
0
 62
7
 10
-1.03999973E+02
 20
2.91499969E+02
 40
1.10000000E+01
  0
CIRCLE
  8
0
 62
7
 10
3.89999733E+01
 20
2.91500031E+02
 40
9.25000000E+00
  0
CIRCLE
  8
0
 62
2
 10
3.89999962E+01
 20
2.91499969E+02
 40
1.04775009E+01
  0
CIRCLE
  8
0
 62
7
 10
3.89999733E+01
 20
2.91499969E+02
 40
1.10000000E+01
  0
CIRCLE
  8
0
 62
7
 10
-9.50000038E+01
 20
2.64499939E+02
 40
2.59999990E+00
  0
CIRCLE
  8
0
 62
7
 10
2.99999771E+01
 20
2.64499985E+02
 40
2.59999990E+00
  0
LINE
  8
0
  6
CENTER
 62
6
 10
-6.89999886E+01
 20
-2.67242121E+02
 11
-6.89999886E+01
 21
-2.54442121E+02
  0
LINE
  8
0
  6
CENTER
 62
6
 10
-7.53999886E+01
 20
-2.60842121E+02
 11
-6.25999886E+01
 21
-2.60842121E+02
  0
LINE
  8
0
 62
4
 10
-7.84999886E+01
 20
-2.52596481E+02
 11
-5.94999886E+01
 21
-2.52596481E+02
  0
LINE
  8
0
 62
4
 10
-8.09999886E+01
 20
-2.57579767E+02
 11
-8.09999886E+01
 21
-2.69109245E+02
  0
LINE
  8
0
 62
4
 10
-7.84999886E+01
 20
-2.52596481E+02
 11
-7.84999886E+01
 21
-2.56079767E+02
  0
LINE
  8
0
 62
4
 10
-6.14999886E+01
 20
-2.30365322E+02
 11
-6.14999886E+01
 21
-2.52596481E+02
  0
LINE
  8
0
 62
4
 10
-7.64999886E+01
 20
-2.30365322E+02
 11
-7.64999886E+01
 21
-2.52596481E+02
  0
LINE
  8
0
 62
4
 10
-5.94999886E+01
 20
-2.52596481E+02
 11
-5.94999886E+01
 21
-2.56079767E+02
  0
LINE
  8
0
 62
4
 10
-4.19999886E+01
 20
-2.57579767E+02
 11
-4.19999886E+01
 21
-2.69109245E+02
  0
LINE
  8
0
 62
4
 10
-7.79999886E+01
 20
-2.73963458E+02
 11
-4.49999886E+01
 21
-2.73963458E+02
  0
LINE
  8
0
 62
4
 10
-8.09999886E+01
 20
-2.69109245E+02
 11
-4.19999886E+01
 21
-2.69109245E+02
  0
LINE
  8
0
 62
4
 10
-8.09999886E+01
 20
-2.67728488E+02
 11
-4.19999886E+01
 21
-2.67728488E+02
  0
LINE
  8
0
 62
4
 10
-7.94999886E+01
 20
-2.56079767E+02
 11
-4.34999886E+01
 21
-2.56079767E+02
  0
LINE
  8
0
 62
4
 10
-9.59999886E+01
 20
-2.31915048E+02
 11
-9.09999886E+01
 21
-2.31915048E+02
  0
LINE
  8
0
 62
4
 10
-8.54999886E+01
 20
-2.45818859E+02
 11
-7.69999886E+01
 21
-2.45818859E+02
  0
LINE
  8
0
 62
4
 10
-9.59999886E+01
 20
-2.31915048E+02
 11
-9.59999886E+01
 21
-2.45731826E+02
  0
LINE
  8
0
 62
4
 10
-9.09999886E+01
 20
-2.31915048E+02
 11
-9.09999886E+01
 21
-2.45731826E+02
  0
LINE
  8
0
 62
4
 10
-9.09999886E+01
 20
-2.32568859E+02
 11
-8.59999886E+01
 21
-2.32568859E+02
  0
LINE
  8
0
 62
4
 10
-9.09999886E+01
 20
-2.45068859E+02
 11
-8.59999886E+01
 21
-2.45068859E+02
  0
LINE
  8
0
 62
4
 10
-8.94999886E+01
 20
-2.32568859E+02
 11
-8.94999886E+01
 21
-2.45068859E+02
  0
LINE
  8
0
 62
4
 10
-8.94999886E+01
 20
-2.33068859E+02
 11
-8.59999886E+01
 21
-2.33068859E+02
  0
LINE
  8
0
 62
4
 10
-8.94999886E+01
 20
-2.44568859E+02
 11
-8.59999886E+01
 21
-2.44568859E+02
  0
ARC
  8
0
 62
4
 10
-7.69999928E+01
 20
-2.46318864E+02
 40
5.00004272E-01
 50
4.89585868E-04
 51
8.99995103E+01
  0
ARC
  8
0
 62
4
 10
-4.34999914E+01
 20
-2.57579770E+02
 40
1.50000284E+00
 50
1.08554370E-04
 51
8.99998913E+01
  0
ARC
  8
0
 62
4
 10
-8.54999928E+01
 20
-2.45318864E+02
 40
4.99995728E-01
 50
1.79999510E+02
 51
2.70000490E+02
  0
ARC
  8
0
 62
4
 10
-7.94999857E+01
 20
-2.57579770E+02
 40
1.50000284E+00
 50
9.00001085E+01
 51
1.79999892E+02
  0
LINE
  8
0
 62
6
 10
-6.72850513E+01
 20
-2.62557056E+02
 11
-7.07149259E+01
 21
-2.59127186E+02
  0
LINE
  8
0
 62
6
 10
-7.07149234E+01
 20
-2.62557058E+02
 11
-6.72850537E+01
 21
-2.59127183E+02
  0
LINE
  8
0
 62
4
 10
-7.64999886E+01
 20
-2.30365322E+02
 11
-6.14999886E+01
 21
-2.30365322E+02
  0
LINE
  8
0
 62
4
 10
-7.64999886E+01
 20
-2.52457438E+02
 11
-6.14999886E+01
 21
-2.52457438E+02
  0
LINE
  8
0
 62
4
 10
-8.09999886E+01
 20
-2.69109245E+02
 11
-7.79999886E+01
 21
-2.73963458E+02
  0
LINE
  8
0
 62
4
 10
-4.49999886E+01
 20
-2.73963458E+02
 11
-4.19999886E+01
 21
-2.69109245E+02
  0
LINE
  8
0
 62
4
 10
-7.79999886E+01
 20
-2.76000000E+02
 11
-7.79999886E+01
 21
-2.73963458E+02
  0
LINE
  8
0
 62
4
 10
-4.49999886E+01
 20
-2.76000000E+02
 11
-4.49999886E+01
 21
-2.73963458E+02
  0
POLYLINE
  8
0
 62
4
 66
1
  0
VERTEX
  8
0
 62
4
 10
-7.14085825E+01
 20
-2.59070427E+02
  0
VERTEX
  8
0
 62
4
 10
-7.16786183E+01
 20
-2.59275567E+02
  0
VERTEX
  8
0
 62
4
 10
-7.19281318E+01
 20
-2.59501658E+02
  0
VERTEX
  8
0
 62
4
 10
-7.21552113E+01
 20
-2.59746967E+02
  0
VERTEX
  8
0
 62
4
 10
-7.23581170E+01
 20
-2.60009615E+02
  0
VERTEX
  8
0
 62
4
 10
-7.25352944E+01
 20
-2.60287589E+02
  0
VERTEX
  8
0
 62
4
 10
-7.26853860E+01
 20
-2.60578761E+02
  0
VERTEX
  8
0
 62
4
 10
-7.28072419E+01
 20
-2.60880899E+02
  0
VERTEX
  8
0
 62
4
 10
-7.28999285E+01
 20
-2.61191688E+02
  0
VERTEX
  8
0
 62
4
 10
-7.29627357E+01
 20
-2.61508747E+02
  0
VERTEX
  8
0
 62
4
 10
-7.29951823E+01
 20
-2.61829648E+02
  0
VERTEX
  8
0
 62
4
 10
-7.29970197E+01
 20
-2.62151930E+02
  0
VERTEX
  8
0
 62
4
 10
-7.29682337E+01
 20
-2.62473127E+02
  0
VERTEX
  8
0
 62
4
 10
-7.29090451E+01
 20
-2.62790775E+02
  0
VERTEX
  8
0
 62
4
 10
-7.28199071E+01
 20
-2.63102443E+02
  0
VERTEX
  8
0
 62
4
 10
-7.27015029E+01
 20
-2.63405741E+02
  0
VERTEX
  8
0
 62
4
 10
-7.25547394E+01
 20
-2.63698347E+02
  0
VERTEX
  8
0
 62
4
 10
-7.23807412E+01
 20
-2.63978018E+02
  0
VERTEX
  8
0
 62
4
 10
-7.21808413E+01
 20
-2.64242612E+02
  0
VERTEX
  8
0
 62
4
 10
-7.19565713E+01
 20
-2.64490101E+02
  0
VERTEX
  8
0
 62
4
 10
-7.17096494E+01
 20
-2.64718590E+02
  0
VERTEX
  8
0
 62
4
 10
-7.14419675E+01
 20
-2.64926327E+02
  0
VERTEX
  8
0
 62
4
 10
-7.11555763E+01
 20
-2.65111722E+02
  0
VERTEX
  8
0
 62
4
 10
-7.08526700E+01
 20
-2.65273354E+02
  0
VERTEX
  8
0
 62
4
 10
-7.05355694E+01
 20
-2.65409984E+02
  0
VERTEX
  8
0
 62
4
 10
-7.02067039E+01
 20
-2.65520566E+02
  0
VERTEX
  8
0
 62
4
 10
-6.98685932E+01
 20
-2.65604252E+02
  0
VERTEX
  8
0
 62
4
 10
-6.95238277E+01
 20
-2.65660402E+02
  0
VERTEX
  8
0
 62
4
 10
-6.91750487E+01
 20
-2.65688584E+02
  0
VERTEX
  8
0
 62
4
 10
-6.88249285E+01
 20
-2.65688584E+02
  0
VERTEX
  8
0
 62
4
 10
-6.84761496E+01
 20
-2.65660402E+02
  0
VERTEX
  8
0
 62
4
 10
-6.81313840E+01
 20
-2.65604252E+02
  0
VERTEX
  8
0
 62
4
 10
-6.77932733E+01
 20
-2.65520566E+02
  0
VERTEX
  8
0
 62
4
 10
-6.74644078E+01
 20
-2.65409984E+02
  0
VERTEX
  8
0
 62
4
 10
-6.71473072E+01
 20
-2.65273354E+02
  0
VERTEX
  8
0
 62
4
 10
-6.68444010E+01
 20
-2.65111722E+02
  0
VERTEX
  8
0
 62
4
 10
-6.65580098E+01
 20
-2.64926327E+02
  0
VERTEX
  8
0
 62
4
 10
-6.62903278E+01
 20
-2.64718590E+02
  0
VERTEX
  8
0
 62
4
 10
-6.60434059E+01
 20
-2.64490101E+02
  0
VERTEX
  8
0
 62
4
 10
-6.58191359E+01
 20
-2.64242612E+02
  0
VERTEX
  8
0
 62
4
 10
-6.56192360E+01
 20
-2.63978018E+02
  0
VERTEX
  8
0
 62
4
 10
-6.54452378E+01
 20
-2.63698347E+02
  0
VERTEX
  8
0
 62
4
 10
-6.52984743E+01
 20
-2.63405741E+02
  0
VERTEX
  8
0
 62
4
 10
-6.51800701E+01
 20
-2.63102443E+02
  0
VERTEX
  8
0
 62
4
 10
-6.50909321E+01
 20
-2.62790775E+02
  0
VERTEX
  8
0
 62
4
 10
-6.50317435E+01
 20
-2.62473127E+02
  0
VERTEX
  8
0
 62
4
 10
-6.50029575E+01
 20
-2.62151930E+02
  0
VERTEX
  8
0
 62
4
 10
-6.50047949E+01
 20
-2.61829648E+02
  0
VERTEX
  8
0
 62
4
 10
-6.50372415E+01
 20
-2.61508747E+02
  0
VERTEX
  8
0
 62
4
 10
-6.51000487E+01
 20
-2.61191688E+02
  0
VERTEX
  8
0
 62
4
 10
-6.51927353E+01
 20
-2.60880899E+02
  0
VERTEX
  8
0
 62
4
 10
-6.53145912E+01
 20
-2.60578761E+02
  0
VERTEX
  8
0
 62
4
 10
-6.54646828E+01
 20
-2.60287589E+02
  0
VERTEX
  8
0
 62
4
 10
-6.56418602E+01
 20
-2.60009615E+02
  0
VERTEX
  8
0
 62
4
 10
-6.58447659E+01
 20
-2.59746967E+02
  0
VERTEX
  8
0
 62
4
 10
-6.60718454E+01
 20
-2.59501658E+02
  0
VERTEX
  8
0
 62
4
 10
-6.63213589E+01
 20
-2.59275567E+02
  0
VERTEX
  8
0
 62
4
 10
-6.65913947E+01
 20
-2.59070427E+02
  0
SEQEND
  8
0
  0
POLYLINE
  8
0
 62
4
 66
1
  0
VERTEX
  8
0
 62
4
 10
-7.29985807E+01
 20
-2.62107775E+02
  0
VERTEX
  8
0
 62
4
 10
-7.29922516E+01
 20
-2.62434360E+02
  0
VERTEX
  8
0
 62
4
 10
-7.29545045E+01
 20
-2.62759144E+02
  0
VERTEX
  8
0
 62
4
 10
-7.28856365E+01
 20
-2.63079571E+02
  0
VERTEX
  8
0
 62
4
 10
-7.27861896E+01
 20
-2.63393118E+02
  0
VERTEX
  8
0
 62
4
 10
-7.26569463E+01
 20
-2.63697319E+02
  0
VERTEX
  8
0
 62
4
 10
-7.24989239E+01
 20
-2.63989779E+02
  0
VERTEX
  8
0
 62
4
 10
-7.23133658E+01
 20
-2.64268198E+02
  0
VERTEX
  8
0
 62
4
 10
-7.21017324E+01
 20
-2.64530383E+02
  0
VERTEX
  8
0
 62
4
 10
-7.18656892E+01
 20
-2.64774271E+02
  0
VERTEX
  8
0
 62
4
 10
-7.16070937E+01
 20
-2.64997944E+02
  0
VERTEX
  8
0
 62
4
 10
-7.13279810E+01
 20
-2.65199641E+02
  0
VERTEX
  8
0
 62
4
 10
-7.10305477E+01
 20
-2.65377774E+02
  0
VERTEX
  8
0
 62
4
 10
-7.07171345E+01
 20
-2.65530942E+02
  0
VERTEX
  8
0
 62
4
 10
-7.03902079E+01
 20
-2.65657940E+02
  0
VERTEX
  8
0
 62
4
 10
-7.00523406E+01
 20
-2.65757768E+02
  0
VERTEX
  8
0
 62
4
 10
-6.97061916E+01
 20
-2.65829640E+02
  0
VERTEX
  8
0
 62
4
 10
-6.93544850E+01
 20
-2.65872990E+02
  0
VERTEX
  8
0
 62
4
 10
-6.89999886E+01
 20
-2.65887478E+02
  0
VERTEX
  8
0
 62
4
 10
-6.86454922E+01
 20
-2.65872990E+02
  0
VERTEX
  8
0
 62
4
 10
-6.82937856E+01
 20
-2.65829640E+02
  0
VERTEX
  8
0
 62
4
 10
-6.79476366E+01
 20
-2.65757768E+02
  0
VERTEX
  8
0
 62
4
 10
-6.76097693E+01
 20
-2.65657940E+02
  0
VERTEX
  8
0
 62
4
 10
-6.72828427E+01
 20
-2.65530942E+02
  0
VERTEX
  8
0
 62
4
 10
-6.69694295E+01
 20
-2.65377774E+02
  0
VERTEX
  8
0
 62
4
 10
-6.66719962E+01
 20
-2.65199641E+02
  0
VERTEX
  8
0
 62
4
 10
-6.63928835E+01
 20
-2.64997944E+02
  0
VERTEX
  8
0
 62
4
 10
-6.61342880E+01
 20
-2.64774271E+02
  0
VERTEX
  8
0
 62
4
 10
-6.58982448E+01
 20
-2.64530383E+02
  0
VERTEX
  8
0
 62
4
 10
-6.56866114E+01
 20
-2.64268198E+02
  0
VERTEX
  8
0
 62
4
 10
-6.55010533E+01
 20
-2.63989779E+02
  0
VERTEX
  8
0
 62
4
 10
-6.53430309E+01
 20
-2.63697319E+02
  0
VERTEX
  8
0
 62
4
 10
-6.52137876E+01
 20
-2.63393118E+02
  0
VERTEX
  8
0
 62
4
 10
-6.51143407E+01
 20
-2.63079571E+02
  0
VERTEX
  8
0
 62
4
 10
-6.50454727E+01
 20
-2.62759144E+02
  0
VERTEX
  8
0
 62
4
 10
-6.50077256E+01
 20
-2.62434360E+02
  0
VERTEX
  8
0
 62
4
 10
-6.50013965E+01
 20
-2.62107775E+02
  0
SEQEND
  8
0
  0
POLYLINE
  8
0
 62
4
 66
1
  0
VERTEX
  8
0
 62
4
 10
-7.23806586E+01
 20
-2.61676837E+02
  0
VERTEX
  8
0
 62
4
 10
-7.23994134E+01
 20
-2.61952525E+02
  0
VERTEX
  8
0
 62
4
 10
-7.23916874E+01
 20
-2.62228661E+02
  0
VERTEX
  8
0
 62
4
 10
-7.23575408E+01
 20
-2.62503095E+02
  0
VERTEX
  8
0
 62
4
 10
-7.22972396E+01
 20
-2.62773688E+02
  0
VERTEX
  8
0
 62
4
 10
-7.22112535E+01
 20
-2.63038333E+02
  0
VERTEX
  8
0
 62
4
 10
-7.21002524E+01
 20
-2.63294969E+02
  0
VERTEX
  8
0
 62
4
 10
-7.19651009E+01
 20
-2.63541595E+02
  0
VERTEX
  8
0
 62
4
 10
-7.18068518E+01
 20
-2.63776292E+02
  0
VERTEX
  8
0
 62
4
 10
-7.16267379E+01
 20
-2.63997230E+02
  0
VERTEX
  8
0
 62
4
 10
-7.14261621E+01
 20
-2.64202689E+02
  0
VERTEX
  8
0
 62
4
 10
-7.12066870E+01
 20
-2.64391068E+02
  0
VERTEX
  8
0
 62
4
 10
-7.09700222E+01
 20
-2.64560899E+02
  0
VERTEX
  8
0
 62
4
 10
-7.07180113E+01
 20
-2.64710861E+02
  0
VERTEX
  8
0
 62
4
 10
-7.04526173E+01
 20
-2.64839784E+02
  0
VERTEX
  8
0
 62
4
 10
-7.01759077E+01
 20
-2.64946664E+02
  0
VERTEX
  8
0
 62
4
 10
-6.98900380E+01
 20
-2.65030669E+02
  0
VERTEX
  8
0
 62
4
 10
-6.95972349E+01
 20
-2.65091145E+02
  0
VERTEX
  8
0
 62
4
 10
-6.92997794E+01
 20
-2.65127620E+02
  0
VERTEX
  8
0
 62
4
 10
-6.89999886E+01
 20
-2.65139809E+02
  0
VERTEX
  8
0
 62
4
 10
-6.87001978E+01
 20
-2.65127620E+02
  0
VERTEX
  8
0
 62
4
 10
-6.84027423E+01
 20
-2.65091145E+02
  0
VERTEX
  8
0
 62
4
 10
-6.81099393E+01
 20
-2.65030669E+02
  0
VERTEX
  8
0
 62
4
 10
-6.78240695E+01
 20
-2.64946664E+02
  0
VERTEX
  8
0
 62
4
 10
-6.75473599E+01
 20
-2.64839784E+02
  0
VERTEX
  8
0
 62
4
 10
-6.72819659E+01
 20
-2.64710861E+02
  0
VERTEX
  8
0
 62
4
 10
-6.70299550E+01
 20
-2.64560899E+02
  0
VERTEX
  8
0
 62
4
 10
-6.67932902E+01
 20
-2.64391068E+02
  0
VERTEX
  8
0
 62
4
 10
-6.65738151E+01
 20
-2.64202689E+02
  0
VERTEX
  8
0
 62
4
 10
-6.63732393E+01
 20
-2.63997230E+02
  0
VERTEX
  8
0
 62
4
 10
-6.61931254E+01
 20
-2.63776292E+02
  0
VERTEX
  8
0
 62
4
 10
-6.60348763E+01
 20
-2.63541595E+02
  0
VERTEX
  8
0
 62
4
 10
-6.58997248E+01
 20
-2.63294969E+02
  0
VERTEX
  8
0
 62
4
 10
-6.57887237E+01
 20
-2.63038333E+02
  0
VERTEX
  8
0
 62
4
 10
-6.57027376E+01
 20
-2.62773688E+02
  0
VERTEX
  8
0
 62
4
 10
-6.56424364E+01
 20
-2.62503095E+02
  0
VERTEX
  8
0
 62
4
 10
-6.56082898E+01
 20
-2.62228661E+02
  0
VERTEX
  8
0
 62
4
 10
-6.56005638E+01
 20
-2.61952525E+02
  0
VERTEX
  8
0
 62
4
 10
-6.56193186E+01
 20
-2.61676837E+02
  0
SEQEND
  8
0
  0
POLYLINE
  8
0
 62
4
 66
1
  0
VERTEX
  8
0
 62
4
 10
-6.55999886E+01
 20
-2.61335177E+02
  0
VERTEX
  8
0
 62
4
 10
-6.56129266E+01
 20
-2.61055514E+02
  0
VERTEX
  8
0
 62
4
 10
-6.56516422E+01
 20
-2.60777980E+02
  0
VERTEX
  8
0
 62
4
 10
-6.57158408E+01
 20
-2.60504687E+02
  0
VERTEX
  8
0
 62
4
 10
-6.58050337E+01
 20
-2.60237714E+02
  0
VERTEX
  8
0
 62
4
 10
-6.59185421E+01
 20
-2.59979093E+02
  0
VERTEX
  8
0
 62
4
 10
-6.60555022E+01
 20
-2.59730793E+02
  0
VERTEX
  8
0
 62
4
 10
-6.62148716E+01
 20
-2.59494704E+02
  0
VERTEX
  8
0
 62
4
 10
-6.63954375E+01
 20
-2.59272621E+02
  0
VERTEX
  8
0
 62
4
 10
-6.65958255E+01
 20
-2.59066236E+02
  0
VERTEX
  8
0
 62
4
 10
-6.68145107E+01
 20
-2.58877119E+02
  0
VERTEX
  8
0
 62
4
 10
-6.70498287E+01
 20
-2.58706709E+02
  0
VERTEX
  8
0
 62
4
 10
-6.72999886E+01
 20
-2.58556303E+02
  0
VERTEX
  8
0
 62
4
 10
-6.75630865E+01
 20
-2.58427046E+02
  0
VERTEX
  8
0
 62
4
 10
-6.78371201E+01
 20
-2.58319922E+02
  0
VERTEX
  8
0
 62
4
 10
-6.81200038E+01
 20
-2.58235746E+02
  0
VERTEX
  8
0
 62
4
 10
-6.84095848E+01
 20
-2.58175158E+02
  0
VERTEX
  8
0
 62
4
 10
-6.87036591E+01
 20
-2.58138620E+02
  0
VERTEX
  8
0
 62
4
 10
-6.89999886E+01
 20
-2.58126410E+02
  0
VERTEX
  8
0
 62
4
 10
-6.92963181E+01
 20
-2.58138620E+02
  0
VERTEX
  8
0
 62
4
 10
-6.95903924E+01
 20
-2.58175158E+02
  0
VERTEX
  8
0
 62
4
 10
-6.98799734E+01
 20
-2.58235746E+02
  0
VERTEX
  8
0
 62
4
 10
-7.01628571E+01
 20
-2.58319922E+02
  0
VERTEX
  8
0
 62
4
 10
-7.04368907E+01
 20
-2.58427046E+02
  0
VERTEX
  8
0
 62
4
 10
-7.06999886E+01
 20
-2.58556303E+02
  0
VERTEX
  8
0
 62
4
 10
-7.09501485E+01
 20
-2.58706709E+02
  0
VERTEX
  8
0
 62
4
 10
-7.11854665E+01
 20
-2.58877119E+02
  0
VERTEX
  8
0
 62
4
 10
-7.14041517E+01
 20
-2.59066236E+02
  0
VERTEX
  8
0
 62
4
 10
-7.16045397E+01
 20
-2.59272621E+02
  0
VERTEX
  8
0
 62
4
 10
-7.17851056E+01
 20
-2.59494704E+02
  0
VERTEX
  8
0
 62
4
 10
-7.19444750E+01
 20
-2.59730793E+02
  0
VERTEX
  8
0
 62
4
 10
-7.20814351E+01
 20
-2.59979093E+02
  0
VERTEX
  8
0
 62
4
 10
-7.21949435E+01
 20
-2.60237714E+02
  0
VERTEX
  8
0
 62
4
 10
-7.22841364E+01
 20
-2.60504687E+02
  0
VERTEX
  8
0
 62
4
 10
-7.23483350E+01
 20
-2.60777980E+02
  0
VERTEX
  8
0
 62
4
 10
-7.23870506E+01
 20
-2.61055514E+02
  0
VERTEX
  8
0
 62
4
 10
-7.23999886E+01
 20
-2.61335177E+02
  0
VERTEX
  8
0
 62
4
 10
-7.23870506E+01
 20
-2.61614840E+02
  0
VERTEX
  8
0
 62
4
 10
-7.23483350E+01
 20
-2.61892374E+02
  0
VERTEX
  8
0
 62
4
 10
-7.22841364E+01
 20
-2.62165667E+02
  0
VERTEX
  8
0
 62
4
 10
-7.21949435E+01
 20
-2.62432640E+02
  0
VERTEX
  8
0
 62
4
 10
-7.20814351E+01
 20
-2.62691261E+02
  0
VERTEX
  8
0
 62
4
 10
-7.19444750E+01
 20
-2.62939561E+02
  0
VERTEX
  8
0
 62
4
 10
-7.17851055E+01
 20
-2.63175650E+02
  0
VERTEX
  8
0
 62
4
 10
-7.16045397E+01
 20
-2.63397733E+02
  0
VERTEX
  8
0
 62
4
 10
-7.14041517E+01
 20
-2.63604118E+02
  0
VERTEX
  8
0
 62
4
 10
-7.11854665E+01
 20
-2.63793235E+02
  0
VERTEX
  8
0
 62
4
 10
-7.09501485E+01
 20
-2.63963645E+02
  0
VERTEX
  8
0
 62
4
 10
-7.06999886E+01
 20
-2.64114051E+02
  0
VERTEX
  8
0
 62
4
 10
-7.04368907E+01
 20
-2.64243308E+02
  0
VERTEX
  8
0
 62
4
 10
-7.01628571E+01
 20
-2.64350432E+02
  0
VERTEX
  8
0
 62
4
 10
-6.98799733E+01
 20
-2.64434608E+02
  0
VERTEX
  8
0
 62
4
 10
-6.95903924E+01
 20
-2.64495196E+02
  0
VERTEX
  8
0
 62
4
 10
-6.92963181E+01
 20
-2.64531734E+02
  0
VERTEX
  8
0
 62
4
 10
-6.89999886E+01
 20
-2.64543944E+02
  0
VERTEX
  8
0
 62
4
 10
-6.87036591E+01
 20
-2.64531734E+02
  0
VERTEX
  8
0
 62
4
 10
-6.84095848E+01
 20
-2.64495196E+02
  0
VERTEX
  8
0
 62
4
 10
-6.81200038E+01
 20
-2.64434608E+02
  0
VERTEX
  8
0
 62
4
 10
-6.78371201E+01
 20
-2.64350432E+02
  0
VERTEX
  8
0
 62
4
 10
-6.75630865E+01
 20
-2.64243308E+02
  0
VERTEX
  8
0
 62
4
 10
-6.72999886E+01
 20
-2.64114051E+02
  0
VERTEX
  8
0
 62
4
 10
-6.70498287E+01
 20
-2.63963645E+02
  0
VERTEX
  8
0
 62
4
 10
-6.68145107E+01
 20
-2.63793235E+02
  0
VERTEX
  8
0
 62
4
 10
-6.65958255E+01
 20
-2.63604118E+02
  0
VERTEX
  8
0
 62
4
 10
-6.63954375E+01
 20
-2.63397733E+02
  0
VERTEX
  8
0
 62
4
 10
-6.62148716E+01
 20
-2.63175650E+02
  0
VERTEX
  8
0
 62
4
 10
-6.60555022E+01
 20
-2.62939561E+02
  0
VERTEX
  8
0
 62
4
 10
-6.59185421E+01
 20
-2.62691261E+02
  0
VERTEX
  8
0
 62
4
 10
-6.58050337E+01
 20
-2.62432640E+02
  0
VERTEX
  8
0
 62
4
 10
-6.57158408E+01
 20
-2.62165667E+02
  0
VERTEX
  8
0
 62
4
 10
-6.56516422E+01
 20
-2.61892374E+02
  0
VERTEX
  8
0
 62
4
 10
-6.56129266E+01
 20
-2.61614839E+02
  0
VERTEX
  8
0
 62
4
 10
-6.55999886E+01
 20
-2.61335177E+02
  0
SEQEND
  8
0
  0
LINE
  8
0
 62
4
 10
-9.59999886E+01
 20
-2.39740180E+02
 11
-9.09999886E+01
 21
-2.39740180E+02
  0
LINE
  8
0
 62
4
 10
-9.59999886E+01
 20
-2.32827189E+02
 11
-9.09999886E+01
 21
-2.32827189E+02
  0
LINE
  8
0
 62
4
 10
-9.59999886E+01
 20
-2.45731826E+02
 11
-9.09999886E+01
 21
-2.45731826E+02
  0
LINE
  8
0
 62
4
 10
-7.64999886E+01
 20
-2.31818859E+02
 11
-8.54999886E+01
 21
-2.31818859E+02
  0
ARC
  8
0
 62
4
 10
-8.54999843E+01
 20
-2.32318864E+02
 40
5.00004272E-01
 50
9.00004895E+01
 51
1.79999510E+02
  0
LINE
  8
0
 62
4
 10
-8.59999886E+01
 20
-2.32318859E+02
 11
-8.59999886E+01
 21
-2.45318859E+02
  0
LINE
  8
0
 62
4
 10
-4.02358813E+02
 20
-2.70173498E+02
 11
-3.95920824E+02
 21
-2.67440734E+02
  0
LINE
  8
0
 62
4
 10
-4.02358813E+02
 20
-2.70173498E+02
 11
-4.03544241E+02
 21
-2.72500001E+02
  0
LINE
  8
0
 62
4
 10
-4.04281949E+02
 20
-2.36226289E+02
 11
-3.99780680E+02
 21
-2.34315613E+02
  0
LINE
  8
0
 62
4
 10
-3.90474376E+02
 20
-2.30365322E+02
 11
-3.80706098E+02
 21
-2.53377943E+02
  0
LINE
  8
0
 62
4
 10
-4.04281949E+02
 20
-2.36226289E+02
 11
-3.94513670E+02
 21
-2.59238910E+02
  0
LINE
  8
0
 62
4
 10
-3.96354680E+02
 20
-2.60020372E+02
 11
-3.78865088E+02
 21
-2.52596481E+02
  0
LINE
  8
0
 62
4
 10
-3.94904402E+02
 20
-2.58318405E+02
 11
-3.81096829E+02
 21
-2.52457438E+02
  0
LINE
  8
0
 62
4
 10
-3.78865088E+02
 20
-2.52596481E+02
 11
-3.77302163E+02
 21
-2.56278500E+02
  0
LINE
  8
0
 62
4
 10
-3.96354680E+02
 20
-2.60020372E+02
 11
-3.94791756E+02
 21
-2.63702392E+02
  0
LINE
  8
0
 62
4
 10
-3.94791756E+02
 20
-2.63702392E+02
 11
-3.77302163E+02
 21
-2.56278500E+02
  0
LINE
  8
0
 62
4
 10
-3.77128077E+02
 20
-2.72500011E+02
 11
-3.69139934E+02
 21
-2.69109245E+02
  0
LINE
  8
0
 62
4
 10
-3.74024073E+02
 20
-2.57602934E+02
 11
-3.69139934E+02
 21
-2.69109245E+02
  0
LINE
  8
0
 62
4
 10
-3.96116190E+02
 20
-2.66980481E+02
 11
-3.93773291E+02
 21
-2.72500005E+02
  0
LINE
  8
0
 62
4
 10
-3.69139934E+02
 20
-2.69109245E+02
 11
-3.69977174E+02
 21
-2.72500013E+02
  0
LINE
  8
0
 62
4
 10
-3.80967031E+02
 20
-2.72500009E+02
 11
-3.69726031E+02
 21
-2.67728488E+02
  0
LINE
  8
0
 62
4
 10
-3.84762120E+02
 20
-2.68135947E+02
 11
-3.81080101E+02
 21
-2.66573022E+02
  0
LINE
  8
0
 62
4
 10
-3.83785292E+02
 20
-2.70437209E+02
 11
-3.80103273E+02
 21
-2.68874285E+02
  0
LINE
  8
0
 62
4
 10
-3.84762120E+02
 20
-2.68135947E+02
 11
-3.83785292E+02
 21
-2.70437209E+02
  0
LINE
  8
0
 62
4
 10
-3.81080101E+02
 20
-2.66573022E+02
 11
-3.80103273E+02
 21
-2.68874285E+02
  0
LINE
  8
0
 62
4
 10
-3.92099385E+02
 20
-2.45731826E+02
 11
-3.87581345E+02
 21
-2.39740180E+02
  0
LINE
  8
0
 62
4
 10
-4.02482299E+02
 20
-2.37906693E+02
 11
-3.97964259E+02
 21
-2.31915048E+02
  0
LINE
  8
0
 62
4
 10
-4.02482299E+02
 20
-2.37906693E+02
 11
-3.99547908E+02
 21
-2.44819685E+02
  0
LINE
  8
0
 62
4
 10
-3.90515736E+02
 20
-2.32827189E+02
 11
-3.87581345E+02
 21
-2.39740180E+02
  0
LINE
  8
0
 62
4
 10
-3.99547908E+02
 20
-2.44819685E+02
 11
-3.92099385E+02
 21
-2.45731826E+02
  0
LINE
  8
0
 62
4
 10
-3.97964259E+02
 20
-2.31915048E+02
 11
-3.90515736E+02
 21
-2.32827189E+02
  0
LINE
  8
0
 62
4
 10
-3.94984850E+02
 20
-2.32279904E+02
 11
-3.90474376E+02
 21
-2.30365322E+02
  0
LINE
  8
0
 62
4
 10
-3.73633342E+02
 20
-2.58523439E+02
 11
-3.73173090E+02
 21
-2.58328074E+02
  0
LINE
  8
0
 62
4
 10
-3.70507493E+02
 20
-2.65887478E+02
 11
-3.70047241E+02
 21
-2.65692113E+02
  0
LINE
  8
0
 62
4
 10
-3.72938651E+02
 20
-2.58880377E+02
 11
-3.71346178E+02
 21
-2.58204412E+02
  0
LINE
  8
0
 62
4
 10
-3.68689206E+02
 20
-2.64463845E+02
 11
-3.70281680E+02
 21
-2.65139810E+02
  0
LINE
  8
0
  6
CENTER
 62
6
 10
-3.96322846E+02
 20
-2.72500004E+02
 11
-3.66087136E+02
 21
-2.59665706E+02
  0
LINE
  8
0
 62
4
 10
-3.73173090E+02
 20
-2.58328074E+02
 11
-3.70047241E+02
 21
-2.65692113E+02
  0
ARC
  8
0
 62
4
 10
-3.69081021E+02
 20
-2.63545600E+02
 40
9.98345090E-01
 50
2.93107940E+02
 51
9.77816763E+00
  0
ARC
  8
0
 62
4
 10
-3.70959546E+02
 20
-2.59123619E+02
 40
9.97209177E-01
 50
3.55805360E+01
 51
1.12812291E+02
  0
CIRCLE
  8
0
 62
4
 10
-3.95033774E+02
 20
-2.38818859E+02
 40
3.75000000E+00
  0
ARC
  8
0
 62
4
 10
-3.79710970E+02
 20
-2.65484496E+02
 40
1.18036308E+01
 50
1.02898056E+01
 51
3.59747793E+01
  0
ARC
  8
0
 62
4
 10
-3.93814912E+02
 20
-2.66003660E+02
 40
2.50001192E+00
 50
1.13000273E+02
 51
2.02999727E+02
  0
ARC
  8
0
 62
4
 10
-3.76325344E+02
 20
-2.58579783E+02
 40
2.50001570E+00
 50
2.30003598E+01
 51
1.12999640E+02
  0
ARC
  8
0
 62
4
 10
-3.95033774E+02
 20
-2.38818859E+02
 40
7.00000000E+00
 50
8.19976591E+01
 51
1.04884035E+02
  0
ARC
  8
0
 62
4
 10
-3.95033774E+02
 20
-2.38818859E+02
 40
7.00000000E+00
 50
1.21115777E+02
 51
1.44002341E+02
  0
ARC
  8
0
 62
4
 10
1.28325321E+02
 20
-2.58579783E+02
 40
2.50001570E+00
 50
6.70003599E+01
 51
1.56999640E+02
  0
ARC
  8
0
 62
4
 10
1.45814889E+02
 20
-2.66003660E+02
 40
2.50001192E+00
 50
3.37000273E+02
 51
6.69997268E+01
  0
ARC
  8
0
 62
4
 10
1.31710948E+02
 20
-2.65484496E+02
 40
1.18036308E+01
 50
1.44025221E+02
 51
1.69710195E+02
  0
ARC
  8
0
 62
4
 10
1.22959524E+02
 20
-2.59123619E+02
 40
9.97209177E-01
 50
6.71877091E+01
 51
1.44419464E+02
  0
ARC
  8
0
 62
4
 10
1.21080998E+02
 20
-2.63545600E+02
 40
9.98345090E-01
 50
1.70221832E+02
 51
2.46892060E+02
  0
LINE
  8
0
 62
4
 10
1.25173067E+02
 20
-2.58328074E+02
 11
1.22047218E+02
 21
-2.65692113E+02
  0
LINE
  8
0
  6
CENTER
 62
6
 10
1.48322823E+02
 20
-2.72500004E+02
 11
1.18087113E+02
 21
-2.59665706E+02
  0
LINE
  8
0
 62
4
 10
1.20689183E+02
 20
-2.64463845E+02
 11
1.22281657E+02
 21
-2.65139810E+02
  0
LINE
  8
0
 62
4
 10
1.24938628E+02
 20
-2.58880377E+02
 11
1.23346155E+02
 21
-2.58204412E+02
  0
LINE
  8
0
 62
4
 10
1.22507470E+02
 20
-2.65887478E+02
 11
1.22047218E+02
 21
-2.65692113E+02
  0
LINE
  8
0
 62
4
 10
1.25633319E+02
 20
-2.58523439E+02
 11
1.25173067E+02
 21
-2.58328074E+02
  0
LINE
  8
0
 62
4
 10
1.49964236E+02
 20
-2.31915048E+02
 11
1.48831799E+02
 21
-2.32053725E+02
  0
LINE
  8
0
 62
4
 10
1.50651137E+02
 20
-2.32825988E+02
 11
1.49964236E+02
 21
-2.31915048E+02
  0
LINE
  8
0
 62
4
 10
1.33080078E+02
 20
-2.66573022E+02
 11
1.32103250E+02
 21
-2.68874285E+02
  0
LINE
  8
0
 62
4
 10
1.36762097E+02
 20
-2.68135947E+02
 11
1.35785269E+02
 21
-2.70437209E+02
  0
LINE
  8
0
 62
4
 10
1.35785269E+02
 20
-2.70437209E+02
 11
1.32103250E+02
 21
-2.68874285E+02
  0
LINE
  8
0
 62
4
 10
1.36762097E+02
 20
-2.68135947E+02
 11
1.33080078E+02
 21
-2.66573022E+02
  0
LINE
  8
0
 62
4
 10
1.32967008E+02
 20
-2.72500009E+02
 11
1.21726008E+02
 21
-2.67728488E+02
  0
LINE
  8
0
 62
4
 10
1.21139911E+02
 20
-2.69109245E+02
 11
1.21977151E+02
 21
-2.72500013E+02
  0
LINE
  8
0
 62
4
 10
1.48116167E+02
 20
-2.66980481E+02
 11
1.45773268E+02
 21
-2.72500005E+02
  0
LINE
  8
0
 62
4
 10
1.26024051E+02
 20
-2.57602934E+02
 11
1.21139911E+02
 21
-2.69109245E+02
  0
LINE
  8
0
 62
4
 10
1.29128054E+02
 20
-2.72500011E+02
 11
1.21139911E+02
 21
-2.69109245E+02
  0
LINE
  8
0
 62
4
 10
1.46791733E+02
 20
-2.63702392E+02
 11
1.29302140E+02
 21
-2.56278500E+02
  0
LINE
  8
0
 62
4
 10
1.48354657E+02
 20
-2.60020372E+02
 11
1.46791733E+02
 21
-2.63702392E+02
  0
LINE
  8
0
 62
4
 10
1.30865065E+02
 20
-2.52596481E+02
 11
1.29302140E+02
 21
-2.56278500E+02
  0
LINE
  8
0
 62
4
 10
1.46904379E+02
 20
-2.58318405E+02
 11
1.33096806E+02
 21
-2.52457438E+02
  0
LINE
  8
0
 62
4
 10
1.48354657E+02
 20
-2.60020372E+02
 11
1.30865065E+02
 21
-2.52596481E+02
  0
LINE
  8
0
 62
4
 10
1.56281926E+02
 20
-2.36226289E+02
 11
1.46513647E+02
 21
-2.59238910E+02
  0
LINE
  8
0
 62
4
 10
1.42474353E+02
 20
-2.30365322E+02
 11
1.32706075E+02
 21
-2.53377943E+02
  0
LINE
  8
0
 62
4
 10
1.42474353E+02
 20
-2.30365322E+02
 11
1.56281926E+02
 21
-2.36226289E+02
  0
LINE
  8
0
 62
4
 10
1.54358790E+02
 20
-2.70173498E+02
 11
1.55544218E+02
 21
-2.72500001E+02
  0
LINE
  8
0
 62
4
 10
1.54358790E+02
 20
-2.70173498E+02
 11
1.47920801E+02
 21
-2.67440734E+02
  0
ARC
  8
0
 62
4
 10
1.47033743E+02
 20
-2.38818856E+02
 40
7.00000000E+00
 50
3.59976591E+01
 51
9.80023407E+01
  0
LINE
  8
0
  6
CENTER
 62
6
 10
1.39288238E+02
 20
-2.57066122E+02
 11
1.37464747E+02
 21
-2.61361998E+02
  0
LINE
  8
0
 62
4
 10
1.34825170E+02
 20
-2.58622887E+02
 11
1.35547282E+02
 21
-2.57843045E+02
  0
LINE
  8
0
 62
4
 10
1.41328053E+02
 20
-2.60296837E+02
 11
1.41268704E+02
 21
-2.61358005E+02
  0
LINE
  8
0
 62
4
 10
1.35547282E+02
 20
-2.57843045E+02
 11
1.41328053E+02
 21
-2.60296837E+02
  0
LINE
  8
0
  6
CENTER
 62
6
 10
-6.89999580E+01
 20
-9.21051662E+01
 11
-6.89999580E+01
 21
-1.44500000E+02
  0
ARC
  8
0
 62
4
 10
-7.94999576E+01
 20
-1.26999117E+02
 40
1.50000046E+00
 50
1.80000018E+02
 51
2.69999983E+02
  0
ARC
  8
0
 62
4
 10
-4.34999547E+01
 20
-1.26999121E+02
 40
1.49999664E+00
 50
2.69999872E+02
 51
1.28225561E-04
  0
LINE
  8
0
  6
CENTER
 62
6
 10
-6.49999580E+01
 20
-9.03458848E+01
 11
-6.49999580E+01
 21
-1.00845885E+02
  0
LINE
  8
0
 62
4
 10
-7.64999580E+01
 20
-9.40258848E+01
 11
-7.64999580E+01
 21
-1.22793921E+02
  0
LINE
  8
0
 62
4
 10
-6.14999580E+01
 20
-9.40258848E+01
 11
-6.14999580E+01
 21
-1.22793921E+02
  0
LINE
  8
0
 62
4
 10
-6.14999580E+01
 20
-9.40258848E+01
 11
-7.64999580E+01
 21
-9.40258848E+01
  0
LINE
  8
0
  6
CENTER
 62
6
 10
-7.29999580E+01
 20
-9.03458848E+01
 11
-7.29999580E+01
 21
-1.00845885E+02
  0
LINE
  8
0
 62
4
 10
-6.55999580E+01
 20
-1.31889854E+02
 11
-6.55999580E+01
 21
-1.33785592E+02
  0
LINE
  8
0
 62
4
 10
-7.23999580E+01
 20
-1.33785592E+02
 11
-7.23999580E+01
 21
-1.31889854E+02
  0
LINE
  8
0
 62
4
 10
-8.54999580E+01
 20
-1.15466245E+02
 11
-7.64999580E+01
 21
-1.15466245E+02
  0
LINE
  8
0
 62
4
 10
-9.59999580E+01
 20
-1.01017720E+02
 11
-9.59999580E+01
 21
-1.15918674E+02
  0
LINE
  8
0
 62
4
 10
-9.09999580E+01
 20
-1.15918674E+02
 11
-9.09999580E+01
 21
-1.01017720E+02
  0
LINE
  8
0
 62
4
 10
-9.09999580E+01
 20
-1.02216245E+02
 11
-8.59999580E+01
 21
-1.02216245E+02
  0
LINE
  8
0
 62
4
 10
-9.09999580E+01
 20
-1.14716245E+02
 11
-8.59999580E+01
 21
-1.14716245E+02
  0
LINE
  8
0
 62
4
 10
-8.94999580E+01
 20
-1.02216245E+02
 11
-8.94999580E+01
 21
-1.14716245E+02
  0
LINE
  8
0
 62
4
 10
-8.94999580E+01
 20
-1.02716245E+02
 11
-8.59999580E+01
 21
-1.02716245E+02
  0
LINE
  8
0
 62
4
 10
-8.94999580E+01
 20
-1.14216245E+02
 11
-8.59999580E+01
 21
-1.14216245E+02
  0
LINE
  8
0
 62
4
 10
-7.64999580E+01
 20
-9.92180705E+01
 11
-6.14999580E+01
 21
-9.92180705E+01
  0
LINE
  8
0
 62
4
 10
-9.59999580E+01
 20
-1.01017720E+02
 11
-9.09999580E+01
 21
-1.01017720E+02
  0
LINE
  8
0
 62
4
 10
-4.19999580E+01
 20
-1.08685095E+02
 11
-4.19999580E+01
 21
-1.32860085E+02
  0
LINE
  8
0
 62
4
 10
-7.84999580E+01
 20
-1.15466245E+02
 11
-7.84999580E+01
 21
-1.26197841E+02
  0
LINE
  8
0
 62
4
 10
-8.09999580E+01
 20
-1.15466245E+02
 11
-8.09999580E+01
 21
-1.32860085E+02
  0
LINE
  8
0
 62
4
 10
-7.84999580E+01
 20
-1.24634931E+02
 11
-5.94999580E+01
 21
-1.24634931E+02
  0
LINE
  8
0
 62
4
 10
-7.94999580E+01
 20
-1.28499118E+02
 11
-4.34999580E+01
 21
-1.28499118E+02
  0
ARC
  8
0
 62
4
 10
-4.34999614E+01
 20
-1.08685098E+02
 40
1.50000336E+00
 50
1.28225275E-04
 51
8.99998718E+01
  0
ARC
  8
0
 62
4
 10
-8.54999538E+01
 20
-1.14966241E+02
 40
5.00004272E-01
 50
1.80000490E+02
 51
2.69999511E+02
  0
LINE
  8
0
 62
4
 10
-7.64999580E+01
 20
-1.13025643E+02
 11
-6.14999580E+01
 21
-1.13025643E+02
  0
LINE
  8
0
 62
4
 10
-7.64999580E+01
 20
-1.22793921E+02
 11
-6.14999580E+01
 21
-1.22793921E+02
  0
LINE
  8
0
 62
4
 10
-5.94999580E+01
 20
-1.07145339E+02
 11
-5.94999580E+01
 21
-1.26197841E+02
  0
LINE
  8
0
 62
4
 10
-6.14999580E+01
 20
-1.07145339E+02
 11
-5.94999580E+01
 21
-1.07145339E+02
  0
LINE
  8
0
 62
4
 10
-5.94999580E+01
 20
-1.07185095E+02
 11
-4.34999580E+01
 21
-1.07185095E+02
  0
ARC
  8
0
 62
4
 10
-4.34999547E+01
 20
-1.32860088E+02
 40
1.49999664E+00
 50
2.69999872E+02
 51
1.28225561E-04
  0
ARC
  8
0
 62
4
 10
-7.94999576E+01
 20
-1.32860084E+02
 40
1.50000046E+00
 50
1.80000018E+02
 51
2.69999983E+02
  0
LINE
  8
0
 62
4
 10
-9.59999580E+01
 20
-1.05535760E+02
 11
-9.09999580E+01
 21
-1.05535760E+02
  0
LINE
  8
0
 62
4
 10
-9.59999580E+01
 20
-1.12984283E+02
 11
-9.09999580E+01
 21
-1.12984283E+02
  0
LINE
  8
0
 62
4
 10
-9.59999580E+01
 20
-1.15918674E+02
 11
-9.09999580E+01
 21
-1.15918674E+02
  0
LINE
  8
0
 62
4
 10
-7.64999580E+01
 20
-1.01466245E+02
 11
-8.54999580E+01
 21
-1.01466245E+02
  0
ARC
  8
0
 62
4
 10
-8.54999585E+01
 20
-1.01966245E+02
 40
4.99999542E-01
 50
8.99999475E+01
 51
1.80000053E+02
  0
LINE
  8
0
 62
4
 10
-8.59999580E+01
 20
-1.01966245E+02
 11
-8.59999580E+01
 21
-1.14966245E+02
  0
LINE
  8
0
  6
CENTER
 62
6
 10
-7.34684369E+01
 20
-1.06121857E+02
 11
-6.45314792E+01
 21
-1.06121857E+02
  0
POLYLINE
  8
0
 62
4
 66
1
  0
VERTEX
  8
0
 62
4
 10
-6.59999580E+01
 20
-1.06121857E+02
  0
VERTEX
  8
0
 62
4
 10
-6.60113739E+01
 20
-1.05881175E+02
  0
VERTEX
  8
0
 62
4
 10
-6.60455347E+01
 20
-1.05642325E+02
  0
VERTEX
  8
0
 62
4
 10
-6.61021805E+01
 20
-1.05407124E+02
  0
VERTEX
  8
0
 62
4
 10
-6.61808801E+01
 20
-1.05177363E+02
  0
VERTEX
  8
0
 62
4
 10
-6.62810346E+01
 20
-1.04954791E+02
  0
VERTEX
  8
0
 62
4
 10
-6.64018818E+01
 20
-1.04741100E+02
  0
VERTEX
  8
0
 62
4
 10
-6.65425019E+01
 20
-1.04537917E+02
  0
VERTEX
  8
0
 62
4
 10
-6.67018247E+01
 20
-1.04346790E+02
  0
VERTEX
  8
0
 62
4
 10
-6.68786377E+01
 20
-1.04169171E+02
  0
VERTEX
  8
0
 62
4
 10
-6.70715952E+01
 20
-1.04006414E+02
  0
VERTEX
  8
0
 62
4
 10
-6.72792287E+01
 20
-1.03859757E+02
  0
VERTEX
  8
0
 62
4
 10
-6.74999580E+01
 20
-1.03730315E+02
  0
VERTEX
  8
0
 62
4
 10
-6.77321032E+01
 20
-1.03619075E+02
  0
VERTEX
  8
0
 62
4
 10
-6.79738976E+01
 20
-1.03526882E+02
  0
VERTEX
  8
0
 62
4
 10
-6.82235009E+01
 20
-1.03454439E+02
  0
VERTEX
  8
0
 62
4
 10
-6.84790135E+01
 20
-1.03402296E+02
  0
VERTEX
  8
0
 62
4
 10
-6.87384908E+01
 20
-1.03370851E+02
  0
VERTEX
  8
0
 62
4
 10
-6.89999580E+01
 20
-1.03360342E+02
  0
VERTEX
  8
0
 62
4
 10
-6.92614252E+01
 20
-1.03370851E+02
  0
VERTEX
  8
0
 62
4
 10
-6.95209025E+01
 20
-1.03402296E+02
  0
VERTEX
  8
0
 62
4
 10
-6.97764151E+01
 20
-1.03454439E+02
  0
VERTEX
  8
0
 62
4
 10
-7.00260184E+01
 20
-1.03526882E+02
  0
VERTEX
  8
0
 62
4
 10
-7.02678128E+01
 20
-1.03619075E+02
  0
VERTEX
  8
0
 62
4
 10
-7.04999580E+01
 20
-1.03730315E+02
  0
VERTEX
  8
0
 62
4
 10
-7.07206873E+01
 20
-1.03859757E+02
  0
VERTEX
  8
0
 62
4
 10
-7.09283208E+01
 20
-1.04006414E+02
  0
VERTEX
  8
0
 62
4
 10
-7.11212783E+01
 20
-1.04169171E+02
  0
VERTEX
  8
0
 62
4
 10
-7.12980913E+01
 20
-1.04346790E+02
  0
VERTEX
  8
0
 62
4
 10
-7.14574141E+01
 20
-1.04537917E+02
  0
VERTEX
  8
0
 62
4
 10
-7.15980342E+01
 20
-1.04741100E+02
  0
VERTEX
  8
0
 62
4
 10
-7.17188814E+01
 20
-1.04954791E+02
  0
VERTEX
  8
0
 62
4
 10
-7.18190359E+01
 20
-1.05177363E+02
  0
VERTEX
  8
0
 62
4
 10
-7.18977355E+01
 20
-1.05407124E+02
  0
VERTEX
  8
0
 62
4
 10
-7.19543813E+01
 20
-1.05642325E+02
  0
VERTEX
  8
0
 62
4
 10
-7.19885421E+01
 20
-1.05881175E+02
  0
VERTEX
  8
0
 62
4
 10
-7.19999580E+01
 20
-1.06121857E+02
  0
VERTEX
  8
0
 62
4
 10
-7.19885421E+01
 20
-1.06362539E+02
  0
VERTEX
  8
0
 62
4
 10
-7.19543813E+01
 20
-1.06601389E+02
  0
VERTEX
  8
0
 62
4
 10
-7.18977355E+01
 20
-1.06836590E+02
  0
VERTEX
  8
0
 62
4
 10
-7.18190359E+01
 20
-1.07066351E+02
  0
VERTEX
  8
0
 62
4
 10
-7.17188814E+01
 20
-1.07288923E+02
  0
VERTEX
  8
0
 62
4
 10
-7.15980342E+01
 20
-1.07502614E+02
  0
VERTEX
  8
0
 62
4
 10
-7.14574141E+01
 20
-1.07705797E+02
  0
VERTEX
  8
0
 62
4
 10
-7.12980913E+01
 20
-1.07896924E+02
  0
VERTEX
  8
0
 62
4
 10
-7.11212783E+01
 20
-1.08074543E+02
  0
VERTEX
  8
0
 62
4
 10
-7.09283208E+01
 20
-1.08237300E+02
  0
VERTEX
  8
0
 62
4
 10
-7.07206873E+01
 20
-1.08383957E+02
  0
VERTEX
  8
0
 62
4
 10
-7.04999580E+01
 20
-1.08513399E+02
  0
VERTEX
  8
0
 62
4
 10
-7.02678128E+01
 20
-1.08624639E+02
  0
VERTEX
  8
0
 62
4
 10
-7.00260184E+01
 20
-1.08716832E+02
  0
VERTEX
  8
0
 62
4
 10
-6.97764151E+01
 20
-1.08789275E+02
  0
VERTEX
  8
0
 62
4
 10
-6.95209025E+01
 20
-1.08841418E+02
  0
VERTEX
  8
0
 62
4
 10
-6.92614252E+01
 20
-1.08872863E+02
  0
VERTEX
  8
0
 62
4
 10
-6.89999580E+01
 20
-1.08883372E+02
  0
VERTEX
  8
0
 62
4
 10
-6.87384908E+01
 20
-1.08872863E+02
  0
VERTEX
  8
0
 62
4
 10
-6.84790135E+01
 20
-1.08841418E+02
  0
VERTEX
  8
0
 62
4
 10
-6.82235009E+01
 20
-1.08789275E+02
  0
VERTEX
  8
0
 62
4
 10
-6.79738976E+01
 20
-1.08716832E+02
  0
VERTEX
  8
0
 62
4
 10
-6.77321032E+01
 20
-1.08624639E+02
  0
VERTEX
  8
0
 62
4
 10
-6.74999580E+01
 20
-1.08513399E+02
  0
VERTEX
  8
0
 62
4
 10
-6.72792287E+01
 20
-1.08383957E+02
  0
VERTEX
  8
0
 62
4
 10
-6.70715952E+01
 20
-1.08237300E+02
  0
VERTEX
  8
0
 62
4
 10
-6.68786377E+01
 20
-1.08074543E+02
  0
VERTEX
  8
0
 62
4
 10
-6.67018247E+01
 20
-1.07896924E+02
  0
VERTEX
  8
0
 62
4
 10
-6.65425019E+01
 20
-1.07705797E+02
  0
VERTEX
  8
0
 62
4
 10
-6.64018818E+01
 20
-1.07502614E+02
  0
VERTEX
  8
0
 62
4
 10
-6.62810346E+01
 20
-1.07288923E+02
  0
VERTEX
  8
0
 62
4
 10
-6.61808801E+01
 20
-1.07066351E+02
  0
VERTEX
  8
0
 62
4
 10
-6.61021805E+01
 20
-1.06836590E+02
  0
VERTEX
  8
0
 62
4
 10
-6.60455347E+01
 20
-1.06601389E+02
  0
VERTEX
  8
0
 62
4
 10
-6.60113739E+01
 20
-1.06362539E+02
  0
VERTEX
  8
0
 62
4
 10
-6.59999580E+01
 20
-1.06121857E+02
  0
SEQEND
  8
0
  0
POLYLINE
  8
0
 62
4
 66
1
  0
VERTEX
  8
0
 62
4
 10
-6.49999580E+01
 20
-1.31429601E+02
  0
VERTEX
  8
0
 62
4
 10
-6.50160608E+01
 20
-1.31289502E+02
  0
VERTEX
  8
0
 62
4
 10
-6.50642396E+01
 20
-1.31150530E+02
  0
VERTEX
  8
0
 62
4
 10
-6.51441066E+01
 20
-1.31013805E+02
  0
VERTEX
  8
0
 62
4
 10
-6.52550185E+01
 20
-1.30880429E+02
  0
VERTEX
  8
0
 62
4
 10
-6.53960825E+01
 20
-1.30751473E+02
  0
VERTEX
  8
0
 62
4
 10
-6.55661628E+01
 20
-1.30627978E+02
  0
VERTEX
  8
0
 62
4
 10
-6.57638900E+01
 20
-1.30510937E+02
  0
VERTEX
  8
0
 62
4
 10
-6.59876721E+01
 20
-1.30401292E+02
  0
VERTEX
  8
0
 62
4
 10
-6.62357074E+01
 20
-1.30299927E+02
  0
VERTEX
  8
0
 62
4
 10
-6.65059988E+01
 20
-1.30207657E+02
  0
VERTEX
  8
0
 62
4
 10
-6.67963701E+01
 20
-1.30125226E+02
  0
VERTEX
  8
0
 62
4
 10
-6.71044833E+01
 20
-1.30053297E+02
  0
VERTEX
  8
0
 62
4
 10
-6.74278579E+01
 20
-1.29992449E+02
  0
VERTEX
  8
0
 62
4
 10
-6.77638900E+01
 20
-1.29943171E+02
  0
VERTEX
  8
0
 62
4
 10
-6.81098743E+01
 20
-1.29905862E+02
  0
VERTEX
  8
0
 62
4
 10
-6.84630249E+01
 20
-1.29880821E+02
  0
VERTEX
  8
0
 62
4
 10
-6.88204987E+01
 20
-1.29868250E+02
  0
VERTEX
  8
0
 62
4
 10
-6.91794173E+01
 20
-1.29868250E+02
  0
VERTEX
  8
0
 62
4
 10
-6.95368911E+01
 20
-1.29880821E+02
  0
VERTEX
  8
0
 62
4
 10
-6.98900417E+01
 20
-1.29905862E+02
  0
VERTEX
  8
0
 62
4
 10
-7.02360260E+01
 20
-1.29943171E+02
  0
VERTEX
  8
0
 62
4
 10
-7.05720581E+01
 20
-1.29992449E+02
  0
VERTEX
  8
0
 62
4
 10
-7.08954326E+01
 20
-1.30053297E+02
  0
VERTEX
  8
0
 62
4
 10
-7.12035459E+01
 20
-1.30125226E+02
  0
VERTEX
  8
0
 62
4
 10
-7.14939172E+01
 20
-1.30207657E+02
  0
VERTEX
  8
0
 62
4
 10
-7.17642086E+01
 20
-1.30299927E+02
  0
VERTEX
  8
0
 62
4
 10
-7.20122439E+01
 20
-1.30401292E+02
  0
VERTEX
  8
0
 62
4
 10
-7.22360260E+01
 20
-1.30510937E+02
  0
VERTEX
  8
0
 62
4
 10
-7.24337532E+01
 20
-1.30627978E+02
  0
VERTEX
  8
0
 62
4
 10
-7.26038335E+01
 20
-1.30751473E+02
  0
VERTEX
  8
0
 62
4
 10
-7.27448975E+01
 20
-1.30880429E+02
  0
VERTEX
  8
0
 62
4
 10
-7.28558094E+01
 20
-1.31013805E+02
  0
VERTEX
  8
0
 62
4
 10
-7.29356764E+01
 20
-1.31150530E+02
  0
VERTEX
  8
0
 62
4
 10
-7.29838552E+01
 20
-1.31289502E+02
  0
VERTEX
  8
0
 62
4
 10
-7.29999580E+01
 20
-1.31429601E+02
  0
SEQEND
  8
0
  0
POLYLINE
  8
0
 62
4
 66
1
  0
VERTEX
  8
0
 62
4
 10
-6.55999580E+01
 20
-1.32713176E+02
  0
VERTEX
  8
0
 62
4
 10
-6.54269060E+01
 20
-1.32592442E+02
  0
VERTEX
  8
0
 62
4
 10
-6.52818630E+01
 20
-1.32466202E+02
  0
VERTEX
  8
0
 62
4
 10
-6.51659662E+01
 20
-1.32335443E+02
  0
VERTEX
  8
0
 62
4
 10
-6.50801239E+01
 20
-1.32201191E+02
  0
VERTEX
  8
0
 62
4
 10
-6.50250091E+01
 20
-1.32064499E+02
  0
VERTEX
  8
0
 62
4
 10
-6.50010539E+01
 20
-1.31926437E+02
  0
VERTEX
  8
0
 62
4
 10
-6.50084461E+01
 20
-1.31788089E+02
  0
VERTEX
  8
0
 62
4
 10
-6.50471276E+01
 20
-1.31650539E+02
  0
VERTEX
  8
0
 62
4
 10
-6.51167953E+01
 20
-1.31514865E+02
  0
VERTEX
  8
0
 62
4
 10
-6.52169030E+01
 20
-1.31382130E+02
  0
VERTEX
  8
0
 62
4
 10
-6.53466661E+01
 20
-1.31253375E+02
  0
VERTEX
  8
0
 62
4
 10
-6.55050672E+01
 20
-1.31129609E+02
  0
VERTEX
  8
0
 62
4
 10
-6.56908647E+01
 20
-1.31011804E+02
  0
VERTEX
  8
0
 62
4
 10
-6.59026022E+01
 20
-1.30900881E+02
  0
VERTEX
  8
0
 62
4
 10
-6.61386198E+01
 20
-1.30797710E+02
  0
VERTEX
  8
0
 62
4
 10
-6.63970673E+01
 20
-1.30703101E+02
  0
VERTEX
  8
0
 62
4
 10
-6.66759189E+01
 20
-1.30617795E+02
  0
VERTEX
  8
0
 62
4
 10
-6.69729885E+01
 20
-1.30542461E+02
  0
VERTEX
  8
0
 62
4
 10
-6.72859476E+01
 20
-1.30477688E+02
  0
VERTEX
  8
0
 62
4
 10
-6.76123427E+01
 20
-1.30423986E+02
  0
VERTEX
  8
0
 62
4
 10
-6.79496154E+01
 20
-1.30381775E+02
  0
VERTEX
  8
0
 62
4
 10
-6.82951216E+01
 20
-1.30351385E+02
  0
VERTEX
  8
0
 62
4
 10
-6.86461531E+01
 20
-1.30333055E+02
  0
VERTEX
  8
0
 62
4
 10
-6.89999580E+01
 20
-1.30326929E+02
  0
VERTEX
  8
0
 62
4
 10
-6.93537629E+01
 20
-1.30333055E+02
  0
VERTEX
  8
0
 62
4
 10
-6.97047944E+01
 20
-1.30351385E+02
  0
VERTEX
  8
0
 62
4
 10
-7.00503006E+01
 20
-1.30381775E+02
  0
VERTEX
  8
0
 62
4
 10
-7.03875732E+01
 20
-1.30423986E+02
  0
VERTEX
  8
0
 62
4
 10
-7.07139684E+01
 20
-1.30477688E+02
  0
VERTEX
  8
0
 62
4
 10
-7.10269274E+01
 20
-1.30542461E+02
  0
VERTEX
  8
0
 62
4
 10
-7.13239971E+01
 20
-1.30617795E+02
  0
VERTEX
  8
0
 62
4
 10
-7.16028487E+01
 20
-1.30703101E+02
  0
VERTEX
  8
0
 62
4
 10
-7.18612962E+01
 20
-1.30797710E+02
  0
VERTEX
  8
0
 62
4
 10
-7.20973138E+01
 20
-1.30900881E+02
  0
VERTEX
  8
0
 62
4
 10
-7.23090512E+01
 20
-1.31011804E+02
  0
VERTEX
  8
0
 62
4
 10
-7.24948488E+01
 20
-1.31129609E+02
  0
VERTEX
  8
0
 62
4
 10
-7.26532499E+01
 20
-1.31253375E+02
  0
VERTEX
  8
0
 62
4
 10
-7.27830130E+01
 20
-1.31382130E+02
  0
VERTEX
  8
0
 62
4
 10
-7.28831207E+01
 20
-1.31514865E+02
  0
VERTEX
  8
0
 62
4
 10
-7.29527884E+01
 20
-1.31650539E+02
  0
VERTEX
  8
0
 62
4
 10
-7.29914699E+01
 20
-1.31788089E+02
  0
VERTEX
  8
0
 62
4
 10
-7.29988621E+01
 20
-1.31926437E+02
  0
VERTEX
  8
0
 62
4
 10
-7.29749069E+01
 20
-1.32064499E+02
  0
VERTEX
  8
0
 62
4
 10
-7.29197921E+01
 20
-1.32201191E+02
  0
VERTEX
  8
0
 62
4
 10
-7.28339498E+01
 20
-1.32335443E+02
  0
VERTEX
  8
0
 62
4
 10
-7.27180530E+01
 20
-1.32466202E+02
  0
VERTEX
  8
0
 62
4
 10
-7.25730100E+01
 20
-1.32592442E+02
  0
VERTEX
  8
0
 62
4
 10
-7.23999580E+01
 20
-1.32713176E+02
  0
SEQEND
  8
0
  0
LINE
  8
0
 62
4
 10
-6.49999580E+01
 20
-1.31429601E+02
 11
-6.49999580E+01
 21
-1.31889854E+02
  0
LINE
  8
0
 62
4
 10
-7.29999580E+01
 20
-1.31429601E+02
 11
-7.29999580E+01
 21
-1.31889854E+02
  0
POLYLINE
  8
0
 62
4
 66
1
  0
VERTEX
  8
0
 62
4
 10
-6.55999580E+01
 20
-1.31889854E+02
  0
VERTEX
  8
0
 62
4
 10
-6.56136454E+01
 20
-1.31770769E+02
  0
VERTEX
  8
0
 62
4
 10
-6.56545974E+01
 20
-1.31652644E+02
  0
VERTEX
  8
0
 62
4
 10
-6.57224843E+01
 20
-1.31536428E+02
  0
VERTEX
  8
0
 62
4
 10
-6.58167594E+01
 20
-1.31423058E+02
  0
VERTEX
  8
0
 62
4
 10
-6.59366638E+01
 20
-1.31313446E+02
  0
VERTEX
  8
0
 62
4
 10
-6.60812321E+01
 20
-1.31208475E+02
  0
VERTEX
  8
0
 62
4
 10
-6.62493002E+01
 20
-1.31108990E+02
  0
VERTEX
  8
0
 62
4
 10
-6.64395150E+01
 20
-1.31015792E+02
  0
VERTEX
  8
0
 62
4
 10
-6.66503450E+01
 20
-1.30929631E+02
  0
VERTEX
  8
0
 62
4
 10
-6.68800927E+01
 20
-1.30851202E+02
  0
VERTEX
  8
0
 62
4
 10
-6.71269083E+01
 20
-1.30781135E+02
  0
VERTEX
  8
0
 62
4
 10
-6.73888045E+01
 20
-1.30719995E+02
  0
VERTEX
  8
0
 62
4
 10
-6.76636729E+01
 20
-1.30668274E+02
  0
VERTEX
  8
0
 62
4
 10
-6.79493002E+01
 20
-1.30626389E+02
  0
VERTEX
  8
0
 62
4
 10
-6.82433868E+01
 20
-1.30594676E+02
  0
VERTEX
  8
0
 62
4
 10
-6.85435649E+01
 20
-1.30573391E+02
  0
VERTEX
  8
0
 62
4
 10
-6.88474176E+01
 20
-1.30562706E+02
  0
VERTEX
  8
0
 62
4
 10
-6.91524984E+01
 20
-1.30562706E+02
  0
VERTEX
  8
0
 62
4
 10
-6.94563511E+01
 20
-1.30573391E+02
  0
VERTEX
  8
0
 62
4
 10
-6.97565292E+01
 20
-1.30594676E+02
  0
VERTEX
  8
0
 62
4
 10
-7.00506158E+01
 20
-1.30626389E+02
  0
VERTEX
  8
0
 62
4
 10
-7.03362431E+01
 20
-1.30668274E+02
  0
VERTEX
  8
0
 62
4
 10
-7.06111114E+01
 20
-1.30719995E+02
  0
VERTEX
  8
0
 62
4
 10
-7.08730077E+01
 20
-1.30781135E+02
  0
VERTEX
  8
0
 62
4
 10
-7.11198233E+01
 20
-1.30851202E+02
  0
VERTEX
  8
0
 62
4
 10
-7.13495710E+01
 20
-1.30929631E+02
  0
VERTEX
  8
0
 62
4
 10
-7.15604010E+01
 20
-1.31015792E+02
  0
VERTEX
  8
0
 62
4
 10
-7.17506158E+01
 20
-1.31108990E+02
  0
VERTEX
  8
0
 62
4
 10
-7.19186839E+01
 20
-1.31208475E+02
  0
VERTEX
  8
0
 62
4
 10
-7.20632521E+01
 20
-1.31313446E+02
  0
VERTEX
  8
0
 62
4
 10
-7.21831566E+01
 20
-1.31423058E+02
  0
VERTEX
  8
0
 62
4
 10
-7.22774317E+01
 20
-1.31536428E+02
  0
VERTEX
  8
0
 62
4
 10
-7.23453186E+01
 20
-1.31652644E+02
  0
VERTEX
  8
0
 62
4
 10
-7.23862706E+01
 20
-1.31770769E+02
  0
VERTEX
  8
0
 62
4
 10
-7.23999580E+01
 20
-1.31889854E+02
  0
SEQEND
  8
0
  0
ARC
  8
0
 62
4
 10
-7.32355530E+01
 20
-1.23224838E+02
 40
1.21769740E+01
 50
2.81737853E+02
 51
2.99537899E+02
  0
ARC
  8
0
 62
4
 10
-6.47643630E+01
 20
-1.23224838E+02
 40
1.21769740E+01
 50
2.40462101E+02
 51
2.58262147E+02
  0
LINE
  8
0
 62
4
 10
-7.94999576E+01
 20
-1.34360085E+02
 11
-7.21822669E+01
 21
-1.34360085E+02
  0
LINE
  8
0
 62
4
 10
-6.58176492E+01
 20
-1.34360085E+02
 11
-4.34999547E+01
 21
-1.34360085E+02
  0
LINE
  8
0
  6
CENTER
 62
6
 10
-5.29999580E+01
 20
-1.10895938E+02
 11
-5.29999580E+01
 21
-1.23228727E+02
  0
LINE
  8
0
  6
CENTER
 62
6
 10
-5.91663523E+01
 20
-1.17062332E+02
 11
-4.68335638E+01
 21
-1.17062332E+02
  0
POLYLINE
  8
0
 62
4
 66
1
  0
VERTEX
  8
0
 62
4
 10
-6.55999580E+01
 20
-1.33785592E+02
  0
VERTEX
  8
0
 62
4
 10
-6.56128960E+01
 20
-1.33643376E+02
  0
VERTEX
  8
0
 62
4
 10
-6.56516116E+01
 20
-1.33502241E+02
  0
VERTEX
  8
0
 62
4
 10
-6.57158102E+01
 20
-1.33363264E+02
  0
VERTEX
  8
0
 62
4
 10
-6.58050031E+01
 20
-1.33227500E+02
  0
VERTEX
  8
0
 62
4
 10
-6.59185115E+01
 20
-1.33095984E+02
  0
VERTEX
  8
0
 62
4
 10
-6.60554716E+01
 20
-1.32969717E+02
  0
VERTEX
  8
0
 62
4
 10
-6.62148410E+01
 20
-1.32849658E+02
  0
VERTEX
  8
0
 62
4
 10
-6.63954069E+01
 20
-1.32736723E+02
  0
VERTEX
  8
0
 62
4
 10
-6.65957949E+01
 20
-1.32631770E+02
  0
VERTEX
  8
0
 62
4
 10
-6.68144801E+01
 20
-1.32535598E+02
  0
VERTEX
  8
0
 62
4
 10
-6.70497981E+01
 20
-1.32448940E+02
  0
VERTEX
  8
0
 62
4
 10
-6.72999580E+01
 20
-1.32372454E+02
  0
VERTEX
  8
0
 62
4
 10
-6.75630559E+01
 20
-1.32306724E+02
  0
VERTEX
  8
0
 62
4
 10
-6.78370895E+01
 20
-1.32252248E+02
  0
VERTEX
  8
0
 62
4
 10
-6.81199732E+01
 20
-1.32209442E+02
  0
VERTEX
  8
0
 62
4
 10
-6.84095542E+01
 20
-1.32178631E+02
  0
VERTEX
  8
0
 62
4
 10
-6.87036285E+01
 20
-1.32160050E+02
  0
VERTEX
  8
0
 62
4
 10
-6.89999580E+01
 20
-1.32153841E+02
  0
VERTEX
  8
0
 62
4
 10
-6.92962875E+01
 20
-1.32160050E+02
  0
VERTEX
  8
0
 62
4
 10
-6.95903618E+01
 20
-1.32178631E+02
  0
VERTEX
  8
0
 62
4
 10
-6.98799428E+01
 20
-1.32209442E+02
  0
VERTEX
  8
0
 62
4
 10
-7.01628265E+01
 20
-1.32252248E+02
  0
VERTEX
  8
0
 62
4
 10
-7.04368601E+01
 20
-1.32306724E+02
  0
VERTEX
  8
0
 62
4
 10
-7.06999580E+01
 20
-1.32372454E+02
  0
VERTEX
  8
0
 62
4
 10
-7.09501179E+01
 20
-1.32448940E+02
  0
VERTEX
  8
0
 62
4
 10
-7.11854359E+01
 20
-1.32535598E+02
  0
VERTEX
  8
0
 62
4
 10
-7.14041211E+01
 20
-1.32631770E+02
  0
VERTEX
  8
0
 62
4
 10
-7.16045091E+01
 20
-1.32736723E+02
  0
VERTEX
  8
0
 62
4
 10
-7.17850750E+01
 20
-1.32849658E+02
  0
VERTEX
  8
0
 62
4
 10
-7.19444444E+01
 20
-1.32969717E+02
  0
VERTEX
  8
0
 62
4
 10
-7.20814045E+01
 20
-1.33095984E+02
  0
VERTEX
  8
0
 62
4
 10
-7.21949129E+01
 20
-1.33227500E+02
  0
VERTEX
  8
0
 62
4
 10
-7.22841058E+01
 20
-1.33363264E+02
  0
VERTEX
  8
0
 62
4
 10
-7.23483044E+01
 20
-1.33502241E+02
  0
VERTEX
  8
0
 62
4
 10
-7.23870200E+01
 20
-1.33643376E+02
  0
VERTEX
  8
0
 62
4
 10
-7.23999580E+01
 20
-1.33785592E+02
  0
VERTEX
  8
0
 62
4
 10
-7.23870200E+01
 20
-1.33927808E+02
  0
VERTEX
  8
0
 62
4
 10
-7.23483044E+01
 20
-1.34068943E+02
  0
VERTEX
  8
0
 62
4
 10
-7.22841058E+01
 20
-1.34207920E+02
  0
VERTEX
  8
0
 62
4
 10
-7.21949129E+01
 20
-1.34343684E+02
  0
VERTEX
  8
0
 62
4
 10
-7.20814045E+01
 20
-1.34475200E+02
  0
VERTEX
  8
0
 62
4
 10
-7.19444444E+01
 20
-1.34601467E+02
  0
VERTEX
  8
0
 62
4
 10
-7.17850749E+01
 20
-1.34721526E+02
  0
VERTEX
  8
0
 62
4
 10
-7.16045091E+01
 20
-1.34834461E+02
  0
VERTEX
  8
0
 62
4
 10
-7.14041211E+01
 20
-1.34939414E+02
  0
VERTEX
  8
0
 62
4
 10
-7.11854359E+01
 20
-1.35035586E+02
  0
VERTEX
  8
0
 62
4
 10
-7.09501179E+01
 20
-1.35122244E+02
  0
VERTEX
  8
0
 62
4
 10
-7.06999580E+01
 20
-1.35198730E+02
  0
VERTEX
  8
0
 62
4
 10
-7.04368601E+01
 20
-1.35264460E+02
  0
VERTEX
  8
0
 62
4
 10
-7.01628265E+01
 20
-1.35318936E+02
  0
VERTEX
  8
0
 62
4
 10
-6.98799427E+01
 20
-1.35361742E+02
  0
VERTEX
  8
0
 62
4
 10
-6.95903618E+01
 20
-1.35392553E+02
  0
VERTEX
  8
0
 62
4
 10
-6.92962875E+01
 20
-1.35411134E+02
  0
VERTEX
  8
0
 62
4
 10
-6.89999580E+01
 20
-1.35417343E+02
  0
VERTEX
  8
0
 62
4
 10
-6.87036285E+01
 20
-1.35411134E+02
  0
VERTEX
  8
0
 62
4
 10
-6.84095542E+01
 20
-1.35392553E+02
  0
VERTEX
  8
0
 62
4
 10
-6.81199732E+01
 20
-1.35361742E+02
  0
VERTEX
  8
0
 62
4
 10
-6.78370895E+01
 20
-1.35318936E+02
  0
VERTEX
  8
0
 62
4
 10
-6.75630559E+01
 20
-1.35264460E+02
  0
VERTEX
  8
0
 62
4
 10
-6.72999580E+01
 20
-1.35198730E+02
  0
VERTEX
  8
0
 62
4
 10
-6.70497981E+01
 20
-1.35122244E+02
  0
VERTEX
  8
0
 62
4
 10
-6.68144801E+01
 20
-1.35035586E+02
  0
VERTEX
  8
0
 62
4
 10
-6.65957949E+01
 20
-1.34939414E+02
  0
VERTEX
  8
0
 62
4
 10
-6.63954069E+01
 20
-1.34834461E+02
  0
VERTEX
  8
0
 62
4
 10
-6.62148410E+01
 20
-1.34721526E+02
  0
VERTEX
  8
0
 62
4
 10
-6.60554716E+01
 20
-1.34601467E+02
  0
VERTEX
  8
0
 62
4
 10
-6.59185115E+01
 20
-1.34475200E+02
  0
VERTEX
  8
0
 62
4
 10
-6.58050031E+01
 20
-1.34343684E+02
  0
VERTEX
  8
0
 62
4
 10
-6.57158102E+01
 20
-1.34207920E+02
  0
VERTEX
  8
0
 62
4
 10
-6.56516116E+01
 20
-1.34068943E+02
  0
VERTEX
  8
0
 62
4
 10
-6.56128960E+01
 20
-1.33927808E+02
  0
VERTEX
  8
0
 62
4
 10
-6.55999580E+01
 20
-1.33785592E+02
  0
SEQEND
  8
0
  0
POLYLINE
  8
0
 62
4
 66
1
  0
VERTEX
  8
0
 62
4
 10
-5.47553789E+01
 20
-1.14665818E+02
  0
VERTEX
  8
0
 62
4
 10
-5.50166620E+01
 20
-1.14819887E+02
  0
VERTEX
  8
0
 62
4
 10
-5.52620941E+01
 20
-1.14994653E+02
  0
VERTEX
  8
0
 62
4
 10
-5.54897462E+01
 20
-1.15188742E+02
  0
VERTEX
  8
0
 62
4
 10
-5.56978289E+01
 20
-1.15400628E+02
  0
VERTEX
  8
0
 62
4
 10
-5.58847067E+01
 20
-1.15628645E+02
  0
VERTEX
  8
0
 62
4
 10
-5.60489108E+01
 20
-1.15871003E+02
  0
VERTEX
  8
0
 62
4
 10
-5.61891505E+01
 20
-1.16125795E+02
  0
VERTEX
  8
0
 62
4
 10
-5.63043237E+01
 20
-1.16391019E+02
  0
VERTEX
  8
0
 62
4
 10
-5.63935250E+01
 20
-1.16664591E+02
  0
VERTEX
  8
0
 62
4
 10
-5.64560533E+01
 20
-1.16944360E+02
  0
VERTEX
  8
0
 62
4
 10
-5.64914172E+01
 20
-1.17228127E+02
  0
VERTEX
  8
0
 62
4
 10
-5.64993388E+01
 20
-1.17513663E+02
  0
VERTEX
  8
0
 62
4
 10
-5.64797557E+01
 20
-1.17798722E+02
  0
VERTEX
  8
0
 62
4
 10
-5.64328219E+01
 20
-1.18081064E+02
  0
VERTEX
  8
0
 62
4
 10
-5.63589063E+01
 20
-1.18358470E+02
  0
VERTEX
  8
0
 62
4
 10
-5.62585898E+01
 20
-1.18628760E+02
  0
VERTEX
  8
0
 62
4
 10
-5.61326610E+01
 20
-1.18889809E+02
  0
VERTEX
  8
0
 62
4
 10
-5.59821095E+01
 20
-1.19139566E+02
  0
VERTEX
  8
0
 62
4
 10
-5.58081188E+01
 20
-1.19376066E+02
  0
VERTEX
  8
0
 62
4
 10
-5.56120563E+01
 20
-1.19597453E+02
  0
VERTEX
  8
0
 62
4
 10
-5.53954631E+01
 20
-1.19801984E+02
  0
VERTEX
  8
0
 62
4
 10
-5.51600416E+01
 20
-1.19988054E+02
  0
VERTEX
  8
0
 62
4
 10
-5.49076421E+01
 20
-1.20154198E+02
  0
VERTEX
  8
0
 62
4
 10
-5.46402485E+01
 20
-1.20299113E+02
  0
VERTEX
  8
0
 62
4
 10
-5.43599624E+01
 20
-1.20421657E+02
  0
VERTEX
  8
0
 62
4
 10
-5.40689869E+01
 20
-1.20520869E+02
  0
VERTEX
  8
0
 62
4
 10
-5.37696090E+01
 20
-1.20595969E+02
  0
VERTEX
  8
0
 62
4
 10
-5.34641817E+01
 20
-1.20646365E+02
  0
VERTEX
  8
0
 62
4
 10
-5.31551057E+01
 20
-1.20671663E+02
  0
VERTEX
  8
0
 62
4
 10
-5.28448103E+01
 20
-1.20671663E+02
  0
VERTEX
  8
0
 62
4
 10
-5.25357343E+01
 20
-1.20646365E+02
  0
VERTEX
  8
0
 62
4
 10
-5.22303070E+01
 20
-1.20595969E+02
  0
VERTEX
  8
0
 62
4
 10
-5.19309291E+01
 20
-1.20520869E+02
  0
VERTEX
  8
0
 62
4
 10
-5.16399536E+01
 20
-1.20421657E+02
  0
VERTEX
  8
0
 62
4
 10
-5.13596675E+01
 20
-1.20299113E+02
  0
VERTEX
  8
0
 62
4
 10
-5.10922739E+01
 20
-1.20154198E+02
  0
VERTEX
  8
0
 62
4
 10
-5.08398744E+01
 20
-1.19988054E+02
  0
VERTEX
  8
0
 62
4
 10
-5.06044529E+01
 20
-1.19801984E+02
  0
VERTEX
  8
0
 62
4
 10
-5.03878597E+01
 20
-1.19597453E+02
  0
VERTEX
  8
0
 62
4
 10
-5.01917972E+01
 20
-1.19376066E+02
  0
VERTEX
  8
0
 62
4
 10
-5.00178065E+01
 20
-1.19139566E+02
  0
VERTEX
  8
0
 62
4
 10
-4.98672550E+01
 20
-1.18889809E+02
  0
VERTEX
  8
0
 62
4
 10
-4.97413262E+01
 20
-1.18628760E+02
  0
VERTEX
  8
0
 62
4
 10
-4.96410097E+01
 20
-1.18358470E+02
  0
VERTEX
  8
0
 62
4
 10
-4.95670941E+01
 20
-1.18081064E+02
  0
VERTEX
  8
0
 62
4
 10
-4.95201603E+01
 20
-1.17798722E+02
  0
VERTEX
  8
0
 62
4
 10
-4.95005772E+01
 20
-1.17513663E+02
  0
VERTEX
  8
0
 62
4
 10
-4.95084988E+01
 20
-1.17228127E+02
  0
VERTEX
  8
0
 62
4
 10
-4.95438627E+01
 20
-1.16944360E+02
  0
VERTEX
  8
0
 62
4
 10
-4.96063910E+01
 20
-1.16664591E+02
  0
VERTEX
  8
0
 62
4
 10
-4.96955923E+01
 20
-1.16391019E+02
  0
VERTEX
  8
0
 62
4
 10
-4.98107655E+01
 20
-1.16125795E+02
  0
VERTEX
  8
0
 62
4
 10
-4.99510052E+01
 20
-1.15871003E+02
  0
VERTEX
  8
0
 62
4
 10
-5.01152093E+01
 20
-1.15628645E+02
  0
VERTEX
  8
0
 62
4
 10
-5.03020871E+01
 20
-1.15400628E+02
  0
VERTEX
  8
0
 62
4
 10
-5.05101698E+01
 20
-1.15188742E+02
  0
VERTEX
  8
0
 62
4
 10
-5.07378219E+01
 20
-1.14994653E+02
  0
VERTEX
  8
0
 62
4
 10
-5.09832540E+01
 20
-1.14819887E+02
  0
VERTEX
  8
0
 62
4
 10
-5.12445371E+01
 20
-1.14665818E+02
  0
SEQEND
  8
0
  0
POLYLINE
  8
0
 62
4
 66
1
  0
VERTEX
  8
0
 62
4
 10
-4.98599580E+01
 20
-1.17062332E+02
  0
VERTEX
  8
0
 62
4
 10
-4.98719066E+01
 20
-1.16810418E+02
  0
VERTEX
  8
0
 62
4
 10
-4.99076617E+01
 20
-1.16560422E+02
  0
VERTEX
  8
0
 62
4
 10
-4.99669509E+01
 20
-1.16314245E+02
  0
VERTEX
  8
0
 62
4
 10
-5.00493232E+01
 20
-1.16073762E+02
  0
VERTEX
  8
0
 62
4
 10
-5.01541515E+01
 20
-1.15840802E+02
  0
VERTEX
  8
0
 62
4
 10
-5.02806382E+01
 20
-1.15617139E+02
  0
VERTEX
  8
0
 62
4
 10
-5.04278206E+01
 20
-1.15404475E+02
  0
VERTEX
  8
0
 62
4
 10
-5.05945784E+01
 20
-1.15204428E+02
  0
VERTEX
  8
0
 62
4
 10
-5.07796427E+01
 20
-1.15018521E+02
  0
VERTEX
  8
0
 62
4
 10
-5.09816049E+01
 20
-1.14848168E+02
  0
VERTEX
  8
0
 62
4
 10
-5.11989280E+01
 20
-1.14694667E+02
  0
VERTEX
  8
0
 62
4
 10
-5.14299580E+01
 20
-1.14559185E+02
  0
VERTEX
  8
0
 62
4
 10
-5.16729367E+01
 20
-1.14442753E+02
  0
VERTEX
  8
0
 62
4
 10
-5.19260148E+01
 20
-1.14346258E+02
  0
VERTEX
  8
0
 62
4
 10
-5.21872662E+01
 20
-1.14270434E+02
  0
VERTEX
  8
0
 62
4
 10
-5.24547027E+01
 20
-1.14215858E+02
  0
VERTEX
  8
0
 62
4
 10
-5.27262890E+01
 20
-1.14182946E+02
  0
VERTEX
  8
0
 62
4
 10
-5.29999580E+01
 20
-1.14171947E+02
  0
VERTEX
  8
0
 62
4
 10
-5.32736270E+01
 20
-1.14182946E+02
  0
VERTEX
  8
0
 62
4
 10
-5.35452133E+01
 20
-1.14215858E+02
  0
VERTEX
  8
0
 62
4
 10
-5.38126498E+01
 20
-1.14270434E+02
  0
VERTEX
  8
0
 62
4
 10
-5.40739013E+01
 20
-1.14346258E+02
  0
VERTEX
  8
0
 62
4
 10
-5.43269793E+01
 20
-1.14442753E+02
  0
VERTEX
  8
0
 62
4
 10
-5.45699580E+01
 20
-1.14559185E+02
  0
VERTEX
  8
0
 62
4
 10
-5.48009880E+01
 20
-1.14694667E+02
  0
VERTEX
  8
0
 62
4
 10
-5.50183111E+01
 20
-1.14848168E+02
  0
VERTEX
  8
0
 62
4
 10
-5.52202733E+01
 20
-1.15018521E+02
  0
VERTEX
  8
0
 62
4
 10
-5.54053376E+01
 20
-1.15204428E+02
  0
VERTEX
  8
0
 62
4
 10
-5.55720954E+01
 20
-1.15404475E+02
  0
VERTEX
  8
0
 62
4
 10
-5.57192778E+01
 20
-1.15617139E+02
  0
VERTEX
  8
0
 62
4
 10
-5.58457645E+01
 20
-1.15840802E+02
  0
VERTEX
  8
0
 62
4
 10
-5.59505928E+01
 20
-1.16073762E+02
  0
VERTEX
  8
0
 62
4
 10
-5.60329651E+01
 20
-1.16314245E+02
  0
VERTEX
  8
0
 62
4
 10
-5.60922543E+01
 20
-1.16560422E+02
  0
VERTEX
  8
0
 62
4
 10
-5.61280094E+01
 20
-1.16810418E+02
  0
VERTEX
  8
0
 62
4
 10
-5.61399580E+01
 20
-1.17062332E+02
  0
VERTEX
  8
0
 62
4
 10
-5.61280094E+01
 20
-1.17314246E+02
  0
VERTEX
  8
0
 62
4
 10
-5.60922543E+01
 20
-1.17564242E+02
  0
VERTEX
  8
0
 62
4
 10
-5.60329651E+01
 20
-1.17810419E+02
  0
VERTEX
  8
0
 62
4
 10
-5.59505928E+01
 20
-1.18050902E+02
  0
VERTEX
  8
0
 62
4
 10
-5.58457644E+01
 20
-1.18283862E+02
  0
VERTEX
  8
0
 62
4
 10
-5.57192778E+01
 20
-1.18507525E+02
  0
VERTEX
  8
0
 62
4
 10
-5.55720954E+01
 20
-1.18720189E+02
  0
VERTEX
  8
0
 62
4
 10
-5.54053375E+01
 20
-1.18920236E+02
  0
VERTEX
  8
0
 62
4
 10
-5.52202733E+01
 20
-1.19106143E+02
  0
VERTEX
  8
0
 62
4
 10
-5.50183111E+01
 20
-1.19276496E+02
  0
VERTEX
  8
0
 62
4
 10
-5.48009880E+01
 20
-1.19429997E+02
  0
VERTEX
  8
0
 62
4
 10
-5.45699580E+01
 20
-1.19565479E+02
  0
VERTEX
  8
0
 62
4
 10
-5.43269793E+01
 20
-1.19681911E+02
  0
VERTEX
  8
0
 62
4
 10
-5.40739012E+01
 20
-1.19778406E+02
  0
VERTEX
  8
0
 62
4
 10
-5.38126498E+01
 20
-1.19854230E+02
  0
VERTEX
  8
0
 62
4
 10
-5.35452133E+01
 20
-1.19908806E+02
  0
VERTEX
  8
0
 62
4
 10
-5.32736270E+01
 20
-1.19941718E+02
  0
VERTEX
  8
0
 62
4
 10
-5.29999580E+01
 20
-1.19952717E+02
  0
VERTEX
  8
0
 62
4
 10
-5.27262890E+01
 20
-1.19941718E+02
  0
VERTEX
  8
0
 62
4
 10
-5.24547027E+01
 20
-1.19908806E+02
  0
VERTEX
  8
0
 62
4
 10
-5.21872662E+01
 20
-1.19854230E+02
  0
VERTEX
  8
0
 62
4
 10
-5.19260147E+01
 20
-1.19778406E+02
  0
VERTEX
  8
0
 62
4
 10
-5.16729367E+01
 20
-1.19681911E+02
  0
VERTEX
  8
0
 62
4
 10
-5.14299580E+01
 20
-1.19565479E+02
  0
VERTEX
  8
0
 62
4
 10
-5.11989280E+01
 20
-1.19429997E+02
  0
VERTEX
  8
0
 62
4
 10
-5.09816049E+01
 20
-1.19276496E+02
  0
VERTEX
  8
0
 62
4
 10
-5.07796427E+01
 20
-1.19106143E+02
  0
VERTEX
  8
0
 62
4
 10
-5.05945784E+01
 20
-1.18920236E+02
  0
VERTEX
  8
0
 62
4
 10
-5.04278206E+01
 20
-1.18720189E+02
  0
VERTEX
  8
0
 62
4
 10
-5.02806382E+01
 20
-1.18507525E+02
  0
VERTEX
  8
0
 62
4
 10
-5.01541515E+01
 20
-1.18283862E+02
  0
VERTEX
  8
0
 62
4
 10
-5.00493232E+01
 20
-1.18050902E+02
  0
VERTEX
  8
0
 62
4
 10
-4.99669509E+01
 20
-1.17810419E+02
  0
VERTEX
  8
0
 62
4
 10
-4.99076617E+01
 20
-1.17564242E+02
  0
VERTEX
  8
0
 62
4
 10
-4.98719066E+01
 20
-1.17314246E+02
  0
VERTEX
  8
0
 62
4
 10
-4.98599580E+01
 20
-1.17062332E+02
  0
SEQEND
  8
0
  0
LINE
  8
0
 62
4
 10
-7.84999580E+01
 20
-1.26197841E+02
 11
-5.94999580E+01
 21
-1.26197841E+02
  0
LINE
  8
0
 62
4
 10
3.33499950E+02
 20
-2.70173498E+02
 11
3.48499950E+02
 21
-2.70173498E+02
  0
LINE
  8
0
 62
4
 10
3.33499950E+02
 20
-2.95109131E+02
 11
3.48499950E+02
 21
-2.95109131E+02
  0
LINE
  8
0
 62
4
 10
3.34499950E+02
 20
-2.84137925E+02
 11
3.47499950E+02
 21
-2.84137925E+02
  0
LINE
  8
0
 62
4
 10
3.48499950E+02
 20
-2.67440734E+02
 11
3.48499950E+02
 21
-2.95109131E+02
  0
LINE
  8
0
 62
4
 10
3.33499950E+02
 20
-2.67440734E+02
 11
3.33499950E+02
 21
-2.95109131E+02
  0
LINE
  8
0
  6
CENTER
 62
6
 10
3.44999950E+02
 20
-2.86740123E+02
 11
3.44999950E+02
 21
-2.96740123E+02
  0
LINE
  8
0
  6
CENTER
 62
6
 10
3.36999950E+02
 20
-2.86740123E+02
 11
3.36999950E+02
 21
-2.96740123E+02
  0
LINE
  8
0
  6
CENTER
 62
6
 10
3.31999950E+02
 20
-2.91740123E+02
 11
3.49999950E+02
 21
-2.91740123E+02
  0
LINE
  8
0
 62
4
 10
3.61499950E+02
 20
-2.33068856E+02
 11
3.57999950E+02
 21
-2.33068856E+02
  0
LINE
  8
0
 62
4
 10
3.51499950E+02
 20
-2.63503648E+02
 11
3.15499950E+02
 21
-2.63503648E+02
  0
LINE
  8
0
 62
4
 10
3.67999950E+02
 20
-2.31915048E+02
 11
3.62999950E+02
 21
-2.31915048E+02
  0
LINE
  8
0
 62
4
 10
3.48499950E+02
 20
-2.31818856E+02
 11
3.57499950E+02
 21
-2.31818856E+02
  0
LINE
  8
0
 62
4
 10
3.57999950E+02
 20
-2.32318856E+02
 11
3.57999950E+02
 21
-2.45318856E+02
  0
LINE
  8
0
 62
4
 10
3.67999950E+02
 20
-2.31915048E+02
 11
3.67999950E+02
 21
-2.45731826E+02
  0
LINE
  8
0
 62
4
 10
3.62999950E+02
 20
-2.31915048E+02
 11
3.62999950E+02
 21
-2.45731826E+02
  0
LINE
  8
0
 62
4
 10
3.62999950E+02
 20
-2.32568856E+02
 11
3.57999950E+02
 21
-2.32568856E+02
  0
LINE
  8
0
 62
4
 10
3.62999950E+02
 20
-2.45068856E+02
 11
3.57999950E+02
 21
-2.45068856E+02
  0
LINE
  8
0
 62
4
 10
3.61499950E+02
 20
-2.32568856E+02
 11
3.61499950E+02
 21
-2.45068856E+02
  0
LINE
  8
0
 62
4
 10
3.61499950E+02
 20
-2.44568856E+02
 11
3.57999950E+02
 21
-2.44568856E+02
  0
LINE
  8
0
 62
4
 10
3.57499950E+02
 20
-2.45818856E+02
 11
3.48999950E+02
 21
-2.45818856E+02
  0
LINE
  8
0
 62
4
 10
3.33499950E+02
 20
-2.78486792E+02
 11
3.13999950E+02
 21
-2.78486792E+02
  0
LINE
  8
0
 62
4
 10
3.48499950E+02
 20
-2.36226289E+02
 11
3.33499950E+02
 21
-2.36226289E+02
  0
LINE
  8
0
 62
4
 10
3.50499950E+02
 20
-2.60020372E+02
 11
3.31499950E+02
 21
-2.60020372E+02
  0
LINE
  8
0
 62
4
 10
3.52999950E+02
 20
-2.57579767E+02
 11
3.52999950E+02
 21
-2.78503648E+02
  0
LINE
  8
0
 62
4
 10
3.52999950E+02
 20
-2.78486792E+02
 11
3.48499950E+02
 21
-2.78486792E+02
  0
LINE
  8
0
 62
4
 10
3.50499950E+02
 20
-2.60020372E+02
 11
3.50499950E+02
 21
-2.63503648E+02
  0
LINE
  8
0
 62
4
 10
3.33499950E+02
 20
-2.30365322E+02
 11
3.33499950E+02
 21
-2.60020372E+02
  0
LINE
  8
0
 62
4
 10
3.48499950E+02
 20
-2.30365322E+02
 11
3.48499950E+02
 21
-2.60020372E+02
  0
LINE
  8
0
 62
4
 10
3.31499950E+02
 20
-2.60020372E+02
 11
3.31499950E+02
 21
-2.63503648E+02
  0
LINE
  8
0
 62
4
 10
3.48499950E+02
 20
-2.58318405E+02
 11
3.33499950E+02
 21
-2.58318405E+02
  0
LINE
  8
0
 62
4
 10
3.13999950E+02
 20
-2.57579767E+02
 11
3.13999950E+02
 21
-2.78503648E+02
  0
ARC
  8
0
 62
4
 10
3.51499942E+02
 20
-2.65003657E+02
 40
1.50000856E+00
 50
3.27119593E-04
 51
8.99996730E+01
  0
ARC
  8
0
 62
4
 10
3.57499962E+02
 20
-2.45318868E+02
 40
4.99988098E-01
 50
2.69998636E+02
 51
1.36386840E-03
  0
ARC
  8
0
 62
4
 10
3.57499939E+02
 20
-2.32318868E+02
 40
5.00011902E-01
 50
1.36383594E-03
 51
8.99986360E+01
  0
ARC
  8
0
 62
4
 10
3.48999964E+02
 20
-2.46318870E+02
 40
5.00013809E-01
 50
9.00015821E+01
 51
1.79998418E+02
  0
ARC
  8
0
 62
4
 10
3.15499959E+02
 20
-2.65003657E+02
 40
1.50000856E+00
 50
9.00003273E+01
 51
1.79999673E+02
  0
LINE
  8
0
 62
4
 10
3.48499950E+02
 20
-2.30365322E+02
 11
3.33499950E+02
 21
-2.30365322E+02
  0
ARC
  8
0
 62
4
 10
3.51499942E+02
 20
-2.57579776E+02
 40
1.50000856E+00
 50
3.27119593E-04
 51
8.99996730E+01
  0
LINE
  8
0
 62
4
 10
3.51499950E+02
 20
-2.56079767E+02
 11
3.48499950E+02
 21
-2.56079767E+02
  0
ARC
  8
0
 62
4
 10
3.15499959E+02
 20
-2.57579776E+02
 40
1.50000856E+00
 50
9.00003273E+01
 51
1.79999673E+02
  0
LINE
  8
0
 62
4
 10
3.33499950E+02
 20
-2.56079767E+02
 11
3.15499950E+02
 21
-2.56079767E+02
  0
LINE
  8
0
 62
4
 10
3.33499950E+02
 20
-2.77106035E+02
 11
3.13999950E+02
 21
-2.77106035E+02
  0
LINE
  8
0
 62
4
 10
3.52999950E+02
 20
-2.77106035E+02
 11
3.48499950E+02
 21
-2.77106035E+02
  0
LINE
  8
0
 62
4
 10
3.13999950E+02
 20
-2.78486792E+02
 11
3.15808673E+02
 21
-2.79999985E+02
  0
LINE
  8
0
 62
4
 10
3.51191228E+02
 20
-2.79999985E+02
 11
3.52999950E+02
 21
-2.78486792E+02
  0
LINE
  8
0
 62
4
 10
3.33499950E+02
 20
-2.67440734E+02
 11
3.48499950E+02
 21
-2.67440734E+02
  0
POLYLINE
  8
0
 62
4
 66
1
  0
VERTEX
  8
0
 62
4
 10
3.38725182E+02
 20
-2.91904752E+02
  0
VERTEX
  8
0
 62
4
 10
3.38807036E+02
 20
-2.91762327E+02
  0
VERTEX
  8
0
 62
4
 10
3.38875048E+02
 20
-2.91613860E+02
  0
VERTEX
  8
0
 62
4
 10
3.38928697E+02
 20
-2.91460488E+02
  0
VERTEX
  8
0
 62
4
 10
3.38967572E+02
 20
-2.91303385E+02
  0
VERTEX
  8
0
 62
4
 10
3.38991375E+02
 20
-2.91143755E+02
  0
VERTEX
  8
0
 62
4
 10
3.38999924E+02
 20
-2.90982820E+02
  0
VERTEX
  8
0
 62
4
 10
3.38993153E+02
 20
-2.90821814E+02
  0
VERTEX
  8
0
 62
4
 10
3.38971115E+02
 20
-2.90661969E+02
  0
VERTEX
  8
0
 62
4
 10
3.38933977E+02
 20
-2.90504510E+02
  0
VERTEX
  8
0
 62
4
 10
3.38882026E+02
 20
-2.90350644E+02
  0
VERTEX
  8
0
 62
4
 10
3.38815657E+02
 20
-2.90201548E+02
  0
VERTEX
  8
0
 62
4
 10
3.38735380E+02
 20
-2.90058365E+02
  0
VERTEX
  8
0
 62
4
 10
3.38641810E+02
 20
-2.89922191E+02
  0
VERTEX
  8
0
 62
4
 10
3.38535664E+02
 20
-2.89794070E+02
  0
VERTEX
  8
0
 62
4
 10
3.38417754E+02
 20
-2.89674983E+02
  0
VERTEX
  8
0
 62
4
 10
3.38288984E+02
 20
-2.89565842E+02
  0
VERTEX
  8
0
 62
4
 10
3.38150340E+02
 20
-2.89467484E+02
  0
VERTEX
  8
0
 62
4
 10
3.38002884E+02
 20
-2.89380661E+02
  0
VERTEX
  8
0
 62
4
 10
3.37847746E+02
 20
-2.89306039E+02
  0
VERTEX
  8
0
 62
4
 10
3.37686113E+02
 20
-2.89244189E+02
  0
VERTEX
  8
0
 62
4
 10
3.37519225E+02
 20
-2.89195586E+02
  0
VERTEX
  8
0
 62
4
 10
3.37348359E+02
 20
-2.89160600E+02
  0
VERTEX
  8
0
 62
4
 10
3.37174824E+02
 20
-2.89139501E+02
  0
VERTEX
  8
0
 62
4
 10
3.36999950E+02
 20
-2.89132450E+02
  0
VERTEX
  8
0
 62
4
 10
3.36825076E+02
 20
-2.89139501E+02
  0
VERTEX
  8
0
 62
4
 10
3.36651541E+02
 20
-2.89160600E+02
  0
VERTEX
  8
0
 62
4
 10
3.36480675E+02
 20
-2.89195586E+02
  0
VERTEX
  8
0
 62
4
 10
3.36313787E+02
 20
-2.89244189E+02
  0
VERTEX
  8
0
 62
4
 10
3.36152154E+02
 20
-2.89306039E+02
  0
VERTEX
  8
0
 62
4
 10
3.35997016E+02
 20
-2.89380661E+02
  0
VERTEX
  8
0
 62
4
 10
3.35849560E+02
 20
-2.89467484E+02
  0
VERTEX
  8
0
 62
4
 10
3.35710916E+02
 20
-2.89565842E+02
  0
VERTEX
  8
0
 62
4
 10
3.35582146E+02
 20
-2.89674983E+02
  0
VERTEX
  8
0
 62
4
 10
3.35464236E+02
 20
-2.89794070E+02
  0
VERTEX
  8
0
 62
4
 10
3.35358090E+02
 20
-2.89922191E+02
  0
VERTEX
  8
0
 62
4
 10
3.35264520E+02
 20
-2.90058365E+02
  0
VERTEX
  8
0
 62
4
 10
3.35184243E+02
 20
-2.90201548E+02
  0
VERTEX
  8
0
 62
4
 10
3.35117874E+02
 20
-2.90350644E+02
  0
VERTEX
  8
0
 62
4
 10
3.35065923E+02
 20
-2.90504510E+02
  0
VERTEX
  8
0
 62
4
 10
3.35028785E+02
 20
-2.90661969E+02
  0
VERTEX
  8
0
 62
4
 10
3.35006747E+02
 20
-2.90821814E+02
  0
VERTEX
  8
0
 62
4
 10
3.34999976E+02
 20
-2.90982820E+02
  0
VERTEX
  8
0
 62
4
 10
3.35008525E+02
 20
-2.91143755E+02
  0
VERTEX
  8
0
 62
4
 10
3.35032328E+02
 20
-2.91303385E+02
  0
VERTEX
  8
0
 62
4
 10
3.35071203E+02
 20
-2.91460488E+02
  0
VERTEX
  8
0
 62
4
 10
3.35124852E+02
 20
-2.91613860E+02
  0
VERTEX
  8
0
 62
4
 10
3.35192864E+02
 20
-2.91762327E+02
  0
VERTEX
  8
0
 62
4
 10
3.35274718E+02
 20
-2.91904752E+02
  0
SEQEND
  8
0
  0
POLYLINE
  8
0
 62
6
 66
1
  0
VERTEX
  8
0
 62
6
 10
3.38499950E+02
 20
-2.91740123E+02
  0
VERTEX
  8
0
 62
6
 10
3.38494242E+02
 20
-2.91619782E+02
  0
VERTEX
  8
0
 62
6
 10
3.38477162E+02
 20
-2.91500357E+02
  0
VERTEX
  8
0
 62
6
 10
3.38448839E+02
 20
-2.91382757E+02
  0
VERTEX
  8
0
 62
6
 10
3.38409489E+02
 20
-2.91267876E+02
  0
VERTEX
  8
0
 62
6
 10
3.38359412E+02
 20
-2.91156590E+02
  0
VERTEX
  8
0
 62
6
 10
3.38298988E+02
 20
-2.91049744E+02
  0
VERTEX
  8
0
 62
6
 10
3.38228678E+02
 20
-2.90948153E+02
  0
VERTEX
  8
0
 62
6
 10
3.38149017E+02
 20
-2.90852589E+02
  0
VERTEX
  8
0
 62
6
 10
3.38060610E+02
 20
-2.90763780E+02
  0
VERTEX
  8
0
 62
6
 10
3.37964131E+02
 20
-2.90682402E+02
  0
VERTEX
  8
0
 62
6
 10
3.37860315E+02
 20
-2.90609073E+02
  0
VERTEX
  8
0
 62
6
 10
3.37749950E+02
 20
-2.90544352E+02
  0
VERTEX
  8
0
 62
6
 10
3.37633877E+02
 20
-2.90488732E+02
  0
VERTEX
  8
0
 62
6
 10
3.37512980E+02
 20
-2.90442636E+02
  0
VERTEX
  8
0
 62
6
 10
3.37388179E+02
 20
-2.90406414E+02
  0
VERTEX
  8
0
 62
6
 10
3.37260422E+02
 20
-2.90380343E+02
  0
VERTEX
  8
0
 62
6
 10
3.37130684E+02
 20
-2.90364620E+02
  0
VERTEX
  8
0
 62
6
 10
3.36999950E+02
 20
-2.90359366E+02
  0
VERTEX
  8
0
 62
6
 10
3.36869216E+02
 20
-2.90364620E+02
  0
VERTEX
  8
0
 62
6
 10
3.36739478E+02
 20
-2.90380343E+02
  0
VERTEX
  8
0
 62
6
 10
3.36611721E+02
 20
-2.90406414E+02
  0
VERTEX
  8
0
 62
6
 10
3.36486920E+02
 20
-2.90442636E+02
  0
VERTEX
  8
0
 62
6
 10
3.36366023E+02
 20
-2.90488732E+02
  0
VERTEX
  8
0
 62
6
 10
3.36249950E+02
 20
-2.90544352E+02
  0
VERTEX
  8
0
 62
6
 10
3.36139585E+02
 20
-2.90609073E+02
  0
VERTEX
  8
0
 62
6
 10
3.36035769E+02
 20
-2.90682402E+02
  0
VERTEX
  8
0
 62
6
 10
3.35939290E+02
 20
-2.90763780E+02
  0
VERTEX
  8
0
 62
6
 10
3.35850883E+02
 20
-2.90852589E+02
  0
VERTEX
  8
0
 62
6
 10
3.35771222E+02
 20
-2.90948153E+02
  0
VERTEX
  8
0
 62
6
 10
3.35700912E+02
 20
-2.91049744E+02
  0
VERTEX
  8
0
 62
6
 10
3.35640488E+02
 20
-2.91156590E+02
  0
VERTEX
  8
0
 62
6
 10
3.35590411E+02
 20
-2.91267876E+02
  0
VERTEX
  8
0
 62
6
 10
3.35551061E+02
 20
-2.91382757E+02
  0
VERTEX
  8
0
 62
6
 10
3.35522738E+02
 20
-2.91500357E+02
  0
VERTEX
  8
0
 62
6
 10
3.35505658E+02
 20
-2.91619782E+02
  0
VERTEX
  8
0
 62
6
 10
3.35499950E+02
 20
-2.91740123E+02
  0
VERTEX
  8
0
 62
6
 10
3.35505658E+02
 20
-2.91860464E+02
  0
VERTEX
  8
0
 62
6
 10
3.35522738E+02
 20
-2.91979889E+02
  0
VERTEX
  8
0
 62
6
 10
3.35551061E+02
 20
-2.92097489E+02
  0
VERTEX
  8
0
 62
6
 10
3.35590411E+02
 20
-2.92212370E+02
  0
VERTEX
  8
0
 62
6
 10
3.35640488E+02
 20
-2.92323656E+02
  0
VERTEX
  8
0
 62
6
 10
3.35700912E+02
 20
-2.92430502E+02
  0
VERTEX
  8
0
 62
6
 10
3.35771222E+02
 20
-2.92532093E+02
  0
VERTEX
  8
0
 62
6
 10
3.35850883E+02
 20
-2.92627657E+02
  0
VERTEX
  8
0
 62
6
 10
3.35939290E+02
 20
-2.92716466E+02
  0
VERTEX
  8
0
 62
6
 10
3.36035769E+02
 20
-2.92797844E+02
  0
VERTEX
  8
0
 62
6
 10
3.36139585E+02
 20
-2.92871173E+02
  0
VERTEX
  8
0
 62
6
 10
3.36249950E+02
 20
-2.92935894E+02
  0
VERTEX
  8
0
 62
6
 10
3.36366023E+02
 20
-2.92991514E+02
  0
VERTEX
  8
0
 62
6
 10
3.36486920E+02
 20
-2.93037610E+02
  0
VERTEX
  8
0
 62
6
 10
3.36611721E+02
 20
-2.93073832E+02
  0
VERTEX
  8
0
 62
6
 10
3.36739478E+02
 20
-2.93099903E+02
  0
VERTEX
  8
0
 62
6
 10
3.36869216E+02
 20
-2.93115626E+02
  0
VERTEX
  8
0
 62
6
 10
3.36999950E+02
 20
-2.93120880E+02
  0
VERTEX
  8
0
 62
6
 10
3.37130684E+02
 20
-2.93115626E+02
  0
VERTEX
  8
0
 62
6
 10
3.37260422E+02
 20
-2.93099903E+02
  0
VERTEX
  8
0
 62
6
 10
3.37388179E+02
 20
-2.93073832E+02
  0
VERTEX
  8
0
 62
6
 10
3.37512980E+02
 20
-2.93037610E+02
  0
VERTEX
  8
0
 62
6
 10
3.37633877E+02
 20
-2.92991514E+02
  0
VERTEX
  8
0
 62
6
 10
3.37749950E+02
 20
-2.92935894E+02
  0
VERTEX
  8
0
 62
6
 10
3.37860315E+02
 20
-2.92871173E+02
  0
VERTEX
  8
0
 62
6
 10
3.37964131E+02
 20
-2.92797844E+02
  0
VERTEX
  8
0
 62
6
 10
3.38060610E+02
 20
-2.92716466E+02
  0
VERTEX
  8
0
 62
6
 10
3.38149017E+02
 20
-2.92627657E+02
  0
VERTEX
  8
0
 62
6
 10
3.38228678E+02
 20
-2.92532093E+02
  0
VERTEX
  8
0
 62
6
 10
3.38298988E+02
 20
-2.92430502E+02
  0
VERTEX
  8
0
 62
6
 10
3.38359412E+02
 20
-2.92323656E+02
  0
VERTEX
  8
0
 62
6
 10
3.38409489E+02
 20
-2.92212370E+02
  0
VERTEX
  8
0
 62
6
 10
3.38448839E+02
 20
-2.92097489E+02
  0
VERTEX
  8
0
 62
6
 10
3.38477162E+02
 20
-2.91979889E+02
  0
VERTEX
  8
0
 62
6
 10
3.38494242E+02
 20
-2.91860464E+02
  0
VERTEX
  8
0
 62
6
 10
3.38499950E+02
 20
-2.91740123E+02
  0
SEQEND
  8
0
  0
POLYLINE
  8
0
 62
4
 66
1
  0
VERTEX
  8
0
 62
4
 10
3.38734950E+02
 20
-2.91735521E+02
  0
VERTEX
  8
0
 62
4
 10
3.38728348E+02
 20
-2.91596327E+02
  0
VERTEX
  8
0
 62
4
 10
3.38708591E+02
 20
-2.91458192E+02
  0
VERTEX
  8
0
 62
4
 10
3.38675831E+02
 20
-2.91322167E+02
  0
VERTEX
  8
0
 62
4
 10
3.38630317E+02
 20
-2.91189289E+02
  0
VERTEX
  8
0
 62
4
 10
3.38572394E+02
 20
-2.91060568E+02
  0
VERTEX
  8
0
 62
4
 10
3.38502504E+02
 20
-2.90936983E+02
  0
VERTEX
  8
0
 62
4
 10
3.38421179E+02
 20
-2.90819476E+02
  0
VERTEX
  8
0
 62
4
 10
3.38329037E+02
 20
-2.90708940E+02
  0
VERTEX
  8
0
 62
4
 10
3.38226780E+02
 20
-2.90606218E+02
  0
VERTEX
  8
0
 62
4
 10
3.38115187E+02
 20
-2.90512090E+02
  0
VERTEX
  8
0
 62
4
 10
3.37995105E+02
 20
-2.90427273E+02
  0
VERTEX
  8
0
 62
4
 10
3.37867450E+02
 20
-2.90352413E+02
  0
VERTEX
  8
0
 62
4
 10
3.37733193E+02
 20
-2.90288079E+02
  0
VERTEX
  8
0
 62
4
 10
3.37593355E+02
 20
-2.90234761E+02
  0
VERTEX
  8
0
 62
4
 10
3.37449001E+02
 20
-2.90192864E+02
  0
VERTEX
  8
0
 62
4
 10
3.37301230E+02
 20
-2.90162708E+02
  0
VERTEX
  8
0
 62
4
 10
3.37151165E+02
 20
-2.90144522E+02
  0
VERTEX
  8
0
 62
4
 10
3.36999950E+02
 20
-2.90138445E+02
  0
VERTEX
  8
0
 62
4
 10
3.36848735E+02
 20
-2.90144522E+02
  0
VERTEX
  8
0
 62
4
 10
3.36698670E+02
 20
-2.90162708E+02
  0
VERTEX
  8
0
 62
4
 10
3.36550899E+02
 20
-2.90192864E+02
  0
VERTEX
  8
0
 62
4
 10
3.36406545E+02
 20
-2.90234761E+02
  0
VERTEX
  8
0
 62
4
 10
3.36266707E+02
 20
-2.90288079E+02
  0
VERTEX
  8
0
 62
4
 10
3.36132450E+02
 20
-2.90352413E+02
  0
VERTEX
  8
0
 62
4
 10
3.36004795E+02
 20
-2.90427273E+02
  0
VERTEX
  8
0
 62
4
 10
3.35884713E+02
 20
-2.90512090E+02
  0
VERTEX
  8
0
 62
4
 10
3.35773120E+02
 20
-2.90606218E+02
  0
VERTEX
  8
0
 62
4
 10
3.35670863E+02
 20
-2.90708940E+02
  0
VERTEX
  8
0
 62
4
 10
3.35578721E+02
 20
-2.90819476E+02
  0
VERTEX
  8
0
 62
4
 10
3.35497396E+02
 20
-2.90936983E+02
  0
VERTEX
  8
0
 62
4
 10
3.35427506E+02
 20
-2.91060568E+02
  0
VERTEX
  8
0
 62
4
 10
3.35369583E+02
 20
-2.91189289E+02
  0
VERTEX
  8
0
 62
4
 10
3.35324069E+02
 20
-2.91322167E+02
  0
VERTEX
  8
0
 62
4
 10
3.35291309E+02
 20
-2.91458192E+02
  0
VERTEX
  8
0
 62
4
 10
3.35271552E+02
 20
-2.91596327E+02
  0
VERTEX
  8
0
 62
4
 10
3.35264950E+02
 20
-2.91735521E+02
  0
VERTEX
  8
0
 62
4
 10
3.35271552E+02
 20
-2.91874715E+02
  0
VERTEX
  8
0
 62
4
 10
3.35291309E+02
 20
-2.92012850E+02
  0
VERTEX
  8
0
 62
4
 10
3.35324069E+02
 20
-2.92148875E+02
  0
VERTEX
  8
0
 62
4
 10
3.35369583E+02
 20
-2.92281753E+02
  0
VERTEX
  8
0
 62
4
 10
3.35427506E+02
 20
-2.92410474E+02
  0
VERTEX
  8
0
 62
4
 10
3.35497396E+02
 20
-2.92534059E+02
  0
VERTEX
  8
0
 62
4
 10
3.35578721E+02
 20
-2.92651566E+02
  0
VERTEX
  8
0
 62
4
 10
3.35670863E+02
 20
-2.92762102E+02
  0
VERTEX
  8
0
 62
4
 10
3.35773120E+02
 20
-2.92864824E+02
  0
VERTEX
  8
0
 62
4
 10
3.35884713E+02
 20
-2.92958952E+02
  0
VERTEX
  8
0
 62
4
 10
3.36004795E+02
 20
-2.93043769E+02
  0
VERTEX
  8
0
 62
4
 10
3.36132450E+02
 20
-2.93118629E+02
  0
VERTEX
  8
0
 62
4
 10
3.36266707E+02
 20
-2.93182963E+02
  0
VERTEX
  8
0
 62
4
 10
3.36406545E+02
 20
-2.93236281E+02
  0
VERTEX
  8
0
 62
4
 10
3.36550899E+02
 20
-2.93278178E+02
  0
VERTEX
  8
0
 62
4
 10
3.36698670E+02
 20
-2.93308334E+02
  0
VERTEX
  8
0
 62
4
 10
3.36848735E+02
 20
-2.93326520E+02
  0
VERTEX
  8
0
 62
4
 10
3.36999950E+02
 20
-2.93332597E+02
  0
VERTEX
  8
0
 62
4
 10
3.37151165E+02
 20
-2.93326520E+02
  0
VERTEX
  8
0
 62
4
 10
3.37301230E+02
 20
-2.93308334E+02
  0
VERTEX
  8
0
 62
4
 10
3.37449001E+02
 20
-2.93278178E+02
  0
VERTEX
  8
0
 62
4
 10
3.37593355E+02
 20
-2.93236281E+02
  0
VERTEX
  8
0
 62
4
 10
3.37733193E+02
 20
-2.93182963E+02
  0
VERTEX
  8
0
 62
4
 10
3.37867450E+02
 20
-2.93118629E+02
  0
VERTEX
  8
0
 62
4
 10
3.37995105E+02
 20
-2.93043769E+02
  0
VERTEX
  8
0
 62
4
 10
3.38115187E+02
 20
-2.92958952E+02
  0
VERTEX
  8
0
 62
4
 10
3.38226780E+02
 20
-2.92864824E+02
  0
VERTEX
  8
0
 62
4
 10
3.38329037E+02
 20
-2.92762102E+02
  0
VERTEX
  8
0
 62
4
 10
3.38421179E+02
 20
-2.92651566E+02
  0
VERTEX
  8
0
 62
4
 10
3.38502504E+02
 20
-2.92534059E+02
  0
VERTEX
  8
0
 62
4
 10
3.38572394E+02
 20
-2.92410474E+02
  0
VERTEX
  8
0
 62
4
 10
3.38630317E+02
 20
-2.92281753E+02
  0
VERTEX
  8
0
 62
4
 10
3.38675831E+02
 20
-2.92148875E+02
  0
VERTEX
  8
0
 62
4
 10
3.38708591E+02
 20
-2.92012850E+02
  0
VERTEX
  8
0
 62
4
 10
3.38728348E+02
 20
-2.91874715E+02
  0
VERTEX
  8
0
 62
4
 10
3.38734950E+02
 20
-2.91735521E+02
  0
SEQEND
  8
0
  0
POLYLINE
  8
0
 62
4
 66
1
  0
VERTEX
  8
0
 62
4
 10
3.46725182E+02
 20
-2.91904752E+02
  0
VERTEX
  8
0
 62
4
 10
3.46807036E+02
 20
-2.91762327E+02
  0
VERTEX
  8
0
 62
4
 10
3.46875048E+02
 20
-2.91613860E+02
  0
VERTEX
  8
0
 62
4
 10
3.46928697E+02
 20
-2.91460488E+02
  0
VERTEX
  8
0
 62
4
 10
3.46967572E+02
 20
-2.91303385E+02
  0
VERTEX
  8
0
 62
4
 10
3.46991375E+02
 20
-2.91143755E+02
  0
VERTEX
  8
0
 62
4
 10
3.46999924E+02
 20
-2.90982820E+02
  0
VERTEX
  8
0
 62
4
 10
3.46993153E+02
 20
-2.90821814E+02
  0
VERTEX
  8
0
 62
4
 10
3.46971115E+02
 20
-2.90661969E+02
  0
VERTEX
  8
0
 62
4
 10
3.46933977E+02
 20
-2.90504510E+02
  0
VERTEX
  8
0
 62
4
 10
3.46882026E+02
 20
-2.90350644E+02
  0
VERTEX
  8
0
 62
4
 10
3.46815657E+02
 20
-2.90201548E+02
  0
VERTEX
  8
0
 62
4
 10
3.46735380E+02
 20
-2.90058365E+02
  0
VERTEX
  8
0
 62
4
 10
3.46641810E+02
 20
-2.89922191E+02
  0
VERTEX
  8
0
 62
4
 10
3.46535664E+02
 20
-2.89794070E+02
  0
VERTEX
  8
0
 62
4
 10
3.46417754E+02
 20
-2.89674983E+02
  0
VERTEX
  8
0
 62
4
 10
3.46288984E+02
 20
-2.89565842E+02
  0
VERTEX
  8
0
 62
4
 10
3.46150340E+02
 20
-2.89467484E+02
  0
VERTEX
  8
0
 62
4
 10
3.46002884E+02
 20
-2.89380661E+02
  0
VERTEX
  8
0
 62
4
 10
3.45847746E+02
 20
-2.89306039E+02
  0
VERTEX
  8
0
 62
4
 10
3.45686113E+02
 20
-2.89244189E+02
  0
VERTEX
  8
0
 62
4
 10
3.45519225E+02
 20
-2.89195586E+02
  0
VERTEX
  8
0
 62
4
 10
3.45348359E+02
 20
-2.89160600E+02
  0
VERTEX
  8
0
 62
4
 10
3.45174824E+02
 20
-2.89139501E+02
  0
VERTEX
  8
0
 62
4
 10
3.44999950E+02
 20
-2.89132450E+02
  0
VERTEX
  8
0
 62
4
 10
3.44825076E+02
 20
-2.89139501E+02
  0
VERTEX
  8
0
 62
4
 10
3.44651541E+02
 20
-2.89160600E+02
  0
VERTEX
  8
0
 62
4
 10
3.44480675E+02
 20
-2.89195586E+02
  0
VERTEX
  8
0
 62
4
 10
3.44313787E+02
 20
-2.89244189E+02
  0
VERTEX
  8
0
 62
4
 10
3.44152154E+02
 20
-2.89306039E+02
  0
VERTEX
  8
0
 62
4
 10
3.43997016E+02
 20
-2.89380661E+02
  0
VERTEX
  8
0
 62
4
 10
3.43849560E+02
 20
-2.89467484E+02
  0
VERTEX
  8
0
 62
4
 10
3.43710916E+02
 20
-2.89565842E+02
  0
VERTEX
  8
0
 62
4
 10
3.43582146E+02
 20
-2.89674983E+02
  0
VERTEX
  8
0
 62
4
 10
3.43464236E+02
 20
-2.89794070E+02
  0
VERTEX
  8
0
 62
4
 10
3.43358090E+02
 20
-2.89922191E+02
  0
VERTEX
  8
0
 62
4
 10
3.43264520E+02
 20
-2.90058365E+02
  0
VERTEX
  8
0
 62
4
 10
3.43184243E+02
 20
-2.90201548E+02
  0
VERTEX
  8
0
 62
4
 10
3.43117874E+02
 20
-2.90350644E+02
  0
VERTEX
  8
0
 62
4
 10
3.43065923E+02
 20
-2.90504510E+02
  0
VERTEX
  8
0
 62
4
 10
3.43028785E+02
 20
-2.90661969E+02
  0
VERTEX
  8
0
 62
4
 10
3.43006747E+02
 20
-2.90821814E+02
  0
VERTEX
  8
0
 62
4
 10
3.42999976E+02
 20
-2.90982820E+02
  0
VERTEX
  8
0
 62
4
 10
3.43008525E+02
 20
-2.91143755E+02
  0
VERTEX
  8
0
 62
4
 10
3.43032328E+02
 20
-2.91303385E+02
  0
VERTEX
  8
0
 62
4
 10
3.43071203E+02
 20
-2.91460488E+02
  0
VERTEX
  8
0
 62
4
 10
3.43124852E+02
 20
-2.91613860E+02
  0
VERTEX
  8
0
 62
4
 10
3.43192864E+02
 20
-2.91762327E+02
  0
VERTEX
  8
0
 62
4
 10
3.43274718E+02
 20
-2.91904752E+02
  0
SEQEND
  8
0
  0
POLYLINE
  8
0
 62
6
 66
1
  0
VERTEX
  8
0
 62
6
 10
3.46499950E+02
 20
-2.91740123E+02
  0
VERTEX
  8
0
 62
6
 10
3.46494242E+02
 20
-2.91619782E+02
  0
VERTEX
  8
0
 62
6
 10
3.46477162E+02
 20
-2.91500357E+02
  0
VERTEX
  8
0
 62
6
 10
3.46448839E+02
 20
-2.91382757E+02
  0
VERTEX
  8
0
 62
6
 10
3.46409489E+02
 20
-2.91267876E+02
  0
VERTEX
  8
0
 62
6
 10
3.46359412E+02
 20
-2.91156590E+02
  0
VERTEX
  8
0
 62
6
 10
3.46298988E+02
 20
-2.91049744E+02
  0
VERTEX
  8
0
 62
6
 10
3.46228678E+02
 20
-2.90948153E+02
  0
VERTEX
  8
0
 62
6
 10
3.46149017E+02
 20
-2.90852589E+02
  0
VERTEX
  8
0
 62
6
 10
3.46060610E+02
 20
-2.90763780E+02
  0
VERTEX
  8
0
 62
6
 10
3.45964131E+02
 20
-2.90682402E+02
  0
VERTEX
  8
0
 62
6
 10
3.45860315E+02
 20
-2.90609073E+02
  0
VERTEX
  8
0
 62
6
 10
3.45749950E+02
 20
-2.90544352E+02
  0
VERTEX
  8
0
 62
6
 10
3.45633877E+02
 20
-2.90488732E+02
  0
VERTEX
  8
0
 62
6
 10
3.45512980E+02
 20
-2.90442636E+02
  0
VERTEX
  8
0
 62
6
 10
3.45388179E+02
 20
-2.90406414E+02
  0
VERTEX
  8
0
 62
6
 10
3.45260422E+02
 20
-2.90380343E+02
  0
VERTEX
  8
0
 62
6
 10
3.45130684E+02
 20
-2.90364620E+02
  0
VERTEX
  8
0
 62
6
 10
3.44999950E+02
 20
-2.90359366E+02
  0
VERTEX
  8
0
 62
6
 10
3.44869216E+02
 20
-2.90364620E+02
  0
VERTEX
  8
0
 62
6
 10
3.44739478E+02
 20
-2.90380343E+02
  0
VERTEX
  8
0
 62
6
 10
3.44611721E+02
 20
-2.90406414E+02
  0
VERTEX
  8
0
 62
6
 10
3.44486920E+02
 20
-2.90442636E+02
  0
VERTEX
  8
0
 62
6
 10
3.44366023E+02
 20
-2.90488732E+02
  0
VERTEX
  8
0
 62
6
 10
3.44249950E+02
 20
-2.90544352E+02
  0
VERTEX
  8
0
 62
6
 10
3.44139585E+02
 20
-2.90609073E+02
  0
VERTEX
  8
0
 62
6
 10
3.44035769E+02
 20
-2.90682402E+02
  0
VERTEX
  8
0
 62
6
 10
3.43939290E+02
 20
-2.90763780E+02
  0
VERTEX
  8
0
 62
6
 10
3.43850883E+02
 20
-2.90852589E+02
  0
VERTEX
  8
0
 62
6
 10
3.43771222E+02
 20
-2.90948153E+02
  0
VERTEX
  8
0
 62
6
 10
3.43700912E+02
 20
-2.91049744E+02
  0
VERTEX
  8
0
 62
6
 10
3.43640488E+02
 20
-2.91156590E+02
  0
VERTEX
  8
0
 62
6
 10
3.43590411E+02
 20
-2.91267876E+02
  0
VERTEX
  8
0
 62
6
 10
3.43551061E+02
 20
-2.91382757E+02
  0
VERTEX
  8
0
 62
6
 10
3.43522738E+02
 20
-2.91500357E+02
  0
VERTEX
  8
0
 62
6
 10
3.43505658E+02
 20
-2.91619782E+02
  0
VERTEX
  8
0
 62
6
 10
3.43499950E+02
 20
-2.91740123E+02
  0
VERTEX
  8
0
 62
6
 10
3.43505658E+02
 20
-2.91860464E+02
  0
VERTEX
  8
0
 62
6
 10
3.43522738E+02
 20
-2.91979889E+02
  0
VERTEX
  8
0
 62
6
 10
3.43551061E+02
 20
-2.92097489E+02
  0
VERTEX
  8
0
 62
6
 10
3.43590411E+02
 20
-2.92212370E+02
  0
VERTEX
  8
0
 62
6
 10
3.43640488E+02
 20
-2.92323656E+02
  0
VERTEX
  8
0
 62
6
 10
3.43700912E+02
 20
-2.92430502E+02
  0
VERTEX
  8
0
 62
6
 10
3.43771222E+02
 20
-2.92532093E+02
  0
VERTEX
  8
0
 62
6
 10
3.43850883E+02
 20
-2.92627657E+02
  0
VERTEX
  8
0
 62
6
 10
3.43939290E+02
 20
-2.92716466E+02
  0
VERTEX
  8
0
 62
6
 10
3.44035769E+02
 20
-2.92797844E+02
  0
VERTEX
  8
0
 62
6
 10
3.44139585E+02
 20
-2.92871173E+02
  0
VERTEX
  8
0
 62
6
 10
3.44249950E+02
 20
-2.92935894E+02
  0
VERTEX
  8
0
 62
6
 10
3.44366023E+02
 20
-2.92991514E+02
  0
VERTEX
  8
0
 62
6
 10
3.44486920E+02
 20
-2.93037610E+02
  0
VERTEX
  8
0
 62
6
 10
3.44611721E+02
 20
-2.93073832E+02
  0
VERTEX
  8
0
 62
6
 10
3.44739478E+02
 20
-2.93099903E+02
  0
VERTEX
  8
0
 62
6
 10
3.44869216E+02
 20
-2.93115626E+02
  0
VERTEX
  8
0
 62
6
 10
3.44999950E+02
 20
-2.93120880E+02
  0
VERTEX
  8
0
 62
6
 10
3.45130684E+02
 20
-2.93115626E+02
  0
VERTEX
  8
0
 62
6
 10
3.45260422E+02
 20
-2.93099903E+02
  0
VERTEX
  8
0
 62
6
 10
3.45388179E+02
 20
-2.93073832E+02
  0
VERTEX
  8
0
 62
6
 10
3.45512980E+02
 20
-2.93037610E+02
  0
VERTEX
  8
0
 62
6
 10
3.45633877E+02
 20
-2.92991514E+02
  0
VERTEX
  8
0
 62
6
 10
3.45749950E+02
 20
-2.92935894E+02
  0
VERTEX
  8
0
 62
6
 10
3.45860315E+02
 20
-2.92871173E+02
  0
VERTEX
  8
0
 62
6
 10
3.45964131E+02
 20
-2.92797844E+02
  0
VERTEX
  8
0
 62
6
 10
3.46060610E+02
 20
-2.92716466E+02
  0
VERTEX
  8
0
 62
6
 10
3.46149017E+02
 20
-2.92627657E+02
  0
VERTEX
  8
0
 62
6
 10
3.46228678E+02
 20
-2.92532093E+02
  0
VERTEX
  8
0
 62
6
 10
3.46298988E+02
 20
-2.92430502E+02
  0
VERTEX
  8
0
 62
6
 10
3.46359412E+02
 20
-2.92323656E+02
  0
VERTEX
  8
0
 62
6
 10
3.46409489E+02
 20
-2.92212370E+02
  0
VERTEX
  8
0
 62
6
 10
3.46448839E+02
 20
-2.92097489E+02
  0
VERTEX
  8
0
 62
6
 10
3.46477162E+02
 20
-2.91979889E+02
  0
VERTEX
  8
0
 62
6
 10
3.46494242E+02
 20
-2.91860464E+02
  0
VERTEX
  8
0
 62
6
 10
3.46499950E+02
 20
-2.91740123E+02
  0
SEQEND
  8
0
  0
POLYLINE
  8
0
 62
4
 66
1
  0
VERTEX
  8
0
 62
4
 10
3.46734950E+02
 20
-2.91735521E+02
  0
VERTEX
  8
0
 62
4
 10
3.46728348E+02
 20
-2.91596327E+02
  0
VERTEX
  8
0
 62
4
 10
3.46708591E+02
 20
-2.91458192E+02
  0
VERTEX
  8
0
 62
4
 10
3.46675831E+02
 20
-2.91322167E+02
  0
VERTEX
  8
0
 62
4
 10
3.46630317E+02
 20
-2.91189289E+02
  0
VERTEX
  8
0
 62
4
 10
3.46572394E+02
 20
-2.91060568E+02
  0
VERTEX
  8
0
 62
4
 10
3.46502504E+02
 20
-2.90936983E+02
  0
VERTEX
  8
0
 62
4
 10
3.46421179E+02
 20
-2.90819476E+02
  0
VERTEX
  8
0
 62
4
 10
3.46329037E+02
 20
-2.90708940E+02
  0
VERTEX
  8
0
 62
4
 10
3.46226780E+02
 20
-2.90606218E+02
  0
VERTEX
  8
0
 62
4
 10
3.46115187E+02
 20
-2.90512090E+02
  0
VERTEX
  8
0
 62
4
 10
3.45995105E+02
 20
-2.90427273E+02
  0
VERTEX
  8
0
 62
4
 10
3.45867450E+02
 20
-2.90352413E+02
  0
VERTEX
  8
0
 62
4
 10
3.45733193E+02
 20
-2.90288079E+02
  0
VERTEX
  8
0
 62
4
 10
3.45593355E+02
 20
-2.90234761E+02
  0
VERTEX
  8
0
 62
4
 10
3.45449001E+02
 20
-2.90192864E+02
  0
VERTEX
  8
0
 62
4
 10
3.45301230E+02
 20
-2.90162708E+02
  0
VERTEX
  8
0
 62
4
 10
3.45151165E+02
 20
-2.90144522E+02
  0
VERTEX
  8
0
 62
4
 10
3.44999950E+02
 20
-2.90138445E+02
  0
VERTEX
  8
0
 62
4
 10
3.44848735E+02
 20
-2.90144522E+02
  0
VERTEX
  8
0
 62
4
 10
3.44698670E+02
 20
-2.90162708E+02
  0
VERTEX
  8
0
 62
4
 10
3.44550899E+02
 20
-2.90192864E+02
  0
VERTEX
  8
0
 62
4
 10
3.44406545E+02
 20
-2.90234761E+02
  0
VERTEX
  8
0
 62
4
 10
3.44266707E+02
 20
-2.90288079E+02
  0
VERTEX
  8
0
 62
4
 10
3.44132450E+02
 20
-2.90352413E+02
  0
VERTEX
  8
0
 62
4
 10
3.44004795E+02
 20
-2.90427273E+02
  0
VERTEX
  8
0
 62
4
 10
3.43884713E+02
 20
-2.90512090E+02
  0
VERTEX
  8
0
 62
4
 10
3.43773120E+02
 20
-2.90606218E+02
  0
VERTEX
  8
0
 62
4
 10
3.43670863E+02
 20
-2.90708940E+02
  0
VERTEX
  8
0
 62
4
 10
3.43578721E+02
 20
-2.90819476E+02
  0
VERTEX
  8
0
 62
4
 10
3.43497396E+02
 20
-2.90936983E+02
  0
VERTEX
  8
0
 62
4
 10
3.43427506E+02
 20
-2.91060568E+02
  0
VERTEX
  8
0
 62
4
 10
3.43369583E+02
 20
-2.91189289E+02
  0
VERTEX
  8
0
 62
4
 10
3.43324069E+02
 20
-2.91322167E+02
  0
VERTEX
  8
0
 62
4
 10
3.43291309E+02
 20
-2.91458192E+02
  0
VERTEX
  8
0
 62
4
 10
3.43271552E+02
 20
-2.91596327E+02
  0
VERTEX
  8
0
 62
4
 10
3.43264950E+02
 20
-2.91735521E+02
  0
VERTEX
  8
0
 62
4
 10
3.43271552E+02
 20
-2.91874715E+02
  0
VERTEX
  8
0
 62
4
 10
3.43291309E+02
 20
-2.92012850E+02
  0
VERTEX
  8
0
 62
4
 10
3.43324069E+02
 20
-2.92148875E+02
  0
VERTEX
  8
0
 62
4
 10
3.43369583E+02
 20
-2.92281753E+02
  0
VERTEX
  8
0
 62
4
 10
3.43427506E+02
 20
-2.92410474E+02
  0
VERTEX
  8
0
 62
4
 10
3.43497396E+02
 20
-2.92534059E+02
  0
VERTEX
  8
0
 62
4
 10
3.43578721E+02
 20
-2.92651566E+02
  0
VERTEX
  8
0
 62
4
 10
3.43670863E+02
 20
-2.92762102E+02
  0
VERTEX
  8
0
 62
4
 10
3.43773120E+02
 20
-2.92864824E+02
  0
VERTEX
  8
0
 62
4
 10
3.43884713E+02
 20
-2.92958952E+02
  0
VERTEX
  8
0
 62
4
 10
3.44004795E+02
 20
-2.93043769E+02
  0
VERTEX
  8
0
 62
4
 10
3.44132450E+02
 20
-2.93118629E+02
  0
VERTEX
  8
0
 62
4
 10
3.44266707E+02
 20
-2.93182963E+02
  0
VERTEX
  8
0
 62
4
 10
3.44406545E+02
 20
-2.93236281E+02
  0
VERTEX
  8
0
 62
4
 10
3.44550899E+02
 20
-2.93278178E+02
  0
VERTEX
  8
0
 62
4
 10
3.44698670E+02
 20
-2.93308334E+02
  0
VERTEX
  8
0
 62
4
 10
3.44848735E+02
 20
-2.93326520E+02
  0
VERTEX
  8
0
 62
4
 10
3.44999950E+02
 20
-2.93332597E+02
  0
VERTEX
  8
0
 62
4
 10
3.45151165E+02
 20
-2.93326520E+02
  0
VERTEX
  8
0
 62
4
 10
3.45301230E+02
 20
-2.93308334E+02
  0
VERTEX
  8
0
 62
4
 10
3.45449001E+02
 20
-2.93278178E+02
  0
VERTEX
  8
0
 62
4
 10
3.45593355E+02
 20
-2.93236281E+02
  0
VERTEX
  8
0
 62
4
 10
3.45733193E+02
 20
-2.93182963E+02
  0
VERTEX
  8
0
 62
4
 10
3.45867450E+02
 20
-2.93118629E+02
  0
VERTEX
  8
0
 62
4
 10
3.45995105E+02
 20
-2.93043769E+02
  0
VERTEX
  8
0
 62
4
 10
3.46115187E+02
 20
-2.92958952E+02
  0
VERTEX
  8
0
 62
4
 10
3.46226780E+02
 20
-2.92864824E+02
  0
VERTEX
  8
0
 62
4
 10
3.46329037E+02
 20
-2.92762102E+02
  0
VERTEX
  8
0
 62
4
 10
3.46421179E+02
 20
-2.92651566E+02
  0
VERTEX
  8
0
 62
4
 10
3.46502504E+02
 20
-2.92534059E+02
  0
VERTEX
  8
0
 62
4
 10
3.46572394E+02
 20
-2.92410474E+02
  0
VERTEX
  8
0
 62
4
 10
3.46630317E+02
 20
-2.92281753E+02
  0
VERTEX
  8
0
 62
4
 10
3.46675831E+02
 20
-2.92148875E+02
  0
VERTEX
  8
0
 62
4
 10
3.46708591E+02
 20
-2.92012850E+02
  0
VERTEX
  8
0
 62
4
 10
3.46728348E+02
 20
-2.91874715E+02
  0
VERTEX
  8
0
 62
4
 10
3.46734950E+02
 20
-2.91735521E+02
  0
SEQEND
  8
0
  0
LINE
  8
0
 62
4
 10
3.15499959E+02
 20
-2.62422316E+02
 11
3.15499959E+02
 21
-2.57381862E+02
  0
LINE
  8
0
 62
4
 10
3.51499950E+02
 20
-2.62422316E+02
 11
3.51499950E+02
 21
-2.57381862E+02
  0
LINE
  8
0
 62
4
 10
3.67999950E+02
 20
-2.37906693E+02
 11
3.62999950E+02
 21
-2.37906693E+02
  0
LINE
  8
0
 62
4
 10
3.67999950E+02
 20
-2.44819685E+02
 11
3.62999950E+02
 21
-2.44819685E+02
  0
LINE
  8
0
 62
4
 10
3.67999950E+02
 20
-2.45731826E+02
 11
3.62999950E+02
 21
-2.45731826E+02
  0
LINE
  8
0
  6
CENTER
 62
6
 10
3.24999950E+02
 20
-2.55236745E+02
 11
3.24999950E+02
 21
-2.59069941E+02
  0
POLYLINE
  8
0
 62
4
 66
1
  0
VERTEX
  8
0
 62
4
 10
3.28139950E+02
 20
-2.59069941E+02
  0
VERTEX
  8
0
 62
4
 10
3.28128001E+02
 20
-2.58963010E+02
  0
VERTEX
  8
0
 62
4
 10
3.28092246E+02
 20
-2.58856893E+02
  0
VERTEX
  8
0
 62
4
 10
3.28032957E+02
 20
-2.58752397E+02
  0
VERTEX
  8
0
 62
4
 10
3.27950585E+02
 20
-2.58650318E+02
  0
VERTEX
  8
0
 62
4
 10
3.27845756E+02
 20
-2.58551432E+02
  0
VERTEX
  8
0
 62
4
 10
3.27719270E+02
 20
-2.58456493E+02
  0
VERTEX
  8
0
 62
4
 10
3.27572087E+02
 20
-2.58366223E+02
  0
VERTEX
  8
0
 62
4
 10
3.27405330E+02
 20
-2.58281308E+02
  0
VERTEX
  8
0
 62
4
 10
3.27220265E+02
 20
-2.58202395E+02
  0
VERTEX
  8
0
 62
4
 10
3.27018303E+02
 20
-2.58130084E+02
  0
VERTEX
  8
0
 62
4
 10
3.26800980E+02
 20
-2.58064927E+02
  0
VERTEX
  8
0
 62
4
 10
3.26569950E+02
 20
-2.58007418E+02
  0
VERTEX
  8
0
 62
4
 10
3.26326971E+02
 20
-2.57957996E+02
  0
VERTEX
  8
0
 62
4
 10
3.26073893E+02
 20
-2.57917036E+02
  0
VERTEX
  8
0
 62
4
 10
3.25812642E+02
 20
-2.57884851E+02
  0
VERTEX
  8
0
 62
4
 10
3.25545205E+02
 20
-2.57861685E+02
  0
VERTEX
  8
0
 62
4
 10
3.25273619E+02
 20
-2.57847714E+02
  0
VERTEX
  8
0
 62
4
 10
3.24999950E+02
 20
-2.57843045E+02
  0
VERTEX
  8
0
 62
4
 10
3.24726281E+02
 20
-2.57847714E+02
  0
VERTEX
  8
0
 62
4
 10
3.24454695E+02
 20
-2.57861685E+02
  0
VERTEX
  8
0
 62
4
 10
3.24187258E+02
 20
-2.57884851E+02
  0
VERTEX
  8
0
 62
4
 10
3.23926007E+02
 20
-2.57917036E+02
  0
VERTEX
  8
0
 62
4
 10
3.23672929E+02
 20
-2.57957996E+02
  0
VERTEX
  8
0
 62
4
 10
3.23429950E+02
 20
-2.58007418E+02
  0
VERTEX
  8
0
 62
4
 10
3.23198920E+02
 20
-2.58064927E+02
  0
VERTEX
  8
0
 62
4
 10
3.22981597E+02
 20
-2.58130084E+02
  0
VERTEX
  8
0
 62
4
 10
3.22779635E+02
 20
-2.58202395E+02
  0
VERTEX
  8
0
 62
4
 10
3.22594570E+02
 20
-2.58281308E+02
  0
VERTEX
  8
0
 62
4
 10
3.22427813E+02
 20
-2.58366223E+02
  0
VERTEX
  8
0
 62
4
 10
3.22280630E+02
 20
-2.58456493E+02
  0
VERTEX
  8
0
 62
4
 10
3.22154144E+02
 20
-2.58551432E+02
  0
VERTEX
  8
0
 62
4
 10
3.22049315E+02
 20
-2.58650318E+02
  0
VERTEX
  8
0
 62
4
 10
3.21966943E+02
 20
-2.58752397E+02
  0
VERTEX
  8
0
 62
4
 10
3.21907654E+02
 20
-2.58856893E+02
  0
VERTEX
  8
0
 62
4
 10
3.21871899E+02
 20
-2.58963010E+02
  0
VERTEX
  8
0
 62
4
 10
3.21859950E+02
 20
-2.59069941E+02
  0
VERTEX
  8
0
 62
4
 10
3.21871899E+02
 20
-2.59176872E+02
  0
VERTEX
  8
0
 62
4
 10
3.21907654E+02
 20
-2.59282989E+02
  0
VERTEX
  8
0
 62
4
 10
3.21966943E+02
 20
-2.59387485E+02
  0
VERTEX
  8
0
 62
4
 10
3.22049315E+02
 20
-2.59489564E+02
  0
VERTEX
  8
0
 62
4
 10
3.22154144E+02
 20
-2.59588450E+02
  0
VERTEX
  8
0
 62
4
 10
3.22280630E+02
 20
-2.59683389E+02
  0
VERTEX
  8
0
 62
4
 10
3.22427813E+02
 20
-2.59773659E+02
  0
VERTEX
  8
0
 62
4
 10
3.22594570E+02
 20
-2.59858574E+02
  0
VERTEX
  8
0
 62
4
 10
3.22779635E+02
 20
-2.59937487E+02
  0
VERTEX
  8
0
 62
4
 10
3.22981597E+02
 20
-2.60009798E+02
  0
VERTEX
  8
0
 62
4
 10
3.23198920E+02
 20
-2.60074955E+02
  0
VERTEX
  8
0
 62
4
 10
3.23429950E+02
 20
-2.60132464E+02
  0
VERTEX
  8
0
 62
4
 10
3.23672929E+02
 20
-2.60181886E+02
  0
VERTEX
  8
0
 62
4
 10
3.23926007E+02
 20
-2.60222846E+02
  0
VERTEX
  8
0
 62
4
 10
3.24187258E+02
 20
-2.60255031E+02
  0
VERTEX
  8
0
 62
4
 10
3.24454695E+02
 20
-2.60278197E+02
  0
VERTEX
  8
0
 62
4
 10
3.24726281E+02
 20
-2.60292168E+02
  0
VERTEX
  8
0
 62
4
 10
3.24999950E+02
 20
-2.60296837E+02
  0
VERTEX
  8
0
 62
4
 10
3.25273619E+02
 20
-2.60292168E+02
  0
VERTEX
  8
0
 62
4
 10
3.25545205E+02
 20
-2.60278197E+02
  0
VERTEX
  8
0
 62
4
 10
3.25812642E+02
 20
-2.60255031E+02
  0
VERTEX
  8
0
 62
4
 10
3.26073893E+02
 20
-2.60222846E+02
  0
VERTEX
  8
0
 62
4
 10
3.26326971E+02
 20
-2.60181886E+02
  0
VERTEX
  8
0
 62
4
 10
3.26569950E+02
 20
-2.60132464E+02
  0
VERTEX
  8
0
 62
4
 10
3.26800980E+02
 20
-2.60074955E+02
  0
VERTEX
  8
0
 62
4
 10
3.27018303E+02
 20
-2.60009798E+02
  0
VERTEX
  8
0
 62
4
 10
3.27220265E+02
 20
-2.59937487E+02
  0
VERTEX
  8
0
 62
4
 10
3.27405330E+02
 20
-2.59858574E+02
  0
VERTEX
  8
0
 62
4
 10
3.27572087E+02
 20
-2.59773659E+02
  0
VERTEX
  8
0
 62
4
 10
3.27719270E+02
 20
-2.59683389E+02
  0
VERTEX
  8
0
 62
4
 10
3.27845756E+02
 20
-2.59588450E+02
  0
VERTEX
  8
0
 62
4
 10
3.27950585E+02
 20
-2.59489564E+02
  0
VERTEX
  8
0
 62
4
 10
3.28032957E+02
 20
-2.59387485E+02
  0
VERTEX
  8
0
 62
4
 10
3.28092246E+02
 20
-2.59282989E+02
  0
VERTEX
  8
0
 62
4
 10
3.28128001E+02
 20
-2.59176872E+02
  0
VERTEX
  8
0
 62
4
 10
3.28139950E+02
 20
-2.59069941E+02
  0
SEQEND
  8
0
  0
POLYLINE
  8
0
 62
4
 66
1
  0
VERTEX
  8
0
 62
4
 10
3.21552650E+02
 20
-2.59754023E+02
  0
VERTEX
  8
0
 62
4
 10
3.21512376E+02
 20
-2.59875313E+02
  0
VERTEX
  8
0
 62
4
 10
3.21499997E+02
 20
-2.59997524E+02
  0
VERTEX
  8
0
 62
4
 10
3.21515612E+02
 20
-2.60119678E+02
  0
VERTEX
  8
0
 62
4
 10
3.21559097E+02
 20
-2.60240799E+02
  0
VERTEX
  8
0
 62
4
 10
3.21630104E+02
 20
-2.60359917E+02
  0
VERTEX
  8
0
 62
4
 10
3.21728064E+02
 20
-2.60476080E+02
  0
VERTEX
  8
0
 62
4
 10
3.21852194E+02
 20
-2.60588358E+02
  0
VERTEX
  8
0
 62
4
 10
3.22001502E+02
 20
-2.60695855E+02
  0
VERTEX
  8
0
 62
4
 10
3.22174792E+02
 20
-2.60797709E+02
  0
VERTEX
  8
0
 62
4
 10
3.22370680E+02
 20
-2.60893106E+02
  0
VERTEX
  8
0
 62
4
 10
3.22587598E+02
 20
-2.60981283E+02
  0
VERTEX
  8
0
 62
4
 10
3.22823810E+02
 20
-2.61061535E+02
  0
VERTEX
  8
0
 62
4
 10
3.23077429E+02
 20
-2.61133220E+02
  0
VERTEX
  8
0
 62
4
 10
3.23346425E+02
 20
-2.61195765E+02
  0
VERTEX
  8
0
 62
4
 10
3.23628647E+02
 20
-2.61248669E+02
  0
VERTEX
  8
0
 62
4
 10
3.23921837E+02
 20
-2.61291509E+02
  0
VERTEX
  8
0
 62
4
 10
3.24223650E+02
 20
-2.61323942E+02
  0
VERTEX
  8
0
 62
4
 10
3.24531672E+02
 20
-2.61345710E+02
  0
VERTEX
  8
0
 62
4
 10
3.24843440E+02
 20
-2.61356637E+02
  0
VERTEX
  8
0
 62
4
 10
3.25156460E+02
 20
-2.61356637E+02
  0
VERTEX
  8
0
 62
4
 10
3.25468228E+02
 20
-2.61345710E+02
  0
VERTEX
  8
0
 62
4
 10
3.25776250E+02
 20
-2.61323942E+02
  0
VERTEX
  8
0
 62
4
 10
3.26078063E+02
 20
-2.61291509E+02
  0
VERTEX
  8
0
 62
4
 10
3.26371253E+02
 20
-2.61248669E+02
  0
VERTEX
  8
0
 62
4
 10
3.26653475E+02
 20
-2.61195765E+02
  0
VERTEX
  8
0
 62
4
 10
3.26922471E+02
 20
-2.61133220E+02
  0
VERTEX
  8
0
 62
4
 10
3.27176089E+02
 20
-2.61061535E+02
  0
VERTEX
  8
0
 62
4
 10
3.27412302E+02
 20
-2.60981283E+02
  0
VERTEX
  8
0
 62
4
 10
3.27629220E+02
 20
-2.60893106E+02
  0
VERTEX
  8
0
 62
4
 10
3.27825108E+02
 20
-2.60797709E+02
  0
VERTEX
  8
0
 62
4
 10
3.27998398E+02
 20
-2.60695855E+02
  0
VERTEX
  8
0
 62
4
 10
3.28147706E+02
 20
-2.60588358E+02
  0
VERTEX
  8
0
 62
4
 10
3.28271836E+02
 20
-2.60476080E+02
  0
VERTEX
  8
0
 62
4
 10
3.28369796E+02
 20
-2.60359917E+02
  0
VERTEX
  8
0
 62
4
 10
3.28440803E+02
 20
-2.60240799E+02
  0
VERTEX
  8
0
 62
4
 10
3.28484288E+02
 20
-2.60119678E+02
  0
VERTEX
  8
0
 62
4
 10
3.28499903E+02
 20
-2.59997524E+02
  0
VERTEX
  8
0
 62
4
 10
3.28487524E+02
 20
-2.59875313E+02
  0
VERTEX
  8
0
 62
4
 10
3.28447250E+02
 20
-2.59754023E+02
  0
SEQEND
  8
0
  0
LINE
  8
0
 62
4
 10
3.21859950E+02
 20
-2.59069941E+02
 11
3.21552650E+02
 21
-2.59754023E+02
  0
LINE
  8
0
 62
4
 10
3.28139950E+02
 20
-2.59069941E+02
 11
3.28447251E+02
 21
-2.59754023E+02
  0
LINE
  8
0
 62
2
 10
2.52287037E+02
 20
-3.27751481E+02
 11
2.85676605E+02
 21
-2.69919053E+02
  0
LINE
  8
0
 62
2
 10
-4.05918808E+01
 20
-3.28699506E+02
 11
-4.18165873E+00
 21
-2.65635151E+02
  0
ARC
  8
0
 62
4
 10
4.75054761E+02
 20
-3.19508529E+02
 40
2.90548000E+01
 50
1.61955323E+02
 51
1.79983182E+02
  0
ARC
  8
0
 62
4
 10
-2.03054799E+02
 20
-3.19508529E+02
 40
2.90548000E+01
 50
1.68181558E-02
 51
1.80446768E+01
  0
LINE
  8
0
 62
2
 10
4.45999966E+02
 20
-3.09319992E+02
 11
4.33999966E+02
 21
-3.09319992E+02
  0
LINE
  8
0
 62
7
 10
4.45999966E+02
 20
-3.08499977E+02
 11
4.33999966E+02
 21
-3.08499977E+02
  0
LINE
  8
0
 62
7
 10
-1.74000004E+02
 20
-3.08499977E+02
 11
-1.62000004E+02
 21
-3.08499977E+02
  0
LINE
  8
0
 62
2
 10
-1.74000004E+02
 20
-3.09319992E+02
 11
-1.62000004E+02
 21
-3.09319992E+02
  0
LINE
  8
0
 62
7
 10
-1.73999989E+02
 20
-1.50500000E+02
 11
-1.61999973E+02
 21
-1.50500000E+02
  0
LINE
  8
0
 62
2
 10
-1.73999989E+02
 20
-1.49679977E+02
 11
-1.61999973E+02
 21
-1.49679977E+02
  0
LINE
  8
0
 62
7
 10
-1.73999989E+02
 20
-1.28499969E+02
 11
-1.61999973E+02
 21
-1.28499969E+02
  0
LINE
  8
0
 62
2
 10
-1.73999989E+02
 20
-1.29319977E+02
 11
-1.61999973E+02
 21
-1.29319977E+02
  0
LINE
  8
0
 62
4
 10
-3.48000019E+02
 20
-3.10262390E+02
 11
-3.48000019E+02
 21
-3.19500000E+02
  0
LINE
  8
0
 62
4
 10
-3.80000019E+02
 20
-3.10262390E+02
 11
-3.80000019E+02
 21
-3.19500000E+02
  0
LINE
  8
0
 62
4
 10
-3.80000053E+02
 20
-3.10262419E+02
 11
-3.63999991E+02
 21
-3.01024777E+02
  0
LINE
  8
0
 62
4
 10
-3.63999958E+02
 20
-3.01024778E+02
 11
-3.47999985E+02
 21
-3.10262359E+02
  0
ARC
  8
0
 62
4
 10
-3.64000019E+02
 20
-3.19500000E+02
 40
1.60000000E+01
 50
0.00000000E+00
 51
1.80000000E+02
  0
LINE
  8
0
 62
4
 10
4.57570904E+02
 20
-3.10508529E+02
 11
4.47429028E+02
 21
-3.10508529E+02
  0
ARC
  8
0
 62
4
 10
4.29945166E+02
 20
-3.19508529E+02
 40
2.90548000E+01
 50
1.68181558E-02
 51
1.80447127E+01
  0
LINE
  8
0
 62
4
 10
4.47429046E+02
 20
-3.01033352E+02
 11
4.45999973E+02
 21
-3.03508540E+02
  0
LINE
  8
0
 62
4
 10
4.58999982E+02
 20
-3.03508525E+02
 11
4.57570899E+02
 21
-3.01033308E+02
  0
LINE
  8
0
 62
4
 10
4.57570904E+02
 20
-3.01033305E+02
 11
4.47429028E+02
 21
-3.01033305E+02
  0
LINE
  8
0
 62
4
 10
4.58999966E+02
 20
-3.03508525E+02
 11
4.58999966E+02
 21
-3.19500000E+02
  0
LINE
  8
0
 62
4
 10
4.45999966E+02
 20
-3.03508525E+02
 11
4.45999966E+02
 21
-3.19500000E+02
  0
ARC
  8
0
 62
4
 10
4.54562569E+02
 20
-3.05770919E+02
 40
8.56342793E+00
 50
1.46410742E+02
 51
2.13589395E+02
  0
ARC
  8
0
 62
4
 10
4.50437363E+02
 20
-3.05770919E+02
 40
8.56342793E+00
 50
3.26410682E+02
 51
3.35893354E+01
  0
LINE
  8
0
 62
4
 10
-1.85570942E+02
 20
-3.10508529E+02
 11
-1.75429066E+02
 21
-3.10508529E+02
  0
ARC
  8
0
 62
4
 10
-1.57945204E+02
 20
-3.19508529E+02
 40
2.90548000E+01
 50
1.61955287E+02
 51
1.79983182E+02
  0
LINE
  8
0
 62
4
 10
-1.75429084E+02
 20
-3.01033352E+02
 11
-1.74000011E+02
 21
-3.03508540E+02
  0
LINE
  8
0
 62
4
 10
-1.87000021E+02
 20
-3.03508525E+02
 11
-1.85570937E+02
 21
-3.01033308E+02
  0
LINE
  8
0
 62
4
 10
-1.85570942E+02
 20
-3.01033305E+02
 11
-1.75429066E+02
 21
-3.01033305E+02
  0
LINE
  8
0
 62
4
 10
-1.87000004E+02
 20
-3.03508525E+02
 11
-1.87000004E+02
 21
-3.19500000E+02
  0
LINE
  8
0
 62
4
 10
-1.74000004E+02
 20
-3.03508525E+02
 11
-1.74000004E+02
 21
-3.19500000E+02
  0
ARC
  8
0
 62
4
 10
-1.82562607E+02
 20
-3.05770919E+02
 40
8.56342793E+00
 50
3.26410605E+02
 51
3.35892584E+01
  0
ARC
  8
0
 62
4
 10
-1.78437401E+02
 20
-3.05770919E+02
 40
8.56342793E+00
 50
1.46410665E+02
 51
2.13589318E+02
  0
LINE
  8
0
 62
4
 10
-1.86999989E+02
 20
-1.55500000E+02
 11
-1.73999989E+02
 21
-1.55500000E+02
  0
ARC
  8
0
 62
4
 10
-1.63893202E+02
 20
-1.47500000E+02
 40
2.31067870E+01
 50
1.59743797E+02
 51
2.00256203E+02
  0
ARC
  8
0
 62
4
 10
-1.97106776E+02
 20
-1.47500000E+02
 40
2.31067870E+01
 50
3.39743797E+02
 51
2.02562028E+01
  0
LINE
  8
0
 62
4
 10
-1.85570923E+02
 20
-1.39500000E+02
 11
-1.75429054E+02
 21
-1.39500000E+02
  0
LINE
  8
0
 62
4
 10
-1.86999989E+02
 20
-1.23500000E+02
 11
-1.73999989E+02
 21
-1.23500000E+02
  0
LINE
  8
0
 62
4
 10
-1.86999989E+02
 20
-1.23500000E+02
 11
-1.86999989E+02
 21
-1.55500000E+02
  0
LINE
  8
0
 62
4
 10
-1.73999989E+02
 20
-1.23500000E+02
 11
-1.73999989E+02
 21
-1.55500000E+02
  0
ARC
  8
0
 62
4
 10
-1.63893202E+02
 20
-1.31500000E+02
 40
2.31067870E+01
 50
1.59743797E+02
 51
2.00256203E+02
  0
ARC
  8
0
 62
4
 10
-1.97106776E+02
 20
-1.31500000E+02
 40
2.31067870E+01
 50
3.39743797E+02
 51
2.02562028E+01
  0
TEXT
  8
0
 62
7
 10
-4.67179687E+02
 20
3.14250000E+02
 40
1.25000000E+01
  1
DDAH80*75
 41
1.00000015E+00
  7
MONOTXT
  0
LINE
  8
0
 62
7
 10
-4.06031148E+02
 20
-1.33977049E+01
 11
3.85968852E+02
 21
-1.33977049E+01
  0
LINE
  8
0
 62
7
 10
-4.06031148E+02
 20
-4.33977049E+01
 11
3.85968852E+02
 21
-4.33977049E+01
  0
LINE
  8
0
 62
7
 10
-4.06031148E+02
 20
-4.33977049E+01
 11
-4.06031148E+02
 21
-1.33977049E+01
  0
TEXT
  8
0
 62
7
 10
-3.95745835E+02
 20
-2.53977049E+01
 40
9.00000000E+00
  1
STROKE
 41
1.00000000E+00
  7
MONOTXT
  0
TEXT
  8
0
 62
7
 10
-4.00245835E+02
 20
-4.03977049E+01
 40
9.00000000E+00
  1
STRETCH
 41
1.00000000E+00
  7
MONOTXT
  0
LINE
  8
0
 62
7
 10
-4.06031148E+02
 20
-2.83977049E+01
 11
3.85968852E+02
 21
-2.83977049E+01
  0
LINE
  8
0
 62
7
 10
-3.34031148E+02
 20
-4.33977049E+01
 11
-3.34031148E+02
 21
-1.33977049E+01
  0
LINE
  8
0
 62
7
 10
-2.89031148E+02
 20
-4.33977049E+01
 11
-2.89031148E+02
 21
-1.33977049E+01
  0
LINE
  8
0
 62
7
 10
-2.44031148E+02
 20
-4.33977049E+01
 11
-2.44031148E+02
 21
-1.33977049E+01
  0
LINE
  8
0
 62
7
 10
-1.99031148E+02
 20
-4.33977049E+01
 11
-1.99031148E+02
 21
-1.33977049E+01
  0
LINE
  8
0
 62
7
 10
-1.54031148E+02
 20
-4.33977049E+01
 11
-1.54031148E+02
 21
-1.33977049E+01
  0
LINE
  8
0
 62
7
 10
-1.09031148E+02
 20
-4.33977049E+01
 11
-1.09031148E+02
 21
-1.33977049E+01
  0
LINE
  8
0
 62
7
 10
-6.40311475E+01
 20
-4.33977049E+01
 11
-6.40311475E+01
 21
-1.33977049E+01
  0
LINE
  8
0
 62
7
 10
-1.90311475E+01
 20
-4.33977049E+01
 11
-1.90311475E+01
 21
-1.33977049E+01
  0
LINE
  8
0
 62
7
 10
2.59688525E+01
 20
-4.33977049E+01
 11
2.59688525E+01
 21
-1.33977049E+01
  0
LINE
  8
0
 62
7
 10
7.09688525E+01
 20
-4.33977049E+01
 11
7.09688525E+01
 21
-1.33977049E+01
  0
LINE
  8
0
 62
7
 10
1.15968852E+02
 20
-4.33977049E+01
 11
1.15968852E+02
 21
-1.33977049E+01
  0
LINE
  8
0
 62
7
 10
1.60968852E+02
 20
-4.33977049E+01
 11
1.60968852E+02
 21
-1.33977049E+01
  0
LINE
  8
0
 62
7
 10
2.05968852E+02
 20
-4.33977049E+01
 11
2.05968852E+02
 21
-1.33977049E+01
  0
LINE
  8
0
 62
7
 10
2.50968852E+02
 20
-4.33977049E+01
 11
2.50968852E+02
 21
-1.33977049E+01
  0
LINE
  8
0
 62
7
 10
2.95968852E+02
 20
-4.33977049E+01
 11
2.95968852E+02
 21
-1.33977049E+01
  0
LINE
  8
0
 62
7
 10
3.40968852E+02
 20
-4.33977049E+01
 11
3.40968852E+02
 21
-1.33977049E+01
  0
LINE
  8
0
 62
7
 10
3.85968852E+02
 20
-4.33977049E+01
 11
3.85968852E+02
 21
-1.33977049E+01
  0
TEXT
  8
0
 62
7
 10
-3.19546773E+02
 20
-2.53977049E+01
 40
9.00000000E+00
  1
50
 41
1.00000000E+00
  7
MONOTXT
  0
TEXT
  8
0
 62
7
 10
-2.74546773E+02
 20
-2.53977049E+01
 40
9.00000000E+00
  1
75
 41
1.00000000E+00
  7
MONOTXT
  0
TEXT
  8
0
 62
7
 10
-2.34046773E+02
 20
-2.53977049E+01
 40
9.00000000E+00
  1
100
 41
1.00000000E+00
  7
MONOTXT
  0
TEXT
  8
0
 62
7
 10
-1.89046773E+02
 20
-2.53977049E+01
 40
9.00000000E+00
  1
150
 41
1.00000000E+00
  7
MONOTXT
  0
TEXT
  8
0
 62
7
 10
-1.44046773E+02
 20
-2.53977049E+01
 40
9.00000000E+00
  1
200
 41
1.00000000E+00
  7
MONOTXT
  0
TEXT
  8
0
 62
7
 10
-9.90467730E+01
 20
-2.53977049E+01
 40
9.00000000E+00
  1
250
 41
1.00000000E+00
  7
MONOTXT
  0
TEXT
  8
0
 62
7
 10
-5.40467725E+01
 20
-2.53977049E+01
 40
9.00000000E+00
  1
300
 41
1.00000000E+00
  7
MONOTXT
  0
TEXT
  8
0
 62
7
 10
-9.04677250E+00
 20
-2.53977049E+01
 40
9.00000000E+00
  1
350
 41
1.00000000E+00
  7
MONOTXT
  0
TEXT
  8
0
 62
7
 10
3.59532275E+01
 20
-2.53977049E+01
 40
9.00000000E+00
  1
400
 41
1.00000000E+00
  7
MONOTXT
  0
TEXT
  8
0
 62
7
 10
8.09532275E+01
 20
-2.53977049E+01
 40
9.00000000E+00
  1
450
 41
1.00000000E+00
  7
MONOTXT
  0
TEXT
  8
0
 62
7
 10
1.25953227E+02
 20
-2.53977049E+01
 40
9.00000000E+00
  1
500
 41
1.00000000E+00
  7
MONOTXT
  0
TEXT
  8
0
 62
7
 10
1.70953227E+02
 20
-2.53977049E+01
 40
9.00000000E+00
  1
600
 41
1.00000000E+00
  7
MONOTXT
  0
TEXT
  8
0
 62
7
 10
2.15953227E+02
 20
-2.53977049E+01
 40
9.00000000E+00
  1
700
 41
1.00000000E+00
  7
MONOTXT
  0
TEXT
  8
0
 62
7
 10
2.60953227E+02
 20
-2.53977049E+01
 40
9.00000000E+00
  1
800
 41
1.00000000E+00
  7
MONOTXT
  0
TEXT
  8
0
 62
7
 10
3.05953227E+02
 20
-2.53977049E+01
 40
9.00000000E+00
  1
900
 41
1.00000000E+00
  7
MONOTXT
  0
TEXT
  8
0
 62
7
 10
3.46453227E+02
 20
-2.53977049E+01
 40
9.00000000E+00
  1
1000
 41
1.00000000E+00
  7
MONOTXT
  0
TEXT
  8
0
 62
7
 10
-3.24046773E+02
 20
-4.03977049E+01
 40
9.00000000E+00
  1
-25
 41
1.00000000E+00
  7
MONOTXT
  0
TEXT
  8
0
 62
7
 10
-2.70046773E+02
 20
-4.03977049E+01
 40
9.00000000E+00
  1
0
 41
1.00000000E+00
  7
MONOTXT
  0
TEXT
  8
0
 62
7
 10
-2.29546773E+02
 20
-4.03977049E+01
 40
9.00000000E+00
  1
25
 41
1.00000000E+00
  7
MONOTXT
  0
TEXT
  8
0
 62
7
 10
-1.84546773E+02
 20
-4.03977049E+01
 40
9.00000000E+00
  1
75
 41
1.00000000E+00
  7
MONOTXT
  0
TEXT
  8
0
 62
7
 10
-1.44046773E+02
 20
-4.03977049E+01
 40
9.00000000E+00
  1
125
 41
1.00000000E+00
  7
MONOTXT
  0
TEXT
  8
0
 62
7
 10
-9.90467730E+01
 20
-4.03977049E+01
 40
9.00000000E+00
  1
175
 41
1.00000000E+00
  7
MONOTXT
  0
TEXT
  8
0
 62
7
 10
-5.40467725E+01
 20
-4.03977049E+01
 40
9.00000000E+00
  1
225
 41
1.00000000E+00
  7
MONOTXT
  0
TEXT
  8
0
 62
7
 10
-9.04677250E+00
 20
-4.03977049E+01
 40
9.00000000E+00
  1
275
 41
1.00000000E+00
  7
MONOTXT
  0
TEXT
  8
0
 62
7
 10
3.59532275E+01
 20
-4.03977049E+01
 40
9.00000000E+00
  1
325
 41
1.00000000E+00
  7
MONOTXT
  0
TEXT
  8
0
 62
7
 10
8.09532275E+01
 20
-4.03977049E+01
 40
9.00000000E+00
  1
375
 41
1.00000000E+00
  7
MONOTXT
  0
TEXT
  8
0
 62
7
 10
1.25953227E+02
 20
-4.03977049E+01
 40
9.00000000E+00
  1
425
 41
1.00000000E+00
  7
MONOTXT
  0
TEXT
  8
0
 62
7
 10
1.70953227E+02
 20
-4.03977049E+01
 40
9.00000000E+00
  1
525
 41
1.00000000E+00
  7
MONOTXT
  0
TEXT
  8
0
 62
7
 10
2.15953227E+02
 20
-4.03977049E+01
 40
9.00000000E+00
  1
625
 41
1.00000000E+00
  7
MONOTXT
  0
TEXT
  8
0
 62
7
 10
2.60953227E+02
 20
-4.03977049E+01
 40
9.00000000E+00
  1
725
 41
1.00000000E+00
  7
MONOTXT
  0
TEXT
  8
0
 62
7
 10
3.05953227E+02
 20
-4.03977049E+01
 40
9.00000000E+00
  1
825
 41
1.00000000E+00
  7
MONOTXT
  0
TEXT
  8
0
 62
7
 10
3.50953227E+02
 20
-4.03977049E+01
 40
9.00000000E+00
  1
925
 41
1.00000000E+00
  7
MONOTXT
  0
TEXT
  8
0
 62
7
 10
-6.30467726E+01
 20
-7.89770492E+00
 40
9.00000000E+00
  1
STRETCH LIST
 41
1.05263158E+00
  7
MONOTXT
  0
TEXT
  8
0
 62
7
 10
3.42953227E+02
 20
-7.89770492E+00
 40
9.00000000E+00
  1
(mm)
 41
1.00000000E+00
  7
MONOTXT
  0
LINE
  8
0
 62
7
 10
-1.76713604E+01
 20
-2.89000000E+02
 11
-8.80000191E+01
 21
-2.89000000E+02
  0
LINE
  8
0
 62
7
 10
-1.24751991E+01
 20
-2.79999985E+02
 11
-8.80000191E+01
 21
-2.79999985E+02
  0
LINE
  8
0
 62
7
 10
-1.01658069E+01
 20
-2.76000000E+02
 11
-8.80000191E+01
 21
-2.76000000E+02
  0
LINE
  8
0
 62
4
 10
6.89999809E+01
 20
-2.90683201E+02
 11
6.89109426E+01
 21
-2.90462823E+02
  0
LINE
  8
0
 62
4
 10
6.89109426E+01
 20
-2.90462823E+02
 11
6.89999809E+01
 21
-2.90426849E+02
  0
LINE
  8
0
  6
CENTER
 62
2
 10
-2.07243389E+02
 20
-3.19500000E+02
 11
-3.52805436E+01
 21
-3.19500000E+02
  0
LINE
  8
0
  6
CENTER
 62
2
 10
-2.07798306E+02
 20
-1.39500000E+02
 11
-3.52804749E+01
 21
-1.39500000E+02
  0
LINE
  8
0
 62
7
 10
-4.06999958E+02
 20
-2.73099976E+02
 11
-3.20999989E+02
 21
-2.73100037E+02
  0
LINE
  8
0
 62
7
 10
-4.10400043E+02
 20
-3.19500000E+02
 11
-4.10400043E+02
 21
-2.76500015E+02
  0
LINE
  8
0
 62
7
 10
-4.07400043E+02
 20
-3.19500000E+02
 11
-4.07400043E+02
 21
-3.01498917E+02
  0
LINE
  8
0
  6
CENTER
 62
2
 10
-3.99000019E+02
 20
-2.70314667E+02
 11
-3.99000019E+02
 21
-2.99038361E+02
  0
LINE
  8
0
 62
7
 10
-4.11000019E+02
 20
-3.19500000E+02
 11
-4.11000019E+02
 21
-2.76500015E+02
  0
LINE
  8
0
 62
7
 10
-1.45000004E+02
 20
-3.19500000E+02
 11
-1.45000004E+02
 21
-3.00500000E+02
  0
LINE
  8
0
 62
7
 10
-1.23508666E+02
 20
-9.31195841E+01
 11
-8.79999452E+01
 21
-9.24997771E+01
  0
LINE
  8
0
 62
7
 10
-1.23999958E+02
 20
-9.36197205E+01
 11
-1.23999958E+02
 21
-1.85380280E+02
  0
LINE
  8
0
 62
7
 10
-8.79999580E+01
 20
-9.25000000E+01
 11
-8.79999580E+01
 21
-1.02216245E+02
  0
LINE
  8
0
 62
7
 10
-1.23508737E+02
 20
-1.85880065E+02
 11
-8.80000153E+01
 21
-1.86499872E+02
  0
LINE
  8
0
 62
7
 10
-1.19999958E+02
 20
-1.11499969E+02
 11
-1.19999958E+02
 21
-1.67499985E+02
  0
LINE
  8
0
 62
7
 10
-1.17999958E+02
 20
-1.09500031E+02
 11
-9.59999580E+01
 21
-1.09500031E+02
  0
LINE
  8
0
 62
7
 10
-1.17999958E+02
 20
-1.69500031E+02
 11
-8.79999580E+01
 21
-1.69500031E+02
  0
LINE
  8
0
 62
7
 10
-1.40000019E+02
 20
-3.19500000E+02
 11
-1.40000019E+02
 21
-2.98971741E+02
  0
LINE
  8
0
 62
7
 10
-1.44499943E+02
 20
-1.20000031E+02
 11
-1.39999943E+02
 21
-1.20000031E+02
  0
LINE
  8
0
 62
7
 10
-1.39999958E+02
 20
-1.18936768E+02
 11
-1.39999958E+02
 21
-1.60028229E+02
  0
LINE
  8
0
 62
7
 10
-1.44999958E+02
 20
-1.20499969E+02
 11
-1.44999958E+02
 21
-1.58499985E+02
  0
LINE
  8
0
 62
7
 10
-1.44499943E+02
 20
-1.59000031E+02
 11
-1.39999943E+02
 21
-1.59000031E+02
  0
LINE
  8
0
 62
7
 10
-1.25499958E+02
 20
-1.61500061E+02
 11
-1.23999958E+02
 21
-1.61500061E+02
  0
LINE
  8
0
 62
7
 10
-1.39517433E+02
 20
-1.60527758E+02
 11
-1.25999992E+02
 21
-1.60999797E+02
  0
LINE
  8
0
 62
7
 10
-1.25499958E+02
 20
-1.17500031E+02
 11
-1.23999958E+02
 21
-1.17500031E+02
  0
LINE
  8
0
 62
7
 10
-1.39517439E+02
 20
-1.18471883E+02
 11
-1.25999982E+02
 21
-1.17999843E+02
  0
LINE
  8
0
 62
7
 10
-1.25999958E+02
 20
-1.60999969E+02
 11
-1.25999958E+02
 21
-1.18000000E+02
  0
LINE
  8
0
 62
7
 10
-3.81069455E+02
 20
-3.04198439E+02
 11
-3.91189511E+02
 21
-2.94078383E+02
  0
LINE
  8
0
 62
7
 10
-3.79301580E+02
 20
-3.02430650E+02
 11
-3.89421615E+02
 21
-2.92310616E+02
  0
LINE
  8
0
 62
7
 10
-3.65250019E+02
 20
-2.77100006E+02
 11
-3.65250019E+02
 21
-2.96610321E+02
  0
LINE
  8
0
 62
7
 10
-4.06399952E+02
 20
-3.18250000E+02
 11
-3.86889698E+02
 21
-3.18250000E+02
  0
LINE
  8
0
 62
7
 10
-3.21599964E+02
 20
-3.18250023E+02
 11
-3.41110279E+02
 21
-3.18250023E+02
  0
LINE
  8
0
 62
7
 10
-3.17600025E+02
 20
-3.19500000E+02
 11
-3.17600025E+02
 21
-2.76500031E+02
  0
LINE
  8
0
 62
7
 10
-3.20600025E+02
 20
-3.19500000E+02
 11
-3.20600025E+02
 21
-3.01498825E+02
  0
LINE
  8
0
 62
7
 10
-3.16999989E+02
 20
-3.19500000E+02
 11
-3.16999989E+02
 21
-2.76500031E+02
  0
LINE
  8
0
  6
CENTER
 62
2
 10
-3.64000019E+02
 20
-2.68644241E+02
 11
-3.64000019E+02
 21
-3.19500000E+02
  0
LINE
  8
0
  6
CENTER
 62
2
 10
-3.28999989E+02
 20
-2.70127319E+02
 11
-3.28999989E+02
 21
-2.99864243E+02
  0
LINE
  8
0
  6
CENTER
 62
2
 10
-4.13555500E+02
 20
-2.84500000E+02
 11
-3.84309010E+02
 21
-2.84500000E+02
  0
LINE
  8
0
 62
7
 10
-3.46930674E+02
 20
-3.04198343E+02
 11
-3.36810605E+02
 21
-2.94078278E+02
  0
LINE
  8
0
 62
7
 10
-3.48698570E+02
 20
-3.02430489E+02
 11
-3.38578512E+02
 21
-2.92310435E+02
  0
LINE
  8
0
 62
7
 10
-3.62749989E+02
 20
-2.77100052E+02
 11
-3.62749989E+02
 21
-2.96610275E+02
  0
LINE
  8
0
 62
7
 10
-3.45998920E+02
 20
-2.76100037E+02
 11
-3.82001148E+02
 21
-2.76100037E+02
  0
LINE
  8
0
 62
7
 10
-4.06999958E+02
 20
-2.72500000E+02
 11
-3.20999989E+02
 21
-2.72500031E+02
  0
LINE
  8
0
 62
7
 10
-3.34000019E+02
 20
-2.72500031E+02
 11
-3.34000019E+02
 21
-2.73100037E+02
  0
LINE
  8
0
 62
7
 10
-3.94000019E+02
 20
-2.72500000E+02
 11
-3.94000019E+02
 21
-2.73099976E+02
  0
LINE
  8
0
 62
7
 10
-4.03000019E+02
 20
-2.96634689E+02
 11
-4.03000019E+02
 21
-2.97000031E+02
  0
LINE
  8
0
 62
7
 10
-3.86865345E+02
 20
-2.80499954E+02
 11
-3.86500050E+02
 21
-2.80499954E+02
  0
LINE
  8
0
 62
7
 10
-3.41134632E+02
 20
-2.80500046E+02
 11
-3.41500019E+02
 21
-2.80500046E+02
  0
LINE
  8
0
 62
7
 10
-3.24999928E+02
 20
-2.96634674E+02
 11
-3.24999928E+02
 21
-2.96999939E+02
  0
LINE
  8
0
  6
CENTER
 62
2
 10
-3.43222126E+02
 20
-2.84500000E+02
 11
-3.14012257E+02
 21
-2.84500000E+02
  0
LINE
  8
0
  6
CENTER
 62
2
 10
-3.12465199E+02
 20
-3.19500000E+02
 11
-4.14465443E+02
 21
-3.19500000E+02
  0
LINE
  8
0
 62
7
 10
-1.26000004E+02
 20
-2.98000046E+02
 11
-1.26000004E+02
 21
-3.19500000E+02
  0
LINE
  8
0
 62
7
 10
-6.03952369E+01
 20
-1.83000031E+02
 11
-8.79999580E+01
 21
-1.83000031E+02
  0
LINE
  8
0
  6
CENTER
 62
2
 10
-5.54877508E+01
 20
-1.74500015E+02
 11
-1.26524479E+02
 21
-1.74500015E+02
  0
LINE
  8
0
 62
7
 10
-5.28896746E+01
 20
-1.70000015E+02
 11
-8.79999580E+01
 21
-1.70000015E+02
  0
LINE
  8
0
 62
7
 10
-5.80858270E+01
 20
-1.79000015E+02
 11
-8.79999580E+01
 21
-1.79000015E+02
  0
LINE
  8
0
 62
7
 10
-1.47000126E+02
 20
-1.27000000E+02
 11
-1.44999973E+02
 21
-1.27000000E+02
  0
LINE
  8
0
 62
7
 10
-1.46999989E+02
 20
-1.52000046E+02
 11
-1.45000004E+02
 21
-1.52000046E+02
  0
LINE
  8
0
 62
7
 10
-1.56000004E+02
 20
-3.12717720E+02
 11
-1.56000004E+02
 21
-3.07000000E+02
  0
LINE
  8
0
 62
7
 10
-1.55999973E+02
 20
-1.29000000E+02
 11
-1.55999973E+02
 21
-1.50000000E+02
  0
LINE
  8
0
 62
7
 10
-1.59000004E+02
 20
-3.19500015E+02
 11
-1.59000004E+02
 21
-3.08499977E+02
  0
LINE
  8
0
 62
7
 10
-1.99000004E+02
 20
-3.09999954E+02
 11
-1.99000004E+02
 21
-3.19500000E+02
  0
LINE
  8
0
 62
7
 10
-1.62000004E+02
 20
-3.08499977E+02
 11
-1.62000004E+02
 21
-3.19500000E+02
  0
LINE
  8
0
 62
7
 10
-1.97500004E+02
 20
-3.08499977E+02
 11
-1.97500004E+02
 21
-3.19500000E+02
  0
LINE
  8
0
 62
7
 10
-1.58999973E+02
 20
-1.50000031E+02
 11
-1.58999973E+02
 21
-1.29000000E+02
  0
LINE
  8
0
 62
7
 10
-1.99000004E+02
 20
-1.48999878E+02
 11
-1.99000004E+02
 21
-1.30000061E+02
  0
LINE
  8
0
 62
7
 10
-1.61999973E+02
 20
-1.50500000E+02
 11
-1.61999973E+02
 21
-1.28499969E+02
  0
LINE
  8
0
 62
7
 10
-1.97500034E+02
 20
-1.28499969E+02
 11
-1.86999989E+02
 21
-1.28499969E+02
  0
LINE
  8
0
 62
7
 10
-1.97500004E+02
 20
-1.50500000E+02
 11
-1.97500004E+02
 21
-1.28499969E+02
  0
LINE
  8
0
 62
7
 10
-1.98999961E+02
 20
-1.30000094E+02
 11
-1.97499926E+02
 21
-1.28500059E+02
  0
LINE
  8
0
 62
2
 10
-1.98320011E+02
 20
-1.29319977E+02
 11
-1.86999989E+02
 21
-1.29319977E+02
  0
LINE
  8
0
 62
7
 10
-1.97500034E+02
 20
-1.50500000E+02
 11
-1.86999989E+02
 21
-1.50500000E+02
  0
LINE
  8
0
 62
7
 10
-1.98999972E+02
 20
-1.48999931E+02
 11
-1.97499981E+02
 21
-1.50499922E+02
  0
LINE
  8
0
 62
2
 10
-1.98320011E+02
 20
-1.49679977E+02
 11
-1.86999989E+02
 21
-1.49679977E+02
  0
LINE
  8
0
  6
CENTER
 62
2
 10
-9.49999733E+01
 20
-1.47952271E+02
 11
-9.49999733E+01
 21
-1.62565659E+02
  0
LINE
  8
0
  6
CENTER
 62
2
 10
-1.03194553E+02
 20
-1.55500061E+02
 11
-8.69255409E+01
 21
-1.55500061E+02
  0
LINE
  8
0
 62
7
 10
-9.32678494E+01
 20
-1.55500141E+02
 11
-9.41338885E+01
 21
-1.54000108E+02
  0
LINE
  8
0
 62
7
 10
-9.41339455E+01
 20
-1.54000061E+02
 11
-9.58660316E+01
 21
-1.54000061E+02
  0
LINE
  8
0
 62
7
 10
-9.67317818E+01
 20
-1.55500291E+02
 11
-9.58657655E+01
 21
-1.54000298E+02
  0
LINE
  8
0
 62
7
 10
-9.58659348E+01
 20
-1.57000102E+02
 11
-9.67320045E+01
 21
-1.55500016E+02
  0
LINE
  8
0
 62
7
 10
-9.41339455E+01
 20
-1.57000076E+02
 11
-9.58660316E+01
 21
-1.57000076E+02
  0
LINE
  8
0
 62
7
 10
-9.32677454E+01
 20
-1.55500151E+02
 11
-9.41337845E+01
 21
-1.57000183E+02
  0
LINE
  8
0
 62
7
 10
-1.58999989E+02
 20
-1.29000000E+02
 11
-1.49000141E+02
 21
-1.29000000E+02
  0
LINE
  8
0
 62
7
 10
-1.58999989E+02
 20
-1.50000000E+02
 11
-1.49000034E+02
 21
-1.50000000E+02
  0
LINE
  8
0
 62
7
 10
-1.49000034E+02
 20
-1.50000006E+02
 11
-1.46999989E+02
 21
-1.52000051E+02
  0
LINE
  8
0
 62
7
 10
-1.49000097E+02
 20
-1.28999897E+02
 11
-1.47000140E+02
 21
-1.26999940E+02
  0
LINE
  8
0
 62
7
 10
-1.76712994E+01
 20
-1.09000000E+02
 11
-4.19999580E+01
 21
-1.09000000E+02
  0
LINE
  8
0
  6
CENTER
 62
2
 10
-1.50732232E+01
 20
-1.04500000E+02
 11
-6.14999580E+01
 21
-1.04500000E+02
  0
LINE
  8
0
 62
7
 10
-1.24751470E+01
 20
-1.00000000E+02
 11
-6.14999580E+01
 21
-1.00000000E+02
  0
LINE
  8
0
 62
7
 10
-1.01657283E+01
 20
-9.59999695E+01
 11
-6.14999580E+01
 21
-9.59999695E+01
  0
LINE
  8
0
 62
7
 10
-1.99000069E+02
 20
-3.10000018E+02
 11
-1.97500051E+02
 21
-3.08500000E+02
  0
LINE
  8
0
 62
7
 10
-1.97500065E+02
 20
-3.08499977E+02
 11
-1.87000004E+02
 21
-3.08499977E+02
  0
LINE
  8
0
 62
2
 10
-1.98320072E+02
 20
-3.09319992E+02
 11
-1.87000004E+02
 21
-3.09319992E+02
  0
LINE
  8
0
 62
7
 10
-1.56000050E+02
 20
-3.06999954E+02
 11
-1.45000034E+02
 21
-3.06999954E+02
  0
LINE
  8
0
 62
7
 10
-1.44500034E+02
 20
-3.00000015E+02
 11
-1.40000034E+02
 21
-3.00000015E+02
  0
LINE
  8
0
 62
7
 10
-1.39517550E+02
 20
-2.98472073E+02
 11
-1.26000079E+02
 21
-2.98000033E+02
  0
LINE
  8
0
 62
7
 10
-1.25500034E+02
 20
-2.97500000E+02
 11
-1.24000034E+02
 21
-2.97500000E+02
  0
LINE
  8
0
  6
CENTER
 62
2
 10
-1.03999973E+02
 20
-1.42605865E+02
 11
-1.03999973E+02
 21
-1.14676758E+02
  0
LINE
  8
0
  6
CENTER
 62
2
 10
-9.02976418E+01
 20
-1.28500061E+02
 11
-1.18094898E+02
 21
-1.28500061E+02
  0
LINE
  8
0
 62
7
 10
-1.24000019E+02
 20
-3.19500000E+02
 11
-1.24000019E+02
 21
-2.73619720E+02
  0
LINE
  8
0
 62
7
 10
-8.80000191E+01
 20
-3.19500000E+02
 11
-8.80000191E+01
 21
-2.72500000E+02
  0
LINE
  8
0
 62
7
 10
-1.20000034E+02
 20
-2.72500000E+02
 11
-8.80000343E+01
 21
-2.72500000E+02
  0
LINE
  8
0
 62
7
 10
-1.23508792E+02
 20
-2.73119792E+02
 11
-8.80000405E+01
 21
-2.72499985E+02
  0
LINE
  8
0
 62
7
 10
-1.20000004E+02
 20
-2.73058548E+02
 11
-1.20000004E+02
 21
-2.72500000E+02
  0
LINE
  8
0
  6
CENTER
 62
2
 10
-1.50732754E+01
 20
-2.84499985E+02
 11
-1.26524509E+02
 21
-2.84499985E+02
  0
LINE
  8
0
  6
CENTER
 62
2
 10
-3.75000080E+02
 20
-2.85199966E+02
 11
-3.75000080E+02
 21
-2.70047379E+02
  0
LINE
  8
0
  6
CENTER
 62
2
 10
-1.04000004E+02
 20
-2.85199951E+02
 11
-1.04000004E+02
 21
-2.70047348E+02
  0
LINE
  8
0
 62
7
 10
-1.49000019E+02
 20
-3.19500000E+02
 11
-1.49000019E+02
 21
-3.12717720E+02
  0
LINE
  8
0
 62
7
 10
-1.56000004E+02
 20
-3.12717720E+02
 11
-1.49000019E+02
 21
-3.12717720E+02
  0
LINE
  8
0
 62
7
 10
-1.58999996E+02
 20
-3.16000141E+02
 11
-1.55999998E+02
 21
-3.12717726E+02
  0
LINE
  8
0
 62
7
 10
-1.59000025E+02
 20
-3.08499968E+02
 11
-1.56000012E+02
 21
-3.06999939E+02
  0
LINE
  8
0
 62
2
 10
-1.49000026E+02
 20
-3.12717715E+02
 11
-1.54000011E+02
 21
-3.19500000E+02
  0
LINE
  8
0
 62
2
 10
-1.54000016E+02
 20
-3.19500000E+02
 11
-1.57660563E+02
 21
-3.14534611E+02
  0
LINE
  8
0
 62
7
 10
1.62400013E+02
 20
-3.19500000E+02
 11
1.62400013E+02
 21
-2.76500015E+02
  0
LINE
  8
0
 62
7
 10
1.59400005E+02
 20
-3.19500000E+02
 11
1.59400005E+02
 21
-3.01498917E+02
  0
LINE
  8
0
 62
7
 10
7.29999542E+01
 20
-2.72500031E+02
 11
1.58999920E+02
 21
-2.72500000E+02
  0
LINE
  8
0
  6
CENTER
 62
2
 10
1.50999996E+02
 20
-2.70314667E+02
 11
1.50999996E+02
 21
-2.99038361E+02
  0
LINE
  8
0
 62
7
 10
1.63000004E+02
 20
-3.19500000E+02
 11
1.63000004E+02
 21
-2.76500015E+02
  0
LINE
  8
0
 62
7
 10
1.33069420E+02
 20
-3.04198435E+02
 11
1.43189487E+02
 21
-2.94078369E+02
  0
LINE
  8
0
 62
7
 10
1.31301550E+02
 20
-3.02430630E+02
 11
1.41421585E+02
 21
-2.92310596E+02
  0
LINE
  8
0
 62
7
 10
1.17249996E+02
 20
-2.77100006E+02
 11
1.17249996E+02
 21
-2.96610321E+02
  0
LINE
  8
0
 62
7
 10
1.58399929E+02
 20
-3.18250000E+02
 11
1.38889675E+02
 21
-3.18250000E+02
  0
LINE
  8
0
 62
7
 10
7.35999451E+01
 20
-3.18250023E+02
 11
9.31102448E+01
 21
-3.18250023E+02
  0
LINE
  8
0
 62
7
 10
6.96000061E+01
 20
-3.19500000E+02
 11
6.96000061E+01
 21
-2.76500031E+02
  0
LINE
  8
0
 62
7
 10
7.26000061E+01
 20
-3.19500000E+02
 11
7.26000061E+01
 21
-3.01498825E+02
  0
LINE
  8
0
 62
7
 10
6.89999695E+01
 20
-3.19500000E+02
 11
6.89999695E+01
 21
-2.76500031E+02
  0
LINE
  8
0
  6
CENTER
 62
2
 10
1.15999981E+02
 20
-2.68644241E+02
 11
1.15999981E+02
 21
-3.19500000E+02
  0
LINE
  8
0
 62
7
 10
7.29999542E+01
 20
-2.73100037E+02
 11
1.58999920E+02
 21
-2.73099976E+02
  0
LINE
  8
0
  6
CENTER
 62
2
 10
8.09999695E+01
 20
-2.70127319E+02
 11
8.09999695E+01
 21
-2.99864243E+02
  0
LINE
  8
0
  6
CENTER
 62
2
 10
1.65555470E+02
 20
-2.84500000E+02
 11
1.36308987E+02
 21
-2.84500000E+02
  0
LINE
  8
0
 62
7
 10
9.89306322E+01
 20
-3.04198345E+02
 11
8.88105633E+01
 21
-2.94078281E+02
  0
LINE
  8
0
 62
7
 10
1.00698534E+02
 20
-3.02430475E+02
 11
9.05784809E+01
 21
-2.92310427E+02
  0
LINE
  8
0
 62
7
 10
1.14749966E+02
 20
-2.77100052E+02
 11
1.14749966E+02
 21
-2.96610275E+02
  0
LINE
  8
0
 62
7
 10
9.79988823E+01
 20
-2.76100037E+02
 11
1.34001125E+02
 21
-2.76100037E+02
  0
LINE
  8
0
 62
7
 10
8.59999847E+01
 20
-2.72500031E+02
 11
8.59999847E+01
 21
-2.73100037E+02
  0
LINE
  8
0
 62
7
 10
1.45999981E+02
 20
-2.72500000E+02
 11
1.45999981E+02
 21
-2.73099976E+02
  0
LINE
  8
0
 62
7
 10
1.54999981E+02
 20
-2.96634689E+02
 11
1.54999981E+02
 21
-2.97000031E+02
  0
LINE
  8
0
 62
7
 10
1.38865322E+02
 20
-2.80499954E+02
 11
1.38500027E+02
 21
-2.80499954E+02
  0
LINE
  8
0
 62
7
 10
9.31345978E+01
 20
-2.80500046E+02
 11
9.34999847E+01
 21
-2.80500046E+02
  0
LINE
  8
0
 62
7
 10
7.69998932E+01
 20
-2.96634674E+02
 11
7.69998932E+01
 21
-2.96999939E+02
  0
LINE
  8
0
  6
CENTER
 62
2
 10
9.52220917E+01
 20
-2.84500000E+02
 11
6.60122375E+01
 21
-2.84500000E+02
  0
LINE
  8
0
  6
CENTER
 62
2
 10
6.44651794E+01
 20
-3.19500000E+02
 11
1.66465412E+02
 21
-3.19500000E+02
  0
LINE
  8
0
  6
CENTER
 62
2
 10
1.27000042E+02
 20
-2.85199966E+02
 11
1.27000042E+02
 21
-2.70047379E+02
  0
LINE
  8
0
 62
7
 10
1.50999992E+02
 20
-2.78726503E+02
 11
1.45999995E+02
 21
-2.81613252E+02
  0
LINE
  8
0
 62
7
 10
1.45999996E+02
 20
-2.81613251E+02
 11
1.45999996E+02
 21
-2.87386749E+02
  0
LINE
  8
0
 62
7
 10
1.50999995E+02
 20
-2.90273508E+02
 11
1.45999995E+02
 21
-2.87386757E+02
  0
LINE
  8
0
 62
7
 10
1.55999990E+02
 20
-2.87386753E+02
 11
1.50999993E+02
 21
-2.90273502E+02
  0
LINE
  8
0
 62
7
 10
1.55999996E+02
 20
-2.81613251E+02
 11
1.55999996E+02
 21
-2.87386749E+02
  0
LINE
  8
0
 62
7
 10
1.50999995E+02
 20
-2.78726503E+02
 11
1.55999995E+02
 21
-2.81613254E+02
  0
LINE
  8
0
 62
7
 10
8.09999699E+01
 20
-2.78726499E+02
 11
7.59999670E+01
 21
-2.81613252E+02
  0
LINE
  8
0
 62
7
 10
7.59999695E+01
 20
-2.81613251E+02
 11
7.59999695E+01
 21
-2.87386749E+02
  0
LINE
  8
0
 62
7
 10
8.09999678E+01
 20
-2.90273509E+02
 11
7.59999666E+01
 21
-2.87386757E+02
  0
LINE
  8
0
 62
7
 10
8.59999699E+01
 20
-2.87386752E+02
 11
8.09999670E+01
 21
-2.90273506E+02
  0
LINE
  8
0
 62
7
 10
8.59999695E+01
 20
-2.81613251E+02
 11
8.59999695E+01
 21
-2.87386749E+02
  0
LINE
  8
0
 62
7
 10
8.09999666E+01
 20
-2.78726503E+02
 11
8.59999678E+01
 21
-2.81613255E+02
  0
LINE
  8
0
 62
7
 10
-1.61999973E+02
 20
-1.29319977E+02
 11
-1.58999973E+02
 21
-1.29319977E+02
  0
LINE
  8
0
 62
7
 10
-1.61999973E+02
 20
-1.49679977E+02
 11
-1.58999973E+02
 21
-1.49679977E+02
  0
LINE
  8
0
 62
7
 10
-1.62000004E+02
 20
-3.09319992E+02
 11
-1.59000004E+02
 21
-3.09319992E+02
  0
CIRCLE
  8
0
 62
7
 10
-3.99000019E+02
 20
-2.84500031E+02
 40
8.69999981E+00
  0
ARC
  8
0
 62
7
 10
-3.88714527E+02
 20
-2.91603455E+02
 40
1.00000000E+00
 50
1.45369634E+02
 51
2.24999955E+02
  0
ARC
  8
0
 62
7
 10
-3.91896534E+02
 20
-2.94785492E+02
 40
1.00000000E+00
 50
4.49999910E+01
 51
1.24630380E+02
  0
ARC
  8
0
 62
7
 10
-3.66250019E+02
 20
-2.77100006E+02
 40
1.00000000E+00
 50
3.59999959E+02
 51
8.99999956E+01
  0
ARC
  8
0
 62
7
 10
-3.99000019E+02
 20
-2.84500031E+02
 40
1.15000000E+01
 50
2.56113404E+02
 51
1.38868930E+01
  0
ARC
  8
0
 62
7
 10
-4.06399952E+02
 20
-3.17250000E+02
 40
1.00000000E+00
 50
1.79999964E+02
 51
2.69999946E+02
  0
ARC
  8
0
 62
7
 10
-4.06999989E+02
 20
-2.76500015E+02
 40
3.40000033E+00
 50
9.00000231E+01
 51
1.79999977E+02
  0
ARC
  8
0
 62
7
 10
-4.06999989E+02
 20
-2.76500015E+02
 40
4.00000000E+00
 50
9.00000231E+01
 51
1.79999977E+02
  0
CIRCLE
  8
0
 62
7
 10
-3.99000019E+02
 20
-2.84500031E+02
 40
8.00000000E+00
  0
ARC
  8
0
 62
7
 10
-3.86500050E+02
 20
-2.77000000E+02
 40
3.50000024E+00
 50
2.70000018E+02
 51
3.58726970E+02
  0
ARC
  8
0
 62
7
 10
-4.06500080E+02
 20
-2.97000031E+02
 40
3.50000024E+00
 50
2.71274531E+02
 51
4.99579573E-04
  0
ARC
  8
0
 62
7
 10
-4.06399952E+02
 20
-3.01498917E+02
 40
1.00000000E+00
 50
9.12747958E+01
 51
1.79999964E+02
  0
ARC
  8
0
 62
7
 10
-3.82001148E+02
 20
-2.77099976E+02
 40
1.00000000E+00
 50
8.99999818E+01
 51
1.78726994E+02
  0
ARC
  8
0
 62
7
 10
-1.23499943E+02
 20
-9.36197205E+01
 40
5.00000000E-01
 50
9.10002493E+01
 51
1.79999951E+02
  0
ARC
  8
0
 62
7
 10
-1.23499943E+02
 20
-1.85380280E+02
 40
5.00000000E-01
 50
1.79999977E+02
 51
2.68999679E+02
  0
ARC
  8
0
 62
7
 10
-1.17999958E+02
 20
-1.11499969E+02
 40
2.00000000E+00
 50
8.99999818E+01
 51
1.79999951E+02
  0
ARC
  8
0
 62
7
 10
-1.17999958E+02
 20
-1.67499939E+02
 40
2.00000000E+00
 50
1.79999977E+02
 51
2.70000028E+02
  0
ARC
  8
0
 62
7
 10
-1.25499958E+02
 20
-1.17999939E+02
 40
5.00000000E-01
 50
8.99999818E+01
 51
1.79999951E+02
  0
ARC
  8
0
 62
7
 10
-1.44499943E+02
 20
-1.20499969E+02
 40
5.00000000E-01
 50
8.99999818E+01
 51
1.79999951E+02
  0
ARC
  8
0
 62
7
 10
-1.44499943E+02
 20
-1.58499939E+02
 40
5.00000000E-01
 50
1.79999977E+02
 51
2.69999974E+02
  0
ARC
  8
0
 62
7
 10
-1.25499958E+02
 20
-1.60999969E+02
 40
5.00000000E-01
 50
1.79999977E+02
 51
2.69999974E+02
  0
ARC
  8
0
 62
7
 10
-1.39499943E+02
 20
-1.60028229E+02
 40
5.00000000E-01
 50
1.79999977E+02
 51
2.67999192E+02
  0
ARC
  8
0
 62
7
 10
-1.39499943E+02
 20
-1.18971680E+02
 40
5.00000000E-01
 50
9.20007356E+01
 51
1.79999951E+02
  0
ARC
  8
0
 62
7
 10
-3.78594471E+02
 20
-3.01723511E+02
 40
1.00000000E+00
 50
2.24999972E+02
 51
3.09385511E+02
  0
ARC
  8
0
 62
7
 10
-3.81776478E+02
 20
-3.04905525E+02
 40
1.00000000E+00
 50
3.20613837E+02
 51
4.49999910E+01
  0
ARC
  8
0
 62
7
 10
-3.66250019E+02
 20
-2.96610321E+02
 40
1.00000000E+00
 50
2.75613832E+02
 51
3.59999959E+02
  0
ARC
  8
0
 62
7
 10
-3.86889698E+02
 20
-3.17250000E+02
 40
1.00000000E+00
 50
2.69999963E+02
 51
3.54386117E+02
  0
CIRCLE
  8
0
 62
7
 10
-3.28999989E+02
 20
-2.84500031E+02
 40
8.69999981E+00
  0
ARC
  8
0
 62
7
 10
-3.36103474E+02
 20
-2.94785492E+02
 40
1.00000000E+00
 50
5.53696252E+01
 51
1.34999959E+02
  0
ARC
  8
0
 62
7
 10
-3.39285480E+02
 20
-2.91603485E+02
 40
1.00000000E+00
 50
3.14999995E+02
 51
3.46303842E+01
  0
ARC
  8
0
 62
7
 10
-3.61750019E+02
 20
-2.77100052E+02
 40
1.00000000E+00
 50
8.99999818E+01
 51
1.79999964E+02
  0
ARC
  8
0
 62
7
 10
-3.21599964E+02
 20
-3.17250015E+02
 40
1.00000000E+00
 50
2.69999963E+02
 51
0.00000000E+00
  0
ARC
  8
0
 62
7
 10
-3.20999989E+02
 20
-2.76500031E+02
 40
3.40000033E+00
 50
0.00000000E+00
 51
8.99999818E+01
  0
ARC
  8
0
 62
7
 10
-3.28999989E+02
 20
-2.84500031E+02
 40
1.15000000E+01
 50
1.66113425E+02
 51
2.83886868E+02
  0
ARC
  8
0
 62
7
 10
-3.20999989E+02
 20
-2.76500031E+02
 40
4.00000000E+00
 50
0.00000000E+00
 51
8.99999818E+01
  0
CIRCLE
  8
0
 62
7
 10
-3.28999989E+02
 20
-2.84500031E+02
 40
8.00000000E+00
  0
ARC
  8
0
 62
7
 10
-3.21499989E+02
 20
-2.96999939E+02
 40
3.50000024E+00
 50
1.79999977E+02
 51
2.68726963E+02
  0
ARC
  8
0
 62
7
 10
-3.41500019E+02
 20
-2.76999939E+02
 40
3.50000024E+00
 50
1.81274508E+02
 51
2.70000018E+02
  0
ARC
  8
0
 62
7
 10
-3.21599964E+02
 20
-3.01498825E+02
 40
1.00000000E+00
 50
0.00000000E+00
 51
8.87269716E+01
  0
ARC
  8
0
 62
7
 10
-3.45998920E+02
 20
-2.77100052E+02
 40
1.00000000E+00
 50
1.27477808E+00
 51
8.99999818E+01
  0
ARC
  8
0
 62
7
 10
-3.46223530E+02
 20
-3.04905548E+02
 40
1.00000000E+00
 50
1.34999959E+02
 51
2.19385485E+02
  0
ARC
  8
0
 62
7
 10
-3.49405537E+02
 20
-3.01723511E+02
 40
1.00000000E+00
 50
2.30613841E+02
 51
3.14999995E+02
  0
ARC
  8
0
 62
7
 10
-3.41110310E+02
 20
-3.17250015E+02
 40
1.00000000E+00
 50
1.85613837E+02
 51
2.69999963E+02
  0
ARC
  8
0
 62
7
 10
-3.61750019E+02
 20
-2.96610275E+02
 40
1.00000000E+00
 50
1.79999964E+02
 51
2.64386104E+02
  0
ARC
  8
0
 62
7
 10
-3.64000019E+02
 20
-3.19499924E+02
 40
2.20000000E+01
 50
0.00000000E+00
 51
1.80000199E+02
  0
ARC
  8
0
 62
7
 10
-3.64000019E+02
 20
-3.19499924E+02
 40
1.95000000E+01
 50
0.00000000E+00
 51
1.80000224E+02
  0
ARC
  8
0
 62
7
 10
-3.64000019E+02
 20
-3.19500000E+02
 40
2.10111084E+01
 50
0.00000000E+00
 51
1.80000000E+02
  0
ARC
  8
0
 62
7
 10
-3.25999958E+02
 20
-2.96634674E+02
 40
1.00000000E+00
 50
0.00000000E+00
 51
1.03886139E+02
  0
ARC
  8
0
 62
7
 10
-3.41134663E+02
 20
-2.81500031E+02
 40
1.00000000E+00
 50
3.46114302E+02
 51
8.99999818E+01
  0
ARC
  8
0
 62
7
 10
-3.86865345E+02
 20
-2.81499939E+02
 40
1.00000000E+00
 50
8.99999818E+01
 51
1.93887774E+02
  0
ARC
  8
0
 62
7
 10
-4.02000019E+02
 20
-2.96634689E+02
 40
1.00000000E+00
 50
7.61138799E+01
 51
1.79999964E+02
  0
ARC
  8
0
 62
7
 10
-1.59500034E+02
 20
-3.19500015E+02
 40
1.25000010E+01
 50
6.99411317E-05
 51
3.28596884E+01
  0
CIRCLE
  8
0
 62
7
 10
-9.49999733E+01
 20
-1.55500061E+02
 40
5.00000000E+00
  0
CIRCLE
  8
0
 62
2
 10
-3.99000019E+02
 20
-2.84500000E+02
 40
5.00000000E+00
  0
CIRCLE
  8
0
 62
2
 10
-3.28999989E+02
 20
-2.84500000E+02
 40
5.00000000E+00
  0
CIRCLE
  8
0
 62
7
 10
-3.99000019E+02
 20
-2.84500000E+02
 40
4.18000031E+00
  0
CIRCLE
  8
0
 62
7
 10
-3.28999989E+02
 20
-2.84500000E+02
 40
4.18000031E+00
  0
ARC
  8
0
 62
7
 10
-1.44500019E+02
 20
-3.00500000E+02
 40
5.00000000E-01
 50
8.99999818E+01
 51
1.79999964E+02
  0
ARC
  8
0
 62
7
 10
-1.39500004E+02
 20
-2.98971741E+02
 40
5.00000000E-01
 50
9.20007356E+01
 51
1.79999964E+02
  0
ARC
  8
0
 62
7
 10
-1.25500019E+02
 20
-2.98000000E+02
 40
5.00000000E-01
 50
8.99999818E+01
 51
1.79999964E+02
  0
ARC
  8
0
 62
7
 10
-3.64000019E+02
 20
-3.19500000E+02
 40
1.10000267E+01
 50
0.00000000E+00
 51
1.80000000E+02
  0
ARC
  8
0
 62
2
 10
-3.64000019E+02
 20
-3.19500000E+02
 40
1.01800117E+01
 50
0.00000000E+00
 51
1.80000000E+02
  0
ARC
  8
0
 62
7
 10
-3.64000019E+02
 20
-3.19500000E+02
 40
9.50002670E+00
 50
0.00000000E+00
 51
1.80000000E+02
  0
CIRCLE
  8
0
 62
7
 10
-1.03999943E+02
 20
-1.28499969E+02
 40
9.25000000E+00
  0
CIRCLE
  8
0
 62
2
 10
-1.03999973E+02
 20
-1.28500031E+02
 40
1.04775009E+01
  0
CIRCLE
  8
0
 62
7
 10
-1.03999943E+02
 20
-1.28500031E+02
 40
1.10000000E+01
  0
CIRCLE
  8
0
 62
7
 10
-9.49999733E+01
 20
-1.55500061E+02
 40
2.59999990E+00
  0
ARC
  8
0
 62
7
 10
-1.23500019E+02
 20
-2.73619720E+02
 40
5.00000000E-01
 50
9.10002493E+01
 51
1.79999964E+02
  0
CIRCLE
  8
0
 62
7
 10
1.50999996E+02
 20
-2.84500000E+02
 40
4.18000031E+00
  0
CIRCLE
  8
0
 62
7
 10
8.09999695E+01
 20
-2.84500000E+02
 40
4.18000031E+00
  0
CIRCLE
  8
0
 62
7
 10
1.50999996E+02
 20
-2.84500031E+02
 40
8.69999981E+00
  0
ARC
  8
0
 62
7
 10
1.40714504E+02
 20
-2.91603455E+02
 40
1.00000000E+00
 50
3.15000047E+02
 51
3.46303671E+01
  0
ARC
  8
0
 62
7
 10
1.43896511E+02
 20
-2.94785492E+02
 40
1.00000000E+00
 50
5.53696217E+01
 51
1.35000014E+02
  0
ARC
  8
0
 62
7
 10
1.18249981E+02
 20
-2.77100006E+02
 40
1.00000000E+00
 50
9.00000025E+01
 51
1.80000046E+02
  0
ARC
  8
0
 62
7
 10
1.50999996E+02
 20
-2.84500031E+02
 40
1.15000000E+01
 50
1.66113111E+02
 51
2.83886595E+02
  0
ARC
  8
0
 62
7
 10
1.58399929E+02
 20
-3.17250000E+02
 40
1.00000000E+00
 50
2.70000052E+02
 51
3.59721781E-05
  0
ARC
  8
0
 62
7
 10
1.58999966E+02
 20
-2.76500015E+02
 40
3.40000033E+00
 50
2.23117997E-05
 51
8.99999750E+01
  0
ARC
  8
0
 62
7
 10
1.58999966E+02
 20
-2.76500015E+02
 40
4.00000000E+00
 50
2.23117997E-05
 51
8.99999750E+01
  0
CIRCLE
  8
0
 62
7
 10
1.50999996E+02
 20
-2.84500031E+02
 40
8.00000000E+00
  0
CIRCLE
  8
0
 62
2
 10
8.09999695E+01
 20
-2.84500000E+02
 40
5.00000000E+00
  0
ARC
  8
0
 62
7
 10
1.38500027E+02
 20
-2.77000000E+02
 40
3.50000024E+00
 50
1.81273033E+02
 51
2.69999984E+02
  0
ARC
  8
0
 62
7
 10
1.58500042E+02
 20
-2.97000031E+02
 40
3.50000024E+00
 50
1.79999500E+02
 51
2.68725460E+02
  0
ARC
  8
0
 62
7
 10
1.58399929E+02
 20
-3.01498917E+02
 40
1.00000000E+00
 50
3.59721781E-05
 51
8.87252023E+01
  0
ARC
  8
0
 62
7
 10
1.34001125E+02
 20
-2.77099976E+02
 40
1.00000000E+00
 50
1.27300564E+00
 51
9.00000162E+01
  0
ARC
  8
0
 62
7
 10
1.30594448E+02
 20
-3.01723511E+02
 40
1.00000000E+00
 50
2.30614484E+02
 51
3.15000026E+02
  0
ARC
  8
0
 62
7
 10
1.33776455E+02
 20
-3.04905525E+02
 40
1.00000000E+00
 50
1.35000014E+02
 51
2.19386168E+02
  0
ARC
  8
0
 62
7
 10
1.18249981E+02
 20
-2.96610321E+02
 40
1.00000000E+00
 50
1.80000036E+02
 51
2.64386169E+02
  0
ARC
  8
0
 62
7
 10
1.38889675E+02
 20
-3.17250000E+02
 40
1.00000000E+00
 50
1.85613878E+02
 51
2.70000038E+02
  0
CIRCLE
  8
0
 62
2
 10
1.50999996E+02
 20
-2.84500000E+02
 40
5.00000000E+00
  0
CIRCLE
  8
0
 62
7
 10
8.09999695E+01
 20
-2.84500031E+02
 40
8.69999981E+00
  0
ARC
  8
0
 62
7
 10
8.81034546E+01
 20
-2.94785492E+02
 40
1.00000000E+00
 50
4.50000423E+01
 51
1.24630380E+02
  0
ARC
  8
0
 62
7
 10
9.12854614E+01
 20
-2.91603485E+02
 40
1.00000000E+00
 50
1.45369621E+02
 51
2.25000010E+02
  0
ARC
  8
0
 62
7
 10
1.13749981E+02
 20
-2.77100052E+02
 40
1.00000000E+00
 50
3.59721781E-05
 51
9.00000162E+01
  0
ARC
  8
0
 62
7
 10
7.35999451E+01
 20
-3.17250015E+02
 40
1.00000000E+00
 50
1.79999995E+02
 51
2.70000038E+02
  0
ARC
  8
0
 62
7
 10
7.29999542E+01
 20
-2.76500031E+02
 40
3.40000033E+00
 50
9.00000162E+01
 51
1.80000005E+02
  0
ARC
  8
0
 62
7
 10
8.09999695E+01
 20
-2.84500031E+02
 40
1.15000000E+01
 50
2.56113130E+02
 51
1.38865754E+01
  0
ARC
  8
0
 62
7
 10
7.29999542E+01
 20
-2.76500031E+02
 40
4.00000000E+00
 50
9.00000162E+01
 51
1.80000005E+02
  0
CIRCLE
  8
0
 62
7
 10
8.09999695E+01
 20
-2.84500031E+02
 40
8.00000000E+00
  0
ARC
  8
0
 62
7
 10
7.34999695E+01
 20
-2.96999939E+02
 40
3.50000024E+00
 50
2.71273049E+02
 51
1.86693353E-05
  0
ARC
  8
0
 62
7
 10
9.34999847E+01
 20
-2.76999939E+02
 40
3.50000024E+00
 50
2.69999984E+02
 51
3.58725492E+02
  0
ARC
  8
0
 62
7
 10
7.35999451E+01
 20
-3.01498825E+02
 40
1.00000000E+00
 50
9.12730270E+01
 51
1.80000005E+02
  0
ARC
  8
0
 62
7
 10
9.79988823E+01
 20
-2.77100052E+02
 40
1.00000000E+00
 50
9.00000162E+01
 51
1.78725219E+02
  0
ARC
  8
0
 62
7
 10
9.82235069E+01
 20
-3.04905548E+02
 40
1.00000000E+00
 50
3.20614517E+02
 51
4.50000423E+01
  0
ARC
  8
0
 62
7
 10
1.01405514E+02
 20
-3.01723511E+02
 40
1.00000000E+00
 50
2.25000000E+02
 51
3.09386157E+02
  0
ARC
  8
0
 62
7
 10
9.31102905E+01
 20
-3.17250015E+02
 40
1.00000000E+00
 50
2.70000038E+02
 51
3.54386163E+02
  0
ARC
  8
0
 62
7
 10
1.13749981E+02
 20
-2.96610275E+02
 40
1.00000000E+00
 50
2.75613894E+02
 51
3.59721781E-05
  0
ARC
  8
0
 62
7
 10
1.15999981E+02
 20
-3.19499924E+02
 40
2.20000000E+01
 50
0.00000000E+00
 51
1.80000199E+02
  0
ARC
  8
0
 62
7
 10
7.79999237E+01
 20
-2.96634674E+02
 40
1.00000000E+00
 50
7.61138592E+01
 51
1.80000005E+02
  0
ARC
  8
0
 62
7
 10
9.31346436E+01
 20
-2.81500031E+02
 40
1.00000000E+00
 50
9.00000162E+01
 51
1.93885698E+02
  0
ARC
  8
0
 62
7
 10
1.38865322E+02
 20
-2.81499939E+02
 40
1.00000000E+00
 50
3.46112226E+02
 51
9.00000162E+01
  0
ARC
  8
0
 62
7
 10
1.53999996E+02
 20
-2.96634689E+02
 40
1.00000000E+00
 50
3.59721781E-05
 51
1.03886119E+02
  0
LINE
  8
0
 62
7
 10
-7.64999580E+01
 20
-1.00000000E+02
 11
-8.79999580E+01
 21
-1.00000000E+02
  0
LINE
  8
0
 62
7
 10
-7.64999580E+01
 20
-9.59999695E+01
 11
-8.79999580E+01
 21
-9.59999695E+01
  0
LINE
  8
0
  6
CENTER
 62
2
 10
-9.59999580E+01
 20
-1.04500000E+02
 11
-1.26524479E+02
 21
-1.04500000E+02
  0
LINE
  8
0
 62
7
 10
-8.79999580E+01
 20
-1.14716245E+02
 11
-8.79999580E+01
 21
-1.86499969E+02
  0
LINE
  8
0
 62
2
 10
-6.51814684E+01
 20
-1.91290027E+02
 11
-2.34802633E+00
 21
-8.24593126E+01
  0
ARC
  8
0
 62
7
 10
3.95499981E+02
 20
-2.73619720E+02
 40
5.00000000E-01
 50
3.59721787E-05
 51
8.89997505E+01
  0
ARC
  8
0
 62
7
 10
3.97499981E+02
 20
-2.98000000E+02
 40
5.00000000E-01
 50
3.59721787E-05
 51
9.00000179E+01
  0
ARC
  8
0
 62
7
 10
4.11499966E+02
 20
-2.98971741E+02
 40
5.00000000E-01
 50
3.59721787E-05
 51
8.79992642E+01
  0
ARC
  8
0
 62
7
 10
4.16499981E+02
 20
-3.00500000E+02
 40
5.00000000E-01
 50
3.59721787E-05
 51
9.00000179E+01
  0
ARC
  8
0
 62
7
 10
4.31499996E+02
 20
-3.19500015E+02
 40
1.25000010E+01
 50
1.47140312E+02
 51
1.79999930E+02
  0
LINE
  8
0
 62
7
 10
4.33999966E+02
 20
-3.09319992E+02
 11
4.30999966E+02
 21
-3.09319992E+02
  0
LINE
  8
0
 62
2
 10
4.25999978E+02
 20
-3.19500000E+02
 11
4.29660525E+02
 21
-3.14534611E+02
  0
LINE
  8
0
 62
2
 10
4.20999988E+02
 20
-3.12717715E+02
 11
4.25999973E+02
 21
-3.19500000E+02
  0
LINE
  8
0
 62
7
 10
4.30999986E+02
 20
-3.08499968E+02
 11
4.27999974E+02
 21
-3.06999939E+02
  0
LINE
  8
0
 62
7
 10
4.30999958E+02
 20
-3.16000141E+02
 11
4.27999960E+02
 21
-3.12717726E+02
  0
LINE
  8
0
 62
7
 10
4.27999966E+02
 20
-3.12717720E+02
 11
4.20999981E+02
 21
-3.12717720E+02
  0
LINE
  8
0
 62
7
 10
4.20999981E+02
 20
-3.19500000E+02
 11
4.20999981E+02
 21
-3.12717720E+02
  0
LINE
  8
0
  6
CENTER
 62
2
 10
3.75999966E+02
 20
-2.85199951E+02
 11
3.75999966E+02
 21
-2.70047348E+02
  0
LINE
  8
0
  6
CENTER
 62
2
 10
2.77258300E+02
 20
-2.84499985E+02
 11
3.33499950E+02
 21
-2.84499985E+02
  0
LINE
  8
0
 62
7
 10
3.91999966E+02
 20
-2.73058548E+02
 11
3.91999966E+02
 21
-2.72500000E+02
  0
LINE
  8
0
 62
7
 10
3.95508754E+02
 20
-2.73119792E+02
 11
3.60000002E+02
 21
-2.72499985E+02
  0
LINE
  8
0
 62
7
 10
3.91999996E+02
 20
-2.72500000E+02
 11
3.59999996E+02
 21
-2.72500000E+02
  0
LINE
  8
0
 62
7
 10
3.59999981E+02
 20
-3.19500000E+02
 11
3.59999981E+02
 21
-2.72500000E+02
  0
LINE
  8
0
 62
7
 10
3.95999981E+02
 20
-3.19500000E+02
 11
3.95999981E+02
 21
-2.73619720E+02
  0
LINE
  8
0
 62
7
 10
3.97499996E+02
 20
-2.97500000E+02
 11
3.95999996E+02
 21
-2.97500000E+02
  0
LINE
  8
0
 62
7
 10
4.11517512E+02
 20
-2.98472073E+02
 11
3.98000040E+02
 21
-2.98000033E+02
  0
LINE
  8
0
 62
7
 10
4.16499996E+02
 20
-3.00000015E+02
 11
4.11999996E+02
 21
-3.00000015E+02
  0
LINE
  8
0
 62
7
 10
4.28000011E+02
 20
-3.06999954E+02
 11
4.16999996E+02
 21
-3.06999954E+02
  0
LINE
  8
0
 62
2
 10
4.70320034E+02
 20
-3.09319992E+02
 11
4.58999966E+02
 21
-3.09319992E+02
  0
LINE
  8
0
 62
7
 10
4.69500027E+02
 20
-3.08499977E+02
 11
4.58999966E+02
 21
-3.08499977E+02
  0
LINE
  8
0
 62
7
 10
4.71000031E+02
 20
-3.10000018E+02
 11
4.69500013E+02
 21
-3.08500000E+02
  0
LINE
  8
0
 62
7
 10
4.69499966E+02
 20
-3.08499977E+02
 11
4.69499966E+02
 21
-3.19500000E+02
  0
LINE
  8
0
 62
7
 10
4.33999966E+02
 20
-3.08499977E+02
 11
4.33999966E+02
 21
-3.19500000E+02
  0
LINE
  8
0
 62
7
 10
4.70999966E+02
 20
-3.09999954E+02
 11
4.70999966E+02
 21
-3.19500000E+02
  0
LINE
  8
0
 62
7
 10
4.30999966E+02
 20
-3.19500015E+02
 11
4.30999966E+02
 21
-3.08499977E+02
  0
LINE
  8
0
 62
7
 10
4.27999966E+02
 20
-3.12717720E+02
 11
4.27999966E+02
 21
-3.07000000E+02
  0
LINE
  8
0
 62
7
 10
3.97999966E+02
 20
-2.98000046E+02
 11
3.97999966E+02
 21
-3.19500000E+02
  0
LINE
  8
0
 62
7
 10
4.11999981E+02
 20
-3.19500000E+02
 11
4.11999981E+02
 21
-2.98971741E+02
  0
LINE
  8
0
 62
7
 10
4.16999966E+02
 20
-3.19500000E+02
 11
4.16999966E+02
 21
-3.00500000E+02
  0
LINE
  8
0
  6
CENTER
 62
2
 10
4.79243351E+02
 20
-3.19500000E+02
 11
2.57051032E+02
 21
-3.19500000E+02
  0
LINE
  8
0
 62
7
 10
2.82165769E+02
 20
-2.76000000E+02
 11
3.13999950E+02
 21
-2.76000000E+02
  0
LINE
  8
0
 62
7
 10
2.79856376E+02
 20
-2.79999985E+02
 11
3.33499950E+02
 21
-2.79999985E+02
  0
LINE
  8
0
 62
7
 10
2.74660215E+02
 20
-2.89000000E+02
 11
3.33499950E+02
 21
-2.89000000E+02
  0
LINE
  8
0
 62
7
 10
3.52999950E+02
 20
-2.76000000E+02
 11
3.59999981E+02
 21
-2.76000000E+02
  0
LINE
  8
0
 62
7
 10
3.48499950E+02
 20
-2.89000000E+02
 11
3.59999981E+02
 21
-2.89000000E+02
  0
LINE
  8
0
  6
CENTER
 62
2
 10
3.48499950E+02
 20
-2.84499985E+02
 11
3.98524471E+02
 21
-2.84499985E+02
  0
LINE
  8
0
 62
7
 10
3.48499950E+02
 20
-2.79999985E+02
 11
3.59999981E+02
 21
-2.79999985E+02
  0
TEXT
  8
0
 10
-8.22146873E+01
 20
3.54316712E+02
 40
9.00000000E+00
  1
STRETCH LINE
 41
1.05263158E+00
  7
MONOTXT
  0
LINE
  8
0
 62
7
 10
5.69500000E+02
 20
4.00500000E+02
 11
5.69500000E+02
 21
-4.00500000E+02
  0
LINE
  8
0
 62
7
 10
-5.69500000E+02
 20
4.00500000E+02
 11
5.69500000E+02
 21
4.00500000E+02
  0
LINE
  8
0
 62
7
 10
-5.69500000E+02
 20
-4.00500000E+02
 11
5.69500000E+02
 21
-4.00500000E+02
  0
LINE
  8
0
 62
7
 10
-5.69500000E+02
 20
4.00500000E+02
 11
-5.69500000E+02
 21
-4.00500000E+02
  0
LINE
  8
0
 62
7
 10
-5.69500000E+02
 20
3.70500000E+02
 11
-3.39500000E+02
 21
3.70500000E+02
  0
LINE
  8
0
 62
7
 10
3.39500000E+02
 20
3.70500000E+02
 11
5.69500000E+02
 21
3.70500000E+02
  0
LINE
  8
0
 62
7
 10
3.39500000E+02
 20
-3.70500000E+02
 11
5.69500000E+02
 21
-3.70500000E+02
  0
LINE
  8
0
 62
7
 10
3.39500000E+02
 20
-3.70500000E+02
 11
3.39500000E+02
 21
-4.00500000E+02
  0
LINE
  8
0
 62
7
 10
3.39500000E+02
 20
4.00500000E+02
 11
3.39500000E+02
 21
3.70500000E+02
  0
LINE
  8
0
 62
7
 10
-3.39500000E+02
 20
4.00500000E+02
 11
-3.39500000E+02
 21
3.70500000E+02
  0
TEXT
  8
0
 62
7
 10
-5.42179687E+02
 20
3.34250000E+02
 40
1.25000000E+01
  1
MODEL:DDA80*75
 41
1.00000015E+00
  7
MONOTXT
  0
TEXT
  8
0
 62
7
 10
4.06285149E+02
 20
3.79250000E+02
 40
1.25000000E+01
  1
Ver. 1.0
 41
1.08108125E+00
  7
MONOTXT
  0
TEXT
  8
0
 62
7
 10
3.45070624E+02
 20
-3.94500000E+02
 40
1.80000000E+01
  1
KOGANEI CORP.
 41
1.04838710E+00
  7
MONOTXT
  0
TEXT
  8
0
 62
7
 10
-5.58964859E+02
 20
3.79250000E+02
 40
1.25000000E+01
  1
NEW DYNA CYLINDER
 41
1.07594953E+00
  7
MONOTXT
  0
ENDSEC
  0
EOF
