  0
SECTION
  2
HEADER
  9
$ACADVER
  1
AC1003
  9
$EXTMIN
 10
-5.74538544E+03
 20
-5.77870928E+03
  9
$EXTMAX
 10
5.61234756E+03
 20
1.04754061E+03
  9
$LIMMIN
 10
-5.74538644E+03
 20
-5.77871028E+03
  9
$LIMMAX
 10
5.61234856E+03
 20
1.04754161E+03
  9
$SNAPUNIT
 10
1
 20
1
  9
$SNAPBASE
 10
0
 20
0
  9
$GRIDMODE
 70
0
  9
$GRIDUNIT
 10
0
 20
0
  9
$LTSCALE
 40
1.89295550E+02
  9
$TEXTSIZE
 40
3.2
  9
$DIMTAD
 70
0
  9
$LUNITS
 70
2
  9
$LUPREC
 70
4
  9
$FILLETRAD
 40
0
  9
$AUNITS
 70
0
  9
$AUPREC
 70
0
  0
ENDSEC
  0
SECTION
  2
TABLES
  0
TABLE
  2
LTYPE
 70
2
  0
LTYPE
  2
CONTINUOUS
 70
64
  3
Solid-Line
 72
65
 73
0
 40
0
  0
LTYPE
  2
DASHED
 70
64
  3
DASHED
 72
65
 73
2
 40
.75
 49
.5
 49
-.25
  0
LTYPE
  2
HIDDEN
 70
64
  3
HIDDEN
 72
65
 73
2
 40
.375
 49
.25
 49
-.125
  0
LTYPE
  2
CENTER
 70
64
  3
CENTER
 72
65
 73
4
 40
2
 49
1.25
 49
-.25
 49
.25
 49
-.25
  0
LTYPE
  2
PHANTOM
 70
64
  3
PHANTOM
 72
65
 73
6
 40
2.5
 49
1.25
 49
-.25
 49
.25
 49
-.25
 49
.25
 49
-.25
  0
ENDTAB
  0
TABLE
  2
LAYER
 70
1
  0
LAYER
  2
1
 70
0
 62
7
  6
CONTINUOUS
 0
ENDTAB
  0
TABLE
  2
STYLE
 70
2
  0
STYLE
  2
MONOTXT
 70
0
 40
0
 41
1
 50
0
 71
0
 42
.2
  3
monotxt
  0
STYLE
  2
BIGFONT
 70
0
 40
0
 41
1
 50
0
 71
0
 42
.2
  3
txt
  4
bigfont
  0
ENDTAB
  0
ENDSEC
  0
SECTION
  2
ENTITIES
  0
LINE
  8
0
  6
PHANTOM
 10
-4.45000000E+01
 20
3.13997872E+01
 11
-4.45000000E+01
 21
2.06467869E+02
  0
LINE
  8
0
  6
PHANTOM
 10
1.03000046E+02
 20
3.13997872E+01
 11
1.03000046E+02
 21
2.09098033E+02
  0
LINE
  8
0
 62
7
 10
-1.40999969E+02
 20
1.81888855E+02
 11
-1.40999969E+02
 21
4.91111450E+01
  0
LINE
  8
0
 62
7
 10
-1.05000000E+02
 20
1.83500000E+02
 11
-1.05000000E+02
 21
4.75000763E+01
  0
LINE
  8
0
 62
7
 10
-1.37000000E+02
 20
4.75000000E+01
 11
-1.04999969E+02
 21
4.75000000E+01
  0
LINE
  8
0
 62
7
 10
-1.37000000E+02
 20
4.80585785E+01
 11
-1.37000000E+02
 21
4.75000153E+01
  0
LINE
  8
0
 62
7
 10
-1.40017442E+02
 20
4.81113343E+01
 11
-1.04999972E+02
 21
4.75001021E+01
  0
LINE
  8
0
  6
CENTER
 62
2
 10
5.07791901E+01
 20
6.34999847E+01
 11
-1.44643005E+02
 21
6.34999847E+01
  0
LINE
  8
0
 62
7
 10
1.20000610E+01
 20
6.89999695E+01
 11
-1.05000000E+02
 21
6.89999695E+01
  0
LINE
  8
0
 62
7
 10
1.20000610E+01
 20
5.79999847E+01
 11
-1.05000000E+02
 21
5.79999847E+01
  0
LINE
  8
0
 62
7
 10
-1.05000000E+02
 20
4.90000000E+01
 11
1.20000610E+01
 21
4.90000000E+01
  0
LINE
  8
0
  6
CENTER
 62
2
 10
-2.36944885E+02
 20
1.15500000E+02
 11
1.92549561E+02
 21
1.15500000E+02
  0
LINE
  8
0
 62
7
 10
-1.75999969E+02
 20
9.90717621E+01
 11
-1.75999969E+02
 21
1.31928223E+02
  0
LINE
  8
0
 62
7
 10
-1.71999969E+02
 20
9.79999695E+01
 11
-1.62000000E+02
 21
9.79999695E+01
  0
LINE
  8
0
 62
7
 10
-1.65999969E+02
 20
1.08411270E+02
 11
-1.65999969E+02
 21
1.22588730E+02
  0
LINE
  8
0
 62
7
 10
-1.71999969E+02
 20
1.22588730E+02
 11
-1.65999969E+02
 21
1.22588730E+02
  0
LINE
  8
0
 62
7
 10
-1.71999969E+02
 20
1.08411270E+02
 11
-1.65999969E+02
 21
1.08411270E+02
  0
LINE
  8
0
 62
7
 10
4.80000305E+01
 20
1.81888824E+02
 11
4.80000305E+01
 21
4.91111603E+01
  0
LINE
  8
0
 62
7
 10
1.20000610E+01
 20
1.83500000E+02
 11
1.20000610E+01
 21
4.75000763E+01
  0
LINE
  8
0
 62
7
 10
4.40000610E+01
 20
4.75000000E+01
 11
1.20000305E+01
 21
4.75000000E+01
  0
LINE
  8
0
 62
7
 10
4.40000610E+01
 20
4.80585785E+01
 11
4.40000610E+01
 21
4.75000153E+01
  0
LINE
  8
0
 62
7
 10
4.70174819E+01
 20
4.81113479E+01
 11
1.20000948E+01
 21
4.75001172E+01
  0
LINE
  8
0
 62
7
 10
4.95000305E+01
 20
8.55000000E+01
 11
4.80000305E+01
 21
8.55000000E+01
  0
LINE
  8
0
 62
7
 10
5.00000305E+01
 20
8.60000000E+01
 11
5.00000305E+01
 21
1.45000000E+02
  0
LINE
  8
0
 62
7
 10
-1.42999969E+02
 20
8.60000000E+01
 11
-1.42999969E+02
 21
1.45000000E+02
  0
LINE
  8
0
 62
7
 10
-1.62000000E+02
 20
1.42000000E+02
 11
-1.62000000E+02
 21
8.90000000E+01
  0
LINE
  8
0
 62
7
 10
-1.61000000E+02
 20
8.80000000E+01
 11
-1.57000000E+02
 21
8.80000000E+01
  0
LINE
  8
0
 62
7
 10
-1.56517437E+02
 20
8.74831254E+01
 11
-1.42999980E+02
 21
8.70110854E+01
  0
LINE
  8
0
 62
7
 10
-1.42499969E+02
 20
8.55000000E+01
 11
-1.40999969E+02
 21
8.55000000E+01
  0
LINE
  8
0
 62
7
 10
-1.57000000E+02
 20
1.43000000E+02
 11
-1.57000000E+02
 21
8.80000000E+01
  0
LINE
  8
0
  6
CENTER
 62
2
 10
2.79999695E+01
 20
1.70800018E+02
 11
2.79999695E+01
 21
1.87789276E+02
  0
LINE
  8
0
 62
7
 10
-1.42499969E+02
 20
1.45500000E+02
 11
-1.40999969E+02
 21
1.45500000E+02
  0
LINE
  8
0
 62
7
 10
-1.56517462E+02
 20
1.43516888E+02
 11
-1.43000005E+02
 21
1.43988928E+02
  0
LINE
  8
0
 62
7
 10
-1.37000000E+02
 20
1.83500000E+02
 11
-1.04999969E+02
 21
1.83500000E+02
  0
LINE
  8
0
 62
7
 10
-1.37000000E+02
 20
1.82941437E+02
 11
-1.37000000E+02
 21
1.83499969E+02
  0
LINE
  8
0
 62
7
 10
-1.40017427E+02
 20
1.82888682E+02
 11
-1.04999964E+02
 21
1.83499914E+02
  0
LINE
  8
0
  6
CENTER
 62
2
 10
5.07791901E+01
 20
1.67500031E+02
 11
-1.44643005E+02
 21
1.67500031E+02
  0
LINE
  8
0
 62
7
 10
1.20000610E+01
 20
1.62000031E+02
 11
-1.49999390E+01
 21
1.62000031E+02
  0
LINE
  8
0
 62
7
 10
1.20000610E+01
 20
1.73000031E+02
 11
6.10353527E-05
 21
1.73000031E+02
  0
LINE
  8
0
 62
7
 10
-1.05000000E+02
 20
1.82000000E+02
 11
-2.99999390E+01
 21
1.82000000E+02
  0
LINE
  8
0
 62
7
 10
-1.71999969E+02
 20
1.33000031E+02
 11
-1.62000000E+02
 21
1.33000031E+02
  0
LINE
  8
0
 62
7
 10
-1.61000000E+02
 20
1.43000000E+02
 11
-1.57000000E+02
 21
1.43000000E+02
  0
LINE
  8
0
 62
7
 10
4.40000610E+01
 20
1.83500000E+02
 11
1.20000305E+01
 21
1.83500000E+02
  0
LINE
  8
0
 62
7
 10
4.40000610E+01
 20
1.82941437E+02
 11
4.40000610E+01
 21
1.83499969E+02
  0
LINE
  8
0
 62
7
 10
4.70174840E+01
 20
1.82888654E+02
 11
1.20000835E+01
 21
1.83499885E+02
  0
LINE
  8
0
 62
7
 10
4.95000305E+01
 20
1.45500000E+02
 11
4.80000305E+01
 21
1.45500000E+02
  0
LINE
  8
0
  6
CENTER
 62
2
 10
-1.20999969E+02
 20
1.70800018E+02
 11
-1.20999969E+02
 21
1.87789276E+02
  0
LINE
  8
0
 62
7
 10
-1.71999969E+02
 20
1.08411270E+02
 11
-1.71999969E+02
 21
9.79999695E+01
  0
LINE
  8
0
 62
7
 10
-1.71999969E+02
 20
1.22588730E+02
 11
-1.71999969E+02
 21
1.33000031E+02
  0
LINE
  8
0
 62
7
 10
-2.29999969E+02
 20
1.03499908E+02
 11
-2.29999969E+02
 21
1.27500000E+02
  0
LINE
  8
0
 62
7
 10
-2.28499969E+02
 20
1.29000000E+02
 11
-2.12999969E+02
 21
1.29000000E+02
  0
LINE
  8
0
 62
2
 10
-2.29582458E+02
 20
1.27917496E+02
 11
-2.12999969E+02
 21
1.27917496E+02
  0
LINE
  8
0
 62
7
 10
-2.30000003E+02
 20
1.27500000E+02
 11
-2.28500002E+02
 21
1.29000001E+02
  0
LINE
  8
0
 62
7
 10
-2.28499969E+02
 20
1.02000000E+02
 11
-2.28499969E+02
 21
1.29000000E+02
  0
LINE
  8
0
 62
7
 10
-2.30000122E+02
 20
1.03499985E+02
 11
-2.28500109E+02
 21
1.01999973E+02
  0
LINE
  8
0
 62
7
 10
-2.28499969E+02
 20
1.02000000E+02
 11
-2.12999969E+02
 21
1.02000000E+02
  0
LINE
  8
0
 62
2
 10
-2.29582458E+02
 20
1.03082504E+02
 11
-2.12999969E+02
 21
1.03082504E+02
  0
LINE
  8
0
 62
7
 10
-1.79999969E+02
 20
1.02000000E+02
 11
-1.79999969E+02
 21
1.29000000E+02
  0
LINE
  8
0
 62
7
 10
-1.75999965E+02
 20
1.31928223E+02
 11
-1.71999956E+02
 21
1.33000022E+02
  0
LINE
  8
0
 62
7
 10
-1.75999970E+02
 20
9.90717643E+01
 11
-1.71999961E+02
 21
9.79999654E+01
  0
LINE
  8
0
 62
7
 10
-1.75999949E+02
 20
1.11773533E+02
 11
-1.71999954E+02
 21
1.08411308E+02
  0
LINE
  8
0
 62
7
 10
-1.75999916E+02
 20
1.19226460E+02
 11
-1.71999921E+02
 21
1.22588685E+02
  0
LINE
  8
0
 62
2
 10
-1.74511130E+02
 20
1.20477915E+02
 11
-1.65999983E+02
 21
1.08411272E+02
  0
LINE
  8
0
 62
2
 10
-1.74511149E+02
 20
1.10522094E+02
 11
-1.65999992E+02
 21
1.22588753E+02
  0
LINE
  8
0
 62
7
 10
-1.79999969E+02
 20
1.27917496E+02
 11
-1.75999969E+02
 21
1.27917496E+02
  0
LINE
  8
0
 62
7
 10
-1.79999969E+02
 20
1.03082504E+02
 11
-1.75999969E+02
 21
1.03082504E+02
  0
LINE
  8
0
 62
7
 10
1.29000031E+02
 20
9.79999695E+01
 11
6.90000610E+01
 21
9.79999695E+01
  0
LINE
  8
0
 62
7
 10
6.90000610E+01
 20
1.42000000E+02
 11
6.90000610E+01
 21
8.90000000E+01
  0
LINE
  8
0
 62
7
 10
1.87000068E+02
 20
1.27500000E+02
 11
1.85500066E+02
 21
1.29000001E+02
  0
LINE
  8
0
 62
7
 10
1.85500031E+02
 20
1.02000000E+02
 11
1.85500031E+02
 21
1.29000000E+02
  0
LINE
  8
0
 62
7
 10
1.87000186E+02
 20
1.03499985E+02
 11
1.85500174E+02
 21
1.01999973E+02
  0
LINE
  8
0
 62
7
 10
1.85500031E+02
 20
1.02000000E+02
 11
1.70000031E+02
 21
1.02000000E+02
  0
LINE
  8
0
 62
2
 10
1.86582520E+02
 20
1.03082504E+02
 11
1.70000031E+02
 21
1.03082504E+02
  0
LINE
  8
0
 62
7
 10
1.37000031E+02
 20
1.27917496E+02
 11
1.33000031E+02
 21
1.27917496E+02
  0
LINE
  8
0
 62
7
 10
1.37000031E+02
 20
1.02000000E+02
 11
1.37000031E+02
 21
1.29000000E+02
  0
LINE
  8
0
 62
7
 10
1.33000031E+02
 20
9.90717621E+01
 11
1.33000031E+02
 21
1.31928223E+02
  0
LINE
  8
0
 62
7
 10
1.29000031E+02
 20
1.08411270E+02
 11
1.23000031E+02
 21
1.08411270E+02
  0
LINE
  8
0
 62
7
 10
1.29000031E+02
 20
1.22588730E+02
 11
1.23000031E+02
 21
1.22588730E+02
  0
LINE
  8
0
 62
7
 10
1.23000031E+02
 20
1.08411270E+02
 11
1.23000031E+02
 21
1.22588730E+02
  0
LINE
  8
0
 62
7
 10
6.80000610E+01
 20
8.80000000E+01
 11
6.40000610E+01
 21
8.80000000E+01
  0
LINE
  8
0
 62
7
 10
6.35174954E+01
 20
8.74831229E+01
 11
5.00000389E+01
 21
8.70110829E+01
  0
LINE
  8
0
 62
7
 10
6.40000610E+01
 20
1.43000000E+02
 11
6.40000610E+01
 21
8.80000000E+01
  0
LINE
  8
0
 62
2
 10
1.86582520E+02
 20
1.27917496E+02
 11
1.70000031E+02
 21
1.27917496E+02
  0
LINE
  8
0
 62
7
 10
1.85500031E+02
 20
1.29000000E+02
 11
1.70000031E+02
 21
1.29000000E+02
  0
LINE
  8
0
 62
7
 10
1.87000031E+02
 20
1.03499908E+02
 11
1.87000031E+02
 21
1.27500000E+02
  0
LINE
  8
0
 62
7
 10
6.35175204E+01
 20
1.43516890E+02
 11
5.00000640E+01
 21
1.43988930E+02
  0
LINE
  8
0
 62
7
 10
1.29000031E+02
 20
1.33000031E+02
 11
6.90000610E+01
 21
1.33000031E+02
  0
LINE
  8
0
 62
7
 10
6.80000610E+01
 20
1.43000000E+02
 11
6.40000610E+01
 21
1.43000000E+02
  0
LINE
  8
0
 62
7
 10
1.29000031E+02
 20
1.08411270E+02
 11
1.29000031E+02
 21
9.79999695E+01
  0
LINE
  8
0
 62
7
 10
1.29000031E+02
 20
1.22588730E+02
 11
1.29000031E+02
 21
1.33000031E+02
  0
LINE
  8
0
 62
2
 10
1.31511194E+02
 20
1.20477917E+02
 11
1.23000047E+02
 21
1.08411274E+02
  0
LINE
  8
0
 62
2
 10
1.31511210E+02
 20
1.10522094E+02
 11
1.23000052E+02
 21
1.22588753E+02
  0
LINE
  8
0
 62
7
 10
1.33000028E+02
 20
1.31928225E+02
 11
1.29000019E+02
 21
1.33000024E+02
  0
LINE
  8
0
 62
7
 10
1.32999979E+02
 20
1.19226459E+02
 11
1.28999983E+02
 21
1.22588684E+02
  0
LINE
  8
0
 62
7
 10
1.33000028E+02
 20
9.90717625E+01
 11
1.29000020E+02
 21
9.79999635E+01
  0
LINE
  8
0
 62
7
 10
1.37000031E+02
 20
1.03082504E+02
 11
1.33000031E+02
 21
1.03082504E+02
  0
LINE
  8
0
 62
7
 10
1.33000015E+02
 20
1.11773534E+02
 11
1.29000020E+02
 21
1.08411310E+02
  0
ARC
  8
0
 62
7
 10
-1.81999969E+02
 20
1.15500000E+02
 40
1.75000000E+01
 50
3.36104472E+02
 51
2.38955278E+01
  0
ARC
  8
0
 62
7
 10
4.95000305E+01
 20
1.45000000E+02
 40
5.00000000E-01
 50
0.00000000E+00
 51
8.99999818E+01
  0
ARC
  8
0
 62
7
 10
4.95000305E+01
 20
8.60000000E+01
 40
5.00000000E-01
 50
2.70000018E+02
 51
0.00000000E+00
  0
ARC
  8
0
 62
7
 10
-1.42499969E+02
 20
8.60000000E+01
 40
5.00000000E-01
 50
1.79999977E+02
 51
2.69999974E+02
  0
ARC
  8
0
 62
7
 10
-1.56500000E+02
 20
8.79829102E+01
 40
5.00000000E-01
 50
1.79999977E+02
 51
2.67999192E+02
  0
ARC
  8
0
 62
7
 10
-1.39999969E+02
 20
4.91111450E+01
 40
1.00000000E+00
 50
1.79999977E+02
 51
2.68999761E+02
  0
ARC
  8
0
 62
7
 10
4.70000305E+01
 20
4.91111603E+01
 40
1.00000000E+00
 50
2.71000211E+02
 51
0.00000000E+00
  0
ARC
  8
0
 62
7
 10
-1.61000000E+02
 20
8.90000000E+01
 40
1.00000000E+00
 50
1.79999977E+02
 51
2.70000028E+02
  0
ARC
  8
0
 62
7
 10
-1.61000000E+02
 20
1.42000000E+02
 40
1.00000000E+00
 50
8.99999274E+01
 51
1.79999964E+02
  0
ARC
  8
0
 62
7
 10
4.70000305E+01
 20
1.81888824E+02
 40
1.00000000E+00
 50
3.59999945E+02
 51
8.89997350E+01
  0
ARC
  8
0
 62
7
 10
-1.56500000E+02
 20
1.43017090E+02
 40
5.00000000E-01
 50
9.20007356E+01
 51
1.79999964E+02
  0
ARC
  8
0
 62
7
 10
-1.42499969E+02
 20
1.45000000E+02
 40
5.00000000E-01
 50
8.99999818E+01
 51
1.79999964E+02
  0
ARC
  8
0
 62
7
 10
-1.39999969E+02
 20
1.81888855E+02
 40
1.00000000E+00
 50
9.10001673E+01
 51
1.79999964E+02
  0
ARC
  8
0
 62
7
 10
1.39000031E+02
 20
1.15500000E+02
 40
1.75000000E+01
 50
1.56104479E+02
 51
2.03895531E+02
  0
ARC
  8
0
 62
7
 10
6.35000610E+01
 20
8.79829102E+01
 40
5.00000000E-01
 50
2.72000806E+02
 51
2.23117997E-05
  0
ARC
  8
0
 62
7
 10
6.80000610E+01
 20
8.90000000E+01
 40
1.00000000E+00
 50
2.69999970E+02
 51
2.23117997E-05
  0
ARC
  8
0
 62
7
 10
6.80000610E+01
 20
1.42000000E+02
 40
1.00000000E+00
 50
3.59721781E-05
 51
9.00000707E+01
  0
ARC
  8
0
 62
7
 10
6.35000610E+01
 20
1.43017090E+02
 40
5.00000000E-01
 50
3.59721781E-05
 51
8.79992625E+01
  0
ARC
  8
0
 62
4
 10
-2.35144150E+02
 20
1.15500000E+02
 40
3.81441841E+01
 50
3.41940290E+02
 51
1.80597100E+01
  0
ARC
  8
0
 62
4
 10
-1.74855782E+02
 20
1.15500000E+02
 40
3.81441841E+01
 50
1.61940288E+02
 51
1.98059708E+02
  0
ARC
  8
0
 62
4
 10
-2.02759216E+02
 20
1.33237503E+02
 40
1.02407503E+01
 50
1.49999997E+02
 51
2.15264395E+02
  0
ARC
  8
0
 62
4
 10
-2.07240715E+02
 20
1.33237503E+02
 40
1.02407503E+01
 50
3.24735610E+02
 51
3.00000008E+01
  0
ARC
  8
0
 62
4
 10
-2.07240715E+02
 20
9.77624969E+01
 40
1.02407503E+01
 50
3.29999999E+02
 51
3.52643896E+01
  0
ARC
  8
0
 62
4
 10
-2.02759216E+02
 20
9.77624969E+01
 40
1.02407503E+01
 50
1.44735615E+02
 51
2.09999999E+02
  0
LINE
  8
0
 62
4
 10
-2.12999968E+02
 20
1.35981501E+02
 11
-2.11170633E+02
 21
1.39150001E+02
  0
LINE
  8
0
 62
4
 10
-1.96999967E+02
 20
1.35981501E+02
 11
-1.98829297E+02
 21
1.39149994E+02
  0
LINE
  8
0
 62
4
 10
-2.12999969E+02
 20
1.35981499E+02
 11
-2.12999969E+02
 21
9.50185013E+01
  0
LINE
  8
0
 62
4
 10
-1.96999962E+02
 20
9.50184981E+01
 11
-1.98829296E+02
 21
9.18499983E+01
  0
LINE
  8
0
 62
4
 10
-2.12999964E+02
 20
9.50184943E+01
 11
-2.11170633E+02
 21
9.18500011E+01
  0
LINE
  8
0
 62
4
 10
-2.11120750E+02
 20
1.03675003E+02
 11
-1.98879181E+02
 21
1.03675003E+02
  0
LINE
  8
0
 62
4
 10
-2.11120750E+02
 20
1.27324997E+02
 11
-1.98879181E+02
 21
1.27324997E+02
  0
LINE
  8
0
 62
4
 10
-2.11170631E+02
 20
9.18499985E+01
 11
-1.98829300E+02
 21
9.18499985E+01
  0
LINE
  8
0
 62
4
 10
-2.11170631E+02
 20
1.39150002E+02
 11
-1.98829300E+02
 21
1.39150002E+02
  0
LINE
  8
0
 62
4
 10
-1.96999969E+02
 20
1.35981499E+02
 11
-1.96999969E+02
 21
9.50185013E+01
  0
ARC
  8
0
 62
4
 10
1.31855850E+02
 20
1.15500000E+02
 40
3.81441841E+01
 50
3.41940290E+02
 51
1.80597100E+01
  0
ARC
  8
0
 62
4
 10
1.92144218E+02
 20
1.15500000E+02
 40
3.81441841E+01
 50
1.61940288E+02
 51
1.98059708E+02
  0
ARC
  8
0
 62
4
 10
1.64240784E+02
 20
1.33237503E+02
 40
1.02407503E+01
 50
1.49999997E+02
 51
2.15264395E+02
  0
ARC
  8
0
 62
4
 10
1.59759285E+02
 20
1.33237503E+02
 40
1.02407503E+01
 50
3.24735610E+02
 51
3.00000008E+01
  0
ARC
  8
0
 62
4
 10
1.59759285E+02
 20
9.77624969E+01
 40
1.02407503E+01
 50
3.29999999E+02
 51
3.52643896E+01
  0
ARC
  8
0
 62
4
 10
1.64240784E+02
 20
9.77624969E+01
 40
1.02407503E+01
 50
1.44735615E+02
 51
2.09999999E+02
  0
LINE
  8
0
 62
4
 10
1.54000032E+02
 20
1.35981501E+02
 11
1.55829367E+02
 21
1.39150001E+02
  0
LINE
  8
0
 62
4
 10
1.70000033E+02
 20
1.35981501E+02
 11
1.68170703E+02
 21
1.39149994E+02
  0
LINE
  8
0
 62
4
 10
1.54000031E+02
 20
1.35981499E+02
 11
1.54000031E+02
 21
9.50185013E+01
  0
LINE
  8
0
 62
4
 10
1.70000038E+02
 20
9.50184981E+01
 11
1.68170704E+02
 21
9.18499983E+01
  0
LINE
  8
0
 62
4
 10
1.54000036E+02
 20
9.50184943E+01
 11
1.55829367E+02
 21
9.18500011E+01
  0
LINE
  8
0
 62
4
 10
1.55879250E+02
 20
1.03675003E+02
 11
1.68120819E+02
 21
1.03675003E+02
  0
LINE
  8
0
 62
4
 10
1.55879250E+02
 20
1.27324997E+02
 11
1.68120819E+02
 21
1.27324997E+02
  0
LINE
  8
0
 62
4
 10
1.55829369E+02
 20
9.18499985E+01
 11
1.68170700E+02
 21
9.18499985E+01
  0
LINE
  8
0
 62
4
 10
1.55829369E+02
 20
1.39150002E+02
 11
1.68170700E+02
 21
1.39150002E+02
  0
LINE
  8
0
 62
4
 10
1.70000031E+02
 20
1.35981499E+02
 11
1.70000031E+02
 21
9.50185013E+01
  0
LINE
  8
0
 62
7
 10
-1.96999969E+02
 20
1.29000000E+02
 11
-1.79999969E+02
 21
1.29000000E+02
  0
LINE
  8
0
 62
2
 10
-1.96999969E+02
 20
1.27917496E+02
 11
-1.79999969E+02
 21
1.27917496E+02
  0
LINE
  8
0
 62
7
 10
-1.96999969E+02
 20
1.02000000E+02
 11
-1.79999969E+02
 21
1.02000000E+02
  0
LINE
  8
0
 62
2
 10
-1.96999969E+02
 20
1.03082504E+02
 11
-1.79999969E+02
 21
1.03082504E+02
  0
LINE
  8
0
 62
2
 10
1.54000031E+02
 20
1.27917496E+02
 11
1.37000031E+02
 21
1.27917496E+02
  0
LINE
  8
0
 62
7
 10
1.54000031E+02
 20
1.29000000E+02
 11
1.37000031E+02
 21
1.29000000E+02
  0
LINE
  8
0
 62
7
 10
1.54000031E+02
 20
1.02000000E+02
 11
1.37000031E+02
 21
1.02000000E+02
  0
LINE
  8
0
 62
2
 10
1.54000031E+02
 20
1.03082504E+02
 11
1.37000031E+02
 21
1.03082504E+02
  0
POLYLINE
  8
0
 62
4
 66
1
  0
VERTEX
  8
0
 62
4
 10
-6.98905516E+01
 20
1.82000007E+02
  0
VERTEX
  8
0
 62
4
 10
-6.98728266E+01
 20
1.82127792E+02
  0
VERTEX
  8
0
 62
4
 10
-6.98601504E+01
 20
1.82256049E+02
  0
VERTEX
  8
0
 62
4
 10
-6.98525385E+01
 20
1.82384621E+02
  0
VERTEX
  8
0
 62
4
 10
-6.98500002E+01
 20
1.82513350E+02
  0
SEQEND
  8
0
  0
POLYLINE
  8
0
 62
4
 66
1
  0
VERTEX
  8
0
 62
4
 10
-6.98688614E+01
 20
1.81999998E+02
  0
VERTEX
  8
0
 62
4
 10
-6.98606132E+01
 20
1.82084302E+02
  0
VERTEX
  8
0
 62
4
 10
-6.98547182E+01
 20
1.82168749E+02
  0
VERTEX
  8
0
 62
4
 10
-6.98511798E+01
 20
1.82253293E+02
  0
VERTEX
  8
0
 62
4
 10
-6.98500002E+01
 20
1.82337885E+02
  0
SEQEND
  8
0
  0
POLYLINE
  8
0
 62
4
 66
1
  0
VERTEX
  8
0
 62
4
 10
-7.01286061E+01
 20
1.82000010E+02
  0
VERTEX
  8
0
 62
4
 10
-7.00120300E+01
 20
1.82307472E+02
  0
VERTEX
  8
0
 62
4
 10
-6.99264222E+01
 20
1.82622843E+02
  0
VERTEX
  8
0
 62
4
 10
-6.98724476E+01
 20
1.82943675E+02
  0
VERTEX
  8
0
 62
4
 10
-6.98505252E+01
 20
1.83267476E+02
  0
VERTEX
  8
0
 62
4
 10
-6.98608252E+01
 20
1.83591732E+02
  0
VERTEX
  8
0
 62
4
 10
-6.99032678E+01
 20
1.83913924E+02
  0
VERTEX
  8
0
 62
4
 10
-6.99775232E+01
 20
1.84231551E+02
  0
VERTEX
  8
0
 62
4
 10
-7.00830150E+01
 20
1.84542147E+02
  0
VERTEX
  8
0
 62
4
 10
-7.02189238E+01
 20
1.84843298E+02
  0
VERTEX
  8
0
 62
4
 10
-7.03841943E+01
 20
1.85132668E+02
  0
VERTEX
  8
0
 62
4
 10
-7.05775432E+01
 20
1.85408008E+02
  0
VERTEX
  8
0
 62
4
 10
-7.07974689E+01
 20
1.85667180E+02
  0
VERTEX
  8
0
 62
4
 10
-7.10422636E+01
 20
1.85908172E+02
  0
VERTEX
  8
0
 62
4
 10
-7.13100265E+01
 20
1.86129113E+02
  0
VERTEX
  8
0
 62
4
 10
-7.15986782E+01
 20
1.86328287E+02
  0
VERTEX
  8
0
 62
4
 10
-7.19059771E+01
 20
1.86504147E+02
  0
VERTEX
  8
0
 62
4
 10
-7.22295371E+01
 20
1.86655327E+02
  0
VERTEX
  8
0
 62
4
 10
-7.25668455E+01
 20
1.86780654E+02
  0
VERTEX
  8
0
 62
4
 10
-7.29152830E+01
 20
1.86879155E+02
  0
VERTEX
  8
0
 62
4
 10
-7.32721437E+01
 20
1.86950063E+02
  0
VERTEX
  8
0
 62
4
 10
-7.36346566E+01
 20
1.86992830E+02
  0
VERTEX
  8
0
 62
4
 10
-7.40000066E+01
 20
1.87007122E+02
  0
VERTEX
  8
0
 62
4
 10
-7.43653564E+01
 20
1.86992829E+02
  0
VERTEX
  8
0
 62
4
 10
-7.47278692E+01
 20
1.86950061E+02
  0
VERTEX
  8
0
 62
4
 10
-7.50847297E+01
 20
1.86879152E+02
  0
VERTEX
  8
0
 62
4
 10
-7.54331668E+01
 20
1.86780650E+02
  0
VERTEX
  8
0
 62
4
 10
-7.57704748E+01
 20
1.86655323E+02
  0
VERTEX
  8
0
 62
4
 10
-7.60940342E+01
 20
1.86504141E+02
  0
VERTEX
  8
0
 62
4
 10
-7.64013326E+01
 20
1.86328281E+02
  0
VERTEX
  8
0
 62
4
 10
-7.66899836E+01
 20
1.86129106E+02
  0
VERTEX
  8
0
 62
4
 10
-7.69577456E+01
 20
1.85908164E+02
  0
VERTEX
  8
0
 62
4
 10
-7.72025395E+01
 20
1.85667171E+02
  0
VERTEX
  8
0
 62
4
 10
-7.74224643E+01
 20
1.85407998E+02
  0
VERTEX
  8
0
 62
4
 10
-7.76158122E+01
 20
1.85132658E+02
  0
VERTEX
  8
0
 62
4
 10
-7.77810817E+01
 20
1.84843288E+02
  0
VERTEX
  8
0
 62
4
 10
-7.79169895E+01
 20
1.84542136E+02
  0
VERTEX
  8
0
 62
4
 10
-7.80224802E+01
 20
1.84231540E+02
  0
VERTEX
  8
0
 62
4
 10
-7.80967345E+01
 20
1.83913913E+02
  0
VERTEX
  8
0
 62
4
 10
-7.81391759E+01
 20
1.83591721E+02
  0
VERTEX
  8
0
 62
4
 10
-7.81494748E+01
 20
1.83267465E+02
  0
VERTEX
  8
0
 62
4
 10
-7.81275513E+01
 20
1.82943664E+02
  0
VERTEX
  8
0
 62
4
 10
-7.80735755E+01
 20
1.82622832E+02
  0
VERTEX
  8
0
 62
4
 10
-7.79879666E+01
 20
1.82307461E+02
  0
VERTEX
  8
0
 62
4
 10
-7.78713895E+01
 20
1.82000000E+02
  0
SEQEND
  8
0
  0
LINE
  8
0
 62
4
 10
-8.90000000E+01
 20
1.89433972E+02
 11
-8.90000000E+01
 21
1.82000000E+02
  0
LINE
  8
0
 62
4
 10
-5.90000000E+01
 20
1.89433972E+02
 11
-5.90000000E+01
 21
1.82000000E+02
  0
LINE
  8
0
 62
4
 10
-8.90000000E+01
 20
1.89433972E+02
 11
-5.90000000E+01
 21
1.89433972E+02
  0
LINE
  8
0
  6
CENTER
 62
6
 10
-6.65000000E+01
 20
1.90242423E+02
 11
-6.65000000E+01
 21
1.80642423E+02
  0
LINE
  8
0
  6
CENTER
 62
6
 10
-6.17000000E+01
 20
1.85442423E+02
 11
-7.13000000E+01
 21
1.85442423E+02
  0
LINE
  8
0
  6
CENTER
 62
6
 10
-8.15000000E+01
 20
1.89017020E+02
 11
-8.15000000E+01
 21
1.81867826E+02
  0
LINE
  8
0
  6
CENTER
 62
6
 10
-7.79254031E+01
 20
1.85442423E+02
 11
-8.50745969E+01
 21
1.85442423E+02
  0
LINE
  8
0
  6
CENTER
 62
6
 10
-7.40000001E+01
 20
1.86987885E+02
 11
-7.40000001E+01
 21
1.77687885E+02
  0
LINE
  8
0
  6
CENTER
 62
6
 10
-6.93500001E+01
 20
1.82337885E+02
 11
-7.86500001E+01
 21
1.82337885E+02
  0
POLYLINE
  8
0
 62
4
 66
1
  0
VERTEX
  8
0
 62
4
 10
-8.37500000E+01
 20
1.85442423E+02
  0
VERTEX
  8
0
 62
4
 10
-8.37414381E+01
 20
1.85268480E+02
  0
VERTEX
  8
0
 62
4
 10
-8.37158174E+01
 20
1.85095860E+02
  0
VERTEX
  8
0
 62
4
 10
-8.36733331E+01
 20
1.84925879E+02
  0
VERTEX
  8
0
 62
4
 10
-8.36143084E+01
 20
1.84759828E+02
  0
VERTEX
  8
0
 62
4
 10
-8.35391925E+01
 20
1.84598972E+02
  0
VERTEX
  8
0
 62
4
 10
-8.34485572E+01
 20
1.84444536E+02
  0
VERTEX
  8
0
 62
4
 10
-8.33430921E+01
 20
1.84297694E+02
  0
VERTEX
  8
0
 62
4
 10
-8.32236000E+01
 20
1.84159564E+02
  0
VERTEX
  8
0
 62
4
 10
-8.30909903E+01
 20
1.84031197E+02
  0
VERTEX
  8
0
 62
4
 10
-8.29462721E+01
 20
1.83913571E+02
  0
VERTEX
  8
0
 62
4
 10
-8.27905470E+01
 20
1.83807580E+02
  0
VERTEX
  8
0
 62
4
 10
-8.26250000E+01
 20
1.83714032E+02
  0
VERTEX
  8
0
 62
4
 10
-8.24508911E+01
 20
1.83633637E+02
  0
VERTEX
  8
0
 62
4
 10
-8.22695453E+01
 20
1.83567009E+02
  0
VERTEX
  8
0
 62
4
 10
-8.20823429E+01
 20
1.83514653E+02
  0
VERTEX
  8
0
 62
4
 10
-8.18907084E+01
 20
1.83476969E+02
  0
VERTEX
  8
0
 62
4
 10
-8.16961004E+01
 20
1.83454243E+02
  0
VERTEX
  8
0
 62
4
 10
-8.15000000E+01
 20
1.83446649E+02
  0
VERTEX
  8
0
 62
4
 10
-8.13038996E+01
 20
1.83454243E+02
  0
VERTEX
  8
0
 62
4
 10
-8.11092916E+01
 20
1.83476969E+02
  0
VERTEX
  8
0
 62
4
 10
-8.09176572E+01
 20
1.83514653E+02
  0
VERTEX
  8
0
 62
4
 10
-8.07304547E+01
 20
1.83567009E+02
  0
VERTEX
  8
0
 62
4
 10
-8.05491089E+01
 20
1.83633637E+02
  0
VERTEX
  8
0
 62
4
 10
-8.03750000E+01
 20
1.83714032E+02
  0
VERTEX
  8
0
 62
4
 10
-8.02094530E+01
 20
1.83807580E+02
  0
VERTEX
  8
0
 62
4
 10
-8.00537279E+01
 20
1.83913571E+02
  0
VERTEX
  8
0
 62
4
 10
-7.99090097E+01
 20
1.84031197E+02
  0
VERTEX
  8
0
 62
4
 10
-7.97764000E+01
 20
1.84159564E+02
  0
VERTEX
  8
0
 62
4
 10
-7.96569079E+01
 20
1.84297694E+02
  0
VERTEX
  8
0
 62
4
 10
-7.95514428E+01
 20
1.84444536E+02
  0
VERTEX
  8
0
 62
4
 10
-7.94608075E+01
 20
1.84598972E+02
  0
VERTEX
  8
0
 62
4
 10
-7.93856916E+01
 20
1.84759828E+02
  0
VERTEX
  8
0
 62
4
 10
-7.93266669E+01
 20
1.84925879E+02
  0
VERTEX
  8
0
 62
4
 10
-7.92841826E+01
 20
1.85095860E+02
  0
VERTEX
  8
0
 62
4
 10
-7.92585619E+01
 20
1.85268480E+02
  0
VERTEX
  8
0
 62
4
 10
-7.92500000E+01
 20
1.85442423E+02
  0
VERTEX
  8
0
 62
4
 10
-7.92585619E+01
 20
1.85616366E+02
  0
VERTEX
  8
0
 62
4
 10
-7.92841826E+01
 20
1.85788986E+02
  0
VERTEX
  8
0
 62
4
 10
-7.93266669E+01
 20
1.85958967E+02
  0
VERTEX
  8
0
 62
4
 10
-7.93856916E+01
 20
1.86125018E+02
  0
VERTEX
  8
0
 62
4
 10
-7.94608075E+01
 20
1.86285874E+02
  0
VERTEX
  8
0
 62
4
 10
-7.95514428E+01
 20
1.86440310E+02
  0
VERTEX
  8
0
 62
4
 10
-7.96569079E+01
 20
1.86587152E+02
  0
VERTEX
  8
0
 62
4
 10
-7.97764000E+01
 20
1.86725282E+02
  0
VERTEX
  8
0
 62
4
 10
-7.99090097E+01
 20
1.86853649E+02
  0
VERTEX
  8
0
 62
4
 10
-8.00537279E+01
 20
1.86971275E+02
  0
VERTEX
  8
0
 62
4
 10
-8.02094530E+01
 20
1.87077266E+02
  0
VERTEX
  8
0
 62
4
 10
-8.03750000E+01
 20
1.87170814E+02
  0
VERTEX
  8
0
 62
4
 10
-8.05491089E+01
 20
1.87251209E+02
  0
VERTEX
  8
0
 62
4
 10
-8.07304547E+01
 20
1.87317837E+02
  0
VERTEX
  8
0
 62
4
 10
-8.09176571E+01
 20
1.87370193E+02
  0
VERTEX
  8
0
 62
4
 10
-8.11092916E+01
 20
1.87407877E+02
  0
VERTEX
  8
0
 62
4
 10
-8.13038996E+01
 20
1.87430603E+02
  0
VERTEX
  8
0
 62
4
 10
-8.15000000E+01
 20
1.87438197E+02
  0
VERTEX
  8
0
 62
4
 10
-8.16961004E+01
 20
1.87430603E+02
  0
VERTEX
  8
0
 62
4
 10
-8.18907084E+01
 20
1.87407877E+02
  0
VERTEX
  8
0
 62
4
 10
-8.20823428E+01
 20
1.87370193E+02
  0
VERTEX
  8
0
 62
4
 10
-8.22695453E+01
 20
1.87317837E+02
  0
VERTEX
  8
0
 62
4
 10
-8.24508911E+01
 20
1.87251209E+02
  0
VERTEX
  8
0
 62
4
 10
-8.26250000E+01
 20
1.87170814E+02
  0
VERTEX
  8
0
 62
4
 10
-8.27905470E+01
 20
1.87077266E+02
  0
VERTEX
  8
0
 62
4
 10
-8.29462721E+01
 20
1.86971275E+02
  0
VERTEX
  8
0
 62
4
 10
-8.30909903E+01
 20
1.86853649E+02
  0
VERTEX
  8
0
 62
4
 10
-8.32236000E+01
 20
1.86725282E+02
  0
VERTEX
  8
0
 62
4
 10
-8.33430921E+01
 20
1.86587152E+02
  0
VERTEX
  8
0
 62
4
 10
-8.34485572E+01
 20
1.86440310E+02
  0
VERTEX
  8
0
 62
4
 10
-8.35391925E+01
 20
1.86285874E+02
  0
VERTEX
  8
0
 62
4
 10
-8.36143084E+01
 20
1.86125018E+02
  0
VERTEX
  8
0
 62
4
 10
-8.36733331E+01
 20
1.85958967E+02
  0
VERTEX
  8
0
 62
4
 10
-8.37158174E+01
 20
1.85788986E+02
  0
VERTEX
  8
0
 62
4
 10
-8.37414381E+01
 20
1.85616366E+02
  0
VERTEX
  8
0
 62
4
 10
-8.37500000E+01
 20
1.85442423E+02
  0
SEQEND
  8
0
  0
POLYLINE
  8
0
 62
4
 66
1
  0
VERTEX
  8
0
 62
4
 10
-7.81500000E+01
 20
1.82337885E+02
  0
VERTEX
  8
0
 62
4
 10
-7.81488204E+01
 20
1.82253293E+02
  0
VERTEX
  8
0
 62
4
 10
-7.81452820E+01
 20
1.82168749E+02
  0
VERTEX
  8
0
 62
4
 10
-7.81393871E+01
 20
1.82084302E+02
  0
VERTEX
  8
0
 62
4
 10
-7.81311388E+01
 20
1.81999998E+02
  0
SEQEND
  8
0
  0
POLYLINE
  8
0
 62
4
 66
1
  0
VERTEX
  8
0
 62
4
 10
-7.81500000E+01
 20
1.82513350E+02
  0
VERTEX
  8
0
 62
4
 10
-7.81474617E+01
 20
1.82384621E+02
  0
VERTEX
  8
0
 62
4
 10
-7.81398498E+01
 20
1.82256049E+02
  0
VERTEX
  8
0
 62
4
 10
-7.81271736E+01
 20
1.82127792E+02
  0
VERTEX
  8
0
 62
4
 10
-7.81094486E+01
 20
1.82000007E+02
  0
SEQEND
  8
0
  0
LINE
  8
0
 62
4
 10
-7.81500000E+01
 20
1.82513350E+02
 11
-7.81500000E+01
 21
1.83326027E+02
  0
LINE
  8
0
 62
4
 10
-6.98500000E+01
 20
1.82513350E+02
 11
-6.98500000E+01
 21
1.83326027E+02
  0
ARC
  8
0
 62
4
 10
-3.38371084E+01
 20
1.51361472E+02
 40
5.15423550E+01
 50
1.38152551E+02
 51
1.43527706E+02
  0
ARC
  8
0
 62
4
 10
-1.14162951E+02
 20
1.51361424E+02
 40
5.15424305E+01
 50
3.64722971E+01
 51
4.18474448E+01
  0
LINE
  8
0
 62
4
 10
-6.99000000E+01
 20
1.85904172E+02
 11
-6.99000000E+01
 21
1.86426318E+02
  0
POLYLINE
  8
0
 62
4
 66
1
  0
VERTEX
  8
0
 62
4
 10
-6.99000000E+01
 20
1.85904172E+02
  0
VERTEX
  8
0
 62
4
 10
-6.98863126E+01
 20
1.85633834E+02
  0
VERTEX
  8
0
 62
4
 10
-6.98453606E+01
 20
1.85365674E+02
  0
VERTEX
  8
0
 62
4
 10
-6.97774737E+01
 20
1.85101848E+02
  0
VERTEX
  8
0
 62
4
 10
-6.96831986E+01
 20
1.84844483E+02
  0
VERTEX
  8
0
 62
4
 10
-6.95632942E+01
 20
1.84595649E+02
  0
VERTEX
  8
0
 62
4
 10
-6.94187259E+01
 20
1.84357351E+02
  0
VERTEX
  8
0
 62
4
 10
-6.92506578E+01
 20
1.84131508E+02
  0
VERTEX
  8
0
 62
4
 10
-6.90604430E+01
 20
1.83919936E+02
  0
VERTEX
  8
0
 62
4
 10
-6.88496130E+01
 20
1.83724341E+02
  0
VERTEX
  8
0
 62
4
 10
-6.86198653E+01
 20
1.83546296E+02
  0
VERTEX
  8
0
 62
4
 10
-6.83730498E+01
 20
1.83387235E+02
  0
VERTEX
  8
0
 62
4
 10
-6.81111535E+01
 20
1.83248440E+02
  0
VERTEX
  8
0
 62
4
 10
-6.78362851E+01
 20
1.83131026E+02
  0
VERTEX
  8
0
 62
4
 10
-6.75506578E+01
 20
1.83035941E+02
  0
VERTEX
  8
0
 62
4
 10
-6.72565712E+01
 20
1.82963948E+02
  0
VERTEX
  8
0
 62
4
 10
-6.69563931E+01
 20
1.82915629E+02
  0
VERTEX
  8
0
 62
4
 10
-6.66525404E+01
 20
1.82891372E+02
  0
VERTEX
  8
0
 62
4
 10
-6.63474596E+01
 20
1.82891372E+02
  0
VERTEX
  8
0
 62
4
 10
-6.60436069E+01
 20
1.82915629E+02
  0
VERTEX
  8
0
 62
4
 10
-6.57434288E+01
 20
1.82963948E+02
  0
VERTEX
  8
0
 62
4
 10
-6.54493422E+01
 20
1.83035941E+02
  0
VERTEX
  8
0
 62
4
 10
-6.51637149E+01
 20
1.83131026E+02
  0
VERTEX
  8
0
 62
4
 10
-6.48888466E+01
 20
1.83248440E+02
  0
VERTEX
  8
0
 62
4
 10
-6.46269503E+01
 20
1.83387235E+02
  0
VERTEX
  8
0
 62
4
 10
-6.43801347E+01
 20
1.83546296E+02
  0
VERTEX
  8
0
 62
4
 10
-6.41503870E+01
 20
1.83724341E+02
  0
VERTEX
  8
0
 62
4
 10
-6.39395570E+01
 20
1.83919936E+02
  0
VERTEX
  8
0
 62
4
 10
-6.37493422E+01
 20
1.84131508E+02
  0
VERTEX
  8
0
 62
4
 10
-6.35812741E+01
 20
1.84357351E+02
  0
VERTEX
  8
0
 62
4
 10
-6.34367058E+01
 20
1.84595649E+02
  0
VERTEX
  8
0
 62
4
 10
-6.33168014E+01
 20
1.84844483E+02
  0
VERTEX
  8
0
 62
4
 10
-6.32225263E+01
 20
1.85101848E+02
  0
VERTEX
  8
0
 62
4
 10
-6.31546394E+01
 20
1.85365674E+02
  0
VERTEX
  8
0
 62
4
 10
-6.31136874E+01
 20
1.85633834E+02
  0
VERTEX
  8
0
 62
4
 10
-6.31000000E+01
 20
1.85904172E+02
  0
SEQEND
  8
0
  0
POLYLINE
  8
0
 62
4
 66
1
  0
VERTEX
  8
0
 62
4
 10
-6.99000000E+01
 20
1.86426318E+02
  0
VERTEX
  8
0
 62
4
 10
-6.98870620E+01
 20
1.86163471E+02
  0
VERTEX
  8
0
 62
4
 10
-6.98483464E+01
 20
1.85902623E+02
  0
VERTEX
  8
0
 62
4
 10
-6.97841478E+01
 20
1.85645762E+02
  0
VERTEX
  8
0
 62
4
 10
-6.96949549E+01
 20
1.85394841E+02
  0
VERTEX
  8
0
 62
4
 10
-6.95814465E+01
 20
1.85151770E+02
  0
VERTEX
  8
0
 62
4
 10
-6.94444864E+01
 20
1.84918400E+02
  0
VERTEX
  8
0
 62
4
 10
-6.92851170E+01
 20
1.84696505E+02
  0
VERTEX
  8
0
 62
4
 10
-6.91045511E+01
 20
1.84487775E+02
  0
VERTEX
  8
0
 62
4
 10
-6.89041631E+01
 20
1.84293799E+02
  0
VERTEX
  8
0
 62
4
 10
-6.86854779E+01
 20
1.84116053E+02
  0
VERTEX
  8
0
 62
4
 10
-6.84501599E+01
 20
1.83955889E+02
  0
VERTEX
  8
0
 62
4
 10
-6.82000000E+01
 20
1.83814527E+02
  0
VERTEX
  8
0
 62
4
 10
-6.79369021E+01
 20
1.83693042E+02
  0
VERTEX
  8
0
 62
4
 10
-6.76628685E+01
 20
1.83592358E+02
  0
VERTEX
  8
0
 62
4
 10
-6.73799848E+01
 20
1.83513243E+02
  0
VERTEX
  8
0
 62
4
 10
-6.70904038E+01
 20
1.83456299E+02
  0
VERTEX
  8
0
 62
4
 10
-6.67963295E+01
 20
1.83421957E+02
  0
VERTEX
  8
0
 62
4
 10
-6.65000000E+01
 20
1.83410481E+02
  0
VERTEX
  8
0
 62
4
 10
-6.62036705E+01
 20
1.83421957E+02
  0
VERTEX
  8
0
 62
4
 10
-6.59095962E+01
 20
1.83456299E+02
  0
VERTEX
  8
0
 62
4
 10
-6.56200152E+01
 20
1.83513243E+02
  0
VERTEX
  8
0
 62
4
 10
-6.53371315E+01
 20
1.83592358E+02
  0
VERTEX
  8
0
 62
4
 10
-6.50630979E+01
 20
1.83693042E+02
  0
VERTEX
  8
0
 62
4
 10
-6.48000000E+01
 20
1.83814527E+02
  0
VERTEX
  8
0
 62
4
 10
-6.45498401E+01
 20
1.83955889E+02
  0
VERTEX
  8
0
 62
4
 10
-6.43145221E+01
 20
1.84116053E+02
  0
VERTEX
  8
0
 62
4
 10
-6.40958369E+01
 20
1.84293799E+02
  0
VERTEX
  8
0
 62
4
 10
-6.38954489E+01
 20
1.84487775E+02
  0
VERTEX
  8
0
 62
4
 10
-6.37148830E+01
 20
1.84696505E+02
  0
VERTEX
  8
0
 62
4
 10
-6.35555136E+01
 20
1.84918400E+02
  0
VERTEX
  8
0
 62
4
 10
-6.34185535E+01
 20
1.85151770E+02
  0
VERTEX
  8
0
 62
4
 10
-6.33050451E+01
 20
1.85394841E+02
  0
VERTEX
  8
0
 62
4
 10
-6.32158522E+01
 20
1.85645762E+02
  0
VERTEX
  8
0
 62
4
 10
-6.31516536E+01
 20
1.85902623E+02
  0
VERTEX
  8
0
 62
4
 10
-6.31129380E+01
 20
1.86163470E+02
  0
VERTEX
  8
0
 62
4
 10
-6.31000000E+01
 20
1.86426318E+02
  0
VERTEX
  8
0
 62
4
 10
-6.31129380E+01
 20
1.86689165E+02
  0
VERTEX
  8
0
 62
4
 10
-6.31516536E+01
 20
1.86950013E+02
  0
VERTEX
  8
0
 62
4
 10
-6.32158522E+01
 20
1.87206874E+02
  0
VERTEX
  8
0
 62
4
 10
-6.33050451E+01
 20
1.87457795E+02
  0
VERTEX
  8
0
 62
4
 10
-6.34185535E+01
 20
1.87700866E+02
  0
VERTEX
  8
0
 62
4
 10
-6.35555136E+01
 20
1.87934236E+02
  0
VERTEX
  8
0
 62
4
 10
-6.37148830E+01
 20
1.88156131E+02
  0
VERTEX
  8
0
 62
4
 10
-6.38954489E+01
 20
1.88364861E+02
  0
VERTEX
  8
0
 62
4
 10
-6.40958369E+01
 20
1.88558837E+02
  0
VERTEX
  8
0
 62
4
 10
-6.43145221E+01
 20
1.88736583E+02
  0
VERTEX
  8
0
 62
4
 10
-6.45498401E+01
 20
1.88896747E+02
  0
VERTEX
  8
0
 62
4
 10
-6.48000000E+01
 20
1.89038109E+02
  0
VERTEX
  8
0
 62
4
 10
-6.50630979E+01
 20
1.89159594E+02
  0
VERTEX
  8
0
 62
4
 10
-6.53371315E+01
 20
1.89260278E+02
  0
VERTEX
  8
0
 62
4
 10
-6.56200152E+01
 20
1.89339393E+02
  0
VERTEX
  8
0
 62
4
 10
-6.59095962E+01
 20
1.89396337E+02
  0
VERTEX
  8
0
 62
4
 10
-6.62036705E+01
 20
1.89430679E+02
  0
VERTEX
  8
0
 62
4
 10
-6.65000000E+01
 20
1.89442155E+02
  0
VERTEX
  8
0
 62
4
 10
-6.67963295E+01
 20
1.89430679E+02
  0
VERTEX
  8
0
 62
4
 10
-6.70904038E+01
 20
1.89396337E+02
  0
VERTEX
  8
0
 62
4
 10
-6.73799848E+01
 20
1.89339393E+02
  0
VERTEX
  8
0
 62
4
 10
-6.76628685E+01
 20
1.89260278E+02
  0
VERTEX
  8
0
 62
4
 10
-6.79369021E+01
 20
1.89159594E+02
  0
VERTEX
  8
0
 62
4
 10
-6.82000000E+01
 20
1.89038109E+02
  0
VERTEX
  8
0
 62
4
 10
-6.84501599E+01
 20
1.88896747E+02
  0
VERTEX
  8
0
 62
4
 10
-6.86854779E+01
 20
1.88736583E+02
  0
VERTEX
  8
0
 62
4
 10
-6.89041631E+01
 20
1.88558837E+02
  0
VERTEX
  8
0
 62
4
 10
-6.91045511E+01
 20
1.88364861E+02
  0
VERTEX
  8
0
 62
4
 10
-6.92851170E+01
 20
1.88156131E+02
  0
VERTEX
  8
0
 62
4
 10
-6.94444864E+01
 20
1.87934236E+02
  0
VERTEX
  8
0
 62
4
 10
-6.95814465E+01
 20
1.87700866E+02
  0
VERTEX
  8
0
 62
4
 10
-6.96949549E+01
 20
1.87457795E+02
  0
VERTEX
  8
0
 62
4
 10
-6.97841478E+01
 20
1.87206874E+02
  0
VERTEX
  8
0
 62
4
 10
-6.98483464E+01
 20
1.86950013E+02
  0
VERTEX
  8
0
 62
4
 10
-6.98870620E+01
 20
1.86689166E+02
  0
VERTEX
  8
0
 62
4
 10
-6.99000000E+01
 20
1.86426318E+02
  0
SEQEND
  8
0
  0
LINE
  8
0
 62
4
 10
-6.31000000E+01
 20
1.85904172E+02
 11
-6.31000000E+01
 21
1.86426318E+02
  0
LINE
  8
0
 62
4
 10
-6.27000000E+01
 20
1.85442423E+02
 11
-6.27000000E+01
 21
1.85904172E+02
  0
POLYLINE
  8
0
 62
4
 66
1
  0
VERTEX
  8
0
 62
4
 10
-6.91323496E+01
 20
1.88335089E+02
  0
VERTEX
  8
0
 62
4
 10
-6.93630538E+01
 20
1.88120443E+02
  0
VERTEX
  8
0
 62
4
 10
-6.95715946E+01
 20
1.87888641E+02
  0
VERTEX
  8
0
 62
4
 10
-6.97563577E+01
 20
1.87641476E+02
  0
VERTEX
  8
0
 62
4
 10
-6.99159127E+01
 20
1.87380863E+02
  0
VERTEX
  8
0
 62
4
 10
-7.00490245E+01
 20
1.87108818E+02
  0
VERTEX
  8
0
 62
4
 10
-7.01546627E+01
 20
1.86827448E+02
  0
VERTEX
  8
0
 62
4
 10
-7.02320095E+01
 20
1.86538931E+02
  0
VERTEX
  8
0
 62
4
 10
-7.02804661E+01
 20
1.86245499E+02
  0
VERTEX
  8
0
 62
4
 10
-7.02996575E+01
 20
1.85949426E+02
  0
VERTEX
  8
0
 62
4
 10
-7.02894350E+01
 20
1.85653002E+02
  0
VERTEX
  8
0
 62
4
 10
-7.02498779E+01
 20
1.85358523E+02
  0
VERTEX
  8
0
 62
4
 10
-7.01812923E+01
 20
1.85068267E+02
  0
VERTEX
  8
0
 62
4
 10
-7.00842091E+01
 20
1.84784483E+02
  0
VERTEX
  8
0
 62
4
 10
-6.99593800E+01
 20
1.84509366E+02
  0
VERTEX
  8
0
 62
4
 10
-6.98077711E+01
 20
1.84245047E+02
  0
VERTEX
  8
0
 62
4
 10
-6.96305563E+01
 20
1.83993571E+02
  0
VERTEX
  8
0
 62
4
 10
-6.94291072E+01
 20
1.83756885E+02
  0
VERTEX
  8
0
 62
4
 10
-6.92049834E+01
 20
1.83536823E+02
  0
VERTEX
  8
0
 62
4
 10
-6.89599198E+01
 20
1.83335086E+02
  0
VERTEX
  8
0
 62
4
 10
-6.86958136E+01
 20
1.83153237E+02
  0
VERTEX
  8
0
 62
4
 10
-6.84147091E+01
 20
1.82992683E+02
  0
VERTEX
  8
0
 62
4
 10
-6.81187826E+01
 20
1.82854668E+02
  0
VERTEX
  8
0
 62
4
 10
-6.78103248E+01
 20
1.82740259E+02
  0
VERTEX
  8
0
 62
4
 10
-6.74917235E+01
 20
1.82650343E+02
  0
VERTEX
  8
0
 62
4
 10
-6.71654451E+01
 20
1.82585615E+02
  0
VERTEX
  8
0
 62
4
 10
-6.68340154E+01
 20
1.82546577E+02
  0
VERTEX
  8
0
 62
4
 10
-6.65000000E+01
 20
1.82533531E+02
  0
VERTEX
  8
0
 62
4
 10
-6.61659846E+01
 20
1.82546577E+02
  0
VERTEX
  8
0
 62
4
 10
-6.58345549E+01
 20
1.82585615E+02
  0
VERTEX
  8
0
 62
4
 10
-6.55082765E+01
 20
1.82650343E+02
  0
VERTEX
  8
0
 62
4
 10
-6.51896752E+01
 20
1.82740259E+02
  0
VERTEX
  8
0
 62
4
 10
-6.48812174E+01
 20
1.82854668E+02
  0
VERTEX
  8
0
 62
4
 10
-6.45852909E+01
 20
1.82992683E+02
  0
VERTEX
  8
0
 62
4
 10
-6.43041864E+01
 20
1.83153237E+02
  0
VERTEX
  8
0
 62
4
 10
-6.40400802E+01
 20
1.83335086E+02
  0
VERTEX
  8
0
 62
4
 10
-6.37950166E+01
 20
1.83536823E+02
  0
VERTEX
  8
0
 62
4
 10
-6.35708928E+01
 20
1.83756885E+02
  0
VERTEX
  8
0
 62
4
 10
-6.33694437E+01
 20
1.83993571E+02
  0
VERTEX
  8
0
 62
4
 10
-6.31922289E+01
 20
1.84245047E+02
  0
VERTEX
  8
0
 62
4
 10
-6.30406200E+01
 20
1.84509366E+02
  0
VERTEX
  8
0
 62
4
 10
-6.29157909E+01
 20
1.84784483E+02
  0
VERTEX
  8
0
 62
4
 10
-6.28187077E+01
 20
1.85068267E+02
  0
VERTEX
  8
0
 62
4
 10
-6.27501221E+01
 20
1.85358523E+02
  0
VERTEX
  8
0
 62
4
 10
-6.27105650E+01
 20
1.85653002E+02
  0
VERTEX
  8
0
 62
4
 10
-6.27003425E+01
 20
1.85949426E+02
  0
VERTEX
  8
0
 62
4
 10
-6.27195339E+01
 20
1.86245499E+02
  0
VERTEX
  8
0
 62
4
 10
-6.27679905E+01
 20
1.86538931E+02
  0
VERTEX
  8
0
 62
4
 10
-6.28453373E+01
 20
1.86827448E+02
  0
VERTEX
  8
0
 62
4
 10
-6.29509755E+01
 20
1.87108818E+02
  0
VERTEX
  8
0
 62
4
 10
-6.30840873E+01
 20
1.87380863E+02
  0
VERTEX
  8
0
 62
4
 10
-6.32436423E+01
 20
1.87641476E+02
  0
VERTEX
  8
0
 62
4
 10
-6.34284054E+01
 20
1.87888641E+02
  0
VERTEX
  8
0
 62
4
 10
-6.36369462E+01
 20
1.88120443E+02
  0
VERTEX
  8
0
 62
4
 10
-6.38676504E+01
 20
1.88335089E+02
  0
SEQEND
  8
0
  0
LINE
  8
0
 62
4
 10
-7.03000000E+01
 20
1.85442423E+02
 11
-7.03000000E+01
 21
1.85904172E+02
  0
POLYLINE
  8
0
 62
4
 66
1
  0
VERTEX
  8
0
 62
4
 10
-7.03000000E+01
 20
1.85442423E+02
  0
VERTEX
  8
0
 62
4
 10
-7.02969626E+01
 20
1.85307683E+02
  0
VERTEX
  8
0
 62
4
 10
-7.02878554E+01
 20
1.85173158E+02
  0
VERTEX
  8
0
 62
4
 10
-7.02726928E+01
 20
1.85039063E+02
  0
VERTEX
  8
0
 62
4
 10
-7.02514991E+01
 20
1.84905613E+02
  0
SEQEND
  8
0
  0
POLYLINE
  8
0
 62
4
 66
1
  0
VERTEX
  8
0
 62
4
 10
-6.99116003E+01
 20
1.83957909E+02
  0
VERTEX
  8
0
 62
4
 10
-6.97483227E+01
 20
1.83693324E+02
  0
VERTEX
  8
0
 62
4
 10
-6.95590326E+01
 20
1.83442746E+02
  0
VERTEX
  8
0
 62
4
 10
-6.93452457E+01
 20
1.83208181E+02
  0
VERTEX
  8
0
 62
4
 10
-6.91086740E+01
 20
1.82991508E+02
  0
VERTEX
  8
0
 62
4
 10
-6.88512120E+01
 20
1.82794461E+02
  0
VERTEX
  8
0
 62
4
 10
-6.85749216E+01
 20
1.82618620E+02
  0
VERTEX
  8
0
 62
4
 10
-6.82820151E+01
 20
1.82465392E+02
  0
VERTEX
  8
0
 62
4
 10
-6.79748382E+01
 20
1.82336004E+02
  0
VERTEX
  8
0
 62
4
 10
-6.76558508E+01
 20
1.82231492E+02
  0
VERTEX
  8
0
 62
4
 10
-6.73276074E+01
 20
1.82152693E+02
  0
VERTEX
  8
0
 62
4
 10
-6.69927365E+01
 20
1.82100238E+02
  0
VERTEX
  8
0
 62
4
 10
-6.66539197E+01
 20
1.82074548E+02
  0
VERTEX
  8
0
 62
4
 10
-6.63138703E+01
 20
1.82075828E+02
  0
VERTEX
  8
0
 62
4
 10
-6.59753115E+01
 20
1.82104067E+02
  0
VERTEX
  8
0
 62
4
 10
-6.56409544E+01
 20
1.82159040E+02
  0
VERTEX
  8
0
 62
4
 10
-6.53134765E+01
 20
1.82240306E+02
  0
VERTEX
  8
0
 62
4
 10
-6.49955003E+01
 20
1.82347215E+02
  0
VERTEX
  8
0
 62
4
 10
-6.46895722E+01
 20
1.82478911E+02
  0
VERTEX
  8
0
 62
4
 10
-6.43981419E+01
 20
1.82634338E+02
  0
VERTEX
  8
0
 62
4
 10
-6.41235434E+01
 20
1.82812252E+02
  0
VERTEX
  8
0
 62
4
 10
-6.38679756E+01
 20
1.83011229E+02
  0
VERTEX
  8
0
 62
4
 10
-6.36334850E+01
 20
1.83229675E+02
  0
VERTEX
  8
0
 62
4
 10
-6.34219495E+01
 20
1.83465840E+02
  0
VERTEX
  8
0
 62
4
 10
-6.32350631E+01
 20
1.83717834E+02
  0
VERTEX
  8
0
 62
4
 10
-6.30743223E+01
 20
1.83983639E+02
  0
VERTEX
  8
0
 62
4
 10
-6.29410144E+01
 20
1.84261125E+02
  0
VERTEX
  8
0
 62
4
 10
-6.28362069E+01
 20
1.84548072E+02
  0
VERTEX
  8
0
 62
4
 10
-6.27607390E+01
 20
1.84842180E+02
  0
VERTEX
  8
0
 62
4
 10
-6.27152152E+01
 20
1.85141095E+02
  0
VERTEX
  8
0
 62
4
 10
-6.27000000E+01
 20
1.85442423E+02
  0
SEQEND
  8
0
  0
ARC
  8
0
 62
4
 10
2.19924537E+03
 20
-2.36556731E+03
 40
3.41310218E+03
 50
1.31553539E+02
 51
1.31632899E+02
  0
ARC
  8
0
 62
4
 10
-2.33226049E+03
 20
-2.36558433E+03
 40
3.41312495E+03
 50
4.83671016E+01
 51
4.84464605E+01
  0
LINE
  8
0
  6
CENTER
 62
6
 10
5.00006104E+00
 20
1.77160385E+02
 11
-4.19999390E+01
 21
1.77160385E+02
  0
LINE
  8
0
 62
6
 10
-3.82678881E+01
 20
1.80160385E+02
 11
-4.17319897E+01
 21
1.74160385E+02
  0
LINE
  8
0
 62
4
 10
-2.99999390E+01
 20
1.78660385E+02
 11
-3.91339136E+01
 21
1.78660385E+02
  0
LINE
  8
0
 62
4
 10
-2.99999390E+01
 20
1.75660385E+02
 11
-4.08659644E+01
 21
1.75660385E+02
  0
LINE
  8
0
 62
4
 10
-1.49999390E+01
 20
1.60810379E+02
 11
-1.49999390E+01
 21
1.84677961E+02
  0
LINE
  8
0
 62
4
 10
-2.99999390E+01
 20
1.60810379E+02
 11
-2.99999390E+01
 21
1.89433972E+02
  0
LINE
  8
0
 62
4
 10
6.10353527E-05
 20
1.70301089E+02
 11
6.10353527E-05
 21
1.89433972E+02
  0
LINE
  8
0
 62
4
 10
1.50006104E+00
 20
1.78684483E+02
 11
1.50006104E+00
 21
1.75629543E+02
  0
LINE
  8
0
 62
4
 10
-2.99999390E+01
 20
1.89433972E+02
 11
6.10353527E-05
 21
1.89433972E+02
  0
LINE
  8
0
 62
4
 10
-2.99999390E+01
 20
1.84677961E+02
 11
6.10312383E-05
 21
1.84677961E+02
  0
LINE
  8
0
 62
4
 10
6.10353527E-05
 20
1.79857904E+02
 11
1.50006104E+00
 21
1.78684483E+02
  0
LINE
  8
0
 62
4
 10
6.10353527E-05
 20
1.74462866E+02
 11
1.50006104E+00
 21
1.75629543E+02
  0
LINE
  8
0
 62
4
 10
6.10353527E-05
 20
1.76309860E+02
 11
1.50006104E+00
 21
1.76675403E+02
  0
LINE
  8
0
 62
4
 10
-2.99999390E+01
 20
1.60810379E+02
 11
-1.49999390E+01
 21
1.60810379E+02
  0
LINE
  8
0
 62
4
 10
-1.49999390E+01
 20
1.70301089E+02
 11
6.10312383E-05
 21
1.70301089E+02
  0
LINE
  8
0
 62
4
 10
-1.49999390E+01
 20
1.77581875E+02
 11
6.10312383E-05
 21
1.77581875E+02
  0
LINE
  8
0
 62
4
 10
-1.49999390E+01
 20
1.77351000E+02
 11
6.10312383E-05
 21
1.77351000E+02
  0
POLYLINE
  8
0
 62
4
 66
1
  0
VERTEX
  8
0
 62
4
 10
-2.44999390E+01
 20
1.64034679E+02
  0
VERTEX
  8
0
 62
4
 10
-2.45079904E+01
 20
1.64209708E+02
  0
VERTEX
  8
0
 62
4
 10
-2.45320798E+01
 20
1.64383328E+02
  0
VERTEX
  8
0
 62
4
 10
-2.45720133E+01
 20
1.64554140E+02
  0
VERTEX
  8
0
 62
4
 10
-2.46274693E+01
 20
1.64720771E+02
  0
VERTEX
  8
0
 62
4
 10
-2.46980013E+01
 20
1.64881877E+02
  0
VERTEX
  8
0
 62
4
 10
-2.47830414E+01
 20
1.65036162E+02
  0
VERTEX
  8
0
 62
4
 10
-2.48819050E+01
 20
1.65182384E+02
  0
VERTEX
  8
0
 62
4
 10
-2.49937961E+01
 20
1.65319365E+02
  0
VERTEX
  8
0
 62
4
 10
-2.51178137E+01
 20
1.65446002E+02
  0
VERTEX
  8
0
 62
4
 10
-2.52529594E+01
 20
1.65561277E+02
  0
VERTEX
  8
0
 62
4
 10
-2.53981450E+01
 20
1.65664260E+02
  0
VERTEX
  8
0
 62
4
 10
-2.55522017E+01
 20
1.65754123E+02
  0
VERTEX
  8
0
 62
4
 10
-2.57138889E+01
 20
1.65830142E+02
  0
VERTEX
  8
0
 62
4
 10
-2.58819050E+01
 20
1.65891704E+02
  0
VERTEX
  8
0
 62
4
 10
-2.60548971E+01
 20
1.65938315E+02
  0
VERTEX
  8
0
 62
4
 10
-2.62314725E+01
 20
1.65969600E+02
  0
VERTEX
  8
0
 62
4
 10
-2.64102093E+01
 20
1.65985305E+02
  0
VERTEX
  8
0
 62
4
 10
-2.65896686E+01
 20
1.65985305E+02
  0
VERTEX
  8
0
 62
4
 10
-2.67684055E+01
 20
1.65969600E+02
  0
VERTEX
  8
0
 62
4
 10
-2.69449809E+01
 20
1.65938315E+02
  0
VERTEX
  8
0
 62
4
 10
-2.71179730E+01
 20
1.65891704E+02
  0
VERTEX
  8
0
 62
4
 10
-2.72859890E+01
 20
1.65830142E+02
  0
VERTEX
  8
0
 62
4
 10
-2.74476763E+01
 20
1.65754123E+02
  0
VERTEX
  8
0
 62
4
 10
-2.76017329E+01
 20
1.65664260E+02
  0
VERTEX
  8
0
 62
4
 10
-2.77469186E+01
 20
1.65561277E+02
  0
VERTEX
  8
0
 62
4
 10
-2.78820643E+01
 20
1.65446002E+02
  0
VERTEX
  8
0
 62
4
 10
-2.80060819E+01
 20
1.65319365E+02
  0
VERTEX
  8
0
 62
4
 10
-2.81179730E+01
 20
1.65182384E+02
  0
VERTEX
  8
0
 62
4
 10
-2.82168366E+01
 20
1.65036162E+02
  0
VERTEX
  8
0
 62
4
 10
-2.83018767E+01
 20
1.64881877E+02
  0
VERTEX
  8
0
 62
4
 10
-2.83724087E+01
 20
1.64720771E+02
  0
VERTEX
  8
0
 62
4
 10
-2.84278647E+01
 20
1.64554140E+02
  0
VERTEX
  8
0
 62
4
 10
-2.84677982E+01
 20
1.64383328E+02
  0
VERTEX
  8
0
 62
4
 10
-2.84918876E+01
 20
1.64209708E+02
  0
VERTEX
  8
0
 62
4
 10
-2.84999390E+01
 20
1.64034679E+02
  0
SEQEND
  8
0
  0
LINE
  8
0
 62
4
 10
-2.84999390E+01
 20
1.63174088E+02
 11
-2.84999390E+01
 21
1.64034679E+02
  0
LINE
  8
0
 62
4
 10
-2.44999390E+01
 20
1.63174088E+02
 11
-2.44999390E+01
 21
1.64034679E+02
  0
POLYLINE
  8
0
 62
4
 66
1
  0
VERTEX
  8
0
 62
4
 10
-2.84999390E+01
 20
1.63174088E+02
  0
VERTEX
  8
0
 62
4
 10
-2.84923284E+01
 20
1.63003908E+02
  0
VERTEX
  8
0
 62
4
 10
-2.84695545E+01
 20
1.62835024E+02
  0
VERTEX
  8
0
 62
4
 10
-2.84317907E+01
 20
1.62668720E+02
  0
VERTEX
  8
0
 62
4
 10
-2.83793242E+01
 20
1.62506262E+02
  0
VERTEX
  8
0
 62
4
 10
-2.83125546E+01
 20
1.62348887E+02
  0
VERTEX
  8
0
 62
4
 10
-2.82319898E+01
 20
1.62197792E+02
  0
VERTEX
  8
0
 62
4
 10
-2.81382431E+01
 20
1.62054127E+02
  0
VERTEX
  8
0
 62
4
 10
-2.80320279E+01
 20
1.61918986E+02
  0
VERTEX
  8
0
 62
4
 10
-2.79141526E+01
 20
1.61793397E+02
  0
VERTEX
  8
0
 62
4
 10
-2.77855142E+01
 20
1.61678316E+02
  0
VERTEX
  8
0
 62
4
 10
-2.76470919E+01
 20
1.61574618E+02
  0
VERTEX
  8
0
 62
4
 10
-2.74999390E+01
 20
1.61483094E+02
  0
VERTEX
  8
0
 62
4
 10
-2.73451755E+01
 20
1.61404439E+02
  0
VERTEX
  8
0
 62
4
 10
-2.71839793E+01
 20
1.61339252E+02
  0
VERTEX
  8
0
 62
4
 10
-2.70175771E+01
 20
1.61288029E+02
  0
VERTEX
  8
0
 62
4
 10
-2.68472354E+01
 20
1.61251160E+02
  0
VERTEX
  8
0
 62
4
 10
-2.66742505E+01
 20
1.61228926E+02
  0
VERTEX
  8
0
 62
4
 10
-2.64999390E+01
 20
1.61221496E+02
  0
VERTEX
  8
0
 62
4
 10
-2.63256275E+01
 20
1.61228926E+02
  0
VERTEX
  8
0
 62
4
 10
-2.61526427E+01
 20
1.61251160E+02
  0
VERTEX
  8
0
 62
4
 10
-2.59823009E+01
 20
1.61288029E+02
  0
VERTEX
  8
0
 62
4
 10
-2.58158987E+01
 20
1.61339252E+02
  0
VERTEX
  8
0
 62
4
 10
-2.56547025E+01
 20
1.61404439E+02
  0
VERTEX
  8
0
 62
4
 10
-2.54999390E+01
 20
1.61483094E+02
  0
VERTEX
  8
0
 62
4
 10
-2.53527861E+01
 20
1.61574618E+02
  0
VERTEX
  8
0
 62
4
 10
-2.52143638E+01
 20
1.61678316E+02
  0
VERTEX
  8
0
 62
4
 10
-2.50857254E+01
 20
1.61793397E+02
  0
VERTEX
  8
0
 62
4
 10
-2.49678501E+01
 20
1.61918986E+02
  0
VERTEX
  8
0
 62
4
 10
-2.48616349E+01
 20
1.62054127E+02
  0
VERTEX
  8
0
 62
4
 10
-2.47678882E+01
 20
1.62197792E+02
  0
VERTEX
  8
0
 62
4
 10
-2.46873234E+01
 20
1.62348887E+02
  0
VERTEX
  8
0
 62
4
 10
-2.46205538E+01
 20
1.62506262E+02
  0
VERTEX
  8
0
 62
4
 10
-2.45680873E+01
 20
1.62668720E+02
  0
VERTEX
  8
0
 62
4
 10
-2.45303235E+01
 20
1.62835024E+02
  0
VERTEX
  8
0
 62
4
 10
-2.45075496E+01
 20
1.63003908E+02
  0
VERTEX
  8
0
 62
4
 10
-2.44999390E+01
 20
1.63174088E+02
  0
VERTEX
  8
0
 62
4
 10
-2.45075496E+01
 20
1.63344268E+02
  0
VERTEX
  8
0
 62
4
 10
-2.45303235E+01
 20
1.63513152E+02
  0
VERTEX
  8
0
 62
4
 10
-2.45680873E+01
 20
1.63679456E+02
  0
VERTEX
  8
0
 62
4
 10
-2.46205538E+01
 20
1.63841914E+02
  0
VERTEX
  8
0
 62
4
 10
-2.46873234E+01
 20
1.63999289E+02
  0
VERTEX
  8
0
 62
4
 10
-2.47678882E+01
 20
1.64150384E+02
  0
VERTEX
  8
0
 62
4
 10
-2.48616349E+01
 20
1.64294049E+02
  0
VERTEX
  8
0
 62
4
 10
-2.49678501E+01
 20
1.64429190E+02
  0
VERTEX
  8
0
 62
4
 10
-2.50857254E+01
 20
1.64554779E+02
  0
VERTEX
  8
0
 62
4
 10
-2.52143638E+01
 20
1.64669860E+02
  0
VERTEX
  8
0
 62
4
 10
-2.53527861E+01
 20
1.64773558E+02
  0
VERTEX
  8
0
 62
4
 10
-2.54999390E+01
 20
1.64865082E+02
  0
VERTEX
  8
0
 62
4
 10
-2.56547025E+01
 20
1.64943737E+02
  0
VERTEX
  8
0
 62
4
 10
-2.58158987E+01
 20
1.65008924E+02
  0
VERTEX
  8
0
 62
4
 10
-2.59823009E+01
 20
1.65060147E+02
  0
VERTEX
  8
0
 62
4
 10
-2.61526426E+01
 20
1.65097016E+02
  0
VERTEX
  8
0
 62
4
 10
-2.63256275E+01
 20
1.65119250E+02
  0
VERTEX
  8
0
 62
4
 10
-2.64999390E+01
 20
1.65126680E+02
  0
VERTEX
  8
0
 62
4
 10
-2.66742505E+01
 20
1.65119250E+02
  0
VERTEX
  8
0
 62
4
 10
-2.68472354E+01
 20
1.65097016E+02
  0
VERTEX
  8
0
 62
4
 10
-2.70175771E+01
 20
1.65060147E+02
  0
VERTEX
  8
0
 62
4
 10
-2.71839793E+01
 20
1.65008924E+02
  0
VERTEX
  8
0
 62
4
 10
-2.73451755E+01
 20
1.64943737E+02
  0
VERTEX
  8
0
 62
4
 10
-2.74999390E+01
 20
1.64865082E+02
  0
VERTEX
  8
0
 62
4
 10
-2.76470919E+01
 20
1.64773558E+02
  0
VERTEX
  8
0
 62
4
 10
-2.77855142E+01
 20
1.64669860E+02
  0
VERTEX
  8
0
 62
4
 10
-2.79141526E+01
 20
1.64554779E+02
  0
VERTEX
  8
0
 62
4
 10
-2.80320279E+01
 20
1.64429190E+02
  0
VERTEX
  8
0
 62
4
 10
-2.81382431E+01
 20
1.64294049E+02
  0
VERTEX
  8
0
 62
4
 10
-2.82319898E+01
 20
1.64150384E+02
  0
VERTEX
  8
0
 62
4
 10
-2.83125546E+01
 20
1.63999289E+02
  0
VERTEX
  8
0
 62
4
 10
-2.83793242E+01
 20
1.63841914E+02
  0
VERTEX
  8
0
 62
4
 10
-2.84317907E+01
 20
1.63679456E+02
  0
VERTEX
  8
0
 62
4
 10
-2.84695545E+01
 20
1.63513152E+02
  0
VERTEX
  8
0
 62
4
 10
-2.84923284E+01
 20
1.63344268E+02
  0
VERTEX
  8
0
 62
4
 10
-2.84999390E+01
 20
1.63174088E+02
  0
SEQEND
  8
0
  0
POLYLINE
  8
0
 62
6
 66
1
  0
VERTEX
  8
0
 62
6
 10
-2.80999390E+01
 20
1.63174088E+02
  0
VERTEX
  8
0
 62
6
 10
-2.80938505E+01
 20
1.63071980E+02
  0
VERTEX
  8
0
 62
6
 10
-2.80756314E+01
 20
1.62970650E+02
  0
VERTEX
  8
0
 62
6
 10
-2.80454203E+01
 20
1.62870867E+02
  0
VERTEX
  8
0
 62
6
 10
-2.80034472E+01
 20
1.62773393E+02
  0
VERTEX
  8
0
 62
6
 10
-2.79500315E+01
 20
1.62678967E+02
  0
VERTEX
  8
0
 62
6
 10
-2.78855796E+01
 20
1.62588310E+02
  0
VERTEX
  8
0
 62
6
 10
-2.78105823E+01
 20
1.62502112E+02
  0
VERTEX
  8
0
 62
6
 10
-2.77256101E+01
 20
1.62421027E+02
  0
VERTEX
  8
0
 62
6
 10
-2.76313099E+01
 20
1.62345673E+02
  0
VERTEX
  8
0
 62
6
 10
-2.75283992E+01
 20
1.62276625E+02
  0
VERTEX
  8
0
 62
6
 10
-2.74176613E+01
 20
1.62214406E+02
  0
VERTEX
  8
0
 62
6
 10
-2.72999390E+01
 20
1.62159491E+02
  0
VERTEX
  8
0
 62
6
 10
-2.71761282E+01
 20
1.62112298E+02
  0
VERTEX
  8
0
 62
6
 10
-2.70471712E+01
 20
1.62073186E+02
  0
VERTEX
  8
0
 62
6
 10
-2.69140495E+01
 20
1.62042453E+02
  0
VERTEX
  8
0
 62
6
 10
-2.67777761E+01
 20
1.62020331E+02
  0
VERTEX
  8
0
 62
6
 10
-2.66393882E+01
 20
1.62006991E+02
  0
VERTEX
  8
0
 62
6
 10
-2.64999390E+01
 20
1.62002533E+02
  0
VERTEX
  8
0
 62
6
 10
-2.63604898E+01
 20
1.62006991E+02
  0
VERTEX
  8
0
 62
6
 10
-2.62221019E+01
 20
1.62020331E+02
  0
VERTEX
  8
0
 62
6
 10
-2.60858285E+01
 20
1.62042453E+02
  0
VERTEX
  8
0
 62
6
 10
-2.59527068E+01
 20
1.62073186E+02
  0
VERTEX
  8
0
 62
6
 10
-2.58237498E+01
 20
1.62112298E+02
  0
VERTEX
  8
0
 62
6
 10
-2.56999390E+01
 20
1.62159491E+02
  0
VERTEX
  8
0
 62
6
 10
-2.55822167E+01
 20
1.62214406E+02
  0
VERTEX
  8
0
 62
6
 10
-2.54714788E+01
 20
1.62276625E+02
  0
VERTEX
  8
0
 62
6
 10
-2.53685682E+01
 20
1.62345673E+02
  0
VERTEX
  8
0
 62
6
 10
-2.52742679E+01
 20
1.62421027E+02
  0
VERTEX
  8
0
 62
6
 10
-2.51892957E+01
 20
1.62502112E+02
  0
VERTEX
  8
0
 62
6
 10
-2.51142984E+01
 20
1.62588310E+02
  0
VERTEX
  8
0
 62
6
 10
-2.50498465E+01
 20
1.62678967E+02
  0
VERTEX
  8
0
 62
6
 10
-2.49964308E+01
 20
1.62773393E+02
  0
VERTEX
  8
0
 62
6
 10
-2.49544577E+01
 20
1.62870867E+02
  0
VERTEX
  8
0
 62
6
 10
-2.49242466E+01
 20
1.62970650E+02
  0
VERTEX
  8
0
 62
6
 10
-2.49060275E+01
 20
1.63071980E+02
  0
VERTEX
  8
0
 62
6
 10
-2.48999390E+01
 20
1.63174088E+02
  0
VERTEX
  8
0
 62
6
 10
-2.49060275E+01
 20
1.63276196E+02
  0
VERTEX
  8
0
 62
6
 10
-2.49242466E+01
 20
1.63377526E+02
  0
VERTEX
  8
0
 62
6
 10
-2.49544577E+01
 20
1.63477309E+02
  0
VERTEX
  8
0
 62
6
 10
-2.49964308E+01
 20
1.63574783E+02
  0
VERTEX
  8
0
 62
6
 10
-2.50498465E+01
 20
1.63669209E+02
  0
VERTEX
  8
0
 62
6
 10
-2.51142984E+01
 20
1.63759866E+02
  0
VERTEX
  8
0
 62
6
 10
-2.51892957E+01
 20
1.63846064E+02
  0
VERTEX
  8
0
 62
6
 10
-2.52742679E+01
 20
1.63927149E+02
  0
VERTEX
  8
0
 62
6
 10
-2.53685681E+01
 20
1.64002503E+02
  0
VERTEX
  8
0
 62
6
 10
-2.54714788E+01
 20
1.64071551E+02
  0
VERTEX
  8
0
 62
6
 10
-2.55822167E+01
 20
1.64133770E+02
  0
VERTEX
  8
0
 62
6
 10
-2.56999390E+01
 20
1.64188685E+02
  0
VERTEX
  8
0
 62
6
 10
-2.58237498E+01
 20
1.64235878E+02
  0
VERTEX
  8
0
 62
6
 10
-2.59527068E+01
 20
1.64274990E+02
  0
VERTEX
  8
0
 62
6
 10
-2.60858285E+01
 20
1.64305723E+02
  0
VERTEX
  8
0
 62
6
 10
-2.62221019E+01
 20
1.64327845E+02
  0
VERTEX
  8
0
 62
6
 10
-2.63604898E+01
 20
1.64341185E+02
  0
VERTEX
  8
0
 62
6
 10
-2.64999390E+01
 20
1.64345643E+02
  0
VERTEX
  8
0
 62
6
 10
-2.66393882E+01
 20
1.64341185E+02
  0
VERTEX
  8
0
 62
6
 10
-2.67777761E+01
 20
1.64327845E+02
  0
VERTEX
  8
0
 62
6
 10
-2.69140495E+01
 20
1.64305723E+02
  0
VERTEX
  8
0
 62
6
 10
-2.70471712E+01
 20
1.64274990E+02
  0
VERTEX
  8
0
 62
6
 10
-2.71761282E+01
 20
1.64235878E+02
  0
VERTEX
  8
0
 62
6
 10
-2.72999390E+01
 20
1.64188685E+02
  0
VERTEX
  8
0
 62
6
 10
-2.74176613E+01
 20
1.64133770E+02
  0
VERTEX
  8
0
 62
6
 10
-2.75283992E+01
 20
1.64071551E+02
  0
VERTEX
  8
0
 62
6
 10
-2.76313098E+01
 20
1.64002503E+02
  0
VERTEX
  8
0
 62
6
 10
-2.77256101E+01
 20
1.63927149E+02
  0
VERTEX
  8
0
 62
6
 10
-2.78105823E+01
 20
1.63846064E+02
  0
VERTEX
  8
0
 62
6
 10
-2.78855796E+01
 20
1.63759866E+02
  0
VERTEX
  8
0
 62
6
 10
-2.79500315E+01
 20
1.63669209E+02
  0
VERTEX
  8
0
 62
6
 10
-2.80034472E+01
 20
1.63574783E+02
  0
VERTEX
  8
0
 62
6
 10
-2.80454203E+01
 20
1.63477309E+02
  0
VERTEX
  8
0
 62
6
 10
-2.80756314E+01
 20
1.63377526E+02
  0
VERTEX
  8
0
 62
6
 10
-2.80938505E+01
 20
1.63276196E+02
  0
VERTEX
  8
0
 62
6
 10
-2.80999390E+01
 20
1.63174088E+02
  0
SEQEND
  8
0
  0
LINE
  8
0
 62
4
 10
-2.89999390E+01
 20
1.74875433E+02
 11
-1.59999390E+01
 21
1.74875433E+02
  0
LINE
  8
0
  6
CENTER
 62
6
 10
-2.99999390E+01
 20
1.64034679E+02
 11
-2.29999390E+01
 21
1.64034679E+02
  0
LINE
  8
0
  6
CENTER
 62
6
 10
-2.64999390E+01
 20
1.60534679E+02
 11
-2.64999390E+01
 21
1.67534679E+02
  0
POLYLINE
  8
0
 62
4
 66
1
  0
VERTEX
  8
0
 62
4
 10
-1.64999390E+01
 20
1.63174088E+02
  0
VERTEX
  8
0
 62
4
 10
-1.65075496E+01
 20
1.63344268E+02
  0
VERTEX
  8
0
 62
4
 10
-1.65303235E+01
 20
1.63513152E+02
  0
VERTEX
  8
0
 62
4
 10
-1.65680873E+01
 20
1.63679456E+02
  0
VERTEX
  8
0
 62
4
 10
-1.66205538E+01
 20
1.63841914E+02
  0
VERTEX
  8
0
 62
4
 10
-1.66873234E+01
 20
1.63999289E+02
  0
VERTEX
  8
0
 62
4
 10
-1.67678882E+01
 20
1.64150384E+02
  0
VERTEX
  8
0
 62
4
 10
-1.68616349E+01
 20
1.64294049E+02
  0
VERTEX
  8
0
 62
4
 10
-1.69678501E+01
 20
1.64429190E+02
  0
VERTEX
  8
0
 62
4
 10
-1.70857254E+01
 20
1.64554779E+02
  0
VERTEX
  8
0
 62
4
 10
-1.72143638E+01
 20
1.64669860E+02
  0
VERTEX
  8
0
 62
4
 10
-1.73527861E+01
 20
1.64773558E+02
  0
VERTEX
  8
0
 62
4
 10
-1.74999390E+01
 20
1.64865082E+02
  0
VERTEX
  8
0
 62
4
 10
-1.76547025E+01
 20
1.64943737E+02
  0
VERTEX
  8
0
 62
4
 10
-1.78158987E+01
 20
1.65008924E+02
  0
VERTEX
  8
0
 62
4
 10
-1.79823009E+01
 20
1.65060147E+02
  0
VERTEX
  8
0
 62
4
 10
-1.81526426E+01
 20
1.65097016E+02
  0
VERTEX
  8
0
 62
4
 10
-1.83256275E+01
 20
1.65119250E+02
  0
VERTEX
  8
0
 62
4
 10
-1.84999390E+01
 20
1.65126680E+02
  0
VERTEX
  8
0
 62
4
 10
-1.86742505E+01
 20
1.65119250E+02
  0
VERTEX
  8
0
 62
4
 10
-1.88472354E+01
 20
1.65097016E+02
  0
VERTEX
  8
0
 62
4
 10
-1.90175771E+01
 20
1.65060147E+02
  0
VERTEX
  8
0
 62
4
 10
-1.91839793E+01
 20
1.65008924E+02
  0
VERTEX
  8
0
 62
4
 10
-1.93451755E+01
 20
1.64943737E+02
  0
VERTEX
  8
0
 62
4
 10
-1.94999390E+01
 20
1.64865082E+02
  0
VERTEX
  8
0
 62
4
 10
-1.96470919E+01
 20
1.64773558E+02
  0
VERTEX
  8
0
 62
4
 10
-1.97855142E+01
 20
1.64669860E+02
  0
VERTEX
  8
0
 62
4
 10
-1.99141526E+01
 20
1.64554779E+02
  0
VERTEX
  8
0
 62
4
 10
-2.00320279E+01
 20
1.64429190E+02
  0
VERTEX
  8
0
 62
4
 10
-2.01382431E+01
 20
1.64294049E+02
  0
VERTEX
  8
0
 62
4
 10
-2.02319898E+01
 20
1.64150384E+02
  0
VERTEX
  8
0
 62
4
 10
-2.03125546E+01
 20
1.63999289E+02
  0
VERTEX
  8
0
 62
4
 10
-2.03793242E+01
 20
1.63841914E+02
  0
VERTEX
  8
0
 62
4
 10
-2.04317907E+01
 20
1.63679456E+02
  0
VERTEX
  8
0
 62
4
 10
-2.04695545E+01
 20
1.63513152E+02
  0
VERTEX
  8
0
 62
4
 10
-2.04923284E+01
 20
1.63344268E+02
  0
VERTEX
  8
0
 62
4
 10
-2.04999390E+01
 20
1.63174088E+02
  0
VERTEX
  8
0
 62
4
 10
-2.04923284E+01
 20
1.63003908E+02
  0
VERTEX
  8
0
 62
4
 10
-2.04695545E+01
 20
1.62835024E+02
  0
VERTEX
  8
0
 62
4
 10
-2.04317907E+01
 20
1.62668720E+02
  0
VERTEX
  8
0
 62
4
 10
-2.03793242E+01
 20
1.62506262E+02
  0
VERTEX
  8
0
 62
4
 10
-2.03125546E+01
 20
1.62348887E+02
  0
VERTEX
  8
0
 62
4
 10
-2.02319898E+01
 20
1.62197792E+02
  0
VERTEX
  8
0
 62
4
 10
-2.01382431E+01
 20
1.62054127E+02
  0
VERTEX
  8
0
 62
4
 10
-2.00320279E+01
 20
1.61918986E+02
  0
VERTEX
  8
0
 62
4
 10
-1.99141526E+01
 20
1.61793397E+02
  0
VERTEX
  8
0
 62
4
 10
-1.97855142E+01
 20
1.61678316E+02
  0
VERTEX
  8
0
 62
4
 10
-1.96470919E+01
 20
1.61574618E+02
  0
VERTEX
  8
0
 62
4
 10
-1.94999390E+01
 20
1.61483094E+02
  0
VERTEX
  8
0
 62
4
 10
-1.93451755E+01
 20
1.61404439E+02
  0
VERTEX
  8
0
 62
4
 10
-1.91839793E+01
 20
1.61339252E+02
  0
VERTEX
  8
0
 62
4
 10
-1.90175771E+01
 20
1.61288029E+02
  0
VERTEX
  8
0
 62
4
 10
-1.88472354E+01
 20
1.61251160E+02
  0
VERTEX
  8
0
 62
4
 10
-1.86742505E+01
 20
1.61228926E+02
  0
VERTEX
  8
0
 62
4
 10
-1.84999390E+01
 20
1.61221496E+02
  0
VERTEX
  8
0
 62
4
 10
-1.83256275E+01
 20
1.61228926E+02
  0
VERTEX
  8
0
 62
4
 10
-1.81526426E+01
 20
1.61251160E+02
  0
VERTEX
  8
0
 62
4
 10
-1.79823009E+01
 20
1.61288029E+02
  0
VERTEX
  8
0
 62
4
 10
-1.78158987E+01
 20
1.61339252E+02
  0
VERTEX
  8
0
 62
4
 10
-1.76547025E+01
 20
1.61404439E+02
  0
VERTEX
  8
0
 62
4
 10
-1.74999390E+01
 20
1.61483094E+02
  0
VERTEX
  8
0
 62
4
 10
-1.73527861E+01
 20
1.61574618E+02
  0
VERTEX
  8
0
 62
4
 10
-1.72143638E+01
 20
1.61678316E+02
  0
VERTEX
  8
0
 62
4
 10
-1.70857254E+01
 20
1.61793397E+02
  0
VERTEX
  8
0
 62
4
 10
-1.69678501E+01
 20
1.61918986E+02
  0
VERTEX
  8
0
 62
4
 10
-1.68616349E+01
 20
1.62054127E+02
  0
VERTEX
  8
0
 62
4
 10
-1.67678882E+01
 20
1.62197792E+02
  0
VERTEX
  8
0
 62
4
 10
-1.66873234E+01
 20
1.62348887E+02
  0
VERTEX
  8
0
 62
4
 10
-1.66205538E+01
 20
1.62506262E+02
  0
VERTEX
  8
0
 62
4
 10
-1.65680873E+01
 20
1.62668720E+02
  0
VERTEX
  8
0
 62
4
 10
-1.65303235E+01
 20
1.62835024E+02
  0
VERTEX
  8
0
 62
4
 10
-1.65075496E+01
 20
1.63003908E+02
  0
VERTEX
  8
0
 62
4
 10
-1.64999390E+01
 20
1.63174088E+02
  0
SEQEND
  8
0
  0
LINE
  8
0
  6
CENTER
 62
6
 10
-1.49999390E+01
 20
1.64034679E+02
 11
-2.19999390E+01
 21
1.64034679E+02
  0
LINE
  8
0
  6
CENTER
 62
6
 10
-1.84999390E+01
 20
1.60534679E+02
 11
-1.84999390E+01
 21
1.67534679E+02
  0
POLYLINE
  8
0
 62
6
 66
1
  0
VERTEX
  8
0
 62
6
 10
-1.68999390E+01
 20
1.63174088E+02
  0
VERTEX
  8
0
 62
6
 10
-1.69060275E+01
 20
1.63276196E+02
  0
VERTEX
  8
0
 62
6
 10
-1.69242466E+01
 20
1.63377526E+02
  0
VERTEX
  8
0
 62
6
 10
-1.69544577E+01
 20
1.63477309E+02
  0
VERTEX
  8
0
 62
6
 10
-1.69964308E+01
 20
1.63574783E+02
  0
VERTEX
  8
0
 62
6
 10
-1.70498465E+01
 20
1.63669209E+02
  0
VERTEX
  8
0
 62
6
 10
-1.71142984E+01
 20
1.63759866E+02
  0
VERTEX
  8
0
 62
6
 10
-1.71892957E+01
 20
1.63846064E+02
  0
VERTEX
  8
0
 62
6
 10
-1.72742679E+01
 20
1.63927149E+02
  0
VERTEX
  8
0
 62
6
 10
-1.73685682E+01
 20
1.64002503E+02
  0
VERTEX
  8
0
 62
6
 10
-1.74714788E+01
 20
1.64071551E+02
  0
VERTEX
  8
0
 62
6
 10
-1.75822167E+01
 20
1.64133770E+02
  0
VERTEX
  8
0
 62
6
 10
-1.76999390E+01
 20
1.64188685E+02
  0
VERTEX
  8
0
 62
6
 10
-1.78237498E+01
 20
1.64235878E+02
  0
VERTEX
  8
0
 62
6
 10
-1.79527068E+01
 20
1.64274990E+02
  0
VERTEX
  8
0
 62
6
 10
-1.80858285E+01
 20
1.64305723E+02
  0
VERTEX
  8
0
 62
6
 10
-1.82221019E+01
 20
1.64327845E+02
  0
VERTEX
  8
0
 62
6
 10
-1.83604898E+01
 20
1.64341185E+02
  0
VERTEX
  8
0
 62
6
 10
-1.84999390E+01
 20
1.64345643E+02
  0
VERTEX
  8
0
 62
6
 10
-1.86393882E+01
 20
1.64341185E+02
  0
VERTEX
  8
0
 62
6
 10
-1.87777761E+01
 20
1.64327845E+02
  0
VERTEX
  8
0
 62
6
 10
-1.89140495E+01
 20
1.64305723E+02
  0
VERTEX
  8
0
 62
6
 10
-1.90471712E+01
 20
1.64274990E+02
  0
VERTEX
  8
0
 62
6
 10
-1.91761282E+01
 20
1.64235878E+02
  0
VERTEX
  8
0
 62
6
 10
-1.92999390E+01
 20
1.64188685E+02
  0
VERTEX
  8
0
 62
6
 10
-1.94176613E+01
 20
1.64133770E+02
  0
VERTEX
  8
0
 62
6
 10
-1.95283992E+01
 20
1.64071551E+02
  0
VERTEX
  8
0
 62
6
 10
-1.96313099E+01
 20
1.64002503E+02
  0
VERTEX
  8
0
 62
6
 10
-1.97256101E+01
 20
1.63927149E+02
  0
VERTEX
  8
0
 62
6
 10
-1.98105823E+01
 20
1.63846064E+02
  0
VERTEX
  8
0
 62
6
 10
-1.98855796E+01
 20
1.63759866E+02
  0
VERTEX
  8
0
 62
6
 10
-1.99500315E+01
 20
1.63669209E+02
  0
VERTEX
  8
0
 62
6
 10
-2.00034472E+01
 20
1.63574783E+02
  0
VERTEX
  8
0
 62
6
 10
-2.00454203E+01
 20
1.63477309E+02
  0
VERTEX
  8
0
 62
6
 10
-2.00756314E+01
 20
1.63377526E+02
  0
VERTEX
  8
0
 62
6
 10
-2.00938505E+01
 20
1.63276196E+02
  0
VERTEX
  8
0
 62
6
 10
-2.00999390E+01
 20
1.63174088E+02
  0
VERTEX
  8
0
 62
6
 10
-2.00938505E+01
 20
1.63071980E+02
  0
VERTEX
  8
0
 62
6
 10
-2.00756314E+01
 20
1.62970650E+02
  0
VERTEX
  8
0
 62
6
 10
-2.00454203E+01
 20
1.62870867E+02
  0
VERTEX
  8
0
 62
6
 10
-2.00034472E+01
 20
1.62773393E+02
  0
VERTEX
  8
0
 62
6
 10
-1.99500315E+01
 20
1.62678967E+02
  0
VERTEX
  8
0
 62
6
 10
-1.98855796E+01
 20
1.62588310E+02
  0
VERTEX
  8
0
 62
6
 10
-1.98105823E+01
 20
1.62502112E+02
  0
VERTEX
  8
0
 62
6
 10
-1.97256101E+01
 20
1.62421027E+02
  0
VERTEX
  8
0
 62
6
 10
-1.96313098E+01
 20
1.62345673E+02
  0
VERTEX
  8
0
 62
6
 10
-1.95283992E+01
 20
1.62276625E+02
  0
VERTEX
  8
0
 62
6
 10
-1.94176613E+01
 20
1.62214406E+02
  0
VERTEX
  8
0
 62
6
 10
-1.92999390E+01
 20
1.62159491E+02
  0
VERTEX
  8
0
 62
6
 10
-1.91761282E+01
 20
1.62112298E+02
  0
VERTEX
  8
0
 62
6
 10
-1.90471712E+01
 20
1.62073186E+02
  0
VERTEX
  8
0
 62
6
 10
-1.89140495E+01
 20
1.62042453E+02
  0
VERTEX
  8
0
 62
6
 10
-1.87777761E+01
 20
1.62020331E+02
  0
VERTEX
  8
0
 62
6
 10
-1.86393882E+01
 20
1.62006991E+02
  0
VERTEX
  8
0
 62
6
 10
-1.84999390E+01
 20
1.62002533E+02
  0
VERTEX
  8
0
 62
6
 10
-1.83604898E+01
 20
1.62006991E+02
  0
VERTEX
  8
0
 62
6
 10
-1.82221019E+01
 20
1.62020331E+02
  0
VERTEX
  8
0
 62
6
 10
-1.80858285E+01
 20
1.62042453E+02
  0
VERTEX
  8
0
 62
6
 10
-1.79527068E+01
 20
1.62073186E+02
  0
VERTEX
  8
0
 62
6
 10
-1.78237498E+01
 20
1.62112298E+02
  0
VERTEX
  8
0
 62
6
 10
-1.76999390E+01
 20
1.62159491E+02
  0
VERTEX
  8
0
 62
6
 10
-1.75822167E+01
 20
1.62214406E+02
  0
VERTEX
  8
0
 62
6
 10
-1.74714788E+01
 20
1.62276625E+02
  0
VERTEX
  8
0
 62
6
 10
-1.73685681E+01
 20
1.62345673E+02
  0
VERTEX
  8
0
 62
6
 10
-1.72742679E+01
 20
1.62421027E+02
  0
VERTEX
  8
0
 62
6
 10
-1.71892957E+01
 20
1.62502112E+02
  0
VERTEX
  8
0
 62
6
 10
-1.71142984E+01
 20
1.62588310E+02
  0
VERTEX
  8
0
 62
6
 10
-1.70498465E+01
 20
1.62678967E+02
  0
VERTEX
  8
0
 62
6
 10
-1.69964308E+01
 20
1.62773393E+02
  0
VERTEX
  8
0
 62
6
 10
-1.69544577E+01
 20
1.62870867E+02
  0
VERTEX
  8
0
 62
6
 10
-1.69242466E+01
 20
1.62970650E+02
  0
VERTEX
  8
0
 62
6
 10
-1.69060275E+01
 20
1.63071980E+02
  0
VERTEX
  8
0
 62
6
 10
-1.68999390E+01
 20
1.63174088E+02
  0
SEQEND
  8
0
  0
LINE
  8
0
 62
4
 10
-2.04999390E+01
 20
1.63174088E+02
 11
-2.04999390E+01
 21
1.64034679E+02
  0
LINE
  8
0
 62
4
 10
-1.64999390E+01
 20
1.63174088E+02
 11
-1.64999390E+01
 21
1.64034679E+02
  0
POLYLINE
  8
0
 62
4
 66
1
  0
VERTEX
  8
0
 62
4
 10
-1.64999390E+01
 20
1.64034679E+02
  0
VERTEX
  8
0
 62
4
 10
-1.65079904E+01
 20
1.64209708E+02
  0
VERTEX
  8
0
 62
4
 10
-1.65320798E+01
 20
1.64383328E+02
  0
VERTEX
  8
0
 62
4
 10
-1.65720133E+01
 20
1.64554140E+02
  0
VERTEX
  8
0
 62
4
 10
-1.66274693E+01
 20
1.64720771E+02
  0
VERTEX
  8
0
 62
4
 10
-1.66980013E+01
 20
1.64881877E+02
  0
VERTEX
  8
0
 62
4
 10
-1.67830414E+01
 20
1.65036162E+02
  0
VERTEX
  8
0
 62
4
 10
-1.68819050E+01
 20
1.65182384E+02
  0
VERTEX
  8
0
 62
4
 10
-1.69937961E+01
 20
1.65319365E+02
  0
VERTEX
  8
0
 62
4
 10
-1.71178137E+01
 20
1.65446002E+02
  0
VERTEX
  8
0
 62
4
 10
-1.72529594E+01
 20
1.65561277E+02
  0
VERTEX
  8
0
 62
4
 10
-1.73981450E+01
 20
1.65664260E+02
  0
VERTEX
  8
0
 62
4
 10
-1.75522017E+01
 20
1.65754123E+02
  0
VERTEX
  8
0
 62
4
 10
-1.77138889E+01
 20
1.65830142E+02
  0
VERTEX
  8
0
 62
4
 10
-1.78819050E+01
 20
1.65891704E+02
  0
VERTEX
  8
0
 62
4
 10
-1.80548971E+01
 20
1.65938315E+02
  0
VERTEX
  8
0
 62
4
 10
-1.82314725E+01
 20
1.65969600E+02
  0
VERTEX
  8
0
 62
4
 10
-1.84102093E+01
 20
1.65985305E+02
  0
VERTEX
  8
0
 62
4
 10
-1.85896687E+01
 20
1.65985305E+02
  0
VERTEX
  8
0
 62
4
 10
-1.87684055E+01
 20
1.65969600E+02
  0
VERTEX
  8
0
 62
4
 10
-1.89449809E+01
 20
1.65938315E+02
  0
VERTEX
  8
0
 62
4
 10
-1.91179730E+01
 20
1.65891704E+02
  0
VERTEX
  8
0
 62
4
 10
-1.92859891E+01
 20
1.65830142E+02
  0
VERTEX
  8
0
 62
4
 10
-1.94476763E+01
 20
1.65754123E+02
  0
VERTEX
  8
0
 62
4
 10
-1.96017330E+01
 20
1.65664260E+02
  0
VERTEX
  8
0
 62
4
 10
-1.97469186E+01
 20
1.65561277E+02
  0
VERTEX
  8
0
 62
4
 10
-1.98820643E+01
 20
1.65446002E+02
  0
VERTEX
  8
0
 62
4
 10
-2.00060819E+01
 20
1.65319365E+02
  0
VERTEX
  8
0
 62
4
 10
-2.01179730E+01
 20
1.65182384E+02
  0
VERTEX
  8
0
 62
4
 10
-2.02168366E+01
 20
1.65036162E+02
  0
VERTEX
  8
0
 62
4
 10
-2.03018767E+01
 20
1.64881877E+02
  0
VERTEX
  8
0
 62
4
 10
-2.03724087E+01
 20
1.64720771E+02
  0
VERTEX
  8
0
 62
4
 10
-2.04278647E+01
 20
1.64554140E+02
  0
VERTEX
  8
0
 62
4
 10
-2.04677982E+01
 20
1.64383328E+02
  0
VERTEX
  8
0
 62
4
 10
-2.04918876E+01
 20
1.64209708E+02
  0
VERTEX
  8
0
 62
4
 10
-2.04999390E+01
 20
1.64034679E+02
  0
SEQEND
  8
0
  0
LINE
  8
0
  6
CENTER
 62
6
 10
-3.92534208E+00
 20
1.80686413E+02
 11
-1.10745359E+01
 21
1.80686413E+02
  0
LINE
  8
0
  6
CENTER
 62
6
 10
-7.49993896E+00
 20
1.84261010E+02
 11
-7.49993896E+00
 21
1.77111816E+02
  0
POLYLINE
  8
0
 62
4
 66
1
  0
VERTEX
  8
0
 62
4
 10
-9.74993896E+00
 20
1.80686413E+02
  0
VERTEX
  8
0
 62
4
 10
-9.74137703E+00
 20
1.80512470E+02
  0
VERTEX
  8
0
 62
4
 10
-9.71575641E+00
 20
1.80339850E+02
  0
VERTEX
  8
0
 62
4
 10
-9.67327207E+00
 20
1.80169869E+02
  0
VERTEX
  8
0
 62
4
 10
-9.61424736E+00
 20
1.80003818E+02
  0
VERTEX
  8
0
 62
4
 10
-9.53913148E+00
 20
1.79842962E+02
  0
VERTEX
  8
0
 62
4
 10
-9.44849612E+00
 20
1.79688526E+02
  0
VERTEX
  8
0
 62
4
 10
-9.34303106E+00
 20
1.79541684E+02
  0
VERTEX
  8
0
 62
4
 10
-9.22353896E+00
 20
1.79403554E+02
  0
VERTEX
  8
0
 62
4
 10
-9.09092922E+00
 20
1.79275187E+02
  0
VERTEX
  8
0
 62
4
 10
-8.94621109E+00
 20
1.79157561E+02
  0
VERTEX
  8
0
 62
4
 10
-8.79048595E+00
 20
1.79051570E+02
  0
VERTEX
  8
0
 62
4
 10
-8.62493897E+00
 20
1.78958022E+02
  0
VERTEX
  8
0
 62
4
 10
-8.45083005E+00
 20
1.78877627E+02
  0
VERTEX
  8
0
 62
4
 10
-8.26948429E+00
 20
1.78810999E+02
  0
VERTEX
  8
0
 62
4
 10
-8.08228182E+00
 20
1.78758643E+02
  0
VERTEX
  8
0
 62
4
 10
-7.89064737E+00
 20
1.78720959E+02
  0
VERTEX
  8
0
 62
4
 10
-7.69603939E+00
 20
1.78698233E+02
  0
VERTEX
  8
0
 62
4
 10
-7.49993897E+00
 20
1.78690639E+02
  0
VERTEX
  8
0
 62
4
 10
-7.30383854E+00
 20
1.78698233E+02
  0
VERTEX
  8
0
 62
4
 10
-7.10923057E+00
 20
1.78720959E+02
  0
VERTEX
  8
0
 62
4
 10
-6.91759611E+00
 20
1.78758643E+02
  0
VERTEX
  8
0
 62
4
 10
-6.73039364E+00
 20
1.78810999E+02
  0
VERTEX
  8
0
 62
4
 10
-6.54904788E+00
 20
1.78877627E+02
  0
VERTEX
  8
0
 62
4
 10
-6.37493896E+00
 20
1.78958022E+02
  0
VERTEX
  8
0
 62
4
 10
-6.20939198E+00
 20
1.79051570E+02
  0
VERTEX
  8
0
 62
4
 10
-6.05366684E+00
 20
1.79157561E+02
  0
VERTEX
  8
0
 62
4
 10
-5.90894871E+00
 20
1.79275187E+02
  0
VERTEX
  8
0
 62
4
 10
-5.77633897E+00
 20
1.79403554E+02
  0
VERTEX
  8
0
 62
4
 10
-5.65684686E+00
 20
1.79541684E+02
  0
VERTEX
  8
0
 62
4
 10
-5.55138180E+00
 20
1.79688526E+02
  0
VERTEX
  8
0
 62
4
 10
-5.46074644E+00
 20
1.79842962E+02
  0
VERTEX
  8
0
 62
4
 10
-5.38563056E+00
 20
1.80003818E+02
  0
VERTEX
  8
0
 62
4
 10
-5.32660585E+00
 20
1.80169869E+02
  0
VERTEX
  8
0
 62
4
 10
-5.28412152E+00
 20
1.80339850E+02
  0
VERTEX
  8
0
 62
4
 10
-5.25850089E+00
 20
1.80512470E+02
  0
VERTEX
  8
0
 62
4
 10
-5.24993896E+00
 20
1.80686413E+02
  0
VERTEX
  8
0
 62
4
 10
-5.25850089E+00
 20
1.80860356E+02
  0
VERTEX
  8
0
 62
4
 10
-5.28412152E+00
 20
1.81032976E+02
  0
VERTEX
  8
0
 62
4
 10
-5.32660585E+00
 20
1.81202957E+02
  0
VERTEX
  8
0
 62
4
 10
-5.38563056E+00
 20
1.81369008E+02
  0
VERTEX
  8
0
 62
4
 10
-5.46074644E+00
 20
1.81529864E+02
  0
VERTEX
  8
0
 62
4
 10
-5.55138180E+00
 20
1.81684300E+02
  0
VERTEX
  8
0
 62
4
 10
-5.65684686E+00
 20
1.81831142E+02
  0
VERTEX
  8
0
 62
4
 10
-5.77633896E+00
 20
1.81969272E+02
  0
VERTEX
  8
0
 62
4
 10
-5.90894870E+00
 20
1.82097639E+02
  0
VERTEX
  8
0
 62
4
 10
-6.05366684E+00
 20
1.82215265E+02
  0
VERTEX
  8
0
 62
4
 10
-6.20939198E+00
 20
1.82321256E+02
  0
VERTEX
  8
0
 62
4
 10
-6.37493896E+00
 20
1.82414804E+02
  0
VERTEX
  8
0
 62
4
 10
-6.54904787E+00
 20
1.82495199E+02
  0
VERTEX
  8
0
 62
4
 10
-6.73039363E+00
 20
1.82561827E+02
  0
VERTEX
  8
0
 62
4
 10
-6.91759611E+00
 20
1.82614183E+02
  0
VERTEX
  8
0
 62
4
 10
-7.10923056E+00
 20
1.82651867E+02
  0
VERTEX
  8
0
 62
4
 10
-7.30383854E+00
 20
1.82674593E+02
  0
VERTEX
  8
0
 62
4
 10
-7.49993896E+00
 20
1.82682187E+02
  0
VERTEX
  8
0
 62
4
 10
-7.69603938E+00
 20
1.82674593E+02
  0
VERTEX
  8
0
 62
4
 10
-7.89064736E+00
 20
1.82651867E+02
  0
VERTEX
  8
0
 62
4
 10
-8.08228181E+00
 20
1.82614183E+02
  0
VERTEX
  8
0
 62
4
 10
-8.26948428E+00
 20
1.82561827E+02
  0
VERTEX
  8
0
 62
4
 10
-8.45083005E+00
 20
1.82495199E+02
  0
VERTEX
  8
0
 62
4
 10
-8.62493896E+00
 20
1.82414804E+02
  0
VERTEX
  8
0
 62
4
 10
-8.79048594E+00
 20
1.82321256E+02
  0
VERTEX
  8
0
 62
4
 10
-8.94621108E+00
 20
1.82215265E+02
  0
VERTEX
  8
0
 62
4
 10
-9.09092922E+00
 20
1.82097639E+02
  0
VERTEX
  8
0
 62
4
 10
-9.22353896E+00
 20
1.81969272E+02
  0
VERTEX
  8
0
 62
4
 10
-9.34303106E+00
 20
1.81831142E+02
  0
VERTEX
  8
0
 62
4
 10
-9.44849612E+00
 20
1.81684300E+02
  0
VERTEX
  8
0
 62
4
 10
-9.53913148E+00
 20
1.81529864E+02
  0
VERTEX
  8
0
 62
4
 10
-9.61424736E+00
 20
1.81369008E+02
  0
VERTEX
  8
0
 62
4
 10
-9.67327207E+00
 20
1.81202957E+02
  0
VERTEX
  8
0
 62
4
 10
-9.71575640E+00
 20
1.81032976E+02
  0
VERTEX
  8
0
 62
4
 10
-9.74137703E+00
 20
1.80860356E+02
  0
VERTEX
  8
0
 62
4
 10
-9.74993896E+00
 20
1.80686413E+02
  0
SEQEND
  8
0
  0
LINE
  8
0
 62
7
 10
6.10353527E-05
 20
1.82000000E+02
 11
1.20000610E+01
 21
1.82000000E+02
  0
LINE
  8
0
 62
7
 10
-2.99999390E+01
 20
1.73000031E+02
 11
-1.05000000E+02
 21
1.73000031E+02
  0
LINE
  8
0
 62
7
 10
-2.99999390E+01
 20
1.62000031E+02
 11
-1.05000000E+02
 21
1.62000031E+02
  0
LINE
  8
0
 62
7
 10
-4.48399933E+02
 20
1.77500031E+02
 11
-4.48399933E+02
 21
5.34999695E+01
  0
LINE
  8
0
 62
7
 10
-4.44899994E+02
 20
1.47000702E+02
 11
-4.44899994E+02
 21
8.39992981E+01
  0
LINE
  8
0
 62
7
 10
-4.48999908E+02
 20
1.77500031E+02
 11
-4.48999908E+02
 21
5.35000000E+01
  0
LINE
  8
0
  6
CENTER
 62
2
 10
-4.32999908E+02
 20
1.87364075E+02
 11
-4.32999908E+02
 21
1.49354584E+02
  0
LINE
  8
0
 62
7
 10
-4.22297559E+02
 20
1.54675907E+02
 11
-4.04912979E+02
 21
1.37291323E+02
  0
LINE
  8
0
 62
7
 10
-3.82500031E+02
 20
1.77400055E+02
 11
-3.82500031E+02
 21
1.47817780E+02
  0
LINE
  8
0
 62
7
 10
-4.13317841E+02
 20
1.17000000E+02
 11
-4.42899994E+02
 21
1.17000000E+02
  0
LINE
  8
0
 62
7
 10
-4.13317841E+02
 20
1.14000000E+02
 11
-4.42899994E+02
 21
1.14000000E+02
  0
LINE
  8
0
 62
7
 10
-4.26000031E+02
 20
1.83500031E+02
 11
-4.26000031E+02
 21
1.82900055E+02
  0
LINE
  8
0
 62
7
 10
-4.42999969E+02
 20
4.80999756E+01
 11
-3.19000031E+02
 21
4.80999756E+01
  0
LINE
  8
0
 62
7
 10
-4.13013458E+02
 20
5.15999756E+01
 11
-3.49499115E+02
 21
5.15999756E+01
  0
LINE
  8
0
 62
7
 10
-4.42999969E+02
 20
4.75000000E+01
 11
-3.19000031E+02
 21
4.75000000E+01
  0
LINE
  8
0
  6
CENTER
 62
2
 10
-4.53327484E+02
 20
6.35000000E+01
 11
-4.15451752E+02
 21
6.35000000E+01
  0
LINE
  8
0
  6
CENTER
 62
2
 10
-4.32999908E+02
 20
4.35172424E+01
 11
-4.32999908E+02
 21
8.16454163E+01
  0
LINE
  8
0
 62
7
 10
-4.20176328E+02
 20
7.42030578E+01
 11
-4.02791791E+02
 21
9.15875982E+01
  0
LINE
  8
0
 62
7
 10
-4.22297907E+02
 20
7.63243779E+01
 11
-4.04913242E+02
 21
9.37090479E+01
  0
LINE
  8
0
 62
7
 10
-3.82500031E+02
 20
5.35999756E+01
 11
-3.82500031E+02
 21
8.31822205E+01
  0
LINE
  8
0
 62
7
 10
-3.79500031E+02
 20
5.35999756E+01
 11
-3.79500031E+02
 21
8.31822205E+01
  0
LINE
  8
0
 62
7
 10
-4.26000031E+02
 20
4.75000000E+01
 11
-4.26000031E+02
 21
4.80999756E+01
  0
LINE
  8
0
 62
7
 10
-3.36000031E+02
 20
4.75000000E+01
 11
-3.36000031E+02
 21
4.80999756E+01
  0
LINE
  8
0
 62
7
 10
-3.41824098E+02
 20
7.42025552E+01
 11
-3.59208720E+02
 21
9.15871820E+01
  0
LINE
  8
0
 62
7
 10
-3.39702777E+02
 20
7.63237890E+01
 11
-3.57087400E+02
 21
9.37084158E+01
  0
LINE
  8
0
 62
7
 10
-4.20176173E+02
 20
1.56797551E+02
 11
-4.02791594E+02
 21
1.39412967E+02
  0
LINE
  8
0
 62
7
 10
-3.48682220E+02
 20
1.14000000E+02
 11
-3.19099945E+02
 21
1.14000000E+02
  0
LINE
  8
0
 62
7
 10
-3.79500031E+02
 20
1.77400055E+02
 11
-3.79500031E+02
 21
1.47817780E+02
  0
LINE
  8
0
 62
7
 10
-4.42999969E+02
 20
1.82900024E+02
 11
-3.19000031E+02
 21
1.82900024E+02
  0
LINE
  8
0
 62
7
 10
-4.12500946E+02
 20
1.79400024E+02
 11
-3.49499298E+02
 21
1.79400024E+02
  0
LINE
  8
0
 62
7
 10
-4.42999969E+02
 20
1.83500000E+02
 11
-3.19000031E+02
 21
1.83500000E+02
  0
LINE
  8
0
  6
CENTER
 62
2
 10
-4.53115631E+02
 20
1.67500000E+02
 11
-4.14896881E+02
 21
1.67500000E+02
  0
LINE
  8
0
 62
7
 10
-3.36000031E+02
 20
1.83500031E+02
 11
-3.36000031E+02
 21
1.82900055E+02
  0
LINE
  8
0
  6
CENTER
 62
2
 10
-3.29000031E+02
 20
1.87111633E+02
 11
-3.29000031E+02
 21
1.48680115E+02
  0
LINE
  8
0
 62
7
 10
-3.41824252E+02
 20
1.56797708E+02
 11
-3.59208853E+02
 21
1.39413103E+02
  0
LINE
  8
0
 62
7
 10
-3.39702932E+02
 20
1.54676301E+02
 11
-3.57087468E+02
 21
1.37291761E+02
  0
LINE
  8
0
 62
7
 10
-3.48682220E+02
 20
1.17000000E+02
 11
-3.19099945E+02
 21
1.17000000E+02
  0
LINE
  8
0
 62
7
 10
-3.13599945E+02
 20
1.77500031E+02
 11
-3.13599945E+02
 21
5.34999695E+01
  0
LINE
  8
0
 62
7
 10
-3.13000031E+02
 20
1.77500031E+02
 11
-3.13000031E+02
 21
5.35000000E+01
  0
LINE
  8
0
 62
7
 10
-3.17099945E+02
 20
1.47000885E+02
 11
-3.17099945E+02
 21
8.39992981E+01
  0
LINE
  8
0
  6
CENTER
 62
2
 10
-3.81000031E+02
 20
1.91118622E+02
 11
-3.81000031E+02
 21
3.99104614E+01
  0
LINE
  8
0
  6
CENTER
 62
2
 10
-3.47199982E+02
 20
6.35000000E+01
 11
-3.08357513E+02
 21
6.35000000E+01
  0
LINE
  8
0
  6
CENTER
 62
2
 10
-3.47754913E+02
 20
1.67500000E+02
 11
-3.08634979E+02
 21
1.67500000E+02
  0
LINE
  8
0
  6
CENTER
 62
2
 10
-3.29000031E+02
 20
4.31526489E+01
 11
-3.29000031E+02
 21
8.29960632E+01
  0
LINE
  8
0
  6
CENTER
 62
2
 10
-3.06596161E+02
 20
1.15500000E+02
 11
-4.56513763E+02
 21
1.15500000E+02
  0
LINE
  8
0
  6
CENTER
 62
2
 10
-3.94999908E+02
 20
1.70800018E+02
 11
-3.94999908E+02
 21
1.87789276E+02
  0
CIRCLE
  8
0
 62
2
 10
-4.32999969E+02
 20
1.67500000E+02
 40
6.00000000E+00
  0
CIRCLE
  8
0
 62
2
 10
-3.29000092E+02
 20
1.67500000E+02
 40
6.00000000E+00
  0
CIRCLE
  8
0
 62
2
 10
-3.29000092E+02
 20
6.35000000E+01
 40
6.00000000E+00
  0
CIRCLE
  8
0
 62
2
 10
-4.32999969E+02
 20
6.35000000E+01
 40
6.00000000E+00
  0
CIRCLE
  8
0
 62
7
 10
-4.32999969E+02
 20
1.67500000E+02
 40
5.05000019E+00
  0
CIRCLE
  8
0
 62
7
 10
-3.29000092E+02
 20
1.67500000E+02
 40
5.05000019E+00
  0
CIRCLE
  8
0
 62
7
 10
-3.29000092E+02
 20
6.35000000E+01
 40
5.05000019E+00
  0
CIRCLE
  8
0
 62
7
 10
-4.32999969E+02
 20
6.35000000E+01
 40
5.05000019E+00
  0
CIRCLE
  8
0
 62
7
 10
-4.32999908E+02
 20
1.67500000E+02
 40
1.00500011E+01
  0
ARC
  8
0
 62
7
 10
-4.42999908E+02
 20
1.77500000E+02
 40
6.00000000E+00
 50
8.99999818E+01
 51
1.79999964E+02
  0
ARC
  8
0
 62
7
 10
-4.42999908E+02
 20
1.77500031E+02
 40
5.40000057E+00
 50
8.99999818E+01
 51
1.79999964E+02
  0
ARC
  8
0
 62
7
 10
-4.32999908E+02
 20
1.67500000E+02
 40
1.50000000E+01
 50
2.56361093E+02
 51
1.36387352E+01
  0
CIRCLE
  8
0
 62
7
 10
-4.32999908E+02
 20
6.35000000E+01
 40
1.00500011E+01
  0
ARC
  8
0
 62
7
 10
-4.42999908E+02
 20
5.35000000E+01
 40
6.00000000E+00
 50
1.80000036E+02
 51
2.70000018E+02
  0
ARC
  8
0
 62
7
 10
-4.42999908E+02
 20
5.34999695E+01
 40
5.40000057E+00
 50
1.80000036E+02
 51
2.70000018E+02
  0
ARC
  8
0
 62
7
 10
-4.32999908E+02
 20
6.35000000E+01
 40
1.50000000E+01
 50
3.46361265E+02
 51
1.03638907E+02
  0
CIRCLE
  8
0
 62
7
 10
-3.29000031E+02
 20
6.35000000E+01
 40
1.00500011E+01
  0
ARC
  8
0
 62
7
 10
-3.19000031E+02
 20
5.34999695E+01
 40
5.40000057E+00
 50
2.70000018E+02
 51
0.00000000E+00
  0
ARC
  8
0
 62
7
 10
-3.29000031E+02
 20
6.35000000E+01
 40
1.50000000E+01
 50
7.63611117E+01
 51
1.93638704E+02
  0
ARC
  8
0
 62
7
 10
-3.19000031E+02
 20
5.35000000E+01
 40
6.00000000E+00
 50
2.70000018E+02
 51
0.00000000E+00
  0
ARC
  8
0
 62
7
 10
-3.84500031E+02
 20
1.77400024E+02
 40
2.00000000E+00
 50
0.00000000E+00
 51
8.99999818E+01
  0
ARC
  8
0
 62
7
 10
-4.18761749E+02
 20
1.58211670E+02
 40
2.00000000E+00
 50
1.46881880E+02
 51
2.24999545E+02
  0
ARC
  8
0
 62
7
 10
-4.23711700E+02
 20
1.53261749E+02
 40
2.00000000E+00
 50
4.49995880E+01
 51
1.23118148E+02
  0
ARC
  8
0
 62
7
 10
-4.06327057E+02
 20
1.35877167E+02
 40
2.00000000E+00
 50
3.21181173E+02
 51
4.50000012E+01
  0
ARC
  8
0
 62
7
 10
-4.01377106E+02
 20
1.40827087E+02
 40
2.00000000E+00
 50
2.24999986E+02
 51
3.08818374E+02
  0
ARC
  8
0
 62
7
 10
-3.84500031E+02
 20
1.47817780E+02
 40
2.00000000E+00
 50
2.76180827E+02
 51
0.00000000E+00
  0
ARC
  8
0
 62
7
 10
-4.13317780E+02
 20
1.19000000E+02
 40
2.00000000E+00
 50
2.70000018E+02
 51
3.53819176E+02
  0
ARC
  8
0
 62
7
 10
-4.13317780E+02
 20
1.12000000E+02
 40
2.00000000E+00
 50
6.18082473E+00
 51
8.99999818E+01
  0
ARC
  8
0
 62
7
 10
-4.42899994E+02
 20
1.19000000E+02
 40
2.00000000E+00
 50
1.79999977E+02
 51
2.70000028E+02
  0
ARC
  8
0
 62
7
 10
-4.42899994E+02
 20
1.12000000E+02
 40
2.00000000E+00
 50
8.99999818E+01
 51
1.79999964E+02
  0
ARC
  8
0
 62
7
 10
-3.55673004E+02
 20
9.51227112E+01
 40
2.00000000E+00
 50
1.41181185E+02
 51
2.24999969E+02
  0
ARC
  8
0
 62
7
 10
-3.60622833E+02
 20
9.01729431E+01
 40
2.00000000E+00
 50
4.50000012E+01
 51
1.28818392E+02
  0
ARC
  8
0
 62
7
 10
-3.77500031E+02
 20
8.31822205E+01
 40
2.00000000E+00
 50
9.61808454E+01
 51
1.79999964E+02
  0
ARC
  8
0
 62
7
 10
-3.84500031E+02
 20
8.31822205E+01
 40
2.00000000E+00
 50
0.00000000E+00
 51
8.38191733E+01
  0
ARC
  8
0
 62
7
 10
-4.01377472E+02
 20
9.01731262E+01
 40
2.00000000E+00
 50
5.11803526E+01
 51
1.34999604E+02
  0
ARC
  8
0
 62
7
 10
-4.06327179E+02
 20
9.51229553E+01
 40
2.00000000E+00
 50
3.15000412E+02
 51
3.88183727E+01
  0
ARC
  8
0
 62
7
 10
-3.38288422E+02
 20
7.77381592E+01
 40
2.00000000E+00
 50
2.24999986E+02
 51
3.03118454E+02
  0
ARC
  8
0
 62
7
 10
-3.43238190E+02
 20
7.27883911E+01
 40
2.00000000E+00
 50
3.26881379E+02
 51
4.50000012E+01
  0
ARC
  8
0
 62
7
 10
-3.77500031E+02
 20
5.35999756E+01
 40
2.00000000E+00
 50
1.79999977E+02
 51
2.70000028E+02
  0
ARC
  8
0
 62
7
 10
-3.84500031E+02
 20
5.35999756E+01
 40
2.00000000E+00
 50
2.70000018E+02
 51
0.00000000E+00
  0
ARC
  8
0
 62
7
 10
-4.18761871E+02
 20
7.27886047E+01
 40
2.00000000E+00
 50
1.35000014E+02
 51
2.13119715E+02
  0
ARC
  8
0
 62
7
 10
-4.23711761E+02
 20
7.77383118E+01
 40
2.00000000E+00
 50
2.36881851E+02
 51
3.14999999E+02
  0
ARC
  8
0
 62
7
 10
-3.48682220E+02
 20
1.12000000E+02
 40
2.00000000E+00
 50
8.99999818E+01
 51
1.73819190E+02
  0
ARC
  8
0
 62
7
 10
-3.19099945E+02
 20
1.12000000E+02
 40
2.00000000E+00
 50
0.00000000E+00
 51
8.99999818E+01
  0
ARC
  8
0
 62
7
 10
-3.77500031E+02
 20
1.77400024E+02
 40
2.00000000E+00
 50
8.99999818E+01
 51
1.79999964E+02
  0
ARC
  8
0
 62
7
 10
-3.77500031E+02
 20
1.47817780E+02
 40
2.00000000E+00
 50
1.79999977E+02
 51
2.63819144E+02
  0
CIRCLE
  8
0
 62
7
 10
-3.29000031E+02
 20
1.67500000E+02
 40
1.00500011E+01
  0
ARC
  8
0
 62
7
 10
-3.19000031E+02
 20
1.77500031E+02
 40
5.40000057E+00
 50
0.00000000E+00
 51
8.99999818E+01
  0
ARC
  8
0
 62
7
 10
-3.29000031E+02
 20
1.67500000E+02
 40
1.50000000E+01
 50
1.66361279E+02
 51
2.83638878E+02
  0
ARC
  8
0
 62
7
 10
-3.19000031E+02
 20
1.77500000E+02
 40
6.00000000E+00
 50
0.00000000E+00
 51
8.99999818E+01
  0
CIRCLE
  8
0
 62
7
 10
-3.81000031E+02
 20
1.15500000E+02
 40
2.80000000E+01
  0
ARC
  8
0
 62
7
 10
-3.60622833E+02
 20
1.40827057E+02
 40
2.00000000E+00
 50
2.31181239E+02
 51
3.14999999E+02
  0
ARC
  8
0
 62
7
 10
-3.55673004E+02
 20
1.35877289E+02
 40
2.00000000E+00
 50
1.35000014E+02
 51
2.18819248E+02
  0
ARC
  8
0
 62
7
 10
-3.38288483E+02
 20
1.53261871E+02
 40
2.00000000E+00
 50
5.68805723E+01
 51
1.35000438E+02
  0
ARC
  8
0
 62
7
 10
-3.43238190E+02
 20
1.58211639E+02
 40
2.00000000E+00
 50
3.15000412E+02
 51
3.31186208E+01
  0
ARC
  8
0
 62
7
 10
-3.48682220E+02
 20
1.19000000E+02
 40
2.00000000E+00
 50
1.86180811E+02
 51
2.70000018E+02
  0
ARC
  8
0
 62
7
 10
-3.19099945E+02
 20
1.19000000E+02
 40
2.00000000E+00
 50
2.70000018E+02
 51
0.00000000E+00
  0
CIRCLE
  8
0
 62
7
 10
-3.81000031E+02
 20
1.15500000E+02
 40
3.00000000E+01
  0
CIRCLE
  8
0
 62
7
 10
-3.81000031E+02
 20
1.15500000E+02
 40
2.75000000E+01
  0
ARC
  8
0
 62
7
 10
-3.42999847E+02
 20
5.35001221E+01
 40
4.50000048E+00
 50
1.12818442E+02
 51
1.79119744E+02
  0
ARC
  8
0
 62
7
 10
-3.19000031E+02
 20
7.75000916E+01
 40
4.50000048E+00
 50
9.08807486E+01
 51
1.57183417E+02
  0
ARC
  8
0
 62
7
 10
-3.19099945E+02
 20
8.39992981E+01
 40
2.00000000E+00
 50
2.70881324E+02
 51
3.59999973E+02
  0
ARC
  8
0
 62
7
 10
-3.24991364E+02
 20
8.00206299E+01
 40
2.00000000E+00
 50
2.56361271E+02
 51
3.37183794E+02
  0
ARC
  8
0
 62
7
 10
-3.45520660E+02
 20
5.94914246E+01
 40
2.00000000E+00
 50
2.92818867E+02
 51
1.36387130E+01
  0
ARC
  8
0
 62
7
 10
-3.49499115E+02
 20
5.35999756E+01
 40
2.00000000E+00
 50
2.70000018E+02
 51
3.59119903E+02
  0
ARC
  8
0
 62
7
 10
-4.42999908E+02
 20
7.75000610E+01
 40
4.50000048E+00
 50
2.28165782E+01
 51
8.91192157E+01
  0
ARC
  8
0
 62
7
 10
-4.42899994E+02
 20
8.39992981E+01
 40
2.00000000E+00
 50
1.79999977E+02
 51
2.69118688E+02
  0
ARC
  8
0
 62
7
 10
-4.37008575E+02
 20
8.00206299E+01
 40
2.00000000E+00
 50
2.02816215E+02
 51
2.83638738E+02
  0
ARC
  8
0
 62
7
 10
-4.19000092E+02
 20
5.35001221E+01
 40
4.50000048E+00
 50
8.80256369E-01
 51
6.71815492E+01
  0
ARC
  8
0
 62
7
 10
-4.16479340E+02
 20
5.94914246E+01
 40
2.00000000E+00
 50
1.66361279E+02
 51
2.47181131E+02
  0
ARC
  8
0
 62
7
 10
-4.12500885E+02
 20
5.35999756E+01
 40
2.00000000E+00
 50
1.80880106E+02
 51
2.70000018E+02
  0
ARC
  8
0
 62
7
 10
-4.19000092E+02
 20
1.77499878E+02
 40
4.50000048E+00
 50
2.92818450E+02
 51
3.59119744E+02
  0
ARC
  8
0
 62
7
 10
-4.16479340E+02
 20
1.71508575E+02
 40
2.00000000E+00
 50
1.12818859E+02
 51
1.93638704E+02
  0
ARC
  8
0
 62
7
 10
-4.12500885E+02
 20
1.77400024E+02
 40
2.00000000E+00
 50
8.99999818E+01
 51
1.79119894E+02
  0
ARC
  8
0
 62
7
 10
-4.42999908E+02
 20
1.53499939E+02
 40
4.50000048E+00
 50
2.70880778E+02
 51
3.37183422E+02
  0
ARC
  8
0
 62
7
 10
-4.42899994E+02
 20
1.47000702E+02
 40
2.00000000E+00
 50
9.08813153E+01
 51
1.79999964E+02
  0
ARC
  8
0
 62
7
 10
-4.37008575E+02
 20
1.50979370E+02
 40
2.00000000E+00
 50
7.63612624E+01
 51
1.57183786E+02
  0
ARC
  8
0
 62
7
 10
-3.43000092E+02
 20
1.77499969E+02
 40
4.50000048E+00
 50
1.80880775E+02
 51
2.47183429E+02
  0
ARC
  8
0
 62
7
 10
-3.49499298E+02
 20
1.77400024E+02
 40
2.00000000E+00
 50
8.81319802E-01
 51
8.99999681E+01
  0
ARC
  8
0
 62
7
 10
-3.45520599E+02
 20
1.71508575E+02
 40
2.00000000E+00
 50
3.46361266E+02
 51
6.71837895E+01
  0
ARC
  8
0
 62
7
 10
-3.19000092E+02
 20
1.53500122E+02
 40
4.50000048E+00
 50
2.02818455E+02
 51
2.69119750E+02
  0
ARC
  8
0
 62
7
 10
-3.24991364E+02
 20
1.50979340E+02
 40
2.00000000E+00
 50
2.28188629E+01
 51
1.03638709E+02
  0
ARC
  8
0
 62
7
 10
-3.19099945E+02
 20
1.47000885E+02
 40
2.00000000E+00
 50
0.00000000E+00
 51
8.91198986E+01
  0
CIRCLE
  8
0
 62
7
 10
-3.29000031E+02
 20
6.35000000E+01
 40
1.05500011E+01
  0
CIRCLE
  8
0
 62
7
 10
-3.29000031E+02
 20
1.67500000E+02
 40
1.05500011E+01
  0
CIRCLE
  8
0
 62
7
 10
-4.32999908E+02
 20
1.67500000E+02
 40
1.05500011E+01
  0
CIRCLE
  8
0
 62
7
 10
-4.32999908E+02
 20
6.35000000E+01
 40
1.05500011E+01
  0
CIRCLE
  8
0
 62
7
 10
-3.81000031E+02
 20
1.15500000E+02
 40
1.35000000E+01
  0
CIRCLE
  8
0
 62
2
 10
-3.81000031E+02
 20
1.15500000E+02
 40
1.23999996E+01
  0
CIRCLE
  8
0
 62
7
 10
-3.81000031E+02
 20
1.15500000E+02
 40
1.20000000E+01
  0
LINE
  8
0
 62
4
 10
-3.60500031E+02
 20
1.03664319E+02
 11
-3.81000031E+02
 21
9.18286389E+01
  0
LINE
  8
0
 62
4
 10
-3.81000031E+02
 20
1.39171361E+02
 11
-4.01500031E+02
 21
1.27335681E+02
  0
LINE
  8
0
 62
4
 10
-3.81000031E+02
 20
9.18286390E+01
 11
-4.01500031E+02
 21
1.03664319E+02
  0
LINE
  8
0
 62
4
 10
-3.60500031E+02
 20
1.27335681E+02
 11
-3.81000031E+02
 21
1.39171361E+02
  0
LINE
  8
0
 62
4
 10
-4.01500031E+02
 20
1.03664319E+02
 11
-4.01500031E+02
 21
1.27335681E+02
  0
LINE
  8
0
 62
4
 10
-3.60500031E+02
 20
1.03664319E+02
 11
-3.60500031E+02
 21
1.27335681E+02
  0
CIRCLE
  8
0
 62
4
 10
-3.81000031E+02
 20
1.15500000E+02
 40
2.05000000E+01
  0
LINE
  8
0
 62
4
 10
-4.27583728E+02
 20
1.84677931E+02
 11
-4.29846512E+02
 21
1.83500000E+02
  0
LINE
  8
0
  6
CENTER
 62
6
 10
-4.35208415E+02
 20
1.75635551E+02
 11
-4.15317144E+02
 21
1.85990291E+02
  0
ARC
  8
0
 62
4
 10
-4.22669003E+02
 20
1.78226043E+02
 40
1.18100000E+01
 50
2.75000000E+01
 51
4.80326990E+01
  0
LINE
  8
0
 62
4
 10
-4.26970536E+02
 20
1.83500000E+02
 11
-4.27583728E+02
 21
1.84677931E+02
  0
LINE
  8
0
 62
4
 10
-4.15358502E+02
 20
1.83500000E+02
 11
-4.18447516E+02
 21
1.89433942E+02
  0
LINE
  8
0
 62
4
 10
-4.14930096E+02
 20
1.83500000E+02
 11
-4.16332720E+02
 21
1.86194414E+02
  0
LINE
  8
0
 62
4
 10
-4.18124292E+02
 20
1.88813034E+02
 11
-4.17237281E+02
 21
1.89274783E+02
  0
ARC
  8
0
 62
4
 10
-4.13371406E+02
 20
1.84297462E+02
 40
1.00000000E+00
 50
3.46223662E+02
 51
1.46724899E+01
  0
ARC
  8
0
 62
4
 10
-4.15587799E+02
 20
1.88555114E+02
 40
1.00000000E+00
 50
4.03275100E+01
 51
1.17500000E+02
  0
ARC
  8
0
 62
4
 10
-4.23828886E+02
 20
1.81559359E+02
 40
1.18100000E+01
 50
1.46724899E+01
 51
4.03275100E+01
  0
LINE
  8
0
 62
4
 10
-4.17052582E+02
 20
1.88919978E+02
 11
-4.16050260E+02
 21
1.89441754E+02
  0
LINE
  8
0
 62
4
 10
-4.15782773E+02
 20
1.86480698E+02
 11
-4.17237281E+02
 21
1.89274783E+02
  0
LINE
  8
0
 62
4
 10
-4.16600522E+02
 20
1.85885898E+02
 11
-4.16263458E+02
 21
1.86061363E+02
  0
LINE
  8
0
 62
4
 10
-4.16332720E+02
 20
1.86194414E+02
 11
-4.14771581E+02
 21
1.87007092E+02
  0
LINE
  8
0
 62
4
 10
-4.18447516E+02
 20
1.89433942E+02
 11
-4.27583728E+02
 21
1.84677931E+02
  0
ARC
  8
0
 62
4
 10
-4.22661857E+02
 20
1.78212315E+02
 40
1.18100000E+01
 50
2.65981016E+01
 51
2.75000000E+01
  0
ARC
  8
0
 62
4
 10
-3.48628533E+02
 20
1.84297462E+02
 40
1.00000000E+00
 50
1.65327510E+02
 51
2.32888382E+02
  0
ARC
  8
0
 62
4
 10
-3.39338082E+02
 20
1.78212315E+02
 40
1.18100000E+01
 50
1.52500000E+02
 51
1.53401899E+02
  0
LINE
  8
0
  6
CENTER
 62
6
 10
-3.26791524E+02
 20
1.75635551E+02
 11
-3.46682795E+02
 21
1.85990291E+02
  0
LINE
  8
0
 62
4
 10
-3.43552423E+02
 20
1.89433942E+02
 11
-3.34416211E+02
 21
1.84677931E+02
  0
LINE
  8
0
 62
4
 10
-3.43552423E+02
 20
1.89433942E+02
 11
-3.46641437E+02
 21
1.83500000E+02
  0
LINE
  8
0
 62
4
 10
-3.47768819E+02
 20
1.83500000E+02
 11
-3.44762658E+02
 21
1.89274783E+02
  0
ARC
  8
0
 62
4
 10
-3.39330936E+02
 20
1.78226043E+02
 40
1.18100000E+01
 50
1.50400933E+02
 51
1.52500000E+02
  0
ARC
  8
0
 62
4
 10
-3.38171053E+02
 20
1.81559359E+02
 40
1.18100000E+01
 50
1.39672490E+02
 51
1.65327510E+02
  0
LINE
  8
0
 62
4
 10
-3.44947357E+02
 20
1.88919978E+02
 11
-3.45949679E+02
 21
1.89441754E+02
  0
ARC
  8
0
 62
4
 10
-3.46412140E+02
 20
1.88555114E+02
 40
1.00000000E+00
 50
6.24999999E+01
 51
1.39672490E+02
  0
LINE
  8
0
 62
4
 10
-3.43875647E+02
 20
1.88813034E+02
 11
-3.44762658E+02
 21
1.89274783E+02
  0
LINE
  8
0
 62
4
 10
-3.34416211E+02
 20
1.84677931E+02
 11
-3.32153427E+02
 21
1.83500000E+02
  0
LINE
  8
0
 62
4
 10
-3.35029403E+02
 20
1.83500000E+02
 11
-3.34416211E+02
 21
1.84677931E+02
  0
LINE
  8
0
  6
PHANTOM
 10
-4.45000000E+01
 20
2.06467869E+02
 11
-4.45000000E+01
 21
3.77682384E+02
  0
LINE
  8
0
  6
PHANTOM
 10
1.03000046E+02
 20
2.09098033E+02
 11
1.03000046E+02
 21
3.77682384E+02
  0
LINE
  8
0
  6
CENTER
 62
2
 10
-2.37477448E+02
 20
2.95500000E+02
 11
1.91802689E+02
 21
2.95500000E+02
  0
LINE
  8
0
 62
7
 10
-1.75999969E+02
 20
2.79500000E+02
 11
-1.75999969E+02
 21
3.11500000E+02
  0
LINE
  8
0
  6
CENTER
 62
2
 10
-1.11999969E+02
 20
2.83047729E+02
 11
-1.11999969E+02
 21
2.68434357E+02
  0
LINE
  8
0
  6
CENTER
 62
2
 10
-1.20194550E+02
 20
2.75499969E+02
 11
-1.03925568E+02
 21
2.75499969E+02
  0
LINE
  8
0
 62
7
 10
-1.10267774E+02
 20
2.75499894E+02
 11
-1.11133798E+02
 21
2.76999900E+02
  0
LINE
  8
0
 62
7
 10
-1.11133972E+02
 20
2.76999969E+02
 11
-1.12866028E+02
 21
2.76999969E+02
  0
LINE
  8
0
 62
7
 10
-1.13731672E+02
 20
2.75499727E+02
 11
-1.12865663E+02
 21
2.76999707E+02
  0
LINE
  8
0
 62
7
 10
-1.12865861E+02
 20
2.73999897E+02
 11
-1.13731946E+02
 21
2.75500009E+02
  0
LINE
  8
0
 62
7
 10
-1.11133972E+02
 20
2.73999969E+02
 11
-1.12866028E+02
 21
2.73999969E+02
  0
LINE
  8
0
 62
7
 10
-1.10267700E+02
 20
2.75499817E+02
 11
-1.11133747E+02
 21
2.73999771E+02
  0
LINE
  8
0
  6
CENTER
 62
2
 10
5.07791901E+01
 20
2.43499969E+02
 11
-1.47941803E+02
 21
2.43499969E+02
  0
LINE
  8
0
 62
7
 10
-1.36999969E+02
 20
3.38500000E+02
 11
-1.36999969E+02
 21
2.52500000E+02
  0
LINE
  8
0
  6
CENTER
 62
2
 10
-1.07297638E+02
 20
3.09499969E+02
 11
-1.35094910E+02
 21
3.09499969E+02
  0
LINE
  8
0
 62
7
 10
-1.40999969E+02
 20
2.29111267E+02
 11
-1.40999969E+02
 21
3.61889252E+02
  0
LINE
  8
0
 62
7
 10
-1.40017417E+02
 20
3.62889150E+02
 11
-1.04999893E+02
 21
3.63500383E+02
  0
LINE
  8
0
 62
7
 10
-1.40017428E+02
 20
2.28111470E+02
 11
-1.04999934E+02
 21
2.27500238E+02
  0
LINE
  8
0
 62
7
 10
-1.05000000E+02
 20
3.63500336E+02
 11
-1.05000000E+02
 21
2.27500214E+02
  0
LINE
  8
0
  6
CENTER
 62
2
 10
-1.20999969E+02
 20
2.95394165E+02
 11
-1.20999969E+02
 21
3.23323273E+02
  0
LINE
  8
0
 62
7
 10
-1.71999969E+02
 20
3.11500000E+02
 11
-1.71999969E+02
 21
2.79500000E+02
  0
LINE
  8
0
 62
7
 10
-1.64499939E+02
 20
3.13000031E+02
 11
-1.62000000E+02
 21
3.13000031E+02
  0
LINE
  8
0
 62
7
 10
-1.64499939E+02
 20
2.77999969E+02
 11
-1.62000000E+02
 21
2.77999969E+02
  0
LINE
  8
0
  6
CENTER
 62
2
 10
5.07791901E+01
 20
3.47500031E+02
 11
-1.47941803E+02
 21
3.47500031E+02
  0
LINE
  8
0
 62
7
 10
-1.05000000E+02
 20
2.29000000E+02
 11
-2.85000000E+01
 21
2.29000000E+02
  0
LINE
  8
0
 62
7
 10
-1.05000000E+02
 20
3.62000000E+02
 11
-7.25000000E+01
 21
3.62000000E+02
  0
LINE
  8
0
 62
7
 10
-1.34999969E+02
 20
2.50500000E+02
 11
-1.05000000E+02
 21
2.50500000E+02
  0
LINE
  8
0
 62
7
 10
-1.34999969E+02
 20
3.40500000E+02
 11
-1.05000000E+02
 21
3.40500000E+02
  0
LINE
  8
0
 62
7
 10
-1.57000000E+02
 20
3.23017090E+02
 11
-1.57000000E+02
 21
2.68000000E+02
  0
LINE
  8
0
 62
7
 10
-1.42999969E+02
 20
2.66000000E+02
 11
-1.42999969E+02
 21
3.25000000E+02
  0
LINE
  8
0
 62
7
 10
-1.62000000E+02
 20
3.22000000E+02
 11
-1.62000000E+02
 21
2.69000000E+02
  0
LINE
  8
0
 62
7
 10
-1.75999969E+02
 20
3.11500000E+02
 11
-1.65999969E+02
 21
3.11500000E+02
  0
LINE
  8
0
 62
7
 10
-1.75999969E+02
 20
2.79500000E+02
 11
-1.65999969E+02
 21
2.79500000E+02
  0
LINE
  8
0
 62
7
 10
-1.66000017E+02
 20
3.11500074E+02
 11
-1.64499988E+02
 21
3.13000103E+02
  0
LINE
  8
0
 62
7
 10
-1.65999973E+02
 20
2.79500004E+02
 11
-1.64499961E+02
 21
2.77999992E+02
  0
LINE
  8
0
 62
7
 10
1.20000000E+01
 20
2.48999969E+02
 11
1.96507699E-10
 21
2.48999969E+02
  0
LINE
  8
0
 62
7
 10
1.20000000E+01
 20
2.37999969E+02
 11
-1.50000000E+01
 21
2.37999969E+02
  0
LINE
  8
0
 62
7
 10
1.20000000E+01
 20
3.53000031E+02
 11
-5.90000000E+01
 21
3.53000031E+02
  0
LINE
  8
0
 62
7
 10
1.20000000E+01
 20
3.42000031E+02
 11
-5.90000000E+01
 21
3.42000031E+02
  0
LINE
  8
0
  6
CENTER
 62
2
 10
1.89999695E+01
 20
2.83047729E+02
 11
1.89999695E+01
 21
2.68434357E+02
  0
LINE
  8
0
  6
CENTER
 62
2
 10
2.71945496E+01
 20
2.75499969E+02
 11
1.09255676E+01
 21
2.75499969E+02
  0
LINE
  8
0
 62
7
 10
1.72678249E+01
 20
2.75499871E+02
 11
1.81338488E+01
 21
2.76999877E+02
  0
LINE
  8
0
 62
7
 10
1.81339722E+01
 20
2.76999969E+02
 11
1.98660278E+01
 21
2.76999969E+02
  0
LINE
  8
0
 62
7
 10
2.07316927E+01
 20
2.75499715E+02
 11
1.98656840E+01
 21
2.76999695E+02
  0
LINE
  8
0
 62
7
 10
1.98659091E+01
 20
2.73999946E+02
 11
2.07319788E+01
 21
2.75500031E+02
  0
LINE
  8
0
 62
7
 10
1.81339722E+01
 20
2.73999969E+02
 11
1.98660278E+01
 21
2.73999969E+02
  0
LINE
  8
0
 62
7
 10
1.72677757E+01
 20
2.75499801E+02
 11
1.81338149E+01
 21
2.73999768E+02
  0
LINE
  8
0
 62
7
 10
4.39999695E+01
 20
3.38500000E+02
 11
4.39999695E+01
 21
2.52500000E+02
  0
LINE
  8
0
  6
CENTER
 62
2
 10
1.42976379E+01
 20
3.09499969E+02
 11
4.20949097E+01
 21
3.09499969E+02
  0
LINE
  8
0
 62
7
 10
4.79999695E+01
 20
2.29111298E+02
 11
4.79999695E+01
 21
3.61889252E+02
  0
LINE
  8
0
 62
7
 10
4.70174442E+01
 20
3.62889169E+02
 11
1.19999521E+01
 21
3.63500402E+02
  0
LINE
  8
0
 62
7
 10
4.70174373E+01
 20
2.28111466E+02
 11
1.19999433E+01
 21
2.27500234E+02
  0
LINE
  8
0
 62
7
 10
1.20000000E+01
 20
3.63500336E+02
 11
1.20000000E+01
 21
2.27500214E+02
  0
LINE
  8
0
  6
CENTER
 62
2
 10
2.79999695E+01
 20
2.95394165E+02
 11
2.79999695E+01
 21
3.23323273E+02
  0
LINE
  8
0
 62
7
 10
4.19999695E+01
 20
2.50500000E+02
 11
1.20000000E+01
 21
2.50500000E+02
  0
LINE
  8
0
 62
7
 10
4.19999695E+01
 20
3.40500000E+02
 11
1.20000000E+01
 21
3.40500000E+02
  0
LINE
  8
0
 62
7
 10
4.94999695E+01
 20
2.65500000E+02
 11
4.79999695E+01
 21
2.65500000E+02
  0
LINE
  8
0
 62
7
 10
4.99999695E+01
 20
2.66000000E+02
 11
4.99999695E+01
 21
3.25000000E+02
  0
LINE
  8
0
 62
7
 10
4.94999695E+01
 20
3.25500000E+02
 11
4.79999695E+01
 21
3.25500000E+02
  0
LINE
  8
0
 62
7
 10
-1.61000000E+02
 20
2.68000000E+02
 11
-1.57000000E+02
 21
2.68000000E+02
  0
LINE
  8
0
 62
7
 10
-1.56517407E+02
 20
2.67483194E+02
 11
-1.42999951E+02
 21
2.67011154E+02
  0
LINE
  8
0
 62
7
 10
-1.42499969E+02
 20
2.65500000E+02
 11
-1.40999969E+02
 21
2.65500000E+02
  0
LINE
  8
0
 62
7
 10
-1.61000000E+02
 20
3.23000000E+02
 11
-1.57000000E+02
 21
3.23000000E+02
  0
LINE
  8
0
 62
7
 10
-1.56517426E+02
 20
3.23516867E+02
 11
-1.42999970E+02
 21
3.23988907E+02
  0
LINE
  8
0
 62
7
 10
-1.42499969E+02
 20
3.25500000E+02
 11
-1.40999969E+02
 21
3.25500000E+02
  0
LINE
  8
0
 62
7
 10
-1.79999969E+02
 20
2.82000000E+02
 11
-1.79999969E+02
 21
3.09000000E+02
  0
LINE
  8
0
 62
7
 10
-2.29999969E+02
 20
2.83499908E+02
 11
-2.29999969E+02
 21
3.07500000E+02
  0
LINE
  8
0
 62
7
 10
-2.28499969E+02
 20
3.09000000E+02
 11
-2.12999969E+02
 21
3.09000000E+02
  0
LINE
  8
0
 62
2
 10
-2.29582458E+02
 20
3.07917511E+02
 11
-2.12999969E+02
 21
3.07917511E+02
  0
LINE
  8
0
 62
7
 10
-2.29999960E+02
 20
3.07500006E+02
 11
-2.28499958E+02
 21
3.09000008E+02
  0
LINE
  8
0
 62
7
 10
-2.28499969E+02
 20
2.82000000E+02
 11
-2.28499969E+02
 21
3.09000000E+02
  0
LINE
  8
0
 62
7
 10
-2.30000045E+02
 20
2.83499982E+02
 11
-2.28500033E+02
 21
2.81999970E+02
  0
LINE
  8
0
 62
7
 10
-2.28499969E+02
 20
2.82000000E+02
 11
-2.12999969E+02
 21
2.82000000E+02
  0
LINE
  8
0
 62
2
 10
-2.29582458E+02
 20
2.83082489E+02
 11
-2.12999969E+02
 21
2.83082489E+02
  0
LINE
  8
0
 62
7
 10
-1.79999969E+02
 20
3.07917511E+02
 11
-1.75999969E+02
 21
3.07917511E+02
  0
LINE
  8
0
 62
7
 10
-1.79999969E+02
 20
2.83082489E+02
 11
-1.75999969E+02
 21
2.83082489E+02
  0
LINE
  8
0
 62
7
 10
1.33000031E+02
 20
2.79500000E+02
 11
1.33000031E+02
 21
3.11500000E+02
  0
LINE
  8
0
 62
7
 10
1.87000030E+02
 20
3.07500023E+02
 11
1.85500028E+02
 21
3.09000024E+02
  0
LINE
  8
0
 62
7
 10
1.85500031E+02
 20
2.82000000E+02
 11
1.85500031E+02
 21
3.09000000E+02
  0
LINE
  8
0
 62
2
 10
1.86582520E+02
 20
3.07917511E+02
 11
1.70000031E+02
 21
3.07917511E+02
  0
LINE
  8
0
 62
7
 10
1.29000031E+02
 20
3.11500000E+02
 11
1.29000031E+02
 21
2.79500000E+02
  0
LINE
  8
0
 62
7
 10
1.21500000E+02
 20
2.77999969E+02
 11
6.90000610E+01
 21
2.77999969E+02
  0
LINE
  8
0
 62
7
 10
1.21500000E+02
 20
3.13000031E+02
 11
6.90000610E+01
 21
3.13000031E+02
  0
LINE
  8
0
 62
7
 10
1.85500031E+02
 20
3.09000000E+02
 11
1.70000031E+02
 21
3.09000000E+02
  0
LINE
  8
0
 62
7
 10
1.87000031E+02
 20
2.83499908E+02
 11
1.87000031E+02
 21
3.07500000E+02
  0
LINE
  8
0
 62
7
 10
1.37000031E+02
 20
2.82000000E+02
 11
1.37000031E+02
 21
3.09000000E+02
  0
LINE
  8
0
 62
7
 10
6.35174855E+01
 20
3.23516877E+02
 11
5.00000290E+01
 21
3.23988917E+02
  0
LINE
  8
0
 62
7
 10
6.80000610E+01
 20
3.23000000E+02
 11
6.40000610E+01
 21
3.23000000E+02
  0
LINE
  8
0
 62
7
 10
6.35174660E+01
 20
2.67483199E+02
 11
5.00000095E+01
 21
2.67011159E+02
  0
LINE
  8
0
 62
2
 10
1.86582520E+02
 20
2.83082489E+02
 11
1.70000031E+02
 21
2.83082489E+02
  0
LINE
  8
0
 62
7
 10
1.85500031E+02
 20
2.82000000E+02
 11
1.70000031E+02
 21
2.82000000E+02
  0
LINE
  8
0
 62
7
 10
1.87000116E+02
 20
2.83499997E+02
 11
1.85500104E+02
 21
2.81999985E+02
  0
LINE
  8
0
 62
7
 10
6.90000610E+01
 20
3.22000000E+02
 11
6.90000610E+01
 21
2.69000000E+02
  0
LINE
  8
0
 62
7
 10
1.23000087E+02
 20
3.11500081E+02
 11
1.21500064E+02
 21
3.13000104E+02
  0
LINE
  8
0
 62
7
 10
6.40000610E+01
 20
3.23017090E+02
 11
6.40000610E+01
 21
2.68000000E+02
  0
LINE
  8
0
 62
7
 10
1.33000031E+02
 20
2.79500000E+02
 11
1.23000031E+02
 21
2.79500000E+02
  0
LINE
  8
0
 62
7
 10
1.33000031E+02
 20
3.11500000E+02
 11
1.23000031E+02
 21
3.11500000E+02
  0
LINE
  8
0
 62
7
 10
1.23000025E+02
 20
2.79500017E+02
 11
1.21500013E+02
 21
2.78000005E+02
  0
LINE
  8
0
 62
7
 10
6.80000610E+01
 20
2.68000000E+02
 11
6.40000610E+01
 21
2.68000000E+02
  0
LINE
  8
0
 62
7
 10
1.37000031E+02
 20
2.83082489E+02
 11
1.33000031E+02
 21
2.83082489E+02
  0
LINE
  8
0
 62
7
 10
1.37000031E+02
 20
3.07917511E+02
 11
1.33000031E+02
 21
3.07917511E+02
  0
ARC
  8
0
 62
7
 10
-1.11999969E+02
 20
2.75499969E+02
 40
5.00000048E+00
 50
0.00000000E+00
 51
1.79999964E+02
  0
ARC
  8
0
 62
7
 10
-1.11999969E+02
 20
2.75499969E+02
 40
5.00000048E+00
 50
1.79999977E+02
 51
1.00179127E-05
  0
CIRCLE
  8
0
 62
7
 10
-1.20999969E+02
 20
3.09500061E+02
 40
9.25000000E+00
  0
CIRCLE
  8
0
 62
7
 10
-1.20999969E+02
 20
3.09500000E+02
 40
1.10000000E+01
  0
CIRCLE
  8
0
 62
2
 10
-1.20999969E+02
 20
3.09500000E+02
 40
1.04775009E+01
  0
ARC
  8
0
 62
7
 10
-1.34999969E+02
 20
3.38500000E+02
 40
2.00000000E+00
 50
8.99999818E+01
 51
1.79999964E+02
  0
ARC
  8
0
 62
7
 10
-1.34999969E+02
 20
2.52500000E+02
 40
2.00000000E+00
 50
1.79999977E+02
 51
2.70000028E+02
  0
CIRCLE
  8
0
 62
2
 10
2.79999695E+01
 20
3.09500000E+02
 40
1.04775009E+01
  0
ARC
  8
0
 62
7
 10
4.19999695E+01
 20
2.52500000E+02
 40
2.00000000E+00
 50
2.70000018E+02
 51
5.46415133E-05
  0
ARC
  8
0
 62
7
 10
4.19999695E+01
 20
3.38500000E+02
 40
2.00000000E+00
 50
5.46415133E-05
 51
9.00000369E+01
  0
CIRCLE
  8
0
 62
7
 10
2.79999695E+01
 20
3.09500000E+02
 40
1.10000000E+01
  0
ARC
  8
0
 62
7
 10
4.94999695E+01
 20
2.66000000E+02
 40
5.00000000E-01
 50
2.70000073E+02
 51
5.46415133E-05
  0
ARC
  8
0
 62
7
 10
4.94999695E+01
 20
3.25000000E+02
 40
5.00000000E-01
 50
5.46415133E-05
 51
9.00000369E+01
  0
CIRCLE
  8
0
 62
7
 10
2.79999695E+01
 20
3.09500061E+02
 40
9.25000000E+00
  0
ARC
  8
0
 62
7
 10
1.89999695E+01
 20
2.75499969E+02
 40
5.00000048E+00
 50
5.46415133E-05
 51
1.80000019E+02
  0
ARC
  8
0
 62
7
 10
1.89999695E+01
 20
2.75499969E+02
 40
5.00000048E+00
 50
1.80000036E+02
 51
5.46415133E-05
  0
ARC
  8
0
 62
7
 10
-1.56500000E+02
 20
2.67982910E+02
 40
5.00000000E-01
 50
1.79999977E+02
 51
2.67999192E+02
  0
ARC
  8
0
 62
7
 10
-1.42499969E+02
 20
2.66000000E+02
 40
5.00000000E-01
 50
1.79999977E+02
 51
2.69999974E+02
  0
ARC
  8
0
 62
7
 10
-1.56500000E+02
 20
3.23017090E+02
 40
5.00000000E-01
 50
9.20007356E+01
 51
1.79999964E+02
  0
ARC
  8
0
 62
7
 10
-1.42499969E+02
 20
3.25000000E+02
 40
5.00000000E-01
 50
8.99999818E+01
 51
1.79999964E+02
  0
ARC
  8
0
 62
7
 10
-1.39999969E+02
 20
2.29111267E+02
 40
1.00000000E+00
 50
1.79999977E+02
 51
2.68999761E+02
  0
ARC
  8
0
 62
7
 10
-1.39999969E+02
 20
3.61889252E+02
 40
1.00000000E+00
 50
9.10002292E+01
 51
1.79999964E+02
  0
ARC
  8
0
 62
7
 10
4.69999695E+01
 20
3.61889252E+02
 40
1.00000000E+00
 50
0.00000000E+00
 51
8.89997895E+01
  0
ARC
  8
0
 62
7
 10
4.69999695E+01
 20
2.29111298E+02
 40
1.00000000E+00
 50
2.71000211E+02
 51
0.00000000E+00
  0
ARC
  8
0
 62
7
 10
-1.61000000E+02
 20
3.22000000E+02
 40
1.00000000E+00
 50
8.99999818E+01
 51
1.79999964E+02
  0
ARC
  8
0
 62
7
 10
-1.61000000E+02
 20
2.69000000E+02
 40
1.00000000E+00
 50
1.79999977E+02
 51
2.70000028E+02
  0
CIRCLE
  8
0
 62
7
 10
-1.11999969E+02
 20
2.75499969E+02
 40
2.59999990E+00
  0
CIRCLE
  8
0
 62
7
 10
1.89999695E+01
 20
2.75499969E+02
 40
2.59999990E+00
  0
ARC
  8
0
 62
7
 10
6.35000610E+01
 20
3.23017090E+02
 40
5.00000000E-01
 50
3.59721781E-05
 51
8.79992625E+01
  0
ARC
  8
0
 62
7
 10
6.35000610E+01
 20
2.67982910E+02
 40
5.00000000E-01
 50
2.72000806E+02
 51
2.23117997E-05
  0
ARC
  8
0
 62
7
 10
6.80000610E+01
 20
2.69000000E+02
 40
1.00000000E+00
 50
2.69999970E+02
 51
2.23117997E-05
  0
ARC
  8
0
 62
7
 10
6.80000610E+01
 20
3.22000000E+02
 40
1.00000000E+00
 50
3.59721781E-05
 51
9.00000162E+01
  0
ARC
  8
0
 62
4
 10
-2.25893505E+02
 20
3.05750000E+02
 40
2.88935357E+01
 50
3.39221838E+02
 51
2.07781619E+01
  0
ARC
  8
0
 62
4
 10
-2.25893505E+02
 20
2.85250000E+02
 40
2.88935357E+01
 50
3.39221838E+02
 51
2.07781619E+01
  0
ARC
  8
0
 62
4
 10
-1.84106606E+02
 20
2.85250000E+02
 40
2.88933634E+01
 50
1.59221708E+02
 51
2.00778291E+02
  0
ARC
  8
0
 62
4
 10
-1.84106606E+02
 20
3.05750000E+02
 40
2.88933634E+01
 50
1.59221708E+02
 51
2.00778291E+02
  0
LINE
  8
0
 62
4
 10
-2.11120750E+02
 20
2.95500000E+02
 11
-1.98879177E+02
 21
2.95500000E+02
  0
LINE
  8
0
 62
4
 10
-2.12999969E+02
 20
3.16000000E+02
 11
-1.96999969E+02
 21
3.16000000E+02
  0
LINE
  8
0
 62
4
 10
-2.12999969E+02
 20
2.75000000E+02
 11
-1.96999969E+02
 21
2.75000000E+02
  0
LINE
  8
0
 62
4
 10
-1.96999969E+02
 20
3.16000000E+02
 11
-1.96999969E+02
 21
2.75000000E+02
  0
LINE
  8
0
 62
4
 10
-2.12999969E+02
 20
3.16000000E+02
 11
-2.12999969E+02
 21
2.75000000E+02
  0
ARC
  8
0
 62
4
 10
1.41106495E+02
 20
3.05750000E+02
 40
2.88935357E+01
 50
3.39221838E+02
 51
2.07781619E+01
  0
ARC
  8
0
 62
4
 10
1.41106495E+02
 20
2.85250000E+02
 40
2.88935357E+01
 50
3.39221838E+02
 51
2.07781619E+01
  0
ARC
  8
0
 62
4
 10
1.82893394E+02
 20
2.85250000E+02
 40
2.88933634E+01
 50
1.59221708E+02
 51
2.00778291E+02
  0
ARC
  8
0
 62
4
 10
1.82893394E+02
 20
3.05750000E+02
 40
2.88933634E+01
 50
1.59221708E+02
 51
2.00778291E+02
  0
LINE
  8
0
 62
4
 10
1.55879250E+02
 20
2.95500000E+02
 11
1.68120823E+02
 21
2.95500000E+02
  0
LINE
  8
0
 62
4
 10
1.54000031E+02
 20
3.16000000E+02
 11
1.70000031E+02
 21
3.16000000E+02
  0
LINE
  8
0
 62
4
 10
1.54000031E+02
 20
2.75000000E+02
 11
1.70000031E+02
 21
2.75000000E+02
  0
LINE
  8
0
 62
4
 10
1.70000031E+02
 20
3.16000000E+02
 11
1.70000031E+02
 21
2.75000000E+02
  0
LINE
  8
0
 62
4
 10
1.54000031E+02
 20
3.16000000E+02
 11
1.54000031E+02
 21
2.75000000E+02
  0
LINE
  8
0
 62
7
 10
-1.96999969E+02
 20
3.09000000E+02
 11
-1.79999969E+02
 21
3.09000000E+02
  0
LINE
  8
0
 62
2
 10
-1.96999969E+02
 20
3.07917511E+02
 11
-1.79999969E+02
 21
3.07917511E+02
  0
LINE
  8
0
 62
7
 10
-1.96999969E+02
 20
2.82000000E+02
 11
-1.79999969E+02
 21
2.82000000E+02
  0
LINE
  8
0
 62
2
 10
-1.96999969E+02
 20
2.83082489E+02
 11
-1.79999969E+02
 21
2.83082489E+02
  0
LINE
  8
0
 62
2
 10
1.54000031E+02
 20
3.07917511E+02
 11
1.37000031E+02
 21
3.07917511E+02
  0
LINE
  8
0
 62
7
 10
1.54000031E+02
 20
3.09000000E+02
 11
1.37000031E+02
 21
3.09000000E+02
  0
LINE
  8
0
 62
2
 10
1.54000031E+02
 20
2.83082489E+02
 11
1.37000031E+02
 21
2.83082489E+02
  0
LINE
  8
0
 62
7
 10
1.54000031E+02
 20
2.82000000E+02
 11
1.37000031E+02
 21
2.82000000E+02
  0
LINE
  8
0
  6
CENTER
 62
6
 10
-6.25000000E+01
 20
3.65825655E+02
 11
-6.25000000E+01
 21
3.58313387E+02
  0
LINE
  8
0
  6
CENTER
 62
6
 10
-7.05000000E+01
 20
3.65825655E+02
 11
-7.05000000E+01
 21
3.58313387E+02
  0
LINE
  8
0
 62
4
 10
-5.90000000E+01
 20
3.30087701E+02
 11
-4.81339746E+01
 21
3.30087701E+02
  0
LINE
  8
0
  6
CENTER
 62
6
 10
-9.40000000E+01
 20
3.28587701E+02
 11
-4.70000000E+01
 21
3.28587701E+02
  0
LINE
  8
0
 62
6
 10
-5.07320508E+01
 20
3.25587700E+02
 11
-4.72679492E+01
 21
3.31587700E+02
  0
LINE
  8
0
 62
4
 10
-5.90000000E+01
 20
3.27087701E+02
 11
-4.98660254E+01
 21
3.27087701E+02
  0
LINE
  8
0
 62
7
 10
-6.85000000E+01
 20
3.62000000E+02
 11
-6.45000000E+01
 21
3.62000000E+02
  0
LINE
  8
0
 62
4
 10
-6.55000000E+01
 20
3.25890182E+02
 11
-6.55000000E+01
 21
3.26997433E+02
  0
LINE
  8
0
 62
4
 10
-8.90000000E+01
 20
3.32947638E+02
 11
-5.90000000E+01
 21
3.32947638E+02
  0
LINE
  8
0
  6
CENTER
 62
6
 10
-8.15000000E+01
 20
3.32369769E+02
 11
-8.15000000E+01
 21
3.29369769E+02
  0
LINE
  8
0
 62
4
 10
-8.90000000E+01
 20
3.42083850E+02
 11
-8.90000000E+01
 21
3.28145453E+02
  0
LINE
  8
0
 62
4
 10
-5.90000000E+01
 20
3.60060076E+02
 11
-5.90000000E+01
 21
3.25559660E+02
  0
LINE
  8
0
 62
4
 10
-7.40000000E+01
 20
3.60060076E+02
 11
-7.40000000E+01
 21
3.42083850E+02
  0
LINE
  8
0
 62
4
 10
-8.90000000E+01
 20
3.42083850E+02
 11
-5.90000000E+01
 21
3.42083850E+02
  0
LINE
  8
0
 62
4
 10
-7.40000000E+01
 20
3.60060076E+02
 11
-5.90000000E+01
 21
3.60060076E+02
  0
LINE
  8
0
 62
4
 10
-9.05000000E+01
 20
3.30116234E+02
 11
-9.05000000E+01
 21
3.27061294E+02
  0
LINE
  8
0
 62
4
 10
-6.85000000E+01
 20
3.62392872E+02
 11
-6.85000000E+01
 21
3.60060076E+02
  0
LINE
  8
0
 62
4
 10
-7.25000000E+01
 20
3.62392872E+02
 11
-7.25000000E+01
 21
3.60060076E+02
  0
LINE
  8
0
 62
6
 10
-6.90000000E+01
 20
3.62679195E+02
 11
-6.90000000E+01
 21
3.60060076E+02
  0
LINE
  8
0
 62
6
 10
-7.20000000E+01
 20
3.62679195E+02
 11
-7.20000000E+01
 21
3.60060076E+02
  0
LINE
  8
0
 62
4
 10
-6.05000000E+01
 20
3.62392872E+02
 11
-6.05000000E+01
 21
3.60060076E+02
  0
LINE
  8
0
 62
4
 10
-6.45000000E+01
 20
3.62392872E+02
 11
-6.45000000E+01
 21
3.60060076E+02
  0
LINE
  8
0
 62
6
 10
-6.10000000E+01
 20
3.62679195E+02
 11
-6.10000000E+01
 21
3.60060076E+02
  0
LINE
  8
0
 62
6
 10
-6.40000000E+01
 20
3.62679195E+02
 11
-6.40000000E+01
 21
3.60060076E+02
  0
LINE
  8
0
 62
4
 10
-8.90000000E+01
 20
3.25559660E+02
 11
-7.54482454E+01
 21
3.25559660E+02
  0
LINE
  8
0
  6
CENTER
 62
6
 10
-8.30000000E+01
 20
3.30869769E+02
 11
-8.00000000E+01
 21
3.30869769E+02
  0
LINE
  8
0
 62
4
 10
-8.90000000E+01
 20
3.27737176E+02
 11
-7.81500000E+01
 21
3.27737176E+02
  0
LINE
  8
0
 62
4
 10
-8.90000000E+01
 20
3.25890182E+02
 11
-7.66744534E+01
 21
3.25890182E+02
  0
LINE
  8
0
 62
4
 10
-8.90000000E+01
 20
3.28145453E+02
 11
-7.81500000E+01
 21
3.28145453E+02
  0
LINE
  8
0
 62
4
 10
-6.55000000E+01
 20
3.26021409E+02
 11
-5.90000000E+01
 21
3.26021409E+02
  0
LINE
  8
0
 62
4
 10
-8.90000000E+01
 20
3.31285219E+02
 11
-9.05000000E+01
 21
3.30116234E+02
  0
LINE
  8
0
 62
4
 10
-9.05000000E+01
 20
3.27061294E+02
 11
-8.90000000E+01
 21
3.25890182E+02
  0
LINE
  8
0
 62
4
 10
-9.05000000E+01
 20
3.28107154E+02
 11
-8.90000000E+01
 21
3.27737176E+02
  0
LINE
  8
0
 62
4
 10
-8.90000000E+01
 20
3.28145453E+02
 11
-8.90000000E+01
 21
3.25890182E+02
  0
LINE
  8
0
 62
4
 10
-8.90000000E+01
 20
3.25890182E+02
 11
-8.90000000E+01
 21
3.25559660E+02
  0
POLYLINE
  8
0
 62
4
 66
1
  0
VERTEX
  8
0
 62
4
 10
-6.85000000E+01
 20
3.62392872E+02
  0
VERTEX
  8
0
 62
4
 10
-6.85080514E+01
 20
3.62431675E+02
  0
VERTEX
  8
0
 62
4
 10
-6.85321408E+01
 20
3.62470166E+02
  0
VERTEX
  8
0
 62
4
 10
-6.85720743E+01
 20
3.62508034E+02
  0
VERTEX
  8
0
 62
4
 10
-6.86275303E+01
 20
3.62544975E+02
  0
VERTEX
  8
0
 62
4
 10
-6.86980623E+01
 20
3.62580691E+02
  0
VERTEX
  8
0
 62
4
 10
-6.87831024E+01
 20
3.62614895E+02
  0
VERTEX
  8
0
 62
4
 10
-6.88819660E+01
 20
3.62647312E+02
  0
VERTEX
  8
0
 62
4
 10
-6.89938571E+01
 20
3.62677680E+02
  0
VERTEX
  8
0
 62
4
 10
-6.91178747E+01
 20
3.62705755E+02
  0
VERTEX
  8
0
 62
4
 10
-6.92530204E+01
 20
3.62731311E+02
  0
VERTEX
  8
0
 62
4
 10
-6.93982060E+01
 20
3.62754141E+02
  0
VERTEX
  8
0
 62
4
 10
-6.95522627E+01
 20
3.62774064E+02
  0
VERTEX
  8
0
 62
4
 10
-6.97139499E+01
 20
3.62790916E+02
  0
VERTEX
  8
0
 62
4
 10
-6.98819660E+01
 20
3.62804565E+02
  0
VERTEX
  8
0
 62
4
 10
-7.00549581E+01
 20
3.62814898E+02
  0
VERTEX
  8
0
 62
4
 10
-7.02315335E+01
 20
3.62821834E+02
  0
VERTEX
  8
0
 62
4
 10
-7.04102703E+01
 20
3.62825315E+02
  0
VERTEX
  8
0
 62
4
 10
-7.05897296E+01
 20
3.62825315E+02
  0
VERTEX
  8
0
 62
4
 10
-7.07684665E+01
 20
3.62821834E+02
  0
VERTEX
  8
0
 62
4
 10
-7.09450419E+01
 20
3.62814898E+02
  0
VERTEX
  8
0
 62
4
 10
-7.11180340E+01
 20
3.62804565E+02
  0
VERTEX
  8
0
 62
4
 10
-7.12860501E+01
 20
3.62790916E+02
  0
VERTEX
  8
0
 62
4
 10
-7.14477373E+01
 20
3.62774064E+02
  0
VERTEX
  8
0
 62
4
 10
-7.16017940E+01
 20
3.62754141E+02
  0
VERTEX
  8
0
 62
4
 10
-7.17469796E+01
 20
3.62731311E+02
  0
VERTEX
  8
0
 62
4
 10
-7.18821253E+01
 20
3.62705755E+02
  0
VERTEX
  8
0
 62
4
 10
-7.20061429E+01
 20
3.62677680E+02
  0
VERTEX
  8
0
 62
4
 10
-7.21180340E+01
 20
3.62647312E+02
  0
VERTEX
  8
0
 62
4
 10
-7.22168976E+01
 20
3.62614895E+02
  0
VERTEX
  8
0
 62
4
 10
-7.23019377E+01
 20
3.62580691E+02
  0
VERTEX
  8
0
 62
4
 10
-7.23724697E+01
 20
3.62544975E+02
  0
VERTEX
  8
0
 62
4
 10
-7.24279257E+01
 20
3.62508034E+02
  0
VERTEX
  8
0
 62
4
 10
-7.24678592E+01
 20
3.62470166E+02
  0
VERTEX
  8
0
 62
4
 10
-7.24919486E+01
 20
3.62431675E+02
  0
VERTEX
  8
0
 62
4
 10
-7.25000000E+01
 20
3.62392872E+02
  0
SEQEND
  8
0
  0
POLYLINE
  8
0
 62
4
 66
1
  0
VERTEX
  8
0
 62
4
 10
-6.05000000E+01
 20
3.62392872E+02
  0
VERTEX
  8
0
 62
4
 10
-6.05080514E+01
 20
3.62431675E+02
  0
VERTEX
  8
0
 62
4
 10
-6.05321408E+01
 20
3.62470166E+02
  0
VERTEX
  8
0
 62
4
 10
-6.05720743E+01
 20
3.62508034E+02
  0
VERTEX
  8
0
 62
4
 10
-6.06275303E+01
 20
3.62544975E+02
  0
VERTEX
  8
0
 62
4
 10
-6.06980623E+01
 20
3.62580691E+02
  0
VERTEX
  8
0
 62
4
 10
-6.07831024E+01
 20
3.62614895E+02
  0
VERTEX
  8
0
 62
4
 10
-6.08819660E+01
 20
3.62647312E+02
  0
VERTEX
  8
0
 62
4
 10
-6.09938571E+01
 20
3.62677680E+02
  0
VERTEX
  8
0
 62
4
 10
-6.11178747E+01
 20
3.62705755E+02
  0
VERTEX
  8
0
 62
4
 10
-6.12530204E+01
 20
3.62731311E+02
  0
VERTEX
  8
0
 62
4
 10
-6.13982060E+01
 20
3.62754141E+02
  0
VERTEX
  8
0
 62
4
 10
-6.15522627E+01
 20
3.62774064E+02
  0
VERTEX
  8
0
 62
4
 10
-6.17139499E+01
 20
3.62790916E+02
  0
VERTEX
  8
0
 62
4
 10
-6.18819660E+01
 20
3.62804565E+02
  0
VERTEX
  8
0
 62
4
 10
-6.20549581E+01
 20
3.62814898E+02
  0
VERTEX
  8
0
 62
4
 10
-6.22315335E+01
 20
3.62821834E+02
  0
VERTEX
  8
0
 62
4
 10
-6.24102703E+01
 20
3.62825315E+02
  0
VERTEX
  8
0
 62
4
 10
-6.25897296E+01
 20
3.62825315E+02
  0
VERTEX
  8
0
 62
4
 10
-6.27684665E+01
 20
3.62821834E+02
  0
VERTEX
  8
0
 62
4
 10
-6.29450419E+01
 20
3.62814898E+02
  0
VERTEX
  8
0
 62
4
 10
-6.31180340E+01
 20
3.62804565E+02
  0
VERTEX
  8
0
 62
4
 10
-6.32860501E+01
 20
3.62790916E+02
  0
VERTEX
  8
0
 62
4
 10
-6.34477373E+01
 20
3.62774064E+02
  0
VERTEX
  8
0
 62
4
 10
-6.36017940E+01
 20
3.62754141E+02
  0
VERTEX
  8
0
 62
4
 10
-6.37469796E+01
 20
3.62731311E+02
  0
VERTEX
  8
0
 62
4
 10
-6.38821253E+01
 20
3.62705755E+02
  0
VERTEX
  8
0
 62
4
 10
-6.40061429E+01
 20
3.62677680E+02
  0
VERTEX
  8
0
 62
4
 10
-6.41180340E+01
 20
3.62647312E+02
  0
VERTEX
  8
0
 62
4
 10
-6.42168976E+01
 20
3.62614895E+02
  0
VERTEX
  8
0
 62
4
 10
-6.43019377E+01
 20
3.62580691E+02
  0
VERTEX
  8
0
 62
4
 10
-6.43724697E+01
 20
3.62544975E+02
  0
VERTEX
  8
0
 62
4
 10
-6.44279257E+01
 20
3.62508034E+02
  0
VERTEX
  8
0
 62
4
 10
-6.44678592E+01
 20
3.62470166E+02
  0
VERTEX
  8
0
 62
4
 10
-6.44919486E+01
 20
3.62431675E+02
  0
VERTEX
  8
0
 62
4
 10
-6.45000000E+01
 20
3.62392872E+02
  0
SEQEND
  8
0
  0
POLYLINE
  8
0
 62
4
 66
1
  0
VERTEX
  8
0
 62
4
 10
-7.00279899E+01
 20
3.29471767E+02
  0
VERTEX
  8
0
 62
4
 10
-7.00848960E+01
 20
3.29632159E+02
  0
VERTEX
  8
0
 62
4
 10
-7.01721189E+01
 20
3.29789621E+02
  0
VERTEX
  8
0
 62
4
 10
-7.02889832E+01
 20
3.29942932E+02
  0
VERTEX
  8
0
 62
4
 10
-7.04345840E+01
 20
3.30090906E+02
  0
VERTEX
  8
0
 62
4
 10
-7.06077937E+01
 20
3.30232397E+02
  0
VERTEX
  8
0
 62
4
 10
-7.08072712E+01
 20
3.30366308E+02
  0
VERTEX
  8
0
 62
4
 10
-7.10314717E+01
 20
3.30491604E+02
  0
VERTEX
  8
0
 62
4
 10
-7.12786592E+01
 20
3.30607313E+02
  0
VERTEX
  8
0
 62
4
 10
-7.15469195E+01
 20
3.30712540E+02
  0
VERTEX
  8
0
 62
4
 10
-7.18341754E+01
 20
3.30806471E+02
  0
VERTEX
  8
0
 62
4
 10
-7.21382024E+01
 20
3.30888377E+02
  0
VERTEX
  8
0
 62
4
 10
-7.24566464E+01
 20
3.30957624E+02
  0
VERTEX
  8
0
 62
4
 10
-7.27870414E+01
 20
3.31013676E+02
  0
VERTEX
  8
0
 62
4
 10
-7.31268290E+01
 20
3.31056100E+02
  0
VERTEX
  8
0
 62
4
 10
-7.34733781E+01
 20
3.31084566E+02
  0
VERTEX
  8
0
 62
4
 10
-7.38240051E+01
 20
3.31098855E+02
  0
VERTEX
  8
0
 62
4
 10
-7.41759949E+01
 20
3.31098855E+02
  0
VERTEX
  8
0
 62
4
 10
-7.45266219E+01
 20
3.31084566E+02
  0
VERTEX
  8
0
 62
4
 10
-7.48731710E+01
 20
3.31056100E+02
  0
VERTEX
  8
0
 62
4
 10
-7.52129586E+01
 20
3.31013676E+02
  0
VERTEX
  8
0
 62
4
 10
-7.55433536E+01
 20
3.30957624E+02
  0
VERTEX
  8
0
 62
4
 10
-7.58617976E+01
 20
3.30888377E+02
  0
VERTEX
  8
0
 62
4
 10
-7.61658246E+01
 20
3.30806471E+02
  0
VERTEX
  8
0
 62
4
 10
-7.64530805E+01
 20
3.30712541E+02
  0
VERTEX
  8
0
 62
4
 10
-7.67213408E+01
 20
3.30607313E+02
  0
VERTEX
  8
0
 62
4
 10
-7.69685283E+01
 20
3.30491604E+02
  0
VERTEX
  8
0
 62
4
 10
-7.71927288E+01
 20
3.30366308E+02
  0
VERTEX
  8
0
 62
4
 10
-7.73922063E+01
 20
3.30232397E+02
  0
VERTEX
  8
0
 62
4
 10
-7.75654160E+01
 20
3.30090906E+02
  0
VERTEX
  8
0
 62
4
 10
-7.77110168E+01
 20
3.29942932E+02
  0
VERTEX
  8
0
 62
4
 10
-7.78278811E+01
 20
3.29789621E+02
  0
VERTEX
  8
0
 62
4
 10
-7.79151040E+01
 20
3.29632159E+02
  0
VERTEX
  8
0
 62
4
 10
-7.79720101E+01
 20
3.29471767E+02
  0
SEQEND
  8
0
  0
LINE
  8
0
 62
4
 10
-7.81500000E+01
 20
3.28916585E+02
 11
-7.81500000E+01
 21
3.27355446E+02
  0
LINE
  8
0
 62
4
 10
-6.98500000E+01
 20
3.28916585E+02
 11
-6.98500000E+01
 21
3.27355446E+02
  0
POLYLINE
  8
0
 62
4
 66
1
  0
VERTEX
  8
0
 62
4
 10
-7.81500000E+01
 20
3.27355446E+02
  0
VERTEX
  8
0
 62
4
 10
-7.81342080E+01
 20
3.27188433E+02
  0
VERTEX
  8
0
 62
4
 10
-7.80869522E+01
 20
3.27022692E+02
  0
VERTEX
  8
0
 62
4
 10
-7.80085922E+01
 20
3.26859482E+02
  0
VERTEX
  8
0
 62
4
 10
-7.78997244E+01
 20
3.26700048E+02
  0
VERTEX
  8
0
 62
4
 10
-7.77611773E+01
 20
3.26545601E+02
  0
VERTEX
  8
0
 62
4
 10
-7.75940054E+01
 20
3.26397318E+02
  0
VERTEX
  8
0
 62
4
 10
-7.73994810E+01
 20
3.26256326E+02
  0
VERTEX
  8
0
 62
4
 10
-7.71790844E+01
 20
3.26123700E+02
  0
VERTEX
  8
0
 62
4
 10
-7.69344931E+01
 20
3.26000448E+02
  0
VERTEX
  8
0
 62
4
 10
-7.66675686E+01
 20
3.25887508E+02
  0
VERTEX
  8
0
 62
4
 10
-7.63803422E+01
 20
3.25785740E+02
  0
VERTEX
  8
0
 62
4
 10
-7.60750000E+01
 20
3.25695919E+02
  0
VERTEX
  8
0
 62
4
 10
-7.57538658E+01
 20
3.25618728E+02
  0
VERTEX
  8
0
 62
4
 10
-7.54193836E+01
 20
3.25554754E+02
  0
VERTEX
  8
0
 62
4
 10
-7.50740990E+01
 20
3.25504484E+02
  0
VERTEX
  8
0
 62
4
 10
-7.47206399E+01
 20
3.25468302E+02
  0
VERTEX
  8
0
 62
4
 10
-7.43616963E+01
 20
3.25446481E+02
  0
VERTEX
  8
0
 62
4
 10
-7.40000000E+01
 20
3.25439189E+02
  0
VERTEX
  8
0
 62
4
 10
-7.36383037E+01
 20
3.25446481E+02
  0
VERTEX
  8
0
 62
4
 10
-7.32793601E+01
 20
3.25468302E+02
  0
VERTEX
  8
0
 62
4
 10
-7.29259010E+01
 20
3.25504484E+02
  0
VERTEX
  8
0
 62
4
 10
-7.25806164E+01
 20
3.25554754E+02
  0
VERTEX
  8
0
 62
4
 10
-7.22461342E+01
 20
3.25618728E+02
  0
VERTEX
  8
0
 62
4
 10
-7.19250000E+01
 20
3.25695919E+02
  0
VERTEX
  8
0
 62
4
 10
-7.16196578E+01
 20
3.25785740E+02
  0
VERTEX
  8
0
 62
4
 10
-7.13324314E+01
 20
3.25887508E+02
  0
VERTEX
  8
0
 62
4
 10
-7.10655069E+01
 20
3.26000448E+02
  0
VERTEX
  8
0
 62
4
 10
-7.08209156E+01
 20
3.26123700E+02
  0
VERTEX
  8
0
 62
4
 10
-7.06005190E+01
 20
3.26256326E+02
  0
VERTEX
  8
0
 62
4
 10
-7.04059946E+01
 20
3.26397318E+02
  0
VERTEX
  8
0
 62
4
 10
-7.02388227E+01
 20
3.26545601E+02
  0
VERTEX
  8
0
 62
4
 10
-7.01002756E+01
 20
3.26700048E+02
  0
VERTEX
  8
0
 62
4
 10
-6.99914078E+01
 20
3.26859482E+02
  0
VERTEX
  8
0
 62
4
 10
-6.99130478E+01
 20
3.27022691E+02
  0
VERTEX
  8
0
 62
4
 10
-6.98657920E+01
 20
3.27188433E+02
  0
VERTEX
  8
0
 62
4
 10
-6.98500000E+01
 20
3.27355446E+02
  0
VERTEX
  8
0
 62
4
 10
-6.98657920E+01
 20
3.27522459E+02
  0
VERTEX
  8
0
 62
4
 10
-6.99130478E+01
 20
3.27688200E+02
  0
VERTEX
  8
0
 62
4
 10
-6.99914078E+01
 20
3.27851410E+02
  0
VERTEX
  8
0
 62
4
 10
-7.01002756E+01
 20
3.28010844E+02
  0
VERTEX
  8
0
 62
4
 10
-7.02388227E+01
 20
3.28165291E+02
  0
VERTEX
  8
0
 62
4
 10
-7.04059946E+01
 20
3.28313574E+02
  0
VERTEX
  8
0
 62
4
 10
-7.06005190E+01
 20
3.28454566E+02
  0
VERTEX
  8
0
 62
4
 10
-7.08209156E+01
 20
3.28587192E+02
  0
VERTEX
  8
0
 62
4
 10
-7.10655069E+01
 20
3.28710444E+02
  0
VERTEX
  8
0
 62
4
 10
-7.13324314E+01
 20
3.28823384E+02
  0
VERTEX
  8
0
 62
4
 10
-7.16196578E+01
 20
3.28925152E+02
  0
VERTEX
  8
0
 62
4
 10
-7.19250000E+01
 20
3.29014973E+02
  0
VERTEX
  8
0
 62
4
 10
-7.22461342E+01
 20
3.29092164E+02
  0
VERTEX
  8
0
 62
4
 10
-7.25806164E+01
 20
3.29156138E+02
  0
VERTEX
  8
0
 62
4
 10
-7.29259010E+01
 20
3.29206408E+02
  0
VERTEX
  8
0
 62
4
 10
-7.32793601E+01
 20
3.29242590E+02
  0
VERTEX
  8
0
 62
4
 10
-7.36383037E+01
 20
3.29264411E+02
  0
VERTEX
  8
0
 62
4
 10
-7.40000000E+01
 20
3.29271703E+02
  0
VERTEX
  8
0
 62
4
 10
-7.43616963E+01
 20
3.29264411E+02
  0
VERTEX
  8
0
 62
4
 10
-7.47206399E+01
 20
3.29242590E+02
  0
VERTEX
  8
0
 62
4
 10
-7.50740990E+01
 20
3.29206408E+02
  0
VERTEX
  8
0
 62
4
 10
-7.54193836E+01
 20
3.29156138E+02
  0
VERTEX
  8
0
 62
4
 10
-7.57538658E+01
 20
3.29092164E+02
  0
VERTEX
  8
0
 62
4
 10
-7.60750000E+01
 20
3.29014973E+02
  0
VERTEX
  8
0
 62
4
 10
-7.63803422E+01
 20
3.28925152E+02
  0
VERTEX
  8
0
 62
4
 10
-7.66675686E+01
 20
3.28823384E+02
  0
VERTEX
  8
0
 62
4
 10
-7.69344931E+01
 20
3.28710444E+02
  0
VERTEX
  8
0
 62
4
 10
-7.71790844E+01
 20
3.28587192E+02
  0
VERTEX
  8
0
 62
4
 10
-7.73994810E+01
 20
3.28454566E+02
  0
VERTEX
  8
0
 62
4
 10
-7.75940054E+01
 20
3.28313574E+02
  0
VERTEX
  8
0
 62
4
 10
-7.77611773E+01
 20
3.28165291E+02
  0
VERTEX
  8
0
 62
4
 10
-7.78997244E+01
 20
3.28010844E+02
  0
VERTEX
  8
0
 62
4
 10
-7.80085922E+01
 20
3.27851410E+02
  0
VERTEX
  8
0
 62
4
 10
-7.80869522E+01
 20
3.27688201E+02
  0
VERTEX
  8
0
 62
4
 10
-7.81342080E+01
 20
3.27522459E+02
  0
VERTEX
  8
0
 62
4
 10
-7.81500000E+01
 20
3.27355446E+02
  0
SEQEND
  8
0
  0
POLYLINE
  8
0
 62
4
 66
1
  0
VERTEX
  8
0
 62
4
 10
-6.98500000E+01
 20
3.28916585E+02
  0
VERTEX
  8
0
 62
4
 10
-6.98667067E+01
 20
3.29088357E+02
  0
VERTEX
  8
0
 62
4
 10
-6.99166922E+01
 20
3.29258746E+02
  0
VERTEX
  8
0
 62
4
 10
-6.99995541E+01
 20
3.29426380E+02
  0
VERTEX
  8
0
 62
4
 10
-7.01146253E+01
 20
3.29589909E+02
  0
VERTEX
  8
0
 62
4
 10
-7.02609792E+01
 20
3.29748018E+02
  0
VERTEX
  8
0
 62
4
 10
-7.04374375E+01
 20
3.29899432E+02
  0
VERTEX
  8
0
 62
4
 10
-7.06425795E+01
 20
3.30042932E+02
  0
VERTEX
  8
0
 62
4
 10
-7.08747534E+01
 20
3.30177365E+02
  0
VERTEX
  8
0
 62
4
 10
-7.11320900E+01
 20
3.30301646E+02
  0
VERTEX
  8
0
 62
4
 10
-7.14125173E+01
 20
3.30414775E+02
  0
VERTEX
  8
0
 62
4
 10
-7.17137775E+01
 20
3.30515842E+02
  0
VERTEX
  8
0
 62
4
 10
-7.20334450E+01
 20
3.30604032E+02
  0
VERTEX
  8
0
 62
4
 10
-7.23689461E+01
 20
3.30678636E+02
  0
VERTEX
  8
0
 62
4
 10
-7.27175794E+01
 20
3.30739053E+02
  0
VERTEX
  8
0
 62
4
 10
-7.30765381E+01
 20
3.30784797E+02
  0
VERTEX
  8
0
 62
4
 10
-7.34429319E+01
 20
3.30815499E+02
  0
VERTEX
  8
0
 62
4
 10
-7.38138109E+01
 20
3.30830912E+02
  0
VERTEX
  8
0
 62
4
 10
-7.41861890E+01
 20
3.30830912E+02
  0
VERTEX
  8
0
 62
4
 10
-7.45570680E+01
 20
3.30815499E+02
  0
VERTEX
  8
0
 62
4
 10
-7.49234618E+01
 20
3.30784797E+02
  0
VERTEX
  8
0
 62
4
 10
-7.52824205E+01
 20
3.30739053E+02
  0
VERTEX
  8
0
 62
4
 10
-7.56310539E+01
 20
3.30678636E+02
  0
VERTEX
  8
0
 62
4
 10
-7.59665549E+01
 20
3.30604032E+02
  0
VERTEX
  8
0
 62
4
 10
-7.62862224E+01
 20
3.30515842E+02
  0
VERTEX
  8
0
 62
4
 10
-7.65874827E+01
 20
3.30414775E+02
  0
VERTEX
  8
0
 62
4
 10
-7.68679100E+01
 20
3.30301646E+02
  0
VERTEX
  8
0
 62
4
 10
-7.71252466E+01
 20
3.30177365E+02
  0
VERTEX
  8
0
 62
4
 10
-7.73574205E+01
 20
3.30042932E+02
  0
VERTEX
  8
0
 62
4
 10
-7.75625625E+01
 20
3.29899432E+02
  0
VERTEX
  8
0
 62
4
 10
-7.77390208E+01
 20
3.29748018E+02
  0
VERTEX
  8
0
 62
4
 10
-7.78853747E+01
 20
3.29589909E+02
  0
VERTEX
  8
0
 62
4
 10
-7.80004459E+01
 20
3.29426380E+02
  0
VERTEX
  8
0
 62
4
 10
-7.80833078E+01
 20
3.29258746E+02
  0
VERTEX
  8
0
 62
4
 10
-7.81332933E+01
 20
3.29088357E+02
  0
VERTEX
  8
0
 62
4
 10
-7.81500000E+01
 20
3.28916585E+02
  0
SEQEND
  8
0
  0
ARC
  8
0
 62
4
 10
-7.02685190E+01
 20
3.35024803E+02
 40
9.13527424E+00
 50
2.32988198E+02
 51
2.57586848E+02
  0
ARC
  8
0
 62
4
 10
-7.77314809E+01
 20
3.35024803E+02
 40
9.13527383E+00
 50
2.82413151E+02
 51
3.07011803E+02
  0
LINE
  8
0
 62
4
 10
-7.03000000E+01
 20
3.29982759E+02
 11
-7.03000000E+01
 21
3.30869769E+02
  0
LINE
  8
0
 62
4
 10
-6.27000000E+01
 20
3.29982759E+02
 11
-6.27000000E+01
 21
3.30869769E+02
  0
POLYLINE
  8
0
 62
4
 66
1
  0
VERTEX
  8
0
 62
4
 10
-6.27000000E+01
 20
3.30869769E+02
  0
VERTEX
  8
0
 62
4
 10
-6.27152977E+01
 20
3.31027054E+02
  0
VERTEX
  8
0
 62
4
 10
-6.27610676E+01
 20
3.31183073E+02
  0
VERTEX
  8
0
 62
4
 10
-6.28369411E+01
 20
3.31336569E+02
  0
VERTEX
  8
0
 62
4
 10
-6.29423075E+01
 20
3.31486307E+02
  0
VERTEX
  8
0
 62
4
 10
-6.30763183E+01
 20
3.31631081E+02
  0
VERTEX
  8
0
 62
4
 10
-6.32378946E+01
 20
3.31769725E+02
  0
VERTEX
  8
0
 62
4
 10
-6.34257354E+01
 20
3.31901123E+02
  0
VERTEX
  8
0
 62
4
 10
-6.36383284E+01
 20
3.32024218E+02
  0
VERTEX
  8
0
 62
4
 10
-6.38739619E+01
 20
3.32138017E+02
  0
VERTEX
  8
0
 62
4
 10
-6.41307387E+01
 20
3.32241605E+02
  0
VERTEX
  8
0
 62
4
 10
-6.44065915E+01
 20
3.32334149E+02
  0
VERTEX
  8
0
 62
4
 10
-6.46992991E+01
 20
3.32414901E+02
  0
VERTEX
  8
0
 62
4
 10
-6.50065049E+01
 20
3.32483214E+02
  0
VERTEX
  8
0
 62
4
 10
-6.53257354E+01
 20
3.32538535E+02
  0
VERTEX
  8
0
 62
4
 10
-6.56544204E+01
 20
3.32580421E+02
  0
VERTEX
  8
0
 62
4
 10
-6.59899136E+01
 20
3.32608534E+02
  0
VERTEX
  8
0
 62
4
 10
-6.63295136E+01
 20
3.32622647E+02
  0
VERTEX
  8
0
 62
4
 10
-6.66704863E+01
 20
3.32622647E+02
  0
VERTEX
  8
0
 62
4
 10
-6.70100864E+01
 20
3.32608534E+02
  0
VERTEX
  8
0
 62
4
 10
-6.73455795E+01
 20
3.32580421E+02
  0
VERTEX
  8
0
 62
4
 10
-6.76742646E+01
 20
3.32538535E+02
  0
VERTEX
  8
0
 62
4
 10
-6.79934951E+01
 20
3.32483214E+02
  0
VERTEX
  8
0
 62
4
 10
-6.83007009E+01
 20
3.32414901E+02
  0
VERTEX
  8
0
 62
4
 10
-6.85934085E+01
 20
3.32334149E+02
  0
VERTEX
  8
0
 62
4
 10
-6.88692612E+01
 20
3.32241606E+02
  0
VERTEX
  8
0
 62
4
 10
-6.91260380E+01
 20
3.32138017E+02
  0
VERTEX
  8
0
 62
4
 10
-6.93616716E+01
 20
3.32024218E+02
  0
VERTEX
  8
0
 62
4
 10
-6.95742646E+01
 20
3.31901123E+02
  0
VERTEX
  8
0
 62
4
 10
-6.97621054E+01
 20
3.31769725E+02
  0
VERTEX
  8
0
 62
4
 10
-6.99236817E+01
 20
3.31631081E+02
  0
VERTEX
  8
0
 62
4
 10
-7.00576925E+01
 20
3.31486307E+02
  0
VERTEX
  8
0
 62
4
 10
-7.01630589E+01
 20
3.31336569E+02
  0
VERTEX
  8
0
 62
4
 10
-7.02389324E+01
 20
3.31183073E+02
  0
VERTEX
  8
0
 62
4
 10
-7.02847023E+01
 20
3.31027054E+02
  0
VERTEX
  8
0
 62
4
 10
-7.03000000E+01
 20
3.30869769E+02
  0
SEQEND
  8
0
  0
POLYLINE
  8
0
 62
4
 66
1
  0
VERTEX
  8
0
 62
4
 10
-6.31000000E+01
 20
3.29199146E+02
  0
VERTEX
  8
0
 62
4
 10
-6.29634183E+01
 20
3.29340847E+02
  0
VERTEX
  8
0
 62
4
 10
-6.28544705E+01
 20
3.29487564E+02
  0
VERTEX
  8
0
 62
4
 10
-6.27740077E+01
 20
3.29638151E+02
  0
VERTEX
  8
0
 62
4
 10
-6.27226587E+01
 20
3.29791430E+02
  0
VERTEX
  8
0
 62
4
 10
-6.27008247E+01
 20
3.29946204E+02
  0
VERTEX
  8
0
 62
4
 10
-6.27086764E+01
 20
3.30101263E+02
  0
VERTEX
  8
0
 62
4
 10
-6.27461524E+01
 20
3.30255397E+02
  0
VERTEX
  8
0
 62
4
 10
-6.28129598E+01
 20
3.30407401E+02
  0
VERTEX
  8
0
 62
4
 10
-6.29085766E+01
 20
3.30556086E+02
  0
VERTEX
  8
0
 62
4
 10
-6.30322558E+01
 20
3.30700292E+02
  0
VERTEX
  8
0
 62
4
 10
-6.31830309E+01
 20
3.30838891E+02
  0
VERTEX
  8
0
 62
4
 10
-6.33597238E+01
 20
3.30970800E+02
  0
VERTEX
  8
0
 62
4
 10
-6.35609538E+01
 20
3.31094989E+02
  0
VERTEX
  8
0
 62
4
 10
-6.37851488E+01
 20
3.31210488E+02
  0
VERTEX
  8
0
 62
4
 10
-6.40305567E+01
 20
3.31316393E+02
  0
VERTEX
  8
0
 62
4
 10
-6.42952602E+01
 20
3.31411878E+02
  0
VERTEX
  8
0
 62
4
 10
-6.45771908E+01
 20
3.31496196E+02
  0
VERTEX
  8
0
 62
4
 10
-6.48741457E+01
 20
3.31568689E+02
  0
VERTEX
  8
0
 62
4
 10
-6.51838046E+01
 20
3.31628789E+02
  0
VERTEX
  8
0
 62
4
 10
-6.55037478E+01
 20
3.31676028E+02
  0
VERTEX
  8
0
 62
4
 10
-6.58314754E+01
 20
3.31710037E+02
  0
VERTEX
  8
0
 62
4
 10
-6.61644267E+01
 20
3.31730549E+02
  0
VERTEX
  8
0
 62
4
 10
-6.65000000E+01
 20
3.31737404E+02
  0
VERTEX
  8
0
 62
4
 10
-6.68355734E+01
 20
3.31730549E+02
  0
VERTEX
  8
0
 62
4
 10
-6.71685246E+01
 20
3.31710037E+02
  0
VERTEX
  8
0
 62
4
 10
-6.74962523E+01
 20
3.31676028E+02
  0
VERTEX
  8
0
 62
4
 10
-6.78161955E+01
 20
3.31628789E+02
  0
VERTEX
  8
0
 62
4
 10
-6.81258543E+01
 20
3.31568689E+02
  0
VERTEX
  8
0
 62
4
 10
-6.84228092E+01
 20
3.31496196E+02
  0
VERTEX
  8
0
 62
4
 10
-6.87047398E+01
 20
3.31411878E+02
  0
VERTEX
  8
0
 62
4
 10
-6.89694433E+01
 20
3.31316393E+02
  0
VERTEX
  8
0
 62
4
 10
-6.92148513E+01
 20
3.31210488E+02
  0
VERTEX
  8
0
 62
4
 10
-6.94390462E+01
 20
3.31094989E+02
  0
VERTEX
  8
0
 62
4
 10
-6.96402763E+01
 20
3.30970800E+02
  0
VERTEX
  8
0
 62
4
 10
-6.98169692E+01
 20
3.30838891E+02
  0
VERTEX
  8
0
 62
4
 10
-6.99677442E+01
 20
3.30700292E+02
  0
VERTEX
  8
0
 62
4
 10
-7.00914234E+01
 20
3.30556086E+02
  0
VERTEX
  8
0
 62
4
 10
-7.01870402E+01
 20
3.30407401E+02
  0
VERTEX
  8
0
 62
4
 10
-7.02538476E+01
 20
3.30255397E+02
  0
VERTEX
  8
0
 62
4
 10
-7.02913236E+01
 20
3.30101263E+02
  0
VERTEX
  8
0
 62
4
 10
-7.02991753E+01
 20
3.29946204E+02
  0
VERTEX
  8
0
 62
4
 10
-7.02773413E+01
 20
3.29791430E+02
  0
VERTEX
  8
0
 62
4
 10
-7.02259923E+01
 20
3.29638151E+02
  0
VERTEX
  8
0
 62
4
 10
-7.01455295E+01
 20
3.29487564E+02
  0
VERTEX
  8
0
 62
4
 10
-7.00365817E+01
 20
3.29340847E+02
  0
VERTEX
  8
0
 62
4
 10
-6.99000000E+01
 20
3.29199146E+02
  0
SEQEND
  8
0
  0
LINE
  8
0
 62
4
 10
-6.99000000E+01
 20
3.28979725E+02
 11
-6.99000000E+01
 21
3.29982759E+02
  0
LINE
  8
0
 62
4
 10
-6.31000000E+01
 20
3.28979725E+02
 11
-6.31000000E+01
 21
3.29982759E+02
  0
POLYLINE
  8
0
 62
4
 66
1
  0
VERTEX
  8
0
 62
4
 10
-6.31000000E+01
 20
3.29982759E+02
  0
VERTEX
  8
0
 62
4
 10
-6.31136874E+01
 20
3.30123488E+02
  0
VERTEX
  8
0
 62
4
 10
-6.31546394E+01
 20
3.30263084E+02
  0
VERTEX
  8
0
 62
4
 10
-6.32225263E+01
 20
3.30400422E+02
  0
VERTEX
  8
0
 62
4
 10
-6.33168014E+01
 20
3.30534398E+02
  0
VERTEX
  8
0
 62
4
 10
-6.34367058E+01
 20
3.30663933E+02
  0
VERTEX
  8
0
 62
4
 10
-6.35812741E+01
 20
3.30787983E+02
  0
VERTEX
  8
0
 62
4
 10
-6.37493422E+01
 20
3.30905550E+02
  0
VERTEX
  8
0
 62
4
 10
-6.39395570E+01
 20
3.31015687E+02
  0
VERTEX
  8
0
 62
4
 10
-6.41503870E+01
 20
3.31117507E+02
  0
VERTEX
  8
0
 62
4
 10
-6.43801347E+01
 20
3.31210192E+02
  0
VERTEX
  8
0
 62
4
 10
-6.46269502E+01
 20
3.31292993E+02
  0
VERTEX
  8
0
 62
4
 10
-6.48888465E+01
 20
3.31365246E+02
  0
VERTEX
  8
0
 62
4
 10
-6.51637149E+01
 20
3.31426367E+02
  0
VERTEX
  8
0
 62
4
 10
-6.54493422E+01
 20
3.31475866E+02
  0
VERTEX
  8
0
 62
4
 10
-6.57434288E+01
 20
3.31513342E+02
  0
VERTEX
  8
0
 62
4
 10
-6.60436069E+01
 20
3.31538496E+02
  0
VERTEX
  8
0
 62
4
 10
-6.63474596E+01
 20
3.31551123E+02
  0
VERTEX
  8
0
 62
4
 10
-6.66525404E+01
 20
3.31551123E+02
  0
VERTEX
  8
0
 62
4
 10
-6.69563931E+01
 20
3.31538496E+02
  0
VERTEX
  8
0
 62
4
 10
-6.72565712E+01
 20
3.31513342E+02
  0
VERTEX
  8
0
 62
4
 10
-6.75506578E+01
 20
3.31475866E+02
  0
VERTEX
  8
0
 62
4
 10
-6.78362851E+01
 20
3.31426367E+02
  0
VERTEX
  8
0
 62
4
 10
-6.81111534E+01
 20
3.31365246E+02
  0
VERTEX
  8
0
 62
4
 10
-6.83730497E+01
 20
3.31292993E+02
  0
VERTEX
  8
0
 62
4
 10
-6.86198653E+01
 20
3.31210192E+02
  0
VERTEX
  8
0
 62
4
 10
-6.88496130E+01
 20
3.31117507E+02
  0
VERTEX
  8
0
 62
4
 10
-6.90604430E+01
 20
3.31015687E+02
  0
VERTEX
  8
0
 62
4
 10
-6.92506578E+01
 20
3.30905550E+02
  0
VERTEX
  8
0
 62
4
 10
-6.94187259E+01
 20
3.30787983E+02
  0
VERTEX
  8
0
 62
4
 10
-6.95632941E+01
 20
3.30663933E+02
  0
VERTEX
  8
0
 62
4
 10
-6.96831986E+01
 20
3.30534398E+02
  0
VERTEX
  8
0
 62
4
 10
-6.97774737E+01
 20
3.30400422E+02
  0
VERTEX
  8
0
 62
4
 10
-6.98453606E+01
 20
3.30263084E+02
  0
VERTEX
  8
0
 62
4
 10
-6.98863126E+01
 20
3.30123488E+02
  0
VERTEX
  8
0
 62
4
 10
-6.99000000E+01
 20
3.29982759E+02
  0
SEQEND
  8
0
  0
POLYLINE
  8
0
 62
4
 66
1
  0
VERTEX
  8
0
 62
4
 10
-6.32933854E+01
 20
3.28457801E+02
  0
VERTEX
  8
0
 62
4
 10
-6.32057600E+01
 20
3.28591202E+02
  0
VERTEX
  8
0
 62
4
 10
-6.31441075E+01
 20
3.28727665E+02
  0
VERTEX
  8
0
 62
4
 10
-6.31089140E+01
 20
3.28866116E+02
  0
VERTEX
  8
0
 62
4
 10
-6.31004569E+01
 20
3.29005463E+02
  0
VERTEX
  8
0
 62
4
 10
-6.31188030E+01
 20
3.29144607E+02
  0
VERTEX
  8
0
 62
4
 10
-6.31638075E+01
 20
3.29282450E+02
  0
VERTEX
  8
0
 62
4
 10
-6.32351156E+01
 20
3.29417907E+02
  0
VERTEX
  8
0
 62
4
 10
-6.33321652E+01
 20
3.29549909E+02
  0
VERTEX
  8
0
 62
4
 10
-6.34541911E+01
 20
3.29677416E+02
  0
VERTEX
  8
0
 62
4
 10
-6.36002311E+01
 20
3.29799422E+02
  0
VERTEX
  8
0
 62
4
 10
-6.37691338E+01
 20
3.29914965E+02
  0
VERTEX
  8
0
 62
4
 10
-6.39595676E+01
 20
3.30023134E+02
  0
VERTEX
  8
0
 62
4
 10
-6.41700310E+01
 20
3.30123077E+02
  0
VERTEX
  8
0
 62
4
 10
-6.43988646E+01
 20
3.30214005E+02
  0
VERTEX
  8
0
 62
4
 10
-6.46442643E+01
 20
3.30295202E+02
  0
VERTEX
  8
0
 62
4
 10
-6.49042952E+01
 20
3.30366027E+02
  0
VERTEX
  8
0
 62
4
 10
-6.51769072E+01
 20
3.30425922E+02
  0
VERTEX
  8
0
 62
4
 10
-6.54599508E+01
 20
3.30474414E+02
  0
VERTEX
  8
0
 62
4
 10
-6.57511946E+01
 20
3.30511122E+02
  0
VERTEX
  8
0
 62
4
 10
-6.60483422E+01
 20
3.30535757E+02
  0
VERTEX
  8
0
 62
4
 10
-6.63490508E+01
 20
3.30548122E+02
  0
VERTEX
  8
0
 62
4
 10
-6.66509496E+01
 20
3.30548122E+02
  0
VERTEX
  8
0
 62
4
 10
-6.69516582E+01
 20
3.30535756E+02
  0
VERTEX
  8
0
 62
4
 10
-6.72488058E+01
 20
3.30511122E+02
  0
VERTEX
  8
0
 62
4
 10
-6.75400495E+01
 20
3.30474414E+02
  0
VERTEX
  8
0
 62
4
 10
-6.78230932E+01
 20
3.30425922E+02
  0
VERTEX
  8
0
 62
4
 10
-6.80957051E+01
 20
3.30366027E+02
  0
VERTEX
  8
0
 62
4
 10
-6.83557360E+01
 20
3.30295202E+02
  0
VERTEX
  8
0
 62
4
 10
-6.86011357E+01
 20
3.30214005E+02
  0
VERTEX
  8
0
 62
4
 10
-6.88299693E+01
 20
3.30123077E+02
  0
VERTEX
  8
0
 62
4
 10
-6.90404327E+01
 20
3.30023134E+02
  0
VERTEX
  8
0
 62
4
 10
-6.92308664E+01
 20
3.29914965E+02
  0
VERTEX
  8
0
 62
4
 10
-6.93997691E+01
 20
3.29799422E+02
  0
VERTEX
  8
0
 62
4
 10
-6.95458091E+01
 20
3.29677416E+02
  0
VERTEX
  8
0
 62
4
 10
-6.96678349E+01
 20
3.29549909E+02
  0
VERTEX
  8
0
 62
4
 10
-6.97648845E+01
 20
3.29417907E+02
  0
VERTEX
  8
0
 62
4
 10
-6.98361926E+01
 20
3.29282450E+02
  0
VERTEX
  8
0
 62
4
 10
-6.98811971E+01
 20
3.29144606E+02
  0
VERTEX
  8
0
 62
4
 10
-6.98995431E+01
 20
3.29005463E+02
  0
VERTEX
  8
0
 62
4
 10
-6.98910860E+01
 20
3.28866116E+02
  0
VERTEX
  8
0
 62
4
 10
-6.98558924E+01
 20
3.28727665E+02
  0
VERTEX
  8
0
 62
4
 10
-6.97942399E+01
 20
3.28591202E+02
  0
VERTEX
  8
0
 62
4
 10
-6.97066145E+01
 20
3.28457801E+02
  0
SEQEND
  8
0
  0
ARC
  8
0
 62
4
 10
-6.65000000E+01
 20
3.30905713E+02
 40
4.03418497E+00
 50
2.17357913E+02
 51
3.22642090E+02
  0
ARC
  8
0
 62
4
 10
-6.91675281E+01
 20
3.33060146E+02
 40
5.85028287E+00
 50
2.78847084E+02
 51
3.19299921E+02
  0
ARC
  8
0
 62
4
 10
-6.38324719E+01
 20
3.33060146E+02
 40
5.85028287E+00
 50
2.20700079E+02
 51
2.61152916E+02
  0
LINE
  8
0
 62
4
 10
-6.98500000E+01
 20
3.27737176E+02
 11
-6.89970030E+01
 21
3.27737176E+02
  0
LINE
  8
0
 62
4
 10
-6.35579578E+01
 20
3.28145453E+02
 11
-5.90000000E+01
 21
3.28145453E+02
  0
LINE
  8
0
 62
4
 10
-6.98500000E+01
 20
3.28145453E+02
 11
-6.94420422E+01
 21
3.28145453E+02
  0
LINE
  8
0
  6
CENTER
 62
6
 10
-7.40000000E+01
 20
3.30771703E+02
 11
-7.40000000E+01
 21
3.27771703E+02
  0
LINE
  8
0
  6
CENTER
 62
6
 10
-7.55000000E+01
 20
3.29271703E+02
 11
-7.25000000E+01
 21
3.29271703E+02
  0
LINE
  8
0
  6
CENTER
 62
6
 10
-6.65000000E+01
 20
3.32369769E+02
 11
-6.65000000E+01
 21
3.29369769E+02
  0
LINE
  8
0
  6
CENTER
 62
6
 10
-6.80000000E+01
 20
3.30869769E+02
 11
-6.50000000E+01
 21
3.30869769E+02
  0
LINE
  8
0
 62
4
 10
-7.13255466E+01
 20
3.25890182E+02
 11
-6.55000000E+01
 21
3.25890182E+02
  0
LINE
  8
0
 62
4
 10
-7.25517546E+01
 20
3.25559660E+02
 11
-5.90000000E+01
 21
3.25559660E+02
  0
LINE
  8
0
 62
6
 10
-3.82679491E+01
 20
2.65412300E+02
 11
-4.17320508E+01
 21
2.59412300E+02
  0
LINE
  8
0
 62
4
 10
-3.00000000E+01
 20
2.63912299E+02
 11
-3.91339746E+01
 21
2.63912299E+02
  0
LINE
  8
0
  6
CENTER
 62
6
 10
5.00000003E+00
 20
2.62412299E+02
 11
-4.20000000E+01
 21
2.62412299E+02
  0
LINE
  8
0
 62
4
 10
-3.00000000E+01
 20
2.60912299E+02
 11
-4.08660254E+01
 21
2.60912299E+02
  0
LINE
  8
0
 62
7
 10
-2.45000000E+01
 20
2.29000000E+02
 11
-2.05000000E+01
 21
2.29000000E+02
  0
LINE
  8
0
 62
4
 10
-2.35000000E+01
 20
2.65109818E+02
 11
-2.35000000E+01
 21
2.64002567E+02
  0
LINE
  8
0
 62
4
 10
1.96507699E-10
 20
2.58052362E+02
 11
-3.00000000E+01
 21
2.58052362E+02
  0
LINE
  8
0
  6
CENTER
 62
6
 10
-7.50000000E+00
 20
2.58630231E+02
 11
-7.50000000E+00
 21
2.61630231E+02
  0
LINE
  8
0
  6
CENTER
 62
6
 10
-1.85000000E+01
 20
2.25174345E+02
 11
-1.85000000E+01
 21
2.32686613E+02
  0
LINE
  8
0
  6
CENTER
 62
6
 10
-2.65000000E+01
 20
2.25174345E+02
 11
-2.65000000E+01
 21
2.32686613E+02
  0
LINE
  8
0
 62
4
 10
1.96507699E-10
 20
2.48916150E+02
 11
1.96507699E-10
 21
2.62854547E+02
  0
LINE
  8
0
 62
4
 10
-3.00000000E+01
 20
2.30939924E+02
 11
-3.00000000E+01
 21
2.65440340E+02
  0
LINE
  8
0
 62
4
 10
-1.50000000E+01
 20
2.30939924E+02
 11
-1.50000000E+01
 21
2.48916150E+02
  0
LINE
  8
0
 62
4
 10
2.35388598E-10
 20
2.48916150E+02
 11
-3.00000000E+01
 21
2.48916150E+02
  0
LINE
  8
0
 62
4
 10
-1.50000000E+01
 20
2.30939924E+02
 11
-3.00000000E+01
 21
2.30939924E+02
  0
LINE
  8
0
 62
4
 10
1.50000000E+00
 20
2.60883766E+02
 11
1.50000000E+00
 21
2.63938706E+02
  0
LINE
  8
0
 62
4
 10
-2.05000000E+01
 20
2.28607128E+02
 11
-2.05000000E+01
 21
2.30939924E+02
  0
LINE
  8
0
 62
4
 10
-1.65000000E+01
 20
2.28607128E+02
 11
-1.65000000E+01
 21
2.30939924E+02
  0
LINE
  8
0
 62
6
 10
-2.00000000E+01
 20
2.28320805E+02
 11
-2.00000000E+01
 21
2.30939924E+02
  0
LINE
  8
0
 62
6
 10
-1.70000000E+01
 20
2.28320805E+02
 11
-1.70000000E+01
 21
2.30939924E+02
  0
LINE
  8
0
 62
4
 10
-2.85000000E+01
 20
2.28607128E+02
 11
-2.85000000E+01
 21
2.30939924E+02
  0
LINE
  8
0
 62
4
 10
-2.45000000E+01
 20
2.28607128E+02
 11
-2.45000000E+01
 21
2.30939924E+02
  0
LINE
  8
0
 62
6
 10
-2.80000000E+01
 20
2.28320805E+02
 11
-2.80000000E+01
 21
2.30939924E+02
  0
LINE
  8
0
 62
6
 10
-2.50000000E+01
 20
2.28320805E+02
 11
-2.50000000E+01
 21
2.30939924E+02
  0
LINE
  8
0
 62
4
 10
1.96507699E-10
 20
2.65440340E+02
 11
-1.35517546E+01
 21
2.65440340E+02
  0
LINE
  8
0
  6
CENTER
 62
6
 10
-6.00000000E+00
 20
2.60130231E+02
 11
-9.00000000E+00
 21
2.60130231E+02
  0
LINE
  8
0
 62
4
 10
1.96507699E-10
 20
2.63262824E+02
 11
-1.08500000E+01
 21
2.63262824E+02
  0
LINE
  8
0
 62
4
 10
1.96507699E-10
 20
2.65109818E+02
 11
-1.23255466E+01
 21
2.65109818E+02
  0
LINE
  8
0
 62
4
 10
1.96507699E-10
 20
2.62854547E+02
 11
-1.08500000E+01
 21
2.62854547E+02
  0
LINE
  8
0
 62
4
 10
-2.35000000E+01
 20
2.64978591E+02
 11
-3.00000000E+01
 21
2.64978591E+02
  0
LINE
  8
0
 62
4
 10
1.96507699E-10
 20
2.59714781E+02
 11
1.50000000E+00
 21
2.60883766E+02
  0
LINE
  8
0
 62
4
 10
1.50000000E+00
 20
2.63938706E+02
 11
1.96507699E-10
 21
2.65109818E+02
  0
LINE
  8
0
 62
4
 10
1.50000000E+00
 20
2.62892846E+02
 11
1.96507699E-10
 21
2.63262824E+02
  0
LINE
  8
0
 62
4
 10
1.96507699E-10
 20
2.62854547E+02
 11
1.96507699E-10
 21
2.65109818E+02
  0
LINE
  8
0
 62
4
 10
1.96507699E-10
 20
2.65109818E+02
 11
1.96507699E-10
 21
2.65440340E+02
  0
POLYLINE
  8
0
 62
4
 66
1
  0
VERTEX
  8
0
 62
4
 10
-2.05000000E+01
 20
2.28607128E+02
  0
VERTEX
  8
0
 62
4
 10
-2.04919486E+01
 20
2.28568325E+02
  0
VERTEX
  8
0
 62
4
 10
-2.04678592E+01
 20
2.28529834E+02
  0
VERTEX
  8
0
 62
4
 10
-2.04279257E+01
 20
2.28491966E+02
  0
VERTEX
  8
0
 62
4
 10
-2.03724697E+01
 20
2.28455025E+02
  0
VERTEX
  8
0
 62
4
 10
-2.03019377E+01
 20
2.28419309E+02
  0
VERTEX
  8
0
 62
4
 10
-2.02168976E+01
 20
2.28385105E+02
  0
VERTEX
  8
0
 62
4
 10
-2.01180340E+01
 20
2.28352688E+02
  0
VERTEX
  8
0
 62
4
 10
-2.00061429E+01
 20
2.28322320E+02
  0
VERTEX
  8
0
 62
4
 10
-1.98821253E+01
 20
2.28294245E+02
  0
VERTEX
  8
0
 62
4
 10
-1.97469796E+01
 20
2.28268689E+02
  0
VERTEX
  8
0
 62
4
 10
-1.96017940E+01
 20
2.28245859E+02
  0
VERTEX
  8
0
 62
4
 10
-1.94477373E+01
 20
2.28225936E+02
  0
VERTEX
  8
0
 62
4
 10
-1.92860501E+01
 20
2.28209084E+02
  0
VERTEX
  8
0
 62
4
 10
-1.91180340E+01
 20
2.28195435E+02
  0
VERTEX
  8
0
 62
4
 10
-1.89450419E+01
 20
2.28185102E+02
  0
VERTEX
  8
0
 62
4
 10
-1.87684665E+01
 20
2.28178166E+02
  0
VERTEX
  8
0
 62
4
 10
-1.85897297E+01
 20
2.28174685E+02
  0
VERTEX
  8
0
 62
4
 10
-1.84102704E+01
 20
2.28174685E+02
  0
VERTEX
  8
0
 62
4
 10
-1.82315335E+01
 20
2.28178166E+02
  0
VERTEX
  8
0
 62
4
 10
-1.80549581E+01
 20
2.28185102E+02
  0
VERTEX
  8
0
 62
4
 10
-1.78819660E+01
 20
2.28195435E+02
  0
VERTEX
  8
0
 62
4
 10
-1.77139499E+01
 20
2.28209084E+02
  0
VERTEX
  8
0
 62
4
 10
-1.75522627E+01
 20
2.28225936E+02
  0
VERTEX
  8
0
 62
4
 10
-1.73982060E+01
 20
2.28245859E+02
  0
VERTEX
  8
0
 62
4
 10
-1.72530204E+01
 20
2.28268689E+02
  0
VERTEX
  8
0
 62
4
 10
-1.71178747E+01
 20
2.28294245E+02
  0
VERTEX
  8
0
 62
4
 10
-1.69938571E+01
 20
2.28322320E+02
  0
VERTEX
  8
0
 62
4
 10
-1.68819660E+01
 20
2.28352688E+02
  0
VERTEX
  8
0
 62
4
 10
-1.67831024E+01
 20
2.28385105E+02
  0
VERTEX
  8
0
 62
4
 10
-1.66980623E+01
 20
2.28419309E+02
  0
VERTEX
  8
0
 62
4
 10
-1.66275303E+01
 20
2.28455025E+02
  0
VERTEX
  8
0
 62
4
 10
-1.65720743E+01
 20
2.28491966E+02
  0
VERTEX
  8
0
 62
4
 10
-1.65321408E+01
 20
2.28529834E+02
  0
VERTEX
  8
0
 62
4
 10
-1.65080514E+01
 20
2.28568325E+02
  0
VERTEX
  8
0
 62
4
 10
-1.65000000E+01
 20
2.28607128E+02
  0
SEQEND
  8
0
  0
POLYLINE
  8
0
 62
4
 66
1
  0
VERTEX
  8
0
 62
4
 10
-2.85000000E+01
 20
2.28607128E+02
  0
VERTEX
  8
0
 62
4
 10
-2.84919486E+01
 20
2.28568325E+02
  0
VERTEX
  8
0
 62
4
 10
-2.84678592E+01
 20
2.28529834E+02
  0
VERTEX
  8
0
 62
4
 10
-2.84279257E+01
 20
2.28491966E+02
  0
VERTEX
  8
0
 62
4
 10
-2.83724697E+01
 20
2.28455025E+02
  0
VERTEX
  8
0
 62
4
 10
-2.83019377E+01
 20
2.28419309E+02
  0
VERTEX
  8
0
 62
4
 10
-2.82168976E+01
 20
2.28385105E+02
  0
VERTEX
  8
0
 62
4
 10
-2.81180340E+01
 20
2.28352688E+02
  0
VERTEX
  8
0
 62
4
 10
-2.80061429E+01
 20
2.28322320E+02
  0
VERTEX
  8
0
 62
4
 10
-2.78821253E+01
 20
2.28294245E+02
  0
VERTEX
  8
0
 62
4
 10
-2.77469796E+01
 20
2.28268689E+02
  0
VERTEX
  8
0
 62
4
 10
-2.76017940E+01
 20
2.28245859E+02
  0
VERTEX
  8
0
 62
4
 10
-2.74477373E+01
 20
2.28225936E+02
  0
VERTEX
  8
0
 62
4
 10
-2.72860501E+01
 20
2.28209084E+02
  0
VERTEX
  8
0
 62
4
 10
-2.71180340E+01
 20
2.28195435E+02
  0
VERTEX
  8
0
 62
4
 10
-2.69450419E+01
 20
2.28185102E+02
  0
VERTEX
  8
0
 62
4
 10
-2.67684665E+01
 20
2.28178166E+02
  0
VERTEX
  8
0
 62
4
 10
-2.65897297E+01
 20
2.28174685E+02
  0
VERTEX
  8
0
 62
4
 10
-2.64102704E+01
 20
2.28174685E+02
  0
VERTEX
  8
0
 62
4
 10
-2.62315335E+01
 20
2.28178166E+02
  0
VERTEX
  8
0
 62
4
 10
-2.60549581E+01
 20
2.28185102E+02
  0
VERTEX
  8
0
 62
4
 10
-2.58819660E+01
 20
2.28195435E+02
  0
VERTEX
  8
0
 62
4
 10
-2.57139499E+01
 20
2.28209084E+02
  0
VERTEX
  8
0
 62
4
 10
-2.55522627E+01
 20
2.28225936E+02
  0
VERTEX
  8
0
 62
4
 10
-2.53982060E+01
 20
2.28245859E+02
  0
VERTEX
  8
0
 62
4
 10
-2.52530204E+01
 20
2.28268689E+02
  0
VERTEX
  8
0
 62
4
 10
-2.51178747E+01
 20
2.28294245E+02
  0
VERTEX
  8
0
 62
4
 10
-2.49938571E+01
 20
2.28322320E+02
  0
VERTEX
  8
0
 62
4
 10
-2.48819660E+01
 20
2.28352688E+02
  0
VERTEX
  8
0
 62
4
 10
-2.47831024E+01
 20
2.28385105E+02
  0
VERTEX
  8
0
 62
4
 10
-2.46980623E+01
 20
2.28419309E+02
  0
VERTEX
  8
0
 62
4
 10
-2.46275303E+01
 20
2.28455025E+02
  0
VERTEX
  8
0
 62
4
 10
-2.45720743E+01
 20
2.28491966E+02
  0
VERTEX
  8
0
 62
4
 10
-2.45321408E+01
 20
2.28529834E+02
  0
VERTEX
  8
0
 62
4
 10
-2.45080514E+01
 20
2.28568325E+02
  0
VERTEX
  8
0
 62
4
 10
-2.45000000E+01
 20
2.28607128E+02
  0
SEQEND
  8
0
  0
POLYLINE
  8
0
 62
4
 66
1
  0
VERTEX
  8
0
 62
4
 10
-1.89720101E+01
 20
2.61528233E+02
  0
VERTEX
  8
0
 62
4
 10
-1.89151040E+01
 20
2.61367841E+02
  0
VERTEX
  8
0
 62
4
 10
-1.88278811E+01
 20
2.61210379E+02
  0
VERTEX
  8
0
 62
4
 10
-1.87110168E+01
 20
2.61057068E+02
  0
VERTEX
  8
0
 62
4
 10
-1.85654160E+01
 20
2.60909094E+02
  0
VERTEX
  8
0
 62
4
 10
-1.83922063E+01
 20
2.60767603E+02
  0
VERTEX
  8
0
 62
4
 10
-1.81927288E+01
 20
2.60633692E+02
  0
VERTEX
  8
0
 62
4
 10
-1.79685283E+01
 20
2.60508396E+02
  0
VERTEX
  8
0
 62
4
 10
-1.77213408E+01
 20
2.60392687E+02
  0
VERTEX
  8
0
 62
4
 10
-1.74530805E+01
 20
2.60287459E+02
  0
VERTEX
  8
0
 62
4
 10
-1.71658246E+01
 20
2.60193529E+02
  0
VERTEX
  8
0
 62
4
 10
-1.68617976E+01
 20
2.60111623E+02
  0
VERTEX
  8
0
 62
4
 10
-1.65433536E+01
 20
2.60042376E+02
  0
VERTEX
  8
0
 62
4
 10
-1.62129586E+01
 20
2.59986324E+02
  0
VERTEX
  8
0
 62
4
 10
-1.58731710E+01
 20
2.59943900E+02
  0
VERTEX
  8
0
 62
4
 10
-1.55266219E+01
 20
2.59915434E+02
  0
VERTEX
  8
0
 62
4
 10
-1.51759949E+01
 20
2.59901145E+02
  0
VERTEX
  8
0
 62
4
 10
-1.48240051E+01
 20
2.59901145E+02
  0
VERTEX
  8
0
 62
4
 10
-1.44733781E+01
 20
2.59915434E+02
  0
VERTEX
  8
0
 62
4
 10
-1.41268290E+01
 20
2.59943900E+02
  0
VERTEX
  8
0
 62
4
 10
-1.37870414E+01
 20
2.59986324E+02
  0
VERTEX
  8
0
 62
4
 10
-1.34566464E+01
 20
2.60042376E+02
  0
VERTEX
  8
0
 62
4
 10
-1.31382024E+01
 20
2.60111623E+02
  0
VERTEX
  8
0
 62
4
 10
-1.28341754E+01
 20
2.60193529E+02
  0
VERTEX
  8
0
 62
4
 10
-1.25469195E+01
 20
2.60287459E+02
  0
VERTEX
  8
0
 62
4
 10
-1.22786592E+01
 20
2.60392687E+02
  0
VERTEX
  8
0
 62
4
 10
-1.20314717E+01
 20
2.60508396E+02
  0
VERTEX
  8
0
 62
4
 10
-1.18072712E+01
 20
2.60633692E+02
  0
VERTEX
  8
0
 62
4
 10
-1.16077937E+01
 20
2.60767603E+02
  0
VERTEX
  8
0
 62
4
 10
-1.14345840E+01
 20
2.60909094E+02
  0
VERTEX
  8
0
 62
4
 10
-1.12889832E+01
 20
2.61057068E+02
  0
VERTEX
  8
0
 62
4
 10
-1.11721189E+01
 20
2.61210379E+02
  0
VERTEX
  8
0
 62
4
 10
-1.10848960E+01
 20
2.61367841E+02
  0
VERTEX
  8
0
 62
4
 10
-1.10279899E+01
 20
2.61528233E+02
  0
SEQEND
  8
0
  0
LINE
  8
0
 62
4
 10
-1.08500000E+01
 20
2.62083415E+02
 11
-1.08500000E+01
 21
2.63644554E+02
  0
LINE
  8
0
 62
4
 10
-1.91500000E+01
 20
2.62083415E+02
 11
-1.91500000E+01
 21
2.63644554E+02
  0
POLYLINE
  8
0
 62
4
 66
1
  0
VERTEX
  8
0
 62
4
 10
-1.08500000E+01
 20
2.63644554E+02
  0
VERTEX
  8
0
 62
4
 10
-1.08657920E+01
 20
2.63811567E+02
  0
VERTEX
  8
0
 62
4
 10
-1.09130478E+01
 20
2.63977308E+02
  0
VERTEX
  8
0
 62
4
 10
-1.09914078E+01
 20
2.64140518E+02
  0
VERTEX
  8
0
 62
4
 10
-1.11002756E+01
 20
2.64299952E+02
  0
VERTEX
  8
0
 62
4
 10
-1.12388227E+01
 20
2.64454399E+02
  0
VERTEX
  8
0
 62
4
 10
-1.14059946E+01
 20
2.64602682E+02
  0
VERTEX
  8
0
 62
4
 10
-1.16005190E+01
 20
2.64743674E+02
  0
VERTEX
  8
0
 62
4
 10
-1.18209156E+01
 20
2.64876300E+02
  0
VERTEX
  8
0
 62
4
 10
-1.20655069E+01
 20
2.64999552E+02
  0
VERTEX
  8
0
 62
4
 10
-1.23324314E+01
 20
2.65112492E+02
  0
VERTEX
  8
0
 62
4
 10
-1.26196578E+01
 20
2.65214260E+02
  0
VERTEX
  8
0
 62
4
 10
-1.29250000E+01
 20
2.65304081E+02
  0
VERTEX
  8
0
 62
4
 10
-1.32461342E+01
 20
2.65381272E+02
  0
VERTEX
  8
0
 62
4
 10
-1.35806164E+01
 20
2.65445246E+02
  0
VERTEX
  8
0
 62
4
 10
-1.39259010E+01
 20
2.65495516E+02
  0
VERTEX
  8
0
 62
4
 10
-1.42793601E+01
 20
2.65531698E+02
  0
VERTEX
  8
0
 62
4
 10
-1.46383037E+01
 20
2.65553519E+02
  0
VERTEX
  8
0
 62
4
 10
-1.50000000E+01
 20
2.65560811E+02
  0
VERTEX
  8
0
 62
4
 10
-1.53616963E+01
 20
2.65553519E+02
  0
VERTEX
  8
0
 62
4
 10
-1.57206399E+01
 20
2.65531698E+02
  0
VERTEX
  8
0
 62
4
 10
-1.60740990E+01
 20
2.65495516E+02
  0
VERTEX
  8
0
 62
4
 10
-1.64193836E+01
 20
2.65445246E+02
  0
VERTEX
  8
0
 62
4
 10
-1.67538658E+01
 20
2.65381272E+02
  0
VERTEX
  8
0
 62
4
 10
-1.70750000E+01
 20
2.65304081E+02
  0
VERTEX
  8
0
 62
4
 10
-1.73803422E+01
 20
2.65214260E+02
  0
VERTEX
  8
0
 62
4
 10
-1.76675686E+01
 20
2.65112492E+02
  0
VERTEX
  8
0
 62
4
 10
-1.79344931E+01
 20
2.64999552E+02
  0
VERTEX
  8
0
 62
4
 10
-1.81790844E+01
 20
2.64876300E+02
  0
VERTEX
  8
0
 62
4
 10
-1.83994810E+01
 20
2.64743674E+02
  0
VERTEX
  8
0
 62
4
 10
-1.85940054E+01
 20
2.64602682E+02
  0
VERTEX
  8
0
 62
4
 10
-1.87611773E+01
 20
2.64454399E+02
  0
VERTEX
  8
0
 62
4
 10
-1.88997244E+01
 20
2.64299952E+02
  0
VERTEX
  8
0
 62
4
 10
-1.90085922E+01
 20
2.64140518E+02
  0
VERTEX
  8
0
 62
4
 10
-1.90869522E+01
 20
2.63977308E+02
  0
VERTEX
  8
0
 62
4
 10
-1.91342080E+01
 20
2.63811567E+02
  0
VERTEX
  8
0
 62
4
 10
-1.91500000E+01
 20
2.63644554E+02
  0
VERTEX
  8
0
 62
4
 10
-1.91342080E+01
 20
2.63477541E+02
  0
VERTEX
  8
0
 62
4
 10
-1.90869522E+01
 20
2.63311800E+02
  0
VERTEX
  8
0
 62
4
 10
-1.90085922E+01
 20
2.63148590E+02
  0
VERTEX
  8
0
 62
4
 10
-1.88997244E+01
 20
2.62989156E+02
  0
VERTEX
  8
0
 62
4
 10
-1.87611773E+01
 20
2.62834709E+02
  0
VERTEX
  8
0
 62
4
 10
-1.85940054E+01
 20
2.62686426E+02
  0
VERTEX
  8
0
 62
4
 10
-1.83994810E+01
 20
2.62545434E+02
  0
VERTEX
  8
0
 62
4
 10
-1.81790844E+01
 20
2.62412808E+02
  0
VERTEX
  8
0
 62
4
 10
-1.79344931E+01
 20
2.62289556E+02
  0
VERTEX
  8
0
 62
4
 10
-1.76675686E+01
 20
2.62176616E+02
  0
VERTEX
  8
0
 62
4
 10
-1.73803422E+01
 20
2.62074848E+02
  0
VERTEX
  8
0
 62
4
 10
-1.70750000E+01
 20
2.61985027E+02
  0
VERTEX
  8
0
 62
4
 10
-1.67538658E+01
 20
2.61907836E+02
  0
VERTEX
  8
0
 62
4
 10
-1.64193836E+01
 20
2.61843862E+02
  0
VERTEX
  8
0
 62
4
 10
-1.60740990E+01
 20
2.61793592E+02
  0
VERTEX
  8
0
 62
4
 10
-1.57206399E+01
 20
2.61757410E+02
  0
VERTEX
  8
0
 62
4
 10
-1.53616963E+01
 20
2.61735589E+02
  0
VERTEX
  8
0
 62
4
 10
-1.50000000E+01
 20
2.61728297E+02
  0
VERTEX
  8
0
 62
4
 10
-1.46383037E+01
 20
2.61735589E+02
  0
VERTEX
  8
0
 62
4
 10
-1.42793601E+01
 20
2.61757410E+02
  0
VERTEX
  8
0
 62
4
 10
-1.39259010E+01
 20
2.61793592E+02
  0
VERTEX
  8
0
 62
4
 10
-1.35806164E+01
 20
2.61843862E+02
  0
VERTEX
  8
0
 62
4
 10
-1.32461342E+01
 20
2.61907836E+02
  0
VERTEX
  8
0
 62
4
 10
-1.29250000E+01
 20
2.61985027E+02
  0
VERTEX
  8
0
 62
4
 10
-1.26196578E+01
 20
2.62074848E+02
  0
VERTEX
  8
0
 62
4
 10
-1.23324314E+01
 20
2.62176616E+02
  0
VERTEX
  8
0
 62
4
 10
-1.20655069E+01
 20
2.62289556E+02
  0
VERTEX
  8
0
 62
4
 10
-1.18209156E+01
 20
2.62412808E+02
  0
VERTEX
  8
0
 62
4
 10
-1.16005190E+01
 20
2.62545434E+02
  0
VERTEX
  8
0
 62
4
 10
-1.14059946E+01
 20
2.62686426E+02
  0
VERTEX
  8
0
 62
4
 10
-1.12388227E+01
 20
2.62834709E+02
  0
VERTEX
  8
0
 62
4
 10
-1.11002756E+01
 20
2.62989156E+02
  0
VERTEX
  8
0
 62
4
 10
-1.09914078E+01
 20
2.63148590E+02
  0
VERTEX
  8
0
 62
4
 10
-1.09130478E+01
 20
2.63311800E+02
  0
VERTEX
  8
0
 62
4
 10
-1.08657920E+01
 20
2.63477541E+02
  0
VERTEX
  8
0
 62
4
 10
-1.08500000E+01
 20
2.63644554E+02
  0
SEQEND
  8
0
  0
POLYLINE
  8
0
 62
4
 66
1
  0
VERTEX
  8
0
 62
4
 10
-1.91500000E+01
 20
2.62083415E+02
  0
VERTEX
  8
0
 62
4
 10
-1.91332933E+01
 20
2.61911643E+02
  0
VERTEX
  8
0
 62
4
 10
-1.90833078E+01
 20
2.61741254E+02
  0
VERTEX
  8
0
 62
4
 10
-1.90004459E+01
 20
2.61573620E+02
  0
VERTEX
  8
0
 62
4
 10
-1.88853747E+01
 20
2.61410091E+02
  0
VERTEX
  8
0
 62
4
 10
-1.87390208E+01
 20
2.61251982E+02
  0
VERTEX
  8
0
 62
4
 10
-1.85625625E+01
 20
2.61100568E+02
  0
VERTEX
  8
0
 62
4
 10
-1.83574205E+01
 20
2.60957068E+02
  0
VERTEX
  8
0
 62
4
 10
-1.81252466E+01
 20
2.60822635E+02
  0
VERTEX
  8
0
 62
4
 10
-1.78679100E+01
 20
2.60698354E+02
  0
VERTEX
  8
0
 62
4
 10
-1.75874827E+01
 20
2.60585225E+02
  0
VERTEX
  8
0
 62
4
 10
-1.72862225E+01
 20
2.60484158E+02
  0
VERTEX
  8
0
 62
4
 10
-1.69665550E+01
 20
2.60395968E+02
  0
VERTEX
  8
0
 62
4
 10
-1.66310539E+01
 20
2.60321364E+02
  0
VERTEX
  8
0
 62
4
 10
-1.62824205E+01
 20
2.60260947E+02
  0
VERTEX
  8
0
 62
4
 10
-1.59234619E+01
 20
2.60215203E+02
  0
VERTEX
  8
0
 62
4
 10
-1.55570681E+01
 20
2.60184501E+02
  0
VERTEX
  8
0
 62
4
 10
-1.51861891E+01
 20
2.60169088E+02
  0
VERTEX
  8
0
 62
4
 10
-1.48138110E+01
 20
2.60169088E+02
  0
VERTEX
  8
0
 62
4
 10
-1.44429320E+01
 20
2.60184501E+02
  0
VERTEX
  8
0
 62
4
 10
-1.40765381E+01
 20
2.60215203E+02
  0
VERTEX
  8
0
 62
4
 10
-1.37175795E+01
 20
2.60260947E+02
  0
VERTEX
  8
0
 62
4
 10
-1.33689461E+01
 20
2.60321364E+02
  0
VERTEX
  8
0
 62
4
 10
-1.30334451E+01
 20
2.60395968E+02
  0
VERTEX
  8
0
 62
4
 10
-1.27137775E+01
 20
2.60484158E+02
  0
VERTEX
  8
0
 62
4
 10
-1.24125173E+01
 20
2.60585225E+02
  0
VERTEX
  8
0
 62
4
 10
-1.21320900E+01
 20
2.60698354E+02
  0
VERTEX
  8
0
 62
4
 10
-1.18747534E+01
 20
2.60822635E+02
  0
VERTEX
  8
0
 62
4
 10
-1.16425795E+01
 20
2.60957068E+02
  0
VERTEX
  8
0
 62
4
 10
-1.14374375E+01
 20
2.61100568E+02
  0
VERTEX
  8
0
 62
4
 10
-1.12609792E+01
 20
2.61251982E+02
  0
VERTEX
  8
0
 62
4
 10
-1.11146253E+01
 20
2.61410091E+02
  0
VERTEX
  8
0
 62
4
 10
-1.09995541E+01
 20
2.61573620E+02
  0
VERTEX
  8
0
 62
4
 10
-1.09166922E+01
 20
2.61741254E+02
  0
VERTEX
  8
0
 62
4
 10
-1.08667067E+01
 20
2.61911643E+02
  0
VERTEX
  8
0
 62
4
 10
-1.08500000E+01
 20
2.62083415E+02
  0
SEQEND
  8
0
  0
ARC
  8
0
 62
4
 10
-1.87314810E+01
 20
2.55975197E+02
 40
9.13527424E+00
 50
5.29881979E+01
 51
7.75868484E+01
  0
ARC
  8
0
 62
4
 10
-1.12685191E+01
 20
2.55975197E+02
 40
9.13527383E+00
 50
1.02413151E+02
 51
1.27011803E+02
  0
LINE
  8
0
 62
4
 10
-1.87000000E+01
 20
2.61017241E+02
 11
-1.87000000E+01
 21
2.60130231E+02
  0
LINE
  8
0
 62
4
 10
-2.63000000E+01
 20
2.61017241E+02
 11
-2.63000000E+01
 21
2.60130231E+02
  0
POLYLINE
  8
0
 62
4
 66
1
  0
VERTEX
  8
0
 62
4
 10
-2.63000000E+01
 20
2.60130231E+02
  0
VERTEX
  8
0
 62
4
 10
-2.62847023E+01
 20
2.59972946E+02
  0
VERTEX
  8
0
 62
4
 10
-2.62389324E+01
 20
2.59816927E+02
  0
VERTEX
  8
0
 62
4
 10
-2.61630589E+01
 20
2.59663431E+02
  0
VERTEX
  8
0
 62
4
 10
-2.60576925E+01
 20
2.59513693E+02
  0
VERTEX
  8
0
 62
4
 10
-2.59236817E+01
 20
2.59368919E+02
  0
VERTEX
  8
0
 62
4
 10
-2.57621054E+01
 20
2.59230275E+02
  0
VERTEX
  8
0
 62
4
 10
-2.55742646E+01
 20
2.59098877E+02
  0
VERTEX
  8
0
 62
4
 10
-2.53616716E+01
 20
2.58975782E+02
  0
VERTEX
  8
0
 62
4
 10
-2.51260381E+01
 20
2.58861983E+02
  0
VERTEX
  8
0
 62
4
 10
-2.48692613E+01
 20
2.58758395E+02
  0
VERTEX
  8
0
 62
4
 10
-2.45934085E+01
 20
2.58665851E+02
  0
VERTEX
  8
0
 62
4
 10
-2.43007009E+01
 20
2.58585099E+02
  0
VERTEX
  8
0
 62
4
 10
-2.39934951E+01
 20
2.58516786E+02
  0
VERTEX
  8
0
 62
4
 10
-2.36742646E+01
 20
2.58461465E+02
  0
VERTEX
  8
0
 62
4
 10
-2.33455796E+01
 20
2.58419579E+02
  0
VERTEX
  8
0
 62
4
 10
-2.30100864E+01
 20
2.58391466E+02
  0
VERTEX
  8
0
 62
4
 10
-2.26704864E+01
 20
2.58377353E+02
  0
VERTEX
  8
0
 62
4
 10
-2.23295137E+01
 20
2.58377353E+02
  0
VERTEX
  8
0
 62
4
 10
-2.19899136E+01
 20
2.58391466E+02
  0
VERTEX
  8
0
 62
4
 10
-2.16544205E+01
 20
2.58419579E+02
  0
VERTEX
  8
0
 62
4
 10
-2.13257354E+01
 20
2.58461465E+02
  0
VERTEX
  8
0
 62
4
 10
-2.10065049E+01
 20
2.58516786E+02
  0
VERTEX
  8
0
 62
4
 10
-2.06992991E+01
 20
2.58585099E+02
  0
VERTEX
  8
0
 62
4
 10
-2.04065915E+01
 20
2.58665851E+02
  0
VERTEX
  8
0
 62
4
 10
-2.01307388E+01
 20
2.58758395E+02
  0
VERTEX
  8
0
 62
4
 10
-1.98739620E+01
 20
2.58861983E+02
  0
VERTEX
  8
0
 62
4
 10
-1.96383284E+01
 20
2.58975782E+02
  0
VERTEX
  8
0
 62
4
 10
-1.94257354E+01
 20
2.59098877E+02
  0
VERTEX
  8
0
 62
4
 10
-1.92378946E+01
 20
2.59230275E+02
  0
VERTEX
  8
0
 62
4
 10
-1.90763183E+01
 20
2.59368919E+02
  0
VERTEX
  8
0
 62
4
 10
-1.89423075E+01
 20
2.59513693E+02
  0
VERTEX
  8
0
 62
4
 10
-1.88369411E+01
 20
2.59663431E+02
  0
VERTEX
  8
0
 62
4
 10
-1.87610676E+01
 20
2.59816927E+02
  0
VERTEX
  8
0
 62
4
 10
-1.87152977E+01
 20
2.59972946E+02
  0
VERTEX
  8
0
 62
4
 10
-1.87000000E+01
 20
2.60130231E+02
  0
SEQEND
  8
0
  0
POLYLINE
  8
0
 62
4
 66
1
  0
VERTEX
  8
0
 62
4
 10
-2.59000000E+01
 20
2.61800854E+02
  0
VERTEX
  8
0
 62
4
 10
-2.60365817E+01
 20
2.61659153E+02
  0
VERTEX
  8
0
 62
4
 10
-2.61455295E+01
 20
2.61512436E+02
  0
VERTEX
  8
0
 62
4
 10
-2.62259923E+01
 20
2.61361849E+02
  0
VERTEX
  8
0
 62
4
 10
-2.62773413E+01
 20
2.61208570E+02
  0
VERTEX
  8
0
 62
4
 10
-2.62991753E+01
 20
2.61053796E+02
  0
VERTEX
  8
0
 62
4
 10
-2.62913236E+01
 20
2.60898737E+02
  0
VERTEX
  8
0
 62
4
 10
-2.62538476E+01
 20
2.60744603E+02
  0
VERTEX
  8
0
 62
4
 10
-2.61870402E+01
 20
2.60592599E+02
  0
VERTEX
  8
0
 62
4
 10
-2.60914234E+01
 20
2.60443914E+02
  0
VERTEX
  8
0
 62
4
 10
-2.59677442E+01
 20
2.60299708E+02
  0
VERTEX
  8
0
 62
4
 10
-2.58169691E+01
 20
2.60161109E+02
  0
VERTEX
  8
0
 62
4
 10
-2.56402762E+01
 20
2.60029200E+02
  0
VERTEX
  8
0
 62
4
 10
-2.54390462E+01
 20
2.59905011E+02
  0
VERTEX
  8
0
 62
4
 10
-2.52148512E+01
 20
2.59789512E+02
  0
VERTEX
  8
0
 62
4
 10
-2.49694433E+01
 20
2.59683607E+02
  0
VERTEX
  8
0
 62
4
 10
-2.47047398E+01
 20
2.59588122E+02
  0
VERTEX
  8
0
 62
4
 10
-2.44228092E+01
 20
2.59503804E+02
  0
VERTEX
  8
0
 62
4
 10
-2.41258543E+01
 20
2.59431311E+02
  0
VERTEX
  8
0
 62
4
 10
-2.38161954E+01
 20
2.59371211E+02
  0
VERTEX
  8
0
 62
4
 10
-2.34962522E+01
 20
2.59323972E+02
  0
VERTEX
  8
0
 62
4
 10
-2.31685246E+01
 20
2.59289963E+02
  0
VERTEX
  8
0
 62
4
 10
-2.28355733E+01
 20
2.59269451E+02
  0
VERTEX
  8
0
 62
4
 10
-2.25000000E+01
 20
2.59262596E+02
  0
VERTEX
  8
0
 62
4
 10
-2.21644266E+01
 20
2.59269451E+02
  0
VERTEX
  8
0
 62
4
 10
-2.18314754E+01
 20
2.59289963E+02
  0
VERTEX
  8
0
 62
4
 10
-2.15037477E+01
 20
2.59323972E+02
  0
VERTEX
  8
0
 62
4
 10
-2.11838045E+01
 20
2.59371211E+02
  0
VERTEX
  8
0
 62
4
 10
-2.08741457E+01
 20
2.59431311E+02
  0
VERTEX
  8
0
 62
4
 10
-2.05771908E+01
 20
2.59503804E+02
  0
VERTEX
  8
0
 62
4
 10
-2.02952601E+01
 20
2.59588122E+02
  0
VERTEX
  8
0
 62
4
 10
-2.00305567E+01
 20
2.59683607E+02
  0
VERTEX
  8
0
 62
4
 10
-1.97851487E+01
 20
2.59789512E+02
  0
VERTEX
  8
0
 62
4
 10
-1.95609538E+01
 20
2.59905011E+02
  0
VERTEX
  8
0
 62
4
 10
-1.93597237E+01
 20
2.60029200E+02
  0
VERTEX
  8
0
 62
4
 10
-1.91830308E+01
 20
2.60161109E+02
  0
VERTEX
  8
0
 62
4
 10
-1.90322558E+01
 20
2.60299708E+02
  0
VERTEX
  8
0
 62
4
 10
-1.89085766E+01
 20
2.60443914E+02
  0
VERTEX
  8
0
 62
4
 10
-1.88129598E+01
 20
2.60592599E+02
  0
VERTEX
  8
0
 62
4
 10
-1.87461524E+01
 20
2.60744603E+02
  0
VERTEX
  8
0
 62
4
 10
-1.87086764E+01
 20
2.60898737E+02
  0
VERTEX
  8
0
 62
4
 10
-1.87008248E+01
 20
2.61053796E+02
  0
VERTEX
  8
0
 62
4
 10
-1.87226587E+01
 20
2.61208570E+02
  0
VERTEX
  8
0
 62
4
 10
-1.87740077E+01
 20
2.61361849E+02
  0
VERTEX
  8
0
 62
4
 10
-1.88544705E+01
 20
2.61512436E+02
  0
VERTEX
  8
0
 62
4
 10
-1.89634183E+01
 20
2.61659153E+02
  0
VERTEX
  8
0
 62
4
 10
-1.91000000E+01
 20
2.61800854E+02
  0
SEQEND
  8
0
  0
LINE
  8
0
 62
4
 10
-1.91000000E+01
 20
2.62020275E+02
 11
-1.91000000E+01
 21
2.61017241E+02
  0
LINE
  8
0
 62
4
 10
-2.59000000E+01
 20
2.62020275E+02
 11
-2.59000000E+01
 21
2.61017241E+02
  0
POLYLINE
  8
0
 62
4
 66
1
  0
VERTEX
  8
0
 62
4
 10
-2.59000000E+01
 20
2.61017241E+02
  0
VERTEX
  8
0
 62
4
 10
-2.58863126E+01
 20
2.60876512E+02
  0
VERTEX
  8
0
 62
4
 10
-2.58453606E+01
 20
2.60736916E+02
  0
VERTEX
  8
0
 62
4
 10
-2.57774737E+01
 20
2.60599578E+02
  0
VERTEX
  8
0
 62
4
 10
-2.56831986E+01
 20
2.60465602E+02
  0
VERTEX
  8
0
 62
4
 10
-2.55632942E+01
 20
2.60336067E+02
  0
VERTEX
  8
0
 62
4
 10
-2.54187259E+01
 20
2.60212017E+02
  0
VERTEX
  8
0
 62
4
 10
-2.52506578E+01
 20
2.60094450E+02
  0
VERTEX
  8
0
 62
4
 10
-2.50604430E+01
 20
2.59984313E+02
  0
VERTEX
  8
0
 62
4
 10
-2.48496130E+01
 20
2.59882493E+02
  0
VERTEX
  8
0
 62
4
 10
-2.46198653E+01
 20
2.59789808E+02
  0
VERTEX
  8
0
 62
4
 10
-2.43730498E+01
 20
2.59707007E+02
  0
VERTEX
  8
0
 62
4
 10
-2.41111535E+01
 20
2.59634754E+02
  0
VERTEX
  8
0
 62
4
 10
-2.38362851E+01
 20
2.59573633E+02
  0
VERTEX
  8
0
 62
4
 10
-2.35506578E+01
 20
2.59524134E+02
  0
VERTEX
  8
0
 62
4
 10
-2.32565712E+01
 20
2.59486658E+02
  0
VERTEX
  8
0
 62
4
 10
-2.29563931E+01
 20
2.59461504E+02
  0
VERTEX
  8
0
 62
4
 10
-2.26525404E+01
 20
2.59448877E+02
  0
VERTEX
  8
0
 62
4
 10
-2.23474596E+01
 20
2.59448877E+02
  0
VERTEX
  8
0
 62
4
 10
-2.20436069E+01
 20
2.59461504E+02
  0
VERTEX
  8
0
 62
4
 10
-2.17434288E+01
 20
2.59486658E+02
  0
VERTEX
  8
0
 62
4
 10
-2.14493422E+01
 20
2.59524134E+02
  0
VERTEX
  8
0
 62
4
 10
-2.11637149E+01
 20
2.59573633E+02
  0
VERTEX
  8
0
 62
4
 10
-2.08888466E+01
 20
2.59634754E+02
  0
VERTEX
  8
0
 62
4
 10
-2.06269503E+01
 20
2.59707007E+02
  0
VERTEX
  8
0
 62
4
 10
-2.03801347E+01
 20
2.59789808E+02
  0
VERTEX
  8
0
 62
4
 10
-2.01503870E+01
 20
2.59882493E+02
  0
VERTEX
  8
0
 62
4
 10
-1.99395570E+01
 20
2.59984313E+02
  0
VERTEX
  8
0
 62
4
 10
-1.97493422E+01
 20
2.60094450E+02
  0
VERTEX
  8
0
 62
4
 10
-1.95812741E+01
 20
2.60212017E+02
  0
VERTEX
  8
0
 62
4
 10
-1.94367059E+01
 20
2.60336067E+02
  0
VERTEX
  8
0
 62
4
 10
-1.93168014E+01
 20
2.60465602E+02
  0
VERTEX
  8
0
 62
4
 10
-1.92225263E+01
 20
2.60599578E+02
  0
VERTEX
  8
0
 62
4
 10
-1.91546394E+01
 20
2.60736916E+02
  0
VERTEX
  8
0
 62
4
 10
-1.91136874E+01
 20
2.60876512E+02
  0
VERTEX
  8
0
 62
4
 10
-1.91000000E+01
 20
2.61017241E+02
  0
SEQEND
  8
0
  0
POLYLINE
  8
0
 62
4
 66
1
  0
VERTEX
  8
0
 62
4
 10
-2.57066146E+01
 20
2.62542199E+02
  0
VERTEX
  8
0
 62
4
 10
-2.57942400E+01
 20
2.62408798E+02
  0
VERTEX
  8
0
 62
4
 10
-2.58558925E+01
 20
2.62272335E+02
  0
VERTEX
  8
0
 62
4
 10
-2.58910860E+01
 20
2.62133884E+02
  0
VERTEX
  8
0
 62
4
 10
-2.58995431E+01
 20
2.61994537E+02
  0
VERTEX
  8
0
 62
4
 10
-2.58811970E+01
 20
2.61855393E+02
  0
VERTEX
  8
0
 62
4
 10
-2.58361925E+01
 20
2.61717550E+02
  0
VERTEX
  8
0
 62
4
 10
-2.57648844E+01
 20
2.61582093E+02
  0
VERTEX
  8
0
 62
4
 10
-2.56678348E+01
 20
2.61450091E+02
  0
VERTEX
  8
0
 62
4
 10
-2.55458089E+01
 20
2.61322584E+02
  0
VERTEX
  8
0
 62
4
 10
-2.53997689E+01
 20
2.61200578E+02
  0
VERTEX
  8
0
 62
4
 10
-2.52308662E+01
 20
2.61085035E+02
  0
VERTEX
  8
0
 62
4
 10
-2.50404324E+01
 20
2.60976866E+02
  0
VERTEX
  8
0
 62
4
 10
-2.48299690E+01
 20
2.60876923E+02
  0
VERTEX
  8
0
 62
4
 10
-2.46011354E+01
 20
2.60785995E+02
  0
VERTEX
  8
0
 62
4
 10
-2.43557357E+01
 20
2.60704798E+02
  0
VERTEX
  8
0
 62
4
 10
-2.40957048E+01
 20
2.60633973E+02
  0
VERTEX
  8
0
 62
4
 10
-2.38230928E+01
 20
2.60574078E+02
  0
VERTEX
  8
0
 62
4
 10
-2.35400492E+01
 20
2.60525586E+02
  0
VERTEX
  8
0
 62
4
 10
-2.32488054E+01
 20
2.60488877E+02
  0
VERTEX
  8
0
 62
4
 10
-2.29516578E+01
 20
2.60464243E+02
  0
VERTEX
  8
0
 62
4
 10
-2.26509492E+01
 20
2.60451878E+02
  0
VERTEX
  8
0
 62
4
 10
-2.23490504E+01
 20
2.60451878E+02
  0
VERTEX
  8
0
 62
4
 10
-2.20483418E+01
 20
2.60464244E+02
  0
VERTEX
  8
0
 62
4
 10
-2.17511942E+01
 20
2.60488878E+02
  0
VERTEX
  8
0
 62
4
 10
-2.14599505E+01
 20
2.60525586E+02
  0
VERTEX
  8
0
 62
4
 10
-2.11769068E+01
 20
2.60574078E+02
  0
VERTEX
  8
0
 62
4
 10
-2.09042949E+01
 20
2.60633973E+02
  0
VERTEX
  8
0
 62
4
 10
-2.06442640E+01
 20
2.60704798E+02
  0
VERTEX
  8
0
 62
4
 10
-2.03988643E+01
 20
2.60785995E+02
  0
VERTEX
  8
0
 62
4
 10
-2.01700307E+01
 20
2.60876923E+02
  0
VERTEX
  8
0
 62
4
 10
-1.99595673E+01
 20
2.60976866E+02
  0
VERTEX
  8
0
 62
4
 10
-1.97691336E+01
 20
2.61085035E+02
  0
VERTEX
  8
0
 62
4
 10
-1.96002309E+01
 20
2.61200578E+02
  0
VERTEX
  8
0
 62
4
 10
-1.94541909E+01
 20
2.61322584E+02
  0
VERTEX
  8
0
 62
4
 10
-1.93321651E+01
 20
2.61450091E+02
  0
VERTEX
  8
0
 62
4
 10
-1.92351155E+01
 20
2.61582093E+02
  0
VERTEX
  8
0
 62
4
 10
-1.91638074E+01
 20
2.61717550E+02
  0
VERTEX
  8
0
 62
4
 10
-1.91188029E+01
 20
2.61855394E+02
  0
VERTEX
  8
0
 62
4
 10
-1.91004569E+01
 20
2.61994537E+02
  0
VERTEX
  8
0
 62
4
 10
-1.91089140E+01
 20
2.62133884E+02
  0
VERTEX
  8
0
 62
4
 10
-1.91441076E+01
 20
2.62272335E+02
  0
VERTEX
  8
0
 62
4
 10
-1.92057601E+01
 20
2.62408798E+02
  0
VERTEX
  8
0
 62
4
 10
-1.92933855E+01
 20
2.62542199E+02
  0
SEQEND
  8
0
  0
ARC
  8
0
 62
4
 10
-2.25000000E+01
 20
2.60094287E+02
 40
4.03418497E+00
 50
3.73579130E+01
 51
1.42642090E+02
  0
ARC
  8
0
 62
4
 10
-1.98324719E+01
 20
2.57939854E+02
 40
5.85028287E+00
 50
9.88470845E+01
 51
1.39299921E+02
  0
ARC
  8
0
 62
4
 10
-2.51675281E+01
 20
2.57939854E+02
 40
5.85028287E+00
 50
4.07000790E+01
 51
8.11529153E+01
  0
LINE
  8
0
 62
4
 10
-1.91500000E+01
 20
2.63262824E+02
 11
-2.00029970E+01
 21
2.63262824E+02
  0
LINE
  8
0
 62
4
 10
-2.54420422E+01
 20
2.62854547E+02
 11
-3.00000000E+01
 21
2.62854547E+02
  0
LINE
  8
0
 62
4
 10
-1.91500000E+01
 20
2.62854547E+02
 11
-1.95579578E+01
 21
2.62854547E+02
  0
LINE
  8
0
  6
CENTER
 62
6
 10
-1.50000000E+01
 20
2.60228297E+02
 11
-1.50000000E+01
 21
2.63228297E+02
  0
LINE
  8
0
  6
CENTER
 62
6
 10
-1.35000000E+01
 20
2.61728297E+02
 11
-1.65000000E+01
 21
2.61728297E+02
  0
LINE
  8
0
  6
CENTER
 62
6
 10
-2.25000000E+01
 20
2.58630231E+02
 11
-2.25000000E+01
 21
2.61630231E+02
  0
LINE
  8
0
  6
CENTER
 62
6
 10
-2.10000000E+01
 20
2.60130231E+02
 11
-2.40000000E+01
 21
2.60130231E+02
  0
LINE
  8
0
 62
4
 10
-1.76744534E+01
 20
2.65109818E+02
 11
-2.35000000E+01
 21
2.65109818E+02
  0
LINE
  8
0
 62
4
 10
-1.64482454E+01
 20
2.65440340E+02
 11
-3.00000000E+01
 21
2.65440340E+02
  0
LINE
  8
0
 62
7
 10
-7.40000000E+01
 20
3.53000031E+02
 11
-1.05000000E+02
 21
3.53000031E+02
  0
LINE
  8
0
 62
7
 10
-6.05000000E+01
 20
3.62000000E+02
 11
1.20000000E+01
 21
3.62000000E+02
  0
LINE
  8
0
 62
7
 10
-8.90000000E+01
 20
3.42000031E+02
 11
-1.05000000E+02
 21
3.42000031E+02
  0
LINE
  8
0
 62
7
 10
-3.00000000E+01
 20
2.48999969E+02
 11
-1.05000000E+02
 21
2.48999969E+02
  0
LINE
  8
0
 62
7
 10
-3.00000000E+01
 20
2.37999969E+02
 11
-1.05000000E+02
 21
2.37999969E+02
  0
LINE
  8
0
 62
7
 10
-1.65000000E+01
 20
2.29000000E+02
 11
1.20000000E+01
 21
2.29000000E+02
  0
LINE
  8
0
 62
4
 10
-1.13000065E+02
 20
-2.69000298E+02
 11
-1.08000065E+02
 21
-2.69000289E+02
  0
LINE
  8
0
 62
4
 10
-1.13000076E+02
 20
-2.62960283E+02
 11
-1.08000076E+02
 21
-2.62960274E+02
  0
LINE
  8
0
 62
4
 10
-1.13000088E+02
 20
-2.56082332E+02
 11
-1.08000088E+02
 21
-2.56082323E+02
  0
POLYLINE
  8
0
 62
4
 66
1
  0
VERTEX
  8
0
 62
4
 10
-8.94000099E+01
 20
-2.84407602E+02
  0
VERTEX
  8
0
 62
4
 10
-8.93870758E+01
 20
-2.84686666E+02
  0
VERTEX
  8
0
 62
4
 10
-8.93483641E+01
 20
-2.84963607E+02
  0
VERTEX
  8
0
 62
4
 10
-8.92841694E+01
 20
-2.85236317E+02
  0
VERTEX
  8
0
 62
4
 10
-8.91949802E+01
 20
-2.85502720E+02
  0
VERTEX
  8
0
 62
4
 10
-8.90814754E+01
 20
-2.85760789E+02
  0
VERTEX
  8
0
 62
4
 10
-8.89445188E+01
 20
-2.86008560E+02
  0
VERTEX
  8
0
 62
4
 10
-8.87851527E+01
 20
-2.86244146E+02
  0
VERTEX
  8
0
 62
4
 10
-8.86045900E+01
 20
-2.86465756E+02
  0
VERTEX
  8
0
 62
4
 10
-8.84042048E+01
 20
-2.86671703E+02
  0
VERTEX
  8
0
 62
4
 10
-8.81855223E+01
 20
-2.86860419E+02
  0
VERTEX
  8
0
 62
4
 10
-8.79502067E+01
 20
-2.87030467E+02
  0
VERTEX
  8
0
 62
4
 10
-8.77000489E+01
 20
-2.87180555E+02
  0
VERTEX
  8
0
 62
4
 10
-8.74369528E+01
 20
-2.87309539E+02
  0
VERTEX
  8
0
 62
4
 10
-8.71629207E+01
 20
-2.87416437E+02
  0
VERTEX
  8
0
 62
4
 10
-8.68800382E+01
 20
-2.87500438E+02
  0
VERTEX
  8
0
 62
4
 10
-8.65904581E+01
 20
-2.87560900E+02
  0
VERTEX
  8
0
 62
4
 10
-8.62963843E+01
 20
-2.87597364E+02
  0
VERTEX
  8
0
 62
4
 10
-8.60000550E+01
 20
-2.87609552E+02
  0
VERTEX
  8
0
 62
4
 10
-8.57037253E+01
 20
-2.87597372E+02
  0
VERTEX
  8
0
 62
4
 10
-8.54096505E+01
 20
-2.87560916E+02
  0
VERTEX
  8
0
 62
4
 10
-8.51200687E+01
 20
-2.87500462E+02
  0
VERTEX
  8
0
 62
4
 10
-8.48371838E+01
 20
-2.87416470E+02
  0
VERTEX
  8
0
 62
4
 10
-8.45631486E+01
 20
-2.87309579E+02
  0
VERTEX
  8
0
 62
4
 10
-8.43000489E+01
 20
-2.87180603E+02
  0
VERTEX
  8
0
 62
4
 10
-8.40498869E+01
 20
-2.87030522E+02
  0
VERTEX
  8
0
 62
4
 10
-8.38145665E+01
 20
-2.86860480E+02
  0
VERTEX
  8
0
 62
4
 10
-8.35958787E+01
 20
-2.86671771E+02
  0
VERTEX
  8
0
 62
4
 10
-8.33954878E+01
 20
-2.86465830E+02
  0
VERTEX
  8
0
 62
4
 10
-8.32149188E+01
 20
-2.86244225E+02
  0
VERTEX
  8
0
 62
4
 10
-8.30555461E+01
 20
-2.86008643E+02
  0
VERTEX
  8
0
 62
4
 10
-8.29185825E+01
 20
-2.85760876E+02
  0
VERTEX
  8
0
 62
4
 10
-8.28050704E+01
 20
-2.85502810E+02
  0
VERTEX
  8
0
 62
4
 10
-8.27158738E+01
 20
-2.85236409E+02
  0
VERTEX
  8
0
 62
4
 10
-8.26516714E+01
 20
-2.84963702E+02
  0
VERTEX
  8
0
 62
4
 10
-8.26129519E+01
 20
-2.84686762E+02
  0
VERTEX
  8
0
 62
4
 10
-8.26000099E+01
 20
-2.84407698E+02
  0
VERTEX
  8
0
 62
4
 10
-8.26129440E+01
 20
-2.84128634E+02
  0
VERTEX
  8
0
 62
4
 10
-8.26516557E+01
 20
-2.83851693E+02
  0
VERTEX
  8
0
 62
4
 10
-8.27158504E+01
 20
-2.83578983E+02
  0
VERTEX
  8
0
 62
4
 10
-8.28050396E+01
 20
-2.83312580E+02
  0
VERTEX
  8
0
 62
4
 10
-8.29185444E+01
 20
-2.83054511E+02
  0
VERTEX
  8
0
 62
4
 10
-8.30555010E+01
 20
-2.82806740E+02
  0
VERTEX
  8
0
 62
4
 10
-8.32148671E+01
 20
-2.82571154E+02
  0
VERTEX
  8
0
 62
4
 10
-8.33954298E+01
 20
-2.82349544E+02
  0
VERTEX
  8
0
 62
4
 10
-8.35958150E+01
 20
-2.82143597E+02
  0
VERTEX
  8
0
 62
4
 10
-8.38144975E+01
 20
-2.81954881E+02
  0
VERTEX
  8
0
 62
4
 10
-8.40498131E+01
 20
-2.81784833E+02
  0
VERTEX
  8
0
 62
4
 10
-8.42999709E+01
 20
-2.81634745E+02
  0
VERTEX
  8
0
 62
4
 10
-8.45630670E+01
 20
-2.81505761E+02
  0
VERTEX
  8
0
 62
4
 10
-8.48370991E+01
 20
-2.81398863E+02
  0
VERTEX
  8
0
 62
4
 10
-8.51199816E+01
 20
-2.81314862E+02
  0
VERTEX
  8
0
 62
4
 10
-8.54095617E+01
 20
-2.81254400E+02
  0
VERTEX
  8
0
 62
4
 10
-8.57036355E+01
 20
-2.81217936E+02
  0
VERTEX
  8
0
 62
4
 10
-8.59999648E+01
 20
-2.81205748E+02
  0
VERTEX
  8
0
 62
4
 10
-8.62962945E+01
 20
-2.81217928E+02
  0
VERTEX
  8
0
 62
4
 10
-8.65903693E+01
 20
-2.81254384E+02
  0
VERTEX
  8
0
 62
4
 10
-8.68799511E+01
 20
-2.81314838E+02
  0
VERTEX
  8
0
 62
4
 10
-8.71628360E+01
 20
-2.81398830E+02
  0
VERTEX
  8
0
 62
4
 10
-8.74368712E+01
 20
-2.81505721E+02
  0
VERTEX
  8
0
 62
4
 10
-8.76999709E+01
 20
-2.81634697E+02
  0
VERTEX
  8
0
 62
4
 10
-8.79501329E+01
 20
-2.81784778E+02
  0
VERTEX
  8
0
 62
4
 10
-8.81854533E+01
 20
-2.81954820E+02
  0
VERTEX
  8
0
 62
4
 10
-8.84041411E+01
 20
-2.82143529E+02
  0
VERTEX
  8
0
 62
4
 10
-8.86045320E+01
 20
-2.82349470E+02
  0
VERTEX
  8
0
 62
4
 10
-8.87851010E+01
 20
-2.82571075E+02
  0
VERTEX
  8
0
 62
4
 10
-8.89444737E+01
 20
-2.82806657E+02
  0
VERTEX
  8
0
 62
4
 10
-8.90814373E+01
 20
-2.83054424E+02
  0
VERTEX
  8
0
 62
4
 10
-8.91949494E+01
 20
-2.83312490E+02
  0
VERTEX
  8
0
 62
4
 10
-8.92841460E+01
 20
-2.83578891E+02
  0
VERTEX
  8
0
 62
4
 10
-8.93483484E+01
 20
-2.83851598E+02
  0
VERTEX
  8
0
 62
4
 10
-8.93870679E+01
 20
-2.84128538E+02
  0
VERTEX
  8
0
 62
4
 10
-8.94000099E+01
 20
-2.84407602E+02
  0
SEQEND
  8
0
  0
POLYLINE
  8
0
 62
4
 66
1
  0
VERTEX
  8
0
 62
4
 10
-8.93795956E+01
 20
-2.84757985E+02
  0
VERTEX
  8
0
 62
4
 10
-8.93992453E+01
 20
-2.85033073E+02
  0
VERTEX
  8
0
 62
4
 10
-8.93923224E+01
 20
-2.85308678E+02
  0
VERTEX
  8
0
 62
4
 10
-8.93588812E+01
 20
-2.85582645E+02
  0
VERTEX
  8
0
 62
4
 10
-8.92991831E+01
 20
-2.85852833E+02
  0
VERTEX
  8
0
 62
4
 10
-8.92136946E+01
 20
-2.86117128E+02
  0
VERTEX
  8
0
 62
4
 10
-8.91030841E+01
 20
-2.86373466E+02
  0
VERTEX
  8
0
 62
4
 10
-8.89682163E+01
 20
-2.86619843E+02
  0
VERTEX
  8
0
 62
4
 10
-8.88101454E+01
 20
-2.86854331E+02
  0
VERTEX
  8
0
 62
4
 10
-8.86301071E+01
 20
-2.87075099E+02
  0
VERTEX
  8
0
 62
4
 10
-8.84295088E+01
 20
-2.87280421E+02
  0
VERTEX
  8
0
 62
4
 10
-8.82099186E+01
 20
-2.87468691E+02
  0
VERTEX
  8
0
 62
4
 10
-8.79730532E+01
 20
-2.87638438E+02
  0
VERTEX
  8
0
 62
4
 10
-8.77207640E+01
 20
-2.87788335E+02
  0
VERTEX
  8
0
 62
4
 10
-8.74550234E+01
 20
-2.87917210E+02
  0
VERTEX
  8
0
 62
4
 10
-8.71779086E+01
 20
-2.88024056E+02
  0
VERTEX
  8
0
 62
4
 10
-8.68915860E+01
 20
-2.88108037E+02
  0
VERTEX
  8
0
 62
4
 10
-8.65982937E+01
 20
-2.88168497E+02
  0
VERTEX
  8
0
 62
4
 10
-8.63003245E+01
 20
-2.88204963E+02
  0
VERTEX
  8
0
 62
4
 10
-8.60000076E+01
 20
-2.88217150E+02
  0
VERTEX
  8
0
 62
4
 10
-8.56996908E+01
 20
-2.88204964E+02
  0
VERTEX
  8
0
 62
4
 10
-8.54017217E+01
 20
-2.88168498E+02
  0
VERTEX
  8
0
 62
4
 10
-8.51084294E+01
 20
-2.88108039E+02
  0
VERTEX
  8
0
 62
4
 10
-8.48221068E+01
 20
-2.88024059E+02
  0
VERTEX
  8
0
 62
4
 10
-8.45449921E+01
 20
-2.87917214E+02
  0
VERTEX
  8
0
 62
4
 10
-8.42792515E+01
 20
-2.87788340E+02
  0
VERTEX
  8
0
 62
4
 10
-8.40269625E+01
 20
-2.87638443E+02
  0
VERTEX
  8
0
 62
4
 10
-8.37900971E+01
 20
-2.87468697E+02
  0
VERTEX
  8
0
 62
4
 10
-8.35705071E+01
 20
-2.87280427E+02
  0
VERTEX
  8
0
 62
4
 10
-8.33699089E+01
 20
-2.87075106E+02
  0
VERTEX
  8
0
 62
4
 10
-8.31898707E+01
 20
-2.86854338E+02
  0
VERTEX
  8
0
 62
4
 10
-8.30318000E+01
 20
-2.86619850E+02
  0
VERTEX
  8
0
 62
4
 10
-8.28969323E+01
 20
-2.86373474E+02
  0
VERTEX
  8
0
 62
4
 10
-8.27863220E+01
 20
-2.86117136E+02
  0
VERTEX
  8
0
 62
4
 10
-8.27008337E+01
 20
-2.85852841E+02
  0
VERTEX
  8
0
 62
4
 10
-8.26411357E+01
 20
-2.85582654E+02
  0
VERTEX
  8
0
 62
4
 10
-8.26076946E+01
 20
-2.85308687E+02
  0
VERTEX
  8
0
 62
4
 10
-8.26007720E+01
 20
-2.85033082E+02
  0
VERTEX
  8
0
 62
4
 10
-8.26204218E+01
 20
-2.84757993E+02
  0
SEQEND
  8
0
  0
POLYLINE
  8
0
 62
4
 66
1
  0
VERTEX
  8
0
 62
4
 10
-8.84932305E+01
 20
-2.82230657E+02
  0
VERTEX
  8
0
 62
4
 10
-8.87589634E+01
 20
-2.82443122E+02
  0
VERTEX
  8
0
 62
4
 10
-8.90032644E+01
 20
-2.82676218E+02
  0
VERTEX
  8
0
 62
4
 10
-8.92242358E+01
 20
-2.82928136E+02
  0
VERTEX
  8
0
 62
4
 10
-8.94201611E+01
 20
-2.83196919E+02
  0
VERTEX
  8
0
 62
4
 10
-8.95895183E+01
 20
-2.83480479E+02
  0
VERTEX
  8
0
 62
4
 10
-8.97309917E+01
 20
-2.83776612E+02
  0
VERTEX
  8
0
 62
4
 10
-8.98434825E+01
 20
-2.84083019E+02
  0
VERTEX
  8
0
 62
4
 10
-8.99261168E+01
 20
-2.84397320E+02
  0
VERTEX
  8
0
 62
4
 10
-8.99782526E+01
 20
-2.84717072E+02
  0
VERTEX
  8
0
 62
4
 10
-8.99994851E+01
 20
-2.85039792E+02
  0
VERTEX
  8
0
 62
4
 10
-8.99896491E+01
 20
-2.85362974E+02
  0
VERTEX
  8
0
 62
4
 10
-8.99488212E+01
 20
-2.85684106E+02
  0
VERTEX
  8
0
 62
4
 10
-8.98773186E+01
 20
-2.86000693E+02
  0
VERTEX
  8
0
 62
4
 10
-8.97756965E+01
 20
-2.86310278E+02
  0
VERTEX
  8
0
 62
4
 10
-8.96447445E+01
 20
-2.86610454E+02
  0
VERTEX
  8
0
 62
4
 10
-8.94854799E+01
 20
-2.86898891E+02
  0
VERTEX
  8
0
 62
4
 10
-8.92991397E+01
 20
-2.87173346E+02
  0
VERTEX
  8
0
 62
4
 10
-8.90871715E+01
 20
-2.87431690E+02
  0
VERTEX
  8
0
 62
4
 10
-8.88512219E+01
 20
-2.87671913E+02
  0
VERTEX
  8
0
 62
4
 10
-8.85931237E+01
 20
-2.87892151E+02
  0
VERTEX
  8
0
 62
4
 10
-8.83148820E+01
 20
-2.88090693E+02
  0
VERTEX
  8
0
 62
4
 10
-8.80186581E+01
 20
-2.88265996E+02
  0
VERTEX
  8
0
 62
4
 10
-8.77067531E+01
 20
-2.88416699E+02
  0
VERTEX
  8
0
 62
4
 10
-8.73815899E+01
 20
-2.88541631E+02
  0
VERTEX
  8
0
 62
4
 10
-8.70456945E+01
 20
-2.88639821E+02
  0
VERTEX
  8
0
 62
4
 10
-8.67016760E+01
 20
-2.88710506E+02
  0
VERTEX
  8
0
 62
4
 10
-8.63522070E+01
 20
-2.88753139E+02
  0
VERTEX
  8
0
 62
4
 10
-8.60000020E+01
 20
-2.88767386E+02
  0
VERTEX
  8
0
 62
4
 10
-8.56477971E+01
 20
-2.88753139E+02
  0
VERTEX
  8
0
 62
4
 10
-8.52983282E+01
 20
-2.88710506E+02
  0
VERTEX
  8
0
 62
4
 10
-8.49543100E+01
 20
-2.88639821E+02
  0
VERTEX
  8
0
 62
4
 10
-8.46184149E+01
 20
-2.88541631E+02
  0
VERTEX
  8
0
 62
4
 10
-8.42932522E+01
 20
-2.88416699E+02
  0
VERTEX
  8
0
 62
4
 10
-8.39813477E+01
 20
-2.88265996E+02
  0
VERTEX
  8
0
 62
4
 10
-8.36851244E+01
 20
-2.88090693E+02
  0
VERTEX
  8
0
 62
4
 10
-8.34068834E+01
 20
-2.87892151E+02
  0
VERTEX
  8
0
 62
4
 10
-8.31487861E+01
 20
-2.87671913E+02
  0
VERTEX
  8
0
 62
4
 10
-8.29128373E+01
 20
-2.87431690E+02
  0
VERTEX
  8
0
 62
4
 10
-8.27008701E+01
 20
-2.87173346E+02
  0
VERTEX
  8
0
 62
4
 10
-8.25145309E+01
 20
-2.86898891E+02
  0
VERTEX
  8
0
 62
4
 10
-8.23552672E+01
 20
-2.86610454E+02
  0
VERTEX
  8
0
 62
4
 10
-8.22243163E+01
 20
-2.86310278E+02
  0
VERTEX
  8
0
 62
4
 10
-8.21226954E+01
 20
-2.86000693E+02
  0
VERTEX
  8
0
 62
4
 10
-8.20511939E+01
 20
-2.85684106E+02
  0
VERTEX
  8
0
 62
4
 10
-8.20103671E+01
 20
-2.85362974E+02
  0
VERTEX
  8
0
 62
4
 10
-8.20005324E+01
 20
-2.85039792E+02
  0
VERTEX
  8
0
 62
4
 10
-8.20217659E+01
 20
-2.84717072E+02
  0
VERTEX
  8
0
 62
4
 10
-8.20739029E+01
 20
-2.84397320E+02
  0
VERTEX
  8
0
 62
4
 10
-8.21565383E+01
 20
-2.84083019E+02
  0
VERTEX
  8
0
 62
4
 10
-8.22690302E+01
 20
-2.83776612E+02
  0
VERTEX
  8
0
 62
4
 10
-8.24105048E+01
 20
-2.83480479E+02
  0
VERTEX
  8
0
 62
4
 10
-8.25798630E+01
 20
-2.83196919E+02
  0
VERTEX
  8
0
 62
4
 10
-8.27757892E+01
 20
-2.82928136E+02
  0
VERTEX
  8
0
 62
4
 10
-8.29967615E+01
 20
-2.82676218E+02
  0
VERTEX
  8
0
 62
4
 10
-8.32410634E+01
 20
-2.82443122E+02
  0
VERTEX
  8
0
 62
4
 10
-8.35067970E+01
 20
-2.82230657E+02
  0
SEQEND
  8
0
  0
POLYLINE
  8
0
 62
4
 66
1
  0
VERTEX
  8
0
 62
4
 10
-8.99985309E+01
 20
-2.85198824E+02
  0
VERTEX
  8
0
 62
4
 10
-8.99924224E+01
 20
-2.85524322E+02
  0
VERTEX
  8
0
 62
4
 10
-8.99548694E+01
 20
-2.85848042E+02
  0
VERTEX
  8
0
 62
4
 10
-8.98861675E+01
 20
-2.86167434E+02
  0
VERTEX
  8
0
 62
4
 10
-8.97868579E+01
 20
-2.86479982E+02
  0
VERTEX
  8
0
 62
4
 10
-8.96577227E+01
 20
-2.86783225E+02
  0
VERTEX
  8
0
 62
4
 10
-8.94997790E+01
 20
-2.87074774E+02
  0
VERTEX
  8
0
 62
4
 10
-8.93142708E+01
 20
-2.87352333E+02
  0
VERTEX
  8
0
 62
4
 10
-8.91026593E+01
 20
-2.87613716E+02
  0
VERTEX
  8
0
 62
4
 10
-8.88666109E+01
 20
-2.87856865E+02
  0
VERTEX
  8
0
 62
4
 10
-8.86079850E+01
 20
-2.88079864E+02
  0
VERTEX
  8
0
 62
4
 10
-8.83288184E+01
 20
-2.88280957E+02
  0
VERTEX
  8
0
 62
4
 10
-8.80313098E+01
 20
-2.88458559E+02
  0
VERTEX
  8
0
 62
4
 10
-8.77178026E+01
 20
-2.88611273E+02
  0
VERTEX
  8
0
 62
4
 10
-8.73907659E+01
 20
-2.88737896E+02
  0
VERTEX
  8
0
 62
4
 10
-8.70527754E+01
 20
-2.88837430E+02
  0
VERTEX
  8
0
 62
4
 10
-8.67064933E+01
 20
-2.88909090E+02
  0
VERTEX
  8
0
 62
4
 10
-8.63546468E+01
 20
-2.88952314E+02
  0
VERTEX
  8
0
 62
4
 10
-8.60000072E+01
 20
-2.88966760E+02
  0
VERTEX
  8
0
 62
4
 10
-8.56453675E+01
 20
-2.88952315E+02
  0
VERTEX
  8
0
 62
4
 10
-8.52935211E+01
 20
-2.88909092E+02
  0
VERTEX
  8
0
 62
4
 10
-8.49472390E+01
 20
-2.88837432E+02
  0
VERTEX
  8
0
 62
4
 10
-8.46092486E+01
 20
-2.88737899E+02
  0
VERTEX
  8
0
 62
4
 10
-8.42822120E+01
 20
-2.88611278E+02
  0
VERTEX
  8
0
 62
4
 10
-8.39687048E+01
 20
-2.88458564E+02
  0
VERTEX
  8
0
 62
4
 10
-8.36711964E+01
 20
-2.88280962E+02
  0
VERTEX
  8
0
 62
4
 10
-8.33920299E+01
 20
-2.88079870E+02
  0
VERTEX
  8
0
 62
4
 10
-8.31334041E+01
 20
-2.87856872E+02
  0
VERTEX
  8
0
 62
4
 10
-8.28973559E+01
 20
-2.87613724E+02
  0
VERTEX
  8
0
 62
4
 10
-8.26857445E+01
 20
-2.87352341E+02
  0
VERTEX
  8
0
 62
4
 10
-8.25002365E+01
 20
-2.87074783E+02
  0
VERTEX
  8
0
 62
4
 10
-8.23422930E+01
 20
-2.86783234E+02
  0
VERTEX
  8
0
 62
4
 10
-8.22131580E+01
 20
-2.86479991E+02
  0
VERTEX
  8
0
 62
4
 10
-8.21138486E+01
 20
-2.86167443E+02
  0
VERTEX
  8
0
 62
4
 10
-8.20451469E+01
 20
-2.85848052E+02
  0
VERTEX
  8
0
 62
4
 10
-8.20075940E+01
 20
-2.85524332E+02
  0
VERTEX
  8
0
 62
4
 10
-8.20014858E+01
 20
-2.85198834E+02
  0
SEQEND
  8
0
  0
LINE
  8
0
 62
4
 10
-9.35000927E+01
 20
-2.53620225E+02
 11
-7.85000927E+01
 21
-2.53620198E+02
  0
LINE
  8
0
 62
6
 10
-8.42850735E+01
 20
-2.85617939E+02
 11
-8.77149481E+01
 21
-2.82188070E+02
  0
LINE
  8
0
 62
6
 10
-8.77149456E+01
 20
-2.85617942E+02
 11
-8.42850759E+01
 21
-2.82188067E+02
  0
LINE
  8
0
  6
CENTER
 62
6
 10
-9.27700108E+01
 20
-2.83903017E+02
 11
-7.89400108E+01
 21
-2.83902992E+02
  0
ARC
  8
0
 62
4
 10
-9.65025231E+01
 20
-2.80706066E+02
 40
1.49752302E+00
 50
8.99052542E+01
 51
1.80094952E+02
  0
LINE
  8
0
 62
4
 10
-9.80000441E+01
 20
-2.80708548E+02
 11
-9.80000220E+01
 21
-2.93000000E+02
  0
LINE
  8
0
  6
CENTER
 62
6
 10
-8.59999993E+01
 20
-2.90303004E+02
 11
-8.60000223E+01
 21
-2.77503004E+02
  0
LINE
  8
0
 62
4
 10
-5.90000441E+01
 20
-2.80708478E+02
 11
-5.90000220E+01
 21
-2.93000000E+02
  0
ARC
  8
0
 62
4
 10
-6.04975651E+01
 20
-2.80706002E+02
 40
1.49752302E+00
 50
3.59905254E+02
 51
9.00949513E+01
  0
LINE
  8
0
 62
4
 10
-9.65000468E+01
 20
-2.79208545E+02
 11
-6.05000468E+01
 21
-2.79208481E+02
  0
LINE
  8
0
 62
4
 10
-9.80000260E+01
 20
-2.90800951E+02
 11
-5.90000260E+01
 21
-2.90800881E+02
  0
LINE
  8
0
 62
4
 10
-9.80000235E+01
 20
-2.92176541E+02
 11
-5.90000235E+01
 21
-2.92176471E+02
  0
LINE
  8
0
 62
4
 10
-9.55000530E+01
 20
-2.75749232E+02
 11
-7.65000530E+01
 21
-2.75749198E+02
  0
LINE
  8
0
 62
4
 10
-7.85000927E+01
 20
-2.53620198E+02
 11
-7.85000530E+01
 21
-2.75749202E+02
  0
LINE
  8
0
 62
4
 10
-9.35000927E+01
 20
-2.53620198E+02
 11
-9.35000530E+01
 21
-2.75749229E+02
  0
LINE
  8
0
 62
4
 10
-9.35000532E+01
 20
-2.75629667E+02
 11
-7.85000532E+01
 21
-2.75629640E+02
  0
LINE
  8
0
 62
4
 10
-1.13000090E+02
 20
-2.55226055E+02
 11
-1.08000090E+02
 21
-2.55226046E+02
  0
LINE
  8
0
 62
4
 10
-1.02500053E+02
 20
-2.69106626E+02
 11
-9.40000530E+01
 21
-2.69106611E+02
  0
LINE
  8
0
 62
4
 10
-9.35000900E+01
 20
-2.55106621E+02
 11
-1.02500090E+02
 21
-2.55106637E+02
  0
LINE
  8
0
 62
4
 10
-1.03000089E+02
 20
-2.55606638E+02
 11
-1.03000066E+02
 21
-2.68606638E+02
  0
LINE
  8
0
 62
4
 10
-1.13000090E+02
 20
-2.55226055E+02
 11
-1.13000065E+02
 21
-2.69000298E+02
  0
LINE
  8
0
 62
4
 10
-1.08000090E+02
 20
-2.55226055E+02
 11
-1.08000065E+02
 21
-2.69000298E+02
  0
LINE
  8
0
 62
4
 10
-1.08000089E+02
 20
-2.55856630E+02
 11
-1.03000089E+02
 21
-2.55856621E+02
  0
LINE
  8
0
 62
4
 10
-1.08000066E+02
 20
-2.68356630E+02
 11
-1.03000066E+02
 21
-2.68356621E+02
  0
LINE
  8
0
 62
4
 10
-1.06500089E+02
 20
-2.55856627E+02
 11
-1.06500066E+02
 21
-2.68356627E+02
  0
LINE
  8
0
 62
4
 10
-1.06500088E+02
 20
-2.56356627E+02
 11
-1.03000088E+02
 21
-2.56356621E+02
  0
LINE
  8
0
 62
4
 10
-1.06500067E+02
 20
-2.67856627E+02
 11
-1.03000067E+02
 21
-2.67856621E+02
  0
ARC
  8
0
 62
4
 10
-1.02502564E+02
 20
-2.55604162E+02
 40
4.97531232E-01
 50
8.97150889E+01
 51
1.80285117E+02
  0
ARC
  8
0
 62
4
 10
-9.39975771E+01
 20
-2.69604136E+02
 40
4.97531232E-01
 50
3.59715089E+02
 51
9.02851166E+01
  0
ARC
  8
0
 62
4
 10
-1.02497567E+02
 20
-2.68604139E+02
 40
5.02493390E-01
 50
1.80283706E+02
 51
2.69716500E+02
  0
LINE
  8
0
 62
4
 10
-7.65000530E+01
 20
-2.75749198E+02
 11
-7.65000468E+01
 21
-2.79208509E+02
  0
LINE
  8
0
 62
4
 10
-9.55000530E+01
 20
-2.75749232E+02
 11
-9.55000468E+01
 21
-2.79208544E+02
  0
LINE
  8
0
 62
4
 10
-4.28598024E+02
 20
-2.90283197E+02
 11
-4.28068943E+02
 21
-2.91500000E+02
  0
ARC
  8
0
 62
4
 10
-4.26305352E+02
 20
-2.89286333E+02
 40
2.50001642E+00
 50
1.13500376E+02
 51
2.03499624E+02
  0
LINE
  8
0
 62
4
 10
-4.28897243E+02
 20
-2.83325434E+02
 11
-4.27302246E+02
 21
-2.86993674E+02
  0
LINE
  8
0
 62
4
 10
-4.37031849E+02
 20
-2.59601434E+02
 11
-4.32547425E+02
 21
-2.57651551E+02
  0
LINE
  8
0
 62
4
 10
-4.23275948E+02
 20
-2.53620198E+02
 11
-4.13307221E+02
 21
-2.76546700E+02
  0
LINE
  8
0
 62
4
 10
-4.37031849E+02
 20
-2.59601434E+02
 11
-4.27063122E+02
 21
-2.82527936E+02
  0
LINE
  8
0
 62
4
 10
-4.28897243E+02
 20
-2.83325434E+02
 11
-4.11473101E+02
 21
-2.75749202E+02
  0
LINE
  8
0
 62
4
 10
-4.27461872E+02
 20
-2.81610876E+02
 11
-4.13705970E+02
 21
-2.75629640E+02
  0
LINE
  8
0
 62
4
 10
-4.11473101E+02
 20
-2.75749202E+02
 11
-4.09878105E+02
 21
-2.79417442E+02
  0
LINE
  8
0
 62
4
 10
-4.06588582E+02
 20
-2.80713220E+02
 11
-4.01898357E+02
 21
-2.91500000E+02
  0
LINE
  8
0
 62
4
 10
-4.17234303E+02
 20
-2.91339537E+02
 11
-4.13566063E+02
 21
-2.89744541E+02
  0
LINE
  8
0
 62
4
 10
-4.13566063E+02
 20
-2.89744541E+02
 11
-4.12802768E+02
 21
-2.91500000E+02
  0
LINE
  8
0
 62
4
 10
-4.24766799E+02
 20
-2.69000298E+02
 11
-4.20305205E+02
 21
-2.62960283E+02
  0
LINE
  8
0
 62
4
 10
-4.35217604E+02
 20
-2.61266070E+02
 11
-4.30756010E+02
 21
-2.55226055E+02
  0
LINE
  8
0
 62
4
 10
-4.35217604E+02
 20
-2.61266070E+02
 11
-4.32226986E+02
 21
-2.68144021E+02
  0
LINE
  8
0
 62
4
 10
-4.23295823E+02
 20
-2.56082332E+02
 11
-4.20305205E+02
 21
-2.62960283E+02
  0
LINE
  8
0
 62
4
 10
-4.32226986E+02
 20
-2.68144021E+02
 11
-4.24766799E+02
 21
-2.69000298E+02
  0
LINE
  8
0
 62
4
 10
-4.30756010E+02
 20
-2.55226055E+02
 11
-4.23295823E+02
 21
-2.56082332E+02
  0
LINE
  8
0
 62
4
 10
-4.27760372E+02
 20
-2.55570081E+02
 11
-4.23275948E+02
 21
-2.53620198E+02
  0
LINE
  8
0
 62
4
 10
-4.06189833E+02
 20
-2.81630280E+02
 11
-4.05731303E+02
 21
-2.81430905E+02
  0
LINE
  8
0
 62
4
 10
-4.02999840E+02
 20
-2.88966760E+02
 11
-4.02541310E+02
 21
-2.88767386E+02
  0
LINE
  8
0
 62
4
 10
-4.05492054E+02
 20
-2.81981141E+02
 11
-4.03905540E+02
 21
-2.81291305E+02
  0
LINE
  8
0
 62
4
 10
-4.01194046E+02
 20
-2.87527314E+02
 11
-4.02780560E+02
 21
-2.88217150E+02
  0
LINE
  8
0
 62
4
 10
-4.05731303E+02
 20
-2.81430905E+02
 11
-4.02541310E+02
 21
-2.88767386E+02
  0
ARC
  8
0
 62
4
 10
-4.01591740E+02
 20
-2.86606836E+02
 40
1.00271607E+00
 50
2.93366852E+02
 51
1.06670006E+01
  0
ARC
  8
0
 62
4
 10
-4.03501542E+02
 20
-2.82202357E+02
 40
9.96609194E-01
 50
3.60516727E+01
 51
1.13914475E+02
  0
CIRCLE
  8
0
 62
4
 10
-4.27758810E+02
 20
-2.62106621E+02
 40
3.75000000E+00
  0
ARC
  8
0
 62
4
 10
-4.12206044E+02
 20
-2.88630012E+02
 40
1.18081149E+01
 50
1.07810256E+01
 51
3.64102023E+01
  0
ARC
  8
0
 62
4
 10
-4.08878648E+02
 20
-2.81703533E+02
 40
2.49501993E+00
 50
2.33855230E+01
 51
1.13614477E+02
  0
ARC
  8
0
 62
4
 10
-4.27758810E+02
 20
-2.62106621E+02
 40
7.00000000E+00
 50
1.21736957E+02
 51
1.44581724E+02
  0
ARC
  8
0
 62
4
 10
-4.27758810E+02
 20
-2.62106621E+02
 40
7.00000000E+00
 50
8.24182754E+01
 51
1.05372928E+02
  0
LINE
  8
0
  6
CENTER
 62
6
 10
-4.18857264E+02
 20
-2.91500000E+02
 11
-3.98633946E+02
 21
-2.82706651E+02
  0
LINE
  8
0
 62
4
 10
-4.03810207E+02
 20
-2.91500000E+02
 11
-4.02202342E+02
 21
-2.90800881E+02
  0
LINE
  8
0
 62
4
 10
-4.27302246E+02
 20
-2.86993674E+02
 11
-4.09878105E+02
 21
-2.79417442E+02
  0
LINE
  8
0
 62
4
 10
-4.28398649E+02
 20
-2.90741727E+02
 11
-4.30142557E+02
 21
-2.91500000E+02
  0
LINE
  8
0
 62
4
 10
1.81031849E+02
 20
-2.59601434E+02
 11
1.71063122E+02
 21
-2.82527936E+02
  0
LINE
  8
0
 62
4
 10
1.72897243E+02
 20
-2.83325434E+02
 11
1.55473101E+02
 21
-2.75749202E+02
  0
LINE
  8
0
 62
4
 10
1.71461872E+02
 20
-2.81610876E+02
 11
1.57705970E+02
 21
-2.75629640E+02
  0
LINE
  8
0
 62
4
 10
1.55473101E+02
 20
-2.75749202E+02
 11
1.53878105E+02
 21
-2.79417442E+02
  0
LINE
  8
0
 62
4
 10
1.74756010E+02
 20
-2.55226055E+02
 11
1.73612627E+02
 21
-2.55357292E+02
  0
LINE
  8
0
 62
4
 10
1.75439814E+02
 20
-2.56151776E+02
 11
1.74756010E+02
 21
-2.55226055E+02
  0
LINE
  8
0
 62
4
 10
1.67275948E+02
 20
-2.53620198E+02
 11
1.81031849E+02
 21
-2.59601434E+02
  0
ARC
  8
0
 62
4
 10
1.71763389E+02
 20
-2.62108612E+02
 40
7.00000000E+00
 50
3.54182754E+01
 51
9.75817244E+01
  0
LINE
  8
0
 62
4
 10
1.67275948E+02
 20
-2.53620198E+02
 11
1.57307221E+02
 21
-2.76546700E+02
  0
LINE
  8
0
 62
4
 10
1.47810207E+02
 20
-2.91500000E+02
 11
1.46202342E+02
 21
-2.90800881E+02
  0
LINE
  8
0
 62
4
 10
1.71302246E+02
 20
-2.86993674E+02
 11
1.53878105E+02
 21
-2.79417442E+02
  0
LINE
  8
0
 62
4
 10
1.50588582E+02
 20
-2.80713220E+02
 11
1.45898357E+02
 21
-2.91500000E+02
  0
LINE
  8
0
 62
4
 10
1.61234303E+02
 20
-2.91339537E+02
 11
1.61164532E+02
 21
-2.91500000E+02
  0
LINE
  8
0
 62
4
 10
1.57566063E+02
 20
-2.89744541E+02
 11
1.56802768E+02
 21
-2.91500000E+02
  0
LINE
  8
0
 62
4
 10
1.60109356E+02
 20
-2.81036426E+02
 11
1.65868493E+02
 21
-2.83540570E+02
  0
LINE
  8
0
 62
4
 10
1.65868493E+02
 20
-2.83540570E+02
 11
1.65799886E+02
 21
-2.84601180E+02
  0
LINE
  8
0
 62
4
 10
1.59380465E+02
 20
-2.81809937E+02
 11
1.60109356E+02
 21
-2.81036426E+02
  0
LINE
  8
0
  6
CENTER
 62
6
 10
1.63893015E+02
 20
-2.80209232E+02
 11
1.61996040E+02
 21
-2.84571978E+02
  0
ARC
  8
0
 62
4
 10
1.52878648E+02
 20
-2.81703533E+02
 40
2.49501993E+00
 50
6.63855229E+01
 51
1.56614477E+02
  0
ARC
  8
0
 62
4
 10
1.56206044E+02
 20
-2.88630012E+02
 40
1.18081149E+01
 50
1.43559972E+02
 51
1.69218974E+02
  0
ARC
  8
0
 62
4
 10
1.47501542E+02
 20
-2.82202357E+02
 40
9.96609194E-01
 50
6.60855256E+01
 51
1.43948327E+02
  0
ARC
  8
0
 62
4
 10
1.45591740E+02
 20
-2.86606836E+02
 40
1.00271607E+00
 50
1.69332999E+02
 51
2.46633148E+02
  0
LINE
  8
0
 62
4
 10
1.49731303E+02
 20
-2.81430905E+02
 11
1.46541310E+02
 21
-2.88767386E+02
  0
LINE
  8
0
 62
4
 10
1.45194046E+02
 20
-2.87527314E+02
 11
1.46780560E+02
 21
-2.88217150E+02
  0
LINE
  8
0
 62
4
 10
1.49492054E+02
 20
-2.81981141E+02
 11
1.47905540E+02
 21
-2.81291305E+02
  0
LINE
  8
0
 62
4
 10
1.46999840E+02
 20
-2.88966760E+02
 11
1.46541310E+02
 21
-2.88767386E+02
  0
LINE
  8
0
 62
4
 10
1.50189833E+02
 20
-2.81630280E+02
 11
1.49731303E+02
 21
-2.81430905E+02
  0
LINE
  8
0
 62
4
 10
1.61234303E+02
 20
-2.91339537E+02
 11
1.57566063E+02
 21
-2.89744541E+02
  0
LINE
  8
0
 62
4
 10
1.72398649E+02
 20
-2.90741727E+02
 11
1.74142557E+02
 21
-2.91500000E+02
  0
LINE
  8
0
 62
4
 10
1.72598024E+02
 20
-2.90283197E+02
 11
1.72068943E+02
 21
-2.91500000E+02
  0
LINE
  8
0
 62
4
 10
1.72897243E+02
 20
-2.83325434E+02
 11
1.71302246E+02
 21
-2.86993674E+02
  0
ARC
  8
0
 62
4
 10
1.70305352E+02
 20
-2.89286333E+02
 40
2.50001642E+00
 50
3.36500376E+02
 51
6.64996234E+01
  0
LINE
  8
0
  6
CENTER
 62
6
 10
-8.60001628E+01
 20
-9.41949736E+01
 11
-8.60001628E+01
 21
-1.52736066E+02
  0
POLYLINE
  8
0
 62
4
 66
1
  0
VERTEX
  8
0
 62
4
 10
-6.68601628E+01
 20
-1.23511106E+02
  0
VERTEX
  8
0
 62
4
 10
-6.68721114E+01
 20
-1.23260135E+02
  0
VERTEX
  8
0
 62
4
 10
-6.69078665E+01
 20
-1.23011074E+02
  0
VERTEX
  8
0
 62
4
 10
-6.69671557E+01
 20
-1.22765819E+02
  0
VERTEX
  8
0
 62
4
 10
-6.70495280E+01
 20
-1.22526236E+02
  0
VERTEX
  8
0
 62
4
 10
-6.71543563E+01
 20
-1.22294148E+02
  0
VERTEX
  8
0
 62
4
 10
-6.72808430E+01
 20
-1.22071322E+02
  0
VERTEX
  8
0
 62
4
 10
-6.74280254E+01
 20
-1.21859453E+02
  0
VERTEX
  8
0
 62
4
 10
-6.75947832E+01
 20
-1.21660155E+02
  0
VERTEX
  8
0
 62
4
 10
-6.77798475E+01
 20
-1.21474943E+02
  0
VERTEX
  8
0
 62
4
 10
-6.79818097E+01
 20
-1.21305228E+02
  0
VERTEX
  8
0
 62
4
 10
-6.81991328E+01
 20
-1.21152301E+02
  0
VERTEX
  8
0
 62
4
 10
-6.84301628E+01
 20
-1.21017326E+02
  0
VERTEX
  8
0
 62
4
 10
-6.86731415E+01
 20
-1.20901331E+02
  0
VERTEX
  8
0
 62
4
 10
-6.89262196E+01
 20
-1.20805197E+02
  0
VERTEX
  8
0
 62
4
 10
-6.91874710E+01
 20
-1.20729656E+02
  0
VERTEX
  8
0
 62
4
 10
-6.94549075E+01
 20
-1.20675284E+02
  0
VERTEX
  8
0
 62
4
 10
-6.97264938E+01
 20
-1.20642495E+02
  0
VERTEX
  8
0
 62
4
 10
-7.00001628E+01
 20
-1.20631537E+02
  0
VERTEX
  8
0
 62
4
 10
-7.02738318E+01
 20
-1.20642495E+02
  0
VERTEX
  8
0
 62
4
 10
-7.05454181E+01
 20
-1.20675284E+02
  0
VERTEX
  8
0
 62
4
 10
-7.08128546E+01
 20
-1.20729656E+02
  0
VERTEX
  8
0
 62
4
 10
-7.10741061E+01
 20
-1.20805197E+02
  0
VERTEX
  8
0
 62
4
 10
-7.13271841E+01
 20
-1.20901331E+02
  0
VERTEX
  8
0
 62
4
 10
-7.15701628E+01
 20
-1.21017326E+02
  0
VERTEX
  8
0
 62
4
 10
-7.18011928E+01
 20
-1.21152301E+02
  0
VERTEX
  8
0
 62
4
 10
-7.20185159E+01
 20
-1.21305228E+02
  0
VERTEX
  8
0
 62
4
 10
-7.22204781E+01
 20
-1.21474943E+02
  0
VERTEX
  8
0
 62
4
 10
-7.24055424E+01
 20
-1.21660155E+02
  0
VERTEX
  8
0
 62
4
 10
-7.25723002E+01
 20
-1.21859453E+02
  0
VERTEX
  8
0
 62
4
 10
-7.27194826E+01
 20
-1.22071322E+02
  0
VERTEX
  8
0
 62
4
 10
-7.28459693E+01
 20
-1.22294148E+02
  0
VERTEX
  8
0
 62
4
 10
-7.29507976E+01
 20
-1.22526236E+02
  0
VERTEX
  8
0
 62
4
 10
-7.30331699E+01
 20
-1.22765819E+02
  0
VERTEX
  8
0
 62
4
 10
-7.30924591E+01
 20
-1.23011074E+02
  0
VERTEX
  8
0
 62
4
 10
-7.31282142E+01
 20
-1.23260135E+02
  0
VERTEX
  8
0
 62
4
 10
-7.31401628E+01
 20
-1.23511106E+02
  0
VERTEX
  8
0
 62
4
 10
-7.31282142E+01
 20
-1.23762077E+02
  0
VERTEX
  8
0
 62
4
 10
-7.30924591E+01
 20
-1.24011138E+02
  0
VERTEX
  8
0
 62
4
 10
-7.30331699E+01
 20
-1.24256393E+02
  0
VERTEX
  8
0
 62
4
 10
-7.29507976E+01
 20
-1.24495976E+02
  0
VERTEX
  8
0
 62
4
 10
-7.28459692E+01
 20
-1.24728064E+02
  0
VERTEX
  8
0
 62
4
 10
-7.27194826E+01
 20
-1.24950890E+02
  0
VERTEX
  8
0
 62
4
 10
-7.25723002E+01
 20
-1.25162759E+02
  0
VERTEX
  8
0
 62
4
 10
-7.24055423E+01
 20
-1.25362057E+02
  0
VERTEX
  8
0
 62
4
 10
-7.22204781E+01
 20
-1.25547269E+02
  0
VERTEX
  8
0
 62
4
 10
-7.20185159E+01
 20
-1.25716984E+02
  0
VERTEX
  8
0
 62
4
 10
-7.18011928E+01
 20
-1.25869911E+02
  0
VERTEX
  8
0
 62
4
 10
-7.15701628E+01
 20
-1.26004886E+02
  0
VERTEX
  8
0
 62
4
 10
-7.13271841E+01
 20
-1.26120881E+02
  0
VERTEX
  8
0
 62
4
 10
-7.10741060E+01
 20
-1.26217015E+02
  0
VERTEX
  8
0
 62
4
 10
-7.08128546E+01
 20
-1.26292556E+02
  0
VERTEX
  8
0
 62
4
 10
-7.05454181E+01
 20
-1.26346928E+02
  0
VERTEX
  8
0
 62
4
 10
-7.02738318E+01
 20
-1.26379717E+02
  0
VERTEX
  8
0
 62
4
 10
-7.00001628E+01
 20
-1.26390675E+02
  0
VERTEX
  8
0
 62
4
 10
-6.97264938E+01
 20
-1.26379717E+02
  0
VERTEX
  8
0
 62
4
 10
-6.94549075E+01
 20
-1.26346928E+02
  0
VERTEX
  8
0
 62
4
 10
-6.91874710E+01
 20
-1.26292556E+02
  0
VERTEX
  8
0
 62
4
 10
-6.89262195E+01
 20
-1.26217015E+02
  0
VERTEX
  8
0
 62
4
 10
-6.86731415E+01
 20
-1.26120881E+02
  0
VERTEX
  8
0
 62
4
 10
-6.84301628E+01
 20
-1.26004886E+02
  0
VERTEX
  8
0
 62
4
 10
-6.81991328E+01
 20
-1.25869911E+02
  0
VERTEX
  8
0
 62
4
 10
-6.79818097E+01
 20
-1.25716984E+02
  0
VERTEX
  8
0
 62
4
 10
-6.77798475E+01
 20
-1.25547269E+02
  0
VERTEX
  8
0
 62
4
 10
-6.75947832E+01
 20
-1.25362057E+02
  0
VERTEX
  8
0
 62
4
 10
-6.74280254E+01
 20
-1.25162759E+02
  0
VERTEX
  8
0
 62
4
 10
-6.72808430E+01
 20
-1.24950890E+02
  0
VERTEX
  8
0
 62
4
 10
-6.71543563E+01
 20
-1.24728064E+02
  0
VERTEX
  8
0
 62
4
 10
-6.70495280E+01
 20
-1.24495976E+02
  0
VERTEX
  8
0
 62
4
 10
-6.69671557E+01
 20
-1.24256393E+02
  0
VERTEX
  8
0
 62
4
 10
-6.69078665E+01
 20
-1.24011138E+02
  0
VERTEX
  8
0
 62
4
 10
-6.68721114E+01
 20
-1.23762077E+02
  0
VERTEX
  8
0
 62
4
 10
-6.68601628E+01
 20
-1.23511106E+02
  0
SEQEND
  8
0
  0
POLYLINE
  8
0
 62
4
 66
1
  0
VERTEX
  8
0
 62
4
 10
-7.18580616E+01
 20
-1.21189692E+02
  0
VERTEX
  8
0
 62
4
 10
-7.21102358E+01
 20
-1.21349041E+02
  0
VERTEX
  8
0
 62
4
 10
-7.23462555E+01
 20
-1.21527996E+02
  0
VERTEX
  8
0
 62
4
 10
-7.25643138E+01
 20
-1.21725186E+02
  0
VERTEX
  8
0
 62
4
 10
-7.27627412E+01
 20
-1.21939101E+02
  0
VERTEX
  8
0
 62
4
 10
-7.29400185E+01
 20
-1.22168105E+02
  0
VERTEX
  8
0
 62
4
 10
-7.30947886E+01
 20
-1.22410443E+02
  0
VERTEX
  8
0
 62
4
 10
-7.32258666E+01
 20
-1.22664261E+02
  0
VERTEX
  8
0
 62
4
 10
-7.33322488E+01
 20
-1.22927614E+02
  0
VERTEX
  8
0
 62
4
 10
-7.34131210E+01
 20
-1.23198488E+02
  0
VERTEX
  8
0
 62
4
 10
-7.34678639E+01
 20
-1.23474808E+02
  0
VERTEX
  8
0
 62
4
 10
-7.34960584E+01
 20
-1.23754458E+02
  0
VERTEX
  8
0
 62
4
 10
-7.34974888E+01
 20
-1.24035299E+02
  0
VERTEX
  8
0
 62
4
 10
-7.34721439E+01
 20
-1.24315178E+02
  0
VERTEX
  8
0
 62
4
 10
-7.34202179E+01
 20
-1.24591955E+02
  0
VERTEX
  8
0
 62
4
 10
-7.33421083E+01
 20
-1.24863510E+02
  0
VERTEX
  8
0
 62
4
 10
-7.32384130E+01
 20
-1.25127763E+02
  0
VERTEX
  8
0
 62
4
 10
-7.31099261E+01
 20
-1.25382692E+02
  0
VERTEX
  8
0
 62
4
 10
-7.29576311E+01
 20
-1.25626346E+02
  0
VERTEX
  8
0
 62
4
 10
-7.27826941E+01
 20
-1.25856858E+02
  0
VERTEX
  8
0
 62
4
 10
-7.25864543E+01
 20
-1.26072464E+02
  0
VERTEX
  8
0
 62
4
 10
-7.23704140E+01
 20
-1.26271513E+02
  0
VERTEX
  8
0
 62
4
 10
-7.21362274E+01
 20
-1.26452482E+02
  0
VERTEX
  8
0
 62
4
 10
-7.18856873E+01
 20
-1.26613985E+02
  0
VERTEX
  8
0
 62
4
 10
-7.16207118E+01
 20
-1.26754785E+02
  0
VERTEX
  8
0
 62
4
 10
-7.13433295E+01
 20
-1.26873804E+02
  0
VERTEX
  8
0
 62
4
 10
-7.10556641E+01
 20
-1.26970132E+02
  0
VERTEX
  8
0
 62
4
 10
-7.07599179E+01
 20
-1.27043031E+02
  0
VERTEX
  8
0
 62
4
 10
-7.04583550E+01
 20
-1.27091942E+02
  0
VERTEX
  8
0
 62
4
 10
-7.01532843E+01
 20
-1.27116492E+02
  0
VERTEX
  8
0
 62
4
 10
-6.98470413E+01
 20
-1.27116492E+02
  0
VERTEX
  8
0
 62
4
 10
-6.95419706E+01
 20
-1.27091942E+02
  0
VERTEX
  8
0
 62
4
 10
-6.92404077E+01
 20
-1.27043031E+02
  0
VERTEX
  8
0
 62
4
 10
-6.89446615E+01
 20
-1.26970132E+02
  0
VERTEX
  8
0
 62
4
 10
-6.86569961E+01
 20
-1.26873804E+02
  0
VERTEX
  8
0
 62
4
 10
-6.83796138E+01
 20
-1.26754785E+02
  0
VERTEX
  8
0
 62
4
 10
-6.81146383E+01
 20
-1.26613985E+02
  0
VERTEX
  8
0
 62
4
 10
-6.78640982E+01
 20
-1.26452482E+02
  0
VERTEX
  8
0
 62
4
 10
-6.76299116E+01
 20
-1.26271513E+02
  0
VERTEX
  8
0
 62
4
 10
-6.74138713E+01
 20
-1.26072464E+02
  0
VERTEX
  8
0
 62
4
 10
-6.72176315E+01
 20
-1.25856858E+02
  0
VERTEX
  8
0
 62
4
 10
-6.70426945E+01
 20
-1.25626346E+02
  0
VERTEX
  8
0
 62
4
 10
-6.68903995E+01
 20
-1.25382692E+02
  0
VERTEX
  8
0
 62
4
 10
-6.67619126E+01
 20
-1.25127763E+02
  0
VERTEX
  8
0
 62
4
 10
-6.66582173E+01
 20
-1.24863510E+02
  0
VERTEX
  8
0
 62
4
 10
-6.65801077E+01
 20
-1.24591955E+02
  0
VERTEX
  8
0
 62
4
 10
-6.65281817E+01
 20
-1.24315178E+02
  0
VERTEX
  8
0
 62
4
 10
-6.65028368E+01
 20
-1.24035299E+02
  0
VERTEX
  8
0
 62
4
 10
-6.65042672E+01
 20
-1.23754458E+02
  0
VERTEX
  8
0
 62
4
 10
-6.65324617E+01
 20
-1.23474808E+02
  0
VERTEX
  8
0
 62
4
 10
-6.65872046E+01
 20
-1.23198488E+02
  0
VERTEX
  8
0
 62
4
 10
-6.66680768E+01
 20
-1.22927614E+02
  0
VERTEX
  8
0
 62
4
 10
-6.67744590E+01
 20
-1.22664261E+02
  0
VERTEX
  8
0
 62
4
 10
-6.69055370E+01
 20
-1.22410443E+02
  0
VERTEX
  8
0
 62
4
 10
-6.70603071E+01
 20
-1.22168105E+02
  0
VERTEX
  8
0
 62
4
 10
-6.72375844E+01
 20
-1.21939101E+02
  0
VERTEX
  8
0
 62
4
 10
-6.74360118E+01
 20
-1.21725186E+02
  0
VERTEX
  8
0
 62
4
 10
-6.76540701E+01
 20
-1.21527996E+02
  0
VERTEX
  8
0
 62
4
 10
-6.78900898E+01
 20
-1.21349041E+02
  0
VERTEX
  8
0
 62
4
 10
-6.81422640E+01
 20
-1.21189692E+02
  0
SEQEND
  8
0
  0
LINE
  8
0
 62
4
 10
-8.28662267E+01
 20
-1.40895812E+02
 11
-6.05001628E+01
 21
-1.40895812E+02
  0
ARC
  8
0
 62
4
 10
-8.17645678E+01
 20
-1.29698074E+02
 40
1.21769740E+01
 50
2.40462101E+02
 51
2.58262147E+02
  0
ARC
  8
0
 62
4
 10
-9.02357578E+01
 20
-1.29698074E+02
 40
1.21769740E+01
 50
2.81737853E+02
 51
2.99537899E+02
  0
POLYLINE
  8
0
 62
4
 66
1
  0
VERTEX
  8
0
 62
4
 10
-8.26001628E+01
 20
-1.40252749E+02
  0
VERTEX
  8
0
 62
4
 10
-8.26131008E+01
 20
-1.40108222E+02
  0
VERTEX
  8
0
 62
4
 10
-8.26518164E+01
 20
-1.39964796E+02
  0
VERTEX
  8
0
 62
4
 10
-8.27160150E+01
 20
-1.39823560E+02
  0
VERTEX
  8
0
 62
4
 10
-8.28052079E+01
 20
-1.39685591E+02
  0
VERTEX
  8
0
 62
4
 10
-8.29187163E+01
 20
-1.39551939E+02
  0
VERTEX
  8
0
 62
4
 10
-8.30556764E+01
 20
-1.39423620E+02
  0
VERTEX
  8
0
 62
4
 10
-8.32150458E+01
 20
-1.39301611E+02
  0
VERTEX
  8
0
 62
4
 10
-8.33956117E+01
 20
-1.39186841E+02
  0
VERTEX
  8
0
 62
4
 10
-8.35959997E+01
 20
-1.39080184E+02
  0
VERTEX
  8
0
 62
4
 10
-8.38146849E+01
 20
-1.38982450E+02
  0
VERTEX
  8
0
 62
4
 10
-8.40500029E+01
 20
-1.38894384E+02
  0
VERTEX
  8
0
 62
4
 10
-8.43001628E+01
 20
-1.38816656E+02
  0
VERTEX
  8
0
 62
4
 10
-8.45632607E+01
 20
-1.38749857E+02
  0
VERTEX
  8
0
 62
4
 10
-8.48372943E+01
 20
-1.38694496E+02
  0
VERTEX
  8
0
 62
4
 10
-8.51201780E+01
 20
-1.38650995E+02
  0
VERTEX
  8
0
 62
4
 10
-8.54097590E+01
 20
-1.38619684E+02
  0
VERTEX
  8
0
 62
4
 10
-8.57038333E+01
 20
-1.38600801E+02
  0
VERTEX
  8
0
 62
4
 10
-8.60001628E+01
 20
-1.38594491E+02
  0
VERTEX
  8
0
 62
4
 10
-8.62964923E+01
 20
-1.38600801E+02
  0
VERTEX
  8
0
 62
4
 10
-8.65905666E+01
 20
-1.38619684E+02
  0
VERTEX
  8
0
 62
4
 10
-8.68801476E+01
 20
-1.38650995E+02
  0
VERTEX
  8
0
 62
4
 10
-8.71630313E+01
 20
-1.38694496E+02
  0
VERTEX
  8
0
 62
4
 10
-8.74370649E+01
 20
-1.38749857E+02
  0
VERTEX
  8
0
 62
4
 10
-8.77001628E+01
 20
-1.38816656E+02
  0
VERTEX
  8
0
 62
4
 10
-8.79503227E+01
 20
-1.38894384E+02
  0
VERTEX
  8
0
 62
4
 10
-8.81856407E+01
 20
-1.38982450E+02
  0
VERTEX
  8
0
 62
4
 10
-8.84043259E+01
 20
-1.39080184E+02
  0
VERTEX
  8
0
 62
4
 10
-8.86047139E+01
 20
-1.39186841E+02
  0
VERTEX
  8
0
 62
4
 10
-8.87852798E+01
 20
-1.39301611E+02
  0
VERTEX
  8
0
 62
4
 10
-8.89446492E+01
 20
-1.39423620E+02
  0
VERTEX
  8
0
 62
4
 10
-8.90816093E+01
 20
-1.39551939E+02
  0
VERTEX
  8
0
 62
4
 10
-8.91951177E+01
 20
-1.39685591E+02
  0
VERTEX
  8
0
 62
4
 10
-8.92843106E+01
 20
-1.39823560E+02
  0
VERTEX
  8
0
 62
4
 10
-8.93485092E+01
 20
-1.39964796E+02
  0
VERTEX
  8
0
 62
4
 10
-8.93872248E+01
 20
-1.40108222E+02
  0
VERTEX
  8
0
 62
4
 10
-8.94001628E+01
 20
-1.40252749E+02
  0
VERTEX
  8
0
 62
4
 10
-8.93872248E+01
 20
-1.40397276E+02
  0
VERTEX
  8
0
 62
4
 10
-8.93485092E+01
 20
-1.40540702E+02
  0
VERTEX
  8
0
 62
4
 10
-8.92843106E+01
 20
-1.40681938E+02
  0
VERTEX
  8
0
 62
4
 10
-8.91951177E+01
 20
-1.40819907E+02
  0
VERTEX
  8
0
 62
4
 10
-8.90816093E+01
 20
-1.40953559E+02
  0
VERTEX
  8
0
 62
4
 10
-8.89446492E+01
 20
-1.41081878E+02
  0
VERTEX
  8
0
 62
4
 10
-8.87852797E+01
 20
-1.41203887E+02
  0
VERTEX
  8
0
 62
4
 10
-8.86047139E+01
 20
-1.41318657E+02
  0
VERTEX
  8
0
 62
4
 10
-8.84043259E+01
 20
-1.41425314E+02
  0
VERTEX
  8
0
 62
4
 10
-8.81856407E+01
 20
-1.41523048E+02
  0
VERTEX
  8
0
 62
4
 10
-8.79503227E+01
 20
-1.41611114E+02
  0
VERTEX
  8
0
 62
4
 10
-8.77001628E+01
 20
-1.41688842E+02
  0
VERTEX
  8
0
 62
4
 10
-8.74370649E+01
 20
-1.41755641E+02
  0
VERTEX
  8
0
 62
4
 10
-8.71630313E+01
 20
-1.41811002E+02
  0
VERTEX
  8
0
 62
4
 10
-8.68801475E+01
 20
-1.41854503E+02
  0
VERTEX
  8
0
 62
4
 10
-8.65905666E+01
 20
-1.41885814E+02
  0
VERTEX
  8
0
 62
4
 10
-8.62964923E+01
 20
-1.41904697E+02
  0
VERTEX
  8
0
 62
4
 10
-8.60001628E+01
 20
-1.41911007E+02
  0
VERTEX
  8
0
 62
4
 10
-8.57038333E+01
 20
-1.41904697E+02
  0
VERTEX
  8
0
 62
4
 10
-8.54097590E+01
 20
-1.41885814E+02
  0
VERTEX
  8
0
 62
4
 10
-8.51201780E+01
 20
-1.41854503E+02
  0
VERTEX
  8
0
 62
4
 10
-8.48372943E+01
 20
-1.41811002E+02
  0
VERTEX
  8
0
 62
4
 10
-8.45632607E+01
 20
-1.41755641E+02
  0
VERTEX
  8
0
 62
4
 10
-8.43001628E+01
 20
-1.41688842E+02
  0
VERTEX
  8
0
 62
4
 10
-8.40500029E+01
 20
-1.41611114E+02
  0
VERTEX
  8
0
 62
4
 10
-8.38146849E+01
 20
-1.41523048E+02
  0
VERTEX
  8
0
 62
4
 10
-8.35959997E+01
 20
-1.41425314E+02
  0
VERTEX
  8
0
 62
4
 10
-8.33956117E+01
 20
-1.41318657E+02
  0
VERTEX
  8
0
 62
4
 10
-8.32150458E+01
 20
-1.41203887E+02
  0
VERTEX
  8
0
 62
4
 10
-8.30556764E+01
 20
-1.41081878E+02
  0
VERTEX
  8
0
 62
4
 10
-8.29187163E+01
 20
-1.40953559E+02
  0
VERTEX
  8
0
 62
4
 10
-8.28052079E+01
 20
-1.40819907E+02
  0
VERTEX
  8
0
 62
4
 10
-8.27160150E+01
 20
-1.40681938E+02
  0
VERTEX
  8
0
 62
4
 10
-8.26518164E+01
 20
-1.40540702E+02
  0
VERTEX
  8
0
 62
4
 10
-8.26131008E+01
 20
-1.40397276E+02
  0
VERTEX
  8
0
 62
4
 10
-8.26001628E+01
 20
-1.40252749E+02
  0
SEQEND
  8
0
  0
POLYLINE
  8
0
 62
4
 66
1
  0
VERTEX
  8
0
 62
4
 10
-8.26001628E+01
 20
-1.38363724E+02
  0
VERTEX
  8
0
 62
4
 10
-8.26138502E+01
 20
-1.38242196E+02
  0
VERTEX
  8
0
 62
4
 10
-8.26548022E+01
 20
-1.38121646E+02
  0
VERTEX
  8
0
 62
4
 10
-8.27226891E+01
 20
-1.38003045E+02
  0
VERTEX
  8
0
 62
4
 10
-8.28169642E+01
 20
-1.37887349E+02
  0
VERTEX
  8
0
 62
4
 10
-8.29368686E+01
 20
-1.37775487E+02
  0
VERTEX
  8
0
 62
4
 10
-8.30814369E+01
 20
-1.37668362E+02
  0
VERTEX
  8
0
 62
4
 10
-8.32495050E+01
 20
-1.37566836E+02
  0
VERTEX
  8
0
 62
4
 10
-8.34397198E+01
 20
-1.37471726E+02
  0
VERTEX
  8
0
 62
4
 10
-8.36505498E+01
 20
-1.37383797E+02
  0
VERTEX
  8
0
 62
4
 10
-8.38802975E+01
 20
-1.37303758E+02
  0
VERTEX
  8
0
 62
4
 10
-8.41271131E+01
 20
-1.37232254E+02
  0
VERTEX
  8
0
 62
4
 10
-8.43890093E+01
 20
-1.37169859E+02
  0
VERTEX
  8
0
 62
4
 10
-8.46638777E+01
 20
-1.37117077E+02
  0
VERTEX
  8
0
 62
4
 10
-8.49495050E+01
 20
-1.37074332E+02
  0
VERTEX
  8
0
 62
4
 10
-8.52435916E+01
 20
-1.37041969E+02
  0
VERTEX
  8
0
 62
4
 10
-8.55437697E+01
 20
-1.37020247E+02
  0
VERTEX
  8
0
 62
4
 10
-8.58476224E+01
 20
-1.37009342E+02
  0
VERTEX
  8
0
 62
4
 10
-8.61527032E+01
 20
-1.37009342E+02
  0
VERTEX
  8
0
 62
4
 10
-8.64565559E+01
 20
-1.37020247E+02
  0
VERTEX
  8
0
 62
4
 10
-8.67567340E+01
 20
-1.37041969E+02
  0
VERTEX
  8
0
 62
4
 10
-8.70508206E+01
 20
-1.37074332E+02
  0
VERTEX
  8
0
 62
4
 10
-8.73364479E+01
 20
-1.37117077E+02
  0
VERTEX
  8
0
 62
4
 10
-8.76113162E+01
 20
-1.37169859E+02
  0
VERTEX
  8
0
 62
4
 10
-8.78732125E+01
 20
-1.37232254E+02
  0
VERTEX
  8
0
 62
4
 10
-8.81200281E+01
 20
-1.37303758E+02
  0
VERTEX
  8
0
 62
4
 10
-8.83497758E+01
 20
-1.37383797E+02
  0
VERTEX
  8
0
 62
4
 10
-8.85606058E+01
 20
-1.37471726E+02
  0
VERTEX
  8
0
 62
4
 10
-8.87508206E+01
 20
-1.37566836E+02
  0
VERTEX
  8
0
 62
4
 10
-8.89188887E+01
 20
-1.37668362E+02
  0
VERTEX
  8
0
 62
4
 10
-8.90634569E+01
 20
-1.37775487E+02
  0
VERTEX
  8
0
 62
4
 10
-8.91833614E+01
 20
-1.37887349E+02
  0
VERTEX
  8
0
 62
4
 10
-8.92776365E+01
 20
-1.38003045E+02
  0
VERTEX
  8
0
 62
4
 10
-8.93455234E+01
 20
-1.38121646E+02
  0
VERTEX
  8
0
 62
4
 10
-8.93864754E+01
 20
-1.38242196E+02
  0
VERTEX
  8
0
 62
4
 10
-8.94001628E+01
 20
-1.38363724E+02
  0
SEQEND
  8
0
  0
LINE
  8
0
 62
4
 10
-8.94001628E+01
 20
-1.38363724E+02
 11
-8.94001628E+01
 21
-1.40252749E+02
  0
LINE
  8
0
 62
4
 10
-8.26001628E+01
 20
-1.38363724E+02
 11
-8.26001628E+01
 21
-1.40252749E+02
  0
POLYLINE
  8
0
 62
4
 66
1
  0
VERTEX
  8
0
 62
4
 10
-8.26001628E+01
 20
-1.39203940E+02
  0
VERTEX
  8
0
 62
4
 10
-8.24271108E+01
 20
-1.39080730E+02
  0
VERTEX
  8
0
 62
4
 10
-8.22820678E+01
 20
-1.38951898E+02
  0
VERTEX
  8
0
 62
4
 10
-8.21661710E+01
 20
-1.38818456E+02
  0
VERTEX
  8
0
 62
4
 10
-8.20803287E+01
 20
-1.38681450E+02
  0
VERTEX
  8
0
 62
4
 10
-8.20252139E+01
 20
-1.38541953E+02
  0
VERTEX
  8
0
 62
4
 10
-8.20012587E+01
 20
-1.38401058E+02
  0
VERTEX
  8
0
 62
4
 10
-8.20086509E+01
 20
-1.38259871E+02
  0
VERTEX
  8
0
 62
4
 10
-8.20473324E+01
 20
-1.38119498E+02
  0
VERTEX
  8
0
 62
4
 10
-8.21170001E+01
 20
-1.37981040E+02
  0
VERTEX
  8
0
 62
4
 10
-8.22171078E+01
 20
-1.37845581E+02
  0
VERTEX
  8
0
 62
4
 10
-8.23468709E+01
 20
-1.37714184E+02
  0
VERTEX
  8
0
 62
4
 10
-8.25052720E+01
 20
-1.37587879E+02
  0
VERTEX
  8
0
 62
4
 10
-8.26910695E+01
 20
-1.37467656E+02
  0
VERTEX
  8
0
 62
4
 10
-8.29028070E+01
 20
-1.37354457E+02
  0
VERTEX
  8
0
 62
4
 10
-8.31388246E+01
 20
-1.37249169E+02
  0
VERTEX
  8
0
 62
4
 10
-8.33972721E+01
 20
-1.37152619E+02
  0
VERTEX
  8
0
 62
4
 10
-8.36761237E+01
 20
-1.37065562E+02
  0
VERTEX
  8
0
 62
4
 10
-8.39731933E+01
 20
-1.36988682E+02
  0
VERTEX
  8
0
 62
4
 10
-8.42861524E+01
 20
-1.36922580E+02
  0
VERTEX
  8
0
 62
4
 10
-8.46125475E+01
 20
-1.36867776E+02
  0
VERTEX
  8
0
 62
4
 10
-8.49498202E+01
 20
-1.36824698E+02
  0
VERTEX
  8
0
 62
4
 10
-8.52953264E+01
 20
-1.36793685E+02
  0
VERTEX
  8
0
 62
4
 10
-8.56463579E+01
 20
-1.36774979E+02
  0
VERTEX
  8
0
 62
4
 10
-8.60001628E+01
 20
-1.36768728E+02
  0
VERTEX
  8
0
 62
4
 10
-8.63539677E+01
 20
-1.36774979E+02
  0
VERTEX
  8
0
 62
4
 10
-8.67049992E+01
 20
-1.36793685E+02
  0
VERTEX
  8
0
 62
4
 10
-8.70505054E+01
 20
-1.36824698E+02
  0
VERTEX
  8
0
 62
4
 10
-8.73877780E+01
 20
-1.36867776E+02
  0
VERTEX
  8
0
 62
4
 10
-8.77141732E+01
 20
-1.36922580E+02
  0
VERTEX
  8
0
 62
4
 10
-8.80271322E+01
 20
-1.36988682E+02
  0
VERTEX
  8
0
 62
4
 10
-8.83242019E+01
 20
-1.37065562E+02
  0
VERTEX
  8
0
 62
4
 10
-8.86030535E+01
 20
-1.37152619E+02
  0
VERTEX
  8
0
 62
4
 10
-8.88615010E+01
 20
-1.37249169E+02
  0
VERTEX
  8
0
 62
4
 10
-8.90975186E+01
 20
-1.37354457E+02
  0
VERTEX
  8
0
 62
4
 10
-8.93092560E+01
 20
-1.37467656E+02
  0
VERTEX
  8
0
 62
4
 10
-8.94950536E+01
 20
-1.37587879E+02
  0
VERTEX
  8
0
 62
4
 10
-8.96534547E+01
 20
-1.37714184E+02
  0
VERTEX
  8
0
 62
4
 10
-8.97832178E+01
 20
-1.37845581E+02
  0
VERTEX
  8
0
 62
4
 10
-8.98833255E+01
 20
-1.37981040E+02
  0
VERTEX
  8
0
 62
4
 10
-8.99529932E+01
 20
-1.38119498E+02
  0
VERTEX
  8
0
 62
4
 10
-8.99916747E+01
 20
-1.38259871E+02
  0
VERTEX
  8
0
 62
4
 10
-8.99990669E+01
 20
-1.38401058E+02
  0
VERTEX
  8
0
 62
4
 10
-8.99751117E+01
 20
-1.38541953E+02
  0
VERTEX
  8
0
 62
4
 10
-8.99199969E+01
 20
-1.38681450E+02
  0
VERTEX
  8
0
 62
4
 10
-8.98341546E+01
 20
-1.38818456E+02
  0
VERTEX
  8
0
 62
4
 10
-8.97182578E+01
 20
-1.38951898E+02
  0
VERTEX
  8
0
 62
4
 10
-8.95732148E+01
 20
-1.39080730E+02
  0
VERTEX
  8
0
 62
4
 10
-8.94001628E+01
 20
-1.39203940E+02
  0
SEQEND
  8
0
  0
POLYLINE
  8
0
 62
4
 66
1
  0
VERTEX
  8
0
 62
4
 10
-8.20001628E+01
 20
-1.37905194E+02
  0
VERTEX
  8
0
 62
4
 10
-8.20162656E+01
 20
-1.37762220E+02
  0
VERTEX
  8
0
 62
4
 10
-8.20644444E+01
 20
-1.37620396E+02
  0
VERTEX
  8
0
 62
4
 10
-8.21443114E+01
 20
-1.37480866E+02
  0
VERTEX
  8
0
 62
4
 10
-8.22552233E+01
 20
-1.37344752E+02
  0
VERTEX
  8
0
 62
4
 10
-8.23962873E+01
 20
-1.37213151E+02
  0
VERTEX
  8
0
 62
4
 10
-8.25663676E+01
 20
-1.37087122E+02
  0
VERTEX
  8
0
 62
4
 10
-8.27640948E+01
 20
-1.36967679E+02
  0
VERTEX
  8
0
 62
4
 10
-8.29878769E+01
 20
-1.36855784E+02
  0
VERTEX
  8
0
 62
4
 10
-8.32359122E+01
 20
-1.36752339E+02
  0
VERTEX
  8
0
 62
4
 10
-8.35062036E+01
 20
-1.36658176E+02
  0
VERTEX
  8
0
 62
4
 10
-8.37965749E+01
 20
-1.36574053E+02
  0
VERTEX
  8
0
 62
4
 10
-8.41046881E+01
 20
-1.36500647E+02
  0
VERTEX
  8
0
 62
4
 10
-8.44280627E+01
 20
-1.36438551E+02
  0
VERTEX
  8
0
 62
4
 10
-8.47640948E+01
 20
-1.36388262E+02
  0
VERTEX
  8
0
 62
4
 10
-8.51100791E+01
 20
-1.36350188E+02
  0
VERTEX
  8
0
 62
4
 10
-8.54632297E+01
 20
-1.36324633E+02
  0
VERTEX
  8
0
 62
4
 10
-8.58207035E+01
 20
-1.36311804E+02
  0
VERTEX
  8
0
 62
4
 10
-8.61796221E+01
 20
-1.36311804E+02
  0
VERTEX
  8
0
 62
4
 10
-8.65370959E+01
 20
-1.36324633E+02
  0
VERTEX
  8
0
 62
4
 10
-8.68902465E+01
 20
-1.36350188E+02
  0
VERTEX
  8
0
 62
4
 10
-8.72362308E+01
 20
-1.36388262E+02
  0
VERTEX
  8
0
 62
4
 10
-8.75722629E+01
 20
-1.36438551E+02
  0
VERTEX
  8
0
 62
4
 10
-8.78956374E+01
 20
-1.36500647E+02
  0
VERTEX
  8
0
 62
4
 10
-8.82037507E+01
 20
-1.36574053E+02
  0
VERTEX
  8
0
 62
4
 10
-8.84941220E+01
 20
-1.36658176E+02
  0
VERTEX
  8
0
 62
4
 10
-8.87644134E+01
 20
-1.36752339E+02
  0
VERTEX
  8
0
 62
4
 10
-8.90124487E+01
 20
-1.36855784E+02
  0
VERTEX
  8
0
 62
4
 10
-8.92362308E+01
 20
-1.36967679E+02
  0
VERTEX
  8
0
 62
4
 10
-8.94339580E+01
 20
-1.37087122E+02
  0
VERTEX
  8
0
 62
4
 10
-8.96040383E+01
 20
-1.37213151E+02
  0
VERTEX
  8
0
 62
4
 10
-8.97451023E+01
 20
-1.37344752E+02
  0
VERTEX
  8
0
 62
4
 10
-8.98560142E+01
 20
-1.37480866E+02
  0
VERTEX
  8
0
 62
4
 10
-8.99358812E+01
 20
-1.37620396E+02
  0
VERTEX
  8
0
 62
4
 10
-8.99840600E+01
 20
-1.37762220E+02
  0
VERTEX
  8
0
 62
4
 10
-9.00001628E+01
 20
-1.37905194E+02
  0
SEQEND
  8
0
  0
LINE
  8
0
 62
4
 10
-9.00001628E+01
 20
-1.37905194E+02
 11
-9.00001628E+01
 21
-1.38363724E+02
  0
LINE
  8
0
 62
4
 10
-8.20001628E+01
 20
-1.37905194E+02
 11
-8.20001628E+01
 21
-1.38363724E+02
  0
LINE
  8
0
  6
CENTER
 62
6
 10
-7.00001628E+01
 20
-1.17734099E+02
 11
-7.00001628E+01
 21
-1.29288112E+02
  0
LINE
  8
0
  6
CENTER
 62
6
 10
-7.57771693E+01
 20
-1.23511106E+02
 11
-6.42231563E+01
 21
-1.23511106E+02
  0
POLYLINE
  8
0
 62
4
 66
1
  0
VERTEX
  8
0
 62
4
 10
-8.30001628E+01
 20
-1.12346132E+02
  0
VERTEX
  8
0
 62
4
 10
-8.30115787E+01
 20
-1.12106351E+02
  0
VERTEX
  8
0
 62
4
 10
-8.30457395E+01
 20
-1.11868395E+02
  0
VERTEX
  8
0
 62
4
 10
-8.31023853E+01
 20
-1.11634074E+02
  0
VERTEX
  8
0
 62
4
 10
-8.31810849E+01
 20
-1.11405173E+02
  0
VERTEX
  8
0
 62
4
 10
-8.32812394E+01
 20
-1.11183433E+02
  0
VERTEX
  8
0
 62
4
 10
-8.34020866E+01
 20
-1.10970542E+02
  0
VERTEX
  8
0
 62
4
 10
-8.35427067E+01
 20
-1.10768120E+02
  0
VERTEX
  8
0
 62
4
 10
-8.37020295E+01
 20
-1.10577707E+02
  0
VERTEX
  8
0
 62
4
 10
-8.38788425E+01
 20
-1.10400754E+02
  0
VERTEX
  8
0
 62
4
 10
-8.40718000E+01
 20
-1.10238606E+02
  0
VERTEX
  8
0
 62
4
 10
-8.42794335E+01
 20
-1.10092497E+02
  0
VERTEX
  8
0
 62
4
 10
-8.45001628E+01
 20
-1.09963540E+02
  0
VERTEX
  8
0
 62
4
 10
-8.47323080E+01
 20
-1.09852716E+02
  0
VERTEX
  8
0
 62
4
 10
-8.49741024E+01
 20
-1.09760868E+02
  0
VERTEX
  8
0
 62
4
 10
-8.52237057E+01
 20
-1.09688696E+02
  0
VERTEX
  8
0
 62
4
 10
-8.54792183E+01
 20
-1.09636748E+02
  0
VERTEX
  8
0
 62
4
 10
-8.57386956E+01
 20
-1.09605421E+02
  0
VERTEX
  8
0
 62
4
 10
-8.60001628E+01
 20
-1.09594952E+02
  0
VERTEX
  8
0
 62
4
 10
-8.62616300E+01
 20
-1.09605421E+02
  0
VERTEX
  8
0
 62
4
 10
-8.65211073E+01
 20
-1.09636748E+02
  0
VERTEX
  8
0
 62
4
 10
-8.67766199E+01
 20
-1.09688696E+02
  0
VERTEX
  8
0
 62
4
 10
-8.70262232E+01
 20
-1.09760868E+02
  0
VERTEX
  8
0
 62
4
 10
-8.72680176E+01
 20
-1.09852716E+02
  0
VERTEX
  8
0
 62
4
 10
-8.75001628E+01
 20
-1.09963540E+02
  0
VERTEX
  8
0
 62
4
 10
-8.77208921E+01
 20
-1.10092497E+02
  0
VERTEX
  8
0
 62
4
 10
-8.79285256E+01
 20
-1.10238606E+02
  0
VERTEX
  8
0
 62
4
 10
-8.81214831E+01
 20
-1.10400754E+02
  0
VERTEX
  8
0
 62
4
 10
-8.82982961E+01
 20
-1.10577707E+02
  0
VERTEX
  8
0
 62
4
 10
-8.84576189E+01
 20
-1.10768120E+02
  0
VERTEX
  8
0
 62
4
 10
-8.85982390E+01
 20
-1.10970542E+02
  0
VERTEX
  8
0
 62
4
 10
-8.87190862E+01
 20
-1.11183433E+02
  0
VERTEX
  8
0
 62
4
 10
-8.88192407E+01
 20
-1.11405173E+02
  0
VERTEX
  8
0
 62
4
 10
-8.88979403E+01
 20
-1.11634074E+02
  0
VERTEX
  8
0
 62
4
 10
-8.89545861E+01
 20
-1.11868395E+02
  0
VERTEX
  8
0
 62
4
 10
-8.89887469E+01
 20
-1.12106351E+02
  0
VERTEX
  8
0
 62
4
 10
-8.90001628E+01
 20
-1.12346132E+02
  0
VERTEX
  8
0
 62
4
 10
-8.89887469E+01
 20
-1.12585913E+02
  0
VERTEX
  8
0
 62
4
 10
-8.89545861E+01
 20
-1.12823869E+02
  0
VERTEX
  8
0
 62
4
 10
-8.88979403E+01
 20
-1.13058190E+02
  0
VERTEX
  8
0
 62
4
 10
-8.88192407E+01
 20
-1.13287091E+02
  0
VERTEX
  8
0
 62
4
 10
-8.87190862E+01
 20
-1.13508831E+02
  0
VERTEX
  8
0
 62
4
 10
-8.85982390E+01
 20
-1.13721722E+02
  0
VERTEX
  8
0
 62
4
 10
-8.84576189E+01
 20
-1.13924144E+02
  0
VERTEX
  8
0
 62
4
 10
-8.82982961E+01
 20
-1.14114557E+02
  0
VERTEX
  8
0
 62
4
 10
-8.81214831E+01
 20
-1.14291510E+02
  0
VERTEX
  8
0
 62
4
 10
-8.79285256E+01
 20
-1.14453658E+02
  0
VERTEX
  8
0
 62
4
 10
-8.77208921E+01
 20
-1.14599767E+02
  0
VERTEX
  8
0
 62
4
 10
-8.75001628E+01
 20
-1.14728724E+02
  0
VERTEX
  8
0
 62
4
 10
-8.72680176E+01
 20
-1.14839548E+02
  0
VERTEX
  8
0
 62
4
 10
-8.70262232E+01
 20
-1.14931396E+02
  0
VERTEX
  8
0
 62
4
 10
-8.67766199E+01
 20
-1.15003568E+02
  0
VERTEX
  8
0
 62
4
 10
-8.65211073E+01
 20
-1.15055516E+02
  0
VERTEX
  8
0
 62
4
 10
-8.62616300E+01
 20
-1.15086843E+02
  0
VERTEX
  8
0
 62
4
 10
-8.60001628E+01
 20
-1.15097312E+02
  0
VERTEX
  8
0
 62
4
 10
-8.57386956E+01
 20
-1.15086843E+02
  0
VERTEX
  8
0
 62
4
 10
-8.54792183E+01
 20
-1.15055516E+02
  0
VERTEX
  8
0
 62
4
 10
-8.52237057E+01
 20
-1.15003568E+02
  0
VERTEX
  8
0
 62
4
 10
-8.49741024E+01
 20
-1.14931396E+02
  0
VERTEX
  8
0
 62
4
 10
-8.47323080E+01
 20
-1.14839548E+02
  0
VERTEX
  8
0
 62
4
 10
-8.45001628E+01
 20
-1.14728724E+02
  0
VERTEX
  8
0
 62
4
 10
-8.42794335E+01
 20
-1.14599767E+02
  0
VERTEX
  8
0
 62
4
 10
-8.40718000E+01
 20
-1.14453658E+02
  0
VERTEX
  8
0
 62
4
 10
-8.38788425E+01
 20
-1.14291510E+02
  0
VERTEX
  8
0
 62
4
 10
-8.37020295E+01
 20
-1.14114557E+02
  0
VERTEX
  8
0
 62
4
 10
-8.35427067E+01
 20
-1.13924144E+02
  0
VERTEX
  8
0
 62
4
 10
-8.34020866E+01
 20
-1.13721722E+02
  0
VERTEX
  8
0
 62
4
 10
-8.32812394E+01
 20
-1.13508831E+02
  0
VERTEX
  8
0
 62
4
 10
-8.31810849E+01
 20
-1.13287091E+02
  0
VERTEX
  8
0
 62
4
 10
-8.31023853E+01
 20
-1.13058190E+02
  0
VERTEX
  8
0
 62
4
 10
-8.30457395E+01
 20
-1.12823869E+02
  0
VERTEX
  8
0
 62
4
 10
-8.30115787E+01
 20
-1.12585913E+02
  0
VERTEX
  8
0
 62
4
 10
-8.30001628E+01
 20
-1.12346132E+02
  0
SEQEND
  8
0
  0
LINE
  8
0
  6
CENTER
 62
6
 10
-9.04518539E+01
 20
-1.12346132E+02
 11
-8.15484717E+01
 21
-1.12346132E+02
  0
LINE
  8
0
 62
4
 10
-1.13000163E+02
 20
-1.22194826E+02
 11
-1.08000163E+02
 21
-1.22194826E+02
  0
LINE
  8
0
 62
4
 10
-1.13000163E+02
 20
-1.19204208E+02
 11
-1.08000163E+02
 21
-1.19204208E+02
  0
LINE
  8
0
 62
4
 10
-1.13000163E+02
 20
-1.11744021E+02
 11
-1.08000163E+02
 21
-1.11744021E+02
  0
LINE
  8
0
 62
4
 10
-9.65001628E+01
 20
-1.34914576E+02
 11
-6.05001628E+01
 21
-1.34914576E+02
  0
LINE
  8
0
 62
4
 10
-9.55001628E+01
 20
-1.31026929E+02
 11
-7.65001628E+01
 21
-1.31026929E+02
  0
LINE
  8
0
 62
4
 10
-7.65001628E+01
 20
-1.13602788E+02
 11
-7.85001628E+01
 21
-1.13602788E+02
  0
LINE
  8
0
 62
4
 10
-9.35001628E+01
 20
-1.29192809E+02
 11
-7.85001628E+01
 21
-1.29192809E+02
  0
LINE
  8
0
 62
4
 10
-9.35001628E+01
 20
-1.19224082E+02
 11
-7.85001628E+01
 21
-1.19224082E+02
  0
LINE
  8
0
 62
6
 10
-8.32001628E+01
 20
-9.29492475E+01
 11
-8.32001628E+01
 21
-9.52475831E+01
  0
LINE
  8
0
 62
4
 10
-8.40001628E+01
 20
-9.29492475E+01
 11
-8.40001628E+01
 21
-9.52475831E+01
  0
LINE
  8
0
 62
6
 10
-8.08001628E+01
 20
-9.29492475E+01
 11
-8.08001628E+01
 21
-9.52475831E+01
  0
LINE
  8
0
 62
4
 10
-8.00001628E+01
 20
-9.29492475E+01
 11
-8.00001628E+01
 21
-9.52475831E+01
  0
LINE
  8
0
 62
4
 10
-8.40001628E+01
 20
-9.29492475E+01
 11
-8.00001628E+01
 21
-9.29492475E+01
  0
LINE
  8
0
 62
6
 10
-9.12001628E+01
 20
-9.29492475E+01
 11
-9.12001628E+01
 21
-9.52475831E+01
  0
LINE
  8
0
 62
6
 10
-8.88001628E+01
 20
-9.29492475E+01
 11
-8.88001628E+01
 21
-9.52475831E+01
  0
LINE
  8
0
 62
4
 10
-9.20001628E+01
 20
-9.29492475E+01
 11
-9.20001628E+01
 21
-9.52475831E+01
  0
LINE
  8
0
 62
4
 10
-8.80001628E+01
 20
-9.29492475E+01
 11
-8.80001628E+01
 21
-9.52475831E+01
  0
LINE
  8
0
 62
4
 10
-9.20001628E+01
 20
-9.29492475E+01
 11
-8.80001628E+01
 21
-9.29492475E+01
  0
LINE
  8
0
 62
4
 10
-9.35001628E+01
 20
-1.07741220E+02
 11
-1.02500163E+02
 21
-1.07741220E+02
  0
LINE
  8
0
 62
4
 10
-9.35001628E+01
 20
-1.05468181E+02
 11
-7.85001628E+01
 21
-1.05468181E+02
  0
LINE
  8
0
 62
4
 10
-9.55001628E+01
 20
-1.32621926E+02
 11
-9.55001628E+01
 21
-1.21741220E+02
  0
LINE
  8
0
 62
4
 10
-7.65001628E+01
 20
-1.13694662E+02
 11
-6.05001628E+01
 21
-1.13694662E+02
  0
ARC
  8
0
 62
4
 10
-6.05026689E+01
 20
-1.15197168E+02
 40
1.50250815E+00
 50
9.55645858E-02
 51
8.99044354E+01
  0
LINE
  8
0
 62
4
 10
-1.02500163E+02
 20
-1.21741220E+02
 11
-9.35001628E+01
 21
-1.21741220E+02
  0
LINE
  8
0
 62
4
 10
-1.03000163E+02
 20
-1.08241220E+02
 11
-1.03000163E+02
 21
-1.21241220E+02
  0
LINE
  8
0
 62
4
 10
-1.13000163E+02
 20
-1.07282427E+02
 11
-1.13000163E+02
 21
-1.22194826E+02
  0
LINE
  8
0
 62
4
 10
-1.08000163E+02
 20
-1.07282427E+02
 11
-1.08000163E+02
 21
-1.22194826E+02
  0
LINE
  8
0
 62
4
 10
-1.08000163E+02
 20
-1.08491220E+02
 11
-1.03000163E+02
 21
-1.08491220E+02
  0
LINE
  8
0
 62
4
 10
-1.08000163E+02
 20
-1.20991220E+02
 11
-1.03000163E+02
 21
-1.20991220E+02
  0
LINE
  8
0
 62
4
 10
-1.06500163E+02
 20
-1.08491220E+02
 11
-1.06500163E+02
 21
-1.20991220E+02
  0
LINE
  8
0
 62
4
 10
-1.06500163E+02
 20
-1.08991220E+02
 11
-1.03000163E+02
 21
-1.08991220E+02
  0
LINE
  8
0
 62
4
 10
-1.06500163E+02
 20
-1.20491220E+02
 11
-1.03000163E+02
 21
-1.20491220E+02
  0
LINE
  8
0
 62
4
 10
-1.13000163E+02
 20
-1.07282427E+02
 11
-1.08000163E+02
 21
-1.07282427E+02
  0
LINE
  8
0
 62
4
 10
-9.80001628E+01
 20
-1.21741220E+02
 11
-9.80001628E+01
 21
-1.39395812E+02
  0
LINE
  8
0
 62
4
 10
-9.55001628E+01
 20
-1.32621926E+02
 11
-7.65001628E+01
 21
-1.32621926E+02
  0
LINE
  8
0
 62
4
 10
-9.65001628E+01
 20
-1.40895812E+02
 11
-8.91340989E+01
 21
-1.40895812E+02
  0
ARC
  8
0
 62
4
 10
-6.04976609E+01
 20
-1.39398314E+02
 40
1.49750021E+00
 50
2.69904276E+02
 51
9.57242462E-02
  0
ARC
  8
0
 62
4
 10
-1.02502653E+02
 20
-1.21243710E+02
 40
4.97516125E-01
 50
1.79713229E+02
 51
2.70286771E+02
  0
ARC
  8
0
 62
4
 10
-9.65026609E+01
 20
-1.39398310E+02
 40
1.49750400E+00
 50
1.79904421E+02
 51
2.70095579E+02
  0
ARC
  8
0
 62
4
 10
-1.02497660E+02
 20
-1.08243723E+02
 40
5.02508801E-01
 50
9.02853429E+01
 51
1.79714657E+02
  0
LINE
  8
0
 62
4
 10
-7.65001628E+01
 20
-1.13602788E+02
 11
-7.65001628E+01
 21
-1.32621926E+02
  0
LINE
  8
0
 62
4
 10
-5.90001628E+01
 20
-1.15194662E+02
 11
-5.90001628E+01
 21
-1.39395812E+02
  0
LINE
  8
0
  6
CENTER
 62
6
 10
-9.00001628E+01
 20
-9.16863027E+01
 11
-9.00001628E+01
 21
-1.01951882E+02
  0
LINE
  8
0
  6
CENTER
 62
6
 10
-8.20001628E+01
 20
-9.16863027E+01
 11
-8.20001628E+01
 21
-1.01951882E+02
  0
LINE
  8
0
 62
4
 10
-7.85001628E+01
 20
-9.52475831E+01
 11
-7.85001628E+01
 21
-1.29192809E+02
  0
LINE
  8
0
 62
4
 10
-9.35001628E+01
 20
-9.52475831E+01
 11
-9.35001628E+01
 21
-1.29192809E+02
  0
LINE
  8
0
 62
4
 10
-9.35001628E+01
 20
-1.22236066E+02
 11
-7.85001628E+01
 21
-1.22236066E+02
  0
LINE
  8
0
 62
4
 10
-9.35001628E+01
 20
-9.52475831E+01
 11
-7.85001628E+01
 21
-9.52475831E+01
  0
ARC
  8
0
 62
4
 10
-9.65026609E+01
 20
-1.33417074E+02
 40
1.49750400E+00
 50
1.79904421E+02
 51
2.70095579E+02
  0
ARC
  8
0
 62
4
 10
-6.04976609E+01
 20
-1.33417078E+02
 40
1.49750021E+00
 50
2.69904276E+02
 51
9.57242462E-02
  0
LINE
  8
0
 62
4
 10
3.42140061E+02
 20
-2.82288498E+02
 11
3.42443885E+02
 21
-2.82956515E+02
  0
LINE
  8
0
 62
4
 10
3.35860061E+02
 20
-2.82288498E+02
 11
3.35556237E+02
 21
-2.82956515E+02
  0
POLYLINE
  8
0
 62
4
 66
1
  0
VERTEX
  8
0
 62
4
 10
3.35556237E+02
 20
-2.82956515E+02
  0
VERTEX
  8
0
 62
4
 10
3.35514829E+02
 20
-2.83077485E+02
  0
VERTEX
  8
0
 62
4
 10
3.35500095E+02
 20
-2.83199436E+02
  0
VERTEX
  8
0
 62
4
 10
3.35512146E+02
 20
-2.83321433E+02
  0
VERTEX
  8
0
 62
4
 10
3.35550890E+02
 20
-2.83442544E+02
  0
VERTEX
  8
0
 62
4
 10
3.35616032E+02
 20
-2.83561841E+02
  0
VERTEX
  8
0
 62
4
 10
3.35707072E+02
 20
-2.83678411E+02
  0
VERTEX
  8
0
 62
4
 10
3.35823313E+02
 20
-2.83791363E+02
  0
VERTEX
  8
0
 62
4
 10
3.35963867E+02
 20
-2.83899831E+02
  0
VERTEX
  8
0
 62
4
 10
3.36127658E+02
 20
-2.84002986E+02
  0
VERTEX
  8
0
 62
4
 10
3.36313431E+02
 20
-2.84100038E+02
  0
VERTEX
  8
0
 62
4
 10
3.36519765E+02
 20
-2.84190245E+02
  0
VERTEX
  8
0
 62
4
 10
3.36745081E+02
 20
-2.84272915E+02
  0
VERTEX
  8
0
 62
4
 10
3.36987655E+02
 20
-2.84347417E+02
  0
VERTEX
  8
0
 62
4
 10
3.37245631E+02
 20
-2.84413180E+02
  0
VERTEX
  8
0
 62
4
 10
3.37517033E+02
 20
-2.84469701E+02
  0
VERTEX
  8
0
 62
4
 10
3.37799785E+02
 20
-2.84516548E+02
  0
VERTEX
  8
0
 62
4
 10
3.38091723E+02
 20
-2.84553361E+02
  0
VERTEX
  8
0
 62
4
 10
3.38390612E+02
 20
-2.84579859E+02
  0
VERTEX
  8
0
 62
4
 10
3.38694166E+02
 20
-2.84595839E+02
  0
VERTEX
  8
0
 62
4
 10
3.39000061E+02
 20
-2.84601180E+02
  0
VERTEX
  8
0
 62
4
 10
3.39305956E+02
 20
-2.84595839E+02
  0
VERTEX
  8
0
 62
4
 10
3.39609510E+02
 20
-2.84579859E+02
  0
VERTEX
  8
0
 62
4
 10
3.39908399E+02
 20
-2.84553361E+02
  0
VERTEX
  8
0
 62
4
 10
3.40200337E+02
 20
-2.84516548E+02
  0
VERTEX
  8
0
 62
4
 10
3.40483089E+02
 20
-2.84469701E+02
  0
VERTEX
  8
0
 62
4
 10
3.40754491E+02
 20
-2.84413180E+02
  0
VERTEX
  8
0
 62
4
 10
3.41012467E+02
 20
-2.84347417E+02
  0
VERTEX
  8
0
 62
4
 10
3.41255041E+02
 20
-2.84272915E+02
  0
VERTEX
  8
0
 62
4
 10
3.41480357E+02
 20
-2.84190245E+02
  0
VERTEX
  8
0
 62
4
 10
3.41686691E+02
 20
-2.84100038E+02
  0
VERTEX
  8
0
 62
4
 10
3.41872464E+02
 20
-2.84002986E+02
  0
VERTEX
  8
0
 62
4
 10
3.42036255E+02
 20
-2.83899831E+02
  0
VERTEX
  8
0
 62
4
 10
3.42176809E+02
 20
-2.83791363E+02
  0
VERTEX
  8
0
 62
4
 10
3.42293050E+02
 20
-2.83678411E+02
  0
VERTEX
  8
0
 62
4
 10
3.42384090E+02
 20
-2.83561841E+02
  0
VERTEX
  8
0
 62
4
 10
3.42449232E+02
 20
-2.83442544E+02
  0
VERTEX
  8
0
 62
4
 10
3.42487976E+02
 20
-2.83321433E+02
  0
VERTEX
  8
0
 62
4
 10
3.42500027E+02
 20
-2.83199436E+02
  0
VERTEX
  8
0
 62
4
 10
3.42485293E+02
 20
-2.83077485E+02
  0
VERTEX
  8
0
 62
4
 10
3.42443885E+02
 20
-2.82956515E+02
  0
SEQEND
  8
0
  0
POLYLINE
  8
0
 62
4
 66
1
  0
VERTEX
  8
0
 62
4
 10
3.42140061E+02
 20
-2.82288498E+02
  0
VERTEX
  8
0
 62
4
 10
3.42128112E+02
 20
-2.82179373E+02
  0
VERTEX
  8
0
 62
4
 10
3.42092357E+02
 20
-2.82071078E+02
  0
VERTEX
  8
0
 62
4
 10
3.42033068E+02
 20
-2.81964438E+02
  0
VERTEX
  8
0
 62
4
 10
3.41950696E+02
 20
-2.81860264E+02
  0
VERTEX
  8
0
 62
4
 10
3.41845867E+02
 20
-2.81759349E+02
  0
VERTEX
  8
0
 62
4
 10
3.41719381E+02
 20
-2.81662462E+02
  0
VERTEX
  8
0
 62
4
 10
3.41572198E+02
 20
-2.81570339E+02
  0
VERTEX
  8
0
 62
4
 10
3.41405441E+02
 20
-2.81483682E+02
  0
VERTEX
  8
0
 62
4
 10
3.41220376E+02
 20
-2.81403149E+02
  0
VERTEX
  8
0
 62
4
 10
3.41018414E+02
 20
-2.81329355E+02
  0
VERTEX
  8
0
 62
4
 10
3.40801091E+02
 20
-2.81262861E+02
  0
VERTEX
  8
0
 62
4
 10
3.40570061E+02
 20
-2.81204172E+02
  0
VERTEX
  8
0
 62
4
 10
3.40327082E+02
 20
-2.81153735E+02
  0
VERTEX
  8
0
 62
4
 10
3.40074004E+02
 20
-2.81111935E+02
  0
VERTEX
  8
0
 62
4
 10
3.39812753E+02
 20
-2.81079089E+02
  0
VERTEX
  8
0
 62
4
 10
3.39545316E+02
 20
-2.81055448E+02
  0
VERTEX
  8
0
 62
4
 10
3.39273730E+02
 20
-2.81041190E+02
  0
VERTEX
  8
0
 62
4
 10
3.39000061E+02
 20
-2.81036426E+02
  0
VERTEX
  8
0
 62
4
 10
3.38726392E+02
 20
-2.81041190E+02
  0
VERTEX
  8
0
 62
4
 10
3.38454806E+02
 20
-2.81055448E+02
  0
VERTEX
  8
0
 62
4
 10
3.38187369E+02
 20
-2.81079089E+02
  0
VERTEX
  8
0
 62
4
 10
3.37926118E+02
 20
-2.81111935E+02
  0
VERTEX
  8
0
 62
4
 10
3.37673040E+02
 20
-2.81153735E+02
  0
VERTEX
  8
0
 62
4
 10
3.37430061E+02
 20
-2.81204172E+02
  0
VERTEX
  8
0
 62
4
 10
3.37199031E+02
 20
-2.81262861E+02
  0
VERTEX
  8
0
 62
4
 10
3.36981708E+02
 20
-2.81329355E+02
  0
VERTEX
  8
0
 62
4
 10
3.36779746E+02
 20
-2.81403149E+02
  0
VERTEX
  8
0
 62
4
 10
3.36594681E+02
 20
-2.81483682E+02
  0
VERTEX
  8
0
 62
4
 10
3.36427924E+02
 20
-2.81570339E+02
  0
VERTEX
  8
0
 62
4
 10
3.36280741E+02
 20
-2.81662462E+02
  0
VERTEX
  8
0
 62
4
 10
3.36154255E+02
 20
-2.81759349E+02
  0
VERTEX
  8
0
 62
4
 10
3.36049426E+02
 20
-2.81860264E+02
  0
VERTEX
  8
0
 62
4
 10
3.35967054E+02
 20
-2.81964438E+02
  0
VERTEX
  8
0
 62
4
 10
3.35907765E+02
 20
-2.82071078E+02
  0
VERTEX
  8
0
 62
4
 10
3.35872010E+02
 20
-2.82179373E+02
  0
VERTEX
  8
0
 62
4
 10
3.35860061E+02
 20
-2.82288498E+02
  0
VERTEX
  8
0
 62
4
 10
3.35872010E+02
 20
-2.82397623E+02
  0
VERTEX
  8
0
 62
4
 10
3.35907765E+02
 20
-2.82505918E+02
  0
VERTEX
  8
0
 62
4
 10
3.35967054E+02
 20
-2.82612558E+02
  0
VERTEX
  8
0
 62
4
 10
3.36049426E+02
 20
-2.82716732E+02
  0
VERTEX
  8
0
 62
4
 10
3.36154255E+02
 20
-2.82817647E+02
  0
VERTEX
  8
0
 62
4
 10
3.36280741E+02
 20
-2.82914534E+02
  0
VERTEX
  8
0
 62
4
 10
3.36427924E+02
 20
-2.83006657E+02
  0
VERTEX
  8
0
 62
4
 10
3.36594681E+02
 20
-2.83093314E+02
  0
VERTEX
  8
0
 62
4
 10
3.36779746E+02
 20
-2.83173847E+02
  0
VERTEX
  8
0
 62
4
 10
3.36981708E+02
 20
-2.83247641E+02
  0
VERTEX
  8
0
 62
4
 10
3.37199031E+02
 20
-2.83314135E+02
  0
VERTEX
  8
0
 62
4
 10
3.37430061E+02
 20
-2.83372824E+02
  0
VERTEX
  8
0
 62
4
 10
3.37673040E+02
 20
-2.83423261E+02
  0
VERTEX
  8
0
 62
4
 10
3.37926118E+02
 20
-2.83465061E+02
  0
VERTEX
  8
0
 62
4
 10
3.38187369E+02
 20
-2.83497907E+02
  0
VERTEX
  8
0
 62
4
 10
3.38454806E+02
 20
-2.83521548E+02
  0
VERTEX
  8
0
 62
4
 10
3.38726392E+02
 20
-2.83535806E+02
  0
VERTEX
  8
0
 62
4
 10
3.39000061E+02
 20
-2.83540570E+02
  0
VERTEX
  8
0
 62
4
 10
3.39273730E+02
 20
-2.83535806E+02
  0
VERTEX
  8
0
 62
4
 10
3.39545316E+02
 20
-2.83521548E+02
  0
VERTEX
  8
0
 62
4
 10
3.39812753E+02
 20
-2.83497907E+02
  0
VERTEX
  8
0
 62
4
 10
3.40074004E+02
 20
-2.83465061E+02
  0
VERTEX
  8
0
 62
4
 10
3.40327082E+02
 20
-2.83423261E+02
  0
VERTEX
  8
0
 62
4
 10
3.40570061E+02
 20
-2.83372824E+02
  0
VERTEX
  8
0
 62
4
 10
3.40801091E+02
 20
-2.83314135E+02
  0
VERTEX
  8
0
 62
4
 10
3.41018414E+02
 20
-2.83247641E+02
  0
VERTEX
  8
0
 62
4
 10
3.41220376E+02
 20
-2.83173847E+02
  0
VERTEX
  8
0
 62
4
 10
3.41405441E+02
 20
-2.83093314E+02
  0
VERTEX
  8
0
 62
4
 10
3.41572198E+02
 20
-2.83006657E+02
  0
VERTEX
  8
0
 62
4
 10
3.41719381E+02
 20
-2.82914534E+02
  0
VERTEX
  8
0
 62
4
 10
3.41845867E+02
 20
-2.82817647E+02
  0
VERTEX
  8
0
 62
4
 10
3.41950696E+02
 20
-2.82716732E+02
  0
VERTEX
  8
0
 62
4
 10
3.42033068E+02
 20
-2.82612558E+02
  0
VERTEX
  8
0
 62
4
 10
3.42092357E+02
 20
-2.82505918E+02
  0
VERTEX
  8
0
 62
4
 10
3.42128112E+02
 20
-2.82397623E+02
  0
VERTEX
  8
0
 62
4
 10
3.42140061E+02
 20
-2.82288498E+02
  0
SEQEND
  8
0
  0
LINE
  8
0
  6
CENTER
 62
6
 10
3.39000061E+02
 20
-2.79669510E+02
 11
3.39000061E+02
 21
-2.82288498E+02
  0
LINE
  8
0
 62
4
 10
3.65500061E+02
 20
-2.85597600E+02
 11
3.65500061E+02
 21
-2.80131358E+02
  0
LINE
  8
0
 62
4
 10
3.29500061E+02
 20
-2.85597600E+02
 11
3.29500061E+02
 21
-2.80131358E+02
  0
LINE
  8
0
 62
4
 10
3.82000061E+02
 20
-2.61266070E+02
 11
3.77000061E+02
 21
-2.61266070E+02
  0
LINE
  8
0
 62
4
 10
3.82000061E+02
 20
-2.69000298E+02
 11
3.77000061E+02
 21
-2.69000298E+02
  0
LINE
  8
0
 62
4
 10
3.82000061E+02
 20
-2.68144021E+02
 11
3.77000061E+02
 21
-2.68144021E+02
  0
LINE
  8
0
 62
4
 10
3.47500061E+02
 20
-2.79208513E+02
 11
3.29500061E+02
 21
-2.79208513E+02
  0
LINE
  8
0
 62
4
 10
3.48500072E+02
 20
-2.99206830E+02
 11
3.61500072E+02
 21
-2.99206830E+02
  0
POLYLINE
  8
0
 62
4
 66
1
  0
VERTEX
  8
0
 62
4
 10
3.60200072E+02
 20
-3.10641568E+02
  0
VERTEX
  8
0
 62
4
 10
3.60195506E+02
 20
-3.10538130E+02
  0
VERTEX
  8
0
 62
4
 10
3.60181841E+02
 20
-3.10435479E+02
  0
VERTEX
  8
0
 62
4
 10
3.60159183E+02
 20
-3.10334397E+02
  0
VERTEX
  8
0
 62
4
 10
3.60127703E+02
 20
-3.10235652E+02
  0
VERTEX
  8
0
 62
4
 10
3.60087641E+02
 20
-3.10139997E+02
  0
VERTEX
  8
0
 62
4
 10
3.60039302E+02
 20
-3.10048158E+02
  0
VERTEX
  8
0
 62
4
 10
3.59983054E+02
 20
-3.09960837E+02
  0
VERTEX
  8
0
 62
4
 10
3.59919325E+02
 20
-3.09878695E+02
  0
VERTEX
  8
0
 62
4
 10
3.59848600E+02
 20
-3.09802360E+02
  0
VERTEX
  8
0
 62
4
 10
3.59771417E+02
 20
-3.09732412E+02
  0
VERTEX
  8
0
 62
4
 10
3.59688364E+02
 20
-3.09669383E+02
  0
VERTEX
  8
0
 62
4
 10
3.59600072E+02
 20
-3.09613753E+02
  0
VERTEX
  8
0
 62
4
 10
3.59507214E+02
 20
-3.09565945E+02
  0
VERTEX
  8
0
 62
4
 10
3.59410496E+02
 20
-3.09526323E+02
  0
VERTEX
  8
0
 62
4
 10
3.59310655E+02
 20
-3.09495189E+02
  0
VERTEX
  8
0
 62
4
 10
3.59208450E+02
 20
-3.09472779E+02
  0
VERTEX
  8
0
 62
4
 10
3.59104659E+02
 20
-3.09459265E+02
  0
VERTEX
  8
0
 62
4
 10
3.59000072E+02
 20
-3.09454749E+02
  0
VERTEX
  8
0
 62
4
 10
3.58895485E+02
 20
-3.09459265E+02
  0
VERTEX
  8
0
 62
4
 10
3.58791694E+02
 20
-3.09472779E+02
  0
VERTEX
  8
0
 62
4
 10
3.58689489E+02
 20
-3.09495189E+02
  0
VERTEX
  8
0
 62
4
 10
3.58589648E+02
 20
-3.09526323E+02
  0
VERTEX
  8
0
 62
4
 10
3.58492930E+02
 20
-3.09565945E+02
  0
VERTEX
  8
0
 62
4
 10
3.58400072E+02
 20
-3.09613753E+02
  0
VERTEX
  8
0
 62
4
 10
3.58311780E+02
 20
-3.09669383E+02
  0
VERTEX
  8
0
 62
4
 10
3.58228727E+02
 20
-3.09732412E+02
  0
VERTEX
  8
0
 62
4
 10
3.58151544E+02
 20
-3.09802360E+02
  0
VERTEX
  8
0
 62
4
 10
3.58080819E+02
 20
-3.09878695E+02
  0
VERTEX
  8
0
 62
4
 10
3.58017090E+02
 20
-3.09960837E+02
  0
VERTEX
  8
0
 62
4
 10
3.57960842E+02
 20
-3.10048158E+02
  0
VERTEX
  8
0
 62
4
 10
3.57912503E+02
 20
-3.10139997E+02
  0
VERTEX
  8
0
 62
4
 10
3.57872441E+02
 20
-3.10235652E+02
  0
VERTEX
  8
0
 62
4
 10
3.57840961E+02
 20
-3.10334397E+02
  0
VERTEX
  8
0
 62
4
 10
3.57818303E+02
 20
-3.10435479E+02
  0
VERTEX
  8
0
 62
4
 10
3.57804638E+02
 20
-3.10538130E+02
  0
VERTEX
  8
0
 62
4
 10
3.57800072E+02
 20
-3.10641568E+02
  0
VERTEX
  8
0
 62
4
 10
3.57804638E+02
 20
-3.10745006E+02
  0
VERTEX
  8
0
 62
4
 10
3.57818303E+02
 20
-3.10847657E+02
  0
VERTEX
  8
0
 62
4
 10
3.57840961E+02
 20
-3.10948739E+02
  0
VERTEX
  8
0
 62
4
 10
3.57872441E+02
 20
-3.11047484E+02
  0
VERTEX
  8
0
 62
4
 10
3.57912503E+02
 20
-3.11143139E+02
  0
VERTEX
  8
0
 62
4
 10
3.57960842E+02
 20
-3.11234978E+02
  0
VERTEX
  8
0
 62
4
 10
3.58017090E+02
 20
-3.11322299E+02
  0
VERTEX
  8
0
 62
4
 10
3.58080819E+02
 20
-3.11404441E+02
  0
VERTEX
  8
0
 62
4
 10
3.58151544E+02
 20
-3.11480776E+02
  0
VERTEX
  8
0
 62
4
 10
3.58228727E+02
 20
-3.11550724E+02
  0
VERTEX
  8
0
 62
4
 10
3.58311780E+02
 20
-3.11613753E+02
  0
VERTEX
  8
0
 62
4
 10
3.58400072E+02
 20
-3.11669383E+02
  0
VERTEX
  8
0
 62
4
 10
3.58492930E+02
 20
-3.11717191E+02
  0
VERTEX
  8
0
 62
4
 10
3.58589648E+02
 20
-3.11756813E+02
  0
VERTEX
  8
0
 62
4
 10
3.58689489E+02
 20
-3.11787947E+02
  0
VERTEX
  8
0
 62
4
 10
3.58791694E+02
 20
-3.11810357E+02
  0
VERTEX
  8
0
 62
4
 10
3.58895485E+02
 20
-3.11823871E+02
  0
VERTEX
  8
0
 62
4
 10
3.59000072E+02
 20
-3.11828387E+02
  0
VERTEX
  8
0
 62
4
 10
3.59104659E+02
 20
-3.11823871E+02
  0
VERTEX
  8
0
 62
4
 10
3.59208450E+02
 20
-3.11810357E+02
  0
VERTEX
  8
0
 62
4
 10
3.59310655E+02
 20
-3.11787947E+02
  0
VERTEX
  8
0
 62
4
 10
3.59410496E+02
 20
-3.11756813E+02
  0
VERTEX
  8
0
 62
4
 10
3.59507214E+02
 20
-3.11717191E+02
  0
VERTEX
  8
0
 62
4
 10
3.59600072E+02
 20
-3.11669383E+02
  0
VERTEX
  8
0
 62
4
 10
3.59688364E+02
 20
-3.11613753E+02
  0
VERTEX
  8
0
 62
4
 10
3.59771417E+02
 20
-3.11550724E+02
  0
VERTEX
  8
0
 62
4
 10
3.59848600E+02
 20
-3.11480776E+02
  0
VERTEX
  8
0
 62
4
 10
3.59919325E+02
 20
-3.11404441E+02
  0
VERTEX
  8
0
 62
4
 10
3.59983054E+02
 20
-3.11322299E+02
  0
VERTEX
  8
0
 62
4
 10
3.60039302E+02
 20
-3.11234978E+02
  0
VERTEX
  8
0
 62
4
 10
3.60087641E+02
 20
-3.11143139E+02
  0
VERTEX
  8
0
 62
4
 10
3.60127703E+02
 20
-3.11047484E+02
  0
VERTEX
  8
0
 62
4
 10
3.60159183E+02
 20
-3.10948739E+02
  0
VERTEX
  8
0
 62
4
 10
3.60181841E+02
 20
-3.10847657E+02
  0
VERTEX
  8
0
 62
4
 10
3.60195506E+02
 20
-3.10745006E+02
  0
VERTEX
  8
0
 62
4
 10
3.60200072E+02
 20
-3.10641568E+02
  0
SEQEND
  8
0
  0
POLYLINE
  8
0
 62
4
 66
1
  0
VERTEX
  8
0
 62
4
 10
3.61000072E+02
 20
-3.10641568E+02
  0
VERTEX
  8
0
 62
4
 10
3.60992461E+02
 20
-3.10469171E+02
  0
VERTEX
  8
0
 62
4
 10
3.60969688E+02
 20
-3.10298086E+02
  0
VERTEX
  8
0
 62
4
 10
3.60931924E+02
 20
-3.10129616E+02
  0
VERTEX
  8
0
 62
4
 10
3.60879457E+02
 20
-3.09965041E+02
  0
VERTEX
  8
0
 62
4
 10
3.60812688E+02
 20
-3.09805616E+02
  0
VERTEX
  8
0
 62
4
 10
3.60732123E+02
 20
-3.09652552E+02
  0
VERTEX
  8
0
 62
4
 10
3.60638376E+02
 20
-3.09507016E+02
  0
VERTEX
  8
0
 62
4
 10
3.60532161E+02
 20
-3.09370114E+02
  0
VERTEX
  8
0
 62
4
 10
3.60414286E+02
 20
-3.09242888E+02
  0
VERTEX
  8
0
 62
4
 10
3.60285647E+02
 20
-3.09126308E+02
  0
VERTEX
  8
0
 62
4
 10
3.60147225E+02
 20
-3.09021259E+02
  0
VERTEX
  8
0
 62
4
 10
3.60000072E+02
 20
-3.08928542E+02
  0
VERTEX
  8
0
 62
4
 10
3.59845309E+02
 20
-3.08848862E+02
  0
VERTEX
  8
0
 62
4
 10
3.59684112E+02
 20
-3.08782826E+02
  0
VERTEX
  8
0
 62
4
 10
3.59517710E+02
 20
-3.08730936E+02
  0
VERTEX
  8
0
 62
4
 10
3.59347368E+02
 20
-3.08693587E+02
  0
VERTEX
  8
0
 62
4
 10
3.59174383E+02
 20
-3.08671063E+02
  0
VERTEX
  8
0
 62
4
 10
3.59000072E+02
 20
-3.08663536E+02
  0
VERTEX
  8
0
 62
4
 10
3.58825761E+02
 20
-3.08671063E+02
  0
VERTEX
  8
0
 62
4
 10
3.58652776E+02
 20
-3.08693587E+02
  0
VERTEX
  8
0
 62
4
 10
3.58482434E+02
 20
-3.08730936E+02
  0
VERTEX
  8
0
 62
4
 10
3.58316032E+02
 20
-3.08782826E+02
  0
VERTEX
  8
0
 62
4
 10
3.58154835E+02
 20
-3.08848862E+02
  0
VERTEX
  8
0
 62
4
 10
3.58000072E+02
 20
-3.08928542E+02
  0
VERTEX
  8
0
 62
4
 10
3.57852919E+02
 20
-3.09021259E+02
  0
VERTEX
  8
0
 62
4
 10
3.57714497E+02
 20
-3.09126308E+02
  0
VERTEX
  8
0
 62
4
 10
3.57585858E+02
 20
-3.09242888E+02
  0
VERTEX
  8
0
 62
4
 10
3.57467983E+02
 20
-3.09370114E+02
  0
VERTEX
  8
0
 62
4
 10
3.57361768E+02
 20
-3.09507016E+02
  0
VERTEX
  8
0
 62
4
 10
3.57268021E+02
 20
-3.09652552E+02
  0
VERTEX
  8
0
 62
4
 10
3.57187456E+02
 20
-3.09805616E+02
  0
VERTEX
  8
0
 62
4
 10
3.57120687E+02
 20
-3.09965041E+02
  0
VERTEX
  8
0
 62
4
 10
3.57068220E+02
 20
-3.10129616E+02
  0
VERTEX
  8
0
 62
4
 10
3.57030456E+02
 20
-3.10298086E+02
  0
VERTEX
  8
0
 62
4
 10
3.57007683E+02
 20
-3.10469171E+02
  0
VERTEX
  8
0
 62
4
 10
3.57000072E+02
 20
-3.10641568E+02
  0
VERTEX
  8
0
 62
4
 10
3.57007683E+02
 20
-3.10813965E+02
  0
VERTEX
  8
0
 62
4
 10
3.57030456E+02
 20
-3.10985050E+02
  0
VERTEX
  8
0
 62
4
 10
3.57068220E+02
 20
-3.11153520E+02
  0
VERTEX
  8
0
 62
4
 10
3.57120687E+02
 20
-3.11318095E+02
  0
VERTEX
  8
0
 62
4
 10
3.57187456E+02
 20
-3.11477520E+02
  0
VERTEX
  8
0
 62
4
 10
3.57268021E+02
 20
-3.11630584E+02
  0
VERTEX
  8
0
 62
4
 10
3.57361768E+02
 20
-3.11776120E+02
  0
VERTEX
  8
0
 62
4
 10
3.57467983E+02
 20
-3.11913022E+02
  0
VERTEX
  8
0
 62
4
 10
3.57585858E+02
 20
-3.12040248E+02
  0
VERTEX
  8
0
 62
4
 10
3.57714497E+02
 20
-3.12156828E+02
  0
VERTEX
  8
0
 62
4
 10
3.57852919E+02
 20
-3.12261877E+02
  0
VERTEX
  8
0
 62
4
 10
3.58000072E+02
 20
-3.12354594E+02
  0
VERTEX
  8
0
 62
4
 10
3.58154835E+02
 20
-3.12434274E+02
  0
VERTEX
  8
0
 62
4
 10
3.58316032E+02
 20
-3.12500310E+02
  0
VERTEX
  8
0
 62
4
 10
3.58482434E+02
 20
-3.12552200E+02
  0
VERTEX
  8
0
 62
4
 10
3.58652776E+02
 20
-3.12589549E+02
  0
VERTEX
  8
0
 62
4
 10
3.58825761E+02
 20
-3.12612073E+02
  0
VERTEX
  8
0
 62
4
 10
3.59000072E+02
 20
-3.12619600E+02
  0
VERTEX
  8
0
 62
4
 10
3.59174383E+02
 20
-3.12612073E+02
  0
VERTEX
  8
0
 62
4
 10
3.59347368E+02
 20
-3.12589549E+02
  0
VERTEX
  8
0
 62
4
 10
3.59517710E+02
 20
-3.12552200E+02
  0
VERTEX
  8
0
 62
4
 10
3.59684112E+02
 20
-3.12500310E+02
  0
VERTEX
  8
0
 62
4
 10
3.59845309E+02
 20
-3.12434274E+02
  0
VERTEX
  8
0
 62
4
 10
3.60000072E+02
 20
-3.12354594E+02
  0
VERTEX
  8
0
 62
4
 10
3.60147225E+02
 20
-3.12261877E+02
  0
VERTEX
  8
0
 62
4
 10
3.60285647E+02
 20
-3.12156828E+02
  0
VERTEX
  8
0
 62
4
 10
3.60414286E+02
 20
-3.12040248E+02
  0
VERTEX
  8
0
 62
4
 10
3.60532161E+02
 20
-3.11913022E+02
  0
VERTEX
  8
0
 62
4
 10
3.60638376E+02
 20
-3.11776120E+02
  0
VERTEX
  8
0
 62
4
 10
3.60732123E+02
 20
-3.11630584E+02
  0
VERTEX
  8
0
 62
4
 10
3.60812688E+02
 20
-3.11477520E+02
  0
VERTEX
  8
0
 62
4
 10
3.60879457E+02
 20
-3.11318095E+02
  0
VERTEX
  8
0
 62
4
 10
3.60931924E+02
 20
-3.11153520E+02
  0
VERTEX
  8
0
 62
4
 10
3.60969688E+02
 20
-3.10985050E+02
  0
VERTEX
  8
0
 62
4
 10
3.60992461E+02
 20
-3.10813965E+02
  0
VERTEX
  8
0
 62
4
 10
3.61000072E+02
 20
-3.10641568E+02
  0
SEQEND
  8
0
  0
POLYLINE
  8
0
 62
4
 66
1
  0
VERTEX
  8
0
 62
4
 10
3.52200072E+02
 20
-3.10641568E+02
  0
VERTEX
  8
0
 62
4
 10
3.52195506E+02
 20
-3.10538130E+02
  0
VERTEX
  8
0
 62
4
 10
3.52181841E+02
 20
-3.10435479E+02
  0
VERTEX
  8
0
 62
4
 10
3.52159183E+02
 20
-3.10334397E+02
  0
VERTEX
  8
0
 62
4
 10
3.52127703E+02
 20
-3.10235652E+02
  0
VERTEX
  8
0
 62
4
 10
3.52087641E+02
 20
-3.10139997E+02
  0
VERTEX
  8
0
 62
4
 10
3.52039302E+02
 20
-3.10048158E+02
  0
VERTEX
  8
0
 62
4
 10
3.51983054E+02
 20
-3.09960837E+02
  0
VERTEX
  8
0
 62
4
 10
3.51919325E+02
 20
-3.09878695E+02
  0
VERTEX
  8
0
 62
4
 10
3.51848600E+02
 20
-3.09802360E+02
  0
VERTEX
  8
0
 62
4
 10
3.51771417E+02
 20
-3.09732412E+02
  0
VERTEX
  8
0
 62
4
 10
3.51688364E+02
 20
-3.09669383E+02
  0
VERTEX
  8
0
 62
4
 10
3.51600072E+02
 20
-3.09613753E+02
  0
VERTEX
  8
0
 62
4
 10
3.51507214E+02
 20
-3.09565945E+02
  0
VERTEX
  8
0
 62
4
 10
3.51410496E+02
 20
-3.09526323E+02
  0
VERTEX
  8
0
 62
4
 10
3.51310655E+02
 20
-3.09495189E+02
  0
VERTEX
  8
0
 62
4
 10
3.51208450E+02
 20
-3.09472779E+02
  0
VERTEX
  8
0
 62
4
 10
3.51104659E+02
 20
-3.09459265E+02
  0
VERTEX
  8
0
 62
4
 10
3.51000072E+02
 20
-3.09454749E+02
  0
VERTEX
  8
0
 62
4
 10
3.50895485E+02
 20
-3.09459265E+02
  0
VERTEX
  8
0
 62
4
 10
3.50791694E+02
 20
-3.09472779E+02
  0
VERTEX
  8
0
 62
4
 10
3.50689489E+02
 20
-3.09495189E+02
  0
VERTEX
  8
0
 62
4
 10
3.50589648E+02
 20
-3.09526323E+02
  0
VERTEX
  8
0
 62
4
 10
3.50492930E+02
 20
-3.09565945E+02
  0
VERTEX
  8
0
 62
4
 10
3.50400072E+02
 20
-3.09613753E+02
  0
VERTEX
  8
0
 62
4
 10
3.50311780E+02
 20
-3.09669383E+02
  0
VERTEX
  8
0
 62
4
 10
3.50228727E+02
 20
-3.09732412E+02
  0
VERTEX
  8
0
 62
4
 10
3.50151544E+02
 20
-3.09802360E+02
  0
VERTEX
  8
0
 62
4
 10
3.50080819E+02
 20
-3.09878695E+02
  0
VERTEX
  8
0
 62
4
 10
3.50017090E+02
 20
-3.09960837E+02
  0
VERTEX
  8
0
 62
4
 10
3.49960842E+02
 20
-3.10048158E+02
  0
VERTEX
  8
0
 62
4
 10
3.49912503E+02
 20
-3.10139997E+02
  0
VERTEX
  8
0
 62
4
 10
3.49872441E+02
 20
-3.10235652E+02
  0
VERTEX
  8
0
 62
4
 10
3.49840961E+02
 20
-3.10334397E+02
  0
VERTEX
  8
0
 62
4
 10
3.49818303E+02
 20
-3.10435479E+02
  0
VERTEX
  8
0
 62
4
 10
3.49804638E+02
 20
-3.10538130E+02
  0
VERTEX
  8
0
 62
4
 10
3.49800072E+02
 20
-3.10641568E+02
  0
VERTEX
  8
0
 62
4
 10
3.49804638E+02
 20
-3.10745006E+02
  0
VERTEX
  8
0
 62
4
 10
3.49818303E+02
 20
-3.10847657E+02
  0
VERTEX
  8
0
 62
4
 10
3.49840961E+02
 20
-3.10948739E+02
  0
VERTEX
  8
0
 62
4
 10
3.49872441E+02
 20
-3.11047484E+02
  0
VERTEX
  8
0
 62
4
 10
3.49912503E+02
 20
-3.11143139E+02
  0
VERTEX
  8
0
 62
4
 10
3.49960842E+02
 20
-3.11234978E+02
  0
VERTEX
  8
0
 62
4
 10
3.50017090E+02
 20
-3.11322299E+02
  0
VERTEX
  8
0
 62
4
 10
3.50080819E+02
 20
-3.11404441E+02
  0
VERTEX
  8
0
 62
4
 10
3.50151544E+02
 20
-3.11480776E+02
  0
VERTEX
  8
0
 62
4
 10
3.50228727E+02
 20
-3.11550724E+02
  0
VERTEX
  8
0
 62
4
 10
3.50311780E+02
 20
-3.11613753E+02
  0
VERTEX
  8
0
 62
4
 10
3.50400072E+02
 20
-3.11669383E+02
  0
VERTEX
  8
0
 62
4
 10
3.50492930E+02
 20
-3.11717191E+02
  0
VERTEX
  8
0
 62
4
 10
3.50589648E+02
 20
-3.11756813E+02
  0
VERTEX
  8
0
 62
4
 10
3.50689489E+02
 20
-3.11787947E+02
  0
VERTEX
  8
0
 62
4
 10
3.50791694E+02
 20
-3.11810357E+02
  0
VERTEX
  8
0
 62
4
 10
3.50895485E+02
 20
-3.11823871E+02
  0
VERTEX
  8
0
 62
4
 10
3.51000072E+02
 20
-3.11828387E+02
  0
VERTEX
  8
0
 62
4
 10
3.51104659E+02
 20
-3.11823871E+02
  0
VERTEX
  8
0
 62
4
 10
3.51208450E+02
 20
-3.11810357E+02
  0
VERTEX
  8
0
 62
4
 10
3.51310655E+02
 20
-3.11787947E+02
  0
VERTEX
  8
0
 62
4
 10
3.51410496E+02
 20
-3.11756813E+02
  0
VERTEX
  8
0
 62
4
 10
3.51507214E+02
 20
-3.11717191E+02
  0
VERTEX
  8
0
 62
4
 10
3.51600072E+02
 20
-3.11669383E+02
  0
VERTEX
  8
0
 62
4
 10
3.51688364E+02
 20
-3.11613753E+02
  0
VERTEX
  8
0
 62
4
 10
3.51771417E+02
 20
-3.11550724E+02
  0
VERTEX
  8
0
 62
4
 10
3.51848600E+02
 20
-3.11480776E+02
  0
VERTEX
  8
0
 62
4
 10
3.51919325E+02
 20
-3.11404441E+02
  0
VERTEX
  8
0
 62
4
 10
3.51983054E+02
 20
-3.11322299E+02
  0
VERTEX
  8
0
 62
4
 10
3.52039302E+02
 20
-3.11234978E+02
  0
VERTEX
  8
0
 62
4
 10
3.52087641E+02
 20
-3.11143139E+02
  0
VERTEX
  8
0
 62
4
 10
3.52127703E+02
 20
-3.11047484E+02
  0
VERTEX
  8
0
 62
4
 10
3.52159183E+02
 20
-3.10948739E+02
  0
VERTEX
  8
0
 62
4
 10
3.52181841E+02
 20
-3.10847657E+02
  0
VERTEX
  8
0
 62
4
 10
3.52195506E+02
 20
-3.10745006E+02
  0
VERTEX
  8
0
 62
4
 10
3.52200072E+02
 20
-3.10641568E+02
  0
SEQEND
  8
0
  0
POLYLINE
  8
0
 62
4
 66
1
  0
VERTEX
  8
0
 62
4
 10
3.53000072E+02
 20
-3.10641568E+02
  0
VERTEX
  8
0
 62
4
 10
3.52992461E+02
 20
-3.10469171E+02
  0
VERTEX
  8
0
 62
4
 10
3.52969688E+02
 20
-3.10298086E+02
  0
VERTEX
  8
0
 62
4
 10
3.52931924E+02
 20
-3.10129616E+02
  0
VERTEX
  8
0
 62
4
 10
3.52879457E+02
 20
-3.09965041E+02
  0
VERTEX
  8
0
 62
4
 10
3.52812688E+02
 20
-3.09805616E+02
  0
VERTEX
  8
0
 62
4
 10
3.52732123E+02
 20
-3.09652552E+02
  0
VERTEX
  8
0
 62
4
 10
3.52638376E+02
 20
-3.09507016E+02
  0
VERTEX
  8
0
 62
4
 10
3.52532161E+02
 20
-3.09370114E+02
  0
VERTEX
  8
0
 62
4
 10
3.52414286E+02
 20
-3.09242888E+02
  0
VERTEX
  8
0
 62
4
 10
3.52285647E+02
 20
-3.09126308E+02
  0
VERTEX
  8
0
 62
4
 10
3.52147225E+02
 20
-3.09021259E+02
  0
VERTEX
  8
0
 62
4
 10
3.52000072E+02
 20
-3.08928542E+02
  0
VERTEX
  8
0
 62
4
 10
3.51845309E+02
 20
-3.08848862E+02
  0
VERTEX
  8
0
 62
4
 10
3.51684112E+02
 20
-3.08782826E+02
  0
VERTEX
  8
0
 62
4
 10
3.51517710E+02
 20
-3.08730936E+02
  0
VERTEX
  8
0
 62
4
 10
3.51347368E+02
 20
-3.08693587E+02
  0
VERTEX
  8
0
 62
4
 10
3.51174383E+02
 20
-3.08671063E+02
  0
VERTEX
  8
0
 62
4
 10
3.51000072E+02
 20
-3.08663536E+02
  0
VERTEX
  8
0
 62
4
 10
3.50825761E+02
 20
-3.08671063E+02
  0
VERTEX
  8
0
 62
4
 10
3.50652776E+02
 20
-3.08693587E+02
  0
VERTEX
  8
0
 62
4
 10
3.50482434E+02
 20
-3.08730936E+02
  0
VERTEX
  8
0
 62
4
 10
3.50316032E+02
 20
-3.08782826E+02
  0
VERTEX
  8
0
 62
4
 10
3.50154835E+02
 20
-3.08848862E+02
  0
VERTEX
  8
0
 62
4
 10
3.50000072E+02
 20
-3.08928542E+02
  0
VERTEX
  8
0
 62
4
 10
3.49852919E+02
 20
-3.09021259E+02
  0
VERTEX
  8
0
 62
4
 10
3.49714497E+02
 20
-3.09126308E+02
  0
VERTEX
  8
0
 62
4
 10
3.49585858E+02
 20
-3.09242888E+02
  0
VERTEX
  8
0
 62
4
 10
3.49467983E+02
 20
-3.09370114E+02
  0
VERTEX
  8
0
 62
4
 10
3.49361768E+02
 20
-3.09507016E+02
  0
VERTEX
  8
0
 62
4
 10
3.49268021E+02
 20
-3.09652552E+02
  0
VERTEX
  8
0
 62
4
 10
3.49187456E+02
 20
-3.09805616E+02
  0
VERTEX
  8
0
 62
4
 10
3.49120687E+02
 20
-3.09965041E+02
  0
VERTEX
  8
0
 62
4
 10
3.49068220E+02
 20
-3.10129616E+02
  0
VERTEX
  8
0
 62
4
 10
3.49030456E+02
 20
-3.10298086E+02
  0
VERTEX
  8
0
 62
4
 10
3.49007683E+02
 20
-3.10469171E+02
  0
VERTEX
  8
0
 62
4
 10
3.49000072E+02
 20
-3.10641568E+02
  0
VERTEX
  8
0
 62
4
 10
3.49007683E+02
 20
-3.10813965E+02
  0
VERTEX
  8
0
 62
4
 10
3.49030456E+02
 20
-3.10985050E+02
  0
VERTEX
  8
0
 62
4
 10
3.49068220E+02
 20
-3.11153520E+02
  0
VERTEX
  8
0
 62
4
 10
3.49120687E+02
 20
-3.11318095E+02
  0
VERTEX
  8
0
 62
4
 10
3.49187456E+02
 20
-3.11477520E+02
  0
VERTEX
  8
0
 62
4
 10
3.49268021E+02
 20
-3.11630584E+02
  0
VERTEX
  8
0
 62
4
 10
3.49361768E+02
 20
-3.11776120E+02
  0
VERTEX
  8
0
 62
4
 10
3.49467983E+02
 20
-3.11913022E+02
  0
VERTEX
  8
0
 62
4
 10
3.49585858E+02
 20
-3.12040248E+02
  0
VERTEX
  8
0
 62
4
 10
3.49714497E+02
 20
-3.12156828E+02
  0
VERTEX
  8
0
 62
4
 10
3.49852919E+02
 20
-3.12261877E+02
  0
VERTEX
  8
0
 62
4
 10
3.50000072E+02
 20
-3.12354594E+02
  0
VERTEX
  8
0
 62
4
 10
3.50154835E+02
 20
-3.12434274E+02
  0
VERTEX
  8
0
 62
4
 10
3.50316032E+02
 20
-3.12500310E+02
  0
VERTEX
  8
0
 62
4
 10
3.50482434E+02
 20
-3.12552200E+02
  0
VERTEX
  8
0
 62
4
 10
3.50652776E+02
 20
-3.12589549E+02
  0
VERTEX
  8
0
 62
4
 10
3.50825761E+02
 20
-3.12612073E+02
  0
VERTEX
  8
0
 62
4
 10
3.51000072E+02
 20
-3.12619600E+02
  0
VERTEX
  8
0
 62
4
 10
3.51174383E+02
 20
-3.12612073E+02
  0
VERTEX
  8
0
 62
4
 10
3.51347368E+02
 20
-3.12589549E+02
  0
VERTEX
  8
0
 62
4
 10
3.51517710E+02
 20
-3.12552200E+02
  0
VERTEX
  8
0
 62
4
 10
3.51684112E+02
 20
-3.12500310E+02
  0
VERTEX
  8
0
 62
4
 10
3.51845309E+02
 20
-3.12434274E+02
  0
VERTEX
  8
0
 62
4
 10
3.52000072E+02
 20
-3.12354594E+02
  0
VERTEX
  8
0
 62
4
 10
3.52147225E+02
 20
-3.12261877E+02
  0
VERTEX
  8
0
 62
4
 10
3.52285647E+02
 20
-3.12156828E+02
  0
VERTEX
  8
0
 62
4
 10
3.52414286E+02
 20
-3.12040248E+02
  0
VERTEX
  8
0
 62
4
 10
3.52532161E+02
 20
-3.11913022E+02
  0
VERTEX
  8
0
 62
4
 10
3.52638376E+02
 20
-3.11776120E+02
  0
VERTEX
  8
0
 62
4
 10
3.52732123E+02
 20
-3.11630584E+02
  0
VERTEX
  8
0
 62
4
 10
3.52812688E+02
 20
-3.11477520E+02
  0
VERTEX
  8
0
 62
4
 10
3.52879457E+02
 20
-3.11318095E+02
  0
VERTEX
  8
0
 62
4
 10
3.52931924E+02
 20
-3.11153520E+02
  0
VERTEX
  8
0
 62
4
 10
3.52969688E+02
 20
-3.10985050E+02
  0
VERTEX
  8
0
 62
4
 10
3.52992461E+02
 20
-3.10813965E+02
  0
VERTEX
  8
0
 62
4
 10
3.53000072E+02
 20
-3.10641568E+02
  0
SEQEND
  8
0
  0
LINE
  8
0
  6
CENTER
 62
6
 10
3.51000072E+02
 20
-3.14141568E+02
 11
3.51000072E+02
 21
-3.07141568E+02
  0
LINE
  8
0
 62
4
 10
3.47500072E+02
 20
-2.90741727E+02
 11
3.62500072E+02
 21
-2.90741727E+02
  0
ARC
  8
0
 62
4
 10
3.65502548E+02
 20
-2.80706026E+02
 40
1.49751542E+00
 50
3.59904859E+02
 51
9.00951404E+01
  0
ARC
  8
0
 62
4
 10
3.29497574E+02
 20
-2.80706026E+02
 40
1.49751542E+00
 50
8.99048594E+01
 51
1.80095141E+02
  0
LINE
  8
0
 62
4
 10
3.65500061E+02
 20
-2.79208513E+02
 11
3.62500061E+02
 21
-2.79208513E+02
  0
LINE
  8
0
 62
4
 10
3.62500061E+02
 20
-2.81610876E+02
 11
3.47500061E+02
 21
-2.81610876E+02
  0
LINE
  8
0
 62
4
 10
3.62500061E+02
 20
-2.53620198E+02
 11
3.47500061E+02
 21
-2.53620198E+02
  0
LINE
  8
0
 62
4
 10
3.67000061E+02
 20
-2.80703540E+02
 11
3.67000061E+02
 21
-3.01999969E+02
  0
ARC
  8
0
 62
4
 10
3.65502548E+02
 20
-2.88283830E+02
 40
1.49751542E+00
 50
3.59904859E+02
 51
9.00951404E+01
  0
LINE
  8
0
 62
4
 10
3.67000072E+02
 20
-3.01746448E+02
 11
3.62500072E+02
 21
-3.01746448E+02
  0
LINE
  8
0
 62
4
 10
3.64500061E+02
 20
-2.83325434E+02
 11
3.64500061E+02
 21
-2.86786317E+02
  0
LINE
  8
0
 62
4
 10
3.28000061E+02
 20
-2.80708513E+02
 11
3.28000061E+02
 21
-3.01999969E+02
  0
LINE
  8
0
 62
4
 10
3.47500072E+02
 20
-3.01746448E+02
 11
3.28000072E+02
 21
-3.01746448E+02
  0
LINE
  8
0
 62
4
 10
3.62500061E+02
 20
-2.59601434E+02
 11
3.47500061E+02
 21
-2.59601434E+02
  0
LINE
  8
0
 62
4
 10
3.64500061E+02
 20
-2.83325434E+02
 11
3.45500061E+02
 21
-2.83325434E+02
  0
LINE
  8
0
 62
4
 10
3.47500061E+02
 20
-2.53620198E+02
 11
3.47500061E+02
 21
-2.83325434E+02
  0
LINE
  8
0
 62
4
 10
3.62500061E+02
 20
-2.53620198E+02
 11
3.62500061E+02
 21
-2.83325434E+02
  0
LINE
  8
0
 62
4
 10
3.45500061E+02
 20
-2.83325434E+02
 11
3.45500061E+02
 21
-2.86786317E+02
  0
ARC
  8
0
 62
4
 10
3.62997579E+02
 20
-2.69606130E+02
 40
4.97523679E-01
 50
8.97141074E+01
 51
1.80285893E+02
  0
ARC
  8
0
 62
4
 10
3.29497574E+02
 20
-2.88283830E+02
 40
1.49751542E+00
 50
8.99048594E+01
 51
1.80095141E+02
  0
LINE
  8
0
 62
4
 10
3.65500061E+02
 20
-2.86786317E+02
 11
3.29500061E+02
 21
-2.86786317E+02
  0
LINE
  8
0
 62
4
 10
3.75500061E+02
 20
-2.56358612E+02
 11
3.72000061E+02
 21
-2.56358612E+02
  0
LINE
  8
0
 62
4
 10
3.82000061E+02
 20
-2.55226055E+02
 11
3.77000061E+02
 21
-2.55226055E+02
  0
LINE
  8
0
 62
4
 10
3.72000061E+02
 20
-2.55608612E+02
 11
3.72000061E+02
 21
-2.68608612E+02
  0
LINE
  8
0
 62
4
 10
3.82000061E+02
 20
-2.55226055E+02
 11
3.82000061E+02
 21
-2.69000298E+02
  0
LINE
  8
0
 62
4
 10
3.77000061E+02
 20
-2.55226055E+02
 11
3.77000061E+02
 21
-2.69000298E+02
  0
LINE
  8
0
 62
4
 10
3.77000061E+02
 20
-2.55858612E+02
 11
3.72000061E+02
 21
-2.55858612E+02
  0
LINE
  8
0
 62
4
 10
3.77000061E+02
 20
-2.68358612E+02
 11
3.72000061E+02
 21
-2.68358612E+02
  0
LINE
  8
0
 62
4
 10
3.75500061E+02
 20
-2.55858612E+02
 11
3.75500061E+02
 21
-2.68358612E+02
  0
LINE
  8
0
 62
4
 10
3.75500061E+02
 20
-2.67858612E+02
 11
3.72000061E+02
 21
-2.67858612E+02
  0
ARC
  8
0
 62
4
 10
3.71497566E+02
 20
-2.68606117E+02
 40
5.02501096E-01
 50
2.70284473E+02
 51
3.59715527E+02
  0
ARC
  8
0
 62
4
 10
3.71502544E+02
 20
-2.55606130E+02
 40
4.97523679E-01
 50
3.59714107E+02
 51
9.02858924E+01
  0
LINE
  8
0
 62
4
 10
3.71500061E+02
 20
-2.69108612E+02
 11
3.63000061E+02
 21
-2.69108612E+02
  0
LINE
  8
0
 62
4
 10
3.62500061E+02
 20
-2.55108612E+02
 11
3.71500061E+02
 21
-2.55108612E+02
  0
LINE
  8
0
 62
4
 10
3.62500072E+02
 20
-3.13502570E+02
 11
3.62500072E+02
 21
-2.90741727E+02
  0
LINE
  8
0
 62
4
 10
3.47500072E+02
 20
-3.13502570E+02
 11
3.47500072E+02
 21
-2.90741727E+02
  0
LINE
  8
0
  6
CENTER
 62
6
 10
3.47500072E+02
 20
-3.10641568E+02
 11
3.54500072E+02
 21
-3.10641568E+02
  0
LINE
  8
0
  6
CENTER
 62
6
 10
3.55500072E+02
 20
-3.10641568E+02
 11
3.62500072E+02
 21
-3.10641568E+02
  0
LINE
  8
0
  6
CENTER
 62
6
 10
3.59000072E+02
 20
-3.14141568E+02
 11
3.59000072E+02
 21
-3.07141568E+02
  0
LINE
  8
0
 62
4
 10
3.47500072E+02
 20
-3.13502570E+02
 11
3.62500072E+02
 21
-3.13502570E+02
  0
TEXT
  8
0
 10
4.12853585E+01
 20
3.78182384E+02
 40
9.00000000E+00
  1
STRETCH LINE B
 41
1.09375000E+00
  7
MONOTXT
  0
LINE
  8
0
  6
CENTER
 62
2
 10
3.62500072E+02
 20
-3.07499969E+02
 11
4.15643066E+02
 21
-3.07499969E+02
  0
TEXT
  8
0
 62
7
 10
3.13523407E+02
 20
1.98818843E+01
 40
9.00000000E+00
  1
(mm)
 41
1.00000000E+00
  7
MONOTXT
  0
TEXT
  8
0
 62
7
 10
-9.74765930E+01
 20
1.98818843E+01
 40
9.00000000E+00
  1
STRETCH LIST
 41
1.05263158E+00
  7
MONOTXT
  0
TEXT
  8
0
 62
7
 10
3.21222471E+02
 20
-5.64931164E+01
 40
9.00000000E+00
  1
925
 41
1.00000000E+00
  7
MONOTXT
  0
TEXT
  8
0
 62
7
 10
2.76222471E+02
 20
-5.64931164E+01
 40
9.00000000E+00
  1
825
 41
1.00000000E+00
  7
MONOTXT
  0
TEXT
  8
0
 62
7
 10
2.31222471E+02
 20
-5.64931164E+01
 40
9.00000000E+00
  1
725
 41
1.00000000E+00
  7
MONOTXT
  0
TEXT
  8
0
 62
7
 10
1.86222471E+02
 20
-5.64931164E+01
 40
9.00000000E+00
  1
625
 41
1.00000000E+00
  7
MONOTXT
  0
TEXT
  8
0
 62
7
 10
1.41222471E+02
 20
-5.64931164E+01
 40
9.00000000E+00
  1
525
 41
1.00000000E+00
  7
MONOTXT
  0
TEXT
  8
0
 62
7
 10
9.62224712E+01
 20
-5.64931164E+01
 40
9.00000000E+00
  1
425
 41
1.00000000E+00
  7
MONOTXT
  0
TEXT
  8
0
 62
7
 10
5.12224712E+01
 20
-5.64931164E+01
 40
9.00000000E+00
  1
375
 41
1.00000000E+00
  7
MONOTXT
  0
TEXT
  8
0
 62
7
 10
6.22247121E+00
 20
-5.64931164E+01
 40
9.00000000E+00
  1
325
 41
1.00000000E+00
  7
MONOTXT
  0
TEXT
  8
0
 62
7
 10
-3.87775288E+01
 20
-5.64931164E+01
 40
9.00000000E+00
  1
275
 41
1.00000000E+00
  7
MONOTXT
  0
TEXT
  8
0
 62
7
 10
-8.37775288E+01
 20
-5.64931164E+01
 40
9.00000000E+00
  1
225
 41
1.00000000E+00
  7
MONOTXT
  0
TEXT
  8
0
 62
7
 10
-1.28777529E+02
 20
-5.64931164E+01
 40
9.00000000E+00
  1
175
 41
1.00000000E+00
  7
MONOTXT
  0
TEXT
  8
0
 62
7
 10
-1.73777529E+02
 20
-5.64931164E+01
 40
9.00000000E+00
  1
125
 41
1.00000000E+00
  7
MONOTXT
  0
TEXT
  8
0
 62
7
 10
-2.14277529E+02
 20
-5.64931164E+01
 40
9.00000000E+00
  1
75
 41
1.00000000E+00
  7
MONOTXT
  0
TEXT
  8
0
 62
7
 10
-2.59277529E+02
 20
-5.64931164E+01
 40
9.00000000E+00
  1
25
 41
1.00000000E+00
  7
MONOTXT
  0
TEXT
  8
0
 62
7
 10
-2.99777529E+02
 20
-5.64931164E+01
 40
9.00000000E+00
  1
0
 41
1.00000000E+00
  7
MONOTXT
  0
TEXT
  8
0
 62
7
 10
-3.53777529E+02
 20
-5.64931165E+01
 40
9.00000000E+00
  1
-25
 41
1.00000000E+00
  7
MONOTXT
  0
TEXT
  8
0
 62
7
 10
3.21222471E+02
 20
-4.14931164E+01
 40
9.00000000E+00
  1
925
 41
1.00000000E+00
  7
MONOTXT
  0
TEXT
  8
0
 62
7
 10
2.76222471E+02
 20
-4.14931164E+01
 40
9.00000000E+00
  1
825
 41
1.00000000E+00
  7
MONOTXT
  0
TEXT
  8
0
 62
7
 10
2.31222471E+02
 20
-4.14931164E+01
 40
9.00000000E+00
  1
725
 41
1.00000000E+00
  7
MONOTXT
  0
TEXT
  8
0
 62
7
 10
1.86222471E+02
 20
-4.14931164E+01
 40
9.00000000E+00
  1
625
 41
1.00000000E+00
  7
MONOTXT
  0
TEXT
  8
0
 62
7
 10
1.41222471E+02
 20
-4.14931164E+01
 40
9.00000000E+00
  1
525
 41
1.00000000E+00
  7
MONOTXT
  0
TEXT
  8
0
 62
7
 10
9.62224712E+01
 20
-4.14931164E+01
 40
9.00000000E+00
  1
425
 41
1.00000000E+00
  7
MONOTXT
  0
TEXT
  8
0
 62
7
 10
5.12224712E+01
 20
-4.14931164E+01
 40
9.00000000E+00
  1
375
 41
1.00000000E+00
  7
MONOTXT
  0
TEXT
  8
0
 62
7
 10
6.22247121E+00
 20
-4.14931164E+01
 40
9.00000000E+00
  1
325
 41
1.00000000E+00
  7
MONOTXT
  0
TEXT
  8
0
 62
7
 10
-3.87775288E+01
 20
-4.14931164E+01
 40
9.00000000E+00
  1
275
 41
1.00000000E+00
  7
MONOTXT
  0
TEXT
  8
0
 62
7
 10
-8.37775288E+01
 20
-4.14931164E+01
 40
9.00000000E+00
  1
225
 41
1.00000000E+00
  7
MONOTXT
  0
TEXT
  8
0
 62
7
 10
-1.28777529E+02
 20
-4.14931164E+01
 40
9.00000000E+00
  1
175
 41
1.00000000E+00
  7
MONOTXT
  0
TEXT
  8
0
 62
7
 10
-1.73777529E+02
 20
-4.14931164E+01
 40
9.00000000E+00
  1
125
 41
1.00000000E+00
  7
MONOTXT
  0
TEXT
  8
0
 62
7
 10
-2.14277529E+02
 20
-4.14931164E+01
 40
9.00000000E+00
  1
75
 41
1.00000000E+00
  7
MONOTXT
  0
TEXT
  8
0
 62
7
 10
-2.59277529E+02
 20
-4.14931164E+01
 40
9.00000000E+00
  1
25
 41
1.00000000E+00
  7
MONOTXT
  0
TEXT
  8
0
 62
7
 10
-2.99777529E+02
 20
-4.14931164E+01
 40
9.00000000E+00
  1
0
 41
1.00000000E+00
  7
MONOTXT
  0
TEXT
  8
0
 62
7
 10
-3.53777529E+02
 20
-4.14931165E+01
 40
9.00000000E+00
  1
-25
 41
1.00000000E+00
  7
MONOTXT
  0
TEXT
  8
0
 62
7
 10
3.16722471E+02
 20
-1.22431160E+01
 40
9.00000000E+00
  1
1000
 41
1.00000000E+00
  7
MONOTXT
  0
TEXT
  8
0
 62
7
 10
2.76222471E+02
 20
-1.22431160E+01
 40
9.00000000E+00
  1
900
 41
1.00000000E+00
  7
MONOTXT
  0
TEXT
  8
0
 62
7
 10
2.31222471E+02
 20
-1.22431160E+01
 40
9.00000000E+00
  1
800
 41
1.00000000E+00
  7
MONOTXT
  0
TEXT
  8
0
 62
7
 10
1.86222471E+02
 20
-1.22431160E+01
 40
9.00000000E+00
  1
700
 41
1.00000000E+00
  7
MONOTXT
  0
TEXT
  8
0
 62
7
 10
1.41222471E+02
 20
-1.22431160E+01
 40
9.00000000E+00
  1
600
 41
1.00000000E+00
  7
MONOTXT
  0
TEXT
  8
0
 62
7
 10
9.62224712E+01
 20
-1.22431160E+01
 40
9.00000000E+00
  1
500
 41
1.00000000E+00
  7
MONOTXT
  0
TEXT
  8
0
 62
7
 10
5.12224712E+01
 20
-1.22431160E+01
 40
9.00000000E+00
  1
450
 41
1.00000000E+00
  7
MONOTXT
  0
TEXT
  8
0
 62
7
 10
6.22247121E+00
 20
-1.22431160E+01
 40
9.00000000E+00
  1
400
 41
1.00000000E+00
  7
MONOTXT
  0
TEXT
  8
0
 62
7
 10
-3.87775288E+01
 20
-1.22431160E+01
 40
9.00000000E+00
  1
350
 41
1.00000000E+00
  7
MONOTXT
  0
TEXT
  8
0
 62
7
 10
-8.37775288E+01
 20
-1.22431160E+01
 40
9.00000000E+00
  1
300
 41
1.00000000E+00
  7
MONOTXT
  0
TEXT
  8
0
 62
7
 10
-1.28777529E+02
 20
-1.22431160E+01
 40
9.00000000E+00
  1
250
 41
1.00000000E+00
  7
MONOTXT
  0
TEXT
  8
0
 62
7
 10
-1.73777529E+02
 20
-1.22431160E+01
 40
9.00000000E+00
  1
200
 41
1.00000000E+00
  7
MONOTXT
  0
TEXT
  8
0
 62
7
 10
-2.18777529E+02
 20
-1.22431160E+01
 40
9.00000000E+00
  1
150
 41
1.00000000E+00
  7
MONOTXT
  0
TEXT
  8
0
 62
7
 10
-2.63777529E+02
 20
-1.22431160E+01
 40
9.00000000E+00
  1
100
 41
1.00000000E+00
  7
MONOTXT
  0
TEXT
  8
0
 62
7
 10
-3.04277529E+02
 20
-1.22431160E+01
 40
9.00000000E+00
  1
75
 41
1.00000000E+00
  7
MONOTXT
  0
TEXT
  8
0
 62
7
 10
-3.49277529E+02
 20
-1.22431160E+01
 40
9.00000000E+00
  1
50
 41
1.00000000E+00
  7
MONOTXT
  0
LINE
  8
0
 62
7
 10
3.56238096E+02
 20
-5.91181167E+01
 11
3.56238096E+02
 21
1.43818843E+01
  0
LINE
  8
0
 62
7
 10
3.11238096E+02
 20
-5.91181167E+01
 11
3.11238096E+02
 21
1.43818843E+01
  0
LINE
  8
0
 62
7
 10
2.66238096E+02
 20
-5.91181167E+01
 11
2.66238096E+02
 21
1.43818843E+01
  0
LINE
  8
0
 62
7
 10
2.21238096E+02
 20
-5.91181167E+01
 11
2.21238096E+02
 21
1.43818843E+01
  0
LINE
  8
0
 62
7
 10
1.76238096E+02
 20
-5.91181167E+01
 11
1.76238096E+02
 21
1.43818843E+01
  0
LINE
  8
0
 62
7
 10
1.31238096E+02
 20
-5.91181167E+01
 11
1.31238096E+02
 21
1.43818843E+01
  0
LINE
  8
0
 62
7
 10
8.62380962E+01
 20
-5.91181167E+01
 11
8.62380962E+01
 21
1.43818843E+01
  0
LINE
  8
0
 62
7
 10
4.12380962E+01
 20
-5.91181167E+01
 11
4.12380962E+01
 21
1.43818843E+01
  0
LINE
  8
0
 62
7
 10
-3.76190379E+00
 20
-5.91181167E+01
 11
-3.76190379E+00
 21
1.43818843E+01
  0
LINE
  8
0
 62
7
 10
-4.87619038E+01
 20
-5.91181167E+01
 11
-4.87619038E+01
 21
1.43818843E+01
  0
LINE
  8
0
 62
7
 10
-9.37619038E+01
 20
-5.91181167E+01
 11
-9.37619038E+01
 21
1.43818843E+01
  0
LINE
  8
0
 62
7
 10
-1.38761904E+02
 20
-5.91181167E+01
 11
-1.38761904E+02
 21
1.43818843E+01
  0
LINE
  8
0
 62
7
 10
-1.83761904E+02
 20
-5.91181167E+01
 11
-1.83761904E+02
 21
1.43818843E+01
  0
LINE
  8
0
 62
7
 10
-2.28761904E+02
 20
-5.91181167E+01
 11
-2.28761904E+02
 21
1.43818843E+01
  0
LINE
  8
0
 62
7
 10
-2.73761904E+02
 20
-5.91181167E+01
 11
-2.73761904E+02
 21
1.43818843E+01
  0
LINE
  8
0
 62
7
 10
-3.18761904E+02
 20
-5.91181167E+01
 11
-3.18761904E+02
 21
1.43818843E+01
  0
LINE
  8
0
 62
7
 10
-4.45761904E+02
 20
-5.91181167E+01
 11
-4.45761904E+02
 21
1.43818843E+01
  0
LINE
  8
0
 62
7
 10
-3.63761904E+02
 20
-5.91181167E+01
 11
-3.63761904E+02
 21
1.43818843E+01
  0
TEXT
  8
0
 62
7
 10
-4.07976591E+02
 20
-5.61181167E+01
 40
9.00000000E+00
  1
B
 41
1.00000000E+00
  7
MONOTXT
  0
TEXT
  8
0
 62
7
 10
-4.07976591E+02
 20
-4.14931164E+01
 40
9.00000000E+00
  1
A
 41
1.00000000E+00
  7
MONOTXT
  0
LINE
  8
0
 62
7
 10
-3.63761904E+02
 20
-2.98681161E+01
 11
-3.81082412E+02
 21
1.31883734E-01
  0
TEXT
  8
0
 62
7
 10
-4.39976591E+02
 20
-2.68681162E+01
 40
9.00000000E+00
  1
  PLACE
 41
1.20689655E+00
  7
MONOTXT
  0
LINE
  8
0
 62
7
 10
-4.45761904E+02
 20
1.31883793E-01
 11
-3.81082412E+02
 21
1.31883793E-01
  0
LINE
  8
0
 62
7
 10
-4.45761904E+02
 20
-5.91181167E+01
 11
3.56238096E+02
 21
-5.91181167E+01
  0
LINE
  8
0
 62
7
 10
-4.45761904E+02
 20
-4.41181167E+01
 11
3.56238096E+02
 21
-4.41181167E+01
  0
TEXT
  8
0
 62
7
 10
-4.39976591E+02
 20
-1.38681162E+01
 40
9.00000000E+00
  1
STRETCH
 41
1.00000000E+00
  7
MONOTXT
  0
TEXT
  8
0
 62
7
 10
-4.35476595E+02
 20
2.38188427E+00
 40
9.00000000E+00
  1
STROKE
 41
1.00000000E+00
  7
MONOTXT
  0
LINE
  8
0
 62
7
 10
-4.45761908E+02
 20
1.43818843E+01
 11
3.56238096E+02
 21
1.43818843E+01
  0
LINE
  8
0
 62
7
 10
-4.45761904E+02
 20
-2.98681162E+01
 11
3.56238096E+02
 21
-2.98681162E+01
  0
LINE
  8
0
 62
7
 10
-3.60574705E+01
 20
-3.12999969E+02
 11
-1.07000000E+02
 21
-3.12999969E+02
  0
LINE
  8
0
 62
7
 10
-2.97066176E+01
 20
-3.01999969E+02
 11
-1.07000000E+02
 21
-3.01999969E+02
  0
LINE
  8
0
 62
7
 10
-9.61019338E+01
 20
-2.17000031E+02
 11
-1.07000000E+02
 21
-2.17000031E+02
  0
LINE
  8
0
 62
7
 10
-8.97510808E+01
 20
-2.06000031E+02
 11
-1.07000000E+02
 21
-2.06000031E+02
  0
LINE
  8
0
 62
7
 10
-8.00001628E+01
 20
-9.30000000E+01
 11
-2.45104828E+01
 21
-9.30000000E+01
  0
LINE
  8
0
 62
7
 10
-9.35001628E+01
 20
-1.01999969E+02
 11
-1.07000000E+02
 21
-1.01999969E+02
  0
LINE
  8
0
 62
2
 10
-1.98999969E+02
 20
-3.47082504E+02
 11
-1.81999969E+02
 21
-3.47082504E+02
  0
LINE
  8
0
 62
7
 10
-1.98999969E+02
 20
-3.46000000E+02
 11
-1.81999969E+02
 21
-3.46000000E+02
  0
LINE
  8
0
 62
2
 10
-1.98999969E+02
 20
-1.71917511E+02
 11
-1.81999969E+02
 21
-1.71917511E+02
  0
LINE
  8
0
 62
7
 10
-1.98999969E+02
 20
-1.73000000E+02
 11
-1.81999969E+02
 21
-1.73000000E+02
  0
LINE
  8
0
 62
2
 10
-1.98999969E+02
 20
-1.47082489E+02
 11
-1.81999969E+02
 21
-1.47082489E+02
  0
LINE
  8
0
 62
7
 10
-1.98999969E+02
 20
-1.46000000E+02
 11
-1.81999969E+02
 21
-1.46000000E+02
  0
LINE
  8
0
 62
4
 10
-2.14999969E+02
 20
-1.39000000E+02
 11
-2.14999969E+02
 21
-1.80000000E+02
  0
LINE
  8
0
 62
4
 10
-1.98999969E+02
 20
-1.39000000E+02
 11
-1.98999969E+02
 21
-1.80000000E+02
  0
LINE
  8
0
 62
4
 10
-2.14999969E+02
 20
-1.80000000E+02
 11
-1.98999969E+02
 21
-1.80000000E+02
  0
LINE
  8
0
 62
4
 10
-2.14999969E+02
 20
-1.39000000E+02
 11
-1.98999969E+02
 21
-1.39000000E+02
  0
LINE
  8
0
 62
4
 10
-2.13120750E+02
 20
-1.59500000E+02
 11
-2.00879177E+02
 21
-1.59500000E+02
  0
ARC
  8
0
 62
4
 10
-1.86106606E+02
 20
-1.49250000E+02
 40
2.88933634E+01
 50
1.59221708E+02
 51
2.00778291E+02
  0
ARC
  8
0
 62
4
 10
-1.86106606E+02
 20
-1.69750000E+02
 40
2.88933634E+01
 50
1.59221708E+02
 51
2.00778291E+02
  0
ARC
  8
0
 62
4
 10
-2.27893505E+02
 20
-1.69750000E+02
 40
2.88935357E+01
 50
3.39221838E+02
 51
2.07781619E+01
  0
ARC
  8
0
 62
4
 10
-2.27893505E+02
 20
-1.49250000E+02
 40
2.88935357E+01
 50
3.39221838E+02
 51
2.07781619E+01
  0
LINE
  8
0
 62
4
 10
-1.98999969E+02
 20
-3.39018501E+02
 11
-1.98999969E+02
 21
-3.59500000E+02
  0
LINE
  8
0
 62
4
 10
-2.13170631E+02
 20
-3.35849998E+02
 11
-2.00829300E+02
 21
-3.35849998E+02
  0
LINE
  8
0
 62
4
 10
-2.13120750E+02
 20
-3.47675003E+02
 11
-2.00879181E+02
 21
-3.47675003E+02
  0
LINE
  8
0
 62
4
 10
-2.14999969E+02
 20
-3.39018501E+02
 11
-2.14999969E+02
 21
-3.59500000E+02
  0
LINE
  8
0
 62
4
 10
-1.98999967E+02
 20
-3.39018499E+02
 11
-2.00829297E+02
 21
-3.35850006E+02
  0
LINE
  8
0
 62
4
 10
-2.14999968E+02
 20
-3.39018499E+02
 11
-2.13170633E+02
 21
-3.35849999E+02
  0
ARC
  8
0
 62
4
 10
-2.09240715E+02
 20
-3.41762497E+02
 40
1.02407503E+01
 50
3.24735610E+02
 51
3.00000008E+01
  0
ARC
  8
0
 62
4
 10
-2.04759216E+02
 20
-3.41762497E+02
 40
1.02407503E+01
 50
1.49999997E+02
 51
2.15264395E+02
  0
ARC
  8
0
 62
4
 10
-1.76855782E+02
 20
-3.59500000E+02
 40
3.81441841E+01
 50
1.61940288E+02
 51
1.80000000E+02
  0
ARC
  8
0
 62
4
 10
-2.37144150E+02
 20
-3.59500000E+02
 40
3.81441841E+01
 50
0.00000000E+00
 51
1.80597100E+01
  0
ARC
  8
0
 62
4
 10
-3.83000031E+02
 20
-3.59500000E+02
 40
2.05000000E+01
 50
0.00000000E+00
 51
1.80000000E+02
  0
LINE
  8
0
 62
4
 10
-3.62500031E+02
 20
-3.59500000E+02
 11
-3.62500031E+02
 21
-3.47664319E+02
  0
LINE
  8
0
 62
4
 10
-4.03500031E+02
 20
-3.59500000E+02
 11
-4.03500031E+02
 21
-3.47664319E+02
  0
LINE
  8
0
 62
4
 10
-3.62500031E+02
 20
-3.47664319E+02
 11
-3.83000031E+02
 21
-3.35828639E+02
  0
LINE
  8
0
 62
4
 10
-3.83000031E+02
 20
-3.35828639E+02
 11
-4.03500031E+02
 21
-3.47664319E+02
  0
ARC
  8
0
 62
7
 10
-3.83000031E+02
 20
-3.59500000E+02
 40
1.20000000E+01
 50
0.00000000E+00
 51
1.80000000E+02
  0
ARC
  8
0
 62
2
 10
-3.83000031E+02
 20
-3.59500000E+02
 40
1.23999996E+01
 50
0.00000000E+00
 51
1.80000000E+02
  0
ARC
  8
0
 62
7
 10
-3.83000031E+02
 20
-3.59500000E+02
 40
1.35000000E+01
 50
0.00000000E+00
 51
1.80000000E+02
  0
ARC
  8
0
 62
7
 10
-1.41999969E+02
 20
-2.93111145E+02
 40
1.00000000E+00
 50
9.10001673E+01
 51
1.79999964E+02
  0
ARC
  8
0
 62
7
 10
-1.44499969E+02
 20
-3.30000000E+02
 40
5.00000000E-01
 50
8.99999818E+01
 51
1.79999964E+02
  0
ARC
  8
0
 62
7
 10
-1.58500000E+02
 20
-3.31982910E+02
 40
5.00000000E-01
 50
9.20007356E+01
 51
1.79999964E+02
  0
ARC
  8
0
 62
7
 10
-1.63000000E+02
 20
-3.33000000E+02
 40
1.00000000E+00
 50
8.99999274E+01
 51
1.79999964E+02
  0
CIRCLE
  8
0
 62
7
 10
-1.13999969E+02
 20
-1.79500031E+02
 40
2.59999990E+00
  0
CIRCLE
  8
0
 62
7
 10
-4.34999908E+02
 20
-3.07500000E+02
 40
1.05500011E+01
  0
CIRCLE
  8
0
 62
7
 10
-3.31000031E+02
 20
-3.07500000E+02
 40
1.05500011E+01
  0
ARC
  8
0
 62
7
 10
-3.21099945E+02
 20
-3.27999115E+02
 40
2.00000000E+00
 50
0.00000000E+00
 51
8.91198986E+01
  0
ARC
  8
0
 62
7
 10
-3.26991364E+02
 20
-3.24020660E+02
 40
2.00000000E+00
 50
2.28188629E+01
 51
1.03638709E+02
  0
ARC
  8
0
 62
7
 10
-3.21000092E+02
 20
-3.21499878E+02
 40
4.50000048E+00
 50
2.02818455E+02
 51
2.69119750E+02
  0
ARC
  8
0
 62
7
 10
-3.47520599E+02
 20
-3.03491425E+02
 40
2.00000000E+00
 50
3.46361266E+02
 51
6.71837895E+01
  0
ARC
  8
0
 62
7
 10
-3.51499298E+02
 20
-2.97599976E+02
 40
2.00000000E+00
 50
8.81319802E-01
 51
8.99999681E+01
  0
ARC
  8
0
 62
7
 10
-3.45000092E+02
 20
-2.97500031E+02
 40
4.50000048E+00
 50
1.80880775E+02
 51
2.47183429E+02
  0
ARC
  8
0
 62
7
 10
-4.39008575E+02
 20
-3.24020630E+02
 40
2.00000000E+00
 50
7.63612624E+01
 51
1.57183786E+02
  0
ARC
  8
0
 62
7
 10
-4.44899994E+02
 20
-3.27999298E+02
 40
2.00000000E+00
 50
9.08813153E+01
 51
1.79999964E+02
  0
ARC
  8
0
 62
7
 10
-4.44999908E+02
 20
-3.21500061E+02
 40
4.50000048E+00
 50
2.70880778E+02
 51
3.37183422E+02
  0
ARC
  8
0
 62
7
 10
-4.14500885E+02
 20
-2.97599976E+02
 40
2.00000000E+00
 50
8.99999818E+01
 51
1.79119894E+02
  0
ARC
  8
0
 62
7
 10
-4.18479340E+02
 20
-3.03491425E+02
 40
2.00000000E+00
 50
1.12818859E+02
 51
1.93638704E+02
  0
ARC
  8
0
 62
7
 10
-4.21000092E+02
 20
-2.97500122E+02
 40
4.50000048E+00
 50
2.92818450E+02
 51
3.59119744E+02
  0
ARC
  8
0
 62
7
 10
-3.83000031E+02
 20
-3.59500000E+02
 40
2.75000000E+01
 50
0.00000000E+00
 51
1.80000000E+02
  0
ARC
  8
0
 62
7
 10
-3.83000031E+02
 20
-3.59500000E+02
 40
3.00000000E+01
 50
0.00000000E+00
 51
1.80000000E+02
  0
ARC
  8
0
 62
7
 10
-3.21099945E+02
 20
-3.56000000E+02
 40
2.00000000E+00
 50
2.70000018E+02
 51
0.00000000E+00
  0
ARC
  8
0
 62
7
 10
-3.50682220E+02
 20
-3.56000000E+02
 40
2.00000000E+00
 50
1.86180811E+02
 51
2.70000018E+02
  0
ARC
  8
0
 62
7
 10
-3.45238190E+02
 20
-3.16788361E+02
 40
2.00000000E+00
 50
3.15000412E+02
 51
3.31186208E+01
  0
ARC
  8
0
 62
7
 10
-3.40288483E+02
 20
-3.21738129E+02
 40
2.00000000E+00
 50
5.68805723E+01
 51
1.35000438E+02
  0
ARC
  8
0
 62
7
 10
-3.57673004E+02
 20
-3.39122711E+02
 40
2.00000000E+00
 50
1.35000014E+02
 51
2.18819248E+02
  0
ARC
  8
0
 62
7
 10
-3.62622833E+02
 20
-3.34172943E+02
 40
2.00000000E+00
 50
2.31181239E+02
 51
3.14999999E+02
  0
ARC
  8
0
 62
7
 10
-3.83000031E+02
 20
-3.59500000E+02
 40
2.80000000E+01
 50
0.00000000E+00
 51
1.80000000E+02
  0
ARC
  8
0
 62
7
 10
-3.21000031E+02
 20
-2.97500000E+02
 40
6.00000000E+00
 50
0.00000000E+00
 51
8.99999818E+01
  0
ARC
  8
0
 62
7
 10
-3.31000031E+02
 20
-3.07500000E+02
 40
1.50000000E+01
 50
1.66361279E+02
 51
2.83638878E+02
  0
ARC
  8
0
 62
7
 10
-3.21000031E+02
 20
-2.97499969E+02
 40
5.40000057E+00
 50
0.00000000E+00
 51
8.99999818E+01
  0
CIRCLE
  8
0
 62
7
 10
-3.31000031E+02
 20
-3.07500000E+02
 40
1.00500011E+01
  0
ARC
  8
0
 62
7
 10
-3.79500031E+02
 20
-3.27182220E+02
 40
2.00000000E+00
 50
1.79999977E+02
 51
2.63819144E+02
  0
ARC
  8
0
 62
7
 10
-3.79500031E+02
 20
-2.97599976E+02
 40
2.00000000E+00
 50
8.99999818E+01
 51
1.79999964E+02
  0
ARC
  8
0
 62
7
 10
-4.44899994E+02
 20
-3.56000000E+02
 40
2.00000000E+00
 50
1.79999977E+02
 51
2.70000028E+02
  0
ARC
  8
0
 62
7
 10
-4.15317780E+02
 20
-3.56000000E+02
 40
2.00000000E+00
 50
2.70000018E+02
 51
3.53819176E+02
  0
ARC
  8
0
 62
7
 10
-3.86500031E+02
 20
-3.27182220E+02
 40
2.00000000E+00
 50
2.76180827E+02
 51
0.00000000E+00
  0
ARC
  8
0
 62
7
 10
-4.03377106E+02
 20
-3.34172913E+02
 40
2.00000000E+00
 50
2.24999986E+02
 51
3.08818374E+02
  0
ARC
  8
0
 62
7
 10
-4.08327057E+02
 20
-3.39122833E+02
 40
2.00000000E+00
 50
3.21181173E+02
 51
4.50000012E+01
  0
ARC
  8
0
 62
7
 10
-4.25711700E+02
 20
-3.21738251E+02
 40
2.00000000E+00
 50
4.49995880E+01
 51
1.23118148E+02
  0
ARC
  8
0
 62
7
 10
-4.20761749E+02
 20
-3.16788330E+02
 40
2.00000000E+00
 50
1.46881880E+02
 51
2.24999545E+02
  0
ARC
  8
0
 62
7
 10
-3.86500031E+02
 20
-2.97599976E+02
 40
2.00000000E+00
 50
0.00000000E+00
 51
8.99999818E+01
  0
ARC
  8
0
 62
7
 10
-4.34999908E+02
 20
-3.07500000E+02
 40
1.50000000E+01
 50
2.56361093E+02
 51
1.36387352E+01
  0
ARC
  8
0
 62
7
 10
-4.44999908E+02
 20
-2.97499969E+02
 40
5.40000057E+00
 50
8.99999818E+01
 51
1.79999964E+02
  0
ARC
  8
0
 62
7
 10
-4.44999908E+02
 20
-2.97500000E+02
 40
6.00000000E+00
 50
8.99999818E+01
 51
1.79999964E+02
  0
CIRCLE
  8
0
 62
7
 10
-4.34999908E+02
 20
-3.07500000E+02
 40
1.00500011E+01
  0
ARC
  8
0
 62
7
 10
-1.63000000E+02
 20
-1.86000000E+02
 40
1.00000000E+00
 50
1.79999977E+02
 51
2.70000028E+02
  0
ARC
  8
0
 62
7
 10
-1.63000000E+02
 20
-1.33000000E+02
 40
1.00000000E+00
 50
8.99999818E+01
 51
1.79999964E+02
  0
ARC
  8
0
 62
7
 10
-1.41999969E+02
 20
-9.31107483E+01
 40
1.00000000E+00
 50
9.10002292E+01
 51
1.79999964E+02
  0
ARC
  8
0
 62
7
 10
-1.41999969E+02
 20
-2.25888733E+02
 40
1.00000000E+00
 50
1.79999977E+02
 51
2.68999761E+02
  0
ARC
  8
0
 62
7
 10
-1.44499969E+02
 20
-1.30000000E+02
 40
5.00000000E-01
 50
8.99999818E+01
 51
1.79999964E+02
  0
ARC
  8
0
 62
7
 10
-1.58500000E+02
 20
-1.31982910E+02
 40
5.00000000E-01
 50
9.20007356E+01
 51
1.79999964E+02
  0
ARC
  8
0
 62
7
 10
-1.44499969E+02
 20
-1.89000000E+02
 40
5.00000000E-01
 50
1.79999977E+02
 51
2.69999974E+02
  0
ARC
  8
0
 62
7
 10
-1.58500000E+02
 20
-1.87017090E+02
 40
5.00000000E-01
 50
1.79999977E+02
 51
2.67999192E+02
  0
CIRCLE
  8
0
 62
7
 10
-3.31000092E+02
 20
-3.07500000E+02
 40
5.05000019E+00
  0
CIRCLE
  8
0
 62
7
 10
-4.34999969E+02
 20
-3.07500000E+02
 40
5.05000019E+00
  0
CIRCLE
  8
0
 62
2
 10
-3.31000092E+02
 20
-3.07500000E+02
 40
6.00000000E+00
  0
CIRCLE
  8
0
 62
2
 10
-4.34999969E+02
 20
-3.07500000E+02
 40
6.00000000E+00
  0
ARC
  8
0
 62
7
 10
-1.83999969E+02
 20
-3.59500000E+02
 40
1.75000000E+01
 50
0.00000000E+00
 51
2.38955278E+01
  0
ARC
  8
0
 62
7
 10
-1.36999969E+02
 20
-2.02500000E+02
 40
2.00000000E+00
 50
1.79999977E+02
 51
2.70000028E+02
  0
ARC
  8
0
 62
7
 10
-1.36999969E+02
 20
-1.16500000E+02
 40
2.00000000E+00
 50
8.99999818E+01
 51
1.79999964E+02
  0
CIRCLE
  8
0
 62
2
 10
-1.22999969E+02
 20
-1.45500000E+02
 40
1.04775009E+01
  0
CIRCLE
  8
0
 62
7
 10
-1.22999969E+02
 20
-1.45500000E+02
 40
1.10000000E+01
  0
CIRCLE
  8
0
 62
7
 10
-1.22999969E+02
 20
-1.45499939E+02
 40
9.25000000E+00
  0
ARC
  8
0
 62
7
 10
-1.13999969E+02
 20
-1.79500031E+02
 40
5.00000048E+00
 50
1.79999977E+02
 51
1.00179127E-05
  0
ARC
  8
0
 62
7
 10
-1.13999969E+02
 20
-1.79500031E+02
 40
5.00000048E+00
 50
0.00000000E+00
 51
1.79999964E+02
  0
LINE
  8
0
 62
7
 10
-1.81999969E+02
 20
-3.47082504E+02
 11
-1.77999969E+02
 21
-3.47082504E+02
  0
LINE
  8
0
 62
7
 10
-1.81999969E+02
 20
-1.71917511E+02
 11
-1.77999969E+02
 21
-1.71917511E+02
  0
LINE
  8
0
 62
7
 10
-1.81999969E+02
 20
-1.47082489E+02
 11
-1.77999969E+02
 21
-1.47082489E+02
  0
LINE
  8
0
 62
2
 10
-1.73000008E+02
 20
-3.59500000E+02
 11
-1.67999992E+02
 21
-3.52411247E+02
  0
LINE
  8
0
 62
2
 10
-1.76511130E+02
 20
-3.54522085E+02
 11
-1.74661106E+02
 21
-3.57144949E+02
  0
LINE
  8
0
 62
7
 10
-1.77999916E+02
 20
-3.55773540E+02
 11
-1.73999921E+02
 21
-3.52411315E+02
  0
LINE
  8
0
 62
7
 10
-1.77999965E+02
 20
-3.43071777E+02
 11
-1.73999956E+02
 21
-3.41999978E+02
  0
LINE
  8
0
 62
2
 10
-2.31582458E+02
 20
-1.71917511E+02
 11
-2.14999969E+02
 21
-1.71917511E+02
  0
LINE
  8
0
 62
7
 10
-2.30499969E+02
 20
-1.73000000E+02
 11
-2.14999969E+02
 21
-1.73000000E+02
  0
LINE
  8
0
 62
7
 10
-2.32000045E+02
 20
-1.71500018E+02
 11
-2.30500033E+02
 21
-1.73000030E+02
  0
LINE
  8
0
 62
7
 10
-2.30499969E+02
 20
-1.73000000E+02
 11
-2.30499969E+02
 21
-1.46000000E+02
  0
LINE
  8
0
 62
7
 10
-2.31999960E+02
 20
-1.47499994E+02
 11
-2.30499958E+02
 21
-1.45999992E+02
  0
LINE
  8
0
 62
2
 10
-2.31582458E+02
 20
-1.47082489E+02
 11
-2.14999969E+02
 21
-1.47082489E+02
  0
LINE
  8
0
 62
7
 10
-2.30499969E+02
 20
-1.46000000E+02
 11
-2.14999969E+02
 21
-1.46000000E+02
  0
LINE
  8
0
 62
7
 10
-2.31999969E+02
 20
-1.71500092E+02
 11
-2.31999969E+02
 21
-1.47500000E+02
  0
LINE
  8
0
 62
7
 10
-1.81999969E+02
 20
-1.73000000E+02
 11
-1.81999969E+02
 21
-1.46000000E+02
  0
LINE
  8
0
 62
7
 10
-1.81999969E+02
 20
-3.59500000E+02
 11
-1.81999969E+02
 21
-3.46000000E+02
  0
LINE
  8
0
 62
7
 10
-2.30499969E+02
 20
-3.59500000E+02
 11
-2.30499969E+02
 21
-3.46000000E+02
  0
LINE
  8
0
 62
7
 10
-2.32000003E+02
 20
-3.47500000E+02
 11
-2.30500002E+02
 21
-3.45999999E+02
  0
LINE
  8
0
 62
2
 10
-2.31582458E+02
 20
-3.47082504E+02
 11
-2.14999969E+02
 21
-3.47082504E+02
  0
LINE
  8
0
 62
7
 10
-2.30499969E+02
 20
-3.46000000E+02
 11
-2.14999969E+02
 21
-3.46000000E+02
  0
LINE
  8
0
 62
7
 10
-2.31999969E+02
 20
-3.59500000E+02
 11
-2.31999969E+02
 21
-3.47500000E+02
  0
LINE
  8
0
 62
7
 10
-1.73999969E+02
 20
-3.52411270E+02
 11
-1.73999969E+02
 21
-3.41999969E+02
  0
LINE
  8
0
  6
CENTER
 62
2
 10
-1.22999969E+02
 20
-3.04199982E+02
 11
-1.22999969E+02
 21
-2.87210724E+02
  0
LINE
  8
0
  6
CENTER
 62
2
 10
-3.96999908E+02
 20
-3.04199982E+02
 11
-3.96999908E+02
 21
-2.87210724E+02
  0
LINE
  8
0
 62
7
 10
-1.63000000E+02
 20
-3.32000000E+02
 11
-1.59000000E+02
 21
-3.32000000E+02
  0
LINE
  8
0
 62
7
 10
-1.73999969E+02
 20
-3.41999969E+02
 11
-1.64000000E+02
 21
-3.41999969E+02
  0
LINE
  8
0
 62
7
 10
-1.07000000E+02
 20
-2.93000000E+02
 11
-2.45104828E+01
 21
-2.93000000E+02
  0
LINE
  8
0
  6
CENTER
 62
2
 10
-3.28820441E+01
 20
-3.07499969E+02
 11
-1.46643005E+02
 21
-3.07499969E+02
  0
LINE
  8
0
 62
7
 10
-1.42017427E+02
 20
-2.92111318E+02
 11
-1.06999964E+02
 21
-2.91500086E+02
  0
LINE
  8
0
 62
7
 10
-1.39000000E+02
 20
-2.92058563E+02
 11
-1.39000000E+02
 21
-2.91500031E+02
  0
LINE
  8
0
 62
7
 10
-1.39000000E+02
 20
-2.91500000E+02
 11
-1.06999969E+02
 21
-2.91500000E+02
  0
LINE
  8
0
 62
7
 10
-1.58517462E+02
 20
-3.31483112E+02
 11
-1.45000005E+02
 21
-3.31011072E+02
  0
LINE
  8
0
 62
7
 10
-1.44499969E+02
 20
-3.29500000E+02
 11
-1.42999969E+02
 21
-3.29500000E+02
  0
LINE
  8
0
  6
CENTER
 62
2
 10
-3.08596161E+02
 20
-3.59500000E+02
 11
-4.58513763E+02
 21
-3.59500000E+02
  0
LINE
  8
0
  6
CENTER
 62
2
 10
-3.49754913E+02
 20
-3.07500000E+02
 11
-3.10634979E+02
 21
-3.07500000E+02
  0
LINE
  8
0
  6
CENTER
 62
2
 10
-3.83000031E+02
 20
-2.83881378E+02
 11
-3.83000031E+02
 21
-3.59500000E+02
  0
LINE
  8
0
 62
7
 10
-3.19099945E+02
 20
-3.27999115E+02
 11
-3.19099945E+02
 21
-3.59500000E+02
  0
LINE
  8
0
 62
7
 10
-3.15000031E+02
 20
-2.97499969E+02
 11
-3.15000031E+02
 21
-3.59500000E+02
  0
LINE
  8
0
 62
7
 10
-3.15599945E+02
 20
-2.97499969E+02
 11
-3.15599945E+02
 21
-3.59500000E+02
  0
LINE
  8
0
 62
7
 10
-3.50682220E+02
 20
-3.58000000E+02
 11
-3.21099945E+02
 21
-3.58000000E+02
  0
LINE
  8
0
 62
7
 10
-3.41702932E+02
 20
-3.20323699E+02
 11
-3.59087468E+02
 21
-3.37708239E+02
  0
LINE
  8
0
 62
7
 10
-3.43824252E+02
 20
-3.18202292E+02
 11
-3.61208853E+02
 21
-3.35586897E+02
  0
LINE
  8
0
  6
CENTER
 62
2
 10
-3.31000031E+02
 20
-2.87888367E+02
 11
-3.31000031E+02
 21
-3.26319885E+02
  0
LINE
  8
0
 62
7
 10
-3.38000031E+02
 20
-2.91499969E+02
 11
-3.38000031E+02
 21
-2.92099945E+02
  0
LINE
  8
0
  6
CENTER
 62
2
 10
-4.55115631E+02
 20
-3.07500000E+02
 11
-4.16896881E+02
 21
-3.07500000E+02
  0
LINE
  8
0
 62
7
 10
-4.44999969E+02
 20
-2.91500000E+02
 11
-3.21000031E+02
 21
-2.91500000E+02
  0
LINE
  8
0
 62
7
 10
-4.14500946E+02
 20
-2.95599976E+02
 11
-3.51499298E+02
 21
-2.95599976E+02
  0
LINE
  8
0
 62
7
 10
-4.44999969E+02
 20
-2.92099976E+02
 11
-3.21000031E+02
 21
-2.92099976E+02
  0
LINE
  8
0
 62
7
 10
-3.81500031E+02
 20
-2.97599945E+02
 11
-3.81500031E+02
 21
-3.27182220E+02
  0
LINE
  8
0
 62
7
 10
-4.22176173E+02
 20
-3.18202449E+02
 11
-4.04791594E+02
 21
-3.35587033E+02
  0
LINE
  8
0
 62
7
 10
-4.28000031E+02
 20
-2.91499969E+02
 11
-4.28000031E+02
 21
-2.92099945E+02
  0
LINE
  8
0
 62
7
 10
-4.15317841E+02
 20
-3.58000000E+02
 11
-4.44899994E+02
 21
-3.58000000E+02
  0
LINE
  8
0
 62
7
 10
-3.84500031E+02
 20
-2.97599945E+02
 11
-3.84500031E+02
 21
-3.27182220E+02
  0
LINE
  8
0
 62
7
 10
-4.24297559E+02
 20
-3.20324093E+02
 11
-4.06912979E+02
 21
-3.37708677E+02
  0
LINE
  8
0
  6
CENTER
 62
2
 10
-4.34999908E+02
 20
-2.87635925E+02
 11
-4.34999908E+02
 21
-3.25645416E+02
  0
LINE
  8
0
 62
7
 10
-4.50999908E+02
 20
-2.97499969E+02
 11
-4.50999908E+02
 21
-3.59500000E+02
  0
LINE
  8
0
 62
7
 10
-4.46899994E+02
 20
-3.27999298E+02
 11
-4.46899994E+02
 21
-3.59500000E+02
  0
LINE
  8
0
 62
7
 10
-4.50399933E+02
 20
-2.97499969E+02
 11
-4.50399933E+02
 21
-3.59500000E+02
  0
LINE
  8
0
 62
7
 10
-1.59000000E+02
 20
-3.32000000E+02
 11
-1.59000000E+02
 21
-3.59500000E+02
  0
LINE
  8
0
 62
7
 10
-1.44499969E+02
 20
-1.29500000E+02
 11
-1.42999969E+02
 21
-1.29500000E+02
  0
LINE
  8
0
 62
7
 10
-1.58517426E+02
 20
-1.31483133E+02
 11
-1.44999970E+02
 21
-1.31011093E+02
  0
LINE
  8
0
 62
7
 10
-1.63000000E+02
 20
-1.32000000E+02
 11
-1.59000000E+02
 21
-1.32000000E+02
  0
LINE
  8
0
 62
7
 10
-1.64000000E+02
 20
-3.33000000E+02
 11
-1.64000000E+02
 21
-3.59500000E+02
  0
LINE
  8
0
 62
7
 10
-1.44999969E+02
 20
-3.59500000E+02
 11
-1.44999969E+02
 21
-3.30000000E+02
  0
LINE
  8
0
 62
7
 10
-1.44499969E+02
 20
-1.89500000E+02
 11
-1.42999969E+02
 21
-1.89500000E+02
  0
LINE
  8
0
 62
7
 10
-1.58517407E+02
 20
-1.87516806E+02
 11
-1.44999951E+02
 21
-1.87988846E+02
  0
LINE
  8
0
 62
7
 10
-1.63000000E+02
 20
-1.87000000E+02
 11
-1.59000000E+02
 21
-1.87000000E+02
  0
LINE
  8
0
 62
7
 10
-3.60574706E+01
 20
-1.12999969E+02
 11
-7.85001628E+01
 21
-1.12999969E+02
  0
LINE
  8
0
 62
7
 10
-2.97066176E+01
 20
-1.01999969E+02
 11
-7.85001628E+01
 21
-1.01999969E+02
  0
LINE
  8
0
 62
7
 10
-1.67999973E+02
 20
-1.75499996E+02
 11
-1.66499961E+02
 21
-1.77000008E+02
  0
LINE
  8
0
 62
7
 10
-1.68000017E+02
 20
-1.43499926E+02
 11
-1.66499988E+02
 21
-1.41999897E+02
  0
LINE
  8
0
 62
7
 10
-1.77999969E+02
 20
-1.75500000E+02
 11
-1.67999969E+02
 21
-1.75500000E+02
  0
LINE
  8
0
 62
7
 10
-1.77999969E+02
 20
-1.43500000E+02
 11
-1.67999969E+02
 21
-1.43500000E+02
  0
LINE
  8
0
 62
7
 10
-1.64000000E+02
 20
-1.33000000E+02
 11
-1.64000000E+02
 21
-1.86000000E+02
  0
LINE
  8
0
 62
7
 10
-1.44999969E+02
 20
-1.89000000E+02
 11
-1.44999969E+02
 21
-1.30000000E+02
  0
LINE
  8
0
 62
7
 10
-1.59000000E+02
 20
-1.31982910E+02
 11
-1.59000000E+02
 21
-1.87000000E+02
  0
LINE
  8
0
 62
7
 10
-1.73999969E+02
 20
-3.52411270E+02
 11
-1.67999969E+02
 21
-3.52411270E+02
  0
LINE
  8
0
 62
7
 10
-1.67999969E+02
 20
-3.59500000E+02
 11
-1.67999969E+02
 21
-3.52411270E+02
  0
LINE
  8
0
 62
7
 10
-1.77999969E+02
 20
-3.59500000E+02
 11
-1.77999969E+02
 21
-3.43071777E+02
  0
LINE
  8
0
  6
CENTER
 62
2
 10
-2.38944885E+02
 20
-3.59500000E+02
 11
-6.29042757E+01
 21
-3.59500000E+02
  0
LINE
  8
0
 62
7
 10
-1.36999969E+02
 20
-1.14500000E+02
 11
-1.13000163E+02
 21
-1.14500000E+02
  0
LINE
  8
0
 62
7
 10
-1.36999969E+02
 20
-2.04500000E+02
 11
-1.07000000E+02
 21
-2.04500000E+02
  0
LINE
  8
0
 62
7
 10
-1.07000000E+02
 20
-9.30000000E+01
 11
-9.20001628E+01
 21
-9.30000000E+01
  0
LINE
  8
0
 62
7
 10
-1.06500000E+02
 20
-2.26000000E+02
 11
-1.01298069E+02
 21
-2.26000000E+02
  0
LINE
  8
0
  6
CENTER
 62
2
 10
-3.28820441E+01
 20
-1.07499969E+02
 11
-7.85001628E+01
 21
-1.07499969E+02
  0
LINE
  8
0
 62
7
 10
-1.66499939E+02
 20
-1.77000031E+02
 11
-1.64000000E+02
 21
-1.77000031E+02
  0
LINE
  8
0
 62
7
 10
-1.66499939E+02
 20
-1.41999969E+02
 11
-1.64000000E+02
 21
-1.41999969E+02
  0
LINE
  8
0
 62
7
 10
-1.73999969E+02
 20
-1.43500000E+02
 11
-1.73999969E+02
 21
-1.75500000E+02
  0
LINE
  8
0
  6
CENTER
 62
2
 10
-1.22999969E+02
 20
-1.59605835E+02
 11
-1.22999969E+02
 21
-1.31676727E+02
  0
LINE
  8
0
 62
7
 10
-1.07000000E+02
 20
-9.14996643E+01
 11
-1.07000000E+02
 21
-1.08491220E+02
  0
LINE
  8
0
 62
7
 10
-1.42017428E+02
 20
-2.26888530E+02
 11
-1.06999934E+02
 21
-2.27499762E+02
  0
LINE
  8
0
 62
7
 10
-1.42017417E+02
 20
-9.21108499E+01
 11
-1.06999893E+02
 21
-9.14996168E+01
  0
LINE
  8
0
 62
7
 10
-1.42999969E+02
 20
-2.25888733E+02
 11
-1.42999969E+02
 21
-9.31107483E+01
  0
LINE
  8
0
  6
CENTER
 62
2
 10
-1.09297638E+02
 20
-1.45500031E+02
 11
-1.37094910E+02
 21
-1.45500031E+02
  0
LINE
  8
0
 62
7
 10
-1.38999969E+02
 20
-1.16500000E+02
 11
-1.38999969E+02
 21
-2.02500000E+02
  0
LINE
  8
0
  6
CENTER
 62
2
 10
-9.29265073E+01
 20
-2.11500031E+02
 11
-1.49941803E+02
 21
-2.11500031E+02
  0
LINE
  8
0
 62
7
 10
-1.12267700E+02
 20
-1.79500183E+02
 11
-1.13133747E+02
 21
-1.81000229E+02
  0
LINE
  8
0
 62
7
 10
-1.13133972E+02
 20
-1.81000031E+02
 11
-1.14866028E+02
 21
-1.81000031E+02
  0
LINE
  8
0
 62
7
 10
-1.14865861E+02
 20
-1.81000103E+02
 11
-1.15731946E+02
 21
-1.79499991E+02
  0
LINE
  8
0
 62
7
 10
-1.15731672E+02
 20
-1.79500273E+02
 11
-1.14865663E+02
 21
-1.78000293E+02
  0
LINE
  8
0
 62
7
 10
-1.13133972E+02
 20
-1.78000031E+02
 11
-1.14866028E+02
 21
-1.78000031E+02
  0
LINE
  8
0
 62
7
 10
-1.12267774E+02
 20
-1.79500106E+02
 11
-1.13133798E+02
 21
-1.78000100E+02
  0
LINE
  8
0
  6
CENTER
 62
2
 10
-1.22194550E+02
 20
-1.79500031E+02
 11
-1.05925568E+02
 21
-1.79500031E+02
  0
LINE
  8
0
  6
CENTER
 62
2
 10
-1.13999969E+02
 20
-1.71952271E+02
 11
-1.13999969E+02
 21
-1.86565643E+02
  0
LINE
  8
0
 62
7
 10
-1.77999969E+02
 20
-1.75500000E+02
 11
-1.77999969E+02
 21
-1.43500000E+02
  0
LINE
  8
0
 62
7
 10
-1.07000000E+02
 20
-2.91500000E+02
 11
-1.07000000E+02
 21
-3.59500000E+02
  0
LINE
  8
0
 62
7
 10
-1.42999969E+02
 20
-2.93111145E+02
 11
-1.42999969E+02
 21
-3.59500000E+02
  0
LINE
  8
0
  6
CENTER
 62
2
 10
-2.39477448E+02
 20
-1.59500000E+02
 11
-6.29042757E+01
 21
-1.59500000E+02
  0
LINE
  8
0
 62
2
 10
-1.09708907E+02
 20
-2.40567999E+02
 11
-1.82661574E+01
 21
-8.21845112E+01
  0
LINE
  8
0
 62
7
 10
-1.07000000E+02
 20
-1.20991220E+02
 11
-1.07000000E+02
 21
-2.27499786E+02
  0
LINE
  8
0
  6
CENTER
 62
2
 10
-9.35001628E+01
 20
-1.07499969E+02
 11
-1.08000163E+02
 21
-1.07499969E+02
  0
LINE
  8
0
 62
7
 10
-8.80001628E+01
 20
-9.30000000E+01
 11
-8.40001628E+01
 21
-9.30000000E+01
  0
LINE
  8
0
  6
CENTER
 62
2
 10
2.85638983E+02
 20
-3.07499969E+02
 11
3.47500072E+02
 21
-3.07499969E+02
  0
LINE
  8
0
 62
7
 10
4.11017488E+02
 20
-2.92111318E+02
 11
3.76000025E+02
 21
-2.91500086E+02
  0
LINE
  8
0
 62
7
 10
4.08000061E+02
 20
-2.91500000E+02
 11
3.76000031E+02
 21
-2.91500000E+02
  0
LINE
  8
0
  6
CENTER
 62
2
 10
5.07944946E+02
 20
-3.59500000E+02
 11
2.55616751E+02
 21
-3.59500000E+02
  0
LINE
  8
0
 62
7
 10
4.12000031E+02
 20
-2.93111145E+02
 11
4.12000031E+02
 21
-3.59500000E+02
  0
LINE
  8
0
 62
7
 10
4.47000031E+02
 20
-3.59500000E+02
 11
4.47000031E+02
 21
-3.43071777E+02
  0
LINE
  8
0
 62
7
 10
4.37000031E+02
 20
-3.59500000E+02
 11
4.37000031E+02
 21
-3.52411270E+02
  0
LINE
  8
0
 62
7
 10
4.43000031E+02
 20
-3.52411270E+02
 11
4.37000031E+02
 21
-3.52411270E+02
  0
LINE
  8
0
 62
7
 10
4.14000031E+02
 20
-3.59500000E+02
 11
4.14000031E+02
 21
-3.30000000E+02
  0
LINE
  8
0
 62
7
 10
4.33000061E+02
 20
-3.33000000E+02
 11
4.33000061E+02
 21
-3.59500000E+02
  0
LINE
  8
0
 62
7
 10
4.28000061E+02
 20
-3.32000000E+02
 11
4.28000061E+02
 21
-3.59500000E+02
  0
LINE
  8
0
 62
7
 10
4.13500031E+02
 20
-3.29500000E+02
 11
4.12000031E+02
 21
-3.29500000E+02
  0
LINE
  8
0
 62
7
 10
4.27517523E+02
 20
-3.31483112E+02
 11
4.14000066E+02
 21
-3.31011072E+02
  0
LINE
  8
0
 62
7
 10
4.08000061E+02
 20
-2.92058563E+02
 11
4.08000061E+02
 21
-2.91500031E+02
  0
LINE
  8
0
 62
7
 10
4.43000031E+02
 20
-3.41999969E+02
 11
4.33000061E+02
 21
-3.41999969E+02
  0
LINE
  8
0
 62
7
 10
4.32000061E+02
 20
-3.32000000E+02
 11
4.28000061E+02
 21
-3.32000000E+02
  0
LINE
  8
0
  6
CENTER
 62
2
 10
3.92000031E+02
 20
-3.04199982E+02
 11
3.92000031E+02
 21
-2.87210724E+02
  0
LINE
  8
0
 62
7
 10
4.43000031E+02
 20
-3.52411270E+02
 11
4.43000031E+02
 21
-3.41999969E+02
  0
LINE
  8
0
 62
7
 10
5.01000031E+02
 20
-3.59500000E+02
 11
5.01000031E+02
 21
-3.47500000E+02
  0
LINE
  8
0
 62
7
 10
4.99500031E+02
 20
-3.46000000E+02
 11
4.84000031E+02
 21
-3.46000000E+02
  0
LINE
  8
0
 62
2
 10
5.00582520E+02
 20
-3.47082504E+02
 11
4.84000031E+02
 21
-3.47082504E+02
  0
LINE
  8
0
 62
7
 10
5.01000064E+02
 20
-3.47500000E+02
 11
4.99500063E+02
 21
-3.45999999E+02
  0
LINE
  8
0
 62
7
 10
4.99500031E+02
 20
-3.59500000E+02
 11
4.99500031E+02
 21
-3.46000000E+02
  0
LINE
  8
0
 62
7
 10
4.51000031E+02
 20
-3.59500000E+02
 11
4.51000031E+02
 21
-3.46000000E+02
  0
LINE
  8
0
 62
7
 10
4.47000026E+02
 20
-3.43071777E+02
 11
4.43000017E+02
 21
-3.41999978E+02
  0
LINE
  8
0
 62
7
 10
4.46999977E+02
 20
-3.55773540E+02
 11
4.42999982E+02
 21
-3.52411315E+02
  0
LINE
  8
0
 62
2
 10
4.45511191E+02
 20
-3.54522085E+02
 11
4.43661167E+02
 21
-3.57144949E+02
  0
LINE
  8
0
 62
2
 10
4.42000069E+02
 20
-3.59500000E+02
 11
4.37000053E+02
 21
-3.52411247E+02
  0
LINE
  8
0
 62
7
 10
4.51000031E+02
 20
-3.47082504E+02
 11
4.47000031E+02
 21
-3.47082504E+02
  0
ARC
  8
0
 62
7
 10
4.53000031E+02
 20
-3.59500000E+02
 40
1.75000000E+01
 50
1.56104472E+02
 51
1.80000000E+02
  0
ARC
  8
0
 62
7
 10
4.32000061E+02
 20
-3.33000000E+02
 40
1.00000000E+00
 50
3.59721787E-05
 51
9.00000724E+01
  0
ARC
  8
0
 62
7
 10
4.27500061E+02
 20
-3.31982910E+02
 40
5.00000000E-01
 50
3.59721787E-05
 51
8.79992642E+01
  0
ARC
  8
0
 62
7
 10
4.13500031E+02
 20
-3.30000000E+02
 40
5.00000000E-01
 50
3.59721787E-05
 51
9.00000179E+01
  0
ARC
  8
0
 62
7
 10
4.11000031E+02
 20
-2.93111145E+02
 40
1.00000000E+00
 50
3.59721787E-05
 51
8.89998325E+01
  0
ARC
  8
0
 62
4
 10
5.06144211E+02
 20
-3.59500000E+02
 40
3.81441841E+01
 50
1.61940290E+02
 51
1.80000000E+02
  0
ARC
  8
0
 62
4
 10
4.45855843E+02
 20
-3.59500000E+02
 40
3.81441841E+01
 50
0.00000000E+00
 51
1.80597118E+01
  0
ARC
  8
0
 62
4
 10
4.73759277E+02
 20
-3.41762497E+02
 40
1.02407503E+01
 50
3.24735605E+02
 51
3.00000027E+01
  0
ARC
  8
0
 62
4
 10
4.78240776E+02
 20
-3.41762497E+02
 40
1.02407503E+01
 50
1.49999999E+02
 51
2.15264390E+02
  0
LINE
  8
0
 62
4
 10
4.84000029E+02
 20
-3.39018499E+02
 11
4.82170694E+02
 21
-3.35849999E+02
  0
LINE
  8
0
 62
4
 10
4.68000028E+02
 20
-3.39018499E+02
 11
4.69829358E+02
 21
-3.35850006E+02
  0
LINE
  8
0
 62
4
 10
4.84000031E+02
 20
-3.39018501E+02
 11
4.84000031E+02
 21
-3.59500000E+02
  0
LINE
  8
0
 62
4
 10
4.82120811E+02
 20
-3.47675003E+02
 11
4.69879242E+02
 21
-3.47675003E+02
  0
LINE
  8
0
 62
4
 10
4.82170692E+02
 20
-3.35849998E+02
 11
4.69829361E+02
 21
-3.35849998E+02
  0
LINE
  8
0
 62
4
 10
4.68000031E+02
 20
-3.39018501E+02
 11
4.68000031E+02
 21
-3.59500000E+02
  0
LINE
  8
0
 62
7
 10
4.68000031E+02
 20
-3.46000000E+02
 11
4.51000031E+02
 21
-3.46000000E+02
  0
LINE
  8
0
 62
2
 10
4.68000031E+02
 20
-3.47082504E+02
 11
4.51000031E+02
 21
-3.47082504E+02
  0
LINE
  8
0
 62
7
 10
3.76000061E+02
 20
-2.91500000E+02
 11
3.76000061E+02
 21
-3.59500000E+02
  0
LINE
  8
0
 62
7
 10
2.88814409E+02
 20
-3.01999969E+02
 11
3.47500072E+02
 21
-3.01999969E+02
  0
LINE
  8
0
 62
7
 10
2.82463556E+02
 20
-3.12999969E+02
 11
3.47500072E+02
 21
-3.12999969E+02
  0
LINE
  8
0
 62
7
 10
3.76000061E+02
 20
-2.93000000E+02
 11
3.67000061E+02
 21
-2.93000000E+02
  0
LINE
  8
0
 62
7
 10
3.28000061E+02
 20
-2.93000000E+02
 11
2.94010544E+02
 21
-2.93000000E+02
  0
LINE
  8
0
 62
7
 10
3.62500072E+02
 20
-3.01999969E+02
 11
3.76000061E+02
 21
-3.01999969E+02
  0
LINE
  8
0
 62
7
 10
3.62500072E+02
 20
-3.12999969E+02
 11
3.76000061E+02
 21
-3.12999969E+02
  0
LINE
  8
0
  6
CENTER
 62
2
 10
-1.13000163E+02
 20
-1.07499969E+02
 11
-1.49941803E+02
 21
-1.07499969E+02
  0
ARC
  8
0
 62
4
 10
1.27000031E+02
 20
-3.59500000E+02
 40
2.05000000E+01
 50
0.00000000E+00
 51
1.80000000E+02
  0
LINE
  8
0
 62
4
 10
1.27000031E+02
 20
-3.35828639E+02
 11
1.47500031E+02
 21
-3.47664319E+02
  0
ARC
  8
0
 62
7
 10
1.27000031E+02
 20
-3.59500000E+02
 40
1.20000000E+01
 50
0.00000000E+00
 51
1.80000000E+02
  0
ARC
  8
0
 62
2
 10
1.27000031E+02
 20
-3.59500000E+02
 40
1.23999996E+01
 50
0.00000000E+00
 51
1.80000000E+02
  0
ARC
  8
0
 62
7
 10
1.27000031E+02
 20
-3.59500000E+02
 40
1.35000000E+01
 50
0.00000000E+00
 51
1.80000000E+02
  0
ARC
  8
0
 62
7
 10
1.27000031E+02
 20
-3.59500000E+02
 40
2.75000000E+01
 50
0.00000000E+00
 51
1.80000000E+02
  0
ARC
  8
0
 62
7
 10
1.27000031E+02
 20
-3.59500000E+02
 40
3.00000000E+01
 50
0.00000000E+00
 51
1.80000000E+02
  0
ARC
  8
0
 62
7
 10
1.27000031E+02
 20
-3.59500000E+02
 40
2.80000000E+01
 50
0.00000000E+00
 51
1.80000000E+02
  0
LINE
  8
0
  6
CENTER
 62
2
 10
5.25961609E+01
 20
-3.59500000E+02
 11
2.02513763E+02
 21
-3.59500000E+02
  0
LINE
  8
0
 62
7
 10
1.88999969E+02
 20
-2.91500000E+02
 11
6.50000305E+01
 21
-2.91500000E+02
  0
LINE
  8
0
 62
7
 10
1.58500946E+02
 20
-2.95599976E+02
 11
9.54992981E+01
 21
-2.95599976E+02
  0
LINE
  8
0
 62
7
 10
1.88999969E+02
 20
-2.92099976E+02
 11
6.50000305E+01
 21
-2.92099976E+02
  0
LINE
  8
0
 62
7
 10
1.28500031E+02
 20
-2.97599945E+02
 11
1.28500031E+02
 21
-3.27182220E+02
  0
LINE
  8
0
 62
7
 10
1.25500031E+02
 20
-2.97599945E+02
 11
1.25500031E+02
 21
-3.27182220E+02
  0
LINE
  8
0
 62
7
 10
8.20000305E+01
 20
-2.91499969E+02
 11
8.20000305E+01
 21
-2.92099945E+02
  0
LINE
  8
0
  6
CENTER
 62
2
 10
7.50000305E+01
 20
-2.87888367E+02
 11
7.50000305E+01
 21
-3.26319885E+02
  0
LINE
  8
0
 62
7
 10
8.78242522E+01
 20
-3.18202292E+02
 11
1.05208853E+02
 21
-3.35586897E+02
  0
LINE
  8
0
 62
7
 10
8.57029316E+01
 20
-3.20323699E+02
 11
1.03087468E+02
 21
-3.37708239E+02
  0
LINE
  8
0
 62
7
 10
9.46822205E+01
 20
-3.58000000E+02
 11
6.50999451E+01
 21
-3.58000000E+02
  0
LINE
  8
0
 62
7
 10
5.95999451E+01
 20
-2.97499969E+02
 11
5.95999451E+01
 21
-3.59500000E+02
  0
LINE
  8
0
 62
7
 10
5.90000305E+01
 20
-2.97499969E+02
 11
5.90000305E+01
 21
-3.59500000E+02
  0
LINE
  8
0
 62
7
 10
6.30999451E+01
 20
-3.27999115E+02
 11
6.30999451E+01
 21
-3.59500000E+02
  0
LINE
  8
0
  6
CENTER
 62
2
 10
1.27000031E+02
 20
-2.83881378E+02
 11
1.27000031E+02
 21
-3.59500000E+02
  0
LINE
  8
0
  6
CENTER
 62
2
 10
9.37549133E+01
 20
-3.07500000E+02
 11
5.46349792E+01
 21
-3.07500000E+02
  0
CIRCLE
  8
0
 62
2
 10
7.50000916E+01
 20
-3.07500000E+02
 40
6.00000000E+00
  0
CIRCLE
  8
0
 62
7
 10
7.50000916E+01
 20
-3.07500000E+02
 40
5.05000019E+00
  0
ARC
  8
0
 62
7
 10
1.30500031E+02
 20
-2.97599976E+02
 40
2.00000000E+00
 50
9.00000179E+01
 51
1.80000000E+02
  0
ARC
  8
0
 62
7
 10
1.30500031E+02
 20
-3.27182220E+02
 40
2.00000000E+00
 50
1.80000000E+02
 51
2.63819173E+02
  0
ARC
  8
0
 62
7
 10
1.23500031E+02
 20
-2.97599976E+02
 40
2.00000000E+00
 50
3.59721787E-05
 51
9.00000179E+01
  0
ARC
  8
0
 62
7
 10
1.23500031E+02
 20
-3.27182220E+02
 40
2.00000000E+00
 50
2.76180856E+02
 51
2.23118003E-05
  0
CIRCLE
  8
0
 62
7
 10
7.50000305E+01
 20
-3.07500000E+02
 40
1.00500011E+01
  0
ARC
  8
0
 62
7
 10
6.50000305E+01
 20
-2.97499969E+02
 40
5.40000057E+00
 50
9.00000179E+01
 51
1.80000000E+02
  0
ARC
  8
0
 62
7
 10
7.50000305E+01
 20
-3.07500000E+02
 40
1.50000000E+01
 50
2.56361122E+02
 51
1.36387216E+01
  0
ARC
  8
0
 62
7
 10
6.50000305E+01
 20
-2.97500000E+02
 40
6.00000000E+00
 50
9.00000179E+01
 51
1.80000000E+02
  0
ARC
  8
0
 62
7
 10
1.06622833E+02
 20
-3.34172943E+02
 40
2.00000000E+00
 50
2.25000001E+02
 51
3.08818761E+02
  0
ARC
  8
0
 62
7
 10
1.01673004E+02
 20
-3.39122711E+02
 40
2.00000000E+00
 50
3.21180752E+02
 51
4.49999860E+01
  0
ARC
  8
0
 62
7
 10
8.42884827E+01
 20
-3.21738129E+02
 40
2.00000000E+00
 50
4.49995625E+01
 51
1.23119428E+02
  0
ARC
  8
0
 62
7
 10
8.92381897E+01
 20
-3.16788361E+02
 40
2.00000000E+00
 50
1.46881379E+02
 51
2.24999588E+02
  0
ARC
  8
0
 62
7
 10
9.46822205E+01
 20
-3.56000000E+02
 40
2.00000000E+00
 50
2.69999982E+02
 51
3.53819189E+02
  0
ARC
  8
0
 62
7
 10
6.50999451E+01
 20
-3.56000000E+02
 40
2.00000000E+00
 50
1.80000000E+02
 51
2.69999982E+02
  0
ARC
  8
0
 62
7
 10
8.90000916E+01
 20
-2.97500031E+02
 40
4.50000048E+00
 50
2.92816571E+02
 51
3.59119225E+02
  0
ARC
  8
0
 62
7
 10
9.54992981E+01
 20
-2.97599976E+02
 40
2.00000000E+00
 50
9.00000317E+01
 51
1.79118680E+02
  0
ARC
  8
0
 62
7
 10
9.15205994E+01
 20
-3.03491425E+02
 40
2.00000000E+00
 50
1.12816210E+02
 51
1.93638734E+02
  0
ARC
  8
0
 62
7
 10
6.50000916E+01
 20
-3.21499878E+02
 40
4.50000048E+00
 50
2.70880250E+02
 51
3.37181545E+02
  0
ARC
  8
0
 62
7
 10
7.09913635E+01
 20
-3.24020660E+02
 40
2.00000000E+00
 50
7.63612916E+01
 51
1.57181137E+02
  0
ARC
  8
0
 62
7
 10
6.50999451E+01
 20
-3.27999115E+02
 40
2.00000000E+00
 50
9.08801017E+01
 51
1.80000000E+02
  0
CIRCLE
  8
0
 62
7
 10
7.50000305E+01
 20
-3.07500000E+02
 40
1.05500011E+01
  0
LINE
  8
0
 62
4
 10
1.06500031E+02
 20
-3.47664319E+02
 11
1.27000031E+02
 21
-3.35828639E+02
  0
LINE
  8
0
 62
4
 10
1.06500031E+02
 20
-3.59500000E+02
 11
1.06500031E+02
 21
-3.47664319E+02
  0
ARC
  8
0
 62
7
 10
1.88999908E+02
 20
-2.97500000E+02
 40
6.00000000E+00
 50
3.59721787E-05
 51
9.00000179E+01
  0
LINE
  8
0
  6
CENTER
 62
2
 10
1.40999908E+02
 20
-3.04199982E+02
 11
1.40999908E+02
 21
-2.87210724E+02
  0
LINE
  8
0
 62
7
 10
1.72000031E+02
 20
-2.91499969E+02
 11
1.72000031E+02
 21
-2.92099945E+02
  0
LINE
  8
0
  6
CENTER
 62
2
 10
1.78999908E+02
 20
-2.87635925E+02
 11
1.78999908E+02
 21
-3.25645416E+02
  0
LINE
  8
0
 62
7
 10
1.94399933E+02
 20
-2.97499969E+02
 11
1.94399933E+02
 21
-3.59500000E+02
  0
LINE
  8
0
 62
7
 10
1.90899994E+02
 20
-3.27999298E+02
 11
1.90899994E+02
 21
-3.59500000E+02
  0
LINE
  8
0
 62
7
 10
1.94999908E+02
 20
-2.97499969E+02
 11
1.94999908E+02
 21
-3.59500000E+02
  0
LINE
  8
0
 62
7
 10
1.68297559E+02
 20
-3.20324093E+02
 11
1.50912979E+02
 21
-3.37708677E+02
  0
LINE
  8
0
 62
7
 10
1.59317841E+02
 20
-3.58000000E+02
 11
1.88899994E+02
 21
-3.58000000E+02
  0
LINE
  8
0
 62
7
 10
1.66176173E+02
 20
-3.18202449E+02
 11
1.48791594E+02
 21
-3.35587033E+02
  0
LINE
  8
0
  6
CENTER
 62
2
 10
1.99115631E+02
 20
-3.07500000E+02
 11
1.60896881E+02
 21
-3.07500000E+02
  0
CIRCLE
  8
0
 62
2
 10
1.78999969E+02
 20
-3.07500000E+02
 40
6.00000000E+00
  0
CIRCLE
  8
0
 62
7
 10
1.78999969E+02
 20
-3.07500000E+02
 40
5.05000019E+00
  0
CIRCLE
  8
0
 62
7
 10
1.78999908E+02
 20
-3.07500000E+02
 40
1.00500011E+01
  0
ARC
  8
0
 62
7
 10
1.88999908E+02
 20
-2.97499969E+02
 40
5.40000057E+00
 50
3.59721787E-05
 51
9.00000179E+01
  0
ARC
  8
0
 62
7
 10
1.78999908E+02
 20
-3.07500000E+02
 40
1.50000000E+01
 50
1.66361265E+02
 51
2.83638907E+02
  0
ARC
  8
0
 62
7
 10
1.64761749E+02
 20
-3.16788330E+02
 40
2.00000000E+00
 50
3.15000455E+02
 51
3.31181206E+01
  0
ARC
  8
0
 62
7
 10
1.69711700E+02
 20
-3.21738251E+02
 40
2.00000000E+00
 50
5.68818514E+01
 51
1.35000412E+02
  0
ARC
  8
0
 62
7
 10
1.52327057E+02
 20
-3.39122833E+02
 40
2.00000000E+00
 50
1.34999999E+02
 51
2.18818827E+02
  0
ARC
  8
0
 62
7
 10
1.47377106E+02
 20
-3.34172913E+02
 40
2.00000000E+00
 50
2.31181626E+02
 51
3.15000014E+02
  0
ARC
  8
0
 62
7
 10
1.59317780E+02
 20
-3.56000000E+02
 40
2.00000000E+00
 50
1.86180825E+02
 51
2.69999982E+02
  0
ARC
  8
0
 62
7
 10
1.88899994E+02
 20
-3.56000000E+02
 40
2.00000000E+00
 50
2.69999972E+02
 51
2.23118003E-05
  0
ARC
  8
0
 62
7
 10
1.65000092E+02
 20
-2.97500122E+02
 40
4.50000048E+00
 50
1.80880257E+02
 51
2.47181550E+02
  0
ARC
  8
0
 62
7
 10
1.62479340E+02
 20
-3.03491425E+02
 40
2.00000000E+00
 50
3.46361296E+02
 51
6.71811412E+01
  0
ARC
  8
0
 62
7
 10
1.58500885E+02
 20
-2.97599976E+02
 40
2.00000000E+00
 50
8.80105847E-01
 51
9.00000179E+01
  0
ARC
  8
0
 62
7
 10
1.88999908E+02
 20
-3.21500061E+02
 40
4.50000048E+00
 50
2.02816578E+02
 51
2.69119222E+02
  0
ARC
  8
0
 62
7
 10
1.88899994E+02
 20
-3.27999298E+02
 40
2.00000000E+00
 50
3.59721787E-05
 51
8.91186845E+01
  0
ARC
  8
0
 62
7
 10
1.83008575E+02
 20
-3.24020630E+02
 40
2.00000000E+00
 50
2.28162146E+01
 51
1.03638738E+02
  0
CIRCLE
  8
0
 62
7
 10
1.78999908E+02
 20
-3.07500000E+02
 40
1.05500011E+01
  0
LINE
  8
0
 62
4
 10
1.47500031E+02
 20
-3.59500000E+02
 11
1.47500031E+02
 21
-3.47664319E+02
  0
LINE
  8
0
 62
2
 10
-7.02105858E+01
 20
-3.72154900E+02
 11
-1.82661574E+01
 21
-2.82184511E+02
  0
LINE
  8
0
 62
2
 10
2.52858629E+02
 20
-3.64277208E+02
 11
3.00893656E+02
 21
-2.81078100E+02
  0
TEXT
  8
0
 10
-1.06214687E+02
 20
3.78182384E+02
 40
9.00000000E+00
  1
STRETCH LINE A
 41
1.09375000E+00
  7
MONOTXT
  0
LINE
  8
0
 62
7
 10
5.69500000E+02
 20
4.00500000E+02
 11
5.69500000E+02
 21
-4.00500000E+02
  0
LINE
  8
0
 62
7
 10
-5.69500000E+02
 20
4.00500000E+02
 11
5.69500000E+02
 21
4.00500000E+02
  0
LINE
  8
0
 62
7
 10
-5.69500000E+02
 20
-4.00500000E+02
 11
5.69500000E+02
 21
-4.00500000E+02
  0
LINE
  8
0
 62
7
 10
-5.69500000E+02
 20
4.00500000E+02
 11
-5.69500000E+02
 21
-4.00500000E+02
  0
LINE
  8
0
 62
7
 10
-5.69500000E+02
 20
3.70500000E+02
 11
-3.39500000E+02
 21
3.70500000E+02
  0
LINE
  8
0
 62
7
 10
3.39500000E+02
 20
3.70500000E+02
 11
5.69500000E+02
 21
3.70500000E+02
  0
LINE
  8
0
 62
7
 10
3.39500000E+02
 20
-3.70500000E+02
 11
5.69500000E+02
 21
-3.70500000E+02
  0
LINE
  8
0
 62
7
 10
3.39500000E+02
 20
-3.70500000E+02
 11
3.39500000E+02
 21
-4.00500000E+02
  0
LINE
  8
0
 62
7
 10
3.39500000E+02
 20
4.00500000E+02
 11
3.39500000E+02
 21
3.70500000E+02
  0
LINE
  8
0
 62
7
 10
-3.39500000E+02
 20
4.00500000E+02
 11
-3.39500000E+02
 21
3.70500000E+02
  0
TEXT
  8
0
 62
7
 10
-5.42179687E+02
 20
3.34250000E+02
 40
1.25000000E+01
  1
MODEL:DDAD125*75
 41
1.00000015E+00
  7
MONOTXT
  0
TEXT
  8
0
 62
7
 10
4.06285149E+02
 20
3.79250000E+02
 40
1.25000000E+01
  1
Ver. 1.0
 41
1.08108125E+00
  7
MONOTXT
  0
TEXT
  8
0
 62
7
 10
3.45070624E+02
 20
-3.94500000E+02
 40
1.80000000E+01
  1
KOGANEI CORP.
 41
1.04838710E+00
  7
MONOTXT
  0
TEXT
  8
0
 62
7
 10
-5.58964859E+02
 20
3.79250000E+02
 40
1.25000000E+01
  1
NEW DYNA CYLINDER
 41
1.07594953E+00
  7
MONOTXT
  0
ENDSEC
  0
EOF
