  0
SECTION
  2
HEADER
  9
$ACADVER
  1
AC1003
  9
$EXTMIN
 10
-3.99250000E+02
 20
-2.76750000E+02
  9
$EXTMAX
 10
3.99799805E+02
 20
4.48270058E+02
  9
$LIMMIN
 10
-3.99251000E+02
 20
-2.76751000E+02
  9
$LIMMAX
 10
3.99800805E+02
 20
4.48271058E+02
  9
$SNAPUNIT
 10
1
 20
1
  9
$SNAPBASE
 10
0
 20
0
  9
$GRIDMODE
 70
0
  9
$GRIDUNIT
 10
0
 20
0
  9
$LTSCALE
 40
1.33174967E+01
  9
$TEXTSIZE
 40
3.2
  9
$DIMTAD
 70
0
  9
$LUNITS
 70
2
  9
$LUPREC
 70
4
  9
$FILLETRAD
 40
0
  9
$AUNITS
 70
0
  9
$AUPREC
 70
0
  0
ENDSEC
  0
SECTION
  2
TABLES
  0
TABLE
  2
LTYPE
 70
2
  0
LTYPE
  2
CONTINUOUS
 70
64
  3
Solid-Line
 72
65
 73
0
 40
0
  0
LTYPE
  2
DASHED
 70
64
  3
DASHED
 72
65
 73
2
 40
.75
 49
.5
 49
-.25
  0
LTYPE
  2
HIDDEN
 70
64
  3
HIDDEN
 72
65
 73
2
 40
.375
 49
.25
 49
-.125
  0
LTYPE
  2
CENTER
 70
64
  3
CENTER
 72
65
 73
4
 40
2
 49
1.25
 49
-.25
 49
.25
 49
-.25
  0
LTYPE
  2
PHANTOM
 70
64
  3
PHANTOM
 72
65
 73
6
 40
2.5
 49
1.25
 49
-.25
 49
.25
 49
-.25
 49
.25
 49
-.25
  0
ENDTAB
  0
TABLE
  2
LAYER
 70
1
  0
LAYER
  2
1
 70
0
 62
7
  6
CONTINUOUS
 0
ENDTAB
  0
TABLE
  2
STYLE
 70
2
  0
STYLE
  2
MONOTXT
 70
0
 40
0
 41
1
 50
0
 71
0
 42
.2
  3
monotxt
  0
STYLE
  2
BIGFONT
 70
0
 40
0
 41
1
 50
0
 71
0
 42
.2
  3
txt
  4
bigfont
  0
ENDTAB
  0
ENDSEC
  0
SECTION
  2
ENTITIES
  0
LINE
  8
0
  6
PHANTOM
 10
-9.25000000E+00
 20
1.48024389E+02
 11
-9.25000000E+00
 21
4.71367846E+01
  0
LINE
  8
0
  6
PHANTOM
 10
1.13249985E+02
 20
1.46182471E+02
 11
1.13249985E+02
 21
4.71367846E+01
  0
LINE
  8
0
 62
7
 10
-1.42749985E+02
 20
9.23692816E+01
 11
-1.42749985E+02
 21
8.43694799E+01
  0
LINE
  8
0
 62
7
 10
-9.07499847E+01
 20
6.63694799E+01
 11
-6.47499847E+01
 21
6.63694799E+01
  0
LINE
  8
0
 62
7
 10
-9.52630682E+01
 20
6.71423457E+01
 11
-9.07499973E+01
 21
6.70241668E+01
  0
LINE
  8
0
 62
7
 10
-6.47499847E+01
 20
1.10395588E+02
 11
-6.47499847E+01
 21
6.63433340E+01
  0
LINE
  8
0
  6
CENTER
 62
2
 10
-9.79770050E+01
 20
7.18694647E+01
 11
7.43534241E+01
 21
7.18694647E+01
  0
LINE
  8
0
 62
7
 10
-6.47499847E+01
 20
7.45194586E+01
 11
4.12499847E+01
 21
7.45194586E+01
  0
LINE
  8
0
 62
7
 10
-6.47499847E+01
 20
6.92194708E+01
 11
4.12499847E+01
 21
6.92194708E+01
  0
LINE
  8
0
 62
7
 10
-9.52499847E+01
 20
7.63694799E+01
 11
-7.37499847E+01
 21
7.63694799E+01
  0
LINE
  8
0
 62
7
 10
-9.57499322E+01
 20
7.70123222E+01
 11
-7.37499871E+01
 21
7.66283118E+01
  0
LINE
  8
0
  6
CENTER
 62
2
 10
-1.45115707E+02
 20
8.83694647E+01
 11
1.76370165E+02
 21
8.83694647E+01
  0
LINE
  8
0
 62
7
 10
-1.41749985E+02
 20
9.33694799E+01
 11
-1.36249985E+02
 21
9.33694799E+01
  0
LINE
  8
0
 62
7
 10
-1.17749985E+02
 20
9.16860998E+01
 11
-1.17749985E+02
 21
9.43694647E+01
  0
LINE
  8
0
 62
7
 10
-1.42749831E+02
 20
9.23694214E+01
 11
-1.41749884E+02
 21
9.33693908E+01
  0
LINE
  8
0
 62
2
 10
-1.42449966E+02
 20
9.26694677E+01
 11
-1.36249985E+02
 21
9.26694677E+01
  0
LINE
  8
0
 62
7
 10
-1.17749985E+02
 20
9.16860998E+01
 11
-1.13749985E+02
 21
9.16860998E+01
  0
LINE
  8
0
 62
7
 10
-1.13749985E+02
 20
8.50528753E+01
 11
-1.13749985E+02
 21
9.16860998E+01
  0
LINE
  8
0
 62
7
 10
-1.17749985E+02
 20
8.23694647E+01
 11
-1.10749985E+02
 21
8.23694647E+01
  0
LINE
  8
0
 62
7
 10
-1.20749985E+02
 20
9.33694799E+01
 11
-1.20749985E+02
 21
8.33694952E+01
  0
LINE
  8
0
 62
7
 10
-1.41749985E+02
 20
8.33694952E+01
 11
-1.36249985E+02
 21
8.33694952E+01
  0
LINE
  8
0
 62
7
 10
-1.17749985E+02
 20
8.50528753E+01
 11
-1.17749985E+02
 21
8.23694647E+01
  0
LINE
  8
0
 62
7
 10
-1.41749985E+02
 20
9.33694799E+01
 11
-1.41749985E+02
 21
8.33694952E+01
  0
LINE
  8
0
 62
7
 10
-1.42749995E+02
 20
8.43695443E+01
 11
-1.41750049E+02
 21
8.33695749E+01
  0
LINE
  8
0
 62
2
 10
-1.42449936E+02
 20
8.40694616E+01
 11
-1.36249985E+02
 21
8.40694616E+01
  0
LINE
  8
0
 62
7
 10
-1.17749985E+02
 20
8.50528753E+01
 11
-1.13749985E+02
 21
8.50528753E+01
  0
LINE
  8
0
 62
2
 10
-1.19134498E+02
 20
8.65834939E+01
 11
-1.13749878E+02
 21
9.16859731E+01
  0
LINE
  8
0
 62
2
 10
-1.13749955E+02
 20
8.50528598E+01
 11
-1.19134598E+02
 21
9.01553600E+01
  0
LINE
  8
0
 62
7
 10
-9.52499847E+01
 20
6.73694952E+01
 11
-7.37499847E+01
 21
6.73694952E+01
  0
LINE
  8
0
 62
7
 10
-7.37499847E+01
 20
7.66282995E+01
 11
-7.37499847E+01
 21
6.65789984E+01
  0
LINE
  8
0
 62
7
 10
-9.07499847E+01
 20
6.70241583E+01
 11
-9.07499847E+01
 21
6.63694799E+01
  0
LINE
  8
0
 62
7
 10
-1.10749985E+02
 20
9.98694494E+01
 11
-1.10749985E+02
 21
7.68694799E+01
  0
LINE
  8
0
 62
7
 10
-1.10249985E+02
 20
7.63694647E+01
 11
-1.05749985E+02
 21
7.63694647E+01
  0
LINE
  8
0
 62
7
 10
-9.72499847E+01
 20
7.53694799E+01
 11
-9.57499847E+01
 21
7.53694799E+01
  0
LINE
  8
0
 62
7
 10
-1.05749985E+02
 20
1.00369465E+02
 11
-1.05749985E+02
 21
7.63608892E+01
  0
LINE
  8
0
  6
CENTER
 62
2
 10
-7.97499847E+01
 20
1.12699512E+02
 11
-7.97499847E+01
 21
1.02972629E+02
  0
LINE
  8
0
 62
7
 10
-9.77499847E+01
 20
7.58694799E+01
 11
-9.77499847E+01
 21
1.00898823E+02
  0
LINE
  8
0
 62
7
 10
-1.05508708E+02
 20
7.61110685E+01
 11
-9.77499785E+01
 21
7.58401277E+01
  0
LINE
  8
0
 62
7
 10
-7.37499958E+01
 20
6.65790061E+01
 11
-6.47500291E+01
 21
6.63433337E+01
  0
LINE
  8
0
 62
7
 10
6.72499847E+01
 20
6.63694799E+01
 11
4.12499847E+01
 21
6.63694799E+01
  0
LINE
  8
0
 62
7
 10
7.17631010E+01
 20
6.71423649E+01
 11
6.72499996E+01
 21
6.70241852E+01
  0
LINE
  8
0
 62
7
 10
7.17499847E+01
 20
7.63694799E+01
 11
5.02499847E+01
 21
7.63694799E+01
  0
LINE
  8
0
 62
7
 10
7.22499847E+01
 20
6.76421698E+01
 11
7.22499847E+01
 21
1.09096760E+02
  0
LINE
  8
0
 62
7
 10
7.22499578E+01
 20
7.70123237E+01
 11
5.02499823E+01
 21
7.66283127E+01
  0
LINE
  8
0
 62
7
 10
7.17499847E+01
 20
6.73694952E+01
 11
5.02499847E+01
 21
6.73694952E+01
  0
LINE
  8
0
 62
7
 10
6.72499847E+01
 20
6.70241583E+01
 11
6.72499847E+01
 21
6.63694799E+01
  0
LINE
  8
0
 62
7
 10
7.37499847E+01
 20
7.53694799E+01
 11
7.22499847E+01
 21
7.53694799E+01
  0
LINE
  8
0
 62
7
 10
7.42499847E+01
 20
7.58694799E+01
 11
7.42499847E+01
 21
1.00869449E+02
  0
LINE
  8
0
 62
7
 10
4.12499847E+01
 20
1.10369449E+02
 11
4.12499847E+01
 21
6.63433493E+01
  0
LINE
  8
0
 62
7
 10
5.02500133E+01
 20
6.65790249E+01
 11
4.12500466E+01
 21
6.63433525E+01
  0
LINE
  8
0
 62
7
 10
5.02499847E+01
 20
7.66283071E+01
 11
5.02499847E+01
 21
6.65789984E+01
  0
LINE
  8
0
 62
7
 10
7.37499847E+01
 20
1.01369449E+02
 11
7.22499847E+01
 21
1.01369449E+02
  0
LINE
  8
0
 62
7
 10
5.02500088E+01
 20
1.10159909E+02
 11
4.12500421E+01
 21
1.10395581E+02
  0
LINE
  8
0
 62
7
 10
5.02499847E+01
 20
1.00110615E+02
 11
5.02499847E+01
 21
1.10159931E+02
  0
LINE
  8
0
 62
7
 10
6.72499847E+01
 20
1.09714771E+02
 11
6.72499847E+01
 21
1.10369449E+02
  0
LINE
  8
0
 62
7
 10
-9.07499847E+01
 20
1.10369449E+02
 11
-6.47499847E+01
 21
1.10369449E+02
  0
LINE
  8
0
 62
7
 10
-9.52630635E+01
 20
1.09596580E+02
 11
-9.07499773E+01
 21
1.09714759E+02
  0
LINE
  8
0
  6
CENTER
 62
2
 10
-9.79770050E+01
 20
1.04869465E+02
 11
7.43534241E+01
 21
1.04869465E+02
  0
LINE
  8
0
 62
7
 10
-6.47499847E+01
 20
1.02219471E+02
 11
5.24998474E+00
 21
1.02219471E+02
  0
LINE
  8
0
 62
7
 10
-6.47499847E+01
 20
1.07519459E+02
 11
5.24998474E+00
 21
1.07519459E+02
  0
LINE
  8
0
 62
7
 10
-9.52499847E+01
 20
1.00369449E+02
 11
-7.37499847E+01
 21
1.00369449E+02
  0
LINE
  8
0
 62
7
 10
-9.57499847E+01
 20
6.76421698E+01
 11
-9.57499847E+01
 21
1.09096760E+02
  0
LINE
  8
0
 62
7
 10
-9.57499309E+01
 20
9.97266192E+01
 11
-7.37499859E+01
 21
1.00110630E+02
  0
LINE
  8
0
 62
7
 10
-1.17749985E+02
 20
9.43694647E+01
 11
-1.10749985E+02
 21
9.43694647E+01
  0
LINE
  8
0
 62
7
 10
-9.52499847E+01
 20
1.09369434E+02
 11
-7.37499847E+01
 21
1.09369434E+02
  0
LINE
  8
0
 62
7
 10
-7.37499847E+01
 20
1.00110630E+02
 11
-7.37499847E+01
 21
1.10159931E+02
  0
LINE
  8
0
 62
7
 10
-9.07499847E+01
 20
1.09714771E+02
 11
-9.07499847E+01
 21
1.10369449E+02
  0
LINE
  8
0
 62
7
 10
-1.10249985E+02
 20
1.00369465E+02
 11
-1.05749985E+02
 21
1.00369465E+02
  0
LINE
  8
0
 62
7
 10
-9.72499847E+01
 20
1.01369449E+02
 11
-9.57499847E+01
 21
1.01369449E+02
  0
LINE
  8
0
 62
7
 10
-1.05508715E+02
 20
1.00627884E+02
 11
-9.77499860E+01
 21
1.00898825E+02
  0
LINE
  8
0
 62
7
 10
-7.37499758E+01
 20
1.10159920E+02
 11
-6.47500243E+01
 21
1.10395592E+02
  0
LINE
  8
0
 62
7
 10
6.72499847E+01
 20
1.10369449E+02
 11
4.12499847E+01
 21
1.10369449E+02
  0
LINE
  8
0
 62
7
 10
7.17630965E+01
 20
1.09596569E+02
 11
6.72499951E+01
 21
1.09714748E+02
  0
LINE
  8
0
 62
7
 10
7.17499847E+01
 20
1.00369449E+02
 11
5.02499847E+01
 21
1.00369449E+02
  0
LINE
  8
0
 62
7
 10
7.22499564E+01
 20
9.97266102E+01
 11
5.02499809E+01
 21
1.00110621E+02
  0
LINE
  8
0
 62
7
 10
7.17499847E+01
 20
1.09369434E+02
 11
5.02499847E+01
 21
1.09369434E+02
  0
LINE
  8
0
 62
7
 10
-1.23749985E+02
 20
9.33694799E+01
 11
-1.23749985E+02
 21
8.33694952E+01
  0
LINE
  8
0
 62
7
 10
-1.20749979E+02
 20
9.33694646E+01
 11
-1.17749975E+02
 21
9.43694508E+01
  0
LINE
  8
0
 62
7
 10
-1.20749984E+02
 20
8.83694665E+01
 11
-1.17749983E+02
 21
9.16861028E+01
  0
LINE
  8
0
 62
7
 10
-1.17749983E+02
 20
8.50528721E+01
 11
-1.20749982E+02
 21
8.83694595E+01
  0
LINE
  8
0
 62
7
 10
-1.20749979E+02
 20
8.33694955E+01
 11
-1.17749975E+02
 21
8.23694633E+01
  0
LINE
  8
0
 62
7
 10
-1.23749985E+02
 20
9.26694677E+01
 11
-1.20749985E+02
 21
9.26694677E+01
  0
LINE
  8
0
 62
7
 10
-1.23749985E+02
 20
8.40694616E+01
 11
-1.20749985E+02
 21
8.40694616E+01
  0
LINE
  8
0
 62
7
 10
1.50249985E+02
 20
9.26694677E+01
 11
1.47249985E+02
 21
9.26694677E+01
  0
LINE
  8
0
 62
7
 10
1.44249985E+02
 20
9.43694647E+01
 11
8.72499847E+01
 21
9.43694647E+01
  0
LINE
  8
0
 62
7
 10
8.67499847E+01
 20
1.00369465E+02
 11
8.22499847E+01
 21
1.00369465E+02
  0
LINE
  8
0
 62
7
 10
8.20087104E+01
 20
1.00627888E+02
 11
7.42499813E+01
 21
1.00898829E+02
  0
LINE
  8
0
 62
7
 10
1.68249985E+02
 20
9.33694799E+01
 11
1.62749985E+02
 21
9.33694799E+01
  0
LINE
  8
0
 62
7
 10
1.44249985E+02
 20
9.16860998E+01
 11
1.44249985E+02
 21
9.43694647E+01
  0
LINE
  8
0
 62
7
 10
1.69249835E+02
 20
9.23694186E+01
 11
1.68249888E+02
 21
9.33693880E+01
  0
LINE
  8
0
 62
2
 10
1.68949966E+02
 20
9.26694677E+01
 11
1.62749985E+02
 21
9.26694677E+01
  0
LINE
  8
0
 62
7
 10
1.44249985E+02
 20
9.16860998E+01
 11
1.40249985E+02
 21
9.16860998E+01
  0
LINE
  8
0
 62
7
 10
1.40249985E+02
 20
8.50528753E+01
 11
1.40249985E+02
 21
9.16860998E+01
  0
LINE
  8
0
 62
7
 10
1.44249985E+02
 20
8.23694647E+01
 11
8.72499847E+01
 21
8.23694647E+01
  0
LINE
  8
0
 62
7
 10
1.47249985E+02
 20
9.33694799E+01
 11
1.47249985E+02
 21
8.33694952E+01
  0
LINE
  8
0
 62
7
 10
1.69249985E+02
 20
9.23692816E+01
 11
1.69249985E+02
 21
8.43694799E+01
  0
LINE
  8
0
 62
7
 10
1.68249985E+02
 20
8.33694952E+01
 11
1.62749985E+02
 21
8.33694952E+01
  0
LINE
  8
0
 62
7
 10
1.44249985E+02
 20
8.50528753E+01
 11
1.44249985E+02
 21
8.23694647E+01
  0
LINE
  8
0
 62
7
 10
1.68249985E+02
 20
9.33694799E+01
 11
1.68249985E+02
 21
8.33694952E+01
  0
LINE
  8
0
 62
7
 10
1.69249999E+02
 20
8.43695471E+01
 11
1.68250053E+02
 21
8.33695777E+01
  0
LINE
  8
0
 62
2
 10
1.68949936E+02
 20
8.40694616E+01
 11
1.62749985E+02
 21
8.40694616E+01
  0
LINE
  8
0
 62
7
 10
1.44249985E+02
 20
8.50528753E+01
 11
1.40249985E+02
 21
8.50528753E+01
  0
LINE
  8
0
 62
2
 10
1.45634502E+02
 20
8.65834920E+01
 11
1.40249882E+02
 21
9.16859712E+01
  0
LINE
  8
0
 62
2
 10
1.40249960E+02
 20
8.50528617E+01
 11
1.45634602E+02
 21
9.01553619E+01
  0
LINE
  8
0
 62
7
 10
1.50249985E+02
 20
8.40694616E+01
 11
1.47249985E+02
 21
8.40694616E+01
  0
LINE
  8
0
 62
7
 10
8.72499847E+01
 20
9.98694494E+01
 11
8.72499847E+01
 21
7.68694799E+01
  0
LINE
  8
0
 62
7
 10
8.67499847E+01
 20
7.63694647E+01
 11
8.22499847E+01
 21
7.63694647E+01
  0
LINE
  8
0
 62
7
 10
8.22499847E+01
 20
1.00369465E+02
 11
8.22499847E+01
 21
7.63608892E+01
  0
LINE
  8
0
 62
7
 10
8.20087026E+01
 20
7.61110718E+01
 11
7.42499735E+01
 21
7.58401310E+01
  0
LINE
  8
0
 62
7
 10
1.50249985E+02
 20
9.33694799E+01
 11
1.50249985E+02
 21
8.33694952E+01
  0
LINE
  8
0
 62
7
 10
1.47249976E+02
 20
9.33694668E+01
 11
1.44249972E+02
 21
9.43694529E+01
  0
LINE
  8
0
 62
7
 10
1.47249986E+02
 20
8.83694676E+01
 11
1.44249985E+02
 21
9.16861039E+01
  0
LINE
  8
0
 62
7
 10
1.44249972E+02
 20
8.50528727E+01
 11
1.47249970E+02
 21
8.83694601E+01
  0
LINE
  8
0
 62
7
 10
1.47249980E+02
 20
8.33694931E+01
 11
1.44249975E+02
 21
8.23694609E+01
  0
ARC
  8
0
 62
7
 10
-9.52499847E+01
 20
7.58695104E+01
 40
5.00000000E-01
 50
8.99999818E+01
 51
1.79999964E+02
  0
ARC
  8
0
 62
7
 10
-9.52499847E+01
 20
6.78694647E+01
 40
5.00000000E-01
 50
1.79999981E+02
 51
2.70000018E+02
  0
ARC
  8
0
 62
7
 10
-1.10249985E+02
 20
7.68694799E+01
 40
5.00000000E-01
 50
1.79999981E+02
 51
2.69999963E+02
  0
ARC
  8
0
 62
7
 10
-1.05499985E+02
 20
7.63608892E+01
 40
2.50000000E-01
 50
1.79999981E+02
 51
2.67999203E+02
  0
ARC
  8
0
 62
7
 10
-9.72499847E+01
 20
7.58694799E+01
 40
5.00000000E-01
 50
1.79999981E+02
 51
2.69999963E+02
  0
ARC
  8
0
 62
7
 10
-9.52499847E+01
 20
6.76421698E+01
 40
5.00000000E-01
 50
1.79999981E+02
 51
2.68499583E+02
  0
ARC
  8
0
 62
7
 10
7.37499847E+01
 20
7.58694799E+01
 40
5.00000000E-01
 50
2.70000073E+02
 51
5.46415133E-05
  0
ARC
  8
0
 62
7
 10
7.17499847E+01
 20
6.76421698E+01
 40
5.00000000E-01
 50
2.71500453E+02
 51
5.46415133E-05
  0
ARC
  8
0
 62
7
 10
7.17499847E+01
 20
7.58695104E+01
 40
5.00000000E-01
 50
5.46415133E-05
 51
9.00000369E+01
  0
ARC
  8
0
 62
7
 10
7.17499847E+01
 20
6.78694647E+01
 40
5.00000000E-01
 50
2.70000018E+02
 51
5.46415133E-05
  0
ARC
  8
0
 62
7
 10
7.37499847E+01
 20
1.00869449E+02
 40
5.00000000E-01
 50
3.59999891E+02
 51
8.99998730E+01
  0
ARC
  8
0
 62
7
 10
7.17499847E+01
 20
1.09096760E+02
 40
5.00000000E-01
 50
3.59999891E+02
 51
8.84994919E+01
  0
ARC
  8
0
 62
7
 10
-9.52499847E+01
 20
1.09096760E+02
 40
5.00000000E-01
 50
9.15003561E+01
 51
1.79999964E+02
  0
ARC
  8
0
 62
7
 10
-1.10249985E+02
 20
9.98694494E+01
 40
5.00000000E-01
 50
8.99999818E+01
 51
1.79999964E+02
  0
ARC
  8
0
 62
7
 10
-1.05499985E+02
 20
1.00378040E+02
 40
2.50000000E-01
 50
9.20007356E+01
 51
1.79999964E+02
  0
ARC
  8
0
 62
7
 10
-9.72499847E+01
 20
1.00869449E+02
 40
5.00000000E-01
 50
8.99999818E+01
 51
1.79999964E+02
  0
ARC
  8
0
 62
7
 10
7.17499847E+01
 20
1.08869465E+02
 40
5.00000000E-01
 50
3.59999891E+02
 51
8.99999274E+01
  0
ARC
  8
0
 62
7
 10
-9.52499847E+01
 20
1.00869419E+02
 40
5.00000000E-01
 50
1.79999981E+02
 51
2.69999963E+02
  0
ARC
  8
0
 62
7
 10
-9.52499847E+01
 20
1.08869465E+02
 40
5.00000000E-01
 50
8.99999274E+01
 51
1.79999964E+02
  0
ARC
  8
0
 62
7
 10
7.17499847E+01
 20
1.00869419E+02
 40
5.00000000E-01
 50
2.69999909E+02
 51
3.59999891E+02
  0
ARC
  8
0
 62
7
 10
8.19999847E+01
 20
1.00378040E+02
 40
2.50000000E-01
 50
3.59721781E-05
 51
8.79992625E+01
  0
ARC
  8
0
 62
7
 10
8.67499847E+01
 20
9.98694494E+01
 40
5.00000000E-01
 50
3.59721781E-05
 51
9.00000162E+01
  0
ARC
  8
0
 62
7
 10
1.45249985E+02
 20
8.83694647E+01
 40
6.00000000E+00
 50
1.46442616E+02
 51
1.80000059E+02
  0
ARC
  8
0
 62
7
 10
1.45249985E+02
 20
8.83694647E+01
 40
6.00000000E+00
 50
1.79999995E+02
 51
2.13557438E+02
  0
ARC
  8
0
 62
7
 10
8.67499847E+01
 20
7.68694799E+01
 40
5.00000000E-01
 50
2.70000038E+02
 51
1.86693353E-05
  0
ARC
  8
0
 62
7
 10
8.19999847E+01
 20
7.63608892E+01
 40
2.50000000E-01
 50
2.72000799E+02
 51
1.86693353E-05
  0
LINE
  8
0
  6
CENTER
 62
2
 10
5.62499556E+01
 20
1.02972629E+02
 11
5.62499556E+01
 21
1.12699512E+02
  0
LINE
  8
0
 62
4
 10
1.57509174E+02
 20
9.81844192E+01
 11
1.61990795E+02
 21
9.81844192E+01
  0
LINE
  8
0
 62
4
 10
1.57509174E+02
 20
9.32769420E+01
 11
1.61990795E+02
 21
9.32769420E+01
  0
LINE
  8
0
 62
4
 10
1.56749985E+02
 20
7.98694647E+01
 11
1.56749985E+02
 21
9.68694646E+01
  0
LINE
  8
0
 62
4
 10
1.57509174E+02
 20
7.85545101E+01
 11
1.61990795E+02
 21
7.85545101E+01
  0
LINE
  8
0
 62
4
 10
1.57509174E+02
 20
8.34619874E+01
 11
1.61990795E+02
 21
8.34619874E+01
  0
LINE
  8
0
 62
4
 10
1.56749985E+02
 20
9.68694647E+01
 11
1.57509174E+02
 21
9.81844192E+01
  0
ARC
  8
0
 62
4
 10
1.61094883E+02
 20
9.57306806E+01
 40
4.34489857E+00
 50
1.45615752E+02
 51
2.14384248E+02
  0
ARC
  8
0
 62
4
 10
1.72990795E+02
 20
8.83694646E+01
 40
1.62408104E+01
 50
1.62412046E+02
 51
1.97587954E+02
  0
ARC
  8
0
 62
4
 10
1.61094883E+02
 20
8.10082487E+01
 40
4.34489857E+00
 50
1.45615752E+02
 51
2.14384248E+02
  0
LINE
  8
0
 62
4
 10
1.56749985E+02
 20
7.98694646E+01
 11
1.57509174E+02
 21
7.85545102E+01
  0
LINE
  8
0
 62
4
 10
1.62749985E+02
 20
7.98694647E+01
 11
1.62749985E+02
 21
9.68694646E+01
  0
LINE
  8
0
 62
4
 10
1.62749985E+02
 20
9.68694647E+01
 11
1.61990795E+02
 21
9.81844192E+01
  0
ARC
  8
0
 62
4
 10
1.58405086E+02
 20
9.57306806E+01
 40
4.34489857E+00
 50
3.25615751E+02
 51
3.43842484E+01
  0
ARC
  8
0
 62
4
 10
1.46509174E+02
 20
8.83694646E+01
 40
1.62408104E+01
 50
3.42412046E+02
 51
1.75879541E+01
  0
ARC
  8
0
 62
4
 10
1.58405086E+02
 20
8.10082487E+01
 40
4.34489857E+00
 50
3.25615751E+02
 51
3.43842484E+01
  0
LINE
  8
0
 62
4
 10
1.62749985E+02
 20
7.98694646E+01
 11
1.61990795E+02
 21
7.85545102E+01
  0
LINE
  8
0
 62
4
 10
-1.35490795E+02
 20
9.81844192E+01
 11
-1.31009174E+02
 21
9.81844192E+01
  0
LINE
  8
0
 62
4
 10
-1.35490795E+02
 20
9.32769420E+01
 11
-1.31009174E+02
 21
9.32769420E+01
  0
LINE
  8
0
 62
4
 10
-1.36249985E+02
 20
7.98694647E+01
 11
-1.36249985E+02
 21
9.68694646E+01
  0
LINE
  8
0
 62
4
 10
-1.35490795E+02
 20
7.85545101E+01
 11
-1.31009174E+02
 21
7.85545101E+01
  0
LINE
  8
0
 62
4
 10
-1.35490795E+02
 20
8.34619874E+01
 11
-1.31009174E+02
 21
8.34619874E+01
  0
LINE
  8
0
 62
4
 10
-1.36249985E+02
 20
9.68694647E+01
 11
-1.35490795E+02
 21
9.81844192E+01
  0
ARC
  8
0
 62
4
 10
-1.31905086E+02
 20
9.57306806E+01
 40
4.34489857E+00
 50
1.45615752E+02
 51
2.14384248E+02
  0
ARC
  8
0
 62
4
 10
-1.20009174E+02
 20
8.83694646E+01
 40
1.62408104E+01
 50
1.62412046E+02
 51
1.97587954E+02
  0
ARC
  8
0
 62
4
 10
-1.31905086E+02
 20
8.10082487E+01
 40
4.34489857E+00
 50
1.45615752E+02
 51
2.14384248E+02
  0
LINE
  8
0
 62
4
 10
-1.36249985E+02
 20
7.98694646E+01
 11
-1.35490795E+02
 21
7.85545102E+01
  0
LINE
  8
0
 62
4
 10
-1.30249985E+02
 20
7.98694647E+01
 11
-1.30249985E+02
 21
9.68694646E+01
  0
LINE
  8
0
 62
4
 10
-1.30249985E+02
 20
9.68694647E+01
 11
-1.31009174E+02
 21
9.81844192E+01
  0
ARC
  8
0
 62
4
 10
-1.34594883E+02
 20
9.57306806E+01
 40
4.34489857E+00
 50
3.25615751E+02
 51
3.43842484E+01
  0
ARC
  8
0
 62
4
 10
-1.46490795E+02
 20
8.83694646E+01
 40
1.62408104E+01
 50
3.42412046E+02
 51
1.75879541E+01
  0
ARC
  8
0
 62
4
 10
-1.34594883E+02
 20
8.10082487E+01
 40
4.34489857E+00
 50
3.25615751E+02
 51
3.43842484E+01
  0
LINE
  8
0
 62
4
 10
-1.30249985E+02
 20
7.98694646E+01
 11
-1.31009174E+02
 21
7.85545102E+01
  0
LINE
  8
0
 62
7
 10
1.56749985E+02
 20
9.33694799E+01
 11
1.50249985E+02
 21
9.33694799E+01
  0
LINE
  8
0
 62
2
 10
1.56749985E+02
 20
9.26694677E+01
 11
1.50249985E+02
 21
9.26694677E+01
  0
LINE
  8
0
 62
2
 10
1.56749985E+02
 20
8.40694616E+01
 11
1.50249985E+02
 21
8.40694616E+01
  0
LINE
  8
0
 62
7
 10
1.56749985E+02
 20
8.33694952E+01
 11
1.50249985E+02
 21
8.33694952E+01
  0
LINE
  8
0
 62
7
 10
-1.30249985E+02
 20
9.33694799E+01
 11
-1.23749985E+02
 21
9.33694799E+01
  0
LINE
  8
0
 62
2
 10
-1.30249985E+02
 20
9.26694677E+01
 11
-1.23749985E+02
 21
9.26694677E+01
  0
LINE
  8
0
 62
7
 10
-1.30249985E+02
 20
8.33694952E+01
 11
-1.23749985E+02
 21
8.33694952E+01
  0
LINE
  8
0
 62
2
 10
-1.30249985E+02
 20
8.40694616E+01
 11
-1.23749985E+02
 21
8.40694616E+01
  0
ARC
  8
0
 62
7
 10
-1.18749985E+02
 20
8.83694647E+01
 40
6.00000000E+00
 50
3.26442567E+02
 51
3.35573785E+01
  0
LINE
  8
0
  6
CENTER
 62
6
 10
-6.75001526E+00
 20
1.09400674E+02
 11
4.02500343E+01
 21
1.09400674E+02
  0
LINE
  8
0
  6
CENTER
 62
6
 10
-5.87499848E+01
 20
1.09400674E+02
 11
-1.17499847E+01
 21
1.09400674E+02
  0
LINE
  8
0
 62
6
 10
-1.54820356E+01
 20
1.06400674E+02
 11
-1.20179340E+01
 21
1.12400674E+02
  0
LINE
  8
0
 62
4
 10
-3.02499847E+01
 20
1.07900674E+02
 11
-1.46160101E+01
 21
1.07900674E+02
  0
LINE
  8
0
 62
4
 10
-3.02499847E+01
 20
1.10900674E+02
 11
-1.28839593E+01
 21
1.10900674E+02
  0
LINE
  8
0
 62
6
 10
-3.01791484E+00
 20
1.12400674E+02
 11
-6.48201645E+00
 21
1.06400674E+02
  0
LINE
  8
0
 62
4
 10
5.25003434E+00
 20
1.10900674E+02
 11
-3.88394027E+00
 21
1.10900674E+02
  0
LINE
  8
0
 62
4
 10
5.25003434E+00
 20
1.07900674E+02
 11
-5.61599108E+00
 21
1.07900674E+02
  0
LINE
  8
0
  6
CENTER
 62
6
 10
1.12499847E+01
 20
1.01882897E+02
 11
6.24998474E+00
 21
1.01882897E+02
  0
LINE
  8
0
  6
CENTER
 62
6
 10
8.74998474E+00
 20
1.04382897E+02
 11
8.74998474E+00
 21
9.93828974E+01
  0
LINE
  8
0
  6
CENTER
 62
6
 10
1.67499847E+01
 20
1.04382897E+02
 11
1.67499847E+01
 21
9.93828974E+01
  0
LINE
  8
0
  6
CENTER
 62
6
 10
1.92499847E+01
 20
1.01882897E+02
 11
1.42499847E+01
 21
1.01882897E+02
  0
LINE
  8
0
 62
4
 10
2.02499847E+01
 20
1.22150364E+02
 11
2.02499847E+01
 21
9.64096852E+01
  0
LINE
  8
0
 62
4
 10
5.24998474E+00
 20
1.22330123E+02
 11
5.24998474E+00
 21
9.64096852E+01
  0
LINE
  8
0
 62
4
 10
3.52499847E+01
 20
1.22330123E+02
 11
3.52499847E+01
 21
1.06145819E+02
  0
LINE
  8
0
  6
CENTER
 62
6
 10
2.77499847E+01
 20
1.21225646E+02
 11
2.77499847E+01
 21
1.14076452E+02
  0
LINE
  8
0
  6
CENTER
 62
6
 10
3.13245816E+01
 20
1.17651049E+02
 11
2.41753879E+01
 21
1.17651049E+02
  0
CIRCLE
  8
0
 62
4
 10
2.77499847E+01
 20
1.17651049E+02
 40
2.25000000E+00
  0
LINE
  8
0
 62
4
 10
5.24998474E+00
 20
1.22330123E+02
 11
3.52499847E+01
 21
1.22330123E+02
  0
LINE
  8
0
 62
4
 10
5.24998474E+00
 20
1.22150364E+02
 11
3.52499847E+01
 21
1.22150364E+02
  0
LINE
  8
0
 62
4
 10
6.41154873E+00
 20
1.07159662E+02
 11
1.89907320E+01
 21
1.07159662E+02
  0
LINE
  8
0
 62
4
 10
2.02499847E+01
 20
1.06145819E+02
 11
3.52499847E+01
 21
1.06145819E+02
  0
LINE
  8
0
 62
4
 10
2.02499847E+01
 20
1.13644677E+02
 11
3.52499847E+01
 21
1.13644677E+02
  0
LINE
  8
0
 62
4
 10
2.02499847E+01
 20
1.13651658E+02
 11
3.52499847E+01
 21
1.13651658E+02
  0
LINE
  8
0
 62
4
 10
8.74998474E+00
 20
1.03032897E+02
 11
7.74998474E+00
 21
1.02462897E+02
  0
LINE
  8
0
 62
4
 10
9.74998474E+00
 20
1.02462897E+02
 11
8.74998474E+00
 21
1.03032897E+02
  0
LINE
  8
0
 62
4
 10
9.74998474E+00
 20
1.02462897E+02
 11
9.74998474E+00
 21
1.01302897E+02
  0
LINE
  8
0
 62
4
 10
9.74998474E+00
 20
1.01302897E+02
 11
8.74998474E+00
 21
1.00722897E+02
  0
LINE
  8
0
 62
4
 10
8.74998474E+00
 20
1.00722897E+02
 11
7.74998474E+00
 21
1.01302897E+02
  0
LINE
  8
0
 62
4
 10
7.74998474E+00
 20
1.02462897E+02
 11
7.74998474E+00
 21
1.01302897E+02
  0
CIRCLE
  8
0
 62
4
 10
8.74998474E+00
 20
1.01882897E+02
 40
2.00000000E+00
  0
CIRCLE
  8
0
 62
6
 10
8.74998474E+00
 20
1.01882897E+02
 40
1.50000000E+00
  0
LINE
  8
0
 62
4
 10
5.24998474E+00
 20
9.64096852E+01
 11
2.02499847E+01
 21
9.64096852E+01
  0
LINE
  8
0
 62
4
 10
1.77499847E+01
 20
1.02462897E+02
 11
1.67499847E+01
 21
1.03032897E+02
  0
LINE
  8
0
 62
4
 10
1.77499847E+01
 20
1.02462897E+02
 11
1.77499847E+01
 21
1.01302897E+02
  0
CIRCLE
  8
0
 62
4
 10
1.67499847E+01
 20
1.01882897E+02
 40
2.00000000E+00
  0
CIRCLE
  8
0
 62
6
 10
1.67499847E+01
 20
1.01882897E+02
 40
1.50000000E+00
  0
LINE
  8
0
 62
4
 10
1.77499847E+01
 20
1.01302897E+02
 11
1.67499847E+01
 21
1.00722897E+02
  0
LINE
  8
0
 62
4
 10
1.67499847E+01
 20
1.00722897E+02
 11
1.57499847E+01
 21
1.01302897E+02
  0
LINE
  8
0
 62
4
 10
1.57499847E+01
 20
1.02462897E+02
 11
1.57499847E+01
 21
1.01302897E+02
  0
LINE
  8
0
 62
4
 10
1.67499847E+01
 20
1.03032897E+02
 11
1.57499847E+01
 21
1.02462897E+02
  0
LINE
  8
0
 62
4
 10
3.52499847E+01
 20
1.11435274E+02
 11
3.67499847E+01
 21
1.10550223E+02
  0
LINE
  8
0
 62
4
 10
3.67499847E+01
 20
1.08285568E+02
 11
3.52499847E+01
 21
1.07435883E+02
  0
LINE
  8
0
 62
4
 10
3.67499847E+01
 20
1.08246038E+02
 11
3.52499847E+01
 21
1.07366074E+02
  0
LINE
  8
0
 62
4
 10
3.67499847E+01
 20
1.10550223E+02
 11
3.67499847E+01
 21
1.08246038E+02
  0
LINE
  8
0
 62
4
 10
-2.37499847E+01
 20
1.07900674E+02
 11
-2.37499847E+01
 21
1.07519459E+02
  0
LINE
  8
0
  6
CENTER
 62
6
 10
-3.12499847E+01
 20
1.22630809E+02
 11
-3.12499847E+01
 21
1.13030809E+02
  0
LINE
  8
0
  6
CENTER
 62
6
 10
-2.64499848E+01
 20
1.17830809E+02
 11
-3.60499848E+01
 21
1.17830809E+02
  0
LINE
  8
0
  6
CENTER
 62
6
 10
-4.62499847E+01
 20
1.21405406E+02
 11
-4.62499847E+01
 21
1.14256212E+02
  0
LINE
  8
0
  6
CENTER
 62
6
 10
-4.26753879E+01
 20
1.17830809E+02
 11
-4.98245816E+01
 21
1.17830809E+02
  0
CIRCLE
  8
0
 62
4
 10
-4.62499847E+01
 20
1.17830809E+02
 40
2.25000000E+00
  0
LINE
  8
0
  6
CENTER
 62
6
 10
-3.87499847E+01
 20
1.18981342E+02
 11
-3.87499847E+01
 21
1.09681342E+02
  0
LINE
  8
0
  6
CENTER
 62
6
 10
-3.40999847E+01
 20
1.14331342E+02
 11
-4.33999847E+01
 21
1.14331342E+02
  0
LINE
  8
0
 62
4
 10
-5.37499847E+01
 20
1.22330123E+02
 11
-5.37499847E+01
 21
1.11435274E+02
  0
LINE
  8
0
 62
4
 10
-2.37499847E+01
 20
1.22330123E+02
 11
-2.37499847E+01
 21
1.10900674E+02
  0
LINE
  8
0
 62
4
 10
-3.02499847E+01
 20
1.11435274E+02
 11
-3.02499847E+01
 21
1.07519459E+02
  0
LINE
  8
0
 62
4
 10
-5.52499847E+01
 20
1.10550223E+02
 11
-5.52499847E+01
 21
1.08246038E+02
  0
CIRCLE
  8
0
 62
4
 10
-3.12499848E+01
 20
1.17830809E+02
 40
3.80000000E+00
  0
CIRCLE
  8
0
 62
4
 10
-3.12499848E+01
 20
1.17830809E+02
 40
3.40000000E+00
  0
LINE
  8
0
 62
4
 10
-3.30177517E+01
 20
1.16063042E+02
 11
-2.94822178E+01
 21
1.19598576E+02
  0
LINE
  8
0
 62
4
 10
-3.30177517E+01
 20
1.19598576E+02
 11
-2.94822178E+01
 21
1.16063042E+02
  0
CIRCLE
  8
0
 62
4
 10
-3.87499847E+01
 20
1.14331342E+02
 40
4.15000000E+00
  0
LINE
  8
0
 62
4
 10
-4.05177518E+01
 20
1.16099109E+02
 11
-3.69822178E+01
 21
1.12563575E+02
  0
LINE
  8
0
 62
4
 10
-4.05177517E+01
 20
1.12563575E+02
 11
-3.69822179E+01
 21
1.16099109E+02
  0
LINE
  8
0
 62
4
 10
-5.37499847E+01
 20
1.22330123E+02
 11
-2.37499847E+01
 21
1.22330123E+02
  0
LINE
  8
0
 62
4
 10
-5.37499847E+01
 20
1.11931707E+02
 11
-4.21358753E+01
 21
1.11931707E+02
  0
LINE
  8
0
 62
4
 10
-3.53640942E+01
 20
1.11931707E+02
 11
-2.37499847E+01
 21
1.11931707E+02
  0
LINE
  8
0
 62
4
 10
-5.37499847E+01
 20
1.11435274E+02
 11
-4.17224065E+01
 21
1.11435274E+02
  0
LINE
  8
0
 62
4
 10
-5.37499847E+01
 20
1.11435274E+02
 11
-5.52499847E+01
 21
1.10550223E+02
  0
LINE
  8
0
 62
4
 10
-5.52499847E+01
 20
1.08285568E+02
 11
-5.38975255E+01
 21
1.07519459E+02
  0
LINE
  8
0
 62
4
 10
-5.52499847E+01
 20
1.08246038E+02
 11
-5.40114470E+01
 21
1.07519459E+02
  0
LINE
  8
0
 62
4
 10
-3.57775629E+01
 20
1.11435274E+02
 11
-3.02499847E+01
 21
1.11435274E+02
  0
LINE
  8
0
 62
4
 10
-5.37499847E+01
 20
1.11435274E+02
 11
-5.37499847E+01
 21
1.07519459E+02
  0
LINE
  8
0
 62
7
 10
3.55114470E+01
 20
1.07519459E+02
 11
4.12499847E+01
 21
1.07519459E+02
  0
LINE
  8
0
 62
7
 10
2.02499847E+01
 20
1.02219471E+02
 11
4.12499847E+01
 21
1.02219471E+02
  0
CIRCLE
  8
0
 62
7
 10
-2.17749924E+02
 20
1.04869465E+02
 40
2.45850000E+00
  0
CIRCLE
  8
0
 62
7
 10
-2.17749924E+02
 20
7.18694647E+01
 40
2.45850000E+00
  0
CIRCLE
  8
0
 62
7
 10
-2.50749924E+02
 20
7.18694647E+01
 40
2.45850000E+00
  0
CIRCLE
  8
0
 62
7
 10
-2.50749924E+02
 20
1.04869465E+02
 40
2.45850000E+00
  0
LINE
  8
0
 62
7
 10
-2.14749816E+02
 20
1.06601478E+02
 11
-2.17749871E+02
 21
1.08333575E+02
  0
LINE
  8
0
 62
7
 10
-2.17750169E+02
 20
1.08333952E+02
 11
-2.20750146E+02
 21
1.06601903E+02
  0
LINE
  8
0
 62
7
 10
-2.20749924E+02
 20
1.03137470E+02
 11
-2.20749924E+02
 21
1.06601551E+02
  0
LINE
  8
0
 62
7
 10
-2.17749866E+02
 20
1.01405402E+02
 11
-2.20749869E+02
 21
1.03137468E+02
  0
LINE
  8
0
 62
7
 10
-2.14750023E+02
 20
1.03137672E+02
 11
-2.17750000E+02
 21
1.01405623E+02
  0
LINE
  8
0
 62
7
 10
-2.14749924E+02
 20
1.06601551E+02
 11
-2.14749924E+02
 21
1.03137470E+02
  0
LINE
  8
0
 62
7
 10
-2.47750052E+02
 20
1.06601560E+02
 11
-2.50750107E+02
 21
1.08333655E+02
  0
LINE
  8
0
 62
7
 10
-2.50749898E+02
 20
1.08333395E+02
 11
-2.53749848E+02
 21
1.06601361E+02
  0
LINE
  8
0
 62
7
 10
-2.53749924E+02
 20
1.03137470E+02
 11
-2.53749924E+02
 21
1.06601551E+02
  0
LINE
  8
0
 62
7
 10
-2.50750060E+02
 20
1.01405430E+02
 11
-2.53750063E+02
 21
1.03137495E+02
  0
LINE
  8
0
 62
7
 10
-2.47749875E+02
 20
1.03137362E+02
 11
-2.50749851E+02
 21
1.01405313E+02
  0
LINE
  8
0
 62
7
 10
-2.47749924E+02
 20
1.06601551E+02
 11
-2.47749924E+02
 21
1.03137470E+02
  0
LINE
  8
0
 62
7
 10
-2.53750115E+02
 20
7.01373961E+01
 11
-2.50750112E+02
 21
6.84053305E+01
  0
LINE
  8
0
 62
7
 10
-2.50750082E+02
 20
6.84056533E+01
 11
-2.47750105E+02
 21
7.01377025E+01
  0
LINE
  8
0
 62
7
 10
-2.47749863E+02
 20
7.36015509E+01
 11
-2.47749863E+02
 21
7.01374700E+01
  0
LINE
  8
0
 62
7
 10
-2.50750170E+02
 20
7.53335362E+01
 11
-2.47750220E+02
 21
7.36015012E+01
  0
LINE
  8
0
 62
7
 10
-2.53750212E+02
 20
7.36021182E+01
 11
-2.50750262E+02
 21
7.53341523E+01
  0
LINE
  8
0
 62
7
 10
-2.53749863E+02
 20
7.01374700E+01
 11
-2.53749863E+02
 21
7.36015509E+01
  0
LINE
  8
0
 62
7
 10
-2.20750031E+02
 20
7.01373321E+01
 11
-2.17750055E+02
 21
6.84052818E+01
  0
LINE
  8
0
 62
7
 10
-2.17750091E+02
 20
6.84057447E+01
 11
-2.14750114E+02
 21
7.01377939E+01
  0
LINE
  8
0
 62
7
 10
-2.14749863E+02
 20
7.36015509E+01
 11
-2.14749863E+02
 21
7.01374700E+01
  0
LINE
  8
0
 62
7
 10
-2.17749974E+02
 20
7.53334826E+01
 11
-2.14749972E+02
 21
7.36014170E+01
  0
LINE
  8
0
 62
7
 10
-2.20750161E+02
 20
7.36018919E+01
 11
-2.17750184E+02
 21
7.53339412E+01
  0
LINE
  8
0
 62
7
 10
-2.20749863E+02
 20
7.01374700E+01
 11
-2.20749863E+02
 21
7.36015509E+01
  0
LINE
  8
0
 62
7
 10
-2.56049911E+02
 20
1.07369434E+02
 11
-2.56049911E+02
 21
9.92694586E+01
  0
LINE
  8
0
 62
7
 10
-2.53249924E+02
 20
1.10169437E+02
 11
-2.44249924E+02
 21
1.10169437E+02
  0
LINE
  8
0
 62
7
 10
-2.55449936E+02
 20
7.75272100E+01
 11
-2.55449936E+02
 21
9.92117193E+01
  0
LINE
  8
0
 62
7
 10
-2.53449936E+02
 20
8.43644598E+01
 11
-2.53449875E+02
 21
9.23744390E+01
  0
LINE
  8
0
 62
7
 10
-2.56249924E+02
 20
6.93694799E+01
 11
-2.56249924E+02
 21
1.07369495E+02
  0
LINE
  8
0
 62
7
 10
-2.53249924E+02
 20
1.10369495E+02
 11
-2.15249863E+02
 21
1.10369495E+02
  0
LINE
  8
0
 62
7
 10
-2.12249863E+02
 20
6.93694799E+01
 11
-2.12249863E+02
 21
1.07369495E+02
  0
LINE
  8
0
 62
7
 10
-2.53249924E+02
 20
6.63694799E+01
 11
-2.15249863E+02
 21
6.63694799E+01
  0
LINE
  8
0
  6
CENTER
 62
2
 10
-2.58648972E+02
 20
8.83694647E+01
 11
-2.09290085E+02
 21
8.83694647E+01
  0
LINE
  8
0
  6
CENTER
 62
2
 10
-2.34249924E+02
 20
1.12699512E+02
 11
-2.34249924E+02
 21
6.35023687E+01
  0
LINE
  8
0
  6
CENTER
 62
2
 10
-2.50749863E+02
 20
6.48137701E+01
 11
-2.50749863E+02
 21
7.85014532E+01
  0
LINE
  8
0
  6
CENTER
 62
2
 10
-2.57963364E+02
 20
7.18694647E+01
 11
-2.44141159E+02
 21
7.18694647E+01
  0
LINE
  8
0
  6
CENTER
 62
2
 10
-2.17749863E+02
 20
6.46560247E+01
 11
-2.17749863E+02
 21
7.84782446E+01
  0
LINE
  8
0
  6
CENTER
 62
2
 10
-2.10694199E+02
 20
7.18695104E+01
 11
-2.24381882E+02
 21
7.18695104E+01
  0
LINE
  8
0
  6
CENTER
 62
2
 10
-2.10536484E+02
 20
1.04869510E+02
 11
-2.24358688E+02
 21
1.04869510E+02
  0
LINE
  8
0
  6
CENTER
 62
2
 10
-2.17749924E+02
 20
1.11925159E+02
 11
-2.17749924E+02
 21
9.82374761E+01
  0
LINE
  8
0
  6
CENTER
 62
2
 10
-2.50749924E+02
 20
1.12082905E+02
 11
-2.50749924E+02
 21
9.82606848E+01
  0
LINE
  8
0
  6
CENTER
 62
2
 10
-2.57805588E+02
 20
1.04869465E+02
 11
-2.44117905E+02
 21
1.04869465E+02
  0
LINE
  8
0
 62
7
 10
-2.35249924E+02
 20
1.06569477E+02
 11
-2.35249924E+02
 21
1.02225849E+02
  0
LINE
  8
0
 62
7
 10
-2.33249924E+02
 20
1.06569477E+02
 11
-2.33249924E+02
 21
1.02225849E+02
  0
LINE
  8
0
  6
CENTER
 62
2
 10
-2.37249924E+02
 20
1.12699512E+02
 11
-2.37249924E+02
 21
1.02952488E+02
  0
LINE
  8
0
 62
7
 10
-2.44201173E+02
 20
9.97348155E+01
 11
-2.43340811E+02
 21
9.88744530E+01
  0
LINE
  8
0
 62
7
 10
-2.45615398E+02
 20
9.83205915E+01
 11
-2.44755036E+02
 21
9.74602291E+01
  0
LINE
  8
0
 62
7
 10
-2.53249924E+02
 20
6.65694616E+01
 11
-2.45149948E+02
 21
6.65694616E+01
  0
LINE
  8
0
 62
7
 10
-2.56049911E+02
 20
6.93694647E+01
 11
-2.56049911E+02
 21
7.74694708E+01
  0
LINE
  8
0
 62
7
 10
-2.45092209E+02
 20
6.71694677E+01
 11
-2.23407700E+02
 21
6.71694677E+01
  0
LINE
  8
0
 62
7
 10
-2.38254929E+02
 20
6.91694982E+01
 11
-2.30244919E+02
 21
6.91694372E+01
  0
LINE
  8
0
 62
7
 10
-2.45615392E+02
 20
7.84182774E+01
 11
-2.44755029E+02
 21
7.92786396E+01
  0
LINE
  8
0
 62
7
 10
-2.44201221E+02
 20
7.70041069E+01
 11
-2.43340837E+02
 21
7.78644906E+01
  0
LINE
  8
0
 62
7
 10
-2.52449936E+02
 20
8.73694494E+01
 11
-2.48106308E+02
 21
8.73694494E+01
  0
LINE
  8
0
 62
7
 10
-2.52449936E+02
 20
8.93694494E+01
 11
-2.48106308E+02
 21
8.93694494E+01
  0
LINE
  8
0
 62
7
 10
-2.12449936E+02
 20
6.93694952E+01
 11
-2.12449936E+02
 21
7.74694708E+01
  0
LINE
  8
0
 62
7
 10
-2.15249924E+02
 20
6.65694921E+01
 11
-2.23349960E+02
 21
6.65694921E+01
  0
LINE
  8
0
 62
7
 10
-2.15049973E+02
 20
8.43644903E+01
 11
-2.15049911E+02
 21
9.23744696E+01
  0
LINE
  8
0
 62
7
 10
-2.24298824E+02
 20
7.70040800E+01
 11
-2.25159186E+02
 21
7.78644423E+01
  0
LINE
  8
0
 62
7
 10
-2.22884556E+02
 20
7.84182179E+01
 11
-2.23744918E+02
 21
7.92785802E+01
  0
LINE
  8
0
 62
7
 10
-2.33249924E+02
 20
7.01694525E+01
 11
-2.33249924E+02
 21
7.45130804E+01
  0
LINE
  8
0
 62
7
 10
-2.35249924E+02
 20
7.01694525E+01
 11
-2.35249924E+02
 21
7.45130804E+01
  0
LINE
  8
0
 62
7
 10
-2.15249924E+02
 20
1.10169468E+02
 11
-2.24249924E+02
 21
1.10169468E+02
  0
LINE
  8
0
 62
7
 10
-2.12449936E+02
 20
1.07369465E+02
 11
-2.12449936E+02
 21
9.92694586E+01
  0
LINE
  8
0
 62
7
 10
-2.13049911E+02
 20
7.75272100E+01
 11
-2.13049911E+02
 21
9.92117193E+01
  0
LINE
  8
0
 62
7
 10
-2.45092209E+02
 20
1.09569462E+02
 11
-2.23407700E+02
 21
1.09569462E+02
  0
LINE
  8
0
 62
7
 10
-2.38254929E+02
 20
1.07569492E+02
 11
-2.30244980E+02
 21
1.07569431E+02
  0
LINE
  8
0
 62
7
 10
-2.22884574E+02
 20
9.83207405E+01
 11
-2.23744936E+02
 21
9.74603785E+01
  0
LINE
  8
0
 62
7
 10
-2.24298787E+02
 20
9.97349113E+01
 11
-2.25159150E+02
 21
9.88745492E+01
  0
LINE
  8
0
 62
7
 10
-2.16049911E+02
 20
8.93694799E+01
 11
-2.20393539E+02
 21
8.93694799E+01
  0
LINE
  8
0
 62
7
 10
-2.16049911E+02
 20
8.73694799E+01
 11
-2.20393539E+02
 21
8.73694799E+01
  0
LINE
  8
0
 62
7
 10
-2.44249924E+02
 20
1.10369495E+02
 11
-2.44249924E+02
 21
1.09569462E+02
  0
LINE
  8
0
 62
7
 10
-2.24249924E+02
 20
1.10369495E+02
 11
-2.24249924E+02
 21
1.09569462E+02
  0
LINE
  8
0
 62
7
 10
-2.44249924E+02
 20
6.71694677E+01
 11
-2.44249924E+02
 21
6.63694799E+01
  0
LINE
  8
0
 62
7
 10
-2.24249924E+02
 20
6.71694677E+01
 11
-2.24249924E+02
 21
6.63694799E+01
  0
LINE
  8
0
 62
7
 10
-2.51249924E+02
 20
1.10369495E+02
 11
-2.51249924E+02
 21
1.10169437E+02
  0
LINE
  8
0
 62
7
 10
-2.17249924E+02
 20
1.10369495E+02
 11
-2.17249924E+02
 21
1.10169468E+02
  0
CIRCLE
  8
0
 62
2
 10
-2.17749924E+02
 20
1.04869465E+02
 40
3.00000000E+00
  0
CIRCLE
  8
0
 62
7
 10
-2.34249924E+02
 20
8.83694647E+01
 40
5.00000000E+00
  0
CIRCLE
  8
0
 62
2
 10
-2.34249924E+02
 20
8.83694647E+01
 40
4.30000019E+00
  0
CIRCLE
  8
0
 62
7
 10
-2.34249924E+02
 20
8.83694647E+01
 40
4.00000000E+00
  0
CIRCLE
  8
0
 62
7
 10
-2.34249924E+02
 20
8.83694647E+01
 40
1.30000000E+01
  0
CIRCLE
  8
0
 62
2
 10
-2.50749924E+02
 20
1.04869465E+02
 40
3.00000000E+00
  0
ARC
  8
0
 62
7
 10
-2.50749924E+02
 20
1.04869465E+02
 40
7.50000000E+00
 50
2.86983379E+02
 51
3.43016612E+02
  0
CIRCLE
  8
0
 62
2
 10
-2.50749924E+02
 20
7.18694647E+01
 40
3.00000000E+00
  0
CIRCLE
  8
0
 62
2
 10
-2.17749924E+02
 20
7.18694647E+01
 40
3.00000000E+00
  0
ARC
  8
0
 62
7
 10
-2.50749924E+02
 20
1.04869465E+02
 40
5.00000000E+00
 50
2.40507862E+02
 51
2.94922651E+01
  0
ARC
  8
0
 62
7
 10
-2.32249924E+02
 20
1.06569477E+02
 40
1.00000000E+00
 50
8.99999818E+01
 51
1.79999937E+02
  0
ARC
  8
0
 62
7
 10
-2.36249924E+02
 20
1.06569477E+02
 40
1.00000000E+00
 50
1.36603783E-05
 51
8.99999956E+01
  0
ARC
  8
0
 62
7
 10
-2.32249924E+02
 20
1.02225849E+02
 40
1.00000000E+00
 50
1.79999964E+02
 51
2.61786889E+02
  0
ARC
  8
0
 62
7
 10
-2.36249924E+02
 20
1.02225849E+02
 40
1.00000000E+00
 50
2.78213061E+02
 51
1.36603783E-05
  0
CIRCLE
  8
0
 62
7
 10
-2.50749924E+02
 20
1.04869465E+02
 40
4.50000000E+00
  0
ARC
  8
0
 62
7
 10
-2.45149948E+02
 20
1.08169452E+02
 40
2.00000000E+00
 50
8.99999818E+01
 51
2.10510009E+02
  0
ARC
  8
0
 62
7
 10
-2.45092209E+02
 20
1.08069477E+02
 40
1.50000000E+00
 50
8.99999818E+01
 51
2.09492366E+02
  0
ARC
  8
0
 62
7
 10
-2.42249924E+02
 20
1.06369465E+02
 40
3.00000000E+00
 50
2.64682634E+02
 51
2.86643915E+00
  0
ARC
  8
0
 62
7
 10
-2.42620651E+02
 20
1.02386677E+02
 40
1.00000000E+00
 50
8.46820787E+01
 51
1.63017245E+02
  0
ARC
  8
0
 62
7
 10
-2.38254929E+02
 20
1.06569477E+02
 40
1.00000000E+00
 50
8.99999818E+01
 51
1.82866103E+02
  0
ARC
  8
0
 62
7
 10
-2.53949936E+02
 20
9.92117193E+01
 40
1.50000000E+00
 50
6.05075804E+01
 51
1.79999937E+02
  0
ARC
  8
0
 62
7
 10
-2.54049911E+02
 20
9.92694586E+01
 40
2.00000000E+00
 50
5.94899369E+01
 51
1.79999937E+02
  0
CIRCLE
  8
0
 62
7
 10
-2.34249924E+02
 20
8.83694647E+01
 40
1.20000000E+01
  0
CIRCLE
  8
0
 62
7
 10
-2.34249924E+02
 20
8.83694647E+01
 40
1.22500000E+01
  0
ARC
  8
0
 62
7
 10
-2.48267136E+02
 20
9.67401922E+01
 40
1.00000000E+00
 50
1.06982824E+02
 51
1.85317963E+02
  0
ARC
  8
0
 62
7
 10
-2.52249924E+02
 20
9.63694647E+01
 40
3.00000000E+00
 50
2.67133634E+02
 51
5.31743887E+00
  0
ARC
  8
0
 62
7
 10
-2.52449936E+02
 20
9.23744390E+01
 40
1.00000000E+00
 50
8.71339255E+01
 51
1.80000046E+02
  0
ARC
  8
0
 62
7
 10
-2.43494064E+02
 20
1.00442035E+02
 40
1.00000000E+00
 50
1.48609248E+02
 51
2.24999340E+02
  0
ARC
  8
0
 62
7
 10
-2.42633713E+02
 20
9.95816534E+01
 40
1.00000000E+00
 50
2.24999986E+02
 51
3.06787034E+02
  0
ARC
  8
0
 62
7
 10
-2.46322495E+02
 20
9.76136053E+01
 40
1.00000000E+00
 50
4.50006194E+01
 51
1.21390794E+02
  0
ARC
  8
0
 62
7
 10
-2.45462082E+02
 20
9.67532232E+01
 40
1.00000000E+00
 50
3.23213680E+02
 51
4.50006330E+01
  0
ARC
  8
0
 62
7
 10
-2.52449936E+02
 20
8.63694647E+01
 40
1.00000000E+00
 50
8.99999956E+01
 51
1.79999977E+02
  0
ARC
  8
0
 62
7
 10
-2.38254929E+02
 20
7.01694525E+01
 40
1.00000000E+00
 50
1.77133921E+02
 51
2.70000056E+02
  0
ARC
  8
0
 62
7
 10
-2.46322495E+02
 20
7.91253546E+01
 40
1.00000000E+00
 50
2.38609261E+02
 51
3.14999353E+02
  0
ARC
  8
0
 62
7
 10
-2.45462143E+02
 20
7.99857061E+01
 40
1.00000000E+00
 50
3.14999981E+02
 51
3.67870130E+01
  0
ARC
  8
0
 62
7
 10
-2.42633713E+02
 20
7.71573065E+01
 40
1.00000000E+00
 50
5.32136794E+01
 51
1.35000615E+02
  0
ARC
  8
0
 62
7
 10
-2.43494064E+02
 20
7.62969244E+01
 40
1.00000000E+00
 50
1.35000615E+02
 51
2.11390789E+02
  0
ARC
  8
0
 62
7
 10
-2.52449936E+02
 20
9.03694647E+01
 40
1.00000000E+00
 50
1.79999977E+02
 51
2.69999946E+02
  0
ARC
  8
0
 62
7
 10
-2.48106308E+02
 20
8.63694647E+01
 40
1.00000000E+00
 50
8.21306340E+00
 51
8.99999956E+01
  0
ARC
  8
0
 62
7
 10
-2.50749924E+02
 20
7.18694647E+01
 40
7.50000000E+00
 50
1.69833747E+01
 51
7.30166213E+01
  0
ARC
  8
0
 62
7
 10
-2.52449936E+02
 20
8.43644598E+01
 40
1.00000000E+00
 50
1.79999977E+02
 51
2.72866112E+02
  0
ARC
  8
0
 62
7
 10
-2.50749924E+02
 20
7.18694647E+01
 40
5.00000000E+00
 50
3.30507844E+02
 51
1.19492288E+02
  0
CIRCLE
  8
0
 62
7
 10
-2.50749924E+02
 20
7.18694647E+01
 40
4.50000000E+00
  0
ARC
  8
0
 62
7
 10
-2.54049911E+02
 20
7.74694708E+01
 40
2.00000000E+00
 50
1.79999977E+02
 51
3.00510019E+02
  0
ARC
  8
0
 62
7
 10
-2.53949936E+02
 20
7.75272100E+01
 40
1.50000000E+00
 50
1.79999977E+02
 51
2.99492375E+02
  0
ARC
  8
0
 62
7
 10
-2.52249924E+02
 20
8.03694647E+01
 40
3.00000000E+00
 50
3.54682650E+02
 51
9.28664484E+01
  0
ARC
  8
0
 62
7
 10
-2.48267136E+02
 20
7.99987677E+01
 40
1.00000000E+00
 50
1.74682088E+02
 51
2.53017227E+02
  0
ARC
  8
0
 62
7
 10
-2.45092209E+02
 20
6.86694830E+01
 40
1.50000000E+00
 50
1.50507562E+02
 51
2.69999946E+02
  0
ARC
  8
0
 62
7
 10
-2.45149948E+02
 20
6.85694769E+01
 40
2.00000000E+00
 50
1.49489946E+02
 51
2.69999946E+02
  0
ARC
  8
0
 62
7
 10
-2.48106308E+02
 20
9.03694647E+01
 40
1.00000000E+00
 50
2.69999977E+02
 51
3.51786909E+02
  0
ARC
  8
0
 62
7
 10
-2.42620651E+02
 20
7.43522528E+01
 40
1.00000000E+00
 50
1.96982837E+02
 51
2.75317976E+02
  0
ARC
  8
0
 62
7
 10
-2.42249924E+02
 20
7.03694647E+01
 40
3.00000000E+00
 50
3.57133629E+02
 51
9.53174278E+01
  0
ARC
  8
0
 62
7
 10
-2.32249924E+02
 20
7.01694525E+01
 40
1.00000000E+00
 50
1.79999991E+02
 51
2.69999974E+02
  0
ARC
  8
0
 62
7
 10
-2.16049911E+02
 20
8.43644903E+01
 40
1.00000000E+00
 50
2.67133934E+02
 51
5.46415133E-05
  0
ARC
  8
0
 62
7
 10
-2.25005844E+02
 20
7.62968939E+01
 40
1.00000000E+00
 50
3.28609257E+02
 51
4.49993490E+01
  0
ARC
  8
0
 62
7
 10
-2.25866196E+02
 20
7.71572760E+01
 40
1.00000000E+00
 50
4.49999773E+01
 51
1.26787012E+02
  0
ARC
  8
0
 62
7
 10
-2.23037766E+02
 20
7.99857061E+01
 40
1.00000000E+00
 50
1.43213671E+02
 51
2.25000611E+02
  0
ARC
  8
0
 62
7
 10
-2.22177414E+02
 20
7.91253240E+01
 40
1.00000000E+00
 50
2.25000628E+02
 51
3.01390803E+02
  0
ARC
  8
0
 62
7
 10
-2.36249924E+02
 20
7.01694525E+01
 40
1.00000000E+00
 50
2.69999991E+02
 51
3.59999945E+02
  0
ARC
  8
0
 62
7
 10
-2.32249924E+02
 20
7.45130804E+01
 40
1.00000000E+00
 50
9.82130591E+01
 51
1.79999991E+02
  0
ARC
  8
0
 62
7
 10
-2.17749924E+02
 20
7.18694647E+01
 40
7.50000000E+00
 50
1.06983370E+02
 51
1.63016617E+02
  0
ARC
  8
0
 62
7
 10
-2.30244919E+02
 20
7.01694525E+01
 40
1.00000000E+00
 50
2.69999991E+02
 51
2.86611130E+00
  0
ARC
  8
0
 62
7
 10
-2.17749924E+02
 20
7.18694647E+01
 40
5.00000000E+00
 50
6.05078399E+01
 51
2.09492284E+02
  0
CIRCLE
  8
0
 62
7
 10
-2.17749924E+02
 20
7.18694647E+01
 40
4.50000000E+00
  0
ARC
  8
0
 62
7
 10
-2.23349960E+02
 20
6.85694769E+01
 40
2.00000000E+00
 50
2.69999991E+02
 51
3.05100179E+01
  0
ARC
  8
0
 62
7
 10
-2.23407700E+02
 20
6.86694525E+01
 40
1.50000000E+00
 50
2.69999991E+02
 51
2.94923744E+01
  0
ARC
  8
0
 62
7
 10
-2.26249924E+02
 20
7.03694647E+01
 40
3.00000000E+00
 50
8.46826453E+01
 51
1.82866444E+02
  0
ARC
  8
0
 62
7
 10
-2.25879257E+02
 20
7.43522528E+01
 40
1.00000000E+00
 50
2.64682088E+02
 51
3.43017254E+02
  0
ARC
  8
0
 62
7
 10
-2.14549973E+02
 20
7.75272100E+01
 40
1.50000000E+00
 50
2.40507589E+02
 51
3.59999945E+02
  0
ARC
  8
0
 62
7
 10
-2.14449936E+02
 20
7.74694708E+01
 40
2.00000000E+00
 50
2.39489945E+02
 51
3.59999945E+02
  0
ARC
  8
0
 62
7
 10
-2.36249924E+02
 20
7.45130804E+01
 40
1.00000000E+00
 50
3.59999973E+02
 51
8.17869052E+01
  0
ARC
  8
0
 62
7
 10
-2.20232712E+02
 20
7.99987371E+01
 40
1.00000000E+00
 50
2.86982832E+02
 51
5.31797163E+00
  0
ARC
  8
0
 62
7
 10
-2.16249924E+02
 20
8.03694647E+01
 40
3.00000000E+00
 50
8.71336247E+01
 51
1.85317430E+02
  0
ARC
  8
0
 62
7
 10
-2.16049911E+02
 20
9.03694647E+01
 40
1.00000000E+00
 50
2.70000018E+02
 51
0.00000000E+00
  0
ARC
  8
0
 62
7
 10
-2.30244980E+02
 20
1.06569477E+02
 40
1.00000000E+00
 50
3.57133929E+02
 51
9.00000500E+01
  0
ARC
  8
0
 62
7
 10
-2.22177353E+02
 20
9.76135748E+01
 40
1.00000000E+00
 50
5.86092520E+01
 51
1.34999345E+02
  0
ARC
  8
0
 62
7
 10
-2.23037766E+02
 20
9.67532232E+01
 40
1.00000000E+00
 50
1.34999973E+02
 51
2.16787008E+02
  0
ARC
  8
0
 62
7
 10
-2.25866196E+02
 20
9.95816229E+01
 40
1.00000000E+00
 50
2.33213685E+02
 51
3.15000637E+02
  0
ARC
  8
0
 62
7
 10
-2.25005783E+02
 20
1.00442005E+02
 40
1.00000000E+00
 50
3.15000624E+02
 51
3.13907981E+01
  0
ARC
  8
0
 62
7
 10
-2.16049911E+02
 20
8.63694647E+01
 40
1.00000000E+00
 50
3.59999986E+02
 51
8.99999412E+01
  0
ARC
  8
0
 62
7
 10
-2.20393539E+02
 20
9.03694647E+01
 40
1.00000000E+00
 50
1.88213065E+02
 51
2.70000018E+02
  0
ARC
  8
0
 62
7
 10
-2.17749924E+02
 20
1.04869465E+02
 40
7.50000000E+00
 50
1.96983383E+02
 51
2.53016616E+02
  0
ARC
  8
0
 62
7
 10
-2.16049911E+02
 20
9.23744696E+01
 40
1.00000000E+00
 50
3.59999986E+02
 51
9.28661070E+01
  0
ARC
  8
0
 62
7
 10
-2.17749924E+02
 20
1.04869465E+02
 40
5.00000000E+00
 50
1.50507836E+02
 51
2.99492266E+02
  0
CIRCLE
  8
0
 62
7
 10
-2.17749924E+02
 20
1.04869465E+02
 40
4.50000000E+00
  0
ARC
  8
0
 62
7
 10
-2.14449936E+02
 20
9.92694586E+01
 40
2.00000000E+00
 50
3.59999986E+02
 51
1.20510014E+02
  0
ARC
  8
0
 62
7
 10
-2.14549911E+02
 20
9.92117193E+01
 40
1.50000000E+00
 50
3.59999986E+02
 51
1.19492370E+02
  0
ARC
  8
0
 62
7
 10
-2.16249924E+02
 20
9.63694647E+01
 40
3.00000000E+00
 50
1.74682635E+02
 51
2.72866440E+02
  0
ARC
  8
0
 62
7
 10
-2.20232712E+02
 20
9.67401617E+01
 40
1.00000000E+00
 50
3.54682083E+02
 51
7.30172492E+01
  0
ARC
  8
0
 62
7
 10
-2.23407700E+02
 20
1.08069446E+02
 40
1.50000000E+00
 50
3.30507585E+02
 51
8.99999412E+01
  0
ARC
  8
0
 62
7
 10
-2.23349960E+02
 20
1.08169452E+02
 40
2.00000000E+00
 50
3.29489941E+02
 51
8.99999412E+01
  0
ARC
  8
0
 62
7
 10
-2.20393539E+02
 20
8.63694647E+01
 40
1.00000000E+00
 50
8.99999681E+01
 51
1.71786908E+02
  0
ARC
  8
0
 62
7
 10
-2.25879196E+02
 20
1.02386677E+02
 40
1.00000000E+00
 50
1.69828282E+01
 51
9.53179675E+01
  0
ARC
  8
0
 62
7
 10
-2.26249924E+02
 20
1.06369465E+02
 40
3.00000000E+00
 50
1.77133620E+02
 51
2.75317440E+02
  0
ARC
  8
0
 62
7
 10
-2.53249924E+02
 20
1.07369495E+02
 40
3.00000000E+00
 50
8.99999818E+01
 51
1.79999964E+02
  0
ARC
  8
0
 62
7
 10
-2.53249924E+02
 20
1.07369434E+02
 40
2.79999995E+00
 50
8.99999818E+01
 51
1.79999964E+02
  0
ARC
  8
0
 62
7
 10
-2.15249924E+02
 20
1.07369465E+02
 40
2.79999995E+00
 50
0.00000000E+00
 51
8.99999818E+01
  0
ARC
  8
0
 62
7
 10
-2.15249924E+02
 20
6.93694952E+01
 40
2.79999995E+00
 50
2.70000018E+02
 51
0.00000000E+00
  0
ARC
  8
0
 62
7
 10
-2.53249924E+02
 20
6.93694647E+01
 40
2.79999995E+00
 50
1.79999981E+02
 51
2.70000018E+02
  0
ARC
  8
0
 62
7
 10
-2.15249863E+02
 20
1.07369495E+02
 40
3.00000000E+00
 50
0.00000000E+00
 51
8.99999818E+01
  0
ARC
  8
0
 62
7
 10
-2.15249863E+02
 20
6.93694799E+01
 40
3.00000000E+00
 50
2.70000018E+02
 51
0.00000000E+00
  0
ARC
  8
0
 62
7
 10
-2.53249924E+02
 20
6.93694799E+01
 40
3.00000000E+00
 50
1.79999981E+02
 51
2.70000018E+02
  0
CIRCLE
  8
0
 62
4
 10
-2.34249924E+02
 20
8.83694647E+01
 40
8.50000000E+00
  0
LINE
  8
0
 62
4
 10
-2.34249924E+02
 20
9.81844192E+01
 11
-2.42749924E+02
 21
9.32769420E+01
  0
LINE
  8
0
 62
4
 10
-2.42749924E+02
 20
9.32769420E+01
 11
-2.42749924E+02
 21
8.34619874E+01
  0
LINE
  8
0
 62
4
 10
-2.42749924E+02
 20
8.34619874E+01
 11
-2.34249924E+02
 21
7.85545101E+01
  0
LINE
  8
0
 62
4
 10
-2.34249924E+02
 20
7.85545101E+01
 11
-2.25749924E+02
 21
8.34619874E+01
  0
LINE
  8
0
 62
4
 10
-2.25749924E+02
 20
8.34619874E+01
 11
-2.25749924E+02
 21
9.32769420E+01
  0
LINE
  8
0
 62
4
 10
-2.25749924E+02
 20
9.32769420E+01
 11
-2.34249924E+02
 21
9.81844192E+01
  0
LINE
  8
0
 10
-2.35398582E+02
 20
1.22290036E+02
 11
-2.35397881E+02
 21
1.22330169E+02
  0
LINE
  8
0
  6
DASHED
 62
4
 10
-2.34248612E+02
 20
1.22310109E+02
 11
-2.33101267E+02
 21
1.22290082E+02
  0
LINE
  8
0
  6
DASHED
 62
4
 10
-2.35606655E+02
 20
1.10369495E+02
 11
-2.35398582E+02
 21
1.22290036E+02
  0
ARC
  8
0
  6
DASHED
 62
4
 10
-2.26619258E+02
 20
1.14167980E+02
 40
1.18100000E+01
 50
1.79000000E+02
 51
1.98761704E+02
  0
ARC
  8
0
  6
DASHED
 62
4
 10
-2.26618987E+02
 20
1.14183454E+02
 40
1.18100000E+01
 50
1.76900933E+02
 51
1.79000000E+02
  0
LINE
  8
0
  6
DASHED
 62
4
 10
-2.35986713E+02
 20
1.10369495E+02
 11
-2.35922678E+02
 21
1.14038065E+02
  0
LINE
  8
0
  6
DASHED
 62
4
 10
-2.36542584E+02
 20
1.14048886E+02
 11
-2.36409945E+02
 21
1.21647728E+02
  0
LINE
  8
0
  6
DASHED
 62
4
 10
-2.36416926E+02
 20
1.21247789E+02
 11
-2.37546754E+02
 21
1.21267510E+02
  0
LINE
  8
0
  6
DASHED
 62
4
 10
-2.36535603E+02
 20
1.14448825E+02
 11
-2.37665431E+02
 21
1.14468546E+02
  0
ARC
  8
0
  6
DASHED
 62
4
 10
-2.27068287E+02
 20
1.17684090E+02
 40
1.18100000E+01
 50
1.66172490E+02
 51
1.91827510E+02
  0
ARC
  8
0
  6
DASHED
 62
4
 10
-2.37565009E+02
 20
1.20267677E+02
 40
1.00000000E+00
 50
8.89999998E+01
 51
1.66172490E+02
  0
ARC
  8
0
  6
DASHED
 62
4
 10
-2.37648781E+02
 20
1.15468407E+02
 40
1.00000000E+00
 50
1.91827510E+02
 51
2.69000000E+02
  0
LINE
  8
0
  6
DASHED
 62
4
 10
-2.35410098E+02
 20
1.21630276E+02
 11
-2.36409945E+02
 21
1.21647728E+02
  0
LINE
  8
0
  6
DASHED
 62
4
 10
-2.35542736E+02
 20
1.14031433E+02
 11
-2.36542584E+02
 21
1.14048886E+02
  0
ARC
  8
0
  6
DASHED
 62
4
 10
-2.33810202E+02
 20
1.10150605E+02
 40
5.00000000E-01
 50
2.59623094E+01
 51
1.54037690E+02
  0
ARC
  8
0
  6
DASHED
 62
4
 10
-2.33810202E+02
 20
1.10150605E+02
 40
3.00000000E-01
 50
4.68556364E+01
 51
1.33144364E+02
  0
ARC
  8
0
  6
DASHED
 62
4
 10
-2.33823291E+02
 20
1.09400720E+02
 40
1.50000000E+00
 50
4.02294692E+01
 51
1.39770531E+02
  0
LINE
  8
0
 62
4
 10
-2.09858752E+02
 20
1.07159707E+02
 11
-2.10020668E+02
 21
9.78835523E+01
  0
LINE
  8
0
 62
4
 10
-2.11546618E+02
 20
9.64099594E+01
 11
-2.12249863E+02
 21
9.64222346E+01
  0
LINE
  8
0
 62
4
 10
-2.33101267E+02
 20
1.22290082E+02
 11
-2.18100516E+02
 21
1.22028242E+02
  0
LINE
  8
0
 62
4
 10
-2.18100516E+02
 20
1.22028242E+02
 11
-2.09858752E+02
 21
1.07159707E+02
  0
ARC
  8
0
 62
4
 10
-2.11520440E+02
 20
9.79097310E+01
 40
1.50000000E+00
 50
2.69000000E+02
 51
3.59000000E+02
  0
LINE
  8
0
 62
4
 10
-2.25247795E+02
 20
1.13651704E+02
 11
-2.24747871E+02
 21
1.13642978E+02
  0
LINE
  8
0
 62
4
 10
-2.24256674E+02
 20
1.13134328E+02
 11
-2.24304934E+02
 21
1.10369495E+02
  0
ARC
  8
0
 62
4
 10
-2.24756598E+02
 20
1.13143054E+02
 40
5.00000000E-01
 50
3.59000000E+02
 51
8.89999998E+01
  0
LINE
  8
0
  6
CENTER
 62
6
 10
-2.15705314E+02
 20
1.01983388E+02
 11
-2.08125289E+02
 21
1.01851078E+02
  0
LINE
  8
0
  6
CENTER
 62
6
 10
-2.23677135E+02
 20
1.14124364E+02
 11
-2.36723893E+02
 21
1.14352096E+02
  0
LINE
  8
0
  6
CENTER
 62
6
 10
-2.14241165E+02
 20
1.17460192E+02
 11
-2.36662809E+02
 21
1.17851563E+02
  0
LINE
  8
0
  6
DASHED
 62
4
 10
-2.32286870E+02
 20
1.11474221E+02
 11
-2.32679828E+02
 21
1.11881141E+02
  0
LINE
  8
0
  6
DASHED
 62
4
 10
-2.32679828E+02
 20
1.11881141E+02
 11
-2.35579386E+02
 21
1.11931753E+02
  0
LINE
  8
0
  6
DASHED
 62
4
 10
-2.31786946E+02
 20
1.11465495E+02
 11
-2.31806077E+02
 21
1.10369495E+02
  0
LINE
  8
0
  6
DASHED
 62
4
 10
-2.31786946E+02
 20
1.11465495E+02
 11
-2.32286870E+02
 21
1.11474221E+02
  0
LINE
  8
0
 62
4
 10
-2.25099450E+02
 20
1.22150409E+02
 11
-2.25247795E+02
 21
1.13651704E+02
  0
LINE
  8
0
 62
4
 10
-2.35397881E+02
 20
1.22330169E+02
 11
-2.34248612E+02
 21
1.22310109E+02
  0
LINE
  8
0
 62
4
 10
-2.24847856E+02
 20
1.13644723E+02
 11
-2.24905025E+02
 21
1.10369495E+02
  0
LINE
  8
0
  6
DASHED
 62
4
 10
-2.31788691E+02
 20
1.11365510E+02
 11
-2.35788082E+02
 21
1.11435320E+02
  0
LINE
  8
0
  6
DASHED
 62
4
 10
-2.35788082E+02
 20
1.11435320E+02
 11
-2.35806686E+02
 21
1.10369495E+02
  0
LINE
  8
0
  6
CENTER
 62
6
 10
-2.33770934E+02
 20
1.12400263E+02
 11
-2.33875648E+02
 21
1.06401176E+02
  0
LINE
  8
0
  6
CENTER
 62
6
 10
-2.30823748E+02
 20
1.09348362E+02
 11
-2.36822834E+02
 21
1.09453077E+02
  0
LINE
  8
0
 62
4
 10
-2.06831800E+02
 20
1.03828804E+02
 11
-2.09915954E+02
 21
1.03882638E+02
  0
LINE
  8
0
 62
4
 10
-2.06901609E+02
 20
9.98294136E+01
 11
-2.09985763E+02
 21
9.98832477E+01
  0
LINE
  8
0
 62
6
 10
-2.06840526E+02
 20
1.03328880E+02
 11
-2.09924680E+02
 21
1.03382715E+02
  0
LINE
  8
0
 62
6
 10
-2.06892883E+02
 20
1.00329337E+02
 11
-2.09977037E+02
 21
1.00383172E+02
  0
LINE
  8
0
 62
4
 10
-2.06901609E+02
 20
9.98294136E+01
 11
-2.06831800E+02
 21
1.03828804E+02
  0
LINE
  8
0
 62
4
 10
-2.32911735E+02
 20
1.11431783E+02
 11
-2.33101966E+02
 21
1.22330123E+02
  0
ARC
  8
0
 62
4
 10
-2.41880590E+02
 20
1.14167934E+02
 40
1.18100000E+01
 50
3.41238531E+02
 51
9.99999999E-01
  0
ARC
  8
0
 62
4
 10
-2.41880860E+02
 20
1.14183408E+02
 40
1.18100000E+01
 50
9.99999999E-01
 51
2.15326990E+01
  0
LINE
  8
0
 62
4
 10
-2.32654832E+02
 20
1.18487342E+02
 11
-2.30895101E+02
 21
1.18518058E+02
  0
LINE
  8
0
 62
4
 10
-2.33032157E+02
 20
1.18330733E+02
 11
-2.32652215E+02
 21
1.18337364E+02
  0
LINE
  8
0
 62
4
 10
-2.32513135E+02
 20
1.10369495E+02
 11
-2.32654832E+02
 21
1.18487342E+02
  0
LINE
  8
0
 62
4
 10
-2.32034927E+02
 20
1.18498162E+02
 11
-2.32089902E+02
 21
1.21647682E+02
  0
LINE
  8
0
 62
4
 10
-2.32082921E+02
 20
1.21247743E+02
 11
-2.30953093E+02
 21
1.21267465E+02
  0
ARC
  8
0
 62
4
 10
-2.41431561E+02
 20
1.17684044E+02
 40
1.18100000E+01
 50
3.48172490E+02
 51
1.38275101E+01
  0
ARC
  8
0
 62
4
 10
-2.30934838E+02
 20
1.20267631E+02
 40
1.00000000E+00
 50
1.38275101E+01
 51
9.10000000E+01
  0
ARC
  8
0
 62
4
 10
-2.30851067E+02
 20
1.15468362E+02
 40
1.00000000E+00
 50
3.19723662E+02
 51
3.48172490E+02
  0
LINE
  8
0
 62
4
 10
-2.33089750E+02
 20
1.21630230E+02
 11
-2.32089902E+02
 21
1.21647682E+02
  0
LINE
  8
0
  6
CENTER
 62
6
 10
-2.37676099E+02
 20
1.09348317E+02
 11
-2.31677013E+02
 21
1.09453031E+02
  0
LINE
  8
0
  6
CENTER
 62
6
 10
-2.34728913E+02
 20
1.12400217E+02
 11
-2.34624199E+02
 21
1.06401131E+02
  0
LINE
  8
0
 62
4
 10
-2.32711766E+02
 20
1.11435274E+02
 11
-2.32693162E+02
 21
1.10369495E+02
  0
LINE
  8
0
 62
4
 10
-2.36711156E+02
 20
1.11365464E+02
 11
-2.32711766E+02
 21
1.11435274E+02
  0
LINE
  8
0
 62
4
 10
-2.35831105E+02
 20
1.10510693E+02
 11
-2.33566449E+02
 21
1.10550223E+02
  0
LINE
  8
0
 62
4
 10
-2.36711156E+02
 20
1.11365464E+02
 11
-2.35831105E+02
 21
1.10510693E+02
  0
LINE
  8
0
 62
4
 10
-2.32711766E+02
 20
1.11435274E+02
 11
-2.33566449E+02
 21
1.10550223E+02
  0
LINE
  8
0
 62
4
 10
-2.35828640E+02
 20
1.10369495E+02
 11
-2.35831105E+02
 21
1.10510693E+02
  0
LINE
  8
0
 62
4
 10
-2.33566449E+02
 20
1.10550223E+02
 11
-2.33563295E+02
 21
1.10369495E+02
  0
LINE
  8
0
 62
4
 10
-2.43651991E+02
 20
1.13644677E+02
 11
-2.43594823E+02
 21
1.10369495E+02
  0
LINE
  8
0
 62
4
 10
-2.50399331E+02
 20
1.22028197E+02
 11
-2.33101966E+02
 21
1.22330123E+02
  0
LINE
  8
0
 62
4
 10
-2.43400398E+02
 20
1.22150364E+02
 11
-2.43252052E+02
 21
1.13651658E+02
  0
LINE
  8
0
 62
4
 10
-2.36712902E+02
 20
1.11465449E+02
 11
-2.36212978E+02
 21
1.11474175E+02
  0
LINE
  8
0
 62
4
 10
-2.36712902E+02
 20
1.11465449E+02
 11
-2.36693772E+02
 21
1.10369495E+02
  0
LINE
  8
0
 62
4
 10
-2.35820020E+02
 20
1.11881095E+02
 11
-2.32920461E+02
 21
1.11931707E+02
  0
LINE
  8
0
 62
4
 10
-2.36212978E+02
 20
1.11474175E+02
 11
-2.35820020E+02
 21
1.11881095E+02
  0
LINE
  8
0
  6
CENTER
 62
6
 10
-2.54258682E+02
 20
1.17460146E+02
 11
-2.31837038E+02
 21
1.17851517E+02
  0
LINE
  8
0
  6
CENTER
 62
6
 10
-2.44822712E+02
 20
1.14124318E+02
 11
-2.31775955E+02
 21
1.14352050E+02
  0
LINE
  8
0
  6
CENTER
 62
6
 10
-2.52794534E+02
 20
1.01983342E+02
 11
-2.60374558E+02
 21
1.01851032E+02
  0
ARC
  8
0
 62
4
 10
-2.43743250E+02
 20
1.13143008E+02
 40
5.00000000E-01
 50
9.10000000E+01
 51
1.81000000E+02
  0
LINE
  8
0
 62
4
 10
-2.44243174E+02
 20
1.13134282E+02
 11
-2.44194914E+02
 21
1.10369495E+02
  0
LINE
  8
0
 62
4
 10
-2.43252052E+02
 20
1.13651658E+02
 11
-2.43751976E+02
 21
1.13642932E+02
  0
ARC
  8
0
 62
4
 10
-2.56979408E+02
 20
9.79096852E+01
 40
1.50000000E+00
 50
1.81000000E+02
 51
2.71000000E+02
  0
LINE
  8
0
 62
4
 10
-2.50399331E+02
 20
1.22028197E+02
 11
-2.58641095E+02
 21
1.07159662E+02
  0
LINE
  8
0
 62
4
 10
-2.56953229E+02
 20
9.64099136E+01
 11
-2.56249924E+02
 21
9.64221899E+01
  0
LINE
  8
0
 62
4
 10
-2.58641095E+02
 20
1.07159662E+02
 11
-2.58479179E+02
 21
9.78835066E+01
  0
LINE
  8
0
 62
4
 10
-2.61668048E+02
 20
1.03828759E+02
 11
-2.58583894E+02
 21
1.03882593E+02
  0
LINE
  8
0
 62
4
 10
-2.61598238E+02
 20
9.98293678E+01
 11
-2.58514084E+02
 21
9.98832019E+01
  0
LINE
  8
0
 62
4
 10
-2.61598238E+02
 20
9.98293678E+01
 11
-2.61668048E+02
 21
1.03828759E+02
  0
LINE
  8
0
 62
6
 10
-2.61659322E+02
 20
1.03328835E+02
 11
-2.58575167E+02
 21
1.03382669E+02
  0
LINE
  8
0
 62
6
 10
-2.61606964E+02
 20
1.00329292E+02
 11
-2.58522810E+02
 21
1.00383126E+02
  0
LINE
  8
0
  6
PHANTOM
 10
-9.25000000E+00
 20
2.47628397E+02
 11
-9.25000000E+00
 21
1.48024389E+02
  0
LINE
  8
0
  6
PHANTOM
 10
1.13249985E+02
 20
2.47628397E+02
 11
1.13249985E+02
 21
1.46182471E+02
  0
LINE
  8
0
 62
7
 10
-1.41749985E+02
 20
2.03369480E+02
 11
-1.36249985E+02
 21
2.03369480E+02
  0
LINE
  8
0
 62
7
 10
-1.42750002E+02
 20
2.04369465E+02
 11
-1.41750034E+02
 21
2.03369474E+02
  0
LINE
  8
0
 62
2
 10
-1.42449966E+02
 20
2.04069492E+02
 11
-1.36249985E+02
 21
2.04069492E+02
  0
LINE
  8
0
 62
7
 10
-1.20749985E+02
 20
2.03369480E+02
 11
-1.20749985E+02
 21
2.13369526E+02
  0
LINE
  8
0
 62
7
 10
-1.42749985E+02
 20
2.04369510E+02
 11
-1.42749985E+02
 21
2.12369465E+02
  0
LINE
  8
0
 62
7
 10
-1.41749985E+02
 20
2.13369526E+02
 11
-1.36249985E+02
 21
2.13369526E+02
  0
LINE
  8
0
 62
7
 10
-1.17749985E+02
 20
2.03369480E+02
 11
-1.17749985E+02
 21
2.13369526E+02
  0
LINE
  8
0
 62
7
 10
-1.23749985E+02
 20
2.03369480E+02
 11
-1.23749985E+02
 21
2.13369526E+02
  0
LINE
  8
0
 62
7
 10
-1.41749985E+02
 20
2.03369480E+02
 11
-1.41749985E+02
 21
2.13369526E+02
  0
LINE
  8
0
 62
7
 10
-1.42749759E+02
 20
2.12369282E+02
 11
-1.41749807E+02
 21
2.13369257E+02
  0
LINE
  8
0
 62
2
 10
-1.42449966E+02
 20
2.12669514E+02
 11
-1.36249985E+02
 21
2.12669514E+02
  0
LINE
  8
0
 62
7
 10
-1.20749985E+02
 20
2.03369480E+02
 11
-1.13749985E+02
 21
2.03369480E+02
  0
LINE
  8
0
 62
7
 10
-1.20749985E+02
 20
2.13369526E+02
 11
-1.13750015E+02
 21
2.13369526E+02
  0
LINE
  8
0
 62
7
 10
-1.13750292E+02
 20
2.13369753E+02
 11
-1.12750280E+02
 21
2.14369765E+02
  0
LINE
  8
0
 62
7
 10
-1.13750107E+02
 20
2.03369537E+02
 11
-1.12750106E+02
 21
2.02369536E+02
  0
LINE
  8
0
  6
CENTER
 62
2
 10
-9.79770050E+01
 20
1.91869495E+02
 11
7.43534241E+01
 21
1.91869495E+02
  0
LINE
  8
0
 62
7
 10
-6.47499847E+01
 20
1.94519489E+02
 11
5.24998474E+00
 21
1.94519489E+02
  0
LINE
  8
0
 62
7
 10
-6.47499847E+01
 20
1.89219501E+02
 11
5.24998474E+00
 21
1.89219501E+02
  0
LINE
  8
0
  6
CENTER
 62
2
 10
-1.44707901E+02
 20
2.08369465E+02
 11
1.76867134E+02
 21
2.08369465E+02
  0
LINE
  8
0
 62
7
 10
-1.12749985E+02
 20
2.02369449E+02
 11
-1.10749985E+02
 21
2.02369449E+02
  0
LINE
  8
0
 62
7
 10
-9.57499847E+01
 20
1.87668384E+02
 11
-9.57499847E+01
 21
2.29070514E+02
  0
LINE
  8
0
  6
CENTER
 62
2
 10
-9.79770050E+01
 20
2.24869465E+02
 11
7.43534241E+01
 21
2.24869465E+02
  0
LINE
  8
0
 62
7
 10
-6.47499847E+01
 20
2.22219440E+02
 11
-3.87499847E+01
 21
2.22219440E+02
  0
LINE
  8
0
 62
7
 10
-6.47499847E+01
 20
2.27519428E+02
 11
-3.87499847E+01
 21
2.27519428E+02
  0
LINE
  8
0
 62
7
 10
-1.12750015E+02
 20
2.14369465E+02
 11
-1.10749985E+02
 21
2.14369465E+02
  0
LINE
  8
0
 62
7
 10
-9.52630844E+01
 20
1.87168588E+02
 11
-6.47500148E+01
 21
1.86369576E+02
  0
LINE
  8
0
 62
7
 10
-1.10249985E+02
 20
1.96369465E+02
 11
-1.05749985E+02
 21
1.96369465E+02
  0
LINE
  8
0
 62
7
 10
-7.37499847E+01
 20
1.97641086E+02
 11
-7.37499847E+01
 21
1.86605228E+02
  0
LINE
  8
0
 62
7
 10
-9.52630316E+01
 20
2.29570346E+02
 11
-6.47500230E+01
 21
2.30369357E+02
  0
LINE
  8
0
 62
7
 10
-7.37499847E+01
 20
2.19097843E+02
 11
-7.37499847E+01
 21
2.30133686E+02
  0
LINE
  8
0
 62
7
 10
-6.47499847E+01
 20
1.86369465E+02
 11
-6.47499847E+01
 21
2.30369404E+02
  0
LINE
  8
0
  6
CENTER
 62
2
 10
-7.58560944E+01
 20
2.01369465E+02
 11
-6.48861847E+01
 21
2.01369465E+02
  0
LINE
  8
0
  6
CENTER
 62
2
 10
-7.02499847E+01
 20
1.96351551E+02
 11
-7.02499847E+01
 21
2.06974415E+02
  0
LINE
  8
0
 62
7
 10
-6.88065514E+01
 20
2.01369379E+02
 11
-6.95282394E+01
 21
2.00119363E+02
  0
LINE
  8
0
 62
7
 10
-6.95283051E+01
 20
2.00119404E+02
 11
-7.09716644E+01
 21
2.00119404E+02
  0
LINE
  8
0
 62
7
 10
-7.16932224E+01
 20
2.01369418E+02
 11
-7.09715344E+01
 21
2.00119402E+02
  0
LINE
  8
0
 62
7
 10
-7.09716292E+01
 20
2.02619415E+02
 11
-7.16933286E+01
 21
2.01369379E+02
  0
LINE
  8
0
 62
7
 10
-6.95283051E+01
 20
2.02619434E+02
 11
-7.09716644E+01
 21
2.02619434E+02
  0
LINE
  8
0
 62
7
 10
-6.88064701E+01
 20
2.01369492E+02
 11
-6.95281580E+01
 21
2.02619509E+02
  0
LINE
  8
0
 62
7
 10
-1.10749985E+02
 20
1.96869480E+02
 11
-1.10749985E+02
 21
2.19869449E+02
  0
LINE
  8
0
 62
7
 10
-1.10249985E+02
 20
2.20369465E+02
 11
-1.05749985E+02
 21
2.20369465E+02
  0
LINE
  8
0
  6
CENTER
 62
2
 10
-7.97499847E+01
 20
2.02912266E+02
 11
-7.97499847E+01
 21
2.20513675E+02
  0
LINE
  8
0
  6
CENTER
 62
2
 10
-8.78466492E+01
 20
2.11369465E+02
 11
-7.08408356E+01
 21
2.11369465E+02
  0
LINE
  8
0
 62
7
 10
-9.07499847E+01
 20
1.99369465E+02
 11
-9.07499847E+01
 21
2.17369465E+02
  0
LINE
  8
0
 62
7
 10
-9.52499847E+01
 20
1.87369495E+02
 11
-7.37499847E+01
 21
1.87369495E+02
  0
LINE
  8
0
 62
7
 10
-7.17499847E+01
 20
2.25369465E+02
 11
-6.47499847E+01
 21
2.25369465E+02
  0
LINE
  8
0
 62
2
 10
-9.57499847E+01
 20
2.19097843E+02
 11
-7.37499847E+01
 21
2.19097843E+02
  0
LINE
  8
0
 62
7
 10
-9.57500018E+01
 20
2.20713866E+02
 11
-7.37499958E+01
 21
2.21097877E+02
  0
LINE
  8
0
 62
7
 10
-9.52499847E+01
 20
2.29369465E+02
 11
-7.37499847E+01
 21
2.29369465E+02
  0
LINE
  8
0
 62
7
 10
-8.97499847E+01
 20
2.18369465E+02
 11
-7.37499847E+01
 21
2.18369465E+02
  0
LINE
  8
0
 62
7
 10
-7.27499847E+01
 20
2.19369465E+02
 11
-7.27499847E+01
 21
2.24369465E+02
  0
LINE
  8
0
 62
7
 10
-8.97499847E+01
 20
1.98369465E+02
 11
-7.37499847E+01
 21
1.98369465E+02
  0
LINE
  8
0
 62
2
 10
-9.57499847E+01
 20
1.97641086E+02
 11
-7.37499847E+01
 21
1.97641086E+02
  0
LINE
  8
0
 62
7
 10
-9.57500335E+01
 20
1.96025127E+02
 11
-7.37499969E+01
 21
1.95641115E+02
  0
LINE
  8
0
 62
7
 10
-7.27499847E+01
 20
1.97369465E+02
 11
-7.27499847E+01
 21
1.92369465E+02
  0
LINE
  8
0
 62
7
 10
-7.17499847E+01
 20
1.91369465E+02
 11
-6.47499847E+01
 21
1.91369465E+02
  0
LINE
  8
0
 62
7
 10
-9.72499847E+01
 20
1.95369480E+02
 11
-9.57499847E+01
 21
1.95369480E+02
  0
LINE
  8
0
 62
7
 10
-9.72499847E+01
 20
2.21369449E+02
 11
-9.57499847E+01
 21
2.21369449E+02
  0
LINE
  8
0
 62
7
 10
-1.05749985E+02
 20
1.96360889E+02
 11
-1.05749985E+02
 21
2.20378040E+02
  0
LINE
  8
0
 62
7
 10
-9.77499847E+01
 20
1.95869480E+02
 11
-9.77499847E+01
 21
2.20869449E+02
  0
LINE
  8
0
 62
7
 10
-1.05508694E+02
 20
2.20627887E+02
 11
-9.77499646E+01
 21
2.20898828E+02
  0
LINE
  8
0
 62
7
 10
-1.05508713E+02
 20
1.96111086E+02
 11
-9.77499841E+01
 21
1.95840145E+02
  0
LINE
  8
0
 62
7
 10
4.12499847E+01
 20
1.86369465E+02
 11
4.12499847E+01
 21
2.30369404E+02
  0
LINE
  8
0
 62
7
 10
7.22499847E+01
 20
1.87668384E+02
 11
7.22499847E+01
 21
2.29070514E+02
  0
LINE
  8
0
 62
7
 10
7.17630873E+01
 20
1.87168584E+02
 11
4.12500482E+01
 21
1.86369572E+02
  0
LINE
  8
0
 62
7
 10
5.02499847E+01
 20
1.97641086E+02
 11
5.02499847E+01
 21
1.86605228E+02
  0
LINE
  8
0
 62
7
 10
7.17630723E+01
 20
2.29570334E+02
 11
4.12500636E+01
 21
2.30369345E+02
  0
LINE
  8
0
 62
7
 10
5.02499847E+01
 20
2.19097843E+02
 11
5.02499847E+01
 21
2.30133686E+02
  0
LINE
  8
0
  6
CENTER
 62
2
 10
5.23560944E+01
 20
2.01369465E+02
 11
4.13861847E+01
 21
2.01369465E+02
  0
LINE
  8
0
  6
CENTER
 62
2
 10
4.67499847E+01
 20
1.96351551E+02
 11
4.67499847E+01
 21
2.06974415E+02
  0
LINE
  8
0
 62
7
 10
4.53066107E+01
 20
2.01369372E+02
 11
4.60282986E+01
 21
2.00119355E+02
  0
LINE
  8
0
 62
7
 10
4.60283051E+01
 20
2.00119404E+02
 11
4.74716644E+01
 21
2.00119404E+02
  0
LINE
  8
0
 62
7
 10
4.81932490E+01
 20
2.01369409E+02
 11
4.74715611E+01
 21
2.00119393E+02
  0
LINE
  8
0
 62
7
 10
4.74716847E+01
 20
2.02619414E+02
 11
4.81933879E+01
 21
2.01369372E+02
  0
LINE
  8
0
 62
7
 10
4.60283051E+01
 20
2.02619434E+02
 11
4.74716644E+01
 21
2.02619434E+02
  0
LINE
  8
0
 62
7
 10
4.53064551E+01
 20
2.01369472E+02
 11
4.60281430E+01
 21
2.02619488E+02
  0
LINE
  8
0
  6
CENTER
 62
2
 10
5.62499847E+01
 20
2.02912266E+02
 11
5.62499847E+01
 21
2.20513675E+02
  0
LINE
  8
0
  6
CENTER
 62
2
 10
6.45807953E+01
 20
2.11369465E+02
 11
4.78583984E+01
 21
2.11369465E+02
  0
LINE
  8
0
 62
7
 10
6.72499847E+01
 20
1.99369465E+02
 11
6.72499847E+01
 21
2.17369465E+02
  0
LINE
  8
0
 62
7
 10
7.17499847E+01
 20
1.87369495E+02
 11
5.02499847E+01
 21
1.87369495E+02
  0
LINE
  8
0
 62
7
 10
4.82499847E+01
 20
2.25369465E+02
 11
4.12499847E+01
 21
2.25369465E+02
  0
LINE
  8
0
 62
2
 10
7.22499847E+01
 20
2.19097843E+02
 11
5.02499847E+01
 21
2.19097843E+02
  0
LINE
  8
0
 62
7
 10
7.22500127E+01
 20
2.20713888E+02
 11
5.02499990E+01
 21
2.21097899E+02
  0
LINE
  8
0
 62
7
 10
7.17499847E+01
 20
2.29369465E+02
 11
5.02499847E+01
 21
2.29369465E+02
  0
LINE
  8
0
 62
7
 10
6.62499847E+01
 20
2.18369465E+02
 11
5.02499847E+01
 21
2.18369465E+02
  0
LINE
  8
0
 62
7
 10
4.92499847E+01
 20
2.19369465E+02
 11
4.92499847E+01
 21
2.24369465E+02
  0
LINE
  8
0
 62
7
 10
6.62499847E+01
 20
1.98369465E+02
 11
5.02499847E+01
 21
1.98369465E+02
  0
LINE
  8
0
 62
2
 10
7.22499847E+01
 20
1.97641086E+02
 11
5.02499847E+01
 21
1.97641086E+02
  0
LINE
  8
0
 62
7
 10
7.22500362E+01
 20
1.96025136E+02
 11
5.02499843E+01
 21
1.95641123E+02
  0
LINE
  8
0
 62
7
 10
4.92499847E+01
 20
1.97369465E+02
 11
4.92499847E+01
 21
1.92369465E+02
  0
LINE
  8
0
 62
7
 10
4.82499847E+01
 20
1.91369465E+02
 11
4.12499847E+01
 21
1.91369465E+02
  0
LINE
  8
0
 62
7
 10
7.37499847E+01
 20
1.95369480E+02
 11
7.22499847E+01
 21
1.95369480E+02
  0
LINE
  8
0
 62
7
 10
7.37499847E+01
 20
2.21369449E+02
 11
7.22499847E+01
 21
2.21369449E+02
  0
LINE
  8
0
 62
7
 10
7.42499847E+01
 20
1.95869480E+02
 11
7.42499847E+01
 21
2.20869449E+02
  0
LINE
  8
0
 62
7
 10
-1.23749985E+02
 20
2.12669514E+02
 11
-1.20749985E+02
 21
2.12669514E+02
  0
LINE
  8
0
 62
7
 10
-1.23749985E+02
 20
2.04069492E+02
 11
-1.20749985E+02
 21
2.04069492E+02
  0
LINE
  8
0
 62
7
 10
1.68249985E+02
 20
2.03369480E+02
 11
1.62749985E+02
 21
2.03369480E+02
  0
LINE
  8
0
 62
7
 10
1.69250003E+02
 20
2.04369470E+02
 11
1.68250035E+02
 21
2.03369479E+02
  0
LINE
  8
0
 62
2
 10
1.68949966E+02
 20
2.04069492E+02
 11
1.62749985E+02
 21
2.04069492E+02
  0
LINE
  8
0
 62
7
 10
1.50249985E+02
 20
2.12669514E+02
 11
1.47249985E+02
 21
2.12669514E+02
  0
LINE
  8
0
 62
7
 10
1.50249985E+02
 20
2.04069492E+02
 11
1.47249985E+02
 21
2.04069492E+02
  0
LINE
  8
0
 62
7
 10
1.47249985E+02
 20
2.03369480E+02
 11
1.47249985E+02
 21
2.13369526E+02
  0
LINE
  8
0
 62
7
 10
1.69249985E+02
 20
2.04369510E+02
 11
1.69249985E+02
 21
2.12369465E+02
  0
LINE
  8
0
 62
7
 10
1.68249985E+02
 20
2.13369526E+02
 11
1.62749985E+02
 21
2.13369526E+02
  0
LINE
  8
0
 62
7
 10
1.44249985E+02
 20
2.03369480E+02
 11
1.44249985E+02
 21
2.13369526E+02
  0
LINE
  8
0
 62
7
 10
1.50249985E+02
 20
2.03369480E+02
 11
1.50249985E+02
 21
2.13369526E+02
  0
LINE
  8
0
 62
7
 10
1.68249985E+02
 20
2.03369480E+02
 11
1.68249985E+02
 21
2.13369526E+02
  0
LINE
  8
0
 62
7
 10
1.69249766E+02
 20
2.12369288E+02
 11
1.68249820E+02
 21
2.13369257E+02
  0
LINE
  8
0
 62
2
 10
1.68949966E+02
 20
2.12669514E+02
 11
1.62749985E+02
 21
2.12669514E+02
  0
LINE
  8
0
 62
7
 10
1.47249985E+02
 20
2.03369480E+02
 11
1.40249985E+02
 21
2.03369480E+02
  0
LINE
  8
0
 62
7
 10
1.47249985E+02
 20
2.13369526E+02
 11
1.40250015E+02
 21
2.13369526E+02
  0
LINE
  8
0
 62
7
 10
1.40250283E+02
 20
2.13369760E+02
 11
1.39250271E+02
 21
2.14369772E+02
  0
LINE
  8
0
 62
7
 10
1.40250108E+02
 20
2.03369535E+02
 11
1.39250107E+02
 21
2.02369534E+02
  0
LINE
  8
0
 62
7
 10
1.39249985E+02
 20
2.02369449E+02
 11
8.72499847E+01
 21
2.02369449E+02
  0
LINE
  8
0
 62
7
 10
1.39250015E+02
 20
2.14369465E+02
 11
8.72499847E+01
 21
2.14369465E+02
  0
LINE
  8
0
 62
7
 10
8.67499847E+01
 20
1.96369465E+02
 11
8.22499847E+01
 21
1.96369465E+02
  0
LINE
  8
0
 62
7
 10
8.72499847E+01
 20
1.96869480E+02
 11
8.72499847E+01
 21
2.19869449E+02
  0
LINE
  8
0
 62
7
 10
8.67499847E+01
 20
2.20369465E+02
 11
8.22499847E+01
 21
2.20369465E+02
  0
LINE
  8
0
 62
7
 10
8.22499847E+01
 20
1.96360889E+02
 11
8.22499847E+01
 21
2.20378040E+02
  0
LINE
  8
0
 62
7
 10
8.20086890E+01
 20
2.20627891E+02
 11
7.42499600E+01
 21
2.20898832E+02
  0
LINE
  8
0
 62
7
 10
8.20087085E+01
 20
1.96111082E+02
 11
7.42499794E+01
 21
1.95840141E+02
  0
ARC
  8
0
 62
7
 10
-1.10249985E+02
 20
1.96869480E+02
 40
5.00000000E-01
 50
1.79999981E+02
 51
2.69999963E+02
  0
CIRCLE
  8
0
 62
7
 10
-7.02499847E+01
 20
2.01369465E+02
 40
4.00000000E+00
  0
ARC
  8
0
 62
7
 10
-1.10249985E+02
 20
2.19869449E+02
 40
5.00000000E-01
 50
8.99999818E+01
 51
1.79999964E+02
  0
CIRCLE
  8
0
 62
7
 10
-7.97499847E+01
 20
2.11369465E+02
 40
4.28299999E+00
  0
CIRCLE
  8
0
 62
2
 10
-7.97499847E+01
 20
2.11369465E+02
 40
4.86399984E+00
  0
ARC
  8
0
 62
7
 10
-9.52499847E+01
 20
1.87869495E+02
 40
5.00000000E-01
 50
1.79999981E+02
 51
2.70000018E+02
  0
ARC
  8
0
 62
7
 10
-9.52499847E+01
 20
1.87668384E+02
 40
5.00000000E-01
 50
1.79999981E+02
 51
2.68499535E+02
  0
ARC
  8
0
 62
7
 10
-9.52499847E+01
 20
2.28869465E+02
 40
5.00000000E-01
 50
8.99999818E+01
 51
1.79999964E+02
  0
ARC
  8
0
 62
7
 10
-9.52499847E+01
 20
2.29070514E+02
 40
5.00000000E-01
 50
9.15004655E+01
 51
1.79999964E+02
  0
ARC
  8
0
 62
7
 10
-7.37499847E+01
 20
2.19369465E+02
 40
1.00000000E+00
 50
2.70000018E+02
 51
0.00000000E+00
  0
ARC
  8
0
 62
7
 10
-7.17499847E+01
 20
2.24369465E+02
 40
1.00000000E+00
 50
8.99999818E+01
 51
1.79999964E+02
  0
ARC
  8
0
 62
7
 10
-8.97499847E+01
 20
2.17369465E+02
 40
1.00000000E+00
 50
8.99999818E+01
 51
1.79999964E+02
  0
ARC
  8
0
 62
7
 10
-8.97499847E+01
 20
1.99369465E+02
 40
1.00000000E+00
 50
1.79999981E+02
 51
2.69999963E+02
  0
ARC
  8
0
 62
7
 10
-7.37499847E+01
 20
1.97369465E+02
 40
1.00000000E+00
 50
3.59999945E+02
 51
8.99999274E+01
  0
ARC
  8
0
 62
7
 10
-7.17499847E+01
 20
1.92369465E+02
 40
1.00000000E+00
 50
1.79999981E+02
 51
2.69999963E+02
  0
ARC
  8
0
 62
7
 10
-9.72499847E+01
 20
1.95869480E+02
 40
5.00000000E-01
 50
1.79999981E+02
 51
2.69999963E+02
  0
ARC
  8
0
 62
7
 10
-1.05499985E+02
 20
1.96360889E+02
 40
2.50000000E-01
 50
1.79999981E+02
 51
2.67999203E+02
  0
ARC
  8
0
 62
7
 10
-1.05499985E+02
 20
2.20378040E+02
 40
2.50000000E-01
 50
9.20007424E+01
 51
1.79999964E+02
  0
ARC
  8
0
 62
7
 10
-9.72499847E+01
 20
2.20869449E+02
 40
5.00000000E-01
 50
8.99999818E+01
 51
1.79999964E+02
  0
ARC
  8
0
 62
7
 10
5.02499847E+01
 20
1.97369465E+02
 40
1.00000000E+00
 50
9.00000913E+01
 51
1.80000073E+02
  0
ARC
  8
0
 62
7
 10
6.62499847E+01
 20
1.99369465E+02
 40
1.00000000E+00
 50
2.70000073E+02
 51
5.46415133E-05
  0
ARC
  8
0
 62
7
 10
6.62499847E+01
 20
2.17369465E+02
 40
1.00000000E+00
 50
5.46415133E-05
 51
9.00000369E+01
  0
ARC
  8
0
 62
7
 10
4.82499847E+01
 20
1.92369465E+02
 40
1.00000000E+00
 50
2.70000073E+02
 51
5.46415133E-05
  0
ARC
  8
0
 62
7
 10
7.37499847E+01
 20
1.95869480E+02
 40
5.00000000E-01
 50
2.70000073E+02
 51
5.46415133E-05
  0
ARC
  8
0
 62
7
 10
7.37499847E+01
 20
2.20869449E+02
 40
5.00000000E-01
 50
5.46415133E-05
 51
9.00000369E+01
  0
CIRCLE
  8
0
 62
7
 10
4.67499847E+01
 20
2.01369465E+02
 40
4.00000000E+00
  0
CIRCLE
  8
0
 62
7
 10
5.62499847E+01
 20
2.11369465E+02
 40
4.28299999E+00
  0
CIRCLE
  8
0
 62
2
 10
5.62499847E+01
 20
2.11369465E+02
 40
4.86399984E+00
  0
ARC
  8
0
 62
7
 10
7.17499847E+01
 20
1.87869495E+02
 40
5.00000000E-01
 50
2.70000018E+02
 51
5.46415133E-05
  0
ARC
  8
0
 62
7
 10
7.17499847E+01
 20
1.87668384E+02
 40
5.00000000E-01
 50
2.71500501E+02
 51
5.46415133E-05
  0
ARC
  8
0
 62
7
 10
7.17499847E+01
 20
2.28869465E+02
 40
5.00000000E-01
 50
5.46415133E-05
 51
9.00000369E+01
  0
ARC
  8
0
 62
7
 10
7.17499847E+01
 20
2.29070514E+02
 40
5.00000000E-01
 50
5.46415133E-05
 51
8.84995532E+01
  0
ARC
  8
0
 62
7
 10
5.02499847E+01
 20
2.19369465E+02
 40
1.00000000E+00
 50
1.80000036E+02
 51
2.70000018E+02
  0
ARC
  8
0
 62
7
 10
4.82499847E+01
 20
2.24369465E+02
 40
1.00000000E+00
 50
5.46415133E-05
 51
9.00000369E+01
  0
CIRCLE
  8
0
 62
7
 10
-7.02499847E+01
 20
2.01369465E+02
 40
2.09999990E+00
  0
CIRCLE
  8
0
 62
7
 10
4.67499847E+01
 20
2.01369465E+02
 40
2.09999990E+00
  0
ARC
  8
0
 62
7
 10
8.67499847E+01
 20
1.96869480E+02
 40
5.00000000E-01
 50
2.70000038E+02
 51
1.86693353E-05
  0
ARC
  8
0
 62
7
 10
8.67499847E+01
 20
2.19869449E+02
 40
5.00000000E-01
 50
3.59721781E-05
 51
9.00000162E+01
  0
ARC
  8
0
 62
7
 10
8.19999847E+01
 20
1.96360889E+02
 40
2.50000000E-01
 50
2.72000799E+02
 51
1.86693353E-05
  0
ARC
  8
0
 62
7
 10
8.19999847E+01
 20
2.20378040E+02
 40
2.50000000E-01
 50
3.59721781E-05
 51
8.79992556E+01
  0
LINE
  8
0
 62
4
 10
1.56749985E+02
 20
1.99869465E+02
 11
1.62749985E+02
 21
1.99869465E+02
  0
LINE
  8
0
 62
4
 10
1.56749985E+02
 20
2.16869465E+02
 11
1.62749985E+02
 21
2.16869465E+02
  0
LINE
  8
0
 62
4
 10
1.56749985E+02
 20
2.16869465E+02
 11
1.56749985E+02
 21
1.99869465E+02
  0
LINE
  8
0
 62
4
 10
1.62749985E+02
 20
2.16869465E+02
 11
1.62749985E+02
 21
1.99869465E+02
  0
LINE
  8
0
 62
4
 10
1.57509174E+02
 20
2.08369465E+02
 11
1.61990795E+02
 21
2.08369465E+02
  0
ARC
  8
0
 62
4
 10
1.69025491E+02
 20
2.04119465E+02
 40
1.22755063E+01
 50
1.59743841E+02
 51
2.00256159E+02
  0
ARC
  8
0
 62
4
 10
1.69025491E+02
 20
2.12619465E+02
 40
1.22755063E+01
 50
1.59743841E+02
 51
2.00256159E+02
  0
ARC
  8
0
 62
4
 10
1.50474478E+02
 20
2.12619465E+02
 40
1.22755064E+01
 50
3.39743842E+02
 51
2.02561585E+01
  0
ARC
  8
0
 62
4
 10
1.50474478E+02
 20
2.04119465E+02
 40
1.22755064E+01
 50
3.39743842E+02
 51
2.02561585E+01
  0
LINE
  8
0
 62
4
 10
-1.36249985E+02
 20
1.99869465E+02
 11
-1.30249985E+02
 21
1.99869465E+02
  0
LINE
  8
0
 62
4
 10
-1.36249985E+02
 20
2.16869465E+02
 11
-1.30249985E+02
 21
2.16869465E+02
  0
LINE
  8
0
 62
4
 10
-1.36249985E+02
 20
2.16869465E+02
 11
-1.36249985E+02
 21
1.99869465E+02
  0
LINE
  8
0
 62
4
 10
-1.30249985E+02
 20
2.16869465E+02
 11
-1.30249985E+02
 21
1.99869465E+02
  0
LINE
  8
0
 62
4
 10
-1.35490795E+02
 20
2.08369465E+02
 11
-1.31009174E+02
 21
2.08369465E+02
  0
ARC
  8
0
 62
4
 10
-1.23974478E+02
 20
2.04119465E+02
 40
1.22755063E+01
 50
1.59743841E+02
 51
2.00256159E+02
  0
ARC
  8
0
 62
4
 10
-1.23974478E+02
 20
2.12619465E+02
 40
1.22755063E+01
 50
1.59743841E+02
 51
2.00256159E+02
  0
ARC
  8
0
 62
4
 10
-1.42525491E+02
 20
2.12619465E+02
 40
1.22755064E+01
 50
3.39743842E+02
 51
2.02561585E+01
  0
ARC
  8
0
 62
4
 10
-1.42525491E+02
 20
2.04119465E+02
 40
1.22755064E+01
 50
3.39743842E+02
 51
2.02561585E+01
  0
LINE
  8
0
 62
7
 10
-1.30249985E+02
 20
2.13369526E+02
 11
-1.23749985E+02
 21
2.13369526E+02
  0
LINE
  8
0
 62
2
 10
-1.30249985E+02
 20
2.12669514E+02
 11
-1.23749985E+02
 21
2.12669514E+02
  0
LINE
  8
0
 62
7
 10
-1.30249985E+02
 20
2.03369480E+02
 11
-1.23749985E+02
 21
2.03369480E+02
  0
LINE
  8
0
 62
2
 10
-1.30249985E+02
 20
2.04069492E+02
 11
-1.23749985E+02
 21
2.04069492E+02
  0
LINE
  8
0
 62
7
 10
1.56749985E+02
 20
2.13369526E+02
 11
1.50249985E+02
 21
2.13369526E+02
  0
LINE
  8
0
 62
2
 10
1.56749985E+02
 20
2.12669514E+02
 11
1.50249985E+02
 21
2.12669514E+02
  0
LINE
  8
0
 62
7
 10
1.56749985E+02
 20
2.03369480E+02
 11
1.50249985E+02
 21
2.03369480E+02
  0
LINE
  8
0
 62
2
 10
1.56749985E+02
 20
2.04069492E+02
 11
1.50249985E+02
 21
2.04069492E+02
  0
LINE
  8
0
 62
4
 10
-2.92499848E+01
 20
2.35752684E+02
 11
-2.92499848E+01
 21
2.32760636E+02
  0
LINE
  8
0
 62
6
 10
-2.87499848E+01
 20
2.35767957E+02
 11
-2.87499848E+01
 21
2.32760636E+02
  0
LINE
  8
0
 62
4
 10
-2.52499848E+01
 20
2.35752684E+02
 11
-2.52499848E+01
 21
2.32760636E+02
  0
LINE
  8
0
 62
6
 10
-2.57499848E+01
 20
2.35767957E+02
 11
-2.57499848E+01
 21
2.32760636E+02
  0
LINE
  8
0
  6
CENTER
 62
6
 10
-3.52499847E+01
 20
2.38485044E+02
 11
-3.52499847E+01
 21
2.28219465E+02
  0
LINE
  8
0
  6
CENTER
 62
6
 10
-2.72499847E+01
 20
2.38485044E+02
 11
-2.72499847E+01
 21
2.28219465E+02
  0
LINE
  8
0
 62
4
 10
-3.32499848E+01
 20
2.35752684E+02
 11
-3.32499848E+01
 21
2.32760636E+02
  0
LINE
  8
0
 62
4
 10
-3.72499848E+01
 20
2.35752684E+02
 11
-3.72499848E+01
 21
2.32760636E+02
  0
LINE
  8
0
 62
6
 10
-3.37499848E+01
 20
2.35767957E+02
 11
-3.37499848E+01
 21
2.32760636E+02
  0
LINE
  8
0
 62
6
 10
-3.67499848E+01
 20
2.35767957E+02
 11
-3.67499848E+01
 21
2.32760636E+02
  0
LINE
  8
0
  6
CENTER
 62
6
 10
-5.87499848E+01
 20
2.08796097E+02
 11
-1.17499847E+01
 21
2.08796097E+02
  0
LINE
  8
0
 62
6
 10
-3.01796443E+00
 20
2.10942863E+02
 11
-6.48206604E+00
 21
2.04942863E+02
  0
LINE
  8
0
  6
CENTER
 62
6
 10
4.02499848E+01
 20
2.07942863E+02
 11
-6.75001526E+00
 21
2.07942863E+02
  0
LINE
  8
0
 62
4
 10
5.24998474E+00
 20
2.09442863E+02
 11
-3.88398986E+00
 21
2.09442863E+02
  0
LINE
  8
0
 62
4
 10
5.24998474E+00
 20
2.06442863E+02
 11
-5.61604066E+00
 21
2.06442863E+02
  0
LINE
  8
0
 62
6
 10
-1.54820356E+01
 20
2.05796097E+02
 11
-1.20179340E+01
 21
2.11796097E+02
  0
LINE
  8
0
 62
4
 10
-2.37499847E+01
 20
2.07296097E+02
 11
-1.46160101E+01
 21
2.07296097E+02
  0
LINE
  8
0
 62
4
 10
-2.37499847E+01
 20
2.10296097E+02
 11
-1.28839593E+01
 21
2.10296097E+02
  0
ARC
  8
0
 62
4
 10
2.02654613E+01
 20
2.00737030E+02
 40
1.18100000E+01
 50
6.94673007E+01
 51
9.00000002E+01
  0
ARC
  8
0
 62
4
 10
2.02499847E+01
 20
2.00737030E+02
 40
1.18100000E+01
 50
9.00000002E+01
 51
1.10273888E+02
  0
LINE
  8
0
 62
4
 10
2.44077230E+01
 20
2.10037014E+02
 11
2.44077230E+01
 21
2.11796767E+02
  0
LINE
  8
0
 62
4
 10
2.42499847E+01
 20
2.09657072E+02
 11
2.42499847E+01
 21
2.10031616E+02
  0
LINE
  8
0
 62
4
 10
9.34998474E+00
 20
2.10566218E+02
 11
9.34998474E+00
 21
2.11727269E+02
  0
LINE
  8
0
 62
4
 10
1.61499847E+01
 20
2.10566218E+02
 11
1.61499847E+01
 21
2.11727269E+02
  0
ARC
  8
0
 62
4
 10
1.27499847E+01
 20
2.01187858E+02
 40
1.18100000E+01
 50
7.71724899E+01
 51
1.02827510E+02
  0
ARC
  8
0
 62
4
 10
1.03499844E+01
 20
2.11728072E+02
 40
1.00000000E+00
 50
1.02827510E+02
 51
1.80000000E+02
  0
ARC
  8
0
 62
4
 10
1.51499851E+01
 20
2.11728072E+02
 40
1.00000000E+00
 50
3.60000000E+02
 51
7.71724899E+01
  0
LINE
  8
0
 62
4
 10
8.94998474E+00
 20
2.09595988E+02
 11
8.94998474E+00
 21
2.10566218E+02
  0
LINE
  8
0
 62
4
 10
1.65499847E+01
 20
2.09595988E+02
 11
1.65499847E+01
 21
2.10566218E+02
  0
LINE
  8
0
 62
6
 10
1.82499848E+01
 20
1.80971002E+02
 11
1.82499848E+01
 21
1.83978324E+02
  0
LINE
  8
0
 62
6
 10
1.52499848E+01
 20
1.80971002E+02
 11
1.52499848E+01
 21
1.83978324E+02
  0
LINE
  8
0
 62
4
 10
1.87499848E+01
 20
1.80986276E+02
 11
1.87499848E+01
 21
1.83978324E+02
  0
LINE
  8
0
 62
4
 10
1.47499848E+01
 20
1.80986276E+02
 11
1.47499848E+01
 21
1.83978324E+02
  0
LINE
  8
0
 62
4
 10
2.02499847E+01
 20
1.83978324E+02
 11
2.02499847E+01
 21
1.99219021E+02
  0
LINE
  8
0
 62
4
 10
5.24998474E+00
 20
1.83978324E+02
 11
5.24998474E+00
 21
2.09796691E+02
  0
LINE
  8
0
 62
4
 10
3.52499847E+01
 20
1.98967428E+02
 11
3.52499847E+01
 21
2.09977463E+02
  0
LINE
  8
0
  6
CENTER
 62
6
 10
8.74998471E+00
 20
1.78253916E+02
 11
8.74998471E+00
 21
1.88519495E+02
  0
LINE
  8
0
  6
CENTER
 62
6
 10
1.67499847E+01
 20
1.78253916E+02
 11
1.67499847E+01
 21
1.88519495E+02
  0
LINE
  8
0
  6
CENTER
 62
6
 10
1.27499847E+01
 20
2.07819495E+02
 11
1.27499847E+01
 21
2.11819495E+02
  0
LINE
  8
0
  6
CENTER
 62
6
 10
2.77499847E+01
 20
2.07819495E+02
 11
2.77499847E+01
 21
2.11819495E+02
  0
LINE
  8
0
  6
CENTER
 62
6
 10
2.02499847E+01
 20
2.07819495E+02
 11
2.02499847E+01
 21
2.11819495E+02
  0
LINE
  8
0
 62
4
 10
3.67499847E+01
 20
2.06788314E+02
 11
3.67499847E+01
 21
2.09092499E+02
  0
ARC
  8
0
 62
4
 10
1.67499848E+01
 20
2.38267514E+02
 40
5.73161426E+01
 50
2.68000305E+02
 51
2.71999695E+02
  0
LINE
  8
0
 62
6
 10
7.24998477E+00
 20
1.80971002E+02
 11
7.24998477E+00
 21
1.83978324E+02
  0
LINE
  8
0
 62
4
 10
6.74998477E+00
 20
1.80986276E+02
 11
6.74998477E+00
 21
1.83978324E+02
  0
ARC
  8
0
 62
4
 10
8.74998477E+00
 20
2.38267514E+02
 40
5.73161426E+01
 50
2.68000305E+02
 51
2.71999695E+02
  0
LINE
  8
0
 62
6
 10
1.02499848E+01
 20
1.80971002E+02
 11
1.02499848E+01
 21
1.83978324E+02
  0
LINE
  8
0
 62
4
 10
1.07499848E+01
 20
1.80986276E+02
 11
1.07499848E+01
 21
1.83978324E+02
  0
LINE
  8
0
 62
4
 10
2.02499847E+01
 20
1.83978324E+02
 11
5.24998474E+00
 21
1.83978324E+02
  0
LINE
  8
0
 62
4
 10
2.02499847E+01
 20
1.92220087E+02
 11
5.24998474E+00
 21
1.92220087E+02
  0
LINE
  8
0
 62
4
 10
3.52499847E+01
 20
1.99219021E+02
 11
5.24998474E+00
 21
1.99219021E+02
  0
LINE
  8
0
 62
4
 10
3.52499847E+01
 20
2.09517453E+02
 11
5.24998474E+00
 21
2.09517453E+02
  0
LINE
  8
0
 62
4
 10
3.52499847E+01
 20
2.09796691E+02
 11
2.42499847E+01
 21
2.09796691E+02
  0
LINE
  8
0
 62
4
 10
3.52499847E+01
 20
1.98967428E+02
 11
2.02499847E+01
 21
1.98967428E+02
  0
LINE
  8
0
 62
4
 10
3.52499847E+01
 20
2.05908263E+02
 11
3.67499847E+01
 21
2.06788314E+02
  0
LINE
  8
0
 62
4
 10
3.52499847E+01
 20
2.09907653E+02
 11
3.67499847E+01
 21
2.09052969E+02
  0
LINE
  8
0
 62
4
 10
3.67499847E+01
 20
2.09092499E+02
 11
3.52499847E+01
 21
2.09977463E+02
  0
LINE
  8
0
 62
4
 10
3.52499847E+01
 20
2.09977463E+02
 11
2.42499847E+01
 21
2.09977463E+02
  0
ARC
  8
0
 62
4
 10
2.02538539E+01
 20
3.29117322E+02
 40
1.19152736E+02
 50
2.68218671E+02
 51
2.71997834E+02
  0
POLYLINE
  8
0
 62
4
 66
1
  0
VERTEX
  8
0
 62
4
 10
9.34998469E+00
 20
2.10625454E+02
  0
VERTEX
  8
0
 62
4
 10
9.21340303E+00
 20
2.10620098E+02
  0
VERTEX
  8
0
 62
4
 10
9.10445516E+00
 20
2.10614553E+02
  0
VERTEX
  8
0
 62
4
 10
9.02399238E+00
 20
2.10608861E+02
  0
VERTEX
  8
0
 62
4
 10
8.97264340E+00
 20
2.10603068E+02
  0
VERTEX
  8
0
 62
4
 10
8.95080945E+00
 20
2.10597218E+02
  0
VERTEX
  8
0
 62
4
 10
8.95866112E+00
 20
2.10591357E+02
  0
VERTEX
  8
0
 62
4
 10
8.99613707E+00
 20
2.10585531E+02
  0
VERTEX
  8
0
 62
4
 10
9.06294448E+00
 20
2.10579786E+02
  0
VERTEX
  8
0
 62
4
 10
9.15856132E+00
 20
2.10574166E+02
  0
VERTEX
  8
0
 62
4
 10
9.28224048E+00
 20
2.10568716E+02
  0
VERTEX
  8
0
 62
4
 10
9.43301556E+00
 20
2.10563477E+02
  0
VERTEX
  8
0
 62
4
 10
9.60970846E+00
 20
2.10558492E+02
  0
VERTEX
  8
0
 62
4
 10
9.81093854E+00
 20
2.10553798E+02
  0
VERTEX
  8
0
 62
4
 10
1.00351335E+01
 20
2.10549432E+02
  0
VERTEX
  8
0
 62
4
 10
1.02805414E+01
 20
2.10545430E+02
  0
VERTEX
  8
0
 62
4
 10
1.05452449E+01
 20
2.10541821E+02
  0
VERTEX
  8
0
 62
4
 10
1.08271755E+01
 20
2.10538634E+02
  0
VERTEX
  8
0
 62
4
 10
1.11241304E+01
 20
2.10535894E+02
  0
VERTEX
  8
0
 62
4
 10
1.14337893E+01
 20
2.10533622E+02
  0
VERTEX
  8
0
 62
4
 10
1.17537325E+01
 20
2.10531837E+02
  0
VERTEX
  8
0
 62
4
 10
1.20814601E+01
 20
2.10530551E+02
  0
VERTEX
  8
0
 62
4
 10
1.24144114E+01
 20
2.10529776E+02
  0
VERTEX
  8
0
 62
4
 10
1.27499847E+01
 20
2.10529517E+02
  0
VERTEX
  8
0
 62
4
 10
1.30855581E+01
 20
2.10529776E+02
  0
VERTEX
  8
0
 62
4
 10
1.34185093E+01
 20
2.10530551E+02
  0
VERTEX
  8
0
 62
4
 10
1.37462370E+01
 20
2.10531837E+02
  0
VERTEX
  8
0
 62
4
 10
1.40661802E+01
 20
2.10533622E+02
  0
VERTEX
  8
0
 62
4
 10
1.43758390E+01
 20
2.10535894E+02
  0
VERTEX
  8
0
 62
4
 10
1.46727939E+01
 20
2.10538634E+02
  0
VERTEX
  8
0
 62
4
 10
1.49547246E+01
 20
2.10541821E+02
  0
VERTEX
  8
0
 62
4
 10
1.52194280E+01
 20
2.10545430E+02
  0
VERTEX
  8
0
 62
4
 10
1.54648360E+01
 20
2.10549432E+02
  0
VERTEX
  8
0
 62
4
 10
1.56890309E+01
 20
2.10553798E+02
  0
VERTEX
  8
0
 62
4
 10
1.58902610E+01
 20
2.10558492E+02
  0
VERTEX
  8
0
 62
4
 10
1.60669539E+01
 20
2.10563477E+02
  0
VERTEX
  8
0
 62
4
 10
1.62177289E+01
 20
2.10568716E+02
  0
VERTEX
  8
0
 62
4
 10
1.63414081E+01
 20
2.10574166E+02
  0
VERTEX
  8
0
 62
4
 10
1.64370249E+01
 20
2.10579786E+02
  0
VERTEX
  8
0
 62
4
 10
1.65038323E+01
 20
2.10585531E+02
  0
VERTEX
  8
0
 62
4
 10
1.65413083E+01
 20
2.10591357E+02
  0
VERTEX
  8
0
 62
4
 10
1.65491599E+01
 20
2.10597218E+02
  0
VERTEX
  8
0
 62
4
 10
1.65273260E+01
 20
2.10603068E+02
  0
VERTEX
  8
0
 62
4
 10
1.64759770E+01
 20
2.10608861E+02
  0
VERTEX
  8
0
 62
4
 10
1.63955142E+01
 20
2.10614553E+02
  0
VERTEX
  8
0
 62
4
 10
1.62865664E+01
 20
2.10620098E+02
  0
VERTEX
  8
0
 62
4
 10
1.61499847E+01
 20
2.10625454E+02
  0
SEQEND
  8
0
  0
POLYLINE
  8
0
 62
4
 66
1
  0
VERTEX
  8
0
 62
4
 10
8.94998470E+00
 20
2.09595988E+02
  0
VERTEX
  8
0
 62
4
 10
8.96528238E+00
 20
2.09590043E+02
  0
VERTEX
  8
0
 62
4
 10
9.01105226E+00
 20
2.09584146E+02
  0
VERTEX
  8
0
 62
4
 10
9.08692583E+00
 20
2.09578345E+02
  0
VERTEX
  8
0
 62
4
 10
9.19229219E+00
 20
2.09572685E+02
  0
VERTEX
  8
0
 62
4
 10
9.32630300E+00
 20
2.09567213E+02
  0
VERTEX
  8
0
 62
4
 10
9.48787928E+00
 20
2.09561973E+02
  0
VERTEX
  8
0
 62
4
 10
9.67572011E+00
 20
2.09557007E+02
  0
VERTEX
  8
0
 62
4
 10
9.88831312E+00
 20
2.09552354E+02
  0
VERTEX
  8
0
 62
4
 10
1.01239466E+01
 20
2.09548053E+02
  0
VERTEX
  8
0
 62
4
 10
1.03807234E+01
 20
2.09544138E+02
  0
VERTEX
  8
0
 62
4
 10
1.06565762E+01
 20
2.09540640E+02
  0
VERTEX
  8
0
 62
4
 10
1.09492838E+01
 20
2.09537588E+02
  0
VERTEX
  8
0
 62
4
 10
1.12564896E+01
 20
2.09535006E+02
  0
VERTEX
  8
0
 62
4
 10
1.15757201E+01
 20
2.09532915E+02
  0
VERTEX
  8
0
 62
4
 10
1.19044051E+01
 20
2.09531332E+02
  0
VERTEX
  8
0
 62
4
 10
1.22398983E+01
 20
2.09530269E+02
  0
VERTEX
  8
0
 62
4
 10
1.25794983E+01
 20
2.09529736E+02
  0
VERTEX
  8
0
 62
4
 10
1.29204710E+01
 20
2.09529736E+02
  0
VERTEX
  8
0
 62
4
 10
1.32600711E+01
 20
2.09530269E+02
  0
VERTEX
  8
0
 62
4
 10
1.35955642E+01
 20
2.09531332E+02
  0
VERTEX
  8
0
 62
4
 10
1.39242493E+01
 20
2.09532915E+02
  0
VERTEX
  8
0
 62
4
 10
1.42434798E+01
 20
2.09535006E+02
  0
VERTEX
  8
0
 62
4
 10
1.45506856E+01
 20
2.09537588E+02
  0
VERTEX
  8
0
 62
4
 10
1.48433932E+01
 20
2.09540640E+02
  0
VERTEX
  8
0
 62
4
 10
1.51192459E+01
 20
2.09544138E+02
  0
VERTEX
  8
0
 62
4
 10
1.53760227E+01
 20
2.09548053E+02
  0
VERTEX
  8
0
 62
4
 10
1.56116563E+01
 20
2.09552354E+02
  0
VERTEX
  8
0
 62
4
 10
1.58242493E+01
 20
2.09557007E+02
  0
VERTEX
  8
0
 62
4
 10
1.60120901E+01
 20
2.09561973E+02
  0
VERTEX
  8
0
 62
4
 10
1.61736664E+01
 20
2.09567213E+02
  0
VERTEX
  8
0
 62
4
 10
1.63076772E+01
 20
2.09572685E+02
  0
VERTEX
  8
0
 62
4
 10
1.64130436E+01
 20
2.09578345E+02
  0
VERTEX
  8
0
 62
4
 10
1.64889171E+01
 20
2.09584146E+02
  0
VERTEX
  8
0
 62
4
 10
1.65346870E+01
 20
2.09590043E+02
  0
VERTEX
  8
0
 62
4
 10
1.65499847E+01
 20
2.09595988E+02
  0
SEQEND
  8
0
  0
LINE
  8
0
 62
4
 10
8.94998474E+00
 20
2.09796691E+02
 11
5.24998474E+00
 21
2.09796691E+02
  0
POLYLINE
  8
0
 62
4
 66
1
  0
VERTEX
  8
0
 62
4
 10
1.65499847E+01
 20
2.09630547E+02
  0
VERTEX
  8
0
 62
4
 10
1.66992927E+01
 20
2.09624926E+02
  0
VERTEX
  8
0
 62
4
 10
1.68765613E+01
 20
2.09619559E+02
  0
VERTEX
  8
0
 62
4
 10
1.70803948E+01
 20
2.09614488E+02
  0
VERTEX
  8
0
 62
4
 10
1.73091879E+01
 20
2.09609751E+02
  0
VERTEX
  8
0
 62
4
 10
1.75611389E+01
 20
2.09605388E+02
  0
VERTEX
  8
0
 62
4
 10
1.78342639E+01
 20
2.09601431E+02
  0
VERTEX
  8
0
 62
4
 10
1.81264120E+01
 20
2.09597913E+02
  0
VERTEX
  8
0
 62
4
 10
1.84352826E+01
 20
2.09594860E+02
  0
VERTEX
  8
0
 62
4
 10
1.87584435E+01
 20
2.09592297E+02
  0
VERTEX
  8
0
 62
4
 10
1.90933499E+01
 20
2.09590245E+02
  0
VERTEX
  8
0
 62
4
 10
1.94373644E+01
 20
2.09588718E+02
  0
VERTEX
  8
0
 62
4
 10
1.97877782E+01
 20
2.09587730E+02
  0
VERTEX
  8
0
 62
4
 10
2.01418316E+01
 20
2.09587288E+02
  0
VERTEX
  8
0
 62
4
 10
2.04967368E+01
 20
2.09587395E+02
  0
VERTEX
  8
0
 62
4
 10
2.08496988E+01
 20
2.09588051E+02
  0
VERTEX
  8
0
 62
4
 10
2.11979382E+01
 20
2.09589251E+02
  0
VERTEX
  8
0
 62
4
 10
2.15387128E+01
 20
2.09590985E+02
  0
VERTEX
  8
0
 62
4
 10
2.18693390E+01
 20
2.09593239E+02
  0
VERTEX
  8
0
 62
4
 10
2.21872133E+01
 20
2.09595996E+02
  0
VERTEX
  8
0
 62
4
 10
2.24898324E+01
 20
2.09599233E+02
  0
VERTEX
  8
0
 62
4
 10
2.27748133E+01
 20
2.09602927E+02
  0
VERTEX
  8
0
 62
4
 10
2.30399119E+01
 20
2.09607046E+02
  0
VERTEX
  8
0
 62
4
 10
2.32830406E+01
 20
2.09611560E+02
  0
VERTEX
  8
0
 62
4
 10
2.35022848E+01
 20
2.09616432E+02
  0
VERTEX
  8
0
 62
4
 10
2.36959181E+01
 20
2.09621624E+02
  0
VERTEX
  8
0
 62
4
 10
2.38624156E+01
 20
2.09627095E+02
  0
VERTEX
  8
0
 62
4
 10
2.40004662E+01
 20
2.09632802E+02
  0
VERTEX
  8
0
 62
4
 10
2.41089829E+01
 20
2.09638700E+02
  0
VERTEX
  8
0
 62
4
 10
2.41871109E+01
 20
2.09644743E+02
  0
VERTEX
  8
0
 62
4
 10
2.42342353E+01
 20
2.09650883E+02
  0
VERTEX
  8
0
 62
4
 10
2.42499847E+01
 20
2.09657072E+02
  0
SEQEND
  8
0
  0
ARC
  8
0
 62
4
 10
-3.87654613E+01
 20
2.16001930E+02
 40
1.18100000E+01
 50
2.49467301E+02
 51
2.70000000E+02
  0
ARC
  8
0
 62
4
 10
-3.87499847E+01
 20
2.16001930E+02
 40
1.18100000E+01
 50
2.70000000E+02
 51
2.90273889E+02
  0
LINE
  8
0
 62
4
 10
-4.29077230E+01
 20
2.06701946E+02
 11
-4.29077230E+01
 21
2.04942193E+02
  0
LINE
  8
0
 62
4
 10
-4.27499847E+01
 20
2.07081888E+02
 11
-4.27499847E+01
 21
2.06707344E+02
  0
LINE
  8
0
 62
4
 10
-2.78499847E+01
 20
2.06172742E+02
 11
-2.78499847E+01
 21
2.05011691E+02
  0
LINE
  8
0
 62
4
 10
-3.46499847E+01
 20
2.06172742E+02
 11
-3.46499847E+01
 21
2.05011691E+02
  0
ARC
  8
0
 62
4
 10
-3.12499847E+01
 20
2.15551102E+02
 40
1.18100000E+01
 50
2.57172490E+02
 51
2.82827510E+02
  0
ARC
  8
0
 62
4
 10
-2.88499844E+01
 20
2.05010888E+02
 40
1.00000000E+00
 50
2.82827510E+02
 51
0.00000000E+00
  0
ARC
  8
0
 62
4
 10
-3.36499851E+01
 20
2.05010888E+02
 40
1.00000000E+00
 50
1.80000000E+02
 51
2.57172490E+02
  0
LINE
  8
0
 62
4
 10
-2.74499847E+01
 20
2.07142971E+02
 11
-2.74499847E+01
 21
2.06172742E+02
  0
LINE
  8
0
 62
4
 10
-3.50499847E+01
 20
2.07142971E+02
 11
-3.50499847E+01
 21
2.06172742E+02
  0
LINE
  8
0
 62
4
 10
-3.87499847E+01
 20
2.32760636E+02
 11
-3.87499847E+01
 21
2.17519939E+02
  0
LINE
  8
0
 62
4
 10
-2.37499847E+01
 20
2.32760636E+02
 11
-2.37499847E+01
 21
2.06942269E+02
  0
LINE
  8
0
 62
4
 10
-5.37499847E+01
 20
2.17771532E+02
 11
-5.37499847E+01
 21
2.06761497E+02
  0
LINE
  8
0
  6
CENTER
 62
6
 10
-3.12499847E+01
 20
2.08919465E+02
 11
-3.12499847E+01
 21
2.04919465E+02
  0
LINE
  8
0
  6
CENTER
 62
6
 10
-4.62499847E+01
 20
2.08919465E+02
 11
-4.62499847E+01
 21
2.04919465E+02
  0
LINE
  8
0
  6
CENTER
 62
6
 10
-3.87499847E+01
 20
2.08919465E+02
 11
-3.87499847E+01
 21
2.04919465E+02
  0
LINE
  8
0
 62
4
 10
-5.52499847E+01
 20
2.09950645E+02
 11
-5.52499847E+01
 21
2.07646461E+02
  0
LINE
  8
0
 62
4
 10
-3.87499847E+01
 20
2.32760636E+02
 11
-2.37499847E+01
 21
2.32760636E+02
  0
LINE
  8
0
 62
4
 10
-3.87499847E+01
 20
2.24518872E+02
 11
-2.37499847E+01
 21
2.24518872E+02
  0
LINE
  8
0
 62
4
 10
-5.37499847E+01
 20
2.17519939E+02
 11
-2.37499847E+01
 21
2.17519939E+02
  0
LINE
  8
0
 62
4
 10
-5.37499847E+01
 20
2.07221507E+02
 11
-2.37499847E+01
 21
2.07221507E+02
  0
LINE
  8
0
 62
4
 10
-5.37499847E+01
 20
2.06942269E+02
 11
-4.27499847E+01
 21
2.06942269E+02
  0
LINE
  8
0
 62
4
 10
-5.37499847E+01
 20
2.17771532E+02
 11
-3.87499847E+01
 21
2.17771532E+02
  0
LINE
  8
0
 62
4
 10
-5.37499847E+01
 20
2.10830697E+02
 11
-5.52499847E+01
 21
2.09950645E+02
  0
LINE
  8
0
 62
4
 10
-5.37499847E+01
 20
2.06831307E+02
 11
-5.52499847E+01
 21
2.07685990E+02
  0
LINE
  8
0
 62
4
 10
-5.52499847E+01
 20
2.07646461E+02
 11
-5.37499847E+01
 21
2.06761497E+02
  0
LINE
  8
0
 62
4
 10
-5.37499847E+01
 20
2.06761497E+02
 11
-4.27499847E+01
 21
2.06761497E+02
  0
ARC
  8
0
 62
4
 10
-3.87538539E+01
 20
8.76216377E+01
 40
1.19152736E+02
 50
8.82186710E+01
 51
9.19978341E+01
  0
POLYLINE
  8
0
 62
4
 66
1
  0
VERTEX
  8
0
 62
4
 10
-2.78499847E+01
 20
2.06113506E+02
  0
VERTEX
  8
0
 62
4
 10
-2.77134030E+01
 20
2.06118862E+02
  0
VERTEX
  8
0
 62
4
 10
-2.76044552E+01
 20
2.06124407E+02
  0
VERTEX
  8
0
 62
4
 10
-2.75239924E+01
 20
2.06130099E+02
  0
VERTEX
  8
0
 62
4
 10
-2.74726434E+01
 20
2.06135892E+02
  0
VERTEX
  8
0
 62
4
 10
-2.74508094E+01
 20
2.06141742E+02
  0
VERTEX
  8
0
 62
4
 10
-2.74586611E+01
 20
2.06147603E+02
  0
VERTEX
  8
0
 62
4
 10
-2.74961371E+01
 20
2.06153429E+02
  0
VERTEX
  8
0
 62
4
 10
-2.75629445E+01
 20
2.06159174E+02
  0
VERTEX
  8
0
 62
4
 10
-2.76585613E+01
 20
2.06164794E+02
  0
VERTEX
  8
0
 62
4
 10
-2.77822405E+01
 20
2.06170244E+02
  0
VERTEX
  8
0
 62
4
 10
-2.79330156E+01
 20
2.06175483E+02
  0
VERTEX
  8
0
 62
4
 10
-2.81097085E+01
 20
2.06180468E+02
  0
VERTEX
  8
0
 62
4
 10
-2.83109385E+01
 20
2.06185162E+02
  0
VERTEX
  8
0
 62
4
 10
-2.85351335E+01
 20
2.06189528E+02
  0
VERTEX
  8
0
 62
4
 10
-2.87805414E+01
 20
2.06193530E+02
  0
VERTEX
  8
0
 62
4
 10
-2.90452449E+01
 20
2.06197139E+02
  0
VERTEX
  8
0
 62
4
 10
-2.93271755E+01
 20
2.06200326E+02
  0
VERTEX
  8
0
 62
4
 10
-2.96241304E+01
 20
2.06203066E+02
  0
VERTEX
  8
0
 62
4
 10
-2.99337893E+01
 20
2.06205338E+02
  0
VERTEX
  8
0
 62
4
 10
-3.02537325E+01
 20
2.06207123E+02
  0
VERTEX
  8
0
 62
4
 10
-3.05814601E+01
 20
2.06208409E+02
  0
VERTEX
  8
0
 62
4
 10
-3.09144114E+01
 20
2.06209184E+02
  0
VERTEX
  8
0
 62
4
 10
-3.12499847E+01
 20
2.06209443E+02
  0
VERTEX
  8
0
 62
4
 10
-3.15855581E+01
 20
2.06209184E+02
  0
VERTEX
  8
0
 62
4
 10
-3.19185093E+01
 20
2.06208409E+02
  0
VERTEX
  8
0
 62
4
 10
-3.22462370E+01
 20
2.06207123E+02
  0
VERTEX
  8
0
 62
4
 10
-3.25661802E+01
 20
2.06205338E+02
  0
VERTEX
  8
0
 62
4
 10
-3.28758390E+01
 20
2.06203066E+02
  0
VERTEX
  8
0
 62
4
 10
-3.31727939E+01
 20
2.06200326E+02
  0
VERTEX
  8
0
 62
4
 10
-3.34547246E+01
 20
2.06197139E+02
  0
VERTEX
  8
0
 62
4
 10
-3.37194280E+01
 20
2.06193531E+02
  0
VERTEX
  8
0
 62
4
 10
-3.39648360E+01
 20
2.06189528E+02
  0
VERTEX
  8
0
 62
4
 10
-3.41890309E+01
 20
2.06185162E+02
  0
VERTEX
  8
0
 62
4
 10
-3.43902610E+01
 20
2.06180468E+02
  0
VERTEX
  8
0
 62
4
 10
-3.45669539E+01
 20
2.06175483E+02
  0
VERTEX
  8
0
 62
4
 10
-3.47177289E+01
 20
2.06170244E+02
  0
VERTEX
  8
0
 62
4
 10
-3.48414081E+01
 20
2.06164794E+02
  0
VERTEX
  8
0
 62
4
 10
-3.49370249E+01
 20
2.06159174E+02
  0
VERTEX
  8
0
 62
4
 10
-3.50038323E+01
 20
2.06153429E+02
  0
VERTEX
  8
0
 62
4
 10
-3.50413083E+01
 20
2.06147603E+02
  0
VERTEX
  8
0
 62
4
 10
-3.50491600E+01
 20
2.06141742E+02
  0
VERTEX
  8
0
 62
4
 10
-3.50273260E+01
 20
2.06135892E+02
  0
VERTEX
  8
0
 62
4
 10
-3.49759770E+01
 20
2.06130099E+02
  0
VERTEX
  8
0
 62
4
 10
-3.48955142E+01
 20
2.06124407E+02
  0
VERTEX
  8
0
 62
4
 10
-3.47865664E+01
 20
2.06118862E+02
  0
VERTEX
  8
0
 62
4
 10
-3.46499847E+01
 20
2.06113506E+02
  0
SEQEND
  8
0
  0
POLYLINE
  8
0
 62
4
 66
1
  0
VERTEX
  8
0
 62
4
 10
-2.74499847E+01
 20
2.07142971E+02
  0
VERTEX
  8
0
 62
4
 10
-2.74652824E+01
 20
2.07148916E+02
  0
VERTEX
  8
0
 62
4
 10
-2.75110523E+01
 20
2.07154813E+02
  0
VERTEX
  8
0
 62
4
 10
-2.75869258E+01
 20
2.07160614E+02
  0
VERTEX
  8
0
 62
4
 10
-2.76922922E+01
 20
2.07166274E+02
  0
VERTEX
  8
0
 62
4
 10
-2.78263030E+01
 20
2.07171746E+02
  0
VERTEX
  8
0
 62
4
 10
-2.79878793E+01
 20
2.07176986E+02
  0
VERTEX
  8
0
 62
4
 10
-2.81757201E+01
 20
2.07181952E+02
  0
VERTEX
  8
0
 62
4
 10
-2.83883131E+01
 20
2.07186605E+02
  0
VERTEX
  8
0
 62
4
 10
-2.86239466E+01
 20
2.07190906E+02
  0
VERTEX
  8
0
 62
4
 10
-2.88807234E+01
 20
2.07194821E+02
  0
VERTEX
  8
0
 62
4
 10
-2.91565762E+01
 20
2.07198319E+02
  0
VERTEX
  8
0
 62
4
 10
-2.94492838E+01
 20
2.07201371E+02
  0
VERTEX
  8
0
 62
4
 10
-2.97564896E+01
 20
2.07203953E+02
  0
VERTEX
  8
0
 62
4
 10
-3.00757201E+01
 20
2.07206044E+02
  0
VERTEX
  8
0
 62
4
 10
-3.04044051E+01
 20
2.07207627E+02
  0
VERTEX
  8
0
 62
4
 10
-3.07398983E+01
 20
2.07208690E+02
  0
VERTEX
  8
0
 62
4
 10
-3.10794983E+01
 20
2.07209223E+02
  0
VERTEX
  8
0
 62
4
 10
-3.14204710E+01
 20
2.07209223E+02
  0
VERTEX
  8
0
 62
4
 10
-3.17600711E+01
 20
2.07208690E+02
  0
VERTEX
  8
0
 62
4
 10
-3.20955642E+01
 20
2.07207627E+02
  0
VERTEX
  8
0
 62
4
 10
-3.24242493E+01
 20
2.07206044E+02
  0
VERTEX
  8
0
 62
4
 10
-3.27434798E+01
 20
2.07203953E+02
  0
VERTEX
  8
0
 62
4
 10
-3.30506856E+01
 20
2.07201371E+02
  0
VERTEX
  8
0
 62
4
 10
-3.33433932E+01
 20
2.07198319E+02
  0
VERTEX
  8
0
 62
4
 10
-3.36192459E+01
 20
2.07194821E+02
  0
VERTEX
  8
0
 62
4
 10
-3.38760227E+01
 20
2.07190906E+02
  0
VERTEX
  8
0
 62
4
 10
-3.41116563E+01
 20
2.07186605E+02
  0
VERTEX
  8
0
 62
4
 10
-3.43242493E+01
 20
2.07181952E+02
  0
VERTEX
  8
0
 62
4
 10
-3.45120901E+01
 20
2.07176986E+02
  0
VERTEX
  8
0
 62
4
 10
-3.46736664E+01
 20
2.07171746E+02
  0
VERTEX
  8
0
 62
4
 10
-3.48076772E+01
 20
2.07166274E+02
  0
VERTEX
  8
0
 62
4
 10
-3.49130436E+01
 20
2.07160614E+02
  0
VERTEX
  8
0
 62
4
 10
-3.49889171E+01
 20
2.07154813E+02
  0
VERTEX
  8
0
 62
4
 10
-3.50346870E+01
 20
2.07148916E+02
  0
VERTEX
  8
0
 62
4
 10
-3.50499847E+01
 20
2.07142971E+02
  0
SEQEND
  8
0
  0
LINE
  8
0
 62
4
 10
-2.74499847E+01
 20
2.06942269E+02
 11
-2.37499847E+01
 21
2.06942269E+02
  0
POLYLINE
  8
0
 62
4
 66
1
  0
VERTEX
  8
0
 62
4
 10
-3.50499847E+01
 20
2.07108413E+02
  0
VERTEX
  8
0
 62
4
 10
-3.51992927E+01
 20
2.07114034E+02
  0
VERTEX
  8
0
 62
4
 10
-3.53765613E+01
 20
2.07119401E+02
  0
VERTEX
  8
0
 62
4
 10
-3.55803948E+01
 20
2.07124472E+02
  0
VERTEX
  8
0
 62
4
 10
-3.58091879E+01
 20
2.07129209E+02
  0
VERTEX
  8
0
 62
4
 10
-3.60611389E+01
 20
2.07133572E+02
  0
VERTEX
  8
0
 62
4
 10
-3.63342639E+01
 20
2.07137529E+02
  0
VERTEX
  8
0
 62
4
 10
-3.66264120E+01
 20
2.07141047E+02
  0
VERTEX
  8
0
 62
4
 10
-3.69352826E+01
 20
2.07144100E+02
  0
VERTEX
  8
0
 62
4
 10
-3.72584435E+01
 20
2.07146663E+02
  0
VERTEX
  8
0
 62
4
 10
-3.75933499E+01
 20
2.07148715E+02
  0
VERTEX
  8
0
 62
4
 10
-3.79373644E+01
 20
2.07150242E+02
  0
VERTEX
  8
0
 62
4
 10
-3.82877782E+01
 20
2.07151230E+02
  0
VERTEX
  8
0
 62
4
 10
-3.86418316E+01
 20
2.07151672E+02
  0
VERTEX
  8
0
 62
4
 10
-3.89967368E+01
 20
2.07151565E+02
  0
VERTEX
  8
0
 62
4
 10
-3.93496988E+01
 20
2.07150909E+02
  0
VERTEX
  8
0
 62
4
 10
-3.96979382E+01
 20
2.07149709E+02
  0
VERTEX
  8
0
 62
4
 10
-4.00387128E+01
 20
2.07147975E+02
  0
VERTEX
  8
0
 62
4
 10
-4.03693390E+01
 20
2.07145721E+02
  0
VERTEX
  8
0
 62
4
 10
-4.06872133E+01
 20
2.07142964E+02
  0
VERTEX
  8
0
 62
4
 10
-4.09898324E+01
 20
2.07139727E+02
  0
VERTEX
  8
0
 62
4
 10
-4.12748133E+01
 20
2.07136033E+02
  0
VERTEX
  8
0
 62
4
 10
-4.15399119E+01
 20
2.07131914E+02
  0
VERTEX
  8
0
 62
4
 10
-4.17830406E+01
 20
2.07127400E+02
  0
VERTEX
  8
0
 62
4
 10
-4.20022848E+01
 20
2.07122528E+02
  0
VERTEX
  8
0
 62
4
 10
-4.21959181E+01
 20
2.07117336E+02
  0
VERTEX
  8
0
 62
4
 10
-4.23624156E+01
 20
2.07111865E+02
  0
VERTEX
  8
0
 62
4
 10
-4.25004662E+01
 20
2.07106158E+02
  0
VERTEX
  8
0
 62
4
 10
-4.26089829E+01
 20
2.07100260E+02
  0
VERTEX
  8
0
 62
4
 10
-4.26871109E+01
 20
2.07094217E+02
  0
VERTEX
  8
0
 62
4
 10
-4.27342353E+01
 20
2.07088077E+02
  0
VERTEX
  8
0
 62
4
 10
-4.27499847E+01
 20
2.07081888E+02
  0
SEQEND
  8
0
  0
ARC
  8
0
 62
4
 10
-3.52499848E+01
 20
1.78471446E+02
 40
5.73161426E+01
 50
8.80003047E+01
 51
9.19996957E+01
  0
ARC
  8
0
 62
4
 10
-2.72499848E+01
 20
1.78471446E+02
 40
5.73161426E+01
 50
8.80003047E+01
 51
9.19996957E+01
  0
LINE
  8
0
 62
7
 10
-2.37499847E+01
 20
2.27519428E+02
 11
4.12499847E+01
 21
2.27519428E+02
  0
LINE
  8
0
 62
7
 10
-2.37499847E+01
 20
2.22219440E+02
 11
4.12499847E+01
 21
2.22219440E+02
  0
LINE
  8
0
 62
7
 10
2.02499847E+01
 20
1.94519489E+02
 11
4.12499847E+01
 21
1.94519489E+02
  0
LINE
  8
0
 62
7
 10
2.02499847E+01
 20
1.89219501E+02
 11
4.12499847E+01
 21
1.89219501E+02
  0
LINE
  8
0
 62
4
 10
-3.61570764E+01
 20
-1.91752847E+02
 11
-3.58899920E+01
 21
-1.91010946E+02
  0
LINE
  8
0
 62
4
 10
-2.96099920E+01
 20
-1.91010946E+02
 11
-2.93429094E+01
 21
-1.91752842E+02
  0
LINE
  8
0
 62
4
 10
-3.58899920E+01
 20
-1.91010946E+02
 11
-2.96099920E+01
 21
-1.91010946E+02
  0
LINE
  8
0
  6
CENTER
 62
6
 10
-3.27499955E+01
 20
-1.89569583E+02
 11
-3.27499897E+01
 21
-1.93600413E+02
  0
LINE
  8
0
 62
4
 10
-5.92499952E+01
 20
-1.91752864E+02
 11
-2.32499952E+01
 21
-1.91752838E+02
  0
POLYLINE
  8
0
 62
4
 66
1
  0
VERTEX
  8
0
 62
4
 10
-4.47499847E+01
 20
-1.99128465E+02
  0
VERTEX
  8
0
 62
4
 10
-4.47652059E+01
 20
-1.98780123E+02
  0
VERTEX
  8
0
 62
4
 10
-4.48107537E+01
 20
-1.98434432E+02
  0
VERTEX
  8
0
 62
4
 10
-4.48862814E+01
 20
-1.98094023E+02
  0
VERTEX
  8
0
 62
4
 10
-4.49912142E+01
 20
-1.97761487E+02
  0
VERTEX
  8
0
 62
4
 10
-4.51247536E+01
 20
-1.97439354E+02
  0
VERTEX
  8
0
 62
4
 10
-4.52858831E+01
 20
-1.97130076E+02
  0
VERTEX
  8
0
 62
4
 10
-4.54733765E+01
 20
-1.96836008E+02
  0
VERTEX
  8
0
 62
4
 10
-4.56858069E+01
 20
-1.96559386E+02
  0
VERTEX
  8
0
 62
4
 10
-4.59215576E+01
 20
-1.96302316E+02
  0
VERTEX
  8
0
 62
4
 10
-4.61788343E+01
 20
-1.96066756E+02
  0
VERTEX
  8
0
 62
4
 10
-4.64556790E+01
 20
-1.95854496E+02
  0
VERTEX
  8
0
 62
4
 10
-4.67499847E+01
 20
-1.95667154E+02
  0
VERTEX
  8
0
 62
4
 10
-4.70595117E+01
 20
-1.95506154E+02
  0
VERTEX
  8
0
 62
4
 10
-4.73819041E+01
 20
-1.95372723E+02
  0
VERTEX
  8
0
 62
4
 10
-4.77147085E+01
 20
-1.95267874E+02
  0
VERTEX
  8
0
 62
4
 10
-4.80553920E+01
 20
-1.95192407E+02
  0
VERTEX
  8
0
 62
4
 10
-4.84013617E+01
 20
-1.95146896E+02
  0
VERTEX
  8
0
 62
4
 10
-4.87499847E+01
 20
-1.95131687E+02
  0
VERTEX
  8
0
 62
4
 10
-4.90986077E+01
 20
-1.95146896E+02
  0
VERTEX
  8
0
 62
4
 10
-4.94445774E+01
 20
-1.95192407E+02
  0
VERTEX
  8
0
 62
4
 10
-4.97852609E+01
 20
-1.95267874E+02
  0
VERTEX
  8
0
 62
4
 10
-5.01180653E+01
 20
-1.95372723E+02
  0
VERTEX
  8
0
 62
4
 10
-5.04404578E+01
 20
-1.95506154E+02
  0
VERTEX
  8
0
 62
4
 10
-5.07499847E+01
 20
-1.95667154E+02
  0
VERTEX
  8
0
 62
4
 10
-5.10442904E+01
 20
-1.95854496E+02
  0
VERTEX
  8
0
 62
4
 10
-5.13211351E+01
 20
-1.96066756E+02
  0
VERTEX
  8
0
 62
4
 10
-5.15784118E+01
 20
-1.96302316E+02
  0
VERTEX
  8
0
 62
4
 10
-5.18141625E+01
 20
-1.96559386E+02
  0
VERTEX
  8
0
 62
4
 10
-5.20265929E+01
 20
-1.96836008E+02
  0
VERTEX
  8
0
 62
4
 10
-5.22140863E+01
 20
-1.97130076E+02
  0
VERTEX
  8
0
 62
4
 10
-5.23752159E+01
 20
-1.97439354E+02
  0
VERTEX
  8
0
 62
4
 10
-5.25087552E+01
 20
-1.97761487E+02
  0
VERTEX
  8
0
 62
4
 10
-5.26136880E+01
 20
-1.98094023E+02
  0
VERTEX
  8
0
 62
4
 10
-5.26892157E+01
 20
-1.98434432E+02
  0
VERTEX
  8
0
 62
4
 10
-5.27347635E+01
 20
-1.98780123E+02
  0
VERTEX
  8
0
 62
4
 10
-5.27499847E+01
 20
-1.99128465E+02
  0
VERTEX
  8
0
 62
4
 10
-5.27347635E+01
 20
-1.99476807E+02
  0
VERTEX
  8
0
 62
4
 10
-5.26892157E+01
 20
-1.99822498E+02
  0
VERTEX
  8
0
 62
4
 10
-5.26136880E+01
 20
-2.00162907E+02
  0
VERTEX
  8
0
 62
4
 10
-5.25087552E+01
 20
-2.00495443E+02
  0
VERTEX
  8
0
 62
4
 10
-5.23752158E+01
 20
-2.00817576E+02
  0
VERTEX
  8
0
 62
4
 10
-5.22140863E+01
 20
-2.01126854E+02
  0
VERTEX
  8
0
 62
4
 10
-5.20265929E+01
 20
-2.01420922E+02
  0
VERTEX
  8
0
 62
4
 10
-5.18141625E+01
 20
-2.01697544E+02
  0
VERTEX
  8
0
 62
4
 10
-5.15784118E+01
 20
-2.01954614E+02
  0
VERTEX
  8
0
 62
4
 10
-5.13211351E+01
 20
-2.02190174E+02
  0
VERTEX
  8
0
 62
4
 10
-5.10442904E+01
 20
-2.02402434E+02
  0
VERTEX
  8
0
 62
4
 10
-5.07499847E+01
 20
-2.02589776E+02
  0
VERTEX
  8
0
 62
4
 10
-5.04404577E+01
 20
-2.02750776E+02
  0
VERTEX
  8
0
 62
4
 10
-5.01180653E+01
 20
-2.02884207E+02
  0
VERTEX
  8
0
 62
4
 10
-4.97852609E+01
 20
-2.02989056E+02
  0
VERTEX
  8
0
 62
4
 10
-4.94445774E+01
 20
-2.03064523E+02
  0
VERTEX
  8
0
 62
4
 10
-4.90986077E+01
 20
-2.03110034E+02
  0
VERTEX
  8
0
 62
4
 10
-4.87499847E+01
 20
-2.03125243E+02
  0
VERTEX
  8
0
 62
4
 10
-4.84013617E+01
 20
-2.03110034E+02
  0
VERTEX
  8
0
 62
4
 10
-4.80553920E+01
 20
-2.03064523E+02
  0
VERTEX
  8
0
 62
4
 10
-4.77147085E+01
 20
-2.02989056E+02
  0
VERTEX
  8
0
 62
4
 10
-4.73819041E+01
 20
-2.02884207E+02
  0
VERTEX
  8
0
 62
4
 10
-4.70595116E+01
 20
-2.02750776E+02
  0
VERTEX
  8
0
 62
4
 10
-4.67499847E+01
 20
-2.02589776E+02
  0
VERTEX
  8
0
 62
4
 10
-4.64556789E+01
 20
-2.02402434E+02
  0
VERTEX
  8
0
 62
4
 10
-4.61788343E+01
 20
-2.02190174E+02
  0
VERTEX
  8
0
 62
4
 10
-4.59215576E+01
 20
-2.01954614E+02
  0
VERTEX
  8
0
 62
4
 10
-4.56858069E+01
 20
-2.01697544E+02
  0
VERTEX
  8
0
 62
4
 10
-4.54733765E+01
 20
-2.01420922E+02
  0
VERTEX
  8
0
 62
4
 10
-4.52858831E+01
 20
-2.01126854E+02
  0
VERTEX
  8
0
 62
4
 10
-4.51247535E+01
 20
-2.00817576E+02
  0
VERTEX
  8
0
 62
4
 10
-4.49912142E+01
 20
-2.00495443E+02
  0
VERTEX
  8
0
 62
4
 10
-4.48862814E+01
 20
-2.00162907E+02
  0
VERTEX
  8
0
 62
4
 10
-4.48107537E+01
 20
-1.99822498E+02
  0
VERTEX
  8
0
 62
4
 10
-4.47652059E+01
 20
-1.99476807E+02
  0
VERTEX
  8
0
 62
4
 10
-4.47499847E+01
 20
-1.99128465E+02
  0
SEQEND
  8
0
  0
LINE
  8
0
  6
CENTER
 62
6
 10
-4.87499847E+01
 20
-2.05408003E+02
 11
-4.87499847E+01
 21
-1.92606204E+02
  0
POLYLINE
  8
0
 62
4
 66
1
  0
VERTEX
  8
0
 62
4
 10
-5.21499471E+01
 20
-1.99075951E+02
  0
VERTEX
  8
0
 62
4
 10
-5.21384362E+01
 20
-1.99376126E+02
  0
VERTEX
  8
0
 62
4
 10
-5.21009701E+01
 20
-1.99674136E+02
  0
VERTEX
  8
0
 62
4
 10
-5.20378359E+01
 20
-1.99967698E+02
  0
VERTEX
  8
0
 62
4
 10
-5.19495171E+01
 20
-2.00254563E+02
  0
VERTEX
  8
0
 62
4
 10
-5.18366902E+01
 20
-2.00532533E+02
  0
VERTEX
  8
0
 62
4
 10
-5.17002196E+01
 20
-2.00799479E+02
  0
VERTEX
  8
0
 62
4
 10
-5.15411504E+01
 20
-2.01053357E+02
  0
VERTEX
  8
0
 62
4
 10
-5.13607012E+01
 20
-2.01292222E+02
  0
VERTEX
  8
0
 62
4
 10
-5.11602543E+01
 20
-2.01514244E+02
  0
VERTEX
  8
0
 62
4
 10
-5.09413450E+01
 20
-2.01717723E+02
  0
VERTEX
  8
0
 62
4
 10
-5.07056501E+01
 20
-2.01901099E+02
  0
VERTEX
  8
0
 62
4
 10
-5.04549750E+01
 20
-2.02062969E+02
  0
VERTEX
  8
0
 62
4
 10
-5.01912399E+01
 20
-2.02202092E+02
  0
VERTEX
  8
0
 62
4
 10
-4.99164650E+01
 20
-2.02317403E+02
  0
VERTEX
  8
0
 62
4
 10
-4.96327551E+01
 20
-2.02408018E+02
  0
VERTEX
  8
0
 62
4
 10
-4.93422832E+01
 20
-2.02473244E+02
  0
VERTEX
  8
0
 62
4
 10
-4.90472745E+01
 20
-2.02512580E+02
  0
VERTEX
  8
0
 62
4
 10
-4.87499885E+01
 20
-2.02525726E+02
  0
VERTEX
  8
0
 62
4
 10
-4.84527026E+01
 20
-2.02512580E+02
  0
VERTEX
  8
0
 62
4
 10
-4.81576939E+01
 20
-2.02473244E+02
  0
VERTEX
  8
0
 62
4
 10
-4.78672222E+01
 20
-2.02408018E+02
  0
VERTEX
  8
0
 62
4
 10
-4.75835123E+01
 20
-2.02317403E+02
  0
VERTEX
  8
0
 62
4
 10
-4.73087376E+01
 20
-2.02202092E+02
  0
VERTEX
  8
0
 62
4
 10
-4.70450027E+01
 20
-2.02062969E+02
  0
VERTEX
  8
0
 62
4
 10
-4.67943279E+01
 20
-2.01901099E+02
  0
VERTEX
  8
0
 62
4
 10
-4.65586333E+01
 20
-2.01717723E+02
  0
VERTEX
  8
0
 62
4
 10
-4.63397242E+01
 20
-2.01514244E+02
  0
VERTEX
  8
0
 62
4
 10
-4.61392776E+01
 20
-2.01292222E+02
  0
VERTEX
  8
0
 62
4
 10
-4.59588288E+01
 20
-2.01053357E+02
  0
VERTEX
  8
0
 62
4
 10
-4.57997600E+01
 20
-2.00799479E+02
  0
VERTEX
  8
0
 62
4
 10
-4.56632897E+01
 20
-2.00532533E+02
  0
VERTEX
  8
0
 62
4
 10
-4.55504632E+01
 20
-2.00254562E+02
  0
VERTEX
  8
0
 62
4
 10
-4.54621448E+01
 20
-1.99967698E+02
  0
VERTEX
  8
0
 62
4
 10
-4.53990110E+01
 20
-1.99674136E+02
  0
VERTEX
  8
0
 62
4
 10
-4.53615454E+01
 20
-1.99376126E+02
  0
VERTEX
  8
0
 62
4
 10
-4.53500349E+01
 20
-1.99075951E+02
  0
SEQEND
  8
0
  0
POLYLINE
  8
0
 62
4
 66
1
  0
VERTEX
  8
0
 62
4
 10
-5.21499906E+01
 20
-1.99056952E+02
  0
VERTEX
  8
0
 62
4
 10
-5.21372032E+01
 20
-1.99353080E+02
  0
VERTEX
  8
0
 62
4
 10
-5.20986371E+01
 20
-1.99646968E+02
  0
VERTEX
  8
0
 62
4
 10
-5.20345858E+01
 20
-1.99936379E+02
  0
VERTEX
  8
0
 62
4
 10
-5.19455368E+01
 20
-2.00219109E+02
  0
VERTEX
  8
0
 62
4
 10
-5.18321677E+01
 20
-2.00493008E+02
  0
VERTEX
  8
0
 62
4
 10
-5.16953414E+01
 20
-2.00755991E+02
  0
VERTEX
  8
0
 62
4
 10
-5.15360991E+01
 20
-2.01006057E+02
  0
VERTEX
  8
0
 62
4
 10
-5.13556530E+01
 20
-2.01241302E+02
  0
VERTEX
  8
0
 62
4
 10
-5.11553761E+01
 20
-2.01459936E+02
  0
VERTEX
  8
0
 62
4
 10
-5.09367929E+01
 20
-2.01660294E+02
  0
VERTEX
  8
0
 62
4
 10
-5.07015667E+01
 20
-2.01840853E+02
  0
VERTEX
  8
0
 62
4
 10
-5.04514879E+01
 20
-2.02000238E+02
  0
VERTEX
  8
0
 62
4
 10
-5.01884597E+01
 20
-2.02137236E+02
  0
VERTEX
  8
0
 62
4
 10
-4.99144838E+01
 20
-2.02250804E+02
  0
VERTEX
  8
0
 62
4
 10
-4.96316455E+01
 20
-2.02340079E+02
  0
VERTEX
  8
0
 62
4
 10
-4.93420972E+01
 20
-2.02404379E+02
  0
VERTEX
  8
0
 62
4
 10
-4.90480426E+01
 20
-2.02443218E+02
  0
VERTEX
  8
0
 62
4
 10
-4.87517197E+01
 20
-2.02456297E+02
  0
VERTEX
  8
0
 62
4
 10
-4.84553837E+01
 20
-2.02443519E+02
  0
VERTEX
  8
0
 62
4
 10
-4.81612897E+01
 20
-2.02404980E+02
  0
VERTEX
  8
0
 62
4
 10
-4.78716762E+01
 20
-2.02340974E+02
  0
VERTEX
  8
0
 62
4
 10
-4.75887471E+01
 20
-2.02251988E+02
  0
VERTEX
  8
0
 62
4
 10
-4.73146558E+01
 20
-2.02138698E+02
  0
VERTEX
  8
0
 62
4
 10
-4.70514883E+01
 20
-2.02001968E+02
  0
VERTEX
  8
0
 62
4
 10
-4.68012474E+01
 20
-2.01842838E+02
  0
VERTEX
  8
0
 62
4
 10
-4.65658377E+01
 20
-2.01662518E+02
  0
VERTEX
  8
0
 62
4
 10
-4.63470506E+01
 20
-2.01462382E+02
  0
VERTEX
  8
0
 62
4
 10
-4.61465514E+01
 20
-2.01243952E+02
  0
VERTEX
  8
0
 62
4
 10
-4.59658660E+01
 20
-2.01008891E+02
  0
VERTEX
  8
0
 62
4
 10
-4.58063694E+01
 20
-2.00758988E+02
  0
VERTEX
  8
0
 62
4
 10
-4.56692755E+01
 20
-2.00496144E+02
  0
VERTEX
  8
0
 62
4
 10
-4.55556278E+01
 20
-2.00222360E+02
  0
VERTEX
  8
0
 62
4
 10
-4.54662910E+01
 20
-1.99939721E+02
  0
VERTEX
  8
0
 62
4
 10
-4.54019453E+01
 20
-1.99650375E+02
  0
VERTEX
  8
0
 62
4
 10
-4.53630801E+01
 20
-1.99356527E+02
  0
VERTEX
  8
0
 62
4
 10
-4.53499914E+01
 20
-1.99060412E+02
  0
VERTEX
  8
0
 62
4
 10
-4.53627788E+01
 20
-1.98764284E+02
  0
VERTEX
  8
0
 62
4
 10
-4.54013449E+01
 20
-1.98470396E+02
  0
VERTEX
  8
0
 62
4
 10
-4.54653962E+01
 20
-1.98180985E+02
  0
VERTEX
  8
0
 62
4
 10
-4.55544452E+01
 20
-1.97898255E+02
  0
VERTEX
  8
0
 62
4
 10
-4.56678143E+01
 20
-1.97624356E+02
  0
VERTEX
  8
0
 62
4
 10
-4.58046407E+01
 20
-1.97361373E+02
  0
VERTEX
  8
0
 62
4
 10
-4.59638829E+01
 20
-1.97111307E+02
  0
VERTEX
  8
0
 62
4
 10
-4.61443290E+01
 20
-1.96876062E+02
  0
VERTEX
  8
0
 62
4
 10
-4.63446059E+01
 20
-1.96657428E+02
  0
VERTEX
  8
0
 62
4
 10
-4.65631891E+01
 20
-1.96457070E+02
  0
VERTEX
  8
0
 62
4
 10
-4.67984153E+01
 20
-1.96276511E+02
  0
VERTEX
  8
0
 62
4
 10
-4.70484941E+01
 20
-1.96117126E+02
  0
VERTEX
  8
0
 62
4
 10
-4.73115224E+01
 20
-1.95980128E+02
  0
VERTEX
  8
0
 62
4
 10
-4.75854982E+01
 20
-1.95866560E+02
  0
VERTEX
  8
0
 62
4
 10
-4.78683366E+01
 20
-1.95777285E+02
  0
VERTEX
  8
0
 62
4
 10
-4.81578848E+01
 20
-1.95712985E+02
  0
VERTEX
  8
0
 62
4
 10
-4.84519394E+01
 20
-1.95674146E+02
  0
VERTEX
  8
0
 62
4
 10
-4.87482623E+01
 20
-1.95661067E+02
  0
VERTEX
  8
0
 62
4
 10
-4.90445984E+01
 20
-1.95673845E+02
  0
VERTEX
  8
0
 62
4
 10
-4.93386923E+01
 20
-1.95712384E+02
  0
VERTEX
  8
0
 62
4
 10
-4.96283058E+01
 20
-1.95776390E+02
  0
VERTEX
  8
0
 62
4
 10
-4.99112349E+01
 20
-1.95865376E+02
  0
VERTEX
  8
0
 62
4
 10
-5.01853262E+01
 20
-1.95978666E+02
  0
VERTEX
  8
0
 62
4
 10
-5.04484937E+01
 20
-1.96115396E+02
  0
VERTEX
  8
0
 62
4
 10
-5.06987346E+01
 20
-1.96274526E+02
  0
VERTEX
  8
0
 62
4
 10
-5.09341443E+01
 20
-1.96454846E+02
  0
VERTEX
  8
0
 62
4
 10
-5.11529314E+01
 20
-1.96654982E+02
  0
VERTEX
  8
0
 62
4
 10
-5.13534306E+01
 20
-1.96873412E+02
  0
VERTEX
  8
0
 62
4
 10
-5.15341160E+01
 20
-1.97108473E+02
  0
VERTEX
  8
0
 62
4
 10
-5.16936126E+01
 20
-1.97358376E+02
  0
VERTEX
  8
0
 62
4
 10
-5.18307065E+01
 20
-1.97621220E+02
  0
VERTEX
  8
0
 62
4
 10
-5.19443542E+01
 20
-1.97895004E+02
  0
VERTEX
  8
0
 62
4
 10
-5.20336910E+01
 20
-1.98177643E+02
  0
VERTEX
  8
0
 62
4
 10
-5.20980367E+01
 20
-1.98466989E+02
  0
VERTEX
  8
0
 62
4
 10
-5.21369019E+01
 20
-1.98760837E+02
  0
VERTEX
  8
0
 62
4
 10
-5.21499906E+01
 20
-1.99056952E+02
  0
SEQEND
  8
0
  0
LINE
  8
0
 62
4
 10
-2.47499952E+01
 20
-2.10759650E+02
 11
-2.17499846E+01
 21
-2.06642489E+02
  0
LINE
  8
0
 62
4
 10
-5.77499952E+01
 20
-2.10759674E+02
 11
-6.07499846E+01
 21
-2.06642517E+02
  0
LINE
  8
0
 62
4
 10
-5.77499952E+01
 20
-2.10759674E+02
 11
-2.47499952E+01
 21
-2.10759650E+02
  0
LINE
  8
0
 62
4
 10
-5.77499808E+01
 20
-2.10940255E+02
 11
-2.47499808E+01
 21
-2.10940255E+02
  0
LINE
  8
0
 62
4
 10
-6.52494940E+01
 20
-1.76153659E+02
 11
-5.67489937E+01
 21
-1.76153659E+02
  0
LINE
  8
0
 62
4
 10
-7.57500060E+01
 20
-1.76658633E+02
 11
-7.07500060E+01
 21
-1.76658633E+02
  0
LINE
  8
0
 62
6
 10
-4.70350600E+01
 20
-2.00773623E+02
 11
-5.04649346E+01
 21
-1.97343754E+02
  0
LINE
  8
0
 62
6
 10
-5.04649321E+01
 20
-2.00773626E+02
 11
-4.70350624E+01
 21
-1.97343751E+02
  0
ARC
  8
0
 62
4
 10
-5.92504863E+01
 20
-1.93252372E+02
 40
1.49950792E+00
 50
8.99812358E+01
 51
1.80018846E+02
  0
ARC
  8
0
 62
4
 10
-6.52494940E+01
 20
-1.75653152E+02
 40
5.00508007E-01
 50
1.80058166E+02
 51
2.69941916E+02
  0
ARC
  8
0
 62
4
 10
-2.32494867E+01
 20
-1.93252331E+02
 40
1.49949266E+00
 50
3.59980652E+02
 51
9.00194298E+01
  0
ARC
  8
0
 62
4
 10
-5.67494937E+01
 20
-1.76654052E+02
 40
4.99492993E-01
 50
3.59941854E+02
 51
9.00582282E+01
  0
ARC
  8
0
 62
4
 10
-6.52505030E+01
 20
-1.62653167E+02
 40
4.99508251E-01
 50
8.99436074E+01
 51
1.80056475E+02
  0
LINE
  8
0
 62
4
 10
-6.92500022E+01
 20
-1.74903662E+02
 11
-6.57500022E+01
 21
-1.74903659E+02
  0
LINE
  8
0
 62
4
 10
-6.92500105E+01
 20
-1.63403662E+02
 11
-6.57500105E+01
 21
-1.63403659E+02
  0
LINE
  8
0
 62
4
 10
-6.92500108E+01
 20
-1.62903662E+02
 11
-6.92500019E+01
 21
-1.75403662E+02
  0
LINE
  8
0
 62
4
 10
-7.07500019E+01
 20
-1.75403663E+02
 11
-6.57500019E+01
 21
-1.75403659E+02
  0
LINE
  8
0
 62
4
 10
-7.07500108E+01
 20
-1.62903663E+02
 11
-6.57500108E+01
 21
-1.62903659E+02
  0
LINE
  8
0
 62
4
 10
-7.07500167E+01
 20
-1.61660725E+02
 11
-7.07500060E+01
 21
-1.76658633E+02
  0
LINE
  8
0
 62
4
 10
-7.57500167E+01
 20
-1.61660725E+02
 11
-7.57500060E+01
 21
-1.76658633E+02
  0
LINE
  8
0
 62
4
 10
-6.57500110E+01
 20
-1.62653660E+02
 11
-6.57500017E+01
 21
-1.75653660E+02
  0
LINE
  8
0
 62
4
 10
-5.62500114E+01
 20
-1.62153653E+02
 11
-6.52500114E+01
 21
-1.62153659E+02
  0
LINE
  8
0
 62
4
 10
-7.57500089E+01
 20
-1.72650801E+02
 11
-7.07500089E+01
 21
-1.72650798E+02
  0
LINE
  8
0
 62
4
 10
-7.57500142E+01
 20
-1.65146851E+02
 11
-7.07500142E+01
 21
-1.65146848E+02
  0
LINE
  8
0
 62
4
 10
-6.07499856E+01
 20
-2.05143725E+02
 11
-2.17499856E+01
 21
-2.05143697E+02
  0
LINE
  8
0
 62
4
 10
-6.07499846E+01
 20
-2.06642517E+02
 11
-2.17499846E+01
 21
-2.06642489E+02
  0
LINE
  8
0
 62
4
 10
-5.77499808E+01
 20
-2.10760582E+02
 11
-2.47499808E+01
 21
-2.10760559E+02
  0
LINE
  8
0
 62
4
 10
-2.17499941E+01
 20
-1.93252837E+02
 11
-2.17499846E+01
 21
-2.06642489E+02
  0
LINE
  8
0
 62
4
 10
-5.62499987E+01
 20
-1.86839205E+02
 11
-4.12499987E+01
 21
-1.86839194E+02
  0
LINE
  8
0
 62
4
 10
-3.92499981E+01
 20
-1.87758125E+02
 11
-3.92499952E+01
 21
-1.91752849E+02
  0
LINE
  8
0
 62
4
 10
-5.62500114E+01
 20
-1.62153653E+02
 11
-5.48402600E+01
 21
-1.62858527E+02
  0
LINE
  8
0
 62
4
 10
-5.62500159E+01
 20
-1.62858528E+02
 11
-5.62499981E+01
 21
-1.87758137E+02
  0
LINE
  8
0
 62
4
 10
-4.12500159E+01
 20
-1.62858518E+02
 11
-4.12499981E+01
 21
-1.87758126E+02
  0
LINE
  8
0
 62
4
 10
-5.82499981E+01
 20
-1.87758138E+02
 11
-5.82499952E+01
 21
-1.91752849E+02
  0
LINE
  8
0
 62
4
 10
-6.07499941E+01
 20
-1.93252373E+02
 11
-6.07499846E+01
 21
-2.06642517E+02
  0
LINE
  8
0
 62
4
 10
-5.82499981E+01
 20
-1.87758138E+02
 11
-3.92499981E+01
 21
-1.87758125E+02
  0
LINE
  8
0
 62
4
 10
-5.62500159E+01
 20
-1.62858528E+02
 11
-4.12500159E+01
 21
-1.62858518E+02
  0
LINE
  8
0
  6
CENTER
 62
6
 10
-5.51499910E+01
 20
-1.99008008E+02
 11
-4.23499910E+01
 21
-1.99007999E+02
  0
LINE
  8
0
 62
4
 10
-7.57500167E+01
 20
-1.61660725E+02
 11
-7.07500167E+01
 21
-1.61660725E+02
  0
LINE
  8
0
 62
4
 10
-5.77499808E+01
 20
-2.10760582E+02
 11
-5.77499808E+01
 21
-2.11482954E+02
  0
LINE
  8
0
 62
4
 10
-2.47499808E+01
 20
-2.10760559E+02
 11
-2.47499808E+01
 21
-2.11482931E+02
  0
LINE
  8
0
  6
CENTER
 62
6
 10
-2.51077884E+02
 20
-2.00409873E+02
 11
-2.13178438E+02
 21
-1.98887719E+02
  0
LINE
  8
0
 62
4
 10
-2.43854522E+02
 20
-1.95115730E+02
 11
-2.43352889E+02
 21
-2.07605661E+02
  0
LINE
  8
0
 62
4
 10
-2.19873855E+02
 20
-1.94152596E+02
 11
-2.19372223E+02
 21
-2.06642526E+02
  0
LINE
  8
0
 62
4
 10
-2.50830299E+02
 20
-1.95896301E+02
 11
-2.58721634E+02
 21
-2.10935679E+02
  0
LINE
  8
0
 62
4
 10
-2.44472476E+02
 20
-2.04648208E+02
 11
-2.44315460E+02
 21
-2.08557683E+02
  0
ARC
  8
0
 62
4
 10
-2.32888558E+02
 20
-1.69153761E+02
 40
7.00000000E+00
 50
6.12815719E+01
 51
8.41922742E+01
  0
LINE
  8
0
 62
4
 10
-2.50830299E+02
 20
-1.95896301E+02
 11
-2.43834457E+02
 21
-1.95615327E+02
  0
LINE
  8
0
 62
4
 10
-2.43992944E+02
 20
-2.04128545E+02
 11
-2.43493347E+02
 21
-2.04108480E+02
  0
LINE
  8
0
 62
4
 10
-2.40622261E+02
 20
-1.63460517E+02
 11
-2.35736200E+02
 21
-1.63264279E+02
  0
LINE
  8
0
 62
4
 10
-2.25634344E+02
 20
-1.62858558E+02
 11
-2.24631079E+02
 21
-1.87838419E+02
  0
LINE
  8
0
 62
4
 10
-2.40622261E+02
 20
-1.63460517E+02
 11
-2.39618996E+02
 21
-1.88440378E+02
  0
LINE
  8
0
 62
4
 10
-2.41617385E+02
 20
-1.88520640E+02
 11
-2.22632690E+02
 21
-1.87758158E+02
  0
LINE
  8
0
 62
4
 10
-2.39659127E+02
 20
-1.87441184E+02
 11
-2.24671210E+02
 21
-1.86839225E+02
  0
LINE
  8
0
 62
4
 10
-2.22632690E+02
 20
-1.87758158E+02
 11
-2.22472168E+02
 21
-1.91754936E+02
  0
LINE
  8
0
 62
4
 10
-2.41617385E+02
 20
-1.88520640E+02
 11
-2.41456862E+02
 21
-1.92517417E+02
  0
LINE
  8
0
 62
4
 10
-2.41456862E+02
 20
-1.92517417E+02
 11
-2.22472168E+02
 21
-1.91754936E+02
  0
LINE
  8
0
 62
4
 10
-2.43413085E+02
 20
-2.06106869E+02
 11
-2.19432419E+02
 21
-2.05143734E+02
  0
LINE
  8
0
 62
4
 10
-2.33641859E+02
 20
-2.00209993E+02
 11
-2.29645081E+02
 21
-2.00049471E+02
  0
LINE
  8
0
 62
4
 10
-2.33541533E+02
 20
-2.02707980E+02
 11
-2.29544755E+02
 21
-2.02547457E+02
  0
LINE
  8
0
 62
4
 10
-2.33641859E+02
 20
-2.00209993E+02
 11
-2.33541533E+02
 21
-2.02707980E+02
  0
LINE
  8
0
 62
4
 10
-2.29645081E+02
 20
-2.00049471E+02
 11
-2.29544755E+02
 21
-2.02547457E+02
  0
LINE
  8
0
 62
4
 10
-2.32586138E+02
 20
-1.76658655E+02
 11
-2.26241864E+02
 21
-1.72650827E+02
  0
LINE
  8
0
 62
4
 10
-2.39532773E+02
 20
-1.65668574E+02
 11
-2.33188499E+02
 21
-1.61660746E+02
  0
LINE
  8
0
 62
4
 10
-2.39532773E+02
 20
-1.65668574E+02
 11
-2.39231392E+02
 21
-1.73172525E+02
  0
LINE
  8
0
 62
4
 10
-2.26543245E+02
 20
-1.65146876E+02
 11
-2.26241864E+02
 21
-1.72650827E+02
  0
LINE
  8
0
 62
4
 10
-2.39231392E+02
 20
-1.73172525E+02
 11
-2.32586138E+02
 21
-1.76658655E+02
  0
LINE
  8
0
 62
4
 10
-2.33188499E+02
 20
-1.61660746E+02
 11
-2.26543245E+02
 21
-1.65146876E+02
  0
LINE
  8
0
 62
4
 10
-2.30530397E+02
 20
-1.63055198E+02
 11
-2.25634344E+02
 21
-1.62858558E+02
  0
LINE
  8
0
 62
4
 10
-2.19833725E+02
 20
-1.95151790E+02
 11
-2.19334128E+02
 21
-1.95131725E+02
  0
LINE
  8
0
 62
4
 10
-2.19512680E+02
 20
-2.03145346E+02
 11
-2.19013083E+02
 21
-2.03125280E+02
  0
LINE
  8
0
 62
4
 10
-2.19310049E+02
 20
-1.95731241E+02
 11
-2.17581443E+02
 21
-1.95661815E+02
  0
LINE
  8
0
 62
4
 10
-2.17308555E+02
 20
-2.02456338E+02
 11
-2.19037161E+02
 21
-2.02525764E+02
  0
LINE
  8
0
 62
4
 10
-2.19334128E+02
 20
-1.95131725E+02
 11
-2.19013083E+02
 21
-2.03125280E+02
  0
ARC
  8
0
 62
4
 10
-2.43972878E+02
 20
-2.04628143E+02
 40
5.00000533E-01
 50
9.22999931E+01
 51
1.82299871E+02
  0
ARC
  8
0
 62
4
 10
-2.27973617E+02
 20
-1.99460599E+02
 40
1.18077645E+01
 50
3.49324076E+02
 51
1.50266276E+01
  0
ARC
  8
0
 62
4
 10
-2.41356517E+02
 20
-1.95015421E+02
 40
2.50001831E+00
 50
9.23003518E+01
 51
1.82299512E+02
  0
ARC
  8
0
 62
4
 10
-2.22370897E+02
 20
-1.94251899E+02
 40
2.49901570E+00
 50
2.27735998E+00
 51
9.23225035E+01
  0
CIRCLE
  8
0
 62
4
 10
-2.32886560E+02
 20
-1.69153681E+02
 40
3.75000000E+00
  0
ARC
  8
0
 62
4
 10
-2.17350611E+02
 20
-2.01458742E+02
 40
9.98481423E-01
 50
2.72414057E+02
 51
3.49071914E+02
  0
ARC
  8
0
 62
4
 10
-2.17543854E+02
 20
-1.96657219E+02
 40
9.96112687E-01
 50
1.48300739E+01
 51
9.21626168E+01
  0
ARC
  8
0
 62
4
 10
-2.32886560E+02
 20
-1.69153681E+02
 40
7.00000000E+00
 50
1.00407589E+02
 51
1.23318292E+02
  0
LINE
  8
0
 10
-2.35398561E+02
 20
-1.96637153E+02
 11
-2.35397860E+02
 21
-1.96597019E+02
  0
LINE
  8
0
 62
4
 10
-2.56790258E+02
 20
-2.21646221E+02
 11
-2.56249933E+02
 21
-2.21624520E+02
  0
LINE
  8
0
 62
4
 10
-2.58721634E+02
 20
-2.10935679E+02
 11
-2.58349245E+02
 21
-2.20207625E+02
  0
LINE
  8
0
  6
CENTER
 62
6
 10
-2.61897037E+02
 20
-2.16346890E+02
 11
-2.58509768E+02
 21
-2.16210847E+02
  0
LINE
  8
0
 62
6
 10
-2.60605189E+02
 20
-2.17796215E+02
 11
-2.58449572E+02
 21
-2.17709639E+02
  0
LINE
  8
0
 62
4
 10
-2.59746050E+02
 20
-2.14268896E+02
 11
-2.58589628E+02
 21
-2.14222450E+02
  0
LINE
  8
0
 62
4
 10
-2.59585929E+02
 20
-2.18255681E+02
 11
-2.58429507E+02
 21
-2.18209236E+02
  0
LINE
  8
0
 62
4
 10
-2.60734810E+02
 20
-2.14568817E+02
 11
-2.60595557E+02
 21
-2.18036022E+02
  0
LINE
  8
0
 62
4
 10
-2.59746050E+02
 20
-2.14268896E+02
 11
-2.60734810E+02
 21
-2.14568817E+02
  0
LINE
  8
0
 62
4
 10
-2.59585929E+02
 20
-2.18255681E+02
 11
-2.60595557E+02
 21
-2.18036022E+02
  0
LINE
  8
0
 62
6
 10
-2.60725580E+02
 20
-2.14798632E+02
 11
-2.58569964E+02
 21
-2.14712056E+02
  0
ARC
  8
0
 62
4
 10
-2.56859080E+02
 20
-2.20156777E+02
 40
1.49103261E+00
 50
1.81954298E+02
 51
2.72645566E+02
  0
LINE
  8
0
 62
4
 10
-2.43352889E+02
 20
-2.07605661E+02
 11
-2.19372223E+02
 21
-2.06642526E+02
  0
LINE
  8
0
 62
4
 10
-2.43352889E+02
 20
-2.07605661E+02
 11
-2.42577272E+02
 21
-2.08557685E+02
  0
LINE
  8
0
 62
4
 10
-2.19372223E+02
 20
-2.06642526E+02
 11
-2.20691939E+02
 21
-2.08557711E+02
  0
LINE
  8
0
 62
4
 10
9.13130828E+01
 20
-1.95896301E+02
 11
9.92043999E+01
 21
-2.10935689E+02
  0
LINE
  8
0
 62
4
 10
9.13130828E+01
 20
-1.95896301E+02
 11
8.43172407E+01
 21
-1.95615319E+02
  0
LINE
  8
0
 62
4
 10
6.03566411E+01
 20
-1.94152559E+02
 11
5.98549937E+01
 21
-2.06642489E+02
  0
LINE
  8
0
 62
4
 10
8.43373066E+01
 20
-1.95115722E+02
 11
8.38356592E+01
 21
-2.07605652E+02
  0
LINE
  8
0
 62
4
 10
5.98169121E+01
 20
-1.95131687E+02
 11
5.94958578E+01
 21
-2.03125243E+02
  0
ARC
  8
0
 62
4
 10
6.84563968E+01
 20
-1.99460572E+02
 40
1.18077645E+01
 50
1.64973304E+02
 51
1.90675855E+02
  0
LINE
  8
0
  6
CENTER
 62
6
 10
7.25553527E+01
 20
-1.89445863E+02
 11
7.23731597E+01
 21
-1.93982234E+02
  0
LINE
  8
0
 62
4
 10
6.89501229E+01
 20
-1.91995693E+02
 11
6.93499647E+01
 21
-1.91010946E+02
  0
LINE
  8
0
 62
4
 10
7.56249055E+01
 20
-1.91262974E+02
 11
7.59444837E+01
 21
-1.92276616E+02
  0
LINE
  8
0
 62
4
 10
6.93499647E+01
 20
-1.91010946E+02
 11
7.56249055E+01
 21
-1.91262974E+02
  0
ARC
  8
0
 62
4
 10
5.80266364E+01
 20
-1.96657179E+02
 40
9.96112687E-01
 50
8.78373154E+01
 51
1.65169858E+02
  0
ARC
  8
0
 62
4
 10
6.28536829E+01
 20
-1.94251865E+02
 40
2.49901570E+00
 50
8.76774281E+01
 51
1.77722572E+02
  0
ARC
  8
0
 62
4
 10
8.18393015E+01
 20
-1.95015410E+02
 40
2.50001831E+00
 50
3.57700420E+02
 51
8.76995804E+01
  0
LINE
  8
0
 62
4
 10
5.97928330E+01
 20
-1.95731204E+02
 11
5.80642267E+01
 21
-1.95661776E+02
  0
LINE
  8
0
 62
4
 10
6.03165093E+01
 20
-1.95151753E+02
 11
5.98169121E+01
 21
-1.95131687E+02
  0
LINE
  8
0
 62
4
 10
7.36713230E+01
 20
-1.61660725E+02
 11
7.26637401E+01
 21
-1.62189306E+02
  0
LINE
  8
0
 62
4
 10
7.46333090E+01
 20
-1.62268436E+02
 11
7.36713230E+01
 21
-1.61660725E+02
  0
LINE
  8
0
 62
4
 10
8.19396501E+01
 20
-1.92517406E+02
 11
6.29549566E+01
 21
-1.91754902E+02
  0
LINE
  8
0
 62
4
 10
8.21001772E+01
 20
-1.88520629E+02
 11
8.19396501E+01
 21
-1.92517406E+02
  0
LINE
  8
0
 62
4
 10
6.31154837E+01
 20
-1.87758125E+02
 11
6.29549566E+01
 21
-1.91754902E+02
  0
LINE
  8
0
 62
4
 10
8.01419202E+01
 20
-1.87441171E+02
 11
6.51540043E+01
 21
-1.86839194E+02
  0
LINE
  8
0
 62
4
 10
8.21001772E+01
 20
-1.88520629E+02
 11
6.31154837E+01
 21
-1.87758125E+02
  0
LINE
  8
0
 62
4
 10
8.11050833E+01
 20
-1.63460505E+02
 11
8.01017884E+01
 21
-1.88440365E+02
  0
LINE
  8
0
 62
4
 10
6.61171673E+01
 20
-1.62858528E+02
 11
6.51138725E+01
 21
-1.87838388E+02
  0
LINE
  8
0
 62
4
 10
6.61171673E+01
 20
-1.62858528E+02
 11
8.11050833E+01
 21
-1.63460505E+02
  0
ARC
  8
0
 62
4
 10
7.33703167E+01
 20
-1.69153554E+02
 40
7.00000000E+00
 50
5.66793705E+01
 51
1.18720629E+02
  0
LINE
  8
0
  6
CENTER
 62
6
 10
9.15606620E+01
 20
-2.00409873E+02
 11
5.36612186E+01
 21
-1.98887674E+02
  0
LINE
  8
0
 62
4
 10
8.49552489E+01
 20
-2.04648200E+02
 11
8.47982282E+01
 21
-2.08557675E+02
  0
LINE
  8
0
 62
4
 10
8.38356592E+01
 20
-2.07605652E+02
 11
5.98549937E+01
 21
-2.06642489E+02
  0
LINE
  8
0
 62
4
 10
8.38356592E+01
 20
-2.07605652E+02
 11
8.30600405E+01
 21
-2.08557675E+02
  0
LINE
  8
0
 62
4
 10
8.38958568E+01
 20
-2.06106860E+02
 11
5.99151914E+01
 21
-2.05143697E+02
  0
ARC
  8
0
 62
4
 10
8.44556512E+01
 20
-2.04628135E+02
 40
5.00000533E-01
 50
3.57700061E+02
 51
8.76999390E+01
  0
LINE
  8
0
 62
4
 10
8.44757176E+01
 20
-2.04128537E+02
 11
8.39761204E+01
 21
-2.04108471E+02
  0
ARC
  8
0
 62
4
 10
5.78333885E+01
 20
-2.01458703E+02
 40
9.98481423E-01
 50
1.90928018E+02
 51
2.67585875E+02
  0
LINE
  8
0
 62
4
 10
5.77913305E+01
 20
-2.02456298E+02
 11
5.95199368E+01
 21
-2.02525726E+02
  0
LINE
  8
0
 62
4
 10
5.99954550E+01
 20
-2.03145308E+02
 11
5.94958578E+01
 21
-2.03125243E+02
  0
LINE
  8
0
 62
4
 10
5.98549937E+01
 20
-2.06642489E+02
 11
6.11747076E+01
 21
-2.08557675E+02
  0
LINE
  8
0
 62
4
 10
7.01278602E+01
 20
-2.00049446E+02
 11
7.00275307E+01
 21
-2.02547432E+02
  0
LINE
  8
0
 62
4
 10
7.41246378E+01
 20
-2.00209973E+02
 11
7.40243083E+01
 21
-2.02707959E+02
  0
LINE
  8
0
 62
4
 10
7.40243083E+01
 20
-2.02707959E+02
 11
7.00275307E+01
 21
-2.02547432E+02
  0
LINE
  8
0
 62
4
 10
7.41246378E+01
 20
-2.00209973E+02
 11
7.01278602E+01
 21
-2.00049446E+02
  0
LINE
  8
0
  6
CENTER
 62
6
 10
1.02379796E+02
 20
-2.16346903E+02
 11
9.89925273E+01
 21
-2.16210856E+02
  0
ARC
  8
0
 62
4
 10
9.73418349E+01
 20
-2.20156785E+02
 40
1.49103261E+00
 50
2.67354366E+02
 51
3.58045634E+02
  0
LINE
  8
0
 62
6
 10
1.01208342E+02
 20
-2.14798643E+02
 11
9.90527250E+01
 21
-2.14712065E+02
  0
LINE
  8
0
 62
4
 10
1.00068686E+02
 20
-2.18255692E+02
 11
1.01078315E+02
 21
-2.18036033E+02
  0
LINE
  8
0
 62
4
 10
1.00228812E+02
 20
-2.14268906E+02
 11
1.01217572E+02
 21
-2.14568829E+02
  0
LINE
  8
0
 62
4
 10
1.01217572E+02
 20
-2.14568829E+02
 11
1.01078315E+02
 21
-2.18036033E+02
  0
LINE
  8
0
 62
4
 10
1.00068686E+02
 20
-2.18255692E+02
 11
9.89122637E+01
 21
-2.18209245E+02
  0
LINE
  8
0
 62
4
 10
1.00228812E+02
 20
-2.14268906E+02
 11
9.90723896E+01
 21
-2.14222460E+02
  0
LINE
  8
0
 62
6
 10
1.01087946E+02
 20
-2.17796227E+02
 11
9.89323296E+01
 21
-2.17709648E+02
  0
LINE
  8
0
 62
4
 10
9.92043999E+01
 20
-2.10935689E+02
 11
9.88320001E+01
 21
-2.20207634E+02
  0
LINE
  8
0
 62
4
 10
9.72730109E+01
 20
-2.21646228E+02
 11
9.67326858E+01
 21
-2.21624526E+02
  0
LINE
  8
0
 62
4
 10
-5.82499847E+01
 20
-1.12174908E+02
 11
-3.92499847E+01
 21
-1.12174908E+02
  0
LINE
  8
0
 62
4
 10
-5.92499847E+01
 20
-9.09502412E+01
 11
-2.32499847E+01
 21
-9.09502412E+01
  0
LINE
  8
0
 62
4
 10
-5.92499847E+01
 20
-1.14935724E+02
 11
-2.32499847E+01
 21
-1.14935724E+02
  0
LINE
  8
0
 62
4
 10
-3.92499847E+01
 20
-9.31902141E+01
 11
-5.82499847E+01
 21
-9.31902141E+01
  0
LINE
  8
0
 62
4
 10
-4.47499847E+01
 20
-1.15435398E+02
 11
-2.32499847E+01
 21
-1.15435398E+02
  0
LINE
  8
0
 62
4
 10
-5.82499847E+01
 20
-1.12335435E+02
 11
-3.92499847E+01
 21
-1.12335435E+02
  0
LINE
  8
0
 62
4
 10
-5.62499847E+01
 20
-1.10176519E+02
 11
-4.12499847E+01
 21
-1.10176519E+02
  0
LINE
  8
0
 62
4
 10
-7.57499847E+01
 20
-1.08565716E+02
 11
-7.07499847E+01
 21
-1.08565716E+02
  0
ARC
  8
0
 62
4
 10
-5.92504884E+01
 20
-1.13935901E+02
 40
1.49949647E+00
 50
1.79980757E+02
 51
2.70019243E+02
  0
LINE
  8
0
 62
4
 10
-5.92499847E+01
 20
-1.15435398E+02
 11
-5.27499847E+01
 21
-1.15435398E+02
  0
ARC
  8
0
 62
4
 10
-5.29855797E+01
 20
-1.07216497E+02
 40
1.21769740E+01
 50
2.90237578E+02
 51
2.99537899E+02
  0
ARC
  8
0
 62
4
 10
-4.45143897E+01
 20
-1.07216497E+02
 40
1.21769740E+01
 50
2.40462101E+02
 51
2.49762422E+02
  0
POLYLINE
  8
0
 62
4
 66
1
  0
VERTEX
  8
0
 62
4
 10
-4.53499847E+01
 20
-1.17933962E+02
  0
VERTEX
  8
0
 62
4
 10
-4.53629227E+01
 20
-1.17872273E+02
  0
VERTEX
  8
0
 62
4
 10
-4.54016383E+01
 20
-1.17811054E+02
  0
VERTEX
  8
0
 62
4
 10
-4.54658369E+01
 20
-1.17750771E+02
  0
VERTEX
  8
0
 62
4
 10
-4.55550298E+01
 20
-1.17691881E+02
  0
VERTEX
  8
0
 62
4
 10
-4.56685382E+01
 20
-1.17634834E+02
  0
VERTEX
  8
0
 62
4
 10
-4.58054983E+01
 20
-1.17580063E+02
  0
VERTEX
  8
0
 62
4
 10
-4.59648677E+01
 20
-1.17527986E+02
  0
VERTEX
  8
0
 62
4
 10
-4.61454336E+01
 20
-1.17478999E+02
  0
VERTEX
  8
0
 62
4
 10
-4.63458216E+01
 20
-1.17433474E+02
  0
VERTEX
  8
0
 62
4
 10
-4.65645068E+01
 20
-1.17391758E+02
  0
VERTEX
  8
0
 62
4
 10
-4.67998248E+01
 20
-1.17354168E+02
  0
VERTEX
  8
0
 62
4
 10
-4.70499847E+01
 20
-1.17320992E+02
  0
VERTEX
  8
0
 62
4
 10
-4.73130826E+01
 20
-1.17292480E+02
  0
VERTEX
  8
0
 62
4
 10
-4.75871162E+01
 20
-1.17268850E+02
  0
VERTEX
  8
0
 62
4
 10
-4.78699999E+01
 20
-1.17250282E+02
  0
VERTEX
  8
0
 62
4
 10
-4.81595809E+01
 20
-1.17236918E+02
  0
VERTEX
  8
0
 62
4
 10
-4.84536552E+01
 20
-1.17228858E+02
  0
VERTEX
  8
0
 62
4
 10
-4.87499847E+01
 20
-1.17226165E+02
  0
VERTEX
  8
0
 62
4
 10
-4.90463142E+01
 20
-1.17228858E+02
  0
VERTEX
  8
0
 62
4
 10
-4.93403885E+01
 20
-1.17236918E+02
  0
VERTEX
  8
0
 62
4
 10
-4.96299695E+01
 20
-1.17250282E+02
  0
VERTEX
  8
0
 62
4
 10
-4.99128532E+01
 20
-1.17268850E+02
  0
VERTEX
  8
0
 62
4
 10
-5.01868868E+01
 20
-1.17292480E+02
  0
VERTEX
  8
0
 62
4
 10
-5.04499847E+01
 20
-1.17320992E+02
  0
VERTEX
  8
0
 62
4
 10
-5.07001446E+01
 20
-1.17354168E+02
  0
VERTEX
  8
0
 62
4
 10
-5.09354626E+01
 20
-1.17391758E+02
  0
VERTEX
  8
0
 62
4
 10
-5.11541478E+01
 20
-1.17433474E+02
  0
VERTEX
  8
0
 62
4
 10
-5.13545358E+01
 20
-1.17478999E+02
  0
VERTEX
  8
0
 62
4
 10
-5.15351017E+01
 20
-1.17527986E+02
  0
VERTEX
  8
0
 62
4
 10
-5.16944711E+01
 20
-1.17580063E+02
  0
VERTEX
  8
0
 62
4
 10
-5.18314312E+01
 20
-1.17634834E+02
  0
VERTEX
  8
0
 62
4
 10
-5.19449396E+01
 20
-1.17691881E+02
  0
VERTEX
  8
0
 62
4
 10
-5.20341325E+01
 20
-1.17750771E+02
  0
VERTEX
  8
0
 62
4
 10
-5.20983311E+01
 20
-1.17811054E+02
  0
VERTEX
  8
0
 62
4
 10
-5.21370467E+01
 20
-1.17872273E+02
  0
VERTEX
  8
0
 62
4
 10
-5.21499847E+01
 20
-1.17933962E+02
  0
VERTEX
  8
0
 62
4
 10
-5.21370467E+01
 20
-1.17995651E+02
  0
VERTEX
  8
0
 62
4
 10
-5.20983311E+01
 20
-1.18056870E+02
  0
VERTEX
  8
0
 62
4
 10
-5.20341325E+01
 20
-1.18117153E+02
  0
VERTEX
  8
0
 62
4
 10
-5.19449396E+01
 20
-1.18176043E+02
  0
VERTEX
  8
0
 62
4
 10
-5.18314312E+01
 20
-1.18233090E+02
  0
VERTEX
  8
0
 62
4
 10
-5.16944711E+01
 20
-1.18287861E+02
  0
VERTEX
  8
0
 62
4
 10
-5.15351016E+01
 20
-1.18339938E+02
  0
VERTEX
  8
0
 62
4
 10
-5.13545358E+01
 20
-1.18388925E+02
  0
VERTEX
  8
0
 62
4
 10
-5.11541478E+01
 20
-1.18434450E+02
  0
VERTEX
  8
0
 62
4
 10
-5.09354626E+01
 20
-1.18476166E+02
  0
VERTEX
  8
0
 62
4
 10
-5.07001446E+01
 20
-1.18513756E+02
  0
VERTEX
  8
0
 62
4
 10
-5.04499847E+01
 20
-1.18546932E+02
  0
VERTEX
  8
0
 62
4
 10
-5.01868868E+01
 20
-1.18575444E+02
  0
VERTEX
  8
0
 62
4
 10
-4.99128532E+01
 20
-1.18599074E+02
  0
VERTEX
  8
0
 62
4
 10
-4.96299694E+01
 20
-1.18617642E+02
  0
VERTEX
  8
0
 62
4
 10
-4.93403885E+01
 20
-1.18631006E+02
  0
VERTEX
  8
0
 62
4
 10
-4.90463142E+01
 20
-1.18639066E+02
  0
VERTEX
  8
0
 62
4
 10
-4.87499847E+01
 20
-1.18641759E+02
  0
VERTEX
  8
0
 62
4
 10
-4.84536552E+01
 20
-1.18639066E+02
  0
VERTEX
  8
0
 62
4
 10
-4.81595809E+01
 20
-1.18631006E+02
  0
VERTEX
  8
0
 62
4
 10
-4.78699999E+01
 20
-1.18617642E+02
  0
VERTEX
  8
0
 62
4
 10
-4.75871162E+01
 20
-1.18599074E+02
  0
VERTEX
  8
0
 62
4
 10
-4.73130826E+01
 20
-1.18575444E+02
  0
VERTEX
  8
0
 62
4
 10
-4.70499847E+01
 20
-1.18546932E+02
  0
VERTEX
  8
0
 62
4
 10
-4.67998248E+01
 20
-1.18513756E+02
  0
VERTEX
  8
0
 62
4
 10
-4.65645068E+01
 20
-1.18476166E+02
  0
VERTEX
  8
0
 62
4
 10
-4.63458216E+01
 20
-1.18434450E+02
  0
VERTEX
  8
0
 62
4
 10
-4.61454336E+01
 20
-1.18388925E+02
  0
VERTEX
  8
0
 62
4
 10
-4.59648677E+01
 20
-1.18339938E+02
  0
VERTEX
  8
0
 62
4
 10
-4.58054983E+01
 20
-1.18287861E+02
  0
VERTEX
  8
0
 62
4
 10
-4.56685382E+01
 20
-1.18233090E+02
  0
VERTEX
  8
0
 62
4
 10
-4.55550298E+01
 20
-1.18176043E+02
  0
VERTEX
  8
0
 62
4
 10
-4.54658369E+01
 20
-1.18117153E+02
  0
VERTEX
  8
0
 62
4
 10
-4.54016383E+01
 20
-1.18056870E+02
  0
VERTEX
  8
0
 62
4
 10
-4.53629227E+01
 20
-1.17995651E+02
  0
VERTEX
  8
0
 62
4
 10
-4.53499847E+01
 20
-1.17933962E+02
  0
SEQEND
  8
0
  0
POLYLINE
  8
0
 62
4
 66
1
  0
VERTEX
  8
0
 62
4
 10
-4.53499847E+01
 20
-1.15634006E+02
  0
VERTEX
  8
0
 62
4
 10
-4.53636721E+01
 20
-1.15621775E+02
  0
VERTEX
  8
0
 62
4
 10
-4.54046241E+01
 20
-1.15609642E+02
  0
VERTEX
  8
0
 62
4
 10
-4.54725110E+01
 20
-1.15597706E+02
  0
VERTEX
  8
0
 62
4
 10
-4.55667861E+01
 20
-1.15586062E+02
  0
VERTEX
  8
0
 62
4
 10
-4.56866905E+01
 20
-1.15574803E+02
  0
VERTEX
  8
0
 62
4
 10
-4.58312588E+01
 20
-1.15564022E+02
  0
VERTEX
  8
0
 62
4
 10
-4.59993269E+01
 20
-1.15553804E+02
  0
VERTEX
  8
0
 62
4
 10
-4.61895417E+01
 20
-1.15544232E+02
  0
VERTEX
  8
0
 62
4
 10
-4.64003717E+01
 20
-1.15535382E+02
  0
VERTEX
  8
0
 62
4
 10
-4.66301194E+01
 20
-1.15527327E+02
  0
VERTEX
  8
0
 62
4
 10
-4.68769350E+01
 20
-1.15520130E+02
  0
VERTEX
  8
0
 62
4
 10
-4.71388312E+01
 20
-1.15513850E+02
  0
VERTEX
  8
0
 62
4
 10
-4.74136996E+01
 20
-1.15508538E+02
  0
VERTEX
  8
0
 62
4
 10
-4.76993269E+01
 20
-1.15504236E+02
  0
VERTEX
  8
0
 62
4
 10
-4.79934135E+01
 20
-1.15500979E+02
  0
VERTEX
  8
0
 62
4
 10
-4.82935916E+01
 20
-1.15498793E+02
  0
VERTEX
  8
0
 62
4
 10
-4.85974443E+01
 20
-1.15497695E+02
  0
VERTEX
  8
0
 62
4
 10
-4.89025251E+01
 20
-1.15497695E+02
  0
VERTEX
  8
0
 62
4
 10
-4.92063778E+01
 20
-1.15498793E+02
  0
VERTEX
  8
0
 62
4
 10
-4.95065559E+01
 20
-1.15500979E+02
  0
VERTEX
  8
0
 62
4
 10
-4.98006425E+01
 20
-1.15504236E+02
  0
VERTEX
  8
0
 62
4
 10
-5.00862698E+01
 20
-1.15508538E+02
  0
VERTEX
  8
0
 62
4
 10
-5.03611381E+01
 20
-1.15513850E+02
  0
VERTEX
  8
0
 62
4
 10
-5.06230344E+01
 20
-1.15520130E+02
  0
VERTEX
  8
0
 62
4
 10
-5.08698500E+01
 20
-1.15527327E+02
  0
VERTEX
  8
0
 62
4
 10
-5.10995977E+01
 20
-1.15535382E+02
  0
VERTEX
  8
0
 62
4
 10
-5.13104277E+01
 20
-1.15544232E+02
  0
VERTEX
  8
0
 62
4
 10
-5.15006425E+01
 20
-1.15553804E+02
  0
VERTEX
  8
0
 62
4
 10
-5.16687106E+01
 20
-1.15564022E+02
  0
VERTEX
  8
0
 62
4
 10
-5.18132788E+01
 20
-1.15574803E+02
  0
VERTEX
  8
0
 62
4
 10
-5.19331833E+01
 20
-1.15586062E+02
  0
VERTEX
  8
0
 62
4
 10
-5.20274584E+01
 20
-1.15597706E+02
  0
VERTEX
  8
0
 62
4
 10
-5.20953453E+01
 20
-1.15609642E+02
  0
VERTEX
  8
0
 62
4
 10
-5.21362973E+01
 20
-1.15621775E+02
  0
VERTEX
  8
0
 62
4
 10
-5.21499847E+01
 20
-1.15634006E+02
  0
SEQEND
  8
0
  0
POLYLINE
  8
0
 62
4
 66
1
  0
VERTEX
  8
0
 62
4
 10
-4.53499819E+01
 20
-1.15718569E+02
  0
VERTEX
  8
0
 62
4
 10
-4.51769303E+01
 20
-1.15706168E+02
  0
VERTEX
  8
0
 62
4
 10
-4.50318879E+01
 20
-1.15693202E+02
  0
VERTEX
  8
0
 62
4
 10
-4.49159915E+01
 20
-1.15679772E+02
  0
VERTEX
  8
0
 62
4
 10
-4.48301497E+01
 20
-1.15665983E+02
  0
VERTEX
  8
0
 62
4
 10
-4.47750354E+01
 20
-1.15651944E+02
  0
VERTEX
  8
0
 62
4
 10
-4.47510805E+01
 20
-1.15637763E+02
  0
VERTEX
  8
0
 62
4
 10
-4.47584730E+01
 20
-1.15623554E+02
  0
VERTEX
  8
0
 62
4
 10
-4.47971549E+01
 20
-1.15609426E+02
  0
VERTEX
  8
0
 62
4
 10
-4.48668228E+01
 20
-1.15595491E+02
  0
VERTEX
  8
0
 62
4
 10
-4.49669308E+01
 20
-1.15581858E+02
  0
VERTEX
  8
0
 62
4
 10
-4.50966940E+01
 20
-1.15568633E+02
  0
VERTEX
  8
0
 62
4
 10
-4.52550952E+01
 20
-1.15555922E+02
  0
VERTEX
  8
0
 62
4
 10
-4.54408928E+01
 20
-1.15543822E+02
  0
VERTEX
  8
0
 62
4
 10
-4.56526303E+01
 20
-1.15532429E+02
  0
VERTEX
  8
0
 62
4
 10
-4.58886479E+01
 20
-1.15521832E+02
  0
VERTEX
  8
0
 62
4
 10
-4.61470954E+01
 20
-1.15512115E+02
  0
VERTEX
  8
0
 62
4
 10
-4.64259469E+01
 20
-1.15503353E+02
  0
VERTEX
  8
0
 62
4
 10
-4.67230164E+01
 20
-1.15495616E+02
  0
VERTEX
  8
0
 62
4
 10
-4.70359753E+01
 20
-1.15488963E+02
  0
VERTEX
  8
0
 62
4
 10
-4.73623703E+01
 20
-1.15483447E+02
  0
VERTEX
  8
0
 62
4
 10
-4.76996427E+01
 20
-1.15479112E+02
  0
VERTEX
  8
0
 62
4
 10
-4.80451488E+01
 20
-1.15475991E+02
  0
VERTEX
  8
0
 62
4
 10
-4.83961800E+01
 20
-1.15474108E+02
  0
VERTEX
  8
0
 62
4
 10
-4.87499847E+01
 20
-1.15473479E+02
  0
VERTEX
  8
0
 62
4
 10
-4.91037894E+01
 20
-1.15474108E+02
  0
VERTEX
  8
0
 62
4
 10
-4.94548207E+01
 20
-1.15475991E+02
  0
VERTEX
  8
0
 62
4
 10
-4.98003267E+01
 20
-1.15479112E+02
  0
VERTEX
  8
0
 62
4
 10
-5.01375991E+01
 20
-1.15483447E+02
  0
VERTEX
  8
0
 62
4
 10
-5.04639941E+01
 20
-1.15488963E+02
  0
VERTEX
  8
0
 62
4
 10
-5.07769530E+01
 20
-1.15495616E+02
  0
VERTEX
  8
0
 62
4
 10
-5.10740226E+01
 20
-1.15503353E+02
  0
VERTEX
  8
0
 62
4
 10
-5.13528740E+01
 20
-1.15512115E+02
  0
VERTEX
  8
0
 62
4
 10
-5.16113215E+01
 20
-1.15521832E+02
  0
VERTEX
  8
0
 62
4
 10
-5.18473391E+01
 20
-1.15532429E+02
  0
VERTEX
  8
0
 62
4
 10
-5.20590766E+01
 20
-1.15543822E+02
  0
VERTEX
  8
0
 62
4
 10
-5.22448742E+01
 20
-1.15555922E+02
  0
VERTEX
  8
0
 62
4
 10
-5.24032754E+01
 20
-1.15568633E+02
  0
VERTEX
  8
0
 62
4
 10
-5.25330386E+01
 20
-1.15581858E+02
  0
VERTEX
  8
0
 62
4
 10
-5.26331466E+01
 20
-1.15595491E+02
  0
VERTEX
  8
0
 62
4
 10
-5.27028146E+01
 20
-1.15609426E+02
  0
VERTEX
  8
0
 62
4
 10
-5.27414964E+01
 20
-1.15623554E+02
  0
VERTEX
  8
0
 62
4
 10
-5.27488889E+01
 20
-1.15637763E+02
  0
VERTEX
  8
0
 62
4
 10
-5.27249340E+01
 20
-1.15651944E+02
  0
VERTEX
  8
0
 62
4
 10
-5.26698197E+01
 20
-1.15665983E+02
  0
VERTEX
  8
0
 62
4
 10
-5.25839779E+01
 20
-1.15679772E+02
  0
VERTEX
  8
0
 62
4
 10
-5.24680815E+01
 20
-1.15693202E+02
  0
VERTEX
  8
0
 62
4
 10
-5.23230390E+01
 20
-1.15706168E+02
  0
VERTEX
  8
0
 62
4
 10
-5.21499875E+01
 20
-1.15718569E+02
  0
SEQEND
  8
0
  0
POLYLINE
  8
0
 62
4
 66
1
  0
VERTEX
  8
0
 62
4
 10
-4.47499847E+01
 20
-1.15134409E+02
  0
VERTEX
  8
0
 62
4
 10
-4.47660875E+01
 20
-1.15120019E+02
  0
VERTEX
  8
0
 62
4
 10
-4.48142663E+01
 20
-1.15105746E+02
  0
VERTEX
  8
0
 62
4
 10
-4.48941333E+01
 20
-1.15091703E+02
  0
VERTEX
  8
0
 62
4
 10
-4.50050452E+01
 20
-1.15078004E+02
  0
VERTEX
  8
0
 62
4
 10
-4.51461092E+01
 20
-1.15064759E+02
  0
VERTEX
  8
0
 62
4
 10
-4.53161895E+01
 20
-1.15052075E+02
  0
VERTEX
  8
0
 62
4
 10
-4.55139167E+01
 20
-1.15040053E+02
  0
VERTEX
  8
0
 62
4
 10
-4.57376988E+01
 20
-1.15028792E+02
  0
VERTEX
  8
0
 62
4
 10
-4.59857341E+01
 20
-1.15018381E+02
  0
VERTEX
  8
0
 62
4
 10
-4.62560255E+01
 20
-1.15008904E+02
  0
VERTEX
  8
0
 62
4
 10
-4.65463968E+01
 20
-1.15000437E+02
  0
VERTEX
  8
0
 62
4
 10
-4.68545100E+01
 20
-1.14993049E+02
  0
VERTEX
  8
0
 62
4
 10
-4.71778846E+01
 20
-1.14986800E+02
  0
VERTEX
  8
0
 62
4
 10
-4.75139167E+01
 20
-1.14981739E+02
  0
VERTEX
  8
0
 62
4
 10
-4.78599010E+01
 20
-1.14977907E+02
  0
VERTEX
  8
0
 62
4
 10
-4.82130516E+01
 20
-1.14975335E+02
  0
VERTEX
  8
0
 62
4
 10
-4.85705254E+01
 20
-1.14974043E+02
  0
VERTEX
  8
0
 62
4
 10
-4.89294440E+01
 20
-1.14974043E+02
  0
VERTEX
  8
0
 62
4
 10
-4.92869178E+01
 20
-1.14975335E+02
  0
VERTEX
  8
0
 62
4
 10
-4.96400684E+01
 20
-1.14977907E+02
  0
VERTEX
  8
0
 62
4
 10
-4.99860527E+01
 20
-1.14981739E+02
  0
VERTEX
  8
0
 62
4
 10
-5.03220848E+01
 20
-1.14986800E+02
  0
VERTEX
  8
0
 62
4
 10
-5.06454593E+01
 20
-1.14993049E+02
  0
VERTEX
  8
0
 62
4
 10
-5.09535726E+01
 20
-1.15000437E+02
  0
VERTEX
  8
0
 62
4
 10
-5.12439439E+01
 20
-1.15008904E+02
  0
VERTEX
  8
0
 62
4
 10
-5.15142353E+01
 20
-1.15018381E+02
  0
VERTEX
  8
0
 62
4
 10
-5.17622706E+01
 20
-1.15028792E+02
  0
VERTEX
  8
0
 62
4
 10
-5.19860527E+01
 20
-1.15040053E+02
  0
VERTEX
  8
0
 62
4
 10
-5.21837799E+01
 20
-1.15052075E+02
  0
VERTEX
  8
0
 62
4
 10
-5.23538602E+01
 20
-1.15064759E+02
  0
VERTEX
  8
0
 62
4
 10
-5.24949242E+01
 20
-1.15078004E+02
  0
VERTEX
  8
0
 62
4
 10
-5.26058361E+01
 20
-1.15091703E+02
  0
VERTEX
  8
0
 62
4
 10
-5.26857031E+01
 20
-1.15105746E+02
  0
VERTEX
  8
0
 62
4
 10
-5.27338819E+01
 20
-1.15120019E+02
  0
VERTEX
  8
0
 62
4
 10
-5.27499847E+01
 20
-1.15134409E+02
  0
SEQEND
  8
0
  0
POLYLINE
  8
0
 62
4
 66
1
  0
VERTEX
  8
0
 62
4
 10
-4.57499847E+01
 20
-1.01679266E+02
  0
VERTEX
  8
0
 62
4
 10
-4.57614006E+01
 20
-1.01418009E+02
  0
VERTEX
  8
0
 62
4
 10
-4.57955614E+01
 20
-1.01158741E+02
  0
VERTEX
  8
0
 62
4
 10
-4.58522072E+01
 20
-1.00903434E+02
  0
VERTEX
  8
0
 62
4
 10
-4.59309068E+01
 20
-1.00654032E+02
  0
VERTEX
  8
0
 62
4
 10
-4.60310613E+01
 20
-1.00412433E+02
  0
VERTEX
  8
0
 62
4
 10
-4.61519085E+01
 20
-1.00180474E+02
  0
VERTEX
  8
0
 62
4
 10
-4.62925286E+01
 20
-9.99599229E+01
  0
VERTEX
  8
0
 62
4
 10
-4.64518514E+01
 20
-9.97524567E+01
  0
VERTEX
  8
0
 62
4
 10
-4.66286644E+01
 20
-9.95596546E+01
  0
VERTEX
  8
0
 62
4
 10
-4.68216219E+01
 20
-9.93829841E+01
  0
VERTEX
  8
0
 62
4
 10
-4.70292554E+01
 20
-9.92237896E+01
  0
VERTEX
  8
0
 62
4
 10
-4.72499847E+01
 20
-9.90832828E+01
  0
VERTEX
  8
0
 62
4
 10
-4.74821299E+01
 20
-9.89625330E+01
  0
VERTEX
  8
0
 62
4
 10
-4.77239243E+01
 20
-9.88624592E+01
  0
VERTEX
  8
0
 62
4
 10
-4.79735276E+01
 20
-9.87838230E+01
  0
VERTEX
  8
0
 62
4
 10
-4.82290402E+01
 20
-9.87272228E+01
  0
VERTEX
  8
0
 62
4
 10
-4.84885175E+01
 20
-9.86930895E+01
  0
VERTEX
  8
0
 62
4
 10
-4.87499847E+01
 20
-9.86816828E+01
  0
VERTEX
  8
0
 62
4
 10
-4.90114519E+01
 20
-9.86930895E+01
  0
VERTEX
  8
0
 62
4
 10
-4.92709292E+01
 20
-9.87272228E+01
  0
VERTEX
  8
0
 62
4
 10
-4.95264418E+01
 20
-9.87838230E+01
  0
VERTEX
  8
0
 62
4
 10
-4.97760451E+01
 20
-9.88624592E+01
  0
VERTEX
  8
0
 62
4
 10
-5.00178395E+01
 20
-9.89625330E+01
  0
VERTEX
  8
0
 62
4
 10
-5.02499847E+01
 20
-9.90832828E+01
  0
VERTEX
  8
0
 62
4
 10
-5.04707140E+01
 20
-9.92237896E+01
  0
VERTEX
  8
0
 62
4
 10
-5.06783475E+01
 20
-9.93829841E+01
  0
VERTEX
  8
0
 62
4
 10
-5.08713050E+01
 20
-9.95596546E+01
  0
VERTEX
  8
0
 62
4
 10
-5.10481180E+01
 20
-9.97524567E+01
  0
VERTEX
  8
0
 62
4
 10
-5.12074408E+01
 20
-9.99599229E+01
  0
VERTEX
  8
0
 62
4
 10
-5.13480609E+01
 20
-1.00180474E+02
  0
VERTEX
  8
0
 62
4
 10
-5.14689081E+01
 20
-1.00412433E+02
  0
VERTEX
  8
0
 62
4
 10
-5.15690626E+01
 20
-1.00654032E+02
  0
VERTEX
  8
0
 62
4
 10
-5.16477622E+01
 20
-1.00903434E+02
  0
VERTEX
  8
0
 62
4
 10
-5.17044080E+01
 20
-1.01158741E+02
  0
VERTEX
  8
0
 62
4
 10
-5.17385688E+01
 20
-1.01418009E+02
  0
VERTEX
  8
0
 62
4
 10
-5.17499847E+01
 20
-1.01679266E+02
  0
VERTEX
  8
0
 62
4
 10
-5.17385688E+01
 20
-1.01940523E+02
  0
VERTEX
  8
0
 62
4
 10
-5.17044080E+01
 20
-1.02199791E+02
  0
VERTEX
  8
0
 62
4
 10
-5.16477622E+01
 20
-1.02455098E+02
  0
VERTEX
  8
0
 62
4
 10
-5.15690626E+01
 20
-1.02704500E+02
  0
VERTEX
  8
0
 62
4
 10
-5.14689081E+01
 20
-1.02946099E+02
  0
VERTEX
  8
0
 62
4
 10
-5.13480609E+01
 20
-1.03178058E+02
  0
VERTEX
  8
0
 62
4
 10
-5.12074408E+01
 20
-1.03398609E+02
  0
VERTEX
  8
0
 62
4
 10
-5.10481180E+01
 20
-1.03606075E+02
  0
VERTEX
  8
0
 62
4
 10
-5.08713050E+01
 20
-1.03798877E+02
  0
VERTEX
  8
0
 62
4
 10
-5.06783475E+01
 20
-1.03975548E+02
  0
VERTEX
  8
0
 62
4
 10
-5.04707140E+01
 20
-1.04134742E+02
  0
VERTEX
  8
0
 62
4
 10
-5.02499847E+01
 20
-1.04275249E+02
  0
VERTEX
  8
0
 62
4
 10
-5.00178395E+01
 20
-1.04395999E+02
  0
VERTEX
  8
0
 62
4
 10
-4.97760451E+01
 20
-1.04496073E+02
  0
VERTEX
  8
0
 62
4
 10
-4.95264418E+01
 20
-1.04574709E+02
  0
VERTEX
  8
0
 62
4
 10
-4.92709292E+01
 20
-1.04631309E+02
  0
VERTEX
  8
0
 62
4
 10
-4.90114519E+01
 20
-1.04665442E+02
  0
VERTEX
  8
0
 62
4
 10
-4.87499847E+01
 20
-1.04676849E+02
  0
VERTEX
  8
0
 62
4
 10
-4.84885175E+01
 20
-1.04665442E+02
  0
VERTEX
  8
0
 62
4
 10
-4.82290402E+01
 20
-1.04631309E+02
  0
VERTEX
  8
0
 62
4
 10
-4.79735276E+01
 20
-1.04574709E+02
  0
VERTEX
  8
0
 62
4
 10
-4.77239243E+01
 20
-1.04496073E+02
  0
VERTEX
  8
0
 62
4
 10
-4.74821299E+01
 20
-1.04395999E+02
  0
VERTEX
  8
0
 62
4
 10
-4.72499847E+01
 20
-1.04275249E+02
  0
VERTEX
  8
0
 62
4
 10
-4.70292554E+01
 20
-1.04134742E+02
  0
VERTEX
  8
0
 62
4
 10
-4.68216219E+01
 20
-1.03975548E+02
  0
VERTEX
  8
0
 62
4
 10
-4.66286644E+01
 20
-1.03798877E+02
  0
VERTEX
  8
0
 62
4
 10
-4.64518514E+01
 20
-1.03606075E+02
  0
VERTEX
  8
0
 62
4
 10
-4.62925286E+01
 20
-1.03398609E+02
  0
VERTEX
  8
0
 62
4
 10
-4.61519085E+01
 20
-1.03178058E+02
  0
VERTEX
  8
0
 62
4
 10
-4.60310613E+01
 20
-1.02946099E+02
  0
VERTEX
  8
0
 62
4
 10
-4.59309068E+01
 20
-1.02704500E+02
  0
VERTEX
  8
0
 62
4
 10
-4.58522072E+01
 20
-1.02455098E+02
  0
VERTEX
  8
0
 62
4
 10
-4.57955614E+01
 20
-1.02199791E+02
  0
VERTEX
  8
0
 62
4
 10
-4.57614006E+01
 20
-1.01940523E+02
  0
VERTEX
  8
0
 62
4
 10
-4.57499847E+01
 20
-1.01679266E+02
  0
SEQEND
  8
0
  0
LINE
  8
0
  6
CENTER
 62
6
 10
-5.42602480E+01
 20
-1.01679266E+02
 11
-4.32184784E+01
 21
-1.01679266E+02
  0
LINE
  8
0
 62
4
 10
-7.57499847E+01
 20
-1.01619068E+02
 11
-7.07499847E+01
 21
-1.01619068E+02
  0
ARC
  8
0
 62
4
 10
-6.52504844E+01
 20
-9.54185187E+01
 40
4.99500622E-01
 50
8.99426895E+01
 51
1.80057310E+02
  0
LINE
  8
0
 62
4
 10
-6.52499847E+01
 20
-9.49190183E+01
 11
-5.62499847E+01
 21
-9.49190183E+01
  0
ARC
  8
0
 62
4
 10
-5.92504884E+01
 20
-1.13436228E+02
 40
1.49949647E+00
 50
1.79980757E+02
 51
2.70019243E+02
  0
ARC
  8
0
 62
4
 10
-5.92494848E+01
 20
-9.24507412E+01
 40
1.50050004E+00
 50
9.00190906E+01
 51
1.79980909E+02
  0
ARC
  8
0
 62
4
 10
-6.52504844E+01
 20
-1.08419518E+02
 40
4.99500622E-01
 50
1.79942690E+02
 51
2.70057311E+02
  0
LINE
  8
0
 62
4
 10
-5.62499847E+01
 20
-9.41853081E+01
 11
-5.62499847E+01
 21
-1.10176519E+02
  0
LINE
  8
0
 62
4
 10
-5.82499847E+01
 20
-1.08919018E+02
 11
-5.82499847E+01
 21
-1.12335435E+02
  0
LINE
  8
0
 62
4
 10
-6.07499847E+01
 20
-1.08919018E+02
 11
-6.07499847E+01
 21
-1.13935398E+02
  0
LINE
  8
0
 62
4
 10
-5.82499847E+01
 20
-9.31902141E+01
 11
-5.82499847E+01
 21
-9.49190183E+01
  0
LINE
  8
0
 62
4
 10
-6.07499847E+01
 20
-9.22232327E+01
 11
-6.07499847E+01
 21
-9.49190183E+01
  0
LINE
  8
0
 62
4
 10
-7.57499847E+01
 20
-1.08264326E+02
 11
-7.07499847E+01
 21
-1.08264326E+02
  0
LINE
  8
0
 62
4
 10
-7.57499847E+01
 20
-9.52747990E+01
 11
-7.07499847E+01
 21
-9.52747990E+01
  0
LINE
  8
0
 62
4
 10
-5.62499847E+01
 20
-1.09173224E+02
 11
-4.12499847E+01
 21
-1.09173224E+02
  0
LINE
  8
0
 62
4
 10
-5.62499847E+01
 20
-9.41853081E+01
 11
-4.12499847E+01
 21
-9.41853081E+01
  0
LINE
  8
0
 62
4
 10
-4.12499847E+01
 20
-9.41853081E+01
 11
-4.12499847E+01
 21
-1.10176519E+02
  0
LINE
  8
0
 62
4
 10
-6.92499847E+01
 20
-1.07671016E+02
 11
-6.57499847E+01
 21
-1.07671016E+02
  0
LINE
  8
0
 62
4
 10
-6.92499847E+01
 20
-9.61710162E+01
 11
-6.57499847E+01
 21
-9.61710162E+01
  0
LINE
  8
0
 62
4
 10
-6.92499847E+01
 20
-9.56710162E+01
 11
-6.92499847E+01
 21
-1.08171016E+02
  0
LINE
  8
0
 62
4
 10
-7.07499847E+01
 20
-1.08171016E+02
 11
-6.57499847E+01
 21
-1.08171016E+02
  0
LINE
  8
0
 62
4
 10
-7.07499847E+01
 20
-9.56710162E+01
 11
-6.57499847E+01
 21
-9.56710162E+01
  0
LINE
  8
0
 62
4
 10
-7.07499847E+01
 20
-9.52747990E+01
 11
-7.07499847E+01
 21
-1.08565716E+02
  0
LINE
  8
0
 62
4
 10
-7.57499847E+01
 20
-9.52747990E+01
 11
-7.57499847E+01
 21
-1.08565716E+02
  0
LINE
  8
0
 62
4
 10
-6.57499847E+01
 20
-9.54190183E+01
 11
-6.57499847E+01
 21
-1.08419018E+02
  0
LINE
  8
0
 62
4
 10
-6.52499847E+01
 20
-1.08919018E+02
 11
-5.62499847E+01
 21
-1.08919018E+02
  0
LINE
  8
0
 62
4
 10
-5.21499847E+01
 20
-1.17933962E+02
 11
-5.21499847E+01
 21
-1.15634006E+02
  0
LINE
  8
0
 62
4
 10
-4.53499847E+01
 20
-1.15634006E+02
 11
-4.53499847E+01
 21
-1.17933962E+02
  0
LINE
  8
0
 62
4
 10
-5.27499847E+01
 20
-1.15134409E+02
 11
-5.27499847E+01
 21
-1.15634006E+02
  0
LINE
  8
0
 62
4
 10
-4.47499847E+01
 20
-1.15134409E+02
 11
-4.47499847E+01
 21
-1.15634006E+02
  0
LINE
  8
0
 62
6
 10
-5.12499847E+01
 20
-7.43451611E+01
 11
-5.12499847E+01
 21
-7.60851611E+01
  0
LINE
  8
0
 62
4
 10
-5.47499847E+01
 20
-7.53451611E+01
 11
-5.44899847E+01
 21
-7.43451611E+01
  0
LINE
  8
0
 62
4
 10
-5.07499847E+01
 20
-7.53451611E+01
 11
-5.10199847E+01
 21
-7.43451611E+01
  0
LINE
  8
0
 62
4
 10
-5.10199847E+01
 20
-7.43451611E+01
 11
-5.44899847E+01
 21
-7.43451611E+01
  0
LINE
  8
0
 62
4
 10
-5.47499847E+01
 20
-7.53451611E+01
 11
-5.47499847E+01
 21
-7.60851611E+01
  0
LINE
  8
0
 62
4
 10
-5.07499847E+01
 20
-7.53451611E+01
 11
-5.07499847E+01
 21
-7.60851611E+01
  0
LINE
  8
0
 62
6
 10
-5.42499847E+01
 20
-7.43451611E+01
 11
-5.42499847E+01
 21
-7.60851611E+01
  0
LINE
  8
0
  6
CENTER
 62
6
 10
-5.27499847E+01
 20
-7.30851611E+01
 11
-5.27499847E+01
 21
-8.35851611E+01
  0
LINE
  8
0
 62
4
 10
-4.12499847E+01
 20
-7.60859914E+01
 11
-5.62499847E+01
 21
-7.60859914E+01
  0
LINE
  8
0
 62
4
 10
-4.22499847E+01
 20
-8.39773085E+01
 11
-5.52499847E+01
 21
-8.39773085E+01
  0
LINE
  8
0
 62
4
 10
-4.12499847E+01
 20
-7.60859914E+01
 11
-4.12499847E+01
 21
-9.09502412E+01
  0
LINE
  8
0
 62
4
 10
-5.62499847E+01
 20
-7.60859914E+01
 11
-5.62499847E+01
 21
-9.09502412E+01
  0
LINE
  8
0
 62
6
 10
-4.62499847E+01
 20
-7.43451611E+01
 11
-4.62499847E+01
 21
-7.60851611E+01
  0
LINE
  8
0
 62
6
 10
-4.32499847E+01
 20
-7.43451611E+01
 11
-4.32499847E+01
 21
-7.60851611E+01
  0
LINE
  8
0
 62
4
 10
-4.67499847E+01
 20
-7.53451611E+01
 11
-4.64899847E+01
 21
-7.43451611E+01
  0
LINE
  8
0
 62
4
 10
-4.27499847E+01
 20
-7.53451611E+01
 11
-4.30199847E+01
 21
-7.43451611E+01
  0
LINE
  8
0
 62
4
 10
-4.30199847E+01
 20
-7.43451611E+01
 11
-4.64899847E+01
 21
-7.43451611E+01
  0
LINE
  8
0
 62
4
 10
-4.67499847E+01
 20
-7.53451611E+01
 11
-4.67499847E+01
 21
-7.60851611E+01
  0
LINE
  8
0
 62
4
 10
-4.27499847E+01
 20
-7.53451611E+01
 11
-4.27499847E+01
 21
-7.60851611E+01
  0
LINE
  8
0
  6
CENTER
 62
6
 10
-4.47499847E+01
 20
-7.30851611E+01
 11
-4.47499847E+01
 21
-8.35851611E+01
  0
LINE
  8
0
  6
CENTER
 62
6
 10
-4.87499847E+01
 20
-7.55530334E+01
 11
-4.87499847E+01
 21
-1.22315086E+02
  0
LINE
  8
0
 62
4
 10
-2.17499847E+01
 20
-9.24502412E+01
 11
-2.17499847E+01
 21
-1.13935398E+02
  0
LINE
  8
0
 62
4
 10
-3.92499847E+01
 20
-9.31902141E+01
 11
-3.92499847E+01
 21
-1.12335435E+02
  0
LINE
  8
0
  6
CENTER
 62
6
 10
-3.27499847E+01
 20
-9.68643346E+01
 11
-3.27499847E+01
 21
-1.08741581E+02
  0
POLYLINE
  8
0
 62
4
 66
1
  0
VERTEX
  8
0
 62
4
 10
-2.96099847E+01
 20
-1.02802956E+02
  0
VERTEX
  8
0
 62
4
 10
-2.96219333E+01
 20
-1.02529507E+02
  0
VERTEX
  8
0
 62
4
 10
-2.96576884E+01
 20
-1.02258140E+02
  0
VERTEX
  8
0
 62
4
 10
-2.97169776E+01
 20
-1.01990919E+02
  0
VERTEX
  8
0
 62
4
 10
-2.97993499E+01
 20
-1.01729878E+02
  0
VERTEX
  8
0
 62
4
 10
-2.99041782E+01
 20
-1.01477004E+02
  0
VERTEX
  8
0
 62
4
 10
-3.00306649E+01
 20
-1.01234221E+02
  0
VERTEX
  8
0
 62
4
 10
-3.01778473E+01
 20
-1.01003377E+02
  0
VERTEX
  8
0
 62
4
 10
-3.03446051E+01
 20
-1.00786229E+02
  0
VERTEX
  8
0
 62
4
 10
-3.05296694E+01
 20
-1.00584429E+02
  0
VERTEX
  8
0
 62
4
 10
-3.07316316E+01
 20
-1.00399514E+02
  0
VERTEX
  8
0
 62
4
 10
-3.09489547E+01
 20
-1.00232891E+02
  0
VERTEX
  8
0
 62
4
 10
-3.11799847E+01
 20
-1.00085827E+02
  0
VERTEX
  8
0
 62
4
 10
-3.14229634E+01
 20
-9.99594421E+01
  0
VERTEX
  8
0
 62
4
 10
-3.16760415E+01
 20
-9.98546982E+01
  0
VERTEX
  8
0
 62
4
 10
-3.19372929E+01
 20
-9.97723923E+01
  0
VERTEX
  8
0
 62
4
 10
-3.22047294E+01
 20
-9.97131508E+01
  0
VERTEX
  8
0
 62
4
 10
-3.24763157E+01
 20
-9.96774246E+01
  0
VERTEX
  8
0
 62
4
 10
-3.27499847E+01
 20
-9.96654856E+01
  0
VERTEX
  8
0
 62
4
 10
-3.30236537E+01
 20
-9.96774246E+01
  0
VERTEX
  8
0
 62
4
 10
-3.32952400E+01
 20
-9.97131508E+01
  0
VERTEX
  8
0
 62
4
 10
-3.35626765E+01
 20
-9.97723923E+01
  0
VERTEX
  8
0
 62
4
 10
-3.38239280E+01
 20
-9.98546982E+01
  0
VERTEX
  8
0
 62
4
 10
-3.40770060E+01
 20
-9.99594421E+01
  0
VERTEX
  8
0
 62
4
 10
-3.43199847E+01
 20
-1.00085827E+02
  0
VERTEX
  8
0
 62
4
 10
-3.45510147E+01
 20
-1.00232891E+02
  0
VERTEX
  8
0
 62
4
 10
-3.47683378E+01
 20
-1.00399514E+02
  0
VERTEX
  8
0
 62
4
 10
-3.49703000E+01
 20
-1.00584429E+02
  0
VERTEX
  8
0
 62
4
 10
-3.51553643E+01
 20
-1.00786229E+02
  0
VERTEX
  8
0
 62
4
 10
-3.53221221E+01
 20
-1.01003377E+02
  0
VERTEX
  8
0
 62
4
 10
-3.54693045E+01
 20
-1.01234221E+02
  0
VERTEX
  8
0
 62
4
 10
-3.55957912E+01
 20
-1.01477004E+02
  0
VERTEX
  8
0
 62
4
 10
-3.57006195E+01
 20
-1.01729878E+02
  0
VERTEX
  8
0
 62
4
 10
-3.57829918E+01
 20
-1.01990919E+02
  0
VERTEX
  8
0
 62
4
 10
-3.58422810E+01
 20
-1.02258140E+02
  0
VERTEX
  8
0
 62
4
 10
-3.58780361E+01
 20
-1.02529507E+02
  0
VERTEX
  8
0
 62
4
 10
-3.58899847E+01
 20
-1.02802956E+02
  0
VERTEX
  8
0
 62
4
 10
-3.58780361E+01
 20
-1.03076405E+02
  0
VERTEX
  8
0
 62
4
 10
-3.58422810E+01
 20
-1.03347772E+02
  0
VERTEX
  8
0
 62
4
 10
-3.57829918E+01
 20
-1.03614993E+02
  0
VERTEX
  8
0
 62
4
 10
-3.57006195E+01
 20
-1.03876034E+02
  0
VERTEX
  8
0
 62
4
 10
-3.55957911E+01
 20
-1.04128908E+02
  0
VERTEX
  8
0
 62
4
 10
-3.54693045E+01
 20
-1.04371691E+02
  0
VERTEX
  8
0
 62
4
 10
-3.53221221E+01
 20
-1.04602535E+02
  0
VERTEX
  8
0
 62
4
 10
-3.51553642E+01
 20
-1.04819683E+02
  0
VERTEX
  8
0
 62
4
 10
-3.49703000E+01
 20
-1.05021483E+02
  0
VERTEX
  8
0
 62
4
 10
-3.47683378E+01
 20
-1.05206398E+02
  0
VERTEX
  8
0
 62
4
 10
-3.45510147E+01
 20
-1.05373021E+02
  0
VERTEX
  8
0
 62
4
 10
-3.43199847E+01
 20
-1.05520085E+02
  0
VERTEX
  8
0
 62
4
 10
-3.40770060E+01
 20
-1.05646470E+02
  0
VERTEX
  8
0
 62
4
 10
-3.38239279E+01
 20
-1.05751214E+02
  0
VERTEX
  8
0
 62
4
 10
-3.35626765E+01
 20
-1.05833520E+02
  0
VERTEX
  8
0
 62
4
 10
-3.32952400E+01
 20
-1.05892761E+02
  0
VERTEX
  8
0
 62
4
 10
-3.30236537E+01
 20
-1.05928487E+02
  0
VERTEX
  8
0
 62
4
 10
-3.27499847E+01
 20
-1.05940426E+02
  0
VERTEX
  8
0
 62
4
 10
-3.24763157E+01
 20
-1.05928487E+02
  0
VERTEX
  8
0
 62
4
 10
-3.22047294E+01
 20
-1.05892761E+02
  0
VERTEX
  8
0
 62
4
 10
-3.19372929E+01
 20
-1.05833520E+02
  0
VERTEX
  8
0
 62
4
 10
-3.16760414E+01
 20
-1.05751214E+02
  0
VERTEX
  8
0
 62
4
 10
-3.14229634E+01
 20
-1.05646470E+02
  0
VERTEX
  8
0
 62
4
 10
-3.11799847E+01
 20
-1.05520085E+02
  0
VERTEX
  8
0
 62
4
 10
-3.09489547E+01
 20
-1.05373021E+02
  0
VERTEX
  8
0
 62
4
 10
-3.07316316E+01
 20
-1.05206398E+02
  0
VERTEX
  8
0
 62
4
 10
-3.05296694E+01
 20
-1.05021483E+02
  0
VERTEX
  8
0
 62
4
 10
-3.03446051E+01
 20
-1.04819683E+02
  0
VERTEX
  8
0
 62
4
 10
-3.01778473E+01
 20
-1.04602535E+02
  0
VERTEX
  8
0
 62
4
 10
-3.00306649E+01
 20
-1.04371691E+02
  0
VERTEX
  8
0
 62
4
 10
-2.99041782E+01
 20
-1.04128908E+02
  0
VERTEX
  8
0
 62
4
 10
-2.97993499E+01
 20
-1.03876034E+02
  0
VERTEX
  8
0
 62
4
 10
-2.97169776E+01
 20
-1.03614993E+02
  0
VERTEX
  8
0
 62
4
 10
-2.96576884E+01
 20
-1.03347772E+02
  0
VERTEX
  8
0
 62
4
 10
-2.96219333E+01
 20
-1.03076405E+02
  0
VERTEX
  8
0
 62
4
 10
-2.96099847E+01
 20
-1.02802956E+02
  0
SEQEND
  8
0
  0
POLYLINE
  8
0
 62
4
 66
1
  0
VERTEX
  8
0
 62
4
 10
-2.92499847E+01
 20
-1.02843088E+02
  0
VERTEX
  8
0
 62
4
 10
-2.92633033E+01
 20
-1.02538289E+02
  0
VERTEX
  8
0
 62
4
 10
-2.93031576E+01
 20
-1.02235809E+02
  0
VERTEX
  8
0
 62
4
 10
-2.93692443E+01
 20
-1.01937951E+02
  0
VERTEX
  8
0
 62
4
 10
-2.94610605E+01
 20
-1.01646982E+02
  0
VERTEX
  8
0
 62
4
 10
-2.95779074E+01
 20
-1.01365116E+02
  0
VERTEX
  8
0
 62
4
 10
-2.97188958E+01
 20
-1.01094498E+02
  0
VERTEX
  8
0
 62
4
 10
-2.98829525E+01
 20
-1.00837188E+02
  0
VERTEX
  8
0
 62
4
 10
-3.00688291E+01
 20
-1.00595144E+02
  0
VERTEX
  8
0
 62
4
 10
-3.02751110E+01
 20
-1.00370208E+02
  0
VERTEX
  8
0
 62
4
 10
-3.05002281E+01
 20
-1.00164092E+02
  0
VERTEX
  8
0
 62
4
 10
-3.07424672E+01
 20
-9.99783655E+01
  0
VERTEX
  8
0
 62
4
 10
-3.09999847E+01
 20
-9.98144409E+01
  0
VERTEX
  8
0
 62
4
 10
-3.12708208E+01
 20
-9.96735662E+01
  0
VERTEX
  8
0
 62
4
 10
-3.15529142E+01
 20
-9.95568134E+01
  0
VERTEX
  8
0
 62
4
 10
-3.18441180E+01
 20
-9.94650712E+01
  0
VERTEX
  8
0
 62
4
 10
-3.21422161E+01
 20
-9.93990376E+01
  0
VERTEX
  8
0
 62
4
 10
-3.24449396E+01
 20
-9.93592154E+01
  0
VERTEX
  8
0
 62
4
 10
-3.27499847E+01
 20
-9.93459076E+01
  0
VERTEX
  8
0
 62
4
 10
-3.30550298E+01
 20
-9.93592154E+01
  0
VERTEX
  8
0
 62
4
 10
-3.33577533E+01
 20
-9.93990376E+01
  0
VERTEX
  8
0
 62
4
 10
-3.36558514E+01
 20
-9.94650712E+01
  0
VERTEX
  8
0
 62
4
 10
-3.39470552E+01
 20
-9.95568134E+01
  0
VERTEX
  8
0
 62
4
 10
-3.42291486E+01
 20
-9.96735662E+01
  0
VERTEX
  8
0
 62
4
 10
-3.44999847E+01
 20
-9.98144410E+01
  0
VERTEX
  8
0
 62
4
 10
-3.47575022E+01
 20
-9.99783655E+01
  0
VERTEX
  8
0
 62
4
 10
-3.49997413E+01
 20
-1.00164092E+02
  0
VERTEX
  8
0
 62
4
 10
-3.52248584E+01
 20
-1.00370208E+02
  0
VERTEX
  8
0
 62
4
 10
-3.54311403E+01
 20
-1.00595144E+02
  0
VERTEX
  8
0
 62
4
 10
-3.56170169E+01
 20
-1.00837188E+02
  0
VERTEX
  8
0
 62
4
 10
-3.57810736E+01
 20
-1.01094498E+02
  0
VERTEX
  8
0
 62
4
 10
-3.59220620E+01
 20
-1.01365116E+02
  0
VERTEX
  8
0
 62
4
 10
-3.60389089E+01
 20
-1.01646982E+02
  0
VERTEX
  8
0
 62
4
 10
-3.61307251E+01
 20
-1.01937951E+02
  0
VERTEX
  8
0
 62
4
 10
-3.61968118E+01
 20
-1.02235809E+02
  0
VERTEX
  8
0
 62
4
 10
-3.62366661E+01
 20
-1.02538289E+02
  0
VERTEX
  8
0
 62
4
 10
-3.62499847E+01
 20
-1.02843088E+02
  0
VERTEX
  8
0
 62
4
 10
-3.62366661E+01
 20
-1.03147887E+02
  0
VERTEX
  8
0
 62
4
 10
-3.61968118E+01
 20
-1.03450367E+02
  0
VERTEX
  8
0
 62
4
 10
-3.61307251E+01
 20
-1.03748225E+02
  0
VERTEX
  8
0
 62
4
 10
-3.60389089E+01
 20
-1.04039194E+02
  0
VERTEX
  8
0
 62
4
 10
-3.59220620E+01
 20
-1.04321060E+02
  0
VERTEX
  8
0
 62
4
 10
-3.57810736E+01
 20
-1.04591678E+02
  0
VERTEX
  8
0
 62
4
 10
-3.56170169E+01
 20
-1.04848988E+02
  0
VERTEX
  8
0
 62
4
 10
-3.54311402E+01
 20
-1.05091032E+02
  0
VERTEX
  8
0
 62
4
 10
-3.52248584E+01
 20
-1.05315968E+02
  0
VERTEX
  8
0
 62
4
 10
-3.49997413E+01
 20
-1.05522084E+02
  0
VERTEX
  8
0
 62
4
 10
-3.47575022E+01
 20
-1.05707810E+02
  0
VERTEX
  8
0
 62
4
 10
-3.44999847E+01
 20
-1.05871735E+02
  0
VERTEX
  8
0
 62
4
 10
-3.42291486E+01
 20
-1.06012610E+02
  0
VERTEX
  8
0
 62
4
 10
-3.39470552E+01
 20
-1.06129363E+02
  0
VERTEX
  8
0
 62
4
 10
-3.36558514E+01
 20
-1.06221105E+02
  0
VERTEX
  8
0
 62
4
 10
-3.33577533E+01
 20
-1.06287138E+02
  0
VERTEX
  8
0
 62
4
 10
-3.30550298E+01
 20
-1.06326961E+02
  0
VERTEX
  8
0
 62
4
 10
-3.27499847E+01
 20
-1.06340268E+02
  0
VERTEX
  8
0
 62
4
 10
-3.24449396E+01
 20
-1.06326961E+02
  0
VERTEX
  8
0
 62
4
 10
-3.21422161E+01
 20
-1.06287138E+02
  0
VERTEX
  8
0
 62
4
 10
-3.18441180E+01
 20
-1.06221105E+02
  0
VERTEX
  8
0
 62
4
 10
-3.15529142E+01
 20
-1.06129363E+02
  0
VERTEX
  8
0
 62
4
 10
-3.12708208E+01
 20
-1.06012610E+02
  0
VERTEX
  8
0
 62
4
 10
-3.09999847E+01
 20
-1.05871735E+02
  0
VERTEX
  8
0
 62
4
 10
-3.07424672E+01
 20
-1.05707810E+02
  0
VERTEX
  8
0
 62
4
 10
-3.05002281E+01
 20
-1.05522084E+02
  0
VERTEX
  8
0
 62
4
 10
-3.02751110E+01
 20
-1.05315968E+02
  0
VERTEX
  8
0
 62
4
 10
-3.00688291E+01
 20
-1.05091032E+02
  0
VERTEX
  8
0
 62
4
 10
-2.98829525E+01
 20
-1.04848988E+02
  0
VERTEX
  8
0
 62
4
 10
-2.97188958E+01
 20
-1.04591678E+02
  0
VERTEX
  8
0
 62
4
 10
-2.95779074E+01
 20
-1.04321060E+02
  0
VERTEX
  8
0
 62
4
 10
-2.94610605E+01
 20
-1.04039194E+02
  0
VERTEX
  8
0
 62
4
 10
-2.93692443E+01
 20
-1.03748225E+02
  0
VERTEX
  8
0
 62
4
 10
-2.93031576E+01
 20
-1.03450367E+02
  0
VERTEX
  8
0
 62
4
 10
-2.92633033E+01
 20
-1.03147887E+02
  0
VERTEX
  8
0
 62
4
 10
-2.92499847E+01
 20
-1.02843088E+02
  0
SEQEND
  8
0
  0
LINE
  8
0
  6
CENTER
 62
6
 10
-3.86886079E+01
 20
-1.02802958E+02
 11
-2.68113616E+01
 21
-1.02802958E+02
  0
ARC
  8
0
 62
4
 10
-2.32504885E+01
 20
-9.24507450E+01
 40
1.50050386E+00
 50
1.92364101E-02
 51
8.99807637E+01
  0
ARC
  8
0
 62
4
 10
-2.32494849E+01
 20
-1.13436224E+02
 40
1.49950029E+00
 50
2.69980903E+02
 51
1.90971113E-02
  0
ARC
  8
0
 62
4
 10
-2.32494849E+01
 20
-1.13935897E+02
 40
1.49950029E+00
 50
2.69980903E+02
 51
1.90971113E-02
  0
LINE
  8
0
 62
4
 10
2.14802009E+02
 20
-1.91752849E+02
 11
2.11663908E+02
 21
-1.91752849E+02
  0
LINE
  8
0
 62
4
 10
2.04940110E+02
 20
-1.91752849E+02
 11
1.98802009E+02
 21
-1.91752849E+02
  0
LINE
  8
0
 62
4
 10
2.11442009E+02
 20
-1.91136960E+02
 11
2.11802009E+02
 21
-1.92136154E+02
  0
LINE
  8
0
 62
4
 10
2.04802009E+02
 20
-1.92136154E+02
 11
2.05162009E+02
 21
-1.91136960E+02
  0
POLYLINE
  8
0
 62
4
 66
1
  0
VERTEX
  8
0
 62
4
 10
2.11442009E+02
 20
-1.91136960E+02
  0
VERTEX
  8
0
 62
4
 10
2.11430060E+02
 20
-1.91125977E+02
  0
VERTEX
  8
0
 62
4
 10
2.11394305E+02
 20
-1.91115078E+02
  0
VERTEX
  8
0
 62
4
 10
2.11335016E+02
 20
-1.91104345E+02
  0
VERTEX
  8
0
 62
4
 10
2.11252644E+02
 20
-1.91093861E+02
  0
VERTEX
  8
0
 62
4
 10
2.11147815E+02
 20
-1.91083704E+02
  0
VERTEX
  8
0
 62
4
 10
2.11021329E+02
 20
-1.91073953E+02
  0
VERTEX
  8
0
 62
4
 10
2.10874146E+02
 20
-1.91064681E+02
  0
VERTEX
  8
0
 62
4
 10
2.10707389E+02
 20
-1.91055960E+02
  0
VERTEX
  8
0
 62
4
 10
2.10522324E+02
 20
-1.91047855E+02
  0
VERTEX
  8
0
 62
4
 10
2.10320362E+02
 20
-1.91040428E+02
  0
VERTEX
  8
0
 62
4
 10
2.10103039E+02
 20
-1.91033736E+02
  0
VERTEX
  8
0
 62
4
 10
2.09872009E+02
 20
-1.91027829E+02
  0
VERTEX
  8
0
 62
4
 10
2.09629030E+02
 20
-1.91022753E+02
  0
VERTEX
  8
0
 62
4
 10
2.09375952E+02
 20
-1.91018546E+02
  0
VERTEX
  8
0
 62
4
 10
2.09114701E+02
 20
-1.91015240E+02
  0
VERTEX
  8
0
 62
4
 10
2.08847264E+02
 20
-1.91012861E+02
  0
VERTEX
  8
0
 62
4
 10
2.08575678E+02
 20
-1.91011426E+02
  0
VERTEX
  8
0
 62
4
 10
2.08302009E+02
 20
-1.91010946E+02
  0
VERTEX
  8
0
 62
4
 10
2.08028340E+02
 20
-1.91011426E+02
  0
VERTEX
  8
0
 62
4
 10
2.07756754E+02
 20
-1.91012861E+02
  0
VERTEX
  8
0
 62
4
 10
2.07489317E+02
 20
-1.91015240E+02
  0
VERTEX
  8
0
 62
4
 10
2.07228066E+02
 20
-1.91018546E+02
  0
VERTEX
  8
0
 62
4
 10
2.06974988E+02
 20
-1.91022753E+02
  0
VERTEX
  8
0
 62
4
 10
2.06732009E+02
 20
-1.91027829E+02
  0
VERTEX
  8
0
 62
4
 10
2.06500979E+02
 20
-1.91033736E+02
  0
VERTEX
  8
0
 62
4
 10
2.06283656E+02
 20
-1.91040428E+02
  0
VERTEX
  8
0
 62
4
 10
2.06081694E+02
 20
-1.91047855E+02
  0
VERTEX
  8
0
 62
4
 10
2.05896629E+02
 20
-1.91055960E+02
  0
VERTEX
  8
0
 62
4
 10
2.05729872E+02
 20
-1.91064681E+02
  0
VERTEX
  8
0
 62
4
 10
2.05582689E+02
 20
-1.91073953E+02
  0
VERTEX
  8
0
 62
4
 10
2.05456203E+02
 20
-1.91083704E+02
  0
VERTEX
  8
0
 62
4
 10
2.05351374E+02
 20
-1.91093861E+02
  0
VERTEX
  8
0
 62
4
 10
2.05269002E+02
 20
-1.91104345E+02
  0
VERTEX
  8
0
 62
4
 10
2.05209713E+02
 20
-1.91115078E+02
  0
VERTEX
  8
0
 62
4
 10
2.05173958E+02
 20
-1.91125977E+02
  0
VERTEX
  8
0
 62
4
 10
2.05162009E+02
 20
-1.91136960E+02
  0
VERTEX
  8
0
 62
4
 10
2.05173958E+02
 20
-1.91147943E+02
  0
VERTEX
  8
0
 62
4
 10
2.05209713E+02
 20
-1.91158842E+02
  0
VERTEX
  8
0
 62
4
 10
2.05269002E+02
 20
-1.91169575E+02
  0
VERTEX
  8
0
 62
4
 10
2.05351374E+02
 20
-1.91180059E+02
  0
VERTEX
  8
0
 62
4
 10
2.05456203E+02
 20
-1.91190216E+02
  0
VERTEX
  8
0
 62
4
 10
2.05582689E+02
 20
-1.91199967E+02
  0
VERTEX
  8
0
 62
4
 10
2.05729872E+02
 20
-1.91209239E+02
  0
VERTEX
  8
0
 62
4
 10
2.05896629E+02
 20
-1.91217960E+02
  0
VERTEX
  8
0
 62
4
 10
2.06081694E+02
 20
-1.91226065E+02
  0
VERTEX
  8
0
 62
4
 10
2.06283656E+02
 20
-1.91233492E+02
  0
VERTEX
  8
0
 62
4
 10
2.06500979E+02
 20
-1.91240184E+02
  0
VERTEX
  8
0
 62
4
 10
2.06732009E+02
 20
-1.91246091E+02
  0
VERTEX
  8
0
 62
4
 10
2.06974988E+02
 20
-1.91251167E+02
  0
VERTEX
  8
0
 62
4
 10
2.07228066E+02
 20
-1.91255374E+02
  0
VERTEX
  8
0
 62
4
 10
2.07489317E+02
 20
-1.91258680E+02
  0
VERTEX
  8
0
 62
4
 10
2.07756754E+02
 20
-1.91261059E+02
  0
VERTEX
  8
0
 62
4
 10
2.08028340E+02
 20
-1.91262494E+02
  0
VERTEX
  8
0
 62
4
 10
2.08302009E+02
 20
-1.91262974E+02
  0
VERTEX
  8
0
 62
4
 10
2.08575678E+02
 20
-1.91262494E+02
  0
VERTEX
  8
0
 62
4
 10
2.08847264E+02
 20
-1.91261059E+02
  0
VERTEX
  8
0
 62
4
 10
2.09114701E+02
 20
-1.91258680E+02
  0
VERTEX
  8
0
 62
4
 10
2.09375952E+02
 20
-1.91255374E+02
  0
VERTEX
  8
0
 62
4
 10
2.09629030E+02
 20
-1.91251167E+02
  0
VERTEX
  8
0
 62
4
 10
2.09872009E+02
 20
-1.91246091E+02
  0
VERTEX
  8
0
 62
4
 10
2.10103039E+02
 20
-1.91240184E+02
  0
VERTEX
  8
0
 62
4
 10
2.10320362E+02
 20
-1.91233492E+02
  0
VERTEX
  8
0
 62
4
 10
2.10522324E+02
 20
-1.91226065E+02
  0
VERTEX
  8
0
 62
4
 10
2.10707389E+02
 20
-1.91217960E+02
  0
VERTEX
  8
0
 62
4
 10
2.10874146E+02
 20
-1.91209239E+02
  0
VERTEX
  8
0
 62
4
 10
2.11021329E+02
 20
-1.91199967E+02
  0
VERTEX
  8
0
 62
4
 10
2.11147815E+02
 20
-1.91190216E+02
  0
VERTEX
  8
0
 62
4
 10
2.11252644E+02
 20
-1.91180059E+02
  0
VERTEX
  8
0
 62
4
 10
2.11335016E+02
 20
-1.91169575E+02
  0
VERTEX
  8
0
 62
4
 10
2.11394305E+02
 20
-1.91158842E+02
  0
VERTEX
  8
0
 62
4
 10
2.11430060E+02
 20
-1.91147943E+02
  0
VERTEX
  8
0
 62
4
 10
2.11442009E+02
 20
-1.91136960E+02
  0
SEQEND
  8
0
  0
POLYLINE
  8
0
 62
4
 66
1
  0
VERTEX
  8
0
 62
4
 10
2.04803472E+02
 20
-1.92132093E+02
  0
VERTEX
  8
0
 62
4
 10
2.04808131E+02
 20
-1.92144458E+02
  0
VERTEX
  8
0
 62
4
 10
2.04839871E+02
 20
-1.92156759E+02
  0
VERTEX
  8
0
 62
4
 10
2.04898448E+02
 20
-1.92168899E+02
  0
VERTEX
  8
0
 62
4
 10
2.04983406E+02
 20
-1.92180787E+02
  0
VERTEX
  8
0
 62
4
 10
2.05094088E+02
 20
-1.92192328E+02
  0
VERTEX
  8
0
 62
4
 10
2.05229635E+02
 20
-1.92203433E+02
  0
VERTEX
  8
0
 62
4
 10
2.05388997E+02
 20
-1.92214018E+02
  0
VERTEX
  8
0
 62
4
 10
2.05570938E+02
 20
-1.92223998E+02
  0
VERTEX
  8
0
 62
4
 10
2.05774049E+02
 20
-1.92233298E+02
  0
VERTEX
  8
0
 62
4
 10
2.05996754E+02
 20
-1.92241845E+02
  0
VERTEX
  8
0
 62
4
 10
2.06237328E+02
 20
-1.92249572E+02
  0
VERTEX
  8
0
 62
4
 10
2.06493906E+02
 20
-1.92256421E+02
  0
VERTEX
  8
0
 62
4
 10
2.06764499E+02
 20
-1.92262337E+02
  0
VERTEX
  8
0
 62
4
 10
2.07047010E+02
 20
-1.92267275E+02
  0
VERTEX
  8
0
 62
4
 10
2.07339248E+02
 20
-1.92271197E+02
  0
VERTEX
  8
0
 62
4
 10
2.07638949E+02
 20
-1.92274072E+02
  0
VERTEX
  8
0
 62
4
 10
2.07943790E+02
 20
-1.92275878E+02
  0
VERTEX
  8
0
 62
4
 10
2.08251407E+02
 20
-1.92276601E+02
  0
VERTEX
  8
0
 62
4
 10
2.08559417E+02
 20
-1.92276235E+02
  0
VERTEX
  8
0
 62
4
 10
2.08865431E+02
 20
-1.92274783E+02
  0
VERTEX
  8
0
 62
4
 10
2.09167078E+02
 20
-1.92272257E+02
  0
VERTEX
  8
0
 62
4
 10
2.09462020E+02
 20
-1.92268676E+02
  0
VERTEX
  8
0
 62
4
 10
2.09747970E+02
 20
-1.92264068E+02
  0
VERTEX
  8
0
 62
4
 10
2.10022712E+02
 20
-1.92258468E+02
  0
VERTEX
  8
0
 62
4
 10
2.10284117E+02
 20
-1.92251920E+02
  0
VERTEX
  8
0
 62
4
 10
2.10530158E+02
 20
-1.92244475E+02
  0
VERTEX
  8
0
 62
4
 10
2.10758927E+02
 20
-1.92236191E+02
  0
VERTEX
  8
0
 62
4
 10
2.10968653E+02
 20
-1.92227130E+02
  0
VERTEX
  8
0
 62
4
 10
2.11157708E+02
 20
-1.92217365E+02
  0
VERTEX
  8
0
 62
4
 10
2.11324629E+02
 20
-1.92206970E+02
  0
VERTEX
  8
0
 62
4
 10
2.11468120E+02
 20
-1.92196026E+02
  0
VERTEX
  8
0
 62
4
 10
2.11587070E+02
 20
-1.92184618E+02
  0
VERTEX
  8
0
 62
4
 10
2.11680557E+02
 20
-1.92172835E+02
  0
VERTEX
  8
0
 62
4
 10
2.11747855E+02
 20
-1.92160767E+02
  0
VERTEX
  8
0
 62
4
 10
2.11788444E+02
 20
-1.92148508E+02
  0
VERTEX
  8
0
 62
4
 10
2.11802009E+02
 20
-1.92136154E+02
  0
SEQEND
  8
0
  0
LINE
  8
0
  6
CENTER
 62
6
 10
2.08302009E+02
 20
-1.90592338E+02
 11
2.08302009E+02
 21
-1.92515392E+02
  0
ARC
  8
0
 62
4
 10
2.34802509E+02
 20
-1.93252350E+02
 40
1.49950029E+00
 50
3.59980903E+02
 51
9.00190969E+01
  0
LINE
  8
0
 62
4
 10
2.34802009E+02
 20
-1.91752849E+02
 11
2.33802009E+02
 21
-1.91752849E+02
  0
ARC
  8
0
 62
4
 10
1.98801509E+02
 20
-1.93252350E+02
 40
1.49950029E+00
 50
8.99809029E+01
 51
1.80019097E+02
  0
POLYLINE
  8
0
 62
4
 66
1
  0
VERTEX
  8
0
 62
4
 10
2.30037009E+02
 20
-2.16302431E+02
  0
VERTEX
  8
0
 62
4
 10
2.30030407E+02
 20
-2.16151338E+02
  0
VERTEX
  8
0
 62
4
 10
2.30010650E+02
 20
-2.16001394E+02
  0
VERTEX
  8
0
 62
4
 10
2.29977890E+02
 20
-2.15853742E+02
  0
VERTEX
  8
0
 62
4
 10
2.29932376E+02
 20
-2.15709504E+02
  0
VERTEX
  8
0
 62
4
 10
2.29874453E+02
 20
-2.15569779E+02
  0
VERTEX
  8
0
 62
4
 10
2.29804563E+02
 20
-2.15435630E+02
  0
VERTEX
  8
0
 62
4
 10
2.29723238E+02
 20
-2.15308078E+02
  0
VERTEX
  8
0
 62
4
 10
2.29631096E+02
 20
-2.15188093E+02
  0
VERTEX
  8
0
 62
4
 10
2.29528839E+02
 20
-2.15076589E+02
  0
VERTEX
  8
0
 62
4
 10
2.29417246E+02
 20
-2.14974415E+02
  0
VERTEX
  8
0
 62
4
 10
2.29297164E+02
 20
-2.14882347E+02
  0
VERTEX
  8
0
 62
4
 10
2.29169509E+02
 20
-2.14801087E+02
  0
VERTEX
  8
0
 62
4
 10
2.29035252E+02
 20
-2.14731254E+02
  0
VERTEX
  8
0
 62
4
 10
2.28895414E+02
 20
-2.14673378E+02
  0
VERTEX
  8
0
 62
4
 10
2.28751060E+02
 20
-2.14627900E+02
  0
VERTEX
  8
0
 62
4
 10
2.28603289E+02
 20
-2.14595166E+02
  0
VERTEX
  8
0
 62
4
 10
2.28453224E+02
 20
-2.14575426E+02
  0
VERTEX
  8
0
 62
4
 10
2.28302009E+02
 20
-2.14568829E+02
  0
VERTEX
  8
0
 62
4
 10
2.28150794E+02
 20
-2.14575426E+02
  0
VERTEX
  8
0
 62
4
 10
2.28000729E+02
 20
-2.14595166E+02
  0
VERTEX
  8
0
 62
4
 10
2.27852958E+02
 20
-2.14627900E+02
  0
VERTEX
  8
0
 62
4
 10
2.27708604E+02
 20
-2.14673378E+02
  0
VERTEX
  8
0
 62
4
 10
2.27568766E+02
 20
-2.14731254E+02
  0
VERTEX
  8
0
 62
4
 10
2.27434509E+02
 20
-2.14801087E+02
  0
VERTEX
  8
0
 62
4
 10
2.27306854E+02
 20
-2.14882347E+02
  0
VERTEX
  8
0
 62
4
 10
2.27186772E+02
 20
-2.14974415E+02
  0
VERTEX
  8
0
 62
4
 10
2.27075179E+02
 20
-2.15076589E+02
  0
VERTEX
  8
0
 62
4
 10
2.26972922E+02
 20
-2.15188093E+02
  0
VERTEX
  8
0
 62
4
 10
2.26880780E+02
 20
-2.15308078E+02
  0
VERTEX
  8
0
 62
4
 10
2.26799455E+02
 20
-2.15435630E+02
  0
VERTEX
  8
0
 62
4
 10
2.26729565E+02
 20
-2.15569779E+02
  0
VERTEX
  8
0
 62
4
 10
2.26671642E+02
 20
-2.15709504E+02
  0
VERTEX
  8
0
 62
4
 10
2.26626128E+02
 20
-2.15853742E+02
  0
VERTEX
  8
0
 62
4
 10
2.26593368E+02
 20
-2.16001394E+02
  0
VERTEX
  8
0
 62
4
 10
2.26573611E+02
 20
-2.16151338E+02
  0
VERTEX
  8
0
 62
4
 10
2.26567009E+02
 20
-2.16302431E+02
  0
VERTEX
  8
0
 62
4
 10
2.26573611E+02
 20
-2.16453524E+02
  0
VERTEX
  8
0
 62
4
 10
2.26593368E+02
 20
-2.16603468E+02
  0
VERTEX
  8
0
 62
4
 10
2.26626128E+02
 20
-2.16751120E+02
  0
VERTEX
  8
0
 62
4
 10
2.26671642E+02
 20
-2.16895358E+02
  0
VERTEX
  8
0
 62
4
 10
2.26729565E+02
 20
-2.17035083E+02
  0
VERTEX
  8
0
 62
4
 10
2.26799455E+02
 20
-2.17169232E+02
  0
VERTEX
  8
0
 62
4
 10
2.26880780E+02
 20
-2.17296784E+02
  0
VERTEX
  8
0
 62
4
 10
2.26972922E+02
 20
-2.17416769E+02
  0
VERTEX
  8
0
 62
4
 10
2.27075179E+02
 20
-2.17528273E+02
  0
VERTEX
  8
0
 62
4
 10
2.27186772E+02
 20
-2.17630447E+02
  0
VERTEX
  8
0
 62
4
 10
2.27306854E+02
 20
-2.17722515E+02
  0
VERTEX
  8
0
 62
4
 10
2.27434509E+02
 20
-2.17803775E+02
  0
VERTEX
  8
0
 62
4
 10
2.27568766E+02
 20
-2.17873608E+02
  0
VERTEX
  8
0
 62
4
 10
2.27708604E+02
 20
-2.17931484E+02
  0
VERTEX
  8
0
 62
4
 10
2.27852958E+02
 20
-2.17976962E+02
  0
VERTEX
  8
0
 62
4
 10
2.28000729E+02
 20
-2.18009696E+02
  0
VERTEX
  8
0
 62
4
 10
2.28150794E+02
 20
-2.18029436E+02
  0
VERTEX
  8
0
 62
4
 10
2.28302009E+02
 20
-2.18036033E+02
  0
VERTEX
  8
0
 62
4
 10
2.28453224E+02
 20
-2.18029436E+02
  0
VERTEX
  8
0
 62
4
 10
2.28603289E+02
 20
-2.18009696E+02
  0
VERTEX
  8
0
 62
4
 10
2.28751060E+02
 20
-2.17976962E+02
  0
VERTEX
  8
0
 62
4
 10
2.28895414E+02
 20
-2.17931484E+02
  0
VERTEX
  8
0
 62
4
 10
2.29035252E+02
 20
-2.17873608E+02
  0
VERTEX
  8
0
 62
4
 10
2.29169509E+02
 20
-2.17803775E+02
  0
VERTEX
  8
0
 62
4
 10
2.29297164E+02
 20
-2.17722515E+02
  0
VERTEX
  8
0
 62
4
 10
2.29417246E+02
 20
-2.17630447E+02
  0
VERTEX
  8
0
 62
4
 10
2.29528839E+02
 20
-2.17528273E+02
  0
VERTEX
  8
0
 62
4
 10
2.29631096E+02
 20
-2.17416769E+02
  0
VERTEX
  8
0
 62
4
 10
2.29723238E+02
 20
-2.17296784E+02
  0
VERTEX
  8
0
 62
4
 10
2.29804563E+02
 20
-2.17169232E+02
  0
VERTEX
  8
0
 62
4
 10
2.29874453E+02
 20
-2.17035083E+02
  0
VERTEX
  8
0
 62
4
 10
2.29932376E+02
 20
-2.16895358E+02
  0
VERTEX
  8
0
 62
4
 10
2.29977890E+02
 20
-2.16751120E+02
  0
VERTEX
  8
0
 62
4
 10
2.30010650E+02
 20
-2.16603468E+02
  0
VERTEX
  8
0
 62
4
 10
2.30030407E+02
 20
-2.16453524E+02
  0
VERTEX
  8
0
 62
4
 10
2.30037009E+02
 20
-2.16302431E+02
  0
SEQEND
  8
0
  0
POLYLINE
  8
0
 62
6
 66
1
  0
VERTEX
  8
0
 62
6
 10
2.29802009E+02
 20
-2.16297435E+02
  0
VERTEX
  8
0
 62
6
 10
2.29796301E+02
 20
-2.16166807E+02
  0
VERTEX
  8
0
 62
6
 10
2.29779221E+02
 20
-2.16037173E+02
  0
VERTEX
  8
0
 62
6
 10
2.29750898E+02
 20
-2.15909519E+02
  0
VERTEX
  8
0
 62
6
 10
2.29711548E+02
 20
-2.15784818E+02
  0
VERTEX
  8
0
 62
6
 10
2.29661471E+02
 20
-2.15664018E+02
  0
VERTEX
  8
0
 62
6
 10
2.29601047E+02
 20
-2.15548039E+02
  0
VERTEX
  8
0
 62
6
 10
2.29530737E+02
 20
-2.15437763E+02
  0
VERTEX
  8
0
 62
6
 10
2.29451076E+02
 20
-2.15334030E+02
  0
VERTEX
  8
0
 62
6
 10
2.29362669E+02
 20
-2.15237629E+02
  0
VERTEX
  8
0
 62
6
 10
2.29266190E+02
 20
-2.15149294E+02
  0
VERTEX
  8
0
 62
6
 10
2.29162374E+02
 20
-2.15069697E+02
  0
VERTEX
  8
0
 62
6
 10
2.29052009E+02
 20
-2.14999443E+02
  0
VERTEX
  8
0
 62
6
 10
2.28935936E+02
 20
-2.14939069E+02
  0
VERTEX
  8
0
 62
6
 10
2.28815039E+02
 20
-2.14889032E+02
  0
VERTEX
  8
0
 62
6
 10
2.28690238E+02
 20
-2.14849713E+02
  0
VERTEX
  8
0
 62
6
 10
2.28562481E+02
 20
-2.14821413E+02
  0
VERTEX
  8
0
 62
6
 10
2.28432743E+02
 20
-2.14804347E+02
  0
VERTEX
  8
0
 62
6
 10
2.28302009E+02
 20
-2.14798643E+02
  0
VERTEX
  8
0
 62
6
 10
2.28171275E+02
 20
-2.14804347E+02
  0
VERTEX
  8
0
 62
6
 10
2.28041537E+02
 20
-2.14821413E+02
  0
VERTEX
  8
0
 62
6
 10
2.27913780E+02
 20
-2.14849713E+02
  0
VERTEX
  8
0
 62
6
 10
2.27788979E+02
 20
-2.14889032E+02
  0
VERTEX
  8
0
 62
6
 10
2.27668082E+02
 20
-2.14939069E+02
  0
VERTEX
  8
0
 62
6
 10
2.27552009E+02
 20
-2.14999443E+02
  0
VERTEX
  8
0
 62
6
 10
2.27441644E+02
 20
-2.15069697E+02
  0
VERTEX
  8
0
 62
6
 10
2.27337828E+02
 20
-2.15149294E+02
  0
VERTEX
  8
0
 62
6
 10
2.27241349E+02
 20
-2.15237629E+02
  0
VERTEX
  8
0
 62
6
 10
2.27152942E+02
 20
-2.15334030E+02
  0
VERTEX
  8
0
 62
6
 10
2.27073281E+02
 20
-2.15437763E+02
  0
VERTEX
  8
0
 62
6
 10
2.27002971E+02
 20
-2.15548039E+02
  0
VERTEX
  8
0
 62
6
 10
2.26942547E+02
 20
-2.15664018E+02
  0
VERTEX
  8
0
 62
6
 10
2.26892470E+02
 20
-2.15784818E+02
  0
VERTEX
  8
0
 62
6
 10
2.26853120E+02
 20
-2.15909519E+02
  0
VERTEX
  8
0
 62
6
 10
2.26824797E+02
 20
-2.16037173E+02
  0
VERTEX
  8
0
 62
6
 10
2.26807717E+02
 20
-2.16166807E+02
  0
VERTEX
  8
0
 62
6
 10
2.26802009E+02
 20
-2.16297435E+02
  0
VERTEX
  8
0
 62
6
 10
2.26807717E+02
 20
-2.16428063E+02
  0
VERTEX
  8
0
 62
6
 10
2.26824797E+02
 20
-2.16557697E+02
  0
VERTEX
  8
0
 62
6
 10
2.26853120E+02
 20
-2.16685351E+02
  0
VERTEX
  8
0
 62
6
 10
2.26892470E+02
 20
-2.16810052E+02
  0
VERTEX
  8
0
 62
6
 10
2.26942547E+02
 20
-2.16930852E+02
  0
VERTEX
  8
0
 62
6
 10
2.27002971E+02
 20
-2.17046831E+02
  0
VERTEX
  8
0
 62
6
 10
2.27073281E+02
 20
-2.17157107E+02
  0
VERTEX
  8
0
 62
6
 10
2.27152942E+02
 20
-2.17260840E+02
  0
VERTEX
  8
0
 62
6
 10
2.27241349E+02
 20
-2.17357241E+02
  0
VERTEX
  8
0
 62
6
 10
2.27337828E+02
 20
-2.17445576E+02
  0
VERTEX
  8
0
 62
6
 10
2.27441644E+02
 20
-2.17525173E+02
  0
VERTEX
  8
0
 62
6
 10
2.27552009E+02
 20
-2.17595427E+02
  0
VERTEX
  8
0
 62
6
 10
2.27668082E+02
 20
-2.17655801E+02
  0
VERTEX
  8
0
 62
6
 10
2.27788979E+02
 20
-2.17705838E+02
  0
VERTEX
  8
0
 62
6
 10
2.27913780E+02
 20
-2.17745157E+02
  0
VERTEX
  8
0
 62
6
 10
2.28041537E+02
 20
-2.17773457E+02
  0
VERTEX
  8
0
 62
6
 10
2.28171275E+02
 20
-2.17790523E+02
  0
VERTEX
  8
0
 62
6
 10
2.28302009E+02
 20
-2.17796227E+02
  0
VERTEX
  8
0
 62
6
 10
2.28432743E+02
 20
-2.17790523E+02
  0
VERTEX
  8
0
 62
6
 10
2.28562481E+02
 20
-2.17773457E+02
  0
VERTEX
  8
0
 62
6
 10
2.28690238E+02
 20
-2.17745157E+02
  0
VERTEX
  8
0
 62
6
 10
2.28815039E+02
 20
-2.17705838E+02
  0
VERTEX
  8
0
 62
6
 10
2.28935936E+02
 20
-2.17655801E+02
  0
VERTEX
  8
0
 62
6
 10
2.29052009E+02
 20
-2.17595427E+02
  0
VERTEX
  8
0
 62
6
 10
2.29162374E+02
 20
-2.17525173E+02
  0
VERTEX
  8
0
 62
6
 10
2.29266190E+02
 20
-2.17445576E+02
  0
VERTEX
  8
0
 62
6
 10
2.29362669E+02
 20
-2.17357241E+02
  0
VERTEX
  8
0
 62
6
 10
2.29451076E+02
 20
-2.17260840E+02
  0
VERTEX
  8
0
 62
6
 10
2.29530737E+02
 20
-2.17157107E+02
  0
VERTEX
  8
0
 62
6
 10
2.29601047E+02
 20
-2.17046831E+02
  0
VERTEX
  8
0
 62
6
 10
2.29661471E+02
 20
-2.16930852E+02
  0
VERTEX
  8
0
 62
6
 10
2.29711548E+02
 20
-2.16810052E+02
  0
VERTEX
  8
0
 62
6
 10
2.29750898E+02
 20
-2.16685351E+02
  0
VERTEX
  8
0
 62
6
 10
2.29779221E+02
 20
-2.16557697E+02
  0
VERTEX
  8
0
 62
6
 10
2.29796301E+02
 20
-2.16428063E+02
  0
VERTEX
  8
0
 62
6
 10
2.29802009E+02
 20
-2.16297435E+02
  0
SEQEND
  8
0
  0
POLYLINE
  8
0
 62
4
 66
1
  0
VERTEX
  8
0
 62
4
 10
2.30302009E+02
 20
-2.16262299E+02
  0
VERTEX
  8
0
 62
4
 10
2.30294398E+02
 20
-2.16088563E+02
  0
VERTEX
  8
0
 62
4
 10
2.30271625E+02
 20
-2.15916150E+02
  0
VERTEX
  8
0
 62
4
 10
2.30233861E+02
 20
-2.15746371E+02
  0
VERTEX
  8
0
 62
4
 10
2.30181394E+02
 20
-2.15580519E+02
  0
VERTEX
  8
0
 62
4
 10
2.30114625E+02
 20
-2.15419855E+02
  0
VERTEX
  8
0
 62
4
 10
2.30034060E+02
 20
-2.15265603E+02
  0
VERTEX
  8
0
 62
4
 10
2.29940313E+02
 20
-2.15118936E+02
  0
VERTEX
  8
0
 62
4
 10
2.29834098E+02
 20
-2.14980971E+02
  0
VERTEX
  8
0
 62
4
 10
2.29716223E+02
 20
-2.14852757E+02
  0
VERTEX
  8
0
 62
4
 10
2.29587584E+02
 20
-2.14735272E+02
  0
VERTEX
  8
0
 62
4
 10
2.29449162E+02
 20
-2.14629407E+02
  0
VERTEX
  8
0
 62
4
 10
2.29302009E+02
 20
-2.14535970E+02
  0
VERTEX
  8
0
 62
4
 10
2.29147246E+02
 20
-2.14455672E+02
  0
VERTEX
  8
0
 62
4
 10
2.28986049E+02
 20
-2.14389122E+02
  0
VERTEX
  8
0
 62
4
 10
2.28819647E+02
 20
-2.14336829E+02
  0
VERTEX
  8
0
 62
4
 10
2.28649305E+02
 20
-2.14299190E+02
  0
VERTEX
  8
0
 62
4
 10
2.28476320E+02
 20
-2.14276492E+02
  0
VERTEX
  8
0
 62
4
 10
2.28302009E+02
 20
-2.14268906E+02
  0
VERTEX
  8
0
 62
4
 10
2.28127698E+02
 20
-2.14276492E+02
  0
VERTEX
  8
0
 62
4
 10
2.27954713E+02
 20
-2.14299190E+02
  0
VERTEX
  8
0
 62
4
 10
2.27784371E+02
 20
-2.14336829E+02
  0
VERTEX
  8
0
 62
4
 10
2.27617969E+02
 20
-2.14389122E+02
  0
VERTEX
  8
0
 62
4
 10
2.27456772E+02
 20
-2.14455672E+02
  0
VERTEX
  8
0
 62
4
 10
2.27302009E+02
 20
-2.14535970E+02
  0
VERTEX
  8
0
 62
4
 10
2.27154856E+02
 20
-2.14629407E+02
  0
VERTEX
  8
0
 62
4
 10
2.27016434E+02
 20
-2.14735272E+02
  0
VERTEX
  8
0
 62
4
 10
2.26887795E+02
 20
-2.14852757E+02
  0
VERTEX
  8
0
 62
4
 10
2.26769920E+02
 20
-2.14980971E+02
  0
VERTEX
  8
0
 62
4
 10
2.26663705E+02
 20
-2.15118936E+02
  0
VERTEX
  8
0
 62
4
 10
2.26569958E+02
 20
-2.15265603E+02
  0
VERTEX
  8
0
 62
4
 10
2.26489393E+02
 20
-2.15419855E+02
  0
VERTEX
  8
0
 62
4
 10
2.26422624E+02
 20
-2.15580519E+02
  0
VERTEX
  8
0
 62
4
 10
2.26370157E+02
 20
-2.15746371E+02
  0
VERTEX
  8
0
 62
4
 10
2.26332393E+02
 20
-2.15916150E+02
  0
VERTEX
  8
0
 62
4
 10
2.26309620E+02
 20
-2.16088563E+02
  0
VERTEX
  8
0
 62
4
 10
2.26302009E+02
 20
-2.16262299E+02
  0
VERTEX
  8
0
 62
4
 10
2.26309620E+02
 20
-2.16436035E+02
  0
VERTEX
  8
0
 62
4
 10
2.26332393E+02
 20
-2.16608448E+02
  0
VERTEX
  8
0
 62
4
 10
2.26370157E+02
 20
-2.16778227E+02
  0
VERTEX
  8
0
 62
4
 10
2.26422624E+02
 20
-2.16944080E+02
  0
VERTEX
  8
0
 62
4
 10
2.26489393E+02
 20
-2.17104743E+02
  0
VERTEX
  8
0
 62
4
 10
2.26569958E+02
 20
-2.17258995E+02
  0
VERTEX
  8
0
 62
4
 10
2.26663705E+02
 20
-2.17405662E+02
  0
VERTEX
  8
0
 62
4
 10
2.26769920E+02
 20
-2.17543627E+02
  0
VERTEX
  8
0
 62
4
 10
2.26887795E+02
 20
-2.17671841E+02
  0
VERTEX
  8
0
 62
4
 10
2.27016434E+02
 20
-2.17789326E+02
  0
VERTEX
  8
0
 62
4
 10
2.27154856E+02
 20
-2.17895191E+02
  0
VERTEX
  8
0
 62
4
 10
2.27302009E+02
 20
-2.17988628E+02
  0
VERTEX
  8
0
 62
4
 10
2.27456772E+02
 20
-2.18068926E+02
  0
VERTEX
  8
0
 62
4
 10
2.27617969E+02
 20
-2.18135476E+02
  0
VERTEX
  8
0
 62
4
 10
2.27784371E+02
 20
-2.18187769E+02
  0
VERTEX
  8
0
 62
4
 10
2.27954713E+02
 20
-2.18225408E+02
  0
VERTEX
  8
0
 62
4
 10
2.28127698E+02
 20
-2.18248106E+02
  0
VERTEX
  8
0
 62
4
 10
2.28302009E+02
 20
-2.18255692E+02
  0
VERTEX
  8
0
 62
4
 10
2.28476320E+02
 20
-2.18248106E+02
  0
VERTEX
  8
0
 62
4
 10
2.28649305E+02
 20
-2.18225408E+02
  0
VERTEX
  8
0
 62
4
 10
2.28819647E+02
 20
-2.18187769E+02
  0
VERTEX
  8
0
 62
4
 10
2.28986049E+02
 20
-2.18135476E+02
  0
VERTEX
  8
0
 62
4
 10
2.29147246E+02
 20
-2.18068926E+02
  0
VERTEX
  8
0
 62
4
 10
2.29302009E+02
 20
-2.17988628E+02
  0
VERTEX
  8
0
 62
4
 10
2.29449162E+02
 20
-2.17895191E+02
  0
VERTEX
  8
0
 62
4
 10
2.29587584E+02
 20
-2.17789326E+02
  0
VERTEX
  8
0
 62
4
 10
2.29716223E+02
 20
-2.17671841E+02
  0
VERTEX
  8
0
 62
4
 10
2.29834098E+02
 20
-2.17543627E+02
  0
VERTEX
  8
0
 62
4
 10
2.29940313E+02
 20
-2.17405662E+02
  0
VERTEX
  8
0
 62
4
 10
2.30034060E+02
 20
-2.17258995E+02
  0
VERTEX
  8
0
 62
4
 10
2.30114625E+02
 20
-2.17104743E+02
  0
VERTEX
  8
0
 62
4
 10
2.30181394E+02
 20
-2.16944079E+02
  0
VERTEX
  8
0
 62
4
 10
2.30233861E+02
 20
-2.16778227E+02
  0
VERTEX
  8
0
 62
4
 10
2.30271625E+02
 20
-2.16608448E+02
  0
VERTEX
  8
0
 62
4
 10
2.30294398E+02
 20
-2.16436035E+02
  0
VERTEX
  8
0
 62
4
 10
2.30302009E+02
 20
-2.16262299E+02
  0
SEQEND
  8
0
  0
POLYLINE
  8
0
 62
4
 66
1
  0
VERTEX
  8
0
 62
4
 10
2.22037009E+02
 20
-2.16302431E+02
  0
VERTEX
  8
0
 62
4
 10
2.22030407E+02
 20
-2.16151338E+02
  0
VERTEX
  8
0
 62
4
 10
2.22010650E+02
 20
-2.16001394E+02
  0
VERTEX
  8
0
 62
4
 10
2.21977890E+02
 20
-2.15853742E+02
  0
VERTEX
  8
0
 62
4
 10
2.21932376E+02
 20
-2.15709504E+02
  0
VERTEX
  8
0
 62
4
 10
2.21874453E+02
 20
-2.15569779E+02
  0
VERTEX
  8
0
 62
4
 10
2.21804563E+02
 20
-2.15435630E+02
  0
VERTEX
  8
0
 62
4
 10
2.21723238E+02
 20
-2.15308078E+02
  0
VERTEX
  8
0
 62
4
 10
2.21631096E+02
 20
-2.15188093E+02
  0
VERTEX
  8
0
 62
4
 10
2.21528839E+02
 20
-2.15076589E+02
  0
VERTEX
  8
0
 62
4
 10
2.21417246E+02
 20
-2.14974415E+02
  0
VERTEX
  8
0
 62
4
 10
2.21297164E+02
 20
-2.14882347E+02
  0
VERTEX
  8
0
 62
4
 10
2.21169509E+02
 20
-2.14801087E+02
  0
VERTEX
  8
0
 62
4
 10
2.21035252E+02
 20
-2.14731254E+02
  0
VERTEX
  8
0
 62
4
 10
2.20895414E+02
 20
-2.14673378E+02
  0
VERTEX
  8
0
 62
4
 10
2.20751060E+02
 20
-2.14627900E+02
  0
VERTEX
  8
0
 62
4
 10
2.20603289E+02
 20
-2.14595166E+02
  0
VERTEX
  8
0
 62
4
 10
2.20453224E+02
 20
-2.14575426E+02
  0
VERTEX
  8
0
 62
4
 10
2.20302009E+02
 20
-2.14568829E+02
  0
VERTEX
  8
0
 62
4
 10
2.20150794E+02
 20
-2.14575426E+02
  0
VERTEX
  8
0
 62
4
 10
2.20000729E+02
 20
-2.14595166E+02
  0
VERTEX
  8
0
 62
4
 10
2.19852958E+02
 20
-2.14627900E+02
  0
VERTEX
  8
0
 62
4
 10
2.19708604E+02
 20
-2.14673378E+02
  0
VERTEX
  8
0
 62
4
 10
2.19568766E+02
 20
-2.14731254E+02
  0
VERTEX
  8
0
 62
4
 10
2.19434509E+02
 20
-2.14801087E+02
  0
VERTEX
  8
0
 62
4
 10
2.19306854E+02
 20
-2.14882347E+02
  0
VERTEX
  8
0
 62
4
 10
2.19186772E+02
 20
-2.14974415E+02
  0
VERTEX
  8
0
 62
4
 10
2.19075179E+02
 20
-2.15076589E+02
  0
VERTEX
  8
0
 62
4
 10
2.18972922E+02
 20
-2.15188093E+02
  0
VERTEX
  8
0
 62
4
 10
2.18880780E+02
 20
-2.15308078E+02
  0
VERTEX
  8
0
 62
4
 10
2.18799455E+02
 20
-2.15435630E+02
  0
VERTEX
  8
0
 62
4
 10
2.18729565E+02
 20
-2.15569779E+02
  0
VERTEX
  8
0
 62
4
 10
2.18671642E+02
 20
-2.15709504E+02
  0
VERTEX
  8
0
 62
4
 10
2.18626128E+02
 20
-2.15853742E+02
  0
VERTEX
  8
0
 62
4
 10
2.18593368E+02
 20
-2.16001394E+02
  0
VERTEX
  8
0
 62
4
 10
2.18573611E+02
 20
-2.16151338E+02
  0
VERTEX
  8
0
 62
4
 10
2.18567009E+02
 20
-2.16302431E+02
  0
VERTEX
  8
0
 62
4
 10
2.18573611E+02
 20
-2.16453524E+02
  0
VERTEX
  8
0
 62
4
 10
2.18593368E+02
 20
-2.16603468E+02
  0
VERTEX
  8
0
 62
4
 10
2.18626128E+02
 20
-2.16751120E+02
  0
VERTEX
  8
0
 62
4
 10
2.18671642E+02
 20
-2.16895358E+02
  0
VERTEX
  8
0
 62
4
 10
2.18729565E+02
 20
-2.17035083E+02
  0
VERTEX
  8
0
 62
4
 10
2.18799455E+02
 20
-2.17169232E+02
  0
VERTEX
  8
0
 62
4
 10
2.18880780E+02
 20
-2.17296784E+02
  0
VERTEX
  8
0
 62
4
 10
2.18972922E+02
 20
-2.17416769E+02
  0
VERTEX
  8
0
 62
4
 10
2.19075179E+02
 20
-2.17528273E+02
  0
VERTEX
  8
0
 62
4
 10
2.19186772E+02
 20
-2.17630447E+02
  0
VERTEX
  8
0
 62
4
 10
2.19306854E+02
 20
-2.17722515E+02
  0
VERTEX
  8
0
 62
4
 10
2.19434509E+02
 20
-2.17803775E+02
  0
VERTEX
  8
0
 62
4
 10
2.19568766E+02
 20
-2.17873608E+02
  0
VERTEX
  8
0
 62
4
 10
2.19708604E+02
 20
-2.17931484E+02
  0
VERTEX
  8
0
 62
4
 10
2.19852958E+02
 20
-2.17976962E+02
  0
VERTEX
  8
0
 62
4
 10
2.20000729E+02
 20
-2.18009696E+02
  0
VERTEX
  8
0
 62
4
 10
2.20150794E+02
 20
-2.18029436E+02
  0
VERTEX
  8
0
 62
4
 10
2.20302009E+02
 20
-2.18036033E+02
  0
VERTEX
  8
0
 62
4
 10
2.20453224E+02
 20
-2.18029436E+02
  0
VERTEX
  8
0
 62
4
 10
2.20603289E+02
 20
-2.18009696E+02
  0
VERTEX
  8
0
 62
4
 10
2.20751060E+02
 20
-2.17976962E+02
  0
VERTEX
  8
0
 62
4
 10
2.20895414E+02
 20
-2.17931484E+02
  0
VERTEX
  8
0
 62
4
 10
2.21035252E+02
 20
-2.17873608E+02
  0
VERTEX
  8
0
 62
4
 10
2.21169509E+02
 20
-2.17803775E+02
  0
VERTEX
  8
0
 62
4
 10
2.21297164E+02
 20
-2.17722515E+02
  0
VERTEX
  8
0
 62
4
 10
2.21417246E+02
 20
-2.17630447E+02
  0
VERTEX
  8
0
 62
4
 10
2.21528839E+02
 20
-2.17528273E+02
  0
VERTEX
  8
0
 62
4
 10
2.21631096E+02
 20
-2.17416769E+02
  0
VERTEX
  8
0
 62
4
 10
2.21723238E+02
 20
-2.17296784E+02
  0
VERTEX
  8
0
 62
4
 10
2.21804563E+02
 20
-2.17169232E+02
  0
VERTEX
  8
0
 62
4
 10
2.21874453E+02
 20
-2.17035083E+02
  0
VERTEX
  8
0
 62
4
 10
2.21932376E+02
 20
-2.16895358E+02
  0
VERTEX
  8
0
 62
4
 10
2.21977890E+02
 20
-2.16751120E+02
  0
VERTEX
  8
0
 62
4
 10
2.22010650E+02
 20
-2.16603468E+02
  0
VERTEX
  8
0
 62
4
 10
2.22030407E+02
 20
-2.16453524E+02
  0
VERTEX
  8
0
 62
4
 10
2.22037009E+02
 20
-2.16302431E+02
  0
SEQEND
  8
0
  0
POLYLINE
  8
0
 62
6
 66
1
  0
VERTEX
  8
0
 62
6
 10
2.21802009E+02
 20
-2.16297435E+02
  0
VERTEX
  8
0
 62
6
 10
2.21796301E+02
 20
-2.16166807E+02
  0
VERTEX
  8
0
 62
6
 10
2.21779221E+02
 20
-2.16037173E+02
  0
VERTEX
  8
0
 62
6
 10
2.21750898E+02
 20
-2.15909519E+02
  0
VERTEX
  8
0
 62
6
 10
2.21711548E+02
 20
-2.15784818E+02
  0
VERTEX
  8
0
 62
6
 10
2.21661471E+02
 20
-2.15664018E+02
  0
VERTEX
  8
0
 62
6
 10
2.21601047E+02
 20
-2.15548039E+02
  0
VERTEX
  8
0
 62
6
 10
2.21530737E+02
 20
-2.15437763E+02
  0
VERTEX
  8
0
 62
6
 10
2.21451076E+02
 20
-2.15334030E+02
  0
VERTEX
  8
0
 62
6
 10
2.21362669E+02
 20
-2.15237629E+02
  0
VERTEX
  8
0
 62
6
 10
2.21266190E+02
 20
-2.15149294E+02
  0
VERTEX
  8
0
 62
6
 10
2.21162374E+02
 20
-2.15069697E+02
  0
VERTEX
  8
0
 62
6
 10
2.21052009E+02
 20
-2.14999443E+02
  0
VERTEX
  8
0
 62
6
 10
2.20935936E+02
 20
-2.14939069E+02
  0
VERTEX
  8
0
 62
6
 10
2.20815039E+02
 20
-2.14889032E+02
  0
VERTEX
  8
0
 62
6
 10
2.20690238E+02
 20
-2.14849713E+02
  0
VERTEX
  8
0
 62
6
 10
2.20562481E+02
 20
-2.14821413E+02
  0
VERTEX
  8
0
 62
6
 10
2.20432743E+02
 20
-2.14804347E+02
  0
VERTEX
  8
0
 62
6
 10
2.20302009E+02
 20
-2.14798643E+02
  0
VERTEX
  8
0
 62
6
 10
2.20171275E+02
 20
-2.14804347E+02
  0
VERTEX
  8
0
 62
6
 10
2.20041537E+02
 20
-2.14821413E+02
  0
VERTEX
  8
0
 62
6
 10
2.19913780E+02
 20
-2.14849713E+02
  0
VERTEX
  8
0
 62
6
 10
2.19788979E+02
 20
-2.14889032E+02
  0
VERTEX
  8
0
 62
6
 10
2.19668082E+02
 20
-2.14939069E+02
  0
VERTEX
  8
0
 62
6
 10
2.19552009E+02
 20
-2.14999443E+02
  0
VERTEX
  8
0
 62
6
 10
2.19441644E+02
 20
-2.15069697E+02
  0
VERTEX
  8
0
 62
6
 10
2.19337828E+02
 20
-2.15149294E+02
  0
VERTEX
  8
0
 62
6
 10
2.19241349E+02
 20
-2.15237629E+02
  0
VERTEX
  8
0
 62
6
 10
2.19152942E+02
 20
-2.15334030E+02
  0
VERTEX
  8
0
 62
6
 10
2.19073281E+02
 20
-2.15437763E+02
  0
VERTEX
  8
0
 62
6
 10
2.19002971E+02
 20
-2.15548039E+02
  0
VERTEX
  8
0
 62
6
 10
2.18942547E+02
 20
-2.15664018E+02
  0
VERTEX
  8
0
 62
6
 10
2.18892470E+02
 20
-2.15784818E+02
  0
VERTEX
  8
0
 62
6
 10
2.18853120E+02
 20
-2.15909519E+02
  0
VERTEX
  8
0
 62
6
 10
2.18824797E+02
 20
-2.16037173E+02
  0
VERTEX
  8
0
 62
6
 10
2.18807717E+02
 20
-2.16166807E+02
  0
VERTEX
  8
0
 62
6
 10
2.18802009E+02
 20
-2.16297435E+02
  0
VERTEX
  8
0
 62
6
 10
2.18807717E+02
 20
-2.16428063E+02
  0
VERTEX
  8
0
 62
6
 10
2.18824797E+02
 20
-2.16557697E+02
  0
VERTEX
  8
0
 62
6
 10
2.18853120E+02
 20
-2.16685351E+02
  0
VERTEX
  8
0
 62
6
 10
2.18892470E+02
 20
-2.16810052E+02
  0
VERTEX
  8
0
 62
6
 10
2.18942547E+02
 20
-2.16930852E+02
  0
VERTEX
  8
0
 62
6
 10
2.19002971E+02
 20
-2.17046831E+02
  0
VERTEX
  8
0
 62
6
 10
2.19073281E+02
 20
-2.17157107E+02
  0
VERTEX
  8
0
 62
6
 10
2.19152942E+02
 20
-2.17260840E+02
  0
VERTEX
  8
0
 62
6
 10
2.19241349E+02
 20
-2.17357241E+02
  0
VERTEX
  8
0
 62
6
 10
2.19337828E+02
 20
-2.17445576E+02
  0
VERTEX
  8
0
 62
6
 10
2.19441644E+02
 20
-2.17525173E+02
  0
VERTEX
  8
0
 62
6
 10
2.19552009E+02
 20
-2.17595427E+02
  0
VERTEX
  8
0
 62
6
 10
2.19668082E+02
 20
-2.17655801E+02
  0
VERTEX
  8
0
 62
6
 10
2.19788979E+02
 20
-2.17705838E+02
  0
VERTEX
  8
0
 62
6
 10
2.19913780E+02
 20
-2.17745157E+02
  0
VERTEX
  8
0
 62
6
 10
2.20041537E+02
 20
-2.17773457E+02
  0
VERTEX
  8
0
 62
6
 10
2.20171275E+02
 20
-2.17790523E+02
  0
VERTEX
  8
0
 62
6
 10
2.20302009E+02
 20
-2.17796227E+02
  0
VERTEX
  8
0
 62
6
 10
2.20432743E+02
 20
-2.17790523E+02
  0
VERTEX
  8
0
 62
6
 10
2.20562481E+02
 20
-2.17773457E+02
  0
VERTEX
  8
0
 62
6
 10
2.20690238E+02
 20
-2.17745157E+02
  0
VERTEX
  8
0
 62
6
 10
2.20815039E+02
 20
-2.17705838E+02
  0
VERTEX
  8
0
 62
6
 10
2.20935936E+02
 20
-2.17655801E+02
  0
VERTEX
  8
0
 62
6
 10
2.21052009E+02
 20
-2.17595427E+02
  0
VERTEX
  8
0
 62
6
 10
2.21162374E+02
 20
-2.17525173E+02
  0
VERTEX
  8
0
 62
6
 10
2.21266190E+02
 20
-2.17445576E+02
  0
VERTEX
  8
0
 62
6
 10
2.21362669E+02
 20
-2.17357241E+02
  0
VERTEX
  8
0
 62
6
 10
2.21451076E+02
 20
-2.17260840E+02
  0
VERTEX
  8
0
 62
6
 10
2.21530737E+02
 20
-2.17157107E+02
  0
VERTEX
  8
0
 62
6
 10
2.21601047E+02
 20
-2.17046831E+02
  0
VERTEX
  8
0
 62
6
 10
2.21661471E+02
 20
-2.16930852E+02
  0
VERTEX
  8
0
 62
6
 10
2.21711548E+02
 20
-2.16810052E+02
  0
VERTEX
  8
0
 62
6
 10
2.21750898E+02
 20
-2.16685351E+02
  0
VERTEX
  8
0
 62
6
 10
2.21779221E+02
 20
-2.16557697E+02
  0
VERTEX
  8
0
 62
6
 10
2.21796301E+02
 20
-2.16428063E+02
  0
VERTEX
  8
0
 62
6
 10
2.21802009E+02
 20
-2.16297435E+02
  0
SEQEND
  8
0
  0
POLYLINE
  8
0
 62
4
 66
1
  0
VERTEX
  8
0
 62
4
 10
2.22302009E+02
 20
-2.16262299E+02
  0
VERTEX
  8
0
 62
4
 10
2.22294398E+02
 20
-2.16088563E+02
  0
VERTEX
  8
0
 62
4
 10
2.22271625E+02
 20
-2.15916150E+02
  0
VERTEX
  8
0
 62
4
 10
2.22233861E+02
 20
-2.15746371E+02
  0
VERTEX
  8
0
 62
4
 10
2.22181394E+02
 20
-2.15580519E+02
  0
VERTEX
  8
0
 62
4
 10
2.22114625E+02
 20
-2.15419855E+02
  0
VERTEX
  8
0
 62
4
 10
2.22034060E+02
 20
-2.15265603E+02
  0
VERTEX
  8
0
 62
4
 10
2.21940313E+02
 20
-2.15118936E+02
  0
VERTEX
  8
0
 62
4
 10
2.21834098E+02
 20
-2.14980971E+02
  0
VERTEX
  8
0
 62
4
 10
2.21716223E+02
 20
-2.14852757E+02
  0
VERTEX
  8
0
 62
4
 10
2.21587584E+02
 20
-2.14735272E+02
  0
VERTEX
  8
0
 62
4
 10
2.21449162E+02
 20
-2.14629407E+02
  0
VERTEX
  8
0
 62
4
 10
2.21302009E+02
 20
-2.14535970E+02
  0
VERTEX
  8
0
 62
4
 10
2.21147246E+02
 20
-2.14455672E+02
  0
VERTEX
  8
0
 62
4
 10
2.20986049E+02
 20
-2.14389122E+02
  0
VERTEX
  8
0
 62
4
 10
2.20819647E+02
 20
-2.14336829E+02
  0
VERTEX
  8
0
 62
4
 10
2.20649305E+02
 20
-2.14299190E+02
  0
VERTEX
  8
0
 62
4
 10
2.20476320E+02
 20
-2.14276492E+02
  0
VERTEX
  8
0
 62
4
 10
2.20302009E+02
 20
-2.14268906E+02
  0
VERTEX
  8
0
 62
4
 10
2.20127698E+02
 20
-2.14276492E+02
  0
VERTEX
  8
0
 62
4
 10
2.19954713E+02
 20
-2.14299190E+02
  0
VERTEX
  8
0
 62
4
 10
2.19784371E+02
 20
-2.14336829E+02
  0
VERTEX
  8
0
 62
4
 10
2.19617969E+02
 20
-2.14389122E+02
  0
VERTEX
  8
0
 62
4
 10
2.19456772E+02
 20
-2.14455672E+02
  0
VERTEX
  8
0
 62
4
 10
2.19302009E+02
 20
-2.14535970E+02
  0
VERTEX
  8
0
 62
4
 10
2.19154856E+02
 20
-2.14629407E+02
  0
VERTEX
  8
0
 62
4
 10
2.19016434E+02
 20
-2.14735272E+02
  0
VERTEX
  8
0
 62
4
 10
2.18887795E+02
 20
-2.14852757E+02
  0
VERTEX
  8
0
 62
4
 10
2.18769920E+02
 20
-2.14980971E+02
  0
VERTEX
  8
0
 62
4
 10
2.18663705E+02
 20
-2.15118936E+02
  0
VERTEX
  8
0
 62
4
 10
2.18569958E+02
 20
-2.15265603E+02
  0
VERTEX
  8
0
 62
4
 10
2.18489393E+02
 20
-2.15419855E+02
  0
VERTEX
  8
0
 62
4
 10
2.18422624E+02
 20
-2.15580519E+02
  0
VERTEX
  8
0
 62
4
 10
2.18370157E+02
 20
-2.15746371E+02
  0
VERTEX
  8
0
 62
4
 10
2.18332393E+02
 20
-2.15916150E+02
  0
VERTEX
  8
0
 62
4
 10
2.18309620E+02
 20
-2.16088563E+02
  0
VERTEX
  8
0
 62
4
 10
2.18302009E+02
 20
-2.16262299E+02
  0
VERTEX
  8
0
 62
4
 10
2.18309620E+02
 20
-2.16436035E+02
  0
VERTEX
  8
0
 62
4
 10
2.18332393E+02
 20
-2.16608448E+02
  0
VERTEX
  8
0
 62
4
 10
2.18370157E+02
 20
-2.16778227E+02
  0
VERTEX
  8
0
 62
4
 10
2.18422624E+02
 20
-2.16944080E+02
  0
VERTEX
  8
0
 62
4
 10
2.18489393E+02
 20
-2.17104743E+02
  0
VERTEX
  8
0
 62
4
 10
2.18569958E+02
 20
-2.17258995E+02
  0
VERTEX
  8
0
 62
4
 10
2.18663705E+02
 20
-2.17405662E+02
  0
VERTEX
  8
0
 62
4
 10
2.18769920E+02
 20
-2.17543627E+02
  0
VERTEX
  8
0
 62
4
 10
2.18887795E+02
 20
-2.17671841E+02
  0
VERTEX
  8
0
 62
4
 10
2.19016434E+02
 20
-2.17789326E+02
  0
VERTEX
  8
0
 62
4
 10
2.19154856E+02
 20
-2.17895191E+02
  0
VERTEX
  8
0
 62
4
 10
2.19302009E+02
 20
-2.17988628E+02
  0
VERTEX
  8
0
 62
4
 10
2.19456772E+02
 20
-2.18068926E+02
  0
VERTEX
  8
0
 62
4
 10
2.19617969E+02
 20
-2.18135476E+02
  0
VERTEX
  8
0
 62
4
 10
2.19784371E+02
 20
-2.18187769E+02
  0
VERTEX
  8
0
 62
4
 10
2.19954713E+02
 20
-2.18225408E+02
  0
VERTEX
  8
0
 62
4
 10
2.20127698E+02
 20
-2.18248106E+02
  0
VERTEX
  8
0
 62
4
 10
2.20302009E+02
 20
-2.18255692E+02
  0
VERTEX
  8
0
 62
4
 10
2.20476320E+02
 20
-2.18248106E+02
  0
VERTEX
  8
0
 62
4
 10
2.20649305E+02
 20
-2.18225408E+02
  0
VERTEX
  8
0
 62
4
 10
2.20819647E+02
 20
-2.18187769E+02
  0
VERTEX
  8
0
 62
4
 10
2.20986049E+02
 20
-2.18135476E+02
  0
VERTEX
  8
0
 62
4
 10
2.21147246E+02
 20
-2.18068926E+02
  0
VERTEX
  8
0
 62
4
 10
2.21302009E+02
 20
-2.17988628E+02
  0
VERTEX
  8
0
 62
4
 10
2.21449162E+02
 20
-2.17895191E+02
  0
VERTEX
  8
0
 62
4
 10
2.21587584E+02
 20
-2.17789326E+02
  0
VERTEX
  8
0
 62
4
 10
2.21716223E+02
 20
-2.17671841E+02
  0
VERTEX
  8
0
 62
4
 10
2.21834098E+02
 20
-2.17543627E+02
  0
VERTEX
  8
0
 62
4
 10
2.21940313E+02
 20
-2.17405662E+02
  0
VERTEX
  8
0
 62
4
 10
2.22034060E+02
 20
-2.17258995E+02
  0
VERTEX
  8
0
 62
4
 10
2.22114625E+02
 20
-2.17104743E+02
  0
VERTEX
  8
0
 62
4
 10
2.22181394E+02
 20
-2.16944079E+02
  0
VERTEX
  8
0
 62
4
 10
2.22233861E+02
 20
-2.16778227E+02
  0
VERTEX
  8
0
 62
4
 10
2.22271625E+02
 20
-2.16608448E+02
  0
VERTEX
  8
0
 62
4
 10
2.22294398E+02
 20
-2.16436035E+02
  0
VERTEX
  8
0
 62
4
 10
2.22302009E+02
 20
-2.16262299E+02
  0
SEQEND
  8
0
  0
LINE
  8
0
 62
4
 10
1.97302009E+02
 20
-2.07605652E+02
 11
2.00243886E+02
 21
-2.11407712E+02
  0
LINE
  8
0
 62
4
 10
2.33359528E+02
 20
-2.11407712E+02
 11
2.36302009E+02
 21
-2.07605652E+02
  0
LINE
  8
0
 62
4
 10
2.51302009E+02
 20
-1.61661520E+02
 11
2.46302009E+02
 21
-1.61661520E+02
  0
LINE
  8
0
 62
4
 10
2.30392480E+02
 20
-1.62858528E+02
 11
2.16802009E+02
 21
-1.62858528E+02
  0
LINE
  8
0
 62
4
 10
2.16802009E+02
 20
-1.95896301E+02
 11
2.31802009E+02
 21
-1.95896301E+02
  0
LINE
  8
0
 62
4
 10
2.16802009E+02
 20
-2.21647817E+02
 11
2.31802009E+02
 21
-2.21647817E+02
  0
LINE
  8
0
 62
4
 10
2.31802009E+02
 20
-1.95896301E+02
 11
2.31802009E+02
 21
-2.21647817E+02
  0
LINE
  8
0
 62
4
 10
2.16802009E+02
 20
-1.95896301E+02
 11
2.16802009E+02
 21
-2.21647817E+02
  0
LINE
  8
0
  6
CENTER
 62
6
 10
2.28302009E+02
 20
-2.11306731E+02
 11
2.28302009E+02
 21
-2.21296731E+02
  0
LINE
  8
0
  6
CENTER
 62
6
 10
2.20302009E+02
 20
-2.11306731E+02
 11
2.20302009E+02
 21
-2.21296731E+02
  0
LINE
  8
0
  6
CENTER
 62
6
 10
2.15302009E+02
 20
-2.16297435E+02
 11
2.33302009E+02
 21
-2.16297435E+02
  0
LINE
  8
0
 62
4
 10
2.44802009E+02
 20
-1.63404559E+02
 11
2.41302009E+02
 21
-1.63404559E+02
  0
LINE
  8
0
 62
4
 10
2.34802009E+02
 20
-1.92515392E+02
 11
1.98802009E+02
 21
-1.92515392E+02
  0
LINE
  8
0
 62
4
 10
2.51302009E+02
 20
-1.65669461E+02
 11
2.46302009E+02
 21
-1.65669461E+02
  0
LINE
  8
0
 62
4
 10
2.51302009E+02
 20
-1.73173411E+02
 11
2.46302009E+02
 21
-1.73173411E+02
  0
LINE
  8
0
 62
4
 10
2.31802009E+02
 20
-1.62154559E+02
 11
2.40802009E+02
 21
-1.62154559E+02
  0
LINE
  8
0
 62
4
 10
2.41302009E+02
 20
-1.62654559E+02
 11
2.41302009E+02
 21
-1.75654559E+02
  0
LINE
  8
0
 62
4
 10
2.51302009E+02
 20
-1.61661520E+02
 11
2.51302009E+02
 21
-1.76659533E+02
  0
LINE
  8
0
 62
4
 10
2.46302009E+02
 20
-1.61661520E+02
 11
2.46302009E+02
 21
-1.76659533E+02
  0
LINE
  8
0
 62
4
 10
2.46302009E+02
 20
-1.62904559E+02
 11
2.41302009E+02
 21
-1.62904559E+02
  0
LINE
  8
0
 62
4
 10
2.46302009E+02
 20
-1.75404559E+02
 11
2.41302009E+02
 21
-1.75404559E+02
  0
LINE
  8
0
 62
4
 10
2.44802009E+02
 20
-1.62904559E+02
 11
2.44802009E+02
 21
-1.75404559E+02
  0
LINE
  8
0
 62
4
 10
2.44802009E+02
 20
-1.74904559E+02
 11
2.41302009E+02
 21
-1.74904559E+02
  0
LINE
  8
0
 62
4
 10
2.40802009E+02
 20
-1.76154559E+02
 11
2.32302009E+02
 21
-1.76154559E+02
  0
LINE
  8
0
 62
4
 10
2.51302009E+02
 20
-1.76659533E+02
 11
2.46302009E+02
 21
-1.76659533E+02
  0
LINE
  8
0
 62
4
 10
2.16802009E+02
 20
-2.07605652E+02
 11
1.97302009E+02
 21
-2.07605652E+02
  0
LINE
  8
0
 62
4
 10
2.16802009E+02
 20
-2.06106860E+02
 11
1.97302009E+02
 21
-2.06106860E+02
  0
LINE
  8
0
 62
4
 10
2.31802009E+02
 20
-1.63460505E+02
 11
2.16802009E+02
 21
-1.63460505E+02
  0
LINE
  8
0
 62
4
 10
2.33802009E+02
 20
-1.88520629E+02
 11
2.14802009E+02
 21
-1.88520629E+02
  0
LINE
  8
0
 62
4
 10
2.36302009E+02
 20
-1.93252849E+02
 11
2.36302009E+02
 21
-2.07605652E+02
  0
LINE
  8
0
 62
4
 10
2.36302009E+02
 20
-2.07605652E+02
 11
2.31802009E+02
 21
-2.07605652E+02
  0
LINE
  8
0
 62
4
 10
2.36302009E+02
 20
-2.06106860E+02
 11
2.31802009E+02
 21
-2.06106860E+02
  0
LINE
  8
0
 62
4
 10
2.33802009E+02
 20
-1.88517406E+02
 11
2.33802009E+02
 21
-1.92517406E+02
  0
LINE
  8
0
 62
4
 10
2.16802009E+02
 20
-1.62858528E+02
 11
2.16802009E+02
 21
-1.88520629E+02
  0
LINE
  8
0
 62
4
 10
2.31802009E+02
 20
-1.63460505E+02
 11
2.31802009E+02
 21
-1.88520629E+02
  0
LINE
  8
0
 62
4
 10
2.31802009E+02
 20
-1.62154559E+02
 11
2.29188527E+02
 21
-1.63461300E+02
  0
LINE
  8
0
 62
4
 10
2.14802009E+02
 20
-1.88517406E+02
 11
2.14802009E+02
 21
-1.92517406E+02
  0
LINE
  8
0
 62
4
 10
2.31802009E+02
 20
-1.87441171E+02
 11
2.16802009E+02
 21
-1.87441171E+02
  0
LINE
  8
0
 62
4
 10
1.97302009E+02
 20
-1.93252849E+02
 11
1.97302009E+02
 21
-2.07605652E+02
  0
ARC
  8
0
 62
4
 10
2.40802509E+02
 20
-1.62654060E+02
 40
4.99500622E-01
 50
3.59942689E+02
 51
9.00573103E+01
  0
ARC
  8
0
 62
4
 10
2.32301509E+02
 20
-1.76654060E+02
 40
4.99500622E-01
 50
8.99426895E+01
 51
1.80057310E+02
  0
ARC
  8
0
 62
4
 10
1.98801509E+02
 20
-1.94014892E+02
 40
1.49950029E+00
 50
8.99809029E+01
 51
1.80019097E+02
  0
ARC
  8
0
 62
4
 10
2.40801509E+02
 20
-1.75654059E+02
 40
5.00500378E-01
 50
2.70057253E+02
 51
3.59942747E+02
  0
ARC
  8
0
 62
4
 10
2.34802509E+02
 20
-1.94014892E+02
 40
1.49950029E+00
 50
3.59980903E+02
 51
9.00190969E+01
  0
LINE
  8
0
 62
4
 10
2.17802009E+02
 20
-2.10935689E+02
 11
2.30802009E+02
 21
-2.10935689E+02
  0
CIRCLE
  8
0
 62
7
 10
9.12326858E+01
 20
-2.14057706E+02
 40
2.45850000E+00
  0
CIRCLE
  8
0
 62
7
 10
5.82326858E+01
 20
-2.14057706E+02
 40
2.45850000E+00
  0
CIRCLE
  8
0
 62
7
 10
-2.50749924E+02
 20
-2.14057706E+02
 40
2.45850000E+00
  0
CIRCLE
  8
0
 62
7
 10
-2.17749924E+02
 20
-2.14057706E+02
 40
2.45850000E+00
  0
LINE
  8
0
  6
CENTER
 62
2
 10
3.21167732E+02
 20
-2.30557706E+02
 11
1.65091692E+02
 21
-2.30557706E+02
  0
TEXT
  8
0
 62
7
 10
-8.18591424E+01
 20
-2.81645710E+01
 40
6.30000019E+00
  1
75
 41
1.00000000E+00
  7
MONOTXT
  0
TEXT
  8
0
 62
7
 10
-5.98091425E+01
 20
-2.81645710E+01
 40
6.30000019E+00
  1
125
 41
1.00000000E+00
  7
MONOTXT
  0
TEXT
  8
0
 62
7
 10
-3.46091425E+01
 20
-2.81645710E+01
 40
6.30000019E+00
  1
175
 41
1.00000000E+00
  7
MONOTXT
  0
TEXT
  8
0
 62
7
 10
-9.40914250E+00
 20
-2.81645710E+01
 40
6.30000019E+00
  1
225
 41
1.00000000E+00
  7
MONOTXT
  0
TEXT
  8
0
 62
7
 10
1.57908575E+01
 20
-2.81645710E+01
 40
6.30000019E+00
  1
275
 41
1.00000000E+00
  7
MONOTXT
  0
TEXT
  8
0
 62
7
 10
4.09908575E+01
 20
-2.81645710E+01
 40
6.30000019E+00
  1
325
 41
1.00000000E+00
  7
MONOTXT
  0
TEXT
  8
0
 62
7
 10
6.61908575E+01
 20
-2.81645710E+01
 40
6.30000019E+00
  1
375
 41
1.00000000E+00
  7
MONOTXT
  0
TEXT
  8
0
 62
7
 10
9.13908575E+01
 20
-2.81645710E+01
 40
6.30000019E+00
  1
425
 41
1.00000000E+00
  7
MONOTXT
  0
TEXT
  8
0
 10
7.00496959E+01
 20
2.49478397E+02
 40
6.30000019E+00
  1
STRETCH LINE B
 41
1.09375016E+00
  7
MONOTXT
  0
TEXT
  8
0
 62
7
 10
8.68408574E+01
 20
2.38354290E+01
 40
6.30000019E+00
  1
(mm)
 41
1.00000000E+00
  7
MONOTXT
  0
TEXT
  8
0
 62
7
 10
-9.31591434E+01
 20
2.38354290E+01
 40
6.30000019E+00
  1
STRETCH LIST
 41
1.05263158E+00
  7
MONOTXT
  0
TEXT
  8
0
 62
7
 10
-1.97109142E+02
 20
-2.81645710E+01
 40
6.30000019E+00
  1
B
 41
1.00000000E+00
  7
MONOTXT
  0
TEXT
  8
0
 62
7
 10
-1.97109142E+02
 20
-1.81645710E+01
 40
6.30000019E+00
  1
A
 41
1.00000000E+00
  7
MONOTXT
  0
LINE
  8
0
 62
7
 10
-1.76248205E+02
 20
9.98542914E+00
 11
-1.64448205E+02
 21
-1.00145709E+01
  0
TEXT
  8
0
 62
7
 10
-2.21009143E+02
 20
-8.16457096E+00
 40
6.30000019E+00
  1
  PLACE
 41
1.20689655E+00
  7
MONOTXT
  0
LINE
  8
0
 62
7
 10
-2.24848205E+02
 20
1.99854291E+01
 11
1.12751795E+02
 21
1.99854291E+01
  0
TEXT
  8
0
 62
7
 10
-1.60609142E+02
 20
-2.81645710E+01
 40
6.30000019E+00
  1
-25
 41
1.00000000E+00
  7
MONOTXT
  0
TEXT
  8
0
 62
7
 10
-1.29109142E+02
 20
-2.81645710E+01
 40
6.30000019E+00
  1
0
 41
1.00000000E+00
  7
MONOTXT
  0
TEXT
  8
0
 62
7
 10
-1.07059142E+02
 20
-2.81645710E+01
 40
6.30000019E+00
  1
25
 41
1.00000000E+00
  7
MONOTXT
  0
LINE
  8
0
 62
7
 10
-2.24848205E+02
 20
-3.00145709E+01
 11
1.12751795E+02
 21
-3.00145709E+01
  0
LINE
  8
0
 62
7
 10
-2.24848205E+02
 20
-2.00145709E+01
 11
1.12751795E+02
 21
-2.00145709E+01
  0
LINE
  8
0
 62
7
 10
-2.24848205E+02
 20
-3.00145709E+01
 11
-2.24848205E+02
 21
1.99854291E+01
  0
LINE
  8
0
 62
7
 10
-2.24848205E+02
 20
9.98542914E+00
 11
-1.76248205E+02
 21
9.98542914E+00
  0
LINE
  8
0
 62
7
 10
-2.24848205E+02
 20
-1.00145709E+01
 11
1.12751795E+02
 21
-1.00145709E+01
  0
LINE
  8
0
 62
7
 10
-1.64448205E+02
 20
-3.00145709E+01
 11
-1.64448205E+02
 21
1.99854291E+01
  0
LINE
  8
0
 62
7
 10
-1.39248205E+02
 20
-3.00145709E+01
 11
-1.39248205E+02
 21
1.99854291E+01
  0
LINE
  8
0
 62
7
 10
-1.14048205E+02
 20
-3.00145709E+01
 11
-1.14048205E+02
 21
1.99854291E+01
  0
LINE
  8
0
 62
7
 10
-8.88482049E+01
 20
-3.00145709E+01
 11
-8.88482049E+01
 21
1.99854291E+01
  0
LINE
  8
0
 62
7
 10
-6.36482049E+01
 20
-3.00145709E+01
 11
-6.36482049E+01
 21
1.99854291E+01
  0
LINE
  8
0
 62
7
 10
-3.84482049E+01
 20
-3.00145709E+01
 11
-3.84482049E+01
 21
1.99854291E+01
  0
LINE
  8
0
 62
7
 10
-1.32482049E+01
 20
-3.00145709E+01
 11
-1.32482049E+01
 21
1.99854291E+01
  0
LINE
  8
0
 62
7
 10
1.19517951E+01
 20
-3.00145709E+01
 11
1.19517951E+01
 21
1.99854291E+01
  0
LINE
  8
0
 62
7
 10
3.71517951E+01
 20
-3.00145709E+01
 11
3.71517951E+01
 21
1.99854291E+01
  0
LINE
  8
0
 62
7
 10
6.23517951E+01
 20
-3.00145709E+01
 11
6.23517951E+01
 21
1.99854291E+01
  0
LINE
  8
0
 62
7
 10
8.75517951E+01
 20
-3.00145709E+01
 11
8.75517951E+01
 21
1.99854291E+01
  0
LINE
  8
0
 62
7
 10
1.12751795E+02
 20
-3.00145709E+01
 11
1.12751795E+02
 21
1.99854291E+01
  0
TEXT
  8
0
 62
7
 10
-1.57459142E+02
 20
1.83542904E+00
 40
6.30000019E+00
  1
50
 41
1.00000000E+00
  7
MONOTXT
  0
TEXT
  8
0
 62
7
 10
-1.60609142E+02
 20
-1.81645710E+01
 40
6.30000019E+00
  1
-25
 41
1.00000000E+00
  7
MONOTXT
  0
TEXT
  8
0
 62
7
 10
-2.17859142E+02
 20
1.18354290E+01
 40
6.30000019E+00
  1
STROKE
 41
1.00000000E+00
  7
MONOTXT
  0
TEXT
  8
0
 62
7
 10
-2.21009143E+02
 20
1.83542904E+00
 40
6.30000019E+00
  1
STRETCH
 41
1.00000000E+00
  7
MONOTXT
  0
TEXT
  8
0
 62
7
 10
-1.32259142E+02
 20
1.83542904E+00
 40
6.30000019E+00
  1
75
 41
1.00000000E+00
  7
MONOTXT
  0
TEXT
  8
0
 62
7
 10
-1.29109142E+02
 20
-1.81645710E+01
 40
6.30000019E+00
  1
0
 41
1.00000000E+00
  7
MONOTXT
  0
TEXT
  8
0
 62
7
 10
-1.10209142E+02
 20
1.83542904E+00
 40
6.30000019E+00
  1
100
 41
1.00000000E+00
  7
MONOTXT
  0
TEXT
  8
0
 62
7
 10
-1.07059142E+02
 20
-1.81645710E+01
 40
6.30000019E+00
  1
25
 41
1.00000000E+00
  7
MONOTXT
  0
TEXT
  8
0
 62
7
 10
-8.50091425E+01
 20
1.83542904E+00
 40
6.30000019E+00
  1
150
 41
1.00000000E+00
  7
MONOTXT
  0
TEXT
  8
0
 62
7
 10
-8.18591424E+01
 20
-1.81645710E+01
 40
6.30000019E+00
  1
75
 41
1.00000000E+00
  7
MONOTXT
  0
TEXT
  8
0
 62
7
 10
-5.98091425E+01
 20
1.83542904E+00
 40
6.30000019E+00
  1
200
 41
1.00000000E+00
  7
MONOTXT
  0
TEXT
  8
0
 62
7
 10
-5.98091425E+01
 20
-1.81645710E+01
 40
6.30000019E+00
  1
125
 41
1.00000000E+00
  7
MONOTXT
  0
TEXT
  8
0
 62
7
 10
-3.46091425E+01
 20
1.83542904E+00
 40
6.30000019E+00
  1
250
 41
1.00000000E+00
  7
MONOTXT
  0
TEXT
  8
0
 62
7
 10
-3.46091425E+01
 20
-1.81645710E+01
 40
6.30000019E+00
  1
175
 41
1.00000000E+00
  7
MONOTXT
  0
TEXT
  8
0
 62
7
 10
-9.40914250E+00
 20
1.83542904E+00
 40
6.30000019E+00
  1
300
 41
1.00000000E+00
  7
MONOTXT
  0
TEXT
  8
0
 62
7
 10
-9.40914250E+00
 20
-1.81645710E+01
 40
6.30000019E+00
  1
225
 41
1.00000000E+00
  7
MONOTXT
  0
TEXT
  8
0
 62
7
 10
1.57908575E+01
 20
1.83542904E+00
 40
6.30000019E+00
  1
350
 41
1.00000000E+00
  7
MONOTXT
  0
TEXT
  8
0
 62
7
 10
1.57908575E+01
 20
-1.81645710E+01
 40
6.30000019E+00
  1
275
 41
1.00000000E+00
  7
MONOTXT
  0
TEXT
  8
0
 62
7
 10
4.09908575E+01
 20
1.83542904E+00
 40
6.30000019E+00
  1
400
 41
1.00000000E+00
  7
MONOTXT
  0
TEXT
  8
0
 62
7
 10
4.09908575E+01
 20
-1.81645710E+01
 40
6.30000019E+00
  1
325
 41
1.00000000E+00
  7
MONOTXT
  0
TEXT
  8
0
 62
7
 10
6.61908575E+01
 20
1.83542904E+00
 40
6.30000019E+00
  1
450
 41
1.00000000E+00
  7
MONOTXT
  0
TEXT
  8
0
 62
7
 10
6.61908575E+01
 20
-1.81645710E+01
 40
6.30000019E+00
  1
375
 41
1.00000000E+00
  7
MONOTXT
  0
TEXT
  8
0
 62
7
 10
9.13908575E+01
 20
1.83542904E+00
 40
6.30000019E+00
  1
500
 41
1.00000000E+00
  7
MONOTXT
  0
TEXT
  8
0
 62
7
 10
9.13908575E+01
 20
-1.81645710E+01
 40
6.30000019E+00
  1
425
 41
1.00000000E+00
  7
MONOTXT
  0
ARC
  8
0
 62
7
 10
-1.18749985E+02
 20
-2.30557706E+02
 40
6.00000000E+00
 50
0.00000000E+00
 51
3.35573785E+01
  0
LINE
  8
0
 62
2
 10
-1.30249985E+02
 20
-2.26257703E+02
 11
-1.23749985E+02
 21
-2.26257703E+02
  0
LINE
  8
0
 62
7
 10
-1.30249985E+02
 20
-2.25557690E+02
 11
-1.23749985E+02
 21
-2.25557690E+02
  0
LINE
  8
0
 62
2
 10
-1.30249985E+02
 20
-1.04857678E+02
 11
-1.23749985E+02
 21
-1.04857678E+02
  0
LINE
  8
0
 62
7
 10
-1.30249985E+02
 20
-1.05557690E+02
 11
-1.23749985E+02
 21
-1.05557690E+02
  0
LINE
  8
0
 62
2
 10
-1.30249985E+02
 20
-9.62576567E+01
 11
-1.23749985E+02
 21
-9.62576567E+01
  0
LINE
  8
0
 62
7
 10
-1.30249985E+02
 20
-9.55576445E+01
 11
-1.23749985E+02
 21
-9.55576445E+01
  0
LINE
  8
0
 62
4
 10
-2.25749924E+02
 20
-2.25650228E+02
 11
-2.34249924E+02
 21
-2.20742751E+02
  0
LINE
  8
0
 62
4
 10
-2.25749924E+02
 20
-2.30557706E+02
 11
-2.25749924E+02
 21
-2.25650228E+02
  0
LINE
  8
0
 62
4
 10
-2.42749924E+02
 20
-2.25650228E+02
 11
-2.42749924E+02
 21
-2.30557706E+02
  0
LINE
  8
0
 62
4
 10
-2.34249924E+02
 20
-2.20742751E+02
 11
-2.42749924E+02
 21
-2.25650228E+02
  0
ARC
  8
0
 62
4
 10
-2.34249924E+02
 20
-2.30557706E+02
 40
8.50000000E+00
 50
0.00000000E+00
 51
1.80000000E+02
  0
ARC
  8
0
 62
4
 10
-1.46490795E+02
 20
-2.30557706E+02
 40
1.62408104E+01
 50
1.25181798E-07
 51
1.75879541E+01
  0
ARC
  8
0
 62
4
 10
-1.34594883E+02
 20
-2.23196490E+02
 40
4.34489857E+00
 50
3.25615751E+02
 51
3.43842484E+01
  0
LINE
  8
0
 62
4
 10
-1.30249985E+02
 20
-2.22057705E+02
 11
-1.31009174E+02
 21
-2.20742751E+02
  0
LINE
  8
0
 62
4
 10
-1.30249985E+02
 20
-2.30557706E+02
 11
-1.30249985E+02
 21
-2.22057706E+02
  0
ARC
  8
0
 62
4
 10
-1.20009174E+02
 20
-2.30557706E+02
 40
1.62408104E+01
 50
1.62412046E+02
 51
1.80000000E+02
  0
ARC
  8
0
 62
4
 10
-1.31905086E+02
 20
-2.23196490E+02
 40
4.34489857E+00
 50
1.45615752E+02
 51
2.14384248E+02
  0
LINE
  8
0
 62
4
 10
-1.36249985E+02
 20
-2.22057705E+02
 11
-1.35490795E+02
 21
-2.20742751E+02
  0
LINE
  8
0
 62
4
 10
-1.36249985E+02
 20
-2.30557706E+02
 11
-1.36249985E+02
 21
-2.22057706E+02
  0
LINE
  8
0
 62
4
 10
-1.35490795E+02
 20
-2.25650228E+02
 11
-1.31009174E+02
 21
-2.25650228E+02
  0
LINE
  8
0
 62
4
 10
-1.35490795E+02
 20
-2.20742751E+02
 11
-1.31009174E+02
 21
-2.20742751E+02
  0
ARC
  8
0
 62
4
 10
-1.42525491E+02
 20
-1.04807706E+02
 40
1.22755064E+01
 50
3.39743842E+02
 51
2.02561585E+01
  0
ARC
  8
0
 62
4
 10
-1.42525491E+02
 20
-9.63077056E+01
 40
1.22755064E+01
 50
3.39743842E+02
 51
2.02561585E+01
  0
ARC
  8
0
 62
4
 10
-1.23974478E+02
 20
-9.63077056E+01
 40
1.22755063E+01
 50
1.59743841E+02
 51
2.00256159E+02
  0
ARC
  8
0
 62
4
 10
-1.23974478E+02
 20
-1.04807706E+02
 40
1.22755063E+01
 50
1.59743841E+02
 51
2.00256159E+02
  0
LINE
  8
0
 62
4
 10
-1.35490795E+02
 20
-1.00557706E+02
 11
-1.31009174E+02
 21
-1.00557706E+02
  0
LINE
  8
0
 62
4
 10
-1.30249985E+02
 20
-9.20577056E+01
 11
-1.30249985E+02
 21
-1.09057706E+02
  0
LINE
  8
0
 62
4
 10
-1.36249985E+02
 20
-9.20577056E+01
 11
-1.36249985E+02
 21
-1.09057706E+02
  0
LINE
  8
0
 62
4
 10
-1.36249985E+02
 20
-9.20577056E+01
 11
-1.30249985E+02
 21
-9.20577056E+01
  0
LINE
  8
0
 62
4
 10
-1.36249985E+02
 20
-1.09057706E+02
 11
-1.30249985E+02
 21
-1.09057706E+02
  0
ARC
  8
0
 62
7
 10
-9.52499847E+01
 20
-2.10057706E+02
 40
5.00000000E-01
 50
8.99999274E+01
 51
1.79999964E+02
  0
ARC
  8
0
 62
7
 10
-9.52499847E+01
 20
-2.18057751E+02
 40
5.00000000E-01
 50
1.79999981E+02
 51
2.69999963E+02
  0
ARC
  8
0
 62
7
 10
-9.72499847E+01
 20
-2.18057721E+02
 40
5.00000000E-01
 50
8.99999818E+01
 51
1.79999964E+02
  0
ARC
  8
0
 62
7
 10
-1.05499985E+02
 20
-2.18549130E+02
 40
2.50000000E-01
 50
9.20007356E+01
 51
1.79999964E+02
  0
ARC
  8
0
 62
7
 10
-1.10249985E+02
 20
-2.19057721E+02
 40
5.00000000E-01
 50
8.99999818E+01
 51
1.79999964E+02
  0
ARC
  8
0
 62
7
 10
-9.52499847E+01
 20
-2.09830411E+02
 40
5.00000000E-01
 50
9.15003561E+01
 51
1.79999964E+02
  0
ARC
  8
0
 62
7
 10
-7.02499847E+01
 20
-1.07557706E+02
 40
2.09999990E+00
 50
2.08685725E+02
 51
3.43019111E+02
  0
ARC
  8
0
 62
7
 10
-2.15249863E+02
 20
-2.11557675E+02
 40
3.00000000E+00
 50
0.00000000E+00
 51
8.99999818E+01
  0
ARC
  8
0
 62
7
 10
-2.15249924E+02
 20
-2.11557706E+02
 40
2.79999995E+00
 50
0.00000000E+00
 51
8.99999818E+01
  0
ARC
  8
0
 62
7
 10
-2.53249924E+02
 20
-2.11557736E+02
 40
2.79999995E+00
 50
8.99999818E+01
 51
1.79999964E+02
  0
ARC
  8
0
 62
7
 10
-2.53249924E+02
 20
-2.11557675E+02
 40
3.00000000E+00
 50
8.99999818E+01
 51
1.79999964E+02
  0
ARC
  8
0
 62
7
 10
-2.26249924E+02
 20
-2.12557706E+02
 40
3.00000000E+00
 50
1.77133620E+02
 51
2.75317440E+02
  0
ARC
  8
0
 62
7
 10
-2.25879196E+02
 20
-2.16540494E+02
 40
1.00000000E+00
 50
1.69828282E+01
 51
9.53179675E+01
  0
ARC
  8
0
 62
7
 10
-2.23349960E+02
 20
-2.10757718E+02
 40
2.00000000E+00
 50
3.29489941E+02
 51
8.99999412E+01
  0
ARC
  8
0
 62
7
 10
-2.23407700E+02
 20
-2.10857724E+02
 40
1.50000000E+00
 50
3.30507585E+02
 51
8.99999412E+01
  0
ARC
  8
0
 62
7
 10
-2.20232712E+02
 20
-2.22187009E+02
 40
1.00000000E+00
 50
3.54682083E+02
 51
7.30172492E+01
  0
ARC
  8
0
 62
7
 10
-2.16249924E+02
 20
-2.22557706E+02
 40
3.00000000E+00
 50
1.74682635E+02
 51
2.72866440E+02
  0
ARC
  8
0
 62
7
 10
-2.14549911E+02
 20
-2.19715451E+02
 40
1.50000000E+00
 50
3.59999986E+02
 51
1.19492370E+02
  0
ARC
  8
0
 62
7
 10
-2.14449936E+02
 20
-2.19657712E+02
 40
2.00000000E+00
 50
3.59999986E+02
 51
1.20510014E+02
  0
CIRCLE
  8
0
 62
7
 10
-2.17749924E+02
 20
-2.14057706E+02
 40
4.50000000E+00
  0
ARC
  8
0
 62
7
 10
-2.17749924E+02
 20
-2.14057706E+02
 40
5.00000000E+00
 50
1.50507836E+02
 51
2.99492266E+02
  0
ARC
  8
0
 62
7
 10
-2.16049911E+02
 20
-2.26552701E+02
 40
1.00000000E+00
 50
3.59999986E+02
 51
9.28661070E+01
  0
ARC
  8
0
 62
7
 10
-2.17749924E+02
 20
-2.14057706E+02
 40
7.50000000E+00
 50
1.96983383E+02
 51
2.53016616E+02
  0
ARC
  8
0
 62
7
 10
-2.20393539E+02
 20
-2.28557706E+02
 40
1.00000000E+00
 50
1.88213065E+02
 51
2.70000018E+02
  0
ARC
  8
0
 62
7
 10
-2.25005783E+02
 20
-2.18485165E+02
 40
1.00000000E+00
 50
3.15000624E+02
 51
3.13907981E+01
  0
ARC
  8
0
 62
7
 10
-2.25866196E+02
 20
-2.19345547E+02
 40
1.00000000E+00
 50
2.33213685E+02
 51
3.15000637E+02
  0
ARC
  8
0
 62
7
 10
-2.23037766E+02
 20
-2.22173947E+02
 40
1.00000000E+00
 50
1.34999973E+02
 51
2.16787008E+02
  0
ARC
  8
0
 62
7
 10
-2.22177353E+02
 20
-2.21313595E+02
 40
1.00000000E+00
 50
5.86092520E+01
 51
1.34999345E+02
  0
ARC
  8
0
 62
7
 10
-2.30244980E+02
 20
-2.12357693E+02
 40
1.00000000E+00
 50
3.57133929E+02
 51
9.00000500E+01
  0
ARC
  8
0
 62
7
 10
-2.16049911E+02
 20
-2.28557706E+02
 40
1.00000000E+00
 50
2.70000018E+02
 51
0.00000000E+00
  0
ARC
  8
0
 62
7
 10
-2.48106308E+02
 20
-2.28557706E+02
 40
1.00000000E+00
 50
2.69999977E+02
 51
3.51786909E+02
  0
ARC
  8
0
 62
7
 10
-2.52449936E+02
 20
-2.28557706E+02
 40
1.00000000E+00
 50
1.79999977E+02
 51
2.69999946E+02
  0
ARC
  8
0
 62
7
 10
-2.45462082E+02
 20
-2.22173947E+02
 40
1.00000000E+00
 50
3.23213680E+02
 51
4.50006330E+01
  0
ARC
  8
0
 62
7
 10
-2.46322495E+02
 20
-2.21313565E+02
 40
1.00000000E+00
 50
4.50006194E+01
 51
1.21390794E+02
  0
ARC
  8
0
 62
7
 10
-2.42633713E+02
 20
-2.19345517E+02
 40
1.00000000E+00
 50
2.24999986E+02
 51
3.06787034E+02
  0
ARC
  8
0
 62
7
 10
-2.43494064E+02
 20
-2.18485135E+02
 40
1.00000000E+00
 50
1.48609248E+02
 51
2.24999340E+02
  0
ARC
  8
0
 62
7
 10
-2.52449936E+02
 20
-2.26552731E+02
 40
1.00000000E+00
 50
8.71339255E+01
 51
1.80000046E+02
  0
ARC
  8
0
 62
7
 10
-2.52249924E+02
 20
-2.22557706E+02
 40
3.00000000E+00
 50
2.67133634E+02
 51
5.31743887E+00
  0
ARC
  8
0
 62
7
 10
-2.48267136E+02
 20
-2.22186978E+02
 40
1.00000000E+00
 50
1.06982824E+02
 51
1.85317963E+02
  0
ARC
  8
0
 62
7
 10
-2.34249924E+02
 20
-2.30557706E+02
 40
1.22500000E+01
 50
0.00000000E+00
 51
1.80000000E+02
  0
ARC
  8
0
 62
7
 10
-2.34249924E+02
 20
-2.30557706E+02
 40
1.20000000E+01
 50
0.00000000E+00
 51
1.80000000E+02
  0
ARC
  8
0
 62
7
 10
-2.54049911E+02
 20
-2.19657712E+02
 40
2.00000000E+00
 50
5.94899369E+01
 51
1.79999937E+02
  0
ARC
  8
0
 62
7
 10
-2.53949936E+02
 20
-2.19715451E+02
 40
1.50000000E+00
 50
6.05075804E+01
 51
1.79999937E+02
  0
ARC
  8
0
 62
7
 10
-2.38254929E+02
 20
-2.12357693E+02
 40
1.00000000E+00
 50
8.99999818E+01
 51
1.82866103E+02
  0
ARC
  8
0
 62
7
 10
-2.42620651E+02
 20
-2.16540494E+02
 40
1.00000000E+00
 50
8.46820787E+01
 51
1.63017245E+02
  0
ARC
  8
0
 62
7
 10
-2.42249924E+02
 20
-2.12557706E+02
 40
3.00000000E+00
 50
2.64682634E+02
 51
2.86643915E+00
  0
ARC
  8
0
 62
7
 10
-2.45092209E+02
 20
-2.10857693E+02
 40
1.50000000E+00
 50
8.99999818E+01
 51
2.09492366E+02
  0
ARC
  8
0
 62
7
 10
-2.45149948E+02
 20
-2.10757718E+02
 40
2.00000000E+00
 50
8.99999818E+01
 51
2.10510009E+02
  0
CIRCLE
  8
0
 62
7
 10
-2.50749924E+02
 20
-2.14057706E+02
 40
4.50000000E+00
  0
ARC
  8
0
 62
7
 10
-2.36249924E+02
 20
-2.16701321E+02
 40
1.00000000E+00
 50
2.78213061E+02
 51
1.36603783E-05
  0
ARC
  8
0
 62
7
 10
-2.32249924E+02
 20
-2.16701321E+02
 40
1.00000000E+00
 50
1.79999964E+02
 51
2.61786889E+02
  0
ARC
  8
0
 62
7
 10
-2.36249924E+02
 20
-2.12357693E+02
 40
1.00000000E+00
 50
1.36603783E-05
 51
8.99999956E+01
  0
ARC
  8
0
 62
7
 10
-2.32249924E+02
 20
-2.12357693E+02
 40
1.00000000E+00
 50
8.99999818E+01
 51
1.79999937E+02
  0
ARC
  8
0
 62
7
 10
-2.50749924E+02
 20
-2.14057706E+02
 40
5.00000000E+00
 50
2.40507862E+02
 51
2.94922651E+01
  0
ARC
  8
0
 62
7
 10
-2.50749924E+02
 20
-2.14057706E+02
 40
7.50000000E+00
 50
2.86983379E+02
 51
3.43016612E+02
  0
CIRCLE
  8
0
 62
2
 10
-2.50749924E+02
 20
-2.14057706E+02
 40
3.00000000E+00
  0
ARC
  8
0
 62
7
 10
-2.34249924E+02
 20
-2.30557706E+02
 40
1.30000000E+01
 50
0.00000000E+00
 51
1.80000000E+02
  0
ARC
  8
0
 62
7
 10
-2.34249924E+02
 20
-2.30557706E+02
 40
4.00000000E+00
 50
0.00000000E+00
 51
1.80000000E+02
  0
ARC
  8
0
 62
2
 10
-2.34249924E+02
 20
-2.30557706E+02
 40
4.30000019E+00
 50
0.00000000E+00
 51
1.80000000E+02
  0
ARC
  8
0
 62
7
 10
-2.34249924E+02
 20
-2.30557706E+02
 40
5.00000000E+00
 50
0.00000000E+00
 51
1.80000000E+02
  0
CIRCLE
  8
0
 62
2
 10
-2.17749924E+02
 20
-2.14057706E+02
 40
3.00000000E+00
  0
ARC
  8
0
 62
7
 10
-9.72499847E+01
 20
-8.80577208E+01
 40
5.00000000E-01
 50
8.99999818E+01
 51
1.79999964E+02
  0
ARC
  8
0
 62
7
 10
-1.05499985E+02
 20
-8.85491301E+01
 40
2.50000000E-01
 50
9.20007424E+01
 51
1.79999964E+02
  0
ARC
  8
0
 62
7
 10
-1.05499985E+02
 20
-1.12566281E+02
 40
2.50000000E-01
 50
1.79999981E+02
 51
2.67999203E+02
  0
ARC
  8
0
 62
7
 10
-9.72499847E+01
 20
-1.13057690E+02
 40
5.00000000E-01
 50
1.79999981E+02
 51
2.69999963E+02
  0
ARC
  8
0
 62
7
 10
-7.17499847E+01
 20
-1.16557706E+02
 40
1.00000000E+00
 50
1.79999981E+02
 51
2.69999963E+02
  0
ARC
  8
0
 62
7
 10
-7.37499847E+01
 20
-1.11557706E+02
 40
1.00000000E+00
 50
3.59999945E+02
 51
8.99999274E+01
  0
ARC
  8
0
 62
7
 10
-8.97499847E+01
 20
-1.09557706E+02
 40
1.00000000E+00
 50
1.79999981E+02
 51
2.69999963E+02
  0
ARC
  8
0
 62
7
 10
-8.97499847E+01
 20
-9.15577056E+01
 40
1.00000000E+00
 50
8.99999818E+01
 51
1.79999964E+02
  0
ARC
  8
0
 62
7
 10
-7.17499847E+01
 20
-8.45577056E+01
 40
1.00000000E+00
 50
8.99999818E+01
 51
1.79999964E+02
  0
ARC
  8
0
 62
7
 10
-7.37499847E+01
 20
-8.95577056E+01
 40
1.00000000E+00
 50
2.70000018E+02
 51
0.00000000E+00
  0
ARC
  8
0
 62
7
 10
-9.52499847E+01
 20
-7.98566558E+01
 40
5.00000000E-01
 50
9.15004655E+01
 51
1.79999964E+02
  0
ARC
  8
0
 62
7
 10
-9.52499847E+01
 20
-8.00577056E+01
 40
5.00000000E-01
 50
8.99999818E+01
 51
1.79999964E+02
  0
ARC
  8
0
 62
7
 10
-9.52499847E+01
 20
-1.21258786E+02
 40
5.00000000E-01
 50
1.79999981E+02
 51
2.68499535E+02
  0
ARC
  8
0
 62
7
 10
-9.52499847E+01
 20
-1.21057675E+02
 40
5.00000000E-01
 50
1.79999981E+02
 51
2.70000018E+02
  0
ARC
  8
0
 62
2
 10
-7.97499847E+01
 20
-9.75577056E+01
 40
4.86399984E+00
 50
2.79919550E+01
 51
3.25322592E+02
  0
ARC
  8
0
 62
7
 10
-7.97499847E+01
 20
-9.75577056E+01
 40
4.28299999E+00
 50
2.09448692E+01
 51
3.39055131E+02
  0
ARC
  8
0
 62
7
 10
-1.10249985E+02
 20
-8.90577208E+01
 40
5.00000000E-01
 50
8.99999818E+01
 51
1.79999964E+02
  0
ARC
  8
0
 62
7
 10
-7.02499847E+01
 20
-1.07557706E+02
 40
4.00000000E+00
 50
1.94596046E+02
 51
3.51180181E+02
  0
ARC
  8
0
 62
7
 10
-1.10249985E+02
 20
-1.12057690E+02
 40
5.00000000E-01
 50
1.79999981E+02
 51
2.69999963E+02
  0
LINE
  8
0
 62
7
 10
-1.23749985E+02
 20
-1.04857678E+02
 11
-1.20749985E+02
 21
-1.04857678E+02
  0
LINE
  8
0
 62
7
 10
-1.23749985E+02
 20
-9.62576567E+01
 11
-1.20749985E+02
 21
-9.62576567E+01
  0
LINE
  8
0
 62
7
 10
-1.23749985E+02
 20
-2.26257703E+02
 11
-1.20749985E+02
 21
-2.26257703E+02
  0
LINE
  8
0
 62
7
 10
-1.20749984E+02
 20
-2.30557704E+02
 11
-1.17749983E+02
 21
-2.27241067E+02
  0
LINE
  8
0
 62
7
 10
-1.20749979E+02
 20
-2.25557706E+02
 11
-1.17749975E+02
 21
-2.24557719E+02
  0
LINE
  8
0
 62
7
 10
-1.23749985E+02
 20
-2.25557690E+02
 11
-1.23749985E+02
 21
-2.30557706E+02
  0
LINE
  8
0
 62
7
 10
-7.37499758E+01
 20
-2.08767250E+02
 11
-6.47500243E+01
 21
-2.08531578E+02
  0
LINE
  8
0
 62
7
 10
-1.05508715E+02
 20
-2.18299286E+02
 11
-9.77499860E+01
 21
-2.18028345E+02
  0
LINE
  8
0
 62
7
 10
-9.72499847E+01
 20
-2.17557721E+02
 11
-9.57499847E+01
 21
-2.17557721E+02
  0
LINE
  8
0
 62
7
 10
-1.10249985E+02
 20
-2.18557706E+02
 11
-1.05749985E+02
 21
-2.18557706E+02
  0
LINE
  8
0
 62
7
 10
-9.07499847E+01
 20
-2.09212399E+02
 11
-9.07499847E+01
 21
-2.08557721E+02
  0
LINE
  8
0
 62
7
 10
-7.37499847E+01
 20
-2.18816540E+02
 11
-7.37499847E+01
 21
-2.08767239E+02
  0
LINE
  8
0
 62
7
 10
-9.52499847E+01
 20
-2.09557736E+02
 11
-7.37499847E+01
 21
-2.09557736E+02
  0
LINE
  8
0
 62
7
 10
-1.17749985E+02
 20
-2.24557706E+02
 11
-1.10749985E+02
 21
-2.24557706E+02
  0
LINE
  8
0
 62
7
 10
-9.57499309E+01
 20
-2.19200551E+02
 11
-7.37499859E+01
 21
-2.18816541E+02
  0
LINE
  8
0
 62
7
 10
-9.57499847E+01
 20
-2.30557706E+02
 11
-9.57499847E+01
 21
-2.09830411E+02
  0
LINE
  8
0
 62
7
 10
-9.52499847E+01
 20
-2.18557721E+02
 11
-7.37499847E+01
 21
-2.18557721E+02
  0
LINE
  8
0
 62
7
 10
-6.47499847E+01
 20
-2.11407712E+02
 11
-5.95922069E-01
 21
-2.11407712E+02
  0
LINE
  8
0
 62
7
 10
-6.47499847E+01
 20
-2.16707699E+02
 11
-3.65587145E+00
 21
-2.16707699E+02
  0
LINE
  8
0
  6
CENTER
 62
2
 10
-9.79770050E+01
 20
-2.14057706E+02
 11
-2.12589676E+00
 21
-2.14057706E+02
  0
LINE
  8
0
 62
7
 10
-9.52630635E+01
 20
-2.09330590E+02
 11
-9.07499773E+01
 21
-2.09212411E+02
  0
LINE
  8
0
 62
7
 10
-9.07499847E+01
 20
-2.08557721E+02
 11
-6.47499847E+01
 21
-2.08557721E+02
  0
LINE
  8
0
 62
7
 10
-2.17249924E+02
 20
-2.08557675E+02
 11
-2.17249924E+02
 21
-2.08757703E+02
  0
LINE
  8
0
 62
7
 10
-2.51249924E+02
 20
-2.08557675E+02
 11
-2.51249924E+02
 21
-2.08757733E+02
  0
LINE
  8
0
 62
7
 10
-2.24249924E+02
 20
-2.08557675E+02
 11
-2.24249924E+02
 21
-2.09357709E+02
  0
LINE
  8
0
 62
7
 10
-2.44249924E+02
 20
-2.08557675E+02
 11
-2.44249924E+02
 21
-2.09357709E+02
  0
LINE
  8
0
 62
7
 10
-2.16049911E+02
 20
-2.29557690E+02
 11
-2.20393539E+02
 21
-2.29557690E+02
  0
LINE
  8
0
 62
7
 10
-2.24298787E+02
 20
-2.19192259E+02
 11
-2.25159150E+02
 21
-2.20052621E+02
  0
LINE
  8
0
 62
7
 10
-2.22884574E+02
 20
-2.20606430E+02
 11
-2.23744936E+02
 21
-2.21466792E+02
  0
LINE
  8
0
 62
7
 10
-2.38254929E+02
 20
-2.11357678E+02
 11
-2.30244980E+02
 21
-2.11357739E+02
  0
LINE
  8
0
 62
7
 10
-2.45092209E+02
 20
-2.09357709E+02
 11
-2.23407700E+02
 21
-2.09357709E+02
  0
LINE
  8
0
 62
7
 10
-2.13049911E+02
 20
-2.30557706E+02
 11
-2.13049911E+02
 21
-2.19715451E+02
  0
LINE
  8
0
 62
7
 10
-2.12449936E+02
 20
-2.11557706E+02
 11
-2.12449936E+02
 21
-2.19657712E+02
  0
LINE
  8
0
 62
7
 10
-2.15249924E+02
 20
-2.08757703E+02
 11
-2.24249924E+02
 21
-2.08757703E+02
  0
LINE
  8
0
 62
7
 10
-2.15049942E+02
 20
-2.30557706E+02
 11
-2.15049911E+02
 21
-2.26552701E+02
  0
LINE
  8
0
 62
7
 10
-2.52449936E+02
 20
-2.29557721E+02
 11
-2.48106308E+02
 21
-2.29557721E+02
  0
LINE
  8
0
 62
7
 10
-2.45615398E+02
 20
-2.20606579E+02
 11
-2.44755036E+02
 21
-2.21466941E+02
  0
LINE
  8
0
 62
7
 10
-2.44201173E+02
 20
-2.19192355E+02
 11
-2.43340811E+02
 21
-2.20052717E+02
  0
LINE
  8
0
  6
CENTER
 62
2
 10
-2.37249924E+02
 20
-2.06227658E+02
 11
-2.37249924E+02
 21
-2.15974682E+02
  0
LINE
  8
0
 62
7
 10
-2.33249924E+02
 20
-2.12357693E+02
 11
-2.33249924E+02
 21
-2.16701321E+02
  0
LINE
  8
0
 62
7
 10
-2.35249924E+02
 20
-2.12357693E+02
 11
-2.35249924E+02
 21
-2.16701321E+02
  0
LINE
  8
0
  6
CENTER
 62
2
 10
-2.57805588E+02
 20
-2.14057706E+02
 11
-2.44117905E+02
 21
-2.14057706E+02
  0
LINE
  8
0
  6
CENTER
 62
2
 10
-2.50749924E+02
 20
-2.06844266E+02
 11
-2.50749924E+02
 21
-2.20666485E+02
  0
LINE
  8
0
  6
CENTER
 62
2
 10
-2.17749924E+02
 20
-2.07002011E+02
 11
-2.17749924E+02
 21
-2.20689694E+02
  0
LINE
  8
0
  6
CENTER
 62
2
 10
-2.10536484E+02
 20
-2.14057660E+02
 11
-2.24358688E+02
 21
-2.14057660E+02
  0
LINE
  8
0
  6
CENTER
 62
2
 10
-2.34249924E+02
 20
-2.06227658E+02
 11
-2.34249924E+02
 21
-2.30557706E+02
  0
LINE
  8
0
  6
CENTER
 62
2
 10
-2.58648972E+02
 20
-2.30557706E+02
 11
-2.09290085E+02
 21
-2.30557706E+02
  0
LINE
  8
0
 62
7
 10
-2.12249863E+02
 20
-2.30557706E+02
 11
-2.12249863E+02
 21
-2.11557675E+02
  0
LINE
  8
0
 62
7
 10
-2.53249924E+02
 20
-2.08557675E+02
 11
-2.15249863E+02
 21
-2.08557675E+02
  0
LINE
  8
0
 62
7
 10
-2.56249924E+02
 20
-2.30557706E+02
 11
-2.56249924E+02
 21
-2.11557675E+02
  0
LINE
  8
0
 62
7
 10
-2.53449905E+02
 20
-2.30557706E+02
 11
-2.53449875E+02
 21
-2.26552731E+02
  0
LINE
  8
0
 62
7
 10
-2.55449936E+02
 20
-2.30557706E+02
 11
-2.55449936E+02
 21
-2.19715451E+02
  0
LINE
  8
0
 62
7
 10
-2.53249924E+02
 20
-2.08757733E+02
 11
-2.44249924E+02
 21
-2.08757733E+02
  0
LINE
  8
0
 62
7
 10
-2.56049911E+02
 20
-2.11557736E+02
 11
-2.56049911E+02
 21
-2.19657712E+02
  0
LINE
  8
0
 62
7
 10
-2.47749924E+02
 20
-2.12325619E+02
 11
-2.47749924E+02
 21
-2.15789700E+02
  0
LINE
  8
0
 62
7
 10
-2.47749875E+02
 20
-2.15789808E+02
 11
-2.50749851E+02
 21
-2.17521858E+02
  0
LINE
  8
0
 62
7
 10
-2.50750060E+02
 20
-2.17521740E+02
 11
-2.53750063E+02
 21
-2.15789675E+02
  0
LINE
  8
0
 62
7
 10
-2.53749924E+02
 20
-2.15789700E+02
 11
-2.53749924E+02
 21
-2.12325619E+02
  0
LINE
  8
0
 62
7
 10
-2.50749898E+02
 20
-2.10593775E+02
 11
-2.53749848E+02
 21
-2.12325809E+02
  0
LINE
  8
0
 62
7
 10
-2.47750052E+02
 20
-2.12325610E+02
 11
-2.50750107E+02
 21
-2.10593515E+02
  0
LINE
  8
0
 62
7
 10
-2.14749924E+02
 20
-2.12325619E+02
 11
-2.14749924E+02
 21
-2.15789700E+02
  0
LINE
  8
0
 62
7
 10
-2.14750023E+02
 20
-2.15789498E+02
 11
-2.17750000E+02
 21
-2.17521547E+02
  0
LINE
  8
0
 62
7
 10
-2.17749866E+02
 20
-2.17521769E+02
 11
-2.20749869E+02
 21
-2.15789703E+02
  0
LINE
  8
0
 62
7
 10
-2.20749924E+02
 20
-2.15789700E+02
 11
-2.20749924E+02
 21
-2.12325619E+02
  0
LINE
  8
0
 62
7
 10
-2.17750169E+02
 20
-2.10593218E+02
 11
-2.20750146E+02
 21
-2.12325267E+02
  0
LINE
  8
0
 62
7
 10
-2.14749816E+02
 20
-2.12325692E+02
 11
-2.17749871E+02
 21
-2.10593595E+02
  0
LINE
  8
0
 62
7
 10
-1.05508713E+02
 20
-1.12816084E+02
 11
-9.77499841E+01
 21
-1.13087025E+02
  0
LINE
  8
0
 62
7
 10
-1.05508694E+02
 20
-8.82992835E+01
 11
-9.77499646E+01
 21
-8.80283427E+01
  0
LINE
  8
0
 62
7
 10
-9.77499847E+01
 20
-1.13057690E+02
 11
-9.77499847E+01
 21
-8.80577208E+01
  0
LINE
  8
0
 62
7
 10
-1.05749985E+02
 20
-1.12566281E+02
 11
-1.05749985E+02
 21
-8.85491301E+01
  0
LINE
  8
0
 62
7
 10
-9.72499847E+01
 20
-8.75577208E+01
 11
-9.57499847E+01
 21
-8.75577208E+01
  0
LINE
  8
0
 62
7
 10
-9.72499847E+01
 20
-1.13557690E+02
 11
-9.57499847E+01
 21
-1.13557690E+02
  0
LINE
  8
0
 62
7
 10
-9.77499847E+01
 20
-2.30557706E+02
 11
-9.77499847E+01
 21
-2.18028348E+02
  0
LINE
  8
0
 62
7
 10
-7.17499847E+01
 20
-1.17557706E+02
 11
-6.47499847E+01
 21
-1.17557706E+02
  0
LINE
  8
0
 62
7
 10
-7.27499847E+01
 20
-1.11557706E+02
 11
-7.27499847E+01
 21
-1.16557706E+02
  0
LINE
  8
0
 62
7
 10
-9.57500335E+01
 20
-1.12902043E+02
 11
-7.37499969E+01
 21
-1.13286055E+02
  0
LINE
  8
0
 62
2
 10
-9.57499847E+01
 20
-1.11286084E+02
 11
-7.37499847E+01
 21
-1.11286084E+02
  0
LINE
  8
0
 62
7
 10
-8.97499847E+01
 20
-1.10557706E+02
 11
-7.37499847E+01
 21
-1.10557706E+02
  0
LINE
  8
0
 62
7
 10
-7.27499847E+01
 20
-8.95577056E+01
 11
-7.27499847E+01
 21
-8.45577056E+01
  0
LINE
  8
0
 62
7
 10
-8.97499847E+01
 20
-9.05577056E+01
 11
-7.37499847E+01
 21
-9.05577056E+01
  0
LINE
  8
0
 62
7
 10
-9.52499847E+01
 20
-7.95577056E+01
 11
-7.37499847E+01
 21
-7.95577056E+01
  0
LINE
  8
0
 62
7
 10
-9.57500018E+01
 20
-8.82133044E+01
 11
-7.37499958E+01
 21
-8.78292929E+01
  0
LINE
  8
0
 62
2
 10
-9.57499847E+01
 20
-8.98293273E+01
 11
-7.37499847E+01
 21
-8.98293273E+01
  0
LINE
  8
0
 62
7
 10
-7.17499847E+01
 20
-8.35577056E+01
 11
-6.47499847E+01
 21
-8.35577056E+01
  0
LINE
  8
0
 62
7
 10
-9.52499847E+01
 20
-1.21557675E+02
 11
-7.37499847E+01
 21
-1.21557675E+02
  0
LINE
  8
0
  6
CENTER
 62
2
 10
-7.97499847E+01
 20
-2.06227658E+02
 11
-7.97499847E+01
 21
-2.15954541E+02
  0
LINE
  8
0
 62
7
 10
-9.07499847E+01
 20
-1.09557706E+02
 11
-9.07499847E+01
 21
-9.15577056E+01
  0
LINE
  8
0
  6
CENTER
 62
2
 10
-8.78466492E+01
 20
-9.75577056E+01
 11
-7.57499847E+01
 21
-9.75577056E+01
  0
LINE
  8
0
  6
CENTER
 62
2
 10
-7.97499847E+01
 20
-1.06014905E+02
 11
-7.97499847E+01
 21
-8.84134947E+01
  0
LINE
  8
0
 62
7
 10
-1.10249985E+02
 20
-8.85577056E+01
 11
-1.05749985E+02
 21
-8.85577056E+01
  0
LINE
  8
0
 62
7
 10
-1.10749985E+02
 20
-1.12057690E+02
 11
-1.10749985E+02
 21
-8.90577208E+01
  0
LINE
  8
0
 62
7
 10
-7.11112815E+01
 20
-1.08565716E+02
 11
-7.09715344E+01
 21
-1.08807768E+02
  0
LINE
  8
0
 62
7
 10
-6.95283051E+01
 20
-1.08807767E+02
 11
-7.09716644E+01
 21
-1.08807767E+02
  0
LINE
  8
0
 62
7
 10
-6.91605924E+01
 20
-1.08171016E+02
 11
-6.95282394E+01
 21
-1.08807808E+02
  0
LINE
  8
0
 62
7
 10
-6.47499847E+01
 20
-1.22557706E+02
 11
-6.47499847E+01
 21
-1.08919018E+02
  0
LINE
  8
0
 62
7
 10
-7.37499847E+01
 20
-8.98293273E+01
 11
-7.37499847E+01
 21
-7.87934844E+01
  0
LINE
  8
0
 62
7
 10
-9.52630316E+01
 20
-7.93568247E+01
 11
-6.47500230E+01
 21
-7.85578135E+01
  0
LINE
  8
0
 62
7
 10
-7.37499847E+01
 20
-1.11286084E+02
 11
-7.37499847E+01
 21
-1.22321942E+02
  0
LINE
  8
0
 62
7
 10
-1.05749985E+02
 20
-2.18557706E+02
 11
-1.05749985E+02
 21
-2.30557706E+02
  0
LINE
  8
0
 62
7
 10
-1.10249985E+02
 20
-1.12557706E+02
 11
-1.05749985E+02
 21
-1.12557706E+02
  0
LINE
  8
0
 62
7
 10
-9.52630844E+01
 20
-1.21758582E+02
 11
-6.47500148E+01
 21
-1.22557595E+02
  0
LINE
  8
0
 62
7
 10
-1.12750015E+02
 20
-9.45577056E+01
 11
-1.10749985E+02
 21
-9.45577056E+01
  0
LINE
  8
0
 62
7
 10
-6.47499847E+01
 20
-8.14077422E+01
 11
-5.62499847E+01
 21
-8.14077422E+01
  0
LINE
  8
0
 62
7
 10
-6.47499847E+01
 20
-8.67077300E+01
 11
-5.62499847E+01
 21
-8.67077300E+01
  0
LINE
  8
0
  6
CENTER
 62
2
 10
-9.79770050E+01
 20
-8.40577056E+01
 11
-5.62499847E+01
 21
-8.40577056E+01
  0
LINE
  8
0
 62
7
 10
-9.57499847E+01
 20
-1.21258786E+02
 11
-9.57499847E+01
 21
-7.98566558E+01
  0
LINE
  8
0
 62
7
 10
-1.12749985E+02
 20
-1.06557721E+02
 11
-1.10749985E+02
 21
-1.06557721E+02
  0
LINE
  8
0
  6
CENTER
 62
2
 10
-1.44707901E+02
 20
-1.00557706E+02
 11
-7.62499847E+01
 21
-1.00557706E+02
  0
LINE
  8
0
 62
7
 10
-6.47499847E+01
 20
-1.19707669E+02
 11
-2.27084127E+01
 21
-1.19707669E+02
  0
LINE
  8
0
 62
7
 10
-6.47499847E+01
 20
-1.14407681E+02
 11
-6.06738342E+01
 21
-1.14407681E+02
  0
LINE
  8
0
  6
CENTER
 62
2
 10
-9.79770050E+01
 20
-1.17057675E+02
 11
-5.21499847E+01
 21
-1.17057675E+02
  0
LINE
  8
0
 62
7
 10
-1.13750107E+02
 20
-1.05557634E+02
 11
-1.12750106E+02
 21
-1.06557635E+02
  0
LINE
  8
0
 62
7
 10
-1.13750292E+02
 20
-9.55574173E+01
 11
-1.12750280E+02
 21
-9.45574055E+01
  0
LINE
  8
0
 62
7
 10
-1.20749985E+02
 20
-9.55576445E+01
 11
-1.13750015E+02
 21
-9.55576445E+01
  0
LINE
  8
0
 62
7
 10
-1.20749985E+02
 20
-1.05557690E+02
 11
-1.13749985E+02
 21
-1.05557690E+02
  0
LINE
  8
0
 62
2
 10
-1.42449966E+02
 20
-9.62576567E+01
 11
-1.36249985E+02
 21
-9.62576567E+01
  0
LINE
  8
0
 62
7
 10
-1.42749759E+02
 20
-9.65578879E+01
 11
-1.41749807E+02
 21
-9.55579132E+01
  0
LINE
  8
0
 62
7
 10
-1.41749985E+02
 20
-1.05557690E+02
 11
-1.41749985E+02
 21
-9.55576445E+01
  0
LINE
  8
0
 62
7
 10
-1.23749985E+02
 20
-1.05557690E+02
 11
-1.23749985E+02
 21
-9.55576445E+01
  0
LINE
  8
0
 62
7
 10
-1.17749985E+02
 20
-1.05557690E+02
 11
-1.17749985E+02
 21
-9.55576445E+01
  0
LINE
  8
0
 62
7
 10
-1.41749985E+02
 20
-9.55576445E+01
 11
-1.36249985E+02
 21
-9.55576445E+01
  0
LINE
  8
0
 62
7
 10
-1.42749985E+02
 20
-1.04557660E+02
 11
-1.42749985E+02
 21
-9.65577056E+01
  0
LINE
  8
0
 62
7
 10
-1.20749985E+02
 20
-1.05557690E+02
 11
-1.20749985E+02
 21
-9.55576445E+01
  0
LINE
  8
0
 62
2
 10
-1.42449966E+02
 20
-1.04857678E+02
 11
-1.36249985E+02
 21
-1.04857678E+02
  0
LINE
  8
0
 62
7
 10
-1.42750002E+02
 20
-1.04557706E+02
 11
-1.41750034E+02
 21
-1.05557697E+02
  0
LINE
  8
0
 62
7
 10
-1.41749985E+02
 20
-1.05557690E+02
 11
-1.36249985E+02
 21
-1.05557690E+02
  0
LINE
  8
0
 62
7
 10
-1.10749985E+02
 20
-2.19057721E+02
 11
-1.10749985E+02
 21
-2.30557706E+02
  0
LINE
  8
0
 62
2
 10
-1.17249952E+02
 20
-2.30557706E+02
 11
-1.19134598E+02
 21
-2.28771810E+02
  0
LINE
  8
0
 62
2
 10
-1.17249772E+02
 20
-2.30557706E+02
 11
-1.13749878E+02
 21
-2.27241197E+02
  0
LINE
  8
0
 62
7
 10
-1.41749985E+02
 20
-2.25557690E+02
 11
-1.41749985E+02
 21
-2.30557706E+02
  0
LINE
  8
0
 62
7
 10
-1.42749985E+02
 20
-2.26557889E+02
 11
-1.42749985E+02
 21
-2.30557706E+02
  0
LINE
  8
0
 62
7
 10
-1.20749985E+02
 20
-2.25557690E+02
 11
-1.20749985E+02
 21
-2.30557706E+02
  0
LINE
  8
0
 62
7
 10
-1.13749985E+02
 20
-2.30557706E+02
 11
-1.13749985E+02
 21
-2.27241070E+02
  0
LINE
  8
0
 62
7
 10
-1.17749985E+02
 20
-2.27241070E+02
 11
-1.13749985E+02
 21
-2.27241070E+02
  0
LINE
  8
0
 62
2
 10
-1.42449966E+02
 20
-2.26257703E+02
 11
-1.36249985E+02
 21
-2.26257703E+02
  0
LINE
  8
0
 62
7
 10
-1.42749831E+02
 20
-2.26557749E+02
 11
-1.41749884E+02
 21
-2.25557779E+02
  0
LINE
  8
0
 62
7
 10
-1.17749985E+02
 20
-2.27241070E+02
 11
-1.17749985E+02
 21
-2.24557706E+02
  0
LINE
  8
0
 62
7
 10
-1.41749985E+02
 20
-2.25557690E+02
 11
-1.36249985E+02
 21
-2.25557690E+02
  0
LINE
  8
0
  6
CENTER
 62
2
 10
-1.45115707E+02
 20
-2.30557706E+02
 11
-1.16521762E+01
 21
-2.30557706E+02
  0
LINE
  8
0
 62
7
 10
-6.47499847E+01
 20
-2.08531583E+02
 11
-6.47499847E+01
 21
-2.30557706E+02
  0
LINE
  8
0
 62
7
 10
-4.12499847E+01
 20
-8.14077422E+01
 11
-5.95939670E-01
 21
-8.14077422E+01
  0
LINE
  8
0
 62
7
 10
-4.12499847E+01
 20
-8.67077300E+01
 11
-3.65588905E+00
 21
-8.67077300E+01
  0
LINE
  8
0
  6
CENTER
 62
2
 10
-4.12499847E+01
 20
-8.40577056E+01
 11
-2.12589674E+00
 21
-8.40577056E+01
  0
LINE
  8
0
  6
CENTER
 62
2
 10
-2.17499847E+01
 20
-1.00557706E+02
 11
-1.16521762E+01
 21
-1.00557706E+02
  0
LINE
  8
0
 62
7
 10
-2.18261363E+01
 20
-1.14407681E+02
 11
-1.96484633E+01
 21
-1.14407681E+02
  0
LINE
  8
0
 62
7
 10
-6.47499847E+01
 20
-9.49190183E+01
 11
-6.47499847E+01
 21
-7.85577666E+01
  0
LINE
  8
0
 62
2
 10
-2.54922243E+01
 20
-1.24529372E+02
 11
1.95652753E+00
 21
-7.69867393E+01
  0
LINE
  8
0
 62
7
 10
2.40302009E+02
 20
-2.08531583E+02
 11
2.40302009E+02
 21
-2.30557706E+02
  0
LINE
  8
0
 62
7
 10
3.17302009E+02
 20
-2.25557690E+02
 11
3.11802009E+02
 21
-2.25557690E+02
  0
LINE
  8
0
 62
7
 10
2.93302009E+02
 20
-2.27241070E+02
 11
2.93302009E+02
 21
-2.24557706E+02
  0
LINE
  8
0
 62
7
 10
3.18301855E+02
 20
-2.26557749E+02
 11
3.17301908E+02
 21
-2.25557779E+02
  0
LINE
  8
0
 62
2
 10
3.18001991E+02
 20
-2.26257703E+02
 11
3.11802009E+02
 21
-2.26257703E+02
  0
LINE
  8
0
 62
7
 10
2.93302009E+02
 20
-2.27241070E+02
 11
2.89302009E+02
 21
-2.27241070E+02
  0
LINE
  8
0
 62
7
 10
2.89302009E+02
 20
-2.30557706E+02
 11
2.89302009E+02
 21
-2.27241070E+02
  0
LINE
  8
0
 62
7
 10
2.96302009E+02
 20
-2.25557690E+02
 11
2.96302009E+02
 21
-2.30557706E+02
  0
LINE
  8
0
 62
7
 10
3.18302009E+02
 20
-2.26557889E+02
 11
3.18302009E+02
 21
-2.30557706E+02
  0
LINE
  8
0
 62
7
 10
3.17302009E+02
 20
-2.25557690E+02
 11
3.17302009E+02
 21
-2.30557706E+02
  0
LINE
  8
0
 62
2
 10
2.92801796E+02
 20
-2.30557706E+02
 11
2.89301902E+02
 21
-2.27241197E+02
  0
LINE
  8
0
 62
2
 10
2.92801976E+02
 20
-2.30557706E+02
 11
2.94686622E+02
 21
-2.28771810E+02
  0
LINE
  8
0
 62
7
 10
2.86302009E+02
 20
-2.19057721E+02
 11
2.86302009E+02
 21
-2.30557706E+02
  0
LINE
  8
0
 62
7
 10
2.81302009E+02
 20
-2.18557706E+02
 11
2.81302009E+02
 21
-2.30557706E+02
  0
LINE
  8
0
  6
CENTER
 62
2
 10
2.55302009E+02
 20
-2.06227658E+02
 11
2.55302009E+02
 21
-2.15954541E+02
  0
LINE
  8
0
 62
7
 10
2.73302009E+02
 20
-2.30557706E+02
 11
2.73302009E+02
 21
-2.18028348E+02
  0
LINE
  8
0
 62
7
 10
2.66302009E+02
 20
-2.08557721E+02
 11
2.40302009E+02
 21
-2.08557721E+02
  0
LINE
  8
0
 62
7
 10
2.70815088E+02
 20
-2.09330590E+02
 11
2.66302001E+02
 21
-2.09212411E+02
  0
LINE
  8
0
  6
CENTER
 62
2
 10
2.73529029E+02
 20
-2.14057706E+02
 11
2.31802009E+02
 21
-2.14057706E+02
  0
LINE
  8
0
 62
7
 10
2.40302009E+02
 20
-2.16707699E+02
 11
2.31802009E+02
 21
-2.16707699E+02
  0
LINE
  8
0
 62
7
 10
2.40302009E+02
 20
-2.11407712E+02
 11
2.31802009E+02
 21
-2.11407712E+02
  0
LINE
  8
0
 62
7
 10
2.70802009E+02
 20
-2.18557721E+02
 11
2.49302009E+02
 21
-2.18557721E+02
  0
LINE
  8
0
 62
7
 10
2.71302009E+02
 20
-2.30557706E+02
 11
2.71302009E+02
 21
-2.09830411E+02
  0
LINE
  8
0
 62
7
 10
2.71301955E+02
 20
-2.19200551E+02
 11
2.49302010E+02
 21
-2.18816541E+02
  0
LINE
  8
0
 62
7
 10
2.93302009E+02
 20
-2.24557706E+02
 11
2.86302009E+02
 21
-2.24557706E+02
  0
LINE
  8
0
 62
7
 10
2.70802009E+02
 20
-2.09557736E+02
 11
2.49302009E+02
 21
-2.09557736E+02
  0
LINE
  8
0
 62
7
 10
2.49302009E+02
 20
-2.18816540E+02
 11
2.49302009E+02
 21
-2.08767239E+02
  0
LINE
  8
0
 62
7
 10
2.66302009E+02
 20
-2.09212399E+02
 11
2.66302009E+02
 21
-2.08557721E+02
  0
LINE
  8
0
 62
7
 10
2.85802009E+02
 20
-2.18557706E+02
 11
2.81302009E+02
 21
-2.18557706E+02
  0
LINE
  8
0
 62
7
 10
2.72802009E+02
 20
-2.17557721E+02
 11
2.71302009E+02
 21
-2.17557721E+02
  0
LINE
  8
0
 62
7
 10
2.81060739E+02
 20
-2.18299286E+02
 11
2.73302010E+02
 21
-2.18028345E+02
  0
LINE
  8
0
 62
7
 10
2.49302000E+02
 20
-2.08767250E+02
 11
2.40302048E+02
 21
-2.08531578E+02
  0
LINE
  8
0
 62
7
 10
2.99302009E+02
 20
-2.25557690E+02
 11
2.99302009E+02
 21
-2.30557706E+02
  0
LINE
  8
0
 62
7
 10
2.96302004E+02
 20
-2.25557706E+02
 11
2.93301999E+02
 21
-2.24557719E+02
  0
LINE
  8
0
 62
7
 10
2.96302008E+02
 20
-2.30557704E+02
 11
2.93302007E+02
 21
-2.27241067E+02
  0
LINE
  8
0
 62
7
 10
2.99302009E+02
 20
-2.26257703E+02
 11
2.96302009E+02
 21
-2.26257703E+02
  0
ARC
  8
0
 62
7
 10
2.70802009E+02
 20
-2.09830411E+02
 40
5.00000000E-01
 50
3.59721787E-05
 51
8.84996437E+01
  0
ARC
  8
0
 62
7
 10
2.85802009E+02
 20
-2.19057721E+02
 40
5.00000000E-01
 50
3.59721787E-05
 51
9.00000179E+01
  0
ARC
  8
0
 62
7
 10
2.81052009E+02
 20
-2.18549130E+02
 40
2.50000000E-01
 50
3.59721787E-05
 51
8.79992642E+01
  0
ARC
  8
0
 62
7
 10
2.72802009E+02
 20
-2.18057721E+02
 40
5.00000000E-01
 50
3.59721787E-05
 51
9.00000179E+01
  0
ARC
  8
0
 62
7
 10
2.70802009E+02
 20
-2.18057751E+02
 40
5.00000000E-01
 50
2.70000037E+02
 51
1.86693347E-05
  0
ARC
  8
0
 62
7
 10
2.70802009E+02
 20
-2.10057706E+02
 40
5.00000000E-01
 50
3.59721787E-05
 51
9.00000724E+01
  0
LINE
  8
0
 62
4
 10
3.11042819E+02
 20
-2.20742751E+02
 11
3.06561198E+02
 21
-2.20742751E+02
  0
LINE
  8
0
 62
4
 10
3.11042819E+02
 20
-2.25650228E+02
 11
3.06561198E+02
 21
-2.25650228E+02
  0
LINE
  8
0
 62
4
 10
3.11802009E+02
 20
-2.30557706E+02
 11
3.11802009E+02
 21
-2.22057706E+02
  0
LINE
  8
0
 62
4
 10
3.11802009E+02
 20
-2.22057705E+02
 11
3.11042820E+02
 21
-2.20742751E+02
  0
ARC
  8
0
 62
4
 10
3.07457110E+02
 20
-2.23196490E+02
 40
4.34489857E+00
 50
3.25615751E+02
 51
3.43842484E+01
  0
ARC
  8
0
 62
4
 10
2.95561198E+02
 20
-2.30557706E+02
 40
1.62408104E+01
 50
1.25181798E-07
 51
1.75879541E+01
  0
LINE
  8
0
 62
4
 10
3.05802009E+02
 20
-2.30557706E+02
 11
3.05802009E+02
 21
-2.22057706E+02
  0
LINE
  8
0
 62
4
 10
3.05802009E+02
 20
-2.22057705E+02
 11
3.06561198E+02
 21
-2.20742751E+02
  0
ARC
  8
0
 62
4
 10
3.10146907E+02
 20
-2.23196490E+02
 40
4.34489857E+00
 50
1.45615752E+02
 51
2.14384248E+02
  0
ARC
  8
0
 62
4
 10
3.22042819E+02
 20
-2.30557706E+02
 40
1.62408104E+01
 50
1.62412046E+02
 51
1.80000000E+02
  0
LINE
  8
0
 62
7
 10
3.05802009E+02
 20
-2.25557690E+02
 11
2.99302009E+02
 21
-2.25557690E+02
  0
LINE
  8
0
 62
2
 10
3.05802009E+02
 20
-2.26257703E+02
 11
2.99302009E+02
 21
-2.26257703E+02
  0
ARC
  8
0
 62
7
 10
2.94302009E+02
 20
-2.30557706E+02
 40
6.00000000E+00
 50
1.46442621E+02
 51
1.80000000E+02
  0
LINE
  8
0
 62
2
 10
1.62536626E+02
 20
-2.34983209E+02
 11
1.80078804E+02
 21
-2.04599267E+02
  0
LINE
  8
0
 62
7
 10
2.16802009E+02
 20
-2.11407712E+02
 11
1.76147946E+02
 21
-2.11407712E+02
  0
LINE
  8
0
 62
7
 10
2.16802009E+02
 20
-2.16707699E+02
 11
1.73087997E+02
 21
-2.16707699E+02
  0
LINE
  8
0
  6
CENTER
 62
2
 10
2.16802009E+02
 20
-2.14057706E+02
 11
1.74617972E+02
 21
-2.14057706E+02
  0
LINE
  8
0
  6
CENTER
 62
2
 10
-4.53499847E+01
 20
-1.17057675E+02
 11
-2.11784380E+01
 21
-1.17057675E+02
  0
CIRCLE
  8
0
 62
7
 10
5.82326858E+01
 20
-2.14057706E+02
 40
4.50000000E+00
  0
ARC
  8
0
 62
7
 10
5.82326858E+01
 20
-2.14057706E+02
 40
5.00000000E+00
 50
2.40507734E+02
 51
2.94921644E+01
  0
ARC
  8
0
 62
7
 10
5.82326858E+01
 20
-2.14057706E+02
 40
7.50000000E+00
 50
2.86983384E+02
 51
3.43016617E+02
  0
CIRCLE
  8
0
 62
2
 10
5.82326858E+01
 20
-2.14057706E+02
 40
3.00000000E+00
  0
LINE
  8
0
 62
7
 10
5.65326736E+01
 20
-2.29557690E+02
 11
6.08763015E+01
 21
-2.29557690E+02
  0
LINE
  8
0
 62
7
 10
5.57326858E+01
 20
-2.08757703E+02
 11
6.47326858E+01
 21
-2.08757703E+02
  0
LINE
  8
0
  6
CENTER
 62
2
 10
5.82326858E+01
 20
-2.07002011E+02
 11
5.82326858E+01
 21
-2.20689694E+02
  0
LINE
  8
0
  6
CENTER
 62
2
 10
5.10192458E+01
 20
-2.14057660E+02
 11
6.48414504E+01
 21
-2.14057660E+02
  0
LINE
  8
0
  6
CENTER
 62
2
 10
9.91317336E+01
 20
-2.30557706E+02
 11
4.97728469E+01
 21
-2.30557706E+02
  0
LINE
  8
0
 62
7
 10
9.37326858E+01
 20
-2.08557675E+02
 11
5.57326247E+01
 21
-2.08557675E+02
  0
LINE
  8
0
 62
7
 10
5.82326283E+01
 20
-2.17521769E+02
 11
6.12326307E+01
 21
-2.15789703E+02
  0
LINE
  8
0
 62
7
 10
5.82329312E+01
 20
-2.10593218E+02
 11
6.12329084E+01
 21
-2.12325267E+02
  0
LINE
  8
0
 62
7
 10
5.52325776E+01
 20
-2.12325692E+02
 11
5.82326328E+01
 21
-2.10593595E+02
  0
LINE
  8
0
 62
7
 10
5.52327853E+01
 20
-2.15789498E+02
 11
5.82327625E+01
 21
-2.17521547E+02
  0
LINE
  8
0
 62
7
 10
5.52326858E+01
 20
-2.12325619E+02
 11
5.52326858E+01
 21
-2.15789700E+02
  0
LINE
  8
0
 62
7
 10
5.27326247E+01
 20
-2.30557706E+02
 11
5.27326247E+01
 21
-2.11557675E+02
  0
LINE
  8
0
 62
7
 10
5.55327041E+01
 20
-2.30557706E+02
 11
5.55326736E+01
 21
-2.26552701E+02
  0
LINE
  8
0
 62
7
 10
5.29326980E+01
 20
-2.11557706E+02
 11
5.29326980E+01
 21
-2.19657712E+02
  0
LINE
  8
0
 62
7
 10
5.35326736E+01
 20
-2.30557706E+02
 11
5.35326736E+01
 21
-2.19715451E+02
  0
LINE
  8
0
 62
7
 10
5.77326858E+01
 20
-2.08557675E+02
 11
5.77326858E+01
 21
-2.08757703E+02
  0
ARC
  8
0
 62
7
 10
5.65326736E+01
 20
-2.28557706E+02
 40
1.00000000E+00
 50
1.80000000E+02
 51
2.69999982E+02
  0
ARC
  8
0
 62
7
 10
5.65326736E+01
 20
-2.26552701E+02
 40
1.00000000E+00
 50
8.71338928E+01
 51
1.80000014E+02
  0
ARC
  8
0
 62
7
 10
5.49326980E+01
 20
-2.19657712E+02
 40
2.00000000E+00
 50
5.94899867E+01
 51
1.80000014E+02
  0
ARC
  8
0
 62
7
 10
5.50326736E+01
 20
-2.19715451E+02
 40
1.50000000E+00
 50
6.05076302E+01
 51
1.80000014E+02
  0
ARC
  8
0
 62
7
 10
5.67326858E+01
 20
-2.22557706E+02
 40
3.00000000E+00
 50
2.67133560E+02
 51
5.31736556E+00
  0
ARC
  8
0
 62
7
 10
6.07154738E+01
 20
-2.22187009E+02
 40
1.00000000E+00
 50
1.06982751E+02
 51
1.85317917E+02
  0
ARC
  8
0
 62
7
 10
5.57326858E+01
 20
-2.11557706E+02
 40
2.79999995E+00
 50
9.00000179E+01
 51
1.80000000E+02
  0
ARC
  8
0
 62
7
 10
5.57326247E+01
 20
-2.11557675E+02
 40
3.00000000E+00
 50
9.00000179E+01
 51
1.80000000E+02
  0
ARC
  8
0
 62
7
 10
9.37326858E+01
 20
-2.11557736E+02
 40
2.79999995E+00
 50
3.59721787E-05
 51
9.00000179E+01
  0
ARC
  8
0
 62
7
 10
9.37326858E+01
 20
-2.11557675E+02
 40
3.00000000E+00
 50
3.59721787E-05
 51
9.00000179E+01
  0
ARC
  8
0
 62
7
 10
6.38327224E+01
 20
-2.10757718E+02
 40
2.00000000E+00
 50
9.00000592E+01
 51
2.10510059E+02
  0
ARC
  8
0
 62
7
 10
6.38904616E+01
 20
-2.10857724E+02
 40
1.50000000E+00
 50
9.00000592E+01
 51
2.09492416E+02
  0
ARC
  8
0
 62
7
 10
6.08763015E+01
 20
-2.28557706E+02
 40
1.00000000E+00
 50
2.69999982E+02
 51
3.51786935E+02
  0
ARC
  8
0
 62
7
 10
9.45326736E+01
 20
-2.19657712E+02
 40
2.00000000E+00
 50
6.32929356E-05
 51
1.20510063E+02
  0
ARC
  8
0
 62
7
 10
8.55749709E+01
 20
-2.10857693E+02
 40
1.50000000E+00
 50
3.30507634E+02
 51
9.00000179E+01
  0
ARC
  8
0
 62
7
 10
8.56327102E+01
 20
-2.10757718E+02
 40
2.00000000E+00
 50
3.29489991E+02
 51
9.00000179E+01
  0
LINE
  8
0
  6
CENTER
 62
2
 10
7.77326858E+01
 20
-2.06227658E+02
 11
7.77326858E+01
 21
-2.15974682E+02
  0
LINE
  8
0
  6
CENTER
 62
2
 10
9.82883498E+01
 20
-2.14057706E+02
 11
8.46006667E+01
 21
-2.14057706E+02
  0
LINE
  8
0
  6
CENTER
 62
2
 10
9.12326858E+01
 20
-2.06844266E+02
 11
9.12326858E+01
 21
-2.20666485E+02
  0
LINE
  8
0
  6
CENTER
 62
2
 10
7.47326858E+01
 20
-2.06227658E+02
 11
7.47326858E+01
 21
-2.30557706E+02
  0
LINE
  8
0
 62
7
 10
6.12326858E+01
 20
-2.15789700E+02
 11
6.12326858E+01
 21
-2.12325619E+02
  0
LINE
  8
0
 62
7
 10
8.82328137E+01
 20
-2.12325610E+02
 11
9.12328695E+01
 21
-2.10593515E+02
  0
LINE
  8
0
 62
7
 10
9.12326599E+01
 20
-2.10593775E+02
 11
9.42326100E+01
 21
-2.12325809E+02
  0
LINE
  8
0
 62
7
 10
9.42326858E+01
 20
-2.15789700E+02
 11
9.42326858E+01
 21
-2.12325619E+02
  0
LINE
  8
0
 62
7
 10
9.12328222E+01
 20
-2.17521740E+02
 11
9.42328251E+01
 21
-2.15789675E+02
  0
LINE
  8
0
 62
7
 10
8.82326367E+01
 20
-2.15789808E+02
 11
9.12326133E+01
 21
-2.17521858E+02
  0
LINE
  8
0
 62
7
 10
8.82326858E+01
 20
-2.12325619E+02
 11
8.82326858E+01
 21
-2.15789700E+02
  0
LINE
  8
0
 62
7
 10
9.59326980E+01
 20
-2.30557706E+02
 11
9.59326980E+01
 21
-2.19715451E+02
  0
LINE
  8
0
 62
7
 10
9.39326674E+01
 20
-2.30557706E+02
 11
9.39326369E+01
 21
-2.26552731E+02
  0
LINE
  8
0
 62
7
 10
7.57326858E+01
 20
-2.12357693E+02
 11
7.57326858E+01
 21
-2.16701321E+02
  0
LINE
  8
0
 62
7
 10
7.37326858E+01
 20
-2.12357693E+02
 11
7.37326858E+01
 21
-2.16701321E+02
  0
LINE
  8
0
 62
7
 10
8.46839348E+01
 20
-2.19192355E+02
 11
8.38235729E+01
 21
-2.20052717E+02
  0
LINE
  8
0
 62
7
 10
8.60981596E+01
 20
-2.20606579E+02
 11
8.52377977E+01
 21
-2.21466941E+02
  0
LINE
  8
0
 62
7
 10
9.29326980E+01
 20
-2.29557721E+02
 11
8.85890700E+01
 21
-2.29557721E+02
  0
LINE
  8
0
 62
7
 10
7.87376906E+01
 20
-2.11357678E+02
 11
7.07277419E+01
 21
-2.11357739E+02
  0
LINE
  8
0
 62
7
 10
6.33673360E+01
 20
-2.20606430E+02
 11
6.42276983E+01
 21
-2.21466792E+02
  0
LINE
  8
0
 62
7
 10
6.47815493E+01
 20
-2.19192259E+02
 11
6.56419116E+01
 21
-2.20052621E+02
  0
ARC
  8
0
 62
7
 10
7.47326858E+01
 20
-2.30557706E+02
 40
5.00000000E+00
 50
0.00000000E+00
 51
1.80000000E+02
  0
ARC
  8
0
 62
2
 10
7.47326858E+01
 20
-2.30557706E+02
 40
4.30000019E+00
 50
0.00000000E+00
 51
1.80000000E+02
  0
ARC
  8
0
 62
7
 10
7.47326858E+01
 20
-2.30557706E+02
 40
4.00000000E+00
 50
0.00000000E+00
 51
1.80000000E+02
  0
ARC
  8
0
 62
7
 10
7.47326858E+01
 20
-2.30557706E+02
 40
1.30000000E+01
 50
0.00000000E+00
 51
1.80000000E+02
  0
CIRCLE
  8
0
 62
2
 10
9.12326858E+01
 20
-2.14057706E+02
 40
3.00000000E+00
  0
ARC
  8
0
 62
7
 10
9.12326858E+01
 20
-2.14057706E+02
 40
7.50000000E+00
 50
1.96983388E+02
 51
2.53016621E+02
  0
ARC
  8
0
 62
7
 10
9.12326858E+01
 20
-2.14057706E+02
 40
5.00000000E+00
 50
1.50507735E+02
 51
2.99492138E+02
  0
ARC
  8
0
 62
7
 10
7.27326858E+01
 20
-2.12357693E+02
 40
1.00000000E+00
 50
6.32929356E-05
 51
9.00000179E+01
  0
ARC
  8
0
 62
7
 10
7.67326858E+01
 20
-2.12357693E+02
 40
1.00000000E+00
 50
9.00000042E+01
 51
1.79999987E+02
  0
ARC
  8
0
 62
7
 10
7.27326858E+01
 20
-2.16701321E+02
 40
1.00000000E+00
 50
2.78213110E+02
 51
3.59721787E-05
  0
ARC
  8
0
 62
7
 10
7.67326858E+01
 20
-2.16701321E+02
 40
1.00000000E+00
 50
1.79999987E+02
 51
2.61786939E+02
  0
CIRCLE
  8
0
 62
7
 10
9.12326858E+01
 20
-2.14057706E+02
 40
4.50000000E+00
  0
ARC
  8
0
 62
7
 10
8.27326858E+01
 20
-2.12557706E+02
 40
3.00000000E+00
 50
1.77133561E+02
 51
2.75317366E+02
  0
ARC
  8
0
 62
7
 10
8.31034133E+01
 20
-2.16540494E+02
 40
1.00000000E+00
 50
1.69827550E+01
 51
9.53179211E+01
  0
ARC
  8
0
 62
7
 10
7.87376906E+01
 20
-2.12357693E+02
 40
1.00000000E+00
 50
3.57133897E+02
 51
9.00000179E+01
  0
ARC
  8
0
 62
7
 10
9.44326980E+01
 20
-2.19715451E+02
 40
1.50000000E+00
 50
6.32929356E-05
 51
1.19492419E+02
  0
ARC
  8
0
 62
7
 10
7.47326858E+01
 20
-2.30557706E+02
 40
1.20000000E+01
 50
0.00000000E+00
 51
1.80000000E+02
  0
ARC
  8
0
 62
7
 10
7.47326858E+01
 20
-2.30557706E+02
 40
1.22500000E+01
 50
0.00000000E+00
 51
1.80000000E+02
  0
ARC
  8
0
 62
7
 10
8.87498977E+01
 20
-2.22186978E+02
 40
1.00000000E+00
 50
3.54682037E+02
 51
7.30171759E+01
  0
ARC
  8
0
 62
7
 10
9.27326858E+01
 20
-2.22557706E+02
 40
3.00000000E+00
 50
1.74682561E+02
 51
2.72866366E+02
  0
ARC
  8
0
 62
7
 10
9.29326980E+01
 20
-2.26552731E+02
 40
1.00000000E+00
 50
3.59999954E+02
 51
9.28660749E+01
  0
ARC
  8
0
 62
7
 10
8.39768264E+01
 20
-2.18485135E+02
 40
1.00000000E+00
 50
3.15000660E+02
 51
3.13907521E+01
  0
ARC
  8
0
 62
7
 10
8.31164748E+01
 20
-2.19345517E+02
 40
1.00000000E+00
 50
2.33212966E+02
 51
3.15000014E+02
  0
ARC
  8
0
 62
7
 10
8.68052566E+01
 20
-2.21313565E+02
 40
1.00000000E+00
 50
5.86092062E+01
 51
1.34999381E+02
  0
ARC
  8
0
 62
7
 10
8.59448440E+01
 20
-2.22173947E+02
 40
1.00000000E+00
 50
1.34999367E+02
 51
2.16786320E+02
  0
ARC
  8
0
 62
7
 10
9.29326980E+01
 20
-2.28557706E+02
 40
1.00000000E+00
 50
2.70000054E+02
 51
2.23118003E-05
  0
ARC
  8
0
 62
7
 10
8.85890700E+01
 20
-2.28557706E+02
 40
1.00000000E+00
 50
1.88213091E+02
 51
2.70000023E+02
  0
ARC
  8
0
 62
7
 10
7.07277419E+01
 20
-2.12357693E+02
 40
1.00000000E+00
 50
8.99999498E+01
 51
1.82866070E+02
  0
ARC
  8
0
 62
7
 10
6.26601150E+01
 20
-2.21313595E+02
 40
1.00000000E+00
 50
4.50006554E+01
 51
1.21390748E+02
  0
ARC
  8
0
 62
7
 10
6.35205276E+01
 20
-2.22173947E+02
 40
1.00000000E+00
 50
3.23212992E+02
 51
4.50000270E+01
  0
ARC
  8
0
 62
7
 10
6.63489577E+01
 20
-2.19345547E+02
 40
1.00000000E+00
 50
2.24999362E+02
 51
3.06786315E+02
  0
ARC
  8
0
 62
7
 10
6.54885451E+01
 20
-2.18485165E+02
 40
1.00000000E+00
 50
1.48609202E+02
 51
2.24999376E+02
  0
ARC
  8
0
 62
7
 10
6.63619582E+01
 20
-2.16540494E+02
 40
1.00000000E+00
 50
8.46820328E+01
 51
1.63017172E+02
  0
ARC
  8
0
 62
7
 10
6.67326858E+01
 20
-2.12557706E+02
 40
3.00000000E+00
 50
2.64682560E+02
 51
2.86637950E+00
  0
ARC
  8
0
 62
4
 10
7.47326858E+01
 20
-2.30557706E+02
 40
8.50000000E+00
 50
0.00000000E+00
 51
1.80000000E+02
  0
LINE
  8
0
 62
4
 10
7.47326858E+01
 20
-2.20742751E+02
 11
8.32326858E+01
 21
-2.25650228E+02
  0
LINE
  8
0
 62
4
 10
8.32326858E+01
 20
-2.25650228E+02
 11
8.32326858E+01
 21
-2.30557706E+02
  0
LINE
  8
0
 62
4
 10
6.62326858E+01
 20
-2.30557706E+02
 11
6.62326858E+01
 21
-2.25650228E+02
  0
LINE
  8
0
 62
4
 10
6.62326858E+01
 20
-2.25650228E+02
 11
7.47326858E+01
 21
-2.20742751E+02
  0
LINE
  8
0
 62
7
 10
9.67326858E+01
 20
-2.30557706E+02
 11
9.67326858E+01
 21
-2.11557675E+02
  0
LINE
  8
0
 62
7
 10
9.65326736E+01
 20
-2.11557736E+02
 11
9.65326736E+01
 21
-2.19657712E+02
  0
LINE
  8
0
 62
7
 10
8.47326858E+01
 20
-2.08557675E+02
 11
8.47326858E+01
 21
-2.09357709E+02
  0
LINE
  8
0
 62
7
 10
8.55749709E+01
 20
-2.09357709E+02
 11
6.38904616E+01
 21
-2.09357709E+02
  0
LINE
  8
0
 62
7
 10
9.37326858E+01
 20
-2.08757733E+02
 11
8.47326858E+01
 21
-2.08757733E+02
  0
LINE
  8
0
 62
7
 10
9.17326858E+01
 20
-2.08557675E+02
 11
9.17326858E+01
 21
-2.08757733E+02
  0
LINE
  8
0
 62
7
 10
6.47326858E+01
 20
-2.08557675E+02
 11
6.47326858E+01
 21
-2.09357709E+02
  0
LINE
  8
0
 62
2
 10
-1.54072853E+01
 20
-2.37061745E+02
 11
1.95652753E+00
 21
-2.06986739E+02
  0
TEXT
  8
0
 10
-5.24502888E+01
 20
2.49478397E+02
 40
6.30000019E+00
  1
STRETCH LINE A
 41
1.09375016E+00
  7
MONOTXT
  0
LINE
  8
0
 62
7
 10
2.79799927E+02
 20
-2.56750000E+02
 11
3.99799805E+02
 21
-2.56750000E+02
  0
LINE
  8
0
 62
7
 10
2.79799927E+02
 20
-2.56750000E+02
 11
2.79799927E+02
 21
-2.76750000E+02
  0
TEXT
  8
0
 62
7
 10
2.87585240E+02
 20
-2.71250000E+02
 40
9.00000000E+00
  1
KOGANEI CORP.
 41
1.04838710E+00
  7
MONOTXT
  0
TEXT
  8
0
 62
7
 10
3.15499641E+02
 20
2.63100000E+02
 40
6.30000019E+00
  1
Ver. 1.0
 41
1.08108124E+00
  7
MONOTXT
  0
LINE
  8
0
 62
7
 10
2.79799927E+02
 20
2.56250000E+02
 11
3.99799805E+02
 21
2.56250000E+02
  0
LINE
  8
0
 62
7
 10
2.79799927E+02
 20
2.76250000E+02
 11
2.79799927E+02
 21
2.56250000E+02
  0
TEXT
  8
0
 62
7
 10
-3.85600562E+02
 20
2.38100000E+02
 40
6.30000019E+00
  1
MODEL:DDAD32*75
 41
1.00000015E+00
  7
MONOTXT
  0
LINE
  8
0
 62
7
 10
-3.99250000E+02
 20
2.56250000E+02
 11
-2.79250000E+02
 21
2.56250000E+02
  0
LINE
  8
0
 62
7
 10
-2.79250000E+02
 20
2.76250000E+02
 11
-2.79250000E+02
 21
2.56250000E+02
  0
TEXT
  8
0
 62
7
 10
-3.91900291E+02
 20
2.63100000E+02
 40
6.30000019E+00
  1
NEW DYNA CYLINDER
 41
1.07594953E+00
  7
MONOTXT
  0
LINE
  8
0
 62
7
 10
-3.99250000E+02
 20
-2.76750000E+02
 11
3.99799805E+02
 21
-2.76750000E+02
  0
LINE
  8
0
 62
7
 10
-3.99250000E+02
 20
2.76250000E+02
 11
3.99799805E+02
 21
2.76250000E+02
  0
LINE
  8
0
 62
7
 10
-3.99250000E+02
 20
2.76250000E+02
 11
-3.99250000E+02
 21
-2.76750000E+02
  0
LINE
  8
0
 62
7
 10
3.99799805E+02
 20
2.76250000E+02
 11
3.99799805E+02
 21
-2.76750000E+02
  0
ENDSEC
  0
EOF
