  0
SECTION
  2
HEADER
  9
$ACADVER
  1
AC1003
  9
$EXTMIN
 10
-3.99250000E+02
 20
-2.76750000E+02
  9
$EXTMAX
 10
3.99799805E+02
 20
2.76250000E+02
  9
$LIMMIN
 10
-3.99251000E+02
 20
-2.76751000E+02
  9
$LIMMAX
 10
3.99800805E+02
 20
2.76251000E+02
  9
$SNAPUNIT
 10
1
 20
1
  9
$SNAPBASE
 10
0
 20
0
  9
$GRIDMODE
 70
0
  9
$GRIDUNIT
 10
0
 20
0
  9
$LTSCALE
 40
1.33174967E+01
  9
$TEXTSIZE
 40
3.2
  9
$DIMTAD
 70
0
  9
$LUNITS
 70
2
  9
$LUPREC
 70
4
  9
$FILLETRAD
 40
0
  9
$AUNITS
 70
0
  9
$AUPREC
 70
0
  0
ENDSEC
  0
SECTION
  2
TABLES
  0
TABLE
  2
LTYPE
 70
2
  0
LTYPE
  2
CONTINUOUS
 70
64
  3
Solid-Line
 72
65
 73
0
 40
0
  0
LTYPE
  2
DASHED
 70
64
  3
DASHED
 72
65
 73
2
 40
.75
 49
.5
 49
-.25
  0
LTYPE
  2
HIDDEN
 70
64
  3
HIDDEN
 72
65
 73
2
 40
.375
 49
.25
 49
-.125
  0
LTYPE
  2
CENTER
 70
64
  3
CENTER
 72
65
 73
4
 40
2
 49
1.25
 49
-.25
 49
.25
 49
-.25
  0
LTYPE
  2
PHANTOM
 70
64
  3
PHANTOM
 72
65
 73
6
 40
2.5
 49
1.25
 49
-.25
 49
.25
 49
-.25
 49
.25
 49
-.25
  0
ENDTAB
  0
TABLE
  2
LAYER
 70
1
  0
LAYER
  2
1
 70
0
 62
7
  6
CONTINUOUS
 0
ENDTAB
  0
TABLE
  2
STYLE
 70
2
  0
STYLE
  2
MONOTXT
 70
0
 40
0
 41
1
 50
0
 71
0
 42
.2
  3
monotxt
  0
STYLE
  2
BIGFONT
 70
0
 40
0
 41
1
 50
0
 71
0
 42
.2
  3
txt
  4
bigfont
  0
ENDTAB
  0
ENDSEC
  0
SECTION
  2
ENTITIES
  0
LINE
  8
0
  6
PHANTOM
 10
1.14749977E+02
 20
1.39735759E+02
 11
1.14749977E+02
 21
4.21367846E+01
  0
LINE
  8
0
  6
PHANTOM
 10
-9.25000000E+00
 20
1.39735759E+02
 11
-9.25000000E+00
 21
4.21367846E+01
  0
LINE
  8
0
  6
CENTER
 62
2
 10
7.49770203E+01
 20
6.48694647E+01
 11
-9.73534241E+01
 21
6.48694647E+01
  0
LINE
  8
0
 62
7
 10
4.17500000E+01
 20
6.75194586E+01
 11
-6.42500000E+01
 21
6.75194586E+01
  0
LINE
  8
0
 62
7
 10
4.17499847E+01
 20
6.22194708E+01
 11
-6.42499695E+01
 21
6.22194708E+01
  0
LINE
  8
0
 62
7
 10
4.17500000E+01
 20
6.13694799E+01
 11
-6.42500000E+01
 21
6.13694799E+01
  0
LINE
  8
0
  6
CENTER
 62
2
 10
-1.47487213E+02
 20
8.33694647E+01
 11
1.74137072E+02
 21
8.33694647E+01
  0
LINE
  8
0
 62
7
 10
-1.10250000E+02
 20
6.88694647E+01
 11
-1.10250000E+02
 21
9.78694647E+01
  0
LINE
  8
0
 62
7
 10
-1.09750031E+02
 20
6.83694342E+01
 11
-1.05241058E+02
 21
6.83694342E+01
  0
LINE
  8
0
 62
7
 10
7.42500000E+01
 20
6.73694647E+01
 11
7.27500000E+01
 21
6.73694647E+01
  0
LINE
  8
0
 62
7
 10
4.17500000E+01
 20
1.08369465E+02
 11
4.17500000E+01
 21
5.83694647E+01
  0
LINE
  8
0
 62
7
 10
7.27500000E+01
 20
1.07583896E+02
 11
7.27500000E+01
 21
5.91550329E+01
  0
LINE
  8
0
 62
7
 10
6.77500000E+01
 20
5.83694647E+01
 11
4.17500000E+01
 21
5.83694647E+01
  0
LINE
  8
0
 62
7
 10
7.27500316E+01
 20
5.91550219E+01
 11
4.17499997E+01
 21
5.83432575E+01
  0
LINE
  8
0
 62
7
 10
-1.05008701E+02
 20
6.81110007E+01
 11
-9.72491175E+01
 21
6.78400301E+01
  0
LINE
  8
0
 62
7
 10
6.77500000E+01
 20
5.90240667E+01
 11
6.77500000E+01
 21
5.83694647E+01
  0
LINE
  8
0
  6
CENTER
 62
2
 10
5.47500000E+01
 20
1.10121830E+02
 11
5.47500000E+01
 21
9.89412268E+01
  0
LINE
  8
0
 62
7
 10
-9.72500000E+01
 20
9.88694647E+01
 11
-9.72500000E+01
 21
6.78400457E+01
  0
LINE
  8
0
 62
7
 10
-1.05250000E+02
 20
6.83694342E+01
 11
-1.05250000E+02
 21
9.83780706E+01
  0
LINE
  8
0
 62
7
 10
-9.67500000E+01
 20
6.73694647E+01
 11
-9.52500000E+01
 21
6.73694647E+01
  0
LINE
  8
0
 62
7
 10
-6.42500000E+01
 20
1.08369465E+02
 11
-6.42500000E+01
 21
5.83432653E+01
  0
LINE
  8
0
 62
7
 10
-9.52500000E+01
 20
1.07583896E+02
 11
-9.52500000E+01
 21
5.91550329E+01
  0
LINE
  8
0
 62
7
 10
-9.02500000E+01
 20
5.83694647E+01
 11
-6.42500000E+01
 21
5.83694647E+01
  0
LINE
  8
0
 62
7
 10
-9.52500745E+01
 20
5.91550268E+01
 11
-6.42500502E+01
 21
5.83432627E+01
  0
LINE
  8
0
 62
7
 10
-9.02500000E+01
 20
5.90240667E+01
 11
-9.02500000E+01
 21
5.83694647E+01
  0
LINE
  8
0
 62
7
 10
7.47500000E+01
 20
9.88694647E+01
 11
7.47500000E+01
 21
6.78400457E+01
  0
LINE
  8
0
 62
7
 10
-1.17250000E+02
 20
7.94964788E+01
 11
-1.17250000E+02
 21
7.53694494E+01
  0
LINE
  8
0
 62
7
 10
-1.20250000E+02
 20
7.63694342E+01
 11
-1.20250000E+02
 21
9.03694494E+01
  0
LINE
  8
0
 62
7
 10
-1.17250000E+02
 20
7.53694494E+01
 11
-1.10250015E+02
 21
7.53694494E+01
  0
LINE
  8
0
 62
7
 10
-1.17250000E+02
 20
8.72424505E+01
 11
-1.17250000E+02
 21
9.13694342E+01
  0
LINE
  8
0
 62
7
 10
-1.13250000E+02
 20
7.94964788E+01
 11
-1.13250000E+02
 21
8.72424505E+01
  0
LINE
  8
0
 62
7
 10
-1.44249969E+02
 20
7.78694189E+01
 11
-1.44249969E+02
 21
8.88694494E+01
  0
LINE
  8
0
 62
7
 10
-1.42749969E+02
 20
9.03694494E+01
 11
-1.37750000E+02
 21
9.03694494E+01
  0
LINE
  8
0
 62
7
 10
-1.42749969E+02
 20
7.63694342E+01
 11
-1.37750000E+02
 21
7.63694342E+01
  0
LINE
  8
0
 62
2
 10
-1.43569916E+02
 20
8.95494573E+01
 11
-1.37750000E+02
 21
8.95494573E+01
  0
LINE
  8
0
 62
2
 10
-1.43569916E+02
 20
7.71894262E+01
 11
-1.37750000E+02
 21
7.71894262E+01
  0
LINE
  8
0
 62
7
 10
-1.42749969E+02
 20
9.03694494E+01
 11
-1.42749969E+02
 21
7.63694342E+01
  0
LINE
  8
0
 62
7
 10
-1.23250000E+02
 20
9.03694494E+01
 11
-1.23250000E+02
 21
7.63694342E+01
  0
LINE
  8
0
 62
7
 10
-1.44249881E+02
 20
8.88693605E+01
 11
-1.42749935E+02
 21
9.03693526E+01
  0
LINE
  8
0
 62
7
 10
-1.44249981E+02
 20
7.78694285E+01
 11
-1.42749969E+02
 21
7.63694162E+01
  0
LINE
  8
0
 62
7
 10
-1.17249985E+02
 20
8.72424505E+01
 11
-1.13250000E+02
 21
8.72424505E+01
  0
LINE
  8
0
 62
7
 10
-1.17249985E+02
 20
7.94964788E+01
 11
-1.13250000E+02
 21
7.94964788E+01
  0
LINE
  8
0
 62
2
 10
-1.18634602E+02
 20
8.12840051E+01
 11
-1.13249982E+02
 21
8.72424488E+01
  0
LINE
  8
0
 62
2
 10
-1.18634604E+02
 20
8.54549287E+01
 11
-1.13249990E+02
 21
7.94964907E+01
  0
LINE
  8
0
  6
CENTER
 62
2
 10
7.49770203E+01
 20
1.01869465E+02
 11
-9.73534241E+01
 21
1.01869465E+02
  0
LINE
  8
0
 62
7
 10
4.17500000E+01
 20
9.92194708E+01
 11
2.02500000E+01
 21
9.92194708E+01
  0
LINE
  8
0
 62
7
 10
4.17499847E+01
 20
1.04519459E+02
 11
3.52500000E+01
 21
1.04519459E+02
  0
LINE
  8
0
 62
7
 10
4.17500000E+01
 20
1.05369449E+02
 11
3.52500000E+01
 21
1.05369449E+02
  0
LINE
  8
0
 62
7
 10
-1.09750031E+02
 20
9.83694952E+01
 11
-1.05241058E+02
 21
9.83694952E+01
  0
LINE
  8
0
 62
7
 10
7.42500000E+01
 20
9.93694647E+01
 11
7.27500000E+01
 21
9.93694647E+01
  0
LINE
  8
0
 62
7
 10
6.77500000E+01
 20
1.08369465E+02
 11
4.17500000E+01
 21
1.08369465E+02
  0
LINE
  8
0
 62
7
 10
7.27500217E+01
 20
1.07583895E+02
 11
4.17499897E+01
 21
1.08395660E+02
  0
LINE
  8
0
 62
7
 10
-1.05008727E+02
 20
9.86279475E+01
 11
-9.72491442E+01
 21
9.88989181E+01
  0
LINE
  8
0
 62
7
 10
6.77500000E+01
 20
1.07714863E+02
 11
6.77500000E+01
 21
1.08369465E+02
  0
LINE
  8
0
 62
7
 10
-1.17250000E+02
 20
9.13694799E+01
 11
-1.10250015E+02
 21
9.13694799E+01
  0
LINE
  8
0
 62
7
 10
-9.67500000E+01
 20
9.93694647E+01
 11
-9.52500000E+01
 21
9.93694647E+01
  0
LINE
  8
0
 62
7
 10
-9.02500000E+01
 20
1.08369465E+02
 11
-6.42500000E+01
 21
1.08369465E+02
  0
LINE
  8
0
 62
7
 10
-9.52500645E+01
 20
1.07583890E+02
 11
-6.42500402E+01
 21
1.08395654E+02
  0
LINE
  8
0
 62
7
 10
-9.02500000E+01
 20
1.07714863E+02
 11
-9.02500000E+01
 21
1.08369465E+02
  0
LINE
  8
0
  6
CENTER
 62
2
 10
-7.72500000E+01
 20
1.10121830E+02
 11
-7.72500000E+01
 21
9.89412268E+01
  0
LINE
  8
0
 62
7
 10
-1.20250000E+02
 20
8.33694663E+01
 11
-1.17250000E+02
 21
8.72424534E+01
  0
LINE
  8
0
 62
7
 10
-1.17250001E+02
 20
9.13694843E+01
 11
-1.20250006E+02
 21
9.03694521E+01
  0
LINE
  8
0
 62
7
 10
-1.20249985E+02
 20
8.33694494E+01
 11
-1.17249991E+02
 21
7.94964714E+01
  0
LINE
  8
0
 62
7
 10
-1.20249975E+02
 20
7.63694281E+01
 11
-1.17249986E+02
 21
7.53694467E+01
  0
LINE
  8
0
 62
7
 10
-1.23250000E+02
 20
8.95494573E+01
 11
-1.20250000E+02
 21
8.95494573E+01
  0
LINE
  8
0
 62
7
 10
-1.23250000E+02
 20
7.71894262E+01
 11
-1.20250000E+02
 21
7.71894262E+01
  0
LINE
  8
0
 62
7
 10
8.72500305E+01
 20
9.83694952E+01
 11
8.27410583E+01
 21
9.83694952E+01
  0
LINE
  8
0
 62
7
 10
1.50750000E+02
 20
8.95494573E+01
 11
1.47750000E+02
 21
8.95494573E+01
  0
LINE
  8
0
 62
7
 10
1.50750000E+02
 20
7.71894262E+01
 11
1.47750000E+02
 21
7.71894262E+01
  0
LINE
  8
0
 62
7
 10
8.77500000E+01
 20
6.88694647E+01
 11
8.77500000E+01
 21
9.78694647E+01
  0
LINE
  8
0
 62
7
 10
8.72500305E+01
 20
6.83694342E+01
 11
8.27410583E+01
 21
6.83694342E+01
  0
LINE
  8
0
 62
7
 10
8.25086958E+01
 20
6.81109975E+01
 11
7.47491128E+01
 21
6.78400269E+01
  0
LINE
  8
0
 62
7
 10
8.27500000E+01
 20
6.83694342E+01
 11
8.27500000E+01
 21
9.83780706E+01
  0
LINE
  8
0
 62
7
 10
1.44749985E+02
 20
8.72424505E+01
 11
1.40750000E+02
 21
8.72424505E+01
  0
LINE
  8
0
 62
7
 10
1.44750000E+02
 20
9.13694799E+01
 11
8.77500153E+01
 21
9.13694799E+01
  0
LINE
  8
0
 62
2
 10
1.46134611E+02
 20
8.12840045E+01
 11
1.40749992E+02
 21
8.72424482E+01
  0
LINE
  8
0
 62
2
 10
1.46134613E+02
 20
8.54549293E+01
 11
1.40749999E+02
 21
7.94964913E+01
  0
LINE
  8
0
 62
7
 10
1.44750000E+02
 20
7.94964788E+01
 11
1.44750000E+02
 21
7.53694494E+01
  0
LINE
  8
0
 62
7
 10
8.25087225E+01
 20
9.86279508E+01
 11
7.47491395E+01
 21
9.88989214E+01
  0
LINE
  8
0
 62
7
 10
1.40750000E+02
 20
7.94964788E+01
 11
1.40750000E+02
 21
8.72424505E+01
  0
LINE
  8
0
 62
7
 10
1.44750000E+02
 20
8.72424505E+01
 11
1.44750000E+02
 21
9.13694342E+01
  0
LINE
  8
0
 62
7
 10
1.44750000E+02
 20
7.53694494E+01
 11
8.77500153E+01
 21
7.53694494E+01
  0
LINE
  8
0
 62
7
 10
1.47750000E+02
 20
7.63694342E+01
 11
1.47750000E+02
 21
9.03694494E+01
  0
LINE
  8
0
 62
7
 10
1.71749969E+02
 20
7.78694189E+01
 11
1.71749969E+02
 21
8.88694494E+01
  0
LINE
  8
0
 62
7
 10
1.70249969E+02
 20
9.03694494E+01
 11
1.65250000E+02
 21
9.03694494E+01
  0
LINE
  8
0
 62
7
 10
1.70249969E+02
 20
7.63694342E+01
 11
1.65250000E+02
 21
7.63694342E+01
  0
LINE
  8
0
 62
2
 10
1.71069916E+02
 20
8.95494573E+01
 11
1.65250000E+02
 21
8.95494573E+01
  0
LINE
  8
0
 62
2
 10
1.71069916E+02
 20
7.71894262E+01
 11
1.65250000E+02
 21
7.71894262E+01
  0
LINE
  8
0
 62
7
 10
1.70249969E+02
 20
9.03694494E+01
 11
1.70249969E+02
 21
7.63694342E+01
  0
LINE
  8
0
 62
7
 10
1.50750000E+02
 20
9.03694494E+01
 11
1.50750000E+02
 21
7.63694342E+01
  0
LINE
  8
0
 62
7
 10
1.71749887E+02
 20
8.88693582E+01
 11
1.70249941E+02
 21
9.03693503E+01
  0
LINE
  8
0
 62
7
 10
1.71749982E+02
 20
7.78694285E+01
 11
1.70249970E+02
 21
7.63694162E+01
  0
LINE
  8
0
 62
7
 10
1.44749985E+02
 20
7.94964788E+01
 11
1.40750000E+02
 21
7.94964788E+01
  0
LINE
  8
0
 62
7
 10
1.47750002E+02
 20
8.33694663E+01
 11
1.44750003E+02
 21
8.72424504E+01
  0
LINE
  8
0
 62
7
 10
1.44749998E+02
 20
9.13694819E+01
 11
1.47750003E+02
 21
9.03694497E+01
  0
LINE
  8
0
 62
7
 10
1.47749989E+02
 20
8.33694524E+01
 11
1.44749995E+02
 21
7.94964744E+01
  0
LINE
  8
0
 62
7
 10
1.47749970E+02
 20
7.63694314E+01
 11
1.44749980E+02
 21
7.53694500E+01
  0
ARC
  8
0
 62
7
 10
-1.09750031E+02
 20
6.88694647E+01
 40
5.00000000E-01
 50
1.79999981E+02
 51
2.69999963E+02
  0
ARC
  8
0
 62
7
 10
-9.67500000E+01
 20
6.78694647E+01
 40
5.00000000E-01
 50
1.79999981E+02
 51
2.69999963E+02
  0
ARC
  8
0
 62
7
 10
-1.05000000E+02
 20
6.83608587E+01
 40
2.50000000E-01
 50
1.79999981E+02
 51
2.67999203E+02
  0
ARC
  8
0
 62
7
 10
7.42500000E+01
 20
6.78694647E+01
 40
5.00000000E-01
 50
2.70000073E+02
 51
5.46415133E-05
  0
ARC
  8
0
 62
7
 10
7.42500000E+01
 20
9.88694647E+01
 40
5.00000000E-01
 50
5.46415133E-05
 51
9.00000369E+01
  0
ARC
  8
0
 62
7
 10
-1.20250000E+02
 20
8.33694647E+01
 40
8.00000000E+00
 50
3.31044960E+02
 51
2.89550399E+01
  0
ARC
  8
0
 62
7
 10
-1.05000000E+02
 20
9.83780706E+01
 40
2.50000000E-01
 50
9.20007356E+01
 51
1.79999964E+02
  0
ARC
  8
0
 62
7
 10
-9.67500000E+01
 20
9.88694647E+01
 40
5.00000000E-01
 50
8.99999818E+01
 51
1.79999964E+02
  0
ARC
  8
0
 62
7
 10
-1.09750031E+02
 20
9.78694647E+01
 40
5.00000000E-01
 50
8.99999818E+01
 51
1.79999964E+02
  0
ARC
  8
0
 62
7
 10
8.25000000E+01
 20
9.83780706E+01
 40
2.50000000E-01
 50
3.59721781E-05
 51
8.79992625E+01
  0
ARC
  8
0
 62
7
 10
8.72500305E+01
 20
6.88694647E+01
 40
5.00000000E-01
 50
2.70000038E+02
 51
1.86693353E-05
  0
ARC
  8
0
 62
7
 10
8.25000000E+01
 20
6.83608587E+01
 40
2.50000000E-01
 50
2.72000799E+02
 51
1.86693353E-05
  0
ARC
  8
0
 62
7
 10
8.72500305E+01
 20
9.78694647E+01
 40
5.00000000E-01
 50
3.59721781E-05
 51
9.00000162E+01
  0
ARC
  8
0
 62
7
 10
1.47750000E+02
 20
8.33694647E+01
 40
8.00000000E+00
 50
1.51044962E+02
 51
2.08955034E+02
  0
LINE
  8
0
 62
4
 10
1.58232480E+02
 20
9.60711706E+01
 11
1.64267520E+02
 21
9.60711706E+01
  0
LINE
  8
0
 62
4
 10
1.58232480E+02
 20
8.97203176E+01
 11
1.64267520E+02
 21
8.97203176E+01
  0
LINE
  8
0
 62
4
 10
1.58232480E+02
 20
7.70186117E+01
 11
1.64267520E+02
 21
7.70186117E+01
  0
LINE
  8
0
 62
4
 10
1.57250000E+02
 20
7.23694647E+01
 11
1.57250000E+02
 21
9.43694647E+01
  0
LINE
  8
0
 62
4
 10
1.65250000E+02
 20
7.23694647E+01
 11
1.65250000E+02
 21
9.43694647E+01
  0
LINE
  8
0
 62
4
 10
1.57250000E+02
 20
9.43694646E+01
 11
1.58232480E+02
 21
9.60711705E+01
  0
LINE
  8
0
 62
4
 10
1.65250000E+02
 20
9.43694647E+01
 11
1.64267520E+02
 21
9.60711707E+01
  0
LINE
  8
0
 62
4
 10
1.57250000E+02
 20
7.23694647E+01
 11
1.58232480E+02
 21
7.06677588E+01
  0
LINE
  8
0
 62
4
 10
1.65250000E+02
 20
7.23694647E+01
 11
1.64267520E+02
 21
7.06677586E+01
  0
LINE
  8
0
 62
4
 10
1.58232480E+02
 20
7.06677587E+01
 11
1.64267520E+02
 21
7.06677587E+01
  0
ARC
  8
0
 62
4
 10
1.62872810E+02
 20
9.28957441E+01
 40
5.62281003E+00
 50
1.45615752E+02
 51
2.14384247E+02
  0
ARC
  8
0
 62
4
 10
1.78267520E+02
 20
8.33694646E+01
 40
2.10175199E+01
 50
1.62412046E+02
 51
1.97587953E+02
  0
ARC
  8
0
 62
4
 10
1.62872810E+02
 20
7.38431852E+01
 40
5.62281017E+00
 50
1.45615753E+02
 51
2.14384247E+02
  0
ARC
  8
0
 62
4
 10
1.59627190E+02
 20
9.28957441E+01
 40
5.62281003E+00
 50
3.25615753E+02
 51
3.43842476E+01
  0
ARC
  8
0
 62
4
 10
1.44232480E+02
 20
8.33694646E+01
 40
2.10175199E+01
 50
3.42412047E+02
 51
1.75879537E+01
  0
ARC
  8
0
 62
4
 10
1.59627190E+02
 20
7.38431852E+01
 40
5.62281017E+00
 50
3.25615753E+02
 51
3.43842467E+01
  0
LINE
  8
0
 62
4
 10
-1.36767520E+02
 20
9.60711706E+01
 11
-1.30732480E+02
 21
9.60711706E+01
  0
LINE
  8
0
 62
4
 10
-1.36767520E+02
 20
8.97203176E+01
 11
-1.30732480E+02
 21
8.97203176E+01
  0
LINE
  8
0
 62
4
 10
-1.36767520E+02
 20
7.70186117E+01
 11
-1.30732480E+02
 21
7.70186117E+01
  0
LINE
  8
0
 62
4
 10
-1.37750000E+02
 20
7.23694647E+01
 11
-1.37750000E+02
 21
9.43694647E+01
  0
LINE
  8
0
 62
4
 10
-1.29750000E+02
 20
7.23694647E+01
 11
-1.29750000E+02
 21
9.43694647E+01
  0
LINE
  8
0
 62
4
 10
-1.37750000E+02
 20
9.43694646E+01
 11
-1.36767520E+02
 21
9.60711705E+01
  0
LINE
  8
0
 62
4
 10
-1.29750000E+02
 20
9.43694647E+01
 11
-1.30732480E+02
 21
9.60711707E+01
  0
LINE
  8
0
 62
4
 10
-1.37750000E+02
 20
7.23694647E+01
 11
-1.36767520E+02
 21
7.06677588E+01
  0
LINE
  8
0
 62
4
 10
-1.29750000E+02
 20
7.23694647E+01
 11
-1.30732480E+02
 21
7.06677586E+01
  0
LINE
  8
0
 62
4
 10
-1.36767520E+02
 20
7.06677587E+01
 11
-1.30732480E+02
 21
7.06677587E+01
  0
ARC
  8
0
 62
4
 10
-1.32127190E+02
 20
9.28957441E+01
 40
5.62281003E+00
 50
1.45615752E+02
 51
2.14384247E+02
  0
ARC
  8
0
 62
4
 10
-1.16732480E+02
 20
8.33694646E+01
 40
2.10175199E+01
 50
1.62412046E+02
 51
1.97587953E+02
  0
ARC
  8
0
 62
4
 10
-1.32127190E+02
 20
7.38431852E+01
 40
5.62281017E+00
 50
1.45615753E+02
 51
2.14384247E+02
  0
ARC
  8
0
 62
4
 10
-1.35372810E+02
 20
9.28957441E+01
 40
5.62281003E+00
 50
3.25615753E+02
 51
3.43842476E+01
  0
ARC
  8
0
 62
4
 10
-1.50767520E+02
 20
8.33694646E+01
 40
2.10175199E+01
 50
3.42412047E+02
 51
1.75879537E+01
  0
ARC
  8
0
 62
4
 10
-1.35372810E+02
 20
7.38431852E+01
 40
5.62281017E+00
 50
3.25615753E+02
 51
3.43842467E+01
  0
LINE
  8
0
 62
7
 10
-1.29750000E+02
 20
9.03694494E+01
 11
-1.23250000E+02
 21
9.03694494E+01
  0
LINE
  8
0
 62
2
 10
-1.29750000E+02
 20
8.95494573E+01
 11
-1.23250000E+02
 21
8.95494573E+01
  0
LINE
  8
0
 62
2
 10
-1.29750000E+02
 20
7.71894262E+01
 11
-1.23250000E+02
 21
7.71894262E+01
  0
LINE
  8
0
 62
7
 10
-1.29750000E+02
 20
7.63694342E+01
 11
-1.23250000E+02
 21
7.63694342E+01
  0
LINE
  8
0
 62
7
 10
1.57250000E+02
 20
9.03694494E+01
 11
1.50750000E+02
 21
9.03694494E+01
  0
LINE
  8
0
 62
2
 10
1.57250000E+02
 20
8.95494573E+01
 11
1.50750000E+02
 21
8.95494573E+01
  0
LINE
  8
0
 62
2
 10
1.57250000E+02
 20
7.71894262E+01
 11
1.50750000E+02
 21
7.71894262E+01
  0
LINE
  8
0
 62
7
 10
1.57250000E+02
 20
7.63694342E+01
 11
1.50750000E+02
 21
7.63694342E+01
  0
LINE
  8
0
  6
CENTER
 62
6
 10
4.02500610E+01
 20
1.08859316E+02
 11
-6.74993896E+00
 21
1.08859316E+02
  0
LINE
  8
0
 62
4
 10
-2.37500000E+01
 20
1.10359316E+02
 11
-2.37500000E+01
 21
1.21875902E+02
  0
LINE
  8
0
 62
6
 10
-3.01788813E+00
 20
1.11859316E+02
 11
-6.48198974E+00
 21
1.05859316E+02
  0
LINE
  8
0
 62
6
 10
-1.54820508E+01
 20
1.05859316E+02
 11
-1.20179492E+01
 21
1.11859316E+02
  0
LINE
  8
0
 62
4
 10
5.25006105E+00
 20
1.10359316E+02
 11
-3.88391356E+00
 21
1.10359316E+02
  0
LINE
  8
0
 62
4
 10
5.25006104E+00
 20
1.07359316E+02
 11
-5.61596436E+00
 21
1.07359316E+02
  0
LINE
  8
0
 62
4
 10
-3.02500000E+01
 20
1.07359316E+02
 11
-1.46160254E+01
 21
1.07359316E+02
  0
LINE
  8
0
  6
CENTER
 62
6
 10
-5.87500000E+01
 20
1.08859316E+02
 11
-1.17500000E+01
 21
1.08859316E+02
  0
LINE
  8
0
 62
4
 10
-3.02500000E+01
 20
1.10359316E+02
 11
-1.28839746E+01
 21
1.10359316E+02
  0
LINE
  8
0
 62
4
 10
3.67500000E+01
 20
1.10168371E+02
 11
3.67500000E+01
 21
1.07544468E+02
  0
LINE
  8
0
 62
4
 10
3.67500000E+01
 20
1.07544468E+02
 11
3.52500000E+01
 21
1.06542404E+02
  0
LINE
  8
0
 62
4
 10
3.67500000E+01
 20
1.07937781E+02
 11
3.52500000E+01
 21
1.07236997E+02
  0
LINE
  8
0
 62
4
 10
3.52500000E+01
 20
1.11176228E+02
 11
3.67500000E+01
 21
1.10168371E+02
  0
LINE
  8
0
 62
4
 10
-3.58127552E+01
 20
1.11176228E+02
 11
-3.02500000E+01
 21
1.11176228E+02
  0
LINE
  8
0
 62
4
 10
-3.54128770E+01
 20
1.11633902E+02
 11
-2.37500000E+01
 21
1.11633902E+02
  0
LINE
  8
0
  6
CENTER
 62
6
 10
-2.87500000E+01
 20
1.17444268E+02
 11
-3.37500000E+01
 21
1.17444268E+02
  0
LINE
  8
0
  6
CENTER
 62
6
 10
-3.12500000E+01
 20
1.19944268E+02
 11
-3.12500000E+01
 21
1.14944268E+02
  0
LINE
  8
0
  6
CENTER
 62
6
 10
-3.62500000E+01
 20
1.13997440E+02
 11
-4.12500000E+01
 21
1.13997440E+02
  0
LINE
  8
0
  6
CENTER
 62
6
 10
-3.87500000E+01
 20
1.16497440E+02
 11
-3.87500000E+01
 21
1.11497440E+02
  0
LINE
  8
0
  6
CENTER
 62
6
 10
-4.37500000E+01
 20
1.17444268E+02
 11
-4.87500000E+01
 21
1.17444268E+02
  0
LINE
  8
0
  6
CENTER
 62
6
 10
-4.62500000E+01
 20
1.19944268E+02
 11
-4.62500000E+01
 21
1.14944268E+02
  0
POLYLINE
  8
0
 62
4
 66
1
  0
VERTEX
  8
0
 62
4
 10
-4.29000000E+01
 20
1.14063427E+02
  0
VERTEX
  8
0
 62
4
 10
-4.28832933E+01
 20
1.13697075E+02
  0
VERTEX
  8
0
 62
4
 10
-4.28333078E+01
 20
1.13333674E+02
  0
VERTEX
  8
0
 62
4
 10
-4.27504459E+01
 20
1.12976147E+02
  0
VERTEX
  8
0
 62
4
 10
-4.26353747E+01
 20
1.12627375E+02
  0
VERTEX
  8
0
 62
4
 10
-4.24890208E+01
 20
1.12290165E+02
  0
VERTEX
  8
0
 62
4
 10
-4.23125625E+01
 20
1.11967232E+02
  0
VERTEX
  8
0
 62
4
 10
-4.21074205E+01
 20
1.11661177E+02
  0
VERTEX
  8
0
 62
4
 10
-4.18752466E+01
 20
1.11374463E+02
  0
VERTEX
  8
0
 62
4
 10
-4.16179100E+01
 20
1.11109399E+02
  0
VERTEX
  8
0
 62
4
 10
-4.13374827E+01
 20
1.10868119E+02
  0
VERTEX
  8
0
 62
4
 10
-4.10362225E+01
 20
1.10652566E+02
  0
VERTEX
  8
0
 62
4
 10
-4.07165550E+01
 20
1.10464475E+02
  0
VERTEX
  8
0
 62
4
 10
-4.03810539E+01
 20
1.10305361E+02
  0
VERTEX
  8
0
 62
4
 10
-4.00324205E+01
 20
1.10176505E+02
  0
VERTEX
  8
0
 62
4
 10
-3.96734619E+01
 20
1.10078943E+02
  0
VERTEX
  8
0
 62
4
 10
-3.93070681E+01
 20
1.10013463E+02
  0
VERTEX
  8
0
 62
4
 10
-3.89361891E+01
 20
1.09980590E+02
  0
VERTEX
  8
0
 62
4
 10
-3.85638110E+01
 20
1.09980590E+02
  0
VERTEX
  8
0
 62
4
 10
-3.81929320E+01
 20
1.10013463E+02
  0
VERTEX
  8
0
 62
4
 10
-3.78265381E+01
 20
1.10078943E+02
  0
VERTEX
  8
0
 62
4
 10
-3.74675795E+01
 20
1.10176504E+02
  0
VERTEX
  8
0
 62
4
 10
-3.71189461E+01
 20
1.10305361E+02
  0
VERTEX
  8
0
 62
4
 10
-3.67834451E+01
 20
1.10464475E+02
  0
VERTEX
  8
0
 62
4
 10
-3.64637775E+01
 20
1.10652566E+02
  0
VERTEX
  8
0
 62
4
 10
-3.61625173E+01
 20
1.10868119E+02
  0
VERTEX
  8
0
 62
4
 10
-3.58820900E+01
 20
1.11109399E+02
  0
VERTEX
  8
0
 62
4
 10
-3.56247534E+01
 20
1.11374463E+02
  0
VERTEX
  8
0
 62
4
 10
-3.53925795E+01
 20
1.11661177E+02
  0
VERTEX
  8
0
 62
4
 10
-3.51874375E+01
 20
1.11967232E+02
  0
VERTEX
  8
0
 62
4
 10
-3.50109792E+01
 20
1.12290165E+02
  0
VERTEX
  8
0
 62
4
 10
-3.48646253E+01
 20
1.12627375E+02
  0
VERTEX
  8
0
 62
4
 10
-3.47495541E+01
 20
1.12976147E+02
  0
VERTEX
  8
0
 62
4
 10
-3.46666922E+01
 20
1.13333673E+02
  0
VERTEX
  8
0
 62
4
 10
-3.46167067E+01
 20
1.13697075E+02
  0
VERTEX
  8
0
 62
4
 10
-3.46000000E+01
 20
1.14063427E+02
  0
SEQEND
  8
0
  0
POLYLINE
  8
0
 62
4
 66
1
  0
VERTEX
  8
0
 62
4
 10
-3.46000000E+01
 20
1.14369047E+02
  0
VERTEX
  8
0
 62
4
 10
-3.46157920E+01
 20
1.14725248E+02
  0
VERTEX
  8
0
 62
4
 10
-3.46630478E+01
 20
1.15078739E+02
  0
VERTEX
  8
0
 62
4
 10
-3.47414078E+01
 20
1.15426828E+02
  0
VERTEX
  8
0
 62
4
 10
-3.48502756E+01
 20
1.15766867E+02
  0
VERTEX
  8
0
 62
4
 10
-3.49888227E+01
 20
1.16096268E+02
  0
VERTEX
  8
0
 62
4
 10
-3.51559946E+01
 20
1.16412523E+02
  0
VERTEX
  8
0
 62
4
 10
-3.53505190E+01
 20
1.16713226E+02
  0
VERTEX
  8
0
 62
4
 10
-3.55709156E+01
 20
1.16996089E+02
  0
VERTEX
  8
0
 62
4
 10
-3.58155069E+01
 20
1.17258959E+02
  0
VERTEX
  8
0
 62
4
 10
-3.60824314E+01
 20
1.17499834E+02
  0
VERTEX
  8
0
 62
4
 10
-3.63696578E+01
 20
1.17716882E+02
  0
VERTEX
  8
0
 62
4
 10
-3.66750000E+01
 20
1.17908451E+02
  0
VERTEX
  8
0
 62
4
 10
-3.69961342E+01
 20
1.18073084E+02
  0
VERTEX
  8
0
 62
4
 10
-3.73306164E+01
 20
1.18209526E+02
  0
VERTEX
  8
0
 62
4
 10
-3.76759010E+01
 20
1.18316740E+02
  0
VERTEX
  8
0
 62
4
 10
-3.80293601E+01
 20
1.18393909E+02
  0
VERTEX
  8
0
 62
4
 10
-3.83883037E+01
 20
1.18440447E+02
  0
VERTEX
  8
0
 62
4
 10
-3.87500000E+01
 20
1.18455999E+02
  0
VERTEX
  8
0
 62
4
 10
-3.91116963E+01
 20
1.18440447E+02
  0
VERTEX
  8
0
 62
4
 10
-3.94706399E+01
 20
1.18393909E+02
  0
VERTEX
  8
0
 62
4
 10
-3.98240990E+01
 20
1.18316740E+02
  0
VERTEX
  8
0
 62
4
 10
-4.01693836E+01
 20
1.18209526E+02
  0
VERTEX
  8
0
 62
4
 10
-4.05038658E+01
 20
1.18073084E+02
  0
VERTEX
  8
0
 62
4
 10
-4.08250000E+01
 20
1.17908451E+02
  0
VERTEX
  8
0
 62
4
 10
-4.11303422E+01
 20
1.17716882E+02
  0
VERTEX
  8
0
 62
4
 10
-4.14175686E+01
 20
1.17499834E+02
  0
VERTEX
  8
0
 62
4
 10
-4.16844931E+01
 20
1.17258959E+02
  0
VERTEX
  8
0
 62
4
 10
-4.19290844E+01
 20
1.16996089E+02
  0
VERTEX
  8
0
 62
4
 10
-4.21494810E+01
 20
1.16713226E+02
  0
VERTEX
  8
0
 62
4
 10
-4.23440054E+01
 20
1.16412523E+02
  0
VERTEX
  8
0
 62
4
 10
-4.25111773E+01
 20
1.16096268E+02
  0
VERTEX
  8
0
 62
4
 10
-4.26497244E+01
 20
1.15766867E+02
  0
VERTEX
  8
0
 62
4
 10
-4.27585922E+01
 20
1.15426828E+02
  0
VERTEX
  8
0
 62
4
 10
-4.28369522E+01
 20
1.15078739E+02
  0
VERTEX
  8
0
 62
4
 10
-4.28842080E+01
 20
1.14725248E+02
  0
VERTEX
  8
0
 62
4
 10
-4.29000000E+01
 20
1.14369047E+02
  0
VERTEX
  8
0
 62
4
 10
-4.28842080E+01
 20
1.14012846E+02
  0
VERTEX
  8
0
 62
4
 10
-4.28369522E+01
 20
1.13659355E+02
  0
VERTEX
  8
0
 62
4
 10
-4.27585922E+01
 20
1.13311266E+02
  0
VERTEX
  8
0
 62
4
 10
-4.26497244E+01
 20
1.12971227E+02
  0
VERTEX
  8
0
 62
4
 10
-4.25111773E+01
 20
1.12641826E+02
  0
VERTEX
  8
0
 62
4
 10
-4.23440054E+01
 20
1.12325571E+02
  0
VERTEX
  8
0
 62
4
 10
-4.21494810E+01
 20
1.12024868E+02
  0
VERTEX
  8
0
 62
4
 10
-4.19290844E+01
 20
1.11742005E+02
  0
VERTEX
  8
0
 62
4
 10
-4.16844931E+01
 20
1.11479135E+02
  0
VERTEX
  8
0
 62
4
 10
-4.14175686E+01
 20
1.11238260E+02
  0
VERTEX
  8
0
 62
4
 10
-4.11303422E+01
 20
1.11021212E+02
  0
VERTEX
  8
0
 62
4
 10
-4.08250000E+01
 20
1.10829643E+02
  0
VERTEX
  8
0
 62
4
 10
-4.05038658E+01
 20
1.10665010E+02
  0
VERTEX
  8
0
 62
4
 10
-4.01693836E+01
 20
1.10528568E+02
  0
VERTEX
  8
0
 62
4
 10
-3.98240990E+01
 20
1.10421354E+02
  0
VERTEX
  8
0
 62
4
 10
-3.94706399E+01
 20
1.10344185E+02
  0
VERTEX
  8
0
 62
4
 10
-3.91116963E+01
 20
1.10297647E+02
  0
VERTEX
  8
0
 62
4
 10
-3.87500000E+01
 20
1.10282095E+02
  0
VERTEX
  8
0
 62
4
 10
-3.83883037E+01
 20
1.10297647E+02
  0
VERTEX
  8
0
 62
4
 10
-3.80293601E+01
 20
1.10344185E+02
  0
VERTEX
  8
0
 62
4
 10
-3.76759010E+01
 20
1.10421354E+02
  0
VERTEX
  8
0
 62
4
 10
-3.73306164E+01
 20
1.10528568E+02
  0
VERTEX
  8
0
 62
4
 10
-3.69961342E+01
 20
1.10665010E+02
  0
VERTEX
  8
0
 62
4
 10
-3.66750000E+01
 20
1.10829643E+02
  0
VERTEX
  8
0
 62
4
 10
-3.63696578E+01
 20
1.11021212E+02
  0
VERTEX
  8
0
 62
4
 10
-3.60824314E+01
 20
1.11238260E+02
  0
VERTEX
  8
0
 62
4
 10
-3.58155069E+01
 20
1.11479135E+02
  0
VERTEX
  8
0
 62
4
 10
-3.55709156E+01
 20
1.11742005E+02
  0
VERTEX
  8
0
 62
4
 10
-3.53505190E+01
 20
1.12024868E+02
  0
VERTEX
  8
0
 62
4
 10
-3.51559946E+01
 20
1.12325571E+02
  0
VERTEX
  8
0
 62
4
 10
-3.49888227E+01
 20
1.12641826E+02
  0
VERTEX
  8
0
 62
4
 10
-3.48502756E+01
 20
1.12971227E+02
  0
VERTEX
  8
0
 62
4
 10
-3.47414078E+01
 20
1.13311266E+02
  0
VERTEX
  8
0
 62
4
 10
-3.46630478E+01
 20
1.13659355E+02
  0
VERTEX
  8
0
 62
4
 10
-3.46157920E+01
 20
1.14012846E+02
  0
VERTEX
  8
0
 62
4
 10
-3.46000000E+01
 20
1.14369047E+02
  0
SEQEND
  8
0
  0
LINE
  8
0
 62
4
 10
-4.29000000E+01
 20
1.14063427E+02
 11
-4.29000000E+01
 21
1.14369047E+02
  0
LINE
  8
0
 62
4
 10
-3.46000000E+01
 20
1.14063427E+02
 11
-3.46000000E+01
 21
1.14369047E+02
  0
ARC
  8
0
 62
4
 10
9.36228232E+01
 20
-1.99304455E+01
 40
1.88658103E+02
 50
1.33811210E+02
 51
1.35318357E+02
  0
ARC
  8
0
 62
4
 10
-1.71122535E+02
 20
-1.99301524E+01
 40
1.88657692E+02
 50
4.46816411E+01
 51
4.61887918E+01
  0
LINE
  8
0
 62
4
 10
-3.50500000E+01
 20
1.17444268E+02
 11
-3.50500000E+01
 21
1.17617916E+02
  0
POLYLINE
  8
0
 62
4
 66
1
  0
VERTEX
  8
0
 62
4
 10
-3.50500000E+01
 20
1.17444268E+02
  0
VERTEX
  8
0
 62
4
 10
-3.50347023E+01
 20
1.17108814E+02
  0
VERTEX
  8
0
 62
4
 10
-3.49889325E+01
 20
1.16776060E+02
  0
VERTEX
  8
0
 62
4
 10
-3.49130589E+01
 20
1.16448686E+02
  0
VERTEX
  8
0
 62
4
 10
-3.48076925E+01
 20
1.16129329E+02
  0
VERTEX
  8
0
 62
4
 10
-3.46736817E+01
 20
1.15820558E+02
  0
VERTEX
  8
0
 62
4
 10
-3.45121054E+01
 20
1.15524861E+02
  0
VERTEX
  8
0
 62
4
 10
-3.43242646E+01
 20
1.15244617E+02
  0
VERTEX
  8
0
 62
4
 10
-3.41116716E+01
 20
1.14982084E+02
  0
VERTEX
  8
0
 62
4
 10
-3.38760381E+01
 20
1.14739375E+02
  0
VERTEX
  8
0
 62
4
 10
-3.36192613E+01
 20
1.14518444E+02
  0
VERTEX
  8
0
 62
4
 10
-3.33434086E+01
 20
1.14321070E+02
  0
VERTEX
  8
0
 62
4
 10
-3.30507009E+01
 20
1.14148842E+02
  0
VERTEX
  8
0
 62
4
 10
-3.27434951E+01
 20
1.14003147E+02
  0
VERTEX
  8
0
 62
4
 10
-3.24242646E+01
 20
1.13885158E+02
  0
VERTEX
  8
0
 62
4
 10
-3.20955796E+01
 20
1.13795825E+02
  0
VERTEX
  8
0
 62
4
 10
-3.17600864E+01
 20
1.13735867E+02
  0
VERTEX
  8
0
 62
4
 10
-3.14204864E+01
 20
1.13705767E+02
  0
VERTEX
  8
0
 62
4
 10
-3.10795137E+01
 20
1.13705767E+02
  0
VERTEX
  8
0
 62
4
 10
-3.07399136E+01
 20
1.13735867E+02
  0
VERTEX
  8
0
 62
4
 10
-3.04044205E+01
 20
1.13795825E+02
  0
VERTEX
  8
0
 62
4
 10
-3.00757354E+01
 20
1.13885158E+02
  0
VERTEX
  8
0
 62
4
 10
-2.97565049E+01
 20
1.14003147E+02
  0
VERTEX
  8
0
 62
4
 10
-2.94492991E+01
 20
1.14148842E+02
  0
VERTEX
  8
0
 62
4
 10
-2.91565915E+01
 20
1.14321070E+02
  0
VERTEX
  8
0
 62
4
 10
-2.88807388E+01
 20
1.14518444E+02
  0
VERTEX
  8
0
 62
4
 10
-2.86239619E+01
 20
1.14739375E+02
  0
VERTEX
  8
0
 62
4
 10
-2.83883284E+01
 20
1.14982084E+02
  0
VERTEX
  8
0
 62
4
 10
-2.81757354E+01
 20
1.15244617E+02
  0
VERTEX
  8
0
 62
4
 10
-2.79878946E+01
 20
1.15524861E+02
  0
VERTEX
  8
0
 62
4
 10
-2.78263183E+01
 20
1.15820558E+02
  0
VERTEX
  8
0
 62
4
 10
-2.76923075E+01
 20
1.16129329E+02
  0
VERTEX
  8
0
 62
4
 10
-2.75869411E+01
 20
1.16448686E+02
  0
VERTEX
  8
0
 62
4
 10
-2.75110675E+01
 20
1.16776060E+02
  0
VERTEX
  8
0
 62
4
 10
-2.74652977E+01
 20
1.17108814E+02
  0
VERTEX
  8
0
 62
4
 10
-2.74500000E+01
 20
1.17444268E+02
  0
SEQEND
  8
0
  0
POLYLINE
  8
0
 62
4
 66
1
  0
VERTEX
  8
0
 62
4
 10
-3.50500000E+01
 20
1.17617916E+02
  0
VERTEX
  8
0
 62
4
 10
-3.50355399E+01
 20
1.17291756E+02
  0
VERTEX
  8
0
 62
4
 10
-3.49922695E+01
 20
1.16968078E+02
  0
VERTEX
  8
0
 62
4
 10
-3.49205182E+01
 20
1.16649345E+02
  0
VERTEX
  8
0
 62
4
 10
-3.48208320E+01
 20
1.16337984E+02
  0
VERTEX
  8
0
 62
4
 10
-3.46939696E+01
 20
1.16036365E+02
  0
VERTEX
  8
0
 62
4
 10
-3.45408966E+01
 20
1.15746781E+02
  0
VERTEX
  8
0
 62
4
 10
-3.43627778E+01
 20
1.15471438E+02
  0
VERTEX
  8
0
 62
4
 10
-3.41609689E+01
 20
1.15212432E+02
  0
VERTEX
  8
0
 62
4
 10
-3.39370058E+01
 20
1.14971732E+02
  0
VERTEX
  8
0
 62
4
 10
-3.36925929E+01
 20
1.14751171E+02
  0
VERTEX
  8
0
 62
4
 10
-3.34295905E+01
 20
1.14552428E+02
  0
VERTEX
  8
0
 62
4
 10
-3.31500000E+01
 20
1.14377016E+02
  0
VERTEX
  8
0
 62
4
 10
-3.28559494E+01
 20
1.14226268E+02
  0
VERTEX
  8
0
 62
4
 10
-3.25496766E+01
 20
1.14101333E+02
  0
VERTEX
  8
0
 62
4
 10
-3.22335124E+01
 20
1.14003161E+02
  0
VERTEX
  8
0
 62
4
 10
-3.19098631E+01
 20
1.13932500E+02
  0
VERTEX
  8
0
 62
4
 10
-3.15811918E+01
 20
1.13889887E+02
  0
VERTEX
  8
0
 62
4
 10
-3.12500000E+01
 20
1.13875647E+02
  0
VERTEX
  8
0
 62
4
 10
-3.09188082E+01
 20
1.13889887E+02
  0
VERTEX
  8
0
 62
4
 10
-3.05901369E+01
 20
1.13932500E+02
  0
VERTEX
  8
0
 62
4
 10
-3.02664876E+01
 20
1.14003161E+02
  0
VERTEX
  8
0
 62
4
 10
-2.99503235E+01
 20
1.14101333E+02
  0
VERTEX
  8
0
 62
4
 10
-2.96440506E+01
 20
1.14226268E+02
  0
VERTEX
  8
0
 62
4
 10
-2.93500000E+01
 20
1.14377016E+02
  0
VERTEX
  8
0
 62
4
 10
-2.90704095E+01
 20
1.14552428E+02
  0
VERTEX
  8
0
 62
4
 10
-2.88074071E+01
 20
1.14751171E+02
  0
VERTEX
  8
0
 62
4
 10
-2.85629942E+01
 20
1.14971732E+02
  0
VERTEX
  8
0
 62
4
 10
-2.83390311E+01
 20
1.15212432E+02
  0
VERTEX
  8
0
 62
4
 10
-2.81372222E+01
 20
1.15471438E+02
  0
VERTEX
  8
0
 62
4
 10
-2.79591034E+01
 20
1.15746781E+02
  0
VERTEX
  8
0
 62
4
 10
-2.78060304E+01
 20
1.16036365E+02
  0
VERTEX
  8
0
 62
4
 10
-2.76791680E+01
 20
1.16337984E+02
  0
VERTEX
  8
0
 62
4
 10
-2.75794818E+01
 20
1.16649345E+02
  0
VERTEX
  8
0
 62
4
 10
-2.75077305E+01
 20
1.16968078E+02
  0
VERTEX
  8
0
 62
4
 10
-2.74644601E+01
 20
1.17291756E+02
  0
VERTEX
  8
0
 62
4
 10
-2.74500000E+01
 20
1.17617916E+02
  0
VERTEX
  8
0
 62
4
 10
-2.74644601E+01
 20
1.17944076E+02
  0
VERTEX
  8
0
 62
4
 10
-2.75077305E+01
 20
1.18267754E+02
  0
VERTEX
  8
0
 62
4
 10
-2.75794818E+01
 20
1.18586487E+02
  0
VERTEX
  8
0
 62
4
 10
-2.76791680E+01
 20
1.18897848E+02
  0
VERTEX
  8
0
 62
4
 10
-2.78060304E+01
 20
1.19199467E+02
  0
VERTEX
  8
0
 62
4
 10
-2.79591034E+01
 20
1.19489051E+02
  0
VERTEX
  8
0
 62
4
 10
-2.81372222E+01
 20
1.19764394E+02
  0
VERTEX
  8
0
 62
4
 10
-2.83390311E+01
 20
1.20023400E+02
  0
VERTEX
  8
0
 62
4
 10
-2.85629942E+01
 20
1.20264100E+02
  0
VERTEX
  8
0
 62
4
 10
-2.88074071E+01
 20
1.20484661E+02
  0
VERTEX
  8
0
 62
4
 10
-2.90704095E+01
 20
1.20683404E+02
  0
VERTEX
  8
0
 62
4
 10
-2.93500000E+01
 20
1.20858816E+02
  0
VERTEX
  8
0
 62
4
 10
-2.96440506E+01
 20
1.21009564E+02
  0
VERTEX
  8
0
 62
4
 10
-2.99503234E+01
 20
1.21134499E+02
  0
VERTEX
  8
0
 62
4
 10
-3.02664876E+01
 20
1.21232671E+02
  0
VERTEX
  8
0
 62
4
 10
-3.05901369E+01
 20
1.21303332E+02
  0
VERTEX
  8
0
 62
4
 10
-3.09188082E+01
 20
1.21345945E+02
  0
VERTEX
  8
0
 62
4
 10
-3.12500000E+01
 20
1.21360185E+02
  0
VERTEX
  8
0
 62
4
 10
-3.15811918E+01
 20
1.21345945E+02
  0
VERTEX
  8
0
 62
4
 10
-3.19098631E+01
 20
1.21303332E+02
  0
VERTEX
  8
0
 62
4
 10
-3.22335124E+01
 20
1.21232671E+02
  0
VERTEX
  8
0
 62
4
 10
-3.25496766E+01
 20
1.21134499E+02
  0
VERTEX
  8
0
 62
4
 10
-3.28559494E+01
 20
1.21009564E+02
  0
VERTEX
  8
0
 62
4
 10
-3.31500000E+01
 20
1.20858816E+02
  0
VERTEX
  8
0
 62
4
 10
-3.34295905E+01
 20
1.20683404E+02
  0
VERTEX
  8
0
 62
4
 10
-3.36925929E+01
 20
1.20484661E+02
  0
VERTEX
  8
0
 62
4
 10
-3.39370058E+01
 20
1.20264100E+02
  0
VERTEX
  8
0
 62
4
 10
-3.41609689E+01
 20
1.20023400E+02
  0
VERTEX
  8
0
 62
4
 10
-3.43627778E+01
 20
1.19764394E+02
  0
VERTEX
  8
0
 62
4
 10
-3.45408966E+01
 20
1.19489051E+02
  0
VERTEX
  8
0
 62
4
 10
-3.46939696E+01
 20
1.19199467E+02
  0
VERTEX
  8
0
 62
4
 10
-3.48208320E+01
 20
1.18897848E+02
  0
VERTEX
  8
0
 62
4
 10
-3.49205182E+01
 20
1.18586487E+02
  0
VERTEX
  8
0
 62
4
 10
-3.49922695E+01
 20
1.18267754E+02
  0
VERTEX
  8
0
 62
4
 10
-3.50355399E+01
 20
1.17944076E+02
  0
VERTEX
  8
0
 62
4
 10
-3.50500000E+01
 20
1.17617916E+02
  0
SEQEND
  8
0
  0
LINE
  8
0
 62
4
 10
-2.74500000E+01
 20
1.17444268E+02
 11
-2.74500000E+01
 21
1.17617916E+02
  0
LINE
  8
0
 62
4
 10
-3.46500000E+01
 20
1.17617916E+02
 11
-3.46500000E+01
 21
1.17814278E+02
  0
POLYLINE
  8
0
 62
4
 66
1
  0
VERTEX
  8
0
 62
4
 10
-3.46500000E+01
 20
1.17617916E+02
  0
VERTEX
  8
0
 62
4
 10
-3.46363126E+01
 20
1.17317773E+02
  0
VERTEX
  8
0
 62
4
 10
-3.45953606E+01
 20
1.17020046E+02
  0
VERTEX
  8
0
 62
4
 10
-3.45274738E+01
 20
1.16727133E+02
  0
VERTEX
  8
0
 62
4
 10
-3.44331986E+01
 20
1.16441391E+02
  0
VERTEX
  8
0
 62
4
 10
-3.43132942E+01
 20
1.16165123E+02
  0
VERTEX
  8
0
 62
4
 10
-3.41687259E+01
 20
1.15900552E+02
  0
VERTEX
  8
0
 62
4
 10
-3.40006578E+01
 20
1.15649807E+02
  0
VERTEX
  8
0
 62
4
 10
-3.38104430E+01
 20
1.15414909E+02
  0
VERTEX
  8
0
 62
4
 10
-3.35996130E+01
 20
1.15197748E+02
  0
VERTEX
  8
0
 62
4
 10
-3.33698654E+01
 20
1.15000073E+02
  0
VERTEX
  8
0
 62
4
 10
-3.31230498E+01
 20
1.14823476E+02
  0
VERTEX
  8
0
 62
4
 10
-3.28611535E+01
 20
1.14669377E+02
  0
VERTEX
  8
0
 62
4
 10
-3.25862851E+01
 20
1.14539019E+02
  0
VERTEX
  8
0
 62
4
 10
-3.23006578E+01
 20
1.14433449E+02
  0
VERTEX
  8
0
 62
4
 10
-3.20065712E+01
 20
1.14353520E+02
  0
VERTEX
  8
0
 62
4
 10
-3.17063931E+01
 20
1.14299873E+02
  0
VERTEX
  8
0
 62
4
 10
-3.14025404E+01
 20
1.14272941E+02
  0
VERTEX
  8
0
 62
4
 10
-3.10974596E+01
 20
1.14272941E+02
  0
VERTEX
  8
0
 62
4
 10
-3.07936069E+01
 20
1.14299873E+02
  0
VERTEX
  8
0
 62
4
 10
-3.04934288E+01
 20
1.14353520E+02
  0
VERTEX
  8
0
 62
4
 10
-3.01993422E+01
 20
1.14433449E+02
  0
VERTEX
  8
0
 62
4
 10
-2.99137149E+01
 20
1.14539019E+02
  0
VERTEX
  8
0
 62
4
 10
-2.96388466E+01
 20
1.14669377E+02
  0
VERTEX
  8
0
 62
4
 10
-2.93769503E+01
 20
1.14823476E+02
  0
VERTEX
  8
0
 62
4
 10
-2.91301347E+01
 20
1.15000073E+02
  0
VERTEX
  8
0
 62
4
 10
-2.89003870E+01
 20
1.15197748E+02
  0
VERTEX
  8
0
 62
4
 10
-2.86895570E+01
 20
1.15414909E+02
  0
VERTEX
  8
0
 62
4
 10
-2.84993422E+01
 20
1.15649807E+02
  0
VERTEX
  8
0
 62
4
 10
-2.83312741E+01
 20
1.15900552E+02
  0
VERTEX
  8
0
 62
4
 10
-2.81867058E+01
 20
1.16165123E+02
  0
VERTEX
  8
0
 62
4
 10
-2.80668014E+01
 20
1.16441391E+02
  0
VERTEX
  8
0
 62
4
 10
-2.79725263E+01
 20
1.16727132E+02
  0
VERTEX
  8
0
 62
4
 10
-2.79046394E+01
 20
1.17020046E+02
  0
VERTEX
  8
0
 62
4
 10
-2.78636874E+01
 20
1.17317773E+02
  0
VERTEX
  8
0
 62
4
 10
-2.78500000E+01
 20
1.17617916E+02
  0
SEQEND
  8
0
  0
POLYLINE
  8
0
 62
4
 66
1
  0
VERTEX
  8
0
 62
4
 10
-3.46500000E+01
 20
1.17814278E+02
  0
VERTEX
  8
0
 62
4
 10
-3.46370620E+01
 20
1.17522450E+02
  0
VERTEX
  8
0
 62
4
 10
-3.45983464E+01
 20
1.17232844E+02
  0
VERTEX
  8
0
 62
4
 10
-3.45341478E+01
 20
1.16947662E+02
  0
VERTEX
  8
0
 62
4
 10
-3.44449549E+01
 20
1.16669076E+02
  0
VERTEX
  8
0
 62
4
 10
-3.43314465E+01
 20
1.16399206E+02
  0
VERTEX
  8
0
 62
4
 10
-3.41944864E+01
 20
1.16140105E+02
  0
VERTEX
  8
0
 62
4
 10
-3.40351170E+01
 20
1.15893745E+02
  0
VERTEX
  8
0
 62
4
 10
-3.38545511E+01
 20
1.15662002E+02
  0
VERTEX
  8
0
 62
4
 10
-3.36541631E+01
 20
1.15446639E+02
  0
VERTEX
  8
0
 62
4
 10
-3.34354779E+01
 20
1.15249296E+02
  0
VERTEX
  8
0
 62
4
 10
-3.32001599E+01
 20
1.15071473E+02
  0
VERTEX
  8
0
 62
4
 10
-3.29500000E+01
 20
1.14914525E+02
  0
VERTEX
  8
0
 62
4
 10
-3.26869021E+01
 20
1.14779645E+02
  0
VERTEX
  8
0
 62
4
 10
-3.24128685E+01
 20
1.14667861E+02
  0
VERTEX
  8
0
 62
4
 10
-3.21299848E+01
 20
1.14580023E+02
  0
VERTEX
  8
0
 62
4
 10
-3.18404038E+01
 20
1.14516800E+02
  0
VERTEX
  8
0
 62
4
 10
-3.15463295E+01
 20
1.14478673E+02
  0
VERTEX
  8
0
 62
4
 10
-3.12500000E+01
 20
1.14465931E+02
  0
VERTEX
  8
0
 62
4
 10
-3.09536705E+01
 20
1.14478673E+02
  0
VERTEX
  8
0
 62
4
 10
-3.06595962E+01
 20
1.14516800E+02
  0
VERTEX
  8
0
 62
4
 10
-3.03700152E+01
 20
1.14580023E+02
  0
VERTEX
  8
0
 62
4
 10
-3.00871315E+01
 20
1.14667861E+02
  0
VERTEX
  8
0
 62
4
 10
-2.98130979E+01
 20
1.14779645E+02
  0
VERTEX
  8
0
 62
4
 10
-2.95500000E+01
 20
1.14914525E+02
  0
VERTEX
  8
0
 62
4
 10
-2.92998401E+01
 20
1.15071473E+02
  0
VERTEX
  8
0
 62
4
 10
-2.90645221E+01
 20
1.15249296E+02
  0
VERTEX
  8
0
 62
4
 10
-2.88458369E+01
 20
1.15446639E+02
  0
VERTEX
  8
0
 62
4
 10
-2.86454489E+01
 20
1.15662002E+02
  0
VERTEX
  8
0
 62
4
 10
-2.84648830E+01
 20
1.15893745E+02
  0
VERTEX
  8
0
 62
4
 10
-2.83055136E+01
 20
1.16140105E+02
  0
VERTEX
  8
0
 62
4
 10
-2.81685535E+01
 20
1.16399206E+02
  0
VERTEX
  8
0
 62
4
 10
-2.80550451E+01
 20
1.16669076E+02
  0
VERTEX
  8
0
 62
4
 10
-2.79658522E+01
 20
1.16947662E+02
  0
VERTEX
  8
0
 62
4
 10
-2.79016536E+01
 20
1.17232844E+02
  0
VERTEX
  8
0
 62
4
 10
-2.78629380E+01
 20
1.17522450E+02
  0
VERTEX
  8
0
 62
4
 10
-2.78500000E+01
 20
1.17814278E+02
  0
VERTEX
  8
0
 62
4
 10
-2.78629380E+01
 20
1.18106106E+02
  0
VERTEX
  8
0
 62
4
 10
-2.79016536E+01
 20
1.18395712E+02
  0
VERTEX
  8
0
 62
4
 10
-2.79658522E+01
 20
1.18680894E+02
  0
VERTEX
  8
0
 62
4
 10
-2.80550451E+01
 20
1.18959480E+02
  0
VERTEX
  8
0
 62
4
 10
-2.81685535E+01
 20
1.19229350E+02
  0
VERTEX
  8
0
 62
4
 10
-2.83055136E+01
 20
1.19488451E+02
  0
VERTEX
  8
0
 62
4
 10
-2.84648830E+01
 20
1.19734811E+02
  0
VERTEX
  8
0
 62
4
 10
-2.86454489E+01
 20
1.19966554E+02
  0
VERTEX
  8
0
 62
4
 10
-2.88458369E+01
 20
1.20181917E+02
  0
VERTEX
  8
0
 62
4
 10
-2.90645221E+01
 20
1.20379260E+02
  0
VERTEX
  8
0
 62
4
 10
-2.92998401E+01
 20
1.20557083E+02
  0
VERTEX
  8
0
 62
4
 10
-2.95500000E+01
 20
1.20714031E+02
  0
VERTEX
  8
0
 62
4
 10
-2.98130979E+01
 20
1.20848911E+02
  0
VERTEX
  8
0
 62
4
 10
-3.00871315E+01
 20
1.20960695E+02
  0
VERTEX
  8
0
 62
4
 10
-3.03700152E+01
 20
1.21048533E+02
  0
VERTEX
  8
0
 62
4
 10
-3.06595962E+01
 20
1.21111756E+02
  0
VERTEX
  8
0
 62
4
 10
-3.09536705E+01
 20
1.21149883E+02
  0
VERTEX
  8
0
 62
4
 10
-3.12500000E+01
 20
1.21162625E+02
  0
VERTEX
  8
0
 62
4
 10
-3.15463295E+01
 20
1.21149883E+02
  0
VERTEX
  8
0
 62
4
 10
-3.18404038E+01
 20
1.21111756E+02
  0
VERTEX
  8
0
 62
4
 10
-3.21299848E+01
 20
1.21048533E+02
  0
VERTEX
  8
0
 62
4
 10
-3.24128685E+01
 20
1.20960695E+02
  0
VERTEX
  8
0
 62
4
 10
-3.26869021E+01
 20
1.20848911E+02
  0
VERTEX
  8
0
 62
4
 10
-3.29500000E+01
 20
1.20714031E+02
  0
VERTEX
  8
0
 62
4
 10
-3.32001599E+01
 20
1.20557083E+02
  0
VERTEX
  8
0
 62
4
 10
-3.34354779E+01
 20
1.20379260E+02
  0
VERTEX
  8
0
 62
4
 10
-3.36541631E+01
 20
1.20181917E+02
  0
VERTEX
  8
0
 62
4
 10
-3.38545511E+01
 20
1.19966554E+02
  0
VERTEX
  8
0
 62
4
 10
-3.40351170E+01
 20
1.19734811E+02
  0
VERTEX
  8
0
 62
4
 10
-3.41944864E+01
 20
1.19488451E+02
  0
VERTEX
  8
0
 62
4
 10
-3.43314465E+01
 20
1.19229350E+02
  0
VERTEX
  8
0
 62
4
 10
-3.44449549E+01
 20
1.18959480E+02
  0
VERTEX
  8
0
 62
4
 10
-3.45341478E+01
 20
1.18680894E+02
  0
VERTEX
  8
0
 62
4
 10
-3.45983464E+01
 20
1.18395712E+02
  0
VERTEX
  8
0
 62
4
 10
-3.46370620E+01
 20
1.18106106E+02
  0
VERTEX
  8
0
 62
4
 10
-3.46500000E+01
 20
1.17814278E+02
  0
SEQEND
  8
0
  0
LINE
  8
0
 62
4
 10
-2.78500000E+01
 20
1.17617916E+02
 11
-2.78500000E+01
 21
1.17814278E+02
  0
ARC
  8
0
 62
4
 10
9.99314687E+01
 20
-1.51934850E+01
 40
1.86971513E+02
 50
1.33801123E+02
 51
1.35321779E+02
  0
ARC
  8
0
 62
4
 10
-1.62431469E+02
 20
-1.51934850E+01
 40
1.86971513E+02
 50
4.46782203E+01
 51
4.61988768E+01
  0
LINE
  8
0
 62
4
 10
-5.37500000E+01
 20
1.07103786E+02
 11
-5.37500000E+01
 21
1.05369449E+02
  0
LINE
  8
0
 62
4
 10
-5.37500000E+01
 20
1.11176228E+02
 11
-5.37500000E+01
 21
1.07103786E+02
  0
LINE
  8
0
 62
4
 10
-5.37500000E+01
 20
1.11633902E+02
 11
-4.20871230E+01
 21
1.11633902E+02
  0
LINE
  8
0
 62
4
 10
-5.37500000E+01
 20
1.07236997E+02
 11
-3.02500000E+01
 21
1.07236997E+02
  0
LINE
  8
0
 62
4
 10
-5.37500000E+01
 20
1.11176228E+02
 11
-4.16872448E+01
 21
1.11176228E+02
  0
LINE
  8
0
 62
4
 10
-5.52500000E+01
 20
1.07544468E+02
 11
-5.37500000E+01
 21
1.06542404E+02
  0
LINE
  8
0
 62
4
 10
-5.52500000E+01
 20
1.07937781E+02
 11
-5.37500000E+01
 21
1.07236997E+02
  0
LINE
  8
0
 62
4
 10
-5.52500000E+01
 20
1.10168371E+02
 11
-5.52500000E+01
 21
1.07544468E+02
  0
LINE
  8
0
 62
4
 10
-5.37500000E+01
 20
1.11176228E+02
 11
-5.52500000E+01
 21
1.10168371E+02
  0
LINE
  8
0
 62
4
 10
-5.37500000E+01
 20
1.07103786E+02
 11
-2.37500000E+01
 21
1.07103786E+02
  0
LINE
  8
0
 62
4
 10
-5.37500000E+01
 20
1.06118978E+02
 11
-2.37500000E+01
 21
1.06118978E+02
  0
LINE
  8
0
 62
4
 10
-5.37500000E+01
 20
1.21875902E+02
 11
-2.37500000E+01
 21
1.21875902E+02
  0
POLYLINE
  8
0
 62
4
 66
1
  0
VERTEX
  8
0
 62
4
 10
1.07500000E+01
 20
9.76996244E+01
  0
VERTEX
  8
0
 62
4
 10
1.07419486E+01
 20
9.78761794E+01
  0
VERTEX
  8
0
 62
4
 10
1.07178592E+01
 20
9.80513128E+01
  0
VERTEX
  8
0
 62
4
 10
1.06779257E+01
 20
9.82236147E+01
  0
VERTEX
  8
0
 62
4
 10
1.06224697E+01
 20
9.83916977E+01
  0
VERTEX
  8
0
 62
4
 10
1.05519377E+01
 20
9.85542085E+01
  0
VERTEX
  8
0
 62
4
 10
1.04668976E+01
 20
9.87098388E+01
  0
VERTEX
  8
0
 62
4
 10
1.03680340E+01
 20
9.88573353E+01
  0
VERTEX
  8
0
 62
4
 10
1.02561429E+01
 20
9.89955107E+01
  0
VERTEX
  8
0
 62
4
 10
1.01321253E+01
 20
9.91232524E+01
  0
VERTEX
  8
0
 62
4
 10
9.99697962E+00
 20
9.92395318E+01
  0
VERTEX
  8
0
 62
4
 10
9.85179398E+00
 20
9.93434128E+01
  0
VERTEX
  8
0
 62
4
 10
9.69773734E+00
 20
9.94340590E+01
  0
VERTEX
  8
0
 62
4
 10
9.53605008E+00
 20
9.95107406E+01
  0
VERTEX
  8
0
 62
4
 10
9.36803401E+00
 20
9.95728401E+01
  0
VERTEX
  8
0
 62
4
 10
9.19504188E+00
 20
9.96198575E+01
  0
VERTEX
  8
0
 62
4
 10
9.01846655E+00
 20
9.96514144E+01
  0
VERTEX
  8
0
 62
4
 10
8.83972968E+00
 20
9.96672566E+01
  0
VERTEX
  8
0
 62
4
 10
8.66027036E+00
 20
9.96672566E+01
  0
VERTEX
  8
0
 62
4
 10
8.48153349E+00
 20
9.96514144E+01
  0
VERTEX
  8
0
 62
4
 10
8.30495815E+00
 20
9.96198575E+01
  0
VERTEX
  8
0
 62
4
 10
8.13196603E+00
 20
9.95728401E+01
  0
VERTEX
  8
0
 62
4
 10
7.96394995E+00
 20
9.95107406E+01
  0
VERTEX
  8
0
 62
4
 10
7.80226269E+00
 20
9.94340590E+01
  0
VERTEX
  8
0
 62
4
 10
7.64820605E+00
 20
9.93434128E+01
  0
VERTEX
  8
0
 62
4
 10
7.50302041E+00
 20
9.92395318E+01
  0
VERTEX
  8
0
 62
4
 10
7.36787472E+00
 20
9.91232524E+01
  0
VERTEX
  8
0
 62
4
 10
7.24385708E+00
 20
9.89955107E+01
  0
VERTEX
  8
0
 62
4
 10
7.13196602E+00
 20
9.88573354E+01
  0
VERTEX
  8
0
 62
4
 10
7.03310242E+00
 20
9.87098388E+01
  0
VERTEX
  8
0
 62
4
 10
6.94806227E+00
 20
9.85542086E+01
  0
VERTEX
  8
0
 62
4
 10
6.87753027E+00
 20
9.83916977E+01
  0
VERTEX
  8
0
 62
4
 10
6.82207428E+00
 20
9.82236147E+01
  0
VERTEX
  8
0
 62
4
 10
6.78214083E+00
 20
9.80513128E+01
  0
VERTEX
  8
0
 62
4
 10
6.75805141E+00
 20
9.78761794E+01
  0
VERTEX
  8
0
 62
4
 10
6.75000000E+00
 20
9.76996244E+01
  0
SEQEND
  8
0
  0
POLYLINE
  8
0
 62
4
 66
1
  0
VERTEX
  8
0
 62
4
 10
6.75000000E+00
 20
9.71639850E+01
  0
VERTEX
  8
0
 62
4
 10
6.75761060E+00
 20
9.69923217E+01
  0
VERTEX
  8
0
 62
4
 10
6.78038449E+00
 20
9.68219649E+01
  0
VERTEX
  8
0
 62
4
 10
6.81814835E+00
 20
9.66542110E+01
  0
VERTEX
  8
0
 62
4
 10
6.87061476E+00
 20
9.64903368E+01
  0
VERTEX
  8
0
 62
4
 10
6.93738442E+00
 20
9.63315895E+01
  0
VERTEX
  8
0
 62
4
 10
7.01794919E+00
 20
9.61791773E+01
  0
VERTEX
  8
0
 62
4
 10
7.11169591E+00
 20
9.60342600E+01
  0
VERTEX
  8
0
 62
4
 10
7.21791111E+00
 20
9.58979406E+01
  0
VERTEX
  8
0
 62
4
 10
7.33578643E+00
 20
9.57712565E+01
  0
VERTEX
  8
0
 62
4
 10
7.46442478E+00
 20
9.56551720E+01
  0
VERTEX
  8
0
 62
4
 10
7.60284712E+00
 20
9.55505704E+01
  0
VERTEX
  8
0
 62
4
 10
7.74999999E+00
 20
9.54582479E+01
  0
VERTEX
  8
0
 62
4
 10
7.90476347E+00
 20
9.53789071E+01
  0
VERTEX
  8
0
 62
4
 10
8.06595971E+00
 20
9.53131518E+01
  0
VERTEX
  8
0
 62
4
 10
8.23236190E+00
 20
9.52614825E+01
  0
VERTEX
  8
0
 62
4
 10
8.40270364E+00
 20
9.52242924E+01
  0
VERTEX
  8
0
 62
4
 10
8.57568851E+00
 20
9.52018645E+01
  0
VERTEX
  8
0
 62
4
 10
8.74999999E+00
 20
9.51943695E+01
  0
VERTEX
  8
0
 62
4
 10
8.92431148E+00
 20
9.52018645E+01
  0
VERTEX
  8
0
 62
4
 10
9.09729635E+00
 20
9.52242924E+01
  0
VERTEX
  8
0
 62
4
 10
9.26763808E+00
 20
9.52614825E+01
  0
VERTEX
  8
0
 62
4
 10
9.43404028E+00
 20
9.53131518E+01
  0
VERTEX
  8
0
 62
4
 10
9.59523652E+00
 20
9.53789071E+01
  0
VERTEX
  8
0
 62
4
 10
9.75000000E+00
 20
9.54582479E+01
  0
VERTEX
  8
0
 62
4
 10
9.89715287E+00
 20
9.55505704E+01
  0
VERTEX
  8
0
 62
4
 10
1.00355752E+01
 20
9.56551720E+01
  0
VERTEX
  8
0
 62
4
 10
1.01642136E+01
 20
9.57712565E+01
  0
VERTEX
  8
0
 62
4
 10
1.02820889E+01
 20
9.58979406E+01
  0
VERTEX
  8
0
 62
4
 10
1.03883041E+01
 20
9.60342600E+01
  0
VERTEX
  8
0
 62
4
 10
1.04820508E+01
 20
9.61791772E+01
  0
VERTEX
  8
0
 62
4
 10
1.05626156E+01
 20
9.63315895E+01
  0
VERTEX
  8
0
 62
4
 10
1.06293852E+01
 20
9.64903368E+01
  0
VERTEX
  8
0
 62
4
 10
1.06818517E+01
 20
9.66542110E+01
  0
VERTEX
  8
0
 62
4
 10
1.07196155E+01
 20
9.68219649E+01
  0
VERTEX
  8
0
 62
4
 10
1.07423894E+01
 20
9.69923217E+01
  0
VERTEX
  8
0
 62
4
 10
1.07500000E+01
 20
9.71639850E+01
  0
VERTEX
  8
0
 62
4
 10
1.07423894E+01
 20
9.73356483E+01
  0
VERTEX
  8
0
 62
4
 10
1.07196155E+01
 20
9.75060051E+01
  0
VERTEX
  8
0
 62
4
 10
1.06818517E+01
 20
9.76737590E+01
  0
VERTEX
  8
0
 62
4
 10
1.06293852E+01
 20
9.78376332E+01
  0
VERTEX
  8
0
 62
4
 10
1.05626156E+01
 20
9.79963805E+01
  0
VERTEX
  8
0
 62
4
 10
1.04820508E+01
 20
9.81487928E+01
  0
VERTEX
  8
0
 62
4
 10
1.03883041E+01
 20
9.82937100E+01
  0
VERTEX
  8
0
 62
4
 10
1.02820889E+01
 20
9.84300294E+01
  0
VERTEX
  8
0
 62
4
 10
1.01642136E+01
 20
9.85567135E+01
  0
VERTEX
  8
0
 62
4
 10
1.00355752E+01
 20
9.86727980E+01
  0
VERTEX
  8
0
 62
4
 10
9.89715288E+00
 20
9.87773996E+01
  0
VERTEX
  8
0
 62
4
 10
9.75000000E+00
 20
9.88697221E+01
  0
VERTEX
  8
0
 62
4
 10
9.59523653E+00
 20
9.89490629E+01
  0
VERTEX
  8
0
 62
4
 10
9.43404029E+00
 20
9.90148182E+01
  0
VERTEX
  8
0
 62
4
 10
9.26763809E+00
 20
9.90664875E+01
  0
VERTEX
  8
0
 62
4
 10
9.09729636E+00
 20
9.91036776E+01
  0
VERTEX
  8
0
 62
4
 10
8.92431149E+00
 20
9.91261055E+01
  0
VERTEX
  8
0
 62
4
 10
8.75000000E+00
 20
9.91336005E+01
  0
VERTEX
  8
0
 62
4
 10
8.57568852E+00
 20
9.91261055E+01
  0
VERTEX
  8
0
 62
4
 10
8.40270365E+00
 20
9.91036776E+01
  0
VERTEX
  8
0
 62
4
 10
8.23236191E+00
 20
9.90664875E+01
  0
VERTEX
  8
0
 62
4
 10
8.06595972E+00
 20
9.90148182E+01
  0
VERTEX
  8
0
 62
4
 10
7.90476348E+00
 20
9.89490629E+01
  0
VERTEX
  8
0
 62
4
 10
7.75000000E+00
 20
9.88697221E+01
  0
VERTEX
  8
0
 62
4
 10
7.60284713E+00
 20
9.87773996E+01
  0
VERTEX
  8
0
 62
4
 10
7.46442478E+00
 20
9.86727980E+01
  0
VERTEX
  8
0
 62
4
 10
7.33578644E+00
 20
9.85567135E+01
  0
VERTEX
  8
0
 62
4
 10
7.21791112E+00
 20
9.84300294E+01
  0
VERTEX
  8
0
 62
4
 10
7.11169591E+00
 20
9.82937100E+01
  0
VERTEX
  8
0
 62
4
 10
7.01794919E+00
 20
9.81487928E+01
  0
VERTEX
  8
0
 62
4
 10
6.93738443E+00
 20
9.79963805E+01
  0
VERTEX
  8
0
 62
4
 10
6.87061476E+00
 20
9.78376332E+01
  0
VERTEX
  8
0
 62
4
 10
6.81814835E+00
 20
9.76737590E+01
  0
VERTEX
  8
0
 62
4
 10
6.78038449E+00
 20
9.75060051E+01
  0
VERTEX
  8
0
 62
4
 10
6.75761060E+00
 20
9.73356483E+01
  0
VERTEX
  8
0
 62
4
 10
6.75000000E+00
 20
9.71639850E+01
  0
SEQEND
  8
0
  0
LINE
  8
0
 62
4
 10
6.75000000E+00
 20
9.71639850E+01
 11
6.75000000E+00
 21
9.76996244E+01
  0
LINE
  8
0
 62
4
 10
1.07500000E+01
 20
9.71639850E+01
 11
1.07500000E+01
 21
9.76996244E+01
  0
POLYLINE
  8
0
 62
6
 66
1
  0
VERTEX
  8
0
 62
6
 10
1.02500000E+01
 20
9.71639850E+01
  0
VERTEX
  8
0
 62
6
 10
1.02442920E+01
 20
9.72927325E+01
  0
VERTEX
  8
0
 62
6
 10
1.02272116E+01
 20
9.74205001E+01
  0
VERTEX
  8
0
 62
6
 10
1.01988887E+01
 20
9.75463155E+01
  0
VERTEX
  8
0
 62
6
 10
1.01595389E+01
 20
9.76692211E+01
  0
VERTEX
  8
0
 62
6
 10
1.01094617E+01
 20
9.77882816E+01
  0
VERTEX
  8
0
 62
6
 10
1.00490381E+01
 20
9.79025908E+01
  0
VERTEX
  8
0
 62
6
 10
9.97872807E+00
 20
9.80112788E+01
  0
VERTEX
  8
0
 62
6
 10
9.89906666E+00
 20
9.81135183E+01
  0
VERTEX
  8
0
 62
6
 10
9.81066017E+00
 20
9.82085314E+01
  0
VERTEX
  8
0
 62
6
 10
9.71418141E+00
 20
9.82955948E+01
  0
VERTEX
  8
0
 62
6
 10
9.61036465E+00
 20
9.83740459E+01
  0
VERTEX
  8
0
 62
6
 10
9.50000000E+00
 20
9.84432878E+01
  0
VERTEX
  8
0
 62
6
 10
9.38392739E+00
 20
9.85027934E+01
  0
VERTEX
  8
0
 62
6
 10
9.26303021E+00
 20
9.85521099E+01
  0
VERTEX
  8
0
 62
6
 10
9.13822857E+00
 20
9.85908619E+01
  0
VERTEX
  8
0
 62
6
 10
9.01047227E+00
 20
9.86187545E+01
  0
VERTEX
  8
0
 62
6
 10
8.88073361E+00
 20
9.86355754E+01
  0
VERTEX
  8
0
 62
6
 10
8.75000000E+00
 20
9.86411966E+01
  0
VERTEX
  8
0
 62
6
 10
8.61926638E+00
 20
9.86355754E+01
  0
VERTEX
  8
0
 62
6
 10
8.48952773E+00
 20
9.86187545E+01
  0
VERTEX
  8
0
 62
6
 10
8.36177143E+00
 20
9.85908619E+01
  0
VERTEX
  8
0
 62
6
 10
8.23696978E+00
 20
9.85521099E+01
  0
VERTEX
  8
0
 62
6
 10
8.11607261E+00
 20
9.85027934E+01
  0
VERTEX
  8
0
 62
6
 10
8.00000000E+00
 20
9.84432878E+01
  0
VERTEX
  8
0
 62
6
 10
7.88963534E+00
 20
9.83740459E+01
  0
VERTEX
  8
0
 62
6
 10
7.78581858E+00
 20
9.82955948E+01
  0
VERTEX
  8
0
 62
6
 10
7.68933983E+00
 20
9.82085314E+01
  0
VERTEX
  8
0
 62
6
 10
7.60093333E+00
 20
9.81135183E+01
  0
VERTEX
  8
0
 62
6
 10
7.52127193E+00
 20
9.80112788E+01
  0
VERTEX
  8
0
 62
6
 10
7.45096189E+00
 20
9.79025908E+01
  0
VERTEX
  8
0
 62
6
 10
7.39053832E+00
 20
9.77882816E+01
  0
VERTEX
  8
0
 62
6
 10
7.34046107E+00
 20
9.76692211E+01
  0
VERTEX
  8
0
 62
6
 10
7.30111126E+00
 20
9.75463155E+01
  0
VERTEX
  8
0
 62
6
 10
7.27278837E+00
 20
9.74205001E+01
  0
VERTEX
  8
0
 62
6
 10
7.25570795E+00
 20
9.72927325E+01
  0
VERTEX
  8
0
 62
6
 10
7.25000000E+00
 20
9.71639850E+01
  0
VERTEX
  8
0
 62
6
 10
7.25570795E+00
 20
9.70352375E+01
  0
VERTEX
  8
0
 62
6
 10
7.27278837E+00
 20
9.69074699E+01
  0
VERTEX
  8
0
 62
6
 10
7.30111126E+00
 20
9.67816545E+01
  0
VERTEX
  8
0
 62
6
 10
7.34046107E+00
 20
9.66587489E+01
  0
VERTEX
  8
0
 62
6
 10
7.39053832E+00
 20
9.65396884E+01
  0
VERTEX
  8
0
 62
6
 10
7.45096190E+00
 20
9.64253792E+01
  0
VERTEX
  8
0
 62
6
 10
7.52127194E+00
 20
9.63166912E+01
  0
VERTEX
  8
0
 62
6
 10
7.60093334E+00
 20
9.62144517E+01
  0
VERTEX
  8
0
 62
6
 10
7.68933983E+00
 20
9.61194386E+01
  0
VERTEX
  8
0
 62
6
 10
7.78581859E+00
 20
9.60323752E+01
  0
VERTEX
  8
0
 62
6
 10
7.88963535E+00
 20
9.59539241E+01
  0
VERTEX
  8
0
 62
6
 10
8.00000000E+00
 20
9.58846822E+01
  0
VERTEX
  8
0
 62
6
 10
8.11607261E+00
 20
9.58251766E+01
  0
VERTEX
  8
0
 62
6
 10
8.23696979E+00
 20
9.57758601E+01
  0
VERTEX
  8
0
 62
6
 10
8.36177144E+00
 20
9.57371081E+01
  0
VERTEX
  8
0
 62
6
 10
8.48952774E+00
 20
9.57092155E+01
  0
VERTEX
  8
0
 62
6
 10
8.61926639E+00
 20
9.56923946E+01
  0
VERTEX
  8
0
 62
6
 10
8.75000000E+00
 20
9.56867734E+01
  0
VERTEX
  8
0
 62
6
 10
8.88073362E+00
 20
9.56923946E+01
  0
VERTEX
  8
0
 62
6
 10
9.01047227E+00
 20
9.57092155E+01
  0
VERTEX
  8
0
 62
6
 10
9.13822857E+00
 20
9.57371081E+01
  0
VERTEX
  8
0
 62
6
 10
9.26303022E+00
 20
9.57758601E+01
  0
VERTEX
  8
0
 62
6
 10
9.38392740E+00
 20
9.58251766E+01
  0
VERTEX
  8
0
 62
6
 10
9.50000000E+00
 20
9.58846822E+01
  0
VERTEX
  8
0
 62
6
 10
9.61036466E+00
 20
9.59539241E+01
  0
VERTEX
  8
0
 62
6
 10
9.71418142E+00
 20
9.60323752E+01
  0
VERTEX
  8
0
 62
6
 10
9.81066017E+00
 20
9.61194386E+01
  0
VERTEX
  8
0
 62
6
 10
9.89906667E+00
 20
9.62144517E+01
  0
VERTEX
  8
0
 62
6
 10
9.97872807E+00
 20
9.63166912E+01
  0
VERTEX
  8
0
 62
6
 10
1.00490381E+01
 20
9.64253792E+01
  0
VERTEX
  8
0
 62
6
 10
1.01094617E+01
 20
9.65396884E+01
  0
VERTEX
  8
0
 62
6
 10
1.01595389E+01
 20
9.66587489E+01
  0
VERTEX
  8
0
 62
6
 10
1.01988887E+01
 20
9.67816545E+01
  0
VERTEX
  8
0
 62
6
 10
1.02272116E+01
 20
9.69074699E+01
  0
VERTEX
  8
0
 62
6
 10
1.02442920E+01
 20
9.70352375E+01
  0
VERTEX
  8
0
 62
6
 10
1.02500000E+01
 20
9.71639850E+01
  0
SEQEND
  8
0
  0
LINE
  8
0
 62
4
 10
7.75000000E+00
 20
9.77351735E+01
 11
7.75000000E+00
 21
9.65927965E+01
  0
LINE
  8
0
 62
4
 10
9.75000000E+00
 20
9.77351735E+01
 11
9.75000000E+00
 21
9.65927965E+01
  0
LINE
  8
0
 62
4
 10
8.75000000E+00
 20
9.82965139E+01
 11
7.75000000E+00
 21
9.77351735E+01
  0
LINE
  8
0
 62
4
 10
8.75000000E+00
 20
9.82965139E+01
 11
9.75000000E+00
 21
9.77351735E+01
  0
LINE
  8
0
 62
4
 10
9.75000000E+00
 20
9.65927965E+01
 11
8.75000000E+00
 21
9.60216080E+01
  0
LINE
  8
0
 62
4
 10
7.75000000E+00
 20
9.65927965E+01
 11
8.75000000E+00
 21
9.60216080E+01
  0
LINE
  8
0
 62
4
 10
1.57500000E+01
 20
9.65927965E+01
 11
1.67500000E+01
 21
9.60216080E+01
  0
LINE
  8
0
 62
4
 10
1.77500000E+01
 20
9.65927965E+01
 11
1.67500000E+01
 21
9.60216080E+01
  0
LINE
  8
0
 62
4
 10
1.67500000E+01
 20
9.82965139E+01
 11
1.77500000E+01
 21
9.77351735E+01
  0
LINE
  8
0
 62
4
 10
1.67500000E+01
 20
9.82965139E+01
 11
1.57500000E+01
 21
9.77351735E+01
  0
LINE
  8
0
 62
4
 10
1.77500000E+01
 20
9.77351735E+01
 11
1.77500000E+01
 21
9.65927965E+01
  0
LINE
  8
0
 62
4
 10
1.57500000E+01
 20
9.77351735E+01
 11
1.57500000E+01
 21
9.65927965E+01
  0
POLYLINE
  8
0
 62
6
 66
1
  0
VERTEX
  8
0
 62
6
 10
1.82500000E+01
 20
9.71639850E+01
  0
VERTEX
  8
0
 62
6
 10
1.82442920E+01
 20
9.72927325E+01
  0
VERTEX
  8
0
 62
6
 10
1.82272116E+01
 20
9.74205001E+01
  0
VERTEX
  8
0
 62
6
 10
1.81988887E+01
 20
9.75463155E+01
  0
VERTEX
  8
0
 62
6
 10
1.81595389E+01
 20
9.76692211E+01
  0
VERTEX
  8
0
 62
6
 10
1.81094617E+01
 20
9.77882816E+01
  0
VERTEX
  8
0
 62
6
 10
1.80490381E+01
 20
9.79025908E+01
  0
VERTEX
  8
0
 62
6
 10
1.79787281E+01
 20
9.80112788E+01
  0
VERTEX
  8
0
 62
6
 10
1.78990667E+01
 20
9.81135183E+01
  0
VERTEX
  8
0
 62
6
 10
1.78106602E+01
 20
9.82085314E+01
  0
VERTEX
  8
0
 62
6
 10
1.77141814E+01
 20
9.82955948E+01
  0
VERTEX
  8
0
 62
6
 10
1.76103647E+01
 20
9.83740459E+01
  0
VERTEX
  8
0
 62
6
 10
1.75000000E+01
 20
9.84432878E+01
  0
VERTEX
  8
0
 62
6
 10
1.73839274E+01
 20
9.85027934E+01
  0
VERTEX
  8
0
 62
6
 10
1.72630302E+01
 20
9.85521099E+01
  0
VERTEX
  8
0
 62
6
 10
1.71382286E+01
 20
9.85908619E+01
  0
VERTEX
  8
0
 62
6
 10
1.70104723E+01
 20
9.86187545E+01
  0
VERTEX
  8
0
 62
6
 10
1.68807336E+01
 20
9.86355754E+01
  0
VERTEX
  8
0
 62
6
 10
1.67500000E+01
 20
9.86411966E+01
  0
VERTEX
  8
0
 62
6
 10
1.66192664E+01
 20
9.86355754E+01
  0
VERTEX
  8
0
 62
6
 10
1.64895277E+01
 20
9.86187545E+01
  0
VERTEX
  8
0
 62
6
 10
1.63617714E+01
 20
9.85908619E+01
  0
VERTEX
  8
0
 62
6
 10
1.62369698E+01
 20
9.85521099E+01
  0
VERTEX
  8
0
 62
6
 10
1.61160726E+01
 20
9.85027934E+01
  0
VERTEX
  8
0
 62
6
 10
1.60000000E+01
 20
9.84432878E+01
  0
VERTEX
  8
0
 62
6
 10
1.58896353E+01
 20
9.83740459E+01
  0
VERTEX
  8
0
 62
6
 10
1.57858186E+01
 20
9.82955948E+01
  0
VERTEX
  8
0
 62
6
 10
1.56893398E+01
 20
9.82085314E+01
  0
VERTEX
  8
0
 62
6
 10
1.56009333E+01
 20
9.81135183E+01
  0
VERTEX
  8
0
 62
6
 10
1.55212719E+01
 20
9.80112788E+01
  0
VERTEX
  8
0
 62
6
 10
1.54509619E+01
 20
9.79025908E+01
  0
VERTEX
  8
0
 62
6
 10
1.53905383E+01
 20
9.77882816E+01
  0
VERTEX
  8
0
 62
6
 10
1.53404611E+01
 20
9.76692211E+01
  0
VERTEX
  8
0
 62
6
 10
1.53011113E+01
 20
9.75463155E+01
  0
VERTEX
  8
0
 62
6
 10
1.52727884E+01
 20
9.74205001E+01
  0
VERTEX
  8
0
 62
6
 10
1.52557080E+01
 20
9.72927325E+01
  0
VERTEX
  8
0
 62
6
 10
1.52500000E+01
 20
9.71639850E+01
  0
VERTEX
  8
0
 62
6
 10
1.52557080E+01
 20
9.70352375E+01
  0
VERTEX
  8
0
 62
6
 10
1.52727884E+01
 20
9.69074699E+01
  0
VERTEX
  8
0
 62
6
 10
1.53011113E+01
 20
9.67816545E+01
  0
VERTEX
  8
0
 62
6
 10
1.53404611E+01
 20
9.66587489E+01
  0
VERTEX
  8
0
 62
6
 10
1.53905383E+01
 20
9.65396884E+01
  0
VERTEX
  8
0
 62
6
 10
1.54509619E+01
 20
9.64253792E+01
  0
VERTEX
  8
0
 62
6
 10
1.55212719E+01
 20
9.63166912E+01
  0
VERTEX
  8
0
 62
6
 10
1.56009333E+01
 20
9.62144517E+01
  0
VERTEX
  8
0
 62
6
 10
1.56893398E+01
 20
9.61194386E+01
  0
VERTEX
  8
0
 62
6
 10
1.57858186E+01
 20
9.60323752E+01
  0
VERTEX
  8
0
 62
6
 10
1.58896353E+01
 20
9.59539241E+01
  0
VERTEX
  8
0
 62
6
 10
1.60000000E+01
 20
9.58846822E+01
  0
VERTEX
  8
0
 62
6
 10
1.61160726E+01
 20
9.58251766E+01
  0
VERTEX
  8
0
 62
6
 10
1.62369698E+01
 20
9.57758601E+01
  0
VERTEX
  8
0
 62
6
 10
1.63617714E+01
 20
9.57371081E+01
  0
VERTEX
  8
0
 62
6
 10
1.64895277E+01
 20
9.57092155E+01
  0
VERTEX
  8
0
 62
6
 10
1.66192664E+01
 20
9.56923946E+01
  0
VERTEX
  8
0
 62
6
 10
1.67500000E+01
 20
9.56867734E+01
  0
VERTEX
  8
0
 62
6
 10
1.68807336E+01
 20
9.56923946E+01
  0
VERTEX
  8
0
 62
6
 10
1.70104723E+01
 20
9.57092155E+01
  0
VERTEX
  8
0
 62
6
 10
1.71382286E+01
 20
9.57371081E+01
  0
VERTEX
  8
0
 62
6
 10
1.72630302E+01
 20
9.57758601E+01
  0
VERTEX
  8
0
 62
6
 10
1.73839274E+01
 20
9.58251766E+01
  0
VERTEX
  8
0
 62
6
 10
1.75000000E+01
 20
9.58846822E+01
  0
VERTEX
  8
0
 62
6
 10
1.76103647E+01
 20
9.59539241E+01
  0
VERTEX
  8
0
 62
6
 10
1.77141814E+01
 20
9.60323752E+01
  0
VERTEX
  8
0
 62
6
 10
1.78106602E+01
 20
9.61194386E+01
  0
VERTEX
  8
0
 62
6
 10
1.78990667E+01
 20
9.62144517E+01
  0
VERTEX
  8
0
 62
6
 10
1.79787281E+01
 20
9.63166912E+01
  0
VERTEX
  8
0
 62
6
 10
1.80490381E+01
 20
9.64253792E+01
  0
VERTEX
  8
0
 62
6
 10
1.81094617E+01
 20
9.65396884E+01
  0
VERTEX
  8
0
 62
6
 10
1.81595389E+01
 20
9.66587489E+01
  0
VERTEX
  8
0
 62
6
 10
1.81988887E+01
 20
9.67816545E+01
  0
VERTEX
  8
0
 62
6
 10
1.82272116E+01
 20
9.69074699E+01
  0
VERTEX
  8
0
 62
6
 10
1.82442920E+01
 20
9.70352375E+01
  0
VERTEX
  8
0
 62
6
 10
1.82500000E+01
 20
9.71639850E+01
  0
SEQEND
  8
0
  0
LINE
  8
0
 62
4
 10
1.87500000E+01
 20
9.71639850E+01
 11
1.87500000E+01
 21
9.76996244E+01
  0
LINE
  8
0
 62
4
 10
1.47500000E+01
 20
9.71639850E+01
 11
1.47500000E+01
 21
9.76996244E+01
  0
POLYLINE
  8
0
 62
4
 66
1
  0
VERTEX
  8
0
 62
4
 10
1.47500000E+01
 20
9.71639850E+01
  0
VERTEX
  8
0
 62
4
 10
1.47576106E+01
 20
9.69923217E+01
  0
VERTEX
  8
0
 62
4
 10
1.47803845E+01
 20
9.68219649E+01
  0
VERTEX
  8
0
 62
4
 10
1.48181483E+01
 20
9.66542110E+01
  0
VERTEX
  8
0
 62
4
 10
1.48706148E+01
 20
9.64903368E+01
  0
VERTEX
  8
0
 62
4
 10
1.49373844E+01
 20
9.63315895E+01
  0
VERTEX
  8
0
 62
4
 10
1.50179492E+01
 20
9.61791773E+01
  0
VERTEX
  8
0
 62
4
 10
1.51116959E+01
 20
9.60342600E+01
  0
VERTEX
  8
0
 62
4
 10
1.52179111E+01
 20
9.58979406E+01
  0
VERTEX
  8
0
 62
4
 10
1.53357864E+01
 20
9.57712565E+01
  0
VERTEX
  8
0
 62
4
 10
1.54644248E+01
 20
9.56551720E+01
  0
VERTEX
  8
0
 62
4
 10
1.56028471E+01
 20
9.55505704E+01
  0
VERTEX
  8
0
 62
4
 10
1.57500000E+01
 20
9.54582479E+01
  0
VERTEX
  8
0
 62
4
 10
1.59047635E+01
 20
9.53789071E+01
  0
VERTEX
  8
0
 62
4
 10
1.60659597E+01
 20
9.53131518E+01
  0
VERTEX
  8
0
 62
4
 10
1.62323619E+01
 20
9.52614825E+01
  0
VERTEX
  8
0
 62
4
 10
1.64027036E+01
 20
9.52242924E+01
  0
VERTEX
  8
0
 62
4
 10
1.65756885E+01
 20
9.52018645E+01
  0
VERTEX
  8
0
 62
4
 10
1.67500000E+01
 20
9.51943695E+01
  0
VERTEX
  8
0
 62
4
 10
1.69243115E+01
 20
9.52018645E+01
  0
VERTEX
  8
0
 62
4
 10
1.70972963E+01
 20
9.52242924E+01
  0
VERTEX
  8
0
 62
4
 10
1.72676381E+01
 20
9.52614825E+01
  0
VERTEX
  8
0
 62
4
 10
1.74340403E+01
 20
9.53131518E+01
  0
VERTEX
  8
0
 62
4
 10
1.75952365E+01
 20
9.53789071E+01
  0
VERTEX
  8
0
 62
4
 10
1.77500000E+01
 20
9.54582479E+01
  0
VERTEX
  8
0
 62
4
 10
1.78971529E+01
 20
9.55505704E+01
  0
VERTEX
  8
0
 62
4
 10
1.80355752E+01
 20
9.56551720E+01
  0
VERTEX
  8
0
 62
4
 10
1.81642136E+01
 20
9.57712565E+01
  0
VERTEX
  8
0
 62
4
 10
1.82820889E+01
 20
9.58979406E+01
  0
VERTEX
  8
0
 62
4
 10
1.83883041E+01
 20
9.60342600E+01
  0
VERTEX
  8
0
 62
4
 10
1.84820508E+01
 20
9.61791772E+01
  0
VERTEX
  8
0
 62
4
 10
1.85626156E+01
 20
9.63315895E+01
  0
VERTEX
  8
0
 62
4
 10
1.86293852E+01
 20
9.64903368E+01
  0
VERTEX
  8
0
 62
4
 10
1.86818517E+01
 20
9.66542110E+01
  0
VERTEX
  8
0
 62
4
 10
1.87196155E+01
 20
9.68219649E+01
  0
VERTEX
  8
0
 62
4
 10
1.87423894E+01
 20
9.69923217E+01
  0
VERTEX
  8
0
 62
4
 10
1.87500000E+01
 20
9.71639850E+01
  0
VERTEX
  8
0
 62
4
 10
1.87423894E+01
 20
9.73356483E+01
  0
VERTEX
  8
0
 62
4
 10
1.87196155E+01
 20
9.75060051E+01
  0
VERTEX
  8
0
 62
4
 10
1.86818517E+01
 20
9.76737590E+01
  0
VERTEX
  8
0
 62
4
 10
1.86293852E+01
 20
9.78376332E+01
  0
VERTEX
  8
0
 62
4
 10
1.85626156E+01
 20
9.79963805E+01
  0
VERTEX
  8
0
 62
4
 10
1.84820508E+01
 20
9.81487928E+01
  0
VERTEX
  8
0
 62
4
 10
1.83883041E+01
 20
9.82937100E+01
  0
VERTEX
  8
0
 62
4
 10
1.82820889E+01
 20
9.84300294E+01
  0
VERTEX
  8
0
 62
4
 10
1.81642136E+01
 20
9.85567135E+01
  0
VERTEX
  8
0
 62
4
 10
1.80355752E+01
 20
9.86727980E+01
  0
VERTEX
  8
0
 62
4
 10
1.78971529E+01
 20
9.87773996E+01
  0
VERTEX
  8
0
 62
4
 10
1.77500000E+01
 20
9.88697221E+01
  0
VERTEX
  8
0
 62
4
 10
1.75952365E+01
 20
9.89490629E+01
  0
VERTEX
  8
0
 62
4
 10
1.74340403E+01
 20
9.90148182E+01
  0
VERTEX
  8
0
 62
4
 10
1.72676381E+01
 20
9.90664875E+01
  0
VERTEX
  8
0
 62
4
 10
1.70972964E+01
 20
9.91036776E+01
  0
VERTEX
  8
0
 62
4
 10
1.69243115E+01
 20
9.91261055E+01
  0
VERTEX
  8
0
 62
4
 10
1.67500000E+01
 20
9.91336005E+01
  0
VERTEX
  8
0
 62
4
 10
1.65756885E+01
 20
9.91261055E+01
  0
VERTEX
  8
0
 62
4
 10
1.64027036E+01
 20
9.91036776E+01
  0
VERTEX
  8
0
 62
4
 10
1.62323619E+01
 20
9.90664875E+01
  0
VERTEX
  8
0
 62
4
 10
1.60659597E+01
 20
9.90148182E+01
  0
VERTEX
  8
0
 62
4
 10
1.59047635E+01
 20
9.89490629E+01
  0
VERTEX
  8
0
 62
4
 10
1.57500000E+01
 20
9.88697221E+01
  0
VERTEX
  8
0
 62
4
 10
1.56028471E+01
 20
9.87773996E+01
  0
VERTEX
  8
0
 62
4
 10
1.54644248E+01
 20
9.86727980E+01
  0
VERTEX
  8
0
 62
4
 10
1.53357864E+01
 20
9.85567135E+01
  0
VERTEX
  8
0
 62
4
 10
1.52179111E+01
 20
9.84300294E+01
  0
VERTEX
  8
0
 62
4
 10
1.51116959E+01
 20
9.82937100E+01
  0
VERTEX
  8
0
 62
4
 10
1.50179492E+01
 20
9.81487928E+01
  0
VERTEX
  8
0
 62
4
 10
1.49373844E+01
 20
9.79963805E+01
  0
VERTEX
  8
0
 62
4
 10
1.48706148E+01
 20
9.78376332E+01
  0
VERTEX
  8
0
 62
4
 10
1.48181483E+01
 20
9.76737590E+01
  0
VERTEX
  8
0
 62
4
 10
1.47803845E+01
 20
9.75060051E+01
  0
VERTEX
  8
0
 62
4
 10
1.47576106E+01
 20
9.73356483E+01
  0
VERTEX
  8
0
 62
4
 10
1.47500000E+01
 20
9.71639850E+01
  0
SEQEND
  8
0
  0
POLYLINE
  8
0
 62
4
 66
1
  0
VERTEX
  8
0
 62
4
 10
1.87500000E+01
 20
9.76996244E+01
  0
VERTEX
  8
0
 62
4
 10
1.87419486E+01
 20
9.78761794E+01
  0
VERTEX
  8
0
 62
4
 10
1.87178592E+01
 20
9.80513128E+01
  0
VERTEX
  8
0
 62
4
 10
1.86779257E+01
 20
9.82236147E+01
  0
VERTEX
  8
0
 62
4
 10
1.86224697E+01
 20
9.83916977E+01
  0
VERTEX
  8
0
 62
4
 10
1.85519377E+01
 20
9.85542085E+01
  0
VERTEX
  8
0
 62
4
 10
1.84668976E+01
 20
9.87098388E+01
  0
VERTEX
  8
0
 62
4
 10
1.83680340E+01
 20
9.88573353E+01
  0
VERTEX
  8
0
 62
4
 10
1.82561429E+01
 20
9.89955107E+01
  0
VERTEX
  8
0
 62
4
 10
1.81321253E+01
 20
9.91232524E+01
  0
VERTEX
  8
0
 62
4
 10
1.79969796E+01
 20
9.92395318E+01
  0
VERTEX
  8
0
 62
4
 10
1.78517940E+01
 20
9.93434128E+01
  0
VERTEX
  8
0
 62
4
 10
1.76977373E+01
 20
9.94340590E+01
  0
VERTEX
  8
0
 62
4
 10
1.75360501E+01
 20
9.95107406E+01
  0
VERTEX
  8
0
 62
4
 10
1.73680340E+01
 20
9.95728401E+01
  0
VERTEX
  8
0
 62
4
 10
1.71950419E+01
 20
9.96198575E+01
  0
VERTEX
  8
0
 62
4
 10
1.70184665E+01
 20
9.96514144E+01
  0
VERTEX
  8
0
 62
4
 10
1.68397297E+01
 20
9.96672566E+01
  0
VERTEX
  8
0
 62
4
 10
1.66602704E+01
 20
9.96672566E+01
  0
VERTEX
  8
0
 62
4
 10
1.64815335E+01
 20
9.96514144E+01
  0
VERTEX
  8
0
 62
4
 10
1.63049581E+01
 20
9.96198575E+01
  0
VERTEX
  8
0
 62
4
 10
1.61319660E+01
 20
9.95728401E+01
  0
VERTEX
  8
0
 62
4
 10
1.59639500E+01
 20
9.95107406E+01
  0
VERTEX
  8
0
 62
4
 10
1.58022627E+01
 20
9.94340590E+01
  0
VERTEX
  8
0
 62
4
 10
1.56482061E+01
 20
9.93434128E+01
  0
VERTEX
  8
0
 62
4
 10
1.55030204E+01
 20
9.92395318E+01
  0
VERTEX
  8
0
 62
4
 10
1.53678747E+01
 20
9.91232524E+01
  0
VERTEX
  8
0
 62
4
 10
1.52438571E+01
 20
9.89955107E+01
  0
VERTEX
  8
0
 62
4
 10
1.51319660E+01
 20
9.88573354E+01
  0
VERTEX
  8
0
 62
4
 10
1.50331024E+01
 20
9.87098388E+01
  0
VERTEX
  8
0
 62
4
 10
1.49480623E+01
 20
9.85542086E+01
  0
VERTEX
  8
0
 62
4
 10
1.48775303E+01
 20
9.83916977E+01
  0
VERTEX
  8
0
 62
4
 10
1.48220743E+01
 20
9.82236147E+01
  0
VERTEX
  8
0
 62
4
 10
1.47821408E+01
 20
9.80513128E+01
  0
VERTEX
  8
0
 62
4
 10
1.47580514E+01
 20
9.78761794E+01
  0
VERTEX
  8
0
 62
4
 10
1.47500000E+01
 20
9.76996244E+01
  0
SEQEND
  8
0
  0
POLYLINE
  8
0
 62
4
 66
1
  0
VERTEX
  8
0
 62
4
 10
2.55000000E+01
 20
1.15655691E+02
  0
VERTEX
  8
0
 62
4
 10
2.55085619E+01
 20
1.15462570E+02
  0
VERTEX
  8
0
 62
4
 10
2.55341826E+01
 20
1.15270918E+02
  0
VERTEX
  8
0
 62
4
 10
2.55766669E+01
 20
1.15082195E+02
  0
VERTEX
  8
0
 62
4
 10
2.56356916E+01
 20
1.14897837E+02
  0
VERTEX
  8
0
 62
4
 10
2.57108075E+01
 20
1.14719246E+02
  0
VERTEX
  8
0
 62
4
 10
2.58014428E+01
 20
1.14547782E+02
  0
VERTEX
  8
0
 62
4
 10
2.59069079E+01
 20
1.14384750E+02
  0
VERTEX
  8
0
 62
4
 10
2.60264000E+01
 20
1.14231391E+02
  0
VERTEX
  8
0
 62
4
 10
2.61590097E+01
 20
1.14088871E+02
  0
VERTEX
  8
0
 62
4
 10
2.63037279E+01
 20
1.13958276E+02
  0
VERTEX
  8
0
 62
4
 10
2.64594530E+01
 20
1.13840600E+02
  0
VERTEX
  8
0
 62
4
 10
2.66250000E+01
 20
1.13736737E+02
  0
VERTEX
  8
0
 62
4
 10
2.67991089E+01
 20
1.13647478E+02
  0
VERTEX
  8
0
 62
4
 10
2.69804547E+01
 20
1.13573504E+02
  0
VERTEX
  8
0
 62
4
 10
2.71676571E+01
 20
1.13515376E+02
  0
VERTEX
  8
0
 62
4
 10
2.73592916E+01
 20
1.13473537E+02
  0
VERTEX
  8
0
 62
4
 10
2.75538996E+01
 20
1.13448305E+02
  0
VERTEX
  8
0
 62
4
 10
2.77500000E+01
 20
1.13439874E+02
  0
VERTEX
  8
0
 62
4
 10
2.79461004E+01
 20
1.13448305E+02
  0
VERTEX
  8
0
 62
4
 10
2.81407084E+01
 20
1.13473537E+02
  0
VERTEX
  8
0
 62
4
 10
2.83323428E+01
 20
1.13515376E+02
  0
VERTEX
  8
0
 62
4
 10
2.85195453E+01
 20
1.13573504E+02
  0
VERTEX
  8
0
 62
4
 10
2.87008911E+01
 20
1.13647478E+02
  0
VERTEX
  8
0
 62
4
 10
2.88750000E+01
 20
1.13736737E+02
  0
VERTEX
  8
0
 62
4
 10
2.90405470E+01
 20
1.13840600E+02
  0
VERTEX
  8
0
 62
4
 10
2.91962721E+01
 20
1.13958276E+02
  0
VERTEX
  8
0
 62
4
 10
2.93409903E+01
 20
1.14088871E+02
  0
VERTEX
  8
0
 62
4
 10
2.94736000E+01
 20
1.14231391E+02
  0
VERTEX
  8
0
 62
4
 10
2.95930921E+01
 20
1.14384750E+02
  0
VERTEX
  8
0
 62
4
 10
2.96985572E+01
 20
1.14547782E+02
  0
VERTEX
  8
0
 62
4
 10
2.97891925E+01
 20
1.14719246E+02
  0
VERTEX
  8
0
 62
4
 10
2.98643084E+01
 20
1.14897837E+02
  0
VERTEX
  8
0
 62
4
 10
2.99233331E+01
 20
1.15082195E+02
  0
VERTEX
  8
0
 62
4
 10
2.99658174E+01
 20
1.15270918E+02
  0
VERTEX
  8
0
 62
4
 10
2.99914381E+01
 20
1.15462570E+02
  0
VERTEX
  8
0
 62
4
 10
3.00000000E+01
 20
1.15655691E+02
  0
VERTEX
  8
0
 62
4
 10
2.99914381E+01
 20
1.15848812E+02
  0
VERTEX
  8
0
 62
4
 10
2.99658174E+01
 20
1.16040464E+02
  0
VERTEX
  8
0
 62
4
 10
2.99233331E+01
 20
1.16229187E+02
  0
VERTEX
  8
0
 62
4
 10
2.98643084E+01
 20
1.16413545E+02
  0
VERTEX
  8
0
 62
4
 10
2.97891925E+01
 20
1.16592136E+02
  0
VERTEX
  8
0
 62
4
 10
2.96985572E+01
 20
1.16763600E+02
  0
VERTEX
  8
0
 62
4
 10
2.95930921E+01
 20
1.16926632E+02
  0
VERTEX
  8
0
 62
4
 10
2.94736000E+01
 20
1.17079991E+02
  0
VERTEX
  8
0
 62
4
 10
2.93409903E+01
 20
1.17222511E+02
  0
VERTEX
  8
0
 62
4
 10
2.91962721E+01
 20
1.17353106E+02
  0
VERTEX
  8
0
 62
4
 10
2.90405470E+01
 20
1.17470782E+02
  0
VERTEX
  8
0
 62
4
 10
2.88750000E+01
 20
1.17574645E+02
  0
VERTEX
  8
0
 62
4
 10
2.87008911E+01
 20
1.17663904E+02
  0
VERTEX
  8
0
 62
4
 10
2.85195453E+01
 20
1.17737878E+02
  0
VERTEX
  8
0
 62
4
 10
2.83323429E+01
 20
1.17796006E+02
  0
VERTEX
  8
0
 62
4
 10
2.81407084E+01
 20
1.17837845E+02
  0
VERTEX
  8
0
 62
4
 10
2.79461004E+01
 20
1.17863077E+02
  0
VERTEX
  8
0
 62
4
 10
2.77500000E+01
 20
1.17871508E+02
  0
VERTEX
  8
0
 62
4
 10
2.75538996E+01
 20
1.17863077E+02
  0
VERTEX
  8
0
 62
4
 10
2.73592916E+01
 20
1.17837845E+02
  0
VERTEX
  8
0
 62
4
 10
2.71676572E+01
 20
1.17796006E+02
  0
VERTEX
  8
0
 62
4
 10
2.69804547E+01
 20
1.17737878E+02
  0
VERTEX
  8
0
 62
4
 10
2.67991089E+01
 20
1.17663904E+02
  0
VERTEX
  8
0
 62
4
 10
2.66250000E+01
 20
1.17574645E+02
  0
VERTEX
  8
0
 62
4
 10
2.64594530E+01
 20
1.17470782E+02
  0
VERTEX
  8
0
 62
4
 10
2.63037279E+01
 20
1.17353106E+02
  0
VERTEX
  8
0
 62
4
 10
2.61590097E+01
 20
1.17222511E+02
  0
VERTEX
  8
0
 62
4
 10
2.60264000E+01
 20
1.17079991E+02
  0
VERTEX
  8
0
 62
4
 10
2.59069079E+01
 20
1.16926632E+02
  0
VERTEX
  8
0
 62
4
 10
2.58014428E+01
 20
1.16763600E+02
  0
VERTEX
  8
0
 62
4
 10
2.57108075E+01
 20
1.16592136E+02
  0
VERTEX
  8
0
 62
4
 10
2.56356916E+01
 20
1.16413545E+02
  0
VERTEX
  8
0
 62
4
 10
2.55766669E+01
 20
1.16229187E+02
  0
VERTEX
  8
0
 62
4
 10
2.55341826E+01
 20
1.16040464E+02
  0
VERTEX
  8
0
 62
4
 10
2.55085619E+01
 20
1.15848812E+02
  0
VERTEX
  8
0
 62
4
 10
2.55000000E+01
 20
1.15655691E+02
  0
SEQEND
  8
0
  0
LINE
  8
0
 62
4
 10
2.02500000E+01
 20
1.11647001E+02
 11
3.52500000E+01
 21
1.11647001E+02
  0
LINE
  8
0
 62
4
 10
2.02500000E+01
 20
1.11716460E+02
 11
3.52500000E+01
 21
1.11716460E+02
  0
LINE
  8
0
 62
4
 10
2.02500000E+01
 20
1.04260943E+02
 11
3.52500000E+01
 21
1.04260943E+02
  0
LINE
  8
0
 62
4
 10
5.24999999E+00
 20
9.25208656E+01
 11
2.02500000E+01
 21
9.25208656E+01
  0
LINE
  8
0
 62
4
 10
6.41156398E+00
 20
1.02897014E+02
 11
1.89907473E+01
 21
1.02897014E+02
  0
LINE
  8
0
 62
4
 10
5.24999999E+00
 20
1.18871789E+02
 11
2.02500000E+01
 21
1.18871789E+02
  0
LINE
  8
0
 62
4
 10
5.24999999E+00
 20
1.20087326E+02
 11
3.52500000E+01
 21
1.20087326E+02
  0
LINE
  8
0
 62
4
 10
5.24999999E+00
 20
1.21875902E+02
 11
3.52500000E+01
 21
1.21875902E+02
  0
LINE
  8
0
  6
CENTER
 62
6
 10
3.13245969E+01
 20
1.15655691E+02
 11
2.41754031E+01
 21
1.15655691E+02
  0
LINE
  8
0
  6
CENTER
 62
6
 10
2.77500000E+01
 20
1.19230288E+02
 11
2.77500000E+01
 21
1.12081094E+02
  0
LINE
  8
0
 62
4
 10
3.52500000E+01
 20
1.21875902E+02
 11
3.52500000E+01
 21
1.04260943E+02
  0
LINE
  8
0
 62
4
 10
5.25000000E+00
 20
1.21875902E+02
 11
5.25000000E+00
 21
9.25208656E+01
  0
LINE
  8
0
 62
4
 10
2.02500000E+01
 20
1.20087326E+02
 11
2.02500000E+01
 21
9.25208656E+01
  0
LINE
  8
0
  6
CENTER
 62
6
 10
1.92500000E+01
 20
9.76996244E+01
 11
1.42500000E+01
 21
9.76996244E+01
  0
LINE
  8
0
  6
CENTER
 62
6
 10
1.67500000E+01
 20
1.00199624E+02
 11
1.67500000E+01
 21
9.51996244E+01
  0
LINE
  8
0
  6
CENTER
 62
6
 10
8.75000000E+00
 20
1.00199624E+02
 11
8.75000000E+00
 21
9.51996244E+01
  0
LINE
  8
0
  6
CENTER
 62
6
 10
1.12500000E+01
 20
9.76996244E+01
 11
6.25000000E+00
 21
9.76996244E+01
  0
LINE
  8
0
 62
4
 10
-3.02500000E+01
 20
1.11176228E+02
 11
-3.02500000E+01
 21
1.07103786E+02
  0
LINE
  8
0
 62
4
 10
-5.37500000E+01
 20
1.21875902E+02
 11
-5.37500000E+01
 21
1.11176228E+02
  0
LINE
  8
0
 62
4
 10
-2.37500000E+01
 20
1.05369449E+02
 11
-2.37500000E+01
 21
1.07359316E+02
  0
LINE
  8
0
 62
7
 10
5.25000000E+00
 20
1.04519459E+02
 11
-6.42499695E+01
 21
1.04519459E+02
  0
LINE
  8
0
 62
7
 10
5.25000000E+00
 20
1.05369449E+02
 11
-6.42500000E+01
 21
1.05369449E+02
  0
LINE
  8
0
 62
7
 10
5.25000000E+00
 20
9.92194708E+01
 11
-6.42500000E+01
 21
9.92194708E+01
  0
CIRCLE
  8
0
 62
7
 10
-2.15249969E+02
 20
1.01869465E+02
 40
2.45850000E+00
  0
CIRCLE
  8
0
 62
7
 10
-2.15249969E+02
 20
6.48694647E+01
 40
2.45850000E+00
  0
CIRCLE
  8
0
 62
7
 10
-2.52249969E+02
 20
6.48694647E+01
 40
2.45850000E+00
  0
CIRCLE
  8
0
 62
7
 10
-2.52249969E+02
 20
1.01869465E+02
 40
2.45850000E+00
  0
LINE
  8
0
  6
CENTER
 62
2
 10
-2.15249908E+02
 20
1.10376118E+02
 11
-2.15249908E+02
 21
9.54549749E+01
  0
LINE
  8
0
 62
7
 10
-2.08749969E+02
 20
1.05369495E+02
 11
-2.08749969E+02
 21
6.13694494E+01
  0
LINE
  8
0
 62
7
 10
-2.55750031E+02
 20
1.08369495E+02
 11
-2.11749969E+02
 21
1.08369495E+02
  0
LINE
  8
0
 62
7
 10
-2.09249969E+02
 20
1.05369434E+02
 11
-2.09249969E+02
 21
6.13694494E+01
  0
LINE
  8
0
 62
7
 10
-2.12749969E+02
 20
8.43694647E+01
 11
-2.16868011E+02
 21
8.43694647E+01
  0
LINE
  8
0
 62
7
 10
-2.20020171E+02
 20
9.56852728E+01
 11
-2.21105648E+02
 21
9.45997966E+01
  0
LINE
  8
0
 62
7
 10
-2.32749969E+02
 20
1.04369465E+02
 11
-2.32749969E+02
 21
1.00251407E+02
  0
LINE
  8
0
 62
7
 10
-2.21434331E+02
 20
9.70994541E+01
 11
-2.22519796E+02
 21
9.60139887E+01
  0
LINE
  8
0
 62
7
 10
-2.11749969E+02
 20
8.83694952E+01
 11
-2.11749969E+02
 21
7.83694342E+01
  0
LINE
  8
0
 62
7
 10
-2.38750031E+02
 20
1.05369495E+02
 11
-2.28749969E+02
 21
1.05369495E+02
  0
LINE
  8
0
  6
CENTER
 62
2
 10
-2.60839874E+02
 20
1.01869541E+02
 11
-2.46173004E+02
 21
1.01869541E+02
  0
LINE
  8
0
  6
CENTER
 62
2
 10
-2.52249969E+02
 20
1.10272114E+02
 11
-2.52249969E+02
 21
9.39851263E+01
  0
LINE
  8
0
 62
7
 10
-2.58750031E+02
 20
1.05369495E+02
 11
-2.58750031E+02
 21
6.13694494E+01
  0
LINE
  8
0
 62
7
 10
-2.58249969E+02
 20
1.05369495E+02
 11
-2.58249969E+02
 21
6.13694799E+01
  0
LINE
  8
0
 62
7
 10
-2.55749969E+02
 20
1.07869495E+02
 11
-2.11749969E+02
 21
1.07869434E+02
  0
LINE
  8
0
  6
CENTER
 62
2
 10
-2.52250092E+02
 20
5.62464636E+01
 11
-2.52250092E+02
 21
7.28889654E+01
  0
LINE
  8
0
  6
CENTER
 62
2
 10
-2.60694672E+02
 20
6.48694799E+01
 11
-2.45882599E+02
 21
6.48694799E+01
  0
LINE
  8
0
 62
7
 10
-2.55750031E+02
 20
5.83694494E+01
 11
-2.11749969E+02
 21
5.83694494E+01
  0
LINE
  8
0
 62
7
 10
-2.55750031E+02
 20
5.88694799E+01
 11
-2.11750031E+02
 21
5.88694494E+01
  0
LINE
  8
0
 62
7
 10
-2.34749969E+02
 20
1.04369465E+02
 11
-2.34749969E+02
 21
1.00251423E+02
  0
LINE
  8
0
 62
7
 10
-2.54749969E+02
 20
8.43694799E+01
 11
-2.50631927E+02
 21
8.43694799E+01
  0
LINE
  8
0
 62
7
 10
-2.47479917E+02
 20
9.56851629E+01
 11
-2.46394440E+02
 21
9.45996869E+01
  0
LINE
  8
0
 62
7
 10
-2.46065746E+02
 20
9.70994200E+01
 11
-2.44980270E+02
 21
9.60139439E+01
  0
LINE
  8
0
 62
7
 10
-2.55749969E+02
 20
8.83694952E+01
 11
-2.55749969E+02
 21
7.83694342E+01
  0
LINE
  8
0
 62
7
 10
-2.54749969E+02
 20
8.23694799E+01
 11
-2.50631927E+02
 21
8.23694799E+01
  0
LINE
  8
0
 62
7
 10
-2.47480042E+02
 20
7.10538779E+01
 11
-2.46394566E+02
 21
7.21393543E+01
  0
LINE
  8
0
 62
7
 10
-2.34750031E+02
 20
6.23694952E+01
 11
-2.34750031E+02
 21
6.64875372E+01
  0
LINE
  8
0
 62
7
 10
-2.46065828E+02
 20
6.96397077E+01
 11
-2.44980363E+02
 21
7.07251733E+01
  0
LINE
  8
0
 62
7
 10
-2.38750031E+02
 20
6.13694342E+01
 11
-2.28749969E+02
 21
6.13694342E+01
  0
LINE
  8
0
 62
7
 10
-2.32750031E+02
 20
6.23694952E+01
 11
-2.32750031E+02
 21
6.64875372E+01
  0
LINE
  8
0
 62
7
 10
-2.21434331E+02
 20
6.96394471E+01
 11
-2.22519807E+02
 21
7.07249233E+01
  0
LINE
  8
0
 62
7
 10
-2.12749969E+02
 20
8.23694494E+01
 11
-2.16868011E+02
 21
8.23694494E+01
  0
LINE
  8
0
 62
7
 10
-2.20020182E+02
 20
7.10537255E+01
 11
-2.21105615E+02
 21
7.21391586E+01
  0
LINE
  8
0
  6
CENTER
 62
2
 10
-2.33749969E+02
 20
1.11864460E+02
 11
-2.33749969E+02
 21
5.40682104E+01
  0
LINE
  8
0
  6
CENTER
 62
2
 10
-2.15250031E+02
 20
5.64814108E+01
 11
-2.15250031E+02
 21
7.24458044E+01
  0
LINE
  8
0
 62
7
 10
-2.53749969E+02
 20
1.08369495E+02
 11
-2.53749969E+02
 21
1.07869495E+02
  0
LINE
  8
0
 62
7
 10
-2.13749969E+02
 20
1.08369495E+02
 11
-2.13749969E+02
 21
1.07869434E+02
  0
LINE
  8
0
 62
7
 10
-2.53749969E+02
 20
5.88694799E+01
 11
-2.53749969E+02
 21
5.83694494E+01
  0
LINE
  8
0
 62
7
 10
-2.13749969E+02
 20
5.88694494E+01
 11
-2.13749969E+02
 21
5.83694494E+01
  0
LINE
  8
0
 62
7
 10
-2.44463165E+02
 20
6.53694799E+01
 11
-2.42500031E+02
 21
6.53694799E+01
  0
LINE
  8
0
 62
7
 10
-2.23038055E+02
 20
6.53693884E+01
 11
-2.24999969E+02
 21
6.53693884E+01
  0
LINE
  8
0
 62
7
 10
-2.15750031E+02
 20
7.26568640E+01
 11
-2.15750031E+02
 21
7.46194342E+01
  0
LINE
  8
0
 62
7
 10
-2.15749908E+02
 20
9.40807684E+01
 11
-2.15749908E+02
 21
9.21194952E+01
  0
LINE
  8
0
 62
7
 10
-2.44461700E+02
 20
1.01369556E+02
 11
-2.42500031E+02
 21
1.01369556E+02
  0
LINE
  8
0
 62
7
 10
-2.51749969E+02
 20
9.40816229E+01
 11
-2.51749969E+02
 21
9.21194952E+01
  0
LINE
  8
0
 62
7
 10
-2.51749969E+02
 20
7.26573065E+01
 11
-2.51749969E+02
 21
7.46194342E+01
  0
LINE
  8
0
  6
CENTER
 62
2
 10
-2.21631378E+02
 20
6.48694799E+01
 11
-2.07109711E+02
 21
6.48694799E+01
  0
LINE
  8
0
  6
CENTER
 62
2
 10
-2.21631378E+02
 20
1.01869541E+02
 11
-2.07109711E+02
 21
1.01869541E+02
  0
LINE
  8
0
  6
CENTER
 62
2
 10
-2.04777649E+02
 20
8.33694647E+01
 11
-2.63453766E+02
 21
8.33694647E+01
  0
LINE
  8
0
 62
7
 10
-2.23136932E+02
 20
1.01398655E+02
 11
-2.25167023E+02
 21
1.01398655E+02
  0
LINE
  8
0
  6
CENTER
 62
2
 10
-2.37750031E+02
 20
1.10121860E+02
 11
-2.37750031E+02
 21
9.89412573E+01
  0
ARC
  8
0
 62
7
 10
-2.11749969E+02
 20
1.05369434E+02
 40
2.50000000E+00
 50
0.00000000E+00
 51
8.99999818E+01
  0
CIRCLE
  8
0
 62
7
 10
-2.15249908E+02
 20
1.01869465E+02
 40
5.00000000E+00
  0
CIRCLE
  8
0
 62
7
 10
-2.15249908E+02
 20
1.01869465E+02
 40
4.50000000E+00
  0
ARC
  8
0
 62
7
 10
-2.22141388E+02
 20
9.78064459E+01
 40
1.00000000E+00
 50
3.15000624E+02
 51
3.05224488E+01
  0
ARC
  8
0
 62
7
 10
-2.12749969E+02
 20
8.53694647E+01
 40
1.00000000E+00
 50
2.69999963E+02
 51
0.00000000E+00
  0
ARC
  8
0
 62
7
 10
-2.16868011E+02
 20
8.53694647E+01
 40
1.00000000E+00
 50
1.86756090E+02
 51
2.69999963E+02
  0
ARC
  8
0
 62
7
 10
-2.19312958E+02
 20
9.49780310E+01
 40
1.00000000E+00
 50
5.94777518E+01
 51
1.34999345E+02
  0
ARC
  8
0
 62
7
 10
-2.31749969E+02
 20
1.04369465E+02
 40
1.00000000E+00
 50
8.99999818E+01
 51
1.79999964E+02
  0
ARC
  8
0
 62
7
 10
-2.31749969E+02
 20
1.00251407E+02
 40
1.00000000E+00
 50
1.79999964E+02
 51
2.63243741E+02
  0
ARC
  8
0
 62
7
 10
-2.20398407E+02
 20
9.38925512E+01
 40
1.00000000E+00
 50
1.34999959E+02
 51
2.18243614E+02
  0
ARC
  8
0
 62
7
 10
-2.23226837E+02
 20
9.67209814E+01
 40
1.00000000E+00
 50
2.31755794E+02
 51
3.14999380E+02
  0
ARC
  8
0
 62
7
 10
-2.11749969E+02
 20
1.05369495E+02
 40
3.00000000E+00
 50
0.00000000E+00
 51
8.99999818E+01
  0
ARC
  8
0
 62
7
 10
-2.12749969E+02
 20
8.83694952E+01
 40
1.00000000E+00
 50
0.00000000E+00
 51
8.99999818E+01
  0
ARC
  8
0
 62
7
 10
-2.12749969E+02
 20
9.23694952E+01
 40
3.00000000E+00
 50
1.77973583E+02
 51
2.69999946E+02
  0
ARC
  8
0
 62
7
 10
-2.16747467E+02
 20
9.40109289E+01
 40
1.00000000E+00
 50
3.57973879E+02
 51
7.92109058E+01
  0
ARC
  8
0
 62
7
 10
-2.15249969E+02
 20
1.01869526E+02
 40
7.00000000E+00
 50
1.90788702E+02
 51
2.59211358E+02
  0
ARC
  8
0
 62
7
 10
-2.23108551E+02
 20
1.00372028E+02
 40
1.00000000E+00
 50
1.07884614E+01
 51
9.20251808E+01
  0
ARC
  8
0
 62
7
 10
-2.24749969E+02
 20
1.04369526E+02
 40
3.00000000E+00
 50
1.80000569E+02
 51
2.72025811E+02
  0
ARC
  8
0
 62
7
 10
-2.28749969E+02
 20
1.04369495E+02
 40
1.00000000E+00
 50
0.00000000E+00
 51
8.99999818E+01
  0
ARC
  8
0
 62
7
 10
-2.55750031E+02
 20
6.13694799E+01
 40
2.50000000E+00
 50
1.79999964E+02
 51
2.69999946E+02
  0
ARC
  8
0
 62
7
 10
-2.55749969E+02
 20
1.05369495E+02
 40
2.50000000E+00
 50
8.99999818E+01
 51
1.79999964E+02
  0
ARC
  8
0
 62
7
 10
-2.55750031E+02
 20
1.05369495E+02
 40
3.00000000E+00
 50
8.99999818E+01
 51
1.79999964E+02
  0
ARC
  8
0
 62
7
 10
-2.55750031E+02
 20
6.13694494E+01
 40
3.00000000E+00
 50
1.79999964E+02
 51
2.69999946E+02
  0
CIRCLE
  8
0
 62
7
 10
-2.52249969E+02
 20
1.01869526E+02
 40
4.50000000E+00
  0
CIRCLE
  8
0
 62
7
 10
-2.52249969E+02
 20
1.01869526E+02
 40
5.00000000E+00
  0
CIRCLE
  8
0
 62
7
 10
-2.52250031E+02
 20
6.48694647E+01
 40
4.50000000E+00
  0
CIRCLE
  8
0
 62
7
 10
-2.52250031E+02
 20
6.48694647E+01
 40
5.00000000E+00
  0
ARC
  8
0
 62
7
 10
-2.54749969E+02
 20
8.53694647E+01
 40
1.00000000E+00
 50
1.79999964E+02
 51
2.69999946E+02
  0
ARC
  8
0
 62
7
 10
-2.35749969E+02
 20
1.04369465E+02
 40
1.00000000E+00
 50
3.59999959E+02
 51
8.99999956E+01
  0
ARC
  8
0
 62
7
 10
-2.45358551E+02
 20
9.78065069E+01
 40
1.00000000E+00
 50
1.49477747E+02
 51
2.24999340E+02
  0
ARC
  8
0
 62
7
 10
-2.52249969E+02
 20
1.01869526E+02
 40
7.00000000E+00
 50
2.80788623E+02
 51
3.49211279E+02
  0
ARC
  8
0
 62
7
 10
-2.48186981E+02
 20
9.49780767E+01
 40
1.00000000E+00
 50
4.50006194E+01
 51
1.20522431E+02
  0
ARC
  8
0
 62
7
 10
-2.35749969E+02
 20
1.00251423E+02
 40
1.00000000E+00
 50
2.76756086E+02
 51
3.59999959E+02
  0
ARC
  8
0
 62
7
 10
-2.44273102E+02
 20
9.67210577E+01
 40
1.00000000E+00
 50
2.24999972E+02
 51
3.08243613E+02
  0
ARC
  8
0
 62
7
 10
-2.47101532E+02
 20
9.38926275E+01
 40
1.00000000E+00
 50
3.21755790E+02
 51
4.49993763E+01
  0
ARC
  8
0
 62
7
 10
-2.50631927E+02
 20
8.53694647E+01
 40
1.00000000E+00
 50
2.69999963E+02
 51
3.53243768E+02
  0
ARC
  8
0
 62
7
 10
-2.45358612E+02
 20
6.89324835E+01
 40
1.00000000E+00
 50
1.35000615E+02
 51
2.10522426E+02
  0
ARC
  8
0
 62
7
 10
-2.54749969E+02
 20
8.13694647E+01
 40
1.00000000E+00
 50
8.99999549E+01
 51
1.79999991E+02
  0
ARC
  8
0
 62
7
 10
-2.50631927E+02
 20
8.13694647E+01
 40
1.00000000E+00
 50
6.75608163E+00
 51
8.99999549E+01
  0
ARC
  8
0
 62
7
 10
-2.48187042E+02
 20
7.17608831E+01
 40
1.00000000E+00
 50
2.39477760E+02
 51
3.14999353E+02
  0
ARC
  8
0
 62
7
 10
-2.35749969E+02
 20
6.23694647E+01
 40
1.00000000E+00
 50
2.69999991E+02
 51
3.59999973E+02
  0
ARC
  8
0
 62
7
 10
-2.35749969E+02
 20
6.64875067E+01
 40
1.00000000E+00
 50
3.59999973E+02
 51
8.32437569E+01
  0
ARC
  8
0
 62
7
 10
-2.47101593E+02
 20
7.28463629E+01
 40
1.00000000E+00
 50
3.14999968E+02
 51
3.82436225E+01
  0
ARC
  8
0
 62
7
 10
-2.44273163E+02
 20
7.00179327E+01
 40
1.00000000E+00
 50
5.17557857E+01
 51
1.34999372E+02
  0
ARC
  8
0
 62
7
 10
-2.54749969E+02
 20
9.23694952E+01
 40
3.00000000E+00
 50
2.70000018E+02
 51
0.00000000E+00
  0
ARC
  8
0
 62
7
 10
-2.42750031E+02
 20
1.04369526E+02
 40
3.00000000E+00
 50
2.67974177E+02
 51
3.59999417E+02
  0
ARC
  8
0
 62
7
 10
-2.54749969E+02
 20
8.83694952E+01
 40
1.00000000E+00
 50
8.99999818E+01
 51
1.79999964E+02
  0
ARC
  8
0
 62
7
 10
-2.50752472E+02
 20
9.40109289E+01
 40
1.00000000E+00
 50
1.00789058E+02
 51
1.82026085E+02
  0
ARC
  8
0
 62
7
 10
-2.38750031E+02
 20
1.04369495E+02
 40
1.00000000E+00
 50
8.99999818E+01
 51
1.79999964E+02
  0
ARC
  8
0
 62
7
 10
-2.44391388E+02
 20
1.00372028E+02
 40
1.00000000E+00
 50
8.79747829E+01
 51
1.69211502E+02
  0
ARC
  8
0
 62
7
 10
-2.50752472E+02
 20
7.27280004E+01
 40
1.00000000E+00
 50
1.77973898E+02
 51
2.59210925E+02
  0
ARC
  8
0
 62
7
 10
-2.52249969E+02
 20
6.48694036E+01
 40
7.00000000E+00
 50
1.07887209E+01
 51
7.92113774E+01
  0
ARC
  8
0
 62
7
 10
-2.44391388E+02
 20
6.63669012E+01
 40
1.00000000E+00
 50
1.90788497E+02
 51
2.72025217E+02
  0
ARC
  8
0
 62
7
 10
-2.42750031E+02
 20
6.23694036E+01
 40
3.00000000E+00
 50
5.82842824E-04
 51
9.20258231E+01
  0
ARC
  8
0
 62
7
 10
-2.38750031E+02
 20
6.23694342E+01
 40
1.00000000E+00
 50
1.80000036E+02
 51
2.70000018E+02
  0
ARC
  8
0
 62
7
 10
-2.11750031E+02
 20
6.13694494E+01
 40
2.50000000E+00
 50
2.69999963E+02
 51
0.00000000E+00
  0
ARC
  8
0
 62
7
 10
-2.11749969E+02
 20
6.13694494E+01
 40
3.00000000E+00
 50
2.69999963E+02
 51
0.00000000E+00
  0
CIRCLE
  8
0
 62
7
 10
-2.15249969E+02
 20
6.48694036E+01
 40
4.50000000E+00
  0
CIRCLE
  8
0
 62
7
 10
-2.15249969E+02
 20
6.48694036E+01
 40
5.00000000E+00
  0
ARC
  8
0
 62
7
 10
-2.19313019E+02
 20
7.17608526E+01
 40
1.00000000E+00
 50
2.25000628E+02
 51
3.00522440E+02
  0
ARC
  8
0
 62
7
 10
-2.31749969E+02
 20
6.23694647E+01
 40
1.00000000E+00
 50
1.79999951E+02
 51
2.70000001E+02
  0
ARC
  8
0
 62
7
 10
-2.31749969E+02
 20
6.64875067E+01
 40
1.00000000E+00
 50
9.67560773E+01
 51
1.79999951E+02
  0
ARC
  8
0
 62
7
 10
-2.22141388E+02
 20
6.89324224E+01
 40
1.00000000E+00
 50
3.29477756E+02
 51
4.49993490E+01
  0
ARC
  8
0
 62
7
 10
-2.12749969E+02
 20
8.13694647E+01
 40
1.00000000E+00
 50
3.59999986E+02
 51
8.99999681E+01
  0
ARC
  8
0
 62
7
 10
-2.16868011E+02
 20
8.13694647E+01
 40
1.00000000E+00
 50
8.99999681E+01
 51
1.73243759E+02
  0
ARC
  8
0
 62
7
 10
-2.23226898E+02
 20
7.00178717E+01
 40
1.00000000E+00
 50
4.49999637E+01
 51
1.28243618E+02
  0
ARC
  8
0
 62
7
 10
-2.20398468E+02
 20
7.28463018E+01
 40
1.00000000E+00
 50
1.41755781E+02
 51
2.24999368E+02
  0
ARC
  8
0
 62
7
 10
-2.28749969E+02
 20
6.23694342E+01
 40
1.00000000E+00
 50
2.70000018E+02
 51
0.00000000E+00
  0
ARC
  8
0
 62
7
 10
-2.24749969E+02
 20
6.23694036E+01
 40
3.00000000E+00
 50
8.79741887E+01
 51
1.79999431E+02
  0
ARC
  8
0
 62
7
 10
-2.23108551E+02
 20
6.63669012E+01
 40
1.00000000E+00
 50
2.67974819E+02
 51
3.49211538E+02
  0
ARC
  8
0
 62
7
 10
-2.15249969E+02
 20
6.48694036E+01
 40
7.00000000E+00
 50
1.00788641E+02
 51
1.69211298E+02
  0
ARC
  8
0
 62
7
 10
-2.16747467E+02
 20
7.27280004E+01
 40
1.00000000E+00
 50
2.80789094E+02
 51
2.02612098E+00
  0
ARC
  8
0
 62
7
 10
-2.12749969E+02
 20
7.43694342E+01
 40
3.00000000E+00
 50
9.00000369E+01
 51
1.82026399E+02
  0
ARC
  8
0
 62
7
 10
-2.12749969E+02
 20
7.83694342E+01
 40
1.00000000E+00
 50
2.70000018E+02
 51
0.00000000E+00
  0
CIRCLE
  8
0
 62
7
 10
-2.33749969E+02
 20
8.33694647E+01
 40
1.60000000E+01
  0
CIRCLE
  8
0
 62
7
 10
-2.33749969E+02
 20
8.33694647E+01
 40
1.55000010E+01
  0
CIRCLE
  8
0
 62
7
 10
-2.33749969E+02
 20
8.33694647E+01
 40
1.50000000E+01
  0
ARC
  8
0
 62
7
 10
-2.54749969E+02
 20
7.43694342E+01
 40
3.00000000E+00
 50
3.57973625E+02
 51
8.99999818E+01
  0
ARC
  8
0
 62
7
 10
-2.54749969E+02
 20
7.83694342E+01
 40
1.00000000E+00
 50
1.79999981E+02
 51
2.70000018E+02
  0
CIRCLE
  8
0
 62
2
 10
-2.52249969E+02
 20
1.01869541E+02
 40
3.00000000E+00
  0
CIRCLE
  8
0
 62
2
 10
-2.52250092E+02
 20
6.48694799E+01
 40
3.00000000E+00
  0
CIRCLE
  8
0
 62
2
 10
-2.15250031E+02
 20
6.48694799E+01
 40
3.00000000E+00
  0
CIRCLE
  8
0
 62
2
 10
-2.15249908E+02
 20
1.01869541E+02
 40
3.00000000E+00
  0
CIRCLE
  8
0
 62
7
 10
-2.33749969E+02
 20
8.33694647E+01
 40
6.99998474E+00
  0
CIRCLE
  8
0
 62
2
 10
-2.33749969E+02
 20
8.33694647E+01
 40
6.17999268E+00
  0
CIRCLE
  8
0
 62
7
 10
-2.33749969E+02
 20
8.33694647E+01
 40
5.50000000E+00
  0
CIRCLE
  8
0
 62
4
 10
-2.33749969E+02
 20
8.33694647E+01
 40
1.10000000E+01
  0
LINE
  8
0
 62
4
 10
-2.33749969E+02
 20
9.60711706E+01
 11
-2.44749969E+02
 21
8.97203176E+01
  0
LINE
  8
0
 62
4
 10
-2.44749969E+02
 20
8.97203176E+01
 11
-2.44749969E+02
 21
7.70186117E+01
  0
LINE
  8
0
 62
4
 10
-2.44749969E+02
 20
7.70186117E+01
 11
-2.33749969E+02
 21
7.06677587E+01
  0
LINE
  8
0
 62
4
 10
-2.33749969E+02
 20
7.06677587E+01
 11
-2.22749969E+02
 21
7.70186117E+01
  0
LINE
  8
0
 62
4
 10
-2.22749969E+02
 20
7.70186117E+01
 11
-2.22749969E+02
 21
8.97203176E+01
  0
LINE
  8
0
 62
4
 10
-2.22749969E+02
 20
8.97203176E+01
 11
-2.33749969E+02
 21
9.60711706E+01
  0
LINE
  8
0
  6
DASHED
 62
4
 10
-2.33749939E+02
 20
1.10208729E+02
 11
-2.34166455E+02
 21
1.10282172E+02
  0
LINE
  8
0
  6
DASHED
 62
4
 10
-2.33305871E+02
 20
1.14445991E+02
 11
-2.33418602E+02
 21
1.14465868E+02
  0
ARC
  8
0
 62
4
 10
-2.22448905E+02
 20
1.15984065E+02
 40
1.18100000E+01
 50
1.57172490E+02
 51
1.63117791E+02
  0
LINE
  8
0
 62
4
 10
-2.32433194E+02
 20
1.09976551E+02
 11
-2.33749939E+02
 21
1.10208729E+02
  0
ARC
  8
0
  6
DASHED
 62
4
 10
-2.22552758E+02
 20
1.12456241E+02
 40
1.18100000E+01
 50
1.67900933E+02
 51
1.70000000E+02
  0
ARC
  8
0
  6
DASHED
 62
4
 10
-2.22555445E+02
 20
1.12441000E+02
 40
1.18100000E+01
 50
1.70000000E+02
 51
1.90532699E+02
  0
ARC
  8
0
  6
DASHED
 62
4
 10
-2.33245745E+02
 20
1.15450815E+02
 40
1.00000000E+00
 50
1.82827510E+02
 51
2.60000000E+02
  0
LINE
  8
0
 62
4
 10
-2.32305770E+02
 20
1.14269646E+02
 11
-2.33305871E+02
 21
1.14445991E+02
  0
ARC
  8
0
  6
DASHED
 62
4
 10
-2.22448905E+02
 20
1.15984065E+02
 40
1.18100000E+01
 50
1.63117791E+02
 51
1.82827510E+02
  0
LINE
  8
0
 62
4
 10
-2.31124962E+02
 20
1.20966338E+02
 11
-2.32237795E+02
 21
1.21162561E+02
  0
ARC
  8
0
 62
4
 10
-2.32412233E+02
 20
1.20177893E+02
 40
1.00000000E+00
 50
7.99999999E+01
 51
1.57172490E+02
  0
LINE
  8
0
 62
4
 10
-2.05323600E+02
 20
9.51944458E+01
 11
-2.04629007E+02
 21
9.91336768E+01
  0
LINE
  8
0
 62
6
 10
-2.05236775E+02
 20
9.56868497E+01
 11
-2.08274537E+02
 21
9.62224890E+01
  0
LINE
  8
0
 62
6
 10
-2.04715831E+02
 20
9.86412730E+01
 11
-2.07753593E+02
 21
9.91769123E+01
  0
LINE
  8
0
 62
4
 10
-2.05323600E+02
 20
9.51944458E+01
 11
-2.08361361E+02
 21
9.57300852E+01
  0
LINE
  8
0
 62
4
 10
-2.04629007E+02
 20
9.91336768E+01
 11
-2.07666769E+02
 21
9.96693162E+01
  0
LINE
  8
0
  6
CENTER
 62
6
 10
-2.27462126E+02
 20
1.08338447E+02
 11
-2.33370972E+02
 21
1.09380337E+02
  0
LINE
  8
0
  6
CENTER
 62
6
 10
-2.29895604E+02
 20
1.11813815E+02
 11
-2.30937493E+02
 21
1.05904969E+02
  0
LINE
  8
0
 62
4
 10
-2.32038868E+02
 20
1.11176304E+02
 11
-2.32533784E+02
 21
1.08369495E+02
  0
LINE
  8
0
 62
4
 10
-2.28099637E+02
 20
1.10481711E+02
 11
-2.32038868E+02
 21
1.11176304E+02
  0
LINE
  8
0
 62
4
 10
-2.20887708E+02
 20
1.11647077E+02
 11
-2.21465634E+02
 21
1.08369495E+02
  0
LINE
  8
0
 62
4
 10
-2.29949141E+02
 20
1.21875979E+02
 11
-2.19805622E+02
 21
1.20087402E+02
  0
LINE
  8
0
 62
4
 10
-2.19805622E+02
 20
1.20087402E+02
 11
-2.21281631E+02
 21
1.11716537E+02
  0
LINE
  8
0
 62
4
 10
-2.28082272E+02
 20
1.10580192E+02
 11
-2.28574676E+02
 21
1.10667016E+02
  0
LINE
  8
0
 62
4
 10
-2.28082272E+02
 20
1.10580192E+02
 11
-2.28472078E+02
 21
1.08369495E+02
  0
LINE
  8
0
 62
4
 10
-2.28899140E+02
 20
1.11130398E+02
 11
-2.31755082E+02
 21
1.11633978E+02
  0
LINE
  8
0
 62
4
 10
-2.28574676E+02
 20
1.10667016E+02
 11
-2.28899140E+02
 21
1.11130398E+02
  0
LINE
  8
0
  6
CENTER
 62
6
 10
-2.09814732E+02
 20
1.13756319E+02
 11
-2.31899105E+02
 21
1.17650390E+02
  0
LINE
  8
0
  6
CENTER
 62
6
 10
-2.19656368E+02
 20
1.11937672E+02
 11
-2.32506873E+02
 21
1.14203563E+02
  0
LINE
  8
0
  6
CENTER
 62
6
 10
-2.13681960E+02
 20
9.86991035E+01
 11
-2.06215956E+02
 21
9.73826456E+01
  0
ARC
  8
0
 62
4
 10
-2.20876051E+02
 20
1.11137309E+02
 40
5.00000000E-01
 50
3.50000000E+02
 51
7.99999999E+01
  0
LINE
  8
0
 62
4
 10
-2.20383647E+02
 20
1.11050485E+02
 11
-2.20856378E+02
 21
1.08369495E+02
  0
LINE
  8
0
 62
4
 10
-2.21281631E+02
 20
1.11716537E+02
 11
-2.20789227E+02
 21
1.11629712E+02
  0
ARC
  8
0
 62
4
 10
-2.10185869E+02
 20
9.40209419E+01
 40
1.50000000E+00
 50
3.43189498E+02
 51
3.50000000E+02
  0
LINE
  8
0
 62
4
 10
-2.12911967E+02
 20
1.18871865E+02
 11
-2.07097625E+02
 21
1.02897091E+02
  0
LINE
  8
0
 62
4
 10
-2.19805622E+02
 20
1.20087402E+02
 11
-2.12911967E+02
 21
1.18871865E+02
  0
LINE
  8
0
 62
4
 10
-2.07097625E+02
 20
1.02897091E+02
 11
-2.08708658E+02
 21
9.37604697E+01
  0
ARC
  8
0
 62
4
 10
-2.30416549E+02
 20
1.08859392E+02
 40
1.50000000E+00
 50
3.40937591E+02
 51
1.99062409E+02
  0
ARC
  8
0
 62
4
 10
-2.30546785E+02
 20
1.08120786E+02
 40
3.00000000E-01
 50
5.59992305E+01
 51
1.24000769E+02
  0
CIRCLE
  8
0
 62
4
 10
-2.30286313E+02
 20
1.09597998E+02
 40
3.00000000E-01
  0
CIRCLE
  8
0
 62
4
 10
-2.30286313E+02
 20
1.09597998E+02
 40
5.00000000E-01
  0
ARC
  8
0
 62
4
 10
-2.30546785E+02
 20
1.08120786E+02
 40
5.00000000E-01
 50
2.98293252E+01
 51
1.50170675E+02
  0
LINE
  8
0
 62
4
 10
-2.31390421E+02
 20
1.13702074E+02
 11
-2.32375229E+02
 21
1.13875723E+02
  0
LINE
  8
0
 62
4
 10
-2.30070695E+02
 20
1.21186613E+02
 11
-2.31055503E+02
 21
1.21360261E+02
  0
LINE
  8
0
 62
4
 10
-2.32375229E+02
 20
1.13875723E+02
 11
-2.31055503E+02
 21
1.21360261E+02
  0
LINE
  8
0
 62
4
 10
-2.32433194E+02
 20
1.09976551E+02
 11
-2.31764648E+02
 21
1.13768061E+02
  0
LINE
  8
0
 62
4
 10
-2.32032919E+02
 20
1.10058286E+02
 11
-2.32407146E+02
 21
1.10124272E+02
  0
LINE
  8
0
 62
4
 10
-2.32032920E+02
 20
1.10058286E+02
 11
-2.29949141E+02
 21
1.21875979E+02
  0
LINE
  8
0
 62
4
 10
-2.35657971E+02
 20
1.11141574E+02
 11
-2.37550737E+02
 21
1.21875979E+02
  0
ARC
  8
0
 62
4
 10
-2.44944433E+02
 20
1.12441000E+02
 40
1.18100000E+01
 50
3.49467301E+02
 51
9.99999999E+00
  0
ARC
  8
0
 62
4
 10
-2.44947120E+02
 20
1.12456241E+02
 40
1.18100000E+01
 50
9.99999999E+00
 51
3.05326991E+01
  0
LINE
  8
0
 62
4
 10
-2.35066684E+02
 20
1.09976551E+02
 11
-2.33333423E+02
 21
1.10282172E+02
  0
LINE
  8
0
 62
4
 10
-2.36507964E+02
 20
1.18150455E+02
 11
-2.34774702E+02
 21
1.18456076E+02
  0
LINE
  8
0
 62
4
 10
-2.35269997E+02
 20
1.10093015E+02
 11
-2.35092731E+02
 21
1.10124272E+02
  0
LINE
  8
0
 62
4
 10
-2.36856144E+02
 20
1.17936748E+02
 11
-2.36481917E+02
 21
1.18002734E+02
  0
LINE
  8
0
 62
4
 10
-2.35066684E+02
 20
1.09976551E+02
 11
-2.36507964E+02
 21
1.18150455E+02
  0
LINE
  8
0
 62
4
 10
-2.35897383E+02
 20
1.18258117E+02
 11
-2.36444375E+02
 21
1.21360261E+02
  0
LINE
  8
0
 62
4
 10
-2.36374916E+02
 20
1.20966338E+02
 11
-2.35262083E+02
 21
1.21162561E+02
  0
ARC
  8
0
 62
4
 10
-2.45050973E+02
 20
1.15984065E+02
 40
1.18100000E+01
 50
3.57172490E+02
 51
2.28275100E+01
  0
ARC
  8
0
 62
4
 10
-2.35087645E+02
 20
1.20177893E+02
 40
1.00000000E+00
 50
2.28275100E+01
 51
9.99999999E+01
  0
ARC
  8
0
 62
4
 10
-2.34254133E+02
 20
1.15450815E+02
 40
1.00000000E+00
 50
3.28723662E+02
 51
3.57172490E+02
  0
LINE
  8
0
 62
4
 10
-2.37429183E+02
 20
1.21186613E+02
 11
-2.36444375E+02
 21
1.21360261E+02
  0
LINE
  8
0
  6
CENTER
 62
6
 10
-2.40037752E+02
 20
1.08338447E+02
 11
-2.34128906E+02
 21
1.09380337E+02
  0
LINE
  8
0
  6
CENTER
 62
6
 10
-2.37604274E+02
 20
1.11813815E+02
 11
-2.36562384E+02
 21
1.05904969E+02
  0
LINE
  8
0
 62
4
 10
-2.35461010E+02
 20
1.11176304E+02
 11
-2.34966094E+02
 21
1.08369495E+02
  0
LINE
  8
0
 62
4
 10
-2.39400241E+02
 20
1.10481711E+02
 11
-2.35461010E+02
 21
1.11176304E+02
  0
LINE
  8
0
 62
4
 10
-2.38397308E+02
 20
1.09775134E+02
 11
-2.36166719E+02
 21
1.10168447E+02
  0
LINE
  8
0
 62
4
 10
-2.39400241E+02
 20
1.10481711E+02
 11
-2.38397308E+02
 21
1.09775134E+02
  0
LINE
  8
0
 62
4
 10
-2.35461010E+02
 20
1.11176304E+02
 11
-2.36166719E+02
 21
1.10168447E+02
  0
LINE
  8
0
 62
4
 10
-2.38149456E+02
 20
1.08369495E+02
 11
-2.38397308E+02
 21
1.09775134E+02
  0
LINE
  8
0
 62
4
 10
-2.36166719E+02
 20
1.10168447E+02
 11
-2.35849515E+02
 21
1.08369495E+02
  0
LINE
  8
0
 62
4
 10
-2.46612170E+02
 20
1.11647077E+02
 11
-2.46034244E+02
 21
1.08369495E+02
  0
LINE
  8
0
 62
4
 10
-2.37550737E+02
 20
1.21875979E+02
 11
-2.47694256E+02
 21
1.20087402E+02
  0
LINE
  8
0
 62
4
 10
-2.47694256E+02
 20
1.20087402E+02
 11
-2.46218247E+02
 21
1.11716537E+02
  0
LINE
  8
0
 62
4
 10
-2.39417606E+02
 20
1.10580192E+02
 11
-2.38925202E+02
 21
1.10667016E+02
  0
LINE
  8
0
 62
4
 10
-2.39417606E+02
 20
1.10580192E+02
 11
-2.39027800E+02
 21
1.08369495E+02
  0
LINE
  8
0
 62
4
 10
-2.38600738E+02
 20
1.11130398E+02
 11
-2.35744796E+02
 21
1.11633978E+02
  0
LINE
  8
0
 62
4
 10
-2.38925202E+02
 20
1.10667016E+02
 11
-2.38600738E+02
 21
1.11130398E+02
  0
LINE
  8
0
  6
CENTER
 62
6
 10
-2.57685146E+02
 20
1.13756319E+02
 11
-2.35600773E+02
 21
1.17650390E+02
  0
LINE
  8
0
  6
CENTER
 62
6
 10
-2.47843510E+02
 20
1.11937672E+02
 11
-2.34993005E+02
 21
1.14203563E+02
  0
LINE
  8
0
  6
CENTER
 62
6
 10
-2.53408852E+02
 20
9.87712328E+01
 11
-2.60874857E+02
 21
9.74547748E+01
  0
ARC
  8
0
 62
4
 10
-2.46623827E+02
 20
1.11137309E+02
 40
5.00000000E-01
 50
9.99999999E+01
 51
1.90000000E+02
  0
LINE
  8
0
 62
4
 10
-2.47116231E+02
 20
1.11050485E+02
 11
-2.46643500E+02
 21
1.08369495E+02
  0
LINE
  8
0
 62
4
 10
-2.46218247E+02
 20
1.11716537E+02
 11
-2.46710651E+02
 21
1.11629712E+02
  0
ARC
  8
0
 62
4
 10
-2.57314009E+02
 20
9.40209419E+01
 40
1.50000000E+00
 50
1.90000000E+02
 51
1.96794373E+02
  0
LINE
  8
0
 62
4
 10
-2.54587911E+02
 20
1.18871865E+02
 11
-2.60402253E+02
 21
1.02897091E+02
  0
LINE
  8
0
 62
4
 10
-2.47694256E+02
 20
1.20087402E+02
 11
-2.54587911E+02
 21
1.18871865E+02
  0
LINE
  8
0
 62
4
 10
-2.60402253E+02
 20
1.02897091E+02
 11
-2.58791220E+02
 21
9.37604697E+01
  0
LINE
  8
0
 62
4
 10
-2.62870871E+02
 20
9.91336768E+01
 11
-2.59833109E+02
 21
9.96693162E+01
  0
LINE
  8
0
 62
4
 10
-2.62176278E+02
 20
9.51944458E+01
 11
-2.59138517E+02
 21
9.57300852E+01
  0
LINE
  8
0
 62
4
 10
-2.62176278E+02
 20
9.51944458E+01
 11
-2.62870871E+02
 21
9.91336768E+01
  0
LINE
  8
0
 62
6
 10
-2.62784047E+02
 20
9.86412730E+01
 11
-2.59746285E+02
 21
9.91769123E+01
  0
LINE
  8
0
 62
6
 10
-2.62263102E+02
 20
9.56868497E+01
 11
-2.59225341E+02
 21
9.62224890E+01
  0
LINE
  8
0
  6
PHANTOM
 10
-9.25000000E+00
 20
2.42628397E+02
 11
-9.25000000E+00
 21
1.39735759E+02
  0
LINE
  8
0
  6
PHANTOM
 10
1.14749977E+02
 20
2.42628397E+02
 11
1.14749977E+02
 21
1.39735759E+02
  0
LINE
  8
0
  6
CENTER
 62
2
 10
-1.47883850E+02
 20
2.03369465E+02
 11
1.74137072E+02
 21
2.03369465E+02
  0
LINE
  8
0
  6
CENTER
 62
2
 10
-7.72500000E+01
 20
1.97353596E+02
 11
-7.72500000E+01
 21
2.17513630E+02
  0
LINE
  8
0
  6
CENTER
 62
2
 10
-8.73667145E+01
 20
2.07369404E+02
 11
-6.73015594E+01
 21
2.07369404E+02
  0
LINE
  8
0
  6
CENTER
 62
2
 10
-6.97499847E+01
 20
1.87449756E+02
 11
-6.97499847E+01
 21
1.98974384E+02
  0
LINE
  8
0
 62
7
 10
-1.09750031E+02
 20
1.88369465E+02
 11
-1.05241058E+02
 21
1.88369465E+02
  0
LINE
  8
0
 62
7
 10
-9.67500000E+01
 20
1.87369495E+02
 11
-9.52500000E+01
 21
1.87369495E+02
  0
LINE
  8
0
 62
7
 10
-1.05008766E+02
 20
1.88111105E+02
 11
-9.72491832E+01
 21
1.87840133E+02
  0
LINE
  8
0
 62
7
 10
-1.10249954E+02
 20
1.88869465E+02
 11
-1.10249954E+02
 21
2.17869465E+02
  0
LINE
  8
0
 62
7
 10
-1.09750031E+02
 20
2.18369526E+02
 11
-1.05241058E+02
 21
2.18369526E+02
  0
LINE
  8
0
 62
7
 10
-9.67500000E+01
 20
2.19369495E+02
 11
-9.52500000E+01
 21
2.19369495E+02
  0
LINE
  8
0
 62
7
 10
-6.42499542E+01
 20
1.78369465E+02
 11
-6.42499542E+01
 21
2.28369465E+02
  0
LINE
  8
0
 62
7
 10
-9.52499542E+01
 20
1.79401935E+02
 11
-9.52499542E+01
 21
2.27336994E+02
  0
LINE
  8
0
 62
7
 10
-1.05008731E+02
 20
2.18628014E+02
 11
-9.72491479E+01
 21
2.18898984E+02
  0
LINE
  8
0
 62
7
 10
-1.05249954E+02
 20
2.18369495E+02
 11
-1.05249954E+02
 21
1.88369434E+02
  0
LINE
  8
0
 62
7
 10
-9.72499542E+01
 20
2.18869465E+02
 11
-9.72499542E+01
 21
1.87840046E+02
  0
LINE
  8
0
 62
7
 10
-6.42500219E+01
 20
2.28369534E+02
 11
-9.47587418E+01
 21
2.27837007E+02
  0
LINE
  8
0
 62
7
 10
-6.42499481E+01
 20
1.78369596E+02
 11
-9.47586984E+01
 21
1.78902133E+02
  0
LINE
  8
0
  6
CENTER
 62
2
 10
-7.54465942E+01
 20
1.93369465E+02
 11
-6.38311005E+01
 21
1.93369465E+02
  0
LINE
  8
0
 62
7
 10
-8.82499542E+01
 20
2.23369465E+02
 11
-6.42499542E+01
 21
2.23369465E+02
  0
LINE
  8
0
 62
7
 10
-8.82499542E+01
 20
1.83369465E+02
 11
-6.42499542E+01
 21
1.83369465E+02
  0
LINE
  8
0
 62
7
 10
-9.02499542E+01
 20
2.21369465E+02
 11
-9.02499542E+01
 21
1.85369465E+02
  0
LINE
  8
0
  6
CENTER
 62
2
 10
5.47500000E+01
 20
1.97353596E+02
 11
5.47500000E+01
 21
2.17513630E+02
  0
LINE
  8
0
  6
CENTER
 62
2
 10
6.48667145E+01
 20
2.07369404E+02
 11
4.48015594E+01
 21
2.07369404E+02
  0
LINE
  8
0
  6
CENTER
 62
2
 10
4.72499847E+01
 20
1.87449756E+02
 11
4.72499847E+01
 21
1.98974384E+02
  0
LINE
  8
0
 62
7
 10
7.42500000E+01
 20
1.87369495E+02
 11
7.27500000E+01
 21
1.87369495E+02
  0
LINE
  8
0
 62
7
 10
7.42500000E+01
 20
2.19369495E+02
 11
7.27500000E+01
 21
2.19369495E+02
  0
LINE
  8
0
 62
7
 10
4.17499542E+01
 20
1.78369465E+02
 11
4.17499542E+01
 21
2.28369465E+02
  0
LINE
  8
0
 62
7
 10
7.27499542E+01
 20
1.79401935E+02
 11
7.27499542E+01
 21
2.27336994E+02
  0
LINE
  8
0
 62
7
 10
7.47499542E+01
 20
2.18869465E+02
 11
7.47499542E+01
 21
1.87840046E+02
  0
LINE
  8
0
 62
7
 10
4.17500189E+01
 20
2.28369538E+02
 11
7.22587234E+01
 21
2.27837011E+02
  0
LINE
  8
0
 62
7
 10
4.17499265E+01
 20
1.78369587E+02
 11
7.22586921E+01
 21
1.78902124E+02
  0
LINE
  8
0
  6
CENTER
 62
2
 10
5.29465942E+01
 20
1.93369465E+02
 11
4.13311005E+01
 21
1.93369465E+02
  0
LINE
  8
0
 62
7
 10
6.57499542E+01
 20
2.23369465E+02
 11
4.17499542E+01
 21
2.23369465E+02
  0
LINE
  8
0
 62
7
 10
6.57499542E+01
 20
1.83369465E+02
 11
4.17499542E+01
 21
1.83369465E+02
  0
LINE
  8
0
 62
7
 10
6.77499542E+01
 20
2.21369465E+02
 11
6.77499542E+01
 21
1.85369465E+02
  0
LINE
  8
0
 62
7
 10
-1.12250031E+02
 20
2.11369434E+02
 11
-1.10249954E+02
 21
2.11369434E+02
  0
LINE
  8
0
 62
7
 10
-1.12249939E+02
 20
1.95369449E+02
 11
-1.10249969E+02
 21
1.95369449E+02
  0
LINE
  8
0
 62
7
 10
-1.20249969E+02
 20
2.10369465E+02
 11
-1.20249969E+02
 21
1.96369434E+02
  0
LINE
  8
0
 62
7
 10
-1.44250000E+02
 20
1.97869434E+02
 11
-1.44250000E+02
 21
2.08869465E+02
  0
LINE
  8
0
 62
7
 10
-1.42749969E+02
 20
2.10369465E+02
 11
-1.37750000E+02
 21
2.10369465E+02
  0
LINE
  8
0
 62
7
 10
-1.23250000E+02
 20
1.96369434E+02
 11
-1.23250000E+02
 21
2.10369465E+02
  0
LINE
  8
0
 62
7
 10
-1.20249969E+02
 20
2.10369465E+02
 11
-1.13250000E+02
 21
2.10369465E+02
  0
LINE
  8
0
 62
7
 10
-1.42750000E+02
 20
1.96369434E+02
 11
-1.37750000E+02
 21
1.96369434E+02
  0
LINE
  8
0
 62
7
 10
-1.20249969E+02
 20
1.96369434E+02
 11
-1.13249924E+02
 21
1.96369434E+02
  0
LINE
  8
0
 62
7
 10
-6.83066211E+01
 20
1.93369558E+02
 11
-6.90282938E+01
 21
1.94619548E+02
  0
LINE
  8
0
 62
7
 10
-6.90282898E+01
 20
1.94619526E+02
 11
-7.04716797E+01
 21
1.94619526E+02
  0
LINE
  8
0
 62
7
 10
-7.11932780E+01
 20
1.93369477E+02
 11
-7.04715901E+01
 21
1.94619493E+02
  0
LINE
  8
0
 62
7
 10
-7.04716458E+01
 20
1.92119491E+02
 11
-7.11933490E+01
 21
1.93369534E+02
  0
LINE
  8
0
 62
7
 10
-6.90282898E+01
 20
1.92119495E+02
 11
-7.04716797E+01
 21
1.92119495E+02
  0
LINE
  8
0
 62
7
 10
-6.83064896E+01
 20
1.93369435E+02
 11
-6.90281776E+01
 21
1.92119419E+02
  0
LINE
  8
0
 62
7
 10
4.86933533E+01
 20
1.93369540E+02
 11
4.79716730E+01
 21
1.94619543E+02
  0
LINE
  8
0
 62
7
 10
4.79716721E+01
 20
1.94619526E+02
 11
4.65282974E+01
 21
1.94619526E+02
  0
LINE
  8
0
 62
7
 10
4.58066813E+01
 20
1.93369477E+02
 11
4.65283692E+01
 21
1.94619493E+02
  0
LINE
  8
0
 62
7
 10
4.65283210E+01
 20
1.92119486E+02
 11
4.58066178E+01
 21
1.93369529E+02
  0
LINE
  8
0
 62
7
 10
4.79716721E+01
 20
1.92119495E+02
 11
4.65282974E+01
 21
1.92119495E+02
  0
LINE
  8
0
 62
7
 10
4.86934697E+01
 20
1.93369435E+02
 11
4.79717817E+01
 21
1.92119419E+02
  0
LINE
  8
0
  6
CENTER
 62
2
 10
-9.74769745E+01
 20
1.84869465E+02
 11
7.48534698E+01
 21
1.84869465E+02
  0
LINE
  8
0
 62
7
 10
-6.42499542E+01
 20
1.87519459E+02
 11
5.24995422E+00
 21
1.87519459E+02
  0
LINE
  8
0
 62
7
 10
-6.42499542E+01
 20
1.82219471E+02
 11
5.24995422E+00
 21
1.82219471E+02
  0
LINE
  8
0
 62
7
 10
-6.42499542E+01
 20
1.81369480E+02
 11
5.24995422E+00
 21
1.81369480E+02
  0
LINE
  8
0
  6
CENTER
 62
2
 10
-9.74769745E+01
 20
2.21869465E+02
 11
7.48534698E+01
 21
2.21869465E+02
  0
LINE
  8
0
 62
7
 10
-6.42499542E+01
 20
2.19219471E+02
 11
-3.87499542E+01
 21
2.19219471E+02
  0
LINE
  8
0
 62
7
 10
-6.42499542E+01
 20
2.24519459E+02
 11
-3.87499542E+01
 21
2.24519459E+02
  0
LINE
  8
0
 62
7
 10
-6.42499542E+01
 20
2.25369449E+02
 11
-3.87499542E+01
 21
2.25369449E+02
  0
LINE
  8
0
 62
7
 10
-1.13250012E+02
 20
2.10369506E+02
 11
-1.12250062E+02
 21
2.11369456E+02
  0
LINE
  8
0
 62
7
 10
-1.13249976E+02
 20
1.96369480E+02
 11
-1.12249953E+02
 21
1.95369458E+02
  0
LINE
  8
0
 62
7
 10
-1.17249969E+02
 20
2.10369465E+02
 11
-1.17249969E+02
 21
1.96369434E+02
  0
LINE
  8
0
 62
7
 10
-1.42750000E+02
 20
1.96369434E+02
 11
-1.42750000E+02
 21
2.10369465E+02
  0
LINE
  8
0
 62
7
 10
-1.44250017E+02
 20
1.97869446E+02
 11
-1.42750004E+02
 21
1.96369433E+02
  0
LINE
  8
0
 62
7
 10
-1.44249998E+02
 20
2.08869466E+02
 11
-1.42749968E+02
 21
2.10369466E+02
  0
LINE
  8
0
 62
7
 10
8.72500305E+01
 20
1.88369465E+02
 11
8.27410583E+01
 21
1.88369465E+02
  0
LINE
  8
0
 62
7
 10
8.25087582E+01
 20
1.88111099E+02
 11
7.47491752E+01
 21
1.87840127E+02
  0
LINE
  8
0
 62
7
 10
8.77499542E+01
 20
1.88869465E+02
 11
8.77499542E+01
 21
2.17869465E+02
  0
LINE
  8
0
 62
7
 10
8.72500305E+01
 20
2.18369526E+02
 11
8.27410583E+01
 21
2.18369526E+02
  0
LINE
  8
0
 62
7
 10
8.25087295E+01
 20
2.18628014E+02
 11
7.47491465E+01
 21
2.18898984E+02
  0
LINE
  8
0
 62
7
 10
8.27499542E+01
 20
2.18369495E+02
 11
8.27499542E+01
 21
1.88369434E+02
  0
LINE
  8
0
 62
7
 10
1.39750031E+02
 20
2.11369434E+02
 11
8.77499542E+01
 21
2.11369434E+02
  0
LINE
  8
0
 62
7
 10
1.39749939E+02
 20
1.95369449E+02
 11
8.77499695E+01
 21
1.95369449E+02
  0
LINE
  8
0
 62
7
 10
1.47749969E+02
 20
2.10369465E+02
 11
1.47749969E+02
 21
1.96369434E+02
  0
LINE
  8
0
 62
7
 10
1.71750000E+02
 20
1.97869434E+02
 11
1.71750000E+02
 21
2.08869465E+02
  0
LINE
  8
0
 62
7
 10
1.70249969E+02
 20
2.10369465E+02
 11
1.65250000E+02
 21
2.10369465E+02
  0
LINE
  8
0
 62
7
 10
1.50750000E+02
 20
1.96369434E+02
 11
1.50750000E+02
 21
2.10369465E+02
  0
LINE
  8
0
 62
7
 10
1.71749996E+02
 20
2.08869463E+02
 11
1.70249968E+02
 21
2.10369460E+02
  0
LINE
  8
0
 62
7
 10
1.47749969E+02
 20
2.10369465E+02
 11
1.40750000E+02
 21
2.10369465E+02
  0
LINE
  8
0
 62
7
 10
1.70250000E+02
 20
1.96369434E+02
 11
1.65250000E+02
 21
1.96369434E+02
  0
LINE
  8
0
 62
7
 10
1.47749969E+02
 20
1.96369434E+02
 11
1.40749924E+02
 21
1.96369434E+02
  0
LINE
  8
0
 62
7
 10
1.40749963E+02
 20
1.96369484E+02
 11
1.39749940E+02
 21
1.95369461E+02
  0
LINE
  8
0
 62
7
 10
1.40749998E+02
 20
2.10369508E+02
 11
1.39750051E+02
 21
2.11369455E+02
  0
LINE
  8
0
 62
7
 10
1.44749969E+02
 20
2.10369465E+02
 11
1.44749969E+02
 21
1.96369434E+02
  0
LINE
  8
0
 62
7
 10
1.70250000E+02
 20
1.96369434E+02
 11
1.70250000E+02
 21
2.10369465E+02
  0
LINE
  8
0
 62
7
 10
1.71750020E+02
 20
1.97869454E+02
 11
1.70250008E+02
 21
1.96369442E+02
  0
CIRCLE
  8
0
 62
7
 10
-6.97499847E+01
 20
1.93369465E+02
 40
4.00000000E+00
  0
ARC
  8
0
 62
7
 10
-1.09750031E+02
 20
1.88869465E+02
 40
5.00000000E-01
 50
1.80000005E+02
 51
2.70000001E+02
  0
ARC
  8
0
 62
7
 10
-9.67500000E+01
 20
1.87869465E+02
 40
5.00000000E-01
 50
1.80000005E+02
 51
2.70000001E+02
  0
ARC
  8
0
 62
7
 10
-1.05000000E+02
 20
1.88360859E+02
 40
2.50000000E-01
 50
1.80000005E+02
 51
2.67999220E+02
  0
ARC
  8
0
 62
7
 10
-1.09750031E+02
 20
2.17869465E+02
 40
5.00000000E-01
 50
9.00000231E+01
 51
1.80000005E+02
  0
ARC
  8
0
 62
7
 10
-9.67500000E+01
 20
2.18869465E+02
 40
5.00000000E-01
 50
9.00000231E+01
 51
1.80000005E+02
  0
ARC
  8
0
 62
7
 10
-1.05000000E+02
 20
2.18378071E+02
 40
2.50000000E-01
 50
9.20007768E+01
 51
1.79999991E+02
  0
ARC
  8
0
 62
7
 10
-9.47500000E+01
 20
2.27336994E+02
 40
5.00000000E-01
 50
9.10002155E+01
 51
1.80000005E+02
  0
ARC
  8
0
 62
7
 10
-9.47500000E+01
 20
1.79401935E+02
 40
5.00000000E-01
 50
1.80000005E+02
 51
2.68999788E+02
  0
CIRCLE
  8
0
 62
7
 10
-7.72500000E+01
 20
2.07369404E+02
 40
7.00000000E+00
  0
ARC
  8
0
 62
7
 10
-8.82499542E+01
 20
2.21369465E+02
 40
2.00000000E+00
 50
8.99999818E+01
 51
1.79999964E+02
  0
ARC
  8
0
 62
7
 10
-8.82499542E+01
 20
1.85369465E+02
 40
2.00000000E+00
 50
1.79999981E+02
 51
2.70000018E+02
  0
CIRCLE
  8
0
 62
7
 10
-7.72500000E+01
 20
2.07369404E+02
 40
5.65999985E+00
  0
CIRCLE
  8
0
 62
2
 10
-7.72500000E+01
 20
2.07369404E+02
 40
6.57849979E+00
  0
CIRCLE
  8
0
 62
7
 10
4.72499847E+01
 20
1.93369465E+02
 40
4.00000000E+00
  0
ARC
  8
0
 62
7
 10
7.42500000E+01
 20
1.87869465E+02
 40
5.00000000E-01
 50
2.70000018E+02
 51
1.36603783E-05
  0
ARC
  8
0
 62
7
 10
7.42500000E+01
 20
2.18869465E+02
 40
5.00000000E-01
 50
0.00000000E+00
 51
8.99999818E+01
  0
ARC
  8
0
 62
7
 10
7.22500000E+01
 20
2.27336994E+02
 40
5.00000000E-01
 50
0.00000000E+00
 51
8.89997895E+01
  0
ARC
  8
0
 62
7
 10
7.22500000E+01
 20
1.79401935E+02
 40
5.00000000E-01
 50
2.71000231E+02
 51
1.36603783E-05
  0
CIRCLE
  8
0
 62
7
 10
5.47500000E+01
 20
2.07369404E+02
 40
7.00000000E+00
  0
ARC
  8
0
 62
7
 10
6.57499542E+01
 20
2.21369465E+02
 40
2.00000000E+00
 50
5.46415133E-05
 51
9.00000369E+01
  0
ARC
  8
0
 62
7
 10
6.57499542E+01
 20
1.85369465E+02
 40
2.00000000E+00
 50
2.70000018E+02
 51
5.46415133E-05
  0
CIRCLE
  8
0
 62
7
 10
5.47500000E+01
 20
2.07369404E+02
 40
5.65999985E+00
  0
CIRCLE
  8
0
 62
2
 10
5.47500000E+01
 20
2.07369404E+02
 40
6.57849979E+00
  0
CIRCLE
  8
0
 62
7
 10
-6.97499847E+01
 20
1.93369465E+02
 40
2.09999990E+00
  0
CIRCLE
  8
0
 62
7
 10
4.72499847E+01
 20
1.93369465E+02
 40
2.09999990E+00
  0
ARC
  8
0
 62
7
 10
8.72500305E+01
 20
1.88869465E+02
 40
5.00000000E-01
 50
2.69999998E+02
 51
3.59999995E+02
  0
ARC
  8
0
 62
7
 10
8.25000000E+01
 20
1.88360859E+02
 40
2.50000000E-01
 50
2.72000778E+02
 51
3.59999995E+02
  0
ARC
  8
0
 62
7
 10
8.72500305E+01
 20
2.17869465E+02
 40
5.00000000E-01
 50
3.59999995E+02
 51
8.99999750E+01
  0
ARC
  8
0
 62
7
 10
8.25000000E+01
 20
2.18378071E+02
 40
2.50000000E-01
 50
8.65142224E-06
 51
8.79992212E+01
  0
LINE
  8
0
 62
4
 10
1.65250000E+02
 20
1.92369465E+02
 11
1.65250000E+02
 21
2.14369465E+02
  0
LINE
  8
0
 62
4
 10
1.57250000E+02
 20
1.92369465E+02
 11
1.57250000E+02
 21
2.14369465E+02
  0
LINE
  8
0
 62
4
 10
1.58232480E+02
 20
2.03369465E+02
 11
1.64267520E+02
 21
2.03369465E+02
  0
LINE
  8
0
 62
4
 10
1.57250000E+02
 20
2.14369465E+02
 11
1.65250000E+02
 21
2.14369465E+02
  0
LINE
  8
0
 62
4
 10
1.57250000E+02
 20
1.92369465E+02
 11
1.65250000E+02
 21
1.92369465E+02
  0
ARC
  8
0
 62
4
 10
1.49364050E+02
 20
1.97869465E+02
 40
1.58859499E+01
 50
3.39743842E+02
 51
2.02561578E+01
  0
ARC
  8
0
 62
4
 10
1.49364050E+02
 20
2.08869465E+02
 40
1.58859499E+01
 50
3.39743842E+02
 51
2.02561578E+01
  0
ARC
  8
0
 62
4
 10
1.73135947E+02
 20
2.08869465E+02
 40
1.58859474E+01
 50
1.59743839E+02
 51
2.00256161E+02
  0
ARC
  8
0
 62
4
 10
1.73135947E+02
 20
1.97869465E+02
 40
1.58859473E+01
 50
1.59743839E+02
 51
2.00256161E+02
  0
LINE
  8
0
 62
4
 10
-1.29750000E+02
 20
1.92369465E+02
 11
-1.29750000E+02
 21
2.14369465E+02
  0
LINE
  8
0
 62
4
 10
-1.37750000E+02
 20
1.92369465E+02
 11
-1.37750000E+02
 21
2.14369465E+02
  0
LINE
  8
0
 62
4
 10
-1.36767520E+02
 20
2.03369465E+02
 11
-1.30732480E+02
 21
2.03369465E+02
  0
LINE
  8
0
 62
4
 10
-1.37750000E+02
 20
2.14369465E+02
 11
-1.29750000E+02
 21
2.14369465E+02
  0
LINE
  8
0
 62
4
 10
-1.37750000E+02
 20
1.92369465E+02
 11
-1.29750000E+02
 21
1.92369465E+02
  0
ARC
  8
0
 62
4
 10
-1.45635950E+02
 20
1.97869465E+02
 40
1.58859499E+01
 50
3.39743842E+02
 51
2.02561578E+01
  0
ARC
  8
0
 62
4
 10
-1.45635950E+02
 20
2.08869465E+02
 40
1.58859499E+01
 50
3.39743842E+02
 51
2.02561578E+01
  0
ARC
  8
0
 62
4
 10
-1.21864053E+02
 20
2.08869465E+02
 40
1.58859474E+01
 50
1.59743839E+02
 51
2.00256161E+02
  0
ARC
  8
0
 62
4
 10
-1.21864053E+02
 20
1.97869465E+02
 40
1.58859473E+01
 50
1.59743839E+02
 51
2.00256161E+02
  0
LINE
  8
0
 62
7
 10
-1.29750000E+02
 20
2.10369465E+02
 11
-1.23250000E+02
 21
2.10369465E+02
  0
LINE
  8
0
 62
7
 10
-1.29750000E+02
 20
1.96369434E+02
 11
-1.23250000E+02
 21
1.96369434E+02
  0
LINE
  8
0
 62
7
 10
1.57250000E+02
 20
2.10369465E+02
 11
1.50750000E+02
 21
2.10369465E+02
  0
LINE
  8
0
 62
7
 10
1.57250000E+02
 20
1.96369434E+02
 11
1.50750000E+02
 21
1.96369434E+02
  0
LINE
  8
0
 62
2
 10
-1.43569986E+02
 20
2.09549465E+02
 11
-1.37750000E+02
 21
2.09549465E+02
  0
LINE
  8
0
 62
2
 10
-1.43570035E+02
 20
1.97189465E+02
 11
-1.37750000E+02
 21
1.97189465E+02
  0
LINE
  8
0
 62
2
 10
-1.29750000E+02
 20
2.09549465E+02
 11
-1.23250000E+02
 21
2.09549465E+02
  0
LINE
  8
0
 62
2
 10
-1.29750000E+02
 20
1.97189465E+02
 11
-1.23250000E+02
 21
1.97189465E+02
  0
LINE
  8
0
 62
7
 10
-1.23250000E+02
 20
2.09549465E+02
 11
-1.20249969E+02
 21
2.09549465E+02
  0
LINE
  8
0
 62
7
 10
-1.23250000E+02
 20
1.97189465E+02
 11
-1.20249969E+02
 21
1.97189465E+02
  0
LINE
  8
0
 62
7
 10
1.47749969E+02
 20
2.09557465E+02
 11
1.50750000E+02
 21
2.09557465E+02
  0
LINE
  8
0
 62
7
 10
1.47749969E+02
 20
1.97181465E+02
 11
1.50750000E+02
 21
1.97181465E+02
  0
LINE
  8
0
 62
2
 10
1.65250000E+02
 20
2.09557465E+02
 11
1.71061980E+02
 21
2.09557465E+02
  0
LINE
  8
0
 62
2
 10
1.65250000E+02
 20
1.97181465E+02
 11
1.71062031E+02
 21
1.97181465E+02
  0
LINE
  8
0
 62
2
 10
1.50750000E+02
 20
2.09557465E+02
 11
1.57250000E+02
 21
2.09557465E+02
  0
LINE
  8
0
 62
2
 10
1.50750000E+02
 20
1.97181465E+02
 11
1.57250000E+02
 21
1.97181465E+02
  0
LINE
  8
0
  6
CENTER
 62
6
 10
-3.52499542E+01
 20
2.35485044E+02
 11
-3.52499542E+01
 21
2.25219465E+02
  0
LINE
  8
0
  6
CENTER
 62
6
 10
-2.72499542E+01
 20
2.35485044E+02
 11
-2.72499542E+01
 21
2.25219465E+02
  0
LINE
  8
0
 62
6
 10
-1.54820051E+01
 20
2.03702824E+02
 11
-1.20179034E+01
 21
2.09702824E+02
  0
LINE
  8
0
 62
4
 10
-2.37499542E+01
 20
2.05202824E+02
 11
-1.46159796E+01
 21
2.05202824E+02
  0
LINE
  8
0
  6
CENTER
 62
6
 10
-5.87499542E+01
 20
2.06702824E+02
 11
-1.17499542E+01
 21
2.06702824E+02
  0
LINE
  8
0
 62
4
 10
-2.37499542E+01
 20
2.08202824E+02
 11
-1.28839288E+01
 21
2.08202824E+02
  0
LINE
  8
0
 62
6
 10
-2.87499542E+01
 20
2.32372785E+02
 11
-2.87499542E+01
 21
2.30021748E+02
  0
LINE
  8
0
 62
6
 10
-2.57499542E+01
 20
2.32372785E+02
 11
-2.57499542E+01
 21
2.30021748E+02
  0
LINE
  8
0
 62
4
 10
-2.92499542E+01
 20
2.32143070E+02
 11
-2.92499542E+01
 21
2.30021748E+02
  0
LINE
  8
0
 62
4
 10
-2.52499542E+01
 20
2.32143070E+02
 11
-2.52499542E+01
 21
2.30021748E+02
  0
LINE
  8
0
 62
4
 10
-3.87499542E+01
 20
2.30021748E+02
 11
-3.87499542E+01
 21
2.17313752E+02
  0
LINE
  8
0
 62
4
 10
-2.37499542E+01
 20
2.30021748E+02
 11
-2.37499542E+01
 21
2.04391861E+02
  0
LINE
  8
0
 62
4
 10
-5.37499542E+01
 20
2.17313752E+02
 11
-5.37499542E+01
 21
2.05364291E+02
  0
LINE
  8
0
  6
CENTER
 62
6
 10
-3.87499542E+01
 20
2.08281046E+02
 11
-3.87499542E+01
 21
2.03281046E+02
  0
LINE
  8
0
 62
4
 10
-3.87499542E+01
 20
2.30021748E+02
 11
-2.37499542E+01
 21
2.30021748E+02
  0
LINE
  8
0
 62
4
 10
-3.87499542E+01
 20
2.24207406E+02
 11
-2.37499542E+01
 21
2.24207406E+02
  0
LINE
  8
0
 62
4
 10
-5.37499542E+01
 20
2.17313752E+02
 11
-2.37499542E+01
 21
2.17313752E+02
  0
LINE
  8
0
 62
4
 10
-5.37499542E+01
 20
2.07170232E+02
 11
-2.37499542E+01
 21
2.07170232E+02
  0
LINE
  8
0
 62
4
 10
-2.78499542E+01
 20
2.04391861E+02
 11
-2.37499542E+01
 21
2.04391861E+02
  0
LINE
  8
0
 62
4
 10
-2.78499542E+01
 20
2.04565509E+02
 11
-2.37499542E+01
 21
2.04565509E+02
  0
LINE
  8
0
 62
4
 10
-5.37499542E+01
 20
2.05364291E+02
 11
-4.28999542E+01
 21
2.05364291E+02
  0
POLYLINE
  8
0
 62
4
 66
1
  0
VERTEX
  8
0
 62
4
 10
-2.52499542E+01
 20
2.32143070E+02
  0
VERTEX
  8
0
 62
4
 10
-2.52580056E+01
 20
2.32174201E+02
  0
VERTEX
  8
0
 62
4
 10
-2.52820950E+01
 20
2.32205082E+02
  0
VERTEX
  8
0
 62
4
 10
-2.53220285E+01
 20
2.32235464E+02
  0
VERTEX
  8
0
 62
4
 10
-2.53774845E+01
 20
2.32265101E+02
  0
VERTEX
  8
0
 62
4
 10
-2.54480165E+01
 20
2.32293756E+02
  0
VERTEX
  8
0
 62
4
 10
-2.55330566E+01
 20
2.32321198E+02
  0
VERTEX
  8
0
 62
4
 10
-2.56319202E+01
 20
2.32347206E+02
  0
VERTEX
  8
0
 62
4
 10
-2.57438113E+01
 20
2.32371570E+02
  0
VERTEX
  8
0
 62
4
 10
-2.58678289E+01
 20
2.32394094E+02
  0
VERTEX
  8
0
 62
4
 10
-2.60029746E+01
 20
2.32414597E+02
  0
VERTEX
  8
0
 62
4
 10
-2.61481602E+01
 20
2.32432914E+02
  0
VERTEX
  8
0
 62
4
 10
-2.63022169E+01
 20
2.32448898E+02
  0
VERTEX
  8
0
 62
4
 10
-2.64639041E+01
 20
2.32462419E+02
  0
VERTEX
  8
0
 62
4
 10
-2.66319202E+01
 20
2.32473368E+02
  0
VERTEX
  8
0
 62
4
 10
-2.68049123E+01
 20
2.32481659E+02
  0
VERTEX
  8
0
 62
4
 10
-2.69814877E+01
 20
2.32487223E+02
  0
VERTEX
  8
0
 62
4
 10
-2.71602245E+01
 20
2.32490017E+02
  0
VERTEX
  8
0
 62
4
 10
-2.73396838E+01
 20
2.32490017E+02
  0
VERTEX
  8
0
 62
4
 10
-2.75184207E+01
 20
2.32487223E+02
  0
VERTEX
  8
0
 62
4
 10
-2.76949961E+01
 20
2.32481659E+02
  0
VERTEX
  8
0
 62
4
 10
-2.78679882E+01
 20
2.32473368E+02
  0
VERTEX
  8
0
 62
4
 10
-2.80360043E+01
 20
2.32462419E+02
  0
VERTEX
  8
0
 62
4
 10
-2.81976915E+01
 20
2.32448898E+02
  0
VERTEX
  8
0
 62
4
 10
-2.83517482E+01
 20
2.32432914E+02
  0
VERTEX
  8
0
 62
4
 10
-2.84969338E+01
 20
2.32414597E+02
  0
VERTEX
  8
0
 62
4
 10
-2.86320795E+01
 20
2.32394094E+02
  0
VERTEX
  8
0
 62
4
 10
-2.87560971E+01
 20
2.32371570E+02
  0
VERTEX
  8
0
 62
4
 10
-2.88679882E+01
 20
2.32347206E+02
  0
VERTEX
  8
0
 62
4
 10
-2.89668518E+01
 20
2.32321198E+02
  0
VERTEX
  8
0
 62
4
 10
-2.90518919E+01
 20
2.32293756E+02
  0
VERTEX
  8
0
 62
4
 10
-2.91224239E+01
 20
2.32265101E+02
  0
VERTEX
  8
0
 62
4
 10
-2.91778799E+01
 20
2.32235464E+02
  0
VERTEX
  8
0
 62
4
 10
-2.92178134E+01
 20
2.32205082E+02
  0
VERTEX
  8
0
 62
4
 10
-2.92419028E+01
 20
2.32174201E+02
  0
VERTEX
  8
0
 62
4
 10
-2.92499542E+01
 20
2.32143070E+02
  0
SEQEND
  8
0
  0
LINE
  8
0
 62
6
 10
-3.67499542E+01
 20
2.32372785E+02
 11
-3.67499542E+01
 21
2.30021748E+02
  0
LINE
  8
0
 62
6
 10
-3.37499542E+01
 20
2.32372785E+02
 11
-3.37499542E+01
 21
2.30021748E+02
  0
LINE
  8
0
 62
4
 10
-3.72499542E+01
 20
2.32143070E+02
 11
-3.72499542E+01
 21
2.30021748E+02
  0
LINE
  8
0
 62
4
 10
-3.32499542E+01
 20
2.32143070E+02
 11
-3.32499542E+01
 21
2.30021748E+02
  0
POLYLINE
  8
0
 62
4
 66
1
  0
VERTEX
  8
0
 62
4
 10
-3.32499542E+01
 20
2.32143070E+02
  0
VERTEX
  8
0
 62
4
 10
-3.32580056E+01
 20
2.32174201E+02
  0
VERTEX
  8
0
 62
4
 10
-3.32820950E+01
 20
2.32205082E+02
  0
VERTEX
  8
0
 62
4
 10
-3.33220285E+01
 20
2.32235464E+02
  0
VERTEX
  8
0
 62
4
 10
-3.33774845E+01
 20
2.32265101E+02
  0
VERTEX
  8
0
 62
4
 10
-3.34480165E+01
 20
2.32293756E+02
  0
VERTEX
  8
0
 62
4
 10
-3.35330566E+01
 20
2.32321198E+02
  0
VERTEX
  8
0
 62
4
 10
-3.36319202E+01
 20
2.32347206E+02
  0
VERTEX
  8
0
 62
4
 10
-3.37438113E+01
 20
2.32371570E+02
  0
VERTEX
  8
0
 62
4
 10
-3.38678289E+01
 20
2.32394094E+02
  0
VERTEX
  8
0
 62
4
 10
-3.40029746E+01
 20
2.32414597E+02
  0
VERTEX
  8
0
 62
4
 10
-3.41481602E+01
 20
2.32432914E+02
  0
VERTEX
  8
0
 62
4
 10
-3.43022169E+01
 20
2.32448898E+02
  0
VERTEX
  8
0
 62
4
 10
-3.44639041E+01
 20
2.32462419E+02
  0
VERTEX
  8
0
 62
4
 10
-3.46319202E+01
 20
2.32473368E+02
  0
VERTEX
  8
0
 62
4
 10
-3.48049123E+01
 20
2.32481659E+02
  0
VERTEX
  8
0
 62
4
 10
-3.49814877E+01
 20
2.32487223E+02
  0
VERTEX
  8
0
 62
4
 10
-3.51602245E+01
 20
2.32490017E+02
  0
VERTEX
  8
0
 62
4
 10
-3.53396838E+01
 20
2.32490017E+02
  0
VERTEX
  8
0
 62
4
 10
-3.55184207E+01
 20
2.32487223E+02
  0
VERTEX
  8
0
 62
4
 10
-3.56949961E+01
 20
2.32481659E+02
  0
VERTEX
  8
0
 62
4
 10
-3.58679882E+01
 20
2.32473368E+02
  0
VERTEX
  8
0
 62
4
 10
-3.60360043E+01
 20
2.32462419E+02
  0
VERTEX
  8
0
 62
4
 10
-3.61976915E+01
 20
2.32448898E+02
  0
VERTEX
  8
0
 62
4
 10
-3.63517482E+01
 20
2.32432914E+02
  0
VERTEX
  8
0
 62
4
 10
-3.64969338E+01
 20
2.32414597E+02
  0
VERTEX
  8
0
 62
4
 10
-3.66320795E+01
 20
2.32394094E+02
  0
VERTEX
  8
0
 62
4
 10
-3.67560971E+01
 20
2.32371570E+02
  0
VERTEX
  8
0
 62
4
 10
-3.68679882E+01
 20
2.32347206E+02
  0
VERTEX
  8
0
 62
4
 10
-3.69668518E+01
 20
2.32321198E+02
  0
VERTEX
  8
0
 62
4
 10
-3.70518919E+01
 20
2.32293756E+02
  0
VERTEX
  8
0
 62
4
 10
-3.71224239E+01
 20
2.32265101E+02
  0
VERTEX
  8
0
 62
4
 10
-3.71778799E+01
 20
2.32235464E+02
  0
VERTEX
  8
0
 62
4
 10
-3.72178134E+01
 20
2.32205082E+02
  0
VERTEX
  8
0
 62
4
 10
-3.72419028E+01
 20
2.32174201E+02
  0
VERTEX
  8
0
 62
4
 10
-3.72499542E+01
 20
2.32143070E+02
  0
SEQEND
  8
0
  0
LINE
  8
0
 62
4
 10
-5.37499542E+01
 20
2.09019736E+02
 11
-5.52499542E+01
 21
2.08016803E+02
  0
LINE
  8
0
 62
4
 10
-5.52499542E+01
 20
2.08016803E+02
 11
-5.52499542E+01
 21
2.05392901E+02
  0
LINE
  8
0
 62
4
 10
-5.52499542E+01
 20
2.05786214E+02
 11
-5.37499542E+01
 21
2.05080505E+02
  0
LINE
  8
0
 62
4
 10
-5.52499542E+01
 20
2.05392901E+02
 11
-5.37499542E+01
 21
2.04385912E+02
  0
LINE
  8
0
 62
4
 10
-5.37499542E+01
 20
2.04385912E+02
 11
-4.28999542E+01
 21
2.04385912E+02
  0
LINE
  8
0
 62
4
 10
-5.37499542E+01
 20
2.05080505E+02
 11
-4.28999542E+01
 21
2.05080505E+02
  0
LINE
  8
0
 62
4
 10
-5.37499542E+01
 20
2.05364291E+02
 11
-5.37499542E+01
 21
2.04391861E+02
  0
POLYLINE
  8
0
 62
4
 66
1
  0
VERTEX
  8
0
 62
4
 10
-3.50499542E+01
 20
2.05733190E+02
  0
VERTEX
  8
0
 62
4
 10
-3.52317692E+01
 20
2.05789037E+02
  0
VERTEX
  8
0
 62
4
 10
-3.54414664E+01
 20
2.05841856E+02
  0
VERTEX
  8
0
 62
4
 10
-3.56773841E+01
 20
2.05891226E+02
  0
VERTEX
  8
0
 62
4
 10
-3.59376524E+01
 20
2.05936758E+02
  0
VERTEX
  8
0
 62
4
 10
-3.62202087E+01
 20
2.05978089E+02
  0
VERTEX
  8
0
 62
4
 10
-3.65228138E+01
 20
2.06014894E+02
  0
VERTEX
  8
0
 62
4
 10
-3.68430693E+01
 20
2.06046879E+02
  0
VERTEX
  8
0
 62
4
 10
-3.71784373E+01
 20
2.06073792E+02
  0
VERTEX
  8
0
 62
4
 10
-3.75262598E+01
 20
2.06095418E+02
  0
VERTEX
  8
0
 62
4
 10
-3.78837804E+01
 20
2.06111588E+02
  0
VERTEX
  8
0
 62
4
 10
-3.82481655E+01
 20
2.06122172E+02
  0
VERTEX
  8
0
 62
4
 10
-3.86165274E+01
 20
2.06127086E+02
  0
VERTEX
  8
0
 62
4
 10
-3.89859467E+01
 20
2.06126293E+02
  0
VERTEX
  8
0
 62
4
 10
-3.93534958E+01
 20
2.06119797E+02
  0
VERTEX
  8
0
 62
4
 10
-3.97162616E+01
 20
2.06107651E+02
  0
VERTEX
  8
0
 62
4
 10
-4.00713693E+01
 20
2.06089951E+02
  0
VERTEX
  8
0
 62
4
 10
-4.04160046E+01
 20
2.06066837E+02
  0
VERTEX
  8
0
 62
4
 10
-4.07474360E+01
 20
2.06038492E+02
  0
VERTEX
  8
0
 62
4
 10
-4.10630371E+01
 20
2.06005141E+02
  0
VERTEX
  8
0
 62
4
 10
-4.13603065E+01
 20
2.05967048E+02
  0
VERTEX
  8
0
 62
4
 10
-4.16368885E+01
 20
2.05924515E+02
  0
VERTEX
  8
0
 62
4
 10
-4.18905909E+01
 20
2.05877880E+02
  0
VERTEX
  8
0
 62
4
 10
-4.21194032E+01
 20
2.05827511E+02
  0
VERTEX
  8
0
 62
4
 10
-4.23215120E+01
 20
2.05773808E+02
  0
VERTEX
  8
0
 62
4
 10
-4.24953155E+01
 20
2.05717196E+02
  0
VERTEX
  8
0
 62
4
 10
-4.26394363E+01
 20
2.05658125E+02
  0
VERTEX
  8
0
 62
4
 10
-4.27527323E+01
 20
2.05597062E+02
  0
VERTEX
  8
0
 62
4
 10
-4.28343055E+01
 20
2.05534492E+02
  0
VERTEX
  8
0
 62
4
 10
-4.28835094E+01
 20
2.05470909E+02
  0
VERTEX
  8
0
 62
4
 10
-4.28999542E+01
 20
2.05406819E+02
  0
SEQEND
  8
0
  0
ARC
  8
0
 62
4
 10
-3.87422159E+01
 20
2.14563926E+02
 40
1.18100000E+01
 50
2.69962458E+02
 51
2.89675999E+02
  0
ARC
  8
0
 62
4
 10
-3.87576925E+01
 20
2.14563926E+02
 40
1.18100000E+01
 50
2.50324001E+02
 51
2.70037542E+02
  0
LINE
  8
0
 62
4
 10
-4.28999542E+01
 20
2.03678895E+02
 11
-4.28999542E+01
 21
2.05406819E+02
  0
LINE
  8
0
 62
4
 10
-3.45999542E+01
 20
2.03678895E+02
 11
-3.45999542E+01
 21
2.03818004E+02
  0
LINE
  8
0
 62
4
 10
-4.27499542E+01
 20
2.05781046E+02
 11
-4.27499542E+01
 21
2.05598816E+02
  0
POLYLINE
  8
0
 62
4
 66
1
  0
VERTEX
  8
0
 62
4
 10
-3.50499542E+01
 20
2.06044968E+02
  0
VERTEX
  8
0
 62
4
 10
-3.51992622E+01
 20
2.06100888E+02
  0
VERTEX
  8
0
 62
4
 10
-3.53765309E+01
 20
2.06154289E+02
  0
VERTEX
  8
0
 62
4
 10
-3.55803643E+01
 20
2.06204751E+02
  0
VERTEX
  8
0
 62
4
 10
-3.58091574E+01
 20
2.06251876E+02
  0
VERTEX
  8
0
 62
4
 10
-3.60611084E+01
 20
2.06295294E+02
  0
VERTEX
  8
0
 62
4
 10
-3.63342334E+01
 20
2.06334662E+02
  0
VERTEX
  8
0
 62
4
 10
-3.66263815E+01
 20
2.06369671E+02
  0
VERTEX
  8
0
 62
4
 10
-3.69352521E+01
 20
2.06400044E+02
  0
VERTEX
  8
0
 62
4
 10
-3.72584130E+01
 20
2.06425543E+02
  0
VERTEX
  8
0
 62
4
 10
-3.75933194E+01
 20
2.06445967E+02
  0
VERTEX
  8
0
 62
4
 10
-3.79373340E+01
 20
2.06461154E+02
  0
VERTEX
  8
0
 62
4
 10
-3.82877477E+01
 20
2.06470986E+02
  0
VERTEX
  8
0
 62
4
 10
-3.86418011E+01
 20
2.06475385E+02
  0
VERTEX
  8
0
 62
4
 10
-3.89967063E+01
 20
2.06474316E+02
  0
VERTEX
  8
0
 62
4
 10
-3.93496683E+01
 20
2.06467788E+02
  0
VERTEX
  8
0
 62
4
 10
-3.96979078E+01
 20
2.06455852E+02
  0
VERTEX
  8
0
 62
4
 10
-4.00386823E+01
 20
2.06438601E+02
  0
VERTEX
  8
0
 62
4
 10
-4.03693085E+01
 20
2.06416173E+02
  0
VERTEX
  8
0
 62
4
 10
-4.06871828E+01
 20
2.06388744E+02
  0
VERTEX
  8
0
 62
4
 10
-4.09898019E+01
 20
2.06356529E+02
  0
VERTEX
  8
0
 62
4
 10
-4.12747828E+01
 20
2.06319782E+02
  0
VERTEX
  8
0
 62
4
 10
-4.15398814E+01
 20
2.06278793E+02
  0
VERTEX
  8
0
 62
4
 10
-4.17830101E+01
 20
2.06233884E+02
  0
VERTEX
  8
0
 62
4
 10
-4.20022544E+01
 20
2.06185409E+02
  0
VERTEX
  8
0
 62
4
 10
-4.21958876E+01
 20
2.06133750E+02
  0
VERTEX
  8
0
 62
4
 10
-4.23623851E+01
 20
2.06079314E+02
  0
VERTEX
  8
0
 62
4
 10
-4.25004358E+01
 20
2.06022529E+02
  0
VERTEX
  8
0
 62
4
 10
-4.26089524E+01
 20
2.05963842E+02
  0
VERTEX
  8
0
 62
4
 10
-4.26870804E+01
 20
2.05903716E+02
  0
VERTEX
  8
0
 62
4
 10
-4.27342048E+01
 20
2.05842623E+02
  0
VERTEX
  8
0
 62
4
 10
-4.27499542E+01
 20
2.05781046E+02
  0
SEQEND
  8
0
  0
ARC
  8
0
 62
4
 10
-4.08685598E+01
 20
2.15265135E+02
 40
1.25124521E+01
 50
2.74941635E+02
 51
2.88095416E+02
  0
ARC
  8
0
 62
4
 10
-3.66313484E+01
 20
2.15265138E+02
 40
1.25124547E+01
 50
2.51904586E+02
 51
2.65058365E+02
  0
POLYLINE
  8
0
 62
4
 66
1
  0
VERTEX
  8
0
 62
4
 10
-3.45999542E+01
 20
2.03673558E+02
  0
VERTEX
  8
0
 62
4
 10
-3.46166609E+01
 20
2.03738156E+02
  0
VERTEX
  8
0
 62
4
 10
-3.46666464E+01
 20
2.03802233E+02
  0
VERTEX
  8
0
 62
4
 10
-3.47495083E+01
 20
2.03865275E+02
  0
VERTEX
  8
0
 62
4
 10
-3.48645795E+01
 20
2.03926773E+02
  0
VERTEX
  8
0
 62
4
 10
-3.50109334E+01
 20
2.03986232E+02
  0
VERTEX
  8
0
 62
4
 10
-3.51873917E+01
 20
2.04043174E+02
  0
VERTEX
  8
0
 62
4
 10
-3.53925337E+01
 20
2.04097140E+02
  0
VERTEX
  8
0
 62
4
 10
-3.56247076E+01
 20
2.04147695E+02
  0
VERTEX
  8
0
 62
4
 10
-3.58820442E+01
 20
2.04194433E+02
  0
VERTEX
  8
0
 62
4
 10
-3.61624715E+01
 20
2.04236977E+02
  0
VERTEX
  8
0
 62
4
 10
-3.64637317E+01
 20
2.04274985E+02
  0
VERTEX
  8
0
 62
4
 10
-3.67833992E+01
 20
2.04308150E+02
  0
VERTEX
  8
0
 62
4
 10
-3.71189003E+01
 20
2.04336206E+02
  0
VERTEX
  8
0
 62
4
 10
-3.74675336E+01
 20
2.04358927E+02
  0
VERTEX
  8
0
 62
4
 10
-3.78264923E+01
 20
2.04376130E+02
  0
VERTEX
  8
0
 62
4
 10
-3.81928861E+01
 20
2.04387676E+02
  0
VERTEX
  8
0
 62
4
 10
-3.85637651E+01
 20
2.04393472E+02
  0
VERTEX
  8
0
 62
4
 10
-3.89361432E+01
 20
2.04393472E+02
  0
VERTEX
  8
0
 62
4
 10
-3.93070222E+01
 20
2.04387676E+02
  0
VERTEX
  8
0
 62
4
 10
-3.96734161E+01
 20
2.04376130E+02
  0
VERTEX
  8
0
 62
4
 10
-4.00323747E+01
 20
2.04358927E+02
  0
VERTEX
  8
0
 62
4
 10
-4.03810081E+01
 20
2.04336206E+02
  0
VERTEX
  8
0
 62
4
 10
-4.07165091E+01
 20
2.04308150E+02
  0
VERTEX
  8
0
 62
4
 10
-4.10361767E+01
 20
2.04274985E+02
  0
VERTEX
  8
0
 62
4
 10
-4.13374369E+01
 20
2.04236977E+02
  0
VERTEX
  8
0
 62
4
 10
-4.16178642E+01
 20
2.04194433E+02
  0
VERTEX
  8
0
 62
4
 10
-4.18752008E+01
 20
2.04147695E+02
  0
VERTEX
  8
0
 62
4
 10
-4.21073747E+01
 20
2.04097140E+02
  0
VERTEX
  8
0
 62
4
 10
-4.23125167E+01
 20
2.04043174E+02
  0
VERTEX
  8
0
 62
4
 10
-4.24889750E+01
 20
2.03986232E+02
  0
VERTEX
  8
0
 62
4
 10
-4.26353289E+01
 20
2.03926773E+02
  0
VERTEX
  8
0
 62
4
 10
-4.27504001E+01
 20
2.03865275E+02
  0
VERTEX
  8
0
 62
4
 10
-4.28332620E+01
 20
2.03802233E+02
  0
VERTEX
  8
0
 62
4
 10
-4.28832475E+01
 20
2.03738156E+02
  0
VERTEX
  8
0
 62
4
 10
-4.28999542E+01
 20
2.03673558E+02
  0
SEQEND
  8
0
  0
ARC
  8
0
 62
4
 10
-4.26499542E+01
 20
2.03678895E+02
 40
2.50000000E-01
 50
1.80000000E+02
 51
2.50324001E+02
  0
ARC
  8
0
 62
4
 10
-3.48499542E+01
 20
2.03678895E+02
 40
2.50000000E-01
 50
2.89675999E+02
 51
0.00000000E+00
  0
LINE
  8
0
 62
4
 10
-3.50499542E+01
 20
2.05404007E+02
 11
-3.50499542E+01
 21
2.06388815E+02
  0
LINE
  8
0
 62
4
 10
-2.74499542E+01
 20
2.05404007E+02
 11
-2.74499542E+01
 21
2.06388815E+02
  0
POLYLINE
  8
0
 62
4
 66
1
  0
VERTEX
  8
0
 62
4
 10
-2.74499542E+01
 20
2.06388815E+02
  0
VERTEX
  8
0
 62
4
 10
-2.74652519E+01
 20
2.06447965E+02
  0
VERTEX
  8
0
 62
4
 10
-2.75110218E+01
 20
2.06506638E+02
  0
VERTEX
  8
0
 62
4
 10
-2.75868953E+01
 20
2.06564363E+02
  0
VERTEX
  8
0
 62
4
 10
-2.76922617E+01
 20
2.06620674E+02
  0
VERTEX
  8
0
 62
4
 10
-2.78262725E+01
 20
2.06675119E+02
  0
VERTEX
  8
0
 62
4
 10
-2.79878488E+01
 20
2.06727258E+02
  0
VERTEX
  8
0
 62
4
 10
-2.81756896E+01
 20
2.06776673E+02
  0
VERTEX
  8
0
 62
4
 10
-2.83882826E+01
 20
2.06822964E+02
  0
VERTEX
  8
0
 62
4
 10
-2.86239161E+01
 20
2.06865761E+02
  0
VERTEX
  8
0
 62
4
 10
-2.88806929E+01
 20
2.06904717E+02
  0
VERTEX
  8
0
 62
4
 10
-2.91565457E+01
 20
2.06939519E+02
  0
VERTEX
  8
0
 62
4
 10
-2.94492533E+01
 20
2.06969887E+02
  0
VERTEX
  8
0
 62
4
 10
-2.97564591E+01
 20
2.06995577E+02
  0
VERTEX
  8
0
 62
4
 10
-3.00756896E+01
 20
2.07016382E+02
  0
VERTEX
  8
0
 62
4
 10
-3.04043746E+01
 20
2.07032134E+02
  0
VERTEX
  8
0
 62
4
 10
-3.07398678E+01
 20
2.07042706E+02
  0
VERTEX
  8
0
 62
4
 10
-3.10794678E+01
 20
2.07048014E+02
  0
VERTEX
  8
0
 62
4
 10
-3.14204405E+01
 20
2.07048014E+02
  0
VERTEX
  8
0
 62
4
 10
-3.17600406E+01
 20
2.07042706E+02
  0
VERTEX
  8
0
 62
4
 10
-3.20955337E+01
 20
2.07032134E+02
  0
VERTEX
  8
0
 62
4
 10
-3.24242188E+01
 20
2.07016382E+02
  0
VERTEX
  8
0
 62
4
 10
-3.27434493E+01
 20
2.06995577E+02
  0
VERTEX
  8
0
 62
4
 10
-3.30506551E+01
 20
2.06969887E+02
  0
VERTEX
  8
0
 62
4
 10
-3.33433627E+01
 20
2.06939519E+02
  0
VERTEX
  8
0
 62
4
 10
-3.36192154E+01
 20
2.06904717E+02
  0
VERTEX
  8
0
 62
4
 10
-3.38759922E+01
 20
2.06865761E+02
  0
VERTEX
  8
0
 62
4
 10
-3.41116258E+01
 20
2.06822964E+02
  0
VERTEX
  8
0
 62
4
 10
-3.43242188E+01
 20
2.06776673E+02
  0
VERTEX
  8
0
 62
4
 10
-3.45120596E+01
 20
2.06727258E+02
  0
VERTEX
  8
0
 62
4
 10
-3.46736359E+01
 20
2.06675119E+02
  0
VERTEX
  8
0
 62
4
 10
-3.48076467E+01
 20
2.06620674E+02
  0
VERTEX
  8
0
 62
4
 10
-3.49130131E+01
 20
2.06564363E+02
  0
VERTEX
  8
0
 62
4
 10
-3.49888866E+01
 20
2.06506638E+02
  0
VERTEX
  8
0
 62
4
 10
-3.50346565E+01
 20
2.06447965E+02
  0
VERTEX
  8
0
 62
4
 10
-3.50499542E+01
 20
2.06388815E+02
  0
SEQEND
  8
0
  0
POLYLINE
  8
0
 62
4
 66
1
  0
VERTEX
  8
0
 62
4
 10
-2.78499542E+01
 20
2.05109316E+02
  0
VERTEX
  8
0
 62
4
 10
-2.77133725E+01
 20
2.05162605E+02
  0
VERTEX
  8
0
 62
4
 10
-2.76044247E+01
 20
2.05217781E+02
  0
VERTEX
  8
0
 62
4
 10
-2.75239619E+01
 20
2.05274411E+02
  0
VERTEX
  8
0
 62
4
 10
-2.74726129E+01
 20
2.05332054E+02
  0
VERTEX
  8
0
 62
4
 10
-2.74507789E+01
 20
2.05390260E+02
  0
VERTEX
  8
0
 62
4
 10
-2.74586306E+01
 20
2.05448573E+02
  0
VERTEX
  8
0
 62
4
 10
-2.74961066E+01
 20
2.05506537E+02
  0
VERTEX
  8
0
 62
4
 10
-2.75629140E+01
 20
2.05563700E+02
  0
VERTEX
  8
0
 62
4
 10
-2.76585308E+01
 20
2.05619616E+02
  0
VERTEX
  8
0
 62
4
 10
-2.77822100E+01
 20
2.05673847E+02
  0
VERTEX
  8
0
 62
4
 10
-2.79329851E+01
 20
2.05725969E+02
  0
VERTEX
  8
0
 62
4
 10
-2.81096780E+01
 20
2.05775576E+02
  0
VERTEX
  8
0
 62
4
 10
-2.83109080E+01
 20
2.05822280E+02
  0
VERTEX
  8
0
 62
4
 10
-2.85351030E+01
 20
2.05865715E+02
  0
VERTEX
  8
0
 62
4
 10
-2.87805109E+01
 20
2.05905542E+02
  0
VERTEX
  8
0
 62
4
 10
-2.90452144E+01
 20
2.05941451E+02
  0
VERTEX
  8
0
 62
4
 10
-2.93271450E+01
 20
2.05973160E+02
  0
VERTEX
  8
0
 62
4
 10
-2.96240999E+01
 20
2.06000422E+02
  0
VERTEX
  8
0
 62
4
 10
-2.99337588E+01
 20
2.06023024E+02
  0
VERTEX
  8
0
 62
4
 10
-3.02537020E+01
 20
2.06040789E+02
  0
VERTEX
  8
0
 62
4
 10
-3.05814296E+01
 20
2.06053578E+02
  0
VERTEX
  8
0
 62
4
 10
-3.09143809E+01
 20
2.06061292E+02
  0
VERTEX
  8
0
 62
4
 10
-3.12499542E+01
 20
2.06063870E+02
  0
VERTEX
  8
0
 62
4
 10
-3.15855276E+01
 20
2.06061292E+02
  0
VERTEX
  8
0
 62
4
 10
-3.19184788E+01
 20
2.06053578E+02
  0
VERTEX
  8
0
 62
4
 10
-3.22462065E+01
 20
2.06040789E+02
  0
VERTEX
  8
0
 62
4
 10
-3.25661497E+01
 20
2.06023024E+02
  0
VERTEX
  8
0
 62
4
 10
-3.28758085E+01
 20
2.06000422E+02
  0
VERTEX
  8
0
 62
4
 10
-3.31727634E+01
 20
2.05973160E+02
  0
VERTEX
  8
0
 62
4
 10
-3.34546941E+01
 20
2.05941451E+02
  0
VERTEX
  8
0
 62
4
 10
-3.37193975E+01
 20
2.05905542E+02
  0
VERTEX
  8
0
 62
4
 10
-3.39648055E+01
 20
2.05865715E+02
  0
VERTEX
  8
0
 62
4
 10
-3.41890004E+01
 20
2.05822280E+02
  0
VERTEX
  8
0
 62
4
 10
-3.43902305E+01
 20
2.05775576E+02
  0
VERTEX
  8
0
 62
4
 10
-3.45669234E+01
 20
2.05725969E+02
  0
VERTEX
  8
0
 62
4
 10
-3.47176984E+01
 20
2.05673847E+02
  0
VERTEX
  8
0
 62
4
 10
-3.48413776E+01
 20
2.05619616E+02
  0
VERTEX
  8
0
 62
4
 10
-3.49369944E+01
 20
2.05563701E+02
  0
VERTEX
  8
0
 62
4
 10
-3.50038018E+01
 20
2.05506537E+02
  0
VERTEX
  8
0
 62
4
 10
-3.50412778E+01
 20
2.05448573E+02
  0
VERTEX
  8
0
 62
4
 10
-3.50491295E+01
 20
2.05390260E+02
  0
VERTEX
  8
0
 62
4
 10
-3.50272955E+01
 20
2.05332054E+02
  0
VERTEX
  8
0
 62
4
 10
-3.49759465E+01
 20
2.05274411E+02
  0
VERTEX
  8
0
 62
4
 10
-3.48954837E+01
 20
2.05217781E+02
  0
VERTEX
  8
0
 62
4
 10
-3.47865359E+01
 20
2.05162605E+02
  0
VERTEX
  8
0
 62
4
 10
-3.46499542E+01
 20
2.05109316E+02
  0
SEQEND
  8
0
  0
LINE
  8
0
 62
4
 10
-3.46499542E+01
 20
2.04130255E+02
 11
-3.46499542E+01
 21
2.05404007E+02
  0
LINE
  8
0
 62
4
 10
-2.78499542E+01
 20
2.04130255E+02
 11
-2.78499542E+01
 21
2.05404007E+02
  0
POLYLINE
  8
0
 62
4
 66
1
  0
VERTEX
  8
0
 62
4
 10
-2.78499542E+01
 20
2.05404007E+02
  0
VERTEX
  8
0
 62
4
 10
-2.78636416E+01
 20
2.05456930E+02
  0
VERTEX
  8
0
 62
4
 10
-2.79045936E+01
 20
2.05509428E+02
  0
VERTEX
  8
0
 62
4
 10
-2.79724805E+01
 20
2.05561076E+02
  0
VERTEX
  8
0
 62
4
 10
-2.80667556E+01
 20
2.05611460E+02
  0
VERTEX
  8
0
 62
4
 10
-2.81866600E+01
 20
2.05660174E+02
  0
VERTEX
  8
0
 62
4
 10
-2.83312283E+01
 20
2.05706825E+02
  0
VERTEX
  8
0
 62
4
 10
-2.84992964E+01
 20
2.05751038E+02
  0
VERTEX
  8
0
 62
4
 10
-2.86895112E+01
 20
2.05792457E+02
  0
VERTEX
  8
0
 62
4
 10
-2.89003412E+01
 20
2.05830748E+02
  0
VERTEX
  8
0
 62
4
 10
-2.91300889E+01
 20
2.05865603E+02
  0
VERTEX
  8
0
 62
4
 10
-2.93769044E+01
 20
2.05896742E+02
  0
VERTEX
  8
0
 62
4
 10
-2.96388007E+01
 20
2.05923914E+02
  0
VERTEX
  8
0
 62
4
 10
-2.99136691E+01
 20
2.05946900E+02
  0
VERTEX
  8
0
 62
4
 10
-3.01992964E+01
 20
2.05965514E+02
  0
VERTEX
  8
0
 62
4
 10
-3.04933830E+01
 20
2.05979608E+02
  0
VERTEX
  8
0
 62
4
 10
-3.07935611E+01
 20
2.05989068E+02
  0
VERTEX
  8
0
 62
4
 10
-3.10974138E+01
 20
2.05993816E+02
  0
VERTEX
  8
0
 62
4
 10
-3.14024946E+01
 20
2.05993816E+02
  0
VERTEX
  8
0
 62
4
 10
-3.17063473E+01
 20
2.05989068E+02
  0
VERTEX
  8
0
 62
4
 10
-3.20065254E+01
 20
2.05979608E+02
  0
VERTEX
  8
0
 62
4
 10
-3.23006120E+01
 20
2.05965514E+02
  0
VERTEX
  8
0
 62
4
 10
-3.25862393E+01
 20
2.05946900E+02
  0
VERTEX
  8
0
 62
4
 10
-3.28611076E+01
 20
2.05923914E+02
  0
VERTEX
  8
0
 62
4
 10
-3.31230039E+01
 20
2.05896742E+02
  0
VERTEX
  8
0
 62
4
 10
-3.33698195E+01
 20
2.05865603E+02
  0
VERTEX
  8
0
 62
4
 10
-3.35995672E+01
 20
2.05830748E+02
  0
VERTEX
  8
0
 62
4
 10
-3.38103972E+01
 20
2.05792457E+02
  0
VERTEX
  8
0
 62
4
 10
-3.40006120E+01
 20
2.05751038E+02
  0
VERTEX
  8
0
 62
4
 10
-3.41686801E+01
 20
2.05706825E+02
  0
VERTEX
  8
0
 62
4
 10
-3.43132483E+01
 20
2.05660174E+02
  0
VERTEX
  8
0
 62
4
 10
-3.44331528E+01
 20
2.05611460E+02
  0
VERTEX
  8
0
 62
4
 10
-3.45274279E+01
 20
2.05561076E+02
  0
VERTEX
  8
0
 62
4
 10
-3.45953148E+01
 20
2.05509428E+02
  0
VERTEX
  8
0
 62
4
 10
-3.46362668E+01
 20
2.05456930E+02
  0
VERTEX
  8
0
 62
4
 10
-3.46499542E+01
 20
2.05404007E+02
  0
SEQEND
  8
0
  0
ARC
  8
0
 62
4
 10
-3.12499542E+01
 20
2.14670468E+02
 40
1.18100000E+01
 50
2.57172490E+02
 51
2.82827510E+02
  0
ARC
  8
0
 62
4
 10
-2.88499539E+01
 20
2.04130255E+02
 40
1.00000000E+00
 50
2.82827510E+02
 51
5.08888749E-14
  0
ARC
  8
0
 62
4
 10
-3.36499545E+01
 20
2.04130255E+02
 40
1.00000000E+00
 50
1.80000000E+02
 51
2.57172490E+02
  0
ARC
  8
0
 62
4
 10
-3.33717078E+01
 20
2.15389611E+02
 40
1.25306621E+01
 50
2.74968660E+02
 51
2.88083352E+02
  0
ARC
  8
0
 62
4
 10
-2.91282006E+01
 20
2.15389612E+02
 40
1.25306626E+01
 50
2.51916648E+02
 51
2.65031340E+02
  0
LINE
  8
0
  6
CENTER
 62
6
 10
-4.12499542E+01
 20
2.05781046E+02
 11
-3.62499542E+01
 21
2.05781046E+02
  0
LINE
  8
0
  6
CENTER
 62
6
 10
-3.12499542E+01
 20
2.08888815E+02
 11
-3.12499542E+01
 21
2.03888815E+02
  0
LINE
  8
0
  6
CENTER
 62
6
 10
-3.37499542E+01
 20
2.06388815E+02
 11
-2.87499542E+01
 21
2.06388815E+02
  0
LINE
  8
0
  6
CENTER
 62
6
 10
-4.62499542E+01
 20
2.08888815E+02
 11
-4.62499542E+01
 21
2.03888815E+02
  0
LINE
  8
0
  6
CENTER
 62
6
 10
-4.87499542E+01
 20
2.06388815E+02
 11
-4.37499542E+01
 21
2.06388815E+02
  0
LINE
  8
0
 62
4
 10
-2.74568436E+01
 20
2.05364291E+02
 11
-2.37499542E+01
 21
2.05364291E+02
  0
LINE
  8
0
 62
4
 10
5.24995422E+00
 20
1.98536105E+02
 11
-5.61607118E+00
 21
1.98536105E+02
  0
LINE
  8
0
  6
CENTER
 62
6
 10
4.02499542E+01
 20
2.00036105E+02
 11
-6.75004578E+00
 21
2.00036105E+02
  0
LINE
  8
0
 62
6
 10
-3.01799494E+00
 20
2.03036105E+02
 11
-6.48209656E+00
 21
1.97036105E+02
  0
LINE
  8
0
 62
4
 10
5.24995422E+00
 20
2.01536105E+02
 11
-3.88402038E+00
 21
2.01536105E+02
  0
LINE
  8
0
 62
6
 10
1.02499542E+01
 20
1.74366144E+02
 11
1.02499542E+01
 21
1.76717181E+02
  0
LINE
  8
0
 62
6
 10
7.24995420E+00
 20
1.74366144E+02
 11
7.24995420E+00
 21
1.76717181E+02
  0
LINE
  8
0
 62
4
 10
1.07499542E+01
 20
1.74595859E+02
 11
1.07499542E+01
 21
1.76717181E+02
  0
LINE
  8
0
 62
4
 10
6.74995420E+00
 20
1.74595859E+02
 11
6.74995420E+00
 21
1.76717181E+02
  0
LINE
  8
0
 62
4
 10
2.02499542E+01
 20
1.76717181E+02
 11
2.02499542E+01
 21
1.89425178E+02
  0
LINE
  8
0
 62
4
 10
5.24995422E+00
 20
1.76717181E+02
 11
5.24995422E+00
 21
2.02347068E+02
  0
LINE
  8
0
 62
4
 10
3.52499542E+01
 20
1.89425178E+02
 11
3.52499542E+01
 21
2.01374639E+02
  0
LINE
  8
0
  6
CENTER
 62
6
 10
8.74995419E+00
 20
1.71253886E+02
 11
8.74995419E+00
 21
1.81519465E+02
  0
LINE
  8
0
  6
CENTER
 62
6
 10
1.67499542E+01
 20
1.71253886E+02
 11
1.67499542E+01
 21
1.81519465E+02
  0
LINE
  8
0
  6
CENTER
 62
6
 10
2.02499542E+01
 20
1.98457883E+02
 11
2.02499542E+01
 21
2.03457883E+02
  0
LINE
  8
0
 62
4
 10
2.02499542E+01
 20
1.76717181E+02
 11
5.24995423E+00
 21
1.76717181E+02
  0
LINE
  8
0
 62
4
 10
2.02499542E+01
 20
1.82531523E+02
 11
5.24995423E+00
 21
1.82531523E+02
  0
LINE
  8
0
 62
4
 10
3.52499542E+01
 20
1.89425178E+02
 11
5.24995423E+00
 21
1.89425178E+02
  0
LINE
  8
0
 62
4
 10
3.52499542E+01
 20
1.99568698E+02
 11
5.24995423E+00
 21
1.99568698E+02
  0
LINE
  8
0
 62
4
 10
9.34995422E+00
 20
2.02347068E+02
 11
5.24995422E+00
 21
2.02347068E+02
  0
LINE
  8
0
 62
4
 10
9.34995422E+00
 20
2.02173420E+02
 11
5.24995422E+00
 21
2.02173420E+02
  0
LINE
  8
0
 62
4
 10
3.52499542E+01
 20
2.01374639E+02
 11
2.43999542E+01
 21
2.01374639E+02
  0
POLYLINE
  8
0
 62
4
 66
1
  0
VERTEX
  8
0
 62
4
 10
6.74995419E+00
 20
1.74595859E+02
  0
VERTEX
  8
0
 62
4
 10
6.75800560E+00
 20
1.74564728E+02
  0
VERTEX
  8
0
 62
4
 10
6.78209501E+00
 20
1.74533847E+02
  0
VERTEX
  8
0
 62
4
 10
6.82202847E+00
 20
1.74503465E+02
  0
VERTEX
  8
0
 62
4
 10
6.87748445E+00
 20
1.74473828E+02
  0
VERTEX
  8
0
 62
4
 10
6.94801645E+00
 20
1.74445173E+02
  0
VERTEX
  8
0
 62
4
 10
7.03305660E+00
 20
1.74417731E+02
  0
VERTEX
  8
0
 62
4
 10
7.13192020E+00
 20
1.74391723E+02
  0
VERTEX
  8
0
 62
4
 10
7.24381125E+00
 20
1.74367359E+02
  0
VERTEX
  8
0
 62
4
 10
7.36782889E+00
 20
1.74344835E+02
  0
VERTEX
  8
0
 62
4
 10
7.50297458E+00
 20
1.74324332E+02
  0
VERTEX
  8
0
 62
4
 10
7.64816022E+00
 20
1.74306015E+02
  0
VERTEX
  8
0
 62
4
 10
7.80221686E+00
 20
1.74290031E+02
  0
VERTEX
  8
0
 62
4
 10
7.96390412E+00
 20
1.74276510E+02
  0
VERTEX
  8
0
 62
4
 10
8.13192019E+00
 20
1.74265561E+02
  0
VERTEX
  8
0
 62
4
 10
8.30491231E+00
 20
1.74257270E+02
  0
VERTEX
  8
0
 62
4
 10
8.48148765E+00
 20
1.74251706E+02
  0
VERTEX
  8
0
 62
4
 10
8.66022452E+00
 20
1.74248912E+02
  0
VERTEX
  8
0
 62
4
 10
8.83968384E+00
 20
1.74248912E+02
  0
VERTEX
  8
0
 62
4
 10
9.01842071E+00
 20
1.74251706E+02
  0
VERTEX
  8
0
 62
4
 10
9.19499605E+00
 20
1.74257270E+02
  0
VERTEX
  8
0
 62
4
 10
9.36798817E+00
 20
1.74265561E+02
  0
VERTEX
  8
0
 62
4
 10
9.53600424E+00
 20
1.74276510E+02
  0
VERTEX
  8
0
 62
4
 10
9.69769150E+00
 20
1.74290031E+02
  0
VERTEX
  8
0
 62
4
 10
9.85174814E+00
 20
1.74306015E+02
  0
VERTEX
  8
0
 62
4
 10
9.99693378E+00
 20
1.74324332E+02
  0
VERTEX
  8
0
 62
4
 10
1.01320795E+01
 20
1.74344835E+02
  0
VERTEX
  8
0
 62
4
 10
1.02560971E+01
 20
1.74367359E+02
  0
VERTEX
  8
0
 62
4
 10
1.03679882E+01
 20
1.74391723E+02
  0
VERTEX
  8
0
 62
4
 10
1.04668518E+01
 20
1.74417731E+02
  0
VERTEX
  8
0
 62
4
 10
1.05518919E+01
 20
1.74445173E+02
  0
VERTEX
  8
0
 62
4
 10
1.06224239E+01
 20
1.74473828E+02
  0
VERTEX
  8
0
 62
4
 10
1.06778799E+01
 20
1.74503465E+02
  0
VERTEX
  8
0
 62
4
 10
1.07178134E+01
 20
1.74533847E+02
  0
VERTEX
  8
0
 62
4
 10
1.07419028E+01
 20
1.74564728E+02
  0
VERTEX
  8
0
 62
4
 10
1.07499542E+01
 20
1.74595859E+02
  0
SEQEND
  8
0
  0
LINE
  8
0
 62
6
 10
1.82499542E+01
 20
1.74366144E+02
 11
1.82499542E+01
 21
1.76717181E+02
  0
LINE
  8
0
 62
6
 10
1.52499542E+01
 20
1.74366144E+02
 11
1.52499542E+01
 21
1.76717181E+02
  0
LINE
  8
0
 62
4
 10
1.87499542E+01
 20
1.74595859E+02
 11
1.87499542E+01
 21
1.76717181E+02
  0
LINE
  8
0
 62
4
 10
1.47499542E+01
 20
1.74595859E+02
 11
1.47499542E+01
 21
1.76717181E+02
  0
POLYLINE
  8
0
 62
4
 66
1
  0
VERTEX
  8
0
 62
4
 10
1.47499542E+01
 20
1.74595859E+02
  0
VERTEX
  8
0
 62
4
 10
1.47580056E+01
 20
1.74564728E+02
  0
VERTEX
  8
0
 62
4
 10
1.47820950E+01
 20
1.74533847E+02
  0
VERTEX
  8
0
 62
4
 10
1.48220285E+01
 20
1.74503465E+02
  0
VERTEX
  8
0
 62
4
 10
1.48774845E+01
 20
1.74473828E+02
  0
VERTEX
  8
0
 62
4
 10
1.49480165E+01
 20
1.74445173E+02
  0
VERTEX
  8
0
 62
4
 10
1.50330566E+01
 20
1.74417731E+02
  0
VERTEX
  8
0
 62
4
 10
1.51319202E+01
 20
1.74391723E+02
  0
VERTEX
  8
0
 62
4
 10
1.52438113E+01
 20
1.74367359E+02
  0
VERTEX
  8
0
 62
4
 10
1.53678289E+01
 20
1.74344835E+02
  0
VERTEX
  8
0
 62
4
 10
1.55029746E+01
 20
1.74324332E+02
  0
VERTEX
  8
0
 62
4
 10
1.56481602E+01
 20
1.74306015E+02
  0
VERTEX
  8
0
 62
4
 10
1.58022169E+01
 20
1.74290031E+02
  0
VERTEX
  8
0
 62
4
 10
1.59639041E+01
 20
1.74276510E+02
  0
VERTEX
  8
0
 62
4
 10
1.61319202E+01
 20
1.74265561E+02
  0
VERTEX
  8
0
 62
4
 10
1.63049123E+01
 20
1.74257270E+02
  0
VERTEX
  8
0
 62
4
 10
1.64814877E+01
 20
1.74251706E+02
  0
VERTEX
  8
0
 62
4
 10
1.66602245E+01
 20
1.74248912E+02
  0
VERTEX
  8
0
 62
4
 10
1.68396838E+01
 20
1.74248912E+02
  0
VERTEX
  8
0
 62
4
 10
1.70184207E+01
 20
1.74251706E+02
  0
VERTEX
  8
0
 62
4
 10
1.71949961E+01
 20
1.74257270E+02
  0
VERTEX
  8
0
 62
4
 10
1.73679882E+01
 20
1.74265561E+02
  0
VERTEX
  8
0
 62
4
 10
1.75360043E+01
 20
1.74276510E+02
  0
VERTEX
  8
0
 62
4
 10
1.76976915E+01
 20
1.74290031E+02
  0
VERTEX
  8
0
 62
4
 10
1.78517482E+01
 20
1.74306015E+02
  0
VERTEX
  8
0
 62
4
 10
1.79969338E+01
 20
1.74324332E+02
  0
VERTEX
  8
0
 62
4
 10
1.81320795E+01
 20
1.74344835E+02
  0
VERTEX
  8
0
 62
4
 10
1.82560971E+01
 20
1.74367359E+02
  0
VERTEX
  8
0
 62
4
 10
1.83679882E+01
 20
1.74391723E+02
  0
VERTEX
  8
0
 62
4
 10
1.84668518E+01
 20
1.74417731E+02
  0
VERTEX
  8
0
 62
4
 10
1.85518919E+01
 20
1.74445173E+02
  0
VERTEX
  8
0
 62
4
 10
1.86224239E+01
 20
1.74473828E+02
  0
VERTEX
  8
0
 62
4
 10
1.86778799E+01
 20
1.74503465E+02
  0
VERTEX
  8
0
 62
4
 10
1.87178134E+01
 20
1.74533847E+02
  0
VERTEX
  8
0
 62
4
 10
1.87419028E+01
 20
1.74564728E+02
  0
VERTEX
  8
0
 62
4
 10
1.87499542E+01
 20
1.74595859E+02
  0
SEQEND
  8
0
  0
LINE
  8
0
 62
4
 10
3.52499542E+01
 20
1.97719193E+02
 11
3.67499542E+01
 21
1.98722126E+02
  0
LINE
  8
0
 62
4
 10
3.67499542E+01
 20
1.98722126E+02
 11
3.67499542E+01
 21
2.01346029E+02
  0
LINE
  8
0
 62
4
 10
3.67499542E+01
 20
2.00952715E+02
 11
3.52499542E+01
 21
2.01658424E+02
  0
LINE
  8
0
 62
4
 10
3.67499542E+01
 20
2.01346029E+02
 11
3.52499542E+01
 21
2.02353017E+02
  0
LINE
  8
0
 62
4
 10
3.52499542E+01
 20
2.02353017E+02
 11
2.43999542E+01
 21
2.02353017E+02
  0
LINE
  8
0
 62
4
 10
3.52499542E+01
 20
2.01658424E+02
 11
2.43999542E+01
 21
2.01658424E+02
  0
LINE
  8
0
 62
4
 10
3.52499542E+01
 20
2.01374639E+02
 11
3.52499542E+01
 21
2.02347068E+02
  0
POLYLINE
  8
0
 62
4
 66
1
  0
VERTEX
  8
0
 62
4
 10
1.65499542E+01
 20
2.01005739E+02
  0
VERTEX
  8
0
 62
4
 10
1.67317692E+01
 20
2.00949892E+02
  0
VERTEX
  8
0
 62
4
 10
1.69414664E+01
 20
2.00897073E+02
  0
VERTEX
  8
0
 62
4
 10
1.71773841E+01
 20
2.00847703E+02
  0
VERTEX
  8
0
 62
4
 10
1.74376524E+01
 20
2.00802171E+02
  0
VERTEX
  8
0
 62
4
 10
1.77202087E+01
 20
2.00760840E+02
  0
VERTEX
  8
0
 62
4
 10
1.80228138E+01
 20
2.00724035E+02
  0
VERTEX
  8
0
 62
4
 10
1.83430693E+01
 20
2.00692050E+02
  0
VERTEX
  8
0
 62
4
 10
1.86784373E+01
 20
2.00665137E+02
  0
VERTEX
  8
0
 62
4
 10
1.90262598E+01
 20
2.00643511E+02
  0
VERTEX
  8
0
 62
4
 10
1.93837804E+01
 20
2.00627341E+02
  0
VERTEX
  8
0
 62
4
 10
1.97481655E+01
 20
2.00616757E+02
  0
VERTEX
  8
0
 62
4
 10
2.01165274E+01
 20
2.00611843E+02
  0
VERTEX
  8
0
 62
4
 10
2.04859467E+01
 20
2.00612636E+02
  0
VERTEX
  8
0
 62
4
 10
2.08534958E+01
 20
2.00619132E+02
  0
VERTEX
  8
0
 62
4
 10
2.12162616E+01
 20
2.00631278E+02
  0
VERTEX
  8
0
 62
4
 10
2.15713693E+01
 20
2.00648978E+02
  0
VERTEX
  8
0
 62
4
 10
2.19160046E+01
 20
2.00672092E+02
  0
VERTEX
  8
0
 62
4
 10
2.22474360E+01
 20
2.00700437E+02
  0
VERTEX
  8
0
 62
4
 10
2.25630371E+01
 20
2.00733788E+02
  0
VERTEX
  8
0
 62
4
 10
2.28603065E+01
 20
2.00771881E+02
  0
VERTEX
  8
0
 62
4
 10
2.31368885E+01
 20
2.00814414E+02
  0
VERTEX
  8
0
 62
4
 10
2.33905909E+01
 20
2.00861049E+02
  0
VERTEX
  8
0
 62
4
 10
2.36194032E+01
 20
2.00911418E+02
  0
VERTEX
  8
0
 62
4
 10
2.38215120E+01
 20
2.00965121E+02
  0
VERTEX
  8
0
 62
4
 10
2.39953155E+01
 20
2.01021733E+02
  0
VERTEX
  8
0
 62
4
 10
2.41394363E+01
 20
2.01080804E+02
  0
VERTEX
  8
0
 62
4
 10
2.42527323E+01
 20
2.01141867E+02
  0
VERTEX
  8
0
 62
4
 10
2.43343055E+01
 20
2.01204437E+02
  0
VERTEX
  8
0
 62
4
 10
2.43835094E+01
 20
2.01268020E+02
  0
VERTEX
  8
0
 62
4
 10
2.43999542E+01
 20
2.01332110E+02
  0
SEQEND
  8
0
  0
ARC
  8
0
 62
4
 10
2.02422159E+01
 20
1.92175004E+02
 40
1.18100000E+01
 50
8.99624577E+01
 51
1.09675998E+02
  0
ARC
  8
0
 62
4
 10
2.02576925E+01
 20
1.92175004E+02
 40
1.18100000E+01
 50
7.03240015E+01
 51
9.00375421E+01
  0
LINE
  8
0
 62
4
 10
2.43999542E+01
 20
2.03060035E+02
 11
2.43999542E+01
 21
2.01332110E+02
  0
LINE
  8
0
 62
4
 10
1.60999542E+01
 20
2.03060035E+02
 11
1.60999542E+01
 21
2.02920926E+02
  0
LINE
  8
0
 62
4
 10
2.42499542E+01
 20
2.00957883E+02
 11
2.42499542E+01
 21
2.01140113E+02
  0
POLYLINE
  8
0
 62
4
 66
1
  0
VERTEX
  8
0
 62
4
 10
1.65499542E+01
 20
2.00693961E+02
  0
VERTEX
  8
0
 62
4
 10
1.66992622E+01
 20
2.00638041E+02
  0
VERTEX
  8
0
 62
4
 10
1.68765309E+01
 20
2.00584640E+02
  0
VERTEX
  8
0
 62
4
 10
1.70803643E+01
 20
2.00534178E+02
  0
VERTEX
  8
0
 62
4
 10
1.73091574E+01
 20
2.00487053E+02
  0
VERTEX
  8
0
 62
4
 10
1.75611084E+01
 20
2.00443635E+02
  0
VERTEX
  8
0
 62
4
 10
1.78342334E+01
 20
2.00404267E+02
  0
VERTEX
  8
0
 62
4
 10
1.81263815E+01
 20
2.00369258E+02
  0
VERTEX
  8
0
 62
4
 10
1.84352521E+01
 20
2.00338885E+02
  0
VERTEX
  8
0
 62
4
 10
1.87584130E+01
 20
2.00313386E+02
  0
VERTEX
  8
0
 62
4
 10
1.90933194E+01
 20
2.00292962E+02
  0
VERTEX
  8
0
 62
4
 10
1.94373340E+01
 20
2.00277775E+02
  0
VERTEX
  8
0
 62
4
 10
1.97877477E+01
 20
2.00267943E+02
  0
VERTEX
  8
0
 62
4
 10
2.01418011E+01
 20
2.00263544E+02
  0
VERTEX
  8
0
 62
4
 10
2.04967063E+01
 20
2.00264613E+02
  0
VERTEX
  8
0
 62
4
 10
2.08496683E+01
 20
2.00271141E+02
  0
VERTEX
  8
0
 62
4
 10
2.11979078E+01
 20
2.00283077E+02
  0
VERTEX
  8
0
 62
4
 10
2.15386823E+01
 20
2.00300328E+02
  0
VERTEX
  8
0
 62
4
 10
2.18693086E+01
 20
2.00322756E+02
  0
VERTEX
  8
0
 62
4
 10
2.21871828E+01
 20
2.00350185E+02
  0
VERTEX
  8
0
 62
4
 10
2.24898019E+01
 20
2.00382400E+02
  0
VERTEX
  8
0
 62
4
 10
2.27747828E+01
 20
2.00419147E+02
  0
VERTEX
  8
0
 62
4
 10
2.30398814E+01
 20
2.00460136E+02
  0
VERTEX
  8
0
 62
4
 10
2.32830101E+01
 20
2.00505045E+02
  0
VERTEX
  8
0
 62
4
 10
2.35022544E+01
 20
2.00553520E+02
  0
VERTEX
  8
0
 62
4
 10
2.36958876E+01
 20
2.00605179E+02
  0
VERTEX
  8
0
 62
4
 10
2.38623851E+01
 20
2.00659615E+02
  0
VERTEX
  8
0
 62
4
 10
2.40004358E+01
 20
2.00716400E+02
  0
VERTEX
  8
0
 62
4
 10
2.41089524E+01
 20
2.00775087E+02
  0
VERTEX
  8
0
 62
4
 10
2.41870805E+01
 20
2.00835214E+02
  0
VERTEX
  8
0
 62
4
 10
2.42342048E+01
 20
2.00896306E+02
  0
VERTEX
  8
0
 62
4
 10
2.42499542E+01
 20
2.00957883E+02
  0
SEQEND
  8
0
  0
ARC
  8
0
 62
4
 10
2.23685598E+01
 20
1.91473794E+02
 40
1.25124521E+01
 50
9.49416351E+01
 51
1.08095416E+02
  0
ARC
  8
0
 62
4
 10
1.81313484E+01
 20
1.91473791E+02
 40
1.25124547E+01
 50
7.19045858E+01
 51
8.50583647E+01
  0
POLYLINE
  8
0
 62
4
 66
1
  0
VERTEX
  8
0
 62
4
 10
1.60999542E+01
 20
2.03065372E+02
  0
VERTEX
  8
0
 62
4
 10
1.61166609E+01
 20
2.03000774E+02
  0
VERTEX
  8
0
 62
4
 10
1.61666464E+01
 20
2.02936697E+02
  0
VERTEX
  8
0
 62
4
 10
1.62495083E+01
 20
2.02873655E+02
  0
VERTEX
  8
0
 62
4
 10
1.63645795E+01
 20
2.02812157E+02
  0
VERTEX
  8
0
 62
4
 10
1.65109334E+01
 20
2.02752698E+02
  0
VERTEX
  8
0
 62
4
 10
1.66873917E+01
 20
2.02695756E+02
  0
VERTEX
  8
0
 62
4
 10
1.68925337E+01
 20
2.02641790E+02
  0
VERTEX
  8
0
 62
4
 10
1.71247076E+01
 20
2.02591235E+02
  0
VERTEX
  8
0
 62
4
 10
1.73820442E+01
 20
2.02544497E+02
  0
VERTEX
  8
0
 62
4
 10
1.76624715E+01
 20
2.02501953E+02
  0
VERTEX
  8
0
 62
4
 10
1.79637317E+01
 20
2.02463945E+02
  0
VERTEX
  8
0
 62
4
 10
1.82833992E+01
 20
2.02430780E+02
  0
VERTEX
  8
0
 62
4
 10
1.86189003E+01
 20
2.02402724E+02
  0
VERTEX
  8
0
 62
4
 10
1.89675337E+01
 20
2.02380003E+02
  0
VERTEX
  8
0
 62
4
 10
1.93264923E+01
 20
2.02362800E+02
  0
VERTEX
  8
0
 62
4
 10
1.96928861E+01
 20
2.02351254E+02
  0
VERTEX
  8
0
 62
4
 10
2.00637651E+01
 20
2.02345458E+02
  0
VERTEX
  8
0
 62
4
 10
2.04361432E+01
 20
2.02345458E+02
  0
VERTEX
  8
0
 62
4
 10
2.08070222E+01
 20
2.02351254E+02
  0
VERTEX
  8
0
 62
4
 10
2.11734161E+01
 20
2.02362800E+02
  0
VERTEX
  8
0
 62
4
 10
2.15323747E+01
 20
2.02380003E+02
  0
VERTEX
  8
0
 62
4
 10
2.18810081E+01
 20
2.02402724E+02
  0
VERTEX
  8
0
 62
4
 10
2.22165091E+01
 20
2.02430780E+02
  0
VERTEX
  8
0
 62
4
 10
2.25361767E+01
 20
2.02463945E+02
  0
VERTEX
  8
0
 62
4
 10
2.28374369E+01
 20
2.02501953E+02
  0
VERTEX
  8
0
 62
4
 10
2.31178642E+01
 20
2.02544497E+02
  0
VERTEX
  8
0
 62
4
 10
2.33752008E+01
 20
2.02591235E+02
  0
VERTEX
  8
0
 62
4
 10
2.36073747E+01
 20
2.02641790E+02
  0
VERTEX
  8
0
 62
4
 10
2.38125167E+01
 20
2.02695756E+02
  0
VERTEX
  8
0
 62
4
 10
2.39889750E+01
 20
2.02752698E+02
  0
VERTEX
  8
0
 62
4
 10
2.41353289E+01
 20
2.02812157E+02
  0
VERTEX
  8
0
 62
4
 10
2.42504001E+01
 20
2.02873655E+02
  0
VERTEX
  8
0
 62
4
 10
2.43332620E+01
 20
2.02936697E+02
  0
VERTEX
  8
0
 62
4
 10
2.43832475E+01
 20
2.03000774E+02
  0
VERTEX
  8
0
 62
4
 10
2.43999542E+01
 20
2.03065372E+02
  0
SEQEND
  8
0
  0
ARC
  8
0
 62
4
 10
2.41499542E+01
 20
2.03060035E+02
 40
2.50000000E-01
 50
0.00000000E+00
 51
7.03240015E+01
  0
ARC
  8
0
 62
4
 10
1.63499542E+01
 20
2.03060035E+02
 40
2.50000000E-01
 50
1.09675998E+02
 51
1.80000000E+02
  0
LINE
  8
0
 62
4
 10
1.65499542E+01
 20
2.01334922E+02
 11
1.65499542E+01
 21
2.00350114E+02
  0
LINE
  8
0
 62
4
 10
8.94995422E+00
 20
2.01334922E+02
 11
8.94995422E+00
 21
2.00350114E+02
  0
POLYLINE
  8
0
 62
4
 66
1
  0
VERTEX
  8
0
 62
4
 10
8.94995420E+00
 20
2.00350114E+02
  0
VERTEX
  8
0
 62
4
 10
8.96525188E+00
 20
2.00290964E+02
  0
VERTEX
  8
0
 62
4
 10
9.01102176E+00
 20
2.00232291E+02
  0
VERTEX
  8
0
 62
4
 10
9.08689533E+00
 20
2.00174566E+02
  0
VERTEX
  8
0
 62
4
 10
9.19226169E+00
 20
2.00118255E+02
  0
VERTEX
  8
0
 62
4
 10
9.32627250E+00
 20
2.00063810E+02
  0
VERTEX
  8
0
 62
4
 10
9.48784878E+00
 20
2.00011671E+02
  0
VERTEX
  8
0
 62
4
 10
9.67568961E+00
 20
1.99962256E+02
  0
VERTEX
  8
0
 62
4
 10
9.88828262E+00
 20
1.99915965E+02
  0
VERTEX
  8
0
 62
4
 10
1.01239161E+01
 20
1.99873168E+02
  0
VERTEX
  8
0
 62
4
 10
1.03806929E+01
 20
1.99834212E+02
  0
VERTEX
  8
0
 62
4
 10
1.06565457E+01
 20
1.99799410E+02
  0
VERTEX
  8
0
 62
4
 10
1.09492533E+01
 20
1.99769042E+02
  0
VERTEX
  8
0
 62
4
 10
1.12564591E+01
 20
1.99743352E+02
  0
VERTEX
  8
0
 62
4
 10
1.15756896E+01
 20
1.99722547E+02
  0
VERTEX
  8
0
 62
4
 10
1.19043746E+01
 20
1.99706795E+02
  0
VERTEX
  8
0
 62
4
 10
1.22398678E+01
 20
1.99696223E+02
  0
VERTEX
  8
0
 62
4
 10
1.25794678E+01
 20
1.99690915E+02
  0
VERTEX
  8
0
 62
4
 10
1.29204405E+01
 20
1.99690915E+02
  0
VERTEX
  8
0
 62
4
 10
1.32600406E+01
 20
1.99696223E+02
  0
VERTEX
  8
0
 62
4
 10
1.35955337E+01
 20
1.99706795E+02
  0
VERTEX
  8
0
 62
4
 10
1.39242188E+01
 20
1.99722547E+02
  0
VERTEX
  8
0
 62
4
 10
1.42434493E+01
 20
1.99743352E+02
  0
VERTEX
  8
0
 62
4
 10
1.45506551E+01
 20
1.99769042E+02
  0
VERTEX
  8
0
 62
4
 10
1.48433627E+01
 20
1.99799410E+02
  0
VERTEX
  8
0
 62
4
 10
1.51192154E+01
 20
1.99834212E+02
  0
VERTEX
  8
0
 62
4
 10
1.53759922E+01
 20
1.99873168E+02
  0
VERTEX
  8
0
 62
4
 10
1.56116258E+01
 20
1.99915965E+02
  0
VERTEX
  8
0
 62
4
 10
1.58242188E+01
 20
1.99962256E+02
  0
VERTEX
  8
0
 62
4
 10
1.60120596E+01
 20
2.00011671E+02
  0
VERTEX
  8
0
 62
4
 10
1.61736359E+01
 20
2.00063810E+02
  0
VERTEX
  8
0
 62
4
 10
1.63076467E+01
 20
2.00118255E+02
  0
VERTEX
  8
0
 62
4
 10
1.64130131E+01
 20
2.00174566E+02
  0
VERTEX
  8
0
 62
4
 10
1.64888866E+01
 20
2.00232291E+02
  0
VERTEX
  8
0
 62
4
 10
1.65346565E+01
 20
2.00290964E+02
  0
VERTEX
  8
0
 62
4
 10
1.65499542E+01
 20
2.00350114E+02
  0
SEQEND
  8
0
  0
POLYLINE
  8
0
 62
4
 66
1
  0
VERTEX
  8
0
 62
4
 10
9.34995419E+00
 20
2.01629613E+02
  0
VERTEX
  8
0
 62
4
 10
9.21337253E+00
 20
2.01576324E+02
  0
VERTEX
  8
0
 62
4
 10
9.10442466E+00
 20
2.01521148E+02
  0
VERTEX
  8
0
 62
4
 10
9.02396188E+00
 20
2.01464518E+02
  0
VERTEX
  8
0
 62
4
 10
8.97261290E+00
 20
2.01406875E+02
  0
VERTEX
  8
0
 62
4
 10
8.95077895E+00
 20
2.01348669E+02
  0
VERTEX
  8
0
 62
4
 10
8.95863062E+00
 20
2.01290356E+02
  0
VERTEX
  8
0
 62
4
 10
8.99610657E+00
 20
2.01232392E+02
  0
VERTEX
  8
0
 62
4
 10
9.06291398E+00
 20
2.01175229E+02
  0
VERTEX
  8
0
 62
4
 10
9.15853082E+00
 20
2.01119313E+02
  0
VERTEX
  8
0
 62
4
 10
9.28220998E+00
 20
2.01065082E+02
  0
VERTEX
  8
0
 62
4
 10
9.43298506E+00
 20
2.01012960E+02
  0
VERTEX
  8
0
 62
4
 10
9.60967796E+00
 20
2.00963353E+02
  0
VERTEX
  8
0
 62
4
 10
9.81090804E+00
 20
2.00916649E+02
  0
VERTEX
  8
0
 62
4
 10
1.00351030E+01
 20
2.00873214E+02
  0
VERTEX
  8
0
 62
4
 10
1.02805109E+01
 20
2.00833387E+02
  0
VERTEX
  8
0
 62
4
 10
1.05452144E+01
 20
2.00797478E+02
  0
VERTEX
  8
0
 62
4
 10
1.08271450E+01
 20
2.00765769E+02
  0
VERTEX
  8
0
 62
4
 10
1.11240999E+01
 20
2.00738507E+02
  0
VERTEX
  8
0
 62
4
 10
1.14337588E+01
 20
2.00715905E+02
  0
VERTEX
  8
0
 62
4
 10
1.17537020E+01
 20
2.00698140E+02
  0
VERTEX
  8
0
 62
4
 10
1.20814296E+01
 20
2.00685351E+02
  0
VERTEX
  8
0
 62
4
 10
1.24143809E+01
 20
2.00677637E+02
  0
VERTEX
  8
0
 62
4
 10
1.27499542E+01
 20
2.00675059E+02
  0
VERTEX
  8
0
 62
4
 10
1.30855276E+01
 20
2.00677637E+02
  0
VERTEX
  8
0
 62
4
 10
1.34184788E+01
 20
2.00685351E+02
  0
VERTEX
  8
0
 62
4
 10
1.37462065E+01
 20
2.00698140E+02
  0
VERTEX
  8
0
 62
4
 10
1.40661497E+01
 20
2.00715905E+02
  0
VERTEX
  8
0
 62
4
 10
1.43758085E+01
 20
2.00738507E+02
  0
VERTEX
  8
0
 62
4
 10
1.46727634E+01
 20
2.00765769E+02
  0
VERTEX
  8
0
 62
4
 10
1.49546941E+01
 20
2.00797478E+02
  0
VERTEX
  8
0
 62
4
 10
1.52193975E+01
 20
2.00833387E+02
  0
VERTEX
  8
0
 62
4
 10
1.54648055E+01
 20
2.00873214E+02
  0
VERTEX
  8
0
 62
4
 10
1.56890004E+01
 20
2.00916649E+02
  0
VERTEX
  8
0
 62
4
 10
1.58902305E+01
 20
2.00963353E+02
  0
VERTEX
  8
0
 62
4
 10
1.60669234E+01
 20
2.01012960E+02
  0
VERTEX
  8
0
 62
4
 10
1.62176984E+01
 20
2.01065082E+02
  0
VERTEX
  8
0
 62
4
 10
1.63413776E+01
 20
2.01119313E+02
  0
VERTEX
  8
0
 62
4
 10
1.64369944E+01
 20
2.01175229E+02
  0
VERTEX
  8
0
 62
4
 10
1.65038018E+01
 20
2.01232392E+02
  0
VERTEX
  8
0
 62
4
 10
1.65412778E+01
 20
2.01290356E+02
  0
VERTEX
  8
0
 62
4
 10
1.65491294E+01
 20
2.01348669E+02
  0
VERTEX
  8
0
 62
4
 10
1.65272955E+01
 20
2.01406875E+02
  0
VERTEX
  8
0
 62
4
 10
1.64759465E+01
 20
2.01464518E+02
  0
VERTEX
  8
0
 62
4
 10
1.63954837E+01
 20
2.01521148E+02
  0
VERTEX
  8
0
 62
4
 10
1.62865359E+01
 20
2.01576324E+02
  0
VERTEX
  8
0
 62
4
 10
1.61499542E+01
 20
2.01629613E+02
  0
SEQEND
  8
0
  0
LINE
  8
0
 62
4
 10
1.61499542E+01
 20
2.02608675E+02
 11
1.61499542E+01
 21
2.01334922E+02
  0
LINE
  8
0
 62
4
 10
9.34995422E+00
 20
2.02608675E+02
 11
9.34995422E+00
 21
2.01334922E+02
  0
POLYLINE
  8
0
 62
4
 66
1
  0
VERTEX
  8
0
 62
4
 10
9.34995420E+00
 20
2.01334922E+02
  0
VERTEX
  8
0
 62
4
 10
9.36364160E+00
 20
2.01281999E+02
  0
VERTEX
  8
0
 62
4
 10
9.40459360E+00
 20
2.01229501E+02
  0
VERTEX
  8
0
 62
4
 10
9.47248047E+00
 20
2.01177853E+02
  0
VERTEX
  8
0
 62
4
 10
9.56675564E+00
 20
2.01127469E+02
  0
VERTEX
  8
0
 62
4
 10
9.68666004E+00
 20
2.01078755E+02
  0
VERTEX
  8
0
 62
4
 10
9.83122829E+00
 20
2.01032104E+02
  0
VERTEX
  8
0
 62
4
 10
9.99929641E+00
 20
2.00987891E+02
  0
VERTEX
  8
0
 62
4
 10
1.01895112E+01
 20
2.00946472E+02
  0
VERTEX
  8
0
 62
4
 10
1.04003412E+01
 20
2.00908181E+02
  0
VERTEX
  8
0
 62
4
 10
1.06300889E+01
 20
2.00873326E+02
  0
VERTEX
  8
0
 62
4
 10
1.08769044E+01
 20
2.00842187E+02
  0
VERTEX
  8
0
 62
4
 10
1.11388007E+01
 20
2.00815015E+02
  0
VERTEX
  8
0
 62
4
 10
1.14136691E+01
 20
2.00792029E+02
  0
VERTEX
  8
0
 62
4
 10
1.16992964E+01
 20
2.00773415E+02
  0
VERTEX
  8
0
 62
4
 10
1.19933830E+01
 20
2.00759321E+02
  0
VERTEX
  8
0
 62
4
 10
1.22935611E+01
 20
2.00749861E+02
  0
VERTEX
  8
0
 62
4
 10
1.25974138E+01
 20
2.00745113E+02
  0
VERTEX
  8
0
 62
4
 10
1.29024946E+01
 20
2.00745113E+02
  0
VERTEX
  8
0
 62
4
 10
1.32063473E+01
 20
2.00749861E+02
  0
VERTEX
  8
0
 62
4
 10
1.35065254E+01
 20
2.00759321E+02
  0
VERTEX
  8
0
 62
4
 10
1.38006120E+01
 20
2.00773415E+02
  0
VERTEX
  8
0
 62
4
 10
1.40862393E+01
 20
2.00792029E+02
  0
VERTEX
  8
0
 62
4
 10
1.43611076E+01
 20
2.00815015E+02
  0
VERTEX
  8
0
 62
4
 10
1.46230039E+01
 20
2.00842187E+02
  0
VERTEX
  8
0
 62
4
 10
1.48698195E+01
 20
2.00873326E+02
  0
VERTEX
  8
0
 62
4
 10
1.50995672E+01
 20
2.00908181E+02
  0
VERTEX
  8
0
 62
4
 10
1.53103972E+01
 20
2.00946472E+02
  0
VERTEX
  8
0
 62
4
 10
1.55006120E+01
 20
2.00987891E+02
  0
VERTEX
  8
0
 62
4
 10
1.56686801E+01
 20
2.01032104E+02
  0
VERTEX
  8
0
 62
4
 10
1.58132483E+01
 20
2.01078755E+02
  0
VERTEX
  8
0
 62
4
 10
1.59331528E+01
 20
2.01127469E+02
  0
VERTEX
  8
0
 62
4
 10
1.60274279E+01
 20
2.01177853E+02
  0
VERTEX
  8
0
 62
4
 10
1.60953148E+01
 20
2.01229501E+02
  0
VERTEX
  8
0
 62
4
 10
1.61362668E+01
 20
2.01281999E+02
  0
VERTEX
  8
0
 62
4
 10
1.61499542E+01
 20
2.01334922E+02
  0
SEQEND
  8
0
  0
ARC
  8
0
 62
4
 10
1.27499542E+01
 20
1.92068461E+02
 40
1.18100000E+01
 50
7.71724899E+01
 51
1.02827510E+02
  0
ARC
  8
0
 62
4
 10
1.03499539E+01
 20
2.02608675E+02
 40
1.00000000E+00
 50
1.02827510E+02
 51
1.80000000E+02
  0
ARC
  8
0
 62
4
 10
1.51499545E+01
 20
2.02608675E+02
 40
1.00000000E+00
 50
3.60000000E+02
 51
7.71724899E+01
  0
ARC
  8
0
 62
4
 10
1.48717078E+01
 20
1.91349318E+02
 40
1.25306621E+01
 50
9.49686598E+01
 51
1.08083352E+02
  0
ARC
  8
0
 62
4
 10
1.06282006E+01
 20
1.91349317E+02
 40
1.25306626E+01
 50
7.19166483E+01
 51
8.50313400E+01
  0
LINE
  8
0
  6
CENTER
 62
6
 10
2.27499542E+01
 20
2.00957883E+02
 11
1.77499542E+01
 21
2.00957883E+02
  0
LINE
  8
0
  6
CENTER
 62
6
 10
1.27499542E+01
 20
1.97850114E+02
 11
1.27499542E+01
 21
2.02850114E+02
  0
LINE
  8
0
  6
CENTER
 62
6
 10
1.52499542E+01
 20
2.00350114E+02
 11
1.02499542E+01
 21
2.00350114E+02
  0
LINE
  8
0
  6
CENTER
 62
6
 10
2.77499542E+01
 20
1.97850114E+02
 11
2.77499542E+01
 21
2.02850114E+02
  0
LINE
  8
0
  6
CENTER
 62
6
 10
3.02499542E+01
 20
2.00350114E+02
 11
2.52499542E+01
 21
2.00350114E+02
  0
LINE
  8
0
 62
4
 10
8.95684363E+00
 20
2.01374639E+02
 11
5.24995422E+00
 21
2.01374639E+02
  0
LINE
  8
0
 62
7
 10
-2.37499542E+01
 20
2.24519459E+02
 11
4.17499542E+01
 21
2.24519459E+02
  0
LINE
  8
0
 62
7
 10
-2.37499542E+01
 20
2.25369449E+02
 11
4.17499542E+01
 21
2.25369449E+02
  0
LINE
  8
0
 62
7
 10
-2.37499542E+01
 20
2.19219471E+02
 11
4.17499542E+01
 21
2.19219471E+02
  0
LINE
  8
0
 62
7
 10
2.02499542E+01
 20
1.87519459E+02
 11
4.17499542E+01
 21
1.87519459E+02
  0
LINE
  8
0
 62
7
 10
2.02499542E+01
 20
1.82219471E+02
 11
4.17499542E+01
 21
1.82219471E+02
  0
LINE
  8
0
 62
7
 10
2.02499542E+01
 20
1.81369480E+02
 11
4.17499542E+01
 21
1.81369480E+02
  0
LINE
  8
0
 62
6
 10
-5.04649745E+01
 20
-1.98377284E+02
 11
-4.70351048E+01
 21
-1.94947409E+02
  0
LINE
  8
0
 62
6
 10
-4.70351023E+01
 20
-1.98377282E+02
 11
-5.04649769E+01
 21
-1.94947412E+02
  0
POLYLINE
  8
0
 62
4
 66
1
  0
VERTEX
  8
0
 62
4
 10
-5.27500394E+01
 20
-1.97021491E+02
  0
VERTEX
  8
0
 62
4
 10
-5.27348236E+01
 20
-1.97362496E+02
  0
VERTEX
  8
0
 62
4
 10
-5.26892812E+01
 20
-1.97700906E+02
  0
VERTEX
  8
0
 62
4
 10
-5.26137587E+01
 20
-1.98034146E+02
  0
VERTEX
  8
0
 62
4
 10
-5.25088310E+01
 20
-1.98359679E+02
  0
VERTEX
  8
0
 62
4
 10
-5.23752967E+01
 20
-1.98675029E+02
  0
VERTEX
  8
0
 62
4
 10
-5.22141720E+01
 20
-1.98977794E+02
  0
VERTEX
  8
0
 62
4
 10
-5.20266831E+01
 20
-1.99265672E+02
  0
VERTEX
  8
0
 62
4
 10
-5.18142569E+01
 20
-1.99536470E+02
  0
VERTEX
  8
0
 62
4
 10
-5.15785103E+01
 20
-1.99788128E+02
  0
VERTEX
  8
0
 62
4
 10
-5.13212372E+01
 20
-2.00018731E+02
  0
VERTEX
  8
0
 62
4
 10
-5.10443958E+01
 20
-2.00226524E+02
  0
VERTEX
  8
0
 62
4
 10
-5.07500930E+01
 20
-2.00409925E+02
  0
VERTEX
  8
0
 62
4
 10
-5.04405685E+01
 20
-2.00567538E+02
  0
VERTEX
  8
0
 62
4
 10
-5.01181781E+01
 20
-2.00698165E+02
  0
VERTEX
  8
0
 62
4
 10
-4.97853753E+01
 20
-2.00800810E+02
  0
VERTEX
  8
0
 62
4
 10
-4.94446930E+01
 20
-2.00874692E+02
  0
VERTEX
  8
0
 62
4
 10
-4.90987240E+01
 20
-2.00919250E+02
  0
VERTEX
  8
0
 62
4
 10
-4.87501013E+01
 20
-2.00934144E+02
  0
VERTEX
  8
0
 62
4
 10
-4.84014781E+01
 20
-2.00919261E+02
  0
VERTEX
  8
0
 62
4
 10
-4.80555076E+01
 20
-2.00874714E+02
  0
VERTEX
  8
0
 62
4
 10
-4.77148230E+01
 20
-2.00800842E+02
  0
VERTEX
  8
0
 62
4
 10
-4.73820170E+01
 20
-2.00698208E+02
  0
VERTEX
  8
0
 62
4
 10
-4.70596224E+01
 20
-2.00567592E+02
  0
VERTEX
  8
0
 62
4
 10
-4.67500930E+01
 20
-2.00409988E+02
  0
VERTEX
  8
0
 62
4
 10
-4.64557843E+01
 20
-2.00226597E+02
  0
VERTEX
  8
0
 62
4
 10
-4.61789364E+01
 20
-2.00018813E+02
  0
VERTEX
  8
0
 62
4
 10
-4.59216560E+01
 20
-1.99788218E+02
  0
VERTEX
  8
0
 62
4
 10
-4.56859014E+01
 20
-1.99536567E+02
  0
VERTEX
  8
0
 62
4
 10
-4.54734667E+01
 20
-1.99265775E+02
  0
VERTEX
  8
0
 62
4
 10
-4.52859687E+01
 20
-1.98977904E+02
  0
VERTEX
  8
0
 62
4
 10
-4.51248344E+01
 20
-1.98675143E+02
  0
VERTEX
  8
0
 62
4
 10
-4.49912901E+01
 20
-1.98359798E+02
  0
VERTEX
  8
0
 62
4
 10
-4.48863521E+01
 20
-1.98034268E+02
  0
VERTEX
  8
0
 62
4
 10
-4.48108191E+01
 20
-1.97701030E+02
  0
VERTEX
  8
0
 62
4
 10
-4.47652660E+01
 20
-1.97362622E+02
  0
VERTEX
  8
0
 62
4
 10
-4.47500394E+01
 20
-1.97021617E+02
  0
VERTEX
  8
0
 62
4
 10
-4.47652552E+01
 20
-1.96680612E+02
  0
VERTEX
  8
0
 62
4
 10
-4.48107976E+01
 20
-1.96342202E+02
  0
VERTEX
  8
0
 62
4
 10
-4.48863201E+01
 20
-1.96008962E+02
  0
VERTEX
  8
0
 62
4
 10
-4.49912478E+01
 20
-1.95683429E+02
  0
VERTEX
  8
0
 62
4
 10
-4.51247821E+01
 20
-1.95368079E+02
  0
VERTEX
  8
0
 62
4
 10
-4.52859069E+01
 20
-1.95065314E+02
  0
VERTEX
  8
0
 62
4
 10
-4.54733957E+01
 20
-1.94777436E+02
  0
VERTEX
  8
0
 62
4
 10
-4.56858219E+01
 20
-1.94506638E+02
  0
VERTEX
  8
0
 62
4
 10
-4.59215685E+01
 20
-1.94254980E+02
  0
VERTEX
  8
0
 62
4
 10
-4.61788416E+01
 20
-1.94024377E+02
  0
VERTEX
  8
0
 62
4
 10
-4.64556830E+01
 20
-1.93816584E+02
  0
VERTEX
  8
0
 62
4
 10
-4.67499858E+01
 20
-1.93633183E+02
  0
VERTEX
  8
0
 62
4
 10
-4.70595103E+01
 20
-1.93475570E+02
  0
VERTEX
  8
0
 62
4
 10
-4.73819007E+01
 20
-1.93344943E+02
  0
VERTEX
  8
0
 62
4
 10
-4.77147035E+01
 20
-1.93242298E+02
  0
VERTEX
  8
0
 62
4
 10
-4.80553858E+01
 20
-1.93168416E+02
  0
VERTEX
  8
0
 62
4
 10
-4.84013548E+01
 20
-1.93123858E+02
  0
VERTEX
  8
0
 62
4
 10
-4.87499775E+01
 20
-1.93108964E+02
  0
VERTEX
  8
0
 62
4
 10
-4.90986007E+01
 20
-1.93123847E+02
  0
VERTEX
  8
0
 62
4
 10
-4.94445712E+01
 20
-1.93168394E+02
  0
VERTEX
  8
0
 62
4
 10
-4.97852558E+01
 20
-1.93242266E+02
  0
VERTEX
  8
0
 62
4
 10
-5.01180618E+01
 20
-1.93344900E+02
  0
VERTEX
  8
0
 62
4
 10
-5.04404564E+01
 20
-1.93475516E+02
  0
VERTEX
  8
0
 62
4
 10
-5.07499858E+01
 20
-1.93633120E+02
  0
VERTEX
  8
0
 62
4
 10
-5.10442945E+01
 20
-1.93816511E+02
  0
VERTEX
  8
0
 62
4
 10
-5.13211424E+01
 20
-1.94024295E+02
  0
VERTEX
  8
0
 62
4
 10
-5.15784228E+01
 20
-1.94254890E+02
  0
VERTEX
  8
0
 62
4
 10
-5.18141774E+01
 20
-1.94506541E+02
  0
VERTEX
  8
0
 62
4
 10
-5.20266121E+01
 20
-1.94777333E+02
  0
VERTEX
  8
0
 62
4
 10
-5.22141101E+01
 20
-1.95065204E+02
  0
VERTEX
  8
0
 62
4
 10
-5.23752444E+01
 20
-1.95367965E+02
  0
VERTEX
  8
0
 62
4
 10
-5.25087887E+01
 20
-1.95683310E+02
  0
VERTEX
  8
0
 62
4
 10
-5.26137267E+01
 20
-1.96008840E+02
  0
VERTEX
  8
0
 62
4
 10
-5.26892597E+01
 20
-1.96342078E+02
  0
VERTEX
  8
0
 62
4
 10
-5.27348128E+01
 20
-1.96680486E+02
  0
VERTEX
  8
0
 62
4
 10
-5.27500394E+01
 20
-1.97021491E+02
  0
SEQEND
  8
0
  0
POLYLINE
  8
0
 62
4
 66
1
  0
VERTEX
  8
0
 62
4
 10
-5.21490121E+01
 20
-1.96744636E+02
  0
VERTEX
  8
0
 62
4
 10
-5.21430682E+01
 20
-1.97056121E+02
  0
VERTEX
  8
0
 62
4
 10
-5.21104873E+01
 20
-1.97365839E+02
  0
VERTEX
  8
0
 62
4
 10
-5.20515250E+01
 20
-1.97671358E+02
  0
VERTEX
  8
0
 62
4
 10
-5.19666442E+01
 20
-1.97970281E+02
  0
VERTEX
  8
0
 62
4
 10
-5.18565114E+01
 20
-1.98260261E+02
  0
VERTEX
  8
0
 62
4
 10
-5.17219910E+01
 20
-1.98539021E+02
  0
VERTEX
  8
0
 62
4
 10
-5.15641393E+01
 20
-1.98804372E+02
  0
VERTEX
  8
0
 62
4
 10
-5.13841953E+01
 20
-1.99054232E+02
  0
VERTEX
  8
0
 62
4
 10
-5.11835717E+01
 20
-1.99286639E+02
  0
VERTEX
  8
0
 62
4
 10
-5.09638436E+01
 20
-1.99499769E+02
  0
VERTEX
  8
0
 62
4
 10
-5.07267360E+01
 20
-1.99691947E+02
  0
VERTEX
  8
0
 62
4
 10
-5.04741101E+01
 20
-1.99861667E+02
  0
VERTEX
  8
0
 62
4
 10
-5.02079494E+01
 20
-2.00007594E+02
  0
VERTEX
  8
0
 62
4
 10
-4.99303434E+01
 20
-2.00128584E+02
  0
VERTEX
  8
0
 62
4
 10
-4.96434713E+01
 20
-2.00223687E+02
  0
VERTEX
  8
0
 62
4
 10
-4.93495852E+01
 20
-2.00292156E+02
  0
VERTEX
  8
0
 62
4
 10
-4.90509924E+01
 20
-2.00333453E+02
  0
VERTEX
  8
0
 62
4
 10
-4.87500370E+01
 20
-2.00347255E+02
  0
VERTEX
  8
0
 62
4
 10
-4.84490816E+01
 20
-2.00333453E+02
  0
VERTEX
  8
0
 62
4
 10
-4.81504888E+01
 20
-2.00292156E+02
  0
VERTEX
  8
0
 62
4
 10
-4.78566029E+01
 20
-2.00223687E+02
  0
VERTEX
  8
0
 62
4
 10
-4.75697309E+01
 20
-2.00128584E+02
  0
VERTEX
  8
0
 62
4
 10
-4.72921250E+01
 20
-2.00007594E+02
  0
VERTEX
  8
0
 62
4
 10
-4.70259645E+01
 20
-1.99861667E+02
  0
VERTEX
  8
0
 62
4
 10
-4.67733389E+01
 20
-1.99691947E+02
  0
VERTEX
  8
0
 62
4
 10
-4.65362316E+01
 20
-1.99499769E+02
  0
VERTEX
  8
0
 62
4
 10
-4.63165038E+01
 20
-1.99286639E+02
  0
VERTEX
  8
0
 62
4
 10
-4.61158806E+01
 20
-1.99054232E+02
  0
VERTEX
  8
0
 62
4
 10
-4.59359369E+01
 20
-1.98804372E+02
  0
VERTEX
  8
0
 62
4
 10
-4.57780855E+01
 20
-1.98539021E+02
  0
VERTEX
  8
0
 62
4
 10
-4.56435656E+01
 20
-1.98260261E+02
  0
VERTEX
  8
0
 62
4
 10
-4.55334331E+01
 20
-1.97970281E+02
  0
VERTEX
  8
0
 62
4
 10
-4.54485528E+01
 20
-1.97671358E+02
  0
VERTEX
  8
0
 62
4
 10
-4.53895909E+01
 20
-1.97365839E+02
  0
VERTEX
  8
0
 62
4
 10
-4.53570104E+01
 20
-1.97056121E+02
  0
VERTEX
  8
0
 62
4
 10
-4.53510670E+01
 20
-1.96744636E+02
  0
SEQEND
  8
0
  0
POLYLINE
  8
0
 62
4
 66
1
  0
VERTEX
  8
0
 62
4
 10
-5.21500396E+01
 20
-1.96662270E+02
  0
VERTEX
  8
0
 62
4
 10
-5.21371082E+01
 20
-1.96954021E+02
  0
VERTEX
  8
0
 62
4
 10
-5.20983991E+01
 20
-1.97243551E+02
  0
VERTEX
  8
0
 62
4
 10
-5.20342070E+01
 20
-1.97528658E+02
  0
VERTEX
  8
0
 62
4
 10
-5.19450204E+01
 20
-1.97807172E+02
  0
VERTEX
  8
0
 62
4
 10
-5.18315180E+01
 20
-1.98076974E+02
  0
VERTEX
  8
0
 62
4
 10
-5.16945638E+01
 20
-1.98336009E+02
  0
VERTEX
  8
0
 62
4
 10
-5.15351999E+01
 20
-1.98582306E+02
  0
VERTEX
  8
0
 62
4
 10
-5.13546393E+01
 20
-1.98813992E+02
  0
VERTEX
  8
0
 62
4
 10
-5.11542561E+01
 20
-1.99029302E+02
  0
VERTEX
  8
0
 62
4
 10
-5.09355754E+01
 20
-1.99226598E+02
  0
VERTEX
  8
0
 62
4
 10
-5.07002614E+01
 20
-1.99404379E+02
  0
VERTEX
  8
0
 62
4
 10
-5.04501050E+01
 20
-1.99561291E+02
  0
VERTEX
  8
0
 62
4
 10
-5.01870102E+01
 20
-1.99696140E+02
  0
VERTEX
  8
0
 62
4
 10
-4.99129791E+01
 20
-1.99807901E+02
  0
VERTEX
  8
0
 62
4
 10
-4.96300973E+01
 20
-1.99895721E+02
  0
VERTEX
  8
0
 62
4
 10
-4.93405178E+01
 20
-1.99958934E+02
  0
VERTEX
  8
0
 62
4
 10
-4.90464444E+01
 20
-1.99997058E+02
  0
VERTEX
  8
0
 62
4
 10
-4.87501152E+01
 20
-2.00009803E+02
  0
VERTEX
  8
0
 62
4
 10
-4.84537853E+01
 20
-1.99997072E+02
  0
VERTEX
  8
0
 62
4
 10
-4.81597102E+01
 20
-1.99958961E+02
  0
VERTEX
  8
0
 62
4
 10
-4.78701278E+01
 20
-1.99895761E+02
  0
VERTEX
  8
0
 62
4
 10
-4.75872421E+01
 20
-1.99807953E+02
  0
VERTEX
  8
0
 62
4
 10
-4.73132060E+01
 20
-1.99696205E+02
  0
VERTEX
  8
0
 62
4
 10
-4.70501050E+01
 20
-1.99561367E+02
  0
VERTEX
  8
0
 62
4
 10
-4.67999416E+01
 20
-1.99404467E+02
  0
VERTEX
  8
0
 62
4
 10
-4.65646196E+01
 20
-1.99226696E+02
  0
VERTEX
  8
0
 62
4
 10
-4.63459300E+01
 20
-1.99029410E+02
  0
VERTEX
  8
0
 62
4
 10
-4.61455371E+01
 20
-1.98814109E+02
  0
VERTEX
  8
0
 62
4
 10
-4.59649660E+01
 20
-1.98582432E+02
  0
VERTEX
  8
0
 62
4
 10
-4.58055910E+01
 20
-1.98336142E+02
  0
VERTEX
  8
0
 62
4
 10
-4.56686251E+01
 20
-1.98077113E+02
  0
VERTEX
  8
0
 62
4
 10
-4.55551105E+01
 20
-1.97807317E+02
  0
VERTEX
  8
0
 62
4
 10
-4.54659113E+01
 20
-1.97528807E+02
  0
VERTEX
  8
0
 62
4
 10
-4.54017064E+01
 20
-1.97243702E+02
  0
VERTEX
  8
0
 62
4
 10
-4.53629842E+01
 20
-1.96954173E+02
  0
VERTEX
  8
0
 62
4
 10
-4.53500396E+01
 20
-1.96662424E+02
  0
VERTEX
  8
0
 62
4
 10
-4.53629710E+01
 20
-1.96370673E+02
  0
VERTEX
  8
0
 62
4
 10
-4.54016801E+01
 20
-1.96081143E+02
  0
VERTEX
  8
0
 62
4
 10
-4.54658722E+01
 20
-1.95796036E+02
  0
VERTEX
  8
0
 62
4
 10
-4.55550588E+01
 20
-1.95517522E+02
  0
VERTEX
  8
0
 62
4
 10
-4.56685612E+01
 20
-1.95247720E+02
  0
VERTEX
  8
0
 62
4
 10
-4.58055154E+01
 20
-1.94988685E+02
  0
VERTEX
  8
0
 62
4
 10
-4.59648793E+01
 20
-1.94742388E+02
  0
VERTEX
  8
0
 62
4
 10
-4.61454399E+01
 20
-1.94510702E+02
  0
VERTEX
  8
0
 62
4
 10
-4.63458231E+01
 20
-1.94295392E+02
  0
VERTEX
  8
0
 62
4
 10
-4.65645038E+01
 20
-1.94098096E+02
  0
VERTEX
  8
0
 62
4
 10
-4.67998178E+01
 20
-1.93920315E+02
  0
VERTEX
  8
0
 62
4
 10
-4.70499742E+01
 20
-1.93763403E+02
  0
VERTEX
  8
0
 62
4
 10
-4.73130690E+01
 20
-1.93628554E+02
  0
VERTEX
  8
0
 62
4
 10
-4.75871001E+01
 20
-1.93516793E+02
  0
VERTEX
  8
0
 62
4
 10
-4.78699819E+01
 20
-1.93428973E+02
  0
VERTEX
  8
0
 62
4
 10
-4.81595614E+01
 20
-1.93365760E+02
  0
VERTEX
  8
0
 62
4
 10
-4.84536348E+01
 20
-1.93327636E+02
  0
VERTEX
  8
0
 62
4
 10
-4.87499640E+01
 20
-1.93314891E+02
  0
VERTEX
  8
0
 62
4
 10
-4.90462939E+01
 20
-1.93327622E+02
  0
VERTEX
  8
0
 62
4
 10
-4.93403690E+01
 20
-1.93365733E+02
  0
VERTEX
  8
0
 62
4
 10
-4.96299514E+01
 20
-1.93428933E+02
  0
VERTEX
  8
0
 62
4
 10
-4.99128371E+01
 20
-1.93516741E+02
  0
VERTEX
  8
0
 62
4
 10
-5.01868732E+01
 20
-1.93628489E+02
  0
VERTEX
  8
0
 62
4
 10
-5.04499742E+01
 20
-1.93763327E+02
  0
VERTEX
  8
0
 62
4
 10
-5.07001376E+01
 20
-1.93920227E+02
  0
VERTEX
  8
0
 62
4
 10
-5.09354596E+01
 20
-1.94097998E+02
  0
VERTEX
  8
0
 62
4
 10
-5.11541492E+01
 20
-1.94295284E+02
  0
VERTEX
  8
0
 62
4
 10
-5.13545421E+01
 20
-1.94510585E+02
  0
VERTEX
  8
0
 62
4
 10
-5.15351132E+01
 20
-1.94742262E+02
  0
VERTEX
  8
0
 62
4
 10
-5.16944882E+01
 20
-1.94988552E+02
  0
VERTEX
  8
0
 62
4
 10
-5.18314541E+01
 20
-1.95247581E+02
  0
VERTEX
  8
0
 62
4
 10
-5.19449687E+01
 20
-1.95517377E+02
  0
VERTEX
  8
0
 62
4
 10
-5.20341679E+01
 20
-1.95795887E+02
  0
VERTEX
  8
0
 62
4
 10
-5.20983728E+01
 20
-1.96080992E+02
  0
VERTEX
  8
0
 62
4
 10
-5.21370950E+01
 20
-1.96370521E+02
  0
VERTEX
  8
0
 62
4
 10
-5.21500396E+01
 20
-1.96662270E+02
  0
SEQEND
  8
0
  0
LINE
  8
0
 62
4
 10
-5.77500266E+01
 20
-2.12740352E+02
 11
-2.43747484E+01
 21
-2.12740329E+02
  0
LINE
  8
0
 62
4
 10
-5.77500266E+01
 20
-2.11804750E+02
 11
-2.43747484E+01
 21
-2.11804726E+02
  0
LINE
  8
0
 62
4
 10
-5.77500266E+01
 20
-2.09933545E+02
 11
-2.43747484E+01
 21
-2.09933521E+02
  0
LINE
  8
0
 62
4
 10
-5.77500266E+01
 20
-2.08997942E+02
 11
-2.43747484E+01
 21
-2.08997918E+02
  0
LINE
  8
0
 62
4
 10
-2.43747484E+01
 20
-2.08997942E+02
 11
-2.17500340E+01
 21
-2.04461589E+02
  0
LINE
  8
0
 62
4
 10
-5.77500266E+01
 20
-2.08997942E+02
 11
-6.07500340E+01
 21
-2.04461617E+02
  0
LINE
  8
0
 62
4
 10
-2.43747484E+01
 20
-2.13557721E+02
 11
-2.43747484E+01
 21
-2.08997942E+02
  0
LINE
  8
0
 62
4
 10
-5.77500266E+01
 20
-2.13557721E+02
 11
-5.77500266E+01
 21
-2.08997942E+02
  0
LINE
  8
0
  6
CENTER
 62
6
 10
-4.87500352E+01
 20
-2.02801216E+02
 11
-4.87500444E+01
 21
-1.90001216E+02
  0
LINE
  8
0
  6
CENTER
 62
6
 10
-5.51500398E+01
 20
-1.96397512E+02
 11
-4.23500398E+01
 21
-1.96397503E+02
  0
LINE
  8
0
 62
4
 10
-5.62500609E+01
 20
-1.62358725E+02
 11
-4.12500609E+01
 21
-1.62358714E+02
  0
LINE
  8
0
 62
4
 10
-5.82500430E+01
 20
-1.86396605E+02
 11
-3.92500430E+01
 21
-1.86396591E+02
  0
LINE
  8
0
 62
4
 10
-6.07500431E+01
 20
-1.91754378E+02
 11
-6.07500340E+01
 21
-2.04461617E+02
  0
LINE
  8
0
 62
4
 10
-5.82500430E+01
 20
-1.86396591E+02
 11
-5.82500403E+01
 21
-1.90258075E+02
  0
LINE
  8
0
 62
4
 10
-4.12500609E+01
 20
-1.62358725E+02
 11
-4.12500437E+01
 21
-1.86396593E+02
  0
LINE
  8
0
 62
4
 10
-5.62500609E+01
 20
-1.62358725E+02
 11
-5.62500437E+01
 21
-1.86396603E+02
  0
LINE
  8
0
 62
4
 10
-3.92500430E+01
 20
-1.86396591E+02
 11
-3.92500403E+01
 21
-1.90258075E+02
  0
LINE
  8
0
 62
4
 10
-5.62500441E+01
 20
-1.85834267E+02
 11
-4.12500441E+01
 21
-1.85834256E+02
  0
LINE
  8
0
 62
4
 10
-2.17500431E+01
 20
-1.91754350E+02
 11
-2.17500340E+01
 21
-2.04461592E+02
  0
LINE
  8
0
 62
4
 10
-6.07500340E+01
 20
-2.04461617E+02
 11
-2.17500340E+01
 21
-2.04461589E+02
  0
LINE
  8
0
 62
4
 10
-6.07500351E+01
 20
-2.02994395E+02
 11
-2.17500351E+01
 21
-2.02994367E+02
  0
LINE
  8
0
 62
4
 10
-5.92500402E+01
 20
-1.90254377E+02
 11
-2.32500402E+01
 21
-1.90254351E+02
  0
LINE
  8
0
 62
4
 10
-7.57500619E+01
 20
-1.62454549E+02
 11
-7.07500619E+01
 21
-1.62454545E+02
  0
LINE
  8
0
 62
4
 10
-7.57500614E+01
 20
-1.64771177E+02
 11
-7.07500614E+01
 21
-1.64771173E+02
  0
LINE
  8
0
 62
4
 10
-7.57500539E+01
 20
-1.72117065E+02
 11
-7.07500539E+01
 21
-1.72117061E+02
  0
LINE
  8
0
 62
4
 10
-7.57500515E+01
 20
-1.77136548E+02
 11
-7.07500515E+01
 21
-1.77136545E+02
  0
LINE
  8
0
 62
4
 10
-6.52500456E+01
 20
-1.76789492E+02
 11
-5.67500456E+01
 21
-1.76789486E+02
  0
LINE
  8
0
 62
4
 10
-5.62500556E+01
 20
-1.62789485E+02
 11
-6.52500556E+01
 21
-1.62789492E+02
  0
LINE
  8
0
 62
4
 10
-6.57500552E+01
 20
-1.63289492E+02
 11
-6.57500459E+01
 21
-1.76289492E+02
  0
LINE
  8
0
 62
4
 10
-7.57500619E+01
 20
-1.62454549E+02
 11
-7.57500515E+01
 21
-1.77136548E+02
  0
LINE
  8
0
 62
4
 10
-7.07500619E+01
 20
-1.62454545E+02
 11
-7.07500515E+01
 21
-1.77136545E+02
  0
LINE
  8
0
 62
4
 10
-7.07500550E+01
 20
-1.63535781E+02
 11
-6.57500550E+01
 21
-1.63535777E+02
  0
LINE
  8
0
 62
4
 10
-7.07500461E+01
 20
-1.76035781E+02
 11
-6.57500461E+01
 21
-1.76035777E+02
  0
LINE
  8
0
 62
4
 10
-6.92500550E+01
 20
-1.63535780E+02
 11
-6.92500461E+01
 21
-1.76035780E+02
  0
LINE
  8
0
 62
4
 10
-6.92500547E+01
 20
-1.64035780E+02
 11
-6.57500547E+01
 21
-1.64035777E+02
  0
LINE
  8
0
 62
4
 10
-6.92500465E+01
 20
-1.75535780E+02
 11
-6.57500465E+01
 21
-1.75535777E+02
  0
ARC
  8
0
 62
4
 10
-6.52505472E+01
 20
-1.63289000E+02
 40
4.99508251E-01
 50
8.99436074E+01
 51
1.80056475E+02
  0
ARC
  8
0
 62
4
 10
-5.67495379E+01
 20
-1.77288978E+02
 40
4.99492993E-01
 50
3.59941854E+02
 51
9.00582282E+01
  0
ARC
  8
0
 62
4
 10
-2.32495317E+01
 20
-1.91753844E+02
 40
1.49949266E+00
 50
3.59980652E+02
 51
9.00194298E+01
  0
ARC
  8
0
 62
4
 10
-6.52495382E+01
 20
-1.76288984E+02
 40
5.00508007E-01
 50
1.80058166E+02
 51
2.69941916E+02
  0
ARC
  8
0
 62
4
 10
-5.92505313E+01
 20
-1.91753885E+02
 40
1.49950792E+00
 50
8.99812358E+01
 51
1.80018846E+02
  0
LINE
  8
0
 62
4
 10
-2.55389251E+02
 20
-1.99169416E+02
 11
-2.60633773E+02
 21
-2.15323396E+02
  0
ARC
  8
0
 62
4
 10
-2.42207928E+02
 20
-1.69785777E+02
 40
7.00000000E+00
 50
1.10107658E+02
 51
1.33018360E+02
  0
LINE
  8
0
 62
4
 10
-2.55389251E+02
 20
-1.99169416E+02
 11
-2.48540768E+02
 21
-1.97713726E+02
  0
LINE
  8
0
 62
4
 10
-2.47262592E+02
 20
-2.06131936E+02
 11
-2.46773519E+02
 21
-2.06027980E+02
  0
LINE
  8
0
 62
4
 10
-2.47647710E+02
 20
-2.06724966E+02
 11
-2.46833043E+02
 21
-2.10557675E+02
  0
LINE
  8
0
 62
4
 10
-2.50792278E+02
 20
-1.65477400E+02
 11
-2.46009136E+02
 21
-1.64460712E+02
  0
LINE
  8
0
 62
4
 10
-2.36120064E+02
 20
-1.62358725E+02
 11
-2.30922272E+02
 21
-1.86812415E+02
  0
LINE
  8
0
 62
4
 10
-2.50792278E+02
 20
-1.65477400E+02
 11
-2.45594486E+02
 21
-1.89931090E+02
  0
LINE
  8
0
 62
4
 10
-2.47550781E+02
 20
-1.90346913E+02
 11
-2.28965976E+02
 21
-1.86396591E+02
  0
LINE
  8
0
 62
4
 10
-2.45802397E+02
 20
-1.88952942E+02
 11
-2.31130183E+02
 21
-1.85834267E+02
  0
LINE
  8
0
 62
4
 10
-2.28965976E+02
 20
-1.86396591E+02
 11
-2.28134330E+02
 21
-1.90309182E+02
  0
LINE
  8
0
 62
4
 10
-2.47550781E+02
 20
-1.90346913E+02
 11
-2.46719134E+02
 21
-1.94259504E+02
  0
LINE
  8
0
 62
4
 10
-2.46719134E+02
 20
-1.94259504E+02
 11
-2.28134330E+02
 21
-1.90309182E+02
  0
LINE
  8
0
 62
4
 10
-2.46045828E+02
 20
-2.09451497E+02
 11
-2.22570285E+02
 21
-2.04461617E+02
  0
LINE
  8
0
 62
4
 10
-2.25169181E+02
 20
-1.92234771E+02
 11
-2.22570285E+02
 21
-2.04461617E+02
  0
LINE
  8
0
 62
4
 10
-2.48644724E+02
 20
-1.97224652E+02
 11
-2.46045828E+02
 21
-2.09451497E+02
  0
LINE
  8
0
 62
4
 10
-2.46045828E+02
 20
-2.09451497E+02
 11
-2.44779136E+02
 21
-2.10557675E+02
  0
LINE
  8
0
 62
4
 10
-2.22570285E+02
 20
-2.04461617E+02
 11
-2.24673081E+02
 21
-2.08997942E+02
  0
LINE
  8
0
 62
4
 10
-2.29074746E+02
 20
-2.09933545E+02
 11
-2.24673081E+02
 21
-2.08997942E+02
  0
LINE
  8
0
 62
4
 10
-2.46357695E+02
 20
-2.07984276E+02
 11
-2.22882153E+02
 21
-2.02994395E+02
  0
LINE
  8
0
 62
4
 10
-2.37719734E+02
 20
-2.00525347E+02
 11
-2.33807143E+02
 21
-1.99693700E+02
  0
LINE
  8
0
 62
4
 10
-2.37199954E+02
 20
-2.02970716E+02
 11
-2.33287364E+02
 21
-2.02139069E+02
  0
LINE
  8
0
 62
4
 10
-2.37719734E+02
 20
-2.00525347E+02
 11
-2.37199954E+02
 21
-2.02970716E+02
  0
LINE
  8
0
 62
4
 10
-2.33807143E+02
 20
-1.99693700E+02
 11
-2.33287364E+02
 21
-2.02139069E+02
  0
LINE
  8
0
 62
4
 10
-2.40647284E+02
 20
-1.77132836E+02
 11
-2.35068993E+02
 21
-1.72113357E+02
  0
LINE
  8
0
 62
4
 10
-2.49346329E+02
 20
-1.67470320E+02
 11
-2.43768038E+02
 21
-1.62450841E+02
  0
LINE
  8
0
 62
4
 10
-2.49346329E+02
 20
-1.67470320E+02
 11
-2.47784912E+02
 21
-1.74816209E+02
  0
LINE
  8
0
 62
4
 10
-2.36630410E+02
 20
-1.64767468E+02
 11
-2.35068993E+02
 21
-1.72113357E+02
  0
LINE
  8
0
 62
4
 10
-2.47784912E+02
 20
-1.74816209E+02
 11
-2.40647284E+02
 21
-1.77132836E+02
  0
LINE
  8
0
 62
4
 10
-2.43768038E+02
 20
-1.62450841E+02
 11
-2.36630410E+02
 21
-1.64767468E+02
  0
LINE
  8
0
 62
4
 10
-2.40912987E+02
 20
-1.63377492E+02
 11
-2.36120064E+02
 21
-1.62358725E+02
  0
LINE
  8
0
 62
4
 10
-2.24961270E+02
 20
-1.93212919E+02
 11
-2.24472196E+02
 21
-1.93108963E+02
  0
LINE
  8
0
 62
4
 10
-2.23297976E+02
 20
-2.01038100E+02
 11
-2.22808902E+02
 21
-2.00934144E+02
  0
LINE
  8
0
 62
4
 10
-2.24347449E+02
 20
-1.93695852E+02
 11
-2.22655254E+02
 21
-1.93336165E+02
  0
LINE
  8
0
 62
4
 10
-2.21241454E+02
 20
-1.99987568E+02
 11
-2.22933649E+02
 21
-2.00347255E+02
  0
LINE
  8
0
  6
CENTER
 62
6
 10
-2.54872802E+02
 20
-2.03660174E+02
 11
-2.17771664E+02
 21
-1.95774084E+02
  0
LINE
  8
0
 62
4
 10
-2.24472196E+02
 20
-1.93108963E+02
 11
-2.22808902E+02
 21
-2.00934144E+02
  0
ARC
  8
0
 62
4
 10
-2.47158636E+02
 20
-2.06621011E+02
 40
5.00000533E-01
 50
1.02000061E+02
 51
1.91999939E+02
  0
ARC
  8
0
 62
4
 10
-2.32258795E+02
 20
-1.98831622E+02
 40
1.18077645E+01
 50
3.59024145E+02
 51
2.47266957E+01
  0
ARC
  8
0
 62
4
 10
-2.46199333E+02
 20
-1.96704887E+02
 40
2.50001831E+00
 50
1.02000420E+02
 51
1.91999580E+02
  0
ARC
  8
0
 62
4
 10
-2.27613792E+02
 20
-1.92753383E+02
 40
2.49901570E+00
 50
1.19774281E+01
 51
1.02022572E+02
  0
ARC
  8
0
 62
4
 10
-2.31475464E+02
 20
-2.20282857E+02
 40
1.06241099E+01
 50
7.69401406E+01
 51
1.13739125E+02
  0
CIRCLE
  8
0
 62
4
 10
-2.42207928E+02
 20
-1.69785777E+02
 40
3.75000000E+00
  0
ARC
  8
0
 62
4
 10
-2.21450995E+02
 20
-1.99011322E+02
 40
9.98481423E-01
 50
2.82114125E+02
 51
3.58771982E+02
  0
ARC
  8
0
 62
4
 10
-2.22450486E+02
 20
-1.94311003E+02
 40
9.96112687E-01
 50
2.45301420E+01
 51
1.01862685E+02
  0
ARC
  8
0
 62
4
 10
-2.42207928E+02
 20
-1.69785777E+02
 40
7.00000000E+00
 50
7.09816396E+01
 51
9.39142840E+01
  0
LINE
  8
0
 62
4
 10
-2.60633773E+02
 20
-2.15323396E+02
 11
-2.58750061E+02
 21
-2.24185564E+02
  0
LINE
  8
0
  6
CENTER
 62
6
 10
-2.62852040E+02
 20
-2.21192269E+02
 11
-2.58750061E+02
 21
-2.20320367E+02
  0
LINE
  8
0
 62
6
 10
-2.61334463E+02
 20
-2.22403209E+02
 11
-2.59224252E+02
 21
-2.21954670E+02
  0
LINE
  8
0
 62
4
 10
-2.61081927E+02
 20
-2.18781562E+02
 11
-2.59949864E+02
 21
-2.18540935E+02
  0
LINE
  8
0
 62
4
 10
-2.60252360E+02
 20
-2.22684371E+02
 11
-2.59120296E+02
 21
-2.22443744E+02
  0
LINE
  8
0
 62
4
 10
-2.62006018E+02
 20
-2.19243792E+02
 11
-2.61284564E+02
 21
-2.22637965E+02
  0
LINE
  8
0
 62
4
 10
-2.61081927E+02
 20
-2.18781562E+02
 11
-2.62006018E+02
 21
-2.19243792E+02
  0
LINE
  8
0
 62
4
 10
-2.60252360E+02
 20
-2.22684371E+02
 11
-2.61284564E+02
 21
-2.22637965E+02
  0
LINE
  8
0
 62
6
 10
-2.61958198E+02
 20
-2.19468766E+02
 11
-2.59847987E+02
 21
-2.19020227E+02
  0
LINE
  8
0
 62
4
 10
1.07692347E+02
 20
-1.99169416E+02
 11
1.12936868E+02
 21
-2.15323396E+02
  0
LINE
  8
0
 62
4
 10
7.74722768E+01
 20
-1.92234771E+02
 11
7.48733807E+01
 21
-2.04461617E+02
  0
LINE
  8
0
 62
4
 10
1.00947819E+02
 20
-1.97224652E+02
 11
9.83489231E+01
 21
-2.09451497E+02
  0
LINE
  8
0
 62
4
 10
9.00228289E+01
 20
-2.00525347E+02
 11
8.95030497E+01
 21
-2.02970716E+02
  0
LINE
  8
0
 62
4
 10
8.61102385E+01
 20
-1.99693700E+02
 11
8.55904593E+01
 21
-2.02139069E+02
  0
LINE
  8
0
  6
CENTER
 62
6
 10
1.07175897E+02
 20
-2.03660174E+02
 11
7.00747589E+01
 21
-1.95774084E+02
  0
LINE
  8
0
 62
4
 10
8.68663558E+01
 20
-1.90653353E+02
 11
9.30091227E+01
 21
-1.91959038E+02
  0
LINE
  8
0
  6
CENTER
 62
6
 10
9.02885399E+01
 20
-1.89655808E+02
 11
8.94200392E+01
 21
-1.93741783E+02
  0
LINE
  8
0
 62
4
 10
8.63063110E+01
 20
-1.91556652E+02
 11
8.68663558E+01
 21
-1.90653353E+02
  0
LINE
  8
0
 62
4
 10
9.30091227E+01
 20
-1.91959038E+02
 11
9.31533442E+01
 21
-1.93012034E+02
  0
ARC
  8
0
 62
4
 10
7.47535812E+01
 20
-1.94311003E+02
 40
9.96112687E-01
 50
7.81373153E+01
 51
1.55469858E+02
  0
ARC
  8
0
 62
4
 10
7.37540904E+01
 20
-1.99011322E+02
 40
9.98481423E-01
 50
1.81228019E+02
 51
2.57885875E+02
  0
ARC
  8
0
 62
4
 10
7.99168875E+01
 20
-1.92753383E+02
 40
2.49901570E+00
 50
7.79774280E+01
 51
1.68022572E+02
  0
ARC
  8
0
 62
4
 10
9.85024285E+01
 20
-1.96704887E+02
 40
2.50001831E+00
 50
3.48000420E+02
 51
7.79995802E+01
  0
ARC
  8
0
 62
4
 10
8.45618902E+01
 20
-1.98831622E+02
 40
1.18077645E+01
 50
1.55273304E+02
 51
1.80975855E+02
  0
LINE
  8
0
 62
4
 10
7.67752913E+01
 20
-1.93108963E+02
 11
7.51119978E+01
 21
-2.00934144E+02
  0
LINE
  8
0
 62
4
 10
7.35445494E+01
 20
-1.99987568E+02
 11
7.52367448E+01
 21
-2.00347255E+02
  0
LINE
  8
0
 62
4
 10
7.66505443E+01
 20
-1.93695852E+02
 11
7.49583489E+01
 21
-1.93336165E+02
  0
LINE
  8
0
 62
4
 10
7.56010716E+01
 20
-2.01038100E+02
 11
7.51119978E+01
 21
-2.00934144E+02
  0
LINE
  8
0
 62
4
 10
7.72643651E+01
 20
-1.93212919E+02
 11
7.67752913E+01
 21
-1.93108963E+02
  0
LINE
  8
0
 62
4
 10
9.60711338E+01
 20
-1.62450841E+02
 11
9.49888956E+01
 21
-1.62802098E+02
  0
LINE
  8
0
 62
4
 10
9.69169739E+01
 20
-1.63211948E+02
 11
9.60711338E+01
 21
-1.62450841E+02
  0
LINE
  8
0
 62
4
 10
9.00228289E+01
 20
-2.00525347E+02
 11
8.61102385E+01
 21
-1.99693700E+02
  0
LINE
  8
0
 62
4
 10
9.90222294E+01
 20
-1.94259504E+02
 11
8.04374250E+01
 21
-1.90309182E+02
  0
LINE
  8
0
 62
4
 10
9.98538762E+01
 20
-1.90346913E+02
 11
9.90222294E+01
 21
-1.94259504E+02
  0
LINE
  8
0
 62
4
 10
8.12690718E+01
 20
-1.86396591E+02
 11
8.04374250E+01
 21
-1.90309182E+02
  0
LINE
  8
0
 62
4
 10
9.81054927E+01
 20
-1.88952942E+02
 11
8.34332787E+01
 21
-1.85834267E+02
  0
LINE
  8
0
 62
4
 10
9.98538762E+01
 20
-1.90346913E+02
 11
8.12690718E+01
 21
-1.86396591E+02
  0
LINE
  8
0
 62
4
 10
1.03095373E+02
 20
-1.65477400E+02
 11
9.78975810E+01
 21
-1.89931090E+02
  0
LINE
  8
0
 62
4
 10
8.84231593E+01
 20
-1.62358725E+02
 11
8.32253670E+01
 21
-1.86812415E+02
  0
LINE
  8
0
 62
4
 10
8.84231593E+01
 20
-1.62358725E+02
 11
1.03095373E+02
 21
-1.65477400E+02
  0
LINE
  8
0
 62
4
 10
1.07692347E+02
 20
-1.99169416E+02
 11
1.00843863E+02
 21
-1.97713726E+02
  0
ARC
  8
0
 62
4
 10
9.45119688E+01
 20
-1.69785832E+02
 40
7.00000000E+00
 50
4.69793705E+01
 51
1.09020630E+02
  0
LINE
  8
0
 62
4
 10
9.83489231E+01
 20
-2.09451497E+02
 11
7.48733807E+01
 21
-2.04461617E+02
  0
LINE
  8
0
 62
4
 10
8.13778409E+01
 20
-2.09933545E+02
 11
7.69761767E+01
 21
-2.08997942E+02
  0
LINE
  8
0
 62
4
 10
9.86607906E+01
 20
-2.07984276E+02
 11
7.51852482E+01
 21
-2.02994395E+02
  0
ARC
  8
0
 62
4
 10
8.37785594E+01
 20
-2.20282857E+02
 40
1.06241099E+01
 50
6.62608748E+01
 51
1.03059860E+02
  0
LINE
  8
0
 62
4
 10
7.48733807E+01
 20
-2.04461617E+02
 11
7.69761767E+01
 21
-2.08997942E+02
  0
LINE
  8
0
 62
4
 10
8.95030497E+01
 20
-2.02970716E+02
 11
8.55904593E+01
 21
-2.02139069E+02
  0
LINE
  8
0
 62
4
 10
9.99508057E+01
 20
-2.06724966E+02
 11
9.91361383E+01
 21
-2.10557675E+02
  0
LINE
  8
0
 62
4
 10
9.83489231E+01
 20
-2.09451497E+02
 11
9.70822315E+01
 21
-2.10557675E+02
  0
ARC
  8
0
 62
4
 10
9.94617313E+01
 20
-2.06621011E+02
 40
5.00000533E-01
 50
3.48000061E+02
 51
7.79999389E+01
  0
LINE
  8
0
 62
4
 10
9.95656878E+01
 20
-2.06131936E+02
 11
9.90766140E+01
 21
-2.06027980E+02
  0
LINE
  8
0
 62
4
 10
1.12936868E+02
 20
-2.15323396E+02
 11
1.11007568E+02
 21
-2.24400039E+02
  0
LINE
  8
0
  6
CENTER
 62
6
 10
1.15155135E+02
 20
-2.21192269E+02
 11
1.11053156E+02
 21
-2.20320367E+02
  0
LINE
  8
0
 62
4
 10
1.12555455E+02
 20
-2.22684371E+02
 11
1.11423392E+02
 21
-2.22443744E+02
  0
LINE
  8
0
 62
6
 10
1.14261294E+02
 20
-2.19468766E+02
 11
1.12151083E+02
 21
-2.19020227E+02
  0
LINE
  8
0
 62
4
 10
1.12555455E+02
 20
-2.22684371E+02
 11
1.13587660E+02
 21
-2.22637965E+02
  0
LINE
  8
0
 62
4
 10
1.13385023E+02
 20
-2.18781562E+02
 11
1.14309113E+02
 21
-2.19243792E+02
  0
LINE
  8
0
 62
4
 10
1.14309113E+02
 20
-2.19243792E+02
 11
1.13587660E+02
 21
-2.22637965E+02
  0
LINE
  8
0
 62
4
 10
1.13385023E+02
 20
-2.18781562E+02
 11
1.12252959E+02
 21
-2.18540935E+02
  0
LINE
  8
0
 62
6
 10
1.13637559E+02
 20
-2.22403209E+02
 11
1.11527347E+02
 21
-2.21954670E+02
  0
LINE
  8
0
 62
4
 10
-3.92499487E+01
 20
-9.17569247E+01
 11
-4.12499487E+01
 21
-9.17569247E+01
  0
LINE
  8
0
 62
4
 10
-5.92499487E+01
 20
-1.13618745E+02
 11
-2.32499487E+01
 21
-1.13618745E+02
  0
LINE
  8
0
 62
4
 10
-5.82499487E+01
 20
-1.10341729E+02
 11
-3.92499487E+01
 21
-1.10341729E+02
  0
LINE
  8
0
  6
CENTER
 62
6
 10
-4.87499487E+01
 20
-7.14742264E+01
 11
-4.87499487E+01
 21
-1.25191746E+02
  0
LINE
  8
0
 62
4
 10
-4.12499487E+01
 20
-9.06083541E+01
 11
-2.32499487E+01
 21
-9.06083541E+01
  0
LINE
  8
0
 62
4
 10
-4.53499487E+01
 20
-1.16737420E+02
 11
-2.32499487E+01
 21
-1.16737420E+02
  0
LINE
  8
0
 62
4
 10
-5.82499487E+01
 20
-1.11173376E+02
 11
-3.92499487E+01
 21
-1.11173376E+02
  0
ARC
  8
0
 62
4
 10
-4.45143537E+01
 20
-1.07186475E+02
 40
1.21769740E+01
 50
2.40462101E+02
 51
2.53021762E+02
  0
ARC
  8
0
 62
4
 10
-5.29855437E+01
 20
-1.07186475E+02
 40
1.21769740E+01
 50
2.86978238E+02
 51
2.99537899E+02
  0
POLYLINE
  8
0
 62
4
 66
1
  0
VERTEX
  8
0
 62
4
 10
-4.53499487E+01
 20
-1.17753707E+02
  0
VERTEX
  8
0
 62
4
 10
-4.53628867E+01
 20
-1.17657726E+02
  0
VERTEX
  8
0
 62
4
 10
-4.54016023E+01
 20
-1.17562476E+02
  0
VERTEX
  8
0
 62
4
 10
-4.54658009E+01
 20
-1.17468681E+02
  0
VERTEX
  8
0
 62
4
 10
-4.55549938E+01
 20
-1.17377055E+02
  0
VERTEX
  8
0
 62
4
 10
-4.56685022E+01
 20
-1.17288296E+02
  0
VERTEX
  8
0
 62
4
 10
-4.58054623E+01
 20
-1.17203079E+02
  0
VERTEX
  8
0
 62
4
 10
-4.59648317E+01
 20
-1.17122053E+02
  0
VERTEX
  8
0
 62
4
 10
-4.61453976E+01
 20
-1.17045834E+02
  0
VERTEX
  8
0
 62
4
 10
-4.63457856E+01
 20
-1.16975002E+02
  0
VERTEX
  8
0
 62
4
 10
-4.65644708E+01
 20
-1.16910096E+02
  0
VERTEX
  8
0
 62
4
 10
-4.67997888E+01
 20
-1.16851611E+02
  0
VERTEX
  8
0
 62
4
 10
-4.70499487E+01
 20
-1.16799992E+02
  0
VERTEX
  8
0
 62
4
 10
-4.73130466E+01
 20
-1.16755631E+02
  0
VERTEX
  8
0
 62
4
 10
-4.75870802E+01
 20
-1.16718865E+02
  0
VERTEX
  8
0
 62
4
 10
-4.78699639E+01
 20
-1.16689976E+02
  0
VERTEX
  8
0
 62
4
 10
-4.81595449E+01
 20
-1.16669182E+02
  0
VERTEX
  8
0
 62
4
 10
-4.84536192E+01
 20
-1.16656642E+02
  0
VERTEX
  8
0
 62
4
 10
-4.87499487E+01
 20
-1.16652452E+02
  0
VERTEX
  8
0
 62
4
 10
-4.90462782E+01
 20
-1.16656642E+02
  0
VERTEX
  8
0
 62
4
 10
-4.93403525E+01
 20
-1.16669182E+02
  0
VERTEX
  8
0
 62
4
 10
-4.96299335E+01
 20
-1.16689976E+02
  0
VERTEX
  8
0
 62
4
 10
-4.99128172E+01
 20
-1.16718865E+02
  0
VERTEX
  8
0
 62
4
 10
-5.01868508E+01
 20
-1.16755631E+02
  0
VERTEX
  8
0
 62
4
 10
-5.04499487E+01
 20
-1.16799992E+02
  0
VERTEX
  8
0
 62
4
 10
-5.07001086E+01
 20
-1.16851611E+02
  0
VERTEX
  8
0
 62
4
 10
-5.09354266E+01
 20
-1.16910096E+02
  0
VERTEX
  8
0
 62
4
 10
-5.11541118E+01
 20
-1.16975002E+02
  0
VERTEX
  8
0
 62
4
 10
-5.13544998E+01
 20
-1.17045834E+02
  0
VERTEX
  8
0
 62
4
 10
-5.15350657E+01
 20
-1.17122053E+02
  0
VERTEX
  8
0
 62
4
 10
-5.16944351E+01
 20
-1.17203079E+02
  0
VERTEX
  8
0
 62
4
 10
-5.18313952E+01
 20
-1.17288296E+02
  0
VERTEX
  8
0
 62
4
 10
-5.19449036E+01
 20
-1.17377055E+02
  0
VERTEX
  8
0
 62
4
 10
-5.20340965E+01
 20
-1.17468681E+02
  0
VERTEX
  8
0
 62
4
 10
-5.20982951E+01
 20
-1.17562476E+02
  0
VERTEX
  8
0
 62
4
 10
-5.21370107E+01
 20
-1.17657726E+02
  0
VERTEX
  8
0
 62
4
 10
-5.21499487E+01
 20
-1.17753707E+02
  0
VERTEX
  8
0
 62
4
 10
-5.21370107E+01
 20
-1.17849688E+02
  0
VERTEX
  8
0
 62
4
 10
-5.20982951E+01
 20
-1.17944938E+02
  0
VERTEX
  8
0
 62
4
 10
-5.20340965E+01
 20
-1.18038733E+02
  0
VERTEX
  8
0
 62
4
 10
-5.19449036E+01
 20
-1.18130359E+02
  0
VERTEX
  8
0
 62
4
 10
-5.18313952E+01
 20
-1.18219118E+02
  0
VERTEX
  8
0
 62
4
 10
-5.16944351E+01
 20
-1.18304335E+02
  0
VERTEX
  8
0
 62
4
 10
-5.15350656E+01
 20
-1.18385361E+02
  0
VERTEX
  8
0
 62
4
 10
-5.13544998E+01
 20
-1.18461580E+02
  0
VERTEX
  8
0
 62
4
 10
-5.11541118E+01
 20
-1.18532412E+02
  0
VERTEX
  8
0
 62
4
 10
-5.09354266E+01
 20
-1.18597318E+02
  0
VERTEX
  8
0
 62
4
 10
-5.07001086E+01
 20
-1.18655803E+02
  0
VERTEX
  8
0
 62
4
 10
-5.04499487E+01
 20
-1.18707422E+02
  0
VERTEX
  8
0
 62
4
 10
-5.01868508E+01
 20
-1.18751783E+02
  0
VERTEX
  8
0
 62
4
 10
-4.99128172E+01
 20
-1.18788549E+02
  0
VERTEX
  8
0
 62
4
 10
-4.96299334E+01
 20
-1.18817438E+02
  0
VERTEX
  8
0
 62
4
 10
-4.93403525E+01
 20
-1.18838232E+02
  0
VERTEX
  8
0
 62
4
 10
-4.90462782E+01
 20
-1.18850772E+02
  0
VERTEX
  8
0
 62
4
 10
-4.87499487E+01
 20
-1.18854962E+02
  0
VERTEX
  8
0
 62
4
 10
-4.84536192E+01
 20
-1.18850772E+02
  0
VERTEX
  8
0
 62
4
 10
-4.81595449E+01
 20
-1.18838232E+02
  0
VERTEX
  8
0
 62
4
 10
-4.78699639E+01
 20
-1.18817438E+02
  0
VERTEX
  8
0
 62
4
 10
-4.75870802E+01
 20
-1.18788549E+02
  0
VERTEX
  8
0
 62
4
 10
-4.73130466E+01
 20
-1.18751783E+02
  0
VERTEX
  8
0
 62
4
 10
-4.70499487E+01
 20
-1.18707422E+02
  0
VERTEX
  8
0
 62
4
 10
-4.67997888E+01
 20
-1.18655803E+02
  0
VERTEX
  8
0
 62
4
 10
-4.65644708E+01
 20
-1.18597318E+02
  0
VERTEX
  8
0
 62
4
 10
-4.63457856E+01
 20
-1.18532412E+02
  0
VERTEX
  8
0
 62
4
 10
-4.61453976E+01
 20
-1.18461580E+02
  0
VERTEX
  8
0
 62
4
 10
-4.59648317E+01
 20
-1.18385361E+02
  0
VERTEX
  8
0
 62
4
 10
-4.58054623E+01
 20
-1.18304335E+02
  0
VERTEX
  8
0
 62
4
 10
-4.56685022E+01
 20
-1.18219118E+02
  0
VERTEX
  8
0
 62
4
 10
-4.55549938E+01
 20
-1.18130359E+02
  0
VERTEX
  8
0
 62
4
 10
-4.54658009E+01
 20
-1.18038733E+02
  0
VERTEX
  8
0
 62
4
 10
-4.54016023E+01
 20
-1.17944938E+02
  0
VERTEX
  8
0
 62
4
 10
-4.53628867E+01
 20
-1.17849688E+02
  0
VERTEX
  8
0
 62
4
 10
-4.53499487E+01
 20
-1.17753707E+02
  0
SEQEND
  8
0
  0
POLYLINE
  8
0
 62
4
 66
1
  0
VERTEX
  8
0
 62
4
 10
-4.47499487E+01
 20
-1.15178083E+02
  0
VERTEX
  8
0
 62
4
 10
-4.47660515E+01
 20
-1.15103535E+02
  0
VERTEX
  8
0
 62
4
 10
-4.48142303E+01
 20
-1.15029587E+02
  0
VERTEX
  8
0
 62
4
 10
-4.48940973E+01
 20
-1.14956834E+02
  0
VERTEX
  8
0
 62
4
 10
-4.50050092E+01
 20
-1.14885863E+02
  0
VERTEX
  8
0
 62
4
 10
-4.51460732E+01
 20
-1.14817245E+02
  0
VERTEX
  8
0
 62
4
 10
-4.53161535E+01
 20
-1.14751532E+02
  0
VERTEX
  8
0
 62
4
 10
-4.55138807E+01
 20
-1.14689253E+02
  0
VERTEX
  8
0
 62
4
 10
-4.57376628E+01
 20
-1.14630910E+02
  0
VERTEX
  8
0
 62
4
 10
-4.59856981E+01
 20
-1.14576973E+02
  0
VERTEX
  8
0
 62
4
 10
-4.62559895E+01
 20
-1.14527875E+02
  0
VERTEX
  8
0
 62
4
 10
-4.65463608E+01
 20
-1.14484013E+02
  0
VERTEX
  8
0
 62
4
 10
-4.68544740E+01
 20
-1.14445739E+02
  0
VERTEX
  8
0
 62
4
 10
-4.71778486E+01
 20
-1.14413361E+02
  0
VERTEX
  8
0
 62
4
 10
-4.75138807E+01
 20
-1.14387140E+02
  0
VERTEX
  8
0
 62
4
 10
-4.78598650E+01
 20
-1.14367287E+02
  0
VERTEX
  8
0
 62
4
 10
-4.82130156E+01
 20
-1.14353963E+02
  0
VERTEX
  8
0
 62
4
 10
-4.85704894E+01
 20
-1.14347274E+02
  0
VERTEX
  8
0
 62
4
 10
-4.89294080E+01
 20
-1.14347274E+02
  0
VERTEX
  8
0
 62
4
 10
-4.92868818E+01
 20
-1.14353963E+02
  0
VERTEX
  8
0
 62
4
 10
-4.96400324E+01
 20
-1.14367287E+02
  0
VERTEX
  8
0
 62
4
 10
-4.99860167E+01
 20
-1.14387140E+02
  0
VERTEX
  8
0
 62
4
 10
-5.03220488E+01
 20
-1.14413361E+02
  0
VERTEX
  8
0
 62
4
 10
-5.06454233E+01
 20
-1.14445739E+02
  0
VERTEX
  8
0
 62
4
 10
-5.09535366E+01
 20
-1.14484013E+02
  0
VERTEX
  8
0
 62
4
 10
-5.12439079E+01
 20
-1.14527875E+02
  0
VERTEX
  8
0
 62
4
 10
-5.15141993E+01
 20
-1.14576973E+02
  0
VERTEX
  8
0
 62
4
 10
-5.17622346E+01
 20
-1.14630910E+02
  0
VERTEX
  8
0
 62
4
 10
-5.19860167E+01
 20
-1.14689253E+02
  0
VERTEX
  8
0
 62
4
 10
-5.21837439E+01
 20
-1.14751532E+02
  0
VERTEX
  8
0
 62
4
 10
-5.23538242E+01
 20
-1.14817245E+02
  0
VERTEX
  8
0
 62
4
 10
-5.24948882E+01
 20
-1.14885863E+02
  0
VERTEX
  8
0
 62
4
 10
-5.26058001E+01
 20
-1.14956834E+02
  0
VERTEX
  8
0
 62
4
 10
-5.26856671E+01
 20
-1.15029587E+02
  0
VERTEX
  8
0
 62
4
 10
-5.27338459E+01
 20
-1.15103535E+02
  0
VERTEX
  8
0
 62
4
 10
-5.27499487E+01
 20
-1.15178083E+02
  0
SEQEND
  8
0
  0
ARC
  8
0
 62
4
 10
-5.92504523E+01
 20
-1.15237924E+02
 40
1.49949647E+00
 50
1.79980757E+02
 51
2.70019243E+02
  0
LINE
  8
0
 62
4
 10
-5.92499487E+01
 20
-1.16737420E+02
 11
-5.21499487E+01
 21
-1.16737420E+02
  0
POLYLINE
  8
0
 62
4
 66
1
  0
VERTEX
  8
0
 62
4
 10
-4.53499487E+01
 20
-1.15667148E+02
  0
VERTEX
  8
0
 62
4
 10
-4.53636396E+01
 20
-1.15603782E+02
  0
VERTEX
  8
0
 62
4
 10
-4.54045950E+01
 20
-1.15540926E+02
  0
VERTEX
  8
0
 62
4
 10
-4.54724849E+01
 20
-1.15479087E+02
  0
VERTEX
  8
0
 62
4
 10
-4.55667628E+01
 20
-1.15418762E+02
  0
VERTEX
  8
0
 62
4
 10
-4.56866697E+01
 20
-1.15360437E+02
  0
VERTEX
  8
0
 62
4
 10
-4.58312401E+01
 20
-1.15304582E+02
  0
VERTEX
  8
0
 62
4
 10
-4.59993101E+01
 20
-1.15251645E+02
  0
VERTEX
  8
0
 62
4
 10
-4.61895264E+01
 20
-1.15202054E+02
  0
VERTEX
  8
0
 62
4
 10
-4.64003576E+01
 20
-1.15156208E+02
  0
VERTEX
  8
0
 62
4
 10
-4.66301061E+01
 20
-1.15114476E+02
  0
VERTEX
  8
0
 62
4
 10
-4.68769223E+01
 20
-1.15077193E+02
  0
VERTEX
  8
0
 62
4
 10
-4.71388188E+01
 20
-1.15044661E+02
  0
VERTEX
  8
0
 62
4
 10
-4.74136871E+01
 20
-1.15017140E+02
  0
VERTEX
  8
0
 62
4
 10
-4.76993142E+01
 20
-1.14994853E+02
  0
VERTEX
  8
0
 62
4
 10
-4.79934002E+01
 20
-1.14977979E+02
  0
VERTEX
  8
0
 62
4
 10
-4.82935775E+01
 20
-1.14966653E+02
  0
VERTEX
  8
0
 62
4
 10
-4.85974292E+01
 20
-1.14960968E+02
  0
VERTEX
  8
0
 62
4
 10
-4.89025089E+01
 20
-1.14960968E+02
  0
VERTEX
  8
0
 62
4
 10
-4.92063603E+01
 20
-1.14966654E+02
  0
VERTEX
  8
0
 62
4
 10
-4.95065369E+01
 20
-1.14977981E+02
  0
VERTEX
  8
0
 62
4
 10
-4.98006220E+01
 20
-1.14994855E+02
  0
VERTEX
  8
0
 62
4
 10
-5.00862477E+01
 20
-1.15017143E+02
  0
VERTEX
  8
0
 62
4
 10
-5.03611145E+01
 20
-1.15044665E+02
  0
VERTEX
  8
0
 62
4
 10
-5.06230091E+01
 20
-1.15077198E+02
  0
VERTEX
  8
0
 62
4
 10
-5.08698231E+01
 20
-1.15114481E+02
  0
VERTEX
  8
0
 62
4
 10
-5.10995693E+01
 20
-1.15156214E+02
  0
VERTEX
  8
0
 62
4
 10
-5.13103978E+01
 20
-1.15202061E+02
  0
VERTEX
  8
0
 62
4
 10
-5.15006113E+01
 20
-1.15251652E+02
  0
VERTEX
  8
0
 62
4
 10
-5.16686782E+01
 20
-1.15304589E+02
  0
VERTEX
  8
0
 62
4
 10
-5.18132454E+01
 20
-1.15360445E+02
  0
VERTEX
  8
0
 62
4
 10
-5.19331489E+01
 20
-1.15418770E+02
  0
VERTEX
  8
0
 62
4
 10
-5.20274234E+01
 20
-1.15479095E+02
  0
VERTEX
  8
0
 62
4
 10
-5.20953097E+01
 20
-1.15540935E+02
  0
VERTEX
  8
0
 62
4
 10
-5.21362614E+01
 20
-1.15603790E+02
  0
VERTEX
  8
0
 62
4
 10
-5.21499487E+01
 20
-1.15667156E+02
  0
SEQEND
  8
0
  0
POLYLINE
  8
0
 62
4
 66
1
  0
VERTEX
  8
0
 62
4
 10
-4.53499487E+01
 20
-1.16105253E+02
  0
VERTEX
  8
0
 62
4
 10
-4.51768967E+01
 20
-1.16041010E+02
  0
VERTEX
  8
0
 62
4
 10
-4.50318537E+01
 20
-1.15973836E+02
  0
VERTEX
  8
0
 62
4
 10
-4.49159569E+01
 20
-1.15904258E+02
  0
VERTEX
  8
0
 62
4
 10
-4.48301146E+01
 20
-1.15832821E+02
  0
VERTEX
  8
0
 62
4
 10
-4.47749998E+01
 20
-1.15760086E+02
  0
VERTEX
  8
0
 62
4
 10
-4.47510446E+01
 20
-1.15686622E+02
  0
VERTEX
  8
0
 62
4
 10
-4.47584368E+01
 20
-1.15613006E+02
  0
VERTEX
  8
0
 62
4
 10
-4.47971183E+01
 20
-1.15539814E+02
  0
VERTEX
  8
0
 62
4
 10
-4.48667860E+01
 20
-1.15467621E+02
  0
VERTEX
  8
0
 62
4
 10
-4.49668937E+01
 20
-1.15396991E+02
  0
VERTEX
  8
0
 62
4
 10
-4.50966568E+01
 20
-1.15328480E+02
  0
VERTEX
  8
0
 62
4
 10
-4.52550579E+01
 20
-1.15262623E+02
  0
VERTEX
  8
0
 62
4
 10
-4.54408554E+01
 20
-1.15199937E+02
  0
VERTEX
  8
0
 62
4
 10
-4.56525929E+01
 20
-1.15140914E+02
  0
VERTEX
  8
0
 62
4
 10
-4.58886105E+01
 20
-1.15086016E+02
  0
VERTEX
  8
0
 62
4
 10
-4.61470580E+01
 20
-1.15035674E+02
  0
VERTEX
  8
0
 62
4
 10
-4.64259096E+01
 20
-1.14990282E+02
  0
VERTEX
  8
0
 62
4
 10
-4.67229792E+01
 20
-1.14950195E+02
  0
VERTEX
  8
0
 62
4
 10
-4.70359383E+01
 20
-1.14915729E+02
  0
VERTEX
  8
0
 62
4
 10
-4.73623334E+01
 20
-1.14887154E+02
  0
VERTEX
  8
0
 62
4
 10
-4.76996061E+01
 20
-1.14864693E+02
  0
VERTEX
  8
0
 62
4
 10
-4.80451123E+01
 20
-1.14848522E+02
  0
VERTEX
  8
0
 62
4
 10
-4.83961438E+01
 20
-1.14838769E+02
  0
VERTEX
  8
0
 62
4
 10
-4.87499487E+01
 20
-1.14835509E+02
  0
VERTEX
  8
0
 62
4
 10
-4.91037536E+01
 20
-1.14838769E+02
  0
VERTEX
  8
0
 62
4
 10
-4.94547851E+01
 20
-1.14848522E+02
  0
VERTEX
  8
0
 62
4
 10
-4.98002913E+01
 20
-1.14864693E+02
  0
VERTEX
  8
0
 62
4
 10
-5.01375639E+01
 20
-1.14887154E+02
  0
VERTEX
  8
0
 62
4
 10
-5.04639591E+01
 20
-1.14915729E+02
  0
VERTEX
  8
0
 62
4
 10
-5.07769181E+01
 20
-1.14950195E+02
  0
VERTEX
  8
0
 62
4
 10
-5.10739878E+01
 20
-1.14990282E+02
  0
VERTEX
  8
0
 62
4
 10
-5.13528394E+01
 20
-1.15035674E+02
  0
VERTEX
  8
0
 62
4
 10
-5.16112869E+01
 20
-1.15086016E+02
  0
VERTEX
  8
0
 62
4
 10
-5.18473045E+01
 20
-1.15140914E+02
  0
VERTEX
  8
0
 62
4
 10
-5.20590419E+01
 20
-1.15199937E+02
  0
VERTEX
  8
0
 62
4
 10
-5.22448395E+01
 20
-1.15262623E+02
  0
VERTEX
  8
0
 62
4
 10
-5.24032406E+01
 20
-1.15328480E+02
  0
VERTEX
  8
0
 62
4
 10
-5.25330037E+01
 20
-1.15396991E+02
  0
VERTEX
  8
0
 62
4
 10
-5.26331114E+01
 20
-1.15467621E+02
  0
VERTEX
  8
0
 62
4
 10
-5.27027791E+01
 20
-1.15539814E+02
  0
VERTEX
  8
0
 62
4
 10
-5.27414606E+01
 20
-1.15613006E+02
  0
VERTEX
  8
0
 62
4
 10
-5.27488528E+01
 20
-1.15686622E+02
  0
VERTEX
  8
0
 62
4
 10
-5.27248976E+01
 20
-1.15760086E+02
  0
VERTEX
  8
0
 62
4
 10
-5.26697828E+01
 20
-1.15832821E+02
  0
VERTEX
  8
0
 62
4
 10
-5.25839405E+01
 20
-1.15904258E+02
  0
VERTEX
  8
0
 62
4
 10
-5.24680437E+01
 20
-1.15973836E+02
  0
VERTEX
  8
0
 62
4
 10
-5.23230007E+01
 20
-1.16041010E+02
  0
VERTEX
  8
0
 62
4
 10
-5.21499487E+01
 20
-1.16105253E+02
  0
SEQEND
  8
0
  0
LINE
  8
0
  6
CENTER
 62
6
 10
-5.37990337E+01
 20
-9.58515346E+01
 11
-4.37008639E+01
 21
-9.58515346E+01
  0
POLYLINE
  8
0
 62
4
 66
1
  0
VERTEX
  8
0
 62
4
 10
-4.57499487E+01
 20
-9.58515346E+01
  0
VERTEX
  8
0
 62
4
 10
-4.57613646E+01
 20
-9.55957811E+01
  0
VERTEX
  8
0
 62
4
 10
-4.57955254E+01
 20
-9.53419740E+01
  0
VERTEX
  8
0
 62
4
 10
-4.58521712E+01
 20
-9.50920449E+01
  0
VERTEX
  8
0
 62
4
 10
-4.59308708E+01
 20
-9.48478961E+01
  0
VERTEX
  8
0
 62
4
 10
-4.60310253E+01
 20
-9.46113855E+01
  0
VERTEX
  8
0
 62
4
 10
-4.61518725E+01
 20
-9.43843132E+01
  0
VERTEX
  8
0
 62
4
 10
-4.62924926E+01
 20
-9.41684074E+01
  0
VERTEX
  8
0
 62
4
 10
-4.64518154E+01
 20
-9.39653111E+01
  0
VERTEX
  8
0
 62
4
 10
-4.66286284E+01
 20
-9.37765702E+01
  0
VERTEX
  8
0
 62
4
 10
-4.68215859E+01
 20
-9.36036210E+01
  0
VERTEX
  8
0
 62
4
 10
-4.70292194E+01
 20
-9.34477798E+01
  0
VERTEX
  8
0
 62
4
 10
-4.72499487E+01
 20
-9.33102326E+01
  0
VERTEX
  8
0
 62
4
 10
-4.74820939E+01
 20
-9.31920262E+01
  0
VERTEX
  8
0
 62
4
 10
-4.77238883E+01
 20
-9.30940604E+01
  0
VERTEX
  8
0
 62
4
 10
-4.79734916E+01
 20
-9.30170805E+01
  0
VERTEX
  8
0
 62
4
 10
-4.82290042E+01
 20
-9.29616726E+01
  0
VERTEX
  8
0
 62
4
 10
-4.84884815E+01
 20
-9.29282582E+01
  0
VERTEX
  8
0
 62
4
 10
-4.87499487E+01
 20
-9.29170918E+01
  0
VERTEX
  8
0
 62
4
 10
-4.90114159E+01
 20
-9.29282582E+01
  0
VERTEX
  8
0
 62
4
 10
-4.92708932E+01
 20
-9.29616726E+01
  0
VERTEX
  8
0
 62
4
 10
-4.95264058E+01
 20
-9.30170805E+01
  0
VERTEX
  8
0
 62
4
 10
-4.97760091E+01
 20
-9.30940604E+01
  0
VERTEX
  8
0
 62
4
 10
-5.00178035E+01
 20
-9.31920262E+01
  0
VERTEX
  8
0
 62
4
 10
-5.02499487E+01
 20
-9.33102326E+01
  0
VERTEX
  8
0
 62
4
 10
-5.04706780E+01
 20
-9.34477798E+01
  0
VERTEX
  8
0
 62
4
 10
-5.06783115E+01
 20
-9.36036210E+01
  0
VERTEX
  8
0
 62
4
 10
-5.08712690E+01
 20
-9.37765702E+01
  0
VERTEX
  8
0
 62
4
 10
-5.10480820E+01
 20
-9.39653111E+01
  0
VERTEX
  8
0
 62
4
 10
-5.12074048E+01
 20
-9.41684074E+01
  0
VERTEX
  8
0
 62
4
 10
-5.13480249E+01
 20
-9.43843132E+01
  0
VERTEX
  8
0
 62
4
 10
-5.14688721E+01
 20
-9.46113855E+01
  0
VERTEX
  8
0
 62
4
 10
-5.15690266E+01
 20
-9.48478961E+01
  0
VERTEX
  8
0
 62
4
 10
-5.16477262E+01
 20
-9.50920449E+01
  0
VERTEX
  8
0
 62
4
 10
-5.17043720E+01
 20
-9.53419740E+01
  0
VERTEX
  8
0
 62
4
 10
-5.17385328E+01
 20
-9.55957811E+01
  0
VERTEX
  8
0
 62
4
 10
-5.17499487E+01
 20
-9.58515346E+01
  0
VERTEX
  8
0
 62
4
 10
-5.17385328E+01
 20
-9.61072881E+01
  0
VERTEX
  8
0
 62
4
 10
-5.17043720E+01
 20
-9.63610952E+01
  0
VERTEX
  8
0
 62
4
 10
-5.16477262E+01
 20
-9.66110243E+01
  0
VERTEX
  8
0
 62
4
 10
-5.15690266E+01
 20
-9.68551732E+01
  0
VERTEX
  8
0
 62
4
 10
-5.14688721E+01
 20
-9.70916837E+01
  0
VERTEX
  8
0
 62
4
 10
-5.13480249E+01
 20
-9.73187560E+01
  0
VERTEX
  8
0
 62
4
 10
-5.12074048E+01
 20
-9.75346618E+01
  0
VERTEX
  8
0
 62
4
 10
-5.10480820E+01
 20
-9.77377581E+01
  0
VERTEX
  8
0
 62
4
 10
-5.08712690E+01
 20
-9.79264990E+01
  0
VERTEX
  8
0
 62
4
 10
-5.06783115E+01
 20
-9.80994482E+01
  0
VERTEX
  8
0
 62
4
 10
-5.04706780E+01
 20
-9.82552894E+01
  0
VERTEX
  8
0
 62
4
 10
-5.02499487E+01
 20
-9.83928366E+01
  0
VERTEX
  8
0
 62
4
 10
-5.00178035E+01
 20
-9.85110430E+01
  0
VERTEX
  8
0
 62
4
 10
-4.97760091E+01
 20
-9.86090088E+01
  0
VERTEX
  8
0
 62
4
 10
-4.95264058E+01
 20
-9.86859887E+01
  0
VERTEX
  8
0
 62
4
 10
-4.92708932E+01
 20
-9.87413966E+01
  0
VERTEX
  8
0
 62
4
 10
-4.90114159E+01
 20
-9.87748110E+01
  0
VERTEX
  8
0
 62
4
 10
-4.87499487E+01
 20
-9.87859774E+01
  0
VERTEX
  8
0
 62
4
 10
-4.84884815E+01
 20
-9.87748110E+01
  0
VERTEX
  8
0
 62
4
 10
-4.82290042E+01
 20
-9.87413966E+01
  0
VERTEX
  8
0
 62
4
 10
-4.79734916E+01
 20
-9.86859887E+01
  0
VERTEX
  8
0
 62
4
 10
-4.77238883E+01
 20
-9.86090088E+01
  0
VERTEX
  8
0
 62
4
 10
-4.74820939E+01
 20
-9.85110430E+01
  0
VERTEX
  8
0
 62
4
 10
-4.72499487E+01
 20
-9.83928366E+01
  0
VERTEX
  8
0
 62
4
 10
-4.70292194E+01
 20
-9.82552894E+01
  0
VERTEX
  8
0
 62
4
 10
-4.68215859E+01
 20
-9.80994482E+01
  0
VERTEX
  8
0
 62
4
 10
-4.66286284E+01
 20
-9.79264990E+01
  0
VERTEX
  8
0
 62
4
 10
-4.64518154E+01
 20
-9.77377581E+01
  0
VERTEX
  8
0
 62
4
 10
-4.62924926E+01
 20
-9.75346618E+01
  0
VERTEX
  8
0
 62
4
 10
-4.61518725E+01
 20
-9.73187560E+01
  0
VERTEX
  8
0
 62
4
 10
-4.60310253E+01
 20
-9.70916837E+01
  0
VERTEX
  8
0
 62
4
 10
-4.59308708E+01
 20
-9.68551731E+01
  0
VERTEX
  8
0
 62
4
 10
-4.58521712E+01
 20
-9.66110243E+01
  0
VERTEX
  8
0
 62
4
 10
-4.57955254E+01
 20
-9.63610952E+01
  0
VERTEX
  8
0
 62
4
 10
-4.57613646E+01
 20
-9.61072881E+01
  0
VERTEX
  8
0
 62
4
 10
-4.57499487E+01
 20
-9.58515346E+01
  0
SEQEND
  8
0
  0
LINE
  8
0
 62
4
 10
-5.62499488E+01
 20
-1.08385434E+02
 11
-4.12499488E+01
 21
-1.08385434E+02
  0
LINE
  8
0
 62
4
 10
-7.57499488E+01
 20
-1.04238712E+02
 11
-7.07499488E+01
 21
-1.04238712E+02
  0
LINE
  8
0
 62
4
 10
-6.57499487E+01
 20
-9.05997780E+01
 11
-6.57499487E+01
 21
-1.03599778E+02
  0
ARC
  8
0
 62
4
 10
-6.52494486E+01
 20
-9.06002781E+01
 40
5.00500378E-01
 50
9.00572530E+01
 51
1.79942747E+02
  0
LINE
  8
0
 62
4
 10
-5.62499487E+01
 20
-9.00997780E+01
 11
-6.52499487E+01
 21
-9.00997780E+01
  0
LINE
  8
0
 62
4
 10
-7.57499487E+01
 20
-1.02677295E+02
 11
-7.07499487E+01
 21
-1.02677295E+02
  0
LINE
  8
0
 62
4
 10
-7.57499487E+01
 20
-9.55396671E+01
 11
-7.07499487E+01
 21
-9.55396671E+01
  0
LINE
  8
0
  6
CENTER
 62
6
 10
-4.47499487E+01
 20
-7.60416875E+01
 11
-4.47499487E+01
 21
-8.65416875E+01
  0
LINE
  8
0
 62
4
 10
-4.27499487E+01
 20
-7.83016875E+01
 11
-4.27499487E+01
 21
-7.86739326E+01
  0
LINE
  8
0
 62
4
 10
-4.67499487E+01
 20
-7.83016875E+01
 11
-4.67499487E+01
 21
-7.86739326E+01
  0
LINE
  8
0
 62
4
 10
-4.30199487E+01
 20
-7.73016875E+01
 11
-4.64899487E+01
 21
-7.73016875E+01
  0
LINE
  8
0
 62
4
 10
-4.27499487E+01
 20
-7.83016875E+01
 11
-4.30199487E+01
 21
-7.73016875E+01
  0
LINE
  8
0
 62
4
 10
-4.67499487E+01
 20
-7.83016875E+01
 11
-4.64899487E+01
 21
-7.73016875E+01
  0
LINE
  8
0
 62
6
 10
-4.32499487E+01
 20
-7.73016875E+01
 11
-4.32499487E+01
 21
-7.86739326E+01
  0
LINE
  8
0
 62
6
 10
-4.62499487E+01
 20
-7.73016875E+01
 11
-4.62499487E+01
 21
-7.86739326E+01
  0
LINE
  8
0
 62
4
 10
-4.22499487E+01
 20
-8.39184541E+01
 11
-5.52499487E+01
 21
-8.39184541E+01
  0
LINE
  8
0
 62
4
 10
-4.12499487E+01
 20
-7.86739326E+01
 11
-5.62499487E+01
 21
-7.86739326E+01
  0
LINE
  8
0
  6
CENTER
 62
6
 10
-5.27499487E+01
 20
-7.60416875E+01
 11
-5.27499487E+01
 21
-8.65416875E+01
  0
LINE
  8
0
 62
6
 10
-5.42499487E+01
 20
-7.73016875E+01
 11
-5.42499487E+01
 21
-7.86739326E+01
  0
LINE
  8
0
 62
4
 10
-5.07499487E+01
 20
-7.83016875E+01
 11
-5.07499487E+01
 21
-7.86739326E+01
  0
LINE
  8
0
 62
4
 10
-5.47499487E+01
 20
-7.83016875E+01
 11
-5.47499487E+01
 21
-7.86739326E+01
  0
LINE
  8
0
 62
4
 10
-5.10199487E+01
 20
-7.73016875E+01
 11
-5.44899487E+01
 21
-7.73016875E+01
  0
LINE
  8
0
 62
4
 10
-5.07499487E+01
 20
-7.83016875E+01
 11
-5.10199487E+01
 21
-7.73016875E+01
  0
LINE
  8
0
 62
4
 10
-5.47499487E+01
 20
-7.83016875E+01
 11
-5.44899487E+01
 21
-7.73016875E+01
  0
LINE
  8
0
 62
6
 10
-5.12499487E+01
 20
-7.73016875E+01
 11
-5.12499487E+01
 21
-7.86739326E+01
  0
LINE
  8
0
 62
4
 10
-4.47499487E+01
 20
-1.15178083E+02
 11
-4.47499487E+01
 21
-1.15667156E+02
  0
LINE
  8
0
 62
4
 10
-5.27499487E+01
 20
-1.15667156E+02
 11
-5.27499487E+01
 21
-1.15178083E+02
  0
LINE
  8
0
 62
4
 10
-4.53499487E+01
 20
-1.15667156E+02
 11
-4.53499487E+01
 21
-1.17591113E+02
  0
LINE
  8
0
 62
4
 10
-5.21499487E+01
 20
-1.17591113E+02
 11
-5.21499487E+01
 21
-1.15667156E+02
  0
LINE
  8
0
 62
4
 10
-6.52499487E+01
 20
-1.04099778E+02
 11
-5.62499487E+01
 21
-1.04099778E+02
  0
LINE
  8
0
 62
4
 10
-7.57499487E+01
 20
-8.99613765E+01
 11
-7.57499487E+01
 21
-1.04238712E+02
  0
LINE
  8
0
 62
4
 10
-7.07499487E+01
 20
-8.99613765E+01
 11
-7.07499487E+01
 21
-1.04238712E+02
  0
LINE
  8
0
 62
4
 10
-7.07499487E+01
 20
-9.08497780E+01
 11
-6.57499487E+01
 21
-9.08497780E+01
  0
LINE
  8
0
 62
4
 10
-7.07499487E+01
 20
-1.03349778E+02
 11
-6.57499487E+01
 21
-1.03349778E+02
  0
LINE
  8
0
 62
4
 10
-6.92499487E+01
 20
-9.08497780E+01
 11
-6.92499487E+01
 21
-1.03349778E+02
  0
LINE
  8
0
 62
4
 10
-6.92499487E+01
 20
-9.13497780E+01
 11
-6.57499487E+01
 21
-9.13497780E+01
  0
LINE
  8
0
 62
4
 10
-6.92499487E+01
 20
-1.02849778E+02
 11
-6.57499487E+01
 21
-1.02849778E+02
  0
LINE
  8
0
 62
4
 10
-4.12499487E+01
 20
-1.08385434E+02
 11
-4.12499487E+01
 21
-7.86739326E+01
  0
LINE
  8
0
 62
4
 10
-5.62499487E+01
 20
-8.85154276E+01
 11
-4.12499487E+01
 21
-8.85154276E+01
  0
LINE
  8
0
 62
4
 10
-5.62499487E+01
 20
-1.03187642E+02
 11
-4.12499487E+01
 21
-1.03187642E+02
  0
LINE
  8
0
 62
4
 10
-7.57499487E+01
 20
-8.99613765E+01
 11
-7.07499487E+01
 21
-8.99613765E+01
  0
LINE
  8
0
 62
4
 10
-6.07499487E+01
 20
-1.15237420E+02
 11
-6.07499487E+01
 21
-1.04099778E+02
  0
LINE
  8
0
 62
4
 10
-5.82499487E+01
 20
-1.04099778E+02
 11
-5.82499487E+01
 21
-1.11173376E+02
  0
LINE
  8
0
 62
4
 10
-5.62499487E+01
 20
-7.86739326E+01
 11
-5.62499487E+01
 21
-1.08385434E+02
  0
ARC
  8
0
 62
4
 10
-6.52504484E+01
 20
-1.03600278E+02
 40
4.99500622E-01
 50
1.79942690E+02
 51
2.70057311E+02
  0
ARC
  8
0
 62
4
 10
-5.92504523E+01
 20
-1.12119248E+02
 40
1.49949647E+00
 50
1.79980757E+02
 51
2.70019243E+02
  0
POLYLINE
  8
0
 62
4
 66
1
  0
VERTEX
  8
0
 62
4
 10
-2.96099487E+01
 20
-1.01673062E+02
  0
VERTEX
  8
0
 62
4
 10
-2.96218973E+01
 20
-1.01405373E+02
  0
VERTEX
  8
0
 62
4
 10
-2.96576524E+01
 20
-1.01139722E+02
  0
VERTEX
  8
0
 62
4
 10
-2.97169416E+01
 20
-1.00878129E+02
  0
VERTEX
  8
0
 62
4
 10
-2.97993139E+01
 20
-1.00622587E+02
  0
VERTEX
  8
0
 62
4
 10
-2.99041422E+01
 20
-1.00375039E+02
  0
VERTEX
  8
0
 62
4
 10
-3.00306289E+01
 20
-1.00137370E+02
  0
VERTEX
  8
0
 62
4
 10
-3.01778113E+01
 20
-9.99113888E+01
  0
VERTEX
  8
0
 62
4
 10
-3.03445691E+01
 20
-9.96988148E+01
  0
VERTEX
  8
0
 62
4
 10
-3.05296334E+01
 20
-9.95012659E+01
  0
VERTEX
  8
0
 62
4
 10
-3.07315956E+01
 20
-9.93202458E+01
  0
VERTEX
  8
0
 62
4
 10
-3.09489187E+01
 20
-9.91571320E+01
  0
VERTEX
  8
0
 62
4
 10
-3.11799487E+01
 20
-9.90131659E+01
  0
VERTEX
  8
0
 62
4
 10
-3.14229274E+01
 20
-9.88894432E+01
  0
VERTEX
  8
0
 62
4
 10
-3.16760055E+01
 20
-9.87869056E+01
  0
VERTEX
  8
0
 62
4
 10
-3.19372569E+01
 20
-9.87063334E+01
  0
VERTEX
  8
0
 62
4
 10
-3.22046934E+01
 20
-9.86483397E+01
  0
VERTEX
  8
0
 62
4
 10
-3.24762797E+01
 20
-9.86133661E+01
  0
VERTEX
  8
0
 62
4
 10
-3.27499487E+01
 20
-9.86016785E+01
  0
VERTEX
  8
0
 62
4
 10
-3.30236177E+01
 20
-9.86133661E+01
  0
VERTEX
  8
0
 62
4
 10
-3.32952040E+01
 20
-9.86483397E+01
  0
VERTEX
  8
0
 62
4
 10
-3.35626405E+01
 20
-9.87063334E+01
  0
VERTEX
  8
0
 62
4
 10
-3.38238920E+01
 20
-9.87869056E+01
  0
VERTEX
  8
0
 62
4
 10
-3.40769700E+01
 20
-9.88894432E+01
  0
VERTEX
  8
0
 62
4
 10
-3.43199487E+01
 20
-9.90131659E+01
  0
VERTEX
  8
0
 62
4
 10
-3.45509787E+01
 20
-9.91571320E+01
  0
VERTEX
  8
0
 62
4
 10
-3.47683018E+01
 20
-9.93202458E+01
  0
VERTEX
  8
0
 62
4
 10
-3.49702640E+01
 20
-9.95012659E+01
  0
VERTEX
  8
0
 62
4
 10
-3.51553283E+01
 20
-9.96988148E+01
  0
VERTEX
  8
0
 62
4
 10
-3.53220861E+01
 20
-9.99113888E+01
  0
VERTEX
  8
0
 62
4
 10
-3.54692685E+01
 20
-1.00137370E+02
  0
VERTEX
  8
0
 62
4
 10
-3.55957552E+01
 20
-1.00375039E+02
  0
VERTEX
  8
0
 62
4
 10
-3.57005835E+01
 20
-1.00622587E+02
  0
VERTEX
  8
0
 62
4
 10
-3.57829558E+01
 20
-1.00878129E+02
  0
VERTEX
  8
0
 62
4
 10
-3.58422450E+01
 20
-1.01139722E+02
  0
VERTEX
  8
0
 62
4
 10
-3.58780001E+01
 20
-1.01405373E+02
  0
VERTEX
  8
0
 62
4
 10
-3.58899487E+01
 20
-1.01673062E+02
  0
VERTEX
  8
0
 62
4
 10
-3.58780001E+01
 20
-1.01940751E+02
  0
VERTEX
  8
0
 62
4
 10
-3.58422450E+01
 20
-1.02206402E+02
  0
VERTEX
  8
0
 62
4
 10
-3.57829558E+01
 20
-1.02467995E+02
  0
VERTEX
  8
0
 62
4
 10
-3.57005835E+01
 20
-1.02723537E+02
  0
VERTEX
  8
0
 62
4
 10
-3.55957551E+01
 20
-1.02971085E+02
  0
VERTEX
  8
0
 62
4
 10
-3.54692685E+01
 20
-1.03208754E+02
  0
VERTEX
  8
0
 62
4
 10
-3.53220861E+01
 20
-1.03434735E+02
  0
VERTEX
  8
0
 62
4
 10
-3.51553282E+01
 20
-1.03647309E+02
  0
VERTEX
  8
0
 62
4
 10
-3.49702640E+01
 20
-1.03844858E+02
  0
VERTEX
  8
0
 62
4
 10
-3.47683018E+01
 20
-1.04025878E+02
  0
VERTEX
  8
0
 62
4
 10
-3.45509787E+01
 20
-1.04188992E+02
  0
VERTEX
  8
0
 62
4
 10
-3.43199487E+01
 20
-1.04332958E+02
  0
VERTEX
  8
0
 62
4
 10
-3.40769700E+01
 20
-1.04456681E+02
  0
VERTEX
  8
0
 62
4
 10
-3.38238919E+01
 20
-1.04559218E+02
  0
VERTEX
  8
0
 62
4
 10
-3.35626405E+01
 20
-1.04639791E+02
  0
VERTEX
  8
0
 62
4
 10
-3.32952040E+01
 20
-1.04697784E+02
  0
VERTEX
  8
0
 62
4
 10
-3.30236177E+01
 20
-1.04732758E+02
  0
VERTEX
  8
0
 62
4
 10
-3.27499487E+01
 20
-1.04744445E+02
  0
VERTEX
  8
0
 62
4
 10
-3.24762797E+01
 20
-1.04732758E+02
  0
VERTEX
  8
0
 62
4
 10
-3.22046934E+01
 20
-1.04697784E+02
  0
VERTEX
  8
0
 62
4
 10
-3.19372569E+01
 20
-1.04639791E+02
  0
VERTEX
  8
0
 62
4
 10
-3.16760054E+01
 20
-1.04559218E+02
  0
VERTEX
  8
0
 62
4
 10
-3.14229274E+01
 20
-1.04456681E+02
  0
VERTEX
  8
0
 62
4
 10
-3.11799487E+01
 20
-1.04332958E+02
  0
VERTEX
  8
0
 62
4
 10
-3.09489187E+01
 20
-1.04188992E+02
  0
VERTEX
  8
0
 62
4
 10
-3.07315956E+01
 20
-1.04025878E+02
  0
VERTEX
  8
0
 62
4
 10
-3.05296334E+01
 20
-1.03844858E+02
  0
VERTEX
  8
0
 62
4
 10
-3.03445691E+01
 20
-1.03647309E+02
  0
VERTEX
  8
0
 62
4
 10
-3.01778113E+01
 20
-1.03434735E+02
  0
VERTEX
  8
0
 62
4
 10
-3.00306289E+01
 20
-1.03208754E+02
  0
VERTEX
  8
0
 62
4
 10
-2.99041422E+01
 20
-1.02971085E+02
  0
VERTEX
  8
0
 62
4
 10
-2.97993139E+01
 20
-1.02723537E+02
  0
VERTEX
  8
0
 62
4
 10
-2.97169416E+01
 20
-1.02467995E+02
  0
VERTEX
  8
0
 62
4
 10
-2.96576524E+01
 20
-1.02206402E+02
  0
VERTEX
  8
0
 62
4
 10
-2.96218973E+01
 20
-1.01940751E+02
  0
VERTEX
  8
0
 62
4
 10
-2.96099487E+01
 20
-1.01673062E+02
  0
SEQEND
  8
0
  0
POLYLINE
  8
0
 62
4
 66
1
  0
VERTEX
  8
0
 62
4
 10
-2.92499487E+01
 20
-1.01880973E+02
  0
VERTEX
  8
0
 62
4
 10
-2.92632673E+01
 20
-1.01582594E+02
  0
VERTEX
  8
0
 62
4
 10
-2.93031216E+01
 20
-1.01286486E+02
  0
VERTEX
  8
0
 62
4
 10
-2.93692083E+01
 20
-1.00994902E+02
  0
VERTEX
  8
0
 62
4
 10
-2.94610245E+01
 20
-1.00710061E+02
  0
VERTEX
  8
0
 62
4
 10
-2.95778714E+01
 20
-1.00434132E+02
  0
VERTEX
  8
0
 62
4
 10
-2.97188598E+01
 20
-1.00169215E+02
  0
VERTEX
  8
0
 62
4
 10
-2.98829165E+01
 20
-9.99173245E+01
  0
VERTEX
  8
0
 62
4
 10
-3.00687931E+01
 20
-9.96803789E+01
  0
VERTEX
  8
0
 62
4
 10
-3.02750750E+01
 20
-9.94601812E+01
  0
VERTEX
  8
0
 62
4
 10
-3.05001921E+01
 20
-9.92584071E+01
  0
VERTEX
  8
0
 62
4
 10
-3.07424312E+01
 20
-9.90765924E+01
  0
VERTEX
  8
0
 62
4
 10
-3.09999487E+01
 20
-9.89161207E+01
  0
VERTEX
  8
0
 62
4
 10
-3.12707848E+01
 20
-9.87782132E+01
  0
VERTEX
  8
0
 62
4
 10
-3.15528782E+01
 20
-9.86639197E+01
  0
VERTEX
  8
0
 62
4
 10
-3.18440820E+01
 20
-9.85741099E+01
  0
VERTEX
  8
0
 62
4
 10
-3.21421801E+01
 20
-9.85094673E+01
  0
VERTEX
  8
0
 62
4
 10
-3.24449036E+01
 20
-9.84704839E+01
  0
VERTEX
  8
0
 62
4
 10
-3.27499487E+01
 20
-9.84574564E+01
  0
VERTEX
  8
0
 62
4
 10
-3.30549938E+01
 20
-9.84704839E+01
  0
VERTEX
  8
0
 62
4
 10
-3.33577173E+01
 20
-9.85094673E+01
  0
VERTEX
  8
0
 62
4
 10
-3.36558154E+01
 20
-9.85741099E+01
  0
VERTEX
  8
0
 62
4
 10
-3.39470192E+01
 20
-9.86639197E+01
  0
VERTEX
  8
0
 62
4
 10
-3.42291126E+01
 20
-9.87782132E+01
  0
VERTEX
  8
0
 62
4
 10
-3.44999487E+01
 20
-9.89161207E+01
  0
VERTEX
  8
0
 62
4
 10
-3.47574662E+01
 20
-9.90765924E+01
  0
VERTEX
  8
0
 62
4
 10
-3.49997053E+01
 20
-9.92584071E+01
  0
VERTEX
  8
0
 62
4
 10
-3.52248224E+01
 20
-9.94601812E+01
  0
VERTEX
  8
0
 62
4
 10
-3.54311043E+01
 20
-9.96803790E+01
  0
VERTEX
  8
0
 62
4
 10
-3.56169809E+01
 20
-9.99173246E+01
  0
VERTEX
  8
0
 62
4
 10
-3.57810376E+01
 20
-1.00169215E+02
  0
VERTEX
  8
0
 62
4
 10
-3.59220260E+01
 20
-1.00434132E+02
  0
VERTEX
  8
0
 62
4
 10
-3.60388729E+01
 20
-1.00710061E+02
  0
VERTEX
  8
0
 62
4
 10
-3.61306891E+01
 20
-1.00994902E+02
  0
VERTEX
  8
0
 62
4
 10
-3.61967758E+01
 20
-1.01286486E+02
  0
VERTEX
  8
0
 62
4
 10
-3.62366301E+01
 20
-1.01582594E+02
  0
VERTEX
  8
0
 62
4
 10
-3.62499487E+01
 20
-1.01880973E+02
  0
VERTEX
  8
0
 62
4
 10
-3.62366301E+01
 20
-1.02179352E+02
  0
VERTEX
  8
0
 62
4
 10
-3.61967758E+01
 20
-1.02475460E+02
  0
VERTEX
  8
0
 62
4
 10
-3.61306891E+01
 20
-1.02767044E+02
  0
VERTEX
  8
0
 62
4
 10
-3.60388729E+01
 20
-1.03051885E+02
  0
VERTEX
  8
0
 62
4
 10
-3.59220260E+01
 20
-1.03327814E+02
  0
VERTEX
  8
0
 62
4
 10
-3.57810376E+01
 20
-1.03592731E+02
  0
VERTEX
  8
0
 62
4
 10
-3.56169809E+01
 20
-1.03844621E+02
  0
VERTEX
  8
0
 62
4
 10
-3.54311042E+01
 20
-1.04081567E+02
  0
VERTEX
  8
0
 62
4
 10
-3.52248224E+01
 20
-1.04301765E+02
  0
VERTEX
  8
0
 62
4
 10
-3.49997053E+01
 20
-1.04503539E+02
  0
VERTEX
  8
0
 62
4
 10
-3.47574662E+01
 20
-1.04685354E+02
  0
VERTEX
  8
0
 62
4
 10
-3.44999487E+01
 20
-1.04845825E+02
  0
VERTEX
  8
0
 62
4
 10
-3.42291126E+01
 20
-1.04983733E+02
  0
VERTEX
  8
0
 62
4
 10
-3.39470192E+01
 20
-1.05098026E+02
  0
VERTEX
  8
0
 62
4
 10
-3.36558154E+01
 20
-1.05187836E+02
  0
VERTEX
  8
0
 62
4
 10
-3.33577173E+01
 20
-1.05252479E+02
  0
VERTEX
  8
0
 62
4
 10
-3.30549938E+01
 20
-1.05291462E+02
  0
VERTEX
  8
0
 62
4
 10
-3.27499487E+01
 20
-1.05304490E+02
  0
VERTEX
  8
0
 62
4
 10
-3.24449036E+01
 20
-1.05291462E+02
  0
VERTEX
  8
0
 62
4
 10
-3.21421801E+01
 20
-1.05252479E+02
  0
VERTEX
  8
0
 62
4
 10
-3.18440820E+01
 20
-1.05187836E+02
  0
VERTEX
  8
0
 62
4
 10
-3.15528782E+01
 20
-1.05098026E+02
  0
VERTEX
  8
0
 62
4
 10
-3.12707848E+01
 20
-1.04983733E+02
  0
VERTEX
  8
0
 62
4
 10
-3.09999487E+01
 20
-1.04845825E+02
  0
VERTEX
  8
0
 62
4
 10
-3.07424312E+01
 20
-1.04685354E+02
  0
VERTEX
  8
0
 62
4
 10
-3.05001921E+01
 20
-1.04503539E+02
  0
VERTEX
  8
0
 62
4
 10
-3.02750750E+01
 20
-1.04301765E+02
  0
VERTEX
  8
0
 62
4
 10
-3.00687931E+01
 20
-1.04081567E+02
  0
VERTEX
  8
0
 62
4
 10
-2.98829165E+01
 20
-1.03844621E+02
  0
VERTEX
  8
0
 62
4
 10
-2.97188598E+01
 20
-1.03592731E+02
  0
VERTEX
  8
0
 62
4
 10
-2.95778714E+01
 20
-1.03327814E+02
  0
VERTEX
  8
0
 62
4
 10
-2.94610245E+01
 20
-1.03051885E+02
  0
VERTEX
  8
0
 62
4
 10
-2.93692083E+01
 20
-1.02767044E+02
  0
VERTEX
  8
0
 62
4
 10
-2.93031216E+01
 20
-1.02475460E+02
  0
VERTEX
  8
0
 62
4
 10
-2.92632673E+01
 20
-1.02179352E+02
  0
VERTEX
  8
0
 62
4
 10
-2.92499487E+01
 20
-1.01880973E+02
  0
SEQEND
  8
0
  0
ARC
  8
0
 62
4
 10
-2.32494489E+01
 20
-1.15237920E+02
 40
1.49950029E+00
 50
2.69980903E+02
 51
1.90971113E-02
  0
LINE
  8
0
  6
CENTER
 62
6
 10
-3.27499487E+01
 20
-9.67237131E+01
 11
-3.27499487E+01
 21
-1.06622410E+02
  0
LINE
  8
0
  6
CENTER
 62
6
 10
-3.76992973E+01
 20
-1.01673062E+02
 11
-2.78006002E+01
 21
-1.01673062E+02
  0
LINE
  8
0
 62
4
 10
-2.17499487E+01
 20
-9.21088579E+01
 11
-2.17499487E+01
 21
-1.15237420E+02
  0
LINE
  8
0
 62
4
 10
-3.92499487E+01
 20
-9.17569247E+01
 11
-3.92499487E+01
 21
-1.11173376E+02
  0
ARC
  8
0
 62
4
 10
-2.32504525E+01
 20
-9.21088579E+01
 40
1.50050386E+00
 50
1.92364101E-02
 51
8.99807637E+01
  0
ARC
  8
0
 62
4
 10
-2.32494489E+01
 20
-1.12119245E+02
 40
1.49950029E+00
 50
2.69980903E+02
 51
1.90971113E-02
  0
LINE
  8
0
 62
4
 10
2.50925796E+02
 20
-2.12740352E+02
 11
2.53925796E+02
 21
-2.09451497E+02
  0
LINE
  8
0
 62
4
 10
2.17925796E+02
 20
-2.12740352E+02
 11
2.14925796E+02
 21
-2.09451497E+02
  0
LINE
  8
0
 62
4
 10
2.34425796E+02
 20
-2.12740352E+02
 11
2.17925796E+02
 21
-2.12740352E+02
  0
LINE
  8
0
 62
4
 10
2.50925796E+02
 20
-2.12740352E+02
 11
2.49425796E+02
 21
-2.12740352E+02
  0
POLYLINE
  8
0
 62
6
 66
1
  0
VERTEX
  8
0
 62
6
 10
2.47425796E+02
 20
-2.20935988E+02
  0
VERTEX
  8
0
 62
6
 10
2.47420088E+02
 20
-2.20808111E+02
  0
VERTEX
  8
0
 62
6
 10
2.47403008E+02
 20
-2.20681208E+02
  0
VERTEX
  8
0
 62
6
 10
2.47374685E+02
 20
-2.20556243E+02
  0
VERTEX
  8
0
 62
6
 10
2.47335335E+02
 20
-2.20434169E+02
  0
VERTEX
  8
0
 62
6
 10
2.47285258E+02
 20
-2.20315913E+02
  0
VERTEX
  8
0
 62
6
 10
2.47224834E+02
 20
-2.20202377E+02
  0
VERTEX
  8
0
 62
6
 10
2.47154524E+02
 20
-2.20094424E+02
  0
VERTEX
  8
0
 62
6
 10
2.47074863E+02
 20
-2.19992876E+02
  0
VERTEX
  8
0
 62
6
 10
2.46986456E+02
 20
-2.19898506E+02
  0
VERTEX
  8
0
 62
6
 10
2.46889977E+02
 20
-2.19812031E+02
  0
VERTEX
  8
0
 62
6
 10
2.46786161E+02
 20
-2.19734111E+02
  0
VERTEX
  8
0
 62
6
 10
2.46675796E+02
 20
-2.19665337E+02
  0
VERTEX
  8
0
 62
6
 10
2.46559723E+02
 20
-2.19606234E+02
  0
VERTEX
  8
0
 62
6
 10
2.46438826E+02
 20
-2.19557251E+02
  0
VERTEX
  8
0
 62
6
 10
2.46314025E+02
 20
-2.19518761E+02
  0
VERTEX
  8
0
 62
6
 10
2.46186268E+02
 20
-2.19491057E+02
  0
VERTEX
  8
0
 62
6
 10
2.46056530E+02
 20
-2.19474350E+02
  0
VERTEX
  8
0
 62
6
 10
2.45925796E+02
 20
-2.19468767E+02
  0
VERTEX
  8
0
 62
6
 10
2.45795062E+02
 20
-2.19474350E+02
  0
VERTEX
  8
0
 62
6
 10
2.45665324E+02
 20
-2.19491057E+02
  0
VERTEX
  8
0
 62
6
 10
2.45537567E+02
 20
-2.19518761E+02
  0
VERTEX
  8
0
 62
6
 10
2.45412766E+02
 20
-2.19557251E+02
  0
VERTEX
  8
0
 62
6
 10
2.45291869E+02
 20
-2.19606234E+02
  0
VERTEX
  8
0
 62
6
 10
2.45175796E+02
 20
-2.19665337E+02
  0
VERTEX
  8
0
 62
6
 10
2.45065431E+02
 20
-2.19734111E+02
  0
VERTEX
  8
0
 62
6
 10
2.44961615E+02
 20
-2.19812031E+02
  0
VERTEX
  8
0
 62
6
 10
2.44865136E+02
 20
-2.19898506E+02
  0
VERTEX
  8
0
 62
6
 10
2.44776729E+02
 20
-2.19992876E+02
  0
VERTEX
  8
0
 62
6
 10
2.44697068E+02
 20
-2.20094424E+02
  0
VERTEX
  8
0
 62
6
 10
2.44626758E+02
 20
-2.20202377E+02
  0
VERTEX
  8
0
 62
6
 10
2.44566334E+02
 20
-2.20315913E+02
  0
VERTEX
  8
0
 62
6
 10
2.44516257E+02
 20
-2.20434169E+02
  0
VERTEX
  8
0
 62
6
 10
2.44476907E+02
 20
-2.20556243E+02
  0
VERTEX
  8
0
 62
6
 10
2.44448584E+02
 20
-2.20681208E+02
  0
VERTEX
  8
0
 62
6
 10
2.44431504E+02
 20
-2.20808111E+02
  0
VERTEX
  8
0
 62
6
 10
2.44425796E+02
 20
-2.20935988E+02
  0
VERTEX
  8
0
 62
6
 10
2.44431504E+02
 20
-2.21063865E+02
  0
VERTEX
  8
0
 62
6
 10
2.44448584E+02
 20
-2.21190768E+02
  0
VERTEX
  8
0
 62
6
 10
2.44476907E+02
 20
-2.21315733E+02
  0
VERTEX
  8
0
 62
6
 10
2.44516257E+02
 20
-2.21437807E+02
  0
VERTEX
  8
0
 62
6
 10
2.44566334E+02
 20
-2.21556063E+02
  0
VERTEX
  8
0
 62
6
 10
2.44626758E+02
 20
-2.21669599E+02
  0
VERTEX
  8
0
 62
6
 10
2.44697068E+02
 20
-2.21777552E+02
  0
VERTEX
  8
0
 62
6
 10
2.44776729E+02
 20
-2.21879100E+02
  0
VERTEX
  8
0
 62
6
 10
2.44865136E+02
 20
-2.21973470E+02
  0
VERTEX
  8
0
 62
6
 10
2.44961615E+02
 20
-2.22059945E+02
  0
VERTEX
  8
0
 62
6
 10
2.45065431E+02
 20
-2.22137865E+02
  0
VERTEX
  8
0
 62
6
 10
2.45175796E+02
 20
-2.22206639E+02
  0
VERTEX
  8
0
 62
6
 10
2.45291869E+02
 20
-2.22265742E+02
  0
VERTEX
  8
0
 62
6
 10
2.45412766E+02
 20
-2.22314725E+02
  0
VERTEX
  8
0
 62
6
 10
2.45537567E+02
 20
-2.22353215E+02
  0
VERTEX
  8
0
 62
6
 10
2.45665324E+02
 20
-2.22380919E+02
  0
VERTEX
  8
0
 62
6
 10
2.45795062E+02
 20
-2.22397626E+02
  0
VERTEX
  8
0
 62
6
 10
2.45925796E+02
 20
-2.22403209E+02
  0
VERTEX
  8
0
 62
6
 10
2.46056530E+02
 20
-2.22397626E+02
  0
VERTEX
  8
0
 62
6
 10
2.46186268E+02
 20
-2.22380919E+02
  0
VERTEX
  8
0
 62
6
 10
2.46314025E+02
 20
-2.22353215E+02
  0
VERTEX
  8
0
 62
6
 10
2.46438826E+02
 20
-2.22314725E+02
  0
VERTEX
  8
0
 62
6
 10
2.46559723E+02
 20
-2.22265742E+02
  0
VERTEX
  8
0
 62
6
 10
2.46675796E+02
 20
-2.22206639E+02
  0
VERTEX
  8
0
 62
6
 10
2.46786161E+02
 20
-2.22137865E+02
  0
VERTEX
  8
0
 62
6
 10
2.46889977E+02
 20
-2.22059945E+02
  0
VERTEX
  8
0
 62
6
 10
2.46986456E+02
 20
-2.21973470E+02
  0
VERTEX
  8
0
 62
6
 10
2.47074863E+02
 20
-2.21879100E+02
  0
VERTEX
  8
0
 62
6
 10
2.47154524E+02
 20
-2.21777552E+02
  0
VERTEX
  8
0
 62
6
 10
2.47224834E+02
 20
-2.21669599E+02
  0
VERTEX
  8
0
 62
6
 10
2.47285258E+02
 20
-2.21556063E+02
  0
VERTEX
  8
0
 62
6
 10
2.47335335E+02
 20
-2.21437807E+02
  0
VERTEX
  8
0
 62
6
 10
2.47374685E+02
 20
-2.21315733E+02
  0
VERTEX
  8
0
 62
6
 10
2.47403008E+02
 20
-2.21190768E+02
  0
VERTEX
  8
0
 62
6
 10
2.47420088E+02
 20
-2.21063865E+02
  0
VERTEX
  8
0
 62
6
 10
2.47425796E+02
 20
-2.20935988E+02
  0
SEQEND
  8
0
  0
POLYLINE
  8
0
 62
4
 66
1
  0
VERTEX
  8
0
 62
4
 10
2.47660796E+02
 20
-2.20940878E+02
  0
VERTEX
  8
0
 62
4
 10
2.47654194E+02
 20
-2.20792967E+02
  0
VERTEX
  8
0
 62
4
 10
2.47634437E+02
 20
-2.20646182E+02
  0
VERTEX
  8
0
 62
4
 10
2.47601677E+02
 20
-2.20501640E+02
  0
VERTEX
  8
0
 62
4
 10
2.47556163E+02
 20
-2.20360440E+02
  0
VERTEX
  8
0
 62
4
 10
2.47498240E+02
 20
-2.20223658E+02
  0
VERTEX
  8
0
 62
4
 10
2.47428350E+02
 20
-2.20092335E+02
  0
VERTEX
  8
0
 62
4
 10
2.47347025E+02
 20
-2.19967469E+02
  0
VERTEX
  8
0
 62
4
 10
2.47254883E+02
 20
-2.19850012E+02
  0
VERTEX
  8
0
 62
4
 10
2.47152626E+02
 20
-2.19740857E+02
  0
VERTEX
  8
0
 62
4
 10
2.47041033E+02
 20
-2.19640835E+02
  0
VERTEX
  8
0
 62
4
 10
2.46920951E+02
 20
-2.19550706E+02
  0
VERTEX
  8
0
 62
4
 10
2.46793296E+02
 20
-2.19471158E+02
  0
VERTEX
  8
0
 62
4
 10
2.46659039E+02
 20
-2.19402796E+02
  0
VERTEX
  8
0
 62
4
 10
2.46519201E+02
 20
-2.19346139E+02
  0
VERTEX
  8
0
 62
4
 10
2.46374847E+02
 20
-2.19301619E+02
  0
VERTEX
  8
0
 62
4
 10
2.46227076E+02
 20
-2.19269574E+02
  0
VERTEX
  8
0
 62
4
 10
2.46077011E+02
 20
-2.19250250E+02
  0
VERTEX
  8
0
 62
4
 10
2.45925796E+02
 20
-2.19243792E+02
  0
VERTEX
  8
0
 62
4
 10
2.45774581E+02
 20
-2.19250250E+02
  0
VERTEX
  8
0
 62
4
 10
2.45624516E+02
 20
-2.19269574E+02
  0
VERTEX
  8
0
 62
4
 10
2.45476745E+02
 20
-2.19301619E+02
  0
VERTEX
  8
0
 62
4
 10
2.45332391E+02
 20
-2.19346139E+02
  0
VERTEX
  8
0
 62
4
 10
2.45192553E+02
 20
-2.19402796E+02
  0
VERTEX
  8
0
 62
4
 10
2.45058296E+02
 20
-2.19471158E+02
  0
VERTEX
  8
0
 62
4
 10
2.44930641E+02
 20
-2.19550706E+02
  0
VERTEX
  8
0
 62
4
 10
2.44810559E+02
 20
-2.19640835E+02
  0
VERTEX
  8
0
 62
4
 10
2.44698966E+02
 20
-2.19740857E+02
  0
VERTEX
  8
0
 62
4
 10
2.44596709E+02
 20
-2.19850012E+02
  0
VERTEX
  8
0
 62
4
 10
2.44504567E+02
 20
-2.19967469E+02
  0
VERTEX
  8
0
 62
4
 10
2.44423242E+02
 20
-2.20092335E+02
  0
VERTEX
  8
0
 62
4
 10
2.44353352E+02
 20
-2.20223658E+02
  0
VERTEX
  8
0
 62
4
 10
2.44295429E+02
 20
-2.20360440E+02
  0
VERTEX
  8
0
 62
4
 10
2.44249915E+02
 20
-2.20501640E+02
  0
VERTEX
  8
0
 62
4
 10
2.44217155E+02
 20
-2.20646182E+02
  0
VERTEX
  8
0
 62
4
 10
2.44197398E+02
 20
-2.20792967E+02
  0
VERTEX
  8
0
 62
4
 10
2.44190796E+02
 20
-2.20940878E+02
  0
VERTEX
  8
0
 62
4
 10
2.44197398E+02
 20
-2.21088789E+02
  0
VERTEX
  8
0
 62
4
 10
2.44217155E+02
 20
-2.21235574E+02
  0
VERTEX
  8
0
 62
4
 10
2.44249915E+02
 20
-2.21380116E+02
  0
VERTEX
  8
0
 62
4
 10
2.44295429E+02
 20
-2.21521316E+02
  0
VERTEX
  8
0
 62
4
 10
2.44353352E+02
 20
-2.21658098E+02
  0
VERTEX
  8
0
 62
4
 10
2.44423242E+02
 20
-2.21789421E+02
  0
VERTEX
  8
0
 62
4
 10
2.44504567E+02
 20
-2.21914287E+02
  0
VERTEX
  8
0
 62
4
 10
2.44596709E+02
 20
-2.22031744E+02
  0
VERTEX
  8
0
 62
4
 10
2.44698966E+02
 20
-2.22140899E+02
  0
VERTEX
  8
0
 62
4
 10
2.44810559E+02
 20
-2.22240921E+02
  0
VERTEX
  8
0
 62
4
 10
2.44930641E+02
 20
-2.22331050E+02
  0
VERTEX
  8
0
 62
4
 10
2.45058296E+02
 20
-2.22410598E+02
  0
VERTEX
  8
0
 62
4
 10
2.45192553E+02
 20
-2.22478960E+02
  0
VERTEX
  8
0
 62
4
 10
2.45332391E+02
 20
-2.22535617E+02
  0
VERTEX
  8
0
 62
4
 10
2.45476745E+02
 20
-2.22580137E+02
  0
VERTEX
  8
0
 62
4
 10
2.45624516E+02
 20
-2.22612182E+02
  0
VERTEX
  8
0
 62
4
 10
2.45774581E+02
 20
-2.22631506E+02
  0
VERTEX
  8
0
 62
4
 10
2.45925796E+02
 20
-2.22637964E+02
  0
VERTEX
  8
0
 62
4
 10
2.46077011E+02
 20
-2.22631506E+02
  0
VERTEX
  8
0
 62
4
 10
2.46227076E+02
 20
-2.22612182E+02
  0
VERTEX
  8
0
 62
4
 10
2.46374847E+02
 20
-2.22580137E+02
  0
VERTEX
  8
0
 62
4
 10
2.46519201E+02
 20
-2.22535617E+02
  0
VERTEX
  8
0
 62
4
 10
2.46659039E+02
 20
-2.22478960E+02
  0
VERTEX
  8
0
 62
4
 10
2.46793296E+02
 20
-2.22410598E+02
  0
VERTEX
  8
0
 62
4
 10
2.46920951E+02
 20
-2.22331050E+02
  0
VERTEX
  8
0
 62
4
 10
2.47041033E+02
 20
-2.22240921E+02
  0
VERTEX
  8
0
 62
4
 10
2.47152626E+02
 20
-2.22140899E+02
  0
VERTEX
  8
0
 62
4
 10
2.47254883E+02
 20
-2.22031744E+02
  0
VERTEX
  8
0
 62
4
 10
2.47347025E+02
 20
-2.21914287E+02
  0
VERTEX
  8
0
 62
4
 10
2.47428350E+02
 20
-2.21789421E+02
  0
VERTEX
  8
0
 62
4
 10
2.47498240E+02
 20
-2.21658098E+02
  0
VERTEX
  8
0
 62
4
 10
2.47556163E+02
 20
-2.21521316E+02
  0
VERTEX
  8
0
 62
4
 10
2.47601677E+02
 20
-2.21380116E+02
  0
VERTEX
  8
0
 62
4
 10
2.47634437E+02
 20
-2.21235574E+02
  0
VERTEX
  8
0
 62
4
 10
2.47654194E+02
 20
-2.21088789E+02
  0
VERTEX
  8
0
 62
4
 10
2.47660796E+02
 20
-2.20940878E+02
  0
SEQEND
  8
0
  0
POLYLINE
  8
0
 62
4
 66
1
  0
VERTEX
  8
0
 62
4
 10
2.45925796E+02
 20
-2.22684371E+02
  0
VERTEX
  8
0
 62
4
 10
2.46100107E+02
 20
-2.22676488E+02
  0
VERTEX
  8
0
 62
4
 10
2.46273092E+02
 20
-2.22652897E+02
  0
VERTEX
  8
0
 62
4
 10
2.46443434E+02
 20
-2.22613779E+02
  0
VERTEX
  8
0
 62
4
 10
2.46609836E+02
 20
-2.22559431E+02
  0
VERTEX
  8
0
 62
4
 10
2.46771033E+02
 20
-2.22490267E+02
  0
VERTEX
  8
0
 62
4
 10
2.46925796E+02
 20
-2.22406814E+02
  0
VERTEX
  8
0
 62
4
 10
2.47072949E+02
 20
-2.22309705E+02
  0
VERTEX
  8
0
 62
4
 10
2.47211371E+02
 20
-2.22199681E+02
  0
VERTEX
  8
0
 62
4
 10
2.47340010E+02
 20
-2.22077579E+02
  0
VERTEX
  8
0
 62
4
 10
2.47457885E+02
 20
-2.21944328E+02
  0
VERTEX
  8
0
 62
4
 10
2.47564100E+02
 20
-2.21800942E+02
  0
VERTEX
  8
0
 62
4
 10
2.47657847E+02
 20
-2.21648512E+02
  0
VERTEX
  8
0
 62
4
 10
2.47738412E+02
 20
-2.21488199E+02
  0
VERTEX
  8
0
 62
4
 10
2.47805181E+02
 20
-2.21321222E+02
  0
VERTEX
  8
0
 62
4
 10
2.47857648E+02
 20
-2.21148853E+02
  0
VERTEX
  8
0
 62
4
 10
2.47895412E+02
 20
-2.20972403E+02
  0
VERTEX
  8
0
 62
4
 10
2.47918185E+02
 20
-2.20793215E+02
  0
VERTEX
  8
0
 62
4
 10
2.47925796E+02
 20
-2.20612653E+02
  0
VERTEX
  8
0
 62
4
 10
2.47918185E+02
 20
-2.20432091E+02
  0
VERTEX
  8
0
 62
4
 10
2.47895412E+02
 20
-2.20252903E+02
  0
VERTEX
  8
0
 62
4
 10
2.47857648E+02
 20
-2.20076453E+02
  0
VERTEX
  8
0
 62
4
 10
2.47805181E+02
 20
-2.19904084E+02
  0
VERTEX
  8
0
 62
4
 10
2.47738412E+02
 20
-2.19737107E+02
  0
VERTEX
  8
0
 62
4
 10
2.47657847E+02
 20
-2.19576794E+02
  0
VERTEX
  8
0
 62
4
 10
2.47564100E+02
 20
-2.19424364E+02
  0
VERTEX
  8
0
 62
4
 10
2.47457885E+02
 20
-2.19280978E+02
  0
VERTEX
  8
0
 62
4
 10
2.47340010E+02
 20
-2.19147727E+02
  0
VERTEX
  8
0
 62
4
 10
2.47211371E+02
 20
-2.19025625E+02
  0
VERTEX
  8
0
 62
4
 10
2.47072949E+02
 20
-2.18915601E+02
  0
VERTEX
  8
0
 62
4
 10
2.46925796E+02
 20
-2.18818492E+02
  0
VERTEX
  8
0
 62
4
 10
2.46771033E+02
 20
-2.18735039E+02
  0
VERTEX
  8
0
 62
4
 10
2.46609836E+02
 20
-2.18665875E+02
  0
VERTEX
  8
0
 62
4
 10
2.46443434E+02
 20
-2.18611527E+02
  0
VERTEX
  8
0
 62
4
 10
2.46273092E+02
 20
-2.18572409E+02
  0
VERTEX
  8
0
 62
4
 10
2.46100107E+02
 20
-2.18548818E+02
  0
VERTEX
  8
0
 62
4
 10
2.45925796E+02
 20
-2.18540935E+02
  0
VERTEX
  8
0
 62
4
 10
2.45751485E+02
 20
-2.18548818E+02
  0
VERTEX
  8
0
 62
4
 10
2.45578500E+02
 20
-2.18572409E+02
  0
VERTEX
  8
0
 62
4
 10
2.45408158E+02
 20
-2.18611527E+02
  0
VERTEX
  8
0
 62
4
 10
2.45241756E+02
 20
-2.18665875E+02
  0
VERTEX
  8
0
 62
4
 10
2.45080559E+02
 20
-2.18735039E+02
  0
VERTEX
  8
0
 62
4
 10
2.44925796E+02
 20
-2.18818492E+02
  0
VERTEX
  8
0
 62
4
 10
2.44778643E+02
 20
-2.18915601E+02
  0
VERTEX
  8
0
 62
4
 10
2.44640221E+02
 20
-2.19025625E+02
  0
VERTEX
  8
0
 62
4
 10
2.44511582E+02
 20
-2.19147727E+02
  0
VERTEX
  8
0
 62
4
 10
2.44393707E+02
 20
-2.19280978E+02
  0
VERTEX
  8
0
 62
4
 10
2.44287492E+02
 20
-2.19424364E+02
  0
VERTEX
  8
0
 62
4
 10
2.44193745E+02
 20
-2.19576794E+02
  0
VERTEX
  8
0
 62
4
 10
2.44113180E+02
 20
-2.19737107E+02
  0
VERTEX
  8
0
 62
4
 10
2.44046411E+02
 20
-2.19904084E+02
  0
VERTEX
  8
0
 62
4
 10
2.43993944E+02
 20
-2.20076453E+02
  0
VERTEX
  8
0
 62
4
 10
2.43956180E+02
 20
-2.20252903E+02
  0
VERTEX
  8
0
 62
4
 10
2.43933407E+02
 20
-2.20432091E+02
  0
VERTEX
  8
0
 62
4
 10
2.43925796E+02
 20
-2.20612653E+02
  0
VERTEX
  8
0
 62
4
 10
2.43933407E+02
 20
-2.20793215E+02
  0
VERTEX
  8
0
 62
4
 10
2.43956180E+02
 20
-2.20972403E+02
  0
VERTEX
  8
0
 62
4
 10
2.43993944E+02
 20
-2.21148853E+02
  0
VERTEX
  8
0
 62
4
 10
2.44046411E+02
 20
-2.21321222E+02
  0
VERTEX
  8
0
 62
4
 10
2.44113180E+02
 20
-2.21488199E+02
  0
VERTEX
  8
0
 62
4
 10
2.44193745E+02
 20
-2.21648512E+02
  0
VERTEX
  8
0
 62
4
 10
2.44287492E+02
 20
-2.21800942E+02
  0
VERTEX
  8
0
 62
4
 10
2.44393707E+02
 20
-2.21944328E+02
  0
VERTEX
  8
0
 62
4
 10
2.44511582E+02
 20
-2.22077579E+02
  0
VERTEX
  8
0
 62
4
 10
2.44640221E+02
 20
-2.22199681E+02
  0
VERTEX
  8
0
 62
4
 10
2.44778643E+02
 20
-2.22309705E+02
  0
VERTEX
  8
0
 62
4
 10
2.44925796E+02
 20
-2.22406814E+02
  0
VERTEX
  8
0
 62
4
 10
2.45080559E+02
 20
-2.22490267E+02
  0
VERTEX
  8
0
 62
4
 10
2.45241756E+02
 20
-2.22559431E+02
  0
VERTEX
  8
0
 62
4
 10
2.45408158E+02
 20
-2.22613779E+02
  0
VERTEX
  8
0
 62
4
 10
2.45578500E+02
 20
-2.22652897E+02
  0
VERTEX
  8
0
 62
4
 10
2.45751485E+02
 20
-2.22676488E+02
  0
VERTEX
  8
0
 62
4
 10
2.45925796E+02
 20
-2.22684371E+02
  0
SEQEND
  8
0
  0
LINE
  8
0
  6
CENTER
 62
6
 10
2.45925796E+02
 20
-2.18013720E+02
 11
2.45925796E+02
 21
-2.23858255E+02
  0
LINE
  8
0
  6
CENTER
 62
6
 10
2.35003528E+02
 20
-2.20935988E+02
 11
2.48848064E+02
 21
-2.20935988E+02
  0
POLYLINE
  8
0
 62
6
 66
1
  0
VERTEX
  8
0
 62
6
 10
2.39425796E+02
 20
-2.20935988E+02
  0
VERTEX
  8
0
 62
6
 10
2.39420088E+02
 20
-2.20808111E+02
  0
VERTEX
  8
0
 62
6
 10
2.39403008E+02
 20
-2.20681208E+02
  0
VERTEX
  8
0
 62
6
 10
2.39374685E+02
 20
-2.20556243E+02
  0
VERTEX
  8
0
 62
6
 10
2.39335335E+02
 20
-2.20434169E+02
  0
VERTEX
  8
0
 62
6
 10
2.39285258E+02
 20
-2.20315913E+02
  0
VERTEX
  8
0
 62
6
 10
2.39224834E+02
 20
-2.20202377E+02
  0
VERTEX
  8
0
 62
6
 10
2.39154524E+02
 20
-2.20094424E+02
  0
VERTEX
  8
0
 62
6
 10
2.39074863E+02
 20
-2.19992876E+02
  0
VERTEX
  8
0
 62
6
 10
2.38986456E+02
 20
-2.19898506E+02
  0
VERTEX
  8
0
 62
6
 10
2.38889977E+02
 20
-2.19812031E+02
  0
VERTEX
  8
0
 62
6
 10
2.38786161E+02
 20
-2.19734111E+02
  0
VERTEX
  8
0
 62
6
 10
2.38675796E+02
 20
-2.19665337E+02
  0
VERTEX
  8
0
 62
6
 10
2.38559723E+02
 20
-2.19606234E+02
  0
VERTEX
  8
0
 62
6
 10
2.38438826E+02
 20
-2.19557251E+02
  0
VERTEX
  8
0
 62
6
 10
2.38314025E+02
 20
-2.19518761E+02
  0
VERTEX
  8
0
 62
6
 10
2.38186268E+02
 20
-2.19491057E+02
  0
VERTEX
  8
0
 62
6
 10
2.38056530E+02
 20
-2.19474350E+02
  0
VERTEX
  8
0
 62
6
 10
2.37925796E+02
 20
-2.19468767E+02
  0
VERTEX
  8
0
 62
6
 10
2.37795062E+02
 20
-2.19474350E+02
  0
VERTEX
  8
0
 62
6
 10
2.37665324E+02
 20
-2.19491057E+02
  0
VERTEX
  8
0
 62
6
 10
2.37537567E+02
 20
-2.19518761E+02
  0
VERTEX
  8
0
 62
6
 10
2.37412766E+02
 20
-2.19557251E+02
  0
VERTEX
  8
0
 62
6
 10
2.37291869E+02
 20
-2.19606234E+02
  0
VERTEX
  8
0
 62
6
 10
2.37175796E+02
 20
-2.19665337E+02
  0
VERTEX
  8
0
 62
6
 10
2.37065431E+02
 20
-2.19734111E+02
  0
VERTEX
  8
0
 62
6
 10
2.36961615E+02
 20
-2.19812031E+02
  0
VERTEX
  8
0
 62
6
 10
2.36865136E+02
 20
-2.19898506E+02
  0
VERTEX
  8
0
 62
6
 10
2.36776729E+02
 20
-2.19992876E+02
  0
VERTEX
  8
0
 62
6
 10
2.36697068E+02
 20
-2.20094424E+02
  0
VERTEX
  8
0
 62
6
 10
2.36626758E+02
 20
-2.20202377E+02
  0
VERTEX
  8
0
 62
6
 10
2.36566334E+02
 20
-2.20315913E+02
  0
VERTEX
  8
0
 62
6
 10
2.36516257E+02
 20
-2.20434169E+02
  0
VERTEX
  8
0
 62
6
 10
2.36476907E+02
 20
-2.20556243E+02
  0
VERTEX
  8
0
 62
6
 10
2.36448584E+02
 20
-2.20681208E+02
  0
VERTEX
  8
0
 62
6
 10
2.36431504E+02
 20
-2.20808111E+02
  0
VERTEX
  8
0
 62
6
 10
2.36425796E+02
 20
-2.20935988E+02
  0
VERTEX
  8
0
 62
6
 10
2.36431504E+02
 20
-2.21063865E+02
  0
VERTEX
  8
0
 62
6
 10
2.36448584E+02
 20
-2.21190768E+02
  0
VERTEX
  8
0
 62
6
 10
2.36476907E+02
 20
-2.21315733E+02
  0
VERTEX
  8
0
 62
6
 10
2.36516257E+02
 20
-2.21437807E+02
  0
VERTEX
  8
0
 62
6
 10
2.36566334E+02
 20
-2.21556063E+02
  0
VERTEX
  8
0
 62
6
 10
2.36626758E+02
 20
-2.21669599E+02
  0
VERTEX
  8
0
 62
6
 10
2.36697068E+02
 20
-2.21777552E+02
  0
VERTEX
  8
0
 62
6
 10
2.36776729E+02
 20
-2.21879100E+02
  0
VERTEX
  8
0
 62
6
 10
2.36865136E+02
 20
-2.21973470E+02
  0
VERTEX
  8
0
 62
6
 10
2.36961615E+02
 20
-2.22059945E+02
  0
VERTEX
  8
0
 62
6
 10
2.37065431E+02
 20
-2.22137865E+02
  0
VERTEX
  8
0
 62
6
 10
2.37175796E+02
 20
-2.22206639E+02
  0
VERTEX
  8
0
 62
6
 10
2.37291869E+02
 20
-2.22265742E+02
  0
VERTEX
  8
0
 62
6
 10
2.37412766E+02
 20
-2.22314725E+02
  0
VERTEX
  8
0
 62
6
 10
2.37537567E+02
 20
-2.22353215E+02
  0
VERTEX
  8
0
 62
6
 10
2.37665324E+02
 20
-2.22380919E+02
  0
VERTEX
  8
0
 62
6
 10
2.37795062E+02
 20
-2.22397626E+02
  0
VERTEX
  8
0
 62
6
 10
2.37925796E+02
 20
-2.22403209E+02
  0
VERTEX
  8
0
 62
6
 10
2.38056530E+02
 20
-2.22397626E+02
  0
VERTEX
  8
0
 62
6
 10
2.38186268E+02
 20
-2.22380919E+02
  0
VERTEX
  8
0
 62
6
 10
2.38314025E+02
 20
-2.22353215E+02
  0
VERTEX
  8
0
 62
6
 10
2.38438826E+02
 20
-2.22314725E+02
  0
VERTEX
  8
0
 62
6
 10
2.38559723E+02
 20
-2.22265742E+02
  0
VERTEX
  8
0
 62
6
 10
2.38675796E+02
 20
-2.22206639E+02
  0
VERTEX
  8
0
 62
6
 10
2.38786161E+02
 20
-2.22137865E+02
  0
VERTEX
  8
0
 62
6
 10
2.38889977E+02
 20
-2.22059945E+02
  0
VERTEX
  8
0
 62
6
 10
2.38986456E+02
 20
-2.21973470E+02
  0
VERTEX
  8
0
 62
6
 10
2.39074863E+02
 20
-2.21879100E+02
  0
VERTEX
  8
0
 62
6
 10
2.39154524E+02
 20
-2.21777552E+02
  0
VERTEX
  8
0
 62
6
 10
2.39224834E+02
 20
-2.21669599E+02
  0
VERTEX
  8
0
 62
6
 10
2.39285258E+02
 20
-2.21556063E+02
  0
VERTEX
  8
0
 62
6
 10
2.39335335E+02
 20
-2.21437807E+02
  0
VERTEX
  8
0
 62
6
 10
2.39374685E+02
 20
-2.21315733E+02
  0
VERTEX
  8
0
 62
6
 10
2.39403008E+02
 20
-2.21190768E+02
  0
VERTEX
  8
0
 62
6
 10
2.39420088E+02
 20
-2.21063865E+02
  0
VERTEX
  8
0
 62
6
 10
2.39425796E+02
 20
-2.20935988E+02
  0
SEQEND
  8
0
  0
POLYLINE
  8
0
 62
4
 66
1
  0
VERTEX
  8
0
 62
4
 10
2.39660796E+02
 20
-2.20940878E+02
  0
VERTEX
  8
0
 62
4
 10
2.39654194E+02
 20
-2.20792967E+02
  0
VERTEX
  8
0
 62
4
 10
2.39634437E+02
 20
-2.20646182E+02
  0
VERTEX
  8
0
 62
4
 10
2.39601677E+02
 20
-2.20501640E+02
  0
VERTEX
  8
0
 62
4
 10
2.39556163E+02
 20
-2.20360440E+02
  0
VERTEX
  8
0
 62
4
 10
2.39498240E+02
 20
-2.20223658E+02
  0
VERTEX
  8
0
 62
4
 10
2.39428350E+02
 20
-2.20092335E+02
  0
VERTEX
  8
0
 62
4
 10
2.39347025E+02
 20
-2.19967469E+02
  0
VERTEX
  8
0
 62
4
 10
2.39254883E+02
 20
-2.19850012E+02
  0
VERTEX
  8
0
 62
4
 10
2.39152626E+02
 20
-2.19740857E+02
  0
VERTEX
  8
0
 62
4
 10
2.39041033E+02
 20
-2.19640835E+02
  0
VERTEX
  8
0
 62
4
 10
2.38920951E+02
 20
-2.19550706E+02
  0
VERTEX
  8
0
 62
4
 10
2.38793296E+02
 20
-2.19471158E+02
  0
VERTEX
  8
0
 62
4
 10
2.38659039E+02
 20
-2.19402796E+02
  0
VERTEX
  8
0
 62
4
 10
2.38519201E+02
 20
-2.19346139E+02
  0
VERTEX
  8
0
 62
4
 10
2.38374847E+02
 20
-2.19301619E+02
  0
VERTEX
  8
0
 62
4
 10
2.38227076E+02
 20
-2.19269574E+02
  0
VERTEX
  8
0
 62
4
 10
2.38077011E+02
 20
-2.19250250E+02
  0
VERTEX
  8
0
 62
4
 10
2.37925796E+02
 20
-2.19243792E+02
  0
VERTEX
  8
0
 62
4
 10
2.37774581E+02
 20
-2.19250250E+02
  0
VERTEX
  8
0
 62
4
 10
2.37624516E+02
 20
-2.19269574E+02
  0
VERTEX
  8
0
 62
4
 10
2.37476745E+02
 20
-2.19301619E+02
  0
VERTEX
  8
0
 62
4
 10
2.37332391E+02
 20
-2.19346139E+02
  0
VERTEX
  8
0
 62
4
 10
2.37192553E+02
 20
-2.19402796E+02
  0
VERTEX
  8
0
 62
4
 10
2.37058296E+02
 20
-2.19471158E+02
  0
VERTEX
  8
0
 62
4
 10
2.36930641E+02
 20
-2.19550706E+02
  0
VERTEX
  8
0
 62
4
 10
2.36810559E+02
 20
-2.19640835E+02
  0
VERTEX
  8
0
 62
4
 10
2.36698966E+02
 20
-2.19740857E+02
  0
VERTEX
  8
0
 62
4
 10
2.36596709E+02
 20
-2.19850012E+02
  0
VERTEX
  8
0
 62
4
 10
2.36504567E+02
 20
-2.19967469E+02
  0
VERTEX
  8
0
 62
4
 10
2.36423242E+02
 20
-2.20092335E+02
  0
VERTEX
  8
0
 62
4
 10
2.36353352E+02
 20
-2.20223658E+02
  0
VERTEX
  8
0
 62
4
 10
2.36295429E+02
 20
-2.20360440E+02
  0
VERTEX
  8
0
 62
4
 10
2.36249915E+02
 20
-2.20501640E+02
  0
VERTEX
  8
0
 62
4
 10
2.36217155E+02
 20
-2.20646182E+02
  0
VERTEX
  8
0
 62
4
 10
2.36197398E+02
 20
-2.20792967E+02
  0
VERTEX
  8
0
 62
4
 10
2.36190796E+02
 20
-2.20940878E+02
  0
VERTEX
  8
0
 62
4
 10
2.36197398E+02
 20
-2.21088789E+02
  0
VERTEX
  8
0
 62
4
 10
2.36217155E+02
 20
-2.21235574E+02
  0
VERTEX
  8
0
 62
4
 10
2.36249915E+02
 20
-2.21380116E+02
  0
VERTEX
  8
0
 62
4
 10
2.36295429E+02
 20
-2.21521316E+02
  0
VERTEX
  8
0
 62
4
 10
2.36353352E+02
 20
-2.21658098E+02
  0
VERTEX
  8
0
 62
4
 10
2.36423242E+02
 20
-2.21789421E+02
  0
VERTEX
  8
0
 62
4
 10
2.36504567E+02
 20
-2.21914287E+02
  0
VERTEX
  8
0
 62
4
 10
2.36596709E+02
 20
-2.22031744E+02
  0
VERTEX
  8
0
 62
4
 10
2.36698966E+02
 20
-2.22140899E+02
  0
VERTEX
  8
0
 62
4
 10
2.36810559E+02
 20
-2.22240921E+02
  0
VERTEX
  8
0
 62
4
 10
2.36930641E+02
 20
-2.22331050E+02
  0
VERTEX
  8
0
 62
4
 10
2.37058296E+02
 20
-2.22410598E+02
  0
VERTEX
  8
0
 62
4
 10
2.37192553E+02
 20
-2.22478960E+02
  0
VERTEX
  8
0
 62
4
 10
2.37332391E+02
 20
-2.22535617E+02
  0
VERTEX
  8
0
 62
4
 10
2.37476745E+02
 20
-2.22580137E+02
  0
VERTEX
  8
0
 62
4
 10
2.37624516E+02
 20
-2.22612182E+02
  0
VERTEX
  8
0
 62
4
 10
2.37774581E+02
 20
-2.22631506E+02
  0
VERTEX
  8
0
 62
4
 10
2.37925796E+02
 20
-2.22637964E+02
  0
VERTEX
  8
0
 62
4
 10
2.38077011E+02
 20
-2.22631506E+02
  0
VERTEX
  8
0
 62
4
 10
2.38227076E+02
 20
-2.22612182E+02
  0
VERTEX
  8
0
 62
4
 10
2.38374847E+02
 20
-2.22580137E+02
  0
VERTEX
  8
0
 62
4
 10
2.38519201E+02
 20
-2.22535617E+02
  0
VERTEX
  8
0
 62
4
 10
2.38659039E+02
 20
-2.22478960E+02
  0
VERTEX
  8
0
 62
4
 10
2.38793296E+02
 20
-2.22410598E+02
  0
VERTEX
  8
0
 62
4
 10
2.38920951E+02
 20
-2.22331050E+02
  0
VERTEX
  8
0
 62
4
 10
2.39041033E+02
 20
-2.22240921E+02
  0
VERTEX
  8
0
 62
4
 10
2.39152626E+02
 20
-2.22140899E+02
  0
VERTEX
  8
0
 62
4
 10
2.39254883E+02
 20
-2.22031744E+02
  0
VERTEX
  8
0
 62
4
 10
2.39347025E+02
 20
-2.21914287E+02
  0
VERTEX
  8
0
 62
4
 10
2.39428350E+02
 20
-2.21789421E+02
  0
VERTEX
  8
0
 62
4
 10
2.39498240E+02
 20
-2.21658098E+02
  0
VERTEX
  8
0
 62
4
 10
2.39556163E+02
 20
-2.21521316E+02
  0
VERTEX
  8
0
 62
4
 10
2.39601677E+02
 20
-2.21380116E+02
  0
VERTEX
  8
0
 62
4
 10
2.39634437E+02
 20
-2.21235574E+02
  0
VERTEX
  8
0
 62
4
 10
2.39654194E+02
 20
-2.21088789E+02
  0
VERTEX
  8
0
 62
4
 10
2.39660796E+02
 20
-2.20940878E+02
  0
SEQEND
  8
0
  0
POLYLINE
  8
0
 62
4
 66
1
  0
VERTEX
  8
0
 62
4
 10
2.37925796E+02
 20
-2.22684371E+02
  0
VERTEX
  8
0
 62
4
 10
2.38100107E+02
 20
-2.22676488E+02
  0
VERTEX
  8
0
 62
4
 10
2.38273092E+02
 20
-2.22652897E+02
  0
VERTEX
  8
0
 62
4
 10
2.38443434E+02
 20
-2.22613779E+02
  0
VERTEX
  8
0
 62
4
 10
2.38609836E+02
 20
-2.22559431E+02
  0
VERTEX
  8
0
 62
4
 10
2.38771033E+02
 20
-2.22490267E+02
  0
VERTEX
  8
0
 62
4
 10
2.38925796E+02
 20
-2.22406814E+02
  0
VERTEX
  8
0
 62
4
 10
2.39072949E+02
 20
-2.22309705E+02
  0
VERTEX
  8
0
 62
4
 10
2.39211371E+02
 20
-2.22199681E+02
  0
VERTEX
  8
0
 62
4
 10
2.39340010E+02
 20
-2.22077579E+02
  0
VERTEX
  8
0
 62
4
 10
2.39457885E+02
 20
-2.21944328E+02
  0
VERTEX
  8
0
 62
4
 10
2.39564100E+02
 20
-2.21800942E+02
  0
VERTEX
  8
0
 62
4
 10
2.39657847E+02
 20
-2.21648512E+02
  0
VERTEX
  8
0
 62
4
 10
2.39738412E+02
 20
-2.21488199E+02
  0
VERTEX
  8
0
 62
4
 10
2.39805181E+02
 20
-2.21321222E+02
  0
VERTEX
  8
0
 62
4
 10
2.39857648E+02
 20
-2.21148853E+02
  0
VERTEX
  8
0
 62
4
 10
2.39895412E+02
 20
-2.20972403E+02
  0
VERTEX
  8
0
 62
4
 10
2.39918185E+02
 20
-2.20793215E+02
  0
VERTEX
  8
0
 62
4
 10
2.39925796E+02
 20
-2.20612653E+02
  0
VERTEX
  8
0
 62
4
 10
2.39918185E+02
 20
-2.20432091E+02
  0
VERTEX
  8
0
 62
4
 10
2.39895412E+02
 20
-2.20252903E+02
  0
VERTEX
  8
0
 62
4
 10
2.39857648E+02
 20
-2.20076453E+02
  0
VERTEX
  8
0
 62
4
 10
2.39805181E+02
 20
-2.19904084E+02
  0
VERTEX
  8
0
 62
4
 10
2.39738412E+02
 20
-2.19737107E+02
  0
VERTEX
  8
0
 62
4
 10
2.39657847E+02
 20
-2.19576794E+02
  0
VERTEX
  8
0
 62
4
 10
2.39564100E+02
 20
-2.19424364E+02
  0
VERTEX
  8
0
 62
4
 10
2.39457885E+02
 20
-2.19280978E+02
  0
VERTEX
  8
0
 62
4
 10
2.39340010E+02
 20
-2.19147727E+02
  0
VERTEX
  8
0
 62
4
 10
2.39211371E+02
 20
-2.19025625E+02
  0
VERTEX
  8
0
 62
4
 10
2.39072949E+02
 20
-2.18915601E+02
  0
VERTEX
  8
0
 62
4
 10
2.38925796E+02
 20
-2.18818492E+02
  0
VERTEX
  8
0
 62
4
 10
2.38771033E+02
 20
-2.18735039E+02
  0
VERTEX
  8
0
 62
4
 10
2.38609836E+02
 20
-2.18665875E+02
  0
VERTEX
  8
0
 62
4
 10
2.38443434E+02
 20
-2.18611527E+02
  0
VERTEX
  8
0
 62
4
 10
2.38273092E+02
 20
-2.18572409E+02
  0
VERTEX
  8
0
 62
4
 10
2.38100107E+02
 20
-2.18548818E+02
  0
VERTEX
  8
0
 62
4
 10
2.37925796E+02
 20
-2.18540935E+02
  0
VERTEX
  8
0
 62
4
 10
2.37751485E+02
 20
-2.18548818E+02
  0
VERTEX
  8
0
 62
4
 10
2.37578500E+02
 20
-2.18572409E+02
  0
VERTEX
  8
0
 62
4
 10
2.37408158E+02
 20
-2.18611527E+02
  0
VERTEX
  8
0
 62
4
 10
2.37241756E+02
 20
-2.18665875E+02
  0
VERTEX
  8
0
 62
4
 10
2.37080559E+02
 20
-2.18735039E+02
  0
VERTEX
  8
0
 62
4
 10
2.36925796E+02
 20
-2.18818492E+02
  0
VERTEX
  8
0
 62
4
 10
2.36778643E+02
 20
-2.18915601E+02
  0
VERTEX
  8
0
 62
4
 10
2.36640221E+02
 20
-2.19025625E+02
  0
VERTEX
  8
0
 62
4
 10
2.36511582E+02
 20
-2.19147727E+02
  0
VERTEX
  8
0
 62
4
 10
2.36393707E+02
 20
-2.19280978E+02
  0
VERTEX
  8
0
 62
4
 10
2.36287492E+02
 20
-2.19424364E+02
  0
VERTEX
  8
0
 62
4
 10
2.36193745E+02
 20
-2.19576794E+02
  0
VERTEX
  8
0
 62
4
 10
2.36113180E+02
 20
-2.19737107E+02
  0
VERTEX
  8
0
 62
4
 10
2.36046411E+02
 20
-2.19904084E+02
  0
VERTEX
  8
0
 62
4
 10
2.35993944E+02
 20
-2.20076453E+02
  0
VERTEX
  8
0
 62
4
 10
2.35956180E+02
 20
-2.20252903E+02
  0
VERTEX
  8
0
 62
4
 10
2.35933407E+02
 20
-2.20432091E+02
  0
VERTEX
  8
0
 62
4
 10
2.35925796E+02
 20
-2.20612653E+02
  0
VERTEX
  8
0
 62
4
 10
2.35933407E+02
 20
-2.20793215E+02
  0
VERTEX
  8
0
 62
4
 10
2.35956180E+02
 20
-2.20972403E+02
  0
VERTEX
  8
0
 62
4
 10
2.35993944E+02
 20
-2.21148853E+02
  0
VERTEX
  8
0
 62
4
 10
2.36046411E+02
 20
-2.21321222E+02
  0
VERTEX
  8
0
 62
4
 10
2.36113180E+02
 20
-2.21488199E+02
  0
VERTEX
  8
0
 62
4
 10
2.36193745E+02
 20
-2.21648512E+02
  0
VERTEX
  8
0
 62
4
 10
2.36287492E+02
 20
-2.21800942E+02
  0
VERTEX
  8
0
 62
4
 10
2.36393707E+02
 20
-2.21944328E+02
  0
VERTEX
  8
0
 62
4
 10
2.36511582E+02
 20
-2.22077579E+02
  0
VERTEX
  8
0
 62
4
 10
2.36640221E+02
 20
-2.22199681E+02
  0
VERTEX
  8
0
 62
4
 10
2.36778643E+02
 20
-2.22309705E+02
  0
VERTEX
  8
0
 62
4
 10
2.36925796E+02
 20
-2.22406814E+02
  0
VERTEX
  8
0
 62
4
 10
2.37080559E+02
 20
-2.22490267E+02
  0
VERTEX
  8
0
 62
4
 10
2.37241756E+02
 20
-2.22559431E+02
  0
VERTEX
  8
0
 62
4
 10
2.37408158E+02
 20
-2.22613779E+02
  0
VERTEX
  8
0
 62
4
 10
2.37578500E+02
 20
-2.22652897E+02
  0
VERTEX
  8
0
 62
4
 10
2.37751485E+02
 20
-2.22676488E+02
  0
VERTEX
  8
0
 62
4
 10
2.37925796E+02
 20
-2.22684371E+02
  0
SEQEND
  8
0
  0
LINE
  8
0
 62
4
 10
2.50925796E+02
 20
-2.14407712E+02
 11
2.50925796E+02
 21
-2.12740352E+02
  0
LINE
  8
0
 62
4
 10
2.17925796E+02
 20
-2.14407712E+02
 11
2.17925796E+02
 21
-2.12740352E+02
  0
LINE
  8
0
 62
4
 10
2.68925796E+02
 20
-1.62450841E+02
 11
2.63925796E+02
 21
-1.62450841E+02
  0
LINE
  8
0
 62
4
 10
2.49425796E+02
 20
-1.65477400E+02
 11
2.34425796E+02
 21
-1.65477400E+02
  0
LINE
  8
0
 62
4
 10
2.34425796E+02
 20
-1.99169416E+02
 11
2.49425796E+02
 21
-1.99169416E+02
  0
LINE
  8
0
 62
4
 10
2.34425796E+02
 20
-2.25589872E+02
 11
2.49425796E+02
 21
-2.25589872E+02
  0
LINE
  8
0
 62
4
 10
2.49425796E+02
 20
-1.99169416E+02
 11
2.49425796E+02
 21
-2.25589872E+02
  0
LINE
  8
0
 62
4
 10
2.34425796E+02
 20
-1.99169416E+02
 11
2.34425796E+02
 21
-2.25589872E+02
  0
LINE
  8
0
  6
CENTER
 62
6
 10
2.37925796E+02
 20
-2.18013720E+02
 11
2.37925796E+02
 21
-2.23858255E+02
  0
LINE
  8
0
 62
4
 10
2.62425796E+02
 20
-1.64035832E+02
 11
2.58925796E+02
 21
-1.64035832E+02
  0
LINE
  8
0
 62
4
 10
2.52425796E+02
 20
-1.94259504E+02
 11
2.16425796E+02
 21
-1.94259504E+02
  0
LINE
  8
0
 62
4
 10
2.68925796E+02
 20
-1.67470320E+02
 11
2.63925796E+02
 21
-1.67470320E+02
  0
LINE
  8
0
 62
4
 10
2.68925796E+02
 20
-1.67474029E+02
 11
2.63925796E+02
 21
-1.67474029E+02
  0
LINE
  8
0
 62
4
 10
2.68925796E+02
 20
-1.74816209E+02
 11
2.63925796E+02
 21
-1.74816209E+02
  0
LINE
  8
0
 62
4
 10
2.49425796E+02
 20
-1.62785832E+02
 11
2.58425796E+02
 21
-1.62785832E+02
  0
LINE
  8
0
 62
4
 10
2.58925796E+02
 20
-1.63285832E+02
 11
2.58925796E+02
 21
-1.76285832E+02
  0
LINE
  8
0
 62
4
 10
2.68925796E+02
 20
-1.62450841E+02
 11
2.68925796E+02
 21
-1.77132836E+02
  0
LINE
  8
0
 62
4
 10
2.63925796E+02
 20
-1.62450841E+02
 11
2.63925796E+02
 21
-1.77132836E+02
  0
LINE
  8
0
 62
4
 10
2.63925796E+02
 20
-1.63535832E+02
 11
2.58925796E+02
 21
-1.63535832E+02
  0
LINE
  8
0
 62
4
 10
2.63925796E+02
 20
-1.76035832E+02
 11
2.58925796E+02
 21
-1.76035832E+02
  0
LINE
  8
0
 62
4
 10
2.62425796E+02
 20
-1.63535832E+02
 11
2.62425796E+02
 21
-1.76035832E+02
  0
LINE
  8
0
 62
4
 10
2.62425796E+02
 20
-1.75535832E+02
 11
2.58925796E+02
 21
-1.75535832E+02
  0
LINE
  8
0
 62
4
 10
2.58425796E+02
 20
-1.76785832E+02
 11
2.49925796E+02
 21
-1.76785832E+02
  0
LINE
  8
0
 62
4
 10
2.68925796E+02
 20
-1.77132836E+02
 11
2.63925796E+02
 21
-1.77132836E+02
  0
LINE
  8
0
 62
4
 10
2.34425796E+02
 20
-2.09451497E+02
 11
2.14925796E+02
 21
-2.09451497E+02
  0
LINE
  8
0
 62
4
 10
2.34425796E+02
 20
-2.07984276E+02
 11
2.14925796E+02
 21
-2.07984276E+02
  0
LINE
  8
0
 62
4
 10
2.49425796E+02
 20
-1.62358725E+02
 11
2.34425796E+02
 21
-1.62358725E+02
  0
LINE
  8
0
 62
4
 10
2.51425796E+02
 20
-1.90346913E+02
 11
2.32425796E+02
 21
-1.90346913E+02
  0
LINE
  8
0
 62
4
 10
2.53925796E+02
 20
-1.91754367E+02
 11
2.53925796E+02
 21
-2.09451497E+02
  0
LINE
  8
0
 62
4
 10
2.53925796E+02
 20
-2.09451497E+02
 11
2.49425796E+02
 21
-2.09451497E+02
  0
LINE
  8
0
 62
4
 10
2.53925796E+02
 20
-2.07984276E+02
 11
2.49425796E+02
 21
-2.07984276E+02
  0
LINE
  8
0
 62
4
 10
2.51425796E+02
 20
-1.90346913E+02
 11
2.51425796E+02
 21
-1.94259504E+02
  0
LINE
  8
0
 62
4
 10
2.34425796E+02
 20
-1.62358725E+02
 11
2.34425796E+02
 21
-1.90346913E+02
  0
LINE
  8
0
 62
4
 10
2.49425796E+02
 20
-1.62358725E+02
 11
2.49425796E+02
 21
-1.90346913E+02
  0
LINE
  8
0
 62
4
 10
2.32425796E+02
 20
-1.90346913E+02
 11
2.32425796E+02
 21
-1.94259504E+02
  0
LINE
  8
0
 62
4
 10
2.49425796E+02
 20
-1.88952942E+02
 11
2.34425796E+02
 21
-1.88952942E+02
  0
LINE
  8
0
 62
4
 10
2.14925796E+02
 20
-1.91754367E+02
 11
2.14925796E+02
 21
-2.09451497E+02
  0
ARC
  8
0
 62
4
 10
2.58426296E+02
 20
-1.63285332E+02
 40
4.99500622E-01
 50
3.59942689E+02
 51
9.00573103E+01
  0
ARC
  8
0
 62
4
 10
2.49925296E+02
 20
-1.77285332E+02
 40
4.99500622E-01
 50
8.99426895E+01
 51
1.80057310E+02
  0
ARC
  8
0
 62
4
 10
2.16425296E+02
 20
-1.95759004E+02
 40
1.49950029E+00
 50
8.99809029E+01
 51
1.80019097E+02
  0
ARC
  8
0
 62
4
 10
2.58425296E+02
 20
-1.76285332E+02
 40
5.00500378E-01
 50
2.70057253E+02
 51
3.59942747E+02
  0
ARC
  8
0
 62
4
 10
2.52426296E+02
 20
-1.95759004E+02
 40
1.49950029E+00
 50
3.59980903E+02
 51
9.00190969E+01
  0
LINE
  8
0
 62
4
 10
2.35425796E+02
 20
-2.15323396E+02
 11
2.48425796E+02
 21
-2.15323396E+02
  0
LINE
  8
0
 62
4
 10
2.34425796E+02
 20
-1.90254367E+02
 11
2.16425796E+02
 21
-1.90254367E+02
  0
LINE
  8
0
  6
CENTER
 62
6
 10
2.25925796E+02
 20
-1.89223230E+02
 11
2.25925796E+02
 21
-1.91306195E+02
  0
POLYLINE
  8
0
 62
4
 66
1
  0
VERTEX
  8
0
 62
4
 10
2.29065796E+02
 20
-1.91306195E+02
  0
VERTEX
  8
0
 62
4
 10
2.29053847E+02
 20
-1.91249296E+02
  0
VERTEX
  8
0
 62
4
 10
2.29018092E+02
 20
-1.91192830E+02
  0
VERTEX
  8
0
 62
4
 10
2.28958803E+02
 20
-1.91137227E+02
  0
VERTEX
  8
0
 62
4
 10
2.28876431E+02
 20
-1.91082910E+02
  0
VERTEX
  8
0
 62
4
 10
2.28771602E+02
 20
-1.91030292E+02
  0
VERTEX
  8
0
 62
4
 10
2.28645116E+02
 20
-1.90979774E+02
  0
VERTEX
  8
0
 62
4
 10
2.28497933E+02
 20
-1.90931740E+02
  0
VERTEX
  8
0
 62
4
 10
2.28331176E+02
 20
-1.90886556E+02
  0
VERTEX
  8
0
 62
4
 10
2.28146111E+02
 20
-1.90844565E+02
  0
VERTEX
  8
0
 62
4
 10
2.27944149E+02
 20
-1.90806088E+02
  0
VERTEX
  8
0
 62
4
 10
2.27726826E+02
 20
-1.90771418E+02
  0
VERTEX
  8
0
 62
4
 10
2.27495796E+02
 20
-1.90740817E+02
  0
VERTEX
  8
0
 62
4
 10
2.27252817E+02
 20
-1.90714519E+02
  0
VERTEX
  8
0
 62
4
 10
2.26999739E+02
 20
-1.90692724E+02
  0
VERTEX
  8
0
 62
4
 10
2.26738488E+02
 20
-1.90675597E+02
  0
VERTEX
  8
0
 62
4
 10
2.26471051E+02
 20
-1.90663270E+02
  0
VERTEX
  8
0
 62
4
 10
2.26199465E+02
 20
-1.90655837E+02
  0
VERTEX
  8
0
 62
4
 10
2.25925796E+02
 20
-1.90653352E+02
  0
VERTEX
  8
0
 62
4
 10
2.25652127E+02
 20
-1.90655837E+02
  0
VERTEX
  8
0
 62
4
 10
2.25380541E+02
 20
-1.90663270E+02
  0
VERTEX
  8
0
 62
4
 10
2.25113104E+02
 20
-1.90675597E+02
  0
VERTEX
  8
0
 62
4
 10
2.24851853E+02
 20
-1.90692724E+02
  0
VERTEX
  8
0
 62
4
 10
2.24598775E+02
 20
-1.90714519E+02
  0
VERTEX
  8
0
 62
4
 10
2.24355796E+02
 20
-1.90740817E+02
  0
VERTEX
  8
0
 62
4
 10
2.24124766E+02
 20
-1.90771418E+02
  0
VERTEX
  8
0
 62
4
 10
2.23907443E+02
 20
-1.90806088E+02
  0
VERTEX
  8
0
 62
4
 10
2.23705481E+02
 20
-1.90844565E+02
  0
VERTEX
  8
0
 62
4
 10
2.23520416E+02
 20
-1.90886556E+02
  0
VERTEX
  8
0
 62
4
 10
2.23353659E+02
 20
-1.90931740E+02
  0
VERTEX
  8
0
 62
4
 10
2.23206476E+02
 20
-1.90979774E+02
  0
VERTEX
  8
0
 62
4
 10
2.23079990E+02
 20
-1.91030292E+02
  0
VERTEX
  8
0
 62
4
 10
2.22975161E+02
 20
-1.91082910E+02
  0
VERTEX
  8
0
 62
4
 10
2.22892789E+02
 20
-1.91137227E+02
  0
VERTEX
  8
0
 62
4
 10
2.22833500E+02
 20
-1.91192830E+02
  0
VERTEX
  8
0
 62
4
 10
2.22797745E+02
 20
-1.91249296E+02
  0
VERTEX
  8
0
 62
4
 10
2.22785796E+02
 20
-1.91306195E+02
  0
VERTEX
  8
0
 62
4
 10
2.22797745E+02
 20
-1.91363094E+02
  0
VERTEX
  8
0
 62
4
 10
2.22833500E+02
 20
-1.91419560E+02
  0
VERTEX
  8
0
 62
4
 10
2.22892789E+02
 20
-1.91475163E+02
  0
VERTEX
  8
0
 62
4
 10
2.22975161E+02
 20
-1.91529480E+02
  0
VERTEX
  8
0
 62
4
 10
2.23079990E+02
 20
-1.91582098E+02
  0
VERTEX
  8
0
 62
4
 10
2.23206476E+02
 20
-1.91632616E+02
  0
VERTEX
  8
0
 62
4
 10
2.23353659E+02
 20
-1.91680650E+02
  0
VERTEX
  8
0
 62
4
 10
2.23520416E+02
 20
-1.91725834E+02
  0
VERTEX
  8
0
 62
4
 10
2.23705481E+02
 20
-1.91767825E+02
  0
VERTEX
  8
0
 62
4
 10
2.23907443E+02
 20
-1.91806302E+02
  0
VERTEX
  8
0
 62
4
 10
2.24124766E+02
 20
-1.91840972E+02
  0
VERTEX
  8
0
 62
4
 10
2.24355796E+02
 20
-1.91871573E+02
  0
VERTEX
  8
0
 62
4
 10
2.24598775E+02
 20
-1.91897871E+02
  0
VERTEX
  8
0
 62
4
 10
2.24851853E+02
 20
-1.91919666E+02
  0
VERTEX
  8
0
 62
4
 10
2.25113104E+02
 20
-1.91936793E+02
  0
VERTEX
  8
0
 62
4
 10
2.25380541E+02
 20
-1.91949120E+02
  0
VERTEX
  8
0
 62
4
 10
2.25652127E+02
 20
-1.91956553E+02
  0
VERTEX
  8
0
 62
4
 10
2.25925796E+02
 20
-1.91959038E+02
  0
VERTEX
  8
0
 62
4
 10
2.26199465E+02
 20
-1.91956553E+02
  0
VERTEX
  8
0
 62
4
 10
2.26471051E+02
 20
-1.91949120E+02
  0
VERTEX
  8
0
 62
4
 10
2.26738488E+02
 20
-1.91936793E+02
  0
VERTEX
  8
0
 62
4
 10
2.26999739E+02
 20
-1.91919666E+02
  0
VERTEX
  8
0
 62
4
 10
2.27252817E+02
 20
-1.91897871E+02
  0
VERTEX
  8
0
 62
4
 10
2.27495796E+02
 20
-1.91871573E+02
  0
VERTEX
  8
0
 62
4
 10
2.27726826E+02
 20
-1.91840972E+02
  0
VERTEX
  8
0
 62
4
 10
2.27944149E+02
 20
-1.91806302E+02
  0
VERTEX
  8
0
 62
4
 10
2.28146111E+02
 20
-1.91767825E+02
  0
VERTEX
  8
0
 62
4
 10
2.28331176E+02
 20
-1.91725834E+02
  0
VERTEX
  8
0
 62
4
 10
2.28497933E+02
 20
-1.91680650E+02
  0
VERTEX
  8
0
 62
4
 10
2.28645116E+02
 20
-1.91632616E+02
  0
VERTEX
  8
0
 62
4
 10
2.28771602E+02
 20
-1.91582098E+02
  0
VERTEX
  8
0
 62
4
 10
2.28876431E+02
 20
-1.91529480E+02
  0
VERTEX
  8
0
 62
4
 10
2.28958803E+02
 20
-1.91475163E+02
  0
VERTEX
  8
0
 62
4
 10
2.29018092E+02
 20
-1.91419560E+02
  0
VERTEX
  8
0
 62
4
 10
2.29053847E+02
 20
-1.91363094E+02
  0
VERTEX
  8
0
 62
4
 10
2.29065796E+02
 20
-1.91306195E+02
  0
SEQEND
  8
0
  0
POLYLINE
  8
0
 62
4
 66
1
  0
VERTEX
  8
0
 62
4
 10
2.22466545E+02
 20
-1.92173625E+02
  0
VERTEX
  8
0
 62
4
 10
2.22432896E+02
 20
-1.92238015E+02
  0
VERTEX
  8
0
 62
4
 10
2.22426919E+02
 20
-1.92302773E+02
  0
VERTEX
  8
0
 62
4
 10
2.22448660E+02
 20
-1.92367384E+02
  0
VERTEX
  8
0
 62
4
 10
2.22497948E+02
 20
-1.92431338E+02
  0
VERTEX
  8
0
 62
4
 10
2.22574392E+02
 20
-1.92494127E+02
  0
VERTEX
  8
0
 62
4
 10
2.22677386E+02
 20
-1.92555254E+02
  0
VERTEX
  8
0
 62
4
 10
2.22806115E+02
 20
-1.92614235E+02
  0
VERTEX
  8
0
 62
4
 10
2.22959559E+02
 20
-1.92670602E+02
  0
VERTEX
  8
0
 62
4
 10
2.23136502E+02
 20
-1.92723910E+02
  0
VERTEX
  8
0
 62
4
 10
2.23335542E+02
 20
-1.92773735E+02
  0
VERTEX
  8
0
 62
4
 10
2.23555102E+02
 20
-1.92819683E+02
  0
VERTEX
  8
0
 62
4
 10
2.23793444E+02
 20
-1.92861390E+02
  0
VERTEX
  8
0
 62
4
 10
2.24048678E+02
 20
-1.92898525E+02
  0
VERTEX
  8
0
 62
4
 10
2.24318784E+02
 20
-1.92930795E+02
  0
VERTEX
  8
0
 62
4
 10
2.24601620E+02
 20
-1.92957943E+02
  0
VERTEX
  8
0
 62
4
 10
2.24894947E+02
 20
-1.92979756E+02
  0
VERTEX
  8
0
 62
4
 10
2.25196441E+02
 20
-1.92996058E+02
  0
VERTEX
  8
0
 62
4
 10
2.25503712E+02
 20
-1.93006723E+02
  0
VERTEX
  8
0
 62
4
 10
2.25814328E+02
 20
-1.93011665E+02
  0
VERTEX
  8
0
 62
4
 10
2.26125826E+02
 20
-1.93010845E+02
  0
VERTEX
  8
0
 62
4
 10
2.26435740E+02
 20
-1.93004269E+02
  0
VERTEX
  8
0
 62
4
 10
2.26741614E+02
 20
-1.92991990E+02
  0
VERTEX
  8
0
 62
4
 10
2.27041025E+02
 20
-1.92974104E+02
  0
VERTEX
  8
0
 62
4
 10
2.27331600E+02
 20
-1.92950755E+02
  0
VERTEX
  8
0
 62
4
 10
2.27611039E+02
 20
-1.92922126E+02
  0
VERTEX
  8
0
 62
4
 10
2.27877127E+02
 20
-1.92888444E+02
  0
VERTEX
  8
0
 62
4
 10
2.28127756E+02
 20
-1.92849976E+02
  0
VERTEX
  8
0
 62
4
 10
2.28360941E+02
 20
-1.92807028E+02
  0
VERTEX
  8
0
 62
4
 10
2.28574834E+02
 20
-1.92759938E+02
  0
VERTEX
  8
0
 62
4
 10
2.28767741E+02
 20
-1.92709081E+02
  0
VERTEX
  8
0
 62
4
 10
2.28938133E+02
 20
-1.92654859E+02
  0
VERTEX
  8
0
 62
4
 10
2.29084661E+02
 20
-1.92597702E+02
  0
VERTEX
  8
0
 62
4
 10
2.29206164E+02
 20
-1.92538062E+02
  0
VERTEX
  8
0
 62
4
 10
2.29301680E+02
 20
-1.92476412E+02
  0
VERTEX
  8
0
 62
4
 10
2.29370450E+02
 20
-1.92413241E+02
  0
VERTEX
  8
0
 62
4
 10
2.29411932E+02
 20
-1.92349048E+02
  0
VERTEX
  8
0
 62
4
 10
2.29425796E+02
 20
-1.92284343E+02
  0
SEQEND
  8
0
  0
LINE
  8
0
 62
4
 10
2.22785796E+02
 20
-1.91306195E+02
 11
2.22425796E+02
 21
-1.92284343E+02
  0
LINE
  8
0
 62
4
 10
2.29065796E+02
 20
-1.91306195E+02
 11
2.29425796E+02
 21
-1.92284343E+02
  0
ARC
  8
0
 62
4
 10
2.52426296E+02
 20
-1.91753868E+02
 40
1.49950029E+00
 50
3.59980903E+02
 51
9.00190969E+01
  0
LINE
  8
0
 62
4
 10
2.52425796E+02
 20
-1.90254367E+02
 11
2.49425796E+02
 21
-1.90254367E+02
  0
ARC
  8
0
 62
4
 10
2.16425296E+02
 20
-1.91753868E+02
 40
1.49950029E+00
 50
8.99809029E+01
 51
1.80019097E+02
  0
CIRCLE
  8
0
 62
7
 10
6.75530953E+01
 20
-2.17057706E+02
 40
2.45850000E+00
  0
CIRCLE
  8
0
 62
7
 10
1.04553095E+02
 20
-2.17057706E+02
 40
2.45850000E+00
  0
CIRCLE
  8
0
 62
7
 10
-2.52250000E+02
 20
-2.17057706E+02
 40
2.45850000E+00
  0
CIRCLE
  8
0
 62
7
 10
-2.15250000E+02
 20
-2.17057706E+02
 40
2.45850000E+00
  0
TEXT
  8
0
 62
7
 10
-8.82101018E+01
 20
-3.45997555E+01
 40
6.30000019E+00
  1
75
 41
1.00000000E+00
  7
MONOTXT
  0
TEXT
  8
0
 62
7
 10
-6.61601019E+01
 20
-3.45997555E+01
 40
6.30000019E+00
  1
125
 41
1.00000000E+00
  7
MONOTXT
  0
TEXT
  8
0
 62
7
 10
-4.09601019E+01
 20
-3.45997555E+01
 40
6.30000019E+00
  1
175
 41
1.00000000E+00
  7
MONOTXT
  0
TEXT
  8
0
 62
7
 10
-1.57601019E+01
 20
-3.45997555E+01
 40
6.30000019E+00
  1
225
 41
1.00000000E+00
  7
MONOTXT
  0
TEXT
  8
0
 62
7
 10
9.43989808E+00
 20
-3.45997555E+01
 40
6.30000019E+00
  1
275
 41
1.00000000E+00
  7
MONOTXT
  0
TEXT
  8
0
 62
7
 10
3.46398981E+01
 20
-3.45997555E+01
 40
6.30000019E+00
  1
325
 41
1.00000000E+00
  7
MONOTXT
  0
TEXT
  8
0
 62
7
 10
5.98398981E+01
 20
-3.45997555E+01
 40
6.30000019E+00
  1
375
 41
1.00000000E+00
  7
MONOTXT
  0
TEXT
  8
0
 62
7
 10
8.50398981E+01
 20
-3.45997555E+01
 40
6.30000019E+00
  1
425
 41
1.00000000E+00
  7
MONOTXT
  0
TEXT
  8
0
 62
7
 10
1.10239898E+02
 20
-3.45997555E+01
 40
6.30000019E+00
  1
525
 41
1.00000000E+00
  7
MONOTXT
  0
TEXT
  8
0
 62
7
 10
1.35439898E+02
 20
-3.45997555E+01
 40
6.30000019E+00
  1
625
 41
1.00000000E+00
  7
MONOTXT
  0
TEXT
  8
0
 62
7
 10
1.60639898E+02
 20
-3.45997555E+01
 40
6.30000019E+00
  1
725
 41
1.00000000E+00
  7
MONOTXT
  0
TEXT
  8
0
 62
7
 10
1.60639898E+02
 20
-2.45997555E+01
 40
6.30000019E+00
  1
725
 41
1.00000000E+00
  7
MONOTXT
  0
TEXT
  8
0
 62
7
 10
1.60639898E+02
 20
-4.59975549E+00
 40
6.30000019E+00
  1
800
 41
1.00000000E+00
  7
MONOTXT
  0
LINE
  8
0
 62
7
 10
1.82000836E+02
 20
-3.64497554E+01
 11
1.82000836E+02
 21
1.35502446E+01
  0
TEXT
  8
0
 62
7
 10
1.35439898E+02
 20
-2.45997555E+01
 40
6.30000019E+00
  1
625
 41
1.00000000E+00
  7
MONOTXT
  0
TEXT
  8
0
 62
7
 10
1.35439898E+02
 20
-4.59975549E+00
 40
6.30000019E+00
  1
700
 41
1.00000000E+00
  7
MONOTXT
  0
TEXT
  8
0
 62
7
 10
1.10239898E+02
 20
-2.45997555E+01
 40
6.30000019E+00
  1
525
 41
1.00000000E+00
  7
MONOTXT
  0
TEXT
  8
0
 62
7
 10
1.10239898E+02
 20
-4.59975549E+00
 40
6.30000019E+00
  1
600
 41
1.00000000E+00
  7
MONOTXT
  0
TEXT
  8
0
 62
7
 10
8.50398981E+01
 20
-2.45997555E+01
 40
6.30000019E+00
  1
425
 41
1.00000000E+00
  7
MONOTXT
  0
TEXT
  8
0
 62
7
 10
8.50398981E+01
 20
-4.59975549E+00
 40
6.30000019E+00
  1
500
 41
1.00000000E+00
  7
MONOTXT
  0
TEXT
  8
0
 62
7
 10
5.98398981E+01
 20
-2.45997555E+01
 40
6.30000019E+00
  1
375
 41
1.00000000E+00
  7
MONOTXT
  0
TEXT
  8
0
 62
7
 10
5.98398981E+01
 20
-4.59975549E+00
 40
6.30000019E+00
  1
450
 41
1.00000000E+00
  7
MONOTXT
  0
TEXT
  8
0
 62
7
 10
3.46398981E+01
 20
-2.45997555E+01
 40
6.30000019E+00
  1
325
 41
1.00000000E+00
  7
MONOTXT
  0
TEXT
  8
0
 62
7
 10
3.46398981E+01
 20
-4.59975549E+00
 40
6.30000019E+00
  1
400
 41
1.00000000E+00
  7
MONOTXT
  0
TEXT
  8
0
 62
7
 10
9.43989808E+00
 20
-2.45997555E+01
 40
6.30000019E+00
  1
275
 41
1.00000000E+00
  7
MONOTXT
  0
TEXT
  8
0
 62
7
 10
9.43989808E+00
 20
-4.59975549E+00
 40
6.30000019E+00
  1
350
 41
1.00000000E+00
  7
MONOTXT
  0
TEXT
  8
0
 62
7
 10
-1.57601019E+01
 20
-2.45997555E+01
 40
6.30000019E+00
  1
225
 41
1.00000000E+00
  7
MONOTXT
  0
TEXT
  8
0
 62
7
 10
-1.57601019E+01
 20
-4.59975549E+00
 40
6.30000019E+00
  1
300
 41
1.00000000E+00
  7
MONOTXT
  0
TEXT
  8
0
 62
7
 10
-4.09601019E+01
 20
-2.45997555E+01
 40
6.30000019E+00
  1
175
 41
1.00000000E+00
  7
MONOTXT
  0
TEXT
  8
0
 62
7
 10
-4.09601019E+01
 20
-4.59975549E+00
 40
6.30000019E+00
  1
250
 41
1.00000000E+00
  7
MONOTXT
  0
TEXT
  8
0
 62
7
 10
-6.61601019E+01
 20
-2.45997555E+01
 40
6.30000019E+00
  1
125
 41
1.00000000E+00
  7
MONOTXT
  0
TEXT
  8
0
 62
7
 10
-6.61601019E+01
 20
-4.59975549E+00
 40
6.30000019E+00
  1
200
 41
1.00000000E+00
  7
MONOTXT
  0
TEXT
  8
0
 62
7
 10
-8.82101018E+01
 20
-2.45997555E+01
 40
6.30000019E+00
  1
75
 41
1.00000000E+00
  7
MONOTXT
  0
TEXT
  8
0
 62
7
 10
-9.13601019E+01
 20
-4.59975549E+00
 40
6.30000019E+00
  1
150
 41
1.00000000E+00
  7
MONOTXT
  0
TEXT
  8
0
 62
7
 10
-1.13410101E+02
 20
-2.45997555E+01
 40
6.30000019E+00
  1
25
 41
1.00000000E+00
  7
MONOTXT
  0
TEXT
  8
0
 62
7
 10
-1.16560102E+02
 20
-4.59975549E+00
 40
6.30000019E+00
  1
100
 41
1.00000000E+00
  7
MONOTXT
  0
TEXT
  8
0
 62
7
 10
-1.35460101E+02
 20
-2.45997555E+01
 40
6.30000019E+00
  1
0
 41
1.00000000E+00
  7
MONOTXT
  0
TEXT
  8
0
 62
7
 10
-1.38610101E+02
 20
-4.59975549E+00
 40
6.30000019E+00
  1
75
 41
1.00000000E+00
  7
MONOTXT
  0
TEXT
  8
0
 62
7
 10
-2.27360102E+02
 20
-4.59975549E+00
 40
6.30000019E+00
  1
STRETCH
 41
1.00000000E+00
  7
MONOTXT
  0
TEXT
  8
0
 62
7
 10
-2.24210102E+02
 20
5.40024451E+00
 40
6.30000019E+00
  1
STROKE
 41
1.00000000E+00
  7
MONOTXT
  0
TEXT
  8
0
 62
7
 10
-1.66960102E+02
 20
-2.45997555E+01
 40
6.30000019E+00
  1
-25
 41
1.00000000E+00
  7
MONOTXT
  0
TEXT
  8
0
 62
7
 10
-1.63810101E+02
 20
-4.59975549E+00
 40
6.30000019E+00
  1
50
 41
1.00000000E+00
  7
MONOTXT
  0
LINE
  8
0
 62
7
 10
1.56800836E+02
 20
-3.64497554E+01
 11
1.56800836E+02
 21
1.35502446E+01
  0
LINE
  8
0
 62
7
 10
1.31600836E+02
 20
-3.64497554E+01
 11
1.31600836E+02
 21
1.35502446E+01
  0
LINE
  8
0
 62
7
 10
1.06400836E+02
 20
-3.64497554E+01
 11
1.06400836E+02
 21
1.35502446E+01
  0
LINE
  8
0
 62
7
 10
8.12008358E+01
 20
-3.64497554E+01
 11
8.12008358E+01
 21
1.35502446E+01
  0
LINE
  8
0
 62
7
 10
5.60008358E+01
 20
-3.64497554E+01
 11
5.60008358E+01
 21
1.35502446E+01
  0
LINE
  8
0
 62
7
 10
3.08008358E+01
 20
-3.64497554E+01
 11
3.08008358E+01
 21
1.35502446E+01
  0
LINE
  8
0
 62
7
 10
5.60083578E+00
 20
-3.64497554E+01
 11
5.60083578E+00
 21
1.35502446E+01
  0
LINE
  8
0
 62
7
 10
-1.95991642E+01
 20
-3.64497554E+01
 11
-1.95991642E+01
 21
1.35502446E+01
  0
LINE
  8
0
 62
7
 10
-4.47991642E+01
 20
-3.64497554E+01
 11
-4.47991642E+01
 21
1.35502446E+01
  0
LINE
  8
0
 62
7
 10
-6.99991642E+01
 20
-3.64497554E+01
 11
-6.99991642E+01
 21
1.35502446E+01
  0
LINE
  8
0
 62
7
 10
-9.51991642E+01
 20
-3.64497554E+01
 11
-9.51991642E+01
 21
1.35502446E+01
  0
LINE
  8
0
 62
7
 10
-1.20399164E+02
 20
-3.64497554E+01
 11
-1.20399164E+02
 21
1.35502446E+01
  0
LINE
  8
0
 62
7
 10
-1.45599164E+02
 20
-3.64497554E+01
 11
-1.45599164E+02
 21
1.35502446E+01
  0
LINE
  8
0
 62
7
 10
-1.70799164E+02
 20
-3.64497554E+01
 11
-1.70799164E+02
 21
1.35502446E+01
  0
LINE
  8
0
 62
7
 10
-2.31199164E+02
 20
-1.64497554E+01
 11
1.82000836E+02
 21
-1.64497554E+01
  0
LINE
  8
0
 62
7
 10
-2.31199164E+02
 20
3.55024461E+00
 11
-1.82599164E+02
 21
3.55024461E+00
  0
LINE
  8
0
 62
7
 10
-2.31199164E+02
 20
-3.64497554E+01
 11
-2.31199164E+02
 21
1.35502446E+01
  0
LINE
  8
0
 62
7
 10
-2.31199164E+02
 20
-2.64497554E+01
 11
1.82000836E+02
 21
-2.64497554E+01
  0
LINE
  8
0
 62
7
 10
-2.31199164E+02
 20
-3.64497554E+01
 11
1.82000836E+02
 21
-3.64497554E+01
  0
TEXT
  8
0
 62
7
 10
-1.13410101E+02
 20
-3.45997555E+01
 40
6.30000019E+00
  1
25
 41
1.00000000E+00
  7
MONOTXT
  0
TEXT
  8
0
 62
7
 10
-1.35460101E+02
 20
-3.45997555E+01
 40
6.30000019E+00
  1
0
 41
1.00000000E+00
  7
MONOTXT
  0
TEXT
  8
0
 62
7
 10
-1.66960102E+02
 20
-3.45997555E+01
 40
6.30000019E+00
  1
-25
 41
1.00000000E+00
  7
MONOTXT
  0
LINE
  8
0
 62
7
 10
-2.31199164E+02
 20
1.35502446E+01
 11
1.82000836E+02
 21
1.35502446E+01
  0
TEXT
  8
0
 62
7
 10
-2.27360102E+02
 20
-1.45997555E+01
 40
6.30000019E+00
  1
  PLACE
 41
1.20689655E+00
  7
MONOTXT
  0
LINE
  8
0
 62
7
 10
-1.82599164E+02
 20
3.55024461E+00
 11
-1.70799164E+02
 21
-1.64497554E+01
  0
TEXT
  8
0
 62
7
 10
-2.03460101E+02
 20
-2.45997555E+01
 40
6.30000019E+00
  1
A
 41
1.00000000E+00
  7
MONOTXT
  0
TEXT
  8
0
 62
7
 10
-2.03460101E+02
 20
-3.45997555E+01
 40
6.30000019E+00
  1
B
 41
1.00000000E+00
  7
MONOTXT
  0
TEXT
  8
0
 62
7
 10
-7.43101028E+01
 20
1.74002445E+01
 40
6.30000019E+00
  1
STRETCH LIST
 41
1.05263158E+00
  7
MONOTXT
  0
TEXT
  8
0
 62
7
 10
1.56089898E+02
 20
1.74002445E+01
 40
6.30000019E+00
  1
(mm)
 41
1.00000000E+00
  7
MONOTXT
  0
TEXT
  8
0
 10
7.15496883E+01
 20
2.44478397E+02
 40
6.30000019E+00
  1
STRETCH LINE B
 41
1.09375016E+00
  7
MONOTXT
  0
LINE
  8
0
 62
7
 10
-2.11906452E+00
 20
-2.19707699E+02
 11
-6.42500305E+01
 21
-2.19707699E+02
  0
LINE
  8
0
 62
7
 10
1.43162730E+00
 20
-2.13557721E+02
 11
-6.42500305E+01
 21
-2.13557721E+02
  0
LINE
  8
0
 62
7
 10
9.40884862E-01
 20
-2.14407712E+02
 11
-6.42500000E+01
 21
-2.14407712E+02
  0
LINE
  8
0
 62
7
 10
-4.12499487E+01
 20
-8.97076995E+01
 11
-2.11903399E+00
 21
-8.97076995E+01
  0
LINE
  8
0
 62
7
 10
-4.12499487E+01
 20
-8.35577208E+01
 11
1.43165783E+00
 21
-8.35577208E+01
  0
LINE
  8
0
 62
7
 10
-4.12499487E+01
 20
-8.44077117E+01
 11
9.40915388E-01
 21
-8.44077117E+01
  0
LINE
  8
0
 62
7
 10
-1.23250000E+02
 20
-1.11737706E+02
 11
-1.20249969E+02
 21
-1.11737706E+02
  0
LINE
  8
0
 62
7
 10
-1.23250000E+02
 20
-9.93777056E+01
 11
-1.20249969E+02
 21
-9.93777056E+01
  0
LINE
  8
0
 62
2
 10
-1.29750000E+02
 20
-1.11737706E+02
 11
-1.23250000E+02
 21
-1.11737706E+02
  0
LINE
  8
0
 62
2
 10
-1.29750000E+02
 20
-9.93777056E+01
 11
-1.23250000E+02
 21
-9.93777056E+01
  0
LINE
  8
0
 62
2
 10
-1.43570035E+02
 20
-1.11737706E+02
 11
-1.37750000E+02
 21
-1.11737706E+02
  0
LINE
  8
0
 62
2
 10
-1.43569986E+02
 20
-9.93777056E+01
 11
-1.37750000E+02
 21
-9.93777056E+01
  0
LINE
  8
0
 62
2
 10
-1.29750031E+02
 20
-2.29377713E+02
 11
-1.23250031E+02
 21
-2.29377713E+02
  0
LINE
  8
0
 62
7
 10
-1.29750031E+02
 20
-2.28557721E+02
 11
-1.23250031E+02
 21
-2.28557721E+02
  0
LINE
  8
0
 62
7
 10
-1.29750000E+02
 20
-1.12557736E+02
 11
-1.23250000E+02
 21
-1.12557736E+02
  0
LINE
  8
0
 62
7
 10
-1.29750000E+02
 20
-9.85577056E+01
 11
-1.23250000E+02
 21
-9.85577056E+01
  0
LINE
  8
0
 62
4
 10
-2.22750000E+02
 20
-2.29206853E+02
 11
-2.33750000E+02
 21
-2.22856000E+02
  0
LINE
  8
0
 62
4
 10
-2.22750000E+02
 20
-2.35557706E+02
 11
-2.22750000E+02
 21
-2.29206853E+02
  0
LINE
  8
0
 62
4
 10
-2.44750000E+02
 20
-2.29206853E+02
 11
-2.44750000E+02
 21
-2.35557706E+02
  0
LINE
  8
0
 62
4
 10
-2.33750000E+02
 20
-2.22856000E+02
 11
-2.44750000E+02
 21
-2.29206853E+02
  0
ARC
  8
0
 62
4
 10
-2.33750000E+02
 20
-2.35557706E+02
 40
1.10000000E+01
 50
0.00000000E+00
 51
1.80000000E+02
  0
ARC
  8
0
 62
7
 10
-2.33750000E+02
 20
-2.35557706E+02
 40
5.50000000E+00
 50
0.00000000E+00
 51
1.80000000E+02
  0
ARC
  8
0
 62
4
 10
-1.50767550E+02
 20
-2.35557706E+02
 40
2.10175199E+01
 50
1.22042667E-07
 51
1.75879537E+01
  0
ARC
  8
0
 62
4
 10
-1.35372841E+02
 20
-2.26031426E+02
 40
5.62281003E+00
 50
3.25615753E+02
 51
3.43842476E+01
  0
ARC
  8
0
 62
4
 10
-1.16732511E+02
 20
-2.35557706E+02
 40
2.10175199E+01
 50
1.62412046E+02
 51
1.80000000E+02
  0
ARC
  8
0
 62
4
 10
-1.32127220E+02
 20
-2.26031426E+02
 40
5.62281003E+00
 50
1.45615752E+02
 51
2.14384247E+02
  0
LINE
  8
0
 62
4
 10
-1.29750031E+02
 20
-2.24557706E+02
 11
-1.30732511E+02
 21
-2.22856000E+02
  0
LINE
  8
0
 62
4
 10
-1.37750031E+02
 20
-2.24557706E+02
 11
-1.36767550E+02
 21
-2.22856000E+02
  0
LINE
  8
0
 62
4
 10
-1.29750031E+02
 20
-2.35557706E+02
 11
-1.29750031E+02
 21
-2.24557706E+02
  0
LINE
  8
0
 62
4
 10
-1.37750031E+02
 20
-2.35557706E+02
 11
-1.37750031E+02
 21
-2.24557706E+02
  0
LINE
  8
0
 62
4
 10
-1.36767550E+02
 20
-2.29206853E+02
 11
-1.30732511E+02
 21
-2.29206853E+02
  0
LINE
  8
0
 62
4
 10
-1.36767550E+02
 20
-2.22856000E+02
 11
-1.30732511E+02
 21
-2.22856000E+02
  0
ARC
  8
0
 62
4
 10
-1.21864053E+02
 20
-1.11057706E+02
 40
1.58859473E+01
 50
1.59743839E+02
 51
2.00256161E+02
  0
ARC
  8
0
 62
4
 10
-1.21864053E+02
 20
-1.00057706E+02
 40
1.58859474E+01
 50
1.59743839E+02
 51
2.00256161E+02
  0
ARC
  8
0
 62
4
 10
-1.45635950E+02
 20
-1.00057706E+02
 40
1.58859499E+01
 50
3.39743842E+02
 51
2.02561578E+01
  0
ARC
  8
0
 62
4
 10
-1.45635950E+02
 20
-1.11057706E+02
 40
1.58859499E+01
 50
3.39743842E+02
 51
2.02561578E+01
  0
LINE
  8
0
 62
4
 10
-1.37750000E+02
 20
-1.16557706E+02
 11
-1.29750000E+02
 21
-1.16557706E+02
  0
LINE
  8
0
 62
4
 10
-1.37750000E+02
 20
-9.45577056E+01
 11
-1.29750000E+02
 21
-9.45577056E+01
  0
LINE
  8
0
 62
4
 10
-1.36767520E+02
 20
-1.05557706E+02
 11
-1.30732480E+02
 21
-1.05557706E+02
  0
LINE
  8
0
 62
4
 10
-1.37750000E+02
 20
-1.16557706E+02
 11
-1.37750000E+02
 21
-9.45577056E+01
  0
LINE
  8
0
 62
4
 10
-1.29750000E+02
 20
-1.16557706E+02
 11
-1.29750000E+02
 21
-9.45577056E+01
  0
ARC
  8
0
 62
7
 10
-1.09750061E+02
 20
-2.21057706E+02
 40
5.00000000E-01
 50
8.99999818E+01
 51
1.79999964E+02
  0
ARC
  8
0
 62
7
 10
-9.67500305E+01
 20
-2.20057706E+02
 40
5.00000000E-01
 50
8.99999818E+01
 51
1.79999964E+02
  0
ARC
  8
0
 62
7
 10
-1.05000031E+02
 20
-2.20549100E+02
 40
2.50000000E-01
 50
9.20007356E+01
 51
1.79999964E+02
  0
ARC
  8
0
 62
7
 10
-1.20250031E+02
 20
-2.35557706E+02
 40
8.00000000E+00
 50
0.00000000E+00
 51
2.89550399E+01
  0
ARC
  8
0
 62
2
 10
-2.33750000E+02
 20
-2.35557706E+02
 40
6.17999268E+00
 50
0.00000000E+00
 51
1.80000000E+02
  0
ARC
  8
0
 62
7
 10
-2.33750000E+02
 20
-2.35557706E+02
 40
6.99998474E+00
 50
0.00000000E+00
 51
1.80000000E+02
  0
CIRCLE
  8
0
 62
7
 10
-6.97499847E+01
 20
-1.15557706E+02
 40
2.09999990E+00
  0
CIRCLE
  8
0
 62
2
 10
-2.15249939E+02
 20
-2.17057629E+02
 40
3.00000000E+00
  0
CIRCLE
  8
0
 62
2
 10
-2.52250000E+02
 20
-2.17057629E+02
 40
3.00000000E+00
  0
ARC
  8
0
 62
2
 10
-7.72500000E+01
 20
-1.01557767E+02
 40
6.57849979E+00
 50
7.68192768E+01
 51
3.35950142E+02
  0
ARC
  8
0
 62
7
 10
-2.33750000E+02
 20
-2.35557706E+02
 40
1.50000000E+01
 50
0.00000000E+00
 51
1.80000000E+02
  0
ARC
  8
0
 62
7
 10
-2.33750000E+02
 20
-2.35557706E+02
 40
1.55000010E+01
 50
0.00000000E+00
 51
1.80000000E+02
  0
ARC
  8
0
 62
7
 10
-2.33750000E+02
 20
-2.35557706E+02
 40
1.60000000E+01
 50
0.00000000E+00
 51
1.80000000E+02
  0
ARC
  8
0
 62
7
 10
-2.44391418E+02
 20
-2.18555142E+02
 40
1.00000000E+00
 50
8.79747829E+01
 51
1.69211502E+02
  0
ARC
  8
0
 62
7
 10
-2.38750061E+02
 20
-2.14557675E+02
 40
1.00000000E+00
 50
8.99999818E+01
 51
1.79999964E+02
  0
ARC
  8
0
 62
7
 10
-2.50752502E+02
 20
-2.24916241E+02
 40
1.00000000E+00
 50
1.00789058E+02
 51
1.82026085E+02
  0
ARC
  8
0
 62
7
 10
-2.54750000E+02
 20
-2.30557675E+02
 40
1.00000000E+00
 50
8.99999818E+01
 51
1.79999964E+02
  0
ARC
  8
0
 62
7
 10
-2.42750061E+02
 20
-2.14557645E+02
 40
3.00000000E+00
 50
2.67974177E+02
 51
3.59999417E+02
  0
ARC
  8
0
 62
7
 10
-2.54750000E+02
 20
-2.26557675E+02
 40
3.00000000E+00
 50
2.70000018E+02
 51
0.00000000E+00
  0
ARC
  8
0
 62
7
 10
-2.50631958E+02
 20
-2.33557706E+02
 40
1.00000000E+00
 50
2.69999963E+02
 51
3.53243768E+02
  0
ARC
  8
0
 62
7
 10
-2.47101562E+02
 20
-2.25034543E+02
 40
1.00000000E+00
 50
3.21755790E+02
 51
4.49993763E+01
  0
ARC
  8
0
 62
7
 10
-2.44273132E+02
 20
-2.22206113E+02
 40
1.00000000E+00
 50
2.24999972E+02
 51
3.08243613E+02
  0
ARC
  8
0
 62
7
 10
-2.35750000E+02
 20
-2.18675748E+02
 40
1.00000000E+00
 50
2.76756086E+02
 51
3.59999959E+02
  0
ARC
  8
0
 62
7
 10
-2.48187012E+02
 20
-2.23949093E+02
 40
1.00000000E+00
 50
4.50006194E+01
 51
1.20522431E+02
  0
ARC
  8
0
 62
7
 10
-2.52250000E+02
 20
-2.17057645E+02
 40
7.00000000E+00
 50
2.80788623E+02
 51
3.49211279E+02
  0
ARC
  8
0
 62
7
 10
-2.45358582E+02
 20
-2.21120663E+02
 40
1.00000000E+00
 50
1.49477747E+02
 51
2.24999340E+02
  0
ARC
  8
0
 62
7
 10
-2.35750000E+02
 20
-2.14557706E+02
 40
1.00000000E+00
 50
3.59999959E+02
 51
8.99999956E+01
  0
ARC
  8
0
 62
7
 10
-2.54750000E+02
 20
-2.33557706E+02
 40
1.00000000E+00
 50
1.79999964E+02
 51
2.69999946E+02
  0
CIRCLE
  8
0
 62
7
 10
-2.52250000E+02
 20
-2.17057645E+02
 40
5.00000000E+00
  0
CIRCLE
  8
0
 62
7
 10
-2.52250000E+02
 20
-2.17057645E+02
 40
4.50000000E+00
  0
ARC
  8
0
 62
7
 10
-2.55750061E+02
 20
-2.13557675E+02
 40
3.00000000E+00
 50
8.99999818E+01
 51
1.79999964E+02
  0
ARC
  8
0
 62
7
 10
-2.55750000E+02
 20
-2.13557675E+02
 40
2.50000000E+00
 50
8.99999818E+01
 51
1.79999964E+02
  0
ARC
  8
0
 62
7
 10
-2.28750000E+02
 20
-2.14557675E+02
 40
1.00000000E+00
 50
0.00000000E+00
 51
8.99999818E+01
  0
ARC
  8
0
 62
7
 10
-2.24750000E+02
 20
-2.14557645E+02
 40
3.00000000E+00
 50
1.80000569E+02
 51
2.72025811E+02
  0
ARC
  8
0
 62
7
 10
-2.23108582E+02
 20
-2.18555142E+02
 40
1.00000000E+00
 50
1.07884614E+01
 51
9.20251808E+01
  0
ARC
  8
0
 62
7
 10
-2.15250000E+02
 20
-2.17057645E+02
 40
7.00000000E+00
 50
1.90788702E+02
 51
2.59211358E+02
  0
ARC
  8
0
 62
7
 10
-2.16747498E+02
 20
-2.24916241E+02
 40
1.00000000E+00
 50
3.57973879E+02
 51
7.92109058E+01
  0
ARC
  8
0
 62
7
 10
-2.12750000E+02
 20
-2.26557675E+02
 40
3.00000000E+00
 50
1.77973583E+02
 51
2.69999946E+02
  0
ARC
  8
0
 62
7
 10
-2.12750000E+02
 20
-2.30557675E+02
 40
1.00000000E+00
 50
0.00000000E+00
 51
8.99999818E+01
  0
ARC
  8
0
 62
7
 10
-2.11750000E+02
 20
-2.13557675E+02
 40
3.00000000E+00
 50
0.00000000E+00
 51
8.99999818E+01
  0
ARC
  8
0
 62
7
 10
-2.23226868E+02
 20
-2.22206189E+02
 40
1.00000000E+00
 50
2.31755794E+02
 51
3.14999380E+02
  0
ARC
  8
0
 62
7
 10
-2.20398438E+02
 20
-2.25034619E+02
 40
1.00000000E+00
 50
1.34999959E+02
 51
2.18243614E+02
  0
ARC
  8
0
 62
7
 10
-2.31750000E+02
 20
-2.18675763E+02
 40
1.00000000E+00
 50
1.79999964E+02
 51
2.63243741E+02
  0
ARC
  8
0
 62
7
 10
-2.31750000E+02
 20
-2.14557706E+02
 40
1.00000000E+00
 50
8.99999818E+01
 51
1.79999964E+02
  0
ARC
  8
0
 62
7
 10
-2.19312988E+02
 20
-2.23949139E+02
 40
1.00000000E+00
 50
5.94777518E+01
 51
1.34999345E+02
  0
ARC
  8
0
 62
7
 10
-2.16868042E+02
 20
-2.33557706E+02
 40
1.00000000E+00
 50
1.86756090E+02
 51
2.69999963E+02
  0
ARC
  8
0
 62
7
 10
-2.12750000E+02
 20
-2.33557706E+02
 40
1.00000000E+00
 50
2.69999963E+02
 51
0.00000000E+00
  0
ARC
  8
0
 62
7
 10
-2.22141418E+02
 20
-2.21120724E+02
 40
1.00000000E+00
 50
3.15000624E+02
 51
3.05224488E+01
  0
CIRCLE
  8
0
 62
7
 10
-2.15249939E+02
 20
-2.17057706E+02
 40
4.50000000E+00
  0
CIRCLE
  8
0
 62
7
 10
-2.15249939E+02
 20
-2.17057706E+02
 40
5.00000000E+00
  0
ARC
  8
0
 62
7
 10
-2.11750000E+02
 20
-2.13557736E+02
 40
2.50000000E+00
 50
0.00000000E+00
 51
8.99999818E+01
  0
ARC
  8
0
 62
7
 10
-7.72500000E+01
 20
-1.01557767E+02
 40
5.65999985E+00
 50
7.46314587E+01
 51
3.31727516E+02
  0
ARC
  8
0
 62
7
 10
-8.82499542E+01
 20
-1.23557706E+02
 40
2.00000000E+00
 50
1.79999981E+02
 51
2.70000018E+02
  0
ARC
  8
0
 62
7
 10
-8.82499542E+01
 20
-8.75577056E+01
 40
2.00000000E+00
 50
8.99999818E+01
 51
1.79999964E+02
  0
ARC
  8
0
 62
7
 10
-7.72500000E+01
 20
-1.01557767E+02
 40
7.00000000E+00
 50
7.76259453E+01
 51
3.45167056E+02
  0
ARC
  8
0
 62
7
 10
-9.47500000E+01
 20
-1.29525235E+02
 40
5.00000000E-01
 50
1.80000005E+02
 51
2.68999788E+02
  0
ARC
  8
0
 62
7
 10
-9.47500000E+01
 20
-8.15901763E+01
 40
5.00000000E-01
 50
9.10002155E+01
 51
1.80000005E+02
  0
ARC
  8
0
 62
7
 10
-1.05000000E+02
 20
-9.05490996E+01
 40
2.50000000E-01
 50
9.20007768E+01
 51
1.79999991E+02
  0
ARC
  8
0
 62
7
 10
-9.67500000E+01
 20
-9.00577056E+01
 40
5.00000000E-01
 50
9.00000231E+01
 51
1.80000005E+02
  0
ARC
  8
0
 62
7
 10
-1.09750031E+02
 20
-9.10577056E+01
 40
5.00000000E-01
 50
9.00000231E+01
 51
1.80000005E+02
  0
ARC
  8
0
 62
7
 10
-1.05000000E+02
 20
-1.20566312E+02
 40
2.50000000E-01
 50
1.80000005E+02
 51
2.67999220E+02
  0
ARC
  8
0
 62
7
 10
-9.67500000E+01
 20
-1.21057706E+02
 40
5.00000000E-01
 50
1.80000005E+02
 51
2.70000001E+02
  0
ARC
  8
0
 62
7
 10
-1.09750031E+02
 20
-1.20057706E+02
 40
5.00000000E-01
 50
1.80000005E+02
 51
2.70000001E+02
  0
CIRCLE
  8
0
 62
7
 10
-6.97499847E+01
 20
-1.15557706E+02
 40
4.00000000E+00
  0
LINE
  8
0
 62
7
 10
-1.23250031E+02
 20
-2.29377713E+02
 11
-1.20250031E+02
 21
-2.29377713E+02
  0
LINE
  8
0
 62
7
 10
-1.17250032E+02
 20
-2.27557686E+02
 11
-1.20250037E+02
 21
-2.28557718E+02
  0
LINE
  8
0
 62
7
 10
-1.20250031E+02
 20
-2.35557704E+02
 11
-1.17250030E+02
 21
-2.31684717E+02
  0
LINE
  8
0
 62
7
 10
-1.44249998E+02
 20
-1.00057704E+02
 11
-1.42749968E+02
 21
-9.85577040E+01
  0
LINE
  8
0
 62
7
 10
-1.44250017E+02
 20
-1.11057724E+02
 11
-1.42750004E+02
 21
-1.12557737E+02
  0
LINE
  8
0
 62
7
 10
-1.42750000E+02
 20
-1.12557736E+02
 11
-1.42750000E+02
 21
-9.85577056E+01
  0
LINE
  8
0
  6
CENTER
 62
2
 10
-7.72500305E+01
 20
-2.08805340E+02
 11
-7.72500305E+01
 21
-2.19985943E+02
  0
LINE
  8
0
  6
CENTER
 62
2
 10
-2.37750061E+02
 20
-2.08805310E+02
 11
-2.37750061E+02
 21
-2.19985913E+02
  0
LINE
  8
0
 62
7
 10
-9.02500305E+01
 20
-2.11212308E+02
 11
-9.02500305E+01
 21
-2.10557706E+02
  0
LINE
  8
0
 62
7
 10
-9.52500951E+01
 20
-2.11343280E+02
 11
-6.42500708E+01
 21
-2.10531516E+02
  0
LINE
  8
0
 62
7
 10
-9.02500305E+01
 20
-2.10557706E+02
 11
-6.42500305E+01
 21
-2.10557706E+02
  0
LINE
  8
0
 62
7
 10
-9.67500305E+01
 20
-2.19557706E+02
 11
-9.52500305E+01
 21
-2.19557706E+02
  0
LINE
  8
0
 62
7
 10
-1.17250031E+02
 20
-2.27557690E+02
 11
-1.10250046E+02
 21
-2.27557690E+02
  0
LINE
  8
0
 62
7
 10
-1.05008758E+02
 20
-2.20299223E+02
 11
-9.72491747E+01
 21
-2.20028252E+02
  0
LINE
  8
0
 62
7
 10
-1.09750061E+02
 20
-2.20557675E+02
 11
-1.05241089E+02
 21
-2.20557675E+02
  0
LINE
  8
0
  6
CENTER
 62
2
 10
-5.89089827E-01
 20
-2.17057706E+02
 11
-9.73534546E+01
 21
-2.17057706E+02
  0
LINE
  8
0
 62
2
 10
-1.18634634E+02
 20
-2.33472241E+02
 11
-1.16750010E+02
 21
-2.35557706E+02
  0
LINE
  8
0
 62
2
 10
-1.16750012E+02
 20
-2.35557706E+02
 11
-1.13250013E+02
 21
-2.31684721E+02
  0
LINE
  8
0
 62
7
 10
-1.17250015E+02
 20
-2.31684720E+02
 11
-1.13250031E+02
 21
-2.31684720E+02
  0
LINE
  8
0
 62
7
 10
-1.44249912E+02
 20
-2.30057810E+02
 11
-1.42749965E+02
 21
-2.28557818E+02
  0
LINE
  8
0
 62
7
 10
-1.23250031E+02
 20
-2.28557721E+02
 11
-1.23250031E+02
 21
-2.35557706E+02
  0
LINE
  8
0
 62
7
 10
-1.42750000E+02
 20
-2.28557721E+02
 11
-1.42750000E+02
 21
-2.35557706E+02
  0
LINE
  8
0
 62
2
 10
-1.43569946E+02
 20
-2.29377713E+02
 11
-1.37750031E+02
 21
-2.29377713E+02
  0
LINE
  8
0
 62
7
 10
-1.42750000E+02
 20
-2.28557721E+02
 11
-1.37750031E+02
 21
-2.28557721E+02
  0
LINE
  8
0
 62
7
 10
-1.44250000E+02
 20
-2.35557706E+02
 11
-1.44250000E+02
 21
-2.30057721E+02
  0
LINE
  8
0
 62
7
 10
-1.17249969E+02
 20
-9.85577056E+01
 11
-1.17249969E+02
 21
-1.12557736E+02
  0
LINE
  8
0
 62
7
 10
-1.13249976E+02
 20
-1.12557690E+02
 11
-1.12249953E+02
 21
-1.13557712E+02
  0
LINE
  8
0
 62
7
 10
-1.13250012E+02
 20
-9.85576641E+01
 11
-1.12250062E+02
 21
-9.75577143E+01
  0
LINE
  8
0
 62
7
 10
-1.13250031E+02
 20
-2.35557706E+02
 11
-1.13250031E+02
 21
-2.31684720E+02
  0
LINE
  8
0
 62
7
 10
-1.17250031E+02
 20
-2.31684720E+02
 11
-1.17250031E+02
 21
-2.27557736E+02
  0
LINE
  8
0
 62
7
 10
-1.20250031E+02
 20
-2.35557706E+02
 11
-1.20250031E+02
 21
-2.28557721E+02
  0
LINE
  8
0
 62
7
 10
-6.42499542E+01
 20
-8.35577208E+01
 11
-5.62499487E+01
 21
-8.35577208E+01
  0
LINE
  8
0
 62
7
 10
-6.42499542E+01
 20
-8.44077117E+01
 11
-5.62499487E+01
 21
-8.44077117E+01
  0
LINE
  8
0
 62
7
 10
-6.42499542E+01
 20
-8.97076995E+01
 11
-5.62499487E+01
 21
-8.97076995E+01
  0
LINE
  8
0
  6
CENTER
 62
2
 10
-9.74769745E+01
 20
-8.70577056E+01
 11
-5.62499487E+01
 21
-8.70577056E+01
  0
LINE
  8
0
 62
7
 10
-6.42499542E+01
 20
-1.27557690E+02
 11
-2.39717364E+01
 21
-1.27557690E+02
  0
LINE
  8
0
 62
7
 10
-6.42499542E+01
 20
-1.26707699E+02
 11
-2.34809940E+01
 21
-1.26707699E+02
  0
LINE
  8
0
 62
7
 10
-6.42499542E+01
 20
-1.21407712E+02
 11
-2.04210446E+01
 21
-1.21407712E+02
  0
LINE
  8
0
  6
CENTER
 62
2
 10
-9.74769745E+01
 20
-1.24057706E+02
 11
-2.19510193E+01
 21
-1.24057706E+02
  0
LINE
  8
0
 62
7
 10
-6.83064896E+01
 20
-1.15557735E+02
 11
-6.90281776E+01
 21
-1.16807752E+02
  0
LINE
  8
0
 62
7
 10
-6.90282898E+01
 20
-1.16807675E+02
 11
-7.04716797E+01
 21
-1.16807675E+02
  0
LINE
  8
0
 62
7
 10
-7.04716458E+01
 20
-1.16807679E+02
 11
-7.11933490E+01
 21
-1.15557636E+02
  0
LINE
  8
0
 62
7
 10
-7.11932780E+01
 20
-1.15557694E+02
 11
-7.04715901E+01
 21
-1.14307677E+02
  0
LINE
  8
0
 62
7
 10
-6.90282898E+01
 20
-1.14307645E+02
 11
-7.04716797E+01
 21
-1.14307645E+02
  0
LINE
  8
0
 62
7
 10
-6.83066211E+01
 20
-1.15557612E+02
 11
-6.90282938E+01
 21
-1.14307622E+02
  0
LINE
  8
0
 62
7
 10
-1.20249969E+02
 20
-1.12557736E+02
 11
-1.13249924E+02
 21
-1.12557736E+02
  0
LINE
  8
0
 62
7
 10
-1.42750000E+02
 20
-1.12557736E+02
 11
-1.37750000E+02
 21
-1.12557736E+02
  0
LINE
  8
0
 62
7
 10
-1.20249969E+02
 20
-9.85577056E+01
 11
-1.13250000E+02
 21
-9.85577056E+01
  0
LINE
  8
0
 62
7
 10
-1.23250000E+02
 20
-1.12557736E+02
 11
-1.23250000E+02
 21
-9.85577056E+01
  0
LINE
  8
0
 62
7
 10
-1.42749969E+02
 20
-9.85577056E+01
 11
-1.37750000E+02
 21
-9.85577056E+01
  0
LINE
  8
0
 62
7
 10
-1.44250000E+02
 20
-1.11057736E+02
 11
-1.44250000E+02
 21
-1.00057706E+02
  0
LINE
  8
0
 62
7
 10
-1.20249969E+02
 20
-9.85577056E+01
 11
-1.20249969E+02
 21
-1.12557736E+02
  0
LINE
  8
0
 62
7
 10
-1.12249939E+02
 20
-1.13557721E+02
 11
-1.10249969E+02
 21
-1.13557721E+02
  0
LINE
  8
0
 62
7
 10
-1.12250031E+02
 20
-9.75577361E+01
 11
-1.10249954E+02
 21
-9.75577361E+01
  0
LINE
  8
0
 62
7
 10
-2.23136963E+02
 20
-2.17528515E+02
 11
-2.25167053E+02
 21
-2.17528515E+02
  0
LINE
  8
0
 62
7
 10
-9.52500305E+01
 20
-2.11343274E+02
 11
-9.52500305E+01
 21
-2.35557706E+02
  0
LINE
  8
0
 62
7
 10
-6.42500305E+01
 20
-2.10557706E+02
 11
-6.42500305E+01
 21
-2.35557706E+02
  0
LINE
  8
0
 62
7
 10
-1.05250031E+02
 20
-2.35557706E+02
 11
-1.05250031E+02
 21
-2.20549100E+02
  0
LINE
  8
0
 62
7
 10
-9.72500305E+01
 20
-2.20057706E+02
 11
-9.72500305E+01
 21
-2.35557706E+02
  0
LINE
  8
0
  6
CENTER
 62
2
 10
-2.04777679E+02
 20
-2.35557706E+02
 11
-2.63453796E+02
 21
-2.35557706E+02
  0
LINE
  8
0
  6
CENTER
 62
2
 10
-2.21631409E+02
 20
-2.17057629E+02
 11
-2.07109741E+02
 21
-2.17057629E+02
  0
LINE
  8
0
 62
7
 10
-2.51750000E+02
 20
-2.24845547E+02
 11
-2.51750000E+02
 21
-2.26807675E+02
  0
LINE
  8
0
 62
7
 10
-2.44461731E+02
 20
-2.17557614E+02
 11
-2.42500061E+02
 21
-2.17557614E+02
  0
LINE
  8
0
 62
7
 10
-2.15749939E+02
 20
-2.24846402E+02
 11
-2.15749939E+02
 21
-2.26807675E+02
  0
LINE
  8
0
 62
7
 10
-2.13750000E+02
 20
-2.10557675E+02
 11
-2.13750000E+02
 21
-2.11057736E+02
  0
LINE
  8
0
 62
7
 10
-2.53750000E+02
 20
-2.10557675E+02
 11
-2.53750000E+02
 21
-2.11057675E+02
  0
LINE
  8
0
  6
CENTER
 62
2
 10
-2.33750000E+02
 20
-2.07062710E+02
 11
-2.33750000E+02
 21
-2.35557706E+02
  0
LINE
  8
0
 62
7
 10
-2.55750000E+02
 20
-2.30557675E+02
 11
-2.55750000E+02
 21
-2.35557706E+02
  0
LINE
  8
0
 62
7
 10
-2.46065777E+02
 20
-2.21827750E+02
 11
-2.44980300E+02
 21
-2.22913226E+02
  0
LINE
  8
0
 62
7
 10
-2.47479947E+02
 20
-2.23242007E+02
 11
-2.46394471E+02
 21
-2.24327483E+02
  0
LINE
  8
0
 62
7
 10
-2.54750000E+02
 20
-2.34557690E+02
 11
-2.50631958E+02
 21
-2.34557690E+02
  0
LINE
  8
0
 62
7
 10
-2.34750000E+02
 20
-2.14557706E+02
 11
-2.34750000E+02
 21
-2.18675748E+02
  0
LINE
  8
0
 62
7
 10
-2.55750000E+02
 20
-2.11057675E+02
 11
-2.11750000E+02
 21
-2.11057736E+02
  0
LINE
  8
0
 62
7
 10
-2.58250000E+02
 20
-2.13557675E+02
 11
-2.58250000E+02
 21
-2.35557706E+02
  0
LINE
  8
0
 62
7
 10
-2.58750061E+02
 20
-2.13557675E+02
 11
-2.58750061E+02
 21
-2.35557706E+02
  0
LINE
  8
0
  6
CENTER
 62
2
 10
-2.52250000E+02
 20
-2.08655057E+02
 11
-2.52250000E+02
 21
-2.24942044E+02
  0
LINE
  8
0
  6
CENTER
 62
2
 10
-2.60839905E+02
 20
-2.17057629E+02
 11
-2.46173035E+02
 21
-2.17057629E+02
  0
LINE
  8
0
 62
7
 10
-2.38750061E+02
 20
-2.13557675E+02
 11
-2.28750000E+02
 21
-2.13557675E+02
  0
LINE
  8
0
 62
7
 10
-2.11750000E+02
 20
-2.30557675E+02
 11
-2.11750000E+02
 21
-2.35557706E+02
  0
LINE
  8
0
 62
7
 10
-2.21434361E+02
 20
-2.21827716E+02
 11
-2.22519827E+02
 21
-2.22913182E+02
  0
LINE
  8
0
 62
7
 10
-2.32750000E+02
 20
-2.14557706E+02
 11
-2.32750000E+02
 21
-2.18675763E+02
  0
LINE
  8
0
 62
7
 10
-2.20020202E+02
 20
-2.23241897E+02
 11
-2.21105678E+02
 21
-2.24327374E+02
  0
LINE
  8
0
 62
7
 10
-2.12750000E+02
 20
-2.34557706E+02
 11
-2.16868042E+02
 21
-2.34557706E+02
  0
LINE
  8
0
 62
7
 10
-2.09250000E+02
 20
-2.13557736E+02
 11
-2.09250000E+02
 21
-2.35557706E+02
  0
LINE
  8
0
 62
7
 10
-2.55750061E+02
 20
-2.10557675E+02
 11
-2.11750000E+02
 21
-2.10557675E+02
  0
LINE
  8
0
 62
7
 10
-2.08750000E+02
 20
-2.13557675E+02
 11
-2.08750000E+02
 21
-2.35557706E+02
  0
LINE
  8
0
  6
CENTER
 62
2
 10
-2.15249939E+02
 20
-2.08551053E+02
 11
-2.15249939E+02
 21
-2.23472195E+02
  0
LINE
  8
0
 62
7
 10
-1.10250031E+02
 20
-2.35557706E+02
 11
-1.10250031E+02
 21
-2.21057706E+02
  0
LINE
  8
0
  6
CENTER
 62
2
 10
-1.47487244E+02
 20
-2.35557706E+02
 11
-1.12700698E+01
 21
-2.35557706E+02
  0
LINE
  8
0
 62
7
 10
-9.02499542E+01
 20
-8.75577056E+01
 11
-9.02499542E+01
 21
-1.23557706E+02
  0
LINE
  8
0
 62
7
 10
-8.82499542E+01
 20
-1.25557706E+02
 11
-6.42499542E+01
 21
-1.25557706E+02
  0
LINE
  8
0
 62
7
 10
-8.82499542E+01
 20
-8.55577056E+01
 11
-6.42499542E+01
 21
-8.55577056E+01
  0
LINE
  8
0
  6
CENTER
 62
2
 10
-7.54465942E+01
 20
-1.15557706E+02
 11
-6.38311005E+01
 21
-1.15557706E+02
  0
LINE
  8
0
 62
7
 10
-6.42499481E+01
 20
-1.30557574E+02
 11
-9.47586984E+01
 21
-1.30025038E+02
  0
LINE
  8
0
 62
7
 10
-6.42500219E+01
 20
-8.05576358E+01
 11
-9.47587418E+01
 21
-8.10901628E+01
  0
LINE
  8
0
 62
7
 10
-9.72499542E+01
 20
-9.00577056E+01
 11
-9.72499542E+01
 21
-1.21087125E+02
  0
LINE
  8
0
 62
7
 10
-1.05249954E+02
 20
-9.05576750E+01
 11
-1.05249954E+02
 21
-1.20557736E+02
  0
LINE
  8
0
 62
7
 10
-1.05008731E+02
 20
-9.02991560E+01
 11
-9.72491479E+01
 21
-9.00281866E+01
  0
LINE
  8
0
 62
7
 10
-9.52499542E+01
 20
-1.29525235E+02
 11
-9.52499542E+01
 21
-8.15901763E+01
  0
LINE
  8
0
 62
7
 10
-6.42499542E+01
 20
-1.30557706E+02
 11
-6.42499542E+01
 21
-1.04099778E+02
  0
LINE
  8
0
 62
7
 10
-9.67500000E+01
 20
-8.95576750E+01
 11
-9.52500000E+01
 21
-8.95576750E+01
  0
LINE
  8
0
 62
7
 10
-1.09750031E+02
 20
-9.05576445E+01
 11
-1.05241058E+02
 21
-9.05576445E+01
  0
LINE
  8
0
 62
7
 10
-1.10249954E+02
 20
-1.20057706E+02
 11
-1.10249954E+02
 21
-9.10577056E+01
  0
LINE
  8
0
 62
7
 10
-1.05008766E+02
 20
-1.20816065E+02
 11
-9.72491832E+01
 21
-1.21087037E+02
  0
LINE
  8
0
 62
7
 10
-9.67500000E+01
 20
-1.21557675E+02
 11
-9.52500000E+01
 21
-1.21557675E+02
  0
LINE
  8
0
 62
7
 10
-1.09750031E+02
 20
-1.20557706E+02
 11
-1.05241058E+02
 21
-1.20557706E+02
  0
LINE
  8
0
  6
CENTER
 62
2
 10
-6.97499847E+01
 20
-1.21477414E+02
 11
-6.97499847E+01
 21
-1.09952786E+02
  0
LINE
  8
0
  6
CENTER
 62
2
 10
-8.73667145E+01
 20
-1.01557767E+02
 11
-7.57499487E+01
 21
-1.01557767E+02
  0
LINE
  8
0
  6
CENTER
 62
2
 10
-7.72500000E+01
 20
-1.11573575E+02
 11
-7.72500000E+01
 21
-9.14135405E+01
  0
LINE
  8
0
  6
CENTER
 62
2
 10
-1.47883850E+02
 20
-1.05557706E+02
 11
-6.07499487E+01
 21
-1.05557706E+02
  0
LINE
  8
0
 62
7
 10
-6.42499542E+01
 20
-9.00997780E+01
 11
-6.42499542E+01
 21
-8.05577056E+01
  0
LINE
  8
0
  6
CENTER
 62
2
 10
-2.17499487E+01
 20
-1.05557706E+02
 11
-1.12700393E+01
 21
-1.05557706E+02
  0
LINE
  8
0
  6
CENTER
 62
2
 10
-4.12499487E+01
 20
-8.70577056E+01
 11
-5.89059301E-01
 21
-8.70577056E+01
  0
LINE
  8
0
 62
2
 10
-2.87754678E+01
 20
-1.35877997E+02
 11
3.34776811E+00
 21
-8.02389204E+01
  0
LINE
  8
0
 62
7
 10
2.88425860E+02
 20
-2.11343280E+02
 11
2.57425836E+02
 21
-2.10531516E+02
  0
LINE
  8
0
 62
7
 10
2.83425796E+02
 20
-2.10557706E+02
 11
2.57425796E+02
 21
-2.10557706E+02
  0
LINE
  8
0
  6
CENTER
 62
2
 10
1.89723421E+02
 20
-2.17057706E+02
 11
2.90529220E+02
 21
-2.17057706E+02
  0
LINE
  8
0
  6
CENTER
 62
2
 10
3.40663009E+02
 20
-2.35557706E+02
 11
1.79042441E+02
 21
-2.35557706E+02
  0
LINE
  8
0
 62
7
 10
3.03425796E+02
 20
-2.35557706E+02
 11
3.03425796E+02
 21
-2.21057706E+02
  0
LINE
  8
0
 62
7
 10
2.90425796E+02
 20
-2.20057706E+02
 11
2.90425796E+02
 21
-2.35557706E+02
  0
LINE
  8
0
 62
7
 10
2.98425796E+02
 20
-2.35557706E+02
 11
2.98425796E+02
 21
-2.20549100E+02
  0
LINE
  8
0
 62
7
 10
2.88425796E+02
 20
-2.11343274E+02
 11
2.88425796E+02
 21
-2.35557706E+02
  0
LINE
  8
0
 62
7
 10
3.13425796E+02
 20
-2.35557706E+02
 11
3.13425796E+02
 21
-2.28557721E+02
  0
LINE
  8
0
 62
7
 10
3.10425796E+02
 20
-2.31684720E+02
 11
3.10425796E+02
 21
-2.27557736E+02
  0
LINE
  8
0
 62
7
 10
3.06425796E+02
 20
-2.35557706E+02
 11
3.06425796E+02
 21
-2.31684720E+02
  0
LINE
  8
0
 62
7
 10
3.37425765E+02
 20
-2.35557706E+02
 11
3.37425765E+02
 21
-2.30057721E+02
  0
LINE
  8
0
 62
7
 10
3.35925765E+02
 20
-2.28557721E+02
 11
3.30925796E+02
 21
-2.28557721E+02
  0
LINE
  8
0
 62
2
 10
3.36745712E+02
 20
-2.29377713E+02
 11
3.30925796E+02
 21
-2.29377713E+02
  0
LINE
  8
0
 62
7
 10
3.35925765E+02
 20
-2.28557721E+02
 11
3.35925765E+02
 21
-2.35557706E+02
  0
LINE
  8
0
 62
7
 10
3.16425796E+02
 20
-2.28557721E+02
 11
3.16425796E+02
 21
-2.35557706E+02
  0
LINE
  8
0
 62
7
 10
3.37425677E+02
 20
-2.30057810E+02
 11
3.35925731E+02
 21
-2.28557818E+02
  0
LINE
  8
0
 62
7
 10
3.10425781E+02
 20
-2.31684720E+02
 11
3.06425796E+02
 21
-2.31684720E+02
  0
LINE
  8
0
 62
2
 10
3.09925777E+02
 20
-2.35557706E+02
 11
3.06425778E+02
 21
-2.31684721E+02
  0
LINE
  8
0
 62
2
 10
3.11810400E+02
 20
-2.33472241E+02
 11
3.09925775E+02
 21
-2.35557706E+02
  0
LINE
  8
0
 62
7
 10
3.02925826E+02
 20
-2.20557675E+02
 11
2.98416854E+02
 21
-2.20557675E+02
  0
LINE
  8
0
 62
7
 10
2.98184523E+02
 20
-2.20299223E+02
 11
2.90424940E+02
 21
-2.20028252E+02
  0
LINE
  8
0
 62
7
 10
3.10425796E+02
 20
-2.27557690E+02
 11
3.03425811E+02
 21
-2.27557690E+02
  0
LINE
  8
0
 62
7
 10
2.89925796E+02
 20
-2.19557706E+02
 11
2.88425796E+02
 21
-2.19557706E+02
  0
LINE
  8
0
 62
7
 10
2.83425796E+02
 20
-2.11212308E+02
 11
2.83425796E+02
 21
-2.10557706E+02
  0
LINE
  8
0
  6
CENTER
 62
2
 10
2.70425796E+02
 20
-2.08805340E+02
 11
2.70425796E+02
 21
-2.19985943E+02
  0
LINE
  8
0
 62
7
 10
3.13425796E+02
 20
-2.35557704E+02
 11
3.10425796E+02
 21
-2.31684717E+02
  0
LINE
  8
0
 62
7
 10
3.10425797E+02
 20
-2.27557686E+02
 11
3.13425802E+02
 21
-2.28557718E+02
  0
LINE
  8
0
 62
7
 10
3.16425796E+02
 20
-2.29377713E+02
 11
3.13425796E+02
 21
-2.29377713E+02
  0
ARC
  8
0
 62
7
 10
3.13425796E+02
 20
-2.35557706E+02
 40
8.00000000E+00
 50
1.51044960E+02
 51
1.80000000E+02
  0
ARC
  8
0
 62
7
 10
2.98175796E+02
 20
-2.20549100E+02
 40
2.50000000E-01
 50
3.59721787E-05
 51
8.79992642E+01
  0
ARC
  8
0
 62
7
 10
2.89925796E+02
 20
-2.20057706E+02
 40
5.00000000E-01
 50
3.59721787E-05
 51
9.00000179E+01
  0
ARC
  8
0
 62
7
 10
3.02925826E+02
 20
-2.21057706E+02
 40
5.00000000E-01
 50
3.59721787E-05
 51
9.00000179E+01
  0
LINE
  8
0
 62
4
 10
3.29943316E+02
 20
-2.22856000E+02
 11
3.23908276E+02
 21
-2.22856000E+02
  0
LINE
  8
0
 62
4
 10
3.29943316E+02
 20
-2.29206853E+02
 11
3.23908276E+02
 21
-2.29206853E+02
  0
LINE
  8
0
 62
4
 10
3.30925796E+02
 20
-2.35557706E+02
 11
3.30925796E+02
 21
-2.24557706E+02
  0
LINE
  8
0
 62
4
 10
3.22925796E+02
 20
-2.35557706E+02
 11
3.22925796E+02
 21
-2.24557706E+02
  0
LINE
  8
0
 62
4
 10
3.30925796E+02
 20
-2.24557706E+02
 11
3.29943316E+02
 21
-2.22856000E+02
  0
LINE
  8
0
 62
4
 10
3.22925796E+02
 20
-2.24557706E+02
 11
3.23908276E+02
 21
-2.22856000E+02
  0
ARC
  8
0
 62
4
 10
3.25302986E+02
 20
-2.26031426E+02
 40
5.62281003E+00
 50
3.25615753E+02
 51
3.43842476E+01
  0
ARC
  8
0
 62
4
 10
3.09908276E+02
 20
-2.35557706E+02
 40
2.10175199E+01
 50
1.22042641E-07
 51
1.75879537E+01
  0
ARC
  8
0
 62
4
 10
3.28548606E+02
 20
-2.26031426E+02
 40
5.62281003E+00
 50
1.45615752E+02
 51
2.14384247E+02
  0
ARC
  8
0
 62
4
 10
3.43943316E+02
 20
-2.35557706E+02
 40
2.10175199E+01
 50
1.62412046E+02
 51
1.80000000E+02
  0
LINE
  8
0
 62
7
 10
3.22925796E+02
 20
-2.28557721E+02
 11
3.16425796E+02
 21
-2.28557721E+02
  0
LINE
  8
0
 62
2
 10
3.22925796E+02
 20
-2.29377713E+02
 11
3.16425796E+02
 21
-2.29377713E+02
  0
LINE
  8
0
 62
7
 10
2.57425796E+02
 20
-2.10557706E+02
 11
2.57425796E+02
 21
-2.35557706E+02
  0
LINE
  8
0
 62
7
 10
1.88193446E+02
 20
-2.19707699E+02
 11
2.34425796E+02
 21
-2.19707699E+02
  0
LINE
  8
0
 62
7
 10
1.91744138E+02
 20
-2.13557721E+02
 11
2.17925796E+02
 21
-2.13557721E+02
  0
LINE
  8
0
 62
7
 10
1.91253396E+02
 20
-2.14407712E+02
 11
2.34425796E+02
 21
-2.14407712E+02
  0
LINE
  8
0
 62
2
 10
1.76489424E+02
 20
-2.39979661E+02
 11
1.94641557E+02
 21
-2.08539244E+02
  0
LINE
  8
0
 62
7
 10
2.50925796E+02
 20
-2.13557721E+02
 11
2.57425796E+02
 21
-2.13557721E+02
  0
LINE
  8
0
 62
7
 10
2.49425796E+02
 20
-2.14407712E+02
 11
2.57425765E+02
 21
-2.14407712E+02
  0
LINE
  8
0
 62
7
 10
2.49425796E+02
 20
-2.19707699E+02
 11
2.57425796E+02
 21
-2.19707699E+02
  0
ARC
  8
0
 62
7
 10
8.60530953E+01
 20
-2.35557706E+02
 40
1.50000000E+01
 50
0.00000000E+00
 51
1.80000000E+02
  0
ARC
  8
0
 62
7
 10
8.60530953E+01
 20
-2.35557706E+02
 40
1.55000010E+01
 50
0.00000000E+00
 51
1.80000000E+02
  0
ARC
  8
0
 62
7
 10
8.60530953E+01
 20
-2.35557706E+02
 40
1.60000000E+01
 50
0.00000000E+00
 51
1.80000000E+02
  0
ARC
  8
0
 62
7
 10
6.75530953E+01
 20
-2.17057645E+02
 40
7.00000000E+00
 50
2.80788642E+02
 51
3.49211298E+02
  0
ARC
  8
0
 62
7
 10
7.27015328E+01
 20
-2.25034619E+02
 40
1.00000000E+00
 50
3.21756386E+02
 51
4.50000407E+01
  0
ARC
  8
0
 62
7
 10
7.44445138E+01
 20
-2.21120724E+02
 40
1.00000000E+00
 50
1.49477551E+02
 51
2.24999376E+02
  0
LINE
  8
0
  6
CENTER
 62
2
 10
5.70807748E+01
 20
-2.35557706E+02
 11
1.15756892E+02
 21
-2.35557706E+02
  0
LINE
  8
0
  6
CENTER
 62
2
 10
7.39345040E+01
 20
-2.17057629E+02
 11
5.94128365E+01
 21
-2.17057629E+02
  0
LINE
  8
0
 62
7
 10
1.08053095E+02
 20
-2.11057675E+02
 11
6.40530953E+01
 21
-2.11057736E+02
  0
LINE
  8
0
 62
7
 10
1.08053156E+02
 20
-2.10557675E+02
 11
6.40530953E+01
 21
-2.10557675E+02
  0
LINE
  8
0
  6
CENTER
 62
2
 10
6.75530343E+01
 20
-2.08551053E+02
 11
6.75530343E+01
 21
-2.23472195E+02
  0
LINE
  8
0
 62
7
 10
6.10530953E+01
 20
-2.13557675E+02
 11
6.10530953E+01
 21
-2.35557706E+02
  0
LINE
  8
0
 62
7
 10
6.15530953E+01
 20
-2.13557736E+02
 11
6.15530953E+01
 21
-2.35557706E+02
  0
LINE
  8
0
 62
7
 10
6.50530953E+01
 20
-2.34557706E+02
 11
6.91711373E+01
 21
-2.34557706E+02
  0
LINE
  8
0
 62
7
 10
7.23232971E+01
 20
-2.23241897E+02
 11
7.34087734E+01
 21
-2.24327374E+02
  0
LINE
  8
0
 62
7
 10
6.40530953E+01
 20
-2.30557675E+02
 11
6.40530953E+01
 21
-2.35557706E+02
  0
LINE
  8
0
 62
7
 10
6.60530953E+01
 20
-2.10557675E+02
 11
6.60530953E+01
 21
-2.11057736E+02
  0
LINE
  8
0
 62
7
 10
6.80530343E+01
 20
-2.24846402E+02
 11
6.80530343E+01
 21
-2.26807675E+02
  0
ARC
  8
0
 62
7
 10
6.40530953E+01
 20
-2.13557736E+02
 40
2.50000000E+00
 50
9.00000179E+01
 51
1.80000000E+02
  0
CIRCLE
  8
0
 62
7
 10
6.75530343E+01
 20
-2.17057706E+02
 40
5.00000000E+00
  0
CIRCLE
  8
0
 62
7
 10
6.75530343E+01
 20
-2.17057706E+02
 40
4.50000000E+00
  0
ARC
  8
0
 62
7
 10
6.50530953E+01
 20
-2.33557706E+02
 40
1.00000000E+00
 50
1.80000000E+02
 51
2.70000037E+02
  0
ARC
  8
0
 62
7
 10
6.91711373E+01
 20
-2.33557706E+02
 40
1.00000000E+00
 50
2.70000037E+02
 51
3.53243910E+02
  0
ARC
  8
0
 62
7
 10
7.16160836E+01
 20
-2.23949139E+02
 40
1.00000000E+00
 50
4.50006554E+01
 51
1.20522248E+02
  0
ARC
  8
0
 62
7
 10
6.40530953E+01
 20
-2.13557675E+02
 40
3.00000000E+00
 50
9.00000179E+01
 51
1.80000000E+02
  0
ARC
  8
0
 62
7
 10
6.50530953E+01
 20
-2.30557675E+02
 40
1.00000000E+00
 50
9.00000179E+01
 51
1.80000000E+02
  0
ARC
  8
0
 62
7
 10
6.50530953E+01
 20
-2.26557675E+02
 40
3.00000000E+00
 50
2.70000054E+02
 51
2.02641650E+00
  0
ARC
  8
0
 62
7
 10
6.90505929E+01
 20
-2.24916241E+02
 40
1.00000000E+00
 50
1.00789094E+02
 51
1.82026121E+02
  0
CIRCLE
  8
0
 62
2
 10
6.75530343E+01
 20
-2.17057629E+02
 40
3.00000000E+00
  0
LINE
  8
0
 62
4
 10
7.50530953E+01
 20
-2.29206853E+02
 11
8.60530953E+01
 21
-2.22856000E+02
  0
LINE
  8
0
 62
4
 10
8.60530953E+01
 20
-2.22856000E+02
 11
9.70530953E+01
 21
-2.29206853E+02
  0
ARC
  8
0
 62
4
 10
8.60530953E+01
 20
-2.35557706E+02
 40
1.10000000E+01
 50
0.00000000E+00
 51
1.80000000E+02
  0
ARC
  8
0
 62
7
 10
1.07053095E+02
 20
-2.26557675E+02
 40
3.00000000E+00
 50
1.80000000E+02
 51
2.69999982E+02
  0
LINE
  8
0
  6
CENTER
 62
2
 10
8.60530953E+01
 20
-2.07062710E+02
 11
8.60530953E+01
 21
-2.35557706E+02
  0
LINE
  8
0
 62
7
 10
1.10553095E+02
 20
-2.13557675E+02
 11
1.10553095E+02
 21
-2.35557706E+02
  0
LINE
  8
0
 62
7
 10
1.11053156E+02
 20
-2.13557675E+02
 11
1.11053156E+02
 21
-2.35557706E+02
  0
LINE
  8
0
 62
7
 10
1.07053095E+02
 20
-2.34557690E+02
 11
1.02935053E+02
 21
-2.34557690E+02
  0
LINE
  8
0
 62
7
 10
1.08053095E+02
 20
-2.30557675E+02
 11
1.08053095E+02
 21
-2.35557706E+02
  0
ARC
  8
0
 62
7
 10
1.07053095E+02
 20
-2.33557706E+02
 40
1.00000000E+00
 50
2.70000054E+02
 51
3.59721787E-05
  0
ARC
  8
0
 62
7
 10
1.02935053E+02
 20
-2.33557706E+02
 40
1.00000000E+00
 50
1.86756232E+02
 51
2.70000037E+02
  0
ARC
  8
0
 62
7
 10
1.07053095E+02
 20
-2.30557675E+02
 40
1.00000000E+00
 50
3.59721787E-05
 51
9.00000179E+01
  0
ARC
  8
0
 62
7
 10
8.60530953E+01
 20
-2.35557706E+02
 40
6.99998474E+00
 50
0.00000000E+00
 51
1.80000000E+02
  0
ARC
  8
0
 62
2
 10
8.60530953E+01
 20
-2.35557706E+02
 40
6.17999268E+00
 50
0.00000000E+00
 51
1.80000000E+02
  0
ARC
  8
0
 62
7
 10
8.60530953E+01
 20
-2.35557706E+02
 40
5.50000000E+00
 50
0.00000000E+00
 51
1.80000000E+02
  0
LINE
  8
0
 62
4
 10
9.70530953E+01
 20
-2.29206853E+02
 11
9.70530953E+01
 21
-2.35557706E+02
  0
LINE
  8
0
 62
4
 10
7.50530953E+01
 20
-2.35557706E+02
 11
7.50530953E+01
 21
-2.29206853E+02
  0
CIRCLE
  8
0
 62
7
 10
1.04553095E+02
 20
-2.17057645E+02
 40
5.00000000E+00
  0
CIRCLE
  8
0
 62
7
 10
1.04553095E+02
 20
-2.17057645E+02
 40
4.50000000E+00
  0
LINE
  8
0
  6
CENTER
 62
2
 10
9.00531564E+01
 20
-2.08805310E+02
 11
9.00531564E+01
 21
-2.19985913E+02
  0
LINE
  8
0
  6
CENTER
 62
2
 10
1.04553095E+02
 20
-2.08655057E+02
 11
1.04553095E+02
 21
-2.24942044E+02
  0
LINE
  8
0
  6
CENTER
 62
2
 10
1.13143000E+02
 20
-2.17057629E+02
 11
9.84761300E+01
 21
-2.17057629E+02
  0
LINE
  8
0
 62
7
 10
8.50530953E+01
 20
-2.14557706E+02
 11
8.50530953E+01
 21
-2.18675763E+02
  0
LINE
  8
0
 62
7
 10
7.37374567E+01
 20
-2.21827716E+02
 11
7.48229222E+01
 21
-2.22913182E+02
  0
LINE
  8
0
 62
7
 10
9.10531564E+01
 20
-2.13557675E+02
 11
8.10530953E+01
 21
-2.13557675E+02
  0
LINE
  8
0
 62
7
 10
8.70530953E+01
 20
-2.14557706E+02
 11
8.70530953E+01
 21
-2.18675748E+02
  0
LINE
  8
0
 62
7
 10
9.97830425E+01
 20
-2.23242007E+02
 11
9.86975660E+01
 21
-2.24327483E+02
  0
LINE
  8
0
 62
7
 10
9.83688723E+01
 20
-2.21827750E+02
 11
9.72833958E+01
 21
-2.22913226E+02
  0
LINE
  8
0
 62
7
 10
9.67648263E+01
 20
-2.17557614E+02
 11
9.48031564E+01
 21
-2.17557614E+02
  0
LINE
  8
0
 62
7
 10
1.04053095E+02
 20
-2.24845547E+02
 11
1.04053095E+02
 21
-2.26807675E+02
  0
LINE
  8
0
 62
7
 10
7.54400582E+01
 20
-2.17528515E+02
 11
7.74701485E+01
 21
-2.17528515E+02
  0
ARC
  8
0
 62
7
 10
8.40530953E+01
 20
-2.14557706E+02
 40
1.00000000E+00
 50
3.59721787E-05
 51
9.00000179E+01
  0
ARC
  8
0
 62
7
 10
8.40530953E+01
 20
-2.18675763E+02
 40
1.00000000E+00
 50
2.76756259E+02
 51
3.59721787E-05
  0
ARC
  8
0
 62
7
 10
7.55299630E+01
 20
-2.22206189E+02
 40
1.00000000E+00
 50
2.25000620E+02
 51
3.08244206E+02
  0
ARC
  8
0
 62
7
 10
7.54116769E+01
 20
-2.18555142E+02
 40
1.00000000E+00
 50
8.79748190E+01
 51
1.69211539E+02
  0
ARC
  8
0
 62
7
 10
7.70530953E+01
 20
-2.14557645E+02
 40
3.00000000E+00
 50
2.67974189E+02
 51
3.59999431E+02
  0
ARC
  8
0
 62
7
 10
8.10530953E+01
 20
-2.14557675E+02
 40
1.00000000E+00
 50
9.00000179E+01
 51
1.80000000E+02
  0
ARC
  8
0
 62
7
 10
8.80530953E+01
 20
-2.14557706E+02
 40
1.00000000E+00
 50
9.00000042E+01
 51
1.80000041E+02
  0
ARC
  8
0
 62
7
 10
9.76616769E+01
 20
-2.21120663E+02
 40
1.00000000E+00
 50
3.15000660E+02
 51
3.05222526E+01
  0
ARC
  8
0
 62
7
 10
1.04553095E+02
 20
-2.17057645E+02
 40
7.00000000E+00
 50
1.90788721E+02
 51
2.59211377E+02
  0
ARC
  8
0
 62
7
 10
1.00490107E+02
 20
-2.23949093E+02
 40
1.00000000E+00
 50
5.94775690E+01
 51
1.34999381E+02
  0
ARC
  8
0
 62
7
 10
8.80530953E+01
 20
-2.18675748E+02
 40
1.00000000E+00
 50
1.80000041E+02
 51
2.63243914E+02
  0
ARC
  8
0
 62
7
 10
9.65762276E+01
 20
-2.22206113E+02
 40
1.00000000E+00
 50
2.31756387E+02
 51
3.15000028E+02
  0
ARC
  8
0
 62
7
 10
9.94046578E+01
 20
-2.25034543E+02
 40
1.00000000E+00
 50
1.35000624E+02
 51
2.18244210E+02
  0
ARC
  8
0
 62
7
 10
9.50531564E+01
 20
-2.14557645E+02
 40
3.00000000E+00
 50
1.80000583E+02
 51
2.72025823E+02
  0
ARC
  8
0
 62
7
 10
1.03055598E+02
 20
-2.24916241E+02
 40
1.00000000E+00
 50
3.57973915E+02
 51
7.92109419E+01
  0
ARC
  8
0
 62
7
 10
9.10531564E+01
 20
-2.14557675E+02
 40
1.00000000E+00
 50
3.59721787E-05
 51
9.00000179E+01
  0
ARC
  8
0
 62
7
 10
9.66945138E+01
 20
-2.18555142E+02
 40
1.00000000E+00
 50
1.07884973E+01
 51
9.20252169E+01
  0
CIRCLE
  8
0
 62
2
 10
1.04553095E+02
 20
-2.17057629E+02
 40
3.00000000E+00
  0
ARC
  8
0
 62
7
 10
1.08053156E+02
 20
-2.13557675E+02
 40
3.00000000E+00
 50
3.59721787E-05
 51
9.00000179E+01
  0
ARC
  8
0
 62
7
 10
1.08053095E+02
 20
-2.13557675E+02
 40
2.50000000E+00
 50
3.59721787E-05
 51
9.00000179E+01
  0
LINE
  8
0
 62
7
 10
1.06053095E+02
 20
-2.10557675E+02
 11
1.06053095E+02
 21
-2.11057675E+02
  0
LINE
  8
0
 62
2
 10
-1.52877674E+01
 20
-2.42516562E+02
 11
3.34773759E+00
 21
-2.10238920E+02
  0
TEXT
  8
0
 10
-5.24502888E+01
 20
2.44478397E+02
 40
6.30000019E+00
  1
STRETCH LINE A
 41
1.09375016E+00
  7
MONOTXT
  0
LINE
  8
0
 62
7
 10
2.79799927E+02
 20
-2.56750000E+02
 11
3.99799805E+02
 21
-2.56750000E+02
  0
LINE
  8
0
 62
7
 10
2.79799927E+02
 20
-2.56750000E+02
 11
2.79799927E+02
 21
-2.76750000E+02
  0
TEXT
  8
0
 62
7
 10
2.87585240E+02
 20
-2.71250000E+02
 40
9.00000000E+00
  1
KOGANEI CORP.
 41
1.04838710E+00
  7
MONOTXT
  0
TEXT
  8
0
 62
7
 10
3.15499641E+02
 20
2.63100000E+02
 40
6.30000019E+00
  1
Ver. 1.0
 41
1.08108124E+00
  7
MONOTXT
  0
LINE
  8
0
 62
7
 10
2.79799927E+02
 20
2.56250000E+02
 11
3.99799805E+02
 21
2.56250000E+02
  0
LINE
  8
0
 62
7
 10
2.79799927E+02
 20
2.76250000E+02
 11
2.79799927E+02
 21
2.56250000E+02
  0
TEXT
  8
0
 62
7
 10
-3.85600562E+02
 20
2.38100000E+02
 40
6.30000019E+00
  1
MODEL:DDAD40*75
 41
1.00000015E+00
  7
MONOTXT
  0
LINE
  8
0
 62
7
 10
-3.99250000E+02
 20
2.56250000E+02
 11
-2.79250000E+02
 21
2.56250000E+02
  0
LINE
  8
0
 62
7
 10
-2.79250000E+02
 20
2.76250000E+02
 11
-2.79250000E+02
 21
2.56250000E+02
  0
TEXT
  8
0
 62
7
 10
-3.91900291E+02
 20
2.63100000E+02
 40
6.30000019E+00
  1
NEW DYNA CYLINDER
 41
1.07594953E+00
  7
MONOTXT
  0
LINE
  8
0
 62
7
 10
-3.99250000E+02
 20
-2.76750000E+02
 11
3.99799805E+02
 21
-2.76750000E+02
  0
LINE
  8
0
 62
7
 10
-3.99250000E+02
 20
2.76250000E+02
 11
3.99799805E+02
 21
2.76250000E+02
  0
LINE
  8
0
 62
7
 10
-3.99250000E+02
 20
2.76250000E+02
 11
-3.99250000E+02
 21
-2.76750000E+02
  0
LINE
  8
0
 62
7
 10
3.99799805E+02
 20
2.76250000E+02
 11
3.99799805E+02
 21
-2.76750000E+02
  0
ENDSEC
  0
EOF
