  0
SECTION
  2
HEADER
  9
$ACADVER
  1
AC1003
  9
$EXTMIN
 10
-3.99250000E+02
 20
-2.76750000E+02
  9
$EXTMAX
 10
3.99799805E+02
 20
2.76250000E+02
  9
$LIMMIN
 10
-3.99251000E+02
 20
-2.76751000E+02
  9
$LIMMAX
 10
3.99800805E+02
 20
2.76251000E+02
  9
$SNAPUNIT
 10
1
 20
1
  9
$SNAPBASE
 10
0
 20
0
  9
$GRIDMODE
 70
0
  9
$GRIDUNIT
 10
0
 20
0
  9
$LTSCALE
 40
1.33174967E+01
  9
$TEXTSIZE
 40
3.2
  9
$DIMTAD
 70
0
  9
$LUNITS
 70
2
  9
$LUPREC
 70
4
  9
$FILLETRAD
 40
0
  9
$AUNITS
 70
0
  9
$AUPREC
 70
0
  0
ENDSEC
  0
SECTION
  2
TABLES
  0
TABLE
  2
LTYPE
 70
2
  0
LTYPE
  2
CONTINUOUS
 70
64
  3
Solid-Line
 72
65
 73
0
 40
0
  0
LTYPE
  2
DASHED
 70
64
  3
DASHED
 72
65
 73
2
 40
.75
 49
.5
 49
-.25
  0
LTYPE
  2
HIDDEN
 70
64
  3
HIDDEN
 72
65
 73
2
 40
.375
 49
.25
 49
-.125
  0
LTYPE
  2
CENTER
 70
64
  3
CENTER
 72
65
 73
4
 40
2
 49
1.25
 49
-.25
 49
.25
 49
-.25
  0
LTYPE
  2
PHANTOM
 70
64
  3
PHANTOM
 72
65
 73
6
 40
2.5
 49
1.25
 49
-.25
 49
.25
 49
-.25
 49
.25
 49
-.25
  0
ENDTAB
  0
TABLE
  2
LAYER
 70
1
  0
LAYER
  2
1
 70
0
 62
7
  6
CONTINUOUS
 0
ENDTAB
  0
TABLE
  2
STYLE
 70
2
  0
STYLE
  2
MONOTXT
 70
0
 40
0
 41
1
 50
0
 71
0
 42
.2
  3
monotxt
  0
STYLE
  2
BIGFONT
 70
0
 40
0
 41
1
 50
0
 71
0
 42
.2
  3
txt
  4
bigfont
  0
ENDTAB
  0
ENDSEC
  0
SECTION
  2
ENTITIES
  0
LINE
  8
0
  6
PHANTOM
 10
-9.25000000E+00
 20
1.48945348E+02
 11
-9.25000000E+00
 21
4.71367846E+01
  0
LINE
  8
0
  6
PHANTOM
 10
1.17749977E+02
 20
1.51708225E+02
 11
1.17749977E+02
 21
4.71367846E+01
  0
LINE
  8
0
  6
CENTER
 62
2
 10
7.49770203E+01
 20
6.98694647E+01
 11
-9.73534241E+01
 21
6.98694647E+01
  0
LINE
  8
0
 62
7
 10
4.17500000E+01
 20
7.25194586E+01
 11
-6.42500000E+01
 21
7.25194586E+01
  0
LINE
  8
0
 62
7
 10
4.17499847E+01
 20
6.72194708E+01
 11
-6.42499695E+01
 21
6.72194708E+01
  0
LINE
  8
0
 62
7
 10
4.17500000E+01
 20
6.63694799E+01
 11
-6.42500000E+01
 21
6.63694799E+01
  0
LINE
  8
0
  6
CENTER
 62
2
 10
-1.47487213E+02
 20
8.83694647E+01
 11
1.72661982E+02
 21
8.83694647E+01
  0
LINE
  8
0
 62
7
 10
-1.10250000E+02
 20
7.38694647E+01
 11
-1.10250000E+02
 21
1.02869465E+02
  0
LINE
  8
0
 62
7
 10
-1.09750031E+02
 20
7.33694342E+01
 11
-1.05241058E+02
 21
7.33694342E+01
  0
LINE
  8
0
 62
7
 10
7.42500000E+01
 20
7.23694647E+01
 11
7.27500000E+01
 21
7.23694647E+01
  0
LINE
  8
0
 62
7
 10
4.17500000E+01
 20
1.13369465E+02
 11
4.17500000E+01
 21
6.33694647E+01
  0
LINE
  8
0
 62
7
 10
7.27500000E+01
 20
1.12583896E+02
 11
7.27500000E+01
 21
6.41550329E+01
  0
LINE
  8
0
 62
7
 10
6.77500000E+01
 20
6.33694647E+01
 11
4.17500000E+01
 21
6.33694647E+01
  0
LINE
  8
0
 62
7
 10
7.27500316E+01
 20
6.41550219E+01
 11
4.17499997E+01
 21
6.33432575E+01
  0
LINE
  8
0
 62
7
 10
-1.05008701E+02
 20
7.31110007E+01
 11
-9.72491175E+01
 21
7.28400301E+01
  0
LINE
  8
0
 62
7
 10
6.77500000E+01
 20
6.40240667E+01
 11
6.77500000E+01
 21
6.33694647E+01
  0
LINE
  8
0
  6
CENTER
 62
2
 10
5.47500000E+01
 20
1.15121830E+02
 11
5.47500000E+01
 21
1.03941227E+02
  0
LINE
  8
0
 62
7
 10
-9.72500000E+01
 20
1.03869465E+02
 11
-9.72500000E+01
 21
7.28400457E+01
  0
LINE
  8
0
 62
7
 10
-1.05250000E+02
 20
7.33694342E+01
 11
-1.05250000E+02
 21
1.03378071E+02
  0
LINE
  8
0
 62
7
 10
-9.67500000E+01
 20
7.23694647E+01
 11
-9.52500000E+01
 21
7.23694647E+01
  0
LINE
  8
0
 62
7
 10
-6.42500000E+01
 20
1.13369465E+02
 11
-6.42500000E+01
 21
6.33432653E+01
  0
LINE
  8
0
 62
7
 10
-9.52500000E+01
 20
1.12583896E+02
 11
-9.52500000E+01
 21
6.41550329E+01
  0
LINE
  8
0
 62
7
 10
-9.02500000E+01
 20
6.33694647E+01
 11
-6.42500000E+01
 21
6.33694647E+01
  0
LINE
  8
0
 62
7
 10
-9.52500745E+01
 20
6.41550268E+01
 11
-6.42500502E+01
 21
6.33432627E+01
  0
LINE
  8
0
 62
7
 10
-9.02500000E+01
 20
6.40240667E+01
 11
-9.02500000E+01
 21
6.33694647E+01
  0
LINE
  8
0
 62
7
 10
7.47500000E+01
 20
1.03869465E+02
 11
7.47500000E+01
 21
7.28400457E+01
  0
LINE
  8
0
  6
CENTER
 62
2
 10
7.49770203E+01
 20
1.06869465E+02
 11
-9.73534241E+01
 21
1.06869465E+02
  0
LINE
  8
0
 62
7
 10
4.17500000E+01
 20
1.04219471E+02
 11
2.02500000E+01
 21
1.04219471E+02
  0
LINE
  8
0
 62
7
 10
4.17499847E+01
 20
1.09519459E+02
 11
3.52500000E+01
 21
1.09519459E+02
  0
LINE
  8
0
 62
7
 10
4.17500000E+01
 20
1.10369449E+02
 11
3.52500000E+01
 21
1.10369449E+02
  0
LINE
  8
0
 62
7
 10
-1.09750031E+02
 20
1.03369495E+02
 11
-1.05241058E+02
 21
1.03369495E+02
  0
LINE
  8
0
 62
7
 10
7.42500000E+01
 20
1.04369465E+02
 11
7.27500000E+01
 21
1.04369465E+02
  0
LINE
  8
0
 62
7
 10
6.77500000E+01
 20
1.13369465E+02
 11
4.17500000E+01
 21
1.13369465E+02
  0
LINE
  8
0
 62
7
 10
7.27500217E+01
 20
1.12583895E+02
 11
4.17499897E+01
 21
1.13395660E+02
  0
LINE
  8
0
 62
7
 10
-1.05008727E+02
 20
1.03627948E+02
 11
-9.72491442E+01
 21
1.03898918E+02
  0
LINE
  8
0
 62
7
 10
6.77500000E+01
 20
1.12714863E+02
 11
6.77500000E+01
 21
1.13369465E+02
  0
LINE
  8
0
 62
7
 10
-9.67500000E+01
 20
1.04369465E+02
 11
-9.52500000E+01
 21
1.04369465E+02
  0
LINE
  8
0
 62
7
 10
-9.02500000E+01
 20
1.13369465E+02
 11
-6.42500000E+01
 21
1.13369465E+02
  0
LINE
  8
0
 62
7
 10
-9.52500645E+01
 20
1.12583890E+02
 11
-6.42500402E+01
 21
1.13395654E+02
  0
LINE
  8
0
 62
7
 10
-9.02500000E+01
 20
1.12714863E+02
 11
-9.02500000E+01
 21
1.13369465E+02
  0
LINE
  8
0
  6
CENTER
 62
2
 10
-7.72500000E+01
 20
1.15121830E+02
 11
-7.72500000E+01
 21
1.03941227E+02
  0
LINE
  8
0
 62
2
 10
-1.43949982E+02
 20
9.36694830E+01
 11
-1.37250000E+02
 21
9.36694830E+01
  0
LINE
  8
0
 62
7
 10
-1.44249840E+02
 20
9.33693996E+01
 11
-1.43249883E+02
 21
9.43693798E+01
  0
LINE
  8
0
 62
7
 10
-1.43250061E+02
 20
8.23694647E+01
 11
-1.43250061E+02
 21
9.43694647E+01
  0
LINE
  8
0
 62
7
 10
-1.43250061E+02
 20
9.43694647E+01
 11
-1.37250000E+02
 21
9.43694647E+01
  0
LINE
  8
0
 62
7
 10
-1.23250000E+02
 20
8.23694647E+01
 11
-1.23250000E+02
 21
9.43694647E+01
  0
LINE
  8
0
 62
7
 10
-1.20250000E+02
 20
8.23694647E+01
 11
-1.20250000E+02
 21
9.43694647E+01
  0
LINE
  8
0
 62
7
 10
-1.43250061E+02
 20
8.23694647E+01
 11
-1.37250000E+02
 21
8.23694647E+01
  0
LINE
  8
0
 62
7
 10
-1.17502502E+02
 20
9.53694647E+01
 11
-1.10250000E+02
 21
9.53694647E+01
  0
LINE
  8
0
 62
7
 10
-1.17502502E+02
 20
8.13694647E+01
 11
-1.10250000E+02
 21
8.13694647E+01
  0
LINE
  8
0
 62
7
 10
-1.20249996E+02
 20
9.43694586E+01
 11
-1.17502494E+02
 21
9.53694602E+01
  0
LINE
  8
0
 62
7
 10
-1.20249997E+02
 20
8.23694567E+01
 11
-1.17502495E+02
 21
8.13694551E+01
  0
LINE
  8
0
 62
7
 10
-1.44250000E+02
 20
8.33694647E+01
 11
-1.44250000E+02
 21
9.33694647E+01
  0
LINE
  8
0
 62
7
 10
-1.44249952E+02
 20
8.33694746E+01
 11
-1.43250005E+02
 21
8.23695052E+01
  0
LINE
  8
0
 62
2
 10
-1.43949982E+02
 20
8.30694464E+01
 11
-1.37250000E+02
 21
8.30694464E+01
  0
LINE
  8
0
 62
7
 10
-1.14480225E+02
 20
8.83694647E+01
 11
-1.10250000E+02
 21
8.83694647E+01
  0
LINE
  8
0
 62
7
 10
-1.23250000E+02
 20
9.36694830E+01
 11
-1.20250000E+02
 21
9.36694830E+01
  0
LINE
  8
0
 62
7
 10
-1.23250000E+02
 20
8.30694464E+01
 11
-1.20250000E+02
 21
8.30694464E+01
  0
LINE
  8
0
 62
7
 10
8.52500305E+01
 20
1.03369495E+02
 11
8.07410583E+01
 21
1.03369495E+02
  0
LINE
  8
0
 62
7
 10
1.48750000E+02
 20
9.45494573E+01
 11
1.45750000E+02
 21
9.45494573E+01
  0
LINE
  8
0
 62
7
 10
1.48750000E+02
 20
8.21894262E+01
 11
1.45750000E+02
 21
8.21894262E+01
  0
LINE
  8
0
 62
7
 10
8.57500000E+01
 20
7.38694647E+01
 11
8.57500000E+01
 21
1.02869465E+02
  0
LINE
  8
0
 62
7
 10
8.52500305E+01
 20
7.33694342E+01
 11
8.07410583E+01
 21
7.33694342E+01
  0
LINE
  8
0
 62
7
 10
8.05086981E+01
 20
7.31109999E+01
 11
7.27491151E+01
 21
7.28400293E+01
  0
LINE
  8
0
 62
7
 10
8.07500000E+01
 20
7.33694342E+01
 11
8.07500000E+01
 21
1.03378071E+02
  0
LINE
  8
0
 62
7
 10
1.42749985E+02
 20
9.22424505E+01
 11
1.38750000E+02
 21
9.22424505E+01
  0
LINE
  8
0
 62
7
 10
1.42750000E+02
 20
9.63694799E+01
 11
8.57500153E+01
 21
9.63694799E+01
  0
LINE
  8
0
 62
2
 10
1.44134612E+02
 20
8.62840070E+01
 11
1.38749993E+02
 21
9.22424507E+01
  0
LINE
  8
0
 62
2
 10
1.44134614E+02
 20
9.04549269E+01
 11
1.38750000E+02
 21
8.44964888E+01
  0
LINE
  8
0
 62
7
 10
1.42750000E+02
 20
8.44964788E+01
 11
1.42750000E+02
 21
8.03694494E+01
  0
LINE
  8
0
 62
7
 10
8.05087251E+01
 20
1.03627956E+02
 11
7.27491420E+01
 21
1.03898927E+02
  0
LINE
  8
0
 62
7
 10
1.38750000E+02
 20
8.44964788E+01
 11
1.38750000E+02
 21
9.22424505E+01
  0
LINE
  8
0
 62
7
 10
1.42750000E+02
 20
9.22424505E+01
 11
1.42750000E+02
 21
9.63694342E+01
  0
LINE
  8
0
 62
7
 10
1.42750000E+02
 20
8.03694494E+01
 11
8.57500153E+01
 21
8.03694494E+01
  0
LINE
  8
0
 62
7
 10
1.45750000E+02
 20
8.13694342E+01
 11
1.45750000E+02
 21
9.53694494E+01
  0
LINE
  8
0
 62
7
 10
1.69749969E+02
 20
8.28694189E+01
 11
1.69749969E+02
 21
9.38694494E+01
  0
LINE
  8
0
 62
7
 10
1.68249969E+02
 20
9.53694494E+01
 11
1.63249969E+02
 21
9.53694494E+01
  0
LINE
  8
0
 62
7
 10
1.68249969E+02
 20
8.13694342E+01
 11
1.63249969E+02
 21
8.13694342E+01
  0
LINE
  8
0
 62
2
 10
1.69069916E+02
 20
9.45494573E+01
 11
1.63249969E+02
 21
9.45494573E+01
  0
LINE
  8
0
 62
2
 10
1.69069916E+02
 20
8.21894262E+01
 11
1.63249969E+02
 21
8.21894262E+01
  0
LINE
  8
0
 62
7
 10
1.68249969E+02
 20
9.53694494E+01
 11
1.68249969E+02
 21
8.13694342E+01
  0
LINE
  8
0
 62
7
 10
1.48750000E+02
 20
9.53694494E+01
 11
1.48750000E+02
 21
8.13694342E+01
  0
LINE
  8
0
 62
7
 10
1.69749885E+02
 20
9.38693564E+01
 11
1.68249939E+02
 21
9.53693485E+01
  0
LINE
  8
0
 62
7
 10
1.69749980E+02
 20
8.28694285E+01
 11
1.68249968E+02
 21
8.13694162E+01
  0
LINE
  8
0
 62
7
 10
1.42749985E+02
 20
8.44964788E+01
 11
1.38750000E+02
 21
8.44964788E+01
  0
LINE
  8
0
 62
7
 10
1.45750001E+02
 20
8.83694686E+01
 11
1.42750002E+02
 21
9.22424526E+01
  0
LINE
  8
0
 62
7
 10
1.42749998E+02
 20
9.63694858E+01
 11
1.45750003E+02
 21
9.53694536E+01
  0
LINE
  8
0
 62
7
 10
1.45749988E+02
 20
8.83694501E+01
 11
1.42749994E+02
 21
8.44964721E+01
  0
LINE
  8
0
 62
7
 10
1.45749970E+02
 20
8.13694309E+01
 11
1.42749980E+02
 21
8.03694495E+01
  0
ARC
  8
0
 62
7
 10
-1.09750031E+02
 20
7.38694647E+01
 40
5.00000000E-01
 50
1.79999981E+02
 51
2.69999963E+02
  0
ARC
  8
0
 62
7
 10
-9.67500000E+01
 20
7.28694647E+01
 40
5.00000000E-01
 50
1.79999981E+02
 51
2.69999963E+02
  0
ARC
  8
0
 62
7
 10
-1.05000000E+02
 20
7.33608587E+01
 40
2.50000000E-01
 50
1.79999981E+02
 51
2.67999203E+02
  0
ARC
  8
0
 62
7
 10
7.42500000E+01
 20
7.28694647E+01
 40
5.00000000E-01
 50
2.70000073E+02
 51
5.46415133E-05
  0
ARC
  8
0
 62
7
 10
7.42500000E+01
 20
1.03869465E+02
 40
5.00000000E-01
 50
5.46415133E-05
 51
9.00000369E+01
  0
ARC
  8
0
 62
7
 10
-1.05000000E+02
 20
1.03378071E+02
 40
2.50000000E-01
 50
9.20007356E+01
 51
1.79999964E+02
  0
ARC
  8
0
 62
7
 10
-9.67500000E+01
 20
1.03869465E+02
 40
5.00000000E-01
 50
8.99999818E+01
 51
1.79999964E+02
  0
ARC
  8
0
 62
7
 10
-1.09750031E+02
 20
1.02869465E+02
 40
5.00000000E-01
 50
8.99999818E+01
 51
1.79999964E+02
  0
ARC
  8
0
 62
7
 10
8.05000000E+01
 20
1.03378071E+02
 40
2.50000000E-01
 50
3.59721781E-05
 51
8.79992625E+01
  0
ARC
  8
0
 62
7
 10
8.52500305E+01
 20
7.38694647E+01
 40
5.00000000E-01
 50
2.70000038E+02
 51
1.86693353E-05
  0
ARC
  8
0
 62
7
 10
8.05000000E+01
 20
7.33608587E+01
 40
2.50000000E-01
 50
2.72000799E+02
 51
1.86693353E-05
  0
ARC
  8
0
 62
7
 10
8.52500305E+01
 20
1.02869465E+02
 40
5.00000000E-01
 50
3.59721781E-05
 51
9.00000162E+01
  0
ARC
  8
0
 62
7
 10
1.45750000E+02
 20
8.83694647E+01
 40
8.00000000E+00
 50
1.51044962E+02
 51
2.08955034E+02
  0
POLYLINE
  8
0
 62
7
 66
1
  0
VERTEX
  8
0
 62
7
 10
-1.14480225E+02
 20
9.53694647E+01
  0
VERTEX
  8
0
 62
7
 10
-1.14751140E+02
 20
9.53553747E+01
  0
VERTEX
  8
0
 62
7
 10
-1.15019874E+02
 20
9.53132183E+01
  0
VERTEX
  8
0
 62
7
 10
-1.15284262E+02
 20
9.52433347E+01
  0
VERTEX
  8
0
 62
7
 10
-1.15542177E+02
 20
9.51462867E+01
  0
VERTEX
  8
0
 62
7
 10
-1.15791542E+02
 20
9.50228557E+01
  0
VERTEX
  8
0
 62
7
 10
-1.16030349E+02
 20
9.48740355E+01
  0
VERTEX
  8
0
 62
7
 10
-1.16256675E+02
 20
9.47010242E+01
  0
VERTEX
  8
0
 62
7
 10
-1.16468699E+02
 20
9.45052148E+01
  0
VERTEX
  8
0
 62
7
 10
-1.16664712E+02
 20
9.42881840E+01
  0
VERTEX
  8
0
 62
7
 10
-1.16843137E+02
 20
9.40516790E+01
  0
VERTEX
  8
0
 62
7
 10
-1.17002537E+02
 20
9.37976041E+01
  0
VERTEX
  8
0
 62
7
 10
-1.17141629E+02
 20
9.35280050E+01
  0
VERTEX
  8
0
 62
7
 10
-1.17259293E+02
 20
9.32450523E+01
  0
VERTEX
  8
0
 62
7
 10
-1.17354582E+02
 20
9.29510242E+01
  0
VERTEX
  8
0
 62
7
 10
-1.17426728E+02
 20
9.26482880E+01
  0
VERTEX
  8
0
 62
7
 10
-1.17475150E+02
 20
9.23392811E+01
  0
VERTEX
  8
0
 62
7
 10
-1.17499460E+02
 20
9.20264916E+01
  0
VERTEX
  8
0
 62
7
 10
-1.17499460E+02
 20
9.17124378E+01
  0
VERTEX
  8
0
 62
7
 10
-1.17475150E+02
 20
9.13996483E+01
  0
VERTEX
  8
0
 62
7
 10
-1.17426728E+02
 20
9.10906414E+01
  0
VERTEX
  8
0
 62
7
 10
-1.17354582E+02
 20
9.07879052E+01
  0
VERTEX
  8
0
 62
7
 10
-1.17259293E+02
 20
9.04938771E+01
  0
VERTEX
  8
0
 62
7
 10
-1.17141629E+02
 20
9.02109244E+01
  0
VERTEX
  8
0
 62
7
 10
-1.17002537E+02
 20
8.99413253E+01
  0
VERTEX
  8
0
 62
7
 10
-1.16843137E+02
 20
8.96872504E+01
  0
VERTEX
  8
0
 62
7
 10
-1.16664712E+02
 20
8.94507454E+01
  0
VERTEX
  8
0
 62
7
 10
-1.16468699E+02
 20
8.92337146E+01
  0
VERTEX
  8
0
 62
7
 10
-1.16256675E+02
 20
8.90379052E+01
  0
VERTEX
  8
0
 62
7
 10
-1.16030349E+02
 20
8.88648939E+01
  0
VERTEX
  8
0
 62
7
 10
-1.15791542E+02
 20
8.87160737E+01
  0
VERTEX
  8
0
 62
7
 10
-1.15542177E+02
 20
8.85926427E+01
  0
VERTEX
  8
0
 62
7
 10
-1.15284262E+02
 20
8.84955947E+01
  0
VERTEX
  8
0
 62
7
 10
-1.15019874E+02
 20
8.84257111E+01
  0
VERTEX
  8
0
 62
7
 10
-1.14751140E+02
 20
8.83835547E+01
  0
VERTEX
  8
0
 62
7
 10
-1.14480225E+02
 20
8.83694647E+01
  0
SEQEND
  8
0
  0
POLYLINE
  8
0
 62
7
 66
1
  0
VERTEX
  8
0
 62
7
 10
-1.14480225E+02
 20
8.83694647E+01
  0
VERTEX
  8
0
 62
7
 10
-1.14751140E+02
 20
8.83553747E+01
  0
VERTEX
  8
0
 62
7
 10
-1.15019874E+02
 20
8.83132183E+01
  0
VERTEX
  8
0
 62
7
 10
-1.15284262E+02
 20
8.82433347E+01
  0
VERTEX
  8
0
 62
7
 10
-1.15542177E+02
 20
8.81462867E+01
  0
VERTEX
  8
0
 62
7
 10
-1.15791542E+02
 20
8.80228557E+01
  0
VERTEX
  8
0
 62
7
 10
-1.16030349E+02
 20
8.78740355E+01
  0
VERTEX
  8
0
 62
7
 10
-1.16256675E+02
 20
8.77010242E+01
  0
VERTEX
  8
0
 62
7
 10
-1.16468699E+02
 20
8.75052148E+01
  0
VERTEX
  8
0
 62
7
 10
-1.16664712E+02
 20
8.72881840E+01
  0
VERTEX
  8
0
 62
7
 10
-1.16843137E+02
 20
8.70516790E+01
  0
VERTEX
  8
0
 62
7
 10
-1.17002537E+02
 20
8.67976041E+01
  0
VERTEX
  8
0
 62
7
 10
-1.17141629E+02
 20
8.65280050E+01
  0
VERTEX
  8
0
 62
7
 10
-1.17259293E+02
 20
8.62450523E+01
  0
VERTEX
  8
0
 62
7
 10
-1.17354582E+02
 20
8.59510242E+01
  0
VERTEX
  8
0
 62
7
 10
-1.17426728E+02
 20
8.56482880E+01
  0
VERTEX
  8
0
 62
7
 10
-1.17475150E+02
 20
8.53392811E+01
  0
VERTEX
  8
0
 62
7
 10
-1.17499460E+02
 20
8.50264916E+01
  0
VERTEX
  8
0
 62
7
 10
-1.17499460E+02
 20
8.47124378E+01
  0
VERTEX
  8
0
 62
7
 10
-1.17475150E+02
 20
8.43996483E+01
  0
VERTEX
  8
0
 62
7
 10
-1.17426728E+02
 20
8.40906414E+01
  0
VERTEX
  8
0
 62
7
 10
-1.17354582E+02
 20
8.37879052E+01
  0
VERTEX
  8
0
 62
7
 10
-1.17259293E+02
 20
8.34938771E+01
  0
VERTEX
  8
0
 62
7
 10
-1.17141629E+02
 20
8.32109244E+01
  0
VERTEX
  8
0
 62
7
 10
-1.17002537E+02
 20
8.29413253E+01
  0
VERTEX
  8
0
 62
7
 10
-1.16843137E+02
 20
8.26872504E+01
  0
VERTEX
  8
0
 62
7
 10
-1.16664712E+02
 20
8.24507454E+01
  0
VERTEX
  8
0
 62
7
 10
-1.16468699E+02
 20
8.22337146E+01
  0
VERTEX
  8
0
 62
7
 10
-1.16256675E+02
 20
8.20379052E+01
  0
VERTEX
  8
0
 62
7
 10
-1.16030349E+02
 20
8.18648939E+01
  0
VERTEX
  8
0
 62
7
 10
-1.15791542E+02
 20
8.17160737E+01
  0
VERTEX
  8
0
 62
7
 10
-1.15542177E+02
 20
8.15926427E+01
  0
VERTEX
  8
0
 62
7
 10
-1.15284262E+02
 20
8.14955947E+01
  0
VERTEX
  8
0
 62
7
 10
-1.15019874E+02
 20
8.14257111E+01
  0
VERTEX
  8
0
 62
7
 10
-1.14751140E+02
 20
8.13835547E+01
  0
VERTEX
  8
0
 62
7
 10
-1.14480225E+02
 20
8.13694647E+01
  0
SEQEND
  8
0
  0
LINE
  8
0
 62
2
 10
-1.30250000E+02
 20
9.36694830E+01
 11
-1.23250000E+02
 21
9.36694830E+01
  0
LINE
  8
0
 62
7
 10
-1.30250000E+02
 20
9.43694647E+01
 11
-1.23250000E+02
 21
9.43694647E+01
  0
LINE
  8
0
 62
7
 10
-1.30250000E+02
 20
8.23694647E+01
 11
-1.23250000E+02
 21
8.23694647E+01
  0
LINE
  8
0
 62
2
 10
-1.30250000E+02
 20
8.30694464E+01
 11
-1.23250000E+02
 21
8.30694464E+01
  0
LINE
  8
0
 62
7
 10
1.55249969E+02
 20
9.53694494E+01
 11
1.48750000E+02
 21
9.53694494E+01
  0
LINE
  8
0
 62
2
 10
1.55249969E+02
 20
9.45494573E+01
 11
1.48750000E+02
 21
9.45494573E+01
  0
LINE
  8
0
 62
2
 10
1.55249969E+02
 20
8.21894262E+01
 11
1.48750000E+02
 21
8.21894262E+01
  0
LINE
  8
0
 62
7
 10
1.55249969E+02
 20
8.13694342E+01
 11
1.48750000E+02
 21
8.13694342E+01
  0
LINE
  8
0
 62
4
 10
1.56232450E+02
 20
1.01071171E+02
 11
1.62267489E+02
 21
1.01071171E+02
  0
LINE
  8
0
 62
4
 10
1.56232450E+02
 20
9.47203176E+01
 11
1.62267489E+02
 21
9.47203176E+01
  0
LINE
  8
0
 62
4
 10
1.56232450E+02
 20
8.20186117E+01
 11
1.62267489E+02
 21
8.20186117E+01
  0
LINE
  8
0
 62
4
 10
1.55249969E+02
 20
7.73694647E+01
 11
1.55249969E+02
 21
9.93694647E+01
  0
LINE
  8
0
 62
4
 10
1.63249969E+02
 20
7.73694647E+01
 11
1.63249969E+02
 21
9.93694647E+01
  0
LINE
  8
0
 62
4
 10
1.55249969E+02
 20
9.93694646E+01
 11
1.56232450E+02
 21
1.01071171E+02
  0
LINE
  8
0
 62
4
 10
1.63249969E+02
 20
9.93694647E+01
 11
1.62267489E+02
 21
1.01071171E+02
  0
LINE
  8
0
 62
4
 10
1.55249969E+02
 20
7.73694647E+01
 11
1.56232450E+02
 21
7.56677588E+01
  0
LINE
  8
0
 62
4
 10
1.63249969E+02
 20
7.73694647E+01
 11
1.62267489E+02
 21
7.56677586E+01
  0
LINE
  8
0
 62
4
 10
1.56232450E+02
 20
7.56677587E+01
 11
1.62267489E+02
 21
7.56677587E+01
  0
ARC
  8
0
 62
4
 10
1.60872780E+02
 20
9.78957441E+01
 40
5.62281003E+00
 50
1.45615752E+02
 51
2.14384247E+02
  0
ARC
  8
0
 62
4
 10
1.76267489E+02
 20
8.83694646E+01
 40
2.10175199E+01
 50
1.62412046E+02
 51
1.97587953E+02
  0
ARC
  8
0
 62
4
 10
1.60872780E+02
 20
7.88431852E+01
 40
5.62281017E+00
 50
1.45615753E+02
 51
2.14384247E+02
  0
ARC
  8
0
 62
4
 10
1.57627159E+02
 20
9.78957441E+01
 40
5.62281003E+00
 50
3.25615753E+02
 51
3.43842476E+01
  0
ARC
  8
0
 62
4
 10
1.42232450E+02
 20
8.83694646E+01
 40
2.10175199E+01
 50
3.42412047E+02
 51
1.75879537E+01
  0
ARC
  8
0
 62
4
 10
1.57627159E+02
 20
7.88431852E+01
 40
5.62281017E+00
 50
3.25615753E+02
 51
3.43842467E+01
  0
LINE
  8
0
 62
4
 10
-1.37250000E+02
 20
7.88694647E+01
 11
-1.37250000E+02
 21
9.78694646E+01
  0
LINE
  8
0
 62
4
 10
-1.30250000E+02
 20
7.88694647E+01
 11
-1.30250000E+02
 21
9.78694646E+01
  0
LINE
  8
0
 62
4
 10
-1.36401494E+02
 20
9.93391198E+01
 11
-1.31098506E+02
 21
9.93391198E+01
  0
LINE
  8
0
 62
4
 10
-1.36401494E+02
 20
7.73998095E+01
 11
-1.31098506E+02
 21
7.73998095E+01
  0
LINE
  8
0
 62
4
 10
-1.30250000E+02
 20
9.78694646E+01
 11
-1.31098506E+02
 21
9.93391197E+01
  0
LINE
  8
0
 62
4
 10
-1.37250000E+02
 20
9.78694646E+01
 11
-1.36401494E+02
 21
9.93391197E+01
  0
LINE
  8
0
 62
4
 10
-1.30250000E+02
 20
7.88694647E+01
 11
-1.31098506E+02
 21
7.73998095E+01
  0
LINE
  8
0
 62
4
 10
-1.37250000E+02
 20
7.88694647E+01
 11
-1.36401494E+02
 21
7.73998096E+01
  0
LINE
  8
0
 62
4
 10
-1.36401494E+02
 20
9.38542922E+01
 11
-1.31098506E+02
 21
9.38542922E+01
  0
LINE
  8
0
 62
4
 10
-1.36401494E+02
 20
8.28846371E+01
 11
-1.31098506E+02
 21
8.28846371E+01
  0
LINE
  8
0
 62
4
 10
-1.36401494E+02
 20
7.73998095E+01
 11
-1.36401494E+02
 21
8.28846371E+01
  0
ARC
  8
0
 62
4
 10
-1.32393937E+02
 20
9.65967060E+01
 40
4.85606317E+00
 50
1.45615752E+02
 51
2.14384248E+02
  0
ARC
  8
0
 62
4
 10
-1.32393937E+02
 20
8.01422233E+01
 40
4.85606318E+00
 50
1.45615752E+02
 51
2.14384248E+02
  0
ARC
  8
0
 62
4
 10
-1.19098506E+02
 20
8.83694647E+01
 40
1.81514940E+01
 50
1.62412046E+02
 51
1.97587954E+02
  0
ARC
  8
0
 62
4
 10
-1.48401494E+02
 20
8.83694647E+01
 40
1.81514940E+01
 50
3.42412046E+02
 51
1.75879539E+01
  0
ARC
  8
0
 62
4
 10
-1.35106063E+02
 20
9.65967060E+01
 40
4.85606317E+00
 50
3.25615752E+02
 51
3.43842477E+01
  0
ARC
  8
0
 62
4
 10
-1.35106063E+02
 20
8.01422233E+01
 40
4.85606318E+00
 50
3.25615752E+02
 51
3.43842479E+01
  0
LINE
  8
0
  6
CENTER
 62
6
 10
4.02500610E+01
 20
1.13859316E+02
 11
-6.74993896E+00
 21
1.13859316E+02
  0
LINE
  8
0
 62
4
 10
-2.37500000E+01
 20
1.15359316E+02
 11
-2.37500000E+01
 21
1.26875902E+02
  0
LINE
  8
0
 62
6
 10
-3.01788813E+00
 20
1.16859316E+02
 11
-6.48198974E+00
 21
1.10859316E+02
  0
LINE
  8
0
 62
6
 10
-1.54820508E+01
 20
1.10859316E+02
 11
-1.20179492E+01
 21
1.16859316E+02
  0
LINE
  8
0
 62
4
 10
5.25006105E+00
 20
1.15359316E+02
 11
-3.88391356E+00
 21
1.15359316E+02
  0
LINE
  8
0
 62
4
 10
5.25006104E+00
 20
1.12359316E+02
 11
-5.61596436E+00
 21
1.12359316E+02
  0
LINE
  8
0
 62
4
 10
-3.02500000E+01
 20
1.12359316E+02
 11
-1.46160254E+01
 21
1.12359316E+02
  0
LINE
  8
0
  6
CENTER
 62
6
 10
-5.87500000E+01
 20
1.13859316E+02
 11
-1.17500000E+01
 21
1.13859316E+02
  0
LINE
  8
0
 62
4
 10
-3.02500000E+01
 20
1.15359316E+02
 11
-1.28839746E+01
 21
1.15359316E+02
  0
LINE
  8
0
 62
4
 10
3.67500000E+01
 20
1.15168371E+02
 11
3.67500000E+01
 21
1.12544468E+02
  0
LINE
  8
0
 62
4
 10
3.67500000E+01
 20
1.12544468E+02
 11
3.52500000E+01
 21
1.11542404E+02
  0
LINE
  8
0
 62
4
 10
3.67500000E+01
 20
1.12937781E+02
 11
3.52500000E+01
 21
1.12236997E+02
  0
LINE
  8
0
 62
4
 10
3.52500000E+01
 20
1.16176228E+02
 11
3.67500000E+01
 21
1.15168371E+02
  0
LINE
  8
0
 62
4
 10
-3.58127552E+01
 20
1.16176228E+02
 11
-3.02500000E+01
 21
1.16176228E+02
  0
LINE
  8
0
 62
4
 10
-3.54128770E+01
 20
1.16633902E+02
 11
-2.37500000E+01
 21
1.16633902E+02
  0
LINE
  8
0
  6
CENTER
 62
6
 10
-2.87500000E+01
 20
1.22444268E+02
 11
-3.37500000E+01
 21
1.22444268E+02
  0
LINE
  8
0
  6
CENTER
 62
6
 10
-3.12500000E+01
 20
1.24944268E+02
 11
-3.12500000E+01
 21
1.19944268E+02
  0
LINE
  8
0
  6
CENTER
 62
6
 10
-3.62500000E+01
 20
1.18997440E+02
 11
-4.12500000E+01
 21
1.18997440E+02
  0
LINE
  8
0
  6
CENTER
 62
6
 10
-3.87500000E+01
 20
1.21497440E+02
 11
-3.87500000E+01
 21
1.16497440E+02
  0
LINE
  8
0
  6
CENTER
 62
6
 10
-4.37500000E+01
 20
1.22444268E+02
 11
-4.87500000E+01
 21
1.22444268E+02
  0
LINE
  8
0
  6
CENTER
 62
6
 10
-4.62500000E+01
 20
1.24944268E+02
 11
-4.62500000E+01
 21
1.19944268E+02
  0
POLYLINE
  8
0
 62
4
 66
1
  0
VERTEX
  8
0
 62
4
 10
-4.29000000E+01
 20
1.19063427E+02
  0
VERTEX
  8
0
 62
4
 10
-4.28832933E+01
 20
1.18697075E+02
  0
VERTEX
  8
0
 62
4
 10
-4.28333078E+01
 20
1.18333674E+02
  0
VERTEX
  8
0
 62
4
 10
-4.27504459E+01
 20
1.17976147E+02
  0
VERTEX
  8
0
 62
4
 10
-4.26353747E+01
 20
1.17627375E+02
  0
VERTEX
  8
0
 62
4
 10
-4.24890208E+01
 20
1.17290165E+02
  0
VERTEX
  8
0
 62
4
 10
-4.23125625E+01
 20
1.16967232E+02
  0
VERTEX
  8
0
 62
4
 10
-4.21074205E+01
 20
1.16661177E+02
  0
VERTEX
  8
0
 62
4
 10
-4.18752466E+01
 20
1.16374463E+02
  0
VERTEX
  8
0
 62
4
 10
-4.16179100E+01
 20
1.16109399E+02
  0
VERTEX
  8
0
 62
4
 10
-4.13374827E+01
 20
1.15868119E+02
  0
VERTEX
  8
0
 62
4
 10
-4.10362225E+01
 20
1.15652566E+02
  0
VERTEX
  8
0
 62
4
 10
-4.07165550E+01
 20
1.15464475E+02
  0
VERTEX
  8
0
 62
4
 10
-4.03810539E+01
 20
1.15305361E+02
  0
VERTEX
  8
0
 62
4
 10
-4.00324205E+01
 20
1.15176505E+02
  0
VERTEX
  8
0
 62
4
 10
-3.96734619E+01
 20
1.15078943E+02
  0
VERTEX
  8
0
 62
4
 10
-3.93070681E+01
 20
1.15013463E+02
  0
VERTEX
  8
0
 62
4
 10
-3.89361891E+01
 20
1.14980590E+02
  0
VERTEX
  8
0
 62
4
 10
-3.85638110E+01
 20
1.14980590E+02
  0
VERTEX
  8
0
 62
4
 10
-3.81929320E+01
 20
1.15013463E+02
  0
VERTEX
  8
0
 62
4
 10
-3.78265381E+01
 20
1.15078943E+02
  0
VERTEX
  8
0
 62
4
 10
-3.74675795E+01
 20
1.15176504E+02
  0
VERTEX
  8
0
 62
4
 10
-3.71189461E+01
 20
1.15305361E+02
  0
VERTEX
  8
0
 62
4
 10
-3.67834451E+01
 20
1.15464475E+02
  0
VERTEX
  8
0
 62
4
 10
-3.64637775E+01
 20
1.15652566E+02
  0
VERTEX
  8
0
 62
4
 10
-3.61625173E+01
 20
1.15868119E+02
  0
VERTEX
  8
0
 62
4
 10
-3.58820900E+01
 20
1.16109399E+02
  0
VERTEX
  8
0
 62
4
 10
-3.56247534E+01
 20
1.16374463E+02
  0
VERTEX
  8
0
 62
4
 10
-3.53925795E+01
 20
1.16661177E+02
  0
VERTEX
  8
0
 62
4
 10
-3.51874375E+01
 20
1.16967232E+02
  0
VERTEX
  8
0
 62
4
 10
-3.50109792E+01
 20
1.17290165E+02
  0
VERTEX
  8
0
 62
4
 10
-3.48646253E+01
 20
1.17627375E+02
  0
VERTEX
  8
0
 62
4
 10
-3.47495541E+01
 20
1.17976147E+02
  0
VERTEX
  8
0
 62
4
 10
-3.46666922E+01
 20
1.18333673E+02
  0
VERTEX
  8
0
 62
4
 10
-3.46167067E+01
 20
1.18697075E+02
  0
VERTEX
  8
0
 62
4
 10
-3.46000000E+01
 20
1.19063427E+02
  0
SEQEND
  8
0
  0
POLYLINE
  8
0
 62
4
 66
1
  0
VERTEX
  8
0
 62
4
 10
-3.46000000E+01
 20
1.19369047E+02
  0
VERTEX
  8
0
 62
4
 10
-3.46157920E+01
 20
1.19725248E+02
  0
VERTEX
  8
0
 62
4
 10
-3.46630478E+01
 20
1.20078739E+02
  0
VERTEX
  8
0
 62
4
 10
-3.47414078E+01
 20
1.20426828E+02
  0
VERTEX
  8
0
 62
4
 10
-3.48502756E+01
 20
1.20766867E+02
  0
VERTEX
  8
0
 62
4
 10
-3.49888227E+01
 20
1.21096268E+02
  0
VERTEX
  8
0
 62
4
 10
-3.51559946E+01
 20
1.21412523E+02
  0
VERTEX
  8
0
 62
4
 10
-3.53505190E+01
 20
1.21713226E+02
  0
VERTEX
  8
0
 62
4
 10
-3.55709156E+01
 20
1.21996089E+02
  0
VERTEX
  8
0
 62
4
 10
-3.58155069E+01
 20
1.22258959E+02
  0
VERTEX
  8
0
 62
4
 10
-3.60824314E+01
 20
1.22499834E+02
  0
VERTEX
  8
0
 62
4
 10
-3.63696578E+01
 20
1.22716882E+02
  0
VERTEX
  8
0
 62
4
 10
-3.66750000E+01
 20
1.22908451E+02
  0
VERTEX
  8
0
 62
4
 10
-3.69961342E+01
 20
1.23073084E+02
  0
VERTEX
  8
0
 62
4
 10
-3.73306164E+01
 20
1.23209526E+02
  0
VERTEX
  8
0
 62
4
 10
-3.76759010E+01
 20
1.23316740E+02
  0
VERTEX
  8
0
 62
4
 10
-3.80293601E+01
 20
1.23393909E+02
  0
VERTEX
  8
0
 62
4
 10
-3.83883037E+01
 20
1.23440447E+02
  0
VERTEX
  8
0
 62
4
 10
-3.87500000E+01
 20
1.23455999E+02
  0
VERTEX
  8
0
 62
4
 10
-3.91116963E+01
 20
1.23440447E+02
  0
VERTEX
  8
0
 62
4
 10
-3.94706399E+01
 20
1.23393909E+02
  0
VERTEX
  8
0
 62
4
 10
-3.98240990E+01
 20
1.23316740E+02
  0
VERTEX
  8
0
 62
4
 10
-4.01693836E+01
 20
1.23209526E+02
  0
VERTEX
  8
0
 62
4
 10
-4.05038658E+01
 20
1.23073084E+02
  0
VERTEX
  8
0
 62
4
 10
-4.08250000E+01
 20
1.22908451E+02
  0
VERTEX
  8
0
 62
4
 10
-4.11303422E+01
 20
1.22716882E+02
  0
VERTEX
  8
0
 62
4
 10
-4.14175686E+01
 20
1.22499834E+02
  0
VERTEX
  8
0
 62
4
 10
-4.16844931E+01
 20
1.22258959E+02
  0
VERTEX
  8
0
 62
4
 10
-4.19290844E+01
 20
1.21996089E+02
  0
VERTEX
  8
0
 62
4
 10
-4.21494810E+01
 20
1.21713226E+02
  0
VERTEX
  8
0
 62
4
 10
-4.23440054E+01
 20
1.21412523E+02
  0
VERTEX
  8
0
 62
4
 10
-4.25111773E+01
 20
1.21096268E+02
  0
VERTEX
  8
0
 62
4
 10
-4.26497244E+01
 20
1.20766867E+02
  0
VERTEX
  8
0
 62
4
 10
-4.27585922E+01
 20
1.20426828E+02
  0
VERTEX
  8
0
 62
4
 10
-4.28369522E+01
 20
1.20078739E+02
  0
VERTEX
  8
0
 62
4
 10
-4.28842080E+01
 20
1.19725248E+02
  0
VERTEX
  8
0
 62
4
 10
-4.29000000E+01
 20
1.19369047E+02
  0
VERTEX
  8
0
 62
4
 10
-4.28842080E+01
 20
1.19012846E+02
  0
VERTEX
  8
0
 62
4
 10
-4.28369522E+01
 20
1.18659355E+02
  0
VERTEX
  8
0
 62
4
 10
-4.27585922E+01
 20
1.18311266E+02
  0
VERTEX
  8
0
 62
4
 10
-4.26497244E+01
 20
1.17971227E+02
  0
VERTEX
  8
0
 62
4
 10
-4.25111773E+01
 20
1.17641826E+02
  0
VERTEX
  8
0
 62
4
 10
-4.23440054E+01
 20
1.17325571E+02
  0
VERTEX
  8
0
 62
4
 10
-4.21494810E+01
 20
1.17024868E+02
  0
VERTEX
  8
0
 62
4
 10
-4.19290844E+01
 20
1.16742005E+02
  0
VERTEX
  8
0
 62
4
 10
-4.16844931E+01
 20
1.16479135E+02
  0
VERTEX
  8
0
 62
4
 10
-4.14175686E+01
 20
1.16238260E+02
  0
VERTEX
  8
0
 62
4
 10
-4.11303422E+01
 20
1.16021212E+02
  0
VERTEX
  8
0
 62
4
 10
-4.08250000E+01
 20
1.15829643E+02
  0
VERTEX
  8
0
 62
4
 10
-4.05038658E+01
 20
1.15665010E+02
  0
VERTEX
  8
0
 62
4
 10
-4.01693836E+01
 20
1.15528568E+02
  0
VERTEX
  8
0
 62
4
 10
-3.98240990E+01
 20
1.15421354E+02
  0
VERTEX
  8
0
 62
4
 10
-3.94706399E+01
 20
1.15344185E+02
  0
VERTEX
  8
0
 62
4
 10
-3.91116963E+01
 20
1.15297647E+02
  0
VERTEX
  8
0
 62
4
 10
-3.87500000E+01
 20
1.15282095E+02
  0
VERTEX
  8
0
 62
4
 10
-3.83883037E+01
 20
1.15297647E+02
  0
VERTEX
  8
0
 62
4
 10
-3.80293601E+01
 20
1.15344185E+02
  0
VERTEX
  8
0
 62
4
 10
-3.76759010E+01
 20
1.15421354E+02
  0
VERTEX
  8
0
 62
4
 10
-3.73306164E+01
 20
1.15528568E+02
  0
VERTEX
  8
0
 62
4
 10
-3.69961342E+01
 20
1.15665010E+02
  0
VERTEX
  8
0
 62
4
 10
-3.66750000E+01
 20
1.15829643E+02
  0
VERTEX
  8
0
 62
4
 10
-3.63696578E+01
 20
1.16021212E+02
  0
VERTEX
  8
0
 62
4
 10
-3.60824314E+01
 20
1.16238260E+02
  0
VERTEX
  8
0
 62
4
 10
-3.58155069E+01
 20
1.16479135E+02
  0
VERTEX
  8
0
 62
4
 10
-3.55709156E+01
 20
1.16742005E+02
  0
VERTEX
  8
0
 62
4
 10
-3.53505190E+01
 20
1.17024868E+02
  0
VERTEX
  8
0
 62
4
 10
-3.51559946E+01
 20
1.17325571E+02
  0
VERTEX
  8
0
 62
4
 10
-3.49888227E+01
 20
1.17641826E+02
  0
VERTEX
  8
0
 62
4
 10
-3.48502756E+01
 20
1.17971227E+02
  0
VERTEX
  8
0
 62
4
 10
-3.47414078E+01
 20
1.18311266E+02
  0
VERTEX
  8
0
 62
4
 10
-3.46630478E+01
 20
1.18659355E+02
  0
VERTEX
  8
0
 62
4
 10
-3.46157920E+01
 20
1.19012846E+02
  0
VERTEX
  8
0
 62
4
 10
-3.46000000E+01
 20
1.19369047E+02
  0
SEQEND
  8
0
  0
LINE
  8
0
 62
4
 10
-4.29000000E+01
 20
1.19063427E+02
 11
-4.29000000E+01
 21
1.19369047E+02
  0
LINE
  8
0
 62
4
 10
-3.46000000E+01
 20
1.19063427E+02
 11
-3.46000000E+01
 21
1.19369047E+02
  0
ARC
  8
0
 62
4
 10
9.36228232E+01
 20
-1.49304455E+01
 40
1.88658103E+02
 50
1.33811210E+02
 51
1.35318357E+02
  0
ARC
  8
0
 62
4
 10
-1.71122535E+02
 20
-1.49301524E+01
 40
1.88657692E+02
 50
4.46816411E+01
 51
4.61887918E+01
  0
LINE
  8
0
 62
4
 10
-3.50500000E+01
 20
1.22444268E+02
 11
-3.50500000E+01
 21
1.22617916E+02
  0
POLYLINE
  8
0
 62
4
 66
1
  0
VERTEX
  8
0
 62
4
 10
-3.50500000E+01
 20
1.22444268E+02
  0
VERTEX
  8
0
 62
4
 10
-3.50347023E+01
 20
1.22108814E+02
  0
VERTEX
  8
0
 62
4
 10
-3.49889325E+01
 20
1.21776060E+02
  0
VERTEX
  8
0
 62
4
 10
-3.49130589E+01
 20
1.21448686E+02
  0
VERTEX
  8
0
 62
4
 10
-3.48076925E+01
 20
1.21129329E+02
  0
VERTEX
  8
0
 62
4
 10
-3.46736817E+01
 20
1.20820558E+02
  0
VERTEX
  8
0
 62
4
 10
-3.45121054E+01
 20
1.20524861E+02
  0
VERTEX
  8
0
 62
4
 10
-3.43242646E+01
 20
1.20244617E+02
  0
VERTEX
  8
0
 62
4
 10
-3.41116716E+01
 20
1.19982084E+02
  0
VERTEX
  8
0
 62
4
 10
-3.38760381E+01
 20
1.19739375E+02
  0
VERTEX
  8
0
 62
4
 10
-3.36192613E+01
 20
1.19518444E+02
  0
VERTEX
  8
0
 62
4
 10
-3.33434086E+01
 20
1.19321070E+02
  0
VERTEX
  8
0
 62
4
 10
-3.30507009E+01
 20
1.19148842E+02
  0
VERTEX
  8
0
 62
4
 10
-3.27434951E+01
 20
1.19003147E+02
  0
VERTEX
  8
0
 62
4
 10
-3.24242646E+01
 20
1.18885158E+02
  0
VERTEX
  8
0
 62
4
 10
-3.20955796E+01
 20
1.18795825E+02
  0
VERTEX
  8
0
 62
4
 10
-3.17600864E+01
 20
1.18735867E+02
  0
VERTEX
  8
0
 62
4
 10
-3.14204864E+01
 20
1.18705767E+02
  0
VERTEX
  8
0
 62
4
 10
-3.10795137E+01
 20
1.18705767E+02
  0
VERTEX
  8
0
 62
4
 10
-3.07399136E+01
 20
1.18735867E+02
  0
VERTEX
  8
0
 62
4
 10
-3.04044205E+01
 20
1.18795825E+02
  0
VERTEX
  8
0
 62
4
 10
-3.00757354E+01
 20
1.18885158E+02
  0
VERTEX
  8
0
 62
4
 10
-2.97565049E+01
 20
1.19003147E+02
  0
VERTEX
  8
0
 62
4
 10
-2.94492991E+01
 20
1.19148842E+02
  0
VERTEX
  8
0
 62
4
 10
-2.91565915E+01
 20
1.19321070E+02
  0
VERTEX
  8
0
 62
4
 10
-2.88807388E+01
 20
1.19518444E+02
  0
VERTEX
  8
0
 62
4
 10
-2.86239619E+01
 20
1.19739375E+02
  0
VERTEX
  8
0
 62
4
 10
-2.83883284E+01
 20
1.19982084E+02
  0
VERTEX
  8
0
 62
4
 10
-2.81757354E+01
 20
1.20244617E+02
  0
VERTEX
  8
0
 62
4
 10
-2.79878946E+01
 20
1.20524861E+02
  0
VERTEX
  8
0
 62
4
 10
-2.78263183E+01
 20
1.20820558E+02
  0
VERTEX
  8
0
 62
4
 10
-2.76923075E+01
 20
1.21129329E+02
  0
VERTEX
  8
0
 62
4
 10
-2.75869411E+01
 20
1.21448686E+02
  0
VERTEX
  8
0
 62
4
 10
-2.75110675E+01
 20
1.21776060E+02
  0
VERTEX
  8
0
 62
4
 10
-2.74652977E+01
 20
1.22108814E+02
  0
VERTEX
  8
0
 62
4
 10
-2.74500000E+01
 20
1.22444268E+02
  0
SEQEND
  8
0
  0
POLYLINE
  8
0
 62
4
 66
1
  0
VERTEX
  8
0
 62
4
 10
-3.50500000E+01
 20
1.22617916E+02
  0
VERTEX
  8
0
 62
4
 10
-3.50355399E+01
 20
1.22291756E+02
  0
VERTEX
  8
0
 62
4
 10
-3.49922695E+01
 20
1.21968078E+02
  0
VERTEX
  8
0
 62
4
 10
-3.49205182E+01
 20
1.21649345E+02
  0
VERTEX
  8
0
 62
4
 10
-3.48208320E+01
 20
1.21337984E+02
  0
VERTEX
  8
0
 62
4
 10
-3.46939696E+01
 20
1.21036365E+02
  0
VERTEX
  8
0
 62
4
 10
-3.45408966E+01
 20
1.20746781E+02
  0
VERTEX
  8
0
 62
4
 10
-3.43627778E+01
 20
1.20471438E+02
  0
VERTEX
  8
0
 62
4
 10
-3.41609689E+01
 20
1.20212432E+02
  0
VERTEX
  8
0
 62
4
 10
-3.39370058E+01
 20
1.19971732E+02
  0
VERTEX
  8
0
 62
4
 10
-3.36925929E+01
 20
1.19751171E+02
  0
VERTEX
  8
0
 62
4
 10
-3.34295905E+01
 20
1.19552428E+02
  0
VERTEX
  8
0
 62
4
 10
-3.31500000E+01
 20
1.19377016E+02
  0
VERTEX
  8
0
 62
4
 10
-3.28559494E+01
 20
1.19226268E+02
  0
VERTEX
  8
0
 62
4
 10
-3.25496766E+01
 20
1.19101333E+02
  0
VERTEX
  8
0
 62
4
 10
-3.22335124E+01
 20
1.19003161E+02
  0
VERTEX
  8
0
 62
4
 10
-3.19098631E+01
 20
1.18932500E+02
  0
VERTEX
  8
0
 62
4
 10
-3.15811918E+01
 20
1.18889887E+02
  0
VERTEX
  8
0
 62
4
 10
-3.12500000E+01
 20
1.18875647E+02
  0
VERTEX
  8
0
 62
4
 10
-3.09188082E+01
 20
1.18889887E+02
  0
VERTEX
  8
0
 62
4
 10
-3.05901369E+01
 20
1.18932500E+02
  0
VERTEX
  8
0
 62
4
 10
-3.02664876E+01
 20
1.19003161E+02
  0
VERTEX
  8
0
 62
4
 10
-2.99503235E+01
 20
1.19101333E+02
  0
VERTEX
  8
0
 62
4
 10
-2.96440506E+01
 20
1.19226268E+02
  0
VERTEX
  8
0
 62
4
 10
-2.93500000E+01
 20
1.19377016E+02
  0
VERTEX
  8
0
 62
4
 10
-2.90704095E+01
 20
1.19552428E+02
  0
VERTEX
  8
0
 62
4
 10
-2.88074071E+01
 20
1.19751171E+02
  0
VERTEX
  8
0
 62
4
 10
-2.85629942E+01
 20
1.19971732E+02
  0
VERTEX
  8
0
 62
4
 10
-2.83390311E+01
 20
1.20212432E+02
  0
VERTEX
  8
0
 62
4
 10
-2.81372222E+01
 20
1.20471438E+02
  0
VERTEX
  8
0
 62
4
 10
-2.79591034E+01
 20
1.20746781E+02
  0
VERTEX
  8
0
 62
4
 10
-2.78060304E+01
 20
1.21036365E+02
  0
VERTEX
  8
0
 62
4
 10
-2.76791680E+01
 20
1.21337984E+02
  0
VERTEX
  8
0
 62
4
 10
-2.75794818E+01
 20
1.21649345E+02
  0
VERTEX
  8
0
 62
4
 10
-2.75077305E+01
 20
1.21968078E+02
  0
VERTEX
  8
0
 62
4
 10
-2.74644601E+01
 20
1.22291756E+02
  0
VERTEX
  8
0
 62
4
 10
-2.74500000E+01
 20
1.22617916E+02
  0
VERTEX
  8
0
 62
4
 10
-2.74644601E+01
 20
1.22944076E+02
  0
VERTEX
  8
0
 62
4
 10
-2.75077305E+01
 20
1.23267754E+02
  0
VERTEX
  8
0
 62
4
 10
-2.75794818E+01
 20
1.23586487E+02
  0
VERTEX
  8
0
 62
4
 10
-2.76791680E+01
 20
1.23897848E+02
  0
VERTEX
  8
0
 62
4
 10
-2.78060304E+01
 20
1.24199467E+02
  0
VERTEX
  8
0
 62
4
 10
-2.79591034E+01
 20
1.24489051E+02
  0
VERTEX
  8
0
 62
4
 10
-2.81372222E+01
 20
1.24764394E+02
  0
VERTEX
  8
0
 62
4
 10
-2.83390311E+01
 20
1.25023400E+02
  0
VERTEX
  8
0
 62
4
 10
-2.85629942E+01
 20
1.25264100E+02
  0
VERTEX
  8
0
 62
4
 10
-2.88074071E+01
 20
1.25484661E+02
  0
VERTEX
  8
0
 62
4
 10
-2.90704095E+01
 20
1.25683404E+02
  0
VERTEX
  8
0
 62
4
 10
-2.93500000E+01
 20
1.25858816E+02
  0
VERTEX
  8
0
 62
4
 10
-2.96440506E+01
 20
1.26009564E+02
  0
VERTEX
  8
0
 62
4
 10
-2.99503234E+01
 20
1.26134499E+02
  0
VERTEX
  8
0
 62
4
 10
-3.02664876E+01
 20
1.26232671E+02
  0
VERTEX
  8
0
 62
4
 10
-3.05901369E+01
 20
1.26303332E+02
  0
VERTEX
  8
0
 62
4
 10
-3.09188082E+01
 20
1.26345945E+02
  0
VERTEX
  8
0
 62
4
 10
-3.12500000E+01
 20
1.26360185E+02
  0
VERTEX
  8
0
 62
4
 10
-3.15811918E+01
 20
1.26345945E+02
  0
VERTEX
  8
0
 62
4
 10
-3.19098631E+01
 20
1.26303332E+02
  0
VERTEX
  8
0
 62
4
 10
-3.22335124E+01
 20
1.26232671E+02
  0
VERTEX
  8
0
 62
4
 10
-3.25496766E+01
 20
1.26134499E+02
  0
VERTEX
  8
0
 62
4
 10
-3.28559494E+01
 20
1.26009564E+02
  0
VERTEX
  8
0
 62
4
 10
-3.31500000E+01
 20
1.25858816E+02
  0
VERTEX
  8
0
 62
4
 10
-3.34295905E+01
 20
1.25683404E+02
  0
VERTEX
  8
0
 62
4
 10
-3.36925929E+01
 20
1.25484661E+02
  0
VERTEX
  8
0
 62
4
 10
-3.39370058E+01
 20
1.25264100E+02
  0
VERTEX
  8
0
 62
4
 10
-3.41609689E+01
 20
1.25023400E+02
  0
VERTEX
  8
0
 62
4
 10
-3.43627778E+01
 20
1.24764394E+02
  0
VERTEX
  8
0
 62
4
 10
-3.45408966E+01
 20
1.24489051E+02
  0
VERTEX
  8
0
 62
4
 10
-3.46939696E+01
 20
1.24199467E+02
  0
VERTEX
  8
0
 62
4
 10
-3.48208320E+01
 20
1.23897848E+02
  0
VERTEX
  8
0
 62
4
 10
-3.49205182E+01
 20
1.23586487E+02
  0
VERTEX
  8
0
 62
4
 10
-3.49922695E+01
 20
1.23267754E+02
  0
VERTEX
  8
0
 62
4
 10
-3.50355399E+01
 20
1.22944076E+02
  0
VERTEX
  8
0
 62
4
 10
-3.50500000E+01
 20
1.22617916E+02
  0
SEQEND
  8
0
  0
LINE
  8
0
 62
4
 10
-2.74500000E+01
 20
1.22444268E+02
 11
-2.74500000E+01
 21
1.22617916E+02
  0
LINE
  8
0
 62
4
 10
-3.46500000E+01
 20
1.22617916E+02
 11
-3.46500000E+01
 21
1.22814278E+02
  0
POLYLINE
  8
0
 62
4
 66
1
  0
VERTEX
  8
0
 62
4
 10
-3.46500000E+01
 20
1.22617916E+02
  0
VERTEX
  8
0
 62
4
 10
-3.46363126E+01
 20
1.22317773E+02
  0
VERTEX
  8
0
 62
4
 10
-3.45953606E+01
 20
1.22020046E+02
  0
VERTEX
  8
0
 62
4
 10
-3.45274738E+01
 20
1.21727133E+02
  0
VERTEX
  8
0
 62
4
 10
-3.44331986E+01
 20
1.21441391E+02
  0
VERTEX
  8
0
 62
4
 10
-3.43132942E+01
 20
1.21165123E+02
  0
VERTEX
  8
0
 62
4
 10
-3.41687259E+01
 20
1.20900552E+02
  0
VERTEX
  8
0
 62
4
 10
-3.40006578E+01
 20
1.20649807E+02
  0
VERTEX
  8
0
 62
4
 10
-3.38104430E+01
 20
1.20414909E+02
  0
VERTEX
  8
0
 62
4
 10
-3.35996130E+01
 20
1.20197748E+02
  0
VERTEX
  8
0
 62
4
 10
-3.33698654E+01
 20
1.20000073E+02
  0
VERTEX
  8
0
 62
4
 10
-3.31230498E+01
 20
1.19823476E+02
  0
VERTEX
  8
0
 62
4
 10
-3.28611535E+01
 20
1.19669377E+02
  0
VERTEX
  8
0
 62
4
 10
-3.25862851E+01
 20
1.19539019E+02
  0
VERTEX
  8
0
 62
4
 10
-3.23006578E+01
 20
1.19433449E+02
  0
VERTEX
  8
0
 62
4
 10
-3.20065712E+01
 20
1.19353520E+02
  0
VERTEX
  8
0
 62
4
 10
-3.17063931E+01
 20
1.19299873E+02
  0
VERTEX
  8
0
 62
4
 10
-3.14025404E+01
 20
1.19272941E+02
  0
VERTEX
  8
0
 62
4
 10
-3.10974596E+01
 20
1.19272941E+02
  0
VERTEX
  8
0
 62
4
 10
-3.07936069E+01
 20
1.19299873E+02
  0
VERTEX
  8
0
 62
4
 10
-3.04934288E+01
 20
1.19353520E+02
  0
VERTEX
  8
0
 62
4
 10
-3.01993422E+01
 20
1.19433449E+02
  0
VERTEX
  8
0
 62
4
 10
-2.99137149E+01
 20
1.19539019E+02
  0
VERTEX
  8
0
 62
4
 10
-2.96388466E+01
 20
1.19669377E+02
  0
VERTEX
  8
0
 62
4
 10
-2.93769503E+01
 20
1.19823476E+02
  0
VERTEX
  8
0
 62
4
 10
-2.91301347E+01
 20
1.20000073E+02
  0
VERTEX
  8
0
 62
4
 10
-2.89003870E+01
 20
1.20197748E+02
  0
VERTEX
  8
0
 62
4
 10
-2.86895570E+01
 20
1.20414909E+02
  0
VERTEX
  8
0
 62
4
 10
-2.84993422E+01
 20
1.20649807E+02
  0
VERTEX
  8
0
 62
4
 10
-2.83312741E+01
 20
1.20900552E+02
  0
VERTEX
  8
0
 62
4
 10
-2.81867058E+01
 20
1.21165123E+02
  0
VERTEX
  8
0
 62
4
 10
-2.80668014E+01
 20
1.21441391E+02
  0
VERTEX
  8
0
 62
4
 10
-2.79725263E+01
 20
1.21727132E+02
  0
VERTEX
  8
0
 62
4
 10
-2.79046394E+01
 20
1.22020046E+02
  0
VERTEX
  8
0
 62
4
 10
-2.78636874E+01
 20
1.22317773E+02
  0
VERTEX
  8
0
 62
4
 10
-2.78500000E+01
 20
1.22617916E+02
  0
SEQEND
  8
0
  0
POLYLINE
  8
0
 62
4
 66
1
  0
VERTEX
  8
0
 62
4
 10
-3.46500000E+01
 20
1.22814278E+02
  0
VERTEX
  8
0
 62
4
 10
-3.46370620E+01
 20
1.22522450E+02
  0
VERTEX
  8
0
 62
4
 10
-3.45983464E+01
 20
1.22232844E+02
  0
VERTEX
  8
0
 62
4
 10
-3.45341478E+01
 20
1.21947662E+02
  0
VERTEX
  8
0
 62
4
 10
-3.44449549E+01
 20
1.21669076E+02
  0
VERTEX
  8
0
 62
4
 10
-3.43314465E+01
 20
1.21399206E+02
  0
VERTEX
  8
0
 62
4
 10
-3.41944864E+01
 20
1.21140105E+02
  0
VERTEX
  8
0
 62
4
 10
-3.40351170E+01
 20
1.20893745E+02
  0
VERTEX
  8
0
 62
4
 10
-3.38545511E+01
 20
1.20662002E+02
  0
VERTEX
  8
0
 62
4
 10
-3.36541631E+01
 20
1.20446639E+02
  0
VERTEX
  8
0
 62
4
 10
-3.34354779E+01
 20
1.20249296E+02
  0
VERTEX
  8
0
 62
4
 10
-3.32001599E+01
 20
1.20071473E+02
  0
VERTEX
  8
0
 62
4
 10
-3.29500000E+01
 20
1.19914525E+02
  0
VERTEX
  8
0
 62
4
 10
-3.26869021E+01
 20
1.19779645E+02
  0
VERTEX
  8
0
 62
4
 10
-3.24128685E+01
 20
1.19667861E+02
  0
VERTEX
  8
0
 62
4
 10
-3.21299848E+01
 20
1.19580023E+02
  0
VERTEX
  8
0
 62
4
 10
-3.18404038E+01
 20
1.19516800E+02
  0
VERTEX
  8
0
 62
4
 10
-3.15463295E+01
 20
1.19478673E+02
  0
VERTEX
  8
0
 62
4
 10
-3.12500000E+01
 20
1.19465931E+02
  0
VERTEX
  8
0
 62
4
 10
-3.09536705E+01
 20
1.19478673E+02
  0
VERTEX
  8
0
 62
4
 10
-3.06595962E+01
 20
1.19516800E+02
  0
VERTEX
  8
0
 62
4
 10
-3.03700152E+01
 20
1.19580023E+02
  0
VERTEX
  8
0
 62
4
 10
-3.00871315E+01
 20
1.19667861E+02
  0
VERTEX
  8
0
 62
4
 10
-2.98130979E+01
 20
1.19779645E+02
  0
VERTEX
  8
0
 62
4
 10
-2.95500000E+01
 20
1.19914525E+02
  0
VERTEX
  8
0
 62
4
 10
-2.92998401E+01
 20
1.20071473E+02
  0
VERTEX
  8
0
 62
4
 10
-2.90645221E+01
 20
1.20249296E+02
  0
VERTEX
  8
0
 62
4
 10
-2.88458369E+01
 20
1.20446639E+02
  0
VERTEX
  8
0
 62
4
 10
-2.86454489E+01
 20
1.20662002E+02
  0
VERTEX
  8
0
 62
4
 10
-2.84648830E+01
 20
1.20893745E+02
  0
VERTEX
  8
0
 62
4
 10
-2.83055136E+01
 20
1.21140105E+02
  0
VERTEX
  8
0
 62
4
 10
-2.81685535E+01
 20
1.21399206E+02
  0
VERTEX
  8
0
 62
4
 10
-2.80550451E+01
 20
1.21669076E+02
  0
VERTEX
  8
0
 62
4
 10
-2.79658522E+01
 20
1.21947662E+02
  0
VERTEX
  8
0
 62
4
 10
-2.79016536E+01
 20
1.22232844E+02
  0
VERTEX
  8
0
 62
4
 10
-2.78629380E+01
 20
1.22522450E+02
  0
VERTEX
  8
0
 62
4
 10
-2.78500000E+01
 20
1.22814278E+02
  0
VERTEX
  8
0
 62
4
 10
-2.78629380E+01
 20
1.23106106E+02
  0
VERTEX
  8
0
 62
4
 10
-2.79016536E+01
 20
1.23395712E+02
  0
VERTEX
  8
0
 62
4
 10
-2.79658522E+01
 20
1.23680894E+02
  0
VERTEX
  8
0
 62
4
 10
-2.80550451E+01
 20
1.23959480E+02
  0
VERTEX
  8
0
 62
4
 10
-2.81685535E+01
 20
1.24229350E+02
  0
VERTEX
  8
0
 62
4
 10
-2.83055136E+01
 20
1.24488451E+02
  0
VERTEX
  8
0
 62
4
 10
-2.84648830E+01
 20
1.24734811E+02
  0
VERTEX
  8
0
 62
4
 10
-2.86454489E+01
 20
1.24966554E+02
  0
VERTEX
  8
0
 62
4
 10
-2.88458369E+01
 20
1.25181917E+02
  0
VERTEX
  8
0
 62
4
 10
-2.90645221E+01
 20
1.25379260E+02
  0
VERTEX
  8
0
 62
4
 10
-2.92998401E+01
 20
1.25557083E+02
  0
VERTEX
  8
0
 62
4
 10
-2.95500000E+01
 20
1.25714031E+02
  0
VERTEX
  8
0
 62
4
 10
-2.98130979E+01
 20
1.25848911E+02
  0
VERTEX
  8
0
 62
4
 10
-3.00871315E+01
 20
1.25960695E+02
  0
VERTEX
  8
0
 62
4
 10
-3.03700152E+01
 20
1.26048533E+02
  0
VERTEX
  8
0
 62
4
 10
-3.06595962E+01
 20
1.26111756E+02
  0
VERTEX
  8
0
 62
4
 10
-3.09536705E+01
 20
1.26149883E+02
  0
VERTEX
  8
0
 62
4
 10
-3.12500000E+01
 20
1.26162625E+02
  0
VERTEX
  8
0
 62
4
 10
-3.15463295E+01
 20
1.26149883E+02
  0
VERTEX
  8
0
 62
4
 10
-3.18404038E+01
 20
1.26111756E+02
  0
VERTEX
  8
0
 62
4
 10
-3.21299848E+01
 20
1.26048533E+02
  0
VERTEX
  8
0
 62
4
 10
-3.24128685E+01
 20
1.25960695E+02
  0
VERTEX
  8
0
 62
4
 10
-3.26869021E+01
 20
1.25848911E+02
  0
VERTEX
  8
0
 62
4
 10
-3.29500000E+01
 20
1.25714031E+02
  0
VERTEX
  8
0
 62
4
 10
-3.32001599E+01
 20
1.25557083E+02
  0
VERTEX
  8
0
 62
4
 10
-3.34354779E+01
 20
1.25379260E+02
  0
VERTEX
  8
0
 62
4
 10
-3.36541631E+01
 20
1.25181917E+02
  0
VERTEX
  8
0
 62
4
 10
-3.38545511E+01
 20
1.24966554E+02
  0
VERTEX
  8
0
 62
4
 10
-3.40351170E+01
 20
1.24734811E+02
  0
VERTEX
  8
0
 62
4
 10
-3.41944864E+01
 20
1.24488451E+02
  0
VERTEX
  8
0
 62
4
 10
-3.43314465E+01
 20
1.24229350E+02
  0
VERTEX
  8
0
 62
4
 10
-3.44449549E+01
 20
1.23959480E+02
  0
VERTEX
  8
0
 62
4
 10
-3.45341478E+01
 20
1.23680894E+02
  0
VERTEX
  8
0
 62
4
 10
-3.45983464E+01
 20
1.23395712E+02
  0
VERTEX
  8
0
 62
4
 10
-3.46370620E+01
 20
1.23106106E+02
  0
VERTEX
  8
0
 62
4
 10
-3.46500000E+01
 20
1.22814278E+02
  0
SEQEND
  8
0
  0
LINE
  8
0
 62
4
 10
-2.78500000E+01
 20
1.22617916E+02
 11
-2.78500000E+01
 21
1.22814278E+02
  0
ARC
  8
0
 62
4
 10
9.99314687E+01
 20
-1.01934850E+01
 40
1.86971513E+02
 50
1.33801123E+02
 51
1.35321779E+02
  0
ARC
  8
0
 62
4
 10
-1.62431469E+02
 20
-1.01934850E+01
 40
1.86971513E+02
 50
4.46782203E+01
 51
4.61988768E+01
  0
LINE
  8
0
 62
4
 10
-5.37500000E+01
 20
1.12103786E+02
 11
-5.37500000E+01
 21
1.10369449E+02
  0
LINE
  8
0
 62
4
 10
-5.37500000E+01
 20
1.16176228E+02
 11
-5.37500000E+01
 21
1.12103786E+02
  0
LINE
  8
0
 62
4
 10
-5.37500000E+01
 20
1.16633902E+02
 11
-4.20871230E+01
 21
1.16633902E+02
  0
LINE
  8
0
 62
4
 10
-5.37500000E+01
 20
1.12236997E+02
 11
-3.02500000E+01
 21
1.12236997E+02
  0
LINE
  8
0
 62
4
 10
-5.37500000E+01
 20
1.16176228E+02
 11
-4.16872448E+01
 21
1.16176228E+02
  0
LINE
  8
0
 62
4
 10
-5.52500000E+01
 20
1.12544468E+02
 11
-5.37500000E+01
 21
1.11542404E+02
  0
LINE
  8
0
 62
4
 10
-5.52500000E+01
 20
1.12937781E+02
 11
-5.37500000E+01
 21
1.12236997E+02
  0
LINE
  8
0
 62
4
 10
-5.52500000E+01
 20
1.15168371E+02
 11
-5.52500000E+01
 21
1.12544468E+02
  0
LINE
  8
0
 62
4
 10
-5.37500000E+01
 20
1.16176228E+02
 11
-5.52500000E+01
 21
1.15168371E+02
  0
LINE
  8
0
 62
4
 10
-5.37500000E+01
 20
1.12103786E+02
 11
-2.37500000E+01
 21
1.12103786E+02
  0
LINE
  8
0
 62
4
 10
-5.37500000E+01
 20
1.11118978E+02
 11
-2.37500000E+01
 21
1.11118978E+02
  0
LINE
  8
0
 62
4
 10
-5.37500000E+01
 20
1.26875902E+02
 11
-2.37500000E+01
 21
1.26875902E+02
  0
POLYLINE
  8
0
 62
4
 66
1
  0
VERTEX
  8
0
 62
4
 10
1.07500000E+01
 20
1.02699624E+02
  0
VERTEX
  8
0
 62
4
 10
1.07419486E+01
 20
1.02876179E+02
  0
VERTEX
  8
0
 62
4
 10
1.07178592E+01
 20
1.03051312E+02
  0
VERTEX
  8
0
 62
4
 10
1.06779257E+01
 20
1.03223614E+02
  0
VERTEX
  8
0
 62
4
 10
1.06224697E+01
 20
1.03391697E+02
  0
VERTEX
  8
0
 62
4
 10
1.05519377E+01
 20
1.03554208E+02
  0
VERTEX
  8
0
 62
4
 10
1.04668976E+01
 20
1.03709838E+02
  0
VERTEX
  8
0
 62
4
 10
1.03680340E+01
 20
1.03857335E+02
  0
VERTEX
  8
0
 62
4
 10
1.02561429E+01
 20
1.03995510E+02
  0
VERTEX
  8
0
 62
4
 10
1.01321253E+01
 20
1.04123252E+02
  0
VERTEX
  8
0
 62
4
 10
9.99697962E+00
 20
1.04239531E+02
  0
VERTEX
  8
0
 62
4
 10
9.85179398E+00
 20
1.04343412E+02
  0
VERTEX
  8
0
 62
4
 10
9.69773734E+00
 20
1.04434059E+02
  0
VERTEX
  8
0
 62
4
 10
9.53605008E+00
 20
1.04510740E+02
  0
VERTEX
  8
0
 62
4
 10
9.36803401E+00
 20
1.04572840E+02
  0
VERTEX
  8
0
 62
4
 10
9.19504188E+00
 20
1.04619857E+02
  0
VERTEX
  8
0
 62
4
 10
9.01846655E+00
 20
1.04651414E+02
  0
VERTEX
  8
0
 62
4
 10
8.83972968E+00
 20
1.04667256E+02
  0
VERTEX
  8
0
 62
4
 10
8.66027036E+00
 20
1.04667256E+02
  0
VERTEX
  8
0
 62
4
 10
8.48153349E+00
 20
1.04651414E+02
  0
VERTEX
  8
0
 62
4
 10
8.30495815E+00
 20
1.04619857E+02
  0
VERTEX
  8
0
 62
4
 10
8.13196603E+00
 20
1.04572840E+02
  0
VERTEX
  8
0
 62
4
 10
7.96394995E+00
 20
1.04510740E+02
  0
VERTEX
  8
0
 62
4
 10
7.80226269E+00
 20
1.04434059E+02
  0
VERTEX
  8
0
 62
4
 10
7.64820605E+00
 20
1.04343412E+02
  0
VERTEX
  8
0
 62
4
 10
7.50302041E+00
 20
1.04239531E+02
  0
VERTEX
  8
0
 62
4
 10
7.36787472E+00
 20
1.04123252E+02
  0
VERTEX
  8
0
 62
4
 10
7.24385708E+00
 20
1.03995510E+02
  0
VERTEX
  8
0
 62
4
 10
7.13196602E+00
 20
1.03857335E+02
  0
VERTEX
  8
0
 62
4
 10
7.03310242E+00
 20
1.03709838E+02
  0
VERTEX
  8
0
 62
4
 10
6.94806227E+00
 20
1.03554208E+02
  0
VERTEX
  8
0
 62
4
 10
6.87753027E+00
 20
1.03391697E+02
  0
VERTEX
  8
0
 62
4
 10
6.82207428E+00
 20
1.03223614E+02
  0
VERTEX
  8
0
 62
4
 10
6.78214083E+00
 20
1.03051312E+02
  0
VERTEX
  8
0
 62
4
 10
6.75805141E+00
 20
1.02876179E+02
  0
VERTEX
  8
0
 62
4
 10
6.75000000E+00
 20
1.02699624E+02
  0
SEQEND
  8
0
  0
POLYLINE
  8
0
 62
4
 66
1
  0
VERTEX
  8
0
 62
4
 10
6.75000000E+00
 20
1.02163985E+02
  0
VERTEX
  8
0
 62
4
 10
6.75761060E+00
 20
1.01992322E+02
  0
VERTEX
  8
0
 62
4
 10
6.78038449E+00
 20
1.01821965E+02
  0
VERTEX
  8
0
 62
4
 10
6.81814835E+00
 20
1.01654211E+02
  0
VERTEX
  8
0
 62
4
 10
6.87061476E+00
 20
1.01490337E+02
  0
VERTEX
  8
0
 62
4
 10
6.93738442E+00
 20
1.01331590E+02
  0
VERTEX
  8
0
 62
4
 10
7.01794919E+00
 20
1.01179177E+02
  0
VERTEX
  8
0
 62
4
 10
7.11169591E+00
 20
1.01034260E+02
  0
VERTEX
  8
0
 62
4
 10
7.21791111E+00
 20
1.00897941E+02
  0
VERTEX
  8
0
 62
4
 10
7.33578643E+00
 20
1.00771257E+02
  0
VERTEX
  8
0
 62
4
 10
7.46442478E+00
 20
1.00655172E+02
  0
VERTEX
  8
0
 62
4
 10
7.60284712E+00
 20
1.00550570E+02
  0
VERTEX
  8
0
 62
4
 10
7.74999999E+00
 20
1.00458248E+02
  0
VERTEX
  8
0
 62
4
 10
7.90476347E+00
 20
1.00378907E+02
  0
VERTEX
  8
0
 62
4
 10
8.06595971E+00
 20
1.00313152E+02
  0
VERTEX
  8
0
 62
4
 10
8.23236190E+00
 20
1.00261483E+02
  0
VERTEX
  8
0
 62
4
 10
8.40270364E+00
 20
1.00224292E+02
  0
VERTEX
  8
0
 62
4
 10
8.57568851E+00
 20
1.00201864E+02
  0
VERTEX
  8
0
 62
4
 10
8.74999999E+00
 20
1.00194369E+02
  0
VERTEX
  8
0
 62
4
 10
8.92431148E+00
 20
1.00201864E+02
  0
VERTEX
  8
0
 62
4
 10
9.09729635E+00
 20
1.00224292E+02
  0
VERTEX
  8
0
 62
4
 10
9.26763808E+00
 20
1.00261483E+02
  0
VERTEX
  8
0
 62
4
 10
9.43404028E+00
 20
1.00313152E+02
  0
VERTEX
  8
0
 62
4
 10
9.59523652E+00
 20
1.00378907E+02
  0
VERTEX
  8
0
 62
4
 10
9.75000000E+00
 20
1.00458248E+02
  0
VERTEX
  8
0
 62
4
 10
9.89715287E+00
 20
1.00550570E+02
  0
VERTEX
  8
0
 62
4
 10
1.00355752E+01
 20
1.00655172E+02
  0
VERTEX
  8
0
 62
4
 10
1.01642136E+01
 20
1.00771257E+02
  0
VERTEX
  8
0
 62
4
 10
1.02820889E+01
 20
1.00897941E+02
  0
VERTEX
  8
0
 62
4
 10
1.03883041E+01
 20
1.01034260E+02
  0
VERTEX
  8
0
 62
4
 10
1.04820508E+01
 20
1.01179177E+02
  0
VERTEX
  8
0
 62
4
 10
1.05626156E+01
 20
1.01331590E+02
  0
VERTEX
  8
0
 62
4
 10
1.06293852E+01
 20
1.01490337E+02
  0
VERTEX
  8
0
 62
4
 10
1.06818517E+01
 20
1.01654211E+02
  0
VERTEX
  8
0
 62
4
 10
1.07196155E+01
 20
1.01821965E+02
  0
VERTEX
  8
0
 62
4
 10
1.07423894E+01
 20
1.01992322E+02
  0
VERTEX
  8
0
 62
4
 10
1.07500000E+01
 20
1.02163985E+02
  0
VERTEX
  8
0
 62
4
 10
1.07423894E+01
 20
1.02335648E+02
  0
VERTEX
  8
0
 62
4
 10
1.07196155E+01
 20
1.02506005E+02
  0
VERTEX
  8
0
 62
4
 10
1.06818517E+01
 20
1.02673759E+02
  0
VERTEX
  8
0
 62
4
 10
1.06293852E+01
 20
1.02837633E+02
  0
VERTEX
  8
0
 62
4
 10
1.05626156E+01
 20
1.02996380E+02
  0
VERTEX
  8
0
 62
4
 10
1.04820508E+01
 20
1.03148793E+02
  0
VERTEX
  8
0
 62
4
 10
1.03883041E+01
 20
1.03293710E+02
  0
VERTEX
  8
0
 62
4
 10
1.02820889E+01
 20
1.03430029E+02
  0
VERTEX
  8
0
 62
4
 10
1.01642136E+01
 20
1.03556713E+02
  0
VERTEX
  8
0
 62
4
 10
1.00355752E+01
 20
1.03672798E+02
  0
VERTEX
  8
0
 62
4
 10
9.89715288E+00
 20
1.03777400E+02
  0
VERTEX
  8
0
 62
4
 10
9.75000000E+00
 20
1.03869722E+02
  0
VERTEX
  8
0
 62
4
 10
9.59523653E+00
 20
1.03949063E+02
  0
VERTEX
  8
0
 62
4
 10
9.43404029E+00
 20
1.04014818E+02
  0
VERTEX
  8
0
 62
4
 10
9.26763809E+00
 20
1.04066487E+02
  0
VERTEX
  8
0
 62
4
 10
9.09729636E+00
 20
1.04103678E+02
  0
VERTEX
  8
0
 62
4
 10
8.92431149E+00
 20
1.04126106E+02
  0
VERTEX
  8
0
 62
4
 10
8.75000000E+00
 20
1.04133601E+02
  0
VERTEX
  8
0
 62
4
 10
8.57568852E+00
 20
1.04126106E+02
  0
VERTEX
  8
0
 62
4
 10
8.40270365E+00
 20
1.04103678E+02
  0
VERTEX
  8
0
 62
4
 10
8.23236191E+00
 20
1.04066487E+02
  0
VERTEX
  8
0
 62
4
 10
8.06595972E+00
 20
1.04014818E+02
  0
VERTEX
  8
0
 62
4
 10
7.90476348E+00
 20
1.03949063E+02
  0
VERTEX
  8
0
 62
4
 10
7.75000000E+00
 20
1.03869722E+02
  0
VERTEX
  8
0
 62
4
 10
7.60284713E+00
 20
1.03777400E+02
  0
VERTEX
  8
0
 62
4
 10
7.46442478E+00
 20
1.03672798E+02
  0
VERTEX
  8
0
 62
4
 10
7.33578644E+00
 20
1.03556713E+02
  0
VERTEX
  8
0
 62
4
 10
7.21791112E+00
 20
1.03430029E+02
  0
VERTEX
  8
0
 62
4
 10
7.11169591E+00
 20
1.03293710E+02
  0
VERTEX
  8
0
 62
4
 10
7.01794919E+00
 20
1.03148793E+02
  0
VERTEX
  8
0
 62
4
 10
6.93738443E+00
 20
1.02996380E+02
  0
VERTEX
  8
0
 62
4
 10
6.87061476E+00
 20
1.02837633E+02
  0
VERTEX
  8
0
 62
4
 10
6.81814835E+00
 20
1.02673759E+02
  0
VERTEX
  8
0
 62
4
 10
6.78038449E+00
 20
1.02506005E+02
  0
VERTEX
  8
0
 62
4
 10
6.75761060E+00
 20
1.02335648E+02
  0
VERTEX
  8
0
 62
4
 10
6.75000000E+00
 20
1.02163985E+02
  0
SEQEND
  8
0
  0
LINE
  8
0
 62
4
 10
6.75000000E+00
 20
1.02163985E+02
 11
6.75000000E+00
 21
1.02699624E+02
  0
LINE
  8
0
 62
4
 10
1.07500000E+01
 20
1.02163985E+02
 11
1.07500000E+01
 21
1.02699624E+02
  0
POLYLINE
  8
0
 62
6
 66
1
  0
VERTEX
  8
0
 62
6
 10
1.02500000E+01
 20
1.02163985E+02
  0
VERTEX
  8
0
 62
6
 10
1.02442920E+01
 20
1.02292732E+02
  0
VERTEX
  8
0
 62
6
 10
1.02272116E+01
 20
1.02420500E+02
  0
VERTEX
  8
0
 62
6
 10
1.01988887E+01
 20
1.02546316E+02
  0
VERTEX
  8
0
 62
6
 10
1.01595389E+01
 20
1.02669221E+02
  0
VERTEX
  8
0
 62
6
 10
1.01094617E+01
 20
1.02788282E+02
  0
VERTEX
  8
0
 62
6
 10
1.00490381E+01
 20
1.02902591E+02
  0
VERTEX
  8
0
 62
6
 10
9.97872807E+00
 20
1.03011279E+02
  0
VERTEX
  8
0
 62
6
 10
9.89906666E+00
 20
1.03113518E+02
  0
VERTEX
  8
0
 62
6
 10
9.81066017E+00
 20
1.03208531E+02
  0
VERTEX
  8
0
 62
6
 10
9.71418141E+00
 20
1.03295595E+02
  0
VERTEX
  8
0
 62
6
 10
9.61036465E+00
 20
1.03374046E+02
  0
VERTEX
  8
0
 62
6
 10
9.50000000E+00
 20
1.03443288E+02
  0
VERTEX
  8
0
 62
6
 10
9.38392739E+00
 20
1.03502793E+02
  0
VERTEX
  8
0
 62
6
 10
9.26303021E+00
 20
1.03552110E+02
  0
VERTEX
  8
0
 62
6
 10
9.13822857E+00
 20
1.03590862E+02
  0
VERTEX
  8
0
 62
6
 10
9.01047227E+00
 20
1.03618754E+02
  0
VERTEX
  8
0
 62
6
 10
8.88073361E+00
 20
1.03635575E+02
  0
VERTEX
  8
0
 62
6
 10
8.75000000E+00
 20
1.03641197E+02
  0
VERTEX
  8
0
 62
6
 10
8.61926638E+00
 20
1.03635575E+02
  0
VERTEX
  8
0
 62
6
 10
8.48952773E+00
 20
1.03618754E+02
  0
VERTEX
  8
0
 62
6
 10
8.36177143E+00
 20
1.03590862E+02
  0
VERTEX
  8
0
 62
6
 10
8.23696978E+00
 20
1.03552110E+02
  0
VERTEX
  8
0
 62
6
 10
8.11607261E+00
 20
1.03502793E+02
  0
VERTEX
  8
0
 62
6
 10
8.00000000E+00
 20
1.03443288E+02
  0
VERTEX
  8
0
 62
6
 10
7.88963534E+00
 20
1.03374046E+02
  0
VERTEX
  8
0
 62
6
 10
7.78581858E+00
 20
1.03295595E+02
  0
VERTEX
  8
0
 62
6
 10
7.68933983E+00
 20
1.03208531E+02
  0
VERTEX
  8
0
 62
6
 10
7.60093333E+00
 20
1.03113518E+02
  0
VERTEX
  8
0
 62
6
 10
7.52127193E+00
 20
1.03011279E+02
  0
VERTEX
  8
0
 62
6
 10
7.45096189E+00
 20
1.02902591E+02
  0
VERTEX
  8
0
 62
6
 10
7.39053832E+00
 20
1.02788282E+02
  0
VERTEX
  8
0
 62
6
 10
7.34046107E+00
 20
1.02669221E+02
  0
VERTEX
  8
0
 62
6
 10
7.30111126E+00
 20
1.02546316E+02
  0
VERTEX
  8
0
 62
6
 10
7.27278837E+00
 20
1.02420500E+02
  0
VERTEX
  8
0
 62
6
 10
7.25570795E+00
 20
1.02292732E+02
  0
VERTEX
  8
0
 62
6
 10
7.25000000E+00
 20
1.02163985E+02
  0
VERTEX
  8
0
 62
6
 10
7.25570795E+00
 20
1.02035238E+02
  0
VERTEX
  8
0
 62
6
 10
7.27278837E+00
 20
1.01907470E+02
  0
VERTEX
  8
0
 62
6
 10
7.30111126E+00
 20
1.01781654E+02
  0
VERTEX
  8
0
 62
6
 10
7.34046107E+00
 20
1.01658749E+02
  0
VERTEX
  8
0
 62
6
 10
7.39053832E+00
 20
1.01539688E+02
  0
VERTEX
  8
0
 62
6
 10
7.45096190E+00
 20
1.01425379E+02
  0
VERTEX
  8
0
 62
6
 10
7.52127194E+00
 20
1.01316691E+02
  0
VERTEX
  8
0
 62
6
 10
7.60093334E+00
 20
1.01214452E+02
  0
VERTEX
  8
0
 62
6
 10
7.68933983E+00
 20
1.01119439E+02
  0
VERTEX
  8
0
 62
6
 10
7.78581859E+00
 20
1.01032375E+02
  0
VERTEX
  8
0
 62
6
 10
7.88963535E+00
 20
1.00953924E+02
  0
VERTEX
  8
0
 62
6
 10
8.00000000E+00
 20
1.00884682E+02
  0
VERTEX
  8
0
 62
6
 10
8.11607261E+00
 20
1.00825177E+02
  0
VERTEX
  8
0
 62
6
 10
8.23696979E+00
 20
1.00775860E+02
  0
VERTEX
  8
0
 62
6
 10
8.36177144E+00
 20
1.00737108E+02
  0
VERTEX
  8
0
 62
6
 10
8.48952774E+00
 20
1.00709216E+02
  0
VERTEX
  8
0
 62
6
 10
8.61926639E+00
 20
1.00692395E+02
  0
VERTEX
  8
0
 62
6
 10
8.75000000E+00
 20
1.00686773E+02
  0
VERTEX
  8
0
 62
6
 10
8.88073362E+00
 20
1.00692395E+02
  0
VERTEX
  8
0
 62
6
 10
9.01047227E+00
 20
1.00709216E+02
  0
VERTEX
  8
0
 62
6
 10
9.13822857E+00
 20
1.00737108E+02
  0
VERTEX
  8
0
 62
6
 10
9.26303022E+00
 20
1.00775860E+02
  0
VERTEX
  8
0
 62
6
 10
9.38392740E+00
 20
1.00825177E+02
  0
VERTEX
  8
0
 62
6
 10
9.50000000E+00
 20
1.00884682E+02
  0
VERTEX
  8
0
 62
6
 10
9.61036466E+00
 20
1.00953924E+02
  0
VERTEX
  8
0
 62
6
 10
9.71418142E+00
 20
1.01032375E+02
  0
VERTEX
  8
0
 62
6
 10
9.81066017E+00
 20
1.01119439E+02
  0
VERTEX
  8
0
 62
6
 10
9.89906667E+00
 20
1.01214452E+02
  0
VERTEX
  8
0
 62
6
 10
9.97872807E+00
 20
1.01316691E+02
  0
VERTEX
  8
0
 62
6
 10
1.00490381E+01
 20
1.01425379E+02
  0
VERTEX
  8
0
 62
6
 10
1.01094617E+01
 20
1.01539688E+02
  0
VERTEX
  8
0
 62
6
 10
1.01595389E+01
 20
1.01658749E+02
  0
VERTEX
  8
0
 62
6
 10
1.01988887E+01
 20
1.01781655E+02
  0
VERTEX
  8
0
 62
6
 10
1.02272116E+01
 20
1.01907470E+02
  0
VERTEX
  8
0
 62
6
 10
1.02442920E+01
 20
1.02035238E+02
  0
VERTEX
  8
0
 62
6
 10
1.02500000E+01
 20
1.02163985E+02
  0
SEQEND
  8
0
  0
LINE
  8
0
 62
4
 10
7.75000000E+00
 20
1.02735174E+02
 11
7.75000000E+00
 21
1.01592797E+02
  0
LINE
  8
0
 62
4
 10
9.75000000E+00
 20
1.02735174E+02
 11
9.75000000E+00
 21
1.01592797E+02
  0
LINE
  8
0
 62
4
 10
8.75000000E+00
 20
1.03296514E+02
 11
7.75000000E+00
 21
1.02735174E+02
  0
LINE
  8
0
 62
4
 10
8.75000000E+00
 20
1.03296514E+02
 11
9.75000000E+00
 21
1.02735174E+02
  0
LINE
  8
0
 62
4
 10
9.75000000E+00
 20
1.01592797E+02
 11
8.75000000E+00
 21
1.01021608E+02
  0
LINE
  8
0
 62
4
 10
7.75000000E+00
 20
1.01592797E+02
 11
8.75000000E+00
 21
1.01021608E+02
  0
LINE
  8
0
 62
4
 10
1.57500000E+01
 20
1.01592797E+02
 11
1.67500000E+01
 21
1.01021608E+02
  0
LINE
  8
0
 62
4
 10
1.77500000E+01
 20
1.01592797E+02
 11
1.67500000E+01
 21
1.01021608E+02
  0
LINE
  8
0
 62
4
 10
1.67500000E+01
 20
1.03296514E+02
 11
1.77500000E+01
 21
1.02735174E+02
  0
LINE
  8
0
 62
4
 10
1.67500000E+01
 20
1.03296514E+02
 11
1.57500000E+01
 21
1.02735174E+02
  0
LINE
  8
0
 62
4
 10
1.77500000E+01
 20
1.02735174E+02
 11
1.77500000E+01
 21
1.01592797E+02
  0
LINE
  8
0
 62
4
 10
1.57500000E+01
 20
1.02735174E+02
 11
1.57500000E+01
 21
1.01592797E+02
  0
POLYLINE
  8
0
 62
6
 66
1
  0
VERTEX
  8
0
 62
6
 10
1.82500000E+01
 20
1.02163985E+02
  0
VERTEX
  8
0
 62
6
 10
1.82442920E+01
 20
1.02292732E+02
  0
VERTEX
  8
0
 62
6
 10
1.82272116E+01
 20
1.02420500E+02
  0
VERTEX
  8
0
 62
6
 10
1.81988887E+01
 20
1.02546316E+02
  0
VERTEX
  8
0
 62
6
 10
1.81595389E+01
 20
1.02669221E+02
  0
VERTEX
  8
0
 62
6
 10
1.81094617E+01
 20
1.02788282E+02
  0
VERTEX
  8
0
 62
6
 10
1.80490381E+01
 20
1.02902591E+02
  0
VERTEX
  8
0
 62
6
 10
1.79787281E+01
 20
1.03011279E+02
  0
VERTEX
  8
0
 62
6
 10
1.78990667E+01
 20
1.03113518E+02
  0
VERTEX
  8
0
 62
6
 10
1.78106602E+01
 20
1.03208531E+02
  0
VERTEX
  8
0
 62
6
 10
1.77141814E+01
 20
1.03295595E+02
  0
VERTEX
  8
0
 62
6
 10
1.76103647E+01
 20
1.03374046E+02
  0
VERTEX
  8
0
 62
6
 10
1.75000000E+01
 20
1.03443288E+02
  0
VERTEX
  8
0
 62
6
 10
1.73839274E+01
 20
1.03502793E+02
  0
VERTEX
  8
0
 62
6
 10
1.72630302E+01
 20
1.03552110E+02
  0
VERTEX
  8
0
 62
6
 10
1.71382286E+01
 20
1.03590862E+02
  0
VERTEX
  8
0
 62
6
 10
1.70104723E+01
 20
1.03618754E+02
  0
VERTEX
  8
0
 62
6
 10
1.68807336E+01
 20
1.03635575E+02
  0
VERTEX
  8
0
 62
6
 10
1.67500000E+01
 20
1.03641197E+02
  0
VERTEX
  8
0
 62
6
 10
1.66192664E+01
 20
1.03635575E+02
  0
VERTEX
  8
0
 62
6
 10
1.64895277E+01
 20
1.03618754E+02
  0
VERTEX
  8
0
 62
6
 10
1.63617714E+01
 20
1.03590862E+02
  0
VERTEX
  8
0
 62
6
 10
1.62369698E+01
 20
1.03552110E+02
  0
VERTEX
  8
0
 62
6
 10
1.61160726E+01
 20
1.03502793E+02
  0
VERTEX
  8
0
 62
6
 10
1.60000000E+01
 20
1.03443288E+02
  0
VERTEX
  8
0
 62
6
 10
1.58896353E+01
 20
1.03374046E+02
  0
VERTEX
  8
0
 62
6
 10
1.57858186E+01
 20
1.03295595E+02
  0
VERTEX
  8
0
 62
6
 10
1.56893398E+01
 20
1.03208531E+02
  0
VERTEX
  8
0
 62
6
 10
1.56009333E+01
 20
1.03113518E+02
  0
VERTEX
  8
0
 62
6
 10
1.55212719E+01
 20
1.03011279E+02
  0
VERTEX
  8
0
 62
6
 10
1.54509619E+01
 20
1.02902591E+02
  0
VERTEX
  8
0
 62
6
 10
1.53905383E+01
 20
1.02788282E+02
  0
VERTEX
  8
0
 62
6
 10
1.53404611E+01
 20
1.02669221E+02
  0
VERTEX
  8
0
 62
6
 10
1.53011113E+01
 20
1.02546316E+02
  0
VERTEX
  8
0
 62
6
 10
1.52727884E+01
 20
1.02420500E+02
  0
VERTEX
  8
0
 62
6
 10
1.52557080E+01
 20
1.02292732E+02
  0
VERTEX
  8
0
 62
6
 10
1.52500000E+01
 20
1.02163985E+02
  0
VERTEX
  8
0
 62
6
 10
1.52557080E+01
 20
1.02035238E+02
  0
VERTEX
  8
0
 62
6
 10
1.52727884E+01
 20
1.01907470E+02
  0
VERTEX
  8
0
 62
6
 10
1.53011113E+01
 20
1.01781654E+02
  0
VERTEX
  8
0
 62
6
 10
1.53404611E+01
 20
1.01658749E+02
  0
VERTEX
  8
0
 62
6
 10
1.53905383E+01
 20
1.01539688E+02
  0
VERTEX
  8
0
 62
6
 10
1.54509619E+01
 20
1.01425379E+02
  0
VERTEX
  8
0
 62
6
 10
1.55212719E+01
 20
1.01316691E+02
  0
VERTEX
  8
0
 62
6
 10
1.56009333E+01
 20
1.01214452E+02
  0
VERTEX
  8
0
 62
6
 10
1.56893398E+01
 20
1.01119439E+02
  0
VERTEX
  8
0
 62
6
 10
1.57858186E+01
 20
1.01032375E+02
  0
VERTEX
  8
0
 62
6
 10
1.58896353E+01
 20
1.00953924E+02
  0
VERTEX
  8
0
 62
6
 10
1.60000000E+01
 20
1.00884682E+02
  0
VERTEX
  8
0
 62
6
 10
1.61160726E+01
 20
1.00825177E+02
  0
VERTEX
  8
0
 62
6
 10
1.62369698E+01
 20
1.00775860E+02
  0
VERTEX
  8
0
 62
6
 10
1.63617714E+01
 20
1.00737108E+02
  0
VERTEX
  8
0
 62
6
 10
1.64895277E+01
 20
1.00709216E+02
  0
VERTEX
  8
0
 62
6
 10
1.66192664E+01
 20
1.00692395E+02
  0
VERTEX
  8
0
 62
6
 10
1.67500000E+01
 20
1.00686773E+02
  0
VERTEX
  8
0
 62
6
 10
1.68807336E+01
 20
1.00692395E+02
  0
VERTEX
  8
0
 62
6
 10
1.70104723E+01
 20
1.00709216E+02
  0
VERTEX
  8
0
 62
6
 10
1.71382286E+01
 20
1.00737108E+02
  0
VERTEX
  8
0
 62
6
 10
1.72630302E+01
 20
1.00775860E+02
  0
VERTEX
  8
0
 62
6
 10
1.73839274E+01
 20
1.00825177E+02
  0
VERTEX
  8
0
 62
6
 10
1.75000000E+01
 20
1.00884682E+02
  0
VERTEX
  8
0
 62
6
 10
1.76103647E+01
 20
1.00953924E+02
  0
VERTEX
  8
0
 62
6
 10
1.77141814E+01
 20
1.01032375E+02
  0
VERTEX
  8
0
 62
6
 10
1.78106602E+01
 20
1.01119439E+02
  0
VERTEX
  8
0
 62
6
 10
1.78990667E+01
 20
1.01214452E+02
  0
VERTEX
  8
0
 62
6
 10
1.79787281E+01
 20
1.01316691E+02
  0
VERTEX
  8
0
 62
6
 10
1.80490381E+01
 20
1.01425379E+02
  0
VERTEX
  8
0
 62
6
 10
1.81094617E+01
 20
1.01539688E+02
  0
VERTEX
  8
0
 62
6
 10
1.81595389E+01
 20
1.01658749E+02
  0
VERTEX
  8
0
 62
6
 10
1.81988887E+01
 20
1.01781655E+02
  0
VERTEX
  8
0
 62
6
 10
1.82272116E+01
 20
1.01907470E+02
  0
VERTEX
  8
0
 62
6
 10
1.82442920E+01
 20
1.02035238E+02
  0
VERTEX
  8
0
 62
6
 10
1.82500000E+01
 20
1.02163985E+02
  0
SEQEND
  8
0
  0
LINE
  8
0
 62
4
 10
1.87500000E+01
 20
1.02163985E+02
 11
1.87500000E+01
 21
1.02699624E+02
  0
LINE
  8
0
 62
4
 10
1.47500000E+01
 20
1.02163985E+02
 11
1.47500000E+01
 21
1.02699624E+02
  0
POLYLINE
  8
0
 62
4
 66
1
  0
VERTEX
  8
0
 62
4
 10
1.47500000E+01
 20
1.02163985E+02
  0
VERTEX
  8
0
 62
4
 10
1.47576106E+01
 20
1.01992322E+02
  0
VERTEX
  8
0
 62
4
 10
1.47803845E+01
 20
1.01821965E+02
  0
VERTEX
  8
0
 62
4
 10
1.48181483E+01
 20
1.01654211E+02
  0
VERTEX
  8
0
 62
4
 10
1.48706148E+01
 20
1.01490337E+02
  0
VERTEX
  8
0
 62
4
 10
1.49373844E+01
 20
1.01331590E+02
  0
VERTEX
  8
0
 62
4
 10
1.50179492E+01
 20
1.01179177E+02
  0
VERTEX
  8
0
 62
4
 10
1.51116959E+01
 20
1.01034260E+02
  0
VERTEX
  8
0
 62
4
 10
1.52179111E+01
 20
1.00897941E+02
  0
VERTEX
  8
0
 62
4
 10
1.53357864E+01
 20
1.00771257E+02
  0
VERTEX
  8
0
 62
4
 10
1.54644248E+01
 20
1.00655172E+02
  0
VERTEX
  8
0
 62
4
 10
1.56028471E+01
 20
1.00550570E+02
  0
VERTEX
  8
0
 62
4
 10
1.57500000E+01
 20
1.00458248E+02
  0
VERTEX
  8
0
 62
4
 10
1.59047635E+01
 20
1.00378907E+02
  0
VERTEX
  8
0
 62
4
 10
1.60659597E+01
 20
1.00313152E+02
  0
VERTEX
  8
0
 62
4
 10
1.62323619E+01
 20
1.00261483E+02
  0
VERTEX
  8
0
 62
4
 10
1.64027036E+01
 20
1.00224292E+02
  0
VERTEX
  8
0
 62
4
 10
1.65756885E+01
 20
1.00201864E+02
  0
VERTEX
  8
0
 62
4
 10
1.67500000E+01
 20
1.00194369E+02
  0
VERTEX
  8
0
 62
4
 10
1.69243115E+01
 20
1.00201864E+02
  0
VERTEX
  8
0
 62
4
 10
1.70972963E+01
 20
1.00224292E+02
  0
VERTEX
  8
0
 62
4
 10
1.72676381E+01
 20
1.00261483E+02
  0
VERTEX
  8
0
 62
4
 10
1.74340403E+01
 20
1.00313152E+02
  0
VERTEX
  8
0
 62
4
 10
1.75952365E+01
 20
1.00378907E+02
  0
VERTEX
  8
0
 62
4
 10
1.77500000E+01
 20
1.00458248E+02
  0
VERTEX
  8
0
 62
4
 10
1.78971529E+01
 20
1.00550570E+02
  0
VERTEX
  8
0
 62
4
 10
1.80355752E+01
 20
1.00655172E+02
  0
VERTEX
  8
0
 62
4
 10
1.81642136E+01
 20
1.00771257E+02
  0
VERTEX
  8
0
 62
4
 10
1.82820889E+01
 20
1.00897941E+02
  0
VERTEX
  8
0
 62
4
 10
1.83883041E+01
 20
1.01034260E+02
  0
VERTEX
  8
0
 62
4
 10
1.84820508E+01
 20
1.01179177E+02
  0
VERTEX
  8
0
 62
4
 10
1.85626156E+01
 20
1.01331590E+02
  0
VERTEX
  8
0
 62
4
 10
1.86293852E+01
 20
1.01490337E+02
  0
VERTEX
  8
0
 62
4
 10
1.86818517E+01
 20
1.01654211E+02
  0
VERTEX
  8
0
 62
4
 10
1.87196155E+01
 20
1.01821965E+02
  0
VERTEX
  8
0
 62
4
 10
1.87423894E+01
 20
1.01992322E+02
  0
VERTEX
  8
0
 62
4
 10
1.87500000E+01
 20
1.02163985E+02
  0
VERTEX
  8
0
 62
4
 10
1.87423894E+01
 20
1.02335648E+02
  0
VERTEX
  8
0
 62
4
 10
1.87196155E+01
 20
1.02506005E+02
  0
VERTEX
  8
0
 62
4
 10
1.86818517E+01
 20
1.02673759E+02
  0
VERTEX
  8
0
 62
4
 10
1.86293852E+01
 20
1.02837633E+02
  0
VERTEX
  8
0
 62
4
 10
1.85626156E+01
 20
1.02996380E+02
  0
VERTEX
  8
0
 62
4
 10
1.84820508E+01
 20
1.03148793E+02
  0
VERTEX
  8
0
 62
4
 10
1.83883041E+01
 20
1.03293710E+02
  0
VERTEX
  8
0
 62
4
 10
1.82820889E+01
 20
1.03430029E+02
  0
VERTEX
  8
0
 62
4
 10
1.81642136E+01
 20
1.03556713E+02
  0
VERTEX
  8
0
 62
4
 10
1.80355752E+01
 20
1.03672798E+02
  0
VERTEX
  8
0
 62
4
 10
1.78971529E+01
 20
1.03777400E+02
  0
VERTEX
  8
0
 62
4
 10
1.77500000E+01
 20
1.03869722E+02
  0
VERTEX
  8
0
 62
4
 10
1.75952365E+01
 20
1.03949063E+02
  0
VERTEX
  8
0
 62
4
 10
1.74340403E+01
 20
1.04014818E+02
  0
VERTEX
  8
0
 62
4
 10
1.72676381E+01
 20
1.04066487E+02
  0
VERTEX
  8
0
 62
4
 10
1.70972964E+01
 20
1.04103678E+02
  0
VERTEX
  8
0
 62
4
 10
1.69243115E+01
 20
1.04126106E+02
  0
VERTEX
  8
0
 62
4
 10
1.67500000E+01
 20
1.04133601E+02
  0
VERTEX
  8
0
 62
4
 10
1.65756885E+01
 20
1.04126106E+02
  0
VERTEX
  8
0
 62
4
 10
1.64027036E+01
 20
1.04103678E+02
  0
VERTEX
  8
0
 62
4
 10
1.62323619E+01
 20
1.04066487E+02
  0
VERTEX
  8
0
 62
4
 10
1.60659597E+01
 20
1.04014818E+02
  0
VERTEX
  8
0
 62
4
 10
1.59047635E+01
 20
1.03949063E+02
  0
VERTEX
  8
0
 62
4
 10
1.57500000E+01
 20
1.03869722E+02
  0
VERTEX
  8
0
 62
4
 10
1.56028471E+01
 20
1.03777400E+02
  0
VERTEX
  8
0
 62
4
 10
1.54644248E+01
 20
1.03672798E+02
  0
VERTEX
  8
0
 62
4
 10
1.53357864E+01
 20
1.03556713E+02
  0
VERTEX
  8
0
 62
4
 10
1.52179111E+01
 20
1.03430029E+02
  0
VERTEX
  8
0
 62
4
 10
1.51116959E+01
 20
1.03293710E+02
  0
VERTEX
  8
0
 62
4
 10
1.50179492E+01
 20
1.03148793E+02
  0
VERTEX
  8
0
 62
4
 10
1.49373844E+01
 20
1.02996380E+02
  0
VERTEX
  8
0
 62
4
 10
1.48706148E+01
 20
1.02837633E+02
  0
VERTEX
  8
0
 62
4
 10
1.48181483E+01
 20
1.02673759E+02
  0
VERTEX
  8
0
 62
4
 10
1.47803845E+01
 20
1.02506005E+02
  0
VERTEX
  8
0
 62
4
 10
1.47576106E+01
 20
1.02335648E+02
  0
VERTEX
  8
0
 62
4
 10
1.47500000E+01
 20
1.02163985E+02
  0
SEQEND
  8
0
  0
POLYLINE
  8
0
 62
4
 66
1
  0
VERTEX
  8
0
 62
4
 10
1.87500000E+01
 20
1.02699624E+02
  0
VERTEX
  8
0
 62
4
 10
1.87419486E+01
 20
1.02876179E+02
  0
VERTEX
  8
0
 62
4
 10
1.87178592E+01
 20
1.03051312E+02
  0
VERTEX
  8
0
 62
4
 10
1.86779257E+01
 20
1.03223614E+02
  0
VERTEX
  8
0
 62
4
 10
1.86224697E+01
 20
1.03391697E+02
  0
VERTEX
  8
0
 62
4
 10
1.85519377E+01
 20
1.03554208E+02
  0
VERTEX
  8
0
 62
4
 10
1.84668976E+01
 20
1.03709838E+02
  0
VERTEX
  8
0
 62
4
 10
1.83680340E+01
 20
1.03857335E+02
  0
VERTEX
  8
0
 62
4
 10
1.82561429E+01
 20
1.03995510E+02
  0
VERTEX
  8
0
 62
4
 10
1.81321253E+01
 20
1.04123252E+02
  0
VERTEX
  8
0
 62
4
 10
1.79969796E+01
 20
1.04239531E+02
  0
VERTEX
  8
0
 62
4
 10
1.78517940E+01
 20
1.04343412E+02
  0
VERTEX
  8
0
 62
4
 10
1.76977373E+01
 20
1.04434059E+02
  0
VERTEX
  8
0
 62
4
 10
1.75360501E+01
 20
1.04510740E+02
  0
VERTEX
  8
0
 62
4
 10
1.73680340E+01
 20
1.04572840E+02
  0
VERTEX
  8
0
 62
4
 10
1.71950419E+01
 20
1.04619857E+02
  0
VERTEX
  8
0
 62
4
 10
1.70184665E+01
 20
1.04651414E+02
  0
VERTEX
  8
0
 62
4
 10
1.68397297E+01
 20
1.04667256E+02
  0
VERTEX
  8
0
 62
4
 10
1.66602704E+01
 20
1.04667256E+02
  0
VERTEX
  8
0
 62
4
 10
1.64815335E+01
 20
1.04651414E+02
  0
VERTEX
  8
0
 62
4
 10
1.63049581E+01
 20
1.04619857E+02
  0
VERTEX
  8
0
 62
4
 10
1.61319660E+01
 20
1.04572840E+02
  0
VERTEX
  8
0
 62
4
 10
1.59639500E+01
 20
1.04510740E+02
  0
VERTEX
  8
0
 62
4
 10
1.58022627E+01
 20
1.04434059E+02
  0
VERTEX
  8
0
 62
4
 10
1.56482061E+01
 20
1.04343412E+02
  0
VERTEX
  8
0
 62
4
 10
1.55030204E+01
 20
1.04239531E+02
  0
VERTEX
  8
0
 62
4
 10
1.53678747E+01
 20
1.04123252E+02
  0
VERTEX
  8
0
 62
4
 10
1.52438571E+01
 20
1.03995510E+02
  0
VERTEX
  8
0
 62
4
 10
1.51319660E+01
 20
1.03857335E+02
  0
VERTEX
  8
0
 62
4
 10
1.50331024E+01
 20
1.03709838E+02
  0
VERTEX
  8
0
 62
4
 10
1.49480623E+01
 20
1.03554208E+02
  0
VERTEX
  8
0
 62
4
 10
1.48775303E+01
 20
1.03391697E+02
  0
VERTEX
  8
0
 62
4
 10
1.48220743E+01
 20
1.03223614E+02
  0
VERTEX
  8
0
 62
4
 10
1.47821408E+01
 20
1.03051312E+02
  0
VERTEX
  8
0
 62
4
 10
1.47580514E+01
 20
1.02876179E+02
  0
VERTEX
  8
0
 62
4
 10
1.47500000E+01
 20
1.02699624E+02
  0
SEQEND
  8
0
  0
POLYLINE
  8
0
 62
4
 66
1
  0
VERTEX
  8
0
 62
4
 10
2.55000000E+01
 20
1.20655691E+02
  0
VERTEX
  8
0
 62
4
 10
2.55085619E+01
 20
1.20462570E+02
  0
VERTEX
  8
0
 62
4
 10
2.55341826E+01
 20
1.20270918E+02
  0
VERTEX
  8
0
 62
4
 10
2.55766669E+01
 20
1.20082195E+02
  0
VERTEX
  8
0
 62
4
 10
2.56356916E+01
 20
1.19897837E+02
  0
VERTEX
  8
0
 62
4
 10
2.57108075E+01
 20
1.19719246E+02
  0
VERTEX
  8
0
 62
4
 10
2.58014428E+01
 20
1.19547782E+02
  0
VERTEX
  8
0
 62
4
 10
2.59069079E+01
 20
1.19384750E+02
  0
VERTEX
  8
0
 62
4
 10
2.60264000E+01
 20
1.19231391E+02
  0
VERTEX
  8
0
 62
4
 10
2.61590097E+01
 20
1.19088871E+02
  0
VERTEX
  8
0
 62
4
 10
2.63037279E+01
 20
1.18958276E+02
  0
VERTEX
  8
0
 62
4
 10
2.64594530E+01
 20
1.18840600E+02
  0
VERTEX
  8
0
 62
4
 10
2.66250000E+01
 20
1.18736737E+02
  0
VERTEX
  8
0
 62
4
 10
2.67991089E+01
 20
1.18647478E+02
  0
VERTEX
  8
0
 62
4
 10
2.69804547E+01
 20
1.18573504E+02
  0
VERTEX
  8
0
 62
4
 10
2.71676571E+01
 20
1.18515376E+02
  0
VERTEX
  8
0
 62
4
 10
2.73592916E+01
 20
1.18473537E+02
  0
VERTEX
  8
0
 62
4
 10
2.75538996E+01
 20
1.18448305E+02
  0
VERTEX
  8
0
 62
4
 10
2.77500000E+01
 20
1.18439874E+02
  0
VERTEX
  8
0
 62
4
 10
2.79461004E+01
 20
1.18448305E+02
  0
VERTEX
  8
0
 62
4
 10
2.81407084E+01
 20
1.18473537E+02
  0
VERTEX
  8
0
 62
4
 10
2.83323428E+01
 20
1.18515376E+02
  0
VERTEX
  8
0
 62
4
 10
2.85195453E+01
 20
1.18573504E+02
  0
VERTEX
  8
0
 62
4
 10
2.87008911E+01
 20
1.18647478E+02
  0
VERTEX
  8
0
 62
4
 10
2.88750000E+01
 20
1.18736737E+02
  0
VERTEX
  8
0
 62
4
 10
2.90405470E+01
 20
1.18840600E+02
  0
VERTEX
  8
0
 62
4
 10
2.91962721E+01
 20
1.18958276E+02
  0
VERTEX
  8
0
 62
4
 10
2.93409903E+01
 20
1.19088871E+02
  0
VERTEX
  8
0
 62
4
 10
2.94736000E+01
 20
1.19231391E+02
  0
VERTEX
  8
0
 62
4
 10
2.95930921E+01
 20
1.19384750E+02
  0
VERTEX
  8
0
 62
4
 10
2.96985572E+01
 20
1.19547782E+02
  0
VERTEX
  8
0
 62
4
 10
2.97891925E+01
 20
1.19719246E+02
  0
VERTEX
  8
0
 62
4
 10
2.98643084E+01
 20
1.19897837E+02
  0
VERTEX
  8
0
 62
4
 10
2.99233331E+01
 20
1.20082195E+02
  0
VERTEX
  8
0
 62
4
 10
2.99658174E+01
 20
1.20270918E+02
  0
VERTEX
  8
0
 62
4
 10
2.99914381E+01
 20
1.20462570E+02
  0
VERTEX
  8
0
 62
4
 10
3.00000000E+01
 20
1.20655691E+02
  0
VERTEX
  8
0
 62
4
 10
2.99914381E+01
 20
1.20848812E+02
  0
VERTEX
  8
0
 62
4
 10
2.99658174E+01
 20
1.21040464E+02
  0
VERTEX
  8
0
 62
4
 10
2.99233331E+01
 20
1.21229187E+02
  0
VERTEX
  8
0
 62
4
 10
2.98643084E+01
 20
1.21413545E+02
  0
VERTEX
  8
0
 62
4
 10
2.97891925E+01
 20
1.21592136E+02
  0
VERTEX
  8
0
 62
4
 10
2.96985572E+01
 20
1.21763600E+02
  0
VERTEX
  8
0
 62
4
 10
2.95930921E+01
 20
1.21926632E+02
  0
VERTEX
  8
0
 62
4
 10
2.94736000E+01
 20
1.22079991E+02
  0
VERTEX
  8
0
 62
4
 10
2.93409903E+01
 20
1.22222511E+02
  0
VERTEX
  8
0
 62
4
 10
2.91962721E+01
 20
1.22353106E+02
  0
VERTEX
  8
0
 62
4
 10
2.90405470E+01
 20
1.22470782E+02
  0
VERTEX
  8
0
 62
4
 10
2.88750000E+01
 20
1.22574645E+02
  0
VERTEX
  8
0
 62
4
 10
2.87008911E+01
 20
1.22663904E+02
  0
VERTEX
  8
0
 62
4
 10
2.85195453E+01
 20
1.22737878E+02
  0
VERTEX
  8
0
 62
4
 10
2.83323429E+01
 20
1.22796006E+02
  0
VERTEX
  8
0
 62
4
 10
2.81407084E+01
 20
1.22837845E+02
  0
VERTEX
  8
0
 62
4
 10
2.79461004E+01
 20
1.22863077E+02
  0
VERTEX
  8
0
 62
4
 10
2.77500000E+01
 20
1.22871508E+02
  0
VERTEX
  8
0
 62
4
 10
2.75538996E+01
 20
1.22863077E+02
  0
VERTEX
  8
0
 62
4
 10
2.73592916E+01
 20
1.22837845E+02
  0
VERTEX
  8
0
 62
4
 10
2.71676572E+01
 20
1.22796006E+02
  0
VERTEX
  8
0
 62
4
 10
2.69804547E+01
 20
1.22737878E+02
  0
VERTEX
  8
0
 62
4
 10
2.67991089E+01
 20
1.22663904E+02
  0
VERTEX
  8
0
 62
4
 10
2.66250000E+01
 20
1.22574645E+02
  0
VERTEX
  8
0
 62
4
 10
2.64594530E+01
 20
1.22470782E+02
  0
VERTEX
  8
0
 62
4
 10
2.63037279E+01
 20
1.22353106E+02
  0
VERTEX
  8
0
 62
4
 10
2.61590097E+01
 20
1.22222511E+02
  0
VERTEX
  8
0
 62
4
 10
2.60264000E+01
 20
1.22079991E+02
  0
VERTEX
  8
0
 62
4
 10
2.59069079E+01
 20
1.21926632E+02
  0
VERTEX
  8
0
 62
4
 10
2.58014428E+01
 20
1.21763600E+02
  0
VERTEX
  8
0
 62
4
 10
2.57108075E+01
 20
1.21592136E+02
  0
VERTEX
  8
0
 62
4
 10
2.56356916E+01
 20
1.21413545E+02
  0
VERTEX
  8
0
 62
4
 10
2.55766669E+01
 20
1.21229187E+02
  0
VERTEX
  8
0
 62
4
 10
2.55341826E+01
 20
1.21040464E+02
  0
VERTEX
  8
0
 62
4
 10
2.55085619E+01
 20
1.20848812E+02
  0
VERTEX
  8
0
 62
4
 10
2.55000000E+01
 20
1.20655691E+02
  0
SEQEND
  8
0
  0
LINE
  8
0
 62
4
 10
2.02500000E+01
 20
1.16647001E+02
 11
3.52500000E+01
 21
1.16647001E+02
  0
LINE
  8
0
 62
4
 10
2.02500000E+01
 20
1.16716460E+02
 11
3.52500000E+01
 21
1.16716460E+02
  0
LINE
  8
0
 62
4
 10
2.02500000E+01
 20
1.09260943E+02
 11
3.52500000E+01
 21
1.09260943E+02
  0
LINE
  8
0
 62
4
 10
5.24999999E+00
 20
9.75208656E+01
 11
2.02500000E+01
 21
9.75208656E+01
  0
LINE
  8
0
 62
4
 10
6.41156398E+00
 20
1.07897014E+02
 11
1.89907473E+01
 21
1.07897014E+02
  0
LINE
  8
0
 62
4
 10
5.24999999E+00
 20
1.23871789E+02
 11
2.02500000E+01
 21
1.23871789E+02
  0
LINE
  8
0
 62
4
 10
5.24999999E+00
 20
1.25087326E+02
 11
3.52500000E+01
 21
1.25087326E+02
  0
LINE
  8
0
 62
4
 10
5.24999999E+00
 20
1.26875902E+02
 11
3.52500000E+01
 21
1.26875902E+02
  0
LINE
  8
0
  6
CENTER
 62
6
 10
3.13245969E+01
 20
1.20655691E+02
 11
2.41754031E+01
 21
1.20655691E+02
  0
LINE
  8
0
  6
CENTER
 62
6
 10
2.77500000E+01
 20
1.24230288E+02
 11
2.77500000E+01
 21
1.17081094E+02
  0
LINE
  8
0
 62
4
 10
3.52500000E+01
 20
1.26875902E+02
 11
3.52500000E+01
 21
1.09260943E+02
  0
LINE
  8
0
 62
4
 10
5.25000000E+00
 20
1.26875902E+02
 11
5.25000000E+00
 21
9.75208656E+01
  0
LINE
  8
0
 62
4
 10
2.02500000E+01
 20
1.25087326E+02
 11
2.02500000E+01
 21
9.75208656E+01
  0
LINE
  8
0
  6
CENTER
 62
6
 10
1.92500000E+01
 20
1.02699624E+02
 11
1.42500000E+01
 21
1.02699624E+02
  0
LINE
  8
0
  6
CENTER
 62
6
 10
1.67500000E+01
 20
1.05199624E+02
 11
1.67500000E+01
 21
1.00199624E+02
  0
LINE
  8
0
  6
CENTER
 62
6
 10
8.75000000E+00
 20
1.05199624E+02
 11
8.75000000E+00
 21
1.00199624E+02
  0
LINE
  8
0
  6
CENTER
 62
6
 10
1.12500000E+01
 20
1.02699624E+02
 11
6.25000000E+00
 21
1.02699624E+02
  0
LINE
  8
0
 62
4
 10
-3.02500000E+01
 20
1.16176228E+02
 11
-3.02500000E+01
 21
1.12103786E+02
  0
LINE
  8
0
 62
4
 10
-5.37500000E+01
 20
1.26875902E+02
 11
-5.37500000E+01
 21
1.16176228E+02
  0
LINE
  8
0
 62
4
 10
-2.37500000E+01
 20
1.10369449E+02
 11
-2.37500000E+01
 21
1.12359316E+02
  0
LINE
  8
0
 62
7
 10
5.25000000E+00
 20
1.09519459E+02
 11
-6.42499695E+01
 21
1.09519459E+02
  0
LINE
  8
0
 62
7
 10
5.25000000E+00
 20
1.10369449E+02
 11
-6.42500000E+01
 21
1.10369449E+02
  0
LINE
  8
0
 62
7
 10
5.25000000E+00
 20
1.04219471E+02
 11
-6.42500000E+01
 21
1.04219471E+02
  0
CIRCLE
  8
0
 62
7
 10
-2.15249893E+02
 20
1.06869465E+02
 40
2.45850000E+00
  0
CIRCLE
  8
0
 62
7
 10
-2.15249969E+02
 20
6.98693884E+01
 40
2.45850000E+00
  0
CIRCLE
  8
0
 62
7
 10
-2.52250046E+02
 20
6.98694647E+01
 40
2.45850000E+00
  0
CIRCLE
  8
0
 62
7
 10
-2.52249969E+02
 20
1.06869541E+02
 40
2.45850000E+00
  0
LINE
  8
0
  6
CENTER
 62
2
 10
-2.15249908E+02
 20
1.15376118E+02
 11
-2.15249908E+02
 21
1.00454975E+02
  0
LINE
  8
0
 62
7
 10
-2.08749969E+02
 20
1.10369495E+02
 11
-2.08749969E+02
 21
6.63694494E+01
  0
LINE
  8
0
 62
7
 10
-2.55749969E+02
 20
1.12869495E+02
 11
-2.11749969E+02
 21
1.12869434E+02
  0
LINE
  8
0
 62
7
 10
-2.09249969E+02
 20
1.10369434E+02
 11
-2.09249969E+02
 21
6.63694494E+01
  0
LINE
  8
0
 62
7
 10
-2.12749969E+02
 20
8.93694647E+01
 11
-2.16868011E+02
 21
8.93694647E+01
  0
LINE
  8
0
 62
7
 10
-2.20020171E+02
 20
1.00685273E+02
 11
-2.21105648E+02
 21
9.95997966E+01
  0
LINE
  8
0
 62
7
 10
-2.32749969E+02
 20
1.09369465E+02
 11
-2.32749969E+02
 21
1.05251407E+02
  0
LINE
  8
0
 62
7
 10
-2.21434331E+02
 20
1.02099454E+02
 11
-2.22519796E+02
 21
1.01013989E+02
  0
LINE
  8
0
 62
7
 10
-2.11749969E+02
 20
9.33694952E+01
 11
-2.11749969E+02
 21
8.33694342E+01
  0
LINE
  8
0
 62
7
 10
-2.38750031E+02
 20
1.10369495E+02
 11
-2.28749969E+02
 21
1.10369495E+02
  0
LINE
  8
0
  6
CENTER
 62
2
 10
-2.60839874E+02
 20
1.06869541E+02
 11
-2.46173004E+02
 21
1.06869541E+02
  0
LINE
  8
0
  6
CENTER
 62
2
 10
-2.52249969E+02
 20
1.15272114E+02
 11
-2.52249969E+02
 21
9.89851263E+01
  0
LINE
  8
0
 62
7
 10
-2.55750031E+02
 20
1.13369495E+02
 11
-2.11749969E+02
 21
1.13369495E+02
  0
LINE
  8
0
 62
7
 10
-2.58750031E+02
 20
1.10369495E+02
 11
-2.58750031E+02
 21
6.63694494E+01
  0
LINE
  8
0
 62
7
 10
-2.58249969E+02
 20
1.10369495E+02
 11
-2.58249969E+02
 21
6.63694799E+01
  0
LINE
  8
0
  6
CENTER
 62
2
 10
-2.52250092E+02
 20
6.12464636E+01
 11
-2.52250092E+02
 21
7.78889654E+01
  0
LINE
  8
0
  6
CENTER
 62
2
 10
-2.60694672E+02
 20
6.98694799E+01
 11
-2.45882599E+02
 21
6.98694799E+01
  0
LINE
  8
0
 62
7
 10
-2.55750031E+02
 20
6.38694799E+01
 11
-2.11750031E+02
 21
6.38694494E+01
  0
LINE
  8
0
 62
7
 10
-2.34749969E+02
 20
1.09369465E+02
 11
-2.34749969E+02
 21
1.05251423E+02
  0
LINE
  8
0
 62
7
 10
-2.54749969E+02
 20
8.93694799E+01
 11
-2.50631927E+02
 21
8.93694799E+01
  0
LINE
  8
0
 62
7
 10
-2.47479917E+02
 20
1.00685163E+02
 11
-2.46394440E+02
 21
9.95996869E+01
  0
LINE
  8
0
 62
7
 10
-2.46065746E+02
 20
1.02099420E+02
 11
-2.44980270E+02
 21
1.01013944E+02
  0
LINE
  8
0
 62
7
 10
-2.55749969E+02
 20
9.33694952E+01
 11
-2.55749969E+02
 21
8.33694342E+01
  0
LINE
  8
0
 62
7
 10
-2.54749969E+02
 20
8.73694799E+01
 11
-2.50631927E+02
 21
8.73694799E+01
  0
LINE
  8
0
 62
7
 10
-2.47480042E+02
 20
7.60538779E+01
 11
-2.46394566E+02
 21
7.71393543E+01
  0
LINE
  8
0
 62
7
 10
-2.34750031E+02
 20
6.73694952E+01
 11
-2.34750031E+02
 21
7.14875372E+01
  0
LINE
  8
0
 62
7
 10
-2.46065828E+02
 20
7.46397077E+01
 11
-2.44980363E+02
 21
7.57251733E+01
  0
LINE
  8
0
 62
7
 10
-2.55750031E+02
 20
6.33694494E+01
 11
-2.11749969E+02
 21
6.33694494E+01
  0
LINE
  8
0
 62
7
 10
-2.32750031E+02
 20
6.73694952E+01
 11
-2.32750031E+02
 21
7.14875372E+01
  0
LINE
  8
0
 62
7
 10
-2.21434331E+02
 20
7.46394471E+01
 11
-2.22519807E+02
 21
7.57249233E+01
  0
LINE
  8
0
 62
7
 10
-2.12749969E+02
 20
8.73694494E+01
 11
-2.16868011E+02
 21
8.73694494E+01
  0
LINE
  8
0
 62
7
 10
-2.20020182E+02
 20
7.60537255E+01
 11
-2.21105615E+02
 21
7.71391586E+01
  0
LINE
  8
0
 62
7
 10
-2.38750031E+02
 20
6.63694342E+01
 11
-2.28749969E+02
 21
6.63694342E+01
  0
LINE
  8
0
  6
CENTER
 62
2
 10
-2.33749969E+02
 20
1.16864460E+02
 11
-2.33749969E+02
 21
5.90682104E+01
  0
LINE
  8
0
  6
CENTER
 62
2
 10
-2.15250031E+02
 20
6.14814108E+01
 11
-2.15250031E+02
 21
7.74458044E+01
  0
LINE
  8
0
 62
7
 10
-2.53749969E+02
 20
1.13369495E+02
 11
-2.53749969E+02
 21
1.12869495E+02
  0
LINE
  8
0
 62
7
 10
-2.13749969E+02
 20
1.13369495E+02
 11
-2.13749969E+02
 21
1.12869434E+02
  0
LINE
  8
0
 62
7
 10
-2.53749969E+02
 20
6.38694799E+01
 11
-2.53749969E+02
 21
6.33694494E+01
  0
LINE
  8
0
 62
7
 10
-2.13749969E+02
 20
6.38694494E+01
 11
-2.13749969E+02
 21
6.33694494E+01
  0
LINE
  8
0
 62
7
 10
-2.44463165E+02
 20
7.03694799E+01
 11
-2.42500031E+02
 21
7.03694799E+01
  0
LINE
  8
0
 62
7
 10
-2.23038055E+02
 20
7.03693884E+01
 11
-2.24999969E+02
 21
7.03693884E+01
  0
LINE
  8
0
 62
7
 10
-2.15750031E+02
 20
7.76568640E+01
 11
-2.15750031E+02
 21
7.96194342E+01
  0
LINE
  8
0
 62
7
 10
-2.15749908E+02
 20
9.90807684E+01
 11
-2.15749908E+02
 21
9.71194952E+01
  0
LINE
  8
0
 62
7
 10
-2.44461700E+02
 20
1.06369556E+02
 11
-2.42500031E+02
 21
1.06369556E+02
  0
LINE
  8
0
 62
7
 10
-2.51749969E+02
 20
9.90816229E+01
 11
-2.51749969E+02
 21
9.71194952E+01
  0
LINE
  8
0
 62
7
 10
-2.51749969E+02
 20
7.76573065E+01
 11
-2.51749969E+02
 21
7.96194342E+01
  0
LINE
  8
0
  6
CENTER
 62
2
 10
-2.21631378E+02
 20
6.98694799E+01
 11
-2.07109711E+02
 21
6.98694799E+01
  0
LINE
  8
0
  6
CENTER
 62
2
 10
-2.21631378E+02
 20
1.06869541E+02
 11
-2.07109711E+02
 21
1.06869541E+02
  0
LINE
  8
0
  6
CENTER
 62
2
 10
-2.04777649E+02
 20
8.83694647E+01
 11
-2.63453766E+02
 21
8.83694647E+01
  0
LINE
  8
0
 62
7
 10
-2.23136932E+02
 20
1.06398655E+02
 11
-2.25167023E+02
 21
1.06398655E+02
  0
LINE
  8
0
  6
CENTER
 62
2
 10
-2.37750031E+02
 20
1.15121860E+02
 11
-2.37750031E+02
 21
1.03941257E+02
  0
ARC
  8
0
 62
7
 10
-2.11749969E+02
 20
1.10369434E+02
 40
2.50000000E+00
 50
0.00000000E+00
 51
8.99999818E+01
  0
CIRCLE
  8
0
 62
7
 10
-2.15249908E+02
 20
1.06869465E+02
 40
5.00000000E+00
  0
CIRCLE
  8
0
 62
7
 10
-2.15249908E+02
 20
1.06869465E+02
 40
4.50000000E+00
  0
ARC
  8
0
 62
7
 10
-2.22141388E+02
 20
1.02806446E+02
 40
1.00000000E+00
 50
3.15000624E+02
 51
3.05224488E+01
  0
ARC
  8
0
 62
7
 10
-2.12749969E+02
 20
9.03694647E+01
 40
1.00000000E+00
 50
2.69999963E+02
 51
0.00000000E+00
  0
ARC
  8
0
 62
7
 10
-2.16868011E+02
 20
9.03694647E+01
 40
1.00000000E+00
 50
1.86756090E+02
 51
2.69999963E+02
  0
ARC
  8
0
 62
7
 10
-2.19312958E+02
 20
9.99780310E+01
 40
1.00000000E+00
 50
5.94777518E+01
 51
1.34999345E+02
  0
ARC
  8
0
 62
7
 10
-2.31749969E+02
 20
1.09369465E+02
 40
1.00000000E+00
 50
8.99999818E+01
 51
1.79999964E+02
  0
ARC
  8
0
 62
7
 10
-2.31749969E+02
 20
1.05251407E+02
 40
1.00000000E+00
 50
1.79999964E+02
 51
2.63243741E+02
  0
ARC
  8
0
 62
7
 10
-2.20398407E+02
 20
9.88925512E+01
 40
1.00000000E+00
 50
1.34999959E+02
 51
2.18243614E+02
  0
ARC
  8
0
 62
7
 10
-2.23226837E+02
 20
1.01720981E+02
 40
1.00000000E+00
 50
2.31755794E+02
 51
3.14999380E+02
  0
ARC
  8
0
 62
7
 10
-2.11749969E+02
 20
1.10369495E+02
 40
3.00000000E+00
 50
0.00000000E+00
 51
8.99999818E+01
  0
ARC
  8
0
 62
7
 10
-2.12749969E+02
 20
9.33694952E+01
 40
1.00000000E+00
 50
0.00000000E+00
 51
8.99999818E+01
  0
ARC
  8
0
 62
7
 10
-2.12749969E+02
 20
9.73694952E+01
 40
3.00000000E+00
 50
1.77973583E+02
 51
2.69999946E+02
  0
ARC
  8
0
 62
7
 10
-2.16747467E+02
 20
9.90109289E+01
 40
1.00000000E+00
 50
3.57973879E+02
 51
7.92109058E+01
  0
ARC
  8
0
 62
7
 10
-2.15249969E+02
 20
1.06869526E+02
 40
7.00000000E+00
 50
1.90788702E+02
 51
2.59211358E+02
  0
ARC
  8
0
 62
7
 10
-2.23108551E+02
 20
1.05372028E+02
 40
1.00000000E+00
 50
1.07884614E+01
 51
9.20251808E+01
  0
ARC
  8
0
 62
7
 10
-2.24749969E+02
 20
1.09369526E+02
 40
3.00000000E+00
 50
1.80000569E+02
 51
2.72025811E+02
  0
ARC
  8
0
 62
7
 10
-2.28749969E+02
 20
1.09369495E+02
 40
1.00000000E+00
 50
0.00000000E+00
 51
8.99999818E+01
  0
ARC
  8
0
 62
7
 10
-2.55750031E+02
 20
6.63694799E+01
 40
2.50000000E+00
 50
1.79999964E+02
 51
2.69999946E+02
  0
ARC
  8
0
 62
7
 10
-2.55749969E+02
 20
1.10369495E+02
 40
2.50000000E+00
 50
8.99999818E+01
 51
1.79999964E+02
  0
ARC
  8
0
 62
7
 10
-2.55750031E+02
 20
1.10369495E+02
 40
3.00000000E+00
 50
8.99999818E+01
 51
1.79999964E+02
  0
ARC
  8
0
 62
7
 10
-2.55750031E+02
 20
6.63694494E+01
 40
3.00000000E+00
 50
1.79999964E+02
 51
2.69999946E+02
  0
CIRCLE
  8
0
 62
7
 10
-2.52249969E+02
 20
1.06869526E+02
 40
4.50000000E+00
  0
CIRCLE
  8
0
 62
7
 10
-2.52249969E+02
 20
1.06869526E+02
 40
5.00000000E+00
  0
CIRCLE
  8
0
 62
7
 10
-2.52250031E+02
 20
6.98694647E+01
 40
4.50000000E+00
  0
CIRCLE
  8
0
 62
7
 10
-2.52250031E+02
 20
6.98694647E+01
 40
5.00000000E+00
  0
ARC
  8
0
 62
7
 10
-2.54749969E+02
 20
9.03694647E+01
 40
1.00000000E+00
 50
1.79999964E+02
 51
2.69999946E+02
  0
ARC
  8
0
 62
7
 10
-2.35749969E+02
 20
1.09369465E+02
 40
1.00000000E+00
 50
3.59999959E+02
 51
8.99999956E+01
  0
ARC
  8
0
 62
7
 10
-2.45358551E+02
 20
1.02806507E+02
 40
1.00000000E+00
 50
1.49477747E+02
 51
2.24999340E+02
  0
ARC
  8
0
 62
7
 10
-2.52249969E+02
 20
1.06869526E+02
 40
7.00000000E+00
 50
2.80788623E+02
 51
3.49211279E+02
  0
ARC
  8
0
 62
7
 10
-2.48186981E+02
 20
9.99780767E+01
 40
1.00000000E+00
 50
4.50006194E+01
 51
1.20522431E+02
  0
ARC
  8
0
 62
7
 10
-2.35749969E+02
 20
1.05251423E+02
 40
1.00000000E+00
 50
2.76756086E+02
 51
3.59999959E+02
  0
ARC
  8
0
 62
7
 10
-2.44273102E+02
 20
1.01721058E+02
 40
1.00000000E+00
 50
2.24999972E+02
 51
3.08243613E+02
  0
ARC
  8
0
 62
7
 10
-2.47101532E+02
 20
9.88926275E+01
 40
1.00000000E+00
 50
3.21755790E+02
 51
4.49993763E+01
  0
ARC
  8
0
 62
7
 10
-2.50631927E+02
 20
9.03694647E+01
 40
1.00000000E+00
 50
2.69999963E+02
 51
3.53243768E+02
  0
ARC
  8
0
 62
7
 10
-2.45358612E+02
 20
7.39324835E+01
 40
1.00000000E+00
 50
1.35000615E+02
 51
2.10522426E+02
  0
ARC
  8
0
 62
7
 10
-2.54749969E+02
 20
8.63694647E+01
 40
1.00000000E+00
 50
8.99999549E+01
 51
1.79999991E+02
  0
ARC
  8
0
 62
7
 10
-2.50631927E+02
 20
8.63694647E+01
 40
1.00000000E+00
 50
6.75608163E+00
 51
8.99999549E+01
  0
ARC
  8
0
 62
7
 10
-2.48187042E+02
 20
7.67608831E+01
 40
1.00000000E+00
 50
2.39477760E+02
 51
3.14999353E+02
  0
ARC
  8
0
 62
7
 10
-2.35749969E+02
 20
6.73694647E+01
 40
1.00000000E+00
 50
2.69999991E+02
 51
3.59999973E+02
  0
ARC
  8
0
 62
7
 10
-2.35749969E+02
 20
7.14875067E+01
 40
1.00000000E+00
 50
3.59999973E+02
 51
8.32437569E+01
  0
ARC
  8
0
 62
7
 10
-2.47101593E+02
 20
7.78463629E+01
 40
1.00000000E+00
 50
3.14999968E+02
 51
3.82436225E+01
  0
ARC
  8
0
 62
7
 10
-2.44273163E+02
 20
7.50179327E+01
 40
1.00000000E+00
 50
5.17557857E+01
 51
1.34999372E+02
  0
ARC
  8
0
 62
7
 10
-2.54749969E+02
 20
9.73694952E+01
 40
3.00000000E+00
 50
2.70000018E+02
 51
0.00000000E+00
  0
ARC
  8
0
 62
7
 10
-2.42750031E+02
 20
1.09369526E+02
 40
3.00000000E+00
 50
2.67974177E+02
 51
3.59999417E+02
  0
ARC
  8
0
 62
7
 10
-2.54749969E+02
 20
9.33694952E+01
 40
1.00000000E+00
 50
8.99999818E+01
 51
1.79999964E+02
  0
ARC
  8
0
 62
7
 10
-2.50752472E+02
 20
9.90109289E+01
 40
1.00000000E+00
 50
1.00789058E+02
 51
1.82026085E+02
  0
ARC
  8
0
 62
7
 10
-2.38750031E+02
 20
1.09369495E+02
 40
1.00000000E+00
 50
8.99999818E+01
 51
1.79999964E+02
  0
ARC
  8
0
 62
7
 10
-2.44391388E+02
 20
1.05372028E+02
 40
1.00000000E+00
 50
8.79747829E+01
 51
1.69211502E+02
  0
ARC
  8
0
 62
7
 10
-2.50752472E+02
 20
7.77280004E+01
 40
1.00000000E+00
 50
1.77973898E+02
 51
2.59210925E+02
  0
ARC
  8
0
 62
7
 10
-2.52249969E+02
 20
6.98694036E+01
 40
7.00000000E+00
 50
1.07887209E+01
 51
7.92113774E+01
  0
ARC
  8
0
 62
7
 10
-2.44391388E+02
 20
7.13669012E+01
 40
1.00000000E+00
 50
1.90788497E+02
 51
2.72025217E+02
  0
ARC
  8
0
 62
7
 10
-2.42750031E+02
 20
6.73694036E+01
 40
3.00000000E+00
 50
5.82842824E-04
 51
9.20258231E+01
  0
ARC
  8
0
 62
7
 10
-2.38750031E+02
 20
6.73694342E+01
 40
1.00000000E+00
 50
1.80000036E+02
 51
2.70000018E+02
  0
ARC
  8
0
 62
7
 10
-2.11750031E+02
 20
6.63694494E+01
 40
2.50000000E+00
 50
2.69999963E+02
 51
0.00000000E+00
  0
ARC
  8
0
 62
7
 10
-2.11749969E+02
 20
6.63694494E+01
 40
3.00000000E+00
 50
2.69999963E+02
 51
0.00000000E+00
  0
CIRCLE
  8
0
 62
7
 10
-2.15249969E+02
 20
6.98694036E+01
 40
4.50000000E+00
  0
CIRCLE
  8
0
 62
7
 10
-2.15249969E+02
 20
6.98694036E+01
 40
5.00000000E+00
  0
ARC
  8
0
 62
7
 10
-2.19313019E+02
 20
7.67608526E+01
 40
1.00000000E+00
 50
2.25000628E+02
 51
3.00522440E+02
  0
ARC
  8
0
 62
7
 10
-2.31749969E+02
 20
6.73694647E+01
 40
1.00000000E+00
 50
1.79999951E+02
 51
2.70000001E+02
  0
ARC
  8
0
 62
7
 10
-2.31749969E+02
 20
7.14875067E+01
 40
1.00000000E+00
 50
9.67560773E+01
 51
1.79999951E+02
  0
ARC
  8
0
 62
7
 10
-2.22141388E+02
 20
7.39324224E+01
 40
1.00000000E+00
 50
3.29477756E+02
 51
4.49993490E+01
  0
ARC
  8
0
 62
7
 10
-2.12749969E+02
 20
8.63694647E+01
 40
1.00000000E+00
 50
3.59999986E+02
 51
8.99999681E+01
  0
ARC
  8
0
 62
7
 10
-2.16868011E+02
 20
8.63694647E+01
 40
1.00000000E+00
 50
8.99999681E+01
 51
1.73243759E+02
  0
ARC
  8
0
 62
7
 10
-2.23226898E+02
 20
7.50178717E+01
 40
1.00000000E+00
 50
4.49999637E+01
 51
1.28243618E+02
  0
ARC
  8
0
 62
7
 10
-2.20398468E+02
 20
7.78463018E+01
 40
1.00000000E+00
 50
1.41755781E+02
 51
2.24999368E+02
  0
ARC
  8
0
 62
7
 10
-2.28749969E+02
 20
6.73694342E+01
 40
1.00000000E+00
 50
2.70000018E+02
 51
0.00000000E+00
  0
ARC
  8
0
 62
7
 10
-2.24749969E+02
 20
6.73694036E+01
 40
3.00000000E+00
 50
8.79741887E+01
 51
1.79999431E+02
  0
ARC
  8
0
 62
7
 10
-2.23108551E+02
 20
7.13669012E+01
 40
1.00000000E+00
 50
2.67974819E+02
 51
3.49211538E+02
  0
ARC
  8
0
 62
7
 10
-2.15249969E+02
 20
6.98694036E+01
 40
7.00000000E+00
 50
1.00788641E+02
 51
1.69211298E+02
  0
ARC
  8
0
 62
7
 10
-2.16747467E+02
 20
7.77280004E+01
 40
1.00000000E+00
 50
2.80789094E+02
 51
2.02612098E+00
  0
ARC
  8
0
 62
7
 10
-2.12749969E+02
 20
7.93694342E+01
 40
3.00000000E+00
 50
9.00000369E+01
 51
1.82026399E+02
  0
ARC
  8
0
 62
7
 10
-2.12749969E+02
 20
8.33694342E+01
 40
1.00000000E+00
 50
2.70000018E+02
 51
0.00000000E+00
  0
CIRCLE
  8
0
 62
7
 10
-2.33749969E+02
 20
8.83694647E+01
 40
1.60000000E+01
  0
CIRCLE
  8
0
 62
7
 10
-2.33749969E+02
 20
8.83694647E+01
 40
1.55000010E+01
  0
CIRCLE
  8
0
 62
7
 10
-2.33749969E+02
 20
8.83694647E+01
 40
1.50000000E+01
  0
ARC
  8
0
 62
7
 10
-2.54749969E+02
 20
7.93694342E+01
 40
3.00000000E+00
 50
3.57973625E+02
 51
8.99999818E+01
  0
ARC
  8
0
 62
7
 10
-2.54749969E+02
 20
8.33694342E+01
 40
1.00000000E+00
 50
1.79999981E+02
 51
2.70000018E+02
  0
CIRCLE
  8
0
 62
2
 10
-2.52249969E+02
 20
1.06869541E+02
 40
3.00000000E+00
  0
CIRCLE
  8
0
 62
2
 10
-2.52250092E+02
 20
6.98694799E+01
 40
3.00000000E+00
  0
CIRCLE
  8
0
 62
2
 10
-2.15250031E+02
 20
6.98694799E+01
 40
3.00000000E+00
  0
CIRCLE
  8
0
 62
2
 10
-2.15249908E+02
 20
1.06869541E+02
 40
3.00000000E+00
  0
CIRCLE
  8
0
 62
4
 10
-2.33749969E+02
 20
8.83694647E+01
 40
9.50000000E+00
  0
LINE
  8
0
 62
4
 10
-2.33749969E+02
 20
9.93391198E+01
 11
-2.43249969E+02
 21
9.38542922E+01
  0
LINE
  8
0
 62
4
 10
-2.43249969E+02
 20
9.38542922E+01
 11
-2.43249969E+02
 21
8.28846371E+01
  0
LINE
  8
0
 62
4
 10
-2.43249969E+02
 20
8.28846371E+01
 11
-2.33749969E+02
 21
7.73998096E+01
  0
LINE
  8
0
 62
4
 10
-2.33749969E+02
 20
7.73998096E+01
 11
-2.24249969E+02
 21
8.28846371E+01
  0
LINE
  8
0
 62
4
 10
-2.24249969E+02
 20
8.28846371E+01
 11
-2.24249969E+02
 21
9.38542922E+01
  0
LINE
  8
0
 62
4
 10
-2.24249969E+02
 20
9.38542922E+01
 11
-2.33749969E+02
 21
9.93391198E+01
  0
CIRCLE
  8
0
 62
2
 10
-2.33749969E+02
 20
8.83694647E+01
 40
5.30001831E+00
  0
CIRCLE
  8
0
 62
7
 10
-2.33749969E+02
 20
8.83694647E+01
 40
5.99991512E+00
  0
LINE
  8
0
  6
DASHED
 62
4
 10
-2.33749939E+02
 20
1.15208729E+02
 11
-2.34166455E+02
 21
1.15282172E+02
  0
LINE
  8
0
  6
DASHED
 62
4
 10
-2.33305871E+02
 20
1.19445991E+02
 11
-2.33418602E+02
 21
1.19465868E+02
  0
ARC
  8
0
 62
4
 10
-2.22448905E+02
 20
1.20984065E+02
 40
1.18100000E+01
 50
1.57172490E+02
 51
1.63117791E+02
  0
LINE
  8
0
 62
4
 10
-2.32433194E+02
 20
1.14976551E+02
 11
-2.33749939E+02
 21
1.15208729E+02
  0
ARC
  8
0
  6
DASHED
 62
4
 10
-2.22552758E+02
 20
1.17456241E+02
 40
1.18100000E+01
 50
1.67900933E+02
 51
1.70000000E+02
  0
ARC
  8
0
  6
DASHED
 62
4
 10
-2.22555445E+02
 20
1.17441000E+02
 40
1.18100000E+01
 50
1.70000000E+02
 51
1.90532699E+02
  0
ARC
  8
0
  6
DASHED
 62
4
 10
-2.33245745E+02
 20
1.20450815E+02
 40
1.00000000E+00
 50
1.82827510E+02
 51
2.60000000E+02
  0
LINE
  8
0
 62
4
 10
-2.32305770E+02
 20
1.19269646E+02
 11
-2.33305871E+02
 21
1.19445991E+02
  0
ARC
  8
0
  6
DASHED
 62
4
 10
-2.22448905E+02
 20
1.20984065E+02
 40
1.18100000E+01
 50
1.63117791E+02
 51
1.82827510E+02
  0
LINE
  8
0
 62
4
 10
-2.31124962E+02
 20
1.25966338E+02
 11
-2.32237795E+02
 21
1.26162561E+02
  0
ARC
  8
0
 62
4
 10
-2.32412233E+02
 20
1.25177893E+02
 40
1.00000000E+00
 50
7.99999999E+01
 51
1.57172490E+02
  0
LINE
  8
0
 62
4
 10
-2.05323600E+02
 20
1.00194446E+02
 11
-2.04629007E+02
 21
1.04133677E+02
  0
LINE
  8
0
 62
6
 10
-2.05236775E+02
 20
1.00686850E+02
 11
-2.08274537E+02
 21
1.01222489E+02
  0
LINE
  8
0
 62
6
 10
-2.04715831E+02
 20
1.03641273E+02
 11
-2.07753593E+02
 21
1.04176912E+02
  0
LINE
  8
0
 62
4
 10
-2.05323600E+02
 20
1.00194446E+02
 11
-2.08361361E+02
 21
1.00730085E+02
  0
LINE
  8
0
 62
4
 10
-2.04629007E+02
 20
1.04133677E+02
 11
-2.07666769E+02
 21
1.04669316E+02
  0
LINE
  8
0
  6
CENTER
 62
6
 10
-2.27462126E+02
 20
1.13338447E+02
 11
-2.33370972E+02
 21
1.14380337E+02
  0
LINE
  8
0
  6
CENTER
 62
6
 10
-2.29895604E+02
 20
1.16813815E+02
 11
-2.30937493E+02
 21
1.10904969E+02
  0
LINE
  8
0
 62
4
 10
-2.32038868E+02
 20
1.16176304E+02
 11
-2.32533784E+02
 21
1.13369495E+02
  0
LINE
  8
0
 62
4
 10
-2.28099637E+02
 20
1.15481711E+02
 11
-2.32038868E+02
 21
1.16176304E+02
  0
LINE
  8
0
 62
4
 10
-2.20887708E+02
 20
1.16647077E+02
 11
-2.21465634E+02
 21
1.13369495E+02
  0
LINE
  8
0
 62
4
 10
-2.29949141E+02
 20
1.26875979E+02
 11
-2.19805622E+02
 21
1.25087402E+02
  0
LINE
  8
0
 62
4
 10
-2.19805622E+02
 20
1.25087402E+02
 11
-2.21281631E+02
 21
1.16716537E+02
  0
LINE
  8
0
 62
4
 10
-2.28082272E+02
 20
1.15580192E+02
 11
-2.28574676E+02
 21
1.15667016E+02
  0
LINE
  8
0
 62
4
 10
-2.28082272E+02
 20
1.15580192E+02
 11
-2.28472078E+02
 21
1.13369495E+02
  0
LINE
  8
0
 62
4
 10
-2.28899140E+02
 20
1.16130398E+02
 11
-2.31755082E+02
 21
1.16633978E+02
  0
LINE
  8
0
 62
4
 10
-2.28574676E+02
 20
1.15667016E+02
 11
-2.28899140E+02
 21
1.16130398E+02
  0
LINE
  8
0
  6
CENTER
 62
6
 10
-2.09814732E+02
 20
1.18756319E+02
 11
-2.31899105E+02
 21
1.22650390E+02
  0
LINE
  8
0
  6
CENTER
 62
6
 10
-2.19656368E+02
 20
1.16937672E+02
 11
-2.32506873E+02
 21
1.19203563E+02
  0
LINE
  8
0
  6
CENTER
 62
6
 10
-2.13681960E+02
 20
1.03699104E+02
 11
-2.06215956E+02
 21
1.02382646E+02
  0
ARC
  8
0
 62
4
 10
-2.20876051E+02
 20
1.16137309E+02
 40
5.00000000E-01
 50
3.50000000E+02
 51
7.99999999E+01
  0
LINE
  8
0
 62
4
 10
-2.20383647E+02
 20
1.16050485E+02
 11
-2.20856378E+02
 21
1.13369495E+02
  0
LINE
  8
0
 62
4
 10
-2.21281631E+02
 20
1.16716537E+02
 11
-2.20789227E+02
 21
1.16629712E+02
  0
ARC
  8
0
 62
4
 10
-2.10185869E+02
 20
9.90209419E+01
 40
1.50000000E+00
 50
3.43189498E+02
 51
3.50000000E+02
  0
LINE
  8
0
 62
4
 10
-2.12911967E+02
 20
1.23871865E+02
 11
-2.07097625E+02
 21
1.07897091E+02
  0
LINE
  8
0
 62
4
 10
-2.19805622E+02
 20
1.25087402E+02
 11
-2.12911967E+02
 21
1.23871865E+02
  0
LINE
  8
0
 62
4
 10
-2.07097625E+02
 20
1.07897091E+02
 11
-2.08708658E+02
 21
9.87604697E+01
  0
ARC
  8
0
 62
4
 10
-2.30416549E+02
 20
1.13859392E+02
 40
1.50000000E+00
 50
3.40937591E+02
 51
1.99062409E+02
  0
ARC
  8
0
 62
4
 10
-2.30546785E+02
 20
1.13120786E+02
 40
3.00000000E-01
 50
5.59992305E+01
 51
1.24000769E+02
  0
CIRCLE
  8
0
 62
4
 10
-2.30286313E+02
 20
1.14597998E+02
 40
3.00000000E-01
  0
CIRCLE
  8
0
 62
4
 10
-2.30286313E+02
 20
1.14597998E+02
 40
5.00000000E-01
  0
ARC
  8
0
 62
4
 10
-2.30546785E+02
 20
1.13120786E+02
 40
5.00000000E-01
 50
2.98293252E+01
 51
1.50170675E+02
  0
LINE
  8
0
 62
4
 10
-2.31390421E+02
 20
1.18702074E+02
 11
-2.32375229E+02
 21
1.18875723E+02
  0
LINE
  8
0
 62
4
 10
-2.30070695E+02
 20
1.26186613E+02
 11
-2.31055503E+02
 21
1.26360261E+02
  0
LINE
  8
0
 62
4
 10
-2.32375229E+02
 20
1.18875723E+02
 11
-2.31055503E+02
 21
1.26360261E+02
  0
LINE
  8
0
 62
4
 10
-2.32433194E+02
 20
1.14976551E+02
 11
-2.31764648E+02
 21
1.18768061E+02
  0
LINE
  8
0
 62
4
 10
-2.32032919E+02
 20
1.15058286E+02
 11
-2.32407146E+02
 21
1.15124272E+02
  0
LINE
  8
0
 62
4
 10
-2.32032920E+02
 20
1.15058286E+02
 11
-2.29949141E+02
 21
1.26875979E+02
  0
LINE
  8
0
 62
4
 10
-2.35657971E+02
 20
1.16141574E+02
 11
-2.37550737E+02
 21
1.26875979E+02
  0
ARC
  8
0
 62
4
 10
-2.44944433E+02
 20
1.17441000E+02
 40
1.18100000E+01
 50
3.49467301E+02
 51
9.99999999E+00
  0
ARC
  8
0
 62
4
 10
-2.44947120E+02
 20
1.17456241E+02
 40
1.18100000E+01
 50
9.99999999E+00
 51
3.05326991E+01
  0
LINE
  8
0
 62
4
 10
-2.35066684E+02
 20
1.14976551E+02
 11
-2.33333423E+02
 21
1.15282172E+02
  0
LINE
  8
0
 62
4
 10
-2.36507964E+02
 20
1.23150455E+02
 11
-2.34774702E+02
 21
1.23456076E+02
  0
LINE
  8
0
 62
4
 10
-2.35269997E+02
 20
1.15093015E+02
 11
-2.35092731E+02
 21
1.15124272E+02
  0
LINE
  8
0
 62
4
 10
-2.36856144E+02
 20
1.22936748E+02
 11
-2.36481917E+02
 21
1.23002734E+02
  0
LINE
  8
0
 62
4
 10
-2.35066684E+02
 20
1.14976551E+02
 11
-2.36507964E+02
 21
1.23150455E+02
  0
LINE
  8
0
 62
4
 10
-2.35897383E+02
 20
1.23258117E+02
 11
-2.36444375E+02
 21
1.26360261E+02
  0
LINE
  8
0
 62
4
 10
-2.36374916E+02
 20
1.25966338E+02
 11
-2.35262083E+02
 21
1.26162561E+02
  0
ARC
  8
0
 62
4
 10
-2.45050973E+02
 20
1.20984065E+02
 40
1.18100000E+01
 50
3.57172490E+02
 51
2.28275100E+01
  0
ARC
  8
0
 62
4
 10
-2.35087645E+02
 20
1.25177893E+02
 40
1.00000000E+00
 50
2.28275100E+01
 51
9.99999999E+01
  0
ARC
  8
0
 62
4
 10
-2.34254133E+02
 20
1.20450815E+02
 40
1.00000000E+00
 50
3.28723662E+02
 51
3.57172490E+02
  0
LINE
  8
0
 62
4
 10
-2.37429183E+02
 20
1.26186613E+02
 11
-2.36444375E+02
 21
1.26360261E+02
  0
LINE
  8
0
  6
CENTER
 62
6
 10
-2.40037752E+02
 20
1.13338447E+02
 11
-2.34128906E+02
 21
1.14380337E+02
  0
LINE
  8
0
  6
CENTER
 62
6
 10
-2.37604274E+02
 20
1.16813815E+02
 11
-2.36562384E+02
 21
1.10904969E+02
  0
LINE
  8
0
 62
4
 10
-2.35461010E+02
 20
1.16176304E+02
 11
-2.34966094E+02
 21
1.13369495E+02
  0
LINE
  8
0
 62
4
 10
-2.39400241E+02
 20
1.15481711E+02
 11
-2.35461010E+02
 21
1.16176304E+02
  0
LINE
  8
0
 62
4
 10
-2.38397308E+02
 20
1.14775134E+02
 11
-2.36166719E+02
 21
1.15168447E+02
  0
LINE
  8
0
 62
4
 10
-2.39400241E+02
 20
1.15481711E+02
 11
-2.38397308E+02
 21
1.14775134E+02
  0
LINE
  8
0
 62
4
 10
-2.35461010E+02
 20
1.16176304E+02
 11
-2.36166719E+02
 21
1.15168447E+02
  0
LINE
  8
0
 62
4
 10
-2.38149456E+02
 20
1.13369495E+02
 11
-2.38397308E+02
 21
1.14775134E+02
  0
LINE
  8
0
 62
4
 10
-2.36166719E+02
 20
1.15168447E+02
 11
-2.35849515E+02
 21
1.13369495E+02
  0
LINE
  8
0
 62
4
 10
-2.46612170E+02
 20
1.16647077E+02
 11
-2.46034244E+02
 21
1.13369495E+02
  0
LINE
  8
0
 62
4
 10
-2.37550737E+02
 20
1.26875979E+02
 11
-2.47694256E+02
 21
1.25087402E+02
  0
LINE
  8
0
 62
4
 10
-2.47694256E+02
 20
1.25087402E+02
 11
-2.46218247E+02
 21
1.16716537E+02
  0
LINE
  8
0
 62
4
 10
-2.39417606E+02
 20
1.15580192E+02
 11
-2.38925202E+02
 21
1.15667016E+02
  0
LINE
  8
0
 62
4
 10
-2.39417606E+02
 20
1.15580192E+02
 11
-2.39027800E+02
 21
1.13369495E+02
  0
LINE
  8
0
 62
4
 10
-2.38600738E+02
 20
1.16130398E+02
 11
-2.35744796E+02
 21
1.16633978E+02
  0
LINE
  8
0
 62
4
 10
-2.38925202E+02
 20
1.15667016E+02
 11
-2.38600738E+02
 21
1.16130398E+02
  0
LINE
  8
0
  6
CENTER
 62
6
 10
-2.57685146E+02
 20
1.18756319E+02
 11
-2.35600773E+02
 21
1.22650390E+02
  0
LINE
  8
0
  6
CENTER
 62
6
 10
-2.47843510E+02
 20
1.16937672E+02
 11
-2.34993005E+02
 21
1.19203563E+02
  0
LINE
  8
0
  6
CENTER
 62
6
 10
-2.53408852E+02
 20
1.03771233E+02
 11
-2.60874857E+02
 21
1.02454775E+02
  0
ARC
  8
0
 62
4
 10
-2.46623827E+02
 20
1.16137309E+02
 40
5.00000000E-01
 50
9.99999999E+01
 51
1.90000000E+02
  0
LINE
  8
0
 62
4
 10
-2.47116231E+02
 20
1.16050485E+02
 11
-2.46643500E+02
 21
1.13369495E+02
  0
LINE
  8
0
 62
4
 10
-2.46218247E+02
 20
1.16716537E+02
 11
-2.46710651E+02
 21
1.16629712E+02
  0
ARC
  8
0
 62
4
 10
-2.57314009E+02
 20
9.90209419E+01
 40
1.50000000E+00
 50
1.90000000E+02
 51
1.96794373E+02
  0
LINE
  8
0
 62
4
 10
-2.54587911E+02
 20
1.23871865E+02
 11
-2.60402253E+02
 21
1.07897091E+02
  0
LINE
  8
0
 62
4
 10
-2.47694256E+02
 20
1.25087402E+02
 11
-2.54587911E+02
 21
1.23871865E+02
  0
LINE
  8
0
 62
4
 10
-2.60402253E+02
 20
1.07897091E+02
 11
-2.58791220E+02
 21
9.87604697E+01
  0
LINE
  8
0
 62
4
 10
-2.62870871E+02
 20
1.04133677E+02
 11
-2.59833109E+02
 21
1.04669316E+02
  0
LINE
  8
0
 62
4
 10
-2.62176278E+02
 20
1.00194446E+02
 11
-2.59138517E+02
 21
1.00730085E+02
  0
LINE
  8
0
 62
4
 10
-2.62176278E+02
 20
1.00194446E+02
 11
-2.62870871E+02
 21
1.04133677E+02
  0
LINE
  8
0
 62
6
 10
-2.62784047E+02
 20
1.03641273E+02
 11
-2.59746285E+02
 21
1.04176912E+02
  0
LINE
  8
0
 62
6
 10
-2.62263102E+02
 20
1.00686850E+02
 11
-2.59225341E+02
 21
1.01222489E+02
  0
CIRCLE
  8
0
 62
7
 10
2.84094391E+02
 20
6.98693884E+01
 40
2.45850000E+00
  0
CIRCLE
  8
0
 62
7
 10
2.47094315E+02
 20
6.98694647E+01
 40
2.45850000E+00
  0
CIRCLE
  8
0
 62
7
 10
2.47094391E+02
 20
1.06869541E+02
 40
2.45850000E+00
  0
CIRCLE
  8
0
 62
7
 10
2.84094467E+02
 20
1.06869465E+02
 40
2.45850000E+00
  0
LINE
  8
0
  6
CENTER
 62
2
 10
2.69594452E+02
 20
1.15121860E+02
 11
2.69594452E+02
 21
1.03941257E+02
  0
LINE
  8
0
  6
CENTER
 62
2
 10
2.47094330E+02
 20
1.15376118E+02
 11
2.47094330E+02
 21
1.00454975E+02
  0
LINE
  8
0
 62
7
 10
2.40594391E+02
 20
1.10369495E+02
 11
2.40594391E+02
 21
6.63694494E+01
  0
LINE
  8
0
 62
7
 10
2.43594391E+02
 20
1.12869434E+02
 11
2.87594391E+02
 21
1.12869495E+02
  0
LINE
  8
0
 62
7
 10
2.41094391E+02
 20
1.10369434E+02
 11
2.41094391E+02
 21
6.63694494E+01
  0
LINE
  8
0
 62
7
 10
2.44594391E+02
 20
8.93694647E+01
 11
2.48712433E+02
 21
8.93694647E+01
  0
LINE
  8
0
 62
7
 10
2.51864588E+02
 20
1.00685275E+02
 11
2.52950064E+02
 21
9.95997989E+01
  0
LINE
  8
0
 62
7
 10
2.64594391E+02
 20
1.09369465E+02
 11
2.64594391E+02
 21
1.05251407E+02
  0
LINE
  8
0
 62
7
 10
2.53278747E+02
 20
1.02099456E+02
 11
2.54364213E+02
 21
1.01013991E+02
  0
LINE
  8
0
 62
7
 10
2.43594391E+02
 20
9.33694952E+01
 11
2.43594391E+02
 21
8.33694342E+01
  0
LINE
  8
0
  6
CENTER
 62
2
 10
2.92684296E+02
 20
1.06869541E+02
 11
2.78017426E+02
 21
1.06869541E+02
  0
LINE
  8
0
  6
CENTER
 62
2
 10
2.84094391E+02
 20
1.15272114E+02
 11
2.84094391E+02
 21
9.89851263E+01
  0
LINE
  8
0
 62
7
 10
2.43594391E+02
 20
1.13369495E+02
 11
2.87594452E+02
 21
1.13369495E+02
  0
LINE
  8
0
 62
7
 10
2.90594452E+02
 20
1.10369495E+02
 11
2.90594452E+02
 21
6.63694494E+01
  0
LINE
  8
0
 62
7
 10
2.90094391E+02
 20
1.10369495E+02
 11
2.90094391E+02
 21
6.63694799E+01
  0
LINE
  8
0
  6
CENTER
 62
2
 10
2.84094513E+02
 20
6.12464636E+01
 11
2.84094513E+02
 21
7.78889654E+01
  0
LINE
  8
0
  6
CENTER
 62
2
 10
2.92539093E+02
 20
6.98694799E+01
 11
2.77727020E+02
 21
6.98694799E+01
  0
LINE
  8
0
 62
7
 10
2.43594391E+02
 20
6.33694494E+01
 11
2.87594452E+02
 21
6.33694494E+01
  0
LINE
  8
0
 62
7
 10
2.66594391E+02
 20
1.09369465E+02
 11
2.66594391E+02
 21
1.05251423E+02
  0
LINE
  8
0
 62
7
 10
2.86594391E+02
 20
8.93694799E+01
 11
2.82476349E+02
 21
8.93694799E+01
  0
LINE
  8
0
 62
7
 10
2.79324325E+02
 20
1.00685154E+02
 11
2.78238848E+02
 21
9.95996782E+01
  0
LINE
  8
0
 62
7
 10
2.77910155E+02
 20
1.02099411E+02
 11
2.76824678E+02
 21
1.01013935E+02
  0
LINE
  8
0
 62
7
 10
2.60594391E+02
 20
1.10369495E+02
 11
2.70594452E+02
 21
1.10369495E+02
  0
LINE
  8
0
 62
7
 10
2.87594391E+02
 20
9.33694952E+01
 11
2.87594391E+02
 21
8.33694342E+01
  0
LINE
  8
0
 62
7
 10
2.86594391E+02
 20
8.73694799E+01
 11
2.82476349E+02
 21
8.73694799E+01
  0
LINE
  8
0
 62
7
 10
2.79324460E+02
 20
7.60538805E+01
 11
2.78238983E+02
 21
7.71393569E+01
  0
LINE
  8
0
 62
7
 10
2.66594452E+02
 20
6.73694952E+01
 11
2.66594452E+02
 21
7.14875372E+01
  0
LINE
  8
0
 62
7
 10
2.77910246E+02
 20
7.46397103E+01
 11
2.76824781E+02
 21
7.57251759E+01
  0
LINE
  8
0
 62
7
 10
2.60594391E+02
 20
6.63694342E+01
 11
2.70594452E+02
 21
6.63694342E+01
  0
LINE
  8
0
 62
7
 10
2.43594452E+02
 20
6.38694494E+01
 11
2.87594452E+02
 21
6.38694799E+01
  0
LINE
  8
0
 62
7
 10
2.64594452E+02
 20
6.73694952E+01
 11
2.64594452E+02
 21
7.14875372E+01
  0
LINE
  8
0
 62
7
 10
2.53278742E+02
 20
7.46394448E+01
 11
2.54364218E+02
 21
7.57249210E+01
  0
LINE
  8
0
 62
7
 10
2.44594391E+02
 20
8.73694494E+01
 11
2.48712433E+02
 21
8.73694494E+01
  0
LINE
  8
0
 62
7
 10
2.51864593E+02
 20
7.60537232E+01
 11
2.52950026E+02
 21
7.71391563E+01
  0
LINE
  8
0
  6
CENTER
 62
2
 10
2.65594391E+02
 20
1.16864460E+02
 11
2.65594391E+02
 21
5.90682104E+01
  0
LINE
  8
0
  6
CENTER
 62
2
 10
2.47094452E+02
 20
6.14814108E+01
 11
2.47094452E+02
 21
7.74458044E+01
  0
LINE
  8
0
 62
7
 10
2.85594391E+02
 20
1.13369495E+02
 11
2.85594391E+02
 21
1.12869495E+02
  0
LINE
  8
0
 62
7
 10
2.45594391E+02
 20
1.13369495E+02
 11
2.45594391E+02
 21
1.12869434E+02
  0
LINE
  8
0
 62
7
 10
2.85594391E+02
 20
6.38694799E+01
 11
2.85594391E+02
 21
6.33694494E+01
  0
LINE
  8
0
 62
7
 10
2.45594391E+02
 20
6.38694494E+01
 11
2.45594391E+02
 21
6.33694494E+01
  0
LINE
  8
0
 62
7
 10
2.76307587E+02
 20
7.03694799E+01
 11
2.74344452E+02
 21
7.03694799E+01
  0
LINE
  8
0
 62
7
 10
2.54882477E+02
 20
7.03693884E+01
 11
2.56844391E+02
 21
7.03693884E+01
  0
LINE
  8
0
 62
7
 10
2.47594452E+02
 20
7.76568640E+01
 11
2.47594452E+02
 21
7.96194342E+01
  0
LINE
  8
0
 62
7
 10
2.47594330E+02
 20
9.90807684E+01
 11
2.47594330E+02
 21
9.71194952E+01
  0
LINE
  8
0
 62
7
 10
2.76306122E+02
 20
1.06369556E+02
 11
2.74344452E+02
 21
1.06369556E+02
  0
LINE
  8
0
 62
7
 10
2.83594391E+02
 20
9.90816229E+01
 11
2.83594391E+02
 21
9.71194952E+01
  0
LINE
  8
0
 62
7
 10
2.83594391E+02
 20
7.76573065E+01
 11
2.83594391E+02
 21
7.96194342E+01
  0
LINE
  8
0
  6
CENTER
 62
2
 10
2.53475800E+02
 20
6.98694799E+01
 11
2.38954132E+02
 21
6.98694799E+01
  0
LINE
  8
0
  6
CENTER
 62
2
 10
2.53475800E+02
 20
1.06869541E+02
 11
2.38954132E+02
 21
1.06869541E+02
  0
LINE
  8
0
  6
CENTER
 62
2
 10
2.36622070E+02
 20
8.83694647E+01
 11
2.95298187E+02
 21
8.83694647E+01
  0
LINE
  8
0
 62
7
 10
2.54981354E+02
 20
1.06398655E+02
 11
2.57011444E+02
 21
1.06398655E+02
  0
LINE
  8
0
 62
7
 10
2.47094325E+02
 20
1.10333642E+02
 11
2.44094330E+02
 21
1.08601594E+02
  0
LINE
  8
0
 62
7
 10
2.44094330E+02
 20
1.08601597E+02
 11
2.44094330E+02
 21
1.05137485E+02
  0
LINE
  8
0
 62
7
 10
2.47094330E+02
 20
1.03405440E+02
 11
2.44094328E+02
 21
1.05137492E+02
  0
LINE
  8
0
 62
7
 10
2.50094325E+02
 20
1.05137490E+02
 11
2.47094330E+02
 21
1.03405442E+02
  0
LINE
  8
0
 62
7
 10
2.50094330E+02
 20
1.08601597E+02
 11
2.50094330E+02
 21
1.05137485E+02
  0
LINE
  8
0
 62
7
 10
2.47094328E+02
 20
1.10333644E+02
 11
2.50094330E+02
 21
1.08601592E+02
  0
LINE
  8
0
 62
7
 10
2.84094391E+02
 20
1.10333646E+02
 11
2.81094383E+02
 21
1.08601590E+02
  0
LINE
  8
0
 62
7
 10
2.81094391E+02
 20
1.08601597E+02
 11
2.81094391E+02
 21
1.05137485E+02
  0
LINE
  8
0
 62
7
 10
2.84094390E+02
 20
1.03405440E+02
 11
2.81094388E+02
 21
1.05137491E+02
  0
LINE
  8
0
 62
7
 10
2.87094391E+02
 20
1.05137493E+02
 11
2.84094383E+02
 21
1.03405438E+02
  0
LINE
  8
0
 62
7
 10
2.87094391E+02
 20
1.08601597E+02
 11
2.87094391E+02
 21
1.05137485E+02
  0
LINE
  8
0
 62
7
 10
2.84094388E+02
 20
1.10333644E+02
 11
2.87094390E+02
 21
1.08601592E+02
  0
LINE
  8
0
 62
7
 10
2.84094514E+02
 20
7.33335865E+01
 11
2.81094506E+02
 21
7.16015309E+01
  0
LINE
  8
0
 62
7
 10
2.81094513E+02
 20
7.16015280E+01
 11
2.81094513E+02
 21
6.81374319E+01
  0
LINE
  8
0
 62
7
 10
2.84094516E+02
 20
6.64053866E+01
 11
2.81094518E+02
 21
6.81374365E+01
  0
LINE
  8
0
 62
7
 10
2.87094514E+02
 20
6.81374342E+01
 11
2.84094506E+02
 21
6.64053785E+01
  0
LINE
  8
0
 62
7
 10
2.87094513E+02
 20
7.16015280E+01
 11
2.87094513E+02
 21
6.81374319E+01
  0
LINE
  8
0
 62
7
 10
2.84094518E+02
 20
7.33335888E+01
 11
2.87094516E+02
 21
7.16015389E+01
  0
LINE
  8
0
 62
7
 10
2.47094448E+02
 20
7.33335830E+01
 11
2.44094446E+02
 21
7.16015311E+01
  0
LINE
  8
0
 62
7
 10
2.44094452E+02
 20
7.16015280E+01
 11
2.44094452E+02
 21
6.81374319E+01
  0
LINE
  8
0
 62
7
 10
2.47094454E+02
 20
6.64053792E+01
 11
2.44094452E+02
 21
6.81374310E+01
  0
LINE
  8
0
 62
7
 10
2.50094448E+02
 20
6.81374307E+01
 11
2.47094446E+02
 21
6.64053788E+01
  0
LINE
  8
0
 62
7
 10
2.50094452E+02
 20
7.16015280E+01
 11
2.50094452E+02
 21
6.81374319E+01
  0
LINE
  8
0
 62
7
 10
2.47094452E+02
 20
7.33335834E+01
 11
2.50094454E+02
 21
7.16015315E+01
  0
CIRCLE
  8
0
 62
2
 10
2.84094391E+02
 20
1.06869541E+02
 40
3.00000000E+00
  0
ARC
  8
0
 62
7
 10
2.43594391E+02
 20
1.10369434E+02
 40
2.50000000E+00
 50
9.00000162E+01
 51
1.80000005E+02
  0
CIRCLE
  8
0
 62
7
 10
2.47094330E+02
 20
1.06869465E+02
 40
5.00000000E+00
  0
CIRCLE
  8
0
 62
7
 10
2.47094330E+02
 20
1.06869465E+02
 40
4.50000000E+00
  0
ARC
  8
0
 62
7
 10
2.53985809E+02
 20
1.02806446E+02
 40
1.00000000E+00
 50
1.49477556E+02
 51
2.24999381E+02
  0
ARC
  8
0
 62
7
 10
2.44594391E+02
 20
9.03694647E+01
 40
1.00000000E+00
 50
1.79999991E+02
 51
2.70000028E+02
  0
ARC
  8
0
 62
7
 10
2.48712433E+02
 20
9.03694647E+01
 40
1.00000000E+00
 50
2.70000038E+02
 51
3.53243910E+02
  0
ARC
  8
0
 62
7
 10
2.51157379E+02
 20
9.99780310E+01
 40
1.00000000E+00
 50
4.50006569E+01
 51
1.20522253E+02
  0
ARC
  8
0
 62
7
 10
2.63594391E+02
 20
1.09369465E+02
 40
1.00000000E+00
 50
3.59721781E-05
 51
9.00000162E+01
  0
ARC
  8
0
 62
7
 10
2.63594391E+02
 20
1.05251407E+02
 40
1.00000000E+00
 50
2.76756256E+02
 51
3.59721781E-05
  0
ARC
  8
0
 62
7
 10
2.52242828E+02
 20
9.88925512E+01
 40
1.00000000E+00
 50
3.21756388E+02
 51
4.50000423E+01
  0
ARC
  8
0
 62
7
 10
2.55071259E+02
 20
1.01720981E+02
 40
1.00000000E+00
 50
2.25000614E+02
 51
3.08244204E+02
  0
ARC
  8
0
 62
7
 10
2.43594391E+02
 20
1.10369495E+02
 40
3.00000000E+00
 50
9.00000162E+01
 51
1.80000005E+02
  0
ARC
  8
0
 62
7
 10
2.44594391E+02
 20
9.33694952E+01
 40
1.00000000E+00
 50
9.00000162E+01
 51
1.80000005E+02
  0
ARC
  8
0
 62
7
 10
2.44594391E+02
 20
9.73694952E+01
 40
3.00000000E+00
 50
2.70000052E+02
 51
2.02641660E+00
  0
ARC
  8
0
 62
7
 10
2.48591888E+02
 20
9.90109289E+01
 40
1.00000000E+00
 50
1.00789092E+02
 51
1.82026126E+02
  0
ARC
  8
0
 62
7
 10
2.47094391E+02
 20
1.06869526E+02
 40
7.00000000E+00
 50
2.80788643E+02
 51
3.49211298E+02
  0
ARC
  8
0
 62
7
 10
2.54952972E+02
 20
1.05372028E+02
 40
1.00000000E+00
 50
8.79748173E+01
 51
1.69211544E+02
  0
ARC
  8
0
 62
7
 10
2.56594391E+02
 20
1.09369526E+02
 40
3.00000000E+00
 50
2.67974191E+02
 51
3.59999431E+02
  0
ARC
  8
0
 62
7
 10
2.60594391E+02
 20
1.09369495E+02
 40
1.00000000E+00
 50
9.00000162E+01
 51
1.80000005E+02
  0
ARC
  8
0
 62
7
 10
2.87594452E+02
 20
6.63694799E+01
 40
2.50000000E+00
 50
2.70000052E+02
 51
3.59721781E-05
  0
ARC
  8
0
 62
7
 10
2.87594391E+02
 20
1.10369495E+02
 40
2.50000000E+00
 50
3.59721781E-05
 51
9.00000162E+01
  0
ARC
  8
0
 62
7
 10
2.87594452E+02
 20
1.10369495E+02
 40
3.00000000E+00
 50
3.59721781E-05
 51
9.00000162E+01
  0
ARC
  8
0
 62
7
 10
2.87594452E+02
 20
6.63694494E+01
 40
3.00000000E+00
 50
2.70000052E+02
 51
3.59721781E-05
  0
CIRCLE
  8
0
 62
7
 10
2.84094391E+02
 20
1.06869526E+02
 40
4.50000000E+00
  0
CIRCLE
  8
0
 62
7
 10
2.84094391E+02
 20
1.06869526E+02
 40
5.00000000E+00
  0
CIRCLE
  8
0
 62
7
 10
2.84094452E+02
 20
6.98694647E+01
 40
4.50000000E+00
  0
CIRCLE
  8
0
 62
7
 10
2.84094452E+02
 20
6.98694647E+01
 40
5.00000000E+00
  0
ARC
  8
0
 62
7
 10
2.86594391E+02
 20
9.03694647E+01
 40
1.00000000E+00
 50
2.70000052E+02
 51
3.59721781E-05
  0
ARC
  8
0
 62
7
 10
2.67594391E+02
 20
1.09369465E+02
 40
1.00000000E+00
 50
9.00000025E+01
 51
1.80000046E+02
  0
ARC
  8
0
 62
7
 10
2.77202972E+02
 20
1.02806507E+02
 40
1.00000000E+00
 50
3.15000662E+02
 51
3.05222541E+01
  0
ARC
  8
0
 62
7
 10
2.84094391E+02
 20
1.06869526E+02
 40
7.00000000E+00
 50
1.90788716E+02
 51
2.59211379E+02
  0
ARC
  8
0
 62
7
 10
2.80031403E+02
 20
9.99780767E+01
 40
1.00000000E+00
 50
5.94775673E+01
 51
1.34999386E+02
  0
ARC
  8
0
 62
7
 10
2.67594391E+02
 20
1.05251423E+02
 40
1.00000000E+00
 50
1.80000036E+02
 51
2.63243916E+02
  0
ARC
  8
0
 62
7
 10
2.76117523E+02
 20
1.01721058E+02
 40
1.00000000E+00
 50
2.31756382E+02
 51
3.15000026E+02
  0
ARC
  8
0
 62
7
 10
2.78945953E+02
 20
9.88926275E+01
 40
1.00000000E+00
 50
1.35000629E+02
 51
2.18244215E+02
  0
ARC
  8
0
 62
7
 10
2.82476349E+02
 20
9.03694647E+01
 40
1.00000000E+00
 50
1.86756227E+02
 51
2.70000038E+02
  0
ARC
  8
0
 62
7
 10
2.77203033E+02
 20
7.39324835E+01
 40
1.00000000E+00
 50
3.29477575E+02
 51
4.49993865E+01
  0
ARC
  8
0
 62
7
 10
2.86594391E+02
 20
8.63694647E+01
 40
1.00000000E+00
 50
8.65142224E-06
 51
9.00000437E+01
  0
ARC
  8
0
 62
7
 10
2.82476349E+02
 20
8.63694647E+01
 40
1.00000000E+00
 50
9.00000437E+01
 51
1.73243923E+02
  0
ARC
  8
0
 62
7
 10
2.80031464E+02
 20
7.67608831E+01
 40
1.00000000E+00
 50
2.25000642E+02
 51
3.00522242E+02
  0
ARC
  8
0
 62
7
 10
2.67594391E+02
 20
6.73694647E+01
 40
1.00000000E+00
 50
1.80000022E+02
 51
2.70000011E+02
  0
ARC
  8
0
 62
7
 10
2.67594391E+02
 20
7.14875067E+01
 40
1.00000000E+00
 50
9.67562412E+01
 51
1.80000032E+02
  0
ARC
  8
0
 62
7
 10
2.78946014E+02
 20
7.78463629E+01
 40
1.00000000E+00
 50
1.41756382E+02
 51
2.25000037E+02
  0
ARC
  8
0
 62
7
 10
2.76117584E+02
 20
7.50179327E+01
 40
1.00000000E+00
 50
4.50006297E+01
 51
1.28244219E+02
  0
ARC
  8
0
 62
7
 10
2.86594391E+02
 20
9.73694952E+01
 40
3.00000000E+00
 50
1.79999991E+02
 51
2.69999974E+02
  0
ARC
  8
0
 62
7
 10
2.74594452E+02
 20
1.09369526E+02
 40
3.00000000E+00
 50
1.80000582E+02
 51
2.72025825E+02
  0
ARC
  8
0
 62
7
 10
2.86594391E+02
 20
9.33694952E+01
 40
1.00000000E+00
 50
3.59721781E-05
 51
9.00000162E+01
  0
ARC
  8
0
 62
7
 10
2.82596893E+02
 20
9.90109289E+01
 40
1.00000000E+00
 50
3.57973915E+02
 51
7.92109402E+01
  0
ARC
  8
0
 62
7
 10
2.70594452E+02
 20
1.09369495E+02
 40
1.00000000E+00
 50
3.59721781E-05
 51
9.00000162E+01
  0
ARC
  8
0
 62
7
 10
2.76235809E+02
 20
1.05372028E+02
 40
1.00000000E+00
 50
1.07884972E+01
 51
9.20252152E+01
  0
ARC
  8
0
 62
7
 10
2.82596893E+02
 20
7.77280004E+01
 40
1.00000000E+00
 50
2.80789074E+02
 51
2.02610241E+00
  0
ARC
  8
0
 62
7
 10
2.84094391E+02
 20
6.98694036E+01
 40
7.00000000E+00
 50
1.00788621E+02
 51
1.69211284E+02
  0
ARC
  8
0
 62
7
 10
2.76235809E+02
 20
7.13669012E+01
 40
1.00000000E+00
 50
2.67974785E+02
 51
3.49211503E+02
  0
ARC
  8
0
 62
7
 10
2.74594452E+02
 20
6.73694036E+01
 40
3.00000000E+00
 50
8.79741750E+01
 51
1.79999418E+02
  0
ARC
  8
0
 62
7
 10
2.70594452E+02
 20
6.73694342E+01
 40
1.00000000E+00
 50
2.69999984E+02
 51
3.59999964E+02
  0
ARC
  8
0
 62
7
 10
2.43594452E+02
 20
6.63694494E+01
 40
2.50000000E+00
 50
1.79999991E+02
 51
2.70000028E+02
  0
ARC
  8
0
 62
7
 10
2.43594391E+02
 20
6.63694494E+01
 40
3.00000000E+00
 50
1.79999991E+02
 51
2.70000028E+02
  0
CIRCLE
  8
0
 62
7
 10
2.47094391E+02
 20
6.98694036E+01
 40
4.50000000E+00
  0
CIRCLE
  8
0
 62
7
 10
2.47094391E+02
 20
6.98694036E+01
 40
5.00000000E+00
  0
ARC
  8
0
 62
7
 10
2.51157440E+02
 20
7.67608526E+01
 40
1.00000000E+00
 50
2.39477556E+02
 51
3.14999370E+02
  0
ARC
  8
0
 62
7
 10
2.63594391E+02
 20
6.73694647E+01
 40
1.00000000E+00
 50
2.69999998E+02
 51
4.96325564E-05
  0
ARC
  8
0
 62
7
 10
2.63594391E+02
 20
7.14875067E+01
 40
1.00000000E+00
 50
4.96325564E-05
 51
8.32439208E+01
  0
ARC
  8
0
 62
7
 10
2.53985809E+02
 20
7.39324224E+01
 40
1.00000000E+00
 50
1.35000656E+02
 51
2.10522249E+02
  0
ARC
  8
0
 62
7
 10
2.44594391E+02
 20
8.63694647E+01
 40
1.00000000E+00
 50
9.00000300E+01
 51
1.80000019E+02
  0
ARC
  8
0
 62
7
 10
2.48712433E+02
 20
8.63694647E+01
 40
1.00000000E+00
 50
6.75624040E+00
 51
9.00000300E+01
  0
ARC
  8
0
 62
7
 10
2.55071320E+02
 20
7.50178717E+01
 40
1.00000000E+00
 50
5.17563834E+01
 51
1.35000041E+02
  0
ARC
  8
0
 62
7
 10
2.52242889E+02
 20
7.78463018E+01
 40
1.00000000E+00
 50
3.15000634E+02
 51
3.82442202E+01
  0
ARC
  8
0
 62
7
 10
2.60594391E+02
 20
6.73694342E+01
 40
1.00000000E+00
 50
1.79999991E+02
 51
2.69999974E+02
  0
ARC
  8
0
 62
7
 10
2.56594391E+02
 20
6.73694036E+01
 40
3.00000000E+00
 50
5.68726953E-04
 51
9.20258094E+01
  0
ARC
  8
0
 62
7
 10
2.54952972E+02
 20
7.13669012E+01
 40
1.00000000E+00
 50
1.90788456E+02
 51
2.72025183E+02
  0
ARC
  8
0
 62
7
 10
2.47094391E+02
 20
6.98694036E+01
 40
7.00000000E+00
 50
1.07887021E+01
 51
7.92113567E+01
  0
ARC
  8
0
 62
7
 10
2.48591888E+02
 20
7.77280004E+01
 40
1.00000000E+00
 50
1.77973884E+02
 51
2.59210897E+02
  0
ARC
  8
0
 62
7
 10
2.44594391E+02
 20
7.93694342E+01
 40
3.00000000E+00
 50
3.57973601E+02
 51
8.99999618E+01
  0
ARC
  8
0
 62
7
 10
2.44594391E+02
 20
8.33694342E+01
 40
1.00000000E+00
 50
1.79999991E+02
 51
2.69999974E+02
  0
CIRCLE
  8
0
 62
7
 10
2.65594391E+02
 20
8.83694647E+01
 40
1.60000000E+01
  0
ARC
  8
0
 62
7
 10
2.86594391E+02
 20
7.93694342E+01
 40
3.00000000E+00
 50
9.00000162E+01
 51
1.82026372E+02
  0
ARC
  8
0
 62
7
 10
2.86594391E+02
 20
8.33694342E+01
 40
1.00000000E+00
 50
2.69999984E+02
 51
1.86693353E-05
  0
CIRCLE
  8
0
 62
2
 10
2.84094513E+02
 20
6.98694799E+01
 40
3.00000000E+00
  0
CIRCLE
  8
0
 62
2
 10
2.47094452E+02
 20
6.98694799E+01
 40
3.00000000E+00
  0
CIRCLE
  8
0
 62
2
 10
2.47094330E+02
 20
1.06869541E+02
 40
3.00000000E+00
  0
CIRCLE
  8
0
 62
7
 10
2.65594391E+02
 20
8.83694647E+01
 40
6.99998474E+00
  0
CIRCLE
  8
0
 62
2
 10
2.65594391E+02
 20
8.83694647E+01
 40
6.17999268E+00
  0
CIRCLE
  8
0
 62
7
 10
2.65594391E+02
 20
8.83694647E+01
 40
1.55000010E+01
  0
CIRCLE
  8
0
 62
7
 10
2.65594391E+02
 20
8.83694647E+01
 40
1.50000000E+01
  0
LINE
  8
0
 62
4
 10
2.76594391E+02
 20
9.47203176E+01
 11
2.65594391E+02
 21
1.01071171E+02
  0
LINE
  8
0
 62
4
 10
2.65594391E+02
 20
1.01071171E+02
 11
2.54594391E+02
 21
9.47203176E+01
  0
LINE
  8
0
 62
4
 10
2.54594391E+02
 20
9.47203176E+01
 11
2.54594391E+02
 21
8.20186117E+01
  0
LINE
  8
0
 62
4
 10
2.54594391E+02
 20
8.20186117E+01
 11
2.65594391E+02
 21
7.56677587E+01
  0
CIRCLE
  8
0
 62
4
 10
2.65594391E+02
 20
8.83694647E+01
 40
1.10000000E+01
  0
LINE
  8
0
 62
4
 10
2.65594391E+02
 20
7.56677587E+01
 11
2.76594391E+02
 21
8.20186117E+01
  0
LINE
  8
0
 62
4
 10
2.76594391E+02
 20
8.20186117E+01
 11
2.76594391E+02
 21
9.47203176E+01
  0
LINE
  8
0
 62
6
 10
2.37081258E+02
 20
1.00686850E+02
 11
2.40119020E+02
 21
1.01222489E+02
  0
LINE
  8
0
 62
6
 10
2.36560313E+02
 20
1.03641273E+02
 11
2.39598075E+02
 21
1.04176912E+02
  0
LINE
  8
0
 62
4
 10
2.37168082E+02
 20
1.00194446E+02
 11
2.36473489E+02
 21
1.04133677E+02
  0
LINE
  8
0
 62
4
 10
2.37168082E+02
 20
1.00194446E+02
 11
2.40205844E+02
 21
1.00730085E+02
  0
LINE
  8
0
 62
4
 10
2.36473489E+02
 20
1.04133677E+02
 11
2.39511251E+02
 21
1.04669316E+02
  0
LINE
  8
0
 62
4
 10
2.38942107E+02
 20
1.07897091E+02
 11
2.40553140E+02
 21
9.87604697E+01
  0
LINE
  8
0
 62
4
 10
2.51650104E+02
 20
1.25087402E+02
 11
2.44756450E+02
 21
1.23871865E+02
  0
LINE
  8
0
 62
4
 10
2.44756450E+02
 20
1.23871865E+02
 11
2.38942107E+02
 21
1.07897091E+02
  0
ARC
  8
0
 62
4
 10
2.42030352E+02
 20
9.90209419E+01
 40
1.50000000E+00
 50
1.90000000E+02
 51
1.96794373E+02
  0
LINE
  8
0
 62
4
 10
2.53126113E+02
 20
1.16716537E+02
 11
2.52633710E+02
 21
1.16629712E+02
  0
LINE
  8
0
 62
4
 10
2.52228130E+02
 20
1.16050485E+02
 11
2.52700861E+02
 21
1.13369495E+02
  0
ARC
  8
0
 62
4
 10
2.52720534E+02
 20
1.16137309E+02
 40
5.00000000E-01
 50
9.99999999E+01
 51
1.90000000E+02
  0
LINE
  8
0
  6
CENTER
 62
6
 10
2.45935508E+02
 20
1.03771233E+02
 11
2.38469504E+02
 21
1.02454775E+02
  0
LINE
  8
0
  6
CENTER
 62
6
 10
2.51500850E+02
 20
1.16937672E+02
 11
2.64351356E+02
 21
1.19203563E+02
  0
LINE
  8
0
  6
CENTER
 62
6
 10
2.41659215E+02
 20
1.18756319E+02
 11
2.63743587E+02
 21
1.22650390E+02
  0
LINE
  8
0
 62
4
 10
2.60419159E+02
 20
1.15667016E+02
 11
2.60743622E+02
 21
1.16130398E+02
  0
LINE
  8
0
 62
4
 10
2.60743622E+02
 20
1.16130398E+02
 11
2.63599565E+02
 21
1.16633978E+02
  0
LINE
  8
0
 62
4
 10
2.59926755E+02
 20
1.15580192E+02
 11
2.60316560E+02
 21
1.13369495E+02
  0
LINE
  8
0
 62
4
 10
2.59926755E+02
 20
1.15580192E+02
 11
2.60419159E+02
 21
1.15667016E+02
  0
LINE
  8
0
 62
4
 10
2.51650104E+02
 20
1.25087402E+02
 11
2.53126113E+02
 21
1.16716537E+02
  0
LINE
  8
0
 62
4
 10
2.61793624E+02
 20
1.26875979E+02
 11
2.51650104E+02
 21
1.25087402E+02
  0
LINE
  8
0
 62
4
 10
2.52732190E+02
 20
1.16647077E+02
 11
2.53310117E+02
 21
1.13369495E+02
  0
LINE
  8
0
 62
4
 10
2.63177642E+02
 20
1.15168447E+02
 11
2.63494845E+02
 21
1.13369495E+02
  0
LINE
  8
0
 62
4
 10
2.61194904E+02
 20
1.13369495E+02
 11
2.60947052E+02
 21
1.14775134E+02
  0
LINE
  8
0
 62
4
 10
2.63883350E+02
 20
1.16176304E+02
 11
2.63177642E+02
 21
1.15168447E+02
  0
LINE
  8
0
 62
4
 10
2.59944119E+02
 20
1.15481711E+02
 11
2.60947052E+02
 21
1.14775134E+02
  0
LINE
  8
0
 62
4
 10
2.60947052E+02
 20
1.14775134E+02
 11
2.63177642E+02
 21
1.15168447E+02
  0
LINE
  8
0
 62
4
 10
2.59944119E+02
 20
1.15481711E+02
 11
2.63883350E+02
 21
1.16176304E+02
  0
LINE
  8
0
 62
4
 10
2.63883350E+02
 20
1.16176304E+02
 11
2.64378267E+02
 21
1.13369495E+02
  0
LINE
  8
0
  6
CENTER
 62
6
 10
2.61740087E+02
 20
1.16813815E+02
 11
2.62781976E+02
 21
1.10904969E+02
  0
LINE
  8
0
  6
CENTER
 62
6
 10
2.59306608E+02
 20
1.13338447E+02
 11
2.65215455E+02
 21
1.14380337E+02
  0
LINE
  8
0
 62
4
 10
2.61915178E+02
 20
1.26186613E+02
 11
2.62899985E+02
 21
1.26360261E+02
  0
ARC
  8
0
 62
4
 10
2.65090227E+02
 20
1.20450815E+02
 40
1.00000000E+00
 50
3.28723662E+02
 51
3.57172490E+02
  0
ARC
  8
0
 62
4
 10
2.64256716E+02
 20
1.25177893E+02
 40
1.00000000E+00
 50
2.28275100E+01
 51
9.99999999E+01
  0
ARC
  8
0
 62
4
 10
2.54293387E+02
 20
1.20984065E+02
 40
1.18100000E+01
 50
3.57172490E+02
 51
2.28275100E+01
  0
LINE
  8
0
 62
4
 10
2.62969445E+02
 20
1.25966338E+02
 11
2.64082277E+02
 21
1.26162561E+02
  0
LINE
  8
0
 62
4
 10
2.63446977E+02
 20
1.23258117E+02
 11
2.62899985E+02
 21
1.26360261E+02
  0
LINE
  8
0
 62
4
 10
2.64277676E+02
 20
1.14976551E+02
 11
2.62836396E+02
 21
1.23150455E+02
  0
LINE
  8
0
 62
4
 10
2.62488216E+02
 20
1.22936748E+02
 11
2.62862443E+02
 21
1.23002734E+02
  0
LINE
  8
0
 62
4
 10
2.64074363E+02
 20
1.15093015E+02
 11
2.64251629E+02
 21
1.15124272E+02
  0
LINE
  8
0
 62
4
 10
2.62836396E+02
 20
1.23150455E+02
 11
2.64569658E+02
 21
1.23456076E+02
  0
LINE
  8
0
 62
4
 10
2.64277676E+02
 20
1.14976551E+02
 11
2.66010938E+02
 21
1.15282172E+02
  0
ARC
  8
0
 62
4
 10
2.54397240E+02
 20
1.17456241E+02
 40
1.18100000E+01
 50
9.99999999E+00
 51
3.05326991E+01
  0
ARC
  8
0
 62
4
 10
2.54399927E+02
 20
1.17441000E+02
 40
1.18100000E+01
 50
3.49467301E+02
 51
9.99999999E+00
  0
LINE
  8
0
 62
4
 10
2.63686389E+02
 20
1.16141574E+02
 11
2.61793624E+02
 21
1.26875979E+02
  0
LINE
  8
0
 62
4
 10
2.67311441E+02
 20
1.15058286E+02
 11
2.69395219E+02
 21
1.26875979E+02
  0
LINE
  8
0
 62
4
 10
2.67311441E+02
 20
1.15058286E+02
 11
2.66937214E+02
 21
1.15124272E+02
  0
LINE
  8
0
 62
4
 10
2.66911167E+02
 20
1.14976551E+02
 11
2.67579712E+02
 21
1.18768061E+02
  0
LINE
  8
0
 62
4
 10
2.66969131E+02
 20
1.18875723E+02
 11
2.68288858E+02
 21
1.26360261E+02
  0
LINE
  8
0
 62
4
 10
2.69273665E+02
 20
1.26186613E+02
 11
2.68288858E+02
 21
1.26360261E+02
  0
LINE
  8
0
 62
4
 10
2.67953939E+02
 20
1.18702074E+02
 11
2.66969131E+02
 21
1.18875723E+02
  0
ARC
  8
0
 62
4
 10
2.68797575E+02
 20
1.13120786E+02
 40
5.00000000E-01
 50
2.98293252E+01
 51
1.50170675E+02
  0
CIRCLE
  8
0
 62
4
 10
2.69058048E+02
 20
1.14597998E+02
 40
5.00000000E-01
  0
CIRCLE
  8
0
 62
4
 10
2.69058048E+02
 20
1.14597998E+02
 40
3.00000000E-01
  0
ARC
  8
0
 62
4
 10
2.68797575E+02
 20
1.13120786E+02
 40
3.00000000E-01
 50
5.59992305E+01
 51
1.24000769E+02
  0
ARC
  8
0
 62
4
 10
2.68927811E+02
 20
1.13859392E+02
 40
1.50000000E+00
 50
3.40937591E+02
 51
1.99062409E+02
  0
LINE
  8
0
 62
4
 10
2.92246736E+02
 20
1.07897091E+02
 11
2.90635703E+02
 21
9.87604697E+01
  0
LINE
  8
0
 62
4
 10
2.79538739E+02
 20
1.25087402E+02
 11
2.86432393E+02
 21
1.23871865E+02
  0
LINE
  8
0
 62
4
 10
2.86432393E+02
 20
1.23871865E+02
 11
2.92246736E+02
 21
1.07897091E+02
  0
ARC
  8
0
 62
4
 10
2.89158491E+02
 20
9.90209419E+01
 40
1.50000000E+00
 50
3.43189498E+02
 51
3.50000000E+02
  0
LINE
  8
0
 62
4
 10
2.78062729E+02
 20
1.16716537E+02
 11
2.78555133E+02
 21
1.16629712E+02
  0
LINE
  8
0
 62
4
 10
2.78960713E+02
 20
1.16050485E+02
 11
2.78487982E+02
 21
1.13369495E+02
  0
ARC
  8
0
 62
4
 10
2.78468309E+02
 20
1.16137309E+02
 40
5.00000000E-01
 50
3.50000000E+02
 51
7.99999999E+01
  0
LINE
  8
0
  6
CENTER
 62
6
 10
2.85662400E+02
 20
1.03699104E+02
 11
2.93128404E+02
 21
1.02382646E+02
  0
LINE
  8
0
  6
CENTER
 62
6
 10
2.79687992E+02
 20
1.16937672E+02
 11
2.66837487E+02
 21
1.19203563E+02
  0
LINE
  8
0
  6
CENTER
 62
6
 10
2.89529628E+02
 20
1.18756319E+02
 11
2.67445256E+02
 21
1.22650390E+02
  0
LINE
  8
0
 62
4
 10
2.70769684E+02
 20
1.15667016E+02
 11
2.70445220E+02
 21
1.16130398E+02
  0
LINE
  8
0
 62
4
 10
2.70445220E+02
 20
1.16130398E+02
 11
2.67589278E+02
 21
1.16633978E+02
  0
LINE
  8
0
 62
4
 10
2.71262088E+02
 20
1.15580192E+02
 11
2.70872283E+02
 21
1.13369495E+02
  0
LINE
  8
0
 62
4
 10
2.71262088E+02
 20
1.15580192E+02
 11
2.70769684E+02
 21
1.15667016E+02
  0
LINE
  8
0
 62
4
 10
2.79538739E+02
 20
1.25087402E+02
 11
2.78062729E+02
 21
1.16716537E+02
  0
LINE
  8
0
 62
4
 10
2.69395219E+02
 20
1.26875979E+02
 11
2.79538739E+02
 21
1.25087402E+02
  0
LINE
  8
0
 62
4
 10
2.78456652E+02
 20
1.16647077E+02
 11
2.77878726E+02
 21
1.13369495E+02
  0
LINE
  8
0
 62
4
 10
2.71244723E+02
 20
1.15481711E+02
 11
2.67305492E+02
 21
1.16176304E+02
  0
LINE
  8
0
 62
4
 10
2.67305492E+02
 20
1.16176304E+02
 11
2.66810576E+02
 21
1.13369495E+02
  0
LINE
  8
0
  6
CENTER
 62
6
 10
2.69448756E+02
 20
1.16813815E+02
 11
2.68406867E+02
 21
1.10904969E+02
  0
LINE
  8
0
  6
CENTER
 62
6
 10
2.71882235E+02
 20
1.13338447E+02
 11
2.65973388E+02
 21
1.14380337E+02
  0
LINE
  8
0
 62
4
 10
2.94715353E+02
 20
1.04133677E+02
 11
2.91677592E+02
 21
1.04669316E+02
  0
LINE
  8
0
 62
4
 10
2.94020761E+02
 20
1.00194446E+02
 11
2.90982999E+02
 21
1.00730085E+02
  0
LINE
  8
0
 62
6
 10
2.94628529E+02
 20
1.03641273E+02
 11
2.91590768E+02
 21
1.04176912E+02
  0
LINE
  8
0
 62
6
 10
2.94107585E+02
 20
1.00686850E+02
 11
2.91069823E+02
 21
1.01222489E+02
  0
LINE
  8
0
 62
4
 10
2.94020761E+02
 20
1.00194446E+02
 11
2.94715354E+02
 21
1.04133677E+02
  0
ARC
  8
0
 62
4
 10
2.66932127E+02
 20
1.25177893E+02
 40
1.00000000E+00
 50
7.99999999E+01
 51
1.57172490E+02
  0
LINE
  8
0
 62
4
 10
2.68219398E+02
 20
1.25966338E+02
 11
2.67106565E+02
 21
1.26162561E+02
  0
ARC
  8
0
  6
DASHED
 62
4
 10
2.76895455E+02
 20
1.20984065E+02
 40
1.18100000E+01
 50
1.63117791E+02
 51
1.82827510E+02
  0
LINE
  8
0
 62
4
 10
2.67038591E+02
 20
1.19269646E+02
 11
2.66038489E+02
 21
1.19445991E+02
  0
ARC
  8
0
  6
DASHED
 62
4
 10
2.66098616E+02
 20
1.20450815E+02
 40
1.00000000E+00
 50
1.82827510E+02
 51
2.60000000E+02
  0
ARC
  8
0
  6
DASHED
 62
4
 10
2.76788915E+02
 20
1.17441000E+02
 40
1.18100000E+01
 50
1.70000000E+02
 51
1.90532699E+02
  0
ARC
  8
0
  6
DASHED
 62
4
 10
2.76791603E+02
 20
1.17456241E+02
 40
1.18100000E+01
 50
1.67900933E+02
 51
1.70000000E+02
  0
LINE
  8
0
 62
4
 10
2.66911167E+02
 20
1.14976551E+02
 11
2.65594421E+02
 21
1.15208729E+02
  0
ARC
  8
0
 62
4
 10
2.76895455E+02
 20
1.20984065E+02
 40
1.18100000E+01
 50
1.57172490E+02
 51
1.63117791E+02
  0
LINE
  8
0
  6
DASHED
 62
4
 10
2.66038489E+02
 20
1.19445991E+02
 11
2.65925758E+02
 21
1.19465868E+02
  0
LINE
  8
0
  6
DASHED
 62
4
 10
2.65594421E+02
 20
1.15208729E+02
 11
2.65177905E+02
 21
1.15282172E+02
  0
LINE
  8
0
  6
PHANTOM
 10
-9.25000000E+00
 20
2.47628397E+02
 11
-9.25000000E+00
 21
1.48945348E+02
  0
LINE
  8
0
  6
PHANTOM
 10
1.17749977E+02
 20
2.47628397E+02
 11
1.17749977E+02
 21
1.51708225E+02
  0
LINE
  8
0
  6
CENTER
 62
2
 10
-1.47883850E+02
 20
2.08369465E+02
 11
1.72661982E+02
 21
2.08369465E+02
  0
LINE
  8
0
  6
CENTER
 62
2
 10
-7.72500000E+01
 20
2.02353596E+02
 11
-7.72500000E+01
 21
2.22513630E+02
  0
LINE
  8
0
  6
CENTER
 62
2
 10
-8.73667145E+01
 20
2.12369404E+02
 11
-6.73015594E+01
 21
2.12369404E+02
  0
LINE
  8
0
  6
CENTER
 62
2
 10
-6.97499847E+01
 20
1.92449756E+02
 11
-6.97499847E+01
 21
2.03974384E+02
  0
LINE
  8
0
 62
7
 10
-1.09750031E+02
 20
1.93369465E+02
 11
-1.05241058E+02
 21
1.93369465E+02
  0
LINE
  8
0
 62
7
 10
-9.67500000E+01
 20
1.92369495E+02
 11
-9.52500000E+01
 21
1.92369495E+02
  0
LINE
  8
0
 62
7
 10
-1.05008766E+02
 20
1.93111105E+02
 11
-9.72491832E+01
 21
1.92840133E+02
  0
LINE
  8
0
 62
7
 10
-1.10249954E+02
 20
1.93869465E+02
 11
-1.10249954E+02
 21
2.22869465E+02
  0
LINE
  8
0
 62
7
 10
-1.09750031E+02
 20
2.23369526E+02
 11
-1.05241058E+02
 21
2.23369526E+02
  0
LINE
  8
0
 62
7
 10
-9.67500000E+01
 20
2.24369495E+02
 11
-9.52500000E+01
 21
2.24369495E+02
  0
LINE
  8
0
 62
7
 10
-6.42499542E+01
 20
1.83369465E+02
 11
-6.42499542E+01
 21
2.33369465E+02
  0
LINE
  8
0
 62
7
 10
-9.52499542E+01
 20
1.84401935E+02
 11
-9.52499542E+01
 21
2.32336994E+02
  0
LINE
  8
0
 62
7
 10
-1.05008731E+02
 20
2.23628014E+02
 11
-9.72491479E+01
 21
2.23898984E+02
  0
LINE
  8
0
 62
7
 10
-1.05249954E+02
 20
2.23369495E+02
 11
-1.05249954E+02
 21
1.93369434E+02
  0
LINE
  8
0
 62
7
 10
-9.72499542E+01
 20
2.23869465E+02
 11
-9.72499542E+01
 21
1.92840046E+02
  0
LINE
  8
0
 62
7
 10
-6.42500219E+01
 20
2.33369534E+02
 11
-9.47587418E+01
 21
2.32837007E+02
  0
LINE
  8
0
 62
7
 10
-6.42499481E+01
 20
1.83369596E+02
 11
-9.47586984E+01
 21
1.83902133E+02
  0
LINE
  8
0
  6
CENTER
 62
2
 10
-7.54465942E+01
 20
1.98369465E+02
 11
-6.38311005E+01
 21
1.98369465E+02
  0
LINE
  8
0
 62
7
 10
-8.82499542E+01
 20
2.28369465E+02
 11
-6.42499542E+01
 21
2.28369465E+02
  0
LINE
  8
0
 62
7
 10
-8.82499542E+01
 20
1.88369465E+02
 11
-6.42499542E+01
 21
1.88369465E+02
  0
LINE
  8
0
 62
7
 10
-9.02499542E+01
 20
2.26369465E+02
 11
-9.02499542E+01
 21
1.90369465E+02
  0
LINE
  8
0
  6
CENTER
 62
2
 10
5.47500000E+01
 20
2.02353596E+02
 11
5.47500000E+01
 21
2.22513630E+02
  0
LINE
  8
0
  6
CENTER
 62
2
 10
6.48667145E+01
 20
2.12369404E+02
 11
4.48015594E+01
 21
2.12369404E+02
  0
LINE
  8
0
  6
CENTER
 62
2
 10
4.72499847E+01
 20
1.92449756E+02
 11
4.72499847E+01
 21
2.03974384E+02
  0
LINE
  8
0
 62
7
 10
7.42500000E+01
 20
1.92369495E+02
 11
7.27500000E+01
 21
1.92369495E+02
  0
LINE
  8
0
 62
7
 10
7.42500000E+01
 20
2.24369495E+02
 11
7.27500000E+01
 21
2.24369495E+02
  0
LINE
  8
0
 62
7
 10
4.17499542E+01
 20
1.83369465E+02
 11
4.17499542E+01
 21
2.33369465E+02
  0
LINE
  8
0
 62
7
 10
7.27499542E+01
 20
1.84401935E+02
 11
7.27499542E+01
 21
2.32336994E+02
  0
LINE
  8
0
 62
7
 10
7.47499542E+01
 20
2.23869465E+02
 11
7.47499542E+01
 21
1.92840046E+02
  0
LINE
  8
0
 62
7
 10
4.17500189E+01
 20
2.33369538E+02
 11
7.22587234E+01
 21
2.32837011E+02
  0
LINE
  8
0
 62
7
 10
4.17499265E+01
 20
1.83369587E+02
 11
7.22586921E+01
 21
1.83902124E+02
  0
LINE
  8
0
  6
CENTER
 62
2
 10
5.29465942E+01
 20
1.98369465E+02
 11
4.13311005E+01
 21
1.98369465E+02
  0
LINE
  8
0
 62
7
 10
6.57499542E+01
 20
2.28369465E+02
 11
4.17499542E+01
 21
2.28369465E+02
  0
LINE
  8
0
 62
7
 10
6.57499542E+01
 20
1.88369465E+02
 11
4.17499542E+01
 21
1.88369465E+02
  0
LINE
  8
0
 62
7
 10
6.77499542E+01
 20
2.26369465E+02
 11
6.77499542E+01
 21
1.90369465E+02
  0
LINE
  8
0
 62
7
 10
-6.83066211E+01
 20
1.98369558E+02
 11
-6.90282938E+01
 21
1.99619548E+02
  0
LINE
  8
0
 62
7
 10
-6.90282898E+01
 20
1.99619526E+02
 11
-7.04716797E+01
 21
1.99619526E+02
  0
LINE
  8
0
 62
7
 10
-7.11932780E+01
 20
1.98369477E+02
 11
-7.04715901E+01
 21
1.99619493E+02
  0
LINE
  8
0
 62
7
 10
-7.04716458E+01
 20
1.97119491E+02
 11
-7.11933490E+01
 21
1.98369534E+02
  0
LINE
  8
0
 62
7
 10
-6.90282898E+01
 20
1.97119495E+02
 11
-7.04716797E+01
 21
1.97119495E+02
  0
LINE
  8
0
 62
7
 10
-6.83064896E+01
 20
1.98369435E+02
 11
-6.90281776E+01
 21
1.97119419E+02
  0
LINE
  8
0
 62
7
 10
4.86933533E+01
 20
1.98369540E+02
 11
4.79716730E+01
 21
1.99619543E+02
  0
LINE
  8
0
 62
7
 10
4.79716721E+01
 20
1.99619526E+02
 11
4.65282974E+01
 21
1.99619526E+02
  0
LINE
  8
0
 62
7
 10
4.58066813E+01
 20
1.98369477E+02
 11
4.65283692E+01
 21
1.99619493E+02
  0
LINE
  8
0
 62
7
 10
4.65283210E+01
 20
1.97119486E+02
 11
4.58066178E+01
 21
1.98369529E+02
  0
LINE
  8
0
 62
7
 10
4.79716721E+01
 20
1.97119495E+02
 11
4.65282974E+01
 21
1.97119495E+02
  0
LINE
  8
0
 62
7
 10
4.86934697E+01
 20
1.98369435E+02
 11
4.79717817E+01
 21
1.97119419E+02
  0
LINE
  8
0
  6
CENTER
 62
2
 10
-9.74769745E+01
 20
1.89869465E+02
 11
7.48534698E+01
 21
1.89869465E+02
  0
LINE
  8
0
 62
7
 10
-6.42499542E+01
 20
1.92519459E+02
 11
4.17499542E+01
 21
1.92519459E+02
  0
LINE
  8
0
 62
7
 10
-6.42499542E+01
 20
1.87219471E+02
 11
4.17499542E+01
 21
1.87219471E+02
  0
LINE
  8
0
 62
7
 10
-6.42499542E+01
 20
1.86369480E+02
 11
5.24995422E+00
 21
1.86369480E+02
  0
LINE
  8
0
  6
CENTER
 62
2
 10
-9.74769745E+01
 20
2.26869465E+02
 11
7.48534698E+01
 21
2.26869465E+02
  0
LINE
  8
0
 62
7
 10
-6.42499542E+01
 20
2.24219471E+02
 11
4.17499542E+01
 21
2.24219471E+02
  0
LINE
  8
0
 62
7
 10
-6.42499542E+01
 20
2.29519459E+02
 11
-3.87499542E+01
 21
2.29519459E+02
  0
LINE
  8
0
 62
7
 10
-6.42499542E+01
 20
2.30369449E+02
 11
-3.87499542E+01
 21
2.30369449E+02
  0
LINE
  8
0
 62
7
 10
-1.43250061E+02
 20
2.14369465E+02
 11
-1.37192938E+02
 21
2.14369465E+02
  0
LINE
  8
0
 62
2
 10
-1.43949982E+02
 20
2.13669452E+02
 11
-1.37238972E+02
 21
2.13669452E+02
  0
LINE
  8
0
 62
7
 10
-1.44249901E+02
 20
2.13369301E+02
 11
-1.43249954E+02
 21
2.14369270E+02
  0
LINE
  8
0
 62
7
 10
-1.23250000E+02
 20
2.02369434E+02
 11
-1.23250000E+02
 21
2.14369465E+02
  0
LINE
  8
0
 62
7
 10
-1.43250061E+02
 20
2.02369434E+02
 11
-1.43250061E+02
 21
2.14369465E+02
  0
LINE
  8
0
 62
7
 10
-1.44249967E+02
 20
2.03369516E+02
 11
-1.43249999E+02
 21
2.02369525E+02
  0
LINE
  8
0
 62
7
 10
-1.44250000E+02
 20
2.03369434E+02
 11
-1.44250000E+02
 21
2.13369434E+02
  0
LINE
  8
0
 62
7
 10
-1.43250061E+02
 20
2.02369434E+02
 11
-1.37192935E+02
 21
2.02369434E+02
  0
LINE
  8
0
 62
2
 10
-1.43949982E+02
 20
2.03069431E+02
 11
-1.37250000E+02
 21
2.03069431E+02
  0
LINE
  8
0
 62
7
 10
-1.14480255E+02
 20
2.16469471E+02
 11
-1.10249954E+02
 21
2.16469471E+02
  0
LINE
  8
0
 62
7
 10
-1.14480255E+02
 20
2.00269459E+02
 11
-1.10249954E+02
 21
2.00269459E+02
  0
LINE
  8
0
 62
7
 10
-1.14480255E+02
 20
2.12419468E+02
 11
-1.10249954E+02
 21
2.12419468E+02
  0
LINE
  8
0
 62
7
 10
-1.14480255E+02
 20
2.04319462E+02
 11
-1.10249954E+02
 21
2.04319462E+02
  0
LINE
  8
0
 62
7
 10
-1.20249969E+02
 20
2.14369465E+02
 11
-1.20249969E+02
 21
2.02369465E+02
  0
LINE
  8
0
 62
7
 10
-1.20249975E+02
 20
2.14369462E+02
 11
-1.14480263E+02
 21
2.16469466E+02
  0
LINE
  8
0
 62
7
 10
-1.20249965E+02
 20
2.02369470E+02
 11
-1.14480239E+02
 21
2.00269461E+02
  0
LINE
  8
0
 62
7
 10
-1.23250000E+02
 20
2.13669452E+02
 11
-1.20249969E+02
 21
2.13669452E+02
  0
LINE
  8
0
 62
7
 10
-1.23250000E+02
 20
2.03069431E+02
 11
-1.20249969E+02
 21
2.03069431E+02
  0
LINE
  8
0
 62
7
 10
8.52500305E+01
 20
1.93369465E+02
 11
8.07410583E+01
 21
1.93369465E+02
  0
LINE
  8
0
 62
7
 10
8.05087607E+01
 20
1.93111093E+02
 11
7.27491777E+01
 21
1.92840121E+02
  0
LINE
  8
0
 62
7
 10
8.57499542E+01
 20
1.93869465E+02
 11
8.57499542E+01
 21
2.22869465E+02
  0
LINE
  8
0
 62
7
 10
8.52500305E+01
 20
2.23369526E+02
 11
8.07410583E+01
 21
2.23369526E+02
  0
LINE
  8
0
 62
7
 10
8.05087320E+01
 20
2.23628019E+02
 11
7.27491490E+01
 21
2.23898989E+02
  0
LINE
  8
0
 62
7
 10
8.07499542E+01
 20
2.23369495E+02
 11
8.07499542E+01
 21
1.93369434E+02
  0
LINE
  8
0
 62
7
 10
1.48750000E+02
 20
2.02069431E+02
 11
1.45749969E+02
 21
2.02069431E+02
  0
LINE
  8
0
 62
7
 10
1.37750031E+02
 20
2.16369434E+02
 11
8.57499542E+01
 21
2.16369434E+02
  0
LINE
  8
0
 62
7
 10
1.37749939E+02
 20
2.00369449E+02
 11
8.57499695E+01
 21
2.00369449E+02
  0
LINE
  8
0
 62
7
 10
1.45749969E+02
 20
2.15369465E+02
 11
1.45749969E+02
 21
2.01369434E+02
  0
LINE
  8
0
 62
7
 10
1.69750000E+02
 20
2.02869434E+02
 11
1.69750000E+02
 21
2.13869465E+02
  0
LINE
  8
0
 62
7
 10
1.68249969E+02
 20
2.15369465E+02
 11
1.63249969E+02
 21
2.15369465E+02
  0
LINE
  8
0
 62
7
 10
1.48750000E+02
 20
2.01369434E+02
 11
1.48750000E+02
 21
2.15369465E+02
  0
LINE
  8
0
 62
7
 10
1.69749994E+02
 20
2.13869464E+02
 11
1.68249966E+02
 21
2.15369461E+02
  0
LINE
  8
0
 62
2
 10
1.68950012E+02
 20
2.14669452E+02
 11
1.63249969E+02
 21
2.14669452E+02
  0
LINE
  8
0
 62
7
 10
1.45749969E+02
 20
2.15369465E+02
 11
1.38750000E+02
 21
2.15369465E+02
  0
LINE
  8
0
 62
7
 10
1.68250000E+02
 20
2.01369434E+02
 11
1.63249969E+02
 21
2.01369434E+02
  0
LINE
  8
0
 62
2
 10
1.68950012E+02
 20
2.02069431E+02
 11
1.63249969E+02
 21
2.02069431E+02
  0
LINE
  8
0
 62
7
 10
1.45749969E+02
 20
2.01369434E+02
 11
1.38749924E+02
 21
2.01369434E+02
  0
LINE
  8
0
 62
7
 10
1.38749961E+02
 20
2.01369484E+02
 11
1.37749938E+02
 21
2.00369461E+02
  0
LINE
  8
0
 62
7
 10
1.38749996E+02
 20
2.15369508E+02
 11
1.37750049E+02
 21
2.16369455E+02
  0
LINE
  8
0
 62
7
 10
1.42749969E+02
 20
2.15369465E+02
 11
1.42749969E+02
 21
2.01369434E+02
  0
LINE
  8
0
 62
7
 10
1.48750000E+02
 20
2.14669452E+02
 11
1.45749969E+02
 21
2.14669452E+02
  0
LINE
  8
0
 62
7
 10
1.68250000E+02
 20
2.01369434E+02
 11
1.68250000E+02
 21
2.15369465E+02
  0
LINE
  8
0
 62
7
 10
1.69750018E+02
 20
2.02869454E+02
 11
1.68250005E+02
 21
2.01369442E+02
  0
CIRCLE
  8
0
 62
7
 10
-6.97499847E+01
 20
1.98369465E+02
 40
4.00000000E+00
  0
ARC
  8
0
 62
7
 10
-1.09750031E+02
 20
1.93869465E+02
 40
5.00000000E-01
 50
1.80000005E+02
 51
2.70000001E+02
  0
ARC
  8
0
 62
7
 10
-9.67500000E+01
 20
1.92869465E+02
 40
5.00000000E-01
 50
1.80000005E+02
 51
2.70000001E+02
  0
ARC
  8
0
 62
7
 10
-1.05000000E+02
 20
1.93360859E+02
 40
2.50000000E-01
 50
1.80000005E+02
 51
2.67999220E+02
  0
ARC
  8
0
 62
7
 10
-1.09750031E+02
 20
2.22869465E+02
 40
5.00000000E-01
 50
9.00000231E+01
 51
1.80000005E+02
  0
ARC
  8
0
 62
7
 10
-9.67500000E+01
 20
2.23869465E+02
 40
5.00000000E-01
 50
9.00000231E+01
 51
1.80000005E+02
  0
ARC
  8
0
 62
7
 10
-1.05000000E+02
 20
2.23378071E+02
 40
2.50000000E-01
 50
9.20007768E+01
 51
1.79999991E+02
  0
ARC
  8
0
 62
7
 10
-9.47500000E+01
 20
2.32336994E+02
 40
5.00000000E-01
 50
9.10002155E+01
 51
1.80000005E+02
  0
ARC
  8
0
 62
7
 10
-9.47500000E+01
 20
1.84401935E+02
 40
5.00000000E-01
 50
1.80000005E+02
 51
2.68999788E+02
  0
CIRCLE
  8
0
 62
7
 10
-7.72500000E+01
 20
2.12369404E+02
 40
7.00000000E+00
  0
ARC
  8
0
 62
7
 10
-8.82499542E+01
 20
2.26369465E+02
 40
2.00000000E+00
 50
8.99999818E+01
 51
1.79999964E+02
  0
ARC
  8
0
 62
7
 10
-8.82499542E+01
 20
1.90369465E+02
 40
2.00000000E+00
 50
1.79999981E+02
 51
2.70000018E+02
  0
CIRCLE
  8
0
 62
7
 10
-7.72500000E+01
 20
2.12369404E+02
 40
5.65999985E+00
  0
CIRCLE
  8
0
 62
2
 10
-7.72500000E+01
 20
2.12369404E+02
 40
6.57849979E+00
  0
CIRCLE
  8
0
 62
7
 10
4.72499847E+01
 20
1.98369465E+02
 40
4.00000000E+00
  0
ARC
  8
0
 62
7
 10
7.42500000E+01
 20
1.92869465E+02
 40
5.00000000E-01
 50
2.70000018E+02
 51
1.36603783E-05
  0
ARC
  8
0
 62
7
 10
7.42500000E+01
 20
2.23869465E+02
 40
5.00000000E-01
 50
0.00000000E+00
 51
8.99999818E+01
  0
ARC
  8
0
 62
7
 10
7.22500000E+01
 20
2.32336994E+02
 40
5.00000000E-01
 50
0.00000000E+00
 51
8.89997895E+01
  0
ARC
  8
0
 62
7
 10
7.22500000E+01
 20
1.84401935E+02
 40
5.00000000E-01
 50
2.71000231E+02
 51
1.36603783E-05
  0
CIRCLE
  8
0
 62
7
 10
5.47500000E+01
 20
2.12369404E+02
 40
7.00000000E+00
  0
ARC
  8
0
 62
7
 10
6.57499542E+01
 20
2.26369465E+02
 40
2.00000000E+00
 50
5.46415133E-05
 51
9.00000369E+01
  0
ARC
  8
0
 62
7
 10
6.57499542E+01
 20
1.90369465E+02
 40
2.00000000E+00
 50
2.70000018E+02
 51
5.46415133E-05
  0
CIRCLE
  8
0
 62
7
 10
5.47500000E+01
 20
2.12369404E+02
 40
5.65999985E+00
  0
CIRCLE
  8
0
 62
2
 10
5.47500000E+01
 20
2.12369404E+02
 40
6.57849979E+00
  0
CIRCLE
  8
0
 62
7
 10
-6.97499847E+01
 20
1.98369465E+02
 40
2.09999990E+00
  0
CIRCLE
  8
0
 62
7
 10
4.72499847E+01
 20
1.98369465E+02
 40
2.09999990E+00
  0
ARC
  8
0
 62
7
 10
8.52500305E+01
 20
1.93869465E+02
 40
5.00000000E-01
 50
2.69999998E+02
 51
3.59999995E+02
  0
ARC
  8
0
 62
7
 10
8.05000000E+01
 20
1.93360859E+02
 40
2.50000000E-01
 50
2.72000778E+02
 51
3.59999995E+02
  0
ARC
  8
0
 62
7
 10
8.52500305E+01
 20
2.22869465E+02
 40
5.00000000E-01
 50
3.59999995E+02
 51
8.99999750E+01
  0
ARC
  8
0
 62
7
 10
8.05000000E+01
 20
2.23378071E+02
 40
2.50000000E-01
 50
8.65142224E-06
 51
8.79992212E+01
  0
POLYLINE
  8
0
 62
7
 66
1
  0
VERTEX
  8
0
 62
7
 10
-1.14480255E+02
 20
2.12419468E+02
  0
VERTEX
  8
0
 62
7
 10
-1.14751167E+02
 20
2.12403164E+02
  0
VERTEX
  8
0
 62
7
 10
-1.15019898E+02
 20
2.12354383E+02
  0
VERTEX
  8
0
 62
7
 10
-1.15284284E+02
 20
2.12273518E+02
  0
VERTEX
  8
0
 62
7
 10
-1.15542197E+02
 20
2.12161219E+02
  0
VERTEX
  8
0
 62
7
 10
-1.15791559E+02
 20
2.12018392E+02
  0
VERTEX
  8
0
 62
7
 10
-1.16030363E+02
 20
2.11846185E+02
  0
VERTEX
  8
0
 62
7
 10
-1.16256687E+02
 20
2.11645986E+02
  0
VERTEX
  8
0
 62
7
 10
-1.16468709E+02
 20
2.11419407E+02
  0
VERTEX
  8
0
 62
7
 10
-1.16664720E+02
 20
2.11168271E+02
  0
VERTEX
  8
0
 62
7
 10
-1.16843143E+02
 20
2.10894601E+02
  0
VERTEX
  8
0
 62
7
 10
-1.17002542E+02
 20
2.10600599E+02
  0
VERTEX
  8
0
 62
7
 10
-1.17141632E+02
 20
2.10288635E+02
  0
VERTEX
  8
0
 62
7
 10
-1.17259295E+02
 20
2.09961218E+02
  0
VERTEX
  8
0
 62
7
 10
-1.17354583E+02
 20
2.09620985E+02
  0
VERTEX
  8
0
 62
7
 10
-1.17426728E+02
 20
2.09270675E+02
  0
VERTEX
  8
0
 62
7
 10
-1.17475150E+02
 20
2.08913110E+02
  0
VERTEX
  8
0
 62
7
 10
-1.17499459E+02
 20
2.08551168E+02
  0
VERTEX
  8
0
 62
7
 10
-1.17499459E+02
 20
2.08187762E+02
  0
VERTEX
  8
0
 62
7
 10
-1.17475150E+02
 20
2.07825820E+02
  0
VERTEX
  8
0
 62
7
 10
-1.17426728E+02
 20
2.07468255E+02
  0
VERTEX
  8
0
 62
7
 10
-1.17354583E+02
 20
2.07117945E+02
  0
VERTEX
  8
0
 62
7
 10
-1.17259295E+02
 20
2.06777712E+02
  0
VERTEX
  8
0
 62
7
 10
-1.17141632E+02
 20
2.06450295E+02
  0
VERTEX
  8
0
 62
7
 10
-1.17002542E+02
 20
2.06138331E+02
  0
VERTEX
  8
0
 62
7
 10
-1.16843143E+02
 20
2.05844329E+02
  0
VERTEX
  8
0
 62
7
 10
-1.16664720E+02
 20
2.05570659E+02
  0
VERTEX
  8
0
 62
7
 10
-1.16468709E+02
 20
2.05319523E+02
  0
VERTEX
  8
0
 62
7
 10
-1.16256687E+02
 20
2.05092944E+02
  0
VERTEX
  8
0
 62
7
 10
-1.16030363E+02
 20
2.04892745E+02
  0
VERTEX
  8
0
 62
7
 10
-1.15791559E+02
 20
2.04720538E+02
  0
VERTEX
  8
0
 62
7
 10
-1.15542197E+02
 20
2.04577711E+02
  0
VERTEX
  8
0
 62
7
 10
-1.15284284E+02
 20
2.04465412E+02
  0
VERTEX
  8
0
 62
7
 10
-1.15019898E+02
 20
2.04384547E+02
  0
VERTEX
  8
0
 62
7
 10
-1.14751167E+02
 20
2.04335766E+02
  0
VERTEX
  8
0
 62
7
 10
-1.14480255E+02
 20
2.04319462E+02
  0
SEQEND
  8
0
  0
POLYLINE
  8
0
 62
7
 66
1
  0
VERTEX
  8
0
 62
7
 10
-1.15984214E+02
 20
2.15920824E+02
  0
VERTEX
  8
0
 62
7
 10
-1.16207193E+02
 20
2.15833216E+02
  0
VERTEX
  8
0
 62
7
 10
-1.16417001E+02
 20
2.15733874E+02
  0
VERTEX
  8
0
 62
7
 10
-1.16612039E+02
 20
2.15623553E+02
  0
VERTEX
  8
0
 62
7
 10
-1.16790819E+02
 20
2.15503096E+02
  0
VERTEX
  8
0
 62
7
 10
-1.16951977E+02
 20
2.15373422E+02
  0
VERTEX
  8
0
 62
7
 10
-1.17094285E+02
 20
2.15235519E+02
  0
VERTEX
  8
0
 62
7
 10
-1.17216657E+02
 20
2.15090439E+02
  0
VERTEX
  8
0
 62
7
 10
-1.17318159E+02
 20
2.14939289E+02
  0
VERTEX
  8
0
 62
7
 10
-1.17398019E+02
 20
2.14783221E+02
  0
VERTEX
  8
0
 62
7
 10
-1.17455626E+02
 20
2.14623425E+02
  0
VERTEX
  8
0
 62
7
 10
-1.17490541E+02
 20
2.14461121E+02
  0
VERTEX
  8
0
 62
7
 10
-1.17502498E+02
 20
2.14297545E+02
  0
VERTEX
  8
0
 62
7
 10
-1.17491406E+02
 20
2.14133946E+02
  0
VERTEX
  8
0
 62
7
 10
-1.17457350E+02
 20
2.13971572E+02
  0
VERTEX
  8
0
 62
7
 10
-1.17400589E+02
 20
2.13811660E+02
  0
VERTEX
  8
0
 62
7
 10
-1.17321556E+02
 20
2.13655430E+02
  0
VERTEX
  8
0
 62
7
 10
-1.17220853E+02
 20
2.13504074E+02
  0
VERTEX
  8
0
 62
7
 10
-1.17099250E+02
 20
2.13358745E+02
  0
VERTEX
  8
0
 62
7
 10
-1.16957672E+02
 20
2.13220553E+02
  0
VERTEX
  8
0
 62
7
 10
-1.16797201E+02
 20
2.13090551E+02
  0
VERTEX
  8
0
 62
7
 10
-1.16619060E+02
 20
2.12969731E+02
  0
VERTEX
  8
0
 62
7
 10
-1.16424606E+02
 20
2.12859014E+02
  0
VERTEX
  8
0
 62
7
 10
-1.16215325E+02
 20
2.12759245E+02
  0
VERTEX
  8
0
 62
7
 10
-1.15992810E+02
 20
2.12671183E+02
  0
VERTEX
  8
0
 62
7
 10
-1.15758761E+02
 20
2.12595502E+02
  0
VERTEX
  8
0
 62
7
 10
-1.15514960E+02
 20
2.12532778E+02
  0
VERTEX
  8
0
 62
7
 10
-1.15263269E+02
 20
2.12483490E+02
  0
VERTEX
  8
0
 62
7
 10
-1.15005605E+02
 20
2.12448013E+02
  0
VERTEX
  8
0
 62
7
 10
-1.14743936E+02
 20
2.12426618E+02
  0
VERTEX
  8
0
 62
7
 10
-1.14480255E+02
 20
2.12419468E+02
  0
SEQEND
  8
0
  0
POLYLINE
  8
0
 62
7
 66
1
  0
VERTEX
  8
0
 62
7
 10
-1.14480255E+02
 20
2.04319462E+02
  0
VERTEX
  8
0
 62
7
 10
-1.14743936E+02
 20
2.04312312E+02
  0
VERTEX
  8
0
 62
7
 10
-1.15005605E+02
 20
2.04290917E+02
  0
VERTEX
  8
0
 62
7
 10
-1.15263269E+02
 20
2.04255440E+02
  0
VERTEX
  8
0
 62
7
 10
-1.15514960E+02
 20
2.04206152E+02
  0
VERTEX
  8
0
 62
7
 10
-1.15758761E+02
 20
2.04143428E+02
  0
VERTEX
  8
0
 62
7
 10
-1.15992810E+02
 20
2.04067747E+02
  0
VERTEX
  8
0
 62
7
 10
-1.16215325E+02
 20
2.03979685E+02
  0
VERTEX
  8
0
 62
7
 10
-1.16424606E+02
 20
2.03879916E+02
  0
VERTEX
  8
0
 62
7
 10
-1.16619060E+02
 20
2.03769199E+02
  0
VERTEX
  8
0
 62
7
 10
-1.16797201E+02
 20
2.03648379E+02
  0
VERTEX
  8
0
 62
7
 10
-1.16957672E+02
 20
2.03518377E+02
  0
VERTEX
  8
0
 62
7
 10
-1.17099250E+02
 20
2.03380185E+02
  0
VERTEX
  8
0
 62
7
 10
-1.17220853E+02
 20
2.03234856E+02
  0
VERTEX
  8
0
 62
7
 10
-1.17321556E+02
 20
2.03083500E+02
  0
VERTEX
  8
0
 62
7
 10
-1.17400589E+02
 20
2.02927270E+02
  0
VERTEX
  8
0
 62
7
 10
-1.17457350E+02
 20
2.02767358E+02
  0
VERTEX
  8
0
 62
7
 10
-1.17491406E+02
 20
2.02604984E+02
  0
VERTEX
  8
0
 62
7
 10
-1.17502498E+02
 20
2.02441385E+02
  0
VERTEX
  8
0
 62
7
 10
-1.17490541E+02
 20
2.02277809E+02
  0
VERTEX
  8
0
 62
7
 10
-1.17455626E+02
 20
2.02115505E+02
  0
VERTEX
  8
0
 62
7
 10
-1.17398019E+02
 20
2.01955709E+02
  0
VERTEX
  8
0
 62
7
 10
-1.17318159E+02
 20
2.01799641E+02
  0
VERTEX
  8
0
 62
7
 10
-1.17216657E+02
 20
2.01648491E+02
  0
VERTEX
  8
0
 62
7
 10
-1.17094285E+02
 20
2.01503411E+02
  0
VERTEX
  8
0
 62
7
 10
-1.16951977E+02
 20
2.01365508E+02
  0
VERTEX
  8
0
 62
7
 10
-1.16790819E+02
 20
2.01235834E+02
  0
VERTEX
  8
0
 62
7
 10
-1.16612039E+02
 20
2.01115377E+02
  0
VERTEX
  8
0
 62
7
 10
-1.16417001E+02
 20
2.01005056E+02
  0
VERTEX
  8
0
 62
7
 10
-1.16207193E+02
 20
2.00905714E+02
  0
VERTEX
  8
0
 62
7
 10
-1.15984214E+02
 20
2.00818106E+02
  0
SEQEND
  8
0
  0
LINE
  8
0
 62
7
 10
-1.30250000E+02
 20
2.14369465E+02
 11
-1.23250000E+02
 21
2.14369465E+02
  0
LINE
  8
0
 62
2
 10
-1.30250000E+02
 20
2.13669452E+02
 11
-1.23250000E+02
 21
2.13669452E+02
  0
LINE
  8
0
 62
7
 10
-1.30307065E+02
 20
2.02369434E+02
 11
-1.23250000E+02
 21
2.02369434E+02
  0
LINE
  8
0
 62
2
 10
-1.30250000E+02
 20
2.03069431E+02
 11
-1.23250000E+02
 21
2.03069431E+02
  0
LINE
  8
0
 62
7
 10
1.55249969E+02
 20
2.15369465E+02
 11
1.48750000E+02
 21
2.15369465E+02
  0
LINE
  8
0
 62
2
 10
1.55249969E+02
 20
2.14669452E+02
 11
1.48750000E+02
 21
2.14669452E+02
  0
LINE
  8
0
 62
7
 10
1.55249969E+02
 20
2.01369434E+02
 11
1.48750000E+02
 21
2.01369434E+02
  0
LINE
  8
0
 62
2
 10
1.55249969E+02
 20
2.02069431E+02
 11
1.48750000E+02
 21
2.02069431E+02
  0
LINE
  8
0
 62
4
 10
1.63249969E+02
 20
1.97369465E+02
 11
1.63249969E+02
 21
2.19369465E+02
  0
LINE
  8
0
 62
4
 10
1.55249969E+02
 20
1.97369465E+02
 11
1.55249969E+02
 21
2.19369465E+02
  0
LINE
  8
0
 62
4
 10
1.56232450E+02
 20
2.08369465E+02
 11
1.62267489E+02
 21
2.08369465E+02
  0
LINE
  8
0
 62
4
 10
1.55249969E+02
 20
2.19369465E+02
 11
1.63249969E+02
 21
2.19369465E+02
  0
LINE
  8
0
 62
4
 10
1.55249969E+02
 20
1.97369465E+02
 11
1.63249969E+02
 21
1.97369465E+02
  0
ARC
  8
0
 62
4
 10
1.47364020E+02
 20
2.02869465E+02
 40
1.58859499E+01
 50
3.39743842E+02
 51
2.02561578E+01
  0
ARC
  8
0
 62
4
 10
1.47364020E+02
 20
2.13869465E+02
 40
1.58859499E+01
 50
3.39743842E+02
 51
2.02561578E+01
  0
ARC
  8
0
 62
4
 10
1.71135917E+02
 20
2.13869465E+02
 40
1.58859474E+01
 50
1.59743839E+02
 51
2.00256161E+02
  0
ARC
  8
0
 62
4
 10
1.71135917E+02
 20
2.02869465E+02
 40
1.58859473E+01
 50
1.59743839E+02
 51
2.00256161E+02
  0
LINE
  8
0
 62
4
 10
-1.37250000E+02
 20
2.17869465E+02
 11
-1.37250000E+02
 21
1.98869465E+02
  0
LINE
  8
0
 62
4
 10
-1.30250000E+02
 20
2.17869465E+02
 11
-1.30250000E+02
 21
1.98869465E+02
  0
LINE
  8
0
 62
4
 10
-1.37250000E+02
 20
1.98869465E+02
 11
-1.30250000E+02
 21
1.98869465E+02
  0
LINE
  8
0
 62
4
 10
-1.37250000E+02
 20
2.17869465E+02
 11
-1.30250000E+02
 21
2.17869465E+02
  0
LINE
  8
0
 62
4
 10
-1.36401494E+02
 20
2.08369465E+02
 11
-1.31098506E+02
 21
2.08369465E+02
  0
ARC
  8
0
 62
4
 10
-1.23530316E+02
 20
2.13119465E+02
 40
1.37196838E+01
 50
1.59743842E+02
 51
2.00256158E+02
  0
ARC
  8
0
 62
4
 10
-1.23530316E+02
 20
2.03619465E+02
 40
1.37196839E+01
 50
1.59743842E+02
 51
2.00256158E+02
  0
ARC
  8
0
 62
4
 10
-1.43969684E+02
 20
2.13119465E+02
 40
1.37196838E+01
 50
3.39743842E+02
 51
2.02561581E+01
  0
ARC
  8
0
 62
4
 10
-1.43969684E+02
 20
2.03619465E+02
 40
1.37196839E+01
 50
3.39743842E+02
 51
2.02561581E+01
  0
LINE
  8
0
  6
CENTER
 62
6
 10
-3.52499542E+01
 20
2.40485044E+02
 11
-3.52499542E+01
 21
2.30219465E+02
  0
LINE
  8
0
  6
CENTER
 62
6
 10
-2.72499542E+01
 20
2.40485044E+02
 11
-2.72499542E+01
 21
2.30219465E+02
  0
LINE
  8
0
  6
CENTER
 62
6
 10
4.02499542E+01
 20
2.05036105E+02
 11
-6.75004578E+00
 21
2.05036105E+02
  0
LINE
  8
0
 62
6
 10
-3.01799494E+00
 20
2.08036105E+02
 11
-6.48209656E+00
 21
2.02036105E+02
  0
LINE
  8
0
 62
4
 10
5.24995422E+00
 20
2.06536105E+02
 11
-3.88402038E+00
 21
2.06536105E+02
  0
LINE
  8
0
 62
4
 10
5.24995422E+00
 20
2.03536105E+02
 11
-5.61607118E+00
 21
2.03536105E+02
  0
LINE
  8
0
 62
6
 10
-1.54820051E+01
 20
2.08702824E+02
 11
-1.20179034E+01
 21
2.14702824E+02
  0
LINE
  8
0
 62
4
 10
-2.37499542E+01
 20
2.10202824E+02
 11
-1.46159796E+01
 21
2.10202824E+02
  0
LINE
  8
0
  6
CENTER
 62
6
 10
-5.87499542E+01
 20
2.11702824E+02
 11
-1.17499542E+01
 21
2.11702824E+02
  0
LINE
  8
0
 62
4
 10
-2.37499542E+01
 20
2.13202824E+02
 11
-1.28839288E+01
 21
2.13202824E+02
  0
LINE
  8
0
 62
6
 10
1.02499542E+01
 20
1.79366144E+02
 11
1.02499542E+01
 21
1.81717181E+02
  0
LINE
  8
0
 62
6
 10
7.24995420E+00
 20
1.79366144E+02
 11
7.24995420E+00
 21
1.81717181E+02
  0
LINE
  8
0
 62
4
 10
1.07499542E+01
 20
1.79595859E+02
 11
1.07499542E+01
 21
1.81717181E+02
  0
LINE
  8
0
 62
4
 10
6.74995420E+00
 20
1.79595859E+02
 11
6.74995420E+00
 21
1.81717181E+02
  0
LINE
  8
0
 62
4
 10
2.02499542E+01
 20
1.81717181E+02
 11
2.02499542E+01
 21
1.94425178E+02
  0
LINE
  8
0
 62
4
 10
5.24995422E+00
 20
1.81717181E+02
 11
5.24995422E+00
 21
2.07347068E+02
  0
LINE
  8
0
 62
4
 10
3.52499542E+01
 20
1.94425178E+02
 11
3.52499542E+01
 21
2.06374639E+02
  0
LINE
  8
0
  6
CENTER
 62
6
 10
8.74995419E+00
 20
1.76253886E+02
 11
8.74995419E+00
 21
1.86519465E+02
  0
LINE
  8
0
  6
CENTER
 62
6
 10
1.67499542E+01
 20
1.76253886E+02
 11
1.67499542E+01
 21
1.86519465E+02
  0
LINE
  8
0
  6
CENTER
 62
6
 10
2.02499542E+01
 20
2.03457883E+02
 11
2.02499542E+01
 21
2.08457883E+02
  0
LINE
  8
0
 62
4
 10
2.02499542E+01
 20
1.81717181E+02
 11
5.24995423E+00
 21
1.81717181E+02
  0
LINE
  8
0
 62
4
 10
2.02499542E+01
 20
1.87531523E+02
 11
5.24995423E+00
 21
1.87531523E+02
  0
LINE
  8
0
 62
4
 10
3.52499542E+01
 20
1.94425178E+02
 11
5.24995423E+00
 21
1.94425178E+02
  0
LINE
  8
0
 62
4
 10
3.52499542E+01
 20
2.04568698E+02
 11
5.24995423E+00
 21
2.04568698E+02
  0
LINE
  8
0
 62
4
 10
9.34995422E+00
 20
2.07347068E+02
 11
5.24995422E+00
 21
2.07347068E+02
  0
LINE
  8
0
 62
4
 10
9.34995422E+00
 20
2.07173420E+02
 11
5.24995422E+00
 21
2.07173420E+02
  0
LINE
  8
0
 62
4
 10
3.52499542E+01
 20
2.06374639E+02
 11
2.43999542E+01
 21
2.06374639E+02
  0
POLYLINE
  8
0
 62
4
 66
1
  0
VERTEX
  8
0
 62
4
 10
6.74995419E+00
 20
1.79595859E+02
  0
VERTEX
  8
0
 62
4
 10
6.75800560E+00
 20
1.79564728E+02
  0
VERTEX
  8
0
 62
4
 10
6.78209501E+00
 20
1.79533847E+02
  0
VERTEX
  8
0
 62
4
 10
6.82202847E+00
 20
1.79503465E+02
  0
VERTEX
  8
0
 62
4
 10
6.87748445E+00
 20
1.79473828E+02
  0
VERTEX
  8
0
 62
4
 10
6.94801645E+00
 20
1.79445173E+02
  0
VERTEX
  8
0
 62
4
 10
7.03305660E+00
 20
1.79417731E+02
  0
VERTEX
  8
0
 62
4
 10
7.13192020E+00
 20
1.79391723E+02
  0
VERTEX
  8
0
 62
4
 10
7.24381125E+00
 20
1.79367359E+02
  0
VERTEX
  8
0
 62
4
 10
7.36782889E+00
 20
1.79344835E+02
  0
VERTEX
  8
0
 62
4
 10
7.50297458E+00
 20
1.79324332E+02
  0
VERTEX
  8
0
 62
4
 10
7.64816022E+00
 20
1.79306015E+02
  0
VERTEX
  8
0
 62
4
 10
7.80221686E+00
 20
1.79290031E+02
  0
VERTEX
  8
0
 62
4
 10
7.96390412E+00
 20
1.79276510E+02
  0
VERTEX
  8
0
 62
4
 10
8.13192019E+00
 20
1.79265561E+02
  0
VERTEX
  8
0
 62
4
 10
8.30491231E+00
 20
1.79257270E+02
  0
VERTEX
  8
0
 62
4
 10
8.48148765E+00
 20
1.79251706E+02
  0
VERTEX
  8
0
 62
4
 10
8.66022452E+00
 20
1.79248912E+02
  0
VERTEX
  8
0
 62
4
 10
8.83968384E+00
 20
1.79248912E+02
  0
VERTEX
  8
0
 62
4
 10
9.01842071E+00
 20
1.79251706E+02
  0
VERTEX
  8
0
 62
4
 10
9.19499605E+00
 20
1.79257270E+02
  0
VERTEX
  8
0
 62
4
 10
9.36798817E+00
 20
1.79265561E+02
  0
VERTEX
  8
0
 62
4
 10
9.53600424E+00
 20
1.79276510E+02
  0
VERTEX
  8
0
 62
4
 10
9.69769150E+00
 20
1.79290031E+02
  0
VERTEX
  8
0
 62
4
 10
9.85174814E+00
 20
1.79306015E+02
  0
VERTEX
  8
0
 62
4
 10
9.99693378E+00
 20
1.79324332E+02
  0
VERTEX
  8
0
 62
4
 10
1.01320795E+01
 20
1.79344835E+02
  0
VERTEX
  8
0
 62
4
 10
1.02560971E+01
 20
1.79367359E+02
  0
VERTEX
  8
0
 62
4
 10
1.03679882E+01
 20
1.79391723E+02
  0
VERTEX
  8
0
 62
4
 10
1.04668518E+01
 20
1.79417731E+02
  0
VERTEX
  8
0
 62
4
 10
1.05518919E+01
 20
1.79445173E+02
  0
VERTEX
  8
0
 62
4
 10
1.06224239E+01
 20
1.79473828E+02
  0
VERTEX
  8
0
 62
4
 10
1.06778799E+01
 20
1.79503465E+02
  0
VERTEX
  8
0
 62
4
 10
1.07178134E+01
 20
1.79533847E+02
  0
VERTEX
  8
0
 62
4
 10
1.07419028E+01
 20
1.79564728E+02
  0
VERTEX
  8
0
 62
4
 10
1.07499542E+01
 20
1.79595859E+02
  0
SEQEND
  8
0
  0
LINE
  8
0
 62
6
 10
1.82499542E+01
 20
1.79366144E+02
 11
1.82499542E+01
 21
1.81717181E+02
  0
LINE
  8
0
 62
6
 10
1.52499542E+01
 20
1.79366144E+02
 11
1.52499542E+01
 21
1.81717181E+02
  0
LINE
  8
0
 62
4
 10
1.87499542E+01
 20
1.79595859E+02
 11
1.87499542E+01
 21
1.81717181E+02
  0
LINE
  8
0
 62
4
 10
1.47499542E+01
 20
1.79595859E+02
 11
1.47499542E+01
 21
1.81717181E+02
  0
POLYLINE
  8
0
 62
4
 66
1
  0
VERTEX
  8
0
 62
4
 10
1.47499542E+01
 20
1.79595859E+02
  0
VERTEX
  8
0
 62
4
 10
1.47580056E+01
 20
1.79564728E+02
  0
VERTEX
  8
0
 62
4
 10
1.47820950E+01
 20
1.79533847E+02
  0
VERTEX
  8
0
 62
4
 10
1.48220285E+01
 20
1.79503465E+02
  0
VERTEX
  8
0
 62
4
 10
1.48774845E+01
 20
1.79473828E+02
  0
VERTEX
  8
0
 62
4
 10
1.49480165E+01
 20
1.79445173E+02
  0
VERTEX
  8
0
 62
4
 10
1.50330566E+01
 20
1.79417731E+02
  0
VERTEX
  8
0
 62
4
 10
1.51319202E+01
 20
1.79391723E+02
  0
VERTEX
  8
0
 62
4
 10
1.52438113E+01
 20
1.79367359E+02
  0
VERTEX
  8
0
 62
4
 10
1.53678289E+01
 20
1.79344835E+02
  0
VERTEX
  8
0
 62
4
 10
1.55029746E+01
 20
1.79324332E+02
  0
VERTEX
  8
0
 62
4
 10
1.56481602E+01
 20
1.79306015E+02
  0
VERTEX
  8
0
 62
4
 10
1.58022169E+01
 20
1.79290031E+02
  0
VERTEX
  8
0
 62
4
 10
1.59639041E+01
 20
1.79276510E+02
  0
VERTEX
  8
0
 62
4
 10
1.61319202E+01
 20
1.79265561E+02
  0
VERTEX
  8
0
 62
4
 10
1.63049123E+01
 20
1.79257270E+02
  0
VERTEX
  8
0
 62
4
 10
1.64814877E+01
 20
1.79251706E+02
  0
VERTEX
  8
0
 62
4
 10
1.66602245E+01
 20
1.79248912E+02
  0
VERTEX
  8
0
 62
4
 10
1.68396838E+01
 20
1.79248912E+02
  0
VERTEX
  8
0
 62
4
 10
1.70184207E+01
 20
1.79251706E+02
  0
VERTEX
  8
0
 62
4
 10
1.71949961E+01
 20
1.79257270E+02
  0
VERTEX
  8
0
 62
4
 10
1.73679882E+01
 20
1.79265561E+02
  0
VERTEX
  8
0
 62
4
 10
1.75360043E+01
 20
1.79276510E+02
  0
VERTEX
  8
0
 62
4
 10
1.76976915E+01
 20
1.79290031E+02
  0
VERTEX
  8
0
 62
4
 10
1.78517482E+01
 20
1.79306015E+02
  0
VERTEX
  8
0
 62
4
 10
1.79969338E+01
 20
1.79324332E+02
  0
VERTEX
  8
0
 62
4
 10
1.81320795E+01
 20
1.79344835E+02
  0
VERTEX
  8
0
 62
4
 10
1.82560971E+01
 20
1.79367359E+02
  0
VERTEX
  8
0
 62
4
 10
1.83679882E+01
 20
1.79391723E+02
  0
VERTEX
  8
0
 62
4
 10
1.84668518E+01
 20
1.79417731E+02
  0
VERTEX
  8
0
 62
4
 10
1.85518919E+01
 20
1.79445173E+02
  0
VERTEX
  8
0
 62
4
 10
1.86224239E+01
 20
1.79473828E+02
  0
VERTEX
  8
0
 62
4
 10
1.86778799E+01
 20
1.79503465E+02
  0
VERTEX
  8
0
 62
4
 10
1.87178134E+01
 20
1.79533847E+02
  0
VERTEX
  8
0
 62
4
 10
1.87419028E+01
 20
1.79564728E+02
  0
VERTEX
  8
0
 62
4
 10
1.87499542E+01
 20
1.79595859E+02
  0
SEQEND
  8
0
  0
LINE
  8
0
 62
4
 10
3.52499542E+01
 20
2.02719193E+02
 11
3.67499542E+01
 21
2.03722126E+02
  0
LINE
  8
0
 62
4
 10
3.67499542E+01
 20
2.03722126E+02
 11
3.67499542E+01
 21
2.06346029E+02
  0
LINE
  8
0
 62
4
 10
3.67499542E+01
 20
2.05952715E+02
 11
3.52499542E+01
 21
2.06658424E+02
  0
LINE
  8
0
 62
4
 10
3.67499542E+01
 20
2.06346029E+02
 11
3.52499542E+01
 21
2.07353017E+02
  0
LINE
  8
0
 62
4
 10
3.52499542E+01
 20
2.07353017E+02
 11
2.43999542E+01
 21
2.07353017E+02
  0
LINE
  8
0
 62
4
 10
3.52499542E+01
 20
2.06658424E+02
 11
2.43999542E+01
 21
2.06658424E+02
  0
LINE
  8
0
 62
4
 10
3.52499542E+01
 20
2.06374639E+02
 11
3.52499542E+01
 21
2.07347068E+02
  0
POLYLINE
  8
0
 62
4
 66
1
  0
VERTEX
  8
0
 62
4
 10
1.65499542E+01
 20
2.06005739E+02
  0
VERTEX
  8
0
 62
4
 10
1.67317692E+01
 20
2.05949892E+02
  0
VERTEX
  8
0
 62
4
 10
1.69414664E+01
 20
2.05897073E+02
  0
VERTEX
  8
0
 62
4
 10
1.71773841E+01
 20
2.05847703E+02
  0
VERTEX
  8
0
 62
4
 10
1.74376524E+01
 20
2.05802171E+02
  0
VERTEX
  8
0
 62
4
 10
1.77202087E+01
 20
2.05760840E+02
  0
VERTEX
  8
0
 62
4
 10
1.80228138E+01
 20
2.05724035E+02
  0
VERTEX
  8
0
 62
4
 10
1.83430693E+01
 20
2.05692050E+02
  0
VERTEX
  8
0
 62
4
 10
1.86784373E+01
 20
2.05665137E+02
  0
VERTEX
  8
0
 62
4
 10
1.90262598E+01
 20
2.05643511E+02
  0
VERTEX
  8
0
 62
4
 10
1.93837804E+01
 20
2.05627341E+02
  0
VERTEX
  8
0
 62
4
 10
1.97481655E+01
 20
2.05616757E+02
  0
VERTEX
  8
0
 62
4
 10
2.01165274E+01
 20
2.05611843E+02
  0
VERTEX
  8
0
 62
4
 10
2.04859467E+01
 20
2.05612636E+02
  0
VERTEX
  8
0
 62
4
 10
2.08534958E+01
 20
2.05619132E+02
  0
VERTEX
  8
0
 62
4
 10
2.12162616E+01
 20
2.05631278E+02
  0
VERTEX
  8
0
 62
4
 10
2.15713693E+01
 20
2.05648978E+02
  0
VERTEX
  8
0
 62
4
 10
2.19160046E+01
 20
2.05672092E+02
  0
VERTEX
  8
0
 62
4
 10
2.22474360E+01
 20
2.05700437E+02
  0
VERTEX
  8
0
 62
4
 10
2.25630371E+01
 20
2.05733788E+02
  0
VERTEX
  8
0
 62
4
 10
2.28603065E+01
 20
2.05771881E+02
  0
VERTEX
  8
0
 62
4
 10
2.31368885E+01
 20
2.05814414E+02
  0
VERTEX
  8
0
 62
4
 10
2.33905909E+01
 20
2.05861049E+02
  0
VERTEX
  8
0
 62
4
 10
2.36194032E+01
 20
2.05911418E+02
  0
VERTEX
  8
0
 62
4
 10
2.38215120E+01
 20
2.05965121E+02
  0
VERTEX
  8
0
 62
4
 10
2.39953155E+01
 20
2.06021733E+02
  0
VERTEX
  8
0
 62
4
 10
2.41394363E+01
 20
2.06080804E+02
  0
VERTEX
  8
0
 62
4
 10
2.42527323E+01
 20
2.06141867E+02
  0
VERTEX
  8
0
 62
4
 10
2.43343055E+01
 20
2.06204437E+02
  0
VERTEX
  8
0
 62
4
 10
2.43835094E+01
 20
2.06268020E+02
  0
VERTEX
  8
0
 62
4
 10
2.43999542E+01
 20
2.06332110E+02
  0
SEQEND
  8
0
  0
ARC
  8
0
 62
4
 10
2.02422159E+01
 20
1.97175004E+02
 40
1.18100000E+01
 50
8.99624577E+01
 51
1.09675998E+02
  0
ARC
  8
0
 62
4
 10
2.02576925E+01
 20
1.97175004E+02
 40
1.18100000E+01
 50
7.03240015E+01
 51
9.00375421E+01
  0
LINE
  8
0
 62
4
 10
2.43999542E+01
 20
2.08060035E+02
 11
2.43999542E+01
 21
2.06332110E+02
  0
LINE
  8
0
 62
4
 10
1.60999542E+01
 20
2.08060035E+02
 11
1.60999542E+01
 21
2.07920926E+02
  0
LINE
  8
0
 62
4
 10
2.42499542E+01
 20
2.05957883E+02
 11
2.42499542E+01
 21
2.06140113E+02
  0
POLYLINE
  8
0
 62
4
 66
1
  0
VERTEX
  8
0
 62
4
 10
1.65499542E+01
 20
2.05693961E+02
  0
VERTEX
  8
0
 62
4
 10
1.66992622E+01
 20
2.05638041E+02
  0
VERTEX
  8
0
 62
4
 10
1.68765309E+01
 20
2.05584640E+02
  0
VERTEX
  8
0
 62
4
 10
1.70803643E+01
 20
2.05534178E+02
  0
VERTEX
  8
0
 62
4
 10
1.73091574E+01
 20
2.05487053E+02
  0
VERTEX
  8
0
 62
4
 10
1.75611084E+01
 20
2.05443635E+02
  0
VERTEX
  8
0
 62
4
 10
1.78342334E+01
 20
2.05404267E+02
  0
VERTEX
  8
0
 62
4
 10
1.81263815E+01
 20
2.05369258E+02
  0
VERTEX
  8
0
 62
4
 10
1.84352521E+01
 20
2.05338885E+02
  0
VERTEX
  8
0
 62
4
 10
1.87584130E+01
 20
2.05313386E+02
  0
VERTEX
  8
0
 62
4
 10
1.90933194E+01
 20
2.05292962E+02
  0
VERTEX
  8
0
 62
4
 10
1.94373340E+01
 20
2.05277775E+02
  0
VERTEX
  8
0
 62
4
 10
1.97877477E+01
 20
2.05267943E+02
  0
VERTEX
  8
0
 62
4
 10
2.01418011E+01
 20
2.05263544E+02
  0
VERTEX
  8
0
 62
4
 10
2.04967063E+01
 20
2.05264613E+02
  0
VERTEX
  8
0
 62
4
 10
2.08496683E+01
 20
2.05271141E+02
  0
VERTEX
  8
0
 62
4
 10
2.11979078E+01
 20
2.05283077E+02
  0
VERTEX
  8
0
 62
4
 10
2.15386823E+01
 20
2.05300328E+02
  0
VERTEX
  8
0
 62
4
 10
2.18693086E+01
 20
2.05322756E+02
  0
VERTEX
  8
0
 62
4
 10
2.21871828E+01
 20
2.05350185E+02
  0
VERTEX
  8
0
 62
4
 10
2.24898019E+01
 20
2.05382400E+02
  0
VERTEX
  8
0
 62
4
 10
2.27747828E+01
 20
2.05419147E+02
  0
VERTEX
  8
0
 62
4
 10
2.30398814E+01
 20
2.05460136E+02
  0
VERTEX
  8
0
 62
4
 10
2.32830101E+01
 20
2.05505045E+02
  0
VERTEX
  8
0
 62
4
 10
2.35022544E+01
 20
2.05553520E+02
  0
VERTEX
  8
0
 62
4
 10
2.36958876E+01
 20
2.05605179E+02
  0
VERTEX
  8
0
 62
4
 10
2.38623851E+01
 20
2.05659615E+02
  0
VERTEX
  8
0
 62
4
 10
2.40004358E+01
 20
2.05716400E+02
  0
VERTEX
  8
0
 62
4
 10
2.41089524E+01
 20
2.05775087E+02
  0
VERTEX
  8
0
 62
4
 10
2.41870805E+01
 20
2.05835214E+02
  0
VERTEX
  8
0
 62
4
 10
2.42342048E+01
 20
2.05896306E+02
  0
VERTEX
  8
0
 62
4
 10
2.42499542E+01
 20
2.05957883E+02
  0
SEQEND
  8
0
  0
ARC
  8
0
 62
4
 10
2.23685598E+01
 20
1.96473794E+02
 40
1.25124521E+01
 50
9.49416351E+01
 51
1.08095416E+02
  0
ARC
  8
0
 62
4
 10
1.81313484E+01
 20
1.96473791E+02
 40
1.25124547E+01
 50
7.19045858E+01
 51
8.50583647E+01
  0
POLYLINE
  8
0
 62
4
 66
1
  0
VERTEX
  8
0
 62
4
 10
1.60999542E+01
 20
2.08065372E+02
  0
VERTEX
  8
0
 62
4
 10
1.61166609E+01
 20
2.08000774E+02
  0
VERTEX
  8
0
 62
4
 10
1.61666464E+01
 20
2.07936697E+02
  0
VERTEX
  8
0
 62
4
 10
1.62495083E+01
 20
2.07873655E+02
  0
VERTEX
  8
0
 62
4
 10
1.63645795E+01
 20
2.07812157E+02
  0
VERTEX
  8
0
 62
4
 10
1.65109334E+01
 20
2.07752698E+02
  0
VERTEX
  8
0
 62
4
 10
1.66873917E+01
 20
2.07695756E+02
  0
VERTEX
  8
0
 62
4
 10
1.68925337E+01
 20
2.07641790E+02
  0
VERTEX
  8
0
 62
4
 10
1.71247076E+01
 20
2.07591235E+02
  0
VERTEX
  8
0
 62
4
 10
1.73820442E+01
 20
2.07544497E+02
  0
VERTEX
  8
0
 62
4
 10
1.76624715E+01
 20
2.07501953E+02
  0
VERTEX
  8
0
 62
4
 10
1.79637317E+01
 20
2.07463945E+02
  0
VERTEX
  8
0
 62
4
 10
1.82833992E+01
 20
2.07430780E+02
  0
VERTEX
  8
0
 62
4
 10
1.86189003E+01
 20
2.07402724E+02
  0
VERTEX
  8
0
 62
4
 10
1.89675337E+01
 20
2.07380003E+02
  0
VERTEX
  8
0
 62
4
 10
1.93264923E+01
 20
2.07362800E+02
  0
VERTEX
  8
0
 62
4
 10
1.96928861E+01
 20
2.07351254E+02
  0
VERTEX
  8
0
 62
4
 10
2.00637651E+01
 20
2.07345458E+02
  0
VERTEX
  8
0
 62
4
 10
2.04361432E+01
 20
2.07345458E+02
  0
VERTEX
  8
0
 62
4
 10
2.08070222E+01
 20
2.07351254E+02
  0
VERTEX
  8
0
 62
4
 10
2.11734161E+01
 20
2.07362800E+02
  0
VERTEX
  8
0
 62
4
 10
2.15323747E+01
 20
2.07380003E+02
  0
VERTEX
  8
0
 62
4
 10
2.18810081E+01
 20
2.07402724E+02
  0
VERTEX
  8
0
 62
4
 10
2.22165091E+01
 20
2.07430780E+02
  0
VERTEX
  8
0
 62
4
 10
2.25361767E+01
 20
2.07463945E+02
  0
VERTEX
  8
0
 62
4
 10
2.28374369E+01
 20
2.07501953E+02
  0
VERTEX
  8
0
 62
4
 10
2.31178642E+01
 20
2.07544497E+02
  0
VERTEX
  8
0
 62
4
 10
2.33752008E+01
 20
2.07591235E+02
  0
VERTEX
  8
0
 62
4
 10
2.36073747E+01
 20
2.07641790E+02
  0
VERTEX
  8
0
 62
4
 10
2.38125167E+01
 20
2.07695756E+02
  0
VERTEX
  8
0
 62
4
 10
2.39889750E+01
 20
2.07752698E+02
  0
VERTEX
  8
0
 62
4
 10
2.41353289E+01
 20
2.07812157E+02
  0
VERTEX
  8
0
 62
4
 10
2.42504001E+01
 20
2.07873655E+02
  0
VERTEX
  8
0
 62
4
 10
2.43332620E+01
 20
2.07936697E+02
  0
VERTEX
  8
0
 62
4
 10
2.43832475E+01
 20
2.08000774E+02
  0
VERTEX
  8
0
 62
4
 10
2.43999542E+01
 20
2.08065372E+02
  0
SEQEND
  8
0
  0
ARC
  8
0
 62
4
 10
2.41499542E+01
 20
2.08060035E+02
 40
2.50000000E-01
 50
0.00000000E+00
 51
7.03240015E+01
  0
ARC
  8
0
 62
4
 10
1.63499542E+01
 20
2.08060035E+02
 40
2.50000000E-01
 50
1.09675998E+02
 51
1.80000000E+02
  0
LINE
  8
0
 62
4
 10
1.65499542E+01
 20
2.06334922E+02
 11
1.65499542E+01
 21
2.05350114E+02
  0
LINE
  8
0
 62
4
 10
8.94995422E+00
 20
2.06334922E+02
 11
8.94995422E+00
 21
2.05350114E+02
  0
POLYLINE
  8
0
 62
4
 66
1
  0
VERTEX
  8
0
 62
4
 10
8.94995420E+00
 20
2.05350114E+02
  0
VERTEX
  8
0
 62
4
 10
8.96525188E+00
 20
2.05290964E+02
  0
VERTEX
  8
0
 62
4
 10
9.01102176E+00
 20
2.05232291E+02
  0
VERTEX
  8
0
 62
4
 10
9.08689533E+00
 20
2.05174566E+02
  0
VERTEX
  8
0
 62
4
 10
9.19226169E+00
 20
2.05118255E+02
  0
VERTEX
  8
0
 62
4
 10
9.32627250E+00
 20
2.05063810E+02
  0
VERTEX
  8
0
 62
4
 10
9.48784878E+00
 20
2.05011671E+02
  0
VERTEX
  8
0
 62
4
 10
9.67568961E+00
 20
2.04962256E+02
  0
VERTEX
  8
0
 62
4
 10
9.88828262E+00
 20
2.04915965E+02
  0
VERTEX
  8
0
 62
4
 10
1.01239161E+01
 20
2.04873168E+02
  0
VERTEX
  8
0
 62
4
 10
1.03806929E+01
 20
2.04834212E+02
  0
VERTEX
  8
0
 62
4
 10
1.06565457E+01
 20
2.04799410E+02
  0
VERTEX
  8
0
 62
4
 10
1.09492533E+01
 20
2.04769042E+02
  0
VERTEX
  8
0
 62
4
 10
1.12564591E+01
 20
2.04743352E+02
  0
VERTEX
  8
0
 62
4
 10
1.15756896E+01
 20
2.04722547E+02
  0
VERTEX
  8
0
 62
4
 10
1.19043746E+01
 20
2.04706795E+02
  0
VERTEX
  8
0
 62
4
 10
1.22398678E+01
 20
2.04696223E+02
  0
VERTEX
  8
0
 62
4
 10
1.25794678E+01
 20
2.04690915E+02
  0
VERTEX
  8
0
 62
4
 10
1.29204405E+01
 20
2.04690915E+02
  0
VERTEX
  8
0
 62
4
 10
1.32600406E+01
 20
2.04696223E+02
  0
VERTEX
  8
0
 62
4
 10
1.35955337E+01
 20
2.04706795E+02
  0
VERTEX
  8
0
 62
4
 10
1.39242188E+01
 20
2.04722547E+02
  0
VERTEX
  8
0
 62
4
 10
1.42434493E+01
 20
2.04743352E+02
  0
VERTEX
  8
0
 62
4
 10
1.45506551E+01
 20
2.04769042E+02
  0
VERTEX
  8
0
 62
4
 10
1.48433627E+01
 20
2.04799410E+02
  0
VERTEX
  8
0
 62
4
 10
1.51192154E+01
 20
2.04834212E+02
  0
VERTEX
  8
0
 62
4
 10
1.53759922E+01
 20
2.04873168E+02
  0
VERTEX
  8
0
 62
4
 10
1.56116258E+01
 20
2.04915965E+02
  0
VERTEX
  8
0
 62
4
 10
1.58242188E+01
 20
2.04962256E+02
  0
VERTEX
  8
0
 62
4
 10
1.60120596E+01
 20
2.05011671E+02
  0
VERTEX
  8
0
 62
4
 10
1.61736359E+01
 20
2.05063810E+02
  0
VERTEX
  8
0
 62
4
 10
1.63076467E+01
 20
2.05118255E+02
  0
VERTEX
  8
0
 62
4
 10
1.64130131E+01
 20
2.05174566E+02
  0
VERTEX
  8
0
 62
4
 10
1.64888866E+01
 20
2.05232291E+02
  0
VERTEX
  8
0
 62
4
 10
1.65346565E+01
 20
2.05290964E+02
  0
VERTEX
  8
0
 62
4
 10
1.65499542E+01
 20
2.05350114E+02
  0
SEQEND
  8
0
  0
POLYLINE
  8
0
 62
4
 66
1
  0
VERTEX
  8
0
 62
4
 10
9.34995419E+00
 20
2.06629613E+02
  0
VERTEX
  8
0
 62
4
 10
9.21337253E+00
 20
2.06576324E+02
  0
VERTEX
  8
0
 62
4
 10
9.10442466E+00
 20
2.06521148E+02
  0
VERTEX
  8
0
 62
4
 10
9.02396188E+00
 20
2.06464518E+02
  0
VERTEX
  8
0
 62
4
 10
8.97261290E+00
 20
2.06406875E+02
  0
VERTEX
  8
0
 62
4
 10
8.95077895E+00
 20
2.06348669E+02
  0
VERTEX
  8
0
 62
4
 10
8.95863062E+00
 20
2.06290356E+02
  0
VERTEX
  8
0
 62
4
 10
8.99610657E+00
 20
2.06232392E+02
  0
VERTEX
  8
0
 62
4
 10
9.06291398E+00
 20
2.06175229E+02
  0
VERTEX
  8
0
 62
4
 10
9.15853082E+00
 20
2.06119313E+02
  0
VERTEX
  8
0
 62
4
 10
9.28220998E+00
 20
2.06065082E+02
  0
VERTEX
  8
0
 62
4
 10
9.43298506E+00
 20
2.06012960E+02
  0
VERTEX
  8
0
 62
4
 10
9.60967796E+00
 20
2.05963353E+02
  0
VERTEX
  8
0
 62
4
 10
9.81090804E+00
 20
2.05916649E+02
  0
VERTEX
  8
0
 62
4
 10
1.00351030E+01
 20
2.05873214E+02
  0
VERTEX
  8
0
 62
4
 10
1.02805109E+01
 20
2.05833387E+02
  0
VERTEX
  8
0
 62
4
 10
1.05452144E+01
 20
2.05797478E+02
  0
VERTEX
  8
0
 62
4
 10
1.08271450E+01
 20
2.05765769E+02
  0
VERTEX
  8
0
 62
4
 10
1.11240999E+01
 20
2.05738507E+02
  0
VERTEX
  8
0
 62
4
 10
1.14337588E+01
 20
2.05715905E+02
  0
VERTEX
  8
0
 62
4
 10
1.17537020E+01
 20
2.05698140E+02
  0
VERTEX
  8
0
 62
4
 10
1.20814296E+01
 20
2.05685351E+02
  0
VERTEX
  8
0
 62
4
 10
1.24143809E+01
 20
2.05677637E+02
  0
VERTEX
  8
0
 62
4
 10
1.27499542E+01
 20
2.05675059E+02
  0
VERTEX
  8
0
 62
4
 10
1.30855276E+01
 20
2.05677637E+02
  0
VERTEX
  8
0
 62
4
 10
1.34184788E+01
 20
2.05685351E+02
  0
VERTEX
  8
0
 62
4
 10
1.37462065E+01
 20
2.05698140E+02
  0
VERTEX
  8
0
 62
4
 10
1.40661497E+01
 20
2.05715905E+02
  0
VERTEX
  8
0
 62
4
 10
1.43758085E+01
 20
2.05738507E+02
  0
VERTEX
  8
0
 62
4
 10
1.46727634E+01
 20
2.05765769E+02
  0
VERTEX
  8
0
 62
4
 10
1.49546941E+01
 20
2.05797478E+02
  0
VERTEX
  8
0
 62
4
 10
1.52193975E+01
 20
2.05833387E+02
  0
VERTEX
  8
0
 62
4
 10
1.54648055E+01
 20
2.05873214E+02
  0
VERTEX
  8
0
 62
4
 10
1.56890004E+01
 20
2.05916649E+02
  0
VERTEX
  8
0
 62
4
 10
1.58902305E+01
 20
2.05963353E+02
  0
VERTEX
  8
0
 62
4
 10
1.60669234E+01
 20
2.06012960E+02
  0
VERTEX
  8
0
 62
4
 10
1.62176984E+01
 20
2.06065082E+02
  0
VERTEX
  8
0
 62
4
 10
1.63413776E+01
 20
2.06119313E+02
  0
VERTEX
  8
0
 62
4
 10
1.64369944E+01
 20
2.06175229E+02
  0
VERTEX
  8
0
 62
4
 10
1.65038018E+01
 20
2.06232392E+02
  0
VERTEX
  8
0
 62
4
 10
1.65412778E+01
 20
2.06290356E+02
  0
VERTEX
  8
0
 62
4
 10
1.65491294E+01
 20
2.06348669E+02
  0
VERTEX
  8
0
 62
4
 10
1.65272955E+01
 20
2.06406875E+02
  0
VERTEX
  8
0
 62
4
 10
1.64759465E+01
 20
2.06464518E+02
  0
VERTEX
  8
0
 62
4
 10
1.63954837E+01
 20
2.06521148E+02
  0
VERTEX
  8
0
 62
4
 10
1.62865359E+01
 20
2.06576324E+02
  0
VERTEX
  8
0
 62
4
 10
1.61499542E+01
 20
2.06629613E+02
  0
SEQEND
  8
0
  0
LINE
  8
0
 62
4
 10
1.61499542E+01
 20
2.07608675E+02
 11
1.61499542E+01
 21
2.06334922E+02
  0
LINE
  8
0
 62
4
 10
9.34995422E+00
 20
2.07608675E+02
 11
9.34995422E+00
 21
2.06334922E+02
  0
POLYLINE
  8
0
 62
4
 66
1
  0
VERTEX
  8
0
 62
4
 10
9.34995420E+00
 20
2.06334922E+02
  0
VERTEX
  8
0
 62
4
 10
9.36364160E+00
 20
2.06281999E+02
  0
VERTEX
  8
0
 62
4
 10
9.40459360E+00
 20
2.06229501E+02
  0
VERTEX
  8
0
 62
4
 10
9.47248047E+00
 20
2.06177853E+02
  0
VERTEX
  8
0
 62
4
 10
9.56675564E+00
 20
2.06127469E+02
  0
VERTEX
  8
0
 62
4
 10
9.68666004E+00
 20
2.06078755E+02
  0
VERTEX
  8
0
 62
4
 10
9.83122829E+00
 20
2.06032104E+02
  0
VERTEX
  8
0
 62
4
 10
9.99929641E+00
 20
2.05987891E+02
  0
VERTEX
  8
0
 62
4
 10
1.01895112E+01
 20
2.05946472E+02
  0
VERTEX
  8
0
 62
4
 10
1.04003412E+01
 20
2.05908181E+02
  0
VERTEX
  8
0
 62
4
 10
1.06300889E+01
 20
2.05873326E+02
  0
VERTEX
  8
0
 62
4
 10
1.08769044E+01
 20
2.05842187E+02
  0
VERTEX
  8
0
 62
4
 10
1.11388007E+01
 20
2.05815015E+02
  0
VERTEX
  8
0
 62
4
 10
1.14136691E+01
 20
2.05792029E+02
  0
VERTEX
  8
0
 62
4
 10
1.16992964E+01
 20
2.05773415E+02
  0
VERTEX
  8
0
 62
4
 10
1.19933830E+01
 20
2.05759321E+02
  0
VERTEX
  8
0
 62
4
 10
1.22935611E+01
 20
2.05749861E+02
  0
VERTEX
  8
0
 62
4
 10
1.25974138E+01
 20
2.05745113E+02
  0
VERTEX
  8
0
 62
4
 10
1.29024946E+01
 20
2.05745113E+02
  0
VERTEX
  8
0
 62
4
 10
1.32063473E+01
 20
2.05749861E+02
  0
VERTEX
  8
0
 62
4
 10
1.35065254E+01
 20
2.05759321E+02
  0
VERTEX
  8
0
 62
4
 10
1.38006120E+01
 20
2.05773415E+02
  0
VERTEX
  8
0
 62
4
 10
1.40862393E+01
 20
2.05792029E+02
  0
VERTEX
  8
0
 62
4
 10
1.43611076E+01
 20
2.05815015E+02
  0
VERTEX
  8
0
 62
4
 10
1.46230039E+01
 20
2.05842187E+02
  0
VERTEX
  8
0
 62
4
 10
1.48698195E+01
 20
2.05873326E+02
  0
VERTEX
  8
0
 62
4
 10
1.50995672E+01
 20
2.05908181E+02
  0
VERTEX
  8
0
 62
4
 10
1.53103972E+01
 20
2.05946472E+02
  0
VERTEX
  8
0
 62
4
 10
1.55006120E+01
 20
2.05987891E+02
  0
VERTEX
  8
0
 62
4
 10
1.56686801E+01
 20
2.06032104E+02
  0
VERTEX
  8
0
 62
4
 10
1.58132483E+01
 20
2.06078755E+02
  0
VERTEX
  8
0
 62
4
 10
1.59331528E+01
 20
2.06127469E+02
  0
VERTEX
  8
0
 62
4
 10
1.60274279E+01
 20
2.06177853E+02
  0
VERTEX
  8
0
 62
4
 10
1.60953148E+01
 20
2.06229501E+02
  0
VERTEX
  8
0
 62
4
 10
1.61362668E+01
 20
2.06281999E+02
  0
VERTEX
  8
0
 62
4
 10
1.61499542E+01
 20
2.06334922E+02
  0
SEQEND
  8
0
  0
ARC
  8
0
 62
4
 10
1.27499542E+01
 20
1.97068461E+02
 40
1.18100000E+01
 50
7.71724899E+01
 51
1.02827510E+02
  0
ARC
  8
0
 62
4
 10
1.03499539E+01
 20
2.07608675E+02
 40
1.00000000E+00
 50
1.02827510E+02
 51
1.80000000E+02
  0
ARC
  8
0
 62
4
 10
1.51499545E+01
 20
2.07608675E+02
 40
1.00000000E+00
 50
3.60000000E+02
 51
7.71724899E+01
  0
ARC
  8
0
 62
4
 10
1.48717078E+01
 20
1.96349318E+02
 40
1.25306621E+01
 50
9.49686598E+01
 51
1.08083352E+02
  0
ARC
  8
0
 62
4
 10
1.06282006E+01
 20
1.96349317E+02
 40
1.25306626E+01
 50
7.19166483E+01
 51
8.50313400E+01
  0
LINE
  8
0
  6
CENTER
 62
6
 10
2.27499542E+01
 20
2.05957883E+02
 11
1.77499542E+01
 21
2.05957883E+02
  0
LINE
  8
0
  6
CENTER
 62
6
 10
1.27499542E+01
 20
2.02850114E+02
 11
1.27499542E+01
 21
2.07850114E+02
  0
LINE
  8
0
  6
CENTER
 62
6
 10
1.52499542E+01
 20
2.05350114E+02
 11
1.02499542E+01
 21
2.05350114E+02
  0
LINE
  8
0
  6
CENTER
 62
6
 10
2.77499542E+01
 20
2.02850114E+02
 11
2.77499542E+01
 21
2.07850114E+02
  0
LINE
  8
0
  6
CENTER
 62
6
 10
3.02499542E+01
 20
2.05350114E+02
 11
2.52499542E+01
 21
2.05350114E+02
  0
LINE
  8
0
 62
4
 10
8.95684363E+00
 20
2.06374639E+02
 11
5.24995422E+00
 21
2.06374639E+02
  0
LINE
  8
0
 62
6
 10
-2.87499542E+01
 20
2.37372785E+02
 11
-2.87499542E+01
 21
2.35021748E+02
  0
LINE
  8
0
 62
6
 10
-2.57499542E+01
 20
2.37372785E+02
 11
-2.57499542E+01
 21
2.35021748E+02
  0
LINE
  8
0
 62
4
 10
-2.92499542E+01
 20
2.37143070E+02
 11
-2.92499542E+01
 21
2.35021748E+02
  0
LINE
  8
0
 62
4
 10
-2.52499542E+01
 20
2.37143070E+02
 11
-2.52499542E+01
 21
2.35021748E+02
  0
LINE
  8
0
 62
4
 10
-3.87499542E+01
 20
2.35021748E+02
 11
-3.87499542E+01
 21
2.22313752E+02
  0
LINE
  8
0
 62
4
 10
-2.37499542E+01
 20
2.35021748E+02
 11
-2.37499542E+01
 21
2.09391861E+02
  0
LINE
  8
0
 62
4
 10
-5.37499542E+01
 20
2.22313752E+02
 11
-5.37499542E+01
 21
2.10364291E+02
  0
LINE
  8
0
  6
CENTER
 62
6
 10
-3.87499542E+01
 20
2.13281046E+02
 11
-3.87499542E+01
 21
2.08281046E+02
  0
LINE
  8
0
 62
4
 10
-3.87499542E+01
 20
2.35021748E+02
 11
-2.37499542E+01
 21
2.35021748E+02
  0
LINE
  8
0
 62
4
 10
-3.87499542E+01
 20
2.29207406E+02
 11
-2.37499542E+01
 21
2.29207406E+02
  0
LINE
  8
0
 62
4
 10
-5.37499542E+01
 20
2.22313752E+02
 11
-2.37499542E+01
 21
2.22313752E+02
  0
LINE
  8
0
 62
4
 10
-5.37499542E+01
 20
2.12170232E+02
 11
-2.37499542E+01
 21
2.12170232E+02
  0
LINE
  8
0
 62
4
 10
-2.78499542E+01
 20
2.09391861E+02
 11
-2.37499542E+01
 21
2.09391861E+02
  0
LINE
  8
0
 62
4
 10
-2.78499542E+01
 20
2.09565509E+02
 11
-2.37499542E+01
 21
2.09565509E+02
  0
LINE
  8
0
 62
4
 10
-5.37499542E+01
 20
2.10364291E+02
 11
-4.28999542E+01
 21
2.10364291E+02
  0
POLYLINE
  8
0
 62
4
 66
1
  0
VERTEX
  8
0
 62
4
 10
-2.52499542E+01
 20
2.37143070E+02
  0
VERTEX
  8
0
 62
4
 10
-2.52580056E+01
 20
2.37174201E+02
  0
VERTEX
  8
0
 62
4
 10
-2.52820950E+01
 20
2.37205082E+02
  0
VERTEX
  8
0
 62
4
 10
-2.53220285E+01
 20
2.37235464E+02
  0
VERTEX
  8
0
 62
4
 10
-2.53774845E+01
 20
2.37265101E+02
  0
VERTEX
  8
0
 62
4
 10
-2.54480165E+01
 20
2.37293756E+02
  0
VERTEX
  8
0
 62
4
 10
-2.55330566E+01
 20
2.37321198E+02
  0
VERTEX
  8
0
 62
4
 10
-2.56319202E+01
 20
2.37347206E+02
  0
VERTEX
  8
0
 62
4
 10
-2.57438113E+01
 20
2.37371570E+02
  0
VERTEX
  8
0
 62
4
 10
-2.58678289E+01
 20
2.37394094E+02
  0
VERTEX
  8
0
 62
4
 10
-2.60029746E+01
 20
2.37414597E+02
  0
VERTEX
  8
0
 62
4
 10
-2.61481602E+01
 20
2.37432914E+02
  0
VERTEX
  8
0
 62
4
 10
-2.63022169E+01
 20
2.37448898E+02
  0
VERTEX
  8
0
 62
4
 10
-2.64639041E+01
 20
2.37462419E+02
  0
VERTEX
  8
0
 62
4
 10
-2.66319202E+01
 20
2.37473368E+02
  0
VERTEX
  8
0
 62
4
 10
-2.68049123E+01
 20
2.37481659E+02
  0
VERTEX
  8
0
 62
4
 10
-2.69814877E+01
 20
2.37487223E+02
  0
VERTEX
  8
0
 62
4
 10
-2.71602245E+01
 20
2.37490017E+02
  0
VERTEX
  8
0
 62
4
 10
-2.73396838E+01
 20
2.37490017E+02
  0
VERTEX
  8
0
 62
4
 10
-2.75184207E+01
 20
2.37487223E+02
  0
VERTEX
  8
0
 62
4
 10
-2.76949961E+01
 20
2.37481659E+02
  0
VERTEX
  8
0
 62
4
 10
-2.78679882E+01
 20
2.37473368E+02
  0
VERTEX
  8
0
 62
4
 10
-2.80360043E+01
 20
2.37462419E+02
  0
VERTEX
  8
0
 62
4
 10
-2.81976915E+01
 20
2.37448898E+02
  0
VERTEX
  8
0
 62
4
 10
-2.83517482E+01
 20
2.37432914E+02
  0
VERTEX
  8
0
 62
4
 10
-2.84969338E+01
 20
2.37414597E+02
  0
VERTEX
  8
0
 62
4
 10
-2.86320795E+01
 20
2.37394094E+02
  0
VERTEX
  8
0
 62
4
 10
-2.87560971E+01
 20
2.37371570E+02
  0
VERTEX
  8
0
 62
4
 10
-2.88679882E+01
 20
2.37347206E+02
  0
VERTEX
  8
0
 62
4
 10
-2.89668518E+01
 20
2.37321198E+02
  0
VERTEX
  8
0
 62
4
 10
-2.90518919E+01
 20
2.37293756E+02
  0
VERTEX
  8
0
 62
4
 10
-2.91224239E+01
 20
2.37265101E+02
  0
VERTEX
  8
0
 62
4
 10
-2.91778799E+01
 20
2.37235464E+02
  0
VERTEX
  8
0
 62
4
 10
-2.92178134E+01
 20
2.37205082E+02
  0
VERTEX
  8
0
 62
4
 10
-2.92419028E+01
 20
2.37174201E+02
  0
VERTEX
  8
0
 62
4
 10
-2.92499542E+01
 20
2.37143070E+02
  0
SEQEND
  8
0
  0
LINE
  8
0
 62
6
 10
-3.67499542E+01
 20
2.37372785E+02
 11
-3.67499542E+01
 21
2.35021748E+02
  0
LINE
  8
0
 62
6
 10
-3.37499542E+01
 20
2.37372785E+02
 11
-3.37499542E+01
 21
2.35021748E+02
  0
LINE
  8
0
 62
4
 10
-3.72499542E+01
 20
2.37143070E+02
 11
-3.72499542E+01
 21
2.35021748E+02
  0
LINE
  8
0
 62
4
 10
-3.32499542E+01
 20
2.37143070E+02
 11
-3.32499542E+01
 21
2.35021748E+02
  0
POLYLINE
  8
0
 62
4
 66
1
  0
VERTEX
  8
0
 62
4
 10
-3.32499542E+01
 20
2.37143070E+02
  0
VERTEX
  8
0
 62
4
 10
-3.32580056E+01
 20
2.37174201E+02
  0
VERTEX
  8
0
 62
4
 10
-3.32820950E+01
 20
2.37205082E+02
  0
VERTEX
  8
0
 62
4
 10
-3.33220285E+01
 20
2.37235464E+02
  0
VERTEX
  8
0
 62
4
 10
-3.33774845E+01
 20
2.37265101E+02
  0
VERTEX
  8
0
 62
4
 10
-3.34480165E+01
 20
2.37293756E+02
  0
VERTEX
  8
0
 62
4
 10
-3.35330566E+01
 20
2.37321198E+02
  0
VERTEX
  8
0
 62
4
 10
-3.36319202E+01
 20
2.37347206E+02
  0
VERTEX
  8
0
 62
4
 10
-3.37438113E+01
 20
2.37371570E+02
  0
VERTEX
  8
0
 62
4
 10
-3.38678289E+01
 20
2.37394094E+02
  0
VERTEX
  8
0
 62
4
 10
-3.40029746E+01
 20
2.37414597E+02
  0
VERTEX
  8
0
 62
4
 10
-3.41481602E+01
 20
2.37432914E+02
  0
VERTEX
  8
0
 62
4
 10
-3.43022169E+01
 20
2.37448898E+02
  0
VERTEX
  8
0
 62
4
 10
-3.44639041E+01
 20
2.37462419E+02
  0
VERTEX
  8
0
 62
4
 10
-3.46319202E+01
 20
2.37473368E+02
  0
VERTEX
  8
0
 62
4
 10
-3.48049123E+01
 20
2.37481659E+02
  0
VERTEX
  8
0
 62
4
 10
-3.49814877E+01
 20
2.37487223E+02
  0
VERTEX
  8
0
 62
4
 10
-3.51602245E+01
 20
2.37490017E+02
  0
VERTEX
  8
0
 62
4
 10
-3.53396838E+01
 20
2.37490017E+02
  0
VERTEX
  8
0
 62
4
 10
-3.55184207E+01
 20
2.37487223E+02
  0
VERTEX
  8
0
 62
4
 10
-3.56949961E+01
 20
2.37481659E+02
  0
VERTEX
  8
0
 62
4
 10
-3.58679882E+01
 20
2.37473368E+02
  0
VERTEX
  8
0
 62
4
 10
-3.60360043E+01
 20
2.37462419E+02
  0
VERTEX
  8
0
 62
4
 10
-3.61976915E+01
 20
2.37448898E+02
  0
VERTEX
  8
0
 62
4
 10
-3.63517482E+01
 20
2.37432914E+02
  0
VERTEX
  8
0
 62
4
 10
-3.64969338E+01
 20
2.37414597E+02
  0
VERTEX
  8
0
 62
4
 10
-3.66320795E+01
 20
2.37394094E+02
  0
VERTEX
  8
0
 62
4
 10
-3.67560971E+01
 20
2.37371570E+02
  0
VERTEX
  8
0
 62
4
 10
-3.68679882E+01
 20
2.37347206E+02
  0
VERTEX
  8
0
 62
4
 10
-3.69668518E+01
 20
2.37321198E+02
  0
VERTEX
  8
0
 62
4
 10
-3.70518919E+01
 20
2.37293756E+02
  0
VERTEX
  8
0
 62
4
 10
-3.71224239E+01
 20
2.37265101E+02
  0
VERTEX
  8
0
 62
4
 10
-3.71778799E+01
 20
2.37235464E+02
  0
VERTEX
  8
0
 62
4
 10
-3.72178134E+01
 20
2.37205082E+02
  0
VERTEX
  8
0
 62
4
 10
-3.72419028E+01
 20
2.37174201E+02
  0
VERTEX
  8
0
 62
4
 10
-3.72499542E+01
 20
2.37143070E+02
  0
SEQEND
  8
0
  0
LINE
  8
0
 62
4
 10
-5.37499542E+01
 20
2.14019736E+02
 11
-5.52499542E+01
 21
2.13016803E+02
  0
LINE
  8
0
 62
4
 10
-5.52499542E+01
 20
2.13016803E+02
 11
-5.52499542E+01
 21
2.10392901E+02
  0
LINE
  8
0
 62
4
 10
-5.52499542E+01
 20
2.10786214E+02
 11
-5.37499542E+01
 21
2.10080505E+02
  0
LINE
  8
0
 62
4
 10
-5.52499542E+01
 20
2.10392901E+02
 11
-5.37499542E+01
 21
2.09385912E+02
  0
LINE
  8
0
 62
4
 10
-5.37499542E+01
 20
2.09385912E+02
 11
-4.28999542E+01
 21
2.09385912E+02
  0
LINE
  8
0
 62
4
 10
-5.37499542E+01
 20
2.10080505E+02
 11
-4.28999542E+01
 21
2.10080505E+02
  0
LINE
  8
0
 62
4
 10
-5.37499542E+01
 20
2.10364291E+02
 11
-5.37499542E+01
 21
2.09391861E+02
  0
POLYLINE
  8
0
 62
4
 66
1
  0
VERTEX
  8
0
 62
4
 10
-3.50499542E+01
 20
2.10733190E+02
  0
VERTEX
  8
0
 62
4
 10
-3.52317692E+01
 20
2.10789037E+02
  0
VERTEX
  8
0
 62
4
 10
-3.54414664E+01
 20
2.10841856E+02
  0
VERTEX
  8
0
 62
4
 10
-3.56773841E+01
 20
2.10891226E+02
  0
VERTEX
  8
0
 62
4
 10
-3.59376524E+01
 20
2.10936758E+02
  0
VERTEX
  8
0
 62
4
 10
-3.62202087E+01
 20
2.10978089E+02
  0
VERTEX
  8
0
 62
4
 10
-3.65228138E+01
 20
2.11014894E+02
  0
VERTEX
  8
0
 62
4
 10
-3.68430693E+01
 20
2.11046879E+02
  0
VERTEX
  8
0
 62
4
 10
-3.71784373E+01
 20
2.11073792E+02
  0
VERTEX
  8
0
 62
4
 10
-3.75262598E+01
 20
2.11095418E+02
  0
VERTEX
  8
0
 62
4
 10
-3.78837804E+01
 20
2.11111588E+02
  0
VERTEX
  8
0
 62
4
 10
-3.82481655E+01
 20
2.11122172E+02
  0
VERTEX
  8
0
 62
4
 10
-3.86165274E+01
 20
2.11127086E+02
  0
VERTEX
  8
0
 62
4
 10
-3.89859467E+01
 20
2.11126293E+02
  0
VERTEX
  8
0
 62
4
 10
-3.93534958E+01
 20
2.11119797E+02
  0
VERTEX
  8
0
 62
4
 10
-3.97162616E+01
 20
2.11107651E+02
  0
VERTEX
  8
0
 62
4
 10
-4.00713693E+01
 20
2.11089951E+02
  0
VERTEX
  8
0
 62
4
 10
-4.04160046E+01
 20
2.11066837E+02
  0
VERTEX
  8
0
 62
4
 10
-4.07474360E+01
 20
2.11038492E+02
  0
VERTEX
  8
0
 62
4
 10
-4.10630371E+01
 20
2.11005141E+02
  0
VERTEX
  8
0
 62
4
 10
-4.13603065E+01
 20
2.10967048E+02
  0
VERTEX
  8
0
 62
4
 10
-4.16368885E+01
 20
2.10924515E+02
  0
VERTEX
  8
0
 62
4
 10
-4.18905909E+01
 20
2.10877880E+02
  0
VERTEX
  8
0
 62
4
 10
-4.21194032E+01
 20
2.10827511E+02
  0
VERTEX
  8
0
 62
4
 10
-4.23215120E+01
 20
2.10773808E+02
  0
VERTEX
  8
0
 62
4
 10
-4.24953155E+01
 20
2.10717196E+02
  0
VERTEX
  8
0
 62
4
 10
-4.26394363E+01
 20
2.10658125E+02
  0
VERTEX
  8
0
 62
4
 10
-4.27527323E+01
 20
2.10597062E+02
  0
VERTEX
  8
0
 62
4
 10
-4.28343055E+01
 20
2.10534492E+02
  0
VERTEX
  8
0
 62
4
 10
-4.28835094E+01
 20
2.10470909E+02
  0
VERTEX
  8
0
 62
4
 10
-4.28999542E+01
 20
2.10406819E+02
  0
SEQEND
  8
0
  0
ARC
  8
0
 62
4
 10
-3.87422159E+01
 20
2.19563926E+02
 40
1.18100000E+01
 50
2.69962458E+02
 51
2.89675999E+02
  0
ARC
  8
0
 62
4
 10
-3.87576925E+01
 20
2.19563926E+02
 40
1.18100000E+01
 50
2.50324001E+02
 51
2.70037542E+02
  0
LINE
  8
0
 62
4
 10
-4.28999542E+01
 20
2.08678895E+02
 11
-4.28999542E+01
 21
2.10406819E+02
  0
LINE
  8
0
 62
4
 10
-3.45999542E+01
 20
2.08678895E+02
 11
-3.45999542E+01
 21
2.08818004E+02
  0
LINE
  8
0
 62
4
 10
-4.27499542E+01
 20
2.10781046E+02
 11
-4.27499542E+01
 21
2.10598816E+02
  0
POLYLINE
  8
0
 62
4
 66
1
  0
VERTEX
  8
0
 62
4
 10
-3.50499542E+01
 20
2.11044968E+02
  0
VERTEX
  8
0
 62
4
 10
-3.51992622E+01
 20
2.11100888E+02
  0
VERTEX
  8
0
 62
4
 10
-3.53765309E+01
 20
2.11154289E+02
  0
VERTEX
  8
0
 62
4
 10
-3.55803643E+01
 20
2.11204751E+02
  0
VERTEX
  8
0
 62
4
 10
-3.58091574E+01
 20
2.11251876E+02
  0
VERTEX
  8
0
 62
4
 10
-3.60611084E+01
 20
2.11295294E+02
  0
VERTEX
  8
0
 62
4
 10
-3.63342334E+01
 20
2.11334662E+02
  0
VERTEX
  8
0
 62
4
 10
-3.66263815E+01
 20
2.11369671E+02
  0
VERTEX
  8
0
 62
4
 10
-3.69352521E+01
 20
2.11400044E+02
  0
VERTEX
  8
0
 62
4
 10
-3.72584130E+01
 20
2.11425543E+02
  0
VERTEX
  8
0
 62
4
 10
-3.75933194E+01
 20
2.11445967E+02
  0
VERTEX
  8
0
 62
4
 10
-3.79373340E+01
 20
2.11461154E+02
  0
VERTEX
  8
0
 62
4
 10
-3.82877477E+01
 20
2.11470986E+02
  0
VERTEX
  8
0
 62
4
 10
-3.86418011E+01
 20
2.11475385E+02
  0
VERTEX
  8
0
 62
4
 10
-3.89967063E+01
 20
2.11474316E+02
  0
VERTEX
  8
0
 62
4
 10
-3.93496683E+01
 20
2.11467788E+02
  0
VERTEX
  8
0
 62
4
 10
-3.96979078E+01
 20
2.11455852E+02
  0
VERTEX
  8
0
 62
4
 10
-4.00386823E+01
 20
2.11438601E+02
  0
VERTEX
  8
0
 62
4
 10
-4.03693085E+01
 20
2.11416173E+02
  0
VERTEX
  8
0
 62
4
 10
-4.06871828E+01
 20
2.11388744E+02
  0
VERTEX
  8
0
 62
4
 10
-4.09898019E+01
 20
2.11356529E+02
  0
VERTEX
  8
0
 62
4
 10
-4.12747828E+01
 20
2.11319782E+02
  0
VERTEX
  8
0
 62
4
 10
-4.15398814E+01
 20
2.11278793E+02
  0
VERTEX
  8
0
 62
4
 10
-4.17830101E+01
 20
2.11233884E+02
  0
VERTEX
  8
0
 62
4
 10
-4.20022544E+01
 20
2.11185409E+02
  0
VERTEX
  8
0
 62
4
 10
-4.21958876E+01
 20
2.11133750E+02
  0
VERTEX
  8
0
 62
4
 10
-4.23623851E+01
 20
2.11079314E+02
  0
VERTEX
  8
0
 62
4
 10
-4.25004358E+01
 20
2.11022529E+02
  0
VERTEX
  8
0
 62
4
 10
-4.26089524E+01
 20
2.10963842E+02
  0
VERTEX
  8
0
 62
4
 10
-4.26870804E+01
 20
2.10903716E+02
  0
VERTEX
  8
0
 62
4
 10
-4.27342048E+01
 20
2.10842623E+02
  0
VERTEX
  8
0
 62
4
 10
-4.27499542E+01
 20
2.10781046E+02
  0
SEQEND
  8
0
  0
ARC
  8
0
 62
4
 10
-4.08685598E+01
 20
2.20265135E+02
 40
1.25124521E+01
 50
2.74941635E+02
 51
2.88095416E+02
  0
ARC
  8
0
 62
4
 10
-3.66313484E+01
 20
2.20265138E+02
 40
1.25124547E+01
 50
2.51904586E+02
 51
2.65058365E+02
  0
POLYLINE
  8
0
 62
4
 66
1
  0
VERTEX
  8
0
 62
4
 10
-3.45999542E+01
 20
2.08673558E+02
  0
VERTEX
  8
0
 62
4
 10
-3.46166609E+01
 20
2.08738156E+02
  0
VERTEX
  8
0
 62
4
 10
-3.46666464E+01
 20
2.08802233E+02
  0
VERTEX
  8
0
 62
4
 10
-3.47495083E+01
 20
2.08865275E+02
  0
VERTEX
  8
0
 62
4
 10
-3.48645795E+01
 20
2.08926773E+02
  0
VERTEX
  8
0
 62
4
 10
-3.50109334E+01
 20
2.08986232E+02
  0
VERTEX
  8
0
 62
4
 10
-3.51873917E+01
 20
2.09043174E+02
  0
VERTEX
  8
0
 62
4
 10
-3.53925337E+01
 20
2.09097140E+02
  0
VERTEX
  8
0
 62
4
 10
-3.56247076E+01
 20
2.09147695E+02
  0
VERTEX
  8
0
 62
4
 10
-3.58820442E+01
 20
2.09194433E+02
  0
VERTEX
  8
0
 62
4
 10
-3.61624715E+01
 20
2.09236977E+02
  0
VERTEX
  8
0
 62
4
 10
-3.64637317E+01
 20
2.09274985E+02
  0
VERTEX
  8
0
 62
4
 10
-3.67833992E+01
 20
2.09308150E+02
  0
VERTEX
  8
0
 62
4
 10
-3.71189003E+01
 20
2.09336206E+02
  0
VERTEX
  8
0
 62
4
 10
-3.74675336E+01
 20
2.09358927E+02
  0
VERTEX
  8
0
 62
4
 10
-3.78264923E+01
 20
2.09376130E+02
  0
VERTEX
  8
0
 62
4
 10
-3.81928861E+01
 20
2.09387676E+02
  0
VERTEX
  8
0
 62
4
 10
-3.85637651E+01
 20
2.09393472E+02
  0
VERTEX
  8
0
 62
4
 10
-3.89361432E+01
 20
2.09393472E+02
  0
VERTEX
  8
0
 62
4
 10
-3.93070222E+01
 20
2.09387676E+02
  0
VERTEX
  8
0
 62
4
 10
-3.96734161E+01
 20
2.09376130E+02
  0
VERTEX
  8
0
 62
4
 10
-4.00323747E+01
 20
2.09358927E+02
  0
VERTEX
  8
0
 62
4
 10
-4.03810081E+01
 20
2.09336206E+02
  0
VERTEX
  8
0
 62
4
 10
-4.07165091E+01
 20
2.09308150E+02
  0
VERTEX
  8
0
 62
4
 10
-4.10361767E+01
 20
2.09274985E+02
  0
VERTEX
  8
0
 62
4
 10
-4.13374369E+01
 20
2.09236977E+02
  0
VERTEX
  8
0
 62
4
 10
-4.16178642E+01
 20
2.09194433E+02
  0
VERTEX
  8
0
 62
4
 10
-4.18752008E+01
 20
2.09147695E+02
  0
VERTEX
  8
0
 62
4
 10
-4.21073747E+01
 20
2.09097140E+02
  0
VERTEX
  8
0
 62
4
 10
-4.23125167E+01
 20
2.09043174E+02
  0
VERTEX
  8
0
 62
4
 10
-4.24889750E+01
 20
2.08986232E+02
  0
VERTEX
  8
0
 62
4
 10
-4.26353289E+01
 20
2.08926773E+02
  0
VERTEX
  8
0
 62
4
 10
-4.27504001E+01
 20
2.08865275E+02
  0
VERTEX
  8
0
 62
4
 10
-4.28332620E+01
 20
2.08802233E+02
  0
VERTEX
  8
0
 62
4
 10
-4.28832475E+01
 20
2.08738156E+02
  0
VERTEX
  8
0
 62
4
 10
-4.28999542E+01
 20
2.08673558E+02
  0
SEQEND
  8
0
  0
ARC
  8
0
 62
4
 10
-4.26499542E+01
 20
2.08678895E+02
 40
2.50000000E-01
 50
1.80000000E+02
 51
2.50324001E+02
  0
ARC
  8
0
 62
4
 10
-3.48499542E+01
 20
2.08678895E+02
 40
2.50000000E-01
 50
2.89675999E+02
 51
0.00000000E+00
  0
LINE
  8
0
 62
4
 10
-3.50499542E+01
 20
2.10404007E+02
 11
-3.50499542E+01
 21
2.11388815E+02
  0
LINE
  8
0
 62
4
 10
-2.74499542E+01
 20
2.10404007E+02
 11
-2.74499542E+01
 21
2.11388815E+02
  0
POLYLINE
  8
0
 62
4
 66
1
  0
VERTEX
  8
0
 62
4
 10
-2.74499542E+01
 20
2.11388815E+02
  0
VERTEX
  8
0
 62
4
 10
-2.74652519E+01
 20
2.11447965E+02
  0
VERTEX
  8
0
 62
4
 10
-2.75110218E+01
 20
2.11506638E+02
  0
VERTEX
  8
0
 62
4
 10
-2.75868953E+01
 20
2.11564363E+02
  0
VERTEX
  8
0
 62
4
 10
-2.76922617E+01
 20
2.11620674E+02
  0
VERTEX
  8
0
 62
4
 10
-2.78262725E+01
 20
2.11675119E+02
  0
VERTEX
  8
0
 62
4
 10
-2.79878488E+01
 20
2.11727258E+02
  0
VERTEX
  8
0
 62
4
 10
-2.81756896E+01
 20
2.11776673E+02
  0
VERTEX
  8
0
 62
4
 10
-2.83882826E+01
 20
2.11822964E+02
  0
VERTEX
  8
0
 62
4
 10
-2.86239161E+01
 20
2.11865761E+02
  0
VERTEX
  8
0
 62
4
 10
-2.88806929E+01
 20
2.11904717E+02
  0
VERTEX
  8
0
 62
4
 10
-2.91565457E+01
 20
2.11939519E+02
  0
VERTEX
  8
0
 62
4
 10
-2.94492533E+01
 20
2.11969887E+02
  0
VERTEX
  8
0
 62
4
 10
-2.97564591E+01
 20
2.11995577E+02
  0
VERTEX
  8
0
 62
4
 10
-3.00756896E+01
 20
2.12016382E+02
  0
VERTEX
  8
0
 62
4
 10
-3.04043746E+01
 20
2.12032134E+02
  0
VERTEX
  8
0
 62
4
 10
-3.07398678E+01
 20
2.12042706E+02
  0
VERTEX
  8
0
 62
4
 10
-3.10794678E+01
 20
2.12048014E+02
  0
VERTEX
  8
0
 62
4
 10
-3.14204405E+01
 20
2.12048014E+02
  0
VERTEX
  8
0
 62
4
 10
-3.17600406E+01
 20
2.12042706E+02
  0
VERTEX
  8
0
 62
4
 10
-3.20955337E+01
 20
2.12032134E+02
  0
VERTEX
  8
0
 62
4
 10
-3.24242188E+01
 20
2.12016382E+02
  0
VERTEX
  8
0
 62
4
 10
-3.27434493E+01
 20
2.11995577E+02
  0
VERTEX
  8
0
 62
4
 10
-3.30506551E+01
 20
2.11969887E+02
  0
VERTEX
  8
0
 62
4
 10
-3.33433627E+01
 20
2.11939519E+02
  0
VERTEX
  8
0
 62
4
 10
-3.36192154E+01
 20
2.11904717E+02
  0
VERTEX
  8
0
 62
4
 10
-3.38759922E+01
 20
2.11865761E+02
  0
VERTEX
  8
0
 62
4
 10
-3.41116258E+01
 20
2.11822964E+02
  0
VERTEX
  8
0
 62
4
 10
-3.43242188E+01
 20
2.11776673E+02
  0
VERTEX
  8
0
 62
4
 10
-3.45120596E+01
 20
2.11727258E+02
  0
VERTEX
  8
0
 62
4
 10
-3.46736359E+01
 20
2.11675119E+02
  0
VERTEX
  8
0
 62
4
 10
-3.48076467E+01
 20
2.11620674E+02
  0
VERTEX
  8
0
 62
4
 10
-3.49130131E+01
 20
2.11564363E+02
  0
VERTEX
  8
0
 62
4
 10
-3.49888866E+01
 20
2.11506638E+02
  0
VERTEX
  8
0
 62
4
 10
-3.50346565E+01
 20
2.11447965E+02
  0
VERTEX
  8
0
 62
4
 10
-3.50499542E+01
 20
2.11388815E+02
  0
SEQEND
  8
0
  0
POLYLINE
  8
0
 62
4
 66
1
  0
VERTEX
  8
0
 62
4
 10
-2.78499542E+01
 20
2.10109316E+02
  0
VERTEX
  8
0
 62
4
 10
-2.77133725E+01
 20
2.10162605E+02
  0
VERTEX
  8
0
 62
4
 10
-2.76044247E+01
 20
2.10217781E+02
  0
VERTEX
  8
0
 62
4
 10
-2.75239619E+01
 20
2.10274411E+02
  0
VERTEX
  8
0
 62
4
 10
-2.74726129E+01
 20
2.10332054E+02
  0
VERTEX
  8
0
 62
4
 10
-2.74507789E+01
 20
2.10390260E+02
  0
VERTEX
  8
0
 62
4
 10
-2.74586306E+01
 20
2.10448573E+02
  0
VERTEX
  8
0
 62
4
 10
-2.74961066E+01
 20
2.10506537E+02
  0
VERTEX
  8
0
 62
4
 10
-2.75629140E+01
 20
2.10563700E+02
  0
VERTEX
  8
0
 62
4
 10
-2.76585308E+01
 20
2.10619616E+02
  0
VERTEX
  8
0
 62
4
 10
-2.77822100E+01
 20
2.10673847E+02
  0
VERTEX
  8
0
 62
4
 10
-2.79329851E+01
 20
2.10725969E+02
  0
VERTEX
  8
0
 62
4
 10
-2.81096780E+01
 20
2.10775576E+02
  0
VERTEX
  8
0
 62
4
 10
-2.83109080E+01
 20
2.10822280E+02
  0
VERTEX
  8
0
 62
4
 10
-2.85351030E+01
 20
2.10865715E+02
  0
VERTEX
  8
0
 62
4
 10
-2.87805109E+01
 20
2.10905542E+02
  0
VERTEX
  8
0
 62
4
 10
-2.90452144E+01
 20
2.10941451E+02
  0
VERTEX
  8
0
 62
4
 10
-2.93271450E+01
 20
2.10973160E+02
  0
VERTEX
  8
0
 62
4
 10
-2.96240999E+01
 20
2.11000422E+02
  0
VERTEX
  8
0
 62
4
 10
-2.99337588E+01
 20
2.11023024E+02
  0
VERTEX
  8
0
 62
4
 10
-3.02537020E+01
 20
2.11040789E+02
  0
VERTEX
  8
0
 62
4
 10
-3.05814296E+01
 20
2.11053578E+02
  0
VERTEX
  8
0
 62
4
 10
-3.09143809E+01
 20
2.11061292E+02
  0
VERTEX
  8
0
 62
4
 10
-3.12499542E+01
 20
2.11063870E+02
  0
VERTEX
  8
0
 62
4
 10
-3.15855276E+01
 20
2.11061292E+02
  0
VERTEX
  8
0
 62
4
 10
-3.19184788E+01
 20
2.11053578E+02
  0
VERTEX
  8
0
 62
4
 10
-3.22462065E+01
 20
2.11040789E+02
  0
VERTEX
  8
0
 62
4
 10
-3.25661497E+01
 20
2.11023024E+02
  0
VERTEX
  8
0
 62
4
 10
-3.28758085E+01
 20
2.11000422E+02
  0
VERTEX
  8
0
 62
4
 10
-3.31727634E+01
 20
2.10973160E+02
  0
VERTEX
  8
0
 62
4
 10
-3.34546941E+01
 20
2.10941451E+02
  0
VERTEX
  8
0
 62
4
 10
-3.37193975E+01
 20
2.10905542E+02
  0
VERTEX
  8
0
 62
4
 10
-3.39648055E+01
 20
2.10865715E+02
  0
VERTEX
  8
0
 62
4
 10
-3.41890004E+01
 20
2.10822280E+02
  0
VERTEX
  8
0
 62
4
 10
-3.43902305E+01
 20
2.10775576E+02
  0
VERTEX
  8
0
 62
4
 10
-3.45669234E+01
 20
2.10725969E+02
  0
VERTEX
  8
0
 62
4
 10
-3.47176984E+01
 20
2.10673847E+02
  0
VERTEX
  8
0
 62
4
 10
-3.48413776E+01
 20
2.10619616E+02
  0
VERTEX
  8
0
 62
4
 10
-3.49369944E+01
 20
2.10563701E+02
  0
VERTEX
  8
0
 62
4
 10
-3.50038018E+01
 20
2.10506537E+02
  0
VERTEX
  8
0
 62
4
 10
-3.50412778E+01
 20
2.10448573E+02
  0
VERTEX
  8
0
 62
4
 10
-3.50491295E+01
 20
2.10390260E+02
  0
VERTEX
  8
0
 62
4
 10
-3.50272955E+01
 20
2.10332054E+02
  0
VERTEX
  8
0
 62
4
 10
-3.49759465E+01
 20
2.10274411E+02
  0
VERTEX
  8
0
 62
4
 10
-3.48954837E+01
 20
2.10217781E+02
  0
VERTEX
  8
0
 62
4
 10
-3.47865359E+01
 20
2.10162605E+02
  0
VERTEX
  8
0
 62
4
 10
-3.46499542E+01
 20
2.10109316E+02
  0
SEQEND
  8
0
  0
LINE
  8
0
 62
4
 10
-3.46499542E+01
 20
2.09130255E+02
 11
-3.46499542E+01
 21
2.10404007E+02
  0
LINE
  8
0
 62
4
 10
-2.78499542E+01
 20
2.09130255E+02
 11
-2.78499542E+01
 21
2.10404007E+02
  0
POLYLINE
  8
0
 62
4
 66
1
  0
VERTEX
  8
0
 62
4
 10
-2.78499542E+01
 20
2.10404007E+02
  0
VERTEX
  8
0
 62
4
 10
-2.78636416E+01
 20
2.10456930E+02
  0
VERTEX
  8
0
 62
4
 10
-2.79045936E+01
 20
2.10509428E+02
  0
VERTEX
  8
0
 62
4
 10
-2.79724805E+01
 20
2.10561076E+02
  0
VERTEX
  8
0
 62
4
 10
-2.80667556E+01
 20
2.10611460E+02
  0
VERTEX
  8
0
 62
4
 10
-2.81866600E+01
 20
2.10660174E+02
  0
VERTEX
  8
0
 62
4
 10
-2.83312283E+01
 20
2.10706825E+02
  0
VERTEX
  8
0
 62
4
 10
-2.84992964E+01
 20
2.10751038E+02
  0
VERTEX
  8
0
 62
4
 10
-2.86895112E+01
 20
2.10792457E+02
  0
VERTEX
  8
0
 62
4
 10
-2.89003412E+01
 20
2.10830748E+02
  0
VERTEX
  8
0
 62
4
 10
-2.91300889E+01
 20
2.10865603E+02
  0
VERTEX
  8
0
 62
4
 10
-2.93769044E+01
 20
2.10896742E+02
  0
VERTEX
  8
0
 62
4
 10
-2.96388007E+01
 20
2.10923914E+02
  0
VERTEX
  8
0
 62
4
 10
-2.99136691E+01
 20
2.10946900E+02
  0
VERTEX
  8
0
 62
4
 10
-3.01992964E+01
 20
2.10965514E+02
  0
VERTEX
  8
0
 62
4
 10
-3.04933830E+01
 20
2.10979608E+02
  0
VERTEX
  8
0
 62
4
 10
-3.07935611E+01
 20
2.10989068E+02
  0
VERTEX
  8
0
 62
4
 10
-3.10974138E+01
 20
2.10993816E+02
  0
VERTEX
  8
0
 62
4
 10
-3.14024946E+01
 20
2.10993816E+02
  0
VERTEX
  8
0
 62
4
 10
-3.17063473E+01
 20
2.10989068E+02
  0
VERTEX
  8
0
 62
4
 10
-3.20065254E+01
 20
2.10979608E+02
  0
VERTEX
  8
0
 62
4
 10
-3.23006120E+01
 20
2.10965514E+02
  0
VERTEX
  8
0
 62
4
 10
-3.25862393E+01
 20
2.10946900E+02
  0
VERTEX
  8
0
 62
4
 10
-3.28611076E+01
 20
2.10923914E+02
  0
VERTEX
  8
0
 62
4
 10
-3.31230039E+01
 20
2.10896742E+02
  0
VERTEX
  8
0
 62
4
 10
-3.33698195E+01
 20
2.10865603E+02
  0
VERTEX
  8
0
 62
4
 10
-3.35995672E+01
 20
2.10830748E+02
  0
VERTEX
  8
0
 62
4
 10
-3.38103972E+01
 20
2.10792457E+02
  0
VERTEX
  8
0
 62
4
 10
-3.40006120E+01
 20
2.10751038E+02
  0
VERTEX
  8
0
 62
4
 10
-3.41686801E+01
 20
2.10706825E+02
  0
VERTEX
  8
0
 62
4
 10
-3.43132483E+01
 20
2.10660174E+02
  0
VERTEX
  8
0
 62
4
 10
-3.44331528E+01
 20
2.10611460E+02
  0
VERTEX
  8
0
 62
4
 10
-3.45274279E+01
 20
2.10561076E+02
  0
VERTEX
  8
0
 62
4
 10
-3.45953148E+01
 20
2.10509428E+02
  0
VERTEX
  8
0
 62
4
 10
-3.46362668E+01
 20
2.10456930E+02
  0
VERTEX
  8
0
 62
4
 10
-3.46499542E+01
 20
2.10404007E+02
  0
SEQEND
  8
0
  0
ARC
  8
0
 62
4
 10
-3.12499542E+01
 20
2.19670468E+02
 40
1.18100000E+01
 50
2.57172490E+02
 51
2.82827510E+02
  0
ARC
  8
0
 62
4
 10
-2.88499539E+01
 20
2.09130255E+02
 40
1.00000000E+00
 50
2.82827510E+02
 51
5.08888749E-14
  0
ARC
  8
0
 62
4
 10
-3.36499545E+01
 20
2.09130255E+02
 40
1.00000000E+00
 50
1.80000000E+02
 51
2.57172490E+02
  0
ARC
  8
0
 62
4
 10
-3.33717078E+01
 20
2.20389611E+02
 40
1.25306621E+01
 50
2.74968660E+02
 51
2.88083352E+02
  0
ARC
  8
0
 62
4
 10
-2.91282006E+01
 20
2.20389612E+02
 40
1.25306626E+01
 50
2.51916648E+02
 51
2.65031340E+02
  0
LINE
  8
0
  6
CENTER
 62
6
 10
-4.12499542E+01
 20
2.10781046E+02
 11
-3.62499542E+01
 21
2.10781046E+02
  0
LINE
  8
0
  6
CENTER
 62
6
 10
-3.12499542E+01
 20
2.13888815E+02
 11
-3.12499542E+01
 21
2.08888815E+02
  0
LINE
  8
0
  6
CENTER
 62
6
 10
-3.37499542E+01
 20
2.11388815E+02
 11
-2.87499542E+01
 21
2.11388815E+02
  0
LINE
  8
0
  6
CENTER
 62
6
 10
-4.62499542E+01
 20
2.13888815E+02
 11
-4.62499542E+01
 21
2.08888815E+02
  0
LINE
  8
0
  6
CENTER
 62
6
 10
-4.87499542E+01
 20
2.11388815E+02
 11
-4.37499542E+01
 21
2.11388815E+02
  0
LINE
  8
0
 62
4
 10
-2.74568436E+01
 20
2.10364291E+02
 11
-2.37499542E+01
 21
2.10364291E+02
  0
LINE
  8
0
 62
7
 10
-2.37499542E+01
 20
2.29519459E+02
 11
4.17499542E+01
 21
2.29519459E+02
  0
LINE
  8
0
 62
7
 10
-2.37499542E+01
 20
2.30369449E+02
 11
4.17499542E+01
 21
2.30369449E+02
  0
LINE
  8
0
 62
7
 10
2.02499542E+01
 20
1.86369480E+02
 11
4.17499542E+01
 21
1.86369480E+02
  0
LINE
  8
0
 62
6
 10
-5.04649440E+01
 20
-1.93377284E+02
 11
-4.70350743E+01
 21
-1.89947409E+02
  0
LINE
  8
0
 62
6
 10
-4.70350718E+01
 20
-1.93377282E+02
 11
-5.04649464E+01
 21
-1.89947412E+02
  0
POLYLINE
  8
0
 62
4
 66
1
  0
VERTEX
  8
0
 62
4
 10
-5.27500088E+01
 20
-1.92021491E+02
  0
VERTEX
  8
0
 62
4
 10
-5.27347930E+01
 20
-1.92362496E+02
  0
VERTEX
  8
0
 62
4
 10
-5.26892506E+01
 20
-1.92700906E+02
  0
VERTEX
  8
0
 62
4
 10
-5.26137281E+01
 20
-1.93034146E+02
  0
VERTEX
  8
0
 62
4
 10
-5.25088004E+01
 20
-1.93359679E+02
  0
VERTEX
  8
0
 62
4
 10
-5.23752661E+01
 20
-1.93675029E+02
  0
VERTEX
  8
0
 62
4
 10
-5.22141414E+01
 20
-1.93977794E+02
  0
VERTEX
  8
0
 62
4
 10
-5.20266525E+01
 20
-1.94265672E+02
  0
VERTEX
  8
0
 62
4
 10
-5.18142263E+01
 20
-1.94536470E+02
  0
VERTEX
  8
0
 62
4
 10
-5.15784797E+01
 20
-1.94788128E+02
  0
VERTEX
  8
0
 62
4
 10
-5.13212066E+01
 20
-1.95018731E+02
  0
VERTEX
  8
0
 62
4
 10
-5.10443652E+01
 20
-1.95226524E+02
  0
VERTEX
  8
0
 62
4
 10
-5.07500624E+01
 20
-1.95409925E+02
  0
VERTEX
  8
0
 62
4
 10
-5.04405379E+01
 20
-1.95567538E+02
  0
VERTEX
  8
0
 62
4
 10
-5.01181475E+01
 20
-1.95698165E+02
  0
VERTEX
  8
0
 62
4
 10
-4.97853447E+01
 20
-1.95800810E+02
  0
VERTEX
  8
0
 62
4
 10
-4.94446624E+01
 20
-1.95874692E+02
  0
VERTEX
  8
0
 62
4
 10
-4.90986934E+01
 20
-1.95919250E+02
  0
VERTEX
  8
0
 62
4
 10
-4.87500707E+01
 20
-1.95934144E+02
  0
VERTEX
  8
0
 62
4
 10
-4.84014475E+01
 20
-1.95919261E+02
  0
VERTEX
  8
0
 62
4
 10
-4.80554770E+01
 20
-1.95874714E+02
  0
VERTEX
  8
0
 62
4
 10
-4.77147924E+01
 20
-1.95800842E+02
  0
VERTEX
  8
0
 62
4
 10
-4.73819864E+01
 20
-1.95698208E+02
  0
VERTEX
  8
0
 62
4
 10
-4.70595918E+01
 20
-1.95567592E+02
  0
VERTEX
  8
0
 62
4
 10
-4.67500624E+01
 20
-1.95409988E+02
  0
VERTEX
  8
0
 62
4
 10
-4.64557537E+01
 20
-1.95226597E+02
  0
VERTEX
  8
0
 62
4
 10
-4.61789058E+01
 20
-1.95018813E+02
  0
VERTEX
  8
0
 62
4
 10
-4.59216254E+01
 20
-1.94788218E+02
  0
VERTEX
  8
0
 62
4
 10
-4.56858708E+01
 20
-1.94536567E+02
  0
VERTEX
  8
0
 62
4
 10
-4.54734361E+01
 20
-1.94265775E+02
  0
VERTEX
  8
0
 62
4
 10
-4.52859381E+01
 20
-1.93977904E+02
  0
VERTEX
  8
0
 62
4
 10
-4.51248038E+01
 20
-1.93675143E+02
  0
VERTEX
  8
0
 62
4
 10
-4.49912595E+01
 20
-1.93359798E+02
  0
VERTEX
  8
0
 62
4
 10
-4.48863215E+01
 20
-1.93034268E+02
  0
VERTEX
  8
0
 62
4
 10
-4.48107885E+01
 20
-1.92701030E+02
  0
VERTEX
  8
0
 62
4
 10
-4.47652354E+01
 20
-1.92362622E+02
  0
VERTEX
  8
0
 62
4
 10
-4.47500088E+01
 20
-1.92021617E+02
  0
VERTEX
  8
0
 62
4
 10
-4.47652246E+01
 20
-1.91680612E+02
  0
VERTEX
  8
0
 62
4
 10
-4.48107670E+01
 20
-1.91342202E+02
  0
VERTEX
  8
0
 62
4
 10
-4.48862895E+01
 20
-1.91008962E+02
  0
VERTEX
  8
0
 62
4
 10
-4.49912172E+01
 20
-1.90683429E+02
  0
VERTEX
  8
0
 62
4
 10
-4.51247515E+01
 20
-1.90368079E+02
  0
VERTEX
  8
0
 62
4
 10
-4.52858763E+01
 20
-1.90065314E+02
  0
VERTEX
  8
0
 62
4
 10
-4.54733651E+01
 20
-1.89777436E+02
  0
VERTEX
  8
0
 62
4
 10
-4.56857913E+01
 20
-1.89506638E+02
  0
VERTEX
  8
0
 62
4
 10
-4.59215379E+01
 20
-1.89254980E+02
  0
VERTEX
  8
0
 62
4
 10
-4.61788110E+01
 20
-1.89024377E+02
  0
VERTEX
  8
0
 62
4
 10
-4.64556524E+01
 20
-1.88816584E+02
  0
VERTEX
  8
0
 62
4
 10
-4.67499552E+01
 20
-1.88633183E+02
  0
VERTEX
  8
0
 62
4
 10
-4.70594797E+01
 20
-1.88475570E+02
  0
VERTEX
  8
0
 62
4
 10
-4.73818701E+01
 20
-1.88344943E+02
  0
VERTEX
  8
0
 62
4
 10
-4.77146729E+01
 20
-1.88242298E+02
  0
VERTEX
  8
0
 62
4
 10
-4.80553552E+01
 20
-1.88168416E+02
  0
VERTEX
  8
0
 62
4
 10
-4.84013242E+01
 20
-1.88123858E+02
  0
VERTEX
  8
0
 62
4
 10
-4.87499469E+01
 20
-1.88108964E+02
  0
VERTEX
  8
0
 62
4
 10
-4.90985701E+01
 20
-1.88123847E+02
  0
VERTEX
  8
0
 62
4
 10
-4.94445406E+01
 20
-1.88168394E+02
  0
VERTEX
  8
0
 62
4
 10
-4.97852252E+01
 20
-1.88242266E+02
  0
VERTEX
  8
0
 62
4
 10
-5.01180312E+01
 20
-1.88344900E+02
  0
VERTEX
  8
0
 62
4
 10
-5.04404258E+01
 20
-1.88475516E+02
  0
VERTEX
  8
0
 62
4
 10
-5.07499552E+01
 20
-1.88633120E+02
  0
VERTEX
  8
0
 62
4
 10
-5.10442639E+01
 20
-1.88816511E+02
  0
VERTEX
  8
0
 62
4
 10
-5.13211118E+01
 20
-1.89024295E+02
  0
VERTEX
  8
0
 62
4
 10
-5.15783922E+01
 20
-1.89254890E+02
  0
VERTEX
  8
0
 62
4
 10
-5.18141468E+01
 20
-1.89506541E+02
  0
VERTEX
  8
0
 62
4
 10
-5.20265815E+01
 20
-1.89777333E+02
  0
VERTEX
  8
0
 62
4
 10
-5.22140795E+01
 20
-1.90065204E+02
  0
VERTEX
  8
0
 62
4
 10
-5.23752138E+01
 20
-1.90367965E+02
  0
VERTEX
  8
0
 62
4
 10
-5.25087581E+01
 20
-1.90683310E+02
  0
VERTEX
  8
0
 62
4
 10
-5.26136961E+01
 20
-1.91008840E+02
  0
VERTEX
  8
0
 62
4
 10
-5.26892291E+01
 20
-1.91342078E+02
  0
VERTEX
  8
0
 62
4
 10
-5.27347822E+01
 20
-1.91680486E+02
  0
VERTEX
  8
0
 62
4
 10
-5.27500088E+01
 20
-1.92021491E+02
  0
SEQEND
  8
0
  0
POLYLINE
  8
0
 62
4
 66
1
  0
VERTEX
  8
0
 62
4
 10
-5.21489816E+01
 20
-1.91744636E+02
  0
VERTEX
  8
0
 62
4
 10
-5.21430377E+01
 20
-1.92056121E+02
  0
VERTEX
  8
0
 62
4
 10
-5.21104568E+01
 20
-1.92365839E+02
  0
VERTEX
  8
0
 62
4
 10
-5.20514945E+01
 20
-1.92671358E+02
  0
VERTEX
  8
0
 62
4
 10
-5.19666137E+01
 20
-1.92970281E+02
  0
VERTEX
  8
0
 62
4
 10
-5.18564809E+01
 20
-1.93260261E+02
  0
VERTEX
  8
0
 62
4
 10
-5.17219605E+01
 20
-1.93539021E+02
  0
VERTEX
  8
0
 62
4
 10
-5.15641088E+01
 20
-1.93804372E+02
  0
VERTEX
  8
0
 62
4
 10
-5.13841648E+01
 20
-1.94054232E+02
  0
VERTEX
  8
0
 62
4
 10
-5.11835412E+01
 20
-1.94286639E+02
  0
VERTEX
  8
0
 62
4
 10
-5.09638131E+01
 20
-1.94499769E+02
  0
VERTEX
  8
0
 62
4
 10
-5.07267055E+01
 20
-1.94691947E+02
  0
VERTEX
  8
0
 62
4
 10
-5.04740796E+01
 20
-1.94861667E+02
  0
VERTEX
  8
0
 62
4
 10
-5.02079189E+01
 20
-1.95007594E+02
  0
VERTEX
  8
0
 62
4
 10
-4.99303129E+01
 20
-1.95128584E+02
  0
VERTEX
  8
0
 62
4
 10
-4.96434408E+01
 20
-1.95223687E+02
  0
VERTEX
  8
0
 62
4
 10
-4.93495547E+01
 20
-1.95292156E+02
  0
VERTEX
  8
0
 62
4
 10
-4.90509619E+01
 20
-1.95333453E+02
  0
VERTEX
  8
0
 62
4
 10
-4.87500065E+01
 20
-1.95347255E+02
  0
VERTEX
  8
0
 62
4
 10
-4.84490511E+01
 20
-1.95333453E+02
  0
VERTEX
  8
0
 62
4
 10
-4.81504583E+01
 20
-1.95292156E+02
  0
VERTEX
  8
0
 62
4
 10
-4.78565724E+01
 20
-1.95223687E+02
  0
VERTEX
  8
0
 62
4
 10
-4.75697004E+01
 20
-1.95128584E+02
  0
VERTEX
  8
0
 62
4
 10
-4.72920945E+01
 20
-1.95007594E+02
  0
VERTEX
  8
0
 62
4
 10
-4.70259340E+01
 20
-1.94861667E+02
  0
VERTEX
  8
0
 62
4
 10
-4.67733084E+01
 20
-1.94691947E+02
  0
VERTEX
  8
0
 62
4
 10
-4.65362011E+01
 20
-1.94499769E+02
  0
VERTEX
  8
0
 62
4
 10
-4.63164733E+01
 20
-1.94286639E+02
  0
VERTEX
  8
0
 62
4
 10
-4.61158501E+01
 20
-1.94054232E+02
  0
VERTEX
  8
0
 62
4
 10
-4.59359064E+01
 20
-1.93804372E+02
  0
VERTEX
  8
0
 62
4
 10
-4.57780550E+01
 20
-1.93539021E+02
  0
VERTEX
  8
0
 62
4
 10
-4.56435351E+01
 20
-1.93260261E+02
  0
VERTEX
  8
0
 62
4
 10
-4.55334026E+01
 20
-1.92970281E+02
  0
VERTEX
  8
0
 62
4
 10
-4.54485223E+01
 20
-1.92671358E+02
  0
VERTEX
  8
0
 62
4
 10
-4.53895604E+01
 20
-1.92365839E+02
  0
VERTEX
  8
0
 62
4
 10
-4.53569799E+01
 20
-1.92056121E+02
  0
VERTEX
  8
0
 62
4
 10
-4.53510365E+01
 20
-1.91744636E+02
  0
SEQEND
  8
0
  0
POLYLINE
  8
0
 62
4
 66
1
  0
VERTEX
  8
0
 62
4
 10
-5.21500091E+01
 20
-1.91662270E+02
  0
VERTEX
  8
0
 62
4
 10
-5.21370777E+01
 20
-1.91954021E+02
  0
VERTEX
  8
0
 62
4
 10
-5.20983686E+01
 20
-1.92243551E+02
  0
VERTEX
  8
0
 62
4
 10
-5.20341765E+01
 20
-1.92528658E+02
  0
VERTEX
  8
0
 62
4
 10
-5.19449899E+01
 20
-1.92807172E+02
  0
VERTEX
  8
0
 62
4
 10
-5.18314875E+01
 20
-1.93076974E+02
  0
VERTEX
  8
0
 62
4
 10
-5.16945333E+01
 20
-1.93336009E+02
  0
VERTEX
  8
0
 62
4
 10
-5.15351694E+01
 20
-1.93582306E+02
  0
VERTEX
  8
0
 62
4
 10
-5.13546088E+01
 20
-1.93813992E+02
  0
VERTEX
  8
0
 62
4
 10
-5.11542256E+01
 20
-1.94029302E+02
  0
VERTEX
  8
0
 62
4
 10
-5.09355449E+01
 20
-1.94226598E+02
  0
VERTEX
  8
0
 62
4
 10
-5.07002309E+01
 20
-1.94404379E+02
  0
VERTEX
  8
0
 62
4
 10
-5.04500745E+01
 20
-1.94561291E+02
  0
VERTEX
  8
0
 62
4
 10
-5.01869797E+01
 20
-1.94696140E+02
  0
VERTEX
  8
0
 62
4
 10
-4.99129486E+01
 20
-1.94807901E+02
  0
VERTEX
  8
0
 62
4
 10
-4.96300668E+01
 20
-1.94895721E+02
  0
VERTEX
  8
0
 62
4
 10
-4.93404873E+01
 20
-1.94958934E+02
  0
VERTEX
  8
0
 62
4
 10
-4.90464139E+01
 20
-1.94997058E+02
  0
VERTEX
  8
0
 62
4
 10
-4.87500847E+01
 20
-1.95009803E+02
  0
VERTEX
  8
0
 62
4
 10
-4.84537548E+01
 20
-1.94997072E+02
  0
VERTEX
  8
0
 62
4
 10
-4.81596797E+01
 20
-1.94958961E+02
  0
VERTEX
  8
0
 62
4
 10
-4.78700973E+01
 20
-1.94895761E+02
  0
VERTEX
  8
0
 62
4
 10
-4.75872116E+01
 20
-1.94807953E+02
  0
VERTEX
  8
0
 62
4
 10
-4.73131755E+01
 20
-1.94696205E+02
  0
VERTEX
  8
0
 62
4
 10
-4.70500745E+01
 20
-1.94561367E+02
  0
VERTEX
  8
0
 62
4
 10
-4.67999111E+01
 20
-1.94404467E+02
  0
VERTEX
  8
0
 62
4
 10
-4.65645891E+01
 20
-1.94226696E+02
  0
VERTEX
  8
0
 62
4
 10
-4.63458995E+01
 20
-1.94029410E+02
  0
VERTEX
  8
0
 62
4
 10
-4.61455066E+01
 20
-1.93814109E+02
  0
VERTEX
  8
0
 62
4
 10
-4.59649355E+01
 20
-1.93582432E+02
  0
VERTEX
  8
0
 62
4
 10
-4.58055605E+01
 20
-1.93336142E+02
  0
VERTEX
  8
0
 62
4
 10
-4.56685946E+01
 20
-1.93077113E+02
  0
VERTEX
  8
0
 62
4
 10
-4.55550800E+01
 20
-1.92807317E+02
  0
VERTEX
  8
0
 62
4
 10
-4.54658808E+01
 20
-1.92528807E+02
  0
VERTEX
  8
0
 62
4
 10
-4.54016759E+01
 20
-1.92243702E+02
  0
VERTEX
  8
0
 62
4
 10
-4.53629537E+01
 20
-1.91954173E+02
  0
VERTEX
  8
0
 62
4
 10
-4.53500091E+01
 20
-1.91662424E+02
  0
VERTEX
  8
0
 62
4
 10
-4.53629405E+01
 20
-1.91370673E+02
  0
VERTEX
  8
0
 62
4
 10
-4.54016496E+01
 20
-1.91081143E+02
  0
VERTEX
  8
0
 62
4
 10
-4.54658417E+01
 20
-1.90796036E+02
  0
VERTEX
  8
0
 62
4
 10
-4.55550283E+01
 20
-1.90517522E+02
  0
VERTEX
  8
0
 62
4
 10
-4.56685307E+01
 20
-1.90247720E+02
  0
VERTEX
  8
0
 62
4
 10
-4.58054849E+01
 20
-1.89988685E+02
  0
VERTEX
  8
0
 62
4
 10
-4.59648488E+01
 20
-1.89742388E+02
  0
VERTEX
  8
0
 62
4
 10
-4.61454094E+01
 20
-1.89510702E+02
  0
VERTEX
  8
0
 62
4
 10
-4.63457926E+01
 20
-1.89295392E+02
  0
VERTEX
  8
0
 62
4
 10
-4.65644733E+01
 20
-1.89098096E+02
  0
VERTEX
  8
0
 62
4
 10
-4.67997873E+01
 20
-1.88920315E+02
  0
VERTEX
  8
0
 62
4
 10
-4.70499437E+01
 20
-1.88763403E+02
  0
VERTEX
  8
0
 62
4
 10
-4.73130385E+01
 20
-1.88628554E+02
  0
VERTEX
  8
0
 62
4
 10
-4.75870696E+01
 20
-1.88516793E+02
  0
VERTEX
  8
0
 62
4
 10
-4.78699514E+01
 20
-1.88428973E+02
  0
VERTEX
  8
0
 62
4
 10
-4.81595309E+01
 20
-1.88365760E+02
  0
VERTEX
  8
0
 62
4
 10
-4.84536043E+01
 20
-1.88327636E+02
  0
VERTEX
  8
0
 62
4
 10
-4.87499335E+01
 20
-1.88314891E+02
  0
VERTEX
  8
0
 62
4
 10
-4.90462634E+01
 20
-1.88327622E+02
  0
VERTEX
  8
0
 62
4
 10
-4.93403385E+01
 20
-1.88365733E+02
  0
VERTEX
  8
0
 62
4
 10
-4.96299209E+01
 20
-1.88428933E+02
  0
VERTEX
  8
0
 62
4
 10
-4.99128066E+01
 20
-1.88516741E+02
  0
VERTEX
  8
0
 62
4
 10
-5.01868427E+01
 20
-1.88628489E+02
  0
VERTEX
  8
0
 62
4
 10
-5.04499437E+01
 20
-1.88763327E+02
  0
VERTEX
  8
0
 62
4
 10
-5.07001071E+01
 20
-1.88920227E+02
  0
VERTEX
  8
0
 62
4
 10
-5.09354291E+01
 20
-1.89097998E+02
  0
VERTEX
  8
0
 62
4
 10
-5.11541187E+01
 20
-1.89295284E+02
  0
VERTEX
  8
0
 62
4
 10
-5.13545116E+01
 20
-1.89510585E+02
  0
VERTEX
  8
0
 62
4
 10
-5.15350827E+01
 20
-1.89742262E+02
  0
VERTEX
  8
0
 62
4
 10
-5.16944577E+01
 20
-1.89988552E+02
  0
VERTEX
  8
0
 62
4
 10
-5.18314236E+01
 20
-1.90247581E+02
  0
VERTEX
  8
0
 62
4
 10
-5.19449382E+01
 20
-1.90517377E+02
  0
VERTEX
  8
0
 62
4
 10
-5.20341374E+01
 20
-1.90795887E+02
  0
VERTEX
  8
0
 62
4
 10
-5.20983423E+01
 20
-1.91080992E+02
  0
VERTEX
  8
0
 62
4
 10
-5.21370645E+01
 20
-1.91370521E+02
  0
VERTEX
  8
0
 62
4
 10
-5.21500091E+01
 20
-1.91662270E+02
  0
SEQEND
  8
0
  0
LINE
  8
0
 62
4
 10
-5.77499961E+01
 20
-2.07740352E+02
 11
-2.43747179E+01
 21
-2.07740329E+02
  0
LINE
  8
0
 62
4
 10
-5.77499961E+01
 20
-2.06804750E+02
 11
-2.43747179E+01
 21
-2.06804726E+02
  0
LINE
  8
0
 62
4
 10
-5.77499961E+01
 20
-2.04933545E+02
 11
-2.43747179E+01
 21
-2.04933521E+02
  0
LINE
  8
0
 62
4
 10
-5.77499961E+01
 20
-2.03997942E+02
 11
-2.43747179E+01
 21
-2.03997918E+02
  0
LINE
  8
0
 62
4
 10
-2.43747179E+01
 20
-2.03997942E+02
 11
-2.17500035E+01
 21
-1.99461589E+02
  0
LINE
  8
0
 62
4
 10
-5.77499961E+01
 20
-2.03997942E+02
 11
-6.07500035E+01
 21
-1.99461617E+02
  0
LINE
  8
0
 62
4
 10
-2.43747179E+01
 20
-2.08557721E+02
 11
-2.43747179E+01
 21
-2.03997942E+02
  0
LINE
  8
0
 62
4
 10
-5.77499961E+01
 20
-2.08557721E+02
 11
-5.77499961E+01
 21
-2.03997942E+02
  0
LINE
  8
0
  6
CENTER
 62
6
 10
-4.87500047E+01
 20
-1.97801216E+02
 11
-4.87500139E+01
 21
-1.85001216E+02
  0
LINE
  8
0
  6
CENTER
 62
6
 10
-5.51500093E+01
 20
-1.91397512E+02
 11
-4.23500093E+01
 21
-1.91397503E+02
  0
LINE
  8
0
 62
4
 10
-5.62500304E+01
 20
-1.57358725E+02
 11
-4.12500304E+01
 21
-1.57358714E+02
  0
LINE
  8
0
 62
4
 10
-5.82500125E+01
 20
-1.81396605E+02
 11
-3.92500125E+01
 21
-1.81396591E+02
  0
LINE
  8
0
 62
4
 10
-6.07500126E+01
 20
-1.86754378E+02
 11
-6.07500035E+01
 21
-1.99461617E+02
  0
LINE
  8
0
 62
4
 10
-5.82500125E+01
 20
-1.81396591E+02
 11
-5.82500097E+01
 21
-1.85258075E+02
  0
LINE
  8
0
 62
4
 10
-4.12500304E+01
 20
-1.57358725E+02
 11
-4.12500132E+01
 21
-1.81396593E+02
  0
LINE
  8
0
 62
4
 10
-5.62500304E+01
 20
-1.57358725E+02
 11
-5.62500132E+01
 21
-1.81396603E+02
  0
LINE
  8
0
 62
4
 10
-3.92500125E+01
 20
-1.81396591E+02
 11
-3.92500097E+01
 21
-1.85258075E+02
  0
LINE
  8
0
 62
4
 10
-5.62500136E+01
 20
-1.80834267E+02
 11
-4.12500136E+01
 21
-1.80834256E+02
  0
LINE
  8
0
 62
4
 10
-2.17500126E+01
 20
-1.86754350E+02
 11
-2.17500035E+01
 21
-1.99461592E+02
  0
LINE
  8
0
 62
4
 10
-6.07500035E+01
 20
-1.99461617E+02
 11
-2.17500035E+01
 21
-1.99461589E+02
  0
LINE
  8
0
 62
4
 10
-6.07500046E+01
 20
-1.97994395E+02
 11
-2.17500046E+01
 21
-1.97994367E+02
  0
LINE
  8
0
 62
4
 10
-5.92500096E+01
 20
-1.85254377E+02
 11
-2.32500096E+01
 21
-1.85254351E+02
  0
LINE
  8
0
 62
4
 10
-7.57500314E+01
 20
-1.57454549E+02
 11
-7.07500314E+01
 21
-1.57454545E+02
  0
LINE
  8
0
 62
4
 10
-7.57500309E+01
 20
-1.59771177E+02
 11
-7.07500309E+01
 21
-1.59771173E+02
  0
LINE
  8
0
 62
4
 10
-7.57500234E+01
 20
-1.67117065E+02
 11
-7.07500234E+01
 21
-1.67117061E+02
  0
LINE
  8
0
 62
4
 10
-7.57500209E+01
 20
-1.72136548E+02
 11
-7.07500209E+01
 21
-1.72136545E+02
  0
LINE
  8
0
 62
4
 10
-6.52500151E+01
 20
-1.71789492E+02
 11
-5.67500151E+01
 21
-1.71789486E+02
  0
LINE
  8
0
 62
4
 10
-5.62500251E+01
 20
-1.57789485E+02
 11
-6.52500251E+01
 21
-1.57789492E+02
  0
LINE
  8
0
 62
4
 10
-6.57500247E+01
 20
-1.58289492E+02
 11
-6.57500154E+01
 21
-1.71289492E+02
  0
LINE
  8
0
 62
4
 10
-7.57500314E+01
 20
-1.57454549E+02
 11
-7.57500209E+01
 21
-1.72136548E+02
  0
LINE
  8
0
 62
4
 10
-7.07500314E+01
 20
-1.57454545E+02
 11
-7.07500209E+01
 21
-1.72136545E+02
  0
LINE
  8
0
 62
4
 10
-7.07500245E+01
 20
-1.58535781E+02
 11
-6.57500245E+01
 21
-1.58535777E+02
  0
LINE
  8
0
 62
4
 10
-7.07500156E+01
 20
-1.71035781E+02
 11
-6.57500156E+01
 21
-1.71035777E+02
  0
LINE
  8
0
 62
4
 10
-6.92500245E+01
 20
-1.58535780E+02
 11
-6.92500156E+01
 21
-1.71035780E+02
  0
LINE
  8
0
 62
4
 10
-6.92500242E+01
 20
-1.59035780E+02
 11
-6.57500242E+01
 21
-1.59035777E+02
  0
LINE
  8
0
 62
4
 10
-6.92500159E+01
 20
-1.70535780E+02
 11
-6.57500159E+01
 21
-1.70535777E+02
  0
ARC
  8
0
 62
4
 10
-6.52505167E+01
 20
-1.58289000E+02
 40
4.99508251E-01
 50
8.99436074E+01
 51
1.80056475E+02
  0
ARC
  8
0
 62
4
 10
-5.67495074E+01
 20
-1.72288978E+02
 40
4.99492993E-01
 50
3.59941854E+02
 51
9.00582282E+01
  0
ARC
  8
0
 62
4
 10
-2.32495011E+01
 20
-1.86753844E+02
 40
1.49949266E+00
 50
3.59980652E+02
 51
9.00194298E+01
  0
ARC
  8
0
 62
4
 10
-6.52495077E+01
 20
-1.71288984E+02
 40
5.00508007E-01
 50
1.80058166E+02
 51
2.69941916E+02
  0
ARC
  8
0
 62
4
 10
-5.92505007E+01
 20
-1.86753885E+02
 40
1.49950792E+00
 50
8.99812358E+01
 51
1.80018846E+02
  0
LINE
  8
0
 62
4
 10
-2.55389221E+02
 20
-1.94169416E+02
 11
-2.60633742E+02
 21
-2.10323396E+02
  0
ARC
  8
0
 62
4
 10
-2.42207897E+02
 20
-1.64785777E+02
 40
7.00000000E+00
 50
1.10107658E+02
 51
1.33018360E+02
  0
LINE
  8
0
 62
4
 10
-2.55389221E+02
 20
-1.94169416E+02
 11
-2.48540738E+02
 21
-1.92713726E+02
  0
LINE
  8
0
 62
4
 10
-2.47262562E+02
 20
-2.01131936E+02
 11
-2.46773488E+02
 21
-2.01027980E+02
  0
LINE
  8
0
 62
4
 10
-2.47647680E+02
 20
-2.01724966E+02
 11
-2.46833012E+02
 21
-2.05557675E+02
  0
LINE
  8
0
 62
4
 10
-2.50792247E+02
 20
-1.60477400E+02
 11
-2.46009106E+02
 21
-1.59460712E+02
  0
LINE
  8
0
 62
4
 10
-2.36120033E+02
 20
-1.57358725E+02
 11
-2.30922241E+02
 21
-1.81812415E+02
  0
LINE
  8
0
 62
4
 10
-2.50792247E+02
 20
-1.60477400E+02
 11
-2.45594455E+02
 21
-1.84931090E+02
  0
LINE
  8
0
 62
4
 10
-2.47550750E+02
 20
-1.85346913E+02
 11
-2.28965946E+02
 21
-1.81396591E+02
  0
LINE
  8
0
 62
4
 10
-2.45802367E+02
 20
-1.83952942E+02
 11
-2.31130153E+02
 21
-1.80834267E+02
  0
LINE
  8
0
 62
4
 10
-2.28965946E+02
 20
-1.81396591E+02
 11
-2.28134299E+02
 21
-1.85309182E+02
  0
LINE
  8
0
 62
4
 10
-2.47550750E+02
 20
-1.85346913E+02
 11
-2.46719104E+02
 21
-1.89259504E+02
  0
LINE
  8
0
 62
4
 10
-2.46719104E+02
 20
-1.89259504E+02
 11
-2.28134299E+02
 21
-1.85309182E+02
  0
LINE
  8
0
 62
4
 10
-2.46045797E+02
 20
-2.04451497E+02
 11
-2.22570255E+02
 21
-1.99461617E+02
  0
LINE
  8
0
 62
4
 10
-2.25169151E+02
 20
-1.87234771E+02
 11
-2.22570255E+02
 21
-1.99461617E+02
  0
LINE
  8
0
 62
4
 10
-2.48644693E+02
 20
-1.92224652E+02
 11
-2.46045797E+02
 21
-2.04451497E+02
  0
LINE
  8
0
 62
4
 10
-2.46045797E+02
 20
-2.04451497E+02
 11
-2.44779106E+02
 21
-2.05557675E+02
  0
LINE
  8
0
 62
4
 10
-2.22570255E+02
 20
-1.99461617E+02
 11
-2.24673051E+02
 21
-2.03997942E+02
  0
LINE
  8
0
 62
4
 10
-2.29074715E+02
 20
-2.04933545E+02
 11
-2.24673051E+02
 21
-2.03997942E+02
  0
LINE
  8
0
 62
4
 10
-2.46357665E+02
 20
-2.02984276E+02
 11
-2.22882122E+02
 21
-1.97994395E+02
  0
LINE
  8
0
 62
4
 10
-2.37719703E+02
 20
-1.95525347E+02
 11
-2.33807113E+02
 21
-1.94693700E+02
  0
LINE
  8
0
 62
4
 10
-2.37199924E+02
 20
-1.97970716E+02
 11
-2.33287333E+02
 21
-1.97139069E+02
  0
LINE
  8
0
 62
4
 10
-2.37719703E+02
 20
-1.95525347E+02
 11
-2.37199924E+02
 21
-1.97970716E+02
  0
LINE
  8
0
 62
4
 10
-2.33807113E+02
 20
-1.94693700E+02
 11
-2.33287333E+02
 21
-1.97139069E+02
  0
LINE
  8
0
 62
4
 10
-2.40647253E+02
 20
-1.72132836E+02
 11
-2.35068963E+02
 21
-1.67113357E+02
  0
LINE
  8
0
 62
4
 10
-2.49346299E+02
 20
-1.62470320E+02
 11
-2.43768008E+02
 21
-1.57450841E+02
  0
LINE
  8
0
 62
4
 10
-2.49346299E+02
 20
-1.62470320E+02
 11
-2.47784882E+02
 21
-1.69816209E+02
  0
LINE
  8
0
 62
4
 10
-2.36630380E+02
 20
-1.59767468E+02
 11
-2.35068963E+02
 21
-1.67113357E+02
  0
LINE
  8
0
 62
4
 10
-2.47784882E+02
 20
-1.69816209E+02
 11
-2.40647253E+02
 21
-1.72132836E+02
  0
LINE
  8
0
 62
4
 10
-2.43768008E+02
 20
-1.57450841E+02
 11
-2.36630380E+02
 21
-1.59767468E+02
  0
LINE
  8
0
 62
4
 10
-2.40912957E+02
 20
-1.58377492E+02
 11
-2.36120033E+02
 21
-1.57358725E+02
  0
LINE
  8
0
 62
4
 10
-2.24961239E+02
 20
-1.88212919E+02
 11
-2.24472165E+02
 21
-1.88108963E+02
  0
LINE
  8
0
 62
4
 10
-2.23297946E+02
 20
-1.96038100E+02
 11
-2.22808872E+02
 21
-1.95934144E+02
  0
LINE
  8
0
 62
4
 10
-2.24347418E+02
 20
-1.88695852E+02
 11
-2.22655223E+02
 21
-1.88336165E+02
  0
LINE
  8
0
 62
4
 10
-2.21241424E+02
 20
-1.94987568E+02
 11
-2.22933619E+02
 21
-1.95347255E+02
  0
LINE
  8
0
  6
CENTER
 62
6
 10
-2.54872772E+02
 20
-1.98660174E+02
 11
-2.17771633E+02
 21
-1.90774084E+02
  0
LINE
  8
0
 62
4
 10
-2.24472165E+02
 20
-1.88108963E+02
 11
-2.22808872E+02
 21
-1.95934144E+02
  0
ARC
  8
0
 62
4
 10
-2.47158605E+02
 20
-2.01621011E+02
 40
5.00000533E-01
 50
1.02000061E+02
 51
1.91999939E+02
  0
ARC
  8
0
 62
4
 10
-2.32258764E+02
 20
-1.93831622E+02
 40
1.18077645E+01
 50
3.59024145E+02
 51
2.47266957E+01
  0
ARC
  8
0
 62
4
 10
-2.46199303E+02
 20
-1.91704887E+02
 40
2.50001831E+00
 50
1.02000420E+02
 51
1.91999580E+02
  0
ARC
  8
0
 62
4
 10
-2.27613762E+02
 20
-1.87753383E+02
 40
2.49901570E+00
 50
1.19774281E+01
 51
1.02022572E+02
  0
ARC
  8
0
 62
4
 10
-2.31475434E+02
 20
-2.15282857E+02
 40
1.06241099E+01
 50
7.69401406E+01
 51
1.13739125E+02
  0
CIRCLE
  8
0
 62
4
 10
-2.42207897E+02
 20
-1.64785777E+02
 40
3.75000000E+00
  0
ARC
  8
0
 62
4
 10
-2.21450965E+02
 20
-1.94011322E+02
 40
9.98481423E-01
 50
2.82114125E+02
 51
3.58771982E+02
  0
ARC
  8
0
 62
4
 10
-2.22450455E+02
 20
-1.89311003E+02
 40
9.96112687E-01
 50
2.45301420E+01
 51
1.01862685E+02
  0
ARC
  8
0
 62
4
 10
-2.42207897E+02
 20
-1.64785777E+02
 40
7.00000000E+00
 50
7.09816396E+01
 51
9.39142840E+01
  0
LINE
  8
0
 62
4
 10
-2.60633742E+02
 20
-2.10323396E+02
 11
-2.58750031E+02
 21
-2.19185564E+02
  0
LINE
  8
0
  6
CENTER
 62
6
 10
-2.62852010E+02
 20
-2.16192269E+02
 11
-2.58750031E+02
 21
-2.15320367E+02
  0
LINE
  8
0
 62
6
 10
-2.61334433E+02
 20
-2.17403209E+02
 11
-2.59224222E+02
 21
-2.16954670E+02
  0
LINE
  8
0
 62
4
 10
-2.61081897E+02
 20
-2.13781562E+02
 11
-2.59949833E+02
 21
-2.13540935E+02
  0
LINE
  8
0
 62
4
 10
-2.60252329E+02
 20
-2.17684371E+02
 11
-2.59120266E+02
 21
-2.17443744E+02
  0
LINE
  8
0
 62
4
 10
-2.62005988E+02
 20
-2.14243792E+02
 11
-2.61284534E+02
 21
-2.17637965E+02
  0
LINE
  8
0
 62
4
 10
-2.61081897E+02
 20
-2.13781562E+02
 11
-2.62005988E+02
 21
-2.14243792E+02
  0
LINE
  8
0
 62
4
 10
-2.60252329E+02
 20
-2.17684371E+02
 11
-2.61284534E+02
 21
-2.17637965E+02
  0
LINE
  8
0
 62
6
 10
-2.61958168E+02
 20
-2.14468766E+02
 11
-2.59847957E+02
 21
-2.14020227E+02
  0
LINE
  8
0
 62
4
 10
9.72336423E+01
 20
-1.94169416E+02
 11
1.02478164E+02
 21
-2.10323396E+02
  0
LINE
  8
0
 62
4
 10
7.64076513E+01
 20
-1.85653353E+02
 11
8.25504183E+01
 21
-1.86959038E+02
  0
LINE
  8
0
  6
CENTER
 62
6
 10
7.98298354E+01
 20
-1.84655808E+02
 11
7.89613347E+01
 21
-1.88741783E+02
  0
LINE
  8
0
 62
4
 10
7.58476065E+01
 20
-1.86556652E+02
 11
7.64076513E+01
 21
-1.85653353E+02
  0
LINE
  8
0
 62
4
 10
8.25504183E+01
 20
-1.86959038E+02
 11
8.26946397E+01
 21
-1.88012034E+02
  0
ARC
  8
0
 62
4
 10
6.42948767E+01
 20
-1.89311003E+02
 40
9.96112687E-01
 50
7.81373153E+01
 51
1.55469858E+02
  0
ARC
  8
0
 62
4
 10
6.32953859E+01
 20
-1.94011322E+02
 40
9.98481423E-01
 50
1.81228019E+02
 51
2.57885875E+02
  0
ARC
  8
0
 62
4
 10
7.33198549E+01
 20
-2.15282857E+02
 40
1.06241099E+01
 50
6.62608748E+01
 51
1.03059860E+02
  0
ARC
  8
0
 62
4
 10
6.94581830E+01
 20
-1.87753383E+02
 40
2.49901570E+00
 50
7.79774280E+01
 51
1.68022572E+02
  0
ARC
  8
0
 62
4
 10
8.80437240E+01
 20
-1.91704887E+02
 40
2.50001831E+00
 50
3.48000420E+02
 51
7.79995802E+01
  0
ARC
  8
0
 62
4
 10
7.41031857E+01
 20
-1.93831622E+02
 40
1.18077645E+01
 50
1.55273304E+02
 51
1.80975855E+02
  0
ARC
  8
0
 62
4
 10
8.90030269E+01
 20
-2.01621011E+02
 40
5.00000533E-01
 50
3.48000061E+02
 51
7.79999389E+01
  0
LINE
  8
0
 62
4
 10
6.63165868E+01
 20
-1.88108963E+02
 11
6.46532933E+01
 21
-1.95934144E+02
  0
LINE
  8
0
  6
CENTER
 62
6
 10
9.67171930E+01
 20
-1.98660174E+02
 11
5.96160545E+01
 21
-1.90774084E+02
  0
LINE
  8
0
 62
4
 10
6.30858450E+01
 20
-1.94987568E+02
 11
6.47780403E+01
 21
-1.95347255E+02
  0
LINE
  8
0
 62
4
 10
6.61918398E+01
 20
-1.88695852E+02
 11
6.44996445E+01
 21
-1.88336165E+02
  0
LINE
  8
0
 62
4
 10
6.51423671E+01
 20
-1.96038100E+02
 11
6.46532933E+01
 21
-1.95934144E+02
  0
LINE
  8
0
 62
4
 10
6.68056606E+01
 20
-1.88212919E+02
 11
6.63165868E+01
 21
-1.88108963E+02
  0
LINE
  8
0
 62
4
 10
8.56124293E+01
 20
-1.57450841E+02
 11
8.45301911E+01
 21
-1.57802098E+02
  0
LINE
  8
0
 62
4
 10
8.64582694E+01
 20
-1.58211948E+02
 11
8.56124293E+01
 21
-1.57450841E+02
  0
LINE
  8
0
 62
4
 10
7.56515340E+01
 20
-1.94693700E+02
 11
7.51317548E+01
 21
-1.97139069E+02
  0
LINE
  8
0
 62
4
 10
7.95641245E+01
 20
-1.95525347E+02
 11
7.90443452E+01
 21
-1.97970716E+02
  0
LINE
  8
0
 62
4
 10
7.90443452E+01
 20
-1.97970716E+02
 11
7.51317548E+01
 21
-1.97139069E+02
  0
LINE
  8
0
 62
4
 10
7.95641245E+01
 20
-1.95525347E+02
 11
7.56515340E+01
 21
-1.94693700E+02
  0
LINE
  8
0
 62
4
 10
8.82020862E+01
 20
-2.02984276E+02
 11
6.47265437E+01
 21
-1.97994395E+02
  0
LINE
  8
0
 62
4
 10
7.09191364E+01
 20
-2.04933545E+02
 11
6.65174722E+01
 21
-2.03997942E+02
  0
LINE
  8
0
 62
4
 10
6.44146762E+01
 20
-1.99461617E+02
 11
6.65174722E+01
 21
-2.03997942E+02
  0
LINE
  8
0
 62
4
 10
8.78902186E+01
 20
-2.04451497E+02
 11
8.66235271E+01
 21
-2.05557675E+02
  0
LINE
  8
0
 62
4
 10
9.04891148E+01
 20
-1.92224652E+02
 11
8.78902186E+01
 21
-2.04451497E+02
  0
LINE
  8
0
 62
4
 10
6.70135723E+01
 20
-1.87234771E+02
 11
6.44146762E+01
 21
-1.99461617E+02
  0
LINE
  8
0
 62
4
 10
8.78902186E+01
 20
-2.04451497E+02
 11
6.44146762E+01
 21
-1.99461617E+02
  0
LINE
  8
0
 62
4
 10
8.85635250E+01
 20
-1.89259504E+02
 11
6.99787206E+01
 21
-1.85309182E+02
  0
LINE
  8
0
 62
4
 10
8.93951717E+01
 20
-1.85346913E+02
 11
8.85635250E+01
 21
-1.89259504E+02
  0
LINE
  8
0
 62
4
 10
7.08103673E+01
 20
-1.81396591E+02
 11
6.99787206E+01
 21
-1.85309182E+02
  0
LINE
  8
0
 62
4
 10
8.76467882E+01
 20
-1.83952942E+02
 11
7.29745742E+01
 21
-1.80834267E+02
  0
LINE
  8
0
 62
4
 10
8.93951717E+01
 20
-1.85346913E+02
 11
7.08103673E+01
 21
-1.81396591E+02
  0
LINE
  8
0
 62
4
 10
9.26366688E+01
 20
-1.60477400E+02
 11
8.74388765E+01
 21
-1.84931090E+02
  0
LINE
  8
0
 62
4
 10
7.79644548E+01
 20
-1.57358725E+02
 11
7.27666625E+01
 21
-1.81812415E+02
  0
LINE
  8
0
 62
4
 10
7.79644548E+01
 20
-1.57358725E+02
 11
9.26366688E+01
 21
-1.60477400E+02
  0
LINE
  8
0
 62
4
 10
8.94921013E+01
 20
-2.01724966E+02
 11
8.86774338E+01
 21
-2.05557675E+02
  0
LINE
  8
0
 62
4
 10
8.91069833E+01
 20
-2.01131936E+02
 11
8.86179095E+01
 21
-2.01027980E+02
  0
LINE
  8
0
 62
4
 10
9.72336423E+01
 20
-1.94169416E+02
 11
9.03851589E+01
 21
-1.92713726E+02
  0
ARC
  8
0
 62
4
 10
8.40532643E+01
 20
-1.64785832E+02
 40
7.00000000E+00
 50
4.69793705E+01
 51
1.09020630E+02
  0
LINE
  8
0
 62
6
 10
1.03802589E+02
 20
-2.14468766E+02
 11
1.01692378E+02
 21
-2.14020227E+02
  0
LINE
  8
0
 62
4
 10
1.02096751E+02
 20
-2.17684371E+02
 11
1.03128955E+02
 21
-2.17637965E+02
  0
LINE
  8
0
 62
4
 10
1.02926318E+02
 20
-2.13781562E+02
 11
1.03850409E+02
 21
-2.14243792E+02
  0
LINE
  8
0
 62
4
 10
1.03850409E+02
 20
-2.14243792E+02
 11
1.03128955E+02
 21
-2.17637965E+02
  0
LINE
  8
0
 62
4
 10
1.02096751E+02
 20
-2.17684371E+02
 11
1.00964687E+02
 21
-2.17443744E+02
  0
LINE
  8
0
 62
4
 10
1.02926318E+02
 20
-2.13781562E+02
 11
1.01794255E+02
 21
-2.13540935E+02
  0
LINE
  8
0
 62
6
 10
1.03178854E+02
 20
-2.17403209E+02
 11
1.01068643E+02
 21
-2.16954670E+02
  0
LINE
  8
0
  6
CENTER
 62
6
 10
1.04696431E+02
 20
-2.16192269E+02
 11
1.00594452E+02
 21
-2.15320367E+02
  0
LINE
  8
0
 62
4
 10
1.02478164E+02
 20
-2.10323396E+02
 11
1.00548864E+02
 21
-2.19400039E+02
  0
LINE
  8
0
 62
4
 10
-5.82499487E+01
 20
-1.01173376E+02
 11
-3.92499487E+01
 21
-1.01173376E+02
  0
POLYLINE
  8
0
 62
4
 66
1
  0
VERTEX
  8
0
 62
4
 10
-2.96099487E+01
 20
-9.16730616E+01
  0
VERTEX
  8
0
 62
4
 10
-2.96218973E+01
 20
-9.14053729E+01
  0
VERTEX
  8
0
 62
4
 10
-2.96576524E+01
 20
-9.11397215E+01
  0
VERTEX
  8
0
 62
4
 10
-2.97169416E+01
 20
-9.08781291E+01
  0
VERTEX
  8
0
 62
4
 10
-2.97993139E+01
 20
-9.06225866E+01
  0
VERTEX
  8
0
 62
4
 10
-2.99041422E+01
 20
-9.03750389E+01
  0
VERTEX
  8
0
 62
4
 10
-3.00306289E+01
 20
-9.01373699E+01
  0
VERTEX
  8
0
 62
4
 10
-3.01778113E+01
 20
-8.99113884E+01
  0
VERTEX
  8
0
 62
4
 10
-3.03445691E+01
 20
-8.96988144E+01
  0
VERTEX
  8
0
 62
4
 10
-3.05296334E+01
 20
-8.95012655E+01
  0
VERTEX
  8
0
 62
4
 10
-3.07315956E+01
 20
-8.93202454E+01
  0
VERTEX
  8
0
 62
4
 10
-3.09489187E+01
 20
-8.91571316E+01
  0
VERTEX
  8
0
 62
4
 10
-3.11799487E+01
 20
-8.90131655E+01
  0
VERTEX
  8
0
 62
4
 10
-3.14229274E+01
 20
-8.88894428E+01
  0
VERTEX
  8
0
 62
4
 10
-3.16760055E+01
 20
-8.87869052E+01
  0
VERTEX
  8
0
 62
4
 10
-3.19372569E+01
 20
-8.87063330E+01
  0
VERTEX
  8
0
 62
4
 10
-3.22046934E+01
 20
-8.86483393E+01
  0
VERTEX
  8
0
 62
4
 10
-3.24762797E+01
 20
-8.86133657E+01
  0
VERTEX
  8
0
 62
4
 10
-3.27499487E+01
 20
-8.86016781E+01
  0
VERTEX
  8
0
 62
4
 10
-3.30236177E+01
 20
-8.86133657E+01
  0
VERTEX
  8
0
 62
4
 10
-3.32952040E+01
 20
-8.86483393E+01
  0
VERTEX
  8
0
 62
4
 10
-3.35626405E+01
 20
-8.87063330E+01
  0
VERTEX
  8
0
 62
4
 10
-3.38238920E+01
 20
-8.87869052E+01
  0
VERTEX
  8
0
 62
4
 10
-3.40769700E+01
 20
-8.88894428E+01
  0
VERTEX
  8
0
 62
4
 10
-3.43199487E+01
 20
-8.90131655E+01
  0
VERTEX
  8
0
 62
4
 10
-3.45509787E+01
 20
-8.91571316E+01
  0
VERTEX
  8
0
 62
4
 10
-3.47683018E+01
 20
-8.93202454E+01
  0
VERTEX
  8
0
 62
4
 10
-3.49702640E+01
 20
-8.95012655E+01
  0
VERTEX
  8
0
 62
4
 10
-3.51553283E+01
 20
-8.96988144E+01
  0
VERTEX
  8
0
 62
4
 10
-3.53220861E+01
 20
-8.99113884E+01
  0
VERTEX
  8
0
 62
4
 10
-3.54692685E+01
 20
-9.01373699E+01
  0
VERTEX
  8
0
 62
4
 10
-3.55957552E+01
 20
-9.03750389E+01
  0
VERTEX
  8
0
 62
4
 10
-3.57005835E+01
 20
-9.06225866E+01
  0
VERTEX
  8
0
 62
4
 10
-3.57829558E+01
 20
-9.08781291E+01
  0
VERTEX
  8
0
 62
4
 10
-3.58422450E+01
 20
-9.11397215E+01
  0
VERTEX
  8
0
 62
4
 10
-3.58780001E+01
 20
-9.14053729E+01
  0
VERTEX
  8
0
 62
4
 10
-3.58899487E+01
 20
-9.16730616E+01
  0
VERTEX
  8
0
 62
4
 10
-3.58780001E+01
 20
-9.19407503E+01
  0
VERTEX
  8
0
 62
4
 10
-3.58422450E+01
 20
-9.22064017E+01
  0
VERTEX
  8
0
 62
4
 10
-3.57829558E+01
 20
-9.24679941E+01
  0
VERTEX
  8
0
 62
4
 10
-3.57005835E+01
 20
-9.27235366E+01
  0
VERTEX
  8
0
 62
4
 10
-3.55957551E+01
 20
-9.29710843E+01
  0
VERTEX
  8
0
 62
4
 10
-3.54692685E+01
 20
-9.32087533E+01
  0
VERTEX
  8
0
 62
4
 10
-3.53220861E+01
 20
-9.34347348E+01
  0
VERTEX
  8
0
 62
4
 10
-3.51553282E+01
 20
-9.36473088E+01
  0
VERTEX
  8
0
 62
4
 10
-3.49702640E+01
 20
-9.38448577E+01
  0
VERTEX
  8
0
 62
4
 10
-3.47683018E+01
 20
-9.40258778E+01
  0
VERTEX
  8
0
 62
4
 10
-3.45509787E+01
 20
-9.41889917E+01
  0
VERTEX
  8
0
 62
4
 10
-3.43199487E+01
 20
-9.43329577E+01
  0
VERTEX
  8
0
 62
4
 10
-3.40769700E+01
 20
-9.44566804E+01
  0
VERTEX
  8
0
 62
4
 10
-3.38238919E+01
 20
-9.45592180E+01
  0
VERTEX
  8
0
 62
4
 10
-3.35626405E+01
 20
-9.46397902E+01
  0
VERTEX
  8
0
 62
4
 10
-3.32952040E+01
 20
-9.46977839E+01
  0
VERTEX
  8
0
 62
4
 10
-3.30236177E+01
 20
-9.47327575E+01
  0
VERTEX
  8
0
 62
4
 10
-3.27499487E+01
 20
-9.47444451E+01
  0
VERTEX
  8
0
 62
4
 10
-3.24762797E+01
 20
-9.47327575E+01
  0
VERTEX
  8
0
 62
4
 10
-3.22046934E+01
 20
-9.46977839E+01
  0
VERTEX
  8
0
 62
4
 10
-3.19372569E+01
 20
-9.46397902E+01
  0
VERTEX
  8
0
 62
4
 10
-3.16760054E+01
 20
-9.45592180E+01
  0
VERTEX
  8
0
 62
4
 10
-3.14229274E+01
 20
-9.44566804E+01
  0
VERTEX
  8
0
 62
4
 10
-3.11799487E+01
 20
-9.43329577E+01
  0
VERTEX
  8
0
 62
4
 10
-3.09489187E+01
 20
-9.41889916E+01
  0
VERTEX
  8
0
 62
4
 10
-3.07315956E+01
 20
-9.40258778E+01
  0
VERTEX
  8
0
 62
4
 10
-3.05296334E+01
 20
-9.38448577E+01
  0
VERTEX
  8
0
 62
4
 10
-3.03445691E+01
 20
-9.36473088E+01
  0
VERTEX
  8
0
 62
4
 10
-3.01778113E+01
 20
-9.34347348E+01
  0
VERTEX
  8
0
 62
4
 10
-3.00306289E+01
 20
-9.32087533E+01
  0
VERTEX
  8
0
 62
4
 10
-2.99041422E+01
 20
-9.29710843E+01
  0
VERTEX
  8
0
 62
4
 10
-2.97993139E+01
 20
-9.27235366E+01
  0
VERTEX
  8
0
 62
4
 10
-2.97169416E+01
 20
-9.24679941E+01
  0
VERTEX
  8
0
 62
4
 10
-2.96576524E+01
 20
-9.22064017E+01
  0
VERTEX
  8
0
 62
4
 10
-2.96218973E+01
 20
-9.19407503E+01
  0
VERTEX
  8
0
 62
4
 10
-2.96099487E+01
 20
-9.16730616E+01
  0
SEQEND
  8
0
  0
POLYLINE
  8
0
 62
4
 66
1
  0
VERTEX
  8
0
 62
4
 10
-2.92499487E+01
 20
-9.18809733E+01
  0
VERTEX
  8
0
 62
4
 10
-2.92632673E+01
 20
-9.15825942E+01
  0
VERTEX
  8
0
 62
4
 10
-2.93031216E+01
 20
-9.12864859E+01
  0
VERTEX
  8
0
 62
4
 10
-2.93692083E+01
 20
-9.09949020E+01
  0
VERTEX
  8
0
 62
4
 10
-2.94610245E+01
 20
-9.07100617E+01
  0
VERTEX
  8
0
 62
4
 10
-2.95778714E+01
 20
-9.04341327E+01
  0
VERTEX
  8
0
 62
4
 10
-2.97188598E+01
 20
-9.01692150E+01
  0
VERTEX
  8
0
 62
4
 10
-2.98829165E+01
 20
-8.99173248E+01
  0
VERTEX
  8
0
 62
4
 10
-3.00687931E+01
 20
-8.96803792E+01
  0
VERTEX
  8
0
 62
4
 10
-3.02750750E+01
 20
-8.94601815E+01
  0
VERTEX
  8
0
 62
4
 10
-3.05001921E+01
 20
-8.92584074E+01
  0
VERTEX
  8
0
 62
4
 10
-3.07424312E+01
 20
-8.90765927E+01
  0
VERTEX
  8
0
 62
4
 10
-3.09999487E+01
 20
-8.89161210E+01
  0
VERTEX
  8
0
 62
4
 10
-3.12707848E+01
 20
-8.87782135E+01
  0
VERTEX
  8
0
 62
4
 10
-3.15528782E+01
 20
-8.86639200E+01
  0
VERTEX
  8
0
 62
4
 10
-3.18440820E+01
 20
-8.85741102E+01
  0
VERTEX
  8
0
 62
4
 10
-3.21421801E+01
 20
-8.85094676E+01
  0
VERTEX
  8
0
 62
4
 10
-3.24449036E+01
 20
-8.84704842E+01
  0
VERTEX
  8
0
 62
4
 10
-3.27499487E+01
 20
-8.84574567E+01
  0
VERTEX
  8
0
 62
4
 10
-3.30549938E+01
 20
-8.84704842E+01
  0
VERTEX
  8
0
 62
4
 10
-3.33577173E+01
 20
-8.85094676E+01
  0
VERTEX
  8
0
 62
4
 10
-3.36558154E+01
 20
-8.85741102E+01
  0
VERTEX
  8
0
 62
4
 10
-3.39470192E+01
 20
-8.86639200E+01
  0
VERTEX
  8
0
 62
4
 10
-3.42291126E+01
 20
-8.87782135E+01
  0
VERTEX
  8
0
 62
4
 10
-3.44999487E+01
 20
-8.89161210E+01
  0
VERTEX
  8
0
 62
4
 10
-3.47574662E+01
 20
-8.90765927E+01
  0
VERTEX
  8
0
 62
4
 10
-3.49997053E+01
 20
-8.92584074E+01
  0
VERTEX
  8
0
 62
4
 10
-3.52248224E+01
 20
-8.94601815E+01
  0
VERTEX
  8
0
 62
4
 10
-3.54311043E+01
 20
-8.96803793E+01
  0
VERTEX
  8
0
 62
4
 10
-3.56169809E+01
 20
-8.99173249E+01
  0
VERTEX
  8
0
 62
4
 10
-3.57810376E+01
 20
-9.01692150E+01
  0
VERTEX
  8
0
 62
4
 10
-3.59220260E+01
 20
-9.04341327E+01
  0
VERTEX
  8
0
 62
4
 10
-3.60388729E+01
 20
-9.07100617E+01
  0
VERTEX
  8
0
 62
4
 10
-3.61306891E+01
 20
-9.09949020E+01
  0
VERTEX
  8
0
 62
4
 10
-3.61967758E+01
 20
-9.12864859E+01
  0
VERTEX
  8
0
 62
4
 10
-3.62366301E+01
 20
-9.15825942E+01
  0
VERTEX
  8
0
 62
4
 10
-3.62499487E+01
 20
-9.18809733E+01
  0
VERTEX
  8
0
 62
4
 10
-3.62366301E+01
 20
-9.21793524E+01
  0
VERTEX
  8
0
 62
4
 10
-3.61967758E+01
 20
-9.24754607E+01
  0
VERTEX
  8
0
 62
4
 10
-3.61306891E+01
 20
-9.27670446E+01
  0
VERTEX
  8
0
 62
4
 10
-3.60388729E+01
 20
-9.30518849E+01
  0
VERTEX
  8
0
 62
4
 10
-3.59220260E+01
 20
-9.33278139E+01
  0
VERTEX
  8
0
 62
4
 10
-3.57810376E+01
 20
-9.35927316E+01
  0
VERTEX
  8
0
 62
4
 10
-3.56169809E+01
 20
-9.38446218E+01
  0
VERTEX
  8
0
 62
4
 10
-3.54311042E+01
 20
-9.40815674E+01
  0
VERTEX
  8
0
 62
4
 10
-3.52248224E+01
 20
-9.43017651E+01
  0
VERTEX
  8
0
 62
4
 10
-3.49997053E+01
 20
-9.45035392E+01
  0
VERTEX
  8
0
 62
4
 10
-3.47574662E+01
 20
-9.46853539E+01
  0
VERTEX
  8
0
 62
4
 10
-3.44999487E+01
 20
-9.48458256E+01
  0
VERTEX
  8
0
 62
4
 10
-3.42291126E+01
 20
-9.49837331E+01
  0
VERTEX
  8
0
 62
4
 10
-3.39470192E+01
 20
-9.50980266E+01
  0
VERTEX
  8
0
 62
4
 10
-3.36558154E+01
 20
-9.51878364E+01
  0
VERTEX
  8
0
 62
4
 10
-3.33577173E+01
 20
-9.52524790E+01
  0
VERTEX
  8
0
 62
4
 10
-3.30549938E+01
 20
-9.52914624E+01
  0
VERTEX
  8
0
 62
4
 10
-3.27499487E+01
 20
-9.53044899E+01
  0
VERTEX
  8
0
 62
4
 10
-3.24449036E+01
 20
-9.52914624E+01
  0
VERTEX
  8
0
 62
4
 10
-3.21421801E+01
 20
-9.52524790E+01
  0
VERTEX
  8
0
 62
4
 10
-3.18440820E+01
 20
-9.51878364E+01
  0
VERTEX
  8
0
 62
4
 10
-3.15528782E+01
 20
-9.50980266E+01
  0
VERTEX
  8
0
 62
4
 10
-3.12707848E+01
 20
-9.49837331E+01
  0
VERTEX
  8
0
 62
4
 10
-3.09999487E+01
 20
-9.48458256E+01
  0
VERTEX
  8
0
 62
4
 10
-3.07424312E+01
 20
-9.46853539E+01
  0
VERTEX
  8
0
 62
4
 10
-3.05001921E+01
 20
-9.45035392E+01
  0
VERTEX
  8
0
 62
4
 10
-3.02750750E+01
 20
-9.43017651E+01
  0
VERTEX
  8
0
 62
4
 10
-3.00687931E+01
 20
-9.40815673E+01
  0
VERTEX
  8
0
 62
4
 10
-2.98829165E+01
 20
-9.38446217E+01
  0
VERTEX
  8
0
 62
4
 10
-2.97188598E+01
 20
-9.35927316E+01
  0
VERTEX
  8
0
 62
4
 10
-2.95778714E+01
 20
-9.33278139E+01
  0
VERTEX
  8
0
 62
4
 10
-2.94610245E+01
 20
-9.30518849E+01
  0
VERTEX
  8
0
 62
4
 10
-2.93692083E+01
 20
-9.27670446E+01
  0
VERTEX
  8
0
 62
4
 10
-2.93031216E+01
 20
-9.24754607E+01
  0
VERTEX
  8
0
 62
4
 10
-2.92632673E+01
 20
-9.21793524E+01
  0
VERTEX
  8
0
 62
4
 10
-2.92499487E+01
 20
-9.18809733E+01
  0
SEQEND
  8
0
  0
ARC
  8
0
 62
4
 10
-4.45143537E+01
 20
-9.71864754E+01
 40
1.21769740E+01
 50
2.40462101E+02
 51
2.53021762E+02
  0
ARC
  8
0
 62
4
 10
-5.29855437E+01
 20
-9.71864754E+01
 40
1.21769740E+01
 50
2.86978238E+02
 51
2.99537899E+02
  0
POLYLINE
  8
0
 62
4
 66
1
  0
VERTEX
  8
0
 62
4
 10
-4.53499487E+01
 20
-1.07753707E+02
  0
VERTEX
  8
0
 62
4
 10
-4.53628867E+01
 20
-1.07657726E+02
  0
VERTEX
  8
0
 62
4
 10
-4.54016023E+01
 20
-1.07562476E+02
  0
VERTEX
  8
0
 62
4
 10
-4.54658009E+01
 20
-1.07468681E+02
  0
VERTEX
  8
0
 62
4
 10
-4.55549938E+01
 20
-1.07377055E+02
  0
VERTEX
  8
0
 62
4
 10
-4.56685022E+01
 20
-1.07288296E+02
  0
VERTEX
  8
0
 62
4
 10
-4.58054623E+01
 20
-1.07203079E+02
  0
VERTEX
  8
0
 62
4
 10
-4.59648317E+01
 20
-1.07122053E+02
  0
VERTEX
  8
0
 62
4
 10
-4.61453976E+01
 20
-1.07045834E+02
  0
VERTEX
  8
0
 62
4
 10
-4.63457856E+01
 20
-1.06975002E+02
  0
VERTEX
  8
0
 62
4
 10
-4.65644708E+01
 20
-1.06910096E+02
  0
VERTEX
  8
0
 62
4
 10
-4.67997888E+01
 20
-1.06851611E+02
  0
VERTEX
  8
0
 62
4
 10
-4.70499487E+01
 20
-1.06799992E+02
  0
VERTEX
  8
0
 62
4
 10
-4.73130466E+01
 20
-1.06755631E+02
  0
VERTEX
  8
0
 62
4
 10
-4.75870802E+01
 20
-1.06718865E+02
  0
VERTEX
  8
0
 62
4
 10
-4.78699639E+01
 20
-1.06689976E+02
  0
VERTEX
  8
0
 62
4
 10
-4.81595449E+01
 20
-1.06669182E+02
  0
VERTEX
  8
0
 62
4
 10
-4.84536192E+01
 20
-1.06656642E+02
  0
VERTEX
  8
0
 62
4
 10
-4.87499487E+01
 20
-1.06652452E+02
  0
VERTEX
  8
0
 62
4
 10
-4.90462782E+01
 20
-1.06656642E+02
  0
VERTEX
  8
0
 62
4
 10
-4.93403525E+01
 20
-1.06669182E+02
  0
VERTEX
  8
0
 62
4
 10
-4.96299335E+01
 20
-1.06689976E+02
  0
VERTEX
  8
0
 62
4
 10
-4.99128172E+01
 20
-1.06718865E+02
  0
VERTEX
  8
0
 62
4
 10
-5.01868508E+01
 20
-1.06755631E+02
  0
VERTEX
  8
0
 62
4
 10
-5.04499487E+01
 20
-1.06799992E+02
  0
VERTEX
  8
0
 62
4
 10
-5.07001086E+01
 20
-1.06851611E+02
  0
VERTEX
  8
0
 62
4
 10
-5.09354266E+01
 20
-1.06910096E+02
  0
VERTEX
  8
0
 62
4
 10
-5.11541118E+01
 20
-1.06975002E+02
  0
VERTEX
  8
0
 62
4
 10
-5.13544998E+01
 20
-1.07045834E+02
  0
VERTEX
  8
0
 62
4
 10
-5.15350657E+01
 20
-1.07122053E+02
  0
VERTEX
  8
0
 62
4
 10
-5.16944351E+01
 20
-1.07203079E+02
  0
VERTEX
  8
0
 62
4
 10
-5.18313952E+01
 20
-1.07288296E+02
  0
VERTEX
  8
0
 62
4
 10
-5.19449036E+01
 20
-1.07377055E+02
  0
VERTEX
  8
0
 62
4
 10
-5.20340965E+01
 20
-1.07468681E+02
  0
VERTEX
  8
0
 62
4
 10
-5.20982951E+01
 20
-1.07562476E+02
  0
VERTEX
  8
0
 62
4
 10
-5.21370107E+01
 20
-1.07657726E+02
  0
VERTEX
  8
0
 62
4
 10
-5.21499487E+01
 20
-1.07753707E+02
  0
VERTEX
  8
0
 62
4
 10
-5.21370107E+01
 20
-1.07849688E+02
  0
VERTEX
  8
0
 62
4
 10
-5.20982951E+01
 20
-1.07944938E+02
  0
VERTEX
  8
0
 62
4
 10
-5.20340965E+01
 20
-1.08038733E+02
  0
VERTEX
  8
0
 62
4
 10
-5.19449036E+01
 20
-1.08130359E+02
  0
VERTEX
  8
0
 62
4
 10
-5.18313952E+01
 20
-1.08219118E+02
  0
VERTEX
  8
0
 62
4
 10
-5.16944351E+01
 20
-1.08304335E+02
  0
VERTEX
  8
0
 62
4
 10
-5.15350656E+01
 20
-1.08385361E+02
  0
VERTEX
  8
0
 62
4
 10
-5.13544998E+01
 20
-1.08461580E+02
  0
VERTEX
  8
0
 62
4
 10
-5.11541118E+01
 20
-1.08532412E+02
  0
VERTEX
  8
0
 62
4
 10
-5.09354266E+01
 20
-1.08597318E+02
  0
VERTEX
  8
0
 62
4
 10
-5.07001086E+01
 20
-1.08655803E+02
  0
VERTEX
  8
0
 62
4
 10
-5.04499487E+01
 20
-1.08707422E+02
  0
VERTEX
  8
0
 62
4
 10
-5.01868508E+01
 20
-1.08751783E+02
  0
VERTEX
  8
0
 62
4
 10
-4.99128172E+01
 20
-1.08788549E+02
  0
VERTEX
  8
0
 62
4
 10
-4.96299334E+01
 20
-1.08817438E+02
  0
VERTEX
  8
0
 62
4
 10
-4.93403525E+01
 20
-1.08838232E+02
  0
VERTEX
  8
0
 62
4
 10
-4.90462782E+01
 20
-1.08850772E+02
  0
VERTEX
  8
0
 62
4
 10
-4.87499487E+01
 20
-1.08854962E+02
  0
VERTEX
  8
0
 62
4
 10
-4.84536192E+01
 20
-1.08850772E+02
  0
VERTEX
  8
0
 62
4
 10
-4.81595449E+01
 20
-1.08838232E+02
  0
VERTEX
  8
0
 62
4
 10
-4.78699639E+01
 20
-1.08817438E+02
  0
VERTEX
  8
0
 62
4
 10
-4.75870802E+01
 20
-1.08788549E+02
  0
VERTEX
  8
0
 62
4
 10
-4.73130466E+01
 20
-1.08751783E+02
  0
VERTEX
  8
0
 62
4
 10
-4.70499487E+01
 20
-1.08707422E+02
  0
VERTEX
  8
0
 62
4
 10
-4.67997888E+01
 20
-1.08655803E+02
  0
VERTEX
  8
0
 62
4
 10
-4.65644708E+01
 20
-1.08597318E+02
  0
VERTEX
  8
0
 62
4
 10
-4.63457856E+01
 20
-1.08532412E+02
  0
VERTEX
  8
0
 62
4
 10
-4.61453976E+01
 20
-1.08461580E+02
  0
VERTEX
  8
0
 62
4
 10
-4.59648317E+01
 20
-1.08385361E+02
  0
VERTEX
  8
0
 62
4
 10
-4.58054623E+01
 20
-1.08304335E+02
  0
VERTEX
  8
0
 62
4
 10
-4.56685022E+01
 20
-1.08219118E+02
  0
VERTEX
  8
0
 62
4
 10
-4.55549938E+01
 20
-1.08130359E+02
  0
VERTEX
  8
0
 62
4
 10
-4.54658009E+01
 20
-1.08038733E+02
  0
VERTEX
  8
0
 62
4
 10
-4.54016023E+01
 20
-1.07944938E+02
  0
VERTEX
  8
0
 62
4
 10
-4.53628867E+01
 20
-1.07849688E+02
  0
VERTEX
  8
0
 62
4
 10
-4.53499487E+01
 20
-1.07753707E+02
  0
SEQEND
  8
0
  0
POLYLINE
  8
0
 62
4
 66
1
  0
VERTEX
  8
0
 62
4
 10
-4.47499487E+01
 20
-1.05178083E+02
  0
VERTEX
  8
0
 62
4
 10
-4.47660515E+01
 20
-1.05103535E+02
  0
VERTEX
  8
0
 62
4
 10
-4.48142303E+01
 20
-1.05029587E+02
  0
VERTEX
  8
0
 62
4
 10
-4.48940973E+01
 20
-1.04956834E+02
  0
VERTEX
  8
0
 62
4
 10
-4.50050092E+01
 20
-1.04885863E+02
  0
VERTEX
  8
0
 62
4
 10
-4.51460732E+01
 20
-1.04817245E+02
  0
VERTEX
  8
0
 62
4
 10
-4.53161535E+01
 20
-1.04751532E+02
  0
VERTEX
  8
0
 62
4
 10
-4.55138807E+01
 20
-1.04689253E+02
  0
VERTEX
  8
0
 62
4
 10
-4.57376628E+01
 20
-1.04630910E+02
  0
VERTEX
  8
0
 62
4
 10
-4.59856981E+01
 20
-1.04576973E+02
  0
VERTEX
  8
0
 62
4
 10
-4.62559895E+01
 20
-1.04527875E+02
  0
VERTEX
  8
0
 62
4
 10
-4.65463608E+01
 20
-1.04484013E+02
  0
VERTEX
  8
0
 62
4
 10
-4.68544740E+01
 20
-1.04445739E+02
  0
VERTEX
  8
0
 62
4
 10
-4.71778486E+01
 20
-1.04413361E+02
  0
VERTEX
  8
0
 62
4
 10
-4.75138807E+01
 20
-1.04387140E+02
  0
VERTEX
  8
0
 62
4
 10
-4.78598650E+01
 20
-1.04367287E+02
  0
VERTEX
  8
0
 62
4
 10
-4.82130156E+01
 20
-1.04353963E+02
  0
VERTEX
  8
0
 62
4
 10
-4.85704894E+01
 20
-1.04347274E+02
  0
VERTEX
  8
0
 62
4
 10
-4.89294080E+01
 20
-1.04347274E+02
  0
VERTEX
  8
0
 62
4
 10
-4.92868818E+01
 20
-1.04353963E+02
  0
VERTEX
  8
0
 62
4
 10
-4.96400324E+01
 20
-1.04367287E+02
  0
VERTEX
  8
0
 62
4
 10
-4.99860167E+01
 20
-1.04387140E+02
  0
VERTEX
  8
0
 62
4
 10
-5.03220488E+01
 20
-1.04413361E+02
  0
VERTEX
  8
0
 62
4
 10
-5.06454233E+01
 20
-1.04445739E+02
  0
VERTEX
  8
0
 62
4
 10
-5.09535366E+01
 20
-1.04484013E+02
  0
VERTEX
  8
0
 62
4
 10
-5.12439079E+01
 20
-1.04527875E+02
  0
VERTEX
  8
0
 62
4
 10
-5.15141993E+01
 20
-1.04576973E+02
  0
VERTEX
  8
0
 62
4
 10
-5.17622346E+01
 20
-1.04630910E+02
  0
VERTEX
  8
0
 62
4
 10
-5.19860167E+01
 20
-1.04689253E+02
  0
VERTEX
  8
0
 62
4
 10
-5.21837439E+01
 20
-1.04751532E+02
  0
VERTEX
  8
0
 62
4
 10
-5.23538242E+01
 20
-1.04817245E+02
  0
VERTEX
  8
0
 62
4
 10
-5.24948882E+01
 20
-1.04885863E+02
  0
VERTEX
  8
0
 62
4
 10
-5.26058001E+01
 20
-1.04956834E+02
  0
VERTEX
  8
0
 62
4
 10
-5.26856671E+01
 20
-1.05029587E+02
  0
VERTEX
  8
0
 62
4
 10
-5.27338459E+01
 20
-1.05103535E+02
  0
VERTEX
  8
0
 62
4
 10
-5.27499487E+01
 20
-1.05178083E+02
  0
SEQEND
  8
0
  0
LINE
  8
0
 62
4
 10
-4.53499487E+01
 20
-1.06737420E+02
 11
-2.32499487E+01
 21
-1.06737420E+02
  0
ARC
  8
0
 62
4
 10
-5.92504523E+01
 20
-1.05237924E+02
 40
1.49949647E+00
 50
1.79980757E+02
 51
2.70019243E+02
  0
ARC
  8
0
 62
4
 10
-2.32494489E+01
 20
-1.05237920E+02
 40
1.49950029E+00
 50
2.69980903E+02
 51
1.90971113E-02
  0
LINE
  8
0
 62
4
 10
-5.92499487E+01
 20
-1.06737420E+02
 11
-5.21499487E+01
 21
-1.06737420E+02
  0
POLYLINE
  8
0
 62
4
 66
1
  0
VERTEX
  8
0
 62
4
 10
-4.53499487E+01
 20
-1.05667148E+02
  0
VERTEX
  8
0
 62
4
 10
-4.53636396E+01
 20
-1.05603782E+02
  0
VERTEX
  8
0
 62
4
 10
-4.54045950E+01
 20
-1.05540926E+02
  0
VERTEX
  8
0
 62
4
 10
-4.54724849E+01
 20
-1.05479087E+02
  0
VERTEX
  8
0
 62
4
 10
-4.55667628E+01
 20
-1.05418762E+02
  0
VERTEX
  8
0
 62
4
 10
-4.56866697E+01
 20
-1.05360437E+02
  0
VERTEX
  8
0
 62
4
 10
-4.58312401E+01
 20
-1.05304582E+02
  0
VERTEX
  8
0
 62
4
 10
-4.59993101E+01
 20
-1.05251645E+02
  0
VERTEX
  8
0
 62
4
 10
-4.61895264E+01
 20
-1.05202054E+02
  0
VERTEX
  8
0
 62
4
 10
-4.64003576E+01
 20
-1.05156208E+02
  0
VERTEX
  8
0
 62
4
 10
-4.66301061E+01
 20
-1.05114476E+02
  0
VERTEX
  8
0
 62
4
 10
-4.68769223E+01
 20
-1.05077193E+02
  0
VERTEX
  8
0
 62
4
 10
-4.71388188E+01
 20
-1.05044661E+02
  0
VERTEX
  8
0
 62
4
 10
-4.74136871E+01
 20
-1.05017140E+02
  0
VERTEX
  8
0
 62
4
 10
-4.76993142E+01
 20
-1.04994853E+02
  0
VERTEX
  8
0
 62
4
 10
-4.79934002E+01
 20
-1.04977979E+02
  0
VERTEX
  8
0
 62
4
 10
-4.82935775E+01
 20
-1.04966653E+02
  0
VERTEX
  8
0
 62
4
 10
-4.85974292E+01
 20
-1.04960968E+02
  0
VERTEX
  8
0
 62
4
 10
-4.89025089E+01
 20
-1.04960968E+02
  0
VERTEX
  8
0
 62
4
 10
-4.92063603E+01
 20
-1.04966654E+02
  0
VERTEX
  8
0
 62
4
 10
-4.95065369E+01
 20
-1.04977981E+02
  0
VERTEX
  8
0
 62
4
 10
-4.98006220E+01
 20
-1.04994855E+02
  0
VERTEX
  8
0
 62
4
 10
-5.00862477E+01
 20
-1.05017143E+02
  0
VERTEX
  8
0
 62
4
 10
-5.03611145E+01
 20
-1.05044665E+02
  0
VERTEX
  8
0
 62
4
 10
-5.06230091E+01
 20
-1.05077198E+02
  0
VERTEX
  8
0
 62
4
 10
-5.08698231E+01
 20
-1.05114481E+02
  0
VERTEX
  8
0
 62
4
 10
-5.10995693E+01
 20
-1.05156214E+02
  0
VERTEX
  8
0
 62
4
 10
-5.13103978E+01
 20
-1.05202061E+02
  0
VERTEX
  8
0
 62
4
 10
-5.15006113E+01
 20
-1.05251652E+02
  0
VERTEX
  8
0
 62
4
 10
-5.16686782E+01
 20
-1.05304589E+02
  0
VERTEX
  8
0
 62
4
 10
-5.18132454E+01
 20
-1.05360445E+02
  0
VERTEX
  8
0
 62
4
 10
-5.19331489E+01
 20
-1.05418770E+02
  0
VERTEX
  8
0
 62
4
 10
-5.20274234E+01
 20
-1.05479095E+02
  0
VERTEX
  8
0
 62
4
 10
-5.20953097E+01
 20
-1.05540935E+02
  0
VERTEX
  8
0
 62
4
 10
-5.21362614E+01
 20
-1.05603790E+02
  0
VERTEX
  8
0
 62
4
 10
-5.21499487E+01
 20
-1.05667156E+02
  0
SEQEND
  8
0
  0
POLYLINE
  8
0
 62
4
 66
1
  0
VERTEX
  8
0
 62
4
 10
-4.53499487E+01
 20
-1.06105253E+02
  0
VERTEX
  8
0
 62
4
 10
-4.51768967E+01
 20
-1.06041010E+02
  0
VERTEX
  8
0
 62
4
 10
-4.50318537E+01
 20
-1.05973836E+02
  0
VERTEX
  8
0
 62
4
 10
-4.49159569E+01
 20
-1.05904258E+02
  0
VERTEX
  8
0
 62
4
 10
-4.48301146E+01
 20
-1.05832821E+02
  0
VERTEX
  8
0
 62
4
 10
-4.47749998E+01
 20
-1.05760086E+02
  0
VERTEX
  8
0
 62
4
 10
-4.47510446E+01
 20
-1.05686622E+02
  0
VERTEX
  8
0
 62
4
 10
-4.47584368E+01
 20
-1.05613006E+02
  0
VERTEX
  8
0
 62
4
 10
-4.47971183E+01
 20
-1.05539814E+02
  0
VERTEX
  8
0
 62
4
 10
-4.48667860E+01
 20
-1.05467621E+02
  0
VERTEX
  8
0
 62
4
 10
-4.49668937E+01
 20
-1.05396991E+02
  0
VERTEX
  8
0
 62
4
 10
-4.50966568E+01
 20
-1.05328480E+02
  0
VERTEX
  8
0
 62
4
 10
-4.52550579E+01
 20
-1.05262623E+02
  0
VERTEX
  8
0
 62
4
 10
-4.54408554E+01
 20
-1.05199937E+02
  0
VERTEX
  8
0
 62
4
 10
-4.56525929E+01
 20
-1.05140914E+02
  0
VERTEX
  8
0
 62
4
 10
-4.58886105E+01
 20
-1.05086016E+02
  0
VERTEX
  8
0
 62
4
 10
-4.61470580E+01
 20
-1.05035674E+02
  0
VERTEX
  8
0
 62
4
 10
-4.64259096E+01
 20
-1.04990282E+02
  0
VERTEX
  8
0
 62
4
 10
-4.67229792E+01
 20
-1.04950195E+02
  0
VERTEX
  8
0
 62
4
 10
-4.70359383E+01
 20
-1.04915729E+02
  0
VERTEX
  8
0
 62
4
 10
-4.73623334E+01
 20
-1.04887154E+02
  0
VERTEX
  8
0
 62
4
 10
-4.76996061E+01
 20
-1.04864693E+02
  0
VERTEX
  8
0
 62
4
 10
-4.80451123E+01
 20
-1.04848522E+02
  0
VERTEX
  8
0
 62
4
 10
-4.83961438E+01
 20
-1.04838769E+02
  0
VERTEX
  8
0
 62
4
 10
-4.87499487E+01
 20
-1.04835509E+02
  0
VERTEX
  8
0
 62
4
 10
-4.91037536E+01
 20
-1.04838769E+02
  0
VERTEX
  8
0
 62
4
 10
-4.94547851E+01
 20
-1.04848522E+02
  0
VERTEX
  8
0
 62
4
 10
-4.98002913E+01
 20
-1.04864693E+02
  0
VERTEX
  8
0
 62
4
 10
-5.01375639E+01
 20
-1.04887154E+02
  0
VERTEX
  8
0
 62
4
 10
-5.04639591E+01
 20
-1.04915729E+02
  0
VERTEX
  8
0
 62
4
 10
-5.07769181E+01
 20
-1.04950195E+02
  0
VERTEX
  8
0
 62
4
 10
-5.10739878E+01
 20
-1.04990282E+02
  0
VERTEX
  8
0
 62
4
 10
-5.13528394E+01
 20
-1.05035674E+02
  0
VERTEX
  8
0
 62
4
 10
-5.16112869E+01
 20
-1.05086016E+02
  0
VERTEX
  8
0
 62
4
 10
-5.18473045E+01
 20
-1.05140914E+02
  0
VERTEX
  8
0
 62
4
 10
-5.20590419E+01
 20
-1.05199937E+02
  0
VERTEX
  8
0
 62
4
 10
-5.22448395E+01
 20
-1.05262623E+02
  0
VERTEX
  8
0
 62
4
 10
-5.24032406E+01
 20
-1.05328480E+02
  0
VERTEX
  8
0
 62
4
 10
-5.25330037E+01
 20
-1.05396991E+02
  0
VERTEX
  8
0
 62
4
 10
-5.26331114E+01
 20
-1.05467621E+02
  0
VERTEX
  8
0
 62
4
 10
-5.27027791E+01
 20
-1.05539814E+02
  0
VERTEX
  8
0
 62
4
 10
-5.27414606E+01
 20
-1.05613006E+02
  0
VERTEX
  8
0
 62
4
 10
-5.27488528E+01
 20
-1.05686622E+02
  0
VERTEX
  8
0
 62
4
 10
-5.27248976E+01
 20
-1.05760086E+02
  0
VERTEX
  8
0
 62
4
 10
-5.26697828E+01
 20
-1.05832821E+02
  0
VERTEX
  8
0
 62
4
 10
-5.25839405E+01
 20
-1.05904258E+02
  0
VERTEX
  8
0
 62
4
 10
-5.24680437E+01
 20
-1.05973836E+02
  0
VERTEX
  8
0
 62
4
 10
-5.23230007E+01
 20
-1.06041010E+02
  0
VERTEX
  8
0
 62
4
 10
-5.21499487E+01
 20
-1.06105253E+02
  0
SEQEND
  8
0
  0
LINE
  8
0
  6
CENTER
 62
6
 10
-5.37990337E+01
 20
-8.58515346E+01
 11
-4.37008639E+01
 21
-8.58515346E+01
  0
LINE
  8
0
  6
CENTER
 62
6
 10
-3.27499487E+01
 20
-8.67237131E+01
 11
-3.27499487E+01
 21
-9.66224102E+01
  0
POLYLINE
  8
0
 62
4
 66
1
  0
VERTEX
  8
0
 62
4
 10
-4.57499487E+01
 20
-8.58515346E+01
  0
VERTEX
  8
0
 62
4
 10
-4.57613646E+01
 20
-8.55957811E+01
  0
VERTEX
  8
0
 62
4
 10
-4.57955254E+01
 20
-8.53419740E+01
  0
VERTEX
  8
0
 62
4
 10
-4.58521712E+01
 20
-8.50920449E+01
  0
VERTEX
  8
0
 62
4
 10
-4.59308708E+01
 20
-8.48478961E+01
  0
VERTEX
  8
0
 62
4
 10
-4.60310253E+01
 20
-8.46113855E+01
  0
VERTEX
  8
0
 62
4
 10
-4.61518725E+01
 20
-8.43843132E+01
  0
VERTEX
  8
0
 62
4
 10
-4.62924926E+01
 20
-8.41684074E+01
  0
VERTEX
  8
0
 62
4
 10
-4.64518154E+01
 20
-8.39653111E+01
  0
VERTEX
  8
0
 62
4
 10
-4.66286284E+01
 20
-8.37765702E+01
  0
VERTEX
  8
0
 62
4
 10
-4.68215859E+01
 20
-8.36036210E+01
  0
VERTEX
  8
0
 62
4
 10
-4.70292194E+01
 20
-8.34477798E+01
  0
VERTEX
  8
0
 62
4
 10
-4.72499487E+01
 20
-8.33102326E+01
  0
VERTEX
  8
0
 62
4
 10
-4.74820939E+01
 20
-8.31920262E+01
  0
VERTEX
  8
0
 62
4
 10
-4.77238883E+01
 20
-8.30940604E+01
  0
VERTEX
  8
0
 62
4
 10
-4.79734916E+01
 20
-8.30170805E+01
  0
VERTEX
  8
0
 62
4
 10
-4.82290042E+01
 20
-8.29616726E+01
  0
VERTEX
  8
0
 62
4
 10
-4.84884815E+01
 20
-8.29282582E+01
  0
VERTEX
  8
0
 62
4
 10
-4.87499487E+01
 20
-8.29170918E+01
  0
VERTEX
  8
0
 62
4
 10
-4.90114159E+01
 20
-8.29282582E+01
  0
VERTEX
  8
0
 62
4
 10
-4.92708932E+01
 20
-8.29616726E+01
  0
VERTEX
  8
0
 62
4
 10
-4.95264058E+01
 20
-8.30170805E+01
  0
VERTEX
  8
0
 62
4
 10
-4.97760091E+01
 20
-8.30940604E+01
  0
VERTEX
  8
0
 62
4
 10
-5.00178035E+01
 20
-8.31920262E+01
  0
VERTEX
  8
0
 62
4
 10
-5.02499487E+01
 20
-8.33102326E+01
  0
VERTEX
  8
0
 62
4
 10
-5.04706780E+01
 20
-8.34477798E+01
  0
VERTEX
  8
0
 62
4
 10
-5.06783115E+01
 20
-8.36036210E+01
  0
VERTEX
  8
0
 62
4
 10
-5.08712690E+01
 20
-8.37765702E+01
  0
VERTEX
  8
0
 62
4
 10
-5.10480820E+01
 20
-8.39653111E+01
  0
VERTEX
  8
0
 62
4
 10
-5.12074048E+01
 20
-8.41684074E+01
  0
VERTEX
  8
0
 62
4
 10
-5.13480249E+01
 20
-8.43843132E+01
  0
VERTEX
  8
0
 62
4
 10
-5.14688721E+01
 20
-8.46113855E+01
  0
VERTEX
  8
0
 62
4
 10
-5.15690266E+01
 20
-8.48478961E+01
  0
VERTEX
  8
0
 62
4
 10
-5.16477262E+01
 20
-8.50920449E+01
  0
VERTEX
  8
0
 62
4
 10
-5.17043720E+01
 20
-8.53419740E+01
  0
VERTEX
  8
0
 62
4
 10
-5.17385328E+01
 20
-8.55957811E+01
  0
VERTEX
  8
0
 62
4
 10
-5.17499487E+01
 20
-8.58515346E+01
  0
VERTEX
  8
0
 62
4
 10
-5.17385328E+01
 20
-8.61072881E+01
  0
VERTEX
  8
0
 62
4
 10
-5.17043720E+01
 20
-8.63610952E+01
  0
VERTEX
  8
0
 62
4
 10
-5.16477262E+01
 20
-8.66110243E+01
  0
VERTEX
  8
0
 62
4
 10
-5.15690266E+01
 20
-8.68551732E+01
  0
VERTEX
  8
0
 62
4
 10
-5.14688721E+01
 20
-8.70916837E+01
  0
VERTEX
  8
0
 62
4
 10
-5.13480249E+01
 20
-8.73187560E+01
  0
VERTEX
  8
0
 62
4
 10
-5.12074048E+01
 20
-8.75346618E+01
  0
VERTEX
  8
0
 62
4
 10
-5.10480820E+01
 20
-8.77377581E+01
  0
VERTEX
  8
0
 62
4
 10
-5.08712690E+01
 20
-8.79264990E+01
  0
VERTEX
  8
0
 62
4
 10
-5.06783115E+01
 20
-8.80994482E+01
  0
VERTEX
  8
0
 62
4
 10
-5.04706780E+01
 20
-8.82552894E+01
  0
VERTEX
  8
0
 62
4
 10
-5.02499487E+01
 20
-8.83928366E+01
  0
VERTEX
  8
0
 62
4
 10
-5.00178035E+01
 20
-8.85110430E+01
  0
VERTEX
  8
0
 62
4
 10
-4.97760091E+01
 20
-8.86090088E+01
  0
VERTEX
  8
0
 62
4
 10
-4.95264058E+01
 20
-8.86859887E+01
  0
VERTEX
  8
0
 62
4
 10
-4.92708932E+01
 20
-8.87413966E+01
  0
VERTEX
  8
0
 62
4
 10
-4.90114159E+01
 20
-8.87748110E+01
  0
VERTEX
  8
0
 62
4
 10
-4.87499487E+01
 20
-8.87859774E+01
  0
VERTEX
  8
0
 62
4
 10
-4.84884815E+01
 20
-8.87748110E+01
  0
VERTEX
  8
0
 62
4
 10
-4.82290042E+01
 20
-8.87413966E+01
  0
VERTEX
  8
0
 62
4
 10
-4.79734916E+01
 20
-8.86859887E+01
  0
VERTEX
  8
0
 62
4
 10
-4.77238883E+01
 20
-8.86090088E+01
  0
VERTEX
  8
0
 62
4
 10
-4.74820939E+01
 20
-8.85110430E+01
  0
VERTEX
  8
0
 62
4
 10
-4.72499487E+01
 20
-8.83928366E+01
  0
VERTEX
  8
0
 62
4
 10
-4.70292194E+01
 20
-8.82552894E+01
  0
VERTEX
  8
0
 62
4
 10
-4.68215859E+01
 20
-8.80994482E+01
  0
VERTEX
  8
0
 62
4
 10
-4.66286284E+01
 20
-8.79264990E+01
  0
VERTEX
  8
0
 62
4
 10
-4.64518154E+01
 20
-8.77377581E+01
  0
VERTEX
  8
0
 62
4
 10
-4.62924926E+01
 20
-8.75346618E+01
  0
VERTEX
  8
0
 62
4
 10
-4.61518725E+01
 20
-8.73187560E+01
  0
VERTEX
  8
0
 62
4
 10
-4.60310253E+01
 20
-8.70916837E+01
  0
VERTEX
  8
0
 62
4
 10
-4.59308708E+01
 20
-8.68551731E+01
  0
VERTEX
  8
0
 62
4
 10
-4.58521712E+01
 20
-8.66110243E+01
  0
VERTEX
  8
0
 62
4
 10
-4.57955254E+01
 20
-8.63610952E+01
  0
VERTEX
  8
0
 62
4
 10
-4.57613646E+01
 20
-8.61072881E+01
  0
VERTEX
  8
0
 62
4
 10
-4.57499487E+01
 20
-8.58515346E+01
  0
SEQEND
  8
0
  0
LINE
  8
0
  6
CENTER
 62
6
 10
-3.76992973E+01
 20
-9.16730616E+01
 11
-2.78006002E+01
 21
-9.16730616E+01
  0
LINE
  8
0
 62
4
 10
-5.62499488E+01
 20
-9.83854339E+01
 11
-4.12499488E+01
 21
-9.83854339E+01
  0
LINE
  8
0
 62
4
 10
-7.57499488E+01
 20
-9.42387121E+01
 11
-7.07499488E+01
 21
-9.42387121E+01
  0
LINE
  8
0
 62
4
 10
-6.57499487E+01
 20
-8.05997780E+01
 11
-6.57499487E+01
 21
-9.35997780E+01
  0
ARC
  8
0
 62
4
 10
-6.52494486E+01
 20
-8.06002781E+01
 40
5.00500378E-01
 50
9.00572530E+01
 51
1.79942747E+02
  0
LINE
  8
0
 62
4
 10
-5.62499487E+01
 20
-8.00997780E+01
 11
-6.52499487E+01
 21
-8.00997780E+01
  0
LINE
  8
0
 62
4
 10
-7.57499487E+01
 20
-9.26772953E+01
 11
-7.07499487E+01
 21
-9.26772953E+01
  0
LINE
  8
0
 62
4
 10
-7.57499487E+01
 20
-8.55396671E+01
 11
-7.07499487E+01
 21
-8.55396671E+01
  0
LINE
  8
0
 62
4
 10
-4.12499487E+01
 20
-8.06083541E+01
 11
-2.32499487E+01
 21
-8.06083541E+01
  0
LINE
  8
0
  6
CENTER
 62
6
 10
-4.47499487E+01
 20
-6.60416875E+01
 11
-4.47499487E+01
 21
-7.65416875E+01
  0
LINE
  8
0
 62
4
 10
-4.27499487E+01
 20
-6.83016875E+01
 11
-4.27499487E+01
 21
-6.86739326E+01
  0
LINE
  8
0
 62
4
 10
-4.67499487E+01
 20
-6.83016875E+01
 11
-4.67499487E+01
 21
-6.86739326E+01
  0
LINE
  8
0
 62
4
 10
-4.30199487E+01
 20
-6.73016875E+01
 11
-4.64899487E+01
 21
-6.73016875E+01
  0
LINE
  8
0
 62
4
 10
-4.27499487E+01
 20
-6.83016875E+01
 11
-4.30199487E+01
 21
-6.73016875E+01
  0
LINE
  8
0
 62
4
 10
-4.67499487E+01
 20
-6.83016875E+01
 11
-4.64899487E+01
 21
-6.73016875E+01
  0
LINE
  8
0
 62
6
 10
-4.32499487E+01
 20
-6.73016875E+01
 11
-4.32499487E+01
 21
-6.86739326E+01
  0
LINE
  8
0
 62
6
 10
-4.62499487E+01
 20
-6.73016875E+01
 11
-4.62499487E+01
 21
-6.86739326E+01
  0
LINE
  8
0
 62
4
 10
-4.22499487E+01
 20
-7.39184541E+01
 11
-5.52499487E+01
 21
-7.39184541E+01
  0
LINE
  8
0
 62
4
 10
-4.12499487E+01
 20
-6.86739326E+01
 11
-5.62499487E+01
 21
-6.86739326E+01
  0
LINE
  8
0
  6
CENTER
 62
6
 10
-5.27499487E+01
 20
-6.60416875E+01
 11
-5.27499487E+01
 21
-7.65416875E+01
  0
LINE
  8
0
 62
6
 10
-5.42499487E+01
 20
-6.73016875E+01
 11
-5.42499487E+01
 21
-6.86739326E+01
  0
LINE
  8
0
 62
4
 10
-5.07499487E+01
 20
-6.83016875E+01
 11
-5.07499487E+01
 21
-6.86739326E+01
  0
LINE
  8
0
 62
4
 10
-5.47499487E+01
 20
-6.83016875E+01
 11
-5.47499487E+01
 21
-6.86739326E+01
  0
LINE
  8
0
 62
4
 10
-5.10199487E+01
 20
-6.73016875E+01
 11
-5.44899487E+01
 21
-6.73016875E+01
  0
LINE
  8
0
 62
4
 10
-5.07499487E+01
 20
-6.83016875E+01
 11
-5.10199487E+01
 21
-6.73016875E+01
  0
LINE
  8
0
 62
4
 10
-5.47499487E+01
 20
-6.83016875E+01
 11
-5.44899487E+01
 21
-6.73016875E+01
  0
LINE
  8
0
 62
6
 10
-5.12499487E+01
 20
-6.73016875E+01
 11
-5.12499487E+01
 21
-6.86739326E+01
  0
LINE
  8
0
 62
4
 10
-4.47499487E+01
 20
-1.05178083E+02
 11
-4.47499487E+01
 21
-1.05667156E+02
  0
LINE
  8
0
 62
4
 10
-5.27499487E+01
 20
-1.05667156E+02
 11
-5.27499487E+01
 21
-1.05178083E+02
  0
LINE
  8
0
 62
4
 10
-4.53499487E+01
 20
-1.05667156E+02
 11
-4.53499487E+01
 21
-1.07591113E+02
  0
LINE
  8
0
 62
4
 10
-5.21499487E+01
 20
-1.07591113E+02
 11
-5.21499487E+01
 21
-1.05667156E+02
  0
LINE
  8
0
  6
CENTER
 62
6
 10
-4.87499487E+01
 20
-6.14742264E+01
 11
-4.87499487E+01
 21
-1.15191746E+02
  0
LINE
  8
0
 62
4
 10
-6.52499487E+01
 20
-9.40997780E+01
 11
-5.62499487E+01
 21
-9.40997780E+01
  0
LINE
  8
0
 62
4
 10
-7.57499487E+01
 20
-7.99613765E+01
 11
-7.57499487E+01
 21
-9.42387121E+01
  0
LINE
  8
0
 62
4
 10
-7.07499487E+01
 20
-7.99613765E+01
 11
-7.07499487E+01
 21
-9.42387121E+01
  0
LINE
  8
0
 62
4
 10
-7.07499487E+01
 20
-8.08497780E+01
 11
-6.57499487E+01
 21
-8.08497780E+01
  0
LINE
  8
0
 62
4
 10
-7.07499487E+01
 20
-9.33497780E+01
 11
-6.57499487E+01
 21
-9.33497780E+01
  0
LINE
  8
0
 62
4
 10
-6.92499487E+01
 20
-8.08497780E+01
 11
-6.92499487E+01
 21
-9.33497780E+01
  0
LINE
  8
0
 62
4
 10
-6.92499487E+01
 20
-8.13497780E+01
 11
-6.57499487E+01
 21
-8.13497780E+01
  0
LINE
  8
0
 62
4
 10
-6.92499487E+01
 20
-9.28497780E+01
 11
-6.57499487E+01
 21
-9.28497780E+01
  0
LINE
  8
0
 62
4
 10
-4.12499487E+01
 20
-9.83854339E+01
 11
-4.12499487E+01
 21
-6.86739326E+01
  0
LINE
  8
0
 62
4
 10
-5.62499487E+01
 20
-7.85154276E+01
 11
-4.12499487E+01
 21
-7.85154276E+01
  0
LINE
  8
0
 62
4
 10
-5.62499487E+01
 20
-9.31876416E+01
 11
-4.12499487E+01
 21
-9.31876416E+01
  0
LINE
  8
0
 62
4
 10
-7.57499487E+01
 20
-7.99613765E+01
 11
-7.07499487E+01
 21
-7.99613765E+01
  0
LINE
  8
0
 62
4
 10
-2.17499487E+01
 20
-8.21088579E+01
 11
-2.17499487E+01
 21
-1.05237420E+02
  0
LINE
  8
0
 62
4
 10
-3.92499487E+01
 20
-8.17569247E+01
 11
-3.92499487E+01
 21
-1.01173376E+02
  0
LINE
  8
0
 62
4
 10
-6.07499487E+01
 20
-1.05237420E+02
 11
-6.07499487E+01
 21
-9.40997780E+01
  0
LINE
  8
0
 62
4
 10
-5.82499487E+01
 20
-9.40997780E+01
 11
-5.82499487E+01
 21
-1.01173376E+02
  0
LINE
  8
0
 62
4
 10
-5.62499487E+01
 20
-6.86739326E+01
 11
-5.62499487E+01
 21
-9.83854339E+01
  0
LINE
  8
0
 62
4
 10
-5.82499487E+01
 20
-1.00341729E+02
 11
-3.92499487E+01
 21
-1.00341729E+02
  0
LINE
  8
0
 62
4
 10
-5.92499487E+01
 20
-1.03618745E+02
 11
-2.32499487E+01
 21
-1.03618745E+02
  0
LINE
  8
0
 62
4
 10
-3.92499487E+01
 20
-8.17569247E+01
 11
-4.12499487E+01
 21
-8.17569247E+01
  0
ARC
  8
0
 62
4
 10
-2.32504525E+01
 20
-8.21088579E+01
 40
1.50050386E+00
 50
1.92364101E-02
 51
8.99807637E+01
  0
ARC
  8
0
 62
4
 10
-6.52504484E+01
 20
-9.36002776E+01
 40
4.99500622E-01
 50
1.79942690E+02
 51
2.70057311E+02
  0
ARC
  8
0
 62
4
 10
-2.32494489E+01
 20
-1.02119245E+02
 40
1.49950029E+00
 50
2.69980903E+02
 51
1.90971113E-02
  0
ARC
  8
0
 62
4
 10
-5.92504523E+01
 20
-1.02119248E+02
 40
1.49949647E+00
 50
1.79980757E+02
 51
2.70019243E+02
  0
LINE
  8
0
 62
4
 10
2.27078782E+02
 20
-1.86306195E+02
 11
2.27438782E+02
 21
-1.87284343E+02
  0
LINE
  8
0
 62
4
 10
2.20798782E+02
 20
-1.86306195E+02
 11
2.20438782E+02
 21
-1.87284343E+02
  0
POLYLINE
  8
0
 62
4
 66
1
  0
VERTEX
  8
0
 62
4
 10
2.20479531E+02
 20
-1.87173625E+02
  0
VERTEX
  8
0
 62
4
 10
2.20445882E+02
 20
-1.87238015E+02
  0
VERTEX
  8
0
 62
4
 10
2.20439905E+02
 20
-1.87302773E+02
  0
VERTEX
  8
0
 62
4
 10
2.20461646E+02
 20
-1.87367384E+02
  0
VERTEX
  8
0
 62
4
 10
2.20510934E+02
 20
-1.87431338E+02
  0
VERTEX
  8
0
 62
4
 10
2.20587378E+02
 20
-1.87494127E+02
  0
VERTEX
  8
0
 62
4
 10
2.20690372E+02
 20
-1.87555254E+02
  0
VERTEX
  8
0
 62
4
 10
2.20819101E+02
 20
-1.87614235E+02
  0
VERTEX
  8
0
 62
4
 10
2.20972545E+02
 20
-1.87670602E+02
  0
VERTEX
  8
0
 62
4
 10
2.21149488E+02
 20
-1.87723910E+02
  0
VERTEX
  8
0
 62
4
 10
2.21348528E+02
 20
-1.87773735E+02
  0
VERTEX
  8
0
 62
4
 10
2.21568088E+02
 20
-1.87819683E+02
  0
VERTEX
  8
0
 62
4
 10
2.21806430E+02
 20
-1.87861390E+02
  0
VERTEX
  8
0
 62
4
 10
2.22061664E+02
 20
-1.87898525E+02
  0
VERTEX
  8
0
 62
4
 10
2.22331770E+02
 20
-1.87930795E+02
  0
VERTEX
  8
0
 62
4
 10
2.22614606E+02
 20
-1.87957943E+02
  0
VERTEX
  8
0
 62
4
 10
2.22907933E+02
 20
-1.87979756E+02
  0
VERTEX
  8
0
 62
4
 10
2.23209427E+02
 20
-1.87996058E+02
  0
VERTEX
  8
0
 62
4
 10
2.23516698E+02
 20
-1.88006723E+02
  0
VERTEX
  8
0
 62
4
 10
2.23827314E+02
 20
-1.88011665E+02
  0
VERTEX
  8
0
 62
4
 10
2.24138812E+02
 20
-1.88010845E+02
  0
VERTEX
  8
0
 62
4
 10
2.24448726E+02
 20
-1.88004269E+02
  0
VERTEX
  8
0
 62
4
 10
2.24754600E+02
 20
-1.87991990E+02
  0
VERTEX
  8
0
 62
4
 10
2.25054011E+02
 20
-1.87974104E+02
  0
VERTEX
  8
0
 62
4
 10
2.25344586E+02
 20
-1.87950755E+02
  0
VERTEX
  8
0
 62
4
 10
2.25624025E+02
 20
-1.87922126E+02
  0
VERTEX
  8
0
 62
4
 10
2.25890113E+02
 20
-1.87888444E+02
  0
VERTEX
  8
0
 62
4
 10
2.26140742E+02
 20
-1.87849976E+02
  0
VERTEX
  8
0
 62
4
 10
2.26373927E+02
 20
-1.87807028E+02
  0
VERTEX
  8
0
 62
4
 10
2.26587820E+02
 20
-1.87759938E+02
  0
VERTEX
  8
0
 62
4
 10
2.26780727E+02
 20
-1.87709081E+02
  0
VERTEX
  8
0
 62
4
 10
2.26951119E+02
 20
-1.87654859E+02
  0
VERTEX
  8
0
 62
4
 10
2.27097647E+02
 20
-1.87597702E+02
  0
VERTEX
  8
0
 62
4
 10
2.27219150E+02
 20
-1.87538062E+02
  0
VERTEX
  8
0
 62
4
 10
2.27314666E+02
 20
-1.87476412E+02
  0
VERTEX
  8
0
 62
4
 10
2.27383436E+02
 20
-1.87413241E+02
  0
VERTEX
  8
0
 62
4
 10
2.27424918E+02
 20
-1.87349048E+02
  0
VERTEX
  8
0
 62
4
 10
2.27438782E+02
 20
-1.87284343E+02
  0
SEQEND
  8
0
  0
POLYLINE
  8
0
 62
4
 66
1
  0
VERTEX
  8
0
 62
4
 10
2.27078782E+02
 20
-1.86306195E+02
  0
VERTEX
  8
0
 62
4
 10
2.27066833E+02
 20
-1.86249296E+02
  0
VERTEX
  8
0
 62
4
 10
2.27031078E+02
 20
-1.86192830E+02
  0
VERTEX
  8
0
 62
4
 10
2.26971789E+02
 20
-1.86137227E+02
  0
VERTEX
  8
0
 62
4
 10
2.26889417E+02
 20
-1.86082910E+02
  0
VERTEX
  8
0
 62
4
 10
2.26784588E+02
 20
-1.86030292E+02
  0
VERTEX
  8
0
 62
4
 10
2.26658102E+02
 20
-1.85979774E+02
  0
VERTEX
  8
0
 62
4
 10
2.26510919E+02
 20
-1.85931740E+02
  0
VERTEX
  8
0
 62
4
 10
2.26344162E+02
 20
-1.85886556E+02
  0
VERTEX
  8
0
 62
4
 10
2.26159097E+02
 20
-1.85844565E+02
  0
VERTEX
  8
0
 62
4
 10
2.25957135E+02
 20
-1.85806088E+02
  0
VERTEX
  8
0
 62
4
 10
2.25739812E+02
 20
-1.85771418E+02
  0
VERTEX
  8
0
 62
4
 10
2.25508782E+02
 20
-1.85740817E+02
  0
VERTEX
  8
0
 62
4
 10
2.25265803E+02
 20
-1.85714519E+02
  0
VERTEX
  8
0
 62
4
 10
2.25012725E+02
 20
-1.85692724E+02
  0
VERTEX
  8
0
 62
4
 10
2.24751474E+02
 20
-1.85675597E+02
  0
VERTEX
  8
0
 62
4
 10
2.24484037E+02
 20
-1.85663270E+02
  0
VERTEX
  8
0
 62
4
 10
2.24212451E+02
 20
-1.85655837E+02
  0
VERTEX
  8
0
 62
4
 10
2.23938782E+02
 20
-1.85653352E+02
  0
VERTEX
  8
0
 62
4
 10
2.23665113E+02
 20
-1.85655837E+02
  0
VERTEX
  8
0
 62
4
 10
2.23393527E+02
 20
-1.85663270E+02
  0
VERTEX
  8
0
 62
4
 10
2.23126090E+02
 20
-1.85675597E+02
  0
VERTEX
  8
0
 62
4
 10
2.22864839E+02
 20
-1.85692724E+02
  0
VERTEX
  8
0
 62
4
 10
2.22611761E+02
 20
-1.85714519E+02
  0
VERTEX
  8
0
 62
4
 10
2.22368782E+02
 20
-1.85740817E+02
  0
VERTEX
  8
0
 62
4
 10
2.22137752E+02
 20
-1.85771418E+02
  0
VERTEX
  8
0
 62
4
 10
2.21920429E+02
 20
-1.85806088E+02
  0
VERTEX
  8
0
 62
4
 10
2.21718467E+02
 20
-1.85844565E+02
  0
VERTEX
  8
0
 62
4
 10
2.21533402E+02
 20
-1.85886556E+02
  0
VERTEX
  8
0
 62
4
 10
2.21366645E+02
 20
-1.85931740E+02
  0
VERTEX
  8
0
 62
4
 10
2.21219462E+02
 20
-1.85979774E+02
  0
VERTEX
  8
0
 62
4
 10
2.21092976E+02
 20
-1.86030292E+02
  0
VERTEX
  8
0
 62
4
 10
2.20988147E+02
 20
-1.86082910E+02
  0
VERTEX
  8
0
 62
4
 10
2.20905775E+02
 20
-1.86137227E+02
  0
VERTEX
  8
0
 62
4
 10
2.20846486E+02
 20
-1.86192830E+02
  0
VERTEX
  8
0
 62
4
 10
2.20810731E+02
 20
-1.86249296E+02
  0
VERTEX
  8
0
 62
4
 10
2.20798782E+02
 20
-1.86306195E+02
  0
VERTEX
  8
0
 62
4
 10
2.20810731E+02
 20
-1.86363094E+02
  0
VERTEX
  8
0
 62
4
 10
2.20846486E+02
 20
-1.86419560E+02
  0
VERTEX
  8
0
 62
4
 10
2.20905775E+02
 20
-1.86475163E+02
  0
VERTEX
  8
0
 62
4
 10
2.20988147E+02
 20
-1.86529480E+02
  0
VERTEX
  8
0
 62
4
 10
2.21092976E+02
 20
-1.86582098E+02
  0
VERTEX
  8
0
 62
4
 10
2.21219462E+02
 20
-1.86632616E+02
  0
VERTEX
  8
0
 62
4
 10
2.21366645E+02
 20
-1.86680650E+02
  0
VERTEX
  8
0
 62
4
 10
2.21533402E+02
 20
-1.86725834E+02
  0
VERTEX
  8
0
 62
4
 10
2.21718467E+02
 20
-1.86767825E+02
  0
VERTEX
  8
0
 62
4
 10
2.21920429E+02
 20
-1.86806302E+02
  0
VERTEX
  8
0
 62
4
 10
2.22137752E+02
 20
-1.86840972E+02
  0
VERTEX
  8
0
 62
4
 10
2.22368782E+02
 20
-1.86871573E+02
  0
VERTEX
  8
0
 62
4
 10
2.22611761E+02
 20
-1.86897871E+02
  0
VERTEX
  8
0
 62
4
 10
2.22864839E+02
 20
-1.86919666E+02
  0
VERTEX
  8
0
 62
4
 10
2.23126090E+02
 20
-1.86936793E+02
  0
VERTEX
  8
0
 62
4
 10
2.23393527E+02
 20
-1.86949120E+02
  0
VERTEX
  8
0
 62
4
 10
2.23665113E+02
 20
-1.86956553E+02
  0
VERTEX
  8
0
 62
4
 10
2.23938782E+02
 20
-1.86959038E+02
  0
VERTEX
  8
0
 62
4
 10
2.24212451E+02
 20
-1.86956553E+02
  0
VERTEX
  8
0
 62
4
 10
2.24484037E+02
 20
-1.86949120E+02
  0
VERTEX
  8
0
 62
4
 10
2.24751474E+02
 20
-1.86936793E+02
  0
VERTEX
  8
0
 62
4
 10
2.25012725E+02
 20
-1.86919666E+02
  0
VERTEX
  8
0
 62
4
 10
2.25265803E+02
 20
-1.86897871E+02
  0
VERTEX
  8
0
 62
4
 10
2.25508782E+02
 20
-1.86871573E+02
  0
VERTEX
  8
0
 62
4
 10
2.25739812E+02
 20
-1.86840972E+02
  0
VERTEX
  8
0
 62
4
 10
2.25957135E+02
 20
-1.86806302E+02
  0
VERTEX
  8
0
 62
4
 10
2.26159097E+02
 20
-1.86767825E+02
  0
VERTEX
  8
0
 62
4
 10
2.26344162E+02
 20
-1.86725834E+02
  0
VERTEX
  8
0
 62
4
 10
2.26510919E+02
 20
-1.86680650E+02
  0
VERTEX
  8
0
 62
4
 10
2.26658102E+02
 20
-1.86632616E+02
  0
VERTEX
  8
0
 62
4
 10
2.26784588E+02
 20
-1.86582098E+02
  0
VERTEX
  8
0
 62
4
 10
2.26889417E+02
 20
-1.86529480E+02
  0
VERTEX
  8
0
 62
4
 10
2.26971789E+02
 20
-1.86475163E+02
  0
VERTEX
  8
0
 62
4
 10
2.27031078E+02
 20
-1.86419560E+02
  0
VERTEX
  8
0
 62
4
 10
2.27066833E+02
 20
-1.86363094E+02
  0
VERTEX
  8
0
 62
4
 10
2.27078782E+02
 20
-1.86306195E+02
  0
SEQEND
  8
0
  0
LINE
  8
0
  6
CENTER
 62
6
 10
2.23938782E+02
 20
-1.84223230E+02
 11
2.23938782E+02
 21
-1.86306195E+02
  0
LINE
  8
0
 62
4
 10
2.32438782E+02
 20
-1.85254367E+02
 11
2.14438782E+02
 21
-1.85254367E+02
  0
ARC
  8
0
 62
4
 10
2.50439282E+02
 20
-1.90759004E+02
 40
1.49950029E+00
 50
3.59980903E+02
 51
9.00190969E+01
  0
LINE
  8
0
 62
4
 10
2.50438782E+02
 20
-1.89259504E+02
 11
2.14438782E+02
 21
-1.89259504E+02
  0
ARC
  8
0
 62
4
 10
2.14438282E+02
 20
-1.90759004E+02
 40
1.49950029E+00
 50
8.99809029E+01
 51
1.80019097E+02
  0
LINE
  8
0
 62
4
 10
2.48938782E+02
 20
-2.07740352E+02
 11
2.51938782E+02
 21
-2.04451497E+02
  0
LINE
  8
0
 62
4
 10
2.15938782E+02
 20
-2.07740352E+02
 11
2.12938782E+02
 21
-2.04451497E+02
  0
LINE
  8
0
 62
4
 10
2.32438782E+02
 20
-2.07740352E+02
 11
2.15938782E+02
 21
-2.07740352E+02
  0
LINE
  8
0
 62
4
 10
2.48938782E+02
 20
-2.07740352E+02
 11
2.47438782E+02
 21
-2.07740352E+02
  0
POLYLINE
  8
0
 62
6
 66
1
  0
VERTEX
  8
0
 62
6
 10
2.45438782E+02
 20
-2.15935988E+02
  0
VERTEX
  8
0
 62
6
 10
2.45433074E+02
 20
-2.15808111E+02
  0
VERTEX
  8
0
 62
6
 10
2.45415994E+02
 20
-2.15681208E+02
  0
VERTEX
  8
0
 62
6
 10
2.45387671E+02
 20
-2.15556243E+02
  0
VERTEX
  8
0
 62
6
 10
2.45348321E+02
 20
-2.15434169E+02
  0
VERTEX
  8
0
 62
6
 10
2.45298244E+02
 20
-2.15315913E+02
  0
VERTEX
  8
0
 62
6
 10
2.45237820E+02
 20
-2.15202377E+02
  0
VERTEX
  8
0
 62
6
 10
2.45167510E+02
 20
-2.15094424E+02
  0
VERTEX
  8
0
 62
6
 10
2.45087849E+02
 20
-2.14992876E+02
  0
VERTEX
  8
0
 62
6
 10
2.44999442E+02
 20
-2.14898506E+02
  0
VERTEX
  8
0
 62
6
 10
2.44902963E+02
 20
-2.14812031E+02
  0
VERTEX
  8
0
 62
6
 10
2.44799147E+02
 20
-2.14734111E+02
  0
VERTEX
  8
0
 62
6
 10
2.44688782E+02
 20
-2.14665337E+02
  0
VERTEX
  8
0
 62
6
 10
2.44572709E+02
 20
-2.14606234E+02
  0
VERTEX
  8
0
 62
6
 10
2.44451812E+02
 20
-2.14557251E+02
  0
VERTEX
  8
0
 62
6
 10
2.44327011E+02
 20
-2.14518761E+02
  0
VERTEX
  8
0
 62
6
 10
2.44199254E+02
 20
-2.14491057E+02
  0
VERTEX
  8
0
 62
6
 10
2.44069516E+02
 20
-2.14474350E+02
  0
VERTEX
  8
0
 62
6
 10
2.43938782E+02
 20
-2.14468767E+02
  0
VERTEX
  8
0
 62
6
 10
2.43808048E+02
 20
-2.14474350E+02
  0
VERTEX
  8
0
 62
6
 10
2.43678310E+02
 20
-2.14491057E+02
  0
VERTEX
  8
0
 62
6
 10
2.43550553E+02
 20
-2.14518761E+02
  0
VERTEX
  8
0
 62
6
 10
2.43425752E+02
 20
-2.14557251E+02
  0
VERTEX
  8
0
 62
6
 10
2.43304855E+02
 20
-2.14606234E+02
  0
VERTEX
  8
0
 62
6
 10
2.43188782E+02
 20
-2.14665337E+02
  0
VERTEX
  8
0
 62
6
 10
2.43078417E+02
 20
-2.14734111E+02
  0
VERTEX
  8
0
 62
6
 10
2.42974601E+02
 20
-2.14812031E+02
  0
VERTEX
  8
0
 62
6
 10
2.42878122E+02
 20
-2.14898506E+02
  0
VERTEX
  8
0
 62
6
 10
2.42789715E+02
 20
-2.14992876E+02
  0
VERTEX
  8
0
 62
6
 10
2.42710054E+02
 20
-2.15094424E+02
  0
VERTEX
  8
0
 62
6
 10
2.42639744E+02
 20
-2.15202377E+02
  0
VERTEX
  8
0
 62
6
 10
2.42579320E+02
 20
-2.15315913E+02
  0
VERTEX
  8
0
 62
6
 10
2.42529243E+02
 20
-2.15434169E+02
  0
VERTEX
  8
0
 62
6
 10
2.42489893E+02
 20
-2.15556243E+02
  0
VERTEX
  8
0
 62
6
 10
2.42461570E+02
 20
-2.15681208E+02
  0
VERTEX
  8
0
 62
6
 10
2.42444490E+02
 20
-2.15808111E+02
  0
VERTEX
  8
0
 62
6
 10
2.42438782E+02
 20
-2.15935988E+02
  0
VERTEX
  8
0
 62
6
 10
2.42444490E+02
 20
-2.16063865E+02
  0
VERTEX
  8
0
 62
6
 10
2.42461570E+02
 20
-2.16190768E+02
  0
VERTEX
  8
0
 62
6
 10
2.42489893E+02
 20
-2.16315733E+02
  0
VERTEX
  8
0
 62
6
 10
2.42529243E+02
 20
-2.16437807E+02
  0
VERTEX
  8
0
 62
6
 10
2.42579320E+02
 20
-2.16556063E+02
  0
VERTEX
  8
0
 62
6
 10
2.42639744E+02
 20
-2.16669599E+02
  0
VERTEX
  8
0
 62
6
 10
2.42710054E+02
 20
-2.16777552E+02
  0
VERTEX
  8
0
 62
6
 10
2.42789715E+02
 20
-2.16879100E+02
  0
VERTEX
  8
0
 62
6
 10
2.42878122E+02
 20
-2.16973470E+02
  0
VERTEX
  8
0
 62
6
 10
2.42974601E+02
 20
-2.17059945E+02
  0
VERTEX
  8
0
 62
6
 10
2.43078417E+02
 20
-2.17137865E+02
  0
VERTEX
  8
0
 62
6
 10
2.43188782E+02
 20
-2.17206639E+02
  0
VERTEX
  8
0
 62
6
 10
2.43304855E+02
 20
-2.17265742E+02
  0
VERTEX
  8
0
 62
6
 10
2.43425752E+02
 20
-2.17314725E+02
  0
VERTEX
  8
0
 62
6
 10
2.43550553E+02
 20
-2.17353215E+02
  0
VERTEX
  8
0
 62
6
 10
2.43678310E+02
 20
-2.17380919E+02
  0
VERTEX
  8
0
 62
6
 10
2.43808048E+02
 20
-2.17397626E+02
  0
VERTEX
  8
0
 62
6
 10
2.43938782E+02
 20
-2.17403209E+02
  0
VERTEX
  8
0
 62
6
 10
2.44069516E+02
 20
-2.17397626E+02
  0
VERTEX
  8
0
 62
6
 10
2.44199254E+02
 20
-2.17380919E+02
  0
VERTEX
  8
0
 62
6
 10
2.44327011E+02
 20
-2.17353215E+02
  0
VERTEX
  8
0
 62
6
 10
2.44451812E+02
 20
-2.17314725E+02
  0
VERTEX
  8
0
 62
6
 10
2.44572709E+02
 20
-2.17265742E+02
  0
VERTEX
  8
0
 62
6
 10
2.44688782E+02
 20
-2.17206639E+02
  0
VERTEX
  8
0
 62
6
 10
2.44799147E+02
 20
-2.17137865E+02
  0
VERTEX
  8
0
 62
6
 10
2.44902963E+02
 20
-2.17059945E+02
  0
VERTEX
  8
0
 62
6
 10
2.44999442E+02
 20
-2.16973470E+02
  0
VERTEX
  8
0
 62
6
 10
2.45087849E+02
 20
-2.16879100E+02
  0
VERTEX
  8
0
 62
6
 10
2.45167510E+02
 20
-2.16777552E+02
  0
VERTEX
  8
0
 62
6
 10
2.45237820E+02
 20
-2.16669599E+02
  0
VERTEX
  8
0
 62
6
 10
2.45298244E+02
 20
-2.16556063E+02
  0
VERTEX
  8
0
 62
6
 10
2.45348321E+02
 20
-2.16437807E+02
  0
VERTEX
  8
0
 62
6
 10
2.45387671E+02
 20
-2.16315733E+02
  0
VERTEX
  8
0
 62
6
 10
2.45415994E+02
 20
-2.16190768E+02
  0
VERTEX
  8
0
 62
6
 10
2.45433074E+02
 20
-2.16063865E+02
  0
VERTEX
  8
0
 62
6
 10
2.45438782E+02
 20
-2.15935988E+02
  0
SEQEND
  8
0
  0
POLYLINE
  8
0
 62
4
 66
1
  0
VERTEX
  8
0
 62
4
 10
2.45673782E+02
 20
-2.15940878E+02
  0
VERTEX
  8
0
 62
4
 10
2.45667180E+02
 20
-2.15792967E+02
  0
VERTEX
  8
0
 62
4
 10
2.45647423E+02
 20
-2.15646182E+02
  0
VERTEX
  8
0
 62
4
 10
2.45614663E+02
 20
-2.15501640E+02
  0
VERTEX
  8
0
 62
4
 10
2.45569149E+02
 20
-2.15360440E+02
  0
VERTEX
  8
0
 62
4
 10
2.45511226E+02
 20
-2.15223658E+02
  0
VERTEX
  8
0
 62
4
 10
2.45441336E+02
 20
-2.15092335E+02
  0
VERTEX
  8
0
 62
4
 10
2.45360011E+02
 20
-2.14967469E+02
  0
VERTEX
  8
0
 62
4
 10
2.45267869E+02
 20
-2.14850012E+02
  0
VERTEX
  8
0
 62
4
 10
2.45165612E+02
 20
-2.14740857E+02
  0
VERTEX
  8
0
 62
4
 10
2.45054019E+02
 20
-2.14640835E+02
  0
VERTEX
  8
0
 62
4
 10
2.44933937E+02
 20
-2.14550706E+02
  0
VERTEX
  8
0
 62
4
 10
2.44806282E+02
 20
-2.14471158E+02
  0
VERTEX
  8
0
 62
4
 10
2.44672025E+02
 20
-2.14402796E+02
  0
VERTEX
  8
0
 62
4
 10
2.44532187E+02
 20
-2.14346139E+02
  0
VERTEX
  8
0
 62
4
 10
2.44387833E+02
 20
-2.14301619E+02
  0
VERTEX
  8
0
 62
4
 10
2.44240062E+02
 20
-2.14269574E+02
  0
VERTEX
  8
0
 62
4
 10
2.44089997E+02
 20
-2.14250250E+02
  0
VERTEX
  8
0
 62
4
 10
2.43938782E+02
 20
-2.14243792E+02
  0
VERTEX
  8
0
 62
4
 10
2.43787567E+02
 20
-2.14250250E+02
  0
VERTEX
  8
0
 62
4
 10
2.43637502E+02
 20
-2.14269574E+02
  0
VERTEX
  8
0
 62
4
 10
2.43489731E+02
 20
-2.14301619E+02
  0
VERTEX
  8
0
 62
4
 10
2.43345377E+02
 20
-2.14346139E+02
  0
VERTEX
  8
0
 62
4
 10
2.43205539E+02
 20
-2.14402796E+02
  0
VERTEX
  8
0
 62
4
 10
2.43071282E+02
 20
-2.14471158E+02
  0
VERTEX
  8
0
 62
4
 10
2.42943627E+02
 20
-2.14550706E+02
  0
VERTEX
  8
0
 62
4
 10
2.42823545E+02
 20
-2.14640835E+02
  0
VERTEX
  8
0
 62
4
 10
2.42711952E+02
 20
-2.14740857E+02
  0
VERTEX
  8
0
 62
4
 10
2.42609695E+02
 20
-2.14850012E+02
  0
VERTEX
  8
0
 62
4
 10
2.42517553E+02
 20
-2.14967469E+02
  0
VERTEX
  8
0
 62
4
 10
2.42436228E+02
 20
-2.15092335E+02
  0
VERTEX
  8
0
 62
4
 10
2.42366338E+02
 20
-2.15223658E+02
  0
VERTEX
  8
0
 62
4
 10
2.42308415E+02
 20
-2.15360440E+02
  0
VERTEX
  8
0
 62
4
 10
2.42262901E+02
 20
-2.15501640E+02
  0
VERTEX
  8
0
 62
4
 10
2.42230141E+02
 20
-2.15646182E+02
  0
VERTEX
  8
0
 62
4
 10
2.42210384E+02
 20
-2.15792967E+02
  0
VERTEX
  8
0
 62
4
 10
2.42203782E+02
 20
-2.15940878E+02
  0
VERTEX
  8
0
 62
4
 10
2.42210384E+02
 20
-2.16088789E+02
  0
VERTEX
  8
0
 62
4
 10
2.42230141E+02
 20
-2.16235574E+02
  0
VERTEX
  8
0
 62
4
 10
2.42262901E+02
 20
-2.16380116E+02
  0
VERTEX
  8
0
 62
4
 10
2.42308415E+02
 20
-2.16521316E+02
  0
VERTEX
  8
0
 62
4
 10
2.42366338E+02
 20
-2.16658098E+02
  0
VERTEX
  8
0
 62
4
 10
2.42436228E+02
 20
-2.16789421E+02
  0
VERTEX
  8
0
 62
4
 10
2.42517553E+02
 20
-2.16914287E+02
  0
VERTEX
  8
0
 62
4
 10
2.42609695E+02
 20
-2.17031744E+02
  0
VERTEX
  8
0
 62
4
 10
2.42711952E+02
 20
-2.17140899E+02
  0
VERTEX
  8
0
 62
4
 10
2.42823545E+02
 20
-2.17240921E+02
  0
VERTEX
  8
0
 62
4
 10
2.42943627E+02
 20
-2.17331050E+02
  0
VERTEX
  8
0
 62
4
 10
2.43071282E+02
 20
-2.17410598E+02
  0
VERTEX
  8
0
 62
4
 10
2.43205539E+02
 20
-2.17478960E+02
  0
VERTEX
  8
0
 62
4
 10
2.43345377E+02
 20
-2.17535617E+02
  0
VERTEX
  8
0
 62
4
 10
2.43489731E+02
 20
-2.17580137E+02
  0
VERTEX
  8
0
 62
4
 10
2.43637502E+02
 20
-2.17612182E+02
  0
VERTEX
  8
0
 62
4
 10
2.43787567E+02
 20
-2.17631506E+02
  0
VERTEX
  8
0
 62
4
 10
2.43938782E+02
 20
-2.17637964E+02
  0
VERTEX
  8
0
 62
4
 10
2.44089997E+02
 20
-2.17631506E+02
  0
VERTEX
  8
0
 62
4
 10
2.44240062E+02
 20
-2.17612182E+02
  0
VERTEX
  8
0
 62
4
 10
2.44387833E+02
 20
-2.17580137E+02
  0
VERTEX
  8
0
 62
4
 10
2.44532187E+02
 20
-2.17535617E+02
  0
VERTEX
  8
0
 62
4
 10
2.44672025E+02
 20
-2.17478960E+02
  0
VERTEX
  8
0
 62
4
 10
2.44806282E+02
 20
-2.17410598E+02
  0
VERTEX
  8
0
 62
4
 10
2.44933937E+02
 20
-2.17331050E+02
  0
VERTEX
  8
0
 62
4
 10
2.45054019E+02
 20
-2.17240921E+02
  0
VERTEX
  8
0
 62
4
 10
2.45165612E+02
 20
-2.17140899E+02
  0
VERTEX
  8
0
 62
4
 10
2.45267869E+02
 20
-2.17031744E+02
  0
VERTEX
  8
0
 62
4
 10
2.45360011E+02
 20
-2.16914287E+02
  0
VERTEX
  8
0
 62
4
 10
2.45441336E+02
 20
-2.16789421E+02
  0
VERTEX
  8
0
 62
4
 10
2.45511226E+02
 20
-2.16658098E+02
  0
VERTEX
  8
0
 62
4
 10
2.45569149E+02
 20
-2.16521316E+02
  0
VERTEX
  8
0
 62
4
 10
2.45614663E+02
 20
-2.16380116E+02
  0
VERTEX
  8
0
 62
4
 10
2.45647423E+02
 20
-2.16235574E+02
  0
VERTEX
  8
0
 62
4
 10
2.45667180E+02
 20
-2.16088789E+02
  0
VERTEX
  8
0
 62
4
 10
2.45673782E+02
 20
-2.15940878E+02
  0
SEQEND
  8
0
  0
POLYLINE
  8
0
 62
4
 66
1
  0
VERTEX
  8
0
 62
4
 10
2.43938782E+02
 20
-2.17684371E+02
  0
VERTEX
  8
0
 62
4
 10
2.44113093E+02
 20
-2.17676488E+02
  0
VERTEX
  8
0
 62
4
 10
2.44286078E+02
 20
-2.17652897E+02
  0
VERTEX
  8
0
 62
4
 10
2.44456420E+02
 20
-2.17613779E+02
  0
VERTEX
  8
0
 62
4
 10
2.44622822E+02
 20
-2.17559431E+02
  0
VERTEX
  8
0
 62
4
 10
2.44784019E+02
 20
-2.17490267E+02
  0
VERTEX
  8
0
 62
4
 10
2.44938782E+02
 20
-2.17406814E+02
  0
VERTEX
  8
0
 62
4
 10
2.45085935E+02
 20
-2.17309705E+02
  0
VERTEX
  8
0
 62
4
 10
2.45224357E+02
 20
-2.17199681E+02
  0
VERTEX
  8
0
 62
4
 10
2.45352996E+02
 20
-2.17077579E+02
  0
VERTEX
  8
0
 62
4
 10
2.45470871E+02
 20
-2.16944328E+02
  0
VERTEX
  8
0
 62
4
 10
2.45577086E+02
 20
-2.16800942E+02
  0
VERTEX
  8
0
 62
4
 10
2.45670833E+02
 20
-2.16648512E+02
  0
VERTEX
  8
0
 62
4
 10
2.45751398E+02
 20
-2.16488199E+02
  0
VERTEX
  8
0
 62
4
 10
2.45818167E+02
 20
-2.16321222E+02
  0
VERTEX
  8
0
 62
4
 10
2.45870634E+02
 20
-2.16148853E+02
  0
VERTEX
  8
0
 62
4
 10
2.45908398E+02
 20
-2.15972403E+02
  0
VERTEX
  8
0
 62
4
 10
2.45931171E+02
 20
-2.15793215E+02
  0
VERTEX
  8
0
 62
4
 10
2.45938782E+02
 20
-2.15612653E+02
  0
VERTEX
  8
0
 62
4
 10
2.45931171E+02
 20
-2.15432091E+02
  0
VERTEX
  8
0
 62
4
 10
2.45908398E+02
 20
-2.15252903E+02
  0
VERTEX
  8
0
 62
4
 10
2.45870634E+02
 20
-2.15076453E+02
  0
VERTEX
  8
0
 62
4
 10
2.45818167E+02
 20
-2.14904084E+02
  0
VERTEX
  8
0
 62
4
 10
2.45751398E+02
 20
-2.14737107E+02
  0
VERTEX
  8
0
 62
4
 10
2.45670833E+02
 20
-2.14576794E+02
  0
VERTEX
  8
0
 62
4
 10
2.45577086E+02
 20
-2.14424364E+02
  0
VERTEX
  8
0
 62
4
 10
2.45470871E+02
 20
-2.14280978E+02
  0
VERTEX
  8
0
 62
4
 10
2.45352996E+02
 20
-2.14147727E+02
  0
VERTEX
  8
0
 62
4
 10
2.45224357E+02
 20
-2.14025625E+02
  0
VERTEX
  8
0
 62
4
 10
2.45085935E+02
 20
-2.13915601E+02
  0
VERTEX
  8
0
 62
4
 10
2.44938782E+02
 20
-2.13818492E+02
  0
VERTEX
  8
0
 62
4
 10
2.44784019E+02
 20
-2.13735039E+02
  0
VERTEX
  8
0
 62
4
 10
2.44622822E+02
 20
-2.13665875E+02
  0
VERTEX
  8
0
 62
4
 10
2.44456420E+02
 20
-2.13611527E+02
  0
VERTEX
  8
0
 62
4
 10
2.44286078E+02
 20
-2.13572409E+02
  0
VERTEX
  8
0
 62
4
 10
2.44113093E+02
 20
-2.13548818E+02
  0
VERTEX
  8
0
 62
4
 10
2.43938782E+02
 20
-2.13540935E+02
  0
VERTEX
  8
0
 62
4
 10
2.43764471E+02
 20
-2.13548818E+02
  0
VERTEX
  8
0
 62
4
 10
2.43591486E+02
 20
-2.13572409E+02
  0
VERTEX
  8
0
 62
4
 10
2.43421144E+02
 20
-2.13611527E+02
  0
VERTEX
  8
0
 62
4
 10
2.43254742E+02
 20
-2.13665875E+02
  0
VERTEX
  8
0
 62
4
 10
2.43093545E+02
 20
-2.13735039E+02
  0
VERTEX
  8
0
 62
4
 10
2.42938782E+02
 20
-2.13818492E+02
  0
VERTEX
  8
0
 62
4
 10
2.42791629E+02
 20
-2.13915601E+02
  0
VERTEX
  8
0
 62
4
 10
2.42653207E+02
 20
-2.14025625E+02
  0
VERTEX
  8
0
 62
4
 10
2.42524568E+02
 20
-2.14147727E+02
  0
VERTEX
  8
0
 62
4
 10
2.42406693E+02
 20
-2.14280978E+02
  0
VERTEX
  8
0
 62
4
 10
2.42300478E+02
 20
-2.14424364E+02
  0
VERTEX
  8
0
 62
4
 10
2.42206731E+02
 20
-2.14576794E+02
  0
VERTEX
  8
0
 62
4
 10
2.42126166E+02
 20
-2.14737107E+02
  0
VERTEX
  8
0
 62
4
 10
2.42059397E+02
 20
-2.14904084E+02
  0
VERTEX
  8
0
 62
4
 10
2.42006930E+02
 20
-2.15076453E+02
  0
VERTEX
  8
0
 62
4
 10
2.41969166E+02
 20
-2.15252903E+02
  0
VERTEX
  8
0
 62
4
 10
2.41946393E+02
 20
-2.15432091E+02
  0
VERTEX
  8
0
 62
4
 10
2.41938782E+02
 20
-2.15612653E+02
  0
VERTEX
  8
0
 62
4
 10
2.41946393E+02
 20
-2.15793215E+02
  0
VERTEX
  8
0
 62
4
 10
2.41969166E+02
 20
-2.15972403E+02
  0
VERTEX
  8
0
 62
4
 10
2.42006930E+02
 20
-2.16148853E+02
  0
VERTEX
  8
0
 62
4
 10
2.42059397E+02
 20
-2.16321222E+02
  0
VERTEX
  8
0
 62
4
 10
2.42126166E+02
 20
-2.16488199E+02
  0
VERTEX
  8
0
 62
4
 10
2.42206731E+02
 20
-2.16648512E+02
  0
VERTEX
  8
0
 62
4
 10
2.42300478E+02
 20
-2.16800942E+02
  0
VERTEX
  8
0
 62
4
 10
2.42406693E+02
 20
-2.16944328E+02
  0
VERTEX
  8
0
 62
4
 10
2.42524568E+02
 20
-2.17077579E+02
  0
VERTEX
  8
0
 62
4
 10
2.42653207E+02
 20
-2.17199681E+02
  0
VERTEX
  8
0
 62
4
 10
2.42791629E+02
 20
-2.17309705E+02
  0
VERTEX
  8
0
 62
4
 10
2.42938782E+02
 20
-2.17406814E+02
  0
VERTEX
  8
0
 62
4
 10
2.43093545E+02
 20
-2.17490267E+02
  0
VERTEX
  8
0
 62
4
 10
2.43254742E+02
 20
-2.17559431E+02
  0
VERTEX
  8
0
 62
4
 10
2.43421144E+02
 20
-2.17613779E+02
  0
VERTEX
  8
0
 62
4
 10
2.43591486E+02
 20
-2.17652897E+02
  0
VERTEX
  8
0
 62
4
 10
2.43764471E+02
 20
-2.17676488E+02
  0
VERTEX
  8
0
 62
4
 10
2.43938782E+02
 20
-2.17684371E+02
  0
SEQEND
  8
0
  0
LINE
  8
0
  6
CENTER
 62
6
 10
2.43938782E+02
 20
-2.13013720E+02
 11
2.43938782E+02
 21
-2.18858255E+02
  0
LINE
  8
0
  6
CENTER
 62
6
 10
2.33016514E+02
 20
-2.15935988E+02
 11
2.46861049E+02
 21
-2.15935988E+02
  0
POLYLINE
  8
0
 62
6
 66
1
  0
VERTEX
  8
0
 62
6
 10
2.37438782E+02
 20
-2.15935988E+02
  0
VERTEX
  8
0
 62
6
 10
2.37433074E+02
 20
-2.15808111E+02
  0
VERTEX
  8
0
 62
6
 10
2.37415994E+02
 20
-2.15681208E+02
  0
VERTEX
  8
0
 62
6
 10
2.37387671E+02
 20
-2.15556243E+02
  0
VERTEX
  8
0
 62
6
 10
2.37348321E+02
 20
-2.15434169E+02
  0
VERTEX
  8
0
 62
6
 10
2.37298244E+02
 20
-2.15315913E+02
  0
VERTEX
  8
0
 62
6
 10
2.37237820E+02
 20
-2.15202377E+02
  0
VERTEX
  8
0
 62
6
 10
2.37167510E+02
 20
-2.15094424E+02
  0
VERTEX
  8
0
 62
6
 10
2.37087849E+02
 20
-2.14992876E+02
  0
VERTEX
  8
0
 62
6
 10
2.36999442E+02
 20
-2.14898506E+02
  0
VERTEX
  8
0
 62
6
 10
2.36902963E+02
 20
-2.14812031E+02
  0
VERTEX
  8
0
 62
6
 10
2.36799147E+02
 20
-2.14734111E+02
  0
VERTEX
  8
0
 62
6
 10
2.36688782E+02
 20
-2.14665337E+02
  0
VERTEX
  8
0
 62
6
 10
2.36572709E+02
 20
-2.14606234E+02
  0
VERTEX
  8
0
 62
6
 10
2.36451812E+02
 20
-2.14557251E+02
  0
VERTEX
  8
0
 62
6
 10
2.36327011E+02
 20
-2.14518761E+02
  0
VERTEX
  8
0
 62
6
 10
2.36199254E+02
 20
-2.14491057E+02
  0
VERTEX
  8
0
 62
6
 10
2.36069516E+02
 20
-2.14474350E+02
  0
VERTEX
  8
0
 62
6
 10
2.35938782E+02
 20
-2.14468767E+02
  0
VERTEX
  8
0
 62
6
 10
2.35808048E+02
 20
-2.14474350E+02
  0
VERTEX
  8
0
 62
6
 10
2.35678310E+02
 20
-2.14491057E+02
  0
VERTEX
  8
0
 62
6
 10
2.35550553E+02
 20
-2.14518761E+02
  0
VERTEX
  8
0
 62
6
 10
2.35425752E+02
 20
-2.14557251E+02
  0
VERTEX
  8
0
 62
6
 10
2.35304855E+02
 20
-2.14606234E+02
  0
VERTEX
  8
0
 62
6
 10
2.35188782E+02
 20
-2.14665337E+02
  0
VERTEX
  8
0
 62
6
 10
2.35078417E+02
 20
-2.14734111E+02
  0
VERTEX
  8
0
 62
6
 10
2.34974601E+02
 20
-2.14812031E+02
  0
VERTEX
  8
0
 62
6
 10
2.34878122E+02
 20
-2.14898506E+02
  0
VERTEX
  8
0
 62
6
 10
2.34789715E+02
 20
-2.14992876E+02
  0
VERTEX
  8
0
 62
6
 10
2.34710054E+02
 20
-2.15094424E+02
  0
VERTEX
  8
0
 62
6
 10
2.34639744E+02
 20
-2.15202377E+02
  0
VERTEX
  8
0
 62
6
 10
2.34579320E+02
 20
-2.15315913E+02
  0
VERTEX
  8
0
 62
6
 10
2.34529243E+02
 20
-2.15434169E+02
  0
VERTEX
  8
0
 62
6
 10
2.34489893E+02
 20
-2.15556243E+02
  0
VERTEX
  8
0
 62
6
 10
2.34461570E+02
 20
-2.15681208E+02
  0
VERTEX
  8
0
 62
6
 10
2.34444490E+02
 20
-2.15808111E+02
  0
VERTEX
  8
0
 62
6
 10
2.34438782E+02
 20
-2.15935988E+02
  0
VERTEX
  8
0
 62
6
 10
2.34444490E+02
 20
-2.16063865E+02
  0
VERTEX
  8
0
 62
6
 10
2.34461570E+02
 20
-2.16190768E+02
  0
VERTEX
  8
0
 62
6
 10
2.34489893E+02
 20
-2.16315733E+02
  0
VERTEX
  8
0
 62
6
 10
2.34529243E+02
 20
-2.16437807E+02
  0
VERTEX
  8
0
 62
6
 10
2.34579320E+02
 20
-2.16556063E+02
  0
VERTEX
  8
0
 62
6
 10
2.34639744E+02
 20
-2.16669599E+02
  0
VERTEX
  8
0
 62
6
 10
2.34710054E+02
 20
-2.16777552E+02
  0
VERTEX
  8
0
 62
6
 10
2.34789715E+02
 20
-2.16879100E+02
  0
VERTEX
  8
0
 62
6
 10
2.34878122E+02
 20
-2.16973470E+02
  0
VERTEX
  8
0
 62
6
 10
2.34974601E+02
 20
-2.17059945E+02
  0
VERTEX
  8
0
 62
6
 10
2.35078417E+02
 20
-2.17137865E+02
  0
VERTEX
  8
0
 62
6
 10
2.35188782E+02
 20
-2.17206639E+02
  0
VERTEX
  8
0
 62
6
 10
2.35304855E+02
 20
-2.17265742E+02
  0
VERTEX
  8
0
 62
6
 10
2.35425752E+02
 20
-2.17314725E+02
  0
VERTEX
  8
0
 62
6
 10
2.35550553E+02
 20
-2.17353215E+02
  0
VERTEX
  8
0
 62
6
 10
2.35678310E+02
 20
-2.17380919E+02
  0
VERTEX
  8
0
 62
6
 10
2.35808048E+02
 20
-2.17397626E+02
  0
VERTEX
  8
0
 62
6
 10
2.35938782E+02
 20
-2.17403209E+02
  0
VERTEX
  8
0
 62
6
 10
2.36069516E+02
 20
-2.17397626E+02
  0
VERTEX
  8
0
 62
6
 10
2.36199254E+02
 20
-2.17380919E+02
  0
VERTEX
  8
0
 62
6
 10
2.36327011E+02
 20
-2.17353215E+02
  0
VERTEX
  8
0
 62
6
 10
2.36451812E+02
 20
-2.17314725E+02
  0
VERTEX
  8
0
 62
6
 10
2.36572709E+02
 20
-2.17265742E+02
  0
VERTEX
  8
0
 62
6
 10
2.36688782E+02
 20
-2.17206639E+02
  0
VERTEX
  8
0
 62
6
 10
2.36799147E+02
 20
-2.17137865E+02
  0
VERTEX
  8
0
 62
6
 10
2.36902963E+02
 20
-2.17059945E+02
  0
VERTEX
  8
0
 62
6
 10
2.36999442E+02
 20
-2.16973470E+02
  0
VERTEX
  8
0
 62
6
 10
2.37087849E+02
 20
-2.16879100E+02
  0
VERTEX
  8
0
 62
6
 10
2.37167510E+02
 20
-2.16777552E+02
  0
VERTEX
  8
0
 62
6
 10
2.37237820E+02
 20
-2.16669599E+02
  0
VERTEX
  8
0
 62
6
 10
2.37298244E+02
 20
-2.16556063E+02
  0
VERTEX
  8
0
 62
6
 10
2.37348321E+02
 20
-2.16437807E+02
  0
VERTEX
  8
0
 62
6
 10
2.37387671E+02
 20
-2.16315733E+02
  0
VERTEX
  8
0
 62
6
 10
2.37415994E+02
 20
-2.16190768E+02
  0
VERTEX
  8
0
 62
6
 10
2.37433074E+02
 20
-2.16063865E+02
  0
VERTEX
  8
0
 62
6
 10
2.37438782E+02
 20
-2.15935988E+02
  0
SEQEND
  8
0
  0
POLYLINE
  8
0
 62
4
 66
1
  0
VERTEX
  8
0
 62
4
 10
2.37673782E+02
 20
-2.15940878E+02
  0
VERTEX
  8
0
 62
4
 10
2.37667180E+02
 20
-2.15792967E+02
  0
VERTEX
  8
0
 62
4
 10
2.37647423E+02
 20
-2.15646182E+02
  0
VERTEX
  8
0
 62
4
 10
2.37614663E+02
 20
-2.15501640E+02
  0
VERTEX
  8
0
 62
4
 10
2.37569149E+02
 20
-2.15360440E+02
  0
VERTEX
  8
0
 62
4
 10
2.37511226E+02
 20
-2.15223658E+02
  0
VERTEX
  8
0
 62
4
 10
2.37441336E+02
 20
-2.15092335E+02
  0
VERTEX
  8
0
 62
4
 10
2.37360011E+02
 20
-2.14967469E+02
  0
VERTEX
  8
0
 62
4
 10
2.37267869E+02
 20
-2.14850012E+02
  0
VERTEX
  8
0
 62
4
 10
2.37165612E+02
 20
-2.14740857E+02
  0
VERTEX
  8
0
 62
4
 10
2.37054019E+02
 20
-2.14640835E+02
  0
VERTEX
  8
0
 62
4
 10
2.36933937E+02
 20
-2.14550706E+02
  0
VERTEX
  8
0
 62
4
 10
2.36806282E+02
 20
-2.14471158E+02
  0
VERTEX
  8
0
 62
4
 10
2.36672025E+02
 20
-2.14402796E+02
  0
VERTEX
  8
0
 62
4
 10
2.36532187E+02
 20
-2.14346139E+02
  0
VERTEX
  8
0
 62
4
 10
2.36387833E+02
 20
-2.14301619E+02
  0
VERTEX
  8
0
 62
4
 10
2.36240062E+02
 20
-2.14269574E+02
  0
VERTEX
  8
0
 62
4
 10
2.36089997E+02
 20
-2.14250250E+02
  0
VERTEX
  8
0
 62
4
 10
2.35938782E+02
 20
-2.14243792E+02
  0
VERTEX
  8
0
 62
4
 10
2.35787567E+02
 20
-2.14250250E+02
  0
VERTEX
  8
0
 62
4
 10
2.35637502E+02
 20
-2.14269574E+02
  0
VERTEX
  8
0
 62
4
 10
2.35489731E+02
 20
-2.14301619E+02
  0
VERTEX
  8
0
 62
4
 10
2.35345377E+02
 20
-2.14346139E+02
  0
VERTEX
  8
0
 62
4
 10
2.35205539E+02
 20
-2.14402796E+02
  0
VERTEX
  8
0
 62
4
 10
2.35071282E+02
 20
-2.14471158E+02
  0
VERTEX
  8
0
 62
4
 10
2.34943627E+02
 20
-2.14550706E+02
  0
VERTEX
  8
0
 62
4
 10
2.34823545E+02
 20
-2.14640835E+02
  0
VERTEX
  8
0
 62
4
 10
2.34711952E+02
 20
-2.14740857E+02
  0
VERTEX
  8
0
 62
4
 10
2.34609695E+02
 20
-2.14850012E+02
  0
VERTEX
  8
0
 62
4
 10
2.34517553E+02
 20
-2.14967469E+02
  0
VERTEX
  8
0
 62
4
 10
2.34436228E+02
 20
-2.15092335E+02
  0
VERTEX
  8
0
 62
4
 10
2.34366338E+02
 20
-2.15223658E+02
  0
VERTEX
  8
0
 62
4
 10
2.34308415E+02
 20
-2.15360440E+02
  0
VERTEX
  8
0
 62
4
 10
2.34262901E+02
 20
-2.15501640E+02
  0
VERTEX
  8
0
 62
4
 10
2.34230141E+02
 20
-2.15646182E+02
  0
VERTEX
  8
0
 62
4
 10
2.34210384E+02
 20
-2.15792967E+02
  0
VERTEX
  8
0
 62
4
 10
2.34203782E+02
 20
-2.15940878E+02
  0
VERTEX
  8
0
 62
4
 10
2.34210384E+02
 20
-2.16088789E+02
  0
VERTEX
  8
0
 62
4
 10
2.34230141E+02
 20
-2.16235574E+02
  0
VERTEX
  8
0
 62
4
 10
2.34262901E+02
 20
-2.16380116E+02
  0
VERTEX
  8
0
 62
4
 10
2.34308415E+02
 20
-2.16521316E+02
  0
VERTEX
  8
0
 62
4
 10
2.34366338E+02
 20
-2.16658098E+02
  0
VERTEX
  8
0
 62
4
 10
2.34436228E+02
 20
-2.16789421E+02
  0
VERTEX
  8
0
 62
4
 10
2.34517553E+02
 20
-2.16914287E+02
  0
VERTEX
  8
0
 62
4
 10
2.34609695E+02
 20
-2.17031744E+02
  0
VERTEX
  8
0
 62
4
 10
2.34711952E+02
 20
-2.17140899E+02
  0
VERTEX
  8
0
 62
4
 10
2.34823545E+02
 20
-2.17240921E+02
  0
VERTEX
  8
0
 62
4
 10
2.34943627E+02
 20
-2.17331050E+02
  0
VERTEX
  8
0
 62
4
 10
2.35071282E+02
 20
-2.17410598E+02
  0
VERTEX
  8
0
 62
4
 10
2.35205539E+02
 20
-2.17478960E+02
  0
VERTEX
  8
0
 62
4
 10
2.35345377E+02
 20
-2.17535617E+02
  0
VERTEX
  8
0
 62
4
 10
2.35489731E+02
 20
-2.17580137E+02
  0
VERTEX
  8
0
 62
4
 10
2.35637502E+02
 20
-2.17612182E+02
  0
VERTEX
  8
0
 62
4
 10
2.35787567E+02
 20
-2.17631506E+02
  0
VERTEX
  8
0
 62
4
 10
2.35938782E+02
 20
-2.17637964E+02
  0
VERTEX
  8
0
 62
4
 10
2.36089997E+02
 20
-2.17631506E+02
  0
VERTEX
  8
0
 62
4
 10
2.36240062E+02
 20
-2.17612182E+02
  0
VERTEX
  8
0
 62
4
 10
2.36387833E+02
 20
-2.17580137E+02
  0
VERTEX
  8
0
 62
4
 10
2.36532187E+02
 20
-2.17535617E+02
  0
VERTEX
  8
0
 62
4
 10
2.36672025E+02
 20
-2.17478960E+02
  0
VERTEX
  8
0
 62
4
 10
2.36806282E+02
 20
-2.17410598E+02
  0
VERTEX
  8
0
 62
4
 10
2.36933937E+02
 20
-2.17331050E+02
  0
VERTEX
  8
0
 62
4
 10
2.37054019E+02
 20
-2.17240921E+02
  0
VERTEX
  8
0
 62
4
 10
2.37165612E+02
 20
-2.17140899E+02
  0
VERTEX
  8
0
 62
4
 10
2.37267869E+02
 20
-2.17031744E+02
  0
VERTEX
  8
0
 62
4
 10
2.37360011E+02
 20
-2.16914287E+02
  0
VERTEX
  8
0
 62
4
 10
2.37441336E+02
 20
-2.16789421E+02
  0
VERTEX
  8
0
 62
4
 10
2.37511226E+02
 20
-2.16658098E+02
  0
VERTEX
  8
0
 62
4
 10
2.37569149E+02
 20
-2.16521316E+02
  0
VERTEX
  8
0
 62
4
 10
2.37614663E+02
 20
-2.16380116E+02
  0
VERTEX
  8
0
 62
4
 10
2.37647423E+02
 20
-2.16235574E+02
  0
VERTEX
  8
0
 62
4
 10
2.37667180E+02
 20
-2.16088789E+02
  0
VERTEX
  8
0
 62
4
 10
2.37673782E+02
 20
-2.15940878E+02
  0
SEQEND
  8
0
  0
POLYLINE
  8
0
 62
4
 66
1
  0
VERTEX
  8
0
 62
4
 10
2.35938782E+02
 20
-2.17684371E+02
  0
VERTEX
  8
0
 62
4
 10
2.36113093E+02
 20
-2.17676488E+02
  0
VERTEX
  8
0
 62
4
 10
2.36286078E+02
 20
-2.17652897E+02
  0
VERTEX
  8
0
 62
4
 10
2.36456420E+02
 20
-2.17613779E+02
  0
VERTEX
  8
0
 62
4
 10
2.36622822E+02
 20
-2.17559431E+02
  0
VERTEX
  8
0
 62
4
 10
2.36784019E+02
 20
-2.17490267E+02
  0
VERTEX
  8
0
 62
4
 10
2.36938782E+02
 20
-2.17406814E+02
  0
VERTEX
  8
0
 62
4
 10
2.37085935E+02
 20
-2.17309705E+02
  0
VERTEX
  8
0
 62
4
 10
2.37224357E+02
 20
-2.17199681E+02
  0
VERTEX
  8
0
 62
4
 10
2.37352996E+02
 20
-2.17077579E+02
  0
VERTEX
  8
0
 62
4
 10
2.37470871E+02
 20
-2.16944328E+02
  0
VERTEX
  8
0
 62
4
 10
2.37577086E+02
 20
-2.16800942E+02
  0
VERTEX
  8
0
 62
4
 10
2.37670833E+02
 20
-2.16648512E+02
  0
VERTEX
  8
0
 62
4
 10
2.37751398E+02
 20
-2.16488199E+02
  0
VERTEX
  8
0
 62
4
 10
2.37818167E+02
 20
-2.16321222E+02
  0
VERTEX
  8
0
 62
4
 10
2.37870634E+02
 20
-2.16148853E+02
  0
VERTEX
  8
0
 62
4
 10
2.37908398E+02
 20
-2.15972403E+02
  0
VERTEX
  8
0
 62
4
 10
2.37931171E+02
 20
-2.15793215E+02
  0
VERTEX
  8
0
 62
4
 10
2.37938782E+02
 20
-2.15612653E+02
  0
VERTEX
  8
0
 62
4
 10
2.37931171E+02
 20
-2.15432091E+02
  0
VERTEX
  8
0
 62
4
 10
2.37908398E+02
 20
-2.15252903E+02
  0
VERTEX
  8
0
 62
4
 10
2.37870634E+02
 20
-2.15076453E+02
  0
VERTEX
  8
0
 62
4
 10
2.37818167E+02
 20
-2.14904084E+02
  0
VERTEX
  8
0
 62
4
 10
2.37751398E+02
 20
-2.14737107E+02
  0
VERTEX
  8
0
 62
4
 10
2.37670833E+02
 20
-2.14576794E+02
  0
VERTEX
  8
0
 62
4
 10
2.37577086E+02
 20
-2.14424364E+02
  0
VERTEX
  8
0
 62
4
 10
2.37470871E+02
 20
-2.14280978E+02
  0
VERTEX
  8
0
 62
4
 10
2.37352996E+02
 20
-2.14147727E+02
  0
VERTEX
  8
0
 62
4
 10
2.37224357E+02
 20
-2.14025625E+02
  0
VERTEX
  8
0
 62
4
 10
2.37085935E+02
 20
-2.13915601E+02
  0
VERTEX
  8
0
 62
4
 10
2.36938782E+02
 20
-2.13818492E+02
  0
VERTEX
  8
0
 62
4
 10
2.36784019E+02
 20
-2.13735039E+02
  0
VERTEX
  8
0
 62
4
 10
2.36622822E+02
 20
-2.13665875E+02
  0
VERTEX
  8
0
 62
4
 10
2.36456420E+02
 20
-2.13611527E+02
  0
VERTEX
  8
0
 62
4
 10
2.36286078E+02
 20
-2.13572409E+02
  0
VERTEX
  8
0
 62
4
 10
2.36113093E+02
 20
-2.13548818E+02
  0
VERTEX
  8
0
 62
4
 10
2.35938782E+02
 20
-2.13540935E+02
  0
VERTEX
  8
0
 62
4
 10
2.35764471E+02
 20
-2.13548818E+02
  0
VERTEX
  8
0
 62
4
 10
2.35591486E+02
 20
-2.13572409E+02
  0
VERTEX
  8
0
 62
4
 10
2.35421144E+02
 20
-2.13611527E+02
  0
VERTEX
  8
0
 62
4
 10
2.35254742E+02
 20
-2.13665875E+02
  0
VERTEX
  8
0
 62
4
 10
2.35093545E+02
 20
-2.13735039E+02
  0
VERTEX
  8
0
 62
4
 10
2.34938782E+02
 20
-2.13818492E+02
  0
VERTEX
  8
0
 62
4
 10
2.34791629E+02
 20
-2.13915601E+02
  0
VERTEX
  8
0
 62
4
 10
2.34653207E+02
 20
-2.14025625E+02
  0
VERTEX
  8
0
 62
4
 10
2.34524568E+02
 20
-2.14147727E+02
  0
VERTEX
  8
0
 62
4
 10
2.34406693E+02
 20
-2.14280978E+02
  0
VERTEX
  8
0
 62
4
 10
2.34300478E+02
 20
-2.14424364E+02
  0
VERTEX
  8
0
 62
4
 10
2.34206731E+02
 20
-2.14576794E+02
  0
VERTEX
  8
0
 62
4
 10
2.34126166E+02
 20
-2.14737107E+02
  0
VERTEX
  8
0
 62
4
 10
2.34059397E+02
 20
-2.14904084E+02
  0
VERTEX
  8
0
 62
4
 10
2.34006930E+02
 20
-2.15076453E+02
  0
VERTEX
  8
0
 62
4
 10
2.33969166E+02
 20
-2.15252903E+02
  0
VERTEX
  8
0
 62
4
 10
2.33946393E+02
 20
-2.15432091E+02
  0
VERTEX
  8
0
 62
4
 10
2.33938782E+02
 20
-2.15612653E+02
  0
VERTEX
  8
0
 62
4
 10
2.33946393E+02
 20
-2.15793215E+02
  0
VERTEX
  8
0
 62
4
 10
2.33969166E+02
 20
-2.15972403E+02
  0
VERTEX
  8
0
 62
4
 10
2.34006930E+02
 20
-2.16148853E+02
  0
VERTEX
  8
0
 62
4
 10
2.34059397E+02
 20
-2.16321222E+02
  0
VERTEX
  8
0
 62
4
 10
2.34126166E+02
 20
-2.16488199E+02
  0
VERTEX
  8
0
 62
4
 10
2.34206731E+02
 20
-2.16648512E+02
  0
VERTEX
  8
0
 62
4
 10
2.34300478E+02
 20
-2.16800942E+02
  0
VERTEX
  8
0
 62
4
 10
2.34406693E+02
 20
-2.16944328E+02
  0
VERTEX
  8
0
 62
4
 10
2.34524568E+02
 20
-2.17077579E+02
  0
VERTEX
  8
0
 62
4
 10
2.34653207E+02
 20
-2.17199681E+02
  0
VERTEX
  8
0
 62
4
 10
2.34791629E+02
 20
-2.17309705E+02
  0
VERTEX
  8
0
 62
4
 10
2.34938782E+02
 20
-2.17406814E+02
  0
VERTEX
  8
0
 62
4
 10
2.35093545E+02
 20
-2.17490267E+02
  0
VERTEX
  8
0
 62
4
 10
2.35254742E+02
 20
-2.17559431E+02
  0
VERTEX
  8
0
 62
4
 10
2.35421144E+02
 20
-2.17613779E+02
  0
VERTEX
  8
0
 62
4
 10
2.35591486E+02
 20
-2.17652897E+02
  0
VERTEX
  8
0
 62
4
 10
2.35764471E+02
 20
-2.17676488E+02
  0
VERTEX
  8
0
 62
4
 10
2.35938782E+02
 20
-2.17684371E+02
  0
SEQEND
  8
0
  0
LINE
  8
0
 62
4
 10
2.48938782E+02
 20
-2.09407712E+02
 11
2.48938782E+02
 21
-2.07740352E+02
  0
LINE
  8
0
 62
4
 10
2.15938782E+02
 20
-2.09407712E+02
 11
2.15938782E+02
 21
-2.07740352E+02
  0
LINE
  8
0
 62
4
 10
2.66938782E+02
 20
-1.57450841E+02
 11
2.61938782E+02
 21
-1.57450841E+02
  0
LINE
  8
0
 62
4
 10
2.47438782E+02
 20
-1.60477400E+02
 11
2.32438782E+02
 21
-1.60477400E+02
  0
LINE
  8
0
 62
4
 10
2.32438782E+02
 20
-1.94169416E+02
 11
2.47438782E+02
 21
-1.94169416E+02
  0
LINE
  8
0
 62
4
 10
2.32438782E+02
 20
-2.20589872E+02
 11
2.47438782E+02
 21
-2.20589872E+02
  0
LINE
  8
0
 62
4
 10
2.47438782E+02
 20
-1.94169416E+02
 11
2.47438782E+02
 21
-2.20589872E+02
  0
LINE
  8
0
 62
4
 10
2.32438782E+02
 20
-1.94169416E+02
 11
2.32438782E+02
 21
-2.20589872E+02
  0
LINE
  8
0
  6
CENTER
 62
6
 10
2.35938782E+02
 20
-2.13013720E+02
 11
2.35938782E+02
 21
-2.18858255E+02
  0
LINE
  8
0
 62
4
 10
2.60438782E+02
 20
-1.59035832E+02
 11
2.56938782E+02
 21
-1.59035832E+02
  0
LINE
  8
0
 62
4
 10
2.50438782E+02
 20
-1.85254367E+02
 11
2.47438782E+02
 21
-1.85254367E+02
  0
LINE
  8
0
 62
4
 10
2.66938782E+02
 20
-1.62470320E+02
 11
2.61938782E+02
 21
-1.62470320E+02
  0
LINE
  8
0
 62
4
 10
2.66938782E+02
 20
-1.62474029E+02
 11
2.61938782E+02
 21
-1.62474029E+02
  0
LINE
  8
0
 62
4
 10
2.66938782E+02
 20
-1.69816209E+02
 11
2.61938782E+02
 21
-1.69816209E+02
  0
LINE
  8
0
 62
4
 10
2.47438782E+02
 20
-1.57785832E+02
 11
2.56438782E+02
 21
-1.57785832E+02
  0
LINE
  8
0
 62
4
 10
2.56938782E+02
 20
-1.58285832E+02
 11
2.56938782E+02
 21
-1.71285832E+02
  0
LINE
  8
0
 62
4
 10
2.66938782E+02
 20
-1.57450841E+02
 11
2.66938782E+02
 21
-1.72132836E+02
  0
LINE
  8
0
 62
4
 10
2.61938782E+02
 20
-1.57450841E+02
 11
2.61938782E+02
 21
-1.72132836E+02
  0
LINE
  8
0
 62
4
 10
2.61938782E+02
 20
-1.58535832E+02
 11
2.56938782E+02
 21
-1.58535832E+02
  0
LINE
  8
0
 62
4
 10
2.61938782E+02
 20
-1.71035832E+02
 11
2.56938782E+02
 21
-1.71035832E+02
  0
LINE
  8
0
 62
4
 10
2.60438782E+02
 20
-1.58535832E+02
 11
2.60438782E+02
 21
-1.71035832E+02
  0
LINE
  8
0
 62
4
 10
2.60438782E+02
 20
-1.70535832E+02
 11
2.56938782E+02
 21
-1.70535832E+02
  0
LINE
  8
0
 62
4
 10
2.56438782E+02
 20
-1.71785832E+02
 11
2.47938782E+02
 21
-1.71785832E+02
  0
LINE
  8
0
 62
4
 10
2.66938782E+02
 20
-1.72132836E+02
 11
2.61938782E+02
 21
-1.72132836E+02
  0
LINE
  8
0
 62
4
 10
2.32438782E+02
 20
-2.04451497E+02
 11
2.12938782E+02
 21
-2.04451497E+02
  0
LINE
  8
0
 62
4
 10
2.32438782E+02
 20
-2.02984276E+02
 11
2.12938782E+02
 21
-2.02984276E+02
  0
LINE
  8
0
 62
4
 10
2.47438782E+02
 20
-1.57358725E+02
 11
2.32438782E+02
 21
-1.57358725E+02
  0
LINE
  8
0
 62
4
 10
2.49438782E+02
 20
-1.85346913E+02
 11
2.30438782E+02
 21
-1.85346913E+02
  0
LINE
  8
0
 62
4
 10
2.51938782E+02
 20
-1.86754367E+02
 11
2.51938782E+02
 21
-2.04451497E+02
  0
LINE
  8
0
 62
4
 10
2.51938782E+02
 20
-2.04451497E+02
 11
2.47438782E+02
 21
-2.04451497E+02
  0
LINE
  8
0
 62
4
 10
2.51938782E+02
 20
-2.02984276E+02
 11
2.47438782E+02
 21
-2.02984276E+02
  0
LINE
  8
0
 62
4
 10
2.49438782E+02
 20
-1.85346913E+02
 11
2.49438782E+02
 21
-1.89259504E+02
  0
LINE
  8
0
 62
4
 10
2.32438782E+02
 20
-1.57358725E+02
 11
2.32438782E+02
 21
-1.85346913E+02
  0
LINE
  8
0
 62
4
 10
2.47438782E+02
 20
-1.57358725E+02
 11
2.47438782E+02
 21
-1.85346913E+02
  0
LINE
  8
0
 62
4
 10
2.30438782E+02
 20
-1.85346913E+02
 11
2.30438782E+02
 21
-1.89259504E+02
  0
LINE
  8
0
 62
4
 10
2.47438782E+02
 20
-1.83952942E+02
 11
2.32438782E+02
 21
-1.83952942E+02
  0
LINE
  8
0
 62
4
 10
2.12938782E+02
 20
-1.86754367E+02
 11
2.12938782E+02
 21
-2.04451497E+02
  0
ARC
  8
0
 62
4
 10
2.56439281E+02
 20
-1.58285332E+02
 40
4.99500622E-01
 50
3.59942689E+02
 51
9.00573103E+01
  0
ARC
  8
0
 62
4
 10
2.47938282E+02
 20
-1.72285332E+02
 40
4.99500622E-01
 50
8.99426895E+01
 51
1.80057310E+02
  0
ARC
  8
0
 62
4
 10
2.14438282E+02
 20
-1.86753868E+02
 40
1.49950029E+00
 50
8.99809029E+01
 51
1.80019097E+02
  0
ARC
  8
0
 62
4
 10
2.56438282E+02
 20
-1.71285332E+02
 40
5.00500378E-01
 50
2.70057253E+02
 51
3.59942747E+02
  0
ARC
  8
0
 62
4
 10
2.50439282E+02
 20
-1.86753868E+02
 40
1.49950029E+00
 50
3.59980903E+02
 51
9.00190969E+01
  0
LINE
  8
0
 62
4
 10
2.33438782E+02
 20
-2.10323396E+02
 11
2.46438782E+02
 21
-2.10323396E+02
  0
CIRCLE
  8
0
 62
7
 10
5.70943909E+01
 20
-2.12057629E+02
 40
2.45850000E+00
  0
CIRCLE
  8
0
 62
7
 10
9.40944672E+01
 20
-2.12057706E+02
 40
2.45850000E+00
  0
CIRCLE
  8
0
 62
7
 10
-2.52249969E+02
 20
-2.12057629E+02
 40
2.45850000E+00
  0
CIRCLE
  8
0
 62
7
 10
-2.15249893E+02
 20
-2.12057706E+02
 40
2.45850000E+00
  0
LINE
  8
0
 62
2
 10
1.74404786E+02
 20
-2.34314889E+02
 11
1.92134234E+02
 21
-2.03606584E+02
  0
LINE
  8
0
 62
2
 10
-1.46778098E+01
 20
-2.37293999E+02
 11
3.08663791E+00
 21
-2.06525073E+02
  0
TEXT
  8
0
 10
7.45496883E+01
 20
2.49478397E+02
 40
6.30000019E+00
  1
STRETCH LINE B
 41
1.09375016E+00
  7
MONOTXT
  0
TEXT
  8
0
 62
7
 10
8.23299306E+01
 20
3.02390541E+01
 40
6.30000019E+00
  1
(mm)
 41
1.00000000E+00
  7
MONOTXT
  0
TEXT
  8
0
 62
7
 10
-9.76700702E+01
 20
3.02390541E+01
 40
6.30000019E+00
  1
STRETCH LIST
 41
1.05263158E+00
  7
MONOTXT
  0
TEXT
  8
0
 62
7
 10
-2.01620069E+02
 20
-2.17609459E+01
 40
6.30000019E+00
  1
B
 41
1.00000000E+00
  7
MONOTXT
  0
TEXT
  8
0
 62
7
 10
-2.01620069E+02
 20
-1.17609459E+01
 40
6.30000019E+00
  1
A
 41
1.00000000E+00
  7
MONOTXT
  0
LINE
  8
0
 62
7
 10
-1.80759132E+02
 20
1.63890542E+01
 11
-1.68959132E+02
 21
-3.61094580E+00
  0
TEXT
  8
0
 62
7
 10
-2.25520069E+02
 20
-1.76094590E+00
 40
6.30000019E+00
  1
  PLACE
 41
1.20689655E+00
  7
MONOTXT
  0
LINE
  8
0
 62
7
 10
-2.29359132E+02
 20
2.63890542E+01
 11
1.08240868E+02
 21
2.63890542E+01
  0
TEXT
  8
0
 62
7
 10
-1.65120069E+02
 20
-2.17609459E+01
 40
6.30000019E+00
  1
-25
 41
1.00000000E+00
  7
MONOTXT
  0
TEXT
  8
0
 62
7
 10
-1.33620069E+02
 20
-2.17609459E+01
 40
6.30000019E+00
  1
0
 41
1.00000000E+00
  7
MONOTXT
  0
TEXT
  8
0
 62
7
 10
-1.11570069E+02
 20
-2.17609459E+01
 40
6.30000019E+00
  1
25
 41
1.00000000E+00
  7
MONOTXT
  0
LINE
  8
0
 62
7
 10
-2.29359132E+02
 20
-2.36109458E+01
 11
1.08240868E+02
 21
-2.36109458E+01
  0
LINE
  8
0
 62
7
 10
-2.29359132E+02
 20
-1.36109458E+01
 11
1.08240868E+02
 21
-1.36109458E+01
  0
LINE
  8
0
 62
7
 10
-2.29359132E+02
 20
-2.36109458E+01
 11
-2.29359132E+02
 21
2.63890542E+01
  0
LINE
  8
0
 62
7
 10
-2.29359132E+02
 20
1.63890542E+01
 11
-1.80759132E+02
 21
1.63890542E+01
  0
LINE
  8
0
 62
7
 10
-2.29359132E+02
 20
-3.61094580E+00
 11
1.08240868E+02
 21
-3.61094580E+00
  0
LINE
  8
0
 62
7
 10
-1.68959132E+02
 20
-2.36109458E+01
 11
-1.68959132E+02
 21
2.63890542E+01
  0
LINE
  8
0
 62
7
 10
-1.43759132E+02
 20
-2.36109458E+01
 11
-1.43759132E+02
 21
2.63890542E+01
  0
LINE
  8
0
 62
7
 10
-1.18559132E+02
 20
-2.36109458E+01
 11
-1.18559132E+02
 21
2.63890542E+01
  0
LINE
  8
0
 62
7
 10
-9.33591316E+01
 20
-2.36109458E+01
 11
-9.33591316E+01
 21
2.63890542E+01
  0
LINE
  8
0
 62
7
 10
-6.81591316E+01
 20
-2.36109458E+01
 11
-6.81591316E+01
 21
2.63890542E+01
  0
LINE
  8
0
 62
7
 10
-4.29591316E+01
 20
-2.36109458E+01
 11
-4.29591316E+01
 21
2.63890542E+01
  0
LINE
  8
0
 62
7
 10
-1.77591316E+01
 20
-2.36109458E+01
 11
-1.77591316E+01
 21
2.63890542E+01
  0
LINE
  8
0
 62
7
 10
7.44086839E+00
 20
-2.36109458E+01
 11
7.44086839E+00
 21
2.63890542E+01
  0
LINE
  8
0
 62
7
 10
3.26408684E+01
 20
-2.36109458E+01
 11
3.26408684E+01
 21
2.63890542E+01
  0
LINE
  8
0
 62
7
 10
5.78408684E+01
 20
-2.36109458E+01
 11
5.78408684E+01
 21
2.63890542E+01
  0
LINE
  8
0
 62
7
 10
8.30408684E+01
 20
-2.36109458E+01
 11
8.30408684E+01
 21
2.63890542E+01
  0
LINE
  8
0
 62
7
 10
1.08240868E+02
 20
-2.36109458E+01
 11
1.08240868E+02
 21
2.63890542E+01
  0
TEXT
  8
0
 62
7
 10
-1.61970069E+02
 20
8.23905411E+00
 40
6.30000019E+00
  1
50
 41
1.00000000E+00
  7
MONOTXT
  0
TEXT
  8
0
 62
7
 10
-1.65120069E+02
 20
-1.17609459E+01
 40
6.30000019E+00
  1
-25
 41
1.00000000E+00
  7
MONOTXT
  0
TEXT
  8
0
 62
7
 10
-2.22370069E+02
 20
1.82390541E+01
 40
6.30000019E+00
  1
STROKE
 41
1.00000000E+00
  7
MONOTXT
  0
TEXT
  8
0
 62
7
 10
-2.25520069E+02
 20
8.23905411E+00
 40
6.30000019E+00
  1
STRETCH
 41
1.00000000E+00
  7
MONOTXT
  0
TEXT
  8
0
 62
7
 10
-1.36770069E+02
 20
8.23905411E+00
 40
6.30000019E+00
  1
75
 41
1.00000000E+00
  7
MONOTXT
  0
TEXT
  8
0
 62
7
 10
-1.33620069E+02
 20
-1.17609459E+01
 40
6.30000019E+00
  1
0
 41
1.00000000E+00
  7
MONOTXT
  0
TEXT
  8
0
 62
7
 10
-1.14720069E+02
 20
8.23905411E+00
 40
6.30000019E+00
  1
100
 41
1.00000000E+00
  7
MONOTXT
  0
TEXT
  8
0
 62
7
 10
-1.11570069E+02
 20
-1.17609459E+01
 40
6.30000019E+00
  1
25
 41
1.00000000E+00
  7
MONOTXT
  0
TEXT
  8
0
 62
7
 10
-8.95200693E+01
 20
8.23905411E+00
 40
6.30000019E+00
  1
150
 41
1.00000000E+00
  7
MONOTXT
  0
TEXT
  8
0
 62
7
 10
-8.63700692E+01
 20
-1.17609459E+01
 40
6.30000019E+00
  1
75
 41
1.00000000E+00
  7
MONOTXT
  0
TEXT
  8
0
 62
7
 10
-6.43200693E+01
 20
8.23905411E+00
 40
6.30000019E+00
  1
200
 41
1.00000000E+00
  7
MONOTXT
  0
TEXT
  8
0
 62
7
 10
-6.43200693E+01
 20
-1.17609459E+01
 40
6.30000019E+00
  1
125
 41
1.00000000E+00
  7
MONOTXT
  0
TEXT
  8
0
 62
7
 10
-3.91200693E+01
 20
8.23905411E+00
 40
6.30000019E+00
  1
250
 41
1.00000000E+00
  7
MONOTXT
  0
TEXT
  8
0
 62
7
 10
-3.91200693E+01
 20
-1.17609459E+01
 40
6.30000019E+00
  1
175
 41
1.00000000E+00
  7
MONOTXT
  0
TEXT
  8
0
 62
7
 10
-1.39200693E+01
 20
8.23905411E+00
 40
6.30000019E+00
  1
300
 41
1.00000000E+00
  7
MONOTXT
  0
TEXT
  8
0
 62
7
 10
-1.39200693E+01
 20
-1.17609459E+01
 40
6.30000019E+00
  1
225
 41
1.00000000E+00
  7
MONOTXT
  0
TEXT
  8
0
 62
7
 10
1.12799307E+01
 20
8.23905411E+00
 40
6.30000019E+00
  1
350
 41
1.00000000E+00
  7
MONOTXT
  0
TEXT
  8
0
 62
7
 10
1.12799307E+01
 20
-1.17609459E+01
 40
6.30000019E+00
  1
275
 41
1.00000000E+00
  7
MONOTXT
  0
TEXT
  8
0
 62
7
 10
3.64799307E+01
 20
8.23905411E+00
 40
6.30000019E+00
  1
400
 41
1.00000000E+00
  7
MONOTXT
  0
TEXT
  8
0
 62
7
 10
3.64799307E+01
 20
-1.17609459E+01
 40
6.30000019E+00
  1
325
 41
1.00000000E+00
  7
MONOTXT
  0
TEXT
  8
0
 62
7
 10
6.16799307E+01
 20
8.23905411E+00
 40
6.30000019E+00
  1
450
 41
1.00000000E+00
  7
MONOTXT
  0
TEXT
  8
0
 62
7
 10
6.16799307E+01
 20
-1.17609459E+01
 40
6.30000019E+00
  1
375
 41
1.00000000E+00
  7
MONOTXT
  0
TEXT
  8
0
 62
7
 10
8.68799307E+01
 20
8.23905411E+00
 40
6.30000019E+00
  1
500
 41
1.00000000E+00
  7
MONOTXT
  0
TEXT
  8
0
 62
7
 10
8.68799307E+01
 20
-1.17609459E+01
 40
6.30000019E+00
  1
425
 41
1.00000000E+00
  7
MONOTXT
  0
TEXT
  8
0
 62
7
 10
8.68799307E+01
 20
-2.17609459E+01
 40
6.30000019E+00
  1
425
 41
1.00000000E+00
  7
MONOTXT
  0
TEXT
  8
0
 62
7
 10
6.16799307E+01
 20
-2.17609459E+01
 40
6.30000019E+00
  1
375
 41
1.00000000E+00
  7
MONOTXT
  0
TEXT
  8
0
 62
7
 10
3.64799307E+01
 20
-2.17609459E+01
 40
6.30000019E+00
  1
325
 41
1.00000000E+00
  7
MONOTXT
  0
TEXT
  8
0
 62
7
 10
1.12799307E+01
 20
-2.17609459E+01
 40
6.30000019E+00
  1
275
 41
1.00000000E+00
  7
MONOTXT
  0
TEXT
  8
0
 62
7
 10
-1.39200693E+01
 20
-2.17609459E+01
 40
6.30000019E+00
  1
225
 41
1.00000000E+00
  7
MONOTXT
  0
TEXT
  8
0
 62
7
 10
-3.91200693E+01
 20
-2.17609459E+01
 40
6.30000019E+00
  1
175
 41
1.00000000E+00
  7
MONOTXT
  0
TEXT
  8
0
 62
7
 10
-6.43200693E+01
 20
-2.17609459E+01
 40
6.30000019E+00
  1
125
 41
1.00000000E+00
  7
MONOTXT
  0
TEXT
  8
0
 62
7
 10
-8.63700692E+01
 20
-2.17609459E+01
 40
6.30000019E+00
  1
75
 41
1.00000000E+00
  7
MONOTXT
  0
LINE
  8
0
 62
7
 10
-1.63760354E+00
 20
-2.14707699E+02
 11
-6.42500000E+01
 21
-2.14707699E+02
  0
LINE
  8
0
 62
7
 10
1.91308828E+00
 20
-2.08557721E+02
 11
-6.42500000E+01
 21
-2.08557721E+02
  0
LINE
  8
0
 62
7
 10
1.42234584E+00
 20
-2.09407712E+02
 11
-6.42499695E+01
 21
-2.09407712E+02
  0
LINE
  8
0
 62
7
 10
-4.12499487E+01
 20
-7.35577208E+01
 11
1.91313403E+00
 21
-7.35577208E+01
  0
LINE
  8
0
 62
7
 10
-4.12499487E+01
 20
-7.44077117E+01
 11
1.42239159E+00
 21
-7.44077117E+01
  0
ARC
  8
0
 62
4
 10
-1.35106063E+02
 20
-2.22330464E+02
 40
4.85606317E+00
 50
3.25615752E+02
 51
3.43842477E+01
  0
ARC
  8
0
 62
4
 10
-1.19098506E+02
 20
-2.30557706E+02
 40
1.81514940E+01
 50
1.62412046E+02
 51
1.80000000E+02
  0
ARC
  8
0
 62
4
 10
-1.32393937E+02
 20
-2.22330464E+02
 40
4.85606317E+00
 50
1.45615752E+02
 51
2.14384248E+02
  0
LINE
  8
0
 62
4
 10
-1.36401494E+02
 20
-2.25072878E+02
 11
-1.31098506E+02
 21
-2.25072878E+02
  0
LINE
  8
0
 62
4
 10
-1.37250000E+02
 20
-2.21057706E+02
 11
-1.36401494E+02
 21
-2.19588050E+02
  0
LINE
  8
0
 62
4
 10
-1.30250000E+02
 20
-2.21057706E+02
 11
-1.31098506E+02
 21
-2.19588050E+02
  0
LINE
  8
0
 62
4
 10
-1.36401494E+02
 20
-2.19588050E+02
 11
-1.31098506E+02
 21
-2.19588050E+02
  0
LINE
  8
0
 62
4
 10
-1.30250000E+02
 20
-2.30557706E+02
 11
-1.30250000E+02
 21
-2.21057706E+02
  0
LINE
  8
0
 62
4
 10
-1.37250000E+02
 20
-2.30557706E+02
 11
-1.37250000E+02
 21
-2.21057706E+02
  0
ARC
  8
0
 62
4
 10
-1.43969684E+02
 20
-1.00307706E+02
 40
1.37196839E+01
 50
3.39743842E+02
 51
2.02561581E+01
  0
ARC
  8
0
 62
4
 10
-1.43969684E+02
 20
-9.08077056E+01
 40
1.37196838E+01
 50
3.39743842E+02
 51
2.02561581E+01
  0
ARC
  8
0
 62
4
 10
-1.23530316E+02
 20
-1.00307706E+02
 40
1.37196839E+01
 50
1.59743842E+02
 51
2.00256158E+02
  0
ARC
  8
0
 62
4
 10
-1.23530316E+02
 20
-9.08077056E+01
 40
1.37196838E+01
 50
1.59743842E+02
 51
2.00256158E+02
  0
LINE
  8
0
 62
4
 10
-1.36401494E+02
 20
-9.55577056E+01
 11
-1.31098506E+02
 21
-9.55577056E+01
  0
LINE
  8
0
 62
4
 10
-1.37250000E+02
 20
-8.60577056E+01
 11
-1.30250000E+02
 21
-8.60577056E+01
  0
LINE
  8
0
 62
4
 10
-1.37250000E+02
 20
-1.05057706E+02
 11
-1.30250000E+02
 21
-1.05057706E+02
  0
LINE
  8
0
 62
4
 10
-1.30250000E+02
 20
-8.60577055E+01
 11
-1.30250000E+02
 21
-1.05057706E+02
  0
LINE
  8
0
 62
4
 10
-1.37250000E+02
 20
-8.60577055E+01
 11
-1.37250000E+02
 21
-1.05057706E+02
  0
LINE
  8
0
 62
4
 10
8.65943909E+01
 20
-2.30557706E+02
 11
8.65943909E+01
 21
-2.24206853E+02
  0
ARC
  8
0
 62
4
 10
7.55943909E+01
 20
-2.30557706E+02
 40
1.10000000E+01
 50
0.00000000E+00
 51
1.80000000E+02
  0
LINE
  8
0
 62
4
 10
6.45943909E+01
 20
-2.24206853E+02
 11
6.45943909E+01
 21
-2.30557706E+02
  0
LINE
  8
0
 62
4
 10
7.55943909E+01
 20
-2.17856000E+02
 11
6.45943909E+01
 21
-2.24206853E+02
  0
LINE
  8
0
 62
4
 10
8.65943909E+01
 20
-2.24206853E+02
 11
7.55943909E+01
 21
-2.17856000E+02
  0
ARC
  8
0
 62
7
 10
-2.33749969E+02
 20
-2.30557706E+02
 40
5.99991512E+00
 50
0.00000000E+00
 51
1.80000000E+02
  0
ARC
  8
0
 62
2
 10
-2.33749969E+02
 20
-2.30557706E+02
 40
5.30001831E+00
 50
0.00000000E+00
 51
1.80000000E+02
  0
LINE
  8
0
 62
4
 10
-2.24249969E+02
 20
-2.25072878E+02
 11
-2.33749969E+02
 21
-2.19588050E+02
  0
LINE
  8
0
 62
4
 10
-2.24249969E+02
 20
-2.30557706E+02
 11
-2.24249969E+02
 21
-2.25072878E+02
  0
LINE
  8
0
 62
4
 10
-2.43249969E+02
 20
-2.25072878E+02
 11
-2.43249969E+02
 21
-2.30557706E+02
  0
LINE
  8
0
 62
4
 10
-2.33749969E+02
 20
-2.19588050E+02
 11
-2.43249969E+02
 21
-2.25072878E+02
  0
ARC
  8
0
 62
4
 10
-2.33749969E+02
 20
-2.30557706E+02
 40
9.50000000E+00
 50
0.00000000E+00
 51
1.80000000E+02
  0
LINE
  8
0
 62
7
 10
-1.30250000E+02
 20
-2.24557706E+02
 11
-1.23250000E+02
 21
-2.24557706E+02
  0
LINE
  8
0
 62
2
 10
-1.30250000E+02
 20
-2.25257687E+02
 11
-1.23250000E+02
 21
-2.25257687E+02
  0
LINE
  8
0
 62
2
 10
-1.30250000E+02
 20
-1.00857739E+02
 11
-1.23250000E+02
 21
-1.00857739E+02
  0
LINE
  8
0
 62
7
 10
-1.30307065E+02
 20
-1.01557736E+02
 11
-1.23250000E+02
 21
-1.01557736E+02
  0
LINE
  8
0
 62
2
 10
-1.30250000E+02
 20
-9.02577178E+01
 11
-1.23250000E+02
 21
-9.02577178E+01
  0
LINE
  8
0
 62
7
 10
-1.30250000E+02
 20
-8.95577056E+01
 11
-1.23250000E+02
 21
-8.95577056E+01
  0
POLYLINE
  8
0
 62
7
 66
1
  0
VERTEX
  8
0
 62
7
 10
-1.14480255E+02
 20
-9.96077090E+01
  0
VERTEX
  8
0
 62
7
 10
-1.14743936E+02
 20
-9.96148588E+01
  0
VERTEX
  8
0
 62
7
 10
-1.15005605E+02
 20
-9.96362539E+01
  0
VERTEX
  8
0
 62
7
 10
-1.15263269E+02
 20
-9.96717309E+01
  0
VERTEX
  8
0
 62
7
 10
-1.15514960E+02
 20
-9.97210193E+01
  0
VERTEX
  8
0
 62
7
 10
-1.15758761E+02
 20
-9.97837433E+01
  0
VERTEX
  8
0
 62
7
 10
-1.15992810E+02
 20
-9.98594245E+01
  0
VERTEX
  8
0
 62
7
 10
-1.16215325E+02
 20
-9.99474856E+01
  0
VERTEX
  8
0
 62
7
 10
-1.16424606E+02
 20
-1.00047255E+02
  0
VERTEX
  8
0
 62
7
 10
-1.16619060E+02
 20
-1.00157972E+02
  0
VERTEX
  8
0
 62
7
 10
-1.16797201E+02
 20
-1.00278792E+02
  0
VERTEX
  8
0
 62
7
 10
-1.16957672E+02
 20
-1.00408794E+02
  0
VERTEX
  8
0
 62
7
 10
-1.17099250E+02
 20
-1.00546986E+02
  0
VERTEX
  8
0
 62
7
 10
-1.17220853E+02
 20
-1.00692315E+02
  0
VERTEX
  8
0
 62
7
 10
-1.17321556E+02
 20
-1.00843671E+02
  0
VERTEX
  8
0
 62
7
 10
-1.17400589E+02
 20
-1.00999901E+02
  0
VERTEX
  8
0
 62
7
 10
-1.17457350E+02
 20
-1.01159813E+02
  0
VERTEX
  8
0
 62
7
 10
-1.17491406E+02
 20
-1.01322187E+02
  0
VERTEX
  8
0
 62
7
 10
-1.17502498E+02
 20
-1.01485786E+02
  0
VERTEX
  8
0
 62
7
 10
-1.17490541E+02
 20
-1.01649362E+02
  0
VERTEX
  8
0
 62
7
 10
-1.17455626E+02
 20
-1.01811666E+02
  0
VERTEX
  8
0
 62
7
 10
-1.17398019E+02
 20
-1.01971462E+02
  0
VERTEX
  8
0
 62
7
 10
-1.17318159E+02
 20
-1.02127530E+02
  0
VERTEX
  8
0
 62
7
 10
-1.17216657E+02
 20
-1.02278680E+02
  0
VERTEX
  8
0
 62
7
 10
-1.17094285E+02
 20
-1.02423760E+02
  0
VERTEX
  8
0
 62
7
 10
-1.16951977E+02
 20
-1.02561663E+02
  0
VERTEX
  8
0
 62
7
 10
-1.16790819E+02
 20
-1.02691337E+02
  0
VERTEX
  8
0
 62
7
 10
-1.16612039E+02
 20
-1.02811794E+02
  0
VERTEX
  8
0
 62
7
 10
-1.16417001E+02
 20
-1.02922115E+02
  0
VERTEX
  8
0
 62
7
 10
-1.16207193E+02
 20
-1.03021457E+02
  0
VERTEX
  8
0
 62
7
 10
-1.15984214E+02
 20
-1.03109065E+02
  0
SEQEND
  8
0
  0
POLYLINE
  8
0
 62
7
 66
1
  0
VERTEX
  8
0
 62
7
 10
-1.15984214E+02
 20
-8.80063465E+01
  0
VERTEX
  8
0
 62
7
 10
-1.16207193E+02
 20
-8.80939541E+01
  0
VERTEX
  8
0
 62
7
 10
-1.16417001E+02
 20
-8.81932969E+01
  0
VERTEX
  8
0
 62
7
 10
-1.16612039E+02
 20
-8.83036173E+01
  0
VERTEX
  8
0
 62
7
 10
-1.16790819E+02
 20
-8.84240741E+01
  0
VERTEX
  8
0
 62
7
 10
-1.16951977E+02
 20
-8.85537484E+01
  0
VERTEX
  8
0
 62
7
 10
-1.17094285E+02
 20
-8.86916514E+01
  0
VERTEX
  8
0
 62
7
 10
-1.17216657E+02
 20
-8.88367313E+01
  0
VERTEX
  8
0
 62
7
 10
-1.17318159E+02
 20
-8.89878817E+01
  0
VERTEX
  8
0
 62
7
 10
-1.17398019E+02
 20
-8.91439498E+01
  0
VERTEX
  8
0
 62
7
 10
-1.17455626E+02
 20
-8.93037454E+01
  0
VERTEX
  8
0
 62
7
 10
-1.17490541E+02
 20
-8.94660498E+01
  0
VERTEX
  8
0
 62
7
 10
-1.17502498E+02
 20
-8.96296252E+01
  0
VERTEX
  8
0
 62
7
 10
-1.17491406E+02
 20
-8.97932240E+01
  0
VERTEX
  8
0
 62
7
 10
-1.17457350E+02
 20
-8.99555987E+01
  0
VERTEX
  8
0
 62
7
 10
-1.17400589E+02
 20
-9.01155107E+01
  0
VERTEX
  8
0
 62
7
 10
-1.17321556E+02
 20
-9.02717406E+01
  0
VERTEX
  8
0
 62
7
 10
-1.17220853E+02
 20
-9.04230969E+01
  0
VERTEX
  8
0
 62
7
 10
-1.17099250E+02
 20
-9.05684253E+01
  0
VERTEX
  8
0
 62
7
 10
-1.16957672E+02
 20
-9.07066173E+01
  0
VERTEX
  8
0
 62
7
 10
-1.16797201E+02
 20
-9.08366191E+01
  0
VERTEX
  8
0
 62
7
 10
-1.16619060E+02
 20
-9.09574393E+01
  0
VERTEX
  8
0
 62
7
 10
-1.16424606E+02
 20
-9.10681563E+01
  0
VERTEX
  8
0
 62
7
 10
-1.16215325E+02
 20
-9.11679259E+01
  0
VERTEX
  8
0
 62
7
 10
-1.15992810E+02
 20
-9.12559870E+01
  0
VERTEX
  8
0
 62
7
 10
-1.15758761E+02
 20
-9.13316682E+01
  0
VERTEX
  8
0
 62
7
 10
-1.15514960E+02
 20
-9.13943922E+01
  0
VERTEX
  8
0
 62
7
 10
-1.15263269E+02
 20
-9.14436806E+01
  0
VERTEX
  8
0
 62
7
 10
-1.15005605E+02
 20
-9.14791576E+01
  0
VERTEX
  8
0
 62
7
 10
-1.14743936E+02
 20
-9.15005527E+01
  0
VERTEX
  8
0
 62
7
 10
-1.14480255E+02
 20
-9.15077025E+01
  0
SEQEND
  8
0
  0
POLYLINE
  8
0
 62
7
 66
1
  0
VERTEX
  8
0
 62
7
 10
-1.14480255E+02
 20
-9.15077026E+01
  0
VERTEX
  8
0
 62
7
 10
-1.14751167E+02
 20
-9.15240067E+01
  0
VERTEX
  8
0
 62
7
 10
-1.15019898E+02
 20
-9.15727878E+01
  0
VERTEX
  8
0
 62
7
 10
-1.15284284E+02
 20
-9.16536531E+01
  0
VERTEX
  8
0
 62
7
 10
-1.15542197E+02
 20
-9.17659515E+01
  0
VERTEX
  8
0
 62
7
 10
-1.15791559E+02
 20
-9.19087789E+01
  0
VERTEX
  8
0
 62
7
 10
-1.16030363E+02
 20
-9.20809854E+01
  0
VERTEX
  8
0
 62
7
 10
-1.16256687E+02
 20
-9.22811843E+01
  0
VERTEX
  8
0
 62
7
 10
-1.16468709E+02
 20
-9.25077639E+01
  0
VERTEX
  8
0
 62
7
 10
-1.16664720E+02
 20
-9.27588998E+01
  0
VERTEX
  8
0
 62
7
 10
-1.16843143E+02
 20
-9.30325700E+01
  0
VERTEX
  8
0
 62
7
 10
-1.17002542E+02
 20
-9.33265711E+01
  0
VERTEX
  8
0
 62
7
 10
-1.17141632E+02
 20
-9.36385361E+01
  0
VERTEX
  8
0
 62
7
 10
-1.17259295E+02
 20
-9.39659530E+01
  0
VERTEX
  8
0
 62
7
 10
-1.17354583E+02
 20
-9.43061858E+01
  0
VERTEX
  8
0
 62
7
 10
-1.17426728E+02
 20
-9.46564951E+01
  0
VERTEX
  8
0
 62
7
 10
-1.17475150E+02
 20
-9.50140605E+01
  0
VERTEX
  8
0
 62
7
 10
-1.17499459E+02
 20
-9.53760029E+01
  0
VERTEX
  8
0
 62
7
 10
-1.17499459E+02
 20
-9.57394083E+01
  0
VERTEX
  8
0
 62
7
 10
-1.17475150E+02
 20
-9.61013507E+01
  0
VERTEX
  8
0
 62
7
 10
-1.17426728E+02
 20
-9.64589161E+01
  0
VERTEX
  8
0
 62
7
 10
-1.17354583E+02
 20
-9.68092254E+01
  0
VERTEX
  8
0
 62
7
 10
-1.17259295E+02
 20
-9.71494582E+01
  0
VERTEX
  8
0
 62
7
 10
-1.17141632E+02
 20
-9.74768751E+01
  0
VERTEX
  8
0
 62
7
 10
-1.17002542E+02
 20
-9.77888401E+01
  0
VERTEX
  8
0
 62
7
 10
-1.16843143E+02
 20
-9.80828412E+01
  0
VERTEX
  8
0
 62
7
 10
-1.16664720E+02
 20
-9.83565114E+01
  0
VERTEX
  8
0
 62
7
 10
-1.16468709E+02
 20
-9.86076473E+01
  0
VERTEX
  8
0
 62
7
 10
-1.16256687E+02
 20
-9.88342269E+01
  0
VERTEX
  8
0
 62
7
 10
-1.16030363E+02
 20
-9.90344258E+01
  0
VERTEX
  8
0
 62
7
 10
-1.15791559E+02
 20
-9.92066323E+01
  0
VERTEX
  8
0
 62
7
 10
-1.15542197E+02
 20
-9.93494597E+01
  0
VERTEX
  8
0
 62
7
 10
-1.15284284E+02
 20
-9.94617581E+01
  0
VERTEX
  8
0
 62
7
 10
-1.15019898E+02
 20
-9.95426234E+01
  0
VERTEX
  8
0
 62
7
 10
-1.14751167E+02
 20
-9.95914045E+01
  0
VERTEX
  8
0
 62
7
 10
-1.14480255E+02
 20
-9.96077087E+01
  0
SEQEND
  8
0
  0
POLYLINE
  8
0
 62
7
 66
1
  0
VERTEX
  8
0
 62
7
 10
-1.14480225E+02
 20
-2.23557706E+02
  0
VERTEX
  8
0
 62
7
 10
-1.14751140E+02
 20
-2.23571796E+02
  0
VERTEX
  8
0
 62
7
 10
-1.15019874E+02
 20
-2.23613952E+02
  0
VERTEX
  8
0
 62
7
 10
-1.15284262E+02
 20
-2.23683836E+02
  0
VERTEX
  8
0
 62
7
 10
-1.15542177E+02
 20
-2.23780884E+02
  0
VERTEX
  8
0
 62
7
 10
-1.15791542E+02
 20
-2.23904315E+02
  0
VERTEX
  8
0
 62
7
 10
-1.16030349E+02
 20
-2.24053135E+02
  0
VERTEX
  8
0
 62
7
 10
-1.16256675E+02
 20
-2.24226147E+02
  0
VERTEX
  8
0
 62
7
 10
-1.16468699E+02
 20
-2.24421956E+02
  0
VERTEX
  8
0
 62
7
 10
-1.16664712E+02
 20
-2.24638987E+02
  0
VERTEX
  8
0
 62
7
 10
-1.16843137E+02
 20
-2.24875492E+02
  0
VERTEX
  8
0
 62
7
 10
-1.17002537E+02
 20
-2.25129567E+02
  0
VERTEX
  8
0
 62
7
 10
-1.17141629E+02
 20
-2.25399166E+02
  0
VERTEX
  8
0
 62
7
 10
-1.17259293E+02
 20
-2.25682118E+02
  0
VERTEX
  8
0
 62
7
 10
-1.17354582E+02
 20
-2.25976147E+02
  0
VERTEX
  8
0
 62
7
 10
-1.17426728E+02
 20
-2.26278883E+02
  0
VERTEX
  8
0
 62
7
 10
-1.17475150E+02
 20
-2.26587890E+02
  0
VERTEX
  8
0
 62
7
 10
-1.17499460E+02
 20
-2.26900679E+02
  0
VERTEX
  8
0
 62
7
 10
-1.17499460E+02
 20
-2.27214733E+02
  0
VERTEX
  8
0
 62
7
 10
-1.17475150E+02
 20
-2.27527522E+02
  0
VERTEX
  8
0
 62
7
 10
-1.17426728E+02
 20
-2.27836529E+02
  0
VERTEX
  8
0
 62
7
 10
-1.17354582E+02
 20
-2.28139265E+02
  0
VERTEX
  8
0
 62
7
 10
-1.17259293E+02
 20
-2.28433294E+02
  0
VERTEX
  8
0
 62
7
 10
-1.17141629E+02
 20
-2.28716246E+02
  0
VERTEX
  8
0
 62
7
 10
-1.17002537E+02
 20
-2.28985845E+02
  0
VERTEX
  8
0
 62
7
 10
-1.16843137E+02
 20
-2.29239920E+02
  0
VERTEX
  8
0
 62
7
 10
-1.16664712E+02
 20
-2.29476425E+02
  0
VERTEX
  8
0
 62
7
 10
-1.16468699E+02
 20
-2.29693456E+02
  0
VERTEX
  8
0
 62
7
 10
-1.16256675E+02
 20
-2.29889265E+02
  0
VERTEX
  8
0
 62
7
 10
-1.16030349E+02
 20
-2.30062277E+02
  0
VERTEX
  8
0
 62
7
 10
-1.15791542E+02
 20
-2.30211097E+02
  0
VERTEX
  8
0
 62
7
 10
-1.15542177E+02
 20
-2.30334528E+02
  0
VERTEX
  8
0
 62
7
 10
-1.15284262E+02
 20
-2.30431576E+02
  0
VERTEX
  8
0
 62
7
 10
-1.15019874E+02
 20
-2.30501460E+02
  0
VERTEX
  8
0
 62
7
 10
-1.14751140E+02
 20
-2.30543616E+02
  0
VERTEX
  8
0
 62
7
 10
-1.14480225E+02
 20
-2.30557706E+02
  0
SEQEND
  8
0
  0
ARC
  8
0
 62
7
 10
7.55943909E+01
 20
-2.30557706E+02
 40
1.50000000E+01
 50
0.00000000E+00
 51
1.80000000E+02
  0
ARC
  8
0
 62
7
 10
7.55943909E+01
 20
-2.30557706E+02
 40
1.55000010E+01
 50
0.00000000E+00
 51
1.80000000E+02
  0
ARC
  8
0
 62
2
 10
7.55943909E+01
 20
-2.30557706E+02
 40
6.17999268E+00
 50
0.00000000E+00
 51
1.80000000E+02
  0
ARC
  8
0
 62
7
 10
7.55943909E+01
 20
-2.30557706E+02
 40
6.99998474E+00
 50
0.00000000E+00
 51
1.80000000E+02
  0
CIRCLE
  8
0
 62
2
 10
5.70943298E+01
 20
-2.12057629E+02
 40
3.00000000E+00
  0
ARC
  8
0
 62
7
 10
7.55943909E+01
 20
-2.30557706E+02
 40
1.60000000E+01
 50
0.00000000E+00
 51
1.80000000E+02
  0
ARC
  8
0
 62
7
 10
8.62358093E+01
 20
-2.13555142E+02
 40
1.00000000E+00
 50
1.07884972E+01
 51
9.20252152E+01
  0
ARC
  8
0
 62
7
 10
8.05944519E+01
 20
-2.09557675E+02
 40
1.00000000E+00
 50
3.59721781E-05
 51
9.00000162E+01
  0
ARC
  8
0
 62
7
 10
9.25968933E+01
 20
-2.19916241E+02
 40
1.00000000E+00
 50
3.57973915E+02
 51
7.92109402E+01
  0
ARC
  8
0
 62
7
 10
9.65943909E+01
 20
-2.25557675E+02
 40
1.00000000E+00
 50
3.59721781E-05
 51
9.00000162E+01
  0
ARC
  8
0
 62
7
 10
8.45944519E+01
 20
-2.09557645E+02
 40
3.00000000E+00
 50
1.80000582E+02
 51
2.72025825E+02
  0
ARC
  8
0
 62
7
 10
9.65943909E+01
 20
-2.21557675E+02
 40
3.00000000E+00
 50
1.79999991E+02
 51
2.69999974E+02
  0
ARC
  8
0
 62
7
 10
9.24763489E+01
 20
-2.28557706E+02
 40
1.00000000E+00
 50
1.86756227E+02
 51
2.70000038E+02
  0
ARC
  8
0
 62
7
 10
8.89459534E+01
 20
-2.20034543E+02
 40
1.00000000E+00
 50
1.35000629E+02
 51
2.18244215E+02
  0
ARC
  8
0
 62
7
 10
8.61175232E+01
 20
-2.17206113E+02
 40
1.00000000E+00
 50
2.31756382E+02
 51
3.15000026E+02
  0
ARC
  8
0
 62
7
 10
7.75943909E+01
 20
-2.13675748E+02
 40
1.00000000E+00
 50
1.80000036E+02
 51
2.63243916E+02
  0
ARC
  8
0
 62
7
 10
9.00314026E+01
 20
-2.18949093E+02
 40
1.00000000E+00
 50
5.94775673E+01
 51
1.34999386E+02
  0
ARC
  8
0
 62
7
 10
9.40943909E+01
 20
-2.12057645E+02
 40
7.00000000E+00
 50
1.90788716E+02
 51
2.59211379E+02
  0
ARC
  8
0
 62
7
 10
8.72029724E+01
 20
-2.16120663E+02
 40
1.00000000E+00
 50
3.15000662E+02
 51
3.05222541E+01
  0
ARC
  8
0
 62
7
 10
7.75943909E+01
 20
-2.09557706E+02
 40
1.00000000E+00
 50
9.00000025E+01
 51
1.80000046E+02
  0
ARC
  8
0
 62
7
 10
9.65943909E+01
 20
-2.28557706E+02
 40
1.00000000E+00
 50
2.70000052E+02
 51
3.59721781E-05
  0
CIRCLE
  8
0
 62
7
 10
9.40943909E+01
 20
-2.12057645E+02
 40
5.00000000E+00
  0
CIRCLE
  8
0
 62
7
 10
9.40943909E+01
 20
-2.12057645E+02
 40
4.50000000E+00
  0
ARC
  8
0
 62
7
 10
9.75944519E+01
 20
-2.08557675E+02
 40
3.00000000E+00
 50
3.59721781E-05
 51
9.00000162E+01
  0
ARC
  8
0
 62
7
 10
9.75943909E+01
 20
-2.08557675E+02
 40
2.50000000E+00
 50
3.59721781E-05
 51
9.00000162E+01
  0
ARC
  8
0
 62
7
 10
7.05943909E+01
 20
-2.09557675E+02
 40
1.00000000E+00
 50
9.00000162E+01
 51
1.80000005E+02
  0
ARC
  8
0
 62
7
 10
6.65943909E+01
 20
-2.09557645E+02
 40
3.00000000E+00
 50
2.67974191E+02
 51
3.59999431E+02
  0
ARC
  8
0
 62
7
 10
6.49529724E+01
 20
-2.13555142E+02
 40
1.00000000E+00
 50
8.79748173E+01
 51
1.69211544E+02
  0
ARC
  8
0
 62
7
 10
5.70943909E+01
 20
-2.12057645E+02
 40
7.00000000E+00
 50
2.80788643E+02
 51
3.49211298E+02
  0
ARC
  8
0
 62
7
 10
5.85918884E+01
 20
-2.19916241E+02
 40
1.00000000E+00
 50
1.00789092E+02
 51
1.82026126E+02
  0
ARC
  8
0
 62
7
 10
5.45943909E+01
 20
-2.21557675E+02
 40
3.00000000E+00
 50
2.70000052E+02
 51
2.02641660E+00
  0
ARC
  8
0
 62
7
 10
5.45943909E+01
 20
-2.25557675E+02
 40
1.00000000E+00
 50
9.00000162E+01
 51
1.80000005E+02
  0
ARC
  8
0
 62
7
 10
5.35943909E+01
 20
-2.08557675E+02
 40
3.00000000E+00
 50
9.00000162E+01
 51
1.80000005E+02
  0
ARC
  8
0
 62
7
 10
6.50712585E+01
 20
-2.17206189E+02
 40
1.00000000E+00
 50
2.25000614E+02
 51
3.08244204E+02
  0
ARC
  8
0
 62
7
 10
6.22428284E+01
 20
-2.20034619E+02
 40
1.00000000E+00
 50
3.21756388E+02
 51
4.50000423E+01
  0
ARC
  8
0
 62
7
 10
7.35943909E+01
 20
-2.13675763E+02
 40
1.00000000E+00
 50
2.76756256E+02
 51
3.59721781E-05
  0
ARC
  8
0
 62
7
 10
7.35943909E+01
 20
-2.09557706E+02
 40
1.00000000E+00
 50
3.59721781E-05
 51
9.00000162E+01
  0
ARC
  8
0
 62
7
 10
6.11573792E+01
 20
-2.18949139E+02
 40
1.00000000E+00
 50
4.50006569E+01
 51
1.20522253E+02
  0
ARC
  8
0
 62
7
 10
5.87124329E+01
 20
-2.28557706E+02
 40
1.00000000E+00
 50
2.70000038E+02
 51
3.53243910E+02
  0
ARC
  8
0
 62
7
 10
5.45943909E+01
 20
-2.28557706E+02
 40
1.00000000E+00
 50
1.79999991E+02
 51
2.70000028E+02
  0
ARC
  8
0
 62
7
 10
6.39858093E+01
 20
-2.16120724E+02
 40
1.00000000E+00
 50
1.49477556E+02
 51
2.24999381E+02
  0
CIRCLE
  8
0
 62
7
 10
5.70943298E+01
 20
-2.12057706E+02
 40
4.50000000E+00
  0
CIRCLE
  8
0
 62
7
 10
5.70943298E+01
 20
-2.12057706E+02
 40
5.00000000E+00
  0
ARC
  8
0
 62
7
 10
5.35943909E+01
 20
-2.08557736E+02
 40
2.50000000E+00
 50
9.00000162E+01
 51
1.80000005E+02
  0
CIRCLE
  8
0
 62
2
 10
9.40943909E+01
 20
-2.12057629E+02
 40
3.00000000E+00
  0
ARC
  8
0
 62
7
 10
-1.09750031E+02
 20
-2.16057706E+02
 40
5.00000000E-01
 50
8.99999818E+01
 51
1.79999964E+02
  0
ARC
  8
0
 62
7
 10
-9.67500000E+01
 20
-2.15057706E+02
 40
5.00000000E-01
 50
8.99999818E+01
 51
1.79999964E+02
  0
ARC
  8
0
 62
7
 10
-1.05000000E+02
 20
-2.15549100E+02
 40
2.50000000E-01
 50
9.20007356E+01
 51
1.79999964E+02
  0
CIRCLE
  8
0
 62
7
 10
-6.97499847E+01
 20
-1.05557706E+02
 40
2.09999990E+00
  0
CIRCLE
  8
0
 62
2
 10
-2.15249908E+02
 20
-2.12057629E+02
 40
3.00000000E+00
  0
CIRCLE
  8
0
 62
2
 10
-2.52249969E+02
 20
-2.12057629E+02
 40
3.00000000E+00
  0
ARC
  8
0
 62
2
 10
-7.72500000E+01
 20
-9.15577666E+01
 40
6.57849979E+00
 50
7.68192768E+01
 51
3.35950142E+02
  0
ARC
  8
0
 62
7
 10
-2.33749969E+02
 20
-2.30557706E+02
 40
1.50000000E+01
 50
0.00000000E+00
 51
1.80000000E+02
  0
ARC
  8
0
 62
7
 10
-2.33749969E+02
 20
-2.30557706E+02
 40
1.55000010E+01
 50
0.00000000E+00
 51
1.80000000E+02
  0
ARC
  8
0
 62
7
 10
-2.33749969E+02
 20
-2.30557706E+02
 40
1.60000000E+01
 50
0.00000000E+00
 51
1.80000000E+02
  0
ARC
  8
0
 62
7
 10
-2.44391388E+02
 20
-2.13555142E+02
 40
1.00000000E+00
 50
8.79747829E+01
 51
1.69211502E+02
  0
ARC
  8
0
 62
7
 10
-2.38750031E+02
 20
-2.09557675E+02
 40
1.00000000E+00
 50
8.99999818E+01
 51
1.79999964E+02
  0
ARC
  8
0
 62
7
 10
-2.50752472E+02
 20
-2.19916241E+02
 40
1.00000000E+00
 50
1.00789058E+02
 51
1.82026085E+02
  0
ARC
  8
0
 62
7
 10
-2.54749969E+02
 20
-2.25557675E+02
 40
1.00000000E+00
 50
8.99999818E+01
 51
1.79999964E+02
  0
ARC
  8
0
 62
7
 10
-2.42750031E+02
 20
-2.09557645E+02
 40
3.00000000E+00
 50
2.67974177E+02
 51
3.59999417E+02
  0
ARC
  8
0
 62
7
 10
-2.54749969E+02
 20
-2.21557675E+02
 40
3.00000000E+00
 50
2.70000018E+02
 51
0.00000000E+00
  0
ARC
  8
0
 62
7
 10
-2.50631927E+02
 20
-2.28557706E+02
 40
1.00000000E+00
 50
2.69999963E+02
 51
3.53243768E+02
  0
ARC
  8
0
 62
7
 10
-2.47101532E+02
 20
-2.20034543E+02
 40
1.00000000E+00
 50
3.21755790E+02
 51
4.49993763E+01
  0
ARC
  8
0
 62
7
 10
-2.44273102E+02
 20
-2.17206113E+02
 40
1.00000000E+00
 50
2.24999972E+02
 51
3.08243613E+02
  0
ARC
  8
0
 62
7
 10
-2.35749969E+02
 20
-2.13675748E+02
 40
1.00000000E+00
 50
2.76756086E+02
 51
3.59999959E+02
  0
ARC
  8
0
 62
7
 10
-2.48186981E+02
 20
-2.18949093E+02
 40
1.00000000E+00
 50
4.50006194E+01
 51
1.20522431E+02
  0
ARC
  8
0
 62
7
 10
-2.52249969E+02
 20
-2.12057645E+02
 40
7.00000000E+00
 50
2.80788623E+02
 51
3.49211279E+02
  0
ARC
  8
0
 62
7
 10
-2.45358551E+02
 20
-2.16120663E+02
 40
1.00000000E+00
 50
1.49477747E+02
 51
2.24999340E+02
  0
ARC
  8
0
 62
7
 10
-2.35749969E+02
 20
-2.09557706E+02
 40
1.00000000E+00
 50
3.59999959E+02
 51
8.99999956E+01
  0
ARC
  8
0
 62
7
 10
-2.54749969E+02
 20
-2.28557706E+02
 40
1.00000000E+00
 50
1.79999964E+02
 51
2.69999946E+02
  0
CIRCLE
  8
0
 62
7
 10
-2.52249969E+02
 20
-2.12057645E+02
 40
5.00000000E+00
  0
CIRCLE
  8
0
 62
7
 10
-2.52249969E+02
 20
-2.12057645E+02
 40
4.50000000E+00
  0
ARC
  8
0
 62
7
 10
-2.55750031E+02
 20
-2.08557675E+02
 40
3.00000000E+00
 50
8.99999818E+01
 51
1.79999964E+02
  0
ARC
  8
0
 62
7
 10
-2.55749969E+02
 20
-2.08557675E+02
 40
2.50000000E+00
 50
8.99999818E+01
 51
1.79999964E+02
  0
ARC
  8
0
 62
7
 10
-2.28749969E+02
 20
-2.09557675E+02
 40
1.00000000E+00
 50
0.00000000E+00
 51
8.99999818E+01
  0
ARC
  8
0
 62
7
 10
-2.24749969E+02
 20
-2.09557645E+02
 40
3.00000000E+00
 50
1.80000569E+02
 51
2.72025811E+02
  0
ARC
  8
0
 62
7
 10
-2.23108551E+02
 20
-2.13555142E+02
 40
1.00000000E+00
 50
1.07884614E+01
 51
9.20251808E+01
  0
ARC
  8
0
 62
7
 10
-2.15249969E+02
 20
-2.12057645E+02
 40
7.00000000E+00
 50
1.90788702E+02
 51
2.59211358E+02
  0
ARC
  8
0
 62
7
 10
-2.16747467E+02
 20
-2.19916241E+02
 40
1.00000000E+00
 50
3.57973879E+02
 51
7.92109058E+01
  0
ARC
  8
0
 62
7
 10
-2.12749969E+02
 20
-2.21557675E+02
 40
3.00000000E+00
 50
1.77973583E+02
 51
2.69999946E+02
  0
ARC
  8
0
 62
7
 10
-2.12749969E+02
 20
-2.25557675E+02
 40
1.00000000E+00
 50
0.00000000E+00
 51
8.99999818E+01
  0
ARC
  8
0
 62
7
 10
-2.11749969E+02
 20
-2.08557675E+02
 40
3.00000000E+00
 50
0.00000000E+00
 51
8.99999818E+01
  0
ARC
  8
0
 62
7
 10
-2.23226837E+02
 20
-2.17206189E+02
 40
1.00000000E+00
 50
2.31755794E+02
 51
3.14999380E+02
  0
ARC
  8
0
 62
7
 10
-2.20398407E+02
 20
-2.20034619E+02
 40
1.00000000E+00
 50
1.34999959E+02
 51
2.18243614E+02
  0
ARC
  8
0
 62
7
 10
-2.31749969E+02
 20
-2.13675763E+02
 40
1.00000000E+00
 50
1.79999964E+02
 51
2.63243741E+02
  0
ARC
  8
0
 62
7
 10
-2.31749969E+02
 20
-2.09557706E+02
 40
1.00000000E+00
 50
8.99999818E+01
 51
1.79999964E+02
  0
ARC
  8
0
 62
7
 10
-2.19312958E+02
 20
-2.18949139E+02
 40
1.00000000E+00
 50
5.94777518E+01
 51
1.34999345E+02
  0
ARC
  8
0
 62
7
 10
-2.16868011E+02
 20
-2.28557706E+02
 40
1.00000000E+00
 50
1.86756090E+02
 51
2.69999963E+02
  0
ARC
  8
0
 62
7
 10
-2.12749969E+02
 20
-2.28557706E+02
 40
1.00000000E+00
 50
2.69999963E+02
 51
0.00000000E+00
  0
ARC
  8
0
 62
7
 10
-2.22141388E+02
 20
-2.16120724E+02
 40
1.00000000E+00
 50
3.15000624E+02
 51
3.05224488E+01
  0
CIRCLE
  8
0
 62
7
 10
-2.15249908E+02
 20
-2.12057706E+02
 40
4.50000000E+00
  0
CIRCLE
  8
0
 62
7
 10
-2.15249908E+02
 20
-2.12057706E+02
 40
5.00000000E+00
  0
ARC
  8
0
 62
7
 10
-2.11749969E+02
 20
-2.08557736E+02
 40
2.50000000E+00
 50
0.00000000E+00
 51
8.99999818E+01
  0
ARC
  8
0
 62
7
 10
-7.72500000E+01
 20
-9.15577666E+01
 40
5.65999985E+00
 50
7.46314587E+01
 51
3.31727516E+02
  0
ARC
  8
0
 62
7
 10
-8.82499542E+01
 20
-1.13557706E+02
 40
2.00000000E+00
 50
1.79999981E+02
 51
2.70000018E+02
  0
ARC
  8
0
 62
7
 10
-8.82499542E+01
 20
-7.75577056E+01
 40
2.00000000E+00
 50
8.99999818E+01
 51
1.79999964E+02
  0
ARC
  8
0
 62
7
 10
-7.72500000E+01
 20
-9.15577666E+01
 40
7.00000000E+00
 50
7.76259453E+01
 51
3.45167056E+02
  0
ARC
  8
0
 62
7
 10
-9.47500000E+01
 20
-1.19525235E+02
 40
5.00000000E-01
 50
1.80000005E+02
 51
2.68999788E+02
  0
ARC
  8
0
 62
7
 10
-9.47500000E+01
 20
-7.15901763E+01
 40
5.00000000E-01
 50
9.10002155E+01
 51
1.80000005E+02
  0
ARC
  8
0
 62
7
 10
-1.05000000E+02
 20
-8.05490996E+01
 40
2.50000000E-01
 50
9.20007768E+01
 51
1.79999991E+02
  0
ARC
  8
0
 62
7
 10
-9.67500000E+01
 20
-8.00577056E+01
 40
5.00000000E-01
 50
9.00000231E+01
 51
1.80000005E+02
  0
ARC
  8
0
 62
7
 10
-1.09750031E+02
 20
-8.10577056E+01
 40
5.00000000E-01
 50
9.00000231E+01
 51
1.80000005E+02
  0
ARC
  8
0
 62
7
 10
-1.05000000E+02
 20
-1.10566312E+02
 40
2.50000000E-01
 50
1.80000005E+02
 51
2.67999220E+02
  0
ARC
  8
0
 62
7
 10
-9.67500000E+01
 20
-1.11057706E+02
 40
5.00000000E-01
 50
1.80000005E+02
 51
2.70000001E+02
  0
ARC
  8
0
 62
7
 10
-1.09750031E+02
 20
-1.10057706E+02
 40
5.00000000E-01
 50
1.80000005E+02
 51
2.70000001E+02
  0
CIRCLE
  8
0
 62
7
 10
-6.97499847E+01
 20
-1.05557706E+02
 40
4.00000000E+00
  0
LINE
  8
0
 62
7
 10
-1.23250000E+02
 20
-2.25257687E+02
 11
-1.20250000E+02
 21
-2.25257687E+02
  0
LINE
  8
0
 62
7
 10
-1.23250000E+02
 20
-1.00857739E+02
 11
-1.20249969E+02
 21
-1.00857739E+02
  0
LINE
  8
0
 62
7
 10
-1.23250000E+02
 20
-9.02577178E+01
 11
-1.20249969E+02
 21
-9.02577178E+01
  0
LINE
  8
0
 62
7
 10
-1.20249965E+02
 20
-1.01557700E+02
 11
-1.14480239E+02
 21
-1.03657709E+02
  0
LINE
  8
0
 62
7
 10
-1.20249975E+02
 20
-8.95577080E+01
 11
-1.14480263E+02
 21
-8.74577046E+01
  0
LINE
  8
0
 62
7
 10
-1.20249969E+02
 20
-8.95577056E+01
 11
-1.20249969E+02
 21
-1.01557706E+02
  0
LINE
  8
0
 62
7
 10
-1.14480255E+02
 20
-9.96077086E+01
 11
-1.10249954E+02
 21
-9.96077086E+01
  0
LINE
  8
0
 62
7
 10
-1.14480255E+02
 20
-9.15077025E+01
 11
-1.10249954E+02
 21
-9.15077025E+01
  0
LINE
  8
0
 62
7
 10
-1.14480255E+02
 20
-1.03657712E+02
 11
-1.10249954E+02
 21
-1.03657712E+02
  0
LINE
  8
0
 62
7
 10
-1.14480255E+02
 20
-8.74576995E+01
 11
-1.10249954E+02
 21
-8.74576995E+01
  0
LINE
  8
0
 62
7
 10
-1.14480225E+02
 20
-2.30557706E+02
 11
-1.10250000E+02
 21
-2.30557706E+02
  0
LINE
  8
0
 62
7
 10
-1.44250000E+02
 20
-2.30557706E+02
 11
-1.44250000E+02
 21
-2.25557706E+02
  0
LINE
  8
0
 62
2
 10
-1.43949982E+02
 20
-1.00857739E+02
 11
-1.37250000E+02
 21
-1.00857739E+02
  0
LINE
  8
0
 62
7
 10
-1.43250061E+02
 20
-1.01557736E+02
 11
-1.37192935E+02
 21
-1.01557736E+02
  0
LINE
  8
0
 62
7
 10
-1.44250000E+02
 20
-1.00557736E+02
 11
-1.44250000E+02
 21
-9.05577361E+01
  0
LINE
  8
0
 62
7
 10
-1.44249967E+02
 20
-1.00557654E+02
 11
-1.43249999E+02
 21
-1.01557645E+02
  0
LINE
  8
0
 62
7
 10
-1.43250061E+02
 20
-1.01557736E+02
 11
-1.43250061E+02
 21
-8.95577056E+01
  0
LINE
  8
0
 62
7
 10
-1.23250000E+02
 20
-1.01557736E+02
 11
-1.23250000E+02
 21
-8.95577056E+01
  0
LINE
  8
0
 62
7
 10
-1.44249901E+02
 20
-9.05578693E+01
 11
-1.43249954E+02
 21
-8.95578999E+01
  0
LINE
  8
0
 62
2
 10
-1.43949982E+02
 20
-9.02577178E+01
 11
-1.37238972E+02
 21
-9.02577178E+01
  0
LINE
  8
0
 62
7
 10
-1.20249996E+02
 20
-2.24557712E+02
 11
-1.17502494E+02
 21
-2.23557710E+02
  0
LINE
  8
0
 62
7
 10
-1.17502502E+02
 20
-2.23557706E+02
 11
-1.10250000E+02
 21
-2.23557706E+02
  0
LINE
  8
0
 62
7
 10
-1.20250000E+02
 20
-2.30557706E+02
 11
-1.20250000E+02
 21
-2.24557706E+02
  0
LINE
  8
0
 62
7
 10
-1.43250061E+02
 20
-8.95577056E+01
 11
-1.37192938E+02
 21
-8.95577056E+01
  0
LINE
  8
0
 62
7
 10
-1.23250000E+02
 20
-2.30557706E+02
 11
-1.23250000E+02
 21
-2.24557706E+02
  0
LINE
  8
0
 62
7
 10
-1.43250061E+02
 20
-2.24557706E+02
 11
-1.37250000E+02
 21
-2.24557706E+02
  0
LINE
  8
0
 62
7
 10
-1.43250061E+02
 20
-2.30557706E+02
 11
-1.43250061E+02
 21
-2.24557706E+02
  0
LINE
  8
0
 62
7
 10
-1.44249840E+02
 20
-2.25557771E+02
 11
-1.43249883E+02
 21
-2.24557790E+02
  0
LINE
  8
0
 62
2
 10
-1.43949982E+02
 20
-2.25257687E+02
 11
-1.37250000E+02
 21
-2.25257687E+02
  0
LINE
  8
0
 62
7
 10
9.40943884E+01
 20
-2.08593526E+02
 11
9.70943901E+01
 21
-2.10325578E+02
  0
LINE
  8
0
 62
7
 10
9.70943909E+01
 20
-2.10325574E+02
 11
9.70943909E+01
 21
-2.13789685E+02
  0
LINE
  8
0
 62
7
 10
9.70943914E+01
 20
-2.13789677E+02
 11
9.40943831E+01
 21
-2.15521733E+02
  0
LINE
  8
0
 62
7
 10
9.40943901E+01
 20
-2.15521731E+02
 11
9.10943884E+01
 21
-2.13789679E+02
  0
LINE
  8
0
 62
7
 10
9.10943909E+01
 20
-2.10325574E+02
 11
9.10943909E+01
 21
-2.13789685E+02
  0
LINE
  8
0
 62
7
 10
9.40943914E+01
 20
-2.08593525E+02
 11
9.10943831E+01
 21
-2.10325580E+02
  0
LINE
  8
0
 62
7
 10
5.70943280E+01
 20
-2.08593526E+02
 11
6.00943298E+01
 21
-2.10325578E+02
  0
LINE
  8
0
 62
7
 10
6.00943298E+01
 20
-2.10325574E+02
 11
6.00943298E+01
 21
-2.13789685E+02
  0
LINE
  8
0
 62
7
 10
6.00943253E+01
 20
-2.13789681E+02
 11
5.70943301E+01
 21
-2.15521729E+02
  0
LINE
  8
0
 62
7
 10
5.70943298E+01
 20
-2.15521730E+02
 11
5.40943280E+01
 21
-2.13789679E+02
  0
LINE
  8
0
 62
7
 10
5.40943298E+01
 20
-2.10325574E+02
 11
5.40943298E+01
 21
-2.13789685E+02
  0
LINE
  8
0
 62
7
 10
5.70943253E+01
 20
-2.08593528E+02
 11
5.40943301E+01
 21
-2.10325576E+02
  0
LINE
  8
0
 62
7
 10
6.49813538E+01
 20
-2.12528515E+02
 11
6.70114441E+01
 21
-2.12528515E+02
  0
LINE
  8
0
  6
CENTER
 62
2
 10
4.66220703E+01
 20
-2.30557706E+02
 11
1.05298187E+02
 21
-2.30557706E+02
  0
LINE
  8
0
  6
CENTER
 62
2
 10
6.34757996E+01
 20
-2.12057629E+02
 11
4.89541321E+01
 21
-2.12057629E+02
  0
LINE
  8
0
 62
7
 10
9.35943909E+01
 20
-2.19845547E+02
 11
9.35943909E+01
 21
-2.21807675E+02
  0
LINE
  8
0
 62
7
 10
8.63061218E+01
 20
-2.12557614E+02
 11
8.43444519E+01
 21
-2.12557614E+02
  0
LINE
  8
0
 62
7
 10
5.75943298E+01
 20
-2.19846402E+02
 11
5.75943298E+01
 21
-2.21807675E+02
  0
LINE
  8
0
 62
7
 10
5.55943909E+01
 20
-2.05557675E+02
 11
5.55943909E+01
 21
-2.06057736E+02
  0
LINE
  8
0
 62
7
 10
9.55943909E+01
 20
-2.05557675E+02
 11
9.55943909E+01
 21
-2.06057675E+02
  0
LINE
  8
0
  6
CENTER
 62
2
 10
7.55943909E+01
 20
-2.02062710E+02
 11
7.55943909E+01
 21
-2.30557706E+02
  0
LINE
  8
0
 62
7
 10
9.75943909E+01
 20
-2.25557675E+02
 11
9.75943909E+01
 21
-2.30557706E+02
  0
LINE
  8
0
 62
7
 10
7.05943909E+01
 20
-2.08557675E+02
 11
8.05944519E+01
 21
-2.08557675E+02
  0
LINE
  8
0
 62
7
 10
8.79101548E+01
 20
-2.16827759E+02
 11
8.68246783E+01
 21
-2.17913235E+02
  0
LINE
  8
0
 62
7
 10
8.93243249E+01
 20
-2.18242016E+02
 11
8.82388484E+01
 21
-2.19327492E+02
  0
LINE
  8
0
 62
7
 10
9.65943909E+01
 20
-2.29557690E+02
 11
9.24763489E+01
 21
-2.29557690E+02
  0
LINE
  8
0
 62
7
 10
7.65943909E+01
 20
-2.09557706E+02
 11
7.65943909E+01
 21
-2.13675748E+02
  0
LINE
  8
0
 62
7
 10
1.00094391E+02
 20
-2.08557675E+02
 11
1.00094391E+02
 21
-2.30557706E+02
  0
LINE
  8
0
 62
7
 10
1.00594452E+02
 20
-2.08557675E+02
 11
1.00594452E+02
 21
-2.30557706E+02
  0
LINE
  8
0
 62
7
 10
5.35943909E+01
 20
-2.05557675E+02
 11
9.75944519E+01
 21
-2.05557675E+02
  0
LINE
  8
0
  6
CENTER
 62
2
 10
9.40943909E+01
 20
-2.03655057E+02
 11
9.40943909E+01
 21
-2.19942044E+02
  0
LINE
  8
0
  6
CENTER
 62
2
 10
1.02684296E+02
 20
-2.12057629E+02
 11
8.80174255E+01
 21
-2.12057629E+02
  0
LINE
  8
0
 62
7
 10
5.35943909E+01
 20
-2.25557675E+02
 11
5.35943909E+01
 21
-2.30557706E+02
  0
LINE
  8
0
 62
7
 10
6.32787472E+01
 20
-2.16827714E+02
 11
6.43642128E+01
 21
-2.17913179E+02
  0
LINE
  8
0
 62
7
 10
7.45943909E+01
 20
-2.09557706E+02
 11
7.45943909E+01
 21
-2.13675763E+02
  0
LINE
  8
0
 62
7
 10
6.18645876E+01
 20
-2.18241895E+02
 11
6.29500640E+01
 21
-2.19327371E+02
  0
LINE
  8
0
 62
7
 10
5.45943909E+01
 20
-2.29557706E+02
 11
5.87124329E+01
 21
-2.29557706E+02
  0
LINE
  8
0
 62
7
 10
5.10943909E+01
 20
-2.08557736E+02
 11
5.10943909E+01
 21
-2.30557706E+02
  0
LINE
  8
0
 62
7
 10
5.35943909E+01
 20
-2.06057736E+02
 11
9.75943909E+01
 21
-2.06057675E+02
  0
LINE
  8
0
 62
7
 10
5.05943909E+01
 20
-2.08557675E+02
 11
5.05943909E+01
 21
-2.30557706E+02
  0
LINE
  8
0
  6
CENTER
 62
2
 10
5.70943298E+01
 20
-2.03551053E+02
 11
5.70943298E+01
 21
-2.18472195E+02
  0
LINE
  8
0
  6
CENTER
 62
2
 10
7.95944519E+01
 20
-2.03805310E+02
 11
7.95944519E+01
 21
-2.14985913E+02
  0
LINE
  8
0
  6
CENTER
 62
2
 10
-7.72500000E+01
 20
-2.03805340E+02
 11
-7.72500000E+01
 21
-2.14985943E+02
  0
LINE
  8
0
  6
CENTER
 62
2
 10
-2.37750031E+02
 20
-2.03805310E+02
 11
-2.37750031E+02
 21
-2.14985913E+02
  0
LINE
  8
0
 62
7
 10
-9.02500000E+01
 20
-2.06212308E+02
 11
-9.02500000E+01
 21
-2.05557706E+02
  0
LINE
  8
0
 62
7
 10
-9.52500645E+01
 20
-2.06343280E+02
 11
-6.42500402E+01
 21
-2.05531516E+02
  0
LINE
  8
0
 62
7
 10
-9.02500000E+01
 20
-2.05557706E+02
 11
-6.42500000E+01
 21
-2.05557706E+02
  0
LINE
  8
0
 62
7
 10
-9.67500000E+01
 20
-2.14557706E+02
 11
-9.52500000E+01
 21
-2.14557706E+02
  0
LINE
  8
0
 62
7
 10
-1.05008727E+02
 20
-2.15299223E+02
 11
-9.72491442E+01
 21
-2.15028252E+02
  0
LINE
  8
0
 62
7
 10
-1.09750031E+02
 20
-2.15557675E+02
 11
-1.05241058E+02
 21
-2.15557675E+02
  0
LINE
  8
0
  6
CENTER
 62
2
 10
-1.07628848E-01
 20
-2.12057706E+02
 11
-9.73534241E+01
 21
-2.12057706E+02
  0
LINE
  8
0
 62
7
 10
-6.42499542E+01
 20
-7.35577208E+01
 11
-5.62499487E+01
 21
-7.35577208E+01
  0
LINE
  8
0
 62
7
 10
-6.42499542E+01
 20
-7.44077117E+01
 11
-5.62499487E+01
 21
-7.44077117E+01
  0
LINE
  8
0
 62
7
 10
-6.42499542E+01
 20
-7.97076995E+01
 11
-5.62499487E+01
 21
-7.97076995E+01
  0
LINE
  8
0
  6
CENTER
 62
2
 10
-9.74769745E+01
 20
-7.70577056E+01
 11
-5.62499487E+01
 21
-7.70577056E+01
  0
LINE
  8
0
 62
7
 10
-6.42499542E+01
 20
-1.17557690E+02
 11
-2.34902602E+01
 21
-1.17557690E+02
  0
LINE
  8
0
 62
7
 10
-6.42499542E+01
 20
-1.16707699E+02
 11
-2.29995178E+01
 21
-1.16707699E+02
  0
LINE
  8
0
 62
7
 10
-6.42499542E+01
 20
-1.11407712E+02
 11
-1.99395684E+01
 21
-1.11407712E+02
  0
LINE
  8
0
  6
CENTER
 62
2
 10
-9.74769745E+01
 20
-1.14057706E+02
 11
-2.14695431E+01
 21
-1.14057706E+02
  0
LINE
  8
0
 62
7
 10
-6.83064896E+01
 20
-1.05557735E+02
 11
-6.90281776E+01
 21
-1.06807752E+02
  0
LINE
  8
0
 62
7
 10
-6.90282898E+01
 20
-1.06807675E+02
 11
-7.04716797E+01
 21
-1.06807675E+02
  0
LINE
  8
0
 62
7
 10
-7.04716458E+01
 20
-1.06807679E+02
 11
-7.11933490E+01
 21
-1.05557636E+02
  0
LINE
  8
0
 62
7
 10
-7.11932780E+01
 20
-1.05557694E+02
 11
-7.04715901E+01
 21
-1.04307677E+02
  0
LINE
  8
0
 62
7
 10
-6.90282898E+01
 20
-1.04307645E+02
 11
-7.04716797E+01
 21
-1.04307645E+02
  0
LINE
  8
0
 62
7
 10
-6.83066211E+01
 20
-1.05557612E+02
 11
-6.90282938E+01
 21
-1.04307622E+02
  0
LINE
  8
0
 62
7
 10
-2.23136932E+02
 20
-2.12528515E+02
 11
-2.25167023E+02
 21
-2.12528515E+02
  0
LINE
  8
0
 62
7
 10
-9.52500000E+01
 20
-2.06343274E+02
 11
-9.52500000E+01
 21
-2.30557706E+02
  0
LINE
  8
0
 62
7
 10
-6.42500000E+01
 20
-2.05557706E+02
 11
-6.42500000E+01
 21
-2.30557706E+02
  0
LINE
  8
0
 62
7
 10
-1.05250000E+02
 20
-2.30557706E+02
 11
-1.05250000E+02
 21
-2.15549100E+02
  0
LINE
  8
0
 62
7
 10
-9.72500000E+01
 20
-2.15057706E+02
 11
-9.72500000E+01
 21
-2.30557706E+02
  0
LINE
  8
0
  6
CENTER
 62
2
 10
-2.04777649E+02
 20
-2.30557706E+02
 11
-2.63453766E+02
 21
-2.30557706E+02
  0
LINE
  8
0
  6
CENTER
 62
2
 10
-2.21631378E+02
 20
-2.12057629E+02
 11
-2.07109711E+02
 21
-2.12057629E+02
  0
LINE
  8
0
 62
7
 10
-2.51749969E+02
 20
-2.19845547E+02
 11
-2.51749969E+02
 21
-2.21807675E+02
  0
LINE
  8
0
 62
7
 10
-2.44461700E+02
 20
-2.12557614E+02
 11
-2.42500031E+02
 21
-2.12557614E+02
  0
LINE
  8
0
 62
7
 10
-2.15749908E+02
 20
-2.19846402E+02
 11
-2.15749908E+02
 21
-2.21807675E+02
  0
LINE
  8
0
 62
7
 10
-2.13749969E+02
 20
-2.05557675E+02
 11
-2.13749969E+02
 21
-2.06057736E+02
  0
LINE
  8
0
 62
7
 10
-2.53749969E+02
 20
-2.05557675E+02
 11
-2.53749969E+02
 21
-2.06057675E+02
  0
LINE
  8
0
  6
CENTER
 62
2
 10
-2.33749969E+02
 20
-2.02062710E+02
 11
-2.33749969E+02
 21
-2.30557706E+02
  0
LINE
  8
0
 62
7
 10
-2.55749969E+02
 20
-2.25557675E+02
 11
-2.55749969E+02
 21
-2.30557706E+02
  0
LINE
  8
0
 62
7
 10
-2.46065746E+02
 20
-2.16827750E+02
 11
-2.44980270E+02
 21
-2.17913226E+02
  0
LINE
  8
0
 62
7
 10
-2.47479917E+02
 20
-2.18242007E+02
 11
-2.46394440E+02
 21
-2.19327483E+02
  0
LINE
  8
0
 62
7
 10
-2.54749969E+02
 20
-2.29557690E+02
 11
-2.50631927E+02
 21
-2.29557690E+02
  0
LINE
  8
0
 62
7
 10
-2.34749969E+02
 20
-2.09557706E+02
 11
-2.34749969E+02
 21
-2.13675748E+02
  0
LINE
  8
0
 62
7
 10
-2.58249969E+02
 20
-2.08557675E+02
 11
-2.58249969E+02
 21
-2.30557706E+02
  0
LINE
  8
0
 62
7
 10
-2.58750031E+02
 20
-2.08557675E+02
 11
-2.58750031E+02
 21
-2.30557706E+02
  0
LINE
  8
0
 62
7
 10
-2.55750031E+02
 20
-2.05557675E+02
 11
-2.11749969E+02
 21
-2.05557675E+02
  0
LINE
  8
0
  6
CENTER
 62
2
 10
-2.52249969E+02
 20
-2.03655057E+02
 11
-2.52249969E+02
 21
-2.19942044E+02
  0
LINE
  8
0
  6
CENTER
 62
2
 10
-2.60839874E+02
 20
-2.12057629E+02
 11
-2.46173004E+02
 21
-2.12057629E+02
  0
LINE
  8
0
 62
7
 10
-2.38750031E+02
 20
-2.08557675E+02
 11
-2.28749969E+02
 21
-2.08557675E+02
  0
LINE
  8
0
 62
7
 10
-2.11749969E+02
 20
-2.25557675E+02
 11
-2.11749969E+02
 21
-2.30557706E+02
  0
LINE
  8
0
 62
7
 10
-2.21434331E+02
 20
-2.16827716E+02
 11
-2.22519796E+02
 21
-2.17913182E+02
  0
LINE
  8
0
 62
7
 10
-2.32749969E+02
 20
-2.09557706E+02
 11
-2.32749969E+02
 21
-2.13675763E+02
  0
LINE
  8
0
 62
7
 10
-2.20020171E+02
 20
-2.18241897E+02
 11
-2.21105648E+02
 21
-2.19327374E+02
  0
LINE
  8
0
 62
7
 10
-2.12749969E+02
 20
-2.29557706E+02
 11
-2.16868011E+02
 21
-2.29557706E+02
  0
LINE
  8
0
 62
7
 10
-2.09249969E+02
 20
-2.08557736E+02
 11
-2.09249969E+02
 21
-2.30557706E+02
  0
LINE
  8
0
 62
7
 10
-2.55749969E+02
 20
-2.06057675E+02
 11
-2.11749969E+02
 21
-2.06057736E+02
  0
LINE
  8
0
 62
7
 10
-2.08749969E+02
 20
-2.08557675E+02
 11
-2.08749969E+02
 21
-2.30557706E+02
  0
LINE
  8
0
  6
CENTER
 62
2
 10
-2.15249908E+02
 20
-2.03551053E+02
 11
-2.15249908E+02
 21
-2.18472195E+02
  0
LINE
  8
0
 62
7
 10
-1.10250000E+02
 20
-2.30557706E+02
 11
-1.10250000E+02
 21
-2.16057706E+02
  0
LINE
  8
0
  6
CENTER
 62
2
 10
-1.47487213E+02
 20
-2.30557706E+02
 11
-1.07886088E+01
 21
-2.30557706E+02
  0
LINE
  8
0
 62
7
 10
-9.02499542E+01
 20
-7.75577056E+01
 11
-9.02499542E+01
 21
-1.13557706E+02
  0
LINE
  8
0
 62
7
 10
-8.82499542E+01
 20
-1.15557706E+02
 11
-6.42499542E+01
 21
-1.15557706E+02
  0
LINE
  8
0
 62
7
 10
-8.82499542E+01
 20
-7.55577056E+01
 11
-6.42499542E+01
 21
-7.55577056E+01
  0
LINE
  8
0
  6
CENTER
 62
2
 10
-7.54465942E+01
 20
-1.05557706E+02
 11
-6.38311005E+01
 21
-1.05557706E+02
  0
LINE
  8
0
 62
7
 10
-6.42499481E+01
 20
-1.20557574E+02
 11
-9.47586984E+01
 21
-1.20025038E+02
  0
LINE
  8
0
 62
7
 10
-6.42500219E+01
 20
-7.05576358E+01
 11
-9.47587418E+01
 21
-7.10901628E+01
  0
LINE
  8
0
 62
7
 10
-9.72499542E+01
 20
-8.00577056E+01
 11
-9.72499542E+01
 21
-1.11087125E+02
  0
LINE
  8
0
 62
7
 10
-1.05249954E+02
 20
-8.05576750E+01
 11
-1.05249954E+02
 21
-1.10557736E+02
  0
LINE
  8
0
 62
7
 10
-1.05008731E+02
 20
-8.02991560E+01
 11
-9.72491479E+01
 21
-8.00281866E+01
  0
LINE
  8
0
 62
7
 10
-9.52499542E+01
 20
-1.19525235E+02
 11
-9.52499542E+01
 21
-7.15901763E+01
  0
LINE
  8
0
 62
7
 10
-6.42499542E+01
 20
-1.20557706E+02
 11
-6.42499542E+01
 21
-9.40997780E+01
  0
LINE
  8
0
 62
7
 10
-9.67500000E+01
 20
-7.95576750E+01
 11
-9.52500000E+01
 21
-7.95576750E+01
  0
LINE
  8
0
 62
7
 10
-1.09750031E+02
 20
-8.05576445E+01
 11
-1.05241058E+02
 21
-8.05576445E+01
  0
LINE
  8
0
 62
7
 10
-1.10249954E+02
 20
-1.10057706E+02
 11
-1.10249954E+02
 21
-8.10577056E+01
  0
LINE
  8
0
 62
7
 10
-1.05008766E+02
 20
-1.10816065E+02
 11
-9.72491832E+01
 21
-1.11087037E+02
  0
LINE
  8
0
 62
7
 10
-9.67500000E+01
 20
-1.11557675E+02
 11
-9.52500000E+01
 21
-1.11557675E+02
  0
LINE
  8
0
 62
7
 10
-1.09750031E+02
 20
-1.10557706E+02
 11
-1.05241058E+02
 21
-1.10557706E+02
  0
LINE
  8
0
  6
CENTER
 62
2
 10
-6.97499847E+01
 20
-1.11477414E+02
 11
-6.97499847E+01
 21
-9.99527861E+01
  0
LINE
  8
0
  6
CENTER
 62
2
 10
-8.73667145E+01
 20
-9.15577666E+01
 11
-7.57499487E+01
 21
-9.15577666E+01
  0
LINE
  8
0
  6
CENTER
 62
2
 10
-7.72500000E+01
 20
-1.01573575E+02
 11
-7.72500000E+01
 21
-8.14135405E+01
  0
LINE
  8
0
  6
CENTER
 62
2
 10
-1.47883850E+02
 20
-9.55577056E+01
 11
-6.07499487E+01
 21
-9.55577056E+01
  0
LINE
  8
0
 62
7
 10
-4.12499487E+01
 20
-7.97076995E+01
 11
-1.63755779E+00
 21
-7.97076995E+01
  0
LINE
  8
0
  6
CENTER
 62
2
 10
-2.17499487E+01
 20
-9.55577056E+01
 11
-1.07885631E+01
 21
-9.55577056E+01
  0
LINE
  8
0
 62
7
 10
-6.42499542E+01
 20
-8.00997780E+01
 11
-6.42499542E+01
 21
-7.05577056E+01
  0
LINE
  8
0
  6
CENTER
 62
2
 10
-4.12499487E+01
 20
-7.70577056E+01
 11
-1.07583102E-01
 21
-7.70577056E+01
  0
LINE
  8
0
 62
2
 10
-2.77056216E+01
 20
-1.24858910E+02
 11
3.08668369E+00
 21
-7.15250732E+01
  0
LINE
  8
0
 62
7
 10
1.85725002E+02
 20
-2.14707699E+02
 11
2.32438782E+02
 21
-2.14707699E+02
  0
LINE
  8
0
 62
7
 10
1.89275693E+02
 20
-2.08557721E+02
 11
2.15938782E+02
 21
-2.08557721E+02
  0
LINE
  8
0
 62
7
 10
1.88784951E+02
 20
-2.09407712E+02
 11
2.32438782E+02
 21
-2.09407712E+02
  0
LINE
  8
0
  6
CENTER
 62
2
 10
1.87254976E+02
 20
-2.12057706E+02
 11
2.32438782E+02
 21
-2.12057706E+02
  0
LINE
  8
0
  6
CENTER
 62
2
 10
3.38675995E+02
 20
-2.30557706E+02
 11
1.76573996E+02
 21
-2.30557706E+02
  0
LINE
  8
0
 62
7
 10
3.01438782E+02
 20
-2.30557706E+02
 11
3.01438782E+02
 21
-2.16057706E+02
  0
LINE
  8
0
 62
7
 10
2.88438782E+02
 20
-2.15057706E+02
 11
2.88438782E+02
 21
-2.30557706E+02
  0
LINE
  8
0
 62
7
 10
2.96438782E+02
 20
-2.30557706E+02
 11
2.96438782E+02
 21
-2.15549100E+02
  0
LINE
  8
0
 62
7
 10
2.55438782E+02
 20
-2.05557706E+02
 11
2.55438782E+02
 21
-2.30557706E+02
  0
LINE
  8
0
 62
7
 10
2.86438782E+02
 20
-2.06343274E+02
 11
2.86438782E+02
 21
-2.30557706E+02
  0
LINE
  8
0
 62
7
 10
3.00938812E+02
 20
-2.15557675E+02
 11
2.96429840E+02
 21
-2.15557675E+02
  0
LINE
  8
0
 62
7
 10
2.96197509E+02
 20
-2.15299223E+02
 11
2.88437926E+02
 21
-2.15028252E+02
  0
LINE
  8
0
 62
7
 10
2.87938782E+02
 20
-2.14557706E+02
 11
2.86438782E+02
 21
-2.14557706E+02
  0
LINE
  8
0
 62
7
 10
2.81438782E+02
 20
-2.05557706E+02
 11
2.55438782E+02
 21
-2.05557706E+02
  0
LINE
  8
0
 62
7
 10
2.86438846E+02
 20
-2.06343280E+02
 11
2.55438822E+02
 21
-2.05531516E+02
  0
LINE
  8
0
 62
7
 10
2.81438782E+02
 20
-2.06212308E+02
 11
2.81438782E+02
 21
-2.05557706E+02
  0
LINE
  8
0
  6
CENTER
 62
2
 10
2.68438782E+02
 20
-2.03805340E+02
 11
2.68438782E+02
 21
-2.14985943E+02
  0
LINE
  8
0
 62
2
 10
3.35138763E+02
 20
-2.25257687E+02
 11
3.28438782E+02
 21
-2.25257687E+02
  0
LINE
  8
0
 62
7
 10
3.35438622E+02
 20
-2.25557771E+02
 11
3.34438664E+02
 21
-2.24557790E+02
  0
LINE
  8
0
 62
7
 10
3.34438843E+02
 20
-2.30557706E+02
 11
3.34438843E+02
 21
-2.24557706E+02
  0
LINE
  8
0
 62
7
 10
3.34438843E+02
 20
-2.24557706E+02
 11
3.28438782E+02
 21
-2.24557706E+02
  0
LINE
  8
0
 62
7
 10
3.14438782E+02
 20
-2.30557706E+02
 11
3.14438782E+02
 21
-2.24557706E+02
  0
LINE
  8
0
 62
7
 10
3.11438782E+02
 20
-2.30557706E+02
 11
3.11438782E+02
 21
-2.24557706E+02
  0
LINE
  8
0
 62
7
 10
3.08691284E+02
 20
-2.23557706E+02
 11
3.01438782E+02
 21
-2.23557706E+02
  0
LINE
  8
0
 62
7
 10
3.11438778E+02
 20
-2.24557712E+02
 11
3.08691276E+02
 21
-2.23557710E+02
  0
LINE
  8
0
 62
7
 10
3.35438782E+02
 20
-2.30557706E+02
 11
3.35438782E+02
 21
-2.25557706E+02
  0
LINE
  8
0
 62
7
 10
3.05669006E+02
 20
-2.30557706E+02
 11
3.01438782E+02
 21
-2.30557706E+02
  0
LINE
  8
0
 62
7
 10
3.14438782E+02
 20
-2.25257687E+02
 11
3.11438782E+02
 21
-2.25257687E+02
  0
ARC
  8
0
 62
7
 10
2.96188782E+02
 20
-2.15549100E+02
 40
2.50000000E-01
 50
3.59721787E-05
 51
8.79992642E+01
  0
ARC
  8
0
 62
7
 10
2.87938782E+02
 20
-2.15057706E+02
 40
5.00000000E-01
 50
3.59721787E-05
 51
9.00000179E+01
  0
ARC
  8
0
 62
7
 10
3.00938812E+02
 20
-2.16057706E+02
 40
5.00000000E-01
 50
3.59721787E-05
 51
9.00000179E+01
  0
POLYLINE
  8
0
 62
7
 66
1
  0
VERTEX
  8
0
 62
7
 10
3.05669006E+02
 20
-2.30557706E+02
  0
VERTEX
  8
0
 62
7
 10
3.05939921E+02
 20
-2.30543616E+02
  0
VERTEX
  8
0
 62
7
 10
3.06208655E+02
 20
-2.30501460E+02
  0
VERTEX
  8
0
 62
7
 10
3.06473043E+02
 20
-2.30431576E+02
  0
VERTEX
  8
0
 62
7
 10
3.06730958E+02
 20
-2.30334528E+02
  0
VERTEX
  8
0
 62
7
 10
3.06980323E+02
 20
-2.30211097E+02
  0
VERTEX
  8
0
 62
7
 10
3.07219130E+02
 20
-2.30062277E+02
  0
VERTEX
  8
0
 62
7
 10
3.07445456E+02
 20
-2.29889265E+02
  0
VERTEX
  8
0
 62
7
 10
3.07657480E+02
 20
-2.29693456E+02
  0
VERTEX
  8
0
 62
7
 10
3.07853493E+02
 20
-2.29476425E+02
  0
VERTEX
  8
0
 62
7
 10
3.08031918E+02
 20
-2.29239920E+02
  0
VERTEX
  8
0
 62
7
 10
3.08191318E+02
 20
-2.28985845E+02
  0
VERTEX
  8
0
 62
7
 10
3.08330410E+02
 20
-2.28716246E+02
  0
VERTEX
  8
0
 62
7
 10
3.08448074E+02
 20
-2.28433294E+02
  0
VERTEX
  8
0
 62
7
 10
3.08543363E+02
 20
-2.28139265E+02
  0
VERTEX
  8
0
 62
7
 10
3.08615509E+02
 20
-2.27836529E+02
  0
VERTEX
  8
0
 62
7
 10
3.08663931E+02
 20
-2.27527522E+02
  0
VERTEX
  8
0
 62
7
 10
3.08688241E+02
 20
-2.27214733E+02
  0
VERTEX
  8
0
 62
7
 10
3.08688241E+02
 20
-2.26900679E+02
  0
VERTEX
  8
0
 62
7
 10
3.08663931E+02
 20
-2.26587890E+02
  0
VERTEX
  8
0
 62
7
 10
3.08615509E+02
 20
-2.26278883E+02
  0
VERTEX
  8
0
 62
7
 10
3.08543363E+02
 20
-2.25976147E+02
  0
VERTEX
  8
0
 62
7
 10
3.08448074E+02
 20
-2.25682118E+02
  0
VERTEX
  8
0
 62
7
 10
3.08330410E+02
 20
-2.25399166E+02
  0
VERTEX
  8
0
 62
7
 10
3.08191318E+02
 20
-2.25129567E+02
  0
VERTEX
  8
0
 62
7
 10
3.08031918E+02
 20
-2.24875492E+02
  0
VERTEX
  8
0
 62
7
 10
3.07853493E+02
 20
-2.24638987E+02
  0
VERTEX
  8
0
 62
7
 10
3.07657480E+02
 20
-2.24421956E+02
  0
VERTEX
  8
0
 62
7
 10
3.07445456E+02
 20
-2.24226147E+02
  0
VERTEX
  8
0
 62
7
 10
3.07219130E+02
 20
-2.24053135E+02
  0
VERTEX
  8
0
 62
7
 10
3.06980323E+02
 20
-2.23904315E+02
  0
VERTEX
  8
0
 62
7
 10
3.06730958E+02
 20
-2.23780884E+02
  0
VERTEX
  8
0
 62
7
 10
3.06473043E+02
 20
-2.23683836E+02
  0
VERTEX
  8
0
 62
7
 10
3.06208655E+02
 20
-2.23613952E+02
  0
VERTEX
  8
0
 62
7
 10
3.05939921E+02
 20
-2.23571796E+02
  0
VERTEX
  8
0
 62
7
 10
3.05669006E+02
 20
-2.23557706E+02
  0
SEQEND
  8
0
  0
LINE
  8
0
 62
2
 10
3.21438782E+02
 20
-2.25257687E+02
 11
3.14438782E+02
 21
-2.25257687E+02
  0
LINE
  8
0
 62
7
 10
3.21438782E+02
 20
-2.24557706E+02
 11
3.14438782E+02
 21
-2.24557706E+02
  0
LINE
  8
0
 62
4
 10
3.28438782E+02
 20
-2.30557706E+02
 11
3.28438782E+02
 21
-2.21057706E+02
  0
LINE
  8
0
 62
4
 10
3.21438782E+02
 20
-2.30557706E+02
 11
3.21438782E+02
 21
-2.21057706E+02
  0
LINE
  8
0
 62
4
 10
3.27590276E+02
 20
-2.19588050E+02
 11
3.22287288E+02
 21
-2.19588050E+02
  0
LINE
  8
0
 62
4
 10
3.21438782E+02
 20
-2.21057706E+02
 11
3.22287288E+02
 21
-2.19588050E+02
  0
LINE
  8
0
 62
4
 10
3.28438782E+02
 20
-2.21057706E+02
 11
3.27590276E+02
 21
-2.19588050E+02
  0
LINE
  8
0
 62
4
 10
3.27590276E+02
 20
-2.25072878E+02
 11
3.22287288E+02
 21
-2.25072878E+02
  0
ARC
  8
0
 62
4
 10
3.23582719E+02
 20
-2.22330464E+02
 40
4.85606317E+00
 50
3.25615752E+02
 51
3.43842477E+01
  0
ARC
  8
0
 62
4
 10
3.10287288E+02
 20
-2.30557706E+02
 40
1.81514940E+01
 50
0.00000000E+00
 51
1.75879539E+01
  0
ARC
  8
0
 62
4
 10
3.26294845E+02
 20
-2.22330464E+02
 40
4.85606317E+00
 50
1.45615752E+02
 51
2.14384248E+02
  0
LINE
  8
0
 62
7
 10
2.48938782E+02
 20
-2.08557721E+02
 11
2.55438782E+02
 21
-2.08557721E+02
  0
LINE
  8
0
 62
7
 10
2.47438782E+02
 20
-2.09407712E+02
 11
2.55438751E+02
 21
-2.09407712E+02
  0
LINE
  8
0
 62
7
 10
2.47438782E+02
 20
-2.14707699E+02
 11
2.55438782E+02
 21
-2.14707699E+02
  0
LINE
  8
0
  6
CENTER
 62
2
 10
2.47438782E+02
 20
-2.12057706E+02
 11
2.88542206E+02
 21
-2.12057706E+02
  0
TEXT
  8
0
 10
-5.24502888E+01
 20
2.49478397E+02
 40
6.30000019E+00
  1
STRETCH LINE A
 41
1.09375016E+00
  7
MONOTXT
  0
LINE
  8
0
 62
7
 10
2.79799927E+02
 20
-2.56750000E+02
 11
3.99799805E+02
 21
-2.56750000E+02
  0
LINE
  8
0
 62
7
 10
2.79799927E+02
 20
-2.56750000E+02
 11
2.79799927E+02
 21
-2.76750000E+02
  0
TEXT
  8
0
 62
7
 10
2.87585240E+02
 20
-2.71250000E+02
 40
9.00000000E+00
  1
KOGANEI CORP.
 41
1.04838710E+00
  7
MONOTXT
  0
TEXT
  8
0
 62
7
 10
3.15499641E+02
 20
2.63100000E+02
 40
6.30000019E+00
  1
Ver. 1.0
 41
1.08108124E+00
  7
MONOTXT
  0
LINE
  8
0
 62
7
 10
2.79799927E+02
 20
2.56250000E+02
 11
3.99799805E+02
 21
2.56250000E+02
  0
LINE
  8
0
 62
7
 10
2.79799927E+02
 20
2.76250000E+02
 11
2.79799927E+02
 21
2.56250000E+02
  0
TEXT
  8
0
 62
7
 10
-3.85600562E+02
 20
2.38100000E+02
 40
6.30000019E+00
  1
MODEL:DDADL40*75
 41
1.00000015E+00
  7
MONOTXT
  0
LINE
  8
0
 62
7
 10
-3.99250000E+02
 20
2.56250000E+02
 11
-2.79250000E+02
 21
2.56250000E+02
  0
LINE
  8
0
 62
7
 10
-2.79250000E+02
 20
2.76250000E+02
 11
-2.79250000E+02
 21
2.56250000E+02
  0
TEXT
  8
0
 62
7
 10
-3.91900291E+02
 20
2.63100000E+02
 40
6.30000019E+00
  1
NEW DYNA CYLINDER
 41
1.07594953E+00
  7
MONOTXT
  0
LINE
  8
0
 62
7
 10
-3.99250000E+02
 20
-2.76750000E+02
 11
3.99799805E+02
 21
-2.76750000E+02
  0
LINE
  8
0
 62
7
 10
-3.99250000E+02
 20
2.76250000E+02
 11
3.99799805E+02
 21
2.76250000E+02
  0
LINE
  8
0
 62
7
 10
-3.99250000E+02
 20
2.76250000E+02
 11
-3.99250000E+02
 21
-2.76750000E+02
  0
LINE
  8
0
 62
7
 10
3.99799805E+02
 20
2.76250000E+02
 11
3.99799805E+02
 21
-2.76750000E+02
  0
ENDSEC
  0
EOF
