  0
SECTION
  2
HEADER
  9
$ACADVER
  1
AC1003
  9
$EXTMIN
 10
-3.99250000E+02
 20
-2.76750000E+02
  9
$EXTMAX
 10
3.99799805E+02
 20
2.76250000E+02
  9
$LIMMIN
 10
-3.99251000E+02
 20
-2.76751000E+02
  9
$LIMMAX
 10
3.99800805E+02
 20
2.76251000E+02
  9
$SNAPUNIT
 10
1
 20
1
  9
$SNAPBASE
 10
0
 20
0
  9
$GRIDMODE
 70
0
  9
$GRIDUNIT
 10
0
 20
0
  9
$LTSCALE
 40
1.33174967E+01
  9
$TEXTSIZE
 40
3.2
  9
$DIMTAD
 70
0
  9
$LUNITS
 70
2
  9
$LUPREC
 70
4
  9
$FILLETRAD
 40
0
  9
$AUNITS
 70
0
  9
$AUPREC
 70
0
  0
ENDSEC
  0
SECTION
  2
TABLES
  0
TABLE
  2
LTYPE
 70
2
  0
LTYPE
  2
CONTINUOUS
 70
64
  3
Solid-Line
 72
65
 73
0
 40
0
  0
LTYPE
  2
DASHED
 70
64
  3
DASHED
 72
65
 73
2
 40
.75
 49
.5
 49
-.25
  0
LTYPE
  2
HIDDEN
 70
64
  3
HIDDEN
 72
65
 73
2
 40
.375
 49
.25
 49
-.125
  0
LTYPE
  2
CENTER
 70
64
  3
CENTER
 72
65
 73
4
 40
2
 49
1.25
 49
-.25
 49
.25
 49
-.25
  0
LTYPE
  2
PHANTOM
 70
64
  3
PHANTOM
 72
65
 73
6
 40
2.5
 49
1.25
 49
-.25
 49
.25
 49
-.25
 49
.25
 49
-.25
  0
ENDTAB
  0
TABLE
  2
LAYER
 70
1
  0
LAYER
  2
1
 70
0
 62
7
  6
CONTINUOUS
 0
ENDTAB
  0
TABLE
  2
STYLE
 70
2
  0
STYLE
  2
MONOTXT
 70
0
 40
0
 41
1
 50
0
 71
0
 42
.2
  3
monotxt
  0
STYLE
  2
BIGFONT
 70
0
 40
0
 41
1
 50
0
 71
0
 42
.2
  3
txt
  4
bigfont
  0
ENDTAB
  0
ENDSEC
  0
SECTION
  2
ENTITIES
  0
LINE
  8
0
  6
PHANTOM
 10
-2.92500000E+01
 20
1.44340553E+02
 11
-2.92500000E+01
 21
4.21367846E+01
  0
LINE
  8
0
  6
PHANTOM
 10
9.87499847E+01
 20
1.45261512E+02
 11
9.87499847E+01
 21
4.21367846E+01
  0
LINE
  8
0
  6
CENTER
 62
2
 10
-1.76023193E+02
 20
8.33694647E+01
 11
1.65890081E+02
 21
8.33694647E+01
  0
LINE
  8
0
 62
7
 10
-1.30250000E+02
 20
9.98694342E+01
 11
-1.30250000E+02
 21
6.68694952E+01
  0
LINE
  8
0
 62
7
 10
-1.16750000E+02
 20
6.43694647E+01
 11
-1.15250000E+02
 21
6.43694647E+01
  0
LINE
  8
0
 62
7
 10
-1.29750000E+02
 20
6.63694647E+01
 11
-1.25241455E+02
 21
6.63694647E+01
  0
LINE
  8
0
 62
7
 10
-1.25250000E+02
 20
6.63694647E+01
 11
-1.25250000E+02
 21
6.63609198E+01
  0
LINE
  8
0
 62
7
 10
-1.25008742E+02
 20
6.61109856E+01
 11
-1.17250044E+02
 21
6.58400459E+01
  0
LINE
  8
0
 62
7
 10
-1.17250000E+02
 20
1.01869465E+02
 11
-1.17250000E+02
 21
6.48694647E+01
  0
LINE
  8
0
 62
7
 10
-1.15250000E+02
 20
1.13583973E+02
 11
-1.15250000E+02
 21
5.31550482E+01
  0
LINE
  8
0
 62
7
 10
-8.42500000E+01
 20
1.14369465E+02
 11
-8.42500000E+01
 21
5.23432043E+01
  0
LINE
  8
0
 62
7
 10
-1.10250000E+02
 20
5.23694647E+01
 11
-8.42500000E+01
 21
5.23694647E+01
  0
LINE
  8
0
 62
7
 10
-1.15250023E+02
 20
5.31549702E+01
 11
-8.42499991E+01
 21
5.23432060E+01
  0
LINE
  8
0
 62
7
 10
-1.10250000E+02
 20
5.30240667E+01
 11
-1.10250000E+02
 21
5.23694647E+01
  0
LINE
  8
0
 62
7
 10
-1.25250000E+02
 20
1.00369465E+02
 11
-1.25250000E+02
 21
6.63694647E+01
  0
LINE
  8
0
 62
7
 10
5.42500000E+01
 20
6.43694647E+01
 11
5.27500000E+01
 21
6.43694647E+01
  0
LINE
  8
0
 62
7
 10
5.47500000E+01
 20
1.01869465E+02
 11
5.47500000E+01
 21
6.48694647E+01
  0
LINE
  8
0
 62
7
 10
5.27500000E+01
 20
1.13583973E+02
 11
5.27500000E+01
 21
5.31550482E+01
  0
LINE
  8
0
 62
7
 10
2.17500000E+01
 20
1.14369465E+02
 11
2.17500000E+01
 21
5.23432043E+01
  0
LINE
  8
0
 62
7
 10
4.77500000E+01
 20
5.23694647E+01
 11
2.17500000E+01
 21
5.23694647E+01
  0
LINE
  8
0
 62
7
 10
5.27500211E+01
 20
5.31549703E+01
 11
2.17500196E+01
 21
5.23432067E+01
  0
LINE
  8
0
 62
7
 10
4.77500000E+01
 20
5.30240667E+01
 11
4.77500000E+01
 21
5.23694647E+01
  0
LINE
  8
0
  6
CENTER
 62
2
 10
5.49769897E+01
 20
5.98694799E+01
 11
-1.17353455E+02
 21
5.98694799E+01
  0
LINE
  8
0
 62
7
 10
2.17500000E+01
 20
6.25194738E+01
 11
-8.42500000E+01
 21
6.25194738E+01
  0
LINE
  8
0
 62
7
 10
2.17500000E+01
 20
5.72194860E+01
 11
-8.42500000E+01
 21
5.72194860E+01
  0
LINE
  8
0
 62
7
 10
2.17500000E+01
 20
5.63694876E+01
 11
-8.42500000E+01
 21
5.63694876E+01
  0
LINE
  8
0
  6
CENTER
 62
2
 10
3.47499237E+01
 20
1.16554523E+02
 11
3.47499237E+01
 21
1.04669254E+02
  0
LINE
  8
0
 62
7
 10
2.17500000E+01
 20
1.04219456E+02
 11
2.50000000E-01
 21
1.04219456E+02
  0
LINE
  8
0
  6
CENTER
 62
2
 10
5.49769897E+01
 20
1.06869449E+02
 11
-1.17353455E+02
 21
1.06869449E+02
  0
LINE
  8
0
 62
7
 10
2.17500000E+01
 20
1.09519443E+02
 11
1.52500000E+01
 21
1.09519443E+02
  0
LINE
  8
0
 62
7
 10
-1.16750000E+02
 20
1.02369465E+02
 11
-1.15250000E+02
 21
1.02369465E+02
  0
LINE
  8
0
 62
7
 10
-1.29750000E+02
 20
1.00369465E+02
 11
-1.25241455E+02
 21
1.00369465E+02
  0
LINE
  8
0
 62
7
 10
-1.25250000E+02
 20
1.00369465E+02
 11
-1.25250000E+02
 21
1.00378010E+02
  0
LINE
  8
0
 62
7
 10
-1.25008737E+02
 20
1.00627962E+02
 11
-1.17250023E+02
 21
1.00898903E+02
  0
LINE
  8
0
 62
7
 10
-1.10250000E+02
 20
1.14369465E+02
 11
-8.42500000E+01
 21
1.14369465E+02
  0
LINE
  8
0
 62
7
 10
-1.15250039E+02
 20
1.13583969E+02
 11
-8.42499991E+01
 21
1.14395734E+02
  0
LINE
  8
0
 62
7
 10
-1.10250000E+02
 20
1.13714863E+02
 11
-1.10250000E+02
 21
1.14369465E+02
  0
LINE
  8
0
 62
7
 10
5.42500000E+01
 20
1.02369465E+02
 11
5.27500000E+01
 21
1.02369465E+02
  0
LINE
  8
0
 62
7
 10
2.17500000E+01
 20
1.10369434E+02
 11
1.52500000E+01
 21
1.10369434E+02
  0
LINE
  8
0
 62
7
 10
4.77500000E+01
 20
1.14369465E+02
 11
2.17500000E+01
 21
1.14369465E+02
  0
LINE
  8
0
 62
7
 10
5.27500215E+01
 20
1.13583985E+02
 11
2.17500200E+01
 21
1.14395748E+02
  0
LINE
  8
0
 62
7
 10
4.77500000E+01
 20
1.13714863E+02
 11
4.77500000E+01
 21
1.14369465E+02
  0
LINE
  8
0
  6
CENTER
 62
2
 10
-9.72501678E+01
 20
1.16554523E+02
 11
-9.72501678E+01
 21
1.04669254E+02
  0
LINE
  8
0
 62
7
 10
-1.40249969E+02
 20
9.23694647E+01
 11
-1.40249969E+02
 21
7.43694723E+01
  0
LINE
  8
0
 62
7
 10
-1.38876205E+02
 20
7.38694647E+01
 11
-1.30250000E+02
 21
7.38694647E+01
  0
LINE
  8
0
 62
7
 10
-1.38876175E+02
 20
9.28694647E+01
 11
-1.30250000E+02
 21
9.28694647E+01
  0
LINE
  8
0
 62
7
 10
-1.43249969E+02
 20
7.43694723E+01
 11
-1.43249969E+02
 21
9.23694647E+01
  0
LINE
  8
0
 62
7
 10
-1.72249969E+02
 20
7.58694952E+01
 11
-1.72249969E+02
 21
9.08693121E+01
  0
LINE
  8
0
 62
7
 10
-1.70749969E+02
 20
7.43694723E+01
 11
-1.70749969E+02
 21
9.23694647E+01
  0
LINE
  8
0
 62
7
 10
-1.34892319E+02
 20
8.33694647E+01
 11
-1.30250000E+02
 21
8.33694647E+01
  0
LINE
  8
0
 62
7
 10
-1.40249954E+02
 20
7.43694688E+01
 11
-1.38876175E+02
 21
7.38694544E+01
  0
LINE
  8
0
 62
7
 10
-1.70749908E+02
 20
9.23694647E+01
 11
-1.63249969E+02
 21
9.23694647E+01
  0
LINE
  8
0
 62
2
 10
-1.71569916E+02
 20
9.15494573E+01
 11
-1.63249969E+02
 21
9.15494573E+01
  0
LINE
  8
0
 62
7
 10
-1.72249915E+02
 20
9.08693340E+01
 11
-1.70749869E+02
 21
9.23693343E+01
  0
LINE
  8
0
 62
7
 10
-1.70749908E+02
 20
7.43694723E+01
 11
-1.63249969E+02
 21
7.43694723E+01
  0
LINE
  8
0
 62
2
 10
-1.71569916E+02
 20
7.51894644E+01
 11
-1.63249969E+02
 21
7.51894644E+01
  0
LINE
  8
0
 62
7
 10
-1.72250000E+02
 20
7.58695437E+01
 11
-1.70749965E+02
 21
7.43695542E+01
  0
LINE
  8
0
 62
7
 10
-1.40249947E+02
 20
9.23694285E+01
 11
-1.38876126E+02
 21
9.28694587E+01
  0
LINE
  8
0
 62
7
 10
-1.43249969E+02
 20
9.15494573E+01
 11
-1.40249969E+02
 21
9.15494573E+01
  0
LINE
  8
0
 62
7
 10
-1.43249969E+02
 20
7.51894644E+01
 11
-1.40249969E+02
 21
7.51894644E+01
  0
LINE
  8
0
 62
7
 10
6.77500000E+01
 20
9.98694342E+01
 11
6.77500000E+01
 21
6.68694952E+01
  0
LINE
  8
0
 62
7
 10
6.72500000E+01
 20
6.63694647E+01
 11
6.27414551E+01
 21
6.63694647E+01
  0
LINE
  8
0
 62
7
 10
6.27500000E+01
 20
6.63694647E+01
 11
6.27500000E+01
 21
6.63609198E+01
  0
LINE
  8
0
 62
7
 10
6.25087356E+01
 20
6.61109882E+01
 11
5.47500370E+01
 21
6.58400485E+01
  0
LINE
  8
0
 62
7
 10
6.27500000E+01
 20
1.00369465E+02
 11
6.27500000E+01
 21
6.63694647E+01
  0
LINE
  8
0
 62
7
 10
1.24750076E+02
 20
9.33694494E+01
 11
6.77500458E+01
 21
9.33694494E+01
  0
LINE
  8
0
 62
7
 10
6.72500000E+01
 20
1.00369465E+02
 11
6.27414551E+01
 21
1.00369465E+02
  0
LINE
  8
0
 62
7
 10
6.27500000E+01
 20
1.00369465E+02
 11
6.27500000E+01
 21
1.00378010E+02
  0
LINE
  8
0
 62
7
 10
6.25087305E+01
 20
1.00627960E+02
 11
5.47500167E+01
 21
1.00898900E+02
  0
LINE
  8
0
 62
2
 10
1.26783674E+02
 20
7.95559931E+01
 11
1.20749990E+02
 21
8.86373145E+01
  0
LINE
  8
0
 62
7
 10
1.27749969E+02
 20
9.23694647E+01
 11
1.27749969E+02
 21
7.43694723E+01
  0
LINE
  8
0
 62
7
 10
1.24750076E+02
 20
8.86373175E+01
 11
1.20750015E+02
 21
8.86373175E+01
  0
LINE
  8
0
 62
2
 10
1.26783658E+02
 20
8.71829515E+01
 11
1.20750009E+02
 21
7.81016810E+01
  0
LINE
  8
0
 62
7
 10
1.20750015E+02
 20
7.81016577E+01
 11
1.20750015E+02
 21
8.33694647E+01
  0
LINE
  8
0
 62
7
 10
1.24750076E+02
 20
7.81016577E+01
 11
1.20750015E+02
 21
7.81016577E+01
  0
LINE
  8
0
 62
7
 10
1.24749985E+02
 20
7.33694799E+01
 11
1.24749985E+02
 21
7.81016577E+01
  0
LINE
  8
0
 62
7
 10
1.30749969E+02
 20
7.43694723E+01
 11
1.30749969E+02
 21
9.23694647E+01
  0
LINE
  8
0
 62
7
 10
1.59749969E+02
 20
7.58694952E+01
 11
1.59749969E+02
 21
9.08693121E+01
  0
LINE
  8
0
 62
7
 10
1.58249969E+02
 20
7.43694723E+01
 11
1.58249969E+02
 21
9.23694647E+01
  0
LINE
  8
0
 62
7
 10
1.24750076E+02
 20
7.33694799E+01
 11
6.77500458E+01
 21
7.33694799E+01
  0
LINE
  8
0
 62
7
 10
1.24749985E+02
 20
9.33694952E+01
 11
1.24749985E+02
 21
8.86373175E+01
  0
LINE
  8
0
 62
7
 10
1.20750015E+02
 20
8.86373175E+01
 11
1.20750015E+02
 21
8.33694647E+01
  0
LINE
  8
0
 62
7
 10
1.58249908E+02
 20
9.23694647E+01
 11
1.50749969E+02
 21
9.23694647E+01
  0
LINE
  8
0
 62
2
 10
1.59069916E+02
 20
9.15494573E+01
 11
1.50749969E+02
 21
9.15494573E+01
  0
LINE
  8
0
 62
7
 10
1.59749924E+02
 20
9.08693343E+01
 11
1.58249878E+02
 21
9.23693346E+01
  0
LINE
  8
0
 62
7
 10
1.30749969E+02
 20
9.15494573E+01
 11
1.27749969E+02
 21
9.15494573E+01
  0
LINE
  8
0
 62
7
 10
1.30749969E+02
 20
7.51894644E+01
 11
1.27749969E+02
 21
7.51894644E+01
  0
LINE
  8
0
 62
7
 10
1.58249908E+02
 20
7.43694723E+01
 11
1.50749969E+02
 21
7.43694723E+01
  0
LINE
  8
0
 62
2
 10
1.59069916E+02
 20
7.51894644E+01
 11
1.50749969E+02
 21
7.51894644E+01
  0
LINE
  8
0
 62
7
 10
1.59750009E+02
 20
7.58695434E+01
 11
1.58249974E+02
 21
7.43695539E+01
  0
LINE
  8
0
 62
7
 10
1.27749978E+02
 20
9.23694607E+01
 11
1.24749990E+02
 21
9.33694465E+01
  0
LINE
  8
0
 62
7
 10
1.27749961E+02
 20
8.64919059E+01
 11
1.24749969E+02
 21
8.86373121E+01
  0
LINE
  8
0
 62
7
 10
1.27749968E+02
 20
8.02470115E+01
 11
1.24749991E+02
 21
7.81016620E+01
  0
LINE
  8
0
 62
7
 10
1.27749974E+02
 20
7.43694786E+01
 11
1.24749988E+02
 21
7.33694858E+01
  0
ARC
  8
0
 62
7
 10
-1.29750000E+02
 20
6.68694952E+01
 40
5.00000000E-01
 50
1.79999981E+02
 51
2.69999963E+02
  0
ARC
  8
0
 62
7
 10
-1.25000000E+02
 20
6.63609198E+01
 40
2.50000000E-01
 50
1.79999981E+02
 51
2.68001136E+02
  0
ARC
  8
0
 62
7
 10
-1.16750000E+02
 20
6.48694647E+01
 40
5.00000000E-01
 50
1.79999981E+02
 51
2.69999963E+02
  0
ARC
  8
0
 62
7
 10
5.42500000E+01
 20
6.48694647E+01
 40
5.00000000E-01
 50
2.70000073E+02
 51
5.46415133E-05
  0
ARC
  8
0
 62
7
 10
5.42500000E+01
 20
1.01869465E+02
 40
5.00000000E-01
 50
5.46415133E-05
 51
9.00000369E+01
  0
ARC
  8
0
 62
7
 10
-1.16750000E+02
 20
1.01869465E+02
 40
5.00000000E-01
 50
8.99999818E+01
 51
1.79999964E+02
  0
ARC
  8
0
 62
7
 10
-1.25000000E+02
 20
1.00378010E+02
 40
2.50000000E-01
 50
9.19988230E+01
 51
1.79999977E+02
  0
ARC
  8
0
 62
7
 10
-1.29750000E+02
 20
9.98694342E+01
 40
5.00000000E-01
 50
8.99999818E+01
 51
1.79999964E+02
  0
ARC
  8
0
 62
7
 10
6.72500000E+01
 20
6.68694952E+01
 40
5.00000000E-01
 50
2.70000038E+02
 51
1.86693353E-05
  0
ARC
  8
0
 62
7
 10
6.25000000E+01
 20
6.63609198E+01
 40
2.50000000E-01
 50
2.71998866E+02
 51
1.86693353E-05
  0
ARC
  8
0
 62
7
 10
6.25000000E+01
 20
1.00378010E+02
 40
2.50000000E-01
 50
2.23117997E-05
 51
8.80011750E+01
  0
ARC
  8
0
 62
7
 10
1.29249969E+02
 20
8.33694647E+01
 40
9.99998474E+00
 50
1.48211649E+02
 51
1.80000005E+02
  0
ARC
  8
0
 62
7
 10
1.29249969E+02
 20
8.33694647E+01
 40
9.99998474E+00
 50
1.79999991E+02
 51
2.11788347E+02
  0
ARC
  8
0
 62
7
 10
6.72500000E+01
 20
9.98694342E+01
 40
5.00000000E-01
 50
3.59721781E-05
 51
9.00000162E+01
  0
POLYLINE
  8
0
 62
7
 66
1
  0
VERTEX
  8
0
 62
7
 10
-1.34892319E+02
 20
9.28694647E+01
  0
VERTEX
  8
0
 62
7
 10
-1.35249429E+02
 20
9.28503426E+01
  0
VERTEX
  8
0
 62
7
 10
-1.35603664E+02
 20
9.27931302E+01
  0
VERTEX
  8
0
 62
7
 10
-1.35952172E+02
 20
9.26982883E+01
  0
VERTEX
  8
0
 62
7
 10
-1.36292146E+02
 20
9.25665803E+01
  0
VERTEX
  8
0
 62
7
 10
-1.36620849E+02
 20
9.23990668E+01
  0
VERTEX
  8
0
 62
7
 10
-1.36935636E+02
 20
9.21970965E+01
  0
VERTEX
  8
0
 62
7
 10
-1.37233971E+02
 20
9.19622954E+01
  0
VERTEX
  8
0
 62
7
 10
-1.37513452E+02
 20
9.16965542E+01
  0
VERTEX
  8
0
 62
7
 10
-1.37771830E+02
 20
9.14020123E+01
  0
VERTEX
  8
0
 62
7
 10
-1.38007023E+02
 20
9.10810413E+01
  0
VERTEX
  8
0
 62
7
 10
-1.38217139E+02
 20
9.07362254E+01
  0
VERTEX
  8
0
 62
7
 10
-1.38400485E+02
 20
9.03703408E+01
  0
VERTEX
  8
0
 62
7
 10
-1.38555585E+02
 20
8.99863336E+01
  0
VERTEX
  8
0
 62
7
 10
-1.38681191E+02
 20
8.95872954E+01
  0
VERTEX
  8
0
 62
7
 10
-1.38776292E+02
 20
8.91764391E+01
  0
VERTEX
  8
0
 62
7
 10
-1.38840120E+02
 20
8.87570727E+01
  0
VERTEX
  8
0
 62
7
 10
-1.38872164E+02
 20
8.83325726E+01
  0
VERTEX
  8
0
 62
7
 10
-1.38872164E+02
 20
8.79063568E+01
  0
VERTEX
  8
0
 62
7
 10
-1.38840120E+02
 20
8.74818567E+01
  0
VERTEX
  8
0
 62
7
 10
-1.38776292E+02
 20
8.70624903E+01
  0
VERTEX
  8
0
 62
7
 10
-1.38681191E+02
 20
8.66516340E+01
  0
VERTEX
  8
0
 62
7
 10
-1.38555585E+02
 20
8.62525958E+01
  0
VERTEX
  8
0
 62
7
 10
-1.38400485E+02
 20
8.58685886E+01
  0
VERTEX
  8
0
 62
7
 10
-1.38217139E+02
 20
8.55027040E+01
  0
VERTEX
  8
0
 62
7
 10
-1.38007023E+02
 20
8.51578881E+01
  0
VERTEX
  8
0
 62
7
 10
-1.37771830E+02
 20
8.48369171E+01
  0
VERTEX
  8
0
 62
7
 10
-1.37513452E+02
 20
8.45423752E+01
  0
VERTEX
  8
0
 62
7
 10
-1.37233971E+02
 20
8.42766340E+01
  0
VERTEX
  8
0
 62
7
 10
-1.36935636E+02
 20
8.40418329E+01
  0
VERTEX
  8
0
 62
7
 10
-1.36620849E+02
 20
8.38398626E+01
  0
VERTEX
  8
0
 62
7
 10
-1.36292146E+02
 20
8.36723491E+01
  0
VERTEX
  8
0
 62
7
 10
-1.35952172E+02
 20
8.35406411E+01
  0
VERTEX
  8
0
 62
7
 10
-1.35603664E+02
 20
8.34457992E+01
  0
VERTEX
  8
0
 62
7
 10
-1.35249429E+02
 20
8.33885868E+01
  0
VERTEX
  8
0
 62
7
 10
-1.34892319E+02
 20
8.33694647E+01
  0
SEQEND
  8
0
  0
POLYLINE
  8
0
 62
7
 66
1
  0
VERTEX
  8
0
 62
7
 10
-1.34892319E+02
 20
8.33694647E+01
  0
VERTEX
  8
0
 62
7
 10
-1.35249429E+02
 20
8.33503426E+01
  0
VERTEX
  8
0
 62
7
 10
-1.35603664E+02
 20
8.32931302E+01
  0
VERTEX
  8
0
 62
7
 10
-1.35952172E+02
 20
8.31982883E+01
  0
VERTEX
  8
0
 62
7
 10
-1.36292146E+02
 20
8.30665803E+01
  0
VERTEX
  8
0
 62
7
 10
-1.36620849E+02
 20
8.28990668E+01
  0
VERTEX
  8
0
 62
7
 10
-1.36935636E+02
 20
8.26970965E+01
  0
VERTEX
  8
0
 62
7
 10
-1.37233971E+02
 20
8.24622954E+01
  0
VERTEX
  8
0
 62
7
 10
-1.37513452E+02
 20
8.21965542E+01
  0
VERTEX
  8
0
 62
7
 10
-1.37771830E+02
 20
8.19020123E+01
  0
VERTEX
  8
0
 62
7
 10
-1.38007023E+02
 20
8.15810413E+01
  0
VERTEX
  8
0
 62
7
 10
-1.38217139E+02
 20
8.12362254E+01
  0
VERTEX
  8
0
 62
7
 10
-1.38400485E+02
 20
8.08703409E+01
  0
VERTEX
  8
0
 62
7
 10
-1.38555585E+02
 20
8.04863336E+01
  0
VERTEX
  8
0
 62
7
 10
-1.38681191E+02
 20
8.00872954E+01
  0
VERTEX
  8
0
 62
7
 10
-1.38776292E+02
 20
7.96764392E+01
  0
VERTEX
  8
0
 62
7
 10
-1.38840120E+02
 20
7.92570727E+01
  0
VERTEX
  8
0
 62
7
 10
-1.38872164E+02
 20
7.88325727E+01
  0
VERTEX
  8
0
 62
7
 10
-1.38872164E+02
 20
7.84063568E+01
  0
VERTEX
  8
0
 62
7
 10
-1.38840120E+02
 20
7.79818567E+01
  0
VERTEX
  8
0
 62
7
 10
-1.38776292E+02
 20
7.75624903E+01
  0
VERTEX
  8
0
 62
7
 10
-1.38681191E+02
 20
7.71516340E+01
  0
VERTEX
  8
0
 62
7
 10
-1.38555585E+02
 20
7.67525958E+01
  0
VERTEX
  8
0
 62
7
 10
-1.38400485E+02
 20
7.63685886E+01
  0
VERTEX
  8
0
 62
7
 10
-1.38217139E+02
 20
7.60027041E+01
  0
VERTEX
  8
0
 62
7
 10
-1.38007023E+02
 20
7.56578882E+01
  0
VERTEX
  8
0
 62
7
 10
-1.37771830E+02
 20
7.53369171E+01
  0
VERTEX
  8
0
 62
7
 10
-1.37513452E+02
 20
7.50423753E+01
  0
VERTEX
  8
0
 62
7
 10
-1.37233971E+02
 20
7.47766340E+01
  0
VERTEX
  8
0
 62
7
 10
-1.36935636E+02
 20
7.45418329E+01
  0
VERTEX
  8
0
 62
7
 10
-1.36620849E+02
 20
7.43398626E+01
  0
VERTEX
  8
0
 62
7
 10
-1.36292146E+02
 20
7.41723491E+01
  0
VERTEX
  8
0
 62
7
 10
-1.35952172E+02
 20
7.40406411E+01
  0
VERTEX
  8
0
 62
7
 10
-1.35603664E+02
 20
7.39457992E+01
  0
VERTEX
  8
0
 62
7
 10
-1.35249429E+02
 20
7.38885868E+01
  0
VERTEX
  8
0
 62
7
 10
-1.34892319E+02
 20
7.38694647E+01
  0
SEQEND
  8
0
  0
LINE
  8
0
 62
7
 10
-1.52249969E+02
 20
9.23694647E+01
 11
-1.43249969E+02
 21
9.23694647E+01
  0
LINE
  8
0
 62
2
 10
-1.52249969E+02
 20
9.15494573E+01
 11
-1.43249969E+02
 21
9.15494573E+01
  0
LINE
  8
0
 62
7
 10
-1.52249969E+02
 20
7.43694723E+01
 11
-1.43249969E+02
 21
7.43694723E+01
  0
LINE
  8
0
 62
2
 10
-1.52249969E+02
 20
7.51894644E+01
 11
-1.43249969E+02
 21
7.51894644E+01
  0
LINE
  8
0
 62
4
 10
1.40955741E+02
 20
6.77810074E+01
 11
1.49544198E+02
 21
6.77810074E+01
  0
LINE
  8
0
 62
4
 10
1.40955741E+02
 20
7.55752360E+01
 11
1.49544198E+02
 21
7.55752360E+01
  0
LINE
  8
0
 62
4
 10
1.50749969E+02
 20
6.98694647E+01
 11
1.49544198E+02
 21
6.77810074E+01
  0
LINE
  8
0
 62
4
 10
1.39749969E+02
 20
6.98694647E+01
 11
1.40955741E+02
 21
6.77810074E+01
  0
ARC
  8
0
 62
4
 10
1.46650691E+02
 20
7.16781217E+01
 40
6.90072132E+00
 50
1.45615752E+02
 51
2.14384248E+02
  0
ARC
  8
0
 62
4
 10
1.43849248E+02
 20
7.16781217E+01
 40
6.90072132E+00
 50
3.25615752E+02
 51
3.43842480E+01
  0
LINE
  8
0
 62
4
 10
1.40955741E+02
 20
9.89579219E+01
 11
1.49544198E+02
 21
9.89579219E+01
  0
LINE
  8
0
 62
4
 10
1.40955741E+02
 20
9.11636933E+01
 11
1.49544198E+02
 21
9.11636933E+01
  0
LINE
  8
0
 62
4
 10
1.40955741E+02
 20
9.89579219E+01
 11
1.39749969E+02
 21
9.68694647E+01
  0
LINE
  8
0
 62
4
 10
1.49544198E+02
 20
9.89579219E+01
 11
1.50749969E+02
 21
9.68694647E+01
  0
ARC
  8
0
 62
4
 10
1.46650691E+02
 20
9.50608076E+01
 40
6.90072132E+00
 50
1.45615752E+02
 51
2.14384248E+02
  0
ARC
  8
0
 62
4
 10
1.43849248E+02
 20
9.50608076E+01
 40
6.90072132E+00
 50
3.25615752E+02
 51
3.43842480E+01
  0
ARC
  8
0
 62
4
 10
1.24955741E+02
 20
8.33694647E+01
 40
2.57942282E+01
 50
3.42412046E+02
 51
1.75879541E+01
  0
ARC
  8
0
 62
4
 10
1.65544198E+02
 20
8.33694647E+01
 40
2.57942282E+01
 50
1.62412046E+02
 51
1.97587954E+02
  0
LINE
  8
0
 62
4
 10
1.39749969E+02
 20
6.98694647E+01
 11
1.39749969E+02
 21
9.68694647E+01
  0
LINE
  8
0
 62
4
 10
1.50749969E+02
 20
6.98694647E+01
 11
1.50749969E+02
 21
9.68694647E+01
  0
LINE
  8
0
 62
4
 10
-1.62044198E+02
 20
6.77810074E+01
 11
-1.53455741E+02
 21
6.77810074E+01
  0
LINE
  8
0
 62
4
 10
-1.62044198E+02
 20
7.55752360E+01
 11
-1.53455741E+02
 21
7.55752360E+01
  0
LINE
  8
0
 62
4
 10
-1.52249969E+02
 20
6.98694647E+01
 11
-1.53455741E+02
 21
6.77810074E+01
  0
LINE
  8
0
 62
4
 10
-1.63249969E+02
 20
6.98694647E+01
 11
-1.62044198E+02
 21
6.77810074E+01
  0
ARC
  8
0
 62
4
 10
-1.56349248E+02
 20
7.16781217E+01
 40
6.90072132E+00
 50
1.45615752E+02
 51
2.14384248E+02
  0
ARC
  8
0
 62
4
 10
-1.59150691E+02
 20
7.16781217E+01
 40
6.90072132E+00
 50
3.25615752E+02
 51
3.43842480E+01
  0
LINE
  8
0
 62
4
 10
-1.62044198E+02
 20
9.89579219E+01
 11
-1.53455741E+02
 21
9.89579219E+01
  0
LINE
  8
0
 62
4
 10
-1.62044198E+02
 20
9.11636933E+01
 11
-1.53455741E+02
 21
9.11636933E+01
  0
LINE
  8
0
 62
4
 10
-1.62044198E+02
 20
9.89579219E+01
 11
-1.63249969E+02
 21
9.68694647E+01
  0
LINE
  8
0
 62
4
 10
-1.53455741E+02
 20
9.89579219E+01
 11
-1.52249969E+02
 21
9.68694647E+01
  0
ARC
  8
0
 62
4
 10
-1.56349248E+02
 20
9.50608076E+01
 40
6.90072132E+00
 50
1.45615752E+02
 51
2.14384248E+02
  0
ARC
  8
0
 62
4
 10
-1.59150691E+02
 20
9.50608076E+01
 40
6.90072132E+00
 50
3.25615752E+02
 51
3.43842480E+01
  0
ARC
  8
0
 62
4
 10
-1.78044198E+02
 20
8.33694647E+01
 40
2.57942282E+01
 50
3.42412046E+02
 51
1.75879541E+01
  0
ARC
  8
0
 62
4
 10
-1.37455741E+02
 20
8.33694647E+01
 40
2.57942282E+01
 50
1.62412046E+02
 51
1.97587954E+02
  0
LINE
  8
0
 62
4
 10
-1.63249969E+02
 20
6.98694647E+01
 11
-1.63249969E+02
 21
9.68694647E+01
  0
LINE
  8
0
 62
4
 10
-1.52249969E+02
 20
6.98694647E+01
 11
-1.52249969E+02
 21
9.68694647E+01
  0
LINE
  8
0
 62
7
 10
1.39749969E+02
 20
9.23694647E+01
 11
1.30749969E+02
 21
9.23694647E+01
  0
LINE
  8
0
 62
2
 10
1.39749969E+02
 20
9.15494573E+01
 11
1.30749969E+02
 21
9.15494573E+01
  0
LINE
  8
0
 62
7
 10
1.39749969E+02
 20
7.43694723E+01
 11
1.30749969E+02
 21
7.43694723E+01
  0
LINE
  8
0
 62
2
 10
1.39749969E+02
 20
7.51894644E+01
 11
1.30749969E+02
 21
7.51894644E+01
  0
LINE
  8
0
 62
4
 10
-4.37500000E+01
 20
1.15359300E+02
 11
-4.37500000E+01
 21
1.26875887E+02
  0
LINE
  8
0
 62
6
 10
-3.54820508E+01
 20
1.10859300E+02
 11
-3.20179492E+01
 21
1.16859300E+02
  0
LINE
  8
0
 62
6
 10
-2.30178881E+01
 20
1.16859300E+02
 11
-2.64819897E+01
 21
1.10859300E+02
  0
LINE
  8
0
 62
4
 10
-1.47499390E+01
 20
1.15359300E+02
 11
-2.38839136E+01
 21
1.15359300E+02
  0
LINE
  8
0
  6
CENTER
 62
6
 10
2.02500610E+01
 20
1.13859300E+02
 11
-2.67499390E+01
 21
1.13859300E+02
  0
LINE
  8
0
 62
4
 10
-1.47499390E+01
 20
1.12359300E+02
 11
-2.56159644E+01
 21
1.12359300E+02
  0
LINE
  8
0
 62
4
 10
-5.02500000E+01
 20
1.12359300E+02
 11
-3.46160254E+01
 21
1.12359300E+02
  0
LINE
  8
0
  6
CENTER
 62
6
 10
-7.87500000E+01
 20
1.13859300E+02
 11
-3.17500000E+01
 21
1.13859300E+02
  0
LINE
  8
0
 62
4
 10
-5.02500000E+01
 20
1.15359300E+02
 11
-3.28839746E+01
 21
1.15359300E+02
  0
LINE
  8
0
 62
4
 10
-4.37500000E+01
 20
1.10369434E+02
 11
-4.37500000E+01
 21
1.12359300E+02
  0
LINE
  8
0
 62
4
 10
-7.37500000E+01
 20
1.26875887E+02
 11
-7.37500000E+01
 21
1.16176212E+02
  0
LINE
  8
0
 62
4
 10
-5.02500000E+01
 20
1.16176212E+02
 11
-5.02500000E+01
 21
1.12103771E+02
  0
LINE
  8
0
  6
CENTER
 62
6
 10
-8.75000000E+00
 20
1.02699609E+02
 11
-1.37500000E+01
 21
1.02699609E+02
  0
LINE
  8
0
  6
CENTER
 62
6
 10
-1.12500000E+01
 20
1.05199609E+02
 11
-1.12500000E+01
 21
1.00199609E+02
  0
LINE
  8
0
  6
CENTER
 62
6
 10
-3.25000000E+00
 20
1.05199609E+02
 11
-3.25000000E+00
 21
1.00199609E+02
  0
LINE
  8
0
  6
CENTER
 62
6
 10
-7.50000000E-01
 20
1.02699609E+02
 11
-5.75000000E+00
 21
1.02699609E+02
  0
LINE
  8
0
 62
4
 10
2.50000000E-01
 20
1.25087311E+02
 11
2.50000000E-01
 21
9.75208504E+01
  0
LINE
  8
0
 62
4
 10
-1.47500000E+01
 20
1.26875887E+02
 11
-1.47500000E+01
 21
9.75208504E+01
  0
LINE
  8
0
 62
4
 10
1.52500000E+01
 20
1.26875887E+02
 11
1.52500000E+01
 21
1.09260928E+02
  0
LINE
  8
0
  6
CENTER
 62
6
 10
7.75000000E+00
 20
1.24230273E+02
 11
7.75000000E+00
 21
1.17081079E+02
  0
LINE
  8
0
  6
CENTER
 62
6
 10
1.13245969E+01
 20
1.20655676E+02
 11
4.17540311E+00
 21
1.20655676E+02
  0
LINE
  8
0
 62
4
 10
-1.47500000E+01
 20
1.26875887E+02
 11
1.52500000E+01
 21
1.26875887E+02
  0
LINE
  8
0
 62
4
 10
-1.47500000E+01
 20
1.25087311E+02
 11
1.52500000E+01
 21
1.25087311E+02
  0
LINE
  8
0
 62
4
 10
-1.47500000E+01
 20
1.23871774E+02
 11
2.49999992E-01
 21
1.23871774E+02
  0
LINE
  8
0
 62
4
 10
-1.35884360E+01
 20
1.07896999E+02
 11
-1.00925273E+00
 21
1.07896999E+02
  0
LINE
  8
0
 62
4
 10
-1.47500000E+01
 20
9.75208504E+01
 11
2.50000000E-01
 21
9.75208504E+01
  0
LINE
  8
0
 62
4
 10
2.49999992E-01
 20
1.09260928E+02
 11
1.52500000E+01
 21
1.09260928E+02
  0
LINE
  8
0
 62
4
 10
2.49999992E-01
 20
1.16716445E+02
 11
1.52500000E+01
 21
1.16716445E+02
  0
LINE
  8
0
 62
4
 10
2.49999992E-01
 20
1.16646986E+02
 11
1.52500000E+01
 21
1.16646986E+02
  0
POLYLINE
  8
0
 62
4
 66
1
  0
VERTEX
  8
0
 62
4
 10
5.50000000E+00
 20
1.20655676E+02
  0
VERTEX
  8
0
 62
4
 10
5.50856193E+00
 20
1.20462555E+02
  0
VERTEX
  8
0
 62
4
 10
5.53418255E+00
 20
1.20270903E+02
  0
VERTEX
  8
0
 62
4
 10
5.57666689E+00
 20
1.20082180E+02
  0
VERTEX
  8
0
 62
4
 10
5.63569160E+00
 20
1.19897822E+02
  0
VERTEX
  8
0
 62
4
 10
5.71080748E+00
 20
1.19719231E+02
  0
VERTEX
  8
0
 62
4
 10
5.80144284E+00
 20
1.19547767E+02
  0
VERTEX
  8
0
 62
4
 10
5.90690790E+00
 20
1.19384735E+02
  0
VERTEX
  8
0
 62
4
 10
6.02640000E+00
 20
1.19231376E+02
  0
VERTEX
  8
0
 62
4
 10
6.15900974E+00
 20
1.19088856E+02
  0
VERTEX
  8
0
 62
4
 10
6.30372787E+00
 20
1.18958261E+02
  0
VERTEX
  8
0
 62
4
 10
6.45945301E+00
 20
1.18840585E+02
  0
VERTEX
  8
0
 62
4
 10
6.62499999E+00
 20
1.18736722E+02
  0
VERTEX
  8
0
 62
4
 10
6.79910890E+00
 20
1.18647463E+02
  0
VERTEX
  8
0
 62
4
 10
6.98045467E+00
 20
1.18573489E+02
  0
VERTEX
  8
0
 62
4
 10
7.16765714E+00
 20
1.18515361E+02
  0
VERTEX
  8
0
 62
4
 10
7.35929159E+00
 20
1.18473522E+02
  0
VERTEX
  8
0
 62
4
 10
7.55389957E+00
 20
1.18448290E+02
  0
VERTEX
  8
0
 62
4
 10
7.74999999E+00
 20
1.18439859E+02
  0
VERTEX
  8
0
 62
4
 10
7.94610041E+00
 20
1.18448290E+02
  0
VERTEX
  8
0
 62
4
 10
8.14070839E+00
 20
1.18473522E+02
  0
VERTEX
  8
0
 62
4
 10
8.33234285E+00
 20
1.18515361E+02
  0
VERTEX
  8
0
 62
4
 10
8.51954532E+00
 20
1.18573489E+02
  0
VERTEX
  8
0
 62
4
 10
8.70089108E+00
 20
1.18647463E+02
  0
VERTEX
  8
0
 62
4
 10
8.87499999E+00
 20
1.18736722E+02
  0
VERTEX
  8
0
 62
4
 10
9.04054698E+00
 20
1.18840585E+02
  0
VERTEX
  8
0
 62
4
 10
9.19627212E+00
 20
1.18958261E+02
  0
VERTEX
  8
0
 62
4
 10
9.34099025E+00
 20
1.19088856E+02
  0
VERTEX
  8
0
 62
4
 10
9.47359999E+00
 20
1.19231376E+02
  0
VERTEX
  8
0
 62
4
 10
9.59309210E+00
 20
1.19384735E+02
  0
VERTEX
  8
0
 62
4
 10
9.69855716E+00
 20
1.19547767E+02
  0
VERTEX
  8
0
 62
4
 10
9.78919252E+00
 20
1.19719231E+02
  0
VERTEX
  8
0
 62
4
 10
9.86430840E+00
 20
1.19897822E+02
  0
VERTEX
  8
0
 62
4
 10
9.92333311E+00
 20
1.20082180E+02
  0
VERTEX
  8
0
 62
4
 10
9.96581744E+00
 20
1.20270903E+02
  0
VERTEX
  8
0
 62
4
 10
9.99143807E+00
 20
1.20462555E+02
  0
VERTEX
  8
0
 62
4
 10
1.00000000E+01
 20
1.20655676E+02
  0
VERTEX
  8
0
 62
4
 10
9.99143807E+00
 20
1.20848797E+02
  0
VERTEX
  8
0
 62
4
 10
9.96581745E+00
 20
1.21040449E+02
  0
VERTEX
  8
0
 62
4
 10
9.92333311E+00
 20
1.21229172E+02
  0
VERTEX
  8
0
 62
4
 10
9.86430840E+00
 20
1.21413530E+02
  0
VERTEX
  8
0
 62
4
 10
9.78919252E+00
 20
1.21592121E+02
  0
VERTEX
  8
0
 62
4
 10
9.69855716E+00
 20
1.21763585E+02
  0
VERTEX
  8
0
 62
4
 10
9.59309210E+00
 20
1.21926617E+02
  0
VERTEX
  8
0
 62
4
 10
9.47360000E+00
 20
1.22079976E+02
  0
VERTEX
  8
0
 62
4
 10
9.34099026E+00
 20
1.22222496E+02
  0
VERTEX
  8
0
 62
4
 10
9.19627212E+00
 20
1.22353091E+02
  0
VERTEX
  8
0
 62
4
 10
9.04054698E+00
 20
1.22470767E+02
  0
VERTEX
  8
0
 62
4
 10
8.87500000E+00
 20
1.22574630E+02
  0
VERTEX
  8
0
 62
4
 10
8.70089109E+00
 20
1.22663889E+02
  0
VERTEX
  8
0
 62
4
 10
8.51954533E+00
 20
1.22737863E+02
  0
VERTEX
  8
0
 62
4
 10
8.33234285E+00
 20
1.22795991E+02
  0
VERTEX
  8
0
 62
4
 10
8.14070840E+00
 20
1.22837830E+02
  0
VERTEX
  8
0
 62
4
 10
7.94610042E+00
 20
1.22863062E+02
  0
VERTEX
  8
0
 62
4
 10
7.75000000E+00
 20
1.22871493E+02
  0
VERTEX
  8
0
 62
4
 10
7.55389958E+00
 20
1.22863062E+02
  0
VERTEX
  8
0
 62
4
 10
7.35929160E+00
 20
1.22837830E+02
  0
VERTEX
  8
0
 62
4
 10
7.16765715E+00
 20
1.22795991E+02
  0
VERTEX
  8
0
 62
4
 10
6.98045468E+00
 20
1.22737863E+02
  0
VERTEX
  8
0
 62
4
 10
6.79910891E+00
 20
1.22663889E+02
  0
VERTEX
  8
0
 62
4
 10
6.62500000E+00
 20
1.22574630E+02
  0
VERTEX
  8
0
 62
4
 10
6.45945302E+00
 20
1.22470767E+02
  0
VERTEX
  8
0
 62
4
 10
6.30372788E+00
 20
1.22353091E+02
  0
VERTEX
  8
0
 62
4
 10
6.15900974E+00
 20
1.22222496E+02
  0
VERTEX
  8
0
 62
4
 10
6.02640000E+00
 20
1.22079976E+02
  0
VERTEX
  8
0
 62
4
 10
5.90690790E+00
 20
1.21926617E+02
  0
VERTEX
  8
0
 62
4
 10
5.80144284E+00
 20
1.21763585E+02
  0
VERTEX
  8
0
 62
4
 10
5.71080748E+00
 20
1.21592121E+02
  0
VERTEX
  8
0
 62
4
 10
5.63569160E+00
 20
1.21413530E+02
  0
VERTEX
  8
0
 62
4
 10
5.57666689E+00
 20
1.21229172E+02
  0
VERTEX
  8
0
 62
4
 10
5.53418256E+00
 20
1.21040449E+02
  0
VERTEX
  8
0
 62
4
 10
5.50856193E+00
 20
1.20848797E+02
  0
VERTEX
  8
0
 62
4
 10
5.50000000E+00
 20
1.20655676E+02
  0
SEQEND
  8
0
  0
POLYLINE
  8
0
 62
4
 66
1
  0
VERTEX
  8
0
 62
4
 10
-1.25000000E+00
 20
1.02699609E+02
  0
VERTEX
  8
0
 62
4
 10
-1.25805141E+00
 20
1.02876164E+02
  0
VERTEX
  8
0
 62
4
 10
-1.28214082E+00
 20
1.03051297E+02
  0
VERTEX
  8
0
 62
4
 10
-1.32207427E+00
 20
1.03223599E+02
  0
VERTEX
  8
0
 62
4
 10
-1.37753025E+00
 20
1.03391682E+02
  0
VERTEX
  8
0
 62
4
 10
-1.44806226E+00
 20
1.03554193E+02
  0
VERTEX
  8
0
 62
4
 10
-1.53310240E+00
 20
1.03709823E+02
  0
VERTEX
  8
0
 62
4
 10
-1.63196600E+00
 20
1.03857320E+02
  0
VERTEX
  8
0
 62
4
 10
-1.74385706E+00
 20
1.03995495E+02
  0
VERTEX
  8
0
 62
4
 10
-1.86787469E+00
 20
1.04123237E+02
  0
VERTEX
  8
0
 62
4
 10
-2.00302038E+00
 20
1.04239516E+02
  0
VERTEX
  8
0
 62
4
 10
-2.14820602E+00
 20
1.04343397E+02
  0
VERTEX
  8
0
 62
4
 10
-2.30226266E+00
 20
1.04434044E+02
  0
VERTEX
  8
0
 62
4
 10
-2.46394992E+00
 20
1.04510725E+02
  0
VERTEX
  8
0
 62
4
 10
-2.63196599E+00
 20
1.04572825E+02
  0
VERTEX
  8
0
 62
4
 10
-2.80495812E+00
 20
1.04619842E+02
  0
VERTEX
  8
0
 62
4
 10
-2.98153345E+00
 20
1.04651399E+02
  0
VERTEX
  8
0
 62
4
 10
-3.16027032E+00
 20
1.04667241E+02
  0
VERTEX
  8
0
 62
4
 10
-3.33972964E+00
 20
1.04667241E+02
  0
VERTEX
  8
0
 62
4
 10
-3.51846651E+00
 20
1.04651399E+02
  0
VERTEX
  8
0
 62
4
 10
-3.69504185E+00
 20
1.04619842E+02
  0
VERTEX
  8
0
 62
4
 10
-3.86803397E+00
 20
1.04572825E+02
  0
VERTEX
  8
0
 62
4
 10
-4.03605005E+00
 20
1.04510725E+02
  0
VERTEX
  8
0
 62
4
 10
-4.19773731E+00
 20
1.04434044E+02
  0
VERTEX
  8
0
 62
4
 10
-4.35179395E+00
 20
1.04343397E+02
  0
VERTEX
  8
0
 62
4
 10
-4.49697959E+00
 20
1.04239516E+02
  0
VERTEX
  8
0
 62
4
 10
-4.63212528E+00
 20
1.04123237E+02
  0
VERTEX
  8
0
 62
4
 10
-4.75614292E+00
 20
1.03995495E+02
  0
VERTEX
  8
0
 62
4
 10
-4.86803398E+00
 20
1.03857320E+02
  0
VERTEX
  8
0
 62
4
 10
-4.96689758E+00
 20
1.03709823E+02
  0
VERTEX
  8
0
 62
4
 10
-5.05193773E+00
 20
1.03554193E+02
  0
VERTEX
  8
0
 62
4
 10
-5.12246973E+00
 20
1.03391682E+02
  0
VERTEX
  8
0
 62
4
 10
-5.17792572E+00
 20
1.03223599E+02
  0
VERTEX
  8
0
 62
4
 10
-5.21785917E+00
 20
1.03051297E+02
  0
VERTEX
  8
0
 62
4
 10
-5.24194859E+00
 20
1.02876164E+02
  0
VERTEX
  8
0
 62
4
 10
-5.25000000E+00
 20
1.02699609E+02
  0
SEQEND
  8
0
  0
POLYLINE
  8
0
 62
4
 66
1
  0
VERTEX
  8
0
 62
4
 10
-5.25000000E+00
 20
1.02163970E+02
  0
VERTEX
  8
0
 62
4
 10
-5.24238940E+00
 20
1.01992307E+02
  0
VERTEX
  8
0
 62
4
 10
-5.21961551E+00
 20
1.01821950E+02
  0
VERTEX
  8
0
 62
4
 10
-5.18185165E+00
 20
1.01654196E+02
  0
VERTEX
  8
0
 62
4
 10
-5.12938524E+00
 20
1.01490322E+02
  0
VERTEX
  8
0
 62
4
 10
-5.06261558E+00
 20
1.01331575E+02
  0
VERTEX
  8
0
 62
4
 10
-4.98205081E+00
 20
1.01179162E+02
  0
VERTEX
  8
0
 62
4
 10
-4.88830409E+00
 20
1.01034245E+02
  0
VERTEX
  8
0
 62
4
 10
-4.78208889E+00
 20
1.00897926E+02
  0
VERTEX
  8
0
 62
4
 10
-4.66421357E+00
 20
1.00771242E+02
  0
VERTEX
  8
0
 62
4
 10
-4.53557522E+00
 20
1.00655157E+02
  0
VERTEX
  8
0
 62
4
 10
-4.39715288E+00
 20
1.00550555E+02
  0
VERTEX
  8
0
 62
4
 10
-4.25000001E+00
 20
1.00458233E+02
  0
VERTEX
  8
0
 62
4
 10
-4.09523653E+00
 20
1.00378892E+02
  0
VERTEX
  8
0
 62
4
 10
-3.93404029E+00
 20
1.00313137E+02
  0
VERTEX
  8
0
 62
4
 10
-3.76763810E+00
 20
1.00261468E+02
  0
VERTEX
  8
0
 62
4
 10
-3.59729636E+00
 20
1.00224277E+02
  0
VERTEX
  8
0
 62
4
 10
-3.42431149E+00
 20
1.00201849E+02
  0
VERTEX
  8
0
 62
4
 10
-3.25000001E+00
 20
1.00194354E+02
  0
VERTEX
  8
0
 62
4
 10
-3.07568852E+00
 20
1.00201849E+02
  0
VERTEX
  8
0
 62
4
 10
-2.90270365E+00
 20
1.00224277E+02
  0
VERTEX
  8
0
 62
4
 10
-2.73236192E+00
 20
1.00261468E+02
  0
VERTEX
  8
0
 62
4
 10
-2.56595972E+00
 20
1.00313137E+02
  0
VERTEX
  8
0
 62
4
 10
-2.40476348E+00
 20
1.00378892E+02
  0
VERTEX
  8
0
 62
4
 10
-2.25000000E+00
 20
1.00458233E+02
  0
VERTEX
  8
0
 62
4
 10
-2.10284713E+00
 20
1.00550555E+02
  0
VERTEX
  8
0
 62
4
 10
-1.96442478E+00
 20
1.00655157E+02
  0
VERTEX
  8
0
 62
4
 10
-1.83578644E+00
 20
1.00771242E+02
  0
VERTEX
  8
0
 62
4
 10
-1.71791112E+00
 20
1.00897926E+02
  0
VERTEX
  8
0
 62
4
 10
-1.61169591E+00
 20
1.01034245E+02
  0
VERTEX
  8
0
 62
4
 10
-1.51794919E+00
 20
1.01179162E+02
  0
VERTEX
  8
0
 62
4
 10
-1.43738443E+00
 20
1.01331575E+02
  0
VERTEX
  8
0
 62
4
 10
-1.37061476E+00
 20
1.01490322E+02
  0
VERTEX
  8
0
 62
4
 10
-1.31814835E+00
 20
1.01654196E+02
  0
VERTEX
  8
0
 62
4
 10
-1.28038449E+00
 20
1.01821950E+02
  0
VERTEX
  8
0
 62
4
 10
-1.25761060E+00
 20
1.01992307E+02
  0
VERTEX
  8
0
 62
4
 10
-1.25000000E+00
 20
1.02163970E+02
  0
VERTEX
  8
0
 62
4
 10
-1.25761060E+00
 20
1.02335633E+02
  0
VERTEX
  8
0
 62
4
 10
-1.28038449E+00
 20
1.02505990E+02
  0
VERTEX
  8
0
 62
4
 10
-1.31814835E+00
 20
1.02673744E+02
  0
VERTEX
  8
0
 62
4
 10
-1.37061476E+00
 20
1.02837618E+02
  0
VERTEX
  8
0
 62
4
 10
-1.43738442E+00
 20
1.02996365E+02
  0
VERTEX
  8
0
 62
4
 10
-1.51794919E+00
 20
1.03148778E+02
  0
VERTEX
  8
0
 62
4
 10
-1.61169591E+00
 20
1.03293695E+02
  0
VERTEX
  8
0
 62
4
 10
-1.71791111E+00
 20
1.03430014E+02
  0
VERTEX
  8
0
 62
4
 10
-1.83578644E+00
 20
1.03556698E+02
  0
VERTEX
  8
0
 62
4
 10
-1.96442478E+00
 20
1.03672783E+02
  0
VERTEX
  8
0
 62
4
 10
-2.10284712E+00
 20
1.03777385E+02
  0
VERTEX
  8
0
 62
4
 10
-2.25000000E+00
 20
1.03869707E+02
  0
VERTEX
  8
0
 62
4
 10
-2.40476347E+00
 20
1.03949048E+02
  0
VERTEX
  8
0
 62
4
 10
-2.56595971E+00
 20
1.04014803E+02
  0
VERTEX
  8
0
 62
4
 10
-2.73236191E+00
 20
1.04066472E+02
  0
VERTEX
  8
0
 62
4
 10
-2.90270364E+00
 20
1.04103663E+02
  0
VERTEX
  8
0
 62
4
 10
-3.07568851E+00
 20
1.04126091E+02
  0
VERTEX
  8
0
 62
4
 10
-3.25000000E+00
 20
1.04133586E+02
  0
VERTEX
  8
0
 62
4
 10
-3.42431148E+00
 20
1.04126091E+02
  0
VERTEX
  8
0
 62
4
 10
-3.59729635E+00
 20
1.04103663E+02
  0
VERTEX
  8
0
 62
4
 10
-3.76763809E+00
 20
1.04066472E+02
  0
VERTEX
  8
0
 62
4
 10
-3.93404028E+00
 20
1.04014803E+02
  0
VERTEX
  8
0
 62
4
 10
-4.09523652E+00
 20
1.03949048E+02
  0
VERTEX
  8
0
 62
4
 10
-4.25000000E+00
 20
1.03869707E+02
  0
VERTEX
  8
0
 62
4
 10
-4.39715287E+00
 20
1.03777385E+02
  0
VERTEX
  8
0
 62
4
 10
-4.53557522E+00
 20
1.03672783E+02
  0
VERTEX
  8
0
 62
4
 10
-4.66421356E+00
 20
1.03556698E+02
  0
VERTEX
  8
0
 62
4
 10
-4.78208888E+00
 20
1.03430014E+02
  0
VERTEX
  8
0
 62
4
 10
-4.88830409E+00
 20
1.03293695E+02
  0
VERTEX
  8
0
 62
4
 10
-4.98205081E+00
 20
1.03148778E+02
  0
VERTEX
  8
0
 62
4
 10
-5.06261557E+00
 20
1.02996365E+02
  0
VERTEX
  8
0
 62
4
 10
-5.12938524E+00
 20
1.02837618E+02
  0
VERTEX
  8
0
 62
4
 10
-5.18185165E+00
 20
1.02673744E+02
  0
VERTEX
  8
0
 62
4
 10
-5.21961551E+00
 20
1.02505990E+02
  0
VERTEX
  8
0
 62
4
 10
-5.24238940E+00
 20
1.02335633E+02
  0
VERTEX
  8
0
 62
4
 10
-5.25000000E+00
 20
1.02163970E+02
  0
SEQEND
  8
0
  0
LINE
  8
0
 62
4
 10
-5.25000000E+00
 20
1.02163970E+02
 11
-5.25000000E+00
 21
1.02699609E+02
  0
LINE
  8
0
 62
4
 10
-1.25000000E+00
 20
1.02163970E+02
 11
-1.25000000E+00
 21
1.02699609E+02
  0
POLYLINE
  8
0
 62
6
 66
1
  0
VERTEX
  8
0
 62
6
 10
-1.75000000E+00
 20
1.02163970E+02
  0
VERTEX
  8
0
 62
6
 10
-1.75570795E+00
 20
1.02292717E+02
  0
VERTEX
  8
0
 62
6
 10
-1.77278837E+00
 20
1.02420485E+02
  0
VERTEX
  8
0
 62
6
 10
-1.80111126E+00
 20
1.02546301E+02
  0
VERTEX
  8
0
 62
6
 10
-1.84046107E+00
 20
1.02669206E+02
  0
VERTEX
  8
0
 62
6
 10
-1.89053832E+00
 20
1.02788267E+02
  0
VERTEX
  8
0
 62
6
 10
-1.95096189E+00
 20
1.02902576E+02
  0
VERTEX
  8
0
 62
6
 10
-2.02127193E+00
 20
1.03011264E+02
  0
VERTEX
  8
0
 62
6
 10
-2.10093334E+00
 20
1.03113503E+02
  0
VERTEX
  8
0
 62
6
 10
-2.18933983E+00
 20
1.03208516E+02
  0
VERTEX
  8
0
 62
6
 10
-2.28581859E+00
 20
1.03295580E+02
  0
VERTEX
  8
0
 62
6
 10
-2.38963535E+00
 20
1.03374031E+02
  0
VERTEX
  8
0
 62
6
 10
-2.50000000E+00
 20
1.03443273E+02
  0
VERTEX
  8
0
 62
6
 10
-2.61607261E+00
 20
1.03502778E+02
  0
VERTEX
  8
0
 62
6
 10
-2.73696979E+00
 20
1.03552095E+02
  0
VERTEX
  8
0
 62
6
 10
-2.86177143E+00
 20
1.03590847E+02
  0
VERTEX
  8
0
 62
6
 10
-2.98952773E+00
 20
1.03618739E+02
  0
VERTEX
  8
0
 62
6
 10
-3.11926639E+00
 20
1.03635560E+02
  0
VERTEX
  8
0
 62
6
 10
-3.25000000E+00
 20
1.03641182E+02
  0
VERTEX
  8
0
 62
6
 10
-3.38073362E+00
 20
1.03635560E+02
  0
VERTEX
  8
0
 62
6
 10
-3.51047227E+00
 20
1.03618739E+02
  0
VERTEX
  8
0
 62
6
 10
-3.63822857E+00
 20
1.03590847E+02
  0
VERTEX
  8
0
 62
6
 10
-3.76303022E+00
 20
1.03552095E+02
  0
VERTEX
  8
0
 62
6
 10
-3.88392739E+00
 20
1.03502778E+02
  0
VERTEX
  8
0
 62
6
 10
-4.00000000E+00
 20
1.03443273E+02
  0
VERTEX
  8
0
 62
6
 10
-4.11036466E+00
 20
1.03374031E+02
  0
VERTEX
  8
0
 62
6
 10
-4.21418142E+00
 20
1.03295580E+02
  0
VERTEX
  8
0
 62
6
 10
-4.31066017E+00
 20
1.03208516E+02
  0
VERTEX
  8
0
 62
6
 10
-4.39906667E+00
 20
1.03113503E+02
  0
VERTEX
  8
0
 62
6
 10
-4.47872807E+00
 20
1.03011264E+02
  0
VERTEX
  8
0
 62
6
 10
-4.54903811E+00
 20
1.02902576E+02
  0
VERTEX
  8
0
 62
6
 10
-4.60946168E+00
 20
1.02788267E+02
  0
VERTEX
  8
0
 62
6
 10
-4.65953893E+00
 20
1.02669206E+02
  0
VERTEX
  8
0
 62
6
 10
-4.69888874E+00
 20
1.02546301E+02
  0
VERTEX
  8
0
 62
6
 10
-4.72721163E+00
 20
1.02420485E+02
  0
VERTEX
  8
0
 62
6
 10
-4.74429205E+00
 20
1.02292717E+02
  0
VERTEX
  8
0
 62
6
 10
-4.75000000E+00
 20
1.02163970E+02
  0
VERTEX
  8
0
 62
6
 10
-4.74429205E+00
 20
1.02035223E+02
  0
VERTEX
  8
0
 62
6
 10
-4.72721163E+00
 20
1.01907455E+02
  0
VERTEX
  8
0
 62
6
 10
-4.69888874E+00
 20
1.01781639E+02
  0
VERTEX
  8
0
 62
6
 10
-4.65953893E+00
 20
1.01658734E+02
  0
VERTEX
  8
0
 62
6
 10
-4.60946168E+00
 20
1.01539673E+02
  0
VERTEX
  8
0
 62
6
 10
-4.54903810E+00
 20
1.01425364E+02
  0
VERTEX
  8
0
 62
6
 10
-4.47872806E+00
 20
1.01316676E+02
  0
VERTEX
  8
0
 62
6
 10
-4.39906666E+00
 20
1.01214437E+02
  0
VERTEX
  8
0
 62
6
 10
-4.31066017E+00
 20
1.01119424E+02
  0
VERTEX
  8
0
 62
6
 10
-4.21418141E+00
 20
1.01032360E+02
  0
VERTEX
  8
0
 62
6
 10
-4.11036465E+00
 20
1.00953909E+02
  0
VERTEX
  8
0
 62
6
 10
-4.00000000E+00
 20
1.00884667E+02
  0
VERTEX
  8
0
 62
6
 10
-3.88392739E+00
 20
1.00825162E+02
  0
VERTEX
  8
0
 62
6
 10
-3.76303021E+00
 20
1.00775845E+02
  0
VERTEX
  8
0
 62
6
 10
-3.63822856E+00
 20
1.00737093E+02
  0
VERTEX
  8
0
 62
6
 10
-3.51047226E+00
 20
1.00709201E+02
  0
VERTEX
  8
0
 62
6
 10
-3.38073361E+00
 20
1.00692380E+02
  0
VERTEX
  8
0
 62
6
 10
-3.25000000E+00
 20
1.00686758E+02
  0
VERTEX
  8
0
 62
6
 10
-3.11926638E+00
 20
1.00692380E+02
  0
VERTEX
  8
0
 62
6
 10
-2.98952773E+00
 20
1.00709201E+02
  0
VERTEX
  8
0
 62
6
 10
-2.86177143E+00
 20
1.00737093E+02
  0
VERTEX
  8
0
 62
6
 10
-2.73696978E+00
 20
1.00775845E+02
  0
VERTEX
  8
0
 62
6
 10
-2.61607260E+00
 20
1.00825162E+02
  0
VERTEX
  8
0
 62
6
 10
-2.50000000E+00
 20
1.00884667E+02
  0
VERTEX
  8
0
 62
6
 10
-2.38963534E+00
 20
1.00953909E+02
  0
VERTEX
  8
0
 62
6
 10
-2.28581858E+00
 20
1.01032360E+02
  0
VERTEX
  8
0
 62
6
 10
-2.18933983E+00
 20
1.01119424E+02
  0
VERTEX
  8
0
 62
6
 10
-2.10093333E+00
 20
1.01214437E+02
  0
VERTEX
  8
0
 62
6
 10
-2.02127193E+00
 20
1.01316676E+02
  0
VERTEX
  8
0
 62
6
 10
-1.95096189E+00
 20
1.01425364E+02
  0
VERTEX
  8
0
 62
6
 10
-1.89053832E+00
 20
1.01539673E+02
  0
VERTEX
  8
0
 62
6
 10
-1.84046107E+00
 20
1.01658734E+02
  0
VERTEX
  8
0
 62
6
 10
-1.80111126E+00
 20
1.01781640E+02
  0
VERTEX
  8
0
 62
6
 10
-1.77278837E+00
 20
1.01907455E+02
  0
VERTEX
  8
0
 62
6
 10
-1.75570795E+00
 20
1.02035223E+02
  0
VERTEX
  8
0
 62
6
 10
-1.75000000E+00
 20
1.02163970E+02
  0
SEQEND
  8
0
  0
LINE
  8
0
 62
4
 10
-4.25000000E+00
 20
1.02735158E+02
 11
-4.25000000E+00
 21
1.01592781E+02
  0
LINE
  8
0
 62
4
 10
-2.25000000E+00
 20
1.02735158E+02
 11
-2.25000000E+00
 21
1.01592781E+02
  0
LINE
  8
0
 62
4
 10
-3.25000000E+00
 20
1.03296499E+02
 11
-4.25000000E+00
 21
1.02735158E+02
  0
LINE
  8
0
 62
4
 10
-3.25000000E+00
 20
1.03296499E+02
 11
-2.25000000E+00
 21
1.02735158E+02
  0
LINE
  8
0
 62
4
 10
-2.25000000E+00
 20
1.01592781E+02
 11
-3.25000000E+00
 21
1.01021593E+02
  0
LINE
  8
0
 62
4
 10
-4.25000000E+00
 20
1.01592781E+02
 11
-3.25000000E+00
 21
1.01021593E+02
  0
LINE
  8
0
 62
4
 10
-1.22500000E+01
 20
1.01592781E+02
 11
-1.12500000E+01
 21
1.01021593E+02
  0
LINE
  8
0
 62
4
 10
-1.02500000E+01
 20
1.01592781E+02
 11
-1.12500000E+01
 21
1.01021593E+02
  0
LINE
  8
0
 62
4
 10
-1.12500000E+01
 20
1.03296499E+02
 11
-1.02500000E+01
 21
1.02735158E+02
  0
LINE
  8
0
 62
4
 10
-1.12500000E+01
 20
1.03296499E+02
 11
-1.22500000E+01
 21
1.02735158E+02
  0
LINE
  8
0
 62
4
 10
-1.02500000E+01
 20
1.02735158E+02
 11
-1.02500000E+01
 21
1.01592781E+02
  0
LINE
  8
0
 62
4
 10
-1.22500000E+01
 20
1.02735158E+02
 11
-1.22500000E+01
 21
1.01592781E+02
  0
POLYLINE
  8
0
 62
6
 66
1
  0
VERTEX
  8
0
 62
6
 10
-9.75000000E+00
 20
1.02163970E+02
  0
VERTEX
  8
0
 62
6
 10
-9.75570795E+00
 20
1.02292717E+02
  0
VERTEX
  8
0
 62
6
 10
-9.77278837E+00
 20
1.02420485E+02
  0
VERTEX
  8
0
 62
6
 10
-9.80111126E+00
 20
1.02546301E+02
  0
VERTEX
  8
0
 62
6
 10
-9.84046107E+00
 20
1.02669206E+02
  0
VERTEX
  8
0
 62
6
 10
-9.89053832E+00
 20
1.02788267E+02
  0
VERTEX
  8
0
 62
6
 10
-9.95096189E+00
 20
1.02902576E+02
  0
VERTEX
  8
0
 62
6
 10
-1.00212719E+01
 20
1.03011264E+02
  0
VERTEX
  8
0
 62
6
 10
-1.01009333E+01
 20
1.03113503E+02
  0
VERTEX
  8
0
 62
6
 10
-1.01893398E+01
 20
1.03208516E+02
  0
VERTEX
  8
0
 62
6
 10
-1.02858186E+01
 20
1.03295580E+02
  0
VERTEX
  8
0
 62
6
 10
-1.03896353E+01
 20
1.03374031E+02
  0
VERTEX
  8
0
 62
6
 10
-1.05000000E+01
 20
1.03443273E+02
  0
VERTEX
  8
0
 62
6
 10
-1.06160726E+01
 20
1.03502778E+02
  0
VERTEX
  8
0
 62
6
 10
-1.07369698E+01
 20
1.03552095E+02
  0
VERTEX
  8
0
 62
6
 10
-1.08617714E+01
 20
1.03590847E+02
  0
VERTEX
  8
0
 62
6
 10
-1.09895277E+01
 20
1.03618739E+02
  0
VERTEX
  8
0
 62
6
 10
-1.11192664E+01
 20
1.03635560E+02
  0
VERTEX
  8
0
 62
6
 10
-1.12500000E+01
 20
1.03641182E+02
  0
VERTEX
  8
0
 62
6
 10
-1.13807336E+01
 20
1.03635560E+02
  0
VERTEX
  8
0
 62
6
 10
-1.15104723E+01
 20
1.03618739E+02
  0
VERTEX
  8
0
 62
6
 10
-1.16382286E+01
 20
1.03590847E+02
  0
VERTEX
  8
0
 62
6
 10
-1.17630302E+01
 20
1.03552095E+02
  0
VERTEX
  8
0
 62
6
 10
-1.18839274E+01
 20
1.03502778E+02
  0
VERTEX
  8
0
 62
6
 10
-1.20000000E+01
 20
1.03443273E+02
  0
VERTEX
  8
0
 62
6
 10
-1.21103647E+01
 20
1.03374031E+02
  0
VERTEX
  8
0
 62
6
 10
-1.22141814E+01
 20
1.03295580E+02
  0
VERTEX
  8
0
 62
6
 10
-1.23106602E+01
 20
1.03208516E+02
  0
VERTEX
  8
0
 62
6
 10
-1.23990667E+01
 20
1.03113503E+02
  0
VERTEX
  8
0
 62
6
 10
-1.24787281E+01
 20
1.03011264E+02
  0
VERTEX
  8
0
 62
6
 10
-1.25490381E+01
 20
1.02902576E+02
  0
VERTEX
  8
0
 62
6
 10
-1.26094617E+01
 20
1.02788267E+02
  0
VERTEX
  8
0
 62
6
 10
-1.26595389E+01
 20
1.02669206E+02
  0
VERTEX
  8
0
 62
6
 10
-1.26988887E+01
 20
1.02546301E+02
  0
VERTEX
  8
0
 62
6
 10
-1.27272116E+01
 20
1.02420485E+02
  0
VERTEX
  8
0
 62
6
 10
-1.27442920E+01
 20
1.02292717E+02
  0
VERTEX
  8
0
 62
6
 10
-1.27500000E+01
 20
1.02163970E+02
  0
VERTEX
  8
0
 62
6
 10
-1.27442920E+01
 20
1.02035223E+02
  0
VERTEX
  8
0
 62
6
 10
-1.27272116E+01
 20
1.01907455E+02
  0
VERTEX
  8
0
 62
6
 10
-1.26988887E+01
 20
1.01781639E+02
  0
VERTEX
  8
0
 62
6
 10
-1.26595389E+01
 20
1.01658734E+02
  0
VERTEX
  8
0
 62
6
 10
-1.26094617E+01
 20
1.01539673E+02
  0
VERTEX
  8
0
 62
6
 10
-1.25490381E+01
 20
1.01425364E+02
  0
VERTEX
  8
0
 62
6
 10
-1.24787281E+01
 20
1.01316676E+02
  0
VERTEX
  8
0
 62
6
 10
-1.23990667E+01
 20
1.01214437E+02
  0
VERTEX
  8
0
 62
6
 10
-1.23106602E+01
 20
1.01119424E+02
  0
VERTEX
  8
0
 62
6
 10
-1.22141814E+01
 20
1.01032360E+02
  0
VERTEX
  8
0
 62
6
 10
-1.21103647E+01
 20
1.00953909E+02
  0
VERTEX
  8
0
 62
6
 10
-1.20000000E+01
 20
1.00884667E+02
  0
VERTEX
  8
0
 62
6
 10
-1.18839274E+01
 20
1.00825162E+02
  0
VERTEX
  8
0
 62
6
 10
-1.17630302E+01
 20
1.00775845E+02
  0
VERTEX
  8
0
 62
6
 10
-1.16382286E+01
 20
1.00737093E+02
  0
VERTEX
  8
0
 62
6
 10
-1.15104723E+01
 20
1.00709201E+02
  0
VERTEX
  8
0
 62
6
 10
-1.13807336E+01
 20
1.00692380E+02
  0
VERTEX
  8
0
 62
6
 10
-1.12500000E+01
 20
1.00686758E+02
  0
VERTEX
  8
0
 62
6
 10
-1.11192664E+01
 20
1.00692380E+02
  0
VERTEX
  8
0
 62
6
 10
-1.09895277E+01
 20
1.00709201E+02
  0
VERTEX
  8
0
 62
6
 10
-1.08617714E+01
 20
1.00737093E+02
  0
VERTEX
  8
0
 62
6
 10
-1.07369698E+01
 20
1.00775845E+02
  0
VERTEX
  8
0
 62
6
 10
-1.06160726E+01
 20
1.00825162E+02
  0
VERTEX
  8
0
 62
6
 10
-1.05000000E+01
 20
1.00884667E+02
  0
VERTEX
  8
0
 62
6
 10
-1.03896353E+01
 20
1.00953909E+02
  0
VERTEX
  8
0
 62
6
 10
-1.02858186E+01
 20
1.01032360E+02
  0
VERTEX
  8
0
 62
6
 10
-1.01893398E+01
 20
1.01119424E+02
  0
VERTEX
  8
0
 62
6
 10
-1.01009333E+01
 20
1.01214437E+02
  0
VERTEX
  8
0
 62
6
 10
-1.00212719E+01
 20
1.01316676E+02
  0
VERTEX
  8
0
 62
6
 10
-9.95096189E+00
 20
1.01425364E+02
  0
VERTEX
  8
0
 62
6
 10
-9.89053832E+00
 20
1.01539673E+02
  0
VERTEX
  8
0
 62
6
 10
-9.84046107E+00
 20
1.01658734E+02
  0
VERTEX
  8
0
 62
6
 10
-9.80111126E+00
 20
1.01781640E+02
  0
VERTEX
  8
0
 62
6
 10
-9.77278837E+00
 20
1.01907455E+02
  0
VERTEX
  8
0
 62
6
 10
-9.75570795E+00
 20
1.02035223E+02
  0
VERTEX
  8
0
 62
6
 10
-9.75000000E+00
 20
1.02163970E+02
  0
SEQEND
  8
0
  0
LINE
  8
0
 62
4
 10
-9.25000000E+00
 20
1.02163970E+02
 11
-9.25000000E+00
 21
1.02699609E+02
  0
LINE
  8
0
 62
4
 10
-1.32500000E+01
 20
1.02163970E+02
 11
-1.32500000E+01
 21
1.02699609E+02
  0
POLYLINE
  8
0
 62
4
 66
1
  0
VERTEX
  8
0
 62
4
 10
-1.32500000E+01
 20
1.02163970E+02
  0
VERTEX
  8
0
 62
4
 10
-1.32423894E+01
 20
1.01992307E+02
  0
VERTEX
  8
0
 62
4
 10
-1.32196155E+01
 20
1.01821950E+02
  0
VERTEX
  8
0
 62
4
 10
-1.31818517E+01
 20
1.01654196E+02
  0
VERTEX
  8
0
 62
4
 10
-1.31293852E+01
 20
1.01490322E+02
  0
VERTEX
  8
0
 62
4
 10
-1.30626156E+01
 20
1.01331575E+02
  0
VERTEX
  8
0
 62
4
 10
-1.29820508E+01
 20
1.01179162E+02
  0
VERTEX
  8
0
 62
4
 10
-1.28883041E+01
 20
1.01034245E+02
  0
VERTEX
  8
0
 62
4
 10
-1.27820889E+01
 20
1.00897926E+02
  0
VERTEX
  8
0
 62
4
 10
-1.26642136E+01
 20
1.00771242E+02
  0
VERTEX
  8
0
 62
4
 10
-1.25355752E+01
 20
1.00655157E+02
  0
VERTEX
  8
0
 62
4
 10
-1.23971529E+01
 20
1.00550555E+02
  0
VERTEX
  8
0
 62
4
 10
-1.22500000E+01
 20
1.00458233E+02
  0
VERTEX
  8
0
 62
4
 10
-1.20952365E+01
 20
1.00378892E+02
  0
VERTEX
  8
0
 62
4
 10
-1.19340403E+01
 20
1.00313137E+02
  0
VERTEX
  8
0
 62
4
 10
-1.17676381E+01
 20
1.00261468E+02
  0
VERTEX
  8
0
 62
4
 10
-1.15972964E+01
 20
1.00224277E+02
  0
VERTEX
  8
0
 62
4
 10
-1.14243115E+01
 20
1.00201849E+02
  0
VERTEX
  8
0
 62
4
 10
-1.12500000E+01
 20
1.00194354E+02
  0
VERTEX
  8
0
 62
4
 10
-1.10756885E+01
 20
1.00201849E+02
  0
VERTEX
  8
0
 62
4
 10
-1.09027037E+01
 20
1.00224277E+02
  0
VERTEX
  8
0
 62
4
 10
-1.07323619E+01
 20
1.00261468E+02
  0
VERTEX
  8
0
 62
4
 10
-1.05659597E+01
 20
1.00313137E+02
  0
VERTEX
  8
0
 62
4
 10
-1.04047635E+01
 20
1.00378892E+02
  0
VERTEX
  8
0
 62
4
 10
-1.02500000E+01
 20
1.00458233E+02
  0
VERTEX
  8
0
 62
4
 10
-1.01028471E+01
 20
1.00550555E+02
  0
VERTEX
  8
0
 62
4
 10
-9.96442478E+00
 20
1.00655157E+02
  0
VERTEX
  8
0
 62
4
 10
-9.83578644E+00
 20
1.00771242E+02
  0
VERTEX
  8
0
 62
4
 10
-9.71791112E+00
 20
1.00897926E+02
  0
VERTEX
  8
0
 62
4
 10
-9.61169591E+00
 20
1.01034245E+02
  0
VERTEX
  8
0
 62
4
 10
-9.51794919E+00
 20
1.01179162E+02
  0
VERTEX
  8
0
 62
4
 10
-9.43738443E+00
 20
1.01331575E+02
  0
VERTEX
  8
0
 62
4
 10
-9.37061476E+00
 20
1.01490322E+02
  0
VERTEX
  8
0
 62
4
 10
-9.31814835E+00
 20
1.01654196E+02
  0
VERTEX
  8
0
 62
4
 10
-9.28038449E+00
 20
1.01821950E+02
  0
VERTEX
  8
0
 62
4
 10
-9.25761060E+00
 20
1.01992307E+02
  0
VERTEX
  8
0
 62
4
 10
-9.25000000E+00
 20
1.02163970E+02
  0
VERTEX
  8
0
 62
4
 10
-9.25761060E+00
 20
1.02335633E+02
  0
VERTEX
  8
0
 62
4
 10
-9.28038449E+00
 20
1.02505990E+02
  0
VERTEX
  8
0
 62
4
 10
-9.31814835E+00
 20
1.02673744E+02
  0
VERTEX
  8
0
 62
4
 10
-9.37061476E+00
 20
1.02837618E+02
  0
VERTEX
  8
0
 62
4
 10
-9.43738442E+00
 20
1.02996365E+02
  0
VERTEX
  8
0
 62
4
 10
-9.51794919E+00
 20
1.03148778E+02
  0
VERTEX
  8
0
 62
4
 10
-9.61169591E+00
 20
1.03293695E+02
  0
VERTEX
  8
0
 62
4
 10
-9.71791111E+00
 20
1.03430014E+02
  0
VERTEX
  8
0
 62
4
 10
-9.83578644E+00
 20
1.03556698E+02
  0
VERTEX
  8
0
 62
4
 10
-9.96442478E+00
 20
1.03672783E+02
  0
VERTEX
  8
0
 62
4
 10
-1.01028471E+01
 20
1.03777385E+02
  0
VERTEX
  8
0
 62
4
 10
-1.02500000E+01
 20
1.03869707E+02
  0
VERTEX
  8
0
 62
4
 10
-1.04047635E+01
 20
1.03949048E+02
  0
VERTEX
  8
0
 62
4
 10
-1.05659597E+01
 20
1.04014803E+02
  0
VERTEX
  8
0
 62
4
 10
-1.07323619E+01
 20
1.04066472E+02
  0
VERTEX
  8
0
 62
4
 10
-1.09027036E+01
 20
1.04103663E+02
  0
VERTEX
  8
0
 62
4
 10
-1.10756885E+01
 20
1.04126091E+02
  0
VERTEX
  8
0
 62
4
 10
-1.12500000E+01
 20
1.04133586E+02
  0
VERTEX
  8
0
 62
4
 10
-1.14243115E+01
 20
1.04126091E+02
  0
VERTEX
  8
0
 62
4
 10
-1.15972964E+01
 20
1.04103663E+02
  0
VERTEX
  8
0
 62
4
 10
-1.17676381E+01
 20
1.04066472E+02
  0
VERTEX
  8
0
 62
4
 10
-1.19340403E+01
 20
1.04014803E+02
  0
VERTEX
  8
0
 62
4
 10
-1.20952365E+01
 20
1.03949048E+02
  0
VERTEX
  8
0
 62
4
 10
-1.22500000E+01
 20
1.03869707E+02
  0
VERTEX
  8
0
 62
4
 10
-1.23971529E+01
 20
1.03777385E+02
  0
VERTEX
  8
0
 62
4
 10
-1.25355752E+01
 20
1.03672783E+02
  0
VERTEX
  8
0
 62
4
 10
-1.26642136E+01
 20
1.03556698E+02
  0
VERTEX
  8
0
 62
4
 10
-1.27820889E+01
 20
1.03430014E+02
  0
VERTEX
  8
0
 62
4
 10
-1.28883041E+01
 20
1.03293695E+02
  0
VERTEX
  8
0
 62
4
 10
-1.29820508E+01
 20
1.03148778E+02
  0
VERTEX
  8
0
 62
4
 10
-1.30626156E+01
 20
1.02996365E+02
  0
VERTEX
  8
0
 62
4
 10
-1.31293852E+01
 20
1.02837618E+02
  0
VERTEX
  8
0
 62
4
 10
-1.31818517E+01
 20
1.02673744E+02
  0
VERTEX
  8
0
 62
4
 10
-1.32196155E+01
 20
1.02505990E+02
  0
VERTEX
  8
0
 62
4
 10
-1.32423894E+01
 20
1.02335633E+02
  0
VERTEX
  8
0
 62
4
 10
-1.32500000E+01
 20
1.02163970E+02
  0
SEQEND
  8
0
  0
POLYLINE
  8
0
 62
4
 66
1
  0
VERTEX
  8
0
 62
4
 10
-9.25000000E+00
 20
1.02699609E+02
  0
VERTEX
  8
0
 62
4
 10
-9.25805141E+00
 20
1.02876164E+02
  0
VERTEX
  8
0
 62
4
 10
-9.28214082E+00
 20
1.03051297E+02
  0
VERTEX
  8
0
 62
4
 10
-9.32207427E+00
 20
1.03223599E+02
  0
VERTEX
  8
0
 62
4
 10
-9.37753025E+00
 20
1.03391682E+02
  0
VERTEX
  8
0
 62
4
 10
-9.44806226E+00
 20
1.03554193E+02
  0
VERTEX
  8
0
 62
4
 10
-9.53310240E+00
 20
1.03709823E+02
  0
VERTEX
  8
0
 62
4
 10
-9.63196600E+00
 20
1.03857320E+02
  0
VERTEX
  8
0
 62
4
 10
-9.74385706E+00
 20
1.03995495E+02
  0
VERTEX
  8
0
 62
4
 10
-9.86787469E+00
 20
1.04123237E+02
  0
VERTEX
  8
0
 62
4
 10
-1.00030204E+01
 20
1.04239516E+02
  0
VERTEX
  8
0
 62
4
 10
-1.01482060E+01
 20
1.04343397E+02
  0
VERTEX
  8
0
 62
4
 10
-1.03022627E+01
 20
1.04434044E+02
  0
VERTEX
  8
0
 62
4
 10
-1.04639499E+01
 20
1.04510725E+02
  0
VERTEX
  8
0
 62
4
 10
-1.06319660E+01
 20
1.04572825E+02
  0
VERTEX
  8
0
 62
4
 10
-1.08049581E+01
 20
1.04619842E+02
  0
VERTEX
  8
0
 62
4
 10
-1.09815335E+01
 20
1.04651399E+02
  0
VERTEX
  8
0
 62
4
 10
-1.11602703E+01
 20
1.04667241E+02
  0
VERTEX
  8
0
 62
4
 10
-1.13397296E+01
 20
1.04667241E+02
  0
VERTEX
  8
0
 62
4
 10
-1.15184665E+01
 20
1.04651399E+02
  0
VERTEX
  8
0
 62
4
 10
-1.16950419E+01
 20
1.04619842E+02
  0
VERTEX
  8
0
 62
4
 10
-1.18680340E+01
 20
1.04572825E+02
  0
VERTEX
  8
0
 62
4
 10
-1.20360500E+01
 20
1.04510725E+02
  0
VERTEX
  8
0
 62
4
 10
-1.21977373E+01
 20
1.04434044E+02
  0
VERTEX
  8
0
 62
4
 10
-1.23517939E+01
 20
1.04343397E+02
  0
VERTEX
  8
0
 62
4
 10
-1.24969796E+01
 20
1.04239516E+02
  0
VERTEX
  8
0
 62
4
 10
-1.26321253E+01
 20
1.04123237E+02
  0
VERTEX
  8
0
 62
4
 10
-1.27561429E+01
 20
1.03995495E+02
  0
VERTEX
  8
0
 62
4
 10
-1.28680340E+01
 20
1.03857320E+02
  0
VERTEX
  8
0
 62
4
 10
-1.29668976E+01
 20
1.03709823E+02
  0
VERTEX
  8
0
 62
4
 10
-1.30519377E+01
 20
1.03554193E+02
  0
VERTEX
  8
0
 62
4
 10
-1.31224697E+01
 20
1.03391682E+02
  0
VERTEX
  8
0
 62
4
 10
-1.31779257E+01
 20
1.03223599E+02
  0
VERTEX
  8
0
 62
4
 10
-1.32178592E+01
 20
1.03051297E+02
  0
VERTEX
  8
0
 62
4
 10
-1.32419486E+01
 20
1.02876164E+02
  0
VERTEX
  8
0
 62
4
 10
-1.32500000E+01
 20
1.02699609E+02
  0
SEQEND
  8
0
  0
LINE
  8
0
 62
4
 10
-7.37500000E+01
 20
1.26875887E+02
 11
-4.37500000E+01
 21
1.26875887E+02
  0
LINE
  8
0
 62
4
 10
-7.37500000E+01
 20
1.11118963E+02
 11
-4.37500000E+01
 21
1.11118963E+02
  0
LINE
  8
0
 62
4
 10
-7.37500000E+01
 20
1.12103771E+02
 11
-4.37500000E+01
 21
1.12103771E+02
  0
LINE
  8
0
 62
4
 10
-7.37500000E+01
 20
1.16176212E+02
 11
-7.52500000E+01
 21
1.15168356E+02
  0
LINE
  8
0
 62
4
 10
-7.52500000E+01
 20
1.15168356E+02
 11
-7.52500000E+01
 21
1.12544453E+02
  0
LINE
  8
0
 62
4
 10
-7.52500000E+01
 20
1.12937766E+02
 11
-7.37500000E+01
 21
1.12236981E+02
  0
LINE
  8
0
 62
4
 10
-7.52500000E+01
 20
1.12544453E+02
 11
-7.37500000E+01
 21
1.11542389E+02
  0
LINE
  8
0
 62
4
 10
-7.37500000E+01
 20
1.16176212E+02
 11
-6.16872448E+01
 21
1.16176212E+02
  0
LINE
  8
0
 62
4
 10
-7.37500000E+01
 20
1.12236981E+02
 11
-5.02500000E+01
 21
1.12236981E+02
  0
LINE
  8
0
 62
4
 10
-7.37500000E+01
 20
1.16633887E+02
 11
-6.20871230E+01
 21
1.16633887E+02
  0
LINE
  8
0
 62
4
 10
-7.37500000E+01
 20
1.16176212E+02
 11
-7.37500000E+01
 21
1.12103771E+02
  0
LINE
  8
0
 62
4
 10
-7.37500000E+01
 20
1.12103771E+02
 11
-7.37500000E+01
 21
1.10369434E+02
  0
ARC
  8
0
 62
4
 10
-1.82431469E+02
 20
-1.01935003E+01
 40
1.86971513E+02
 50
4.46782203E+01
 51
4.61988768E+01
  0
ARC
  8
0
 62
4
 10
7.99314687E+01
 20
-1.01935003E+01
 40
1.86971513E+02
 50
1.33801123E+02
 51
1.35321779E+02
  0
LINE
  8
0
 62
4
 10
-4.78500000E+01
 20
1.22617900E+02
 11
-4.78500000E+01
 21
1.22814262E+02
  0
POLYLINE
  8
0
 62
4
 66
1
  0
VERTEX
  8
0
 62
4
 10
-5.46500000E+01
 20
1.22814262E+02
  0
VERTEX
  8
0
 62
4
 10
-5.46370620E+01
 20
1.22522434E+02
  0
VERTEX
  8
0
 62
4
 10
-5.45983464E+01
 20
1.22232828E+02
  0
VERTEX
  8
0
 62
4
 10
-5.45341478E+01
 20
1.21947646E+02
  0
VERTEX
  8
0
 62
4
 10
-5.44449549E+01
 20
1.21669060E+02
  0
VERTEX
  8
0
 62
4
 10
-5.43314465E+01
 20
1.21399190E+02
  0
VERTEX
  8
0
 62
4
 10
-5.41944864E+01
 20
1.21140089E+02
  0
VERTEX
  8
0
 62
4
 10
-5.40351170E+01
 20
1.20893729E+02
  0
VERTEX
  8
0
 62
4
 10
-5.38545511E+01
 20
1.20661986E+02
  0
VERTEX
  8
0
 62
4
 10
-5.36541631E+01
 20
1.20446623E+02
  0
VERTEX
  8
0
 62
4
 10
-5.34354779E+01
 20
1.20249280E+02
  0
VERTEX
  8
0
 62
4
 10
-5.32001599E+01
 20
1.20071457E+02
  0
VERTEX
  8
0
 62
4
 10
-5.29500000E+01
 20
1.19914509E+02
  0
VERTEX
  8
0
 62
4
 10
-5.26869021E+01
 20
1.19779629E+02
  0
VERTEX
  8
0
 62
4
 10
-5.24128685E+01
 20
1.19667845E+02
  0
VERTEX
  8
0
 62
4
 10
-5.21299848E+01
 20
1.19580007E+02
  0
VERTEX
  8
0
 62
4
 10
-5.18404038E+01
 20
1.19516784E+02
  0
VERTEX
  8
0
 62
4
 10
-5.15463295E+01
 20
1.19478657E+02
  0
VERTEX
  8
0
 62
4
 10
-5.12500000E+01
 20
1.19465915E+02
  0
VERTEX
  8
0
 62
4
 10
-5.09536705E+01
 20
1.19478657E+02
  0
VERTEX
  8
0
 62
4
 10
-5.06595962E+01
 20
1.19516784E+02
  0
VERTEX
  8
0
 62
4
 10
-5.03700152E+01
 20
1.19580007E+02
  0
VERTEX
  8
0
 62
4
 10
-5.00871315E+01
 20
1.19667845E+02
  0
VERTEX
  8
0
 62
4
 10
-4.98130979E+01
 20
1.19779629E+02
  0
VERTEX
  8
0
 62
4
 10
-4.95500000E+01
 20
1.19914509E+02
  0
VERTEX
  8
0
 62
4
 10
-4.92998401E+01
 20
1.20071457E+02
  0
VERTEX
  8
0
 62
4
 10
-4.90645221E+01
 20
1.20249280E+02
  0
VERTEX
  8
0
 62
4
 10
-4.88458369E+01
 20
1.20446623E+02
  0
VERTEX
  8
0
 62
4
 10
-4.86454489E+01
 20
1.20661986E+02
  0
VERTEX
  8
0
 62
4
 10
-4.84648830E+01
 20
1.20893729E+02
  0
VERTEX
  8
0
 62
4
 10
-4.83055136E+01
 20
1.21140089E+02
  0
VERTEX
  8
0
 62
4
 10
-4.81685535E+01
 20
1.21399190E+02
  0
VERTEX
  8
0
 62
4
 10
-4.80550451E+01
 20
1.21669060E+02
  0
VERTEX
  8
0
 62
4
 10
-4.79658522E+01
 20
1.21947646E+02
  0
VERTEX
  8
0
 62
4
 10
-4.79016536E+01
 20
1.22232828E+02
  0
VERTEX
  8
0
 62
4
 10
-4.78629380E+01
 20
1.22522434E+02
  0
VERTEX
  8
0
 62
4
 10
-4.78500000E+01
 20
1.22814262E+02
  0
VERTEX
  8
0
 62
4
 10
-4.78629380E+01
 20
1.23106090E+02
  0
VERTEX
  8
0
 62
4
 10
-4.79016536E+01
 20
1.23395696E+02
  0
VERTEX
  8
0
 62
4
 10
-4.79658522E+01
 20
1.23680878E+02
  0
VERTEX
  8
0
 62
4
 10
-4.80550451E+01
 20
1.23959464E+02
  0
VERTEX
  8
0
 62
4
 10
-4.81685535E+01
 20
1.24229334E+02
  0
VERTEX
  8
0
 62
4
 10
-4.83055136E+01
 20
1.24488435E+02
  0
VERTEX
  8
0
 62
4
 10
-4.84648830E+01
 20
1.24734795E+02
  0
VERTEX
  8
0
 62
4
 10
-4.86454489E+01
 20
1.24966538E+02
  0
VERTEX
  8
0
 62
4
 10
-4.88458369E+01
 20
1.25181901E+02
  0
VERTEX
  8
0
 62
4
 10
-4.90645221E+01
 20
1.25379244E+02
  0
VERTEX
  8
0
 62
4
 10
-4.92998401E+01
 20
1.25557067E+02
  0
VERTEX
  8
0
 62
4
 10
-4.95500000E+01
 20
1.25714015E+02
  0
VERTEX
  8
0
 62
4
 10
-4.98130979E+01
 20
1.25848895E+02
  0
VERTEX
  8
0
 62
4
 10
-5.00871315E+01
 20
1.25960679E+02
  0
VERTEX
  8
0
 62
4
 10
-5.03700152E+01
 20
1.26048517E+02
  0
VERTEX
  8
0
 62
4
 10
-5.06595962E+01
 20
1.26111740E+02
  0
VERTEX
  8
0
 62
4
 10
-5.09536705E+01
 20
1.26149867E+02
  0
VERTEX
  8
0
 62
4
 10
-5.12500000E+01
 20
1.26162609E+02
  0
VERTEX
  8
0
 62
4
 10
-5.15463295E+01
 20
1.26149867E+02
  0
VERTEX
  8
0
 62
4
 10
-5.18404038E+01
 20
1.26111740E+02
  0
VERTEX
  8
0
 62
4
 10
-5.21299848E+01
 20
1.26048517E+02
  0
VERTEX
  8
0
 62
4
 10
-5.24128685E+01
 20
1.25960679E+02
  0
VERTEX
  8
0
 62
4
 10
-5.26869021E+01
 20
1.25848895E+02
  0
VERTEX
  8
0
 62
4
 10
-5.29500000E+01
 20
1.25714015E+02
  0
VERTEX
  8
0
 62
4
 10
-5.32001599E+01
 20
1.25557067E+02
  0
VERTEX
  8
0
 62
4
 10
-5.34354779E+01
 20
1.25379244E+02
  0
VERTEX
  8
0
 62
4
 10
-5.36541631E+01
 20
1.25181901E+02
  0
VERTEX
  8
0
 62
4
 10
-5.38545511E+01
 20
1.24966538E+02
  0
VERTEX
  8
0
 62
4
 10
-5.40351170E+01
 20
1.24734795E+02
  0
VERTEX
  8
0
 62
4
 10
-5.41944864E+01
 20
1.24488435E+02
  0
VERTEX
  8
0
 62
4
 10
-5.43314465E+01
 20
1.24229334E+02
  0
VERTEX
  8
0
 62
4
 10
-5.44449549E+01
 20
1.23959464E+02
  0
VERTEX
  8
0
 62
4
 10
-5.45341478E+01
 20
1.23680878E+02
  0
VERTEX
  8
0
 62
4
 10
-5.45983464E+01
 20
1.23395696E+02
  0
VERTEX
  8
0
 62
4
 10
-5.46370620E+01
 20
1.23106090E+02
  0
VERTEX
  8
0
 62
4
 10
-5.46500000E+01
 20
1.22814262E+02
  0
SEQEND
  8
0
  0
POLYLINE
  8
0
 62
4
 66
1
  0
VERTEX
  8
0
 62
4
 10
-5.46500000E+01
 20
1.22617900E+02
  0
VERTEX
  8
0
 62
4
 10
-5.46363126E+01
 20
1.22317757E+02
  0
VERTEX
  8
0
 62
4
 10
-5.45953606E+01
 20
1.22020030E+02
  0
VERTEX
  8
0
 62
4
 10
-5.45274738E+01
 20
1.21727117E+02
  0
VERTEX
  8
0
 62
4
 10
-5.44331986E+01
 20
1.21441375E+02
  0
VERTEX
  8
0
 62
4
 10
-5.43132942E+01
 20
1.21165107E+02
  0
VERTEX
  8
0
 62
4
 10
-5.41687259E+01
 20
1.20900536E+02
  0
VERTEX
  8
0
 62
4
 10
-5.40006578E+01
 20
1.20649791E+02
  0
VERTEX
  8
0
 62
4
 10
-5.38104430E+01
 20
1.20414893E+02
  0
VERTEX
  8
0
 62
4
 10
-5.35996130E+01
 20
1.20197732E+02
  0
VERTEX
  8
0
 62
4
 10
-5.33698654E+01
 20
1.20000057E+02
  0
VERTEX
  8
0
 62
4
 10
-5.31230498E+01
 20
1.19823460E+02
  0
VERTEX
  8
0
 62
4
 10
-5.28611535E+01
 20
1.19669361E+02
  0
VERTEX
  8
0
 62
4
 10
-5.25862851E+01
 20
1.19539003E+02
  0
VERTEX
  8
0
 62
4
 10
-5.23006578E+01
 20
1.19433433E+02
  0
VERTEX
  8
0
 62
4
 10
-5.20065712E+01
 20
1.19353504E+02
  0
VERTEX
  8
0
 62
4
 10
-5.17063931E+01
 20
1.19299857E+02
  0
VERTEX
  8
0
 62
4
 10
-5.14025404E+01
 20
1.19272925E+02
  0
VERTEX
  8
0
 62
4
 10
-5.10974596E+01
 20
1.19272925E+02
  0
VERTEX
  8
0
 62
4
 10
-5.07936069E+01
 20
1.19299857E+02
  0
VERTEX
  8
0
 62
4
 10
-5.04934288E+01
 20
1.19353504E+02
  0
VERTEX
  8
0
 62
4
 10
-5.01993422E+01
 20
1.19433433E+02
  0
VERTEX
  8
0
 62
4
 10
-4.99137149E+01
 20
1.19539003E+02
  0
VERTEX
  8
0
 62
4
 10
-4.96388466E+01
 20
1.19669361E+02
  0
VERTEX
  8
0
 62
4
 10
-4.93769503E+01
 20
1.19823460E+02
  0
VERTEX
  8
0
 62
4
 10
-4.91301347E+01
 20
1.20000057E+02
  0
VERTEX
  8
0
 62
4
 10
-4.89003870E+01
 20
1.20197732E+02
  0
VERTEX
  8
0
 62
4
 10
-4.86895570E+01
 20
1.20414893E+02
  0
VERTEX
  8
0
 62
4
 10
-4.84993422E+01
 20
1.20649791E+02
  0
VERTEX
  8
0
 62
4
 10
-4.83312741E+01
 20
1.20900536E+02
  0
VERTEX
  8
0
 62
4
 10
-4.81867058E+01
 20
1.21165107E+02
  0
VERTEX
  8
0
 62
4
 10
-4.80668014E+01
 20
1.21441375E+02
  0
VERTEX
  8
0
 62
4
 10
-4.79725263E+01
 20
1.21727116E+02
  0
VERTEX
  8
0
 62
4
 10
-4.79046394E+01
 20
1.22020030E+02
  0
VERTEX
  8
0
 62
4
 10
-4.78636874E+01
 20
1.22317757E+02
  0
VERTEX
  8
0
 62
4
 10
-4.78500000E+01
 20
1.22617900E+02
  0
SEQEND
  8
0
  0
LINE
  8
0
 62
4
 10
-5.46500000E+01
 20
1.22617900E+02
 11
-5.46500000E+01
 21
1.22814262E+02
  0
LINE
  8
0
 62
4
 10
-4.74500000E+01
 20
1.22444252E+02
 11
-4.74500000E+01
 21
1.22617900E+02
  0
POLYLINE
  8
0
 62
4
 66
1
  0
VERTEX
  8
0
 62
4
 10
-5.50500000E+01
 20
1.22617900E+02
  0
VERTEX
  8
0
 62
4
 10
-5.50355399E+01
 20
1.22291740E+02
  0
VERTEX
  8
0
 62
4
 10
-5.49922695E+01
 20
1.21968062E+02
  0
VERTEX
  8
0
 62
4
 10
-5.49205182E+01
 20
1.21649329E+02
  0
VERTEX
  8
0
 62
4
 10
-5.48208320E+01
 20
1.21337968E+02
  0
VERTEX
  8
0
 62
4
 10
-5.46939696E+01
 20
1.21036349E+02
  0
VERTEX
  8
0
 62
4
 10
-5.45408966E+01
 20
1.20746765E+02
  0
VERTEX
  8
0
 62
4
 10
-5.43627778E+01
 20
1.20471422E+02
  0
VERTEX
  8
0
 62
4
 10
-5.41609689E+01
 20
1.20212416E+02
  0
VERTEX
  8
0
 62
4
 10
-5.39370058E+01
 20
1.19971716E+02
  0
VERTEX
  8
0
 62
4
 10
-5.36925929E+01
 20
1.19751155E+02
  0
VERTEX
  8
0
 62
4
 10
-5.34295905E+01
 20
1.19552412E+02
  0
VERTEX
  8
0
 62
4
 10
-5.31500000E+01
 20
1.19377000E+02
  0
VERTEX
  8
0
 62
4
 10
-5.28559494E+01
 20
1.19226252E+02
  0
VERTEX
  8
0
 62
4
 10
-5.25496766E+01
 20
1.19101317E+02
  0
VERTEX
  8
0
 62
4
 10
-5.22335124E+01
 20
1.19003145E+02
  0
VERTEX
  8
0
 62
4
 10
-5.19098631E+01
 20
1.18932484E+02
  0
VERTEX
  8
0
 62
4
 10
-5.15811918E+01
 20
1.18889871E+02
  0
VERTEX
  8
0
 62
4
 10
-5.12500000E+01
 20
1.18875631E+02
  0
VERTEX
  8
0
 62
4
 10
-5.09188082E+01
 20
1.18889871E+02
  0
VERTEX
  8
0
 62
4
 10
-5.05901369E+01
 20
1.18932484E+02
  0
VERTEX
  8
0
 62
4
 10
-5.02664876E+01
 20
1.19003145E+02
  0
VERTEX
  8
0
 62
4
 10
-4.99503235E+01
 20
1.19101317E+02
  0
VERTEX
  8
0
 62
4
 10
-4.96440506E+01
 20
1.19226252E+02
  0
VERTEX
  8
0
 62
4
 10
-4.93500000E+01
 20
1.19377000E+02
  0
VERTEX
  8
0
 62
4
 10
-4.90704095E+01
 20
1.19552412E+02
  0
VERTEX
  8
0
 62
4
 10
-4.88074071E+01
 20
1.19751155E+02
  0
VERTEX
  8
0
 62
4
 10
-4.85629942E+01
 20
1.19971716E+02
  0
VERTEX
  8
0
 62
4
 10
-4.83390311E+01
 20
1.20212416E+02
  0
VERTEX
  8
0
 62
4
 10
-4.81372222E+01
 20
1.20471422E+02
  0
VERTEX
  8
0
 62
4
 10
-4.79591034E+01
 20
1.20746765E+02
  0
VERTEX
  8
0
 62
4
 10
-4.78060304E+01
 20
1.21036349E+02
  0
VERTEX
  8
0
 62
4
 10
-4.76791680E+01
 20
1.21337968E+02
  0
VERTEX
  8
0
 62
4
 10
-4.75794818E+01
 20
1.21649329E+02
  0
VERTEX
  8
0
 62
4
 10
-4.75077305E+01
 20
1.21968062E+02
  0
VERTEX
  8
0
 62
4
 10
-4.74644601E+01
 20
1.22291740E+02
  0
VERTEX
  8
0
 62
4
 10
-4.74500000E+01
 20
1.22617900E+02
  0
VERTEX
  8
0
 62
4
 10
-4.74644601E+01
 20
1.22944060E+02
  0
VERTEX
  8
0
 62
4
 10
-4.75077305E+01
 20
1.23267738E+02
  0
VERTEX
  8
0
 62
4
 10
-4.75794818E+01
 20
1.23586471E+02
  0
VERTEX
  8
0
 62
4
 10
-4.76791680E+01
 20
1.23897832E+02
  0
VERTEX
  8
0
 62
4
 10
-4.78060304E+01
 20
1.24199451E+02
  0
VERTEX
  8
0
 62
4
 10
-4.79591034E+01
 20
1.24489035E+02
  0
VERTEX
  8
0
 62
4
 10
-4.81372222E+01
 20
1.24764378E+02
  0
VERTEX
  8
0
 62
4
 10
-4.83390311E+01
 20
1.25023384E+02
  0
VERTEX
  8
0
 62
4
 10
-4.85629942E+01
 20
1.25264084E+02
  0
VERTEX
  8
0
 62
4
 10
-4.88074071E+01
 20
1.25484645E+02
  0
VERTEX
  8
0
 62
4
 10
-4.90704095E+01
 20
1.25683388E+02
  0
VERTEX
  8
0
 62
4
 10
-4.93500000E+01
 20
1.25858800E+02
  0
VERTEX
  8
0
 62
4
 10
-4.96440506E+01
 20
1.26009548E+02
  0
VERTEX
  8
0
 62
4
 10
-4.99503234E+01
 20
1.26134483E+02
  0
VERTEX
  8
0
 62
4
 10
-5.02664876E+01
 20
1.26232655E+02
  0
VERTEX
  8
0
 62
4
 10
-5.05901369E+01
 20
1.26303316E+02
  0
VERTEX
  8
0
 62
4
 10
-5.09188082E+01
 20
1.26345929E+02
  0
VERTEX
  8
0
 62
4
 10
-5.12500000E+01
 20
1.26360169E+02
  0
VERTEX
  8
0
 62
4
 10
-5.15811918E+01
 20
1.26345929E+02
  0
VERTEX
  8
0
 62
4
 10
-5.19098631E+01
 20
1.26303316E+02
  0
VERTEX
  8
0
 62
4
 10
-5.22335124E+01
 20
1.26232655E+02
  0
VERTEX
  8
0
 62
4
 10
-5.25496766E+01
 20
1.26134483E+02
  0
VERTEX
  8
0
 62
4
 10
-5.28559494E+01
 20
1.26009548E+02
  0
VERTEX
  8
0
 62
4
 10
-5.31500000E+01
 20
1.25858800E+02
  0
VERTEX
  8
0
 62
4
 10
-5.34295905E+01
 20
1.25683388E+02
  0
VERTEX
  8
0
 62
4
 10
-5.36925929E+01
 20
1.25484645E+02
  0
VERTEX
  8
0
 62
4
 10
-5.39370058E+01
 20
1.25264084E+02
  0
VERTEX
  8
0
 62
4
 10
-5.41609689E+01
 20
1.25023384E+02
  0
VERTEX
  8
0
 62
4
 10
-5.43627778E+01
 20
1.24764378E+02
  0
VERTEX
  8
0
 62
4
 10
-5.45408966E+01
 20
1.24489035E+02
  0
VERTEX
  8
0
 62
4
 10
-5.46939696E+01
 20
1.24199451E+02
  0
VERTEX
  8
0
 62
4
 10
-5.48208320E+01
 20
1.23897832E+02
  0
VERTEX
  8
0
 62
4
 10
-5.49205182E+01
 20
1.23586471E+02
  0
VERTEX
  8
0
 62
4
 10
-5.49922695E+01
 20
1.23267738E+02
  0
VERTEX
  8
0
 62
4
 10
-5.50355399E+01
 20
1.22944060E+02
  0
VERTEX
  8
0
 62
4
 10
-5.50500000E+01
 20
1.22617900E+02
  0
SEQEND
  8
0
  0
POLYLINE
  8
0
 62
4
 66
1
  0
VERTEX
  8
0
 62
4
 10
-5.50500000E+01
 20
1.22444252E+02
  0
VERTEX
  8
0
 62
4
 10
-5.50347023E+01
 20
1.22108798E+02
  0
VERTEX
  8
0
 62
4
 10
-5.49889325E+01
 20
1.21776044E+02
  0
VERTEX
  8
0
 62
4
 10
-5.49130589E+01
 20
1.21448670E+02
  0
VERTEX
  8
0
 62
4
 10
-5.48076925E+01
 20
1.21129313E+02
  0
VERTEX
  8
0
 62
4
 10
-5.46736817E+01
 20
1.20820542E+02
  0
VERTEX
  8
0
 62
4
 10
-5.45121054E+01
 20
1.20524845E+02
  0
VERTEX
  8
0
 62
4
 10
-5.43242646E+01
 20
1.20244601E+02
  0
VERTEX
  8
0
 62
4
 10
-5.41116716E+01
 20
1.19982068E+02
  0
VERTEX
  8
0
 62
4
 10
-5.38760381E+01
 20
1.19739359E+02
  0
VERTEX
  8
0
 62
4
 10
-5.36192613E+01
 20
1.19518428E+02
  0
VERTEX
  8
0
 62
4
 10
-5.33434086E+01
 20
1.19321054E+02
  0
VERTEX
  8
0
 62
4
 10
-5.30507009E+01
 20
1.19148826E+02
  0
VERTEX
  8
0
 62
4
 10
-5.27434951E+01
 20
1.19003131E+02
  0
VERTEX
  8
0
 62
4
 10
-5.24242646E+01
 20
1.18885142E+02
  0
VERTEX
  8
0
 62
4
 10
-5.20955796E+01
 20
1.18795809E+02
  0
VERTEX
  8
0
 62
4
 10
-5.17600864E+01
 20
1.18735851E+02
  0
VERTEX
  8
0
 62
4
 10
-5.14204864E+01
 20
1.18705751E+02
  0
VERTEX
  8
0
 62
4
 10
-5.10795137E+01
 20
1.18705751E+02
  0
VERTEX
  8
0
 62
4
 10
-5.07399136E+01
 20
1.18735851E+02
  0
VERTEX
  8
0
 62
4
 10
-5.04044205E+01
 20
1.18795809E+02
  0
VERTEX
  8
0
 62
4
 10
-5.00757354E+01
 20
1.18885142E+02
  0
VERTEX
  8
0
 62
4
 10
-4.97565049E+01
 20
1.19003131E+02
  0
VERTEX
  8
0
 62
4
 10
-4.94492991E+01
 20
1.19148826E+02
  0
VERTEX
  8
0
 62
4
 10
-4.91565915E+01
 20
1.19321054E+02
  0
VERTEX
  8
0
 62
4
 10
-4.88807388E+01
 20
1.19518428E+02
  0
VERTEX
  8
0
 62
4
 10
-4.86239619E+01
 20
1.19739359E+02
  0
VERTEX
  8
0
 62
4
 10
-4.83883284E+01
 20
1.19982068E+02
  0
VERTEX
  8
0
 62
4
 10
-4.81757354E+01
 20
1.20244601E+02
  0
VERTEX
  8
0
 62
4
 10
-4.79878946E+01
 20
1.20524845E+02
  0
VERTEX
  8
0
 62
4
 10
-4.78263183E+01
 20
1.20820542E+02
  0
VERTEX
  8
0
 62
4
 10
-4.76923075E+01
 20
1.21129313E+02
  0
VERTEX
  8
0
 62
4
 10
-4.75869411E+01
 20
1.21448670E+02
  0
VERTEX
  8
0
 62
4
 10
-4.75110675E+01
 20
1.21776044E+02
  0
VERTEX
  8
0
 62
4
 10
-4.74652977E+01
 20
1.22108798E+02
  0
VERTEX
  8
0
 62
4
 10
-4.74500000E+01
 20
1.22444252E+02
  0
SEQEND
  8
0
  0
LINE
  8
0
 62
4
 10
-5.50500000E+01
 20
1.22444252E+02
 11
-5.50500000E+01
 21
1.22617900E+02
  0
ARC
  8
0
 62
4
 10
-1.91122535E+02
 20
-1.49301677E+01
 40
1.88657692E+02
 50
4.46816411E+01
 51
4.61887918E+01
  0
ARC
  8
0
 62
4
 10
7.36228232E+01
 20
-1.49304607E+01
 40
1.88658103E+02
 50
1.33811210E+02
 51
1.35318357E+02
  0
LINE
  8
0
 62
4
 10
-5.46000000E+01
 20
1.19063411E+02
 11
-5.46000000E+01
 21
1.19369032E+02
  0
LINE
  8
0
 62
4
 10
-6.29000000E+01
 20
1.19063411E+02
 11
-6.29000000E+01
 21
1.19369032E+02
  0
POLYLINE
  8
0
 62
4
 66
1
  0
VERTEX
  8
0
 62
4
 10
-5.46000000E+01
 20
1.19369032E+02
  0
VERTEX
  8
0
 62
4
 10
-5.46157920E+01
 20
1.19725233E+02
  0
VERTEX
  8
0
 62
4
 10
-5.46630478E+01
 20
1.20078724E+02
  0
VERTEX
  8
0
 62
4
 10
-5.47414078E+01
 20
1.20426813E+02
  0
VERTEX
  8
0
 62
4
 10
-5.48502756E+01
 20
1.20766852E+02
  0
VERTEX
  8
0
 62
4
 10
-5.49888227E+01
 20
1.21096253E+02
  0
VERTEX
  8
0
 62
4
 10
-5.51559946E+01
 20
1.21412508E+02
  0
VERTEX
  8
0
 62
4
 10
-5.53505190E+01
 20
1.21713211E+02
  0
VERTEX
  8
0
 62
4
 10
-5.55709156E+01
 20
1.21996074E+02
  0
VERTEX
  8
0
 62
4
 10
-5.58155069E+01
 20
1.22258944E+02
  0
VERTEX
  8
0
 62
4
 10
-5.60824314E+01
 20
1.22499819E+02
  0
VERTEX
  8
0
 62
4
 10
-5.63696578E+01
 20
1.22716867E+02
  0
VERTEX
  8
0
 62
4
 10
-5.66750000E+01
 20
1.22908436E+02
  0
VERTEX
  8
0
 62
4
 10
-5.69961342E+01
 20
1.23073069E+02
  0
VERTEX
  8
0
 62
4
 10
-5.73306164E+01
 20
1.23209511E+02
  0
VERTEX
  8
0
 62
4
 10
-5.76759010E+01
 20
1.23316725E+02
  0
VERTEX
  8
0
 62
4
 10
-5.80293601E+01
 20
1.23393894E+02
  0
VERTEX
  8
0
 62
4
 10
-5.83883037E+01
 20
1.23440432E+02
  0
VERTEX
  8
0
 62
4
 10
-5.87500000E+01
 20
1.23455984E+02
  0
VERTEX
  8
0
 62
4
 10
-5.91116963E+01
 20
1.23440432E+02
  0
VERTEX
  8
0
 62
4
 10
-5.94706399E+01
 20
1.23393894E+02
  0
VERTEX
  8
0
 62
4
 10
-5.98240990E+01
 20
1.23316725E+02
  0
VERTEX
  8
0
 62
4
 10
-6.01693836E+01
 20
1.23209511E+02
  0
VERTEX
  8
0
 62
4
 10
-6.05038658E+01
 20
1.23073069E+02
  0
VERTEX
  8
0
 62
4
 10
-6.08250000E+01
 20
1.22908436E+02
  0
VERTEX
  8
0
 62
4
 10
-6.11303422E+01
 20
1.22716867E+02
  0
VERTEX
  8
0
 62
4
 10
-6.14175686E+01
 20
1.22499819E+02
  0
VERTEX
  8
0
 62
4
 10
-6.16844931E+01
 20
1.22258944E+02
  0
VERTEX
  8
0
 62
4
 10
-6.19290844E+01
 20
1.21996074E+02
  0
VERTEX
  8
0
 62
4
 10
-6.21494810E+01
 20
1.21713211E+02
  0
VERTEX
  8
0
 62
4
 10
-6.23440054E+01
 20
1.21412508E+02
  0
VERTEX
  8
0
 62
4
 10
-6.25111773E+01
 20
1.21096253E+02
  0
VERTEX
  8
0
 62
4
 10
-6.26497244E+01
 20
1.20766852E+02
  0
VERTEX
  8
0
 62
4
 10
-6.27585922E+01
 20
1.20426813E+02
  0
VERTEX
  8
0
 62
4
 10
-6.28369522E+01
 20
1.20078724E+02
  0
VERTEX
  8
0
 62
4
 10
-6.28842080E+01
 20
1.19725233E+02
  0
VERTEX
  8
0
 62
4
 10
-6.29000000E+01
 20
1.19369032E+02
  0
VERTEX
  8
0
 62
4
 10
-6.28842080E+01
 20
1.19012831E+02
  0
VERTEX
  8
0
 62
4
 10
-6.28369522E+01
 20
1.18659340E+02
  0
VERTEX
  8
0
 62
4
 10
-6.27585922E+01
 20
1.18311251E+02
  0
VERTEX
  8
0
 62
4
 10
-6.26497244E+01
 20
1.17971212E+02
  0
VERTEX
  8
0
 62
4
 10
-6.25111773E+01
 20
1.17641811E+02
  0
VERTEX
  8
0
 62
4
 10
-6.23440054E+01
 20
1.17325556E+02
  0
VERTEX
  8
0
 62
4
 10
-6.21494810E+01
 20
1.17024853E+02
  0
VERTEX
  8
0
 62
4
 10
-6.19290844E+01
 20
1.16741990E+02
  0
VERTEX
  8
0
 62
4
 10
-6.16844931E+01
 20
1.16479120E+02
  0
VERTEX
  8
0
 62
4
 10
-6.14175686E+01
 20
1.16238245E+02
  0
VERTEX
  8
0
 62
4
 10
-6.11303422E+01
 20
1.16021197E+02
  0
VERTEX
  8
0
 62
4
 10
-6.08250000E+01
 20
1.15829628E+02
  0
VERTEX
  8
0
 62
4
 10
-6.05038658E+01
 20
1.15664995E+02
  0
VERTEX
  8
0
 62
4
 10
-6.01693836E+01
 20
1.15528553E+02
  0
VERTEX
  8
0
 62
4
 10
-5.98240990E+01
 20
1.15421339E+02
  0
VERTEX
  8
0
 62
4
 10
-5.94706399E+01
 20
1.15344170E+02
  0
VERTEX
  8
0
 62
4
 10
-5.91116963E+01
 20
1.15297632E+02
  0
VERTEX
  8
0
 62
4
 10
-5.87500000E+01
 20
1.15282080E+02
  0
VERTEX
  8
0
 62
4
 10
-5.83883037E+01
 20
1.15297632E+02
  0
VERTEX
  8
0
 62
4
 10
-5.80293601E+01
 20
1.15344170E+02
  0
VERTEX
  8
0
 62
4
 10
-5.76759010E+01
 20
1.15421339E+02
  0
VERTEX
  8
0
 62
4
 10
-5.73306164E+01
 20
1.15528553E+02
  0
VERTEX
  8
0
 62
4
 10
-5.69961342E+01
 20
1.15664995E+02
  0
VERTEX
  8
0
 62
4
 10
-5.66750000E+01
 20
1.15829628E+02
  0
VERTEX
  8
0
 62
4
 10
-5.63696578E+01
 20
1.16021197E+02
  0
VERTEX
  8
0
 62
4
 10
-5.60824314E+01
 20
1.16238245E+02
  0
VERTEX
  8
0
 62
4
 10
-5.58155069E+01
 20
1.16479120E+02
  0
VERTEX
  8
0
 62
4
 10
-5.55709156E+01
 20
1.16741990E+02
  0
VERTEX
  8
0
 62
4
 10
-5.53505190E+01
 20
1.17024853E+02
  0
VERTEX
  8
0
 62
4
 10
-5.51559946E+01
 20
1.17325556E+02
  0
VERTEX
  8
0
 62
4
 10
-5.49888227E+01
 20
1.17641811E+02
  0
VERTEX
  8
0
 62
4
 10
-5.48502756E+01
 20
1.17971212E+02
  0
VERTEX
  8
0
 62
4
 10
-5.47414078E+01
 20
1.18311251E+02
  0
VERTEX
  8
0
 62
4
 10
-5.46630478E+01
 20
1.18659340E+02
  0
VERTEX
  8
0
 62
4
 10
-5.46157920E+01
 20
1.19012831E+02
  0
VERTEX
  8
0
 62
4
 10
-5.46000000E+01
 20
1.19369032E+02
  0
SEQEND
  8
0
  0
POLYLINE
  8
0
 62
4
 66
1
  0
VERTEX
  8
0
 62
4
 10
-6.29000000E+01
 20
1.19063411E+02
  0
VERTEX
  8
0
 62
4
 10
-6.28832933E+01
 20
1.18697059E+02
  0
VERTEX
  8
0
 62
4
 10
-6.28333078E+01
 20
1.18333658E+02
  0
VERTEX
  8
0
 62
4
 10
-6.27504459E+01
 20
1.17976131E+02
  0
VERTEX
  8
0
 62
4
 10
-6.26353747E+01
 20
1.17627359E+02
  0
VERTEX
  8
0
 62
4
 10
-6.24890208E+01
 20
1.17290149E+02
  0
VERTEX
  8
0
 62
4
 10
-6.23125625E+01
 20
1.16967216E+02
  0
VERTEX
  8
0
 62
4
 10
-6.21074205E+01
 20
1.16661161E+02
  0
VERTEX
  8
0
 62
4
 10
-6.18752466E+01
 20
1.16374447E+02
  0
VERTEX
  8
0
 62
4
 10
-6.16179100E+01
 20
1.16109383E+02
  0
VERTEX
  8
0
 62
4
 10
-6.13374827E+01
 20
1.15868103E+02
  0
VERTEX
  8
0
 62
4
 10
-6.10362225E+01
 20
1.15652550E+02
  0
VERTEX
  8
0
 62
4
 10
-6.07165550E+01
 20
1.15464459E+02
  0
VERTEX
  8
0
 62
4
 10
-6.03810539E+01
 20
1.15305345E+02
  0
VERTEX
  8
0
 62
4
 10
-6.00324205E+01
 20
1.15176489E+02
  0
VERTEX
  8
0
 62
4
 10
-5.96734619E+01
 20
1.15078927E+02
  0
VERTEX
  8
0
 62
4
 10
-5.93070681E+01
 20
1.15013447E+02
  0
VERTEX
  8
0
 62
4
 10
-5.89361891E+01
 20
1.14980574E+02
  0
VERTEX
  8
0
 62
4
 10
-5.85638110E+01
 20
1.14980574E+02
  0
VERTEX
  8
0
 62
4
 10
-5.81929320E+01
 20
1.15013447E+02
  0
VERTEX
  8
0
 62
4
 10
-5.78265381E+01
 20
1.15078927E+02
  0
VERTEX
  8
0
 62
4
 10
-5.74675795E+01
 20
1.15176488E+02
  0
VERTEX
  8
0
 62
4
 10
-5.71189461E+01
 20
1.15305345E+02
  0
VERTEX
  8
0
 62
4
 10
-5.67834451E+01
 20
1.15464459E+02
  0
VERTEX
  8
0
 62
4
 10
-5.64637775E+01
 20
1.15652550E+02
  0
VERTEX
  8
0
 62
4
 10
-5.61625173E+01
 20
1.15868103E+02
  0
VERTEX
  8
0
 62
4
 10
-5.58820900E+01
 20
1.16109383E+02
  0
VERTEX
  8
0
 62
4
 10
-5.56247534E+01
 20
1.16374447E+02
  0
VERTEX
  8
0
 62
4
 10
-5.53925795E+01
 20
1.16661161E+02
  0
VERTEX
  8
0
 62
4
 10
-5.51874375E+01
 20
1.16967216E+02
  0
VERTEX
  8
0
 62
4
 10
-5.50109792E+01
 20
1.17290149E+02
  0
VERTEX
  8
0
 62
4
 10
-5.48646253E+01
 20
1.17627359E+02
  0
VERTEX
  8
0
 62
4
 10
-5.47495541E+01
 20
1.17976131E+02
  0
VERTEX
  8
0
 62
4
 10
-5.46666922E+01
 20
1.18333657E+02
  0
VERTEX
  8
0
 62
4
 10
-5.46167067E+01
 20
1.18697059E+02
  0
VERTEX
  8
0
 62
4
 10
-5.46000000E+01
 20
1.19063411E+02
  0
SEQEND
  8
0
  0
LINE
  8
0
  6
CENTER
 62
6
 10
-6.62500000E+01
 20
1.24944252E+02
 11
-6.62500000E+01
 21
1.19944252E+02
  0
LINE
  8
0
  6
CENTER
 62
6
 10
-6.37500000E+01
 20
1.22444252E+02
 11
-6.87500000E+01
 21
1.22444252E+02
  0
LINE
  8
0
  6
CENTER
 62
6
 10
-5.87500000E+01
 20
1.21497425E+02
 11
-5.87500000E+01
 21
1.16497425E+02
  0
LINE
  8
0
  6
CENTER
 62
6
 10
-5.62500000E+01
 20
1.18997425E+02
 11
-6.12500000E+01
 21
1.18997425E+02
  0
LINE
  8
0
  6
CENTER
 62
6
 10
-5.12500000E+01
 20
1.24944252E+02
 11
-5.12500000E+01
 21
1.19944252E+02
  0
LINE
  8
0
  6
CENTER
 62
6
 10
-4.87500000E+01
 20
1.22444252E+02
 11
-5.37500000E+01
 21
1.22444252E+02
  0
LINE
  8
0
 62
4
 10
-5.54128770E+01
 20
1.16633887E+02
 11
-4.37500000E+01
 21
1.16633887E+02
  0
LINE
  8
0
 62
4
 10
-5.58127552E+01
 20
1.16176212E+02
 11
-5.02500000E+01
 21
1.16176212E+02
  0
LINE
  8
0
 62
4
 10
1.52500000E+01
 20
1.16176212E+02
 11
1.67500000E+01
 21
1.15168356E+02
  0
LINE
  8
0
 62
4
 10
1.67500000E+01
 20
1.12937766E+02
 11
1.52500000E+01
 21
1.12236981E+02
  0
LINE
  8
0
 62
4
 10
1.67500000E+01
 20
1.12544453E+02
 11
1.52500000E+01
 21
1.11542389E+02
  0
LINE
  8
0
 62
4
 10
1.67500000E+01
 20
1.15168356E+02
 11
1.67500000E+01
 21
1.12544453E+02
  0
LINE
  8
0
 62
7
 10
-1.47500000E+01
 20
1.09519443E+02
 11
-8.42500000E+01
 21
1.09519443E+02
  0
LINE
  8
0
 62
7
 10
-1.47500000E+01
 20
1.10369434E+02
 11
-8.42500000E+01
 21
1.10369434E+02
  0
LINE
  8
0
 62
7
 10
-1.47500000E+01
 20
1.04219456E+02
 11
-8.42500000E+01
 21
1.04219456E+02
  0
CIRCLE
  8
0
 62
7
 10
-2.54250000E+02
 20
1.06869465E+02
 40
2.45850000E+00
  0
CIRCLE
  8
0
 62
7
 10
-2.54249969E+02
 20
5.98694952E+01
 40
2.45850000E+00
  0
CIRCLE
  8
0
 62
7
 10
-3.01249939E+02
 20
5.98694647E+01
 40
2.45850000E+00
  0
CIRCLE
  8
0
 62
7
 10
-3.01249969E+02
 20
1.06869434E+02
 40
2.45850000E+00
  0
LINE
  8
0
 62
7
 10
-2.91114212E+02
 20
6.85912390E+01
 11
-2.95065772E+02
 21
6.46396801E+01
  0
LINE
  8
0
 62
7
 10
-2.92528437E+02
 20
7.00054419E+01
 11
-2.96479996E+02
 21
6.60538829E+01
  0
LINE
  8
0
 62
7
 10
-2.78750031E+02
 20
5.63694952E+01
 11
-2.78750031E+02
 21
6.34697149E+01
  0
LINE
  8
0
 62
7
 10
-2.64386002E+02
 20
9.81479942E+01
 11
-2.60434485E+02
 21
1.02099509E+02
  0
LINE
  8
0
 62
7
 10
-2.62971767E+02
 20
9.67337587E+01
 11
-2.59020250E+02
 21
1.00685274E+02
  0
LINE
  8
0
 62
7
 10
-2.50750031E+02
 20
8.43694494E+01
 11
-2.57850250E+02
 21
8.43694494E+01
  0
LINE
  8
0
 62
7
 10
-2.78749969E+02
 20
1.10369434E+02
 11
-2.78749969E+02
 21
1.03269184E+02
  0
LINE
  8
0
 62
7
 10
-2.76749969E+02
 20
1.10369434E+02
 11
-2.76749969E+02
 21
1.03269184E+02
  0
LINE
  8
0
 62
7
 10
-3.05249969E+02
 20
1.14369465E+02
 11
-2.50250031E+02
 21
1.14369465E+02
  0
LINE
  8
0
  6
CENTER
 62
2
 10
-3.01250031E+02
 20
5.02785070E+01
 11
-3.01250031E+02
 21
6.91650427E+01
  0
LINE
  8
0
  6
CENTER
 62
2
 10
-2.54249969E+02
 20
1.16847706E+02
 11
-2.54249969E+02
 21
9.71450842E+01
  0
LINE
  8
0
  6
CENTER
 62
2
 10
-2.44296844E+02
 20
1.06869434E+02
 11
-2.63999420E+02
 21
1.06869434E+02
  0
LINE
  8
0
 62
7
 10
-2.88281342E+02
 20
1.11369449E+02
 11
-2.67218597E+02
 21
1.11369449E+02
  0
LINE
  8
0
 62
7
 10
-2.91114201E+02
 20
9.81477245E+01
 11
-2.95065782E+02
 21
1.02099305E+02
  0
LINE
  8
0
 62
7
 10
-2.92528415E+02
 20
9.67335108E+01
 11
-2.96479952E+02
 21
1.00685048E+02
  0
LINE
  8
0
 62
7
 10
-3.04749969E+02
 20
8.43694952E+01
 11
-2.97649750E+02
 21
8.43694952E+01
  0
LINE
  8
0
 62
7
 10
-3.04749969E+02
 20
8.23694952E+01
 11
-2.97649750E+02
 21
8.23694952E+01
  0
LINE
  8
0
 62
7
 10
-3.08249969E+02
 20
5.58694952E+01
 11
-3.08249969E+02
 21
1.10869434E+02
  0
LINE
  8
0
 62
7
 10
-3.05249969E+02
 20
1.13869465E+02
 11
-2.50250031E+02
 21
1.13869434E+02
  0
LINE
  8
0
 62
7
 10
-3.05749969E+02
 20
7.28381079E+01
 11
-3.05749969E+02
 21
9.39008215E+01
  0
LINE
  8
0
 62
7
 10
-3.08749969E+02
 20
5.58694647E+01
 11
-3.08749969E+02
 21
1.10869434E+02
  0
LINE
  8
0
  6
CENTER
 62
2
 10
-3.01249969E+02
 20
1.16423145E+02
 11
-3.01249969E+02
 21
9.89850958E+01
  0
LINE
  8
0
 62
7
 10
-2.76750031E+02
 20
5.63694952E+01
 11
-2.76750031E+02
 21
6.34697149E+01
  0
LINE
  8
0
 62
7
 10
-2.62971663E+02
 20
7.00053934E+01
 11
-2.59020148E+02
 21
6.60538769E+01
  0
LINE
  8
0
 62
7
 10
-2.64385877E+02
 20
6.85911368E+01
 11
-2.60434340E+02
 21
6.46395988E+01
  0
LINE
  8
0
 62
7
 10
-2.50750031E+02
 20
8.23694647E+01
 11
-2.57850250E+02
 21
8.23694647E+01
  0
LINE
  8
0
 62
7
 10
-3.05249969E+02
 20
5.28695104E+01
 11
-2.50250031E+02
 21
5.28694799E+01
  0
LINE
  8
0
 62
7
 10
-2.46750031E+02
 20
5.58694952E+01
 11
-2.46750031E+02
 21
1.10869465E+02
  0
LINE
  8
0
 62
7
 10
-3.05249969E+02
 20
5.23694799E+01
 11
-2.50249969E+02
 21
5.23694799E+01
  0
LINE
  8
0
  6
CENTER
 62
2
 10
-2.77749969E+02
 20
1.18130115E+02
 11
-2.77749969E+02
 21
5.00425909E+01
  0
LINE
  8
0
  6
CENTER
 62
2
 10
-2.44063629E+02
 20
5.98694189E+01
 11
-2.63766266E+02
 21
5.98694189E+01
  0
LINE
  8
0
 62
7
 10
-2.49750031E+02
 20
7.28381079E+01
 11
-2.49750031E+02
 21
9.39008215E+01
  0
LINE
  8
0
 62
7
 10
-2.88281342E+02
 20
5.53694799E+01
 11
-2.67218597E+02
 21
5.53694799E+01
  0
LINE
  8
0
 62
7
 10
-2.55749969E+02
 20
1.14369465E+02
 11
-2.55749969E+02
 21
1.13869434E+02
  0
LINE
  8
0
 62
7
 10
-2.99749969E+02
 20
1.14369465E+02
 11
-2.99749969E+02
 21
1.13869465E+02
  0
LINE
  8
0
 62
7
 10
-2.99749969E+02
 20
5.28695104E+01
 11
-2.99749969E+02
 21
5.23694799E+01
  0
LINE
  8
0
 62
7
 10
-2.55749969E+02
 20
5.28694799E+01
 11
-2.55749969E+02
 21
5.23694799E+01
  0
LINE
  8
0
  6
CENTER
 62
2
 10
-2.54250031E+02
 20
5.02083929E+01
 11
-2.54250031E+02
 21
6.90654562E+01
  0
LINE
  8
0
 62
7
 10
-2.47250031E+02
 20
5.58694952E+01
 11
-2.47250031E+02
 21
1.10869434E+02
  0
LINE
  8
0
 62
7
 10
-3.02249969E+02
 20
9.91180609E+01
 11
-3.02249969E+02
 21
9.78694494E+01
  0
LINE
  8
0
 62
7
 10
-2.93498383E+02
 20
1.07869510E+02
 11
-2.92249969E+02
 21
1.07869510E+02
  0
LINE
  8
0
 62
7
 10
-2.62001251E+02
 20
1.07869434E+02
 11
-2.63249969E+02
 21
1.07869434E+02
  0
LINE
  8
0
 62
7
 10
-2.53249969E+02
 20
9.91178167E+01
 11
-2.53249969E+02
 21
9.78694494E+01
  0
LINE
  8
0
 62
7
 10
-3.02250031E+02
 20
6.76212347E+01
 11
-3.02250031E+02
 21
6.88694799E+01
  0
LINE
  8
0
 62
7
 10
-2.93498749E+02
 20
5.88695104E+01
 11
-2.92249969E+02
 21
5.88695104E+01
  0
LINE
  8
0
 62
7
 10
-2.62001556E+02
 20
5.88694189E+01
 11
-2.63249969E+02
 21
5.88694189E+01
  0
LINE
  8
0
 62
7
 10
-2.53250031E+02
 20
6.76207464E+01
 11
-2.53250031E+02
 21
6.88694799E+01
  0
LINE
  8
0
  6
CENTER
 62
2
 10
-2.43102081E+02
 20
8.33694647E+01
 11
-3.12265045E+02
 21
8.33694647E+01
  0
LINE
  8
0
  6
CENTER
 62
2
 10
-2.91862885E+02
 20
1.06869434E+02
 11
-3.10982574E+02
 21
1.06869434E+02
  0
LINE
  8
0
  6
CENTER
 62
2
 10
-2.92212677E+02
 20
5.98694189E+01
 11
-3.10982574E+02
 21
5.98694189E+01
  0
LINE
  8
0
  6
CENTER
 62
2
 10
-2.84750092E+02
 20
1.16554523E+02
 11
-2.84750092E+02
 21
1.04669254E+02
  0
ARC
  8
0
 62
7
 10
-2.93235443E+02
 20
7.07124212E+01
 40
1.00000000E+00
 50
3.14999968E+02
 51
3.92609655E+01
  0
ARC
  8
0
 62
7
 10
-2.90407013E+02
 20
6.78839910E+01
 40
1.00000000E+00
 50
5.07389892E+01
 51
1.34999987E+02
  0
ARC
  8
0
 62
7
 10
-2.62264496E+02
 20
9.60265081E+01
 40
1.00000000E+00
 50
1.34999959E+02
 51
2.19260957E+02
  0
ARC
  8
0
 62
7
 10
-2.65092926E+02
 20
9.88549383E+01
 40
1.00000000E+00
 50
2.30738998E+02
 51
3.14999995E+02
  0
ARC
  8
0
 62
7
 10
-2.57850250E+02
 20
8.53694494E+01
 40
1.00000000E+00
 50
1.85739458E+02
 51
2.69999963E+02
  0
ARC
  8
0
 62
7
 10
-2.50750031E+02
 20
8.53694647E+01
 40
1.00000000E+00
 50
2.69999963E+02
 51
0.00000000E+00
  0
ARC
  8
0
 62
7
 10
-2.50250031E+02
 20
1.10869434E+02
 40
3.00000000E+00
 50
0.00000000E+00
 51
8.99999818E+01
  0
ARC
  8
0
 62
7
 10
-2.75749969E+02
 20
1.10369434E+02
 40
1.00000000E+00
 50
8.99999818E+01
 51
1.79999964E+02
  0
ARC
  8
0
 62
7
 10
-2.75749969E+02
 20
1.03269184E+02
 40
1.00000000E+00
 50
1.79999964E+02
 51
2.64260484E+02
  0
CIRCLE
  8
0
 62
7
 10
-2.54249969E+02
 20
1.06869434E+02
 40
5.00000000E+00
  0
ARC
  8
0
 62
7
 10
-2.58312958E+02
 20
9.99780157E+01
 40
1.00000000E+00
 50
5.94777518E+01
 51
1.34999345E+02
  0
ARC
  8
0
 62
7
 10
-2.61141388E+02
 20
1.02806415E+02
 40
1.00000000E+00
 50
3.15000624E+02
 51
3.05224488E+01
  0
ARC
  8
0
 62
7
 10
-3.05249969E+02
 20
5.58694952E+01
 40
3.00000000E+00
 50
1.80000036E+02
 51
2.69999991E+02
  0
ARC
  8
0
 62
7
 10
-2.79749969E+02
 20
5.63694952E+01
 40
1.00000000E+00
 50
2.69999991E+02
 51
3.59999973E+02
  0
ARC
  8
0
 62
7
 10
-2.79749969E+02
 20
6.34697454E+01
 40
1.00000000E+00
 50
3.59999973E+02
 51
8.42604992E+01
  0
CIRCLE
  8
0
 62
7
 10
-3.01250031E+02
 20
5.98694952E+01
 40
5.00000000E+00
  0
ARC
  8
0
 62
7
 10
-2.97186981E+02
 20
6.67609136E+01
 40
1.00000000E+00
 50
2.39477760E+02
 51
3.14999353E+02
  0
ARC
  8
0
 62
7
 10
-2.94358551E+02
 20
6.39325140E+01
 40
1.00000000E+00
 50
1.35000615E+02
 51
2.10522426E+02
  0
ARC
  8
0
 62
7
 10
-2.50250031E+02
 20
1.10869465E+02
 40
3.50000000E+00
 50
0.00000000E+00
 51
8.99999818E+01
  0
CIRCLE
  8
0
 62
7
 10
-2.54249969E+02
 20
1.06869434E+02
 40
4.50000000E+00
  0
ARC
  8
0
 62
7
 10
-3.05249969E+02
 20
5.58694647E+01
 40
3.50000000E+00
 50
1.80000036E+02
 51
2.69999991E+02
  0
CIRCLE
  8
0
 62
7
 10
-3.01250031E+02
 20
5.98694952E+01
 40
4.50000000E+00
  0
ARC
  8
0
 62
7
 10
-2.50750031E+02
 20
9.39008215E+01
 40
1.00000000E+00
 50
0.00000000E+00
 51
8.28191923E+01
  0
ARC
  8
0
 62
7
 10
-2.50250031E+02
 20
9.78694494E+01
 40
3.00000000E+00
 50
1.79999981E+02
 51
2.62819221E+02
  0
ARC
  8
0
 62
7
 10
-2.54218658E+02
 20
9.88695410E+01
 40
1.00000000E+00
 50
7.17896597E+00
 51
9.02255215E+01
  0
ARC
  8
0
 62
7
 10
-2.54250031E+02
 20
1.06869480E+02
 40
7.00000000E+00
 50
1.79775278E+02
 51
2.70224550E+02
  0
ARC
  8
0
 62
7
 10
-2.62249969E+02
 20
1.06900852E+02
 40
1.00000000E+00
 50
3.59775314E+02
 51
8.28191923E+01
  0
ARC
  8
0
 62
7
 10
-2.63249969E+02
 20
1.10869480E+02
 40
3.00000000E+00
 50
1.87181024E+02
 51
2.70000018E+02
  0
ARC
  8
0
 62
7
 10
-2.67218597E+02
 20
1.10369449E+02
 40
1.00000000E+00
 50
7.18156141E+00
 51
8.99999818E+01
  0
ARC
  8
0
 62
7
 10
-3.04749969E+02
 20
7.28381079E+01
 40
1.00000000E+00
 50
1.80000036E+02
 51
2.62819228E+02
  0
ARC
  8
0
 62
7
 10
-3.05249969E+02
 20
6.88694799E+01
 40
3.00000000E+00
 50
0.00000000E+00
 51
8.28192405E+01
  0
ARC
  8
0
 62
7
 10
-3.01281342E+02
 20
6.78693884E+01
 40
1.00000000E+00
 50
1.87179002E+02
 51
2.70225557E+02
  0
ARC
  8
0
 62
7
 10
-3.01249969E+02
 20
5.98694494E+01
 40
7.00000000E+00
 50
3.59775313E+02
 51
9.02245790E+01
  0
ARC
  8
0
 62
7
 10
-2.93250031E+02
 20
5.98380773E+01
 40
1.00000000E+00
 50
1.79775333E+02
 51
2.62819204E+02
  0
ARC
  8
0
 62
7
 10
-2.92249969E+02
 20
5.58694494E+01
 40
3.00000000E+00
 50
7.18104317E+00
 51
8.99999818E+01
  0
ARC
  8
0
 62
7
 10
-2.88281342E+02
 20
5.63694799E+01
 40
1.00000000E+00
 50
1.87181597E+02
 51
2.70000018E+02
  0
ARC
  8
0
 62
7
 10
-2.93235443E+02
 20
9.60264929E+01
 40
1.00000000E+00
 50
3.20738994E+02
 51
4.49999910E+01
  0
ARC
  8
0
 62
7
 10
-2.90407013E+02
 20
9.88549230E+01
 40
1.00000000E+00
 50
2.24999972E+02
 51
3.09260983E+02
  0
ARC
  8
0
 62
7
 10
-2.97649750E+02
 20
8.53694647E+01
 40
1.00000000E+00
 50
2.69999963E+02
 51
3.54260510E+02
  0
ARC
  8
0
 62
7
 10
-2.97649750E+02
 20
8.13694647E+01
 40
1.00000000E+00
 50
5.73944893E+00
 51
8.99999549E+01
  0
CIRCLE
  8
0
 62
7
 10
-3.01249969E+02
 20
1.06869480E+02
 40
5.00000000E+00
  0
ARC
  8
0
 62
7
 10
-2.94358551E+02
 20
1.02806461E+02
 40
1.00000000E+00
 50
1.49477747E+02
 51
2.24999340E+02
  0
ARC
  8
0
 62
7
 10
-2.79749969E+02
 20
1.10369434E+02
 40
1.00000000E+00
 50
3.59999959E+02
 51
8.99999956E+01
  0
ARC
  8
0
 62
7
 10
-2.79749969E+02
 20
1.03269184E+02
 40
1.00000000E+00
 50
2.75739617E+02
 51
3.59999959E+02
  0
ARC
  8
0
 62
7
 10
-3.04749969E+02
 20
8.53694647E+01
 40
1.00000000E+00
 50
1.79999964E+02
 51
2.69999946E+02
  0
ARC
  8
0
 62
7
 10
-3.01249969E+02
 20
1.06869480E+02
 40
7.00000000E+00
 50
2.69775421E+02
 51
2.24686703E-01
  0
ARC
  8
0
 62
7
 10
-2.97186920E+02
 20
9.99780310E+01
 40
1.00000000E+00
 50
4.50006194E+01
 51
1.20522431E+02
  0
ARC
  8
0
 62
7
 10
-3.05249969E+02
 20
1.10869419E+02
 40
3.00000000E+00
 50
9.00000231E+01
 51
1.79999977E+02
  0
ARC
  8
0
 62
7
 10
-3.04749969E+02
 20
8.13694647E+01
 40
1.00000000E+00
 50
8.99999549E+01
 51
1.79999991E+02
  0
ARC
  8
0
 62
7
 10
-3.05249969E+02
 20
1.10869419E+02
 40
3.50000000E+00
 50
9.00000231E+01
 51
1.79999977E+02
  0
CIRCLE
  8
0
 62
7
 10
-3.01249969E+02
 20
1.06869480E+02
 40
4.50000000E+00
  0
ARC
  8
0
 62
7
 10
-3.05249969E+02
 20
9.78694494E+01
 40
3.00000000E+00
 50
2.77180753E+02
 51
0.00000000E+00
  0
ARC
  8
0
 62
7
 10
-2.92249969E+02
 20
1.10869480E+02
 40
3.00000000E+00
 50
2.70000018E+02
 51
3.52818957E+02
  0
ARC
  8
0
 62
7
 10
-2.88281342E+02
 20
1.10369449E+02
 40
1.00000000E+00
 50
8.99999818E+01
 51
1.72818402E+02
  0
ARC
  8
0
 62
7
 10
-2.93250031E+02
 20
1.06900852E+02
 40
1.00000000E+00
 50
9.71807714E+01
 51
1.80224650E+02
  0
ARC
  8
0
 62
7
 10
-3.01281342E+02
 20
9.88695410E+01
 40
1.00000000E+00
 50
8.97744422E+01
 51
1.72820998E+02
  0
ARC
  8
0
 62
7
 10
-3.04749969E+02
 20
9.39008215E+01
 40
1.00000000E+00
 50
9.71807714E+01
 51
1.79999964E+02
  0
ARC
  8
0
 62
7
 10
-2.75749969E+02
 20
6.34697149E+01
 40
1.00000000E+00
 50
9.57394445E+01
 51
1.79999951E+02
  0
ARC
  8
0
 62
7
 10
-2.65092926E+02
 20
6.78840063E+01
 40
1.00000000E+00
 50
4.49999637E+01
 51
1.29260961E+02
  0
ARC
  8
0
 62
7
 10
-2.62264496E+02
 20
7.07124365E+01
 40
1.00000000E+00
 50
1.40738985E+02
 51
2.24999982E+02
  0
ARC
  8
0
 62
7
 10
-2.57850250E+02
 20
8.13694647E+01
 40
1.00000000E+00
 50
8.99999681E+01
 51
1.74260502E+02
  0
ARC
  8
0
 62
7
 10
-2.75749969E+02
 20
5.63694952E+01
 40
1.00000000E+00
 50
1.79999951E+02
 51
2.70000001E+02
  0
ARC
  8
0
 62
7
 10
-2.50250031E+02
 20
5.58694952E+01
 40
3.00000000E+00
 50
2.70000018E+02
 51
3.59999986E+02
  0
ARC
  8
0
 62
7
 10
-2.50750031E+02
 20
8.13694647E+01
 40
1.00000000E+00
 50
3.59999986E+02
 51
8.99999681E+01
  0
CIRCLE
  8
0
 62
7
 10
-2.54250031E+02
 20
5.98694342E+01
 40
5.00000000E+00
  0
ARC
  8
0
 62
7
 10
-2.61141449E+02
 20
6.39324530E+01
 40
1.00000000E+00
 50
3.29477756E+02
 51
4.49993490E+01
  0
ARC
  8
0
 62
7
 10
-2.58313019E+02
 20
6.67608831E+01
 40
1.00000000E+00
 50
2.25000628E+02
 51
3.00522440E+02
  0
ARC
  8
0
 62
7
 10
-2.50249969E+02
 20
5.58694952E+01
 40
3.50000000E+00
 50
2.70000018E+02
 51
3.59999986E+02
  0
CIRCLE
  8
0
 62
7
 10
-2.54250031E+02
 20
5.98694342E+01
 40
4.50000000E+00
  0
ARC
  8
0
 62
7
 10
-2.67218597E+02
 20
5.63694799E+01
 40
1.00000000E+00
 50
2.70000018E+02
 51
3.52818438E+02
  0
ARC
  8
0
 62
7
 10
-2.63249969E+02
 20
5.58694494E+01
 40
3.00000000E+00
 50
8.99999818E+01
 51
1.72818977E+02
  0
ARC
  8
0
 62
7
 10
-2.62249969E+02
 20
5.98380773E+01
 40
1.00000000E+00
 50
2.77180808E+02
 51
2.24685903E-01
  0
ARC
  8
0
 62
7
 10
-2.54250031E+02
 20
5.98694494E+01
 40
7.00000000E+00
 50
8.97754328E+01
 51
1.80224705E+02
  0
ARC
  8
0
 62
7
 10
-2.54218658E+02
 20
6.78693884E+01
 40
1.00000000E+00
 50
2.69774478E+02
 51
3.52821034E+02
  0
ARC
  8
0
 62
7
 10
-2.50250031E+02
 20
6.88694799E+01
 40
3.00000000E+00
 50
9.71807782E+01
 51
1.79999964E+02
  0
ARC
  8
0
 62
7
 10
-2.50750031E+02
 20
7.28381079E+01
 40
1.00000000E+00
 50
2.77180808E+02
 51
0.00000000E+00
  0
CIRCLE
  8
0
 62
7
 10
-2.77749969E+02
 20
8.33694647E+01
 40
1.75294495E+01
  0
CIRCLE
  8
0
 62
7
 10
-2.77749969E+02
 20
8.33694647E+01
 40
1.90000000E+01
  0
CIRCLE
  8
0
 62
7
 10
-2.77749969E+02
 20
8.33694647E+01
 40
1.70000000E+01
  0
CIRCLE
  8
0
 62
2
 10
-3.01249969E+02
 20
1.06869434E+02
 40
3.00000000E+00
  0
CIRCLE
  8
0
 62
2
 10
-3.01250031E+02
 20
5.98694189E+01
 40
3.00000000E+00
  0
CIRCLE
  8
0
 62
2
 10
-2.54250031E+02
 20
5.98694189E+01
 40
3.00000000E+00
  0
CIRCLE
  8
0
 62
2
 10
-2.54249969E+02
 20
1.06869434E+02
 40
3.00000000E+00
  0
CIRCLE
  8
0
 62
7
 10
-2.77749969E+02
 20
8.33694647E+01
 40
8.99999237E+00
  0
CIRCLE
  8
0
 62
2
 10
-2.77749969E+02
 20
8.33694647E+01
 40
8.18000031E+00
  0
CIRCLE
  8
0
 62
4
 10
-2.77749969E+02
 20
8.33694647E+01
 40
1.35000000E+01
  0
LINE
  8
0
 62
4
 10
-2.77749969E+02
 20
9.89579219E+01
 11
-2.91249969E+02
 21
9.11636933E+01
  0
LINE
  8
0
 62
4
 10
-2.91249969E+02
 20
9.11636933E+01
 11
-2.91249969E+02
 21
7.55752360E+01
  0
LINE
  8
0
 62
4
 10
-2.91249969E+02
 20
7.55752360E+01
 11
-2.77749969E+02
 21
6.77810074E+01
  0
LINE
  8
0
 62
4
 10
-2.77749969E+02
 20
6.77810074E+01
 11
-2.64249969E+02
 21
7.55752360E+01
  0
LINE
  8
0
 62
4
 10
-2.64249969E+02
 20
7.55752360E+01
 11
-2.64249969E+02
 21
9.11636933E+01
  0
LINE
  8
0
 62
4
 10
-2.64249969E+02
 20
9.11636933E+01
 11
-2.77749969E+02
 21
9.89579219E+01
  0
LINE
  8
0
 62
6
 10
-3.11263102E+02
 20
1.00686743E+02
 11
-3.08749969E+02
 21
1.01129876E+02
  0
LINE
  8
0
 62
6
 10
-3.11784047E+02
 20
1.03641166E+02
 11
-3.08746285E+02
 21
1.04176805E+02
  0
LINE
  8
0
 62
4
 10
-3.11176278E+02
 20
1.00194339E+02
 11
-3.11870871E+02
 21
1.04133570E+02
  0
LINE
  8
0
 62
4
 10
-3.11176278E+02
 20
1.00194339E+02
 11
-3.08749969E+02
 21
1.00622163E+02
  0
LINE
  8
0
 62
4
 10
-3.11870871E+02
 20
1.04133570E+02
 11
-3.08833109E+02
 21
1.04669209E+02
  0
LINE
  8
0
 62
4
 10
-3.09402253E+02
 20
1.07896984E+02
 11
-3.08749969E+02
 21
1.04197700E+02
  0
LINE
  8
0
 62
4
 10
-2.96694256E+02
 20
1.25087296E+02
 11
-3.03587911E+02
 21
1.23871758E+02
  0
LINE
  8
0
 62
4
 10
-3.03587911E+02
 20
1.23871758E+02
 11
-3.07283574E+02
 21
1.13718007E+02
  0
LINE
  8
0
 62
4
 10
-2.95218247E+02
 20
1.16716430E+02
 11
-2.95710651E+02
 21
1.16629606E+02
  0
LINE
  8
0
 62
4
 10
-2.96116231E+02
 20
1.16050378E+02
 11
-2.95819840E+02
 21
1.14369465E+02
  0
ARC
  8
0
 62
4
 10
-2.95623827E+02
 20
1.16137202E+02
 40
5.00000000E-01
 50
9.99999999E+01
 51
1.90000000E+02
  0
LINE
  8
0
  6
CENTER
 62
6
 10
-2.96843510E+02
 20
1.16937565E+02
 11
-2.83993005E+02
 21
1.19203456E+02
  0
LINE
  8
0
  6
CENTER
 62
6
 10
-3.06685146E+02
 20
1.18756213E+02
 11
-2.84600773E+02
 21
1.22650283E+02
  0
LINE
  8
0
 62
4
 10
-2.87925202E+02
 20
1.15666909E+02
 11
-2.87600738E+02
 21
1.16130292E+02
  0
LINE
  8
0
 62
4
 10
-2.87600738E+02
 20
1.16130292E+02
 11
-2.84744796E+02
 21
1.16633871E+02
  0
LINE
  8
0
 62
4
 10
-2.88417606E+02
 20
1.15580085E+02
 11
-2.88204141E+02
 21
1.14369465E+02
  0
LINE
  8
0
 62
4
 10
-2.88417606E+02
 20
1.15580085E+02
 11
-2.87925202E+02
 21
1.15666909E+02
  0
LINE
  8
0
 62
4
 10
-2.96694256E+02
 20
1.25087296E+02
 11
-2.95218247E+02
 21
1.16716430E+02
  0
LINE
  8
0
 62
4
 10
-2.86550737E+02
 20
1.26875872E+02
 11
-2.96694256E+02
 21
1.25087296E+02
  0
LINE
  8
0
 62
4
 10
-2.95612170E+02
 20
1.16646971E+02
 11
-2.95210584E+02
 21
1.14369465E+02
  0
LINE
  8
0
 62
4
 10
-2.85166719E+02
 20
1.15168340E+02
 11
-2.85025855E+02
 21
1.14369465E+02
  0
LINE
  8
0
 62
4
 10
-2.84461010E+02
 20
1.16176197E+02
 11
-2.85166719E+02
 21
1.15168340E+02
  0
LINE
  8
0
 62
4
 10
-2.88400241E+02
 20
1.15481604E+02
 11
-2.87397308E+02
 21
1.14775027E+02
  0
LINE
  8
0
 62
4
 10
-2.87397308E+02
 20
1.14775027E+02
 11
-2.85166719E+02
 21
1.15168340E+02
  0
LINE
  8
0
 62
4
 10
-2.88400241E+02
 20
1.15481604E+02
 11
-2.84461010E+02
 21
1.16176197E+02
  0
LINE
  8
0
 62
4
 10
-2.84461010E+02
 20
1.16176197E+02
 11
-2.84142434E+02
 21
1.14369465E+02
  0
LINE
  8
0
  6
CENTER
 62
6
 10
-2.86604274E+02
 20
1.16813708E+02
 11
-2.86173287E+02
 21
1.14369465E+02
  0
LINE
  8
0
  6
CENTER
 62
6
 10
-2.89037752E+02
 20
1.13338341E+02
 11
-2.83128906E+02
 21
1.14380230E+02
  0
LINE
  8
0
 62
4
 10
-2.86429183E+02
 20
1.26186506E+02
 11
-2.85444375E+02
 21
1.26360155E+02
  0
ARC
  8
0
 62
4
 10
-2.83254133E+02
 20
1.20450708E+02
 40
1.00000000E+00
 50
3.28723662E+02
 51
3.57172490E+02
  0
ARC
  8
0
 62
4
 10
-2.84087645E+02
 20
1.25177786E+02
 40
1.00000000E+00
 50
2.28275100E+01
 51
9.99999999E+01
  0
ARC
  8
0
 62
4
 10
-2.94050973E+02
 20
1.20983958E+02
 40
1.18100000E+01
 50
3.57172490E+02
 51
2.28275100E+01
  0
LINE
  8
0
 62
4
 10
-2.85374916E+02
 20
1.25966232E+02
 11
-2.84262083E+02
 21
1.26162454E+02
  0
LINE
  8
0
 62
4
 10
-2.84897383E+02
 20
1.23258010E+02
 11
-2.85444375E+02
 21
1.26360155E+02
  0
LINE
  8
0
 62
4
 10
-2.84066684E+02
 20
1.14976444E+02
 11
-2.85507964E+02
 21
1.23150348E+02
  0
LINE
  8
0
 62
4
 10
-2.85856144E+02
 20
1.22936641E+02
 11
-2.85481917E+02
 21
1.23002627E+02
  0
LINE
  8
0
 62
4
 10
-2.84269997E+02
 20
1.15092909E+02
 11
-2.84092731E+02
 21
1.15124165E+02
  0
LINE
  8
0
 62
4
 10
-2.85507964E+02
 20
1.23150348E+02
 11
-2.83774702E+02
 21
1.23455969E+02
  0
LINE
  8
0
 62
4
 10
-2.84066684E+02
 20
1.14976444E+02
 11
-2.82333423E+02
 21
1.15282065E+02
  0
ARC
  8
0
 62
4
 10
-2.93947120E+02
 20
1.17456135E+02
 40
1.18100000E+01
 50
9.99999999E+00
 51
3.05326991E+01
  0
ARC
  8
0
 62
4
 10
-2.93944433E+02
 20
1.17440893E+02
 40
1.18100000E+01
 50
3.49467301E+02
 51
9.99999999E+00
  0
LINE
  8
0
 62
4
 10
-2.84657971E+02
 20
1.16141467E+02
 11
-2.86550737E+02
 21
1.26875872E+02
  0
LINE
  8
0
 62
4
 10
-2.44323661E+02
 20
1.00194339E+02
 11
-2.43629068E+02
 21
1.04133570E+02
  0
LINE
  8
0
 62
6
 10
-2.44236836E+02
 20
1.00686743E+02
 11
-2.46750031E+02
 21
1.01129887E+02
  0
LINE
  8
0
 62
6
 10
-2.43715892E+02
 20
1.03641166E+02
 11
-2.46753654E+02
 21
1.04176805E+02
  0
LINE
  8
0
 62
4
 10
-2.44323661E+02
 20
1.00194339E+02
 11
-2.46750031E+02
 21
1.00622173E+02
  0
LINE
  8
0
 62
4
 10
-2.43629068E+02
 20
1.04133570E+02
 11
-2.46666830E+02
 21
1.04669209E+02
  0
LINE
  8
0
  6
CENTER
 62
6
 10
-2.66462187E+02
 20
1.13338341E+02
 11
-2.72309982E+02
 21
1.14369465E+02
  0
LINE
  8
0
  6
CENTER
 62
6
 10
-2.68895665E+02
 20
1.16813708E+02
 11
-2.69326652E+02
 21
1.14369465E+02
  0
LINE
  8
0
 62
4
 10
-2.71038929E+02
 20
1.16176197E+02
 11
-2.71357505E+02
 21
1.14369465E+02
  0
LINE
  8
0
 62
4
 10
-2.67099698E+02
 20
1.15481604E+02
 11
-2.71038929E+02
 21
1.16176197E+02
  0
LINE
  8
0
 62
4
 10
-2.59887769E+02
 20
1.16646971E+02
 11
-2.60289355E+02
 21
1.14369465E+02
  0
LINE
  8
0
 62
4
 10
-2.68949202E+02
 20
1.26875872E+02
 11
-2.58805683E+02
 21
1.25087296E+02
  0
LINE
  8
0
 62
4
 10
-2.58805683E+02
 20
1.25087296E+02
 11
-2.60281692E+02
 21
1.16716430E+02
  0
LINE
  8
0
 62
4
 10
-2.67082333E+02
 20
1.15580085E+02
 11
-2.67574737E+02
 21
1.15666909E+02
  0
LINE
  8
0
 62
4
 10
-2.67082333E+02
 20
1.15580085E+02
 11
-2.67295798E+02
 21
1.14369465E+02
  0
LINE
  8
0
 62
4
 10
-2.67899201E+02
 20
1.16130292E+02
 11
-2.70755143E+02
 21
1.16633871E+02
  0
LINE
  8
0
 62
4
 10
-2.67574737E+02
 20
1.15666909E+02
 11
-2.67899201E+02
 21
1.16130292E+02
  0
LINE
  8
0
  6
CENTER
 62
6
 10
-2.48814793E+02
 20
1.18756213E+02
 11
-2.70899166E+02
 21
1.22650283E+02
  0
LINE
  8
0
  6
CENTER
 62
6
 10
-2.58656429E+02
 20
1.16937565E+02
 11
-2.71506934E+02
 21
1.19203456E+02
  0
LINE
  8
0
  6
CENTER
 62
6
 10
-2.52682021E+02
 20
1.03698997E+02
 11
-2.45216017E+02
 21
1.02382539E+02
  0
ARC
  8
0
 62
4
 10
-2.59876112E+02
 20
1.16137202E+02
 40
5.00000000E-01
 50
3.50000000E+02
 51
7.99999999E+01
  0
LINE
  8
0
 62
4
 10
-2.59383708E+02
 20
1.16050378E+02
 11
-2.59680099E+02
 21
1.14369465E+02
  0
LINE
  8
0
 62
4
 10
-2.60281692E+02
 20
1.16716430E+02
 11
-2.59789288E+02
 21
1.16629606E+02
  0
LINE
  8
0
 62
4
 10
-2.51912028E+02
 20
1.23871758E+02
 11
-2.48216366E+02
 21
1.13718010E+02
  0
LINE
  8
0
 62
4
 10
-2.58805683E+02
 20
1.25087296E+02
 11
-2.51912028E+02
 21
1.23871758E+02
  0
LINE
  8
0
 62
4
 10
-2.46097686E+02
 20
1.07896984E+02
 11
-2.46750031E+02
 21
1.04197353E+02
  0
ARC
  8
0
 62
4
 10
-2.69416610E+02
 20
1.13859285E+02
 40
1.50000000E+00
 50
1.98841649E+01
 51
1.60115835E+02
  0
ARC
  8
0
 62
4
 10
-2.69286374E+02
 20
1.14597891E+02
 40
3.00000000E-01
 50
3.10410364E+02
 51
2.29589636E+02
  0
ARC
  8
0
 62
4
 10
-2.69286374E+02
 20
1.14597891E+02
 40
5.00000000E-01
 50
3.32815800E+02
 51
2.07184200E+02
  0
LINE
  8
0
 62
4
 10
-2.70390482E+02
 20
1.18701968E+02
 11
-2.71375290E+02
 21
1.18875616E+02
  0
LINE
  8
0
 62
4
 10
-2.69070756E+02
 20
1.26186506E+02
 11
-2.70055564E+02
 21
1.26360155E+02
  0
ARC
  8
0
 62
4
 10
-2.72245806E+02
 20
1.20450708E+02
 40
1.00000000E+00
 50
1.82827510E+02
 51
2.60000000E+02
  0
ARC
  8
0
 62
4
 10
-2.71412294E+02
 20
1.25177786E+02
 40
1.00000000E+00
 50
7.99999999E+01
 51
1.57172490E+02
  0
ARC
  8
0
 62
4
 10
-2.61448966E+02
 20
1.20983958E+02
 40
1.18100000E+01
 50
1.57172490E+02
 51
1.82827510E+02
  0
LINE
  8
0
 62
4
 10
-2.71305831E+02
 20
1.19269539E+02
 11
-2.72418664E+02
 21
1.19465761E+02
  0
LINE
  8
0
 62
4
 10
-2.70125023E+02
 20
1.25966232E+02
 11
-2.71237856E+02
 21
1.26162454E+02
  0
LINE
  8
0
 62
4
 10
-2.71375290E+02
 20
1.18875616E+02
 11
-2.70055564E+02
 21
1.26360155E+02
  0
LINE
  8
0
 62
4
 10
-2.71433255E+02
 20
1.14976444E+02
 11
-2.70764709E+02
 21
1.18767954E+02
  0
LINE
  8
0
 62
4
 10
-2.71032981E+02
 20
1.15058179E+02
 11
-2.71407207E+02
 21
1.15124165E+02
  0
LINE
  8
0
 62
4
 10
-2.71433255E+02
 20
1.14976444E+02
 11
-2.73166516E+02
 21
1.15282065E+02
  0
ARC
  8
0
 62
4
 10
-2.61552819E+02
 20
1.17456135E+02
 40
1.18100000E+01
 50
1.67900933E+02
 51
1.70000000E+02
  0
ARC
  8
0
 62
4
 10
-2.61555506E+02
 20
1.17440893E+02
 40
1.18100000E+01
 50
1.70000000E+02
 51
1.90532699E+02
  0
LINE
  8
0
 62
4
 10
-2.71032981E+02
 20
1.15058179E+02
 11
-2.68949202E+02
 21
1.26875872E+02
  0
LINE
  8
0
 62
4
 10
-3.08749969E+02
 20
1.09689118E+02
 11
-3.09402253E+02
 21
1.07896984E+02
  0
LINE
  8
0
 62
4
 10
-2.46750031E+02
 20
1.09689286E+02
 11
-2.46097686E+02
 21
1.07896984E+02
  0
LINE
  8
0
  6
CENTER
 62
6
 10
-2.72309982E+02
 20
1.14369465E+02
 11
-2.72371033E+02
 21
1.14380230E+02
  0
LINE
  8
0
  6
CENTER
 62
6
 10
-2.69326652E+02
 20
1.14369465E+02
 11
-2.69937554E+02
 21
1.10904862E+02
  0
LINE
  8
0
 62
4
 10
-2.87325797E+02
 20
1.14369465E+02
 11
-2.87397308E+02
 21
1.14775027E+02
  0
LINE
  8
0
  6
CENTER
 62
6
 10
-2.86173287E+02
 20
1.14369465E+02
 11
-2.85562384E+02
 21
1.10904862E+02
  0
LINE
  8
0
  6
CENTER
 62
6
 10
-3.10283922E+02
 20
1.02382539E+02
 11
-3.02817918E+02
 21
1.03698997E+02
  0
CIRCLE
  8
0
 62
7
 10
2.95094391E+02
 20
5.98694952E+01
 40
2.45850000E+00
  0
CIRCLE
  8
0
 62
7
 10
2.48094421E+02
 20
5.98694647E+01
 40
2.45850000E+00
  0
CIRCLE
  8
0
 62
7
 10
2.48094391E+02
 20
1.06869434E+02
 40
2.45850000E+00
  0
CIRCLE
  8
0
 62
7
 10
2.95094360E+02
 20
1.06869465E+02
 40
2.45850000E+00
  0
LINE
  8
0
  6
CENTER
 62
2
 10
2.95094452E+02
 20
5.02785070E+01
 11
2.95094452E+02
 21
6.91650427E+01
  0
LINE
  8
0
  6
CENTER
 62
2
 10
2.48094391E+02
 20
1.16847706E+02
 11
2.48094391E+02
 21
9.71450842E+01
  0
LINE
  8
0
 62
7
 10
2.72594452E+02
 20
5.63694952E+01
 11
2.72594452E+02
 21
6.34697149E+01
  0
LINE
  8
0
 62
7
 10
2.72594391E+02
 20
1.10369434E+02
 11
2.72594391E+02
 21
1.03269214E+02
  0
LINE
  8
0
 62
7
 10
2.84958629E+02
 20
6.85912428E+01
 11
2.88910188E+02
 21
6.46396838E+01
  0
LINE
  8
0
 62
7
 10
2.86372853E+02
 20
7.00054457E+01
 11
2.90324412E+02
 21
6.60538867E+01
  0
LINE
  8
0
 62
7
 10
2.61063019E+02
 20
1.11369449E+02
 11
2.82125763E+02
 21
1.11369449E+02
  0
LINE
  8
0
 62
7
 10
2.70594391E+02
 20
1.10369434E+02
 11
2.70594391E+02
 21
1.03269184E+02
  0
LINE
  8
0
 62
7
 10
2.44094452E+02
 20
1.13869434E+02
 11
2.99094391E+02
 21
1.13869465E+02
  0
LINE
  8
0
  6
CENTER
 62
2
 10
2.38141266E+02
 20
1.06869434E+02
 11
2.57843842E+02
 21
1.06869434E+02
  0
LINE
  8
0
 62
7
 10
2.44594452E+02
 20
8.43694494E+01
 11
2.51694672E+02
 21
8.43694494E+01
  0
LINE
  8
0
 62
7
 10
2.56816187E+02
 20
9.67337608E+01
 11
2.52864670E+02
 21
1.00685276E+02
  0
LINE
  8
0
 62
7
 10
2.58230422E+02
 20
9.81479963E+01
 11
2.54278905E+02
 21
1.02099511E+02
  0
LINE
  8
0
 62
7
 10
2.84958619E+02
 20
9.81477261E+01
 11
2.88910200E+02
 21
1.02099307E+02
  0
LINE
  8
0
 62
7
 10
2.86372832E+02
 20
9.67335124E+01
 11
2.90324370E+02
 21
1.00685050E+02
  0
LINE
  8
0
 62
7
 10
2.98594391E+02
 20
8.43694952E+01
 11
2.91494171E+02
 21
8.43694952E+01
  0
LINE
  8
0
 62
7
 10
2.98594391E+02
 20
8.23694952E+01
 11
2.91494171E+02
 21
8.23694952E+01
  0
LINE
  8
0
 62
7
 10
3.02094391E+02
 20
5.58694952E+01
 11
3.02094391E+02
 21
1.10869434E+02
  0
LINE
  8
0
 62
7
 10
2.99594391E+02
 20
7.28381079E+01
 11
2.99594391E+02
 21
9.39008215E+01
  0
LINE
  8
0
 62
7
 10
2.44094452E+02
 20
1.14369465E+02
 11
2.99094391E+02
 21
1.14369465E+02
  0
LINE
  8
0
 62
7
 10
3.02594391E+02
 20
5.58694647E+01
 11
3.02594391E+02
 21
1.10869434E+02
  0
LINE
  8
0
  6
CENTER
 62
2
 10
2.95094391E+02
 20
1.16423145E+02
 11
2.95094391E+02
 21
9.89850958E+01
  0
LINE
  8
0
 62
7
 10
2.70594452E+02
 20
5.63694952E+01
 11
2.70594452E+02
 21
6.34697149E+01
  0
LINE
  8
0
 62
7
 10
2.56816084E+02
 20
7.00053940E+01
 11
2.52864568E+02
 21
6.60538775E+01
  0
LINE
  8
0
 62
7
 10
2.58230297E+02
 20
6.85911374E+01
 11
2.54278760E+02
 21
6.46395993E+01
  0
LINE
  8
0
 62
7
 10
2.44594452E+02
 20
8.23694647E+01
 11
2.51694672E+02
 21
8.23694647E+01
  0
LINE
  8
0
 62
7
 10
2.41094452E+02
 20
5.58694952E+01
 11
2.41094452E+02
 21
1.10869434E+02
  0
LINE
  8
0
 62
7
 10
2.44094452E+02
 20
5.28694799E+01
 11
2.99094391E+02
 21
5.28695104E+01
  0
LINE
  8
0
 62
7
 10
2.44094391E+02
 20
5.23694799E+01
 11
2.99094391E+02
 21
5.23694799E+01
  0
LINE
  8
0
  6
CENTER
 62
2
 10
2.71594391E+02
 20
1.18130115E+02
 11
2.71594391E+02
 21
5.00425909E+01
  0
LINE
  8
0
  6
CENTER
 62
2
 10
2.37908051E+02
 20
5.98694189E+01
 11
2.57610687E+02
 21
5.98694189E+01
  0
LINE
  8
0
 62
7
 10
2.61063019E+02
 20
5.53694799E+01
 11
2.82125763E+02
 21
5.53694799E+01
  0
LINE
  8
0
 62
7
 10
2.49594391E+02
 20
1.14369465E+02
 11
2.49594391E+02
 21
1.13869434E+02
  0
LINE
  8
0
 62
7
 10
2.93594391E+02
 20
1.14369465E+02
 11
2.93594391E+02
 21
1.13869465E+02
  0
LINE
  8
0
 62
7
 10
2.93594391E+02
 20
5.28695104E+01
 11
2.93594391E+02
 21
5.23694799E+01
  0
LINE
  8
0
 62
7
 10
2.49594391E+02
 20
5.28694799E+01
 11
2.49594391E+02
 21
5.23694799E+01
  0
LINE
  8
0
  6
CENTER
 62
2
 10
2.48094452E+02
 20
5.02083929E+01
 11
2.48094452E+02
 21
6.90654562E+01
  0
LINE
  8
0
 62
7
 10
2.43594452E+02
 20
7.28381079E+01
 11
2.43594452E+02
 21
9.39008215E+01
  0
LINE
  8
0
 62
7
 10
2.40594452E+02
 20
5.58694952E+01
 11
2.40594452E+02
 21
1.10869465E+02
  0
LINE
  8
0
 62
7
 10
2.96094391E+02
 20
9.91180609E+01
 11
2.96094391E+02
 21
9.78694494E+01
  0
LINE
  8
0
 62
7
 10
2.87342804E+02
 20
1.07869510E+02
 11
2.86094391E+02
 21
1.07869510E+02
  0
LINE
  8
0
 62
7
 10
2.55845673E+02
 20
1.07869434E+02
 11
2.57094391E+02
 21
1.07869434E+02
  0
LINE
  8
0
 62
7
 10
2.47094391E+02
 20
9.91178167E+01
 11
2.47094391E+02
 21
9.78694494E+01
  0
LINE
  8
0
 62
7
 10
2.96094452E+02
 20
6.76212347E+01
 11
2.96094452E+02
 21
6.88694799E+01
  0
LINE
  8
0
 62
7
 10
2.87343170E+02
 20
5.88695104E+01
 11
2.86094391E+02
 21
5.88695104E+01
  0
LINE
  8
0
 62
7
 10
2.55845978E+02
 20
5.88694189E+01
 11
2.57094391E+02
 21
5.88694189E+01
  0
LINE
  8
0
 62
7
 10
2.47094452E+02
 20
6.76207464E+01
 11
2.47094452E+02
 21
6.88694799E+01
  0
LINE
  8
0
  6
CENTER
 62
2
 10
2.36946503E+02
 20
8.33694647E+01
 11
3.06109467E+02
 21
8.33694647E+01
  0
LINE
  8
0
  6
CENTER
 62
2
 10
2.85707306E+02
 20
1.06869434E+02
 11
3.04826996E+02
 21
1.06869434E+02
  0
LINE
  8
0
  6
CENTER
 62
2
 10
2.86057098E+02
 20
5.98694189E+01
 11
3.04826996E+02
 21
5.98694189E+01
  0
LINE
  8
0
  6
CENTER
 62
2
 10
2.78594513E+02
 20
1.16554523E+02
 11
2.78594513E+02
 21
1.04669254E+02
  0
LINE
  8
0
 62
7
 10
2.48094387E+02
 20
1.10333534E+02
 11
2.45094392E+02
 21
1.08601486E+02
  0
LINE
  8
0
 62
7
 10
2.45094391E+02
 20
1.08601490E+02
 11
2.45094391E+02
 21
1.05137378E+02
  0
LINE
  8
0
 62
7
 10
2.48094391E+02
 20
1.03405331E+02
 11
2.45094389E+02
 21
1.05137383E+02
  0
LINE
  8
0
 62
7
 10
2.51094387E+02
 20
1.05137382E+02
 11
2.48094392E+02
 21
1.03405334E+02
  0
LINE
  8
0
 62
7
 10
2.51094391E+02
 20
1.08601490E+02
 11
2.51094391E+02
 21
1.05137378E+02
  0
LINE
  8
0
 62
7
 10
2.48094389E+02
 20
1.10333535E+02
 11
2.51094391E+02
 21
1.08601483E+02
  0
LINE
  8
0
 62
7
 10
2.48094450E+02
 20
6.33335184E+01
 11
2.45094448E+02
 21
6.16014665E+01
  0
LINE
  8
0
 62
7
 10
2.45094452E+02
 20
6.16014669E+01
 11
2.45094452E+02
 21
5.81373709E+01
  0
LINE
  8
0
 62
7
 10
2.48094450E+02
 20
5.64053150E+01
 11
2.45094448E+02
 21
5.81373668E+01
  0
LINE
  8
0
 62
7
 10
2.51094450E+02
 20
5.81373660E+01
 11
2.48094448E+02
 21
5.64053142E+01
  0
LINE
  8
0
 62
7
 10
2.51094452E+02
 20
6.16014669E+01
 11
2.51094452E+02
 21
5.81373709E+01
  0
LINE
  8
0
 62
7
 10
2.48094452E+02
 20
6.33335258E+01
 11
2.51094454E+02
 21
6.16014739E+01
  0
LINE
  8
0
 62
7
 10
2.95094455E+02
 20
6.33335224E+01
 11
2.92094447E+02
 21
6.16014667E+01
  0
LINE
  8
0
 62
7
 10
2.92094452E+02
 20
6.16014669E+01
 11
2.92094452E+02
 21
5.81373709E+01
  0
LINE
  8
0
 62
7
 10
2.95094453E+02
 20
5.64053214E+01
 11
2.92094455E+02
 21
5.81373713E+01
  0
LINE
  8
0
 62
7
 10
2.98094455E+02
 20
5.81373700E+01
 11
2.95094447E+02
 21
5.64053144E+01
  0
LINE
  8
0
 62
7
 10
2.98094452E+02
 20
6.16014669E+01
 11
2.98094452E+02
 21
5.81373709E+01
  0
LINE
  8
0
 62
7
 10
2.95094455E+02
 20
6.33335236E+01
 11
2.98094453E+02
 21
6.16014737E+01
  0
LINE
  8
0
 62
7
 10
2.95094393E+02
 20
1.10333538E+02
 11
2.92094384E+02
 21
1.08601483E+02
  0
LINE
  8
0
 62
7
 10
2.92094391E+02
 20
1.08601490E+02
 11
2.92094391E+02
 21
1.05137378E+02
  0
LINE
  8
0
 62
7
 10
2.95094389E+02
 20
1.03405331E+02
 11
2.92094391E+02
 21
1.05137381E+02
  0
LINE
  8
0
 62
7
 10
2.98094393E+02
 20
1.05137386E+02
 11
2.95094384E+02
 21
1.03405330E+02
  0
LINE
  8
0
 62
7
 10
2.98094391E+02
 20
1.08601490E+02
 11
2.98094391E+02
 21
1.05137378E+02
  0
LINE
  8
0
 62
7
 10
2.95094391E+02
 20
1.10333533E+02
 11
2.98094389E+02
 21
1.08601483E+02
  0
ARC
  8
0
 62
7
 10
2.87079865E+02
 20
7.07124212E+01
 40
1.00000000E+00
 50
1.40739039E+02
 51
2.25000037E+02
  0
ARC
  8
0
 62
7
 10
2.84251434E+02
 20
6.78839910E+01
 40
1.00000000E+00
 50
4.50000149E+01
 51
1.29261016E+02
  0
ARC
  8
0
 62
7
 10
2.56108917E+02
 20
9.60265081E+01
 40
1.00000000E+00
 50
3.20739045E+02
 51
4.50000423E+01
  0
ARC
  8
0
 62
7
 10
2.58937347E+02
 20
9.88549383E+01
 40
1.00000000E+00
 50
2.25000000E+02
 51
3.09261001E+02
  0
ARC
  8
0
 62
7
 10
2.51694672E+02
 20
8.53694494E+01
 40
1.00000000E+00
 50
2.70000038E+02
 51
3.54260543E+02
  0
ARC
  8
0
 62
7
 10
2.44594452E+02
 20
8.53694647E+01
 40
1.00000000E+00
 50
1.79999991E+02
 51
2.70000028E+02
  0
ARC
  8
0
 62
7
 10
2.44094452E+02
 20
1.10869434E+02
 40
3.00000000E+00
 50
9.00000162E+01
 51
1.80000005E+02
  0
ARC
  8
0
 62
7
 10
2.69594391E+02
 20
1.10369434E+02
 40
1.00000000E+00
 50
3.59721781E-05
 51
9.00000162E+01
  0
ARC
  8
0
 62
7
 10
2.69594391E+02
 20
1.03269184E+02
 40
1.00000000E+00
 50
2.75739515E+02
 51
3.59721781E-05
  0
CIRCLE
  8
0
 62
7
 10
2.48094391E+02
 20
1.06869434E+02
 40
5.00000000E+00
  0
ARC
  8
0
 62
7
 10
2.52157379E+02
 20
9.99780157E+01
 40
1.00000000E+00
 50
4.50006569E+01
 51
1.20522253E+02
  0
ARC
  8
0
 62
7
 10
2.54985809E+02
 20
1.02806415E+02
 40
1.00000000E+00
 50
1.49477556E+02
 51
2.24999381E+02
  0
ARC
  8
0
 62
7
 10
2.99094391E+02
 20
5.58694952E+01
 40
3.00000000E+00
 50
2.70000011E+02
 51
3.59999964E+02
  0
ARC
  8
0
 62
7
 10
2.73594391E+02
 20
5.63694952E+01
 40
1.00000000E+00
 50
1.80000022E+02
 51
2.70000011E+02
  0
ARC
  8
0
 62
7
 10
2.73594391E+02
 20
6.34697454E+01
 40
1.00000000E+00
 50
9.57394995E+01
 51
1.80000032E+02
  0
CIRCLE
  8
0
 62
7
 10
2.95094452E+02
 20
5.98694952E+01
 40
5.00000000E+00
  0
ARC
  8
0
 62
7
 10
2.91031403E+02
 20
6.67609136E+01
 40
1.00000000E+00
 50
2.25000642E+02
 51
3.00522242E+02
  0
ARC
  8
0
 62
7
 10
2.88202972E+02
 20
6.39325140E+01
 40
1.00000000E+00
 50
3.29477575E+02
 51
4.49993865E+01
  0
ARC
  8
0
 62
7
 10
2.44094452E+02
 20
1.10869465E+02
 40
3.50000000E+00
 50
9.00000162E+01
 51
1.80000005E+02
  0
CIRCLE
  8
0
 62
7
 10
2.48094391E+02
 20
1.06869434E+02
 40
4.50000000E+00
  0
ARC
  8
0
 62
7
 10
2.99094391E+02
 20
5.58694647E+01
 40
3.50000000E+00
 50
2.70000011E+02
 51
3.59999964E+02
  0
CIRCLE
  8
0
 62
7
 10
2.95094452E+02
 20
5.98694952E+01
 40
4.50000000E+00
  0
ARC
  8
0
 62
7
 10
2.44594452E+02
 20
9.39008215E+01
 40
1.00000000E+00
 50
9.71808057E+01
 51
1.80000005E+02
  0
ARC
  8
0
 62
7
 10
2.44094452E+02
 20
9.78694494E+01
 40
3.00000000E+00
 50
2.77180780E+02
 51
1.86693353E-05
  0
ARC
  8
0
 62
7
 10
2.48063080E+02
 20
9.88695410E+01
 40
1.00000000E+00
 50
8.97744765E+01
 51
1.72821039E+02
  0
ARC
  8
0
 62
7
 10
2.48094452E+02
 20
1.06869480E+02
 40
7.00000000E+00
 50
2.69775448E+02
 51
2.24721868E-01
  0
ARC
  8
0
 62
7
 10
2.56094391E+02
 20
1.06900852E+02
 40
1.00000000E+00
 50
9.71808057E+01
 51
1.80224691E+02
  0
ARC
  8
0
 62
7
 10
2.57094391E+02
 20
1.10869480E+02
 40
3.00000000E+00
 50
2.69999984E+02
 51
3.52818976E+02
  0
ARC
  8
0
 62
7
 10
2.61063019E+02
 20
1.10369449E+02
 40
1.00000000E+00
 50
9.00000162E+01
 51
1.72818444E+02
  0
ARC
  8
0
 62
7
 10
2.98594391E+02
 20
7.28381079E+01
 40
1.00000000E+00
 50
2.77180773E+02
 51
3.59999964E+02
  0
ARC
  8
0
 62
7
 10
2.99094391E+02
 20
6.88694799E+01
 40
3.00000000E+00
 50
9.71807582E+01
 51
1.80000005E+02
  0
ARC
  8
0
 62
7
 10
2.95125763E+02
 20
6.78693884E+01
 40
1.00000000E+00
 50
2.69774444E+02
 51
3.52820998E+02
  0
ARC
  8
0
 62
7
 10
2.95094391E+02
 20
5.98694494E+01
 40
7.00000000E+00
 50
8.97754191E+01
 51
1.80224691E+02
  0
ARC
  8
0
 62
7
 10
2.87094452E+02
 20
5.98380773E+01
 40
1.00000000E+00
 50
2.77180794E+02
 51
2.24667227E-01
  0
ARC
  8
0
 62
7
 10
2.86094391E+02
 20
5.58694494E+01
 40
3.00000000E+00
 50
9.00000162E+01
 51
1.72818963E+02
  0
ARC
  8
0
 62
7
 10
2.82125763E+02
 20
5.63694799E+01
 40
1.00000000E+00
 50
2.69999984E+02
 51
3.52818403E+02
  0
ARC
  8
0
 62
7
 10
2.87079865E+02
 20
9.60264929E+01
 40
1.00000000E+00
 50
1.35000014E+02
 51
2.19261011E+02
  0
ARC
  8
0
 62
7
 10
2.84251434E+02
 20
9.88549230E+01
 40
1.00000000E+00
 50
2.30739011E+02
 51
3.15000026E+02
  0
ARC
  8
0
 62
7
 10
2.91494171E+02
 20
8.53694647E+01
 40
1.00000000E+00
 50
1.85739485E+02
 51
2.70000038E+02
  0
ARC
  8
0
 62
7
 10
2.91494171E+02
 20
8.13694647E+01
 40
1.00000000E+00
 50
9.00000437E+01
 51
1.74260556E+02
  0
CIRCLE
  8
0
 62
7
 10
2.95094391E+02
 20
1.06869480E+02
 40
5.00000000E+00
  0
ARC
  8
0
 62
7
 10
2.88202972E+02
 20
1.02806461E+02
 40
1.00000000E+00
 50
3.15000662E+02
 51
3.05222541E+01
  0
ARC
  8
0
 62
7
 10
2.73594391E+02
 20
1.10369434E+02
 40
1.00000000E+00
 50
9.00000025E+01
 51
1.80000046E+02
  0
ARC
  8
0
 62
7
 10
2.73594391E+02
 20
1.03269184E+02
 40
1.00000000E+00
 50
1.80000036E+02
 51
2.64260384E+02
  0
ARC
  8
0
 62
7
 10
2.98594391E+02
 20
8.53694647E+01
 40
1.00000000E+00
 50
2.70000052E+02
 51
3.59721781E-05
  0
ARC
  8
0
 62
7
 10
2.95094391E+02
 20
1.06869480E+02
 40
7.00000000E+00
 50
1.79775319E+02
 51
2.70224577E+02
  0
ARC
  8
0
 62
7
 10
2.91031342E+02
 20
9.99780310E+01
 40
1.00000000E+00
 50
5.94775673E+01
 51
1.34999386E+02
  0
ARC
  8
0
 62
7
 10
2.99094391E+02
 20
1.10869419E+02
 40
3.00000000E+00
 50
2.23117997E-05
 51
8.99999750E+01
  0
ARC
  8
0
 62
7
 10
2.98594391E+02
 20
8.13694647E+01
 40
1.00000000E+00
 50
8.65142224E-06
 51
9.00000437E+01
  0
ARC
  8
0
 62
7
 10
2.99094391E+02
 20
1.10869419E+02
 40
3.50000000E+00
 50
2.23117997E-05
 51
8.99999750E+01
  0
CIRCLE
  8
0
 62
7
 10
2.95094391E+02
 20
1.06869480E+02
 40
4.50000000E+00
  0
ARC
  8
0
 62
7
 10
2.99094391E+02
 20
9.78694494E+01
 40
3.00000000E+00
 50
1.79999991E+02
 51
2.62819259E+02
  0
ARC
  8
0
 62
7
 10
2.86094391E+02
 20
1.10869480E+02
 40
3.00000000E+00
 50
1.87181037E+02
 51
2.69999984E+02
  0
ARC
  8
0
 62
7
 10
2.82125763E+02
 20
1.10369449E+02
 40
1.00000000E+00
 50
7.18159727E+00
 51
9.00000162E+01
  0
ARC
  8
0
 62
7
 10
2.87094452E+02
 20
1.06900852E+02
 40
1.00000000E+00
 50
3.59775350E+02
 51
8.28192267E+01
  0
ARC
  8
0
 62
7
 10
2.95125763E+02
 20
9.88695410E+01
 40
1.00000000E+00
 50
7.17900183E+00
 51
9.02255559E+01
  0
ARC
  8
0
 62
7
 10
2.98594391E+02
 20
9.39008215E+01
 40
1.00000000E+00
 50
3.59721781E-05
 51
8.28192267E+01
  0
ARC
  8
0
 62
7
 10
2.69594391E+02
 20
6.34697149E+01
 40
1.00000000E+00
 50
4.96325564E-05
 51
8.42605536E+01
  0
ARC
  8
0
 62
7
 10
2.58937347E+02
 20
6.78840063E+01
 40
1.00000000E+00
 50
5.07390404E+01
 51
1.35000041E+02
  0
ARC
  8
0
 62
7
 10
2.56108917E+02
 20
7.07124365E+01
 40
1.00000000E+00
 50
3.15000019E+02
 51
3.92610168E+01
  0
ARC
  8
0
 62
7
 10
2.51694672E+02
 20
8.13694647E+01
 40
1.00000000E+00
 50
5.73949849E+00
 51
9.00000300E+01
  0
ARC
  8
0
 62
7
 10
2.69594391E+02
 20
5.63694952E+01
 40
1.00000000E+00
 50
2.69999998E+02
 51
4.96325564E-05
  0
ARC
  8
0
 62
7
 10
2.44094452E+02
 20
5.58694952E+01
 40
3.00000000E+00
 50
1.80000008E+02
 51
2.69999984E+02
  0
ARC
  8
0
 62
7
 10
2.44594452E+02
 20
8.13694647E+01
 40
1.00000000E+00
 50
9.00000300E+01
 51
1.80000019E+02
  0
CIRCLE
  8
0
 62
7
 10
2.48094452E+02
 20
5.98694342E+01
 40
5.00000000E+00
  0
ARC
  8
0
 62
7
 10
2.54985870E+02
 20
6.39324530E+01
 40
1.00000000E+00
 50
1.35000656E+02
 51
2.10522249E+02
  0
ARC
  8
0
 62
7
 10
2.52157440E+02
 20
6.67608831E+01
 40
1.00000000E+00
 50
2.39477556E+02
 51
3.14999370E+02
  0
ARC
  8
0
 62
7
 10
2.44094391E+02
 20
5.58694952E+01
 40
3.50000000E+00
 50
1.80000008E+02
 51
2.69999984E+02
  0
CIRCLE
  8
0
 62
7
 10
2.48094452E+02
 20
5.98694342E+01
 40
4.50000000E+00
  0
ARC
  8
0
 62
7
 10
2.61063019E+02
 20
5.63694799E+01
 40
1.00000000E+00
 50
1.87181557E+02
 51
2.69999984E+02
  0
ARC
  8
0
 62
7
 10
2.57094391E+02
 20
5.58694494E+01
 40
3.00000000E+00
 50
7.18102357E+00
 51
9.00000162E+01
  0
ARC
  8
0
 62
7
 10
2.56094391E+02
 20
5.98380773E+01
 40
1.00000000E+00
 50
1.79775319E+02
 51
2.62819204E+02
  0
ARC
  8
0
 62
7
 10
2.48094452E+02
 20
5.98694494E+01
 40
7.00000000E+00
 50
3.59775295E+02
 51
9.02245653E+01
  0
ARC
  8
0
 62
7
 10
2.48063080E+02
 20
6.78693884E+01
 40
1.00000000E+00
 50
1.87178961E+02
 51
2.70225524E+02
  0
ARC
  8
0
 62
7
 10
2.44094452E+02
 20
6.88694799E+01
 40
3.00000000E+00
 50
3.59721781E-05
 51
8.28192198E+01
  0
ARC
  8
0
 62
7
 10
2.44594452E+02
 20
7.28381079E+01
 40
1.00000000E+00
 50
1.79999991E+02
 51
2.62819204E+02
  0
CIRCLE
  8
0
 62
7
 10
2.71594391E+02
 20
8.33694647E+01
 40
1.90000000E+01
  0
CIRCLE
  8
0
 62
2
 10
2.95094391E+02
 20
1.06869434E+02
 40
3.00000000E+00
  0
CIRCLE
  8
0
 62
2
 10
2.95094452E+02
 20
5.98694189E+01
 40
3.00000000E+00
  0
CIRCLE
  8
0
 62
2
 10
2.48094452E+02
 20
5.98694189E+01
 40
3.00000000E+00
  0
CIRCLE
  8
0
 62
2
 10
2.48094391E+02
 20
1.06869434E+02
 40
3.00000000E+00
  0
CIRCLE
  8
0
 62
7
 10
2.71594391E+02
 20
8.33694647E+01
 40
6.99998474E+00
  0
CIRCLE
  8
0
 62
2
 10
2.71594391E+02
 20
8.33694647E+01
 40
6.17999268E+00
  0
CIRCLE
  8
0
 62
7
 10
2.71594391E+02
 20
8.33694647E+01
 40
1.75294495E+01
  0
CIRCLE
  8
0
 62
7
 10
2.71594391E+02
 20
8.33694647E+01
 40
1.70000000E+01
  0
CIRCLE
  8
0
 62
4
 10
2.71594391E+02
 20
8.33694647E+01
 40
1.35000000E+01
  0
LINE
  8
0
 62
4
 10
2.71594391E+02
 20
9.89579219E+01
 11
2.58094391E+02
 21
9.11636933E+01
  0
LINE
  8
0
 62
4
 10
2.58094391E+02
 20
9.11636933E+01
 11
2.58094391E+02
 21
7.55752360E+01
  0
LINE
  8
0
 62
4
 10
2.58094391E+02
 20
7.55752360E+01
 11
2.71594391E+02
 21
6.77810074E+01
  0
LINE
  8
0
 62
4
 10
2.71594391E+02
 20
6.77810074E+01
 11
2.85094391E+02
 21
7.55752360E+01
  0
LINE
  8
0
 62
4
 10
2.85094391E+02
 20
7.55752360E+01
 11
2.85094391E+02
 21
9.11636933E+01
  0
LINE
  8
0
 62
4
 10
2.85094391E+02
 20
9.11636933E+01
 11
2.71594391E+02
 21
9.89579219E+01
  0
LINE
  8
0
 62
6
 10
2.38081258E+02
 20
1.00686743E+02
 11
2.40594391E+02
 21
1.01129876E+02
  0
LINE
  8
0
 62
6
 10
2.37560313E+02
 20
1.03641166E+02
 11
2.40598075E+02
 21
1.04176805E+02
  0
LINE
  8
0
 62
4
 10
2.38168082E+02
 20
1.00194339E+02
 11
2.37473489E+02
 21
1.04133570E+02
  0
LINE
  8
0
 62
4
 10
2.38168082E+02
 20
1.00194339E+02
 11
2.40594391E+02
 21
1.00622163E+02
  0
LINE
  8
0
 62
4
 10
2.37473489E+02
 20
1.04133570E+02
 11
2.40511251E+02
 21
1.04669209E+02
  0
LINE
  8
0
 62
4
 10
2.39942107E+02
 20
1.07896984E+02
 11
2.40594391E+02
 21
1.04197700E+02
  0
LINE
  8
0
 62
4
 10
2.52650104E+02
 20
1.25087296E+02
 11
2.45756450E+02
 21
1.23871758E+02
  0
LINE
  8
0
 62
4
 10
2.45756450E+02
 20
1.23871758E+02
 11
2.42060786E+02
 21
1.13718007E+02
  0
LINE
  8
0
 62
4
 10
2.54126113E+02
 20
1.16716430E+02
 11
2.53633710E+02
 21
1.16629606E+02
  0
LINE
  8
0
 62
4
 10
2.53228130E+02
 20
1.16050378E+02
 11
2.53524520E+02
 21
1.14369465E+02
  0
ARC
  8
0
 62
4
 10
2.53720534E+02
 20
1.16137202E+02
 40
5.00000000E-01
 50
9.99999999E+01
 51
1.90000000E+02
  0
LINE
  8
0
  6
CENTER
 62
6
 10
2.52500850E+02
 20
1.16937565E+02
 11
2.65351356E+02
 21
1.19203456E+02
  0
LINE
  8
0
  6
CENTER
 62
6
 10
2.42659215E+02
 20
1.18756213E+02
 11
2.64743587E+02
 21
1.22650283E+02
  0
LINE
  8
0
 62
4
 10
2.61419159E+02
 20
1.15666909E+02
 11
2.61743622E+02
 21
1.16130292E+02
  0
LINE
  8
0
 62
4
 10
2.61743622E+02
 20
1.16130292E+02
 11
2.64599565E+02
 21
1.16633871E+02
  0
LINE
  8
0
 62
4
 10
2.60926755E+02
 20
1.15580085E+02
 11
2.61140220E+02
 21
1.14369465E+02
  0
LINE
  8
0
 62
4
 10
2.60926755E+02
 20
1.15580085E+02
 11
2.61419159E+02
 21
1.15666909E+02
  0
LINE
  8
0
 62
4
 10
2.52650104E+02
 20
1.25087296E+02
 11
2.54126113E+02
 21
1.16716430E+02
  0
LINE
  8
0
 62
4
 10
2.62793624E+02
 20
1.26875872E+02
 11
2.52650104E+02
 21
1.25087296E+02
  0
LINE
  8
0
 62
4
 10
2.53732190E+02
 20
1.16646971E+02
 11
2.54133776E+02
 21
1.14369465E+02
  0
LINE
  8
0
 62
4
 10
2.64177642E+02
 20
1.15168340E+02
 11
2.64318505E+02
 21
1.14369465E+02
  0
LINE
  8
0
 62
4
 10
2.64883350E+02
 20
1.16176197E+02
 11
2.64177642E+02
 21
1.15168340E+02
  0
LINE
  8
0
 62
4
 10
2.60944119E+02
 20
1.15481604E+02
 11
2.61947052E+02
 21
1.14775027E+02
  0
LINE
  8
0
 62
4
 10
2.61947052E+02
 20
1.14775027E+02
 11
2.64177642E+02
 21
1.15168340E+02
  0
LINE
  8
0
 62
4
 10
2.60944119E+02
 20
1.15481604E+02
 11
2.64883350E+02
 21
1.16176197E+02
  0
LINE
  8
0
 62
4
 10
2.64883350E+02
 20
1.16176197E+02
 11
2.65201926E+02
 21
1.14369465E+02
  0
LINE
  8
0
  6
CENTER
 62
6
 10
2.62740087E+02
 20
1.16813708E+02
 11
2.63171073E+02
 21
1.14369465E+02
  0
LINE
  8
0
  6
CENTER
 62
6
 10
2.60306608E+02
 20
1.13338341E+02
 11
2.66215455E+02
 21
1.14380230E+02
  0
LINE
  8
0
 62
4
 10
2.62915178E+02
 20
1.26186506E+02
 11
2.63899985E+02
 21
1.26360155E+02
  0
ARC
  8
0
 62
4
 10
2.66090227E+02
 20
1.20450708E+02
 40
1.00000000E+00
 50
3.28723662E+02
 51
3.57172490E+02
  0
ARC
  8
0
 62
4
 10
2.65256716E+02
 20
1.25177786E+02
 40
1.00000000E+00
 50
2.28275100E+01
 51
9.99999999E+01
  0
ARC
  8
0
 62
4
 10
2.55293387E+02
 20
1.20983958E+02
 40
1.18100000E+01
 50
3.57172490E+02
 51
2.28275100E+01
  0
LINE
  8
0
 62
4
 10
2.63969445E+02
 20
1.25966232E+02
 11
2.65082277E+02
 21
1.26162454E+02
  0
LINE
  8
0
 62
4
 10
2.64446977E+02
 20
1.23258010E+02
 11
2.63899985E+02
 21
1.26360155E+02
  0
LINE
  8
0
 62
4
 10
2.65277676E+02
 20
1.14976444E+02
 11
2.63836396E+02
 21
1.23150348E+02
  0
LINE
  8
0
 62
4
 10
2.63488216E+02
 20
1.22936641E+02
 11
2.63862443E+02
 21
1.23002627E+02
  0
LINE
  8
0
 62
4
 10
2.65074363E+02
 20
1.15092909E+02
 11
2.65251629E+02
 21
1.15124165E+02
  0
LINE
  8
0
 62
4
 10
2.63836396E+02
 20
1.23150348E+02
 11
2.65569658E+02
 21
1.23455969E+02
  0
LINE
  8
0
 62
4
 10
2.65277676E+02
 20
1.14976444E+02
 11
2.67010938E+02
 21
1.15282065E+02
  0
ARC
  8
0
 62
4
 10
2.55397240E+02
 20
1.17456135E+02
 40
1.18100000E+01
 50
9.99999999E+00
 51
3.05326991E+01
  0
ARC
  8
0
 62
4
 10
2.55399927E+02
 20
1.17440893E+02
 40
1.18100000E+01
 50
3.49467301E+02
 51
9.99999999E+00
  0
LINE
  8
0
 62
4
 10
2.64686389E+02
 20
1.16141467E+02
 11
2.62793624E+02
 21
1.26875872E+02
  0
LINE
  8
0
 62
4
 10
3.05020700E+02
 20
1.00194339E+02
 11
3.05715292E+02
 21
1.04133570E+02
  0
LINE
  8
0
 62
6
 10
3.05107524E+02
 20
1.00686743E+02
 11
3.02594330E+02
 21
1.01129887E+02
  0
LINE
  8
0
 62
6
 10
3.05628468E+02
 20
1.03641166E+02
 11
3.02590707E+02
 21
1.04176805E+02
  0
LINE
  8
0
 62
4
 10
3.05020700E+02
 20
1.00194339E+02
 11
3.02594330E+02
 21
1.00622173E+02
  0
LINE
  8
0
 62
4
 10
3.05715292E+02
 20
1.04133570E+02
 11
3.02677531E+02
 21
1.04669209E+02
  0
LINE
  8
0
  6
CENTER
 62
6
 10
2.82882174E+02
 20
1.13338341E+02
 11
2.77034379E+02
 21
1.14369465E+02
  0
LINE
  8
0
  6
CENTER
 62
6
 10
2.80448695E+02
 20
1.16813708E+02
 11
2.80017709E+02
 21
1.14369465E+02
  0
LINE
  8
0
 62
4
 10
2.78305431E+02
 20
1.16176197E+02
 11
2.77986856E+02
 21
1.14369465E+02
  0
LINE
  8
0
 62
4
 10
2.82244662E+02
 20
1.15481604E+02
 11
2.78305431E+02
 21
1.16176197E+02
  0
LINE
  8
0
 62
4
 10
2.89456591E+02
 20
1.16646971E+02
 11
2.89055006E+02
 21
1.14369465E+02
  0
LINE
  8
0
 62
4
 10
2.80395158E+02
 20
1.26875872E+02
 11
2.90538678E+02
 21
1.25087296E+02
  0
LINE
  8
0
 62
4
 10
2.90538678E+02
 20
1.25087296E+02
 11
2.89062668E+02
 21
1.16716430E+02
  0
LINE
  8
0
 62
4
 10
2.82262027E+02
 20
1.15580085E+02
 11
2.81769623E+02
 21
1.15666909E+02
  0
LINE
  8
0
 62
4
 10
2.82262027E+02
 20
1.15580085E+02
 11
2.82048562E+02
 21
1.14369465E+02
  0
LINE
  8
0
 62
4
 10
2.81445159E+02
 20
1.16130292E+02
 11
2.78589217E+02
 21
1.16633871E+02
  0
LINE
  8
0
 62
4
 10
2.81769623E+02
 20
1.15666909E+02
 11
2.81445159E+02
 21
1.16130292E+02
  0
LINE
  8
0
  6
CENTER
 62
6
 10
3.00529567E+02
 20
1.18756213E+02
 11
2.78445195E+02
 21
1.22650283E+02
  0
LINE
  8
0
  6
CENTER
 62
6
 10
2.90687931E+02
 20
1.16937565E+02
 11
2.77837426E+02
 21
1.19203456E+02
  0
LINE
  8
0
  6
CENTER
 62
6
 10
2.96662339E+02
 20
1.03698997E+02
 11
3.04128343E+02
 21
1.02382539E+02
  0
ARC
  8
0
 62
4
 10
2.89468248E+02
 20
1.16137202E+02
 40
5.00000000E-01
 50
3.50000000E+02
 51
7.99999999E+01
  0
LINE
  8
0
 62
4
 10
2.89960652E+02
 20
1.16050378E+02
 11
2.89664262E+02
 21
1.14369465E+02
  0
LINE
  8
0
 62
4
 10
2.89062668E+02
 20
1.16716430E+02
 11
2.89555072E+02
 21
1.16629606E+02
  0
LINE
  8
0
 62
4
 10
2.97432332E+02
 20
1.23871758E+02
 11
3.01127994E+02
 21
1.13718010E+02
  0
LINE
  8
0
 62
4
 10
2.90538678E+02
 20
1.25087296E+02
 11
2.97432332E+02
 21
1.23871758E+02
  0
LINE
  8
0
 62
4
 10
3.03246675E+02
 20
1.07896984E+02
 11
3.02594330E+02
 21
1.04197353E+02
  0
ARC
  8
0
 62
4
 10
2.79927750E+02
 20
1.13859285E+02
 40
1.50000000E+00
 50
1.98841649E+01
 51
1.60115835E+02
  0
ARC
  8
0
 62
4
 10
2.80057987E+02
 20
1.14597891E+02
 40
3.00000000E-01
 50
3.10410364E+02
 51
2.29589636E+02
  0
ARC
  8
0
 62
4
 10
2.80057987E+02
 20
1.14597891E+02
 40
5.00000000E-01
 50
3.32815800E+02
 51
2.07184200E+02
  0
LINE
  8
0
 62
4
 10
2.78953878E+02
 20
1.18701968E+02
 11
2.77969070E+02
 21
1.18875616E+02
  0
LINE
  8
0
 62
4
 10
2.80273604E+02
 20
1.26186506E+02
 11
2.79288796E+02
 21
1.26360155E+02
  0
ARC
  8
0
 62
4
 10
2.77098555E+02
 20
1.20450708E+02
 40
1.00000000E+00
 50
1.82827510E+02
 51
2.60000000E+02
  0
ARC
  8
0
 62
4
 10
2.77932066E+02
 20
1.25177786E+02
 40
1.00000000E+00
 50
7.99999999E+01
 51
1.57172490E+02
  0
ARC
  8
0
 62
4
 10
2.87895394E+02
 20
1.20983958E+02
 40
1.18100000E+01
 50
1.57172490E+02
 51
1.82827510E+02
  0
LINE
  8
0
 62
4
 10
2.78038530E+02
 20
1.19269539E+02
 11
2.76925697E+02
 21
1.19465761E+02
  0
LINE
  8
0
 62
4
 10
2.79219337E+02
 20
1.25966232E+02
 11
2.78106504E+02
 21
1.26162454E+02
  0
LINE
  8
0
 62
4
 10
2.77969070E+02
 20
1.18875616E+02
 11
2.79288796E+02
 21
1.26360155E+02
  0
LINE
  8
0
 62
4
 10
2.77911106E+02
 20
1.14976444E+02
 11
2.78579651E+02
 21
1.18767954E+02
  0
LINE
  8
0
 62
4
 10
2.78311380E+02
 20
1.15058179E+02
 11
2.77937153E+02
 21
1.15124165E+02
  0
LINE
  8
0
 62
4
 10
2.77911106E+02
 20
1.14976444E+02
 11
2.76177844E+02
 21
1.15282065E+02
  0
ARC
  8
0
 62
4
 10
2.87791542E+02
 20
1.17456135E+02
 40
1.18100000E+01
 50
1.67900933E+02
 51
1.70000000E+02
  0
ARC
  8
0
 62
4
 10
2.87788854E+02
 20
1.17440893E+02
 40
1.18100000E+01
 50
1.70000000E+02
 51
1.90532699E+02
  0
LINE
  8
0
 62
4
 10
2.78311380E+02
 20
1.15058179E+02
 11
2.80395158E+02
 21
1.26875872E+02
  0
LINE
  8
0
 62
4
 10
2.40594391E+02
 20
1.09689118E+02
 11
2.39942107E+02
 21
1.07896984E+02
  0
LINE
  8
0
 62
4
 10
3.02594330E+02
 20
1.09689286E+02
 11
3.03246675E+02
 21
1.07896984E+02
  0
LINE
  8
0
  6
CENTER
 62
6
 10
2.77034379E+02
 20
1.14369465E+02
 11
2.76973327E+02
 21
1.14380230E+02
  0
LINE
  8
0
  6
CENTER
 62
6
 10
2.80017709E+02
 20
1.14369465E+02
 11
2.79406806E+02
 21
1.10904862E+02
  0
LINE
  8
0
 62
4
 10
2.62018564E+02
 20
1.14369465E+02
 11
2.61947052E+02
 21
1.14775027E+02
  0
LINE
  8
0
  6
CENTER
 62
6
 10
2.63171073E+02
 20
1.14369465E+02
 11
2.63781976E+02
 21
1.10904862E+02
  0
LINE
  8
0
  6
CENTER
 62
6
 10
2.39060438E+02
 20
1.02382539E+02
 11
2.46526443E+02
 21
1.03698997E+02
  0
LINE
  8
0
  6
PHANTOM
 10
-2.92500000E+01
 20
2.42628397E+02
 11
-2.92500000E+01
 21
1.44340553E+02
  0
LINE
  8
0
  6
PHANTOM
 10
9.87499847E+01
 20
2.42628397E+02
 11
9.87499847E+01
 21
1.45261512E+02
  0
LINE
  8
0
  6
CENTER
 62
2
 10
-1.75283264E+02
 20
2.03369465E+02
 11
1.65389540E+02
 21
2.03369465E+02
  0
LINE
  8
0
 62
7
 10
-1.17249985E+02
 20
2.21869465E+02
 11
-1.17249985E+02
 21
1.84869495E+02
  0
LINE
  8
0
 62
7
 10
-1.25249985E+02
 20
2.20369495E+02
 11
-1.25249985E+02
 21
1.86369495E+02
  0
LINE
  8
0
 62
7
 10
-1.16750000E+02
 20
2.22369465E+02
 11
-1.15250000E+02
 21
2.22369465E+02
  0
LINE
  8
0
 62
7
 10
-1.29750000E+02
 20
2.20369465E+02
 11
-1.25241455E+02
 21
2.20369465E+02
  0
LINE
  8
0
 62
7
 10
-1.25250000E+02
 20
2.20369465E+02
 11
-1.25250000E+02
 21
2.20378010E+02
  0
LINE
  8
0
 62
7
 10
-1.25008727E+02
 20
2.20628053E+02
 11
-1.17250028E+02
 21
2.20898993E+02
  0
LINE
  8
0
 62
7
 10
-1.30250000E+02
 20
2.19869434E+02
 11
-1.30250000E+02
 21
1.86869495E+02
  0
LINE
  8
0
 62
7
 10
-1.16750000E+02
 20
1.84369465E+02
 11
-1.15250000E+02
 21
1.84369465E+02
  0
LINE
  8
0
 62
7
 10
-1.29750000E+02
 20
1.86369465E+02
 11
-1.25241455E+02
 21
1.86369465E+02
  0
LINE
  8
0
 62
7
 10
-1.25250000E+02
 20
1.86369465E+02
 11
-1.25250000E+02
 21
1.86360920E+02
  0
LINE
  8
0
 62
7
 10
-1.25008754E+02
 20
1.86111046E+02
 11
-1.17250055E+02
 21
1.85840106E+02
  0
LINE
  8
0
 62
7
 10
-1.15250000E+02
 20
2.33583957E+02
 11
-1.15250000E+02
 21
1.73155048E+02
  0
LINE
  8
0
  6
CENTER
 62
2
 10
-9.12500153E+01
 20
1.83898304E+02
 11
-9.12500153E+01
 21
2.00487308E+02
  0
LINE
  8
0
  6
CENTER
 62
2
 10
-1.00095276E+02
 20
1.91369434E+02
 11
-8.26207581E+01
 21
1.91369434E+02
  0
LINE
  8
0
 62
7
 10
-1.15250003E+02
 20
2.33584071E+02
 11
-8.42499791E+01
 21
2.34395835E+02
  0
LINE
  8
0
 62
7
 10
-1.10250000E+02
 20
1.83369434E+02
 11
-1.10250000E+02
 21
2.23369434E+02
  0
LINE
  8
0
  6
CENTER
 62
2
 10
-9.72500458E+01
 20
1.99127338E+02
 11
-9.72500458E+01
 21
2.22713749E+02
  0
LINE
  8
0
  6
CENTER
 62
2
 10
-1.06660172E+02
 20
2.10369373E+02
 11
-8.73015442E+01
 21
2.10369373E+02
  0
LINE
  8
0
 62
7
 10
-8.42500000E+01
 20
2.34395725E+02
 11
-8.42500000E+01
 21
1.72369465E+02
  0
LINE
  8
0
 62
7
 10
-1.15250030E+02
 20
1.73155010E+02
 11
-8.42500054E+01
 21
1.72343246E+02
  0
LINE
  8
0
 62
7
 10
-1.08250000E+02
 20
2.25369434E+02
 11
-8.42500000E+01
 21
2.25369434E+02
  0
LINE
  8
0
 62
7
 10
-1.08250000E+02
 20
1.81369434E+02
 11
-8.42500000E+01
 21
1.81369434E+02
  0
LINE
  8
0
 62
7
 10
-1.04058395E+02
 20
2.13369373E+02
 11
-9.04416962E+01
 21
2.13369373E+02
  0
LINE
  8
0
 62
7
 10
5.47499847E+01
 20
1.84869404E+02
 11
5.47499847E+01
 21
2.21869373E+02
  0
LINE
  8
0
 62
7
 10
5.42500000E+01
 20
1.84369404E+02
 11
5.27500000E+01
 21
1.84369404E+02
  0
LINE
  8
0
 62
7
 10
5.42500000E+01
 20
2.22369404E+02
 11
5.27500000E+01
 21
2.22369404E+02
  0
LINE
  8
0
 62
7
 10
5.27500000E+01
 20
1.73154911E+02
 11
5.27500000E+01
 21
2.33583835E+02
  0
LINE
  8
0
 62
7
 10
5.27500077E+01
 20
1.73154887E+02
 11
2.17499682E+01
 21
1.72343123E+02
  0
LINE
  8
0
 62
7
 10
4.77500000E+01
 20
2.23369434E+02
 11
4.77500000E+01
 21
1.83369434E+02
  0
LINE
  8
0
 62
7
 10
2.17500000E+01
 20
1.72343143E+02
 11
2.17500000E+01
 21
2.34369419E+02
  0
LINE
  8
0
 62
7
 10
5.27500043E+01
 20
2.33583903E+02
 11
2.17499876E+01
 21
2.34395667E+02
  0
LINE
  8
0
 62
7
 10
4.57500000E+01
 20
1.81369434E+02
 11
2.17500000E+01
 21
1.81369434E+02
  0
LINE
  8
0
 62
7
 10
4.57500000E+01
 20
2.25369434E+02
 11
2.17500000E+01
 21
2.25369434E+02
  0
LINE
  8
0
  6
CENTER
 62
2
 10
5.49769897E+01
 20
1.79869480E+02
 11
-1.17353455E+02
 21
1.79869480E+02
  0
LINE
  8
0
 62
7
 10
2.17500000E+01
 20
1.82519474E+02
 11
2.50000000E-01
 21
1.82519474E+02
  0
LINE
  8
0
 62
7
 10
2.17500000E+01
 20
1.77219486E+02
 11
2.50000000E-01
 21
1.77219486E+02
  0
LINE
  8
0
 62
7
 10
2.17500000E+01
 20
1.76369495E+02
 11
2.50000000E-01
 21
1.76369495E+02
  0
LINE
  8
0
 62
7
 10
-8.95179293E+01
 20
1.91369434E+02
 11
-9.03839532E+01
 21
1.92869440E+02
  0
LINE
  8
0
 62
7
 10
-9.03839874E+01
 20
1.92869434E+02
 11
-9.21159821E+01
 21
1.92869434E+02
  0
LINE
  8
0
 62
7
 10
-9.29819652E+01
 20
1.91369396E+02
 11
-9.21159565E+01
 21
1.92869376E+02
  0
LINE
  8
0
 62
7
 10
-9.21159570E+01
 20
1.89869365E+02
 11
-9.29819962E+01
 21
1.91369398E+02
  0
LINE
  8
0
 62
7
 10
-9.03839874E+01
 20
1.89869404E+02
 11
-9.21159821E+01
 21
1.89869404E+02
  0
LINE
  8
0
 62
7
 10
-8.95179446E+01
 20
1.91369387E+02
 11
-9.03839685E+01
 21
1.89869380E+02
  0
LINE
  8
0
 62
7
 10
2.17500000E+01
 20
2.30369434E+02
 11
-4.37500000E+01
 21
2.30369434E+02
  0
LINE
  8
0
  6
CENTER
 62
2
 10
5.49769897E+01
 20
2.26869449E+02
 11
-1.17353455E+02
 21
2.26869449E+02
  0
LINE
  8
0
 62
7
 10
2.17500000E+01
 20
2.24219456E+02
 11
-4.37500000E+01
 21
2.24219456E+02
  0
LINE
  8
0
 62
7
 10
2.17500000E+01
 20
2.29519443E+02
 11
-4.37500000E+01
 21
2.29519443E+02
  0
LINE
  8
0
  6
CENTER
 62
2
 10
2.87500153E+01
 20
1.83898304E+02
 11
2.87500153E+01
 21
2.00487308E+02
  0
LINE
  8
0
  6
CENTER
 62
2
 10
3.75952759E+01
 20
1.91369434E+02
 11
2.01207581E+01
 21
1.91369434E+02
  0
LINE
  8
0
  6
CENTER
 62
2
 10
3.47500458E+01
 20
1.99127338E+02
 11
3.47500458E+01
 21
2.22713749E+02
  0
LINE
  8
0
  6
CENTER
 62
2
 10
4.41601715E+01
 20
2.10369373E+02
 11
2.48015442E+01
 21
2.10369373E+02
  0
LINE
  8
0
 62
7
 10
4.15583954E+01
 20
2.13369373E+02
 11
2.79416962E+01
 21
2.13369373E+02
  0
LINE
  8
0
 62
7
 10
2.70179321E+01
 20
1.91369403E+02
 11
2.78839637E+01
 21
1.92869422E+02
  0
LINE
  8
0
 62
7
 10
2.78839874E+01
 20
1.92869434E+02
 11
2.96159821E+01
 21
1.92869434E+02
  0
LINE
  8
0
 62
7
 10
3.04819550E+01
 20
1.91369401E+02
 11
2.96159463E+01
 21
1.92869381E+02
  0
LINE
  8
0
 62
7
 10
2.96159761E+01
 20
1.89869378E+02
 11
3.04820153E+01
 21
1.91369410E+02
  0
LINE
  8
0
 62
7
 10
2.78839874E+01
 20
1.89869404E+02
 11
2.96159821E+01
 21
1.89869404E+02
  0
LINE
  8
0
 62
7
 10
2.70179376E+01
 20
1.91369394E+02
 11
2.78839692E+01
 21
1.89869374E+02
  0
LINE
  8
0
 62
7
 10
-1.40249969E+02
 20
1.94369480E+02
 11
-1.40249969E+02
 21
2.12369465E+02
  0
LINE
  8
0
 62
7
 10
-1.34892319E+02
 20
1.92419452E+02
 11
-1.30250000E+02
 21
1.92419452E+02
  0
LINE
  8
0
 62
7
 10
-1.72249969E+02
 20
1.95869495E+02
 11
-1.72249969E+02
 21
2.10869312E+02
  0
LINE
  8
0
 62
7
 10
-1.70749969E+02
 20
1.94369465E+02
 11
-1.70749969E+02
 21
2.12369465E+02
  0
LINE
  8
0
 62
7
 10
-1.70749908E+02
 20
2.12369465E+02
 11
-1.63249969E+02
 21
2.12369465E+02
  0
LINE
  8
0
 62
2
 10
-1.71569916E+02
 20
2.11549457E+02
 11
-1.63249969E+02
 21
2.11549457E+02
  0
LINE
  8
0
 62
7
 10
-1.72249923E+02
 20
2.10869322E+02
 11
-1.70749877E+02
 21
2.12369322E+02
  0
LINE
  8
0
 62
7
 10
-1.70749908E+02
 20
1.94369465E+02
 11
-1.63249969E+02
 21
1.94369465E+02
  0
LINE
  8
0
 62
2
 10
-1.71569916E+02
 20
1.95189472E+02
 11
-1.63249969E+02
 21
1.95189472E+02
  0
LINE
  8
0
 62
7
 10
-1.72249995E+02
 20
1.95869535E+02
 11
-1.70749960E+02
 21
1.94369545E+02
  0
LINE
  8
0
 62
7
 10
-1.34892303E+02
 20
1.97894459E+02
 11
-1.30250000E+02
 21
1.97894459E+02
  0
LINE
  8
0
 62
7
 10
-1.34892303E+02
 20
2.08844471E+02
 11
-1.30250000E+02
 21
2.08844471E+02
  0
LINE
  8
0
 62
7
 10
-1.40249973E+02
 20
1.94369475E+02
 11
-1.34892308E+02
 21
1.92419445E+02
  0
LINE
  8
0
 62
7
 10
-1.34892334E+02
 20
2.14319477E+02
 11
-1.30250000E+02
 21
2.14319477E+02
  0
LINE
  8
0
 62
7
 10
-1.43249969E+02
 20
1.94369465E+02
 11
-1.43249969E+02
 21
2.12369465E+02
  0
LINE
  8
0
 62
7
 10
-1.40249950E+02
 20
2.12369447E+02
 11
-1.34892299E+02
 21
2.14319473E+02
  0
LINE
  8
0
 62
7
 10
-1.43249969E+02
 20
2.11549457E+02
 11
-1.40249969E+02
 21
2.11549457E+02
  0
LINE
  8
0
 62
7
 10
-1.43249969E+02
 20
1.95189472E+02
 11
-1.40249969E+02
 21
1.95189472E+02
  0
LINE
  8
0
 62
7
 10
6.77500000E+01
 20
2.19869434E+02
 11
6.77500000E+01
 21
1.86869495E+02
  0
LINE
  8
0
 62
7
 10
6.72500000E+01
 20
2.20369465E+02
 11
6.27414551E+01
 21
2.20369465E+02
  0
LINE
  8
0
 62
7
 10
6.27500000E+01
 20
2.20369465E+02
 11
6.27500000E+01
 21
2.20378010E+02
  0
LINE
  8
0
 62
7
 10
6.72500000E+01
 20
1.86369465E+02
 11
6.27414551E+01
 21
1.86369465E+02
  0
LINE
  8
0
 62
7
 10
6.27500000E+01
 20
1.86369465E+02
 11
6.27500000E+01
 21
1.86360920E+02
  0
LINE
  8
0
 62
7
 10
6.25087470E+01
 20
1.86111048E+02
 11
5.47500484E+01
 21
1.85840108E+02
  0
LINE
  8
0
 62
7
 10
6.25087202E+01
 20
2.20628050E+02
 11
5.47500216E+01
 21
2.20898990E+02
  0
LINE
  8
0
 62
7
 10
6.27499847E+01
 20
2.20369495E+02
 11
6.27499847E+01
 21
1.86369495E+02
  0
LINE
  8
0
 62
7
 10
1.24749985E+02
 20
2.11869465E+02
 11
1.24749985E+02
 21
1.94869465E+02
  0
LINE
  8
0
 62
7
 10
1.19250031E+02
 20
1.93369480E+02
 11
6.77500458E+01
 21
1.93369480E+02
  0
LINE
  8
0
 62
7
 10
1.19249969E+02
 20
2.13369495E+02
 11
6.77500000E+01
 21
2.13369495E+02
  0
LINE
  8
0
 62
7
 10
1.30749969E+02
 20
1.94369465E+02
 11
1.30749969E+02
 21
2.12369465E+02
  0
LINE
  8
0
 62
7
 10
1.59749969E+02
 20
1.95869495E+02
 11
1.59749969E+02
 21
2.10869312E+02
  0
LINE
  8
0
 62
7
 10
1.58249969E+02
 20
1.94369465E+02
 11
1.58249969E+02
 21
2.12369465E+02
  0
LINE
  8
0
 62
7
 10
1.58249908E+02
 20
2.12369465E+02
 11
1.50749969E+02
 21
2.12369465E+02
  0
LINE
  8
0
 62
2
 10
1.59069916E+02
 20
2.11549457E+02
 11
1.50749969E+02
 21
2.11549457E+02
  0
LINE
  8
0
 62
7
 10
1.59749935E+02
 20
2.10869320E+02
 11
1.58249889E+02
 21
2.12369320E+02
  0
LINE
  8
0
 62
7
 10
1.58249908E+02
 20
1.94369465E+02
 11
1.50749969E+02
 21
1.94369465E+02
  0
LINE
  8
0
 62
2
 10
1.59069916E+02
 20
1.95189472E+02
 11
1.50749969E+02
 21
1.95189472E+02
  0
LINE
  8
0
 62
7
 10
1.59749998E+02
 20
1.95869540E+02
 11
1.58249963E+02
 21
1.94369550E+02
  0
LINE
  8
0
 62
7
 10
1.30749969E+02
 20
1.95189472E+02
 11
1.27749969E+02
 21
1.95189472E+02
  0
LINE
  8
0
 62
7
 10
1.27749969E+02
 20
1.94869465E+02
 11
1.27749969E+02
 21
2.11869465E+02
  0
LINE
  8
0
 62
7
 10
1.27749969E+02
 20
1.94869465E+02
 11
1.20750015E+02
 21
1.94869465E+02
  0
LINE
  8
0
 62
7
 10
1.27749969E+02
 20
2.11869465E+02
 11
1.20750015E+02
 21
2.11869465E+02
  0
LINE
  8
0
 62
7
 10
1.20750021E+02
 20
1.94869479E+02
 11
1.19250052E+02
 21
1.93369509E+02
  0
LINE
  8
0
 62
7
 10
1.20750057E+02
 20
2.11869528E+02
 11
1.19250023E+02
 21
2.13369562E+02
  0
LINE
  8
0
 62
7
 10
1.30749969E+02
 20
2.11549457E+02
 11
1.27749969E+02
 21
2.11549457E+02
  0
ARC
  8
0
 62
7
 10
-1.29750000E+02
 20
2.19869434E+02
 40
5.00000000E-01
 50
8.99999818E+01
 51
1.79999964E+02
  0
ARC
  8
0
 62
7
 10
-1.25000000E+02
 20
2.20378010E+02
 40
2.50000000E-01
 50
9.19988093E+01
 51
1.79999964E+02
  0
ARC
  8
0
 62
7
 10
-1.16750000E+02
 20
2.21869465E+02
 40
5.00000000E-01
 50
8.99999818E+01
 51
1.79999964E+02
  0
ARC
  8
0
 62
7
 10
-1.16750000E+02
 20
1.84869465E+02
 40
5.00000000E-01
 50
1.79999981E+02
 51
2.69999963E+02
  0
ARC
  8
0
 62
7
 10
-1.25000000E+02
 20
1.86360920E+02
 40
2.50000000E-01
 50
1.79999981E+02
 51
2.68001136E+02
  0
ARC
  8
0
 62
7
 10
-1.29750000E+02
 20
1.86869495E+02
 40
5.00000000E-01
 50
1.79999981E+02
 51
2.69999963E+02
  0
ARC
  8
0
 62
7
 10
-1.08250000E+02
 20
2.23369434E+02
 40
2.00000000E+00
 50
8.99999818E+01
 51
1.79999964E+02
  0
ARC
  8
0
 62
7
 10
-1.08250000E+02
 20
1.83369434E+02
 40
2.00000000E+00
 50
1.79999981E+02
 51
2.70000018E+02
  0
ARC
  8
0
 62
7
 10
5.42500000E+01
 20
1.84869404E+02
 40
5.00000000E-01
 50
2.70000073E+02
 51
5.46415133E-05
  0
ARC
  8
0
 62
7
 10
5.42500000E+01
 20
2.21869404E+02
 40
5.00000000E-01
 50
5.46415133E-05
 51
9.00000369E+01
  0
ARC
  8
0
 62
7
 10
4.57500000E+01
 20
1.83369434E+02
 40
2.00000000E+00
 50
2.70000073E+02
 51
5.46415133E-05
  0
ARC
  8
0
 62
7
 10
4.57500000E+01
 20
2.23369434E+02
 40
2.00000000E+00
 50
5.46415133E-05
 51
9.00000913E+01
  0
CIRCLE
  8
0
 62
7
 10
-9.12500153E+01
 20
1.91369434E+02
 40
5.00000000E+00
  0
CIRCLE
  8
0
 62
7
 10
-9.72500458E+01
 20
2.10369373E+02
 40
8.71000004E+00
  0
CIRCLE
  8
0
 62
7
 10
-9.72500458E+01
 20
2.10369373E+02
 40
7.44000006E+00
  0
CIRCLE
  8
0
 62
2
 10
-9.72500458E+01
 20
2.10369373E+02
 40
8.32999992E+00
  0
CIRCLE
  8
0
 62
7
 10
-9.12500153E+01
 20
1.91369434E+02
 40
2.59999990E+00
  0
CIRCLE
  8
0
 62
2
 10
3.47500458E+01
 20
2.10369373E+02
 40
8.32999992E+00
  0
CIRCLE
  8
0
 62
7
 10
2.87500153E+01
 20
1.91369434E+02
 40
2.59999990E+00
  0
CIRCLE
  8
0
 62
7
 10
2.87500153E+01
 20
1.91369434E+02
 40
5.00000000E+00
  0
CIRCLE
  8
0
 62
7
 10
3.47500458E+01
 20
2.10369373E+02
 40
8.71000004E+00
  0
CIRCLE
  8
0
 62
7
 10
3.47500458E+01
 20
2.10369373E+02
 40
7.44000006E+00
  0
ARC
  8
0
 62
7
 10
6.72500000E+01
 20
2.19869434E+02
 40
5.00000000E-01
 50
3.59721781E-05
 51
9.00000162E+01
  0
ARC
  8
0
 62
7
 10
6.25000000E+01
 20
2.20378010E+02
 40
2.50000000E-01
 50
3.59721781E-05
 51
8.80011888E+01
  0
ARC
  8
0
 62
7
 10
6.25000000E+01
 20
1.86360920E+02
 40
2.50000000E-01
 50
2.71998866E+02
 51
1.86693353E-05
  0
ARC
  8
0
 62
7
 10
6.72500000E+01
 20
1.86869495E+02
 40
5.00000000E-01
 50
2.70000038E+02
 51
1.86693353E-05
  0
POLYLINE
  8
0
 62
7
 66
1
  0
VERTEX
  8
0
 62
7
 10
-1.34892303E+02
 20
1.97894450E+02
  0
VERTEX
  8
0
 62
7
 10
-1.35239881E+02
 20
1.97884774E+02
  0
VERTEX
  8
0
 62
7
 10
-1.35584808E+02
 20
1.97855820E+02
  0
VERTEX
  8
0
 62
7
 10
-1.35924454E+02
 20
1.97807808E+02
  0
VERTEX
  8
0
 62
7
 10
-1.36256228E+02
 20
1.97741105E+02
  0
VERTEX
  8
0
 62
7
 10
-1.36577600E+02
 20
1.97656219E+02
  0
VERTEX
  8
0
 62
7
 10
-1.36886119E+02
 20
1.97553798E+02
  0
VERTEX
  8
0
 62
7
 10
-1.37179433E+02
 20
1.97434623E+02
  0
VERTEX
  8
0
 62
7
 10
-1.37455303E+02
 20
1.97299603E+02
  0
VERTEX
  8
0
 62
7
 10
-1.37711628E+02
 20
1.97149767E+02
  0
VERTEX
  8
0
 62
7
 10
-1.37946451E+02
 20
1.96986258E+02
  0
VERTEX
  8
0
 62
7
 10
-1.38157981E+02
 20
1.96810324E+02
  0
VERTEX
  8
0
 62
7
 10
-1.38344606E+02
 20
1.96623305E+02
  0
VERTEX
  8
0
 62
7
 10
-1.38504903E+02
 20
1.96426629E+02
  0
VERTEX
  8
0
 62
7
 10
-1.38637647E+02
 20
1.96221794E+02
  0
VERTEX
  8
0
 62
7
 10
-1.38741829E+02
 20
1.96010364E+02
  0
VERTEX
  8
0
 62
7
 10
-1.38816652E+02
 20
1.95793951E+02
  0
VERTEX
  8
0
 62
7
 10
-1.38861546E+02
 20
1.95574205E+02
  0
VERTEX
  8
0
 62
7
 10
-1.38876169E+02
 20
1.95352803E+02
  0
VERTEX
  8
0
 62
7
 10
-1.38860409E+02
 20
1.95131432E+02
  0
VERTEX
  8
0
 62
7
 10
-1.38814387E+02
 20
1.94911781E+02
  0
VERTEX
  8
0
 62
7
 10
-1.38738453E+02
 20
1.94695524E+02
  0
VERTEX
  8
0
 62
7
 10
-1.38633187E+02
 20
1.94484313E+02
  0
VERTEX
  8
0
 62
7
 10
-1.38499391E+02
 20
1.94279756E+02
  0
VERTEX
  8
0
 62
7
 10
-1.38338086E+02
 20
1.94083415E+02
  0
VERTEX
  8
0
 62
7
 10
-1.38150502E+02
 20
1.93896786E+02
  0
VERTEX
  8
0
 62
7
 10
-1.37938069E+02
 20
1.93721293E+02
  0
VERTEX
  8
0
 62
7
 10
-1.37702408E+02
 20
1.93558274E+02
  0
VERTEX
  8
0
 62
7
 10
-1.37445315E+02
 20
1.93408973E+02
  0
VERTEX
  8
0
 62
7
 10
-1.37168753E+02
 20
1.93274528E+02
  0
VERTEX
  8
0
 62
7
 10
-1.36874829E+02
 20
1.93155964E+02
  0
SEQEND
  8
0
  0
POLYLINE
  8
0
 62
7
 66
1
  0
VERTEX
  8
0
 62
7
 10
-1.36874829E+02
 20
2.13582965E+02
  0
VERTEX
  8
0
 62
7
 10
-1.37168753E+02
 20
2.13464401E+02
  0
VERTEX
  8
0
 62
7
 10
-1.37445315E+02
 20
2.13329956E+02
  0
VERTEX
  8
0
 62
7
 10
-1.37702408E+02
 20
2.13180655E+02
  0
VERTEX
  8
0
 62
7
 10
-1.37938069E+02
 20
2.13017636E+02
  0
VERTEX
  8
0
 62
7
 10
-1.38150502E+02
 20
2.12842143E+02
  0
VERTEX
  8
0
 62
7
 10
-1.38338086E+02
 20
2.12655514E+02
  0
VERTEX
  8
0
 62
7
 10
-1.38499391E+02
 20
2.12459173E+02
  0
VERTEX
  8
0
 62
7
 10
-1.38633187E+02
 20
2.12254616E+02
  0
VERTEX
  8
0
 62
7
 10
-1.38738453E+02
 20
2.12043405E+02
  0
VERTEX
  8
0
 62
7
 10
-1.38814387E+02
 20
2.11827148E+02
  0
VERTEX
  8
0
 62
7
 10
-1.38860409E+02
 20
2.11607497E+02
  0
VERTEX
  8
0
 62
7
 10
-1.38876169E+02
 20
2.11386126E+02
  0
VERTEX
  8
0
 62
7
 10
-1.38861546E+02
 20
2.11164724E+02
  0
VERTEX
  8
0
 62
7
 10
-1.38816652E+02
 20
2.10944978E+02
  0
VERTEX
  8
0
 62
7
 10
-1.38741829E+02
 20
2.10728565E+02
  0
VERTEX
  8
0
 62
7
 10
-1.38637647E+02
 20
2.10517135E+02
  0
VERTEX
  8
0
 62
7
 10
-1.38504903E+02
 20
2.10312300E+02
  0
VERTEX
  8
0
 62
7
 10
-1.38344606E+02
 20
2.10115624E+02
  0
VERTEX
  8
0
 62
7
 10
-1.38157981E+02
 20
2.09928605E+02
  0
VERTEX
  8
0
 62
7
 10
-1.37946451E+02
 20
2.09752671E+02
  0
VERTEX
  8
0
 62
7
 10
-1.37711628E+02
 20
2.09589162E+02
  0
VERTEX
  8
0
 62
7
 10
-1.37455303E+02
 20
2.09439326E+02
  0
VERTEX
  8
0
 62
7
 10
-1.37179433E+02
 20
2.09304306E+02
  0
VERTEX
  8
0
 62
7
 10
-1.36886119E+02
 20
2.09185131E+02
  0
VERTEX
  8
0
 62
7
 10
-1.36577600E+02
 20
2.09082710E+02
  0
VERTEX
  8
0
 62
7
 10
-1.36256228E+02
 20
2.08997824E+02
  0
VERTEX
  8
0
 62
7
 10
-1.35924453E+02
 20
2.08931121E+02
  0
VERTEX
  8
0
 62
7
 10
-1.35584808E+02
 20
2.08883109E+02
  0
VERTEX
  8
0
 62
7
 10
-1.35239881E+02
 20
2.08854155E+02
  0
VERTEX
  8
0
 62
7
 10
-1.34892303E+02
 20
2.08844479E+02
  0
SEQEND
  8
0
  0
POLYLINE
  8
0
 62
7
 66
1
  0
VERTEX
  8
0
 62
7
 10
-1.34892303E+02
 20
2.08844471E+02
  0
VERTEX
  8
0
 62
7
 10
-1.35249414E+02
 20
2.08822430E+02
  0
VERTEX
  8
0
 62
7
 10
-1.35603651E+02
 20
2.08756486E+02
  0
VERTEX
  8
0
 62
7
 10
-1.35952160E+02
 20
2.08647168E+02
  0
VERTEX
  8
0
 62
7
 10
-1.36292135E+02
 20
2.08495357E+02
  0
VERTEX
  8
0
 62
7
 10
-1.36620840E+02
 20
2.08302275E+02
  0
VERTEX
  8
0
 62
7
 10
-1.36935628E+02
 20
2.08069477E+02
  0
VERTEX
  8
0
 62
7
 10
-1.37233964E+02
 20
2.07798838E+02
  0
VERTEX
  8
0
 62
7
 10
-1.37513446E+02
 20
2.07492536E+02
  0
VERTEX
  8
0
 62
7
 10
-1.37771825E+02
 20
2.07153037E+02
  0
VERTEX
  8
0
 62
7
 10
-1.38007019E+02
 20
2.06783075E+02
  0
VERTEX
  8
0
 62
7
 10
-1.38217136E+02
 20
2.06385629E+02
  0
VERTEX
  8
0
 62
7
 10
-1.38400482E+02
 20
2.05963899E+02
  0
VERTEX
  8
0
 62
7
 10
-1.38555583E+02
 20
2.05521279E+02
  0
VERTEX
  8
0
 62
7
 10
-1.38681190E+02
 20
2.05061335E+02
  0
VERTEX
  8
0
 62
7
 10
-1.38776290E+02
 20
2.04587768E+02
  0
VERTEX
  8
0
 62
7
 10
-1.38840119E+02
 20
2.04104393E+02
  0
VERTEX
  8
0
 62
7
 10
-1.38872163E+02
 20
2.03615100E+02
  0
VERTEX
  8
0
 62
7
 10
-1.38872163E+02
 20
2.03123830E+02
  0
VERTEX
  8
0
 62
7
 10
-1.38840119E+02
 20
2.02634537E+02
  0
VERTEX
  8
0
 62
7
 10
-1.38776290E+02
 20
2.02151162E+02
  0
VERTEX
  8
0
 62
7
 10
-1.38681190E+02
 20
2.01677595E+02
  0
VERTEX
  8
0
 62
7
 10
-1.38555583E+02
 20
2.01217651E+02
  0
VERTEX
  8
0
 62
7
 10
-1.38400482E+02
 20
2.00775031E+02
  0
VERTEX
  8
0
 62
7
 10
-1.38217136E+02
 20
2.00353301E+02
  0
VERTEX
  8
0
 62
7
 10
-1.38007019E+02
 20
1.99955855E+02
  0
VERTEX
  8
0
 62
7
 10
-1.37771825E+02
 20
1.99585893E+02
  0
VERTEX
  8
0
 62
7
 10
-1.37513446E+02
 20
1.99246394E+02
  0
VERTEX
  8
0
 62
7
 10
-1.37233964E+02
 20
1.98940092E+02
  0
VERTEX
  8
0
 62
7
 10
-1.36935628E+02
 20
1.98669453E+02
  0
VERTEX
  8
0
 62
7
 10
-1.36620840E+02
 20
1.98436655E+02
  0
VERTEX
  8
0
 62
7
 10
-1.36292135E+02
 20
1.98243573E+02
  0
VERTEX
  8
0
 62
7
 10
-1.35952160E+02
 20
1.98091762E+02
  0
VERTEX
  8
0
 62
7
 10
-1.35603651E+02
 20
1.97982445E+02
  0
VERTEX
  8
0
 62
7
 10
-1.35249415E+02
 20
1.97916500E+02
  0
VERTEX
  8
0
 62
7
 10
-1.34892303E+02
 20
1.97894459E+02
  0
SEQEND
  8
0
  0
LINE
  8
0
 62
7
 10
-1.52249969E+02
 20
2.12369465E+02
 11
-1.43249969E+02
 21
2.12369465E+02
  0
LINE
  8
0
 62
2
 10
-1.52249969E+02
 20
2.11549457E+02
 11
-1.43249969E+02
 21
2.11549457E+02
  0
LINE
  8
0
 62
7
 10
-1.52249969E+02
 20
1.94369465E+02
 11
-1.43249969E+02
 21
1.94369465E+02
  0
LINE
  8
0
 62
2
 10
-1.52249969E+02
 20
1.95189472E+02
 11
-1.43249969E+02
 21
1.95189472E+02
  0
LINE
  8
0
 62
4
 10
1.50749969E+02
 20
2.16869465E+02
 11
1.50749969E+02
 21
1.89869465E+02
  0
LINE
  8
0
 62
4
 10
1.39749969E+02
 20
2.16869465E+02
 11
1.39749969E+02
 21
1.89869465E+02
  0
LINE
  8
0
 62
4
 10
1.50749969E+02
 20
2.16869465E+02
 11
1.39749969E+02
 21
2.16869465E+02
  0
LINE
  8
0
 62
4
 10
1.50749969E+02
 20
1.89869465E+02
 11
1.39749969E+02
 21
1.89869465E+02
  0
LINE
  8
0
 62
4
 10
1.49544198E+02
 20
2.03369465E+02
 11
1.40955741E+02
 21
2.03369465E+02
  0
ARC
  8
0
 62
4
 10
1.59246362E+02
 20
1.96619465E+02
 40
1.94963929E+01
 50
1.59743842E+02
 51
2.00256158E+02
  0
ARC
  8
0
 62
4
 10
1.59246362E+02
 20
2.10119465E+02
 40
1.94963929E+01
 50
1.59743842E+02
 51
2.00256158E+02
  0
ARC
  8
0
 62
4
 10
1.31253577E+02
 20
2.10119465E+02
 40
1.94963929E+01
 50
3.39743842E+02
 51
2.02561580E+01
  0
ARC
  8
0
 62
4
 10
1.31253577E+02
 20
1.96619465E+02
 40
1.94963929E+01
 50
3.39743842E+02
 51
2.02561580E+01
  0
LINE
  8
0
 62
4
 10
-1.52249969E+02
 20
2.16869465E+02
 11
-1.52249969E+02
 21
1.89869465E+02
  0
LINE
  8
0
 62
4
 10
-1.63249969E+02
 20
2.16869465E+02
 11
-1.63249969E+02
 21
1.89869465E+02
  0
LINE
  8
0
 62
4
 10
-1.52249969E+02
 20
2.16869465E+02
 11
-1.63249969E+02
 21
2.16869465E+02
  0
LINE
  8
0
 62
4
 10
-1.52249969E+02
 20
1.89869465E+02
 11
-1.63249969E+02
 21
1.89869465E+02
  0
LINE
  8
0
 62
4
 10
-1.53455741E+02
 20
2.03369465E+02
 11
-1.62044198E+02
 21
2.03369465E+02
  0
ARC
  8
0
 62
4
 10
-1.43753577E+02
 20
1.96619465E+02
 40
1.94963929E+01
 50
1.59743842E+02
 51
2.00256158E+02
  0
ARC
  8
0
 62
4
 10
-1.43753577E+02
 20
2.10119465E+02
 40
1.94963929E+01
 50
1.59743842E+02
 51
2.00256158E+02
  0
ARC
  8
0
 62
4
 10
-1.71746362E+02
 20
2.10119465E+02
 40
1.94963929E+01
 50
3.39743842E+02
 51
2.02561580E+01
  0
ARC
  8
0
 62
4
 10
-1.71746362E+02
 20
1.96619465E+02
 40
1.94963929E+01
 50
3.39743842E+02
 51
2.02561580E+01
  0
LINE
  8
0
 62
7
 10
1.39749969E+02
 20
2.12369465E+02
 11
1.30749969E+02
 21
2.12369465E+02
  0
LINE
  8
0
 62
2
 10
1.39749969E+02
 20
2.11549457E+02
 11
1.30749969E+02
 21
2.11549457E+02
  0
LINE
  8
0
 62
7
 10
1.39749969E+02
 20
1.94369465E+02
 11
1.30749969E+02
 21
1.94369465E+02
  0
LINE
  8
0
 62
2
 10
1.39749969E+02
 20
1.95189472E+02
 11
1.30749969E+02
 21
1.95189472E+02
  0
LINE
  8
0
  6
CENTER
 62
6
 10
-5.52500000E+01
 20
2.40485028E+02
 11
-5.52500000E+01
 21
2.30219449E+02
  0
LINE
  8
0
  6
CENTER
 62
6
 10
-4.72500000E+01
 20
2.40485028E+02
 11
-4.72500000E+01
 21
2.30219449E+02
  0
LINE
  8
0
  6
CENTER
 62
6
 10
-7.87500000E+01
 20
2.11702809E+02
 11
-3.17500000E+01
 21
2.11702809E+02
  0
LINE
  8
0
 62
6
 10
-2.30179492E+01
 20
1.98036120E+02
 11
-2.64820508E+01
 21
1.92036120E+02
  0
LINE
  8
0
 62
4
 10
-1.47500000E+01
 20
1.96536120E+02
 11
-2.38839746E+01
 21
1.96536120E+02
  0
LINE
  8
0
  6
CENTER
 62
6
 10
2.02500000E+01
 20
1.95036120E+02
 11
-2.67500000E+01
 21
1.95036120E+02
  0
LINE
  8
0
 62
4
 10
-1.47500000E+01
 20
1.93536120E+02
 11
-2.56160254E+01
 21
1.93536120E+02
  0
LINE
  8
0
 62
6
 10
-3.54820508E+01
 20
2.08702809E+02
 11
-3.20179492E+01
 21
2.14702809E+02
  0
LINE
  8
0
 62
4
 10
-4.37500000E+01
 20
2.10202809E+02
 11
-3.46160254E+01
 21
2.10202809E+02
  0
LINE
  8
0
 62
4
 10
-4.37500000E+01
 20
2.13202809E+02
 11
-3.28839746E+01
 21
2.13202809E+02
  0
LINE
  8
0
 62
6
 10
-9.75000003E+00
 20
1.69366160E+02
 11
-9.75000003E+00
 21
1.71717196E+02
  0
LINE
  8
0
 62
6
 10
-1.27500000E+01
 20
1.69366160E+02
 11
-1.27500000E+01
 21
1.71717196E+02
  0
LINE
  8
0
 62
4
 10
-9.25000003E+00
 20
1.69595875E+02
 11
-9.25000003E+00
 21
1.71717196E+02
  0
LINE
  8
0
 62
4
 10
-1.32500000E+01
 20
1.69595875E+02
 11
-1.32500000E+01
 21
1.71717196E+02
  0
LINE
  8
0
 62
4
 10
2.50000000E-01
 20
1.71717196E+02
 11
2.50000000E-01
 21
1.84425193E+02
  0
LINE
  8
0
 62
4
 10
-1.47500000E+01
 20
1.71717196E+02
 11
-1.47500000E+01
 21
1.97347084E+02
  0
LINE
  8
0
 62
4
 10
1.52500000E+01
 20
1.84425193E+02
 11
1.52500000E+01
 21
1.96374654E+02
  0
LINE
  8
0
  6
CENTER
 62
6
 10
-1.12500000E+01
 20
1.66253901E+02
 11
-1.12500000E+01
 21
1.76519480E+02
  0
LINE
  8
0
  6
CENTER
 62
6
 10
-3.25000003E+00
 20
1.66253901E+02
 11
-3.25000003E+00
 21
1.76519480E+02
  0
LINE
  8
0
  6
CENTER
 62
6
 10
2.50000000E-01
 20
1.93457898E+02
 11
2.50000000E-01
 21
1.98457898E+02
  0
LINE
  8
0
 62
4
 10
2.50000008E-01
 20
1.71717196E+02
 11
-1.47500000E+01
 21
1.71717196E+02
  0
LINE
  8
0
 62
4
 10
2.50000008E-01
 20
1.77531539E+02
 11
-1.47500000E+01
 21
1.77531539E+02
  0
LINE
  8
0
 62
4
 10
1.52500000E+01
 20
1.84425193E+02
 11
-1.47500000E+01
 21
1.84425193E+02
  0
LINE
  8
0
 62
4
 10
1.52500000E+01
 20
1.94568713E+02
 11
-1.47500000E+01
 21
1.94568713E+02
  0
LINE
  8
0
 62
4
 10
-1.06500000E+01
 20
1.97347084E+02
 11
-1.47500000E+01
 21
1.97347084E+02
  0
LINE
  8
0
 62
4
 10
-1.06500000E+01
 20
1.97173436E+02
 11
-1.47500000E+01
 21
1.97173436E+02
  0
LINE
  8
0
 62
4
 10
1.52500000E+01
 20
1.96374654E+02
 11
4.40000001E+00
 21
1.96374654E+02
  0
POLYLINE
  8
0
 62
4
 66
1
  0
VERTEX
  8
0
 62
4
 10
-1.32500000E+01
 20
1.69595875E+02
  0
VERTEX
  8
0
 62
4
 10
-1.32419486E+01
 20
1.69564744E+02
  0
VERTEX
  8
0
 62
4
 10
-1.32178592E+01
 20
1.69533863E+02
  0
VERTEX
  8
0
 62
4
 10
-1.31779257E+01
 20
1.69503481E+02
  0
VERTEX
  8
0
 62
4
 10
-1.31224697E+01
 20
1.69473844E+02
  0
VERTEX
  8
0
 62
4
 10
-1.30519377E+01
 20
1.69445189E+02
  0
VERTEX
  8
0
 62
4
 10
-1.29668976E+01
 20
1.69417747E+02
  0
VERTEX
  8
0
 62
4
 10
-1.28680340E+01
 20
1.69391739E+02
  0
VERTEX
  8
0
 62
4
 10
-1.27561429E+01
 20
1.69367375E+02
  0
VERTEX
  8
0
 62
4
 10
-1.26321253E+01
 20
1.69344851E+02
  0
VERTEX
  8
0
 62
4
 10
-1.24969796E+01
 20
1.69324348E+02
  0
VERTEX
  8
0
 62
4
 10
-1.23517940E+01
 20
1.69306031E+02
  0
VERTEX
  8
0
 62
4
 10
-1.21977373E+01
 20
1.69290047E+02
  0
VERTEX
  8
0
 62
4
 10
-1.20360501E+01
 20
1.69276526E+02
  0
VERTEX
  8
0
 62
4
 10
-1.18680340E+01
 20
1.69265577E+02
  0
VERTEX
  8
0
 62
4
 10
-1.16950419E+01
 20
1.69257286E+02
  0
VERTEX
  8
0
 62
4
 10
-1.15184665E+01
 20
1.69251722E+02
  0
VERTEX
  8
0
 62
4
 10
-1.13397297E+01
 20
1.69248928E+02
  0
VERTEX
  8
0
 62
4
 10
-1.11602704E+01
 20
1.69248928E+02
  0
VERTEX
  8
0
 62
4
 10
-1.09815335E+01
 20
1.69251722E+02
  0
VERTEX
  8
0
 62
4
 10
-1.08049581E+01
 20
1.69257286E+02
  0
VERTEX
  8
0
 62
4
 10
-1.06319660E+01
 20
1.69265577E+02
  0
VERTEX
  8
0
 62
4
 10
-1.04639499E+01
 20
1.69276526E+02
  0
VERTEX
  8
0
 62
4
 10
-1.03022627E+01
 20
1.69290047E+02
  0
VERTEX
  8
0
 62
4
 10
-1.01482060E+01
 20
1.69306031E+02
  0
VERTEX
  8
0
 62
4
 10
-1.00030204E+01
 20
1.69324348E+02
  0
VERTEX
  8
0
 62
4
 10
-9.86787471E+00
 20
1.69344851E+02
  0
VERTEX
  8
0
 62
4
 10
-9.74385708E+00
 20
1.69367375E+02
  0
VERTEX
  8
0
 62
4
 10
-9.63196602E+00
 20
1.69391739E+02
  0
VERTEX
  8
0
 62
4
 10
-9.53310242E+00
 20
1.69417747E+02
  0
VERTEX
  8
0
 62
4
 10
-9.44806227E+00
 20
1.69445189E+02
  0
VERTEX
  8
0
 62
4
 10
-9.37753026E+00
 20
1.69473844E+02
  0
VERTEX
  8
0
 62
4
 10
-9.32207428E+00
 20
1.69503481E+02
  0
VERTEX
  8
0
 62
4
 10
-9.28214083E+00
 20
1.69533863E+02
  0
VERTEX
  8
0
 62
4
 10
-9.25805141E+00
 20
1.69564744E+02
  0
VERTEX
  8
0
 62
4
 10
-9.25000000E+00
 20
1.69595875E+02
  0
SEQEND
  8
0
  0
LINE
  8
0
 62
6
 10
-1.75000003E+00
 20
1.69366160E+02
 11
-1.75000003E+00
 21
1.71717196E+02
  0
LINE
  8
0
 62
6
 10
-4.75000003E+00
 20
1.69366160E+02
 11
-4.75000003E+00
 21
1.71717196E+02
  0
LINE
  8
0
 62
4
 10
-1.25000003E+00
 20
1.69595875E+02
 11
-1.25000003E+00
 21
1.71717196E+02
  0
LINE
  8
0
 62
4
 10
-5.25000003E+00
 20
1.69595875E+02
 11
-5.25000003E+00
 21
1.71717196E+02
  0
POLYLINE
  8
0
 62
4
 66
1
  0
VERTEX
  8
0
 62
4
 10
-5.25000003E+00
 20
1.69595875E+02
  0
VERTEX
  8
0
 62
4
 10
-5.24194862E+00
 20
1.69564744E+02
  0
VERTEX
  8
0
 62
4
 10
-5.21785921E+00
 20
1.69533863E+02
  0
VERTEX
  8
0
 62
4
 10
-5.17792575E+00
 20
1.69503481E+02
  0
VERTEX
  8
0
 62
4
 10
-5.12246977E+00
 20
1.69473844E+02
  0
VERTEX
  8
0
 62
4
 10
-5.05193777E+00
 20
1.69445189E+02
  0
VERTEX
  8
0
 62
4
 10
-4.96689762E+00
 20
1.69417747E+02
  0
VERTEX
  8
0
 62
4
 10
-4.86803402E+00
 20
1.69391739E+02
  0
VERTEX
  8
0
 62
4
 10
-4.75614297E+00
 20
1.69367375E+02
  0
VERTEX
  8
0
 62
4
 10
-4.63212533E+00
 20
1.69344851E+02
  0
VERTEX
  8
0
 62
4
 10
-4.49697964E+00
 20
1.69324348E+02
  0
VERTEX
  8
0
 62
4
 10
-4.35179400E+00
 20
1.69306031E+02
  0
VERTEX
  8
0
 62
4
 10
-4.19773736E+00
 20
1.69290047E+02
  0
VERTEX
  8
0
 62
4
 10
-4.03605010E+00
 20
1.69276526E+02
  0
VERTEX
  8
0
 62
4
 10
-3.86803403E+00
 20
1.69265577E+02
  0
VERTEX
  8
0
 62
4
 10
-3.69504191E+00
 20
1.69257286E+02
  0
VERTEX
  8
0
 62
4
 10
-3.51846657E+00
 20
1.69251722E+02
  0
VERTEX
  8
0
 62
4
 10
-3.33972970E+00
 20
1.69248928E+02
  0
VERTEX
  8
0
 62
4
 10
-3.16027038E+00
 20
1.69248928E+02
  0
VERTEX
  8
0
 62
4
 10
-2.98153351E+00
 20
1.69251722E+02
  0
VERTEX
  8
0
 62
4
 10
-2.80495817E+00
 20
1.69257286E+02
  0
VERTEX
  8
0
 62
4
 10
-2.63196605E+00
 20
1.69265577E+02
  0
VERTEX
  8
0
 62
4
 10
-2.46394998E+00
 20
1.69276526E+02
  0
VERTEX
  8
0
 62
4
 10
-2.30226272E+00
 20
1.69290047E+02
  0
VERTEX
  8
0
 62
4
 10
-2.14820608E+00
 20
1.69306031E+02
  0
VERTEX
  8
0
 62
4
 10
-2.00302044E+00
 20
1.69324348E+02
  0
VERTEX
  8
0
 62
4
 10
-1.86787474E+00
 20
1.69344851E+02
  0
VERTEX
  8
0
 62
4
 10
-1.74385711E+00
 20
1.69367375E+02
  0
VERTEX
  8
0
 62
4
 10
-1.63196605E+00
 20
1.69391739E+02
  0
VERTEX
  8
0
 62
4
 10
-1.53310245E+00
 20
1.69417747E+02
  0
VERTEX
  8
0
 62
4
 10
-1.44806230E+00
 20
1.69445189E+02
  0
VERTEX
  8
0
 62
4
 10
-1.37753029E+00
 20
1.69473844E+02
  0
VERTEX
  8
0
 62
4
 10
-1.32207431E+00
 20
1.69503481E+02
  0
VERTEX
  8
0
 62
4
 10
-1.28214086E+00
 20
1.69533863E+02
  0
VERTEX
  8
0
 62
4
 10
-1.25805144E+00
 20
1.69564744E+02
  0
VERTEX
  8
0
 62
4
 10
-1.25000003E+00
 20
1.69595875E+02
  0
SEQEND
  8
0
  0
LINE
  8
0
 62
4
 10
1.52500000E+01
 20
1.92719209E+02
 11
1.67500000E+01
 21
1.93722141E+02
  0
LINE
  8
0
 62
4
 10
1.67500000E+01
 20
1.93722141E+02
 11
1.67500000E+01
 21
1.96346044E+02
  0
LINE
  8
0
 62
4
 10
1.67500000E+01
 20
1.95952731E+02
 11
1.52500000E+01
 21
1.96658440E+02
  0
LINE
  8
0
 62
4
 10
1.67500000E+01
 20
1.96346044E+02
 11
1.52500000E+01
 21
1.97353032E+02
  0
LINE
  8
0
 62
4
 10
1.52500000E+01
 20
1.97353032E+02
 11
4.40000001E+00
 21
1.97353032E+02
  0
LINE
  8
0
 62
4
 10
1.52500000E+01
 20
1.96658440E+02
 11
4.40000001E+00
 21
1.96658440E+02
  0
LINE
  8
0
 62
4
 10
1.52500000E+01
 20
1.96374654E+02
 11
1.52500000E+01
 21
1.97347084E+02
  0
POLYLINE
  8
0
 62
4
 66
1
  0
VERTEX
  8
0
 62
4
 10
-3.44999999E+00
 20
1.96005754E+02
  0
VERTEX
  8
0
 62
4
 10
-3.26818501E+00
 20
1.95949907E+02
  0
VERTEX
  8
0
 62
4
 10
-3.05848776E+00
 20
1.95897088E+02
  0
VERTEX
  8
0
 62
4
 10
-2.82257012E+00
 20
1.95847718E+02
  0
VERTEX
  8
0
 62
4
 10
-2.56230180E+00
 20
1.95802186E+02
  0
VERTEX
  8
0
 62
4
 10
-2.27974546E+00
 20
1.95760855E+02
  0
VERTEX
  8
0
 62
4
 10
-1.97714041E+00
 20
1.95724050E+02
  0
VERTEX
  8
0
 62
4
 10
-1.65688486E+00
 20
1.95692065E+02
  0
VERTEX
  8
0
 62
4
 10
-1.32151689E+00
 20
1.95665152E+02
  0
VERTEX
  8
0
 62
4
 10
-9.73694362E-01
 20
1.95643526E+02
  0
VERTEX
  8
0
 62
4
 10
-6.16173825E-01
 20
1.95627356E+02
  0
VERTEX
  8
0
 62
4
 10
-2.51788698E-01
 20
1.95616772E+02
  0
VERTEX
  8
0
 62
4
 10
1.16573197E-01
 20
1.95611858E+02
  0
VERTEX
  8
0
 62
4
 10
4.85992525E-01
 20
1.95612651E+02
  0
VERTEX
  8
0
 62
4
 10
8.53541568E-01
 20
1.95619147E+02
  0
VERTEX
  8
0
 62
4
 10
1.21630743E+00
 20
1.95631293E+02
  0
VERTEX
  8
0
 62
4
 10
1.57141513E+00
 20
1.95648993E+02
  0
VERTEX
  8
0
 62
4
 10
1.91605036E+00
 20
1.95672107E+02
  0
VERTEX
  8
0
 62
4
 10
2.24748184E+00
 20
1.95700452E+02
  0
VERTEX
  8
0
 62
4
 10
2.56308290E+00
 20
1.95733803E+02
  0
VERTEX
  8
0
 62
4
 10
2.86035235E+00
 20
1.95771896E+02
  0
VERTEX
  8
0
 62
4
 10
3.13693426E+00
 20
1.95814429E+02
  0
VERTEX
  8
0
 62
4
 10
3.39063669E+00
 20
1.95861064E+02
  0
VERTEX
  8
0
 62
4
 10
3.61944898E+00
 20
1.95911433E+02
  0
VERTEX
  8
0
 62
4
 10
3.82155777E+00
 20
1.95965136E+02
  0
VERTEX
  8
0
 62
4
 10
3.99536129E+00
 20
1.96021748E+02
  0
VERTEX
  8
0
 62
4
 10
4.13948213E+00
 20
1.96080819E+02
  0
VERTEX
  8
0
 62
4
 10
4.25277809E+00
 20
1.96141882E+02
  0
VERTEX
  8
0
 62
4
 10
4.33435129E+00
 20
1.96204452E+02
  0
VERTEX
  8
0
 62
4
 10
4.38355525E+00
 20
1.96268035E+02
  0
VERTEX
  8
0
 62
4
 10
4.40000001E+00
 20
1.96332125E+02
  0
SEQEND
  8
0
  0
ARC
  8
0
 62
4
 10
2.42261706E-01
 20
1.87175019E+02
 40
1.18100000E+01
 50
8.99624577E+01
 51
1.09675998E+02
  0
ARC
  8
0
 62
4
 10
2.57738294E-01
 20
1.87175019E+02
 40
1.18100000E+01
 50
7.03240015E+01
 51
9.00375421E+01
  0
LINE
  8
0
 62
4
 10
4.40000001E+00
 20
1.98060050E+02
 11
4.40000001E+00
 21
1.96332125E+02
  0
LINE
  8
0
 62
4
 10
-3.90000001E+00
 20
1.98060050E+02
 11
-3.90000001E+00
 21
1.97920941E+02
  0
LINE
  8
0
 62
4
 10
4.25000000E+00
 20
1.95957898E+02
 11
4.25000000E+00
 21
1.96140128E+02
  0
POLYLINE
  8
0
 62
4
 66
1
  0
VERTEX
  8
0
 62
4
 10
-3.44999999E+00
 20
1.95693976E+02
  0
VERTEX
  8
0
 62
4
 10
-3.30069202E+00
 20
1.95638056E+02
  0
VERTEX
  8
0
 62
4
 10
-3.12342334E+00
 20
1.95584655E+02
  0
VERTEX
  8
0
 62
4
 10
-2.91958989E+00
 20
1.95534193E+02
  0
VERTEX
  8
0
 62
4
 10
-2.69079680E+00
 20
1.95487068E+02
  0
VERTEX
  8
0
 62
4
 10
-2.43884575E+00
 20
1.95443650E+02
  0
VERTEX
  8
0
 62
4
 10
-2.16572079E+00
 20
1.95404282E+02
  0
VERTEX
  8
0
 62
4
 10
-1.87357270E+00
 20
1.95369273E+02
  0
VERTEX
  8
0
 62
4
 10
-1.56470207E+00
 20
1.95338900E+02
  0
VERTEX
  8
0
 62
4
 10
-1.24154116E+00
 20
1.95313401E+02
  0
VERTEX
  8
0
 62
4
 10
-9.06634786E-01
 20
1.95292977E+02
  0
VERTEX
  8
0
 62
4
 10
-5.62620231E-01
 20
1.95277790E+02
  0
VERTEX
  8
0
 62
4
 10
-2.12206517E-01
 20
1.95267958E+02
  0
VERTEX
  8
0
 62
4
 10
1.41846945E-01
 20
1.95263559E+02
  0
VERTEX
  8
0
 62
4
 10
4.96752081E-01
 20
1.95264628E+02
  0
VERTEX
  8
0
 62
4
 10
8.49714114E-01
 20
1.95271156E+02
  0
VERTEX
  8
0
 62
4
 10
1.19795357E+00
 20
1.95283092E+02
  0
VERTEX
  8
0
 62
4
 10
1.53872815E+00
 20
1.95300343E+02
  0
VERTEX
  8
0
 62
4
 10
1.86935435E+00
 20
1.95322771E+02
  0
VERTEX
  8
0
 62
4
 10
2.18722859E+00
 20
1.95350200E+02
  0
VERTEX
  8
0
 62
4
 10
2.48984769E+00
 20
1.95382415E+02
  0
VERTEX
  8
0
 62
4
 10
2.77482862E+00
 20
1.95419162E+02
  0
VERTEX
  8
0
 62
4
 10
3.03992722E+00
 20
1.95460151E+02
  0
VERTEX
  8
0
 62
4
 10
3.28305593E+00
 20
1.95505060E+02
  0
VERTEX
  8
0
 62
4
 10
3.50230016E+00
 20
1.95553535E+02
  0
VERTEX
  8
0
 62
4
 10
3.69593343E+00
 20
1.95605194E+02
  0
VERTEX
  8
0
 62
4
 10
3.86243093E+00
 20
1.95659630E+02
  0
VERTEX
  8
0
 62
4
 10
4.00048155E+00
 20
1.95716415E+02
  0
VERTEX
  8
0
 62
4
 10
4.10899817E+00
 20
1.95775102E+02
  0
VERTEX
  8
0
 62
4
 10
4.18712625E+00
 20
1.95835229E+02
  0
VERTEX
  8
0
 62
4
 10
4.23425056E+00
 20
1.95896321E+02
  0
VERTEX
  8
0
 62
4
 10
4.25000000E+00
 20
1.95957898E+02
  0
SEQEND
  8
0
  0
ARC
  8
0
 62
4
 10
2.36860555E+00
 20
1.86473809E+02
 40
1.25124521E+01
 50
9.49416351E+01
 51
1.08095416E+02
  0
ARC
  8
0
 62
4
 10
-1.86860584E+00
 20
1.86473807E+02
 40
1.25124547E+01
 50
7.19045858E+01
 51
8.50583647E+01
  0
POLYLINE
  8
0
 62
4
 66
1
  0
VERTEX
  8
0
 62
4
 10
-3.90000001E+00
 20
1.98065387E+02
  0
VERTEX
  8
0
 62
4
 10
-3.88329333E+00
 20
1.98000789E+02
  0
VERTEX
  8
0
 62
4
 10
-3.83330781E+00
 20
1.97936712E+02
  0
VERTEX
  8
0
 62
4
 10
-3.75044589E+00
 20
1.97873670E+02
  0
VERTEX
  8
0
 62
4
 10
-3.63537473E+00
 20
1.97812172E+02
  0
VERTEX
  8
0
 62
4
 10
-3.48902082E+00
 20
1.97752713E+02
  0
VERTEX
  8
0
 62
4
 10
-3.31256251E+00
 20
1.97695771E+02
  0
VERTEX
  8
0
 62
4
 10
-3.10742055E+00
 20
1.97641805E+02
  0
VERTEX
  8
0
 62
4
 10
-2.87524660E+00
 20
1.97591250E+02
  0
VERTEX
  8
0
 62
4
 10
-2.61791001E+00
 20
1.97544512E+02
  0
VERTEX
  8
0
 62
4
 10
-2.33748270E+00
 20
1.97501968E+02
  0
VERTEX
  8
0
 62
4
 10
-2.03622249E+00
 20
1.97463960E+02
  0
VERTEX
  8
0
 62
4
 10
-1.71655497E+00
 20
1.97430795E+02
  0
VERTEX
  8
0
 62
4
 10
-1.38105390E+00
 20
1.97402739E+02
  0
VERTEX
  8
0
 62
4
 10
-1.03242055E+00
 20
1.97380018E+02
  0
VERTEX
  8
0
 62
4
 10
-6.73461899E-01
 20
1.97362815E+02
  0
VERTEX
  8
0
 62
4
 10
-3.07068076E-01
 20
1.97351269E+02
  0
VERTEX
  8
0
 62
4
 10
6.38109315E-02
 20
1.97345473E+02
  0
VERTEX
  8
0
 62
4
 10
4.36189024E-01
 20
1.97345473E+02
  0
VERTEX
  8
0
 62
4
 10
8.07068032E-01
 20
1.97351269E+02
  0
VERTEX
  8
0
 62
4
 10
1.17346186E+00
 20
1.97362815E+02
  0
VERTEX
  8
0
 62
4
 10
1.53242051E+00
 20
1.97380018E+02
  0
VERTEX
  8
0
 62
4
 10
1.88105386E+00
 20
1.97402739E+02
  0
VERTEX
  8
0
 62
4
 10
2.21655493E+00
 20
1.97430795E+02
  0
VERTEX
  8
0
 62
4
 10
2.53622246E+00
 20
1.97463960E+02
  0
VERTEX
  8
0
 62
4
 10
2.83748266E+00
 20
1.97501968E+02
  0
VERTEX
  8
0
 62
4
 10
3.11790998E+00
 20
1.97544512E+02
  0
VERTEX
  8
0
 62
4
 10
3.37524657E+00
 20
1.97591250E+02
  0
VERTEX
  8
0
 62
4
 10
3.60742052E+00
 20
1.97641805E+02
  0
VERTEX
  8
0
 62
4
 10
3.81256249E+00
 20
1.97695771E+02
  0
VERTEX
  8
0
 62
4
 10
3.98902080E+00
 20
1.97752713E+02
  0
VERTEX
  8
0
 62
4
 10
4.13537471E+00
 20
1.97812172E+02
  0
VERTEX
  8
0
 62
4
 10
4.25044587E+00
 20
1.97873670E+02
  0
VERTEX
  8
0
 62
4
 10
4.33330780E+00
 20
1.97936712E+02
  0
VERTEX
  8
0
 62
4
 10
4.38329333E+00
 20
1.98000789E+02
  0
VERTEX
  8
0
 62
4
 10
4.40000001E+00
 20
1.98065387E+02
  0
SEQEND
  8
0
  0
ARC
  8
0
 62
4
 10
4.15000001E+00
 20
1.98060050E+02
 40
2.50000000E-01
 50
0.00000000E+00
 51
7.03240015E+01
  0
ARC
  8
0
 62
4
 10
-3.65000001E+00
 20
1.98060050E+02
 40
2.50000000E-01
 50
1.09675998E+02
 51
1.80000000E+02
  0
LINE
  8
0
 62
4
 10
-3.45000000E+00
 20
1.96334937E+02
 11
-3.45000000E+00
 21
1.95350130E+02
  0
LINE
  8
0
 62
4
 10
-1.10500000E+01
 20
1.96334937E+02
 11
-1.10500000E+01
 21
1.95350130E+02
  0
POLYLINE
  8
0
 62
4
 66
1
  0
VERTEX
  8
0
 62
4
 10
-1.10500000E+01
 20
1.95350130E+02
  0
VERTEX
  8
0
 62
4
 10
-1.10347023E+01
 20
1.95290980E+02
  0
VERTEX
  8
0
 62
4
 10
-1.09889324E+01
 20
1.95232307E+02
  0
VERTEX
  8
0
 62
4
 10
-1.09130589E+01
 20
1.95174582E+02
  0
VERTEX
  8
0
 62
4
 10
-1.08076925E+01
 20
1.95118271E+02
  0
VERTEX
  8
0
 62
4
 10
-1.06736817E+01
 20
1.95063826E+02
  0
VERTEX
  8
0
 62
4
 10
-1.05121054E+01
 20
1.95011687E+02
  0
VERTEX
  8
0
 62
4
 10
-1.03242646E+01
 20
1.94962272E+02
  0
VERTEX
  8
0
 62
4
 10
-1.01116716E+01
 20
1.94915981E+02
  0
VERTEX
  8
0
 62
4
 10
-9.87603808E+00
 20
1.94873184E+02
  0
VERTEX
  8
0
 62
4
 10
-9.61926126E+00
 20
1.94834228E+02
  0
VERTEX
  8
0
 62
4
 10
-9.34340854E+00
 20
1.94799426E+02
  0
VERTEX
  8
0
 62
4
 10
-9.05070093E+00
 20
1.94769058E+02
  0
VERTEX
  8
0
 62
4
 10
-8.74349514E+00
 20
1.94743368E+02
  0
VERTEX
  8
0
 62
4
 10
-8.42426460E+00
 20
1.94722563E+02
  0
VERTEX
  8
0
 62
4
 10
-8.09557957E+00
 20
1.94706811E+02
  0
VERTEX
  8
0
 62
4
 10
-7.76008643E+00
 20
1.94696239E+02
  0
VERTEX
  8
0
 62
4
 10
-7.42048638E+00
 20
1.94690931E+02
  0
VERTEX
  8
0
 62
4
 10
-7.07951367E+00
 20
1.94690931E+02
  0
VERTEX
  8
0
 62
4
 10
-6.73991361E+00
 20
1.94696239E+02
  0
VERTEX
  8
0
 62
4
 10
-6.40442047E+00
 20
1.94706811E+02
  0
VERTEX
  8
0
 62
4
 10
-6.07573544E+00
 20
1.94722563E+02
  0
VERTEX
  8
0
 62
4
 10
-5.75650490E+00
 20
1.94743368E+02
  0
VERTEX
  8
0
 62
4
 10
-5.44929910E+00
 20
1.94769058E+02
  0
VERTEX
  8
0
 62
4
 10
-5.15659149E+00
 20
1.94799426E+02
  0
VERTEX
  8
0
 62
4
 10
-4.88073877E+00
 20
1.94834228E+02
  0
VERTEX
  8
0
 62
4
 10
-4.62396195E+00
 20
1.94873184E+02
  0
VERTEX
  8
0
 62
4
 10
-4.38832845E+00
 20
1.94915981E+02
  0
VERTEX
  8
0
 62
4
 10
-4.17573544E+00
 20
1.94962272E+02
  0
VERTEX
  8
0
 62
4
 10
-3.98789460E+00
 20
1.95011687E+02
  0
VERTEX
  8
0
 62
4
 10
-3.82631831E+00
 20
1.95063826E+02
  0
VERTEX
  8
0
 62
4
 10
-3.69230750E+00
 20
1.95118271E+02
  0
VERTEX
  8
0
 62
4
 10
-3.58694114E+00
 20
1.95174582E+02
  0
VERTEX
  8
0
 62
4
 10
-3.51106757E+00
 20
1.95232307E+02
  0
VERTEX
  8
0
 62
4
 10
-3.46529769E+00
 20
1.95290980E+02
  0
VERTEX
  8
0
 62
4
 10
-3.45000000E+00
 20
1.95350130E+02
  0
SEQEND
  8
0
  0
POLYLINE
  8
0
 62
4
 66
1
  0
VERTEX
  8
0
 62
4
 10
-1.06500000E+01
 20
1.96629628E+02
  0
VERTEX
  8
0
 62
4
 10
-1.07865817E+01
 20
1.96576339E+02
  0
VERTEX
  8
0
 62
4
 10
-1.08955295E+01
 20
1.96521163E+02
  0
VERTEX
  8
0
 62
4
 10
-1.09759923E+01
 20
1.96464533E+02
  0
VERTEX
  8
0
 62
4
 10
-1.10273413E+01
 20
1.96406890E+02
  0
VERTEX
  8
0
 62
4
 10
-1.10491753E+01
 20
1.96348684E+02
  0
VERTEX
  8
0
 62
4
 10
-1.10413236E+01
 20
1.96290371E+02
  0
VERTEX
  8
0
 62
4
 10
-1.10038476E+01
 20
1.96232407E+02
  0
VERTEX
  8
0
 62
4
 10
-1.09370402E+01
 20
1.96175244E+02
  0
VERTEX
  8
0
 62
4
 10
-1.08414234E+01
 20
1.96119328E+02
  0
VERTEX
  8
0
 62
4
 10
-1.07177442E+01
 20
1.96065097E+02
  0
VERTEX
  8
0
 62
4
 10
-1.05669691E+01
 20
1.96012975E+02
  0
VERTEX
  8
0
 62
4
 10
-1.03902762E+01
 20
1.95963368E+02
  0
VERTEX
  8
0
 62
4
 10
-1.01890462E+01
 20
1.95916664E+02
  0
VERTEX
  8
0
 62
4
 10
-9.96485124E+00
 20
1.95873229E+02
  0
VERTEX
  8
0
 62
4
 10
-9.71944328E+00
 20
1.95833402E+02
  0
VERTEX
  8
0
 62
4
 10
-9.45473982E+00
 20
1.95797493E+02
  0
VERTEX
  8
0
 62
4
 10
-9.17280918E+00
 20
1.95765784E+02
  0
VERTEX
  8
0
 62
4
 10
-8.87585428E+00
 20
1.95738522E+02
  0
VERTEX
  8
0
 62
4
 10
-8.56619544E+00
 20
1.95715920E+02
  0
VERTEX
  8
0
 62
4
 10
-8.24625223E+00
 20
1.95698155E+02
  0
VERTEX
  8
0
 62
4
 10
-7.91852461E+00
 20
1.95685366E+02
  0
VERTEX
  8
0
 62
4
 10
-7.58557333E+00
 20
1.95677652E+02
  0
VERTEX
  8
0
 62
4
 10
-7.24999998E+00
 20
1.95675074E+02
  0
VERTEX
  8
0
 62
4
 10
-6.91442663E+00
 20
1.95677652E+02
  0
VERTEX
  8
0
 62
4
 10
-6.58147536E+00
 20
1.95685366E+02
  0
VERTEX
  8
0
 62
4
 10
-6.25374773E+00
 20
1.95698155E+02
  0
VERTEX
  8
0
 62
4
 10
-5.93380453E+00
 20
1.95715920E+02
  0
VERTEX
  8
0
 62
4
 10
-5.62414569E+00
 20
1.95738522E+02
  0
VERTEX
  8
0
 62
4
 10
-5.32719079E+00
 20
1.95765784E+02
  0
VERTEX
  8
0
 62
4
 10
-5.04526015E+00
 20
1.95797493E+02
  0
VERTEX
  8
0
 62
4
 10
-4.78055669E+00
 20
1.95833402E+02
  0
VERTEX
  8
0
 62
4
 10
-4.53514873E+00
 20
1.95873229E+02
  0
VERTEX
  8
0
 62
4
 10
-4.31095382E+00
 20
1.95916664E+02
  0
VERTEX
  8
0
 62
4
 10
-4.10972374E+00
 20
1.95963368E+02
  0
VERTEX
  8
0
 62
4
 10
-3.93303084E+00
 20
1.96012975E+02
  0
VERTEX
  8
0
 62
4
 10
-3.78225576E+00
 20
1.96065097E+02
  0
VERTEX
  8
0
 62
4
 10
-3.65857661E+00
 20
1.96119328E+02
  0
VERTEX
  8
0
 62
4
 10
-3.56295977E+00
 20
1.96175244E+02
  0
VERTEX
  8
0
 62
4
 10
-3.49615237E+00
 20
1.96232407E+02
  0
VERTEX
  8
0
 62
4
 10
-3.45867642E+00
 20
1.96290371E+02
  0
VERTEX
  8
0
 62
4
 10
-3.45082475E+00
 20
1.96348684E+02
  0
VERTEX
  8
0
 62
4
 10
-3.47265871E+00
 20
1.96406890E+02
  0
VERTEX
  8
0
 62
4
 10
-3.52400769E+00
 20
1.96464533E+02
  0
VERTEX
  8
0
 62
4
 10
-3.60447047E+00
 20
1.96521163E+02
  0
VERTEX
  8
0
 62
4
 10
-3.71341834E+00
 20
1.96576339E+02
  0
VERTEX
  8
0
 62
4
 10
-3.85000001E+00
 20
1.96629628E+02
  0
SEQEND
  8
0
  0
LINE
  8
0
 62
4
 10
-3.85000000E+00
 20
1.97608690E+02
 11
-3.85000000E+00
 21
1.96334937E+02
  0
LINE
  8
0
 62
4
 10
-1.06500000E+01
 20
1.97608690E+02
 11
-1.06500000E+01
 21
1.96334937E+02
  0
POLYLINE
  8
0
 62
4
 66
1
  0
VERTEX
  8
0
 62
4
 10
-1.06500000E+01
 20
1.96334937E+02
  0
VERTEX
  8
0
 62
4
 10
-1.06363126E+01
 20
1.96282014E+02
  0
VERTEX
  8
0
 62
4
 10
-1.05953606E+01
 20
1.96229516E+02
  0
VERTEX
  8
0
 62
4
 10
-1.05274737E+01
 20
1.96177868E+02
  0
VERTEX
  8
0
 62
4
 10
-1.04331986E+01
 20
1.96127484E+02
  0
VERTEX
  8
0
 62
4
 10
-1.03132942E+01
 20
1.96078770E+02
  0
VERTEX
  8
0
 62
4
 10
-1.01687259E+01
 20
1.96032119E+02
  0
VERTEX
  8
0
 62
4
 10
-1.00006578E+01
 20
1.95987906E+02
  0
VERTEX
  8
0
 62
4
 10
-9.81044299E+00
 20
1.95946487E+02
  0
VERTEX
  8
0
 62
4
 10
-9.59961302E+00
 20
1.95908196E+02
  0
VERTEX
  8
0
 62
4
 10
-9.36986534E+00
 20
1.95873341E+02
  0
VERTEX
  8
0
 62
4
 10
-9.12304975E+00
 20
1.95842202E+02
  0
VERTEX
  8
0
 62
4
 10
-8.86115347E+00
 20
1.95815030E+02
  0
VERTEX
  8
0
 62
4
 10
-8.58628512E+00
 20
1.95792044E+02
  0
VERTEX
  8
0
 62
4
 10
-8.30065780E+00
 20
1.95773430E+02
  0
VERTEX
  8
0
 62
4
 10
-8.00657119E+00
 20
1.95759336E+02
  0
VERTEX
  8
0
 62
4
 10
-7.70639312E+00
 20
1.95749876E+02
  0
VERTEX
  8
0
 62
4
 10
-7.40254044E+00
 20
1.95745128E+02
  0
VERTEX
  8
0
 62
4
 10
-7.09745960E+00
 20
1.95745128E+02
  0
VERTEX
  8
0
 62
4
 10
-6.79360691E+00
 20
1.95749876E+02
  0
VERTEX
  8
0
 62
4
 10
-6.49342884E+00
 20
1.95759336E+02
  0
VERTEX
  8
0
 62
4
 10
-6.19934224E+00
 20
1.95773430E+02
  0
VERTEX
  8
0
 62
4
 10
-5.91371491E+00
 20
1.95792044E+02
  0
VERTEX
  8
0
 62
4
 10
-5.63884657E+00
 20
1.95815030E+02
  0
VERTEX
  8
0
 62
4
 10
-5.37695028E+00
 20
1.95842202E+02
  0
VERTEX
  8
0
 62
4
 10
-5.13013469E+00
 20
1.95873341E+02
  0
VERTEX
  8
0
 62
4
 10
-4.90038701E+00
 20
1.95908196E+02
  0
VERTEX
  8
0
 62
4
 10
-4.68955703E+00
 20
1.95946487E+02
  0
VERTEX
  8
0
 62
4
 10
-4.49934223E+00
 20
1.95987906E+02
  0
VERTEX
  8
0
 62
4
 10
-4.33127411E+00
 20
1.96032119E+02
  0
VERTEX
  8
0
 62
4
 10
-4.18670586E+00
 20
1.96078770E+02
  0
VERTEX
  8
0
 62
4
 10
-4.06680145E+00
 20
1.96127484E+02
  0
VERTEX
  8
0
 62
4
 10
-3.97252628E+00
 20
1.96177868E+02
  0
VERTEX
  8
0
 62
4
 10
-3.90463940E+00
 20
1.96229516E+02
  0
VERTEX
  8
0
 62
4
 10
-3.86368740E+00
 20
1.96282014E+02
  0
VERTEX
  8
0
 62
4
 10
-3.85000000E+00
 20
1.96334937E+02
  0
SEQEND
  8
0
  0
ARC
  8
0
 62
4
 10
-7.25000000E+00
 20
1.87068476E+02
 40
1.18100000E+01
 50
7.71724899E+01
 51
1.02827510E+02
  0
ARC
  8
0
 62
4
 10
-9.65000032E+00
 20
1.97608690E+02
 40
1.00000000E+00
 50
1.02827510E+02
 51
1.80000000E+02
  0
ARC
  8
0
 62
4
 10
-4.84999968E+00
 20
1.97608690E+02
 40
1.00000000E+00
 50
3.60000000E+02
 51
7.71724899E+01
  0
ARC
  8
0
 62
4
 10
-5.12824646E+00
 20
1.86349333E+02
 40
1.25306621E+01
 50
9.49686598E+01
 51
1.08083352E+02
  0
ARC
  8
0
 62
4
 10
-9.37175360E+00
 20
1.86349333E+02
 40
1.25306626E+01
 50
7.19166483E+01
 51
8.50313400E+01
  0
LINE
  8
0
  6
CENTER
 62
6
 10
2.75000001E+00
 20
1.95957898E+02
 11
-2.24999999E+00
 21
1.95957898E+02
  0
LINE
  8
0
  6
CENTER
 62
6
 10
-7.25000000E+00
 20
1.92850130E+02
 11
-7.25000000E+00
 21
1.97850130E+02
  0
LINE
  8
0
  6
CENTER
 62
6
 10
-4.74999999E+00
 20
1.95350130E+02
 11
-9.74999999E+00
 21
1.95350130E+02
  0
LINE
  8
0
  6
CENTER
 62
6
 10
7.75000000E+00
 20
1.92850130E+02
 11
7.75000000E+00
 21
1.97850130E+02
  0
LINE
  8
0
  6
CENTER
 62
6
 10
1.02500000E+01
 20
1.95350130E+02
 11
5.25000001E+00
 21
1.95350130E+02
  0
LINE
  8
0
 62
4
 10
-1.10431106E+01
 20
1.96374654E+02
 11
-1.47500000E+01
 21
1.96374654E+02
  0
LINE
  8
0
 62
6
 10
-4.87500000E+01
 20
2.37372770E+02
 11
-4.87500000E+01
 21
2.35021733E+02
  0
LINE
  8
0
 62
6
 10
-4.57500000E+01
 20
2.37372770E+02
 11
-4.57500000E+01
 21
2.35021733E+02
  0
LINE
  8
0
 62
4
 10
-4.92500000E+01
 20
2.37143055E+02
 11
-4.92500000E+01
 21
2.35021733E+02
  0
LINE
  8
0
 62
4
 10
-4.52500000E+01
 20
2.37143055E+02
 11
-4.52500000E+01
 21
2.35021733E+02
  0
LINE
  8
0
 62
4
 10
-5.87500000E+01
 20
2.35021733E+02
 11
-5.87500000E+01
 21
2.22313736E+02
  0
LINE
  8
0
 62
4
 10
-4.37500000E+01
 20
2.35021733E+02
 11
-4.37500000E+01
 21
2.09391846E+02
  0
LINE
  8
0
 62
4
 10
-7.37500000E+01
 20
2.22313736E+02
 11
-7.37500000E+01
 21
2.10364275E+02
  0
LINE
  8
0
  6
CENTER
 62
6
 10
-5.87500000E+01
 20
2.13281031E+02
 11
-5.87500000E+01
 21
2.08281031E+02
  0
LINE
  8
0
 62
4
 10
-5.87500000E+01
 20
2.35021733E+02
 11
-4.37500000E+01
 21
2.35021733E+02
  0
LINE
  8
0
 62
4
 10
-5.87500000E+01
 20
2.29207391E+02
 11
-4.37500000E+01
 21
2.29207391E+02
  0
LINE
  8
0
 62
4
 10
-7.37500000E+01
 20
2.22313736E+02
 11
-4.37500000E+01
 21
2.22313736E+02
  0
LINE
  8
0
 62
4
 10
-7.37500000E+01
 20
2.12170216E+02
 11
-4.37500000E+01
 21
2.12170216E+02
  0
LINE
  8
0
 62
4
 10
-4.78500000E+01
 20
2.09391846E+02
 11
-4.37500000E+01
 21
2.09391846E+02
  0
LINE
  8
0
 62
4
 10
-4.78500000E+01
 20
2.09565494E+02
 11
-4.37500000E+01
 21
2.09565494E+02
  0
LINE
  8
0
 62
4
 10
-7.37500000E+01
 20
2.10364275E+02
 11
-6.29000000E+01
 21
2.10364275E+02
  0
POLYLINE
  8
0
 62
4
 66
1
  0
VERTEX
  8
0
 62
4
 10
-4.52500000E+01
 20
2.37143055E+02
  0
VERTEX
  8
0
 62
4
 10
-4.52580514E+01
 20
2.37174186E+02
  0
VERTEX
  8
0
 62
4
 10
-4.52821408E+01
 20
2.37205067E+02
  0
VERTEX
  8
0
 62
4
 10
-4.53220743E+01
 20
2.37235449E+02
  0
VERTEX
  8
0
 62
4
 10
-4.53775303E+01
 20
2.37265086E+02
  0
VERTEX
  8
0
 62
4
 10
-4.54480623E+01
 20
2.37293741E+02
  0
VERTEX
  8
0
 62
4
 10
-4.55331024E+01
 20
2.37321183E+02
  0
VERTEX
  8
0
 62
4
 10
-4.56319660E+01
 20
2.37347191E+02
  0
VERTEX
  8
0
 62
4
 10
-4.57438571E+01
 20
2.37371555E+02
  0
VERTEX
  8
0
 62
4
 10
-4.58678747E+01
 20
2.37394079E+02
  0
VERTEX
  8
0
 62
4
 10
-4.60030204E+01
 20
2.37414582E+02
  0
VERTEX
  8
0
 62
4
 10
-4.61482060E+01
 20
2.37432899E+02
  0
VERTEX
  8
0
 62
4
 10
-4.63022627E+01
 20
2.37448883E+02
  0
VERTEX
  8
0
 62
4
 10
-4.64639499E+01
 20
2.37462404E+02
  0
VERTEX
  8
0
 62
4
 10
-4.66319660E+01
 20
2.37473353E+02
  0
VERTEX
  8
0
 62
4
 10
-4.68049581E+01
 20
2.37481644E+02
  0
VERTEX
  8
0
 62
4
 10
-4.69815335E+01
 20
2.37487208E+02
  0
VERTEX
  8
0
 62
4
 10
-4.71602703E+01
 20
2.37490002E+02
  0
VERTEX
  8
0
 62
4
 10
-4.73397296E+01
 20
2.37490002E+02
  0
VERTEX
  8
0
 62
4
 10
-4.75184665E+01
 20
2.37487208E+02
  0
VERTEX
  8
0
 62
4
 10
-4.76950419E+01
 20
2.37481644E+02
  0
VERTEX
  8
0
 62
4
 10
-4.78680340E+01
 20
2.37473353E+02
  0
VERTEX
  8
0
 62
4
 10
-4.80360501E+01
 20
2.37462404E+02
  0
VERTEX
  8
0
 62
4
 10
-4.81977373E+01
 20
2.37448883E+02
  0
VERTEX
  8
0
 62
4
 10
-4.83517940E+01
 20
2.37432899E+02
  0
VERTEX
  8
0
 62
4
 10
-4.84969796E+01
 20
2.37414582E+02
  0
VERTEX
  8
0
 62
4
 10
-4.86321253E+01
 20
2.37394079E+02
  0
VERTEX
  8
0
 62
4
 10
-4.87561429E+01
 20
2.37371555E+02
  0
VERTEX
  8
0
 62
4
 10
-4.88680340E+01
 20
2.37347191E+02
  0
VERTEX
  8
0
 62
4
 10
-4.89668976E+01
 20
2.37321183E+02
  0
VERTEX
  8
0
 62
4
 10
-4.90519377E+01
 20
2.37293741E+02
  0
VERTEX
  8
0
 62
4
 10
-4.91224697E+01
 20
2.37265086E+02
  0
VERTEX
  8
0
 62
4
 10
-4.91779257E+01
 20
2.37235449E+02
  0
VERTEX
  8
0
 62
4
 10
-4.92178592E+01
 20
2.37205067E+02
  0
VERTEX
  8
0
 62
4
 10
-4.92419486E+01
 20
2.37174186E+02
  0
VERTEX
  8
0
 62
4
 10
-4.92500000E+01
 20
2.37143055E+02
  0
SEQEND
  8
0
  0
LINE
  8
0
 62
6
 10
-5.67500000E+01
 20
2.37372770E+02
 11
-5.67500000E+01
 21
2.35021733E+02
  0
LINE
  8
0
 62
6
 10
-5.37500000E+01
 20
2.37372770E+02
 11
-5.37500000E+01
 21
2.35021733E+02
  0
LINE
  8
0
 62
4
 10
-5.72500000E+01
 20
2.37143055E+02
 11
-5.72500000E+01
 21
2.35021733E+02
  0
LINE
  8
0
 62
4
 10
-5.32500000E+01
 20
2.37143055E+02
 11
-5.32500000E+01
 21
2.35021733E+02
  0
POLYLINE
  8
0
 62
4
 66
1
  0
VERTEX
  8
0
 62
4
 10
-5.32500000E+01
 20
2.37143055E+02
  0
VERTEX
  8
0
 62
4
 10
-5.32580514E+01
 20
2.37174186E+02
  0
VERTEX
  8
0
 62
4
 10
-5.32821408E+01
 20
2.37205067E+02
  0
VERTEX
  8
0
 62
4
 10
-5.33220743E+01
 20
2.37235449E+02
  0
VERTEX
  8
0
 62
4
 10
-5.33775303E+01
 20
2.37265086E+02
  0
VERTEX
  8
0
 62
4
 10
-5.34480623E+01
 20
2.37293741E+02
  0
VERTEX
  8
0
 62
4
 10
-5.35331024E+01
 20
2.37321183E+02
  0
VERTEX
  8
0
 62
4
 10
-5.36319660E+01
 20
2.37347191E+02
  0
VERTEX
  8
0
 62
4
 10
-5.37438571E+01
 20
2.37371555E+02
  0
VERTEX
  8
0
 62
4
 10
-5.38678747E+01
 20
2.37394079E+02
  0
VERTEX
  8
0
 62
4
 10
-5.40030204E+01
 20
2.37414582E+02
  0
VERTEX
  8
0
 62
4
 10
-5.41482060E+01
 20
2.37432899E+02
  0
VERTEX
  8
0
 62
4
 10
-5.43022627E+01
 20
2.37448883E+02
  0
VERTEX
  8
0
 62
4
 10
-5.44639499E+01
 20
2.37462404E+02
  0
VERTEX
  8
0
 62
4
 10
-5.46319660E+01
 20
2.37473353E+02
  0
VERTEX
  8
0
 62
4
 10
-5.48049581E+01
 20
2.37481644E+02
  0
VERTEX
  8
0
 62
4
 10
-5.49815335E+01
 20
2.37487208E+02
  0
VERTEX
  8
0
 62
4
 10
-5.51602703E+01
 20
2.37490002E+02
  0
VERTEX
  8
0
 62
4
 10
-5.53397296E+01
 20
2.37490002E+02
  0
VERTEX
  8
0
 62
4
 10
-5.55184665E+01
 20
2.37487208E+02
  0
VERTEX
  8
0
 62
4
 10
-5.56950419E+01
 20
2.37481644E+02
  0
VERTEX
  8
0
 62
4
 10
-5.58680340E+01
 20
2.37473353E+02
  0
VERTEX
  8
0
 62
4
 10
-5.60360501E+01
 20
2.37462404E+02
  0
VERTEX
  8
0
 62
4
 10
-5.61977373E+01
 20
2.37448883E+02
  0
VERTEX
  8
0
 62
4
 10
-5.63517940E+01
 20
2.37432899E+02
  0
VERTEX
  8
0
 62
4
 10
-5.64969796E+01
 20
2.37414582E+02
  0
VERTEX
  8
0
 62
4
 10
-5.66321253E+01
 20
2.37394079E+02
  0
VERTEX
  8
0
 62
4
 10
-5.67561429E+01
 20
2.37371555E+02
  0
VERTEX
  8
0
 62
4
 10
-5.68680340E+01
 20
2.37347191E+02
  0
VERTEX
  8
0
 62
4
 10
-5.69668976E+01
 20
2.37321183E+02
  0
VERTEX
  8
0
 62
4
 10
-5.70519377E+01
 20
2.37293741E+02
  0
VERTEX
  8
0
 62
4
 10
-5.71224697E+01
 20
2.37265086E+02
  0
VERTEX
  8
0
 62
4
 10
-5.71779257E+01
 20
2.37235449E+02
  0
VERTEX
  8
0
 62
4
 10
-5.72178592E+01
 20
2.37205067E+02
  0
VERTEX
  8
0
 62
4
 10
-5.72419486E+01
 20
2.37174186E+02
  0
VERTEX
  8
0
 62
4
 10
-5.72500000E+01
 20
2.37143055E+02
  0
SEQEND
  8
0
  0
LINE
  8
0
 62
4
 10
-7.37500000E+01
 20
2.14019721E+02
 11
-7.52500000E+01
 21
2.13016788E+02
  0
LINE
  8
0
 62
4
 10
-7.52500000E+01
 20
2.13016788E+02
 11
-7.52500000E+01
 21
2.10392886E+02
  0
LINE
  8
0
 62
4
 10
-7.52500000E+01
 20
2.10786199E+02
 11
-7.37500000E+01
 21
2.10080490E+02
  0
LINE
  8
0
 62
4
 10
-7.52500000E+01
 20
2.10392886E+02
 11
-7.37500000E+01
 21
2.09385897E+02
  0
LINE
  8
0
 62
4
 10
-7.37500000E+01
 20
2.09385897E+02
 11
-6.29000000E+01
 21
2.09385897E+02
  0
LINE
  8
0
 62
4
 10
-7.37500000E+01
 20
2.10080490E+02
 11
-6.29000000E+01
 21
2.10080490E+02
  0
LINE
  8
0
 62
4
 10
-7.37500000E+01
 20
2.10364275E+02
 11
-7.37500000E+01
 21
2.09391846E+02
  0
POLYLINE
  8
0
 62
4
 66
1
  0
VERTEX
  8
0
 62
4
 10
-5.50500000E+01
 20
2.10733175E+02
  0
VERTEX
  8
0
 62
4
 10
-5.52318150E+01
 20
2.10789022E+02
  0
VERTEX
  8
0
 62
4
 10
-5.54415122E+01
 20
2.10841841E+02
  0
VERTEX
  8
0
 62
4
 10
-5.56774299E+01
 20
2.10891211E+02
  0
VERTEX
  8
0
 62
4
 10
-5.59376982E+01
 20
2.10936743E+02
  0
VERTEX
  8
0
 62
4
 10
-5.62202545E+01
 20
2.10978074E+02
  0
VERTEX
  8
0
 62
4
 10
-5.65228596E+01
 20
2.11014879E+02
  0
VERTEX
  8
0
 62
4
 10
-5.68431151E+01
 20
2.11046864E+02
  0
VERTEX
  8
0
 62
4
 10
-5.71784831E+01
 20
2.11073777E+02
  0
VERTEX
  8
0
 62
4
 10
-5.75263056E+01
 20
2.11095403E+02
  0
VERTEX
  8
0
 62
4
 10
-5.78838262E+01
 20
2.11111573E+02
  0
VERTEX
  8
0
 62
4
 10
-5.82482113E+01
 20
2.11122157E+02
  0
VERTEX
  8
0
 62
4
 10
-5.86165732E+01
 20
2.11127071E+02
  0
VERTEX
  8
0
 62
4
 10
-5.89859925E+01
 20
2.11126278E+02
  0
VERTEX
  8
0
 62
4
 10
-5.93535416E+01
 20
2.11119782E+02
  0
VERTEX
  8
0
 62
4
 10
-5.97163074E+01
 20
2.11107636E+02
  0
VERTEX
  8
0
 62
4
 10
-6.00714151E+01
 20
2.11089936E+02
  0
VERTEX
  8
0
 62
4
 10
-6.04160504E+01
 20
2.11066822E+02
  0
VERTEX
  8
0
 62
4
 10
-6.07474818E+01
 20
2.11038477E+02
  0
VERTEX
  8
0
 62
4
 10
-6.10630829E+01
 20
2.11005126E+02
  0
VERTEX
  8
0
 62
4
 10
-6.13603523E+01
 20
2.10967033E+02
  0
VERTEX
  8
0
 62
4
 10
-6.16369343E+01
 20
2.10924500E+02
  0
VERTEX
  8
0
 62
4
 10
-6.18906367E+01
 20
2.10877865E+02
  0
VERTEX
  8
0
 62
4
 10
-6.21194490E+01
 20
2.10827496E+02
  0
VERTEX
  8
0
 62
4
 10
-6.23215578E+01
 20
2.10773793E+02
  0
VERTEX
  8
0
 62
4
 10
-6.24953613E+01
 20
2.10717181E+02
  0
VERTEX
  8
0
 62
4
 10
-6.26394821E+01
 20
2.10658110E+02
  0
VERTEX
  8
0
 62
4
 10
-6.27527781E+01
 20
2.10597047E+02
  0
VERTEX
  8
0
 62
4
 10
-6.28343513E+01
 20
2.10534477E+02
  0
VERTEX
  8
0
 62
4
 10
-6.28835552E+01
 20
2.10470894E+02
  0
VERTEX
  8
0
 62
4
 10
-6.29000000E+01
 20
2.10406804E+02
  0
SEQEND
  8
0
  0
ARC
  8
0
 62
4
 10
-5.87422617E+01
 20
2.19563910E+02
 40
1.18100000E+01
 50
2.69962458E+02
 51
2.89675999E+02
  0
ARC
  8
0
 62
4
 10
-5.87577383E+01
 20
2.19563910E+02
 40
1.18100000E+01
 50
2.50324001E+02
 51
2.70037542E+02
  0
LINE
  8
0
 62
4
 10
-6.29000000E+01
 20
2.08678879E+02
 11
-6.29000000E+01
 21
2.10406804E+02
  0
LINE
  8
0
 62
4
 10
-5.46000000E+01
 20
2.08678879E+02
 11
-5.46000000E+01
 21
2.08817989E+02
  0
LINE
  8
0
 62
4
 10
-6.27500000E+01
 20
2.10781031E+02
 11
-6.27500000E+01
 21
2.10598801E+02
  0
POLYLINE
  8
0
 62
4
 66
1
  0
VERTEX
  8
0
 62
4
 10
-5.50500000E+01
 20
2.11044953E+02
  0
VERTEX
  8
0
 62
4
 10
-5.51993080E+01
 20
2.11100873E+02
  0
VERTEX
  8
0
 62
4
 10
-5.53765767E+01
 20
2.11154274E+02
  0
VERTEX
  8
0
 62
4
 10
-5.55804101E+01
 20
2.11204736E+02
  0
VERTEX
  8
0
 62
4
 10
-5.58092032E+01
 20
2.11251861E+02
  0
VERTEX
  8
0
 62
4
 10
-5.60611542E+01
 20
2.11295279E+02
  0
VERTEX
  8
0
 62
4
 10
-5.63342792E+01
 20
2.11334647E+02
  0
VERTEX
  8
0
 62
4
 10
-5.66264273E+01
 20
2.11369656E+02
  0
VERTEX
  8
0
 62
4
 10
-5.69352979E+01
 20
2.11400029E+02
  0
VERTEX
  8
0
 62
4
 10
-5.72584588E+01
 20
2.11425528E+02
  0
VERTEX
  8
0
 62
4
 10
-5.75933652E+01
 20
2.11445952E+02
  0
VERTEX
  8
0
 62
4
 10
-5.79373798E+01
 20
2.11461139E+02
  0
VERTEX
  8
0
 62
4
 10
-5.82877935E+01
 20
2.11470971E+02
  0
VERTEX
  8
0
 62
4
 10
-5.86418469E+01
 20
2.11475370E+02
  0
VERTEX
  8
0
 62
4
 10
-5.89967521E+01
 20
2.11474301E+02
  0
VERTEX
  8
0
 62
4
 10
-5.93497141E+01
 20
2.11467773E+02
  0
VERTEX
  8
0
 62
4
 10
-5.96979536E+01
 20
2.11455837E+02
  0
VERTEX
  8
0
 62
4
 10
-6.00387281E+01
 20
2.11438586E+02
  0
VERTEX
  8
0
 62
4
 10
-6.03693543E+01
 20
2.11416158E+02
  0
VERTEX
  8
0
 62
4
 10
-6.06872286E+01
 20
2.11388729E+02
  0
VERTEX
  8
0
 62
4
 10
-6.09898477E+01
 20
2.11356514E+02
  0
VERTEX
  8
0
 62
4
 10
-6.12748286E+01
 20
2.11319767E+02
  0
VERTEX
  8
0
 62
4
 10
-6.15399272E+01
 20
2.11278778E+02
  0
VERTEX
  8
0
 62
4
 10
-6.17830559E+01
 20
2.11233869E+02
  0
VERTEX
  8
0
 62
4
 10
-6.20023002E+01
 20
2.11185394E+02
  0
VERTEX
  8
0
 62
4
 10
-6.21959334E+01
 20
2.11133735E+02
  0
VERTEX
  8
0
 62
4
 10
-6.23624309E+01
 20
2.11079299E+02
  0
VERTEX
  8
0
 62
4
 10
-6.25004816E+01
 20
2.11022514E+02
  0
VERTEX
  8
0
 62
4
 10
-6.26089982E+01
 20
2.10963827E+02
  0
VERTEX
  8
0
 62
4
 10
-6.26871262E+01
 20
2.10903701E+02
  0
VERTEX
  8
0
 62
4
 10
-6.27342506E+01
 20
2.10842608E+02
  0
VERTEX
  8
0
 62
4
 10
-6.27500000E+01
 20
2.10781031E+02
  0
SEQEND
  8
0
  0
ARC
  8
0
 62
4
 10
-6.08686056E+01
 20
2.20265120E+02
 40
1.25124521E+01
 50
2.74941635E+02
 51
2.88095416E+02
  0
ARC
  8
0
 62
4
 10
-5.66313942E+01
 20
2.20265123E+02
 40
1.25124547E+01
 50
2.51904586E+02
 51
2.65058365E+02
  0
POLYLINE
  8
0
 62
4
 66
1
  0
VERTEX
  8
0
 62
4
 10
-5.46000000E+01
 20
2.08673542E+02
  0
VERTEX
  8
0
 62
4
 10
-5.46167067E+01
 20
2.08738140E+02
  0
VERTEX
  8
0
 62
4
 10
-5.46666922E+01
 20
2.08802217E+02
  0
VERTEX
  8
0
 62
4
 10
-5.47495541E+01
 20
2.08865259E+02
  0
VERTEX
  8
0
 62
4
 10
-5.48646253E+01
 20
2.08926757E+02
  0
VERTEX
  8
0
 62
4
 10
-5.50109792E+01
 20
2.08986216E+02
  0
VERTEX
  8
0
 62
4
 10
-5.51874375E+01
 20
2.09043158E+02
  0
VERTEX
  8
0
 62
4
 10
-5.53925795E+01
 20
2.09097124E+02
  0
VERTEX
  8
0
 62
4
 10
-5.56247534E+01
 20
2.09147679E+02
  0
VERTEX
  8
0
 62
4
 10
-5.58820900E+01
 20
2.09194417E+02
  0
VERTEX
  8
0
 62
4
 10
-5.61625173E+01
 20
2.09236961E+02
  0
VERTEX
  8
0
 62
4
 10
-5.64637775E+01
 20
2.09274969E+02
  0
VERTEX
  8
0
 62
4
 10
-5.67834450E+01
 20
2.09308134E+02
  0
VERTEX
  8
0
 62
4
 10
-5.71189461E+01
 20
2.09336190E+02
  0
VERTEX
  8
0
 62
4
 10
-5.74675794E+01
 20
2.09358911E+02
  0
VERTEX
  8
0
 62
4
 10
-5.78265381E+01
 20
2.09376114E+02
  0
VERTEX
  8
0
 62
4
 10
-5.81929319E+01
 20
2.09387660E+02
  0
VERTEX
  8
0
 62
4
 10
-5.85638109E+01
 20
2.09393456E+02
  0
VERTEX
  8
0
 62
4
 10
-5.89361890E+01
 20
2.09393456E+02
  0
VERTEX
  8
0
 62
4
 10
-5.93070680E+01
 20
2.09387660E+02
  0
VERTEX
  8
0
 62
4
 10
-5.96734619E+01
 20
2.09376114E+02
  0
VERTEX
  8
0
 62
4
 10
-6.00324205E+01
 20
2.09358911E+02
  0
VERTEX
  8
0
 62
4
 10
-6.03810539E+01
 20
2.09336190E+02
  0
VERTEX
  8
0
 62
4
 10
-6.07165549E+01
 20
2.09308134E+02
  0
VERTEX
  8
0
 62
4
 10
-6.10362225E+01
 20
2.09274969E+02
  0
VERTEX
  8
0
 62
4
 10
-6.13374827E+01
 20
2.09236961E+02
  0
VERTEX
  8
0
 62
4
 10
-6.16179100E+01
 20
2.09194417E+02
  0
VERTEX
  8
0
 62
4
 10
-6.18752466E+01
 20
2.09147679E+02
  0
VERTEX
  8
0
 62
4
 10
-6.21074205E+01
 20
2.09097124E+02
  0
VERTEX
  8
0
 62
4
 10
-6.23125625E+01
 20
2.09043158E+02
  0
VERTEX
  8
0
 62
4
 10
-6.24890208E+01
 20
2.08986216E+02
  0
VERTEX
  8
0
 62
4
 10
-6.26353747E+01
 20
2.08926757E+02
  0
VERTEX
  8
0
 62
4
 10
-6.27504459E+01
 20
2.08865259E+02
  0
VERTEX
  8
0
 62
4
 10
-6.28333078E+01
 20
2.08802217E+02
  0
VERTEX
  8
0
 62
4
 10
-6.28832933E+01
 20
2.08738140E+02
  0
VERTEX
  8
0
 62
4
 10
-6.29000000E+01
 20
2.08673542E+02
  0
SEQEND
  8
0
  0
ARC
  8
0
 62
4
 10
-6.26500000E+01
 20
2.08678879E+02
 40
2.50000000E-01
 50
1.80000000E+02
 51
2.50324001E+02
  0
ARC
  8
0
 62
4
 10
-5.48500000E+01
 20
2.08678879E+02
 40
2.50000000E-01
 50
2.89675999E+02
 51
0.00000000E+00
  0
LINE
  8
0
 62
4
 10
-5.50500000E+01
 20
2.10403992E+02
 11
-5.50500000E+01
 21
2.11388800E+02
  0
LINE
  8
0
 62
4
 10
-4.74500000E+01
 20
2.10403992E+02
 11
-4.74500000E+01
 21
2.11388800E+02
  0
POLYLINE
  8
0
 62
4
 66
1
  0
VERTEX
  8
0
 62
4
 10
-4.74500000E+01
 20
2.11388800E+02
  0
VERTEX
  8
0
 62
4
 10
-4.74652977E+01
 20
2.11447950E+02
  0
VERTEX
  8
0
 62
4
 10
-4.75110676E+01
 20
2.11506623E+02
  0
VERTEX
  8
0
 62
4
 10
-4.75869411E+01
 20
2.11564348E+02
  0
VERTEX
  8
0
 62
4
 10
-4.76923075E+01
 20
2.11620659E+02
  0
VERTEX
  8
0
 62
4
 10
-4.78263183E+01
 20
2.11675104E+02
  0
VERTEX
  8
0
 62
4
 10
-4.79878946E+01
 20
2.11727243E+02
  0
VERTEX
  8
0
 62
4
 10
-4.81757354E+01
 20
2.11776658E+02
  0
VERTEX
  8
0
 62
4
 10
-4.83883284E+01
 20
2.11822949E+02
  0
VERTEX
  8
0
 62
4
 10
-4.86239619E+01
 20
2.11865746E+02
  0
VERTEX
  8
0
 62
4
 10
-4.88807387E+01
 20
2.11904702E+02
  0
VERTEX
  8
0
 62
4
 10
-4.91565915E+01
 20
2.11939504E+02
  0
VERTEX
  8
0
 62
4
 10
-4.94492991E+01
 20
2.11969872E+02
  0
VERTEX
  8
0
 62
4
 10
-4.97565049E+01
 20
2.11995562E+02
  0
VERTEX
  8
0
 62
4
 10
-5.00757354E+01
 20
2.12016367E+02
  0
VERTEX
  8
0
 62
4
 10
-5.04044204E+01
 20
2.12032119E+02
  0
VERTEX
  8
0
 62
4
 10
-5.07399136E+01
 20
2.12042691E+02
  0
VERTEX
  8
0
 62
4
 10
-5.10795136E+01
 20
2.12047999E+02
  0
VERTEX
  8
0
 62
4
 10
-5.14204863E+01
 20
2.12047999E+02
  0
VERTEX
  8
0
 62
4
 10
-5.17600864E+01
 20
2.12042691E+02
  0
VERTEX
  8
0
 62
4
 10
-5.20955795E+01
 20
2.12032119E+02
  0
VERTEX
  8
0
 62
4
 10
-5.24242646E+01
 20
2.12016367E+02
  0
VERTEX
  8
0
 62
4
 10
-5.27434951E+01
 20
2.11995562E+02
  0
VERTEX
  8
0
 62
4
 10
-5.30507009E+01
 20
2.11969872E+02
  0
VERTEX
  8
0
 62
4
 10
-5.33434085E+01
 20
2.11939504E+02
  0
VERTEX
  8
0
 62
4
 10
-5.36192612E+01
 20
2.11904702E+02
  0
VERTEX
  8
0
 62
4
 10
-5.38760380E+01
 20
2.11865746E+02
  0
VERTEX
  8
0
 62
4
 10
-5.41116716E+01
 20
2.11822949E+02
  0
VERTEX
  8
0
 62
4
 10
-5.43242646E+01
 20
2.11776658E+02
  0
VERTEX
  8
0
 62
4
 10
-5.45121054E+01
 20
2.11727243E+02
  0
VERTEX
  8
0
 62
4
 10
-5.46736817E+01
 20
2.11675104E+02
  0
VERTEX
  8
0
 62
4
 10
-5.48076925E+01
 20
2.11620659E+02
  0
VERTEX
  8
0
 62
4
 10
-5.49130589E+01
 20
2.11564348E+02
  0
VERTEX
  8
0
 62
4
 10
-5.49889324E+01
 20
2.11506623E+02
  0
VERTEX
  8
0
 62
4
 10
-5.50347023E+01
 20
2.11447950E+02
  0
VERTEX
  8
0
 62
4
 10
-5.50500000E+01
 20
2.11388800E+02
  0
SEQEND
  8
0
  0
POLYLINE
  8
0
 62
4
 66
1
  0
VERTEX
  8
0
 62
4
 10
-4.78500000E+01
 20
2.10109301E+02
  0
VERTEX
  8
0
 62
4
 10
-4.77134183E+01
 20
2.10162590E+02
  0
VERTEX
  8
0
 62
4
 10
-4.76044705E+01
 20
2.10217766E+02
  0
VERTEX
  8
0
 62
4
 10
-4.75240077E+01
 20
2.10274396E+02
  0
VERTEX
  8
0
 62
4
 10
-4.74726587E+01
 20
2.10332039E+02
  0
VERTEX
  8
0
 62
4
 10
-4.74508247E+01
 20
2.10390245E+02
  0
VERTEX
  8
0
 62
4
 10
-4.74586764E+01
 20
2.10448558E+02
  0
VERTEX
  8
0
 62
4
 10
-4.74961524E+01
 20
2.10506522E+02
  0
VERTEX
  8
0
 62
4
 10
-4.75629598E+01
 20
2.10563685E+02
  0
VERTEX
  8
0
 62
4
 10
-4.76585766E+01
 20
2.10619601E+02
  0
VERTEX
  8
0
 62
4
 10
-4.77822558E+01
 20
2.10673832E+02
  0
VERTEX
  8
0
 62
4
 10
-4.79330309E+01
 20
2.10725954E+02
  0
VERTEX
  8
0
 62
4
 10
-4.81097238E+01
 20
2.10775561E+02
  0
VERTEX
  8
0
 62
4
 10
-4.83109538E+01
 20
2.10822265E+02
  0
VERTEX
  8
0
 62
4
 10
-4.85351488E+01
 20
2.10865700E+02
  0
VERTEX
  8
0
 62
4
 10
-4.87805567E+01
 20
2.10905527E+02
  0
VERTEX
  8
0
 62
4
 10
-4.90452602E+01
 20
2.10941436E+02
  0
VERTEX
  8
0
 62
4
 10
-4.93271908E+01
 20
2.10973145E+02
  0
VERTEX
  8
0
 62
4
 10
-4.96241457E+01
 20
2.11000407E+02
  0
VERTEX
  8
0
 62
4
 10
-4.99338046E+01
 20
2.11023009E+02
  0
VERTEX
  8
0
 62
4
 10
-5.02537478E+01
 20
2.11040774E+02
  0
VERTEX
  8
0
 62
4
 10
-5.05814754E+01
 20
2.11053563E+02
  0
VERTEX
  8
0
 62
4
 10
-5.09144267E+01
 20
2.11061277E+02
  0
VERTEX
  8
0
 62
4
 10
-5.12500000E+01
 20
2.11063855E+02
  0
VERTEX
  8
0
 62
4
 10
-5.15855734E+01
 20
2.11061277E+02
  0
VERTEX
  8
0
 62
4
 10
-5.19185246E+01
 20
2.11053563E+02
  0
VERTEX
  8
0
 62
4
 10
-5.22462523E+01
 20
2.11040774E+02
  0
VERTEX
  8
0
 62
4
 10
-5.25661955E+01
 20
2.11023009E+02
  0
VERTEX
  8
0
 62
4
 10
-5.28758543E+01
 20
2.11000407E+02
  0
VERTEX
  8
0
 62
4
 10
-5.31728092E+01
 20
2.10973145E+02
  0
VERTEX
  8
0
 62
4
 10
-5.34547399E+01
 20
2.10941436E+02
  0
VERTEX
  8
0
 62
4
 10
-5.37194433E+01
 20
2.10905527E+02
  0
VERTEX
  8
0
 62
4
 10
-5.39648513E+01
 20
2.10865700E+02
  0
VERTEX
  8
0
 62
4
 10
-5.41890462E+01
 20
2.10822265E+02
  0
VERTEX
  8
0
 62
4
 10
-5.43902763E+01
 20
2.10775561E+02
  0
VERTEX
  8
0
 62
4
 10
-5.45669692E+01
 20
2.10725954E+02
  0
VERTEX
  8
0
 62
4
 10
-5.47177442E+01
 20
2.10673832E+02
  0
VERTEX
  8
0
 62
4
 10
-5.48414234E+01
 20
2.10619601E+02
  0
VERTEX
  8
0
 62
4
 10
-5.49370402E+01
 20
2.10563686E+02
  0
VERTEX
  8
0
 62
4
 10
-5.50038476E+01
 20
2.10506522E+02
  0
VERTEX
  8
0
 62
4
 10
-5.50413236E+01
 20
2.10448558E+02
  0
VERTEX
  8
0
 62
4
 10
-5.50491753E+01
 20
2.10390245E+02
  0
VERTEX
  8
0
 62
4
 10
-5.50273413E+01
 20
2.10332039E+02
  0
VERTEX
  8
0
 62
4
 10
-5.49759923E+01
 20
2.10274396E+02
  0
VERTEX
  8
0
 62
4
 10
-5.48955295E+01
 20
2.10217766E+02
  0
VERTEX
  8
0
 62
4
 10
-5.47865817E+01
 20
2.10162590E+02
  0
VERTEX
  8
0
 62
4
 10
-5.46500000E+01
 20
2.10109301E+02
  0
SEQEND
  8
0
  0
LINE
  8
0
 62
4
 10
-5.46500000E+01
 20
2.09130239E+02
 11
-5.46500000E+01
 21
2.10403992E+02
  0
LINE
  8
0
 62
4
 10
-4.78500000E+01
 20
2.09130239E+02
 11
-4.78500000E+01
 21
2.10403992E+02
  0
POLYLINE
  8
0
 62
4
 66
1
  0
VERTEX
  8
0
 62
4
 10
-4.78500000E+01
 20
2.10403992E+02
  0
VERTEX
  8
0
 62
4
 10
-4.78636874E+01
 20
2.10456915E+02
  0
VERTEX
  8
0
 62
4
 10
-4.79046394E+01
 20
2.10509413E+02
  0
VERTEX
  8
0
 62
4
 10
-4.79725263E+01
 20
2.10561061E+02
  0
VERTEX
  8
0
 62
4
 10
-4.80668014E+01
 20
2.10611445E+02
  0
VERTEX
  8
0
 62
4
 10
-4.81867058E+01
 20
2.10660159E+02
  0
VERTEX
  8
0
 62
4
 10
-4.83312741E+01
 20
2.10706810E+02
  0
VERTEX
  8
0
 62
4
 10
-4.84993422E+01
 20
2.10751023E+02
  0
VERTEX
  8
0
 62
4
 10
-4.86895570E+01
 20
2.10792442E+02
  0
VERTEX
  8
0
 62
4
 10
-4.89003870E+01
 20
2.10830733E+02
  0
VERTEX
  8
0
 62
4
 10
-4.91301347E+01
 20
2.10865588E+02
  0
VERTEX
  8
0
 62
4
 10
-4.93769502E+01
 20
2.10896727E+02
  0
VERTEX
  8
0
 62
4
 10
-4.96388465E+01
 20
2.10923899E+02
  0
VERTEX
  8
0
 62
4
 10
-4.99137149E+01
 20
2.10946885E+02
  0
VERTEX
  8
0
 62
4
 10
-5.01993422E+01
 20
2.10965499E+02
  0
VERTEX
  8
0
 62
4
 10
-5.04934288E+01
 20
2.10979593E+02
  0
VERTEX
  8
0
 62
4
 10
-5.07936069E+01
 20
2.10989053E+02
  0
VERTEX
  8
0
 62
4
 10
-5.10974596E+01
 20
2.10993801E+02
  0
VERTEX
  8
0
 62
4
 10
-5.14025404E+01
 20
2.10993801E+02
  0
VERTEX
  8
0
 62
4
 10
-5.17063931E+01
 20
2.10989053E+02
  0
VERTEX
  8
0
 62
4
 10
-5.20065712E+01
 20
2.10979593E+02
  0
VERTEX
  8
0
 62
4
 10
-5.23006578E+01
 20
2.10965499E+02
  0
VERTEX
  8
0
 62
4
 10
-5.25862851E+01
 20
2.10946885E+02
  0
VERTEX
  8
0
 62
4
 10
-5.28611534E+01
 20
2.10923899E+02
  0
VERTEX
  8
0
 62
4
 10
-5.31230497E+01
 20
2.10896727E+02
  0
VERTEX
  8
0
 62
4
 10
-5.33698653E+01
 20
2.10865588E+02
  0
VERTEX
  8
0
 62
4
 10
-5.35996130E+01
 20
2.10830733E+02
  0
VERTEX
  8
0
 62
4
 10
-5.38104430E+01
 20
2.10792442E+02
  0
VERTEX
  8
0
 62
4
 10
-5.40006578E+01
 20
2.10751023E+02
  0
VERTEX
  8
0
 62
4
 10
-5.41687259E+01
 20
2.10706810E+02
  0
VERTEX
  8
0
 62
4
 10
-5.43132941E+01
 20
2.10660159E+02
  0
VERTEX
  8
0
 62
4
 10
-5.44331986E+01
 20
2.10611445E+02
  0
VERTEX
  8
0
 62
4
 10
-5.45274737E+01
 20
2.10561061E+02
  0
VERTEX
  8
0
 62
4
 10
-5.45953606E+01
 20
2.10509413E+02
  0
VERTEX
  8
0
 62
4
 10
-5.46363126E+01
 20
2.10456915E+02
  0
VERTEX
  8
0
 62
4
 10
-5.46500000E+01
 20
2.10403992E+02
  0
SEQEND
  8
0
  0
ARC
  8
0
 62
4
 10
-5.12500000E+01
 20
2.19670453E+02
 40
1.18100000E+01
 50
2.57172490E+02
 51
2.82827510E+02
  0
ARC
  8
0
 62
4
 10
-4.88499997E+01
 20
2.09130239E+02
 40
1.00000000E+00
 50
2.82827510E+02
 51
5.08888749E-14
  0
ARC
  8
0
 62
4
 10
-5.36500003E+01
 20
2.09130239E+02
 40
1.00000000E+00
 50
1.80000000E+02
 51
2.57172490E+02
  0
ARC
  8
0
 62
4
 10
-5.33717535E+01
 20
2.20389596E+02
 40
1.25306621E+01
 50
2.74968660E+02
 51
2.88083352E+02
  0
ARC
  8
0
 62
4
 10
-4.91282464E+01
 20
2.20389597E+02
 40
1.25306626E+01
 50
2.51916648E+02
 51
2.65031340E+02
  0
LINE
  8
0
  6
CENTER
 62
6
 10
-6.12500000E+01
 20
2.10781031E+02
 11
-5.62500000E+01
 21
2.10781031E+02
  0
LINE
  8
0
  6
CENTER
 62
6
 10
-5.12500000E+01
 20
2.13888800E+02
 11
-5.12500000E+01
 21
2.08888800E+02
  0
LINE
  8
0
  6
CENTER
 62
6
 10
-5.37500000E+01
 20
2.11388800E+02
 11
-4.87500000E+01
 21
2.11388800E+02
  0
LINE
  8
0
  6
CENTER
 62
6
 10
-6.62500000E+01
 20
2.13888800E+02
 11
-6.62500000E+01
 21
2.08888800E+02
  0
LINE
  8
0
  6
CENTER
 62
6
 10
-6.87500000E+01
 20
2.11388800E+02
 11
-6.37500000E+01
 21
2.11388800E+02
  0
LINE
  8
0
 62
4
 10
-4.74568894E+01
 20
2.10364275E+02
 11
-4.37500000E+01
 21
2.10364275E+02
  0
LINE
  8
0
 62
7
 10
-5.87500000E+01
 20
2.30369434E+02
 11
-8.42500000E+01
 21
2.30369434E+02
  0
LINE
  8
0
 62
7
 10
-5.87500000E+01
 20
2.29519443E+02
 11
-8.42500000E+01
 21
2.29519443E+02
  0
LINE
  8
0
 62
7
 10
-5.87500000E+01
 20
2.24219456E+02
 11
-8.42500000E+01
 21
2.24219456E+02
  0
LINE
  8
0
 62
7
 10
-1.47500000E+01
 20
1.82519474E+02
 11
-8.42500000E+01
 21
1.82519474E+02
  0
LINE
  8
0
 62
7
 10
-1.47500000E+01
 20
1.77219486E+02
 11
-8.42500000E+01
 21
1.77219486E+02
  0
LINE
  8
0
 62
7
 10
-1.47500000E+01
 20
1.76369495E+02
 11
-8.42500000E+01
 21
1.76369495E+02
  0
POLYLINE
  8
0
 62
4
 66
1
  0
VERTEX
  8
0
 62
4
 10
-7.21465855E+01
 20
-1.97882114E+02
  0
VERTEX
  8
0
 62
4
 10
-7.21469441E+01
 20
-1.98174444E+02
  0
VERTEX
  8
0
 62
4
 10
-7.21214103E+01
 20
-1.98465691E+02
  0
VERTEX
  8
0
 62
4
 10
-7.20701786E+01
 20
-1.98753634E+02
  0
VERTEX
  8
0
 62
4
 10
-7.19936396E+01
 20
-1.99036079E+02
  0
VERTEX
  8
0
 62
4
 10
-7.18923766E+01
 20
-1.99310874E+02
  0
VERTEX
  8
0
 62
4
 10
-7.17671616E+01
 20
-1.99575922E+02
  0
VERTEX
  8
0
 62
4
 10
-7.16189488E+01
 20
-1.99829205E+02
  0
VERTEX
  8
0
 62
4
 10
-7.14488681E+01
 20
-2.00068792E+02
  0
VERTEX
  8
0
 62
4
 10
-7.12582159E+01
 20
-2.00292856E+02
  0
VERTEX
  8
0
 62
4
 10
-7.10484454E+01
 20
-2.00499689E+02
  0
VERTEX
  8
0
 62
4
 10
-7.08211555E+01
 20
-2.00687716E+02
  0
VERTEX
  8
0
 62
4
 10
-7.05780786E+01
 20
-2.00855502E+02
  0
VERTEX
  8
0
 62
4
 10
-7.03210676E+01
 20
-2.01001769E+02
  0
VERTEX
  8
0
 62
4
 10
-7.00520816E+01
 20
-2.01125402E+02
  0
VERTEX
  8
0
 62
4
 10
-6.97731707E+01
 20
-2.01225459E+02
  0
VERTEX
  8
0
 62
4
 10
-6.94864610E+01
 20
-2.01301176E+02
  0
VERTEX
  8
0
 62
4
 10
-6.91941379E+01
 20
-2.01351978E+02
  0
VERTEX
  8
0
 62
4
 10
-6.88984294E+01
 20
-2.01377476E+02
  0
VERTEX
  8
0
 62
4
 10
-6.86015896E+01
 20
-2.01377476E+02
  0
VERTEX
  8
0
 62
4
 10
-6.83058811E+01
 20
-2.01351978E+02
  0
VERTEX
  8
0
 62
4
 10
-6.80135579E+01
 20
-2.01301177E+02
  0
VERTEX
  8
0
 62
4
 10
-6.77268481E+01
 20
-2.01225459E+02
  0
VERTEX
  8
0
 62
4
 10
-6.74479372E+01
 20
-2.01125403E+02
  0
VERTEX
  8
0
 62
4
 10
-6.71789511E+01
 20
-2.01001770E+02
  0
VERTEX
  8
0
 62
4
 10
-6.69219400E+01
 20
-2.00855503E+02
  0
VERTEX
  8
0
 62
4
 10
-6.66788630E+01
 20
-2.00687717E+02
  0
VERTEX
  8
0
 62
4
 10
-6.64515730E+01
 20
-2.00499691E+02
  0
VERTEX
  8
0
 62
4
 10
-6.62418023E+01
 20
-2.00292858E+02
  0
VERTEX
  8
0
 62
4
 10
-6.60511499E+01
 20
-2.00068794E+02
  0
VERTEX
  8
0
 62
4
 10
-6.58810691E+01
 20
-1.99829207E+02
  0
VERTEX
  8
0
 62
4
 10
-6.57328561E+01
 20
-1.99575924E+02
  0
VERTEX
  8
0
 62
4
 10
-6.56076409E+01
 20
-1.99310876E+02
  0
VERTEX
  8
0
 62
4
 10
-6.55063777E+01
 20
-1.99036081E+02
  0
VERTEX
  8
0
 62
4
 10
-6.54298385E+01
 20
-1.98753636E+02
  0
VERTEX
  8
0
 62
4
 10
-6.53786066E+01
 20
-1.98465693E+02
  0
VERTEX
  8
0
 62
4
 10
-6.53530726E+01
 20
-1.98174446E+02
  0
VERTEX
  8
0
 62
4
 10
-6.53534310E+01
 20
-1.97882117E+02
  0
SEQEND
  8
0
  0
POLYLINE
  8
0
 62
4
 66
1
  0
VERTEX
  8
0
 62
4
 10
-7.27500081E+01
 20
-1.98032229E+02
  0
VERTEX
  8
0
 62
4
 10
-7.27347948E+01
 20
-1.98375556E+02
  0
VERTEX
  8
0
 62
4
 10
-7.26892548E+01
 20
-1.98716271E+02
  0
VERTEX
  8
0
 62
4
 10
-7.26137348E+01
 20
-1.99051780E+02
  0
VERTEX
  8
0
 62
4
 10
-7.25088095E+01
 20
-1.99379531E+02
  0
VERTEX
  8
0
 62
4
 10
-7.23752775E+01
 20
-1.99697029E+02
  0
VERTEX
  8
0
 62
4
 10
-7.22141550E+01
 20
-2.00001857E+02
  0
VERTEX
  8
0
 62
4
 10
-7.20266682E+01
 20
-2.00291696E+02
  0
VERTEX
  8
0
 62
4
 10
-7.18142440E+01
 20
-2.00564339E+02
  0
VERTEX
  8
0
 62
4
 10
-7.15784992E+01
 20
-2.00817713E+02
  0
VERTEX
  8
0
 62
4
 10
-7.13212279E+01
 20
-2.01049888E+02
  0
VERTEX
  8
0
 62
4
 10
-7.10443880E+01
 20
-2.01259097E+02
  0
VERTEX
  8
0
 62
4
 10
-7.07500865E+01
 20
-2.01443749E+02
  0
VERTEX
  8
0
 62
4
 10
-7.04405632E+01
 20
-2.01602438E+02
  0
VERTEX
  8
0
 62
4
 10
-7.01181737E+01
 20
-2.01733956E+02
  0
VERTEX
  8
0
 62
4
 10
-6.97853717E+01
 20
-2.01837302E+02
  0
VERTEX
  8
0
 62
4
 10
-6.94446899E+01
 20
-2.01911690E+02
  0
VERTEX
  8
0
 62
4
 10
-6.90987212E+01
 20
-2.01956554E+02
  0
VERTEX
  8
0
 62
4
 10
-6.87500986E+01
 20
-2.01971552E+02
  0
VERTEX
  8
0
 62
4
 10
-6.84014753E+01
 20
-2.01956570E+02
  0
VERTEX
  8
0
 62
4
 10
-6.80555045E+01
 20
-2.01911722E+02
  0
VERTEX
  8
0
 62
4
 10
-6.77148193E+01
 20
-2.01837350E+02
  0
VERTEX
  8
0
 62
4
 10
-6.73820126E+01
 20
-2.01734019E+02
  0
VERTEX
  8
0
 62
4
 10
-6.70596171E+01
 20
-2.01602516E+02
  0
VERTEX
  8
0
 62
4
 10
-6.67500865E+01
 20
-2.01443841E+02
  0
VERTEX
  8
0
 62
4
 10
-6.64557765E+01
 20
-2.01259203E+02
  0
VERTEX
  8
0
 62
4
 10
-6.61789270E+01
 20
-2.01050006E+02
  0
VERTEX
  8
0
 62
4
 10
-6.59216450E+01
 20
-2.00817843E+02
  0
VERTEX
  8
0
 62
4
 10
-6.56858885E+01
 20
-2.00564480E+02
  0
VERTEX
  8
0
 62
4
 10
-6.54734518E+01
 20
-2.00291846E+02
  0
VERTEX
  8
0
 62
4
 10
-6.52859517E+01
 20
-2.00002016E+02
  0
VERTEX
  8
0
 62
4
 10
-6.51248152E+01
 20
-1.99697195E+02
  0
VERTEX
  8
0
 62
4
 10
-6.49912686E+01
 20
-1.99379704E+02
  0
VERTEX
  8
0
 62
4
 10
-6.48863282E+01
 20
-1.99051958E+02
  0
VERTEX
  8
0
 62
4
 10
-6.48107928E+01
 20
-1.98716452E+02
  0
VERTEX
  8
0
 62
4
 10
-6.47652372E+01
 20
-1.98375739E+02
  0
VERTEX
  8
0
 62
4
 10
-6.47500081E+01
 20
-1.98032413E+02
  0
VERTEX
  8
0
 62
4
 10
-6.47652214E+01
 20
-1.97689086E+02
  0
VERTEX
  8
0
 62
4
 10
-6.48107614E+01
 20
-1.97348371E+02
  0
VERTEX
  8
0
 62
4
 10
-6.48862814E+01
 20
-1.97012862E+02
  0
VERTEX
  8
0
 62
4
 10
-6.49912067E+01
 20
-1.96685111E+02
  0
VERTEX
  8
0
 62
4
 10
-6.51247387E+01
 20
-1.96367613E+02
  0
VERTEX
  8
0
 62
4
 10
-6.52858612E+01
 20
-1.96062785E+02
  0
VERTEX
  8
0
 62
4
 10
-6.54733480E+01
 20
-1.95772946E+02
  0
VERTEX
  8
0
 62
4
 10
-6.56857722E+01
 20
-1.95500303E+02
  0
VERTEX
  8
0
 62
4
 10
-6.59215170E+01
 20
-1.95246929E+02
  0
VERTEX
  8
0
 62
4
 10
-6.61787883E+01
 20
-1.95014754E+02
  0
VERTEX
  8
0
 62
4
 10
-6.64556282E+01
 20
-1.94805545E+02
  0
VERTEX
  8
0
 62
4
 10
-6.67499297E+01
 20
-1.94620893E+02
  0
VERTEX
  8
0
 62
4
 10
-6.70594530E+01
 20
-1.94462204E+02
  0
VERTEX
  8
0
 62
4
 10
-6.73818425E+01
 20
-1.94330686E+02
  0
VERTEX
  8
0
 62
4
 10
-6.77146445E+01
 20
-1.94227340E+02
  0
VERTEX
  8
0
 62
4
 10
-6.80553263E+01
 20
-1.94152952E+02
  0
VERTEX
  8
0
 62
4
 10
-6.84012950E+01
 20
-1.94108088E+02
  0
VERTEX
  8
0
 62
4
 10
-6.87499176E+01
 20
-1.94093090E+02
  0
VERTEX
  8
0
 62
4
 10
-6.90985409E+01
 20
-1.94108072E+02
  0
VERTEX
  8
0
 62
4
 10
-6.94445117E+01
 20
-1.94152920E+02
  0
VERTEX
  8
0
 62
4
 10
-6.97851969E+01
 20
-1.94227292E+02
  0
VERTEX
  8
0
 62
4
 10
-7.01180036E+01
 20
-1.94330623E+02
  0
VERTEX
  8
0
 62
4
 10
-7.04403991E+01
 20
-1.94462126E+02
  0
VERTEX
  8
0
 62
4
 10
-7.07499297E+01
 20
-1.94620801E+02
  0
VERTEX
  8
0
 62
4
 10
-7.10442397E+01
 20
-1.94805439E+02
  0
VERTEX
  8
0
 62
4
 10
-7.13210892E+01
 20
-1.95014636E+02
  0
VERTEX
  8
0
 62
4
 10
-7.15783712E+01
 20
-1.95246799E+02
  0
VERTEX
  8
0
 62
4
 10
-7.18141277E+01
 20
-1.95500162E+02
  0
VERTEX
  8
0
 62
4
 10
-7.20265644E+01
 20
-1.95772796E+02
  0
VERTEX
  8
0
 62
4
 10
-7.22140645E+01
 20
-1.96062626E+02
  0
VERTEX
  8
0
 62
4
 10
-7.23752010E+01
 20
-1.96367447E+02
  0
VERTEX
  8
0
 62
4
 10
-7.25087476E+01
 20
-1.96684938E+02
  0
VERTEX
  8
0
 62
4
 10
-7.26136880E+01
 20
-1.97012684E+02
  0
VERTEX
  8
0
 62
4
 10
-7.26892234E+01
 20
-1.97348190E+02
  0
VERTEX
  8
0
 62
4
 10
-7.27347790E+01
 20
-1.97688903E+02
  0
VERTEX
  8
0
 62
4
 10
-7.27500081E+01
 20
-1.98032229E+02
  0
SEQEND
  8
0
  0
POLYLINE
  8
0
 62
4
 66
1
  0
VERTEX
  8
0
 62
4
 10
-7.21500083E+01
 20
-1.97731832E+02
  0
VERTEX
  8
0
 62
4
 10
-7.21370770E+01
 20
-1.98023660E+02
  0
VERTEX
  8
0
 62
4
 10
-7.20983680E+01
 20
-1.98313267E+02
  0
VERTEX
  8
0
 62
4
 10
-7.20341760E+01
 20
-1.98598450E+02
  0
VERTEX
  8
0
 62
4
 10
-7.19449895E+01
 20
-1.98877039E+02
  0
VERTEX
  8
0
 62
4
 10
-7.18314873E+01
 20
-1.99146912E+02
  0
VERTEX
  8
0
 62
4
 10
-7.16945331E+01
 20
-1.99406016E+02
  0
VERTEX
  8
0
 62
4
 10
-7.15351694E+01
 20
-1.99652379E+02
  0
VERTEX
  8
0
 62
4
 10
-7.13546089E+01
 20
-1.99884126E+02
  0
VERTEX
  8
0
 62
4
 10
-7.11542257E+01
 20
-2.00099493E+02
  0
VERTEX
  8
0
 62
4
 10
-7.09355451E+01
 20
-2.00296842E+02
  0
VERTEX
  8
0
 62
4
 10
-7.07002312E+01
 20
-2.00474670E+02
  0
VERTEX
  8
0
 62
4
 10
-7.04500749E+01
 20
-2.00631624E+02
  0
VERTEX
  8
0
 62
4
 10
-7.01869801E+01
 20
-2.00766509E+02
  0
VERTEX
  8
0
 62
4
 10
-6.99129491E+01
 20
-2.00878300E+02
  0
VERTEX
  8
0
 62
4
 10
-6.96300674E+01
 20
-2.00966144E+02
  0
VERTEX
  8
0
 62
4
 10
-6.93404879E+01
 20
-2.01029374E+02
  0
VERTEX
  8
0
 62
4
 10
-6.90464145E+01
 20
-2.01067508E+02
  0
VERTEX
  8
0
 62
4
 10
-6.87500852E+01
 20
-2.01080256E+02
  0
VERTEX
  8
0
 62
4
 10
-6.84537554E+01
 20
-2.01067522E+02
  0
VERTEX
  8
0
 62
4
 10
-6.81596802E+01
 20
-2.01029401E+02
  0
VERTEX
  8
0
 62
4
 10
-6.78700978E+01
 20
-2.00966184E+02
  0
VERTEX
  8
0
 62
4
 10
-6.75872121E+01
 20
-2.00878353E+02
  0
VERTEX
  8
0
 62
4
 10
-6.73131759E+01
 20
-2.00766575E+02
  0
VERTEX
  8
0
 62
4
 10
-6.70500749E+01
 20
-2.00631702E+02
  0
VERTEX
  8
0
 62
4
 10
-6.67999114E+01
 20
-2.00474760E+02
  0
VERTEX
  8
0
 62
4
 10
-6.65645894E+01
 20
-2.00296942E+02
  0
VERTEX
  8
0
 62
4
 10
-6.63458996E+01
 20
-2.00099604E+02
  0
VERTEX
  8
0
 62
4
 10
-6.61455066E+01
 20
-1.99884245E+02
  0
VERTEX
  8
0
 62
4
 10
-6.59649355E+01
 20
-1.99652507E+02
  0
VERTEX
  8
0
 62
4
 10
-6.58055604E+01
 20
-1.99406151E+02
  0
VERTEX
  8
0
 62
4
 10
-6.56685943E+01
 20
-1.99147053E+02
  0
VERTEX
  8
0
 62
4
 10
-6.55550797E+01
 20
-1.98877185E+02
  0
VERTEX
  8
0
 62
4
 10
-6.54658804E+01
 20
-1.98598601E+02
  0
VERTEX
  8
0
 62
4
 10
-6.54016753E+01
 20
-1.98313421E+02
  0
VERTEX
  8
0
 62
4
 10
-6.53629530E+01
 20
-1.98023815E+02
  0
VERTEX
  8
0
 62
4
 10
-6.53500083E+01
 20
-1.97731988E+02
  0
VERTEX
  8
0
 62
4
 10
-6.53629396E+01
 20
-1.97440160E+02
  0
VERTEX
  8
0
 62
4
 10
-6.54016486E+01
 20
-1.97150553E+02
  0
VERTEX
  8
0
 62
4
 10
-6.54658406E+01
 20
-1.96865370E+02
  0
VERTEX
  8
0
 62
4
 10
-6.55550271E+01
 20
-1.96586781E+02
  0
VERTEX
  8
0
 62
4
 10
-6.56685293E+01
 20
-1.96316908E+02
  0
VERTEX
  8
0
 62
4
 10
-6.58054835E+01
 20
-1.96057804E+02
  0
VERTEX
  8
0
 62
4
 10
-6.59648472E+01
 20
-1.95811441E+02
  0
VERTEX
  8
0
 62
4
 10
-6.61454078E+01
 20
-1.95579694E+02
  0
VERTEX
  8
0
 62
4
 10
-6.63457909E+01
 20
-1.95364327E+02
  0
VERTEX
  8
0
 62
4
 10
-6.65644715E+01
 20
-1.95166978E+02
  0
VERTEX
  8
0
 62
4
 10
-6.67997854E+01
 20
-1.94989150E+02
  0
VERTEX
  8
0
 62
4
 10
-6.70499417E+01
 20
-1.94832196E+02
  0
VERTEX
  8
0
 62
4
 10
-6.73130365E+01
 20
-1.94697311E+02
  0
VERTEX
  8
0
 62
4
 10
-6.75870675E+01
 20
-1.94585520E+02
  0
VERTEX
  8
0
 62
4
 10
-6.78699493E+01
 20
-1.94497676E+02
  0
VERTEX
  8
0
 62
4
 10
-6.81595287E+01
 20
-1.94434446E+02
  0
VERTEX
  8
0
 62
4
 10
-6.84536022E+01
 20
-1.94396312E+02
  0
VERTEX
  8
0
 62
4
 10
-6.87499314E+01
 20
-1.94383564E+02
  0
VERTEX
  8
0
 62
4
 10
-6.90462612E+01
 20
-1.94396298E+02
  0
VERTEX
  8
0
 62
4
 10
-6.93403364E+01
 20
-1.94434419E+02
  0
VERTEX
  8
0
 62
4
 10
-6.96299188E+01
 20
-1.94497636E+02
  0
VERTEX
  8
0
 62
4
 10
-6.99128045E+01
 20
-1.94585467E+02
  0
VERTEX
  8
0
 62
4
 10
-7.01868407E+01
 20
-1.94697245E+02
  0
VERTEX
  8
0
 62
4
 10
-7.04499417E+01
 20
-1.94832118E+02
  0
VERTEX
  8
0
 62
4
 10
-7.07001052E+01
 20
-1.94989060E+02
  0
VERTEX
  8
0
 62
4
 10
-7.09354273E+01
 20
-1.95166878E+02
  0
VERTEX
  8
0
 62
4
 10
-7.11541170E+01
 20
-1.95364216E+02
  0
VERTEX
  8
0
 62
4
 10
-7.13545100E+01
 20
-1.95579575E+02
  0
VERTEX
  8
0
 62
4
 10
-7.15350811E+01
 20
-1.95811313E+02
  0
VERTEX
  8
0
 62
4
 10
-7.16944562E+01
 20
-1.96057669E+02
  0
VERTEX
  8
0
 62
4
 10
-7.18314223E+01
 20
-1.96316767E+02
  0
VERTEX
  8
0
 62
4
 10
-7.19449369E+01
 20
-1.96586635E+02
  0
VERTEX
  8
0
 62
4
 10
-7.20341362E+01
 20
-1.96865219E+02
  0
VERTEX
  8
0
 62
4
 10
-7.20983413E+01
 20
-1.97150399E+02
  0
VERTEX
  8
0
 62
4
 10
-7.21370636E+01
 20
-1.97440005E+02
  0
VERTEX
  8
0
 62
4
 10
-7.21500083E+01
 20
-1.97731832E+02
  0
SEQEND
  8
0
  0
LINE
  8
0
 62
4
 10
-7.77499951E+01
 20
-2.10746796E+02
 11
-4.47499951E+01
 21
-2.10746772E+02
  0
LINE
  8
0
 62
4
 10
-4.17499994E+01
 20
-2.05505176E+02
 11
-4.47499951E+01
 21
-2.09965356E+02
  0
LINE
  8
0
 62
4
 10
-7.77499952E+01
 20
-2.09965379E+02
 11
-8.07499994E+01
 21
-2.05505204E+02
  0
LINE
  8
0
 62
4
 10
-4.47499951E+01
 20
-2.13557736E+02
 11
-4.47499951E+01
 21
-2.09965356E+02
  0
LINE
  8
0
 62
4
 10
-7.77499951E+01
 20
-2.13557736E+02
 11
-7.77499951E+01
 21
-2.09965379E+02
  0
LINE
  8
0
 62
4
 10
-7.77499951E+01
 20
-2.09965379E+02
 11
-4.47499951E+01
 21
-2.09965356E+02
  0
LINE
  8
0
 62
4
 10
-7.62500332E+01
 20
-1.62955090E+02
 11
-6.12500332E+01
 21
-1.62955079E+02
  0
LINE
  8
0
  6
CENTER
 62
6
 10
-6.87500039E+01
 20
-2.03911117E+02
 11
-6.87500131E+01
 21
-1.91111117E+02
  0
LINE
  8
0
  6
CENTER
 62
6
 10
-7.51500085E+01
 20
-1.97511122E+02
 11
-6.23500085E+01
 21
-1.97511113E+02
  0
LINE
  8
0
 62
4
 10
-7.82500158E+01
 20
-1.87227977E+02
 11
-5.92500158E+01
 21
-1.87227963E+02
  0
LINE
  8
0
 62
4
 10
-8.07500086E+01
 20
-1.92629088E+02
 11
-8.07499994E+01
 21
-2.05505204E+02
  0
LINE
  8
0
 62
4
 10
-7.82500158E+01
 20
-1.87227977E+02
 11
-7.82500131E+01
 21
-1.91129071E+02
  0
LINE
  8
0
 62
4
 10
-6.12500332E+01
 20
-1.62955079E+02
 11
-6.12500158E+01
 21
-1.87227977E+02
  0
LINE
  8
0
 62
4
 10
-7.62500332E+01
 20
-1.62955079E+02
 11
-7.62500158E+01
 21
-1.87227975E+02
  0
LINE
  8
0
 62
4
 10
-5.92500158E+01
 20
-1.87227977E+02
 11
-5.92500131E+01
 21
-1.91129072E+02
  0
LINE
  8
0
 62
4
 10
-7.62500163E+01
 20
-1.86590465E+02
 11
-6.12500163E+01
 21
-1.86590455E+02
  0
LINE
  8
0
 62
4
 10
-4.17500086E+01
 20
-1.92629060E+02
 11
-4.17499994E+01
 21
-2.05505176E+02
  0
LINE
  8
0
 62
4
 10
-8.07499994E+01
 20
-2.05505204E+02
 11
-4.17499994E+01
 21
-2.05505176E+02
  0
LINE
  8
0
 62
4
 10
-8.07500004E+01
 20
-2.04027992E+02
 11
-4.17500004E+01
 21
-2.04027964E+02
  0
LINE
  8
0
 62
4
 10
-7.92500096E+01
 20
-1.91129087E+02
 11
-4.32500096E+01
 21
-1.91129061E+02
  0
LINE
  8
0
 62
4
 10
-9.57500333E+01
 20
-1.62780229E+02
 11
-9.07500333E+01
 21
-1.62780225E+02
  0
LINE
  8
0
 62
4
 10
-9.57500315E+01
 20
-1.65344545E+02
 11
-9.07500315E+01
 21
-1.65344541E+02
  0
LINE
  8
0
 62
4
 10
-9.57500262E+01
 20
-1.72740451E+02
 11
-9.07500262E+01
 21
-1.72740448E+02
  0
LINE
  8
0
 62
4
 10
-9.57500227E+01
 20
-1.77562193E+02
 11
-9.07500227E+01
 21
-1.77562190E+02
  0
LINE
  8
0
 62
4
 10
-8.52500230E+01
 20
-1.77165149E+02
 11
-7.67500230E+01
 21
-1.77165143E+02
  0
LINE
  8
0
 62
4
 10
-7.62500330E+01
 20
-1.63165144E+02
 11
-8.52500330E+01
 21
-1.63165150E+02
  0
LINE
  8
0
 62
4
 10
-8.57500327E+01
 20
-1.63665151E+02
 11
-8.57500234E+01
 21
-1.76664641E+02
  0
LINE
  8
0
 62
4
 10
-9.57500333E+01
 20
-1.62780229E+02
 11
-9.57500227E+01
 21
-1.77562193E+02
  0
LINE
  8
0
 62
4
 10
-9.07500333E+01
 20
-1.62780225E+02
 11
-9.07500227E+01
 21
-1.77562193E+02
  0
LINE
  8
0
 62
4
 10
-9.07500325E+01
 20
-1.63915148E+02
 11
-8.57500325E+01
 21
-1.63915144E+02
  0
LINE
  8
0
 62
4
 10
-9.07500236E+01
 20
-1.76415148E+02
 11
-8.57500236E+01
 21
-1.76415144E+02
  0
LINE
  8
0
 62
4
 10
-8.92500325E+01
 20
-1.63915146E+02
 11
-8.92500236E+01
 21
-1.76415146E+02
  0
LINE
  8
0
 62
4
 10
-8.92500321E+01
 20
-1.64415146E+02
 11
-8.57500321E+01
 21
-1.64415144E+02
  0
LINE
  8
0
 62
4
 10
-8.92500239E+01
 20
-1.75915146E+02
 11
-8.57500239E+01
 21
-1.75915144E+02
  0
ARC
  8
0
 62
4
 10
-8.52505247E+01
 20
-1.63664658E+02
 40
4.99508251E-01
 50
8.99436074E+01
 51
1.80056475E+02
  0
ARC
  8
0
 62
4
 10
-7.67495154E+01
 20
-1.77664635E+02
 40
4.99492993E-01
 50
3.59941854E+02
 51
9.00582282E+01
  0
ARC
  8
0
 62
4
 10
-4.32495011E+01
 20
-1.92628553E+02
 40
1.49949266E+00
 50
3.59980652E+02
 51
9.00194298E+01
  0
ARC
  8
0
 62
4
 10
-8.52495156E+01
 20
-1.76664641E+02
 40
5.00508007E-01
 50
1.80058166E+02
 51
2.69941916E+02
  0
ARC
  8
0
 62
4
 10
-7.92505007E+01
 20
-1.92628594E+02
 40
1.49950792E+00
 50
8.99812358E+01
 51
1.80018846E+02
  0
LINE
  8
0
 62
6
 10
-7.04649432E+01
 20
-1.99446847E+02
 11
-6.70350735E+01
 21
-1.96016973E+02
  0
LINE
  8
0
 62
6
 10
-6.70350710E+01
 20
-1.99446845E+02
 11
-7.04649456E+01
 21
-1.96016975E+02
  0
LINE
  8
0
 62
4
 10
-3.03763019E+02
 20
-1.99070861E+02
 11
-3.08123147E+02
 21
-2.11059040E+02
  0
LINE
  8
0
 62
4
 10
-3.03763019E+02
 20
-1.99070861E+02
 11
-2.96867905E+02
 21
-1.97855067E+02
  0
LINE
  8
0
 62
4
 10
-2.95884299E+02
 20
-2.06312757E+02
 11
-2.95391895E+02
 21
-2.06225933E+02
  0
LINE
  8
0
 62
4
 10
-2.96289879E+02
 20
-2.06891985E+02
 11
-2.95819840E+02
 21
-2.09557706E+02
  0
LINE
  8
0
 62
4
 10
-2.97993011E+02
 20
-1.65559802E+02
 11
-2.93177301E+02
 21
-1.64710662E+02
  0
LINE
  8
0
 62
4
 10
-2.83220895E+02
 20
-1.62955079E+02
 11
-2.78879691E+02
 21
-1.87575273E+02
  0
LINE
  8
0
 62
4
 10
-2.97993011E+02
 20
-1.65559802E+02
 11
-2.93651807E+02
 21
-1.90179996E+02
  0
LINE
  8
0
 62
4
 10
-2.95621422E+02
 20
-1.90527292E+02
 11
-2.76910075E+02
 21
-1.87227977E+02
  0
LINE
  8
0
 62
4
 10
-2.93825455E+02
 20
-1.89195188E+02
 11
-2.79053339E+02
 21
-1.86590465E+02
  0
LINE
  8
0
 62
4
 10
-2.76910075E+02
 20
-1.87227977E+02
 11
-2.76215482E+02
 21
-1.91167208E+02
  0
LINE
  8
0
 62
4
 10
-2.95621422E+02
 20
-1.90527292E+02
 11
-2.94926830E+02
 21
-1.94466523E+02
  0
LINE
  8
0
 62
4
 10
-2.94926830E+02
 20
-1.94466523E+02
 11
-2.76215482E+02
 21
-1.91167208E+02
  0
LINE
  8
0
 62
4
 10
-2.94131621E+02
 20
-2.09557706E+02
 11
-2.71148740E+02
 21
-2.05505204E+02
  0
LINE
  8
0
 62
4
 10
-2.73319343E+02
 20
-1.93195107E+02
 11
-2.71148740E+02
 21
-2.05505204E+02
  0
LINE
  8
0
 62
4
 10
-2.96954729E+02
 20
-1.97362663E+02
 11
-2.94804414E+02
 21
-2.09557706E+02
  0
LINE
  8
0
 62
4
 10
-2.71148740E+02
 20
-2.05505204E+02
 11
-2.73202016E+02
 21
-2.09557706E+02
  0
LINE
  8
0
 62
4
 10
-2.95044599E+02
 20
-2.08195548E+02
 11
-2.71409213E+02
 21
-2.04027992E+02
  0
LINE
  8
0
 62
4
 10
-2.86151586E+02
 20
-2.01042624E+02
 11
-2.82212355E+02
 21
-2.00348031E+02
  0
LINE
  8
0
 62
4
 10
-2.85717466E+02
 20
-2.03504643E+02
 11
-2.81778235E+02
 21
-2.02810050E+02
  0
LINE
  8
0
 62
4
 10
-2.86151586E+02
 20
-2.01042624E+02
 11
-2.85717466E+02
 21
-2.03504643E+02
  0
LINE
  8
0
 62
4
 10
-2.82212355E+02
 20
-2.00348031E+02
 11
-2.81778235E+02
 21
-2.02810050E+02
  0
LINE
  8
0
 62
4
 10
-2.88260966E+02
 20
-1.77562193E+02
 11
-2.82510897E+02
 21
-1.72740451E+02
  0
LINE
  8
0
 62
4
 10
-2.96617495E+02
 20
-1.67601971E+02
 11
-2.90867426E+02
 21
-1.62780229E+02
  0
LINE
  8
0
 62
4
 10
-2.96617495E+02
 20
-1.67601971E+02
 11
-2.95313397E+02
 21
-1.74997877E+02
  0
LINE
  8
0
 62
4
 10
-2.83814994E+02
 20
-1.65344545E+02
 11
-2.82510897E+02
 21
-1.72740451E+02
  0
LINE
  8
0
 62
4
 10
-2.95313397E+02
 20
-1.74997877E+02
 11
-2.88260966E+02
 21
-1.77562193E+02
  0
LINE
  8
0
 62
4
 10
-2.90867426E+02
 20
-1.62780229E+02
 11
-2.83814994E+02
 21
-1.65344545E+02
  0
LINE
  8
0
 62
4
 10
-2.88046453E+02
 20
-1.63805955E+02
 11
-2.83220895E+02
 21
-1.62955079E+02
  0
LINE
  8
0
 62
4
 10
-2.73145694E+02
 20
-1.94179914E+02
 11
-2.72653291E+02
 21
-1.94093090E+02
  0
LINE
  8
0
 62
4
 10
-2.71756509E+02
 20
-2.02058376E+02
 11
-2.71264105E+02
 21
-2.01971552E+02
  0
LINE
  8
0
 62
4
 10
-2.72549102E+02
 20
-1.94683975E+02
 11
-2.70845384E+02
 21
-1.94383564E+02
  0
LINE
  8
0
 62
4
 10
-2.69664577E+02
 20
-2.01080256E+02
 11
-2.71368294E+02
 21
-2.01380668E+02
  0
LINE
  8
0
  6
CENTER
 62
6
 10
-3.03403609E+02
 20
-2.03576908E+02
 11
-2.66049851E+02
 21
-1.96990432E+02
  0
LINE
  8
0
 62
4
 10
-2.72653291E+02
 20
-1.94093090E+02
 11
-2.71264105E+02
 21
-2.01971552E+02
  0
ARC
  8
0
 62
4
 10
-2.95797474E+02
 20
-2.06805161E+02
 40
5.00000533E-01
 50
1.00000061E+02
 51
1.89999939E+02
  0
ARC
  8
0
 62
4
 10
-2.80634864E+02
 20
-1.99540514E+02
 40
1.18077645E+01
 50
3.57024145E+02
 51
2.27266957E+01
  0
ARC
  8
0
 62
4
 10
-2.94492688E+02
 20
-1.96928557E+02
 40
2.50001831E+00
 50
1.00000420E+02
 51
1.89999580E+02
  0
ARC
  8
0
 62
4
 10
-2.75780563E+02
 20
-1.93628087E+02
 40
2.49901570E+00
 50
9.97742809E+00
 51
1.00022572E+02
  0
CIRCLE
  8
0
 62
4
 10
-2.89564251E+02
 20
-1.70165144E+02
 40
3.75000000E+00
  0
ARC
  8
0
 62
4
 10
-2.69839919E+02
 20
-2.00097291E+02
 40
9.98481423E-01
 50
2.80114125E+02
 51
3.56771982E+02
  0
ARC
  8
0
 62
4
 10
-2.70674763E+02
 20
-1.95364955E+02
 40
9.96112687E-01
 50
2.25301420E+01
 51
9.98626848E+01
  0
ARC
  8
0
 62
4
 10
-2.89564251E+02
 20
-1.70165144E+02
 40
7.00000000E+00
 50
6.89816399E+01
 51
9.19142837E+01
  0
ARC
  8
0
 62
4
 10
-2.89564251E+02
 20
-1.70165144E+02
 40
7.00000000E+00
 50
1.08107658E+02
 51
1.31018360E+02
  0
LINE
  8
0
 62
4
 10
-3.08749969E+02
 20
-2.12782488E+02
 11
-3.09568111E+02
 21
-2.15031970E+02
  0
LINE
  8
0
 62
4
 10
-3.09568111E+02
 20
-2.15031970E+02
 11
-3.08749969E+02
 21
-2.19671883E+02
  0
LINE
  8
0
  6
CENTER
 62
6
 10
-3.11989848E+02
 20
-2.20819851E+02
 11
-3.08749969E+02
 21
-2.20248573E+02
  0
LINE
  8
0
 62
6
 10
-3.10515457E+02
 20
-2.22083016E+02
 11
-3.08749969E+02
 21
-2.21771713E+02
  0
LINE
  8
0
 62
4
 10
-3.10136681E+02
 20
-2.18472389E+02
 11
-3.08996909E+02
 21
-2.18271417E+02
  0
LINE
  8
0
 62
4
 10
-3.09443825E+02
 20
-2.22401772E+02
 11
-3.08749969E+02
 21
-2.22279427E+02
  0
LINE
  8
0
 62
4
 10
-3.11076340E+02
 20
-2.18902087E+02
 11
-3.10473781E+02
 21
-2.22319370E+02
  0
LINE
  8
0
 62
4
 10
-3.10136681E+02
 20
-2.18472389E+02
 11
-3.11076340E+02
 21
-2.18902087E+02
  0
LINE
  8
0
 62
4
 10
-3.09443825E+02
 20
-2.22401772E+02
 11
-3.10473781E+02
 21
-2.22319370E+02
  0
LINE
  8
0
 62
6
 10
-3.11036401E+02
 20
-2.19128593E+02
 11
-3.08911822E+02
 21
-2.18753972E+02
  0
LINE
  8
0
 62
4
 10
6.64969297E+01
 20
-1.91286802E+02
 11
7.26815224E+01
 21
-1.92377313E+02
  0
LINE
  8
0
 62
4
 10
7.26815224E+01
 20
-1.92377313E+02
 11
7.28624050E+01
 21
-1.93424634E+02
  0
LINE
  8
0
 62
4
 10
6.59687507E+01
 20
-1.92209097E+02
 11
6.64969297E+01
 21
-1.91286802E+02
  0
LINE
  8
0
  6
CENTER
 62
6
 10
6.99776265E+01
 20
-1.89629329E+02
 11
6.91568420E+01
 21
-1.94284229E+02
  0
ARC
  8
0
 62
4
 10
5.45191840E+01
 20
-1.95364955E+02
 40
9.96112687E-01
 50
8.01373150E+01
 51
1.57469858E+02
  0
ARC
  8
0
 62
4
 10
5.36843408E+01
 20
-2.00097291E+02
 40
9.98481423E-01
 50
1.83228018E+02
 51
2.59885875E+02
  0
ARC
  8
0
 62
4
 10
5.96249848E+01
 20
-1.93628087E+02
 40
2.49901570E+00
 50
7.99774282E+01
 51
1.70022572E+02
  0
ARC
  8
0
 62
4
 10
7.83371095E+01
 20
-1.96928557E+02
 40
2.50001831E+00
 50
3.50000420E+02
 51
7.99995805E+01
  0
ARC
  8
0
 62
4
 10
6.44792853E+01
 20
-1.99540514E+02
 40
1.18077645E+01
 50
1.57273305E+02
 51
1.82975855E+02
  0
ARC
  8
0
 62
4
 10
7.96418956E+01
 20
-2.06805161E+02
 40
5.00000533E-01
 50
3.50000061E+02
 51
7.99999392E+01
  0
LINE
  8
0
 62
4
 10
5.64977119E+01
 20
-1.94093090E+02
 11
5.51085265E+01
 21
-2.01971552E+02
  0
LINE
  8
0
  6
CENTER
 62
6
 10
8.72480308E+01
 20
-2.03576908E+02
 11
4.98942727E+01
 21
-1.96990432E+02
  0
LINE
  8
0
 62
4
 10
5.35089980E+01
 20
-2.01080256E+02
 11
5.52127154E+01
 21
-2.01380668E+02
  0
LINE
  8
0
 62
4
 10
5.63935230E+01
 20
-1.94683975E+02
 11
5.46898056E+01
 21
-1.94383564E+02
  0
LINE
  8
0
 62
4
 10
5.56009304E+01
 20
-2.02058376E+02
 11
5.51085265E+01
 21
-2.01971552E+02
  0
LINE
  8
0
 62
4
 10
5.69901158E+01
 20
-1.94179914E+02
 11
5.64977119E+01
 21
-1.94093090E+02
  0
LINE
  8
0
 62
4
 10
7.47118469E+01
 20
-1.62780229E+02
 11
7.36425267E+01
 21
-1.63169042E+02
  0
LINE
  8
0
 62
4
 10
7.55837340E+01
 20
-1.63511353E+02
 11
7.47118469E+01
 21
-1.62780229E+02
  0
LINE
  8
0
 62
4
 10
6.60567766E+01
 20
-2.00348031E+02
 11
6.56226561E+01
 21
-2.02810050E+02
  0
LINE
  8
0
 62
4
 10
6.99960076E+01
 20
-2.01042624E+02
 11
6.95618871E+01
 21
-2.03504643E+02
  0
LINE
  8
0
 62
4
 10
6.95618871E+01
 20
-2.03504643E+02
 11
6.56226561E+01
 21
-2.02810050E+02
  0
LINE
  8
0
 62
4
 10
6.99960076E+01
 20
-2.01042624E+02
 11
6.60567766E+01
 21
-2.00348031E+02
  0
LINE
  8
0
 62
4
 10
7.88890201E+01
 20
-2.08195548E+02
 11
5.52536340E+01
 21
-2.04027992E+02
  0
LINE
  8
0
 62
4
 10
5.49931618E+01
 20
-2.05505204E+02
 11
5.70464370E+01
 21
-2.09557706E+02
  0
LINE
  8
0
 62
4
 10
8.07991501E+01
 20
-1.97362663E+02
 11
7.86488350E+01
 21
-2.09557706E+02
  0
LINE
  8
0
 62
4
 10
5.71637640E+01
 20
-1.93195107E+02
 11
5.49931618E+01
 21
-2.05505204E+02
  0
LINE
  8
0
 62
4
 10
7.79760426E+01
 20
-2.09557706E+02
 11
5.49931618E+01
 21
-2.05505204E+02
  0
LINE
  8
0
 62
4
 10
7.87712511E+01
 20
-1.94466523E+02
 11
6.00599038E+01
 21
-1.91167208E+02
  0
LINE
  8
0
 62
4
 10
7.94658438E+01
 20
-1.90527292E+02
 11
7.87712511E+01
 21
-1.94466523E+02
  0
LINE
  8
0
 62
4
 10
6.07544965E+01
 20
-1.87227977E+02
 11
6.00599038E+01
 21
-1.91167208E+02
  0
LINE
  8
0
 62
4
 10
7.76698765E+01
 20
-1.89195188E+02
 11
6.28977602E+01
 21
-1.86590465E+02
  0
LINE
  8
0
 62
4
 10
7.94658438E+01
 20
-1.90527292E+02
 11
6.07544965E+01
 21
-1.87227977E+02
  0
LINE
  8
0
 62
4
 10
8.18374328E+01
 20
-1.65559802E+02
 11
7.74962283E+01
 21
-1.90179996E+02
  0
LINE
  8
0
 62
4
 10
6.70653165E+01
 20
-1.62955079E+02
 11
6.27241120E+01
 21
-1.87575273E+02
  0
LINE
  8
0
 62
4
 10
6.70653165E+01
 20
-1.62955079E+02
 11
8.18374328E+01
 21
-1.65559802E+02
  0
LINE
  8
0
 62
4
 10
8.76074403E+01
 20
-1.99070861E+02
 11
9.19675688E+01
 21
-2.11059040E+02
  0
LINE
  8
0
 62
4
 10
8.01343001E+01
 20
-2.06891985E+02
 11
7.96642616E+01
 21
-2.09557706E+02
  0
LINE
  8
0
 62
4
 10
7.97287203E+01
 20
-2.06312757E+02
 11
7.92363165E+01
 21
-2.06225933E+02
  0
LINE
  8
0
 62
4
 10
8.76074403E+01
 20
-1.99070861E+02
 11
8.07123260E+01
 21
-1.97855067E+02
  0
ARC
  8
0
 62
4
 10
7.34096192E+01
 20
-1.70165166E+02
 40
7.00000000E+00
 50
4.89793705E+01
 51
1.11020629E+02
  0
LINE
  8
0
 62
4
 10
9.25802690E+01
 20
-2.12743659E+02
 11
9.34125328E+01
 21
-2.15031970E+02
  0
LINE
  8
0
 62
6
 10
9.48808227E+01
 20
-2.19128593E+02
 11
9.27562433E+01
 21
-2.18753972E+02
  0
LINE
  8
0
 62
4
 10
9.32882463E+01
 20
-2.22401772E+02
 11
9.43182026E+01
 21
-2.22319370E+02
  0
LINE
  8
0
 62
4
 10
9.39811026E+01
 20
-2.18472389E+02
 11
9.49207618E+01
 21
-2.18902087E+02
  0
LINE
  8
0
 62
4
 10
9.49207618E+01
 20
-2.18902087E+02
 11
9.43182026E+01
 21
-2.22319370E+02
  0
LINE
  8
0
 62
4
 10
9.32882463E+01
 20
-2.22401772E+02
 11
9.25943909E+01
 21
-2.22279427E+02
  0
LINE
  8
0
 62
4
 10
9.39811026E+01
 20
-2.18472389E+02
 11
9.28413309E+01
 21
-2.18271417E+02
  0
LINE
  8
0
 62
6
 10
9.43598782E+01
 20
-2.22083016E+02
 11
9.25943909E+01
 21
-2.21771713E+02
  0
LINE
  8
0
  6
CENTER
 62
6
 10
9.58342693E+01
 20
-2.20819851E+02
 11
9.25943909E+01
 21
-2.20248573E+02
  0
LINE
  8
0
 62
4
 10
9.34125328E+01
 20
-2.15031970E+02
 11
9.25943909E+01
 21
-2.19671883E+02
  0
LINE
  8
0
 62
4
 10
-7.62499945E+01
 20
-1.04427984E+02
 11
-6.12499945E+01
 21
-1.04427984E+02
  0
LINE
  8
0
 62
4
 10
-7.82499945E+01
 20
-1.07092193E+02
 11
-5.92499945E+01
 21
-1.07092193E+02
  0
POLYLINE
  8
0
 62
4
 66
1
  0
VERTEX
  8
0
 62
4
 10
-4.92499945E+01
 20
-9.77365186E+01
  0
VERTEX
  8
0
 62
4
 10
-4.92633131E+01
 20
-9.74361078E+01
  0
VERTEX
  8
0
 62
4
 10
-4.93031674E+01
 20
-9.71379833E+01
  0
VERTEX
  8
0
 62
4
 10
-4.93692541E+01
 20
-9.68444141E+01
  0
VERTEX
  8
0
 62
4
 10
-4.94610703E+01
 20
-9.65576343E+01
  0
VERTEX
  8
0
 62
4
 10
-4.95779172E+01
 20
-9.62798265E+01
  0
VERTEX
  8
0
 62
4
 10
-4.97189056E+01
 20
-9.60131050E+01
  0
VERTEX
  8
0
 62
4
 10
-4.98829623E+01
 20
-9.57594998E+01
  0
VERTEX
  8
0
 62
4
 10
-5.00688389E+01
 20
-9.55209408E+01
  0
VERTEX
  8
0
 62
4
 10
-5.02751208E+01
 20
-9.52992438E+01
  0
VERTEX
  8
0
 62
4
 10
-5.05002379E+01
 20
-9.50960958E+01
  0
VERTEX
  8
0
 62
4
 10
-5.07424770E+01
 20
-9.49130431E+01
  0
VERTEX
  8
0
 62
4
 10
-5.09999945E+01
 20
-9.47514787E+01
  0
VERTEX
  8
0
 62
4
 10
-5.12708306E+01
 20
-9.46126323E+01
  0
VERTEX
  8
0
 62
4
 10
-5.15529240E+01
 20
-9.44975606E+01
  0
VERTEX
  8
0
 62
4
 10
-5.18441278E+01
 20
-9.44071392E+01
  0
VERTEX
  8
0
 62
4
 10
-5.21422259E+01
 20
-9.43420565E+01
  0
VERTEX
  8
0
 62
4
 10
-5.24449494E+01
 20
-9.43028077E+01
  0
VERTEX
  8
0
 62
4
 10
-5.27499945E+01
 20
-9.42896915E+01
  0
VERTEX
  8
0
 62
4
 10
-5.30550396E+01
 20
-9.43028077E+01
  0
VERTEX
  8
0
 62
4
 10
-5.33577631E+01
 20
-9.43420565E+01
  0
VERTEX
  8
0
 62
4
 10
-5.36558612E+01
 20
-9.44071392E+01
  0
VERTEX
  8
0
 62
4
 10
-5.39470650E+01
 20
-9.44975606E+01
  0
VERTEX
  8
0
 62
4
 10
-5.42291584E+01
 20
-9.46126323E+01
  0
VERTEX
  8
0
 62
4
 10
-5.44999945E+01
 20
-9.47514787E+01
  0
VERTEX
  8
0
 62
4
 10
-5.47575120E+01
 20
-9.49130431E+01
  0
VERTEX
  8
0
 62
4
 10
-5.49997511E+01
 20
-9.50960958E+01
  0
VERTEX
  8
0
 62
4
 10
-5.52248682E+01
 20
-9.52992438E+01
  0
VERTEX
  8
0
 62
4
 10
-5.54311501E+01
 20
-9.55209408E+01
  0
VERTEX
  8
0
 62
4
 10
-5.56170267E+01
 20
-9.57594998E+01
  0
VERTEX
  8
0
 62
4
 10
-5.57810834E+01
 20
-9.60131050E+01
  0
VERTEX
  8
0
 62
4
 10
-5.59220718E+01
 20
-9.62798265E+01
  0
VERTEX
  8
0
 62
4
 10
-5.60389187E+01
 20
-9.65576343E+01
  0
VERTEX
  8
0
 62
4
 10
-5.61307349E+01
 20
-9.68444141E+01
  0
VERTEX
  8
0
 62
4
 10
-5.61968216E+01
 20
-9.71379834E+01
  0
VERTEX
  8
0
 62
4
 10
-5.62366759E+01
 20
-9.74361078E+01
  0
VERTEX
  8
0
 62
4
 10
-5.62499945E+01
 20
-9.77365186E+01
  0
VERTEX
  8
0
 62
4
 10
-5.62366759E+01
 20
-9.80369294E+01
  0
VERTEX
  8
0
 62
4
 10
-5.61968216E+01
 20
-9.83350539E+01
  0
VERTEX
  8
0
 62
4
 10
-5.61307349E+01
 20
-9.86286231E+01
  0
VERTEX
  8
0
 62
4
 10
-5.60389187E+01
 20
-9.89154029E+01
  0
VERTEX
  8
0
 62
4
 10
-5.59220718E+01
 20
-9.91932107E+01
  0
VERTEX
  8
0
 62
4
 10
-5.57810834E+01
 20
-9.94599322E+01
  0
VERTEX
  8
0
 62
4
 10
-5.56170267E+01
 20
-9.97135374E+01
  0
VERTEX
  8
0
 62
4
 10
-5.54311500E+01
 20
-9.99520964E+01
  0
VERTEX
  8
0
 62
4
 10
-5.52248682E+01
 20
-1.00173793E+02
  0
VERTEX
  8
0
 62
4
 10
-5.49997511E+01
 20
-1.00376941E+02
  0
VERTEX
  8
0
 62
4
 10
-5.47575120E+01
 20
-1.00559994E+02
  0
VERTEX
  8
0
 62
4
 10
-5.44999945E+01
 20
-1.00721558E+02
  0
VERTEX
  8
0
 62
4
 10
-5.42291584E+01
 20
-1.00860405E+02
  0
VERTEX
  8
0
 62
4
 10
-5.39470650E+01
 20
-1.00975477E+02
  0
VERTEX
  8
0
 62
4
 10
-5.36558612E+01
 20
-1.01065898E+02
  0
VERTEX
  8
0
 62
4
 10
-5.33577631E+01
 20
-1.01130981E+02
  0
VERTEX
  8
0
 62
4
 10
-5.30550396E+01
 20
-1.01170230E+02
  0
VERTEX
  8
0
 62
4
 10
-5.27499945E+01
 20
-1.01183346E+02
  0
VERTEX
  8
0
 62
4
 10
-5.24449494E+01
 20
-1.01170230E+02
  0
VERTEX
  8
0
 62
4
 10
-5.21422259E+01
 20
-1.01130981E+02
  0
VERTEX
  8
0
 62
4
 10
-5.18441278E+01
 20
-1.01065898E+02
  0
VERTEX
  8
0
 62
4
 10
-5.15529240E+01
 20
-1.00975477E+02
  0
VERTEX
  8
0
 62
4
 10
-5.12708306E+01
 20
-1.00860405E+02
  0
VERTEX
  8
0
 62
4
 10
-5.09999945E+01
 20
-1.00721558E+02
  0
VERTEX
  8
0
 62
4
 10
-5.07424770E+01
 20
-1.00559994E+02
  0
VERTEX
  8
0
 62
4
 10
-5.05002379E+01
 20
-1.00376941E+02
  0
VERTEX
  8
0
 62
4
 10
-5.02751208E+01
 20
-1.00173793E+02
  0
VERTEX
  8
0
 62
4
 10
-5.00688389E+01
 20
-9.99520964E+01
  0
VERTEX
  8
0
 62
4
 10
-4.98829623E+01
 20
-9.97135374E+01
  0
VERTEX
  8
0
 62
4
 10
-4.97189056E+01
 20
-9.94599322E+01
  0
VERTEX
  8
0
 62
4
 10
-4.95779172E+01
 20
-9.91932107E+01
  0
VERTEX
  8
0
 62
4
 10
-4.94610703E+01
 20
-9.89154029E+01
  0
VERTEX
  8
0
 62
4
 10
-4.93692541E+01
 20
-9.86286231E+01
  0
VERTEX
  8
0
 62
4
 10
-4.93031674E+01
 20
-9.83350538E+01
  0
VERTEX
  8
0
 62
4
 10
-4.92633131E+01
 20
-9.80369294E+01
  0
VERTEX
  8
0
 62
4
 10
-4.92499945E+01
 20
-9.77365186E+01
  0
SEQEND
  8
0
  0
POLYLINE
  8
0
 62
4
 66
1
  0
VERTEX
  8
0
 62
4
 10
-4.96099945E+01
 20
-9.75628704E+01
  0
VERTEX
  8
0
 62
4
 10
-4.96219431E+01
 20
-9.72933590E+01
  0
VERTEX
  8
0
 62
4
 10
-4.96576982E+01
 20
-9.70258988E+01
  0
VERTEX
  8
0
 62
4
 10
-4.97169874E+01
 20
-9.67625252E+01
  0
VERTEX
  8
0
 62
4
 10
-4.97993597E+01
 20
-9.65052428E+01
  0
VERTEX
  8
0
 62
4
 10
-4.99041880E+01
 20
-9.62560095E+01
  0
VERTEX
  8
0
 62
4
 10
-5.00306747E+01
 20
-9.60167222E+01
  0
VERTEX
  8
0
 62
4
 10
-5.01778571E+01
 20
-9.57892021E+01
  0
VERTEX
  8
0
 62
4
 10
-5.03446149E+01
 20
-9.55751806E+01
  0
VERTEX
  8
0
 62
4
 10
-5.05296792E+01
 20
-9.53762867E+01
  0
VERTEX
  8
0
 62
4
 10
-5.07316414E+01
 20
-9.51940340E+01
  0
VERTEX
  8
0
 62
4
 10
-5.09489645E+01
 20
-9.50298095E+01
  0
VERTEX
  8
0
 62
4
 10
-5.11799945E+01
 20
-9.48848632E+01
  0
VERTEX
  8
0
 62
4
 10
-5.14229732E+01
 20
-9.47602981E+01
  0
VERTEX
  8
0
 62
4
 10
-5.16760513E+01
 20
-9.46570623E+01
  0
VERTEX
  8
0
 62
4
 10
-5.19373027E+01
 20
-9.45759415E+01
  0
VERTEX
  8
0
 62
4
 10
-5.22047392E+01
 20
-9.45175530E+01
  0
VERTEX
  8
0
 62
4
 10
-5.24763255E+01
 20
-9.44823412E+01
  0
VERTEX
  8
0
 62
4
 10
-5.27499945E+01
 20
-9.44705741E+01
  0
VERTEX
  8
0
 62
4
 10
-5.30236635E+01
 20
-9.44823412E+01
  0
VERTEX
  8
0
 62
4
 10
-5.32952498E+01
 20
-9.45175530E+01
  0
VERTEX
  8
0
 62
4
 10
-5.35626863E+01
 20
-9.45759415E+01
  0
VERTEX
  8
0
 62
4
 10
-5.38239378E+01
 20
-9.46570623E+01
  0
VERTEX
  8
0
 62
4
 10
-5.40770158E+01
 20
-9.47602981E+01
  0
VERTEX
  8
0
 62
4
 10
-5.43199945E+01
 20
-9.48848632E+01
  0
VERTEX
  8
0
 62
4
 10
-5.45510245E+01
 20
-9.50298095E+01
  0
VERTEX
  8
0
 62
4
 10
-5.47683476E+01
 20
-9.51940340E+01
  0
VERTEX
  8
0
 62
4
 10
-5.49703098E+01
 20
-9.53762867E+01
  0
VERTEX
  8
0
 62
4
 10
-5.51553741E+01
 20
-9.55751806E+01
  0
VERTEX
  8
0
 62
4
 10
-5.53221319E+01
 20
-9.57892021E+01
  0
VERTEX
  8
0
 62
4
 10
-5.54693143E+01
 20
-9.60167222E+01
  0
VERTEX
  8
0
 62
4
 10
-5.55958010E+01
 20
-9.62560095E+01
  0
VERTEX
  8
0
 62
4
 10
-5.57006293E+01
 20
-9.65052428E+01
  0
VERTEX
  8
0
 62
4
 10
-5.57830016E+01
 20
-9.67625252E+01
  0
VERTEX
  8
0
 62
4
 10
-5.58422908E+01
 20
-9.70258988E+01
  0
VERTEX
  8
0
 62
4
 10
-5.58780459E+01
 20
-9.72933590E+01
  0
VERTEX
  8
0
 62
4
 10
-5.58899945E+01
 20
-9.75628704E+01
  0
VERTEX
  8
0
 62
4
 10
-5.58780459E+01
 20
-9.78323818E+01
  0
VERTEX
  8
0
 62
4
 10
-5.58422908E+01
 20
-9.80998420E+01
  0
VERTEX
  8
0
 62
4
 10
-5.57830016E+01
 20
-9.83632156E+01
  0
VERTEX
  8
0
 62
4
 10
-5.57006293E+01
 20
-9.86204980E+01
  0
VERTEX
  8
0
 62
4
 10
-5.55958009E+01
 20
-9.88697313E+01
  0
VERTEX
  8
0
 62
4
 10
-5.54693143E+01
 20
-9.91090186E+01
  0
VERTEX
  8
0
 62
4
 10
-5.53221319E+01
 20
-9.93365387E+01
  0
VERTEX
  8
0
 62
4
 10
-5.51553740E+01
 20
-9.95505602E+01
  0
VERTEX
  8
0
 62
4
 10
-5.49703098E+01
 20
-9.97494541E+01
  0
VERTEX
  8
0
 62
4
 10
-5.47683476E+01
 20
-9.99317068E+01
  0
VERTEX
  8
0
 62
4
 10
-5.45510245E+01
 20
-1.00095931E+02
  0
VERTEX
  8
0
 62
4
 10
-5.43199945E+01
 20
-1.00240878E+02
  0
VERTEX
  8
0
 62
4
 10
-5.40770158E+01
 20
-1.00365443E+02
  0
VERTEX
  8
0
 62
4
 10
-5.38239377E+01
 20
-1.00468678E+02
  0
VERTEX
  8
0
 62
4
 10
-5.35626863E+01
 20
-1.00549799E+02
  0
VERTEX
  8
0
 62
4
 10
-5.32952498E+01
 20
-1.00608188E+02
  0
VERTEX
  8
0
 62
4
 10
-5.30236635E+01
 20
-1.00643400E+02
  0
VERTEX
  8
0
 62
4
 10
-5.27499945E+01
 20
-1.00655167E+02
  0
VERTEX
  8
0
 62
4
 10
-5.24763255E+01
 20
-1.00643400E+02
  0
VERTEX
  8
0
 62
4
 10
-5.22047392E+01
 20
-1.00608188E+02
  0
VERTEX
  8
0
 62
4
 10
-5.19373027E+01
 20
-1.00549799E+02
  0
VERTEX
  8
0
 62
4
 10
-5.16760512E+01
 20
-1.00468678E+02
  0
VERTEX
  8
0
 62
4
 10
-5.14229732E+01
 20
-1.00365443E+02
  0
VERTEX
  8
0
 62
4
 10
-5.11799945E+01
 20
-1.00240878E+02
  0
VERTEX
  8
0
 62
4
 10
-5.09489645E+01
 20
-1.00095931E+02
  0
VERTEX
  8
0
 62
4
 10
-5.07316414E+01
 20
-9.99317068E+01
  0
VERTEX
  8
0
 62
4
 10
-5.05296792E+01
 20
-9.97494541E+01
  0
VERTEX
  8
0
 62
4
 10
-5.03446149E+01
 20
-9.95505602E+01
  0
VERTEX
  8
0
 62
4
 10
-5.01778571E+01
 20
-9.93365387E+01
  0
VERTEX
  8
0
 62
4
 10
-5.00306747E+01
 20
-9.91090186E+01
  0
VERTEX
  8
0
 62
4
 10
-4.99041880E+01
 20
-9.88697313E+01
  0
VERTEX
  8
0
 62
4
 10
-4.97993597E+01
 20
-9.86204980E+01
  0
VERTEX
  8
0
 62
4
 10
-4.97169874E+01
 20
-9.83632156E+01
  0
VERTEX
  8
0
 62
4
 10
-4.96576982E+01
 20
-9.80998420E+01
  0
VERTEX
  8
0
 62
4
 10
-4.96219431E+01
 20
-9.78323818E+01
  0
VERTEX
  8
0
 62
4
 10
-4.96099945E+01
 20
-9.75628704E+01
  0
SEQEND
  8
0
  0
ARC
  8
0
 62
4
 10
-6.45143995E+01
 20
-1.02888287E+02
 40
1.21769740E+01
 50
2.40462101E+02
 51
2.52020214E+02
  0
ARC
  8
0
 62
4
 10
-7.29855895E+01
 20
-1.02888287E+02
 40
1.21769740E+01
 50
2.87979786E+02
 51
2.99537899E+02
  0
POLYLINE
  8
0
 62
4
 66
1
  0
VERTEX
  8
0
 62
4
 10
-6.53499945E+01
 20
-1.13471433E+02
  0
VERTEX
  8
0
 62
4
 10
-6.53629325E+01
 20
-1.13383480E+02
  0
VERTEX
  8
0
 62
4
 10
-6.54016481E+01
 20
-1.13296197E+02
  0
VERTEX
  8
0
 62
4
 10
-6.54658467E+01
 20
-1.13210248E+02
  0
VERTEX
  8
0
 62
4
 10
-6.55550396E+01
 20
-1.13126286E+02
  0
VERTEX
  8
0
 62
4
 10
-6.56685480E+01
 20
-1.13044951E+02
  0
VERTEX
  8
0
 62
4
 10
-6.58055081E+01
 20
-1.12966862E+02
  0
VERTEX
  8
0
 62
4
 10
-6.59648775E+01
 20
-1.12892613E+02
  0
VERTEX
  8
0
 62
4
 10
-6.61454434E+01
 20
-1.12822769E+02
  0
VERTEX
  8
0
 62
4
 10
-6.63458314E+01
 20
-1.12757862E+02
  0
VERTEX
  8
0
 62
4
 10
-6.65645166E+01
 20
-1.12698385E+02
  0
VERTEX
  8
0
 62
4
 10
-6.67998346E+01
 20
-1.12644792E+02
  0
VERTEX
  8
0
 62
4
 10
-6.70499945E+01
 20
-1.12597490E+02
  0
VERTEX
  8
0
 62
4
 10
-6.73130924E+01
 20
-1.12556839E+02
  0
VERTEX
  8
0
 62
4
 10
-6.75871260E+01
 20
-1.12523149E+02
  0
VERTEX
  8
0
 62
4
 10
-6.78700097E+01
 20
-1.12496676E+02
  0
VERTEX
  8
0
 62
4
 10
-6.81595907E+01
 20
-1.12477622E+02
  0
VERTEX
  8
0
 62
4
 10
-6.84536650E+01
 20
-1.12466131E+02
  0
VERTEX
  8
0
 62
4
 10
-6.87499945E+01
 20
-1.12462291E+02
  0
VERTEX
  8
0
 62
4
 10
-6.90463240E+01
 20
-1.12466131E+02
  0
VERTEX
  8
0
 62
4
 10
-6.93403983E+01
 20
-1.12477622E+02
  0
VERTEX
  8
0
 62
4
 10
-6.96299793E+01
 20
-1.12496676E+02
  0
VERTEX
  8
0
 62
4
 10
-6.99128630E+01
 20
-1.12523149E+02
  0
VERTEX
  8
0
 62
4
 10
-7.01868966E+01
 20
-1.12556839E+02
  0
VERTEX
  8
0
 62
4
 10
-7.04499945E+01
 20
-1.12597490E+02
  0
VERTEX
  8
0
 62
4
 10
-7.07001544E+01
 20
-1.12644792E+02
  0
VERTEX
  8
0
 62
4
 10
-7.09354724E+01
 20
-1.12698385E+02
  0
VERTEX
  8
0
 62
4
 10
-7.11541576E+01
 20
-1.12757862E+02
  0
VERTEX
  8
0
 62
4
 10
-7.13545456E+01
 20
-1.12822769E+02
  0
VERTEX
  8
0
 62
4
 10
-7.15351115E+01
 20
-1.12892613E+02
  0
VERTEX
  8
0
 62
4
 10
-7.16944809E+01
 20
-1.12966862E+02
  0
VERTEX
  8
0
 62
4
 10
-7.18314410E+01
 20
-1.13044951E+02
  0
VERTEX
  8
0
 62
4
 10
-7.19449494E+01
 20
-1.13126286E+02
  0
VERTEX
  8
0
 62
4
 10
-7.20341423E+01
 20
-1.13210248E+02
  0
VERTEX
  8
0
 62
4
 10
-7.20983409E+01
 20
-1.13296197E+02
  0
VERTEX
  8
0
 62
4
 10
-7.21370565E+01
 20
-1.13383480E+02
  0
VERTEX
  8
0
 62
4
 10
-7.21499945E+01
 20
-1.13471433E+02
  0
VERTEX
  8
0
 62
4
 10
-7.21370565E+01
 20
-1.13559386E+02
  0
VERTEX
  8
0
 62
4
 10
-7.20983409E+01
 20
-1.13646669E+02
  0
VERTEX
  8
0
 62
4
 10
-7.20341423E+01
 20
-1.13732618E+02
  0
VERTEX
  8
0
 62
4
 10
-7.19449494E+01
 20
-1.13816580E+02
  0
VERTEX
  8
0
 62
4
 10
-7.18314410E+01
 20
-1.13897915E+02
  0
VERTEX
  8
0
 62
4
 10
-7.16944809E+01
 20
-1.13976004E+02
  0
VERTEX
  8
0
 62
4
 10
-7.15351114E+01
 20
-1.14050253E+02
  0
VERTEX
  8
0
 62
4
 10
-7.13545456E+01
 20
-1.14120097E+02
  0
VERTEX
  8
0
 62
4
 10
-7.11541576E+01
 20
-1.14185004E+02
  0
VERTEX
  8
0
 62
4
 10
-7.09354724E+01
 20
-1.14244481E+02
  0
VERTEX
  8
0
 62
4
 10
-7.07001544E+01
 20
-1.14298074E+02
  0
VERTEX
  8
0
 62
4
 10
-7.04499945E+01
 20
-1.14345376E+02
  0
VERTEX
  8
0
 62
4
 10
-7.01868966E+01
 20
-1.14386027E+02
  0
VERTEX
  8
0
 62
4
 10
-6.99128630E+01
 20
-1.14419717E+02
  0
VERTEX
  8
0
 62
4
 10
-6.96299792E+01
 20
-1.14446190E+02
  0
VERTEX
  8
0
 62
4
 10
-6.93403983E+01
 20
-1.14465244E+02
  0
VERTEX
  8
0
 62
4
 10
-6.90463240E+01
 20
-1.14476735E+02
  0
VERTEX
  8
0
 62
4
 10
-6.87499945E+01
 20
-1.14480575E+02
  0
VERTEX
  8
0
 62
4
 10
-6.84536650E+01
 20
-1.14476735E+02
  0
VERTEX
  8
0
 62
4
 10
-6.81595907E+01
 20
-1.14465244E+02
  0
VERTEX
  8
0
 62
4
 10
-6.78700097E+01
 20
-1.14446190E+02
  0
VERTEX
  8
0
 62
4
 10
-6.75871260E+01
 20
-1.14419717E+02
  0
VERTEX
  8
0
 62
4
 10
-6.73130924E+01
 20
-1.14386027E+02
  0
VERTEX
  8
0
 62
4
 10
-6.70499945E+01
 20
-1.14345376E+02
  0
VERTEX
  8
0
 62
4
 10
-6.67998346E+01
 20
-1.14298074E+02
  0
VERTEX
  8
0
 62
4
 10
-6.65645166E+01
 20
-1.14244481E+02
  0
VERTEX
  8
0
 62
4
 10
-6.63458314E+01
 20
-1.14185004E+02
  0
VERTEX
  8
0
 62
4
 10
-6.61454434E+01
 20
-1.14120097E+02
  0
VERTEX
  8
0
 62
4
 10
-6.59648775E+01
 20
-1.14050253E+02
  0
VERTEX
  8
0
 62
4
 10
-6.58055081E+01
 20
-1.13976004E+02
  0
VERTEX
  8
0
 62
4
 10
-6.56685480E+01
 20
-1.13897915E+02
  0
VERTEX
  8
0
 62
4
 10
-6.55550396E+01
 20
-1.13816580E+02
  0
VERTEX
  8
0
 62
4
 10
-6.54658467E+01
 20
-1.13732618E+02
  0
VERTEX
  8
0
 62
4
 10
-6.54016481E+01
 20
-1.13646669E+02
  0
VERTEX
  8
0
 62
4
 10
-6.53629325E+01
 20
-1.13559386E+02
  0
VERTEX
  8
0
 62
4
 10
-6.53499945E+01
 20
-1.13471433E+02
  0
SEQEND
  8
0
  0
ARC
  8
0
 62
4
 10
-7.92494946E+01
 20
-8.78154686E+01
 40
1.50050004E+00
 50
9.00190906E+01
 51
1.34401209E+02
  0
ARC
  8
0
 62
4
 10
-8.52494944E+01
 20
-8.72439246E+01
 40
5.00500378E-01
 50
9.00572530E+01
 51
1.79942747E+02
  0
ARC
  8
0
 62
4
 10
-8.52504941E+01
 20
-1.00243924E+02
 40
4.99500622E-01
 50
1.79942690E+02
 51
2.70057311E+02
  0
ARC
  8
0
 62
4
 10
-4.32504983E+01
 20
-8.78154724E+01
 40
1.50050386E+00
 50
1.92364101E-02
 51
8.99807637E+01
  0
LINE
  8
0
 62
4
 10
-5.92499945E+01
 20
-8.76862526E+01
 11
-6.12499945E+01
 21
-8.76862526E+01
  0
LINE
  8
0
 62
4
 10
-7.92499945E+01
 20
-1.09554212E+02
 11
-4.32499945E+01
 21
-1.09554212E+02
  0
LINE
  8
0
 62
4
 10
-7.92499945E+01
 20
-8.63149686E+01
 11
-7.62499945E+01
 21
-8.63149686E+01
  0
LINE
  8
0
 62
4
 10
-7.82499945E+01
 20
-1.06397600E+02
 11
-5.92499945E+01
 21
-1.06397600E+02
  0
LINE
  8
0
 62
4
 10
-7.82499945E+01
 20
-1.00727777E+02
 11
-7.82499945E+01
 21
-1.07092193E+02
  0
LINE
  8
0
 62
4
 10
-8.07499945E+01
 20
-1.00727777E+02
 11
-8.07499945E+01
 21
-1.10658935E+02
  0
LINE
  8
0
 62
4
 10
-5.92499945E+01
 20
-8.76862526E+01
 11
-5.92499945E+01
 21
-1.07092193E+02
  0
LINE
  8
0
 62
4
 10
-4.17499945E+01
 20
-8.78149686E+01
 11
-4.17499945E+01
 21
-1.10659434E+02
  0
LINE
  8
0
 62
4
 10
-9.57499945E+01
 20
-8.66901798E+01
 11
-9.07499945E+01
 21
-8.66901798E+01
  0
LINE
  8
0
 62
4
 10
-7.62499945E+01
 20
-1.00086780E+02
 11
-6.12499945E+01
 21
-1.00086780E+02
  0
LINE
  8
0
 62
4
 10
-7.62499945E+01
 20
-8.53146636E+01
 11
-6.12499945E+01
 21
-8.53146636E+01
  0
LINE
  8
0
 62
4
 10
-6.12499945E+01
 20
-7.37395636E+01
 11
-6.12499945E+01
 21
-1.04427984E+02
  0
LINE
  8
0
 62
4
 10
-8.92499945E+01
 20
-9.94934245E+01
 11
-8.57499945E+01
 21
-9.94934245E+01
  0
LINE
  8
0
 62
4
 10
-8.92499945E+01
 20
-8.79934245E+01
 11
-8.57499945E+01
 21
-8.79934245E+01
  0
LINE
  8
0
 62
4
 10
-8.92499945E+01
 20
-8.74934245E+01
 11
-8.92499945E+01
 21
-9.99934245E+01
  0
LINE
  8
0
 62
4
 10
-9.07499945E+01
 20
-9.99934245E+01
 11
-8.57499945E+01
 21
-9.99934245E+01
  0
LINE
  8
0
 62
4
 10
-9.07499945E+01
 20
-8.74934245E+01
 11
-8.57499945E+01
 21
-8.74934245E+01
  0
LINE
  8
0
 62
4
 10
-9.07499945E+01
 20
-8.66901798E+01
 11
-9.07499945E+01
 21
-1.00796778E+02
  0
LINE
  8
0
 62
4
 10
-9.57499945E+01
 20
-8.66901798E+01
 11
-9.57499945E+01
 21
-1.00796778E+02
  0
LINE
  8
0
 62
4
 10
-8.57499945E+01
 20
-8.72277765E+01
 11
-8.57499945E+01
 21
-1.00227777E+02
  0
LINE
  8
0
 62
4
 10
-7.62499945E+01
 20
-8.67434245E+01
 11
-8.52499945E+01
 21
-8.67434245E+01
  0
LINE
  8
0
 62
4
 10
-8.52499945E+01
 20
-1.00743424E+02
 11
-7.62499945E+01
 21
-1.00743424E+02
  0
LINE
  8
0
  6
CENTER
 62
6
 10
-6.87499945E+01
 20
-7.20899052E+01
 11
-6.87499945E+01
 21
-1.15664721E+02
  0
LINE
  8
0
 62
4
 10
-7.21499945E+01
 20
-1.13471433E+02
 11
-7.21499945E+01
 21
-1.11348977E+02
  0
LINE
  8
0
 62
4
 10
-6.53499945E+01
 20
-1.11348977E+02
 11
-6.53499945E+01
 21
-1.13471433E+02
  0
LINE
  8
0
 62
4
 10
-7.27499945E+01
 20
-1.10856573E+02
 11
-7.27499945E+01
 21
-1.11348977E+02
  0
LINE
  8
0
 62
4
 10
-6.47499945E+01
 20
-1.11348977E+02
 11
-6.47499945E+01
 21
-1.10856573E+02
  0
LINE
  8
0
 62
6
 10
-7.12499945E+01
 20
-7.22313346E+01
 11
-7.12499945E+01
 21
-7.37395636E+01
  0
LINE
  8
0
 62
4
 10
-7.47499945E+01
 20
-7.32313346E+01
 11
-7.44899945E+01
 21
-7.22313346E+01
  0
LINE
  8
0
 62
4
 10
-7.07499945E+01
 20
-7.32313346E+01
 11
-7.10199945E+01
 21
-7.22313346E+01
  0
LINE
  8
0
 62
4
 10
-7.10199945E+01
 20
-7.22313346E+01
 11
-7.44899945E+01
 21
-7.22313346E+01
  0
LINE
  8
0
 62
4
 10
-7.47499945E+01
 20
-7.32313346E+01
 11
-7.47499945E+01
 21
-7.37395636E+01
  0
LINE
  8
0
 62
4
 10
-7.07499945E+01
 20
-7.32313346E+01
 11
-7.07499945E+01
 21
-7.37395636E+01
  0
LINE
  8
0
 62
6
 10
-7.42499945E+01
 20
-7.22313346E+01
 11
-7.42499945E+01
 21
-7.37395636E+01
  0
LINE
  8
0
  6
CENTER
 62
6
 10
-7.27499945E+01
 20
-7.09713346E+01
 11
-7.27499945E+01
 21
-8.14713346E+01
  0
LINE
  8
0
 62
4
 10
-6.12499945E+01
 20
-7.37395636E+01
 11
-7.62499945E+01
 21
-7.37395636E+01
  0
LINE
  8
0
 62
4
 10
-6.22499945E+01
 20
-7.95446561E+01
 11
-7.52499945E+01
 21
-7.95446561E+01
  0
LINE
  8
0
 62
4
 10
-7.62499945E+01
 20
-7.37395636E+01
 11
-7.62499945E+01
 21
-1.04427984E+02
  0
LINE
  8
0
 62
6
 10
-6.62499945E+01
 20
-7.22313346E+01
 11
-6.62499945E+01
 21
-7.37395636E+01
  0
LINE
  8
0
 62
6
 10
-6.32499945E+01
 20
-7.22313346E+01
 11
-6.32499945E+01
 21
-7.37395636E+01
  0
LINE
  8
0
 62
4
 10
-6.67499945E+01
 20
-7.32313346E+01
 11
-6.64899945E+01
 21
-7.22313346E+01
  0
LINE
  8
0
 62
4
 10
-6.27499945E+01
 20
-7.32313346E+01
 11
-6.30199945E+01
 21
-7.22313346E+01
  0
LINE
  8
0
 62
4
 10
-6.30199945E+01
 20
-7.22313346E+01
 11
-6.64899945E+01
 21
-7.22313346E+01
  0
LINE
  8
0
 62
4
 10
-6.67499945E+01
 20
-7.32313346E+01
 11
-6.67499945E+01
 21
-7.37395636E+01
  0
LINE
  8
0
 62
4
 10
-6.27499945E+01
 20
-7.32313346E+01
 11
-6.27499945E+01
 21
-7.37395636E+01
  0
LINE
  8
0
  6
CENTER
 62
6
 10
-6.47499945E+01
 20
-7.09713346E+01
 11
-6.47499945E+01
 21
-8.14713346E+01
  0
LINE
  8
0
 62
4
 10
-9.57499945E+01
 20
-9.24402495E+01
 11
-9.07499945E+01
 21
-9.24402495E+01
  0
LINE
  8
0
 62
4
 10
-9.57499945E+01
 20
-1.00796778E+02
 11
-9.07499945E+01
 21
-1.00796778E+02
  0
LINE
  8
0
 62
4
 10
-6.12499945E+01
 20
-8.63149686E+01
 11
-4.32499945E+01
 21
-8.63149686E+01
  0
ARC
  8
0
 62
4
 10
-4.32494947E+01
 20
-1.10659434E+02
 40
1.49950029E+00
 50
2.69980903E+02
 51
1.90971113E-02
  0
LINE
  8
0
 62
4
 10
-7.92499945E+01
 20
-1.12158935E+02
 11
-7.21499945E+01
 21
-1.12158935E+02
  0
ARC
  8
0
 62
4
 10
-7.92504981E+01
 20
-1.10659438E+02
 40
1.49949647E+00
 50
1.79980757E+02
 51
2.70019243E+02
  0
LINE
  8
0
 62
4
 10
-9.57499945E+01
 20
-9.94926806E+01
 11
-9.07499945E+01
 21
-9.94926806E+01
  0
POLYLINE
  8
0
 62
4
 66
1
  0
VERTEX
  8
0
 62
4
 10
-6.57499945E+01
 20
-9.27007218E+01
  0
VERTEX
  8
0
 62
4
 10
-6.57614104E+01
 20
-9.24432268E+01
  0
VERTEX
  8
0
 62
4
 10
-6.57955712E+01
 20
-9.21876916E+01
  0
VERTEX
  8
0
 62
4
 10
-6.58522170E+01
 20
-9.19360608E+01
  0
VERTEX
  8
0
 62
4
 10
-6.59309166E+01
 20
-9.16902495E+01
  0
VERTEX
  8
0
 62
4
 10
-6.60310711E+01
 20
-9.14521286E+01
  0
VERTEX
  8
0
 62
4
 10
-6.61519183E+01
 20
-9.12235102E+01
  0
VERTEX
  8
0
 62
4
 10
-6.62925384E+01
 20
-9.10061342E+01
  0
VERTEX
  8
0
 62
4
 10
-6.64518612E+01
 20
-9.08016551E+01
  0
VERTEX
  8
0
 62
4
 10
-6.66286742E+01
 20
-9.06116291E+01
  0
VERTEX
  8
0
 62
4
 10
-6.68216317E+01
 20
-9.04375023E+01
  0
VERTEX
  8
0
 62
4
 10
-6.70292652E+01
 20
-9.02805999E+01
  0
VERTEX
  8
0
 62
4
 10
-6.72499945E+01
 20
-9.01421162E+01
  0
VERTEX
  8
0
 62
4
 10
-6.74821397E+01
 20
-9.00231050E+01
  0
VERTEX
  8
0
 62
4
 10
-6.77239341E+01
 20
-8.99244721E+01
  0
VERTEX
  8
0
 62
4
 10
-6.79735374E+01
 20
-8.98469681E+01
  0
VERTEX
  8
0
 62
4
 10
-6.82290500E+01
 20
-8.97911829E+01
  0
VERTEX
  8
0
 62
4
 10
-6.84885273E+01
 20
-8.97575410E+01
  0
VERTEX
  8
0
 62
4
 10
-6.87499945E+01
 20
-8.97462985E+01
  0
VERTEX
  8
0
 62
4
 10
-6.90114617E+01
 20
-8.97575410E+01
  0
VERTEX
  8
0
 62
4
 10
-6.92709390E+01
 20
-8.97911829E+01
  0
VERTEX
  8
0
 62
4
 10
-6.95264516E+01
 20
-8.98469681E+01
  0
VERTEX
  8
0
 62
4
 10
-6.97760549E+01
 20
-8.99244721E+01
  0
VERTEX
  8
0
 62
4
 10
-7.00178493E+01
 20
-9.00231050E+01
  0
VERTEX
  8
0
 62
4
 10
-7.02499945E+01
 20
-9.01421162E+01
  0
VERTEX
  8
0
 62
4
 10
-7.04707238E+01
 20
-9.02805999E+01
  0
VERTEX
  8
0
 62
4
 10
-7.06783573E+01
 20
-9.04375023E+01
  0
VERTEX
  8
0
 62
4
 10
-7.08713148E+01
 20
-9.06116291E+01
  0
VERTEX
  8
0
 62
4
 10
-7.10481278E+01
 20
-9.08016551E+01
  0
VERTEX
  8
0
 62
4
 10
-7.12074506E+01
 20
-9.10061342E+01
  0
VERTEX
  8
0
 62
4
 10
-7.13480707E+01
 20
-9.12235102E+01
  0
VERTEX
  8
0
 62
4
 10
-7.14689179E+01
 20
-9.14521286E+01
  0
VERTEX
  8
0
 62
4
 10
-7.15690724E+01
 20
-9.16902495E+01
  0
VERTEX
  8
0
 62
4
 10
-7.16477720E+01
 20
-9.19360608E+01
  0
VERTEX
  8
0
 62
4
 10
-7.17044178E+01
 20
-9.21876916E+01
  0
VERTEX
  8
0
 62
4
 10
-7.17385786E+01
 20
-9.24432269E+01
  0
VERTEX
  8
0
 62
4
 10
-7.17499945E+01
 20
-9.27007218E+01
  0
VERTEX
  8
0
 62
4
 10
-7.17385786E+01
 20
-9.29582168E+01
  0
VERTEX
  8
0
 62
4
 10
-7.17044178E+01
 20
-9.32137520E+01
  0
VERTEX
  8
0
 62
4
 10
-7.16477720E+01
 20
-9.34653828E+01
  0
VERTEX
  8
0
 62
4
 10
-7.15690724E+01
 20
-9.37111941E+01
  0
VERTEX
  8
0
 62
4
 10
-7.14689179E+01
 20
-9.39493150E+01
  0
VERTEX
  8
0
 62
4
 10
-7.13480707E+01
 20
-9.41779334E+01
  0
VERTEX
  8
0
 62
4
 10
-7.12074506E+01
 20
-9.43953094E+01
  0
VERTEX
  8
0
 62
4
 10
-7.10481278E+01
 20
-9.45997885E+01
  0
VERTEX
  8
0
 62
4
 10
-7.08713148E+01
 20
-9.47898145E+01
  0
VERTEX
  8
0
 62
4
 10
-7.06783573E+01
 20
-9.49639413E+01
  0
VERTEX
  8
0
 62
4
 10
-7.04707238E+01
 20
-9.51208437E+01
  0
VERTEX
  8
0
 62
4
 10
-7.02499945E+01
 20
-9.52593274E+01
  0
VERTEX
  8
0
 62
4
 10
-7.00178493E+01
 20
-9.53783386E+01
  0
VERTEX
  8
0
 62
4
 10
-6.97760549E+01
 20
-9.54769715E+01
  0
VERTEX
  8
0
 62
4
 10
-6.95264516E+01
 20
-9.55544755E+01
  0
VERTEX
  8
0
 62
4
 10
-6.92709390E+01
 20
-9.56102607E+01
  0
VERTEX
  8
0
 62
4
 10
-6.90114617E+01
 20
-9.56439026E+01
  0
VERTEX
  8
0
 62
4
 10
-6.87499945E+01
 20
-9.56551451E+01
  0
VERTEX
  8
0
 62
4
 10
-6.84885273E+01
 20
-9.56439026E+01
  0
VERTEX
  8
0
 62
4
 10
-6.82290500E+01
 20
-9.56102607E+01
  0
VERTEX
  8
0
 62
4
 10
-6.79735374E+01
 20
-9.55544755E+01
  0
VERTEX
  8
0
 62
4
 10
-6.77239341E+01
 20
-9.54769715E+01
  0
VERTEX
  8
0
 62
4
 10
-6.74821397E+01
 20
-9.53783386E+01
  0
VERTEX
  8
0
 62
4
 10
-6.72499945E+01
 20
-9.52593274E+01
  0
VERTEX
  8
0
 62
4
 10
-6.70292652E+01
 20
-9.51208436E+01
  0
VERTEX
  8
0
 62
4
 10
-6.68216317E+01
 20
-9.49639413E+01
  0
VERTEX
  8
0
 62
4
 10
-6.66286742E+01
 20
-9.47898145E+01
  0
VERTEX
  8
0
 62
4
 10
-6.64518612E+01
 20
-9.45997885E+01
  0
VERTEX
  8
0
 62
4
 10
-6.62925384E+01
 20
-9.43953094E+01
  0
VERTEX
  8
0
 62
4
 10
-6.61519183E+01
 20
-9.41779334E+01
  0
VERTEX
  8
0
 62
4
 10
-6.60310711E+01
 20
-9.39493150E+01
  0
VERTEX
  8
0
 62
4
 10
-6.59309166E+01
 20
-9.37111941E+01
  0
VERTEX
  8
0
 62
4
 10
-6.58522170E+01
 20
-9.34653828E+01
  0
VERTEX
  8
0
 62
4
 10
-6.57955712E+01
 20
-9.32137520E+01
  0
VERTEX
  8
0
 62
4
 10
-6.57614104E+01
 20
-9.29582167E+01
  0
VERTEX
  8
0
 62
4
 10
-6.57499945E+01
 20
-9.27007218E+01
  0
SEQEND
  8
0
  0
LINE
  8
0
  6
CENTER
 62
6
 10
-7.42365603E+01
 20
-9.27007218E+01
 11
-6.32634286E+01
 21
-9.27007218E+01
  0
LINE
  8
0
  6
CENTER
 62
6
 10
-5.27499945E+01
 20
-9.20408186E+01
 11
-5.27499945E+01
 21
-1.03084922E+02
  0
LINE
  8
0
  6
CENTER
 62
6
 10
-5.82720464E+01
 20
-9.75628704E+01
 11
-4.72279427E+01
 21
-9.75628704E+01
  0
POLYLINE
  8
0
 62
4
 66
1
  0
VERTEX
  8
0
 62
4
 10
-6.47499945E+01
 20
-1.10856573E+02
  0
VERTEX
  8
0
 62
4
 10
-6.47660973E+01
 20
-1.10794310E+02
  0
VERTEX
  8
0
 62
4
 10
-6.48142761E+01
 20
-1.10732549E+02
  0
VERTEX
  8
0
 62
4
 10
-6.48941431E+01
 20
-1.10671786E+02
  0
VERTEX
  8
0
 62
4
 10
-6.50050550E+01
 20
-1.10612511E+02
  0
VERTEX
  8
0
 62
4
 10
-6.51461190E+01
 20
-1.10555201E+02
  0
VERTEX
  8
0
 62
4
 10
-6.53161993E+01
 20
-1.10500317E+02
  0
VERTEX
  8
0
 62
4
 10
-6.55139265E+01
 20
-1.10448302E+02
  0
VERTEX
  8
0
 62
4
 10
-6.57377086E+01
 20
-1.10399574E+02
  0
VERTEX
  8
0
 62
4
 10
-6.59857439E+01
 20
-1.10354525E+02
  0
VERTEX
  8
0
 62
4
 10
-6.62560353E+01
 20
-1.10313519E+02
  0
VERTEX
  8
0
 62
4
 10
-6.65464066E+01
 20
-1.10276885E+02
  0
VERTEX
  8
0
 62
4
 10
-6.68545198E+01
 20
-1.10244918E+02
  0
VERTEX
  8
0
 62
4
 10
-6.71778944E+01
 20
-1.10217876E+02
  0
VERTEX
  8
0
 62
4
 10
-6.75139265E+01
 20
-1.10195976E+02
  0
VERTEX
  8
0
 62
4
 10
-6.78599108E+01
 20
-1.10179395E+02
  0
VERTEX
  8
0
 62
4
 10
-6.82130614E+01
 20
-1.10168267E+02
  0
VERTEX
  8
0
 62
4
 10
-6.85705352E+01
 20
-1.10162680E+02
  0
VERTEX
  8
0
 62
4
 10
-6.89294538E+01
 20
-1.10162680E+02
  0
VERTEX
  8
0
 62
4
 10
-6.92869276E+01
 20
-1.10168267E+02
  0
VERTEX
  8
0
 62
4
 10
-6.96400782E+01
 20
-1.10179395E+02
  0
VERTEX
  8
0
 62
4
 10
-6.99860625E+01
 20
-1.10195976E+02
  0
VERTEX
  8
0
 62
4
 10
-7.03220946E+01
 20
-1.10217876E+02
  0
VERTEX
  8
0
 62
4
 10
-7.06454691E+01
 20
-1.10244918E+02
  0
VERTEX
  8
0
 62
4
 10
-7.09535824E+01
 20
-1.10276885E+02
  0
VERTEX
  8
0
 62
4
 10
-7.12439537E+01
 20
-1.10313519E+02
  0
VERTEX
  8
0
 62
4
 10
-7.15142451E+01
 20
-1.10354525E+02
  0
VERTEX
  8
0
 62
4
 10
-7.17622804E+01
 20
-1.10399574E+02
  0
VERTEX
  8
0
 62
4
 10
-7.19860625E+01
 20
-1.10448302E+02
  0
VERTEX
  8
0
 62
4
 10
-7.21837897E+01
 20
-1.10500317E+02
  0
VERTEX
  8
0
 62
4
 10
-7.23538700E+01
 20
-1.10555201E+02
  0
VERTEX
  8
0
 62
4
 10
-7.24949340E+01
 20
-1.10612511E+02
  0
VERTEX
  8
0
 62
4
 10
-7.26058459E+01
 20
-1.10671786E+02
  0
VERTEX
  8
0
 62
4
 10
-7.26857129E+01
 20
-1.10732549E+02
  0
VERTEX
  8
0
 62
4
 10
-7.27338917E+01
 20
-1.10794310E+02
  0
VERTEX
  8
0
 62
4
 10
-7.27499945E+01
 20
-1.10856573E+02
  0
SEQEND
  8
0
  0
POLYLINE
  8
0
 62
4
 66
1
  0
VERTEX
  8
0
 62
4
 10
-6.53499945E+01
 20
-1.11714876E+02
  0
VERTEX
  8
0
 62
4
 10
-6.51769425E+01
 20
-1.11661220E+02
  0
VERTEX
  8
0
 62
4
 10
-6.50318995E+01
 20
-1.11605117E+02
  0
VERTEX
  8
0
 62
4
 10
-6.49160027E+01
 20
-1.11547005E+02
  0
VERTEX
  8
0
 62
4
 10
-6.48301604E+01
 20
-1.11487341E+02
  0
VERTEX
  8
0
 62
4
 10
-6.47750456E+01
 20
-1.11426592E+02
  0
VERTEX
  8
0
 62
4
 10
-6.47510904E+01
 20
-1.11365235E+02
  0
VERTEX
  8
0
 62
4
 10
-6.47584826E+01
 20
-1.11303751E+02
  0
VERTEX
  8
0
 62
4
 10
-6.47971641E+01
 20
-1.11242621E+02
  0
VERTEX
  8
0
 62
4
 10
-6.48668318E+01
 20
-1.11182325E+02
  0
VERTEX
  8
0
 62
4
 10
-6.49669395E+01
 20
-1.11123335E+02
  0
VERTEX
  8
0
 62
4
 10
-6.50967026E+01
 20
-1.11066114E+02
  0
VERTEX
  8
0
 62
4
 10
-6.52551037E+01
 20
-1.11011110E+02
  0
VERTEX
  8
0
 62
4
 10
-6.54409012E+01
 20
-1.10958755E+02
  0
VERTEX
  8
0
 62
4
 10
-6.56526387E+01
 20
-1.10909459E+02
  0
VERTEX
  8
0
 62
4
 10
-6.58886563E+01
 20
-1.10863608E+02
  0
VERTEX
  8
0
 62
4
 10
-6.61471038E+01
 20
-1.10821562E+02
  0
VERTEX
  8
0
 62
4
 10
-6.64259554E+01
 20
-1.10783650E+02
  0
VERTEX
  8
0
 62
4
 10
-6.67230250E+01
 20
-1.10750170E+02
  0
VERTEX
  8
0
 62
4
 10
-6.70359841E+01
 20
-1.10721384E+02
  0
VERTEX
  8
0
 62
4
 10
-6.73623792E+01
 20
-1.10697518E+02
  0
VERTEX
  8
0
 62
4
 10
-6.76996519E+01
 20
-1.10678758E+02
  0
VERTEX
  8
0
 62
4
 10
-6.80451581E+01
 20
-1.10665253E+02
  0
VERTEX
  8
0
 62
4
 10
-6.83961896E+01
 20
-1.10657107E+02
  0
VERTEX
  8
0
 62
4
 10
-6.87499945E+01
 20
-1.10654384E+02
  0
VERTEX
  8
0
 62
4
 10
-6.91037994E+01
 20
-1.10657107E+02
  0
VERTEX
  8
0
 62
4
 10
-6.94548309E+01
 20
-1.10665253E+02
  0
VERTEX
  8
0
 62
4
 10
-6.98003371E+01
 20
-1.10678758E+02
  0
VERTEX
  8
0
 62
4
 10
-7.01376097E+01
 20
-1.10697518E+02
  0
VERTEX
  8
0
 62
4
 10
-7.04640049E+01
 20
-1.10721384E+02
  0
VERTEX
  8
0
 62
4
 10
-7.07769639E+01
 20
-1.10750170E+02
  0
VERTEX
  8
0
 62
4
 10
-7.10740336E+01
 20
-1.10783650E+02
  0
VERTEX
  8
0
 62
4
 10
-7.13528852E+01
 20
-1.10821562E+02
  0
VERTEX
  8
0
 62
4
 10
-7.16113327E+01
 20
-1.10863608E+02
  0
VERTEX
  8
0
 62
4
 10
-7.18473503E+01
 20
-1.10909459E+02
  0
VERTEX
  8
0
 62
4
 10
-7.20590877E+01
 20
-1.10958755E+02
  0
VERTEX
  8
0
 62
4
 10
-7.22448853E+01
 20
-1.11011110E+02
  0
VERTEX
  8
0
 62
4
 10
-7.24032864E+01
 20
-1.11066114E+02
  0
VERTEX
  8
0
 62
4
 10
-7.25330495E+01
 20
-1.11123335E+02
  0
VERTEX
  8
0
 62
4
 10
-7.26331572E+01
 20
-1.11182325E+02
  0
VERTEX
  8
0
 62
4
 10
-7.27028249E+01
 20
-1.11242621E+02
  0
VERTEX
  8
0
 62
4
 10
-7.27415064E+01
 20
-1.11303751E+02
  0
VERTEX
  8
0
 62
4
 10
-7.27488986E+01
 20
-1.11365235E+02
  0
VERTEX
  8
0
 62
4
 10
-7.27249434E+01
 20
-1.11426592E+02
  0
VERTEX
  8
0
 62
4
 10
-7.26698286E+01
 20
-1.11487341E+02
  0
VERTEX
  8
0
 62
4
 10
-7.25839863E+01
 20
-1.11547005E+02
  0
VERTEX
  8
0
 62
4
 10
-7.24680895E+01
 20
-1.11605117E+02
  0
VERTEX
  8
0
 62
4
 10
-7.23230465E+01
 20
-1.11661220E+02
  0
VERTEX
  8
0
 62
4
 10
-7.21499945E+01
 20
-1.11714876E+02
  0
SEQEND
  8
0
  0
POLYLINE
  8
0
 62
4
 66
1
  0
VERTEX
  8
0
 62
4
 10
-6.53499945E+01
 20
-1.11348977E+02
  0
VERTEX
  8
0
 62
4
 10
-6.53636819E+01
 20
-1.11296054E+02
  0
VERTEX
  8
0
 62
4
 10
-6.54046339E+01
 20
-1.11243556E+02
  0
VERTEX
  8
0
 62
4
 10
-6.54725208E+01
 20
-1.11191908E+02
  0
VERTEX
  8
0
 62
4
 10
-6.55667959E+01
 20
-1.11141524E+02
  0
VERTEX
  8
0
 62
4
 10
-6.56867003E+01
 20
-1.11092810E+02
  0
VERTEX
  8
0
 62
4
 10
-6.58312686E+01
 20
-1.11046159E+02
  0
VERTEX
  8
0
 62
4
 10
-6.59993367E+01
 20
-1.11001946E+02
  0
VERTEX
  8
0
 62
4
 10
-6.61895515E+01
 20
-1.10960527E+02
  0
VERTEX
  8
0
 62
4
 10
-6.64003815E+01
 20
-1.10922236E+02
  0
VERTEX
  8
0
 62
4
 10
-6.66301292E+01
 20
-1.10887381E+02
  0
VERTEX
  8
0
 62
4
 10
-6.68769448E+01
 20
-1.10856242E+02
  0
VERTEX
  8
0
 62
4
 10
-6.71388410E+01
 20
-1.10829070E+02
  0
VERTEX
  8
0
 62
4
 10
-6.74137094E+01
 20
-1.10806084E+02
  0
VERTEX
  8
0
 62
4
 10
-6.76993367E+01
 20
-1.10787470E+02
  0
VERTEX
  8
0
 62
4
 10
-6.79934233E+01
 20
-1.10773376E+02
  0
VERTEX
  8
0
 62
4
 10
-6.82936014E+01
 20
-1.10763916E+02
  0
VERTEX
  8
0
 62
4
 10
-6.85974541E+01
 20
-1.10759168E+02
  0
VERTEX
  8
0
 62
4
 10
-6.89025349E+01
 20
-1.10759168E+02
  0
VERTEX
  8
0
 62
4
 10
-6.92063876E+01
 20
-1.10763916E+02
  0
VERTEX
  8
0
 62
4
 10
-6.95065657E+01
 20
-1.10773376E+02
  0
VERTEX
  8
0
 62
4
 10
-6.98006523E+01
 20
-1.10787470E+02
  0
VERTEX
  8
0
 62
4
 10
-7.00862796E+01
 20
-1.10806084E+02
  0
VERTEX
  8
0
 62
4
 10
-7.03611479E+01
 20
-1.10829070E+02
  0
VERTEX
  8
0
 62
4
 10
-7.06230442E+01
 20
-1.10856242E+02
  0
VERTEX
  8
0
 62
4
 10
-7.08698598E+01
 20
-1.10887381E+02
  0
VERTEX
  8
0
 62
4
 10
-7.10996075E+01
 20
-1.10922236E+02
  0
VERTEX
  8
0
 62
4
 10
-7.13104375E+01
 20
-1.10960527E+02
  0
VERTEX
  8
0
 62
4
 10
-7.15006523E+01
 20
-1.11001946E+02
  0
VERTEX
  8
0
 62
4
 10
-7.16687204E+01
 20
-1.11046159E+02
  0
VERTEX
  8
0
 62
4
 10
-7.18132886E+01
 20
-1.11092810E+02
  0
VERTEX
  8
0
 62
4
 10
-7.19331931E+01
 20
-1.11141524E+02
  0
VERTEX
  8
0
 62
4
 10
-7.20274682E+01
 20
-1.11191908E+02
  0
VERTEX
  8
0
 62
4
 10
-7.20953551E+01
 20
-1.11243556E+02
  0
VERTEX
  8
0
 62
4
 10
-7.21363071E+01
 20
-1.11296054E+02
  0
VERTEX
  8
0
 62
4
 10
-7.21499945E+01
 20
-1.11348977E+02
  0
SEQEND
  8
0
  0
LINE
  8
0
 62
4
 10
-6.53499945E+01
 20
-1.12158935E+02
 11
-4.32499945E+01
 21
-1.12158935E+02
  0
ARC
  8
0
 62
4
 10
-4.32494947E+01
 20
-1.08054712E+02
 40
1.49950029E+00
 50
2.69980903E+02
 51
1.90971113E-02
  0
ARC
  8
0
 62
4
 10
-7.92504981E+01
 20
-1.08054716E+02
 40
1.49949647E+00
 50
1.79980757E+02
 51
2.70019243E+02
  0
LINE
  8
0
 62
4
 10
2.19078782E+02
 20
-1.91832058E+02
 11
2.19431463E+02
 21
-1.92777582E+02
  0
LINE
  8
0
 62
4
 10
2.12798782E+02
 20
-1.91832058E+02
 11
2.12446100E+02
 21
-1.92777582E+02
  0
POLYLINE
  8
0
 62
4
 66
1
  0
VERTEX
  8
0
 62
4
 10
2.12446101E+02
 20
-1.92777582E+02
  0
VERTEX
  8
0
 62
4
 10
2.12439767E+02
 20
-1.92831282E+02
  0
VERTEX
  8
0
 62
4
 10
2.12460761E+02
 20
-1.92884870E+02
  0
VERTEX
  8
0
 62
4
 10
2.12508919E+02
 20
-1.92937927E+02
  0
VERTEX
  8
0
 62
4
 10
2.12583866E+02
 20
-1.92990038E+02
  0
VERTEX
  8
0
 62
4
 10
2.12685014E+02
 20
-1.93040797E+02
  0
VERTEX
  8
0
 62
4
 10
2.12811576E+02
 20
-1.93089807E+02
  0
VERTEX
  8
0
 62
4
 10
2.12962561E+02
 20
-1.93136685E+02
  0
VERTEX
  8
0
 62
4
 10
2.13136792E+02
 20
-1.93181065E+02
  0
VERTEX
  8
0
 62
4
 10
2.13332906E+02
 20
-1.93222601E+02
  0
VERTEX
  8
0
 62
4
 10
2.13549373E+02
 20
-1.93260967E+02
  0
VERTEX
  8
0
 62
4
 10
2.13784502E+02
 20
-1.93295866E+02
  0
VERTEX
  8
0
 62
4
 10
2.14036456E+02
 20
-1.93327023E+02
  0
VERTEX
  8
0
 62
4
 10
2.14303268E+02
 20
-1.93354196E+02
  0
VERTEX
  8
0
 62
4
 10
2.14582853E+02
 20
-1.93377172E+02
  0
VERTEX
  8
0
 62
4
 10
2.14873028E+02
 20
-1.93395772E+02
  0
VERTEX
  8
0
 62
4
 10
2.15171528E+02
 20
-1.93409851E+02
  0
VERTEX
  8
0
 62
4
 10
2.15476019E+02
 20
-1.93419298E+02
  0
VERTEX
  8
0
 62
4
 10
2.15784125E+02
 20
-1.93424040E+02
  0
VERTEX
  8
0
 62
4
 10
2.16093439E+02
 20
-1.93424040E+02
  0
VERTEX
  8
0
 62
4
 10
2.16401545E+02
 20
-1.93419298E+02
  0
VERTEX
  8
0
 62
4
 10
2.16706036E+02
 20
-1.93409851E+02
  0
VERTEX
  8
0
 62
4
 10
2.17004536E+02
 20
-1.93395772E+02
  0
VERTEX
  8
0
 62
4
 10
2.17294711E+02
 20
-1.93377172E+02
  0
VERTEX
  8
0
 62
4
 10
2.17574296E+02
 20
-1.93354196E+02
  0
VERTEX
  8
0
 62
4
 10
2.17841108E+02
 20
-1.93327023E+02
  0
VERTEX
  8
0
 62
4
 10
2.18093062E+02
 20
-1.93295866E+02
  0
VERTEX
  8
0
 62
4
 10
2.18328191E+02
 20
-1.93260967E+02
  0
VERTEX
  8
0
 62
4
 10
2.18544658E+02
 20
-1.93222601E+02
  0
VERTEX
  8
0
 62
4
 10
2.18740772E+02
 20
-1.93181065E+02
  0
VERTEX
  8
0
 62
4
 10
2.18915003E+02
 20
-1.93136685E+02
  0
VERTEX
  8
0
 62
4
 10
2.19065988E+02
 20
-1.93089807E+02
  0
VERTEX
  8
0
 62
4
 10
2.19192550E+02
 20
-1.93040797E+02
  0
VERTEX
  8
0
 62
4
 10
2.19293698E+02
 20
-1.92990038E+02
  0
VERTEX
  8
0
 62
4
 10
2.19368645E+02
 20
-1.92937927E+02
  0
VERTEX
  8
0
 62
4
 10
2.19416803E+02
 20
-1.92884870E+02
  0
VERTEX
  8
0
 62
4
 10
2.19437797E+02
 20
-1.92831282E+02
  0
VERTEX
  8
0
 62
4
 10
2.19431463E+02
 20
-1.92777582E+02
  0
SEQEND
  8
0
  0
POLYLINE
  8
0
 62
4
 66
1
  0
VERTEX
  8
0
 62
4
 10
2.19078782E+02
 20
-1.91832058E+02
  0
VERTEX
  8
0
 62
4
 10
2.19066833E+02
 20
-1.91784536E+02
  0
VERTEX
  8
0
 62
4
 10
2.19031078E+02
 20
-1.91737375E+02
  0
VERTEX
  8
0
 62
4
 10
2.18971789E+02
 20
-1.91690936E+02
  0
VERTEX
  8
0
 62
4
 10
2.18889417E+02
 20
-1.91645570E+02
  0
VERTEX
  8
0
 62
4
 10
2.18784588E+02
 20
-1.91601623E+02
  0
VERTEX
  8
0
 62
4
 10
2.18658102E+02
 20
-1.91559430E+02
  0
VERTEX
  8
0
 62
4
 10
2.18510919E+02
 20
-1.91519312E+02
  0
VERTEX
  8
0
 62
4
 10
2.18344162E+02
 20
-1.91481575E+02
  0
VERTEX
  8
0
 62
4
 10
2.18159097E+02
 20
-1.91446504E+02
  0
VERTEX
  8
0
 62
4
 10
2.17957135E+02
 20
-1.91414368E+02
  0
VERTEX
  8
0
 62
4
 10
2.17739812E+02
 20
-1.91385411E+02
  0
VERTEX
  8
0
 62
4
 10
2.17508782E+02
 20
-1.91359853E+02
  0
VERTEX
  8
0
 62
4
 10
2.17265803E+02
 20
-1.91337889E+02
  0
VERTEX
  8
0
 62
4
 10
2.17012725E+02
 20
-1.91319686E+02
  0
VERTEX
  8
0
 62
4
 10
2.16751474E+02
 20
-1.91305382E+02
  0
VERTEX
  8
0
 62
4
 10
2.16484037E+02
 20
-1.91295086E+02
  0
VERTEX
  8
0
 62
4
 10
2.16212451E+02
 20
-1.91288878E+02
  0
VERTEX
  8
0
 62
4
 10
2.15938782E+02
 20
-1.91286803E+02
  0
VERTEX
  8
0
 62
4
 10
2.15665113E+02
 20
-1.91288878E+02
  0
VERTEX
  8
0
 62
4
 10
2.15393527E+02
 20
-1.91295086E+02
  0
VERTEX
  8
0
 62
4
 10
2.15126090E+02
 20
-1.91305382E+02
  0
VERTEX
  8
0
 62
4
 10
2.14864839E+02
 20
-1.91319686E+02
  0
VERTEX
  8
0
 62
4
 10
2.14611761E+02
 20
-1.91337889E+02
  0
VERTEX
  8
0
 62
4
 10
2.14368782E+02
 20
-1.91359853E+02
  0
VERTEX
  8
0
 62
4
 10
2.14137752E+02
 20
-1.91385411E+02
  0
VERTEX
  8
0
 62
4
 10
2.13920429E+02
 20
-1.91414368E+02
  0
VERTEX
  8
0
 62
4
 10
2.13718467E+02
 20
-1.91446504E+02
  0
VERTEX
  8
0
 62
4
 10
2.13533402E+02
 20
-1.91481575E+02
  0
VERTEX
  8
0
 62
4
 10
2.13366645E+02
 20
-1.91519312E+02
  0
VERTEX
  8
0
 62
4
 10
2.13219462E+02
 20
-1.91559430E+02
  0
VERTEX
  8
0
 62
4
 10
2.13092976E+02
 20
-1.91601623E+02
  0
VERTEX
  8
0
 62
4
 10
2.12988147E+02
 20
-1.91645570E+02
  0
VERTEX
  8
0
 62
4
 10
2.12905775E+02
 20
-1.91690936E+02
  0
VERTEX
  8
0
 62
4
 10
2.12846486E+02
 20
-1.91737375E+02
  0
VERTEX
  8
0
 62
4
 10
2.12810731E+02
 20
-1.91784536E+02
  0
VERTEX
  8
0
 62
4
 10
2.12798782E+02
 20
-1.91832058E+02
  0
VERTEX
  8
0
 62
4
 10
2.12810731E+02
 20
-1.91879580E+02
  0
VERTEX
  8
0
 62
4
 10
2.12846486E+02
 20
-1.91926741E+02
  0
VERTEX
  8
0
 62
4
 10
2.12905775E+02
 20
-1.91973180E+02
  0
VERTEX
  8
0
 62
4
 10
2.12988147E+02
 20
-1.92018546E+02
  0
VERTEX
  8
0
 62
4
 10
2.13092976E+02
 20
-1.92062493E+02
  0
VERTEX
  8
0
 62
4
 10
2.13219462E+02
 20
-1.92104686E+02
  0
VERTEX
  8
0
 62
4
 10
2.13366645E+02
 20
-1.92144804E+02
  0
VERTEX
  8
0
 62
4
 10
2.13533402E+02
 20
-1.92182541E+02
  0
VERTEX
  8
0
 62
4
 10
2.13718467E+02
 20
-1.92217612E+02
  0
VERTEX
  8
0
 62
4
 10
2.13920429E+02
 20
-1.92249748E+02
  0
VERTEX
  8
0
 62
4
 10
2.14137752E+02
 20
-1.92278705E+02
  0
VERTEX
  8
0
 62
4
 10
2.14368782E+02
 20
-1.92304263E+02
  0
VERTEX
  8
0
 62
4
 10
2.14611761E+02
 20
-1.92326227E+02
  0
VERTEX
  8
0
 62
4
 10
2.14864839E+02
 20
-1.92344430E+02
  0
VERTEX
  8
0
 62
4
 10
2.15126090E+02
 20
-1.92358734E+02
  0
VERTEX
  8
0
 62
4
 10
2.15393527E+02
 20
-1.92369030E+02
  0
VERTEX
  8
0
 62
4
 10
2.15665113E+02
 20
-1.92375238E+02
  0
VERTEX
  8
0
 62
4
 10
2.15938782E+02
 20
-1.92377313E+02
  0
VERTEX
  8
0
 62
4
 10
2.16212451E+02
 20
-1.92375238E+02
  0
VERTEX
  8
0
 62
4
 10
2.16484037E+02
 20
-1.92369030E+02
  0
VERTEX
  8
0
 62
4
 10
2.16751474E+02
 20
-1.92358734E+02
  0
VERTEX
  8
0
 62
4
 10
2.17012725E+02
 20
-1.92344430E+02
  0
VERTEX
  8
0
 62
4
 10
2.17265803E+02
 20
-1.92326227E+02
  0
VERTEX
  8
0
 62
4
 10
2.17508782E+02
 20
-1.92304263E+02
  0
VERTEX
  8
0
 62
4
 10
2.17739812E+02
 20
-1.92278705E+02
  0
VERTEX
  8
0
 62
4
 10
2.17957135E+02
 20
-1.92249748E+02
  0
VERTEX
  8
0
 62
4
 10
2.18159097E+02
 20
-1.92217612E+02
  0
VERTEX
  8
0
 62
4
 10
2.18344162E+02
 20
-1.92182541E+02
  0
VERTEX
  8
0
 62
4
 10
2.18510919E+02
 20
-1.92144804E+02
  0
VERTEX
  8
0
 62
4
 10
2.18658102E+02
 20
-1.92104686E+02
  0
VERTEX
  8
0
 62
4
 10
2.18784588E+02
 20
-1.92062493E+02
  0
VERTEX
  8
0
 62
4
 10
2.18889417E+02
 20
-1.92018546E+02
  0
VERTEX
  8
0
 62
4
 10
2.18971789E+02
 20
-1.91973180E+02
  0
VERTEX
  8
0
 62
4
 10
2.19031078E+02
 20
-1.91926741E+02
  0
VERTEX
  8
0
 62
4
 10
2.19066833E+02
 20
-1.91879580E+02
  0
VERTEX
  8
0
 62
4
 10
2.19078782E+02
 20
-1.91832058E+02
  0
SEQEND
  8
0
  0
LINE
  8
0
  6
CENTER
 62
6
 10
2.15938782E+02
 20
-1.89677926E+02
 11
2.15938782E+02
 21
-1.91832058E+02
  0
LINE
  8
0
 62
4
 10
2.58938782E+02
 20
-1.62780229E+02
 11
2.53938782E+02
 21
-1.62780229E+02
  0
LINE
  8
0
 62
4
 10
2.42438782E+02
 20
-1.93914042E+02
 11
2.42438782E+02
 21
-1.91809944E+02
  0
LINE
  8
0
 62
4
 10
2.06438782E+02
 20
-1.93914042E+02
 11
2.06438782E+02
 21
-1.91809944E+02
  0
LINE
  8
0
 62
4
 10
2.22438782E+02
 20
-1.91129071E+02
 11
2.06438782E+02
 21
-1.91129071E+02
  0
ARC
  8
0
 62
4
 10
2.42439282E+02
 20
-1.92628571E+02
 40
1.49950029E+00
 50
3.59980903E+02
 51
9.00190969E+01
  0
LINE
  8
0
 62
4
 10
2.42438782E+02
 20
-1.91129071E+02
 11
2.41438782E+02
 21
-1.91129071E+02
  0
ARC
  8
0
 62
4
 10
2.06438282E+02
 20
-1.92628571E+02
 40
1.49950029E+00
 50
8.99809029E+01
 51
1.80019097E+02
  0
POLYLINE
  8
0
 62
4
 66
1
  0
VERTEX
  8
0
 62
4
 10
2.37938782E+02
 20
-2.20236108E+02
  0
VERTEX
  8
0
 62
4
 10
2.37930922E+02
 20
-2.20062092E+02
  0
VERTEX
  8
0
 62
4
 10
2.37907402E+02
 20
-2.19889444E+02
  0
VERTEX
  8
0
 62
4
 10
2.37868409E+02
 20
-2.19719521E+02
  0
VERTEX
  8
0
 62
4
 10
2.37814248E+02
 20
-2.19553658E+02
  0
VERTEX
  8
0
 62
4
 10
2.37745345E+02
 20
-2.19393160E+02
  0
VERTEX
  8
0
 62
4
 10
2.37662242E+02
 20
-2.19239288E+02
  0
VERTEX
  8
0
 62
4
 10
2.37565592E+02
 20
-2.19093251E+02
  0
VERTEX
  8
0
 62
4
 10
2.37456154E+02
 20
-2.18956197E+02
  0
VERTEX
  8
0
 62
4
 10
2.37334790E+02
 20
-2.18829204E+02
  0
VERTEX
  8
0
 62
4
 10
2.37202452E+02
 20
-2.18713270E+02
  0
VERTEX
  8
0
 62
4
 10
2.37060181E+02
 20
-2.18609306E+02
  0
VERTEX
  8
0
 62
4
 10
2.36909096E+02
 20
-2.18518129E+02
  0
VERTEX
  8
0
 62
4
 10
2.36750384E+02
 20
-2.18440456E+02
  0
VERTEX
  8
0
 62
4
 10
2.36585292E+02
 20
-2.18376897E+02
  0
VERTEX
  8
0
 62
4
 10
2.36415118E+02
 20
-2.18327953E+02
  0
VERTEX
  8
0
 62
4
 10
2.36241200E+02
 20
-2.18294007E+02
  0
VERTEX
  8
0
 62
4
 10
2.36064905E+02
 20
-2.18275327E+02
  0
VERTEX
  8
0
 62
4
 10
2.35887619E+02
 20
-2.18272059E+02
  0
VERTEX
  8
0
 62
4
 10
2.35710735E+02
 20
-2.18284230E+02
  0
VERTEX
  8
0
 62
4
 10
2.35535643E+02
 20
-2.18311743E+02
  0
VERTEX
  8
0
 62
4
 10
2.35363721E+02
 20
-2.18354383E+02
  0
VERTEX
  8
0
 62
4
 10
2.35196318E+02
 20
-2.18411813E+02
  0
VERTEX
  8
0
 62
4
 10
2.35034752E+02
 20
-2.18483583E+02
  0
VERTEX
  8
0
 62
4
 10
2.34880291E+02
 20
-2.18569129E+02
  0
VERTEX
  8
0
 62
4
 10
2.34734151E+02
 20
-2.18667777E+02
  0
VERTEX
  8
0
 62
4
 10
2.34597479E+02
 20
-2.18778754E+02
  0
VERTEX
  8
0
 62
4
 10
2.34471351E+02
 20
-2.18901185E+02
  0
VERTEX
  8
0
 62
4
 10
2.34356757E+02
 20
-2.19034110E+02
  0
VERTEX
  8
0
 62
4
 10
2.34254598E+02
 20
-2.19176483E+02
  0
VERTEX
  8
0
 62
4
 10
2.34165678E+02
 20
-2.19327185E+02
  0
VERTEX
  8
0
 62
4
 10
2.34090695E+02
 20
-2.19485031E+02
  0
VERTEX
  8
0
 62
4
 10
2.34030239E+02
 20
-2.19648781E+02
  0
VERTEX
  8
0
 62
4
 10
2.33984784E+02
 20
-2.19817148E+02
  0
VERTEX
  8
0
 62
4
 10
2.33954689E+02
 20
-2.19988807E+02
  0
VERTEX
  8
0
 62
4
 10
2.33940190E+02
 20
-2.20162411E+02
  0
VERTEX
  8
0
 62
4
 10
2.33941400E+02
 20
-2.20336594E+02
  0
SEQEND
  8
0
  0
POLYLINE
  8
0
 62
4
 66
1
  0
VERTEX
  8
0
 62
4
 10
2.37673782E+02
 20
-2.20610729E+02
  0
VERTEX
  8
0
 62
4
 10
2.37667180E+02
 20
-2.20461811E+02
  0
VERTEX
  8
0
 62
4
 10
2.37647423E+02
 20
-2.20314027E+02
  0
VERTEX
  8
0
 62
4
 10
2.37614663E+02
 20
-2.20168500E+02
  0
VERTEX
  8
0
 62
4
 10
2.37569149E+02
 20
-2.20026339E+02
  0
VERTEX
  8
0
 62
4
 10
2.37511226E+02
 20
-2.19888626E+02
  0
VERTEX
  8
0
 62
4
 10
2.37441336E+02
 20
-2.19756408E+02
  0
VERTEX
  8
0
 62
4
 10
2.37360011E+02
 20
-2.19630693E+02
  0
VERTEX
  8
0
 62
4
 10
2.37267869E+02
 20
-2.19512435E+02
  0
VERTEX
  8
0
 62
4
 10
2.37165612E+02
 20
-2.19402537E+02
  0
VERTEX
  8
0
 62
4
 10
2.37054019E+02
 20
-2.19301834E+02
  0
VERTEX
  8
0
 62
4
 10
2.36933937E+02
 20
-2.19211092E+02
  0
VERTEX
  8
0
 62
4
 10
2.36806282E+02
 20
-2.19131002E+02
  0
VERTEX
  8
0
 62
4
 10
2.36672025E+02
 20
-2.19062174E+02
  0
VERTEX
  8
0
 62
4
 10
2.36532187E+02
 20
-2.19005131E+02
  0
VERTEX
  8
0
 62
4
 10
2.36387833E+02
 20
-2.18960308E+02
  0
VERTEX
  8
0
 62
4
 10
2.36240062E+02
 20
-2.18928046E+02
  0
VERTEX
  8
0
 62
4
 10
2.36089997E+02
 20
-2.18908589E+02
  0
VERTEX
  8
0
 62
4
 10
2.35938782E+02
 20
-2.18902088E+02
  0
VERTEX
  8
0
 62
4
 10
2.35787567E+02
 20
-2.18908589E+02
  0
VERTEX
  8
0
 62
4
 10
2.35637502E+02
 20
-2.18928046E+02
  0
VERTEX
  8
0
 62
4
 10
2.35489731E+02
 20
-2.18960308E+02
  0
VERTEX
  8
0
 62
4
 10
2.35345377E+02
 20
-2.19005131E+02
  0
VERTEX
  8
0
 62
4
 10
2.35205539E+02
 20
-2.19062174E+02
  0
VERTEX
  8
0
 62
4
 10
2.35071282E+02
 20
-2.19131002E+02
  0
VERTEX
  8
0
 62
4
 10
2.34943627E+02
 20
-2.19211092E+02
  0
VERTEX
  8
0
 62
4
 10
2.34823545E+02
 20
-2.19301834E+02
  0
VERTEX
  8
0
 62
4
 10
2.34711952E+02
 20
-2.19402537E+02
  0
VERTEX
  8
0
 62
4
 10
2.34609695E+02
 20
-2.19512435E+02
  0
VERTEX
  8
0
 62
4
 10
2.34517553E+02
 20
-2.19630693E+02
  0
VERTEX
  8
0
 62
4
 10
2.34436228E+02
 20
-2.19756408E+02
  0
VERTEX
  8
0
 62
4
 10
2.34366338E+02
 20
-2.19888626E+02
  0
VERTEX
  8
0
 62
4
 10
2.34308415E+02
 20
-2.20026339E+02
  0
VERTEX
  8
0
 62
4
 10
2.34262901E+02
 20
-2.20168500E+02
  0
VERTEX
  8
0
 62
4
 10
2.34230141E+02
 20
-2.20314027E+02
  0
VERTEX
  8
0
 62
4
 10
2.34210384E+02
 20
-2.20461811E+02
  0
VERTEX
  8
0
 62
4
 10
2.34203782E+02
 20
-2.20610729E+02
  0
VERTEX
  8
0
 62
4
 10
2.34210384E+02
 20
-2.20759647E+02
  0
VERTEX
  8
0
 62
4
 10
2.34230141E+02
 20
-2.20907431E+02
  0
VERTEX
  8
0
 62
4
 10
2.34262901E+02
 20
-2.21052958E+02
  0
VERTEX
  8
0
 62
4
 10
2.34308415E+02
 20
-2.21195119E+02
  0
VERTEX
  8
0
 62
4
 10
2.34366338E+02
 20
-2.21332832E+02
  0
VERTEX
  8
0
 62
4
 10
2.34436228E+02
 20
-2.21465050E+02
  0
VERTEX
  8
0
 62
4
 10
2.34517553E+02
 20
-2.21590765E+02
  0
VERTEX
  8
0
 62
4
 10
2.34609695E+02
 20
-2.21709023E+02
  0
VERTEX
  8
0
 62
4
 10
2.34711952E+02
 20
-2.21818921E+02
  0
VERTEX
  8
0
 62
4
 10
2.34823545E+02
 20
-2.21919624E+02
  0
VERTEX
  8
0
 62
4
 10
2.34943627E+02
 20
-2.22010366E+02
  0
VERTEX
  8
0
 62
4
 10
2.35071282E+02
 20
-2.22090456E+02
  0
VERTEX
  8
0
 62
4
 10
2.35205539E+02
 20
-2.22159284E+02
  0
VERTEX
  8
0
 62
4
 10
2.35345377E+02
 20
-2.22216327E+02
  0
VERTEX
  8
0
 62
4
 10
2.35489731E+02
 20
-2.22261150E+02
  0
VERTEX
  8
0
 62
4
 10
2.35637502E+02
 20
-2.22293412E+02
  0
VERTEX
  8
0
 62
4
 10
2.35787567E+02
 20
-2.22312869E+02
  0
VERTEX
  8
0
 62
4
 10
2.35938782E+02
 20
-2.22319370E+02
  0
VERTEX
  8
0
 62
4
 10
2.36089997E+02
 20
-2.22312869E+02
  0
VERTEX
  8
0
 62
4
 10
2.36240062E+02
 20
-2.22293412E+02
  0
VERTEX
  8
0
 62
4
 10
2.36387833E+02
 20
-2.22261150E+02
  0
VERTEX
  8
0
 62
4
 10
2.36532187E+02
 20
-2.22216327E+02
  0
VERTEX
  8
0
 62
4
 10
2.36672025E+02
 20
-2.22159284E+02
  0
VERTEX
  8
0
 62
4
 10
2.36806282E+02
 20
-2.22090456E+02
  0
VERTEX
  8
0
 62
4
 10
2.36933937E+02
 20
-2.22010366E+02
  0
VERTEX
  8
0
 62
4
 10
2.37054019E+02
 20
-2.21919624E+02
  0
VERTEX
  8
0
 62
4
 10
2.37165612E+02
 20
-2.21818921E+02
  0
VERTEX
  8
0
 62
4
 10
2.37267869E+02
 20
-2.21709023E+02
  0
VERTEX
  8
0
 62
4
 10
2.37360011E+02
 20
-2.21590765E+02
  0
VERTEX
  8
0
 62
4
 10
2.37441336E+02
 20
-2.21465050E+02
  0
VERTEX
  8
0
 62
4
 10
2.37511226E+02
 20
-2.21332832E+02
  0
VERTEX
  8
0
 62
4
 10
2.37569149E+02
 20
-2.21195119E+02
  0
VERTEX
  8
0
 62
4
 10
2.37614663E+02
 20
-2.21052958E+02
  0
VERTEX
  8
0
 62
4
 10
2.37647423E+02
 20
-2.20907431E+02
  0
VERTEX
  8
0
 62
4
 10
2.37667180E+02
 20
-2.20759647E+02
  0
VERTEX
  8
0
 62
4
 10
2.37673782E+02
 20
-2.20610729E+02
  0
SEQEND
  8
0
  0
POLYLINE
  8
0
 62
4
 66
1
  0
VERTEX
  8
0
 62
4
 10
2.37938782E+02
 20
-2.20437081E+02
  0
VERTEX
  8
0
 62
4
 10
2.37931171E+02
 20
-2.20265847E+02
  0
VERTEX
  8
0
 62
4
 10
2.37908398E+02
 20
-2.20095916E+02
  0
VERTEX
  8
0
 62
4
 10
2.37870634E+02
 20
-2.19928581E+02
  0
VERTEX
  8
0
 62
4
 10
2.37818167E+02
 20
-2.19765117E+02
  0
VERTEX
  8
0
 62
4
 10
2.37751398E+02
 20
-2.19606767E+02
  0
VERTEX
  8
0
 62
4
 10
2.37670833E+02
 20
-2.19454735E+02
  0
VERTEX
  8
0
 62
4
 10
2.37577086E+02
 20
-2.19310180E+02
  0
VERTEX
  8
0
 62
4
 10
2.37470871E+02
 20
-2.19174202E+02
  0
VERTEX
  8
0
 62
4
 10
2.37352996E+02
 20
-2.19047834E+02
  0
VERTEX
  8
0
 62
4
 10
2.37224357E+02
 20
-2.18932040E+02
  0
VERTEX
  8
0
 62
4
 10
2.37085935E+02
 20
-2.18827700E+02
  0
VERTEX
  8
0
 62
4
 10
2.36938782E+02
 20
-2.18735608E+02
  0
VERTEX
  8
0
 62
4
 10
2.36784019E+02
 20
-2.18656466E+02
  0
VERTEX
  8
0
 62
4
 10
2.36622822E+02
 20
-2.18590875E+02
  0
VERTEX
  8
0
 62
4
 10
2.36456420E+02
 20
-2.18539335E+02
  0
VERTEX
  8
0
 62
4
 10
2.36286078E+02
 20
-2.18502238E+02
  0
VERTEX
  8
0
 62
4
 10
2.36113093E+02
 20
-2.18479866E+02
  0
VERTEX
  8
0
 62
4
 10
2.35938782E+02
 20
-2.18472390E+02
  0
VERTEX
  8
0
 62
4
 10
2.35764471E+02
 20
-2.18479866E+02
  0
VERTEX
  8
0
 62
4
 10
2.35591486E+02
 20
-2.18502238E+02
  0
VERTEX
  8
0
 62
4
 10
2.35421144E+02
 20
-2.18539335E+02
  0
VERTEX
  8
0
 62
4
 10
2.35254742E+02
 20
-2.18590875E+02
  0
VERTEX
  8
0
 62
4
 10
2.35093545E+02
 20
-2.18656466E+02
  0
VERTEX
  8
0
 62
4
 10
2.34938782E+02
 20
-2.18735608E+02
  0
VERTEX
  8
0
 62
4
 10
2.34791629E+02
 20
-2.18827700E+02
  0
VERTEX
  8
0
 62
4
 10
2.34653207E+02
 20
-2.18932040E+02
  0
VERTEX
  8
0
 62
4
 10
2.34524568E+02
 20
-2.19047834E+02
  0
VERTEX
  8
0
 62
4
 10
2.34406693E+02
 20
-2.19174202E+02
  0
VERTEX
  8
0
 62
4
 10
2.34300478E+02
 20
-2.19310180E+02
  0
VERTEX
  8
0
 62
4
 10
2.34206731E+02
 20
-2.19454735E+02
  0
VERTEX
  8
0
 62
4
 10
2.34126166E+02
 20
-2.19606767E+02
  0
VERTEX
  8
0
 62
4
 10
2.34059397E+02
 20
-2.19765117E+02
  0
VERTEX
  8
0
 62
4
 10
2.34006930E+02
 20
-2.19928581E+02
  0
VERTEX
  8
0
 62
4
 10
2.33969166E+02
 20
-2.20095916E+02
  0
VERTEX
  8
0
 62
4
 10
2.33946393E+02
 20
-2.20265847E+02
  0
VERTEX
  8
0
 62
4
 10
2.33938782E+02
 20
-2.20437081E+02
  0
VERTEX
  8
0
 62
4
 10
2.33946393E+02
 20
-2.20608315E+02
  0
VERTEX
  8
0
 62
4
 10
2.33969166E+02
 20
-2.20778246E+02
  0
VERTEX
  8
0
 62
4
 10
2.34006930E+02
 20
-2.20945581E+02
  0
VERTEX
  8
0
 62
4
 10
2.34059397E+02
 20
-2.21109045E+02
  0
VERTEX
  8
0
 62
4
 10
2.34126166E+02
 20
-2.21267395E+02
  0
VERTEX
  8
0
 62
4
 10
2.34206731E+02
 20
-2.21419427E+02
  0
VERTEX
  8
0
 62
4
 10
2.34300478E+02
 20
-2.21563982E+02
  0
VERTEX
  8
0
 62
4
 10
2.34406693E+02
 20
-2.21699960E+02
  0
VERTEX
  8
0
 62
4
 10
2.34524568E+02
 20
-2.21826328E+02
  0
VERTEX
  8
0
 62
4
 10
2.34653207E+02
 20
-2.21942122E+02
  0
VERTEX
  8
0
 62
4
 10
2.34791629E+02
 20
-2.22046462E+02
  0
VERTEX
  8
0
 62
4
 10
2.34938782E+02
 20
-2.22138554E+02
  0
VERTEX
  8
0
 62
4
 10
2.35093545E+02
 20
-2.22217696E+02
  0
VERTEX
  8
0
 62
4
 10
2.35254742E+02
 20
-2.22283287E+02
  0
VERTEX
  8
0
 62
4
 10
2.35421144E+02
 20
-2.22334827E+02
  0
VERTEX
  8
0
 62
4
 10
2.35591486E+02
 20
-2.22371924E+02
  0
VERTEX
  8
0
 62
4
 10
2.35764471E+02
 20
-2.22394296E+02
  0
VERTEX
  8
0
 62
4
 10
2.35938782E+02
 20
-2.22401772E+02
  0
VERTEX
  8
0
 62
4
 10
2.36113093E+02
 20
-2.22394296E+02
  0
VERTEX
  8
0
 62
4
 10
2.36286078E+02
 20
-2.22371924E+02
  0
VERTEX
  8
0
 62
4
 10
2.36456420E+02
 20
-2.22334827E+02
  0
VERTEX
  8
0
 62
4
 10
2.36622822E+02
 20
-2.22283287E+02
  0
VERTEX
  8
0
 62
4
 10
2.36784019E+02
 20
-2.22217696E+02
  0
VERTEX
  8
0
 62
4
 10
2.36938782E+02
 20
-2.22138554E+02
  0
VERTEX
  8
0
 62
4
 10
2.37085935E+02
 20
-2.22046462E+02
  0
VERTEX
  8
0
 62
4
 10
2.37224357E+02
 20
-2.21942122E+02
  0
VERTEX
  8
0
 62
4
 10
2.37352996E+02
 20
-2.21826328E+02
  0
VERTEX
  8
0
 62
4
 10
2.37470871E+02
 20
-2.21699960E+02
  0
VERTEX
  8
0
 62
4
 10
2.37577086E+02
 20
-2.21563982E+02
  0
VERTEX
  8
0
 62
4
 10
2.37670833E+02
 20
-2.21419427E+02
  0
VERTEX
  8
0
 62
4
 10
2.37751398E+02
 20
-2.21267395E+02
  0
VERTEX
  8
0
 62
4
 10
2.37818167E+02
 20
-2.21109045E+02
  0
VERTEX
  8
0
 62
4
 10
2.37870634E+02
 20
-2.20945581E+02
  0
VERTEX
  8
0
 62
4
 10
2.37908398E+02
 20
-2.20778246E+02
  0
VERTEX
  8
0
 62
4
 10
2.37931171E+02
 20
-2.20608315E+02
  0
VERTEX
  8
0
 62
4
 10
2.37938782E+02
 20
-2.20437081E+02
  0
SEQEND
  8
0
  0
POLYLINE
  8
0
 62
6
 66
1
  0
VERTEX
  8
0
 62
6
 10
2.37438782E+02
 20
-2.20605805E+02
  0
VERTEX
  8
0
 62
6
 10
2.37433074E+02
 20
-2.20477058E+02
  0
VERTEX
  8
0
 62
6
 10
2.37415994E+02
 20
-2.20349290E+02
  0
VERTEX
  8
0
 62
6
 10
2.37387671E+02
 20
-2.20223474E+02
  0
VERTEX
  8
0
 62
6
 10
2.37348321E+02
 20
-2.20100569E+02
  0
VERTEX
  8
0
 62
6
 10
2.37298244E+02
 20
-2.19981508E+02
  0
VERTEX
  8
0
 62
6
 10
2.37237820E+02
 20
-2.19867199E+02
  0
VERTEX
  8
0
 62
6
 10
2.37167510E+02
 20
-2.19758511E+02
  0
VERTEX
  8
0
 62
6
 10
2.37087849E+02
 20
-2.19656272E+02
  0
VERTEX
  8
0
 62
6
 10
2.36999442E+02
 20
-2.19561259E+02
  0
VERTEX
  8
0
 62
6
 10
2.36902963E+02
 20
-2.19474195E+02
  0
VERTEX
  8
0
 62
6
 10
2.36799147E+02
 20
-2.19395744E+02
  0
VERTEX
  8
0
 62
6
 10
2.36688782E+02
 20
-2.19326502E+02
  0
VERTEX
  8
0
 62
6
 10
2.36572709E+02
 20
-2.19266997E+02
  0
VERTEX
  8
0
 62
6
 10
2.36451812E+02
 20
-2.19217680E+02
  0
VERTEX
  8
0
 62
6
 10
2.36327011E+02
 20
-2.19178928E+02
  0
VERTEX
  8
0
 62
6
 10
2.36199254E+02
 20
-2.19151036E+02
  0
VERTEX
  8
0
 62
6
 10
2.36069516E+02
 20
-2.19134215E+02
  0
VERTEX
  8
0
 62
6
 10
2.35938782E+02
 20
-2.19128593E+02
  0
VERTEX
  8
0
 62
6
 10
2.35808048E+02
 20
-2.19134215E+02
  0
VERTEX
  8
0
 62
6
 10
2.35678310E+02
 20
-2.19151036E+02
  0
VERTEX
  8
0
 62
6
 10
2.35550553E+02
 20
-2.19178928E+02
  0
VERTEX
  8
0
 62
6
 10
2.35425752E+02
 20
-2.19217680E+02
  0
VERTEX
  8
0
 62
6
 10
2.35304855E+02
 20
-2.19266997E+02
  0
VERTEX
  8
0
 62
6
 10
2.35188782E+02
 20
-2.19326502E+02
  0
VERTEX
  8
0
 62
6
 10
2.35078417E+02
 20
-2.19395744E+02
  0
VERTEX
  8
0
 62
6
 10
2.34974601E+02
 20
-2.19474195E+02
  0
VERTEX
  8
0
 62
6
 10
2.34878122E+02
 20
-2.19561259E+02
  0
VERTEX
  8
0
 62
6
 10
2.34789715E+02
 20
-2.19656272E+02
  0
VERTEX
  8
0
 62
6
 10
2.34710054E+02
 20
-2.19758511E+02
  0
VERTEX
  8
0
 62
6
 10
2.34639744E+02
 20
-2.19867199E+02
  0
VERTEX
  8
0
 62
6
 10
2.34579320E+02
 20
-2.19981508E+02
  0
VERTEX
  8
0
 62
6
 10
2.34529243E+02
 20
-2.20100569E+02
  0
VERTEX
  8
0
 62
6
 10
2.34489893E+02
 20
-2.20223474E+02
  0
VERTEX
  8
0
 62
6
 10
2.34461570E+02
 20
-2.20349290E+02
  0
VERTEX
  8
0
 62
6
 10
2.34444490E+02
 20
-2.20477058E+02
  0
VERTEX
  8
0
 62
6
 10
2.34438782E+02
 20
-2.20605805E+02
  0
VERTEX
  8
0
 62
6
 10
2.34444490E+02
 20
-2.20734552E+02
  0
VERTEX
  8
0
 62
6
 10
2.34461570E+02
 20
-2.20862320E+02
  0
VERTEX
  8
0
 62
6
 10
2.34489893E+02
 20
-2.20988136E+02
  0
VERTEX
  8
0
 62
6
 10
2.34529243E+02
 20
-2.21111041E+02
  0
VERTEX
  8
0
 62
6
 10
2.34579320E+02
 20
-2.21230102E+02
  0
VERTEX
  8
0
 62
6
 10
2.34639744E+02
 20
-2.21344411E+02
  0
VERTEX
  8
0
 62
6
 10
2.34710054E+02
 20
-2.21453099E+02
  0
VERTEX
  8
0
 62
6
 10
2.34789715E+02
 20
-2.21555338E+02
  0
VERTEX
  8
0
 62
6
 10
2.34878122E+02
 20
-2.21650351E+02
  0
VERTEX
  8
0
 62
6
 10
2.34974601E+02
 20
-2.21737415E+02
  0
VERTEX
  8
0
 62
6
 10
2.35078417E+02
 20
-2.21815866E+02
  0
VERTEX
  8
0
 62
6
 10
2.35188782E+02
 20
-2.21885108E+02
  0
VERTEX
  8
0
 62
6
 10
2.35304855E+02
 20
-2.21944613E+02
  0
VERTEX
  8
0
 62
6
 10
2.35425752E+02
 20
-2.21993930E+02
  0
VERTEX
  8
0
 62
6
 10
2.35550553E+02
 20
-2.22032682E+02
  0
VERTEX
  8
0
 62
6
 10
2.35678310E+02
 20
-2.22060574E+02
  0
VERTEX
  8
0
 62
6
 10
2.35808048E+02
 20
-2.22077395E+02
  0
VERTEX
  8
0
 62
6
 10
2.35938782E+02
 20
-2.22083017E+02
  0
VERTEX
  8
0
 62
6
 10
2.36069516E+02
 20
-2.22077395E+02
  0
VERTEX
  8
0
 62
6
 10
2.36199254E+02
 20
-2.22060574E+02
  0
VERTEX
  8
0
 62
6
 10
2.36327011E+02
 20
-2.22032682E+02
  0
VERTEX
  8
0
 62
6
 10
2.36451812E+02
 20
-2.21993930E+02
  0
VERTEX
  8
0
 62
6
 10
2.36572709E+02
 20
-2.21944613E+02
  0
VERTEX
  8
0
 62
6
 10
2.36688782E+02
 20
-2.21885108E+02
  0
VERTEX
  8
0
 62
6
 10
2.36799147E+02
 20
-2.21815866E+02
  0
VERTEX
  8
0
 62
6
 10
2.36902963E+02
 20
-2.21737415E+02
  0
VERTEX
  8
0
 62
6
 10
2.36999442E+02
 20
-2.21650351E+02
  0
VERTEX
  8
0
 62
6
 10
2.37087849E+02
 20
-2.21555338E+02
  0
VERTEX
  8
0
 62
6
 10
2.37167510E+02
 20
-2.21453099E+02
  0
VERTEX
  8
0
 62
6
 10
2.37237820E+02
 20
-2.21344411E+02
  0
VERTEX
  8
0
 62
6
 10
2.37298244E+02
 20
-2.21230102E+02
  0
VERTEX
  8
0
 62
6
 10
2.37348321E+02
 20
-2.21111041E+02
  0
VERTEX
  8
0
 62
6
 10
2.37387671E+02
 20
-2.20988135E+02
  0
VERTEX
  8
0
 62
6
 10
2.37415994E+02
 20
-2.20862320E+02
  0
VERTEX
  8
0
 62
6
 10
2.37433074E+02
 20
-2.20734552E+02
  0
VERTEX
  8
0
 62
6
 10
2.37438782E+02
 20
-2.20605805E+02
  0
SEQEND
  8
0
  0
POLYLINE
  8
0
 62
4
 66
1
  0
VERTEX
  8
0
 62
4
 10
2.29938782E+02
 20
-2.20236108E+02
  0
VERTEX
  8
0
 62
4
 10
2.29930922E+02
 20
-2.20062092E+02
  0
VERTEX
  8
0
 62
4
 10
2.29907402E+02
 20
-2.19889444E+02
  0
VERTEX
  8
0
 62
4
 10
2.29868409E+02
 20
-2.19719521E+02
  0
VERTEX
  8
0
 62
4
 10
2.29814248E+02
 20
-2.19553658E+02
  0
VERTEX
  8
0
 62
4
 10
2.29745345E+02
 20
-2.19393160E+02
  0
VERTEX
  8
0
 62
4
 10
2.29662242E+02
 20
-2.19239288E+02
  0
VERTEX
  8
0
 62
4
 10
2.29565592E+02
 20
-2.19093251E+02
  0
VERTEX
  8
0
 62
4
 10
2.29456154E+02
 20
-2.18956197E+02
  0
VERTEX
  8
0
 62
4
 10
2.29334790E+02
 20
-2.18829204E+02
  0
VERTEX
  8
0
 62
4
 10
2.29202452E+02
 20
-2.18713270E+02
  0
VERTEX
  8
0
 62
4
 10
2.29060181E+02
 20
-2.18609306E+02
  0
VERTEX
  8
0
 62
4
 10
2.28909096E+02
 20
-2.18518129E+02
  0
VERTEX
  8
0
 62
4
 10
2.28750384E+02
 20
-2.18440456E+02
  0
VERTEX
  8
0
 62
4
 10
2.28585292E+02
 20
-2.18376897E+02
  0
VERTEX
  8
0
 62
4
 10
2.28415118E+02
 20
-2.18327953E+02
  0
VERTEX
  8
0
 62
4
 10
2.28241200E+02
 20
-2.18294007E+02
  0
VERTEX
  8
0
 62
4
 10
2.28064905E+02
 20
-2.18275327E+02
  0
VERTEX
  8
0
 62
4
 10
2.27887619E+02
 20
-2.18272059E+02
  0
VERTEX
  8
0
 62
4
 10
2.27710735E+02
 20
-2.18284230E+02
  0
VERTEX
  8
0
 62
4
 10
2.27535643E+02
 20
-2.18311743E+02
  0
VERTEX
  8
0
 62
4
 10
2.27363721E+02
 20
-2.18354383E+02
  0
VERTEX
  8
0
 62
4
 10
2.27196318E+02
 20
-2.18411813E+02
  0
VERTEX
  8
0
 62
4
 10
2.27034752E+02
 20
-2.18483583E+02
  0
VERTEX
  8
0
 62
4
 10
2.26880291E+02
 20
-2.18569129E+02
  0
VERTEX
  8
0
 62
4
 10
2.26734151E+02
 20
-2.18667777E+02
  0
VERTEX
  8
0
 62
4
 10
2.26597479E+02
 20
-2.18778754E+02
  0
VERTEX
  8
0
 62
4
 10
2.26471351E+02
 20
-2.18901185E+02
  0
VERTEX
  8
0
 62
4
 10
2.26356757E+02
 20
-2.19034110E+02
  0
VERTEX
  8
0
 62
4
 10
2.26254598E+02
 20
-2.19176483E+02
  0
VERTEX
  8
0
 62
4
 10
2.26165678E+02
 20
-2.19327185E+02
  0
VERTEX
  8
0
 62
4
 10
2.26090695E+02
 20
-2.19485031E+02
  0
VERTEX
  8
0
 62
4
 10
2.26030239E+02
 20
-2.19648781E+02
  0
VERTEX
  8
0
 62
4
 10
2.25984784E+02
 20
-2.19817148E+02
  0
VERTEX
  8
0
 62
4
 10
2.25954689E+02
 20
-2.19988807E+02
  0
VERTEX
  8
0
 62
4
 10
2.25940190E+02
 20
-2.20162411E+02
  0
VERTEX
  8
0
 62
4
 10
2.25941400E+02
 20
-2.20336594E+02
  0
SEQEND
  8
0
  0
POLYLINE
  8
0
 62
4
 66
1
  0
VERTEX
  8
0
 62
4
 10
2.29673782E+02
 20
-2.20610729E+02
  0
VERTEX
  8
0
 62
4
 10
2.29667180E+02
 20
-2.20461811E+02
  0
VERTEX
  8
0
 62
4
 10
2.29647423E+02
 20
-2.20314027E+02
  0
VERTEX
  8
0
 62
4
 10
2.29614663E+02
 20
-2.20168500E+02
  0
VERTEX
  8
0
 62
4
 10
2.29569149E+02
 20
-2.20026339E+02
  0
VERTEX
  8
0
 62
4
 10
2.29511226E+02
 20
-2.19888626E+02
  0
VERTEX
  8
0
 62
4
 10
2.29441336E+02
 20
-2.19756408E+02
  0
VERTEX
  8
0
 62
4
 10
2.29360011E+02
 20
-2.19630693E+02
  0
VERTEX
  8
0
 62
4
 10
2.29267869E+02
 20
-2.19512435E+02
  0
VERTEX
  8
0
 62
4
 10
2.29165612E+02
 20
-2.19402537E+02
  0
VERTEX
  8
0
 62
4
 10
2.29054019E+02
 20
-2.19301834E+02
  0
VERTEX
  8
0
 62
4
 10
2.28933937E+02
 20
-2.19211092E+02
  0
VERTEX
  8
0
 62
4
 10
2.28806282E+02
 20
-2.19131002E+02
  0
VERTEX
  8
0
 62
4
 10
2.28672025E+02
 20
-2.19062174E+02
  0
VERTEX
  8
0
 62
4
 10
2.28532187E+02
 20
-2.19005131E+02
  0
VERTEX
  8
0
 62
4
 10
2.28387833E+02
 20
-2.18960308E+02
  0
VERTEX
  8
0
 62
4
 10
2.28240062E+02
 20
-2.18928046E+02
  0
VERTEX
  8
0
 62
4
 10
2.28089997E+02
 20
-2.18908589E+02
  0
VERTEX
  8
0
 62
4
 10
2.27938782E+02
 20
-2.18902088E+02
  0
VERTEX
  8
0
 62
4
 10
2.27787567E+02
 20
-2.18908589E+02
  0
VERTEX
  8
0
 62
4
 10
2.27637502E+02
 20
-2.18928046E+02
  0
VERTEX
  8
0
 62
4
 10
2.27489731E+02
 20
-2.18960308E+02
  0
VERTEX
  8
0
 62
4
 10
2.27345377E+02
 20
-2.19005131E+02
  0
VERTEX
  8
0
 62
4
 10
2.27205539E+02
 20
-2.19062174E+02
  0
VERTEX
  8
0
 62
4
 10
2.27071282E+02
 20
-2.19131002E+02
  0
VERTEX
  8
0
 62
4
 10
2.26943627E+02
 20
-2.19211092E+02
  0
VERTEX
  8
0
 62
4
 10
2.26823545E+02
 20
-2.19301834E+02
  0
VERTEX
  8
0
 62
4
 10
2.26711952E+02
 20
-2.19402537E+02
  0
VERTEX
  8
0
 62
4
 10
2.26609695E+02
 20
-2.19512435E+02
  0
VERTEX
  8
0
 62
4
 10
2.26517553E+02
 20
-2.19630693E+02
  0
VERTEX
  8
0
 62
4
 10
2.26436228E+02
 20
-2.19756408E+02
  0
VERTEX
  8
0
 62
4
 10
2.26366338E+02
 20
-2.19888626E+02
  0
VERTEX
  8
0
 62
4
 10
2.26308415E+02
 20
-2.20026339E+02
  0
VERTEX
  8
0
 62
4
 10
2.26262901E+02
 20
-2.20168500E+02
  0
VERTEX
  8
0
 62
4
 10
2.26230141E+02
 20
-2.20314027E+02
  0
VERTEX
  8
0
 62
4
 10
2.26210384E+02
 20
-2.20461811E+02
  0
VERTEX
  8
0
 62
4
 10
2.26203782E+02
 20
-2.20610729E+02
  0
VERTEX
  8
0
 62
4
 10
2.26210384E+02
 20
-2.20759647E+02
  0
VERTEX
  8
0
 62
4
 10
2.26230141E+02
 20
-2.20907431E+02
  0
VERTEX
  8
0
 62
4
 10
2.26262901E+02
 20
-2.21052958E+02
  0
VERTEX
  8
0
 62
4
 10
2.26308415E+02
 20
-2.21195119E+02
  0
VERTEX
  8
0
 62
4
 10
2.26366338E+02
 20
-2.21332832E+02
  0
VERTEX
  8
0
 62
4
 10
2.26436228E+02
 20
-2.21465050E+02
  0
VERTEX
  8
0
 62
4
 10
2.26517553E+02
 20
-2.21590765E+02
  0
VERTEX
  8
0
 62
4
 10
2.26609695E+02
 20
-2.21709023E+02
  0
VERTEX
  8
0
 62
4
 10
2.26711952E+02
 20
-2.21818921E+02
  0
VERTEX
  8
0
 62
4
 10
2.26823545E+02
 20
-2.21919624E+02
  0
VERTEX
  8
0
 62
4
 10
2.26943627E+02
 20
-2.22010366E+02
  0
VERTEX
  8
0
 62
4
 10
2.27071282E+02
 20
-2.22090456E+02
  0
VERTEX
  8
0
 62
4
 10
2.27205539E+02
 20
-2.22159284E+02
  0
VERTEX
  8
0
 62
4
 10
2.27345377E+02
 20
-2.22216327E+02
  0
VERTEX
  8
0
 62
4
 10
2.27489731E+02
 20
-2.22261150E+02
  0
VERTEX
  8
0
 62
4
 10
2.27637502E+02
 20
-2.22293412E+02
  0
VERTEX
  8
0
 62
4
 10
2.27787567E+02
 20
-2.22312869E+02
  0
VERTEX
  8
0
 62
4
 10
2.27938782E+02
 20
-2.22319370E+02
  0
VERTEX
  8
0
 62
4
 10
2.28089997E+02
 20
-2.22312869E+02
  0
VERTEX
  8
0
 62
4
 10
2.28240062E+02
 20
-2.22293412E+02
  0
VERTEX
  8
0
 62
4
 10
2.28387833E+02
 20
-2.22261150E+02
  0
VERTEX
  8
0
 62
4
 10
2.28532187E+02
 20
-2.22216327E+02
  0
VERTEX
  8
0
 62
4
 10
2.28672025E+02
 20
-2.22159284E+02
  0
VERTEX
  8
0
 62
4
 10
2.28806282E+02
 20
-2.22090456E+02
  0
VERTEX
  8
0
 62
4
 10
2.28933937E+02
 20
-2.22010366E+02
  0
VERTEX
  8
0
 62
4
 10
2.29054019E+02
 20
-2.21919624E+02
  0
VERTEX
  8
0
 62
4
 10
2.29165612E+02
 20
-2.21818921E+02
  0
VERTEX
  8
0
 62
4
 10
2.29267869E+02
 20
-2.21709023E+02
  0
VERTEX
  8
0
 62
4
 10
2.29360011E+02
 20
-2.21590765E+02
  0
VERTEX
  8
0
 62
4
 10
2.29441336E+02
 20
-2.21465050E+02
  0
VERTEX
  8
0
 62
4
 10
2.29511226E+02
 20
-2.21332832E+02
  0
VERTEX
  8
0
 62
4
 10
2.29569149E+02
 20
-2.21195119E+02
  0
VERTEX
  8
0
 62
4
 10
2.29614663E+02
 20
-2.21052958E+02
  0
VERTEX
  8
0
 62
4
 10
2.29647423E+02
 20
-2.20907431E+02
  0
VERTEX
  8
0
 62
4
 10
2.29667180E+02
 20
-2.20759647E+02
  0
VERTEX
  8
0
 62
4
 10
2.29673782E+02
 20
-2.20610729E+02
  0
SEQEND
  8
0
  0
POLYLINE
  8
0
 62
4
 66
1
  0
VERTEX
  8
0
 62
4
 10
2.29938782E+02
 20
-2.20437081E+02
  0
VERTEX
  8
0
 62
4
 10
2.29931171E+02
 20
-2.20265847E+02
  0
VERTEX
  8
0
 62
4
 10
2.29908398E+02
 20
-2.20095916E+02
  0
VERTEX
  8
0
 62
4
 10
2.29870634E+02
 20
-2.19928581E+02
  0
VERTEX
  8
0
 62
4
 10
2.29818167E+02
 20
-2.19765117E+02
  0
VERTEX
  8
0
 62
4
 10
2.29751398E+02
 20
-2.19606767E+02
  0
VERTEX
  8
0
 62
4
 10
2.29670833E+02
 20
-2.19454735E+02
  0
VERTEX
  8
0
 62
4
 10
2.29577086E+02
 20
-2.19310180E+02
  0
VERTEX
  8
0
 62
4
 10
2.29470871E+02
 20
-2.19174202E+02
  0
VERTEX
  8
0
 62
4
 10
2.29352996E+02
 20
-2.19047834E+02
  0
VERTEX
  8
0
 62
4
 10
2.29224357E+02
 20
-2.18932040E+02
  0
VERTEX
  8
0
 62
4
 10
2.29085935E+02
 20
-2.18827700E+02
  0
VERTEX
  8
0
 62
4
 10
2.28938782E+02
 20
-2.18735608E+02
  0
VERTEX
  8
0
 62
4
 10
2.28784019E+02
 20
-2.18656466E+02
  0
VERTEX
  8
0
 62
4
 10
2.28622822E+02
 20
-2.18590875E+02
  0
VERTEX
  8
0
 62
4
 10
2.28456420E+02
 20
-2.18539335E+02
  0
VERTEX
  8
0
 62
4
 10
2.28286078E+02
 20
-2.18502238E+02
  0
VERTEX
  8
0
 62
4
 10
2.28113093E+02
 20
-2.18479866E+02
  0
VERTEX
  8
0
 62
4
 10
2.27938782E+02
 20
-2.18472390E+02
  0
VERTEX
  8
0
 62
4
 10
2.27764471E+02
 20
-2.18479866E+02
  0
VERTEX
  8
0
 62
4
 10
2.27591486E+02
 20
-2.18502238E+02
  0
VERTEX
  8
0
 62
4
 10
2.27421144E+02
 20
-2.18539335E+02
  0
VERTEX
  8
0
 62
4
 10
2.27254742E+02
 20
-2.18590875E+02
  0
VERTEX
  8
0
 62
4
 10
2.27093545E+02
 20
-2.18656466E+02
  0
VERTEX
  8
0
 62
4
 10
2.26938782E+02
 20
-2.18735608E+02
  0
VERTEX
  8
0
 62
4
 10
2.26791629E+02
 20
-2.18827700E+02
  0
VERTEX
  8
0
 62
4
 10
2.26653207E+02
 20
-2.18932040E+02
  0
VERTEX
  8
0
 62
4
 10
2.26524568E+02
 20
-2.19047834E+02
  0
VERTEX
  8
0
 62
4
 10
2.26406693E+02
 20
-2.19174202E+02
  0
VERTEX
  8
0
 62
4
 10
2.26300478E+02
 20
-2.19310180E+02
  0
VERTEX
  8
0
 62
4
 10
2.26206731E+02
 20
-2.19454735E+02
  0
VERTEX
  8
0
 62
4
 10
2.26126166E+02
 20
-2.19606767E+02
  0
VERTEX
  8
0
 62
4
 10
2.26059397E+02
 20
-2.19765117E+02
  0
VERTEX
  8
0
 62
4
 10
2.26006930E+02
 20
-2.19928581E+02
  0
VERTEX
  8
0
 62
4
 10
2.25969166E+02
 20
-2.20095916E+02
  0
VERTEX
  8
0
 62
4
 10
2.25946393E+02
 20
-2.20265847E+02
  0
VERTEX
  8
0
 62
4
 10
2.25938782E+02
 20
-2.20437081E+02
  0
VERTEX
  8
0
 62
4
 10
2.25946393E+02
 20
-2.20608315E+02
  0
VERTEX
  8
0
 62
4
 10
2.25969166E+02
 20
-2.20778246E+02
  0
VERTEX
  8
0
 62
4
 10
2.26006930E+02
 20
-2.20945581E+02
  0
VERTEX
  8
0
 62
4
 10
2.26059397E+02
 20
-2.21109045E+02
  0
VERTEX
  8
0
 62
4
 10
2.26126166E+02
 20
-2.21267395E+02
  0
VERTEX
  8
0
 62
4
 10
2.26206731E+02
 20
-2.21419427E+02
  0
VERTEX
  8
0
 62
4
 10
2.26300478E+02
 20
-2.21563982E+02
  0
VERTEX
  8
0
 62
4
 10
2.26406693E+02
 20
-2.21699960E+02
  0
VERTEX
  8
0
 62
4
 10
2.26524568E+02
 20
-2.21826328E+02
  0
VERTEX
  8
0
 62
4
 10
2.26653207E+02
 20
-2.21942122E+02
  0
VERTEX
  8
0
 62
4
 10
2.26791629E+02
 20
-2.22046462E+02
  0
VERTEX
  8
0
 62
4
 10
2.26938782E+02
 20
-2.22138554E+02
  0
VERTEX
  8
0
 62
4
 10
2.27093545E+02
 20
-2.22217696E+02
  0
VERTEX
  8
0
 62
4
 10
2.27254742E+02
 20
-2.22283287E+02
  0
VERTEX
  8
0
 62
4
 10
2.27421144E+02
 20
-2.22334827E+02
  0
VERTEX
  8
0
 62
4
 10
2.27591486E+02
 20
-2.22371924E+02
  0
VERTEX
  8
0
 62
4
 10
2.27764471E+02
 20
-2.22394296E+02
  0
VERTEX
  8
0
 62
4
 10
2.27938782E+02
 20
-2.22401772E+02
  0
VERTEX
  8
0
 62
4
 10
2.28113093E+02
 20
-2.22394296E+02
  0
VERTEX
  8
0
 62
4
 10
2.28286078E+02
 20
-2.22371924E+02
  0
VERTEX
  8
0
 62
4
 10
2.28456420E+02
 20
-2.22334827E+02
  0
VERTEX
  8
0
 62
4
 10
2.28622822E+02
 20
-2.22283287E+02
  0
VERTEX
  8
0
 62
4
 10
2.28784019E+02
 20
-2.22217696E+02
  0
VERTEX
  8
0
 62
4
 10
2.28938782E+02
 20
-2.22138554E+02
  0
VERTEX
  8
0
 62
4
 10
2.29085935E+02
 20
-2.22046462E+02
  0
VERTEX
  8
0
 62
4
 10
2.29224357E+02
 20
-2.21942122E+02
  0
VERTEX
  8
0
 62
4
 10
2.29352996E+02
 20
-2.21826328E+02
  0
VERTEX
  8
0
 62
4
 10
2.29470871E+02
 20
-2.21699960E+02
  0
VERTEX
  8
0
 62
4
 10
2.29577086E+02
 20
-2.21563982E+02
  0
VERTEX
  8
0
 62
4
 10
2.29670833E+02
 20
-2.21419427E+02
  0
VERTEX
  8
0
 62
4
 10
2.29751398E+02
 20
-2.21267395E+02
  0
VERTEX
  8
0
 62
4
 10
2.29818167E+02
 20
-2.21109045E+02
  0
VERTEX
  8
0
 62
4
 10
2.29870634E+02
 20
-2.20945581E+02
  0
VERTEX
  8
0
 62
4
 10
2.29908398E+02
 20
-2.20778246E+02
  0
VERTEX
  8
0
 62
4
 10
2.29931171E+02
 20
-2.20608315E+02
  0
VERTEX
  8
0
 62
4
 10
2.29938782E+02
 20
-2.20437081E+02
  0
SEQEND
  8
0
  0
POLYLINE
  8
0
 62
6
 66
1
  0
VERTEX
  8
0
 62
6
 10
2.29438782E+02
 20
-2.20605805E+02
  0
VERTEX
  8
0
 62
6
 10
2.29433074E+02
 20
-2.20477058E+02
  0
VERTEX
  8
0
 62
6
 10
2.29415994E+02
 20
-2.20349290E+02
  0
VERTEX
  8
0
 62
6
 10
2.29387671E+02
 20
-2.20223474E+02
  0
VERTEX
  8
0
 62
6
 10
2.29348321E+02
 20
-2.20100569E+02
  0
VERTEX
  8
0
 62
6
 10
2.29298244E+02
 20
-2.19981508E+02
  0
VERTEX
  8
0
 62
6
 10
2.29237820E+02
 20
-2.19867199E+02
  0
VERTEX
  8
0
 62
6
 10
2.29167510E+02
 20
-2.19758511E+02
  0
VERTEX
  8
0
 62
6
 10
2.29087849E+02
 20
-2.19656272E+02
  0
VERTEX
  8
0
 62
6
 10
2.28999442E+02
 20
-2.19561259E+02
  0
VERTEX
  8
0
 62
6
 10
2.28902963E+02
 20
-2.19474195E+02
  0
VERTEX
  8
0
 62
6
 10
2.28799147E+02
 20
-2.19395744E+02
  0
VERTEX
  8
0
 62
6
 10
2.28688782E+02
 20
-2.19326502E+02
  0
VERTEX
  8
0
 62
6
 10
2.28572709E+02
 20
-2.19266997E+02
  0
VERTEX
  8
0
 62
6
 10
2.28451812E+02
 20
-2.19217680E+02
  0
VERTEX
  8
0
 62
6
 10
2.28327011E+02
 20
-2.19178928E+02
  0
VERTEX
  8
0
 62
6
 10
2.28199254E+02
 20
-2.19151036E+02
  0
VERTEX
  8
0
 62
6
 10
2.28069516E+02
 20
-2.19134215E+02
  0
VERTEX
  8
0
 62
6
 10
2.27938782E+02
 20
-2.19128593E+02
  0
VERTEX
  8
0
 62
6
 10
2.27808048E+02
 20
-2.19134215E+02
  0
VERTEX
  8
0
 62
6
 10
2.27678310E+02
 20
-2.19151036E+02
  0
VERTEX
  8
0
 62
6
 10
2.27550553E+02
 20
-2.19178928E+02
  0
VERTEX
  8
0
 62
6
 10
2.27425752E+02
 20
-2.19217680E+02
  0
VERTEX
  8
0
 62
6
 10
2.27304855E+02
 20
-2.19266997E+02
  0
VERTEX
  8
0
 62
6
 10
2.27188782E+02
 20
-2.19326502E+02
  0
VERTEX
  8
0
 62
6
 10
2.27078417E+02
 20
-2.19395744E+02
  0
VERTEX
  8
0
 62
6
 10
2.26974601E+02
 20
-2.19474195E+02
  0
VERTEX
  8
0
 62
6
 10
2.26878122E+02
 20
-2.19561259E+02
  0
VERTEX
  8
0
 62
6
 10
2.26789715E+02
 20
-2.19656272E+02
  0
VERTEX
  8
0
 62
6
 10
2.26710054E+02
 20
-2.19758511E+02
  0
VERTEX
  8
0
 62
6
 10
2.26639744E+02
 20
-2.19867199E+02
  0
VERTEX
  8
0
 62
6
 10
2.26579320E+02
 20
-2.19981508E+02
  0
VERTEX
  8
0
 62
6
 10
2.26529243E+02
 20
-2.20100569E+02
  0
VERTEX
  8
0
 62
6
 10
2.26489893E+02
 20
-2.20223474E+02
  0
VERTEX
  8
0
 62
6
 10
2.26461570E+02
 20
-2.20349290E+02
  0
VERTEX
  8
0
 62
6
 10
2.26444490E+02
 20
-2.20477058E+02
  0
VERTEX
  8
0
 62
6
 10
2.26438782E+02
 20
-2.20605805E+02
  0
VERTEX
  8
0
 62
6
 10
2.26444490E+02
 20
-2.20734552E+02
  0
VERTEX
  8
0
 62
6
 10
2.26461570E+02
 20
-2.20862320E+02
  0
VERTEX
  8
0
 62
6
 10
2.26489893E+02
 20
-2.20988136E+02
  0
VERTEX
  8
0
 62
6
 10
2.26529243E+02
 20
-2.21111041E+02
  0
VERTEX
  8
0
 62
6
 10
2.26579320E+02
 20
-2.21230102E+02
  0
VERTEX
  8
0
 62
6
 10
2.26639744E+02
 20
-2.21344411E+02
  0
VERTEX
  8
0
 62
6
 10
2.26710054E+02
 20
-2.21453099E+02
  0
VERTEX
  8
0
 62
6
 10
2.26789715E+02
 20
-2.21555338E+02
  0
VERTEX
  8
0
 62
6
 10
2.26878122E+02
 20
-2.21650351E+02
  0
VERTEX
  8
0
 62
6
 10
2.26974601E+02
 20
-2.21737415E+02
  0
VERTEX
  8
0
 62
6
 10
2.27078417E+02
 20
-2.21815866E+02
  0
VERTEX
  8
0
 62
6
 10
2.27188782E+02
 20
-2.21885108E+02
  0
VERTEX
  8
0
 62
6
 10
2.27304855E+02
 20
-2.21944613E+02
  0
VERTEX
  8
0
 62
6
 10
2.27425752E+02
 20
-2.21993930E+02
  0
VERTEX
  8
0
 62
6
 10
2.27550553E+02
 20
-2.22032682E+02
  0
VERTEX
  8
0
 62
6
 10
2.27678310E+02
 20
-2.22060574E+02
  0
VERTEX
  8
0
 62
6
 10
2.27808048E+02
 20
-2.22077395E+02
  0
VERTEX
  8
0
 62
6
 10
2.27938782E+02
 20
-2.22083017E+02
  0
VERTEX
  8
0
 62
6
 10
2.28069516E+02
 20
-2.22077395E+02
  0
VERTEX
  8
0
 62
6
 10
2.28199254E+02
 20
-2.22060574E+02
  0
VERTEX
  8
0
 62
6
 10
2.28327011E+02
 20
-2.22032682E+02
  0
VERTEX
  8
0
 62
6
 10
2.28451812E+02
 20
-2.21993930E+02
  0
VERTEX
  8
0
 62
6
 10
2.28572709E+02
 20
-2.21944613E+02
  0
VERTEX
  8
0
 62
6
 10
2.28688782E+02
 20
-2.21885108E+02
  0
VERTEX
  8
0
 62
6
 10
2.28799147E+02
 20
-2.21815866E+02
  0
VERTEX
  8
0
 62
6
 10
2.28902963E+02
 20
-2.21737415E+02
  0
VERTEX
  8
0
 62
6
 10
2.28999442E+02
 20
-2.21650351E+02
  0
VERTEX
  8
0
 62
6
 10
2.29087849E+02
 20
-2.21555338E+02
  0
VERTEX
  8
0
 62
6
 10
2.29167510E+02
 20
-2.21453099E+02
  0
VERTEX
  8
0
 62
6
 10
2.29237820E+02
 20
-2.21344411E+02
  0
VERTEX
  8
0
 62
6
 10
2.29298244E+02
 20
-2.21230102E+02
  0
VERTEX
  8
0
 62
6
 10
2.29348321E+02
 20
-2.21111041E+02
  0
VERTEX
  8
0
 62
6
 10
2.29387671E+02
 20
-2.20988135E+02
  0
VERTEX
  8
0
 62
6
 10
2.29415994E+02
 20
-2.20862320E+02
  0
VERTEX
  8
0
 62
6
 10
2.29433074E+02
 20
-2.20734552E+02
  0
VERTEX
  8
0
 62
6
 10
2.29438782E+02
 20
-2.20605805E+02
  0
SEQEND
  8
0
  0
LINE
  8
0
 62
4
 10
2.07938782E+02
 20
-2.13091046E+02
 11
2.07938782E+02
 21
-2.14407727E+02
  0
LINE
  8
0
 62
4
 10
2.40938782E+02
 20
-2.13091046E+02
 11
2.40938782E+02
 21
-2.14407727E+02
  0
LINE
  8
0
 62
4
 10
2.40938782E+02
 20
-2.13094210E+02
 11
2.43938782E+02
 21
-2.09675924E+02
  0
LINE
  8
0
 62
4
 10
2.07938782E+02
 20
-2.13094210E+02
 11
2.04938782E+02
 21
-2.09675924E+02
  0
LINE
  8
0
  6
CENTER
 62
6
 10
2.35938782E+02
 20
-2.15612482E+02
 11
2.35938782E+02
 21
-2.25602482E+02
  0
LINE
  8
0
 62
4
 10
2.39438782E+02
 20
-1.89195188E+02
 11
2.24438782E+02
 21
-1.89195188E+02
  0
LINE
  8
0
 62
4
 10
2.38103347E+02
 20
-2.15035134E+02
 11
2.25882178E+02
 21
-2.15035134E+02
  0
LINE
  8
0
 62
4
 10
2.39438782E+02
 20
-1.62955079E+02
 11
2.24438782E+02
 21
-1.62955079E+02
  0
LINE
  8
0
 62
4
 10
2.24438782E+02
 20
-1.99070861E+02
 11
2.39438782E+02
 21
-1.99070861E+02
  0
LINE
  8
0
 62
4
 10
2.24438782E+02
 20
-2.25411395E+02
 11
2.39438782E+02
 21
-2.25411395E+02
  0
LINE
  8
0
 62
4
 10
2.39438782E+02
 20
-1.99070861E+02
 11
2.39438782E+02
 21
-2.25411395E+02
  0
LINE
  8
0
 62
4
 10
2.24438782E+02
 20
-1.99070861E+02
 11
2.24438782E+02
 21
-2.25411395E+02
  0
LINE
  8
0
  6
CENTER
 62
6
 10
2.27938782E+02
 20
-2.15612482E+02
 11
2.27938782E+02
 21
-2.25602482E+02
  0
LINE
  8
0
  6
CENTER
 62
6
 10
2.22938782E+02
 20
-2.20605805E+02
 11
2.40938782E+02
 21
-2.20605805E+02
  0
LINE
  8
0
 62
4
 10
2.52438782E+02
 20
-1.64415166E+02
 11
2.48938782E+02
 21
-1.64415166E+02
  0
LINE
  8
0
 62
4
 10
2.42438782E+02
 20
-1.94466523E+02
 11
2.06438782E+02
 21
-1.94466523E+02
  0
LINE
  8
0
 62
4
 10
2.58938782E+02
 20
-1.67601971E+02
 11
2.53938782E+02
 21
-1.67601971E+02
  0
LINE
  8
0
 62
4
 10
2.58938782E+02
 20
-1.74997877E+02
 11
2.53938782E+02
 21
-1.74997877E+02
  0
LINE
  8
0
 62
4
 10
2.39438782E+02
 20
-1.63165166E+02
 11
2.48438782E+02
 21
-1.63165166E+02
  0
LINE
  8
0
 62
4
 10
2.48938782E+02
 20
-1.63668308E+02
 11
2.48938782E+02
 21
-1.76668308E+02
  0
LINE
  8
0
 62
4
 10
2.58938782E+02
 20
-1.62780229E+02
 11
2.58938782E+02
 21
-1.77562193E+02
  0
LINE
  8
0
 62
4
 10
2.53938782E+02
 20
-1.62780229E+02
 11
2.53938782E+02
 21
-1.77562193E+02
  0
LINE
  8
0
 62
4
 10
2.53938782E+02
 20
-1.63915166E+02
 11
2.48938782E+02
 21
-1.63915166E+02
  0
LINE
  8
0
 62
4
 10
2.53938782E+02
 20
-1.76415166E+02
 11
2.48938782E+02
 21
-1.76415166E+02
  0
LINE
  8
0
 62
4
 10
2.52438782E+02
 20
-1.63915166E+02
 11
2.52438782E+02
 21
-1.76415166E+02
  0
LINE
  8
0
 62
4
 10
2.52438782E+02
 20
-1.75915166E+02
 11
2.48938782E+02
 21
-1.75915166E+02
  0
LINE
  8
0
 62
4
 10
2.48438782E+02
 20
-1.77165166E+02
 11
2.39938782E+02
 21
-1.77165166E+02
  0
LINE
  8
0
 62
4
 10
2.24438782E+02
 20
-2.13091046E+02
 11
2.07938782E+02
 21
-2.13091046E+02
  0
LINE
  8
0
 62
4
 10
2.58938782E+02
 20
-1.77562193E+02
 11
2.53938782E+02
 21
-1.77562193E+02
  0
LINE
  8
0
 62
4
 10
2.24438782E+02
 20
-2.09672760E+02
 11
2.04938782E+02
 21
-2.09672760E+02
  0
LINE
  8
0
 62
4
 10
2.24438782E+02
 20
-2.08195548E+02
 11
2.04938782E+02
 21
-2.08195548E+02
  0
LINE
  8
0
 62
4
 10
2.39438782E+02
 20
-1.65559802E+02
 11
2.24438782E+02
 21
-1.65559802E+02
  0
LINE
  8
0
 62
4
 10
2.41438782E+02
 20
-1.90527292E+02
 11
2.22438782E+02
 21
-1.90527292E+02
  0
LINE
  8
0
 62
4
 10
2.43938782E+02
 20
-1.92629071E+02
 11
2.43938782E+02
 21
-2.09672760E+02
  0
LINE
  8
0
 62
4
 10
2.43938782E+02
 20
-2.09672760E+02
 11
2.39438782E+02
 21
-2.09672760E+02
  0
LINE
  8
0
 62
4
 10
2.43938782E+02
 20
-2.08195548E+02
 11
2.39438782E+02
 21
-2.08195548E+02
  0
LINE
  8
0
 62
4
 10
2.41438782E+02
 20
-1.90527292E+02
 11
2.41438782E+02
 21
-1.94466523E+02
  0
LINE
  8
0
 62
4
 10
2.24438782E+02
 20
-1.62955079E+02
 11
2.24438782E+02
 21
-1.90527292E+02
  0
LINE
  8
0
 62
4
 10
2.39438782E+02
 20
-1.62955079E+02
 11
2.39438782E+02
 21
-1.90527292E+02
  0
LINE
  8
0
 62
4
 10
2.22438782E+02
 20
-1.90527292E+02
 11
2.22438782E+02
 21
-1.94466523E+02
  0
LINE
  8
0
 62
4
 10
2.04938782E+02
 20
-1.92629071E+02
 11
2.04938782E+02
 21
-2.09672760E+02
  0
LINE
  8
0
 62
4
 10
2.40938782E+02
 20
-2.13091046E+02
 11
2.39438782E+02
 21
-2.13091046E+02
  0
ARC
  8
0
 62
4
 10
2.48439281E+02
 20
-1.63664666E+02
 40
4.99500622E-01
 50
3.59942689E+02
 51
9.00573103E+01
  0
ARC
  8
0
 62
4
 10
2.39938282E+02
 20
-1.77664666E+02
 40
4.99500622E-01
 50
8.99426895E+01
 51
1.80057310E+02
  0
ARC
  8
0
 62
4
 10
2.06438282E+02
 20
-1.95966023E+02
 40
1.49950029E+00
 50
8.99809029E+01
 51
1.80019097E+02
  0
ARC
  8
0
 62
4
 10
2.48438282E+02
 20
-1.76664666E+02
 40
5.00500378E-01
 50
2.70057253E+02
 51
3.59942747E+02
  0
ARC
  8
0
 62
4
 10
2.42439282E+02
 20
-1.95966023E+02
 40
1.49950029E+00
 50
3.59980903E+02
 51
9.00190969E+01
  0
CIRCLE
  8
0
 62
7
 10
3.80943909E+01
 20
-2.17057736E+02
 40
2.45850000E+00
  0
CIRCLE
  8
0
 62
7
 10
8.50943604E+01
 20
-2.17057706E+02
 40
2.45850000E+00
  0
CIRCLE
  8
0
 62
7
 10
-3.01249969E+02
 20
-2.17057736E+02
 40
2.45850000E+00
  0
CIRCLE
  8
0
 62
7
 10
-2.54250000E+02
 20
-2.17057706E+02
 40
2.45850000E+00
  0
LINE
  8
0
 62
2
 10
-3.85780461E+01
 20
-2.48725106E+02
 11
-1.50694584E+01
 21
-2.08007037E+02
  0
LINE
  8
0
 62
7
 10
-8.42500000E+01
 20
-1.00743424E+02
 11
-8.42500000E+01
 21
-1.36557706E+02
  0
TEXT
  8
0
 10
5.55496959E+01
 20
2.44478397E+02
 40
6.30000019E+00
  1
STRETCH LINE B
 41
1.09375016E+00
  7
MONOTXT
  0
TEXT
  8
0
 62
7
 10
-1.74762894E+02
 20
-3.30808807E+01
 40
6.30000019E+00
  1
75
 41
1.00000000E+00
  7
MONOTXT
  0
TEXT
  8
0
 62
7
 10
-1.52712894E+02
 20
-3.30808807E+01
 40
6.30000019E+00
  1
125
 41
1.00000000E+00
  7
MONOTXT
  0
TEXT
  8
0
 62
7
 10
-1.27512894E+02
 20
-3.30808807E+01
 40
6.30000019E+00
  1
175
 41
1.00000000E+00
  7
MONOTXT
  0
TEXT
  8
0
 62
7
 10
-1.02312894E+02
 20
-3.30808807E+01
 40
6.30000019E+00
  1
225
 41
1.00000000E+00
  7
MONOTXT
  0
TEXT
  8
0
 62
7
 10
-7.71128943E+01
 20
-3.30808807E+01
 40
6.30000019E+00
  1
275
 41
1.00000000E+00
  7
MONOTXT
  0
TEXT
  8
0
 62
7
 10
-5.19128943E+01
 20
-3.30808807E+01
 40
6.30000019E+00
  1
325
 41
1.00000000E+00
  7
MONOTXT
  0
TEXT
  8
0
 62
7
 10
-2.67128943E+01
 20
-3.30808807E+01
 40
6.30000019E+00
  1
375
 41
1.00000000E+00
  7
MONOTXT
  0
TEXT
  8
0
 62
7
 10
-1.51289426E+00
 20
-3.30808807E+01
 40
6.30000019E+00
  1
425
 41
1.00000000E+00
  7
MONOTXT
  0
TEXT
  8
0
 62
7
 10
-1.51289426E+00
 20
-2.30808807E+01
 40
6.30000019E+00
  1
425
 41
1.00000000E+00
  7
MONOTXT
  0
TEXT
  8
0
 62
7
 10
-1.51289426E+00
 20
-3.08088067E+00
 40
6.30000019E+00
  1
500
 41
1.00000000E+00
  7
MONOTXT
  0
TEXT
  8
0
 62
7
 10
-2.67128943E+01
 20
-2.30808807E+01
 40
6.30000019E+00
  1
375
 41
1.00000000E+00
  7
MONOTXT
  0
TEXT
  8
0
 62
7
 10
-2.67128943E+01
 20
-3.08088067E+00
 40
6.30000019E+00
  1
450
 41
1.00000000E+00
  7
MONOTXT
  0
TEXT
  8
0
 62
7
 10
-5.19128943E+01
 20
-2.30808807E+01
 40
6.30000019E+00
  1
325
 41
1.00000000E+00
  7
MONOTXT
  0
TEXT
  8
0
 62
7
 10
-5.19128943E+01
 20
-3.08088067E+00
 40
6.30000019E+00
  1
400
 41
1.00000000E+00
  7
MONOTXT
  0
TEXT
  8
0
 62
7
 10
-7.71128943E+01
 20
-2.30808807E+01
 40
6.30000019E+00
  1
275
 41
1.00000000E+00
  7
MONOTXT
  0
TEXT
  8
0
 62
7
 10
-7.71128943E+01
 20
-3.08088067E+00
 40
6.30000019E+00
  1
350
 41
1.00000000E+00
  7
MONOTXT
  0
TEXT
  8
0
 62
7
 10
-1.02312894E+02
 20
-2.30808807E+01
 40
6.30000019E+00
  1
225
 41
1.00000000E+00
  7
MONOTXT
  0
TEXT
  8
0
 62
7
 10
-1.02312894E+02
 20
-3.08088067E+00
 40
6.30000019E+00
  1
300
 41
1.00000000E+00
  7
MONOTXT
  0
TEXT
  8
0
 62
7
 10
-1.27512894E+02
 20
-2.30808807E+01
 40
6.30000019E+00
  1
175
 41
1.00000000E+00
  7
MONOTXT
  0
TEXT
  8
0
 62
7
 10
-1.27512894E+02
 20
-3.08088067E+00
 40
6.30000019E+00
  1
250
 41
1.00000000E+00
  7
MONOTXT
  0
TEXT
  8
0
 62
7
 10
-1.52712894E+02
 20
-2.30808807E+01
 40
6.30000019E+00
  1
125
 41
1.00000000E+00
  7
MONOTXT
  0
TEXT
  8
0
 62
7
 10
-1.52712894E+02
 20
-3.08088067E+00
 40
6.30000019E+00
  1
200
 41
1.00000000E+00
  7
MONOTXT
  0
TEXT
  8
0
 62
7
 10
-1.74762894E+02
 20
-2.30808807E+01
 40
6.30000019E+00
  1
75
 41
1.00000000E+00
  7
MONOTXT
  0
TEXT
  8
0
 62
7
 10
-1.77912894E+02
 20
-3.08088067E+00
 40
6.30000019E+00
  1
150
 41
1.00000000E+00
  7
MONOTXT
  0
TEXT
  8
0
 62
7
 10
-1.99962894E+02
 20
-2.30808807E+01
 40
6.30000019E+00
  1
25
 41
1.00000000E+00
  7
MONOTXT
  0
TEXT
  8
0
 62
7
 10
-2.03112894E+02
 20
-3.08088067E+00
 40
6.30000019E+00
  1
100
 41
1.00000000E+00
  7
MONOTXT
  0
TEXT
  8
0
 62
7
 10
-2.22012894E+02
 20
-2.30808807E+01
 40
6.30000019E+00
  1
0
 41
1.00000000E+00
  7
MONOTXT
  0
TEXT
  8
0
 62
7
 10
-2.25162894E+02
 20
-3.08088067E+00
 40
6.30000019E+00
  1
75
 41
1.00000000E+00
  7
MONOTXT
  0
TEXT
  8
0
 62
7
 10
-3.13912894E+02
 20
-3.08088067E+00
 40
6.30000019E+00
  1
STRETCH
 41
1.00000000E+00
  7
MONOTXT
  0
TEXT
  8
0
 62
7
 10
-3.10762894E+02
 20
6.91911930E+00
 40
6.30000019E+00
  1
STROKE
 41
1.00000000E+00
  7
MONOTXT
  0
TEXT
  8
0
 62
7
 10
-2.53512894E+02
 20
-2.30808807E+01
 40
6.30000019E+00
  1
-25
 41
1.00000000E+00
  7
MONOTXT
  0
TEXT
  8
0
 62
7
 10
-2.50362894E+02
 20
-3.08088067E+00
 40
6.30000019E+00
  1
50
 41
1.00000000E+00
  7
MONOTXT
  0
LINE
  8
0
 62
7
 10
1.98480434E+01
 20
-3.49308806E+01
 11
1.98480434E+01
 21
1.50691194E+01
  0
LINE
  8
0
 62
7
 10
-5.35195657E+00
 20
-3.49308806E+01
 11
-5.35195657E+00
 21
1.50691194E+01
  0
LINE
  8
0
 62
7
 10
-3.05519566E+01
 20
-3.49308806E+01
 11
-3.05519566E+01
 21
1.50691194E+01
  0
LINE
  8
0
 62
7
 10
-5.57519566E+01
 20
-3.49308806E+01
 11
-5.57519566E+01
 21
1.50691194E+01
  0
LINE
  8
0
 62
7
 10
-8.09519566E+01
 20
-3.49308806E+01
 11
-8.09519566E+01
 21
1.50691194E+01
  0
LINE
  8
0
 62
7
 10
-1.06151957E+02
 20
-3.49308806E+01
 11
-1.06151957E+02
 21
1.50691194E+01
  0
LINE
  8
0
 62
7
 10
-1.31351957E+02
 20
-3.49308806E+01
 11
-1.31351957E+02
 21
1.50691194E+01
  0
LINE
  8
0
 62
7
 10
-1.56551957E+02
 20
-3.49308806E+01
 11
-1.56551957E+02
 21
1.50691194E+01
  0
LINE
  8
0
 62
7
 10
-1.81751957E+02
 20
-3.49308806E+01
 11
-1.81751957E+02
 21
1.50691194E+01
  0
LINE
  8
0
 62
7
 10
-2.06951957E+02
 20
-3.49308806E+01
 11
-2.06951957E+02
 21
1.50691194E+01
  0
LINE
  8
0
 62
7
 10
-2.32151957E+02
 20
-3.49308806E+01
 11
-2.32151957E+02
 21
1.50691194E+01
  0
LINE
  8
0
 62
7
 10
-2.57351957E+02
 20
-3.49308806E+01
 11
-2.57351957E+02
 21
1.50691194E+01
  0
LINE
  8
0
 62
7
 10
-3.17751957E+02
 20
-1.49308806E+01
 11
1.98480434E+01
 21
-1.49308806E+01
  0
LINE
  8
0
 62
7
 10
-3.17751957E+02
 20
5.06911943E+00
 11
-2.69151957E+02
 21
5.06911943E+00
  0
LINE
  8
0
 62
7
 10
-3.17751957E+02
 20
-3.49308806E+01
 11
-3.17751957E+02
 21
1.50691194E+01
  0
LINE
  8
0
 62
7
 10
-3.17751957E+02
 20
-2.49308806E+01
 11
1.98480434E+01
 21
-2.49308806E+01
  0
LINE
  8
0
 62
7
 10
-3.17751957E+02
 20
-3.49308806E+01
 11
1.98480434E+01
 21
-3.49308806E+01
  0
TEXT
  8
0
 62
7
 10
-1.99962894E+02
 20
-3.30808807E+01
 40
6.30000019E+00
  1
25
 41
1.00000000E+00
  7
MONOTXT
  0
TEXT
  8
0
 62
7
 10
-2.22012894E+02
 20
-3.30808807E+01
 40
6.30000019E+00
  1
0
 41
1.00000000E+00
  7
MONOTXT
  0
TEXT
  8
0
 62
7
 10
-2.53512894E+02
 20
-3.30808807E+01
 40
6.30000019E+00
  1
-25
 41
1.00000000E+00
  7
MONOTXT
  0
LINE
  8
0
 62
7
 10
-3.17751957E+02
 20
1.50691194E+01
 11
1.98480434E+01
 21
1.50691194E+01
  0
TEXT
  8
0
 62
7
 10
-3.13912894E+02
 20
-1.30808807E+01
 40
6.30000019E+00
  1
  PLACE
 41
1.20689655E+00
  7
MONOTXT
  0
LINE
  8
0
 62
7
 10
-2.69151957E+02
 20
5.06911943E+00
 11
-2.57351957E+02
 21
-1.49308806E+01
  0
TEXT
  8
0
 62
7
 10
-2.90012894E+02
 20
-2.30808807E+01
 40
6.30000019E+00
  1
A
 41
1.00000000E+00
  7
MONOTXT
  0
TEXT
  8
0
 62
7
 10
-2.90012894E+02
 20
-3.30808807E+01
 40
6.30000019E+00
  1
B
 41
1.00000000E+00
  7
MONOTXT
  0
TEXT
  8
0
 62
7
 10
-1.86062895E+02
 20
1.89191193E+01
 40
6.30000019E+00
  1
STRETCH LIST
 41
1.05263158E+00
  7
MONOTXT
  0
TEXT
  8
0
 62
7
 10
-6.06289437E+00
 20
1.89191193E+01
 40
6.30000019E+00
  1
(mm)
 41
1.00000000E+00
  7
MONOTXT
  0
LINE
  8
0
 62
7
 10
-2.18248477E+01
 20
-2.19707715E+02
 11
-8.42500000E+01
 21
-2.19707715E+02
  0
LINE
  8
0
 62
7
 10
-1.82741559E+01
 20
-2.13557736E+02
 11
-8.42500000E+01
 21
-2.13557736E+02
  0
LINE
  8
0
 62
7
 10
-1.87648983E+01
 20
-2.14407727E+02
 11
-8.42500000E+01
 21
-2.14407727E+02
  0
LINE
  8
0
 62
7
 10
-4.94510352E+01
 20
-1.32557675E+02
 11
-8.42500000E+01
 21
-1.32557675E+02
  0
LINE
  8
0
 62
7
 10
-4.89602928E+01
 20
-1.31707684E+02
 11
-8.42500000E+01
 21
-1.31707684E+02
  0
LINE
  8
0
 62
7
 10
-4.59003434E+01
 20
-1.26407696E+02
 11
-8.42500000E+01
 21
-1.26407696E+02
  0
LINE
  8
0
 62
7
 10
-7.62499945E+01
 20
-8.47077147E+01
 11
-8.42500000E+01
 21
-8.47077147E+01
  0
LINE
  8
0
 62
7
 10
-7.62499945E+01
 20
-7.94077269E+01
 11
-8.42500000E+01
 21
-7.94077269E+01
  0
LINE
  8
0
 62
7
 10
-7.62499945E+01
 20
-7.85577361E+01
 11
-8.42500000E+01
 21
-7.85577361E+01
  0
LINE
  8
0
 62
4
 10
7.50943909E+01
 20
-2.32763477E+02
 11
6.15943909E+01
 21
-2.24969248E+02
  0
LINE
  8
0
 62
4
 10
7.50943909E+01
 20
-2.40557706E+02
 11
7.50943909E+01
 21
-2.32763477E+02
  0
LINE
  8
0
 62
4
 10
4.80943909E+01
 20
-2.32763477E+02
 11
4.80943909E+01
 21
-2.40557706E+02
  0
LINE
  8
0
 62
4
 10
6.15943909E+01
 20
-2.24969248E+02
 11
4.80943909E+01
 21
-2.32763477E+02
  0
ARC
  8
0
 62
4
 10
6.15943909E+01
 20
-2.40557706E+02
 40
1.35000000E+01
 50
0.00000000E+00
 51
1.80000000E+02
  0
LINE
  8
0
 62
4
 10
-2.64249969E+02
 20
-2.32763477E+02
 11
-2.77749969E+02
 21
-2.24969248E+02
  0
LINE
  8
0
 62
4
 10
-2.64249969E+02
 20
-2.40557706E+02
 11
-2.64249969E+02
 21
-2.32763477E+02
  0
LINE
  8
0
 62
4
 10
-2.91249969E+02
 20
-2.32763477E+02
 11
-2.91249969E+02
 21
-2.40557706E+02
  0
LINE
  8
0
 62
4
 10
-2.77749969E+02
 20
-2.24969248E+02
 11
-2.91249969E+02
 21
-2.32763477E+02
  0
ARC
  8
0
 62
4
 10
-2.77749969E+02
 20
-2.40557706E+02
 40
1.35000000E+01
 50
0.00000000E+00
 51
1.80000000E+02
  0
LINE
  8
0
 62
4
 10
-1.52249969E+02
 20
-2.40557706E+02
 11
-1.52249969E+02
 21
-2.27057706E+02
  0
LINE
  8
0
 62
4
 10
-1.63249969E+02
 20
-2.40557706E+02
 11
-1.63249969E+02
 21
-2.27057706E+02
  0
ARC
  8
0
 62
4
 10
-1.37455741E+02
 20
-2.40557706E+02
 40
2.57942282E+01
 50
1.62412046E+02
 51
1.80000000E+02
  0
ARC
  8
0
 62
4
 10
-1.78044198E+02
 20
-2.40557706E+02
 40
2.57942282E+01
 50
2.54444375E-13
 51
1.75879541E+01
  0
ARC
  8
0
 62
4
 10
-1.59150691E+02
 20
-2.28866363E+02
 40
6.90072132E+00
 50
3.25615752E+02
 51
3.43842480E+01
  0
ARC
  8
0
 62
4
 10
-1.56349248E+02
 20
-2.28866363E+02
 40
6.90072132E+00
 50
1.45615752E+02
 51
2.14384248E+02
  0
LINE
  8
0
 62
4
 10
-1.53455741E+02
 20
-2.24969248E+02
 11
-1.52249969E+02
 21
-2.27057706E+02
  0
LINE
  8
0
 62
4
 10
-1.62044198E+02
 20
-2.24969248E+02
 11
-1.63249969E+02
 21
-2.27057706E+02
  0
LINE
  8
0
 62
4
 10
-1.62044198E+02
 20
-2.32763477E+02
 11
-1.53455741E+02
 21
-2.32763477E+02
  0
LINE
  8
0
 62
4
 10
-1.62044198E+02
 20
-2.24969248E+02
 11
-1.53455741E+02
 21
-2.24969248E+02
  0
ARC
  8
0
 62
4
 10
-1.71746362E+02
 20
-1.12307706E+02
 40
1.94963929E+01
 50
3.39743842E+02
 51
2.02561580E+01
  0
ARC
  8
0
 62
4
 10
-1.71746362E+02
 20
-9.88077056E+01
 40
1.94963929E+01
 50
3.39743842E+02
 51
2.02561580E+01
  0
ARC
  8
0
 62
4
 10
-1.43753577E+02
 20
-9.88077056E+01
 40
1.94963929E+01
 50
1.59743842E+02
 51
2.00256158E+02
  0
ARC
  8
0
 62
4
 10
-1.43753577E+02
 20
-1.12307706E+02
 40
1.94963929E+01
 50
1.59743842E+02
 51
2.00256158E+02
  0
LINE
  8
0
 62
4
 10
-1.53455741E+02
 20
-1.05557706E+02
 11
-1.62044198E+02
 21
-1.05557706E+02
  0
LINE
  8
0
 62
4
 10
-1.52249969E+02
 20
-1.19057706E+02
 11
-1.63249969E+02
 21
-1.19057706E+02
  0
LINE
  8
0
 62
4
 10
-1.52249969E+02
 20
-9.20577056E+01
 11
-1.63249969E+02
 21
-9.20577056E+01
  0
LINE
  8
0
 62
4
 10
-1.63249969E+02
 20
-9.20577056E+01
 11
-1.63249969E+02
 21
-1.19057706E+02
  0
LINE
  8
0
 62
4
 10
-1.52249969E+02
 20
-9.20577056E+01
 11
-1.52249969E+02
 21
-1.19057706E+02
  0
LINE
  8
0
 62
2
 10
-1.52249969E+02
 20
-2.32377713E+02
 11
-1.43249969E+02
 21
-2.32377713E+02
  0
LINE
  8
0
 62
7
 10
-1.52249969E+02
 20
-2.31557706E+02
 11
-1.43249969E+02
 21
-2.31557706E+02
  0
LINE
  8
0
 62
2
 10
-1.52249969E+02
 20
-1.13737698E+02
 11
-1.43249969E+02
 21
-1.13737698E+02
  0
LINE
  8
0
 62
7
 10
-1.52249969E+02
 20
-1.14557706E+02
 11
-1.43249969E+02
 21
-1.14557706E+02
  0
LINE
  8
0
 62
2
 10
-1.52249969E+02
 20
-9.73777129E+01
 11
-1.43249969E+02
 21
-9.73777129E+01
  0
LINE
  8
0
 62
7
 10
-1.52249969E+02
 20
-9.65577056E+01
 11
-1.43249969E+02
 21
-9.65577056E+01
  0
POLYLINE
  8
0
 62
7
 66
1
  0
VERTEX
  8
0
 62
7
 10
-1.34892303E+02
 20
-1.00082700E+02
  0
VERTEX
  8
0
 62
7
 10
-1.35249414E+02
 20
-1.00104741E+02
  0
VERTEX
  8
0
 62
7
 10
-1.35603651E+02
 20
-1.00170685E+02
  0
VERTEX
  8
0
 62
7
 10
-1.35952160E+02
 20
-1.00280003E+02
  0
VERTEX
  8
0
 62
7
 10
-1.36292135E+02
 20
-1.00431814E+02
  0
VERTEX
  8
0
 62
7
 10
-1.36620840E+02
 20
-1.00624896E+02
  0
VERTEX
  8
0
 62
7
 10
-1.36935628E+02
 20
-1.00857694E+02
  0
VERTEX
  8
0
 62
7
 10
-1.37233964E+02
 20
-1.01128333E+02
  0
VERTEX
  8
0
 62
7
 10
-1.37513446E+02
 20
-1.01434635E+02
  0
VERTEX
  8
0
 62
7
 10
-1.37771825E+02
 20
-1.01774134E+02
  0
VERTEX
  8
0
 62
7
 10
-1.38007019E+02
 20
-1.02144096E+02
  0
VERTEX
  8
0
 62
7
 10
-1.38217136E+02
 20
-1.02541542E+02
  0
VERTEX
  8
0
 62
7
 10
-1.38400482E+02
 20
-1.02963272E+02
  0
VERTEX
  8
0
 62
7
 10
-1.38555583E+02
 20
-1.03405892E+02
  0
VERTEX
  8
0
 62
7
 10
-1.38681190E+02
 20
-1.03865836E+02
  0
VERTEX
  8
0
 62
7
 10
-1.38776290E+02
 20
-1.04339403E+02
  0
VERTEX
  8
0
 62
7
 10
-1.38840119E+02
 20
-1.04822778E+02
  0
VERTEX
  8
0
 62
7
 10
-1.38872163E+02
 20
-1.05312071E+02
  0
VERTEX
  8
0
 62
7
 10
-1.38872163E+02
 20
-1.05803341E+02
  0
VERTEX
  8
0
 62
7
 10
-1.38840119E+02
 20
-1.06292634E+02
  0
VERTEX
  8
0
 62
7
 10
-1.38776290E+02
 20
-1.06776009E+02
  0
VERTEX
  8
0
 62
7
 10
-1.38681190E+02
 20
-1.07249576E+02
  0
VERTEX
  8
0
 62
7
 10
-1.38555583E+02
 20
-1.07709520E+02
  0
VERTEX
  8
0
 62
7
 10
-1.38400482E+02
 20
-1.08152140E+02
  0
VERTEX
  8
0
 62
7
 10
-1.38217136E+02
 20
-1.08573870E+02
  0
VERTEX
  8
0
 62
7
 10
-1.38007019E+02
 20
-1.08971316E+02
  0
VERTEX
  8
0
 62
7
 10
-1.37771825E+02
 20
-1.09341278E+02
  0
VERTEX
  8
0
 62
7
 10
-1.37513446E+02
 20
-1.09680777E+02
  0
VERTEX
  8
0
 62
7
 10
-1.37233964E+02
 20
-1.09987079E+02
  0
VERTEX
  8
0
 62
7
 10
-1.36935628E+02
 20
-1.10257718E+02
  0
VERTEX
  8
0
 62
7
 10
-1.36620840E+02
 20
-1.10490516E+02
  0
VERTEX
  8
0
 62
7
 10
-1.36292135E+02
 20
-1.10683598E+02
  0
VERTEX
  8
0
 62
7
 10
-1.35952160E+02
 20
-1.10835409E+02
  0
VERTEX
  8
0
 62
7
 10
-1.35603651E+02
 20
-1.10944726E+02
  0
VERTEX
  8
0
 62
7
 10
-1.35249415E+02
 20
-1.11010671E+02
  0
VERTEX
  8
0
 62
7
 10
-1.34892303E+02
 20
-1.11032712E+02
  0
SEQEND
  8
0
  0
POLYLINE
  8
0
 62
7
 66
1
  0
VERTEX
  8
0
 62
7
 10
-1.36874829E+02
 20
-9.53442056E+01
  0
VERTEX
  8
0
 62
7
 10
-1.37168753E+02
 20
-9.54627692E+01
  0
VERTEX
  8
0
 62
7
 10
-1.37445315E+02
 20
-9.55972142E+01
  0
VERTEX
  8
0
 62
7
 10
-1.37702408E+02
 20
-9.57465154E+01
  0
VERTEX
  8
0
 62
7
 10
-1.37938069E+02
 20
-9.59095341E+01
  0
VERTEX
  8
0
 62
7
 10
-1.38150502E+02
 20
-9.60850271E+01
  0
VERTEX
  8
0
 62
7
 10
-1.38338086E+02
 20
-9.62716560E+01
  0
VERTEX
  8
0
 62
7
 10
-1.38499391E+02
 20
-9.64679974E+01
  0
VERTEX
  8
0
 62
7
 10
-1.38633187E+02
 20
-9.66725540E+01
  0
VERTEX
  8
0
 62
7
 10
-1.38738453E+02
 20
-9.68837657E+01
  0
VERTEX
  8
0
 62
7
 10
-1.38814387E+02
 20
-9.71000218E+01
  0
VERTEX
  8
0
 62
7
 10
-1.38860409E+02
 20
-9.73196730E+01
  0
VERTEX
  8
0
 62
7
 10
-1.38876169E+02
 20
-9.75410441E+01
  0
VERTEX
  8
0
 62
7
 10
-1.38861546E+02
 20
-9.77624468E+01
  0
VERTEX
  8
0
 62
7
 10
-1.38816652E+02
 20
-9.79821926E+01
  0
VERTEX
  8
0
 62
7
 10
-1.38741829E+02
 20
-9.81986057E+01
  0
VERTEX
  8
0
 62
7
 10
-1.38637647E+02
 20
-9.84100356E+01
  0
VERTEX
  8
0
 62
7
 10
-1.38504903E+02
 20
-9.86148698E+01
  0
VERTEX
  8
0
 62
7
 10
-1.38344606E+02
 20
-9.88115462E+01
  0
VERTEX
  8
0
 62
7
 10
-1.38157981E+02
 20
-9.89985648E+01
  0
VERTEX
  8
0
 62
7
 10
-1.37946451E+02
 20
-9.91744994E+01
  0
VERTEX
  8
0
 62
7
 10
-1.37711628E+02
 20
-9.93380081E+01
  0
VERTEX
  8
0
 62
7
 10
-1.37455303E+02
 20
-9.94878440E+01
  0
VERTEX
  8
0
 62
7
 10
-1.37179433E+02
 20
-9.96228644E+01
  0
VERTEX
  8
0
 62
7
 10
-1.36886119E+02
 20
-9.97420396E+01
  0
VERTEX
  8
0
 62
7
 10
-1.36577600E+02
 20
-9.98444606E+01
  0
VERTEX
  8
0
 62
7
 10
-1.36256228E+02
 20
-9.99293464E+01
  0
VERTEX
  8
0
 62
7
 10
-1.35924453E+02
 20
-9.99960495E+01
  0
VERTEX
  8
0
 62
7
 10
-1.35584808E+02
 20
-1.00044061E+02
  0
VERTEX
  8
0
 62
7
 10
-1.35239881E+02
 20
-1.00073016E+02
  0
VERTEX
  8
0
 62
7
 10
-1.34892303E+02
 20
-1.00082692E+02
  0
SEQEND
  8
0
  0
POLYLINE
  8
0
 62
7
 66
1
  0
VERTEX
  8
0
 62
7
 10
-1.34892303E+02
 20
-1.11032720E+02
  0
VERTEX
  8
0
 62
7
 10
-1.35239881E+02
 20
-1.11042396E+02
  0
VERTEX
  8
0
 62
7
 10
-1.35584808E+02
 20
-1.11071350E+02
  0
VERTEX
  8
0
 62
7
 10
-1.35924454E+02
 20
-1.11119362E+02
  0
VERTEX
  8
0
 62
7
 10
-1.36256228E+02
 20
-1.11186065E+02
  0
VERTEX
  8
0
 62
7
 10
-1.36577600E+02
 20
-1.11270951E+02
  0
VERTEX
  8
0
 62
7
 10
-1.36886119E+02
 20
-1.11373372E+02
  0
VERTEX
  8
0
 62
7
 10
-1.37179433E+02
 20
-1.11492547E+02
  0
VERTEX
  8
0
 62
7
 10
-1.37455303E+02
 20
-1.11627567E+02
  0
VERTEX
  8
0
 62
7
 10
-1.37711628E+02
 20
-1.11777403E+02
  0
VERTEX
  8
0
 62
7
 10
-1.37946451E+02
 20
-1.11940912E+02
  0
VERTEX
  8
0
 62
7
 10
-1.38157981E+02
 20
-1.12116846E+02
  0
VERTEX
  8
0
 62
7
 10
-1.38344606E+02
 20
-1.12303865E+02
  0
VERTEX
  8
0
 62
7
 10
-1.38504903E+02
 20
-1.12500541E+02
  0
VERTEX
  8
0
 62
7
 10
-1.38637647E+02
 20
-1.12705376E+02
  0
VERTEX
  8
0
 62
7
 10
-1.38741829E+02
 20
-1.12916806E+02
  0
VERTEX
  8
0
 62
7
 10
-1.38816652E+02
 20
-1.13133219E+02
  0
VERTEX
  8
0
 62
7
 10
-1.38861546E+02
 20
-1.13352965E+02
  0
VERTEX
  8
0
 62
7
 10
-1.38876169E+02
 20
-1.13574367E+02
  0
VERTEX
  8
0
 62
7
 10
-1.38860409E+02
 20
-1.13795738E+02
  0
VERTEX
  8
0
 62
7
 10
-1.38814387E+02
 20
-1.14015389E+02
  0
VERTEX
  8
0
 62
7
 10
-1.38738453E+02
 20
-1.14231646E+02
  0
VERTEX
  8
0
 62
7
 10
-1.38633187E+02
 20
-1.14442857E+02
  0
VERTEX
  8
0
 62
7
 10
-1.38499391E+02
 20
-1.14647414E+02
  0
VERTEX
  8
0
 62
7
 10
-1.38338086E+02
 20
-1.14843755E+02
  0
VERTEX
  8
0
 62
7
 10
-1.38150502E+02
 20
-1.15030384E+02
  0
VERTEX
  8
0
 62
7
 10
-1.37938069E+02
 20
-1.15205877E+02
  0
VERTEX
  8
0
 62
7
 10
-1.37702408E+02
 20
-1.15368896E+02
  0
VERTEX
  8
0
 62
7
 10
-1.37445315E+02
 20
-1.15518197E+02
  0
VERTEX
  8
0
 62
7
 10
-1.37168753E+02
 20
-1.15652642E+02
  0
VERTEX
  8
0
 62
7
 10
-1.36874829E+02
 20
-1.15771206E+02
  0
SEQEND
  8
0
  0
POLYLINE
  8
0
 62
7
 66
1
  0
VERTEX
  8
0
 62
7
 10
-1.34892319E+02
 20
-2.31057706E+02
  0
VERTEX
  8
0
 62
7
 10
-1.35249429E+02
 20
-2.31076828E+02
  0
VERTEX
  8
0
 62
7
 10
-1.35603664E+02
 20
-2.31134040E+02
  0
VERTEX
  8
0
 62
7
 10
-1.35952172E+02
 20
-2.31228882E+02
  0
VERTEX
  8
0
 62
7
 10
-1.36292146E+02
 20
-2.31360590E+02
  0
VERTEX
  8
0
 62
7
 10
-1.36620849E+02
 20
-2.31528104E+02
  0
VERTEX
  8
0
 62
7
 10
-1.36935636E+02
 20
-2.31730074E+02
  0
VERTEX
  8
0
 62
7
 10
-1.37233971E+02
 20
-2.31964875E+02
  0
VERTEX
  8
0
 62
7
 10
-1.37513452E+02
 20
-2.32230617E+02
  0
VERTEX
  8
0
 62
7
 10
-1.37771830E+02
 20
-2.32525158E+02
  0
VERTEX
  8
0
 62
7
 10
-1.38007023E+02
 20
-2.32846129E+02
  0
VERTEX
  8
0
 62
7
 10
-1.38217139E+02
 20
-2.33190945E+02
  0
VERTEX
  8
0
 62
7
 10
-1.38400485E+02
 20
-2.33556830E+02
  0
VERTEX
  8
0
 62
7
 10
-1.38555585E+02
 20
-2.33940837E+02
  0
VERTEX
  8
0
 62
7
 10
-1.38681191E+02
 20
-2.34339875E+02
  0
VERTEX
  8
0
 62
7
 10
-1.38776292E+02
 20
-2.34750732E+02
  0
VERTEX
  8
0
 62
7
 10
-1.38840120E+02
 20
-2.35170098E+02
  0
VERTEX
  8
0
 62
7
 10
-1.38872164E+02
 20
-2.35594598E+02
  0
VERTEX
  8
0
 62
7
 10
-1.38872164E+02
 20
-2.36020814E+02
  0
VERTEX
  8
0
 62
7
 10
-1.38840120E+02
 20
-2.36445314E+02
  0
VERTEX
  8
0
 62
7
 10
-1.38776292E+02
 20
-2.36864680E+02
  0
VERTEX
  8
0
 62
7
 10
-1.38681191E+02
 20
-2.37275537E+02
  0
VERTEX
  8
0
 62
7
 10
-1.38555585E+02
 20
-2.37674575E+02
  0
VERTEX
  8
0
 62
7
 10
-1.38400485E+02
 20
-2.38058582E+02
  0
VERTEX
  8
0
 62
7
 10
-1.38217139E+02
 20
-2.38424467E+02
  0
VERTEX
  8
0
 62
7
 10
-1.38007023E+02
 20
-2.38769283E+02
  0
VERTEX
  8
0
 62
7
 10
-1.37771830E+02
 20
-2.39090254E+02
  0
VERTEX
  8
0
 62
7
 10
-1.37513452E+02
 20
-2.39384795E+02
  0
VERTEX
  8
0
 62
7
 10
-1.37233971E+02
 20
-2.39650537E+02
  0
VERTEX
  8
0
 62
7
 10
-1.36935636E+02
 20
-2.39885338E+02
  0
VERTEX
  8
0
 62
7
 10
-1.36620849E+02
 20
-2.40087308E+02
  0
VERTEX
  8
0
 62
7
 10
-1.36292146E+02
 20
-2.40254822E+02
  0
VERTEX
  8
0
 62
7
 10
-1.35952172E+02
 20
-2.40386530E+02
  0
VERTEX
  8
0
 62
7
 10
-1.35603664E+02
 20
-2.40481372E+02
  0
VERTEX
  8
0
 62
7
 10
-1.35249429E+02
 20
-2.40538584E+02
  0
VERTEX
  8
0
 62
7
 10
-1.34892319E+02
 20
-2.40557706E+02
  0
SEQEND
  8
0
  0
ARC
  8
0
 62
7
 10
6.15943909E+01
 20
-2.40557706E+02
 40
1.70000000E+01
 50
0.00000000E+00
 51
1.80000000E+02
  0
ARC
  8
0
 62
7
 10
6.15943909E+01
 20
-2.40557706E+02
 40
1.75294495E+01
 50
0.00000000E+00
 51
1.80000000E+02
  0
ARC
  8
0
 62
2
 10
6.15943909E+01
 20
-2.40557706E+02
 40
6.17999268E+00
 50
0.00000000E+00
 51
1.80000000E+02
  0
ARC
  8
0
 62
7
 10
6.15943909E+01
 20
-2.40557706E+02
 40
6.99998474E+00
 50
0.00000000E+00
 51
1.80000000E+02
  0
CIRCLE
  8
0
 62
2
 10
3.80943909E+01
 20
-2.17057736E+02
 40
3.00000000E+00
  0
CIRCLE
  8
0
 62
2
 10
8.50943909E+01
 20
-2.17057736E+02
 40
3.00000000E+00
  0
ARC
  8
0
 62
7
 10
6.15943909E+01
 20
-2.40557706E+02
 40
1.90000000E+01
 50
0.00000000E+00
 51
1.80000000E+02
  0
ARC
  8
0
 62
7
 10
8.85943909E+01
 20
-2.30026349E+02
 40
1.00000000E+00
 50
3.59721781E-05
 51
8.28192267E+01
  0
ARC
  8
0
 62
7
 10
8.51257629E+01
 20
-2.25057629E+02
 40
1.00000000E+00
 50
7.17900183E+00
 51
9.02255559E+01
  0
ARC
  8
0
 62
7
 10
7.70944519E+01
 20
-2.17026318E+02
 40
1.00000000E+00
 50
3.59775350E+02
 51
8.28192267E+01
  0
ARC
  8
0
 62
7
 10
7.21257629E+01
 20
-2.13557721E+02
 40
1.00000000E+00
 50
7.18159727E+00
 51
9.00000162E+01
  0
ARC
  8
0
 62
7
 10
7.60943909E+01
 20
-2.13057690E+02
 40
3.00000000E+00
 50
1.87181037E+02
 51
2.69999984E+02
  0
ARC
  8
0
 62
7
 10
8.90943909E+01
 20
-2.26057721E+02
 40
3.00000000E+00
 50
1.79999991E+02
 51
2.62819259E+02
  0
CIRCLE
  8
0
 62
7
 10
8.50943909E+01
 20
-2.17057690E+02
 40
4.50000000E+00
  0
ARC
  8
0
 62
7
 10
8.90943909E+01
 20
-2.13057751E+02
 40
3.50000000E+00
 50
2.23117997E-05
 51
8.99999750E+01
  0
ARC
  8
0
 62
7
 10
8.90943909E+01
 20
-2.13057751E+02
 40
3.00000000E+00
 50
2.23117997E-05
 51
8.99999750E+01
  0
ARC
  8
0
 62
7
 10
8.10313416E+01
 20
-2.23949139E+02
 40
1.00000000E+00
 50
5.94775673E+01
 51
1.34999386E+02
  0
ARC
  8
0
 62
7
 10
8.50943909E+01
 20
-2.17057690E+02
 40
7.00000000E+00
 50
1.79775319E+02
 51
2.70224577E+02
  0
ARC
  8
0
 62
7
 10
8.85943909E+01
 20
-2.38557706E+02
 40
1.00000000E+00
 50
2.70000052E+02
 51
3.59721781E-05
  0
ARC
  8
0
 62
7
 10
6.35943909E+01
 20
-2.20657986E+02
 40
1.00000000E+00
 50
1.80000036E+02
 51
2.64260384E+02
  0
ARC
  8
0
 62
7
 10
6.35943909E+01
 20
-2.13557736E+02
 40
1.00000000E+00
 50
9.00000025E+01
 51
1.80000046E+02
  0
ARC
  8
0
 62
7
 10
7.82029724E+01
 20
-2.21120709E+02
 40
1.00000000E+00
 50
3.15000662E+02
 51
3.05222541E+01
  0
CIRCLE
  8
0
 62
7
 10
8.50943909E+01
 20
-2.17057690E+02
 40
5.00000000E+00
  0
ARC
  8
0
 62
7
 10
8.14941711E+01
 20
-2.38557706E+02
 40
1.00000000E+00
 50
1.85739485E+02
 51
2.70000038E+02
  0
ARC
  8
0
 62
7
 10
7.42514343E+01
 20
-2.25072247E+02
 40
1.00000000E+00
 50
2.30739011E+02
 51
3.15000026E+02
  0
ARC
  8
0
 62
7
 10
7.70798645E+01
 20
-2.27900677E+02
 40
1.00000000E+00
 50
1.35000014E+02
 51
2.19261011E+02
  0
ARC
  8
0
 62
7
 10
5.10630188E+01
 20
-2.13557721E+02
 40
1.00000000E+00
 50
9.00000162E+01
 51
1.72818444E+02
  0
ARC
  8
0
 62
7
 10
4.70943909E+01
 20
-2.13057690E+02
 40
3.00000000E+00
 50
2.69999984E+02
 51
3.52818976E+02
  0
ARC
  8
0
 62
7
 10
4.60943909E+01
 20
-2.17026318E+02
 40
1.00000000E+00
 50
9.71808057E+01
 51
1.80224691E+02
  0
ARC
  8
0
 62
7
 10
3.80944519E+01
 20
-2.17057690E+02
 40
7.00000000E+00
 50
2.69775448E+02
 51
2.24721868E-01
  0
ARC
  8
0
 62
7
 10
3.80630798E+01
 20
-2.25057629E+02
 40
1.00000000E+00
 50
8.97744765E+01
 51
1.72821039E+02
  0
ARC
  8
0
 62
7
 10
3.40944519E+01
 20
-2.26057721E+02
 40
3.00000000E+00
 50
2.77180780E+02
 51
1.86693353E-05
  0
ARC
  8
0
 62
7
 10
3.45944519E+01
 20
-2.30026349E+02
 40
1.00000000E+00
 50
9.71808057E+01
 51
1.80000005E+02
  0
CIRCLE
  8
0
 62
7
 10
3.80943909E+01
 20
-2.17057736E+02
 40
4.50000000E+00
  0
ARC
  8
0
 62
7
 10
3.40944519E+01
 20
-2.13057706E+02
 40
3.50000000E+00
 50
9.00000162E+01
 51
1.80000005E+02
  0
ARC
  8
0
 62
7
 10
4.49858093E+01
 20
-2.21120755E+02
 40
1.00000000E+00
 50
1.49477556E+02
 51
2.24999381E+02
  0
ARC
  8
0
 62
7
 10
4.21573792E+01
 20
-2.23949155E+02
 40
1.00000000E+00
 50
4.50006569E+01
 51
1.20522253E+02
  0
CIRCLE
  8
0
 62
7
 10
3.80943909E+01
 20
-2.17057736E+02
 40
5.00000000E+00
  0
ARC
  8
0
 62
7
 10
5.95943909E+01
 20
-2.20657986E+02
 40
1.00000000E+00
 50
2.75739515E+02
 51
3.59721781E-05
  0
ARC
  8
0
 62
7
 10
5.95943909E+01
 20
-2.13557736E+02
 40
1.00000000E+00
 50
3.59721781E-05
 51
9.00000162E+01
  0
ARC
  8
0
 62
7
 10
3.40944519E+01
 20
-2.13057736E+02
 40
3.00000000E+00
 50
9.00000162E+01
 51
1.80000005E+02
  0
ARC
  8
0
 62
7
 10
3.45944519E+01
 20
-2.38557706E+02
 40
1.00000000E+00
 50
1.79999991E+02
 51
2.70000028E+02
  0
ARC
  8
0
 62
7
 10
4.16946716E+01
 20
-2.38557721E+02
 40
1.00000000E+00
 50
2.70000038E+02
 51
3.54260543E+02
  0
ARC
  8
0
 62
7
 10
4.89373474E+01
 20
-2.25072232E+02
 40
1.00000000E+00
 50
2.25000000E+02
 51
3.09261001E+02
  0
ARC
  8
0
 62
7
 10
4.61089172E+01
 20
-2.27900662E+02
 40
1.00000000E+00
 50
3.20739045E+02
 51
4.50000423E+01
  0
ARC
  8
0
 62
7
 10
-1.29750000E+02
 20
-2.24057736E+02
 40
5.00000000E-01
 50
8.99999818E+01
 51
1.79999964E+02
  0
ARC
  8
0
 62
7
 10
-1.25000000E+02
 20
-2.23549161E+02
 40
2.50000000E-01
 50
9.19988230E+01
 51
1.79999977E+02
  0
ARC
  8
0
 62
7
 10
-1.16750000E+02
 20
-2.22057706E+02
 40
5.00000000E-01
 50
8.99999818E+01
 51
1.79999964E+02
  0
ARC
  8
0
 62
2
 10
-2.77749969E+02
 20
-2.40557706E+02
 40
8.18000031E+00
 50
0.00000000E+00
 51
1.80000000E+02
  0
ARC
  8
0
 62
7
 10
-2.77749969E+02
 20
-2.40557706E+02
 40
8.99999237E+00
 50
0.00000000E+00
 51
1.80000000E+02
  0
CIRCLE
  8
0
 62
7
 10
-9.12500153E+01
 20
-1.17557736E+02
 40
2.59999990E+00
  0
ARC
  8
0
 62
2
 10
-9.72500458E+01
 20
-9.85577971E+01
 40
8.32999992E+00
 50
7.96256860E+01
 51
3.50075855E+02
  0
ARC
  8
0
 62
7
 10
-9.72500458E+01
 20
-9.85577971E+01
 40
7.44000006E+00
 50
7.83683038E+01
 51
3.48874384E+02
  0
ARC
  8
0
 62
7
 10
-9.72500458E+01
 20
-9.85577971E+01
 40
8.71000004E+00
 50
8.00829797E+01
 51
3.50512921E+02
  0
CIRCLE
  8
0
 62
2
 10
-2.54249969E+02
 20
-2.17057736E+02
 40
3.00000000E+00
  0
CIRCLE
  8
0
 62
2
 10
-3.01249969E+02
 20
-2.17057736E+02
 40
3.00000000E+00
  0
CIRCLE
  8
0
 62
7
 10
-9.12500153E+01
 20
-1.17557736E+02
 40
5.00000000E+00
  0
ARC
  8
0
 62
7
 10
-2.77749969E+02
 20
-2.40557706E+02
 40
1.70000000E+01
 50
0.00000000E+00
 51
1.80000000E+02
  0
ARC
  8
0
 62
7
 10
-2.77749969E+02
 20
-2.40557706E+02
 40
1.90000000E+01
 50
0.00000000E+00
 51
1.80000000E+02
  0
ARC
  8
0
 62
7
 10
-2.77749969E+02
 20
-2.40557706E+02
 40
1.75294495E+01
 50
0.00000000E+00
 51
1.80000000E+02
  0
ARC
  8
0
 62
7
 10
-3.04749969E+02
 20
-2.30026349E+02
 40
1.00000000E+00
 50
9.71807714E+01
 51
1.79999964E+02
  0
ARC
  8
0
 62
7
 10
-3.01281342E+02
 20
-2.25057629E+02
 40
1.00000000E+00
 50
8.97744422E+01
 51
1.72820998E+02
  0
ARC
  8
0
 62
7
 10
-2.93250031E+02
 20
-2.17026318E+02
 40
1.00000000E+00
 50
9.71807714E+01
 51
1.80224650E+02
  0
ARC
  8
0
 62
7
 10
-2.88281342E+02
 20
-2.13557721E+02
 40
1.00000000E+00
 50
8.99999818E+01
 51
1.72818402E+02
  0
ARC
  8
0
 62
7
 10
-2.92249969E+02
 20
-2.13057690E+02
 40
3.00000000E+00
 50
2.70000018E+02
 51
3.52818957E+02
  0
ARC
  8
0
 62
7
 10
-3.05249969E+02
 20
-2.26057721E+02
 40
3.00000000E+00
 50
2.77180753E+02
 51
0.00000000E+00
  0
CIRCLE
  8
0
 62
7
 10
-3.01249969E+02
 20
-2.17057690E+02
 40
4.50000000E+00
  0
ARC
  8
0
 62
7
 10
-3.05249969E+02
 20
-2.13057751E+02
 40
3.50000000E+00
 50
9.00000231E+01
 51
1.79999977E+02
  0
ARC
  8
0
 62
7
 10
-3.05249969E+02
 20
-2.13057751E+02
 40
3.00000000E+00
 50
9.00000231E+01
 51
1.79999977E+02
  0
ARC
  8
0
 62
7
 10
-2.97186920E+02
 20
-2.23949139E+02
 40
1.00000000E+00
 50
4.50006194E+01
 51
1.20522431E+02
  0
ARC
  8
0
 62
7
 10
-3.01249969E+02
 20
-2.17057690E+02
 40
7.00000000E+00
 50
2.69775421E+02
 51
2.24686703E-01
  0
ARC
  8
0
 62
7
 10
-3.04749969E+02
 20
-2.38557706E+02
 40
1.00000000E+00
 50
1.79999964E+02
 51
2.69999946E+02
  0
ARC
  8
0
 62
7
 10
-2.79749969E+02
 20
-2.20657986E+02
 40
1.00000000E+00
 50
2.75739617E+02
 51
3.59999959E+02
  0
ARC
  8
0
 62
7
 10
-2.79749969E+02
 20
-2.13557736E+02
 40
1.00000000E+00
 50
3.59999959E+02
 51
8.99999956E+01
  0
ARC
  8
0
 62
7
 10
-2.94358551E+02
 20
-2.21120709E+02
 40
1.00000000E+00
 50
1.49477747E+02
 51
2.24999340E+02
  0
CIRCLE
  8
0
 62
7
 10
-3.01249969E+02
 20
-2.17057690E+02
 40
5.00000000E+00
  0
ARC
  8
0
 62
7
 10
-2.97649750E+02
 20
-2.38557706E+02
 40
1.00000000E+00
 50
2.69999963E+02
 51
3.54260510E+02
  0
ARC
  8
0
 62
7
 10
-2.90407013E+02
 20
-2.25072247E+02
 40
1.00000000E+00
 50
2.24999972E+02
 51
3.09260983E+02
  0
ARC
  8
0
 62
7
 10
-2.93235443E+02
 20
-2.27900677E+02
 40
1.00000000E+00
 50
3.20738994E+02
 51
4.49999910E+01
  0
ARC
  8
0
 62
7
 10
-1.08250000E+02
 20
-1.25557736E+02
 40
2.00000000E+00
 50
1.79999981E+02
 51
2.70000018E+02
  0
ARC
  8
0
 62
7
 10
-1.08250000E+02
 20
-8.55577361E+01
 40
2.00000000E+00
 50
8.99999818E+01
 51
1.79999964E+02
  0
ARC
  8
0
 62
7
 10
-2.67218597E+02
 20
-2.13557721E+02
 40
1.00000000E+00
 50
7.18156141E+00
 51
8.99999818E+01
  0
ARC
  8
0
 62
7
 10
-2.63249969E+02
 20
-2.13057690E+02
 40
3.00000000E+00
 50
1.87181024E+02
 51
2.70000018E+02
  0
ARC
  8
0
 62
7
 10
-2.62249969E+02
 20
-2.17026318E+02
 40
1.00000000E+00
 50
3.59775314E+02
 51
8.28191923E+01
  0
ARC
  8
0
 62
7
 10
-2.54250031E+02
 20
-2.17057690E+02
 40
7.00000000E+00
 50
1.79775278E+02
 51
2.70224550E+02
  0
ARC
  8
0
 62
7
 10
-2.54218658E+02
 20
-2.25057629E+02
 40
1.00000000E+00
 50
7.17896597E+00
 51
9.02255215E+01
  0
ARC
  8
0
 62
7
 10
-2.50250031E+02
 20
-2.26057721E+02
 40
3.00000000E+00
 50
1.79999981E+02
 51
2.62819221E+02
  0
ARC
  8
0
 62
7
 10
-2.50750031E+02
 20
-2.30026349E+02
 40
1.00000000E+00
 50
0.00000000E+00
 51
8.28191923E+01
  0
CIRCLE
  8
0
 62
7
 10
-2.54249969E+02
 20
-2.17057736E+02
 40
4.50000000E+00
  0
ARC
  8
0
 62
7
 10
-2.50250031E+02
 20
-2.13057706E+02
 40
3.50000000E+00
 50
0.00000000E+00
 51
8.99999818E+01
  0
ARC
  8
0
 62
7
 10
-2.61141388E+02
 20
-2.21120755E+02
 40
1.00000000E+00
 50
3.15000624E+02
 51
3.05224488E+01
  0
ARC
  8
0
 62
7
 10
-2.58312958E+02
 20
-2.23949155E+02
 40
1.00000000E+00
 50
5.94777518E+01
 51
1.34999345E+02
  0
CIRCLE
  8
0
 62
7
 10
-2.54249969E+02
 20
-2.17057736E+02
 40
5.00000000E+00
  0
ARC
  8
0
 62
7
 10
-2.75749969E+02
 20
-2.20657986E+02
 40
1.00000000E+00
 50
1.79999964E+02
 51
2.64260484E+02
  0
ARC
  8
0
 62
7
 10
-2.75749969E+02
 20
-2.13557736E+02
 40
1.00000000E+00
 50
8.99999818E+01
 51
1.79999964E+02
  0
ARC
  8
0
 62
7
 10
-2.50250031E+02
 20
-2.13057736E+02
 40
3.00000000E+00
 50
0.00000000E+00
 51
8.99999818E+01
  0
ARC
  8
0
 62
7
 10
-2.50750031E+02
 20
-2.38557706E+02
 40
1.00000000E+00
 50
2.69999963E+02
 51
0.00000000E+00
  0
ARC
  8
0
 62
7
 10
-1.29750000E+02
 20
-1.22057675E+02
 40
5.00000000E-01
 50
1.79999981E+02
 51
2.69999963E+02
  0
ARC
  8
0
 62
7
 10
-1.25000000E+02
 20
-1.22566250E+02
 40
2.50000000E-01
 50
1.79999981E+02
 51
2.68001136E+02
  0
ARC
  8
0
 62
7
 10
-1.16750000E+02
 20
-1.24057706E+02
 40
5.00000000E-01
 50
1.79999981E+02
 51
2.69999963E+02
  0
ARC
  8
0
 62
7
 10
-2.57850250E+02
 20
-2.38557721E+02
 40
1.00000000E+00
 50
1.85739458E+02
 51
2.69999963E+02
  0
ARC
  8
0
 62
7
 10
-2.65092926E+02
 20
-2.25072232E+02
 40
1.00000000E+00
 50
2.30738998E+02
 51
3.14999995E+02
  0
ARC
  8
0
 62
7
 10
-2.62264496E+02
 20
-2.27900662E+02
 40
1.00000000E+00
 50
1.34999959E+02
 51
2.19260957E+02
  0
ARC
  8
0
 62
7
 10
-1.16750000E+02
 20
-8.70577056E+01
 40
5.00000000E-01
 50
8.99999818E+01
 51
1.79999964E+02
  0
ARC
  8
0
 62
7
 10
-1.25000000E+02
 20
-8.85491606E+01
 40
2.50000000E-01
 50
9.19988093E+01
 51
1.79999964E+02
  0
ARC
  8
0
 62
7
 10
-1.29750000E+02
 20
-8.90577361E+01
 40
5.00000000E-01
 50
8.99999818E+01
 51
1.79999964E+02
  0
LINE
  8
0
 62
7
 10
-1.43249969E+02
 20
-1.13737698E+02
 11
-1.40249969E+02
 21
-1.13737698E+02
  0
LINE
  8
0
 62
7
 10
-1.43249969E+02
 20
-9.73777129E+01
 11
-1.40249969E+02
 21
-9.73777129E+01
  0
LINE
  8
0
 62
7
 10
-1.43249969E+02
 20
-2.32377713E+02
 11
-1.40249969E+02
 21
-2.32377713E+02
  0
LINE
  8
0
 62
7
 10
-1.40249947E+02
 20
-2.31557742E+02
 11
-1.38876126E+02
 21
-2.31057712E+02
  0
LINE
  8
0
 62
7
 10
-1.40249950E+02
 20
-9.65577228E+01
 11
-1.34892299E+02
 21
-9.46076977E+01
  0
LINE
  8
0
 62
7
 10
-1.72249915E+02
 20
-2.33057836E+02
 11
-1.70749869E+02
 21
-2.31557836E+02
  0
LINE
  8
0
 62
2
 10
-1.71569916E+02
 20
-2.32377713E+02
 11
-1.63249969E+02
 21
-2.32377713E+02
  0
LINE
  8
0
 62
7
 10
-1.70749908E+02
 20
-2.31557706E+02
 11
-1.63249969E+02
 21
-2.31557706E+02
  0
LINE
  8
0
 62
7
 10
-1.43249969E+02
 20
-1.14557706E+02
 11
-1.43249969E+02
 21
-9.65577056E+01
  0
LINE
  8
0
 62
7
 10
-1.34892334E+02
 20
-9.46076933E+01
 11
-1.30250000E+02
 21
-9.46076933E+01
  0
LINE
  8
0
 62
7
 10
-1.34892319E+02
 20
-2.40557706E+02
 11
-1.30250000E+02
 21
-2.40557706E+02
  0
LINE
  8
0
 62
7
 10
-1.40249973E+02
 20
-1.14557695E+02
 11
-1.34892308E+02
 21
-1.16507726E+02
  0
LINE
  8
0
 62
7
 10
-1.70749969E+02
 20
-2.40557706E+02
 11
-1.70749969E+02
 21
-2.31557706E+02
  0
LINE
  8
0
 62
7
 10
-1.72249969E+02
 20
-2.40557706E+02
 11
-1.72249969E+02
 21
-2.33057858E+02
  0
LINE
  8
0
 62
7
 10
-1.43249969E+02
 20
-2.40557706E+02
 11
-1.43249969E+02
 21
-2.31557706E+02
  0
LINE
  8
0
 62
7
 10
-1.34892303E+02
 20
-1.00082699E+02
 11
-1.30250000E+02
 21
-1.00082699E+02
  0
LINE
  8
0
 62
7
 10
-1.34892303E+02
 20
-1.11032712E+02
 11
-1.30250000E+02
 21
-1.11032712E+02
  0
LINE
  8
0
 62
7
 10
-1.72249995E+02
 20
-1.13057636E+02
 11
-1.70749960E+02
 21
-1.14557625E+02
  0
LINE
  8
0
 62
2
 10
-1.71569916E+02
 20
-1.13737698E+02
 11
-1.63249969E+02
 21
-1.13737698E+02
  0
LINE
  8
0
 62
7
 10
-1.70749908E+02
 20
-1.14557706E+02
 11
-1.63249969E+02
 21
-1.14557706E+02
  0
LINE
  8
0
 62
7
 10
-1.72249923E+02
 20
-9.80578481E+01
 11
-1.70749877E+02
 21
-9.65578478E+01
  0
LINE
  8
0
 62
2
 10
-1.71569916E+02
 20
-9.73777129E+01
 11
-1.63249969E+02
 21
-9.73777129E+01
  0
LINE
  8
0
 62
7
 10
-1.70749908E+02
 20
-9.65577056E+01
 11
-1.63249969E+02
 21
-9.65577056E+01
  0
LINE
  8
0
 62
7
 10
-1.70749969E+02
 20
-1.14557706E+02
 11
-1.70749969E+02
 21
-9.65577056E+01
  0
LINE
  8
0
 62
7
 10
-1.72249969E+02
 20
-1.13057675E+02
 11
-1.72249969E+02
 21
-9.80578581E+01
  0
LINE
  8
0
 62
7
 10
-1.34892319E+02
 20
-1.16507718E+02
 11
-1.30250000E+02
 21
-1.16507718E+02
  0
LINE
  8
0
 62
7
 10
-1.38876175E+02
 20
-2.31057706E+02
 11
-1.30250000E+02
 21
-2.31057706E+02
  0
LINE
  8
0
 62
7
 10
-1.40249969E+02
 20
-1.14557690E+02
 11
-1.40249969E+02
 21
-9.65577056E+01
  0
LINE
  8
0
 62
7
 10
-1.40249969E+02
 20
-2.31557706E+02
 11
-1.40249969E+02
 21
-2.40557706E+02
  0
LINE
  8
0
 62
7
 10
8.50943905E+01
 20
-2.13593637E+02
 11
8.80943890E+01
 21
-2.15325687E+02
  0
LINE
  8
0
 62
7
 10
8.80943909E+01
 20
-2.15325680E+02
 11
8.80943909E+01
 21
-2.18789792E+02
  0
LINE
  8
0
 62
7
 10
8.80943926E+01
 20
-2.18789784E+02
 11
8.50943843E+01
 21
-2.20521840E+02
  0
LINE
  8
0
 62
7
 10
8.50943890E+01
 20
-2.20521839E+02
 11
8.20943905E+01
 21
-2.18789789E+02
  0
LINE
  8
0
 62
7
 10
8.20943909E+01
 20
-2.15325680E+02
 11
8.20943909E+01
 21
-2.18789792E+02
  0
LINE
  8
0
 62
7
 10
8.50943926E+01
 20
-2.13593632E+02
 11
8.20943843E+01
 21
-2.15325688E+02
  0
LINE
  8
0
 62
7
 10
3.80943890E+01
 20
-2.13593635E+02
 11
4.10943907E+01
 21
-2.15325687E+02
  0
LINE
  8
0
 62
7
 10
4.10943909E+01
 20
-2.15325680E+02
 11
4.10943909E+01
 21
-2.18789792E+02
  0
LINE
  8
0
 62
7
 10
4.10943869E+01
 20
-2.18789788E+02
 11
3.80943918E+01
 21
-2.20521836E+02
  0
LINE
  8
0
 62
7
 10
3.80943907E+01
 20
-2.20521839E+02
 11
3.50943890E+01
 21
-2.18789787E+02
  0
LINE
  8
0
 62
7
 10
3.50943909E+01
 20
-2.15325680E+02
 11
3.50943909E+01
 21
-2.18789792E+02
  0
LINE
  8
0
 62
7
 10
3.80943869E+01
 20
-2.13593636E+02
 11
3.50943918E+01
 21
-2.15325684E+02
  0
LINE
  8
0
  6
CENTER
 62
2
 10
6.85945129E+01
 20
-2.07372647E+02
 11
6.85945129E+01
 21
-2.19257916E+02
  0
LINE
  8
0
  6
CENTER
 62
2
 10
7.57073059E+01
 20
-2.17057736E+02
 11
9.48269958E+01
 21
-2.17057736E+02
  0
LINE
  8
0
  6
CENTER
 62
2
 10
2.69465027E+01
 20
-2.40557706E+02
 11
9.61094666E+01
 21
-2.40557706E+02
  0
LINE
  8
0
 62
7
 10
3.70943909E+01
 20
-2.24809354E+02
 11
3.70943909E+01
 21
-2.26057721E+02
  0
LINE
  8
0
 62
7
 10
4.58456726E+01
 20
-2.16057736E+02
 11
4.70943909E+01
 21
-2.16057736E+02
  0
LINE
  8
0
 62
7
 10
7.73428040E+01
 20
-2.16057660E+02
 11
7.60943909E+01
 21
-2.16057660E+02
  0
LINE
  8
0
 62
7
 10
8.60943909E+01
 20
-2.24809109E+02
 11
8.60943909E+01
 21
-2.26057721E+02
  0
LINE
  8
0
 62
7
 10
3.05944519E+01
 20
-2.40557706E+02
 11
3.05944519E+01
 21
-2.13057706E+02
  0
LINE
  8
0
 62
7
 10
3.35944519E+01
 20
-2.40557706E+02
 11
3.35944519E+01
 21
-2.30026349E+02
  0
LINE
  8
0
 62
7
 10
8.35943909E+01
 20
-2.09557706E+02
 11
8.35943909E+01
 21
-2.10057706E+02
  0
LINE
  8
0
 62
7
 10
3.95943909E+01
 20
-2.09557706E+02
 11
3.95943909E+01
 21
-2.10057736E+02
  0
LINE
  8
0
  6
CENTER
 62
2
 10
6.15943909E+01
 20
-2.05797055E+02
 11
6.15943909E+01
 21
-2.40557706E+02
  0
LINE
  8
0
 62
7
 10
3.10944519E+01
 20
-2.40557706E+02
 11
3.10944519E+01
 21
-2.13057736E+02
  0
LINE
  8
0
  6
CENTER
 62
2
 10
8.50943909E+01
 20
-2.07504025E+02
 11
8.50943909E+01
 21
-2.24942074E+02
  0
LINE
  8
0
 62
7
 10
9.25943909E+01
 20
-2.40557706E+02
 11
9.25943909E+01
 21
-2.13057736E+02
  0
LINE
  8
0
 62
7
 10
3.40944519E+01
 20
-2.09557706E+02
 11
8.90943909E+01
 21
-2.09557706E+02
  0
LINE
  8
0
 62
7
 10
8.95943909E+01
 20
-2.40557706E+02
 11
8.95943909E+01
 21
-2.30026349E+02
  0
LINE
  8
0
 62
7
 10
9.20943909E+01
 20
-2.40557706E+02
 11
9.20943909E+01
 21
-2.13057736E+02
  0
LINE
  8
0
 62
7
 10
8.85943909E+01
 20
-2.39557675E+02
 11
8.14941711E+01
 21
-2.39557675E+02
  0
LINE
  8
0
 62
7
 10
7.63728323E+01
 20
-2.27193658E+02
 11
8.03243700E+01
 21
-2.23242120E+02
  0
LINE
  8
0
 62
7
 10
7.49586188E+01
 20
-2.25779444E+02
 11
7.89101997E+01
 21
-2.21827864E+02
  0
LINE
  8
0
 62
7
 10
4.82304215E+01
 20
-2.25779174E+02
 11
4.42789047E+01
 21
-2.21827659E+02
  0
LINE
  8
0
 62
7
 10
4.68161867E+01
 20
-2.27193409E+02
 11
4.28646699E+01
 21
-2.23241894E+02
  0
LINE
  8
0
 62
7
 10
3.45944519E+01
 20
-2.39557721E+02
 11
4.16946716E+01
 21
-2.39557721E+02
  0
LINE
  8
0
  6
CENTER
 62
2
 10
2.81412659E+01
 20
-2.17057736E+02
 11
4.78438416E+01
 21
-2.17057736E+02
  0
LINE
  8
0
 62
7
 10
3.40944519E+01
 20
-2.10057736E+02
 11
8.90943909E+01
 21
-2.10057706E+02
  0
LINE
  8
0
 62
7
 10
6.05943909E+01
 20
-2.13557736E+02
 11
6.05943909E+01
 21
-2.20657986E+02
  0
LINE
  8
0
 62
7
 10
5.10630188E+01
 20
-2.12557721E+02
 11
7.21257629E+01
 21
-2.12557721E+02
  0
LINE
  8
0
 62
7
 10
6.25943909E+01
 20
-2.13557736E+02
 11
6.25943909E+01
 21
-2.20657956E+02
  0
LINE
  8
0
  6
CENTER
 62
2
 10
3.80943909E+01
 20
-2.07079465E+02
 11
3.80943909E+01
 21
-2.26782086E+02
  0
LINE
  8
0
  6
CENTER
 62
2
 10
-9.72501678E+01
 20
-2.07372647E+02
 11
-9.72501678E+01
 21
-2.19257916E+02
  0
LINE
  8
0
 62
7
 10
-1.10250000E+02
 20
-2.10212308E+02
 11
-1.10250000E+02
 21
-2.09557706E+02
  0
LINE
  8
0
 62
7
 10
-1.15250039E+02
 20
-2.10343201E+02
 11
-8.42499991E+01
 21
-2.09531436E+02
  0
LINE
  8
0
 62
7
 10
-1.10250000E+02
 20
-2.09557706E+02
 11
-8.42500000E+01
 21
-2.09557706E+02
  0
LINE
  8
0
 62
7
 10
-1.25008737E+02
 20
-2.23299208E+02
 11
-1.17250023E+02
 21
-2.23028268E+02
  0
LINE
  8
0
 62
7
 10
-1.25250000E+02
 20
-2.23557706E+02
 11
-1.25250000E+02
 21
-2.23549161E+02
  0
LINE
  8
0
 62
7
 10
-1.29750000E+02
 20
-2.23557706E+02
 11
-1.25241455E+02
 21
-2.23557706E+02
  0
LINE
  8
0
 62
7
 10
-1.16750000E+02
 20
-2.21557706E+02
 11
-1.15250000E+02
 21
-2.21557706E+02
  0
LINE
  8
0
  6
CENTER
 62
2
 10
-2.02948730E+01
 20
-2.17057721E+02
 11
-1.17353455E+02
 21
-2.17057721E+02
  0
LINE
  8
0
  6
CENTER
 62
2
 10
-2.84750092E+02
 20
-2.07372647E+02
 11
-2.84750092E+02
 21
-2.19257916E+02
  0
LINE
  8
0
 62
7
 10
-1.87648984E+01
 20
-7.94077269E+01
 11
-6.12499945E+01
 21
-7.94077269E+01
  0
LINE
  8
0
 62
7
 10
-2.18248477E+01
 20
-8.47077147E+01
 11
-6.12499945E+01
 21
-8.47077147E+01
  0
LINE
  8
0
  6
CENTER
 62
2
 10
-2.02948731E+01
 20
-8.20577208E+01
 11
-6.12499945E+01
 21
-8.20577208E+01
  0
LINE
  8
0
 62
7
 10
-1.82741559E+01
 20
-7.85577361E+01
 11
-6.12499945E+01
 21
-7.85577361E+01
  0
LINE
  8
0
 62
7
 10
-8.95179446E+01
 20
-1.17557784E+02
 11
-9.03839685E+01
 21
-1.19057790E+02
  0
LINE
  8
0
 62
7
 10
-9.03839874E+01
 20
-1.19057767E+02
 11
-9.21159821E+01
 21
-1.19057767E+02
  0
LINE
  8
0
 62
7
 10
-9.21159570E+01
 20
-1.19057805E+02
 11
-9.29819962E+01
 21
-1.17557773E+02
  0
LINE
  8
0
 62
7
 10
-9.29819652E+01
 20
-1.17557775E+02
 11
-9.21159565E+01
 21
-1.16057794E+02
  0
LINE
  8
0
 62
7
 10
-9.03839874E+01
 20
-1.16057736E+02
 11
-9.21159821E+01
 21
-1.16057736E+02
  0
LINE
  8
0
 62
7
 10
-8.95179293E+01
 20
-1.17557737E+02
 11
-9.03839532E+01
 21
-1.16057730E+02
  0
LINE
  8
0
  6
CENTER
 62
2
 10
-4.74303181E+01
 20
-1.29057690E+02
 11
-1.17353455E+02
 21
-1.29057690E+02
  0
LINE
  8
0
 62
7
 10
-1.25250000E+02
 20
-2.23557706E+02
 11
-1.25250000E+02
 21
-2.40557706E+02
  0
LINE
  8
0
  6
CENTER
 62
2
 10
-2.91862885E+02
 20
-2.17057736E+02
 11
-3.10982574E+02
 21
-2.17057736E+02
  0
LINE
  8
0
  6
CENTER
 62
2
 10
-2.43102081E+02
 20
-2.40557706E+02
 11
-3.12265045E+02
 21
-2.40557706E+02
  0
LINE
  8
0
 62
7
 10
-2.53249969E+02
 20
-2.24809354E+02
 11
-2.53249969E+02
 21
-2.26057721E+02
  0
LINE
  8
0
 62
7
 10
-2.62001251E+02
 20
-2.16057736E+02
 11
-2.63249969E+02
 21
-2.16057736E+02
  0
LINE
  8
0
 62
7
 10
-2.93498383E+02
 20
-2.16057660E+02
 11
-2.92249969E+02
 21
-2.16057660E+02
  0
LINE
  8
0
 62
7
 10
-3.02249969E+02
 20
-2.24809109E+02
 11
-3.02249969E+02
 21
-2.26057721E+02
  0
LINE
  8
0
 62
7
 10
-1.04058395E+02
 20
-9.55577971E+01
 11
-9.57499945E+01
 21
-9.55577971E+01
  0
LINE
  8
0
 62
7
 10
-2.47250031E+02
 20
-2.40557706E+02
 11
-2.47250031E+02
 21
-2.13057736E+02
  0
LINE
  8
0
 62
7
 10
-2.99749969E+02
 20
-2.09557706E+02
 11
-2.99749969E+02
 21
-2.10057706E+02
  0
LINE
  8
0
 62
7
 10
-2.55749969E+02
 20
-2.09557706E+02
 11
-2.55749969E+02
 21
-2.10057736E+02
  0
LINE
  8
0
 62
7
 10
-2.49750031E+02
 20
-2.40557706E+02
 11
-2.49750031E+02
 21
-2.30026349E+02
  0
LINE
  8
0
  6
CENTER
 62
2
 10
-2.77749969E+02
 20
-2.05797055E+02
 11
-2.77749969E+02
 21
-2.40557706E+02
  0
LINE
  8
0
 62
7
 10
-2.46750031E+02
 20
-2.40557706E+02
 11
-2.46750031E+02
 21
-2.13057706E+02
  0
LINE
  8
0
 62
7
 10
-8.42500000E+01
 20
-2.09557706E+02
 11
-8.42500000E+01
 21
-2.40557706E+02
  0
LINE
  8
0
  6
CENTER
 62
2
 10
-3.01249969E+02
 20
-2.07504025E+02
 11
-3.01249969E+02
 21
-2.24942074E+02
  0
LINE
  8
0
 62
7
 10
-3.08749969E+02
 20
-2.40557706E+02
 11
-3.08749969E+02
 21
-2.13057736E+02
  0
LINE
  8
0
 62
7
 10
-3.05749969E+02
 20
-2.40557706E+02
 11
-3.05749969E+02
 21
-2.30026349E+02
  0
LINE
  8
0
 62
7
 10
-3.05249969E+02
 20
-2.10057706E+02
 11
-2.50250031E+02
 21
-2.10057736E+02
  0
LINE
  8
0
 62
7
 10
-3.08249969E+02
 20
-2.40557706E+02
 11
-3.08249969E+02
 21
-2.13057736E+02
  0
LINE
  8
0
 62
7
 10
-3.04749969E+02
 20
-2.39557675E+02
 11
-2.97649750E+02
 21
-2.39557675E+02
  0
LINE
  8
0
 62
7
 10
-2.92528415E+02
 20
-2.27193659E+02
 11
-2.96479952E+02
 21
-2.23242122E+02
  0
LINE
  8
0
 62
7
 10
-2.91114201E+02
 20
-2.25779446E+02
 11
-2.95065782E+02
 21
-2.21827865E+02
  0
LINE
  8
0
 62
7
 10
-1.15250000E+02
 20
-2.10343197E+02
 11
-1.15250000E+02
 21
-2.40557706E+02
  0
LINE
  8
0
 62
7
 10
-1.17250000E+02
 20
-2.22057706E+02
 11
-1.17250000E+02
 21
-2.40557706E+02
  0
LINE
  8
0
 62
7
 10
-1.30250000E+02
 20
-2.24057736E+02
 11
-1.30250000E+02
 21
-2.40557706E+02
  0
LINE
  8
0
 62
7
 10
-1.08250000E+02
 20
-1.27557736E+02
 11
-8.42500000E+01
 21
-1.27557736E+02
  0
LINE
  8
0
 62
7
 10
-1.08250000E+02
 20
-8.35577361E+01
 11
-8.42500000E+01
 21
-8.35577361E+01
  0
LINE
  8
0
 62
7
 10
-1.15250030E+02
 20
-1.35772160E+02
 11
-8.42500054E+01
 21
-1.36583924E+02
  0
LINE
  8
0
 62
7
 10
-8.42500000E+01
 20
-7.45314452E+01
 11
-8.42500000E+01
 21
-8.67434245E+01
  0
LINE
  8
0
  6
CENTER
 62
2
 10
-1.06660172E+02
 20
-9.85577971E+01
 11
-9.57499945E+01
 21
-9.85577971E+01
  0
LINE
  8
0
  6
CENTER
 62
2
 10
-9.72500458E+01
 20
-1.09799832E+02
 11
-9.72500458E+01
 21
-8.62134215E+01
  0
LINE
  8
0
 62
7
 10
-1.10250000E+02
 20
-1.25557736E+02
 11
-1.10250000E+02
 21
-8.55577361E+01
  0
LINE
  8
0
 62
7
 10
-1.15250003E+02
 20
-7.53430993E+01
 11
-8.42499791E+01
 21
-7.45313351E+01
  0
LINE
  8
0
  6
CENTER
 62
2
 10
-1.00095276E+02
 20
-1.17557736E+02
 11
-8.26207581E+01
 21
-1.17557736E+02
  0
LINE
  8
0
  6
CENTER
 62
2
 10
-9.12500153E+01
 20
-1.25028866E+02
 11
-9.12500153E+01
 21
-1.08439862E+02
  0
LINE
  8
0
 62
7
 10
-1.15250000E+02
 20
-7.53432128E+01
 11
-1.15250000E+02
 21
-1.35772122E+02
  0
LINE
  8
0
 62
7
 10
-2.88281342E+02
 20
-2.12557721E+02
 11
-2.67218597E+02
 21
-2.12557721E+02
  0
LINE
  8
0
  6
CENTER
 62
2
 10
-2.44296844E+02
 20
-2.17057736E+02
 11
-2.63999420E+02
 21
-2.17057736E+02
  0
LINE
  8
0
  6
CENTER
 62
2
 10
-2.54249969E+02
 20
-2.07079465E+02
 11
-2.54249969E+02
 21
-2.26782086E+02
  0
LINE
  8
0
 62
7
 10
-3.05249969E+02
 20
-2.09557706E+02
 11
-2.50250031E+02
 21
-2.09557706E+02
  0
LINE
  8
0
 62
7
 10
-2.76749969E+02
 20
-2.13557736E+02
 11
-2.76749969E+02
 21
-2.20657986E+02
  0
LINE
  8
0
 62
7
 10
-2.78749969E+02
 20
-2.13557736E+02
 11
-2.78749969E+02
 21
-2.20657986E+02
  0
LINE
  8
0
 62
7
 10
-1.25008754E+02
 20
-1.22816125E+02
 11
-1.17250055E+02
 21
-1.23087064E+02
  0
LINE
  8
0
 62
7
 10
-1.25250000E+02
 20
-1.22557706E+02
 11
-1.25250000E+02
 21
-1.22566250E+02
  0
LINE
  8
0
 62
7
 10
-1.29750000E+02
 20
-1.22557706E+02
 11
-1.25241455E+02
 21
-1.22557706E+02
  0
LINE
  8
0
 62
7
 10
-1.16750000E+02
 20
-1.24557706E+02
 11
-1.15250000E+02
 21
-1.24557706E+02
  0
LINE
  8
0
 62
7
 10
-1.30250000E+02
 20
-8.90577361E+01
 11
-1.30250000E+02
 21
-1.22057675E+02
  0
LINE
  8
0
 62
7
 10
-2.50750031E+02
 20
-2.39557721E+02
 11
-2.57850250E+02
 21
-2.39557721E+02
  0
LINE
  8
0
 62
7
 10
-2.62971767E+02
 20
-2.27193412E+02
 11
-2.59020250E+02
 21
-2.23241896E+02
  0
LINE
  8
0
 62
7
 10
-2.64386002E+02
 20
-2.25779176E+02
 11
-2.60434485E+02
 21
-2.21827661E+02
  0
LINE
  8
0
 62
7
 10
-1.25008727E+02
 20
-8.82991174E+01
 11
-1.17250028E+02
 21
-8.80281776E+01
  0
LINE
  8
0
 62
7
 10
-1.25250000E+02
 20
-8.85577056E+01
 11
-1.25250000E+02
 21
-8.85491606E+01
  0
LINE
  8
0
 62
7
 10
-1.29750000E+02
 20
-8.85577056E+01
 11
-1.25241455E+02
 21
-8.85577056E+01
  0
LINE
  8
0
 62
7
 10
-1.16750000E+02
 20
-8.65577056E+01
 11
-1.15250000E+02
 21
-8.65577056E+01
  0
LINE
  8
0
 62
7
 10
-1.25249985E+02
 20
-8.85576750E+01
 11
-1.25249985E+02
 21
-1.22557675E+02
  0
LINE
  8
0
 62
7
 10
-1.17249985E+02
 20
-8.70577056E+01
 11
-1.17249985E+02
 21
-1.24057675E+02
  0
LINE
  8
0
  6
CENTER
 62
2
 10
-1.76023193E+02
 20
-2.40557706E+02
 11
-3.38625955E+01
 21
-2.40557706E+02
  0
LINE
  8
0
  6
CENTER
 62
2
 10
-1.75283264E+02
 20
-1.05557706E+02
 11
-8.07499945E+01
 21
-1.05557706E+02
  0
LINE
  8
0
  6
CENTER
 62
2
 10
-4.17499945E+01
 20
-1.05557706E+02
 11
-3.38625956E+01
 21
-1.05557706E+02
  0
LINE
  8
0
 62
2
 10
-5.34082008E+01
 20
-1.39411687E+02
 11
-1.50694584E+01
 21
-7.30070372E+01
  0
LINE
  8
0
  6
CENTER
 62
2
 10
-7.62499945E+01
 20
-8.20577208E+01
 11
-1.17353455E+02
 21
-8.20577208E+01
  0
LINE
  8
0
 62
7
 10
2.78438820E+02
 20
-2.10343201E+02
 11
2.47438781E+02
 21
-2.09531436E+02
  0
LINE
  8
0
 62
7
 10
2.73438782E+02
 20
-2.09557706E+02
 11
2.47438782E+02
 21
-2.09557706E+02
  0
LINE
  8
0
  6
CENTER
 62
2
 10
1.79442220E+02
 20
-2.17057721E+02
 11
2.24438782E+02
 21
-2.17057721E+02
  0
LINE
  8
0
  6
CENTER
 62
2
 10
3.39211975E+02
 20
-2.40557706E+02
 11
1.65874498E+02
 21
-2.40557706E+02
  0
LINE
  8
0
 62
7
 10
2.93438782E+02
 20
-2.24057736E+02
 11
2.93438782E+02
 21
-2.40557706E+02
  0
LINE
  8
0
 62
7
 10
2.80438782E+02
 20
-2.22057706E+02
 11
2.80438782E+02
 21
-2.40557706E+02
  0
LINE
  8
0
 62
7
 10
2.78438782E+02
 20
-2.10343197E+02
 11
2.78438782E+02
 21
-2.40557706E+02
  0
LINE
  8
0
 62
7
 10
2.88438782E+02
 20
-2.23557706E+02
 11
2.88438782E+02
 21
-2.40557706E+02
  0
LINE
  8
0
 62
7
 10
2.79938782E+02
 20
-2.21557706E+02
 11
2.78438782E+02
 21
-2.21557706E+02
  0
LINE
  8
0
 62
7
 10
2.92938782E+02
 20
-2.23557706E+02
 11
2.88430237E+02
 21
-2.23557706E+02
  0
LINE
  8
0
 62
7
 10
2.88438782E+02
 20
-2.23557706E+02
 11
2.88438782E+02
 21
-2.23549161E+02
  0
LINE
  8
0
 62
7
 10
2.88197519E+02
 20
-2.23299208E+02
 11
2.80438805E+02
 21
-2.23028268E+02
  0
LINE
  8
0
 62
7
 10
2.73438782E+02
 20
-2.10212308E+02
 11
2.73438782E+02
 21
-2.09557706E+02
  0
LINE
  8
0
  6
CENTER
 62
2
 10
2.60438950E+02
 20
-2.07372647E+02
 11
2.60438950E+02
 21
-2.19257916E+02
  0
LINE
  8
0
 62
7
 10
3.03438751E+02
 20
-2.31557706E+02
 11
3.03438751E+02
 21
-2.40557706E+02
  0
LINE
  8
0
 62
7
 10
3.02064957E+02
 20
-2.31057706E+02
 11
2.93438782E+02
 21
-2.31057706E+02
  0
LINE
  8
0
 62
7
 10
3.06438751E+02
 20
-2.40557706E+02
 11
3.06438751E+02
 21
-2.31557706E+02
  0
LINE
  8
0
 62
7
 10
3.35438751E+02
 20
-2.40557706E+02
 11
3.35438751E+02
 21
-2.33057858E+02
  0
LINE
  8
0
 62
7
 10
3.33938751E+02
 20
-2.40557706E+02
 11
3.33938751E+02
 21
-2.31557706E+02
  0
LINE
  8
0
 62
7
 10
2.98081100E+02
 20
-2.40557706E+02
 11
2.93438782E+02
 21
-2.40557706E+02
  0
LINE
  8
0
 62
7
 10
3.33938690E+02
 20
-2.31557706E+02
 11
3.26438751E+02
 21
-2.31557706E+02
  0
LINE
  8
0
 62
2
 10
3.34758698E+02
 20
-2.32377713E+02
 11
3.26438751E+02
 21
-2.32377713E+02
  0
LINE
  8
0
 62
7
 10
3.35438697E+02
 20
-2.33057836E+02
 11
3.33938651E+02
 21
-2.31557836E+02
  0
LINE
  8
0
 62
7
 10
3.03438729E+02
 20
-2.31557742E+02
 11
3.02064908E+02
 21
-2.31057712E+02
  0
LINE
  8
0
 62
7
 10
3.06438751E+02
 20
-2.32377713E+02
 11
3.03438751E+02
 21
-2.32377713E+02
  0
ARC
  8
0
 62
7
 10
2.79938782E+02
 20
-2.22057706E+02
 40
5.00000000E-01
 50
3.59721787E-05
 51
9.00000179E+01
  0
ARC
  8
0
 62
7
 10
2.88188782E+02
 20
-2.23549161E+02
 40
2.50000000E-01
 50
2.23118003E-05
 51
8.80011768E+01
  0
ARC
  8
0
 62
7
 10
2.92938782E+02
 20
-2.24057736E+02
 40
5.00000000E-01
 50
3.59721787E-05
 51
9.00000179E+01
  0
POLYLINE
  8
0
 62
7
 66
1
  0
VERTEX
  8
0
 62
7
 10
2.98081100E+02
 20
-2.40557706E+02
  0
VERTEX
  8
0
 62
7
 10
2.98438210E+02
 20
-2.40538584E+02
  0
VERTEX
  8
0
 62
7
 10
2.98792445E+02
 20
-2.40481372E+02
  0
VERTEX
  8
0
 62
7
 10
2.99140953E+02
 20
-2.40386530E+02
  0
VERTEX
  8
0
 62
7
 10
2.99480927E+02
 20
-2.40254822E+02
  0
VERTEX
  8
0
 62
7
 10
2.99809630E+02
 20
-2.40087308E+02
  0
VERTEX
  8
0
 62
7
 10
3.00124417E+02
 20
-2.39885338E+02
  0
VERTEX
  8
0
 62
7
 10
3.00422752E+02
 20
-2.39650537E+02
  0
VERTEX
  8
0
 62
7
 10
3.00702233E+02
 20
-2.39384795E+02
  0
VERTEX
  8
0
 62
7
 10
3.00960611E+02
 20
-2.39090254E+02
  0
VERTEX
  8
0
 62
7
 10
3.01195804E+02
 20
-2.38769283E+02
  0
VERTEX
  8
0
 62
7
 10
3.01405920E+02
 20
-2.38424467E+02
  0
VERTEX
  8
0
 62
7
 10
3.01589266E+02
 20
-2.38058582E+02
  0
VERTEX
  8
0
 62
7
 10
3.01744366E+02
 20
-2.37674575E+02
  0
VERTEX
  8
0
 62
7
 10
3.01869972E+02
 20
-2.37275537E+02
  0
VERTEX
  8
0
 62
7
 10
3.01965073E+02
 20
-2.36864680E+02
  0
VERTEX
  8
0
 62
7
 10
3.02028901E+02
 20
-2.36445314E+02
  0
VERTEX
  8
0
 62
7
 10
3.02060945E+02
 20
-2.36020814E+02
  0
VERTEX
  8
0
 62
7
 10
3.02060945E+02
 20
-2.35594598E+02
  0
VERTEX
  8
0
 62
7
 10
3.02028901E+02
 20
-2.35170098E+02
  0
VERTEX
  8
0
 62
7
 10
3.01965073E+02
 20
-2.34750732E+02
  0
VERTEX
  8
0
 62
7
 10
3.01869972E+02
 20
-2.34339875E+02
  0
VERTEX
  8
0
 62
7
 10
3.01744366E+02
 20
-2.33940837E+02
  0
VERTEX
  8
0
 62
7
 10
3.01589266E+02
 20
-2.33556830E+02
  0
VERTEX
  8
0
 62
7
 10
3.01405920E+02
 20
-2.33190945E+02
  0
VERTEX
  8
0
 62
7
 10
3.01195804E+02
 20
-2.32846129E+02
  0
VERTEX
  8
0
 62
7
 10
3.00960611E+02
 20
-2.32525158E+02
  0
VERTEX
  8
0
 62
7
 10
3.00702233E+02
 20
-2.32230617E+02
  0
VERTEX
  8
0
 62
7
 10
3.00422752E+02
 20
-2.31964875E+02
  0
VERTEX
  8
0
 62
7
 10
3.00124417E+02
 20
-2.31730074E+02
  0
VERTEX
  8
0
 62
7
 10
2.99809630E+02
 20
-2.31528104E+02
  0
VERTEX
  8
0
 62
7
 10
2.99480927E+02
 20
-2.31360590E+02
  0
VERTEX
  8
0
 62
7
 10
2.99140953E+02
 20
-2.31228882E+02
  0
VERTEX
  8
0
 62
7
 10
2.98792445E+02
 20
-2.31134040E+02
  0
VERTEX
  8
0
 62
7
 10
2.98438210E+02
 20
-2.31076828E+02
  0
VERTEX
  8
0
 62
7
 10
2.98081100E+02
 20
-2.31057706E+02
  0
SEQEND
  8
0
  0
LINE
  8
0
 62
7
 10
3.15438751E+02
 20
-2.31557706E+02
 11
3.06438751E+02
 21
-2.31557706E+02
  0
LINE
  8
0
 62
2
 10
3.15438751E+02
 20
-2.32377713E+02
 11
3.06438751E+02
 21
-2.32377713E+02
  0
LINE
  8
0
 62
4
 10
3.25232980E+02
 20
-2.24969248E+02
 11
3.16644523E+02
 21
-2.24969248E+02
  0
LINE
  8
0
 62
4
 10
3.25232980E+02
 20
-2.32763477E+02
 11
3.16644523E+02
 21
-2.32763477E+02
  0
LINE
  8
0
 62
4
 10
3.25232980E+02
 20
-2.24969248E+02
 11
3.26438751E+02
 21
-2.27057706E+02
  0
LINE
  8
0
 62
4
 10
3.16644523E+02
 20
-2.24969248E+02
 11
3.15438751E+02
 21
-2.27057706E+02
  0
ARC
  8
0
 62
4
 10
3.19538030E+02
 20
-2.28866363E+02
 40
6.90072132E+00
 50
3.25615752E+02
 51
3.43842480E+01
  0
ARC
  8
0
 62
4
 10
3.22339473E+02
 20
-2.28866363E+02
 40
6.90072132E+00
 50
1.45615752E+02
 51
2.14384248E+02
  0
ARC
  8
0
 62
4
 10
3.41232979E+02
 20
-2.40557706E+02
 40
2.57942282E+01
 50
1.62412046E+02
 51
1.80000000E+02
  0
ARC
  8
0
 62
4
 10
3.00644523E+02
 20
-2.40557706E+02
 40
2.57942282E+01
 50
2.54444375E-13
 51
1.75879541E+01
  0
LINE
  8
0
 62
4
 10
3.26438751E+02
 20
-2.40557706E+02
 11
3.26438751E+02
 21
-2.27057706E+02
  0
LINE
  8
0
 62
4
 10
3.15438751E+02
 20
-2.40557706E+02
 11
3.15438751E+02
 21
-2.27057706E+02
  0
LINE
  8
0
 62
7
 10
2.47438782E+02
 20
-2.09557706E+02
 11
2.47438782E+02
 21
-2.40557706E+02
  0
LINE
  8
0
 62
7
 10
1.77912246E+02
 20
-2.19707715E+02
 11
2.24438782E+02
 21
-2.19707715E+02
  0
LINE
  8
0
 62
7
 10
1.81462938E+02
 20
-2.13557736E+02
 11
2.07938782E+02
 21
-2.13557736E+02
  0
LINE
  8
0
 62
7
 10
1.80972195E+02
 20
-2.14407727E+02
 11
2.24438782E+02
 21
-2.14407727E+02
  0
LINE
  8
0
 62
2
 10
1.63253265E+02
 20
-2.45097814E+02
 11
1.83960529E+02
 21
-2.09231780E+02
  0
LINE
  8
0
 62
7
 10
2.40938782E+02
 20
-2.13557736E+02
 11
2.47438782E+02
 21
-2.13557736E+02
  0
LINE
  8
0
 62
7
 10
2.39438782E+02
 20
-2.14407727E+02
 11
2.47438782E+02
 21
-2.14407727E+02
  0
LINE
  8
0
 62
7
 10
2.39438782E+02
 20
-2.19707715E+02
 11
2.47438782E+02
 21
-2.19707715E+02
  0
LINE
  8
0
  6
CENTER
 62
2
 10
2.39438782E+02
 20
-2.17057721E+02
 11
2.80542236E+02
 21
-2.17057721E+02
  0
TEXT
  8
0
 10
-7.24502888E+01
 20
2.44478397E+02
 40
6.30000019E+00
  1
STRETCH LINE A
 41
1.09375016E+00
  7
MONOTXT
  0
LINE
  8
0
 62
7
 10
2.79799927E+02
 20
-2.56750000E+02
 11
3.99799805E+02
 21
-2.56750000E+02
  0
LINE
  8
0
 62
7
 10
2.79799927E+02
 20
-2.56750000E+02
 11
2.79799927E+02
 21
-2.76750000E+02
  0
TEXT
  8
0
 62
7
 10
2.87585240E+02
 20
-2.71250000E+02
 40
9.00000000E+00
  1
KOGANEI CORP.
 41
1.04838710E+00
  7
MONOTXT
  0
TEXT
  8
0
 62
7
 10
3.15499641E+02
 20
2.63100000E+02
 40
6.30000019E+00
  1
Ver. 1.0
 41
1.08108124E+00
  7
MONOTXT
  0
LINE
  8
0
 62
7
 10
2.79799927E+02
 20
2.56250000E+02
 11
3.99799805E+02
 21
2.56250000E+02
  0
LINE
  8
0
 62
7
 10
2.79799927E+02
 20
2.76250000E+02
 11
2.79799927E+02
 21
2.56250000E+02
  0
TEXT
  8
0
 62
7
 10
-3.85600562E+02
 20
2.38100000E+02
 40
6.30000019E+00
  1
MODEL:DDADL50*75
 41
1.00000015E+00
  7
MONOTXT
  0
LINE
  8
0
 62
7
 10
-3.99250000E+02
 20
2.56250000E+02
 11
-2.79250000E+02
 21
2.56250000E+02
  0
LINE
  8
0
 62
7
 10
-2.79250000E+02
 20
2.76250000E+02
 11
-2.79250000E+02
 21
2.56250000E+02
  0
TEXT
  8
0
 62
7
 10
-3.91900291E+02
 20
2.63100000E+02
 40
6.30000019E+00
  1
NEW DYNA CYLINDER
 41
1.07594953E+00
  7
MONOTXT
  0
LINE
  8
0
 62
7
 10
-3.99250000E+02
 20
-2.76750000E+02
 11
3.99799805E+02
 21
-2.76750000E+02
  0
LINE
  8
0
 62
7
 10
-3.99250000E+02
 20
2.76250000E+02
 11
3.99799805E+02
 21
2.76250000E+02
  0
LINE
  8
0
 62
7
 10
-3.99250000E+02
 20
2.76250000E+02
 11
-3.99250000E+02
 21
-2.76750000E+02
  0
LINE
  8
0
 62
7
 10
3.99799805E+02
 20
2.76250000E+02
 11
3.99799805E+02
 21
-2.76750000E+02
  0
ENDSEC
  0
EOF
