  0
SECTION
  2
HEADER
  9
$ACADVER
  1
AC1003
  9
$EXTMIN
 10
-5.69500000E+02
 20
-4.00500000E+02
  9
$EXTMAX
 10
5.69500000E+02
 20
4.00500000E+02
  9
$LIMMIN
 10
-5.69501000E+02
 20
-4.00501000E+02
  9
$LIMMAX
 10
5.69501000E+02
 20
4.00501000E+02
  9
$SNAPUNIT
 10
1
 20
1
  9
$SNAPBASE
 10
0
 20
0
  9
$GRIDMODE
 70
0
  9
$GRIDUNIT
 10
0
 20
0
  9
$LTSCALE
 40
1.89833333E+01
  9
$TEXTSIZE
 40
3.2
  9
$DIMTAD
 70
0
  9
$LUNITS
 70
2
  9
$LUPREC
 70
4
  9
$FILLETRAD
 40
0
  9
$AUNITS
 70
0
  9
$AUPREC
 70
0
  0
ENDSEC
  0
SECTION
  2
TABLES
  0
TABLE
  2
LTYPE
 70
2
  0
LTYPE
  2
CONTINUOUS
 70
64
  3
Solid-Line
 72
65
 73
0
 40
0
  0
LTYPE
  2
DASHED
 70
64
  3
DASHED
 72
65
 73
2
 40
.75
 49
.5
 49
-.25
  0
LTYPE
  2
HIDDEN
 70
64
  3
HIDDEN
 72
65
 73
2
 40
.375
 49
.25
 49
-.125
  0
LTYPE
  2
CENTER
 70
64
  3
CENTER
 72
65
 73
4
 40
2
 49
1.25
 49
-.25
 49
.25
 49
-.25
  0
LTYPE
  2
PHANTOM
 70
64
  3
PHANTOM
 72
65
 73
6
 40
2.5
 49
1.25
 49
-.25
 49
.25
 49
-.25
 49
.25
 49
-.25
  0
ENDTAB
  0
TABLE
  2
LAYER
 70
1
  0
LAYER
  2
1
 70
0
 62
7
  6
CONTINUOUS
 0
ENDTAB
  0
TABLE
  2
STYLE
 70
2
  0
STYLE
  2
MONOTXT
 70
0
 40
0
 41
1
 50
0
 71
0
 42
.2
  3
monotxt
  0
STYLE
  2
BIGFONT
 70
0
 40
0
 41
1
 50
0
 71
0
 42
.2
  3
txt
  4
bigfont
  0
ENDTAB
  0
ENDSEC
  0
SECTION
  2
ENTITIES
  0
LINE
  8
0
  6
PHANTOM
 10
-2.95000000E+01
 20
2.81313474E+01
 11
-2.95000000E+01
 21
1.89371803E+02
  0
LINE
  8
0
  6
PHANTOM
 10
1.09999973E+02
 20
2.81313474E+01
 11
1.09999973E+02
 21
1.88056721E+02
  0
LINE
  8
0
  6
CENTER
 62
2
 10
-1.77773201E+02
 20
1.00500000E+02
 11
1.64647846E+02
 21
1.00500000E+02
  0
LINE
  8
0
 62
7
 10
-1.31999992E+02
 20
8.40000305E+01
 11
-1.31999992E+02
 21
1.16999985E+02
  0
LINE
  8
0
 62
7
 10
-1.18499992E+02
 20
8.15000076E+01
 11
-1.16999992E+02
 21
8.15000076E+01
  0
LINE
  8
0
 62
7
 10
-1.31500008E+02
 20
8.35000000E+01
 11
-1.26991447E+02
 21
8.35000000E+01
  0
LINE
  8
0
 62
7
 10
-1.26999992E+02
 20
8.35000000E+01
 11
-1.26999992E+02
 21
8.34914551E+01
  0
LINE
  8
0
 62
7
 10
-1.26758675E+02
 20
8.32415223E+01
 11
-1.18999961E+02
 21
8.29705821E+01
  0
LINE
  8
0
 62
7
 10
5.39999809E+01
 20
1.36950073E+02
 11
5.39999809E+01
 21
6.40499268E+01
  0
LINE
  8
0
 62
7
 10
2.19999771E+01
 20
1.38000000E+02
 11
2.19999771E+01
 21
6.30000000E+01
  0
LINE
  8
0
 62
7
 10
5.35087218E+01
 20
6.35500395E+01
 11
2.20000170E+01
 21
6.30000530E+01
  0
LINE
  8
0
 62
7
 10
-1.19000008E+02
 20
1.19000000E+02
 11
-1.19000008E+02
 21
8.20000000E+01
  0
LINE
  8
0
 62
7
 10
4.99999847E+01
 20
6.30000000E+01
 11
2.19999771E+01
 21
6.30000000E+01
  0
LINE
  8
0
 62
7
 10
4.99999847E+01
 20
6.34887695E+01
 11
4.99999847E+01
 21
6.30000000E+01
  0
LINE
  8
0
 62
7
 10
-1.26999992E+02
 20
8.35000000E+01
 11
-1.26999992E+02
 21
1.17500015E+02
  0
LINE
  8
0
 62
7
 10
5.54999924E+01
 20
8.15000076E+01
 11
5.39999924E+01
 21
8.15000076E+01
  0
LINE
  8
0
 62
7
 10
-1.16999992E+02
 20
1.36950073E+02
 11
-1.16999992E+02
 21
6.40499268E+01
  0
LINE
  8
0
 62
7
 10
-8.50000076E+01
 20
1.38000000E+02
 11
-8.50000076E+01
 21
6.30000000E+01
  0
LINE
  8
0
 62
7
 10
-1.16508717E+02
 20
6.35500483E+01
 11
-8.50000277E+01
 21
6.30000621E+01
  0
LINE
  8
0
 62
7
 10
5.59999886E+01
 20
1.19000000E+02
 11
5.59999886E+01
 21
8.20000000E+01
  0
LINE
  8
0
 62
7
 10
-1.13000008E+02
 20
6.30000000E+01
 11
-8.50000076E+01
 21
6.30000000E+01
  0
LINE
  8
0
 62
7
 10
-1.13000008E+02
 20
6.34887695E+01
 11
-1.13000008E+02
 21
6.30000000E+01
  0
LINE
  8
0
  6
CENTER
 62
2
 10
5.82292213E+01
 20
7.24999924E+01
 11
-1.20248100E+02
 21
7.24999924E+01
  0
LINE
  8
0
 62
7
 10
2.19999771E+01
 20
7.61000366E+01
 11
-8.50000076E+01
 21
7.61000366E+01
  0
LINE
  8
0
 62
7
 10
2.19999771E+01
 20
6.89000244E+01
 11
-8.50000076E+01
 21
6.89000244E+01
  0
LINE
  8
0
 62
7
 10
2.19999771E+01
 20
6.65000229E+01
 11
-8.50000076E+01
 21
6.65000229E+01
  0
LINE
  8
0
  6
CENTER
 62
2
 10
3.60000458E+01
 20
1.40185059E+02
 11
3.60000458E+01
 21
1.28299774E+02
  0
LINE
  8
0
 62
7
 10
-1.18499992E+02
 20
1.19500000E+02
 11
-1.16999992E+02
 21
1.19500000E+02
  0
LINE
  8
0
 62
7
 10
-1.31500008E+02
 20
1.17500015E+02
 11
-1.26991447E+02
 21
1.17500015E+02
  0
LINE
  8
0
 62
7
 10
-1.26999992E+02
 20
1.17500015E+02
 11
-1.26999992E+02
 21
1.17508560E+02
  0
LINE
  8
0
 62
7
 10
-1.26758667E+02
 20
1.17758481E+02
 11
-1.18999954E+02
 21
1.18029421E+02
  0
LINE
  8
0
 62
7
 10
5.35087308E+01
 20
1.37449980E+02
 11
2.20000336E+01
 21
1.37999966E+02
  0
LINE
  8
0
 62
7
 10
4.99999847E+01
 20
1.38000000E+02
 11
2.19999771E+01
 21
1.38000000E+02
  0
LINE
  8
0
 62
7
 10
4.99999847E+01
 20
1.37511215E+02
 11
4.99999847E+01
 21
1.38000000E+02
  0
LINE
  8
0
 62
7
 10
2.19999771E+01
 20
1.34499969E+02
 11
1.59193843E+01
 21
1.34499969E+02
  0
LINE
  8
0
 62
7
 10
5.54999924E+01
 20
1.19500000E+02
 11
5.39999924E+01
 21
1.19500000E+02
  0
LINE
  8
0
 62
7
 10
-1.16508741E+02
 20
1.37449956E+02
 11
-8.50000364E+01
 21
1.37999942E+02
  0
LINE
  8
0
 62
7
 10
-1.13000008E+02
 20
1.38000000E+02
 11
-8.50000076E+01
 21
1.38000000E+02
  0
LINE
  8
0
 62
7
 10
-1.13000008E+02
 20
1.37511215E+02
 11
-1.13000008E+02
 21
1.38000000E+02
  0
LINE
  8
0
  6
CENTER
 62
2
 10
5.82292213E+01
 20
1.28500015E+02
 11
-1.20248100E+02
 21
1.28500015E+02
  0
LINE
  8
0
 62
7
 10
2.19999771E+01
 20
1.24899963E+02
 11
-2.28881834E-05
 21
1.24899963E+02
  0
LINE
  8
0
 62
7
 10
2.19999771E+01
 20
1.32099976E+02
 11
1.49999771E+01
 21
1.32099976E+02
  0
LINE
  8
0
  6
CENTER
 62
2
 10
-9.90000687E+01
 20
1.40185059E+02
 11
-9.90000687E+01
 21
1.28299774E+02
  0
LINE
  8
0
 62
7
 10
-1.41999962E+02
 20
1.09500000E+02
 11
-1.41999962E+02
 21
9.15000076E+01
  0
LINE
  8
0
 62
7
 10
-1.40626198E+02
 20
9.10000000E+01
 11
-1.31999992E+02
 21
9.10000000E+01
  0
LINE
  8
0
 62
7
 10
-1.40626167E+02
 20
1.10000000E+02
 11
-1.31999992E+02
 21
1.10000000E+02
  0
LINE
  8
0
 62
7
 10
-1.44999962E+02
 20
9.15000076E+01
 11
-1.44999962E+02
 21
1.09500000E+02
  0
LINE
  8
0
 62
7
 10
-1.73999977E+02
 20
9.30000305E+01
 11
-1.73999977E+02
 21
1.07999847E+02
  0
LINE
  8
0
 62
7
 10
-1.72499977E+02
 20
9.15000076E+01
 11
-1.72499977E+02
 21
1.09500000E+02
  0
LINE
  8
0
 62
7
 10
-1.36642311E+02
 20
1.00500000E+02
 11
-1.31999992E+02
 21
1.00500000E+02
  0
LINE
  8
0
 62
7
 10
-1.41999933E+02
 20
9.15000004E+01
 11
-1.40626169E+02
 21
9.09999911E+01
  0
LINE
  8
0
 62
7
 10
-1.72499916E+02
 20
1.09500000E+02
 11
-1.64061698E+02
 21
1.09500000E+02
  0
LINE
  8
0
 62
2
 10
-1.73319923E+02
 20
1.08679993E+02
 11
-1.64061698E+02
 21
1.08679993E+02
  0
LINE
  8
0
 62
7
 10
-1.73999899E+02
 20
1.07999862E+02
 11
-1.72499853E+02
 21
1.09499862E+02
  0
LINE
  8
0
 62
7
 10
-1.72499916E+02
 20
9.15000076E+01
 11
-1.64061698E+02
 21
9.15000076E+01
  0
LINE
  8
0
 62
2
 10
-1.73319923E+02
 20
9.23199997E+01
 11
-1.64061698E+02
 21
9.23199997E+01
  0
LINE
  8
0
 62
7
 10
-1.73999984E+02
 20
9.30000725E+01
 11
-1.72499949E+02
 21
9.15000830E+01
  0
LINE
  8
0
 62
7
 10
-1.41999935E+02
 20
1.09499966E+02
 11
-1.40626113E+02
 21
1.09999996E+02
  0
LINE
  8
0
 62
7
 10
-1.44999962E+02
 20
1.08679993E+02
 11
-1.41999962E+02
 21
1.08679993E+02
  0
LINE
  8
0
 62
7
 10
-1.44999962E+02
 20
9.23199997E+01
 11
-1.41999962E+02
 21
9.23199997E+01
  0
LINE
  8
0
 62
7
 10
1.31999935E+02
 20
9.15000153E+01
 11
1.31999935E+02
 21
1.09500015E+02
  0
LINE
  8
0
 62
7
 10
1.26000072E+02
 20
1.10499985E+02
 11
6.90000267E+01
 21
1.10499985E+02
  0
LINE
  8
0
 62
7
 10
1.60999966E+02
 20
9.30000381E+01
 11
1.60999966E+02
 21
1.07999847E+02
  0
LINE
  8
0
 62
7
 10
1.59499935E+02
 20
9.15000153E+01
 11
1.59499935E+02
 21
1.09500015E+02
  0
LINE
  8
0
 62
7
 10
1.59499905E+02
 20
1.09500000E+02
 11
1.51999966E+02
 21
1.09500000E+02
  0
LINE
  8
0
 62
2
 10
1.60319912E+02
 20
1.08679993E+02
 11
1.51999966E+02
 21
1.08679993E+02
  0
LINE
  8
0
 62
7
 10
1.60999860E+02
 20
1.07999809E+02
 11
1.59499814E+02
 21
1.09499809E+02
  0
LINE
  8
0
 62
7
 10
1.59499905E+02
 20
9.15000076E+01
 11
1.51999966E+02
 21
9.15000076E+01
  0
LINE
  8
0
 62
2
 10
1.60319912E+02
 20
9.23199997E+01
 11
1.51999966E+02
 21
9.23199997E+01
  0
LINE
  8
0
 62
7
 10
1.60999964E+02
 20
9.30001229E+01
 11
1.59499907E+02
 21
9.15001118E+01
  0
LINE
  8
0
 62
7
 10
1.28999950E+02
 20
1.09500000E+02
 11
1.28999950E+02
 21
9.15000076E+01
  0
LINE
  8
0
 62
7
 10
1.26000072E+02
 20
1.05767853E+02
 11
1.22000011E+02
 21
1.05767853E+02
  0
LINE
  8
0
 62
7
 10
1.22000011E+02
 20
9.52322006E+01
 11
1.22000011E+02
 21
1.00500008E+02
  0
LINE
  8
0
 62
7
 10
1.26000072E+02
 20
9.52321930E+01
 11
1.22000011E+02
 21
9.52321930E+01
  0
LINE
  8
0
 62
7
 10
1.25999950E+02
 20
9.05000305E+01
 11
1.25999950E+02
 21
9.52322006E+01
  0
LINE
  8
0
 62
7
 10
1.28999923E+02
 20
1.09499986E+02
 11
1.25999934E+02
 21
1.10499969E+02
  0
LINE
  8
0
 62
2
 10
1.28033570E+02
 20
1.04313415E+02
 11
1.21999979E+02
 21
9.52322333E+01
  0
LINE
  8
0
 62
2
 10
1.28033565E+02
 20
9.66863951E+01
 11
1.21999823E+02
 21
1.05767805E+02
  0
LINE
  8
0
 62
7
 10
1.26000072E+02
 20
9.05000229E+01
 11
6.90000267E+01
 21
9.05000229E+01
  0
LINE
  8
0
 62
7
 10
1.25999950E+02
 20
1.10500046E+02
 11
1.25999950E+02
 21
1.05767868E+02
  0
LINE
  8
0
 62
7
 10
1.22000011E+02
 20
1.05767868E+02
 11
1.22000011E+02
 21
1.00500008E+02
  0
LINE
  8
0
 62
7
 10
1.31999935E+02
 20
1.08679993E+02
 11
1.28999950E+02
 21
1.08679993E+02
  0
LINE
  8
0
 62
7
 10
1.31999935E+02
 20
9.23199997E+01
 11
1.28999950E+02
 21
9.23199997E+01
  0
LINE
  8
0
 62
7
 10
6.89999809E+01
 20
8.40000305E+01
 11
6.89999809E+01
 21
1.16999985E+02
  0
LINE
  8
0
 62
7
 10
6.84999962E+01
 20
8.35000000E+01
 11
6.39914360E+01
 21
8.35000000E+01
  0
LINE
  8
0
 62
7
 10
6.39999809E+01
 20
8.35000000E+01
 11
6.39999809E+01
 21
8.34914551E+01
  0
LINE
  8
0
 62
7
 10
6.37586599E+01
 20
8.32415244E+01
 11
5.59999461E+01
 21
8.29705842E+01
  0
LINE
  8
0
 62
7
 10
6.39999809E+01
 20
8.35000000E+01
 11
6.39999809E+01
 21
1.17500015E+02
  0
LINE
  8
0
 62
7
 10
6.84999962E+01
 20
1.17500015E+02
 11
6.39914360E+01
 21
1.17500015E+02
  0
LINE
  8
0
 62
7
 10
6.39999809E+01
 20
1.17500015E+02
 11
6.39999809E+01
 21
1.17508560E+02
  0
LINE
  8
0
 62
7
 10
6.37586529E+01
 20
1.17758486E+02
 11
5.59999353E+01
 21
1.18029426E+02
  0
LINE
  8
0
 62
7
 10
1.28999948E+02
 20
1.03622442E+02
 11
1.25999960E+02
 21
1.05767539E+02
  0
LINE
  8
0
 62
7
 10
1.28999947E+02
 20
9.73775637E+01
 11
1.25999948E+02
 21
9.52319058E+01
  0
LINE
  8
0
 62
7
 10
1.28999969E+02
 20
9.15000125E+01
 11
1.25999978E+02
 21
9.05000375E+01
  0
ARC
  8
0
 62
7
 10
-1.18499992E+02
 20
8.20000000E+01
 40
5.00000000E-01
 50
1.79999977E+02
 51
2.69999974E+02
  0
ARC
  8
0
 62
7
 10
5.34999886E+01
 20
6.40499268E+01
 40
5.00000000E-01
 50
2.71000258E+02
 51
3.59999993E+02
  0
ARC
  8
0
 62
7
 10
-1.26750008E+02
 20
8.34914551E+01
 40
2.50000000E-01
 50
1.79999977E+02
 51
2.68001132E+02
  0
ARC
  8
0
 62
7
 10
-1.31500008E+02
 20
8.40000305E+01
 40
5.00000000E-01
 50
1.79999977E+02
 51
2.69999974E+02
  0
ARC
  8
0
 62
7
 10
5.54999962E+01
 20
1.19000000E+02
 40
5.00000000E-01
 50
5.46415133E-05
 51
9.00000369E+01
  0
ARC
  8
0
 62
7
 10
5.54999962E+01
 20
8.20000000E+01
 40
5.00000000E-01
 50
2.70000073E+02
 51
5.46415133E-05
  0
ARC
  8
0
 62
7
 10
-1.16500008E+02
 20
6.40499268E+01
 40
5.00000000E-01
 50
1.79999909E+02
 51
2.68999651E+02
  0
ARC
  8
0
 62
7
 10
-1.18499992E+02
 20
1.19000000E+02
 40
5.00000000E-01
 50
8.99999818E+01
 51
1.79999964E+02
  0
ARC
  8
0
 62
7
 10
5.34999886E+01
 20
1.36950073E+02
 40
5.00000000E-01
 50
3.59999952E+02
 51
8.89996869E+01
  0
ARC
  8
0
 62
7
 10
-1.31500008E+02
 20
1.16999985E+02
 40
5.00000000E-01
 50
8.99999818E+01
 51
1.79999964E+02
  0
ARC
  8
0
 62
7
 10
-1.16500008E+02
 20
1.36950073E+02
 40
5.00000000E-01
 50
9.10002768E+01
 51
1.80000019E+02
  0
ARC
  8
0
 62
7
 10
-1.26750008E+02
 20
1.17508560E+02
 40
2.50000000E-01
 50
9.19988230E+01
 51
1.79999977E+02
  0
ARC
  8
0
 62
7
 10
1.30499966E+02
 20
1.00500000E+02
 40
9.99998474E+00
 50
1.79999991E+02
 51
2.11788347E+02
  0
ARC
  8
0
 62
7
 10
1.30499966E+02
 20
1.00500000E+02
 40
9.99998474E+00
 50
1.48211649E+02
 51
1.80000005E+02
  0
ARC
  8
0
 62
7
 10
6.37499962E+01
 20
8.34914551E+01
 40
2.50000000E-01
 50
2.71998866E+02
 51
2.23117997E-05
  0
ARC
  8
0
 62
7
 10
6.84999962E+01
 20
8.40000305E+01
 40
5.00000000E-01
 50
2.70000025E+02
 51
2.23117997E-05
  0
ARC
  8
0
 62
7
 10
6.84999962E+01
 20
1.16999985E+02
 40
5.00000000E-01
 50
3.59721781E-05
 51
9.00000162E+01
  0
ARC
  8
0
 62
7
 10
6.37499962E+01
 20
1.17508560E+02
 40
2.50000000E-01
 50
2.23117997E-05
 51
8.80011750E+01
  0
POLYLINE
  8
0
 62
7
 66
1
  0
VERTEX
  8
0
 62
7
 10
-1.36642311E+02
 20
1.10000000E+02
  0
VERTEX
  8
0
 62
7
 10
-1.36999421E+02
 20
1.09980878E+02
  0
VERTEX
  8
0
 62
7
 10
-1.37353656E+02
 20
1.09923666E+02
  0
VERTEX
  8
0
 62
7
 10
-1.37702164E+02
 20
1.09828824E+02
  0
VERTEX
  8
0
 62
7
 10
-1.38042138E+02
 20
1.09697116E+02
  0
VERTEX
  8
0
 62
7
 10
-1.38370841E+02
 20
1.09529602E+02
  0
VERTEX
  8
0
 62
7
 10
-1.38685628E+02
 20
1.09327632E+02
  0
VERTEX
  8
0
 62
7
 10
-1.38983963E+02
 20
1.09092831E+02
  0
VERTEX
  8
0
 62
7
 10
-1.39263444E+02
 20
1.08827089E+02
  0
VERTEX
  8
0
 62
7
 10
-1.39521822E+02
 20
1.08532548E+02
  0
VERTEX
  8
0
 62
7
 10
-1.39757015E+02
 20
1.08211577E+02
  0
VERTEX
  8
0
 62
7
 10
-1.39967131E+02
 20
1.07866761E+02
  0
VERTEX
  8
0
 62
7
 10
-1.40150477E+02
 20
1.07500876E+02
  0
VERTEX
  8
0
 62
7
 10
-1.40305577E+02
 20
1.07116869E+02
  0
VERTEX
  8
0
 62
7
 10
-1.40431183E+02
 20
1.06717831E+02
  0
VERTEX
  8
0
 62
7
 10
-1.40526284E+02
 20
1.06306974E+02
  0
VERTEX
  8
0
 62
7
 10
-1.40590112E+02
 20
1.05887608E+02
  0
VERTEX
  8
0
 62
7
 10
-1.40622156E+02
 20
1.05463108E+02
  0
VERTEX
  8
0
 62
7
 10
-1.40622156E+02
 20
1.05036892E+02
  0
VERTEX
  8
0
 62
7
 10
-1.40590112E+02
 20
1.04612392E+02
  0
VERTEX
  8
0
 62
7
 10
-1.40526284E+02
 20
1.04193026E+02
  0
VERTEX
  8
0
 62
7
 10
-1.40431183E+02
 20
1.03782169E+02
  0
VERTEX
  8
0
 62
7
 10
-1.40305577E+02
 20
1.03383131E+02
  0
VERTEX
  8
0
 62
7
 10
-1.40150477E+02
 20
1.02999124E+02
  0
VERTEX
  8
0
 62
7
 10
-1.39967131E+02
 20
1.02633239E+02
  0
VERTEX
  8
0
 62
7
 10
-1.39757015E+02
 20
1.02288423E+02
  0
VERTEX
  8
0
 62
7
 10
-1.39521822E+02
 20
1.01967452E+02
  0
VERTEX
  8
0
 62
7
 10
-1.39263444E+02
 20
1.01672911E+02
  0
VERTEX
  8
0
 62
7
 10
-1.38983963E+02
 20
1.01407169E+02
  0
VERTEX
  8
0
 62
7
 10
-1.38685628E+02
 20
1.01172368E+02
  0
VERTEX
  8
0
 62
7
 10
-1.38370841E+02
 20
1.00970398E+02
  0
VERTEX
  8
0
 62
7
 10
-1.38042138E+02
 20
1.00802884E+02
  0
VERTEX
  8
0
 62
7
 10
-1.37702164E+02
 20
1.00671176E+02
  0
VERTEX
  8
0
 62
7
 10
-1.37353656E+02
 20
1.00576334E+02
  0
VERTEX
  8
0
 62
7
 10
-1.36999421E+02
 20
1.00519122E+02
  0
VERTEX
  8
0
 62
7
 10
-1.36642311E+02
 20
1.00500000E+02
  0
SEQEND
  8
0
  0
POLYLINE
  8
0
 62
7
 66
1
  0
VERTEX
  8
0
 62
7
 10
-1.36642311E+02
 20
1.00500000E+02
  0
VERTEX
  8
0
 62
7
 10
-1.36999421E+02
 20
1.00480878E+02
  0
VERTEX
  8
0
 62
7
 10
-1.37353656E+02
 20
1.00423666E+02
  0
VERTEX
  8
0
 62
7
 10
-1.37702164E+02
 20
1.00328824E+02
  0
VERTEX
  8
0
 62
7
 10
-1.38042138E+02
 20
1.00197116E+02
  0
VERTEX
  8
0
 62
7
 10
-1.38370841E+02
 20
1.00029602E+02
  0
VERTEX
  8
0
 62
7
 10
-1.38685628E+02
 20
9.98276318E+01
  0
VERTEX
  8
0
 62
7
 10
-1.38983963E+02
 20
9.95928307E+01
  0
VERTEX
  8
0
 62
7
 10
-1.39263444E+02
 20
9.93270895E+01
  0
VERTEX
  8
0
 62
7
 10
-1.39521822E+02
 20
9.90325476E+01
  0
VERTEX
  8
0
 62
7
 10
-1.39757015E+02
 20
9.87115766E+01
  0
VERTEX
  8
0
 62
7
 10
-1.39967131E+02
 20
9.83667607E+01
  0
VERTEX
  8
0
 62
7
 10
-1.40150477E+02
 20
9.80008762E+01
  0
VERTEX
  8
0
 62
7
 10
-1.40305577E+02
 20
9.76168689E+01
  0
VERTEX
  8
0
 62
7
 10
-1.40431183E+02
 20
9.72178307E+01
  0
VERTEX
  8
0
 62
7
 10
-1.40526284E+02
 20
9.68069745E+01
  0
VERTEX
  8
0
 62
7
 10
-1.40590112E+02
 20
9.63876080E+01
  0
VERTEX
  8
0
 62
7
 10
-1.40622156E+02
 20
9.59631080E+01
  0
VERTEX
  8
0
 62
7
 10
-1.40622156E+02
 20
9.55368921E+01
  0
VERTEX
  8
0
 62
7
 10
-1.40590112E+02
 20
9.51123920E+01
  0
VERTEX
  8
0
 62
7
 10
-1.40526284E+02
 20
9.46930256E+01
  0
VERTEX
  8
0
 62
7
 10
-1.40431183E+02
 20
9.42821693E+01
  0
VERTEX
  8
0
 62
7
 10
-1.40305577E+02
 20
9.38831311E+01
  0
VERTEX
  8
0
 62
7
 10
-1.40150477E+02
 20
9.34991239E+01
  0
VERTEX
  8
0
 62
7
 10
-1.39967131E+02
 20
9.31332394E+01
  0
VERTEX
  8
0
 62
7
 10
-1.39757015E+02
 20
9.27884235E+01
  0
VERTEX
  8
0
 62
7
 10
-1.39521822E+02
 20
9.24674524E+01
  0
VERTEX
  8
0
 62
7
 10
-1.39263444E+02
 20
9.21729106E+01
  0
VERTEX
  8
0
 62
7
 10
-1.38983963E+02
 20
9.19071693E+01
  0
VERTEX
  8
0
 62
7
 10
-1.38685628E+02
 20
9.16723682E+01
  0
VERTEX
  8
0
 62
7
 10
-1.38370841E+02
 20
9.14703979E+01
  0
VERTEX
  8
0
 62
7
 10
-1.38042138E+02
 20
9.13028844E+01
  0
VERTEX
  8
0
 62
7
 10
-1.37702164E+02
 20
9.11711764E+01
  0
VERTEX
  8
0
 62
7
 10
-1.37353656E+02
 20
9.10763345E+01
  0
VERTEX
  8
0
 62
7
 10
-1.36999421E+02
 20
9.10191221E+01
  0
VERTEX
  8
0
 62
7
 10
-1.36642311E+02
 20
9.10000000E+01
  0
SEQEND
  8
0
  0
LINE
  8
0
 62
7
 10
1.40999966E+02
 20
1.09500000E+02
 11
1.31999935E+02
 21
1.09500000E+02
  0
LINE
  8
0
 62
2
 10
1.40999966E+02
 20
1.08679993E+02
 11
1.31999935E+02
 21
1.08679993E+02
  0
LINE
  8
0
 62
7
 10
1.40999966E+02
 20
9.15000076E+01
 11
1.31999935E+02
 21
9.15000076E+01
  0
LINE
  8
0
 62
2
 10
1.40999966E+02
 20
9.23199997E+01
 11
1.31999935E+02
 21
9.23199997E+01
  0
LINE
  8
0
 62
7
 10
-1.53061698E+02
 20
9.15000076E+01
 11
-1.44999962E+02
 21
9.15000076E+01
  0
LINE
  8
0
 62
2
 10
-1.53061698E+02
 20
9.23199997E+01
 11
-1.44999962E+02
 21
9.23199997E+01
  0
LINE
  8
0
 62
7
 10
-1.53061698E+02
 20
1.09500000E+02
 11
-1.44999962E+02
 21
1.09500000E+02
  0
LINE
  8
0
 62
2
 10
-1.53061698E+02
 20
1.08679993E+02
 11
-1.44999962E+02
 21
1.08679993E+02
  0
LINE
  8
0
 62
4
 10
1.51999966E+02
 20
8.70000000E+01
 11
1.51999966E+02
 21
1.14000000E+02
  0
LINE
  8
0
 62
4
 10
1.40999966E+02
 20
8.70000000E+01
 11
1.40999966E+02
 21
1.14000000E+02
  0
ARC
  8
0
 62
4
 10
1.66794194E+02
 20
1.00500000E+02
 40
2.57942282E+01
 50
1.62412046E+02
 51
1.97587954E+02
  0
ARC
  8
0
 62
4
 10
1.26205737E+02
 20
1.00500000E+02
 40
2.57942282E+01
 50
3.42412046E+02
 51
1.75879541E+01
  0
ARC
  8
0
 62
4
 10
1.45099244E+02
 20
1.12191343E+02
 40
6.90072132E+00
 50
3.25615752E+02
 51
3.43842480E+01
  0
ARC
  8
0
 62
4
 10
1.47900687E+02
 20
1.12191343E+02
 40
6.90072132E+00
 50
1.45615752E+02
 51
2.14384248E+02
  0
LINE
  8
0
 62
4
 10
1.50794194E+02
 20
1.16088457E+02
 11
1.51999966E+02
 21
1.14000000E+02
  0
LINE
  8
0
 62
4
 10
1.42205737E+02
 20
1.16088457E+02
 11
1.40999966E+02
 21
1.14000000E+02
  0
LINE
  8
0
 62
4
 10
1.42205737E+02
 20
1.08294229E+02
 11
1.50794194E+02
 21
1.08294229E+02
  0
LINE
  8
0
 62
4
 10
1.42205737E+02
 20
1.16088457E+02
 11
1.50794194E+02
 21
1.16088457E+02
  0
ARC
  8
0
 62
4
 10
1.45099244E+02
 20
8.88086570E+01
 40
6.90072132E+00
 50
3.25615752E+02
 51
3.43842480E+01
  0
ARC
  8
0
 62
4
 10
1.47900687E+02
 20
8.88086570E+01
 40
6.90072132E+00
 50
1.45615752E+02
 51
2.14384248E+02
  0
LINE
  8
0
 62
4
 10
1.40999966E+02
 20
8.70000000E+01
 11
1.42205737E+02
 21
8.49115427E+01
  0
LINE
  8
0
 62
4
 10
1.51999966E+02
 20
8.70000000E+01
 11
1.50794194E+02
 21
8.49115427E+01
  0
LINE
  8
0
 62
4
 10
1.42205737E+02
 20
9.27057714E+01
 11
1.50794194E+02
 21
9.27057714E+01
  0
LINE
  8
0
 62
4
 10
1.42205737E+02
 20
8.49115427E+01
 11
1.50794194E+02
 21
8.49115427E+01
  0
LINE
  8
0
 62
4
 10
-1.53061698E+02
 20
8.70000000E+01
 11
-1.53061698E+02
 21
1.14000000E+02
  0
LINE
  8
0
 62
4
 10
-1.64061698E+02
 20
8.70000000E+01
 11
-1.64061698E+02
 21
1.14000000E+02
  0
ARC
  8
0
 62
4
 10
-1.38267470E+02
 20
1.00500000E+02
 40
2.57942282E+01
 50
1.62412046E+02
 51
1.97587954E+02
  0
ARC
  8
0
 62
4
 10
-1.78855927E+02
 20
1.00500000E+02
 40
2.57942282E+01
 50
3.42412046E+02
 51
1.75879541E+01
  0
ARC
  8
0
 62
4
 10
-1.59962420E+02
 20
1.12191343E+02
 40
6.90072132E+00
 50
3.25615752E+02
 51
3.43842480E+01
  0
ARC
  8
0
 62
4
 10
-1.57160977E+02
 20
1.12191343E+02
 40
6.90072132E+00
 50
1.45615752E+02
 51
2.14384248E+02
  0
LINE
  8
0
 62
4
 10
-1.54267470E+02
 20
1.16088457E+02
 11
-1.53061698E+02
 21
1.14000000E+02
  0
LINE
  8
0
 62
4
 10
-1.62855927E+02
 20
1.16088457E+02
 11
-1.64061698E+02
 21
1.14000000E+02
  0
LINE
  8
0
 62
4
 10
-1.62855927E+02
 20
1.08294229E+02
 11
-1.54267470E+02
 21
1.08294229E+02
  0
LINE
  8
0
 62
4
 10
-1.62855927E+02
 20
1.16088457E+02
 11
-1.54267470E+02
 21
1.16088457E+02
  0
ARC
  8
0
 62
4
 10
-1.59962420E+02
 20
8.88086570E+01
 40
6.90072132E+00
 50
3.25615752E+02
 51
3.43842480E+01
  0
ARC
  8
0
 62
4
 10
-1.57160977E+02
 20
8.88086570E+01
 40
6.90072132E+00
 50
1.45615752E+02
 51
2.14384248E+02
  0
LINE
  8
0
 62
4
 10
-1.64061698E+02
 20
8.70000000E+01
 11
-1.62855927E+02
 21
8.49115427E+01
  0
LINE
  8
0
 62
4
 10
-1.53061698E+02
 20
8.70000000E+01
 11
-1.54267470E+02
 21
8.49115427E+01
  0
LINE
  8
0
 62
4
 10
-1.62855927E+02
 20
9.27057714E+01
 11
-1.54267470E+02
 21
9.27057714E+01
  0
LINE
  8
0
 62
4
 10
-1.62855927E+02
 20
8.49115427E+01
 11
-1.54267470E+02
 21
8.49115427E+01
  0
LINE
  8
0
 62
4
 10
-4.40000076E+01
 20
1.37852058E+02
 11
-4.40000076E+01
 21
1.49176918E+02
  0
LINE
  8
0
 62
6
 10
-2.32679110E+01
 20
1.39352059E+02
 11
-2.67320126E+01
 21
1.33352059E+02
  0
LINE
  8
0
 62
6
 10
-3.57320737E+01
 20
1.33352058E+02
 11
-3.22679721E+01
 21
1.39352058E+02
  0
LINE
  8
0
 62
4
 10
-1.49999618E+01
 20
1.37852058E+02
 11
-2.41339365E+01
 21
1.37852058E+02
  0
LINE
  8
0
  6
CENTER
 62
6
 10
2.00000381E+01
 20
1.36352058E+02
 11
-2.69999619E+01
 21
1.36352058E+02
  0
LINE
  8
0
 62
4
 10
-1.49999619E+01
 20
1.34852058E+02
 11
-2.58659873E+01
 21
1.34852058E+02
  0
LINE
  8
0
 62
4
 10
-4.40000076E+01
 20
1.34852058E+02
 11
-3.48660483E+01
 21
1.34852058E+02
  0
LINE
  8
0
  6
CENTER
 62
6
 10
-7.90000229E+01
 20
1.36352058E+02
 11
-3.20000229E+01
 21
1.36352058E+02
  0
LINE
  8
0
 62
4
 10
-5.05000229E+01
 20
1.37852058E+02
 11
-3.31339975E+01
 21
1.37852058E+02
  0
LINE
  8
0
 62
4
 10
-4.40000076E+01
 20
1.34499969E+02
 11
-4.40000076E+01
 21
1.34911070E+02
  0
LINE
  8
0
 62
4
 10
-5.05000076E+01
 20
1.38872205E+02
 11
-5.05000076E+01
 21
1.34911070E+02
  0
LINE
  8
0
 62
4
 10
-7.40000076E+01
 20
1.49176918E+02
 11
-7.40000076E+01
 21
1.38872205E+02
  0
LINE
  8
0
  6
CENTER
 62
6
 10
-5.43500076E+01
 20
1.41568466E+02
 11
-6.36500076E+01
 21
1.41568466E+02
  0
LINE
  8
0
  6
CENTER
 62
6
 10
-5.90000076E+01
 20
1.46218466E+02
 11
-5.90000076E+01
 21
1.36918466E+02
  0
LINE
  8
0
 62
4
 10
1.49999771E+01
 20
1.49176918E+02
 11
1.49999771E+01
 21
1.30653532E+02
  0
LINE
  8
0
  6
CENTER
 62
6
 10
-1.50000229E+01
 20
1.22516172E+02
 11
-8.00002289E+00
 21
1.22516172E+02
  0
LINE
  8
0
  6
CENTER
 62
6
 10
-7.00002289E+00
 20
1.22516172E+02
 11
-2.28881835E-05
 21
1.22516172E+02
  0
LINE
  8
0
  6
CENTER
 62
6
 10
-3.50002289E+00
 20
1.19016172E+02
 11
-3.50002289E+00
 21
1.26016172E+02
  0
LINE
  8
0
  6
CENTER
 62
6
 10
-1.15000229E+01
 20
1.19016172E+02
 11
-1.15000229E+01
 21
1.26016172E+02
  0
LINE
  8
0
 62
4
 10
-1.50000229E+01
 20
1.17675471E+02
 11
-1.50000229E+01
 21
1.49176918E+02
  0
LINE
  8
0
 62
4
 10
-2.28881834E-05
 20
1.45994043E+02
 11
-2.28881834E-05
 21
1.17675471E+02
  0
LINE
  8
0
  6
CENTER
 62
6
 10
1.10745740E+01
 20
1.41714289E+02
 11
3.92538022E+00
 21
1.41714289E+02
  0
LINE
  8
0
  6
CENTER
 62
6
 10
7.49997711E+00
 20
1.45288886E+02
 11
7.49997711E+00
 21
1.38139692E+02
  0
LINE
  8
0
 62
4
 10
-7.40000076E+01
 20
1.49176918E+02
 11
-4.40000076E+01
 21
1.49176918E+02
  0
LINE
  8
0
 62
4
 10
-1.50000229E+01
 20
1.49176918E+02
 11
1.49999771E+01
 21
1.49176918E+02
  0
LINE
  8
0
 62
4
 10
-1.50000229E+01
 20
1.17675471E+02
 11
-2.28881834E-05
 21
1.17675471E+02
  0
LINE
  8
0
 62
4
 10
-1.50000229E+01
 20
1.45994043E+02
 11
1.49999771E+01
 21
1.45994043E+02
  0
LINE
  8
0
 62
4
 10
-1.50000229E+01
 20
1.44603467E+02
 11
-2.28881834E-05
 21
1.44603467E+02
  0
LINE
  8
0
 62
4
 10
-1.40000229E+01
 20
1.28222511E+02
 11
-1.00002290E+00
 21
1.28222511E+02
  0
LINE
  8
0
 62
4
 10
-2.28881834E-05
 20
1.37910063E+02
 11
1.49999771E+01
 21
1.37910063E+02
  0
LINE
  8
0
 62
4
 10
-2.28881834E-05
 20
1.37786456E+02
 11
1.49999771E+01
 21
1.37786456E+02
  0
LINE
  8
0
 62
4
 10
-2.28971443E-05
 20
1.30653532E+02
 11
1.49999771E+01
 21
1.30653532E+02
  0
POLYLINE
  8
0
 62
4
 66
1
  0
VERTEX
  8
0
 62
4
 10
5.24997711E+00
 20
1.41714289E+02
  0
VERTEX
  8
0
 62
4
 10
5.25853904E+00
 20
1.41527786E+02
  0
VERTEX
  8
0
 62
4
 10
5.28415966E+00
 20
1.41342703E+02
  0
VERTEX
  8
0
 62
4
 10
5.32664400E+00
 20
1.41160448E+02
  0
VERTEX
  8
0
 62
4
 10
5.38566871E+00
 20
1.40982408E+02
  0
VERTEX
  8
0
 62
4
 10
5.46078459E+00
 20
1.40809938E+02
  0
VERTEX
  8
0
 62
4
 10
5.55141995E+00
 20
1.40644350E+02
  0
VERTEX
  8
0
 62
4
 10
5.65688501E+00
 20
1.40486906E+02
  0
VERTEX
  8
0
 62
4
 10
5.77637711E+00
 20
1.40338802E+02
  0
VERTEX
  8
0
 62
4
 10
5.90898685E+00
 20
1.40201167E+02
  0
VERTEX
  8
0
 62
4
 10
6.05370498E+00
 20
1.40075048E+02
  0
VERTEX
  8
0
 62
4
 10
6.20943012E+00
 20
1.39961404E+02
  0
VERTEX
  8
0
 62
4
 10
6.37497710E+00
 20
1.39861101E+02
  0
VERTEX
  8
0
 62
4
 10
6.54908602E+00
 20
1.39774902E+02
  0
VERTEX
  8
0
 62
4
 10
6.73043178E+00
 20
1.39703462E+02
  0
VERTEX
  8
0
 62
4
 10
6.91763425E+00
 20
1.39647326E+02
  0
VERTEX
  8
0
 62
4
 10
7.10926870E+00
 20
1.39606921E+02
  0
VERTEX
  8
0
 62
4
 10
7.30387668E+00
 20
1.39582555E+02
  0
VERTEX
  8
0
 62
4
 10
7.49997710E+00
 20
1.39574412E+02
  0
VERTEX
  8
0
 62
4
 10
7.69607753E+00
 20
1.39582555E+02
  0
VERTEX
  8
0
 62
4
 10
7.89068550E+00
 20
1.39606921E+02
  0
VERTEX
  8
0
 62
4
 10
8.08231996E+00
 20
1.39647326E+02
  0
VERTEX
  8
0
 62
4
 10
8.26952243E+00
 20
1.39703462E+02
  0
VERTEX
  8
0
 62
4
 10
8.45086819E+00
 20
1.39774902E+02
  0
VERTEX
  8
0
 62
4
 10
8.62497711E+00
 20
1.39861101E+02
  0
VERTEX
  8
0
 62
4
 10
8.79052409E+00
 20
1.39961404E+02
  0
VERTEX
  8
0
 62
4
 10
8.94624923E+00
 20
1.40075048E+02
  0
VERTEX
  8
0
 62
4
 10
9.09096736E+00
 20
1.40201167E+02
  0
VERTEX
  8
0
 62
4
 10
9.22357710E+00
 20
1.40338802E+02
  0
VERTEX
  8
0
 62
4
 10
9.34306921E+00
 20
1.40486906E+02
  0
VERTEX
  8
0
 62
4
 10
9.44853427E+00
 20
1.40644350E+02
  0
VERTEX
  8
0
 62
4
 10
9.53916963E+00
 20
1.40809938E+02
  0
VERTEX
  8
0
 62
4
 10
9.61428551E+00
 20
1.40982408E+02
  0
VERTEX
  8
0
 62
4
 10
9.67331022E+00
 20
1.41160448E+02
  0
VERTEX
  8
0
 62
4
 10
9.71579455E+00
 20
1.41342703E+02
  0
VERTEX
  8
0
 62
4
 10
9.74141518E+00
 20
1.41527786E+02
  0
VERTEX
  8
0
 62
4
 10
9.74997711E+00
 20
1.41714289E+02
  0
VERTEX
  8
0
 62
4
 10
9.74141518E+00
 20
1.41900792E+02
  0
VERTEX
  8
0
 62
4
 10
9.71579456E+00
 20
1.42085875E+02
  0
VERTEX
  8
0
 62
4
 10
9.67331022E+00
 20
1.42268130E+02
  0
VERTEX
  8
0
 62
4
 10
9.61428551E+00
 20
1.42446170E+02
  0
VERTEX
  8
0
 62
4
 10
9.53916963E+00
 20
1.42618640E+02
  0
VERTEX
  8
0
 62
4
 10
9.44853427E+00
 20
1.42784228E+02
  0
VERTEX
  8
0
 62
4
 10
9.34306921E+00
 20
1.42941672E+02
  0
VERTEX
  8
0
 62
4
 10
9.22357711E+00
 20
1.43089776E+02
  0
VERTEX
  8
0
 62
4
 10
9.09096737E+00
 20
1.43227411E+02
  0
VERTEX
  8
0
 62
4
 10
8.94624923E+00
 20
1.43353530E+02
  0
VERTEX
  8
0
 62
4
 10
8.79052409E+00
 20
1.43467174E+02
  0
VERTEX
  8
0
 62
4
 10
8.62497711E+00
 20
1.43567477E+02
  0
VERTEX
  8
0
 62
4
 10
8.45086820E+00
 20
1.43653676E+02
  0
VERTEX
  8
0
 62
4
 10
8.26952244E+00
 20
1.43725116E+02
  0
VERTEX
  8
0
 62
4
 10
8.08231996E+00
 20
1.43781252E+02
  0
VERTEX
  8
0
 62
4
 10
7.89068551E+00
 20
1.43821657E+02
  0
VERTEX
  8
0
 62
4
 10
7.69607753E+00
 20
1.43846023E+02
  0
VERTEX
  8
0
 62
4
 10
7.49997711E+00
 20
1.43854166E+02
  0
VERTEX
  8
0
 62
4
 10
7.30387669E+00
 20
1.43846023E+02
  0
VERTEX
  8
0
 62
4
 10
7.10926871E+00
 20
1.43821657E+02
  0
VERTEX
  8
0
 62
4
 10
6.91763426E+00
 20
1.43781252E+02
  0
VERTEX
  8
0
 62
4
 10
6.73043179E+00
 20
1.43725116E+02
  0
VERTEX
  8
0
 62
4
 10
6.54908602E+00
 20
1.43653676E+02
  0
VERTEX
  8
0
 62
4
 10
6.37497711E+00
 20
1.43567477E+02
  0
VERTEX
  8
0
 62
4
 10
6.20943013E+00
 20
1.43467174E+02
  0
VERTEX
  8
0
 62
4
 10
6.05370499E+00
 20
1.43353530E+02
  0
VERTEX
  8
0
 62
4
 10
5.90898685E+00
 20
1.43227411E+02
  0
VERTEX
  8
0
 62
4
 10
5.77637711E+00
 20
1.43089776E+02
  0
VERTEX
  8
0
 62
4
 10
5.65688501E+00
 20
1.42941672E+02
  0
VERTEX
  8
0
 62
4
 10
5.55141995E+00
 20
1.42784228E+02
  0
VERTEX
  8
0
 62
4
 10
5.46078459E+00
 20
1.42618640E+02
  0
VERTEX
  8
0
 62
4
 10
5.38566871E+00
 20
1.42446170E+02
  0
VERTEX
  8
0
 62
4
 10
5.32664400E+00
 20
1.42268130E+02
  0
VERTEX
  8
0
 62
4
 10
5.28415967E+00
 20
1.42085875E+02
  0
VERTEX
  8
0
 62
4
 10
5.25853904E+00
 20
1.41900792E+02
  0
VERTEX
  8
0
 62
4
 10
5.24997711E+00
 20
1.41714289E+02
  0
SEQEND
  8
0
  0
POLYLINE
  8
0
 62
4
 66
1
  0
VERTEX
  8
0
 62
4
 10
-1.50002289E+00
 20
1.22516172E+02
  0
VERTEX
  8
0
 62
4
 10
-1.50807430E+00
 20
1.22686676E+02
  0
VERTEX
  8
0
 62
4
 10
-1.53216371E+00
 20
1.22855807E+02
  0
VERTEX
  8
0
 62
4
 10
-1.57209717E+00
 20
1.23022204E+02
  0
VERTEX
  8
0
 62
4
 10
-1.62755315E+00
 20
1.23184527E+02
  0
VERTEX
  8
0
 62
4
 10
-1.69808515E+00
 20
1.23341468E+02
  0
VERTEX
  8
0
 62
4
 10
-1.78312530E+00
 20
1.23491764E+02
  0
VERTEX
  8
0
 62
4
 10
-1.88198890E+00
 20
1.23634206E+02
  0
VERTEX
  8
0
 62
4
 10
-1.99387996E+00
 20
1.23767646E+02
  0
VERTEX
  8
0
 62
4
 10
-2.11789759E+00
 20
1.23891010E+02
  0
VERTEX
  8
0
 62
4
 10
-2.25304328E+00
 20
1.24003304E+02
  0
VERTEX
  8
0
 62
4
 10
-2.39822893E+00
 20
1.24103625E+02
  0
VERTEX
  8
0
 62
4
 10
-2.55228556E+00
 20
1.24191164E+02
  0
VERTEX
  8
0
 62
4
 10
-2.71397282E+00
 20
1.24265218E+02
  0
VERTEX
  8
0
 62
4
 10
-2.88198890E+00
 20
1.24325189E+02
  0
VERTEX
  8
0
 62
4
 10
-3.05498102E+00
 20
1.24370595E+02
  0
VERTEX
  8
0
 62
4
 10
-3.23155636E+00
 20
1.24401070E+02
  0
VERTEX
  8
0
 62
4
 10
-3.41029323E+00
 20
1.24416370E+02
  0
VERTEX
  8
0
 62
4
 10
-3.58975255E+00
 20
1.24416370E+02
  0
VERTEX
  8
0
 62
4
 10
-3.76848942E+00
 20
1.24401070E+02
  0
VERTEX
  8
0
 62
4
 10
-3.94506475E+00
 20
1.24370595E+02
  0
VERTEX
  8
0
 62
4
 10
-4.11805687E+00
 20
1.24325189E+02
  0
VERTEX
  8
0
 62
4
 10
-4.28607295E+00
 20
1.24265218E+02
  0
VERTEX
  8
0
 62
4
 10
-4.44776021E+00
 20
1.24191164E+02
  0
VERTEX
  8
0
 62
4
 10
-4.60181685E+00
 20
1.24103625E+02
  0
VERTEX
  8
0
 62
4
 10
-4.74700249E+00
 20
1.24003304E+02
  0
VERTEX
  8
0
 62
4
 10
-4.88214818E+00
 20
1.23891010E+02
  0
VERTEX
  8
0
 62
4
 10
-5.00616582E+00
 20
1.23767646E+02
  0
VERTEX
  8
0
 62
4
 10
-5.11805688E+00
 20
1.23634206E+02
  0
VERTEX
  8
0
 62
4
 10
-5.21692047E+00
 20
1.23491764E+02
  0
VERTEX
  8
0
 62
4
 10
-5.30196062E+00
 20
1.23341468E+02
  0
VERTEX
  8
0
 62
4
 10
-5.37249263E+00
 20
1.23184527E+02
  0
VERTEX
  8
0
 62
4
 10
-5.42794861E+00
 20
1.23022204E+02
  0
VERTEX
  8
0
 62
4
 10
-5.46788207E+00
 20
1.22855807E+02
  0
VERTEX
  8
0
 62
4
 10
-5.49197148E+00
 20
1.22686676E+02
  0
VERTEX
  8
0
 62
4
 10
-5.50002289E+00
 20
1.22516172E+02
  0
SEQEND
  8
0
  0
POLYLINE
  8
0
 62
4
 66
1
  0
VERTEX
  8
0
 62
4
 10
-1.50002289E+00
 20
1.21640831E+02
  0
VERTEX
  8
0
 62
4
 10
-1.50763349E+00
 20
1.21806611E+02
  0
VERTEX
  8
0
 62
4
 10
-1.53040738E+00
 20
1.21971129E+02
  0
VERTEX
  8
0
 62
4
 10
-1.56817124E+00
 20
1.22133134E+02
  0
VERTEX
  8
0
 62
4
 10
-1.62063765E+00
 20
1.22291392E+02
  0
VERTEX
  8
0
 62
4
 10
-1.68740732E+00
 20
1.22444699E+02
  0
VERTEX
  8
0
 62
4
 10
-1.76797208E+00
 20
1.22591888E+02
  0
VERTEX
  8
0
 62
4
 10
-1.86171880E+00
 20
1.22731838E+02
  0
VERTEX
  8
0
 62
4
 10
-1.96793400E+00
 20
1.22863486E+02
  0
VERTEX
  8
0
 62
4
 10
-2.08580933E+00
 20
1.22985828E+02
  0
VERTEX
  8
0
 62
4
 10
-2.21444767E+00
 20
1.23097934E+02
  0
VERTEX
  8
0
 62
4
 10
-2.35287002E+00
 20
1.23198951E+02
  0
VERTEX
  8
0
 62
4
 10
-2.50002289E+00
 20
1.23288109E+02
  0
VERTEX
  8
0
 62
4
 10
-2.65478637E+00
 20
1.23364731E+02
  0
VERTEX
  8
0
 62
4
 10
-2.81598260E+00
 20
1.23428233E+02
  0
VERTEX
  8
0
 62
4
 10
-2.98238480E+00
 20
1.23478131E+02
  0
VERTEX
  8
0
 62
4
 10
-3.15272654E+00
 20
1.23514047E+02
  0
VERTEX
  8
0
 62
4
 10
-3.32571141E+00
 20
1.23535706E+02
  0
VERTEX
  8
0
 62
4
 10
-3.50002289E+00
 20
1.23542944E+02
  0
VERTEX
  8
0
 62
4
 10
-3.67433438E+00
 20
1.23535706E+02
  0
VERTEX
  8
0
 62
4
 10
-3.84731925E+00
 20
1.23514047E+02
  0
VERTEX
  8
0
 62
4
 10
-4.01766098E+00
 20
1.23478131E+02
  0
VERTEX
  8
0
 62
4
 10
-4.18406318E+00
 20
1.23428233E+02
  0
VERTEX
  8
0
 62
4
 10
-4.34525942E+00
 20
1.23364731E+02
  0
VERTEX
  8
0
 62
4
 10
-4.50002289E+00
 20
1.23288109E+02
  0
VERTEX
  8
0
 62
4
 10
-4.64717576E+00
 20
1.23198951E+02
  0
VERTEX
  8
0
 62
4
 10
-4.78559811E+00
 20
1.23097934E+02
  0
VERTEX
  8
0
 62
4
 10
-4.91423645E+00
 20
1.22985828E+02
  0
VERTEX
  8
0
 62
4
 10
-5.03211178E+00
 20
1.22863486E+02
  0
VERTEX
  8
0
 62
4
 10
-5.13832698E+00
 20
1.22731838E+02
  0
VERTEX
  8
0
 62
4
 10
-5.23207370E+00
 20
1.22591888E+02
  0
VERTEX
  8
0
 62
4
 10
-5.31263847E+00
 20
1.22444699E+02
  0
VERTEX
  8
0
 62
4
 10
-5.37940813E+00
 20
1.22291392E+02
  0
VERTEX
  8
0
 62
4
 10
-5.43187454E+00
 20
1.22133134E+02
  0
VERTEX
  8
0
 62
4
 10
-5.46963840E+00
 20
1.21971129E+02
  0
VERTEX
  8
0
 62
4
 10
-5.49241229E+00
 20
1.21806611E+02
  0
VERTEX
  8
0
 62
4
 10
-5.50002289E+00
 20
1.21640831E+02
  0
VERTEX
  8
0
 62
4
 10
-5.49241229E+00
 20
1.21475051E+02
  0
VERTEX
  8
0
 62
4
 10
-5.46963840E+00
 20
1.21310533E+02
  0
VERTEX
  8
0
 62
4
 10
-5.43187454E+00
 20
1.21148528E+02
  0
VERTEX
  8
0
 62
4
 10
-5.37940813E+00
 20
1.20990270E+02
  0
VERTEX
  8
0
 62
4
 10
-5.31263846E+00
 20
1.20836963E+02
  0
VERTEX
  8
0
 62
4
 10
-5.23207370E+00
 20
1.20689774E+02
  0
VERTEX
  8
0
 62
4
 10
-5.13832698E+00
 20
1.20549824E+02
  0
VERTEX
  8
0
 62
4
 10
-5.03211177E+00
 20
1.20418176E+02
  0
VERTEX
  8
0
 62
4
 10
-4.91423645E+00
 20
1.20295834E+02
  0
VERTEX
  8
0
 62
4
 10
-4.78559811E+00
 20
1.20183728E+02
  0
VERTEX
  8
0
 62
4
 10
-4.64717576E+00
 20
1.20082711E+02
  0
VERTEX
  8
0
 62
4
 10
-4.50002289E+00
 20
1.19993553E+02
  0
VERTEX
  8
0
 62
4
 10
-4.34525941E+00
 20
1.19916931E+02
  0
VERTEX
  8
0
 62
4
 10
-4.18406317E+00
 20
1.19853429E+02
  0
VERTEX
  8
0
 62
4
 10
-4.01766098E+00
 20
1.19803531E+02
  0
VERTEX
  8
0
 62
4
 10
-3.84731924E+00
 20
1.19767615E+02
  0
VERTEX
  8
0
 62
4
 10
-3.67433437E+00
 20
1.19745956E+02
  0
VERTEX
  8
0
 62
4
 10
-3.50002289E+00
 20
1.19738718E+02
  0
VERTEX
  8
0
 62
4
 10
-3.32571140E+00
 20
1.19745956E+02
  0
VERTEX
  8
0
 62
4
 10
-3.15272653E+00
 20
1.19767615E+02
  0
VERTEX
  8
0
 62
4
 10
-2.98238480E+00
 20
1.19803531E+02
  0
VERTEX
  8
0
 62
4
 10
-2.81598260E+00
 20
1.19853429E+02
  0
VERTEX
  8
0
 62
4
 10
-2.65478636E+00
 20
1.19916931E+02
  0
VERTEX
  8
0
 62
4
 10
-2.50002289E+00
 20
1.19993553E+02
  0
VERTEX
  8
0
 62
4
 10
-2.35287001E+00
 20
1.20082711E+02
  0
VERTEX
  8
0
 62
4
 10
-2.21444767E+00
 20
1.20183728E+02
  0
VERTEX
  8
0
 62
4
 10
-2.08580932E+00
 20
1.20295834E+02
  0
VERTEX
  8
0
 62
4
 10
-1.96793400E+00
 20
1.20418176E+02
  0
VERTEX
  8
0
 62
4
 10
-1.86171880E+00
 20
1.20549824E+02
  0
VERTEX
  8
0
 62
4
 10
-1.76797208E+00
 20
1.20689774E+02
  0
VERTEX
  8
0
 62
4
 10
-1.68740731E+00
 20
1.20836963E+02
  0
VERTEX
  8
0
 62
4
 10
-1.62063765E+00
 20
1.20990270E+02
  0
VERTEX
  8
0
 62
4
 10
-1.56817124E+00
 20
1.21148528E+02
  0
VERTEX
  8
0
 62
4
 10
-1.53040738E+00
 20
1.21310533E+02
  0
VERTEX
  8
0
 62
4
 10
-1.50763349E+00
 20
1.21475051E+02
  0
VERTEX
  8
0
 62
4
 10
-1.50002289E+00
 20
1.21640831E+02
  0
SEQEND
  8
0
  0
LINE
  8
0
 62
4
 10
-5.50002289E+00
 20
1.21640831E+02
 11
-5.50002289E+00
 21
1.22516172E+02
  0
LINE
  8
0
 62
4
 10
-1.50002289E+00
 20
1.21640831E+02
 11
-1.50002289E+00
 21
1.22516172E+02
  0
POLYLINE
  8
0
 62
6
 66
1
  0
VERTEX
  8
0
 62
6
 10
-5.00002289E+00
 20
1.21640831E+02
  0
VERTEX
  8
0
 62
6
 10
-4.99431494E+00
 20
1.21516496E+02
  0
VERTEX
  8
0
 62
6
 10
-4.97723452E+00
 20
1.21393107E+02
  0
VERTEX
  8
0
 62
6
 10
-4.94891163E+00
 20
1.21271604E+02
  0
VERTEX
  8
0
 62
6
 10
-4.90956182E+00
 20
1.21152910E+02
  0
VERTEX
  8
0
 62
6
 10
-4.85948457E+00
 20
1.21037930E+02
  0
VERTEX
  8
0
 62
6
 10
-4.79906100E+00
 20
1.20927539E+02
  0
VERTEX
  8
0
 62
6
 10
-4.72875096E+00
 20
1.20822576E+02
  0
VERTEX
  8
0
 62
6
 10
-4.64908956E+00
 20
1.20723840E+02
  0
VERTEX
  8
0
 62
6
 10
-4.56068307E+00
 20
1.20632083E+02
  0
VERTEX
  8
0
 62
6
 10
-4.46420431E+00
 20
1.20548004E+02
  0
VERTEX
  8
0
 62
6
 10
-4.36038755E+00
 20
1.20472241E+02
  0
VERTEX
  8
0
 62
6
 10
-4.25002289E+00
 20
1.20405372E+02
  0
VERTEX
  8
0
 62
6
 10
-4.13395029E+00
 20
1.20347906E+02
  0
VERTEX
  8
0
 62
6
 10
-4.01305311E+00
 20
1.20300280E+02
  0
VERTEX
  8
0
 62
6
 10
-3.88825146E+00
 20
1.20262856E+02
  0
VERTEX
  8
0
 62
6
 10
-3.76049516E+00
 20
1.20235919E+02
  0
VERTEX
  8
0
 62
6
 10
-3.63075651E+00
 20
1.20219675E+02
  0
VERTEX
  8
0
 62
6
 10
-3.50002289E+00
 20
1.20214246E+02
  0
VERTEX
  8
0
 62
6
 10
-3.36928928E+00
 20
1.20219675E+02
  0
VERTEX
  8
0
 62
6
 10
-3.23955063E+00
 20
1.20235919E+02
  0
VERTEX
  8
0
 62
6
 10
-3.11179433E+00
 20
1.20262856E+02
  0
VERTEX
  8
0
 62
6
 10
-2.98699268E+00
 20
1.20300280E+02
  0
VERTEX
  8
0
 62
6
 10
-2.86609550E+00
 20
1.20347906E+02
  0
VERTEX
  8
0
 62
6
 10
-2.75002289E+00
 20
1.20405372E+02
  0
VERTEX
  8
0
 62
6
 10
-2.63965824E+00
 20
1.20472241E+02
  0
VERTEX
  8
0
 62
6
 10
-2.53584148E+00
 20
1.20548004E+02
  0
VERTEX
  8
0
 62
6
 10
-2.43936272E+00
 20
1.20632083E+02
  0
VERTEX
  8
0
 62
6
 10
-2.35095623E+00
 20
1.20723840E+02
  0
VERTEX
  8
0
 62
6
 10
-2.27129483E+00
 20
1.20822576E+02
  0
VERTEX
  8
0
 62
6
 10
-2.20098479E+00
 20
1.20927539E+02
  0
VERTEX
  8
0
 62
6
 10
-2.14056121E+00
 20
1.21037930E+02
  0
VERTEX
  8
0
 62
6
 10
-2.09048396E+00
 20
1.21152910E+02
  0
VERTEX
  8
0
 62
6
 10
-2.05113415E+00
 20
1.21271604E+02
  0
VERTEX
  8
0
 62
6
 10
-2.02281126E+00
 20
1.21393107E+02
  0
VERTEX
  8
0
 62
6
 10
-2.00573084E+00
 20
1.21516496E+02
  0
VERTEX
  8
0
 62
6
 10
-2.00002289E+00
 20
1.21640831E+02
  0
VERTEX
  8
0
 62
6
 10
-2.00573084E+00
 20
1.21765166E+02
  0
VERTEX
  8
0
 62
6
 10
-2.02281126E+00
 20
1.21888555E+02
  0
VERTEX
  8
0
 62
6
 10
-2.05113415E+00
 20
1.22010058E+02
  0
VERTEX
  8
0
 62
6
 10
-2.09048396E+00
 20
1.22128752E+02
  0
VERTEX
  8
0
 62
6
 10
-2.14056121E+00
 20
1.22243732E+02
  0
VERTEX
  8
0
 62
6
 10
-2.20098478E+00
 20
1.22354123E+02
  0
VERTEX
  8
0
 62
6
 10
-2.27129482E+00
 20
1.22459086E+02
  0
VERTEX
  8
0
 62
6
 10
-2.35095622E+00
 20
1.22557822E+02
  0
VERTEX
  8
0
 62
6
 10
-2.43936272E+00
 20
1.22649579E+02
  0
VERTEX
  8
0
 62
6
 10
-2.53584147E+00
 20
1.22733658E+02
  0
VERTEX
  8
0
 62
6
 10
-2.63965823E+00
 20
1.22809421E+02
  0
VERTEX
  8
0
 62
6
 10
-2.75002289E+00
 20
1.22876290E+02
  0
VERTEX
  8
0
 62
6
 10
-2.86609550E+00
 20
1.22933756E+02
  0
VERTEX
  8
0
 62
6
 10
-2.98699267E+00
 20
1.22981382E+02
  0
VERTEX
  8
0
 62
6
 10
-3.11179432E+00
 20
1.23018806E+02
  0
VERTEX
  8
0
 62
6
 10
-3.23955062E+00
 20
1.23045743E+02
  0
VERTEX
  8
0
 62
6
 10
-3.36928927E+00
 20
1.23061987E+02
  0
VERTEX
  8
0
 62
6
 10
-3.50002289E+00
 20
1.23067416E+02
  0
VERTEX
  8
0
 62
6
 10
-3.63075650E+00
 20
1.23061987E+02
  0
VERTEX
  8
0
 62
6
 10
-3.76049515E+00
 20
1.23045743E+02
  0
VERTEX
  8
0
 62
6
 10
-3.88825146E+00
 20
1.23018806E+02
  0
VERTEX
  8
0
 62
6
 10
-4.01305310E+00
 20
1.22981382E+02
  0
VERTEX
  8
0
 62
6
 10
-4.13395028E+00
 20
1.22933756E+02
  0
VERTEX
  8
0
 62
6
 10
-4.25002289E+00
 20
1.22876290E+02
  0
VERTEX
  8
0
 62
6
 10
-4.36038754E+00
 20
1.22809421E+02
  0
VERTEX
  8
0
 62
6
 10
-4.46420430E+00
 20
1.22733658E+02
  0
VERTEX
  8
0
 62
6
 10
-4.56068306E+00
 20
1.22649579E+02
  0
VERTEX
  8
0
 62
6
 10
-4.64908955E+00
 20
1.22557822E+02
  0
VERTEX
  8
0
 62
6
 10
-4.72875096E+00
 20
1.22459086E+02
  0
VERTEX
  8
0
 62
6
 10
-4.79906100E+00
 20
1.22354123E+02
  0
VERTEX
  8
0
 62
6
 10
-4.85948457E+00
 20
1.22243732E+02
  0
VERTEX
  8
0
 62
6
 10
-4.90956182E+00
 20
1.22128752E+02
  0
VERTEX
  8
0
 62
6
 10
-4.94891163E+00
 20
1.22010058E+02
  0
VERTEX
  8
0
 62
6
 10
-4.97723452E+00
 20
1.21888555E+02
  0
VERTEX
  8
0
 62
6
 10
-4.99431494E+00
 20
1.21765166E+02
  0
VERTEX
  8
0
 62
6
 10
-5.00002289E+00
 20
1.21640831E+02
  0
SEQEND
  8
0
  0
LINE
  8
0
 62
4
 10
-4.50002289E+00
 20
1.21089219E+02
 11
-4.50002289E+00
 21
1.22192444E+02
  0
LINE
  8
0
 62
4
 10
-2.50002289E+00
 20
1.21089219E+02
 11
-2.50002289E+00
 21
1.22192444E+02
  0
LINE
  8
0
 62
4
 10
-3.50002289E+00
 20
1.22734546E+02
 11
-4.50002289E+00
 21
1.22192444E+02
  0
LINE
  8
0
 62
4
 10
-3.50002289E+00
 20
1.22734546E+02
 11
-2.50002289E+00
 21
1.22192444E+02
  0
LINE
  8
0
 62
4
 10
-2.50002289E+00
 20
1.21089219E+02
 11
-3.50002289E+00
 21
1.20537606E+02
  0
LINE
  8
0
 62
4
 10
-3.50002289E+00
 20
1.20537606E+02
 11
-4.50002289E+00
 21
1.21089219E+02
  0
LINE
  8
0
 62
4
 10
-1.15000229E+01
 20
1.20537606E+02
 11
-1.25000229E+01
 21
1.21089219E+02
  0
LINE
  8
0
 62
4
 10
-1.05000229E+01
 20
1.21089219E+02
 11
-1.15000229E+01
 21
1.20537606E+02
  0
LINE
  8
0
 62
4
 10
-1.15000229E+01
 20
1.22734546E+02
 11
-1.05000229E+01
 21
1.22192444E+02
  0
LINE
  8
0
 62
4
 10
-1.15000229E+01
 20
1.22734546E+02
 11
-1.25000229E+01
 21
1.22192444E+02
  0
LINE
  8
0
 62
4
 10
-1.05000229E+01
 20
1.21089219E+02
 11
-1.05000229E+01
 21
1.22192444E+02
  0
LINE
  8
0
 62
4
 10
-1.25000229E+01
 20
1.21089219E+02
 11
-1.25000229E+01
 21
1.22192444E+02
  0
POLYLINE
  8
0
 62
6
 66
1
  0
VERTEX
  8
0
 62
6
 10
-1.30000229E+01
 20
1.21640831E+02
  0
VERTEX
  8
0
 62
6
 10
-1.29943149E+01
 20
1.21516496E+02
  0
VERTEX
  8
0
 62
6
 10
-1.29772345E+01
 20
1.21393107E+02
  0
VERTEX
  8
0
 62
6
 10
-1.29489116E+01
 20
1.21271604E+02
  0
VERTEX
  8
0
 62
6
 10
-1.29095618E+01
 20
1.21152910E+02
  0
VERTEX
  8
0
 62
6
 10
-1.28594846E+01
 20
1.21037930E+02
  0
VERTEX
  8
0
 62
6
 10
-1.27990610E+01
 20
1.20927539E+02
  0
VERTEX
  8
0
 62
6
 10
-1.27287510E+01
 20
1.20822576E+02
  0
VERTEX
  8
0
 62
6
 10
-1.26490896E+01
 20
1.20723840E+02
  0
VERTEX
  8
0
 62
6
 10
-1.25606831E+01
 20
1.20632083E+02
  0
VERTEX
  8
0
 62
6
 10
-1.24642043E+01
 20
1.20548004E+02
  0
VERTEX
  8
0
 62
6
 10
-1.23603876E+01
 20
1.20472241E+02
  0
VERTEX
  8
0
 62
6
 10
-1.22500229E+01
 20
1.20405372E+02
  0
VERTEX
  8
0
 62
6
 10
-1.21339503E+01
 20
1.20347906E+02
  0
VERTEX
  8
0
 62
6
 10
-1.20130531E+01
 20
1.20300280E+02
  0
VERTEX
  8
0
 62
6
 10
-1.18882515E+01
 20
1.20262856E+02
  0
VERTEX
  8
0
 62
6
 10
-1.17604952E+01
 20
1.20235919E+02
  0
VERTEX
  8
0
 62
6
 10
-1.16307565E+01
 20
1.20219675E+02
  0
VERTEX
  8
0
 62
6
 10
-1.15000229E+01
 20
1.20214246E+02
  0
VERTEX
  8
0
 62
6
 10
-1.13692893E+01
 20
1.20219675E+02
  0
VERTEX
  8
0
 62
6
 10
-1.12395506E+01
 20
1.20235919E+02
  0
VERTEX
  8
0
 62
6
 10
-1.11117943E+01
 20
1.20262856E+02
  0
VERTEX
  8
0
 62
6
 10
-1.09869927E+01
 20
1.20300280E+02
  0
VERTEX
  8
0
 62
6
 10
-1.08660955E+01
 20
1.20347906E+02
  0
VERTEX
  8
0
 62
6
 10
-1.07500229E+01
 20
1.20405372E+02
  0
VERTEX
  8
0
 62
6
 10
-1.06396582E+01
 20
1.20472241E+02
  0
VERTEX
  8
0
 62
6
 10
-1.05358415E+01
 20
1.20548004E+02
  0
VERTEX
  8
0
 62
6
 10
-1.04393627E+01
 20
1.20632083E+02
  0
VERTEX
  8
0
 62
6
 10
-1.03509562E+01
 20
1.20723840E+02
  0
VERTEX
  8
0
 62
6
 10
-1.02712948E+01
 20
1.20822576E+02
  0
VERTEX
  8
0
 62
6
 10
-1.02009848E+01
 20
1.20927539E+02
  0
VERTEX
  8
0
 62
6
 10
-1.01405612E+01
 20
1.21037930E+02
  0
VERTEX
  8
0
 62
6
 10
-1.00904840E+01
 20
1.21152910E+02
  0
VERTEX
  8
0
 62
6
 10
-1.00511342E+01
 20
1.21271604E+02
  0
VERTEX
  8
0
 62
6
 10
-1.00228113E+01
 20
1.21393107E+02
  0
VERTEX
  8
0
 62
6
 10
-1.00057309E+01
 20
1.21516496E+02
  0
VERTEX
  8
0
 62
6
 10
-1.00000229E+01
 20
1.21640831E+02
  0
VERTEX
  8
0
 62
6
 10
-1.00057309E+01
 20
1.21765166E+02
  0
VERTEX
  8
0
 62
6
 10
-1.00228113E+01
 20
1.21888555E+02
  0
VERTEX
  8
0
 62
6
 10
-1.00511342E+01
 20
1.22010058E+02
  0
VERTEX
  8
0
 62
6
 10
-1.00904840E+01
 20
1.22128752E+02
  0
VERTEX
  8
0
 62
6
 10
-1.01405612E+01
 20
1.22243732E+02
  0
VERTEX
  8
0
 62
6
 10
-1.02009848E+01
 20
1.22354123E+02
  0
VERTEX
  8
0
 62
6
 10
-1.02712948E+01
 20
1.22459086E+02
  0
VERTEX
  8
0
 62
6
 10
-1.03509562E+01
 20
1.22557822E+02
  0
VERTEX
  8
0
 62
6
 10
-1.04393627E+01
 20
1.22649579E+02
  0
VERTEX
  8
0
 62
6
 10
-1.05358415E+01
 20
1.22733658E+02
  0
VERTEX
  8
0
 62
6
 10
-1.06396582E+01
 20
1.22809421E+02
  0
VERTEX
  8
0
 62
6
 10
-1.07500229E+01
 20
1.22876290E+02
  0
VERTEX
  8
0
 62
6
 10
-1.08660955E+01
 20
1.22933756E+02
  0
VERTEX
  8
0
 62
6
 10
-1.09869927E+01
 20
1.22981382E+02
  0
VERTEX
  8
0
 62
6
 10
-1.11117943E+01
 20
1.23018806E+02
  0
VERTEX
  8
0
 62
6
 10
-1.12395506E+01
 20
1.23045743E+02
  0
VERTEX
  8
0
 62
6
 10
-1.13692893E+01
 20
1.23061987E+02
  0
VERTEX
  8
0
 62
6
 10
-1.15000229E+01
 20
1.23067416E+02
  0
VERTEX
  8
0
 62
6
 10
-1.16307565E+01
 20
1.23061987E+02
  0
VERTEX
  8
0
 62
6
 10
-1.17604952E+01
 20
1.23045743E+02
  0
VERTEX
  8
0
 62
6
 10
-1.18882515E+01
 20
1.23018806E+02
  0
VERTEX
  8
0
 62
6
 10
-1.20130531E+01
 20
1.22981382E+02
  0
VERTEX
  8
0
 62
6
 10
-1.21339503E+01
 20
1.22933756E+02
  0
VERTEX
  8
0
 62
6
 10
-1.22500229E+01
 20
1.22876290E+02
  0
VERTEX
  8
0
 62
6
 10
-1.23603876E+01
 20
1.22809421E+02
  0
VERTEX
  8
0
 62
6
 10
-1.24642043E+01
 20
1.22733658E+02
  0
VERTEX
  8
0
 62
6
 10
-1.25606831E+01
 20
1.22649579E+02
  0
VERTEX
  8
0
 62
6
 10
-1.26490896E+01
 20
1.22557822E+02
  0
VERTEX
  8
0
 62
6
 10
-1.27287510E+01
 20
1.22459086E+02
  0
VERTEX
  8
0
 62
6
 10
-1.27990610E+01
 20
1.22354123E+02
  0
VERTEX
  8
0
 62
6
 10
-1.28594846E+01
 20
1.22243732E+02
  0
VERTEX
  8
0
 62
6
 10
-1.29095618E+01
 20
1.22128752E+02
  0
VERTEX
  8
0
 62
6
 10
-1.29489116E+01
 20
1.22010058E+02
  0
VERTEX
  8
0
 62
6
 10
-1.29772345E+01
 20
1.21888555E+02
  0
VERTEX
  8
0
 62
6
 10
-1.29943149E+01
 20
1.21765166E+02
  0
VERTEX
  8
0
 62
6
 10
-1.30000229E+01
 20
1.21640831E+02
  0
SEQEND
  8
0
  0
LINE
  8
0
 62
4
 10
-9.50002289E+00
 20
1.21640831E+02
 11
-9.50002289E+00
 21
1.22516172E+02
  0
LINE
  8
0
 62
4
 10
-1.35000229E+01
 20
1.21640831E+02
 11
-1.35000229E+01
 21
1.22516172E+02
  0
POLYLINE
  8
0
 62
4
 66
1
  0
VERTEX
  8
0
 62
4
 10
-9.50002290E+00
 20
1.21640831E+02
  0
VERTEX
  8
0
 62
4
 10
-9.50763350E+00
 20
1.21806611E+02
  0
VERTEX
  8
0
 62
4
 10
-9.53040739E+00
 20
1.21971129E+02
  0
VERTEX
  8
0
 62
4
 10
-9.56817125E+00
 20
1.22133134E+02
  0
VERTEX
  8
0
 62
4
 10
-9.62063766E+00
 20
1.22291392E+02
  0
VERTEX
  8
0
 62
4
 10
-9.68740733E+00
 20
1.22444699E+02
  0
VERTEX
  8
0
 62
4
 10
-9.76797209E+00
 20
1.22591888E+02
  0
VERTEX
  8
0
 62
4
 10
-9.86171881E+00
 20
1.22731838E+02
  0
VERTEX
  8
0
 62
4
 10
-9.96793401E+00
 20
1.22863486E+02
  0
VERTEX
  8
0
 62
4
 10
-1.00858093E+01
 20
1.22985828E+02
  0
VERTEX
  8
0
 62
4
 10
-1.02144477E+01
 20
1.23097934E+02
  0
VERTEX
  8
0
 62
4
 10
-1.03528700E+01
 20
1.23198951E+02
  0
VERTEX
  8
0
 62
4
 10
-1.05000229E+01
 20
1.23288109E+02
  0
VERTEX
  8
0
 62
4
 10
-1.06547864E+01
 20
1.23364731E+02
  0
VERTEX
  8
0
 62
4
 10
-1.08159826E+01
 20
1.23428233E+02
  0
VERTEX
  8
0
 62
4
 10
-1.09823848E+01
 20
1.23478131E+02
  0
VERTEX
  8
0
 62
4
 10
-1.11527265E+01
 20
1.23514047E+02
  0
VERTEX
  8
0
 62
4
 10
-1.13257114E+01
 20
1.23535706E+02
  0
VERTEX
  8
0
 62
4
 10
-1.15000229E+01
 20
1.23542944E+02
  0
VERTEX
  8
0
 62
4
 10
-1.16743344E+01
 20
1.23535706E+02
  0
VERTEX
  8
0
 62
4
 10
-1.18473193E+01
 20
1.23514047E+02
  0
VERTEX
  8
0
 62
4
 10
-1.20176610E+01
 20
1.23478131E+02
  0
VERTEX
  8
0
 62
4
 10
-1.21840632E+01
 20
1.23428233E+02
  0
VERTEX
  8
0
 62
4
 10
-1.23452594E+01
 20
1.23364731E+02
  0
VERTEX
  8
0
 62
4
 10
-1.25000229E+01
 20
1.23288109E+02
  0
VERTEX
  8
0
 62
4
 10
-1.26471758E+01
 20
1.23198951E+02
  0
VERTEX
  8
0
 62
4
 10
-1.27855981E+01
 20
1.23097934E+02
  0
VERTEX
  8
0
 62
4
 10
-1.29142365E+01
 20
1.22985828E+02
  0
VERTEX
  8
0
 62
4
 10
-1.30321118E+01
 20
1.22863486E+02
  0
VERTEX
  8
0
 62
4
 10
-1.31383270E+01
 20
1.22731838E+02
  0
VERTEX
  8
0
 62
4
 10
-1.32320737E+01
 20
1.22591888E+02
  0
VERTEX
  8
0
 62
4
 10
-1.33126385E+01
 20
1.22444699E+02
  0
VERTEX
  8
0
 62
4
 10
-1.33794081E+01
 20
1.22291392E+02
  0
VERTEX
  8
0
 62
4
 10
-1.34318746E+01
 20
1.22133134E+02
  0
VERTEX
  8
0
 62
4
 10
-1.34696384E+01
 20
1.21971129E+02
  0
VERTEX
  8
0
 62
4
 10
-1.34924123E+01
 20
1.21806611E+02
  0
VERTEX
  8
0
 62
4
 10
-1.35000229E+01
 20
1.21640831E+02
  0
VERTEX
  8
0
 62
4
 10
-1.34924123E+01
 20
1.21475051E+02
  0
VERTEX
  8
0
 62
4
 10
-1.34696384E+01
 20
1.21310533E+02
  0
VERTEX
  8
0
 62
4
 10
-1.34318746E+01
 20
1.21148528E+02
  0
VERTEX
  8
0
 62
4
 10
-1.33794081E+01
 20
1.20990270E+02
  0
VERTEX
  8
0
 62
4
 10
-1.33126385E+01
 20
1.20836963E+02
  0
VERTEX
  8
0
 62
4
 10
-1.32320737E+01
 20
1.20689774E+02
  0
VERTEX
  8
0
 62
4
 10
-1.31383270E+01
 20
1.20549824E+02
  0
VERTEX
  8
0
 62
4
 10
-1.30321118E+01
 20
1.20418176E+02
  0
VERTEX
  8
0
 62
4
 10
-1.29142365E+01
 20
1.20295834E+02
  0
VERTEX
  8
0
 62
4
 10
-1.27855981E+01
 20
1.20183728E+02
  0
VERTEX
  8
0
 62
4
 10
-1.26471758E+01
 20
1.20082711E+02
  0
VERTEX
  8
0
 62
4
 10
-1.25000229E+01
 20
1.19993553E+02
  0
VERTEX
  8
0
 62
4
 10
-1.23452594E+01
 20
1.19916931E+02
  0
VERTEX
  8
0
 62
4
 10
-1.21840632E+01
 20
1.19853429E+02
  0
VERTEX
  8
0
 62
4
 10
-1.20176610E+01
 20
1.19803531E+02
  0
VERTEX
  8
0
 62
4
 10
-1.18473193E+01
 20
1.19767615E+02
  0
VERTEX
  8
0
 62
4
 10
-1.16743344E+01
 20
1.19745956E+02
  0
VERTEX
  8
0
 62
4
 10
-1.15000229E+01
 20
1.19738718E+02
  0
VERTEX
  8
0
 62
4
 10
-1.13257114E+01
 20
1.19745956E+02
  0
VERTEX
  8
0
 62
4
 10
-1.11527265E+01
 20
1.19767615E+02
  0
VERTEX
  8
0
 62
4
 10
-1.09823848E+01
 20
1.19803531E+02
  0
VERTEX
  8
0
 62
4
 10
-1.08159826E+01
 20
1.19853429E+02
  0
VERTEX
  8
0
 62
4
 10
-1.06547864E+01
 20
1.19916931E+02
  0
VERTEX
  8
0
 62
4
 10
-1.05000229E+01
 20
1.19993553E+02
  0
VERTEX
  8
0
 62
4
 10
-1.03528700E+01
 20
1.20082711E+02
  0
VERTEX
  8
0
 62
4
 10
-1.02144477E+01
 20
1.20183728E+02
  0
VERTEX
  8
0
 62
4
 10
-1.00858093E+01
 20
1.20295834E+02
  0
VERTEX
  8
0
 62
4
 10
-9.96793401E+00
 20
1.20418176E+02
  0
VERTEX
  8
0
 62
4
 10
-9.86171881E+00
 20
1.20549824E+02
  0
VERTEX
  8
0
 62
4
 10
-9.76797209E+00
 20
1.20689774E+02
  0
VERTEX
  8
0
 62
4
 10
-9.68740732E+00
 20
1.20836963E+02
  0
VERTEX
  8
0
 62
4
 10
-9.62063766E+00
 20
1.20990270E+02
  0
VERTEX
  8
0
 62
4
 10
-9.56817125E+00
 20
1.21148528E+02
  0
VERTEX
  8
0
 62
4
 10
-9.53040739E+00
 20
1.21310533E+02
  0
VERTEX
  8
0
 62
4
 10
-9.50763350E+00
 20
1.21475051E+02
  0
VERTEX
  8
0
 62
4
 10
-9.50002290E+00
 20
1.21640831E+02
  0
SEQEND
  8
0
  0
POLYLINE
  8
0
 62
4
 66
1
  0
VERTEX
  8
0
 62
4
 10
-9.50002290E+00
 20
1.22516172E+02
  0
VERTEX
  8
0
 62
4
 10
-9.50807431E+00
 20
1.22686676E+02
  0
VERTEX
  8
0
 62
4
 10
-9.53216372E+00
 20
1.22855807E+02
  0
VERTEX
  8
0
 62
4
 10
-9.57209718E+00
 20
1.23022204E+02
  0
VERTEX
  8
0
 62
4
 10
-9.62755316E+00
 20
1.23184527E+02
  0
VERTEX
  8
0
 62
4
 10
-9.69808516E+00
 20
1.23341468E+02
  0
VERTEX
  8
0
 62
4
 10
-9.78312531E+00
 20
1.23491764E+02
  0
VERTEX
  8
0
 62
4
 10
-9.88198891E+00
 20
1.23634206E+02
  0
VERTEX
  8
0
 62
4
 10
-9.99387997E+00
 20
1.23767646E+02
  0
VERTEX
  8
0
 62
4
 10
-1.01178976E+01
 20
1.23891010E+02
  0
VERTEX
  8
0
 62
4
 10
-1.02530433E+01
 20
1.24003304E+02
  0
VERTEX
  8
0
 62
4
 10
-1.03982289E+01
 20
1.24103625E+02
  0
VERTEX
  8
0
 62
4
 10
-1.05522856E+01
 20
1.24191164E+02
  0
VERTEX
  8
0
 62
4
 10
-1.07139728E+01
 20
1.24265218E+02
  0
VERTEX
  8
0
 62
4
 10
-1.08819889E+01
 20
1.24325189E+02
  0
VERTEX
  8
0
 62
4
 10
-1.10549810E+01
 20
1.24370595E+02
  0
VERTEX
  8
0
 62
4
 10
-1.12315564E+01
 20
1.24401070E+02
  0
VERTEX
  8
0
 62
4
 10
-1.14102932E+01
 20
1.24416370E+02
  0
VERTEX
  8
0
 62
4
 10
-1.15897526E+01
 20
1.24416370E+02
  0
VERTEX
  8
0
 62
4
 10
-1.17684894E+01
 20
1.24401070E+02
  0
VERTEX
  8
0
 62
4
 10
-1.19450648E+01
 20
1.24370595E+02
  0
VERTEX
  8
0
 62
4
 10
-1.21180569E+01
 20
1.24325189E+02
  0
VERTEX
  8
0
 62
4
 10
-1.22860730E+01
 20
1.24265218E+02
  0
VERTEX
  8
0
 62
4
 10
-1.24477602E+01
 20
1.24191164E+02
  0
VERTEX
  8
0
 62
4
 10
-1.26018169E+01
 20
1.24103625E+02
  0
VERTEX
  8
0
 62
4
 10
-1.27470025E+01
 20
1.24003304E+02
  0
VERTEX
  8
0
 62
4
 10
-1.28821482E+01
 20
1.23891010E+02
  0
VERTEX
  8
0
 62
4
 10
-1.30061658E+01
 20
1.23767646E+02
  0
VERTEX
  8
0
 62
4
 10
-1.31180569E+01
 20
1.23634206E+02
  0
VERTEX
  8
0
 62
4
 10
-1.32169205E+01
 20
1.23491764E+02
  0
VERTEX
  8
0
 62
4
 10
-1.33019606E+01
 20
1.23341468E+02
  0
VERTEX
  8
0
 62
4
 10
-1.33724926E+01
 20
1.23184527E+02
  0
VERTEX
  8
0
 62
4
 10
-1.34279486E+01
 20
1.23022204E+02
  0
VERTEX
  8
0
 62
4
 10
-1.34678821E+01
 20
1.22855807E+02
  0
VERTEX
  8
0
 62
4
 10
-1.34919715E+01
 20
1.22686676E+02
  0
VERTEX
  8
0
 62
4
 10
-1.35000229E+01
 20
1.22516172E+02
  0
SEQEND
  8
0
  0
LINE
  8
0
  6
CENTER
 62
6
 10
-4.67000077E+01
 20
1.44897164E+02
 11
-5.63000077E+01
 21
1.44897164E+02
  0
LINE
  8
0
  6
CENTER
 62
6
 10
-5.15000076E+01
 20
1.49697164E+02
 11
-5.15000076E+01
 21
1.40097164E+02
  0
LINE
  8
0
  6
CENTER
 62
6
 10
-6.29254107E+01
 20
1.44897164E+02
 11
-7.00746045E+01
 21
1.44897164E+02
  0
LINE
  8
0
  6
CENTER
 62
6
 10
-6.65000076E+01
 20
1.48471761E+02
 11
-6.65000076E+01
 21
1.41322567E+02
  0
LINE
  8
0
 62
4
 10
-7.40000076E+01
 20
1.38872205E+02
 11
-7.55000076E+01
 21
1.37775942E+02
  0
LINE
  8
0
 62
4
 10
-7.55000076E+01
 20
1.37775942E+02
 11
-7.55000076E+01
 21
1.34921875E+02
  0
LINE
  8
0
 62
4
 10
-7.55000076E+01
 20
1.35621799E+02
 11
-7.40000076E+01
 21
1.35067979E+02
  0
LINE
  8
0
 62
4
 10
-7.55000076E+01
 20
1.34921875E+02
 11
-7.49193843E+01
 21
1.34499969E+02
  0
LINE
  8
0
 62
4
 10
-7.40000076E+01
 20
1.35067979E+02
 11
-5.05000076E+01
 21
1.35067979E+02
  0
LINE
  8
0
 62
4
 10
-7.40000076E+01
 20
1.38872205E+02
 11
-6.19103106E+01
 21
1.38872205E+02
  0
LINE
  8
0
 62
4
 10
-7.40000076E+01
 20
1.39285930E+02
 11
-6.22946399E+01
 21
1.39285930E+02
  0
LINE
  8
0
 62
4
 10
-7.40000076E+01
 20
1.34911070E+02
 11
-4.40000076E+01
 21
1.34911070E+02
  0
LINE
  8
0
 62
4
 10
-7.40000076E+01
 20
1.38872205E+02
 11
-7.40000076E+01
 21
1.34911070E+02
  0
LINE
  8
0
 62
4
 10
-7.40000076E+01
 20
1.34911070E+02
 11
-7.40000076E+01
 21
1.34499969E+02
  0
POLYLINE
  8
0
 62
4
 66
1
  0
VERTEX
  8
0
 62
4
 10
-6.31500076E+01
 20
1.42229762E+02
  0
VERTEX
  8
0
 62
4
 10
-6.31342156E+01
 20
1.41885768E+02
  0
VERTEX
  8
0
 62
4
 10
-6.30869598E+01
 20
1.41544393E+02
  0
VERTEX
  8
0
 62
4
 10
-6.30085998E+01
 20
1.41208233E+02
  0
VERTEX
  8
0
 62
4
 10
-6.28997320E+01
 20
1.40879848E+02
  0
VERTEX
  8
0
 62
4
 10
-6.27611849E+01
 20
1.40561737E+02
  0
VERTEX
  8
0
 62
4
 10
-6.25940130E+01
 20
1.40256320E+02
  0
VERTEX
  8
0
 62
4
 10
-6.23994886E+01
 20
1.39965922E+02
  0
VERTEX
  8
0
 62
4
 10
-6.21790920E+01
 20
1.39692754E+02
  0
VERTEX
  8
0
 62
4
 10
-6.19345008E+01
 20
1.39438893E+02
  0
VERTEX
  8
0
 62
4
 10
-6.16675762E+01
 20
1.39206273E+02
  0
VERTEX
  8
0
 62
4
 10
-6.13803498E+01
 20
1.38996663E+02
  0
VERTEX
  8
0
 62
4
 10
-6.10750076E+01
 20
1.38811660E+02
  0
VERTEX
  8
0
 62
4
 10
-6.07538734E+01
 20
1.38652670E+02
  0
VERTEX
  8
0
 62
4
 10
-6.04193912E+01
 20
1.38520904E+02
  0
VERTEX
  8
0
 62
4
 10
-6.00741066E+01
 20
1.38417364E+02
  0
VERTEX
  8
0
 62
4
 10
-5.97206475E+01
 20
1.38342840E+02
  0
VERTEX
  8
0
 62
4
 10
-5.93617039E+01
 20
1.38297897E+02
  0
VERTEX
  8
0
 62
4
 10
-5.90000076E+01
 20
1.38282877E+02
  0
VERTEX
  8
0
 62
4
 10
-5.86383113E+01
 20
1.38297897E+02
  0
VERTEX
  8
0
 62
4
 10
-5.82793677E+01
 20
1.38342840E+02
  0
VERTEX
  8
0
 62
4
 10
-5.79259086E+01
 20
1.38417364E+02
  0
VERTEX
  8
0
 62
4
 10
-5.75806240E+01
 20
1.38520904E+02
  0
VERTEX
  8
0
 62
4
 10
-5.72461418E+01
 20
1.38652670E+02
  0
VERTEX
  8
0
 62
4
 10
-5.69250076E+01
 20
1.38811660E+02
  0
VERTEX
  8
0
 62
4
 10
-5.66196654E+01
 20
1.38996663E+02
  0
VERTEX
  8
0
 62
4
 10
-5.63324390E+01
 20
1.39206273E+02
  0
VERTEX
  8
0
 62
4
 10
-5.60655145E+01
 20
1.39438893E+02
  0
VERTEX
  8
0
 62
4
 10
-5.58209232E+01
 20
1.39692754E+02
  0
VERTEX
  8
0
 62
4
 10
-5.56005266E+01
 20
1.39965922E+02
  0
VERTEX
  8
0
 62
4
 10
-5.54060022E+01
 20
1.40256320E+02
  0
VERTEX
  8
0
 62
4
 10
-5.52388303E+01
 20
1.40561737E+02
  0
VERTEX
  8
0
 62
4
 10
-5.51002832E+01
 20
1.40879848E+02
  0
VERTEX
  8
0
 62
4
 10
-5.49914154E+01
 20
1.41208233E+02
  0
VERTEX
  8
0
 62
4
 10
-5.49130554E+01
 20
1.41544393E+02
  0
VERTEX
  8
0
 62
4
 10
-5.48657996E+01
 20
1.41885768E+02
  0
VERTEX
  8
0
 62
4
 10
-5.48500076E+01
 20
1.42229762E+02
  0
VERTEX
  8
0
 62
4
 10
-5.48657996E+01
 20
1.42573756E+02
  0
VERTEX
  8
0
 62
4
 10
-5.49130554E+01
 20
1.42915131E+02
  0
VERTEX
  8
0
 62
4
 10
-5.49914154E+01
 20
1.43251291E+02
  0
VERTEX
  8
0
 62
4
 10
-5.51002832E+01
 20
1.43579676E+02
  0
VERTEX
  8
0
 62
4
 10
-5.52388303E+01
 20
1.43897787E+02
  0
VERTEX
  8
0
 62
4
 10
-5.54060022E+01
 20
1.44203204E+02
  0
VERTEX
  8
0
 62
4
 10
-5.56005266E+01
 20
1.44493602E+02
  0
VERTEX
  8
0
 62
4
 10
-5.58209232E+01
 20
1.44766770E+02
  0
VERTEX
  8
0
 62
4
 10
-5.60655145E+01
 20
1.45020631E+02
  0
VERTEX
  8
0
 62
4
 10
-5.63324390E+01
 20
1.45253251E+02
  0
VERTEX
  8
0
 62
4
 10
-5.66196654E+01
 20
1.45462861E+02
  0
VERTEX
  8
0
 62
4
 10
-5.69250076E+01
 20
1.45647864E+02
  0
VERTEX
  8
0
 62
4
 10
-5.72461418E+01
 20
1.45806854E+02
  0
VERTEX
  8
0
 62
4
 10
-5.75806240E+01
 20
1.45938620E+02
  0
VERTEX
  8
0
 62
4
 10
-5.79259086E+01
 20
1.46042160E+02
  0
VERTEX
  8
0
 62
4
 10
-5.82793677E+01
 20
1.46116684E+02
  0
VERTEX
  8
0
 62
4
 10
-5.86383113E+01
 20
1.46161627E+02
  0
VERTEX
  8
0
 62
4
 10
-5.90000076E+01
 20
1.46176647E+02
  0
VERTEX
  8
0
 62
4
 10
-5.93617039E+01
 20
1.46161627E+02
  0
VERTEX
  8
0
 62
4
 10
-5.97206475E+01
 20
1.46116684E+02
  0
VERTEX
  8
0
 62
4
 10
-6.00741066E+01
 20
1.46042160E+02
  0
VERTEX
  8
0
 62
4
 10
-6.04193912E+01
 20
1.45938620E+02
  0
VERTEX
  8
0
 62
4
 10
-6.07538734E+01
 20
1.45806854E+02
  0
VERTEX
  8
0
 62
4
 10
-6.10750076E+01
 20
1.45647864E+02
  0
VERTEX
  8
0
 62
4
 10
-6.13803498E+01
 20
1.45462861E+02
  0
VERTEX
  8
0
 62
4
 10
-6.16675762E+01
 20
1.45253251E+02
  0
VERTEX
  8
0
 62
4
 10
-6.19345007E+01
 20
1.45020631E+02
  0
VERTEX
  8
0
 62
4
 10
-6.21790920E+01
 20
1.44766770E+02
  0
VERTEX
  8
0
 62
4
 10
-6.23994886E+01
 20
1.44493602E+02
  0
VERTEX
  8
0
 62
4
 10
-6.25940130E+01
 20
1.44203204E+02
  0
VERTEX
  8
0
 62
4
 10
-6.27611849E+01
 20
1.43897787E+02
  0
VERTEX
  8
0
 62
4
 10
-6.28997320E+01
 20
1.43579676E+02
  0
VERTEX
  8
0
 62
4
 10
-6.30085998E+01
 20
1.43251291E+02
  0
VERTEX
  8
0
 62
4
 10
-6.30869598E+01
 20
1.42915131E+02
  0
VERTEX
  8
0
 62
4
 10
-6.31342156E+01
 20
1.42573756E+02
  0
VERTEX
  8
0
 62
4
 10
-6.31500076E+01
 20
1.42229762E+02
  0
SEQEND
  8
0
  0
ARC
  8
0
 62
4
 10
1.29293589E+01
 20
6.67969992E+01
 40
1.04392782E+02
 50
1.32228766E+02
 51
1.34907157E+02
  0
ARC
  8
0
 62
4
 10
-1.30929150E+02
 20
6.67972345E+01
 40
1.04392457E+02
 50
4.50928385E+01
 51
4.77712376E+01
  0
POLYLINE
  8
0
 62
4
 66
1
  0
VERTEX
  8
0
 62
4
 10
-6.31500076E+01
 20
1.41685892E+02
  0
VERTEX
  8
0
 62
4
 10
-6.31333009E+01
 20
1.41332096E+02
  0
VERTEX
  8
0
 62
4
 10
-6.30833154E+01
 20
1.40981149E+02
  0
VERTEX
  8
0
 62
4
 10
-6.30004535E+01
 20
1.40635875E+02
  0
VERTEX
  8
0
 62
4
 10
-6.28853823E+01
 20
1.40299056E+02
  0
VERTEX
  8
0
 62
4
 10
-6.27390284E+01
 20
1.39973403E+02
  0
VERTEX
  8
0
 62
4
 10
-6.25625701E+01
 20
1.39661538E+02
  0
VERTEX
  8
0
 62
4
 10
-6.23574281E+01
 20
1.39365971E+02
  0
VERTEX
  8
0
 62
4
 10
-6.21252542E+01
 20
1.39089084E+02
  0
VERTEX
  8
0
 62
4
 10
-6.18679176E+01
 20
1.38833104E+02
  0
VERTEX
  8
0
 62
4
 10
-6.15874903E+01
 20
1.38600093E+02
  0
VERTEX
  8
0
 62
4
 10
-6.12862301E+01
 20
1.38391928E+02
  0
VERTEX
  8
0
 62
4
 10
-6.09665626E+01
 20
1.38210283E+02
  0
VERTEX
  8
0
 62
4
 10
-6.06310615E+01
 20
1.38056622E+02
  0
VERTEX
  8
0
 62
4
 10
-6.02824281E+01
 20
1.37932182E+02
  0
VERTEX
  8
0
 62
4
 10
-5.99234695E+01
 20
1.37837964E+02
  0
VERTEX
  8
0
 62
4
 10
-5.95570757E+01
 20
1.37774728E+02
  0
VERTEX
  8
0
 62
4
 10
-5.91861967E+01
 20
1.37742982E+02
  0
VERTEX
  8
0
 62
4
 10
-5.88138186E+01
 20
1.37742982E+02
  0
VERTEX
  8
0
 62
4
 10
-5.84429396E+01
 20
1.37774728E+02
  0
VERTEX
  8
0
 62
4
 10
-5.80765457E+01
 20
1.37837964E+02
  0
VERTEX
  8
0
 62
4
 10
-5.77175871E+01
 20
1.37932182E+02
  0
VERTEX
  8
0
 62
4
 10
-5.73689537E+01
 20
1.38056622E+02
  0
VERTEX
  8
0
 62
4
 10
-5.70334527E+01
 20
1.38210283E+02
  0
VERTEX
  8
0
 62
4
 10
-5.67137851E+01
 20
1.38391928E+02
  0
VERTEX
  8
0
 62
4
 10
-5.64125249E+01
 20
1.38600093E+02
  0
VERTEX
  8
0
 62
4
 10
-5.61320976E+01
 20
1.38833104E+02
  0
VERTEX
  8
0
 62
4
 10
-5.58747610E+01
 20
1.39089084E+02
  0
VERTEX
  8
0
 62
4
 10
-5.56425871E+01
 20
1.39365971E+02
  0
VERTEX
  8
0
 62
4
 10
-5.54374451E+01
 20
1.39661538E+02
  0
VERTEX
  8
0
 62
4
 10
-5.52609868E+01
 20
1.39973403E+02
  0
VERTEX
  8
0
 62
4
 10
-5.51146329E+01
 20
1.40299056E+02
  0
VERTEX
  8
0
 62
4
 10
-5.49995617E+01
 20
1.40635875E+02
  0
VERTEX
  8
0
 62
4
 10
-5.49166998E+01
 20
1.40981149E+02
  0
VERTEX
  8
0
 62
4
 10
-5.48667143E+01
 20
1.41332096E+02
  0
VERTEX
  8
0
 62
4
 10
-5.48500076E+01
 20
1.41685892E+02
  0
SEQEND
  8
0
  0
LINE
  8
0
 62
4
 10
-6.31500076E+01
 20
1.41685892E+02
 11
-6.31500076E+01
 21
1.42229762E+02
  0
LINE
  8
0
 62
4
 10
-5.48500076E+01
 20
1.41685892E+02
 11
-5.48500076E+01
 21
1.42229762E+02
  0
POLYLINE
  8
0
 62
4
 66
1
  0
VERTEX
  8
0
 62
4
 10
-5.53000076E+01
 20
1.44897164E+02
  0
VERTEX
  8
0
 62
4
 10
-5.52847099E+01
 20
1.44573206E+02
  0
VERTEX
  8
0
 62
4
 10
-5.52389401E+01
 20
1.44251857E+02
  0
VERTEX
  8
0
 62
4
 10
-5.51630665E+01
 20
1.43935703E+02
  0
VERTEX
  8
0
 62
4
 10
-5.50577001E+01
 20
1.43627290E+02
  0
VERTEX
  8
0
 62
4
 10
-5.49236893E+01
 20
1.43329102E+02
  0
VERTEX
  8
0
 62
4
 10
-5.47621130E+01
 20
1.43043538E+02
  0
VERTEX
  8
0
 62
4
 10
-5.45742722E+01
 20
1.42772899E+02
  0
VERTEX
  8
0
 62
4
 10
-5.43616792E+01
 20
1.42519364E+02
  0
VERTEX
  8
0
 62
4
 10
-5.41260457E+01
 20
1.42284973E+02
  0
VERTEX
  8
0
 62
4
 10
-5.38692689E+01
 20
1.42071613E+02
  0
VERTEX
  8
0
 62
4
 10
-5.35934162E+01
 20
1.41881004E+02
  0
VERTEX
  8
0
 62
4
 10
-5.33007085E+01
 20
1.41714679E+02
  0
VERTEX
  8
0
 62
4
 10
-5.29935027E+01
 20
1.41573977E+02
  0
VERTEX
  8
0
 62
4
 10
-5.26742722E+01
 20
1.41460032E+02
  0
VERTEX
  8
0
 62
4
 10
-5.23455872E+01
 20
1.41373760E+02
  0
VERTEX
  8
0
 62
4
 10
-5.20100940E+01
 20
1.41315857E+02
  0
VERTEX
  8
0
 62
4
 10
-5.16704940E+01
 20
1.41286788E+02
  0
VERTEX
  8
0
 62
4
 10
-5.13295213E+01
 20
1.41286788E+02
  0
VERTEX
  8
0
 62
4
 10
-5.09899212E+01
 20
1.41315857E+02
  0
VERTEX
  8
0
 62
4
 10
-5.06544281E+01
 20
1.41373760E+02
  0
VERTEX
  8
0
 62
4
 10
-5.03257430E+01
 20
1.41460032E+02
  0
VERTEX
  8
0
 62
4
 10
-5.00065125E+01
 20
1.41573977E+02
  0
VERTEX
  8
0
 62
4
 10
-4.96993067E+01
 20
1.41714679E+02
  0
VERTEX
  8
0
 62
4
 10
-4.94065991E+01
 20
1.41881004E+02
  0
VERTEX
  8
0
 62
4
 10
-4.91307464E+01
 20
1.42071613E+02
  0
VERTEX
  8
0
 62
4
 10
-4.88739695E+01
 20
1.42284973E+02
  0
VERTEX
  8
0
 62
4
 10
-4.86383360E+01
 20
1.42519364E+02
  0
VERTEX
  8
0
 62
4
 10
-4.84257430E+01
 20
1.42772899E+02
  0
VERTEX
  8
0
 62
4
 10
-4.82379022E+01
 20
1.43043538E+02
  0
VERTEX
  8
0
 62
4
 10
-4.80763259E+01
 20
1.43329102E+02
  0
VERTEX
  8
0
 62
4
 10
-4.79423151E+01
 20
1.43627290E+02
  0
VERTEX
  8
0
 62
4
 10
-4.78369487E+01
 20
1.43935703E+02
  0
VERTEX
  8
0
 62
4
 10
-4.77610751E+01
 20
1.44251857E+02
  0
VERTEX
  8
0
 62
4
 10
-4.77153053E+01
 20
1.44573206E+02
  0
VERTEX
  8
0
 62
4
 10
-4.77000076E+01
 20
1.44897164E+02
  0
SEQEND
  8
0
  0
POLYLINE
  8
0
 62
4
 66
1
  0
VERTEX
  8
0
 62
4
 10
-5.53000076E+01
 20
1.45206181E+02
  0
VERTEX
  8
0
 62
4
 10
-5.52855475E+01
 20
1.44891199E+02
  0
VERTEX
  8
0
 62
4
 10
-5.52422771E+01
 20
1.44578614E+02
  0
VERTEX
  8
0
 62
4
 10
-5.51705258E+01
 20
1.44270805E+02
  0
VERTEX
  8
0
 62
4
 10
-5.50708396E+01
 20
1.43970115E+02
  0
VERTEX
  8
0
 62
4
 10
-5.49439772E+01
 20
1.43678832E+02
  0
VERTEX
  8
0
 62
4
 10
-5.47909042E+01
 20
1.43399174E+02
  0
VERTEX
  8
0
 62
4
 10
-5.46127854E+01
 20
1.43133267E+02
  0
VERTEX
  8
0
 62
4
 10
-5.44109765E+01
 20
1.42883137E+02
  0
VERTEX
  8
0
 62
4
 10
-5.41870134E+01
 20
1.42650687E+02
  0
VERTEX
  8
0
 62
4
 10
-5.39426005E+01
 20
1.42437685E+02
  0
VERTEX
  8
0
 62
4
 10
-5.36795981E+01
 20
1.42245753E+02
  0
VERTEX
  8
0
 62
4
 10
-5.34000076E+01
 20
1.42076352E+02
  0
VERTEX
  8
0
 62
4
 10
-5.31059570E+01
 20
1.41930771E+02
  0
VERTEX
  8
0
 62
4
 10
-5.27996842E+01
 20
1.41810118E+02
  0
VERTEX
  8
0
 62
4
 10
-5.24835200E+01
 20
1.41715311E+02
  0
VERTEX
  8
0
 62
4
 10
-5.21598707E+01
 20
1.41647071E+02
  0
VERTEX
  8
0
 62
4
 10
-5.18311994E+01
 20
1.41605919E+02
  0
VERTEX
  8
0
 62
4
 10
-5.15000076E+01
 20
1.41592166E+02
  0
VERTEX
  8
0
 62
4
 10
-5.11688158E+01
 20
1.41605919E+02
  0
VERTEX
  8
0
 62
4
 10
-5.08401445E+01
 20
1.41647071E+02
  0
VERTEX
  8
0
 62
4
 10
-5.05164952E+01
 20
1.41715311E+02
  0
VERTEX
  8
0
 62
4
 10
-5.02003311E+01
 20
1.41810118E+02
  0
VERTEX
  8
0
 62
4
 10
-4.98940582E+01
 20
1.41930771E+02
  0
VERTEX
  8
0
 62
4
 10
-4.96000076E+01
 20
1.42076352E+02
  0
VERTEX
  8
0
 62
4
 10
-4.93204171E+01
 20
1.42245753E+02
  0
VERTEX
  8
0
 62
4
 10
-4.90574147E+01
 20
1.42437685E+02
  0
VERTEX
  8
0
 62
4
 10
-4.88130018E+01
 20
1.42650687E+02
  0
VERTEX
  8
0
 62
4
 10
-4.85890387E+01
 20
1.42883137E+02
  0
VERTEX
  8
0
 62
4
 10
-4.83872298E+01
 20
1.43133267E+02
  0
VERTEX
  8
0
 62
4
 10
-4.82091110E+01
 20
1.43399174E+02
  0
VERTEX
  8
0
 62
4
 10
-4.80560380E+01
 20
1.43678832E+02
  0
VERTEX
  8
0
 62
4
 10
-4.79291756E+01
 20
1.43970115E+02
  0
VERTEX
  8
0
 62
4
 10
-4.78294894E+01
 20
1.44270805E+02
  0
VERTEX
  8
0
 62
4
 10
-4.77577381E+01
 20
1.44578614E+02
  0
VERTEX
  8
0
 62
4
 10
-4.77144677E+01
 20
1.44891199E+02
  0
VERTEX
  8
0
 62
4
 10
-4.77000076E+01
 20
1.45206181E+02
  0
VERTEX
  8
0
 62
4
 10
-4.77144677E+01
 20
1.45521163E+02
  0
VERTEX
  8
0
 62
4
 10
-4.77577381E+01
 20
1.45833748E+02
  0
VERTEX
  8
0
 62
4
 10
-4.78294894E+01
 20
1.46141557E+02
  0
VERTEX
  8
0
 62
4
 10
-4.79291756E+01
 20
1.46442247E+02
  0
VERTEX
  8
0
 62
4
 10
-4.80560380E+01
 20
1.46733530E+02
  0
VERTEX
  8
0
 62
4
 10
-4.82091110E+01
 20
1.47013188E+02
  0
VERTEX
  8
0
 62
4
 10
-4.83872298E+01
 20
1.47279095E+02
  0
VERTEX
  8
0
 62
4
 10
-4.85890387E+01
 20
1.47529225E+02
  0
VERTEX
  8
0
 62
4
 10
-4.88130018E+01
 20
1.47761675E+02
  0
VERTEX
  8
0
 62
4
 10
-4.90574147E+01
 20
1.47974677E+02
  0
VERTEX
  8
0
 62
4
 10
-4.93204171E+01
 20
1.48166609E+02
  0
VERTEX
  8
0
 62
4
 10
-4.96000076E+01
 20
1.48336010E+02
  0
VERTEX
  8
0
 62
4
 10
-4.98940582E+01
 20
1.48481591E+02
  0
VERTEX
  8
0
 62
4
 10
-5.02003310E+01
 20
1.48602244E+02
  0
VERTEX
  8
0
 62
4
 10
-5.05164952E+01
 20
1.48697051E+02
  0
VERTEX
  8
0
 62
4
 10
-5.08401445E+01
 20
1.48765291E+02
  0
VERTEX
  8
0
 62
4
 10
-5.11688158E+01
 20
1.48806443E+02
  0
VERTEX
  8
0
 62
4
 10
-5.15000076E+01
 20
1.48820196E+02
  0
VERTEX
  8
0
 62
4
 10
-5.18311994E+01
 20
1.48806443E+02
  0
VERTEX
  8
0
 62
4
 10
-5.21598707E+01
 20
1.48765291E+02
  0
VERTEX
  8
0
 62
4
 10
-5.24835200E+01
 20
1.48697051E+02
  0
VERTEX
  8
0
 62
4
 10
-5.27996842E+01
 20
1.48602244E+02
  0
VERTEX
  8
0
 62
4
 10
-5.31059570E+01
 20
1.48481591E+02
  0
VERTEX
  8
0
 62
4
 10
-5.34000076E+01
 20
1.48336010E+02
  0
VERTEX
  8
0
 62
4
 10
-5.36795981E+01
 20
1.48166609E+02
  0
VERTEX
  8
0
 62
4
 10
-5.39426005E+01
 20
1.47974677E+02
  0
VERTEX
  8
0
 62
4
 10
-5.41870134E+01
 20
1.47761675E+02
  0
VERTEX
  8
0
 62
4
 10
-5.44109765E+01
 20
1.47529225E+02
  0
VERTEX
  8
0
 62
4
 10
-5.46127854E+01
 20
1.47279095E+02
  0
VERTEX
  8
0
 62
4
 10
-5.47909042E+01
 20
1.47013188E+02
  0
VERTEX
  8
0
 62
4
 10
-5.49439772E+01
 20
1.46733530E+02
  0
VERTEX
  8
0
 62
4
 10
-5.50708396E+01
 20
1.46442247E+02
  0
VERTEX
  8
0
 62
4
 10
-5.51705258E+01
 20
1.46141557E+02
  0
VERTEX
  8
0
 62
4
 10
-5.52422771E+01
 20
1.45833748E+02
  0
VERTEX
  8
0
 62
4
 10
-5.52855475E+01
 20
1.45521163E+02
  0
VERTEX
  8
0
 62
4
 10
-5.53000076E+01
 20
1.45206181E+02
  0
SEQEND
  8
0
  0
LINE
  8
0
 62
4
 10
-5.53000077E+01
 20
1.44897164E+02
 11
-5.53000077E+01
 21
1.45206181E+02
  0
LINE
  8
0
 62
4
 10
-4.77000077E+01
 20
1.44897164E+02
 11
-4.77000077E+01
 21
1.45206181E+02
  0
POLYLINE
  8
0
 62
4
 66
1
  0
VERTEX
  8
0
 62
4
 10
-5.49000076E+01
 20
1.45206181E+02
  0
VERTEX
  8
0
 62
4
 10
-5.48863202E+01
 20
1.44916324E+02
  0
VERTEX
  8
0
 62
4
 10
-5.48453682E+01
 20
1.44628801E+02
  0
VERTEX
  8
0
 62
4
 10
-5.47774814E+01
 20
1.44345926E+02
  0
VERTEX
  8
0
 62
4
 10
-5.46832062E+01
 20
1.44069978E+02
  0
VERTEX
  8
0
 62
4
 10
-5.45633018E+01
 20
1.43803178E+02
  0
VERTEX
  8
0
 62
4
 10
-5.44187335E+01
 20
1.43547674E+02
  0
VERTEX
  8
0
 62
4
 10
-5.42506654E+01
 20
1.43305523E+02
  0
VERTEX
  8
0
 62
4
 10
-5.40604506E+01
 20
1.43078676E+02
  0
VERTEX
  8
0
 62
4
 10
-5.38496206E+01
 20
1.42868957E+02
  0
VERTEX
  8
0
 62
4
 10
-5.36198730E+01
 20
1.42678057E+02
  0
VERTEX
  8
0
 62
4
 10
-5.33730574E+01
 20
1.42507511E+02
  0
VERTEX
  8
0
 62
4
 10
-5.31111611E+01
 20
1.42358694E+02
  0
VERTEX
  8
0
 62
4
 10
-5.28362927E+01
 20
1.42232803E+02
  0
VERTEX
  8
0
 62
4
 10
-5.25506654E+01
 20
1.42130852E+02
  0
VERTEX
  8
0
 62
4
 10
-5.22565788E+01
 20
1.42053662E+02
  0
VERTEX
  8
0
 62
4
 10
-5.19564007E+01
 20
1.42001854E+02
  0
VERTEX
  8
0
 62
4
 10
-5.16525480E+01
 20
1.41975845E+02
  0
VERTEX
  8
0
 62
4
 10
-5.13474672E+01
 20
1.41975845E+02
  0
VERTEX
  8
0
 62
4
 10
-5.10436145E+01
 20
1.42001854E+02
  0
VERTEX
  8
0
 62
4
 10
-5.07434364E+01
 20
1.42053662E+02
  0
VERTEX
  8
0
 62
4
 10
-5.04493498E+01
 20
1.42130852E+02
  0
VERTEX
  8
0
 62
4
 10
-5.01637225E+01
 20
1.42232803E+02
  0
VERTEX
  8
0
 62
4
 10
-4.98888542E+01
 20
1.42358694E+02
  0
VERTEX
  8
0
 62
4
 10
-4.96269579E+01
 20
1.42507511E+02
  0
VERTEX
  8
0
 62
4
 10
-4.93801423E+01
 20
1.42678057E+02
  0
VERTEX
  8
0
 62
4
 10
-4.91503946E+01
 20
1.42868957E+02
  0
VERTEX
  8
0
 62
4
 10
-4.89395646E+01
 20
1.43078675E+02
  0
VERTEX
  8
0
 62
4
 10
-4.87493498E+01
 20
1.43305523E+02
  0
VERTEX
  8
0
 62
4
 10
-4.85812817E+01
 20
1.43547674E+02
  0
VERTEX
  8
0
 62
4
 10
-4.84367134E+01
 20
1.43803178E+02
  0
VERTEX
  8
0
 62
4
 10
-4.83168090E+01
 20
1.44069978E+02
  0
VERTEX
  8
0
 62
4
 10
-4.82225339E+01
 20
1.44345926E+02
  0
VERTEX
  8
0
 62
4
 10
-4.81546470E+01
 20
1.44628801E+02
  0
VERTEX
  8
0
 62
4
 10
-4.81136950E+01
 20
1.44916324E+02
  0
VERTEX
  8
0
 62
4
 10
-4.81000076E+01
 20
1.45206181E+02
  0
SEQEND
  8
0
  0
LINE
  8
0
 62
4
 10
-4.81000076E+01
 20
1.45604562E+02
 11
-4.81000076E+01
 21
1.45206181E+02
  0
LINE
  8
0
 62
4
 10
-5.49000076E+01
 20
1.45206181E+02
 11
-5.49000076E+01
 21
1.45604562E+02
  0
POLYLINE
  8
0
 62
4
 66
1
  0
VERTEX
  8
0
 62
4
 10
-5.49000076E+01
 20
1.45604562E+02
  0
VERTEX
  8
0
 62
4
 10
-5.48870696E+01
 20
1.45322736E+02
  0
VERTEX
  8
0
 62
4
 10
-5.48483540E+01
 20
1.45043055E+02
  0
VERTEX
  8
0
 62
4
 10
-5.47841554E+01
 20
1.44767647E+02
  0
VERTEX
  8
0
 62
4
 10
-5.46949625E+01
 20
1.44498608E+02
  0
VERTEX
  8
0
 62
4
 10
-5.45814541E+01
 20
1.44237987E+02
  0
VERTEX
  8
0
 62
4
 10
-5.44444940E+01
 20
1.43987766E+02
  0
VERTEX
  8
0
 62
4
 10
-5.42851246E+01
 20
1.43749850E+02
  0
VERTEX
  8
0
 62
4
 10
-5.41045587E+01
 20
1.43526049E+02
  0
VERTEX
  8
0
 62
4
 10
-5.39041707E+01
 20
1.43318067E+02
  0
VERTEX
  8
0
 62
4
 10
-5.36854855E+01
 20
1.43127487E+02
  0
VERTEX
  8
0
 62
4
 10
-5.34501675E+01
 20
1.42955758E+02
  0
VERTEX
  8
0
 62
4
 10
-5.32000076E+01
 20
1.42804189E+02
  0
VERTEX
  8
0
 62
4
 10
-5.29369097E+01
 20
1.42673932E+02
  0
VERTEX
  8
0
 62
4
 10
-5.26628761E+01
 20
1.42565979E+02
  0
VERTEX
  8
0
 62
4
 10
-5.23799924E+01
 20
1.42481152E+02
  0
VERTEX
  8
0
 62
4
 10
-5.20904114E+01
 20
1.42420095E+02
  0
VERTEX
  8
0
 62
4
 10
-5.17963371E+01
 20
1.42383275E+02
  0
VERTEX
  8
0
 62
4
 10
-5.15000076E+01
 20
1.42370970E+02
  0
VERTEX
  8
0
 62
4
 10
-5.12036781E+01
 20
1.42383275E+02
  0
VERTEX
  8
0
 62
4
 10
-5.09096038E+01
 20
1.42420095E+02
  0
VERTEX
  8
0
 62
4
 10
-5.06200228E+01
 20
1.42481152E+02
  0
VERTEX
  8
0
 62
4
 10
-5.03371391E+01
 20
1.42565979E+02
  0
VERTEX
  8
0
 62
4
 10
-5.00631055E+01
 20
1.42673932E+02
  0
VERTEX
  8
0
 62
4
 10
-4.98000076E+01
 20
1.42804189E+02
  0
VERTEX
  8
0
 62
4
 10
-4.95498477E+01
 20
1.42955758E+02
  0
VERTEX
  8
0
 62
4
 10
-4.93145297E+01
 20
1.43127487E+02
  0
VERTEX
  8
0
 62
4
 10
-4.90958445E+01
 20
1.43318067E+02
  0
VERTEX
  8
0
 62
4
 10
-4.88954565E+01
 20
1.43526049E+02
  0
VERTEX
  8
0
 62
4
 10
-4.87148906E+01
 20
1.43749850E+02
  0
VERTEX
  8
0
 62
4
 10
-4.85555212E+01
 20
1.43987766E+02
  0
VERTEX
  8
0
 62
4
 10
-4.84185611E+01
 20
1.44237987E+02
  0
VERTEX
  8
0
 62
4
 10
-4.83050527E+01
 20
1.44498608E+02
  0
VERTEX
  8
0
 62
4
 10
-4.82158598E+01
 20
1.44767647E+02
  0
VERTEX
  8
0
 62
4
 10
-4.81516612E+01
 20
1.45043055E+02
  0
VERTEX
  8
0
 62
4
 10
-4.81129456E+01
 20
1.45322736E+02
  0
VERTEX
  8
0
 62
4
 10
-4.81000076E+01
 20
1.45604562E+02
  0
VERTEX
  8
0
 62
4
 10
-4.81129456E+01
 20
1.45886388E+02
  0
VERTEX
  8
0
 62
4
 10
-4.81516612E+01
 20
1.46166069E+02
  0
VERTEX
  8
0
 62
4
 10
-4.82158598E+01
 20
1.46441477E+02
  0
VERTEX
  8
0
 62
4
 10
-4.83050527E+01
 20
1.46710516E+02
  0
VERTEX
  8
0
 62
4
 10
-4.84185611E+01
 20
1.46971137E+02
  0
VERTEX
  8
0
 62
4
 10
-4.85555212E+01
 20
1.47221358E+02
  0
VERTEX
  8
0
 62
4
 10
-4.87148906E+01
 20
1.47459274E+02
  0
VERTEX
  8
0
 62
4
 10
-4.88954565E+01
 20
1.47683075E+02
  0
VERTEX
  8
0
 62
4
 10
-4.90958445E+01
 20
1.47891057E+02
  0
VERTEX
  8
0
 62
4
 10
-4.93145297E+01
 20
1.48081637E+02
  0
VERTEX
  8
0
 62
4
 10
-4.95498477E+01
 20
1.48253366E+02
  0
VERTEX
  8
0
 62
4
 10
-4.98000076E+01
 20
1.48404935E+02
  0
VERTEX
  8
0
 62
4
 10
-5.00631055E+01
 20
1.48535192E+02
  0
VERTEX
  8
0
 62
4
 10
-5.03371391E+01
 20
1.48643145E+02
  0
VERTEX
  8
0
 62
4
 10
-5.06200228E+01
 20
1.48727972E+02
  0
VERTEX
  8
0
 62
4
 10
-5.09096038E+01
 20
1.48789029E+02
  0
VERTEX
  8
0
 62
4
 10
-5.12036781E+01
 20
1.48825849E+02
  0
VERTEX
  8
0
 62
4
 10
-5.15000076E+01
 20
1.48838154E+02
  0
VERTEX
  8
0
 62
4
 10
-5.17963371E+01
 20
1.48825849E+02
  0
VERTEX
  8
0
 62
4
 10
-5.20904114E+01
 20
1.48789029E+02
  0
VERTEX
  8
0
 62
4
 10
-5.23799924E+01
 20
1.48727972E+02
  0
VERTEX
  8
0
 62
4
 10
-5.26628761E+01
 20
1.48643145E+02
  0
VERTEX
  8
0
 62
4
 10
-5.29369097E+01
 20
1.48535192E+02
  0
VERTEX
  8
0
 62
4
 10
-5.32000076E+01
 20
1.48404935E+02
  0
VERTEX
  8
0
 62
4
 10
-5.34501675E+01
 20
1.48253366E+02
  0
VERTEX
  8
0
 62
4
 10
-5.36854855E+01
 20
1.48081637E+02
  0
VERTEX
  8
0
 62
4
 10
-5.39041707E+01
 20
1.47891057E+02
  0
VERTEX
  8
0
 62
4
 10
-5.41045587E+01
 20
1.47683075E+02
  0
VERTEX
  8
0
 62
4
 10
-5.42851246E+01
 20
1.47459274E+02
  0
VERTEX
  8
0
 62
4
 10
-5.44444940E+01
 20
1.47221358E+02
  0
VERTEX
  8
0
 62
4
 10
-5.45814541E+01
 20
1.46971137E+02
  0
VERTEX
  8
0
 62
4
 10
-5.46949625E+01
 20
1.46710516E+02
  0
VERTEX
  8
0
 62
4
 10
-5.47841554E+01
 20
1.46441477E+02
  0
VERTEX
  8
0
 62
4
 10
-5.48483540E+01
 20
1.46166069E+02
  0
VERTEX
  8
0
 62
4
 10
-5.48870696E+01
 20
1.45886388E+02
  0
VERTEX
  8
0
 62
4
 10
-5.49000076E+01
 20
1.45604562E+02
  0
SEQEND
  8
0
  0
ARC
  8
0
 62
4
 10
1.73145117E+01
 20
7.35510205E+01
 40
9.98837386E+01
 50
1.32163454E+02
 51
1.34962547E+02
  0
ARC
  8
0
 62
4
 10
-1.20314527E+02
 20
7.35510205E+01
 40
9.98837386E+01
 50
4.50374523E+01
 51
4.78365464E+01
  0
LINE
  8
0
 62
4
 10
-5.57053754E+01
 20
1.39285930E+02
 11
-4.40000076E+01
 21
1.39285930E+02
  0
LINE
  8
0
 62
4
 10
-5.60897047E+01
 20
1.38872205E+02
 11
-5.05000076E+01
 21
1.38872205E+02
  0
LINE
  8
0
 62
7
 10
-1.50000229E+01
 20
1.34499969E+02
 11
-8.50000076E+01
 21
1.34499969E+02
  0
LINE
  8
0
 62
7
 10
-1.50000229E+01
 20
1.32099976E+02
 11
-8.50000076E+01
 21
1.32099976E+02
  0
LINE
  8
0
 62
7
 10
-1.50000229E+01
 20
1.24899963E+02
 11
-8.50000076E+01
 21
1.24899963E+02
  0
LINE
  8
0
 62
4
 10
1.65000076E+01
 20
1.37775942E+02
 11
1.65000076E+01
 21
1.34921875E+02
  0
LINE
  8
0
 62
4
 10
1.50000076E+01
 20
1.38872205E+02
 11
1.65000076E+01
 21
1.37775942E+02
  0
LINE
  8
0
 62
4
 10
1.49999771E+01
 20
1.37636138E+02
 11
1.65000076E+01
 21
1.37076018E+02
  0
LINE
  8
0
 62
4
 10
1.65000076E+01
 20
1.34921875E+02
 11
1.49999771E+01
 21
1.33831889E+02
  0
LINE
  8
0
 62
7
 10
-3.40364266E+02
 20
1.15278120E+02
 11
-3.47726113E+02
 21
1.22639967E+02
  0
LINE
  8
0
 62
7
 10
-3.41778566E+02
 20
8.71360759E+01
 11
-3.49140403E+02
 21
7.97742395E+01
  0
LINE
  8
0
 62
7
 10
-3.64000084E+02
 20
6.69999695E+01
 11
-3.64000084E+02
 21
1.34000000E+02
  0
LINE
  8
0
 62
7
 10
-3.28000023E+02
 20
1.34000000E+02
 11
-3.28000023E+02
 21
1.20399750E+02
  0
LINE
  8
0
 62
7
 10
-3.60500053E+02
 20
9.94999695E+01
 11
-3.46899803E+02
 21
9.94999695E+01
  0
LINE
  8
0
 62
7
 10
-3.61500084E+02
 20
8.74998779E+01
 11
-3.61500084E+02
 21
1.13500076E+02
  0
LINE
  8
0
 62
7
 10
-3.40364320E+02
 20
8.57218083E+01
 11
-3.47726168E+02
 21
7.83599611E+01
  0
LINE
  8
0
 62
7
 10
-3.41778468E+02
 20
1.13863961E+02
 11
-3.49140316E+02
 21
1.21225808E+02
  0
LINE
  8
0
 62
7
 10
-3.26000023E+02
 20
1.34000015E+02
 11
-3.26000023E+02
 21
1.20399750E+02
  0
LINE
  8
0
 62
7
 10
-3.60499992E+02
 20
6.35000000E+01
 11
-2.93500023E+02
 21
6.35000000E+01
  0
LINE
  8
0
 62
7
 10
-3.60499992E+02
 20
1.01499969E+02
 11
-3.46899803E+02
 21
1.01499969E+02
  0
LINE
  8
0
 62
7
 10
-3.28000053E+02
 20
6.69999695E+01
 11
-3.28000053E+02
 21
8.06002502E+01
  0
LINE
  8
0
 62
7
 10
-3.64500084E+02
 20
6.69999695E+01
 11
-3.64500084E+02
 21
1.34000000E+02
  0
LINE
  8
0
  6
CENTER
 62
2
 10
-3.55000145E+02
 20
6.10016174E+01
 11
-3.55000145E+02
 21
8.35345917E+01
  0
LINE
  8
0
  6
CENTER
 62
2
 10
-3.55000084E+02
 20
1.17270401E+02
 11
-3.55000084E+02
 21
1.40057983E+02
  0
LINE
  8
0
  6
CENTER
 62
2
 10
-3.26999992E+02
 20
1.41967545E+02
 11
-3.26999992E+02
 21
5.94739532E+01
  0
LINE
  8
0
 62
7
 10
-3.13636099E+02
 20
1.15278619E+02
 11
-3.06274283E+02
 21
1.22640433E+02
  0
LINE
  8
0
 62
7
 10
-3.12221886E+02
 20
1.13864405E+02
 11
-3.04860037E+02
 21
1.21226251E+02
  0
LINE
  8
0
 62
7
 10
-2.92499992E+02
 20
8.74998779E+01
 11
-2.92499992E+02
 21
1.13500076E+02
  0
LINE
  8
0
 62
7
 10
-2.93500023E+02
 20
1.01499985E+02
 11
-3.07100304E+02
 21
1.01499985E+02
  0
LINE
  8
0
 62
7
 10
-2.89499992E+02
 20
6.70000000E+01
 11
-2.89499992E+02
 21
1.34000015E+02
  0
LINE
  8
0
  6
CENTER
 62
2
 10
-2.98999931E+02
 20
1.40185287E+02
 11
-2.98999931E+02
 21
1.17270401E+02
  0
LINE
  8
0
  6
CENTER
 62
2
 10
-2.86232292E+02
 20
1.00500000E+02
 11
-3.69477715E+02
 21
1.00500000E+02
  0
LINE
  8
0
  6
CENTER
 62
2
 10
-3.34999992E+02
 20
1.40185287E+02
 11
-3.34999992E+02
 21
1.28300018E+02
  0
LINE
  8
0
  6
CENTER
 62
2
 10
-3.67045097E+02
 20
1.28500061E+02
 11
-3.44894035E+02
 21
1.28500061E+02
  0
LINE
  8
0
 62
7
 10
-3.26000053E+02
 20
6.70000000E+01
 11
-3.26000053E+02
 21
8.06002502E+01
  0
LINE
  8
0
 62
7
 10
-3.12221706E+02
 20
8.71357693E+01
 11
-3.04859881E+02
 21
7.97739424E+01
  0
LINE
  8
0
 62
7
 10
-3.13636017E+02
 20
8.57215882E+01
 11
-3.06274171E+02
 21
7.83597398E+01
  0
LINE
  8
0
 62
7
 10
-2.89999992E+02
 20
6.70000000E+01
 11
-2.89999992E+02
 21
1.34000015E+02
  0
LINE
  8
0
 62
7
 10
-3.40000114E+02
 20
6.59999924E+01
 11
-3.13999931E+02
 21
6.59999924E+01
  0
LINE
  8
0
 62
7
 10
-2.93500023E+02
 20
9.95000000E+01
 11
-3.07100304E+02
 21
9.95000000E+01
  0
LINE
  8
0
 62
7
 10
-3.60499992E+02
 20
6.30000000E+01
 11
-2.93500023E+02
 21
6.30000000E+01
  0
LINE
  8
0
  6
CENTER
 62
2
 10
-2.86970299E+02
 20
7.24999695E+01
 11
-3.09503258E+02
 21
7.24999695E+01
  0
LINE
  8
0
 62
7
 10
-3.51999992E+02
 20
1.38000031E+02
 11
-3.51999992E+02
 21
1.37500031E+02
  0
LINE
  8
0
 62
7
 10
-3.01999992E+02
 20
1.38000031E+02
 11
-3.01999992E+02
 21
1.37500031E+02
  0
LINE
  8
0
 62
7
 10
-3.51999992E+02
 20
6.35000000E+01
 11
-3.51999992E+02
 21
6.30000000E+01
  0
LINE
  8
0
 62
7
 10
-3.01999992E+02
 20
6.35000000E+01
 11
-3.01999992E+02
 21
6.30000000E+01
  0
LINE
  8
0
 62
7
 10
-3.40000084E+02
 20
1.35000031E+02
 11
-3.13999901E+02
 21
1.35000031E+02
  0
LINE
  8
0
 62
7
 10
-3.60500053E+02
 20
1.38000031E+02
 11
-2.93500023E+02
 21
1.38000031E+02
  0
LINE
  8
0
 62
7
 10
-3.44500084E+02
 20
1.30500214E+02
 11
-3.45763634E+02
 21
1.30500214E+02
  0
LINE
  8
0
 62
7
 10
-3.57000267E+02
 20
1.18000061E+02
 11
-3.57000267E+02
 21
1.19263657E+02
  0
LINE
  8
0
 62
7
 10
-3.09499901E+02
 20
1.30500244E+02
 11
-3.08236473E+02
 21
1.30500244E+02
  0
LINE
  8
0
 62
7
 10
-2.96999809E+02
 20
1.18000061E+02
 11
-2.96999809E+02
 21
1.19263794E+02
  0
LINE
  8
0
 62
7
 10
-3.09499931E+02
 20
7.04998093E+01
 11
-3.08236198E+02
 21
7.04998093E+01
  0
LINE
  8
0
 62
7
 10
-2.96999809E+02
 20
8.29998779E+01
 11
-2.96999809E+02
 21
8.17363129E+01
  0
LINE
  8
0
 62
7
 10
-3.57000267E+02
 20
8.29998779E+01
 11
-3.57000267E+02
 21
8.17364655E+01
  0
LINE
  8
0
 62
7
 10
-3.44500114E+02
 20
7.04997940E+01
 11
-3.45763664E+02
 21
7.04997940E+01
  0
LINE
  8
0
  6
CENTER
 62
2
 10
-3.44766685E+02
 20
7.24999695E+01
 11
-3.67045097E+02
 21
7.24999695E+01
  0
LINE
  8
0
  6
CENTER
 62
2
 10
-3.09630547E+02
 20
1.28500061E+02
 11
-2.87097588E+02
 21
1.28500061E+02
  0
LINE
  8
0
  6
CENTER
 62
2
 10
-2.99000023E+02
 20
8.25604782E+01
 11
-2.99000023E+02
 21
6.10041046E+01
  0
CIRCLE
  8
0
 62
7
 10
-3.55000084E+02
 20
1.28500061E+02
 40
6.50000048E+00
  0
ARC
  8
0
 62
7
 10
-3.49847282E+02
 20
1.20518860E+02
 40
1.00000000E+00
 50
4.49999910E+01
 51
1.22846171E+02
  0
ARC
  8
0
 62
7
 10
-3.47018883E+02
 20
1.23347290E+02
 40
1.00000000E+00
 50
1.47153243E+02
 51
2.24999955E+02
  0
CIRCLE
  8
0
 62
7
 10
-3.55000084E+02
 20
7.24999695E+01
 40
6.50000048E+00
  0
ARC
  8
0
 62
7
 10
-3.42485497E+02
 20
1.13157028E+02
 40
1.00000000E+00
 50
3.20738994E+02
 51
4.49999910E+01
  0
ARC
  8
0
 62
7
 10
-3.39657066E+02
 20
1.15985458E+02
 40
1.00000000E+00
 50
2.24999972E+02
 51
3.09260983E+02
  0
ARC
  8
0
 62
7
 10
-3.29000023E+02
 20
1.20399750E+02
 40
1.00000000E+00
 50
2.75739453E+02
 51
3.59999959E+02
  0
ARC
  8
0
 62
7
 10
-3.46899803E+02
 20
9.85000000E+01
 40
1.00000000E+00
 50
5.73948995E+00
 51
9.00000369E+01
  0
ARC
  8
0
 62
7
 10
-3.60500053E+02
 20
9.85000000E+01
 40
1.00000000E+00
 50
9.00000369E+01
 51
1.80000019E+02
  0
ARC
  8
0
 62
7
 10
-2.98999931E+02
 20
1.28500031E+02
 40
8.50000000E+00
 50
1.73823315E+02
 51
2.76176459E+02
  0
ARC
  8
0
 62
7
 10
-3.42485497E+02
 20
8.78429565E+01
 40
1.00000000E+00
 50
3.14999968E+02
 51
3.92609655E+01
  0
ARC
  8
0
 62
7
 10
-3.39657066E+02
 20
8.50145264E+01
 40
1.00000000E+00
 50
5.07389892E+01
 51
1.34999987E+02
  0
ARC
  8
0
 62
7
 10
-3.47018883E+02
 20
7.76526947E+01
 40
1.00000000E+00
 50
1.34999987E+02
 51
2.12846166E+02
  0
ARC
  8
0
 62
7
 10
-3.49847282E+02
 20
8.04811172E+01
 40
1.00000000E+00
 50
2.37153256E+02
 51
3.14999968E+02
  0
ARC
  8
0
 62
7
 10
-3.60500053E+02
 20
1.34000000E+02
 40
3.50000000E+00
 50
9.00000231E+01
 51
1.79999977E+02
  0
ARC
  8
0
 62
7
 10
-3.29000023E+02
 20
1.34000000E+02
 40
1.00000000E+00
 50
3.59999959E+02
 51
8.99999956E+01
  0
ARC
  8
0
 62
7
 10
-3.24999992E+02
 20
1.20399750E+02
 40
1.00000000E+00
 50
1.79999964E+02
 51
2.64260484E+02
  0
ARC
  8
0
 62
7
 10
-3.24999992E+02
 20
1.34000015E+02
 40
1.00000000E+00
 50
8.99999818E+01
 51
1.79999964E+02
  0
ARC
  8
0
 62
7
 10
-3.60500023E+02
 20
6.69999695E+01
 40
3.50000000E+00
 50
1.80000036E+02
 51
2.69999991E+02
  0
ARC
  8
0
 62
7
 10
-3.60500023E+02
 20
1.02500000E+02
 40
1.00000000E+00
 50
1.80000008E+02
 51
2.70000045E+02
  0
ARC
  8
0
 62
7
 10
-3.46899803E+02
 20
1.02500000E+02
 40
1.00000000E+00
 50
2.70000045E+02
 51
3.54260551E+02
  0
ARC
  8
0
 62
7
 10
-3.29000023E+02
 20
8.06002502E+01
 40
1.00000000E+00
 50
3.59999973E+02
 51
8.42604992E+01
  0
ARC
  8
0
 62
7
 10
-3.29000023E+02
 20
6.69999695E+01
 40
1.00000000E+00
 50
2.69999991E+02
 51
3.59999973E+02
  0
ARC
  8
0
 62
7
 10
-3.60500053E+02
 20
1.34000000E+02
 40
4.00000000E+00
 50
9.00000231E+01
 51
1.79999977E+02
  0
ARC
  8
0
 62
7
 10
-3.60500023E+02
 20
6.69999695E+01
 40
4.00000000E+00
 50
1.80000036E+02
 51
2.69999991E+02
  0
CIRCLE
  8
0
 62
7
 10
-3.55000084E+02
 20
7.24999695E+01
 40
6.00000000E+00
  0
CIRCLE
  8
0
 62
7
 10
-3.55000084E+02
 20
1.28500061E+02
 40
6.00000000E+00
  0
CIRCLE
  8
0
 62
7
 10
-2.98999931E+02
 20
1.28500031E+02
 40
6.50000048E+00
  0
ARC
  8
0
 62
7
 10
-3.11514549E+02
 20
1.13157059E+02
 40
1.00000000E+00
 50
1.34999959E+02
 51
2.19260957E+02
  0
ARC
  8
0
 62
7
 10
-3.14342949E+02
 20
1.15985474E+02
 40
1.00000000E+00
 50
2.30738998E+02
 51
3.14999995E+02
  0
ARC
  8
0
 62
7
 10
-3.06981163E+02
 20
1.23347305E+02
 40
1.00000000E+00
 50
3.14999995E+02
 51
3.28461612E+01
  0
ARC
  8
0
 62
7
 10
-3.04152702E+02
 20
1.20518890E+02
 40
1.00000000E+00
 50
5.71532472E+01
 51
1.34999959E+02
  0
ARC
  8
0
 62
7
 10
-2.93500023E+02
 20
1.34000015E+02
 40
3.50000000E+00
 50
0.00000000E+00
 51
8.99999818E+01
  0
ARC
  8
0
 62
7
 10
-2.93500023E+02
 20
1.02499992E+02
 40
1.00000000E+00
 50
2.69999963E+02
 51
0.00000000E+00
  0
ARC
  8
0
 62
7
 10
-3.07100304E+02
 20
1.02499992E+02
 40
1.00000000E+00
 50
1.85739458E+02
 51
2.69999963E+02
  0
ARC
  8
0
 62
7
 10
-2.93500023E+02
 20
1.34000015E+02
 40
4.00000000E+00
 50
0.00000000E+00
 51
8.99999818E+01
  0
CIRCLE
  8
0
 62
7
 10
-2.98999931E+02
 20
1.28500031E+02
 40
6.00000000E+00
  0
ARC
  8
0
 62
7
 10
-3.09499901E+02
 20
1.34000153E+02
 40
3.50000000E+00
 50
1.80001511E+02
 51
2.70000018E+02
  0
ARC
  8
0
 62
7
 10
-3.13999901E+02
 20
1.34000015E+02
 40
1.00000000E+00
 50
1.77584919E-03
 51
8.99999549E+01
  0
ARC
  8
0
 62
7
 10
-3.08444817E+02
 20
1.29522171E+02
 40
1.00000000E+00
 50
3.53822790E+02
 51
8.43256382E+01
  0
ARC
  8
0
 62
7
 10
-2.93499870E+02
 20
1.18000061E+02
 40
3.50000000E+00
 50
1.79999977E+02
 51
2.69999017E+02
  0
ARC
  8
0
 62
7
 10
-2.97977867E+02
 20
1.19055191E+02
 40
1.00000000E+00
 50
5.67452116E+00
 51
9.61763036E+01
  0
ARC
  8
0
 62
7
 10
-2.93500023E+02
 20
1.13500076E+02
 40
1.00000000E+00
 50
3.59999986E+02
 51
8.99982469E+01
  0
ARC
  8
0
 62
7
 10
-3.60500053E+02
 20
8.74998779E+01
 40
1.00000000E+00
 50
1.80000036E+02
 51
2.69998235E+02
  0
ARC
  8
0
 62
7
 10
-3.60500175E+02
 20
8.29998703E+01
 40
3.50000000E+00
 50
0.00000000E+00
 51
8.99984996E+01
  0
ARC
  8
0
 62
7
 10
-3.56022209E+02
 20
8.19448013E+01
 40
1.00000000E+00
 50
1.85674380E+02
 51
2.76177221E+02
  0
ARC
  8
0
 62
7
 10
-3.55000084E+02
 20
7.24999313E+01
 40
8.50000000E+00
 50
3.53823551E+02
 51
9.61766726E+01
  0
ARC
  8
0
 62
7
 10
-3.45555199E+02
 20
1.29522171E+02
 40
1.00000000E+00
 50
9.56745100E+01
 51
1.86176313E+02
  0
ARC
  8
0
 62
7
 10
-3.44500084E+02
 20
1.34000122E+02
 40
3.50000000E+00
 50
2.70000018E+02
 51
3.59999001E+02
  0
ARC
  8
0
 62
7
 10
-3.40000084E+02
 20
1.34000015E+02
 40
1.00000000E+00
 50
8.99999818E+01
 51
1.79998270E+02
  0
ARC
  8
0
 62
7
 10
-3.40000145E+02
 20
6.69999695E+01
 40
1.00000000E+00
 50
1.80001785E+02
 51
2.69999963E+02
  0
ARC
  8
0
 62
7
 10
-3.44500114E+02
 20
6.69998474E+01
 40
3.50000000E+00
 50
1.49581143E-03
 51
8.99999818E+01
  0
ARC
  8
0
 62
7
 10
-3.45555260E+02
 20
7.14778137E+01
 40
1.00000000E+00
 50
1.73822768E+02
 51
2.64325616E+02
  0
ARC
  8
0
 62
7
 10
-3.55000084E+02
 20
1.28500031E+02
 40
8.50000000E+00
 50
2.63823553E+02
 51
6.17667669E+00
  0
ARC
  8
0
 62
7
 10
-3.56022209E+02
 20
1.19055191E+02
 40
1.00000000E+00
 50
8.38236876E+01
 51
1.74325470E+02
  0
ARC
  8
0
 62
7
 10
-3.60500145E+02
 20
1.18000061E+02
 40
3.50000000E+00
 50
2.70001002E+02
 51
0.00000000E+00
  0
ARC
  8
0
 62
7
 10
-3.60500053E+02
 20
1.13500076E+02
 40
1.00000000E+00
 50
9.00017305E+01
 51
1.80000005E+02
  0
ARC
  8
0
 62
7
 10
-3.09499962E+02
 20
6.69998856E+01
 40
3.50000000E+00
 50
8.99999818E+01
 51
1.79998994E+02
  0
ARC
  8
0
 62
7
 10
-3.13999931E+02
 20
6.69999695E+01
 40
1.00000000E+00
 50
2.70000018E+02
 51
3.59998251E+02
  0
ARC
  8
0
 62
7
 10
-3.24999992E+02
 20
6.70000000E+01
 40
1.00000000E+00
 50
1.79999951E+02
 51
2.70000001E+02
  0
ARC
  8
0
 62
7
 10
-3.24999992E+02
 20
8.06002502E+01
 40
1.00000000E+00
 50
9.57394445E+01
 51
1.79999951E+02
  0
CIRCLE
  8
0
 62
7
 10
-3.26999992E+02
 20
1.00500000E+02
 40
1.75294495E+01
  0
CIRCLE
  8
0
 62
7
 10
-3.26999992E+02
 20
1.00500000E+02
 40
1.90000000E+01
  0
CIRCLE
  8
0
 62
7
 10
-2.99000023E+02
 20
7.24999313E+01
 40
6.50000048E+00
  0
ARC
  8
0
 62
7
 10
-3.14342949E+02
 20
8.50145416E+01
 40
1.00000000E+00
 50
4.49999637E+01
 51
1.29260961E+02
  0
ARC
  8
0
 62
7
 10
-3.11514549E+02
 20
8.78429718E+01
 40
1.00000000E+00
 50
1.40738985E+02
 51
2.24999982E+02
  0
ARC
  8
0
 62
7
 10
-3.04152702E+02
 20
8.04811401E+01
 40
1.00000000E+00
 50
2.25000000E+02
 51
3.02846179E+02
  0
ARC
  8
0
 62
7
 10
-3.06981163E+02
 20
7.76527100E+01
 40
1.00000000E+00
 50
3.27153252E+02
 51
4.49999637E+01
  0
ARC
  8
0
 62
7
 10
-2.93500023E+02
 20
6.70000000E+01
 40
3.50000000E+00
 50
2.70000018E+02
 51
3.59999986E+02
  0
ARC
  8
0
 62
7
 10
-3.07100304E+02
 20
9.85000000E+01
 40
1.00000000E+00
 50
8.99999681E+01
 51
1.74260502E+02
  0
ARC
  8
0
 62
7
 10
-2.93500023E+02
 20
9.85000000E+01
 40
1.00000000E+00
 50
3.59999986E+02
 51
8.99999681E+01
  0
ARC
  8
0
 62
7
 10
-2.93500023E+02
 20
6.70000000E+01
 40
4.00000000E+00
 50
2.70000018E+02
 51
3.59999986E+02
  0
CIRCLE
  8
0
 62
7
 10
-2.99000023E+02
 20
7.24999313E+01
 40
6.00000000E+00
  0
CIRCLE
  8
0
 62
7
 10
-3.26999992E+02
 20
1.00500000E+02
 40
1.70000000E+01
  0
ARC
  8
0
 62
7
 10
-2.93500023E+02
 20
8.74998779E+01
 40
1.00000000E+00
 50
2.70001780E+02
 51
3.59999959E+02
  0
ARC
  8
0
 62
7
 10
-2.93499870E+02
 20
8.29998703E+01
 40
3.50000000E+00
 50
9.00014916E+01
 51
1.79999964E+02
  0
ARC
  8
0
 62
7
 10
-2.97977867E+02
 20
8.19448013E+01
 40
1.00000000E+00
 50
2.63822795E+02
 51
3.54325643E+02
  0
ARC
  8
0
 62
7
 10
-2.99000023E+02
 20
7.24999313E+01
 40
8.50000000E+00
 50
8.38233192E+01
 51
1.86176449E+02
  0
ARC
  8
0
 62
7
 10
-3.08444817E+02
 20
7.14778137E+01
 40
1.00000000E+00
 50
2.75674525E+02
 51
6.17630782E+00
  0
ARC
  8
0
 62
7
 10
-3.39541618E+02
 20
6.70000000E+01
 40
1.00000000E+00
 50
1.79999977E+02
 51
2.70000028E+02
  0
CIRCLE
  8
0
 62
2
 10
-3.55000084E+02
 20
1.28500061E+02
 40
4.00000000E+00
  0
CIRCLE
  8
0
 62
2
 10
-2.98999931E+02
 20
1.28500061E+02
 40
4.00000000E+00
  0
CIRCLE
  8
0
 62
2
 10
-2.99000023E+02
 20
7.24999695E+01
 40
4.00000000E+00
  0
CIRCLE
  8
0
 62
2
 10
-3.55000145E+02
 20
7.24999695E+01
 40
4.00000000E+00
  0
CIRCLE
  8
0
 62
7
 10
-3.55000145E+02
 20
7.24999695E+01
 40
3.32000017E+00
  0
CIRCLE
  8
0
 62
7
 10
-3.55000084E+02
 20
1.28500061E+02
 40
3.32000017E+00
  0
CIRCLE
  8
0
 62
7
 10
-2.98999931E+02
 20
1.28500061E+02
 40
3.32000017E+00
  0
CIRCLE
  8
0
 62
7
 10
-2.99000023E+02
 20
7.24999695E+01
 40
3.32000017E+00
  0
CIRCLE
  8
0
 62
2
 10
-3.26999992E+02
 20
1.00500000E+02
 40
8.18000031E+00
  0
LINE
  8
0
 62
4
 10
-3.13499992E+02
 20
1.08294229E+02
 11
-3.26999992E+02
 21
1.16088457E+02
  0
LINE
  8
0
 62
4
 10
-3.13499992E+02
 20
9.27057714E+01
 11
-3.13499992E+02
 21
1.08294229E+02
  0
LINE
  8
0
 62
4
 10
-3.26999992E+02
 20
8.49115427E+01
 11
-3.13499992E+02
 21
9.27057714E+01
  0
LINE
  8
0
 62
4
 10
-3.40499992E+02
 20
9.27057714E+01
 11
-3.26999992E+02
 21
8.49115427E+01
  0
LINE
  8
0
 62
4
 10
-3.40499992E+02
 20
1.08294229E+02
 11
-3.40499992E+02
 21
9.27057714E+01
  0
LINE
  8
0
 62
4
 10
-3.26999992E+02
 20
1.16088457E+02
 11
-3.40499992E+02
 21
1.08294229E+02
  0
CIRCLE
  8
0
 62
4
 10
-3.26999992E+02
 20
1.00500000E+02
 40
1.35000000E+01
  0
CIRCLE
  8
0
 62
7
 10
-3.26999992E+02
 20
1.00500000E+02
 40
9.00000000E+00
  0
LINE
  8
0
 62
7
 10
-2.93500023E+02
 20
1.37500031E+02
 11
-3.60500053E+02
 21
1.37500031E+02
  0
LINE
  8
0
 62
4
 10
-3.65725884E+02
 20
1.23542990E+02
 11
-3.64500084E+02
 21
1.23941277E+02
  0
LINE
  8
0
 62
4
 10
-3.64500084E+02
 20
1.19770366E+02
 11
-3.65725884E+02
 21
1.23542990E+02
  0
LINE
  8
0
 62
6
 10
-3.65571375E+02
 20
1.23067462E+02
 11
-3.64500084E+02
 21
1.23415546E+02
  0
LINE
  8
0
 62
6
 10
-3.64644324E+02
 20
1.20214292E+02
 11
-3.64500084E+02
 21
1.20261159E+02
  0
LINE
  8
0
  6
CENTER
 62
6
 10
-3.42424533E+02
 20
1.35425053E+02
 11
-3.36718194E+02
 21
1.37279155E+02
  0
LINE
  8
0
  6
CENTER
 62
6
 10
-3.40498414E+02
 20
1.39205274E+02
 11
-3.38644312E+02
 21
1.33498935E+02
  0
LINE
  8
0
 62
4
 10
-3.38287284E+02
 20
1.38872251E+02
 11
-3.38003883E+02
 21
1.38000031E+02
  0
LINE
  8
0
 62
4
 10
-3.40971704E+02
 20
1.38000031E+02
 11
-3.38287284E+02
 21
1.38872251E+02
  0
LINE
  8
0
 62
4
 10
-3.38287284E+02
 20
1.38872251E+02
 11
-3.38731703E+02
 21
1.38000031E+02
  0
LINE
  8
0
 62
4
 10
-3.41845781E+02
 20
1.49176964E+02
 11
-3.51641663E+02
 21
1.45994089E+02
  0
LINE
  8
0
 62
4
 10
-3.41390068E+02
 20
1.38389827E+02
 11
-3.38632004E+02
 21
1.39285976E+02
  0
LINE
  8
0
 62
4
 10
-3.41588679E+02
 20
1.38000031E+02
 11
-3.41390068E+02
 21
1.38389827E+02
  0
LINE
  8
0
  6
CENTER
 62
6
 10
-3.60654205E+02
 20
1.38334156E+02
 11
-3.35259150E+02
 21
1.46585510E+02
  0
LINE
  8
0
  6
CENTER
 62
6
 10
-3.50655241E+02
 20
1.37902899E+02
 11
-3.34177590E+02
 21
1.43256812E+02
  0
LINE
  8
0
 62
4
 10
-3.55921417E+02
 20
1.44603512E+02
 11
-3.51641663E+02
 21
1.45994089E+02
  0
LINE
  8
0
 62
4
 10
-3.49044236E+02
 20
1.38000031E+02
 11
-3.51641663E+02
 21
1.45994089E+02
  0
LINE
  8
0
 62
4
 10
-3.59286059E+02
 20
1.38000031E+02
 11
-3.55921417E+02
 21
1.44603512E+02
  0
LINE
  8
0
 62
4
 10
-3.41629469E+02
 20
1.48511224E+02
 11
-3.40678412E+02
 21
1.48820241E+02
  0
ARC
  8
0
 62
4
 10
-3.37687050E+02
 20
1.43273128E+02
 40
1.00000000E+00
 50
3.36723662E+02
 51
5.17248996E+00
  0
ARC
  8
0
 62
4
 10
-3.39170332E+02
 20
1.47838200E+02
 40
1.00000000E+00
 50
3.08275100E+01
 51
1.08000000E+02
  0
ARC
  8
0
 62
4
 10
-3.48453030E+02
 20
1.42298559E+02
 40
1.18100000E+01
 50
5.17248996E+00
 51
3.08275100E+01
  0
LINE
  8
0
 62
4
 10
-3.40554806E+02
 20
1.48439819E+02
 11
-3.39480112E+02
 21
1.48789008E+02
  0
LINE
  8
0
 62
4
 10
-3.39705009E+02
 20
1.45824413E+02
 11
-3.40678412E+02
 21
1.48820241E+02
  0
LINE
  8
0
 62
4
 10
-3.37814619E+02
 20
1.38000031E+02
 11
-3.40294664E+02
 21
1.45632823E+02
  0
LINE
  8
0
 62
4
 10
-3.40609713E+02
 20
1.45372738E+02
 11
-3.40248311E+02
 21
1.45490164E+02
  0
LINE
  8
0
 62
4
 10
-3.40294664E+02
 20
1.45632823E+02
 11
-3.38620805E+02
 21
1.46176693E+02
  0
LINE
  8
0
 62
4
 10
-3.36926619E+02
 20
1.38000031E+02
 11
-3.36055963E+02
 21
1.38282924E+02
  0
ARC
  8
0
 62
4
 10
-3.47859210E+02
 20
1.38819521E+02
 40
1.18100000E+01
 50
1.80000000E+01
 51
3.85326990E+01
  0
ARC
  8
0
 62
4
 10
-3.47854427E+02
 20
1.38804802E+02
 40
1.18100000E+01
 50
3.57467301E+02
 51
1.80000000E+01
  0
LINE
  8
0
 62
4
 10
-3.38214175E+02
 20
1.38000031E+02
 11
-3.41845781E+02
 21
1.49176964E+02
  0
LINE
  8
0
 62
4
 10
-2.89499992E+02
 20
1.19770178E+02
 11
-2.88274131E+02
 21
1.23542990E+02
  0
LINE
  8
0
 62
4
 10
-2.88274131E+02
 20
1.23542990E+02
 11
-2.89499992E+02
 21
1.23941297E+02
  0
LINE
  8
0
 62
6
 10
-2.88428640E+02
 20
1.23067462E+02
 11
-2.89499992E+02
 21
1.23415566E+02
  0
LINE
  8
0
 62
6
 10
-2.89355691E+02
 20
1.20214292E+02
 11
-2.89499992E+02
 21
1.20261179E+02
  0
LINE
  8
0
  6
CENTER
 62
6
 10
-3.03344774E+02
 20
1.37902899E+02
 11
-3.19463807E+02
 21
1.43140290E+02
  0
LINE
  8
0
  6
CENTER
 62
6
 10
-2.93345810E+02
 20
1.38334156E+02
 11
-3.18382248E+02
 21
1.46468988E+02
  0
LINE
  8
0
 62
4
 10
-3.12411336E+02
 20
1.38000031E+02
 11
-3.12609947E+02
 21
1.38389827E+02
  0
LINE
  8
0
 62
4
 10
-3.12609947E+02
 20
1.38389827E+02
 11
-3.15368011E+02
 21
1.39285976E+02
  0
LINE
  8
0
 62
4
 10
-3.12154234E+02
 20
1.49176964E+02
 11
-3.02358352E+02
 21
1.45994089E+02
  0
LINE
  8
0
 62
4
 10
-3.13028312E+02
 20
1.38000031E+02
 11
-3.15712731E+02
 21
1.38872251E+02
  0
LINE
  8
0
 62
4
 10
-3.15712731E+02
 20
1.38872251E+02
 11
-3.15996133E+02
 21
1.38000031E+02
  0
LINE
  8
0
  6
CENTER
 62
6
 10
-3.13501601E+02
 20
1.39205274E+02
 11
-3.15355703E+02
 21
1.33498935E+02
  0
LINE
  8
0
  6
CENTER
 62
6
 10
-3.11575482E+02
 20
1.35425053E+02
 11
-3.17281821E+02
 21
1.37279155E+02
  0
LINE
  8
0
 62
4
 10
-2.94713956E+02
 20
1.38000031E+02
 11
-2.98078598E+02
 21
1.44603512E+02
  0
LINE
  8
0
 62
4
 10
-2.98078598E+02
 20
1.44603512E+02
 11
-3.02358352E+02
 21
1.45994089E+02
  0
LINE
  8
0
 62
4
 10
-3.02358352E+02
 20
1.45994089E+02
 11
-3.04955779E+02
 21
1.38000031E+02
  0
LINE
  8
0
 62
4
 10
-3.14719075E+02
 20
1.41283195E+02
 11
-3.15670132E+02
 21
1.41592212E+02
  0
LINE
  8
0
 62
4
 10
-3.12370546E+02
 20
1.48511224E+02
 11
-3.13321603E+02
 21
1.48820241E+02
  0
ARC
  8
0
 62
4
 10
-3.16312965E+02
 20
1.43273128E+02
 40
1.00000000E+00
 50
1.74827510E+02
 51
2.52000000E+02
  0
ARC
  8
0
 62
4
 10
-3.14829683E+02
 20
1.47838200E+02
 40
1.00000000E+00
 50
7.19999999E+01
 51
1.49172490E+02
  0
LINE
  8
0
 62
4
 10
-3.15546525E+02
 20
1.41972634E+02
 11
-3.16621219E+02
 21
1.42321824E+02
  0
LINE
  8
0
 62
4
 10
-3.13445210E+02
 20
1.48439819E+02
 11
-3.14519903E+02
 21
1.48789008E+02
  0
LINE
  8
0
 62
4
 10
-3.15670132E+02
 20
1.41592212E+02
 11
-3.13321603E+02
 21
1.48820241E+02
  0
ARC
  8
0
 62
4
 10
-3.05546986E+02
 20
1.42298559E+02
 40
1.18100000E+01
 50
1.49172490E+02
 51
1.74827510E+02
  0
LINE
  8
0
 62
4
 10
-3.16185396E+02
 20
1.38000031E+02
 11
-3.15080477E+02
 21
1.41400621E+02
  0
LINE
  8
0
 62
4
 10
-3.17073396E+02
 20
1.38000031E+02
 11
-3.17944052E+02
 21
1.38282924E+02
  0
ARC
  8
0
 62
4
 10
-3.06140806E+02
 20
1.38819521E+02
 40
1.18100000E+01
 50
1.59900933E+02
 51
1.62000000E+02
  0
ARC
  8
0
 62
4
 10
-3.06145588E+02
 20
1.38804802E+02
 40
1.18100000E+01
 50
1.62000000E+02
 51
1.82532699E+02
  0
LINE
  8
0
 62
4
 10
-3.15785840E+02
 20
1.38000031E+02
 11
-3.12154234E+02
 21
1.49176964E+02
  0
LINE
  8
0
  6
DASHED
 62
7
 10
2.96000114E+02
 20
1.37500137E+02
 11
2.86000038E+02
 21
1.37500137E+02
  0
LINE
  8
0
 62
7
 10
2.69500023E+02
 20
1.37500031E+02
 11
3.36500069E+02
 21
1.37500031E+02
  0
LINE
  8
0
 62
7
 10
3.16364251E+02
 20
1.15278110E+02
 11
3.23726099E+02
 21
1.22639957E+02
  0
LINE
  8
0
 62
7
 10
3.17778551E+02
 20
8.71360691E+01
 11
3.25140386E+02
 21
7.97742353E+01
  0
LINE
  8
0
 62
7
 10
3.04000023E+02
 20
1.34000000E+02
 11
3.04000023E+02
 21
1.20399750E+02
  0
LINE
  8
0
 62
7
 10
3.36500069E+02
 20
9.94999695E+01
 11
3.22899788E+02
 21
9.94999695E+01
  0
LINE
  8
0
 62
7
 10
3.16364319E+02
 20
8.57218096E+01
 11
3.23726167E+02
 21
7.83599623E+01
  0
LINE
  8
0
 62
7
 10
3.17778462E+02
 20
1.13863964E+02
 11
3.25140310E+02
 21
1.21225811E+02
  0
LINE
  8
0
 62
7
 10
3.02000023E+02
 20
1.34000015E+02
 11
3.02000023E+02
 21
1.20399750E+02
  0
LINE
  8
0
 62
7
 10
3.40000084E+02
 20
6.69999695E+01
 11
3.40000084E+02
 21
1.34000000E+02
  0
LINE
  8
0
 62
7
 10
2.89999939E+02
 20
6.59999924E+01
 11
3.16000114E+02
 21
6.59999924E+01
  0
LINE
  8
0
 62
7
 10
3.37500084E+02
 20
8.74998779E+01
 11
3.37500084E+02
 21
1.13500076E+02
  0
LINE
  8
0
 62
7
 10
3.36499992E+02
 20
1.01499969E+02
 11
3.22899788E+02
 21
1.01499969E+02
  0
LINE
  8
0
 62
7
 10
3.04000069E+02
 20
6.69999695E+01
 11
3.04000069E+02
 21
8.06002502E+01
  0
LINE
  8
0
 62
7
 10
3.40500084E+02
 20
6.69999695E+01
 11
3.40500084E+02
 21
1.34000000E+02
  0
LINE
  8
0
 62
7
 10
2.69500023E+02
 20
6.30000000E+01
 11
3.36499992E+02
 21
6.30000000E+01
  0
LINE
  8
0
  6
CENTER
 62
2
 10
3.31000145E+02
 20
6.10016174E+01
 11
3.31000145E+02
 21
8.35345917E+01
  0
LINE
  8
0
  6
CENTER
 62
2
 10
3.31000069E+02
 20
1.17270401E+02
 11
3.31000069E+02
 21
1.40057983E+02
  0
LINE
  8
0
  6
CENTER
 62
2
 10
3.03000008E+02
 20
1.41967545E+02
 11
3.03000008E+02
 21
5.94739532E+01
  0
LINE
  8
0
 62
7
 10
2.89636098E+02
 20
1.15278625E+02
 11
2.82274276E+02
 21
1.22640444E+02
  0
LINE
  8
0
 62
7
 10
2.88221874E+02
 20
1.13864401E+02
 11
2.80860025E+02
 21
1.21226247E+02
  0
LINE
  8
0
 62
7
 10
2.69500023E+02
 20
1.01499985E+02
 11
2.83100296E+02
 21
1.01499985E+02
  0
LINE
  8
0
  6
CENTER
 62
2
 10
2.74999939E+02
 20
1.40185287E+02
 11
2.74999939E+02
 21
1.17270401E+02
  0
LINE
  8
0
 62
7
 10
2.66000000E+02
 20
6.70000000E+01
 11
2.66000000E+02
 21
1.34000015E+02
  0
LINE
  8
0
  6
CENTER
 62
2
 10
2.62232300E+02
 20
1.00500000E+02
 11
3.45477730E+02
 21
1.00500000E+02
  0
LINE
  8
0
  6
CENTER
 62
2
 10
3.10999992E+02
 20
1.40185287E+02
 11
3.10999992E+02
 21
1.28300018E+02
  0
LINE
  8
0
  6
CENTER
 62
2
 10
3.43045097E+02
 20
1.28500061E+02
 11
3.20894020E+02
 21
1.28500061E+02
  0
LINE
  8
0
 62
7
 10
3.02000053E+02
 20
6.70000000E+01
 11
3.02000053E+02
 21
8.06002502E+01
  0
LINE
  8
0
 62
7
 10
2.88221709E+02
 20
8.71357697E+01
 11
2.80859884E+02
 21
7.97739428E+01
  0
LINE
  8
0
 62
7
 10
2.89636009E+02
 20
8.57215779E+01
 11
2.82274162E+02
 21
7.83597294E+01
  0
LINE
  8
0
 62
7
 10
2.69500023E+02
 20
6.35000000E+01
 11
3.36499992E+02
 21
6.35000000E+01
  0
LINE
  8
0
 62
7
 10
2.68500000E+02
 20
8.74998779E+01
 11
2.68500000E+02
 21
1.13500076E+02
  0
LINE
  8
0
 62
7
 10
2.69500023E+02
 20
9.95000000E+01
 11
2.83100296E+02
 21
9.95000000E+01
  0
LINE
  8
0
 62
7
 10
2.65500008E+02
 20
6.70000000E+01
 11
2.65500008E+02
 21
1.34000015E+02
  0
LINE
  8
0
  6
CENTER
 62
2
 10
2.62970291E+02
 20
7.24999695E+01
 11
2.85503250E+02
 21
7.24999695E+01
  0
LINE
  8
0
 62
7
 10
3.28000008E+02
 20
1.38000031E+02
 11
3.28000008E+02
 21
1.37500031E+02
  0
LINE
  8
0
 62
7
 10
2.78000008E+02
 20
1.38000031E+02
 11
2.78000008E+02
 21
1.37500031E+02
  0
LINE
  8
0
 62
7
 10
3.28000008E+02
 20
6.35000000E+01
 11
3.28000008E+02
 21
6.30000000E+01
  0
LINE
  8
0
 62
7
 10
2.78000008E+02
 20
6.35000000E+01
 11
2.78000008E+02
 21
6.30000000E+01
  0
LINE
  8
0
 62
7
 10
2.89999901E+02
 20
1.35000031E+02
 11
3.16000069E+02
 21
1.35000031E+02
  0
LINE
  8
0
 62
7
 10
2.69500023E+02
 20
1.38000031E+02
 11
3.36500069E+02
 21
1.38000031E+02
  0
LINE
  8
0
 62
7
 10
3.20500084E+02
 20
1.30500214E+02
 11
3.21763618E+02
 21
1.30500214E+02
  0
LINE
  8
0
 62
7
 10
3.33000267E+02
 20
1.18000061E+02
 11
3.33000267E+02
 21
1.19263657E+02
  0
LINE
  8
0
 62
7
 10
2.85499893E+02
 20
1.30500244E+02
 11
2.84236465E+02
 21
1.30500244E+02
  0
LINE
  8
0
 62
7
 10
2.72999817E+02
 20
1.18000061E+02
 11
2.72999817E+02
 21
1.19263794E+02
  0
LINE
  8
0
 62
7
 10
2.85499931E+02
 20
7.04998093E+01
 11
2.84236198E+02
 21
7.04998093E+01
  0
LINE
  8
0
 62
7
 10
2.72999817E+02
 20
8.29998779E+01
 11
2.72999817E+02
 21
8.17363129E+01
  0
LINE
  8
0
 62
7
 10
3.33000267E+02
 20
8.29998779E+01
 11
3.33000267E+02
 21
8.17364655E+01
  0
LINE
  8
0
 62
7
 10
3.20500114E+02
 20
7.04997940E+01
 11
3.21763664E+02
 21
7.04997940E+01
  0
LINE
  8
0
  6
CENTER
 62
2
 10
3.20766685E+02
 20
7.24999695E+01
 11
3.43045097E+02
 21
7.24999695E+01
  0
LINE
  8
0
  6
CENTER
 62
2
 10
2.85630547E+02
 20
1.28500061E+02
 11
2.63097588E+02
 21
1.28500061E+02
  0
LINE
  8
0
  6
CENTER
 62
2
 10
2.75000015E+02
 20
8.25604782E+01
 11
2.75000015E+02
 21
6.10041046E+01
  0
LINE
  8
0
 62
7
 10
3.31000069E+02
 20
1.33118873E+02
 11
3.27000067E+02
 21
1.30809470E+02
  0
LINE
  8
0
 62
7
 10
3.27000069E+02
 20
1.30809464E+02
 11
3.27000069E+02
 21
1.26190674E+02
  0
LINE
  8
0
 62
7
 10
3.31000072E+02
 20
1.23881261E+02
 11
3.27000069E+02
 21
1.26190664E+02
  0
LINE
  8
0
 62
7
 10
3.35000069E+02
 20
1.26190669E+02
 11
3.31000067E+02
 21
1.23881267E+02
  0
LINE
  8
0
 62
7
 10
3.35000084E+02
 20
1.30809464E+02
 11
3.35000084E+02
 21
1.26190674E+02
  0
LINE
  8
0
 62
7
 10
3.31000069E+02
 20
1.33118867E+02
 11
3.35000072E+02
 21
1.30809464E+02
  0
LINE
  8
0
 62
7
 10
3.31000145E+02
 20
7.71187724E+01
 11
3.27000143E+02
 21
7.48093700E+01
  0
LINE
  8
0
 62
7
 10
3.27000145E+02
 20
7.48093719E+01
 11
3.27000145E+02
 21
7.01905670E+01
  0
LINE
  8
0
 62
7
 10
3.31000148E+02
 20
6.78811664E+01
 11
3.27000146E+02
 21
7.01905689E+01
  0
LINE
  8
0
 62
7
 10
3.35000145E+02
 20
7.01905695E+01
 11
3.31000143E+02
 21
6.78811671E+01
  0
LINE
  8
0
 62
7
 10
3.35000145E+02
 20
7.48093719E+01
 11
3.35000145E+02
 21
7.01905670E+01
  0
LINE
  8
0
 62
7
 10
3.31000146E+02
 20
7.71187720E+01
 11
3.35000148E+02
 21
7.48093695E+01
  0
LINE
  8
0
 62
7
 10
2.75000009E+02
 20
7.71187684E+01
 11
2.71000006E+02
 21
7.48093660E+01
  0
LINE
  8
0
 62
7
 10
2.71000015E+02
 20
7.48093719E+01
 11
2.71000015E+02
 21
7.01905670E+01
  0
LINE
  8
0
 62
7
 10
2.75000014E+02
 20
6.78811744E+01
 11
2.71000015E+02
 21
7.01905749E+01
  0
LINE
  8
0
 62
7
 10
2.79000009E+02
 20
7.01905653E+01
 11
2.75000006E+02
 21
6.78811629E+01
  0
LINE
  8
0
 62
7
 10
2.79000015E+02
 20
7.48093719E+01
 11
2.79000015E+02
 21
7.01905670E+01
  0
LINE
  8
0
 62
7
 10
2.75000015E+02
 20
7.71187780E+01
 11
2.79000014E+02
 21
7.48093775E+01
  0
LINE
  8
0
 62
7
 10
2.74999935E+02
 20
1.33118865E+02
 11
2.70999932E+02
 21
1.30809462E+02
  0
LINE
  8
0
 62
7
 10
2.70999939E+02
 20
1.30809464E+02
 11
2.70999939E+02
 21
1.26190674E+02
  0
LINE
  8
0
 62
7
 10
2.74999937E+02
 20
1.23881269E+02
 11
2.70999936E+02
 21
1.26190671E+02
  0
LINE
  8
0
 62
7
 10
2.78999931E+02
 20
1.26190668E+02
 11
2.74999929E+02
 21
1.23881266E+02
  0
LINE
  8
0
 62
7
 10
2.78999939E+02
 20
1.30809464E+02
 11
2.78999939E+02
 21
1.26190674E+02
  0
LINE
  8
0
 62
7
 10
2.74999936E+02
 20
1.33118874E+02
 11
2.78999937E+02
 21
1.30809472E+02
  0
CIRCLE
  8
0
 62
7
 10
3.31000069E+02
 20
1.28500061E+02
 40
6.50000048E+00
  0
ARC
  8
0
 62
7
 10
3.25847298E+02
 20
1.20518860E+02
 40
1.00000000E+00
 50
5.71538311E+01
 51
1.35000014E+02
  0
ARC
  8
0
 62
7
 10
3.23018883E+02
 20
1.23347290E+02
 40
1.00000000E+00
 50
3.15000047E+02
 51
3.28467588E+01
  0
CIRCLE
  8
0
 62
7
 10
3.31000069E+02
 20
7.24999695E+01
 40
6.50000048E+00
  0
ARC
  8
0
 62
7
 10
3.18485497E+02
 20
1.13157028E+02
 40
1.00000000E+00
 50
1.35000014E+02
 51
2.19261011E+02
  0
ARC
  8
0
 62
7
 10
3.15657051E+02
 20
1.15985458E+02
 40
1.00000000E+00
 50
2.30739011E+02
 51
3.15000026E+02
  0
ARC
  8
0
 62
7
 10
3.05000008E+02
 20
1.20399750E+02
 40
1.00000000E+00
 50
1.80000036E+02
 51
2.64260549E+02
  0
ARC
  8
0
 62
7
 10
3.22899788E+02
 20
9.85000000E+01
 40
1.00000000E+00
 50
8.99999618E+01
 51
1.74260515E+02
  0
ARC
  8
0
 62
7
 10
3.36500069E+02
 20
9.85000000E+01
 40
1.00000000E+00
 50
3.59999981E+02
 51
8.99999618E+01
  0
ARC
  8
0
 62
7
 10
2.74999939E+02
 20
1.28500031E+02
 40
8.50000000E+00
 50
2.63823540E+02
 51
6.17668522E+00
  0
ARC
  8
0
 62
7
 10
3.18485497E+02
 20
8.78429565E+01
 40
1.00000000E+00
 50
1.40739039E+02
 51
2.25000037E+02
  0
ARC
  8
0
 62
7
 10
3.15657051E+02
 20
8.50145264E+01
 40
1.00000000E+00
 50
4.50000149E+01
 51
1.29261016E+02
  0
ARC
  8
0
 62
7
 10
3.23018883E+02
 20
7.76526947E+01
 40
1.00000000E+00
 50
3.27153835E+02
 51
4.50000149E+01
  0
ARC
  8
0
 62
7
 10
3.25847298E+02
 20
8.04811172E+01
 40
1.00000000E+00
 50
2.25000027E+02
 51
3.02846743E+02
  0
ARC
  8
0
 62
7
 10
3.36500069E+02
 20
1.34000000E+02
 40
3.50000000E+00
 50
2.23117997E-05
 51
8.99999750E+01
  0
ARC
  8
0
 62
7
 10
3.05000008E+02
 20
1.34000000E+02
 40
1.00000000E+00
 50
9.00000025E+01
 51
1.80000046E+02
  0
ARC
  8
0
 62
7
 10
3.00999992E+02
 20
1.20399750E+02
 40
1.00000000E+00
 50
2.75739515E+02
 51
3.59721781E-05
  0
ARC
  8
0
 62
7
 10
3.00999992E+02
 20
1.34000015E+02
 40
1.00000000E+00
 50
3.59721781E-05
 51
9.00000162E+01
  0
ARC
  8
0
 62
7
 10
3.36500023E+02
 20
6.69999695E+01
 40
3.50000000E+00
 50
2.70000011E+02
 51
3.59999964E+02
  0
ARC
  8
0
 62
7
 10
3.36500023E+02
 20
1.02500000E+02
 40
1.00000000E+00
 50
2.69999956E+02
 51
3.59999992E+02
  0
ARC
  8
0
 62
7
 10
3.22899788E+02
 20
1.02500000E+02
 40
1.00000000E+00
 50
1.85739444E+02
 51
2.69999956E+02
  0
ARC
  8
0
 62
7
 10
3.05000008E+02
 20
8.06002502E+01
 40
1.00000000E+00
 50
9.57394995E+01
 51
1.80000032E+02
  0
ARC
  8
0
 62
7
 10
3.05000008E+02
 20
6.69999695E+01
 40
1.00000000E+00
 50
1.80000022E+02
 51
2.70000011E+02
  0
ARC
  8
0
 62
7
 10
3.36500069E+02
 20
1.34000000E+02
 40
4.00000000E+00
 50
2.23117997E-05
 51
8.99999750E+01
  0
ARC
  8
0
 62
7
 10
3.36500023E+02
 20
6.69999695E+01
 40
4.00000000E+00
 50
2.70000011E+02
 51
3.59999964E+02
  0
CIRCLE
  8
0
 62
7
 10
3.31000069E+02
 20
7.24999695E+01
 40
6.00000000E+00
  0
CIRCLE
  8
0
 62
2
 10
2.74999939E+02
 20
1.28500061E+02
 40
4.00000000E+00
  0
CIRCLE
  8
0
 62
7
 10
3.31000069E+02
 20
1.28500061E+02
 40
6.00000000E+00
  0
CIRCLE
  8
0
 62
7
 10
2.74999939E+02
 20
1.28500031E+02
 40
6.50000048E+00
  0
ARC
  8
0
 62
7
 10
2.87514549E+02
 20
1.13157059E+02
 40
1.00000000E+00
 50
3.20739045E+02
 51
4.50000423E+01
  0
ARC
  8
0
 62
7
 10
2.90342957E+02
 20
1.15985474E+02
 40
1.00000000E+00
 50
2.25000000E+02
 51
3.09261001E+02
  0
ARC
  8
0
 62
7
 10
2.82981163E+02
 20
1.23347305E+02
 40
1.00000000E+00
 50
1.47153844E+02
 51
2.25000010E+02
  0
ARC
  8
0
 62
7
 10
2.80152718E+02
 20
1.20518890E+02
 40
1.00000000E+00
 50
4.50000423E+01
 51
1.22846758E+02
  0
ARC
  8
0
 62
7
 10
2.69500023E+02
 20
1.34000015E+02
 40
3.50000000E+00
 50
9.00000162E+01
 51
1.80000005E+02
  0
ARC
  8
0
 62
7
 10
2.69500023E+02
 20
1.02499992E+02
 40
1.00000000E+00
 50
1.79999991E+02
 51
2.70000028E+02
  0
ARC
  8
0
 62
7
 10
2.83100296E+02
 20
1.02499992E+02
 40
1.00000000E+00
 50
2.70000038E+02
 51
3.54260543E+02
  0
ARC
  8
0
 62
7
 10
2.69500023E+02
 20
1.34000015E+02
 40
4.00000000E+00
 50
9.00000162E+01
 51
1.80000005E+02
  0
CIRCLE
  8
0
 62
7
 10
2.74999939E+02
 20
1.28500031E+02
 40
6.00000000E+00
  0
ARC
  8
0
 62
7
 10
2.85499893E+02
 20
1.34000153E+02
 40
3.50000000E+00
 50
2.69999984E+02
 51
3.59998489E+02
  0
ARC
  8
0
 62
7
 10
2.89999901E+02
 20
1.34000015E+02
 40
1.00000000E+00
 50
9.00000437E+01
 51
1.79998229E+02
  0
ARC
  8
0
 62
7
 10
2.84444824E+02
 20
1.29522171E+02
 40
1.00000000E+00
 50
9.56743599E+01
 51
1.86177214E+02
  0
ARC
  8
0
 62
7
 10
2.69499870E+02
 20
1.18000061E+02
 40
3.50000000E+00
 50
2.70000995E+02
 51
1.86693353E-05
  0
ARC
  8
0
 62
7
 10
2.73977867E+02
 20
1.19055191E+02
 40
1.00000000E+00
 50
8.38236945E+01
 51
1.74325484E+02
  0
ARC
  8
0
 62
7
 10
2.69500023E+02
 20
1.13500076E+02
 40
1.00000000E+00
 50
9.00017511E+01
 51
1.80000019E+02
  0
ARC
  8
0
 62
7
 10
3.36500069E+02
 20
8.74998779E+01
 40
1.00000000E+00
 50
2.70001766E+02
 51
3.59999964E+02
  0
ARC
  8
0
 62
7
 10
3.36500175E+02
 20
8.29998703E+01
 40
3.50000000E+00
 50
9.00014985E+01
 51
1.80000005E+02
  0
ARC
  8
0
 62
7
 10
3.32022224E+02
 20
8.19448013E+01
 40
1.00000000E+00
 50
2.63822781E+02
 51
3.54325620E+02
  0
ARC
  8
0
 62
7
 10
3.31000069E+02
 20
7.24999313E+01
 40
8.50000000E+00
 50
8.38233261E+01
 51
1.86176449E+02
  0
ARC
  8
0
 62
7
 10
3.21555183E+02
 20
1.29522171E+02
 40
1.00000000E+00
 50
3.53823687E+02
 51
8.43254881E+01
  0
ARC
  8
0
 62
7
 10
3.20500084E+02
 20
1.34000122E+02
 40
3.50000000E+00
 50
1.80001006E+02
 51
2.69999984E+02
  0
ARC
  8
0
 62
7
 10
3.16000069E+02
 20
1.34000015E+02
 40
1.00000000E+00
 50
1.72985911E-03
 51
9.00000162E+01
  0
ARC
  8
0
 62
7
 10
3.16000145E+02
 20
6.69999695E+01
 40
1.00000000E+00
 50
2.70000038E+02
 51
3.59998215E+02
  0
ARC
  8
0
 62
7
 10
3.20500114E+02
 20
6.69998474E+01
 40
3.50000000E+00
 50
9.00000162E+01
 51
1.79998502E+02
  0
ARC
  8
0
 62
7
 10
3.21555260E+02
 20
7.14778137E+01
 40
1.00000000E+00
 50
2.75674382E+02
 51
6.17723160E+00
  0
ARC
  8
0
 62
7
 10
3.31000069E+02
 20
1.28500031E+02
 40
8.50000000E+00
 50
1.73823329E+02
 51
2.76176459E+02
  0
ARC
  8
0
 62
7
 10
3.32022224E+02
 20
1.19055191E+02
 40
1.00000000E+00
 50
5.67452970E+00
 51
9.61763105E+01
  0
ARC
  8
0
 62
7
 10
3.36500145E+02
 20
1.18000061E+02
 40
3.50000000E+00
 50
1.79999991E+02
 51
2.69998990E+02
  0
ARC
  8
0
 62
7
 10
3.36500069E+02
 20
1.13500076E+02
 40
1.00000000E+00
 50
3.59999995E+02
 51
8.99982676E+01
  0
ARC
  8
0
 62
7
 10
2.85499969E+02
 20
6.69998856E+01
 40
3.50000000E+00
 50
1.00585906E-03
 51
9.00000162E+01
  0
ARC
  8
0
 62
7
 10
2.89999939E+02
 20
6.69999695E+01
 40
1.00000000E+00
 50
1.80001743E+02
 51
2.69999984E+02
  0
ARC
  8
0
 62
7
 10
3.00999992E+02
 20
6.70000000E+01
 40
1.00000000E+00
 50
2.69999998E+02
 51
4.96325564E-05
  0
ARC
  8
0
 62
7
 10
3.00999992E+02
 20
8.06002502E+01
 40
1.00000000E+00
 50
4.96325564E-05
 51
8.42605536E+01
  0
CIRCLE
  8
0
 62
7
 10
3.03000008E+02
 20
1.00500000E+02
 40
1.90000000E+01
  0
CIRCLE
  8
0
 62
7
 10
2.75000015E+02
 20
7.24999313E+01
 40
6.50000048E+00
  0
ARC
  8
0
 62
7
 10
2.90342957E+02
 20
8.50145416E+01
 40
1.00000000E+00
 50
5.07390404E+01
 51
1.35000041E+02
  0
ARC
  8
0
 62
7
 10
2.87514549E+02
 20
8.78429718E+01
 40
1.00000000E+00
 50
3.15000019E+02
 51
3.92610168E+01
  0
ARC
  8
0
 62
7
 10
2.80152718E+02
 20
8.04811401E+01
 40
1.00000000E+00
 50
2.37153816E+02
 51
3.14999999E+02
  0
ARC
  8
0
 62
7
 10
2.82981163E+02
 20
7.76527100E+01
 40
1.00000000E+00
 50
1.35000041E+02
 51
2.12846753E+02
  0
ARC
  8
0
 62
7
 10
2.69500023E+02
 20
6.70000000E+01
 40
3.50000000E+00
 50
1.80000008E+02
 51
2.69999984E+02
  0
ARC
  8
0
 62
7
 10
2.83100296E+02
 20
9.85000000E+01
 40
1.00000000E+00
 50
5.73949849E+00
 51
9.00000300E+01
  0
ARC
  8
0
 62
7
 10
2.69500023E+02
 20
9.85000000E+01
 40
1.00000000E+00
 50
9.00000300E+01
 51
1.80000019E+02
  0
ARC
  8
0
 62
7
 10
2.69500023E+02
 20
6.70000000E+01
 40
4.00000000E+00
 50
1.80000008E+02
 51
2.69999984E+02
  0
CIRCLE
  8
0
 62
7
 10
2.75000015E+02
 20
7.24999313E+01
 40
6.00000000E+00
  0
CIRCLE
  8
0
 62
2
 10
3.31000069E+02
 20
1.28500061E+02
 40
4.00000000E+00
  0
ARC
  8
0
 62
7
 10
2.69500023E+02
 20
8.74998779E+01
 40
1.00000000E+00
 50
1.80000036E+02
 51
2.69998222E+02
  0
ARC
  8
0
 62
7
 10
2.69499870E+02
 20
8.29998703E+01
 40
3.50000000E+00
 50
3.59721781E-05
 51
8.99985065E+01
  0
ARC
  8
0
 62
7
 10
2.73977867E+02
 20
8.19448013E+01
 40
1.00000000E+00
 50
1.85674352E+02
 51
2.76177207E+02
  0
ARC
  8
0
 62
7
 10
2.75000015E+02
 20
7.24999313E+01
 40
8.50000000E+00
 50
3.53823551E+02
 51
9.61766794E+01
  0
ARC
  8
0
 62
7
 10
2.84444824E+02
 20
7.14778137E+01
 40
1.00000000E+00
 50
1.73823697E+02
 51
2.64325479E+02
  0
CIRCLE
  8
0
 62
2
 10
3.31000145E+02
 20
7.24999695E+01
 40
4.00000000E+00
  0
CIRCLE
  8
0
 62
7
 10
3.31000145E+02
 20
7.24999695E+01
 40
3.32000017E+00
  0
CIRCLE
  8
0
 62
7
 10
3.31000069E+02
 20
1.28500061E+02
 40
3.32000017E+00
  0
CIRCLE
  8
0
 62
7
 10
2.74999939E+02
 20
1.28500061E+02
 40
3.32000017E+00
  0
CIRCLE
  8
0
 62
7
 10
2.75000015E+02
 20
7.24999695E+01
 40
3.32000017E+00
  0
CIRCLE
  8
0
 62
2
 10
2.75000015E+02
 20
7.24999695E+01
 40
4.00000000E+00
  0
CIRCLE
  8
0
 62
7
 10
3.03000008E+02
 20
1.00500000E+02
 40
8.99999237E+00
  0
CIRCLE
  8
0
 62
2
 10
3.03000008E+02
 20
1.00500000E+02
 40
8.18000031E+00
  0
CIRCLE
  8
0
 62
7
 10
3.03000008E+02
 20
1.00500000E+02
 40
1.75294495E+01
  0
CIRCLE
  8
0
 62
7
 10
3.03000008E+02
 20
1.00500000E+02
 40
1.70000000E+01
  0
LINE
  8
0
 62
4
 10
3.16500008E+02
 20
1.08294229E+02
 11
3.03000008E+02
 21
1.16088457E+02
  0
LINE
  8
0
 62
4
 10
3.16500008E+02
 20
9.27057714E+01
 11
3.16500008E+02
 21
1.08294229E+02
  0
LINE
  8
0
 62
4
 10
3.03000008E+02
 20
8.49115427E+01
 11
3.16500008E+02
 21
9.27057714E+01
  0
LINE
  8
0
 62
4
 10
2.89500008E+02
 20
9.27057714E+01
 11
3.03000008E+02
 21
8.49115427E+01
  0
LINE
  8
0
 62
4
 10
2.89500008E+02
 20
1.08294229E+02
 11
2.89500008E+02
 21
9.27057714E+01
  0
LINE
  8
0
 62
4
 10
3.03000008E+02
 20
1.16088457E+02
 11
2.89500008E+02
 21
1.08294229E+02
  0
CIRCLE
  8
0
 62
4
 10
3.03000008E+02
 20
1.00500000E+02
 40
1.35000000E+01
  0
LINE
  8
0
 62
4
 10
2.64274116E+02
 20
1.23542990E+02
 11
2.65499916E+02
 21
1.23941277E+02
  0
LINE
  8
0
 62
4
 10
2.65499916E+02
 20
1.19770366E+02
 11
2.64274116E+02
 21
1.23542990E+02
  0
LINE
  8
0
 62
6
 10
2.64428625E+02
 20
1.23067462E+02
 11
2.65499916E+02
 21
1.23415546E+02
  0
LINE
  8
0
 62
6
 10
2.65355676E+02
 20
1.20214292E+02
 11
2.65499916E+02
 21
1.20261159E+02
  0
LINE
  8
0
  6
CENTER
 62
6
 10
2.87575467E+02
 20
1.35425053E+02
 11
2.93281806E+02
 21
1.37279155E+02
  0
LINE
  8
0
  6
CENTER
 62
6
 10
2.89501586E+02
 20
1.39205274E+02
 11
2.91355688E+02
 21
1.33498935E+02
  0
LINE
  8
0
 62
4
 10
2.91712716E+02
 20
1.38872251E+02
 11
2.91996117E+02
 21
1.38000031E+02
  0
LINE
  8
0
 62
4
 10
2.89028296E+02
 20
1.38000031E+02
 11
2.91712716E+02
 21
1.38872251E+02
  0
LINE
  8
0
 62
4
 10
2.91712716E+02
 20
1.38872251E+02
 11
2.91268297E+02
 21
1.38000031E+02
  0
LINE
  8
0
 62
4
 10
2.88154219E+02
 20
1.49176964E+02
 11
2.78358337E+02
 21
1.45994089E+02
  0
LINE
  8
0
 62
4
 10
2.88609932E+02
 20
1.38389827E+02
 11
2.91367996E+02
 21
1.39285976E+02
  0
LINE
  8
0
 62
4
 10
2.88411321E+02
 20
1.38000031E+02
 11
2.88609932E+02
 21
1.38389827E+02
  0
LINE
  8
0
  6
CENTER
 62
6
 10
2.69345795E+02
 20
1.38334156E+02
 11
2.94740850E+02
 21
1.46585510E+02
  0
LINE
  8
0
  6
CENTER
 62
6
 10
2.79344759E+02
 20
1.37902899E+02
 11
2.95822410E+02
 21
1.43256812E+02
  0
LINE
  8
0
 62
4
 10
2.74078583E+02
 20
1.44603512E+02
 11
2.78358337E+02
 21
1.45994089E+02
  0
LINE
  8
0
 62
4
 10
2.80955764E+02
 20
1.38000031E+02
 11
2.78358337E+02
 21
1.45994089E+02
  0
LINE
  8
0
 62
4
 10
2.70713941E+02
 20
1.38000031E+02
 11
2.74078583E+02
 21
1.44603512E+02
  0
LINE
  8
0
 62
4
 10
2.88370531E+02
 20
1.48511224E+02
 11
2.89321588E+02
 21
1.48820241E+02
  0
ARC
  8
0
 62
4
 10
2.92312950E+02
 20
1.43273128E+02
 40
1.00000000E+00
 50
3.36723662E+02
 51
5.17248996E+00
  0
ARC
  8
0
 62
4
 10
2.90829668E+02
 20
1.47838200E+02
 40
1.00000000E+00
 50
3.08275100E+01
 51
1.08000000E+02
  0
ARC
  8
0
 62
4
 10
2.81546970E+02
 20
1.42298559E+02
 40
1.18100000E+01
 50
5.17248996E+00
 51
3.08275100E+01
  0
LINE
  8
0
 62
4
 10
2.89445194E+02
 20
1.48439819E+02
 11
2.90519888E+02
 21
1.48789008E+02
  0
LINE
  8
0
 62
4
 10
2.90294991E+02
 20
1.45824413E+02
 11
2.89321588E+02
 21
1.48820241E+02
  0
LINE
  8
0
 62
4
 10
2.92185381E+02
 20
1.38000031E+02
 11
2.89705336E+02
 21
1.45632823E+02
  0
LINE
  8
0
 62
4
 10
2.89390287E+02
 20
1.45372738E+02
 11
2.89751689E+02
 21
1.45490164E+02
  0
LINE
  8
0
 62
4
 10
2.89705336E+02
 20
1.45632823E+02
 11
2.91379195E+02
 21
1.46176693E+02
  0
LINE
  8
0
 62
4
 10
2.93073381E+02
 20
1.38000031E+02
 11
2.93944037E+02
 21
1.38282924E+02
  0
ARC
  8
0
 62
4
 10
2.82140790E+02
 20
1.38819521E+02
 40
1.18100000E+01
 50
1.80000000E+01
 51
3.85326990E+01
  0
ARC
  8
0
 62
4
 10
2.82145573E+02
 20
1.38804802E+02
 40
1.18100000E+01
 50
3.57467301E+02
 51
1.80000000E+01
  0
LINE
  8
0
 62
4
 10
2.91785825E+02
 20
1.38000031E+02
 11
2.88154219E+02
 21
1.49176964E+02
  0
LINE
  8
0
 62
4
 10
3.40500008E+02
 20
1.19770178E+02
 11
3.41725869E+02
 21
1.23542990E+02
  0
LINE
  8
0
 62
4
 10
3.41725869E+02
 20
1.23542990E+02
 11
3.40500008E+02
 21
1.23941297E+02
  0
LINE
  8
0
 62
6
 10
3.41571360E+02
 20
1.23067462E+02
 11
3.40500008E+02
 21
1.23415566E+02
  0
LINE
  8
0
 62
6
 10
3.40644309E+02
 20
1.20214292E+02
 11
3.40500008E+02
 21
1.20261179E+02
  0
LINE
  8
0
  6
CENTER
 62
6
 10
3.26655226E+02
 20
1.37902899E+02
 11
3.10536193E+02
 21
1.43140290E+02
  0
LINE
  8
0
  6
CENTER
 62
6
 10
3.36654190E+02
 20
1.38334156E+02
 11
3.11617752E+02
 21
1.46468988E+02
  0
LINE
  8
0
 62
4
 10
3.17588664E+02
 20
1.38000031E+02
 11
3.17390053E+02
 21
1.38389827E+02
  0
LINE
  8
0
 62
4
 10
3.17390053E+02
 20
1.38389827E+02
 11
3.14631989E+02
 21
1.39285976E+02
  0
LINE
  8
0
 62
4
 10
3.17845766E+02
 20
1.49176964E+02
 11
3.27641648E+02
 21
1.45994089E+02
  0
LINE
  8
0
 62
4
 10
3.16971688E+02
 20
1.38000031E+02
 11
3.14287269E+02
 21
1.38872251E+02
  0
LINE
  8
0
 62
4
 10
3.14287269E+02
 20
1.38872251E+02
 11
3.14003867E+02
 21
1.38000031E+02
  0
LINE
  8
0
  6
CENTER
 62
6
 10
3.16498399E+02
 20
1.39205274E+02
 11
3.14644297E+02
 21
1.33498935E+02
  0
LINE
  8
0
  6
CENTER
 62
6
 10
3.18424518E+02
 20
1.35425053E+02
 11
3.12718179E+02
 21
1.37279155E+02
  0
LINE
  8
0
 62
4
 10
3.35286044E+02
 20
1.38000031E+02
 11
3.31921402E+02
 21
1.44603512E+02
  0
LINE
  8
0
 62
4
 10
3.31921402E+02
 20
1.44603512E+02
 11
3.27641648E+02
 21
1.45994089E+02
  0
LINE
  8
0
 62
4
 10
3.27641648E+02
 20
1.45994089E+02
 11
3.25044221E+02
 21
1.38000031E+02
  0
LINE
  8
0
 62
4
 10
3.15280925E+02
 20
1.41283195E+02
 11
3.14329868E+02
 21
1.41592212E+02
  0
LINE
  8
0
 62
4
 10
3.17629454E+02
 20
1.48511224E+02
 11
3.16678397E+02
 21
1.48820241E+02
  0
ARC
  8
0
 62
4
 10
3.13687035E+02
 20
1.43273128E+02
 40
1.00000000E+00
 50
1.74827510E+02
 51
2.52000000E+02
  0
ARC
  8
0
 62
4
 10
3.15170317E+02
 20
1.47838200E+02
 40
1.00000000E+00
 50
7.19999999E+01
 51
1.49172490E+02
  0
LINE
  8
0
 62
4
 10
3.14453475E+02
 20
1.41972634E+02
 11
3.13378781E+02
 21
1.42321824E+02
  0
LINE
  8
0
 62
4
 10
3.16554790E+02
 20
1.48439819E+02
 11
3.15480097E+02
 21
1.48789008E+02
  0
LINE
  8
0
 62
4
 10
3.14329868E+02
 20
1.41592212E+02
 11
3.16678397E+02
 21
1.48820241E+02
  0
ARC
  8
0
 62
4
 10
3.24453014E+02
 20
1.42298559E+02
 40
1.18100000E+01
 50
1.49172490E+02
 51
1.74827510E+02
  0
LINE
  8
0
 62
4
 10
3.13814604E+02
 20
1.38000031E+02
 11
3.14919523E+02
 21
1.41400621E+02
  0
LINE
  8
0
 62
4
 10
3.12926604E+02
 20
1.38000031E+02
 11
3.12055948E+02
 21
1.38282924E+02
  0
ARC
  8
0
 62
4
 10
3.23859194E+02
 20
1.38819521E+02
 40
1.18100000E+01
 50
1.59900933E+02
 51
1.62000000E+02
  0
ARC
  8
0
 62
4
 10
3.23854412E+02
 20
1.38804802E+02
 40
1.18100000E+01
 50
1.62000000E+02
 51
1.82532699E+02
  0
LINE
  8
0
 62
4
 10
3.14214160E+02
 20
1.38000031E+02
 11
3.17845766E+02
 21
1.49176964E+02
  0
LINE
  8
0
  6
PHANTOM
 10
1.09999973E+02
 20
1.88056721E+02
 11
1.09999973E+02
 21
3.53816712E+02
  0
LINE
  8
0
  6
PHANTOM
 10
-2.95000000E+01
 20
1.89371803E+02
 11
-2.95000000E+01
 21
3.53816712E+02
  0
LINE
  8
0
  6
CENTER
 62
2
 10
-1.77033272E+02
 20
2.80500000E+02
 11
1.65332733E+02
 21
2.80500000E+02
  0
LINE
  8
0
  6
CENTER
 62
2
 10
-1.09364861E+02
 20
2.88500000E+02
 11
-8.77606888E+01
 21
2.88500000E+02
  0
LINE
  8
0
  6
CENTER
 62
2
 10
-9.90000687E+01
 20
2.78499985E+02
 11
-9.90000687E+01
 21
2.99046265E+02
  0
LINE
  8
0
 62
7
 10
-1.18499992E+02
 20
2.61499985E+02
 11
-1.16999992E+02
 21
2.61499985E+02
  0
LINE
  8
0
 62
7
 10
-1.31500008E+02
 20
2.63500000E+02
 11
-1.26991447E+02
 21
2.63500000E+02
  0
LINE
  8
0
 62
7
 10
-1.26999992E+02
 20
2.63499985E+02
 11
-1.26999992E+02
 21
2.63491440E+02
  0
LINE
  8
0
 62
7
 10
-1.26758764E+02
 20
2.63241520E+02
 11
-1.19000066E+02
 21
2.62970580E+02
  0
LINE
  8
0
 62
7
 10
-1.16508758E+02
 20
2.43550071E+02
 11
-8.50000536E+01
 21
2.43000085E+02
  0
LINE
  8
0
 62
7
 10
-1.31999992E+02
 20
2.64000015E+02
 11
-1.31999992E+02
 21
2.96999969E+02
  0
LINE
  8
0
 62
7
 10
-1.18499992E+02
 20
2.99500000E+02
 11
-1.16999992E+02
 21
2.99500000E+02
  0
LINE
  8
0
 62
7
 10
-1.31500008E+02
 20
2.97499969E+02
 11
-1.26991447E+02
 21
2.97499969E+02
  0
LINE
  8
0
 62
7
 10
-1.26999992E+02
 20
2.97500000E+02
 11
-1.26999992E+02
 21
2.97508545E+02
  0
LINE
  8
0
 62
7
 10
-1.26758735E+02
 20
2.97758618E+02
 11
-1.19000052E+02
 21
2.98029557E+02
  0
LINE
  8
0
 62
7
 10
-1.16999992E+02
 20
2.44049911E+02
 11
-1.16999992E+02
 21
3.16950073E+02
  0
LINE
  8
0
 62
7
 10
-8.49999924E+01
 20
2.43000031E+02
 11
-8.49999924E+01
 21
3.18000000E+02
  0
LINE
  8
0
 62
7
 10
-1.16508731E+02
 20
3.17450001E+02
 11
-8.50000108E+01
 21
3.17999988E+02
  0
LINE
  8
0
 62
7
 10
-1.19000008E+02
 20
2.61999985E+02
 11
-1.19000008E+02
 21
2.99000015E+02
  0
LINE
  8
0
 62
7
 10
-1.26999992E+02
 20
2.97500000E+02
 11
-1.26999992E+02
 21
2.63499985E+02
  0
LINE
  8
0
 62
7
 10
-1.10999992E+02
 20
3.05500000E+02
 11
-8.49999924E+01
 21
3.05500000E+02
  0
LINE
  8
0
 62
7
 10
-1.10999992E+02
 20
2.55499985E+02
 11
-8.49999924E+01
 21
2.55499985E+02
  0
LINE
  8
0
 62
7
 10
-1.13000008E+02
 20
3.03500000E+02
 11
-1.13000008E+02
 21
2.57500000E+02
  0
LINE
  8
0
  6
CENTER
 62
2
 10
4.63648529E+01
 20
2.88500000E+02
 11
2.47606735E+01
 21
2.88500000E+02
  0
LINE
  8
0
  6
CENTER
 62
2
 10
3.60000458E+01
 20
2.78499985E+02
 11
3.60000458E+01
 21
2.99046265E+02
  0
LINE
  8
0
 62
7
 10
5.54999924E+01
 20
2.99499985E+02
 11
5.39999924E+01
 21
2.99499985E+02
  0
LINE
  8
0
 62
7
 10
5.35087352E+01
 20
3.17449995E+02
 11
2.20000456E+01
 21
3.17999981E+02
  0
LINE
  8
0
 62
7
 10
5.54999924E+01
 20
2.61499985E+02
 11
5.39999924E+01
 21
2.61499985E+02
  0
LINE
  8
0
 62
7
 10
5.39999809E+01
 20
3.16950073E+02
 11
5.39999809E+01
 21
2.44049911E+02
  0
LINE
  8
0
 62
7
 10
2.19999924E+01
 20
3.17999939E+02
 11
2.19999924E+01
 21
2.42999969E+02
  0
LINE
  8
0
 62
7
 10
5.35087298E+01
 20
2.43550001E+02
 11
2.20000135E+01
 21
2.43000014E+02
  0
LINE
  8
0
 62
7
 10
5.59999886E+01
 20
2.98999985E+02
 11
5.59999886E+01
 21
2.61999985E+02
  0
LINE
  8
0
 62
7
 10
4.79999847E+01
 20
2.55499985E+02
 11
2.19999924E+01
 21
2.55499985E+02
  0
LINE
  8
0
 62
7
 10
4.79999847E+01
 20
3.05500000E+02
 11
2.19999924E+01
 21
3.05500000E+02
  0
LINE
  8
0
 62
7
 10
4.99999847E+01
 20
2.57500000E+02
 11
4.99999847E+01
 21
3.03500000E+02
  0
LINE
  8
0
  6
CENTER
 62
2
 10
5.82292404E+01
 20
2.52499969E+02
 11
-1.20248085E+02
 21
2.52499969E+02
  0
LINE
  8
0
 62
7
 10
2.19999924E+01
 20
2.56100021E+02
 11
1.49999924E+01
 21
2.56100021E+02
  0
LINE
  8
0
 62
7
 10
2.19999924E+01
 20
2.48900009E+02
 11
-7.62939453E-06
 21
2.48900009E+02
  0
LINE
  8
0
 62
7
 10
2.19999924E+01
 20
2.46500031E+02
 11
-7.62939453E-06
 21
2.46500031E+02
  0
LINE
  8
0
  6
CENTER
 62
2
 10
2.90000229E+01
 20
2.74911148E+02
 11
2.90000229E+01
 21
2.61434402E+02
  0
LINE
  8
0
  6
CENTER
 62
2
 10
2.23342972E+01
 20
2.68500000E+02
 11
3.51630478E+01
 21
2.68500000E+02
  0
LINE
  8
0
 62
7
 10
3.07320801E+01
 20
2.68499894E+02
 11
2.98660485E+01
 21
2.69999913E+02
  0
LINE
  8
0
 62
7
 10
2.98660355E+01
 20
2.70000015E+02
 11
2.81339722E+01
 21
2.70000015E+02
  0
LINE
  8
0
 62
7
 10
2.72681294E+01
 20
2.68499876E+02
 11
2.81341380E+01
 21
2.69999856E+02
  0
LINE
  8
0
 62
7
 10
2.81340299E+01
 20
2.66999971E+02
 11
2.72679831E+01
 21
2.68500017E+02
  0
LINE
  8
0
 62
7
 10
2.98660355E+01
 20
2.66999985E+02
 11
2.81339722E+01
 21
2.66999985E+02
  0
LINE
  8
0
 62
7
 10
3.07321521E+01
 20
2.68499901E+02
 11
2.98661205E+01
 21
2.66999882E+02
  0
LINE
  8
0
 62
7
 10
-9.02679675E+01
 20
2.68499922E+02
 11
-9.11339914E+01
 21
2.69999929E+02
  0
LINE
  8
0
 62
7
 10
-9.11340256E+01
 20
2.70000015E+02
 11
-9.28660965E+01
 21
2.70000015E+02
  0
LINE
  8
0
 62
7
 10
-9.37319309E+01
 20
2.68499864E+02
 11
-9.28659108E+01
 21
2.69999864E+02
  0
LINE
  8
0
 62
7
 10
-9.28659882E+01
 20
2.66999963E+02
 11
-9.37320273E+01
 21
2.68499996E+02
  0
LINE
  8
0
 62
7
 10
-9.11340256E+01
 20
2.66999985E+02
 11
-9.28660965E+01
 21
2.66999985E+02
  0
LINE
  8
0
 62
7
 10
-9.02679441E+01
 20
2.68499918E+02
 11
-9.11339794E+01
 21
2.66999892E+02
  0
LINE
  8
0
  6
CENTER
 62
2
 10
-9.86657639E+01
 20
2.68500000E+02
 11
-8.58370132E+01
 21
2.68500000E+02
  0
LINE
  8
0
  6
CENTER
 62
2
 10
-9.20000381E+01
 20
2.74911148E+02
 11
-9.20000381E+01
 21
2.61434402E+02
  0
LINE
  8
0
  6
CENTER
 62
2
 10
5.82292404E+01
 20
3.08500031E+02
 11
-1.20248085E+02
 21
3.08500031E+02
  0
LINE
  8
0
 62
7
 10
2.19999924E+01
 20
3.04899994E+02
 11
-4.39999924E+01
 21
3.04899994E+02
  0
LINE
  8
0
 62
7
 10
2.19999924E+01
 20
3.12100006E+02
 11
-4.39999924E+01
 21
3.12100006E+02
  0
LINE
  8
0
 62
7
 10
2.19999924E+01
 20
3.14499969E+02
 11
-4.39999924E+01
 21
3.14499969E+02
  0
LINE
  8
0
 62
7
 10
-1.41999962E+02
 20
2.71500000E+02
 11
-1.41999962E+02
 21
2.89499985E+02
  0
LINE
  8
0
 62
7
 10
-1.36642311E+02
 20
2.69549973E+02
 11
-1.31999992E+02
 21
2.69549973E+02
  0
LINE
  8
0
 62
7
 10
-1.73999977E+02
 20
2.73000015E+02
 11
-1.73999977E+02
 21
2.87999832E+02
  0
LINE
  8
0
 62
7
 10
-1.72499977E+02
 20
2.71499985E+02
 11
-1.72499977E+02
 21
2.89499985E+02
  0
LINE
  8
0
 62
7
 10
-1.72499916E+02
 20
2.89499985E+02
 11
-1.64061698E+02
 21
2.89499985E+02
  0
LINE
  8
0
 62
2
 10
-1.73319923E+02
 20
2.88679977E+02
 11
-1.64061698E+02
 21
2.88679977E+02
  0
LINE
  8
0
 62
7
 10
-1.73999907E+02
 20
2.87999833E+02
 11
-1.72499861E+02
 21
2.89499833E+02
  0
LINE
  8
0
 62
7
 10
-1.72499916E+02
 20
2.71499985E+02
 11
-1.64061698E+02
 21
2.71499985E+02
  0
LINE
  8
0
 62
2
 10
-1.73319923E+02
 20
2.72319992E+02
 11
-1.64061698E+02
 21
2.72319992E+02
  0
LINE
  8
0
 62
7
 10
-1.73999984E+02
 20
2.73000051E+02
 11
-1.72499949E+02
 21
2.71500061E+02
  0
LINE
  8
0
 62
7
 10
-1.36642296E+02
 20
2.75024979E+02
 11
-1.31999992E+02
 21
2.75024979E+02
  0
LINE
  8
0
 62
7
 10
-1.36642296E+02
 20
2.85974991E+02
 11
-1.31999992E+02
 21
2.85974991E+02
  0
LINE
  8
0
 62
7
 10
-1.41999973E+02
 20
2.71499999E+02
 11
-1.36642309E+02
 21
2.69549968E+02
  0
LINE
  8
0
 62
7
 10
-1.36642326E+02
 20
2.91449997E+02
 11
-1.31999992E+02
 21
2.91449997E+02
  0
LINE
  8
0
 62
7
 10
-1.44999962E+02
 20
2.71499985E+02
 11
-1.44999962E+02
 21
2.89499985E+02
  0
LINE
  8
0
 62
7
 10
-1.41999944E+02
 20
2.89499966E+02
 11
-1.36642294E+02
 21
2.91449991E+02
  0
LINE
  8
0
 62
7
 10
-1.44999962E+02
 20
2.88679977E+02
 11
-1.41999962E+02
 21
2.88679977E+02
  0
LINE
  8
0
 62
7
 10
-1.44999962E+02
 20
2.72319992E+02
 11
-1.41999962E+02
 21
2.72319992E+02
  0
LINE
  8
0
 62
7
 10
1.25999950E+02
 20
2.89000015E+02
 11
1.25999950E+02
 21
2.72000015E+02
  0
LINE
  8
0
 62
7
 10
1.20499996E+02
 20
2.70500046E+02
 11
6.90000267E+01
 21
2.70500046E+02
  0
LINE
  8
0
 62
7
 10
1.20499966E+02
 20
2.90500046E+02
 11
6.89999809E+01
 21
2.90500046E+02
  0
LINE
  8
0
 62
7
 10
1.31999935E+02
 20
2.71500015E+02
 11
1.31999935E+02
 21
2.89500015E+02
  0
LINE
  8
0
 62
7
 10
1.60999966E+02
 20
2.73000046E+02
 11
1.60999966E+02
 21
2.87999847E+02
  0
LINE
  8
0
 62
7
 10
1.59499935E+02
 20
2.71500015E+02
 11
1.59499935E+02
 21
2.89500015E+02
  0
LINE
  8
0
 62
7
 10
1.59499905E+02
 20
2.89500015E+02
 11
1.51999966E+02
 21
2.89500015E+02
  0
LINE
  8
0
 62
2
 10
1.60319912E+02
 20
2.88680008E+02
 11
1.51999966E+02
 21
2.88680008E+02
  0
LINE
  8
0
 62
7
 10
1.60999809E+02
 20
2.87999828E+02
 11
1.59499773E+02
 21
2.89499818E+02
  0
LINE
  8
0
 62
7
 10
1.59499905E+02
 20
2.71500031E+02
 11
1.51999966E+02
 21
2.71500031E+02
  0
LINE
  8
0
 62
2
 10
1.60319912E+02
 20
2.72320038E+02
 11
1.51999966E+02
 21
2.72320038E+02
  0
LINE
  8
0
 62
7
 10
1.61000008E+02
 20
2.73000144E+02
 11
1.59499972E+02
 21
2.71500155E+02
  0
LINE
  8
0
 62
7
 10
1.31999935E+02
 20
2.72320038E+02
 11
1.28999950E+02
 21
2.72320038E+02
  0
LINE
  8
0
 62
7
 10
1.31999935E+02
 20
2.88680008E+02
 11
1.28999950E+02
 21
2.88680008E+02
  0
LINE
  8
0
 62
7
 10
1.28999950E+02
 20
2.72000015E+02
 11
1.28999950E+02
 21
2.89000015E+02
  0
LINE
  8
0
 62
7
 10
1.28999950E+02
 20
2.72000015E+02
 11
1.22000011E+02
 21
2.72000015E+02
  0
LINE
  8
0
 62
7
 10
1.28999950E+02
 20
2.89000031E+02
 11
1.22000011E+02
 21
2.89000031E+02
  0
LINE
  8
0
 62
7
 10
1.22000072E+02
 20
2.72000089E+02
 11
1.20500103E+02
 21
2.70500120E+02
  0
LINE
  8
0
 62
7
 10
1.22000127E+02
 20
2.89000162E+02
 11
1.20500104E+02
 21
2.90500185E+02
  0
LINE
  8
0
 62
7
 10
6.84999962E+01
 20
2.63500000E+02
 11
6.39914360E+01
 21
2.63500000E+02
  0
LINE
  8
0
 62
7
 10
6.39999809E+01
 20
2.63499985E+02
 11
6.39999809E+01
 21
2.63491440E+02
  0
LINE
  8
0
 62
7
 10
6.37587498E+01
 20
2.63241514E+02
 11
5.60000513E+01
 21
2.62970575E+02
  0
LINE
  8
0
 62
7
 10
6.89999809E+01
 20
2.64000015E+02
 11
6.89999809E+01
 21
2.96999969E+02
  0
LINE
  8
0
 62
7
 10
6.84999962E+01
 20
2.97499969E+02
 11
6.39914360E+01
 21
2.97499969E+02
  0
LINE
  8
0
 62
7
 10
6.39999809E+01
 20
2.97500000E+02
 11
6.39999809E+01
 21
2.97508545E+02
  0
LINE
  8
0
 62
7
 10
6.37587209E+01
 20
2.97758623E+02
 11
5.60000337E+01
 21
2.98029563E+02
  0
LINE
  8
0
 62
7
 10
6.39999809E+01
 20
2.97500000E+02
 11
6.39999809E+01
 21
2.63499985E+02
  0
ARC
  8
0
 62
7
 10
-1.31500008E+02
 20
2.64000031E+02
 40
5.00000000E-01
 50
1.79999977E+02
 51
2.69999974E+02
  0
ARC
  8
0
 62
7
 10
-1.26750008E+02
 20
2.63491455E+02
 40
2.50000000E-01
 50
1.79999977E+02
 51
2.68001132E+02
  0
ARC
  8
0
 62
7
 10
-1.16500008E+02
 20
2.44049927E+02
 40
5.00000000E-01
 50
1.79999977E+02
 51
2.68999706E+02
  0
ARC
  8
0
 62
7
 10
-1.18499992E+02
 20
2.61999985E+02
 40
5.00000000E-01
 50
1.79999977E+02
 51
2.69999974E+02
  0
ARC
  8
0
 62
7
 10
-1.31500008E+02
 20
2.96999939E+02
 40
5.00000000E-01
 50
8.99999818E+01
 51
1.79999964E+02
  0
ARC
  8
0
 62
7
 10
-1.26750008E+02
 20
2.97508514E+02
 40
2.50000000E-01
 50
9.19988230E+01
 51
1.79999977E+02
  0
ARC
  8
0
 62
7
 10
-1.16500008E+02
 20
3.16950073E+02
 40
5.00000000E-01
 50
9.10002223E+01
 51
1.79999964E+02
  0
ARC
  8
0
 62
7
 10
-1.18499992E+02
 20
2.98999985E+02
 40
5.00000000E-01
 50
8.99999818E+01
 51
1.79999964E+02
  0
CIRCLE
  8
0
 62
7
 10
-9.90000687E+01
 20
2.88500000E+02
 40
8.71000004E+00
  0
CIRCLE
  8
0
 62
7
 10
-9.90000687E+01
 20
2.88500000E+02
 40
7.44000006E+00
  0
ARC
  8
0
 62
7
 10
-1.10999992E+02
 20
3.03500000E+02
 40
2.00000000E+00
 50
8.99999818E+01
 51
1.79999964E+02
  0
ARC
  8
0
 62
7
 10
-1.10999992E+02
 20
2.57499969E+02
 40
2.00000000E+00
 50
1.79999977E+02
 51
2.70000028E+02
  0
CIRCLE
  8
0
 62
2
 10
-9.90000687E+01
 20
2.88500000E+02
 40
8.32999992E+00
  0
ARC
  8
0
 62
7
 10
5.34999886E+01
 20
3.16950073E+02
 40
5.00000000E-01
 50
5.46415133E-05
 51
8.89997964E+01
  0
ARC
  8
0
 62
7
 10
5.54999962E+01
 20
2.98999985E+02
 40
5.00000000E-01
 50
5.46415133E-05
 51
9.00000369E+01
  0
ARC
  8
0
 62
7
 10
5.34999886E+01
 20
2.44049881E+02
 40
5.00000000E-01
 50
2.71000313E+02
 51
5.46415133E-05
  0
ARC
  8
0
 62
7
 10
5.54999962E+01
 20
2.61999985E+02
 40
5.00000000E-01
 50
2.70000073E+02
 51
5.46415133E-05
  0
CIRCLE
  8
0
 62
7
 10
3.60000458E+01
 20
2.88500000E+02
 40
8.71000004E+00
  0
CIRCLE
  8
0
 62
7
 10
3.60000458E+01
 20
2.88500000E+02
 40
7.44000006E+00
  0
ARC
  8
0
 62
7
 10
4.80000000E+01
 20
2.57499969E+02
 40
2.00000000E+00
 50
2.70000073E+02
 51
5.46415133E-05
  0
ARC
  8
0
 62
7
 10
4.80000000E+01
 20
3.03500000E+02
 40
2.00000000E+00
 50
5.46415133E-05
 51
9.00000913E+01
  0
CIRCLE
  8
0
 62
2
 10
3.60000458E+01
 20
2.88500000E+02
 40
8.32999992E+00
  0
CIRCLE
  8
0
 62
7
 10
2.90000229E+01
 20
2.68500000E+02
 40
5.00000000E+00
  0
CIRCLE
  8
0
 62
7
 10
-9.20000381E+01
 20
2.68500000E+02
 40
5.00000000E+00
  0
CIRCLE
  8
0
 62
7
 10
-9.20000381E+01
 20
2.68500000E+02
 40
2.59999990E+00
  0
CIRCLE
  8
0
 62
7
 10
2.90000229E+01
 20
2.68500000E+02
 40
2.59999990E+00
  0
ARC
  8
0
 62
7
 10
6.84999962E+01
 20
2.64000031E+02
 40
5.00000000E-01
 50
2.70000025E+02
 51
2.23117997E-05
  0
ARC
  8
0
 62
7
 10
6.37499962E+01
 20
2.63491455E+02
 40
2.50000000E-01
 50
2.71998866E+02
 51
2.23117997E-05
  0
ARC
  8
0
 62
7
 10
6.84999962E+01
 20
2.96999939E+02
 40
5.00000000E-01
 50
3.59721781E-05
 51
9.00000162E+01
  0
ARC
  8
0
 62
7
 10
6.37499962E+01
 20
2.97508514E+02
 40
2.50000000E-01
 50
2.23117997E-05
 51
8.80011750E+01
  0
POLYLINE
  8
0
 62
7
 66
1
  0
VERTEX
  8
0
 62
7
 10
-1.36642296E+02
 20
2.75024971E+02
  0
VERTEX
  8
0
 62
7
 10
-1.36989874E+02
 20
2.75015295E+02
  0
VERTEX
  8
0
 62
7
 10
-1.37334801E+02
 20
2.74986341E+02
  0
VERTEX
  8
0
 62
7
 10
-1.37674447E+02
 20
2.74938329E+02
  0
VERTEX
  8
0
 62
7
 10
-1.38006221E+02
 20
2.74871626E+02
  0
VERTEX
  8
0
 62
7
 10
-1.38327593E+02
 20
2.74786740E+02
  0
VERTEX
  8
0
 62
7
 10
-1.38636112E+02
 20
2.74684319E+02
  0
VERTEX
  8
0
 62
7
 10
-1.38929426E+02
 20
2.74565144E+02
  0
VERTEX
  8
0
 62
7
 10
-1.39205296E+02
 20
2.74430124E+02
  0
VERTEX
  8
0
 62
7
 10
-1.39461621E+02
 20
2.74280288E+02
  0
VERTEX
  8
0
 62
7
 10
-1.39696444E+02
 20
2.74116779E+02
  0
VERTEX
  8
0
 62
7
 10
-1.39907974E+02
 20
2.73940845E+02
  0
VERTEX
  8
0
 62
7
 10
-1.40094599E+02
 20
2.73753826E+02
  0
VERTEX
  8
0
 62
7
 10
-1.40254896E+02
 20
2.73557150E+02
  0
VERTEX
  8
0
 62
7
 10
-1.40387640E+02
 20
2.73352315E+02
  0
VERTEX
  8
0
 62
7
 10
-1.40491822E+02
 20
2.73140885E+02
  0
VERTEX
  8
0
 62
7
 10
-1.40566645E+02
 20
2.72924472E+02
  0
VERTEX
  8
0
 62
7
 10
-1.40611539E+02
 20
2.72704726E+02
  0
VERTEX
  8
0
 62
7
 10
-1.40626162E+02
 20
2.72483324E+02
  0
VERTEX
  8
0
 62
7
 10
-1.40610402E+02
 20
2.72261953E+02
  0
VERTEX
  8
0
 62
7
 10
-1.40564380E+02
 20
2.72042302E+02
  0
VERTEX
  8
0
 62
7
 10
-1.40488446E+02
 20
2.71826045E+02
  0
VERTEX
  8
0
 62
7
 10
-1.40383180E+02
 20
2.71614834E+02
  0
VERTEX
  8
0
 62
7
 10
-1.40249384E+02
 20
2.71410277E+02
  0
VERTEX
  8
0
 62
7
 10
-1.40088079E+02
 20
2.71213936E+02
  0
VERTEX
  8
0
 62
7
 10
-1.39900495E+02
 20
2.71027307E+02
  0
VERTEX
  8
0
 62
7
 10
-1.39688062E+02
 20
2.70851814E+02
  0
VERTEX
  8
0
 62
7
 10
-1.39452401E+02
 20
2.70688795E+02
  0
VERTEX
  8
0
 62
7
 10
-1.39195308E+02
 20
2.70539494E+02
  0
VERTEX
  8
0
 62
7
 10
-1.38918746E+02
 20
2.70405049E+02
  0
VERTEX
  8
0
 62
7
 10
-1.38624822E+02
 20
2.70286485E+02
  0
SEQEND
  8
0
  0
POLYLINE
  8
0
 62
7
 66
1
  0
VERTEX
  8
0
 62
7
 10
-1.38624822E+02
 20
2.90713485E+02
  0
VERTEX
  8
0
 62
7
 10
-1.38918746E+02
 20
2.90594921E+02
  0
VERTEX
  8
0
 62
7
 10
-1.39195308E+02
 20
2.90460476E+02
  0
VERTEX
  8
0
 62
7
 10
-1.39452401E+02
 20
2.90311175E+02
  0
VERTEX
  8
0
 62
7
 10
-1.39688062E+02
 20
2.90148156E+02
  0
VERTEX
  8
0
 62
7
 10
-1.39900495E+02
 20
2.89972663E+02
  0
VERTEX
  8
0
 62
7
 10
-1.40088079E+02
 20
2.89786034E+02
  0
VERTEX
  8
0
 62
7
 10
-1.40249384E+02
 20
2.89589693E+02
  0
VERTEX
  8
0
 62
7
 10
-1.40383180E+02
 20
2.89385136E+02
  0
VERTEX
  8
0
 62
7
 10
-1.40488446E+02
 20
2.89173925E+02
  0
VERTEX
  8
0
 62
7
 10
-1.40564380E+02
 20
2.88957668E+02
  0
VERTEX
  8
0
 62
7
 10
-1.40610402E+02
 20
2.88738017E+02
  0
VERTEX
  8
0
 62
7
 10
-1.40626162E+02
 20
2.88516646E+02
  0
VERTEX
  8
0
 62
7
 10
-1.40611539E+02
 20
2.88295244E+02
  0
VERTEX
  8
0
 62
7
 10
-1.40566645E+02
 20
2.88075498E+02
  0
VERTEX
  8
0
 62
7
 10
-1.40491822E+02
 20
2.87859085E+02
  0
VERTEX
  8
0
 62
7
 10
-1.40387640E+02
 20
2.87647655E+02
  0
VERTEX
  8
0
 62
7
 10
-1.40254896E+02
 20
2.87442820E+02
  0
VERTEX
  8
0
 62
7
 10
-1.40094599E+02
 20
2.87246144E+02
  0
VERTEX
  8
0
 62
7
 10
-1.39907974E+02
 20
2.87059125E+02
  0
VERTEX
  8
0
 62
7
 10
-1.39696444E+02
 20
2.86883191E+02
  0
VERTEX
  8
0
 62
7
 10
-1.39461621E+02
 20
2.86719682E+02
  0
VERTEX
  8
0
 62
7
 10
-1.39205296E+02
 20
2.86569846E+02
  0
VERTEX
  8
0
 62
7
 10
-1.38929426E+02
 20
2.86434826E+02
  0
VERTEX
  8
0
 62
7
 10
-1.38636112E+02
 20
2.86315651E+02
  0
VERTEX
  8
0
 62
7
 10
-1.38327593E+02
 20
2.86213230E+02
  0
VERTEX
  8
0
 62
7
 10
-1.38006221E+02
 20
2.86128344E+02
  0
VERTEX
  8
0
 62
7
 10
-1.37674446E+02
 20
2.86061641E+02
  0
VERTEX
  8
0
 62
7
 10
-1.37334801E+02
 20
2.86013629E+02
  0
VERTEX
  8
0
 62
7
 10
-1.36989874E+02
 20
2.85984675E+02
  0
VERTEX
  8
0
 62
7
 10
-1.36642296E+02
 20
2.85974999E+02
  0
SEQEND
  8
0
  0
POLYLINE
  8
0
 62
7
 66
1
  0
VERTEX
  8
0
 62
7
 10
-1.36642296E+02
 20
2.85974991E+02
  0
VERTEX
  8
0
 62
7
 10
-1.36999407E+02
 20
2.85952950E+02
  0
VERTEX
  8
0
 62
7
 10
-1.37353644E+02
 20
2.85887006E+02
  0
VERTEX
  8
0
 62
7
 10
-1.37702153E+02
 20
2.85777688E+02
  0
VERTEX
  8
0
 62
7
 10
-1.38042128E+02
 20
2.85625877E+02
  0
VERTEX
  8
0
 62
7
 10
-1.38370833E+02
 20
2.85432795E+02
  0
VERTEX
  8
0
 62
7
 10
-1.38685621E+02
 20
2.85199997E+02
  0
VERTEX
  8
0
 62
7
 10
-1.38983957E+02
 20
2.84929358E+02
  0
VERTEX
  8
0
 62
7
 10
-1.39263439E+02
 20
2.84623056E+02
  0
VERTEX
  8
0
 62
7
 10
-1.39521818E+02
 20
2.84283557E+02
  0
VERTEX
  8
0
 62
7
 10
-1.39757012E+02
 20
2.83913595E+02
  0
VERTEX
  8
0
 62
7
 10
-1.39967129E+02
 20
2.83516149E+02
  0
VERTEX
  8
0
 62
7
 10
-1.40150475E+02
 20
2.83094419E+02
  0
VERTEX
  8
0
 62
7
 10
-1.40305576E+02
 20
2.82651799E+02
  0
VERTEX
  8
0
 62
7
 10
-1.40431183E+02
 20
2.82191855E+02
  0
VERTEX
  8
0
 62
7
 10
-1.40526283E+02
 20
2.81718288E+02
  0
VERTEX
  8
0
 62
7
 10
-1.40590112E+02
 20
2.81234913E+02
  0
VERTEX
  8
0
 62
7
 10
-1.40622156E+02
 20
2.80745620E+02
  0
VERTEX
  8
0
 62
7
 10
-1.40622156E+02
 20
2.80254350E+02
  0
VERTEX
  8
0
 62
7
 10
-1.40590112E+02
 20
2.79765057E+02
  0
VERTEX
  8
0
 62
7
 10
-1.40526283E+02
 20
2.79281682E+02
  0
VERTEX
  8
0
 62
7
 10
-1.40431183E+02
 20
2.78808115E+02
  0
VERTEX
  8
0
 62
7
 10
-1.40305576E+02
 20
2.78348171E+02
  0
VERTEX
  8
0
 62
7
 10
-1.40150475E+02
 20
2.77905551E+02
  0
VERTEX
  8
0
 62
7
 10
-1.39967129E+02
 20
2.77483821E+02
  0
VERTEX
  8
0
 62
7
 10
-1.39757012E+02
 20
2.77086375E+02
  0
VERTEX
  8
0
 62
7
 10
-1.39521818E+02
 20
2.76716413E+02
  0
VERTEX
  8
0
 62
7
 10
-1.39263439E+02
 20
2.76376914E+02
  0
VERTEX
  8
0
 62
7
 10
-1.38983957E+02
 20
2.76070612E+02
  0
VERTEX
  8
0
 62
7
 10
-1.38685621E+02
 20
2.75799973E+02
  0
VERTEX
  8
0
 62
7
 10
-1.38370833E+02
 20
2.75567175E+02
  0
VERTEX
  8
0
 62
7
 10
-1.38042128E+02
 20
2.75374093E+02
  0
VERTEX
  8
0
 62
7
 10
-1.37702153E+02
 20
2.75222282E+02
  0
VERTEX
  8
0
 62
7
 10
-1.37353644E+02
 20
2.75112965E+02
  0
VERTEX
  8
0
 62
7
 10
-1.36999408E+02
 20
2.75047020E+02
  0
VERTEX
  8
0
 62
7
 10
-1.36642296E+02
 20
2.75024979E+02
  0
SEQEND
  8
0
  0
LINE
  8
0
 62
7
 10
1.40999966E+02
 20
2.89500015E+02
 11
1.31999935E+02
 21
2.89500015E+02
  0
LINE
  8
0
 62
2
 10
1.40999966E+02
 20
2.88680008E+02
 11
1.31999935E+02
 21
2.88680008E+02
  0
LINE
  8
0
 62
7
 10
1.40999966E+02
 20
2.71500031E+02
 11
1.31999935E+02
 21
2.71500031E+02
  0
LINE
  8
0
 62
2
 10
1.40999966E+02
 20
2.72320038E+02
 11
1.31999935E+02
 21
2.72320038E+02
  0
LINE
  8
0
 62
7
 10
-1.53061698E+02
 20
2.89499985E+02
 11
-1.44999962E+02
 21
2.89499985E+02
  0
LINE
  8
0
 62
2
 10
-1.53061698E+02
 20
2.88679977E+02
 11
-1.44999962E+02
 21
2.88679977E+02
  0
LINE
  8
0
 62
7
 10
-1.53061698E+02
 20
2.71499985E+02
 11
-1.44999962E+02
 21
2.71499985E+02
  0
LINE
  8
0
 62
2
 10
-1.53061698E+02
 20
2.72319992E+02
 11
-1.44999962E+02
 21
2.72319992E+02
  0
ARC
  8
0
 62
4
 10
1.32503573E+02
 20
2.73750000E+02
 40
1.94963929E+01
 50
3.39743842E+02
 51
2.02561580E+01
  0
ARC
  8
0
 62
4
 10
1.32503573E+02
 20
2.87250000E+02
 40
1.94963929E+01
 50
3.39743842E+02
 51
2.02561580E+01
  0
ARC
  8
0
 62
4
 10
1.60496359E+02
 20
2.87250000E+02
 40
1.94963929E+01
 50
1.59743842E+02
 51
2.00256158E+02
  0
ARC
  8
0
 62
4
 10
1.60496359E+02
 20
2.73750000E+02
 40
1.94963929E+01
 50
1.59743842E+02
 51
2.00256158E+02
  0
LINE
  8
0
 62
4
 10
1.50794194E+02
 20
2.80500000E+02
 11
1.42205737E+02
 21
2.80500000E+02
  0
LINE
  8
0
 62
4
 10
1.51999966E+02
 20
2.67000000E+02
 11
1.40999966E+02
 21
2.67000000E+02
  0
LINE
  8
0
 62
4
 10
1.51999966E+02
 20
2.94000000E+02
 11
1.40999966E+02
 21
2.94000000E+02
  0
LINE
  8
0
 62
4
 10
1.40999966E+02
 20
2.94000000E+02
 11
1.40999966E+02
 21
2.67000000E+02
  0
LINE
  8
0
 62
4
 10
1.51999966E+02
 20
2.94000000E+02
 11
1.51999966E+02
 21
2.67000000E+02
  0
ARC
  8
0
 62
4
 10
-1.72558091E+02
 20
2.73750000E+02
 40
1.94963929E+01
 50
3.39743842E+02
 51
2.02561580E+01
  0
ARC
  8
0
 62
4
 10
-1.72558091E+02
 20
2.87250000E+02
 40
1.94963929E+01
 50
3.39743842E+02
 51
2.02561580E+01
  0
ARC
  8
0
 62
4
 10
-1.44565306E+02
 20
2.87250000E+02
 40
1.94963929E+01
 50
1.59743842E+02
 51
2.00256158E+02
  0
ARC
  8
0
 62
4
 10
-1.44565306E+02
 20
2.73750000E+02
 40
1.94963929E+01
 50
1.59743842E+02
 51
2.00256158E+02
  0
LINE
  8
0
 62
4
 10
-1.54267470E+02
 20
2.80500000E+02
 11
-1.62855927E+02
 21
2.80500000E+02
  0
LINE
  8
0
 62
4
 10
-1.53061698E+02
 20
2.67000000E+02
 11
-1.64061698E+02
 21
2.67000000E+02
  0
LINE
  8
0
 62
4
 10
-1.53061698E+02
 20
2.94000000E+02
 11
-1.64061698E+02
 21
2.94000000E+02
  0
LINE
  8
0
 62
4
 10
-1.64061698E+02
 20
2.94000000E+02
 11
-1.64061698E+02
 21
2.67000000E+02
  0
LINE
  8
0
 62
4
 10
-1.53061698E+02
 20
2.94000000E+02
 11
-1.53061698E+02
 21
2.67000000E+02
  0
LINE
  8
0
  6
CENTER
 62
6
 10
-7.89999924E+01
 20
2.93071310E+02
 11
-3.19999924E+01
 21
2.93071310E+02
  0
LINE
  8
0
 62
6
 10
-2.32679568E+01
 20
2.70928690E+02
 11
-2.67320584E+01
 21
2.64928690E+02
  0
LINE
  8
0
 62
4
 10
-1.50000076E+01
 20
2.69428690E+02
 11
-2.41339822E+01
 21
2.69428690E+02
  0
LINE
  8
0
  6
CENTER
 62
6
 10
1.99999924E+01
 20
2.67928690E+02
 11
-2.70000076E+01
 21
2.67928690E+02
  0
LINE
  8
0
 62
4
 10
-1.50000076E+01
 20
2.66428690E+02
 11
-2.58660330E+01
 21
2.66428690E+02
  0
LINE
  8
0
 62
6
 10
-3.57320432E+01
 20
2.90071310E+02
 11
-3.22679416E+01
 21
2.96071310E+02
  0
LINE
  8
0
 62
4
 10
-4.39999924E+01
 20
2.91571310E+02
 11
-3.48660178E+01
 21
2.91571310E+02
  0
LINE
  8
0
 62
4
 10
-4.39999924E+01
 20
2.94571310E+02
 11
-3.31339670E+01
 21
2.94571310E+02
  0
LINE
  8
0
 62
4
 10
-5.50000766E+00
 20
2.42392203E+02
 11
-5.50000766E+00
 21
2.43232122E+02
  0
LINE
  8
0
 62
4
 10
-1.50000766E+00
 20
2.42392203E+02
 11
-1.50000766E+00
 21
2.43232122E+02
  0
LINE
  8
0
 62
6
 10
-5.00000766E+00
 20
2.41983412E+02
 11
-5.00000766E+00
 21
2.43232122E+02
  0
LINE
  8
0
 62
6
 10
-2.00000766E+00
 20
2.41983412E+02
 11
-2.00000766E+00
 21
2.43232122E+02
  0
LINE
  8
0
  6
CENTER
 62
6
 10
7.49999237E+00
 20
2.64544849E+02
 11
7.49999237E+00
 21
2.69544849E+02
  0
LINE
  8
0
  6
CENTER
 62
6
 10
-3.50000766E+00
 20
2.37834391E+02
 11
-3.50000766E+00
 21
2.48099969E+02
  0
LINE
  8
0
  6
CENTER
 62
6
 10
-1.15000077E+01
 20
2.37834391E+02
 11
-1.15000077E+01
 21
2.48099969E+02
  0
LINE
  8
0
 62
4
 10
1.49999924E+01
 20
2.55858390E+02
 11
1.49999924E+01
 21
2.68868049E+02
  0
LINE
  8
0
 62
4
 10
-1.50000076E+01
 20
2.43232122E+02
 11
-1.50000076E+01
 21
2.70598544E+02
  0
LINE
  8
0
 62
4
 10
-7.62939453E-06
 20
2.43232122E+02
 11
-7.62939453E-06
 21
2.55858390E+02
  0
LINE
  8
0
 62
4
 10
1.64999924E+01
 20
2.66500052E+02
 11
1.64999924E+01
 21
2.69354118E+02
  0
LINE
  8
0
 62
4
 10
-7.62939453E-06
 20
2.43232122E+02
 11
-1.50000076E+01
 21
2.43232122E+02
  0
LINE
  8
0
 62
4
 10
-7.62939453E-06
 20
2.51578636E+02
 11
-1.50000076E+01
 21
2.51578636E+02
  0
LINE
  8
0
 62
4
 10
1.49999924E+01
 20
2.55858390E+02
 11
-1.50000076E+01
 21
2.55858390E+02
  0
LINE
  8
0
 62
4
 10
1.49999924E+01
 20
2.65654273E+02
 11
-1.50000076E+01
 21
2.65654273E+02
  0
LINE
  8
0
 62
4
 10
1.49999924E+01
 20
2.70598544E+02
 11
3.90175995E+00
 21
2.70598544E+02
  0
POLYLINE
  8
0
 62
4
 66
1
  0
VERTEX
  8
0
 62
4
 10
-5.50000766E+00
 20
2.42392203E+02
  0
VERTEX
  8
0
 62
4
 10
-5.49195625E+00
 20
2.42336803E+02
  0
VERTEX
  8
0
 62
4
 10
-5.46786684E+00
 20
2.42281849E+02
  0
VERTEX
  8
0
 62
4
 10
-5.42793338E+00
 20
2.42227783E+02
  0
VERTEX
  8
0
 62
4
 10
-5.37247740E+00
 20
2.42175041E+02
  0
VERTEX
  8
0
 62
4
 10
-5.30194540E+00
 20
2.42124048E+02
  0
VERTEX
  8
0
 62
4
 10
-5.21690525E+00
 20
2.42075214E+02
  0
VERTEX
  8
0
 62
4
 10
-5.11804165E+00
 20
2.42028932E+02
  0
VERTEX
  8
0
 62
4
 10
-5.00615060E+00
 20
2.41985575E+02
  0
VERTEX
  8
0
 62
4
 10
-4.88213296E+00
 20
2.41945491E+02
  0
VERTEX
  8
0
 62
4
 10
-4.74698727E+00
 20
2.41909005E+02
  0
VERTEX
  8
0
 62
4
 10
-4.60180163E+00
 20
2.41876408E+02
  0
VERTEX
  8
0
 62
4
 10
-4.44774499E+00
 20
2.41847965E+02
  0
VERTEX
  8
0
 62
4
 10
-4.28605773E+00
 20
2.41823904E+02
  0
VERTEX
  8
0
 62
4
 10
-4.11804166E+00
 20
2.41804418E+02
  0
VERTEX
  8
0
 62
4
 10
-3.94504954E+00
 20
2.41789664E+02
  0
VERTEX
  8
0
 62
4
 10
-3.76847420E+00
 20
2.41779762E+02
  0
VERTEX
  8
0
 62
4
 10
-3.58973733E+00
 20
2.41774791E+02
  0
VERTEX
  8
0
 62
4
 10
-3.41027801E+00
 20
2.41774791E+02
  0
VERTEX
  8
0
 62
4
 10
-3.23154114E+00
 20
2.41779762E+02
  0
VERTEX
  8
0
 62
4
 10
-3.05496580E+00
 20
2.41789664E+02
  0
VERTEX
  8
0
 62
4
 10
-2.88197368E+00
 20
2.41804418E+02
  0
VERTEX
  8
0
 62
4
 10
-2.71395761E+00
 20
2.41823904E+02
  0
VERTEX
  8
0
 62
4
 10
-2.55227035E+00
 20
2.41847965E+02
  0
VERTEX
  8
0
 62
4
 10
-2.39821371E+00
 20
2.41876408E+02
  0
VERTEX
  8
0
 62
4
 10
-2.25302807E+00
 20
2.41909005E+02
  0
VERTEX
  8
0
 62
4
 10
-2.11788237E+00
 20
2.41945491E+02
  0
VERTEX
  8
0
 62
4
 10
-1.99386474E+00
 20
2.41985575E+02
  0
VERTEX
  8
0
 62
4
 10
-1.88197368E+00
 20
2.42028932E+02
  0
VERTEX
  8
0
 62
4
 10
-1.78311008E+00
 20
2.42075214E+02
  0
VERTEX
  8
0
 62
4
 10
-1.69806993E+00
 20
2.42124048E+02
  0
VERTEX
  8
0
 62
4
 10
-1.62753792E+00
 20
2.42175041E+02
  0
VERTEX
  8
0
 62
4
 10
-1.57208194E+00
 20
2.42227783E+02
  0
VERTEX
  8
0
 62
4
 10
-1.53214849E+00
 20
2.42281849E+02
  0
VERTEX
  8
0
 62
4
 10
-1.50805907E+00
 20
2.42336803E+02
  0
VERTEX
  8
0
 62
4
 10
-1.50000766E+00
 20
2.42392203E+02
  0
SEQEND
  8
0
  0
LINE
  8
0
 62
4
 10
-1.35000077E+01
 20
2.42392203E+02
 11
-1.35000077E+01
 21
2.43232122E+02
  0
LINE
  8
0
 62
6
 10
-1.30000077E+01
 20
2.41983412E+02
 11
-1.30000077E+01
 21
2.43232122E+02
  0
POLYLINE
  8
0
 62
4
 66
1
  0
VERTEX
  8
0
 62
4
 10
-1.35000077E+01
 20
2.42392203E+02
  0
VERTEX
  8
0
 62
4
 10
-1.34919563E+01
 20
2.42336803E+02
  0
VERTEX
  8
0
 62
4
 10
-1.34678669E+01
 20
2.42281849E+02
  0
VERTEX
  8
0
 62
4
 10
-1.34279334E+01
 20
2.42227783E+02
  0
VERTEX
  8
0
 62
4
 10
-1.33724774E+01
 20
2.42175041E+02
  0
VERTEX
  8
0
 62
4
 10
-1.33019454E+01
 20
2.42124048E+02
  0
VERTEX
  8
0
 62
4
 10
-1.32169053E+01
 20
2.42075214E+02
  0
VERTEX
  8
0
 62
4
 10
-1.31180417E+01
 20
2.42028932E+02
  0
VERTEX
  8
0
 62
4
 10
-1.30061506E+01
 20
2.41985575E+02
  0
VERTEX
  8
0
 62
4
 10
-1.28821330E+01
 20
2.41945491E+02
  0
VERTEX
  8
0
 62
4
 10
-1.27469873E+01
 20
2.41909005E+02
  0
VERTEX
  8
0
 62
4
 10
-1.26018017E+01
 20
2.41876408E+02
  0
VERTEX
  8
0
 62
4
 10
-1.24477450E+01
 20
2.41847965E+02
  0
VERTEX
  8
0
 62
4
 10
-1.22860578E+01
 20
2.41823904E+02
  0
VERTEX
  8
0
 62
4
 10
-1.21180417E+01
 20
2.41804418E+02
  0
VERTEX
  8
0
 62
4
 10
-1.19450496E+01
 20
2.41789664E+02
  0
VERTEX
  8
0
 62
4
 10
-1.17684742E+01
 20
2.41779762E+02
  0
VERTEX
  8
0
 62
4
 10
-1.15897374E+01
 20
2.41774791E+02
  0
VERTEX
  8
0
 62
4
 10
-1.14102781E+01
 20
2.41774791E+02
  0
VERTEX
  8
0
 62
4
 10
-1.12315412E+01
 20
2.41779762E+02
  0
VERTEX
  8
0
 62
4
 10
-1.10549658E+01
 20
2.41789664E+02
  0
VERTEX
  8
0
 62
4
 10
-1.08819737E+01
 20
2.41804418E+02
  0
VERTEX
  8
0
 62
4
 10
-1.07139576E+01
 20
2.41823904E+02
  0
VERTEX
  8
0
 62
4
 10
-1.05522704E+01
 20
2.41847965E+02
  0
VERTEX
  8
0
 62
4
 10
-1.03982137E+01
 20
2.41876408E+02
  0
VERTEX
  8
0
 62
4
 10
-1.02530281E+01
 20
2.41909005E+02
  0
VERTEX
  8
0
 62
4
 10
-1.01178824E+01
 20
2.41945491E+02
  0
VERTEX
  8
0
 62
4
 10
-9.99386478E+00
 20
2.41985575E+02
  0
VERTEX
  8
0
 62
4
 10
-9.88197372E+00
 20
2.42028932E+02
  0
VERTEX
  8
0
 62
4
 10
-9.78311012E+00
 20
2.42075214E+02
  0
VERTEX
  8
0
 62
4
 10
-9.69806997E+00
 20
2.42124048E+02
  0
VERTEX
  8
0
 62
4
 10
-9.62753796E+00
 20
2.42175041E+02
  0
VERTEX
  8
0
 62
4
 10
-9.57208198E+00
 20
2.42227783E+02
  0
VERTEX
  8
0
 62
4
 10
-9.53214853E+00
 20
2.42281849E+02
  0
VERTEX
  8
0
 62
4
 10
-9.50805911E+00
 20
2.42336803E+02
  0
VERTEX
  8
0
 62
4
 10
-9.50000770E+00
 20
2.42392203E+02
  0
SEQEND
  8
0
  0
LINE
  8
0
 62
4
 10
-9.50000766E+00
 20
2.42392203E+02
 11
-9.50000766E+00
 21
2.43232122E+02
  0
LINE
  8
0
 62
6
 10
-1.00000077E+01
 20
2.41983412E+02
 11
-1.00000077E+01
 21
2.43232122E+02
  0
LINE
  8
0
 62
4
 10
1.49999924E+01
 20
2.65408543E+02
 11
1.64999924E+01
 21
2.66500052E+02
  0
LINE
  8
0
 62
4
 10
1.64999924E+01
 20
2.68654195E+02
 11
1.49999924E+01
 21
2.69212769E+02
  0
LINE
  8
0
 62
4
 10
1.49999924E+01
 20
2.70448837E+02
 11
1.64999924E+01
 21
2.69354118E+02
  0
LINE
  8
0
 62
4
 10
1.49999924E+01
 20
2.68868049E+02
 11
4.14999239E+00
 21
2.68868049E+02
  0
LINE
  8
0
 62
4
 10
-1.05656057E+01
 20
2.70289527E+02
 11
-1.50000076E+01
 21
2.70289527E+02
  0
LINE
  8
0
 62
4
 10
1.49999924E+01
 20
2.69212769E+02
 11
4.14999239E+00
 21
2.69212769E+02
  0
LINE
  8
0
 62
4
 10
1.49999924E+01
 20
2.70448837E+02
 11
4.04460764E+00
 21
2.70448837E+02
  0
LINE
  8
0
 62
4
 10
1.49999924E+01
 20
2.68868049E+02
 11
1.49999924E+01
 21
2.70448837E+02
  0
LINE
  8
0
 62
4
 10
1.49999924E+01
 20
2.70448837E+02
 11
1.49999924E+01
 21
2.70598544E+02
  0
ARC
  8
0
 62
4
 10
-5.10000731E+00
 20
2.69543217E+02
 40
1.00000000E+00
 50
3.60000000E+02
 51
7.71724899E+01
  0
ARC
  8
0
 62
4
 10
-9.90000795E+00
 20
2.69543217E+02
 40
1.00000000E+00
 50
1.02827510E+02
 51
1.80000000E+02
  0
ARC
  8
0
 62
4
 10
-7.50000763E+00
 20
2.59003003E+02
 40
1.18100000E+01
 50
7.71724899E+01
 51
1.02827510E+02
  0
LINE
  8
0
 62
4
 10
4.14999239E+00
 20
2.70161669E+02
 11
4.14999239E+00
 21
2.68487810E+02
  0
LINE
  8
0
 62
4
 10
-4.15000761E+00
 20
2.70161669E+02
 11
-4.15000761E+00
 21
2.69855468E+02
  0
POLYLINE
  8
0
 62
4
 66
1
  0
VERTEX
  8
0
 62
4
 10
-3.70000762E+00
 20
2.67907014E+02
  0
VERTEX
  8
0
 62
4
 10
-3.51819264E+00
 20
2.67807630E+02
  0
VERTEX
  8
0
 62
4
 10
-3.30849539E+00
 20
2.67713637E+02
  0
VERTEX
  8
0
 62
4
 10
-3.07257775E+00
 20
2.67625779E+02
  0
VERTEX
  8
0
 62
4
 10
-2.81230943E+00
 20
2.67544753E+02
  0
VERTEX
  8
0
 62
4
 10
-2.52975309E+00
 20
2.67471201E+02
  0
VERTEX
  8
0
 62
4
 10
-2.22714804E+00
 20
2.67405706E+02
  0
VERTEX
  8
0
 62
4
 10
-1.90689249E+00
 20
2.67348786E+02
  0
VERTEX
  8
0
 62
4
 10
-1.57152452E+00
 20
2.67300894E+02
  0
VERTEX
  8
0
 62
4
 10
-1.22370199E+00
 20
2.67262408E+02
  0
VERTEX
  8
0
 62
4
 10
-8.66181454E-01
 20
2.67233633E+02
  0
VERTEX
  8
0
 62
4
 10
-5.01796328E-01
 20
2.67214798E+02
  0
VERTEX
  8
0
 62
4
 10
-1.33434432E-01
 20
2.67206052E+02
  0
VERTEX
  8
0
 62
4
 10
2.35984895E-01
 20
2.67207465E+02
  0
VERTEX
  8
0
 62
4
 10
6.03533938E-01
 20
2.67219024E+02
  0
VERTEX
  8
0
 62
4
 10
9.66299802E-01
 20
2.67240638E+02
  0
VERTEX
  8
0
 62
4
 10
1.32140750E+00
 20
2.67272137E+02
  0
VERTEX
  8
0
 62
4
 10
1.66604273E+00
 20
2.67313270E+02
  0
VERTEX
  8
0
 62
4
 10
1.99747421E+00
 20
2.67363711E+02
  0
VERTEX
  8
0
 62
4
 10
2.31307527E+00
 20
2.67423062E+02
  0
VERTEX
  8
0
 62
4
 10
2.61034472E+00
 20
2.67490850E+02
  0
VERTEX
  8
0
 62
4
 10
2.88692664E+00
 20
2.67566540E+02
  0
VERTEX
  8
0
 62
4
 10
3.14062906E+00
 20
2.67649531E+02
  0
VERTEX
  8
0
 62
4
 10
3.36944136E+00
 20
2.67739165E+02
  0
VERTEX
  8
0
 62
4
 10
3.57155014E+00
 20
2.67834732E+02
  0
VERTEX
  8
0
 62
4
 10
3.74535366E+00
 20
2.67935476E+02
  0
VERTEX
  8
0
 62
4
 10
3.88947450E+00
 20
2.68040596E+02
  0
VERTEX
  8
0
 62
4
 10
4.00277046E+00
 20
2.68149261E+02
  0
VERTEX
  8
0
 62
4
 10
4.08434366E+00
 20
2.68260609E+02
  0
VERTEX
  8
0
 62
4
 10
4.13354762E+00
 20
2.68373758E+02
  0
VERTEX
  8
0
 62
4
 10
4.14999238E+00
 20
2.68487810E+02
  0
SEQEND
  8
0
  0
POLYLINE
  8
0
 62
4
 66
1
  0
VERTEX
  8
0
 62
4
 10
4.14999238E+00
 20
2.70161669E+02
  0
VERTEX
  8
0
 62
4
 10
4.13420038E+00
 20
2.70273439E+02
  0
VERTEX
  8
0
 62
4
 10
4.08694456E+00
 20
2.70384359E+02
  0
VERTEX
  8
0
 62
4
 10
4.00858456E+00
 20
2.70493584E+02
  0
VERTEX
  8
0
 62
4
 10
3.89971676E+00
 20
2.70600283E+02
  0
VERTEX
  8
0
 62
4
 10
3.76116970E+00
 20
2.70703643E+02
  0
VERTEX
  8
0
 62
4
 10
3.59399780E+00
 20
2.70802879E+02
  0
VERTEX
  8
0
 62
4
 10
3.39947336E+00
 20
2.70897235E+02
  0
VERTEX
  8
0
 62
4
 10
3.17907682E+00
 20
2.70985993E+02
  0
VERTEX
  8
0
 62
4
 10
2.93448552E+00
 20
2.71068477E+02
  0
VERTEX
  8
0
 62
4
 10
2.66756096E+00
 20
2.71144060E+02
  0
VERTEX
  8
0
 62
4
 10
2.38033459E+00
 20
2.71212166E+02
  0
VERTEX
  8
0
 62
4
 10
2.07499237E+00
 20
2.71272278E+02
  0
VERTEX
  8
0
 62
4
 10
1.75385816E+00
 20
2.71323937E+02
  0
VERTEX
  8
0
 62
4
 10
1.41937597E+00
 20
2.71366750E+02
  0
VERTEX
  8
0
 62
4
 10
1.07409141E+00
 20
2.71400392E+02
  0
VERTEX
  8
0
 62
4
 10
7.20632307E-01
 20
2.71424607E+02
  0
VERTEX
  8
0
 62
4
 10
3.61688701E-01
 20
2.71439210E+02
  0
VERTEX
  8
0
 62
4
 10
-7.63232071E-06
 20
2.71444090E+02
  0
VERTEX
  8
0
 62
4
 10
-3.61703966E-01
 20
2.71439210E+02
  0
VERTEX
  8
0
 62
4
 10
-7.20647572E-01
 20
2.71424607E+02
  0
VERTEX
  8
0
 62
4
 10
-1.07410667E+00
 20
2.71400392E+02
  0
VERTEX
  8
0
 62
4
 10
-1.41939123E+00
 20
2.71366750E+02
  0
VERTEX
  8
0
 62
4
 10
-1.75387342E+00
 20
2.71323937E+02
  0
VERTEX
  8
0
 62
4
 10
-2.07500764E+00
 20
2.71272278E+02
  0
VERTEX
  8
0
 62
4
 10
-2.38034985E+00
 20
2.71212166E+02
  0
VERTEX
  8
0
 62
4
 10
-2.66757622E+00
 20
2.71144060E+02
  0
VERTEX
  8
0
 62
4
 10
-2.93450078E+00
 20
2.71068477E+02
  0
VERTEX
  8
0
 62
4
 10
-3.17909208E+00
 20
2.70985993E+02
  0
VERTEX
  8
0
 62
4
 10
-3.39948862E+00
 20
2.70897235E+02
  0
VERTEX
  8
0
 62
4
 10
-3.59401307E+00
 20
2.70802879E+02
  0
VERTEX
  8
0
 62
4
 10
-3.76118496E+00
 20
2.70703643E+02
  0
VERTEX
  8
0
 62
4
 10
-3.89973202E+00
 20
2.70600283E+02
  0
VERTEX
  8
0
 62
4
 10
-4.00859982E+00
 20
2.70493584E+02
  0
VERTEX
  8
0
 62
4
 10
-4.08695982E+00
 20
2.70384359E+02
  0
VERTEX
  8
0
 62
4
 10
-4.13421564E+00
 20
2.70273439E+02
  0
VERTEX
  8
0
 62
4
 10
-4.15000764E+00
 20
2.70161669E+02
  0
VERTEX
  8
0
 62
4
 10
-4.13421564E+00
 20
2.70049899E+02
  0
VERTEX
  8
0
 62
4
 10
-4.08695981E+00
 20
2.69938979E+02
  0
VERTEX
  8
0
 62
4
 10
-4.00859982E+00
 20
2.69829754E+02
  0
VERTEX
  8
0
 62
4
 10
-3.89973201E+00
 20
2.69723055E+02
  0
VERTEX
  8
0
 62
4
 10
-3.76118495E+00
 20
2.69619695E+02
  0
VERTEX
  8
0
 62
4
 10
-3.59401306E+00
 20
2.69520459E+02
  0
VERTEX
  8
0
 62
4
 10
-3.39948862E+00
 20
2.69426103E+02
  0
VERTEX
  8
0
 62
4
 10
-3.17909207E+00
 20
2.69337345E+02
  0
VERTEX
  8
0
 62
4
 10
-2.93450077E+00
 20
2.69254861E+02
  0
VERTEX
  8
0
 62
4
 10
-2.66757621E+00
 20
2.69179278E+02
  0
VERTEX
  8
0
 62
4
 10
-2.38034984E+00
 20
2.69111172E+02
  0
VERTEX
  8
0
 62
4
 10
-2.07500763E+00
 20
2.69051060E+02
  0
VERTEX
  8
0
 62
4
 10
-1.75387341E+00
 20
2.68999401E+02
  0
VERTEX
  8
0
 62
4
 10
-1.41939122E+00
 20
2.68956588E+02
  0
VERTEX
  8
0
 62
4
 10
-1.07410666E+00
 20
2.68922946E+02
  0
VERTEX
  8
0
 62
4
 10
-7.20647560E-01
 20
2.68898731E+02
  0
VERTEX
  8
0
 62
4
 10
-3.61703954E-01
 20
2.68884128E+02
  0
VERTEX
  8
0
 62
4
 10
-7.62061599E-06
 20
2.68879249E+02
  0
VERTEX
  8
0
 62
4
 10
3.61688713E-01
 20
2.68884128E+02
  0
VERTEX
  8
0
 62
4
 10
7.20632319E-01
 20
2.68898731E+02
  0
VERTEX
  8
0
 62
4
 10
1.07409142E+00
 20
2.68922946E+02
  0
VERTEX
  8
0
 62
4
 10
1.41937598E+00
 20
2.68956588E+02
  0
VERTEX
  8
0
 62
4
 10
1.75385817E+00
 20
2.68999401E+02
  0
VERTEX
  8
0
 62
4
 10
2.07499238E+00
 20
2.69051060E+02
  0
VERTEX
  8
0
 62
4
 10
2.38033460E+00
 20
2.69111172E+02
  0
VERTEX
  8
0
 62
4
 10
2.66756096E+00
 20
2.69179278E+02
  0
VERTEX
  8
0
 62
4
 10
2.93448553E+00
 20
2.69254861E+02
  0
VERTEX
  8
0
 62
4
 10
3.17907682E+00
 20
2.69337345E+02
  0
VERTEX
  8
0
 62
4
 10
3.39947337E+00
 20
2.69426103E+02
  0
VERTEX
  8
0
 62
4
 10
3.59399781E+00
 20
2.69520459E+02
  0
VERTEX
  8
0
 62
4
 10
3.76116970E+00
 20
2.69619695E+02
  0
VERTEX
  8
0
 62
4
 10
3.89971676E+00
 20
2.69723055E+02
  0
VERTEX
  8
0
 62
4
 10
4.00858456E+00
 20
2.69829754E+02
  0
VERTEX
  8
0
 62
4
 10
4.08694456E+00
 20
2.69938979E+02
  0
VERTEX
  8
0
 62
4
 10
4.13420038E+00
 20
2.70049899E+02
  0
VERTEX
  8
0
 62
4
 10
4.14999238E+00
 20
2.70161669E+02
  0
SEQEND
  8
0
  0
LINE
  8
0
 62
4
 10
3.99999237E+00
 20
2.68146140E+02
 11
3.99999237E+00
 21
2.68126408E+02
  0
POLYLINE
  8
0
 62
4
 66
1
  0
VERTEX
  8
0
 62
4
 10
-3.70000762E+00
 20
2.67656743E+02
  0
VERTEX
  8
0
 62
4
 10
-3.55069965E+00
 20
2.67557230E+02
  0
VERTEX
  8
0
 62
4
 10
-3.37343097E+00
 20
2.67462200E+02
  0
VERTEX
  8
0
 62
4
 10
-3.16959752E+00
 20
2.67372400E+02
  0
VERTEX
  8
0
 62
4
 10
-2.94080443E+00
 20
2.67288538E+02
  0
VERTEX
  8
0
 62
4
 10
-2.68885338E+00
 20
2.67211274E+02
  0
VERTEX
  8
0
 62
4
 10
-2.41572842E+00
 20
2.67141216E+02
  0
VERTEX
  8
0
 62
4
 10
-2.12358033E+00
 20
2.67078916E+02
  0
VERTEX
  8
0
 62
4
 10
-1.81470970E+00
 20
2.67024865E+02
  0
VERTEX
  8
0
 62
4
 10
-1.49154879E+00
 20
2.66979488E+02
  0
VERTEX
  8
0
 62
4
 10
-1.15664242E+00
 20
2.66943143E+02
  0
VERTEX
  8
0
 62
4
 10
-8.12627860E-01
 20
2.66916116E+02
  0
VERTEX
  8
0
 62
4
 10
-4.62214146E-01
 20
2.66898620E+02
  0
VERTEX
  8
0
 62
4
 10
-1.08160685E-01
 20
2.66890792E+02
  0
VERTEX
  8
0
 62
4
 10
2.46744452E-01
 20
2.66892694E+02
  0
VERTEX
  8
0
 62
4
 10
5.99706485E-01
 20
2.66904311E+02
  0
VERTEX
  8
0
 62
4
 10
9.47945936E-01
 20
2.66925553E+02
  0
VERTEX
  8
0
 62
4
 10
1.28872052E+00
 20
2.66956250E+02
  0
VERTEX
  8
0
 62
4
 10
1.61934672E+00
 20
2.66996162E+02
  0
VERTEX
  8
0
 62
4
 10
1.93722096E+00
 20
2.67044975E+02
  0
VERTEX
  8
0
 62
4
 10
2.23984006E+00
 20
2.67102303E+02
  0
VERTEX
  8
0
 62
4
 10
2.52482099E+00
 20
2.67167696E+02
  0
VERTEX
  8
0
 62
4
 10
2.78991959E+00
 20
2.67240639E+02
  0
VERTEX
  8
0
 62
4
 10
3.03304830E+00
 20
2.67320556E+02
  0
VERTEX
  8
0
 62
4
 10
3.25229253E+00
 20
2.67406820E+02
  0
VERTEX
  8
0
 62
4
 10
3.44592580E+00
 20
2.67498750E+02
  0
VERTEX
  8
0
 62
4
 10
3.61242331E+00
 20
2.67595623E+02
  0
VERTEX
  8
0
 62
4
 10
3.75047392E+00
 20
2.67696676E+02
  0
VERTEX
  8
0
 62
4
 10
3.85899054E+00
 20
2.67801112E+02
  0
VERTEX
  8
0
 62
4
 10
3.93711862E+00
 20
2.67908111E+02
  0
VERTEX
  8
0
 62
4
 10
3.98424293E+00
 20
2.68016828E+02
  0
VERTEX
  8
0
 62
4
 10
3.99999237E+00
 20
2.68126408E+02
  0
SEQEND
  8
0
  0
ARC
  8
0
 62
4
 10
4.18761442E+00
 20
2.57173172E+02
 40
1.43299558E+01
 50
9.97219440E+01
 51
1.14556488E+02
  0
ARC
  8
0
 62
4
 10
-4.18763115E+00
 20
2.57173167E+02
 40
1.43299613E+01
 50
6.54435144E+01
 51
8.02780535E+01
  0
LINE
  8
0
 62
4
 10
-3.70000763E+00
 20
2.67995906E+02
 11
-3.70000763E+00
 21
2.67044849E+02
  0
POLYLINE
  8
0
 62
4
 66
1
  0
VERTEX
  8
0
 62
4
 10
-1.13000076E+01
 20
2.67044849E+02
  0
VERTEX
  8
0
 62
4
 10
-1.12847099E+01
 20
2.66939589E+02
  0
VERTEX
  8
0
 62
4
 10
-1.12389401E+01
 20
2.66835176E+02
  0
VERTEX
  8
0
 62
4
 10
-1.11630665E+01
 20
2.66732451E+02
  0
VERTEX
  8
0
 62
4
 10
-1.10577001E+01
 20
2.66632242E+02
  0
VERTEX
  8
0
 62
4
 10
-1.09236893E+01
 20
2.66535355E+02
  0
VERTEX
  8
0
 62
4
 10
-1.07621131E+01
 20
2.66442570E+02
  0
VERTEX
  8
0
 62
4
 10
-1.05742722E+01
 20
2.66354634E+02
  0
VERTEX
  8
0
 62
4
 10
-1.03616792E+01
 20
2.66272255E+02
  0
VERTEX
  8
0
 62
4
 10
-1.01260457E+01
 20
2.66196097E+02
  0
VERTEX
  8
0
 62
4
 10
-9.86926889E+00
 20
2.66126772E+02
  0
VERTEX
  8
0
 62
4
 10
-9.59341617E+00
 20
2.66064839E+02
  0
VERTEX
  8
0
 62
4
 10
-9.30070856E+00
 20
2.66010797E+02
  0
VERTEX
  8
0
 62
4
 10
-8.99350277E+00
 20
2.65965080E+02
  0
VERTEX
  8
0
 62
4
 10
-8.67427223E+00
 20
2.65928057E+02
  0
VERTEX
  8
0
 62
4
 10
-8.34558720E+00
 20
2.65900026E+02
  0
VERTEX
  8
0
 62
4
 10
-8.01009406E+00
 20
2.65881212E+02
  0
VERTEX
  8
0
 62
4
 10
-7.67049401E+00
 20
2.65871767E+02
  0
VERTEX
  8
0
 62
4
 10
-7.32952130E+00
 20
2.65871767E+02
  0
VERTEX
  8
0
 62
4
 10
-6.98992124E+00
 20
2.65881212E+02
  0
VERTEX
  8
0
 62
4
 10
-6.65442810E+00
 20
2.65900026E+02
  0
VERTEX
  8
0
 62
4
 10
-6.32574307E+00
 20
2.65928057E+02
  0
VERTEX
  8
0
 62
4
 10
-6.00651253E+00
 20
2.65965080E+02
  0
VERTEX
  8
0
 62
4
 10
-5.69930673E+00
 20
2.66010797E+02
  0
VERTEX
  8
0
 62
4
 10
-5.40659912E+00
 20
2.66064839E+02
  0
VERTEX
  8
0
 62
4
 10
-5.13074640E+00
 20
2.66126772E+02
  0
VERTEX
  8
0
 62
4
 10
-4.87396958E+00
 20
2.66196097E+02
  0
VERTEX
  8
0
 62
4
 10
-4.63833608E+00
 20
2.66272255E+02
  0
VERTEX
  8
0
 62
4
 10
-4.42574307E+00
 20
2.66354634E+02
  0
VERTEX
  8
0
 62
4
 10
-4.23790223E+00
 20
2.66442570E+02
  0
VERTEX
  8
0
 62
4
 10
-4.07632594E+00
 20
2.66535355E+02
  0
VERTEX
  8
0
 62
4
 10
-3.94231513E+00
 20
2.66632242E+02
  0
VERTEX
  8
0
 62
4
 10
-3.83694877E+00
 20
2.66732451E+02
  0
VERTEX
  8
0
 62
4
 10
-3.76107520E+00
 20
2.66835176E+02
  0
VERTEX
  8
0
 62
4
 10
-3.71530532E+00
 20
2.66939589E+02
  0
VERTEX
  8
0
 62
4
 10
-3.70000763E+00
 20
2.67044849E+02
  0
SEQEND
  8
0
  0
POLYLINE
  8
0
 62
4
 66
1
  0
VERTEX
  8
0
 62
4
 10
-1.09000076E+01
 20
2.68520325E+02
  0
VERTEX
  8
0
 62
4
 10
-1.10365893E+01
 20
2.68425494E+02
  0
VERTEX
  8
0
 62
4
 10
-1.11455372E+01
 20
2.68327306E+02
  0
VERTEX
  8
0
 62
4
 10
-1.12259999E+01
 20
2.68226529E+02
  0
VERTEX
  8
0
 62
4
 10
-1.12773489E+01
 20
2.68123950E+02
  0
VERTEX
  8
0
 62
4
 10
-1.12991829E+01
 20
2.68020370E+02
  0
VERTEX
  8
0
 62
4
 10
-1.12913312E+01
 20
2.67916599E+02
  0
VERTEX
  8
0
 62
4
 10
-1.12538553E+01
 20
2.67813448E+02
  0
VERTEX
  8
0
 62
4
 10
-1.11870479E+01
 20
2.67711722E+02
  0
VERTEX
  8
0
 62
4
 10
-1.10914310E+01
 20
2.67612217E+02
  0
VERTEX
  8
0
 62
4
 10
-1.09677519E+01
 20
2.67515710E+02
  0
VERTEX
  8
0
 62
4
 10
-1.08169768E+01
 20
2.67422955E+02
  0
VERTEX
  8
0
 62
4
 10
-1.06402839E+01
 20
2.67334677E+02
  0
VERTEX
  8
0
 62
4
 10
-1.04390538E+01
 20
2.67251566E+02
  0
VERTEX
  8
0
 62
4
 10
-1.02148589E+01
 20
2.67174270E+02
  0
VERTEX
  8
0
 62
4
 10
-9.96945091E+00
 20
2.67103395E+02
  0
VERTEX
  8
0
 62
4
 10
-9.70474745E+00
 20
2.67039494E+02
  0
VERTEX
  8
0
 62
4
 10
-9.42281681E+00
 20
2.66983065E+02
  0
VERTEX
  8
0
 62
4
 10
-9.12586191E+00
 20
2.66934551E+02
  0
VERTEX
  8
0
 62
4
 10
-8.81620307E+00
 20
2.66894330E+02
  0
VERTEX
  8
0
 62
4
 10
-8.49625986E+00
 20
2.66862716E+02
  0
VERTEX
  8
0
 62
4
 10
-8.16853224E+00
 20
2.66839956E+02
  0
VERTEX
  8
0
 62
4
 10
-7.83558096E+00
 20
2.66826229E+02
  0
VERTEX
  8
0
 62
4
 10
-7.50000761E+00
 20
2.66821641E+02
  0
VERTEX
  8
0
 62
4
 10
-7.16443426E+00
 20
2.66826229E+02
  0
VERTEX
  8
0
 62
4
 10
-6.83148299E+00
 20
2.66839956E+02
  0
VERTEX
  8
0
 62
4
 10
-6.50375536E+00
 20
2.66862716E+02
  0
VERTEX
  8
0
 62
4
 10
-6.18381216E+00
 20
2.66894330E+02
  0
VERTEX
  8
0
 62
4
 10
-5.87415332E+00
 20
2.66934551E+02
  0
VERTEX
  8
0
 62
4
 10
-5.57719842E+00
 20
2.66983065E+02
  0
VERTEX
  8
0
 62
4
 10
-5.29526778E+00
 20
2.67039494E+02
  0
VERTEX
  8
0
 62
4
 10
-5.03056432E+00
 20
2.67103395E+02
  0
VERTEX
  8
0
 62
4
 10
-4.78515636E+00
 20
2.67174270E+02
  0
VERTEX
  8
0
 62
4
 10
-4.56096145E+00
 20
2.67251566E+02
  0
VERTEX
  8
0
 62
4
 10
-4.35973137E+00
 20
2.67334677E+02
  0
VERTEX
  8
0
 62
4
 10
-4.18303847E+00
 20
2.67422955E+02
  0
VERTEX
  8
0
 62
4
 10
-4.03226339E+00
 20
2.67515710E+02
  0
VERTEX
  8
0
 62
4
 10
-3.90858424E+00
 20
2.67612217E+02
  0
VERTEX
  8
0
 62
4
 10
-3.81296740E+00
 20
2.67711722E+02
  0
VERTEX
  8
0
 62
4
 10
-3.74616000E+00
 20
2.67813448E+02
  0
VERTEX
  8
0
 62
4
 10
-3.70868405E+00
 20
2.67916599E+02
  0
VERTEX
  8
0
 62
4
 10
-3.70083238E+00
 20
2.68020370E+02
  0
VERTEX
  8
0
 62
4
 10
-3.72266634E+00
 20
2.68123950E+02
  0
VERTEX
  8
0
 62
4
 10
-3.77401532E+00
 20
2.68226529E+02
  0
VERTEX
  8
0
 62
4
 10
-3.85447810E+00
 20
2.68327306E+02
  0
VERTEX
  8
0
 62
4
 10
-3.96342597E+00
 20
2.68425494E+02
  0
VERTEX
  8
0
 62
4
 10
-4.10000764E+00
 20
2.68520325E+02
  0
SEQEND
  8
0
  0
LINE
  8
0
 62
4
 10
-1.13000076E+01
 20
2.67995906E+02
 11
-1.13000076E+01
 21
2.67044849E+02
  0
LINE
  8
0
 62
4
 10
-4.10000763E+00
 20
2.69543217E+02
 11
-4.10000763E+00
 21
2.67995906E+02
  0
POLYLINE
  8
0
 62
4
 66
1
  0
VERTEX
  8
0
 62
4
 10
-1.09000076E+01
 20
2.67995906E+02
  0
VERTEX
  8
0
 62
4
 10
-1.08863202E+01
 20
2.67901726E+02
  0
VERTEX
  8
0
 62
4
 10
-1.08453682E+01
 20
2.67808304E+02
  0
VERTEX
  8
0
 62
4
 10
-1.07774814E+01
 20
2.67716392E+02
  0
VERTEX
  8
0
 62
4
 10
-1.06832062E+01
 20
2.67626731E+02
  0
VERTEX
  8
0
 62
4
 10
-1.05633018E+01
 20
2.67540043E+02
  0
VERTEX
  8
0
 62
4
 10
-1.04187335E+01
 20
2.67457024E+02
  0
VERTEX
  8
0
 62
4
 10
-1.02506654E+01
 20
2.67378345E+02
  0
VERTEX
  8
0
 62
4
 10
-1.00604506E+01
 20
2.67304638E+02
  0
VERTEX
  8
0
 62
4
 10
-9.84962065E+00
 20
2.67236496E+02
  0
VERTEX
  8
0
 62
4
 10
-9.61987297E+00
 20
2.67174469E+02
  0
VERTEX
  8
0
 62
4
 10
-9.37305738E+00
 20
2.67119055E+02
  0
VERTEX
  8
0
 62
4
 10
-9.11116110E+00
 20
2.67070701E+02
  0
VERTEX
  8
0
 62
4
 10
-8.83629275E+00
 20
2.67029797E+02
  0
VERTEX
  8
0
 62
4
 10
-8.55066543E+00
 20
2.66996671E+02
  0
VERTEX
  8
0
 62
4
 10
-8.25657882E+00
 20
2.66971590E+02
  0
VERTEX
  8
0
 62
4
 10
-7.95640075E+00
 20
2.66954757E+02
  0
VERTEX
  8
0
 62
4
 10
-7.65254807E+00
 20
2.66946306E+02
  0
VERTEX
  8
0
 62
4
 10
-7.34746723E+00
 20
2.66946306E+02
  0
VERTEX
  8
0
 62
4
 10
-7.04361454E+00
 20
2.66954757E+02
  0
VERTEX
  8
0
 62
4
 10
-6.74343647E+00
 20
2.66971590E+02
  0
VERTEX
  8
0
 62
4
 10
-6.44934987E+00
 20
2.66996671E+02
  0
VERTEX
  8
0
 62
4
 10
-6.16372254E+00
 20
2.67029797E+02
  0
VERTEX
  8
0
 62
4
 10
-5.88885420E+00
 20
2.67070701E+02
  0
VERTEX
  8
0
 62
4
 10
-5.62695791E+00
 20
2.67119055E+02
  0
VERTEX
  8
0
 62
4
 10
-5.38014232E+00
 20
2.67174469E+02
  0
VERTEX
  8
0
 62
4
 10
-5.15039464E+00
 20
2.67236496E+02
  0
VERTEX
  8
0
 62
4
 10
-4.93956466E+00
 20
2.67304638E+02
  0
VERTEX
  8
0
 62
4
 10
-4.74934986E+00
 20
2.67378345E+02
  0
VERTEX
  8
0
 62
4
 10
-4.58128174E+00
 20
2.67457024E+02
  0
VERTEX
  8
0
 62
4
 10
-4.43671349E+00
 20
2.67540043E+02
  0
VERTEX
  8
0
 62
4
 10
-4.31680908E+00
 20
2.67626731E+02
  0
VERTEX
  8
0
 62
4
 10
-4.22253391E+00
 20
2.67716392E+02
  0
VERTEX
  8
0
 62
4
 10
-4.15464703E+00
 20
2.67808304E+02
  0
VERTEX
  8
0
 62
4
 10
-4.11369503E+00
 20
2.67901726E+02
  0
VERTEX
  8
0
 62
4
 10
-4.10000763E+00
 20
2.67995906E+02
  0
SEQEND
  8
0
  0
LINE
  8
0
 62
4
 10
-1.09000076E+01
 20
2.69543217E+02
 11
-1.09000076E+01
 21
2.67995906E+02
  0
POLYLINE
  8
0
 62
4
 66
1
  0
VERTEX
  8
0
 62
4
 10
-1.09000076E+01
 20
2.69543211E+02
  0
VERTEX
  8
0
 62
4
 10
-1.08863184E+01
 20
2.69449030E+02
  0
VERTEX
  8
0
 62
4
 10
-1.08453646E+01
 20
2.69355609E+02
  0
VERTEX
  8
0
 62
4
 10
-1.07774759E+01
 20
2.69263697E+02
  0
VERTEX
  8
0
 62
4
 10
-1.06831990E+01
 20
2.69174036E+02
  0
VERTEX
  8
0
 62
4
 10
-1.05632929E+01
 20
2.69087348E+02
  0
VERTEX
  8
0
 62
4
 10
-1.04187231E+01
 20
2.69004330E+02
  0
VERTEX
  8
0
 62
4
 10
-1.02506534E+01
 20
2.68925651E+02
  0
VERTEX
  8
0
 62
4
 10
-1.00604372E+01
 20
2.68851944E+02
  0
VERTEX
  8
0
 62
4
 10
-9.84960590E+00
 20
2.68783803E+02
  0
VERTEX
  8
0
 62
4
 10
-9.61985702E+00
 20
2.68721776E+02
  0
VERTEX
  8
0
 62
4
 10
-9.37304035E+00
 20
2.68666363E+02
  0
VERTEX
  8
0
 62
4
 10
-9.11114313E+00
 20
2.68618009E+02
  0
VERTEX
  8
0
 62
4
 10
-8.83627399E+00
 20
2.68577106E+02
  0
VERTEX
  8
0
 62
4
 10
-8.55064603E+00
 20
2.68543980E+02
  0
VERTEX
  8
0
 62
4
 10
-8.25655893E+00
 20
2.68518900E+02
  0
VERTEX
  8
0
 62
4
 10
-7.95638054E+00
 20
2.68502067E+02
  0
VERTEX
  8
0
 62
4
 10
-7.65252769E+00
 20
2.68493617E+02
  0
VERTEX
  8
0
 62
4
 10
-7.34744685E+00
 20
2.68493617E+02
  0
VERTEX
  8
0
 62
4
 10
-7.04359433E+00
 20
2.68502069E+02
  0
VERTEX
  8
0
 62
4
 10
-6.74341658E+00
 20
2.68518903E+02
  0
VERTEX
  8
0
 62
4
 10
-6.44933047E+00
 20
2.68543984E+02
  0
VERTEX
  8
0
 62
4
 10
-6.16370378E+00
 20
2.68577110E+02
  0
VERTEX
  8
0
 62
4
 10
-5.88883623E+00
 20
2.68618015E+02
  0
VERTEX
  8
0
 62
4
 10
-5.62694088E+00
 20
2.68666370E+02
  0
VERTEX
  8
0
 62
4
 10
-5.38012637E+00
 20
2.68721784E+02
  0
VERTEX
  8
0
 62
4
 10
-5.15037989E+00
 20
2.68783811E+02
  0
VERTEX
  8
0
 62
4
 10
-4.93955124E+00
 20
2.68851953E+02
  0
VERTEX
  8
0
 62
4
 10
-4.74933787E+00
 20
2.68925661E+02
  0
VERTEX
  8
0
 62
4
 10
-4.58127128E+00
 20
2.69004341E+02
  0
VERTEX
  8
0
 62
4
 10
-4.43670464E+00
 20
2.69087359E+02
  0
VERTEX
  8
0
 62
4
 10
-4.31680191E+00
 20
2.69174048E+02
  0
VERTEX
  8
0
 62
4
 10
-4.22252848E+00
 20
2.69263709E+02
  0
VERTEX
  8
0
 62
4
 10
-4.15464339E+00
 20
2.69355621E+02
  0
VERTEX
  8
0
 62
4
 10
-4.11369320E+00
 20
2.69449043E+02
  0
VERTEX
  8
0
 62
4
 10
-4.10000763E+00
 20
2.69543223E+02
  0
SEQEND
  8
0
  0
ARC
  8
0
 62
4
 10
-3.33950774E+00
 20
2.56688800E+02
 40
1.42127873E+01
 50
9.99307184E+01
 51
1.14652136E+02
  0
ARC
  8
0
 62
4
 10
-1.16605078E+01
 20
2.56688799E+02
 40
1.42127883E+01
 50
6.53478648E+01
 51
8.00692808E+01
  0
LINE
  8
0
  6
CENTER
 62
6
 10
9.99999237E+00
 20
2.67044849E+02
 11
4.99999237E+00
 21
2.67044849E+02
  0
LINE
  8
0
  6
CENTER
 62
6
 10
-7.62939453E-06
 20
2.65626408E+02
 11
-7.62939453E-06
 21
2.70626408E+02
  0
LINE
  8
0
  6
CENTER
 62
6
 10
2.49999237E+00
 20
2.68126408E+02
 11
-2.50000763E+00
 21
2.68126408E+02
  0
LINE
  8
0
  6
CENTER
 62
6
 10
-7.50000763E+00
 20
2.64544849E+02
 11
-7.50000763E+00
 21
2.69544849E+02
  0
LINE
  8
0
  6
CENTER
 62
6
 10
-5.00000763E+00
 20
2.67044849E+02
 11
-1.00000076E+01
 21
2.67044849E+02
  0
LINE
  8
0
 62
4
 10
-3.90177521E+00
 20
2.70598544E+02
 11
-5.25957735E+00
 21
2.70598544E+02
  0
LINE
  8
0
 62
4
 10
-4.04462290E+00
 20
2.70448837E+02
 11
-4.67591776E+00
 21
2.70448837E+02
  0
LINE
  8
0
 62
4
 10
-1.09000076E+01
 20
2.68868049E+02
 11
-1.50000076E+01
 21
2.68868049E+02
  0
LINE
  8
0
 62
4
 10
-9.74043791E+00
 20
2.70598544E+02
 11
-1.50000076E+01
 21
2.70598544E+02
  0
LINE
  8
0
 62
4
 10
-5.34999923E+01
 20
3.18607797E+02
 11
-5.34999923E+01
 21
3.17767878E+02
  0
LINE
  8
0
 62
4
 10
-5.74999923E+01
 20
3.18607797E+02
 11
-5.74999923E+01
 21
3.17767878E+02
  0
LINE
  8
0
 62
6
 10
-5.39999923E+01
 20
3.19016588E+02
 11
-5.39999923E+01
 21
3.17767878E+02
  0
LINE
  8
0
 62
6
 10
-5.69999923E+01
 20
3.19016588E+02
 11
-5.69999923E+01
 21
3.17767878E+02
  0
LINE
  8
0
  6
CENTER
 62
6
 10
-6.64999924E+01
 20
2.96455151E+02
 11
-6.64999924E+01
 21
2.91455151E+02
  0
LINE
  8
0
  6
CENTER
 62
6
 10
-5.54999923E+01
 20
3.23165609E+02
 11
-5.54999923E+01
 21
3.12900031E+02
  0
LINE
  8
0
  6
CENTER
 62
6
 10
-4.74999923E+01
 20
3.23165609E+02
 11
-4.74999923E+01
 21
3.12900031E+02
  0
LINE
  8
0
 62
4
 10
-7.39999924E+01
 20
3.05141610E+02
 11
-7.39999924E+01
 21
2.92131951E+02
  0
LINE
  8
0
 62
4
 10
-4.39999924E+01
 20
3.17767878E+02
 11
-4.39999924E+01
 21
2.90401456E+02
  0
LINE
  8
0
 62
4
 10
-5.89999924E+01
 20
3.17767878E+02
 11
-5.89999924E+01
 21
3.05141610E+02
  0
LINE
  8
0
 62
4
 10
-7.54999924E+01
 20
2.94499948E+02
 11
-7.54999924E+01
 21
2.91645882E+02
  0
LINE
  8
0
 62
4
 10
-5.89999924E+01
 20
3.17767878E+02
 11
-4.39999924E+01
 21
3.17767878E+02
  0
LINE
  8
0
 62
4
 10
-5.89999924E+01
 20
3.09421364E+02
 11
-4.39999924E+01
 21
3.09421364E+02
  0
LINE
  8
0
 62
4
 10
-7.39999924E+01
 20
3.05141610E+02
 11
-4.39999924E+01
 21
3.05141610E+02
  0
LINE
  8
0
 62
4
 10
-7.39999924E+01
 20
2.95345727E+02
 11
-4.39999924E+01
 21
2.95345727E+02
  0
LINE
  8
0
 62
4
 10
-7.39999924E+01
 20
2.90401456E+02
 11
-6.29017600E+01
 21
2.90401456E+02
  0
POLYLINE
  8
0
 62
4
 66
1
  0
VERTEX
  8
0
 62
4
 10
-5.34999923E+01
 20
3.18607797E+02
  0
VERTEX
  8
0
 62
4
 10
-5.35080437E+01
 20
3.18663197E+02
  0
VERTEX
  8
0
 62
4
 10
-5.35321331E+01
 20
3.18718151E+02
  0
VERTEX
  8
0
 62
4
 10
-5.35720666E+01
 20
3.18772217E+02
  0
VERTEX
  8
0
 62
4
 10
-5.36275226E+01
 20
3.18824959E+02
  0
VERTEX
  8
0
 62
4
 10
-5.36980546E+01
 20
3.18875952E+02
  0
VERTEX
  8
0
 62
4
 10
-5.37830947E+01
 20
3.18924786E+02
  0
VERTEX
  8
0
 62
4
 10
-5.38819583E+01
 20
3.18971068E+02
  0
VERTEX
  8
0
 62
4
 10
-5.39938494E+01
 20
3.19014425E+02
  0
VERTEX
  8
0
 62
4
 10
-5.41178670E+01
 20
3.19054509E+02
  0
VERTEX
  8
0
 62
4
 10
-5.42530127E+01
 20
3.19090995E+02
  0
VERTEX
  8
0
 62
4
 10
-5.43981983E+01
 20
3.19123592E+02
  0
VERTEX
  8
0
 62
4
 10
-5.45522550E+01
 20
3.19152035E+02
  0
VERTEX
  8
0
 62
4
 10
-5.47139422E+01
 20
3.19176096E+02
  0
VERTEX
  8
0
 62
4
 10
-5.48819583E+01
 20
3.19195582E+02
  0
VERTEX
  8
0
 62
4
 10
-5.50549504E+01
 20
3.19210336E+02
  0
VERTEX
  8
0
 62
4
 10
-5.52315258E+01
 20
3.19220238E+02
  0
VERTEX
  8
0
 62
4
 10
-5.54102626E+01
 20
3.19225209E+02
  0
VERTEX
  8
0
 62
4
 10
-5.55897219E+01
 20
3.19225209E+02
  0
VERTEX
  8
0
 62
4
 10
-5.57684588E+01
 20
3.19220238E+02
  0
VERTEX
  8
0
 62
4
 10
-5.59450342E+01
 20
3.19210336E+02
  0
VERTEX
  8
0
 62
4
 10
-5.61180263E+01
 20
3.19195582E+02
  0
VERTEX
  8
0
 62
4
 10
-5.62860424E+01
 20
3.19176096E+02
  0
VERTEX
  8
0
 62
4
 10
-5.64477296E+01
 20
3.19152035E+02
  0
VERTEX
  8
0
 62
4
 10
-5.66017863E+01
 20
3.19123592E+02
  0
VERTEX
  8
0
 62
4
 10
-5.67469719E+01
 20
3.19090995E+02
  0
VERTEX
  8
0
 62
4
 10
-5.68821176E+01
 20
3.19054509E+02
  0
VERTEX
  8
0
 62
4
 10
-5.70061352E+01
 20
3.19014426E+02
  0
VERTEX
  8
0
 62
4
 10
-5.71180263E+01
 20
3.18971068E+02
  0
VERTEX
  8
0
 62
4
 10
-5.72168899E+01
 20
3.18924786E+02
  0
VERTEX
  8
0
 62
4
 10
-5.73019300E+01
 20
3.18875952E+02
  0
VERTEX
  8
0
 62
4
 10
-5.73724620E+01
 20
3.18824959E+02
  0
VERTEX
  8
0
 62
4
 10
-5.74279180E+01
 20
3.18772217E+02
  0
VERTEX
  8
0
 62
4
 10
-5.74678515E+01
 20
3.18718151E+02
  0
VERTEX
  8
0
 62
4
 10
-5.74919409E+01
 20
3.18663197E+02
  0
VERTEX
  8
0
 62
4
 10
-5.74999923E+01
 20
3.18607797E+02
  0
SEQEND
  8
0
  0
LINE
  8
0
 62
4
 10
-4.54999923E+01
 20
3.18607797E+02
 11
-4.54999923E+01
 21
3.17767878E+02
  0
LINE
  8
0
 62
6
 10
-4.59999923E+01
 20
3.19016588E+02
 11
-4.59999923E+01
 21
3.17767878E+02
  0
POLYLINE
  8
0
 62
4
 66
1
  0
VERTEX
  8
0
 62
4
 10
-4.54999923E+01
 20
3.18607797E+02
  0
VERTEX
  8
0
 62
4
 10
-4.55080437E+01
 20
3.18663197E+02
  0
VERTEX
  8
0
 62
4
 10
-4.55321331E+01
 20
3.18718151E+02
  0
VERTEX
  8
0
 62
4
 10
-4.55720666E+01
 20
3.18772217E+02
  0
VERTEX
  8
0
 62
4
 10
-4.56275226E+01
 20
3.18824959E+02
  0
VERTEX
  8
0
 62
4
 10
-4.56980546E+01
 20
3.18875952E+02
  0
VERTEX
  8
0
 62
4
 10
-4.57830947E+01
 20
3.18924786E+02
  0
VERTEX
  8
0
 62
4
 10
-4.58819583E+01
 20
3.18971068E+02
  0
VERTEX
  8
0
 62
4
 10
-4.59938494E+01
 20
3.19014425E+02
  0
VERTEX
  8
0
 62
4
 10
-4.61178670E+01
 20
3.19054509E+02
  0
VERTEX
  8
0
 62
4
 10
-4.62530127E+01
 20
3.19090995E+02
  0
VERTEX
  8
0
 62
4
 10
-4.63981983E+01
 20
3.19123592E+02
  0
VERTEX
  8
0
 62
4
 10
-4.65522550E+01
 20
3.19152035E+02
  0
VERTEX
  8
0
 62
4
 10
-4.67139422E+01
 20
3.19176096E+02
  0
VERTEX
  8
0
 62
4
 10
-4.68819583E+01
 20
3.19195582E+02
  0
VERTEX
  8
0
 62
4
 10
-4.70549504E+01
 20
3.19210336E+02
  0
VERTEX
  8
0
 62
4
 10
-4.72315258E+01
 20
3.19220238E+02
  0
VERTEX
  8
0
 62
4
 10
-4.74102626E+01
 20
3.19225209E+02
  0
VERTEX
  8
0
 62
4
 10
-4.75897219E+01
 20
3.19225209E+02
  0
VERTEX
  8
0
 62
4
 10
-4.77684588E+01
 20
3.19220238E+02
  0
VERTEX
  8
0
 62
4
 10
-4.79450342E+01
 20
3.19210336E+02
  0
VERTEX
  8
0
 62
4
 10
-4.81180263E+01
 20
3.19195582E+02
  0
VERTEX
  8
0
 62
4
 10
-4.82860424E+01
 20
3.19176096E+02
  0
VERTEX
  8
0
 62
4
 10
-4.84477296E+01
 20
3.19152035E+02
  0
VERTEX
  8
0
 62
4
 10
-4.86017863E+01
 20
3.19123592E+02
  0
VERTEX
  8
0
 62
4
 10
-4.87469719E+01
 20
3.19090995E+02
  0
VERTEX
  8
0
 62
4
 10
-4.88821176E+01
 20
3.19054509E+02
  0
VERTEX
  8
0
 62
4
 10
-4.90061352E+01
 20
3.19014426E+02
  0
VERTEX
  8
0
 62
4
 10
-4.91180263E+01
 20
3.18971068E+02
  0
VERTEX
  8
0
 62
4
 10
-4.92168899E+01
 20
3.18924786E+02
  0
VERTEX
  8
0
 62
4
 10
-4.93019300E+01
 20
3.18875952E+02
  0
VERTEX
  8
0
 62
4
 10
-4.93724620E+01
 20
3.18824959E+02
  0
VERTEX
  8
0
 62
4
 10
-4.94279180E+01
 20
3.18772217E+02
  0
VERTEX
  8
0
 62
4
 10
-4.94678515E+01
 20
3.18718151E+02
  0
VERTEX
  8
0
 62
4
 10
-4.94919409E+01
 20
3.18663197E+02
  0
VERTEX
  8
0
 62
4
 10
-4.94999923E+01
 20
3.18607797E+02
  0
SEQEND
  8
0
  0
LINE
  8
0
 62
4
 10
-4.94999923E+01
 20
3.18607797E+02
 11
-4.94999923E+01
 21
3.17767878E+02
  0
LINE
  8
0
 62
6
 10
-4.89999923E+01
 20
3.19016588E+02
 11
-4.89999923E+01
 21
3.17767878E+02
  0
LINE
  8
0
 62
4
 10
-7.39999924E+01
 20
2.95591457E+02
 11
-7.54999924E+01
 21
2.94499948E+02
  0
LINE
  8
0
 62
4
 10
-7.54999924E+01
 20
2.92345805E+02
 11
-7.39999924E+01
 21
2.91787231E+02
  0
LINE
  8
0
 62
4
 10
-7.39999924E+01
 20
2.90551163E+02
 11
-7.54999924E+01
 21
2.91645882E+02
  0
LINE
  8
0
 62
4
 10
-7.39999924E+01
 20
2.92131951E+02
 11
-6.31499924E+01
 21
2.92131951E+02
  0
LINE
  8
0
 62
4
 10
-4.84343943E+01
 20
2.90710473E+02
 11
-4.39999924E+01
 21
2.90710473E+02
  0
LINE
  8
0
 62
4
 10
-7.39999924E+01
 20
2.91787231E+02
 11
-6.31499924E+01
 21
2.91787231E+02
  0
LINE
  8
0
 62
4
 10
-7.39999924E+01
 20
2.90551163E+02
 11
-6.30446076E+01
 21
2.90551163E+02
  0
LINE
  8
0
 62
4
 10
-7.39999924E+01
 20
2.92131951E+02
 11
-7.39999924E+01
 21
2.90551163E+02
  0
LINE
  8
0
 62
4
 10
-7.39999924E+01
 20
2.90551163E+02
 11
-7.39999924E+01
 21
2.90401456E+02
  0
ARC
  8
0
 62
4
 10
-5.38999927E+01
 20
2.91456783E+02
 40
1.00000000E+00
 50
1.80000000E+02
 51
2.57172490E+02
  0
ARC
  8
0
 62
4
 10
-4.90999920E+01
 20
2.91456783E+02
 40
1.00000000E+00
 50
2.82827510E+02
 51
0.00000000E+00
  0
ARC
  8
0
 62
4
 10
-5.14999924E+01
 20
3.01996997E+02
 40
1.18100000E+01
 50
2.57172490E+02
 51
2.82827510E+02
  0
LINE
  8
0
 62
4
 10
-6.31499924E+01
 20
2.90838331E+02
 11
-6.31499924E+01
 21
2.92512190E+02
  0
LINE
  8
0
 62
4
 10
-5.48499924E+01
 20
2.90838331E+02
 11
-5.48499924E+01
 21
2.91144532E+02
  0
POLYLINE
  8
0
 62
4
 66
1
  0
VERTEX
  8
0
 62
4
 10
-5.52999924E+01
 20
2.93092986E+02
  0
VERTEX
  8
0
 62
4
 10
-5.54818074E+01
 20
2.93192370E+02
  0
VERTEX
  8
0
 62
4
 10
-5.56915046E+01
 20
2.93286363E+02
  0
VERTEX
  8
0
 62
4
 10
-5.59274223E+01
 20
2.93374221E+02
  0
VERTEX
  8
0
 62
4
 10
-5.61876906E+01
 20
2.93455247E+02
  0
VERTEX
  8
0
 62
4
 10
-5.64702469E+01
 20
2.93528799E+02
  0
VERTEX
  8
0
 62
4
 10
-5.67728520E+01
 20
2.93594294E+02
  0
VERTEX
  8
0
 62
4
 10
-5.70931075E+01
 20
2.93651214E+02
  0
VERTEX
  8
0
 62
4
 10
-5.74284755E+01
 20
2.93699106E+02
  0
VERTEX
  8
0
 62
4
 10
-5.77762980E+01
 20
2.93737592E+02
  0
VERTEX
  8
0
 62
4
 10
-5.81338186E+01
 20
2.93766367E+02
  0
VERTEX
  8
0
 62
4
 10
-5.84982037E+01
 20
2.93785202E+02
  0
VERTEX
  8
0
 62
4
 10
-5.88665656E+01
 20
2.93793948E+02
  0
VERTEX
  8
0
 62
4
 10
-5.92359849E+01
 20
2.93792535E+02
  0
VERTEX
  8
0
 62
4
 10
-5.96035340E+01
 20
2.93780976E+02
  0
VERTEX
  8
0
 62
4
 10
-5.99662998E+01
 20
2.93759362E+02
  0
VERTEX
  8
0
 62
4
 10
-6.03214075E+01
 20
2.93727863E+02
  0
VERTEX
  8
0
 62
4
 10
-6.06660428E+01
 20
2.93686730E+02
  0
VERTEX
  8
0
 62
4
 10
-6.09974742E+01
 20
2.93636289E+02
  0
VERTEX
  8
0
 62
4
 10
-6.13130753E+01
 20
2.93576938E+02
  0
VERTEX
  8
0
 62
4
 10
-6.16103447E+01
 20
2.93509150E+02
  0
VERTEX
  8
0
 62
4
 10
-6.18869267E+01
 20
2.93433460E+02
  0
VERTEX
  8
0
 62
4
 10
-6.21406291E+01
 20
2.93350470E+02
  0
VERTEX
  8
0
 62
4
 10
-6.23694414E+01
 20
2.93260835E+02
  0
VERTEX
  8
0
 62
4
 10
-6.25715502E+01
 20
2.93165268E+02
  0
VERTEX
  8
0
 62
4
 10
-6.27453537E+01
 20
2.93064524E+02
  0
VERTEX
  8
0
 62
4
 10
-6.28894745E+01
 20
2.92959404E+02
  0
VERTEX
  8
0
 62
4
 10
-6.30027705E+01
 20
2.92850739E+02
  0
VERTEX
  8
0
 62
4
 10
-6.30843437E+01
 20
2.92739391E+02
  0
VERTEX
  8
0
 62
4
 10
-6.31335476E+01
 20
2.92626242E+02
  0
VERTEX
  8
0
 62
4
 10
-6.31499924E+01
 20
2.92512190E+02
  0
SEQEND
  8
0
  0
POLYLINE
  8
0
 62
4
 66
1
  0
VERTEX
  8
0
 62
4
 10
-6.31499924E+01
 20
2.90838331E+02
  0
VERTEX
  8
0
 62
4
 10
-6.31342004E+01
 20
2.90726561E+02
  0
VERTEX
  8
0
 62
4
 10
-6.30869446E+01
 20
2.90615641E+02
  0
VERTEX
  8
0
 62
4
 10
-6.30085846E+01
 20
2.90506416E+02
  0
VERTEX
  8
0
 62
4
 10
-6.28997168E+01
 20
2.90399717E+02
  0
VERTEX
  8
0
 62
4
 10
-6.27611697E+01
 20
2.90296357E+02
  0
VERTEX
  8
0
 62
4
 10
-6.25939978E+01
 20
2.90197121E+02
  0
VERTEX
  8
0
 62
4
 10
-6.23994734E+01
 20
2.90102765E+02
  0
VERTEX
  8
0
 62
4
 10
-6.21790768E+01
 20
2.90014007E+02
  0
VERTEX
  8
0
 62
4
 10
-6.19344856E+01
 20
2.89931523E+02
  0
VERTEX
  8
0
 62
4
 10
-6.16675610E+01
 20
2.89855940E+02
  0
VERTEX
  8
0
 62
4
 10
-6.13803346E+01
 20
2.89787834E+02
  0
VERTEX
  8
0
 62
4
 10
-6.10749924E+01
 20
2.89727722E+02
  0
VERTEX
  8
0
 62
4
 10
-6.07538582E+01
 20
2.89676063E+02
  0
VERTEX
  8
0
 62
4
 10
-6.04193760E+01
 20
2.89633250E+02
  0
VERTEX
  8
0
 62
4
 10
-6.00740914E+01
 20
2.89599608E+02
  0
VERTEX
  8
0
 62
4
 10
-5.97206323E+01
 20
2.89575393E+02
  0
VERTEX
  8
0
 62
4
 10
-5.93616887E+01
 20
2.89560790E+02
  0
VERTEX
  8
0
 62
4
 10
-5.89999924E+01
 20
2.89555910E+02
  0
VERTEX
  8
0
 62
4
 10
-5.86382961E+01
 20
2.89560790E+02
  0
VERTEX
  8
0
 62
4
 10
-5.82793525E+01
 20
2.89575393E+02
  0
VERTEX
  8
0
 62
4
 10
-5.79258934E+01
 20
2.89599608E+02
  0
VERTEX
  8
0
 62
4
 10
-5.75806088E+01
 20
2.89633250E+02
  0
VERTEX
  8
0
 62
4
 10
-5.72461266E+01
 20
2.89676063E+02
  0
VERTEX
  8
0
 62
4
 10
-5.69249924E+01
 20
2.89727722E+02
  0
VERTEX
  8
0
 62
4
 10
-5.66196502E+01
 20
2.89787834E+02
  0
VERTEX
  8
0
 62
4
 10
-5.63324238E+01
 20
2.89855940E+02
  0
VERTEX
  8
0
 62
4
 10
-5.60654993E+01
 20
2.89931523E+02
  0
VERTEX
  8
0
 62
4
 10
-5.58209080E+01
 20
2.90014007E+02
  0
VERTEX
  8
0
 62
4
 10
-5.56005114E+01
 20
2.90102765E+02
  0
VERTEX
  8
0
 62
4
 10
-5.54059870E+01
 20
2.90197121E+02
  0
VERTEX
  8
0
 62
4
 10
-5.52388151E+01
 20
2.90296357E+02
  0
VERTEX
  8
0
 62
4
 10
-5.51002680E+01
 20
2.90399717E+02
  0
VERTEX
  8
0
 62
4
 10
-5.49914002E+01
 20
2.90506416E+02
  0
VERTEX
  8
0
 62
4
 10
-5.49130402E+01
 20
2.90615641E+02
  0
VERTEX
  8
0
 62
4
 10
-5.48657844E+01
 20
2.90726561E+02
  0
VERTEX
  8
0
 62
4
 10
-5.48499924E+01
 20
2.90838331E+02
  0
VERTEX
  8
0
 62
4
 10
-5.48657844E+01
 20
2.90950101E+02
  0
VERTEX
  8
0
 62
4
 10
-5.49130402E+01
 20
2.91061021E+02
  0
VERTEX
  8
0
 62
4
 10
-5.49914002E+01
 20
2.91170246E+02
  0
VERTEX
  8
0
 62
4
 10
-5.51002680E+01
 20
2.91276945E+02
  0
VERTEX
  8
0
 62
4
 10
-5.52388151E+01
 20
2.91380305E+02
  0
VERTEX
  8
0
 62
4
 10
-5.54059870E+01
 20
2.91479541E+02
  0
VERTEX
  8
0
 62
4
 10
-5.56005114E+01
 20
2.91573897E+02
  0
VERTEX
  8
0
 62
4
 10
-5.58209080E+01
 20
2.91662655E+02
  0
VERTEX
  8
0
 62
4
 10
-5.60654993E+01
 20
2.91745139E+02
  0
VERTEX
  8
0
 62
4
 10
-5.63324238E+01
 20
2.91820722E+02
  0
VERTEX
  8
0
 62
4
 10
-5.66196502E+01
 20
2.91888828E+02
  0
VERTEX
  8
0
 62
4
 10
-5.69249924E+01
 20
2.91948940E+02
  0
VERTEX
  8
0
 62
4
 10
-5.72461266E+01
 20
2.92000599E+02
  0
VERTEX
  8
0
 62
4
 10
-5.75806088E+01
 20
2.92043412E+02
  0
VERTEX
  8
0
 62
4
 10
-5.79258934E+01
 20
2.92077054E+02
  0
VERTEX
  8
0
 62
4
 10
-5.82793525E+01
 20
2.92101269E+02
  0
VERTEX
  8
0
 62
4
 10
-5.86382961E+01
 20
2.92115872E+02
  0
VERTEX
  8
0
 62
4
 10
-5.89999924E+01
 20
2.92120751E+02
  0
VERTEX
  8
0
 62
4
 10
-5.93616887E+01
 20
2.92115872E+02
  0
VERTEX
  8
0
 62
4
 10
-5.97206323E+01
 20
2.92101269E+02
  0
VERTEX
  8
0
 62
4
 10
-6.00740914E+01
 20
2.92077054E+02
  0
VERTEX
  8
0
 62
4
 10
-6.04193760E+01
 20
2.92043412E+02
  0
VERTEX
  8
0
 62
4
 10
-6.07538582E+01
 20
2.92000599E+02
  0
VERTEX
  8
0
 62
4
 10
-6.10749924E+01
 20
2.91948940E+02
  0
VERTEX
  8
0
 62
4
 10
-6.13803346E+01
 20
2.91888828E+02
  0
VERTEX
  8
0
 62
4
 10
-6.16675610E+01
 20
2.91820722E+02
  0
VERTEX
  8
0
 62
4
 10
-6.19344856E+01
 20
2.91745139E+02
  0
VERTEX
  8
0
 62
4
 10
-6.21790769E+01
 20
2.91662655E+02
  0
VERTEX
  8
0
 62
4
 10
-6.23994734E+01
 20
2.91573897E+02
  0
VERTEX
  8
0
 62
4
 10
-6.25939978E+01
 20
2.91479541E+02
  0
VERTEX
  8
0
 62
4
 10
-6.27611697E+01
 20
2.91380305E+02
  0
VERTEX
  8
0
 62
4
 10
-6.28997168E+01
 20
2.91276945E+02
  0
VERTEX
  8
0
 62
4
 10
-6.30085846E+01
 20
2.91170246E+02
  0
VERTEX
  8
0
 62
4
 10
-6.30869446E+01
 20
2.91061021E+02
  0
VERTEX
  8
0
 62
4
 10
-6.31342004E+01
 20
2.90950101E+02
  0
VERTEX
  8
0
 62
4
 10
-6.31499924E+01
 20
2.90838331E+02
  0
SEQEND
  8
0
  0
LINE
  8
0
 62
4
 10
-6.29999924E+01
 20
2.92853860E+02
 11
-6.29999924E+01
 21
2.92873592E+02
  0
POLYLINE
  8
0
 62
4
 66
1
  0
VERTEX
  8
0
 62
4
 10
-5.52999924E+01
 20
2.93343257E+02
  0
VERTEX
  8
0
 62
4
 10
-5.54493004E+01
 20
2.93442770E+02
  0
VERTEX
  8
0
 62
4
 10
-5.56265691E+01
 20
2.93537800E+02
  0
VERTEX
  8
0
 62
4
 10
-5.58304025E+01
 20
2.93627600E+02
  0
VERTEX
  8
0
 62
4
 10
-5.60591956E+01
 20
2.93711462E+02
  0
VERTEX
  8
0
 62
4
 10
-5.63111466E+01
 20
2.93788726E+02
  0
VERTEX
  8
0
 62
4
 10
-5.65842716E+01
 20
2.93858784E+02
  0
VERTEX
  8
0
 62
4
 10
-5.68764197E+01
 20
2.93921084E+02
  0
VERTEX
  8
0
 62
4
 10
-5.71852903E+01
 20
2.93975135E+02
  0
VERTEX
  8
0
 62
4
 10
-5.75084512E+01
 20
2.94020512E+02
  0
VERTEX
  8
0
 62
4
 10
-5.78433576E+01
 20
2.94056857E+02
  0
VERTEX
  8
0
 62
4
 10
-5.81873722E+01
 20
2.94083884E+02
  0
VERTEX
  8
0
 62
4
 10
-5.85377859E+01
 20
2.94101380E+02
  0
VERTEX
  8
0
 62
4
 10
-5.88918393E+01
 20
2.94109208E+02
  0
VERTEX
  8
0
 62
4
 10
-5.92467445E+01
 20
2.94107306E+02
  0
VERTEX
  8
0
 62
4
 10
-5.95997065E+01
 20
2.94095689E+02
  0
VERTEX
  8
0
 62
4
 10
-5.99479460E+01
 20
2.94074447E+02
  0
VERTEX
  8
0
 62
4
 10
-6.02887205E+01
 20
2.94043750E+02
  0
VERTEX
  8
0
 62
4
 10
-6.06193467E+01
 20
2.94003838E+02
  0
VERTEX
  8
0
 62
4
 10
-6.09372210E+01
 20
2.93955025E+02
  0
VERTEX
  8
0
 62
4
 10
-6.12398401E+01
 20
2.93897697E+02
  0
VERTEX
  8
0
 62
4
 10
-6.15248210E+01
 20
2.93832304E+02
  0
VERTEX
  8
0
 62
4
 10
-6.17899196E+01
 20
2.93759361E+02
  0
VERTEX
  8
0
 62
4
 10
-6.20330483E+01
 20
2.93679444E+02
  0
VERTEX
  8
0
 62
4
 10
-6.22522926E+01
 20
2.93593180E+02
  0
VERTEX
  8
0
 62
4
 10
-6.24459258E+01
 20
2.93501250E+02
  0
VERTEX
  8
0
 62
4
 10
-6.26124233E+01
 20
2.93404377E+02
  0
VERTEX
  8
0
 62
4
 10
-6.27504739E+01
 20
2.93303324E+02
  0
VERTEX
  8
0
 62
4
 10
-6.28589906E+01
 20
2.93198888E+02
  0
VERTEX
  8
0
 62
4
 10
-6.29371186E+01
 20
2.93091889E+02
  0
VERTEX
  8
0
 62
4
 10
-6.29842430E+01
 20
2.92983172E+02
  0
VERTEX
  8
0
 62
4
 10
-6.29999924E+01
 20
2.92873592E+02
  0
SEQEND
  8
0
  0
ARC
  8
0
 62
4
 10
-6.31876144E+01
 20
3.03826828E+02
 40
1.43299558E+01
 50
2.79721944E+02
 51
2.94556489E+02
  0
ARC
  8
0
 62
4
 10
-5.48123689E+01
 20
3.03826833E+02
 40
1.43299613E+01
 50
2.45443514E+02
 51
2.60278053E+02
  0
LINE
  8
0
 62
4
 10
-5.52999924E+01
 20
2.93004094E+02
 11
-5.52999924E+01
 21
2.93955151E+02
  0
POLYLINE
  8
0
 62
4
 66
1
  0
VERTEX
  8
0
 62
4
 10
-4.76999924E+01
 20
2.93955151E+02
  0
VERTEX
  8
0
 62
4
 10
-4.77152901E+01
 20
2.94060411E+02
  0
VERTEX
  8
0
 62
4
 10
-4.77610600E+01
 20
2.94164824E+02
  0
VERTEX
  8
0
 62
4
 10
-4.78369335E+01
 20
2.94267549E+02
  0
VERTEX
  8
0
 62
4
 10
-4.79422999E+01
 20
2.94367758E+02
  0
VERTEX
  8
0
 62
4
 10
-4.80763107E+01
 20
2.94464645E+02
  0
VERTEX
  8
0
 62
4
 10
-4.82378870E+01
 20
2.94557430E+02
  0
VERTEX
  8
0
 62
4
 10
-4.84257278E+01
 20
2.94645366E+02
  0
VERTEX
  8
0
 62
4
 10
-4.86383208E+01
 20
2.94727745E+02
  0
VERTEX
  8
0
 62
4
 10
-4.88739543E+01
 20
2.94803903E+02
  0
VERTEX
  8
0
 62
4
 10
-4.91307311E+01
 20
2.94873228E+02
  0
VERTEX
  8
0
 62
4
 10
-4.94065839E+01
 20
2.94935161E+02
  0
VERTEX
  8
0
 62
4
 10
-4.96992915E+01
 20
2.94989203E+02
  0
VERTEX
  8
0
 62
4
 10
-5.00064973E+01
 20
2.95034920E+02
  0
VERTEX
  8
0
 62
4
 10
-5.03257278E+01
 20
2.95071943E+02
  0
VERTEX
  8
0
 62
4
 10
-5.06544128E+01
 20
2.95099974E+02
  0
VERTEX
  8
0
 62
4
 10
-5.09899060E+01
 20
2.95118788E+02
  0
VERTEX
  8
0
 62
4
 10
-5.13295060E+01
 20
2.95128233E+02
  0
VERTEX
  8
0
 62
4
 10
-5.16704787E+01
 20
2.95128233E+02
  0
VERTEX
  8
0
 62
4
 10
-5.20100788E+01
 20
2.95118788E+02
  0
VERTEX
  8
0
 62
4
 10
-5.23455719E+01
 20
2.95099974E+02
  0
VERTEX
  8
0
 62
4
 10
-5.26742570E+01
 20
2.95071943E+02
  0
VERTEX
  8
0
 62
4
 10
-5.29934875E+01
 20
2.95034920E+02
  0
VERTEX
  8
0
 62
4
 10
-5.33006933E+01
 20
2.94989203E+02
  0
VERTEX
  8
0
 62
4
 10
-5.35934009E+01
 20
2.94935161E+02
  0
VERTEX
  8
0
 62
4
 10
-5.38692536E+01
 20
2.94873228E+02
  0
VERTEX
  8
0
 62
4
 10
-5.41260304E+01
 20
2.94803903E+02
  0
VERTEX
  8
0
 62
4
 10
-5.43616640E+01
 20
2.94727745E+02
  0
VERTEX
  8
0
 62
4
 10
-5.45742570E+01
 20
2.94645366E+02
  0
VERTEX
  8
0
 62
4
 10
-5.47620978E+01
 20
2.94557430E+02
  0
VERTEX
  8
0
 62
4
 10
-5.49236741E+01
 20
2.94464645E+02
  0
VERTEX
  8
0
 62
4
 10
-5.50576849E+01
 20
2.94367758E+02
  0
VERTEX
  8
0
 62
4
 10
-5.51630513E+01
 20
2.94267549E+02
  0
VERTEX
  8
0
 62
4
 10
-5.52389248E+01
 20
2.94164824E+02
  0
VERTEX
  8
0
 62
4
 10
-5.52846947E+01
 20
2.94060411E+02
  0
VERTEX
  8
0
 62
4
 10
-5.52999924E+01
 20
2.93955151E+02
  0
SEQEND
  8
0
  0
POLYLINE
  8
0
 62
4
 66
1
  0
VERTEX
  8
0
 62
4
 10
-4.80999924E+01
 20
2.92479675E+02
  0
VERTEX
  8
0
 62
4
 10
-4.79634107E+01
 20
2.92574506E+02
  0
VERTEX
  8
0
 62
4
 10
-4.78544629E+01
 20
2.92672694E+02
  0
VERTEX
  8
0
 62
4
 10
-4.77740001E+01
 20
2.92773471E+02
  0
VERTEX
  8
0
 62
4
 10
-4.77226511E+01
 20
2.92876050E+02
  0
VERTEX
  8
0
 62
4
 10
-4.77008171E+01
 20
2.92979630E+02
  0
VERTEX
  8
0
 62
4
 10
-4.77086688E+01
 20
2.93083401E+02
  0
VERTEX
  8
0
 62
4
 10
-4.77461448E+01
 20
2.93186552E+02
  0
VERTEX
  8
0
 62
4
 10
-4.78129522E+01
 20
2.93288278E+02
  0
VERTEX
  8
0
 62
4
 10
-4.79085690E+01
 20
2.93387783E+02
  0
VERTEX
  8
0
 62
4
 10
-4.80322482E+01
 20
2.93484290E+02
  0
VERTEX
  8
0
 62
4
 10
-4.81830233E+01
 20
2.93577045E+02
  0
VERTEX
  8
0
 62
4
 10
-4.83597162E+01
 20
2.93665323E+02
  0
VERTEX
  8
0
 62
4
 10
-4.85609462E+01
 20
2.93748434E+02
  0
VERTEX
  8
0
 62
4
 10
-4.87851412E+01
 20
2.93825730E+02
  0
VERTEX
  8
0
 62
4
 10
-4.90305491E+01
 20
2.93896605E+02
  0
VERTEX
  8
0
 62
4
 10
-4.92952526E+01
 20
2.93960506E+02
  0
VERTEX
  8
0
 62
4
 10
-4.95771832E+01
 20
2.94016935E+02
  0
VERTEX
  8
0
 62
4
 10
-4.98741381E+01
 20
2.94065449E+02
  0
VERTEX
  8
0
 62
4
 10
-5.01837970E+01
 20
2.94105670E+02
  0
VERTEX
  8
0
 62
4
 10
-5.05037402E+01
 20
2.94137284E+02
  0
VERTEX
  8
0
 62
4
 10
-5.08314678E+01
 20
2.94160044E+02
  0
VERTEX
  8
0
 62
4
 10
-5.11644191E+01
 20
2.94173771E+02
  0
VERTEX
  8
0
 62
4
 10
-5.14999924E+01
 20
2.94178359E+02
  0
VERTEX
  8
0
 62
4
 10
-5.18355658E+01
 20
2.94173771E+02
  0
VERTEX
  8
0
 62
4
 10
-5.21685170E+01
 20
2.94160044E+02
  0
VERTEX
  8
0
 62
4
 10
-5.24962447E+01
 20
2.94137284E+02
  0
VERTEX
  8
0
 62
4
 10
-5.28161879E+01
 20
2.94105670E+02
  0
VERTEX
  8
0
 62
4
 10
-5.31258467E+01
 20
2.94065449E+02
  0
VERTEX
  8
0
 62
4
 10
-5.34228016E+01
 20
2.94016935E+02
  0
VERTEX
  8
0
 62
4
 10
-5.37047322E+01
 20
2.93960506E+02
  0
VERTEX
  8
0
 62
4
 10
-5.39694357E+01
 20
2.93896605E+02
  0
VERTEX
  8
0
 62
4
 10
-5.42148437E+01
 20
2.93825730E+02
  0
VERTEX
  8
0
 62
4
 10
-5.44390386E+01
 20
2.93748434E+02
  0
VERTEX
  8
0
 62
4
 10
-5.46402687E+01
 20
2.93665323E+02
  0
VERTEX
  8
0
 62
4
 10
-5.48169616E+01
 20
2.93577045E+02
  0
VERTEX
  8
0
 62
4
 10
-5.49677366E+01
 20
2.93484290E+02
  0
VERTEX
  8
0
 62
4
 10
-5.50914158E+01
 20
2.93387783E+02
  0
VERTEX
  8
0
 62
4
 10
-5.51870326E+01
 20
2.93288278E+02
  0
VERTEX
  8
0
 62
4
 10
-5.52538400E+01
 20
2.93186552E+02
  0
VERTEX
  8
0
 62
4
 10
-5.52913160E+01
 20
2.93083401E+02
  0
VERTEX
  8
0
 62
4
 10
-5.52991677E+01
 20
2.92979630E+02
  0
VERTEX
  8
0
 62
4
 10
-5.52773337E+01
 20
2.92876050E+02
  0
VERTEX
  8
0
 62
4
 10
-5.52259847E+01
 20
2.92773471E+02
  0
VERTEX
  8
0
 62
4
 10
-5.51455219E+01
 20
2.92672694E+02
  0
VERTEX
  8
0
 62
4
 10
-5.50365741E+01
 20
2.92574506E+02
  0
VERTEX
  8
0
 62
4
 10
-5.48999924E+01
 20
2.92479675E+02
  0
SEQEND
  8
0
  0
LINE
  8
0
 62
4
 10
-4.76999924E+01
 20
2.93004094E+02
 11
-4.76999924E+01
 21
2.93955151E+02
  0
LINE
  8
0
 62
4
 10
-5.48999924E+01
 20
2.91456783E+02
 11
-5.48999924E+01
 21
2.93004094E+02
  0
POLYLINE
  8
0
 62
4
 66
1
  0
VERTEX
  8
0
 62
4
 10
-4.80999924E+01
 20
2.93004094E+02
  0
VERTEX
  8
0
 62
4
 10
-4.81136798E+01
 20
2.93098274E+02
  0
VERTEX
  8
0
 62
4
 10
-4.81546318E+01
 20
2.93191696E+02
  0
VERTEX
  8
0
 62
4
 10
-4.82225187E+01
 20
2.93283608E+02
  0
VERTEX
  8
0
 62
4
 10
-4.83167938E+01
 20
2.93373269E+02
  0
VERTEX
  8
0
 62
4
 10
-4.84366982E+01
 20
2.93459957E+02
  0
VERTEX
  8
0
 62
4
 10
-4.85812665E+01
 20
2.93542976E+02
  0
VERTEX
  8
0
 62
4
 10
-4.87493346E+01
 20
2.93621655E+02
  0
VERTEX
  8
0
 62
4
 10
-4.89395494E+01
 20
2.93695362E+02
  0
VERTEX
  8
0
 62
4
 10
-4.91503794E+01
 20
2.93763504E+02
  0
VERTEX
  8
0
 62
4
 10
-4.93801271E+01
 20
2.93825531E+02
  0
VERTEX
  8
0
 62
4
 10
-4.96269426E+01
 20
2.93880945E+02
  0
VERTEX
  8
0
 62
4
 10
-4.98888389E+01
 20
2.93929299E+02
  0
VERTEX
  8
0
 62
4
 10
-5.01637073E+01
 20
2.93970203E+02
  0
VERTEX
  8
0
 62
4
 10
-5.04493346E+01
 20
2.94003329E+02
  0
VERTEX
  8
0
 62
4
 10
-5.07434212E+01
 20
2.94028410E+02
  0
VERTEX
  8
0
 62
4
 10
-5.10435993E+01
 20
2.94045243E+02
  0
VERTEX
  8
0
 62
4
 10
-5.13474520E+01
 20
2.94053694E+02
  0
VERTEX
  8
0
 62
4
 10
-5.16525328E+01
 20
2.94053694E+02
  0
VERTEX
  8
0
 62
4
 10
-5.19563855E+01
 20
2.94045243E+02
  0
VERTEX
  8
0
 62
4
 10
-5.22565636E+01
 20
2.94028410E+02
  0
VERTEX
  8
0
 62
4
 10
-5.25506502E+01
 20
2.94003329E+02
  0
VERTEX
  8
0
 62
4
 10
-5.28362775E+01
 20
2.93970203E+02
  0
VERTEX
  8
0
 62
4
 10
-5.31111458E+01
 20
2.93929299E+02
  0
VERTEX
  8
0
 62
4
 10
-5.33730421E+01
 20
2.93880945E+02
  0
VERTEX
  8
0
 62
4
 10
-5.36198577E+01
 20
2.93825531E+02
  0
VERTEX
  8
0
 62
4
 10
-5.38496054E+01
 20
2.93763504E+02
  0
VERTEX
  8
0
 62
4
 10
-5.40604354E+01
 20
2.93695362E+02
  0
VERTEX
  8
0
 62
4
 10
-5.42506502E+01
 20
2.93621655E+02
  0
VERTEX
  8
0
 62
4
 10
-5.44187183E+01
 20
2.93542976E+02
  0
VERTEX
  8
0
 62
4
 10
-5.45632865E+01
 20
2.93459957E+02
  0
VERTEX
  8
0
 62
4
 10
-5.46831910E+01
 20
2.93373269E+02
  0
VERTEX
  8
0
 62
4
 10
-5.47774661E+01
 20
2.93283608E+02
  0
VERTEX
  8
0
 62
4
 10
-5.48453530E+01
 20
2.93191696E+02
  0
VERTEX
  8
0
 62
4
 10
-5.48863050E+01
 20
2.93098274E+02
  0
VERTEX
  8
0
 62
4
 10
-5.48999924E+01
 20
2.93004094E+02
  0
SEQEND
  8
0
  0
LINE
  8
0
 62
4
 10
-4.80999924E+01
 20
2.91456783E+02
 11
-4.80999924E+01
 21
2.93004094E+02
  0
POLYLINE
  8
0
 62
4
 66
1
  0
VERTEX
  8
0
 62
4
 10
-4.80999924E+01
 20
2.91456789E+02
  0
VERTEX
  8
0
 62
4
 10
-4.81136816E+01
 20
2.91550969E+02
  0
VERTEX
  8
0
 62
4
 10
-4.81546354E+01
 20
2.91644391E+02
  0
VERTEX
  8
0
 62
4
 10
-4.82225241E+01
 20
2.91736303E+02
  0
VERTEX
  8
0
 62
4
 10
-4.83168010E+01
 20
2.91825964E+02
  0
VERTEX
  8
0
 62
4
 10
-4.84367071E+01
 20
2.91912652E+02
  0
VERTEX
  8
0
 62
4
 10
-4.85812770E+01
 20
2.91995670E+02
  0
VERTEX
  8
0
 62
4
 10
-4.87493466E+01
 20
2.92074349E+02
  0
VERTEX
  8
0
 62
4
 10
-4.89395628E+01
 20
2.92148056E+02
  0
VERTEX
  8
0
 62
4
 10
-4.91503941E+01
 20
2.92216197E+02
  0
VERTEX
  8
0
 62
4
 10
-4.93801430E+01
 20
2.92278224E+02
  0
VERTEX
  8
0
 62
4
 10
-4.96269597E+01
 20
2.92333637E+02
  0
VERTEX
  8
0
 62
4
 10
-4.98888569E+01
 20
2.92381991E+02
  0
VERTEX
  8
0
 62
4
 10
-5.01637260E+01
 20
2.92422894E+02
  0
VERTEX
  8
0
 62
4
 10
-5.04493540E+01
 20
2.92456020E+02
  0
VERTEX
  8
0
 62
4
 10
-5.07434411E+01
 20
2.92481100E+02
  0
VERTEX
  8
0
 62
4
 10
-5.10436195E+01
 20
2.92497933E+02
  0
VERTEX
  8
0
 62
4
 10
-5.13474723E+01
 20
2.92506383E+02
  0
VERTEX
  8
0
 62
4
 10
-5.16525532E+01
 20
2.92506383E+02
  0
VERTEX
  8
0
 62
4
 10
-5.19564057E+01
 20
2.92497931E+02
  0
VERTEX
  8
0
 62
4
 10
-5.22565834E+01
 20
2.92481097E+02
  0
VERTEX
  8
0
 62
4
 10
-5.25506696E+01
 20
2.92456016E+02
  0
VERTEX
  8
0
 62
4
 10
-5.28362962E+01
 20
2.92422890E+02
  0
VERTEX
  8
0
 62
4
 10
-5.31111638E+01
 20
2.92381985E+02
  0
VERTEX
  8
0
 62
4
 10
-5.33730591E+01
 20
2.92333630E+02
  0
VERTEX
  8
0
 62
4
 10
-5.36198737E+01
 20
2.92278216E+02
  0
VERTEX
  8
0
 62
4
 10
-5.38496201E+01
 20
2.92216189E+02
  0
VERTEX
  8
0
 62
4
 10
-5.40604488E+01
 20
2.92148047E+02
  0
VERTEX
  8
0
 62
4
 10
-5.42506622E+01
 20
2.92074339E+02
  0
VERTEX
  8
0
 62
4
 10
-5.44187287E+01
 20
2.91995659E+02
  0
VERTEX
  8
0
 62
4
 10
-5.45632954E+01
 20
2.91912641E+02
  0
VERTEX
  8
0
 62
4
 10
-5.46831981E+01
 20
2.91825952E+02
  0
VERTEX
  8
0
 62
4
 10
-5.47774715E+01
 20
2.91736291E+02
  0
VERTEX
  8
0
 62
4
 10
-5.48453566E+01
 20
2.91644379E+02
  0
VERTEX
  8
0
 62
4
 10
-5.48863068E+01
 20
2.91550957E+02
  0
VERTEX
  8
0
 62
4
 10
-5.48999924E+01
 20
2.91456777E+02
  0
SEQEND
  8
0
  0
ARC
  8
0
 62
4
 10
-5.56604923E+01
 20
3.04311200E+02
 40
1.42127873E+01
 50
2.79930719E+02
 51
2.94652135E+02
  0
ARC
  8
0
 62
4
 10
-4.73394922E+01
 20
3.04311201E+02
 40
1.42127883E+01
 50
2.45347865E+02
 51
2.60069281E+02
  0
LINE
  8
0
  6
CENTER
 62
6
 10
-6.89999924E+01
 20
2.93955151E+02
 11
-6.39999924E+01
 21
2.93955151E+02
  0
LINE
  8
0
  6
CENTER
 62
6
 10
-5.89999924E+01
 20
2.95373592E+02
 11
-5.89999924E+01
 21
2.90373592E+02
  0
LINE
  8
0
  6
CENTER
 62
6
 10
-6.14999924E+01
 20
2.92873592E+02
 11
-5.64999924E+01
 21
2.92873592E+02
  0
LINE
  8
0
  6
CENTER
 62
6
 10
-5.14999924E+01
 20
2.96455151E+02
 11
-5.14999924E+01
 21
2.91455151E+02
  0
LINE
  8
0
  6
CENTER
 62
6
 10
-5.39999924E+01
 20
2.93955151E+02
 11
-4.89999924E+01
 21
2.93955151E+02
  0
LINE
  8
0
 62
4
 10
-5.50982248E+01
 20
2.90401456E+02
 11
-5.37404226E+01
 21
2.90401456E+02
  0
LINE
  8
0
 62
4
 10
-5.49553771E+01
 20
2.90551163E+02
 11
-5.43240822E+01
 21
2.90551163E+02
  0
LINE
  8
0
 62
4
 10
-4.80999924E+01
 20
2.92131951E+02
 11
-4.39999924E+01
 21
2.92131951E+02
  0
LINE
  8
0
 62
4
 10
-4.92595621E+01
 20
2.90401456E+02
 11
-4.39999924E+01
 21
2.90401456E+02
  0
LINE
  8
0
 62
7
 10
-5.89999924E+01
 20
3.12100006E+02
 11
-8.49999924E+01
 21
3.12100006E+02
  0
LINE
  8
0
 62
7
 10
-5.89999924E+01
 20
3.14499969E+02
 11
-8.49999924E+01
 21
3.14499969E+02
  0
LINE
  8
0
 62
7
 10
-7.39999924E+01
 20
3.04899994E+02
 11
-8.49999924E+01
 21
3.04899994E+02
  0
LINE
  8
0
 62
7
 10
-1.50000076E+01
 20
2.56100021E+02
 11
-8.49999924E+01
 21
2.56100021E+02
  0
LINE
  8
0
 62
7
 10
-1.50000076E+01
 20
2.48900009E+02
 11
-8.49999924E+01
 21
2.48900009E+02
  0
LINE
  8
0
 62
7
 10
-1.50000076E+01
 20
2.46500031E+02
 11
-8.49999924E+01
 21
2.46500031E+02
  0
LINE
  8
0
 62
4
 10
-9.60000966E+01
 20
-2.53358818E+02
 11
-9.10000966E+01
 21
-2.53358809E+02
  0
LINE
  8
0
 62
4
 10
-7.80000005E+01
 20
-2.98696990E+02
 11
-4.50000005E+01
 21
-2.98696931E+02
  0
LINE
  8
0
 62
4
 10
-4.50000005E+01
 20
-3.00500031E+02
 11
-4.50000005E+01
 21
-2.97231815E+02
  0
LINE
  8
0
 62
4
 10
-7.80000005E+01
 20
-3.00500031E+02
 11
-7.80000005E+01
 21
-2.97231874E+02
  0
LINE
  8
0
 62
4
 10
-4.20000103E+01
 20
-2.92482480E+02
 11
-4.50000005E+01
 21
-2.97231815E+02
  0
LINE
  8
0
 62
4
 10
-8.10000103E+01
 20
-2.92482550E+02
 11
-7.80000005E+01
 21
-2.97231874E+02
  0
POLYLINE
  8
0
 62
4
 66
1
  0
VERTEX
  8
0
 62
4
 10
-7.30000193E+01
 20
-2.85228316E+02
  0
VERTEX
  8
0
 62
4
 10
-7.29848031E+01
 20
-2.85557946E+02
  0
VERTEX
  8
0
 62
4
 10
-7.29392603E+01
 20
-2.85885068E+02
  0
VERTEX
  8
0
 62
4
 10
-7.28637374E+01
 20
-2.86207191E+02
  0
VERTEX
  8
0
 62
4
 10
-7.27588094E+01
 20
-2.86521866E+02
  0
VERTEX
  8
0
 62
4
 10
-7.26252747E+01
 20
-2.86826696E+02
  0
VERTEX
  8
0
 62
4
 10
-7.24641496E+01
 20
-2.87119362E+02
  0
VERTEX
  8
0
 62
4
 10
-7.22766603E+01
 20
-2.87397636E+02
  0
VERTEX
  8
0
 62
4
 10
-7.20642339E+01
 20
-2.87659401E+02
  0
VERTEX
  8
0
 62
4
 10
-7.18284869E+01
 20
-2.87902665E+02
  0
VERTEX
  8
0
 62
4
 10
-7.15712136E+01
 20
-2.88125575E+02
  0
VERTEX
  8
0
 62
4
 10
-7.12943720E+01
 20
-2.88326436E+02
  0
VERTEX
  8
0
 62
4
 10
-7.10000689E+01
 20
-2.88503719E+02
  0
VERTEX
  8
0
 62
4
 10
-7.06905443E+01
 20
-2.88656075E+02
  0
VERTEX
  8
0
 62
4
 10
-7.03681537E+01
 20
-2.88782344E+02
  0
VERTEX
  8
0
 62
4
 10
-7.00353508E+01
 20
-2.88881565E+02
  0
VERTEX
  8
0
 62
4
 10
-6.96946684E+01
 20
-2.88952983E+02
  0
VERTEX
  8
0
 62
4
 10
-6.93486993E+01
 20
-2.88996054E+02
  0
VERTEX
  8
0
 62
4
 10
-6.90000766E+01
 20
-2.89010451E+02
  0
VERTEX
  8
0
 62
4
 10
-6.86514534E+01
 20
-2.88996065E+02
  0
VERTEX
  8
0
 62
4
 10
-6.83054830E+01
 20
-2.88953004E+02
  0
VERTEX
  8
0
 62
4
 10
-6.79647984E+01
 20
-2.88881596E+02
  0
VERTEX
  8
0
 62
4
 10
-6.76319925E+01
 20
-2.88782385E+02
  0
VERTEX
  8
0
 62
4
 10
-6.73095982E+01
 20
-2.88656126E+02
  0
VERTEX
  8
0
 62
4
 10
-6.70000689E+01
 20
-2.88503780E+02
  0
VERTEX
  8
0
 62
4
 10
-6.67057605E+01
 20
-2.88326506E+02
  0
VERTEX
  8
0
 62
4
 10
-6.64289127E+01
 20
-2.88125653E+02
  0
VERTEX
  8
0
 62
4
 10
-6.61716327E+01
 20
-2.87902750E+02
  0
VERTEX
  8
0
 62
4
 10
-6.59358783E+01
 20
-2.87659494E+02
  0
VERTEX
  8
0
 62
4
 10
-6.57234440E+01
 20
-2.87397735E+02
  0
VERTEX
  8
0
 62
4
 10
-6.55359463E+01
 20
-2.87119467E+02
  0
VERTEX
  8
0
 62
4
 10
-6.53748124E+01
 20
-2.86826806E+02
  0
VERTEX
  8
0
 62
4
 10
-6.52412684E+01
 20
-2.86521980E+02
  0
VERTEX
  8
0
 62
4
 10
-6.51363308E+01
 20
-2.86207308E+02
  0
VERTEX
  8
0
 62
4
 10
-6.50607982E+01
 20
-2.85885187E+02
  0
VERTEX
  8
0
 62
4
 10
-6.50152455E+01
 20
-2.85558067E+02
  0
VERTEX
  8
0
 62
4
 10
-6.50000193E+01
 20
-2.85228438E+02
  0
VERTEX
  8
0
 62
4
 10
-6.50152355E+01
 20
-2.84898808E+02
  0
VERTEX
  8
0
 62
4
 10
-6.50607783E+01
 20
-2.84571686E+02
  0
VERTEX
  8
0
 62
4
 10
-6.51363012E+01
 20
-2.84249563E+02
  0
VERTEX
  8
0
 62
4
 10
-6.52412292E+01
 20
-2.83934888E+02
  0
VERTEX
  8
0
 62
4
 10
-6.53747639E+01
 20
-2.83630058E+02
  0
VERTEX
  8
0
 62
4
 10
-6.55358891E+01
 20
-2.83337392E+02
  0
VERTEX
  8
0
 62
4
 10
-6.57233783E+01
 20
-2.83059118E+02
  0
VERTEX
  8
0
 62
4
 10
-6.59358047E+01
 20
-2.82797353E+02
  0
VERTEX
  8
0
 62
4
 10
-6.61715517E+01
 20
-2.82554089E+02
  0
VERTEX
  8
0
 62
4
 10
-6.64288250E+01
 20
-2.82331179E+02
  0
VERTEX
  8
0
 62
4
 10
-6.67056666E+01
 20
-2.82130318E+02
  0
VERTEX
  8
0
 62
4
 10
-6.69999697E+01
 20
-2.81953035E+02
  0
VERTEX
  8
0
 62
4
 10
-6.73094944E+01
 20
-2.81800679E+02
  0
VERTEX
  8
0
 62
4
 10
-6.76318849E+01
 20
-2.81674410E+02
  0
VERTEX
  8
0
 62
4
 10
-6.79646878E+01
 20
-2.81575189E+02
  0
VERTEX
  8
0
 62
4
 10
-6.83053702E+01
 20
-2.81503771E+02
  0
VERTEX
  8
0
 62
4
 10
-6.86513393E+01
 20
-2.81460700E+02
  0
VERTEX
  8
0
 62
4
 10
-6.89999620E+01
 20
-2.81446303E+02
  0
VERTEX
  8
0
 62
4
 10
-6.93485852E+01
 20
-2.81460689E+02
  0
VERTEX
  8
0
 62
4
 10
-6.96945556E+01
 20
-2.81503750E+02
  0
VERTEX
  8
0
 62
4
 10
-7.00352402E+01
 20
-2.81575158E+02
  0
VERTEX
  8
0
 62
4
 10
-7.03680461E+01
 20
-2.81674369E+02
  0
VERTEX
  8
0
 62
4
 10
-7.06904404E+01
 20
-2.81800628E+02
  0
VERTEX
  8
0
 62
4
 10
-7.09999697E+01
 20
-2.81952974E+02
  0
VERTEX
  8
0
 62
4
 10
-7.12942781E+01
 20
-2.82130248E+02
  0
VERTEX
  8
0
 62
4
 10
-7.15711259E+01
 20
-2.82331101E+02
  0
VERTEX
  8
0
 62
4
 10
-7.18284059E+01
 20
-2.82554004E+02
  0
VERTEX
  8
0
 62
4
 10
-7.20641603E+01
 20
-2.82797260E+02
  0
VERTEX
  8
0
 62
4
 10
-7.22765946E+01
 20
-2.83059019E+02
  0
VERTEX
  8
0
 62
4
 10
-7.24640923E+01
 20
-2.83337287E+02
  0
VERTEX
  8
0
 62
4
 10
-7.26252262E+01
 20
-2.83629948E+02
  0
VERTEX
  8
0
 62
4
 10
-7.27587702E+01
 20
-2.83934774E+02
  0
VERTEX
  8
0
 62
4
 10
-7.28637078E+01
 20
-2.84249446E+02
  0
VERTEX
  8
0
 62
4
 10
-7.29392404E+01
 20
-2.84571567E+02
  0
VERTEX
  8
0
 62
4
 10
-7.29847931E+01
 20
-2.84898687E+02
  0
VERTEX
  8
0
 62
4
 10
-7.30000193E+01
 20
-2.85228316E+02
  0
SEQEND
  8
0
  0
POLYLINE
  8
0
 62
4
 66
1
  0
VERTEX
  8
0
 62
4
 10
-7.24000204E+01
 20
-2.84636748E+02
  0
VERTEX
  8
0
 62
4
 10
-7.23870875E+01
 20
-2.84919403E+02
  0
VERTEX
  8
0
 62
4
 10
-7.23483770E+01
 20
-2.85199907E+02
  0
VERTEX
  8
0
 62
4
 10
-7.22841834E+01
 20
-2.85476126E+02
  0
VERTEX
  8
0
 62
4
 10
-7.21949954E+01
 20
-2.85745957E+02
  0
VERTEX
  8
0
 62
4
 10
-7.20814917E+01
 20
-2.86007346E+02
  0
VERTEX
  8
0
 62
4
 10
-7.19445361E+01
 20
-2.86258305E+02
  0
VERTEX
  8
0
 62
4
 10
-7.17851710E+01
 20
-2.86496924E+02
  0
VERTEX
  8
0
 62
4
 10
-7.16046093E+01
 20
-2.86721386E+02
  0
VERTEX
  8
0
 62
4
 10
-7.14042250E+01
 20
-2.86929983E+02
  0
VERTEX
  8
0
 62
4
 10
-7.11855433E+01
 20
-2.87121127E+02
  0
VERTEX
  8
0
 62
4
 10
-7.09502284E+01
 20
-2.87293365E+02
  0
VERTEX
  8
0
 62
4
 10
-7.07000713E+01
 20
-2.87445384E+02
  0
VERTEX
  8
0
 62
4
 10
-7.04369757E+01
 20
-2.87576028E+02
  0
VERTEX
  8
0
 62
4
 10
-7.01629441E+01
 20
-2.87684304E+02
  0
VERTEX
  8
0
 62
4
 10
-6.98800619E+01
 20
-2.87769386E+02
  0
VERTEX
  8
0
 62
4
 10
-6.95904821E+01
 20
-2.87830627E+02
  0
VERTEX
  8
0
 62
4
 10
-6.92964084E+01
 20
-2.87867561E+02
  0
VERTEX
  8
0
 62
4
 10
-6.90000791E+01
 20
-2.87879907E+02
  0
VERTEX
  8
0
 62
4
 10
-6.87037494E+01
 20
-2.87867572E+02
  0
VERTEX
  8
0
 62
4
 10
-6.84096744E+01
 20
-2.87830648E+02
  0
VERTEX
  8
0
 62
4
 10
-6.81200924E+01
 20
-2.87769417E+02
  0
VERTEX
  8
0
 62
4
 10
-6.78372071E+01
 20
-2.87684346E+02
  0
VERTEX
  8
0
 62
4
 10
-6.75631715E+01
 20
-2.87576080E+02
  0
VERTEX
  8
0
 62
4
 10
-6.73000713E+01
 20
-2.87445446E+02
  0
VERTEX
  8
0
 62
4
 10
-6.70499086E+01
 20
-2.87293435E+02
  0
VERTEX
  8
0
 62
4
 10
-6.68145875E+01
 20
-2.87121206E+02
  0
VERTEX
  8
0
 62
4
 10
-6.65958989E+01
 20
-2.86930070E+02
  0
VERTEX
  8
0
 62
4
 10
-6.63955071E+01
 20
-2.86721480E+02
  0
VERTEX
  8
0
 62
4
 10
-6.62149371E+01
 20
-2.86497025E+02
  0
VERTEX
  8
0
 62
4
 10
-6.60555634E+01
 20
-2.86258412E+02
  0
VERTEX
  8
0
 62
4
 10
-6.59185987E+01
 20
-2.86007458E+02
  0
VERTEX
  8
0
 62
4
 10
-6.58050856E+01
 20
-2.85746073E+02
  0
VERTEX
  8
0
 62
4
 10
-6.57158878E+01
 20
-2.85476245E+02
  0
VERTEX
  8
0
 62
4
 10
-6.56516842E+01
 20
-2.85200029E+02
  0
VERTEX
  8
0
 62
4
 10
-6.56129635E+01
 20
-2.84919526E+02
  0
VERTEX
  8
0
 62
4
 10
-6.56000204E+01
 20
-2.84636872E+02
  0
VERTEX
  8
0
 62
4
 10
-6.56129533E+01
 20
-2.84354217E+02
  0
VERTEX
  8
0
 62
4
 10
-6.56516638E+01
 20
-2.84073713E+02
  0
VERTEX
  8
0
 62
4
 10
-6.57158574E+01
 20
-2.83797494E+02
  0
VERTEX
  8
0
 62
4
 10
-6.58050454E+01
 20
-2.83527663E+02
  0
VERTEX
  8
0
 62
4
 10
-6.59185491E+01
 20
-2.83266274E+02
  0
VERTEX
  8
0
 62
4
 10
-6.60555047E+01
 20
-2.83015315E+02
  0
VERTEX
  8
0
 62
4
 10
-6.62148698E+01
 20
-2.82776696E+02
  0
VERTEX
  8
0
 62
4
 10
-6.63954315E+01
 20
-2.82552234E+02
  0
VERTEX
  8
0
 62
4
 10
-6.65958158E+01
 20
-2.82343637E+02
  0
VERTEX
  8
0
 62
4
 10
-6.68144975E+01
 20
-2.82152493E+02
  0
VERTEX
  8
0
 62
4
 10
-6.70498124E+01
 20
-2.81980255E+02
  0
VERTEX
  8
0
 62
4
 10
-6.72999695E+01
 20
-2.81828236E+02
  0
VERTEX
  8
0
 62
4
 10
-6.75630651E+01
 20
-2.81697592E+02
  0
VERTEX
  8
0
 62
4
 10
-6.78370967E+01
 20
-2.81589316E+02
  0
VERTEX
  8
0
 62
4
 10
-6.81199789E+01
 20
-2.81504234E+02
  0
VERTEX
  8
0
 62
4
 10
-6.84095588E+01
 20
-2.81442993E+02
  0
VERTEX
  8
0
 62
4
 10
-6.87036324E+01
 20
-2.81406059E+02
  0
VERTEX
  8
0
 62
4
 10
-6.89999617E+01
 20
-2.81393713E+02
  0
VERTEX
  8
0
 62
4
 10
-6.92962914E+01
 20
-2.81406048E+02
  0
VERTEX
  8
0
 62
4
 10
-6.95903664E+01
 20
-2.81442972E+02
  0
VERTEX
  8
0
 62
4
 10
-6.98799484E+01
 20
-2.81504203E+02
  0
VERTEX
  8
0
 62
4
 10
-7.01628337E+01
 20
-2.81589274E+02
  0
VERTEX
  8
0
 62
4
 10
-7.04368693E+01
 20
-2.81697540E+02
  0
VERTEX
  8
0
 62
4
 10
-7.06999695E+01
 20
-2.81828174E+02
  0
VERTEX
  8
0
 62
4
 10
-7.09501322E+01
 20
-2.81980185E+02
  0
VERTEX
  8
0
 62
4
 10
-7.11854533E+01
 20
-2.82152414E+02
  0
VERTEX
  8
0
 62
4
 10
-7.14041419E+01
 20
-2.82343550E+02
  0
VERTEX
  8
0
 62
4
 10
-7.16045338E+01
 20
-2.82552140E+02
  0
VERTEX
  8
0
 62
4
 10
-7.17851037E+01
 20
-2.82776595E+02
  0
VERTEX
  8
0
 62
4
 10
-7.19444774E+01
 20
-2.83015208E+02
  0
VERTEX
  8
0
 62
4
 10
-7.20814421E+01
 20
-2.83266162E+02
  0
VERTEX
  8
0
 62
4
 10
-7.21949552E+01
 20
-2.83527547E+02
  0
VERTEX
  8
0
 62
4
 10
-7.22841530E+01
 20
-2.83797375E+02
  0
VERTEX
  8
0
 62
4
 10
-7.23483566E+01
 20
-2.84073591E+02
  0
VERTEX
  8
0
 62
4
 10
-7.23870773E+01
 20
-2.84354094E+02
  0
VERTEX
  8
0
 62
4
 10
-7.24000204E+01
 20
-2.84636748E+02
  0
SEQEND
  8
0
  0
POLYLINE
  8
0
 62
4
 66
1
  0
VERTEX
  8
0
 62
4
 10
-7.24000193E+01
 20
-2.85228326E+02
  0
VERTEX
  8
0
 62
4
 10
-7.23870496E+01
 20
-2.85508899E+02
  0
VERTEX
  8
0
 62
4
 10
-7.23482310E+01
 20
-2.85787331E+02
  0
VERTEX
  8
0
 62
4
 10
-7.22838597E+01
 20
-2.86061498E+02
  0
VERTEX
  8
0
 62
4
 10
-7.21944270E+01
 20
-2.86329306E+02
  0
VERTEX
  8
0
 62
4
 10
-7.20806154E+01
 20
-2.86588713E+02
  0
VERTEX
  8
0
 62
4
 10
-7.19432936E+01
 20
-2.86837737E+02
  0
VERTEX
  8
0
 62
4
 10
-7.17835094E+01
 20
-2.87074480E+02
  0
VERTEX
  8
0
 62
4
 10
-7.16024824E+01
 20
-2.87297133E+02
  0
VERTEX
  8
0
 62
4
 10
-7.14015941E+01
 20
-2.87503999E+02
  0
VERTEX
  8
0
 62
4
 10
-7.11823776E+01
 20
-2.87693497E+02
  0
VERTEX
  8
0
 62
4
 10
-7.09465059E+01
 20
-2.87864182E+02
  0
VERTEX
  8
0
 62
4
 10
-7.06957792E+01
 20
-2.88014752E+02
  0
VERTEX
  8
0
 62
4
 10
-7.04321109E+01
 20
-2.88144056E+02
  0
VERTEX
  8
0
 62
4
 10
-7.01575132E+01
 20
-2.88251109E+02
  0
VERTEX
  8
0
 62
4
 10
-6.98740818E+01
 20
-2.88335093E+02
  0
VERTEX
  8
0
 62
4
 10
-6.95839798E+01
 20
-2.88395368E+02
  0
VERTEX
  8
0
 62
4
 10
-6.92894212E+01
 20
-2.88431473E+02
  0
VERTEX
  8
0
 62
4
 10
-6.89926539E+01
 20
-2.88443133E+02
  0
VERTEX
  8
0
 62
4
 10
-6.86959429E+01
 20
-2.88430258E+02
  0
VERTEX
  8
0
 62
4
 10
-6.84015525E+01
 20
-2.88392948E+02
  0
VERTEX
  8
0
 62
4
 10
-6.81117294E+01
 20
-2.88331486E+02
  0
VERTEX
  8
0
 62
4
 10
-6.78286855E+01
 20
-2.88246343E+02
  0
VERTEX
  8
0
 62
4
 10
-6.75545809E+01
 20
-2.88138167E+02
  0
VERTEX
  8
0
 62
4
 10
-6.72915076E+01
 20
-2.88007784E+02
  0
VERTEX
  8
0
 62
4
 10
-6.70414731E+01
 20
-2.87856190E+02
  0
VERTEX
  8
0
 62
4
 10
-6.68063858E+01
 20
-2.87684541E+02
  0
VERTEX
  8
0
 62
4
 10
-6.65880396E+01
 20
-2.87494147E+02
  0
VERTEX
  8
0
 62
4
 10
-6.63881011E+01
 20
-2.87286461E+02
  0
VERTEX
  8
0
 62
4
 10
-6.62080960E+01
 20
-2.87063069E+02
  0
VERTEX
  8
0
 62
4
 10
-6.60493982E+01
 20
-2.86825674E+02
  0
VERTEX
  8
0
 62
4
 10
-6.59132187E+01
 20
-2.86576090E+02
  0
VERTEX
  8
0
 62
4
 10
-6.58005969E+01
 20
-2.86316220E+02
  0
VERTEX
  8
0
 62
4
 10
-6.57123922E+01
 20
-2.86048048E+02
  0
VERTEX
  8
0
 62
4
 10
-6.56492778E+01
 20
-2.85773621E+02
  0
VERTEX
  8
0
 62
4
 10
-6.56117354E+01
 20
-2.85495032E+02
  0
VERTEX
  8
0
 62
4
 10
-6.56000514E+01
 20
-2.85214408E+02
  0
VERTEX
  8
0
 62
4
 10
-6.56143151E+01
 20
-2.84933891E+02
  0
SEQEND
  8
0
  0
LINE
  8
0
  6
CENTER
 62
6
 10
-6.90000096E+01
 20
-2.90651761E+02
 11
-6.90000326E+01
 21
-2.77851761E+02
  0
LINE
  8
0
  6
CENTER
 62
6
 10
-7.54000211E+01
 20
-2.84251773E+02
 11
-6.26000211E+01
 21
-2.84251750E+02
  0
LINE
  8
0
 62
4
 10
-7.65000984E+01
 20
-2.52344817E+02
 11
-6.15000984E+01
 21
-2.52344790E+02
  0
LINE
  8
0
 62
4
 10
-7.85000571E+01
 20
-2.75331648E+02
 11
-5.95000571E+01
 21
-2.75331614E+02
  0
LINE
  8
0
 62
4
 10
-8.10000319E+01
 20
-2.80476157E+02
 11
-8.10000103E+01
 21
-2.92482550E+02
  0
LINE
  8
0
 62
4
 10
-7.85000571E+01
 20
-2.75331648E+02
 11
-7.85000506E+01
 21
-2.78976132E+02
  0
LINE
  8
0
 62
4
 10
-6.15000984E+01
 20
-2.52344790E+02
 11
-6.15000571E+01
 21
-2.75331618E+02
  0
LINE
  8
0
 62
4
 10
-7.65000984E+01
 20
-2.52344790E+02
 11
-7.65000571E+01
 21
-2.75331645E+02
  0
LINE
  8
0
 62
4
 10
-5.95000571E+01
 20
-2.75331614E+02
 11
-5.95000506E+01
 21
-2.78976118E+02
  0
LINE
  8
0
 62
4
 10
-7.65000576E+01
 20
-2.75037262E+02
 11
-6.15000576E+01
 21
-2.75037235E+02
  0
LINE
  8
0
 62
4
 10
-4.20000319E+01
 20
-2.80476087E+02
 11
-4.20000103E+01
 21
-2.92482480E+02
  0
LINE
  8
0
 62
4
 10
-7.80000005E+01
 20
-2.97231874E+02
 11
-4.50000005E+01
 21
-2.97231815E+02
  0
LINE
  8
0
 62
4
 10
-8.10000103E+01
 20
-2.92482550E+02
 11
-4.20000103E+01
 21
-2.92482480E+02
  0
LINE
  8
0
 62
4
 10
-8.10000129E+01
 20
-2.91064272E+02
 11
-4.20000129E+01
 21
-2.91064202E+02
  0
LINE
  8
0
 62
4
 10
-7.95000346E+01
 20
-2.78976154E+02
 11
-4.35000346E+01
 21
-2.78976089E+02
  0
LINE
  8
0
 62
4
 10
-9.60000940E+01
 20
-2.54797775E+02
 11
-9.10000940E+01
 21
-2.54797766E+02
  0
LINE
  8
0
 62
4
 10
-9.60000813E+01
 20
-2.61889164E+02
 11
-9.10000813E+01
 21
-2.61889155E+02
  0
LINE
  8
0
 62
4
 10
-9.60000711E+01
 20
-2.67560507E+02
 11
-9.10000711E+01
 21
-2.67560498E+02
  0
LINE
  8
0
 62
4
 10
-8.55000633E+01
 20
-2.67453340E+02
 11
-7.70000633E+01
 21
-2.67453325E+02
  0
LINE
  8
0
 62
4
 10
-7.65000964E+01
 20
-2.53453331E+02
 11
-8.55000964E+01
 21
-2.53453347E+02
  0
LINE
  8
0
 62
4
 10
-8.60000955E+01
 20
-2.53953348E+02
 11
-8.60000722E+01
 21
-2.66953348E+02
  0
LINE
  8
0
 62
4
 10
-9.60000966E+01
 20
-2.53358818E+02
 11
-9.60000711E+01
 21
-2.67560507E+02
  0
LINE
  8
0
 62
4
 10
-9.10000966E+01
 20
-2.53358818E+02
 11
-9.10000711E+01
 21
-2.67560507E+02
  0
LINE
  8
0
 62
4
 10
-9.10000950E+01
 20
-2.54203340E+02
 11
-8.60000950E+01
 21
-2.54203331E+02
  0
LINE
  8
0
 62
4
 10
-9.10000726E+01
 20
-2.66703340E+02
 11
-8.60000726E+01
 21
-2.66703331E+02
  0
LINE
  8
0
 62
4
 10
-8.95000950E+01
 20
-2.54203337E+02
 11
-8.95000726E+01
 21
-2.66703337E+02
  0
LINE
  8
0
 62
4
 10
-8.95000941E+01
 20
-2.54703337E+02
 11
-8.60000941E+01
 21
-2.54703331E+02
  0
LINE
  8
0
 62
4
 10
-8.95000735E+01
 20
-2.66203337E+02
 11
-8.60000735E+01
 21
-2.66203331E+02
  0
ARC
  8
0
 62
4
 10
-8.55025704E+01
 20
-2.53950872E+02
 40
4.97531232E-01
 50
8.97150889E+01
 51
1.80285117E+02
  0
ARC
  8
0
 62
4
 10
-7.69975875E+01
 20
-2.67950850E+02
 40
4.97531232E-01
 50
3.59715089E+02
 51
9.02851166E+01
  0
ARC
  8
0
 62
4
 10
-4.34975528E+01
 20
-2.80473610E+02
 40
1.49752302E+00
 50
3.59905254E+02
 51
9.00949513E+01
  0
ARC
  8
0
 62
4
 10
-8.54975769E+01
 20
-2.66950853E+02
 40
5.02493390E-01
 50
1.80283706E+02
 51
2.69716500E+02
  0
ARC
  8
0
 62
4
 10
-7.95025109E+01
 20
-2.80473675E+02
 40
1.49752302E+00
 50
8.99052542E+01
 51
1.80094952E+02
  0
LINE
  8
0
 62
6
 10
-6.72850831E+01
 20
-2.86351745E+02
 11
-7.07149577E+01
 21
-2.82921875E+02
  0
LINE
  8
0
 62
6
 10
-7.07149553E+01
 20
-2.86351747E+02
 11
-6.72850856E+01
 21
-2.82921872E+02
  0
ARC
  8
0
 62
4
 10
-3.49062936E+02
 20
-2.60453331E+02
 40
7.00000000E+00
 50
7.79182752E+01
 51
1.00872928E+02
  0
ARC
  8
0
 62
4
 10
-3.49062936E+02
 20
-2.60453331E+02
 40
7.00000000E+00
 50
1.17236957E+02
 51
1.40081725E+02
  0
ARC
  8
0
 62
4
 10
-3.31778532E+02
 20
-2.81471152E+02
 40
2.49501993E+00
 50
1.88855230E+01
 51
1.09114477E+02
  0
ARC
  8
0
 62
4
 10
-3.49746454E+02
 20
-2.87663294E+02
 40
2.50001642E+00
 50
1.09000376E+02
 51
1.98999623E+02
  0
CIRCLE
  8
0
 62
4
 10
-3.49062936E+02
 20
-2.60453331E+02
 40
3.75000000E+00
  0
ARC
  8
0
 62
4
 10
-3.26457138E+02
 20
-2.82390322E+02
 40
9.96609194E-01
 50
3.15516728E+01
 51
1.09414475E+02
  0
ARC
  8
0
 62
4
 10
-3.35651090E+02
 20
-2.88076392E+02
 40
1.18067922E+01
 50
6.08754926E+00
 51
3.17195580E+01
  0
ARC
  8
0
 62
4
 10
-3.24898795E+02
 20
-2.86931064E+02
 40
1.00271607E+00
 50
2.88866852E+02
 51
6.16700057E+00
  0
LINE
  8
0
 62
4
 10
-3.28619498E+02
 20
-2.81446303E+02
 11
-3.26014953E+02
 21
-2.89010451E+02
  0
LINE
  8
0
  6
CENTER
 62
6
 10
-3.57507634E+02
 20
-2.95623768E+02
 11
-3.21644114E+02
 21
-2.83274968E+02
  0
LINE
  8
0
 62
4
 10
-3.24574547E+02
 20
-2.87879907E+02
 11
-3.26210294E+02
 21
-2.88443140E+02
  0
LINE
  8
0
 62
4
 10
-3.28424157E+02
 20
-2.82013614E+02
 11
-3.26788410E+02
 21
-2.81450381E+02
  0
LINE
  8
0
 62
4
 10
-3.26487712E+02
 20
-2.89173235E+02
 11
-3.26014953E+02
 21
-2.89010451E+02
  0
LINE
  8
0
 62
4
 10
-3.29092257E+02
 20
-2.81609087E+02
 11
-3.28619498E+02
 21
-2.81446303E+02
  0
LINE
  8
0
 62
4
 10
-3.48551642E+02
 20
-2.53936818E+02
 11
-3.43928056E+02
 21
-2.52344790E+02
  0
LINE
  8
0
 62
4
 10
-3.51511053E+02
 20
-2.53358818E+02
 11
-3.44141046E+02
 21
-2.54797775E+02
  0
LINE
  8
0
 62
4
 10
-3.53991027E+02
 20
-2.66121550E+02
 11
-3.46621020E+02
 21
-2.67560507E+02
  0
LINE
  8
0
 62
4
 10
-3.44141046E+02
 20
-2.54797775E+02
 11
-3.41699285E+02
 21
-2.61889164E+02
  0
LINE
  8
0
 62
4
 10
-3.56432788E+02
 20
-2.59030161E+02
 11
-3.53991027E+02
 21
-2.66121550E+02
  0
LINE
  8
0
 62
4
 10
-3.56432788E+02
 20
-2.59030161E+02
 11
-3.51511053E+02
 21
-2.53358818E+02
  0
LINE
  8
0
 62
4
 10
-3.46621020E+02
 20
-2.67560507E+02
 11
-3.41699285E+02
 21
-2.61889164E+02
  0
LINE
  8
0
 62
4
 10
-3.37082387E+02
 20
-2.89119602E+02
 11
-3.36268466E+02
 21
-2.91483398E+02
  0
LINE
  8
0
 62
4
 10
-3.40864461E+02
 20
-2.90421874E+02
 11
-3.40050540E+02
 21
-2.92785671E+02
  0
LINE
  8
0
 62
4
 10
-3.40050540E+02
 20
-2.92785671E+02
 11
-3.36268466E+02
 21
-2.91483398E+02
  0
LINE
  8
0
 62
4
 10
-3.40864461E+02
 20
-2.90421874E+02
 11
-3.37082387E+02
 21
-2.89119602E+02
  0
LINE
  8
0
 62
4
 10
-3.43075092E+02
 20
-2.96999969E+02
 11
-3.25836576E+02
 21
-2.91064272E+02
  0
LINE
  8
0
 62
4
 10
-3.25348224E+02
 20
-2.92482550E+02
 11
-3.26810686E+02
 21
-2.96999969E+02
  0
LINE
  8
0
 62
4
 10
-3.52110271E+02
 20
-2.88477204E+02
 11
-3.49175648E+02
 21
-2.96999969E+02
  0
LINE
  8
0
 62
4
 10
-3.29417826E+02
 20
-2.80663568E+02
 11
-3.25348224E+02
 21
-2.92482550E+02
  0
LINE
  8
0
 62
4
 10
-3.38467762E+02
 20
-2.96999969E+02
 11
-3.25348224E+02
 21
-2.92482550E+02
  0
LINE
  8
0
 62
4
 10
-3.50560395E+02
 20
-2.85299487E+02
 11
-3.32595542E+02
 21
-2.79113692E+02
  0
LINE
  8
0
 62
4
 10
-3.51862668E+02
 20
-2.81517413E+02
 11
-3.50560395E+02
 21
-2.85299487E+02
  0
LINE
  8
0
 62
4
 10
-3.33897815E+02
 20
-2.75331618E+02
 11
-3.32595542E+02
 21
-2.79113692E+02
  0
LINE
  8
0
 62
4
 10
-3.50297199E+02
 20
-2.79920758E+02
 11
-3.36114420E+02
 21
-2.75037235E+02
  0
LINE
  8
0
 62
4
 10
-3.51862668E+02
 20
-2.81517413E+02
 11
-3.33897815E+02
 21
-2.75331618E+02
  0
LINE
  8
0
 62
4
 10
-3.58110835E+02
 20
-2.57228312E+02
 11
-3.49971631E+02
 21
-2.80866276E+02
  0
LINE
  8
0
 62
4
 10
-3.43928056E+02
 20
-2.52344790E+02
 11
-3.35788852E+02
 21
-2.75982754E+02
  0
LINE
  8
0
 62
4
 10
-3.58110835E+02
 20
-2.57228312E+02
 11
-3.53487249E+02
 21
-2.55636284E+02
  0
LINE
  8
0
 62
4
 10
-3.57148086E+02
 20
-2.90740673E+02
 11
-3.60197464E+02
 21
-2.96999969E+02
  0
LINE
  8
0
 62
4
 10
-3.49218199E+02
 20
-2.96999969E+02
 11
-3.49180158E+02
 21
-2.96986871E+02
  0
LINE
  8
0
 62
4
 10
-3.57148086E+02
 20
-2.90740673E+02
 11
-3.51947487E+02
 21
-2.88949963E+02
  0
LINE
  8
0
 62
4
 10
1.34934594E+02
 20
-2.80238787E+02
 11
1.40872450E+02
 21
-2.82283355E+02
  0
LINE
  8
0
 62
4
 10
1.40872450E+02
 20
-2.82283355E+02
 11
1.40887269E+02
 21
-2.83346078E+02
  0
LINE
  8
0
 62
4
 10
1.34268639E+02
 20
-2.81067101E+02
 11
1.34934594E+02
 21
-2.80238787E+02
  0
LINE
  8
0
  6
CENTER
 62
6
 10
1.38600394E+02
 20
-2.79237207E+02
 11
1.37092857E+02
 21
-2.83615412E+02
  0
ARC
  8
0
 62
4
 10
1.45067642E+02
 20
-2.60454956E+02
 40
7.00000000E+00
 50
3.99182754E+01
 51
1.02081725E+02
  0
LINE
  8
0
 62
4
 10
1.52760162E+02
 20
-2.90607105E+02
 11
1.47947472E+02
 21
-2.88949963E+02
  0
LINE
  8
0
 62
4
 10
1.53327610E+02
 20
-2.91109203E+02
 11
1.56197449E+02
 21
-2.96999969E+02
  0
LINE
  8
0
 62
4
 10
1.39928041E+02
 20
-2.52344790E+02
 11
1.54110819E+02
 21
-2.57228312E+02
  0
LINE
  8
0
 62
4
 10
1.39928041E+02
 20
-2.52344790E+02
 11
1.31788837E+02
 21
-2.75982754E+02
  0
LINE
  8
0
 62
4
 10
1.54110819E+02
 20
-2.57228312E+02
 11
1.45971616E+02
 21
-2.80866276E+02
  0
LINE
  8
0
 62
4
 10
1.47862653E+02
 20
-2.81517413E+02
 11
1.29897800E+02
 21
-2.75331618E+02
  0
LINE
  8
0
 62
4
 10
1.46297184E+02
 20
-2.79920758E+02
 11
1.32114405E+02
 21
-2.75037235E+02
  0
LINE
  8
0
 62
4
 10
1.29897800E+02
 20
-2.75331618E+02
 11
1.28595527E+02
 21
-2.79113692E+02
  0
LINE
  8
0
 62
4
 10
1.47862653E+02
 20
-2.81517413E+02
 11
1.46560380E+02
 21
-2.85299487E+02
  0
LINE
  8
0
 62
4
 10
1.46560380E+02
 20
-2.85299487E+02
 11
1.28595527E+02
 21
-2.79113692E+02
  0
LINE
  8
0
 62
4
 10
1.34467747E+02
 20
-2.96999969E+02
 11
1.21348208E+02
 21
-2.92482550E+02
  0
LINE
  8
0
 62
4
 10
1.25417810E+02
 20
-2.80663568E+02
 11
1.21348208E+02
 21
-2.92482550E+02
  0
LINE
  8
0
 62
4
 10
1.48110256E+02
 20
-2.88477204E+02
 11
1.45175633E+02
 21
-2.96999969E+02
  0
LINE
  8
0
 62
4
 10
1.21348208E+02
 20
-2.92482550E+02
 11
1.22810671E+02
 21
-2.96999969E+02
  0
LINE
  8
0
 62
4
 10
1.39075077E+02
 20
-2.96999969E+02
 11
1.21836561E+02
 21
-2.91064272E+02
  0
LINE
  8
0
 62
4
 10
1.36864446E+02
 20
-2.90421874E+02
 11
1.33082371E+02
 21
-2.89119602E+02
  0
LINE
  8
0
 62
4
 10
1.36050525E+02
 20
-2.92785671E+02
 11
1.32268451E+02
 21
-2.91483398E+02
  0
LINE
  8
0
 62
4
 10
1.36864446E+02
 20
-2.90421874E+02
 11
1.36050525E+02
 21
-2.92785671E+02
  0
LINE
  8
0
 62
4
 10
1.33082371E+02
 20
-2.89119602E+02
 11
1.32268451E+02
 21
-2.91483398E+02
  0
LINE
  8
0
 62
4
 10
1.48265366E+02
 20
-2.54228034E+02
 11
1.47511038E+02
 21
-2.53358818E+02
  0
LINE
  8
0
 62
4
 10
1.47511038E+02
 20
-2.53358818E+02
 11
1.46381477E+02
 21
-2.53579359E+02
  0
LINE
  8
0
 62
4
 10
1.25092242E+02
 20
-2.81609087E+02
 11
1.24619483E+02
 21
-2.81446303E+02
  0
LINE
  8
0
 62
4
 10
1.22487697E+02
 20
-2.89173235E+02
 11
1.22014938E+02
 21
-2.89010451E+02
  0
LINE
  8
0
 62
4
 10
1.24424142E+02
 20
-2.82013614E+02
 11
1.22788395E+02
 21
-2.81450381E+02
  0
LINE
  8
0
 62
4
 10
1.20574531E+02
 20
-2.87879907E+02
 11
1.22210279E+02
 21
-2.88443140E+02
  0
LINE
  8
0
  6
CENTER
 62
6
 10
1.53507618E+02
 20
-2.95623768E+02
 11
1.17644099E+02
 21
-2.83274968E+02
  0
LINE
  8
0
 62
4
 10
1.24619483E+02
 20
-2.81446303E+02
 11
1.22014938E+02
 21
-2.89010451E+02
  0
ARC
  8
0
 62
4
 10
1.52432389E+02
 20
-2.91549240E+02
 40
9.97523260E-01
 50
2.61759467E+01
 51
7.08169962E+01
  0
ARC
  8
0
 62
4
 10
1.20898780E+02
 20
-2.86931064E+02
 40
1.00271607E+00
 50
1.73833000E+02
 51
2.51133148E+02
  0
ARC
  8
0
 62
4
 10
1.22457123E+02
 20
-2.82390322E+02
 40
9.96609194E-01
 50
7.05855253E+01
 51
1.48448327E+02
  0
ARC
  8
0
 62
4
 10
1.31639100E+02
 20
-2.88115214E+02
 40
1.18081149E+01
 50
1.48089798E+02
 51
1.73718975E+02
  0
ARC
  8
0
 62
4
 10
1.45746439E+02
 20
-2.87663294E+02
 40
2.50001642E+00
 50
3.41000376E+02
 51
7.09996236E+01
  0
ARC
  8
0
 62
4
 10
1.27778516E+02
 20
-2.81471152E+02
 40
2.49501993E+00
 50
7.08855231E+01
 51
1.61114477E+02
  0
LINE
  8
0
  6
CENTER
 62
6
 10
-6.89999707E+01
 20
-1.30612871E+02
 11
-6.89999707E+01
 21
-1.80599969E+02
  0
ARC
  8
0
 62
4
 10
-4.35024768E+01
 20
-1.45756028E+02
 40
1.50250815E+00
 50
9.55645858E-02
 51
8.99044354E+01
  0
ARC
  8
0
 62
4
 10
-4.34974689E+01
 20
-1.69654271E+02
 40
1.49750021E+00
 50
2.69904276E+02
 51
9.57242462E-02
  0
ARC
  8
0
 62
4
 10
-4.34974689E+01
 20
-1.64770748E+02
 40
1.49750021E+00
 50
2.69904276E+02
 51
9.57242462E-02
  0
ARC
  8
0
 62
4
 10
-7.95024688E+01
 20
-1.64770744E+02
 40
1.49750400E+00
 50
1.79904421E+02
 51
2.70095579E+02
  0
LINE
  8
0
 62
4
 10
-7.84999707E+01
 20
-1.63904450E+02
 11
-5.94999707E+01
 21
-1.63904450E+02
  0
POLYLINE
  8
0
 62
4
 66
1
  0
VERTEX
  8
0
 62
4
 10
-4.98599707E+01
 20
-1.54596480E+02
  0
VERTEX
  8
0
 62
4
 10
-4.98719193E+01
 20
-1.54337721E+02
  0
VERTEX
  8
0
 62
4
 10
-4.99076744E+01
 20
-1.54080931E+02
  0
VERTEX
  8
0
 62
4
 10
-4.99669636E+01
 20
-1.53828065E+02
  0
VERTEX
  8
0
 62
4
 10
-5.00493359E+01
 20
-1.53581047E+02
  0
VERTEX
  8
0
 62
4
 10
-5.01541642E+01
 20
-1.53341757E+02
  0
VERTEX
  8
0
 62
4
 10
-5.02806509E+01
 20
-1.53112016E+02
  0
VERTEX
  8
0
 62
4
 10
-5.04278333E+01
 20
-1.52893573E+02
  0
VERTEX
  8
0
 62
4
 10
-5.05945911E+01
 20
-1.52688090E+02
  0
VERTEX
  8
0
 62
4
 10
-5.07796554E+01
 20
-1.52497131E+02
  0
VERTEX
  8
0
 62
4
 10
-5.09816176E+01
 20
-1.52322149E+02
  0
VERTEX
  8
0
 62
4
 10
-5.11989407E+01
 20
-1.52164476E+02
  0
VERTEX
  8
0
 62
4
 10
-5.14299707E+01
 20
-1.52025313E+02
  0
VERTEX
  8
0
 62
4
 10
-5.16729494E+01
 20
-1.51905717E+02
  0
VERTEX
  8
0
 62
4
 10
-5.19260275E+01
 20
-1.51806600E+02
  0
VERTEX
  8
0
 62
4
 10
-5.21872789E+01
 20
-1.51728715E+02
  0
VERTEX
  8
0
 62
4
 10
-5.24547154E+01
 20
-1.51672656E+02
  0
VERTEX
  8
0
 62
4
 10
-5.27263017E+01
 20
-1.51638849E+02
  0
VERTEX
  8
0
 62
4
 10
-5.29999707E+01
 20
-1.51627552E+02
  0
VERTEX
  8
0
 62
4
 10
-5.32736397E+01
 20
-1.51638849E+02
  0
VERTEX
  8
0
 62
4
 10
-5.35452260E+01
 20
-1.51672656E+02
  0
VERTEX
  8
0
 62
4
 10
-5.38126625E+01
 20
-1.51728715E+02
  0
VERTEX
  8
0
 62
4
 10
-5.40739140E+01
 20
-1.51806600E+02
  0
VERTEX
  8
0
 62
4
 10
-5.43269920E+01
 20
-1.51905717E+02
  0
VERTEX
  8
0
 62
4
 10
-5.45699707E+01
 20
-1.52025313E+02
  0
VERTEX
  8
0
 62
4
 10
-5.48010007E+01
 20
-1.52164476E+02
  0
VERTEX
  8
0
 62
4
 10
-5.50183238E+01
 20
-1.52322149E+02
  0
VERTEX
  8
0
 62
4
 10
-5.52202860E+01
 20
-1.52497131E+02
  0
VERTEX
  8
0
 62
4
 10
-5.54053503E+01
 20
-1.52688090E+02
  0
VERTEX
  8
0
 62
4
 10
-5.55721081E+01
 20
-1.52893573E+02
  0
VERTEX
  8
0
 62
4
 10
-5.57192905E+01
 20
-1.53112016E+02
  0
VERTEX
  8
0
 62
4
 10
-5.58457772E+01
 20
-1.53341757E+02
  0
VERTEX
  8
0
 62
4
 10
-5.59506055E+01
 20
-1.53581047E+02
  0
VERTEX
  8
0
 62
4
 10
-5.60329778E+01
 20
-1.53828065E+02
  0
VERTEX
  8
0
 62
4
 10
-5.60922670E+01
 20
-1.54080931E+02
  0
VERTEX
  8
0
 62
4
 10
-5.61280221E+01
 20
-1.54337721E+02
  0
VERTEX
  8
0
 62
4
 10
-5.61399707E+01
 20
-1.54596480E+02
  0
VERTEX
  8
0
 62
4
 10
-5.61280221E+01
 20
-1.54855239E+02
  0
VERTEX
  8
0
 62
4
 10
-5.60922670E+01
 20
-1.55112029E+02
  0
VERTEX
  8
0
 62
4
 10
-5.60329778E+01
 20
-1.55364895E+02
  0
VERTEX
  8
0
 62
4
 10
-5.59506055E+01
 20
-1.55611913E+02
  0
VERTEX
  8
0
 62
4
 10
-5.58457771E+01
 20
-1.55851203E+02
  0
VERTEX
  8
0
 62
4
 10
-5.57192905E+01
 20
-1.56080944E+02
  0
VERTEX
  8
0
 62
4
 10
-5.55721081E+01
 20
-1.56299387E+02
  0
VERTEX
  8
0
 62
4
 10
-5.54053502E+01
 20
-1.56504870E+02
  0
VERTEX
  8
0
 62
4
 10
-5.52202860E+01
 20
-1.56695829E+02
  0
VERTEX
  8
0
 62
4
 10
-5.50183238E+01
 20
-1.56870811E+02
  0
VERTEX
  8
0
 62
4
 10
-5.48010007E+01
 20
-1.57028484E+02
  0
VERTEX
  8
0
 62
4
 10
-5.45699707E+01
 20
-1.57167647E+02
  0
VERTEX
  8
0
 62
4
 10
-5.43269920E+01
 20
-1.57287243E+02
  0
VERTEX
  8
0
 62
4
 10
-5.40739139E+01
 20
-1.57386360E+02
  0
VERTEX
  8
0
 62
4
 10
-5.38126625E+01
 20
-1.57464245E+02
  0
VERTEX
  8
0
 62
4
 10
-5.35452260E+01
 20
-1.57520304E+02
  0
VERTEX
  8
0
 62
4
 10
-5.32736397E+01
 20
-1.57554111E+02
  0
VERTEX
  8
0
 62
4
 10
-5.29999707E+01
 20
-1.57565408E+02
  0
VERTEX
  8
0
 62
4
 10
-5.27263017E+01
 20
-1.57554111E+02
  0
VERTEX
  8
0
 62
4
 10
-5.24547154E+01
 20
-1.57520304E+02
  0
VERTEX
  8
0
 62
4
 10
-5.21872789E+01
 20
-1.57464245E+02
  0
VERTEX
  8
0
 62
4
 10
-5.19260274E+01
 20
-1.57386360E+02
  0
VERTEX
  8
0
 62
4
 10
-5.16729494E+01
 20
-1.57287243E+02
  0
VERTEX
  8
0
 62
4
 10
-5.14299707E+01
 20
-1.57167647E+02
  0
VERTEX
  8
0
 62
4
 10
-5.11989407E+01
 20
-1.57028484E+02
  0
VERTEX
  8
0
 62
4
 10
-5.09816176E+01
 20
-1.56870811E+02
  0
VERTEX
  8
0
 62
4
 10
-5.07796554E+01
 20
-1.56695829E+02
  0
VERTEX
  8
0
 62
4
 10
-5.05945911E+01
 20
-1.56504870E+02
  0
VERTEX
  8
0
 62
4
 10
-5.04278333E+01
 20
-1.56299387E+02
  0
VERTEX
  8
0
 62
4
 10
-5.02806509E+01
 20
-1.56080944E+02
  0
VERTEX
  8
0
 62
4
 10
-5.01541642E+01
 20
-1.55851203E+02
  0
VERTEX
  8
0
 62
4
 10
-5.00493359E+01
 20
-1.55611913E+02
  0
VERTEX
  8
0
 62
4
 10
-4.99669636E+01
 20
-1.55364895E+02
  0
VERTEX
  8
0
 62
4
 10
-4.99076744E+01
 20
-1.55112029E+02
  0
VERTEX
  8
0
 62
4
 10
-4.98719193E+01
 20
-1.54855239E+02
  0
VERTEX
  8
0
 62
4
 10
-4.98599707E+01
 20
-1.54596480E+02
  0
SEQEND
  8
0
  0
POLYLINE
  8
0
 62
4
 66
1
  0
VERTEX
  8
0
 62
4
 10
-4.94999707E+01
 20
-1.54922048E+02
  0
VERTEX
  8
0
 62
4
 10
-4.95132893E+01
 20
-1.54633622E+02
  0
VERTEX
  8
0
 62
4
 10
-4.95531436E+01
 20
-1.54347391E+02
  0
VERTEX
  8
0
 62
4
 10
-4.96192303E+01
 20
-1.54065534E+02
  0
VERTEX
  8
0
 62
4
 10
-4.97110465E+01
 20
-1.53790196E+02
  0
VERTEX
  8
0
 62
4
 10
-4.98278934E+01
 20
-1.53523471E+02
  0
VERTEX
  8
0
 62
4
 10
-4.99688818E+01
 20
-1.53267390E+02
  0
VERTEX
  8
0
 62
4
 10
-5.01329385E+01
 20
-1.53023903E+02
  0
VERTEX
  8
0
 62
4
 10
-5.03188151E+01
 20
-1.52794861E+02
  0
VERTEX
  8
0
 62
4
 10
-5.05250970E+01
 20
-1.52582009E+02
  0
VERTEX
  8
0
 62
4
 10
-5.07502141E+01
 20
-1.52386966E+02
  0
VERTEX
  8
0
 62
4
 10
-5.09924532E+01
 20
-1.52211216E+02
  0
VERTEX
  8
0
 62
4
 10
-5.12499707E+01
 20
-1.52056097E+02
  0
VERTEX
  8
0
 62
4
 10
-5.15208068E+01
 20
-1.51922790E+02
  0
VERTEX
  8
0
 62
4
 10
-5.18029002E+01
 20
-1.51812309E+02
  0
VERTEX
  8
0
 62
4
 10
-5.20941040E+01
 20
-1.51725495E+02
  0
VERTEX
  8
0
 62
4
 10
-5.23922021E+01
 20
-1.51663009E+02
  0
VERTEX
  8
0
 62
4
 10
-5.26949256E+01
 20
-1.51625326E+02
  0
VERTEX
  8
0
 62
4
 10
-5.29999707E+01
 20
-1.51612733E+02
  0
VERTEX
  8
0
 62
4
 10
-5.33050158E+01
 20
-1.51625326E+02
  0
VERTEX
  8
0
 62
4
 10
-5.36077393E+01
 20
-1.51663009E+02
  0
VERTEX
  8
0
 62
4
 10
-5.39058374E+01
 20
-1.51725495E+02
  0
VERTEX
  8
0
 62
4
 10
-5.41970412E+01
 20
-1.51812309E+02
  0
VERTEX
  8
0
 62
4
 10
-5.44791346E+01
 20
-1.51922790E+02
  0
VERTEX
  8
0
 62
4
 10
-5.47499707E+01
 20
-1.52056097E+02
  0
VERTEX
  8
0
 62
4
 10
-5.50074882E+01
 20
-1.52211216E+02
  0
VERTEX
  8
0
 62
4
 10
-5.52497273E+01
 20
-1.52386966E+02
  0
VERTEX
  8
0
 62
4
 10
-5.54748444E+01
 20
-1.52582009E+02
  0
VERTEX
  8
0
 62
4
 10
-5.56811263E+01
 20
-1.52794861E+02
  0
VERTEX
  8
0
 62
4
 10
-5.58670029E+01
 20
-1.53023903E+02
  0
VERTEX
  8
0
 62
4
 10
-5.60310596E+01
 20
-1.53267390E+02
  0
VERTEX
  8
0
 62
4
 10
-5.61720480E+01
 20
-1.53523471E+02
  0
VERTEX
  8
0
 62
4
 10
-5.62888949E+01
 20
-1.53790196E+02
  0
VERTEX
  8
0
 62
4
 10
-5.63807111E+01
 20
-1.54065534E+02
  0
VERTEX
  8
0
 62
4
 10
-5.64467978E+01
 20
-1.54347391E+02
  0
VERTEX
  8
0
 62
4
 10
-5.64866521E+01
 20
-1.54633622E+02
  0
VERTEX
  8
0
 62
4
 10
-5.64999707E+01
 20
-1.54922048E+02
  0
VERTEX
  8
0
 62
4
 10
-5.64866521E+01
 20
-1.55210474E+02
  0
VERTEX
  8
0
 62
4
 10
-5.64467978E+01
 20
-1.55496705E+02
  0
VERTEX
  8
0
 62
4
 10
-5.63807111E+01
 20
-1.55778562E+02
  0
VERTEX
  8
0
 62
4
 10
-5.62888949E+01
 20
-1.56053900E+02
  0
VERTEX
  8
0
 62
4
 10
-5.61720480E+01
 20
-1.56320625E+02
  0
VERTEX
  8
0
 62
4
 10
-5.60310596E+01
 20
-1.56576706E+02
  0
VERTEX
  8
0
 62
4
 10
-5.58670029E+01
 20
-1.56820193E+02
  0
VERTEX
  8
0
 62
4
 10
-5.56811262E+01
 20
-1.57049235E+02
  0
VERTEX
  8
0
 62
4
 10
-5.54748444E+01
 20
-1.57262087E+02
  0
VERTEX
  8
0
 62
4
 10
-5.52497273E+01
 20
-1.57457130E+02
  0
VERTEX
  8
0
 62
4
 10
-5.50074882E+01
 20
-1.57632880E+02
  0
VERTEX
  8
0
 62
4
 10
-5.47499707E+01
 20
-1.57787999E+02
  0
VERTEX
  8
0
 62
4
 10
-5.44791346E+01
 20
-1.57921306E+02
  0
VERTEX
  8
0
 62
4
 10
-5.41970412E+01
 20
-1.58031787E+02
  0
VERTEX
  8
0
 62
4
 10
-5.39058374E+01
 20
-1.58118601E+02
  0
VERTEX
  8
0
 62
4
 10
-5.36077393E+01
 20
-1.58181087E+02
  0
VERTEX
  8
0
 62
4
 10
-5.33050158E+01
 20
-1.58218770E+02
  0
VERTEX
  8
0
 62
4
 10
-5.29999707E+01
 20
-1.58231363E+02
  0
VERTEX
  8
0
 62
4
 10
-5.26949256E+01
 20
-1.58218770E+02
  0
VERTEX
  8
0
 62
4
 10
-5.23922021E+01
 20
-1.58181087E+02
  0
VERTEX
  8
0
 62
4
 10
-5.20941040E+01
 20
-1.58118601E+02
  0
VERTEX
  8
0
 62
4
 10
-5.18029002E+01
 20
-1.58031787E+02
  0
VERTEX
  8
0
 62
4
 10
-5.15208068E+01
 20
-1.57921306E+02
  0
VERTEX
  8
0
 62
4
 10
-5.12499707E+01
 20
-1.57787999E+02
  0
VERTEX
  8
0
 62
4
 10
-5.09924532E+01
 20
-1.57632880E+02
  0
VERTEX
  8
0
 62
4
 10
-5.07502141E+01
 20
-1.57457130E+02
  0
VERTEX
  8
0
 62
4
 10
-5.05250970E+01
 20
-1.57262087E+02
  0
VERTEX
  8
0
 62
4
 10
-5.03188151E+01
 20
-1.57049235E+02
  0
VERTEX
  8
0
 62
4
 10
-5.01329385E+01
 20
-1.56820193E+02
  0
VERTEX
  8
0
 62
4
 10
-4.99688818E+01
 20
-1.56576705E+02
  0
VERTEX
  8
0
 62
4
 10
-4.98278934E+01
 20
-1.56320625E+02
  0
VERTEX
  8
0
 62
4
 10
-4.97110465E+01
 20
-1.56053900E+02
  0
VERTEX
  8
0
 62
4
 10
-4.96192303E+01
 20
-1.55778562E+02
  0
VERTEX
  8
0
 62
4
 10
-4.95531436E+01
 20
-1.55496705E+02
  0
VERTEX
  8
0
 62
4
 10
-4.95132893E+01
 20
-1.55210474E+02
  0
VERTEX
  8
0
 62
4
 10
-4.94999707E+01
 20
-1.54922048E+02
  0
SEQEND
  8
0
  0
LINE
  8
0
 62
4
 10
-7.64999707E+01
 20
-1.60711140E+02
 11
-6.14999707E+01
 21
-1.60711140E+02
  0
LINE
  8
0
  6
CENTER
 62
6
 10
-7.36760685E+01
 20
-1.45480547E+02
 11
-6.43238730E+01
 21
-1.45480547E+02
  0
LINE
  8
0
 62
4
 10
-6.55999707E+01
 20
-1.71151769E+02
 11
-4.34999707E+01
 21
-1.71151769E+02
  0
POLYLINE
  8
0
 62
4
 66
1
  0
VERTEX
  8
0
 62
4
 10
-6.55999707E+01
 20
-1.69182767E+02
  0
VERTEX
  8
0
 62
4
 10
-6.56136581E+01
 20
-1.69083542E+02
  0
VERTEX
  8
0
 62
4
 10
-6.56546101E+01
 20
-1.68985117E+02
  0
VERTEX
  8
0
 62
4
 10
-6.57224970E+01
 20
-1.68888282E+02
  0
VERTEX
  8
0
 62
4
 10
-6.58167721E+01
 20
-1.68793819E+02
  0
VERTEX
  8
0
 62
4
 10
-6.59366765E+01
 20
-1.68702487E+02
  0
VERTEX
  8
0
 62
4
 10
-6.60812448E+01
 20
-1.68615023E+02
  0
VERTEX
  8
0
 62
4
 10
-6.62493129E+01
 20
-1.68532129E+02
  0
VERTEX
  8
0
 62
4
 10
-6.64395277E+01
 20
-1.68454474E+02
  0
VERTEX
  8
0
 62
4
 10
-6.66503577E+01
 20
-1.68382682E+02
  0
VERTEX
  8
0
 62
4
 10
-6.68801054E+01
 20
-1.68317333E+02
  0
VERTEX
  8
0
 62
4
 10
-6.71269210E+01
 20
-1.68258951E+02
  0
VERTEX
  8
0
 62
4
 10
-6.73888172E+01
 20
-1.68208008E+02
  0
VERTEX
  8
0
 62
4
 10
-6.76636856E+01
 20
-1.68164913E+02
  0
VERTEX
  8
0
 62
4
 10
-6.79493129E+01
 20
-1.68130012E+02
  0
VERTEX
  8
0
 62
4
 10
-6.82433995E+01
 20
-1.68103588E+02
  0
VERTEX
  8
0
 62
4
 10
-6.85435776E+01
 20
-1.68085853E+02
  0
VERTEX
  8
0
 62
4
 10
-6.88474303E+01
 20
-1.68076950E+02
  0
VERTEX
  8
0
 62
4
 10
-6.91525111E+01
 20
-1.68076950E+02
  0
VERTEX
  8
0
 62
4
 10
-6.94563638E+01
 20
-1.68085853E+02
  0
VERTEX
  8
0
 62
4
 10
-6.97565419E+01
 20
-1.68103588E+02
  0
VERTEX
  8
0
 62
4
 10
-7.00506285E+01
 20
-1.68130012E+02
  0
VERTEX
  8
0
 62
4
 10
-7.03362558E+01
 20
-1.68164913E+02
  0
VERTEX
  8
0
 62
4
 10
-7.06111241E+01
 20
-1.68208008E+02
  0
VERTEX
  8
0
 62
4
 10
-7.08730204E+01
 20
-1.68258951E+02
  0
VERTEX
  8
0
 62
4
 10
-7.11198360E+01
 20
-1.68317333E+02
  0
VERTEX
  8
0
 62
4
 10
-7.13495837E+01
 20
-1.68382682E+02
  0
VERTEX
  8
0
 62
4
 10
-7.15604137E+01
 20
-1.68454474E+02
  0
VERTEX
  8
0
 62
4
 10
-7.17506285E+01
 20
-1.68532129E+02
  0
VERTEX
  8
0
 62
4
 10
-7.19186966E+01
 20
-1.68615023E+02
  0
VERTEX
  8
0
 62
4
 10
-7.20632648E+01
 20
-1.68702487E+02
  0
VERTEX
  8
0
 62
4
 10
-7.21831693E+01
 20
-1.68793819E+02
  0
VERTEX
  8
0
 62
4
 10
-7.22774444E+01
 20
-1.68888282E+02
  0
VERTEX
  8
0
 62
4
 10
-7.23453313E+01
 20
-1.68985117E+02
  0
VERTEX
  8
0
 62
4
 10
-7.23862833E+01
 20
-1.69083542E+02
  0
VERTEX
  8
0
 62
4
 10
-7.23999707E+01
 20
-1.69182767E+02
  0
SEQEND
  8
0
  0
LINE
  8
0
 62
4
 10
-7.29999707E+01
 20
-1.68710007E+02
 11
-7.29999707E+01
 21
-1.69182767E+02
  0
LINE
  8
0
 62
4
 10
-6.49999707E+01
 20
-1.68710007E+02
 11
-6.49999707E+01
 21
-1.69182767E+02
  0
POLYLINE
  8
0
 62
4
 66
1
  0
VERTEX
  8
0
 62
4
 10
-6.55999707E+01
 20
-1.69868782E+02
  0
VERTEX
  8
0
 62
4
 10
-6.54269187E+01
 20
-1.69768183E+02
  0
VERTEX
  8
0
 62
4
 10
-6.52818757E+01
 20
-1.69662996E+02
  0
VERTEX
  8
0
 62
4
 10
-6.51659789E+01
 20
-1.69554044E+02
  0
VERTEX
  8
0
 62
4
 10
-6.50801366E+01
 20
-1.69442182E+02
  0
VERTEX
  8
0
 62
4
 10
-6.50250218E+01
 20
-1.69328286E+02
  0
VERTEX
  8
0
 62
4
 10
-6.50010666E+01
 20
-1.69213249E+02
  0
VERTEX
  8
0
 62
4
 10
-6.50084588E+01
 20
-1.69097974E+02
  0
VERTEX
  8
0
 62
4
 10
-6.50471403E+01
 20
-1.68983363E+02
  0
VERTEX
  8
0
 62
4
 10
-6.51168080E+01
 20
-1.68870315E+02
  0
VERTEX
  8
0
 62
4
 10
-6.52169157E+01
 20
-1.68759717E+02
  0
VERTEX
  8
0
 62
4
 10
-6.53466788E+01
 20
-1.68652435E+02
  0
VERTEX
  8
0
 62
4
 10
-6.55050799E+01
 20
-1.68549310E+02
  0
VERTEX
  8
0
 62
4
 10
-6.56908774E+01
 20
-1.68451151E+02
  0
VERTEX
  8
0
 62
4
 10
-6.59026149E+01
 20
-1.68358727E+02
  0
VERTEX
  8
0
 62
4
 10
-6.61386325E+01
 20
-1.68272762E+02
  0
VERTEX
  8
0
 62
4
 10
-6.63970800E+01
 20
-1.68193931E+02
  0
VERTEX
  8
0
 62
4
 10
-6.66759316E+01
 20
-1.68122852E+02
  0
VERTEX
  8
0
 62
4
 10
-6.69730012E+01
 20
-1.68060081E+02
  0
VERTEX
  8
0
 62
4
 10
-6.72859603E+01
 20
-1.68006111E+02
  0
VERTEX
  8
0
 62
4
 10
-6.76123554E+01
 20
-1.67961365E+02
  0
VERTEX
  8
0
 62
4
 10
-6.79496281E+01
 20
-1.67926193E+02
  0
VERTEX
  8
0
 62
4
 10
-6.82951343E+01
 20
-1.67900871E+02
  0
VERTEX
  8
0
 62
4
 10
-6.86461658E+01
 20
-1.67885599E+02
  0
VERTEX
  8
0
 62
4
 10
-6.89999707E+01
 20
-1.67880494E+02
  0
VERTEX
  8
0
 62
4
 10
-6.93537756E+01
 20
-1.67885599E+02
  0
VERTEX
  8
0
 62
4
 10
-6.97048071E+01
 20
-1.67900871E+02
  0
VERTEX
  8
0
 62
4
 10
-7.00503133E+01
 20
-1.67926193E+02
  0
VERTEX
  8
0
 62
4
 10
-7.03875859E+01
 20
-1.67961365E+02
  0
VERTEX
  8
0
 62
4
 10
-7.07139811E+01
 20
-1.68006111E+02
  0
VERTEX
  8
0
 62
4
 10
-7.10269401E+01
 20
-1.68060081E+02
  0
VERTEX
  8
0
 62
4
 10
-7.13240098E+01
 20
-1.68122852E+02
  0
VERTEX
  8
0
 62
4
 10
-7.16028614E+01
 20
-1.68193931E+02
  0
VERTEX
  8
0
 62
4
 10
-7.18613089E+01
 20
-1.68272762E+02
  0
VERTEX
  8
0
 62
4
 10
-7.20973265E+01
 20
-1.68358727E+02
  0
VERTEX
  8
0
 62
4
 10
-7.23090639E+01
 20
-1.68451151E+02
  0
VERTEX
  8
0
 62
4
 10
-7.24948615E+01
 20
-1.68549310E+02
  0
VERTEX
  8
0
 62
4
 10
-7.26532626E+01
 20
-1.68652435E+02
  0
VERTEX
  8
0
 62
4
 10
-7.27830257E+01
 20
-1.68759717E+02
  0
VERTEX
  8
0
 62
4
 10
-7.28831334E+01
 20
-1.68870315E+02
  0
VERTEX
  8
0
 62
4
 10
-7.29528011E+01
 20
-1.68983363E+02
  0
VERTEX
  8
0
 62
4
 10
-7.29914826E+01
 20
-1.69097974E+02
  0
VERTEX
  8
0
 62
4
 10
-7.29988748E+01
 20
-1.69213249E+02
  0
VERTEX
  8
0
 62
4
 10
-7.29749196E+01
 20
-1.69328286E+02
  0
VERTEX
  8
0
 62
4
 10
-7.29198048E+01
 20
-1.69442182E+02
  0
VERTEX
  8
0
 62
4
 10
-7.28339625E+01
 20
-1.69554044E+02
  0
VERTEX
  8
0
 62
4
 10
-7.27180657E+01
 20
-1.69662996E+02
  0
VERTEX
  8
0
 62
4
 10
-7.25730227E+01
 20
-1.69768183E+02
  0
VERTEX
  8
0
 62
4
 10
-7.23999707E+01
 20
-1.69868782E+02
  0
SEQEND
  8
0
  0
POLYLINE
  8
0
 62
4
 66
1
  0
VERTEX
  8
0
 62
4
 10
-6.49999707E+01
 20
-1.68710007E+02
  0
VERTEX
  8
0
 62
4
 10
-6.50160735E+01
 20
-1.68593272E+02
  0
VERTEX
  8
0
 62
4
 10
-6.50642523E+01
 20
-1.68477477E+02
  0
VERTEX
  8
0
 62
4
 10
-6.51441193E+01
 20
-1.68363555E+02
  0
VERTEX
  8
0
 62
4
 10
-6.52550312E+01
 20
-1.68252421E+02
  0
VERTEX
  8
0
 62
4
 10
-6.53960952E+01
 20
-1.68144972E+02
  0
VERTEX
  8
0
 62
4
 10
-6.55661755E+01
 20
-1.68042072E+02
  0
VERTEX
  8
0
 62
4
 10
-6.57639027E+01
 20
-1.67944550E+02
  0
VERTEX
  8
0
 62
4
 10
-6.59876848E+01
 20
-1.67853191E+02
  0
VERTEX
  8
0
 62
4
 10
-6.62357201E+01
 20
-1.67768731E+02
  0
VERTEX
  8
0
 62
4
 10
-6.65060115E+01
 20
-1.67691849E+02
  0
VERTEX
  8
0
 62
4
 10
-6.67963828E+01
 20
-1.67623165E+02
  0
VERTEX
  8
0
 62
4
 10
-6.71044960E+01
 20
-1.67563232E+02
  0
VERTEX
  8
0
 62
4
 10
-6.74278706E+01
 20
-1.67512531E+02
  0
VERTEX
  8
0
 62
4
 10
-6.77639027E+01
 20
-1.67471472E+02
  0
VERTEX
  8
0
 62
4
 10
-6.81098870E+01
 20
-1.67440385E+02
  0
VERTEX
  8
0
 62
4
 10
-6.84630376E+01
 20
-1.67419520E+02
  0
VERTEX
  8
0
 62
4
 10
-6.88205114E+01
 20
-1.67409046E+02
  0
VERTEX
  8
0
 62
4
 10
-6.91794300E+01
 20
-1.67409046E+02
  0
VERTEX
  8
0
 62
4
 10
-6.95369038E+01
 20
-1.67419520E+02
  0
VERTEX
  8
0
 62
4
 10
-6.98900544E+01
 20
-1.67440385E+02
  0
VERTEX
  8
0
 62
4
 10
-7.02360387E+01
 20
-1.67471472E+02
  0
VERTEX
  8
0
 62
4
 10
-7.05720708E+01
 20
-1.67512531E+02
  0
VERTEX
  8
0
 62
4
 10
-7.08954453E+01
 20
-1.67563232E+02
  0
VERTEX
  8
0
 62
4
 10
-7.12035586E+01
 20
-1.67623165E+02
  0
VERTEX
  8
0
 62
4
 10
-7.14939299E+01
 20
-1.67691849E+02
  0
VERTEX
  8
0
 62
4
 10
-7.17642213E+01
 20
-1.67768731E+02
  0
VERTEX
  8
0
 62
4
 10
-7.20122566E+01
 20
-1.67853191E+02
  0
VERTEX
  8
0
 62
4
 10
-7.22360387E+01
 20
-1.67944550E+02
  0
VERTEX
  8
0
 62
4
 10
-7.24337659E+01
 20
-1.68042072E+02
  0
VERTEX
  8
0
 62
4
 10
-7.26038462E+01
 20
-1.68144972E+02
  0
VERTEX
  8
0
 62
4
 10
-7.27449102E+01
 20
-1.68252421E+02
  0
VERTEX
  8
0
 62
4
 10
-7.28558221E+01
 20
-1.68363554E+02
  0
VERTEX
  8
0
 62
4
 10
-7.29356891E+01
 20
-1.68477477E+02
  0
VERTEX
  8
0
 62
4
 10
-7.29838679E+01
 20
-1.68593272E+02
  0
VERTEX
  8
0
 62
4
 10
-7.29999707E+01
 20
-1.68710007E+02
  0
SEQEND
  8
0
  0
LINE
  8
0
  6
CENTER
 62
6
 10
-5.29999707E+01
 20
-1.48852229E+02
 11
-5.29999707E+01
 21
-1.60340731E+02
  0
LINE
  8
0
  6
CENTER
 62
6
 10
-5.87442217E+01
 20
-1.54596480E+02
 11
-4.72557198E+01
 21
-1.54596480E+02
  0
LINE
  8
0
 62
4
 10
-8.59999707E+01
 20
-1.40937056E+02
 11
-8.59999707E+01
 21
-1.53937056E+02
  0
ARC
  8
0
 62
4
 10
-8.54974682E+01
 20
-1.40939559E+02
 40
5.02508801E-01
 50
9.02853429E+01
 51
1.79714657E+02
  0
LINE
  8
0
 62
4
 10
-7.64999707E+01
 20
-1.40437056E+02
 11
-8.54999707E+01
 21
-1.40437056E+02
  0
LINE
  8
0
 62
4
 10
-9.59999707E+01
 20
-1.54800707E+02
 11
-9.09999707E+01
 21
-1.54800707E+02
  0
LINE
  8
0
 62
4
 10
-9.59999707E+01
 20
-1.52358946E+02
 11
-9.09999707E+01
 21
-1.52358946E+02
  0
LINE
  8
0
 62
4
 10
-9.59999707E+01
 20
-1.44988939E+02
 11
-9.09999707E+01
 21
-1.44988939E+02
  0
ARC
  8
0
 62
4
 10
-7.95024688E+01
 20
-1.69654267E+02
 40
1.49750400E+00
 50
1.79904421E+02
 51
2.70095579E+02
  0
LINE
  8
0
 62
4
 10
-7.94999707E+01
 20
-1.71151769E+02
 11
-7.23999707E+01
 21
-1.71151769E+02
  0
POLYLINE
  8
0
 62
4
 66
1
  0
VERTEX
  8
0
 62
4
 10
-6.59999707E+01
 20
-1.45480547E+02
  0
VERTEX
  8
0
 62
4
 10
-6.60113866E+01
 20
-1.45233325E+02
  0
VERTEX
  8
0
 62
4
 10
-6.60455474E+01
 20
-1.44987984E+02
  0
VERTEX
  8
0
 62
4
 10
-6.61021932E+01
 20
-1.44746392E+02
  0
VERTEX
  8
0
 62
4
 10
-6.61808928E+01
 20
-1.44510388E+02
  0
VERTEX
  8
0
 62
4
 10
-6.62810473E+01
 20
-1.44281767E+02
  0
VERTEX
  8
0
 62
4
 10
-6.64018945E+01
 20
-1.44062269E+02
  0
VERTEX
  8
0
 62
4
 10
-6.65425146E+01
 20
-1.43853565E+02
  0
VERTEX
  8
0
 62
4
 10
-6.67018374E+01
 20
-1.43657244E+02
  0
VERTEX
  8
0
 62
4
 10
-6.68786504E+01
 20
-1.43474799E+02
  0
VERTEX
  8
0
 62
4
 10
-6.70716079E+01
 20
-1.43307619E+02
  0
VERTEX
  8
0
 62
4
 10
-6.72792414E+01
 20
-1.43156977E+02
  0
VERTEX
  8
0
 62
4
 10
-6.74999707E+01
 20
-1.43024018E+02
  0
VERTEX
  8
0
 62
4
 10
-6.77321159E+01
 20
-1.42909754E+02
  0
VERTEX
  8
0
 62
4
 10
-6.79739103E+01
 20
-1.42815057E+02
  0
VERTEX
  8
0
 62
4
 10
-6.82235136E+01
 20
-1.42740645E+02
  0
VERTEX
  8
0
 62
4
 10
-6.84790262E+01
 20
-1.42687085E+02
  0
VERTEX
  8
0
 62
4
 10
-6.87385035E+01
 20
-1.42654785E+02
  0
VERTEX
  8
0
 62
4
 10
-6.89999707E+01
 20
-1.42643991E+02
  0
VERTEX
  8
0
 62
4
 10
-6.92614379E+01
 20
-1.42654785E+02
  0
VERTEX
  8
0
 62
4
 10
-6.95209152E+01
 20
-1.42687085E+02
  0
VERTEX
  8
0
 62
4
 10
-6.97764278E+01
 20
-1.42740645E+02
  0
VERTEX
  8
0
 62
4
 10
-7.00260311E+01
 20
-1.42815057E+02
  0
VERTEX
  8
0
 62
4
 10
-7.02678255E+01
 20
-1.42909754E+02
  0
VERTEX
  8
0
 62
4
 10
-7.04999707E+01
 20
-1.43024018E+02
  0
VERTEX
  8
0
 62
4
 10
-7.07207000E+01
 20
-1.43156977E+02
  0
VERTEX
  8
0
 62
4
 10
-7.09283335E+01
 20
-1.43307619E+02
  0
VERTEX
  8
0
 62
4
 10
-7.11212910E+01
 20
-1.43474799E+02
  0
VERTEX
  8
0
 62
4
 10
-7.12981040E+01
 20
-1.43657244E+02
  0
VERTEX
  8
0
 62
4
 10
-7.14574268E+01
 20
-1.43853565E+02
  0
VERTEX
  8
0
 62
4
 10
-7.15980469E+01
 20
-1.44062269E+02
  0
VERTEX
  8
0
 62
4
 10
-7.17188941E+01
 20
-1.44281767E+02
  0
VERTEX
  8
0
 62
4
 10
-7.18190486E+01
 20
-1.44510388E+02
  0
VERTEX
  8
0
 62
4
 10
-7.18977482E+01
 20
-1.44746392E+02
  0
VERTEX
  8
0
 62
4
 10
-7.19543940E+01
 20
-1.44987984E+02
  0
VERTEX
  8
0
 62
4
 10
-7.19885548E+01
 20
-1.45233325E+02
  0
VERTEX
  8
0
 62
4
 10
-7.19999707E+01
 20
-1.45480547E+02
  0
VERTEX
  8
0
 62
4
 10
-7.19885548E+01
 20
-1.45727769E+02
  0
VERTEX
  8
0
 62
4
 10
-7.19543940E+01
 20
-1.45973110E+02
  0
VERTEX
  8
0
 62
4
 10
-7.18977482E+01
 20
-1.46214702E+02
  0
VERTEX
  8
0
 62
4
 10
-7.18190486E+01
 20
-1.46450706E+02
  0
VERTEX
  8
0
 62
4
 10
-7.17188941E+01
 20
-1.46679327E+02
  0
VERTEX
  8
0
 62
4
 10
-7.15980469E+01
 20
-1.46898825E+02
  0
VERTEX
  8
0
 62
4
 10
-7.14574268E+01
 20
-1.47107529E+02
  0
VERTEX
  8
0
 62
4
 10
-7.12981040E+01
 20
-1.47303850E+02
  0
VERTEX
  8
0
 62
4
 10
-7.11212910E+01
 20
-1.47486295E+02
  0
VERTEX
  8
0
 62
4
 10
-7.09283335E+01
 20
-1.47653475E+02
  0
VERTEX
  8
0
 62
4
 10
-7.07207000E+01
 20
-1.47804117E+02
  0
VERTEX
  8
0
 62
4
 10
-7.04999707E+01
 20
-1.47937076E+02
  0
VERTEX
  8
0
 62
4
 10
-7.02678255E+01
 20
-1.48051340E+02
  0
VERTEX
  8
0
 62
4
 10
-7.00260311E+01
 20
-1.48146037E+02
  0
VERTEX
  8
0
 62
4
 10
-6.97764278E+01
 20
-1.48220449E+02
  0
VERTEX
  8
0
 62
4
 10
-6.95209152E+01
 20
-1.48274009E+02
  0
VERTEX
  8
0
 62
4
 10
-6.92614379E+01
 20
-1.48306309E+02
  0
VERTEX
  8
0
 62
4
 10
-6.89999707E+01
 20
-1.48317103E+02
  0
VERTEX
  8
0
 62
4
 10
-6.87385035E+01
 20
-1.48306309E+02
  0
VERTEX
  8
0
 62
4
 10
-6.84790262E+01
 20
-1.48274009E+02
  0
VERTEX
  8
0
 62
4
 10
-6.82235136E+01
 20
-1.48220449E+02
  0
VERTEX
  8
0
 62
4
 10
-6.79739103E+01
 20
-1.48146037E+02
  0
VERTEX
  8
0
 62
4
 10
-6.77321159E+01
 20
-1.48051340E+02
  0
VERTEX
  8
0
 62
4
 10
-6.74999707E+01
 20
-1.47937076E+02
  0
VERTEX
  8
0
 62
4
 10
-6.72792414E+01
 20
-1.47804117E+02
  0
VERTEX
  8
0
 62
4
 10
-6.70716079E+01
 20
-1.47653475E+02
  0
VERTEX
  8
0
 62
4
 10
-6.68786504E+01
 20
-1.47486295E+02
  0
VERTEX
  8
0
 62
4
 10
-6.67018374E+01
 20
-1.47303850E+02
  0
VERTEX
  8
0
 62
4
 10
-6.65425146E+01
 20
-1.47107529E+02
  0
VERTEX
  8
0
 62
4
 10
-6.64018945E+01
 20
-1.46898825E+02
  0
VERTEX
  8
0
 62
4
 10
-6.62810473E+01
 20
-1.46679327E+02
  0
VERTEX
  8
0
 62
4
 10
-6.61808928E+01
 20
-1.46450706E+02
  0
VERTEX
  8
0
 62
4
 10
-6.61021932E+01
 20
-1.46214702E+02
  0
VERTEX
  8
0
 62
4
 10
-6.60455474E+01
 20
-1.45973110E+02
  0
VERTEX
  8
0
 62
4
 10
-6.60113866E+01
 20
-1.45727769E+02
  0
VERTEX
  8
0
 62
4
 10
-6.59999707E+01
 20
-1.45480547E+02
  0
SEQEND
  8
0
  0
LINE
  8
0
 62
4
 10
-6.14999707E+01
 20
-1.44637324E+02
 11
-5.94999707E+01
 21
-1.44637324E+02
  0
LINE
  8
0
 62
4
 10
-7.84999707E+01
 20
-1.62602177E+02
 11
-5.94999707E+01
 21
-1.62602177E+02
  0
LINE
  8
0
 62
4
 10
-7.64999707E+01
 20
-1.38389158E+02
 11
-6.14999707E+01
 21
-1.38389158E+02
  0
ARC
  8
0
 62
4
 10
-8.55024608E+01
 20
-1.53939546E+02
 40
4.97516125E-01
 50
1.79713229E+02
 51
2.70286771E+02
  0
LINE
  8
0
 62
4
 10
-7.94999707E+01
 20
-1.66268246E+02
 11
-4.34999707E+01
 21
-1.66268246E+02
  0
LINE
  8
0
 62
4
 10
-6.14999707E+01
 20
-1.44253522E+02
 11
-4.34999707E+01
 21
-1.44253522E+02
  0
LINE
  8
0
 62
4
 10
-8.09999707E+01
 20
-1.54437056E+02
 11
-8.09999707E+01
 21
-1.69500000E+02
  0
LINE
  8
0
 62
4
 10
-5.94999707E+01
 20
-1.44637324E+02
 11
-5.94999707E+01
 21
-1.63904450E+02
  0
LINE
  8
0
 62
4
 10
-7.84999707E+01
 20
-1.63904450E+02
 11
-7.84999707E+01
 21
-1.54437056E+02
  0
LINE
  8
0
 62
4
 10
-9.59999707E+01
 20
-1.40067205E+02
 11
-9.09999707E+01
 21
-1.40067205E+02
  0
LINE
  8
0
 62
4
 10
-7.64999707E+01
 20
-1.52571936E+02
 11
-6.14999707E+01
 21
-1.52571936E+02
  0
LINE
  8
0
 62
4
 10
-8.94999707E+01
 20
-1.53187056E+02
 11
-8.59999707E+01
 21
-1.53187056E+02
  0
LINE
  8
0
 62
4
 10
-8.94999707E+01
 20
-1.41687056E+02
 11
-8.59999707E+01
 21
-1.41687056E+02
  0
LINE
  8
0
 62
4
 10
-8.94999707E+01
 20
-1.41187056E+02
 11
-8.94999707E+01
 21
-1.53687056E+02
  0
LINE
  8
0
 62
4
 10
-9.09999707E+01
 20
-1.53687056E+02
 11
-8.59999707E+01
 21
-1.53687056E+02
  0
LINE
  8
0
 62
4
 10
-9.09999707E+01
 20
-1.41187056E+02
 11
-8.59999707E+01
 21
-1.41187056E+02
  0
LINE
  8
0
 62
4
 10
-9.09999707E+01
 20
-1.40067205E+02
 11
-9.09999707E+01
 21
-1.54800707E+02
  0
LINE
  8
0
 62
4
 10
-9.59999707E+01
 20
-1.54800707E+02
 11
-9.59999707E+01
 21
-1.40067205E+02
  0
LINE
  8
0
 62
4
 10
-8.54999707E+01
 20
-1.54437056E+02
 11
-7.64999707E+01
 21
-1.54437056E+02
  0
LINE
  8
0
 62
4
 10
-7.23999707E+01
 20
-1.71380283E+02
 11
-7.23999707E+01
 21
-1.69182767E+02
  0
LINE
  8
0
 62
4
 10
-6.55999707E+01
 20
-1.69182767E+02
 11
-6.55999707E+01
 21
-1.71380283E+02
  0
LINE
  8
0
 62
6
 10
-7.14999707E+01
 20
-1.30752376E+02
 11
-7.14999707E+01
 21
-1.31922376E+02
  0
LINE
  8
0
 62
4
 10
-7.49999707E+01
 20
-1.31752376E+02
 11
-7.47399707E+01
 21
-1.30752376E+02
  0
LINE
  8
0
 62
4
 10
-7.09999707E+01
 20
-1.31752376E+02
 11
-7.12699707E+01
 21
-1.30752376E+02
  0
LINE
  8
0
 62
4
 10
-7.12699707E+01
 20
-1.30752376E+02
 11
-7.47399707E+01
 21
-1.30752376E+02
  0
LINE
  8
0
 62
4
 10
-7.49999707E+01
 20
-1.31752376E+02
 11
-7.49999707E+01
 21
-1.31922376E+02
  0
LINE
  8
0
 62
4
 10
-7.09999707E+01
 20
-1.31752376E+02
 11
-7.09999707E+01
 21
-1.31922376E+02
  0
LINE
  8
0
 62
6
 10
-7.44999707E+01
 20
-1.30752376E+02
 11
-7.44999707E+01
 21
-1.31922376E+02
  0
LINE
  8
0
  6
CENTER
 62
6
 10
-7.29999707E+01
 20
-1.28922376E+02
 11
-7.29999707E+01
 21
-1.39422376E+02
  0
LINE
  8
0
 62
4
 10
-6.14999707E+01
 20
-1.31922376E+02
 11
-7.64999707E+01
 21
-1.31922376E+02
  0
LINE
  8
0
 62
4
 10
-6.14999707E+01
 20
-1.31922376E+02
 11
-6.14999707E+01
 21
-1.60711140E+02
  0
LINE
  8
0
 62
4
 10
-7.64999707E+01
 20
-1.31922376E+02
 11
-7.64999707E+01
 21
-1.60711140E+02
  0
LINE
  8
0
 62
6
 10
-6.64999707E+01
 20
-1.30752376E+02
 11
-6.64999707E+01
 21
-1.31922376E+02
  0
LINE
  8
0
 62
6
 10
-6.34999707E+01
 20
-1.30752376E+02
 11
-6.34999707E+01
 21
-1.31922376E+02
  0
LINE
  8
0
 62
4
 10
-6.69999707E+01
 20
-1.31752376E+02
 11
-6.67399707E+01
 21
-1.30752376E+02
  0
LINE
  8
0
 62
4
 10
-6.29999707E+01
 20
-1.31752376E+02
 11
-6.32699707E+01
 21
-1.30752376E+02
  0
LINE
  8
0
 62
4
 10
-6.32699707E+01
 20
-1.30752376E+02
 11
-6.67399707E+01
 21
-1.30752376E+02
  0
LINE
  8
0
 62
4
 10
-6.69999707E+01
 20
-1.31752376E+02
 11
-6.69999707E+01
 21
-1.31922376E+02
  0
LINE
  8
0
 62
4
 10
-6.29999707E+01
 20
-1.31752376E+02
 11
-6.29999707E+01
 21
-1.31922376E+02
  0
LINE
  8
0
  6
CENTER
 62
6
 10
-6.49999707E+01
 20
-1.28922376E+02
 11
-6.49999707E+01
 21
-1.39422376E+02
  0
ARC
  8
0
 62
4
 10
-7.32355657E+01
 20
-1.60602479E+02
 40
1.21769740E+01
 50
2.83121604E+02
 51
2.99537899E+02
  0
ARC
  8
0
 62
4
 10
-6.47643757E+01
 20
-1.60602479E+02
 40
1.21769740E+01
 50
2.40462101E+02
 51
2.56878396E+02
  0
POLYLINE
  8
0
 62
4
 66
1
  0
VERTEX
  8
0
 62
4
 10
-6.55999707E+01
 20
-1.71157748E+02
  0
VERTEX
  8
0
 62
4
 10
-6.56129087E+01
 20
-1.71031706E+02
  0
VERTEX
  8
0
 62
4
 10
-6.56516243E+01
 20
-1.70906624E+02
  0
VERTEX
  8
0
 62
4
 10
-6.57158229E+01
 20
-1.70783453E+02
  0
VERTEX
  8
0
 62
4
 10
-6.58050158E+01
 20
-1.70663130E+02
  0
VERTEX
  8
0
 62
4
 10
-6.59185242E+01
 20
-1.70546572E+02
  0
VERTEX
  8
0
 62
4
 10
-6.60554843E+01
 20
-1.70434665E+02
  0
VERTEX
  8
0
 62
4
 10
-6.62148537E+01
 20
-1.70328261E+02
  0
VERTEX
  8
0
 62
4
 10
-6.63954196E+01
 20
-1.70228171E+02
  0
VERTEX
  8
0
 62
4
 10
-6.65958076E+01
 20
-1.70135154E+02
  0
VERTEX
  8
0
 62
4
 10
-6.68144928E+01
 20
-1.70049921E+02
  0
VERTEX
  8
0
 62
4
 10
-6.70498108E+01
 20
-1.69973118E+02
  0
VERTEX
  8
0
 62
4
 10
-6.72999707E+01
 20
-1.69905332E+02
  0
VERTEX
  8
0
 62
4
 10
-6.75630686E+01
 20
-1.69847077E+02
  0
VERTEX
  8
0
 62
4
 10
-6.78371022E+01
 20
-1.69798797E+02
  0
VERTEX
  8
0
 62
4
 10
-6.81199859E+01
 20
-1.69760859E+02
  0
VERTEX
  8
0
 62
4
 10
-6.84095669E+01
 20
-1.69733553E+02
  0
VERTEX
  8
0
 62
4
 10
-6.87036412E+01
 20
-1.69717085E+02
  0
VERTEX
  8
0
 62
4
 10
-6.89999707E+01
 20
-1.69711582E+02
  0
VERTEX
  8
0
 62
4
 10
-6.92963002E+01
 20
-1.69717085E+02
  0
VERTEX
  8
0
 62
4
 10
-6.95903745E+01
 20
-1.69733553E+02
  0
VERTEX
  8
0
 62
4
 10
-6.98799555E+01
 20
-1.69760859E+02
  0
VERTEX
  8
0
 62
4
 10
-7.01628392E+01
 20
-1.69798797E+02
  0
VERTEX
  8
0
 62
4
 10
-7.04368728E+01
 20
-1.69847077E+02
  0
VERTEX
  8
0
 62
4
 10
-7.06999707E+01
 20
-1.69905332E+02
  0
VERTEX
  8
0
 62
4
 10
-7.09501306E+01
 20
-1.69973118E+02
  0
VERTEX
  8
0
 62
4
 10
-7.11854486E+01
 20
-1.70049921E+02
  0
VERTEX
  8
0
 62
4
 10
-7.14041338E+01
 20
-1.70135154E+02
  0
VERTEX
  8
0
 62
4
 10
-7.16045218E+01
 20
-1.70228171E+02
  0
VERTEX
  8
0
 62
4
 10
-7.17850877E+01
 20
-1.70328261E+02
  0
VERTEX
  8
0
 62
4
 10
-7.19444571E+01
 20
-1.70434665E+02
  0
VERTEX
  8
0
 62
4
 10
-7.20814172E+01
 20
-1.70546572E+02
  0
VERTEX
  8
0
 62
4
 10
-7.21949256E+01
 20
-1.70663130E+02
  0
VERTEX
  8
0
 62
4
 10
-7.22841185E+01
 20
-1.70783453E+02
  0
VERTEX
  8
0
 62
4
 10
-7.23483171E+01
 20
-1.70906624E+02
  0
VERTEX
  8
0
 62
4
 10
-7.23870327E+01
 20
-1.71031706E+02
  0
VERTEX
  8
0
 62
4
 10
-7.23999707E+01
 20
-1.71157748E+02
  0
VERTEX
  8
0
 62
4
 10
-7.23870327E+01
 20
-1.71283790E+02
  0
VERTEX
  8
0
 62
4
 10
-7.23483171E+01
 20
-1.71408872E+02
  0
VERTEX
  8
0
 62
4
 10
-7.22841185E+01
 20
-1.71532043E+02
  0
VERTEX
  8
0
 62
4
 10
-7.21949256E+01
 20
-1.71652366E+02
  0
VERTEX
  8
0
 62
4
 10
-7.20814172E+01
 20
-1.71768924E+02
  0
VERTEX
  8
0
 62
4
 10
-7.19444571E+01
 20
-1.71880831E+02
  0
VERTEX
  8
0
 62
4
 10
-7.17850876E+01
 20
-1.71987235E+02
  0
VERTEX
  8
0
 62
4
 10
-7.16045218E+01
 20
-1.72087325E+02
  0
VERTEX
  8
0
 62
4
 10
-7.14041338E+01
 20
-1.72180342E+02
  0
VERTEX
  8
0
 62
4
 10
-7.11854486E+01
 20
-1.72265575E+02
  0
VERTEX
  8
0
 62
4
 10
-7.09501306E+01
 20
-1.72342378E+02
  0
VERTEX
  8
0
 62
4
 10
-7.06999707E+01
 20
-1.72410164E+02
  0
VERTEX
  8
0
 62
4
 10
-7.04368728E+01
 20
-1.72468419E+02
  0
VERTEX
  8
0
 62
4
 10
-7.01628392E+01
 20
-1.72516699E+02
  0
VERTEX
  8
0
 62
4
 10
-6.98799554E+01
 20
-1.72554637E+02
  0
VERTEX
  8
0
 62
4
 10
-6.95903745E+01
 20
-1.72581943E+02
  0
VERTEX
  8
0
 62
4
 10
-6.92963002E+01
 20
-1.72598411E+02
  0
VERTEX
  8
0
 62
4
 10
-6.89999707E+01
 20
-1.72603914E+02
  0
VERTEX
  8
0
 62
4
 10
-6.87036412E+01
 20
-1.72598411E+02
  0
VERTEX
  8
0
 62
4
 10
-6.84095669E+01
 20
-1.72581943E+02
  0
VERTEX
  8
0
 62
4
 10
-6.81199859E+01
 20
-1.72554637E+02
  0
VERTEX
  8
0
 62
4
 10
-6.78371022E+01
 20
-1.72516699E+02
  0
VERTEX
  8
0
 62
4
 10
-6.75630686E+01
 20
-1.72468419E+02
  0
VERTEX
  8
0
 62
4
 10
-6.72999707E+01
 20
-1.72410164E+02
  0
VERTEX
  8
0
 62
4
 10
-6.70498108E+01
 20
-1.72342378E+02
  0
VERTEX
  8
0
 62
4
 10
-6.68144928E+01
 20
-1.72265575E+02
  0
VERTEX
  8
0
 62
4
 10
-6.65958076E+01
 20
-1.72180342E+02
  0
VERTEX
  8
0
 62
4
 10
-6.63954196E+01
 20
-1.72087325E+02
  0
VERTEX
  8
0
 62
4
 10
-6.62148537E+01
 20
-1.71987235E+02
  0
VERTEX
  8
0
 62
4
 10
-6.60554843E+01
 20
-1.71880831E+02
  0
VERTEX
  8
0
 62
4
 10
-6.59185242E+01
 20
-1.71768924E+02
  0
VERTEX
  8
0
 62
4
 10
-6.58050158E+01
 20
-1.71652366E+02
  0
VERTEX
  8
0
 62
4
 10
-6.57158229E+01
 20
-1.71532043E+02
  0
VERTEX
  8
0
 62
4
 10
-6.56516243E+01
 20
-1.71408872E+02
  0
VERTEX
  8
0
 62
4
 10
-6.56129087E+01
 20
-1.71283790E+02
  0
VERTEX
  8
0
 62
4
 10
-6.55999707E+01
 20
-1.71157748E+02
  0
SEQEND
  8
0
  0
LINE
  8
0
 62
4
 10
-4.19999707E+01
 20
-1.45753522E+02
 11
-4.19999707E+01
 21
-1.69651769E+02
  0
LINE
  8
0
 62
4
 10
3.15860023E+02
 20
-2.81261071E+02
 11
3.15531427E+02
 21
-2.82054287E+02
  0
LINE
  8
0
 62
4
 10
3.22140023E+02
 20
-2.81261071E+02
 11
3.22500023E+02
 21
-2.82206589E+02
  0
POLYLINE
  8
0
 62
4
 66
1
  0
VERTEX
  8
0
 62
4
 10
3.15531427E+02
 20
-2.82054286E+02
  0
VERTEX
  8
0
 62
4
 10
3.15503650E+02
 20
-2.82154727E+02
  0
VERTEX
  8
0
 62
4
 10
3.15503259E+02
 20
-2.82255574E+02
  0
VERTEX
  8
0
 62
4
 10
3.15530256E+02
 20
-2.82356038E+02
  0
VERTEX
  8
0
 62
4
 10
3.15584431E+02
 20
-2.82455331E+02
  0
VERTEX
  8
0
 62
4
 10
3.15665359E+02
 20
-2.82552675E+02
  0
VERTEX
  8
0
 62
4
 10
3.15772407E+02
 20
-2.82647309E+02
  0
VERTEX
  8
0
 62
4
 10
3.15904735E+02
 20
-2.82738491E+02
  0
VERTEX
  8
0
 62
4
 10
3.16061307E+02
 20
-2.82825507E+02
  0
VERTEX
  8
0
 62
4
 10
3.16240898E+02
 20
-2.82907675E+02
  0
VERTEX
  8
0
 62
4
 10
3.16442099E+02
 20
-2.82984351E+02
  0
VERTEX
  8
0
 62
4
 10
3.16663336E+02
 20
-2.83054936E+02
  0
VERTEX
  8
0
 62
4
 10
3.16902876E+02
 20
-2.83118876E+02
  0
VERTEX
  8
0
 62
4
 10
3.17158841E+02
 20
-2.83175670E+02
  0
VERTEX
  8
0
 62
4
 10
3.17429228E+02
 20
-2.83224874E+02
  0
VERTEX
  8
0
 62
4
 10
3.17711919E+02
 20
-2.83266101E+02
  0
VERTEX
  8
0
 62
4
 10
3.18004699E+02
 20
-2.83299030E+02
  0
VERTEX
  8
0
 62
4
 10
3.18305274E+02
 20
-2.83323403E+02
  0
VERTEX
  8
0
 62
4
 10
3.18611292E+02
 20
-2.83339028E+02
  0
VERTEX
  8
0
 62
4
 10
3.18920354E+02
 20
-2.83345782E+02
  0
VERTEX
  8
0
 62
4
 10
3.19230040E+02
 20
-2.83343614E+02
  0
VERTEX
  8
0
 62
4
 10
3.19537925E+02
 20
-2.83332540E+02
  0
VERTEX
  8
0
 62
4
 10
3.19841596E+02
 20
-2.83312647E+02
  0
VERTEX
  8
0
 62
4
 10
3.20138676E+02
 20
-2.83284090E+02
  0
VERTEX
  8
0
 62
4
 10
3.20426837E+02
 20
-2.83247094E+02
  0
VERTEX
  8
0
 62
4
 10
3.20703822E+02
 20
-2.83201948E+02
  0
VERTEX
  8
0
 62
4
 10
3.20967462E+02
 20
-2.83149005E+02
  0
VERTEX
  8
0
 62
4
 10
3.21215692E+02
 20
-2.83088681E+02
  0
VERTEX
  8
0
 62
4
 10
3.21446567E+02
 20
-2.83021448E+02
  0
VERTEX
  8
0
 62
4
 10
3.21658280E+02
 20
-2.82947832E+02
  0
VERTEX
  8
0
 62
4
 10
3.21849171E+02
 20
-2.82868410E+02
  0
VERTEX
  8
0
 62
4
 10
3.22017745E+02
 20
-2.82783805E+02
  0
VERTEX
  8
0
 62
4
 10
3.22162683E+02
 20
-2.82694678E+02
  0
VERTEX
  8
0
 62
4
 10
3.22282849E+02
 20
-2.82601729E+02
  0
VERTEX
  8
0
 62
4
 10
3.22377302E+02
 20
-2.82505684E+02
  0
VERTEX
  8
0
 62
4
 10
3.22445302E+02
 20
-2.82407297E+02
  0
VERTEX
  8
0
 62
4
 10
3.22486316E+02
 20
-2.82307338E+02
  0
VERTEX
  8
0
 62
4
 10
3.22500023E+02
 20
-2.82206589E+02
  0
SEQEND
  8
0
  0
POLYLINE
  8
0
 62
4
 66
1
  0
VERTEX
  8
0
 62
4
 10
3.22140023E+02
 20
-2.81261071E+02
  0
VERTEX
  8
0
 62
4
 10
3.22128074E+02
 20
-2.81171973E+02
  0
VERTEX
  8
0
 62
4
 10
3.22092319E+02
 20
-2.81083553E+02
  0
VERTEX
  8
0
 62
4
 10
3.22033030E+02
 20
-2.80996484E+02
  0
VERTEX
  8
0
 62
4
 10
3.21950658E+02
 20
-2.80911429E+02
  0
VERTEX
  8
0
 62
4
 10
3.21845829E+02
 20
-2.80829035E+02
  0
VERTEX
  8
0
 62
4
 10
3.21719343E+02
 20
-2.80749929E+02
  0
VERTEX
  8
0
 62
4
 10
3.21572160E+02
 20
-2.80674713E+02
  0
VERTEX
  8
0
 62
4
 10
3.21405403E+02
 20
-2.80603960E+02
  0
VERTEX
  8
0
 62
4
 10
3.21220338E+02
 20
-2.80538207E+02
  0
VERTEX
  8
0
 62
4
 10
3.21018376E+02
 20
-2.80477956E+02
  0
VERTEX
  8
0
 62
4
 10
3.20801053E+02
 20
-2.80423665E+02
  0
VERTEX
  8
0
 62
4
 10
3.20570023E+02
 20
-2.80375747E+02
  0
VERTEX
  8
0
 62
4
 10
3.20327044E+02
 20
-2.80334567E+02
  0
VERTEX
  8
0
 62
4
 10
3.20073966E+02
 20
-2.80300438E+02
  0
VERTEX
  8
0
 62
4
 10
3.19812715E+02
 20
-2.80273620E+02
  0
VERTEX
  8
0
 62
4
 10
3.19545278E+02
 20
-2.80254318E+02
  0
VERTEX
  8
0
 62
4
 10
3.19273692E+02
 20
-2.80242677E+02
  0
VERTEX
  8
0
 62
4
 10
3.19000023E+02
 20
-2.80238787E+02
  0
VERTEX
  8
0
 62
4
 10
3.18726354E+02
 20
-2.80242677E+02
  0
VERTEX
  8
0
 62
4
 10
3.18454768E+02
 20
-2.80254318E+02
  0
VERTEX
  8
0
 62
4
 10
3.18187331E+02
 20
-2.80273620E+02
  0
VERTEX
  8
0
 62
4
 10
3.17926080E+02
 20
-2.80300438E+02
  0
VERTEX
  8
0
 62
4
 10
3.17673002E+02
 20
-2.80334567E+02
  0
VERTEX
  8
0
 62
4
 10
3.17430023E+02
 20
-2.80375747E+02
  0
VERTEX
  8
0
 62
4
 10
3.17198993E+02
 20
-2.80423665E+02
  0
VERTEX
  8
0
 62
4
 10
3.16981670E+02
 20
-2.80477956E+02
  0
VERTEX
  8
0
 62
4
 10
3.16779708E+02
 20
-2.80538207E+02
  0
VERTEX
  8
0
 62
4
 10
3.16594643E+02
 20
-2.80603960E+02
  0
VERTEX
  8
0
 62
4
 10
3.16427886E+02
 20
-2.80674713E+02
  0
VERTEX
  8
0
 62
4
 10
3.16280703E+02
 20
-2.80749929E+02
  0
VERTEX
  8
0
 62
4
 10
3.16154217E+02
 20
-2.80829035E+02
  0
VERTEX
  8
0
 62
4
 10
3.16049388E+02
 20
-2.80911429E+02
  0
VERTEX
  8
0
 62
4
 10
3.15967016E+02
 20
-2.80996484E+02
  0
VERTEX
  8
0
 62
4
 10
3.15907727E+02
 20
-2.81083553E+02
  0
VERTEX
  8
0
 62
4
 10
3.15871972E+02
 20
-2.81171973E+02
  0
VERTEX
  8
0
 62
4
 10
3.15860023E+02
 20
-2.81261071E+02
  0
VERTEX
  8
0
 62
4
 10
3.15871972E+02
 20
-2.81350169E+02
  0
VERTEX
  8
0
 62
4
 10
3.15907727E+02
 20
-2.81438589E+02
  0
VERTEX
  8
0
 62
4
 10
3.15967016E+02
 20
-2.81525658E+02
  0
VERTEX
  8
0
 62
4
 10
3.16049388E+02
 20
-2.81610713E+02
  0
VERTEX
  8
0
 62
4
 10
3.16154217E+02
 20
-2.81693107E+02
  0
VERTEX
  8
0
 62
4
 10
3.16280703E+02
 20
-2.81772213E+02
  0
VERTEX
  8
0
 62
4
 10
3.16427886E+02
 20
-2.81847429E+02
  0
VERTEX
  8
0
 62
4
 10
3.16594643E+02
 20
-2.81918182E+02
  0
VERTEX
  8
0
 62
4
 10
3.16779708E+02
 20
-2.81983935E+02
  0
VERTEX
  8
0
 62
4
 10
3.16981670E+02
 20
-2.82044186E+02
  0
VERTEX
  8
0
 62
4
 10
3.17198993E+02
 20
-2.82098477E+02
  0
VERTEX
  8
0
 62
4
 10
3.17430023E+02
 20
-2.82146395E+02
  0
VERTEX
  8
0
 62
4
 10
3.17673002E+02
 20
-2.82187575E+02
  0
VERTEX
  8
0
 62
4
 10
3.17926080E+02
 20
-2.82221704E+02
  0
VERTEX
  8
0
 62
4
 10
3.18187331E+02
 20
-2.82248522E+02
  0
VERTEX
  8
0
 62
4
 10
3.18454768E+02
 20
-2.82267824E+02
  0
VERTEX
  8
0
 62
4
 10
3.18726354E+02
 20
-2.82279465E+02
  0
VERTEX
  8
0
 62
4
 10
3.19000023E+02
 20
-2.82283355E+02
  0
VERTEX
  8
0
 62
4
 10
3.19273692E+02
 20
-2.82279465E+02
  0
VERTEX
  8
0
 62
4
 10
3.19545278E+02
 20
-2.82267824E+02
  0
VERTEX
  8
0
 62
4
 10
3.19812715E+02
 20
-2.82248522E+02
  0
VERTEX
  8
0
 62
4
 10
3.20073966E+02
 20
-2.82221704E+02
  0
VERTEX
  8
0
 62
4
 10
3.20327044E+02
 20
-2.82187575E+02
  0
VERTEX
  8
0
 62
4
 10
3.20570023E+02
 20
-2.82146395E+02
  0
VERTEX
  8
0
 62
4
 10
3.20801053E+02
 20
-2.82098477E+02
  0
VERTEX
  8
0
 62
4
 10
3.21018376E+02
 20
-2.82044186E+02
  0
VERTEX
  8
0
 62
4
 10
3.21220338E+02
 20
-2.81983935E+02
  0
VERTEX
  8
0
 62
4
 10
3.21405403E+02
 20
-2.81918182E+02
  0
VERTEX
  8
0
 62
4
 10
3.21572160E+02
 20
-2.81847429E+02
  0
VERTEX
  8
0
 62
4
 10
3.21719343E+02
 20
-2.81772213E+02
  0
VERTEX
  8
0
 62
4
 10
3.21845829E+02
 20
-2.81693107E+02
  0
VERTEX
  8
0
 62
4
 10
3.21950658E+02
 20
-2.81610713E+02
  0
VERTEX
  8
0
 62
4
 10
3.22033030E+02
 20
-2.81525658E+02
  0
VERTEX
  8
0
 62
4
 10
3.22092319E+02
 20
-2.81438589E+02
  0
VERTEX
  8
0
 62
4
 10
3.22128074E+02
 20
-2.81350169E+02
  0
VERTEX
  8
0
 62
4
 10
3.22140023E+02
 20
-2.81261071E+02
  0
SEQEND
  8
0
  0
LINE
  8
0
  6
CENTER
 62
6
 10
3.19000023E+02
 20
-2.78601546E+02
 11
3.19000023E+02
 21
-2.81261071E+02
  0
LINE
  8
0
 62
4
 10
3.45500023E+02
 20
-2.83702750E+02
 11
3.45500023E+02
 21
-2.80075965E+02
  0
LINE
  8
0
 62
4
 10
3.27500023E+02
 20
-2.78976132E+02
 11
3.09500023E+02
 21
-2.78976132E+02
  0
LINE
  8
0
 62
4
 10
3.09500023E+02
 20
-2.83702750E+02
 11
3.09500023E+02
 21
-2.80075965E+02
  0
ARC
  8
0
 62
4
 10
3.45502510E+02
 20
-2.80473645E+02
 40
1.49751542E+00
 50
3.59904859E+02
 51
9.00951404E+01
  0
LINE
  8
0
 62
4
 10
3.45500023E+02
 20
-2.78976132E+02
 11
3.42500023E+02
 21
-2.78976132E+02
  0
ARC
  8
0
 62
4
 10
3.09497536E+02
 20
-2.80473645E+02
 40
1.49751542E+00
 50
8.99048594E+01
 51
1.80095141E+02
  0
POLYLINE
  8
0
 62
6
 66
1
  0
VERTEX
  8
0
 62
6
 10
3.40500023E+02
 20
-3.13024577E+02
  0
VERTEX
  8
0
 62
6
 10
3.40494315E+02
 20
-3.12900966E+02
  0
VERTEX
  8
0
 62
6
 10
3.40477235E+02
 20
-3.12778296E+02
  0
VERTEX
  8
0
 62
6
 10
3.40448912E+02
 20
-3.12657500E+02
  0
VERTEX
  8
0
 62
6
 10
3.40409562E+02
 20
-3.12539497E+02
  0
VERTEX
  8
0
 62
6
 10
3.40359485E+02
 20
-3.12425187E+02
  0
VERTEX
  8
0
 62
6
 10
3.40299061E+02
 20
-3.12315438E+02
  0
VERTEX
  8
0
 62
6
 10
3.40228751E+02
 20
-3.12211086E+02
  0
VERTEX
  8
0
 62
6
 10
3.40149090E+02
 20
-3.12112926E+02
  0
VERTEX
  8
0
 62
6
 10
3.40060683E+02
 20
-3.12021703E+02
  0
VERTEX
  8
0
 62
6
 10
3.39964204E+02
 20
-3.11938113E+02
  0
VERTEX
  8
0
 62
6
 10
3.39860388E+02
 20
-3.11862792E+02
  0
VERTEX
  8
0
 62
6
 10
3.39750023E+02
 20
-3.11796312E+02
  0
VERTEX
  8
0
 62
6
 10
3.39633950E+02
 20
-3.11739181E+02
  0
VERTEX
  8
0
 62
6
 10
3.39513053E+02
 20
-3.11691832E+02
  0
VERTEX
  8
0
 62
6
 10
3.39388252E+02
 20
-3.11654626E+02
  0
VERTEX
  8
0
 62
6
 10
3.39260495E+02
 20
-3.11627846E+02
  0
VERTEX
  8
0
 62
6
 10
3.39130757E+02
 20
-3.11611696E+02
  0
VERTEX
  8
0
 62
6
 10
3.39000023E+02
 20
-3.11606299E+02
  0
VERTEX
  8
0
 62
6
 10
3.38869289E+02
 20
-3.11611696E+02
  0
VERTEX
  8
0
 62
6
 10
3.38739551E+02
 20
-3.11627846E+02
  0
VERTEX
  8
0
 62
6
 10
3.38611794E+02
 20
-3.11654626E+02
  0
VERTEX
  8
0
 62
6
 10
3.38486993E+02
 20
-3.11691832E+02
  0
VERTEX
  8
0
 62
6
 10
3.38366096E+02
 20
-3.11739181E+02
  0
VERTEX
  8
0
 62
6
 10
3.38250023E+02
 20
-3.11796312E+02
  0
VERTEX
  8
0
 62
6
 10
3.38139658E+02
 20
-3.11862792E+02
  0
VERTEX
  8
0
 62
6
 10
3.38035842E+02
 20
-3.11938113E+02
  0
VERTEX
  8
0
 62
6
 10
3.37939363E+02
 20
-3.12021703E+02
  0
VERTEX
  8
0
 62
6
 10
3.37850956E+02
 20
-3.12112926E+02
  0
VERTEX
  8
0
 62
6
 10
3.37771295E+02
 20
-3.12211086E+02
  0
VERTEX
  8
0
 62
6
 10
3.37700985E+02
 20
-3.12315438E+02
  0
VERTEX
  8
0
 62
6
 10
3.37640561E+02
 20
-3.12425187E+02
  0
VERTEX
  8
0
 62
6
 10
3.37590484E+02
 20
-3.12539497E+02
  0
VERTEX
  8
0
 62
6
 10
3.37551134E+02
 20
-3.12657500E+02
  0
VERTEX
  8
0
 62
6
 10
3.37522811E+02
 20
-3.12778296E+02
  0
VERTEX
  8
0
 62
6
 10
3.37505731E+02
 20
-3.12900966E+02
  0
VERTEX
  8
0
 62
6
 10
3.37500023E+02
 20
-3.13024577E+02
  0
VERTEX
  8
0
 62
6
 10
3.37505731E+02
 20
-3.13148188E+02
  0
VERTEX
  8
0
 62
6
 10
3.37522811E+02
 20
-3.13270858E+02
  0
VERTEX
  8
0
 62
6
 10
3.37551134E+02
 20
-3.13391654E+02
  0
VERTEX
  8
0
 62
6
 10
3.37590484E+02
 20
-3.13509657E+02
  0
VERTEX
  8
0
 62
6
 10
3.37640561E+02
 20
-3.13623967E+02
  0
VERTEX
  8
0
 62
6
 10
3.37700985E+02
 20
-3.13733716E+02
  0
VERTEX
  8
0
 62
6
 10
3.37771295E+02
 20
-3.13838068E+02
  0
VERTEX
  8
0
 62
6
 10
3.37850956E+02
 20
-3.13936228E+02
  0
VERTEX
  8
0
 62
6
 10
3.37939363E+02
 20
-3.14027451E+02
  0
VERTEX
  8
0
 62
6
 10
3.38035842E+02
 20
-3.14111041E+02
  0
VERTEX
  8
0
 62
6
 10
3.38139658E+02
 20
-3.14186362E+02
  0
VERTEX
  8
0
 62
6
 10
3.38250023E+02
 20
-3.14252842E+02
  0
VERTEX
  8
0
 62
6
 10
3.38366096E+02
 20
-3.14309973E+02
  0
VERTEX
  8
0
 62
6
 10
3.38486993E+02
 20
-3.14357322E+02
  0
VERTEX
  8
0
 62
6
 10
3.38611794E+02
 20
-3.14394528E+02
  0
VERTEX
  8
0
 62
6
 10
3.38739551E+02
 20
-3.14421308E+02
  0
VERTEX
  8
0
 62
6
 10
3.38869289E+02
 20
-3.14437458E+02
  0
VERTEX
  8
0
 62
6
 10
3.39000023E+02
 20
-3.14442855E+02
  0
VERTEX
  8
0
 62
6
 10
3.39130757E+02
 20
-3.14437458E+02
  0
VERTEX
  8
0
 62
6
 10
3.39260495E+02
 20
-3.14421308E+02
  0
VERTEX
  8
0
 62
6
 10
3.39388252E+02
 20
-3.14394528E+02
  0
VERTEX
  8
0
 62
6
 10
3.39513053E+02
 20
-3.14357322E+02
  0
VERTEX
  8
0
 62
6
 10
3.39633950E+02
 20
-3.14309973E+02
  0
VERTEX
  8
0
 62
6
 10
3.39750023E+02
 20
-3.14252842E+02
  0
VERTEX
  8
0
 62
6
 10
3.39860388E+02
 20
-3.14186362E+02
  0
VERTEX
  8
0
 62
6
 10
3.39964204E+02
 20
-3.14111041E+02
  0
VERTEX
  8
0
 62
6
 10
3.40060683E+02
 20
-3.14027451E+02
  0
VERTEX
  8
0
 62
6
 10
3.40149090E+02
 20
-3.13936228E+02
  0
VERTEX
  8
0
 62
6
 10
3.40228751E+02
 20
-3.13838068E+02
  0
VERTEX
  8
0
 62
6
 10
3.40299061E+02
 20
-3.13733716E+02
  0
VERTEX
  8
0
 62
6
 10
3.40359485E+02
 20
-3.13623967E+02
  0
VERTEX
  8
0
 62
6
 10
3.40409562E+02
 20
-3.13509657E+02
  0
VERTEX
  8
0
 62
6
 10
3.40448912E+02
 20
-3.13391654E+02
  0
VERTEX
  8
0
 62
6
 10
3.40477235E+02
 20
-3.13270858E+02
  0
VERTEX
  8
0
 62
6
 10
3.40494315E+02
 20
-3.13148188E+02
  0
VERTEX
  8
0
 62
6
 10
3.40500023E+02
 20
-3.13024577E+02
  0
SEQEND
  8
0
  0
POLYLINE
  8
0
 62
4
 66
1
  0
VERTEX
  8
0
 62
4
 10
3.40735023E+02
 20
-3.13024577E+02
  0
VERTEX
  8
0
 62
4
 10
3.40728421E+02
 20
-3.12882012E+02
  0
VERTEX
  8
0
 62
4
 10
3.40708664E+02
 20
-3.12740532E+02
  0
VERTEX
  8
0
 62
4
 10
3.40675904E+02
 20
-3.12601214E+02
  0
VERTEX
  8
0
 62
4
 10
3.40630390E+02
 20
-3.12465119E+02
  0
VERTEX
  8
0
 62
4
 10
3.40572467E+02
 20
-3.12333280E+02
  0
VERTEX
  8
0
 62
4
 10
3.40502577E+02
 20
-3.12206703E+02
  0
VERTEX
  8
0
 62
4
 10
3.40421252E+02
 20
-3.12086351E+02
  0
VERTEX
  8
0
 62
4
 10
3.40329110E+02
 20
-3.11973139E+02
  0
VERTEX
  8
0
 62
4
 10
3.40226853E+02
 20
-3.11867929E+02
  0
VERTEX
  8
0
 62
4
 10
3.40115260E+02
 20
-3.11771522E+02
  0
VERTEX
  8
0
 62
4
 10
3.39995178E+02
 20
-3.11684651E+02
  0
VERTEX
  8
0
 62
4
 10
3.39867523E+02
 20
-3.11607978E+02
  0
VERTEX
  8
0
 62
4
 10
3.39733266E+02
 20
-3.11542087E+02
  0
VERTEX
  8
0
 62
4
 10
3.39593428E+02
 20
-3.11487477E+02
  0
VERTEX
  8
0
 62
4
 10
3.39449074E+02
 20
-3.11444567E+02
  0
VERTEX
  8
0
 62
4
 10
3.39301303E+02
 20
-3.11413681E+02
  0
VERTEX
  8
0
 62
4
 10
3.39151238E+02
 20
-3.11395054E+02
  0
VERTEX
  8
0
 62
4
 10
3.39000023E+02
 20
-3.11388830E+02
  0
VERTEX
  8
0
 62
4
 10
3.38848808E+02
 20
-3.11395054E+02
  0
VERTEX
  8
0
 62
4
 10
3.38698743E+02
 20
-3.11413681E+02
  0
VERTEX
  8
0
 62
4
 10
3.38550972E+02
 20
-3.11444567E+02
  0
VERTEX
  8
0
 62
4
 10
3.38406618E+02
 20
-3.11487477E+02
  0
VERTEX
  8
0
 62
4
 10
3.38266780E+02
 20
-3.11542087E+02
  0
VERTEX
  8
0
 62
4
 10
3.38132523E+02
 20
-3.11607978E+02
  0
VERTEX
  8
0
 62
4
 10
3.38004868E+02
 20
-3.11684651E+02
  0
VERTEX
  8
0
 62
4
 10
3.37884786E+02
 20
-3.11771522E+02
  0
VERTEX
  8
0
 62
4
 10
3.37773193E+02
 20
-3.11867929E+02
  0
VERTEX
  8
0
 62
4
 10
3.37670936E+02
 20
-3.11973139E+02
  0
VERTEX
  8
0
 62
4
 10
3.37578794E+02
 20
-3.12086351E+02
  0
VERTEX
  8
0
 62
4
 10
3.37497469E+02
 20
-3.12206703E+02
  0
VERTEX
  8
0
 62
4
 10
3.37427579E+02
 20
-3.12333280E+02
  0
VERTEX
  8
0
 62
4
 10
3.37369656E+02
 20
-3.12465119E+02
  0
VERTEX
  8
0
 62
4
 10
3.37324142E+02
 20
-3.12601214E+02
  0
VERTEX
  8
0
 62
4
 10
3.37291382E+02
 20
-3.12740532E+02
  0
VERTEX
  8
0
 62
4
 10
3.37271625E+02
 20
-3.12882012E+02
  0
VERTEX
  8
0
 62
4
 10
3.37265023E+02
 20
-3.13024577E+02
  0
VERTEX
  8
0
 62
4
 10
3.37271625E+02
 20
-3.13167142E+02
  0
VERTEX
  8
0
 62
4
 10
3.37291382E+02
 20
-3.13308622E+02
  0
VERTEX
  8
0
 62
4
 10
3.37324142E+02
 20
-3.13447940E+02
  0
VERTEX
  8
0
 62
4
 10
3.37369656E+02
 20
-3.13584035E+02
  0
VERTEX
  8
0
 62
4
 10
3.37427579E+02
 20
-3.13715874E+02
  0
VERTEX
  8
0
 62
4
 10
3.37497469E+02
 20
-3.13842451E+02
  0
VERTEX
  8
0
 62
4
 10
3.37578794E+02
 20
-3.13962803E+02
  0
VERTEX
  8
0
 62
4
 10
3.37670936E+02
 20
-3.14076015E+02
  0
VERTEX
  8
0
 62
4
 10
3.37773193E+02
 20
-3.14181225E+02
  0
VERTEX
  8
0
 62
4
 10
3.37884786E+02
 20
-3.14277632E+02
  0
VERTEX
  8
0
 62
4
 10
3.38004868E+02
 20
-3.14364503E+02
  0
VERTEX
  8
0
 62
4
 10
3.38132523E+02
 20
-3.14441176E+02
  0
VERTEX
  8
0
 62
4
 10
3.38266780E+02
 20
-3.14507067E+02
  0
VERTEX
  8
0
 62
4
 10
3.38406618E+02
 20
-3.14561677E+02
  0
VERTEX
  8
0
 62
4
 10
3.38550972E+02
 20
-3.14604587E+02
  0
VERTEX
  8
0
 62
4
 10
3.38698743E+02
 20
-3.14635473E+02
  0
VERTEX
  8
0
 62
4
 10
3.38848808E+02
 20
-3.14654100E+02
  0
VERTEX
  8
0
 62
4
 10
3.39000023E+02
 20
-3.14660324E+02
  0
VERTEX
  8
0
 62
4
 10
3.39151238E+02
 20
-3.14654100E+02
  0
VERTEX
  8
0
 62
4
 10
3.39301303E+02
 20
-3.14635473E+02
  0
VERTEX
  8
0
 62
4
 10
3.39449074E+02
 20
-3.14604587E+02
  0
VERTEX
  8
0
 62
4
 10
3.39593428E+02
 20
-3.14561677E+02
  0
VERTEX
  8
0
 62
4
 10
3.39733266E+02
 20
-3.14507067E+02
  0
VERTEX
  8
0
 62
4
 10
3.39867523E+02
 20
-3.14441176E+02
  0
VERTEX
  8
0
 62
4
 10
3.39995178E+02
 20
-3.14364503E+02
  0
VERTEX
  8
0
 62
4
 10
3.40115260E+02
 20
-3.14277632E+02
  0
VERTEX
  8
0
 62
4
 10
3.40226853E+02
 20
-3.14181225E+02
  0
VERTEX
  8
0
 62
4
 10
3.40329110E+02
 20
-3.14076015E+02
  0
VERTEX
  8
0
 62
4
 10
3.40421252E+02
 20
-3.13962803E+02
  0
VERTEX
  8
0
 62
4
 10
3.40502577E+02
 20
-3.13842451E+02
  0
VERTEX
  8
0
 62
4
 10
3.40572467E+02
 20
-3.13715874E+02
  0
VERTEX
  8
0
 62
4
 10
3.40630390E+02
 20
-3.13584035E+02
  0
VERTEX
  8
0
 62
4
 10
3.40675904E+02
 20
-3.13447940E+02
  0
VERTEX
  8
0
 62
4
 10
3.40708664E+02
 20
-3.13308622E+02
  0
VERTEX
  8
0
 62
4
 10
3.40728421E+02
 20
-3.13167142E+02
  0
VERTEX
  8
0
 62
4
 10
3.40735023E+02
 20
-3.13024577E+02
  0
SEQEND
  8
0
  0
POLYLINE
  8
0
 62
4
 66
1
  0
VERTEX
  8
0
 62
4
 10
3.40493100E+02
 20
-3.13857735E+02
  0
VERTEX
  8
0
 62
4
 10
3.40604765E+02
 20
-3.13728167E+02
  0
VERTEX
  8
0
 62
4
 10
3.40703895E+02
 20
-3.13589783E+02
  0
VERTEX
  8
0
 62
4
 10
3.40789713E+02
 20
-3.13443663E+02
  0
VERTEX
  8
0
 62
4
 10
3.40861552E+02
 20
-3.13290949E+02
  0
VERTEX
  8
0
 62
4
 10
3.40918848E+02
 20
-3.13132833E+02
  0
VERTEX
  8
0
 62
4
 10
3.40961154E+02
 20
-3.12970552E+02
  0
VERTEX
  8
0
 62
4
 10
3.40988141E+02
 20
-3.12805373E+02
  0
VERTEX
  8
0
 62
4
 10
3.40999597E+02
 20
-3.12638586E+02
  0
VERTEX
  8
0
 62
4
 10
3.40995432E+02
 20
-3.12471493E+02
  0
VERTEX
  8
0
 62
4
 10
3.40975680E+02
 20
-3.12305402E+02
  0
VERTEX
  8
0
 62
4
 10
3.40940494E+02
 20
-3.12141608E+02
  0
VERTEX
  8
0
 62
4
 10
3.40890149E+02
 20
-3.11981391E+02
  0
VERTEX
  8
0
 62
4
 10
3.40825039E+02
 20
-3.11826003E+02
  0
VERTEX
  8
0
 62
4
 10
3.40745673E+02
 20
-3.11676658E+02
  0
VERTEX
  8
0
 62
4
 10
3.40652669E+02
 20
-3.11534523E+02
  0
VERTEX
  8
0
 62
4
 10
3.40546756E+02
 20
-3.11400707E+02
  0
VERTEX
  8
0
 62
4
 10
3.40428759E+02
 20
-3.11276257E+02
  0
VERTEX
  8
0
 62
4
 10
3.40299602E+02
 20
-3.11162144E+02
  0
VERTEX
  8
0
 62
4
 10
3.40160292E+02
 20
-3.11059259E+02
  0
VERTEX
  8
0
 62
4
 10
3.40011919E+02
 20
-3.10968407E+02
  0
VERTEX
  8
0
 62
4
 10
3.39855640E+02
 20
-3.10890298E+02
  0
VERTEX
  8
0
 62
4
 10
3.39692678E+02
 20
-3.10825540E+02
  0
VERTEX
  8
0
 62
4
 10
3.39524305E+02
 20
-3.10774641E+02
  0
VERTEX
  8
0
 62
4
 10
3.39351836E+02
 20
-3.10737998E+02
  0
VERTEX
  8
0
 62
4
 10
3.39176620E+02
 20
-3.10715897E+02
  0
VERTEX
  8
0
 62
4
 10
3.39000023E+02
 20
-3.10708511E+02
  0
VERTEX
  8
0
 62
4
 10
3.38823426E+02
 20
-3.10715897E+02
  0
VERTEX
  8
0
 62
4
 10
3.38648209E+02
 20
-3.10737998E+02
  0
VERTEX
  8
0
 62
4
 10
3.38475741E+02
 20
-3.10774641E+02
  0
VERTEX
  8
0
 62
4
 10
3.38307368E+02
 20
-3.10825540E+02
  0
VERTEX
  8
0
 62
4
 10
3.38144406E+02
 20
-3.10890298E+02
  0
VERTEX
  8
0
 62
4
 10
3.37988127E+02
 20
-3.10968407E+02
  0
VERTEX
  8
0
 62
4
 10
3.37839754E+02
 20
-3.11059259E+02
  0
VERTEX
  8
0
 62
4
 10
3.37700444E+02
 20
-3.11162144E+02
  0
VERTEX
  8
0
 62
4
 10
3.37571287E+02
 20
-3.11276257E+02
  0
VERTEX
  8
0
 62
4
 10
3.37453290E+02
 20
-3.11400707E+02
  0
VERTEX
  8
0
 62
4
 10
3.37347377E+02
 20
-3.11534523E+02
  0
VERTEX
  8
0
 62
4
 10
3.37254373E+02
 20
-3.11676658E+02
  0
VERTEX
  8
0
 62
4
 10
3.37175007E+02
 20
-3.11826003E+02
  0
VERTEX
  8
0
 62
4
 10
3.37109897E+02
 20
-3.11981391E+02
  0
VERTEX
  8
0
 62
4
 10
3.37059552E+02
 20
-3.12141608E+02
  0
VERTEX
  8
0
 62
4
 10
3.37024366E+02
 20
-3.12305402E+02
  0
VERTEX
  8
0
 62
4
 10
3.37004614E+02
 20
-3.12471493E+02
  0
VERTEX
  8
0
 62
4
 10
3.37000449E+02
 20
-3.12638586E+02
  0
VERTEX
  8
0
 62
4
 10
3.37011905E+02
 20
-3.12805373E+02
  0
VERTEX
  8
0
 62
4
 10
3.37038892E+02
 20
-3.12970552E+02
  0
VERTEX
  8
0
 62
4
 10
3.37081198E+02
 20
-3.13132833E+02
  0
VERTEX
  8
0
 62
4
 10
3.37138494E+02
 20
-3.13290949E+02
  0
VERTEX
  8
0
 62
4
 10
3.37210333E+02
 20
-3.13443663E+02
  0
VERTEX
  8
0
 62
4
 10
3.37296151E+02
 20
-3.13589783E+02
  0
VERTEX
  8
0
 62
4
 10
3.37395281E+02
 20
-3.13728167E+02
  0
VERTEX
  8
0
 62
4
 10
3.37506946E+02
 20
-3.13857735E+02
  0
SEQEND
  8
0
  0
POLYLINE
  8
0
 62
6
 66
1
  0
VERTEX
  8
0
 62
6
 10
3.32500023E+02
 20
-3.13024577E+02
  0
VERTEX
  8
0
 62
6
 10
3.32494315E+02
 20
-3.12900966E+02
  0
VERTEX
  8
0
 62
6
 10
3.32477235E+02
 20
-3.12778296E+02
  0
VERTEX
  8
0
 62
6
 10
3.32448912E+02
 20
-3.12657500E+02
  0
VERTEX
  8
0
 62
6
 10
3.32409562E+02
 20
-3.12539497E+02
  0
VERTEX
  8
0
 62
6
 10
3.32359485E+02
 20
-3.12425187E+02
  0
VERTEX
  8
0
 62
6
 10
3.32299061E+02
 20
-3.12315438E+02
  0
VERTEX
  8
0
 62
6
 10
3.32228751E+02
 20
-3.12211086E+02
  0
VERTEX
  8
0
 62
6
 10
3.32149090E+02
 20
-3.12112926E+02
  0
VERTEX
  8
0
 62
6
 10
3.32060683E+02
 20
-3.12021703E+02
  0
VERTEX
  8
0
 62
6
 10
3.31964204E+02
 20
-3.11938113E+02
  0
VERTEX
  8
0
 62
6
 10
3.31860388E+02
 20
-3.11862792E+02
  0
VERTEX
  8
0
 62
6
 10
3.31750023E+02
 20
-3.11796312E+02
  0
VERTEX
  8
0
 62
6
 10
3.31633950E+02
 20
-3.11739181E+02
  0
VERTEX
  8
0
 62
6
 10
3.31513053E+02
 20
-3.11691832E+02
  0
VERTEX
  8
0
 62
6
 10
3.31388252E+02
 20
-3.11654626E+02
  0
VERTEX
  8
0
 62
6
 10
3.31260495E+02
 20
-3.11627846E+02
  0
VERTEX
  8
0
 62
6
 10
3.31130757E+02
 20
-3.11611696E+02
  0
VERTEX
  8
0
 62
6
 10
3.31000023E+02
 20
-3.11606299E+02
  0
VERTEX
  8
0
 62
6
 10
3.30869289E+02
 20
-3.11611696E+02
  0
VERTEX
  8
0
 62
6
 10
3.30739551E+02
 20
-3.11627846E+02
  0
VERTEX
  8
0
 62
6
 10
3.30611794E+02
 20
-3.11654626E+02
  0
VERTEX
  8
0
 62
6
 10
3.30486993E+02
 20
-3.11691832E+02
  0
VERTEX
  8
0
 62
6
 10
3.30366096E+02
 20
-3.11739181E+02
  0
VERTEX
  8
0
 62
6
 10
3.30250023E+02
 20
-3.11796312E+02
  0
VERTEX
  8
0
 62
6
 10
3.30139658E+02
 20
-3.11862792E+02
  0
VERTEX
  8
0
 62
6
 10
3.30035842E+02
 20
-3.11938113E+02
  0
VERTEX
  8
0
 62
6
 10
3.29939363E+02
 20
-3.12021703E+02
  0
VERTEX
  8
0
 62
6
 10
3.29850956E+02
 20
-3.12112926E+02
  0
VERTEX
  8
0
 62
6
 10
3.29771295E+02
 20
-3.12211086E+02
  0
VERTEX
  8
0
 62
6
 10
3.29700985E+02
 20
-3.12315438E+02
  0
VERTEX
  8
0
 62
6
 10
3.29640561E+02
 20
-3.12425187E+02
  0
VERTEX
  8
0
 62
6
 10
3.29590484E+02
 20
-3.12539497E+02
  0
VERTEX
  8
0
 62
6
 10
3.29551134E+02
 20
-3.12657500E+02
  0
VERTEX
  8
0
 62
6
 10
3.29522811E+02
 20
-3.12778296E+02
  0
VERTEX
  8
0
 62
6
 10
3.29505731E+02
 20
-3.12900966E+02
  0
VERTEX
  8
0
 62
6
 10
3.29500023E+02
 20
-3.13024577E+02
  0
VERTEX
  8
0
 62
6
 10
3.29505731E+02
 20
-3.13148188E+02
  0
VERTEX
  8
0
 62
6
 10
3.29522811E+02
 20
-3.13270858E+02
  0
VERTEX
  8
0
 62
6
 10
3.29551134E+02
 20
-3.13391654E+02
  0
VERTEX
  8
0
 62
6
 10
3.29590484E+02
 20
-3.13509657E+02
  0
VERTEX
  8
0
 62
6
 10
3.29640561E+02
 20
-3.13623967E+02
  0
VERTEX
  8
0
 62
6
 10
3.29700985E+02
 20
-3.13733716E+02
  0
VERTEX
  8
0
 62
6
 10
3.29771295E+02
 20
-3.13838068E+02
  0
VERTEX
  8
0
 62
6
 10
3.29850956E+02
 20
-3.13936228E+02
  0
VERTEX
  8
0
 62
6
 10
3.29939363E+02
 20
-3.14027451E+02
  0
VERTEX
  8
0
 62
6
 10
3.30035842E+02
 20
-3.14111041E+02
  0
VERTEX
  8
0
 62
6
 10
3.30139658E+02
 20
-3.14186362E+02
  0
VERTEX
  8
0
 62
6
 10
3.30250023E+02
 20
-3.14252842E+02
  0
VERTEX
  8
0
 62
6
 10
3.30366096E+02
 20
-3.14309973E+02
  0
VERTEX
  8
0
 62
6
 10
3.30486993E+02
 20
-3.14357322E+02
  0
VERTEX
  8
0
 62
6
 10
3.30611794E+02
 20
-3.14394528E+02
  0
VERTEX
  8
0
 62
6
 10
3.30739551E+02
 20
-3.14421308E+02
  0
VERTEX
  8
0
 62
6
 10
3.30869289E+02
 20
-3.14437458E+02
  0
VERTEX
  8
0
 62
6
 10
3.31000023E+02
 20
-3.14442855E+02
  0
VERTEX
  8
0
 62
6
 10
3.31130757E+02
 20
-3.14437458E+02
  0
VERTEX
  8
0
 62
6
 10
3.31260495E+02
 20
-3.14421308E+02
  0
VERTEX
  8
0
 62
6
 10
3.31388252E+02
 20
-3.14394528E+02
  0
VERTEX
  8
0
 62
6
 10
3.31513053E+02
 20
-3.14357322E+02
  0
VERTEX
  8
0
 62
6
 10
3.31633950E+02
 20
-3.14309973E+02
  0
VERTEX
  8
0
 62
6
 10
3.31750023E+02
 20
-3.14252842E+02
  0
VERTEX
  8
0
 62
6
 10
3.31860388E+02
 20
-3.14186362E+02
  0
VERTEX
  8
0
 62
6
 10
3.31964204E+02
 20
-3.14111041E+02
  0
VERTEX
  8
0
 62
6
 10
3.32060683E+02
 20
-3.14027451E+02
  0
VERTEX
  8
0
 62
6
 10
3.32149090E+02
 20
-3.13936228E+02
  0
VERTEX
  8
0
 62
6
 10
3.32228751E+02
 20
-3.13838068E+02
  0
VERTEX
  8
0
 62
6
 10
3.32299061E+02
 20
-3.13733716E+02
  0
VERTEX
  8
0
 62
6
 10
3.32359485E+02
 20
-3.13623967E+02
  0
VERTEX
  8
0
 62
6
 10
3.32409562E+02
 20
-3.13509657E+02
  0
VERTEX
  8
0
 62
6
 10
3.32448912E+02
 20
-3.13391654E+02
  0
VERTEX
  8
0
 62
6
 10
3.32477235E+02
 20
-3.13270858E+02
  0
VERTEX
  8
0
 62
6
 10
3.32494315E+02
 20
-3.13148188E+02
  0
VERTEX
  8
0
 62
6
 10
3.32500023E+02
 20
-3.13024577E+02
  0
SEQEND
  8
0
  0
POLYLINE
  8
0
 62
4
 66
1
  0
VERTEX
  8
0
 62
4
 10
3.32735023E+02
 20
-3.13024577E+02
  0
VERTEX
  8
0
 62
4
 10
3.32728421E+02
 20
-3.12882012E+02
  0
VERTEX
  8
0
 62
4
 10
3.32708664E+02
 20
-3.12740532E+02
  0
VERTEX
  8
0
 62
4
 10
3.32675904E+02
 20
-3.12601214E+02
  0
VERTEX
  8
0
 62
4
 10
3.32630390E+02
 20
-3.12465119E+02
  0
VERTEX
  8
0
 62
4
 10
3.32572467E+02
 20
-3.12333280E+02
  0
VERTEX
  8
0
 62
4
 10
3.32502577E+02
 20
-3.12206703E+02
  0
VERTEX
  8
0
 62
4
 10
3.32421252E+02
 20
-3.12086351E+02
  0
VERTEX
  8
0
 62
4
 10
3.32329110E+02
 20
-3.11973139E+02
  0
VERTEX
  8
0
 62
4
 10
3.32226853E+02
 20
-3.11867929E+02
  0
VERTEX
  8
0
 62
4
 10
3.32115260E+02
 20
-3.11771522E+02
  0
VERTEX
  8
0
 62
4
 10
3.31995178E+02
 20
-3.11684651E+02
  0
VERTEX
  8
0
 62
4
 10
3.31867523E+02
 20
-3.11607978E+02
  0
VERTEX
  8
0
 62
4
 10
3.31733266E+02
 20
-3.11542087E+02
  0
VERTEX
  8
0
 62
4
 10
3.31593428E+02
 20
-3.11487477E+02
  0
VERTEX
  8
0
 62
4
 10
3.31449074E+02
 20
-3.11444567E+02
  0
VERTEX
  8
0
 62
4
 10
3.31301303E+02
 20
-3.11413681E+02
  0
VERTEX
  8
0
 62
4
 10
3.31151238E+02
 20
-3.11395054E+02
  0
VERTEX
  8
0
 62
4
 10
3.31000023E+02
 20
-3.11388830E+02
  0
VERTEX
  8
0
 62
4
 10
3.30848808E+02
 20
-3.11395054E+02
  0
VERTEX
  8
0
 62
4
 10
3.30698743E+02
 20
-3.11413681E+02
  0
VERTEX
  8
0
 62
4
 10
3.30550972E+02
 20
-3.11444567E+02
  0
VERTEX
  8
0
 62
4
 10
3.30406618E+02
 20
-3.11487477E+02
  0
VERTEX
  8
0
 62
4
 10
3.30266780E+02
 20
-3.11542087E+02
  0
VERTEX
  8
0
 62
4
 10
3.30132523E+02
 20
-3.11607978E+02
  0
VERTEX
  8
0
 62
4
 10
3.30004868E+02
 20
-3.11684651E+02
  0
VERTEX
  8
0
 62
4
 10
3.29884786E+02
 20
-3.11771522E+02
  0
VERTEX
  8
0
 62
4
 10
3.29773193E+02
 20
-3.11867929E+02
  0
VERTEX
  8
0
 62
4
 10
3.29670936E+02
 20
-3.11973139E+02
  0
VERTEX
  8
0
 62
4
 10
3.29578794E+02
 20
-3.12086351E+02
  0
VERTEX
  8
0
 62
4
 10
3.29497469E+02
 20
-3.12206703E+02
  0
VERTEX
  8
0
 62
4
 10
3.29427579E+02
 20
-3.12333280E+02
  0
VERTEX
  8
0
 62
4
 10
3.29369656E+02
 20
-3.12465119E+02
  0
VERTEX
  8
0
 62
4
 10
3.29324142E+02
 20
-3.12601214E+02
  0
VERTEX
  8
0
 62
4
 10
3.29291382E+02
 20
-3.12740532E+02
  0
VERTEX
  8
0
 62
4
 10
3.29271625E+02
 20
-3.12882012E+02
  0
VERTEX
  8
0
 62
4
 10
3.29265023E+02
 20
-3.13024577E+02
  0
VERTEX
  8
0
 62
4
 10
3.29271625E+02
 20
-3.13167142E+02
  0
VERTEX
  8
0
 62
4
 10
3.29291382E+02
 20
-3.13308622E+02
  0
VERTEX
  8
0
 62
4
 10
3.29324142E+02
 20
-3.13447940E+02
  0
VERTEX
  8
0
 62
4
 10
3.29369656E+02
 20
-3.13584035E+02
  0
VERTEX
  8
0
 62
4
 10
3.29427579E+02
 20
-3.13715874E+02
  0
VERTEX
  8
0
 62
4
 10
3.29497469E+02
 20
-3.13842451E+02
  0
VERTEX
  8
0
 62
4
 10
3.29578794E+02
 20
-3.13962803E+02
  0
VERTEX
  8
0
 62
4
 10
3.29670936E+02
 20
-3.14076015E+02
  0
VERTEX
  8
0
 62
4
 10
3.29773193E+02
 20
-3.14181225E+02
  0
VERTEX
  8
0
 62
4
 10
3.29884786E+02
 20
-3.14277632E+02
  0
VERTEX
  8
0
 62
4
 10
3.30004868E+02
 20
-3.14364503E+02
  0
VERTEX
  8
0
 62
4
 10
3.30132523E+02
 20
-3.14441176E+02
  0
VERTEX
  8
0
 62
4
 10
3.30266780E+02
 20
-3.14507067E+02
  0
VERTEX
  8
0
 62
4
 10
3.30406618E+02
 20
-3.14561677E+02
  0
VERTEX
  8
0
 62
4
 10
3.30550972E+02
 20
-3.14604587E+02
  0
VERTEX
  8
0
 62
4
 10
3.30698743E+02
 20
-3.14635473E+02
  0
VERTEX
  8
0
 62
4
 10
3.30848808E+02
 20
-3.14654100E+02
  0
VERTEX
  8
0
 62
4
 10
3.31000023E+02
 20
-3.14660324E+02
  0
VERTEX
  8
0
 62
4
 10
3.31151238E+02
 20
-3.14654100E+02
  0
VERTEX
  8
0
 62
4
 10
3.31301303E+02
 20
-3.14635473E+02
  0
VERTEX
  8
0
 62
4
 10
3.31449074E+02
 20
-3.14604587E+02
  0
VERTEX
  8
0
 62
4
 10
3.31593428E+02
 20
-3.14561677E+02
  0
VERTEX
  8
0
 62
4
 10
3.31733266E+02
 20
-3.14507067E+02
  0
VERTEX
  8
0
 62
4
 10
3.31867523E+02
 20
-3.14441176E+02
  0
VERTEX
  8
0
 62
4
 10
3.31995178E+02
 20
-3.14364503E+02
  0
VERTEX
  8
0
 62
4
 10
3.32115260E+02
 20
-3.14277632E+02
  0
VERTEX
  8
0
 62
4
 10
3.32226853E+02
 20
-3.14181225E+02
  0
VERTEX
  8
0
 62
4
 10
3.32329110E+02
 20
-3.14076015E+02
  0
VERTEX
  8
0
 62
4
 10
3.32421252E+02
 20
-3.13962803E+02
  0
VERTEX
  8
0
 62
4
 10
3.32502577E+02
 20
-3.13842451E+02
  0
VERTEX
  8
0
 62
4
 10
3.32572467E+02
 20
-3.13715874E+02
  0
VERTEX
  8
0
 62
4
 10
3.32630390E+02
 20
-3.13584035E+02
  0
VERTEX
  8
0
 62
4
 10
3.32675904E+02
 20
-3.13447940E+02
  0
VERTEX
  8
0
 62
4
 10
3.32708664E+02
 20
-3.13308622E+02
  0
VERTEX
  8
0
 62
4
 10
3.32728421E+02
 20
-3.13167142E+02
  0
VERTEX
  8
0
 62
4
 10
3.32735023E+02
 20
-3.13024577E+02
  0
SEQEND
  8
0
  0
POLYLINE
  8
0
 62
4
 66
1
  0
VERTEX
  8
0
 62
4
 10
3.32493100E+02
 20
-3.13857735E+02
  0
VERTEX
  8
0
 62
4
 10
3.32604765E+02
 20
-3.13728167E+02
  0
VERTEX
  8
0
 62
4
 10
3.32703895E+02
 20
-3.13589783E+02
  0
VERTEX
  8
0
 62
4
 10
3.32789713E+02
 20
-3.13443663E+02
  0
VERTEX
  8
0
 62
4
 10
3.32861552E+02
 20
-3.13290949E+02
  0
VERTEX
  8
0
 62
4
 10
3.32918848E+02
 20
-3.13132833E+02
  0
VERTEX
  8
0
 62
4
 10
3.32961154E+02
 20
-3.12970552E+02
  0
VERTEX
  8
0
 62
4
 10
3.32988141E+02
 20
-3.12805373E+02
  0
VERTEX
  8
0
 62
4
 10
3.32999597E+02
 20
-3.12638586E+02
  0
VERTEX
  8
0
 62
4
 10
3.32995432E+02
 20
-3.12471493E+02
  0
VERTEX
  8
0
 62
4
 10
3.32975680E+02
 20
-3.12305402E+02
  0
VERTEX
  8
0
 62
4
 10
3.32940494E+02
 20
-3.12141608E+02
  0
VERTEX
  8
0
 62
4
 10
3.32890149E+02
 20
-3.11981391E+02
  0
VERTEX
  8
0
 62
4
 10
3.32825039E+02
 20
-3.11826003E+02
  0
VERTEX
  8
0
 62
4
 10
3.32745673E+02
 20
-3.11676658E+02
  0
VERTEX
  8
0
 62
4
 10
3.32652669E+02
 20
-3.11534523E+02
  0
VERTEX
  8
0
 62
4
 10
3.32546756E+02
 20
-3.11400707E+02
  0
VERTEX
  8
0
 62
4
 10
3.32428759E+02
 20
-3.11276257E+02
  0
VERTEX
  8
0
 62
4
 10
3.32299602E+02
 20
-3.11162144E+02
  0
VERTEX
  8
0
 62
4
 10
3.32160292E+02
 20
-3.11059259E+02
  0
VERTEX
  8
0
 62
4
 10
3.32011919E+02
 20
-3.10968407E+02
  0
VERTEX
  8
0
 62
4
 10
3.31855640E+02
 20
-3.10890298E+02
  0
VERTEX
  8
0
 62
4
 10
3.31692678E+02
 20
-3.10825540E+02
  0
VERTEX
  8
0
 62
4
 10
3.31524305E+02
 20
-3.10774641E+02
  0
VERTEX
  8
0
 62
4
 10
3.31351836E+02
 20
-3.10737998E+02
  0
VERTEX
  8
0
 62
4
 10
3.31176620E+02
 20
-3.10715897E+02
  0
VERTEX
  8
0
 62
4
 10
3.31000023E+02
 20
-3.10708511E+02
  0
VERTEX
  8
0
 62
4
 10
3.30823426E+02
 20
-3.10715897E+02
  0
VERTEX
  8
0
 62
4
 10
3.30648209E+02
 20
-3.10737998E+02
  0
VERTEX
  8
0
 62
4
 10
3.30475741E+02
 20
-3.10774641E+02
  0
VERTEX
  8
0
 62
4
 10
3.30307368E+02
 20
-3.10825540E+02
  0
VERTEX
  8
0
 62
4
 10
3.30144406E+02
 20
-3.10890298E+02
  0
VERTEX
  8
0
 62
4
 10
3.29988127E+02
 20
-3.10968407E+02
  0
VERTEX
  8
0
 62
4
 10
3.29839754E+02
 20
-3.11059259E+02
  0
VERTEX
  8
0
 62
4
 10
3.29700444E+02
 20
-3.11162144E+02
  0
VERTEX
  8
0
 62
4
 10
3.29571287E+02
 20
-3.11276257E+02
  0
VERTEX
  8
0
 62
4
 10
3.29453290E+02
 20
-3.11400707E+02
  0
VERTEX
  8
0
 62
4
 10
3.29347377E+02
 20
-3.11534523E+02
  0
VERTEX
  8
0
 62
4
 10
3.29254373E+02
 20
-3.11676658E+02
  0
VERTEX
  8
0
 62
4
 10
3.29175007E+02
 20
-3.11826003E+02
  0
VERTEX
  8
0
 62
4
 10
3.29109897E+02
 20
-3.11981391E+02
  0
VERTEX
  8
0
 62
4
 10
3.29059552E+02
 20
-3.12141608E+02
  0
VERTEX
  8
0
 62
4
 10
3.29024366E+02
 20
-3.12305402E+02
  0
VERTEX
  8
0
 62
4
 10
3.29004614E+02
 20
-3.12471493E+02
  0
VERTEX
  8
0
 62
4
 10
3.29000449E+02
 20
-3.12638586E+02
  0
VERTEX
  8
0
 62
4
 10
3.29011905E+02
 20
-3.12805373E+02
  0
VERTEX
  8
0
 62
4
 10
3.29038892E+02
 20
-3.12970552E+02
  0
VERTEX
  8
0
 62
4
 10
3.29081198E+02
 20
-3.13132833E+02
  0
VERTEX
  8
0
 62
4
 10
3.29138494E+02
 20
-3.13290949E+02
  0
VERTEX
  8
0
 62
4
 10
3.29210333E+02
 20
-3.13443663E+02
  0
VERTEX
  8
0
 62
4
 10
3.29296151E+02
 20
-3.13589783E+02
  0
VERTEX
  8
0
 62
4
 10
3.29395281E+02
 20
-3.13728167E+02
  0
VERTEX
  8
0
 62
4
 10
3.29506946E+02
 20
-3.13857735E+02
  0
SEQEND
  8
0
  0
LINE
  8
0
 62
4
 10
3.10793926E+02
 20
-3.02900024E+02
 11
3.08000023E+02
 21
-3.00296186E+02
  0
LINE
  8
0
 62
4
 10
3.44206120E+02
 20
-3.02900024E+02
 11
3.47000023E+02
 21
-3.00296186E+02
  0
LINE
  8
0
 62
4
 10
3.42500023E+02
 20
-2.79920758E+02
 11
3.27500023E+02
 21
-2.79920758E+02
  0
LINE
  8
0
 62
4
 10
3.42500023E+02
 20
-2.52344790E+02
 11
3.27500023E+02
 21
-2.52344790E+02
  0
ARC
  8
0
 62
4
 10
3.09497536E+02
 20
-2.86797000E+02
 40
1.49751542E+00
 50
8.99048594E+01
 51
1.80095141E+02
  0
ARC
  8
0
 62
4
 10
3.42997540E+02
 20
-2.67952473E+02
 40
4.97523679E-01
 50
8.97141074E+01
 51
1.80285893E+02
  0
ARC
  8
0
 62
4
 10
3.51502505E+02
 20
-2.53952473E+02
 40
4.97523679E-01
 50
3.59714107E+02
 51
9.02858924E+01
  0
ARC
  8
0
 62
4
 10
3.51497528E+02
 20
-2.66952461E+02
 40
5.02501096E-01
 50
2.70284473E+02
 51
3.59715527E+02
  0
ARC
  8
0
 62
4
 10
3.45502510E+02
 20
-2.86797000E+02
 40
1.49751542E+00
 50
3.59904859E+02
 51
9.00951404E+01
  0
LINE
  8
0
 62
4
 10
3.08000023E+02
 20
-2.80476132E+02
 11
3.08000023E+02
 21
-3.00296186E+02
  0
LINE
  8
0
 62
4
 10
3.25500023E+02
 20
-2.81517413E+02
 11
3.25500023E+02
 21
-2.85517413E+02
  0
LINE
  8
0
 62
4
 10
3.42500023E+02
 20
-2.52344790E+02
 11
3.42500023E+02
 21
-2.81517413E+02
  0
LINE
  8
0
 62
4
 10
3.27500023E+02
 20
-2.52344790E+02
 11
3.27500023E+02
 21
-2.81517413E+02
  0
LINE
  8
0
 62
4
 10
3.44500023E+02
 20
-2.81517413E+02
 11
3.44500023E+02
 21
-2.85517413E+02
  0
LINE
  8
0
 62
4
 10
3.47000023E+02
 20
-2.98877908E+02
 11
3.42500023E+02
 21
-2.98877908E+02
  0
LINE
  8
0
 62
4
 10
3.47000023E+02
 20
-3.00296186E+02
 11
3.42500023E+02
 21
-3.00296186E+02
  0
LINE
  8
0
 62
4
 10
3.47000023E+02
 20
-2.80476132E+02
 11
3.47000023E+02
 21
-3.00296186E+02
  0
LINE
  8
0
 62
4
 10
3.44500023E+02
 20
-2.81517413E+02
 11
3.25500023E+02
 21
-2.81517413E+02
  0
LINE
  8
0
 62
4
 10
3.42500023E+02
 20
-2.57228312E+02
 11
3.27500023E+02
 21
-2.57228312E+02
  0
LINE
  8
0
 62
4
 10
3.27500023E+02
 20
-2.98877908E+02
 11
3.08000023E+02
 21
-2.98877908E+02
  0
LINE
  8
0
 62
4
 10
3.27500023E+02
 20
-3.00296186E+02
 11
3.08000023E+02
 21
-3.00296186E+02
  0
LINE
  8
0
 62
4
 10
3.62000023E+02
 20
-2.67560507E+02
 11
3.57000023E+02
 21
-2.67560507E+02
  0
LINE
  8
0
 62
4
 10
3.51500023E+02
 20
-2.67454956E+02
 11
3.43000023E+02
 21
-2.67454956E+02
  0
LINE
  8
0
 62
4
 10
3.55500023E+02
 20
-2.66204956E+02
 11
3.52000023E+02
 21
-2.66204956E+02
  0
LINE
  8
0
 62
4
 10
3.55500023E+02
 20
-2.54204956E+02
 11
3.55500023E+02
 21
-2.66704956E+02
  0
LINE
  8
0
 62
4
 10
3.57000023E+02
 20
-2.66704956E+02
 11
3.52000023E+02
 21
-2.66704956E+02
  0
LINE
  8
0
 62
4
 10
3.57000023E+02
 20
-2.54204956E+02
 11
3.52000023E+02
 21
-2.54204956E+02
  0
LINE
  8
0
 62
4
 10
3.57000023E+02
 20
-2.53358818E+02
 11
3.57000023E+02
 21
-2.67560507E+02
  0
LINE
  8
0
 62
4
 10
3.62000023E+02
 20
-2.53358818E+02
 11
3.62000023E+02
 21
-2.67560507E+02
  0
LINE
  8
0
 62
4
 10
3.52000023E+02
 20
-2.53954956E+02
 11
3.52000023E+02
 21
-2.66954956E+02
  0
LINE
  8
0
 62
4
 10
3.42500023E+02
 20
-2.53454956E+02
 11
3.51500023E+02
 21
-2.53454956E+02
  0
LINE
  8
0
 62
4
 10
3.62000023E+02
 20
-2.66121550E+02
 11
3.57000023E+02
 21
-2.66121550E+02
  0
LINE
  8
0
 62
4
 10
3.62000023E+02
 20
-2.59030161E+02
 11
3.57000023E+02
 21
-2.59030161E+02
  0
LINE
  8
0
 62
4
 10
3.62000023E+02
 20
-2.53358818E+02
 11
3.57000023E+02
 21
-2.53358818E+02
  0
LINE
  8
0
 62
4
 10
3.45500023E+02
 20
-2.85299487E+02
 11
3.09500023E+02
 21
-2.85299487E+02
  0
LINE
  8
0
 62
4
 10
3.55500023E+02
 20
-2.54704956E+02
 11
3.52000023E+02
 21
-2.54704956E+02
  0
LINE
  8
0
  6
CENTER
 62
6
 10
3.26000023E+02
 20
-3.13024577E+02
 11
3.44000023E+02
 21
-3.13024577E+02
  0
LINE
  8
0
  6
CENTER
 62
6
 10
3.31000023E+02
 20
-3.08034577E+02
 11
3.31000023E+02
 21
-3.18024577E+02
  0
LINE
  8
0
  6
CENTER
 62
6
 10
3.39000023E+02
 20
-3.08034577E+02
 11
3.39000023E+02
 21
-3.18024577E+02
  0
LINE
  8
0
 62
4
 10
3.27500023E+02
 20
-2.91109203E+02
 11
3.27500023E+02
 21
-3.17394634E+02
  0
LINE
  8
0
 62
4
 10
3.42500023E+02
 20
-2.91109203E+02
 11
3.42500023E+02
 21
-3.17394634E+02
  0
LINE
  8
0
 62
4
 10
3.28500023E+02
 20
-3.05990835E+02
 11
3.41500023E+02
 21
-3.05990835E+02
  0
LINE
  8
0
 62
4
 10
3.27500023E+02
 20
-3.17394634E+02
 11
3.42500023E+02
 21
-3.17394634E+02
  0
LINE
  8
0
 62
4
 10
3.27500023E+02
 20
-2.91109203E+02
 11
3.42500023E+02
 21
-2.91109203E+02
  0
LINE
  8
0
 62
2
 10
-4.11523862E+01
 20
-3.41389317E+02
 11
-1.51541230E+01
 21
-2.96359005E+02
  0
TEXT
  8
0
 10
4.82852860E+01
 20
3.54316712E+02
 40
9.00000000E+00
  1
STRETCH LINE B
 41
1.09375000E+00
  7
MONOTXT
  0
LINE
  8
0
 62
7
 10
-3.80156336E+02
 20
-4.35543803E+01
 11
1.96843664E+02
 21
-4.35543803E+01
  0
LINE
  8
0
 62
7
 10
-3.80156340E+02
 20
6.95620196E-01
 11
1.96843664E+02
 21
6.95620196E-01
  0
TEXT
  8
0
 62
7
 10
-3.69871027E+02
 20
-1.13043798E+01
 40
9.00000000E+00
  1
STROKE
 41
1.00000000E+00
  7
MONOTXT
  0
TEXT
  8
0
 62
7
 10
-3.74371023E+02
 20
-2.75543803E+01
 40
9.00000000E+00
  1
STRETCH
 41
1.00000000E+00
  7
MONOTXT
  0
LINE
  8
0
 62
7
 10
-3.80156336E+02
 20
-5.78043808E+01
 11
1.96843664E+02
 21
-5.78043808E+01
  0
LINE
  8
0
 62
7
 10
-3.80156336E+02
 20
-7.28043808E+01
 11
1.96843664E+02
 21
-7.28043808E+01
  0
LINE
  8
0
 62
7
 10
-3.80156336E+02
 20
-1.35543803E+01
 11
-3.15476844E+02
 21
-1.35543803E+01
  0
TEXT
  8
0
 62
7
 10
-3.74371023E+02
 20
-4.05543803E+01
 40
9.00000000E+00
  1
  PLACE
 41
1.20689655E+00
  7
MONOTXT
  0
LINE
  8
0
 62
7
 10
-2.98156336E+02
 20
-4.35543802E+01
 11
-3.15476844E+02
 21
-1.35543803E+01
  0
TEXT
  8
0
 62
7
 10
-3.42371023E+02
 20
-5.51793805E+01
 40
9.00000000E+00
  1
A
 41
1.00000000E+00
  7
MONOTXT
  0
TEXT
  8
0
 62
7
 10
-3.42371023E+02
 20
-6.98043808E+01
 40
9.00000000E+00
  1
B
 41
1.00000000E+00
  7
MONOTXT
  0
LINE
  8
0
 62
7
 10
-2.98156336E+02
 20
-7.28043808E+01
 11
-2.98156336E+02
 21
6.95620196E-01
  0
LINE
  8
0
 62
7
 10
-3.80156336E+02
 20
-7.28043808E+01
 11
-3.80156336E+02
 21
6.95620196E-01
  0
LINE
  8
0
 62
7
 10
-2.53156336E+02
 20
-7.28043808E+01
 11
-2.53156336E+02
 21
6.95620196E-01
  0
LINE
  8
0
 62
7
 10
-2.08156336E+02
 20
-7.28043808E+01
 11
-2.08156336E+02
 21
6.95620196E-01
  0
LINE
  8
0
 62
7
 10
-1.63156336E+02
 20
-7.28043808E+01
 11
-1.63156336E+02
 21
6.95620196E-01
  0
LINE
  8
0
 62
7
 10
-1.18156336E+02
 20
-7.28043808E+01
 11
-1.18156336E+02
 21
6.95620196E-01
  0
LINE
  8
0
 62
7
 10
-7.31563357E+01
 20
-7.28043808E+01
 11
-7.31563357E+01
 21
6.95620196E-01
  0
LINE
  8
0
 62
7
 10
-2.81563357E+01
 20
-7.28043808E+01
 11
-2.81563357E+01
 21
6.95620196E-01
  0
LINE
  8
0
 62
7
 10
1.68436643E+01
 20
-7.28043808E+01
 11
1.68436643E+01
 21
6.95620196E-01
  0
LINE
  8
0
 62
7
 10
6.18436643E+01
 20
-7.28043808E+01
 11
6.18436643E+01
 21
6.95620196E-01
  0
LINE
  8
0
 62
7
 10
1.06843664E+02
 20
-7.28043808E+01
 11
1.06843664E+02
 21
6.95620196E-01
  0
LINE
  8
0
 62
7
 10
1.51843664E+02
 20
-7.28043808E+01
 11
1.51843664E+02
 21
6.95620196E-01
  0
LINE
  8
0
 62
7
 10
1.96843664E+02
 20
-7.28043808E+01
 11
1.96843664E+02
 21
6.95620196E-01
  0
TEXT
  8
0
 62
7
 10
-2.83671961E+02
 20
-2.59293800E+01
 40
9.00000000E+00
  1
50
 41
1.00000000E+00
  7
MONOTXT
  0
TEXT
  8
0
 62
7
 10
-2.38671961E+02
 20
-2.59293800E+01
 40
9.00000000E+00
  1
75
 41
1.00000000E+00
  7
MONOTXT
  0
TEXT
  8
0
 62
7
 10
-1.98171961E+02
 20
-2.59293800E+01
 40
9.00000000E+00
  1
100
 41
1.00000000E+00
  7
MONOTXT
  0
TEXT
  8
0
 62
7
 10
-1.53171961E+02
 20
-2.59293800E+01
 40
9.00000000E+00
  1
150
 41
1.00000000E+00
  7
MONOTXT
  0
TEXT
  8
0
 62
7
 10
-1.08171961E+02
 20
-2.59293800E+01
 40
9.00000000E+00
  1
200
 41
1.00000000E+00
  7
MONOTXT
  0
TEXT
  8
0
 62
7
 10
-6.31719607E+01
 20
-2.59293800E+01
 40
9.00000000E+00
  1
250
 41
1.00000000E+00
  7
MONOTXT
  0
TEXT
  8
0
 62
7
 10
-1.81719607E+01
 20
-2.59293800E+01
 40
9.00000000E+00
  1
300
 41
1.00000000E+00
  7
MONOTXT
  0
TEXT
  8
0
 62
7
 10
2.68280393E+01
 20
-2.59293800E+01
 40
9.00000000E+00
  1
350
 41
1.00000000E+00
  7
MONOTXT
  0
TEXT
  8
0
 62
7
 10
7.18280393E+01
 20
-2.59293800E+01
 40
9.00000000E+00
  1
400
 41
1.00000000E+00
  7
MONOTXT
  0
TEXT
  8
0
 62
7
 10
1.16828039E+02
 20
-2.59293800E+01
 40
9.00000000E+00
  1
450
 41
1.00000000E+00
  7
MONOTXT
  0
TEXT
  8
0
 62
7
 10
1.61828039E+02
 20
-2.59293800E+01
 40
9.00000000E+00
  1
500
 41
1.00000000E+00
  7
MONOTXT
  0
TEXT
  8
0
 62
7
 10
-2.88171961E+02
 20
-5.51793806E+01
 40
9.00000000E+00
  1
-25
 41
1.00000000E+00
  7
MONOTXT
  0
TEXT
  8
0
 62
7
 10
-2.34171961E+02
 20
-5.51793805E+01
 40
9.00000000E+00
  1
0
 41
1.00000000E+00
  7
MONOTXT
  0
TEXT
  8
0
 62
7
 10
-1.93671961E+02
 20
-5.51793805E+01
 40
9.00000000E+00
  1
25
 41
1.00000000E+00
  7
MONOTXT
  0
TEXT
  8
0
 62
7
 10
-1.48671961E+02
 20
-5.51793805E+01
 40
9.00000000E+00
  1
75
 41
1.00000000E+00
  7
MONOTXT
  0
TEXT
  8
0
 62
7
 10
-1.08171961E+02
 20
-5.51793805E+01
 40
9.00000000E+00
  1
125
 41
1.00000000E+00
  7
MONOTXT
  0
TEXT
  8
0
 62
7
 10
-6.31719607E+01
 20
-5.51793805E+01
 40
9.00000000E+00
  1
175
 41
1.00000000E+00
  7
MONOTXT
  0
TEXT
  8
0
 62
7
 10
-1.81719607E+01
 20
-5.51793805E+01
 40
9.00000000E+00
  1
225
 41
1.00000000E+00
  7
MONOTXT
  0
TEXT
  8
0
 62
7
 10
2.68280393E+01
 20
-5.51793805E+01
 40
9.00000000E+00
  1
275
 41
1.00000000E+00
  7
MONOTXT
  0
TEXT
  8
0
 62
7
 10
7.18280393E+01
 20
-5.51793805E+01
 40
9.00000000E+00
  1
325
 41
1.00000000E+00
  7
MONOTXT
  0
TEXT
  8
0
 62
7
 10
1.16828039E+02
 20
-5.51793805E+01
 40
9.00000000E+00
  1
375
 41
1.00000000E+00
  7
MONOTXT
  0
TEXT
  8
0
 62
7
 10
1.61828039E+02
 20
-5.51793805E+01
 40
9.00000000E+00
  1
425
 41
1.00000000E+00
  7
MONOTXT
  0
TEXT
  8
0
 62
7
 10
-2.88171961E+02
 20
-7.01793806E+01
 40
9.00000000E+00
  1
-25
 41
1.00000000E+00
  7
MONOTXT
  0
TEXT
  8
0
 62
7
 10
-2.34171961E+02
 20
-7.01793805E+01
 40
9.00000000E+00
  1
0
 41
1.00000000E+00
  7
MONOTXT
  0
TEXT
  8
0
 62
7
 10
-1.93671961E+02
 20
-7.01793805E+01
 40
9.00000000E+00
  1
25
 41
1.00000000E+00
  7
MONOTXT
  0
TEXT
  8
0
 62
7
 10
-1.48671961E+02
 20
-7.01793805E+01
 40
9.00000000E+00
  1
75
 41
1.00000000E+00
  7
MONOTXT
  0
TEXT
  8
0
 62
7
 10
-1.08171961E+02
 20
-7.01793805E+01
 40
9.00000000E+00
  1
125
 41
1.00000000E+00
  7
MONOTXT
  0
TEXT
  8
0
 62
7
 10
-6.31719607E+01
 20
-7.01793805E+01
 40
9.00000000E+00
  1
175
 41
1.00000000E+00
  7
MONOTXT
  0
TEXT
  8
0
 62
7
 10
-1.81719607E+01
 20
-7.01793805E+01
 40
9.00000000E+00
  1
225
 41
1.00000000E+00
  7
MONOTXT
  0
TEXT
  8
0
 62
7
 10
2.68280393E+01
 20
-7.01793805E+01
 40
9.00000000E+00
  1
275
 41
1.00000000E+00
  7
MONOTXT
  0
TEXT
  8
0
 62
7
 10
7.18280393E+01
 20
-7.01793805E+01
 40
9.00000000E+00
  1
325
 41
1.00000000E+00
  7
MONOTXT
  0
TEXT
  8
0
 62
7
 10
1.16828039E+02
 20
-7.01793805E+01
 40
9.00000000E+00
  1
375
 41
1.00000000E+00
  7
MONOTXT
  0
TEXT
  8
0
 62
7
 10
1.61828039E+02
 20
-7.01793805E+01
 40
9.00000000E+00
  1
425
 41
1.00000000E+00
  7
MONOTXT
  0
TEXT
  8
0
 62
7
 10
-1.44371025E+02
 20
6.19562020E+00
 40
9.00000000E+00
  1
STRETCH LIST
 41
1.05263158E+00
  7
MONOTXT
  0
TEXT
  8
0
 62
7
 10
1.54128975E+02
 20
6.19562020E+00
 40
9.00000000E+00
  1
(mm)
 41
1.00000000E+00
  7
MONOTXT
  0
LINE
  8
0
 62
7
 10
-2.30875115E+01
 20
-3.10100037E+02
 11
-8.50000076E+01
 21
-3.10100037E+02
  0
LINE
  8
0
 62
7
 10
-1.89305825E+01
 20
-3.02900024E+02
 11
-8.50000076E+01
 21
-3.02900024E+02
  0
LINE
  8
0
 62
7
 10
-1.75449454E+01
 20
-3.00500031E+02
 11
-8.50000076E+01
 21
-3.00500031E+02
  0
LINE
  8
0
 62
7
 10
-5.68047132E+01
 20
-2.03499969E+02
 11
-8.49999924E+01
 21
-2.03499969E+02
  0
LINE
  8
0
 62
7
 10
-5.54190849E+01
 20
-2.01099991E+02
 11
-8.49999924E+01
 21
-2.01099991E+02
  0
LINE
  8
0
 62
7
 10
-5.12621559E+01
 20
-1.93899979E+02
 11
-8.49999924E+01
 21
-1.93899979E+02
  0
LINE
  8
0
 62
7
 10
-7.64999707E+01
 20
-1.35500031E+02
 11
-8.49999924E+01
 21
-1.35500031E+02
  0
LINE
  8
0
 62
7
 10
-7.64999707E+01
 20
-1.37899994E+02
 11
-8.49999924E+01
 21
-1.37899994E+02
  0
LINE
  8
0
 62
6
 10
8.53556756E+01
 20
-3.14785708E+02
 11
8.54999161E+01
 21
-3.14738841E+02
  0
LINE
  8
0
 62
7
 10
-2.93500023E+02
 20
-2.97499969E+02
 11
-3.60500053E+02
 21
-2.97499969E+02
  0
ARC
  8
0
 62
7
 10
-3.26999992E+02
 20
-3.34500000E+02
 40
9.00000000E+00
 50
0.00000000E+00
 51
1.80000000E+02
  0
ARC
  8
0
 62
4
 10
-3.26999992E+02
 20
-3.34500000E+02
 40
1.35000000E+01
 50
0.00000000E+00
 51
1.80000000E+02
  0
LINE
  8
0
 62
4
 10
-3.26999992E+02
 20
-3.18911543E+02
 11
-3.40499992E+02
 21
-3.26705771E+02
  0
LINE
  8
0
 62
4
 10
-3.40499992E+02
 20
-3.26705771E+02
 11
-3.40499992E+02
 21
-3.34500000E+02
  0
LINE
  8
0
 62
4
 10
-3.13499992E+02
 20
-3.34500000E+02
 11
-3.13499992E+02
 21
-3.26705771E+02
  0
LINE
  8
0
 62
4
 10
-3.13499992E+02
 20
-3.26705771E+02
 11
-3.26999992E+02
 21
-3.18911543E+02
  0
ARC
  8
0
 62
4
 10
1.23000008E+02
 20
-3.34500000E+02
 40
1.35000000E+01
 50
0.00000000E+00
 51
1.80000000E+02
  0
LINE
  8
0
 62
4
 10
1.23000008E+02
 20
-3.18911543E+02
 11
1.09500008E+02
 21
-3.26705771E+02
  0
LINE
  8
0
 62
4
 10
1.09500008E+02
 20
-3.26705771E+02
 11
1.09500008E+02
 21
-3.34500000E+02
  0
LINE
  8
0
 62
4
 10
1.36500008E+02
 20
-3.34500000E+02
 11
1.36500008E+02
 21
-3.26705771E+02
  0
LINE
  8
0
 62
4
 10
1.36500008E+02
 20
-3.26705771E+02
 11
1.23000008E+02
 21
-3.18911543E+02
  0
LINE
  8
0
 62
4
 10
-1.62855927E+02
 20
-3.18911543E+02
 11
-1.54267470E+02
 21
-3.18911543E+02
  0
LINE
  8
0
 62
4
 10
-1.62855927E+02
 20
-3.26705771E+02
 11
-1.54267470E+02
 21
-3.26705771E+02
  0
LINE
  8
0
 62
4
 10
-1.62855927E+02
 20
-3.18911543E+02
 11
-1.64061698E+02
 21
-3.21000000E+02
  0
LINE
  8
0
 62
4
 10
-1.54267470E+02
 20
-3.18911543E+02
 11
-1.53061698E+02
 21
-3.21000000E+02
  0
ARC
  8
0
 62
4
 10
-1.57160977E+02
 20
-3.22808657E+02
 40
6.90072132E+00
 50
1.45615752E+02
 51
2.14384248E+02
  0
ARC
  8
0
 62
4
 10
-1.59962420E+02
 20
-3.22808657E+02
 40
6.90072132E+00
 50
3.25615752E+02
 51
3.43842480E+01
  0
ARC
  8
0
 62
4
 10
-1.78855927E+02
 20
-3.34500000E+02
 40
2.57942282E+01
 50
2.54444375E-13
 51
1.75879541E+01
  0
ARC
  8
0
 62
4
 10
-1.38267470E+02
 20
-3.34500000E+02
 40
2.57942282E+01
 50
1.62412046E+02
 51
1.80000000E+02
  0
LINE
  8
0
 62
4
 10
-1.64061698E+02
 20
-3.34500000E+02
 11
-1.64061698E+02
 21
-3.21000000E+02
  0
LINE
  8
0
 62
4
 10
-1.53061698E+02
 20
-3.34500000E+02
 11
-1.53061698E+02
 21
-3.21000000E+02
  0
LINE
  8
0
 62
4
 10
-1.53061698E+02
 20
-1.56000000E+02
 11
-1.53061698E+02
 21
-1.83000000E+02
  0
LINE
  8
0
 62
4
 10
-1.64061698E+02
 20
-1.56000000E+02
 11
-1.64061698E+02
 21
-1.83000000E+02
  0
LINE
  8
0
 62
4
 10
-1.53061698E+02
 20
-1.56000000E+02
 11
-1.64061698E+02
 21
-1.56000000E+02
  0
LINE
  8
0
 62
4
 10
-1.53061698E+02
 20
-1.83000000E+02
 11
-1.64061698E+02
 21
-1.83000000E+02
  0
LINE
  8
0
 62
4
 10
-1.54267470E+02
 20
-1.69500000E+02
 11
-1.62855927E+02
 21
-1.69500000E+02
  0
ARC
  8
0
 62
4
 10
-1.44565306E+02
 20
-1.76250000E+02
 40
1.94963929E+01
 50
1.59743842E+02
 51
2.00256158E+02
  0
ARC
  8
0
 62
4
 10
-1.44565306E+02
 20
-1.62750000E+02
 40
1.94963929E+01
 50
1.59743842E+02
 51
2.00256158E+02
  0
ARC
  8
0
 62
4
 10
-1.72558091E+02
 20
-1.62750000E+02
 40
1.94963929E+01
 50
3.39743842E+02
 51
2.02561580E+01
  0
ARC
  8
0
 62
4
 10
-1.72558091E+02
 20
-1.76250000E+02
 40
1.94963929E+01
 50
3.39743842E+02
 51
2.02561580E+01
  0
LINE
  8
0
 62
2
 10
-1.53061698E+02
 20
-3.26320007E+02
 11
-1.44999962E+02
 21
-3.26320007E+02
  0
LINE
  8
0
 62
7
 10
-1.53061698E+02
 20
-3.25500000E+02
 11
-1.44999962E+02
 21
-3.25500000E+02
  0
LINE
  8
0
 62
2
 10
-1.53061698E+02
 20
-1.77680008E+02
 11
-1.44999962E+02
 21
-1.77680008E+02
  0
LINE
  8
0
 62
7
 10
-1.53061698E+02
 20
-1.78500015E+02
 11
-1.44999962E+02
 21
-1.78500015E+02
  0
LINE
  8
0
 62
2
 10
-1.53061698E+02
 20
-1.61320023E+02
 11
-1.44999962E+02
 21
-1.61320023E+02
  0
LINE
  8
0
 62
7
 10
-1.53061698E+02
 20
-1.60500015E+02
 11
-1.44999962E+02
 21
-1.60500015E+02
  0
POLYLINE
  8
0
 62
7
 66
1
  0
VERTEX
  8
0
 62
7
 10
-1.36642296E+02
 20
-1.64025009E+02
  0
VERTEX
  8
0
 62
7
 10
-1.36999407E+02
 20
-1.64047050E+02
  0
VERTEX
  8
0
 62
7
 10
-1.37353644E+02
 20
-1.64112994E+02
  0
VERTEX
  8
0
 62
7
 10
-1.37702153E+02
 20
-1.64222312E+02
  0
VERTEX
  8
0
 62
7
 10
-1.38042128E+02
 20
-1.64374123E+02
  0
VERTEX
  8
0
 62
7
 10
-1.38370833E+02
 20
-1.64567205E+02
  0
VERTEX
  8
0
 62
7
 10
-1.38685621E+02
 20
-1.64800003E+02
  0
VERTEX
  8
0
 62
7
 10
-1.38983957E+02
 20
-1.65070642E+02
  0
VERTEX
  8
0
 62
7
 10
-1.39263439E+02
 20
-1.65376944E+02
  0
VERTEX
  8
0
 62
7
 10
-1.39521818E+02
 20
-1.65716443E+02
  0
VERTEX
  8
0
 62
7
 10
-1.39757012E+02
 20
-1.66086405E+02
  0
VERTEX
  8
0
 62
7
 10
-1.39967129E+02
 20
-1.66483851E+02
  0
VERTEX
  8
0
 62
7
 10
-1.40150475E+02
 20
-1.66905581E+02
  0
VERTEX
  8
0
 62
7
 10
-1.40305576E+02
 20
-1.67348201E+02
  0
VERTEX
  8
0
 62
7
 10
-1.40431183E+02
 20
-1.67808145E+02
  0
VERTEX
  8
0
 62
7
 10
-1.40526283E+02
 20
-1.68281712E+02
  0
VERTEX
  8
0
 62
7
 10
-1.40590112E+02
 20
-1.68765087E+02
  0
VERTEX
  8
0
 62
7
 10
-1.40622156E+02
 20
-1.69254380E+02
  0
VERTEX
  8
0
 62
7
 10
-1.40622156E+02
 20
-1.69745650E+02
  0
VERTEX
  8
0
 62
7
 10
-1.40590112E+02
 20
-1.70234943E+02
  0
VERTEX
  8
0
 62
7
 10
-1.40526283E+02
 20
-1.70718318E+02
  0
VERTEX
  8
0
 62
7
 10
-1.40431183E+02
 20
-1.71191885E+02
  0
VERTEX
  8
0
 62
7
 10
-1.40305576E+02
 20
-1.71651829E+02
  0
VERTEX
  8
0
 62
7
 10
-1.40150475E+02
 20
-1.72094449E+02
  0
VERTEX
  8
0
 62
7
 10
-1.39967129E+02
 20
-1.72516179E+02
  0
VERTEX
  8
0
 62
7
 10
-1.39757012E+02
 20
-1.72913625E+02
  0
VERTEX
  8
0
 62
7
 10
-1.39521818E+02
 20
-1.73283587E+02
  0
VERTEX
  8
0
 62
7
 10
-1.39263439E+02
 20
-1.73623086E+02
  0
VERTEX
  8
0
 62
7
 10
-1.38983957E+02
 20
-1.73929388E+02
  0
VERTEX
  8
0
 62
7
 10
-1.38685621E+02
 20
-1.74200027E+02
  0
VERTEX
  8
0
 62
7
 10
-1.38370833E+02
 20
-1.74432825E+02
  0
VERTEX
  8
0
 62
7
 10
-1.38042128E+02
 20
-1.74625907E+02
  0
VERTEX
  8
0
 62
7
 10
-1.37702153E+02
 20
-1.74777718E+02
  0
VERTEX
  8
0
 62
7
 10
-1.37353644E+02
 20
-1.74887035E+02
  0
VERTEX
  8
0
 62
7
 10
-1.36999408E+02
 20
-1.74952980E+02
  0
VERTEX
  8
0
 62
7
 10
-1.36642296E+02
 20
-1.74975021E+02
  0
SEQEND
  8
0
  0
POLYLINE
  8
0
 62
7
 66
1
  0
VERTEX
  8
0
 62
7
 10
-1.38624822E+02
 20
-1.59286515E+02
  0
VERTEX
  8
0
 62
7
 10
-1.38918746E+02
 20
-1.59405079E+02
  0
VERTEX
  8
0
 62
7
 10
-1.39195308E+02
 20
-1.59539524E+02
  0
VERTEX
  8
0
 62
7
 10
-1.39452401E+02
 20
-1.59688825E+02
  0
VERTEX
  8
0
 62
7
 10
-1.39688062E+02
 20
-1.59851844E+02
  0
VERTEX
  8
0
 62
7
 10
-1.39900495E+02
 20
-1.60027337E+02
  0
VERTEX
  8
0
 62
7
 10
-1.40088079E+02
 20
-1.60213966E+02
  0
VERTEX
  8
0
 62
7
 10
-1.40249384E+02
 20
-1.60410307E+02
  0
VERTEX
  8
0
 62
7
 10
-1.40383180E+02
 20
-1.60614864E+02
  0
VERTEX
  8
0
 62
7
 10
-1.40488446E+02
 20
-1.60826075E+02
  0
VERTEX
  8
0
 62
7
 10
-1.40564380E+02
 20
-1.61042332E+02
  0
VERTEX
  8
0
 62
7
 10
-1.40610402E+02
 20
-1.61261983E+02
  0
VERTEX
  8
0
 62
7
 10
-1.40626162E+02
 20
-1.61483354E+02
  0
VERTEX
  8
0
 62
7
 10
-1.40611539E+02
 20
-1.61704756E+02
  0
VERTEX
  8
0
 62
7
 10
-1.40566645E+02
 20
-1.61924502E+02
  0
VERTEX
  8
0
 62
7
 10
-1.40491822E+02
 20
-1.62140915E+02
  0
VERTEX
  8
0
 62
7
 10
-1.40387640E+02
 20
-1.62352345E+02
  0
VERTEX
  8
0
 62
7
 10
-1.40254896E+02
 20
-1.62557180E+02
  0
VERTEX
  8
0
 62
7
 10
-1.40094599E+02
 20
-1.62753856E+02
  0
VERTEX
  8
0
 62
7
 10
-1.39907974E+02
 20
-1.62940875E+02
  0
VERTEX
  8
0
 62
7
 10
-1.39696444E+02
 20
-1.63116809E+02
  0
VERTEX
  8
0
 62
7
 10
-1.39461621E+02
 20
-1.63280318E+02
  0
VERTEX
  8
0
 62
7
 10
-1.39205296E+02
 20
-1.63430154E+02
  0
VERTEX
  8
0
 62
7
 10
-1.38929426E+02
 20
-1.63565174E+02
  0
VERTEX
  8
0
 62
7
 10
-1.38636112E+02
 20
-1.63684349E+02
  0
VERTEX
  8
0
 62
7
 10
-1.38327593E+02
 20
-1.63786770E+02
  0
VERTEX
  8
0
 62
7
 10
-1.38006221E+02
 20
-1.63871656E+02
  0
VERTEX
  8
0
 62
7
 10
-1.37674446E+02
 20
-1.63938359E+02
  0
VERTEX
  8
0
 62
7
 10
-1.37334801E+02
 20
-1.63986371E+02
  0
VERTEX
  8
0
 62
7
 10
-1.36989874E+02
 20
-1.64015325E+02
  0
VERTEX
  8
0
 62
7
 10
-1.36642296E+02
 20
-1.64025001E+02
  0
SEQEND
  8
0
  0
POLYLINE
  8
0
 62
7
 66
1
  0
VERTEX
  8
0
 62
7
 10
-1.36642296E+02
 20
-1.74975029E+02
  0
VERTEX
  8
0
 62
7
 10
-1.36989874E+02
 20
-1.74984705E+02
  0
VERTEX
  8
0
 62
7
 10
-1.37334801E+02
 20
-1.75013659E+02
  0
VERTEX
  8
0
 62
7
 10
-1.37674447E+02
 20
-1.75061671E+02
  0
VERTEX
  8
0
 62
7
 10
-1.38006221E+02
 20
-1.75128374E+02
  0
VERTEX
  8
0
 62
7
 10
-1.38327593E+02
 20
-1.75213260E+02
  0
VERTEX
  8
0
 62
7
 10
-1.38636112E+02
 20
-1.75315681E+02
  0
VERTEX
  8
0
 62
7
 10
-1.38929426E+02
 20
-1.75434856E+02
  0
VERTEX
  8
0
 62
7
 10
-1.39205296E+02
 20
-1.75569876E+02
  0
VERTEX
  8
0
 62
7
 10
-1.39461621E+02
 20
-1.75719712E+02
  0
VERTEX
  8
0
 62
7
 10
-1.39696444E+02
 20
-1.75883221E+02
  0
VERTEX
  8
0
 62
7
 10
-1.39907974E+02
 20
-1.76059155E+02
  0
VERTEX
  8
0
 62
7
 10
-1.40094599E+02
 20
-1.76246174E+02
  0
VERTEX
  8
0
 62
7
 10
-1.40254896E+02
 20
-1.76442850E+02
  0
VERTEX
  8
0
 62
7
 10
-1.40387640E+02
 20
-1.76647685E+02
  0
VERTEX
  8
0
 62
7
 10
-1.40491822E+02
 20
-1.76859115E+02
  0
VERTEX
  8
0
 62
7
 10
-1.40566645E+02
 20
-1.77075528E+02
  0
VERTEX
  8
0
 62
7
 10
-1.40611539E+02
 20
-1.77295274E+02
  0
VERTEX
  8
0
 62
7
 10
-1.40626162E+02
 20
-1.77516676E+02
  0
VERTEX
  8
0
 62
7
 10
-1.40610402E+02
 20
-1.77738047E+02
  0
VERTEX
  8
0
 62
7
 10
-1.40564380E+02
 20
-1.77957698E+02
  0
VERTEX
  8
0
 62
7
 10
-1.40488446E+02
 20
-1.78173955E+02
  0
VERTEX
  8
0
 62
7
 10
-1.40383180E+02
 20
-1.78385166E+02
  0
VERTEX
  8
0
 62
7
 10
-1.40249384E+02
 20
-1.78589723E+02
  0
VERTEX
  8
0
 62
7
 10
-1.40088079E+02
 20
-1.78786064E+02
  0
VERTEX
  8
0
 62
7
 10
-1.39900495E+02
 20
-1.78972693E+02
  0
VERTEX
  8
0
 62
7
 10
-1.39688062E+02
 20
-1.79148186E+02
  0
VERTEX
  8
0
 62
7
 10
-1.39452401E+02
 20
-1.79311205E+02
  0
VERTEX
  8
0
 62
7
 10
-1.39195308E+02
 20
-1.79460506E+02
  0
VERTEX
  8
0
 62
7
 10
-1.38918746E+02
 20
-1.79594951E+02
  0
VERTEX
  8
0
 62
7
 10
-1.38624822E+02
 20
-1.79713515E+02
  0
SEQEND
  8
0
  0
POLYLINE
  8
0
 62
7
 66
1
  0
VERTEX
  8
0
 62
7
 10
-1.36642311E+02
 20
-3.25000000E+02
  0
VERTEX
  8
0
 62
7
 10
-1.36999421E+02
 20
-3.25019122E+02
  0
VERTEX
  8
0
 62
7
 10
-1.37353656E+02
 20
-3.25076334E+02
  0
VERTEX
  8
0
 62
7
 10
-1.37702164E+02
 20
-3.25171176E+02
  0
VERTEX
  8
0
 62
7
 10
-1.38042138E+02
 20
-3.25302884E+02
  0
VERTEX
  8
0
 62
7
 10
-1.38370841E+02
 20
-3.25470398E+02
  0
VERTEX
  8
0
 62
7
 10
-1.38685628E+02
 20
-3.25672368E+02
  0
VERTEX
  8
0
 62
7
 10
-1.38983963E+02
 20
-3.25907169E+02
  0
VERTEX
  8
0
 62
7
 10
-1.39263444E+02
 20
-3.26172911E+02
  0
VERTEX
  8
0
 62
7
 10
-1.39521822E+02
 20
-3.26467452E+02
  0
VERTEX
  8
0
 62
7
 10
-1.39757015E+02
 20
-3.26788423E+02
  0
VERTEX
  8
0
 62
7
 10
-1.39967131E+02
 20
-3.27133239E+02
  0
VERTEX
  8
0
 62
7
 10
-1.40150477E+02
 20
-3.27499124E+02
  0
VERTEX
  8
0
 62
7
 10
-1.40305577E+02
 20
-3.27883131E+02
  0
VERTEX
  8
0
 62
7
 10
-1.40431183E+02
 20
-3.28282169E+02
  0
VERTEX
  8
0
 62
7
 10
-1.40526284E+02
 20
-3.28693026E+02
  0
VERTEX
  8
0
 62
7
 10
-1.40590112E+02
 20
-3.29112392E+02
  0
VERTEX
  8
0
 62
7
 10
-1.40622156E+02
 20
-3.29536892E+02
  0
VERTEX
  8
0
 62
7
 10
-1.40622156E+02
 20
-3.29963108E+02
  0
VERTEX
  8
0
 62
7
 10
-1.40590112E+02
 20
-3.30387608E+02
  0
VERTEX
  8
0
 62
7
 10
-1.40526284E+02
 20
-3.30806974E+02
  0
VERTEX
  8
0
 62
7
 10
-1.40431183E+02
 20
-3.31217831E+02
  0
VERTEX
  8
0
 62
7
 10
-1.40305577E+02
 20
-3.31616869E+02
  0
VERTEX
  8
0
 62
7
 10
-1.40150477E+02
 20
-3.32000876E+02
  0
VERTEX
  8
0
 62
7
 10
-1.39967131E+02
 20
-3.32366761E+02
  0
VERTEX
  8
0
 62
7
 10
-1.39757015E+02
 20
-3.32711577E+02
  0
VERTEX
  8
0
 62
7
 10
-1.39521822E+02
 20
-3.33032548E+02
  0
VERTEX
  8
0
 62
7
 10
-1.39263444E+02
 20
-3.33327089E+02
  0
VERTEX
  8
0
 62
7
 10
-1.38983963E+02
 20
-3.33592831E+02
  0
VERTEX
  8
0
 62
7
 10
-1.38685628E+02
 20
-3.33827632E+02
  0
VERTEX
  8
0
 62
7
 10
-1.38370841E+02
 20
-3.34029602E+02
  0
VERTEX
  8
0
 62
7
 10
-1.38042138E+02
 20
-3.34197116E+02
  0
VERTEX
  8
0
 62
7
 10
-1.37702164E+02
 20
-3.34328824E+02
  0
VERTEX
  8
0
 62
7
 10
-1.37353656E+02
 20
-3.34423666E+02
  0
VERTEX
  8
0
 62
7
 10
-1.36999421E+02
 20
-3.34480878E+02
  0
VERTEX
  8
0
 62
7
 10
-1.36642311E+02
 20
-3.34500000E+02
  0
SEQEND
  8
0
  0
ARC
  8
0
 62
7
 10
1.23000008E+02
 20
-3.34500000E+02
 40
1.70000000E+01
 50
0.00000000E+00
 51
1.80000000E+02
  0
ARC
  8
0
 62
7
 10
1.23000008E+02
 20
-3.34500000E+02
 40
1.75294495E+01
 50
0.00000000E+00
 51
1.80000000E+02
  0
ARC
  8
0
 62
2
 10
1.23000008E+02
 20
-3.34500000E+02
 40
8.18000031E+00
 50
0.00000000E+00
 51
1.80000000E+02
  0
ARC
  8
0
 62
7
 10
1.23000008E+02
 20
-3.34500000E+02
 40
8.99999237E+00
 50
0.00000000E+00
 51
1.80000000E+02
  0
CIRCLE
  8
0
 62
7
 10
9.49999390E+01
 20
-3.06499939E+02
 40
3.32000017E+00
  0
CIRCLE
  8
0
 62
7
 10
1.51000069E+02
 20
-3.06499939E+02
 40
3.32000017E+00
  0
CIRCLE
  8
0
 62
2
 10
1.51000069E+02
 20
-3.06499939E+02
 40
4.00000000E+00
  0
ARC
  8
0
 62
7
 10
1.23000008E+02
 20
-3.34500000E+02
 40
1.90000000E+01
 50
0.00000000E+00
 51
1.80000000E+02
  0
ARC
  8
0
 62
7
 10
1.56500069E+02
 20
-3.21499924E+02
 40
1.00000000E+00
 50
3.59999995E+02
 51
8.99982676E+01
  0
ARC
  8
0
 62
7
 10
1.56500145E+02
 20
-3.16999939E+02
 40
3.50000000E+00
 50
1.79999991E+02
 51
2.69998990E+02
  0
ARC
  8
0
 62
7
 10
1.52022224E+02
 20
-3.15944809E+02
 40
1.00000000E+00
 50
5.67452970E+00
 51
9.61763105E+01
  0
ARC
  8
0
 62
7
 10
1.51000069E+02
 20
-3.06499969E+02
 40
8.50000000E+00
 50
1.73823329E+02
 51
2.76176459E+02
  0
ARC
  8
0
 62
7
 10
1.36000069E+02
 20
-3.00999985E+02
 40
1.00000000E+00
 50
1.72985911E-03
 51
9.00000162E+01
  0
ARC
  8
0
 62
7
 10
1.40500084E+02
 20
-3.00999878E+02
 40
3.50000000E+00
 50
1.80001006E+02
 51
2.69999984E+02
  0
ARC
  8
0
 62
7
 10
1.41555183E+02
 20
-3.05477829E+02
 40
1.00000000E+00
 50
3.53823687E+02
 51
8.43254881E+01
  0
ARC
  8
0
 62
7
 10
8.95000229E+01
 20
-3.21499924E+02
 40
1.00000000E+00
 50
9.00017511E+01
 51
1.80000019E+02
  0
ARC
  8
0
 62
7
 10
9.39778671E+01
 20
-3.15944809E+02
 40
1.00000000E+00
 50
8.38236945E+01
 51
1.74325484E+02
  0
ARC
  8
0
 62
7
 10
8.94998703E+01
 20
-3.16999939E+02
 40
3.50000000E+00
 50
2.70000995E+02
 51
1.86693353E-05
  0
ARC
  8
0
 62
7
 10
1.04444824E+02
 20
-3.05477829E+02
 40
1.00000000E+00
 50
9.56743599E+01
 51
1.86177214E+02
  0
ARC
  8
0
 62
7
 10
1.09999901E+02
 20
-3.00999985E+02
 40
1.00000000E+00
 50
9.00000437E+01
 51
1.79998229E+02
  0
ARC
  8
0
 62
7
 10
1.05499893E+02
 20
-3.00999847E+02
 40
3.50000000E+00
 50
2.69999984E+02
 51
3.59998489E+02
  0
CIRCLE
  8
0
 62
7
 10
9.49999390E+01
 20
-3.06499969E+02
 40
6.00000000E+00
  0
ARC
  8
0
 62
7
 10
8.95000229E+01
 20
-3.00999985E+02
 40
4.00000000E+00
 50
9.00000162E+01
 51
1.80000005E+02
  0
ARC
  8
0
 62
7
 10
1.03100296E+02
 20
-3.32500008E+02
 40
1.00000000E+00
 50
2.70000038E+02
 51
3.54260543E+02
  0
ARC
  8
0
 62
7
 10
8.95000229E+01
 20
-3.32500008E+02
 40
1.00000000E+00
 50
1.79999991E+02
 51
2.70000028E+02
  0
ARC
  8
0
 62
7
 10
8.95000229E+01
 20
-3.00999985E+02
 40
3.50000000E+00
 50
9.00000162E+01
 51
1.80000005E+02
  0
ARC
  8
0
 62
7
 10
1.00152718E+02
 20
-3.14481110E+02
 40
1.00000000E+00
 50
4.50000423E+01
 51
1.22846758E+02
  0
ARC
  8
0
 62
7
 10
1.02981163E+02
 20
-3.11652695E+02
 40
1.00000000E+00
 50
1.47153844E+02
 51
2.25000010E+02
  0
ARC
  8
0
 62
7
 10
1.10342957E+02
 20
-3.19014526E+02
 40
1.00000000E+00
 50
2.25000000E+02
 51
3.09261001E+02
  0
ARC
  8
0
 62
7
 10
1.07514549E+02
 20
-3.21842941E+02
 40
1.00000000E+00
 50
3.20739045E+02
 51
4.50000423E+01
  0
CIRCLE
  8
0
 62
7
 10
9.49999390E+01
 20
-3.06499969E+02
 40
6.50000048E+00
  0
CIRCLE
  8
0
 62
7
 10
1.51000069E+02
 20
-3.06499939E+02
 40
6.00000000E+00
  0
CIRCLE
  8
0
 62
2
 10
9.49999390E+01
 20
-3.06499939E+02
 40
4.00000000E+00
  0
ARC
  8
0
 62
7
 10
1.56500069E+02
 20
-3.01000000E+02
 40
4.00000000E+00
 50
2.23117997E-05
 51
8.99999750E+01
  0
ARC
  8
0
 62
7
 10
1.42899788E+02
 20
-3.32500000E+02
 40
1.00000000E+00
 50
1.85739444E+02
 51
2.69999956E+02
  0
ARC
  8
0
 62
7
 10
1.56500023E+02
 20
-3.32500000E+02
 40
1.00000000E+00
 50
2.69999956E+02
 51
3.59999992E+02
  0
ARC
  8
0
 62
7
 10
1.20999992E+02
 20
-3.00999985E+02
 40
1.00000000E+00
 50
3.59721781E-05
 51
9.00000162E+01
  0
ARC
  8
0
 62
7
 10
1.20999992E+02
 20
-3.14600250E+02
 40
1.00000000E+00
 50
2.75739515E+02
 51
3.59721781E-05
  0
ARC
  8
0
 62
7
 10
1.25000008E+02
 20
-3.01000000E+02
 40
1.00000000E+00
 50
9.00000025E+01
 51
1.80000046E+02
  0
ARC
  8
0
 62
7
 10
1.56500069E+02
 20
-3.01000000E+02
 40
3.50000000E+00
 50
2.23117997E-05
 51
8.99999750E+01
  0
ARC
  8
0
 62
7
 10
9.49999390E+01
 20
-3.06499969E+02
 40
8.50000000E+00
 50
2.63823540E+02
 51
6.17668522E+00
  0
ARC
  8
0
 62
7
 10
1.25000008E+02
 20
-3.14600250E+02
 40
1.00000000E+00
 50
1.80000036E+02
 51
2.64260549E+02
  0
ARC
  8
0
 62
7
 10
1.35657051E+02
 20
-3.19014542E+02
 40
1.00000000E+00
 50
2.30739011E+02
 51
3.15000026E+02
  0
ARC
  8
0
 62
7
 10
1.38485497E+02
 20
-3.21842972E+02
 40
1.00000000E+00
 50
1.35000014E+02
 51
2.19261011E+02
  0
ARC
  8
0
 62
7
 10
1.43018883E+02
 20
-3.11652710E+02
 40
1.00000000E+00
 50
3.15000047E+02
 51
3.28467588E+01
  0
ARC
  8
0
 62
7
 10
1.45847298E+02
 20
-3.14481140E+02
 40
1.00000000E+00
 50
5.71538311E+01
 51
1.35000014E+02
  0
CIRCLE
  8
0
 62
7
 10
1.51000069E+02
 20
-3.06499939E+02
 40
6.50000048E+00
  0
ARC
  8
0
 62
2
 10
-3.26999992E+02
 20
-3.34500000E+02
 40
8.18000031E+00
 50
0.00000000E+00
 51
1.80000000E+02
  0
CIRCLE
  8
0
 62
7
 10
-9.20000381E+01
 20
-1.81500000E+02
 40
2.59999990E+00
  0
ARC
  8
0
 62
7
 10
-1.26750008E+02
 20
-3.17491440E+02
 40
2.50000000E-01
 50
9.19988230E+01
 51
1.79999977E+02
  0
ARC
  8
0
 62
7
 10
-1.16500008E+02
 20
-2.98049927E+02
 40
5.00000000E-01
 50
9.10002768E+01
 51
1.80000019E+02
  0
ARC
  8
0
 62
7
 10
-1.31500008E+02
 20
-3.18000015E+02
 40
5.00000000E-01
 50
8.99999818E+01
 51
1.79999964E+02
  0
ARC
  8
0
 62
7
 10
-1.18499992E+02
 20
-3.16000000E+02
 40
5.00000000E-01
 50
8.99999818E+01
 51
1.79999964E+02
  0
CIRCLE
  8
0
 62
7
 10
-2.98999931E+02
 20
-3.06499939E+02
 40
3.32000017E+00
  0
CIRCLE
  8
0
 62
7
 10
-3.55000084E+02
 20
-3.06499939E+02
 40
3.32000017E+00
  0
CIRCLE
  8
0
 62
2
 10
-2.98999931E+02
 20
-3.06499939E+02
 40
4.00000000E+00
  0
CIRCLE
  8
0
 62
2
 10
-3.55000084E+02
 20
-3.06499939E+02
 40
4.00000000E+00
  0
CIRCLE
  8
0
 62
7
 10
-9.20000381E+01
 20
-1.81500000E+02
 40
5.00000000E+00
  0
ARC
  8
0
 62
2
 10
-9.90000687E+01
 20
-1.61500000E+02
 40
8.32999992E+00
 50
6.88902342E+01
 51
5.35366168E+01
  0
ARC
  8
0
 62
7
 10
-3.26999992E+02
 20
-3.34500000E+02
 40
1.70000000E+01
 50
0.00000000E+00
 51
1.80000000E+02
  0
ARC
  8
0
 62
7
 10
-3.26999992E+02
 20
-3.34500000E+02
 40
1.90000000E+01
 50
0.00000000E+00
 51
1.80000000E+02
  0
ARC
  8
0
 62
7
 10
-3.26999992E+02
 20
-3.34500000E+02
 40
1.75294495E+01
 50
0.00000000E+00
 51
1.80000000E+02
  0
ARC
  8
0
 62
7
 10
-3.60500053E+02
 20
-3.21499924E+02
 40
1.00000000E+00
 50
9.00017305E+01
 51
1.80000005E+02
  0
ARC
  8
0
 62
7
 10
-3.60500145E+02
 20
-3.16999939E+02
 40
3.50000000E+00
 50
2.70001002E+02
 51
0.00000000E+00
  0
ARC
  8
0
 62
7
 10
-3.56022209E+02
 20
-3.15944809E+02
 40
1.00000000E+00
 50
8.38236876E+01
 51
1.74325470E+02
  0
ARC
  8
0
 62
7
 10
-3.55000084E+02
 20
-3.06499969E+02
 40
8.50000000E+00
 50
2.63823553E+02
 51
6.17667669E+00
  0
ARC
  8
0
 62
7
 10
-3.40000084E+02
 20
-3.00999985E+02
 40
1.00000000E+00
 50
8.99999818E+01
 51
1.79998270E+02
  0
ARC
  8
0
 62
7
 10
-3.44500084E+02
 20
-3.00999878E+02
 40
3.50000000E+00
 50
2.70000018E+02
 51
3.59999001E+02
  0
ARC
  8
0
 62
7
 10
-3.45555199E+02
 20
-3.05477829E+02
 40
1.00000000E+00
 50
9.56745100E+01
 51
1.86176313E+02
  0
ARC
  8
0
 62
7
 10
-2.93500023E+02
 20
-3.21499924E+02
 40
1.00000000E+00
 50
3.59999986E+02
 51
8.99982469E+01
  0
ARC
  8
0
 62
7
 10
-2.97977867E+02
 20
-3.15944809E+02
 40
1.00000000E+00
 50
5.67452116E+00
 51
9.61763036E+01
  0
ARC
  8
0
 62
7
 10
-2.93499870E+02
 20
-3.16999939E+02
 40
3.50000000E+00
 50
1.79999977E+02
 51
2.69999017E+02
  0
ARC
  8
0
 62
7
 10
-3.08444817E+02
 20
-3.05477829E+02
 40
1.00000000E+00
 50
3.53822790E+02
 51
8.43256382E+01
  0
ARC
  8
0
 62
7
 10
-3.13999901E+02
 20
-3.00999985E+02
 40
1.00000000E+00
 50
1.77584919E-03
 51
8.99999549E+01
  0
ARC
  8
0
 62
7
 10
-3.09499901E+02
 20
-3.00999847E+02
 40
3.50000000E+00
 50
1.80001511E+02
 51
2.70000018E+02
  0
CIRCLE
  8
0
 62
7
 10
-2.98999931E+02
 20
-3.06499969E+02
 40
6.00000000E+00
  0
ARC
  8
0
 62
7
 10
-2.93500023E+02
 20
-3.00999985E+02
 40
4.00000000E+00
 50
0.00000000E+00
 51
8.99999818E+01
  0
ARC
  8
0
 62
7
 10
-3.07100304E+02
 20
-3.32500008E+02
 40
1.00000000E+00
 50
1.85739458E+02
 51
2.69999963E+02
  0
ARC
  8
0
 62
7
 10
-2.93500023E+02
 20
-3.32500008E+02
 40
1.00000000E+00
 50
2.69999963E+02
 51
0.00000000E+00
  0
ARC
  8
0
 62
7
 10
-2.93500023E+02
 20
-3.00999985E+02
 40
3.50000000E+00
 50
0.00000000E+00
 51
8.99999818E+01
  0
ARC
  8
0
 62
7
 10
-3.04152702E+02
 20
-3.14481110E+02
 40
1.00000000E+00
 50
5.71532472E+01
 51
1.34999959E+02
  0
ARC
  8
0
 62
7
 10
-3.06981163E+02
 20
-3.11652695E+02
 40
1.00000000E+00
 50
3.14999995E+02
 51
3.28461612E+01
  0
ARC
  8
0
 62
7
 10
-3.14342949E+02
 20
-3.19014526E+02
 40
1.00000000E+00
 50
2.30738998E+02
 51
3.14999995E+02
  0
ARC
  8
0
 62
7
 10
-3.11514549E+02
 20
-3.21842941E+02
 40
1.00000000E+00
 50
1.34999959E+02
 51
2.19260957E+02
  0
CIRCLE
  8
0
 62
7
 10
-2.98999931E+02
 20
-3.06499969E+02
 40
6.50000048E+00
  0
ARC
  8
0
 62
7
 10
-1.10999992E+02
 20
-1.92500031E+02
 40
2.00000000E+00
 50
1.79999977E+02
 51
2.70000028E+02
  0
ARC
  8
0
 62
7
 10
-1.10999992E+02
 20
-1.46500000E+02
 40
2.00000000E+00
 50
8.99999818E+01
 51
1.79999964E+02
  0
ARC
  8
0
 62
7
 10
-9.90000687E+01
 20
-1.61500000E+02
 40
7.44000006E+00
 50
6.62191812E+01
 51
6.42163030E+01
  0
ARC
  8
0
 62
7
 10
-9.90000687E+01
 20
-1.61500000E+02
 40
8.71000004E+00
 50
6.98522063E+01
 51
5.02775825E+01
  0
ARC
  8
0
 62
7
 10
-1.18499992E+02
 20
-1.51000015E+02
 40
5.00000000E-01
 50
8.99999818E+01
 51
1.79999964E+02
  0
ARC
  8
0
 62
7
 10
-1.16500008E+02
 20
-1.33049927E+02
 40
5.00000000E-01
 50
9.10002223E+01
 51
1.79999964E+02
  0
ARC
  8
0
 62
7
 10
-1.26750008E+02
 20
-1.52491486E+02
 40
2.50000000E-01
 50
9.19988230E+01
 51
1.79999977E+02
  0
ARC
  8
0
 62
7
 10
-1.31500008E+02
 20
-1.53000061E+02
 40
5.00000000E-01
 50
8.99999818E+01
 51
1.79999964E+02
  0
ARC
  8
0
 62
7
 10
-1.18499992E+02
 20
-1.88000015E+02
 40
5.00000000E-01
 50
1.79999977E+02
 51
2.69999974E+02
  0
ARC
  8
0
 62
7
 10
-1.16500008E+02
 20
-2.05950073E+02
 40
5.00000000E-01
 50
1.79999977E+02
 51
2.68999706E+02
  0
ARC
  8
0
 62
7
 10
-1.26750008E+02
 20
-1.86508545E+02
 40
2.50000000E-01
 50
1.79999977E+02
 51
2.68001132E+02
  0
ARC
  8
0
 62
7
 10
-1.31500008E+02
 20
-1.85999969E+02
 40
5.00000000E-01
 50
1.79999977E+02
 51
2.69999974E+02
  0
CIRCLE
  8
0
 62
7
 10
-3.55000084E+02
 20
-3.06499939E+02
 40
6.00000000E+00
  0
ARC
  8
0
 62
7
 10
-3.60500053E+02
 20
-3.01000000E+02
 40
4.00000000E+00
 50
9.00000231E+01
 51
1.79999977E+02
  0
ARC
  8
0
 62
7
 10
-3.46899803E+02
 20
-3.32500000E+02
 40
1.00000000E+00
 50
2.70000045E+02
 51
3.54260551E+02
  0
ARC
  8
0
 62
7
 10
-3.60500023E+02
 20
-3.32500000E+02
 40
1.00000000E+00
 50
1.80000008E+02
 51
2.70000045E+02
  0
ARC
  8
0
 62
7
 10
-3.24999992E+02
 20
-3.00999985E+02
 40
1.00000000E+00
 50
8.99999818E+01
 51
1.79999964E+02
  0
ARC
  8
0
 62
7
 10
-3.24999992E+02
 20
-3.14600250E+02
 40
1.00000000E+00
 50
1.79999964E+02
 51
2.64260484E+02
  0
ARC
  8
0
 62
7
 10
-3.29000023E+02
 20
-3.01000000E+02
 40
1.00000000E+00
 50
3.59999959E+02
 51
8.99999956E+01
  0
ARC
  8
0
 62
7
 10
-3.60500053E+02
 20
-3.01000000E+02
 40
3.50000000E+00
 50
9.00000231E+01
 51
1.79999977E+02
  0
ARC
  8
0
 62
7
 10
-2.98999931E+02
 20
-3.06499969E+02
 40
8.50000000E+00
 50
1.73823315E+02
 51
2.76176459E+02
  0
ARC
  8
0
 62
7
 10
-3.29000023E+02
 20
-3.14600250E+02
 40
1.00000000E+00
 50
2.75739453E+02
 51
3.59999959E+02
  0
ARC
  8
0
 62
7
 10
-3.39657066E+02
 20
-3.19014542E+02
 40
1.00000000E+00
 50
2.24999972E+02
 51
3.09260983E+02
  0
ARC
  8
0
 62
7
 10
-3.42485497E+02
 20
-3.21842972E+02
 40
1.00000000E+00
 50
3.20738994E+02
 51
4.49999910E+01
  0
ARC
  8
0
 62
7
 10
-3.47018883E+02
 20
-3.11652710E+02
 40
1.00000000E+00
 50
1.47153243E+02
 51
2.24999955E+02
  0
ARC
  8
0
 62
7
 10
-3.49847282E+02
 20
-3.14481140E+02
 40
1.00000000E+00
 50
4.49999910E+01
 51
1.22846171E+02
  0
CIRCLE
  8
0
 62
7
 10
-3.55000084E+02
 20
-3.06499939E+02
 40
6.50000048E+00
  0
LINE
  8
0
 62
7
 10
-1.44999962E+02
 20
-1.77680008E+02
 11
-1.41999962E+02
 21
-1.77680008E+02
  0
LINE
  8
0
 62
7
 10
-1.44999962E+02
 20
-1.61320023E+02
 11
-1.41999962E+02
 21
-1.61320023E+02
  0
LINE
  8
0
 62
7
 10
-1.44999962E+02
 20
-3.26320007E+02
 11
-1.41999962E+02
 21
-3.26320007E+02
  0
LINE
  8
0
 62
7
 10
-1.41999935E+02
 20
-3.25500034E+02
 11
-1.40626113E+02
 21
-3.25000004E+02
  0
LINE
  8
0
 62
7
 10
-1.41999944E+02
 20
-1.60500034E+02
 11
-1.36642294E+02
 21
-1.58550009E+02
  0
LINE
  8
0
 62
7
 10
-1.73999899E+02
 20
-3.27000138E+02
 11
-1.72499853E+02
 21
-3.25500138E+02
  0
LINE
  8
0
 62
2
 10
-1.73319923E+02
 20
-3.26320007E+02
 11
-1.64061698E+02
 21
-3.26320007E+02
  0
LINE
  8
0
 62
7
 10
-1.72499916E+02
 20
-3.25500000E+02
 11
-1.64061698E+02
 21
-3.25500000E+02
  0
LINE
  8
0
 62
7
 10
-1.44999962E+02
 20
-1.78500015E+02
 11
-1.44999962E+02
 21
-1.60500015E+02
  0
LINE
  8
0
 62
7
 10
-1.36642326E+02
 20
-1.58550003E+02
 11
-1.31999992E+02
 21
-1.58550003E+02
  0
LINE
  8
0
 62
7
 10
-1.36642311E+02
 20
-3.34500000E+02
 11
-1.31999992E+02
 21
-3.34500000E+02
  0
LINE
  8
0
 62
7
 10
-1.41999973E+02
 20
-1.78500001E+02
 11
-1.36642309E+02
 21
-1.80450032E+02
  0
LINE
  8
0
 62
7
 10
-1.72499977E+02
 20
-3.34500000E+02
 11
-1.72499977E+02
 21
-3.25500000E+02
  0
LINE
  8
0
 62
7
 10
-1.73999977E+02
 20
-3.34500000E+02
 11
-1.73999977E+02
 21
-3.27000153E+02
  0
LINE
  8
0
 62
7
 10
-1.44999962E+02
 20
-3.34500000E+02
 11
-1.44999962E+02
 21
-3.25500000E+02
  0
LINE
  8
0
 62
7
 10
-1.36642296E+02
 20
-1.64025009E+02
 11
-1.31999992E+02
 21
-1.64025009E+02
  0
LINE
  8
0
 62
7
 10
-1.36642296E+02
 20
-1.74975021E+02
 11
-1.31999992E+02
 21
-1.74975021E+02
  0
LINE
  8
0
 62
7
 10
-1.73999984E+02
 20
-1.76999949E+02
 11
-1.72499949E+02
 21
-1.78499939E+02
  0
LINE
  8
0
 62
2
 10
-1.73319923E+02
 20
-1.77680008E+02
 11
-1.64061698E+02
 21
-1.77680008E+02
  0
LINE
  8
0
 62
7
 10
-1.72499916E+02
 20
-1.78500015E+02
 11
-1.64061698E+02
 21
-1.78500015E+02
  0
LINE
  8
0
 62
7
 10
-1.73999907E+02
 20
-1.62000167E+02
 11
-1.72499861E+02
 21
-1.60500167E+02
  0
LINE
  8
0
 62
2
 10
-1.73319923E+02
 20
-1.61320023E+02
 11
-1.64061698E+02
 21
-1.61320023E+02
  0
LINE
  8
0
 62
7
 10
-1.72499916E+02
 20
-1.60500015E+02
 11
-1.64061698E+02
 21
-1.60500015E+02
  0
LINE
  8
0
 62
7
 10
-1.72499977E+02
 20
-1.78500015E+02
 11
-1.72499977E+02
 21
-1.60500015E+02
  0
LINE
  8
0
 62
7
 10
-1.73999977E+02
 20
-1.76999985E+02
 11
-1.73999977E+02
 21
-1.62000168E+02
  0
LINE
  8
0
 62
7
 10
-1.36642311E+02
 20
-1.80450027E+02
 11
-1.31999992E+02
 21
-1.80450027E+02
  0
LINE
  8
0
 62
7
 10
-1.40626167E+02
 20
-3.25000000E+02
 11
-1.31999992E+02
 21
-3.25000000E+02
  0
LINE
  8
0
 62
7
 10
-1.41999962E+02
 20
-1.78500000E+02
 11
-1.41999962E+02
 21
-1.60500015E+02
  0
LINE
  8
0
 62
7
 10
-1.41999962E+02
 20
-3.25500000E+02
 11
-1.41999962E+02
 21
-3.34500000E+02
  0
LINE
  8
0
 62
7
 10
9.49999358E+01
 20
-3.01881126E+02
 11
9.89999373E+01
 21
-3.04190528E+02
  0
LINE
  8
0
 62
7
 10
9.89999390E+01
 20
-3.04190536E+02
 11
9.89999390E+01
 21
-3.08809326E+02
  0
LINE
  8
0
 62
7
 10
9.89999309E+01
 20
-3.08809332E+02
 11
9.49999285E+01
 21
-3.11118734E+02
  0
LINE
  8
0
 62
7
 10
9.49999373E+01
 20
-3.11118731E+02
 11
9.09999358E+01
 21
-3.08809329E+02
  0
LINE
  8
0
 62
7
 10
9.09999390E+01
 20
-3.04190536E+02
 11
9.09999390E+01
 21
-3.08809326E+02
  0
LINE
  8
0
 62
7
 10
9.49999347E+01
 20
-3.01881135E+02
 11
9.09999324E+01
 21
-3.04190538E+02
  0
LINE
  8
0
 62
7
 10
1.51000069E+02
 20
-3.01881133E+02
 11
1.55000072E+02
 21
-3.04190536E+02
  0
LINE
  8
0
 62
7
 10
1.55000084E+02
 20
-3.04190536E+02
 11
1.55000084E+02
 21
-3.08809326E+02
  0
LINE
  8
0
 62
7
 10
1.55000069E+02
 20
-3.08809331E+02
 11
1.51000067E+02
 21
-3.11118733E+02
  0
LINE
  8
0
 62
7
 10
1.51000072E+02
 20
-3.11118739E+02
 11
1.47000069E+02
 21
-3.08809336E+02
  0
LINE
  8
0
 62
7
 10
1.47000069E+02
 20
-3.04190536E+02
 11
1.47000069E+02
 21
-3.08809326E+02
  0
LINE
  8
0
 62
7
 10
1.51000069E+02
 20
-3.01881127E+02
 11
1.47000067E+02
 21
-3.04190530E+02
  0
LINE
  8
0
  6
CENTER
 62
2
 10
1.05630547E+02
 20
-3.06499939E+02
 11
8.30975876E+01
 21
-3.06499939E+02
  0
LINE
  8
0
 62
7
 10
9.29998169E+01
 20
-3.16999939E+02
 11
9.29998169E+01
 21
-3.15736206E+02
  0
LINE
  8
0
 62
7
 10
1.05499893E+02
 20
-3.04499756E+02
 11
1.04236465E+02
 21
-3.04499756E+02
  0
LINE
  8
0
 62
7
 10
1.53000267E+02
 20
-3.16999939E+02
 11
1.53000267E+02
 21
-3.15736343E+02
  0
LINE
  8
0
 62
7
 10
1.40500084E+02
 20
-3.04499786E+02
 11
1.41763618E+02
 21
-3.04499786E+02
  0
LINE
  8
0
 62
7
 10
8.95000229E+01
 20
-2.96999969E+02
 11
1.56500069E+02
 21
-2.96999969E+02
  0
LINE
  8
0
 62
7
 10
1.09999901E+02
 20
-2.99999969E+02
 11
1.36000069E+02
 21
-2.99999969E+02
  0
LINE
  8
0
 62
7
 10
9.80000076E+01
 20
-2.96999969E+02
 11
9.80000076E+01
 21
-2.97499969E+02
  0
LINE
  8
0
 62
7
 10
1.48000008E+02
 20
-2.96999969E+02
 11
1.48000008E+02
 21
-2.97499969E+02
  0
LINE
  8
0
 62
7
 10
8.55000076E+01
 20
-3.34500000E+02
 11
8.55000076E+01
 21
-3.00999985E+02
  0
LINE
  8
0
 62
7
 10
8.85000000E+01
 20
-3.34500000E+02
 11
8.85000000E+01
 21
-3.21499924E+02
  0
LINE
  8
0
  6
CENTER
 62
2
 10
1.63045097E+02
 20
-3.06499939E+02
 11
1.40894020E+02
 21
-3.06499939E+02
  0
LINE
  8
0
  6
CENTER
 62
2
 10
1.30999992E+02
 20
-2.94814713E+02
 11
1.30999992E+02
 21
-3.06699982E+02
  0
LINE
  8
0
  6
CENTER
 62
2
 10
8.22322998E+01
 20
-3.34500000E+02
 11
1.65477730E+02
 21
-3.34500000E+02
  0
LINE
  8
0
 62
7
 10
8.60000000E+01
 20
-3.34500000E+02
 11
8.60000000E+01
 21
-3.00999985E+02
  0
LINE
  8
0
  6
CENTER
 62
2
 10
9.49999390E+01
 20
-2.94814713E+02
 11
9.49999390E+01
 21
-3.17729599E+02
  0
LINE
  8
0
 62
7
 10
8.95000229E+01
 20
-3.33500015E+02
 11
1.03100296E+02
 21
-3.33500015E+02
  0
LINE
  8
0
 62
7
 10
1.08221874E+02
 20
-3.21135599E+02
 11
1.00860025E+02
 21
-3.13773753E+02
  0
LINE
  8
0
 62
7
 10
1.09636098E+02
 20
-3.19721375E+02
 11
1.02274276E+02
 21
-3.12359556E+02
  0
LINE
  8
0
  6
CENTER
 62
2
 10
1.23000008E+02
 20
-2.93032455E+02
 11
1.23000008E+02
 21
-3.34500000E+02
  0
LINE
  8
0
  6
CENTER
 62
2
 10
1.51000069E+02
 20
-3.17729599E+02
 11
1.51000069E+02
 21
-2.94942017E+02
  0
LINE
  8
0
 62
7
 10
1.60500084E+02
 20
-3.34500000E+02
 11
1.60500084E+02
 21
-3.01000000E+02
  0
LINE
  8
0
 62
7
 10
1.56499992E+02
 20
-3.33500031E+02
 11
1.42899788E+02
 21
-3.33500031E+02
  0
LINE
  8
0
 62
7
 10
1.57500084E+02
 20
-3.34500000E+02
 11
1.57500084E+02
 21
-3.21499924E+02
  0
LINE
  8
0
 62
7
 10
1.60000084E+02
 20
-3.34500000E+02
 11
1.60000084E+02
 21
-3.01000000E+02
  0
LINE
  8
0
 62
7
 10
1.22000023E+02
 20
-3.00999985E+02
 11
1.22000023E+02
 21
-3.14600250E+02
  0
LINE
  8
0
 62
7
 10
1.37778462E+02
 20
-3.21136036E+02
 11
1.45140310E+02
 21
-3.13774189E+02
  0
LINE
  8
0
 62
7
 10
1.24000023E+02
 20
-3.01000000E+02
 11
1.24000023E+02
 21
-3.14600250E+02
  0
LINE
  8
0
 62
7
 10
1.36364251E+02
 20
-3.19721890E+02
 11
1.43726099E+02
 21
-3.12360043E+02
  0
LINE
  8
0
 62
7
 10
8.95000229E+01
 20
-2.97499969E+02
 11
1.56500069E+02
 21
-2.97499969E+02
  0
LINE
  8
0
  6
DASHED
 62
7
 10
1.16000114E+02
 20
-2.97499863E+02
 11
1.06000038E+02
 21
-2.97499863E+02
  0
LINE
  8
0
  6
CENTER
 62
2
 10
-9.90000687E+01
 20
-2.94814941E+02
 11
-9.90000687E+01
 21
-3.06700226E+02
  0
LINE
  8
0
  6
CENTER
 62
2
 10
-2.10090206E+01
 20
-3.06499985E+02
 11
-1.20248100E+02
 21
-3.06499985E+02
  0
LINE
  8
0
 62
7
 10
-1.13000008E+02
 20
-2.97488785E+02
 11
-1.13000008E+02
 21
-2.97000000E+02
  0
LINE
  8
0
 62
7
 10
-1.13000008E+02
 20
-2.97000000E+02
 11
-8.50000076E+01
 21
-2.97000000E+02
  0
LINE
  8
0
 62
7
 10
-1.16508741E+02
 20
-2.97550044E+02
 11
-8.50000364E+01
 21
-2.97000058E+02
  0
LINE
  8
0
 62
7
 10
-1.26758667E+02
 20
-3.17241519E+02
 11
-1.18999954E+02
 21
-3.16970579E+02
  0
LINE
  8
0
 62
7
 10
-1.26999992E+02
 20
-3.17499985E+02
 11
-1.26999992E+02
 21
-3.17491440E+02
  0
LINE
  8
0
 62
7
 10
-1.31500008E+02
 20
-3.17499985E+02
 11
-1.26991447E+02
 21
-3.17499985E+02
  0
LINE
  8
0
 62
7
 10
-1.18499992E+02
 20
-3.15500000E+02
 11
-1.16999992E+02
 21
-3.15500000E+02
  0
LINE
  8
0
 62
7
 10
-1.75449302E+01
 20
-1.35500031E+02
 11
-6.14999707E+01
 21
-1.35500031E+02
  0
LINE
  8
0
 62
7
 10
-1.89305497E+01
 20
-1.37899994E+02
 11
-6.14999707E+01
 21
-1.37899994E+02
  0
LINE
  8
0
 62
7
 10
-2.30874787E+01
 20
-1.45100006E+02
 11
-4.21507497E+01
 21
-1.45100006E+02
  0
LINE
  8
0
  6
CENTER
 62
2
 10
-9.59999707E+01
 20
-1.41499969E+02
 11
-1.20248085E+02
 21
-1.41499969E+02
  0
LINE
  8
0
  6
CENTER
 62
2
 10
-9.20000381E+01
 20
-1.75088852E+02
 11
-9.20000381E+01
 21
-1.88565598E+02
  0
LINE
  8
0
  6
CENTER
 62
2
 10
-9.86657639E+01
 20
-1.81500000E+02
 11
-8.58370132E+01
 21
-1.81500000E+02
  0
LINE
  8
0
 62
7
 10
-9.02679441E+01
 20
-1.81500082E+02
 11
-9.11339794E+01
 21
-1.83000108E+02
  0
LINE
  8
0
 62
7
 10
-9.11340256E+01
 20
-1.83000015E+02
 11
-9.28660965E+01
 21
-1.83000015E+02
  0
LINE
  8
0
 62
7
 10
-9.28659882E+01
 20
-1.83000037E+02
 11
-9.37320273E+01
 21
-1.81500004E+02
  0
LINE
  8
0
 62
7
 10
-9.37319309E+01
 20
-1.81500136E+02
 11
-9.28659108E+01
 21
-1.80000136E+02
  0
LINE
  8
0
 62
7
 10
-9.11340256E+01
 20
-1.79999985E+02
 11
-9.28660965E+01
 21
-1.79999985E+02
  0
LINE
  8
0
 62
7
 10
-9.02679675E+01
 20
-1.81500078E+02
 11
-9.11339914E+01
 21
-1.80000071E+02
  0
LINE
  8
0
  6
CENTER
 62
2
 10
-5.33406469E+01
 20
-1.97500031E+02
 11
-1.20248085E+02
 21
-1.97500031E+02
  0
LINE
  8
0
 62
7
 10
-8.50000076E+01
 20
-2.97000000E+02
 11
-8.50000076E+01
 21
-3.34500000E+02
  0
LINE
  8
0
 62
7
 10
-1.16999992E+02
 20
-2.98049927E+02
 11
-1.16999992E+02
 21
-3.34500000E+02
  0
LINE
  8
0
 62
7
 10
-1.26999992E+02
 20
-3.34500000E+02
 11
-1.26999992E+02
 21
-3.17499985E+02
  0
LINE
  8
0
  6
CENTER
 62
2
 10
-3.09630547E+02
 20
-3.06499939E+02
 11
-2.87097588E+02
 21
-3.06499939E+02
  0
LINE
  8
0
 62
7
 10
-2.96999809E+02
 20
-3.16999939E+02
 11
-2.96999809E+02
 21
-3.15736206E+02
  0
LINE
  8
0
 62
7
 10
-3.09499901E+02
 20
-3.04499756E+02
 11
-3.08236473E+02
 21
-3.04499756E+02
  0
LINE
  8
0
 62
7
 10
-3.57000267E+02
 20
-3.16999939E+02
 11
-3.57000267E+02
 21
-3.15736343E+02
  0
LINE
  8
0
 62
7
 10
-3.44500084E+02
 20
-3.04499786E+02
 11
-3.45763634E+02
 21
-3.04499786E+02
  0
LINE
  8
0
 62
7
 10
-3.60500053E+02
 20
-2.96999969E+02
 11
-2.93500023E+02
 21
-2.96999969E+02
  0
LINE
  8
0
 62
7
 10
-3.40000084E+02
 20
-2.99999969E+02
 11
-3.13999901E+02
 21
-2.99999969E+02
  0
LINE
  8
0
 62
7
 10
-1.19000008E+02
 20
-3.16000000E+02
 11
-1.19000008E+02
 21
-3.34500000E+02
  0
LINE
  8
0
 62
7
 10
-3.01999992E+02
 20
-2.96999969E+02
 11
-3.01999992E+02
 21
-2.97499969E+02
  0
LINE
  8
0
 62
7
 10
-3.51999992E+02
 20
-2.96999969E+02
 11
-3.51999992E+02
 21
-2.97499969E+02
  0
LINE
  8
0
 62
7
 10
-2.89999992E+02
 20
-3.34500000E+02
 11
-2.89999992E+02
 21
-3.00999985E+02
  0
LINE
  8
0
  6
CENTER
 62
2
 10
-3.67045097E+02
 20
-3.06499939E+02
 11
-3.44894035E+02
 21
-3.06499939E+02
  0
LINE
  8
0
  6
CENTER
 62
2
 10
-3.34999992E+02
 20
-2.94814713E+02
 11
-3.34999992E+02
 21
-3.06699982E+02
  0
LINE
  8
0
  6
CENTER
 62
2
 10
-2.86232292E+02
 20
-3.34500000E+02
 11
-3.69477715E+02
 21
-3.34500000E+02
  0
LINE
  8
0
  6
CENTER
 62
2
 10
-2.98999931E+02
 20
-2.94814713E+02
 11
-2.98999931E+02
 21
-3.17729599E+02
  0
LINE
  8
0
 62
7
 10
-2.89499992E+02
 20
-3.34500000E+02
 11
-2.89499992E+02
 21
-3.00999985E+02
  0
LINE
  8
0
 62
7
 10
-2.93500023E+02
 20
-3.33500015E+02
 11
-3.07100304E+02
 21
-3.33500015E+02
  0
LINE
  8
0
 62
7
 10
-2.92499992E+02
 20
-3.34500000E+02
 11
-2.92499992E+02
 21
-3.21499924E+02
  0
LINE
  8
0
 62
7
 10
-3.12221886E+02
 20
-3.21135595E+02
 11
-3.04860037E+02
 21
-3.13773749E+02
  0
LINE
  8
0
 62
7
 10
-3.13636099E+02
 20
-3.19721381E+02
 11
-3.06274283E+02
 21
-3.12359567E+02
  0
LINE
  8
0
 62
7
 10
-1.31999992E+02
 20
-3.34500000E+02
 11
-1.31999992E+02
 21
-3.18000015E+02
  0
LINE
  8
0
 62
7
 10
-1.13000008E+02
 20
-1.46500000E+02
 11
-1.13000008E+02
 21
-1.92500000E+02
  0
LINE
  8
0
 62
7
 10
-1.10999992E+02
 20
-1.94500015E+02
 11
-8.49999924E+01
 21
-1.94500015E+02
  0
LINE
  8
0
 62
7
 10
-1.10999992E+02
 20
-1.44500000E+02
 11
-9.59999707E+01
 21
-1.44500000E+02
  0
LINE
  8
0
 62
7
 10
-1.26999992E+02
 20
-1.52500000E+02
 11
-1.26999992E+02
 21
-1.86500015E+02
  0
LINE
  8
0
 62
7
 10
-1.19000008E+02
 20
-1.88000015E+02
 11
-1.19000008E+02
 21
-1.50999985E+02
  0
LINE
  8
0
 62
7
 10
-1.16508731E+02
 20
-1.32549999E+02
 11
-8.50000108E+01
 21
-1.32000012E+02
  0
LINE
  8
0
 62
7
 10
-8.49999924E+01
 20
-2.06999969E+02
 11
-8.49999924E+01
 21
-1.54437056E+02
  0
LINE
  8
0
 62
7
 10
-1.16999992E+02
 20
-2.05950089E+02
 11
-1.16999992E+02
 21
-1.33049927E+02
  0
LINE
  8
0
 62
7
 10
-1.26758735E+02
 20
-1.52241382E+02
 11
-1.19000052E+02
 21
-1.51970443E+02
  0
LINE
  8
0
 62
7
 10
-1.26999992E+02
 20
-1.52500000E+02
 11
-1.26999992E+02
 21
-1.52491455E+02
  0
LINE
  8
0
 62
7
 10
-1.31500008E+02
 20
-1.52500031E+02
 11
-1.26991447E+02
 21
-1.52500031E+02
  0
LINE
  8
0
 62
7
 10
-1.18499992E+02
 20
-1.50500000E+02
 11
-1.16999992E+02
 21
-1.50500000E+02
  0
LINE
  8
0
 62
7
 10
-1.31999992E+02
 20
-1.85999985E+02
 11
-1.31999992E+02
 21
-1.53000031E+02
  0
LINE
  8
0
 62
7
 10
-1.16508758E+02
 20
-2.06449929E+02
 11
-8.50000536E+01
 21
-2.06999915E+02
  0
LINE
  8
0
 62
7
 10
-1.26758764E+02
 20
-1.86758480E+02
 11
-1.19000066E+02
 21
-1.87029420E+02
  0
LINE
  8
0
 62
7
 10
-1.26999992E+02
 20
-1.86500015E+02
 11
-1.26999992E+02
 21
-1.86508560E+02
  0
LINE
  8
0
 62
7
 10
-1.31500008E+02
 20
-1.86500000E+02
 11
-1.26991447E+02
 21
-1.86500000E+02
  0
LINE
  8
0
 62
7
 10
-1.18499992E+02
 20
-1.88500015E+02
 11
-1.16999992E+02
 21
-1.88500015E+02
  0
LINE
  8
0
  6
CENTER
 62
2
 10
-9.90000687E+01
 20
-1.71500015E+02
 11
-9.90000687E+01
 21
-1.50953735E+02
  0
LINE
  8
0
  6
CENTER
 62
2
 10
-1.09364861E+02
 20
-1.61500000E+02
 11
-8.77606888E+01
 21
-1.61500000E+02
  0
LINE
  8
0
  6
CENTER
 62
2
 10
-3.26999992E+02
 20
-2.93032455E+02
 11
-3.26999992E+02
 21
-3.34500000E+02
  0
LINE
  8
0
  6
CENTER
 62
2
 10
-3.55000084E+02
 20
-3.17729599E+02
 11
-3.55000084E+02
 21
-2.94942017E+02
  0
LINE
  8
0
 62
7
 10
-3.64500084E+02
 20
-3.34500000E+02
 11
-3.64500084E+02
 21
-3.01000000E+02
  0
LINE
  8
0
 62
7
 10
-3.60499992E+02
 20
-3.33500031E+02
 11
-3.46899803E+02
 21
-3.33500031E+02
  0
LINE
  8
0
 62
7
 10
-3.26000023E+02
 20
-3.00999985E+02
 11
-3.26000023E+02
 21
-3.14600250E+02
  0
LINE
  8
0
 62
7
 10
-3.41778468E+02
 20
-3.21136039E+02
 11
-3.49140316E+02
 21
-3.13774192E+02
  0
LINE
  8
0
 62
7
 10
-3.61500084E+02
 20
-3.34500000E+02
 11
-3.61500084E+02
 21
-3.21499924E+02
  0
LINE
  8
0
 62
7
 10
-3.28000023E+02
 20
-3.01000000E+02
 11
-3.28000023E+02
 21
-3.14600250E+02
  0
LINE
  8
0
 62
7
 10
-3.64000084E+02
 20
-3.34500000E+02
 11
-3.64000084E+02
 21
-3.01000000E+02
  0
LINE
  8
0
 62
7
 10
-3.40364266E+02
 20
-3.19721880E+02
 11
-3.47726113E+02
 21
-3.12360033E+02
  0
LINE
  8
0
  6
CENTER
 62
2
 10
-1.77773201E+02
 20
-3.34500000E+02
 11
-3.71748370E+01
 21
-3.34500000E+02
  0
LINE
  8
0
  6
CENTER
 62
2
 10
-1.77033272E+02
 20
-1.69500000E+02
 11
-8.09999707E+01
 21
-1.69500000E+02
  0
LINE
  8
0
 62
2
 10
-5.96236484E+01
 20
-2.08382508E+02
 11
-1.51541077E+01
 21
-1.31359005E+02
  0
LINE
  8
0
  6
CENTER
 62
2
 10
-4.19999707E+01
 20
-1.69500000E+02
 11
-3.71748217E+01
 21
-1.69500000E+02
  0
LINE
  8
0
 62
7
 10
-8.49999924E+01
 20
-1.40437056E+02
 11
-8.49999924E+01
 21
-1.32000000E+02
  0
LINE
  8
0
 62
7
 10
2.78002395E+02
 20
-3.10100037E+02
 11
3.27500023E+02
 21
-3.10100037E+02
  0
LINE
  8
0
 62
7
 10
2.82159324E+02
 20
-3.02900024E+02
 11
3.27500023E+02
 21
-3.02900024E+02
  0
LINE
  8
0
 62
7
 10
2.83544961E+02
 20
-3.00500031E+02
 11
3.08218747E+02
 21
-3.00500031E+02
  0
LINE
  8
0
  6
CENTER
 62
2
 10
2.80080885E+02
 20
-3.06499985E+02
 11
3.27500023E+02
 21
-3.06499985E+02
  0
LINE
  8
0
  6
CENTER
 62
2
 10
4.43773216E+02
 20
-3.34500000E+02
 11
2.63915069E+02
 21
-3.34500000E+02
  0
LINE
  8
0
 62
7
 10
3.98000008E+02
 20
-3.34500000E+02
 11
3.98000008E+02
 21
-3.18000015E+02
  0
LINE
  8
0
 62
7
 10
3.85000023E+02
 20
-3.16000000E+02
 11
3.85000023E+02
 21
-3.34500000E+02
  0
LINE
  8
0
 62
7
 10
3.93000008E+02
 20
-3.34500000E+02
 11
3.93000008E+02
 21
-3.17499985E+02
  0
LINE
  8
0
 62
7
 10
3.83000008E+02
 20
-2.98049927E+02
 11
3.83000008E+02
 21
-3.34500000E+02
  0
LINE
  8
0
 62
7
 10
3.51000023E+02
 20
-2.97000000E+02
 11
3.51000023E+02
 21
-3.34500000E+02
  0
LINE
  8
0
 62
7
 10
3.84500008E+02
 20
-3.15500000E+02
 11
3.83000008E+02
 21
-3.15500000E+02
  0
LINE
  8
0
 62
7
 10
3.97500023E+02
 20
-3.17499985E+02
 11
3.92991463E+02
 21
-3.17499985E+02
  0
LINE
  8
0
 62
7
 10
3.93000008E+02
 20
-3.17499985E+02
 11
3.93000008E+02
 21
-3.17491440E+02
  0
LINE
  8
0
 62
7
 10
3.92758683E+02
 20
-3.17241519E+02
 11
3.84999969E+02
 21
-3.16970579E+02
  0
LINE
  8
0
 62
7
 10
3.82508756E+02
 20
-2.97550044E+02
 11
3.51000052E+02
 21
-2.97000058E+02
  0
LINE
  8
0
 62
7
 10
3.79000023E+02
 20
-2.97000000E+02
 11
3.51000023E+02
 21
-2.97000000E+02
  0
LINE
  8
0
 62
7
 10
3.79000023E+02
 20
-2.97488785E+02
 11
3.79000023E+02
 21
-2.97000000E+02
  0
LINE
  8
0
  6
CENTER
 62
2
 10
3.65000084E+02
 20
-2.94814941E+02
 11
3.65000084E+02
 21
-3.06700226E+02
  0
LINE
  8
0
 62
7
 10
4.07999977E+02
 20
-3.25500000E+02
 11
4.07999977E+02
 21
-3.34500000E+02
  0
LINE
  8
0
 62
7
 10
4.06626183E+02
 20
-3.25000000E+02
 11
3.98000008E+02
 21
-3.25000000E+02
  0
LINE
  8
0
 62
7
 10
4.10999977E+02
 20
-3.34500000E+02
 11
4.10999977E+02
 21
-3.25500000E+02
  0
LINE
  8
0
 62
7
 10
4.39999992E+02
 20
-3.34500000E+02
 11
4.39999992E+02
 21
-3.27000153E+02
  0
LINE
  8
0
 62
7
 10
4.38499992E+02
 20
-3.34500000E+02
 11
4.38499992E+02
 21
-3.25500000E+02
  0
LINE
  8
0
 62
7
 10
4.02642326E+02
 20
-3.34500000E+02
 11
3.98000008E+02
 21
-3.34500000E+02
  0
LINE
  8
0
 62
7
 10
4.38499931E+02
 20
-3.25500000E+02
 11
4.30061714E+02
 21
-3.25500000E+02
  0
LINE
  8
0
 62
2
 10
4.39319939E+02
 20
-3.26320007E+02
 11
4.30061714E+02
 21
-3.26320007E+02
  0
LINE
  8
0
 62
7
 10
4.39999914E+02
 20
-3.27000138E+02
 11
4.38499868E+02
 21
-3.25500138E+02
  0
LINE
  8
0
 62
7
 10
4.07999950E+02
 20
-3.25500034E+02
 11
4.06626128E+02
 21
-3.25000004E+02
  0
LINE
  8
0
 62
7
 10
4.10999977E+02
 20
-3.26320007E+02
 11
4.07999977E+02
 21
-3.26320007E+02
  0
ARC
  8
0
 62
7
 10
3.84500008E+02
 20
-3.16000000E+02
 40
5.00000000E-01
 50
3.59721787E-05
 51
9.00000179E+01
  0
ARC
  8
0
 62
7
 10
3.97500023E+02
 20
-3.18000015E+02
 40
5.00000000E-01
 50
3.59721787E-05
 51
9.00000179E+01
  0
ARC
  8
0
 62
7
 10
3.82500023E+02
 20
-2.98049927E+02
 40
5.00000000E-01
 50
3.59999981E+02
 51
8.89997230E+01
  0
ARC
  8
0
 62
7
 10
3.92750023E+02
 20
-3.17491440E+02
 40
2.50000000E-01
 50
2.23118003E-05
 51
8.80011768E+01
  0
POLYLINE
  8
0
 62
7
 66
1
  0
VERTEX
  8
0
 62
7
 10
4.02642326E+02
 20
-3.34500000E+02
  0
VERTEX
  8
0
 62
7
 10
4.02999436E+02
 20
-3.34480878E+02
  0
VERTEX
  8
0
 62
7
 10
4.03353671E+02
 20
-3.34423666E+02
  0
VERTEX
  8
0
 62
7
 10
4.03702179E+02
 20
-3.34328824E+02
  0
VERTEX
  8
0
 62
7
 10
4.04042153E+02
 20
-3.34197116E+02
  0
VERTEX
  8
0
 62
7
 10
4.04370856E+02
 20
-3.34029602E+02
  0
VERTEX
  8
0
 62
7
 10
4.04685643E+02
 20
-3.33827632E+02
  0
VERTEX
  8
0
 62
7
 10
4.04983978E+02
 20
-3.33592831E+02
  0
VERTEX
  8
0
 62
7
 10
4.05263459E+02
 20
-3.33327089E+02
  0
VERTEX
  8
0
 62
7
 10
4.05521837E+02
 20
-3.33032548E+02
  0
VERTEX
  8
0
 62
7
 10
4.05757030E+02
 20
-3.32711577E+02
  0
VERTEX
  8
0
 62
7
 10
4.05967146E+02
 20
-3.32366761E+02
  0
VERTEX
  8
0
 62
7
 10
4.06150492E+02
 20
-3.32000876E+02
  0
VERTEX
  8
0
 62
7
 10
4.06305592E+02
 20
-3.31616869E+02
  0
VERTEX
  8
0
 62
7
 10
4.06431198E+02
 20
-3.31217831E+02
  0
VERTEX
  8
0
 62
7
 10
4.06526299E+02
 20
-3.30806974E+02
  0
VERTEX
  8
0
 62
7
 10
4.06590127E+02
 20
-3.30387608E+02
  0
VERTEX
  8
0
 62
7
 10
4.06622171E+02
 20
-3.29963108E+02
  0
VERTEX
  8
0
 62
7
 10
4.06622171E+02
 20
-3.29536892E+02
  0
VERTEX
  8
0
 62
7
 10
4.06590127E+02
 20
-3.29112392E+02
  0
VERTEX
  8
0
 62
7
 10
4.06526299E+02
 20
-3.28693026E+02
  0
VERTEX
  8
0
 62
7
 10
4.06431198E+02
 20
-3.28282169E+02
  0
VERTEX
  8
0
 62
7
 10
4.06305592E+02
 20
-3.27883131E+02
  0
VERTEX
  8
0
 62
7
 10
4.06150492E+02
 20
-3.27499124E+02
  0
VERTEX
  8
0
 62
7
 10
4.05967146E+02
 20
-3.27133239E+02
  0
VERTEX
  8
0
 62
7
 10
4.05757030E+02
 20
-3.26788423E+02
  0
VERTEX
  8
0
 62
7
 10
4.05521837E+02
 20
-3.26467452E+02
  0
VERTEX
  8
0
 62
7
 10
4.05263459E+02
 20
-3.26172911E+02
  0
VERTEX
  8
0
 62
7
 10
4.04983978E+02
 20
-3.25907169E+02
  0
VERTEX
  8
0
 62
7
 10
4.04685643E+02
 20
-3.25672368E+02
  0
VERTEX
  8
0
 62
7
 10
4.04370856E+02
 20
-3.25470398E+02
  0
VERTEX
  8
0
 62
7
 10
4.04042153E+02
 20
-3.25302884E+02
  0
VERTEX
  8
0
 62
7
 10
4.03702179E+02
 20
-3.25171176E+02
  0
VERTEX
  8
0
 62
7
 10
4.03353671E+02
 20
-3.25076334E+02
  0
VERTEX
  8
0
 62
7
 10
4.02999436E+02
 20
-3.25019122E+02
  0
VERTEX
  8
0
 62
7
 10
4.02642326E+02
 20
-3.25000000E+02
  0
SEQEND
  8
0
  0
LINE
  8
0
 62
7
 10
4.19061714E+02
 20
-3.25500000E+02
 11
4.10999977E+02
 21
-3.25500000E+02
  0
LINE
  8
0
 62
2
 10
4.19061714E+02
 20
-3.26320007E+02
 11
4.10999977E+02
 21
-3.26320007E+02
  0
LINE
  8
0
 62
4
 10
4.19061714E+02
 20
-3.34500000E+02
 11
4.19061714E+02
 21
-3.21000000E+02
  0
LINE
  8
0
 62
4
 10
4.30061714E+02
 20
-3.34500000E+02
 11
4.30061714E+02
 21
-3.21000000E+02
  0
ARC
  8
0
 62
4
 10
4.04267486E+02
 20
-3.34500000E+02
 40
2.57942282E+01
 50
2.54444375E-13
 51
1.75879541E+01
  0
ARC
  8
0
 62
4
 10
4.44855942E+02
 20
-3.34500000E+02
 40
2.57942282E+01
 50
1.62412046E+02
 51
1.80000000E+02
  0
ARC
  8
0
 62
4
 10
4.25962435E+02
 20
-3.22808657E+02
 40
6.90072132E+00
 50
1.45615752E+02
 51
2.14384248E+02
  0
ARC
  8
0
 62
4
 10
4.23160992E+02
 20
-3.22808657E+02
 40
6.90072132E+00
 50
3.25615752E+02
 51
3.43842480E+01
  0
LINE
  8
0
 62
4
 10
4.20267485E+02
 20
-3.18911543E+02
 11
4.19061714E+02
 21
-3.21000000E+02
  0
LINE
  8
0
 62
4
 10
4.28855942E+02
 20
-3.18911543E+02
 11
4.30061714E+02
 21
-3.21000000E+02
  0
LINE
  8
0
 62
4
 10
4.28855942E+02
 20
-3.26705771E+02
 11
4.20267485E+02
 21
-3.26705771E+02
  0
LINE
  8
0
 62
4
 10
4.28855942E+02
 20
-3.18911543E+02
 11
4.20267485E+02
 21
-3.18911543E+02
  0
LINE
  8
0
 62
2
 10
2.58496931E+02
 20
-3.43884491E+02
 11
2.86108165E+02
 21
-2.96060430E+02
  0
LINE
  8
0
 62
7
 10
3.46781299E+02
 20
-3.00500031E+02
 11
3.51000023E+02
 21
-3.00500031E+02
  0
LINE
  8
0
 62
7
 10
3.42500023E+02
 20
-3.02900024E+02
 11
3.51000023E+02
 21
-3.02900024E+02
  0
LINE
  8
0
 62
7
 10
3.42500023E+02
 20
-3.10100037E+02
 11
3.51000023E+02
 21
-3.10100037E+02
  0
LINE
  8
0
  6
CENTER
 62
2
 10
3.42500023E+02
 20
-3.06499985E+02
 11
3.86248116E+02
 21
-3.06499985E+02
  0
TEXT
  8
0
 10
-9.12146873E+01
 20
3.54316712E+02
 40
9.00000000E+00
  1
STRETCH LINE A
 41
1.09375000E+00
  7
MONOTXT
  0
LINE
  8
0
 62
7
 10
5.69500000E+02
 20
4.00500000E+02
 11
5.69500000E+02
 21
-4.00500000E+02
  0
LINE
  8
0
 62
7
 10
-5.69500000E+02
 20
4.00500000E+02
 11
5.69500000E+02
 21
4.00500000E+02
  0
LINE
  8
0
 62
7
 10
-5.69500000E+02
 20
-4.00500000E+02
 11
5.69500000E+02
 21
-4.00500000E+02
  0
LINE
  8
0
 62
7
 10
-5.69500000E+02
 20
4.00500000E+02
 11
-5.69500000E+02
 21
-4.00500000E+02
  0
LINE
  8
0
 62
7
 10
-5.69500000E+02
 20
3.70500000E+02
 11
-3.39500000E+02
 21
3.70500000E+02
  0
LINE
  8
0
 62
7
 10
3.39500000E+02
 20
3.70500000E+02
 11
5.69500000E+02
 21
3.70500000E+02
  0
LINE
  8
0
 62
7
 10
3.39500000E+02
 20
-3.70500000E+02
 11
5.69500000E+02
 21
-3.70500000E+02
  0
LINE
  8
0
 62
7
 10
3.39500000E+02
 20
-3.70500000E+02
 11
3.39500000E+02
 21
-4.00500000E+02
  0
LINE
  8
0
 62
7
 10
3.39500000E+02
 20
4.00500000E+02
 11
3.39500000E+02
 21
3.70500000E+02
  0
LINE
  8
0
 62
7
 10
-3.39500000E+02
 20
4.00500000E+02
 11
-3.39500000E+02
 21
3.70500000E+02
  0
TEXT
  8
0
 62
7
 10
-5.42179687E+02
 20
3.34250000E+02
 40
1.25000000E+01
  1
MODEL:DDADL63*75
 41
1.00000015E+00
  7
MONOTXT
  0
TEXT
  8
0
 62
7
 10
4.06285149E+02
 20
3.79250000E+02
 40
1.25000000E+01
  1
Ver. 1.0
 41
1.08108125E+00
  7
MONOTXT
  0
TEXT
  8
0
 62
7
 10
3.45070624E+02
 20
-3.94500000E+02
 40
1.80000000E+01
  1
KOGANEI CORP.
 41
1.04838710E+00
  7
MONOTXT
  0
TEXT
  8
0
 62
7
 10
-5.58964859E+02
 20
3.79250000E+02
 40
1.25000000E+01
  1
NEW DYNA CYLINDER
 41
1.07594953E+00
  7
MONOTXT
  0
ENDSEC
  0
EOF
