  0
SECTION
  2
HEADER
  9
$ACADVER
  1
AC1003
  9
$EXTMIN
 10
-5.64500000E+02
 20
-4.00500000E+02
  9
$EXTMAX
 10
5.74500000E+02
 20
4.00500000E+02
  9
$LIMMIN
 10
-5.64501000E+02
 20
-4.00501000E+02
  9
$LIMMAX
 10
5.74501000E+02
 20
4.00501000E+02
  9
$SNAPUNIT
 10
1
 20
1
  9
$SNAPBASE
 10
0
 20
0
  9
$GRIDMODE
 70
0
  9
$GRIDUNIT
 10
0
 20
0
  9
$LTSCALE
 40
1.89833333E+01
  9
$TEXTSIZE
 40
3.2
  9
$DIMTAD
 70
0
  9
$LUNITS
 70
2
  9
$LUPREC
 70
4
  9
$FILLETRAD
 40
0
  9
$AUNITS
 70
0
  9
$AUPREC
 70
0
  0
ENDSEC
  0
SECTION
  2
TABLES
  0
TABLE
  2
LTYPE
 70
2
  0
LTYPE
  2
CONTINUOUS
 70
64
  3
Solid-Line
 72
65
 73
0
 40
0
  0
LTYPE
  2
DASHED
 70
64
  3
DASHED
 72
65
 73
2
 40
.75
 49
.5
 49
-.25
  0
LTYPE
  2
HIDDEN
 70
64
  3
HIDDEN
 72
65
 73
2
 40
.375
 49
.25
 49
-.125
  0
LTYPE
  2
CENTER
 70
64
  3
CENTER
 72
65
 73
4
 40
2
 49
1.25
 49
-.25
 49
.25
 49
-.25
  0
LTYPE
  2
PHANTOM
 70
64
  3
PHANTOM
 72
65
 73
6
 40
2.5
 49
1.25
 49
-.25
 49
.25
 49
-.25
 49
.25
 49
-.25
  0
ENDTAB
  0
TABLE
  2
LAYER
 70
1
  0
LAYER
  2
1
 70
0
 62
7
  6
CONTINUOUS
 0
ENDTAB
  0
TABLE
  2
STYLE
 70
2
  0
STYLE
  2
MONOTXT
 70
0
 40
0
 41
1
 50
0
 71
0
 42
.2
  3
monotxt
  0
STYLE
  2
BIGFONT
 70
0
 40
0
 41
1
 50
0
 71
0
 42
.2
  3
txt
  4
bigfont
  0
ENDTAB
  0
ENDSEC
  0
SECTION
  2
ENTITIES
  0
LINE
  8
0
  6
PHANTOM
 10
-2.45000000E+01
 20
2.81313474E+01
 11
-2.45000000E+01
 21
1.94632131E+02
  0
LINE
  8
0
  6
CENTER
 62
2
 10
-2.02243345E+02
 20
1.00500000E+02
 11
1.80470049E+02
 21
1.00500000E+02
  0
LINE
  8
0
 62
7
 10
-1.20499968E+02
 20
7.55000000E+01
 11
-1.18999983E+02
 21
7.55000000E+01
  0
LINE
  8
0
 62
7
 10
-1.14999983E+02
 20
4.45000038E+01
 11
-8.29999676E+01
 21
4.45000038E+01
  0
LINE
  8
0
 62
7
 10
-1.14999983E+02
 20
4.50585651E+01
 11
-1.14999983E+02
 21
4.45000038E+01
  0
LINE
  8
0
 62
7
 10
-1.18508658E+02
 20
4.51198446E+01
 11
-8.29999977E+01
 21
4.45000387E+01
  0
LINE
  8
0
 62
7
 10
-1.34517471E+02
 20
7.64720484E+01
 11
-1.21000030E+02
 21
7.60000089E+01
  0
LINE
  8
0
 62
7
 10
-1.39499968E+02
 20
7.74999847E+01
 11
-1.34999998E+02
 21
7.74999847E+01
  0
LINE
  8
0
  6
CENTER
 62
2
 10
-9.79999371E+01
 20
1.19981125E+02
 11
-9.79999371E+01
 21
1.58952621E+02
  0
LINE
  8
0
 62
7
 10
1.05000006E+02
 20
9.04999847E+01
 11
1.64000017E+02
 21
9.04999847E+01
  0
LINE
  8
0
 62
7
 10
6.00000172E+01
 20
4.45000038E+01
 11
2.80000095E+01
 21
4.45000038E+01
  0
LINE
  8
0
 62
7
 10
6.00000019E+01
 20
4.50585651E+01
 11
6.00000019E+01
 21
4.45000038E+01
  0
LINE
  8
0
 62
7
 10
6.35087446E+01
 20
4.51198509E+01
 11
2.80000234E+01
 21
4.45000439E+01
  0
LINE
  8
0
  6
CENTER
 62
2
 10
4.29999866E+01
 20
1.15607132E+02
 11
4.29999866E+01
 21
1.58952621E+02
  0
LINE
  8
0
 62
7
 10
-8.29999981E+01
 20
4.69999790E+01
 11
2.80000248E+01
 21
4.69999790E+01
  0
LINE
  8
0
 62
2
 10
1.05000006E+02
 20
9.13199921E+01
 11
1.64820024E+02
 21
9.13199921E+01
  0
LINE
  8
0
  6
CENTER
 62
2
 10
9.18764400E+01
 20
1.42500008E+02
 11
-1.21524473E+02
 21
1.42500008E+02
  0
LINE
  8
0
 62
7
 10
1.63999956E+02
 20
1.10499938E+02
 11
1.64999973E+02
 21
1.09499921E+02
  0
LINE
  8
0
 62
7
 10
8.60000019E+01
 20
8.22499695E+01
 11
8.90000172E+01
 21
8.22499695E+01
  0
LINE
  8
0
 62
7
 10
8.90000172E+01
 20
8.31999817E+01
 11
1.03383436E+02
 21
8.31999817E+01
  0
LINE
  8
0
 62
7
 10
1.03383410E+02
 20
8.32000376E+01
 11
1.04999989E+02
 21
8.60000348E+01
  0
LINE
  8
0
 62
7
 10
1.67000021E+02
 20
1.07499985E+02
 11
1.77000025E+02
 21
1.07499985E+02
  0
LINE
  8
0
 62
7
 10
1.65000021E+02
 20
1.09000000E+02
 11
1.67000021E+02
 21
1.09000000E+02
  0
LINE
  8
0
 62
7
 10
1.65000021E+02
 20
9.19999771E+01
 11
1.67000021E+02
 21
9.19999771E+01
  0
LINE
  8
0
 62
7
 10
1.64000026E+02
 20
9.04999870E+01
 11
1.65000011E+02
 21
9.14999719E+01
  0
LINE
  8
0
 62
7
 10
1.63999990E+02
 20
1.10499962E+02
 11
1.63999990E+02
 21
9.04999619E+01
  0
LINE
  8
0
 62
7
 10
1.67000021E+02
 20
9.34999924E+01
 11
1.77000025E+02
 21
9.34999924E+01
  0
LINE
  8
0
 62
7
 10
1.67000021E+02
 20
9.34999542E+01
 11
1.67000021E+02
 21
9.19999390E+01
  0
LINE
  8
0
 62
7
 10
1.67000021E+02
 20
1.05321793E+02
 11
1.67000021E+02
 21
9.56781311E+01
  0
LINE
  8
0
 62
7
 10
1.67000021E+02
 20
9.56781616E+01
 11
1.77000025E+02
 21
9.56781616E+01
  0
LINE
  8
0
 62
7
 10
1.67000021E+02
 20
1.08999969E+02
 11
1.67000021E+02
 21
1.07499954E+02
  0
LINE
  8
0
 62
7
 10
1.67000021E+02
 20
1.05321815E+02
 11
1.77000025E+02
 21
1.05321815E+02
  0
LINE
  8
0
 62
2
 10
1.67000040E+02
 20
9.56781672E+01
 11
1.77000040E+02
 21
1.05321823E+02
  0
LINE
  8
0
 62
2
 10
1.66999971E+02
 20
1.05321816E+02
 11
1.76999966E+02
 21
9.56781645E+01
  0
LINE
  8
0
 62
7
 10
1.65000029E+02
 20
1.09499954E+02
 11
1.65000029E+02
 21
9.14999466E+01
  0
LINE
  8
0
 62
7
 10
1.77000025E+02
 20
1.07499954E+02
 11
1.77000025E+02
 21
9.34999542E+01
  0
LINE
  8
0
 62
7
 10
8.90000172E+01
 20
9.18499832E+01
 11
1.03383436E+02
 21
9.18499832E+01
  0
LINE
  8
0
 62
7
 10
6.40000172E+01
 20
4.34999943E+01
 11
8.60000172E+01
 21
4.34999943E+01
  0
LINE
  8
0
 62
7
 10
1.05000006E+02
 20
1.10500015E+02
 11
1.64000017E+02
 21
1.10500015E+02
  0
LINE
  8
0
 62
7
 10
-1.20999968E+02
 20
7.60000076E+01
 11
-1.20999968E+02
 21
1.24999992E+02
  0
LINE
  8
0
 62
7
 10
-1.39499968E+02
 20
1.23500015E+02
 11
-1.34999998E+02
 21
1.23500015E+02
  0
LINE
  8
0
 62
7
 10
-1.39999998E+02
 20
7.80000000E+01
 11
-1.39999998E+02
 21
1.23000000E+02
  0
LINE
  8
0
 62
7
 10
-1.34517458E+02
 20
1.24527951E+02
 11
-1.21000032E+02
 21
1.24999990E+02
  0
LINE
  8
0
 62
7
 10
-1.18508662E+02
 20
1.55880165E+02
 11
-8.30000013E+01
 21
1.56499971E+02
  0
LINE
  8
0
 62
7
 10
-1.14999983E+02
 20
1.55941437E+02
 11
-1.14999983E+02
 21
1.56500000E+02
  0
LINE
  8
0
 62
7
 10
-1.14999983E+02
 20
1.56500000E+02
 11
-8.29999676E+01
 21
1.56500000E+02
  0
LINE
  8
0
 62
7
 10
-1.20499968E+02
 20
1.25500000E+02
 11
-1.18999983E+02
 21
1.25500000E+02
  0
LINE
  8
0
 62
7
 10
2.80000248E+01
 20
4.45000439E+01
 11
2.80000248E+01
 21
1.56499954E+02
  0
LINE
  8
0
 62
7
 10
6.40000172E+01
 20
4.34999943E+01
 11
6.40000172E+01
 21
1.57500000E+02
  0
LINE
  8
0
 62
7
 10
-8.29999981E+01
 20
4.45000381E+01
 11
-8.29999981E+01
 21
1.56499954E+02
  0
LINE
  8
0
 62
7
 10
-1.18999983E+02
 20
4.56197205E+01
 11
-1.18999983E+02
 21
1.55380280E+02
  0
LINE
  8
0
 62
7
 10
6.00000172E+01
 20
1.56500000E+02
 11
2.80000095E+01
 21
1.56500000E+02
  0
LINE
  8
0
 62
7
 10
6.00000019E+01
 20
1.55941437E+02
 11
6.00000019E+01
 21
1.56500000E+02
  0
LINE
  8
0
 62
7
 10
6.35087480E+01
 20
1.55880151E+02
 11
2.80000192E+01
 21
1.56499958E+02
  0
LINE
  8
0
 62
7
 10
-8.29999981E+01
 20
1.54000015E+02
 11
-9.99997902E+00
 21
1.54000015E+02
  0
LINE
  8
0
 62
2
 10
1.05000006E+02
 20
1.09680008E+02
 11
1.64820024E+02
 21
1.09680008E+02
  0
LINE
  8
0
 62
7
 10
8.60000019E+01
 20
1.18750031E+02
 11
8.90000172E+01
 21
1.18750031E+02
  0
LINE
  8
0
 62
7
 10
8.90000172E+01
 20
1.17800018E+02
 11
1.03383436E+02
 21
1.17800018E+02
  0
LINE
  8
0
 62
7
 10
1.03383410E+02
 20
1.17799968E+02
 11
1.04999988E+02
 21
1.14999974E+02
  0
LINE
  8
0
 62
7
 10
1.05000017E+02
 20
8.59999390E+01
 11
1.05000017E+02
 21
1.15000061E+02
  0
LINE
  8
0
 62
7
 10
8.60000172E+01
 20
4.34999943E+01
 11
8.60000172E+01
 21
1.57500000E+02
  0
LINE
  8
0
 62
7
 10
8.90000172E+01
 20
1.09150017E+02
 11
1.03383436E+02
 21
1.09150017E+02
  0
LINE
  8
0
 62
7
 10
8.90000172E+01
 20
8.22499390E+01
 11
8.90000172E+01
 21
1.18750061E+02
  0
LINE
  8
0
 62
7
 10
6.40000172E+01
 20
1.57500000E+02
 11
8.60000172E+01
 21
1.57500000E+02
  0
LINE
  8
0
  6
CENTER
 62
2
 10
9.18764400E+01
 20
5.84999924E+01
 11
-1.21524473E+02
 21
5.84999924E+01
  0
LINE
  8
0
 62
7
 10
-1.53999998E+02
 20
8.74999847E+01
 11
-1.53999998E+02
 21
1.13499992E+02
  0
LINE
  8
0
 62
7
 10
-1.49999968E+02
 20
8.54999619E+01
 11
-1.39999998E+02
 21
8.54999619E+01
  0
LINE
  8
0
 62
7
 10
-1.94000029E+02
 20
8.89999237E+01
 11
-1.94000029E+02
 21
1.11999695E+02
  0
LINE
  8
0
 62
7
 10
-1.56999998E+02
 20
8.74999847E+01
 11
-1.56999998E+02
 21
1.13499992E+02
  0
LINE
  8
0
 62
7
 10
-1.92500059E+02
 20
1.13499992E+02
 11
-1.82499983E+02
 21
1.13499992E+02
  0
LINE
  8
0
 62
7
 10
-1.92499998E+02
 20
8.74999847E+01
 11
-1.92499998E+02
 21
1.13499992E+02
  0
LINE
  8
0
 62
7
 10
-1.93999872E+02
 20
1.11999813E+02
 11
-1.92499859E+02
 21
1.13499825E+02
  0
LINE
  8
0
 62
2
 10
-1.93320066E+02
 20
1.12679985E+02
 11
-1.82499983E+02
 21
1.12679985E+02
  0
LINE
  8
0
 62
7
 10
-1.92500059E+02
 20
8.74999847E+01
 11
-1.82499983E+02
 21
8.74999847E+01
  0
LINE
  8
0
 62
7
 10
-1.94000055E+02
 20
8.89999719E+01
 11
-1.92500064E+02
 21
8.74999811E+01
  0
LINE
  8
0
 62
2
 10
-1.93320066E+02
 20
8.83199921E+01
 11
-1.82499983E+02
 21
8.83199921E+01
  0
LINE
  8
0
 62
7
 10
-1.49999968E+02
 20
1.15500038E+02
 11
-1.39999998E+02
 21
1.15500038E+02
  0
LINE
  8
0
 62
7
 10
-1.49999968E+02
 20
9.30166550E+01
 11
-1.49999968E+02
 21
8.54999619E+01
  0
LINE
  8
0
 62
7
 10
-1.49999968E+02
 20
1.07983376E+02
 11
-1.49999968E+02
 21
1.15500038E+02
  0
LINE
  8
0
 62
7
 10
-1.53999992E+02
 20
8.74999826E+01
 11
-1.49999969E+02
 21
8.54999582E+01
  0
LINE
  8
0
 62
7
 10
-1.53999974E+02
 20
1.13499977E+02
 11
-1.49999960E+02
 21
1.15500022E+02
  0
LINE
  8
0
 62
7
 10
-1.43999998E+02
 20
9.30166550E+01
 11
-1.43999998E+02
 21
1.07983376E+02
  0
LINE
  8
0
 62
7
 10
-1.49999968E+02
 20
9.30166550E+01
 11
-1.43999998E+02
 21
9.30166550E+01
  0
LINE
  8
0
 62
7
 10
-1.49999968E+02
 20
1.07983376E+02
 11
-1.43999998E+02
 21
1.07983376E+02
  0
LINE
  8
0
 62
7
 10
-1.49999999E+02
 20
9.30166642E+01
 11
-1.54000005E+02
 21
1.00500003E+02
  0
LINE
  8
0
 62
7
 10
-1.53999968E+02
 20
1.00499993E+02
 11
-1.49999952E+02
 21
1.07983362E+02
  0
LINE
  8
0
 62
2
 10
-1.44000000E+02
 20
1.07983370E+02
 11
-1.51777773E+02
 21
9.63425915E+01
  0
LINE
  8
0
 62
2
 10
-1.43999969E+02
 20
9.30166407E+01
 11
-1.51777756E+02
 21
1.04657439E+02
  0
LINE
  8
0
 62
7
 10
-1.56999998E+02
 20
1.12679985E+02
 11
-1.53999998E+02
 21
1.12679985E+02
  0
LINE
  8
0
 62
7
 10
-1.56999998E+02
 20
8.83199921E+01
 11
-1.53999998E+02
 21
8.83199921E+01
  0
ARC
  8
0
 62
7
 10
-1.20499968E+02
 20
7.59999924E+01
 40
5.00000000E-01
 50
1.79999977E+02
 51
2.69999974E+02
  0
ARC
  8
0
 62
7
 10
-1.18499968E+02
 20
4.56197205E+01
 40
5.00000000E-01
 50
1.79999977E+02
 51
2.68999679E+02
  0
ARC
  8
0
 62
7
 10
-1.34499968E+02
 20
7.69717255E+01
 40
5.00000000E-01
 50
1.79999977E+02
 51
2.67999192E+02
  0
ARC
  8
0
 62
7
 10
-1.39499968E+02
 20
7.80000000E+01
 40
5.00000000E-01
 50
1.79999977E+02
 51
2.69999974E+02
  0
ARC
  8
0
 62
7
 10
6.35000172E+01
 20
4.56197453E+01
 40
5.00000000E-01
 50
2.71000347E+02
 51
0.00000000E+00
  0
ARC
  8
0
 62
7
 10
8.10494938E+01
 20
1.00499985E+02
 40
2.39505558E+01
 50
3.38828555E+02
 51
0.00000000E+00
  0
ARC
  8
0
 62
7
 10
9.87792377E+01
 20
8.76667862E+01
 40
6.22076416E+00
 50
3.30000061E+02
 51
4.22569871E+01
  0
ARC
  8
0
 62
7
 10
-1.39499968E+02
 20
1.23000000E+02
 40
5.00000000E-01
 50
9.00000300E+01
 51
1.80000019E+02
  0
ARC
  8
0
 62
7
 10
-1.34499968E+02
 20
1.24028275E+02
 40
5.00000000E-01
 50
9.20008106E+01
 51
1.80000019E+02
  0
ARC
  8
0
 62
7
 10
-1.18499968E+02
 20
1.55380280E+02
 40
5.00000000E-01
 50
9.10003249E+01
 51
1.80000019E+02
  0
ARC
  8
0
 62
7
 10
-1.20499968E+02
 20
1.25000008E+02
 40
5.00000000E-01
 50
9.00000300E+01
 51
1.80000019E+02
  0
ARC
  8
0
 62
7
 10
6.35000172E+01
 20
1.55380249E+02
 40
5.00000000E-01
 50
0.00000000E+00
 51
8.89996531E+01
  0
ARC
  8
0
 62
7
 10
8.10494938E+01
 20
1.00500015E+02
 40
2.39505558E+01
 50
0.00000000E+00
 51
2.11714451E+01
  0
ARC
  8
0
 62
7
 10
9.87792377E+01
 20
1.13333214E+02
 40
6.22076416E+00
 50
3.17743013E+02
 51
2.99999393E+01
  0
ARC
  8
0
 62
7
 10
-1.56999998E+02
 20
1.00500015E+02
 40
1.50000248E+01
 50
3.30073440E+02
 51
2.99266002E+01
  0
ARC
  8
0
 62
4
 10
-1.73299028E+02
 20
1.16088455E+02
 40
9.20095253E+00
 50
1.45615726E+02
 51
2.14384256E+02
  0
ARC
  8
0
 62
4
 10
-1.48107718E+02
 20
1.00500000E+02
 40
3.43922653E+01
 50
1.62412050E+02
 51
1.97587933E+02
  0
ARC
  8
0
 62
4
 10
-1.73299028E+02
 20
8.49115448E+01
 40
9.20095253E+00
 50
1.45615726E+02
 51
2.14384256E+02
  0
ARC
  8
0
 62
4
 10
-1.77700937E+02
 20
1.16088455E+02
 40
9.20095253E+00
 50
3.25615707E+02
 51
3.43842378E+01
  0
ARC
  8
0
 62
4
 10
-2.02892248E+02
 20
1.00500000E+02
 40
3.43922653E+01
 50
3.42412030E+02
 51
1.75879147E+01
  0
ARC
  8
0
 62
4
 10
-1.77700937E+02
 20
8.49115448E+01
 40
9.20095253E+00
 50
3.25615707E+02
 51
3.43842378E+01
  0
LINE
  8
0
 62
4
 10
-1.68500014E+02
 20
8.24999970E+01
 11
-1.70107706E+02
 21
7.97154066E+01
  0
LINE
  8
0
 62
4
 10
-1.68499983E+02
 20
1.18500000E+02
 11
-1.68499983E+02
 21
8.25000000E+01
  0
LINE
  8
0
 62
4
 10
-1.68499982E+02
 20
1.18500012E+02
 11
-1.70107663E+02
 21
1.21284634E+02
  0
LINE
  8
0
 62
4
 10
-1.82500005E+02
 20
8.25000896E+01
 11
-1.80892301E+02
 21
7.97154821E+01
  0
LINE
  8
0
 62
4
 10
-1.82499992E+02
 20
1.18499999E+02
 11
-1.80892313E+02
 21
1.21284608E+02
  0
LINE
  8
0
 62
4
 10
-1.80892286E+02
 20
1.21284607E+02
 11
-1.70107679E+02
 21
1.21284607E+02
  0
LINE
  8
0
 62
4
 10
-1.80892286E+02
 20
1.10892303E+02
 11
-1.70107679E+02
 21
1.10892303E+02
  0
LINE
  8
0
 62
4
 10
-1.80892286E+02
 20
9.01076965E+01
 11
-1.70107679E+02
 21
9.01076965E+01
  0
LINE
  8
0
 62
4
 10
-1.80892286E+02
 20
7.97153931E+01
 11
-1.70107679E+02
 21
7.97153931E+01
  0
LINE
  8
0
 62
4
 10
-1.82499983E+02
 20
1.18500000E+02
 11
-1.82499983E+02
 21
8.25000000E+01
  0
LINE
  8
0
 62
7
 10
-1.68499983E+02
 20
1.13499992E+02
 11
-1.56999998E+02
 21
1.13499992E+02
  0
LINE
  8
0
 62
2
 10
-1.68499983E+02
 20
1.12679985E+02
 11
-1.56999998E+02
 21
1.12679985E+02
  0
LINE
  8
0
 62
7
 10
-1.68499983E+02
 20
8.74999847E+01
 11
-1.56999998E+02
 21
8.74999847E+01
  0
LINE
  8
0
 62
2
 10
-1.68499983E+02
 20
8.83199921E+01
 11
-1.56999998E+02
 21
8.83199921E+01
  0
LINE
  8
0
 62
7
 10
-1.34999998E+02
 20
7.69367447E+01
 11
-1.34999998E+02
 21
1.24063255E+02
  0
LINE
  8
0
 62
4
 10
-9.99997900E+00
 20
1.52920424E+02
 11
-1.91339536E+01
 21
1.52920424E+02
  0
LINE
  8
0
 62
4
 10
-9.99997900E+00
 20
1.49920424E+02
 11
-2.08660044E+01
 21
1.49920424E+02
  0
LINE
  8
0
 62
6
 10
-1.82679282E+01
 20
1.54420424E+02
 11
-2.17320298E+01
 21
1.48420424E+02
  0
LINE
  8
0
  6
CENTER
 62
6
 10
-2.45000000E+01
 20
1.51420424E+02
 11
2.50000210E+01
 21
1.51420424E+02
  0
POLYLINE
  8
0
 62
4
 66
1
  0
VERTEX
  8
0
 62
4
 10
-5.24777176E+01
 20
1.54000020E+02
  0
VERTEX
  8
0
 62
4
 10
-5.21450090E+01
 20
1.54135035E+02
  0
VERTEX
  8
0
 62
4
 10
-5.18265942E+01
 20
1.54296079E+02
  0
VERTEX
  8
0
 62
4
 10
-5.15249269E+01
 20
1.54481914E+02
  0
VERTEX
  8
0
 62
4
 10
-5.12423315E+01
 20
1.54691105E+02
  0
VERTEX
  8
0
 62
4
 10
-5.09809856E+01
 20
1.54922042E+02
  0
VERTEX
  8
0
 62
4
 10
-5.07429030E+01
 20
1.55172945E+02
  0
VERTEX
  8
0
 62
4
 10
-5.05299183E+01
 20
1.55441880E+02
  0
VERTEX
  8
0
 62
4
 10
-5.03436727E+01
 20
1.55726776E+02
  0
VERTEX
  8
0
 62
4
 10
-5.01856013E+01
 20
1.56025436E+02
  0
VERTEX
  8
0
 62
4
 10
-5.00569222E+01
 20
1.56335560E+02
  0
VERTEX
  8
0
 62
4
 10
-4.99586268E+01
 20
1.56654758E+02
  0
VERTEX
  8
0
 62
4
 10
-4.98914727E+01
 20
1.56980570E+02
  0
VERTEX
  8
0
 62
4
 10
-4.98559773E+01
 20
1.57310486E+02
  0
VERTEX
  8
0
 62
4
 10
-4.98524140E+01
 20
1.57641963E+02
  0
VERTEX
  8
0
 62
4
 10
-4.98808105E+01
 20
1.57972448E+02
  0
VERTEX
  8
0
 62
4
 10
-4.99409477E+01
 20
1.58299393E+02
  0
VERTEX
  8
0
 62
4
 10
-5.00323625E+01
 20
1.58620279E+02
  0
VERTEX
  8
0
 62
4
 10
-5.01543503E+01
 20
1.58932634E+02
  0
VERTEX
  8
0
 62
4
 10
-5.03059711E+01
 20
1.59234051E+02
  0
VERTEX
  8
0
 62
4
 10
-5.04860567E+01
 20
1.59522207E+02
  0
VERTEX
  8
0
 62
4
 10
-5.06932193E+01
 20
1.59794882E+02
  0
VERTEX
  8
0
 62
4
 10
-5.09258627E+01
 20
1.60049975E+02
  0
VERTEX
  8
0
 62
4
 10
-5.11821941E+01
 20
1.60285520E+02
  0
VERTEX
  8
0
 62
4
 10
-5.14602385E+01
 20
1.60499702E+02
  0
VERTEX
  8
0
 62
4
 10
-5.17578532E+01
 20
1.60690870E+02
  0
VERTEX
  8
0
 62
4
 10
-5.20727450E+01
 20
1.60857552E+02
  0
VERTEX
  8
0
 62
4
 10
-5.24024875E+01
 20
1.60998463E+02
  0
VERTEX
  8
0
 62
4
 10
-5.27445398E+01
 20
1.61112517E+02
  0
VERTEX
  8
0
 62
4
 10
-5.30962661E+01
 20
1.61198836E+02
  0
VERTEX
  8
0
 62
4
 10
-5.34549563E+01
 20
1.61256755E+02
  0
VERTEX
  8
0
 62
4
 10
-5.38178463E+01
 20
1.61285826E+02
  0
VERTEX
  8
0
 62
4
 10
-5.41821400E+01
 20
1.61285826E+02
  0
VERTEX
  8
0
 62
4
 10
-5.45450301E+01
 20
1.61256756E+02
  0
VERTEX
  8
0
 62
4
 10
-5.49037204E+01
 20
1.61198838E+02
  0
VERTEX
  8
0
 62
4
 10
-5.52554470E+01
 20
1.61112520E+02
  0
VERTEX
  8
0
 62
4
 10
-5.55974995E+01
 20
1.60998466E+02
  0
VERTEX
  8
0
 62
4
 10
-5.59272424E+01
 20
1.60857556E+02
  0
VERTEX
  8
0
 62
4
 10
-5.62421347E+01
 20
1.60690875E+02
  0
VERTEX
  8
0
 62
4
 10
-5.65397499E+01
 20
1.60499707E+02
  0
VERTEX
  8
0
 62
4
 10
-5.68177948E+01
 20
1.60285526E+02
  0
VERTEX
  8
0
 62
4
 10
-5.70741269E+01
 20
1.60049982E+02
  0
VERTEX
  8
0
 62
4
 10
-5.73067709E+01
 20
1.59794890E+02
  0
VERTEX
  8
0
 62
4
 10
-5.75139343E+01
 20
1.59522215E+02
  0
VERTEX
  8
0
 62
4
 10
-5.76940206E+01
 20
1.59234059E+02
  0
VERTEX
  8
0
 62
4
 10
-5.78456422E+01
 20
1.58932643E+02
  0
VERTEX
  8
0
 62
4
 10
-5.79676308E+01
 20
1.58620288E+02
  0
VERTEX
  8
0
 62
4
 10
-5.80590464E+01
 20
1.58299401E+02
  0
VERTEX
  8
0
 62
4
 10
-5.81191845E+01
 20
1.57972457E+02
  0
VERTEX
  8
0
 62
4
 10
-5.81475818E+01
 20
1.57641972E+02
  0
VERTEX
  8
0
 62
4
 10
-5.81440195E+01
 20
1.57310495E+02
  0
VERTEX
  8
0
 62
4
 10
-5.81085249E+01
 20
1.56980579E+02
  0
VERTEX
  8
0
 62
4
 10
-5.80413716E+01
 20
1.56654767E+02
  0
VERTEX
  8
0
 62
4
 10
-5.79430771E+01
 20
1.56335569E+02
  0
VERTEX
  8
0
 62
4
 10
-5.78143988E+01
 20
1.56025444E+02
  0
VERTEX
  8
0
 62
4
 10
-5.76563282E+01
 20
1.55726784E+02
  0
VERTEX
  8
0
 62
4
 10
-5.74700833E+01
 20
1.55441888E+02
  0
VERTEX
  8
0
 62
4
 10
-5.72570994E+01
 20
1.55172952E+02
  0
VERTEX
  8
0
 62
4
 10
-5.70190174E+01
 20
1.54922049E+02
  0
VERTEX
  8
0
 62
4
 10
-5.67576721E+01
 20
1.54691111E+02
  0
VERTEX
  8
0
 62
4
 10
-5.64750773E+01
 20
1.54481919E+02
  0
VERTEX
  8
0
 62
4
 10
-5.61734104E+01
 20
1.54296084E+02
  0
VERTEX
  8
0
 62
4
 10
-5.58549961E+01
 20
1.54135039E+02
  0
VERTEX
  8
0
 62
4
 10
-5.55222879E+01
 20
1.54000023E+02
  0
SEQEND
  8
0
  0
POLYLINE
  8
0
 62
4
 66
1
  0
VERTEX
  8
0
 62
4
 10
-5.11951388E+01
 20
1.54000024E+02
  0
VERTEX
  8
0
 62
4
 10
-5.09258007E+01
 20
1.54246479E+02
  0
VERTEX
  8
0
 62
4
 10
-5.06825052E+01
 20
1.54514424E+02
  0
VERTEX
  8
0
 62
4
 10
-5.04673133E+01
 20
1.54801589E+02
  0
VERTEX
  8
0
 62
4
 10
-5.02820481E+01
 20
1.55105541E+02
  0
VERTEX
  8
0
 62
4
 10
-5.01282789E+01
 20
1.55423706E+02
  0
VERTEX
  8
0
 62
4
 10
-5.00073084E+01
 20
1.55753389E+02
  0
VERTEX
  8
0
 62
4
 10
-4.99201614E+01
 20
1.56091796E+02
  0
VERTEX
  8
0
 62
4
 10
-4.98675762E+01
 20
1.56436060E+02
  0
VERTEX
  8
0
 62
4
 10
-4.98499981E+01
 20
1.56783266E+02
  0
SEQEND
  8
0
  0
LINE
  8
0
 62
4
 10
-3.89999981E+01
 20
1.54000023E+02
 11
-3.89999981E+01
 21
1.63905372E+02
  0
LINE
  8
0
 62
4
 10
-4.54999981E+01
 20
1.54069733E+02
 11
-4.54999981E+01
 21
1.54000023E+02
  0
LINE
  8
0
 62
4
 10
-6.89999981E+01
 20
1.63905372E+02
 11
-6.89999981E+01
 21
1.54069733E+02
  0
LINE
  8
0
  6
CENTER
 62
6
 10
-4.93499981E+01
 20
1.56625682E+02
 11
-5.86499981E+01
 21
1.56625682E+02
  0
LINE
  8
0
  6
CENTER
 62
6
 10
-5.39999981E+01
 20
1.61275682E+02
 11
-5.39999981E+01
 21
1.51975682E+02
  0
LINE
  8
0
  6
CENTER
 62
6
 10
-5.79254012E+01
 20
1.59810547E+02
 11
-6.50745950E+01
 21
1.59810547E+02
  0
LINE
  8
0
  6
CENTER
 62
6
 10
-6.14999981E+01
 20
1.63385143E+02
 11
-6.14999981E+01
 21
1.56235950E+02
  0
LINE
  8
0
  6
CENTER
 62
6
 10
-4.16999981E+01
 20
1.59810547E+02
 11
-5.12999981E+01
 21
1.59810547E+02
  0
LINE
  8
0
  6
CENTER
 62
6
 10
-4.64999981E+01
 20
1.64610547E+02
 11
-4.64999981E+01
 21
1.55010547E+02
  0
LINE
  8
0
 62
4
 10
5.00002098E+00
 20
1.31767713E+02
 11
5.00002098E+00
 21
1.59634032E+02
  0
LINE
  8
0
 62
4
 10
-9.99997902E+00
 20
1.31767713E+02
 11
-9.99997902E+00
 21
1.63905372E+02
  0
LINE
  8
0
 62
4
 10
2.00000210E+01
 20
1.63905372E+02
 11
2.00000210E+01
 21
1.44908774E+02
  0
LINE
  8
0
  6
CENTER
 62
6
 10
1.50002098E+00
 20
1.32330538E+02
 11
1.50002098E+00
 21
1.39330538E+02
  0
LINE
  8
0
  6
CENTER
 62
6
 10
-9.99997902E+00
 20
1.35830538E+02
 11
-2.99997902E+00
 21
1.35830538E+02
  0
LINE
  8
0
  6
CENTER
 62
6
 10
-6.49997902E+00
 20
1.32330538E+02
 11
-6.49997902E+00
 21
1.39330538E+02
  0
LINE
  8
0
  6
CENTER
 62
6
 10
-1.99997902E+00
 20
1.35830538E+02
 11
5.00002098E+00
 21
1.35830538E+02
  0
LINE
  8
0
 62
4
 10
-6.89999981E+01
 20
1.63905372E+02
 11
-3.89999981E+01
 21
1.63905372E+02
  0
LINE
  8
0
 62
4
 10
-9.99997902E+00
 20
1.63905372E+02
 11
2.00000210E+01
 21
1.63905372E+02
  0
LINE
  8
0
 62
4
 10
-9.99997904E+00
 20
1.59634032E+02
 11
2.00000210E+01
 21
1.59634032E+02
  0
LINE
  8
0
 62
4
 10
-9.99997904E+00
 20
1.56731179E+02
 11
5.00002096E+00
 21
1.56731179E+02
  0
LINE
  8
0
 62
4
 10
-8.99997898E+00
 20
1.42592282E+02
 11
4.00002100E+00
 21
1.42592282E+02
  0
LINE
  8
0
 62
4
 10
5.00002096E+00
 20
1.44908774E+02
 11
2.00000210E+01
 21
1.44908774E+02
  0
LINE
  8
0
 62
4
 10
-9.99997904E+00
 20
1.31767713E+02
 11
5.00002096E+00
 21
1.31767713E+02
  0
LINE
  8
0
 62
4
 10
5.00002096E+00
 20
1.51899361E+02
 11
2.00000210E+01
 21
1.51899361E+02
  0
LINE
  8
0
 62
4
 10
5.00002096E+00
 20
1.51733484E+02
 11
2.00000210E+01
 21
1.51733484E+02
  0
LINE
  8
0
  6
CENTER
 62
6
 10
1.60746179E+01
 20
1.55539206E+02
 11
8.92542409E+00
 21
1.55539206E+02
  0
LINE
  8
0
  6
CENTER
 62
6
 10
1.25000210E+01
 20
1.59113803E+02
 11
1.25000210E+01
 21
1.51964609E+02
  0
POLYLINE
  8
0
 62
4
 66
1
  0
VERTEX
  8
0
 62
4
 10
1.47500210E+01
 20
1.55539206E+02
  0
VERTEX
  8
0
 62
4
 10
1.47414591E+01
 20
1.55717650E+02
  0
VERTEX
  8
0
 62
4
 10
1.47158384E+01
 20
1.55894736E+02
  0
VERTEX
  8
0
 62
4
 10
1.46733541E+01
 20
1.56069115E+02
  0
VERTEX
  8
0
 62
4
 10
1.46143294E+01
 20
1.56239462E+02
  0
VERTEX
  8
0
 62
4
 10
1.45392135E+01
 20
1.56404480E+02
  0
VERTEX
  8
0
 62
4
 10
1.44485782E+01
 20
1.56562912E+02
  0
VERTEX
  8
0
 62
4
 10
1.43431131E+01
 20
1.56713554E+02
  0
VERTEX
  8
0
 62
4
 10
1.42236210E+01
 20
1.56855258E+02
  0
VERTEX
  8
0
 62
4
 10
1.40910113E+01
 20
1.56986946E+02
  0
VERTEX
  8
0
 62
4
 10
1.39462931E+01
 20
1.57107615E+02
  0
VERTEX
  8
0
 62
4
 10
1.37905680E+01
 20
1.57216348E+02
  0
VERTEX
  8
0
 62
4
 10
1.36250210E+01
 20
1.57312318E+02
  0
VERTEX
  8
0
 62
4
 10
1.34509121E+01
 20
1.57394792E+02
  0
VERTEX
  8
0
 62
4
 10
1.32695663E+01
 20
1.57463145E+02
  0
VERTEX
  8
0
 62
4
 10
1.30823639E+01
 20
1.57516855E+02
  0
VERTEX
  8
0
 62
4
 10
1.28907294E+01
 20
1.57555514E+02
  0
VERTEX
  8
0
 62
4
 10
1.26961214E+01
 20
1.57578828E+02
  0
VERTEX
  8
0
 62
4
 10
1.25000210E+01
 20
1.57586619E+02
  0
VERTEX
  8
0
 62
4
 10
1.23039206E+01
 20
1.57578828E+02
  0
VERTEX
  8
0
 62
4
 10
1.21093126E+01
 20
1.57555514E+02
  0
VERTEX
  8
0
 62
4
 10
1.19176781E+01
 20
1.57516855E+02
  0
VERTEX
  8
0
 62
4
 10
1.17304757E+01
 20
1.57463145E+02
  0
VERTEX
  8
0
 62
4
 10
1.15491299E+01
 20
1.57394792E+02
  0
VERTEX
  8
0
 62
4
 10
1.13750210E+01
 20
1.57312318E+02
  0
VERTEX
  8
0
 62
4
 10
1.12094740E+01
 20
1.57216348E+02
  0
VERTEX
  8
0
 62
4
 10
1.10537489E+01
 20
1.57107615E+02
  0
VERTEX
  8
0
 62
4
 10
1.09090307E+01
 20
1.56986946E+02
  0
VERTEX
  8
0
 62
4
 10
1.07764210E+01
 20
1.56855258E+02
  0
VERTEX
  8
0
 62
4
 10
1.06569289E+01
 20
1.56713554E+02
  0
VERTEX
  8
0
 62
4
 10
1.05514638E+01
 20
1.56562912E+02
  0
VERTEX
  8
0
 62
4
 10
1.04608285E+01
 20
1.56404480E+02
  0
VERTEX
  8
0
 62
4
 10
1.03857126E+01
 20
1.56239462E+02
  0
VERTEX
  8
0
 62
4
 10
1.03266879E+01
 20
1.56069115E+02
  0
VERTEX
  8
0
 62
4
 10
1.02842036E+01
 20
1.55894736E+02
  0
VERTEX
  8
0
 62
4
 10
1.02585829E+01
 20
1.55717650E+02
  0
VERTEX
  8
0
 62
4
 10
1.02500210E+01
 20
1.55539206E+02
  0
VERTEX
  8
0
 62
4
 10
1.02585829E+01
 20
1.55360762E+02
  0
VERTEX
  8
0
 62
4
 10
1.02842036E+01
 20
1.55183676E+02
  0
VERTEX
  8
0
 62
4
 10
1.03266879E+01
 20
1.55009297E+02
  0
VERTEX
  8
0
 62
4
 10
1.03857126E+01
 20
1.54838950E+02
  0
VERTEX
  8
0
 62
4
 10
1.04608285E+01
 20
1.54673932E+02
  0
VERTEX
  8
0
 62
4
 10
1.05514638E+01
 20
1.54515500E+02
  0
VERTEX
  8
0
 62
4
 10
1.06569289E+01
 20
1.54364858E+02
  0
VERTEX
  8
0
 62
4
 10
1.07764210E+01
 20
1.54223154E+02
  0
VERTEX
  8
0
 62
4
 10
1.09090307E+01
 20
1.54091466E+02
  0
VERTEX
  8
0
 62
4
 10
1.10537489E+01
 20
1.53970797E+02
  0
VERTEX
  8
0
 62
4
 10
1.12094740E+01
 20
1.53862064E+02
  0
VERTEX
  8
0
 62
4
 10
1.13750210E+01
 20
1.53766094E+02
  0
VERTEX
  8
0
 62
4
 10
1.15491299E+01
 20
1.53683620E+02
  0
VERTEX
  8
0
 62
4
 10
1.17304757E+01
 20
1.53615267E+02
  0
VERTEX
  8
0
 62
4
 10
1.19176782E+01
 20
1.53561557E+02
  0
VERTEX
  8
0
 62
4
 10
1.21093126E+01
 20
1.53522898E+02
  0
VERTEX
  8
0
 62
4
 10
1.23039206E+01
 20
1.53499584E+02
  0
VERTEX
  8
0
 62
4
 10
1.25000210E+01
 20
1.53491793E+02
  0
VERTEX
  8
0
 62
4
 10
1.26961214E+01
 20
1.53499584E+02
  0
VERTEX
  8
0
 62
4
 10
1.28907294E+01
 20
1.53522898E+02
  0
VERTEX
  8
0
 62
4
 10
1.30823639E+01
 20
1.53561557E+02
  0
VERTEX
  8
0
 62
4
 10
1.32695663E+01
 20
1.53615267E+02
  0
VERTEX
  8
0
 62
4
 10
1.34509121E+01
 20
1.53683620E+02
  0
VERTEX
  8
0
 62
4
 10
1.36250210E+01
 20
1.53766094E+02
  0
VERTEX
  8
0
 62
4
 10
1.37905680E+01
 20
1.53862064E+02
  0
VERTEX
  8
0
 62
4
 10
1.39462931E+01
 20
1.53970797E+02
  0
VERTEX
  8
0
 62
4
 10
1.40910113E+01
 20
1.54091466E+02
  0
VERTEX
  8
0
 62
4
 10
1.42236210E+01
 20
1.54223154E+02
  0
VERTEX
  8
0
 62
4
 10
1.43431131E+01
 20
1.54364858E+02
  0
VERTEX
  8
0
 62
4
 10
1.44485782E+01
 20
1.54515500E+02
  0
VERTEX
  8
0
 62
4
 10
1.45392135E+01
 20
1.54673932E+02
  0
VERTEX
  8
0
 62
4
 10
1.46143294E+01
 20
1.54838950E+02
  0
VERTEX
  8
0
 62
4
 10
1.46733541E+01
 20
1.55009297E+02
  0
VERTEX
  8
0
 62
4
 10
1.47158384E+01
 20
1.55183676E+02
  0
VERTEX
  8
0
 62
4
 10
1.47414591E+01
 20
1.55360762E+02
  0
VERTEX
  8
0
 62
4
 10
1.47500210E+01
 20
1.55539206E+02
  0
SEQEND
  8
0
  0
POLYLINE
  8
0
 62
4
 66
1
  0
VERTEX
  8
0
 62
4
 10
3.50002098E+00
 20
1.35830538E+02
  0
VERTEX
  8
0
 62
4
 10
3.49196957E+00
 20
1.35993675E+02
  0
VERTEX
  8
0
 62
4
 10
3.46788016E+00
 20
1.36155498E+02
  0
VERTEX
  8
0
 62
4
 10
3.42794671E+00
 20
1.36314704E+02
  0
VERTEX
  8
0
 62
4
 10
3.37249073E+00
 20
1.36470013E+02
  0
VERTEX
  8
0
 62
4
 10
3.30195872E+00
 20
1.36620173E+02
  0
VERTEX
  8
0
 62
4
 10
3.21691857E+00
 20
1.36763975E+02
  0
VERTEX
  8
0
 62
4
 10
3.11805498E+00
 20
1.36900262E+02
  0
VERTEX
  8
0
 62
4
 10
3.00616392E+00
 20
1.37027935E+02
  0
VERTEX
  8
0
 62
4
 10
2.88214629E+00
 20
1.37145969E+02
  0
VERTEX
  8
0
 62
4
 10
2.74700060E+00
 20
1.37253411E+02
  0
VERTEX
  8
0
 62
4
 10
2.60181496E+00
 20
1.37349397E+02
  0
VERTEX
  8
0
 62
4
 10
2.44775832E+00
 20
1.37433154E+02
  0
VERTEX
  8
0
 62
4
 10
2.28607106E+00
 20
1.37504007E+02
  0
VERTEX
  8
0
 62
4
 10
2.11805498E+00
 20
1.37561387E+02
  0
VERTEX
  8
0
 62
4
 10
1.94506286E+00
 20
1.37604831E+02
  0
VERTEX
  8
0
 62
4
 10
1.76848753E+00
 20
1.37633990E+02
  0
VERTEX
  8
0
 62
4
 10
1.58975066E+00
 20
1.37648628E+02
  0
VERTEX
  8
0
 62
4
 10
1.41029134E+00
 20
1.37648628E+02
  0
VERTEX
  8
0
 62
4
 10
1.23155447E+00
 20
1.37633990E+02
  0
VERTEX
  8
0
 62
4
 10
1.05497913E+00
 20
1.37604831E+02
  0
VERTEX
  8
0
 62
4
 10
8.81987008E-01
 20
1.37561387E+02
  0
VERTEX
  8
0
 62
4
 10
7.13970933E-01
 20
1.37504007E+02
  0
VERTEX
  8
0
 62
4
 10
5.52283671E-01
 20
1.37433154E+02
  0
VERTEX
  8
0
 62
4
 10
3.98227033E-01
 20
1.37349397E+02
  0
VERTEX
  8
0
 62
4
 10
2.53041391E-01
 20
1.37253411E+02
  0
VERTEX
  8
0
 62
4
 10
1.17895696E-01
 20
1.37145969E+02
  0
VERTEX
  8
0
 62
4
 10
-6.12193934E-03
 20
1.37027935E+02
  0
VERTEX
  8
0
 62
4
 10
-1.18012997E-01
 20
1.36900262E+02
  0
VERTEX
  8
0
 62
4
 10
-2.16876597E-01
 20
1.36763975E+02
  0
VERTEX
  8
0
 62
4
 10
-3.01916747E-01
 20
1.36620173E+02
  0
VERTEX
  8
0
 62
4
 10
-3.72448754E-01
 20
1.36470013E+02
  0
VERTEX
  8
0
 62
4
 10
-4.27904736E-01
 20
1.36314704E+02
  0
VERTEX
  8
0
 62
4
 10
-4.67838194E-01
 20
1.36155498E+02
  0
VERTEX
  8
0
 62
4
 10
-4.91927606E-01
 20
1.35993675E+02
  0
VERTEX
  8
0
 62
4
 10
-4.99979020E-01
 20
1.35830538E+02
  0
SEQEND
  8
0
  0
LINE
  8
0
 62
4
 10
-4.99979019E-01
 20
1.34195621E+02
 11
-4.99979019E-01
 21
1.35830538E+02
  0
POLYLINE
  8
0
 62
4
 66
1
  0
VERTEX
  8
0
 62
4
 10
-4.99979020E-01
 20
1.34195621E+02
  0
VERTEX
  8
0
 62
4
 10
-4.92368417E-01
 20
1.34037004E+02
  0
VERTEX
  8
0
 62
4
 10
-4.69594527E-01
 20
1.33879595E+02
  0
VERTEX
  8
0
 62
4
 10
-4.31830674E-01
 20
1.33724590E+02
  0
VERTEX
  8
0
 62
4
 10
-3.79364264E-01
 20
1.33573171E+02
  0
VERTEX
  8
0
 62
4
 10
-3.12594597E-01
 20
1.33426489E+02
  0
VERTEX
  8
0
 62
4
 10
-2.32029831E-01
 20
1.33285660E+02
  0
VERTEX
  8
0
 62
4
 10
-1.38283112E-01
 20
1.33151756E+02
  0
VERTEX
  8
0
 62
4
 10
-3.20679100E-02
 20
1.33025797E+02
  0
VERTEX
  8
0
 62
4
 10
8.58074135E-02
 20
1.32908741E+02
  0
VERTEX
  8
0
 62
4
 10
2.14445756E-01
 20
1.32801480E+02
  0
VERTEX
  8
0
 62
4
 10
3.52868103E-01
 20
1.32704828E+02
  0
VERTEX
  8
0
 62
4
 10
5.00020975E-01
 20
1.32619522E+02
  0
VERTEX
  8
0
 62
4
 10
6.54784452E-01
 20
1.32546211E+02
  0
VERTEX
  8
0
 62
4
 10
8.15980688E-01
 20
1.32485453E+02
  0
VERTEX
  8
0
 62
4
 10
9.82382885E-01
 20
1.32437711E+02
  0
VERTEX
  8
0
 62
4
 10
1.15272462E+00
 20
1.32403347E+02
  0
VERTEX
  8
0
 62
4
 10
1.32570949E+00
 20
1.32382624E+02
  0
VERTEX
  8
0
 62
4
 10
1.50002097E+00
 20
1.32375699E+02
  0
VERTEX
  8
0
 62
4
 10
1.67433246E+00
 20
1.32382624E+02
  0
VERTEX
  8
0
 62
4
 10
1.84731733E+00
 20
1.32403347E+02
  0
VERTEX
  8
0
 62
4
 10
2.01765907E+00
 20
1.32437711E+02
  0
VERTEX
  8
0
 62
4
 10
2.18406126E+00
 20
1.32485453E+02
  0
VERTEX
  8
0
 62
4
 10
2.34525750E+00
 20
1.32546211E+02
  0
VERTEX
  8
0
 62
4
 10
2.50002098E+00
 20
1.32619522E+02
  0
VERTEX
  8
0
 62
4
 10
2.64717385E+00
 20
1.32704828E+02
  0
VERTEX
  8
0
 62
4
 10
2.78559620E+00
 20
1.32801479E+02
  0
VERTEX
  8
0
 62
4
 10
2.91423454E+00
 20
1.32908741E+02
  0
VERTEX
  8
0
 62
4
 10
3.03210986E+00
 20
1.33025797E+02
  0
VERTEX
  8
0
 62
4
 10
3.13832507E+00
 20
1.33151756E+02
  0
VERTEX
  8
0
 62
4
 10
3.23207179E+00
 20
1.33285660E+02
  0
VERTEX
  8
0
 62
4
 10
3.31263655E+00
 20
1.33426489E+02
  0
VERTEX
  8
0
 62
4
 10
3.37940622E+00
 20
1.33573171E+02
  0
VERTEX
  8
0
 62
4
 10
3.43187263E+00
 20
1.33724590E+02
  0
VERTEX
  8
0
 62
4
 10
3.46963649E+00
 20
1.33879595E+02
  0
VERTEX
  8
0
 62
4
 10
3.49241038E+00
 20
1.34037004E+02
  0
VERTEX
  8
0
 62
4
 10
3.50002098E+00
 20
1.34195621E+02
  0
VERTEX
  8
0
 62
4
 10
3.49241038E+00
 20
1.34354238E+02
  0
VERTEX
  8
0
 62
4
 10
3.46963649E+00
 20
1.34511647E+02
  0
VERTEX
  8
0
 62
4
 10
3.43187263E+00
 20
1.34666652E+02
  0
VERTEX
  8
0
 62
4
 10
3.37940622E+00
 20
1.34818071E+02
  0
VERTEX
  8
0
 62
4
 10
3.31263656E+00
 20
1.34964753E+02
  0
VERTEX
  8
0
 62
4
 10
3.23207179E+00
 20
1.35105582E+02
  0
VERTEX
  8
0
 62
4
 10
3.13832507E+00
 20
1.35239486E+02
  0
VERTEX
  8
0
 62
4
 10
3.03210987E+00
 20
1.35365445E+02
  0
VERTEX
  8
0
 62
4
 10
2.91423454E+00
 20
1.35482501E+02
  0
VERTEX
  8
0
 62
4
 10
2.78559620E+00
 20
1.35589763E+02
  0
VERTEX
  8
0
 62
4
 10
2.64717386E+00
 20
1.35686414E+02
  0
VERTEX
  8
0
 62
4
 10
2.50002098E+00
 20
1.35771720E+02
  0
VERTEX
  8
0
 62
4
 10
2.34525751E+00
 20
1.35845031E+02
  0
VERTEX
  8
0
 62
4
 10
2.18406127E+00
 20
1.35905789E+02
  0
VERTEX
  8
0
 62
4
 10
2.01765907E+00
 20
1.35953531E+02
  0
VERTEX
  8
0
 62
4
 10
1.84731734E+00
 20
1.35987895E+02
  0
VERTEX
  8
0
 62
4
 10
1.67433247E+00
 20
1.36008618E+02
  0
VERTEX
  8
0
 62
4
 10
1.50002098E+00
 20
1.36015543E+02
  0
VERTEX
  8
0
 62
4
 10
1.32570950E+00
 20
1.36008618E+02
  0
VERTEX
  8
0
 62
4
 10
1.15272463E+00
 20
1.35987895E+02
  0
VERTEX
  8
0
 62
4
 10
9.82382892E-01
 20
1.35953531E+02
  0
VERTEX
  8
0
 62
4
 10
8.15980695E-01
 20
1.35905789E+02
  0
VERTEX
  8
0
 62
4
 10
6.54784458E-01
 20
1.35845031E+02
  0
VERTEX
  8
0
 62
4
 10
5.00020982E-01
 20
1.35771720E+02
  0
VERTEX
  8
0
 62
4
 10
3.52868109E-01
 20
1.35686414E+02
  0
VERTEX
  8
0
 62
4
 10
2.14445762E-01
 20
1.35589763E+02
  0
VERTEX
  8
0
 62
4
 10
8.58074188E-02
 20
1.35482501E+02
  0
VERTEX
  8
0
 62
4
 10
-3.20679053E-02
 20
1.35365445E+02
  0
VERTEX
  8
0
 62
4
 10
-1.38283108E-01
 20
1.35239486E+02
  0
VERTEX
  8
0
 62
4
 10
-2.32029827E-01
 20
1.35105582E+02
  0
VERTEX
  8
0
 62
4
 10
-3.12594594E-01
 20
1.34964753E+02
  0
VERTEX
  8
0
 62
4
 10
-3.79364261E-01
 20
1.34818071E+02
  0
VERTEX
  8
0
 62
4
 10
-4.31830672E-01
 20
1.34666652E+02
  0
VERTEX
  8
0
 62
4
 10
-4.69594526E-01
 20
1.34511647E+02
  0
VERTEX
  8
0
 62
4
 10
-4.92368416E-01
 20
1.34354238E+02
  0
VERTEX
  8
0
 62
4
 10
-4.99979020E-01
 20
1.34195621E+02
  0
SEQEND
  8
0
  0
LINE
  8
0
 62
4
 10
3.50002098E+00
 20
1.34195621E+02
 11
3.50002098E+00
 21
1.35830538E+02
  0
POLYLINE
  8
0
 62
6
 66
1
  0
VERTEX
  8
0
 62
6
 10
2.09600000E-05
 20
1.34195621E+02
  0
VERTEX
  8
0
 62
6
 10
5.72891252E-03
 20
1.34076658E+02
  0
VERTEX
  8
0
 62
6
 10
2.28093300E-02
 20
1.33958601E+02
  0
VERTEX
  8
0
 62
6
 10
5.11322200E-02
 20
1.33842348E+02
  0
VERTEX
  8
0
 62
6
 10
9.04820284E-02
 20
1.33728783E+02
  0
VERTEX
  8
0
 62
6
 10
1.40559279E-01
 20
1.33618772E+02
  0
VERTEX
  8
0
 62
6
 10
2.00982855E-01
 20
1.33513150E+02
  0
VERTEX
  8
0
 62
6
 10
2.71292895E-01
 20
1.33412722E+02
  0
VERTEX
  8
0
 62
6
 10
3.50954297E-01
 20
1.33318253E+02
  0
VERTEX
  8
0
 62
6
 10
4.39360791E-01
 20
1.33230461E+02
  0
VERTEX
  8
0
 62
6
 10
5.35839549E-01
 20
1.33150015E+02
  0
VERTEX
  8
0
 62
6
 10
6.39656311E-01
 20
1.33077526E+02
  0
VERTEX
  8
0
 62
6
 10
7.50020966E-01
 20
1.33013547E+02
  0
VERTEX
  8
0
 62
6
 10
8.66093575E-01
 20
1.32958564E+02
  0
VERTEX
  8
0
 62
6
 10
9.86990754E-01
 20
1.32912995E+02
  0
VERTEX
  8
0
 62
6
 10
1.11179240E+00
 20
1.32877188E+02
  0
VERTEX
  8
0
 62
6
 10
1.23954871E+00
 20
1.32851416E+02
  0
VERTEX
  8
0
 62
6
 10
1.36928736E+00
 20
1.32835873E+02
  0
VERTEX
  8
0
 62
6
 10
1.50002098E+00
 20
1.32830679E+02
  0
VERTEX
  8
0
 62
6
 10
1.63075459E+00
 20
1.32835873E+02
  0
VERTEX
  8
0
 62
6
 10
1.76049325E+00
 20
1.32851416E+02
  0
VERTEX
  8
0
 62
6
 10
1.88824955E+00
 20
1.32877188E+02
  0
VERTEX
  8
0
 62
6
 10
2.01305120E+00
 20
1.32912995E+02
  0
VERTEX
  8
0
 62
6
 10
2.13394838E+00
 20
1.32958564E+02
  0
VERTEX
  8
0
 62
6
 10
2.25002099E+00
 20
1.33013547E+02
  0
VERTEX
  8
0
 62
6
 10
2.36038564E+00
 20
1.33077526E+02
  0
VERTEX
  8
0
 62
6
 10
2.46420240E+00
 20
1.33150015E+02
  0
VERTEX
  8
0
 62
6
 10
2.56068116E+00
 20
1.33230461E+02
  0
VERTEX
  8
0
 62
6
 10
2.64908766E+00
 20
1.33318253E+02
  0
VERTEX
  8
0
 62
6
 10
2.72874906E+00
 20
1.33412722E+02
  0
VERTEX
  8
0
 62
6
 10
2.79905910E+00
 20
1.33513150E+02
  0
VERTEX
  8
0
 62
6
 10
2.85948268E+00
 20
1.33618772E+02
  0
VERTEX
  8
0
 62
6
 10
2.90955993E+00
 20
1.33728783E+02
  0
VERTEX
  8
0
 62
6
 10
2.94890974E+00
 20
1.33842348E+02
  0
VERTEX
  8
0
 62
6
 10
2.97723263E+00
 20
1.33958601E+02
  0
VERTEX
  8
0
 62
6
 10
2.99431305E+00
 20
1.34076658E+02
  0
VERTEX
  8
0
 62
6
 10
3.00002100E+00
 20
1.34195621E+02
  0
VERTEX
  8
0
 62
6
 10
2.99431305E+00
 20
1.34314584E+02
  0
VERTEX
  8
0
 62
6
 10
2.97723263E+00
 20
1.34432641E+02
  0
VERTEX
  8
0
 62
6
 10
2.94890974E+00
 20
1.34548894E+02
  0
VERTEX
  8
0
 62
6
 10
2.90955993E+00
 20
1.34662459E+02
  0
VERTEX
  8
0
 62
6
 10
2.85948268E+00
 20
1.34772470E+02
  0
VERTEX
  8
0
 62
6
 10
2.79905910E+00
 20
1.34878092E+02
  0
VERTEX
  8
0
 62
6
 10
2.72874906E+00
 20
1.34978520E+02
  0
VERTEX
  8
0
 62
6
 10
2.64908766E+00
 20
1.35072989E+02
  0
VERTEX
  8
0
 62
6
 10
2.56068117E+00
 20
1.35160781E+02
  0
VERTEX
  8
0
 62
6
 10
2.46420241E+00
 20
1.35241227E+02
  0
VERTEX
  8
0
 62
6
 10
2.36038565E+00
 20
1.35313716E+02
  0
VERTEX
  8
0
 62
6
 10
2.25002099E+00
 20
1.35377695E+02
  0
VERTEX
  8
0
 62
6
 10
2.13394838E+00
 20
1.35432678E+02
  0
VERTEX
  8
0
 62
6
 10
2.01305120E+00
 20
1.35478247E+02
  0
VERTEX
  8
0
 62
6
 10
1.88824955E+00
 20
1.35514054E+02
  0
VERTEX
  8
0
 62
6
 10
1.76049325E+00
 20
1.35539826E+02
  0
VERTEX
  8
0
 62
6
 10
1.63075460E+00
 20
1.35555369E+02
  0
VERTEX
  8
0
 62
6
 10
1.50002098E+00
 20
1.35560563E+02
  0
VERTEX
  8
0
 62
6
 10
1.36928737E+00
 20
1.35555369E+02
  0
VERTEX
  8
0
 62
6
 10
1.23954871E+00
 20
1.35539826E+02
  0
VERTEX
  8
0
 62
6
 10
1.11179241E+00
 20
1.35514054E+02
  0
VERTEX
  8
0
 62
6
 10
9.86990760E-01
 20
1.35478247E+02
  0
VERTEX
  8
0
 62
6
 10
8.66093580E-01
 20
1.35432678E+02
  0
VERTEX
  8
0
 62
6
 10
7.50020971E-01
 20
1.35377695E+02
  0
VERTEX
  8
0
 62
6
 10
6.39656315E-01
 20
1.35313716E+02
  0
VERTEX
  8
0
 62
6
 10
5.35839554E-01
 20
1.35241227E+02
  0
VERTEX
  8
0
 62
6
 10
4.39360795E-01
 20
1.35160781E+02
  0
VERTEX
  8
0
 62
6
 10
3.50954301E-01
 20
1.35072989E+02
  0
VERTEX
  8
0
 62
6
 10
2.71292898E-01
 20
1.34978520E+02
  0
VERTEX
  8
0
 62
6
 10
2.00982858E-01
 20
1.34878092E+02
  0
VERTEX
  8
0
 62
6
 10
1.40559282E-01
 20
1.34772470E+02
  0
VERTEX
  8
0
 62
6
 10
9.04820303E-02
 20
1.34662459E+02
  0
VERTEX
  8
0
 62
6
 10
5.11322215E-02
 20
1.34548894E+02
  0
VERTEX
  8
0
 62
6
 10
2.28093309E-02
 20
1.34432641E+02
  0
VERTEX
  8
0
 62
6
 10
5.72891300E-03
 20
1.34314584E+02
  0
VERTEX
  8
0
 62
6
 10
2.09600000E-05
 20
1.34195621E+02
  0
SEQEND
  8
0
  0
LINE
  8
0
 62
4
 10
5.00020981E-01
 20
1.33667843E+02
 11
5.00020981E-01
 21
1.34723398E+02
  0
LINE
  8
0
 62
4
 10
1.50002098E+00
 20
1.35242076E+02
 11
5.00020981E-01
 21
1.34723398E+02
  0
LINE
  8
0
 62
4
 10
1.50002098E+00
 20
1.33140066E+02
 11
5.00020981E-01
 21
1.33667843E+02
  0
LINE
  8
0
 62
4
 10
1.50002098E+00
 20
1.35242076E+02
 11
2.50002098E+00
 21
1.34723398E+02
  0
LINE
  8
0
 62
4
 10
2.50002098E+00
 20
1.33667843E+02
 11
2.50002098E+00
 21
1.34723398E+02
  0
LINE
  8
0
 62
4
 10
1.50002098E+00
 20
1.33140066E+02
 11
2.50002098E+00
 21
1.33667843E+02
  0
LINE
  8
0
 62
4
 10
-6.49997902E+00
 20
1.33140066E+02
 11
-5.49997902E+00
 21
1.33667843E+02
  0
LINE
  8
0
 62
4
 10
-5.49997902E+00
 20
1.33667843E+02
 11
-5.49997902E+00
 21
1.34723398E+02
  0
LINE
  8
0
 62
4
 10
-6.49997902E+00
 20
1.35242076E+02
 11
-5.49997902E+00
 21
1.34723398E+02
  0
LINE
  8
0
 62
4
 10
-6.49997902E+00
 20
1.33140066E+02
 11
-7.49997902E+00
 21
1.33667843E+02
  0
LINE
  8
0
 62
4
 10
-6.49997902E+00
 20
1.35242076E+02
 11
-7.49997902E+00
 21
1.34723398E+02
  0
LINE
  8
0
 62
4
 10
-7.49997902E+00
 20
1.33667843E+02
 11
-7.49997902E+00
 21
1.34723398E+02
  0
POLYLINE
  8
0
 62
6
 66
1
  0
VERTEX
  8
0
 62
6
 10
-7.99997904E+00
 20
1.34195621E+02
  0
VERTEX
  8
0
 62
6
 10
-7.99427109E+00
 20
1.34076658E+02
  0
VERTEX
  8
0
 62
6
 10
-7.97719067E+00
 20
1.33958601E+02
  0
VERTEX
  8
0
 62
6
 10
-7.94886778E+00
 20
1.33842348E+02
  0
VERTEX
  8
0
 62
6
 10
-7.90951797E+00
 20
1.33728783E+02
  0
VERTEX
  8
0
 62
6
 10
-7.85944072E+00
 20
1.33618772E+02
  0
VERTEX
  8
0
 62
6
 10
-7.79901715E+00
 20
1.33513150E+02
  0
VERTEX
  8
0
 62
6
 10
-7.72870711E+00
 20
1.33412722E+02
  0
VERTEX
  8
0
 62
6
 10
-7.64904570E+00
 20
1.33318253E+02
  0
VERTEX
  8
0
 62
6
 10
-7.56063921E+00
 20
1.33230461E+02
  0
VERTEX
  8
0
 62
6
 10
-7.46416045E+00
 20
1.33150015E+02
  0
VERTEX
  8
0
 62
6
 10
-7.36034369E+00
 20
1.33077526E+02
  0
VERTEX
  8
0
 62
6
 10
-7.24997903E+00
 20
1.33013547E+02
  0
VERTEX
  8
0
 62
6
 10
-7.13390642E+00
 20
1.32958564E+02
  0
VERTEX
  8
0
 62
6
 10
-7.01300925E+00
 20
1.32912995E+02
  0
VERTEX
  8
0
 62
6
 10
-6.88820760E+00
 20
1.32877188E+02
  0
VERTEX
  8
0
 62
6
 10
-6.76045129E+00
 20
1.32851416E+02
  0
VERTEX
  8
0
 62
6
 10
-6.63071264E+00
 20
1.32835873E+02
  0
VERTEX
  8
0
 62
6
 10
-6.49997902E+00
 20
1.32830679E+02
  0
VERTEX
  8
0
 62
6
 10
-6.36924541E+00
 20
1.32835873E+02
  0
VERTEX
  8
0
 62
6
 10
-6.23950675E+00
 20
1.32851416E+02
  0
VERTEX
  8
0
 62
6
 10
-6.11175045E+00
 20
1.32877188E+02
  0
VERTEX
  8
0
 62
6
 10
-5.98694880E+00
 20
1.32912995E+02
  0
VERTEX
  8
0
 62
6
 10
-5.86605162E+00
 20
1.32958564E+02
  0
VERTEX
  8
0
 62
6
 10
-5.74997901E+00
 20
1.33013547E+02
  0
VERTEX
  8
0
 62
6
 10
-5.63961436E+00
 20
1.33077526E+02
  0
VERTEX
  8
0
 62
6
 10
-5.53579760E+00
 20
1.33150015E+02
  0
VERTEX
  8
0
 62
6
 10
-5.43931884E+00
 20
1.33230461E+02
  0
VERTEX
  8
0
 62
6
 10
-5.35091234E+00
 20
1.33318253E+02
  0
VERTEX
  8
0
 62
6
 10
-5.27125094E+00
 20
1.33412722E+02
  0
VERTEX
  8
0
 62
6
 10
-5.20094090E+00
 20
1.33513150E+02
  0
VERTEX
  8
0
 62
6
 10
-5.14051732E+00
 20
1.33618772E+02
  0
VERTEX
  8
0
 62
6
 10
-5.09044007E+00
 20
1.33728783E+02
  0
VERTEX
  8
0
 62
6
 10
-5.05109026E+00
 20
1.33842348E+02
  0
VERTEX
  8
0
 62
6
 10
-5.02276737E+00
 20
1.33958601E+02
  0
VERTEX
  8
0
 62
6
 10
-5.00568695E+00
 20
1.34076658E+02
  0
VERTEX
  8
0
 62
6
 10
-4.99997900E+00
 20
1.34195621E+02
  0
VERTEX
  8
0
 62
6
 10
-5.00568695E+00
 20
1.34314584E+02
  0
VERTEX
  8
0
 62
6
 10
-5.02276737E+00
 20
1.34432641E+02
  0
VERTEX
  8
0
 62
6
 10
-5.05109026E+00
 20
1.34548894E+02
  0
VERTEX
  8
0
 62
6
 10
-5.09044007E+00
 20
1.34662459E+02
  0
VERTEX
  8
0
 62
6
 10
-5.14051732E+00
 20
1.34772470E+02
  0
VERTEX
  8
0
 62
6
 10
-5.20094090E+00
 20
1.34878092E+02
  0
VERTEX
  8
0
 62
6
 10
-5.27125094E+00
 20
1.34978520E+02
  0
VERTEX
  8
0
 62
6
 10
-5.35091234E+00
 20
1.35072989E+02
  0
VERTEX
  8
0
 62
6
 10
-5.43931883E+00
 20
1.35160781E+02
  0
VERTEX
  8
0
 62
6
 10
-5.53579759E+00
 20
1.35241227E+02
  0
VERTEX
  8
0
 62
6
 10
-5.63961435E+00
 20
1.35313716E+02
  0
VERTEX
  8
0
 62
6
 10
-5.74997901E+00
 20
1.35377695E+02
  0
VERTEX
  8
0
 62
6
 10
-5.86605162E+00
 20
1.35432678E+02
  0
VERTEX
  8
0
 62
6
 10
-5.98694880E+00
 20
1.35478247E+02
  0
VERTEX
  8
0
 62
6
 10
-6.11175045E+00
 20
1.35514054E+02
  0
VERTEX
  8
0
 62
6
 10
-6.23950675E+00
 20
1.35539826E+02
  0
VERTEX
  8
0
 62
6
 10
-6.36924540E+00
 20
1.35555369E+02
  0
VERTEX
  8
0
 62
6
 10
-6.49997902E+00
 20
1.35560563E+02
  0
VERTEX
  8
0
 62
6
 10
-6.63071263E+00
 20
1.35555369E+02
  0
VERTEX
  8
0
 62
6
 10
-6.76045129E+00
 20
1.35539826E+02
  0
VERTEX
  8
0
 62
6
 10
-6.88820759E+00
 20
1.35514054E+02
  0
VERTEX
  8
0
 62
6
 10
-7.01300924E+00
 20
1.35478247E+02
  0
VERTEX
  8
0
 62
6
 10
-7.13390642E+00
 20
1.35432678E+02
  0
VERTEX
  8
0
 62
6
 10
-7.24997903E+00
 20
1.35377695E+02
  0
VERTEX
  8
0
 62
6
 10
-7.36034368E+00
 20
1.35313716E+02
  0
VERTEX
  8
0
 62
6
 10
-7.46416045E+00
 20
1.35241227E+02
  0
VERTEX
  8
0
 62
6
 10
-7.56063921E+00
 20
1.35160781E+02
  0
VERTEX
  8
0
 62
6
 10
-7.64904570E+00
 20
1.35072989E+02
  0
VERTEX
  8
0
 62
6
 10
-7.72870710E+00
 20
1.34978520E+02
  0
VERTEX
  8
0
 62
6
 10
-7.79901714E+00
 20
1.34878092E+02
  0
VERTEX
  8
0
 62
6
 10
-7.85944072E+00
 20
1.34772470E+02
  0
VERTEX
  8
0
 62
6
 10
-7.90951797E+00
 20
1.34662459E+02
  0
VERTEX
  8
0
 62
6
 10
-7.94886778E+00
 20
1.34548894E+02
  0
VERTEX
  8
0
 62
6
 10
-7.97719067E+00
 20
1.34432641E+02
  0
VERTEX
  8
0
 62
6
 10
-7.99427109E+00
 20
1.34314584E+02
  0
VERTEX
  8
0
 62
6
 10
-7.99997904E+00
 20
1.34195621E+02
  0
SEQEND
  8
0
  0
LINE
  8
0
 62
4
 10
-4.49997902E+00
 20
1.34195621E+02
 11
-4.49997902E+00
 21
1.35830538E+02
  0
POLYLINE
  8
0
 62
4
 66
1
  0
VERTEX
  8
0
 62
4
 10
-8.49997902E+00
 20
1.34195621E+02
  0
VERTEX
  8
0
 62
4
 10
-8.49236842E+00
 20
1.34037004E+02
  0
VERTEX
  8
0
 62
4
 10
-8.46959453E+00
 20
1.33879595E+02
  0
VERTEX
  8
0
 62
4
 10
-8.43183067E+00
 20
1.33724590E+02
  0
VERTEX
  8
0
 62
4
 10
-8.37936426E+00
 20
1.33573171E+02
  0
VERTEX
  8
0
 62
4
 10
-8.31259460E+00
 20
1.33426489E+02
  0
VERTEX
  8
0
 62
4
 10
-8.23202983E+00
 20
1.33285660E+02
  0
VERTEX
  8
0
 62
4
 10
-8.13828311E+00
 20
1.33151756E+02
  0
VERTEX
  8
0
 62
4
 10
-8.03206791E+00
 20
1.33025797E+02
  0
VERTEX
  8
0
 62
4
 10
-7.91419259E+00
 20
1.32908741E+02
  0
VERTEX
  8
0
 62
4
 10
-7.78555424E+00
 20
1.32801480E+02
  0
VERTEX
  8
0
 62
4
 10
-7.64713190E+00
 20
1.32704828E+02
  0
VERTEX
  8
0
 62
4
 10
-7.49997902E+00
 20
1.32619522E+02
  0
VERTEX
  8
0
 62
4
 10
-7.34521555E+00
 20
1.32546211E+02
  0
VERTEX
  8
0
 62
4
 10
-7.18401931E+00
 20
1.32485453E+02
  0
VERTEX
  8
0
 62
4
 10
-7.01761712E+00
 20
1.32437711E+02
  0
VERTEX
  8
0
 62
4
 10
-6.84727538E+00
 20
1.32403347E+02
  0
VERTEX
  8
0
 62
4
 10
-6.67429051E+00
 20
1.32382624E+02
  0
VERTEX
  8
0
 62
4
 10
-6.49997903E+00
 20
1.32375699E+02
  0
VERTEX
  8
0
 62
4
 10
-6.32566754E+00
 20
1.32382624E+02
  0
VERTEX
  8
0
 62
4
 10
-6.15268267E+00
 20
1.32403347E+02
  0
VERTEX
  8
0
 62
4
 10
-5.98234093E+00
 20
1.32437711E+02
  0
VERTEX
  8
0
 62
4
 10
-5.81593874E+00
 20
1.32485453E+02
  0
VERTEX
  8
0
 62
4
 10
-5.65474250E+00
 20
1.32546211E+02
  0
VERTEX
  8
0
 62
4
 10
-5.49997902E+00
 20
1.32619522E+02
  0
VERTEX
  8
0
 62
4
 10
-5.35282615E+00
 20
1.32704828E+02
  0
VERTEX
  8
0
 62
4
 10
-5.21440380E+00
 20
1.32801479E+02
  0
VERTEX
  8
0
 62
4
 10
-5.08576546E+00
 20
1.32908741E+02
  0
VERTEX
  8
0
 62
4
 10
-4.96789014E+00
 20
1.33025797E+02
  0
VERTEX
  8
0
 62
4
 10
-4.86167493E+00
 20
1.33151756E+02
  0
VERTEX
  8
0
 62
4
 10
-4.76792821E+00
 20
1.33285660E+02
  0
VERTEX
  8
0
 62
4
 10
-4.68736345E+00
 20
1.33426489E+02
  0
VERTEX
  8
0
 62
4
 10
-4.62059378E+00
 20
1.33573171E+02
  0
VERTEX
  8
0
 62
4
 10
-4.56812737E+00
 20
1.33724590E+02
  0
VERTEX
  8
0
 62
4
 10
-4.53036351E+00
 20
1.33879595E+02
  0
VERTEX
  8
0
 62
4
 10
-4.50758962E+00
 20
1.34037004E+02
  0
VERTEX
  8
0
 62
4
 10
-4.49997902E+00
 20
1.34195621E+02
  0
VERTEX
  8
0
 62
4
 10
-4.50758962E+00
 20
1.34354238E+02
  0
VERTEX
  8
0
 62
4
 10
-4.53036351E+00
 20
1.34511647E+02
  0
VERTEX
  8
0
 62
4
 10
-4.56812737E+00
 20
1.34666652E+02
  0
VERTEX
  8
0
 62
4
 10
-4.62059378E+00
 20
1.34818071E+02
  0
VERTEX
  8
0
 62
4
 10
-4.68736344E+00
 20
1.34964753E+02
  0
VERTEX
  8
0
 62
4
 10
-4.76792821E+00
 20
1.35105582E+02
  0
VERTEX
  8
0
 62
4
 10
-4.86167493E+00
 20
1.35239486E+02
  0
VERTEX
  8
0
 62
4
 10
-4.96789013E+00
 20
1.35365445E+02
  0
VERTEX
  8
0
 62
4
 10
-5.08576546E+00
 20
1.35482501E+02
  0
VERTEX
  8
0
 62
4
 10
-5.21440380E+00
 20
1.35589763E+02
  0
VERTEX
  8
0
 62
4
 10
-5.35282614E+00
 20
1.35686414E+02
  0
VERTEX
  8
0
 62
4
 10
-5.49997902E+00
 20
1.35771720E+02
  0
VERTEX
  8
0
 62
4
 10
-5.65474249E+00
 20
1.35845031E+02
  0
VERTEX
  8
0
 62
4
 10
-5.81593873E+00
 20
1.35905789E+02
  0
VERTEX
  8
0
 62
4
 10
-5.98234093E+00
 20
1.35953531E+02
  0
VERTEX
  8
0
 62
4
 10
-6.15268266E+00
 20
1.35987895E+02
  0
VERTEX
  8
0
 62
4
 10
-6.32566753E+00
 20
1.36008618E+02
  0
VERTEX
  8
0
 62
4
 10
-6.49997902E+00
 20
1.36015543E+02
  0
VERTEX
  8
0
 62
4
 10
-6.67429050E+00
 20
1.36008618E+02
  0
VERTEX
  8
0
 62
4
 10
-6.84727537E+00
 20
1.35987895E+02
  0
VERTEX
  8
0
 62
4
 10
-7.01761711E+00
 20
1.35953531E+02
  0
VERTEX
  8
0
 62
4
 10
-7.18401930E+00
 20
1.35905789E+02
  0
VERTEX
  8
0
 62
4
 10
-7.34521554E+00
 20
1.35845031E+02
  0
VERTEX
  8
0
 62
4
 10
-7.49997902E+00
 20
1.35771720E+02
  0
VERTEX
  8
0
 62
4
 10
-7.64713189E+00
 20
1.35686414E+02
  0
VERTEX
  8
0
 62
4
 10
-7.78555424E+00
 20
1.35589763E+02
  0
VERTEX
  8
0
 62
4
 10
-7.91419258E+00
 20
1.35482501E+02
  0
VERTEX
  8
0
 62
4
 10
-8.03206791E+00
 20
1.35365445E+02
  0
VERTEX
  8
0
 62
4
 10
-8.13828311E+00
 20
1.35239486E+02
  0
VERTEX
  8
0
 62
4
 10
-8.23202983E+00
 20
1.35105582E+02
  0
VERTEX
  8
0
 62
4
 10
-8.31259459E+00
 20
1.34964753E+02
  0
VERTEX
  8
0
 62
4
 10
-8.37936426E+00
 20
1.34818071E+02
  0
VERTEX
  8
0
 62
4
 10
-8.43183067E+00
 20
1.34666652E+02
  0
VERTEX
  8
0
 62
4
 10
-8.46959453E+00
 20
1.34511647E+02
  0
VERTEX
  8
0
 62
4
 10
-8.49236842E+00
 20
1.34354238E+02
  0
VERTEX
  8
0
 62
4
 10
-8.49997902E+00
 20
1.34195621E+02
  0
SEQEND
  8
0
  0
LINE
  8
0
 62
4
 10
-8.49997902E+00
 20
1.34195621E+02
 11
-8.49997902E+00
 21
1.35830538E+02
  0
POLYLINE
  8
0
 62
4
 66
1
  0
VERTEX
  8
0
 62
4
 10
-4.49997902E+00
 20
1.35830538E+02
  0
VERTEX
  8
0
 62
4
 10
-4.50803043E+00
 20
1.35993675E+02
  0
VERTEX
  8
0
 62
4
 10
-4.53211984E+00
 20
1.36155498E+02
  0
VERTEX
  8
0
 62
4
 10
-4.57205329E+00
 20
1.36314704E+02
  0
VERTEX
  8
0
 62
4
 10
-4.62750927E+00
 20
1.36470013E+02
  0
VERTEX
  8
0
 62
4
 10
-4.69804128E+00
 20
1.36620173E+02
  0
VERTEX
  8
0
 62
4
 10
-4.78308143E+00
 20
1.36763975E+02
  0
VERTEX
  8
0
 62
4
 10
-4.88194502E+00
 20
1.36900262E+02
  0
VERTEX
  8
0
 62
4
 10
-4.99383608E+00
 20
1.37027935E+02
  0
VERTEX
  8
0
 62
4
 10
-5.11785371E+00
 20
1.37145969E+02
  0
VERTEX
  8
0
 62
4
 10
-5.25299940E+00
 20
1.37253411E+02
  0
VERTEX
  8
0
 62
4
 10
-5.39818504E+00
 20
1.37349397E+02
  0
VERTEX
  8
0
 62
4
 10
-5.55224168E+00
 20
1.37433154E+02
  0
VERTEX
  8
0
 62
4
 10
-5.71392894E+00
 20
1.37504007E+02
  0
VERTEX
  8
0
 62
4
 10
-5.88194502E+00
 20
1.37561387E+02
  0
VERTEX
  8
0
 62
4
 10
-6.05493714E+00
 20
1.37604831E+02
  0
VERTEX
  8
0
 62
4
 10
-6.23151247E+00
 20
1.37633990E+02
  0
VERTEX
  8
0
 62
4
 10
-6.41024934E+00
 20
1.37648628E+02
  0
VERTEX
  8
0
 62
4
 10
-6.58970866E+00
 20
1.37648628E+02
  0
VERTEX
  8
0
 62
4
 10
-6.76844553E+00
 20
1.37633990E+02
  0
VERTEX
  8
0
 62
4
 10
-6.94502087E+00
 20
1.37604831E+02
  0
VERTEX
  8
0
 62
4
 10
-7.11801299E+00
 20
1.37561387E+02
  0
VERTEX
  8
0
 62
4
 10
-7.28602907E+00
 20
1.37504007E+02
  0
VERTEX
  8
0
 62
4
 10
-7.44771633E+00
 20
1.37433154E+02
  0
VERTEX
  8
0
 62
4
 10
-7.60177297E+00
 20
1.37349397E+02
  0
VERTEX
  8
0
 62
4
 10
-7.74695861E+00
 20
1.37253411E+02
  0
VERTEX
  8
0
 62
4
 10
-7.88210430E+00
 20
1.37145969E+02
  0
VERTEX
  8
0
 62
4
 10
-8.00612194E+00
 20
1.37027935E+02
  0
VERTEX
  8
0
 62
4
 10
-8.11801300E+00
 20
1.36900262E+02
  0
VERTEX
  8
0
 62
4
 10
-8.21687660E+00
 20
1.36763975E+02
  0
VERTEX
  8
0
 62
4
 10
-8.30191675E+00
 20
1.36620173E+02
  0
VERTEX
  8
0
 62
4
 10
-8.37244875E+00
 20
1.36470013E+02
  0
VERTEX
  8
0
 62
4
 10
-8.42790474E+00
 20
1.36314704E+02
  0
VERTEX
  8
0
 62
4
 10
-8.46783819E+00
 20
1.36155498E+02
  0
VERTEX
  8
0
 62
4
 10
-8.49192761E+00
 20
1.35993675E+02
  0
VERTEX
  8
0
 62
4
 10
-8.49997902E+00
 20
1.35830538E+02
  0
SEQEND
  8
0
  0
LINE
  8
0
 62
4
 10
-6.89999981E+01
 20
1.54069733E+02
 11
-6.90907311E+01
 21
1.54000023E+02
  0
LINE
  8
0
 62
4
 10
-6.89999981E+01
 20
1.54069733E+02
 11
-5.68861708E+01
 21
1.54069733E+02
  0
LINE
  8
0
 62
4
 10
-6.89999981E+01
 20
1.54069733E+02
 11
-6.89999981E+01
 21
1.54000023E+02
  0
POLYLINE
  8
0
 62
4
 66
1
  0
VERTEX
  8
0
 62
4
 10
-4.87639664E+01
 20
1.63002404E+02
  0
VERTEX
  8
0
 62
4
 10
-4.90229686E+01
 20
1.62810975E+02
  0
VERTEX
  8
0
 62
4
 10
-4.92625178E+01
 20
1.62599609E+02
  0
VERTEX
  8
0
 62
4
 10
-4.94807669E+01
 20
1.62369935E+02
  0
VERTEX
  8
0
 62
4
 10
-4.96760332E+01
 20
1.62123726E+02
  0
VERTEX
  8
0
 62
4
 10
-4.98468110E+01
 20
1.61862878E+02
  0
VERTEX
  8
0
 62
4
 10
-4.99917836E+01
 20
1.61589403E+02
  0
VERTEX
  8
0
 62
4
 10
-5.01098332E+01
 20
1.61305411E+02
  0
VERTEX
  8
0
 62
4
 10
-5.02000496E+01
 20
1.61013089E+02
  0
VERTEX
  8
0
 62
4
 10
-5.02617372E+01
 20
1.60714693E+02
  0
VERTEX
  8
0
 62
4
 10
-5.02944204E+01
 20
1.60412524E+02
  0
VERTEX
  8
0
 62
4
 10
-5.02978471E+01
 20
1.60108910E+02
  0
VERTEX
  8
0
 62
4
 10
-5.02719909E+01
 20
1.59806193E+02
  0
VERTEX
  8
0
 62
4
 10
-5.02170513E+01
 20
1.59506707E+02
  0
VERTEX
  8
0
 62
4
 10
-5.01334518E+01
 20
1.59212761E+02
  0
VERTEX
  8
0
 62
4
 10
-5.00218369E+01
 20
1.58926622E+02
  0
VERTEX
  8
0
 62
4
 10
-4.98830673E+01
 20
1.58650496E+02
  0
VERTEX
  8
0
 62
4
 10
-4.97182130E+01
 20
1.58386512E+02
  0
VERTEX
  8
0
 62
4
 10
-4.95285450E+01
 20
1.58136705E+02
  0
VERTEX
  8
0
 62
4
 10
-4.93155258E+01
 20
1.57903001E+02
  0
VERTEX
  8
0
 62
4
 10
-4.90807977E+01
 20
1.57687203E+02
  0
VERTEX
  8
0
 62
4
 10
-4.88261708E+01
 20
1.57490974E+02
  0
VERTEX
  8
0
 62
4
 10
-4.85536081E+01
 20
1.57315827E+02
  0
VERTEX
  8
0
 62
4
 10
-4.82652113E+01
 20
1.57163113E+02
  0
VERTEX
  8
0
 62
4
 10
-4.79632041E+01
 20
1.57034009E+02
  0
VERTEX
  8
0
 62
4
 10
-4.76499150E+01
 20
1.56929510E+02
  0
VERTEX
  8
0
 62
4
 10
-4.73277595E+01
 20
1.56850423E+02
  0
VERTEX
  8
0
 62
4
 10
-4.69992218E+01
 20
1.56797357E+02
  0
VERTEX
  8
0
 62
4
 10
-4.66668348E+01
 20
1.56770721E+02
  0
VERTEX
  8
0
 62
4
 10
-4.63331615E+01
 20
1.56770721E+02
  0
VERTEX
  8
0
 62
4
 10
-4.60007745E+01
 20
1.56797357E+02
  0
VERTEX
  8
0
 62
4
 10
-4.56722367E+01
 20
1.56850423E+02
  0
VERTEX
  8
0
 62
4
 10
-4.53500813E+01
 20
1.56929510E+02
  0
VERTEX
  8
0
 62
4
 10
-4.50367922E+01
 20
1.57034008E+02
  0
VERTEX
  8
0
 62
4
 10
-4.47347849E+01
 20
1.57163112E+02
  0
VERTEX
  8
0
 62
4
 10
-4.44463882E+01
 20
1.57315827E+02
  0
VERTEX
  8
0
 62
4
 10
-4.41738255E+01
 20
1.57490974E+02
  0
VERTEX
  8
0
 62
4
 10
-4.39191985E+01
 20
1.57687203E+02
  0
VERTEX
  8
0
 62
4
 10
-4.36844705E+01
 20
1.57903001E+02
  0
VERTEX
  8
0
 62
4
 10
-4.34714512E+01
 20
1.58136705E+02
  0
VERTEX
  8
0
 62
4
 10
-4.32817832E+01
 20
1.58386512E+02
  0
VERTEX
  8
0
 62
4
 10
-4.31169289E+01
 20
1.58650496E+02
  0
VERTEX
  8
0
 62
4
 10
-4.29781593E+01
 20
1.58926622E+02
  0
VERTEX
  8
0
 62
4
 10
-4.28665445E+01
 20
1.59212761E+02
  0
VERTEX
  8
0
 62
4
 10
-4.27829449E+01
 20
1.59506707E+02
  0
VERTEX
  8
0
 62
4
 10
-4.27280053E+01
 20
1.59806193E+02
  0
VERTEX
  8
0
 62
4
 10
-4.27021491E+01
 20
1.60108910E+02
  0
VERTEX
  8
0
 62
4
 10
-4.27055758E+01
 20
1.60412524E+02
  0
VERTEX
  8
0
 62
4
 10
-4.27382590E+01
 20
1.60714693E+02
  0
VERTEX
  8
0
 62
4
 10
-4.27999466E+01
 20
1.61013089E+02
  0
VERTEX
  8
0
 62
4
 10
-4.28901630E+01
 20
1.61305411E+02
  0
VERTEX
  8
0
 62
4
 10
-4.30082126E+01
 20
1.61589403E+02
  0
VERTEX
  8
0
 62
4
 10
-4.31531852E+01
 20
1.61862878E+02
  0
VERTEX
  8
0
 62
4
 10
-4.33239630E+01
 20
1.62123726E+02
  0
VERTEX
  8
0
 62
4
 10
-4.35192292E+01
 20
1.62369935E+02
  0
VERTEX
  8
0
 62
4
 10
-4.37374784E+01
 20
1.62599609E+02
  0
VERTEX
  8
0
 62
4
 10
-4.39770275E+01
 20
1.62810975E+02
  0
VERTEX
  8
0
 62
4
 10
-4.42360298E+01
 20
1.63002404E+02
  0
SEQEND
  8
0
  0
POLYLINE
  8
0
 62
4
 66
1
  0
VERTEX
  8
0
 62
4
 10
-4.98999981E+01
 20
1.60225240E+02
  0
VERTEX
  8
0
 62
4
 10
-4.98863107E+01
 20
1.59947908E+02
  0
VERTEX
  8
0
 62
4
 10
-4.98453587E+01
 20
1.59672808E+02
  0
VERTEX
  8
0
 62
4
 10
-4.97774719E+01
 20
1.59402157E+02
  0
VERTEX
  8
0
 62
4
 10
-4.96831967E+01
 20
1.59138133E+02
  0
VERTEX
  8
0
 62
4
 10
-4.95632923E+01
 20
1.58882861E+02
  0
VERTEX
  8
0
 62
4
 10
-4.94187240E+01
 20
1.58638397E+02
  0
VERTEX
  8
0
 62
4
 10
-4.92506559E+01
 20
1.58406710E+02
  0
VERTEX
  8
0
 62
4
 10
-4.90604411E+01
 20
1.58189664E+02
  0
VERTEX
  8
0
 62
4
 10
-4.88496111E+01
 20
1.57989008E+02
  0
VERTEX
  8
0
 62
4
 10
-4.86198635E+01
 20
1.57806356E+02
  0
VERTEX
  8
0
 62
4
 10
-4.83730479E+01
 20
1.57643180E+02
  0
VERTEX
  8
0
 62
4
 10
-4.81111516E+01
 20
1.57500793E+02
  0
VERTEX
  8
0
 62
4
 10
-4.78362832E+01
 20
1.57380342E+02
  0
VERTEX
  8
0
 62
4
 10
-4.75506559E+01
 20
1.57282796E+02
  0
VERTEX
  8
0
 62
4
 10
-4.72565693E+01
 20
1.57208941E+02
  0
VERTEX
  8
0
 62
4
 10
-4.69563912E+01
 20
1.57159372E+02
  0
VERTEX
  8
0
 62
4
 10
-4.66525385E+01
 20
1.57134487E+02
  0
VERTEX
  8
0
 62
4
 10
-4.63474577E+01
 20
1.57134487E+02
  0
VERTEX
  8
0
 62
4
 10
-4.60436050E+01
 20
1.57159372E+02
  0
VERTEX
  8
0
 62
4
 10
-4.57434269E+01
 20
1.57208941E+02
  0
VERTEX
  8
0
 62
4
 10
-4.54493403E+01
 20
1.57282796E+02
  0
VERTEX
  8
0
 62
4
 10
-4.51637130E+01
 20
1.57380342E+02
  0
VERTEX
  8
0
 62
4
 10
-4.48888447E+01
 20
1.57500793E+02
  0
VERTEX
  8
0
 62
4
 10
-4.46269484E+01
 20
1.57643180E+02
  0
VERTEX
  8
0
 62
4
 10
-4.43801328E+01
 20
1.57806356E+02
  0
VERTEX
  8
0
 62
4
 10
-4.41503851E+01
 20
1.57989008E+02
  0
VERTEX
  8
0
 62
4
 10
-4.39395551E+01
 20
1.58189664E+02
  0
VERTEX
  8
0
 62
4
 10
-4.37493403E+01
 20
1.58406710E+02
  0
VERTEX
  8
0
 62
4
 10
-4.35812722E+01
 20
1.58638397E+02
  0
VERTEX
  8
0
 62
4
 10
-4.34367039E+01
 20
1.58882861E+02
  0
VERTEX
  8
0
 62
4
 10
-4.33167995E+01
 20
1.59138133E+02
  0
VERTEX
  8
0
 62
4
 10
-4.32225244E+01
 20
1.59402157E+02
  0
VERTEX
  8
0
 62
4
 10
-4.31546375E+01
 20
1.59672808E+02
  0
VERTEX
  8
0
 62
4
 10
-4.31136855E+01
 20
1.59947908E+02
  0
VERTEX
  8
0
 62
4
 10
-4.30999981E+01
 20
1.60225240E+02
  0
SEQEND
  8
0
  0
POLYLINE
  8
0
 62
4
 66
1
  0
VERTEX
  8
0
 62
4
 10
-4.98999981E+01
 20
1.60694176E+02
  0
VERTEX
  8
0
 62
4
 10
-4.98870601E+01
 20
1.60424528E+02
  0
VERTEX
  8
0
 62
4
 10
-4.98483445E+01
 20
1.60156931E+02
  0
VERTEX
  8
0
 62
4
 10
-4.97841459E+01
 20
1.59893424E+02
  0
VERTEX
  8
0
 62
4
 10
-4.96949530E+01
 20
1.59636011E+02
  0
VERTEX
  8
0
 62
4
 10
-4.95814446E+01
 20
1.59386651E+02
  0
VERTEX
  8
0
 62
4
 10
-4.94444845E+01
 20
1.59147242E+02
  0
VERTEX
  8
0
 62
4
 10
-4.92851151E+01
 20
1.58919606E+02
  0
VERTEX
  8
0
 62
4
 10
-4.91045492E+01
 20
1.58705476E+02
  0
VERTEX
  8
0
 62
4
 10
-4.89041612E+01
 20
1.58506481E+02
  0
VERTEX
  8
0
 62
4
 10
-4.86854760E+01
 20
1.58324135E+02
  0
VERTEX
  8
0
 62
4
 10
-4.84501580E+01
 20
1.58159827E+02
  0
VERTEX
  8
0
 62
4
 10
-4.81999981E+01
 20
1.58014807E+02
  0
VERTEX
  8
0
 62
4
 10
-4.79369002E+01
 20
1.57890179E+02
  0
VERTEX
  8
0
 62
4
 10
-4.76628666E+01
 20
1.57786891E+02
  0
VERTEX
  8
0
 62
4
 10
-4.73799829E+01
 20
1.57705729E+02
  0
VERTEX
  8
0
 62
4
 10
-4.70904019E+01
 20
1.57647310E+02
  0
VERTEX
  8
0
 62
4
 10
-4.67963276E+01
 20
1.57612081E+02
  0
VERTEX
  8
0
 62
4
 10
-4.64999981E+01
 20
1.57600308E+02
  0
VERTEX
  8
0
 62
4
 10
-4.62036686E+01
 20
1.57612081E+02
  0
VERTEX
  8
0
 62
4
 10
-4.59095943E+01
 20
1.57647310E+02
  0
VERTEX
  8
0
 62
4
 10
-4.56200133E+01
 20
1.57705729E+02
  0
VERTEX
  8
0
 62
4
 10
-4.53371296E+01
 20
1.57786891E+02
  0
VERTEX
  8
0
 62
4
 10
-4.50630960E+01
 20
1.57890179E+02
  0
VERTEX
  8
0
 62
4
 10
-4.47999981E+01
 20
1.58014807E+02
  0
VERTEX
  8
0
 62
4
 10
-4.45498382E+01
 20
1.58159827E+02
  0
VERTEX
  8
0
 62
4
 10
-4.43145202E+01
 20
1.58324135E+02
  0
VERTEX
  8
0
 62
4
 10
-4.40958350E+01
 20
1.58506481E+02
  0
VERTEX
  8
0
 62
4
 10
-4.38954470E+01
 20
1.58705476E+02
  0
VERTEX
  8
0
 62
4
 10
-4.37148811E+01
 20
1.58919606E+02
  0
VERTEX
  8
0
 62
4
 10
-4.35555117E+01
 20
1.59147242E+02
  0
VERTEX
  8
0
 62
4
 10
-4.34185516E+01
 20
1.59386651E+02
  0
VERTEX
  8
0
 62
4
 10
-4.33050432E+01
 20
1.59636011E+02
  0
VERTEX
  8
0
 62
4
 10
-4.32158503E+01
 20
1.59893424E+02
  0
VERTEX
  8
0
 62
4
 10
-4.31516517E+01
 20
1.60156931E+02
  0
VERTEX
  8
0
 62
4
 10
-4.31129361E+01
 20
1.60424528E+02
  0
VERTEX
  8
0
 62
4
 10
-4.30999981E+01
 20
1.60694176E+02
  0
VERTEX
  8
0
 62
4
 10
-4.31129361E+01
 20
1.60963824E+02
  0
VERTEX
  8
0
 62
4
 10
-4.31516517E+01
 20
1.61231421E+02
  0
VERTEX
  8
0
 62
4
 10
-4.32158503E+01
 20
1.61494928E+02
  0
VERTEX
  8
0
 62
4
 10
-4.33050432E+01
 20
1.61752341E+02
  0
VERTEX
  8
0
 62
4
 10
-4.34185516E+01
 20
1.62001701E+02
  0
VERTEX
  8
0
 62
4
 10
-4.35555117E+01
 20
1.62241110E+02
  0
VERTEX
  8
0
 62
4
 10
-4.37148811E+01
 20
1.62468746E+02
  0
VERTEX
  8
0
 62
4
 10
-4.38954470E+01
 20
1.62682876E+02
  0
VERTEX
  8
0
 62
4
 10
-4.40958350E+01
 20
1.62881871E+02
  0
VERTEX
  8
0
 62
4
 10
-4.43145202E+01
 20
1.63064217E+02
  0
VERTEX
  8
0
 62
4
 10
-4.45498382E+01
 20
1.63228525E+02
  0
VERTEX
  8
0
 62
4
 10
-4.47999981E+01
 20
1.63373545E+02
  0
VERTEX
  8
0
 62
4
 10
-4.50630960E+01
 20
1.63498173E+02
  0
VERTEX
  8
0
 62
4
 10
-4.53371296E+01
 20
1.63601461E+02
  0
VERTEX
  8
0
 62
4
 10
-4.56200133E+01
 20
1.63682623E+02
  0
VERTEX
  8
0
 62
4
 10
-4.59095943E+01
 20
1.63741042E+02
  0
VERTEX
  8
0
 62
4
 10
-4.62036686E+01
 20
1.63776271E+02
  0
VERTEX
  8
0
 62
4
 10
-4.64999981E+01
 20
1.63788044E+02
  0
VERTEX
  8
0
 62
4
 10
-4.67963276E+01
 20
1.63776271E+02
  0
VERTEX
  8
0
 62
4
 10
-4.70904019E+01
 20
1.63741042E+02
  0
VERTEX
  8
0
 62
4
 10
-4.73799829E+01
 20
1.63682623E+02
  0
VERTEX
  8
0
 62
4
 10
-4.76628666E+01
 20
1.63601461E+02
  0
VERTEX
  8
0
 62
4
 10
-4.79369002E+01
 20
1.63498173E+02
  0
VERTEX
  8
0
 62
4
 10
-4.81999981E+01
 20
1.63373545E+02
  0
VERTEX
  8
0
 62
4
 10
-4.84501580E+01
 20
1.63228525E+02
  0
VERTEX
  8
0
 62
4
 10
-4.86854760E+01
 20
1.63064217E+02
  0
VERTEX
  8
0
 62
4
 10
-4.89041612E+01
 20
1.62881871E+02
  0
VERTEX
  8
0
 62
4
 10
-4.91045492E+01
 20
1.62682876E+02
  0
VERTEX
  8
0
 62
4
 10
-4.92851151E+01
 20
1.62468746E+02
  0
VERTEX
  8
0
 62
4
 10
-4.94444845E+01
 20
1.62241110E+02
  0
VERTEX
  8
0
 62
4
 10
-4.95814446E+01
 20
1.62001701E+02
  0
VERTEX
  8
0
 62
4
 10
-4.96949530E+01
 20
1.61752341E+02
  0
VERTEX
  8
0
 62
4
 10
-4.97841459E+01
 20
1.61494928E+02
  0
VERTEX
  8
0
 62
4
 10
-4.98483445E+01
 20
1.61231421E+02
  0
VERTEX
  8
0
 62
4
 10
-4.98870601E+01
 20
1.60963824E+02
  0
VERTEX
  8
0
 62
4
 10
-4.98999981E+01
 20
1.60694176E+02
  0
SEQEND
  8
0
  0
POLYLINE
  8
0
 62
4
 66
1
  0
VERTEX
  8
0
 62
4
 10
-4.99622041E+01
 20
1.58385323E+02
  0
VERTEX
  8
0
 62
4
 10
-4.98118311E+01
 20
1.58115047E+02
  0
VERTEX
  8
0
 62
4
 10
-4.96360385E+01
 20
1.57857784E+02
  0
VERTEX
  8
0
 62
4
 10
-4.94361756E+01
 20
1.57615510E+02
  0
VERTEX
  8
0
 62
4
 10
-4.92137763E+01
 20
1.57390083E+02
  0
VERTEX
  8
0
 62
4
 10
-4.89705478E+01
 20
1.57183234E+02
  0
VERTEX
  8
0
 62
4
 10
-4.87083568E+01
 20
1.56996551E+02
  0
VERTEX
  8
0
 62
4
 10
-4.84292158E+01
 20
1.56831467E+02
  0
VERTEX
  8
0
 62
4
 10
-4.81352673E+01
 20
1.56689248E+02
  0
VERTEX
  8
0
 62
4
 10
-4.78287674E+01
 20
1.56570986E+02
  0
VERTEX
  8
0
 62
4
 10
-4.75120688E+01
 20
1.56477589E+02
  0
VERTEX
  8
0
 62
4
 10
-4.71876021E+01
 20
1.56409774E+02
  0
VERTEX
  8
0
 62
4
 10
-4.68578577E+01
 20
1.56368062E+02
  0
VERTEX
  8
0
 62
4
 10
-4.65253667E+01
 20
1.56352771E+02
  0
VERTEX
  8
0
 62
4
 10
-4.61926809E+01
 20
1.56364021E+02
  0
VERTEX
  8
0
 62
4
 10
-4.58623539E+01
 20
1.56401724E+02
  0
VERTEX
  8
0
 62
4
 10
-4.55369211E+01
 20
1.56465590E+02
  0
VERTEX
  8
0
 62
4
 10
-4.52188803E+01
 20
1.56555131E+02
  0
VERTEX
  8
0
 62
4
 10
-4.49106726E+01
 20
1.56669659E+02
  0
VERTEX
  8
0
 62
4
 10
-4.46146635E+01
 20
1.56808293E+02
  0
VERTEX
  8
0
 62
4
 10
-4.43331252E+01
 20
1.56969972E+02
  0
VERTEX
  8
0
 62
4
 10
-4.40682184E+01
 20
1.57153453E+02
  0
VERTEX
  8
0
 62
4
 10
-4.38219765E+01
 20
1.57357328E+02
  0
VERTEX
  8
0
 62
4
 10
-4.35962894E+01
 20
1.57580032E+02
  0
VERTEX
  8
0
 62
4
 10
-4.33928895E+01
 20
1.57819857E+02
  0
VERTEX
  8
0
 62
4
 10
-4.32133378E+01
 20
1.58074961E+02
  0
VERTEX
  8
0
 62
4
 10
-4.30590125E+01
 20
1.58343386E+02
  0
VERTEX
  8
0
 62
4
 10
-4.29310982E+01
 20
1.58623072E+02
  0
VERTEX
  8
0
 62
4
 10
-4.28305765E+01
 20
1.58911873E+02
  0
VERTEX
  8
0
 62
4
 10
-4.27582191E+01
 20
1.59207571E+02
  0
VERTEX
  8
0
 62
4
 10
-4.27145813E+01
 20
1.59507898E+02
  0
VERTEX
  8
0
 62
4
 10
-4.26999981E+01
 20
1.59810547E+02
  0
SEQEND
  8
0
  0
ARC
  8
0
 62
4
 10
-9.35808403E+01
 20
1.09426181E+02
 40
6.99948777E+01
 50
4.57421700E+01
 51
4.96558689E+01
  0
ARC
  8
0
 62
4
 10
5.80844147E-01
 20
1.09426181E+02
 40
6.99948777E+01
 50
1.30344131E+02
 51
1.34257830E+02
  0
LINE
  8
0
 62
4
 10
-4.30999981E+01
 20
1.60225240E+02
 11
-4.30999981E+01
 21
1.60694176E+02
  0
LINE
  8
0
 62
4
 10
-4.26999981E+01
 20
1.59810547E+02
 11
-4.26999981E+01
 21
1.60225240E+02
  0
LINE
  8
0
 62
4
 10
-4.98999981E+01
 20
1.60225240E+02
 11
-4.98999981E+01
 21
1.60694176E+02
  0
LINE
  8
0
 62
4
 10
-5.02999981E+01
 20
1.59810547E+02
 11
-5.02999981E+01
 21
1.60225240E+02
  0
POLYLINE
  8
0
 62
4
 66
1
  0
VERTEX
  8
0
 62
4
 10
-5.02999981E+01
 20
1.59810547E+02
  0
VERTEX
  8
0
 62
4
 10
-5.02940094E+01
 20
1.59616491E+02
  0
VERTEX
  8
0
 62
4
 10
-5.02760620E+01
 20
1.59423047E+02
  0
VERTEX
  8
0
 62
4
 10
-5.02462125E+01
 20
1.59230824E+02
  0
VERTEX
  8
0
 62
4
 10
-5.02045551E+01
 20
1.59040429E+02
  0
SEQEND
  8
0
  0
ARC
  8
0
 62
4
 10
-9.17816884E+01
 20
1.16254892E+02
 40
5.61787639E+01
 50
4.52517517E+01
 51
5.01291401E+01
  0
ARC
  8
0
 62
4
 10
-1.62182435E+01
 20
1.16254822E+02
 40
5.61788594E+01
 50
1.29870864E+02
 51
1.34748244E+02
  0
LINE
  8
0
 62
4
 10
-4.98499981E+01
 20
1.56783266E+02
 11
-4.98499981E+01
 21
1.57513126E+02
  0
POLYLINE
  8
0
 62
4
 66
1
  0
VERTEX
  8
0
 62
4
 10
-5.81499981E+01
 20
1.56783266E+02
  0
VERTEX
  8
0
 62
4
 10
-5.81324200E+01
 20
1.56436060E+02
  0
VERTEX
  8
0
 62
4
 10
-5.80798348E+01
 20
1.56091796E+02
  0
VERTEX
  8
0
 62
4
 10
-5.79926878E+01
 20
1.55753389E+02
  0
VERTEX
  8
0
 62
4
 10
-5.78717173E+01
 20
1.55423706E+02
  0
VERTEX
  8
0
 62
4
 10
-5.77179481E+01
 20
1.55105541E+02
  0
VERTEX
  8
0
 62
4
 10
-5.75326829E+01
 20
1.54801589E+02
  0
VERTEX
  8
0
 62
4
 10
-5.73174910E+01
 20
1.54514424E+02
  0
VERTEX
  8
0
 62
4
 10
-5.70741955E+01
 20
1.54246479E+02
  0
VERTEX
  8
0
 62
4
 10
-5.68048574E+01
 20
1.54000024E+02
  0
SEQEND
  8
0
  0
LINE
  8
0
 62
4
 10
-5.81499981E+01
 20
1.56783266E+02
 11
-5.81499981E+01
 21
1.57513126E+02
  0
LINE
  8
0
 62
4
 10
-6.89999981E+01
 20
1.54441775E+02
 11
-5.72559565E+01
 21
1.54441775E+02
  0
LINE
  8
0
 62
4
 10
-5.07440396E+01
 20
1.54441775E+02
 11
-3.89999981E+01
 21
1.54441775E+02
  0
LINE
  8
0
 62
4
 10
-5.11138254E+01
 20
1.54069733E+02
 11
-4.54999981E+01
 21
1.54069733E+02
  0
LINE
  8
0
 62
4
 10
2.00000210E+01
 20
1.54069733E+02
 11
2.15000210E+01
 21
1.52917284E+02
  0
LINE
  8
0
 62
4
 10
2.15000210E+01
 20
1.50856221E+02
 11
2.00000210E+01
 21
1.50429888E+02
  0
LINE
  8
0
 62
4
 10
2.15000210E+01
 20
1.49916941E+02
 11
2.00000210E+01
 21
1.48771115E+02
  0
LINE
  8
0
 62
4
 10
2.15000210E+01
 20
1.52917284E+02
 11
2.15000210E+01
 21
1.49916941E+02
  0
LINE
  8
0
 62
7
 10
2.80000019E+01
 20
1.47000008E+02
 11
2.00000210E+01
 21
1.47000008E+02
  0
LINE
  8
0
 62
7
 10
2.80000019E+01
 20
1.37999977E+02
 11
5.00002098E+00
 21
1.37999977E+02
  0
LINE
  8
0
 62
7
 10
2.80000019E+01
 20
6.29999771E+01
 11
-8.29999981E+01
 21
6.29999771E+01
  0
LINE
  8
0
 62
7
 10
2.80000019E+01
 20
5.39999466E+01
 11
-8.29999981E+01
 21
5.39999466E+01
  0
LINE
  8
0
 62
7
 10
2.00907640E+01
 20
1.54000015E+02
 11
2.80000248E+01
 21
1.54000015E+02
  0
LINE
  8
0
 62
7
 10
-9.99997902E+00
 20
1.47000008E+02
 11
-8.29999981E+01
 21
1.47000008E+02
  0
LINE
  8
0
 62
7
 10
-9.99997902E+00
 20
1.37999977E+02
 11
-8.29999981E+01
 21
1.37999977E+02
  0
LINE
  8
0
 62
7
 10
-3.14948844E+02
 20
1.57500000E+02
 11
-3.07999983E+02
 21
1.57500000E+02
  0
LINE
  8
0
 62
7
 10
-3.82906009E+02
 20
1.57500000E+02
 11
-3.35093895E+02
 21
1.57500000E+02
  0
ARC
  8
0
 62
7
 10
-3.07999983E+02
 20
4.95000000E+01
 40
6.00000000E+00
 50
2.70000000E+02
 51
0.00000000E+00
  0
LINE
  8
0
 62
7
 10
-4.09999983E+02
 20
4.35000000E+01
 11
-3.07999983E+02
 21
4.35000000E+01
  0
ARC
  8
0
 62
7
 10
-4.09999983E+02
 20
4.95000000E+01
 40
6.00000000E+00
 50
1.80000000E+02
 51
2.70000000E+02
  0
LINE
  8
0
 62
7
 10
-4.15999983E+02
 20
1.51500000E+02
 11
-4.15999983E+02
 21
4.95000000E+01
  0
ARC
  8
0
 62
7
 10
-4.09999983E+02
 20
1.51500000E+02
 40
6.00000000E+00
 50
9.00000002E+01
 51
1.80000000E+02
  0
LINE
  8
0
 62
7
 10
-3.01999983E+02
 20
1.51500000E+02
 11
-3.01999983E+02
 21
4.95000000E+01
  0
ARC
  8
0
 62
7
 10
-3.07999983E+02
 20
1.51500000E+02
 40
6.00000000E+00
 50
0.00000000E+00
 51
9.00000002E+01
  0
LINE
  8
0
 62
7
 10
-4.09999983E+02
 20
1.57500000E+02
 11
-4.03051061E+02
 21
1.57500000E+02
  0
LINE
  8
0
 62
7
 10
-3.03599928E+02
 20
1.51500000E+02
 11
-3.03599928E+02
 21
4.94999657E+01
  0
LINE
  8
0
 62
7
 10
-4.09999922E+02
 20
4.51000061E+01
 11
-3.07999952E+02
 21
4.51000061E+01
  0
LINE
  8
0
 62
7
 10
-3.06599928E+02
 20
1.25516159E+02
 11
-3.06599928E+02
 21
7.54840431E+01
  0
LINE
  8
0
 62
7
 10
-3.07599928E+02
 20
1.01750000E+02
 11
-3.33097425E+02
 21
1.01750000E+02
  0
LINE
  8
0
 62
7
 10
-3.39800205E+02
 20
8.30681150E+01
 11
-3.24810549E+02
 21
6.80784546E+01
  0
LINE
  8
0
 62
7
 10
-3.41568124E+02
 20
8.13002835E+01
 11
-3.26578467E+02
 21
6.63106231E+01
  0
LINE
  8
0
 62
7
 10
-3.07599928E+02
 20
9.92500000E+01
 11
-3.33097425E+02
 21
9.92500000E+01
  0
LINE
  8
0
 62
7
 10
-3.76432154E+02
 20
8.13004218E+01
 11
-3.91421835E+02
 21
6.63107423E+01
  0
LINE
  8
0
 62
7
 10
-3.78199921E+02
 20
8.30682752E+01
 11
-3.93189602E+02
 21
6.80785957E+01
  0
LINE
  8
0
 62
7
 10
-3.84015882E+02
 20
4.81000099E+01
 11
-3.33983747E+02
 21
4.81000099E+01
  0
LINE
  8
0
 62
7
 10
-3.60249983E+02
 20
4.90999680E+01
 11
-3.60249983E+02
 21
7.45974579E+01
  0
LINE
  8
0
 62
7
 10
-4.10399977E+02
 20
9.92500000E+01
 11
-3.84902479E+02
 21
9.92500000E+01
  0
LINE
  8
0
 62
7
 10
-3.02999952E+02
 20
1.51500000E+02
 11
-3.02999952E+02
 21
4.95000038E+01
  0
LINE
  8
0
  6
CENTER
 62
2
 10
-3.16999952E+02
 20
1.59392731E+02
 11
-3.16999952E+02
 21
1.27642189E+02
  0
LINE
  8
0
 62
7
 10
-4.09999922E+02
 20
4.45000038E+01
 11
-3.07999952E+02
 21
4.45000038E+01
  0
LINE
  8
0
  6
CENTER
 62
2
 10
-4.00999952E+02
 20
4.28217163E+01
 11
-4.00999952E+02
 21
7.28636513E+01
  0
LINE
  8
0
  6
CENTER
 62
2
 10
-4.17068525E+02
 20
5.84999924E+01
 11
-3.85503767E+02
 21
5.84999924E+01
  0
LINE
  8
0
 62
7
 10
-3.57749983E+02
 20
4.90999680E+01
 11
-3.57749983E+02
 21
7.45974579E+01
  0
LINE
  8
0
 62
7
 10
-3.57749983E+02
 20
1.51900009E+02
 11
-3.57749983E+02
 21
1.26402557E+02
  0
LINE
  8
0
  6
CENTER
 62
2
 10
-3.40999952E+02
 20
1.58286575E+02
 11
-3.40999952E+02
 21
1.13154861E+02
  0
LINE
  8
0
 62
7
 10
-3.41568175E+02
 20
1.19699986E+02
 11
-3.26578513E+02
 21
1.34689642E+02
  0
LINE
  8
0
 62
7
 10
-3.39800365E+02
 20
1.17932176E+02
 11
-3.24810682E+02
 21
1.32921853E+02
  0
LINE
  8
0
 62
7
 10
-3.23999983E+02
 20
1.56500000E+02
 11
-3.23999983E+02
 21
1.55900024E+02
  0
LINE
  8
0
 62
7
 10
-3.93999983E+02
 20
4.51000061E+01
 11
-3.93999983E+02
 21
4.45000038E+01
  0
LINE
  8
0
 62
7
 10
-3.23999983E+02
 20
4.51000061E+01
 11
-3.23999983E+02
 21
4.45000038E+01
  0
LINE
  8
0
 62
7
 10
-4.09999922E+02
 20
1.55900024E+02
 11
-3.07999952E+02
 21
1.55900024E+02
  0
LINE
  8
0
 62
7
 10
-4.14399946E+02
 20
1.51500015E+02
 11
-4.14399946E+02
 21
4.95000038E+01
  0
LINE
  8
0
 62
7
 10
-3.78199831E+02
 20
1.17931927E+02
 11
-3.93189490E+02
 21
1.32921585E+02
  0
LINE
  8
0
 62
7
 10
-3.76432129E+02
 20
1.19699802E+02
 11
-3.91421788E+02
 21
1.34689460E+02
  0
LINE
  8
0
 62
7
 10
-3.84016096E+02
 20
1.52900009E+02
 11
-3.33983961E+02
 21
1.52900009E+02
  0
LINE
  8
0
 62
7
 10
-4.11399977E+02
 20
1.25515961E+02
 11
-4.11399977E+02
 21
7.56844673E+01
  0
LINE
  8
0
 62
7
 10
-4.10399977E+02
 20
1.01750000E+02
 11
-3.84902479E+02
 21
1.01750000E+02
  0
LINE
  8
0
 62
7
 10
-3.60249983E+02
 20
1.51900009E+02
 11
-3.60249983E+02
 21
1.26402534E+02
  0
LINE
  8
0
 62
7
 10
-4.09999922E+02
 20
1.56500000E+02
 11
-3.07999952E+02
 21
1.56500000E+02
  0
LINE
  8
0
 62
7
 10
-4.14999922E+02
 20
1.51500000E+02
 11
-4.14999922E+02
 21
4.95000038E+01
  0
LINE
  8
0
  6
CENTER
 62
2
 10
-4.16963850E+02
 20
1.42500008E+02
 11
-3.85108931E+02
 21
1.42500008E+02
  0
LINE
  8
0
  6
CENTER
 62
2
 10
-4.00999952E+02
 20
1.58980774E+02
 11
-4.00999952E+02
 21
1.28073799E+02
  0
LINE
  8
0
 62
7
 10
-3.93999983E+02
 20
1.56500000E+02
 11
-3.93999983E+02
 21
1.55900024E+02
  0
LINE
  8
0
  6
CENTER
 62
2
 10
-3.58999983E+02
 20
1.59166321E+02
 11
-3.58999983E+02
 21
4.30072632E+01
  0
LINE
  8
0
  6
CENTER
 62
2
 10
-3.31806166E+02
 20
5.84999924E+01
 11
-3.00624281E+02
 21
5.84999924E+01
  0
LINE
  8
0
  6
CENTER
 62
2
 10
-3.31806166E+02
 20
1.42500008E+02
 11
-3.00716749E+02
 21
1.42500008E+02
  0
LINE
  8
0
  6
CENTER
 62
2
 10
-3.70999952E+02
 20
1.16543854E+02
 11
-3.70999952E+02
 21
1.58763611E+02
  0
LINE
  8
0
  6
CENTER
 62
2
 10
-3.16999952E+02
 20
4.29277000E+01
 11
-3.16999952E+02
 21
7.34962044E+01
  0
LINE
  8
0
  6
CENTER
 62
2
 10
-3.01138990E+02
 20
1.00500000E+02
 11
-4.16904951E+02
 21
1.00500000E+02
  0
CIRCLE
  8
0
 62
7
 10
-3.16999952E+02
 20
1.42500008E+02
 40
8.69999981E+00
  0
CIRCLE
  8
0
 62
7
 10
-3.16999952E+02
 20
5.84999924E+01
 40
8.69999981E+00
  0
CIRCLE
  8
0
 62
7
 10
-4.00999952E+02
 20
5.84999695E+01
 40
8.69999981E+00
  0
ARC
  8
0
 62
7
 10
-3.24103437E+02
 20
1.32214539E+02
 40
1.00000000E+00
 50
5.53696252E+01
 51
1.34999959E+02
  0
ARC
  8
0
 62
7
 10
-3.27285383E+02
 20
1.35396553E+02
 40
1.00000000E+00
 50
3.14999995E+02
 51
3.46303842E+01
  0
ARC
  8
0
 62
7
 10
-3.39093092E+02
 20
1.17224892E+02
 40
1.00000000E+00
 50
1.34999959E+02
 51
2.20035227E+02
  0
ARC
  8
0
 62
7
 10
-3.42275129E+02
 20
1.20406906E+02
 40
1.00000000E+00
 50
2.29964427E+02
 51
3.14999988E+02
  0
ARC
  8
0
 62
7
 10
-3.56749922E+02
 20
1.51900009E+02
 40
1.00000000E+00
 50
8.99999818E+01
 51
1.79999964E+02
  0
ARC
  8
0
 62
7
 10
-3.56749922E+02
 20
1.26402557E+02
 40
1.00000000E+00
 50
1.79999964E+02
 51
2.65035792E+02
  0
ARC
  8
0
 62
7
 10
-3.33097425E+02
 20
1.02750000E+02
 40
1.00000000E+00
 50
1.84964149E+02
 51
2.69999956E+02
  0
ARC
  8
0
 62
7
 10
-3.07599928E+02
 20
1.02750000E+02
 40
1.00000000E+00
 50
2.69999963E+02
 51
0.00000000E+00
  0
ARC
  8
0
 62
7
 10
-3.27285383E+02
 20
6.56034927E+01
 40
1.00000000E+00
 50
3.25369629E+02
 51
4.49999637E+01
  0
ARC
  8
0
 62
7
 10
-3.24103437E+02
 20
6.87854614E+01
 40
1.00000000E+00
 50
2.25000000E+02
 51
3.04630388E+02
  0
ARC
  8
0
 62
7
 10
-3.42275007E+02
 20
8.05931168E+01
 40
1.00000000E+00
 50
4.49999637E+01
 51
1.30035231E+02
  0
ARC
  8
0
 62
7
 10
-3.39093061E+02
 20
8.37751465E+01
 40
1.00000000E+00
 50
1.39964428E+02
 51
2.24999982E+02
  0
ARC
  8
0
 62
7
 10
-3.07599928E+02
 20
9.82500000E+01
 40
1.00000000E+00
 50
3.59999986E+02
 51
8.99999681E+01
  0
ARC
  8
0
 62
7
 10
-3.33097425E+02
 20
9.82500000E+01
 40
1.00000000E+00
 50
8.99999681E+01
 51
1.75035796E+02
  0
ARC
  8
0
 62
7
 10
-3.56749922E+02
 20
7.45974579E+01
 40
1.00000000E+00
 50
9.49641432E+01
 51
1.79999951E+02
  0
ARC
  8
0
 62
7
 10
-3.56749922E+02
 20
4.90999947E+01
 40
1.00000000E+00
 50
1.79999951E+02
 51
2.70000001E+02
  0
ARC
  8
0
 62
7
 10
-3.93896406E+02
 20
6.87854462E+01
 40
1.00000000E+00
 50
2.35369648E+02
 51
3.14999968E+02
  0
ARC
  8
0
 62
7
 10
-3.90714460E+02
 20
6.56034164E+01
 40
1.00000000E+00
 50
1.34999987E+02
 51
2.14630376E+02
  0
ARC
  8
0
 62
7
 10
-3.78906782E+02
 20
8.37750854E+01
 40
1.00000000E+00
 50
3.14999968E+02
 51
4.00352358E+01
  0
ARC
  8
0
 62
7
 10
-3.75724836E+02
 20
8.05930939E+01
 40
1.00000000E+00
 50
4.99644184E+01
 51
1.34999987E+02
  0
ARC
  8
0
 62
7
 10
-3.61249922E+02
 20
4.90999947E+01
 40
1.00000000E+00
 50
2.69999991E+02
 51
3.59999973E+02
  0
ARC
  8
0
 62
7
 10
-3.61249922E+02
 20
7.45974579E+01
 40
1.00000000E+00
 50
3.59999973E+02
 51
8.50358005E+01
  0
ARC
  8
0
 62
7
 10
-3.84902479E+02
 20
9.82500000E+01
 40
1.00000000E+00
 50
4.96415417E+00
 51
8.99999549E+01
  0
ARC
  8
0
 62
7
 10
-4.10399977E+02
 20
9.82500000E+01
 40
1.00000000E+00
 50
8.99999549E+01
 51
1.79999991E+02
  0
ARC
  8
0
 62
7
 10
-3.07999952E+02
 20
1.51500000E+02
 40
4.40000010E+00
 50
0.00000000E+00
 51
8.99999818E+01
  0
ARC
  8
0
 62
7
 10
-3.16999952E+02
 20
5.84999924E+01
 40
1.15000000E+01
 50
7.13249336E+01
 51
1.98674411E+02
  0
ARC
  8
0
 62
7
 10
-4.00999952E+02
 20
5.84999924E+01
 40
1.15000000E+01
 50
3.41325006E+02
 51
1.07701394E+02
  0
ARC
  8
0
 62
7
 10
-4.09999922E+02
 20
4.95000038E+01
 40
4.40000010E+00
 50
1.79999964E+02
 51
2.69999946E+02
  0
ARC
  8
0
 62
7
 10
-3.07999952E+02
 20
4.94999657E+01
 40
4.40000010E+00
 50
2.69999963E+02
 51
0.00000000E+00
  0
ARC
  8
0
 62
7
 10
-3.07999952E+02
 20
1.51500000E+02
 40
5.00000000E+00
 50
0.00000000E+00
 51
8.99999818E+01
  0
CIRCLE
  8
0
 62
7
 10
-3.16999952E+02
 20
1.42500008E+02
 40
8.00000000E+00
  0
CIRCLE
  8
0
 62
2
 10
-4.00999952E+02
 20
5.84999924E+01
 40
5.00000000E+00
  0
ARC
  8
0
 62
7
 10
-4.09999922E+02
 20
4.95000038E+01
 40
5.00000000E+00
 50
1.79999964E+02
 51
2.69999946E+02
  0
CIRCLE
  8
0
 62
7
 10
-4.00999952E+02
 20
5.84999695E+01
 40
8.00000000E+00
  0
CIRCLE
  8
0
 62
2
 10
-4.00999952E+02
 20
1.42500008E+02
 40
5.00000000E+00
  0
ARC
  8
0
 62
7
 10
-3.07999952E+02
 20
4.95000038E+01
 40
5.00000000E+00
 50
2.69999963E+02
 51
0.00000000E+00
  0
CIRCLE
  8
0
 62
7
 10
-3.16999952E+02
 20
5.84999924E+01
 40
8.00000000E+00
  0
ARC
  8
0
 62
7
 10
-3.07599928E+02
 20
1.25516159E+02
 40
1.00000000E+00
 50
0.00000000E+00
 51
9.45895548E+01
  0
ARC
  8
0
 62
7
 10
-3.33983961E+02
 20
1.51900009E+02
 40
1.00000000E+00
 50
3.55412204E+02
 51
8.99999818E+01
  0
ARC
  8
0
 62
7
 10
-4.09999830E+02
 20
7.04998627E+01
 40
4.19999981E+00
 50
3.58989755E+02
 51
9.44131721E+01
  0
ARC
  8
0
 62
7
 10
-3.88999861E+02
 20
4.95000038E+01
 40
4.00000000E+00
 50
3.55411551E+02
 51
9.18126662E+01
  0
ARC
  8
0
 62
7
 10
-3.28999830E+02
 20
4.95001183E+01
 40
4.00000000E+00
 50
8.81895309E+01
 51
1.84590151E+02
  0
ARC
  8
0
 62
7
 10
-3.07999952E+02
 20
7.05000648E+01
 40
4.00000000E+00
 50
8.54113313E+01
 51
1.81813065E+02
  0
ARC
  8
0
 62
7
 10
-4.10399977E+02
 20
7.56844673E+01
 40
1.00000000E+00
 50
1.79999977E+02
 51
2.74414133E+02
  0
ARC
  8
0
 62
7
 10
-3.84015852E+02
 20
4.91000061E+01
 40
1.00000000E+00
 50
1.75411348E+02
 51
2.70000001E+02
  0
ARC
  8
0
 62
7
 10
-3.33983809E+02
 20
4.90999680E+01
 40
1.00000000E+00
 50
2.70000018E+02
 51
4.59054965E+00
  0
ARC
  8
0
 62
7
 10
-3.07599928E+02
 20
7.54840431E+01
 40
1.00000000E+00
 50
2.65412187E+02
 51
0.00000000E+00
  0
ARC
  8
0
 62
7
 10
-3.28841780E+02
 20
1.46502518E+02
 40
1.00000000E+00
 50
3.41324803E+02
 51
9.18135474E+01
  0
ARC
  8
0
 62
7
 10
-3.12997572E+02
 20
1.30658081E+02
 40
1.00000000E+00
 50
3.58189936E+02
 51
1.08674388E+02
  0
ARC
  8
0
 62
7
 10
-4.04800611E+02
 20
7.04081802E+01
 40
1.00000000E+00
 50
1.78989315E+02
 51
2.87700627E+02
  0
ARC
  8
0
 62
7
 10
-3.89158064E+02
 20
5.44974976E+01
 40
1.00000000E+00
 50
1.61324820E+02
 51
2.71813498E+02
  0
ARC
  8
0
 62
7
 10
-3.28841902E+02
 20
5.44976120E+01
 40
1.00000000E+00
 50
2.68189943E+02
 51
1.86743690E+01
  0
ARC
  8
0
 62
7
 10
-3.12997480E+02
 20
7.03418579E+01
 40
1.00000000E+00
 50
2.51325332E+02
 51
1.81263018E+00
  0
ARC
  8
0
 62
7
 10
-3.16999952E+02
 20
1.42500008E+02
 40
1.15000000E+01
 50
1.61325025E+02
 51
2.88674421E+02
  0
ARC
  8
0
 62
7
 10
-3.29000013E+02
 20
1.51500000E+02
 40
4.00000000E+00
 50
1.75411348E+02
 51
2.71812624E+02
  0
ARC
  8
0
 62
7
 10
-3.08000074E+02
 20
1.30500122E+02
 40
4.00000000E+00
 50
1.78189554E+02
 51
2.74590407E+02
  0
CIRCLE
  8
0
 62
7
 10
-4.00999952E+02
 20
1.42499977E+02
 40
8.69999981E+00
  0
ARC
  8
0
 62
7
 10
-3.90714460E+02
 20
1.35396507E+02
 40
1.00000000E+00
 50
1.45369634E+02
 51
2.24999955E+02
  0
ARC
  8
0
 62
7
 10
-3.93896528E+02
 20
1.32214516E+02
 40
1.00000000E+00
 50
4.49999910E+01
 51
1.24630380E+02
  0
ARC
  8
0
 62
7
 10
-4.10399977E+02
 20
1.02749969E+02
 40
1.00000000E+00
 50
1.79999964E+02
 51
2.69999946E+02
  0
ARC
  8
0
 62
7
 10
-3.61249922E+02
 20
1.51900009E+02
 40
1.00000000E+00
 50
3.59999959E+02
 51
8.99999956E+01
  0
ARC
  8
0
 62
7
 10
-3.84902479E+02
 20
1.02750000E+02
 40
1.00000000E+00
 50
2.69999963E+02
 51
3.55035805E+02
  0
ARC
  8
0
 62
7
 10
-3.78906904E+02
 20
1.17224854E+02
 40
1.00000000E+00
 50
3.19964423E+02
 51
4.49999910E+01
  0
ARC
  8
0
 62
7
 10
-3.75724836E+02
 20
1.20406883E+02
 40
1.00000000E+00
 50
2.24999972E+02
 51
3.10035254E+02
  0
ARC
  8
0
 62
7
 10
-3.61249922E+02
 20
1.26402534E+02
 40
1.00000000E+00
 50
2.74964145E+02
 51
3.59999959E+02
  0
ARC
  8
0
 62
7
 10
-4.00999952E+02
 20
1.42500008E+02
 40
1.15000000E+01
 50
2.51324914E+02
 51
1.86744424E+01
  0
ARC
  8
0
 62
7
 10
-4.09999922E+02
 20
1.51500015E+02
 40
4.40000010E+00
 50
8.99999818E+01
 51
1.79999964E+02
  0
ARC
  8
0
 62
7
 10
-4.09999922E+02
 20
1.51500000E+02
 40
5.00000000E+00
 50
8.99999818E+01
 51
1.79999964E+02
  0
CIRCLE
  8
0
 62
7
 10
-4.00999952E+02
 20
1.42499977E+02
 40
8.00000000E+00
  0
ARC
  8
0
 62
7
 10
-4.09999922E+02
 20
1.30499931E+02
 40
4.00000000E+00
 50
2.65411312E+02
 51
1.81309463E+00
  0
ARC
  8
0
 62
7
 10
-3.89000074E+02
 20
1.51499863E+02
 40
4.00000000E+00
 50
2.68189512E+02
 51
4.59040963E+00
  0
ARC
  8
0
 62
7
 10
-4.10399977E+02
 20
1.25515961E+02
 40
1.00000000E+00
 50
8.54104639E+01
 51
1.79999964E+02
  0
ARC
  8
0
 62
7
 10
-3.84016157E+02
 20
1.51900024E+02
 40
1.00000000E+00
 50
8.99999818E+01
 51
1.84589646E+02
  0
ARC
  8
0
 62
7
 10
-4.05002424E+02
 20
1.30658127E+02
 40
1.00000000E+00
 50
7.13253501E+01
 51
1.81812600E+02
  0
ARC
  8
0
 62
7
 10
-3.89158064E+02
 20
1.46502380E+02
 40
1.00000000E+00
 50
8.81899612E+01
 51
1.98674330E+02
  0
CIRCLE
  8
0
 62
7
 10
-3.58999861E+02
 20
1.00500061E+02
 40
2.50000153E+01
  0
CIRCLE
  8
0
 62
7
 10
-3.58999861E+02
 20
1.00500061E+02
 40
2.35000153E+01
  0
CIRCLE
  8
0
 62
7
 10
-3.58999983E+02
 20
1.00500000E+02
 40
2.40000000E+01
  0
CIRCLE
  8
0
 62
2
 10
-3.16999952E+02
 20
1.42500008E+02
 40
5.00000000E+00
  0
CIRCLE
  8
0
 62
2
 10
-3.16999952E+02
 20
5.84999924E+01
 40
5.00000000E+00
  0
CIRCLE
  8
0
 62
7
 10
-4.00999952E+02
 20
5.84999924E+01
 40
4.17999983E+00
  0
CIRCLE
  8
0
 62
7
 10
-4.00999952E+02
 20
1.42500008E+02
 40
4.17999983E+00
  0
CIRCLE
  8
0
 62
7
 10
-3.16999952E+02
 20
1.42500008E+02
 40
4.17999983E+00
  0
CIRCLE
  8
0
 62
7
 10
-3.16999952E+02
 20
5.84999924E+01
 40
4.17999983E+00
  0
CIRCLE
  8
0
 62
7
 10
-3.58999983E+02
 20
1.00500000E+02
 40
1.29999914E+01
  0
CIRCLE
  8
0
 62
2
 10
-3.58999983E+02
 20
1.00500000E+02
 40
1.21799841E+01
  0
CIRCLE
  8
0
 62
7
 10
-3.58999983E+02
 20
1.00500000E+02
 40
1.14999914E+01
  0
CIRCLE
  8
0
 62
4
 10
-3.58999983E+02
 20
1.00500000E+02
 40
1.80000000E+01
  0
LINE
  8
0
 62
4
 10
-3.76999990E+02
 20
1.10892303E+02
 11
-3.76999990E+02
 21
9.01076965E+01
  0
LINE
  8
0
 62
4
 10
-3.40999983E+02
 20
1.10892303E+02
 11
-3.40999983E+02
 21
9.01076965E+01
  0
LINE
  8
0
 62
4
 10
-3.77000048E+02
 20
1.10892269E+02
 11
-3.59000046E+02
 21
1.21284573E+02
  0
LINE
  8
0
 62
4
 10
-3.59000061E+02
 20
7.97153727E+01
 11
-3.41000060E+02
 21
9.01076769E+01
  0
LINE
  8
0
 62
4
 10
-3.59000125E+02
 20
1.21284608E+02
 11
-3.41000120E+02
 21
1.10892302E+02
  0
LINE
  8
0
 62
4
 10
-3.77000070E+02
 20
9.01077224E+01
 11
-3.59000079E+02
 21
7.97154240E+01
  0
LINE
  8
0
 62
4
 10
-3.29004133E+02
 20
1.63905365E+02
 11
-3.19631532E+02
 21
1.59634024E+02
  0
LINE
  8
0
 62
4
 10
-3.13261803E+02
 20
1.56731172E+02
 11
-3.19631532E+02
 21
1.59634024E+02
  0
LINE
  8
0
 62
4
 10
-3.29294419E+02
 20
1.63268392E+02
 11
-3.30204380E+02
 21
1.63683085E+02
  0
ARC
  8
0
 62
4
 10
-3.33804465E+02
 20
1.58510261E+02
 40
1.00000000E+00
 50
1.68327510E+02
 51
2.45500000E+02
  0
ARC
  8
0
 62
4
 10
-3.31813937E+02
 20
1.62878076E+02
 40
1.00000000E+00
 50
6.55000000E+01
 51
1.42672490E+02
  0
LINE
  8
0
 62
4
 10
-3.33190171E+02
 20
1.57131364E+02
 11
-3.34218428E+02
 21
1.57599967E+02
  0
LINE
  8
0
 62
4
 10
-3.30370257E+02
 20
1.63319100E+02
 11
-3.31398514E+02
 21
1.63787704E+02
  0
LINE
  8
0
 62
4
 10
-3.33356049E+02
 20
1.56767379E+02
 11
-3.30204380E+02
 21
1.63683085E+02
  0
ARC
  8
0
 62
4
 10
-3.23218015E+02
 20
1.56323213E+02
 40
1.18100000E+01
 50
1.42672490E+02
 51
1.68327510E+02
  0
ARC
  8
0
 62
4
 10
-3.24201856E+02
 20
1.52933762E+02
 40
1.18100000E+01
 50
1.53400933E+02
 51
1.55500000E+02
  0
ARC
  8
0
 62
4
 10
-3.24208274E+02
 20
1.52919679E+02
 40
1.18100000E+01
 50
1.55500000E+02
 51
1.62352491E+02
  0
LINE
  8
0
 62
4
 10
-3.21059789E+02
 20
1.56500000E+02
 11
-3.19631532E+02
 21
1.59634024E+02
  0
LINE
  8
0
 62
4
 10
-3.32378953E+02
 20
1.56500000E+02
 11
-3.29004133E+02
 21
1.63905365E+02
  0
LINE
  8
0
 62
4
 10
-3.32769338E+02
 20
1.56500000E+02
 11
-3.33356049E+02
 21
1.56767379E+02
  0
LINE
  8
0
 62
4
 10
-3.13151540E+02
 20
1.56500000E+02
 11
-3.13261803E+02
 21
1.56731172E+02
  0
LINE
  8
0
 62
4
 10
-3.32796553E+02
 20
1.56500000E+02
 11
-3.32791873E+02
 21
1.56510270E+02
  0
LINE
  8
0
  6
CENTER
 62
6
 10
-3.25626388E+02
 20
1.57420744E+02
 11
-3.34855186E+02
 21
1.61626550E+02
  0
LINE
  8
0
  6
CENTER
 62
6
 10
-3.27077814E+02
 20
1.54235880E+02
 11
-3.36306612E+02
 21
1.58441685E+02
  0
LINE
  8
0
 62
4
 10
-3.88995771E+02
 20
1.63905365E+02
 11
-3.98368372E+02
 21
1.59634024E+02
  0
LINE
  8
0
  6
CENTER
 62
6
 10
-3.92373578E+02
 20
1.57420744E+02
 11
-3.83144780E+02
 21
1.61626550E+02
  0
LINE
  8
0
  6
CENTER
 62
6
 10
-3.90922152E+02
 20
1.54235880E+02
 11
-3.81693353E+02
 21
1.58441685E+02
  0
LINE
  8
0
 62
4
 10
-4.04738101E+02
 20
1.56731172E+02
 11
-3.98368372E+02
 21
1.59634024E+02
  0
LINE
  8
0
 62
4
 10
-3.88705486E+02
 20
1.63268392E+02
 11
-3.87795525E+02
 21
1.63683085E+02
  0
ARC
  8
0
 62
4
 10
-3.84195440E+02
 20
1.58510261E+02
 40
1.00000000E+00
 50
3.43223662E+02
 51
1.16724900E+01
  0
ARC
  8
0
 62
4
 10
-3.86185968E+02
 20
1.62878076E+02
 40
1.00000000E+00
 50
3.73275101E+01
 51
1.14500000E+02
  0
ARC
  8
0
 62
4
 10
-3.94781890E+02
 20
1.56323213E+02
 40
1.18100000E+01
 50
1.16724900E+01
 51
3.73275101E+01
  0
LINE
  8
0
 62
4
 10
-3.87629647E+02
 20
1.63319100E+02
 11
-3.86601391E+02
 21
1.63787704E+02
  0
LINE
  8
0
 62
4
 10
-3.86489241E+02
 20
1.60816707E+02
 11
-3.87795525E+02
 21
1.63683085E+02
  0
LINE
  8
0
 62
4
 10
-3.87336998E+02
 20
1.60265520E+02
 11
-3.86991213E+02
 21
1.60423103E+02
  0
LINE
  8
0
 62
4
 10
-3.87053417E+02
 20
1.60559597E+02
 11
-3.85451885E+02
 21
1.61289457E+02
  0
ARC
  8
0
 62
4
 10
-3.93798049E+02
 20
1.52933762E+02
 40
1.18100000E+01
 50
2.45000000E+01
 51
4.50326991E+01
  0
ARC
  8
0
 62
4
 10
-3.93791631E+02
 20
1.52919679E+02
 40
1.18100000E+01
 50
1.76475088E+01
 51
2.45000000E+01
  0
LINE
  8
0
 62
4
 10
-4.04848364E+02
 20
1.56500000E+02
 11
-4.04738101E+02
 21
1.56731172E+02
  0
LINE
  8
0
 62
4
 10
-3.96940115E+02
 20
1.56500000E+02
 11
-3.98368372E+02
 21
1.59634024E+02
  0
LINE
  8
0
 62
4
 10
-3.85620952E+02
 20
1.56500000E+02
 11
-3.88995771E+02
 21
1.63905365E+02
  0
LINE
  8
0
 62
4
 10
-3.85203352E+02
 20
1.56500000E+02
 11
-3.87053417E+02
 21
1.60559597E+02
  0
LINE
  8
0
 62
7
 10
3.84000010E+02
 20
1.05321815E+02
 11
3.84000010E+02
 21
9.56781616E+01
  0
LINE
  8
0
 62
7
 10
3.98000024E+02
 20
1.05321815E+02
 11
3.98000024E+02
 21
9.56781616E+01
  0
LINE
  8
0
 62
7
 10
3.86178170E+02
 20
1.07499985E+02
 11
3.95821865E+02
 21
1.07499985E+02
  0
CIRCLE
  8
0
 62
7
 10
3.91000017E+02
 20
1.00500000E+02
 40
8.50000000E+00
  0
CIRCLE
  8
0
 62
7
 10
3.91000017E+02
 20
1.00500000E+02
 40
8.99992087E+00
  0
CIRCLE
  8
0
 62
2
 10
3.91000017E+02
 20
1.00500000E+02
 40
9.18000793E+00
  0
CIRCLE
  8
0
 62
7
 10
3.91000017E+02
 20
1.00500000E+02
 40
1.00000153E+01
  0
LINE
  8
0
 62
7
 10
3.86178192E+02
 20
9.35000000E+01
 11
3.95821843E+02
 21
9.35000000E+01
  0
LINE
  8
0
 62
7
 10
4.06000017E+02
 20
1.09160254E+02
 11
3.91000017E+02
 21
1.17820508E+02
  0
LINE
  8
0
 62
7
 10
4.06000017E+02
 20
9.18397460E+01
 11
4.06000017E+02
 21
1.09160254E+02
  0
LINE
  8
0
 62
7
 10
3.91000017E+02
 20
8.31794919E+01
 11
4.06000017E+02
 21
9.18397460E+01
  0
LINE
  8
0
 62
7
 10
3.76000017E+02
 20
9.18397460E+01
 11
3.91000017E+02
 21
8.31794919E+01
  0
LINE
  8
0
 62
7
 10
3.76000017E+02
 20
1.09160254E+02
 11
3.76000017E+02
 21
9.18397460E+01
  0
LINE
  8
0
 62
7
 10
3.91000017E+02
 20
1.17820508E+02
 11
3.76000017E+02
 21
1.09160254E+02
  0
CIRCLE
  8
0
 62
7
 10
3.91000017E+02
 20
1.00500000E+02
 40
1.50000000E+01
  0
CIRCLE
  8
0
 62
7
 10
3.91000017E+02
 20
1.00500000E+02
 40
1.82500305E+01
  0
LINE
  8
0
 62
4
 10
4.16000808E+02
 20
1.57500000E+02
 11
4.15781551E+02
 21
1.57599921E+02
  0
LINE
  8
0
  6
CENTER
 62
6
 10
4.24199701E+02
 20
1.57500000E+02
 11
4.15144814E+02
 21
1.61626550E+02
  0
LINE
  8
0
  6
CENTER
 62
6
 10
4.15759727E+02
 20
1.57500000E+02
 11
4.13693388E+02
 21
1.58441685E+02
  0
LINE
  8
0
 62
4
 10
4.18076774E+02
 20
1.57500000E+02
 11
4.20995867E+02
 21
1.63905365E+02
  0
LINE
  8
0
 62
4
 10
4.29395937E+02
 20
1.57500000E+02
 11
4.30368468E+02
 21
1.59634024E+02
  0
LINE
  8
0
 62
4
 10
4.16977826E+02
 20
1.57500000E+02
 11
4.19795620E+02
 21
1.63683085E+02
  0
LINE
  8
0
 62
4
 10
4.35051156E+02
 20
1.57500000E+02
 11
4.30368468E+02
 21
1.59634024E+02
  0
ARC
  8
0
 62
7
 10
3.40000017E+02
 20
4.95000000E+01
 40
6.00000000E+00
 50
1.80000000E+02
 51
2.70000000E+02
  0
ARC
  8
0
 62
7
 10
3.40000017E+02
 20
1.51500000E+02
 40
6.00000000E+00
 50
9.00000002E+01
 51
1.80000000E+02
  0
ARC
  8
0
 62
7
 10
4.42000017E+02
 20
4.95000000E+01
 40
6.00000000E+00
 50
2.70000000E+02
 51
0.00000000E+00
  0
ARC
  8
0
 62
7
 10
4.42000017E+02
 20
1.51500000E+02
 40
6.00000000E+00
 50
0.00000000E+00
 51
9.00000002E+01
  0
LINE
  8
0
 62
7
 10
3.34000017E+02
 20
1.51500000E+02
 11
3.34000017E+02
 21
4.95000000E+01
  0
LINE
  8
0
 62
7
 10
4.48000017E+02
 20
1.51500000E+02
 11
4.48000017E+02
 21
4.95000000E+01
  0
LINE
  8
0
 62
7
 10
3.40000017E+02
 20
4.35000000E+01
 11
4.42000017E+02
 21
4.35000000E+01
  0
LINE
  8
0
 62
7
 10
3.40000017E+02
 20
1.57500000E+02
 11
4.42000017E+02
 21
1.57500000E+02
  0
LINE
  8
0
 62
4
 10
3.64340922E+02
 20
1.57500000E+02
 11
3.62946583E+02
 21
1.60559597E+02
  0
LINE
  8
0
 62
4
 10
3.63923322E+02
 20
1.57500000E+02
 11
3.61004229E+02
 21
1.63905365E+02
  0
LINE
  8
0
 62
4
 10
3.52604159E+02
 20
1.57500000E+02
 11
3.51631628E+02
 21
1.59634024E+02
  0
ARC
  8
0
 62
4
 10
3.56208369E+02
 20
1.52919679E+02
 40
1.18100000E+01
 50
2.28198017E+01
 51
2.45000000E+01
  0
ARC
  8
0
 62
4
 10
3.56201951E+02
 20
1.52933762E+02
 40
1.18100000E+01
 50
2.45000000E+01
 51
4.50326991E+01
  0
LINE
  8
0
 62
4
 10
3.62946583E+02
 20
1.60559597E+02
 11
3.64548115E+02
 21
1.61289457E+02
  0
LINE
  8
0
 62
4
 10
3.62663002E+02
 20
1.60265520E+02
 11
3.63008787E+02
 21
1.60423103E+02
  0
LINE
  8
0
 62
4
 10
3.63510759E+02
 20
1.60816707E+02
 11
3.62204475E+02
 21
1.63683085E+02
  0
LINE
  8
0
 62
4
 10
3.62370353E+02
 20
1.63319100E+02
 11
3.63398609E+02
 21
1.63787704E+02
  0
ARC
  8
0
 62
4
 10
3.55218110E+02
 20
1.56323213E+02
 40
1.18100000E+01
 50
1.16724900E+01
 51
3.73275101E+01
  0
ARC
  8
0
 62
4
 10
3.63814032E+02
 20
1.62878076E+02
 40
1.00000000E+00
 50
3.73275101E+01
 51
1.14500000E+02
  0
ARC
  8
0
 62
4
 10
3.65804560E+02
 20
1.58510261E+02
 40
1.00000000E+00
 50
3.43223662E+02
 51
1.16724900E+01
  0
LINE
  8
0
 62
4
 10
3.61294514E+02
 20
1.63268392E+02
 11
3.62204475E+02
 21
1.63683085E+02
  0
LINE
  8
0
 62
4
 10
3.46948939E+02
 20
1.57500000E+02
 11
3.51631628E+02
 21
1.59634024E+02
  0
LINE
  8
0
  6
CENTER
 62
6
 10
3.66240307E+02
 20
1.57500000E+02
 11
3.68306647E+02
 21
1.58441685E+02
  0
LINE
  8
0
  6
CENTER
 62
6
 10
3.57800334E+02
 20
1.57500000E+02
 11
3.66855220E+02
 21
1.61626550E+02
  0
LINE
  8
0
 62
4
 10
3.61004229E+02
 20
1.63905365E+02
 11
3.51631628E+02
 21
1.59634024E+02
  0
LINE
  8
0
 62
4
 10
4.17203447E+02
 20
1.56500000E+02
 11
4.17208127E+02
 21
1.56510270E+02
  0
ARC
  8
0
 62
4
 10
4.25791726E+02
 20
1.52919679E+02
 40
1.18100000E+01
 50
1.55500000E+02
 51
1.57180198E+02
  0
ARC
  8
0
 62
4
 10
4.25798144E+02
 20
1.52933762E+02
 40
1.18100000E+01
 50
1.53400933E+02
 51
1.55500000E+02
  0
ARC
  8
0
 62
4
 10
4.26781985E+02
 20
1.56323213E+02
 40
1.18100000E+01
 50
1.42672490E+02
 51
1.68327510E+02
  0
LINE
  8
0
 62
4
 10
4.19629743E+02
 20
1.63319100E+02
 11
4.18601486E+02
 21
1.63787704E+02
  0
ARC
  8
0
 62
4
 10
4.18186063E+02
 20
1.62878076E+02
 40
1.00000000E+00
 50
6.55000000E+01
 51
1.42672490E+02
  0
ARC
  8
0
 62
4
 10
4.16195535E+02
 20
1.58510261E+02
 40
1.00000000E+00
 50
1.68327510E+02
 51
2.45500000E+02
  0
LINE
  8
0
 62
4
 10
4.20705581E+02
 20
1.63268392E+02
 11
4.19795620E+02
 21
1.63683085E+02
  0
LINE
  8
0
 62
4
 10
4.20995867E+02
 20
1.63905365E+02
 11
4.30368468E+02
 21
1.59634024E+02
  0
CIRCLE
  8
0
 62
7
 10
3.48999987E+02
 20
5.84999924E+01
 40
4.17999983E+00
  0
CIRCLE
  8
0
 62
7
 10
3.48999987E+02
 20
1.42500008E+02
 40
4.17999983E+00
  0
CIRCLE
  8
0
 62
7
 10
4.32999987E+02
 20
1.42500008E+02
 40
4.17999983E+00
  0
CIRCLE
  8
0
 62
7
 10
4.32999987E+02
 20
5.84999924E+01
 40
4.17999983E+00
  0
CIRCLE
  8
0
 62
2
 10
3.48999987E+02
 20
5.84999924E+01
 40
5.00000000E+00
  0
CIRCLE
  8
0
 62
2
 10
3.48999987E+02
 20
1.42500008E+02
 40
5.00000000E+00
  0
CIRCLE
  8
0
 62
7
 10
4.32999987E+02
 20
1.42499977E+02
 40
8.00000000E+00
  0
CIRCLE
  8
0
 62
7
 10
4.32999987E+02
 20
1.42499977E+02
 40
8.69999981E+00
  0
CIRCLE
  8
0
 62
7
 10
3.48999987E+02
 20
5.84999924E+01
 40
8.00000000E+00
  0
CIRCLE
  8
0
 62
2
 10
4.32999987E+02
 20
1.42500008E+02
 40
5.00000000E+00
  0
CIRCLE
  8
0
 62
7
 10
4.32999987E+02
 20
5.84999695E+01
 40
8.00000000E+00
  0
CIRCLE
  8
0
 62
2
 10
4.32999987E+02
 20
5.84999924E+01
 40
5.00000000E+00
  0
CIRCLE
  8
0
 62
7
 10
3.48999987E+02
 20
1.42500008E+02
 40
8.00000000E+00
  0
CIRCLE
  8
0
 62
7
 10
4.32999987E+02
 20
5.84999695E+01
 40
8.69999981E+00
  0
CIRCLE
  8
0
 62
7
 10
3.48999987E+02
 20
5.84999924E+01
 40
8.69999981E+00
  0
CIRCLE
  8
0
 62
7
 10
3.48999987E+02
 20
1.42500008E+02
 40
8.69999981E+00
  0
LINE
  8
0
  6
CENTER
 62
2
 10
3.33139025E+02
 20
1.00500000E+02
 11
4.48904985E+02
 21
1.00500000E+02
  0
LINE
  8
0
  6
CENTER
 62
2
 10
3.48999987E+02
 20
4.29277000E+01
 11
3.48999987E+02
 21
7.34962044E+01
  0
LINE
  8
0
  6
CENTER
 62
2
 10
4.02999987E+02
 20
1.16543854E+02
 11
4.02999987E+02
 21
1.58763611E+02
  0
LINE
  8
0
  6
CENTER
 62
2
 10
3.63806200E+02
 20
1.42500008E+02
 11
3.32716784E+02
 21
1.42500008E+02
  0
LINE
  8
0
  6
CENTER
 62
2
 10
3.63806200E+02
 20
5.84999924E+01
 11
3.32624315E+02
 21
5.84999924E+01
  0
LINE
  8
0
  6
CENTER
 62
2
 10
3.91000017E+02
 20
1.59166321E+02
 11
3.91000017E+02
 21
4.30072632E+01
  0
LINE
  8
0
  6
CENTER
 62
2
 10
4.32999987E+02
 20
1.58980774E+02
 11
4.32999987E+02
 21
1.28073799E+02
  0
LINE
  8
0
  6
CENTER
 62
2
 10
4.48963884E+02
 20
1.42500008E+02
 11
4.17108965E+02
 21
1.42500008E+02
  0
LINE
  8
0
  6
CENTER
 62
2
 10
3.72999987E+02
 20
1.58286575E+02
 11
3.72999987E+02
 21
1.13154861E+02
  0
LINE
  8
0
  6
CENTER
 62
2
 10
4.49068560E+02
 20
5.84999924E+01
 11
4.17503801E+02
 21
5.84999924E+01
  0
LINE
  8
0
  6
CENTER
 62
2
 10
4.32999987E+02
 20
4.28217163E+01
 11
4.32999987E+02
 21
7.28636513E+01
  0
LINE
  8
0
  6
CENTER
 62
2
 10
3.48999987E+02
 20
1.59392731E+02
 11
3.48999987E+02
 21
1.27642189E+02
  0
LINE
  8
0
  6
PHANTOM
 10
-2.45000000E+01
 20
1.94632131E+02
 11
-2.45000000E+01
 21
3.53816712E+02
  0
LINE
  8
0
  6
CENTER
 62
2
 10
-2.02798338E+02
 20
2.80500000E+02
 11
1.81480425E+02
 21
2.80500000E+02
  0
LINE
  8
0
 62
7
 10
-8.82678831E+01
 20
2.62499890E+02
 11
-8.91339223E+01
 21
2.63999923E+02
  0
LINE
  8
0
 62
7
 10
-8.91339550E+01
 20
2.63999954E+02
 11
-9.08660259E+01
 21
2.63999954E+02
  0
LINE
  8
0
 62
7
 10
-9.17316774E+01
 20
2.62499710E+02
 11
-9.08656687E+01
 21
2.63999690E+02
  0
LINE
  8
0
  6
CENTER
 62
2
 10
-8.99999676E+01
 20
2.70047729E+02
 11
-8.99999676E+01
 21
2.55434341E+02
  0
LINE
  8
0
  6
CENTER
 62
2
 10
-9.81945477E+01
 20
2.62499969E+02
 11
-8.19255505E+01
 21
2.62499969E+02
  0
LINE
  8
0
 62
7
 10
-8.82677393E+01
 20
2.62499863E+02
 11
-8.91337861E+01
 21
2.60999817E+02
  0
LINE
  8
0
 62
7
 10
-8.91339550E+01
 20
2.60999954E+02
 11
-9.08660259E+01
 21
2.60999954E+02
  0
LINE
  8
0
 62
7
 10
-9.08659038E+01
 20
2.60999931E+02
 11
-9.17319734E+01
 21
2.62500017E+02
  0
LINE
  8
0
  6
CENTER
 62
2
 10
3.49999714E+01
 20
2.70047729E+02
 11
3.49999714E+01
 21
2.55434341E+02
  0
LINE
  8
0
  6
CENTER
 62
2
 10
2.68053989E+01
 20
2.62500000E+02
 11
4.30744114E+01
 21
2.62500000E+02
  0
LINE
  8
0
  6
CENTER
 62
2
 10
8.98063068E+01
 20
2.38499985E+02
 11
-1.21524473E+02
 21
2.38499985E+02
  0
LINE
  8
0
 62
7
 10
2.80000019E+01
 20
2.43000000E+02
 11
1.99999981E+01
 21
2.43000000E+02
  0
LINE
  8
0
 62
7
 10
2.80000019E+01
 20
2.33999969E+02
 11
4.99999809E+00
 21
2.33999969E+02
  0
LINE
  8
0
 62
7
 10
3.67321446E+01
 20
2.62499857E+02
 11
3.58661206E+01
 21
2.63999864E+02
  0
LINE
  8
0
 62
7
 10
3.58660069E+01
 20
2.63999985E+02
 11
3.41339207E+01
 21
2.63999985E+02
  0
LINE
  8
0
 62
7
 10
3.32682835E+01
 20
2.62499755E+02
 11
3.41342922E+01
 21
2.63999735E+02
  0
LINE
  8
0
 62
7
 10
3.41339694E+01
 20
2.60999968E+02
 11
3.32678997E+01
 21
2.62500053E+02
  0
LINE
  8
0
 62
7
 10
3.58660069E+01
 20
2.60999954E+02
 11
3.41339207E+01
 21
2.60999954E+02
  0
LINE
  8
0
 62
7
 10
3.67322895E+01
 20
2.62499843E+02
 11
3.58662503E+01
 21
2.60999810E+02
  0
LINE
  8
0
 62
7
 10
-1.14999968E+02
 20
3.13500061E+02
 11
-1.14999968E+02
 21
2.47500046E+02
  0
LINE
  8
0
  6
CENTER
 62
2
 10
-8.52976360E+01
 20
2.92499969E+02
 11
-1.13094908E+02
 21
2.92499969E+02
  0
LINE
  8
0
 62
7
 10
-1.20499937E+02
 20
3.05499939E+02
 11
-1.18999922E+02
 21
3.05499939E+02
  0
LINE
  8
0
 62
7
 10
-1.18999983E+02
 20
2.25619736E+02
 11
-1.18999983E+02
 21
3.35380280E+02
  0
LINE
  8
0
 62
7
 10
-1.39999968E+02
 20
2.58000046E+02
 11
-1.39999968E+02
 21
3.03000061E+02
  0
LINE
  8
0
 62
7
 10
-1.18508644E+02
 20
3.35880504E+02
 11
-8.29999073E+01
 21
3.36500312E+02
  0
LINE
  8
0
 62
7
 10
-1.39499937E+02
 20
3.03499969E+02
 11
-1.34999937E+02
 21
3.03499969E+02
  0
LINE
  8
0
 62
7
 10
-1.34517408E+02
 20
3.04528197E+02
 11
-1.20999952E+02
 21
3.05000237E+02
  0
LINE
  8
0
 62
7
 10
-1.20499937E+02
 20
2.55499954E+02
 11
-1.18999922E+02
 21
2.55499954E+02
  0
LINE
  8
0
 62
7
 10
-1.18508618E+02
 20
2.25119987E+02
 11
-8.29999121E+01
 21
2.24500180E+02
  0
LINE
  8
0
 62
7
 10
-1.39499937E+02
 20
2.57499969E+02
 11
-1.34999937E+02
 21
2.57499969E+02
  0
LINE
  8
0
 62
7
 10
-1.34517395E+02
 20
2.56472382E+02
 11
-1.20999939E+02
 21
2.56000342E+02
  0
LINE
  8
0
 62
7
 10
-8.29999981E+01
 20
3.36500183E+02
 11
-8.29999981E+01
 21
2.24500000E+02
  0
LINE
  8
0
  6
CENTER
 62
2
 10
-9.89999828E+01
 20
2.78394165E+02
 11
-9.89999828E+01
 21
3.06323273E+02
  0
LINE
  8
0
 62
7
 10
-1.12999937E+02
 20
2.45499954E+02
 11
-8.29999371E+01
 21
2.45499954E+02
  0
LINE
  8
0
 62
7
 10
-1.12999937E+02
 20
3.15499939E+02
 11
-8.29999371E+01
 21
3.15499939E+02
  0
LINE
  8
0
 62
7
 10
-1.20999968E+02
 20
2.56000107E+02
 11
-1.20999968E+02
 21
3.05000061E+02
  0
LINE
  8
0
 62
7
 10
5.99999561E+01
 20
2.47499893E+02
 11
5.99999561E+01
 21
3.13499908E+02
  0
LINE
  8
0
  6
CENTER
 62
2
 10
3.02976704E+01
 20
2.92500000E+02
 11
5.80949192E+01
 21
2.92500000E+02
  0
LINE
  8
0
 62
7
 10
6.39999714E+01
 20
3.37500000E+02
 11
6.39999714E+01
 21
2.23500015E+02
  0
LINE
  8
0
 62
7
 10
6.35086598E+01
 20
2.25119591E+02
 11
2.79999768E+01
 21
2.24499779E+02
  0
LINE
  8
0
 62
7
 10
6.35087098E+01
 20
3.35880140E+02
 11
2.79999581E+01
 21
3.36499942E+02
  0
LINE
  8
0
 62
7
 10
2.80000019E+01
 20
2.24499771E+02
 11
2.80000019E+01
 21
3.36499969E+02
  0
LINE
  8
0
  6
CENTER
 62
2
 10
4.39999714E+01
 20
2.78394135E+02
 11
4.39999714E+01
 21
3.06323273E+02
  0
LINE
  8
0
 62
7
 10
5.79999332E+01
 20
3.15500000E+02
 11
2.79999332E+01
 21
3.15500000E+02
  0
LINE
  8
0
 62
7
 10
5.79999332E+01
 20
2.45500000E+02
 11
2.79999332E+01
 21
2.45500000E+02
  0
LINE
  8
0
  6
CENTER
 62
2
 10
8.98063068E+01
 20
3.22500031E+02
 11
-1.21524473E+02
 21
3.22500031E+02
  0
LINE
  8
0
 62
7
 10
2.80000019E+01
 20
3.18000000E+02
 11
-3.89999981E+01
 21
3.18000000E+02
  0
LINE
  8
0
 62
7
 10
2.80000019E+01
 20
3.27000031E+02
 11
-3.89999981E+01
 21
3.27000031E+02
  0
LINE
  8
0
 62
7
 10
-8.29999981E+01
 20
3.34000000E+02
 11
-5.20735708E+01
 21
3.34000000E+02
  0
LINE
  8
0
 62
7
 10
-8.29999981E+01
 20
2.27000000E+02
 11
-8.07354579E+00
 21
2.27000000E+02
  0
LINE
  8
0
 62
2
 10
1.04999952E+02
 20
2.71320007E+02
 11
1.64819975E+02
 21
2.71320007E+02
  0
LINE
  8
0
 62
7
 10
1.76999971E+02
 20
2.87500000E+02
 11
1.76999971E+02
 21
2.73500000E+02
  0
LINE
  8
0
 62
7
 10
1.64999975E+02
 20
2.89499985E+02
 11
1.64999975E+02
 21
2.71499985E+02
  0
LINE
  8
0
 62
7
 10
8.59999790E+01
 20
3.37500000E+02
 11
8.59999790E+01
 21
2.23500015E+02
  0
LINE
  8
0
 62
7
 10
1.04999968E+02
 20
2.95500000E+02
 11
1.04999968E+02
 21
2.65500000E+02
  0
LINE
  8
0
 62
7
 10
1.63999986E+02
 20
2.70499968E+02
 11
1.64999987E+02
 21
2.71499969E+02
  0
LINE
  8
0
 62
7
 10
1.04999952E+02
 20
2.70500000E+02
 11
1.63999968E+02
 21
2.70500000E+02
  0
LINE
  8
0
 62
7
 10
8.89999714E+01
 20
2.80500000E+02
 11
1.03383387E+02
 21
2.80500000E+02
  0
LINE
  8
0
 62
7
 10
8.89999714E+01
 20
2.95499969E+02
 11
1.04999952E+02
 21
2.95499969E+02
  0
LINE
  8
0
 62
7
 10
8.59999485E+01
 20
2.98750000E+02
 11
8.89999714E+01
 21
2.98750000E+02
  0
LINE
  8
0
 62
7
 10
1.66999971E+02
 20
2.87500000E+02
 11
1.76999971E+02
 21
2.87500000E+02
  0
LINE
  8
0
 62
7
 10
1.66999971E+02
 20
2.89000015E+02
 11
1.66999971E+02
 21
2.87500000E+02
  0
LINE
  8
0
 62
7
 10
1.66999971E+02
 20
2.85321808E+02
 11
1.76999971E+02
 21
2.85321808E+02
  0
LINE
  8
0
 62
7
 10
1.63999986E+02
 20
2.90499946E+02
 11
1.64999965E+02
 21
2.89499966E+02
  0
LINE
  8
0
 62
7
 10
8.89999714E+01
 20
2.65500000E+02
 11
1.04999952E+02
 21
2.65500000E+02
  0
LINE
  8
0
 62
7
 10
1.64999971E+02
 20
2.88999985E+02
 11
1.66999971E+02
 21
2.88999985E+02
  0
LINE
  8
0
 62
7
 10
1.66999971E+02
 20
2.73500000E+02
 11
1.76999971E+02
 21
2.73500000E+02
  0
LINE
  8
0
 62
7
 10
1.66999971E+02
 20
2.75678146E+02
 11
1.76999971E+02
 21
2.75678146E+02
  0
LINE
  8
0
 62
7
 10
1.66999971E+02
 20
2.85321823E+02
 11
1.66999971E+02
 21
2.75678177E+02
  0
LINE
  8
0
 62
7
 10
1.63999968E+02
 20
2.90500000E+02
 11
1.63999968E+02
 21
2.70500000E+02
  0
LINE
  8
0
 62
7
 10
1.66999971E+02
 20
2.73500000E+02
 11
1.66999971E+02
 21
2.71999985E+02
  0
LINE
  8
0
 62
7
 10
1.64999971E+02
 20
2.71999969E+02
 11
1.66999971E+02
 21
2.71999969E+02
  0
LINE
  8
0
 62
7
 10
6.39999714E+01
 20
2.23500015E+02
 11
8.59999638E+01
 21
2.23500015E+02
  0
LINE
  8
0
 62
7
 10
6.39999714E+01
 20
3.37500000E+02
 11
8.59999638E+01
 21
3.37500000E+02
  0
LINE
  8
0
 62
7
 10
8.59999485E+01
 20
2.62249954E+02
 11
8.89999714E+01
 21
2.62249954E+02
  0
LINE
  8
0
 62
7
 10
8.89999714E+01
 20
2.98750031E+02
 11
8.89999714E+01
 21
2.62249985E+02
  0
LINE
  8
0
 62
2
 10
1.04999952E+02
 20
2.89679962E+02
 11
1.64819948E+02
 21
2.89679962E+02
  0
LINE
  8
0
 62
2
 10
1.66999924E+02
 20
2.85321799E+02
 11
1.76999919E+02
 21
2.75678148E+02
  0
LINE
  8
0
 62
7
 10
1.04999952E+02
 20
2.90499969E+02
 11
1.63999968E+02
 21
2.90499969E+02
  0
LINE
  8
0
 62
2
 10
1.66999967E+02
 20
2.75678131E+02
 11
1.76999973E+02
 21
2.85321792E+02
  0
LINE
  8
0
 62
7
 10
-1.93999998E+02
 20
2.68999939E+02
 11
-1.93999998E+02
 21
2.91999695E+02
  0
LINE
  8
0
 62
7
 10
-1.56999968E+02
 20
2.67500000E+02
 11
-1.56999968E+02
 21
2.93500000E+02
  0
LINE
  8
0
 62
7
 10
-1.92500029E+02
 20
2.93499969E+02
 11
-1.82499983E+02
 21
2.93499969E+02
  0
LINE
  8
0
 62
7
 10
-1.92499968E+02
 20
2.67500000E+02
 11
-1.92499968E+02
 21
2.93500000E+02
  0
LINE
  8
0
 62
7
 10
-1.93999845E+02
 20
2.91999812E+02
 11
-1.92499832E+02
 21
2.93499825E+02
  0
LINE
  8
0
 62
2
 10
-1.93320036E+02
 20
2.92679962E+02
 11
-1.82499983E+02
 21
2.92679962E+02
  0
LINE
  8
0
 62
7
 10
-1.92500029E+02
 20
2.67500000E+02
 11
-1.82499983E+02
 21
2.67500000E+02
  0
LINE
  8
0
 62
7
 10
-1.94000033E+02
 20
2.68999966E+02
 11
-1.92500021E+02
 21
2.67499954E+02
  0
LINE
  8
0
 62
2
 10
-1.93320036E+02
 20
2.68320007E+02
 11
-1.82499983E+02
 21
2.68320007E+02
  0
LINE
  8
0
 62
7
 10
-1.53999968E+02
 20
2.67500000E+02
 11
-1.53999968E+02
 21
2.93500000E+02
  0
LINE
  8
0
 62
7
 10
-1.42000029E+02
 20
2.95500061E+02
 11
-1.39999968E+02
 21
2.95500061E+02
  0
LINE
  8
0
 62
7
 10
-1.50999968E+02
 20
2.67500000E+02
 11
-1.50999968E+02
 21
2.93500000E+02
  0
LINE
  8
0
 62
7
 10
-1.41999907E+02
 20
2.65499954E+02
 11
-1.39999968E+02
 21
2.65499954E+02
  0
LINE
  8
0
 62
7
 10
-1.53999968E+02
 20
2.93500000E+02
 11
-1.44000059E+02
 21
2.93500000E+02
  0
LINE
  8
0
 62
7
 10
-1.53999968E+02
 20
2.67500000E+02
 11
-1.43999968E+02
 21
2.67500000E+02
  0
LINE
  8
0
 62
7
 10
-1.43999977E+02
 20
2.67500019E+02
 11
-1.41999910E+02
 21
2.65499952E+02
  0
LINE
  8
0
 62
7
 10
-1.44000049E+02
 20
2.93500065E+02
 11
-1.42000025E+02
 21
2.95500088E+02
  0
LINE
  8
0
 62
7
 10
-1.56999968E+02
 20
2.92679962E+02
 11
-1.53999968E+02
 21
2.92679962E+02
  0
LINE
  8
0
 62
7
 10
-1.56999968E+02
 20
2.68320007E+02
 11
-1.53999968E+02
 21
2.68320007E+02
  0
CIRCLE
  8
0
 62
7
 10
-8.99999676E+01
 20
2.62499969E+02
 40
2.59999990E+00
  0
ARC
  8
0
 62
7
 10
-8.99999676E+01
 20
2.62499969E+02
 40
5.00000000E+00
 50
1.79999977E+02
 51
1.00179127E-05
  0
ARC
  8
0
 62
7
 10
-8.99999676E+01
 20
2.62499969E+02
 40
5.00000000E+00
 50
0.00000000E+00
 51
1.79999964E+02
  0
ARC
  8
0
 62
7
 10
3.49999714E+01
 20
2.62500000E+02
 40
5.00000000E+00
 50
0.00000000E+00
 51
1.79999964E+02
  0
ARC
  8
0
 62
7
 10
3.49999714E+01
 20
2.62500000E+02
 40
5.00000000E+00
 50
1.79999977E+02
 51
1.00179127E-05
  0
CIRCLE
  8
0
 62
7
 10
3.49999714E+01
 20
2.62500000E+02
 40
2.59999990E+00
  0
ARC
  8
0
 62
7
 10
-1.18499952E+02
 20
3.35380310E+02
 40
5.00000000E-01
 50
9.10002493E+01
 51
1.79999951E+02
  0
ARC
  8
0
 62
7
 10
-1.39499968E+02
 20
3.03000061E+02
 40
5.00000000E-01
 50
8.99999818E+01
 51
1.79999951E+02
  0
ARC
  8
0
 62
7
 10
-1.34499968E+02
 20
3.04028320E+02
 40
5.00000000E-01
 50
9.20007356E+01
 51
1.79999951E+02
  0
ARC
  8
0
 62
7
 10
-1.20499937E+02
 20
3.05000061E+02
 40
5.00000000E-01
 50
8.99999818E+01
 51
1.79999951E+02
  0
ARC
  8
0
 62
7
 10
-1.34499968E+02
 20
2.56971817E+02
 40
5.00000000E-01
 50
1.79999977E+02
 51
2.67999192E+02
  0
ARC
  8
0
 62
7
 10
-1.20499937E+02
 20
2.56000061E+02
 40
5.00000000E-01
 50
1.79999977E+02
 51
2.69999974E+02
  0
ARC
  8
0
 62
7
 10
-1.39499968E+02
 20
2.58000046E+02
 40
5.00000000E-01
 50
1.79999977E+02
 51
2.69999974E+02
  0
ARC
  8
0
 62
7
 10
-1.18499952E+02
 20
2.25619736E+02
 40
5.00000000E-01
 50
1.79999977E+02
 51
2.68999679E+02
  0
CIRCLE
  8
0
 62
7
 10
-9.89999523E+01
 20
2.92500076E+02
 40
9.25000000E+00
  0
ARC
  8
0
 62
7
 10
-1.12999937E+02
 20
3.13500061E+02
 40
2.00000000E+00
 50
8.99999818E+01
 51
1.79999951E+02
  0
ARC
  8
0
 62
7
 10
-1.12999937E+02
 20
2.47500076E+02
 40
2.00000000E+00
 50
1.79999977E+02
 51
2.70000028E+02
  0
CIRCLE
  8
0
 62
7
 10
-9.89999523E+01
 20
2.92500000E+02
 40
1.10000000E+01
  0
CIRCLE
  8
0
 62
2
 10
-9.89999828E+01
 20
2.92500000E+02
 40
1.04775000E+01
  0
ARC
  8
0
 62
7
 10
6.34999790E+01
 20
2.25619690E+02
 40
5.00000000E-01
 50
2.71000258E+02
 51
3.59999959E+02
  0
ARC
  8
0
 62
7
 10
6.34999790E+01
 20
3.35380280E+02
 40
5.00000000E-01
 50
3.59999986E+02
 51
8.89996737E+01
  0
CIRCLE
  8
0
 62
7
 10
4.39999409E+01
 20
2.92500076E+02
 40
9.25000000E+00
  0
ARC
  8
0
 62
7
 10
5.79999561E+01
 20
2.47499924E+02
 40
2.00000000E+00
 50
2.69999991E+02
 51
3.59999959E+02
  0
ARC
  8
0
 62
7
 10
5.79999561E+01
 20
3.13499939E+02
 40
2.00000000E+00
 50
3.59999986E+02
 51
9.00000094E+01
  0
CIRCLE
  8
0
 62
7
 10
4.39999409E+01
 20
2.92500000E+02
 40
1.10000000E+01
  0
CIRCLE
  8
0
 62
2
 10
4.40000019E+01
 20
2.92500000E+02
 40
1.04775000E+01
  0
ARC
  8
0
 62
7
 10
8.67937031E+01
 20
2.73000000E+02
 40
1.82062645E+01
 50
3.35672856E+02
 51
2.43271445E+01
  0
ARC
  8
0
 62
7
 10
8.67937031E+01
 20
2.87999969E+02
 40
1.82062645E+01
 50
3.35672856E+02
 51
2.43271445E+01
  0
ARC
  8
0
 62
4
 10
-1.94498014E+02
 20
2.71499924E+02
 40
2.59980309E+01
 50
3.39746143E+02
 51
2.02538569E+01
  0
ARC
  8
0
 62
4
 10
-1.94498014E+02
 20
2.89499931E+02
 40
2.59980309E+01
 50
3.39746143E+02
 51
2.02538569E+01
  0
ARC
  8
0
 62
4
 10
-1.56501952E+02
 20
2.89499931E+02
 40
2.59980309E+01
 50
1.59746143E+02
 51
2.00253857E+02
  0
ARC
  8
0
 62
4
 10
-1.56501952E+02
 20
2.71499924E+02
 40
2.59980309E+01
 50
1.59746143E+02
 51
2.00253857E+02
  0
LINE
  8
0
 62
4
 10
-1.80892473E+02
 20
2.80499928E+02
 11
-1.70107492E+02
 21
2.80499928E+02
  0
LINE
  8
0
 62
4
 10
-1.68499983E+02
 20
2.98499935E+02
 11
-1.68499983E+02
 21
2.62500065E+02
  0
LINE
  8
0
 62
4
 10
-1.82499983E+02
 20
2.98499935E+02
 11
-1.82499983E+02
 21
2.62500065E+02
  0
LINE
  8
0
 62
4
 10
-1.82499983E+02
 20
2.98499935E+02
 11
-1.68499983E+02
 21
2.98499935E+02
  0
LINE
  8
0
 62
4
 10
-1.82499983E+02
 20
2.62500065E+02
 11
-1.68499983E+02
 21
2.62500065E+02
  0
LINE
  8
0
 62
7
 10
-1.68499983E+02
 20
2.93499969E+02
 11
-1.56999968E+02
 21
2.93499969E+02
  0
LINE
  8
0
 62
2
 10
-1.68499983E+02
 20
2.92679962E+02
 11
-1.56999968E+02
 21
2.92679962E+02
  0
LINE
  8
0
 62
7
 10
-1.68499983E+02
 20
2.67500000E+02
 11
-1.56999968E+02
 21
2.67500000E+02
  0
LINE
  8
0
 62
2
 10
-1.68499983E+02
 20
2.68320007E+02
 11
-1.56999968E+02
 21
2.68320007E+02
  0
LINE
  8
0
 62
7
 10
-1.34999968E+02
 20
3.04063293E+02
 11
-1.34999968E+02
 21
2.56936768E+02
  0
LINE
  8
0
 62
4
 10
-1.00000019E+01
 20
2.55715778E+02
 11
-1.91339765E+01
 21
2.55715778E+02
  0
LINE
  8
0
 62
4
 10
-1.00000019E+01
 20
2.52715778E+02
 11
-2.08660273E+01
 21
2.52715778E+02
  0
LINE
  8
0
 62
6
 10
-1.82679511E+01
 20
2.57215778E+02
 11
-2.17320527E+01
 21
2.51215778E+02
  0
LINE
  8
0
  6
CENTER
 62
6
 10
2.49999981E+01
 20
2.54215778E+02
 11
-2.50000019E+01
 21
2.54215778E+02
  0
LINE
  8
0
 62
6
 10
2.99999813E+00
 20
2.26963346E+02
 11
2.99999813E+00
 21
2.28017928E+02
  0
LINE
  8
0
 62
6
 10
-1.87421408E-06
 20
2.26963346E+02
 11
-1.87421408E-06
 21
2.28017928E+02
  0
LINE
  8
0
 62
4
 10
3.49999813E+00
 20
2.27511934E+02
 11
3.49999813E+00
 21
2.28017928E+02
  0
LINE
  8
0
 62
4
 10
-5.00001874E-01
 20
2.27511934E+02
 11
-5.00001874E-01
 21
2.28017928E+02
  0
LINE
  8
0
 62
4
 10
4.99999809E+00
 20
2.28017928E+02
 11
4.99999809E+00
 21
2.41131565E+02
  0
LINE
  8
0
 62
4
 10
-1.00000019E+01
 20
2.28017928E+02
 11
-1.00000019E+01
 21
2.57139258E+02
  0
LINE
  8
0
 62
4
 10
1.99999981E+01
 20
2.41131565E+02
 11
1.99999981E+01
 21
2.54816976E+02
  0
LINE
  8
0
  6
CENTER
 62
6
 10
-6.50000194E+00
 20
2.23234406E+02
 11
-6.50000194E+00
 21
2.33499985E+02
  0
LINE
  8
0
  6
CENTER
 62
6
 10
1.49999806E+00
 20
2.23234406E+02
 11
1.49999806E+00
 21
2.33499985E+02
  0
LINE
  8
0
  6
CENTER
 62
6
 10
1.24999981E+01
 20
2.49870285E+02
 11
1.24999981E+01
 21
2.54870285E+02
  0
LINE
  8
0
 62
4
 10
-5.00000191E+00
 20
2.55264829E+02
 11
-5.00000191E+00
 21
2.56865087E+02
  0
LINE
  8
0
 62
4
 10
-3.50000191E+00
 20
2.55656827E+02
 11
-3.50000191E+00
 21
2.56865087E+02
  0
LINE
  8
0
 62
4
 10
2.14999981E+01
 20
2.52714369E+02
 11
2.14999981E+01
 21
2.55714711E+02
  0
POLYLINE
  8
0
 62
4
 66
1
  0
VERTEX
  8
0
 62
4
 10
-5.00002000E-01
 20
2.27511934E+02
  0
VERTEX
  8
0
 62
4
 10
-4.91950588E-01
 20
2.27437588E+02
  0
VERTEX
  8
0
 62
4
 10
-4.67861177E-01
 20
2.27363841E+02
  0
VERTEX
  8
0
 62
4
 10
-4.27927720E-01
 20
2.27291287E+02
  0
VERTEX
  8
0
 62
4
 10
-3.72471738E-01
 20
2.27220508E+02
  0
VERTEX
  8
0
 62
4
 10
-3.01939731E-01
 20
2.27152077E+02
  0
VERTEX
  8
0
 62
4
 10
-2.16899580E-01
 20
2.27086542E+02
  0
VERTEX
  8
0
 62
4
 10
-1.18035979E-01
 20
2.27024433E+02
  0
VERTEX
  8
0
 62
4
 10
-6.14491899E-03
 20
2.26966249E+02
  0
VERTEX
  8
0
 62
4
 10
1.17872718E-01
 20
2.26912458E+02
  0
VERTEX
  8
0
 62
4
 10
2.53018416E-01
 20
2.26863494E+02
  0
VERTEX
  8
0
 62
4
 10
3.98204061E-01
 20
2.26819750E+02
  0
VERTEX
  8
0
 62
4
 10
5.52260703E-01
 20
2.26781580E+02
  0
VERTEX
  8
0
 62
4
 10
7.13947970E-01
 20
2.26749290E+02
  0
VERTEX
  8
0
 62
4
 10
8.81964049E-01
 20
2.26723141E+02
  0
VERTEX
  8
0
 62
4
 10
1.05495617E+00
 20
2.26703342E+02
  0
VERTEX
  8
0
 62
4
 10
1.23153152E+00
 20
2.26690054E+02
  0
VERTEX
  8
0
 62
4
 10
1.41026839E+00
 20
2.26683383E+02
  0
VERTEX
  8
0
 62
4
 10
1.58972772E+00
 20
2.26683383E+02
  0
VERTEX
  8
0
 62
4
 10
1.76846459E+00
 20
2.26690054E+02
  0
VERTEX
  8
0
 62
4
 10
1.94503994E+00
 20
2.26703342E+02
  0
VERTEX
  8
0
 62
4
 10
2.11803206E+00
 20
2.26723141E+02
  0
VERTEX
  8
0
 62
4
 10
2.28604814E+00
 20
2.26749290E+02
  0
VERTEX
  8
0
 62
4
 10
2.44773541E+00
 20
2.26781580E+02
  0
VERTEX
  8
0
 62
4
 10
2.60179205E+00
 20
2.26819750E+02
  0
VERTEX
  8
0
 62
4
 10
2.74697770E+00
 20
2.26863494E+02
  0
VERTEX
  8
0
 62
4
 10
2.88212339E+00
 20
2.26912458E+02
  0
VERTEX
  8
0
 62
4
 10
3.00614103E+00
 20
2.26966249E+02
  0
VERTEX
  8
0
 62
4
 10
3.11803209E+00
 20
2.27024433E+02
  0
VERTEX
  8
0
 62
4
 10
3.21689570E+00
 20
2.27086542E+02
  0
VERTEX
  8
0
 62
4
 10
3.30193585E+00
 20
2.27152077E+02
  0
VERTEX
  8
0
 62
4
 10
3.37246785E+00
 20
2.27220508E+02
  0
VERTEX
  8
0
 62
4
 10
3.42792384E+00
 20
2.27291287E+02
  0
VERTEX
  8
0
 62
4
 10
3.46785729E+00
 20
2.27363841E+02
  0
VERTEX
  8
0
 62
4
 10
3.49194671E+00
 20
2.27437588E+02
  0
VERTEX
  8
0
 62
4
 10
3.49999812E+00
 20
2.27511934E+02
  0
SEQEND
  8
0
  0
LINE
  8
0
 62
6
 10
-8.00000187E+00
 20
2.26963346E+02
 11
-8.00000187E+00
 21
2.28017928E+02
  0
LINE
  8
0
 62
4
 10
-8.50000187E+00
 20
2.27511934E+02
 11
-8.50000187E+00
 21
2.28017928E+02
  0
POLYLINE
  8
0
 62
4
 66
1
  0
VERTEX
  8
0
 62
4
 10
-8.50000200E+00
 20
2.27511934E+02
  0
VERTEX
  8
0
 62
4
 10
-8.49195059E+00
 20
2.27437588E+02
  0
VERTEX
  8
0
 62
4
 10
-8.46786118E+00
 20
2.27363841E+02
  0
VERTEX
  8
0
 62
4
 10
-8.42792772E+00
 20
2.27291287E+02
  0
VERTEX
  8
0
 62
4
 10
-8.37247174E+00
 20
2.27220508E+02
  0
VERTEX
  8
0
 62
4
 10
-8.30193973E+00
 20
2.27152077E+02
  0
VERTEX
  8
0
 62
4
 10
-8.21689958E+00
 20
2.27086542E+02
  0
VERTEX
  8
0
 62
4
 10
-8.11803598E+00
 20
2.27024433E+02
  0
VERTEX
  8
0
 62
4
 10
-8.00614492E+00
 20
2.26966249E+02
  0
VERTEX
  8
0
 62
4
 10
-7.88212728E+00
 20
2.26912458E+02
  0
VERTEX
  8
0
 62
4
 10
-7.74698158E+00
 20
2.26863494E+02
  0
VERTEX
  8
0
 62
4
 10
-7.60179594E+00
 20
2.26819750E+02
  0
VERTEX
  8
0
 62
4
 10
-7.44773930E+00
 20
2.26781580E+02
  0
VERTEX
  8
0
 62
4
 10
-7.28605203E+00
 20
2.26749290E+02
  0
VERTEX
  8
0
 62
4
 10
-7.11803595E+00
 20
2.26723141E+02
  0
VERTEX
  8
0
 62
4
 10
-6.94504383E+00
 20
2.26703342E+02
  0
VERTEX
  8
0
 62
4
 10
-6.76846848E+00
 20
2.26690054E+02
  0
VERTEX
  8
0
 62
4
 10
-6.58973161E+00
 20
2.26683383E+02
  0
VERTEX
  8
0
 62
4
 10
-6.41027228E+00
 20
2.26683383E+02
  0
VERTEX
  8
0
 62
4
 10
-6.23153541E+00
 20
2.26690054E+02
  0
VERTEX
  8
0
 62
4
 10
-6.05496006E+00
 20
2.26703342E+02
  0
VERTEX
  8
0
 62
4
 10
-5.88196794E+00
 20
2.26723141E+02
  0
VERTEX
  8
0
 62
4
 10
-5.71395186E+00
 20
2.26749290E+02
  0
VERTEX
  8
0
 62
4
 10
-5.55226459E+00
 20
2.26781580E+02
  0
VERTEX
  8
0
 62
4
 10
-5.39820795E+00
 20
2.26819750E+02
  0
VERTEX
  8
0
 62
4
 10
-5.25302230E+00
 20
2.26863494E+02
  0
VERTEX
  8
0
 62
4
 10
-5.11787661E+00
 20
2.26912458E+02
  0
VERTEX
  8
0
 62
4
 10
-4.99385897E+00
 20
2.26966249E+02
  0
VERTEX
  8
0
 62
4
 10
-4.88196791E+00
 20
2.27024433E+02
  0
VERTEX
  8
0
 62
4
 10
-4.78310430E+00
 20
2.27086542E+02
  0
VERTEX
  8
0
 62
4
 10
-4.69806415E+00
 20
2.27152077E+02
  0
VERTEX
  8
0
 62
4
 10
-4.62753215E+00
 20
2.27220508E+02
  0
VERTEX
  8
0
 62
4
 10
-4.57207616E+00
 20
2.27291287E+02
  0
VERTEX
  8
0
 62
4
 10
-4.53214271E+00
 20
2.27363841E+02
  0
VERTEX
  8
0
 62
4
 10
-4.50805329E+00
 20
2.27437588E+02
  0
VERTEX
  8
0
 62
4
 10
-4.50000188E+00
 20
2.27511934E+02
  0
SEQEND
  8
0
  0
LINE
  8
0
 62
6
 10
-5.00000187E+00
 20
2.26963346E+02
 11
-5.00000187E+00
 21
2.28017928E+02
  0
LINE
  8
0
 62
4
 10
-4.50000187E+00
 20
2.27511934E+02
 11
-4.50000187E+00
 21
2.28017928E+02
  0
LINE
  8
0
 62
4
 10
4.99999811E+00
 20
2.28017928E+02
 11
-1.00000019E+01
 21
2.28017928E+02
  0
LINE
  8
0
 62
4
 10
4.99999811E+00
 20
2.34761836E+02
 11
-1.00000019E+01
 21
2.34761836E+02
  0
LINE
  8
0
 62
4
 10
1.99999981E+01
 20
2.41131565E+02
 11
-1.00000019E+01
 21
2.41131565E+02
  0
LINE
  8
0
 62
4
 10
1.99999981E+01
 20
2.50504166E+02
 11
-1.00000019E+01
 21
2.50504166E+02
  0
LINE
  8
0
 62
4
 10
1.99999981E+01
 20
2.57139258E+02
 11
7.51092849E+00
 21
2.57139258E+02
  0
LINE
  8
0
 62
4
 10
1.99999981E+01
 20
2.51566469E+02
 11
2.14999981E+01
 21
2.52714369E+02
  0
LINE
  8
0
 62
4
 10
1.99999981E+01
 20
2.55206314E+02
 11
9.14999809E+00
 21
2.55206314E+02
  0
LINE
  8
0
 62
4
 10
2.14999981E+01
 20
2.54775431E+02
 11
1.99999981E+01
 21
2.55206314E+02
  0
LINE
  8
0
 62
4
 10
1.99999981E+01
 20
2.56865087E+02
 11
8.19948890E+00
 21
2.56865087E+02
  0
LINE
  8
0
 62
4
 10
2.14999981E+01
 20
2.55714711E+02
 11
1.99999981E+01
 21
2.56865087E+02
  0
LINE
  8
0
 62
4
 10
1.99999981E+01
 20
2.54816976E+02
 11
9.14999809E+00
 21
2.54816976E+02
  0
LINE
  8
0
 62
4
 10
1.99999981E+01
 20
2.54816976E+02
 11
1.99999981E+01
 21
2.56865087E+02
  0
LINE
  8
0
 62
4
 10
1.99999981E+01
 20
2.56865087E+02
 11
1.99999981E+01
 21
2.57139258E+02
  0
LINE
  8
0
 62
4
 10
1.29999809E+00
 20
2.52370285E+02
 11
1.29999809E+00
 21
2.53280247E+02
  0
LINE
  8
0
 62
4
 10
-6.30000191E+00
 20
2.53280247E+02
 11
-6.30000191E+00
 21
2.52370285E+02
  0
LINE
  8
0
 62
4
 10
8.99998093E-01
 20
2.53280247E+02
 11
8.99998093E-01
 21
2.54309233E+02
  0
LINE
  8
0
 62
4
 10
-5.90000191E+00
 20
2.53280247E+02
 11
-5.90000191E+00
 21
2.54309233E+02
  0
LINE
  8
0
 62
4
 10
8.49998093E-01
 20
2.54550148E+02
 11
8.49998093E-01
 21
2.55769029E+02
  0
LINE
  8
0
 62
4
 10
9.14999809E+00
 20
2.55769029E+02
 11
9.14999809E+00
 21
2.54167497E+02
  0
POLYLINE
  8
0
 62
4
 66
1
  0
VERTEX
  8
0
 62
4
 10
1.29999810E+00
 20
2.53191433E+02
  0
VERTEX
  8
0
 62
4
 10
1.44989876E+00
 20
2.53057416E+02
  0
VERTEX
  8
0
 62
4
 10
1.62795832E+00
 20
2.52929461E+02
  0
VERTEX
  8
0
 62
4
 10
1.83276444E+00
 20
2.52808584E+02
  0
VERTEX
  8
0
 62
4
 10
2.06269261E+00
 20
2.52695743E+02
  0
VERTEX
  8
0
 62
4
 10
2.31591908E+00
 20
2.52591832E+02
  0
VERTEX
  8
0
 62
4
 10
2.59043529E+00
 20
2.52497677E+02
  0
VERTEX
  8
0
 62
4
 10
2.88406382E+00
 20
2.52414024E+02
  0
VERTEX
  8
0
 62
4
 10
3.19447565E+00
 20
2.52341537E+02
  0
VERTEX
  8
0
 62
4
 10
3.51920863E+00
 20
2.52280790E+02
  0
VERTEX
  8
0
 62
4
 10
3.85568703E+00
 20
2.52232265E+02
  0
VERTEX
  8
0
 62
4
 10
4.20124194E+00
 20
2.52196348E+02
  0
VERTEX
  8
0
 62
4
 10
4.55313248E+00
 20
2.52173323E+02
  0
VERTEX
  8
0
 62
4
 10
4.90856749E+00
 20
2.52163372E+02
  0
VERTEX
  8
0
 62
4
 10
5.26472772E+00
 20
2.52166576E+02
  0
VERTEX
  8
0
 62
4
 10
5.61878815E+00
 20
2.52182908E+02
  0
VERTEX
  8
0
 62
4
 10
5.96794042E+00
 20
2.52212238E+02
  0
VERTEX
  8
0
 62
4
 10
6.30941511E+00
 20
2.52254335E+02
  0
VERTEX
  8
0
 62
4
 10
6.64050368E+00
 20
2.52308863E+02
  0
VERTEX
  8
0
 62
4
 10
6.95857999E+00
 20
2.52375392E+02
  0
VERTEX
  8
0
 62
4
 10
7.26112110E+00
 20
2.52453393E+02
  0
VERTEX
  8
0
 62
4
 10
7.54572730E+00
 20
2.52542246E+02
  0
VERTEX
  8
0
 62
4
 10
7.81014113E+00
 20
2.52641249E+02
  0
VERTEX
  8
0
 62
4
 10
8.05226529E+00
 20
2.52749614E+02
  0
VERTEX
  8
0
 62
4
 10
8.27017929E+00
 20
2.52866484E+02
  0
VERTEX
  8
0
 62
4
 10
8.46215467E+00
 20
2.52990930E+02
  0
VERTEX
  8
0
 62
4
 10
8.62666870E+00
 20
2.53121966E+02
  0
VERTEX
  8
0
 62
4
 10
8.76241649E+00
 20
2.53258552E+02
  0
VERTEX
  8
0
 62
4
 10
8.86832129E+00
 20
2.53399605E+02
  0
VERTEX
  8
0
 62
4
 10
8.94354309E+00
 20
2.53544006E+02
  0
VERTEX
  8
0
 62
4
 10
8.98748524E+00
 20
2.53690610E+02
  0
SEQEND
  8
0
  0
POLYLINE
  8
0
 62
4
 66
1
  0
VERTEX
  8
0
 62
4
 10
1.28962358E+00
 20
2.53396611E+02
  0
VERTEX
  8
0
 62
4
 10
1.47005441E+00
 20
2.53262553E+02
  0
VERTEX
  8
0
 62
4
 10
1.67857699E+00
 20
2.53135697E+02
  0
VERTEX
  8
0
 62
4
 10
1.91353186E+00
 20
2.53017052E+02
  0
VERTEX
  8
0
 62
4
 10
2.17304922E+00
 20
2.52907562E+02
  0
VERTEX
  8
0
 62
4
 10
2.45506381E+00
 20
2.52808099E+02
  0
VERTEX
  8
0
 62
4
 10
2.75733130E+00
 20
2.52719455E+02
  0
VERTEX
  8
0
 62
4
 10
3.07744623E+00
 20
2.52642334E+02
  0
VERTEX
  8
0
 62
4
 10
3.41286106E+00
 20
2.52577350E+02
  0
VERTEX
  8
0
 62
4
 10
3.76090654E+00
 20
2.52525021E+02
  0
VERTEX
  8
0
 62
4
 10
4.11881287E+00
 20
2.52485763E+02
  0
VERTEX
  8
0
 62
4
 10
4.48373178E+00
 20
2.52459889E+02
  0
VERTEX
  8
0
 62
4
 10
4.85275920E+00
 20
2.52447604E+02
  0
VERTEX
  8
0
 62
4
 10
5.22295837E+00
 20
2.52449006E+02
  0
VERTEX
  8
0
 62
4
 10
5.59138319E+00
 20
2.52464084E+02
  0
VERTEX
  8
0
 62
4
 10
5.95510170E+00
 20
2.52492718E+02
  0
VERTEX
  8
0
 62
4
 10
6.31121936E+00
 20
2.52534680E+02
  0
VERTEX
  8
0
 62
4
 10
6.65690217E+00
 20
2.52589636E+02
  0
VERTEX
  8
0
 62
4
 10
6.98939911E+00
 20
2.52657149E+02
  0
VERTEX
  8
0
 62
4
 10
7.30606415E+00
 20
2.52736682E+02
  0
VERTEX
  8
0
 62
4
 10
7.60437723E+00
 20
2.52827601E+02
  0
VERTEX
  8
0
 62
4
 10
7.88196432E+00
 20
2.52929183E+02
  0
VERTEX
  8
0
 62
4
 10
8.13661635E+00
 20
2.53040620E+02
  0
VERTEX
  8
0
 62
4
 10
8.36630678E+00
 20
2.53161025E+02
  0
VERTEX
  8
0
 62
4
 10
8.56920769E+00
 20
2.53289439E+02
  0
VERTEX
  8
0
 62
4
 10
8.74370437E+00
 20
2.53424841E+02
  0
VERTEX
  8
0
 62
4
 10
8.88840816E+00
 20
2.53566154E+02
  0
VERTEX
  8
0
 62
4
 10
9.00216749E+00
 20
2.53712251E+02
  0
VERTEX
  8
0
 62
4
 10
9.08407705E+00
 20
2.53861972E+02
  0
VERTEX
  8
0
 62
4
 10
9.13348498E+00
 20
2.54014124E+02
  0
VERTEX
  8
0
 62
4
 10
9.14999809E+00
 20
2.54167497E+02
  0
SEQEND
  8
0
  0
POLYLINE
  8
0
 62
4
 66
1
  0
VERTEX
  8
0
 62
4
 10
9.14999809E+00
 20
2.55769029E+02
  0
VERTEX
  8
0
 62
4
 10
9.13420609E+00
 20
2.55919022E+02
  0
VERTEX
  8
0
 62
4
 10
9.08695026E+00
 20
2.56067874E+02
  0
VERTEX
  8
0
 62
4
 10
9.00859027E+00
 20
2.56214451E+02
  0
VERTEX
  8
0
 62
4
 10
8.89972247E+00
 20
2.56357638E+02
  0
VERTEX
  8
0
 62
4
 10
8.76117541E+00
 20
2.56496345E+02
  0
VERTEX
  8
0
 62
4
 10
8.59400352E+00
 20
2.56629517E+02
  0
VERTEX
  8
0
 62
4
 10
8.39947907E+00
 20
2.56756141E+02
  0
VERTEX
  8
0
 62
4
 10
8.17908253E+00
 20
2.56875252E+02
  0
VERTEX
  8
0
 62
4
 10
7.93449123E+00
 20
2.56985943E+02
  0
VERTEX
  8
0
 62
4
 10
7.66756667E+00
 20
2.57087374E+02
  0
VERTEX
  8
0
 62
4
 10
7.38034030E+00
 20
2.57178771E+02
  0
VERTEX
  8
0
 62
4
 10
7.07499809E+00
 20
2.57259439E+02
  0
VERTEX
  8
0
 62
4
 10
6.75386387E+00
 20
2.57328764E+02
  0
VERTEX
  8
0
 62
4
 10
6.41938168E+00
 20
2.57386218E+02
  0
VERTEX
  8
0
 62
4
 10
6.07409712E+00
 20
2.57431365E+02
  0
VERTEX
  8
0
 62
4
 10
5.72063802E+00
 20
2.57463860E+02
  0
VERTEX
  8
0
 62
4
 10
5.36169442E+00
 20
2.57483457E+02
  0
VERTEX
  8
0
 62
4
 10
4.99999809E+00
 20
2.57490006E+02
  0
VERTEX
  8
0
 62
4
 10
4.63830175E+00
 20
2.57483457E+02
  0
VERTEX
  8
0
 62
4
 10
4.27935815E+00
 20
2.57463860E+02
  0
VERTEX
  8
0
 62
4
 10
3.92589905E+00
 20
2.57431365E+02
  0
VERTEX
  8
0
 62
4
 10
3.58061449E+00
 20
2.57386218E+02
  0
VERTEX
  8
0
 62
4
 10
3.24613230E+00
 20
2.57328764E+02
  0
VERTEX
  8
0
 62
4
 10
2.92499809E+00
 20
2.57259439E+02
  0
VERTEX
  8
0
 62
4
 10
2.61965588E+00
 20
2.57178771E+02
  0
VERTEX
  8
0
 62
4
 10
2.33242951E+00
 20
2.57087374E+02
  0
VERTEX
  8
0
 62
4
 10
2.06550494E+00
 20
2.56985943E+02
  0
VERTEX
  8
0
 62
4
 10
1.82091365E+00
 20
2.56875252E+02
  0
VERTEX
  8
0
 62
4
 10
1.60051710E+00
 20
2.56756141E+02
  0
VERTEX
  8
0
 62
4
 10
1.40599266E+00
 20
2.56629517E+02
  0
VERTEX
  8
0
 62
4
 10
1.23882077E+00
 20
2.56496345E+02
  0
VERTEX
  8
0
 62
4
 10
1.10027371E+00
 20
2.56357638E+02
  0
VERTEX
  8
0
 62
4
 10
9.91405910E-01
 20
2.56214451E+02
  0
VERTEX
  8
0
 62
4
 10
9.13045914E-01
 20
2.56067874E+02
  0
VERTEX
  8
0
 62
4
 10
8.65790092E-01
 20
2.55919022E+02
  0
VERTEX
  8
0
 62
4
 10
8.49998090E-01
 20
2.55769029E+02
  0
VERTEX
  8
0
 62
4
 10
8.65790093E-01
 20
2.55619036E+02
  0
VERTEX
  8
0
 62
4
 10
9.13045916E-01
 20
2.55470184E+02
  0
VERTEX
  8
0
 62
4
 10
9.91405913E-01
 20
2.55323607E+02
  0
VERTEX
  8
0
 62
4
 10
1.10027372E+00
 20
2.55180420E+02
  0
VERTEX
  8
0
 62
4
 10
1.23882078E+00
 20
2.55041713E+02
  0
VERTEX
  8
0
 62
4
 10
1.40599267E+00
 20
2.54908541E+02
  0
VERTEX
  8
0
 62
4
 10
1.60051711E+00
 20
2.54781917E+02
  0
VERTEX
  8
0
 62
4
 10
1.82091366E+00
 20
2.54662806E+02
  0
VERTEX
  8
0
 62
4
 10
2.06550495E+00
 20
2.54552115E+02
  0
VERTEX
  8
0
 62
4
 10
2.33242952E+00
 20
2.54450684E+02
  0
VERTEX
  8
0
 62
4
 10
2.61965589E+00
 20
2.54359287E+02
  0
VERTEX
  8
0
 62
4
 10
2.92499810E+00
 20
2.54278619E+02
  0
VERTEX
  8
0
 62
4
 10
3.24613231E+00
 20
2.54209294E+02
  0
VERTEX
  8
0
 62
4
 10
3.58061450E+00
 20
2.54151840E+02
  0
VERTEX
  8
0
 62
4
 10
3.92589906E+00
 20
2.54106693E+02
  0
VERTEX
  8
0
 62
4
 10
4.27935816E+00
 20
2.54074198E+02
  0
VERTEX
  8
0
 62
4
 10
4.63830177E+00
 20
2.54054601E+02
  0
VERTEX
  8
0
 62
4
 10
4.99999810E+00
 20
2.54048052E+02
  0
VERTEX
  8
0
 62
4
 10
5.36169443E+00
 20
2.54054601E+02
  0
VERTEX
  8
0
 62
4
 10
5.72063804E+00
 20
2.54074198E+02
  0
VERTEX
  8
0
 62
4
 10
6.07409714E+00
 20
2.54106693E+02
  0
VERTEX
  8
0
 62
4
 10
6.41938169E+00
 20
2.54151840E+02
  0
VERTEX
  8
0
 62
4
 10
6.75386388E+00
 20
2.54209294E+02
  0
VERTEX
  8
0
 62
4
 10
7.07499810E+00
 20
2.54278619E+02
  0
VERTEX
  8
0
 62
4
 10
7.38034031E+00
 20
2.54359287E+02
  0
VERTEX
  8
0
 62
4
 10
7.66756668E+00
 20
2.54450684E+02
  0
VERTEX
  8
0
 62
4
 10
7.93449124E+00
 20
2.54552115E+02
  0
VERTEX
  8
0
 62
4
 10
8.17908254E+00
 20
2.54662806E+02
  0
VERTEX
  8
0
 62
4
 10
8.39947908E+00
 20
2.54781917E+02
  0
VERTEX
  8
0
 62
4
 10
8.59400352E+00
 20
2.54908541E+02
  0
VERTEX
  8
0
 62
4
 10
8.76117541E+00
 20
2.55041713E+02
  0
VERTEX
  8
0
 62
4
 10
8.89972247E+00
 20
2.55180420E+02
  0
VERTEX
  8
0
 62
4
 10
9.00859027E+00
 20
2.55323607E+02
  0
VERTEX
  8
0
 62
4
 10
9.08695027E+00
 20
2.55470184E+02
  0
VERTEX
  8
0
 62
4
 10
9.13420609E+00
 20
2.55619036E+02
  0
VERTEX
  8
0
 62
4
 10
9.14999809E+00
 20
2.55769029E+02
  0
SEQEND
  8
0
  0
ARC
  8
0
 62
4
 10
1.13695988E+01
 20
2.40984410E+02
 40
1.67245585E+01
 50
1.05971208E+02
 51
1.19114206E+02
  0
ARC
  8
0
 62
4
 10
-1.36960596E+00
 20
2.40984401E+02
 40
1.67245676E+01
 50
6.08857978E+01
 51
7.40287885E+01
  0
POLYLINE
  8
0
 62
4
 66
1
  0
VERTEX
  8
0
 62
4
 10
-6.30000191E+00
 20
2.52370285E+02
  0
VERTEX
  8
0
 62
4
 10
-6.28470423E+00
 20
2.52229028E+02
  0
VERTEX
  8
0
 62
4
 10
-6.23893435E+00
 20
2.52088909E+02
  0
VERTEX
  8
0
 62
4
 10
-6.16306078E+00
 20
2.51951055E+02
  0
VERTEX
  8
0
 62
4
 10
-6.05769442E+00
 20
2.51816576E+02
  0
VERTEX
  8
0
 62
4
 10
-5.92368361E+00
 20
2.51686556E+02
  0
VERTEX
  8
0
 62
4
 10
-5.76210733E+00
 20
2.51562041E+02
  0
VERTEX
  8
0
 62
4
 10
-5.57426650E+00
 20
2.51444033E+02
  0
VERTEX
  8
0
 62
4
 10
-5.36167349E+00
 20
2.51333483E+02
  0
VERTEX
  8
0
 62
4
 10
-5.12603999E+00
 20
2.51231280E+02
  0
VERTEX
  8
0
 62
4
 10
-4.86926317E+00
 20
2.51138248E+02
  0
VERTEX
  8
0
 62
4
 10
-4.59341045E+00
 20
2.51055136E+02
  0
VERTEX
  8
0
 62
4
 10
-4.30070284E+00
 20
2.50982612E+02
  0
VERTEX
  8
0
 62
4
 10
-3.99349705E+00
 20
2.50921262E+02
  0
VERTEX
  8
0
 62
4
 10
-3.67426651E+00
 20
2.50871578E+02
  0
VERTEX
  8
0
 62
4
 10
-3.34558148E+00
 20
2.50833960E+02
  0
VERTEX
  8
0
 62
4
 10
-3.01008834E+00
 20
2.50808712E+02
  0
VERTEX
  8
0
 62
4
 10
-2.67048829E+00
 20
2.50796037E+02
  0
VERTEX
  8
0
 62
4
 10
-2.32951558E+00
 20
2.50796037E+02
  0
VERTEX
  8
0
 62
4
 10
-1.98991552E+00
 20
2.50808712E+02
  0
VERTEX
  8
0
 62
4
 10
-1.65442238E+00
 20
2.50833960E+02
  0
VERTEX
  8
0
 62
4
 10
-1.32573735E+00
 20
2.50871577E+02
  0
VERTEX
  8
0
 62
4
 10
-1.00650681E+00
 20
2.50921262E+02
  0
VERTEX
  8
0
 62
4
 10
-6.99301013E-01
 20
2.50982612E+02
  0
VERTEX
  8
0
 62
4
 10
-4.06593400E-01
 20
2.51055136E+02
  0
VERTEX
  8
0
 62
4
 10
-1.30740681E-01
 20
2.51138248E+02
  0
VERTEX
  8
0
 62
4
 10
1.26036139E-01
 20
2.51231280E+02
  0
VERTEX
  8
0
 62
4
 10
3.61669645E-01
 20
2.51333483E+02
  0
VERTEX
  8
0
 62
4
 10
5.74262654E-01
 20
2.51444033E+02
  0
VERTEX
  8
0
 62
4
 10
7.62103493E-01
 20
2.51562041E+02
  0
VERTEX
  8
0
 62
4
 10
9.23679777E-01
 20
2.51686556E+02
  0
VERTEX
  8
0
 62
4
 10
1.05769059E+00
 20
2.51816576E+02
  0
VERTEX
  8
0
 62
4
 10
1.16305695E+00
 20
2.51951055E+02
  0
VERTEX
  8
0
 62
4
 10
1.23893052E+00
 20
2.52088909E+02
  0
VERTEX
  8
0
 62
4
 10
1.28470040E+00
 20
2.52229028E+02
  0
VERTEX
  8
0
 62
4
 10
1.29999809E+00
 20
2.52370285E+02
  0
SEQEND
  8
0
  0
POLYLINE
  8
0
 62
4
 66
1
  0
VERTEX
  8
0
 62
4
 10
-5.90000192E+00
 20
2.53984005E+02
  0
VERTEX
  8
0
 62
4
 10
-6.03658358E+00
 20
2.53856744E+02
  0
VERTEX
  8
0
 62
4
 10
-6.14553145E+00
 20
2.53724978E+02
  0
VERTEX
  8
0
 62
4
 10
-6.22599423E+00
 20
2.53589737E+02
  0
VERTEX
  8
0
 62
4
 10
-6.27734321E+00
 20
2.53452079E+02
  0
VERTEX
  8
0
 62
4
 10
-6.29917716E+00
 20
2.53313077E+02
  0
VERTEX
  8
0
 62
4
 10
-6.29132549E+00
 20
2.53173819E+02
  0
VERTEX
  8
0
 62
4
 10
-6.25384954E+00
 20
2.53035393E+02
  0
VERTEX
  8
0
 62
4
 10
-6.18704213E+00
 20
2.52898879E+02
  0
VERTEX
  8
0
 62
4
 10
-6.09142529E+00
 20
2.52765346E+02
  0
VERTEX
  8
0
 62
4
 10
-5.96774613E+00
 20
2.52635836E+02
  0
VERTEX
  8
0
 62
4
 10
-5.81697105E+00
 20
2.52511361E+02
  0
VERTEX
  8
0
 62
4
 10
-5.64027815E+00
 20
2.52392894E+02
  0
VERTEX
  8
0
 62
4
 10
-5.43904807E+00
 20
2.52281361E+02
  0
VERTEX
  8
0
 62
4
 10
-5.21485315E+00
 20
2.52177632E+02
  0
VERTEX
  8
0
 62
4
 10
-4.96944519E+00
 20
2.52082519E+02
  0
VERTEX
  8
0
 62
4
 10
-4.70474173E+00
 20
2.51996765E+02
  0
VERTEX
  8
0
 62
4
 10
-4.42281109E+00
 20
2.51921039E+02
  0
VERTEX
  8
0
 62
4
 10
-4.12585619E+00
 20
2.51855934E+02
  0
VERTEX
  8
0
 62
4
 10
-3.81619735E+00
 20
2.51801958E+02
  0
VERTEX
  8
0
 62
4
 10
-3.49625414E+00
 20
2.51759533E+02
  0
VERTEX
  8
0
 62
4
 10
-3.16852652E+00
 20
2.51728991E+02
  0
VERTEX
  8
0
 62
4
 10
-2.83557524E+00
 20
2.51710569E+02
  0
VERTEX
  8
0
 62
4
 10
-2.50000189E+00
 20
2.51704413E+02
  0
VERTEX
  8
0
 62
4
 10
-2.16442854E+00
 20
2.51710569E+02
  0
VERTEX
  8
0
 62
4
 10
-1.83147727E+00
 20
2.51728991E+02
  0
VERTEX
  8
0
 62
4
 10
-1.50374964E+00
 20
2.51759533E+02
  0
VERTEX
  8
0
 62
4
 10
-1.18380644E+00
 20
2.51801958E+02
  0
VERTEX
  8
0
 62
4
 10
-8.74147596E-01
 20
2.51855934E+02
  0
VERTEX
  8
0
 62
4
 10
-5.77192696E-01
 20
2.51921039E+02
  0
VERTEX
  8
0
 62
4
 10
-2.95262057E-01
 20
2.51996765E+02
  0
VERTEX
  8
0
 62
4
 10
-3.05586009E-02
 20
2.52082519E+02
  0
VERTEX
  8
0
 62
4
 10
2.14849357E-01
 20
2.52177632E+02
  0
VERTEX
  8
0
 62
4
 10
4.39044273E-01
 20
2.52281361E+02
  0
VERTEX
  8
0
 62
4
 10
6.40274354E-01
 20
2.52392894E+02
  0
VERTEX
  8
0
 62
4
 10
8.16967248E-01
 20
2.52511361E+02
  0
VERTEX
  8
0
 62
4
 10
9.67742328E-01
 20
2.52635836E+02
  0
VERTEX
  8
0
 62
4
 10
1.09142148E+00
 20
2.52765346E+02
  0
VERTEX
  8
0
 62
4
 10
1.18703832E+00
 20
2.52898879E+02
  0
VERTEX
  8
0
 62
4
 10
1.25384572E+00
 20
2.53035393E+02
  0
VERTEX
  8
0
 62
4
 10
1.29132167E+00
 20
2.53173819E+02
  0
VERTEX
  8
0
 62
4
 10
1.29917334E+00
 20
2.53313077E+02
  0
VERTEX
  8
0
 62
4
 10
1.27733938E+00
 20
2.53452079E+02
  0
VERTEX
  8
0
 62
4
 10
1.22599040E+00
 20
2.53589737E+02
  0
VERTEX
  8
0
 62
4
 10
1.14552762E+00
 20
2.53724978E+02
  0
VERTEX
  8
0
 62
4
 10
1.03657975E+00
 20
2.53856744E+02
  0
VERTEX
  8
0
 62
4
 10
8.99998082E-01
 20
2.53984005E+02
  0
SEQEND
  8
0
  0
POLYLINE
  8
0
 62
4
 66
1
  0
VERTEX
  8
0
 62
4
 10
-5.90000191E+00
 20
2.53280247E+02
  0
VERTEX
  8
0
 62
4
 10
-5.88631451E+00
 20
2.53153859E+02
  0
VERTEX
  8
0
 62
4
 10
-5.84536251E+00
 20
2.53028489E+02
  0
VERTEX
  8
0
 62
4
 10
-5.77747564E+00
 20
2.52905146E+02
  0
VERTEX
  8
0
 62
4
 10
-5.68320047E+00
 20
2.52784824E+02
  0
VERTEX
  8
0
 62
4
 10
-5.56329607E+00
 20
2.52668490E+02
  0
VERTEX
  8
0
 62
4
 10
-5.41872782E+00
 20
2.52557081E+02
  0
VERTEX
  8
0
 62
4
 10
-5.25065970E+00
 20
2.52451495E+02
  0
VERTEX
  8
0
 62
4
 10
-5.06044490E+00
 20
2.52352582E+02
  0
VERTEX
  8
0
 62
4
 10
-4.84961493E+00
 20
2.52261137E+02
  0
VERTEX
  8
0
 62
4
 10
-4.61986725E+00
 20
2.52177898E+02
  0
VERTEX
  8
0
 62
4
 10
-4.37305166E+00
 20
2.52103535E+02
  0
VERTEX
  8
0
 62
4
 10
-4.11115538E+00
 20
2.52038645E+02
  0
VERTEX
  8
0
 62
4
 10
-3.83628703E+00
 20
2.51983752E+02
  0
VERTEX
  8
0
 62
4
 10
-3.55065971E+00
 20
2.51939298E+02
  0
VERTEX
  8
0
 62
4
 10
-3.25657310E+00
 20
2.51905641E+02
  0
VERTEX
  8
0
 62
4
 10
-2.95639503E+00
 20
2.51883050E+02
  0
VERTEX
  8
0
 62
4
 10
-2.65254235E+00
 20
2.51871710E+02
  0
VERTEX
  8
0
 62
4
 10
-2.34746151E+00
 20
2.51871710E+02
  0
VERTEX
  8
0
 62
4
 10
-2.04360882E+00
 20
2.51883050E+02
  0
VERTEX
  8
0
 62
4
 10
-1.74343075E+00
 20
2.51905641E+02
  0
VERTEX
  8
0
 62
4
 10
-1.44934415E+00
 20
2.51939298E+02
  0
VERTEX
  8
0
 62
4
 10
-1.16371682E+00
 20
2.51983752E+02
  0
VERTEX
  8
0
 62
4
 10
-8.88848475E-01
 20
2.52038645E+02
  0
VERTEX
  8
0
 62
4
 10
-6.26952190E-01
 20
2.52103535E+02
  0
VERTEX
  8
0
 62
4
 10
-3.80136600E-01
 20
2.52177898E+02
  0
VERTEX
  8
0
 62
4
 10
-1.50388919E-01
 20
2.52261137E+02
  0
VERTEX
  8
0
 62
4
 10
6.04410602E-02
 20
2.52352582E+02
  0
VERTEX
  8
0
 62
4
 10
2.50655858E-01
 20
2.52451495E+02
  0
VERTEX
  8
0
 62
4
 10
4.18723977E-01
 20
2.52557081E+02
  0
VERTEX
  8
0
 62
4
 10
5.63292231E-01
 20
2.52668490E+02
  0
VERTEX
  8
0
 62
4
 10
6.83196642E-01
 20
2.52784824E+02
  0
VERTEX
  8
0
 62
4
 10
7.77471810E-01
 20
2.52905146E+02
  0
VERTEX
  8
0
 62
4
 10
8.45358687E-01
 20
2.53028489E+02
  0
VERTEX
  8
0
 62
4
 10
8.86310687E-01
 20
2.53153859E+02
  0
VERTEX
  8
0
 62
4
 10
8.99998090E-01
 20
2.53280247E+02
  0
SEQEND
  8
0
  0
POLYLINE
  8
0
 62
4
 66
1
  0
VERTEX
  8
0
 62
4
 10
8.99998090E-01
 20
2.54309233E+02
  0
VERTEX
  8
0
 62
4
 10
8.87060064E-01
 20
2.54432119E+02
  0
VERTEX
  8
0
 62
4
 10
8.48344450E-01
 20
2.54554069E+02
  0
VERTEX
  8
0
 62
4
 10
7.84145899E-01
 20
2.54674157E+02
  0
VERTEX
  8
0
 62
4
 10
6.94953000E-01
 20
2.54791467E+02
  0
VERTEX
  8
0
 62
4
 10
5.81444566E-01
 20
2.54905107E+02
  0
VERTEX
  8
0
 62
4
 10
4.44484462E-01
 20
2.55014212E+02
  0
VERTEX
  8
0
 62
4
 10
2.85115040E-01
 20
2.55117951E+02
  0
VERTEX
  8
0
 62
4
 10
1.04549196E-01
 20
2.55215536E+02
  0
VERTEX
  8
0
 62
4
 10
-9.58388548E-02
 20
2.55306223E+02
  0
VERTEX
  8
0
 62
4
 10
-3.14524038E-01
 20
2.55389323E+02
  0
VERTEX
  8
0
 62
4
 10
-5.49842028E-01
 20
2.55464202E+02
  0
VERTEX
  8
0
 62
4
 10
-8.00001911E-01
 20
2.55530292E+02
  0
VERTEX
  8
0
 62
4
 10
-1.06309982E+00
 20
2.55587088E+02
  0
VERTEX
  8
0
 62
4
 10
-1.33713342E+00
 20
2.55634159E+02
  0
VERTEX
  8
0
 62
4
 10
-1.62001716E+00
 20
2.55671147E+02
  0
VERTEX
  8
0
 62
4
 10
-1.90959811E+00
 20
2.55697770E+02
  0
VERTEX
  8
0
 62
4
 10
-2.20367239E+00
 20
2.55713825E+02
  0
VERTEX
  8
0
 62
4
 10
-2.50000191E+00
 20
2.55719190E+02
  0
VERTEX
  8
0
 62
4
 10
-2.79633144E+00
 20
2.55713825E+02
  0
VERTEX
  8
0
 62
4
 10
-3.09040572E+00
 20
2.55697770E+02
  0
VERTEX
  8
0
 62
4
 10
-3.37998667E+00
 20
2.55671147E+02
  0
VERTEX
  8
0
 62
4
 10
-3.66287040E+00
 20
2.55634159E+02
  0
VERTEX
  8
0
 62
4
 10
-3.93690400E+00
 20
2.55587088E+02
  0
VERTEX
  8
0
 62
4
 10
-4.20000191E+00
 20
2.55530292E+02
  0
VERTEX
  8
0
 62
4
 10
-4.45016180E+00
 20
2.55464202E+02
  0
VERTEX
  8
0
 62
4
 10
-4.68547979E+00
 20
2.55389323E+02
  0
VERTEX
  8
0
 62
4
 10
-4.90416497E+00
 20
2.55306223E+02
  0
VERTEX
  8
0
 62
4
 10
-5.10455302E+00
 20
2.55215536E+02
  0
VERTEX
  8
0
 62
4
 10
-5.28511886E+00
 20
2.55117951E+02
  0
VERTEX
  8
0
 62
4
 10
-5.44448828E+00
 20
2.55014212E+02
  0
VERTEX
  8
0
 62
4
 10
-5.58144839E+00
 20
2.54905107E+02
  0
VERTEX
  8
0
 62
4
 10
-5.69495682E+00
 20
2.54791467E+02
  0
VERTEX
  8
0
 62
4
 10
-5.78414972E+00
 20
2.54674157E+02
  0
VERTEX
  8
0
 62
4
 10
-5.84834827E+00
 20
2.54554069E+02
  0
VERTEX
  8
0
 62
4
 10
-5.88706388E+00
 20
2.54432119E+02
  0
VERTEX
  8
0
 62
4
 10
-5.90000191E+00
 20
2.54309233E+02
  0
VERTEX
  8
0
 62
4
 10
-5.88706388E+00
 20
2.54186347E+02
  0
VERTEX
  8
0
 62
4
 10
-5.84834827E+00
 20
2.54064397E+02
  0
VERTEX
  8
0
 62
4
 10
-5.78414972E+00
 20
2.53944309E+02
  0
VERTEX
  8
0
 62
4
 10
-5.69495682E+00
 20
2.53826999E+02
  0
VERTEX
  8
0
 62
4
 10
-5.58144838E+00
 20
2.53713359E+02
  0
VERTEX
  8
0
 62
4
 10
-5.44448828E+00
 20
2.53604254E+02
  0
VERTEX
  8
0
 62
4
 10
-5.28511886E+00
 20
2.53500515E+02
  0
VERTEX
  8
0
 62
4
 10
-5.10455301E+00
 20
2.53402930E+02
  0
VERTEX
  8
0
 62
4
 10
-4.90416496E+00
 20
2.53312243E+02
  0
VERTEX
  8
0
 62
4
 10
-4.68547978E+00
 20
2.53229143E+02
  0
VERTEX
  8
0
 62
4
 10
-4.45016179E+00
 20
2.53154264E+02
  0
VERTEX
  8
0
 62
4
 10
-4.20000190E+00
 20
2.53088174E+02
  0
VERTEX
  8
0
 62
4
 10
-3.93690399E+00
 20
2.53031378E+02
  0
VERTEX
  8
0
 62
4
 10
-3.66287039E+00
 20
2.52984307E+02
  0
VERTEX
  8
0
 62
4
 10
-3.37998666E+00
 20
2.52947319E+02
  0
VERTEX
  8
0
 62
4
 10
-3.09040571E+00
 20
2.52920696E+02
  0
VERTEX
  8
0
 62
4
 10
-2.79633143E+00
 20
2.52904641E+02
  0
VERTEX
  8
0
 62
4
 10
-2.50000190E+00
 20
2.52899276E+02
  0
VERTEX
  8
0
 62
4
 10
-2.20367238E+00
 20
2.52904641E+02
  0
VERTEX
  8
0
 62
4
 10
-1.90959810E+00
 20
2.52920696E+02
  0
VERTEX
  8
0
 62
4
 10
-1.62001715E+00
 20
2.52947319E+02
  0
VERTEX
  8
0
 62
4
 10
-1.33713342E+00
 20
2.52984307E+02
  0
VERTEX
  8
0
 62
4
 10
-1.06309981E+00
 20
2.53031378E+02
  0
VERTEX
  8
0
 62
4
 10
-8.00001903E-01
 20
2.53088174E+02
  0
VERTEX
  8
0
 62
4
 10
-5.49842020E-01
 20
2.53154264E+02
  0
VERTEX
  8
0
 62
4
 10
-3.14524031E-01
 20
2.53229143E+02
  0
VERTEX
  8
0
 62
4
 10
-9.58388480E-02
 20
2.53312243E+02
  0
VERTEX
  8
0
 62
4
 10
1.04549202E-01
 20
2.53402930E+02
  0
VERTEX
  8
0
 62
4
 10
2.85115046E-01
 20
2.53500515E+02
  0
VERTEX
  8
0
 62
4
 10
4.44484467E-01
 20
2.53604254E+02
  0
VERTEX
  8
0
 62
4
 10
5.81444570E-01
 20
2.53713359E+02
  0
VERTEX
  8
0
 62
4
 10
6.94953004E-01
 20
2.53826999E+02
  0
VERTEX
  8
0
 62
4
 10
7.84145902E-01
 20
2.53944309E+02
  0
VERTEX
  8
0
 62
4
 10
8.48344452E-01
 20
2.54064397E+02
  0
VERTEX
  8
0
 62
4
 10
8.87060064E-01
 20
2.54186347E+02
  0
VERTEX
  8
0
 62
4
 10
8.99998090E-01
 20
2.54309233E+02
  0
SEQEND
  8
0
  0
ARC
  8
0
 62
4
 10
3.74705630E+00
 20
2.40279330E+02
 40
1.64201370E+01
 50
1.10122188E+02
 51
1.19216401E+02
  0
ARC
  8
0
 62
4
 10
-8.74706072E+00
 20
2.40279328E+02
 40
1.64201386E+01
 50
6.07835994E+01
 51
6.98778124E+01
  0
LINE
  8
0
  6
CENTER
 62
6
 10
1.49999981E+01
 20
2.52370285E+02
 11
9.99999809E+00
 21
2.52370285E+02
  0
LINE
  8
0
 62
4
 10
-5.67189262E+00
 20
2.54816976E+02
 11
-1.00000019E+01
 21
2.54816976E+02
  0
LINE
  8
0
 62
4
 10
8.49998093E-01
 20
2.54816976E+02
 11
6.71888803E-01
 21
2.54816976E+02
  0
LINE
  8
0
 62
4
 10
8.49998093E-01
 20
2.55206314E+02
 11
1.23047414E-01
 21
2.55206314E+02
  0
LINE
  8
0
 62
4
 10
1.80050728E+00
 20
2.56865087E+02
 11
-5.00000191E+00
 21
2.56865087E+02
  0
LINE
  8
0
 62
4
 10
2.48906770E+00
 20
2.57139258E+02
 11
-1.00000019E+01
 21
2.57139258E+02
  0
LINE
  8
0
  6
CENTER
 62
6
 10
4.99999809E+00
 20
2.51321712E+02
 11
4.99999809E+00
 21
2.56321712E+02
  0
LINE
  8
0
  6
CENTER
 62
6
 10
7.49999809E+00
 20
2.53821712E+02
 11
2.49999809E+00
 21
2.53821712E+02
  0
LINE
  8
0
  6
CENTER
 62
6
 10
-2.50000191E+00
 20
2.49870285E+02
 11
-2.50000191E+00
 21
2.54870285E+02
  0
LINE
  8
0
  6
CENTER
 62
6
 10
-1.90734862E-06
 20
2.52370285E+02
 11
-5.00000191E+00
 21
2.52370285E+02
  0
LINE
  8
0
 62
4
 10
-5.00000189E+00
 20
2.55715778E+02
 11
-1.00000019E+01
 21
2.55715778E+02
  0
LINE
  8
0
 62
4
 10
-3.89999981E+01
 20
3.05284237E+02
 11
-2.98660235E+01
 21
3.05284237E+02
  0
LINE
  8
0
 62
4
 10
-3.89999981E+01
 20
3.08284237E+02
 11
-2.81339727E+01
 21
3.08284237E+02
  0
LINE
  8
0
 62
6
 10
-3.07320489E+01
 20
3.03784237E+02
 11
-2.72679473E+01
 21
3.09784237E+02
  0
LINE
  8
0
  6
CENTER
 62
6
 10
-7.39999981E+01
 20
3.06784237E+02
 11
-2.39999981E+01
 21
3.06784237E+02
  0
LINE
  8
0
 62
6
 10
-5.19999981E+01
 20
3.34036669E+02
 11
-5.19999981E+01
 21
3.32982087E+02
  0
LINE
  8
0
 62
6
 10
-4.89999981E+01
 20
3.34036669E+02
 11
-4.89999981E+01
 21
3.32982087E+02
  0
LINE
  8
0
 62
4
 10
-5.24999981E+01
 20
3.33488082E+02
 11
-5.24999981E+01
 21
3.32982087E+02
  0
LINE
  8
0
 62
4
 10
-4.84999981E+01
 20
3.33488082E+02
 11
-4.84999981E+01
 21
3.32982087E+02
  0
LINE
  8
0
 62
4
 10
-5.39999981E+01
 20
3.32982087E+02
 11
-5.39999981E+01
 21
3.19868450E+02
  0
LINE
  8
0
 62
4
 10
-3.89999981E+01
 20
3.32982087E+02
 11
-3.89999981E+01
 21
3.03860757E+02
  0
LINE
  8
0
 62
4
 10
-6.89999981E+01
 20
3.19868450E+02
 11
-6.89999981E+01
 21
3.06183040E+02
  0
LINE
  8
0
  6
CENTER
 62
6
 10
-4.24999981E+01
 20
3.37765609E+02
 11
-4.24999981E+01
 21
3.27500031E+02
  0
LINE
  8
0
  6
CENTER
 62
6
 10
-5.04999981E+01
 20
3.37765609E+02
 11
-5.04999981E+01
 21
3.27500031E+02
  0
LINE
  8
0
  6
CENTER
 62
6
 10
-6.14999981E+01
 20
3.11129730E+02
 11
-6.14999981E+01
 21
3.06129730E+02
  0
LINE
  8
0
 62
4
 10
-4.39999981E+01
 20
3.05735186E+02
 11
-4.39999981E+01
 21
3.04134928E+02
  0
LINE
  8
0
 62
4
 10
-4.54999981E+01
 20
3.05343189E+02
 11
-4.54999981E+01
 21
3.04134928E+02
  0
LINE
  8
0
 62
4
 10
-7.04999981E+01
 20
3.08285646E+02
 11
-7.04999981E+01
 21
3.05285304E+02
  0
POLYLINE
  8
0
 62
4
 66
1
  0
VERTEX
  8
0
 62
4
 10
-4.84999980E+01
 20
3.33488082E+02
  0
VERTEX
  8
0
 62
4
 10
-4.85080495E+01
 20
3.33562428E+02
  0
VERTEX
  8
0
 62
4
 10
-4.85321389E+01
 20
3.33636175E+02
  0
VERTEX
  8
0
 62
4
 10
-4.85720723E+01
 20
3.33708729E+02
  0
VERTEX
  8
0
 62
4
 10
-4.86275283E+01
 20
3.33779508E+02
  0
VERTEX
  8
0
 62
4
 10
-4.86980603E+01
 20
3.33847939E+02
  0
VERTEX
  8
0
 62
4
 10
-4.87831005E+01
 20
3.33913474E+02
  0
VERTEX
  8
0
 62
4
 10
-4.88819641E+01
 20
3.33975583E+02
  0
VERTEX
  8
0
 62
4
 10
-4.89938551E+01
 20
3.34033767E+02
  0
VERTEX
  8
0
 62
4
 10
-4.91178728E+01
 20
3.34087558E+02
  0
VERTEX
  8
0
 62
4
 10
-4.92530185E+01
 20
3.34136522E+02
  0
VERTEX
  8
0
 62
4
 10
-4.93982041E+01
 20
3.34180266E+02
  0
VERTEX
  8
0
 62
4
 10
-4.95522607E+01
 20
3.34218436E+02
  0
VERTEX
  8
0
 62
4
 10
-4.97139480E+01
 20
3.34250726E+02
  0
VERTEX
  8
0
 62
4
 10
-4.98819641E+01
 20
3.34276875E+02
  0
VERTEX
  8
0
 62
4
 10
-5.00549562E+01
 20
3.34296674E+02
  0
VERTEX
  8
0
 62
4
 10
-5.02315316E+01
 20
3.34309962E+02
  0
VERTEX
  8
0
 62
4
 10
-5.04102684E+01
 20
3.34316633E+02
  0
VERTEX
  8
0
 62
4
 10
-5.05897278E+01
 20
3.34316633E+02
  0
VERTEX
  8
0
 62
4
 10
-5.07684646E+01
 20
3.34309962E+02
  0
VERTEX
  8
0
 62
4
 10
-5.09450400E+01
 20
3.34296674E+02
  0
VERTEX
  8
0
 62
4
 10
-5.11180321E+01
 20
3.34276875E+02
  0
VERTEX
  8
0
 62
4
 10
-5.12860482E+01
 20
3.34250726E+02
  0
VERTEX
  8
0
 62
4
 10
-5.14477355E+01
 20
3.34218436E+02
  0
VERTEX
  8
0
 62
4
 10
-5.16017921E+01
 20
3.34180266E+02
  0
VERTEX
  8
0
 62
4
 10
-5.17469777E+01
 20
3.34136522E+02
  0
VERTEX
  8
0
 62
4
 10
-5.18821234E+01
 20
3.34087558E+02
  0
VERTEX
  8
0
 62
4
 10
-5.20061411E+01
 20
3.34033767E+02
  0
VERTEX
  8
0
 62
4
 10
-5.21180321E+01
 20
3.33975583E+02
  0
VERTEX
  8
0
 62
4
 10
-5.22168957E+01
 20
3.33913474E+02
  0
VERTEX
  8
0
 62
4
 10
-5.23019359E+01
 20
3.33847939E+02
  0
VERTEX
  8
0
 62
4
 10
-5.23724679E+01
 20
3.33779508E+02
  0
VERTEX
  8
0
 62
4
 10
-5.24279239E+01
 20
3.33708729E+02
  0
VERTEX
  8
0
 62
4
 10
-5.24678573E+01
 20
3.33636175E+02
  0
VERTEX
  8
0
 62
4
 10
-5.24919467E+01
 20
3.33562428E+02
  0
VERTEX
  8
0
 62
4
 10
-5.24999982E+01
 20
3.33488082E+02
  0
SEQEND
  8
0
  0
LINE
  8
0
 62
6
 10
-4.09999981E+01
 20
3.34036669E+02
 11
-4.09999981E+01
 21
3.32982087E+02
  0
LINE
  8
0
 62
4
 10
-4.04999981E+01
 20
3.33488082E+02
 11
-4.04999981E+01
 21
3.32982087E+02
  0
POLYLINE
  8
0
 62
4
 66
1
  0
VERTEX
  8
0
 62
4
 10
-4.04999980E+01
 20
3.33488082E+02
  0
VERTEX
  8
0
 62
4
 10
-4.05080495E+01
 20
3.33562428E+02
  0
VERTEX
  8
0
 62
4
 10
-4.05321389E+01
 20
3.33636175E+02
  0
VERTEX
  8
0
 62
4
 10
-4.05720723E+01
 20
3.33708729E+02
  0
VERTEX
  8
0
 62
4
 10
-4.06275283E+01
 20
3.33779508E+02
  0
VERTEX
  8
0
 62
4
 10
-4.06980603E+01
 20
3.33847939E+02
  0
VERTEX
  8
0
 62
4
 10
-4.07831005E+01
 20
3.33913474E+02
  0
VERTEX
  8
0
 62
4
 10
-4.08819641E+01
 20
3.33975583E+02
  0
VERTEX
  8
0
 62
4
 10
-4.09938551E+01
 20
3.34033767E+02
  0
VERTEX
  8
0
 62
4
 10
-4.11178728E+01
 20
3.34087558E+02
  0
VERTEX
  8
0
 62
4
 10
-4.12530185E+01
 20
3.34136522E+02
  0
VERTEX
  8
0
 62
4
 10
-4.13982041E+01
 20
3.34180266E+02
  0
VERTEX
  8
0
 62
4
 10
-4.15522607E+01
 20
3.34218436E+02
  0
VERTEX
  8
0
 62
4
 10
-4.17139480E+01
 20
3.34250726E+02
  0
VERTEX
  8
0
 62
4
 10
-4.18819641E+01
 20
3.34276875E+02
  0
VERTEX
  8
0
 62
4
 10
-4.20549562E+01
 20
3.34296674E+02
  0
VERTEX
  8
0
 62
4
 10
-4.22315316E+01
 20
3.34309962E+02
  0
VERTEX
  8
0
 62
4
 10
-4.24102684E+01
 20
3.34316633E+02
  0
VERTEX
  8
0
 62
4
 10
-4.25897278E+01
 20
3.34316633E+02
  0
VERTEX
  8
0
 62
4
 10
-4.27684646E+01
 20
3.34309962E+02
  0
VERTEX
  8
0
 62
4
 10
-4.29450400E+01
 20
3.34296674E+02
  0
VERTEX
  8
0
 62
4
 10
-4.31180321E+01
 20
3.34276875E+02
  0
VERTEX
  8
0
 62
4
 10
-4.32860482E+01
 20
3.34250726E+02
  0
VERTEX
  8
0
 62
4
 10
-4.34477355E+01
 20
3.34218436E+02
  0
VERTEX
  8
0
 62
4
 10
-4.36017921E+01
 20
3.34180266E+02
  0
VERTEX
  8
0
 62
4
 10
-4.37469777E+01
 20
3.34136522E+02
  0
VERTEX
  8
0
 62
4
 10
-4.38821234E+01
 20
3.34087558E+02
  0
VERTEX
  8
0
 62
4
 10
-4.40061411E+01
 20
3.34033767E+02
  0
VERTEX
  8
0
 62
4
 10
-4.41180321E+01
 20
3.33975583E+02
  0
VERTEX
  8
0
 62
4
 10
-4.42168957E+01
 20
3.33913474E+02
  0
VERTEX
  8
0
 62
4
 10
-4.43019359E+01
 20
3.33847939E+02
  0
VERTEX
  8
0
 62
4
 10
-4.43724679E+01
 20
3.33779508E+02
  0
VERTEX
  8
0
 62
4
 10
-4.44279239E+01
 20
3.33708729E+02
  0
VERTEX
  8
0
 62
4
 10
-4.44678573E+01
 20
3.33636175E+02
  0
VERTEX
  8
0
 62
4
 10
-4.44919467E+01
 20
3.33562428E+02
  0
VERTEX
  8
0
 62
4
 10
-4.44999982E+01
 20
3.33488082E+02
  0
SEQEND
  8
0
  0
LINE
  8
0
 62
6
 10
-4.39999981E+01
 20
3.34036669E+02
 11
-4.39999981E+01
 21
3.32982087E+02
  0
LINE
  8
0
 62
4
 10
-4.44999981E+01
 20
3.33488082E+02
 11
-4.44999981E+01
 21
3.32982087E+02
  0
LINE
  8
0
 62
4
 10
-5.39999981E+01
 20
3.32982087E+02
 11
-3.89999981E+01
 21
3.32982087E+02
  0
LINE
  8
0
 62
4
 10
-5.39999981E+01
 20
3.26238179E+02
 11
-3.89999981E+01
 21
3.26238179E+02
  0
LINE
  8
0
 62
4
 10
-6.89999981E+01
 20
3.19868450E+02
 11
-3.89999981E+01
 21
3.19868450E+02
  0
LINE
  8
0
 62
4
 10
-6.89999981E+01
 20
3.10495849E+02
 11
-3.89999981E+01
 21
3.10495849E+02
  0
LINE
  8
0
 62
4
 10
-6.89999981E+01
 20
3.03860757E+02
 11
-5.65109285E+01
 21
3.03860757E+02
  0
LINE
  8
0
 62
4
 10
-6.89999981E+01
 20
3.09433546E+02
 11
-7.04999981E+01
 21
3.08285646E+02
  0
LINE
  8
0
 62
4
 10
-6.89999981E+01
 20
3.05793701E+02
 11
-5.81499981E+01
 21
3.05793701E+02
  0
LINE
  8
0
 62
4
 10
-7.04999981E+01
 20
3.06224584E+02
 11
-6.89999981E+01
 21
3.05793701E+02
  0
LINE
  8
0
 62
4
 10
-6.89999981E+01
 20
3.04134928E+02
 11
-5.71994889E+01
 21
3.04134928E+02
  0
LINE
  8
0
 62
4
 10
-7.04999981E+01
 20
3.05285304E+02
 11
-6.89999981E+01
 21
3.04134928E+02
  0
LINE
  8
0
 62
4
 10
-6.89999981E+01
 20
3.06183040E+02
 11
-5.81499981E+01
 21
3.06183040E+02
  0
LINE
  8
0
 62
4
 10
-6.89999981E+01
 20
3.06183040E+02
 11
-6.89999981E+01
 21
3.04134928E+02
  0
LINE
  8
0
 62
4
 10
-6.89999981E+01
 20
3.04134928E+02
 11
-6.89999981E+01
 21
3.03860757E+02
  0
LINE
  8
0
 62
4
 10
-5.02999981E+01
 20
3.08629730E+02
 11
-5.02999981E+01
 21
3.07719769E+02
  0
LINE
  8
0
 62
4
 10
-4.26999981E+01
 20
3.07719769E+02
 11
-4.26999981E+01
 21
3.08629730E+02
  0
LINE
  8
0
 62
4
 10
-4.98999981E+01
 20
3.07719769E+02
 11
-4.98999981E+01
 21
3.06690782E+02
  0
LINE
  8
0
 62
4
 10
-4.30999981E+01
 20
3.07719769E+02
 11
-4.30999981E+01
 21
3.06690782E+02
  0
LINE
  8
0
 62
4
 10
-4.98499981E+01
 20
3.06449867E+02
 11
-4.98499981E+01
 21
3.05230986E+02
  0
LINE
  8
0
 62
4
 10
-5.81499981E+01
 20
3.05230986E+02
 11
-5.81499981E+01
 21
3.06832518E+02
  0
POLYLINE
  8
0
 62
4
 66
1
  0
VERTEX
  8
0
 62
4
 10
-5.02999981E+01
 20
3.07808582E+02
  0
VERTEX
  8
0
 62
4
 10
-5.04498988E+01
 20
3.07942599E+02
  0
VERTEX
  8
0
 62
4
 10
-5.06279583E+01
 20
3.08070554E+02
  0
VERTEX
  8
0
 62
4
 10
-5.08327644E+01
 20
3.08191431E+02
  0
VERTEX
  8
0
 62
4
 10
-5.10626926E+01
 20
3.08304272E+02
  0
VERTEX
  8
0
 62
4
 10
-5.13159191E+01
 20
3.08408183E+02
  0
VERTEX
  8
0
 62
4
 10
-5.15904353E+01
 20
3.08502338E+02
  0
VERTEX
  8
0
 62
4
 10
-5.18840638E+01
 20
3.08585991E+02
  0
VERTEX
  8
0
 62
4
 10
-5.21944757E+01
 20
3.08658478E+02
  0
VERTEX
  8
0
 62
4
 10
-5.25192086E+01
 20
3.08719225E+02
  0
VERTEX
  8
0
 62
4
 10
-5.28556870E+01
 20
3.08767750E+02
  0
VERTEX
  8
0
 62
4
 10
-5.32012419E+01
 20
3.08803667E+02
  0
VERTEX
  8
0
 62
4
 10
-5.35531325E+01
 20
3.08826692E+02
  0
VERTEX
  8
0
 62
4
 10
-5.39085675E+01
 20
3.08836643E+02
  0
VERTEX
  8
0
 62
4
 10
-5.42647277E+01
 20
3.08833439E+02
  0
VERTEX
  8
0
 62
4
 10
-5.46187882E+01
 20
3.08817107E+02
  0
VERTEX
  8
0
 62
4
 10
-5.49679404E+01
 20
3.08787777E+02
  0
VERTEX
  8
0
 62
4
 10
-5.53094151E+01
 20
3.08745680E+02
  0
VERTEX
  8
0
 62
4
 10
-5.56405037E+01
 20
3.08691152E+02
  0
VERTEX
  8
0
 62
4
 10
-5.59585800E+01
 20
3.08624623E+02
  0
VERTEX
  8
0
 62
4
 10
-5.62611211E+01
 20
3.08546622E+02
  0
VERTEX
  8
0
 62
4
 10
-5.65457273E+01
 20
3.08457769E+02
  0
VERTEX
  8
0
 62
4
 10
-5.68101411E+01
 20
3.08358766E+02
  0
VERTEX
  8
0
 62
4
 10
-5.70522653E+01
 20
3.08250401E+02
  0
VERTEX
  8
0
 62
4
 10
-5.72701793E+01
 20
3.08133531E+02
  0
VERTEX
  8
0
 62
4
 10
-5.74621547E+01
 20
3.08009085E+02
  0
VERTEX
  8
0
 62
4
 10
-5.76266687E+01
 20
3.07878049E+02
  0
VERTEX
  8
0
 62
4
 10
-5.77624165E+01
 20
3.07741463E+02
  0
VERTEX
  8
0
 62
4
 10
-5.78683213E+01
 20
3.07600410E+02
  0
VERTEX
  8
0
 62
4
 10
-5.79435431E+01
 20
3.07456009E+02
  0
VERTEX
  8
0
 62
4
 10
-5.79874853E+01
 20
3.07309405E+02
  0
SEQEND
  8
0
  0
POLYLINE
  8
0
 62
4
 66
1
  0
VERTEX
  8
0
 62
4
 10
-5.02896236E+01
 20
3.07603404E+02
  0
VERTEX
  8
0
 62
4
 10
-5.04700544E+01
 20
3.07737462E+02
  0
VERTEX
  8
0
 62
4
 10
-5.06785770E+01
 20
3.07864318E+02
  0
VERTEX
  8
0
 62
4
 10
-5.09135319E+01
 20
3.07982963E+02
  0
VERTEX
  8
0
 62
4
 10
-5.11730492E+01
 20
3.08092453E+02
  0
VERTEX
  8
0
 62
4
 10
-5.14550638E+01
 20
3.08191916E+02
  0
VERTEX
  8
0
 62
4
 10
-5.17573313E+01
 20
3.08280560E+02
  0
VERTEX
  8
0
 62
4
 10
-5.20774462E+01
 20
3.08357681E+02
  0
VERTEX
  8
0
 62
4
 10
-5.24128611E+01
 20
3.08422665E+02
  0
VERTEX
  8
0
 62
4
 10
-5.27609065E+01
 20
3.08474994E+02
  0
VERTEX
  8
0
 62
4
 10
-5.31188129E+01
 20
3.08514252E+02
  0
VERTEX
  8
0
 62
4
 10
-5.34837318E+01
 20
3.08540126E+02
  0
VERTEX
  8
0
 62
4
 10
-5.38527592E+01
 20
3.08552411E+02
  0
VERTEX
  8
0
 62
4
 10
-5.42229584E+01
 20
3.08551009E+02
  0
VERTEX
  8
0
 62
4
 10
-5.45913832E+01
 20
3.08535931E+02
  0
VERTEX
  8
0
 62
4
 10
-5.49551017E+01
 20
3.08507297E+02
  0
VERTEX
  8
0
 62
4
 10
-5.53112194E+01
 20
3.08465335E+02
  0
VERTEX
  8
0
 62
4
 10
-5.56569022E+01
 20
3.08410379E+02
  0
VERTEX
  8
0
 62
4
 10
-5.59893991E+01
 20
3.08342866E+02
  0
VERTEX
  8
0
 62
4
 10
-5.63060642E+01
 20
3.08263333E+02
  0
VERTEX
  8
0
 62
4
 10
-5.66043772E+01
 20
3.08172414E+02
  0
VERTEX
  8
0
 62
4
 10
-5.68819643E+01
 20
3.08070832E+02
  0
VERTEX
  8
0
 62
4
 10
-5.71366164E+01
 20
3.07959395E+02
  0
VERTEX
  8
0
 62
4
 10
-5.73663068E+01
 20
3.07838990E+02
  0
VERTEX
  8
0
 62
4
 10
-5.75692077E+01
 20
3.07710576E+02
  0
VERTEX
  8
0
 62
4
 10
-5.77437044E+01
 20
3.07575174E+02
  0
VERTEX
  8
0
 62
4
 10
-5.78884082E+01
 20
3.07433861E+02
  0
VERTEX
  8
0
 62
4
 10
-5.80021675E+01
 20
3.07287764E+02
  0
VERTEX
  8
0
 62
4
 10
-5.80840771E+01
 20
3.07138043E+02
  0
VERTEX
  8
0
 62
4
 10
-5.81334850E+01
 20
3.06985891E+02
  0
VERTEX
  8
0
 62
4
 10
-5.81499981E+01
 20
3.06832518E+02
  0
SEQEND
  8
0
  0
POLYLINE
  8
0
 62
4
 66
1
  0
VERTEX
  8
0
 62
4
 10
-5.81499981E+01
 20
3.05230986E+02
  0
VERTEX
  8
0
 62
4
 10
-5.81342061E+01
 20
3.05080993E+02
  0
VERTEX
  8
0
 62
4
 10
-5.80869503E+01
 20
3.04932142E+02
  0
VERTEX
  8
0
 62
4
 10
-5.80085903E+01
 20
3.04785564E+02
  0
VERTEX
  8
0
 62
4
 10
-5.78997225E+01
 20
3.04642377E+02
  0
VERTEX
  8
0
 62
4
 10
-5.77611754E+01
 20
3.04503670E+02
  0
VERTEX
  8
0
 62
4
 10
-5.75940035E+01
 20
3.04370498E+02
  0
VERTEX
  8
0
 62
4
 10
-5.73994791E+01
 20
3.04243874E+02
  0
VERTEX
  8
0
 62
4
 10
-5.71790825E+01
 20
3.04124763E+02
  0
VERTEX
  8
0
 62
4
 10
-5.69344912E+01
 20
3.04014072E+02
  0
VERTEX
  8
0
 62
4
 10
-5.66675667E+01
 20
3.03912641E+02
  0
VERTEX
  8
0
 62
4
 10
-5.63803403E+01
 20
3.03821244E+02
  0
VERTEX
  8
0
 62
4
 10
-5.60749981E+01
 20
3.03740576E+02
  0
VERTEX
  8
0
 62
4
 10
-5.57538639E+01
 20
3.03671251E+02
  0
VERTEX
  8
0
 62
4
 10
-5.54193817E+01
 20
3.03613797E+02
  0
VERTEX
  8
0
 62
4
 10
-5.50740971E+01
 20
3.03568650E+02
  0
VERTEX
  8
0
 62
4
 10
-5.47206380E+01
 20
3.03536155E+02
  0
VERTEX
  8
0
 62
4
 10
-5.43616944E+01
 20
3.03516558E+02
  0
VERTEX
  8
0
 62
4
 10
-5.39999981E+01
 20
3.03510009E+02
  0
VERTEX
  8
0
 62
4
 10
-5.36383018E+01
 20
3.03516558E+02
  0
VERTEX
  8
0
 62
4
 10
-5.32793582E+01
 20
3.03536155E+02
  0
VERTEX
  8
0
 62
4
 10
-5.29258991E+01
 20
3.03568650E+02
  0
VERTEX
  8
0
 62
4
 10
-5.25806145E+01
 20
3.03613797E+02
  0
VERTEX
  8
0
 62
4
 10
-5.22461323E+01
 20
3.03671251E+02
  0
VERTEX
  8
0
 62
4
 10
-5.19249981E+01
 20
3.03740576E+02
  0
VERTEX
  8
0
 62
4
 10
-5.16196559E+01
 20
3.03821244E+02
  0
VERTEX
  8
0
 62
4
 10
-5.13324295E+01
 20
3.03912641E+02
  0
VERTEX
  8
0
 62
4
 10
-5.10655050E+01
 20
3.04014072E+02
  0
VERTEX
  8
0
 62
4
 10
-5.08209137E+01
 20
3.04124763E+02
  0
VERTEX
  8
0
 62
4
 10
-5.06005171E+01
 20
3.04243874E+02
  0
VERTEX
  8
0
 62
4
 10
-5.04059927E+01
 20
3.04370498E+02
  0
VERTEX
  8
0
 62
4
 10
-5.02388208E+01
 20
3.04503670E+02
  0
VERTEX
  8
0
 62
4
 10
-5.01002737E+01
 20
3.04642377E+02
  0
VERTEX
  8
0
 62
4
 10
-4.99914059E+01
 20
3.04785564E+02
  0
VERTEX
  8
0
 62
4
 10
-4.99130459E+01
 20
3.04932141E+02
  0
VERTEX
  8
0
 62
4
 10
-4.98657901E+01
 20
3.05080993E+02
  0
VERTEX
  8
0
 62
4
 10
-4.98499981E+01
 20
3.05230986E+02
  0
VERTEX
  8
0
 62
4
 10
-4.98657901E+01
 20
3.05380979E+02
  0
VERTEX
  8
0
 62
4
 10
-4.99130459E+01
 20
3.05529830E+02
  0
VERTEX
  8
0
 62
4
 10
-4.99914059E+01
 20
3.05676408E+02
  0
VERTEX
  8
0
 62
4
 10
-5.01002737E+01
 20
3.05819595E+02
  0
VERTEX
  8
0
 62
4
 10
-5.02388208E+01
 20
3.05958302E+02
  0
VERTEX
  8
0
 62
4
 10
-5.04059927E+01
 20
3.06091474E+02
  0
VERTEX
  8
0
 62
4
 10
-5.06005171E+01
 20
3.06218098E+02
  0
VERTEX
  8
0
 62
4
 10
-5.08209137E+01
 20
3.06337209E+02
  0
VERTEX
  8
0
 62
4
 10
-5.10655050E+01
 20
3.06447900E+02
  0
VERTEX
  8
0
 62
4
 10
-5.13324295E+01
 20
3.06549331E+02
  0
VERTEX
  8
0
 62
4
 10
-5.16196559E+01
 20
3.06640728E+02
  0
VERTEX
  8
0
 62
4
 10
-5.19249981E+01
 20
3.06721396E+02
  0
VERTEX
  8
0
 62
4
 10
-5.22461323E+01
 20
3.06790721E+02
  0
VERTEX
  8
0
 62
4
 10
-5.25806145E+01
 20
3.06848175E+02
  0
VERTEX
  8
0
 62
4
 10
-5.29258991E+01
 20
3.06893322E+02
  0
VERTEX
  8
0
 62
4
 10
-5.32793582E+01
 20
3.06925817E+02
  0
VERTEX
  8
0
 62
4
 10
-5.36383018E+01
 20
3.06945414E+02
  0
VERTEX
  8
0
 62
4
 10
-5.39999981E+01
 20
3.06951963E+02
  0
VERTEX
  8
0
 62
4
 10
-5.43616944E+01
 20
3.06945414E+02
  0
VERTEX
  8
0
 62
4
 10
-5.47206380E+01
 20
3.06925817E+02
  0
VERTEX
  8
0
 62
4
 10
-5.50740971E+01
 20
3.06893322E+02
  0
VERTEX
  8
0
 62
4
 10
-5.54193817E+01
 20
3.06848175E+02
  0
VERTEX
  8
0
 62
4
 10
-5.57538639E+01
 20
3.06790721E+02
  0
VERTEX
  8
0
 62
4
 10
-5.60749981E+01
 20
3.06721396E+02
  0
VERTEX
  8
0
 62
4
 10
-5.63803403E+01
 20
3.06640728E+02
  0
VERTEX
  8
0
 62
4
 10
-5.66675667E+01
 20
3.06549331E+02
  0
VERTEX
  8
0
 62
4
 10
-5.69344912E+01
 20
3.06447900E+02
  0
VERTEX
  8
0
 62
4
 10
-5.71790825E+01
 20
3.06337209E+02
  0
VERTEX
  8
0
 62
4
 10
-5.73994791E+01
 20
3.06218098E+02
  0
VERTEX
  8
0
 62
4
 10
-5.75940035E+01
 20
3.06091474E+02
  0
VERTEX
  8
0
 62
4
 10
-5.77611754E+01
 20
3.05958302E+02
  0
VERTEX
  8
0
 62
4
 10
-5.78997225E+01
 20
3.05819595E+02
  0
VERTEX
  8
0
 62
4
 10
-5.80085903E+01
 20
3.05676408E+02
  0
VERTEX
  8
0
 62
4
 10
-5.80869503E+01
 20
3.05529831E+02
  0
VERTEX
  8
0
 62
4
 10
-5.81342061E+01
 20
3.05380979E+02
  0
VERTEX
  8
0
 62
4
 10
-5.81499981E+01
 20
3.05230986E+02
  0
SEQEND
  8
0
  0
ARC
  8
0
 62
4
 10
-6.03695988E+01
 20
3.20015606E+02
 40
1.67245585E+01
 50
2.85971208E+02
 51
2.99114206E+02
  0
ARC
  8
0
 62
4
 10
-4.76303940E+01
 20
3.20015614E+02
 40
1.67245676E+01
 50
2.40885798E+02
 51
2.54028789E+02
  0
POLYLINE
  8
0
 62
4
 66
1
  0
VERTEX
  8
0
 62
4
 10
-4.26999981E+01
 20
3.08629730E+02
  0
VERTEX
  8
0
 62
4
 10
-4.27152958E+01
 20
3.08770987E+02
  0
VERTEX
  8
0
 62
4
 10
-4.27610657E+01
 20
3.08911106E+02
  0
VERTEX
  8
0
 62
4
 10
-4.28369392E+01
 20
3.09048960E+02
  0
VERTEX
  8
0
 62
4
 10
-4.29423056E+01
 20
3.09183438E+02
  0
VERTEX
  8
0
 62
4
 10
-4.30763164E+01
 20
3.09313459E+02
  0
VERTEX
  8
0
 62
4
 10
-4.32378927E+01
 20
3.09437974E+02
  0
VERTEX
  8
0
 62
4
 10
-4.34257335E+01
 20
3.09555982E+02
  0
VERTEX
  8
0
 62
4
 10
-4.36383265E+01
 20
3.09666532E+02
  0
VERTEX
  8
0
 62
4
 10
-4.38739600E+01
 20
3.09768735E+02
  0
VERTEX
  8
0
 62
4
 10
-4.41307368E+01
 20
3.09861767E+02
  0
VERTEX
  8
0
 62
4
 10
-4.44065896E+01
 20
3.09944879E+02
  0
VERTEX
  8
0
 62
4
 10
-4.46992972E+01
 20
3.10017403E+02
  0
VERTEX
  8
0
 62
4
 10
-4.50065030E+01
 20
3.10078753E+02
  0
VERTEX
  8
0
 62
4
 10
-4.53257335E+01
 20
3.10128437E+02
  0
VERTEX
  8
0
 62
4
 10
-4.56544185E+01
 20
3.10166055E+02
  0
VERTEX
  8
0
 62
4
 10
-4.59899117E+01
 20
3.10191303E+02
  0
VERTEX
  8
0
 62
4
 10
-4.63295117E+01
 20
3.10203978E+02
  0
VERTEX
  8
0
 62
4
 10
-4.66704844E+01
 20
3.10203978E+02
  0
VERTEX
  8
0
 62
4
 10
-4.70100845E+01
 20
3.10191303E+02
  0
VERTEX
  8
0
 62
4
 10
-4.73455776E+01
 20
3.10166055E+02
  0
VERTEX
  8
0
 62
4
 10
-4.76742627E+01
 20
3.10128438E+02
  0
VERTEX
  8
0
 62
4
 10
-4.79934932E+01
 20
3.10078753E+02
  0
VERTEX
  8
0
 62
4
 10
-4.83006990E+01
 20
3.10017403E+02
  0
VERTEX
  8
0
 62
4
 10
-4.85934066E+01
 20
3.09944879E+02
  0
VERTEX
  8
0
 62
4
 10
-4.88692593E+01
 20
3.09861767E+02
  0
VERTEX
  8
0
 62
4
 10
-4.91260361E+01
 20
3.09768735E+02
  0
VERTEX
  8
0
 62
4
 10
-4.93616697E+01
 20
3.09666532E+02
  0
VERTEX
  8
0
 62
4
 10
-4.95742627E+01
 20
3.09555982E+02
  0
VERTEX
  8
0
 62
4
 10
-4.97621035E+01
 20
3.09437974E+02
  0
VERTEX
  8
0
 62
4
 10
-4.99236798E+01
 20
3.09313459E+02
  0
VERTEX
  8
0
 62
4
 10
-5.00576906E+01
 20
3.09183439E+02
  0
VERTEX
  8
0
 62
4
 10
-5.01630570E+01
 20
3.09048960E+02
  0
VERTEX
  8
0
 62
4
 10
-5.02389305E+01
 20
3.08911106E+02
  0
VERTEX
  8
0
 62
4
 10
-5.02847004E+01
 20
3.08770987E+02
  0
VERTEX
  8
0
 62
4
 10
-5.02999981E+01
 20
3.08629730E+02
  0
SEQEND
  8
0
  0
POLYLINE
  8
0
 62
4
 66
1
  0
VERTEX
  8
0
 62
4
 10
-4.30999981E+01
 20
3.07016011E+02
  0
VERTEX
  8
0
 62
4
 10
-4.29634164E+01
 20
3.07143272E+02
  0
VERTEX
  8
0
 62
4
 10
-4.28544686E+01
 20
3.07275038E+02
  0
VERTEX
  8
0
 62
4
 10
-4.27740058E+01
 20
3.07410279E+02
  0
VERTEX
  8
0
 62
4
 10
-4.27226568E+01
 20
3.07547937E+02
  0
VERTEX
  8
0
 62
4
 10
-4.27008228E+01
 20
3.07686939E+02
  0
VERTEX
  8
0
 62
4
 10
-4.27086745E+01
 20
3.07826197E+02
  0
VERTEX
  8
0
 62
4
 10
-4.27461505E+01
 20
3.07964623E+02
  0
VERTEX
  8
0
 62
4
 10
-4.28129579E+01
 20
3.08101137E+02
  0
VERTEX
  8
0
 62
4
 10
-4.29085747E+01
 20
3.08234670E+02
  0
VERTEX
  8
0
 62
4
 10
-4.30322539E+01
 20
3.08364180E+02
  0
VERTEX
  8
0
 62
4
 10
-4.31830290E+01
 20
3.08488655E+02
  0
VERTEX
  8
0
 62
4
 10
-4.33597219E+01
 20
3.08607122E+02
  0
VERTEX
  8
0
 62
4
 10
-4.35609519E+01
 20
3.08718655E+02
  0
VERTEX
  8
0
 62
4
 10
-4.37851469E+01
 20
3.08822384E+02
  0
VERTEX
  8
0
 62
4
 10
-4.40305548E+01
 20
3.08917497E+02
  0
VERTEX
  8
0
 62
4
 10
-4.42952583E+01
 20
3.09003251E+02
  0
VERTEX
  8
0
 62
4
 10
-4.45771889E+01
 20
3.09078977E+02
  0
VERTEX
  8
0
 62
4
 10
-4.48741438E+01
 20
3.09144082E+02
  0
VERTEX
  8
0
 62
4
 10
-4.51838027E+01
 20
3.09198058E+02
  0
VERTEX
  8
0
 62
4
 10
-4.55037459E+01
 20
3.09240483E+02
  0
VERTEX
  8
0
 62
4
 10
-4.58314735E+01
 20
3.09271025E+02
  0
VERTEX
  8
0
 62
4
 10
-4.61644248E+01
 20
3.09289447E+02
  0
VERTEX
  8
0
 62
4
 10
-4.64999981E+01
 20
3.09295603E+02
  0
VERTEX
  8
0
 62
4
 10
-4.68355715E+01
 20
3.09289447E+02
  0
VERTEX
  8
0
 62
4
 10
-4.71685227E+01
 20
3.09271025E+02
  0
VERTEX
  8
0
 62
4
 10
-4.74962504E+01
 20
3.09240483E+02
  0
VERTEX
  8
0
 62
4
 10
-4.78161936E+01
 20
3.09198058E+02
  0
VERTEX
  8
0
 62
4
 10
-4.81258524E+01
 20
3.09144082E+02
  0
VERTEX
  8
0
 62
4
 10
-4.84228073E+01
 20
3.09078977E+02
  0
VERTEX
  8
0
 62
4
 10
-4.87047379E+01
 20
3.09003251E+02
  0
VERTEX
  8
0
 62
4
 10
-4.89694414E+01
 20
3.08917497E+02
  0
VERTEX
  8
0
 62
4
 10
-4.92148494E+01
 20
3.08822384E+02
  0
VERTEX
  8
0
 62
4
 10
-4.94390443E+01
 20
3.08718655E+02
  0
VERTEX
  8
0
 62
4
 10
-4.96402744E+01
 20
3.08607122E+02
  0
VERTEX
  8
0
 62
4
 10
-4.98169673E+01
 20
3.08488655E+02
  0
VERTEX
  8
0
 62
4
 10
-4.99677423E+01
 20
3.08364180E+02
  0
VERTEX
  8
0
 62
4
 10
-5.00914215E+01
 20
3.08234670E+02
  0
VERTEX
  8
0
 62
4
 10
-5.01870383E+01
 20
3.08101137E+02
  0
VERTEX
  8
0
 62
4
 10
-5.02538457E+01
 20
3.07964623E+02
  0
VERTEX
  8
0
 62
4
 10
-5.02913217E+01
 20
3.07826197E+02
  0
VERTEX
  8
0
 62
4
 10
-5.02991734E+01
 20
3.07686939E+02
  0
VERTEX
  8
0
 62
4
 10
-5.02773394E+01
 20
3.07547937E+02
  0
VERTEX
  8
0
 62
4
 10
-5.02259904E+01
 20
3.07410279E+02
  0
VERTEX
  8
0
 62
4
 10
-5.01455276E+01
 20
3.07275038E+02
  0
VERTEX
  8
0
 62
4
 10
-5.00365798E+01
 20
3.07143272E+02
  0
VERTEX
  8
0
 62
4
 10
-4.98999981E+01
 20
3.07016011E+02
  0
SEQEND
  8
0
  0
POLYLINE
  8
0
 62
4
 66
1
  0
VERTEX
  8
0
 62
4
 10
-4.30999981E+01
 20
3.07719769E+02
  0
VERTEX
  8
0
 62
4
 10
-4.31136855E+01
 20
3.07846157E+02
  0
VERTEX
  8
0
 62
4
 10
-4.31546375E+01
 20
3.07971527E+02
  0
VERTEX
  8
0
 62
4
 10
-4.32225244E+01
 20
3.08094870E+02
  0
VERTEX
  8
0
 62
4
 10
-4.33167995E+01
 20
3.08215192E+02
  0
VERTEX
  8
0
 62
4
 10
-4.34367039E+01
 20
3.08331526E+02
  0
VERTEX
  8
0
 62
4
 10
-4.35812722E+01
 20
3.08442935E+02
  0
VERTEX
  8
0
 62
4
 10
-4.37493403E+01
 20
3.08548521E+02
  0
VERTEX
  8
0
 62
4
 10
-4.39395551E+01
 20
3.08647434E+02
  0
VERTEX
  8
0
 62
4
 10
-4.41503851E+01
 20
3.08738879E+02
  0
VERTEX
  8
0
 62
4
 10
-4.43801328E+01
 20
3.08822118E+02
  0
VERTEX
  8
0
 62
4
 10
-4.46269483E+01
 20
3.08896481E+02
  0
VERTEX
  8
0
 62
4
 10
-4.48888446E+01
 20
3.08961371E+02
  0
VERTEX
  8
0
 62
4
 10
-4.51637130E+01
 20
3.09016264E+02
  0
VERTEX
  8
0
 62
4
 10
-4.54493403E+01
 20
3.09060718E+02
  0
VERTEX
  8
0
 62
4
 10
-4.57434269E+01
 20
3.09094375E+02
  0
VERTEX
  8
0
 62
4
 10
-4.60436050E+01
 20
3.09116966E+02
  0
VERTEX
  8
0
 62
4
 10
-4.63474577E+01
 20
3.09128306E+02
  0
VERTEX
  8
0
 62
4
 10
-4.66525385E+01
 20
3.09128306E+02
  0
VERTEX
  8
0
 62
4
 10
-4.69563912E+01
 20
3.09116966E+02
  0
VERTEX
  8
0
 62
4
 10
-4.72565693E+01
 20
3.09094375E+02
  0
VERTEX
  8
0
 62
4
 10
-4.75506559E+01
 20
3.09060718E+02
  0
VERTEX
  8
0
 62
4
 10
-4.78362832E+01
 20
3.09016264E+02
  0
VERTEX
  8
0
 62
4
 10
-4.81111515E+01
 20
3.08961371E+02
  0
VERTEX
  8
0
 62
4
 10
-4.83730478E+01
 20
3.08896481E+02
  0
VERTEX
  8
0
 62
4
 10
-4.86198634E+01
 20
3.08822118E+02
  0
VERTEX
  8
0
 62
4
 10
-4.88496111E+01
 20
3.08738879E+02
  0
VERTEX
  8
0
 62
4
 10
-4.90604411E+01
 20
3.08647434E+02
  0
VERTEX
  8
0
 62
4
 10
-4.92506559E+01
 20
3.08548521E+02
  0
VERTEX
  8
0
 62
4
 10
-4.94187240E+01
 20
3.08442935E+02
  0
VERTEX
  8
0
 62
4
 10
-4.95632922E+01
 20
3.08331526E+02
  0
VERTEX
  8
0
 62
4
 10
-4.96831967E+01
 20
3.08215192E+02
  0
VERTEX
  8
0
 62
4
 10
-4.97774718E+01
 20
3.08094870E+02
  0
VERTEX
  8
0
 62
4
 10
-4.98453587E+01
 20
3.07971527E+02
  0
VERTEX
  8
0
 62
4
 10
-4.98863107E+01
 20
3.07846157E+02
  0
VERTEX
  8
0
 62
4
 10
-4.98999981E+01
 20
3.07719769E+02
  0
SEQEND
  8
0
  0
POLYLINE
  8
0
 62
4
 66
1
  0
VERTEX
  8
0
 62
4
 10
-4.98999981E+01
 20
3.06690782E+02
  0
VERTEX
  8
0
 62
4
 10
-4.98870601E+01
 20
3.06567896E+02
  0
VERTEX
  8
0
 62
4
 10
-4.98483445E+01
 20
3.06445946E+02
  0
VERTEX
  8
0
 62
4
 10
-4.97841459E+01
 20
3.06325858E+02
  0
VERTEX
  8
0
 62
4
 10
-4.96949530E+01
 20
3.06208548E+02
  0
VERTEX
  8
0
 62
4
 10
-4.95814446E+01
 20
3.06094908E+02
  0
VERTEX
  8
0
 62
4
 10
-4.94444845E+01
 20
3.05985803E+02
  0
VERTEX
  8
0
 62
4
 10
-4.92851151E+01
 20
3.05882064E+02
  0
VERTEX
  8
0
 62
4
 10
-4.91045492E+01
 20
3.05784479E+02
  0
VERTEX
  8
0
 62
4
 10
-4.89041612E+01
 20
3.05693792E+02
  0
VERTEX
  8
0
 62
4
 10
-4.86854760E+01
 20
3.05610692E+02
  0
VERTEX
  8
0
 62
4
 10
-4.84501580E+01
 20
3.05535813E+02
  0
VERTEX
  8
0
 62
4
 10
-4.81999981E+01
 20
3.05469723E+02
  0
VERTEX
  8
0
 62
4
 10
-4.79369002E+01
 20
3.05412927E+02
  0
VERTEX
  8
0
 62
4
 10
-4.76628666E+01
 20
3.05365856E+02
  0
VERTEX
  8
0
 62
4
 10
-4.73799829E+01
 20
3.05328868E+02
  0
VERTEX
  8
0
 62
4
 10
-4.70904019E+01
 20
3.05302245E+02
  0
VERTEX
  8
0
 62
4
 10
-4.67963276E+01
 20
3.05286190E+02
  0
VERTEX
  8
0
 62
4
 10
-4.64999981E+01
 20
3.05280825E+02
  0
VERTEX
  8
0
 62
4
 10
-4.62036686E+01
 20
3.05286190E+02
  0
VERTEX
  8
0
 62
4
 10
-4.59095943E+01
 20
3.05302245E+02
  0
VERTEX
  8
0
 62
4
 10
-4.56200133E+01
 20
3.05328868E+02
  0
VERTEX
  8
0
 62
4
 10
-4.53371296E+01
 20
3.05365856E+02
  0
VERTEX
  8
0
 62
4
 10
-4.50630960E+01
 20
3.05412927E+02
  0
VERTEX
  8
0
 62
4
 10
-4.47999981E+01
 20
3.05469723E+02
  0
VERTEX
  8
0
 62
4
 10
-4.45498382E+01
 20
3.05535813E+02
  0
VERTEX
  8
0
 62
4
 10
-4.43145202E+01
 20
3.05610692E+02
  0
VERTEX
  8
0
 62
4
 10
-4.40958350E+01
 20
3.05693792E+02
  0
VERTEX
  8
0
 62
4
 10
-4.38954470E+01
 20
3.05784479E+02
  0
VERTEX
  8
0
 62
4
 10
-4.37148812E+01
 20
3.05882064E+02
  0
VERTEX
  8
0
 62
4
 10
-4.35555117E+01
 20
3.05985803E+02
  0
VERTEX
  8
0
 62
4
 10
-4.34185516E+01
 20
3.06094908E+02
  0
VERTEX
  8
0
 62
4
 10
-4.33050432E+01
 20
3.06208548E+02
  0
VERTEX
  8
0
 62
4
 10
-4.32158503E+01
 20
3.06325858E+02
  0
VERTEX
  8
0
 62
4
 10
-4.31516517E+01
 20
3.06445946E+02
  0
VERTEX
  8
0
 62
4
 10
-4.31129361E+01
 20
3.06567896E+02
  0
VERTEX
  8
0
 62
4
 10
-4.30999981E+01
 20
3.06690782E+02
  0
VERTEX
  8
0
 62
4
 10
-4.31129361E+01
 20
3.06813668E+02
  0
VERTEX
  8
0
 62
4
 10
-4.31516517E+01
 20
3.06935618E+02
  0
VERTEX
  8
0
 62
4
 10
-4.32158503E+01
 20
3.07055706E+02
  0
VERTEX
  8
0
 62
4
 10
-4.33050432E+01
 20
3.07173016E+02
  0
VERTEX
  8
0
 62
4
 10
-4.34185516E+01
 20
3.07286656E+02
  0
VERTEX
  8
0
 62
4
 10
-4.35555117E+01
 20
3.07395761E+02
  0
VERTEX
  8
0
 62
4
 10
-4.37148811E+01
 20
3.07499500E+02
  0
VERTEX
  8
0
 62
4
 10
-4.38954470E+01
 20
3.07597085E+02
  0
VERTEX
  8
0
 62
4
 10
-4.40958350E+01
 20
3.07687772E+02
  0
VERTEX
  8
0
 62
4
 10
-4.43145202E+01
 20
3.07770872E+02
  0
VERTEX
  8
0
 62
4
 10
-4.45498382E+01
 20
3.07845751E+02
  0
VERTEX
  8
0
 62
4
 10
-4.47999981E+01
 20
3.07911841E+02
  0
VERTEX
  8
0
 62
4
 10
-4.50630960E+01
 20
3.07968637E+02
  0
VERTEX
  8
0
 62
4
 10
-4.53371296E+01
 20
3.08015708E+02
  0
VERTEX
  8
0
 62
4
 10
-4.56200133E+01
 20
3.08052696E+02
  0
VERTEX
  8
0
 62
4
 10
-4.59095943E+01
 20
3.08079319E+02
  0
VERTEX
  8
0
 62
4
 10
-4.62036686E+01
 20
3.08095374E+02
  0
VERTEX
  8
0
 62
4
 10
-4.64999981E+01
 20
3.08100739E+02
  0
VERTEX
  8
0
 62
4
 10
-4.67963276E+01
 20
3.08095374E+02
  0
VERTEX
  8
0
 62
4
 10
-4.70904019E+01
 20
3.08079319E+02
  0
VERTEX
  8
0
 62
4
 10
-4.73799829E+01
 20
3.08052696E+02
  0
VERTEX
  8
0
 62
4
 10
-4.76628666E+01
 20
3.08015708E+02
  0
VERTEX
  8
0
 62
4
 10
-4.79369002E+01
 20
3.07968637E+02
  0
VERTEX
  8
0
 62
4
 10
-4.81999981E+01
 20
3.07911841E+02
  0
VERTEX
  8
0
 62
4
 10
-4.84501580E+01
 20
3.07845751E+02
  0
VERTEX
  8
0
 62
4
 10
-4.86854760E+01
 20
3.07770872E+02
  0
VERTEX
  8
0
 62
4
 10
-4.89041612E+01
 20
3.07687772E+02
  0
VERTEX
  8
0
 62
4
 10
-4.91045492E+01
 20
3.07597085E+02
  0
VERTEX
  8
0
 62
4
 10
-4.92851151E+01
 20
3.07499500E+02
  0
VERTEX
  8
0
 62
4
 10
-4.94444845E+01
 20
3.07395761E+02
  0
VERTEX
  8
0
 62
4
 10
-4.95814446E+01
 20
3.07286656E+02
  0
VERTEX
  8
0
 62
4
 10
-4.96949530E+01
 20
3.07173016E+02
  0
VERTEX
  8
0
 62
4
 10
-4.97841459E+01
 20
3.07055706E+02
  0
VERTEX
  8
0
 62
4
 10
-4.98483445E+01
 20
3.06935618E+02
  0
VERTEX
  8
0
 62
4
 10
-4.98870601E+01
 20
3.06813668E+02
  0
VERTEX
  8
0
 62
4
 10
-4.98999981E+01
 20
3.06690782E+02
  0
SEQEND
  8
0
  0
ARC
  8
0
 62
4
 10
-5.27470563E+01
 20
3.20720686E+02
 40
1.64201370E+01
 50
2.90122188E+02
 51
2.99216401E+02
  0
ARC
  8
0
 62
4
 10
-4.02529393E+01
 20
3.20720687E+02
 40
1.64201386E+01
 50
2.40783600E+02
 51
2.49877812E+02
  0
LINE
  8
0
  6
CENTER
 62
6
 10
-6.39999981E+01
 20
3.08629730E+02
 11
-5.89999981E+01
 21
3.08629730E+02
  0
LINE
  8
0
 62
4
 10
-4.33281074E+01
 20
3.06183040E+02
 11
-3.89999981E+01
 21
3.06183040E+02
  0
LINE
  8
0
 62
4
 10
-4.98499981E+01
 20
3.06183040E+02
 11
-4.96718888E+01
 21
3.06183040E+02
  0
LINE
  8
0
 62
4
 10
-4.98499981E+01
 20
3.05793701E+02
 11
-4.91230474E+01
 21
3.05793701E+02
  0
LINE
  8
0
 62
4
 10
-5.08005073E+01
 20
3.04134928E+02
 11
-4.39999981E+01
 21
3.04134928E+02
  0
LINE
  8
0
 62
4
 10
-5.14890677E+01
 20
3.03860757E+02
 11
-3.89999981E+01
 21
3.03860757E+02
  0
LINE
  8
0
  6
CENTER
 62
6
 10
-5.39999981E+01
 20
3.09678303E+02
 11
-5.39999981E+01
 21
3.04678303E+02
  0
LINE
  8
0
  6
CENTER
 62
6
 10
-5.64999981E+01
 20
3.07178303E+02
 11
-5.14999981E+01
 21
3.07178303E+02
  0
LINE
  8
0
  6
CENTER
 62
6
 10
-4.64999981E+01
 20
3.11129730E+02
 11
-4.64999981E+01
 21
3.06129730E+02
  0
LINE
  8
0
  6
CENTER
 62
6
 10
-4.89999981E+01
 20
3.08629730E+02
 11
-4.39999981E+01
 21
3.08629730E+02
  0
LINE
  8
0
 62
4
 10
-4.39999981E+01
 20
3.05284237E+02
 11
-3.89999981E+01
 21
3.05284237E+02
  0
LINE
  8
0
 62
7
 10
-4.89264253E+01
 20
3.34000000E+02
 11
-4.40735708E+01
 21
3.34000000E+02
  0
LINE
  8
0
 62
7
 10
-4.09264253E+01
 20
3.34000000E+02
 11
2.80000019E+01
 21
3.34000000E+02
  0
LINE
  8
0
 62
7
 10
-5.39999981E+01
 20
3.27000031E+02
 11
-8.29999981E+01
 21
3.27000031E+02
  0
LINE
  8
0
 62
7
 10
-6.89999981E+01
 20
3.18000000E+02
 11
-8.29999981E+01
 21
3.18000000E+02
  0
LINE
  8
0
 62
7
 10
-1.00000019E+01
 20
2.43000000E+02
 11
-8.29999981E+01
 21
2.43000000E+02
  0
LINE
  8
0
 62
7
 10
-1.00000019E+01
 20
2.33999969E+02
 11
-8.29999981E+01
 21
2.33999969E+02
  0
LINE
  8
0
 62
7
 10
-4.92645808E+00
 20
2.27000000E+02
 11
-7.35457949E-02
 21
2.27000000E+02
  0
LINE
  8
0
 62
7
 10
3.07354192E+00
 20
2.27000000E+02
 11
2.80000019E+01
 21
2.27000000E+02
  0
LINE
  8
0
  6
CENTER
 62
6
 10
-4.79999676E+01
 20
-2.75639046E+02
 11
-4.79999676E+01
 21
-2.80212535E+02
  0
LINE
  8
0
 62
4
 10
-9.09999676E+01
 20
-2.68514606E+02
 11
-8.59999676E+01
 21
-2.68514606E+02
  0
LINE
  8
0
 62
4
 10
-9.09999676E+01
 20
-2.62368933E+02
 11
-8.59999676E+01
 21
-2.62368933E+02
  0
LINE
  8
0
 62
4
 10
-9.09999676E+01
 20
-2.55562561E+02
 11
-8.59999676E+01
 21
-2.55562561E+02
  0
LINE
  8
0
 62
6
 10
-6.57149024E+01
 20
-2.84519542E+02
 11
-6.22850327E+01
 21
-2.81089667E+02
  0
LINE
  8
0
 62
6
 10
-6.22850303E+01
 20
-2.84519539E+02
 11
-6.57149049E+01
 21
-2.81089669E+02
  0
POLYLINE
  8
0
 62
4
 66
1
  0
VERTEX
  8
0
 62
4
 10
-6.73767422E+01
 20
-2.83708336E+02
  0
VERTEX
  8
0
 62
4
 10
-6.73986232E+01
 20
-2.83981248E+02
  0
VERTEX
  8
0
 62
4
 10
-6.73937046E+01
 20
-2.84254843E+02
  0
VERTEX
  8
0
 62
4
 10
-6.73620250E+01
 20
-2.84526964E+02
  0
VERTEX
  8
0
 62
4
 10
-6.73038344E+01
 20
-2.84795464E+02
  0
VERTEX
  8
0
 62
4
 10
-6.72195916E+01
 20
-2.85058228E+02
  0
VERTEX
  8
0
 62
4
 10
-6.71099609E+01
 20
-2.85313183E+02
  0
VERTEX
  8
0
 62
4
 10
-6.69758067E+01
 20
-2.85558318E+02
  0
VERTEX
  8
0
 62
4
 10
-6.68181869E+01
 20
-2.85791700E+02
  0
VERTEX
  8
0
 62
4
 10
-6.66383444E+01
 20
-2.86011490E+02
  0
VERTEX
  8
0
 62
4
 10
-6.64376973E+01
 20
-2.86215953E+02
  0
VERTEX
  8
0
 62
4
 10
-6.62178278E+01
 20
-2.86403479E+02
  0
VERTEX
  8
0
 62
4
 10
-6.59804696E+01
 20
-2.86572587E+02
  0
VERTEX
  8
0
 62
4
 10
-6.57274945E+01
 20
-2.86721945E+02
  0
VERTEX
  8
0
 62
4
 10
-6.54608972E+01
 20
-2.86850375E+02
  0
VERTEX
  8
0
 62
4
 10
-6.51827799E+01
 20
-2.86956864E+02
  0
VERTEX
  8
0
 62
4
 10
-6.48953356E+01
 20
-2.87040572E+02
  0
VERTEX
  8
0
 62
4
 10
-6.46008311E+01
 20
-2.87100840E+02
  0
VERTEX
  8
0
 62
4
 10
-6.43015886E+01
 20
-2.87137191E+02
  0
VERTEX
  8
0
 62
4
 10
-6.39999676E+01
 20
-2.87149340E+02
  0
VERTEX
  8
0
 62
4
 10
-6.36983466E+01
 20
-2.87137191E+02
  0
VERTEX
  8
0
 62
4
 10
-6.33991041E+01
 20
-2.87100840E+02
  0
VERTEX
  8
0
 62
4
 10
-6.31045996E+01
 20
-2.87040572E+02
  0
VERTEX
  8
0
 62
4
 10
-6.28171553E+01
 20
-2.86956864E+02
  0
VERTEX
  8
0
 62
4
 10
-6.25390380E+01
 20
-2.86850375E+02
  0
VERTEX
  8
0
 62
4
 10
-6.22724407E+01
 20
-2.86721945E+02
  0
VERTEX
  8
0
 62
4
 10
-6.20194656E+01
 20
-2.86572587E+02
  0
VERTEX
  8
0
 62
4
 10
-6.17821074E+01
 20
-2.86403479E+02
  0
VERTEX
  8
0
 62
4
 10
-6.15622379E+01
 20
-2.86215953E+02
  0
VERTEX
  8
0
 62
4
 10
-6.13615908E+01
 20
-2.86011490E+02
  0
VERTEX
  8
0
 62
4
 10
-6.11817483E+01
 20
-2.85791700E+02
  0
VERTEX
  8
0
 62
4
 10
-6.10241285E+01
 20
-2.85558318E+02
  0
VERTEX
  8
0
 62
4
 10
-6.08899743E+01
 20
-2.85313183E+02
  0
VERTEX
  8
0
 62
4
 10
-6.07803436E+01
 20
-2.85058228E+02
  0
VERTEX
  8
0
 62
4
 10
-6.06961008E+01
 20
-2.84795464E+02
  0
VERTEX
  8
0
 62
4
 10
-6.06379102E+01
 20
-2.84526964E+02
  0
VERTEX
  8
0
 62
4
 10
-6.06062306E+01
 20
-2.84254843E+02
  0
VERTEX
  8
0
 62
4
 10
-6.06013120E+01
 20
-2.83981248E+02
  0
VERTEX
  8
0
 62
4
 10
-6.06231930E+01
 20
-2.83708336E+02
  0
SEQEND
  8
0
  0
POLYLINE
  8
0
 62
4
 66
1
  0
VERTEX
  8
0
 62
4
 10
-6.05999676E+01
 20
-2.83337903E+02
  0
VERTEX
  8
0
 62
4
 10
-6.06129056E+01
 20
-2.83061215E+02
  0
VERTEX
  8
0
 62
4
 10
-6.06516212E+01
 20
-2.82786632E+02
  0
VERTEX
  8
0
 62
4
 10
-6.07158198E+01
 20
-2.82516246E+02
  0
VERTEX
  8
0
 62
4
 10
-6.08050127E+01
 20
-2.82252112E+02
  0
VERTEX
  8
0
 62
4
 10
-6.09185211E+01
 20
-2.81996242E+02
  0
VERTEX
  8
0
 62
4
 10
-6.10554812E+01
 20
-2.81750583E+02
  0
VERTEX
  8
0
 62
4
 10
-6.12148506E+01
 20
-2.81517004E+02
  0
VERTEX
  8
0
 62
4
 10
-6.13954165E+01
 20
-2.81297283E+02
  0
VERTEX
  8
0
 62
4
 10
-6.15958045E+01
 20
-2.81093093E+02
  0
VERTEX
  8
0
 62
4
 10
-6.18144897E+01
 20
-2.80905987E+02
  0
VERTEX
  8
0
 62
4
 10
-6.20498077E+01
 20
-2.80737390E+02
  0
VERTEX
  8
0
 62
4
 10
-6.22999676E+01
 20
-2.80588583E+02
  0
VERTEX
  8
0
 62
4
 10
-6.25630655E+01
 20
-2.80460701E+02
  0
VERTEX
  8
0
 62
4
 10
-6.28370991E+01
 20
-2.80354717E+02
  0
VERTEX
  8
0
 62
4
 10
-6.31199828E+01
 20
-2.80271436E+02
  0
VERTEX
  8
0
 62
4
 10
-6.34095638E+01
 20
-2.80211492E+02
  0
VERTEX
  8
0
 62
4
 10
-6.37036381E+01
 20
-2.80175343E+02
  0
VERTEX
  8
0
 62
4
 10
-6.39999676E+01
 20
-2.80163262E+02
  0
VERTEX
  8
0
 62
4
 10
-6.42962971E+01
 20
-2.80175343E+02
  0
VERTEX
  8
0
 62
4
 10
-6.45903714E+01
 20
-2.80211492E+02
  0
VERTEX
  8
0
 62
4
 10
-6.48799524E+01
 20
-2.80271436E+02
  0
VERTEX
  8
0
 62
4
 10
-6.51628361E+01
 20
-2.80354717E+02
  0
VERTEX
  8
0
 62
4
 10
-6.54368697E+01
 20
-2.80460701E+02
  0
VERTEX
  8
0
 62
4
 10
-6.56999676E+01
 20
-2.80588583E+02
  0
VERTEX
  8
0
 62
4
 10
-6.59501275E+01
 20
-2.80737390E+02
  0
VERTEX
  8
0
 62
4
 10
-6.61854455E+01
 20
-2.80905987E+02
  0
VERTEX
  8
0
 62
4
 10
-6.64041307E+01
 20
-2.81093093E+02
  0
VERTEX
  8
0
 62
4
 10
-6.66045187E+01
 20
-2.81297283E+02
  0
VERTEX
  8
0
 62
4
 10
-6.67850846E+01
 20
-2.81517004E+02
  0
VERTEX
  8
0
 62
4
 10
-6.69444540E+01
 20
-2.81750583E+02
  0
VERTEX
  8
0
 62
4
 10
-6.70814141E+01
 20
-2.81996242E+02
  0
VERTEX
  8
0
 62
4
 10
-6.71949225E+01
 20
-2.82252112E+02
  0
VERTEX
  8
0
 62
4
 10
-6.72841154E+01
 20
-2.82516246E+02
  0
VERTEX
  8
0
 62
4
 10
-6.73483140E+01
 20
-2.82786632E+02
  0
VERTEX
  8
0
 62
4
 10
-6.73870296E+01
 20
-2.83061215E+02
  0
VERTEX
  8
0
 62
4
 10
-6.73999676E+01
 20
-2.83337903E+02
  0
VERTEX
  8
0
 62
4
 10
-6.73870296E+01
 20
-2.83614591E+02
  0
VERTEX
  8
0
 62
4
 10
-6.73483140E+01
 20
-2.83889174E+02
  0
VERTEX
  8
0
 62
4
 10
-6.72841154E+01
 20
-2.84159560E+02
  0
VERTEX
  8
0
 62
4
 10
-6.71949225E+01
 20
-2.84423694E+02
  0
VERTEX
  8
0
 62
4
 10
-6.70814141E+01
 20
-2.84679564E+02
  0
VERTEX
  8
0
 62
4
 10
-6.69444540E+01
 20
-2.84925223E+02
  0
VERTEX
  8
0
 62
4
 10
-6.67850845E+01
 20
-2.85158802E+02
  0
VERTEX
  8
0
 62
4
 10
-6.66045187E+01
 20
-2.85378523E+02
  0
VERTEX
  8
0
 62
4
 10
-6.64041307E+01
 20
-2.85582713E+02
  0
VERTEX
  8
0
 62
4
 10
-6.61854455E+01
 20
-2.85769819E+02
  0
VERTEX
  8
0
 62
4
 10
-6.59501275E+01
 20
-2.85938416E+02
  0
VERTEX
  8
0
 62
4
 10
-6.56999676E+01
 20
-2.86087223E+02
  0
VERTEX
  8
0
 62
4
 10
-6.54368697E+01
 20
-2.86215105E+02
  0
VERTEX
  8
0
 62
4
 10
-6.51628361E+01
 20
-2.86321089E+02
  0
VERTEX
  8
0
 62
4
 10
-6.48799523E+01
 20
-2.86404370E+02
  0
VERTEX
  8
0
 62
4
 10
-6.45903714E+01
 20
-2.86464314E+02
  0
VERTEX
  8
0
 62
4
 10
-6.42962971E+01
 20
-2.86500463E+02
  0
VERTEX
  8
0
 62
4
 10
-6.39999676E+01
 20
-2.86512544E+02
  0
VERTEX
  8
0
 62
4
 10
-6.37036381E+01
 20
-2.86500463E+02
  0
VERTEX
  8
0
 62
4
 10
-6.34095638E+01
 20
-2.86464314E+02
  0
VERTEX
  8
0
 62
4
 10
-6.31199828E+01
 20
-2.86404370E+02
  0
VERTEX
  8
0
 62
4
 10
-6.28370991E+01
 20
-2.86321089E+02
  0
VERTEX
  8
0
 62
4
 10
-6.25630655E+01
 20
-2.86215105E+02
  0
VERTEX
  8
0
 62
4
 10
-6.22999676E+01
 20
-2.86087223E+02
  0
VERTEX
  8
0
 62
4
 10
-6.20498077E+01
 20
-2.85938416E+02
  0
VERTEX
  8
0
 62
4
 10
-6.18144897E+01
 20
-2.85769819E+02
  0
VERTEX
  8
0
 62
4
 10
-6.15958045E+01
 20
-2.85582713E+02
  0
VERTEX
  8
0
 62
4
 10
-6.13954165E+01
 20
-2.85378523E+02
  0
VERTEX
  8
0
 62
4
 10
-6.12148506E+01
 20
-2.85158802E+02
  0
VERTEX
  8
0
 62
4
 10
-6.10554812E+01
 20
-2.84925223E+02
  0
VERTEX
  8
0
 62
4
 10
-6.09185211E+01
 20
-2.84679564E+02
  0
VERTEX
  8
0
 62
4
 10
-6.08050127E+01
 20
-2.84423694E+02
  0
VERTEX
  8
0
 62
4
 10
-6.07158198E+01
 20
-2.84159560E+02
  0
VERTEX
  8
0
 62
4
 10
-6.06516212E+01
 20
-2.83889174E+02
  0
VERTEX
  8
0
 62
4
 10
-6.06129056E+01
 20
-2.83614591E+02
  0
VERTEX
  8
0
 62
4
 10
-6.05999676E+01
 20
-2.83337903E+02
  0
SEQEND
  8
0
  0
POLYLINE
  8
0
 62
4
 66
1
  0
VERTEX
  8
0
 62
4
 10
-6.79999676E+01
 20
-2.84173548E+02
  0
VERTEX
  8
0
 62
4
 10
-6.79847464E+01
 20
-2.84480300E+02
  0
VERTEX
  8
0
 62
4
 10
-6.79391985E+01
 20
-2.84784717E+02
  0
VERTEX
  8
0
 62
4
 10
-6.78636707E+01
 20
-2.85084482E+02
  0
VERTEX
  8
0
 62
4
 10
-6.77587376E+01
 20
-2.85377315E+02
  0
VERTEX
  8
0
 62
4
 10
-6.76251981E+01
 20
-2.85660987E+02
  0
VERTEX
  8
0
 62
4
 10
-6.74640682E+01
 20
-2.85933338E+02
  0
VERTEX
  8
0
 62
4
 10
-6.72765744E+01
 20
-2.86192296E+02
  0
VERTEX
  8
0
 62
4
 10
-6.70641437E+01
 20
-2.86435890E+02
  0
VERTEX
  8
0
 62
4
 10
-6.68283926E+01
 20
-2.86662266E+02
  0
VERTEX
  8
0
 62
4
 10
-6.65711155E+01
 20
-2.86869702E+02
  0
VERTEX
  8
0
 62
4
 10
-6.62942704E+01
 20
-2.87056618E+02
  0
VERTEX
  8
0
 62
4
 10
-6.59999642E+01
 20
-2.87221592E+02
  0
VERTEX
  8
0
 62
4
 10
-6.56904367E+01
 20
-2.87363369E+02
  0
VERTEX
  8
0
 62
4
 10
-6.53680438E+01
 20
-2.87480870E+02
  0
VERTEX
  8
0
 62
4
 10
-6.50352390E+01
 20
-2.87573199E+02
  0
VERTEX
  8
0
 62
4
 10
-6.46945551E+01
 20
-2.87639655E+02
  0
VERTEX
  8
0
 62
4
 10
-6.43485849E+01
 20
-2.87679732E+02
  0
VERTEX
  8
0
 62
4
 10
-6.39999616E+01
 20
-2.87693125E+02
  0
VERTEX
  8
0
 62
4
 10
-6.36513383E+01
 20
-2.87679731E+02
  0
VERTEX
  8
0
 62
4
 10
-6.33053683E+01
 20
-2.87639653E+02
  0
VERTEX
  8
0
 62
4
 10
-6.29646847E+01
 20
-2.87573196E+02
  0
VERTEX
  8
0
 62
4
 10
-6.26318802E+01
 20
-2.87480866E+02
  0
VERTEX
  8
0
 62
4
 10
-6.23094876E+01
 20
-2.87363365E+02
  0
VERTEX
  8
0
 62
4
 10
-6.19999607E+01
 20
-2.87221587E+02
  0
VERTEX
  8
0
 62
4
 10
-6.17056550E+01
 20
-2.87056612E+02
  0
VERTEX
  8
0
 62
4
 10
-6.14288105E+01
 20
-2.86869695E+02
  0
VERTEX
  8
0
 62
4
 10
-6.11715341E+01
 20
-2.86662259E+02
  0
VERTEX
  8
0
 62
4
 10
-6.09357838E+01
 20
-2.86435882E+02
  0
VERTEX
  8
0
 62
4
 10
-6.07233539E+01
 20
-2.86192287E+02
  0
VERTEX
  8
0
 62
4
 10
-6.05358610E+01
 20
-2.85933329E+02
  0
VERTEX
  8
0
 62
4
 10
-6.03747321E+01
 20
-2.85660977E+02
  0
VERTEX
  8
0
 62
4
 10
-6.02411935E+01
 20
-2.85377305E+02
  0
VERTEX
  8
0
 62
4
 10
-6.01362615E+01
 20
-2.85084472E+02
  0
VERTEX
  8
0
 62
4
 10
-6.00607346E+01
 20
-2.84784706E+02
  0
VERTEX
  8
0
 62
4
 10
-6.00151878E+01
 20
-2.84480289E+02
  0
VERTEX
  8
0
 62
4
 10
-5.99999676E+01
 20
-2.84173537E+02
  0
SEQEND
  8
0
  0
POLYLINE
  8
0
 62
4
 66
1
  0
VERTEX
  8
0
 62
4
 10
-6.67327153E+01
 20
-2.81449093E+02
  0
VERTEX
  8
0
 62
4
 10
-6.69801869E+01
 20
-2.81685035E+02
  0
VERTEX
  8
0
 62
4
 10
-6.72043324E+01
 20
-2.81940455E+02
  0
VERTEX
  8
0
 62
4
 10
-6.74033974E+01
 20
-2.82213353E+02
  0
VERTEX
  8
0
 62
4
 10
-6.75758239E+01
 20
-2.82501594E+02
  0
VERTEX
  8
0
 62
4
 10
-6.77202622E+01
 20
-2.82802921E+02
  0
VERTEX
  8
0
 62
4
 10
-6.78355819E+01
 20
-2.83114976E+02
  0
VERTEX
  8
0
 62
4
 10
-6.79208803E+01
 20
-2.83435316E+02
  0
VERTEX
  8
0
 62
4
 10
-6.79754899E+01
 20
-2.83761434E+02
  0
VERTEX
  8
0
 62
4
 10
-6.79989831E+01
 20
-2.84090778E+02
  0
VERTEX
  8
0
 62
4
 10
-6.79911762E+01
 20
-2.84420770E+02
  0
VERTEX
  8
0
 62
4
 10
-6.79521302E+01
 20
-2.84748827E+02
  0
VERTEX
  8
0
 62
4
 10
-6.78821507E+01
 20
-2.85072381E+02
  0
VERTEX
  8
0
 62
4
 10
-6.77817854E+01
 20
-2.85388900E+02
  0
VERTEX
  8
0
 62
4
 10
-6.76518200E+01
 20
-2.85695907E+02
  0
VERTEX
  8
0
 62
4
 10
-6.74932716E+01
 20
-2.85990998E+02
  0
VERTEX
  8
0
 62
4
 10
-6.73073812E+01
 20
-2.86271863E+02
  0
VERTEX
  8
0
 62
4
 10
-6.70956038E+01
 20
-2.86536306E+02
  0
VERTEX
  8
0
 62
4
 10
-6.68595969E+01
 20
-2.86782255E+02
  0
VERTEX
  8
0
 62
4
 10
-6.66012078E+01
 20
-2.87007786E+02
  0
VERTEX
  8
0
 62
4
 10
-6.63224588E+01
 20
-2.87211133E+02
  0
VERTEX
  8
0
 62
4
 10
-6.60255318E+01
 20
-2.87390706E+02
  0
VERTEX
  8
0
 62
4
 10
-6.57127507E+01
 20
-2.87545097E+02
  0
VERTEX
  8
0
 62
4
 10
-6.53865637E+01
 20
-2.87673100E+02
  0
VERTEX
  8
0
 62
4
 10
-6.50495239E+01
 20
-2.87773712E+02
  0
VERTEX
  8
0
 62
4
 10
-6.47042692E+01
 20
-2.87846145E+02
  0
VERTEX
  8
0
 62
4
 10
-6.43535019E+01
 20
-2.87889833E+02
  0
VERTEX
  8
0
 62
4
 10
-6.39999676E+01
 20
-2.87904434E+02
  0
VERTEX
  8
0
 62
4
 10
-6.36464332E+01
 20
-2.87889833E+02
  0
VERTEX
  8
0
 62
4
 10
-6.32956660E+01
 20
-2.87846145E+02
  0
VERTEX
  8
0
 62
4
 10
-6.29504113E+01
 20
-2.87773712E+02
  0
VERTEX
  8
0
 62
4
 10
-6.26133715E+01
 20
-2.87673100E+02
  0
VERTEX
  8
0
 62
4
 10
-6.22871845E+01
 20
-2.87545097E+02
  0
VERTEX
  8
0
 62
4
 10
-6.19744034E+01
 20
-2.87390705E+02
  0
VERTEX
  8
0
 62
4
 10
-6.16774764E+01
 20
-2.87211133E+02
  0
VERTEX
  8
0
 62
4
 10
-6.13987274E+01
 20
-2.87007786E+02
  0
VERTEX
  8
0
 62
4
 10
-6.11403383E+01
 20
-2.86782255E+02
  0
VERTEX
  8
0
 62
4
 10
-6.09043314E+01
 20
-2.86536306E+02
  0
VERTEX
  8
0
 62
4
 10
-6.06925540E+01
 20
-2.86271863E+02
  0
VERTEX
  8
0
 62
4
 10
-6.05066636E+01
 20
-2.85990998E+02
  0
VERTEX
  8
0
 62
4
 10
-6.03481152E+01
 20
-2.85695907E+02
  0
VERTEX
  8
0
 62
4
 10
-6.02181498E+01
 20
-2.85388900E+02
  0
VERTEX
  8
0
 62
4
 10
-6.01177845E+01
 20
-2.85072381E+02
  0
VERTEX
  8
0
 62
4
 10
-6.00478050E+01
 20
-2.84748827E+02
  0
VERTEX
  8
0
 62
4
 10
-6.00087590E+01
 20
-2.84420770E+02
  0
VERTEX
  8
0
 62
4
 10
-6.00009521E+01
 20
-2.84090778E+02
  0
VERTEX
  8
0
 62
4
 10
-6.00244453E+01
 20
-2.83761434E+02
  0
VERTEX
  8
0
 62
4
 10
-6.00790549E+01
 20
-2.83435316E+02
  0
VERTEX
  8
0
 62
4
 10
-6.01643533E+01
 20
-2.83114976E+02
  0
VERTEX
  8
0
 62
4
 10
-6.02796730E+01
 20
-2.82802921E+02
  0
VERTEX
  8
0
 62
4
 10
-6.04241113E+01
 20
-2.82501594E+02
  0
VERTEX
  8
0
 62
4
 10
-6.05965378E+01
 20
-2.82213353E+02
  0
VERTEX
  8
0
 62
4
 10
-6.07956028E+01
 20
-2.81940455E+02
  0
VERTEX
  8
0
 62
4
 10
-6.10197483E+01
 20
-2.81685035E+02
  0
VERTEX
  8
0
 62
4
 10
-6.12672199E+01
 20
-2.81449093E+02
  0
SEQEND
  8
0
  0
LINE
  8
0
  6
CENTER
 62
6
 10
-6.39999676E+01
 20
-2.78201070E+02
 11
-6.39999676E+01
 21
-2.89168476E+02
  0
LINE
  8
0
  6
CENTER
 62
6
 10
-7.00639729E+01
 20
-2.82804604E+02
 11
-5.81176840E+01
 21
-2.82804604E+02
  0
LINE
  8
0
 62
4
 10
-7.59999676E+01
 20
-2.91076511E+02
 11
-7.29999676E+01
 21
-2.95969597E+02
  0
LINE
  8
0
 62
4
 10
-3.69999676E+01
 20
-2.91076511E+02
 11
-3.99999676E+01
 21
-2.95969597E+02
  0
ARC
  8
0
 62
4
 10
-7.44999647E+01
 20
-2.79804217E+02
 40
1.50000284E+00
 50
9.00001085E+01
 51
1.79999892E+02
  0
ARC
  8
0
 62
4
 10
-8.04999718E+01
 20
-2.68208264E+02
 40
4.99995728E-01
 50
1.79999510E+02
 51
2.70000490E+02
  0
ARC
  8
0
 62
4
 10
-3.84999704E+01
 20
-2.79804217E+02
 40
1.50000284E+00
 50
1.08554370E-04
 51
8.99998913E+01
  0
ARC
  8
0
 62
4
 10
-7.19999718E+01
 20
-2.69208264E+02
 40
5.00004272E-01
 50
4.89585868E-04
 51
8.99995103E+01
  0
ARC
  8
0
 62
4
 10
-8.04999633E+01
 20
-2.55208264E+02
 40
5.00004272E-01
 50
9.00004895E+01
 51
1.79999510E+02
  0
LINE
  8
0
 62
4
 10
-8.44999676E+01
 20
-2.67458260E+02
 11
-8.09999676E+01
 21
-2.67458260E+02
  0
LINE
  8
0
 62
4
 10
-8.44999676E+01
 20
-2.55958260E+02
 11
-8.09999676E+01
 21
-2.55958260E+02
  0
LINE
  8
0
 62
4
 10
-8.44999676E+01
 20
-2.55458260E+02
 11
-8.44999676E+01
 21
-2.67958260E+02
  0
LINE
  8
0
 62
4
 10
-8.59999676E+01
 20
-2.67958260E+02
 11
-8.09999676E+01
 21
-2.67958260E+02
  0
LINE
  8
0
 62
4
 10
-8.59999676E+01
 20
-2.55458260E+02
 11
-8.09999676E+01
 21
-2.55458260E+02
  0
LINE
  8
0
 62
4
 10
-8.59999676E+01
 20
-2.54910926E+02
 11
-8.59999676E+01
 21
-2.68514606E+02
  0
LINE
  8
0
 62
4
 10
-9.09999676E+01
 20
-2.54910926E+02
 11
-9.09999676E+01
 21
-2.68514606E+02
  0
LINE
  8
0
 62
4
 10
-8.09999676E+01
 20
-2.55208260E+02
 11
-8.09999676E+01
 21
-2.68208260E+02
  0
LINE
  8
0
 62
4
 10
-7.14999676E+01
 20
-2.54708260E+02
 11
-8.04999676E+01
 21
-2.54708260E+02
  0
LINE
  8
0
 62
4
 10
-8.04999676E+01
 20
-2.68708260E+02
 11
-7.19999676E+01
 21
-2.68708260E+02
  0
LINE
  8
0
 62
4
 10
-9.09999676E+01
 20
-2.54910926E+02
 11
-8.59999676E+01
 21
-2.54910926E+02
  0
LINE
  8
0
 62
4
 10
-7.44999676E+01
 20
-2.78304215E+02
 11
-3.84999676E+01
 21
-2.78304215E+02
  0
LINE
  8
0
 62
4
 10
-7.59999676E+01
 20
-2.89717049E+02
 11
-3.69999676E+01
 21
-2.89717049E+02
  0
LINE
  8
0
 62
4
 10
-7.59999676E+01
 20
-2.91076511E+02
 11
-3.69999676E+01
 21
-2.91076511E+02
  0
LINE
  8
0
 62
4
 10
-3.69999676E+01
 20
-2.79804215E+02
 11
-3.69999676E+01
 21
-2.91076511E+02
  0
LINE
  8
0
 62
4
 10
-7.14999676E+01
 20
-2.74852138E+02
 11
-5.64999676E+01
 21
-2.74852138E+02
  0
LINE
  8
0
 62
4
 10
-5.44999676E+01
 20
-2.74913209E+02
 11
-5.44999676E+01
 21
-2.78304215E+02
  0
LINE
  8
0
 62
4
 10
-7.14999676E+01
 20
-2.53100751E+02
 11
-7.14999676E+01
 21
-2.74913209E+02
  0
LINE
  8
0
 62
4
 10
-5.64999676E+01
 20
-2.53100751E+02
 11
-5.64999676E+01
 21
-2.74913209E+02
  0
LINE
  8
0
 62
4
 10
-7.34999676E+01
 20
-2.74913209E+02
 11
-7.34999676E+01
 21
-2.78304215E+02
  0
LINE
  8
0
 62
4
 10
-7.59999676E+01
 20
-2.79804215E+02
 11
-7.59999676E+01
 21
-2.91076511E+02
  0
LINE
  8
0
 62
4
 10
-7.34999676E+01
 20
-2.74913209E+02
 11
-5.44999676E+01
 21
-2.74913209E+02
  0
LINE
  8
0
 62
4
 10
-7.14999676E+01
 20
-2.53100751E+02
 11
-5.64999676E+01
 21
-2.53100751E+02
  0
ARC
  8
0
 62
4
 10
-3.98630342E+02
 20
-2.61708260E+02
 40
7.00000000E+00
 50
1.23115777E+02
 51
1.46002341E+02
  0
ARC
  8
0
 62
4
 10
-3.98630342E+02
 20
-2.61708260E+02
 40
7.00000000E+00
 50
8.39976594E+01
 51
1.06884035E+02
  0
ARC
  8
0
 62
4
 10
-3.79243662E+02
 20
-2.80804230E+02
 40
2.50001570E+00
 50
2.50003598E+01
 51
1.14999640E+02
  0
ARC
  8
0
 62
4
 10
-3.96463486E+02
 20
-2.88833962E+02
 40
2.50001192E+00
 50
1.15000273E+02
 51
2.04999727E+02
  0
ARC
  8
0
 62
4
 10
-3.82386255E+02
 20
-2.87822894E+02
 40
1.18036308E+01
 50
1.22898056E+01
 51
3.79747793E+01
  0
CIRCLE
  8
0
 62
4
 10
-3.98630342E+02
 20
-2.61708260E+02
 40
3.75000000E+00
  0
ARC
  8
0
 62
4
 10
-3.73862154E+02
 20
-2.81160472E+02
 40
9.97209177E-01
 50
3.75805360E+01
 51
1.14812291E+02
  0
ARC
  8
0
 62
4
 10
-3.71830448E+02
 20
-2.85514199E+02
 40
9.98345090E-01
 50
2.95107939E+02
 51
1.17781676E+01
  0
LINE
  8
0
 62
4
 10
-3.76102113E+02
 20
-2.80442662E+02
 11
-3.72721167E+02
 21
-2.87693125E+02
  0
LINE
  8
0
  6
CENTER
 62
6
 10
-3.94638841E+02
 20
-2.93499992E+02
 11
-3.68973793E+02
 21
-2.81532184E+02
  0
LINE
  8
0
 62
4
 10
-3.71406825E+02
 20
-2.86418210E+02
 11
-3.72974738E+02
 21
-2.87149340E+02
  0
LINE
  8
0
 62
4
 10
-3.75848542E+02
 20
-2.80986447E+02
 11
-3.74280629E+02
 21
-2.80255318E+02
  0
LINE
  8
0
 62
4
 10
-3.73174321E+02
 20
-2.87904434E+02
 11
-3.72721167E+02
 21
-2.87693125E+02
  0
LINE
  8
0
 62
4
 10
-3.76555267E+02
 20
-2.80653972E+02
 11
-3.76102113E+02
 21
-2.80442662E+02
  0
LINE
  8
0
 62
4
 10
-3.98809653E+02
 20
-2.55171580E+02
 11
-3.94368745E+02
 21
-2.53100751E+02
  0
LINE
  8
0
 62
4
 10
-4.01799981E+02
 20
-2.54910926E+02
 11
-3.94324162E+02
 21
-2.55562561E+02
  0
LINE
  8
0
 62
4
 10
-4.02932300E+02
 20
-2.67862970E+02
 11
-3.95456481E+02
 21
-2.68514606E+02
  0
LINE
  8
0
 62
4
 10
-3.94324162E+02
 20
-2.55562561E+02
 11
-3.91150299E+02
 21
-2.62368933E+02
  0
LINE
  8
0
 62
4
 10
-4.06106163E+02
 20
-2.61056599E+02
 11
-4.02932300E+02
 21
-2.67862970E+02
  0
LINE
  8
0
 62
4
 10
-4.06106163E+02
 20
-2.61056599E+02
 11
-4.01799981E+02
 21
-2.54910926E+02
  0
LINE
  8
0
 62
4
 10
-3.95456481E+02
 20
-2.68514606E+02
 11
-3.91150299E+02
 21
-2.62368933E+02
  0
LINE
  8
0
 62
4
 10
-3.83716562E+02
 20
-2.88958539E+02
 11
-3.82660017E+02
 21
-2.91224309E+02
  0
LINE
  8
0
 62
4
 10
-3.87341793E+02
 20
-2.90649012E+02
 11
-3.86285248E+02
 21
-2.92914782E+02
  0
LINE
  8
0
 62
4
 10
-3.86285248E+02
 20
-2.92914782E+02
 11
-3.82660017E+02
 21
-2.91224309E+02
  0
LINE
  8
0
 62
4
 10
-3.87341793E+02
 20
-2.90649012E+02
 11
-3.83716562E+02
 21
-2.88958539E+02
  0
LINE
  8
0
 62
4
 10
-3.80441631E+02
 20
-2.93499992E+02
 11
-3.72329084E+02
 21
-2.89717049E+02
  0
LINE
  8
0
 62
4
 10
-3.71695157E+02
 20
-2.91076511E+02
 11
-3.72204535E+02
 21
-2.93499992E+02
  0
LINE
  8
0
 62
4
 10
-3.98729272E+02
 20
-2.89890502E+02
 11
-3.97046139E+02
 21
-2.93499992E+02
  0
LINE
  8
0
 62
4
 10
-3.76977885E+02
 20
-2.79747664E+02
 11
-3.71695157E+02
 21
-2.91076511E+02
  0
LINE
  8
0
 62
4
 10
-3.76892329E+02
 20
-2.93499992E+02
 11
-3.71695157E+02
 21
-2.91076511E+02
  0
LINE
  8
0
 62
4
 10
-3.97520048E+02
 20
-2.86568187E+02
 11
-3.80300200E+02
 21
-2.78538440E+02
  0
LINE
  8
0
 62
4
 10
-3.99210521E+02
 20
-2.82942956E+02
 11
-3.97520048E+02
 21
-2.86568187E+02
  0
LINE
  8
0
 62
4
 10
-3.81990673E+02
 20
-2.74913209E+02
 11
-3.80300200E+02
 21
-2.78538440E+02
  0
LINE
  8
0
 62
4
 10
-3.97820524E+02
 20
-2.81191411E+02
 11
-3.84225907E+02
 21
-2.74852138E+02
  0
LINE
  8
0
 62
4
 10
-3.99210521E+02
 20
-2.82942956E+02
 11
-3.81990673E+02
 21
-2.74913209E+02
  0
LINE
  8
0
 62
4
 10
-4.07963362E+02
 20
-2.59440025E+02
 11
-3.97397905E+02
 21
-2.82097719E+02
  0
LINE
  8
0
 62
4
 10
-3.94368745E+02
 20
-2.53100751E+02
 11
-3.83803289E+02
 21
-2.75758445E+02
  0
LINE
  8
0
 62
4
 10
-4.07963362E+02
 20
-2.59440025E+02
 11
-4.03531517E+02
 21
-2.57373421E+02
  0
LINE
  8
0
 62
4
 10
-4.04856658E+02
 20
-2.93299438E+02
 11
-4.04950179E+02
 21
-2.93499992E+02
  0
LINE
  8
0
 62
4
 10
-4.04856658E+02
 20
-2.93299438E+02
 11
-3.98517963E+02
 21
-2.90343656E+02
  0
LINE
  8
0
 62
4
 10
-4.04848334E+02
 20
-2.93499992E+02
 11
-4.04738071E+02
 21
-2.93268821E+02
  0
LINE
  8
0
 62
4
 10
1.65142353E+02
 20
-2.92500000E+02
 11
1.60518058E+02
 21
-2.90343656E+02
  0
LINE
  8
0
 62
4
 10
1.36747934E+02
 20
-2.92500000E+02
 11
1.33695252E+02
 21
-2.91076511E+02
  0
LINE
  8
0
 62
4
 10
1.33695252E+02
 20
-2.91076511E+02
 11
1.33994447E+02
 21
-2.92500000E+02
  0
LINE
  8
0
 62
4
 10
1.40297236E+02
 20
-2.92500000E+02
 11
1.34329179E+02
 21
-2.89717049E+02
  0
LINE
  8
0
 62
4
 10
1.47395841E+02
 20
-2.92500000E+02
 11
1.44660112E+02
 21
-2.91224309E+02
  0
LINE
  8
0
 62
4
 10
1.49341889E+02
 20
-2.90649012E+02
 11
1.48478759E+02
 21
-2.92500000E+02
  0
ARC
  8
0
 62
4
 10
1.58463582E+02
 20
-2.88833962E+02
 40
2.50001192E+00
 50
3.35000273E+02
 51
6.49997271E+01
  0
LINE
  8
0
 62
4
 10
1.61210616E+02
 20
-2.82942956E+02
 11
1.59520143E+02
 21
-2.86568187E+02
  0
LINE
  8
0
 62
4
 10
1.47738142E+02
 20
-2.81074150E+02
 11
1.48487031E+02
 21
-2.80319984E+02
  0
LINE
  8
0
 62
4
 10
1.54178644E+02
 20
-2.82974027E+02
 11
1.54082297E+02
 21
-2.84032477E+02
  0
LINE
  8
0
 62
4
 10
1.48487031E+02
 20
-2.80319984E+02
 11
1.54178644E+02
 21
-2.82974027E+02
  0
LINE
  8
0
 62
4
 10
1.60729367E+02
 20
-2.89890502E+02
 11
1.59512538E+02
 21
-2.92500000E+02
  0
LINE
  8
0
 62
4
 10
1.49341889E+02
 20
-2.90649012E+02
 11
1.45716658E+02
 21
-2.88958539E+02
  0
LINE
  8
0
 62
4
 10
1.45716658E+02
 20
-2.88958539E+02
 11
1.44660112E+02
 21
-2.91224309E+02
  0
ARC
  8
0
 62
4
 10
1.44386350E+02
 20
-2.87822894E+02
 40
1.18036308E+01
 50
1.42025221E+02
 51
1.67710194E+02
  0
ARC
  8
0
 62
4
 10
1.35862249E+02
 20
-2.81160472E+02
 40
9.97209177E-01
 50
6.51877094E+01
 51
1.42419464E+02
  0
ARC
  8
0
 62
4
 10
1.33830543E+02
 20
-2.85514199E+02
 40
9.98345090E-01
 50
1.68221832E+02
 51
2.44892061E+02
  0
LINE
  8
0
 62
4
 10
1.38102208E+02
 20
-2.80442662E+02
 11
1.34721262E+02
 21
-2.87693125E+02
  0
LINE
  8
0
 62
4
 10
1.33406920E+02
 20
-2.86418210E+02
 11
1.34974833E+02
 21
-2.87149340E+02
  0
LINE
  8
0
 62
4
 10
1.37848637E+02
 20
-2.80986447E+02
 11
1.36280725E+02
 21
-2.80255318E+02
  0
LINE
  8
0
 62
4
 10
1.35174416E+02
 20
-2.87904434E+02
 11
1.34721262E+02
 21
-2.87693125E+02
  0
LINE
  8
0
 62
4
 10
1.38555362E+02
 20
-2.80653972E+02
 11
1.38102208E+02
 21
-2.80442662E+02
  0
LINE
  8
0
  6
CENTER
 62
6
 10
1.54494446E+02
 20
-2.92500000E+02
 11
1.30973888E+02
 21
-2.81532184E+02
  0
ARC
  8
0
 62
4
 10
1.41243757E+02
 20
-2.80804230E+02
 40
2.50001570E+00
 50
6.50003596E+01
 51
1.54999640E+02
  0
LINE
  8
0
 62
4
 10
1.63800076E+02
 20
-2.54910926E+02
 11
1.62663489E+02
 21
-2.55009997E+02
  0
LINE
  8
0
 62
4
 10
1.64454767E+02
 20
-2.55845284E+02
 11
1.63800076E+02
 21
-2.54910926E+02
  0
LINE
  8
0
 62
4
 10
1.43990768E+02
 20
-2.74913209E+02
 11
1.42300295E+02
 21
-2.78538440E+02
  0
LINE
  8
0
 62
4
 10
1.56368841E+02
 20
-2.53100751E+02
 11
1.45803384E+02
 21
-2.75758445E+02
  0
LINE
  8
0
 62
4
 10
1.56368841E+02
 20
-2.53100751E+02
 11
1.69963457E+02
 21
-2.59440025E+02
  0
ARC
  8
0
 62
4
 10
1.60630429E+02
 20
-2.61708256E+02
 40
7.00000000E+00
 50
3.39976591E+01
 51
9.60023410E+01
  0
LINE
  8
0
  6
CENTER
 62
6
 10
1.52281917E+02
 20
-2.79611697E+02
 11
1.50280518E+02
 21
-2.83903712E+02
  0
LINE
  8
0
 62
4
 10
1.69963457E+02
 20
-2.59440025E+02
 11
1.59398001E+02
 21
-2.82097719E+02
  0
LINE
  8
0
 62
4
 10
1.61210616E+02
 20
-2.82942956E+02
 11
1.43990768E+02
 21
-2.74913209E+02
  0
LINE
  8
0
 62
4
 10
1.59820619E+02
 20
-2.81191411E+02
 11
1.46226002E+02
 21
-2.74852138E+02
  0
LINE
  8
0
 62
4
 10
1.59520143E+02
 20
-2.86568187E+02
 11
1.42300295E+02
 21
-2.78538440E+02
  0
LINE
  8
0
 62
4
 10
1.38977980E+02
 20
-2.79747664E+02
 11
1.33695252E+02
 21
-2.91076511E+02
  0
ARC
  8
0
 62
4
 10
-7.45000010E+01
 20
-1.18965521E+02
 40
1.50000046E+00
 50
1.80000018E+02
 51
2.69999983E+02
  0
ARC
  8
0
 62
4
 10
-3.84999981E+01
 20
-1.18965525E+02
 40
1.49999664E+00
 50
2.69999872E+02
 51
1.28225561E-04
  0
LINE
  8
0
 62
4
 10
-7.34999981E+01
 20
-1.18199738E+02
 11
-5.44999981E+01
 21
-1.18199738E+02
  0
POLYLINE
  8
0
 62
4
 66
1
  0
VERTEX
  8
0
 62
4
 10
-4.48599981E+01
 20
-1.09167241E+02
  0
VERTEX
  8
0
 62
4
 10
-4.48719467E+01
 20
-1.08919213E+02
  0
VERTEX
  8
0
 62
4
 10
-4.49077018E+01
 20
-1.08673072E+02
  0
VERTEX
  8
0
 62
4
 10
-4.49669910E+01
 20
-1.08430692E+02
  0
VERTEX
  8
0
 62
4
 10
-4.50493633E+01
 20
-1.08193918E+02
  0
VERTEX
  8
0
 62
4
 10
-4.51541916E+01
 20
-1.07964551E+02
  0
VERTEX
  8
0
 62
4
 10
-4.52806783E+01
 20
-1.07744338E+02
  0
VERTEX
  8
0
 62
4
 10
-4.54278607E+01
 20
-1.07534953E+02
  0
VERTEX
  8
0
 62
4
 10
-4.55946185E+01
 20
-1.07337992E+02
  0
VERTEX
  8
0
 62
4
 10
-4.57796828E+01
 20
-1.07154952E+02
  0
VERTEX
  8
0
 62
4
 10
-4.59816450E+01
 20
-1.06987227E+02
  0
VERTEX
  8
0
 62
4
 10
-4.61989681E+01
 20
-1.06836093E+02
  0
VERTEX
  8
0
 62
4
 10
-4.64299981E+01
 20
-1.06702700E+02
  0
VERTEX
  8
0
 62
4
 10
-4.66729768E+01
 20
-1.06588064E+02
  0
VERTEX
  8
0
 62
4
 10
-4.69260549E+01
 20
-1.06493058E+02
  0
VERTEX
  8
0
 62
4
 10
-4.71873063E+01
 20
-1.06418403E+02
  0
VERTEX
  8
0
 62
4
 10
-4.74547428E+01
 20
-1.06364669E+02
  0
VERTEX
  8
0
 62
4
 10
-4.77263291E+01
 20
-1.06332264E+02
  0
VERTEX
  8
0
 62
4
 10
-4.79999981E+01
 20
-1.06321435E+02
  0
VERTEX
  8
0
 62
4
 10
-4.82736671E+01
 20
-1.06332264E+02
  0
VERTEX
  8
0
 62
4
 10
-4.85452534E+01
 20
-1.06364669E+02
  0
VERTEX
  8
0
 62
4
 10
-4.88126899E+01
 20
-1.06418403E+02
  0
VERTEX
  8
0
 62
4
 10
-4.90739414E+01
 20
-1.06493058E+02
  0
VERTEX
  8
0
 62
4
 10
-4.93270194E+01
 20
-1.06588064E+02
  0
VERTEX
  8
0
 62
4
 10
-4.95699981E+01
 20
-1.06702700E+02
  0
VERTEX
  8
0
 62
4
 10
-4.98010281E+01
 20
-1.06836093E+02
  0
VERTEX
  8
0
 62
4
 10
-5.00183512E+01
 20
-1.06987227E+02
  0
VERTEX
  8
0
 62
4
 10
-5.02203134E+01
 20
-1.07154952E+02
  0
VERTEX
  8
0
 62
4
 10
-5.04053777E+01
 20
-1.07337992E+02
  0
VERTEX
  8
0
 62
4
 10
-5.05721355E+01
 20
-1.07534953E+02
  0
VERTEX
  8
0
 62
4
 10
-5.07193179E+01
 20
-1.07744338E+02
  0
VERTEX
  8
0
 62
4
 10
-5.08458046E+01
 20
-1.07964551E+02
  0
VERTEX
  8
0
 62
4
 10
-5.09506329E+01
 20
-1.08193918E+02
  0
VERTEX
  8
0
 62
4
 10
-5.10330052E+01
 20
-1.08430692E+02
  0
VERTEX
  8
0
 62
4
 10
-5.10922944E+01
 20
-1.08673072E+02
  0
VERTEX
  8
0
 62
4
 10
-5.11280495E+01
 20
-1.08919213E+02
  0
VERTEX
  8
0
 62
4
 10
-5.11399981E+01
 20
-1.09167241E+02
  0
VERTEX
  8
0
 62
4
 10
-5.11280495E+01
 20
-1.09415269E+02
  0
VERTEX
  8
0
 62
4
 10
-5.10922944E+01
 20
-1.09661410E+02
  0
VERTEX
  8
0
 62
4
 10
-5.10330052E+01
 20
-1.09903790E+02
  0
VERTEX
  8
0
 62
4
 10
-5.09506329E+01
 20
-1.10140564E+02
  0
VERTEX
  8
0
 62
4
 10
-5.08458045E+01
 20
-1.10369931E+02
  0
VERTEX
  8
0
 62
4
 10
-5.07193179E+01
 20
-1.10590144E+02
  0
VERTEX
  8
0
 62
4
 10
-5.05721355E+01
 20
-1.10799529E+02
  0
VERTEX
  8
0
 62
4
 10
-5.04053776E+01
 20
-1.10996490E+02
  0
VERTEX
  8
0
 62
4
 10
-5.02203134E+01
 20
-1.11179530E+02
  0
VERTEX
  8
0
 62
4
 10
-5.00183512E+01
 20
-1.11347255E+02
  0
VERTEX
  8
0
 62
4
 10
-4.98010281E+01
 20
-1.11498389E+02
  0
VERTEX
  8
0
 62
4
 10
-4.95699981E+01
 20
-1.11631782E+02
  0
VERTEX
  8
0
 62
4
 10
-4.93270194E+01
 20
-1.11746418E+02
  0
VERTEX
  8
0
 62
4
 10
-4.90739413E+01
 20
-1.11841424E+02
  0
VERTEX
  8
0
 62
4
 10
-4.88126899E+01
 20
-1.11916079E+02
  0
VERTEX
  8
0
 62
4
 10
-4.85452534E+01
 20
-1.11969813E+02
  0
VERTEX
  8
0
 62
4
 10
-4.82736671E+01
 20
-1.12002218E+02
  0
VERTEX
  8
0
 62
4
 10
-4.79999981E+01
 20
-1.12013047E+02
  0
VERTEX
  8
0
 62
4
 10
-4.77263291E+01
 20
-1.12002218E+02
  0
VERTEX
  8
0
 62
4
 10
-4.74547428E+01
 20
-1.11969813E+02
  0
VERTEX
  8
0
 62
4
 10
-4.71873063E+01
 20
-1.11916079E+02
  0
VERTEX
  8
0
 62
4
 10
-4.69260548E+01
 20
-1.11841424E+02
  0
VERTEX
  8
0
 62
4
 10
-4.66729768E+01
 20
-1.11746418E+02
  0
VERTEX
  8
0
 62
4
 10
-4.64299981E+01
 20
-1.11631782E+02
  0
VERTEX
  8
0
 62
4
 10
-4.61989681E+01
 20
-1.11498389E+02
  0
VERTEX
  8
0
 62
4
 10
-4.59816450E+01
 20
-1.11347255E+02
  0
VERTEX
  8
0
 62
4
 10
-4.57796828E+01
 20
-1.11179530E+02
  0
VERTEX
  8
0
 62
4
 10
-4.55946185E+01
 20
-1.10996490E+02
  0
VERTEX
  8
0
 62
4
 10
-4.54278607E+01
 20
-1.10799529E+02
  0
VERTEX
  8
0
 62
4
 10
-4.52806783E+01
 20
-1.10590144E+02
  0
VERTEX
  8
0
 62
4
 10
-4.51541916E+01
 20
-1.10369931E+02
  0
VERTEX
  8
0
 62
4
 10
-4.50493633E+01
 20
-1.10140564E+02
  0
VERTEX
  8
0
 62
4
 10
-4.49669910E+01
 20
-1.09903790E+02
  0
VERTEX
  8
0
 62
4
 10
-4.49077018E+01
 20
-1.09661410E+02
  0
VERTEX
  8
0
 62
4
 10
-4.48719467E+01
 20
-1.09415269E+02
  0
VERTEX
  8
0
 62
4
 10
-4.48599981E+01
 20
-1.09167241E+02
  0
SEQEND
  8
0
  0
POLYLINE
  8
0
 62
4
 66
1
  0
VERTEX
  8
0
 62
4
 10
-5.01049560E+01
 20
-1.07055572E+02
  0
VERTEX
  8
0
 62
4
 10
-5.03414996E+01
 20
-1.07232173E+02
  0
VERTEX
  8
0
 62
4
 10
-5.05600906E+01
 20
-1.07426851E+02
  0
VERTEX
  8
0
 62
4
 10
-5.07590531E+01
 20
-1.07638113E+02
  0
VERTEX
  8
0
 62
4
 10
-5.09368615E+01
 20
-1.07864339E+02
  0
VERTEX
  8
0
 62
4
 10
-5.10921525E+01
 20
-1.08103795E+02
  0
VERTEX
  8
0
 62
4
 10
-5.12237356E+01
 20
-1.08354644E+02
  0
VERTEX
  8
0
 62
4
 10
-5.13306019E+01
 20
-1.08614964E+02
  0
VERTEX
  8
0
 62
4
 10
-5.14119320E+01
 20
-1.08882759E+02
  0
VERTEX
  8
0
 62
4
 10
-5.14671023E+01
 20
-1.09155976E+02
  0
VERTEX
  8
0
 62
4
 10
-5.14956899E+01
 20
-1.09432519E+02
  0
VERTEX
  8
0
 62
4
 10
-5.14974756E+01
 20
-1.09710268E+02
  0
VERTEX
  8
0
 62
4
 10
-5.14724456E+01
 20
-1.09987094E+02
  0
VERTEX
  8
0
 62
4
 10
-5.14207920E+01
 20
-1.10260875E+02
  0
VERTEX
  8
0
 62
4
 10
-5.13429106E+01
 20
-1.10529510E+02
  0
VERTEX
  8
0
 62
4
 10
-5.12393987E+01
 20
-1.10790941E+02
  0
VERTEX
  8
0
 62
4
 10
-5.11110498E+01
 20
-1.11043164E+02
  0
VERTEX
  8
0
 62
4
 10
-5.09588482E+01
 20
-1.11284243E+02
  0
VERTEX
  8
0
 62
4
 10
-5.07839606E+01
 20
-1.11512332E+02
  0
VERTEX
  8
0
 62
4
 10
-5.05877280E+01
 20
-1.11725681E+02
  0
VERTEX
  8
0
 62
4
 10
-5.03716549E+01
 20
-1.11922654E+02
  0
VERTEX
  8
0
 62
4
 10
-5.01373981E+01
 20
-1.12101741E+02
  0
VERTEX
  8
0
 62
4
 10
-4.98867535E+01
 20
-1.12261569E+02
  0
VERTEX
  8
0
 62
4
 10
-4.96216429E+01
 20
-1.12400913E+02
  0
VERTEX
  8
0
 62
4
 10
-4.93440989E+01
 20
-1.12518704E+02
  0
VERTEX
  8
0
 62
4
 10
-4.90562496E+01
 20
-1.12614040E+02
  0
VERTEX
  8
0
 62
4
 10
-4.87603018E+01
 20
-1.12686188E+02
  0
VERTEX
  8
0
 62
4
 10
-4.84585246E+01
 20
-1.12734597E+02
  0
VERTEX
  8
0
 62
4
 10
-4.81532319E+01
 20
-1.12758894E+02
  0
VERTEX
  8
0
 62
4
 10
-4.78467643E+01
 20
-1.12758894E+02
  0
VERTEX
  8
0
 62
4
 10
-4.75414716E+01
 20
-1.12734597E+02
  0
VERTEX
  8
0
 62
4
 10
-4.72396945E+01
 20
-1.12686188E+02
  0
VERTEX
  8
0
 62
4
 10
-4.69437467E+01
 20
-1.12614040E+02
  0
VERTEX
  8
0
 62
4
 10
-4.66558973E+01
 20
-1.12518704E+02
  0
VERTEX
  8
0
 62
4
 10
-4.63783534E+01
 20
-1.12400913E+02
  0
VERTEX
  8
0
 62
4
 10
-4.61132428E+01
 20
-1.12261569E+02
  0
VERTEX
  8
0
 62
4
 10
-4.58625982E+01
 20
-1.12101741E+02
  0
VERTEX
  8
0
 62
4
 10
-4.56283413E+01
 20
-1.11922654E+02
  0
VERTEX
  8
0
 62
4
 10
-4.54122682E+01
 20
-1.11725681E+02
  0
VERTEX
  8
0
 62
4
 10
-4.52160356E+01
 20
-1.11512332E+02
  0
VERTEX
  8
0
 62
4
 10
-4.50411481E+01
 20
-1.11284243E+02
  0
VERTEX
  8
0
 62
4
 10
-4.48889464E+01
 20
-1.11043164E+02
  0
VERTEX
  8
0
 62
4
 10
-4.47605975E+01
 20
-1.10790941E+02
  0
VERTEX
  8
0
 62
4
 10
-4.46570856E+01
 20
-1.10529510E+02
  0
VERTEX
  8
0
 62
4
 10
-4.45792043E+01
 20
-1.10260875E+02
  0
VERTEX
  8
0
 62
4
 10
-4.45275506E+01
 20
-1.09987094E+02
  0
VERTEX
  8
0
 62
4
 10
-4.45025206E+01
 20
-1.09710268E+02
  0
VERTEX
  8
0
 62
4
 10
-4.45043063E+01
 20
-1.09432519E+02
  0
VERTEX
  8
0
 62
4
 10
-4.45328939E+01
 20
-1.09155976E+02
  0
VERTEX
  8
0
 62
4
 10
-4.45880642E+01
 20
-1.08882759E+02
  0
VERTEX
  8
0
 62
4
 10
-4.46693943E+01
 20
-1.08614965E+02
  0
VERTEX
  8
0
 62
4
 10
-4.47762606E+01
 20
-1.08354644E+02
  0
VERTEX
  8
0
 62
4
 10
-4.49078437E+01
 20
-1.08103795E+02
  0
VERTEX
  8
0
 62
4
 10
-4.50631347E+01
 20
-1.07864339E+02
  0
VERTEX
  8
0
 62
4
 10
-4.52409431E+01
 20
-1.07638113E+02
  0
VERTEX
  8
0
 62
4
 10
-4.54399055E+01
 20
-1.07426851E+02
  0
VERTEX
  8
0
 62
4
 10
-4.56584965E+01
 20
-1.07232173E+02
  0
VERTEX
  8
0
 62
4
 10
-4.58950401E+01
 20
-1.07055572E+02
  0
SEQEND
  8
0
  0
LINE
  8
0
 62
4
 10
-6.09910376E+01
 20
-1.26804796E+02
 11
-3.84999981E+01
 21
-1.26804796E+02
  0
ARC
  8
0
 62
4
 10
-5.97644031E+01
 20
-1.15380859E+02
 40
1.21769740E+01
 50
2.40462101E+02
 51
2.58262147E+02
  0
ARC
  8
0
 62
4
 10
-6.82355931E+01
 20
-1.15380859E+02
 40
1.21769740E+01
 50
2.81737853E+02
 51
2.99537899E+02
  0
POLYLINE
  8
0
 62
4
 66
1
  0
VERTEX
  8
0
 62
4
 10
-6.05999981E+01
 20
-1.26052814E+02
  0
VERTEX
  8
0
 62
4
 10
-6.06129361E+01
 20
-1.25912054E+02
  0
VERTEX
  8
0
 62
4
 10
-6.06516517E+01
 20
-1.25772366E+02
  0
VERTEX
  8
0
 62
4
 10
-6.07158503E+01
 20
-1.25634812E+02
  0
VERTEX
  8
0
 62
4
 10
-6.08050432E+01
 20
-1.25500439E+02
  0
VERTEX
  8
0
 62
4
 10
-6.09185516E+01
 20
-1.25370270E+02
  0
VERTEX
  8
0
 62
4
 10
-6.10555117E+01
 20
-1.25245296E+02
  0
VERTEX
  8
0
 62
4
 10
-6.12148811E+01
 20
-1.25126468E+02
  0
VERTEX
  8
0
 62
4
 10
-6.13954470E+01
 20
-1.25014689E+02
  0
VERTEX
  8
0
 62
4
 10
-6.15958350E+01
 20
-1.24910811E+02
  0
VERTEX
  8
0
 62
4
 10
-6.18145202E+01
 20
-1.24815625E+02
  0
VERTEX
  8
0
 62
4
 10
-6.20498382E+01
 20
-1.24729854E+02
  0
VERTEX
  8
0
 62
4
 10
-6.22999981E+01
 20
-1.24654152E+02
  0
VERTEX
  8
0
 62
4
 10
-6.25630960E+01
 20
-1.24589095E+02
  0
VERTEX
  8
0
 62
4
 10
-6.28371296E+01
 20
-1.24535177E+02
  0
VERTEX
  8
0
 62
4
 10
-6.31200133E+01
 20
-1.24492809E+02
  0
VERTEX
  8
0
 62
4
 10
-6.34095943E+01
 20
-1.24462314E+02
  0
VERTEX
  8
0
 62
4
 10
-6.37036686E+01
 20
-1.24443924E+02
  0
VERTEX
  8
0
 62
4
 10
-6.39999981E+01
 20
-1.24437778E+02
  0
VERTEX
  8
0
 62
4
 10
-6.42963276E+01
 20
-1.24443924E+02
  0
VERTEX
  8
0
 62
4
 10
-6.45904019E+01
 20
-1.24462314E+02
  0
VERTEX
  8
0
 62
4
 10
-6.48799829E+01
 20
-1.24492809E+02
  0
VERTEX
  8
0
 62
4
 10
-6.51628666E+01
 20
-1.24535177E+02
  0
VERTEX
  8
0
 62
4
 10
-6.54369002E+01
 20
-1.24589095E+02
  0
VERTEX
  8
0
 62
4
 10
-6.56999981E+01
 20
-1.24654152E+02
  0
VERTEX
  8
0
 62
4
 10
-6.59501580E+01
 20
-1.24729854E+02
  0
VERTEX
  8
0
 62
4
 10
-6.61854760E+01
 20
-1.24815625E+02
  0
VERTEX
  8
0
 62
4
 10
-6.64041612E+01
 20
-1.24910811E+02
  0
VERTEX
  8
0
 62
4
 10
-6.66045492E+01
 20
-1.25014689E+02
  0
VERTEX
  8
0
 62
4
 10
-6.67851151E+01
 20
-1.25126468E+02
  0
VERTEX
  8
0
 62
4
 10
-6.69444845E+01
 20
-1.25245296E+02
  0
VERTEX
  8
0
 62
4
 10
-6.70814446E+01
 20
-1.25370270E+02
  0
VERTEX
  8
0
 62
4
 10
-6.71949530E+01
 20
-1.25500439E+02
  0
VERTEX
  8
0
 62
4
 10
-6.72841459E+01
 20
-1.25634812E+02
  0
VERTEX
  8
0
 62
4
 10
-6.73483445E+01
 20
-1.25772366E+02
  0
VERTEX
  8
0
 62
4
 10
-6.73870601E+01
 20
-1.25912054E+02
  0
VERTEX
  8
0
 62
4
 10
-6.73999981E+01
 20
-1.26052814E+02
  0
VERTEX
  8
0
 62
4
 10
-6.73870601E+01
 20
-1.26193574E+02
  0
VERTEX
  8
0
 62
4
 10
-6.73483445E+01
 20
-1.26333262E+02
  0
VERTEX
  8
0
 62
4
 10
-6.72841459E+01
 20
-1.26470816E+02
  0
VERTEX
  8
0
 62
4
 10
-6.71949530E+01
 20
-1.26605189E+02
  0
VERTEX
  8
0
 62
4
 10
-6.70814446E+01
 20
-1.26735358E+02
  0
VERTEX
  8
0
 62
4
 10
-6.69444845E+01
 20
-1.26860332E+02
  0
VERTEX
  8
0
 62
4
 10
-6.67851150E+01
 20
-1.26979160E+02
  0
VERTEX
  8
0
 62
4
 10
-6.66045492E+01
 20
-1.27090939E+02
  0
VERTEX
  8
0
 62
4
 10
-6.64041612E+01
 20
-1.27194817E+02
  0
VERTEX
  8
0
 62
4
 10
-6.61854760E+01
 20
-1.27290003E+02
  0
VERTEX
  8
0
 62
4
 10
-6.59501580E+01
 20
-1.27375774E+02
  0
VERTEX
  8
0
 62
4
 10
-6.56999981E+01
 20
-1.27451476E+02
  0
VERTEX
  8
0
 62
4
 10
-6.54369002E+01
 20
-1.27516533E+02
  0
VERTEX
  8
0
 62
4
 10
-6.51628666E+01
 20
-1.27570451E+02
  0
VERTEX
  8
0
 62
4
 10
-6.48799828E+01
 20
-1.27612819E+02
  0
VERTEX
  8
0
 62
4
 10
-6.45904019E+01
 20
-1.27643314E+02
  0
VERTEX
  8
0
 62
4
 10
-6.42963276E+01
 20
-1.27661704E+02
  0
VERTEX
  8
0
 62
4
 10
-6.39999981E+01
 20
-1.27667850E+02
  0
VERTEX
  8
0
 62
4
 10
-6.37036686E+01
 20
-1.27661704E+02
  0
VERTEX
  8
0
 62
4
 10
-6.34095943E+01
 20
-1.27643314E+02
  0
VERTEX
  8
0
 62
4
 10
-6.31200133E+01
 20
-1.27612819E+02
  0
VERTEX
  8
0
 62
4
 10
-6.28371296E+01
 20
-1.27570451E+02
  0
VERTEX
  8
0
 62
4
 10
-6.25630960E+01
 20
-1.27516533E+02
  0
VERTEX
  8
0
 62
4
 10
-6.22999981E+01
 20
-1.27451476E+02
  0
VERTEX
  8
0
 62
4
 10
-6.20498382E+01
 20
-1.27375774E+02
  0
VERTEX
  8
0
 62
4
 10
-6.18145202E+01
 20
-1.27290003E+02
  0
VERTEX
  8
0
 62
4
 10
-6.15958350E+01
 20
-1.27194817E+02
  0
VERTEX
  8
0
 62
4
 10
-6.13954470E+01
 20
-1.27090939E+02
  0
VERTEX
  8
0
 62
4
 10
-6.12148811E+01
 20
-1.26979160E+02
  0
VERTEX
  8
0
 62
4
 10
-6.10555117E+01
 20
-1.26860332E+02
  0
VERTEX
  8
0
 62
4
 10
-6.09185516E+01
 20
-1.26735358E+02
  0
VERTEX
  8
0
 62
4
 10
-6.08050432E+01
 20
-1.26605189E+02
  0
VERTEX
  8
0
 62
4
 10
-6.07158503E+01
 20
-1.26470816E+02
  0
VERTEX
  8
0
 62
4
 10
-6.06516517E+01
 20
-1.26333262E+02
  0
VERTEX
  8
0
 62
4
 10
-6.06129361E+01
 20
-1.26193574E+02
  0
VERTEX
  8
0
 62
4
 10
-6.05999981E+01
 20
-1.26052814E+02
  0
SEQEND
  8
0
  0
POLYLINE
  8
0
 62
4
 66
1
  0
VERTEX
  8
0
 62
4
 10
-6.05999981E+01
 20
-1.24088313E+02
  0
VERTEX
  8
0
 62
4
 10
-6.06136855E+01
 20
-1.23959510E+02
  0
VERTEX
  8
0
 62
4
 10
-6.06546375E+01
 20
-1.23831744E+02
  0
VERTEX
  8
0
 62
4
 10
-6.07225244E+01
 20
-1.23706044E+02
  0
VERTEX
  8
0
 62
4
 10
-6.08167995E+01
 20
-1.23583422E+02
  0
VERTEX
  8
0
 62
4
 10
-6.09367039E+01
 20
-1.23464865E+02
  0
VERTEX
  8
0
 62
4
 10
-6.10812722E+01
 20
-1.23351327E+02
  0
VERTEX
  8
0
 62
4
 10
-6.12493403E+01
 20
-1.23243723E+02
  0
VERTEX
  8
0
 62
4
 10
-6.14395551E+01
 20
-1.23142919E+02
  0
VERTEX
  8
0
 62
4
 10
-6.16503851E+01
 20
-1.23049728E+02
  0
VERTEX
  8
0
 62
4
 10
-6.18801328E+01
 20
-1.22964898E+02
  0
VERTEX
  8
0
 62
4
 10
-6.21269484E+01
 20
-1.22889113E+02
  0
VERTEX
  8
0
 62
4
 10
-6.23888446E+01
 20
-1.22822983E+02
  0
VERTEX
  8
0
 62
4
 10
-6.26637130E+01
 20
-1.22767042E+02
  0
VERTEX
  8
0
 62
4
 10
-6.29493403E+01
 20
-1.22721738E+02
  0
VERTEX
  8
0
 62
4
 10
-6.32434269E+01
 20
-1.22687437E+02
  0
VERTEX
  8
0
 62
4
 10
-6.35436050E+01
 20
-1.22664415E+02
  0
VERTEX
  8
0
 62
4
 10
-6.38474577E+01
 20
-1.22652858E+02
  0
VERTEX
  8
0
 62
4
 10
-6.41525385E+01
 20
-1.22652858E+02
  0
VERTEX
  8
0
 62
4
 10
-6.44563912E+01
 20
-1.22664415E+02
  0
VERTEX
  8
0
 62
4
 10
-6.47565693E+01
 20
-1.22687437E+02
  0
VERTEX
  8
0
 62
4
 10
-6.50506559E+01
 20
-1.22721738E+02
  0
VERTEX
  8
0
 62
4
 10
-6.53362832E+01
 20
-1.22767042E+02
  0
VERTEX
  8
0
 62
4
 10
-6.56111515E+01
 20
-1.22822983E+02
  0
VERTEX
  8
0
 62
4
 10
-6.58730478E+01
 20
-1.22889113E+02
  0
VERTEX
  8
0
 62
4
 10
-6.61198634E+01
 20
-1.22964898E+02
  0
VERTEX
  8
0
 62
4
 10
-6.63496111E+01
 20
-1.23049728E+02
  0
VERTEX
  8
0
 62
4
 10
-6.65604411E+01
 20
-1.23142919E+02
  0
VERTEX
  8
0
 62
4
 10
-6.67506559E+01
 20
-1.23243723E+02
  0
VERTEX
  8
0
 62
4
 10
-6.69187240E+01
 20
-1.23351327E+02
  0
VERTEX
  8
0
 62
4
 10
-6.70632922E+01
 20
-1.23464865E+02
  0
VERTEX
  8
0
 62
4
 10
-6.71831967E+01
 20
-1.23583422E+02
  0
VERTEX
  8
0
 62
4
 10
-6.72774718E+01
 20
-1.23706044E+02
  0
VERTEX
  8
0
 62
4
 10
-6.73453587E+01
 20
-1.23831744E+02
  0
VERTEX
  8
0
 62
4
 10
-6.73863107E+01
 20
-1.23959510E+02
  0
VERTEX
  8
0
 62
4
 10
-6.73999981E+01
 20
-1.24088313E+02
  0
SEQEND
  8
0
  0
LINE
  8
0
 62
4
 10
-6.73999981E+01
 20
-1.24088313E+02
 11
-6.73999981E+01
 21
-1.26052814E+02
  0
LINE
  8
0
 62
4
 10
-6.05999981E+01
 20
-1.24088313E+02
 11
-6.05999981E+01
 21
-1.26052814E+02
  0
LINE
  8
0
 62
4
 10
-6.79999981E+01
 20
-1.23635159E+02
 11
-6.79999981E+01
 21
-1.24088313E+02
  0
LINE
  8
0
 62
4
 10
-5.99999981E+01
 20
-1.23635159E+02
 11
-5.99999981E+01
 21
-1.24088313E+02
  0
POLYLINE
  8
0
 62
4
 66
1
  0
VERTEX
  8
0
 62
4
 10
-5.99999981E+01
 20
-1.23635159E+02
  0
VERTEX
  8
0
 62
4
 10
-6.00161009E+01
 20
-1.23483626E+02
  0
VERTEX
  8
0
 62
4
 10
-6.00642797E+01
 20
-1.23333313E+02
  0
VERTEX
  8
0
 62
4
 10
-6.01441467E+01
 20
-1.23185431E+02
  0
VERTEX
  8
0
 62
4
 10
-6.02550586E+01
 20
-1.23041169E+02
  0
VERTEX
  8
0
 62
4
 10
-6.03961226E+01
 20
-1.22901690E+02
  0
VERTEX
  8
0
 62
4
 10
-6.05662029E+01
 20
-1.22768117E+02
  0
VERTEX
  8
0
 62
4
 10
-6.07639301E+01
 20
-1.22641524E+02
  0
VERTEX
  8
0
 62
4
 10
-6.09877122E+01
 20
-1.22522931E+02
  0
VERTEX
  8
0
 62
4
 10
-6.12357475E+01
 20
-1.22413294E+02
  0
VERTEX
  8
0
 62
4
 10
-6.15060389E+01
 20
-1.22313494E+02
  0
VERTEX
  8
0
 62
4
 10
-6.17964102E+01
 20
-1.22224335E+02
  0
VERTEX
  8
0
 62
4
 10
-6.21045234E+01
 20
-1.22146536E+02
  0
VERTEX
  8
0
 62
4
 10
-6.24278980E+01
 20
-1.22080722E+02
  0
VERTEX
  8
0
 62
4
 10
-6.27639301E+01
 20
-1.22027424E+02
  0
VERTEX
  8
0
 62
4
 10
-6.31099144E+01
 20
-1.21987070E+02
  0
VERTEX
  8
0
 62
4
 10
-6.34630650E+01
 20
-1.21959985E+02
  0
VERTEX
  8
0
 62
4
 10
-6.38205388E+01
 20
-1.21946388E+02
  0
VERTEX
  8
0
 62
4
 10
-6.41794574E+01
 20
-1.21946388E+02
  0
VERTEX
  8
0
 62
4
 10
-6.45369312E+01
 20
-1.21959985E+02
  0
VERTEX
  8
0
 62
4
 10
-6.48900818E+01
 20
-1.21987070E+02
  0
VERTEX
  8
0
 62
4
 10
-6.52360661E+01
 20
-1.22027424E+02
  0
VERTEX
  8
0
 62
4
 10
-6.55720982E+01
 20
-1.22080722E+02
  0
VERTEX
  8
0
 62
4
 10
-6.58954727E+01
 20
-1.22146536E+02
  0
VERTEX
  8
0
 62
4
 10
-6.62035860E+01
 20
-1.22224335E+02
  0
VERTEX
  8
0
 62
4
 10
-6.64939573E+01
 20
-1.22313494E+02
  0
VERTEX
  8
0
 62
4
 10
-6.67642487E+01
 20
-1.22413294E+02
  0
VERTEX
  8
0
 62
4
 10
-6.70122840E+01
 20
-1.22522931E+02
  0
VERTEX
  8
0
 62
4
 10
-6.72360661E+01
 20
-1.22641524E+02
  0
VERTEX
  8
0
 62
4
 10
-6.74337933E+01
 20
-1.22768117E+02
  0
VERTEX
  8
0
 62
4
 10
-6.76038736E+01
 20
-1.22901690E+02
  0
VERTEX
  8
0
 62
4
 10
-6.77449376E+01
 20
-1.23041169E+02
  0
VERTEX
  8
0
 62
4
 10
-6.78558495E+01
 20
-1.23185431E+02
  0
VERTEX
  8
0
 62
4
 10
-6.79357165E+01
 20
-1.23333313E+02
  0
VERTEX
  8
0
 62
4
 10
-6.79838953E+01
 20
-1.23483626E+02
  0
VERTEX
  8
0
 62
4
 10
-6.79999981E+01
 20
-1.23635159E+02
  0
SEQEND
  8
0
  0
POLYLINE
  8
0
 62
4
 66
1
  0
VERTEX
  8
0
 62
4
 10
-6.05999981E+01
 20
-1.24978825E+02
  0
VERTEX
  8
0
 62
4
 10
-6.04269461E+01
 20
-1.24848239E+02
  0
VERTEX
  8
0
 62
4
 10
-6.02819031E+01
 20
-1.24711696E+02
  0
VERTEX
  8
0
 62
4
 10
-6.01660063E+01
 20
-1.24570266E+02
  0
VERTEX
  8
0
 62
4
 10
-6.00801640E+01
 20
-1.24425058E+02
  0
VERTEX
  8
0
 62
4
 10
-6.00250492E+01
 20
-1.24277210E+02
  0
VERTEX
  8
0
 62
4
 10
-6.00010940E+01
 20
-1.24127882E+02
  0
VERTEX
  8
0
 62
4
 10
-6.00084862E+01
 20
-1.23978243E+02
  0
VERTEX
  8
0
 62
4
 10
-6.00471677E+01
 20
-1.23829468E+02
  0
VERTEX
  8
0
 62
4
 10
-6.01168354E+01
 20
-1.23682721E+02
  0
VERTEX
  8
0
 62
4
 10
-6.02169431E+01
 20
-1.23539154E+02
  0
VERTEX
  8
0
 62
4
 10
-6.03467062E+01
 20
-1.23399892E+02
  0
VERTEX
  8
0
 62
4
 10
-6.05051073E+01
 20
-1.23266026E+02
  0
VERTEX
  8
0
 62
4
 10
-6.06909048E+01
 20
-1.23138606E+02
  0
VERTEX
  8
0
 62
4
 10
-6.09026423E+01
 20
-1.23018631E+02
  0
VERTEX
  8
0
 62
4
 10
-6.11386599E+01
 20
-1.22907041E+02
  0
VERTEX
  8
0
 62
4
 10
-6.13971074E+01
 20
-1.22804711E+02
  0
VERTEX
  8
0
 62
4
 10
-6.16759590E+01
 20
-1.22712443E+02
  0
VERTEX
  8
0
 62
4
 10
-6.19730286E+01
 20
-1.22630960E+02
  0
VERTEX
  8
0
 62
4
 10
-6.22859877E+01
 20
-1.22560902E+02
  0
VERTEX
  8
0
 62
4
 10
-6.26123828E+01
 20
-1.22502817E+02
  0
VERTEX
  8
0
 62
4
 10
-6.29496555E+01
 20
-1.22457161E+02
  0
VERTEX
  8
0
 62
4
 10
-6.32951617E+01
 20
-1.22424291E+02
  0
VERTEX
  8
0
 62
4
 10
-6.36461932E+01
 20
-1.22404466E+02
  0
VERTEX
  8
0
 62
4
 10
-6.39999981E+01
 20
-1.22397840E+02
  0
VERTEX
  8
0
 62
4
 10
-6.43538030E+01
 20
-1.22404466E+02
  0
VERTEX
  8
0
 62
4
 10
-6.47048345E+01
 20
-1.22424291E+02
  0
VERTEX
  8
0
 62
4
 10
-6.50503407E+01
 20
-1.22457161E+02
  0
VERTEX
  8
0
 62
4
 10
-6.53876133E+01
 20
-1.22502817E+02
  0
VERTEX
  8
0
 62
4
 10
-6.57140085E+01
 20
-1.22560902E+02
  0
VERTEX
  8
0
 62
4
 10
-6.60269675E+01
 20
-1.22630960E+02
  0
VERTEX
  8
0
 62
4
 10
-6.63240372E+01
 20
-1.22712443E+02
  0
VERTEX
  8
0
 62
4
 10
-6.66028888E+01
 20
-1.22804711E+02
  0
VERTEX
  8
0
 62
4
 10
-6.68613363E+01
 20
-1.22907041E+02
  0
VERTEX
  8
0
 62
4
 10
-6.70973539E+01
 20
-1.23018631E+02
  0
VERTEX
  8
0
 62
4
 10
-6.73090913E+01
 20
-1.23138606E+02
  0
VERTEX
  8
0
 62
4
 10
-6.74948889E+01
 20
-1.23266026E+02
  0
VERTEX
  8
0
 62
4
 10
-6.76532900E+01
 20
-1.23399892E+02
  0
VERTEX
  8
0
 62
4
 10
-6.77830531E+01
 20
-1.23539154E+02
  0
VERTEX
  8
0
 62
4
 10
-6.78831608E+01
 20
-1.23682721E+02
  0
VERTEX
  8
0
 62
4
 10
-6.79528285E+01
 20
-1.23829468E+02
  0
VERTEX
  8
0
 62
4
 10
-6.79915100E+01
 20
-1.23978243E+02
  0
VERTEX
  8
0
 62
4
 10
-6.79989022E+01
 20
-1.24127882E+02
  0
VERTEX
  8
0
 62
4
 10
-6.79749470E+01
 20
-1.24277210E+02
  0
VERTEX
  8
0
 62
4
 10
-6.79198322E+01
 20
-1.24425058E+02
  0
VERTEX
  8
0
 62
4
 10
-6.78339899E+01
 20
-1.24570266E+02
  0
VERTEX
  8
0
 62
4
 10
-6.77180931E+01
 20
-1.24711696E+02
  0
VERTEX
  8
0
 62
4
 10
-6.75730501E+01
 20
-1.24848239E+02
  0
VERTEX
  8
0
 62
4
 10
-6.73999981E+01
 20
-1.24978825E+02
  0
SEQEND
  8
0
  0
LINE
  8
0
  6
CENTER
 62
6
 10
-4.79999981E+01
 20
-1.03558224E+02
 11
-4.79999981E+01
 21
-1.14776257E+02
  0
LINE
  8
0
  6
CENTER
 62
6
 10
-5.36090149E+01
 20
-1.09167241E+02
 11
-4.23909813E+01
 21
-1.09167241E+02
  0
POLYLINE
  8
0
 62
4
 66
1
  0
VERTEX
  8
0
 62
4
 10
-6.09999981E+01
 20
-9.73338988E+01
  0
VERTEX
  8
0
 62
4
 10
-6.10114140E+01
 20
-9.70969290E+01
  0
VERTEX
  8
0
 62
4
 10
-6.10455748E+01
 20
-9.68617627E+01
  0
VERTEX
  8
0
 62
4
 10
-6.11022206E+01
 20
-9.66301897E+01
  0
VERTEX
  8
0
 62
4
 10
-6.11809202E+01
 20
-9.64039722E+01
  0
VERTEX
  8
0
 62
4
 10
-6.12810747E+01
 20
-9.61848321E+01
  0
VERTEX
  8
0
 62
4
 10
-6.14019219E+01
 20
-9.59744371E+01
  0
VERTEX
  8
0
 62
4
 10
-6.15425420E+01
 20
-9.57743884E+01
  0
VERTEX
  8
0
 62
4
 10
-6.17018648E+01
 20
-9.55862086E+01
  0
VERTEX
  8
0
 62
4
 10
-6.18786778E+01
 20
-9.54113297E+01
  0
VERTEX
  8
0
 62
4
 10
-6.20716353E+01
 20
-9.52510827E+01
  0
VERTEX
  8
0
 62
4
 10
-6.22792688E+01
 20
-9.51066872E+01
  0
VERTEX
  8
0
 62
4
 10
-6.24999981E+01
 20
-9.49792421E+01
  0
VERTEX
  8
0
 62
4
 10
-6.27321433E+01
 20
-9.48697174E+01
  0
VERTEX
  8
0
 62
4
 10
-6.29739377E+01
 20
-9.47789466E+01
  0
VERTEX
  8
0
 62
4
 10
-6.32235410E+01
 20
-9.47076205E+01
  0
VERTEX
  8
0
 62
4
 10
-6.34790536E+01
 20
-9.46562820E+01
  0
VERTEX
  8
0
 62
4
 10
-6.37385309E+01
 20
-9.46253218E+01
  0
VERTEX
  8
0
 62
4
 10
-6.39999981E+01
 20
-9.46149754E+01
  0
VERTEX
  8
0
 62
4
 10
-6.42614653E+01
 20
-9.46253218E+01
  0
VERTEX
  8
0
 62
4
 10
-6.45209426E+01
 20
-9.46562820E+01
  0
VERTEX
  8
0
 62
4
 10
-6.47764552E+01
 20
-9.47076205E+01
  0
VERTEX
  8
0
 62
4
 10
-6.50260585E+01
 20
-9.47789466E+01
  0
VERTEX
  8
0
 62
4
 10
-6.52678529E+01
 20
-9.48697174E+01
  0
VERTEX
  8
0
 62
4
 10
-6.54999981E+01
 20
-9.49792421E+01
  0
VERTEX
  8
0
 62
4
 10
-6.57207274E+01
 20
-9.51066872E+01
  0
VERTEX
  8
0
 62
4
 10
-6.59283609E+01
 20
-9.52510827E+01
  0
VERTEX
  8
0
 62
4
 10
-6.61213184E+01
 20
-9.54113297E+01
  0
VERTEX
  8
0
 62
4
 10
-6.62981314E+01
 20
-9.55862086E+01
  0
VERTEX
  8
0
 62
4
 10
-6.64574542E+01
 20
-9.57743884E+01
  0
VERTEX
  8
0
 62
4
 10
-6.65980743E+01
 20
-9.59744371E+01
  0
VERTEX
  8
0
 62
4
 10
-6.67189215E+01
 20
-9.61848321E+01
  0
VERTEX
  8
0
 62
4
 10
-6.68190760E+01
 20
-9.64039722E+01
  0
VERTEX
  8
0
 62
4
 10
-6.68977756E+01
 20
-9.66301897E+01
  0
VERTEX
  8
0
 62
4
 10
-6.69544214E+01
 20
-9.68617627E+01
  0
VERTEX
  8
0
 62
4
 10
-6.69885822E+01
 20
-9.70969290E+01
  0
VERTEX
  8
0
 62
4
 10
-6.69999981E+01
 20
-9.73338988E+01
  0
VERTEX
  8
0
 62
4
 10
-6.69885822E+01
 20
-9.75708686E+01
  0
VERTEX
  8
0
 62
4
 10
-6.69544214E+01
 20
-9.78060349E+01
  0
VERTEX
  8
0
 62
4
 10
-6.68977756E+01
 20
-9.80376080E+01
  0
VERTEX
  8
0
 62
4
 10
-6.68190760E+01
 20
-9.82638254E+01
  0
VERTEX
  8
0
 62
4
 10
-6.67189215E+01
 20
-9.84829655E+01
  0
VERTEX
  8
0
 62
4
 10
-6.65980743E+01
 20
-9.86933605E+01
  0
VERTEX
  8
0
 62
4
 10
-6.64574542E+01
 20
-9.88934092E+01
  0
VERTEX
  8
0
 62
4
 10
-6.62981314E+01
 20
-9.90815891E+01
  0
VERTEX
  8
0
 62
4
 10
-6.61213184E+01
 20
-9.92564679E+01
  0
VERTEX
  8
0
 62
4
 10
-6.59283609E+01
 20
-9.94167149E+01
  0
VERTEX
  8
0
 62
4
 10
-6.57207274E+01
 20
-9.95611104E+01
  0
VERTEX
  8
0
 62
4
 10
-6.54999981E+01
 20
-9.96885555E+01
  0
VERTEX
  8
0
 62
4
 10
-6.52678529E+01
 20
-9.97980802E+01
  0
VERTEX
  8
0
 62
4
 10
-6.50260585E+01
 20
-9.98888510E+01
  0
VERTEX
  8
0
 62
4
 10
-6.47764552E+01
 20
-9.99601771E+01
  0
VERTEX
  8
0
 62
4
 10
-6.45209426E+01
 20
-1.00011516E+02
  0
VERTEX
  8
0
 62
4
 10
-6.42614653E+01
 20
-1.00042476E+02
  0
VERTEX
  8
0
 62
4
 10
-6.39999981E+01
 20
-1.00052822E+02
  0
VERTEX
  8
0
 62
4
 10
-6.37385309E+01
 20
-1.00042476E+02
  0
VERTEX
  8
0
 62
4
 10
-6.34790536E+01
 20
-1.00011516E+02
  0
VERTEX
  8
0
 62
4
 10
-6.32235410E+01
 20
-9.99601771E+01
  0
VERTEX
  8
0
 62
4
 10
-6.29739377E+01
 20
-9.98888510E+01
  0
VERTEX
  8
0
 62
4
 10
-6.27321433E+01
 20
-9.97980802E+01
  0
VERTEX
  8
0
 62
4
 10
-6.24999981E+01
 20
-9.96885555E+01
  0
VERTEX
  8
0
 62
4
 10
-6.22792688E+01
 20
-9.95611104E+01
  0
VERTEX
  8
0
 62
4
 10
-6.20716353E+01
 20
-9.94167149E+01
  0
VERTEX
  8
0
 62
4
 10
-6.18786778E+01
 20
-9.92564679E+01
  0
VERTEX
  8
0
 62
4
 10
-6.17018648E+01
 20
-9.90815890E+01
  0
VERTEX
  8
0
 62
4
 10
-6.15425420E+01
 20
-9.88934092E+01
  0
VERTEX
  8
0
 62
4
 10
-6.14019219E+01
 20
-9.86933605E+01
  0
VERTEX
  8
0
 62
4
 10
-6.12810747E+01
 20
-9.84829655E+01
  0
VERTEX
  8
0
 62
4
 10
-6.11809202E+01
 20
-9.82638254E+01
  0
VERTEX
  8
0
 62
4
 10
-6.11022206E+01
 20
-9.80376079E+01
  0
VERTEX
  8
0
 62
4
 10
-6.10455748E+01
 20
-9.78060349E+01
  0
VERTEX
  8
0
 62
4
 10
-6.10114140E+01
 20
-9.75708686E+01
  0
VERTEX
  8
0
 62
4
 10
-6.09999981E+01
 20
-9.73338988E+01
  0
SEQEND
  8
0
  0
LINE
  8
0
  6
CENTER
 62
6
 10
-6.95010056E+01
 20
-9.73338988E+01
 11
-5.84989906E+01
 21
-9.73338988E+01
  0
LINE
  8
0
 62
4
 10
-9.09999981E+01
 20
-1.07349654E+02
 11
-8.59999981E+01
 21
-1.07349654E+02
  0
LINE
  8
0
 62
4
 10
-9.09999981E+01
 20
-1.04175790E+02
 11
-8.59999981E+01
 21
-1.04175790E+02
  0
LINE
  8
0
 62
4
 10
-9.09999981E+01
 20
-9.66999714E+01
 11
-8.59999981E+01
 21
-9.66999714E+01
  0
LINE
  8
0
 62
4
 10
-7.44999981E+01
 20
-1.20465522E+02
 11
-3.84999981E+01
 21
-1.20465522E+02
  0
LINE
  8
0
 62
4
 10
-5.44999981E+01
 20
-9.95364540E+01
 11
-3.84999981E+01
 21
-9.95364540E+01
  0
ARC
  8
0
 62
4
 10
-7.44999976E+01
 20
-1.25304795E+02
 40
1.50000046E+00
 50
1.80000018E+02
 51
2.69999983E+02
  0
ARC
  8
0
 62
4
 10
-8.04999986E+01
 20
-9.33696102E+01
 40
4.99999542E-01
 50
8.99999475E+01
 51
1.80000053E+02
  0
ARC
  8
0
 62
4
 10
-8.04999938E+01
 20
-1.06369606E+02
 40
5.00004272E-01
 50
1.80000490E+02
 51
2.69999511E+02
  0
ARC
  8
0
 62
4
 10
-3.84999947E+01
 20
-1.25304799E+02
 40
1.49999664E+00
 50
2.69999872E+02
 51
1.28225561E-04
  0
ARC
  8
0
 62
4
 10
-3.85000014E+01
 20
-1.01036457E+02
 40
1.50000336E+00
 50
1.28225275E-04
 51
8.99998718E+01
  0
LINE
  8
0
 62
4
 10
-5.44999981E+01
 20
-9.92894313E+01
 11
-5.64999981E+01
 21
-9.92894313E+01
  0
LINE
  8
0
 62
4
 10
-7.44999981E+01
 20
-1.26804796E+02
 11
-6.70089586E+01
 21
-1.26804796E+02
  0
LINE
  8
0
 62
4
 10
-7.34999981E+01
 20
-1.16509279E+02
 11
-5.44999981E+01
 21
-1.16509279E+02
  0
LINE
  8
0
 62
4
 10
-7.59999981E+01
 20
-1.06869611E+02
 11
-7.59999981E+01
 21
-1.25304796E+02
  0
LINE
  8
0
 62
4
 10
-5.44999981E+01
 20
-9.92894313E+01
 11
-5.44999981E+01
 21
-1.18199738E+02
  0
LINE
  8
0
 62
4
 10
-7.34999981E+01
 20
-1.06869611E+02
 11
-7.34999981E+01
 21
-1.18199738E+02
  0
LINE
  8
0
 62
4
 10
-3.69999981E+01
 20
-1.01036454E+02
 11
-3.69999981E+01
 21
-1.25304796E+02
  0
LINE
  8
0
 62
4
 10
-9.09999981E+01
 20
-9.23937892E+01
 11
-8.59999981E+01
 21
-9.23937892E+01
  0
LINE
  8
0
 62
4
 10
-7.14999981E+01
 20
-1.14696664E+02
 11
-5.64999981E+01
 21
-1.14696664E+02
  0
LINE
  8
0
 62
4
 10
-7.14999981E+01
 20
-1.04131207E+02
 11
-5.64999981E+01
 21
-1.04131207E+02
  0
LINE
  8
0
 62
4
 10
-8.44999981E+01
 20
-1.05619611E+02
 11
-8.09999981E+01
 21
-1.05619611E+02
  0
LINE
  8
0
 62
4
 10
-8.44999981E+01
 20
-9.41196107E+01
 11
-8.09999981E+01
 21
-9.41196107E+01
  0
LINE
  8
0
 62
4
 10
-8.44999981E+01
 20
-9.36196107E+01
 11
-8.44999981E+01
 21
-1.06119611E+02
  0
LINE
  8
0
 62
4
 10
-8.59999981E+01
 20
-1.06119611E+02
 11
-8.09999981E+01
 21
-1.06119611E+02
  0
LINE
  8
0
 62
4
 10
-8.59999981E+01
 20
-9.36196107E+01
 11
-8.09999981E+01
 21
-9.36196107E+01
  0
LINE
  8
0
 62
4
 10
-8.59999981E+01
 20
-9.23937892E+01
 11
-8.59999981E+01
 21
-1.07349654E+02
  0
LINE
  8
0
 62
4
 10
-9.09999981E+01
 20
-9.23937892E+01
 11
-9.09999981E+01
 21
-1.07349654E+02
  0
LINE
  8
0
 62
4
 10
-8.09999981E+01
 20
-9.33696107E+01
 11
-8.09999981E+01
 21
-1.06369611E+02
  0
LINE
  8
0
 62
4
 10
-7.14999981E+01
 20
-9.28696107E+01
 11
-8.04999981E+01
 21
-9.28696107E+01
  0
LINE
  8
0
 62
4
 10
-8.04999981E+01
 20
-1.06869611E+02
 11
-7.14999981E+01
 21
-1.06869611E+02
  0
LINE
  8
0
  6
CENTER
 62
6
 10
-6.39999981E+01
 20
-8.49318751E+01
 11
-6.39999981E+01
 21
-1.37499969E+02
  0
LINE
  8
0
  6
CENTER
 62
6
 10
-6.79999981E+01
 20
-8.43199695E+01
 11
-6.79999981E+01
 21
-9.48199695E+01
  0
LINE
  8
0
 62
4
 10
-5.64999981E+01
 20
-8.70196596E+01
 11
-7.14999981E+01
 21
-8.70196596E+01
  0
LINE
  8
0
 62
4
 10
-5.64999981E+01
 20
-9.05365904E+01
 11
-7.14999981E+01
 21
-9.05365904E+01
  0
LINE
  8
0
 62
4
 10
-5.64999981E+01
 20
-8.70196596E+01
 11
-5.64999981E+01
 21
-1.14696664E+02
  0
LINE
  8
0
 62
4
 10
-7.14999981E+01
 20
-8.70196596E+01
 11
-7.14999981E+01
 21
-1.14696664E+02
  0
LINE
  8
0
  6
CENTER
 62
6
 10
-5.99999981E+01
 20
-8.43199695E+01
 11
-5.99999981E+01
 21
-9.48199695E+01
  0
LINE
  8
0
 62
4
 10
3.23140063E+02
 20
-2.81647006E+02
 11
3.23431909E+02
 21
-2.82262831E+02
  0
LINE
  8
0
 62
4
 10
3.16860063E+02
 20
-2.81647006E+02
 11
3.16568217E+02
 21
-2.82262831E+02
  0
POLYLINE
  8
0
 62
4
 66
1
  0
VERTEX
  8
0
 62
4
 10
3.16568217E+02
 20
-2.82262831E+02
  0
VERTEX
  8
0
 62
4
 10
3.16520927E+02
 20
-2.82392044E+02
  0
VERTEX
  8
0
 62
4
 10
3.16500822E+02
 20
-2.82522517E+02
  0
VERTEX
  8
0
 62
4
 10
3.16508058E+02
 20
-2.82653231E+02
  0
VERTEX
  8
0
 62
4
 10
3.16542578E+02
 20
-2.82783165E+02
  0
VERTEX
  8
0
 62
4
 10
3.16604115E+02
 20
-2.82911302E+02
  0
VERTEX
  8
0
 62
4
 10
3.16692185E+02
 20
-2.83036642E+02
  0
VERTEX
  8
0
 62
4
 10
3.16806102E+02
 20
-2.83158206E+02
  0
VERTEX
  8
0
 62
4
 10
3.16944976E+02
 20
-2.83275043E+02
  0
VERTEX
  8
0
 62
4
 10
3.17107720E+02
 20
-2.83386241E+02
  0
VERTEX
  8
0
 62
4
 10
3.17293064E+02
 20
-2.83490931E+02
  0
VERTEX
  8
0
 62
4
 10
3.17499559E+02
 20
-2.83588295E+02
  0
VERTEX
  8
0
 62
4
 10
3.17725592E+02
 20
-2.83677571E+02
  0
VERTEX
  8
0
 62
4
 10
3.17969397E+02
 20
-2.83758064E+02
  0
VERTEX
  8
0
 62
4
 10
3.18229068E+02
 20
-2.83829143E+02
  0
VERTEX
  8
0
 62
4
 10
3.18502578E+02
 20
-2.83890253E+02
  0
VERTEX
  8
0
 62
4
 10
3.18787788E+02
 20
-2.83940917E+02
  0
VERTEX
  8
0
 62
4
 10
3.19082470E+02
 20
-2.83980739E+02
  0
VERTEX
  8
0
 62
4
 10
3.19384322E+02
 20
-2.84009407E+02
  0
VERTEX
  8
0
 62
4
 10
3.19690985E+02
 20
-2.84026698E+02
  0
VERTEX
  8
0
 62
4
 10
3.20000063E+02
 20
-2.84032477E+02
  0
VERTEX
  8
0
 62
4
 10
3.20309141E+02
 20
-2.84026698E+02
  0
VERTEX
  8
0
 62
4
 10
3.20615804E+02
 20
-2.84009407E+02
  0
VERTEX
  8
0
 62
4
 10
3.20917656E+02
 20
-2.83980739E+02
  0
VERTEX
  8
0
 62
4
 10
3.21212338E+02
 20
-2.83940917E+02
  0
VERTEX
  8
0
 62
4
 10
3.21497548E+02
 20
-2.83890253E+02
  0
VERTEX
  8
0
 62
4
 10
3.21771058E+02
 20
-2.83829143E+02
  0
VERTEX
  8
0
 62
4
 10
3.22030729E+02
 20
-2.83758064E+02
  0
VERTEX
  8
0
 62
4
 10
3.22274534E+02
 20
-2.83677571E+02
  0
VERTEX
  8
0
 62
4
 10
3.22500567E+02
 20
-2.83588295E+02
  0
VERTEX
  8
0
 62
4
 10
3.22707062E+02
 20
-2.83490931E+02
  0
VERTEX
  8
0
 62
4
 10
3.22892406E+02
 20
-2.83386241E+02
  0
VERTEX
  8
0
 62
4
 10
3.23055150E+02
 20
-2.83275043E+02
  0
VERTEX
  8
0
 62
4
 10
3.23194024E+02
 20
-2.83158206E+02
  0
VERTEX
  8
0
 62
4
 10
3.23307941E+02
 20
-2.83036642E+02
  0
VERTEX
  8
0
 62
4
 10
3.23396011E+02
 20
-2.82911302E+02
  0
VERTEX
  8
0
 62
4
 10
3.23457548E+02
 20
-2.82783165E+02
  0
VERTEX
  8
0
 62
4
 10
3.23492068E+02
 20
-2.82653231E+02
  0
VERTEX
  8
0
 62
4
 10
3.23499304E+02
 20
-2.82522517E+02
  0
VERTEX
  8
0
 62
4
 10
3.23479199E+02
 20
-2.82392044E+02
  0
VERTEX
  8
0
 62
4
 10
3.23431909E+02
 20
-2.82262831E+02
  0
SEQEND
  8
0
  0
POLYLINE
  8
0
 62
4
 66
1
  0
VERTEX
  8
0
 62
4
 10
3.23140063E+02
 20
-2.81647006E+02
  0
VERTEX
  8
0
 62
4
 10
3.23128114E+02
 20
-2.81531348E+02
  0
VERTEX
  8
0
 62
4
 10
3.23092359E+02
 20
-2.81416571E+02
  0
VERTEX
  8
0
 62
4
 10
3.23033070E+02
 20
-2.81303548E+02
  0
VERTEX
  8
0
 62
4
 10
3.22950698E+02
 20
-2.81193138E+02
  0
VERTEX
  8
0
 62
4
 10
3.22845869E+02
 20
-2.81086183E+02
  0
VERTEX
  8
0
 62
4
 10
3.22719383E+02
 20
-2.80983495E+02
  0
VERTEX
  8
0
 62
4
 10
3.22572200E+02
 20
-2.80885858E+02
  0
VERTEX
  8
0
 62
4
 10
3.22405443E+02
 20
-2.80794013E+02
  0
VERTEX
  8
0
 62
4
 10
3.22220378E+02
 20
-2.80708660E+02
  0
VERTEX
  8
0
 62
4
 10
3.22018416E+02
 20
-2.80630449E+02
  0
VERTEX
  8
0
 62
4
 10
3.21801093E+02
 20
-2.80559974E+02
  0
VERTEX
  8
0
 62
4
 10
3.21570063E+02
 20
-2.80497772E+02
  0
VERTEX
  8
0
 62
4
 10
3.21327084E+02
 20
-2.80444316E+02
  0
VERTEX
  8
0
 62
4
 10
3.21074006E+02
 20
-2.80400014E+02
  0
VERTEX
  8
0
 62
4
 10
3.20812755E+02
 20
-2.80365202E+02
  0
VERTEX
  8
0
 62
4
 10
3.20545318E+02
 20
-2.80340145E+02
  0
VERTEX
  8
0
 62
4
 10
3.20273732E+02
 20
-2.80325034E+02
  0
VERTEX
  8
0
 62
4
 10
3.20000063E+02
 20
-2.80319985E+02
  0
VERTEX
  8
0
 62
4
 10
3.19726394E+02
 20
-2.80325034E+02
  0
VERTEX
  8
0
 62
4
 10
3.19454808E+02
 20
-2.80340145E+02
  0
VERTEX
  8
0
 62
4
 10
3.19187371E+02
 20
-2.80365202E+02
  0
VERTEX
  8
0
 62
4
 10
3.18926120E+02
 20
-2.80400014E+02
  0
VERTEX
  8
0
 62
4
 10
3.18673042E+02
 20
-2.80444316E+02
  0
VERTEX
  8
0
 62
4
 10
3.18430063E+02
 20
-2.80497772E+02
  0
VERTEX
  8
0
 62
4
 10
3.18199033E+02
 20
-2.80559974E+02
  0
VERTEX
  8
0
 62
4
 10
3.17981710E+02
 20
-2.80630449E+02
  0
VERTEX
  8
0
 62
4
 10
3.17779748E+02
 20
-2.80708660E+02
  0
VERTEX
  8
0
 62
4
 10
3.17594683E+02
 20
-2.80794013E+02
  0
VERTEX
  8
0
 62
4
 10
3.17427926E+02
 20
-2.80885858E+02
  0
VERTEX
  8
0
 62
4
 10
3.17280743E+02
 20
-2.80983495E+02
  0
VERTEX
  8
0
 62
4
 10
3.17154257E+02
 20
-2.81086183E+02
  0
VERTEX
  8
0
 62
4
 10
3.17049428E+02
 20
-2.81193138E+02
  0
VERTEX
  8
0
 62
4
 10
3.16967056E+02
 20
-2.81303548E+02
  0
VERTEX
  8
0
 62
4
 10
3.16907767E+02
 20
-2.81416571E+02
  0
VERTEX
  8
0
 62
4
 10
3.16872012E+02
 20
-2.81531348E+02
  0
VERTEX
  8
0
 62
4
 10
3.16860063E+02
 20
-2.81647006E+02
  0
VERTEX
  8
0
 62
4
 10
3.16872012E+02
 20
-2.81762664E+02
  0
VERTEX
  8
0
 62
4
 10
3.16907767E+02
 20
-2.81877441E+02
  0
VERTEX
  8
0
 62
4
 10
3.16967056E+02
 20
-2.81990464E+02
  0
VERTEX
  8
0
 62
4
 10
3.17049428E+02
 20
-2.82100874E+02
  0
VERTEX
  8
0
 62
4
 10
3.17154257E+02
 20
-2.82207829E+02
  0
VERTEX
  8
0
 62
4
 10
3.17280743E+02
 20
-2.82310517E+02
  0
VERTEX
  8
0
 62
4
 10
3.17427926E+02
 20
-2.82408154E+02
  0
VERTEX
  8
0
 62
4
 10
3.17594683E+02
 20
-2.82499999E+02
  0
VERTEX
  8
0
 62
4
 10
3.17779748E+02
 20
-2.82585352E+02
  0
VERTEX
  8
0
 62
4
 10
3.17981710E+02
 20
-2.82663563E+02
  0
VERTEX
  8
0
 62
4
 10
3.18199033E+02
 20
-2.82734038E+02
  0
VERTEX
  8
0
 62
4
 10
3.18430063E+02
 20
-2.82796240E+02
  0
VERTEX
  8
0
 62
4
 10
3.18673042E+02
 20
-2.82849696E+02
  0
VERTEX
  8
0
 62
4
 10
3.18926120E+02
 20
-2.82893998E+02
  0
VERTEX
  8
0
 62
4
 10
3.19187371E+02
 20
-2.82928810E+02
  0
VERTEX
  8
0
 62
4
 10
3.19454808E+02
 20
-2.82953867E+02
  0
VERTEX
  8
0
 62
4
 10
3.19726394E+02
 20
-2.82968978E+02
  0
VERTEX
  8
0
 62
4
 10
3.20000063E+02
 20
-2.82974027E+02
  0
VERTEX
  8
0
 62
4
 10
3.20273732E+02
 20
-2.82968978E+02
  0
VERTEX
  8
0
 62
4
 10
3.20545318E+02
 20
-2.82953867E+02
  0
VERTEX
  8
0
 62
4
 10
3.20812755E+02
 20
-2.82928810E+02
  0
VERTEX
  8
0
 62
4
 10
3.21074006E+02
 20
-2.82893998E+02
  0
VERTEX
  8
0
 62
4
 10
3.21327084E+02
 20
-2.82849696E+02
  0
VERTEX
  8
0
 62
4
 10
3.21570063E+02
 20
-2.82796240E+02
  0
VERTEX
  8
0
 62
4
 10
3.21801093E+02
 20
-2.82734038E+02
  0
VERTEX
  8
0
 62
4
 10
3.22018416E+02
 20
-2.82663563E+02
  0
VERTEX
  8
0
 62
4
 10
3.22220378E+02
 20
-2.82585352E+02
  0
VERTEX
  8
0
 62
4
 10
3.22405443E+02
 20
-2.82499999E+02
  0
VERTEX
  8
0
 62
4
 10
3.22572200E+02
 20
-2.82408154E+02
  0
VERTEX
  8
0
 62
4
 10
3.22719383E+02
 20
-2.82310517E+02
  0
VERTEX
  8
0
 62
4
 10
3.22845869E+02
 20
-2.82207829E+02
  0
VERTEX
  8
0
 62
4
 10
3.22950698E+02
 20
-2.82100874E+02
  0
VERTEX
  8
0
 62
4
 10
3.23033070E+02
 20
-2.81990464E+02
  0
VERTEX
  8
0
 62
4
 10
3.23092359E+02
 20
-2.81877441E+02
  0
VERTEX
  8
0
 62
4
 10
3.23128114E+02
 20
-2.81762664E+02
  0
VERTEX
  8
0
 62
4
 10
3.23140063E+02
 20
-2.81647006E+02
  0
SEQEND
  8
0
  0
LINE
  8
0
  6
CENTER
 62
6
 10
3.20000063E+02
 20
-2.79804215E+02
 11
3.20000063E+02
 21
-2.81647006E+02
  0
LINE
  8
0
 62
4
 10
3.63000063E+02
 20
-2.68514606E+02
 11
3.58000063E+02
 21
-2.68514606E+02
  0
LINE
  8
0
 62
4
 10
3.63000063E+02
 20
-2.67862970E+02
 11
3.58000063E+02
 21
-2.67862970E+02
  0
LINE
  8
0
 62
4
 10
3.63000063E+02
 20
-2.61056599E+02
 11
3.58000063E+02
 21
-2.61056599E+02
  0
LINE
  8
0
 62
4
 10
3.46500054E+02
 20
-2.85148111E+02
 11
3.46500054E+02
 21
-2.79513081E+02
  0
LINE
  8
0
 62
4
 10
3.10500063E+02
 20
-2.85148111E+02
 11
3.10500063E+02
 21
-2.79513081E+02
  0
POLYLINE
  8
0
 62
4
 66
1
  0
VERTEX
  8
0
 62
4
 10
3.41732785E+02
 20
-3.15139043E+02
  0
VERTEX
  8
0
 62
4
 10
3.41814786E+02
 20
-3.14995725E+02
  0
VERTEX
  8
0
 62
4
 10
3.41882391E+02
 20
-3.14846363E+02
  0
VERTEX
  8
0
 62
4
 10
3.41935065E+02
 20
-3.14692142E+02
  0
VERTEX
  8
0
 62
4
 10
3.41972389E+02
 20
-3.14534284E+02
  0
VERTEX
  8
0
 62
4
 10
3.41994067E+02
 20
-3.14374043E+02
  0
VERTEX
  8
0
 62
4
 10
3.41999928E+02
 20
-3.14212690E+02
  0
VERTEX
  8
0
 62
4
 10
3.41989924E+02
 20
-3.14051504E+02
  0
VERTEX
  8
0
 62
4
 10
3.41964136E+02
 20
-3.13891764E+02
  0
VERTEX
  8
0
 62
4
 10
3.41922767E+02
 20
-3.13734737E+02
  0
VERTEX
  8
0
 62
4
 10
3.41866147E+02
 20
-3.13581669E+02
  0
VERTEX
  8
0
 62
4
 10
3.41794723E+02
 20
-3.13433773E+02
  0
VERTEX
  8
0
 62
4
 10
3.41709064E+02
 20
-3.13292224E+02
  0
VERTEX
  8
0
 62
4
 10
3.41609847E+02
 20
-3.13158144E+02
  0
VERTEX
  8
0
 62
4
 10
3.41497861E+02
 20
-3.13032597E+02
  0
VERTEX
  8
0
 62
4
 10
3.41373993E+02
 20
-3.12916579E+02
  0
VERTEX
  8
0
 62
4
 10
3.41239226E+02
 20
-3.12811009E+02
  0
VERTEX
  8
0
 62
4
 10
3.41094630E+02
 20
-3.12716725E+02
  0
VERTEX
  8
0
 62
4
 10
3.40941351E+02
 20
-3.12634476E+02
  0
VERTEX
  8
0
 62
4
 10
3.40780605E+02
 20
-3.12564914E+02
  0
VERTEX
  8
0
 62
4
 10
3.40613667E+02
 20
-3.12508590E+02
  0
VERTEX
  8
0
 62
4
 10
3.40441862E+02
 20
-3.12465951E+02
  0
VERTEX
  8
0
 62
4
 10
3.40266552E+02
 20
-3.12437336E+02
  0
VERTEX
  8
0
 62
4
 10
3.40089128E+02
 20
-3.12422972E+02
  0
VERTEX
  8
0
 62
4
 10
3.39910998E+02
 20
-3.12422972E+02
  0
VERTEX
  8
0
 62
4
 10
3.39733574E+02
 20
-3.12437336E+02
  0
VERTEX
  8
0
 62
4
 10
3.39558264E+02
 20
-3.12465951E+02
  0
VERTEX
  8
0
 62
4
 10
3.39386459E+02
 20
-3.12508590E+02
  0
VERTEX
  8
0
 62
4
 10
3.39219521E+02
 20
-3.12564914E+02
  0
VERTEX
  8
0
 62
4
 10
3.39058775E+02
 20
-3.12634476E+02
  0
VERTEX
  8
0
 62
4
 10
3.38905496E+02
 20
-3.12716725E+02
  0
VERTEX
  8
0
 62
4
 10
3.38760900E+02
 20
-3.12811009E+02
  0
VERTEX
  8
0
 62
4
 10
3.38626133E+02
 20
-3.12916579E+02
  0
VERTEX
  8
0
 62
4
 10
3.38502265E+02
 20
-3.13032597E+02
  0
VERTEX
  8
0
 62
4
 10
3.38390279E+02
 20
-3.13158144E+02
  0
VERTEX
  8
0
 62
4
 10
3.38291062E+02
 20
-3.13292224E+02
  0
VERTEX
  8
0
 62
4
 10
3.38205403E+02
 20
-3.13433773E+02
  0
VERTEX
  8
0
 62
4
 10
3.38133979E+02
 20
-3.13581669E+02
  0
VERTEX
  8
0
 62
4
 10
3.38077359E+02
 20
-3.13734737E+02
  0
VERTEX
  8
0
 62
4
 10
3.38035990E+02
 20
-3.13891764E+02
  0
VERTEX
  8
0
 62
4
 10
3.38010202E+02
 20
-3.14051504E+02
  0
VERTEX
  8
0
 62
4
 10
3.38000198E+02
 20
-3.14212690E+02
  0
VERTEX
  8
0
 62
4
 10
3.38006059E+02
 20
-3.14374044E+02
  0
VERTEX
  8
0
 62
4
 10
3.38027737E+02
 20
-3.14534284E+02
  0
VERTEX
  8
0
 62
4
 10
3.38065061E+02
 20
-3.14692142E+02
  0
VERTEX
  8
0
 62
4
 10
3.38117735E+02
 20
-3.14846363E+02
  0
VERTEX
  8
0
 62
4
 10
3.38185340E+02
 20
-3.14995725E+02
  0
VERTEX
  8
0
 62
4
 10
3.38267341E+02
 20
-3.15139043E+02
  0
SEQEND
  8
0
  0
POLYLINE
  8
0
 62
6
 66
1
  0
VERTEX
  8
0
 62
6
 10
3.41500063E+02
 20
-3.15063019E+02
  0
VERTEX
  8
0
 62
6
 10
3.41494355E+02
 20
-3.14944534E+02
  0
VERTEX
  8
0
 62
6
 10
3.41477275E+02
 20
-3.14826951E+02
  0
VERTEX
  8
0
 62
6
 10
3.41448952E+02
 20
-3.14711164E+02
  0
VERTEX
  8
0
 62
6
 10
3.41409602E+02
 20
-3.14598056E+02
  0
VERTEX
  8
0
 62
6
 10
3.41359525E+02
 20
-3.14488486E+02
  0
VERTEX
  8
0
 62
6
 10
3.41299101E+02
 20
-3.14383288E+02
  0
VERTEX
  8
0
 62
6
 10
3.41228791E+02
 20
-3.14283264E+02
  0
VERTEX
  8
0
 62
6
 10
3.41149130E+02
 20
-3.14189174E+02
  0
VERTEX
  8
0
 62
6
 10
3.41060723E+02
 20
-3.14101734E+02
  0
VERTEX
  8
0
 62
6
 10
3.40964244E+02
 20
-3.14021611E+02
  0
VERTEX
  8
0
 62
6
 10
3.40860428E+02
 20
-3.13949413E+02
  0
VERTEX
  8
0
 62
6
 10
3.40750063E+02
 20
-3.13885691E+02
  0
VERTEX
  8
0
 62
6
 10
3.40633990E+02
 20
-3.13830928E+02
  0
VERTEX
  8
0
 62
6
 10
3.40513093E+02
 20
-3.13785543E+02
  0
VERTEX
  8
0
 62
6
 10
3.40388292E+02
 20
-3.13749880E+02
  0
VERTEX
  8
0
 62
6
 10
3.40260535E+02
 20
-3.13724211E+02
  0
VERTEX
  8
0
 62
6
 10
3.40130797E+02
 20
-3.13708730E+02
  0
VERTEX
  8
0
 62
6
 10
3.40000063E+02
 20
-3.13703557E+02
  0
VERTEX
  8
0
 62
6
 10
3.39869329E+02
 20
-3.13708730E+02
  0
VERTEX
  8
0
 62
6
 10
3.39739591E+02
 20
-3.13724211E+02
  0
VERTEX
  8
0
 62
6
 10
3.39611834E+02
 20
-3.13749880E+02
  0
VERTEX
  8
0
 62
6
 10
3.39487033E+02
 20
-3.13785543E+02
  0
VERTEX
  8
0
 62
6
 10
3.39366136E+02
 20
-3.13830928E+02
  0
VERTEX
  8
0
 62
6
 10
3.39250063E+02
 20
-3.13885691E+02
  0
VERTEX
  8
0
 62
6
 10
3.39139698E+02
 20
-3.13949413E+02
  0
VERTEX
  8
0
 62
6
 10
3.39035882E+02
 20
-3.14021611E+02
  0
VERTEX
  8
0
 62
6
 10
3.38939403E+02
 20
-3.14101734E+02
  0
VERTEX
  8
0
 62
6
 10
3.38850996E+02
 20
-3.14189174E+02
  0
VERTEX
  8
0
 62
6
 10
3.38771335E+02
 20
-3.14283264E+02
  0
VERTEX
  8
0
 62
6
 10
3.38701025E+02
 20
-3.14383288E+02
  0
VERTEX
  8
0
 62
6
 10
3.38640601E+02
 20
-3.14488486E+02
  0
VERTEX
  8
0
 62
6
 10
3.38590524E+02
 20
-3.14598056E+02
  0
VERTEX
  8
0
 62
6
 10
3.38551174E+02
 20
-3.14711164E+02
  0
VERTEX
  8
0
 62
6
 10
3.38522851E+02
 20
-3.14826951E+02
  0
VERTEX
  8
0
 62
6
 10
3.38505771E+02
 20
-3.14944534E+02
  0
VERTEX
  8
0
 62
6
 10
3.38500063E+02
 20
-3.15063019E+02
  0
VERTEX
  8
0
 62
6
 10
3.38505771E+02
 20
-3.15181504E+02
  0
VERTEX
  8
0
 62
6
 10
3.38522851E+02
 20
-3.15299087E+02
  0
VERTEX
  8
0
 62
6
 10
3.38551174E+02
 20
-3.15414874E+02
  0
VERTEX
  8
0
 62
6
 10
3.38590524E+02
 20
-3.15527982E+02
  0
VERTEX
  8
0
 62
6
 10
3.38640601E+02
 20
-3.15637552E+02
  0
VERTEX
  8
0
 62
6
 10
3.38701025E+02
 20
-3.15742750E+02
  0
VERTEX
  8
0
 62
6
 10
3.38771335E+02
 20
-3.15842774E+02
  0
VERTEX
  8
0
 62
6
 10
3.38850996E+02
 20
-3.15936864E+02
  0
VERTEX
  8
0
 62
6
 10
3.38939403E+02
 20
-3.16024304E+02
  0
VERTEX
  8
0
 62
6
 10
3.39035882E+02
 20
-3.16104427E+02
  0
VERTEX
  8
0
 62
6
 10
3.39139698E+02
 20
-3.16176625E+02
  0
VERTEX
  8
0
 62
6
 10
3.39250063E+02
 20
-3.16240347E+02
  0
VERTEX
  8
0
 62
6
 10
3.39366136E+02
 20
-3.16295110E+02
  0
VERTEX
  8
0
 62
6
 10
3.39487033E+02
 20
-3.16340495E+02
  0
VERTEX
  8
0
 62
6
 10
3.39611834E+02
 20
-3.16376158E+02
  0
VERTEX
  8
0
 62
6
 10
3.39739591E+02
 20
-3.16401827E+02
  0
VERTEX
  8
0
 62
6
 10
3.39869329E+02
 20
-3.16417308E+02
  0
VERTEX
  8
0
 62
6
 10
3.40000063E+02
 20
-3.16422481E+02
  0
VERTEX
  8
0
 62
6
 10
3.40130797E+02
 20
-3.16417308E+02
  0
VERTEX
  8
0
 62
6
 10
3.40260535E+02
 20
-3.16401827E+02
  0
VERTEX
  8
0
 62
6
 10
3.40388292E+02
 20
-3.16376158E+02
  0
VERTEX
  8
0
 62
6
 10
3.40513093E+02
 20
-3.16340495E+02
  0
VERTEX
  8
0
 62
6
 10
3.40633990E+02
 20
-3.16295110E+02
  0
VERTEX
  8
0
 62
6
 10
3.40750063E+02
 20
-3.16240347E+02
  0
VERTEX
  8
0
 62
6
 10
3.40860428E+02
 20
-3.16176625E+02
  0
VERTEX
  8
0
 62
6
 10
3.40964244E+02
 20
-3.16104427E+02
  0
VERTEX
  8
0
 62
6
 10
3.41060723E+02
 20
-3.16024304E+02
  0
VERTEX
  8
0
 62
6
 10
3.41149130E+02
 20
-3.15936864E+02
  0
VERTEX
  8
0
 62
6
 10
3.41228791E+02
 20
-3.15842774E+02
  0
VERTEX
  8
0
 62
6
 10
3.41299101E+02
 20
-3.15742750E+02
  0
VERTEX
  8
0
 62
6
 10
3.41359525E+02
 20
-3.15637552E+02
  0
VERTEX
  8
0
 62
6
 10
3.41409602E+02
 20
-3.15527982E+02
  0
VERTEX
  8
0
 62
6
 10
3.41448952E+02
 20
-3.15414874E+02
  0
VERTEX
  8
0
 62
6
 10
3.41477275E+02
 20
-3.15299087E+02
  0
VERTEX
  8
0
 62
6
 10
3.41494355E+02
 20
-3.15181504E+02
  0
VERTEX
  8
0
 62
6
 10
3.41500063E+02
 20
-3.15063019E+02
  0
SEQEND
  8
0
  0
POLYLINE
  8
0
 62
4
 66
1
  0
VERTEX
  8
0
 62
4
 10
3.41735063E+02
 20
-3.15058487E+02
  0
VERTEX
  8
0
 62
4
 10
3.41728461E+02
 20
-3.14921439E+02
  0
VERTEX
  8
0
 62
4
 10
3.41708704E+02
 20
-3.14785435E+02
  0
VERTEX
  8
0
 62
4
 10
3.41675944E+02
 20
-3.14651509E+02
  0
VERTEX
  8
0
 62
4
 10
3.41630430E+02
 20
-3.14520679E+02
  0
VERTEX
  8
0
 62
4
 10
3.41572507E+02
 20
-3.14393943E+02
  0
VERTEX
  8
0
 62
4
 10
3.41502617E+02
 20
-3.14272265E+02
  0
VERTEX
  8
0
 62
4
 10
3.41421292E+02
 20
-3.14156570E+02
  0
VERTEX
  8
0
 62
4
 10
3.41329150E+02
 20
-3.14047739E+02
  0
VERTEX
  8
0
 62
4
 10
3.41226893E+02
 20
-3.13946601E+02
  0
VERTEX
  8
0
 62
4
 10
3.41115300E+02
 20
-3.13853925E+02
  0
VERTEX
  8
0
 62
4
 10
3.40995218E+02
 20
-3.13770416E+02
  0
VERTEX
  8
0
 62
4
 10
3.40867563E+02
 20
-3.13696711E+02
  0
VERTEX
  8
0
 62
4
 10
3.40733306E+02
 20
-3.13633369E+02
  0
VERTEX
  8
0
 62
4
 10
3.40593468E+02
 20
-3.13580873E+02
  0
VERTEX
  8
0
 62
4
 10
3.40449114E+02
 20
-3.13539623E+02
  0
VERTEX
  8
0
 62
4
 10
3.40301343E+02
 20
-3.13509932E+02
  0
VERTEX
  8
0
 62
4
 10
3.40151278E+02
 20
-3.13492027E+02
  0
VERTEX
  8
0
 62
4
 10
3.40000063E+02
 20
-3.13486043E+02
  0
VERTEX
  8
0
 62
4
 10
3.39848848E+02
 20
-3.13492027E+02
  0
VERTEX
  8
0
 62
4
 10
3.39698783E+02
 20
-3.13509932E+02
  0
VERTEX
  8
0
 62
4
 10
3.39551012E+02
 20
-3.13539623E+02
  0
VERTEX
  8
0
 62
4
 10
3.39406658E+02
 20
-3.13580873E+02
  0
VERTEX
  8
0
 62
4
 10
3.39266820E+02
 20
-3.13633369E+02
  0
VERTEX
  8
0
 62
4
 10
3.39132563E+02
 20
-3.13696711E+02
  0
VERTEX
  8
0
 62
4
 10
3.39004908E+02
 20
-3.13770416E+02
  0
VERTEX
  8
0
 62
4
 10
3.38884826E+02
 20
-3.13853925E+02
  0
VERTEX
  8
0
 62
4
 10
3.38773233E+02
 20
-3.13946601E+02
  0
VERTEX
  8
0
 62
4
 10
3.38670976E+02
 20
-3.14047739E+02
  0
VERTEX
  8
0
 62
4
 10
3.38578834E+02
 20
-3.14156570E+02
  0
VERTEX
  8
0
 62
4
 10
3.38497509E+02
 20
-3.14272265E+02
  0
VERTEX
  8
0
 62
4
 10
3.38427619E+02
 20
-3.14393943E+02
  0
VERTEX
  8
0
 62
4
 10
3.38369696E+02
 20
-3.14520679E+02
  0
VERTEX
  8
0
 62
4
 10
3.38324182E+02
 20
-3.14651509E+02
  0
VERTEX
  8
0
 62
4
 10
3.38291422E+02
 20
-3.14785435E+02
  0
VERTEX
  8
0
 62
4
 10
3.38271665E+02
 20
-3.14921439E+02
  0
VERTEX
  8
0
 62
4
 10
3.38265063E+02
 20
-3.15058487E+02
  0
VERTEX
  8
0
 62
4
 10
3.38271665E+02
 20
-3.15195535E+02
  0
VERTEX
  8
0
 62
4
 10
3.38291422E+02
 20
-3.15331539E+02
  0
VERTEX
  8
0
 62
4
 10
3.38324182E+02
 20
-3.15465465E+02
  0
VERTEX
  8
0
 62
4
 10
3.38369696E+02
 20
-3.15596295E+02
  0
VERTEX
  8
0
 62
4
 10
3.38427619E+02
 20
-3.15723031E+02
  0
VERTEX
  8
0
 62
4
 10
3.38497509E+02
 20
-3.15844709E+02
  0
VERTEX
  8
0
 62
4
 10
3.38578834E+02
 20
-3.15960404E+02
  0
VERTEX
  8
0
 62
4
 10
3.38670976E+02
 20
-3.16069235E+02
  0
VERTEX
  8
0
 62
4
 10
3.38773233E+02
 20
-3.16170373E+02
  0
VERTEX
  8
0
 62
4
 10
3.38884826E+02
 20
-3.16263049E+02
  0
VERTEX
  8
0
 62
4
 10
3.39004908E+02
 20
-3.16346558E+02
  0
VERTEX
  8
0
 62
4
 10
3.39132563E+02
 20
-3.16420263E+02
  0
VERTEX
  8
0
 62
4
 10
3.39266820E+02
 20
-3.16483605E+02
  0
VERTEX
  8
0
 62
4
 10
3.39406658E+02
 20
-3.16536101E+02
  0
VERTEX
  8
0
 62
4
 10
3.39551012E+02
 20
-3.16577351E+02
  0
VERTEX
  8
0
 62
4
 10
3.39698783E+02
 20
-3.16607042E+02
  0
VERTEX
  8
0
 62
4
 10
3.39848848E+02
 20
-3.16624947E+02
  0
VERTEX
  8
0
 62
4
 10
3.40000063E+02
 20
-3.16630931E+02
  0
VERTEX
  8
0
 62
4
 10
3.40151278E+02
 20
-3.16624947E+02
  0
VERTEX
  8
0
 62
4
 10
3.40301343E+02
 20
-3.16607042E+02
  0
VERTEX
  8
0
 62
4
 10
3.40449114E+02
 20
-3.16577351E+02
  0
VERTEX
  8
0
 62
4
 10
3.40593468E+02
 20
-3.16536101E+02
  0
VERTEX
  8
0
 62
4
 10
3.40733306E+02
 20
-3.16483605E+02
  0
VERTEX
  8
0
 62
4
 10
3.40867563E+02
 20
-3.16420263E+02
  0
VERTEX
  8
0
 62
4
 10
3.40995218E+02
 20
-3.16346558E+02
  0
VERTEX
  8
0
 62
4
 10
3.41115300E+02
 20
-3.16263049E+02
  0
VERTEX
  8
0
 62
4
 10
3.41226893E+02
 20
-3.16170373E+02
  0
VERTEX
  8
0
 62
4
 10
3.41329150E+02
 20
-3.16069235E+02
  0
VERTEX
  8
0
 62
4
 10
3.41421292E+02
 20
-3.15960404E+02
  0
VERTEX
  8
0
 62
4
 10
3.41502617E+02
 20
-3.15844709E+02
  0
VERTEX
  8
0
 62
4
 10
3.41572507E+02
 20
-3.15723031E+02
  0
VERTEX
  8
0
 62
4
 10
3.41630430E+02
 20
-3.15596295E+02
  0
VERTEX
  8
0
 62
4
 10
3.41675944E+02
 20
-3.15465465E+02
  0
VERTEX
  8
0
 62
4
 10
3.41708704E+02
 20
-3.15331539E+02
  0
VERTEX
  8
0
 62
4
 10
3.41728461E+02
 20
-3.15195535E+02
  0
VERTEX
  8
0
 62
4
 10
3.41735063E+02
 20
-3.15058487E+02
  0
SEQEND
  8
0
  0
POLYLINE
  8
0
 62
4
 66
1
  0
VERTEX
  8
0
 62
4
 10
3.33732785E+02
 20
-3.15139043E+02
  0
VERTEX
  8
0
 62
4
 10
3.33814786E+02
 20
-3.14995725E+02
  0
VERTEX
  8
0
 62
4
 10
3.33882391E+02
 20
-3.14846363E+02
  0
VERTEX
  8
0
 62
4
 10
3.33935065E+02
 20
-3.14692142E+02
  0
VERTEX
  8
0
 62
4
 10
3.33972389E+02
 20
-3.14534284E+02
  0
VERTEX
  8
0
 62
4
 10
3.33994067E+02
 20
-3.14374043E+02
  0
VERTEX
  8
0
 62
4
 10
3.33999928E+02
 20
-3.14212690E+02
  0
VERTEX
  8
0
 62
4
 10
3.33989924E+02
 20
-3.14051504E+02
  0
VERTEX
  8
0
 62
4
 10
3.33964136E+02
 20
-3.13891764E+02
  0
VERTEX
  8
0
 62
4
 10
3.33922767E+02
 20
-3.13734737E+02
  0
VERTEX
  8
0
 62
4
 10
3.33866147E+02
 20
-3.13581669E+02
  0
VERTEX
  8
0
 62
4
 10
3.33794723E+02
 20
-3.13433773E+02
  0
VERTEX
  8
0
 62
4
 10
3.33709064E+02
 20
-3.13292224E+02
  0
VERTEX
  8
0
 62
4
 10
3.33609847E+02
 20
-3.13158144E+02
  0
VERTEX
  8
0
 62
4
 10
3.33497861E+02
 20
-3.13032597E+02
  0
VERTEX
  8
0
 62
4
 10
3.33373993E+02
 20
-3.12916579E+02
  0
VERTEX
  8
0
 62
4
 10
3.33239226E+02
 20
-3.12811009E+02
  0
VERTEX
  8
0
 62
4
 10
3.33094630E+02
 20
-3.12716725E+02
  0
VERTEX
  8
0
 62
4
 10
3.32941351E+02
 20
-3.12634476E+02
  0
VERTEX
  8
0
 62
4
 10
3.32780605E+02
 20
-3.12564914E+02
  0
VERTEX
  8
0
 62
4
 10
3.32613667E+02
 20
-3.12508590E+02
  0
VERTEX
  8
0
 62
4
 10
3.32441862E+02
 20
-3.12465951E+02
  0
VERTEX
  8
0
 62
4
 10
3.32266552E+02
 20
-3.12437336E+02
  0
VERTEX
  8
0
 62
4
 10
3.32089128E+02
 20
-3.12422972E+02
  0
VERTEX
  8
0
 62
4
 10
3.31910998E+02
 20
-3.12422972E+02
  0
VERTEX
  8
0
 62
4
 10
3.31733574E+02
 20
-3.12437336E+02
  0
VERTEX
  8
0
 62
4
 10
3.31558264E+02
 20
-3.12465951E+02
  0
VERTEX
  8
0
 62
4
 10
3.31386459E+02
 20
-3.12508590E+02
  0
VERTEX
  8
0
 62
4
 10
3.31219521E+02
 20
-3.12564914E+02
  0
VERTEX
  8
0
 62
4
 10
3.31058775E+02
 20
-3.12634476E+02
  0
VERTEX
  8
0
 62
4
 10
3.30905496E+02
 20
-3.12716725E+02
  0
VERTEX
  8
0
 62
4
 10
3.30760900E+02
 20
-3.12811009E+02
  0
VERTEX
  8
0
 62
4
 10
3.30626133E+02
 20
-3.12916579E+02
  0
VERTEX
  8
0
 62
4
 10
3.30502265E+02
 20
-3.13032597E+02
  0
VERTEX
  8
0
 62
4
 10
3.30390279E+02
 20
-3.13158144E+02
  0
VERTEX
  8
0
 62
4
 10
3.30291062E+02
 20
-3.13292224E+02
  0
VERTEX
  8
0
 62
4
 10
3.30205403E+02
 20
-3.13433773E+02
  0
VERTEX
  8
0
 62
4
 10
3.30133979E+02
 20
-3.13581669E+02
  0
VERTEX
  8
0
 62
4
 10
3.30077359E+02
 20
-3.13734737E+02
  0
VERTEX
  8
0
 62
4
 10
3.30035990E+02
 20
-3.13891764E+02
  0
VERTEX
  8
0
 62
4
 10
3.30010202E+02
 20
-3.14051504E+02
  0
VERTEX
  8
0
 62
4
 10
3.30000198E+02
 20
-3.14212690E+02
  0
VERTEX
  8
0
 62
4
 10
3.30006059E+02
 20
-3.14374044E+02
  0
VERTEX
  8
0
 62
4
 10
3.30027737E+02
 20
-3.14534284E+02
  0
VERTEX
  8
0
 62
4
 10
3.30065061E+02
 20
-3.14692142E+02
  0
VERTEX
  8
0
 62
4
 10
3.30117735E+02
 20
-3.14846363E+02
  0
VERTEX
  8
0
 62
4
 10
3.30185340E+02
 20
-3.14995725E+02
  0
VERTEX
  8
0
 62
4
 10
3.30267341E+02
 20
-3.15139043E+02
  0
SEQEND
  8
0
  0
POLYLINE
  8
0
 62
6
 66
1
  0
VERTEX
  8
0
 62
6
 10
3.33500063E+02
 20
-3.15063019E+02
  0
VERTEX
  8
0
 62
6
 10
3.33494355E+02
 20
-3.14944534E+02
  0
VERTEX
  8
0
 62
6
 10
3.33477275E+02
 20
-3.14826951E+02
  0
VERTEX
  8
0
 62
6
 10
3.33448952E+02
 20
-3.14711164E+02
  0
VERTEX
  8
0
 62
6
 10
3.33409602E+02
 20
-3.14598056E+02
  0
VERTEX
  8
0
 62
6
 10
3.33359525E+02
 20
-3.14488486E+02
  0
VERTEX
  8
0
 62
6
 10
3.33299101E+02
 20
-3.14383288E+02
  0
VERTEX
  8
0
 62
6
 10
3.33228791E+02
 20
-3.14283264E+02
  0
VERTEX
  8
0
 62
6
 10
3.33149130E+02
 20
-3.14189174E+02
  0
VERTEX
  8
0
 62
6
 10
3.33060723E+02
 20
-3.14101734E+02
  0
VERTEX
  8
0
 62
6
 10
3.32964244E+02
 20
-3.14021611E+02
  0
VERTEX
  8
0
 62
6
 10
3.32860428E+02
 20
-3.13949413E+02
  0
VERTEX
  8
0
 62
6
 10
3.32750063E+02
 20
-3.13885691E+02
  0
VERTEX
  8
0
 62
6
 10
3.32633990E+02
 20
-3.13830928E+02
  0
VERTEX
  8
0
 62
6
 10
3.32513093E+02
 20
-3.13785543E+02
  0
VERTEX
  8
0
 62
6
 10
3.32388292E+02
 20
-3.13749880E+02
  0
VERTEX
  8
0
 62
6
 10
3.32260535E+02
 20
-3.13724211E+02
  0
VERTEX
  8
0
 62
6
 10
3.32130797E+02
 20
-3.13708730E+02
  0
VERTEX
  8
0
 62
6
 10
3.32000063E+02
 20
-3.13703557E+02
  0
VERTEX
  8
0
 62
6
 10
3.31869329E+02
 20
-3.13708730E+02
  0
VERTEX
  8
0
 62
6
 10
3.31739591E+02
 20
-3.13724211E+02
  0
VERTEX
  8
0
 62
6
 10
3.31611834E+02
 20
-3.13749880E+02
  0
VERTEX
  8
0
 62
6
 10
3.31487033E+02
 20
-3.13785543E+02
  0
VERTEX
  8
0
 62
6
 10
3.31366136E+02
 20
-3.13830928E+02
  0
VERTEX
  8
0
 62
6
 10
3.31250063E+02
 20
-3.13885691E+02
  0
VERTEX
  8
0
 62
6
 10
3.31139698E+02
 20
-3.13949413E+02
  0
VERTEX
  8
0
 62
6
 10
3.31035882E+02
 20
-3.14021611E+02
  0
VERTEX
  8
0
 62
6
 10
3.30939403E+02
 20
-3.14101734E+02
  0
VERTEX
  8
0
 62
6
 10
3.30850996E+02
 20
-3.14189174E+02
  0
VERTEX
  8
0
 62
6
 10
3.30771335E+02
 20
-3.14283264E+02
  0
VERTEX
  8
0
 62
6
 10
3.30701025E+02
 20
-3.14383288E+02
  0
VERTEX
  8
0
 62
6
 10
3.30640601E+02
 20
-3.14488486E+02
  0
VERTEX
  8
0
 62
6
 10
3.30590524E+02
 20
-3.14598056E+02
  0
VERTEX
  8
0
 62
6
 10
3.30551174E+02
 20
-3.14711164E+02
  0
VERTEX
  8
0
 62
6
 10
3.30522851E+02
 20
-3.14826951E+02
  0
VERTEX
  8
0
 62
6
 10
3.30505771E+02
 20
-3.14944534E+02
  0
VERTEX
  8
0
 62
6
 10
3.30500063E+02
 20
-3.15063019E+02
  0
VERTEX
  8
0
 62
6
 10
3.30505771E+02
 20
-3.15181504E+02
  0
VERTEX
  8
0
 62
6
 10
3.30522851E+02
 20
-3.15299087E+02
  0
VERTEX
  8
0
 62
6
 10
3.30551174E+02
 20
-3.15414874E+02
  0
VERTEX
  8
0
 62
6
 10
3.30590524E+02
 20
-3.15527982E+02
  0
VERTEX
  8
0
 62
6
 10
3.30640601E+02
 20
-3.15637552E+02
  0
VERTEX
  8
0
 62
6
 10
3.30701025E+02
 20
-3.15742750E+02
  0
VERTEX
  8
0
 62
6
 10
3.30771335E+02
 20
-3.15842774E+02
  0
VERTEX
  8
0
 62
6
 10
3.30850996E+02
 20
-3.15936864E+02
  0
VERTEX
  8
0
 62
6
 10
3.30939403E+02
 20
-3.16024304E+02
  0
VERTEX
  8
0
 62
6
 10
3.31035882E+02
 20
-3.16104427E+02
  0
VERTEX
  8
0
 62
6
 10
3.31139698E+02
 20
-3.16176625E+02
  0
VERTEX
  8
0
 62
6
 10
3.31250063E+02
 20
-3.16240347E+02
  0
VERTEX
  8
0
 62
6
 10
3.31366136E+02
 20
-3.16295110E+02
  0
VERTEX
  8
0
 62
6
 10
3.31487033E+02
 20
-3.16340495E+02
  0
VERTEX
  8
0
 62
6
 10
3.31611834E+02
 20
-3.16376158E+02
  0
VERTEX
  8
0
 62
6
 10
3.31739591E+02
 20
-3.16401827E+02
  0
VERTEX
  8
0
 62
6
 10
3.31869329E+02
 20
-3.16417308E+02
  0
VERTEX
  8
0
 62
6
 10
3.32000063E+02
 20
-3.16422481E+02
  0
VERTEX
  8
0
 62
6
 10
3.32130797E+02
 20
-3.16417308E+02
  0
VERTEX
  8
0
 62
6
 10
3.32260535E+02
 20
-3.16401827E+02
  0
VERTEX
  8
0
 62
6
 10
3.32388292E+02
 20
-3.16376158E+02
  0
VERTEX
  8
0
 62
6
 10
3.32513093E+02
 20
-3.16340495E+02
  0
VERTEX
  8
0
 62
6
 10
3.32633990E+02
 20
-3.16295110E+02
  0
VERTEX
  8
0
 62
6
 10
3.32750063E+02
 20
-3.16240347E+02
  0
VERTEX
  8
0
 62
6
 10
3.32860428E+02
 20
-3.16176625E+02
  0
VERTEX
  8
0
 62
6
 10
3.32964244E+02
 20
-3.16104427E+02
  0
VERTEX
  8
0
 62
6
 10
3.33060723E+02
 20
-3.16024304E+02
  0
VERTEX
  8
0
 62
6
 10
3.33149130E+02
 20
-3.15936864E+02
  0
VERTEX
  8
0
 62
6
 10
3.33228791E+02
 20
-3.15842774E+02
  0
VERTEX
  8
0
 62
6
 10
3.33299101E+02
 20
-3.15742750E+02
  0
VERTEX
  8
0
 62
6
 10
3.33359525E+02
 20
-3.15637552E+02
  0
VERTEX
  8
0
 62
6
 10
3.33409602E+02
 20
-3.15527982E+02
  0
VERTEX
  8
0
 62
6
 10
3.33448952E+02
 20
-3.15414874E+02
  0
VERTEX
  8
0
 62
6
 10
3.33477275E+02
 20
-3.15299087E+02
  0
VERTEX
  8
0
 62
6
 10
3.33494355E+02
 20
-3.15181504E+02
  0
VERTEX
  8
0
 62
6
 10
3.33500063E+02
 20
-3.15063019E+02
  0
SEQEND
  8
0
  0
POLYLINE
  8
0
 62
4
 66
1
  0
VERTEX
  8
0
 62
4
 10
3.33735063E+02
 20
-3.15058487E+02
  0
VERTEX
  8
0
 62
4
 10
3.33728461E+02
 20
-3.14921439E+02
  0
VERTEX
  8
0
 62
4
 10
3.33708704E+02
 20
-3.14785435E+02
  0
VERTEX
  8
0
 62
4
 10
3.33675944E+02
 20
-3.14651509E+02
  0
VERTEX
  8
0
 62
4
 10
3.33630430E+02
 20
-3.14520679E+02
  0
VERTEX
  8
0
 62
4
 10
3.33572507E+02
 20
-3.14393943E+02
  0
VERTEX
  8
0
 62
4
 10
3.33502617E+02
 20
-3.14272265E+02
  0
VERTEX
  8
0
 62
4
 10
3.33421292E+02
 20
-3.14156570E+02
  0
VERTEX
  8
0
 62
4
 10
3.33329150E+02
 20
-3.14047739E+02
  0
VERTEX
  8
0
 62
4
 10
3.33226893E+02
 20
-3.13946601E+02
  0
VERTEX
  8
0
 62
4
 10
3.33115300E+02
 20
-3.13853925E+02
  0
VERTEX
  8
0
 62
4
 10
3.32995218E+02
 20
-3.13770416E+02
  0
VERTEX
  8
0
 62
4
 10
3.32867563E+02
 20
-3.13696711E+02
  0
VERTEX
  8
0
 62
4
 10
3.32733306E+02
 20
-3.13633369E+02
  0
VERTEX
  8
0
 62
4
 10
3.32593468E+02
 20
-3.13580873E+02
  0
VERTEX
  8
0
 62
4
 10
3.32449114E+02
 20
-3.13539623E+02
  0
VERTEX
  8
0
 62
4
 10
3.32301343E+02
 20
-3.13509932E+02
  0
VERTEX
  8
0
 62
4
 10
3.32151278E+02
 20
-3.13492027E+02
  0
VERTEX
  8
0
 62
4
 10
3.32000063E+02
 20
-3.13486043E+02
  0
VERTEX
  8
0
 62
4
 10
3.31848848E+02
 20
-3.13492027E+02
  0
VERTEX
  8
0
 62
4
 10
3.31698783E+02
 20
-3.13509932E+02
  0
VERTEX
  8
0
 62
4
 10
3.31551012E+02
 20
-3.13539623E+02
  0
VERTEX
  8
0
 62
4
 10
3.31406658E+02
 20
-3.13580873E+02
  0
VERTEX
  8
0
 62
4
 10
3.31266820E+02
 20
-3.13633369E+02
  0
VERTEX
  8
0
 62
4
 10
3.31132563E+02
 20
-3.13696711E+02
  0
VERTEX
  8
0
 62
4
 10
3.31004908E+02
 20
-3.13770416E+02
  0
VERTEX
  8
0
 62
4
 10
3.30884826E+02
 20
-3.13853925E+02
  0
VERTEX
  8
0
 62
4
 10
3.30773233E+02
 20
-3.13946601E+02
  0
VERTEX
  8
0
 62
4
 10
3.30670976E+02
 20
-3.14047739E+02
  0
VERTEX
  8
0
 62
4
 10
3.30578834E+02
 20
-3.14156570E+02
  0
VERTEX
  8
0
 62
4
 10
3.30497509E+02
 20
-3.14272265E+02
  0
VERTEX
  8
0
 62
4
 10
3.30427619E+02
 20
-3.14393943E+02
  0
VERTEX
  8
0
 62
4
 10
3.30369696E+02
 20
-3.14520679E+02
  0
VERTEX
  8
0
 62
4
 10
3.30324182E+02
 20
-3.14651509E+02
  0
VERTEX
  8
0
 62
4
 10
3.30291422E+02
 20
-3.14785435E+02
  0
VERTEX
  8
0
 62
4
 10
3.30271665E+02
 20
-3.14921439E+02
  0
VERTEX
  8
0
 62
4
 10
3.30265063E+02
 20
-3.15058487E+02
  0
VERTEX
  8
0
 62
4
 10
3.30271665E+02
 20
-3.15195535E+02
  0
VERTEX
  8
0
 62
4
 10
3.30291422E+02
 20
-3.15331539E+02
  0
VERTEX
  8
0
 62
4
 10
3.30324182E+02
 20
-3.15465465E+02
  0
VERTEX
  8
0
 62
4
 10
3.30369696E+02
 20
-3.15596295E+02
  0
VERTEX
  8
0
 62
4
 10
3.30427619E+02
 20
-3.15723031E+02
  0
VERTEX
  8
0
 62
4
 10
3.30497509E+02
 20
-3.15844709E+02
  0
VERTEX
  8
0
 62
4
 10
3.30578834E+02
 20
-3.15960404E+02
  0
VERTEX
  8
0
 62
4
 10
3.30670976E+02
 20
-3.16069235E+02
  0
VERTEX
  8
0
 62
4
 10
3.30773233E+02
 20
-3.16170373E+02
  0
VERTEX
  8
0
 62
4
 10
3.30884826E+02
 20
-3.16263049E+02
  0
VERTEX
  8
0
 62
4
 10
3.31004908E+02
 20
-3.16346558E+02
  0
VERTEX
  8
0
 62
4
 10
3.31132563E+02
 20
-3.16420263E+02
  0
VERTEX
  8
0
 62
4
 10
3.31266820E+02
 20
-3.16483605E+02
  0
VERTEX
  8
0
 62
4
 10
3.31406658E+02
 20
-3.16536101E+02
  0
VERTEX
  8
0
 62
4
 10
3.31551012E+02
 20
-3.16577351E+02
  0
VERTEX
  8
0
 62
4
 10
3.31698783E+02
 20
-3.16607042E+02
  0
VERTEX
  8
0
 62
4
 10
3.31848848E+02
 20
-3.16624947E+02
  0
VERTEX
  8
0
 62
4
 10
3.32000063E+02
 20
-3.16630931E+02
  0
VERTEX
  8
0
 62
4
 10
3.32151278E+02
 20
-3.16624947E+02
  0
VERTEX
  8
0
 62
4
 10
3.32301343E+02
 20
-3.16607042E+02
  0
VERTEX
  8
0
 62
4
 10
3.32449114E+02
 20
-3.16577351E+02
  0
VERTEX
  8
0
 62
4
 10
3.32593468E+02
 20
-3.16536101E+02
  0
VERTEX
  8
0
 62
4
 10
3.32733306E+02
 20
-3.16483605E+02
  0
VERTEX
  8
0
 62
4
 10
3.32867563E+02
 20
-3.16420263E+02
  0
VERTEX
  8
0
 62
4
 10
3.32995218E+02
 20
-3.16346558E+02
  0
VERTEX
  8
0
 62
4
 10
3.33115300E+02
 20
-3.16263049E+02
  0
VERTEX
  8
0
 62
4
 10
3.33226893E+02
 20
-3.16170373E+02
  0
VERTEX
  8
0
 62
4
 10
3.33329150E+02
 20
-3.16069235E+02
  0
VERTEX
  8
0
 62
4
 10
3.33421292E+02
 20
-3.15960404E+02
  0
VERTEX
  8
0
 62
4
 10
3.33502617E+02
 20
-3.15844709E+02
  0
VERTEX
  8
0
 62
4
 10
3.33572507E+02
 20
-3.15723031E+02
  0
VERTEX
  8
0
 62
4
 10
3.33630430E+02
 20
-3.15596295E+02
  0
VERTEX
  8
0
 62
4
 10
3.33675944E+02
 20
-3.15465465E+02
  0
VERTEX
  8
0
 62
4
 10
3.33708704E+02
 20
-3.15331539E+02
  0
VERTEX
  8
0
 62
4
 10
3.33728461E+02
 20
-3.15195535E+02
  0
VERTEX
  8
0
 62
4
 10
3.33735063E+02
 20
-3.15058487E+02
  0
SEQEND
  8
0
  0
LINE
  8
0
  6
CENTER
 62
6
 10
3.40000063E+02
 20
-3.10063019E+02
 11
3.40000063E+02
 21
-3.20063019E+02
  0
LINE
  8
0
  6
CENTER
 62
6
 10
3.32000063E+02
 20
-3.10063019E+02
 11
3.32000063E+02
 21
-3.20063019E+02
  0
LINE
  8
0
  6
CENTER
 62
6
 10
3.27000063E+02
 20
-3.15063019E+02
 11
3.45000063E+02
 21
-3.15063019E+02
  0
LINE
  8
0
 62
4
 10
3.28500063E+02
 20
-2.90343656E+02
 11
3.43500063E+02
 21
-2.90343656E+02
  0
LINE
  8
0
 62
4
 10
3.28500063E+02
 20
-2.78304215E+02
 11
3.10500063E+02
 21
-2.78304215E+02
  0
ARC
  8
0
 62
4
 10
3.10500072E+02
 20
-2.79804223E+02
 40
1.50000856E+00
 50
9.00003273E+01
 51
1.79999673E+02
  0
LINE
  8
0
 62
4
 10
3.46500063E+02
 20
-2.78304215E+02
 11
3.43500063E+02
 21
-2.78304215E+02
  0
ARC
  8
0
 62
4
 10
3.46500054E+02
 20
-2.79804223E+02
 40
1.50000856E+00
 50
3.27119593E-04
 51
8.99996730E+01
  0
LINE
  8
0
 62
4
 10
3.43500063E+02
 20
-2.81191411E+02
 11
3.28500063E+02
 21
-2.81191411E+02
  0
LINE
  8
0
 62
4
 10
3.43500063E+02
 20
-2.53100751E+02
 11
3.28500063E+02
 21
-2.53100751E+02
  0
ARC
  8
0
 62
4
 10
3.10500072E+02
 20
-2.88068196E+02
 40
1.50000856E+00
 50
9.00003273E+01
 51
1.79999673E+02
  0
ARC
  8
0
 62
4
 10
3.44000077E+02
 20
-2.69208270E+02
 40
5.00013809E-01
 50
9.00015821E+01
 51
1.79998418E+02
  0
ARC
  8
0
 62
4
 10
3.52500051E+02
 20
-2.55208268E+02
 40
5.00011902E-01
 50
1.36383594E-03
 51
8.99986360E+01
  0
ARC
  8
0
 62
4
 10
3.52500075E+02
 20
-2.68208268E+02
 40
4.99988098E-01
 50
2.69998636E+02
 51
1.36386840E-03
  0
ARC
  8
0
 62
4
 10
3.46500054E+02
 20
-2.88068196E+02
 40
1.50000856E+00
 50
3.27119593E-04
 51
8.99996730E+01
  0
LINE
  8
0
 62
4
 10
3.09000063E+02
 20
-2.79804215E+02
 11
3.09000063E+02
 21
-3.02999962E+02
  0
LINE
  8
0
 62
4
 10
3.26500063E+02
 20
-2.82942956E+02
 11
3.26500063E+02
 21
-2.86568187E+02
  0
LINE
  8
0
 62
4
 10
3.43500063E+02
 20
-2.53100751E+02
 11
3.43500063E+02
 21
-2.82942956E+02
  0
LINE
  8
0
 62
4
 10
3.28500063E+02
 20
-2.53100751E+02
 11
3.28500063E+02
 21
-2.82942956E+02
  0
LINE
  8
0
 62
4
 10
3.45500063E+02
 20
-2.82942956E+02
 11
3.45500063E+02
 21
-2.86568187E+02
  0
LINE
  8
0
 62
4
 10
3.48000063E+02
 20
-2.79804215E+02
 11
3.48000063E+02
 21
-3.02999962E+02
  0
LINE
  8
0
 62
4
 10
3.45500063E+02
 20
-2.82942956E+02
 11
3.26500063E+02
 21
-2.82942956E+02
  0
LINE
  8
0
 62
4
 10
3.43500063E+02
 20
-2.59440025E+02
 11
3.28500063E+02
 21
-2.59440025E+02
  0
LINE
  8
0
 62
4
 10
3.52500063E+02
 20
-2.68708256E+02
 11
3.44000063E+02
 21
-2.68708256E+02
  0
LINE
  8
0
 62
4
 10
3.56500063E+02
 20
-2.67458256E+02
 11
3.53000063E+02
 21
-2.67458256E+02
  0
LINE
  8
0
 62
4
 10
3.56500063E+02
 20
-2.55458256E+02
 11
3.56500063E+02
 21
-2.67958256E+02
  0
LINE
  8
0
 62
4
 10
3.58000063E+02
 20
-2.67958256E+02
 11
3.53000063E+02
 21
-2.67958256E+02
  0
LINE
  8
0
 62
4
 10
3.58000063E+02
 20
-2.55458256E+02
 11
3.53000063E+02
 21
-2.55458256E+02
  0
LINE
  8
0
 62
4
 10
3.58000063E+02
 20
-2.54910926E+02
 11
3.58000063E+02
 21
-2.68514606E+02
  0
LINE
  8
0
 62
4
 10
3.63000063E+02
 20
-2.54910926E+02
 11
3.63000063E+02
 21
-2.68514606E+02
  0
LINE
  8
0
 62
4
 10
3.53000063E+02
 20
-2.55208256E+02
 11
3.53000063E+02
 21
-2.68208256E+02
  0
LINE
  8
0
 62
4
 10
3.43500063E+02
 20
-2.54708256E+02
 11
3.52500063E+02
 21
-2.54708256E+02
  0
LINE
  8
0
 62
4
 10
3.63000063E+02
 20
-2.54910926E+02
 11
3.58000063E+02
 21
-2.54910926E+02
  0
LINE
  8
0
 62
4
 10
3.46500063E+02
 20
-2.86568187E+02
 11
3.10500063E+02
 21
-2.86568187E+02
  0
LINE
  8
0
 62
4
 10
3.56500063E+02
 20
-2.55958256E+02
 11
3.53000063E+02
 21
-2.55958256E+02
  0
LINE
  8
0
 62
4
 10
3.28500063E+02
 20
-2.90343656E+02
 11
3.28500063E+02
 21
-3.18271939E+02
  0
LINE
  8
0
 62
4
 10
3.43500063E+02
 20
-2.90343656E+02
 11
3.43500063E+02
 21
-3.18271939E+02
  0
LINE
  8
0
 62
4
 10
3.29500063E+02
 20
-3.07503679E+02
 11
3.42500063E+02
 21
-3.07503679E+02
  0
LINE
  8
0
 62
4
 10
3.28500063E+02
 20
-3.18271939E+02
 11
3.43500063E+02
 21
-3.18271939E+02
  0
LINE
  8
0
 62
4
 10
3.28500063E+02
 20
-2.93299438E+02
 11
3.43500063E+02
 21
-2.93299438E+02
  0
LINE
  8
0
 62
7
 10
1.14000041E+02
 20
-3.44678185E+02
 11
1.14000041E+02
 21
-3.49500000E+02
  0
LINE
  8
0
 62
7
 10
1.28000054E+02
 20
-3.44678185E+02
 11
1.28000054E+02
 21
-3.49500000E+02
  0
LINE
  8
0
 62
7
 10
1.16178200E+02
 20
-3.42500015E+02
 11
1.25821895E+02
 21
-3.42500015E+02
  0
ARC
  8
0
 62
7
 10
1.21000048E+02
 20
-3.49500000E+02
 40
8.50000000E+00
 50
0.00000000E+00
 51
1.80000000E+02
  0
ARC
  8
0
 62
7
 10
1.21000048E+02
 20
-3.49500000E+02
 40
8.99992087E+00
 50
0.00000000E+00
 51
1.80000000E+02
  0
ARC
  8
0
 62
2
 10
1.21000048E+02
 20
-3.49500000E+02
 40
9.18000793E+00
 50
0.00000000E+00
 51
1.80000000E+02
  0
ARC
  8
0
 62
7
 10
1.21000048E+02
 20
-3.49500000E+02
 40
1.00000153E+01
 50
0.00000000E+00
 51
1.80000000E+02
  0
LINE
  8
0
 62
7
 10
-3.71994352E+02
 20
-2.92500000E+02
 11
-3.07999952E+02
 21
-2.92500000E+02
  0
LINE
  8
0
 62
7
 10
-4.15999952E+02
 20
-2.98500000E+02
 11
-4.15999952E+02
 21
-3.49500000E+02
  0
ARC
  8
0
 62
7
 10
-4.09999952E+02
 20
-2.98500000E+02
 40
6.00000000E+00
 50
9.00000002E+01
 51
1.80000000E+02
  0
LINE
  8
0
 62
7
 10
-4.09999952E+02
 20
-2.92500000E+02
 11
-4.03142257E+02
 21
-2.92500000E+02
  0
ARC
  8
0
 62
7
 10
-3.07999952E+02
 20
-2.98500000E+02
 40
6.00000000E+00
 50
0.00000000E+00
 51
9.00000002E+01
  0
LINE
  8
0
 62
7
 10
-3.01999952E+02
 20
-2.98500000E+02
 11
-3.01999952E+02
 21
-3.49500000E+02
  0
LINE
  8
0
  6
CENTER
 62
2
 10
7.90000172E+01
 20
-2.90607269E+02
 11
7.90000172E+01
 21
-3.22357811E+02
  0
LINE
  8
0
  6
CENTER
 62
2
 10
1.03000017E+02
 20
-2.91713425E+02
 11
1.03000017E+02
 21
-3.36845139E+02
  0
LINE
  8
0
  6
CENTER
 62
2
 10
1.78963915E+02
 20
-3.07499992E+02
 11
1.47108995E+02
 21
-3.07499992E+02
  0
LINE
  8
0
  6
CENTER
 62
2
 10
1.63000017E+02
 20
-2.91019226E+02
 11
1.63000017E+02
 21
-3.21926201E+02
  0
LINE
  8
0
  6
CENTER
 62
2
 10
1.21000048E+02
 20
-2.90833679E+02
 11
1.21000048E+02
 21
-3.49500000E+02
  0
LINE
  8
0
  6
CENTER
 62
2
 10
9.38062305E+01
 20
-3.07499992E+02
 11
6.27168140E+01
 21
-3.07499992E+02
  0
LINE
  8
0
  6
CENTER
 62
2
 10
1.33000017E+02
 20
-3.33456146E+02
 11
1.33000017E+02
 21
-2.91236389E+02
  0
LINE
  8
0
  6
CENTER
 62
2
 10
6.31390553E+01
 20
-3.49500000E+02
 11
1.78905016E+02
 21
-3.49500000E+02
  0
CIRCLE
  8
0
 62
7
 10
7.90000172E+01
 20
-3.07499992E+02
 40
8.69999981E+00
  0
CIRCLE
  8
0
 62
7
 10
7.90000172E+01
 20
-3.07499992E+02
 40
8.00000000E+00
  0
CIRCLE
  8
0
 62
2
 10
1.63000017E+02
 20
-3.07499992E+02
 40
5.00000000E+00
  0
CIRCLE
  8
0
 62
7
 10
1.63000017E+02
 20
-3.07500023E+02
 40
8.69999981E+00
  0
CIRCLE
  8
0
 62
7
 10
1.63000017E+02
 20
-3.07500023E+02
 40
8.00000000E+00
  0
CIRCLE
  8
0
 62
2
 10
7.90000172E+01
 20
-3.07499992E+02
 40
5.00000000E+00
  0
CIRCLE
  8
0
 62
7
 10
1.63000017E+02
 20
-3.07499992E+02
 40
4.17999983E+00
  0
CIRCLE
  8
0
 62
7
 10
7.90000172E+01
 20
-3.07499992E+02
 40
4.17999983E+00
  0
LINE
  8
0
 62
7
 10
7.00000477E+01
 20
-2.92500000E+02
 11
1.72000048E+02
 21
-2.92500000E+02
  0
LINE
  8
0
 62
7
 10
1.78000048E+02
 20
-2.98500000E+02
 11
1.78000048E+02
 21
-3.49500000E+02
  0
LINE
  8
0
 62
7
 10
6.40000477E+01
 20
-2.98500000E+02
 11
6.40000477E+01
 21
-3.49500000E+02
  0
ARC
  8
0
 62
7
 10
1.72000048E+02
 20
-2.98500000E+02
 40
6.00000000E+00
 50
0.00000000E+00
 51
9.00000002E+01
  0
ARC
  8
0
 62
7
 10
7.00000477E+01
 20
-2.98500000E+02
 40
6.00000000E+00
 50
9.00000002E+01
 51
1.80000000E+02
  0
ARC
  8
0
 62
7
 10
1.21000048E+02
 20
-3.49500000E+02
 40
1.82500305E+01
 50
0.00000000E+00
 51
1.80000000E+02
  0
ARC
  8
0
 62
7
 10
1.21000048E+02
 20
-3.49500000E+02
 40
1.50000000E+01
 50
0.00000000E+00
 51
1.80000000E+02
  0
LINE
  8
0
 62
7
 10
1.21000048E+02
 20
-3.32179492E+02
 11
1.06000048E+02
 21
-3.40839746E+02
  0
LINE
  8
0
 62
7
 10
1.06000048E+02
 20
-3.40839746E+02
 11
1.06000048E+02
 21
-3.49500000E+02
  0
LINE
  8
0
 62
7
 10
1.36000048E+02
 20
-3.49500000E+02
 11
1.36000048E+02
 21
-3.40839746E+02
  0
LINE
  8
0
 62
7
 10
1.36000048E+02
 20
-3.40839746E+02
 11
1.21000048E+02
 21
-3.32179492E+02
  0
TEXT
  8
0
 62
7
 10
3.72587672E+02
 20
-3.21675919E+01
 40
9.00000000E+00
  1
925
 41
1.00000000E+00
  7
MONOTXT
  0
TEXT
  8
0
 62
7
 10
3.27587672E+02
 20
-3.21675919E+01
 40
9.00000000E+00
  1
825
 41
1.00000000E+00
  7
MONOTXT
  0
TEXT
  8
0
 62
7
 10
2.82587672E+02
 20
-3.21675919E+01
 40
9.00000000E+00
  1
725
 41
1.00000000E+00
  7
MONOTXT
  0
TEXT
  8
0
 62
7
 10
2.37587672E+02
 20
-3.21675919E+01
 40
9.00000000E+00
  1
625
 41
1.00000000E+00
  7
MONOTXT
  0
TEXT
  8
0
 62
7
 10
1.92587672E+02
 20
-3.21675919E+01
 40
9.00000000E+00
  1
525
 41
1.00000000E+00
  7
MONOTXT
  0
TEXT
  8
0
 62
7
 10
1.47587672E+02
 20
-3.21675919E+01
 40
9.00000000E+00
  1
425
 41
1.00000000E+00
  7
MONOTXT
  0
TEXT
  8
0
 62
7
 10
1.02587672E+02
 20
-3.21675919E+01
 40
9.00000000E+00
  1
375
 41
1.00000000E+00
  7
MONOTXT
  0
TEXT
  8
0
 62
7
 10
5.75876720E+01
 20
-3.21675919E+01
 40
9.00000000E+00
  1
325
 41
1.00000000E+00
  7
MONOTXT
  0
TEXT
  8
0
 62
7
 10
1.25876720E+01
 20
-3.21675919E+01
 40
9.00000000E+00
  1
275
 41
1.00000000E+00
  7
MONOTXT
  0
TEXT
  8
0
 62
7
 10
-3.24123280E+01
 20
-3.21675919E+01
 40
9.00000000E+00
  1
225
 41
1.00000000E+00
  7
MONOTXT
  0
TEXT
  8
0
 62
7
 10
-7.74123280E+01
 20
-3.21675919E+01
 40
9.00000000E+00
  1
175
 41
1.00000000E+00
  7
MONOTXT
  0
TEXT
  8
0
 62
7
 10
-1.22412328E+02
 20
-3.21675919E+01
 40
9.00000000E+00
  1
125
 41
1.00000000E+00
  7
MONOTXT
  0
TEXT
  8
0
 62
7
 10
-1.62912328E+02
 20
-3.21675919E+01
 40
9.00000000E+00
  1
75
 41
1.00000000E+00
  7
MONOTXT
  0
TEXT
  8
0
 62
7
 10
-2.07912328E+02
 20
-3.21675919E+01
 40
9.00000000E+00
  1
25
 41
1.00000000E+00
  7
MONOTXT
  0
TEXT
  8
0
 62
7
 10
-2.48412328E+02
 20
-3.21675919E+01
 40
9.00000000E+00
  1
0
 41
1.00000000E+00
  7
MONOTXT
  0
TEXT
  8
0
 62
7
 10
-3.02412328E+02
 20
-3.21675919E+01
 40
9.00000000E+00
  1
-25
 41
1.00000000E+00
  7
MONOTXT
  0
TEXT
  8
0
 62
7
 10
3.68087672E+02
 20
-1.71675919E+01
 40
9.00000000E+00
  1
1000
 41
1.00000000E+00
  7
MONOTXT
  0
TEXT
  8
0
 62
7
 10
3.27587672E+02
 20
-1.71675919E+01
 40
9.00000000E+00
  1
900
 41
1.00000000E+00
  7
MONOTXT
  0
TEXT
  8
0
 62
7
 10
2.82587672E+02
 20
-1.71675919E+01
 40
9.00000000E+00
  1
800
 41
1.00000000E+00
  7
MONOTXT
  0
TEXT
  8
0
 62
7
 10
2.37587672E+02
 20
-1.71675919E+01
 40
9.00000000E+00
  1
700
 41
1.00000000E+00
  7
MONOTXT
  0
TEXT
  8
0
 62
7
 10
1.92587672E+02
 20
-1.71675919E+01
 40
9.00000000E+00
  1
600
 41
1.00000000E+00
  7
MONOTXT
  0
TEXT
  8
0
 62
7
 10
1.47587672E+02
 20
-1.71675919E+01
 40
9.00000000E+00
  1
500
 41
1.00000000E+00
  7
MONOTXT
  0
TEXT
  8
0
 62
7
 10
1.02587672E+02
 20
-1.71675919E+01
 40
9.00000000E+00
  1
450
 41
1.00000000E+00
  7
MONOTXT
  0
TEXT
  8
0
 62
7
 10
5.75876720E+01
 20
-1.71675919E+01
 40
9.00000000E+00
  1
400
 41
1.00000000E+00
  7
MONOTXT
  0
TEXT
  8
0
 62
7
 10
1.25876720E+01
 20
-1.71675919E+01
 40
9.00000000E+00
  1
350
 41
1.00000000E+00
  7
MONOTXT
  0
TEXT
  8
0
 62
7
 10
-3.24123280E+01
 20
-1.71675919E+01
 40
9.00000000E+00
  1
300
 41
1.00000000E+00
  7
MONOTXT
  0
TEXT
  8
0
 62
7
 10
-7.74123280E+01
 20
-1.71675919E+01
 40
9.00000000E+00
  1
250
 41
1.00000000E+00
  7
MONOTXT
  0
TEXT
  8
0
 62
7
 10
-1.22412328E+02
 20
-1.71675919E+01
 40
9.00000000E+00
  1
200
 41
1.00000000E+00
  7
MONOTXT
  0
TEXT
  8
0
 62
7
 10
-1.67412328E+02
 20
-1.71675919E+01
 40
9.00000000E+00
  1
150
 41
1.00000000E+00
  7
MONOTXT
  0
TEXT
  8
0
 62
7
 10
-2.12412328E+02
 20
-1.71675919E+01
 40
9.00000000E+00
  1
100
 41
1.00000000E+00
  7
MONOTXT
  0
TEXT
  8
0
 62
7
 10
-2.52912328E+02
 20
-1.71675919E+01
 40
9.00000000E+00
  1
75
 41
1.00000000E+00
  7
MONOTXT
  0
TEXT
  8
0
 62
7
 10
-2.97912328E+02
 20
-1.71675919E+01
 40
9.00000000E+00
  1
50
 41
1.00000000E+00
  7
MONOTXT
  0
LINE
  8
0
 62
7
 10
4.07603297E+02
 20
-3.51675919E+01
 11
4.07603297E+02
 21
-5.16759194E+00
  0
LINE
  8
0
 62
7
 10
3.62603297E+02
 20
-3.51675919E+01
 11
3.62603297E+02
 21
-5.16759194E+00
  0
LINE
  8
0
 62
7
 10
3.17603297E+02
 20
-3.51675919E+01
 11
3.17603297E+02
 21
-5.16759194E+00
  0
LINE
  8
0
 62
7
 10
2.72603297E+02
 20
-3.51675919E+01
 11
2.72603297E+02
 21
-5.16759194E+00
  0
LINE
  8
0
 62
7
 10
2.27603297E+02
 20
-3.51675919E+01
 11
2.27603297E+02
 21
-5.16759194E+00
  0
LINE
  8
0
 62
7
 10
1.82603297E+02
 20
-3.51675919E+01
 11
1.82603297E+02
 21
-5.16759194E+00
  0
LINE
  8
0
 62
7
 10
1.37603297E+02
 20
-3.51675919E+01
 11
1.37603297E+02
 21
-5.16759194E+00
  0
LINE
  8
0
 62
7
 10
9.26032970E+01
 20
-3.51675919E+01
 11
9.26032970E+01
 21
-5.16759194E+00
  0
LINE
  8
0
 62
7
 10
4.76032970E+01
 20
-3.51675919E+01
 11
4.76032970E+01
 21
-5.16759194E+00
  0
LINE
  8
0
 62
7
 10
2.60329698E+00
 20
-3.51675919E+01
 11
2.60329698E+00
 21
-5.16759194E+00
  0
LINE
  8
0
 62
7
 10
-4.23967030E+01
 20
-3.51675919E+01
 11
-4.23967030E+01
 21
-5.16759194E+00
  0
LINE
  8
0
 62
7
 10
-8.73967030E+01
 20
-3.51675919E+01
 11
-8.73967030E+01
 21
-5.16759194E+00
  0
LINE
  8
0
 62
7
 10
-1.32396703E+02
 20
-3.51675919E+01
 11
-1.32396703E+02
 21
-5.16759194E+00
  0
LINE
  8
0
 62
7
 10
-1.77396703E+02
 20
-3.51675919E+01
 11
-1.77396703E+02
 21
-5.16759194E+00
  0
LINE
  8
0
 62
7
 10
-2.22396703E+02
 20
-3.51675919E+01
 11
-2.22396703E+02
 21
-5.16759194E+00
  0
LINE
  8
0
 62
7
 10
-2.67396703E+02
 20
-3.51675919E+01
 11
-2.67396703E+02
 21
-5.16759194E+00
  0
LINE
  8
0
 62
7
 10
-3.12396703E+02
 20
-3.51675919E+01
 11
-3.12396703E+02
 21
-5.16759194E+00
  0
LINE
  8
0
 62
7
 10
-3.84396703E+02
 20
-2.01675919E+01
 11
4.07603297E+02
 21
-2.01675919E+01
  0
TEXT
  8
0
 62
7
 10
-3.78611390E+02
 20
-3.21675919E+01
 40
9.00000000E+00
  1
STRETCH
 41
1.00000000E+00
  7
MONOTXT
  0
TEXT
  8
0
 62
7
 10
-3.74111390E+02
 20
-1.71675919E+01
 40
9.00000000E+00
  1
STROKE
 41
1.00000000E+00
  7
MONOTXT
  0
LINE
  8
0
 62
7
 10
-3.84396703E+02
 20
-3.51675919E+01
 11
-3.84396703E+02
 21
-5.16759194E+00
  0
LINE
  8
0
 62
7
 10
-3.84396703E+02
 20
-3.51675919E+01
 11
4.07603297E+02
 21
-3.51675919E+01
  0
LINE
  8
0
 62
7
 10
-3.84396703E+02
 20
-5.16759194E+00
 11
4.07603297E+02
 21
-5.16759194E+00
  0
TEXT
  8
0
 62
7
 10
3.64587672E+02
 20
3.32408060E-01
 40
9.00000000E+00
  1
(mm)
 41
1.00000000E+00
  7
MONOTXT
  0
TEXT
  8
0
 62
7
 10
-4.14123280E+01
 20
3.32408060E-01
 40
9.00000000E+00
  1
STRETCH LIST
 41
1.05263158E+00
  7
MONOTXT
  0
LINE
  8
0
 62
7
 10
-1.88294031E+01
 20
-3.12000023E+02
 11
-8.29999676E+01
 21
-3.12000023E+02
  0
LINE
  8
0
 62
7
 10
-1.36332331E+01
 20
-3.02999992E+02
 11
-8.29999676E+01
 21
-3.02999992E+02
  0
LINE
  8
0
 62
7
 10
-6.73268302E+01
 20
-1.86000031E+02
 11
-8.29999981E+01
 21
-1.86000031E+02
  0
LINE
  8
0
 62
7
 10
-6.21306601E+01
 20
-1.77000000E+02
 11
-8.29999981E+01
 21
-1.77000000E+02
  0
LINE
  8
0
 62
7
 10
-8.09999981E+01
 20
-9.29999695E+01
 11
-8.29999981E+01
 21
-9.29999695E+01
  0
LINE
  8
0
 62
7
 10
-8.29999981E+01
 20
-8.60000000E+01
 11
-9.59178565E+00
 21
-8.60000000E+01
  0
LINE
  8
0
 62
7
 10
-1.34999968E+02
 20
-1.15936707E+02
 11
-1.34999968E+02
 21
-1.63063232E+02
  0
LINE
  8
0
 62
7
 10
-1.34999968E+02
 20
-3.49500000E+02
 11
-1.34999968E+02
 21
-3.25936745E+02
  0
LINE
  8
0
 62
2
 10
-1.68499952E+02
 20
-3.37320015E+02
 11
-1.56999968E+02
 21
-3.37320015E+02
  0
LINE
  8
0
 62
7
 10
-1.68499952E+02
 20
-3.36500008E+02
 11
-1.56999968E+02
 21
-3.36500008E+02
  0
LINE
  8
0
 62
2
 10
-1.68499983E+02
 20
-1.51679993E+02
 11
-1.56999968E+02
 21
-1.51679993E+02
  0
LINE
  8
0
 62
7
 10
-1.68499983E+02
 20
-1.52500000E+02
 11
-1.56999968E+02
 21
-1.52500000E+02
  0
LINE
  8
0
 62
2
 10
-1.68499983E+02
 20
-1.27320038E+02
 11
-1.56999968E+02
 21
-1.27320038E+02
  0
LINE
  8
0
 62
7
 10
-1.68499983E+02
 20
-1.26500031E+02
 11
-1.56999968E+02
 21
-1.26500031E+02
  0
LINE
  8
0
 62
4
 10
-1.82499983E+02
 20
-1.57499935E+02
 11
-1.68499983E+02
 21
-1.57499935E+02
  0
LINE
  8
0
 62
4
 10
-1.82499983E+02
 20
-1.21500065E+02
 11
-1.68499983E+02
 21
-1.21500065E+02
  0
LINE
  8
0
 62
4
 10
-1.82499983E+02
 20
-1.21500065E+02
 11
-1.82499983E+02
 21
-1.57499935E+02
  0
LINE
  8
0
 62
4
 10
-1.68499983E+02
 20
-1.21500065E+02
 11
-1.68499983E+02
 21
-1.57499935E+02
  0
LINE
  8
0
 62
4
 10
-1.80892473E+02
 20
-1.39500072E+02
 11
-1.70107492E+02
 21
-1.39500072E+02
  0
ARC
  8
0
 62
4
 10
-1.56501952E+02
 20
-1.48500076E+02
 40
2.59980309E+01
 50
1.59746143E+02
 51
2.00253857E+02
  0
ARC
  8
0
 62
4
 10
-1.56501952E+02
 20
-1.30500069E+02
 40
2.59980309E+01
 50
1.59746143E+02
 51
2.00253857E+02
  0
ARC
  8
0
 62
4
 10
-1.94498014E+02
 20
-1.30500069E+02
 40
2.59980309E+01
 50
3.39746143E+02
 51
2.02538569E+01
  0
ARC
  8
0
 62
4
 10
-1.94498014E+02
 20
-1.48500076E+02
 40
2.59980309E+01
 50
3.39746143E+02
 51
2.02538569E+01
  0
LINE
  8
0
 62
4
 10
-1.82499952E+02
 20
-3.31500000E+02
 11
-1.82499952E+02
 21
-3.49500000E+02
  0
LINE
  8
0
 62
4
 10
-1.80892256E+02
 20
-3.39107697E+02
 11
-1.70107649E+02
 21
-3.39107697E+02
  0
LINE
  8
0
 62
4
 10
-1.80892256E+02
 20
-3.28715393E+02
 11
-1.70107649E+02
 21
-3.28715393E+02
  0
LINE
  8
0
 62
4
 10
-1.82499961E+02
 20
-3.31500001E+02
 11
-1.80892283E+02
 21
-3.28715392E+02
  0
LINE
  8
0
 62
4
 10
-1.68499952E+02
 20
-3.31499988E+02
 11
-1.70107633E+02
 21
-3.28715366E+02
  0
LINE
  8
0
 62
4
 10
-1.68499952E+02
 20
-3.31500000E+02
 11
-1.68499952E+02
 21
-3.49500000E+02
  0
ARC
  8
0
 62
4
 10
-2.02892218E+02
 20
-3.49500000E+02
 40
3.43922653E+01
 50
0.00000000E+00
 51
1.75879147E+01
  0
ARC
  8
0
 62
4
 10
-1.77700907E+02
 20
-3.33911545E+02
 40
9.20095253E+00
 50
3.25615707E+02
 51
3.43842378E+01
  0
ARC
  8
0
 62
4
 10
-1.48107687E+02
 20
-3.49500000E+02
 40
3.43922653E+01
 50
1.62412050E+02
 51
1.80000000E+02
  0
ARC
  8
0
 62
4
 10
-1.73298998E+02
 20
-3.33911545E+02
 40
9.20095253E+00
 50
1.45615726E+02
 51
2.14384256E+02
  0
LINE
  8
0
 62
4
 10
-3.59000095E+02
 20
-3.28715392E+02
 11
-3.41000090E+02
 21
-3.39107698E+02
  0
LINE
  8
0
 62
4
 10
-3.77000017E+02
 20
-3.39107731E+02
 11
-3.59000015E+02
 21
-3.28715427E+02
  0
LINE
  8
0
 62
4
 10
-3.40999952E+02
 20
-3.39107697E+02
 11
-3.40999952E+02
 21
-3.49500000E+02
  0
LINE
  8
0
 62
4
 10
-3.76999960E+02
 20
-3.39107697E+02
 11
-3.76999960E+02
 21
-3.49500000E+02
  0
ARC
  8
0
 62
4
 10
-3.58999952E+02
 20
-3.49500000E+02
 40
1.80000000E+01
 50
0.00000000E+00
 51
1.80000000E+02
  0
ARC
  8
0
 62
7
 10
-3.58999952E+02
 20
-3.49500000E+02
 40
1.14999914E+01
 50
0.00000000E+00
 51
1.80000000E+02
  0
ARC
  8
0
 62
2
 10
-3.58999952E+02
 20
-3.49500000E+02
 40
1.21799841E+01
 50
0.00000000E+00
 51
1.80000000E+02
  0
ARC
  8
0
 62
7
 10
-3.58999952E+02
 20
-3.49500000E+02
 40
1.29999914E+01
 50
0.00000000E+00
 51
1.80000000E+02
  0
ARC
  8
0
 62
7
 10
-1.56999968E+02
 20
-3.49499985E+02
 40
1.50000248E+01
 50
3.59999942E+02
 51
2.99266002E+01
  0
ARC
  8
0
 62
7
 10
-1.20499937E+02
 20
-3.24999992E+02
 40
5.00000000E-01
 50
9.00000300E+01
 51
1.80000019E+02
  0
ARC
  8
0
 62
7
 10
-1.18499937E+02
 20
-2.94619720E+02
 40
5.00000000E-01
 50
9.10003249E+01
 51
1.80000019E+02
  0
ARC
  8
0
 62
7
 10
-1.34499937E+02
 20
-3.25971725E+02
 40
5.00000000E-01
 50
9.20008106E+01
 51
1.80000019E+02
  0
ARC
  8
0
 62
7
 10
-1.39499937E+02
 20
-3.27000000E+02
 40
5.00000000E-01
 50
9.00000300E+01
 51
1.80000019E+02
  0
CIRCLE
  8
0
 62
7
 10
-3.16999922E+02
 20
-3.07499992E+02
 40
4.17999983E+00
  0
CIRCLE
  8
0
 62
7
 10
-4.00999922E+02
 20
-3.07499992E+02
 40
4.17999983E+00
  0
CIRCLE
  8
0
 62
2
 10
-3.16999922E+02
 20
-3.07499992E+02
 40
5.00000000E+00
  0
CIRCLE
  8
0
 62
2
 10
-9.89999828E+01
 20
-1.27500000E+02
 40
1.04775000E+01
  0
ARC
  8
0
 62
7
 10
-3.58999952E+02
 20
-3.49500000E+02
 40
2.40000000E+01
 50
0.00000000E+00
 51
1.80000000E+02
  0
ARC
  8
0
 62
7
 10
-3.58999830E+02
 20
-3.49499939E+02
 40
2.35000153E+01
 50
0.00000000E+00
 51
1.80000149E+02
  0
ARC
  8
0
 62
7
 10
-3.58999830E+02
 20
-3.49499939E+02
 40
2.50000153E+01
 50
0.00000000E+00
 51
1.80000140E+02
  0
ARC
  8
0
 62
7
 10
-3.89158033E+02
 20
-3.03497620E+02
 40
1.00000000E+00
 50
8.81899612E+01
 51
1.98674330E+02
  0
ARC
  8
0
 62
7
 10
-4.05002394E+02
 20
-3.19341873E+02
 40
1.00000000E+00
 50
7.13253501E+01
 51
1.81812600E+02
  0
ARC
  8
0
 62
7
 10
-3.84016127E+02
 20
-2.98099976E+02
 40
1.00000000E+00
 50
8.99999818E+01
 51
1.84589646E+02
  0
ARC
  8
0
 62
7
 10
-4.10399946E+02
 20
-3.24484039E+02
 40
1.00000000E+00
 50
8.54104639E+01
 51
1.79999964E+02
  0
ARC
  8
0
 62
7
 10
-3.89000044E+02
 20
-2.98500137E+02
 40
4.00000000E+00
 50
2.68189512E+02
 51
4.59040963E+00
  0
ARC
  8
0
 62
7
 10
-4.09999891E+02
 20
-3.19500069E+02
 40
4.00000000E+00
 50
2.65411312E+02
 51
1.81309463E+00
  0
CIRCLE
  8
0
 62
7
 10
-4.00999922E+02
 20
-3.07500023E+02
 40
8.00000000E+00
  0
ARC
  8
0
 62
7
 10
-4.09999891E+02
 20
-2.98500000E+02
 40
5.00000000E+00
 50
8.99999818E+01
 51
1.79999964E+02
  0
ARC
  8
0
 62
7
 10
-4.09999891E+02
 20
-2.98499985E+02
 40
4.40000010E+00
 50
8.99999818E+01
 51
1.79999964E+02
  0
ARC
  8
0
 62
7
 10
-4.00999922E+02
 20
-3.07499992E+02
 40
1.15000000E+01
 50
2.51324914E+02
 51
1.86744424E+01
  0
ARC
  8
0
 62
7
 10
-3.61249891E+02
 20
-3.23597466E+02
 40
1.00000000E+00
 50
2.74964145E+02
 51
3.59999959E+02
  0
ARC
  8
0
 62
7
 10
-3.75724806E+02
 20
-3.29593117E+02
 40
1.00000000E+00
 50
2.24999972E+02
 51
3.10035254E+02
  0
ARC
  8
0
 62
7
 10
-3.78906874E+02
 20
-3.32775146E+02
 40
1.00000000E+00
 50
3.19964423E+02
 51
4.49999910E+01
  0
ARC
  8
0
 62
7
 10
-3.84902449E+02
 20
-3.47250000E+02
 40
1.00000000E+00
 50
2.69999963E+02
 51
3.55035805E+02
  0
ARC
  8
0
 62
7
 10
-3.61249891E+02
 20
-2.98099991E+02
 40
1.00000000E+00
 50
3.59999959E+02
 51
8.99999956E+01
  0
ARC
  8
0
 62
7
 10
-4.10399946E+02
 20
-3.47250031E+02
 40
1.00000000E+00
 50
1.79999964E+02
 51
2.69999946E+02
  0
ARC
  8
0
 62
7
 10
-3.93896498E+02
 20
-3.17785484E+02
 40
1.00000000E+00
 50
4.49999910E+01
 51
1.24630380E+02
  0
ARC
  8
0
 62
7
 10
-3.90714430E+02
 20
-3.14603493E+02
 40
1.00000000E+00
 50
1.45369634E+02
 51
2.24999955E+02
  0
CIRCLE
  8
0
 62
7
 10
-4.00999922E+02
 20
-3.07500023E+02
 40
8.69999981E+00
  0
ARC
  8
0
 62
7
 10
-3.08000044E+02
 20
-3.19499878E+02
 40
4.00000000E+00
 50
1.78189554E+02
 51
2.74590407E+02
  0
ARC
  8
0
 62
7
 10
-3.28999983E+02
 20
-2.98500000E+02
 40
4.00000000E+00
 50
1.75411348E+02
 51
2.71812624E+02
  0
ARC
  8
0
 62
7
 10
-3.16999922E+02
 20
-3.07499992E+02
 40
1.15000000E+01
 50
1.61325025E+02
 51
2.88674421E+02
  0
CIRCLE
  8
0
 62
7
 10
-9.89999523E+01
 20
-1.27500000E+02
 40
1.10000000E+01
  0
ARC
  8
0
 62
7
 10
-1.12999937E+02
 20
-1.72499924E+02
 40
2.00000000E+00
 50
1.79999977E+02
 51
2.70000028E+02
  0
ARC
  8
0
 62
7
 10
-1.12999937E+02
 20
-1.06499939E+02
 40
2.00000000E+00
 50
8.99999818E+01
 51
1.79999951E+02
  0
ARC
  8
0
 62
7
 10
-3.12997541E+02
 20
-3.19341919E+02
 40
1.00000000E+00
 50
3.58189936E+02
 51
1.08674388E+02
  0
ARC
  8
0
 62
7
 10
-3.28841749E+02
 20
-3.03497482E+02
 40
1.00000000E+00
 50
3.41324803E+02
 51
9.18135474E+01
  0
CIRCLE
  8
0
 62
7
 10
-9.89999523E+01
 20
-1.27499924E+02
 40
9.25000000E+00
  0
ARC
  8
0
 62
7
 10
-3.33983931E+02
 20
-2.98099991E+02
 40
1.00000000E+00
 50
3.55412204E+02
 51
8.99999818E+01
  0
ARC
  8
0
 62
7
 10
-3.07599897E+02
 20
-3.24483841E+02
 40
1.00000000E+00
 50
0.00000000E+00
 51
9.45895548E+01
  0
ARC
  8
0
 62
7
 10
-1.18499952E+02
 20
-1.94380264E+02
 40
5.00000000E-01
 50
1.79999977E+02
 51
2.68999679E+02
  0
ARC
  8
0
 62
7
 10
-1.39499968E+02
 20
-1.61999954E+02
 40
5.00000000E-01
 50
1.79999977E+02
 51
2.69999974E+02
  0
ARC
  8
0
 62
7
 10
-1.20499937E+02
 20
-1.63999939E+02
 40
5.00000000E-01
 50
1.79999977E+02
 51
2.69999974E+02
  0
ARC
  8
0
 62
7
 10
-1.34499968E+02
 20
-1.63028183E+02
 40
5.00000000E-01
 50
1.79999977E+02
 51
2.67999192E+02
  0
ARC
  8
0
 62
7
 10
-1.20499937E+02
 20
-1.14999939E+02
 40
5.00000000E-01
 50
8.99999818E+01
 51
1.79999951E+02
  0
ARC
  8
0
 62
7
 10
-1.34499968E+02
 20
-1.15971680E+02
 40
5.00000000E-01
 50
9.20007356E+01
 51
1.79999951E+02
  0
ARC
  8
0
 62
7
 10
-1.39499968E+02
 20
-1.16999939E+02
 40
5.00000000E-01
 50
8.99999818E+01
 51
1.79999951E+02
  0
ARC
  8
0
 62
7
 10
-1.18499952E+02
 20
-8.46196899E+01
 40
5.00000000E-01
 50
9.10002493E+01
 51
1.79999951E+02
  0
CIRCLE
  8
0
 62
2
 10
-4.00999922E+02
 20
-3.07499992E+02
 40
5.00000000E+00
  0
CIRCLE
  8
0
 62
7
 10
-3.16999922E+02
 20
-3.07499992E+02
 40
8.00000000E+00
  0
ARC
  8
0
 62
7
 10
-3.07999922E+02
 20
-2.98500000E+02
 40
5.00000000E+00
 50
0.00000000E+00
 51
8.99999818E+01
  0
ARC
  8
0
 62
7
 10
-3.07999922E+02
 20
-2.98500000E+02
 40
4.40000010E+00
 50
0.00000000E+00
 51
8.99999818E+01
  0
ARC
  8
0
 62
7
 10
-3.07599897E+02
 20
-3.47250000E+02
 40
1.00000000E+00
 50
2.69999963E+02
 51
0.00000000E+00
  0
ARC
  8
0
 62
7
 10
-3.33097395E+02
 20
-3.47250000E+02
 40
1.00000000E+00
 50
1.84964149E+02
 51
2.69999956E+02
  0
ARC
  8
0
 62
7
 10
-3.56749891E+02
 20
-3.23597443E+02
 40
1.00000000E+00
 50
1.79999964E+02
 51
2.65035792E+02
  0
ARC
  8
0
 62
7
 10
-3.56749891E+02
 20
-2.98099991E+02
 40
1.00000000E+00
 50
8.99999818E+01
 51
1.79999964E+02
  0
ARC
  8
0
 62
7
 10
-3.42275099E+02
 20
-3.29593094E+02
 40
1.00000000E+00
 50
2.29964427E+02
 51
3.14999988E+02
  0
ARC
  8
0
 62
7
 10
-3.39093061E+02
 20
-3.32775108E+02
 40
1.00000000E+00
 50
1.34999959E+02
 51
2.20035227E+02
  0
ARC
  8
0
 62
7
 10
-3.27285353E+02
 20
-3.14603447E+02
 40
1.00000000E+00
 50
3.14999995E+02
 51
3.46303842E+01
  0
ARC
  8
0
 62
7
 10
-3.24103407E+02
 20
-3.17785461E+02
 40
1.00000000E+00
 50
5.53696252E+01
 51
1.34999959E+02
  0
CIRCLE
  8
0
 62
7
 10
-3.16999922E+02
 20
-3.07499992E+02
 40
8.69999981E+00
  0
ARC
  8
0
 62
7
 10
-8.99999676E+01
 20
-1.57500031E+02
 40
5.00000000E+00
 50
0.00000000E+00
 51
1.79999964E+02
  0
ARC
  8
0
 62
7
 10
-8.99999676E+01
 20
-1.57500031E+02
 40
5.00000000E+00
 50
1.79999977E+02
 51
1.00179127E-05
  0
CIRCLE
  8
0
 62
7
 10
-8.99999676E+01
 20
-1.57500031E+02
 40
2.59999990E+00
  0
LINE
  8
0
 62
7
 10
-1.56999968E+02
 20
-1.51679993E+02
 11
-1.53999968E+02
 21
-1.51679993E+02
  0
LINE
  8
0
 62
7
 10
-1.56999968E+02
 20
-1.27320038E+02
 11
-1.53999968E+02
 21
-1.27320038E+02
  0
LINE
  8
0
 62
7
 10
-1.44000049E+02
 20
-1.26499935E+02
 11
-1.42000025E+02
 21
-1.24499912E+02
  0
LINE
  8
0
 62
7
 10
-1.43999977E+02
 20
-1.52499981E+02
 11
-1.41999910E+02
 21
-1.54500048E+02
  0
LINE
  8
0
 62
7
 10
-1.53999968E+02
 20
-1.52500000E+02
 11
-1.43999968E+02
 21
-1.52500000E+02
  0
LINE
  8
0
 62
7
 10
-1.53999968E+02
 20
-1.26500000E+02
 11
-1.44000059E+02
 21
-1.26500000E+02
  0
LINE
  8
0
 62
7
 10
-1.41999907E+02
 20
-1.54500046E+02
 11
-1.39999968E+02
 21
-1.54500046E+02
  0
LINE
  8
0
 62
7
 10
-1.50999968E+02
 20
-1.52500000E+02
 11
-1.50999968E+02
 21
-1.26500000E+02
  0
LINE
  8
0
 62
7
 10
-1.42000029E+02
 20
-1.24499939E+02
 11
-1.39999968E+02
 21
-1.24499939E+02
  0
LINE
  8
0
 62
7
 10
-1.53999968E+02
 20
-1.52500000E+02
 11
-1.53999968E+02
 21
-1.26500000E+02
  0
LINE
  8
0
 62
2
 10
-1.93320036E+02
 20
-1.51679993E+02
 11
-1.82499983E+02
 21
-1.51679993E+02
  0
LINE
  8
0
 62
7
 10
-1.94000033E+02
 20
-1.51000034E+02
 11
-1.92500021E+02
 21
-1.52500046E+02
  0
LINE
  8
0
 62
7
 10
-1.92500029E+02
 20
-1.52500000E+02
 11
-1.82499983E+02
 21
-1.52500000E+02
  0
LINE
  8
0
 62
2
 10
-1.93320036E+02
 20
-1.27320038E+02
 11
-1.82499983E+02
 21
-1.27320038E+02
  0
LINE
  8
0
 62
7
 10
-1.93999845E+02
 20
-1.28000188E+02
 11
-1.92499832E+02
 21
-1.26500175E+02
  0
LINE
  8
0
 62
7
 10
-1.92499968E+02
 20
-1.52500000E+02
 11
-1.92499968E+02
 21
-1.26500000E+02
  0
LINE
  8
0
 62
7
 10
-1.92500029E+02
 20
-1.26500031E+02
 11
-1.82499983E+02
 21
-1.26500031E+02
  0
LINE
  8
0
 62
7
 10
-1.56999968E+02
 20
-1.52500000E+02
 11
-1.56999968E+02
 21
-1.26500000E+02
  0
LINE
  8
0
 62
7
 10
-1.93999998E+02
 20
-1.51000061E+02
 11
-1.93999998E+02
 21
-1.28000305E+02
  0
LINE
  8
0
 62
7
 10
-1.56999968E+02
 20
-3.37320015E+02
 11
-1.53999968E+02
 21
-3.37320015E+02
  0
LINE
  8
0
 62
2
 10
-1.48999937E+02
 20
-3.49500000E+02
 11
-1.51777725E+02
 21
-3.45342561E+02
  0
LINE
  8
0
 62
2
 10
-1.43999969E+02
 20
-3.42016630E+02
 11
-1.48999975E+02
 21
-3.49500000E+02
  0
LINE
  8
0
 62
7
 10
-1.53999938E+02
 20
-3.49500007E+02
 11
-1.49999922E+02
 21
-3.42016638E+02
  0
LINE
  8
0
 62
7
 10
-1.49999937E+02
 20
-3.42016624E+02
 11
-1.43999968E+02
 21
-3.42016624E+02
  0
LINE
  8
0
 62
7
 10
-1.43999968E+02
 20
-3.49500000E+02
 11
-1.43999968E+02
 21
-3.42016624E+02
  0
LINE
  8
0
 62
7
 10
-1.53999943E+02
 20
-3.36500023E+02
 11
-1.49999930E+02
 21
-3.34499978E+02
  0
LINE
  8
0
 62
7
 10
-1.49999937E+02
 20
-3.42016624E+02
 11
-1.49999937E+02
 21
-3.34499962E+02
  0
LINE
  8
0
 62
7
 10
-1.49999937E+02
 20
-3.34499962E+02
 11
-1.39999968E+02
 21
-3.34499962E+02
  0
LINE
  8
0
 62
2
 10
-1.93320036E+02
 20
-3.37320015E+02
 11
-1.82499952E+02
 21
-3.37320015E+02
  0
LINE
  8
0
 62
7
 10
-1.93999841E+02
 20
-3.38000187E+02
 11
-1.92499829E+02
 21
-3.36500175E+02
  0
LINE
  8
0
 62
7
 10
-1.92499968E+02
 20
-3.49500000E+02
 11
-1.92499968E+02
 21
-3.36500008E+02
  0
LINE
  8
0
 62
7
 10
-1.92500029E+02
 20
-3.36500008E+02
 11
-1.82499952E+02
 21
-3.36500008E+02
  0
LINE
  8
0
 62
7
 10
-1.56999968E+02
 20
-3.49500000E+02
 11
-1.56999968E+02
 21
-3.36500008E+02
  0
LINE
  8
0
 62
7
 10
-1.93999998E+02
 20
-3.49500000E+02
 11
-1.93999998E+02
 21
-3.38000305E+02
  0
LINE
  8
0
 62
7
 10
-1.53999968E+02
 20
-3.49500000E+02
 11
-1.53999968E+02
 21
-3.36500008E+02
  0
LINE
  8
0
 62
7
 10
-8.29999676E+01
 20
-2.95999985E+02
 11
-9.99994850E+00
 21
-2.95999985E+02
  0
LINE
  8
0
 62
7
 10
-1.18999952E+02
 20
-3.49500000E+02
 11
-1.18999952E+02
 21
-2.94619720E+02
  0
LINE
  8
0
 62
7
 10
-8.29999676E+01
 20
-3.49500000E+02
 11
-8.29999676E+01
 21
-2.93500046E+02
  0
LINE
  8
0
 62
7
 10
-1.20499937E+02
 20
-3.24500000E+02
 11
-1.18999952E+02
 21
-3.24500000E+02
  0
LINE
  8
0
 62
7
 10
-1.14999952E+02
 20
-2.93500000E+02
 11
-8.29999371E+01
 21
-2.93500000E+02
  0
LINE
  8
0
 62
7
 10
-1.14999952E+02
 20
-2.94058563E+02
 11
-1.14999952E+02
 21
-2.93500000E+02
  0
LINE
  8
0
 62
7
 10
-1.18508631E+02
 20
-2.94119835E+02
 11
-8.29999708E+01
 21
-2.93500029E+02
  0
LINE
  8
0
 62
7
 10
-1.34517427E+02
 20
-3.25472049E+02
 11
-1.21000001E+02
 21
-3.25000010E+02
  0
LINE
  8
0
 62
7
 10
-1.39999968E+02
 20
-3.49500000E+02
 11
-1.39999968E+02
 21
-3.27000000E+02
  0
LINE
  8
0
 62
7
 10
-1.39499937E+02
 20
-3.26499985E+02
 11
-1.34999968E+02
 21
-3.26499985E+02
  0
LINE
  8
0
 62
7
 10
-1.20999937E+02
 20
-3.49500000E+02
 11
-1.20999937E+02
 21
-3.25000008E+02
  0
LINE
  8
0
  6
CENTER
 62
2
 10
-1.62313093E+01
 20
-3.07499992E+02
 11
-1.21524443E+02
 21
-3.07499992E+02
  0
LINE
  8
0
 62
7
 10
-8.29999981E+01
 20
-1.93000000E+02
 11
-7.13682645E+01
 21
-1.93000000E+02
  0
LINE
  8
0
 62
7
 10
-1.36332199E+01
 20
-9.29999695E+01
 11
-5.64999981E+01
 21
-9.29999695E+01
  0
LINE
  8
0
 62
7
 10
-1.88293900E+01
 20
-1.02000000E+02
 11
-3.69999981E+01
 21
-1.02000000E+02
  0
LINE
  8
0
  6
CENTER
 62
2
 10
-1.62312961E+01
 20
-9.74999695E+01
 11
-5.64999981E+01
 21
-9.74999695E+01
  0
LINE
  8
0
  6
CENTER
 62
2
 10
-3.01138960E+02
 20
-3.49500000E+02
 11
-4.16904921E+02
 21
-3.49500000E+02
  0
LINE
  8
0
  6
CENTER
 62
2
 10
-3.70999922E+02
 20
-3.33456146E+02
 11
-3.70999922E+02
 21
-2.91236389E+02
  0
LINE
  8
0
  6
CENTER
 62
2
 10
-3.31806135E+02
 20
-3.07499992E+02
 11
-3.00716719E+02
 21
-3.07499992E+02
  0
LINE
  8
0
  6
CENTER
 62
2
 10
-3.58999952E+02
 20
-2.90833679E+02
 11
-3.58999952E+02
 21
-3.49500000E+02
  0
LINE
  8
0
 62
7
 10
-3.93999952E+02
 20
-2.93500000E+02
 11
-3.93999952E+02
 21
-2.94099976E+02
  0
LINE
  8
0
  6
CENTER
 62
2
 10
-4.00999922E+02
 20
-2.91019226E+02
 11
-4.00999922E+02
 21
-3.21926201E+02
  0
LINE
  8
0
  6
CENTER
 62
2
 10
-4.16963820E+02
 20
-3.07499992E+02
 11
-3.85108900E+02
 21
-3.07499992E+02
  0
LINE
  8
0
 62
7
 10
-4.14999891E+02
 20
-2.98500000E+02
 11
-4.14999891E+02
 21
-3.49500000E+02
  0
LINE
  8
0
 62
7
 10
-4.09999891E+02
 20
-2.93500000E+02
 11
-3.07999922E+02
 21
-2.93500000E+02
  0
LINE
  8
0
 62
7
 10
-3.60249952E+02
 20
-2.98099991E+02
 11
-3.60249952E+02
 21
-3.23597466E+02
  0
LINE
  8
0
 62
7
 10
-4.10399946E+02
 20
-3.48250000E+02
 11
-3.84902449E+02
 21
-3.48250000E+02
  0
LINE
  8
0
 62
7
 10
-4.11399946E+02
 20
-3.24484039E+02
 11
-4.11399946E+02
 21
-3.49500000E+02
  0
LINE
  8
0
 62
7
 10
-3.84016066E+02
 20
-2.97099991E+02
 11
-3.33983931E+02
 21
-2.97099991E+02
  0
LINE
  8
0
 62
7
 10
-3.76432099E+02
 20
-3.30300198E+02
 11
-3.91421758E+02
 21
-3.15310540E+02
  0
LINE
  8
0
 62
7
 10
-3.78199801E+02
 20
-3.32068073E+02
 11
-3.93189460E+02
 21
-3.17078415E+02
  0
LINE
  8
0
 62
7
 10
-4.14399916E+02
 20
-2.98499985E+02
 11
-4.14399916E+02
 21
-3.49500000E+02
  0
LINE
  8
0
 62
7
 10
-4.09999891E+02
 20
-2.94099976E+02
 11
-3.07999922E+02
 21
-2.94099976E+02
  0
LINE
  8
0
 62
7
 10
-3.23999952E+02
 20
-2.93500000E+02
 11
-3.23999952E+02
 21
-2.94099976E+02
  0
LINE
  8
0
 62
7
 10
-3.39800334E+02
 20
-3.32067824E+02
 11
-3.24810651E+02
 21
-3.17078147E+02
  0
LINE
  8
0
 62
7
 10
-3.41568144E+02
 20
-3.30300014E+02
 11
-3.26578483E+02
 21
-3.15310358E+02
  0
LINE
  8
0
  6
CENTER
 62
2
 10
-3.40999922E+02
 20
-2.91713425E+02
 11
-3.40999922E+02
 21
-3.36845139E+02
  0
LINE
  8
0
  6
CENTER
 62
2
 10
-9.79999065E+01
 20
-3.30018875E+02
 11
-9.79999065E+01
 21
-2.91047379E+02
  0
LINE
  8
0
 62
7
 10
-1.20999968E+02
 20
-1.63999893E+02
 11
-1.20999968E+02
 21
-1.14999939E+02
  0
LINE
  8
0
 62
7
 10
-1.12999937E+02
 20
-1.04500061E+02
 11
-9.09999981E+01
 21
-1.04500061E+02
  0
LINE
  8
0
 62
7
 10
-1.12999937E+02
 20
-1.74500046E+02
 11
-8.29999371E+01
 21
-1.74500046E+02
  0
LINE
  8
0
  6
CENTER
 62
2
 10
-9.89999828E+01
 20
-1.41605835E+02
 11
-9.89999828E+01
 21
-1.13676727E+02
  0
LINE
  8
0
 62
7
 10
-8.29999981E+01
 20
-8.34998169E+01
 11
-8.29999981E+01
 21
-9.36196107E+01
  0
LINE
  8
0
 62
7
 10
-1.34517395E+02
 20
-1.63527618E+02
 11
-1.20999939E+02
 21
-1.63999658E+02
  0
LINE
  8
0
 62
7
 10
-1.39499937E+02
 20
-1.62500031E+02
 11
-1.34999937E+02
 21
-1.62500031E+02
  0
LINE
  8
0
 62
7
 10
-1.18508618E+02
 20
-1.94880013E+02
 11
-8.29999121E+01
 21
-1.95499820E+02
  0
LINE
  8
0
 62
7
 10
-1.20499937E+02
 20
-1.64500046E+02
 11
-1.18999922E+02
 21
-1.64500046E+02
  0
LINE
  8
0
 62
7
 10
-1.34517408E+02
 20
-1.15471803E+02
 11
-1.20999952E+02
 21
-1.14999763E+02
  0
LINE
  8
0
 62
7
 10
-1.39499937E+02
 20
-1.16500031E+02
 11
-1.34999937E+02
 21
-1.16500031E+02
  0
LINE
  8
0
 62
7
 10
-1.18508644E+02
 20
-8.41194956E+01
 11
-8.29999073E+01
 21
-8.34996883E+01
  0
LINE
  8
0
 62
7
 10
-1.39999968E+02
 20
-1.61999954E+02
 11
-1.39999968E+02
 21
-1.16999939E+02
  0
LINE
  8
0
 62
7
 10
-1.18999983E+02
 20
-1.94380264E+02
 11
-1.18999983E+02
 21
-8.46197205E+01
  0
LINE
  8
0
 62
7
 10
-1.20499937E+02
 20
-1.14500061E+02
 11
-1.18999922E+02
 21
-1.14500061E+02
  0
LINE
  8
0
  6
CENTER
 62
2
 10
-8.52976360E+01
 20
-1.27500031E+02
 11
-1.13094908E+02
 21
-1.27500031E+02
  0
LINE
  8
0
 62
7
 10
-3.57749952E+02
 20
-2.98099991E+02
 11
-3.57749952E+02
 21
-3.23597443E+02
  0
LINE
  8
0
  6
CENTER
 62
2
 10
-3.16999922E+02
 20
-2.90607269E+02
 11
-3.16999922E+02
 21
-3.22357811E+02
  0
LINE
  8
0
 62
7
 10
-3.02999922E+02
 20
-2.98500000E+02
 11
-3.02999922E+02
 21
-3.49500000E+02
  0
LINE
  8
0
 62
7
 10
-3.07599897E+02
 20
-3.48250000E+02
 11
-3.33097395E+02
 21
-3.48250000E+02
  0
LINE
  8
0
 62
7
 10
-3.06599897E+02
 20
-3.24483841E+02
 11
-3.06599897E+02
 21
-3.49500000E+02
  0
LINE
  8
0
 62
7
 10
-3.03599897E+02
 20
-2.98500000E+02
 11
-3.03599897E+02
 21
-3.49500000E+02
  0
LINE
  8
0
 62
7
 10
-1.14999968E+02
 20
-1.06499939E+02
 11
-1.14999968E+02
 21
-1.72499954E+02
  0
LINE
  8
0
  6
CENTER
 62
2
 10
-6.47287452E+01
 20
-1.81500015E+02
 11
-1.21524473E+02
 21
-1.81500015E+02
  0
LINE
  8
0
 62
7
 10
-9.08659038E+01
 20
-1.59000069E+02
 11
-9.17319734E+01
 21
-1.57499983E+02
  0
LINE
  8
0
 62
7
 10
-8.91339550E+01
 20
-1.59000046E+02
 11
-9.08660259E+01
 21
-1.59000046E+02
  0
LINE
  8
0
 62
7
 10
-8.82677393E+01
 20
-1.57500137E+02
 11
-8.91337861E+01
 21
-1.59000183E+02
  0
LINE
  8
0
  6
CENTER
 62
2
 10
-9.81945477E+01
 20
-1.57500031E+02
 11
-8.19255505E+01
 21
-1.57500031E+02
  0
LINE
  8
0
  6
CENTER
 62
2
 10
-8.99999676E+01
 20
-1.49952271E+02
 11
-8.99999676E+01
 21
-1.64565659E+02
  0
LINE
  8
0
 62
7
 10
-9.17316774E+01
 20
-1.57500290E+02
 11
-9.08656687E+01
 21
-1.56000310E+02
  0
LINE
  8
0
 62
7
 10
-8.91339550E+01
 20
-1.56000046E+02
 11
-9.08660259E+01
 21
-1.56000046E+02
  0
LINE
  8
0
 62
7
 10
-8.82678831E+01
 20
-1.57500110E+02
 11
-8.91339223E+01
 21
-1.56000077E+02
  0
LINE
  8
0
  6
CENTER
 62
2
 10
-2.02798338E+02
 20
-1.39500000E+02
 11
-4.04800251E+01
 21
-1.39500000E+02
  0
LINE
  8
0
  6
CENTER
 62
2
 10
-2.02243315E+02
 20
-3.49500000E+02
 11
-4.04800250E+01
 21
-3.49500000E+02
  0
LINE
  8
0
 62
2
 10
-7.71410456E+01
 20
-2.02998750E+02
 11
-7.19976794E+00
 21
-8.18569038E+01
  0
LINE
  8
0
  6
CENTER
 62
2
 10
-9.09999981E+01
 20
-9.74999695E+01
 11
-1.21524473E+02
 21
-9.74999695E+01
  0
LINE
  8
0
 62
7
 10
-8.29999981E+01
 20
-1.06119611E+02
 11
-8.29999981E+01
 21
-1.95500000E+02
  0
LINE
  8
0
 62
2
 10
-4.46821367E+01
 20
-3.56778271E+02
 11
-7.19976794E+00
 21
-2.91856904E+02
  0
LINE
  8
0
 62
7
 10
2.73170589E+02
 20
-3.12000023E+02
 11
3.28500063E+02
 21
-3.12000023E+02
  0
LINE
  8
0
 62
7
 10
2.78366759E+02
 20
-3.02999992E+02
 11
3.28500063E+02
 21
-3.02999992E+02
  0
LINE
  8
0
 62
7
 10
3.55000063E+02
 20
-2.95999985E+02
 11
3.48000063E+02
 21
-2.95999985E+02
  0
LINE
  8
0
  6
CENTER
 62
2
 10
2.75768683E+02
 20
-3.07499992E+02
 11
3.28500063E+02
 21
-3.07499992E+02
  0
LINE
  8
0
  6
CENTER
 62
2
 10
4.74243410E+02
 20
-3.49500000E+02
 11
2.51519967E+02
 21
-3.49500000E+02
  0
LINE
  8
0
  6
CENTER
 62
2
 10
3.70000002E+02
 20
-3.30018875E+02
 11
3.70000002E+02
 21
-2.91047379E+02
  0
LINE
  8
0
 62
7
 10
3.93000032E+02
 20
-3.49500000E+02
 11
3.93000032E+02
 21
-3.25000008E+02
  0
LINE
  8
0
 62
7
 10
4.11500032E+02
 20
-3.26499985E+02
 11
4.07000063E+02
 21
-3.26499985E+02
  0
LINE
  8
0
 62
7
 10
4.12000063E+02
 20
-3.49500000E+02
 11
4.12000063E+02
 21
-3.27000000E+02
  0
LINE
  8
0
 62
7
 10
4.06517522E+02
 20
-3.25472049E+02
 11
3.93000096E+02
 21
-3.25000010E+02
  0
LINE
  8
0
 62
7
 10
3.90508726E+02
 20
-2.94119835E+02
 11
3.55000066E+02
 21
-2.93500029E+02
  0
LINE
  8
0
 62
7
 10
3.87000048E+02
 20
-2.94058563E+02
 11
3.87000048E+02
 21
-2.93500000E+02
  0
LINE
  8
0
 62
7
 10
3.87000048E+02
 20
-2.93500000E+02
 11
3.55000032E+02
 21
-2.93500000E+02
  0
LINE
  8
0
 62
7
 10
3.92500032E+02
 20
-3.24500000E+02
 11
3.91000048E+02
 21
-3.24500000E+02
  0
LINE
  8
0
 62
7
 10
3.55000063E+02
 20
-3.49500000E+02
 11
3.55000063E+02
 21
-2.93500046E+02
  0
LINE
  8
0
 62
7
 10
3.91000048E+02
 20
-3.49500000E+02
 11
3.91000048E+02
 21
-2.94619720E+02
  0
LINE
  8
0
 62
7
 10
4.26000063E+02
 20
-3.49500000E+02
 11
4.26000063E+02
 21
-3.36500008E+02
  0
LINE
  8
0
 62
7
 10
4.66000093E+02
 20
-3.49500000E+02
 11
4.66000093E+02
 21
-3.38000305E+02
  0
LINE
  8
0
 62
7
 10
4.29000063E+02
 20
-3.49500000E+02
 11
4.29000063E+02
 21
-3.36500008E+02
  0
LINE
  8
0
 62
7
 10
4.64500124E+02
 20
-3.36500008E+02
 11
4.54500048E+02
 21
-3.36500008E+02
  0
LINE
  8
0
 62
7
 10
4.64500063E+02
 20
-3.49500000E+02
 11
4.64500063E+02
 21
-3.36500008E+02
  0
LINE
  8
0
 62
7
 10
4.65999936E+02
 20
-3.38000187E+02
 11
4.64499924E+02
 21
-3.36500175E+02
  0
LINE
  8
0
 62
2
 10
4.65320131E+02
 20
-3.37320015E+02
 11
4.54500048E+02
 21
-3.37320015E+02
  0
LINE
  8
0
 62
7
 10
4.22000032E+02
 20
-3.34499962E+02
 11
4.12000063E+02
 21
-3.34499962E+02
  0
LINE
  8
0
 62
7
 10
4.22000032E+02
 20
-3.42016624E+02
 11
4.22000032E+02
 21
-3.34499962E+02
  0
LINE
  8
0
 62
7
 10
4.26000039E+02
 20
-3.36500023E+02
 11
4.22000025E+02
 21
-3.34499978E+02
  0
LINE
  8
0
 62
7
 10
4.16000063E+02
 20
-3.49500000E+02
 11
4.16000063E+02
 21
-3.42016624E+02
  0
LINE
  8
0
 62
7
 10
4.22000032E+02
 20
-3.42016624E+02
 11
4.16000063E+02
 21
-3.42016624E+02
  0
LINE
  8
0
 62
7
 10
4.26000033E+02
 20
-3.49500007E+02
 11
4.22000017E+02
 21
-3.42016638E+02
  0
LINE
  8
0
 62
2
 10
4.16000064E+02
 20
-3.42016630E+02
 11
4.21000070E+02
 21
-3.49500000E+02
  0
LINE
  8
0
 62
2
 10
4.21000033E+02
 20
-3.49500000E+02
 11
4.23777821E+02
 21
-3.45342561E+02
  0
LINE
  8
0
 62
7
 10
4.29000063E+02
 20
-3.37320015E+02
 11
4.26000063E+02
 21
-3.37320015E+02
  0
ARC
  8
0
 62
7
 10
4.11500032E+02
 20
-3.27000000E+02
 40
5.00000000E-01
 50
3.59999981E+02
 51
8.99999704E+01
  0
ARC
  8
0
 62
7
 10
4.06500032E+02
 20
-3.25971725E+02
 40
5.00000000E-01
 50
3.59999981E+02
 51
8.79991892E+01
  0
ARC
  8
0
 62
7
 10
3.90500032E+02
 20
-2.94619720E+02
 40
5.00000000E-01
 50
3.59999981E+02
 51
8.89996755E+01
  0
ARC
  8
0
 62
7
 10
3.92500032E+02
 20
-3.24999992E+02
 40
5.00000000E-01
 50
3.59999981E+02
 51
8.99999704E+01
  0
ARC
  8
0
 62
7
 10
4.29000063E+02
 20
-3.49499985E+02
 40
1.50000248E+01
 50
1.50073400E+02
 51
1.80000058E+02
  0
ARC
  8
0
 62
4
 10
4.45299093E+02
 20
-3.33911545E+02
 40
9.20095253E+00
 50
3.25615743E+02
 51
3.43842738E+01
  0
ARC
  8
0
 62
4
 10
4.20107782E+02
 20
-3.49500000E+02
 40
3.43922653E+01
 50
0.00000000E+00
 51
1.75879507E+01
  0
ARC
  8
0
 62
4
 10
4.49701002E+02
 20
-3.33911545E+02
 40
9.20095253E+00
 50
1.45615762E+02
 51
2.14384293E+02
  0
ARC
  8
0
 62
4
 10
4.74892313E+02
 20
-3.49500000E+02
 40
3.43922653E+01
 50
1.62412085E+02
 51
1.80000000E+02
  0
LINE
  8
0
 62
4
 10
4.40500048E+02
 20
-3.31500000E+02
 11
4.40500048E+02
 21
-3.49500000E+02
  0
LINE
  8
0
 62
4
 10
4.40500047E+02
 20
-3.31499988E+02
 11
4.42107728E+02
 21
-3.28715366E+02
  0
LINE
  8
0
 62
4
 10
4.54500057E+02
 20
-3.31500001E+02
 11
4.52892378E+02
 21
-3.28715392E+02
  0
LINE
  8
0
 62
4
 10
4.52892351E+02
 20
-3.28715393E+02
 11
4.42107744E+02
 21
-3.28715393E+02
  0
LINE
  8
0
 62
4
 10
4.52892351E+02
 20
-3.39107697E+02
 11
4.42107744E+02
 21
-3.39107697E+02
  0
LINE
  8
0
 62
4
 10
4.54500048E+02
 20
-3.31500000E+02
 11
4.54500048E+02
 21
-3.49500000E+02
  0
LINE
  8
0
 62
7
 10
4.40500048E+02
 20
-3.36500008E+02
 11
4.29000063E+02
 21
-3.36500008E+02
  0
LINE
  8
0
 62
2
 10
4.40500048E+02
 20
-3.37320015E+02
 11
4.29000063E+02
 21
-3.37320015E+02
  0
LINE
  8
0
 62
7
 10
4.07000063E+02
 20
-3.49500000E+02
 11
4.07000063E+02
 21
-3.25936745E+02
  0
LINE
  8
0
 62
2
 10
2.47317856E+02
 20
-3.56778271E+02
 11
2.84800224E+02
 21
-2.91856904E+02
  0
LINE
  8
0
 62
7
 10
3.09000063E+02
 20
-2.95999985E+02
 11
2.82408216E+02
 21
-2.95999985E+02
  0
LINE
  8
0
 62
7
 10
3.43500063E+02
 20
-3.02999992E+02
 11
3.55000063E+02
 21
-3.02999992E+02
  0
LINE
  8
0
 62
7
 10
3.43500063E+02
 20
-3.12000023E+02
 11
3.55000063E+02
 21
-3.12000023E+02
  0
LINE
  8
0
  6
CENTER
 62
2
 10
3.43500063E+02
 20
-3.07499992E+02
 11
3.93524538E+02
 21
-3.07499992E+02
  0
TEXT
  8
0
 10
-7.72146873E+01
 20
3.54316712E+02
 40
9.00000000E+00
  1
STRETCH LINE
 41
1.05263158E+00
  7
MONOTXT
  0
LINE
  8
0
 62
7
 10
5.74500000E+02
 20
4.00500000E+02
 11
5.74500000E+02
 21
-4.00500000E+02
  0
LINE
  8
0
 62
7
 10
-5.64500000E+02
 20
4.00500000E+02
 11
5.74500000E+02
 21
4.00500000E+02
  0
LINE
  8
0
 62
7
 10
-5.64500000E+02
 20
-4.00500000E+02
 11
5.74500000E+02
 21
-4.00500000E+02
  0
LINE
  8
0
 62
7
 10
-5.64500000E+02
 20
4.00500000E+02
 11
-5.64500000E+02
 21
-4.00500000E+02
  0
LINE
  8
0
 62
7
 10
-5.64500000E+02
 20
3.70500000E+02
 11
-3.34500000E+02
 21
3.70500000E+02
  0
LINE
  8
0
 62
7
 10
3.44500000E+02
 20
3.70500000E+02
 11
5.74500000E+02
 21
3.70500000E+02
  0
LINE
  8
0
 62
7
 10
3.44500000E+02
 20
-3.70500000E+02
 11
5.74500000E+02
 21
-3.70500000E+02
  0
LINE
  8
0
 62
7
 10
3.44500000E+02
 20
-3.70500000E+02
 11
3.44500000E+02
 21
-4.00500000E+02
  0
LINE
  8
0
 62
7
 10
3.44500000E+02
 20
4.00500000E+02
 11
3.44500000E+02
 21
3.70500000E+02
  0
LINE
  8
0
 62
7
 10
-3.34500000E+02
 20
4.00500000E+02
 11
-3.34500000E+02
 21
3.70500000E+02
  0
TEXT
  8
0
 62
7
 10
-5.37179687E+02
 20
3.34250000E+02
 40
1.25000000E+01
  1
MODEL:DDAE100*75
 41
1.00000015E+00
  7
MONOTXT
  0
TEXT
  8
0
 62
7
 10
4.11285149E+02
 20
3.79250000E+02
 40
1.25000000E+01
  1
Ver. 1.0
 41
1.08108125E+00
  7
MONOTXT
  0
TEXT
  8
0
 62
7
 10
3.50070624E+02
 20
-3.94500000E+02
 40
1.80000000E+01
  1
KOGANEI CORP.
 41
1.04838710E+00
  7
MONOTXT
  0
TEXT
  8
0
 62
7
 10
-5.53964859E+02
 20
3.79250000E+02
 40
1.25000000E+01
  1
NEW DYNA CYLINDER
 41
1.07594953E+00
  7
MONOTXT
  0
ENDSEC
  0
EOF
