  0
SECTION
  2
HEADER
  9
$ACADVER
  1
AC1003
  9
$EXTMIN
 10
-3.99780226E+02
 20
-2.76750000E+02
  9
$EXTMAX
 10
3.99799805E+02
 20
2.76250000E+02
  9
$LIMMIN
 10
-3.99781226E+02
 20
-2.76751000E+02
  9
$LIMMAX
 10
3.99800805E+02
 20
2.76251000E+02
  9
$SNAPUNIT
 10
1
 20
1
  9
$SNAPBASE
 10
0
 20
0
  9
$GRIDMODE
 70
0
  9
$GRIDUNIT
 10
0
 20
0
  9
$LTSCALE
 40
1.33263339E+01
  9
$TEXTSIZE
 40
3.2
  9
$DIMTAD
 70
0
  9
$LUNITS
 70
2
  9
$LUPREC
 70
4
  9
$FILLETRAD
 40
0
  9
$AUNITS
 70
0
  9
$AUPREC
 70
0
  0
ENDSEC
  0
SECTION
  2
TABLES
  0
TABLE
  2
LTYPE
 70
2
  0
LTYPE
  2
CONTINUOUS
 70
64
  3
Solid-Line
 72
65
 73
0
 40
0
  0
LTYPE
  2
DASHED
 70
64
  3
DASHED
 72
65
 73
2
 40
.75
 49
.5
 49
-.25
  0
LTYPE
  2
HIDDEN
 70
64
  3
HIDDEN
 72
65
 73
2
 40
.375
 49
.25
 49
-.125
  0
LTYPE
  2
CENTER
 70
64
  3
CENTER
 72
65
 73
4
 40
2
 49
1.25
 49
-.25
 49
.25
 49
-.25
  0
LTYPE
  2
PHANTOM
 70
64
  3
PHANTOM
 72
65
 73
6
 40
2.5
 49
1.25
 49
-.25
 49
.25
 49
-.25
 49
.25
 49
-.25
  0
ENDTAB
  0
TABLE
  2
LAYER
 70
1
  0
LAYER
  2
1
 70
0
 62
7
  6
CONTINUOUS
 0
ENDTAB
  0
TABLE
  2
STYLE
 70
2
  0
STYLE
  2
MONOTXT
 70
0
 40
0
 41
1
 50
0
 71
0
 42
.2
  3
monotxt
  0
STYLE
  2
BIGFONT
 70
0
 40
0
 41
1
 50
0
 71
0
 42
.2
  3
txt
  4
bigfont
  0
ENDTAB
  0
ENDSEC
  0
SECTION
  2
ENTITIES
  0
LINE
  8
0
  6
PHANTOM
 10
-4.92500000E+01
 20
1.48945349E+02
 11
-4.92500000E+01
 21
4.71367846E+01
  0
LINE
  8
0
  6
CENTER
 62
2
 10
-1.96023193E+02
 20
8.83694647E+01
 11
1.32373829E+02
 21
8.83694647E+01
  0
LINE
  8
0
 62
7
 10
-1.36749969E+02
 20
6.93694647E+01
 11
-1.35250000E+02
 21
6.93694647E+01
  0
LINE
  8
0
 62
7
 10
-1.49750000E+02
 20
7.13694647E+01
 11
-1.45241455E+02
 21
7.13694647E+01
  0
LINE
  8
0
 62
7
 10
-1.45250000E+02
 20
7.13694647E+01
 11
-1.45250000E+02
 21
7.13609198E+01
  0
LINE
  8
0
 62
7
 10
-1.45008755E+02
 20
7.11109809E+01
 11
-1.37250026E+02
 21
7.08400401E+01
  0
LINE
  8
0
 62
7
 10
1.75001526E+00
 20
6.13694952E+01
 11
-1.04250000E+02
 21
6.13694952E+01
  0
LINE
  8
0
 62
7
 10
-1.30250000E+02
 20
5.73694570E+01
 11
-1.04250000E+02
 21
5.73694570E+01
  0
LINE
  8
0
 62
7
 10
-1.35249999E+02
 20
5.81549569E+01
 11
-1.05252850E+02
 21
5.73694540E+01
  0
LINE
  8
0
 62
7
 10
-1.30250000E+02
 20
5.80240591E+01
 11
-1.30250000E+02
 21
5.73694570E+01
  0
LINE
  8
0
 62
7
 10
4.67499924E+01
 20
7.32194708E+01
 11
4.87500000E+01
 21
7.32194708E+01
  0
LINE
  8
0
 62
2
 10
1.23749980E+02
 20
8.49054015E+01
 11
1.31749982E+02
 21
9.18336535E+01
  0
LINE
  8
0
 62
7
 10
1.23750020E+02
 20
9.38694570E+01
 11
1.31750021E+02
 21
9.38694570E+01
  0
LINE
  8
0
  6
CENTER
 62
2
 10
-1.17250000E+02
 20
1.02136173E+02
 11
-1.17250000E+02
 21
1.22174930E+02
  0
LINE
  8
0
 62
7
 10
2.77500076E+01
 20
5.73694570E+01
 11
1.75001526E+00
 21
5.73694570E+01
  0
LINE
  8
0
 62
7
 10
3.27500280E+01
 20
5.81549628E+01
 11
2.75274985E+00
 21
5.73694565E+01
  0
LINE
  8
0
 62
7
 10
2.77500000E+01
 20
5.80240591E+01
 11
2.77500000E+01
 21
5.73694570E+01
  0
LINE
  8
0
  6
CENTER
 62
2
 10
1.47500000E+01
 20
1.01055240E+02
 11
1.47500000E+01
 21
1.22174930E+02
  0
LINE
  8
0
 62
7
 10
3.27500000E+01
 20
5.73694570E+01
 11
4.67499924E+01
 21
5.73694570E+01
  0
LINE
  8
0
 62
7
 10
1.23750020E+02
 20
9.18335760E+01
 11
1.23750020E+02
 21
8.49053228E+01
  0
LINE
  8
0
 62
7
 10
1.21750022E+02
 20
9.48694647E+01
 11
1.23750020E+02
 21
9.48694647E+01
  0
LINE
  8
0
 62
7
 10
1.21750022E+02
 20
8.18694570E+01
 11
1.23750020E+02
 21
8.18694570E+01
  0
LINE
  8
0
  6
CENTER
 62
2
 10
4.88994408E+01
 20
6.48694799E+01
 11
-1.37353455E+02
 21
6.48694799E+01
  0
LINE
  8
0
 62
2
 10
6.17499924E+01
 20
8.11894567E+01
 11
1.21570030E+02
 21
8.11894567E+01
  0
LINE
  8
0
 62
7
 10
1.20750007E+02
 20
9.63694315E+01
 11
1.21750008E+02
 21
9.53694304E+01
  0
LINE
  8
0
 62
7
 10
6.17499924E+01
 20
8.03694570E+01
 11
1.20750023E+02
 21
8.03694570E+01
  0
LINE
  8
0
 62
7
 10
1.21750012E+02
 20
9.53694570E+01
 11
1.21750012E+02
 21
8.13694418E+01
  0
LINE
  8
0
 62
7
 10
1.20750028E+02
 20
9.63694570E+01
 11
1.20750028E+02
 21
8.03694494E+01
  0
LINE
  8
0
 62
7
 10
1.21750035E+02
 20
8.13694538E+01
 11
1.20750023E+02
 21
8.03694531E+01
  0
LINE
  8
0
 62
7
 10
1.23750020E+02
 20
9.48694570E+01
 11
1.23750020E+02
 21
9.38694418E+01
  0
LINE
  8
0
 62
7
 10
1.31750011E+02
 20
9.38694418E+01
 11
1.31750011E+02
 21
8.28694570E+01
  0
LINE
  8
0
 62
2
 10
1.23749993E+02
 20
9.18336720E+01
 11
1.31749995E+02
 21
8.49054200E+01
  0
LINE
  8
0
 62
7
 10
1.23750020E+02
 20
8.28694570E+01
 11
1.23750020E+02
 21
8.18694494E+01
  0
LINE
  8
0
 62
7
 10
1.23750020E+02
 20
8.28694723E+01
 11
1.31750021E+02
 21
8.28694723E+01
  0
LINE
  8
0
 62
7
 10
1.23750020E+02
 20
9.18335913E+01
 11
1.31750021E+02
 21
9.18335913E+01
  0
LINE
  8
0
 62
7
 10
1.23750020E+02
 20
8.49053381E+01
 11
1.31750021E+02
 21
8.49053381E+01
  0
LINE
  8
0
 62
7
 10
4.87500000E+01
 20
7.45194586E+01
 11
6.03932304E+01
 21
7.45194586E+01
  0
LINE
  8
0
 62
7
 10
6.03931980E+01
 20
7.45194871E+01
 11
6.17499637E+01
 21
7.68694744E+01
  0
LINE
  8
0
 62
7
 10
4.87500000E+01
 20
8.14444616E+01
 11
6.03932304E+01
 21
8.14444616E+01
  0
LINE
  8
0
 62
7
 10
4.67499924E+01
 20
1.03519459E+02
 11
4.87500000E+01
 21
1.03519459E+02
  0
LINE
  8
0
 62
7
 10
-1.45250000E+02
 20
7.13694647E+01
 11
-1.45250000E+02
 21
1.05369457E+02
  0
LINE
  8
0
 62
7
 10
-1.30250000E+02
 20
1.18714863E+02
 11
-1.30250000E+02
 21
1.19369465E+02
  0
LINE
  8
0
 62
7
 10
-1.35249994E+02
 20
1.18583963E+02
 11
-1.05252845E+02
 21
1.19369466E+02
  0
LINE
  8
0
 62
7
 10
-1.30250000E+02
 20
1.19369465E+02
 11
-1.04250000E+02
 21
1.19369465E+02
  0
LINE
  8
0
 62
7
 10
-1.04250000E+02
 20
5.73694570E+01
 11
-1.04250000E+02
 21
1.19369465E+02
  0
LINE
  8
0
 62
7
 10
1.75001526E+00
 20
1.15369434E+02
 11
-4.75000000E+00
 21
1.15369434E+02
  0
LINE
  8
0
 62
7
 10
-1.35250000E+02
 20
5.81550482E+01
 11
-1.35250000E+02
 21
1.18583881E+02
  0
LINE
  8
0
 62
7
 10
-1.37250000E+02
 20
6.98694570E+01
 11
-1.37250000E+02
 21
1.06869465E+02
  0
LINE
  8
0
 62
7
 10
-1.45008750E+02
 20
1.05627937E+02
 11
-1.37250052E+02
 21
1.05898877E+02
  0
LINE
  8
0
 62
7
 10
-1.45250000E+02
 20
1.05369457E+02
 11
-1.45250000E+02
 21
1.05378002E+02
  0
LINE
  8
0
 62
7
 10
-1.49750000E+02
 20
1.05369457E+02
 11
-1.45241455E+02
 21
1.05369457E+02
  0
LINE
  8
0
 62
7
 10
-1.36749969E+02
 20
1.07369457E+02
 11
-1.35250000E+02
 21
1.07369457E+02
  0
LINE
  8
0
 62
7
 10
-1.50250000E+02
 20
7.18694952E+01
 11
-1.50250000E+02
 21
1.04869427E+02
  0
LINE
  8
0
 62
7
 10
3.27500000E+01
 20
5.73694570E+01
 11
3.27500000E+01
 21
1.19369465E+02
  0
LINE
  8
0
 62
7
 10
1.75001526E+00
 20
5.73694570E+01
 11
1.75001526E+00
 21
1.19369465E+02
  0
LINE
  8
0
 62
7
 10
2.77500076E+01
 20
1.19369465E+02
 11
1.75001526E+00
 21
1.19369465E+02
  0
LINE
  8
0
 62
7
 10
3.27500305E+01
 20
1.18583957E+02
 11
2.75274476E+00
 21
1.19369463E+02
  0
LINE
  8
0
 62
7
 10
2.77500000E+01
 20
1.18714863E+02
 11
2.77500000E+01
 21
1.19369465E+02
  0
LINE
  8
0
 62
7
 10
3.27500000E+01
 20
1.19369465E+02
 11
4.67499924E+01
 21
1.19369465E+02
  0
LINE
  8
0
  6
CENTER
 62
2
 10
4.88994408E+01
 20
1.11869449E+02
 11
-1.37353455E+02
 21
1.11869449E+02
  0
LINE
  8
0
 62
2
 10
6.17499924E+01
 20
9.55494650E+01
 11
1.21570030E+02
 21
9.55494650E+01
  0
LINE
  8
0
 62
7
 10
6.17499924E+01
 20
9.63694647E+01
 11
1.20750023E+02
 21
9.63694647E+01
  0
LINE
  8
0
 62
7
 10
4.67500000E+01
 20
5.73694570E+01
 11
4.67500000E+01
 21
1.19369465E+02
  0
LINE
  8
0
 62
7
 10
4.87499809E+01
 20
7.32194479E+01
 11
4.87499809E+01
 21
1.03519474E+02
  0
LINE
  8
0
 62
7
 10
4.87500000E+01
 20
1.02219463E+02
 11
6.03932304E+01
 21
1.02219463E+02
  0
LINE
  8
0
 62
7
 10
6.17500038E+01
 20
7.68694342E+01
 11
6.17500038E+01
 21
9.98694876E+01
  0
LINE
  8
0
 62
7
 10
6.03931963E+01
 20
1.02219437E+02
 11
6.17499620E+01
 21
9.98694492E+01
  0
LINE
  8
0
 62
7
 10
4.87500000E+01
 20
9.52944601E+01
 11
6.03932304E+01
 21
9.52944601E+01
  0
LINE
  8
0
 62
7
 10
-1.60249969E+02
 20
9.73694647E+01
 11
-1.60249969E+02
 21
7.93694723E+01
  0
LINE
  8
0
 62
7
 10
-1.57250076E+02
 20
9.36373175E+01
 11
-1.53250015E+02
 21
9.36373175E+01
  0
LINE
  8
0
 62
7
 10
-1.57250076E+02
 20
8.31016577E+01
 11
-1.53250015E+02
 21
8.31016577E+01
  0
LINE
  8
0
 62
7
 10
-1.57249985E+02
 20
7.83694799E+01
 11
-1.57249985E+02
 21
8.31016577E+01
  0
LINE
  8
0
 62
2
 10
-1.59283647E+02
 20
9.21829460E+01
 11
-1.53249997E+02
 21
8.31016755E+01
  0
LINE
  8
0
 62
2
 10
-1.59283664E+02
 20
8.45559920E+01
 11
-1.53249983E+02
 21
9.36373102E+01
  0
LINE
  8
0
 62
7
 10
-1.57250076E+02
 20
7.83694799E+01
 11
-1.50250046E+02
 21
7.83694799E+01
  0
LINE
  8
0
 62
7
 10
-1.57249985E+02
 20
9.83694952E+01
 11
-1.57249985E+02
 21
9.36373175E+01
  0
LINE
  8
0
 62
7
 10
-1.53250015E+02
 20
8.31016577E+01
 11
-1.53250015E+02
 21
9.36373175E+01
  0
LINE
  8
0
 62
7
 10
-1.63249969E+02
 20
7.93694723E+01
 11
-1.63249969E+02
 21
9.73694647E+01
  0
LINE
  8
0
 62
7
 10
-1.92249969E+02
 20
8.08694952E+01
 11
-1.92249969E+02
 21
9.58693121E+01
  0
LINE
  8
0
 62
7
 10
-1.90749969E+02
 20
7.93694723E+01
 11
-1.90749969E+02
 21
9.73694647E+01
  0
LINE
  8
0
 62
7
 10
-1.90749908E+02
 20
9.73694647E+01
 11
-1.83249969E+02
 21
9.73694647E+01
  0
LINE
  8
0
 62
2
 10
-1.91569916E+02
 20
9.65494573E+01
 11
-1.83249969E+02
 21
9.65494573E+01
  0
LINE
  8
0
 62
7
 10
-1.92249918E+02
 20
9.58693390E+01
 11
-1.90749872E+02
 21
9.73693392E+01
  0
LINE
  8
0
 62
7
 10
-1.90749908E+02
 20
7.93694723E+01
 11
-1.83249969E+02
 21
7.93694723E+01
  0
LINE
  8
0
 62
2
 10
-1.91569916E+02
 20
8.01894644E+01
 11
-1.83249969E+02
 21
8.01894644E+01
  0
LINE
  8
0
 62
7
 10
-1.92249997E+02
 20
8.08695286E+01
 11
-1.90749962E+02
 21
7.93695391E+01
  0
LINE
  8
0
 62
7
 10
-1.57250076E+02
 20
9.83694494E+01
 11
-1.50250046E+02
 21
9.83694494E+01
  0
LINE
  8
0
 62
7
 10
-1.60249974E+02
 20
9.73694637E+01
 11
-1.57249986E+02
 21
9.83694496E+01
  0
LINE
  8
0
 62
7
 10
-1.60249953E+02
 20
9.14918991E+01
 11
-1.57249961E+02
 21
9.36373053E+01
  0
LINE
  8
0
 62
7
 10
-1.60249966E+02
 20
8.52470048E+01
 11
-1.57249989E+02
 21
8.31016553E+01
  0
LINE
  8
0
 62
7
 10
-1.60249976E+02
 20
7.93694742E+01
 11
-1.57249990E+02
 21
7.83694814E+01
  0
LINE
  8
0
 62
7
 10
-1.63249969E+02
 20
9.65494573E+01
 11
-1.60249969E+02
 21
9.65494573E+01
  0
LINE
  8
0
 62
7
 10
-1.63249969E+02
 20
8.01894644E+01
 11
-1.60249969E+02
 21
8.01894644E+01
  0
ARC
  8
0
 62
7
 10
-1.49750000E+02
 20
7.18694952E+01
 40
5.00000000E-01
 50
1.79999977E+02
 51
2.69999974E+02
  0
ARC
  8
0
 62
7
 10
-1.45000000E+02
 20
7.13609198E+01
 40
2.50000000E-01
 50
1.79999977E+02
 51
2.68001132E+02
  0
ARC
  8
0
 62
7
 10
-1.36750000E+02
 20
6.98694570E+01
 40
5.00000000E-01
 50
1.79999977E+02
 51
2.69999974E+02
  0
ARC
  8
0
 62
7
 10
5.70320625E+01
 20
7.81336401E+01
 40
4.71794319E+00
 50
3.30000026E+02
 51
4.45676912E+01
  0
ARC
  8
0
 62
7
 10
4.33988190E+01
 20
8.83694647E+01
 40
1.83511696E+01
 50
3.37829735E+02
 51
0.00000000E+00
  0
ARC
  8
0
 62
7
 10
-1.36750000E+02
 20
1.06869465E+02
 40
5.00000000E-01
 50
9.00000369E+01
 51
1.80000019E+02
  0
ARC
  8
0
 62
7
 10
-1.45000000E+02
 20
1.05378002E+02
 40
2.50000000E-01
 50
9.19988643E+01
 51
1.80000019E+02
  0
ARC
  8
0
 62
7
 10
-1.49750000E+02
 20
1.04869427E+02
 40
5.00000000E-01
 50
9.00000369E+01
 51
1.80000019E+02
  0
ARC
  8
0
 62
7
 10
5.70320625E+01
 20
9.86052893E+01
 40
4.71794319E+00
 50
3.15432308E+02
 51
2.99999735E+01
  0
ARC
  8
0
 62
7
 10
4.33988190E+01
 20
8.83694647E+01
 40
1.83511696E+01
 50
0.00000000E+00
 51
2.21702647E+01
  0
ARC
  8
0
 62
7
 10
-1.61749969E+02
 20
8.83694647E+01
 40
9.99998474E+00
 50
0.00000000E+00
 51
3.17883527E+01
  0
ARC
  8
0
 62
7
 10
-1.61749969E+02
 20
8.83694647E+01
 40
9.99998474E+00
 50
3.28211647E+02
 51
0.00000000E+00
  0
LINE
  8
0
 62
4
 10
-1.82044198E+02
 20
7.27810074E+01
 11
-1.73455741E+02
 21
7.27810074E+01
  0
LINE
  8
0
 62
4
 10
-1.82044198E+02
 20
8.05752360E+01
 11
-1.73455741E+02
 21
8.05752360E+01
  0
LINE
  8
0
 62
4
 10
-1.72249969E+02
 20
7.48694647E+01
 11
-1.73455741E+02
 21
7.27810074E+01
  0
LINE
  8
0
 62
4
 10
-1.83249969E+02
 20
7.48694647E+01
 11
-1.82044198E+02
 21
7.27810074E+01
  0
ARC
  8
0
 62
4
 10
-1.76349248E+02
 20
7.66781217E+01
 40
6.90072132E+00
 50
1.45615752E+02
 51
2.14384248E+02
  0
ARC
  8
0
 62
4
 10
-1.79150691E+02
 20
7.66781217E+01
 40
6.90072132E+00
 50
3.25615752E+02
 51
3.43842480E+01
  0
LINE
  8
0
 62
4
 10
-1.82044198E+02
 20
1.03957922E+02
 11
-1.73455741E+02
 21
1.03957922E+02
  0
LINE
  8
0
 62
4
 10
-1.82044198E+02
 20
9.61636933E+01
 11
-1.73455741E+02
 21
9.61636933E+01
  0
LINE
  8
0
 62
4
 10
-1.82044198E+02
 20
1.03957922E+02
 11
-1.83249969E+02
 21
1.01869465E+02
  0
LINE
  8
0
 62
4
 10
-1.73455741E+02
 20
1.03957922E+02
 11
-1.72249969E+02
 21
1.01869465E+02
  0
ARC
  8
0
 62
4
 10
-1.76349248E+02
 20
1.00060808E+02
 40
6.90072132E+00
 50
1.45615752E+02
 51
2.14384248E+02
  0
ARC
  8
0
 62
4
 10
-1.79150691E+02
 20
1.00060808E+02
 40
6.90072132E+00
 50
3.25615752E+02
 51
3.43842480E+01
  0
ARC
  8
0
 62
4
 10
-1.98044198E+02
 20
8.83694647E+01
 40
2.57942282E+01
 50
3.42412046E+02
 51
1.75879541E+01
  0
ARC
  8
0
 62
4
 10
-1.57455741E+02
 20
8.83694647E+01
 40
2.57942282E+01
 50
1.62412046E+02
 51
1.97587954E+02
  0
LINE
  8
0
 62
4
 10
-1.83249969E+02
 20
7.48694647E+01
 11
-1.83249969E+02
 21
1.01869465E+02
  0
LINE
  8
0
 62
4
 10
-1.72249969E+02
 20
7.48694647E+01
 11
-1.72249969E+02
 21
1.01869465E+02
  0
LINE
  8
0
 62
7
 10
-1.72249969E+02
 20
9.73694647E+01
 11
-1.63249969E+02
 21
9.73694647E+01
  0
LINE
  8
0
 62
2
 10
-1.72249969E+02
 20
9.65494573E+01
 11
-1.63249969E+02
 21
9.65494573E+01
  0
LINE
  8
0
 62
7
 10
-1.72249969E+02
 20
7.93694723E+01
 11
-1.63249969E+02
 21
7.93694723E+01
  0
LINE
  8
0
 62
2
 10
-1.72249969E+02
 20
8.01894644E+01
 11
-1.63249969E+02
 21
8.01894644E+01
  0
LINE
  8
0
 62
7
 10
1.75001526E+00
 20
1.14519443E+02
 11
-4.75000000E+00
 21
1.14519443E+02
  0
LINE
  8
0
 62
7
 10
1.75001526E+00
 20
1.09219456E+02
 11
-1.97500000E+01
 21
1.09219456E+02
  0
LINE
  8
0
 62
7
 10
1.75001526E+00
 20
6.75194738E+01
 11
-1.04249985E+02
 21
6.75194738E+01
  0
LINE
  8
0
 62
7
 10
1.75001526E+00
 20
6.22194860E+01
 11
-1.04249985E+02
 21
6.22194860E+01
  0
LINE
  8
0
 62
4
 10
-6.37500000E+01
 20
1.20359300E+02
 11
-6.37500000E+01
 21
1.31875887E+02
  0
LINE
  8
0
 62
6
 10
-5.54820508E+01
 20
1.15859300E+02
 11
-5.20179492E+01
 21
1.21859300E+02
  0
LINE
  8
0
 62
6
 10
-4.30178881E+01
 20
1.21859300E+02
 11
-4.64819897E+01
 21
1.15859300E+02
  0
LINE
  8
0
 62
4
 10
-3.47499390E+01
 20
1.20359300E+02
 11
-4.38839136E+01
 21
1.20359300E+02
  0
LINE
  8
0
  6
CENTER
 62
6
 10
2.50061035E-01
 20
1.18859300E+02
 11
-4.67499390E+01
 21
1.18859300E+02
  0
LINE
  8
0
 62
4
 10
-3.47499390E+01
 20
1.17359300E+02
 11
-4.56159644E+01
 21
1.17359300E+02
  0
LINE
  8
0
 62
4
 10
-7.02500000E+01
 20
1.17359300E+02
 11
-5.46160254E+01
 21
1.17359300E+02
  0
LINE
  8
0
  6
CENTER
 62
6
 10
-9.87500000E+01
 20
1.18859300E+02
 11
-5.17500000E+01
 21
1.18859300E+02
  0
LINE
  8
0
 62
4
 10
-7.02500000E+01
 20
1.20359300E+02
 11
-5.28839746E+01
 21
1.20359300E+02
  0
LINE
  8
0
 62
4
 10
-6.37500000E+01
 20
1.15369434E+02
 11
-6.37500000E+01
 21
1.17359300E+02
  0
LINE
  8
0
 62
4
 10
-9.37500000E+01
 20
1.31875887E+02
 11
-9.37500000E+01
 21
1.21176212E+02
  0
LINE
  8
0
 62
4
 10
-7.02500000E+01
 20
1.21176212E+02
 11
-7.02500000E+01
 21
1.17103771E+02
  0
LINE
  8
0
  6
CENTER
 62
6
 10
-2.87500000E+01
 20
1.07699609E+02
 11
-3.37500000E+01
 21
1.07699609E+02
  0
LINE
  8
0
  6
CENTER
 62
6
 10
-3.12500000E+01
 20
1.10199609E+02
 11
-3.12500000E+01
 21
1.05199609E+02
  0
LINE
  8
0
  6
CENTER
 62
6
 10
-2.32500000E+01
 20
1.10199609E+02
 11
-2.32500000E+01
 21
1.05199609E+02
  0
LINE
  8
0
  6
CENTER
 62
6
 10
-2.07500000E+01
 20
1.07699609E+02
 11
-2.57500000E+01
 21
1.07699609E+02
  0
LINE
  8
0
 62
4
 10
-1.97500000E+01
 20
1.30087311E+02
 11
-1.97500000E+01
 21
1.02520850E+02
  0
LINE
  8
0
 62
4
 10
-3.47500000E+01
 20
1.31875887E+02
 11
-3.47500000E+01
 21
1.02520850E+02
  0
LINE
  8
0
 62
4
 10
-4.75000000E+00
 20
1.31875887E+02
 11
-4.75000000E+00
 21
1.14260928E+02
  0
LINE
  8
0
  6
CENTER
 62
6
 10
-1.22500000E+01
 20
1.29230273E+02
 11
-1.22500000E+01
 21
1.22081079E+02
  0
LINE
  8
0
  6
CENTER
 62
6
 10
-8.67540311E+00
 20
1.25655676E+02
 11
-1.58245969E+01
 21
1.25655676E+02
  0
LINE
  8
0
 62
4
 10
-3.47500000E+01
 20
1.31875887E+02
 11
-4.75000001E+00
 21
1.31875887E+02
  0
LINE
  8
0
 62
4
 10
-3.47500000E+01
 20
1.30087311E+02
 11
-4.75000001E+00
 21
1.30087311E+02
  0
LINE
  8
0
 62
4
 10
-3.47500000E+01
 20
1.28871774E+02
 11
-1.97500000E+01
 21
1.28871774E+02
  0
LINE
  8
0
 62
4
 10
-3.35884360E+01
 20
1.12896999E+02
 11
-2.10092527E+01
 21
1.12896999E+02
  0
LINE
  8
0
 62
4
 10
-3.47500000E+01
 20
1.02520850E+02
 11
-1.97500000E+01
 21
1.02520850E+02
  0
LINE
  8
0
 62
4
 10
-1.97500000E+01
 20
1.14260928E+02
 11
-4.75000001E+00
 21
1.14260928E+02
  0
LINE
  8
0
 62
4
 10
-1.97500000E+01
 20
1.21716445E+02
 11
-4.75000001E+00
 21
1.21716445E+02
  0
LINE
  8
0
 62
4
 10
-1.97500000E+01
 20
1.21646986E+02
 11
-4.75000001E+00
 21
1.21646986E+02
  0
POLYLINE
  8
0
 62
4
 66
1
  0
VERTEX
  8
0
 62
4
 10
-1.45000000E+01
 20
1.25655676E+02
  0
VERTEX
  8
0
 62
4
 10
-1.44914381E+01
 20
1.25462555E+02
  0
VERTEX
  8
0
 62
4
 10
-1.44658174E+01
 20
1.25270903E+02
  0
VERTEX
  8
0
 62
4
 10
-1.44233331E+01
 20
1.25082180E+02
  0
VERTEX
  8
0
 62
4
 10
-1.43643084E+01
 20
1.24897822E+02
  0
VERTEX
  8
0
 62
4
 10
-1.42891925E+01
 20
1.24719231E+02
  0
VERTEX
  8
0
 62
4
 10
-1.41985572E+01
 20
1.24547767E+02
  0
VERTEX
  8
0
 62
4
 10
-1.40930921E+01
 20
1.24384735E+02
  0
VERTEX
  8
0
 62
4
 10
-1.39736000E+01
 20
1.24231376E+02
  0
VERTEX
  8
0
 62
4
 10
-1.38409903E+01
 20
1.24088856E+02
  0
VERTEX
  8
0
 62
4
 10
-1.36962721E+01
 20
1.23958261E+02
  0
VERTEX
  8
0
 62
4
 10
-1.35405470E+01
 20
1.23840585E+02
  0
VERTEX
  8
0
 62
4
 10
-1.33750000E+01
 20
1.23736722E+02
  0
VERTEX
  8
0
 62
4
 10
-1.32008911E+01
 20
1.23647463E+02
  0
VERTEX
  8
0
 62
4
 10
-1.30195453E+01
 20
1.23573489E+02
  0
VERTEX
  8
0
 62
4
 10
-1.28323429E+01
 20
1.23515361E+02
  0
VERTEX
  8
0
 62
4
 10
-1.26407084E+01
 20
1.23473522E+02
  0
VERTEX
  8
0
 62
4
 10
-1.24461004E+01
 20
1.23448290E+02
  0
VERTEX
  8
0
 62
4
 10
-1.22500000E+01
 20
1.23439859E+02
  0
VERTEX
  8
0
 62
4
 10
-1.20538996E+01
 20
1.23448290E+02
  0
VERTEX
  8
0
 62
4
 10
-1.18592916E+01
 20
1.23473522E+02
  0
VERTEX
  8
0
 62
4
 10
-1.16676572E+01
 20
1.23515361E+02
  0
VERTEX
  8
0
 62
4
 10
-1.14804547E+01
 20
1.23573489E+02
  0
VERTEX
  8
0
 62
4
 10
-1.12991089E+01
 20
1.23647463E+02
  0
VERTEX
  8
0
 62
4
 10
-1.11250000E+01
 20
1.23736722E+02
  0
VERTEX
  8
0
 62
4
 10
-1.09594530E+01
 20
1.23840585E+02
  0
VERTEX
  8
0
 62
4
 10
-1.08037279E+01
 20
1.23958261E+02
  0
VERTEX
  8
0
 62
4
 10
-1.06590097E+01
 20
1.24088856E+02
  0
VERTEX
  8
0
 62
4
 10
-1.05264000E+01
 20
1.24231376E+02
  0
VERTEX
  8
0
 62
4
 10
-1.04069079E+01
 20
1.24384735E+02
  0
VERTEX
  8
0
 62
4
 10
-1.03014428E+01
 20
1.24547767E+02
  0
VERTEX
  8
0
 62
4
 10
-1.02108075E+01
 20
1.24719231E+02
  0
VERTEX
  8
0
 62
4
 10
-1.01356916E+01
 20
1.24897822E+02
  0
VERTEX
  8
0
 62
4
 10
-1.00766669E+01
 20
1.25082180E+02
  0
VERTEX
  8
0
 62
4
 10
-1.00341826E+01
 20
1.25270903E+02
  0
VERTEX
  8
0
 62
4
 10
-1.00085619E+01
 20
1.25462555E+02
  0
VERTEX
  8
0
 62
4
 10
-1.00000000E+01
 20
1.25655676E+02
  0
VERTEX
  8
0
 62
4
 10
-1.00085619E+01
 20
1.25848797E+02
  0
VERTEX
  8
0
 62
4
 10
-1.00341826E+01
 20
1.26040449E+02
  0
VERTEX
  8
0
 62
4
 10
-1.00766669E+01
 20
1.26229172E+02
  0
VERTEX
  8
0
 62
4
 10
-1.01356916E+01
 20
1.26413530E+02
  0
VERTEX
  8
0
 62
4
 10
-1.02108075E+01
 20
1.26592121E+02
  0
VERTEX
  8
0
 62
4
 10
-1.03014428E+01
 20
1.26763585E+02
  0
VERTEX
  8
0
 62
4
 10
-1.04069079E+01
 20
1.26926617E+02
  0
VERTEX
  8
0
 62
4
 10
-1.05264000E+01
 20
1.27079976E+02
  0
VERTEX
  8
0
 62
4
 10
-1.06590097E+01
 20
1.27222496E+02
  0
VERTEX
  8
0
 62
4
 10
-1.08037279E+01
 20
1.27353091E+02
  0
VERTEX
  8
0
 62
4
 10
-1.09594530E+01
 20
1.27470767E+02
  0
VERTEX
  8
0
 62
4
 10
-1.11250000E+01
 20
1.27574630E+02
  0
VERTEX
  8
0
 62
4
 10
-1.12991089E+01
 20
1.27663889E+02
  0
VERTEX
  8
0
 62
4
 10
-1.14804547E+01
 20
1.27737863E+02
  0
VERTEX
  8
0
 62
4
 10
-1.16676571E+01
 20
1.27795991E+02
  0
VERTEX
  8
0
 62
4
 10
-1.18592916E+01
 20
1.27837830E+02
  0
VERTEX
  8
0
 62
4
 10
-1.20538996E+01
 20
1.27863062E+02
  0
VERTEX
  8
0
 62
4
 10
-1.22500000E+01
 20
1.27871493E+02
  0
VERTEX
  8
0
 62
4
 10
-1.24461004E+01
 20
1.27863062E+02
  0
VERTEX
  8
0
 62
4
 10
-1.26407084E+01
 20
1.27837830E+02
  0
VERTEX
  8
0
 62
4
 10
-1.28323428E+01
 20
1.27795991E+02
  0
VERTEX
  8
0
 62
4
 10
-1.30195453E+01
 20
1.27737863E+02
  0
VERTEX
  8
0
 62
4
 10
-1.32008911E+01
 20
1.27663889E+02
  0
VERTEX
  8
0
 62
4
 10
-1.33750000E+01
 20
1.27574630E+02
  0
VERTEX
  8
0
 62
4
 10
-1.35405470E+01
 20
1.27470767E+02
  0
VERTEX
  8
0
 62
4
 10
-1.36962721E+01
 20
1.27353091E+02
  0
VERTEX
  8
0
 62
4
 10
-1.38409903E+01
 20
1.27222496E+02
  0
VERTEX
  8
0
 62
4
 10
-1.39736000E+01
 20
1.27079976E+02
  0
VERTEX
  8
0
 62
4
 10
-1.40930921E+01
 20
1.26926617E+02
  0
VERTEX
  8
0
 62
4
 10
-1.41985572E+01
 20
1.26763585E+02
  0
VERTEX
  8
0
 62
4
 10
-1.42891925E+01
 20
1.26592121E+02
  0
VERTEX
  8
0
 62
4
 10
-1.43643084E+01
 20
1.26413530E+02
  0
VERTEX
  8
0
 62
4
 10
-1.44233331E+01
 20
1.26229172E+02
  0
VERTEX
  8
0
 62
4
 10
-1.44658174E+01
 20
1.26040449E+02
  0
VERTEX
  8
0
 62
4
 10
-1.44914381E+01
 20
1.25848797E+02
  0
VERTEX
  8
0
 62
4
 10
-1.45000000E+01
 20
1.25655676E+02
  0
SEQEND
  8
0
  0
POLYLINE
  8
0
 62
4
 66
1
  0
VERTEX
  8
0
 62
4
 10
-2.12500000E+01
 20
1.07699609E+02
  0
VERTEX
  8
0
 62
4
 10
-2.12580514E+01
 20
1.07876164E+02
  0
VERTEX
  8
0
 62
4
 10
-2.12821408E+01
 20
1.08051297E+02
  0
VERTEX
  8
0
 62
4
 10
-2.13220743E+01
 20
1.08223599E+02
  0
VERTEX
  8
0
 62
4
 10
-2.13775303E+01
 20
1.08391682E+02
  0
VERTEX
  8
0
 62
4
 10
-2.14480623E+01
 20
1.08554193E+02
  0
VERTEX
  8
0
 62
4
 10
-2.15331024E+01
 20
1.08709823E+02
  0
VERTEX
  8
0
 62
4
 10
-2.16319660E+01
 20
1.08857320E+02
  0
VERTEX
  8
0
 62
4
 10
-2.17438571E+01
 20
1.08995495E+02
  0
VERTEX
  8
0
 62
4
 10
-2.18678747E+01
 20
1.09123237E+02
  0
VERTEX
  8
0
 62
4
 10
-2.20030204E+01
 20
1.09239516E+02
  0
VERTEX
  8
0
 62
4
 10
-2.21482060E+01
 20
1.09343397E+02
  0
VERTEX
  8
0
 62
4
 10
-2.23022627E+01
 20
1.09434044E+02
  0
VERTEX
  8
0
 62
4
 10
-2.24639499E+01
 20
1.09510725E+02
  0
VERTEX
  8
0
 62
4
 10
-2.26319660E+01
 20
1.09572825E+02
  0
VERTEX
  8
0
 62
4
 10
-2.28049581E+01
 20
1.09619842E+02
  0
VERTEX
  8
0
 62
4
 10
-2.29815335E+01
 20
1.09651399E+02
  0
VERTEX
  8
0
 62
4
 10
-2.31602703E+01
 20
1.09667241E+02
  0
VERTEX
  8
0
 62
4
 10
-2.33397296E+01
 20
1.09667241E+02
  0
VERTEX
  8
0
 62
4
 10
-2.35184665E+01
 20
1.09651399E+02
  0
VERTEX
  8
0
 62
4
 10
-2.36950419E+01
 20
1.09619842E+02
  0
VERTEX
  8
0
 62
4
 10
-2.38680340E+01
 20
1.09572825E+02
  0
VERTEX
  8
0
 62
4
 10
-2.40360500E+01
 20
1.09510725E+02
  0
VERTEX
  8
0
 62
4
 10
-2.41977373E+01
 20
1.09434044E+02
  0
VERTEX
  8
0
 62
4
 10
-2.43517939E+01
 20
1.09343397E+02
  0
VERTEX
  8
0
 62
4
 10
-2.44969796E+01
 20
1.09239516E+02
  0
VERTEX
  8
0
 62
4
 10
-2.46321253E+01
 20
1.09123237E+02
  0
VERTEX
  8
0
 62
4
 10
-2.47561429E+01
 20
1.08995495E+02
  0
VERTEX
  8
0
 62
4
 10
-2.48680340E+01
 20
1.08857320E+02
  0
VERTEX
  8
0
 62
4
 10
-2.49668976E+01
 20
1.08709823E+02
  0
VERTEX
  8
0
 62
4
 10
-2.50519377E+01
 20
1.08554193E+02
  0
VERTEX
  8
0
 62
4
 10
-2.51224697E+01
 20
1.08391682E+02
  0
VERTEX
  8
0
 62
4
 10
-2.51779257E+01
 20
1.08223599E+02
  0
VERTEX
  8
0
 62
4
 10
-2.52178592E+01
 20
1.08051297E+02
  0
VERTEX
  8
0
 62
4
 10
-2.52419486E+01
 20
1.07876164E+02
  0
VERTEX
  8
0
 62
4
 10
-2.52500000E+01
 20
1.07699609E+02
  0
SEQEND
  8
0
  0
POLYLINE
  8
0
 62
4
 66
1
  0
VERTEX
  8
0
 62
4
 10
-2.52500000E+01
 20
1.07163970E+02
  0
VERTEX
  8
0
 62
4
 10
-2.52423894E+01
 20
1.06992307E+02
  0
VERTEX
  8
0
 62
4
 10
-2.52196155E+01
 20
1.06821950E+02
  0
VERTEX
  8
0
 62
4
 10
-2.51818517E+01
 20
1.06654196E+02
  0
VERTEX
  8
0
 62
4
 10
-2.51293852E+01
 20
1.06490322E+02
  0
VERTEX
  8
0
 62
4
 10
-2.50626156E+01
 20
1.06331575E+02
  0
VERTEX
  8
0
 62
4
 10
-2.49820508E+01
 20
1.06179162E+02
  0
VERTEX
  8
0
 62
4
 10
-2.48883041E+01
 20
1.06034245E+02
  0
VERTEX
  8
0
 62
4
 10
-2.47820889E+01
 20
1.05897926E+02
  0
VERTEX
  8
0
 62
4
 10
-2.46642136E+01
 20
1.05771242E+02
  0
VERTEX
  8
0
 62
4
 10
-2.45355752E+01
 20
1.05655157E+02
  0
VERTEX
  8
0
 62
4
 10
-2.43971529E+01
 20
1.05550555E+02
  0
VERTEX
  8
0
 62
4
 10
-2.42500000E+01
 20
1.05458233E+02
  0
VERTEX
  8
0
 62
4
 10
-2.40952365E+01
 20
1.05378892E+02
  0
VERTEX
  8
0
 62
4
 10
-2.39340403E+01
 20
1.05313137E+02
  0
VERTEX
  8
0
 62
4
 10
-2.37676381E+01
 20
1.05261468E+02
  0
VERTEX
  8
0
 62
4
 10
-2.35972964E+01
 20
1.05224277E+02
  0
VERTEX
  8
0
 62
4
 10
-2.34243115E+01
 20
1.05201849E+02
  0
VERTEX
  8
0
 62
4
 10
-2.32500000E+01
 20
1.05194354E+02
  0
VERTEX
  8
0
 62
4
 10
-2.30756885E+01
 20
1.05201849E+02
  0
VERTEX
  8
0
 62
4
 10
-2.29027037E+01
 20
1.05224277E+02
  0
VERTEX
  8
0
 62
4
 10
-2.27323619E+01
 20
1.05261468E+02
  0
VERTEX
  8
0
 62
4
 10
-2.25659597E+01
 20
1.05313137E+02
  0
VERTEX
  8
0
 62
4
 10
-2.24047635E+01
 20
1.05378892E+02
  0
VERTEX
  8
0
 62
4
 10
-2.22500000E+01
 20
1.05458233E+02
  0
VERTEX
  8
0
 62
4
 10
-2.21028471E+01
 20
1.05550555E+02
  0
VERTEX
  8
0
 62
4
 10
-2.19644248E+01
 20
1.05655157E+02
  0
VERTEX
  8
0
 62
4
 10
-2.18357864E+01
 20
1.05771242E+02
  0
VERTEX
  8
0
 62
4
 10
-2.17179111E+01
 20
1.05897926E+02
  0
VERTEX
  8
0
 62
4
 10
-2.16116959E+01
 20
1.06034245E+02
  0
VERTEX
  8
0
 62
4
 10
-2.15179492E+01
 20
1.06179162E+02
  0
VERTEX
  8
0
 62
4
 10
-2.14373844E+01
 20
1.06331575E+02
  0
VERTEX
  8
0
 62
4
 10
-2.13706148E+01
 20
1.06490322E+02
  0
VERTEX
  8
0
 62
4
 10
-2.13181483E+01
 20
1.06654196E+02
  0
VERTEX
  8
0
 62
4
 10
-2.12803845E+01
 20
1.06821950E+02
  0
VERTEX
  8
0
 62
4
 10
-2.12576106E+01
 20
1.06992307E+02
  0
VERTEX
  8
0
 62
4
 10
-2.12500000E+01
 20
1.07163970E+02
  0
VERTEX
  8
0
 62
4
 10
-2.12576106E+01
 20
1.07335633E+02
  0
VERTEX
  8
0
 62
4
 10
-2.12803845E+01
 20
1.07505990E+02
  0
VERTEX
  8
0
 62
4
 10
-2.13181483E+01
 20
1.07673744E+02
  0
VERTEX
  8
0
 62
4
 10
-2.13706148E+01
 20
1.07837618E+02
  0
VERTEX
  8
0
 62
4
 10
-2.14373844E+01
 20
1.07996365E+02
  0
VERTEX
  8
0
 62
4
 10
-2.15179492E+01
 20
1.08148778E+02
  0
VERTEX
  8
0
 62
4
 10
-2.16116959E+01
 20
1.08293695E+02
  0
VERTEX
  8
0
 62
4
 10
-2.17179111E+01
 20
1.08430014E+02
  0
VERTEX
  8
0
 62
4
 10
-2.18357864E+01
 20
1.08556698E+02
  0
VERTEX
  8
0
 62
4
 10
-2.19644248E+01
 20
1.08672783E+02
  0
VERTEX
  8
0
 62
4
 10
-2.21028471E+01
 20
1.08777385E+02
  0
VERTEX
  8
0
 62
4
 10
-2.22500000E+01
 20
1.08869707E+02
  0
VERTEX
  8
0
 62
4
 10
-2.24047635E+01
 20
1.08949048E+02
  0
VERTEX
  8
0
 62
4
 10
-2.25659597E+01
 20
1.09014803E+02
  0
VERTEX
  8
0
 62
4
 10
-2.27323619E+01
 20
1.09066472E+02
  0
VERTEX
  8
0
 62
4
 10
-2.29027036E+01
 20
1.09103663E+02
  0
VERTEX
  8
0
 62
4
 10
-2.30756885E+01
 20
1.09126091E+02
  0
VERTEX
  8
0
 62
4
 10
-2.32500000E+01
 20
1.09133586E+02
  0
VERTEX
  8
0
 62
4
 10
-2.34243115E+01
 20
1.09126091E+02
  0
VERTEX
  8
0
 62
4
 10
-2.35972964E+01
 20
1.09103663E+02
  0
VERTEX
  8
0
 62
4
 10
-2.37676381E+01
 20
1.09066472E+02
  0
VERTEX
  8
0
 62
4
 10
-2.39340403E+01
 20
1.09014803E+02
  0
VERTEX
  8
0
 62
4
 10
-2.40952365E+01
 20
1.08949048E+02
  0
VERTEX
  8
0
 62
4
 10
-2.42500000E+01
 20
1.08869707E+02
  0
VERTEX
  8
0
 62
4
 10
-2.43971529E+01
 20
1.08777385E+02
  0
VERTEX
  8
0
 62
4
 10
-2.45355752E+01
 20
1.08672783E+02
  0
VERTEX
  8
0
 62
4
 10
-2.46642136E+01
 20
1.08556698E+02
  0
VERTEX
  8
0
 62
4
 10
-2.47820889E+01
 20
1.08430014E+02
  0
VERTEX
  8
0
 62
4
 10
-2.48883041E+01
 20
1.08293695E+02
  0
VERTEX
  8
0
 62
4
 10
-2.49820508E+01
 20
1.08148778E+02
  0
VERTEX
  8
0
 62
4
 10
-2.50626156E+01
 20
1.07996365E+02
  0
VERTEX
  8
0
 62
4
 10
-2.51293852E+01
 20
1.07837618E+02
  0
VERTEX
  8
0
 62
4
 10
-2.51818517E+01
 20
1.07673744E+02
  0
VERTEX
  8
0
 62
4
 10
-2.52196155E+01
 20
1.07505990E+02
  0
VERTEX
  8
0
 62
4
 10
-2.52423894E+01
 20
1.07335633E+02
  0
VERTEX
  8
0
 62
4
 10
-2.52500000E+01
 20
1.07163970E+02
  0
SEQEND
  8
0
  0
LINE
  8
0
 62
4
 10
-2.52500000E+01
 20
1.07163970E+02
 11
-2.52500000E+01
 21
1.07699609E+02
  0
LINE
  8
0
 62
4
 10
-2.12500000E+01
 20
1.07163970E+02
 11
-2.12500000E+01
 21
1.07699609E+02
  0
POLYLINE
  8
0
 62
6
 66
1
  0
VERTEX
  8
0
 62
6
 10
-2.17500000E+01
 20
1.07163970E+02
  0
VERTEX
  8
0
 62
6
 10
-2.17557080E+01
 20
1.07292717E+02
  0
VERTEX
  8
0
 62
6
 10
-2.17727884E+01
 20
1.07420485E+02
  0
VERTEX
  8
0
 62
6
 10
-2.18011113E+01
 20
1.07546301E+02
  0
VERTEX
  8
0
 62
6
 10
-2.18404611E+01
 20
1.07669206E+02
  0
VERTEX
  8
0
 62
6
 10
-2.18905383E+01
 20
1.07788267E+02
  0
VERTEX
  8
0
 62
6
 10
-2.19509619E+01
 20
1.07902576E+02
  0
VERTEX
  8
0
 62
6
 10
-2.20212719E+01
 20
1.08011264E+02
  0
VERTEX
  8
0
 62
6
 10
-2.21009333E+01
 20
1.08113503E+02
  0
VERTEX
  8
0
 62
6
 10
-2.21893398E+01
 20
1.08208516E+02
  0
VERTEX
  8
0
 62
6
 10
-2.22858186E+01
 20
1.08295580E+02
  0
VERTEX
  8
0
 62
6
 10
-2.23896353E+01
 20
1.08374031E+02
  0
VERTEX
  8
0
 62
6
 10
-2.25000000E+01
 20
1.08443273E+02
  0
VERTEX
  8
0
 62
6
 10
-2.26160726E+01
 20
1.08502778E+02
  0
VERTEX
  8
0
 62
6
 10
-2.27369698E+01
 20
1.08552095E+02
  0
VERTEX
  8
0
 62
6
 10
-2.28617714E+01
 20
1.08590847E+02
  0
VERTEX
  8
0
 62
6
 10
-2.29895277E+01
 20
1.08618739E+02
  0
VERTEX
  8
0
 62
6
 10
-2.31192664E+01
 20
1.08635560E+02
  0
VERTEX
  8
0
 62
6
 10
-2.32500000E+01
 20
1.08641182E+02
  0
VERTEX
  8
0
 62
6
 10
-2.33807336E+01
 20
1.08635560E+02
  0
VERTEX
  8
0
 62
6
 10
-2.35104723E+01
 20
1.08618739E+02
  0
VERTEX
  8
0
 62
6
 10
-2.36382286E+01
 20
1.08590847E+02
  0
VERTEX
  8
0
 62
6
 10
-2.37630302E+01
 20
1.08552095E+02
  0
VERTEX
  8
0
 62
6
 10
-2.38839274E+01
 20
1.08502778E+02
  0
VERTEX
  8
0
 62
6
 10
-2.40000000E+01
 20
1.08443273E+02
  0
VERTEX
  8
0
 62
6
 10
-2.41103647E+01
 20
1.08374031E+02
  0
VERTEX
  8
0
 62
6
 10
-2.42141814E+01
 20
1.08295580E+02
  0
VERTEX
  8
0
 62
6
 10
-2.43106602E+01
 20
1.08208516E+02
  0
VERTEX
  8
0
 62
6
 10
-2.43990667E+01
 20
1.08113503E+02
  0
VERTEX
  8
0
 62
6
 10
-2.44787281E+01
 20
1.08011264E+02
  0
VERTEX
  8
0
 62
6
 10
-2.45490381E+01
 20
1.07902576E+02
  0
VERTEX
  8
0
 62
6
 10
-2.46094617E+01
 20
1.07788267E+02
  0
VERTEX
  8
0
 62
6
 10
-2.46595389E+01
 20
1.07669206E+02
  0
VERTEX
  8
0
 62
6
 10
-2.46988887E+01
 20
1.07546301E+02
  0
VERTEX
  8
0
 62
6
 10
-2.47272116E+01
 20
1.07420485E+02
  0
VERTEX
  8
0
 62
6
 10
-2.47442920E+01
 20
1.07292717E+02
  0
VERTEX
  8
0
 62
6
 10
-2.47500000E+01
 20
1.07163970E+02
  0
VERTEX
  8
0
 62
6
 10
-2.47442920E+01
 20
1.07035223E+02
  0
VERTEX
  8
0
 62
6
 10
-2.47272116E+01
 20
1.06907455E+02
  0
VERTEX
  8
0
 62
6
 10
-2.46988887E+01
 20
1.06781639E+02
  0
VERTEX
  8
0
 62
6
 10
-2.46595389E+01
 20
1.06658734E+02
  0
VERTEX
  8
0
 62
6
 10
-2.46094617E+01
 20
1.06539673E+02
  0
VERTEX
  8
0
 62
6
 10
-2.45490381E+01
 20
1.06425364E+02
  0
VERTEX
  8
0
 62
6
 10
-2.44787281E+01
 20
1.06316676E+02
  0
VERTEX
  8
0
 62
6
 10
-2.43990667E+01
 20
1.06214437E+02
  0
VERTEX
  8
0
 62
6
 10
-2.43106602E+01
 20
1.06119424E+02
  0
VERTEX
  8
0
 62
6
 10
-2.42141814E+01
 20
1.06032360E+02
  0
VERTEX
  8
0
 62
6
 10
-2.41103647E+01
 20
1.05953909E+02
  0
VERTEX
  8
0
 62
6
 10
-2.40000000E+01
 20
1.05884667E+02
  0
VERTEX
  8
0
 62
6
 10
-2.38839274E+01
 20
1.05825162E+02
  0
VERTEX
  8
0
 62
6
 10
-2.37630302E+01
 20
1.05775845E+02
  0
VERTEX
  8
0
 62
6
 10
-2.36382286E+01
 20
1.05737093E+02
  0
VERTEX
  8
0
 62
6
 10
-2.35104723E+01
 20
1.05709201E+02
  0
VERTEX
  8
0
 62
6
 10
-2.33807336E+01
 20
1.05692380E+02
  0
VERTEX
  8
0
 62
6
 10
-2.32500000E+01
 20
1.05686758E+02
  0
VERTEX
  8
0
 62
6
 10
-2.31192664E+01
 20
1.05692380E+02
  0
VERTEX
  8
0
 62
6
 10
-2.29895277E+01
 20
1.05709201E+02
  0
VERTEX
  8
0
 62
6
 10
-2.28617714E+01
 20
1.05737093E+02
  0
VERTEX
  8
0
 62
6
 10
-2.27369698E+01
 20
1.05775845E+02
  0
VERTEX
  8
0
 62
6
 10
-2.26160726E+01
 20
1.05825162E+02
  0
VERTEX
  8
0
 62
6
 10
-2.25000000E+01
 20
1.05884667E+02
  0
VERTEX
  8
0
 62
6
 10
-2.23896353E+01
 20
1.05953909E+02
  0
VERTEX
  8
0
 62
6
 10
-2.22858186E+01
 20
1.06032360E+02
  0
VERTEX
  8
0
 62
6
 10
-2.21893398E+01
 20
1.06119424E+02
  0
VERTEX
  8
0
 62
6
 10
-2.21009333E+01
 20
1.06214437E+02
  0
VERTEX
  8
0
 62
6
 10
-2.20212719E+01
 20
1.06316676E+02
  0
VERTEX
  8
0
 62
6
 10
-2.19509619E+01
 20
1.06425364E+02
  0
VERTEX
  8
0
 62
6
 10
-2.18905383E+01
 20
1.06539673E+02
  0
VERTEX
  8
0
 62
6
 10
-2.18404611E+01
 20
1.06658734E+02
  0
VERTEX
  8
0
 62
6
 10
-2.18011113E+01
 20
1.06781640E+02
  0
VERTEX
  8
0
 62
6
 10
-2.17727884E+01
 20
1.06907455E+02
  0
VERTEX
  8
0
 62
6
 10
-2.17557080E+01
 20
1.07035223E+02
  0
VERTEX
  8
0
 62
6
 10
-2.17500000E+01
 20
1.07163970E+02
  0
SEQEND
  8
0
  0
LINE
  8
0
 62
4
 10
-2.42500000E+01
 20
1.07735158E+02
 11
-2.42500000E+01
 21
1.06592781E+02
  0
LINE
  8
0
 62
4
 10
-2.22500000E+01
 20
1.07735158E+02
 11
-2.22500000E+01
 21
1.06592781E+02
  0
LINE
  8
0
 62
4
 10
-2.32500000E+01
 20
1.08296499E+02
 11
-2.42500000E+01
 21
1.07735158E+02
  0
LINE
  8
0
 62
4
 10
-2.32500000E+01
 20
1.08296499E+02
 11
-2.22500000E+01
 21
1.07735158E+02
  0
LINE
  8
0
 62
4
 10
-2.22500000E+01
 20
1.06592781E+02
 11
-2.32500000E+01
 21
1.06021593E+02
  0
LINE
  8
0
 62
4
 10
-2.42500000E+01
 20
1.06592781E+02
 11
-2.32500000E+01
 21
1.06021593E+02
  0
LINE
  8
0
 62
4
 10
-3.22500000E+01
 20
1.06592781E+02
 11
-3.12500000E+01
 21
1.06021593E+02
  0
LINE
  8
0
 62
4
 10
-3.02500000E+01
 20
1.06592781E+02
 11
-3.12500000E+01
 21
1.06021593E+02
  0
LINE
  8
0
 62
4
 10
-3.12500000E+01
 20
1.08296499E+02
 11
-3.02500000E+01
 21
1.07735158E+02
  0
LINE
  8
0
 62
4
 10
-3.12500000E+01
 20
1.08296499E+02
 11
-3.22500000E+01
 21
1.07735158E+02
  0
LINE
  8
0
 62
4
 10
-3.02500000E+01
 20
1.07735158E+02
 11
-3.02500000E+01
 21
1.06592781E+02
  0
LINE
  8
0
 62
4
 10
-3.22500000E+01
 20
1.07735158E+02
 11
-3.22500000E+01
 21
1.06592781E+02
  0
POLYLINE
  8
0
 62
6
 66
1
  0
VERTEX
  8
0
 62
6
 10
-2.97500000E+01
 20
1.07163970E+02
  0
VERTEX
  8
0
 62
6
 10
-2.97557080E+01
 20
1.07292717E+02
  0
VERTEX
  8
0
 62
6
 10
-2.97727884E+01
 20
1.07420485E+02
  0
VERTEX
  8
0
 62
6
 10
-2.98011113E+01
 20
1.07546301E+02
  0
VERTEX
  8
0
 62
6
 10
-2.98404611E+01
 20
1.07669206E+02
  0
VERTEX
  8
0
 62
6
 10
-2.98905383E+01
 20
1.07788267E+02
  0
VERTEX
  8
0
 62
6
 10
-2.99509619E+01
 20
1.07902576E+02
  0
VERTEX
  8
0
 62
6
 10
-3.00212719E+01
 20
1.08011264E+02
  0
VERTEX
  8
0
 62
6
 10
-3.01009333E+01
 20
1.08113503E+02
  0
VERTEX
  8
0
 62
6
 10
-3.01893398E+01
 20
1.08208516E+02
  0
VERTEX
  8
0
 62
6
 10
-3.02858186E+01
 20
1.08295580E+02
  0
VERTEX
  8
0
 62
6
 10
-3.03896353E+01
 20
1.08374031E+02
  0
VERTEX
  8
0
 62
6
 10
-3.05000000E+01
 20
1.08443273E+02
  0
VERTEX
  8
0
 62
6
 10
-3.06160726E+01
 20
1.08502778E+02
  0
VERTEX
  8
0
 62
6
 10
-3.07369698E+01
 20
1.08552095E+02
  0
VERTEX
  8
0
 62
6
 10
-3.08617714E+01
 20
1.08590847E+02
  0
VERTEX
  8
0
 62
6
 10
-3.09895277E+01
 20
1.08618739E+02
  0
VERTEX
  8
0
 62
6
 10
-3.11192664E+01
 20
1.08635560E+02
  0
VERTEX
  8
0
 62
6
 10
-3.12500000E+01
 20
1.08641182E+02
  0
VERTEX
  8
0
 62
6
 10
-3.13807336E+01
 20
1.08635560E+02
  0
VERTEX
  8
0
 62
6
 10
-3.15104723E+01
 20
1.08618739E+02
  0
VERTEX
  8
0
 62
6
 10
-3.16382286E+01
 20
1.08590847E+02
  0
VERTEX
  8
0
 62
6
 10
-3.17630302E+01
 20
1.08552095E+02
  0
VERTEX
  8
0
 62
6
 10
-3.18839274E+01
 20
1.08502778E+02
  0
VERTEX
  8
0
 62
6
 10
-3.20000000E+01
 20
1.08443273E+02
  0
VERTEX
  8
0
 62
6
 10
-3.21103647E+01
 20
1.08374031E+02
  0
VERTEX
  8
0
 62
6
 10
-3.22141814E+01
 20
1.08295580E+02
  0
VERTEX
  8
0
 62
6
 10
-3.23106602E+01
 20
1.08208516E+02
  0
VERTEX
  8
0
 62
6
 10
-3.23990667E+01
 20
1.08113503E+02
  0
VERTEX
  8
0
 62
6
 10
-3.24787281E+01
 20
1.08011264E+02
  0
VERTEX
  8
0
 62
6
 10
-3.25490381E+01
 20
1.07902576E+02
  0
VERTEX
  8
0
 62
6
 10
-3.26094617E+01
 20
1.07788267E+02
  0
VERTEX
  8
0
 62
6
 10
-3.26595389E+01
 20
1.07669206E+02
  0
VERTEX
  8
0
 62
6
 10
-3.26988887E+01
 20
1.07546301E+02
  0
VERTEX
  8
0
 62
6
 10
-3.27272116E+01
 20
1.07420485E+02
  0
VERTEX
  8
0
 62
6
 10
-3.27442920E+01
 20
1.07292717E+02
  0
VERTEX
  8
0
 62
6
 10
-3.27500000E+01
 20
1.07163970E+02
  0
VERTEX
  8
0
 62
6
 10
-3.27442920E+01
 20
1.07035223E+02
  0
VERTEX
  8
0
 62
6
 10
-3.27272116E+01
 20
1.06907455E+02
  0
VERTEX
  8
0
 62
6
 10
-3.26988887E+01
 20
1.06781639E+02
  0
VERTEX
  8
0
 62
6
 10
-3.26595389E+01
 20
1.06658734E+02
  0
VERTEX
  8
0
 62
6
 10
-3.26094617E+01
 20
1.06539673E+02
  0
VERTEX
  8
0
 62
6
 10
-3.25490381E+01
 20
1.06425364E+02
  0
VERTEX
  8
0
 62
6
 10
-3.24787281E+01
 20
1.06316676E+02
  0
VERTEX
  8
0
 62
6
 10
-3.23990667E+01
 20
1.06214437E+02
  0
VERTEX
  8
0
 62
6
 10
-3.23106602E+01
 20
1.06119424E+02
  0
VERTEX
  8
0
 62
6
 10
-3.22141814E+01
 20
1.06032360E+02
  0
VERTEX
  8
0
 62
6
 10
-3.21103647E+01
 20
1.05953909E+02
  0
VERTEX
  8
0
 62
6
 10
-3.20000000E+01
 20
1.05884667E+02
  0
VERTEX
  8
0
 62
6
 10
-3.18839274E+01
 20
1.05825162E+02
  0
VERTEX
  8
0
 62
6
 10
-3.17630302E+01
 20
1.05775845E+02
  0
VERTEX
  8
0
 62
6
 10
-3.16382286E+01
 20
1.05737093E+02
  0
VERTEX
  8
0
 62
6
 10
-3.15104723E+01
 20
1.05709201E+02
  0
VERTEX
  8
0
 62
6
 10
-3.13807336E+01
 20
1.05692380E+02
  0
VERTEX
  8
0
 62
6
 10
-3.12500000E+01
 20
1.05686758E+02
  0
VERTEX
  8
0
 62
6
 10
-3.11192664E+01
 20
1.05692380E+02
  0
VERTEX
  8
0
 62
6
 10
-3.09895277E+01
 20
1.05709201E+02
  0
VERTEX
  8
0
 62
6
 10
-3.08617714E+01
 20
1.05737093E+02
  0
VERTEX
  8
0
 62
6
 10
-3.07369698E+01
 20
1.05775845E+02
  0
VERTEX
  8
0
 62
6
 10
-3.06160726E+01
 20
1.05825162E+02
  0
VERTEX
  8
0
 62
6
 10
-3.05000000E+01
 20
1.05884667E+02
  0
VERTEX
  8
0
 62
6
 10
-3.03896353E+01
 20
1.05953909E+02
  0
VERTEX
  8
0
 62
6
 10
-3.02858186E+01
 20
1.06032360E+02
  0
VERTEX
  8
0
 62
6
 10
-3.01893398E+01
 20
1.06119424E+02
  0
VERTEX
  8
0
 62
6
 10
-3.01009333E+01
 20
1.06214437E+02
  0
VERTEX
  8
0
 62
6
 10
-3.00212719E+01
 20
1.06316676E+02
  0
VERTEX
  8
0
 62
6
 10
-2.99509619E+01
 20
1.06425364E+02
  0
VERTEX
  8
0
 62
6
 10
-2.98905383E+01
 20
1.06539673E+02
  0
VERTEX
  8
0
 62
6
 10
-2.98404611E+01
 20
1.06658734E+02
  0
VERTEX
  8
0
 62
6
 10
-2.98011113E+01
 20
1.06781640E+02
  0
VERTEX
  8
0
 62
6
 10
-2.97727884E+01
 20
1.06907455E+02
  0
VERTEX
  8
0
 62
6
 10
-2.97557080E+01
 20
1.07035223E+02
  0
VERTEX
  8
0
 62
6
 10
-2.97500000E+01
 20
1.07163970E+02
  0
SEQEND
  8
0
  0
LINE
  8
0
 62
4
 10
-2.92500000E+01
 20
1.07163970E+02
 11
-2.92500000E+01
 21
1.07699609E+02
  0
LINE
  8
0
 62
4
 10
-3.32500000E+01
 20
1.07163970E+02
 11
-3.32500000E+01
 21
1.07699609E+02
  0
POLYLINE
  8
0
 62
4
 66
1
  0
VERTEX
  8
0
 62
4
 10
-3.32500000E+01
 20
1.07163970E+02
  0
VERTEX
  8
0
 62
4
 10
-3.32423894E+01
 20
1.06992307E+02
  0
VERTEX
  8
0
 62
4
 10
-3.32196155E+01
 20
1.06821950E+02
  0
VERTEX
  8
0
 62
4
 10
-3.31818517E+01
 20
1.06654196E+02
  0
VERTEX
  8
0
 62
4
 10
-3.31293852E+01
 20
1.06490322E+02
  0
VERTEX
  8
0
 62
4
 10
-3.30626156E+01
 20
1.06331575E+02
  0
VERTEX
  8
0
 62
4
 10
-3.29820508E+01
 20
1.06179162E+02
  0
VERTEX
  8
0
 62
4
 10
-3.28883041E+01
 20
1.06034245E+02
  0
VERTEX
  8
0
 62
4
 10
-3.27820889E+01
 20
1.05897926E+02
  0
VERTEX
  8
0
 62
4
 10
-3.26642136E+01
 20
1.05771242E+02
  0
VERTEX
  8
0
 62
4
 10
-3.25355752E+01
 20
1.05655157E+02
  0
VERTEX
  8
0
 62
4
 10
-3.23971529E+01
 20
1.05550555E+02
  0
VERTEX
  8
0
 62
4
 10
-3.22500000E+01
 20
1.05458233E+02
  0
VERTEX
  8
0
 62
4
 10
-3.20952365E+01
 20
1.05378892E+02
  0
VERTEX
  8
0
 62
4
 10
-3.19340403E+01
 20
1.05313137E+02
  0
VERTEX
  8
0
 62
4
 10
-3.17676381E+01
 20
1.05261468E+02
  0
VERTEX
  8
0
 62
4
 10
-3.15972964E+01
 20
1.05224277E+02
  0
VERTEX
  8
0
 62
4
 10
-3.14243115E+01
 20
1.05201849E+02
  0
VERTEX
  8
0
 62
4
 10
-3.12500000E+01
 20
1.05194354E+02
  0
VERTEX
  8
0
 62
4
 10
-3.10756885E+01
 20
1.05201849E+02
  0
VERTEX
  8
0
 62
4
 10
-3.09027037E+01
 20
1.05224277E+02
  0
VERTEX
  8
0
 62
4
 10
-3.07323619E+01
 20
1.05261468E+02
  0
VERTEX
  8
0
 62
4
 10
-3.05659597E+01
 20
1.05313137E+02
  0
VERTEX
  8
0
 62
4
 10
-3.04047635E+01
 20
1.05378892E+02
  0
VERTEX
  8
0
 62
4
 10
-3.02500000E+01
 20
1.05458233E+02
  0
VERTEX
  8
0
 62
4
 10
-3.01028471E+01
 20
1.05550555E+02
  0
VERTEX
  8
0
 62
4
 10
-2.99644248E+01
 20
1.05655157E+02
  0
VERTEX
  8
0
 62
4
 10
-2.98357864E+01
 20
1.05771242E+02
  0
VERTEX
  8
0
 62
4
 10
-2.97179111E+01
 20
1.05897926E+02
  0
VERTEX
  8
0
 62
4
 10
-2.96116959E+01
 20
1.06034245E+02
  0
VERTEX
  8
0
 62
4
 10
-2.95179492E+01
 20
1.06179162E+02
  0
VERTEX
  8
0
 62
4
 10
-2.94373844E+01
 20
1.06331575E+02
  0
VERTEX
  8
0
 62
4
 10
-2.93706148E+01
 20
1.06490322E+02
  0
VERTEX
  8
0
 62
4
 10
-2.93181483E+01
 20
1.06654196E+02
  0
VERTEX
  8
0
 62
4
 10
-2.92803845E+01
 20
1.06821950E+02
  0
VERTEX
  8
0
 62
4
 10
-2.92576106E+01
 20
1.06992307E+02
  0
VERTEX
  8
0
 62
4
 10
-2.92500000E+01
 20
1.07163970E+02
  0
VERTEX
  8
0
 62
4
 10
-2.92576106E+01
 20
1.07335633E+02
  0
VERTEX
  8
0
 62
4
 10
-2.92803845E+01
 20
1.07505990E+02
  0
VERTEX
  8
0
 62
4
 10
-2.93181483E+01
 20
1.07673744E+02
  0
VERTEX
  8
0
 62
4
 10
-2.93706148E+01
 20
1.07837618E+02
  0
VERTEX
  8
0
 62
4
 10
-2.94373844E+01
 20
1.07996365E+02
  0
VERTEX
  8
0
 62
4
 10
-2.95179492E+01
 20
1.08148778E+02
  0
VERTEX
  8
0
 62
4
 10
-2.96116959E+01
 20
1.08293695E+02
  0
VERTEX
  8
0
 62
4
 10
-2.97179111E+01
 20
1.08430014E+02
  0
VERTEX
  8
0
 62
4
 10
-2.98357864E+01
 20
1.08556698E+02
  0
VERTEX
  8
0
 62
4
 10
-2.99644248E+01
 20
1.08672783E+02
  0
VERTEX
  8
0
 62
4
 10
-3.01028471E+01
 20
1.08777385E+02
  0
VERTEX
  8
0
 62
4
 10
-3.02500000E+01
 20
1.08869707E+02
  0
VERTEX
  8
0
 62
4
 10
-3.04047635E+01
 20
1.08949048E+02
  0
VERTEX
  8
0
 62
4
 10
-3.05659597E+01
 20
1.09014803E+02
  0
VERTEX
  8
0
 62
4
 10
-3.07323619E+01
 20
1.09066472E+02
  0
VERTEX
  8
0
 62
4
 10
-3.09027036E+01
 20
1.09103663E+02
  0
VERTEX
  8
0
 62
4
 10
-3.10756885E+01
 20
1.09126091E+02
  0
VERTEX
  8
0
 62
4
 10
-3.12500000E+01
 20
1.09133586E+02
  0
VERTEX
  8
0
 62
4
 10
-3.14243115E+01
 20
1.09126091E+02
  0
VERTEX
  8
0
 62
4
 10
-3.15972964E+01
 20
1.09103663E+02
  0
VERTEX
  8
0
 62
4
 10
-3.17676381E+01
 20
1.09066472E+02
  0
VERTEX
  8
0
 62
4
 10
-3.19340403E+01
 20
1.09014803E+02
  0
VERTEX
  8
0
 62
4
 10
-3.20952365E+01
 20
1.08949048E+02
  0
VERTEX
  8
0
 62
4
 10
-3.22500000E+01
 20
1.08869707E+02
  0
VERTEX
  8
0
 62
4
 10
-3.23971529E+01
 20
1.08777385E+02
  0
VERTEX
  8
0
 62
4
 10
-3.25355752E+01
 20
1.08672783E+02
  0
VERTEX
  8
0
 62
4
 10
-3.26642136E+01
 20
1.08556698E+02
  0
VERTEX
  8
0
 62
4
 10
-3.27820889E+01
 20
1.08430014E+02
  0
VERTEX
  8
0
 62
4
 10
-3.28883041E+01
 20
1.08293695E+02
  0
VERTEX
  8
0
 62
4
 10
-3.29820508E+01
 20
1.08148778E+02
  0
VERTEX
  8
0
 62
4
 10
-3.30626156E+01
 20
1.07996365E+02
  0
VERTEX
  8
0
 62
4
 10
-3.31293852E+01
 20
1.07837618E+02
  0
VERTEX
  8
0
 62
4
 10
-3.31818517E+01
 20
1.07673744E+02
  0
VERTEX
  8
0
 62
4
 10
-3.32196155E+01
 20
1.07505990E+02
  0
VERTEX
  8
0
 62
4
 10
-3.32423894E+01
 20
1.07335633E+02
  0
VERTEX
  8
0
 62
4
 10
-3.32500000E+01
 20
1.07163970E+02
  0
SEQEND
  8
0
  0
POLYLINE
  8
0
 62
4
 66
1
  0
VERTEX
  8
0
 62
4
 10
-2.92500000E+01
 20
1.07699609E+02
  0
VERTEX
  8
0
 62
4
 10
-2.92580514E+01
 20
1.07876164E+02
  0
VERTEX
  8
0
 62
4
 10
-2.92821408E+01
 20
1.08051297E+02
  0
VERTEX
  8
0
 62
4
 10
-2.93220743E+01
 20
1.08223599E+02
  0
VERTEX
  8
0
 62
4
 10
-2.93775303E+01
 20
1.08391682E+02
  0
VERTEX
  8
0
 62
4
 10
-2.94480623E+01
 20
1.08554193E+02
  0
VERTEX
  8
0
 62
4
 10
-2.95331024E+01
 20
1.08709823E+02
  0
VERTEX
  8
0
 62
4
 10
-2.96319660E+01
 20
1.08857320E+02
  0
VERTEX
  8
0
 62
4
 10
-2.97438571E+01
 20
1.08995495E+02
  0
VERTEX
  8
0
 62
4
 10
-2.98678747E+01
 20
1.09123237E+02
  0
VERTEX
  8
0
 62
4
 10
-3.00030204E+01
 20
1.09239516E+02
  0
VERTEX
  8
0
 62
4
 10
-3.01482060E+01
 20
1.09343397E+02
  0
VERTEX
  8
0
 62
4
 10
-3.03022627E+01
 20
1.09434044E+02
  0
VERTEX
  8
0
 62
4
 10
-3.04639499E+01
 20
1.09510725E+02
  0
VERTEX
  8
0
 62
4
 10
-3.06319660E+01
 20
1.09572825E+02
  0
VERTEX
  8
0
 62
4
 10
-3.08049581E+01
 20
1.09619842E+02
  0
VERTEX
  8
0
 62
4
 10
-3.09815335E+01
 20
1.09651399E+02
  0
VERTEX
  8
0
 62
4
 10
-3.11602703E+01
 20
1.09667241E+02
  0
VERTEX
  8
0
 62
4
 10
-3.13397296E+01
 20
1.09667241E+02
  0
VERTEX
  8
0
 62
4
 10
-3.15184665E+01
 20
1.09651399E+02
  0
VERTEX
  8
0
 62
4
 10
-3.16950419E+01
 20
1.09619842E+02
  0
VERTEX
  8
0
 62
4
 10
-3.18680340E+01
 20
1.09572825E+02
  0
VERTEX
  8
0
 62
4
 10
-3.20360500E+01
 20
1.09510725E+02
  0
VERTEX
  8
0
 62
4
 10
-3.21977373E+01
 20
1.09434044E+02
  0
VERTEX
  8
0
 62
4
 10
-3.23517939E+01
 20
1.09343397E+02
  0
VERTEX
  8
0
 62
4
 10
-3.24969796E+01
 20
1.09239516E+02
  0
VERTEX
  8
0
 62
4
 10
-3.26321253E+01
 20
1.09123237E+02
  0
VERTEX
  8
0
 62
4
 10
-3.27561429E+01
 20
1.08995495E+02
  0
VERTEX
  8
0
 62
4
 10
-3.28680340E+01
 20
1.08857320E+02
  0
VERTEX
  8
0
 62
4
 10
-3.29668976E+01
 20
1.08709823E+02
  0
VERTEX
  8
0
 62
4
 10
-3.30519377E+01
 20
1.08554193E+02
  0
VERTEX
  8
0
 62
4
 10
-3.31224697E+01
 20
1.08391682E+02
  0
VERTEX
  8
0
 62
4
 10
-3.31779257E+01
 20
1.08223599E+02
  0
VERTEX
  8
0
 62
4
 10
-3.32178592E+01
 20
1.08051297E+02
  0
VERTEX
  8
0
 62
4
 10
-3.32419486E+01
 20
1.07876164E+02
  0
VERTEX
  8
0
 62
4
 10
-3.32500000E+01
 20
1.07699609E+02
  0
SEQEND
  8
0
  0
LINE
  8
0
 62
4
 10
-9.37500000E+01
 20
1.31875887E+02
 11
-6.37500000E+01
 21
1.31875887E+02
  0
LINE
  8
0
 62
4
 10
-9.37500000E+01
 20
1.16118963E+02
 11
-6.37500000E+01
 21
1.16118963E+02
  0
LINE
  8
0
 62
4
 10
-9.37500000E+01
 20
1.17103771E+02
 11
-6.37500000E+01
 21
1.17103771E+02
  0
LINE
  8
0
 62
4
 10
-9.37500000E+01
 20
1.21176212E+02
 11
-9.52500000E+01
 21
1.20168356E+02
  0
LINE
  8
0
 62
4
 10
-9.52500000E+01
 20
1.20168356E+02
 11
-9.52500000E+01
 21
1.17544453E+02
  0
LINE
  8
0
 62
4
 10
-9.52500000E+01
 20
1.17937766E+02
 11
-9.37500000E+01
 21
1.17236981E+02
  0
LINE
  8
0
 62
4
 10
-9.52500000E+01
 20
1.17544453E+02
 11
-9.37500000E+01
 21
1.16542389E+02
  0
LINE
  8
0
 62
4
 10
-9.37500000E+01
 20
1.21176212E+02
 11
-8.16872448E+01
 21
1.21176212E+02
  0
LINE
  8
0
 62
4
 10
-9.37500000E+01
 20
1.17236981E+02
 11
-7.02500000E+01
 21
1.17236981E+02
  0
LINE
  8
0
 62
4
 10
-9.37500000E+01
 20
1.21633887E+02
 11
-8.20871230E+01
 21
1.21633887E+02
  0
LINE
  8
0
 62
4
 10
-9.37500000E+01
 20
1.21176212E+02
 11
-9.37500000E+01
 21
1.17103771E+02
  0
LINE
  8
0
 62
4
 10
-9.37500000E+01
 20
1.17103771E+02
 11
-9.37500000E+01
 21
1.15369434E+02
  0
ARC
  8
0
 62
4
 10
-2.02431469E+02
 20
-5.19350029E+00
 40
1.86971513E+02
 50
4.46782203E+01
 51
4.61988768E+01
  0
ARC
  8
0
 62
4
 10
5.99314687E+01
 20
-5.19350029E+00
 40
1.86971513E+02
 50
1.33801123E+02
 51
1.35321779E+02
  0
LINE
  8
0
 62
4
 10
-6.78500000E+01
 20
1.27617900E+02
 11
-6.78500000E+01
 21
1.27814262E+02
  0
POLYLINE
  8
0
 62
4
 66
1
  0
VERTEX
  8
0
 62
4
 10
-7.46500000E+01
 20
1.27814262E+02
  0
VERTEX
  8
0
 62
4
 10
-7.46370620E+01
 20
1.27522434E+02
  0
VERTEX
  8
0
 62
4
 10
-7.45983464E+01
 20
1.27232828E+02
  0
VERTEX
  8
0
 62
4
 10
-7.45341478E+01
 20
1.26947646E+02
  0
VERTEX
  8
0
 62
4
 10
-7.44449549E+01
 20
1.26669060E+02
  0
VERTEX
  8
0
 62
4
 10
-7.43314465E+01
 20
1.26399190E+02
  0
VERTEX
  8
0
 62
4
 10
-7.41944864E+01
 20
1.26140089E+02
  0
VERTEX
  8
0
 62
4
 10
-7.40351170E+01
 20
1.25893729E+02
  0
VERTEX
  8
0
 62
4
 10
-7.38545511E+01
 20
1.25661986E+02
  0
VERTEX
  8
0
 62
4
 10
-7.36541631E+01
 20
1.25446623E+02
  0
VERTEX
  8
0
 62
4
 10
-7.34354779E+01
 20
1.25249280E+02
  0
VERTEX
  8
0
 62
4
 10
-7.32001599E+01
 20
1.25071457E+02
  0
VERTEX
  8
0
 62
4
 10
-7.29500000E+01
 20
1.24914509E+02
  0
VERTEX
  8
0
 62
4
 10
-7.26869021E+01
 20
1.24779629E+02
  0
VERTEX
  8
0
 62
4
 10
-7.24128685E+01
 20
1.24667845E+02
  0
VERTEX
  8
0
 62
4
 10
-7.21299848E+01
 20
1.24580007E+02
  0
VERTEX
  8
0
 62
4
 10
-7.18404038E+01
 20
1.24516784E+02
  0
VERTEX
  8
0
 62
4
 10
-7.15463295E+01
 20
1.24478657E+02
  0
VERTEX
  8
0
 62
4
 10
-7.12500000E+01
 20
1.24465915E+02
  0
VERTEX
  8
0
 62
4
 10
-7.09536705E+01
 20
1.24478657E+02
  0
VERTEX
  8
0
 62
4
 10
-7.06595962E+01
 20
1.24516784E+02
  0
VERTEX
  8
0
 62
4
 10
-7.03700152E+01
 20
1.24580007E+02
  0
VERTEX
  8
0
 62
4
 10
-7.00871315E+01
 20
1.24667845E+02
  0
VERTEX
  8
0
 62
4
 10
-6.98130979E+01
 20
1.24779629E+02
  0
VERTEX
  8
0
 62
4
 10
-6.95500000E+01
 20
1.24914509E+02
  0
VERTEX
  8
0
 62
4
 10
-6.92998401E+01
 20
1.25071457E+02
  0
VERTEX
  8
0
 62
4
 10
-6.90645221E+01
 20
1.25249280E+02
  0
VERTEX
  8
0
 62
4
 10
-6.88458369E+01
 20
1.25446623E+02
  0
VERTEX
  8
0
 62
4
 10
-6.86454489E+01
 20
1.25661986E+02
  0
VERTEX
  8
0
 62
4
 10
-6.84648830E+01
 20
1.25893729E+02
  0
VERTEX
  8
0
 62
4
 10
-6.83055136E+01
 20
1.26140089E+02
  0
VERTEX
  8
0
 62
4
 10
-6.81685535E+01
 20
1.26399190E+02
  0
VERTEX
  8
0
 62
4
 10
-6.80550451E+01
 20
1.26669060E+02
  0
VERTEX
  8
0
 62
4
 10
-6.79658522E+01
 20
1.26947646E+02
  0
VERTEX
  8
0
 62
4
 10
-6.79016536E+01
 20
1.27232828E+02
  0
VERTEX
  8
0
 62
4
 10
-6.78629380E+01
 20
1.27522434E+02
  0
VERTEX
  8
0
 62
4
 10
-6.78500000E+01
 20
1.27814262E+02
  0
VERTEX
  8
0
 62
4
 10
-6.78629380E+01
 20
1.28106090E+02
  0
VERTEX
  8
0
 62
4
 10
-6.79016536E+01
 20
1.28395696E+02
  0
VERTEX
  8
0
 62
4
 10
-6.79658522E+01
 20
1.28680878E+02
  0
VERTEX
  8
0
 62
4
 10
-6.80550451E+01
 20
1.28959464E+02
  0
VERTEX
  8
0
 62
4
 10
-6.81685535E+01
 20
1.29229334E+02
  0
VERTEX
  8
0
 62
4
 10
-6.83055136E+01
 20
1.29488435E+02
  0
VERTEX
  8
0
 62
4
 10
-6.84648830E+01
 20
1.29734795E+02
  0
VERTEX
  8
0
 62
4
 10
-6.86454489E+01
 20
1.29966538E+02
  0
VERTEX
  8
0
 62
4
 10
-6.88458369E+01
 20
1.30181901E+02
  0
VERTEX
  8
0
 62
4
 10
-6.90645221E+01
 20
1.30379244E+02
  0
VERTEX
  8
0
 62
4
 10
-6.92998401E+01
 20
1.30557067E+02
  0
VERTEX
  8
0
 62
4
 10
-6.95500000E+01
 20
1.30714015E+02
  0
VERTEX
  8
0
 62
4
 10
-6.98130979E+01
 20
1.30848895E+02
  0
VERTEX
  8
0
 62
4
 10
-7.00871315E+01
 20
1.30960679E+02
  0
VERTEX
  8
0
 62
4
 10
-7.03700152E+01
 20
1.31048517E+02
  0
VERTEX
  8
0
 62
4
 10
-7.06595962E+01
 20
1.31111740E+02
  0
VERTEX
  8
0
 62
4
 10
-7.09536705E+01
 20
1.31149867E+02
  0
VERTEX
  8
0
 62
4
 10
-7.12500000E+01
 20
1.31162609E+02
  0
VERTEX
  8
0
 62
4
 10
-7.15463295E+01
 20
1.31149867E+02
  0
VERTEX
  8
0
 62
4
 10
-7.18404038E+01
 20
1.31111740E+02
  0
VERTEX
  8
0
 62
4
 10
-7.21299848E+01
 20
1.31048517E+02
  0
VERTEX
  8
0
 62
4
 10
-7.24128685E+01
 20
1.30960679E+02
  0
VERTEX
  8
0
 62
4
 10
-7.26869021E+01
 20
1.30848895E+02
  0
VERTEX
  8
0
 62
4
 10
-7.29500000E+01
 20
1.30714015E+02
  0
VERTEX
  8
0
 62
4
 10
-7.32001599E+01
 20
1.30557067E+02
  0
VERTEX
  8
0
 62
4
 10
-7.34354779E+01
 20
1.30379244E+02
  0
VERTEX
  8
0
 62
4
 10
-7.36541631E+01
 20
1.30181901E+02
  0
VERTEX
  8
0
 62
4
 10
-7.38545511E+01
 20
1.29966538E+02
  0
VERTEX
  8
0
 62
4
 10
-7.40351170E+01
 20
1.29734795E+02
  0
VERTEX
  8
0
 62
4
 10
-7.41944864E+01
 20
1.29488435E+02
  0
VERTEX
  8
0
 62
4
 10
-7.43314465E+01
 20
1.29229334E+02
  0
VERTEX
  8
0
 62
4
 10
-7.44449549E+01
 20
1.28959464E+02
  0
VERTEX
  8
0
 62
4
 10
-7.45341478E+01
 20
1.28680878E+02
  0
VERTEX
  8
0
 62
4
 10
-7.45983464E+01
 20
1.28395696E+02
  0
VERTEX
  8
0
 62
4
 10
-7.46370620E+01
 20
1.28106090E+02
  0
VERTEX
  8
0
 62
4
 10
-7.46500000E+01
 20
1.27814262E+02
  0
SEQEND
  8
0
  0
POLYLINE
  8
0
 62
4
 66
1
  0
VERTEX
  8
0
 62
4
 10
-7.46500000E+01
 20
1.27617900E+02
  0
VERTEX
  8
0
 62
4
 10
-7.46363126E+01
 20
1.27317757E+02
  0
VERTEX
  8
0
 62
4
 10
-7.45953606E+01
 20
1.27020030E+02
  0
VERTEX
  8
0
 62
4
 10
-7.45274738E+01
 20
1.26727117E+02
  0
VERTEX
  8
0
 62
4
 10
-7.44331986E+01
 20
1.26441375E+02
  0
VERTEX
  8
0
 62
4
 10
-7.43132942E+01
 20
1.26165107E+02
  0
VERTEX
  8
0
 62
4
 10
-7.41687259E+01
 20
1.25900536E+02
  0
VERTEX
  8
0
 62
4
 10
-7.40006578E+01
 20
1.25649791E+02
  0
VERTEX
  8
0
 62
4
 10
-7.38104430E+01
 20
1.25414893E+02
  0
VERTEX
  8
0
 62
4
 10
-7.35996130E+01
 20
1.25197732E+02
  0
VERTEX
  8
0
 62
4
 10
-7.33698654E+01
 20
1.25000057E+02
  0
VERTEX
  8
0
 62
4
 10
-7.31230498E+01
 20
1.24823460E+02
  0
VERTEX
  8
0
 62
4
 10
-7.28611535E+01
 20
1.24669361E+02
  0
VERTEX
  8
0
 62
4
 10
-7.25862851E+01
 20
1.24539003E+02
  0
VERTEX
  8
0
 62
4
 10
-7.23006578E+01
 20
1.24433433E+02
  0
VERTEX
  8
0
 62
4
 10
-7.20065712E+01
 20
1.24353504E+02
  0
VERTEX
  8
0
 62
4
 10
-7.17063931E+01
 20
1.24299857E+02
  0
VERTEX
  8
0
 62
4
 10
-7.14025404E+01
 20
1.24272925E+02
  0
VERTEX
  8
0
 62
4
 10
-7.10974596E+01
 20
1.24272925E+02
  0
VERTEX
  8
0
 62
4
 10
-7.07936069E+01
 20
1.24299857E+02
  0
VERTEX
  8
0
 62
4
 10
-7.04934288E+01
 20
1.24353504E+02
  0
VERTEX
  8
0
 62
4
 10
-7.01993422E+01
 20
1.24433433E+02
  0
VERTEX
  8
0
 62
4
 10
-6.99137149E+01
 20
1.24539003E+02
  0
VERTEX
  8
0
 62
4
 10
-6.96388466E+01
 20
1.24669361E+02
  0
VERTEX
  8
0
 62
4
 10
-6.93769503E+01
 20
1.24823460E+02
  0
VERTEX
  8
0
 62
4
 10
-6.91301347E+01
 20
1.25000057E+02
  0
VERTEX
  8
0
 62
4
 10
-6.89003870E+01
 20
1.25197732E+02
  0
VERTEX
  8
0
 62
4
 10
-6.86895570E+01
 20
1.25414893E+02
  0
VERTEX
  8
0
 62
4
 10
-6.84993422E+01
 20
1.25649791E+02
  0
VERTEX
  8
0
 62
4
 10
-6.83312741E+01
 20
1.25900536E+02
  0
VERTEX
  8
0
 62
4
 10
-6.81867058E+01
 20
1.26165107E+02
  0
VERTEX
  8
0
 62
4
 10
-6.80668014E+01
 20
1.26441375E+02
  0
VERTEX
  8
0
 62
4
 10
-6.79725263E+01
 20
1.26727116E+02
  0
VERTEX
  8
0
 62
4
 10
-6.79046394E+01
 20
1.27020030E+02
  0
VERTEX
  8
0
 62
4
 10
-6.78636874E+01
 20
1.27317757E+02
  0
VERTEX
  8
0
 62
4
 10
-6.78500000E+01
 20
1.27617900E+02
  0
SEQEND
  8
0
  0
LINE
  8
0
 62
4
 10
-7.46500000E+01
 20
1.27617900E+02
 11
-7.46500000E+01
 21
1.27814262E+02
  0
LINE
  8
0
 62
4
 10
-6.74500000E+01
 20
1.27444252E+02
 11
-6.74500000E+01
 21
1.27617900E+02
  0
POLYLINE
  8
0
 62
4
 66
1
  0
VERTEX
  8
0
 62
4
 10
-7.50500000E+01
 20
1.27617900E+02
  0
VERTEX
  8
0
 62
4
 10
-7.50355399E+01
 20
1.27291740E+02
  0
VERTEX
  8
0
 62
4
 10
-7.49922695E+01
 20
1.26968062E+02
  0
VERTEX
  8
0
 62
4
 10
-7.49205182E+01
 20
1.26649329E+02
  0
VERTEX
  8
0
 62
4
 10
-7.48208320E+01
 20
1.26337968E+02
  0
VERTEX
  8
0
 62
4
 10
-7.46939696E+01
 20
1.26036349E+02
  0
VERTEX
  8
0
 62
4
 10
-7.45408966E+01
 20
1.25746765E+02
  0
VERTEX
  8
0
 62
4
 10
-7.43627778E+01
 20
1.25471422E+02
  0
VERTEX
  8
0
 62
4
 10
-7.41609689E+01
 20
1.25212416E+02
  0
VERTEX
  8
0
 62
4
 10
-7.39370058E+01
 20
1.24971716E+02
  0
VERTEX
  8
0
 62
4
 10
-7.36925929E+01
 20
1.24751155E+02
  0
VERTEX
  8
0
 62
4
 10
-7.34295905E+01
 20
1.24552412E+02
  0
VERTEX
  8
0
 62
4
 10
-7.31500000E+01
 20
1.24377000E+02
  0
VERTEX
  8
0
 62
4
 10
-7.28559494E+01
 20
1.24226252E+02
  0
VERTEX
  8
0
 62
4
 10
-7.25496766E+01
 20
1.24101317E+02
  0
VERTEX
  8
0
 62
4
 10
-7.22335124E+01
 20
1.24003145E+02
  0
VERTEX
  8
0
 62
4
 10
-7.19098631E+01
 20
1.23932484E+02
  0
VERTEX
  8
0
 62
4
 10
-7.15811918E+01
 20
1.23889871E+02
  0
VERTEX
  8
0
 62
4
 10
-7.12500000E+01
 20
1.23875631E+02
  0
VERTEX
  8
0
 62
4
 10
-7.09188082E+01
 20
1.23889871E+02
  0
VERTEX
  8
0
 62
4
 10
-7.05901369E+01
 20
1.23932484E+02
  0
VERTEX
  8
0
 62
4
 10
-7.02664876E+01
 20
1.24003145E+02
  0
VERTEX
  8
0
 62
4
 10
-6.99503235E+01
 20
1.24101317E+02
  0
VERTEX
  8
0
 62
4
 10
-6.96440506E+01
 20
1.24226252E+02
  0
VERTEX
  8
0
 62
4
 10
-6.93500000E+01
 20
1.24377000E+02
  0
VERTEX
  8
0
 62
4
 10
-6.90704095E+01
 20
1.24552412E+02
  0
VERTEX
  8
0
 62
4
 10
-6.88074071E+01
 20
1.24751155E+02
  0
VERTEX
  8
0
 62
4
 10
-6.85629942E+01
 20
1.24971716E+02
  0
VERTEX
  8
0
 62
4
 10
-6.83390311E+01
 20
1.25212416E+02
  0
VERTEX
  8
0
 62
4
 10
-6.81372222E+01
 20
1.25471422E+02
  0
VERTEX
  8
0
 62
4
 10
-6.79591034E+01
 20
1.25746765E+02
  0
VERTEX
  8
0
 62
4
 10
-6.78060304E+01
 20
1.26036349E+02
  0
VERTEX
  8
0
 62
4
 10
-6.76791680E+01
 20
1.26337968E+02
  0
VERTEX
  8
0
 62
4
 10
-6.75794818E+01
 20
1.26649329E+02
  0
VERTEX
  8
0
 62
4
 10
-6.75077305E+01
 20
1.26968062E+02
  0
VERTEX
  8
0
 62
4
 10
-6.74644601E+01
 20
1.27291740E+02
  0
VERTEX
  8
0
 62
4
 10
-6.74500000E+01
 20
1.27617900E+02
  0
VERTEX
  8
0
 62
4
 10
-6.74644601E+01
 20
1.27944060E+02
  0
VERTEX
  8
0
 62
4
 10
-6.75077305E+01
 20
1.28267738E+02
  0
VERTEX
  8
0
 62
4
 10
-6.75794818E+01
 20
1.28586471E+02
  0
VERTEX
  8
0
 62
4
 10
-6.76791680E+01
 20
1.28897832E+02
  0
VERTEX
  8
0
 62
4
 10
-6.78060304E+01
 20
1.29199451E+02
  0
VERTEX
  8
0
 62
4
 10
-6.79591034E+01
 20
1.29489035E+02
  0
VERTEX
  8
0
 62
4
 10
-6.81372222E+01
 20
1.29764378E+02
  0
VERTEX
  8
0
 62
4
 10
-6.83390311E+01
 20
1.30023384E+02
  0
VERTEX
  8
0
 62
4
 10
-6.85629942E+01
 20
1.30264084E+02
  0
VERTEX
  8
0
 62
4
 10
-6.88074071E+01
 20
1.30484645E+02
  0
VERTEX
  8
0
 62
4
 10
-6.90704095E+01
 20
1.30683388E+02
  0
VERTEX
  8
0
 62
4
 10
-6.93500000E+01
 20
1.30858800E+02
  0
VERTEX
  8
0
 62
4
 10
-6.96440506E+01
 20
1.31009548E+02
  0
VERTEX
  8
0
 62
4
 10
-6.99503234E+01
 20
1.31134483E+02
  0
VERTEX
  8
0
 62
4
 10
-7.02664876E+01
 20
1.31232655E+02
  0
VERTEX
  8
0
 62
4
 10
-7.05901369E+01
 20
1.31303316E+02
  0
VERTEX
  8
0
 62
4
 10
-7.09188082E+01
 20
1.31345929E+02
  0
VERTEX
  8
0
 62
4
 10
-7.12500000E+01
 20
1.31360169E+02
  0
VERTEX
  8
0
 62
4
 10
-7.15811918E+01
 20
1.31345929E+02
  0
VERTEX
  8
0
 62
4
 10
-7.19098631E+01
 20
1.31303316E+02
  0
VERTEX
  8
0
 62
4
 10
-7.22335124E+01
 20
1.31232655E+02
  0
VERTEX
  8
0
 62
4
 10
-7.25496766E+01
 20
1.31134483E+02
  0
VERTEX
  8
0
 62
4
 10
-7.28559494E+01
 20
1.31009548E+02
  0
VERTEX
  8
0
 62
4
 10
-7.31500000E+01
 20
1.30858800E+02
  0
VERTEX
  8
0
 62
4
 10
-7.34295905E+01
 20
1.30683388E+02
  0
VERTEX
  8
0
 62
4
 10
-7.36925929E+01
 20
1.30484645E+02
  0
VERTEX
  8
0
 62
4
 10
-7.39370058E+01
 20
1.30264084E+02
  0
VERTEX
  8
0
 62
4
 10
-7.41609689E+01
 20
1.30023384E+02
  0
VERTEX
  8
0
 62
4
 10
-7.43627778E+01
 20
1.29764378E+02
  0
VERTEX
  8
0
 62
4
 10
-7.45408966E+01
 20
1.29489035E+02
  0
VERTEX
  8
0
 62
4
 10
-7.46939696E+01
 20
1.29199451E+02
  0
VERTEX
  8
0
 62
4
 10
-7.48208320E+01
 20
1.28897832E+02
  0
VERTEX
  8
0
 62
4
 10
-7.49205182E+01
 20
1.28586471E+02
  0
VERTEX
  8
0
 62
4
 10
-7.49922695E+01
 20
1.28267738E+02
  0
VERTEX
  8
0
 62
4
 10
-7.50355399E+01
 20
1.27944060E+02
  0
VERTEX
  8
0
 62
4
 10
-7.50500000E+01
 20
1.27617900E+02
  0
SEQEND
  8
0
  0
POLYLINE
  8
0
 62
4
 66
1
  0
VERTEX
  8
0
 62
4
 10
-7.50500000E+01
 20
1.27444252E+02
  0
VERTEX
  8
0
 62
4
 10
-7.50347023E+01
 20
1.27108798E+02
  0
VERTEX
  8
0
 62
4
 10
-7.49889325E+01
 20
1.26776044E+02
  0
VERTEX
  8
0
 62
4
 10
-7.49130589E+01
 20
1.26448670E+02
  0
VERTEX
  8
0
 62
4
 10
-7.48076925E+01
 20
1.26129313E+02
  0
VERTEX
  8
0
 62
4
 10
-7.46736817E+01
 20
1.25820542E+02
  0
VERTEX
  8
0
 62
4
 10
-7.45121054E+01
 20
1.25524845E+02
  0
VERTEX
  8
0
 62
4
 10
-7.43242646E+01
 20
1.25244601E+02
  0
VERTEX
  8
0
 62
4
 10
-7.41116716E+01
 20
1.24982068E+02
  0
VERTEX
  8
0
 62
4
 10
-7.38760381E+01
 20
1.24739359E+02
  0
VERTEX
  8
0
 62
4
 10
-7.36192613E+01
 20
1.24518428E+02
  0
VERTEX
  8
0
 62
4
 10
-7.33434086E+01
 20
1.24321054E+02
  0
VERTEX
  8
0
 62
4
 10
-7.30507009E+01
 20
1.24148826E+02
  0
VERTEX
  8
0
 62
4
 10
-7.27434951E+01
 20
1.24003131E+02
  0
VERTEX
  8
0
 62
4
 10
-7.24242646E+01
 20
1.23885142E+02
  0
VERTEX
  8
0
 62
4
 10
-7.20955796E+01
 20
1.23795809E+02
  0
VERTEX
  8
0
 62
4
 10
-7.17600864E+01
 20
1.23735851E+02
  0
VERTEX
  8
0
 62
4
 10
-7.14204864E+01
 20
1.23705751E+02
  0
VERTEX
  8
0
 62
4
 10
-7.10795137E+01
 20
1.23705751E+02
  0
VERTEX
  8
0
 62
4
 10
-7.07399136E+01
 20
1.23735851E+02
  0
VERTEX
  8
0
 62
4
 10
-7.04044205E+01
 20
1.23795809E+02
  0
VERTEX
  8
0
 62
4
 10
-7.00757354E+01
 20
1.23885142E+02
  0
VERTEX
  8
0
 62
4
 10
-6.97565049E+01
 20
1.24003131E+02
  0
VERTEX
  8
0
 62
4
 10
-6.94492991E+01
 20
1.24148826E+02
  0
VERTEX
  8
0
 62
4
 10
-6.91565915E+01
 20
1.24321054E+02
  0
VERTEX
  8
0
 62
4
 10
-6.88807388E+01
 20
1.24518428E+02
  0
VERTEX
  8
0
 62
4
 10
-6.86239619E+01
 20
1.24739359E+02
  0
VERTEX
  8
0
 62
4
 10
-6.83883284E+01
 20
1.24982068E+02
  0
VERTEX
  8
0
 62
4
 10
-6.81757354E+01
 20
1.25244601E+02
  0
VERTEX
  8
0
 62
4
 10
-6.79878946E+01
 20
1.25524845E+02
  0
VERTEX
  8
0
 62
4
 10
-6.78263183E+01
 20
1.25820542E+02
  0
VERTEX
  8
0
 62
4
 10
-6.76923075E+01
 20
1.26129313E+02
  0
VERTEX
  8
0
 62
4
 10
-6.75869411E+01
 20
1.26448670E+02
  0
VERTEX
  8
0
 62
4
 10
-6.75110675E+01
 20
1.26776044E+02
  0
VERTEX
  8
0
 62
4
 10
-6.74652977E+01
 20
1.27108798E+02
  0
VERTEX
  8
0
 62
4
 10
-6.74500000E+01
 20
1.27444252E+02
  0
SEQEND
  8
0
  0
LINE
  8
0
 62
4
 10
-7.50500000E+01
 20
1.27444252E+02
 11
-7.50500000E+01
 21
1.27617900E+02
  0
ARC
  8
0
 62
4
 10
-2.11122535E+02
 20
-9.93016770E+00
 40
1.88657692E+02
 50
4.46816411E+01
 51
4.61887918E+01
  0
ARC
  8
0
 62
4
 10
5.36228232E+01
 20
-9.93046072E+00
 40
1.88658103E+02
 50
1.33811210E+02
 51
1.35318357E+02
  0
LINE
  8
0
 62
4
 10
-7.46000000E+01
 20
1.24063411E+02
 11
-7.46000000E+01
 21
1.24369032E+02
  0
LINE
  8
0
 62
4
 10
-8.29000000E+01
 20
1.24063411E+02
 11
-8.29000000E+01
 21
1.24369032E+02
  0
POLYLINE
  8
0
 62
4
 66
1
  0
VERTEX
  8
0
 62
4
 10
-7.46000000E+01
 20
1.24369032E+02
  0
VERTEX
  8
0
 62
4
 10
-7.46157920E+01
 20
1.24725233E+02
  0
VERTEX
  8
0
 62
4
 10
-7.46630478E+01
 20
1.25078724E+02
  0
VERTEX
  8
0
 62
4
 10
-7.47414078E+01
 20
1.25426813E+02
  0
VERTEX
  8
0
 62
4
 10
-7.48502756E+01
 20
1.25766852E+02
  0
VERTEX
  8
0
 62
4
 10
-7.49888227E+01
 20
1.26096253E+02
  0
VERTEX
  8
0
 62
4
 10
-7.51559946E+01
 20
1.26412508E+02
  0
VERTEX
  8
0
 62
4
 10
-7.53505190E+01
 20
1.26713211E+02
  0
VERTEX
  8
0
 62
4
 10
-7.55709156E+01
 20
1.26996074E+02
  0
VERTEX
  8
0
 62
4
 10
-7.58155069E+01
 20
1.27258944E+02
  0
VERTEX
  8
0
 62
4
 10
-7.60824314E+01
 20
1.27499819E+02
  0
VERTEX
  8
0
 62
4
 10
-7.63696578E+01
 20
1.27716867E+02
  0
VERTEX
  8
0
 62
4
 10
-7.66750000E+01
 20
1.27908436E+02
  0
VERTEX
  8
0
 62
4
 10
-7.69961342E+01
 20
1.28073069E+02
  0
VERTEX
  8
0
 62
4
 10
-7.73306164E+01
 20
1.28209511E+02
  0
VERTEX
  8
0
 62
4
 10
-7.76759010E+01
 20
1.28316725E+02
  0
VERTEX
  8
0
 62
4
 10
-7.80293601E+01
 20
1.28393894E+02
  0
VERTEX
  8
0
 62
4
 10
-7.83883037E+01
 20
1.28440432E+02
  0
VERTEX
  8
0
 62
4
 10
-7.87500000E+01
 20
1.28455984E+02
  0
VERTEX
  8
0
 62
4
 10
-7.91116963E+01
 20
1.28440432E+02
  0
VERTEX
  8
0
 62
4
 10
-7.94706399E+01
 20
1.28393894E+02
  0
VERTEX
  8
0
 62
4
 10
-7.98240990E+01
 20
1.28316725E+02
  0
VERTEX
  8
0
 62
4
 10
-8.01693836E+01
 20
1.28209511E+02
  0
VERTEX
  8
0
 62
4
 10
-8.05038658E+01
 20
1.28073069E+02
  0
VERTEX
  8
0
 62
4
 10
-8.08250000E+01
 20
1.27908436E+02
  0
VERTEX
  8
0
 62
4
 10
-8.11303422E+01
 20
1.27716867E+02
  0
VERTEX
  8
0
 62
4
 10
-8.14175686E+01
 20
1.27499819E+02
  0
VERTEX
  8
0
 62
4
 10
-8.16844931E+01
 20
1.27258944E+02
  0
VERTEX
  8
0
 62
4
 10
-8.19290844E+01
 20
1.26996074E+02
  0
VERTEX
  8
0
 62
4
 10
-8.21494810E+01
 20
1.26713211E+02
  0
VERTEX
  8
0
 62
4
 10
-8.23440054E+01
 20
1.26412508E+02
  0
VERTEX
  8
0
 62
4
 10
-8.25111773E+01
 20
1.26096253E+02
  0
VERTEX
  8
0
 62
4
 10
-8.26497244E+01
 20
1.25766852E+02
  0
VERTEX
  8
0
 62
4
 10
-8.27585922E+01
 20
1.25426813E+02
  0
VERTEX
  8
0
 62
4
 10
-8.28369522E+01
 20
1.25078724E+02
  0
VERTEX
  8
0
 62
4
 10
-8.28842080E+01
 20
1.24725233E+02
  0
VERTEX
  8
0
 62
4
 10
-8.29000000E+01
 20
1.24369032E+02
  0
VERTEX
  8
0
 62
4
 10
-8.28842080E+01
 20
1.24012831E+02
  0
VERTEX
  8
0
 62
4
 10
-8.28369522E+01
 20
1.23659340E+02
  0
VERTEX
  8
0
 62
4
 10
-8.27585922E+01
 20
1.23311251E+02
  0
VERTEX
  8
0
 62
4
 10
-8.26497244E+01
 20
1.22971212E+02
  0
VERTEX
  8
0
 62
4
 10
-8.25111773E+01
 20
1.22641811E+02
  0
VERTEX
  8
0
 62
4
 10
-8.23440054E+01
 20
1.22325556E+02
  0
VERTEX
  8
0
 62
4
 10
-8.21494810E+01
 20
1.22024853E+02
  0
VERTEX
  8
0
 62
4
 10
-8.19290844E+01
 20
1.21741990E+02
  0
VERTEX
  8
0
 62
4
 10
-8.16844931E+01
 20
1.21479120E+02
  0
VERTEX
  8
0
 62
4
 10
-8.14175686E+01
 20
1.21238245E+02
  0
VERTEX
  8
0
 62
4
 10
-8.11303422E+01
 20
1.21021197E+02
  0
VERTEX
  8
0
 62
4
 10
-8.08250000E+01
 20
1.20829628E+02
  0
VERTEX
  8
0
 62
4
 10
-8.05038658E+01
 20
1.20664995E+02
  0
VERTEX
  8
0
 62
4
 10
-8.01693836E+01
 20
1.20528553E+02
  0
VERTEX
  8
0
 62
4
 10
-7.98240990E+01
 20
1.20421339E+02
  0
VERTEX
  8
0
 62
4
 10
-7.94706399E+01
 20
1.20344170E+02
  0
VERTEX
  8
0
 62
4
 10
-7.91116963E+01
 20
1.20297632E+02
  0
VERTEX
  8
0
 62
4
 10
-7.87500000E+01
 20
1.20282080E+02
  0
VERTEX
  8
0
 62
4
 10
-7.83883037E+01
 20
1.20297632E+02
  0
VERTEX
  8
0
 62
4
 10
-7.80293601E+01
 20
1.20344170E+02
  0
VERTEX
  8
0
 62
4
 10
-7.76759010E+01
 20
1.20421339E+02
  0
VERTEX
  8
0
 62
4
 10
-7.73306164E+01
 20
1.20528553E+02
  0
VERTEX
  8
0
 62
4
 10
-7.69961342E+01
 20
1.20664995E+02
  0
VERTEX
  8
0
 62
4
 10
-7.66750000E+01
 20
1.20829628E+02
  0
VERTEX
  8
0
 62
4
 10
-7.63696578E+01
 20
1.21021197E+02
  0
VERTEX
  8
0
 62
4
 10
-7.60824314E+01
 20
1.21238245E+02
  0
VERTEX
  8
0
 62
4
 10
-7.58155069E+01
 20
1.21479120E+02
  0
VERTEX
  8
0
 62
4
 10
-7.55709156E+01
 20
1.21741990E+02
  0
VERTEX
  8
0
 62
4
 10
-7.53505190E+01
 20
1.22024853E+02
  0
VERTEX
  8
0
 62
4
 10
-7.51559946E+01
 20
1.22325556E+02
  0
VERTEX
  8
0
 62
4
 10
-7.49888227E+01
 20
1.22641811E+02
  0
VERTEX
  8
0
 62
4
 10
-7.48502756E+01
 20
1.22971212E+02
  0
VERTEX
  8
0
 62
4
 10
-7.47414078E+01
 20
1.23311251E+02
  0
VERTEX
  8
0
 62
4
 10
-7.46630478E+01
 20
1.23659340E+02
  0
VERTEX
  8
0
 62
4
 10
-7.46157920E+01
 20
1.24012831E+02
  0
VERTEX
  8
0
 62
4
 10
-7.46000000E+01
 20
1.24369032E+02
  0
SEQEND
  8
0
  0
POLYLINE
  8
0
 62
4
 66
1
  0
VERTEX
  8
0
 62
4
 10
-8.29000000E+01
 20
1.24063411E+02
  0
VERTEX
  8
0
 62
4
 10
-8.28832933E+01
 20
1.23697059E+02
  0
VERTEX
  8
0
 62
4
 10
-8.28333078E+01
 20
1.23333658E+02
  0
VERTEX
  8
0
 62
4
 10
-8.27504459E+01
 20
1.22976131E+02
  0
VERTEX
  8
0
 62
4
 10
-8.26353747E+01
 20
1.22627359E+02
  0
VERTEX
  8
0
 62
4
 10
-8.24890208E+01
 20
1.22290149E+02
  0
VERTEX
  8
0
 62
4
 10
-8.23125625E+01
 20
1.21967216E+02
  0
VERTEX
  8
0
 62
4
 10
-8.21074205E+01
 20
1.21661161E+02
  0
VERTEX
  8
0
 62
4
 10
-8.18752466E+01
 20
1.21374447E+02
  0
VERTEX
  8
0
 62
4
 10
-8.16179100E+01
 20
1.21109383E+02
  0
VERTEX
  8
0
 62
4
 10
-8.13374827E+01
 20
1.20868103E+02
  0
VERTEX
  8
0
 62
4
 10
-8.10362225E+01
 20
1.20652550E+02
  0
VERTEX
  8
0
 62
4
 10
-8.07165550E+01
 20
1.20464459E+02
  0
VERTEX
  8
0
 62
4
 10
-8.03810539E+01
 20
1.20305345E+02
  0
VERTEX
  8
0
 62
4
 10
-8.00324205E+01
 20
1.20176489E+02
  0
VERTEX
  8
0
 62
4
 10
-7.96734619E+01
 20
1.20078927E+02
  0
VERTEX
  8
0
 62
4
 10
-7.93070681E+01
 20
1.20013447E+02
  0
VERTEX
  8
0
 62
4
 10
-7.89361891E+01
 20
1.19980574E+02
  0
VERTEX
  8
0
 62
4
 10
-7.85638110E+01
 20
1.19980574E+02
  0
VERTEX
  8
0
 62
4
 10
-7.81929320E+01
 20
1.20013447E+02
  0
VERTEX
  8
0
 62
4
 10
-7.78265381E+01
 20
1.20078927E+02
  0
VERTEX
  8
0
 62
4
 10
-7.74675795E+01
 20
1.20176488E+02
  0
VERTEX
  8
0
 62
4
 10
-7.71189461E+01
 20
1.20305345E+02
  0
VERTEX
  8
0
 62
4
 10
-7.67834451E+01
 20
1.20464459E+02
  0
VERTEX
  8
0
 62
4
 10
-7.64637775E+01
 20
1.20652550E+02
  0
VERTEX
  8
0
 62
4
 10
-7.61625173E+01
 20
1.20868103E+02
  0
VERTEX
  8
0
 62
4
 10
-7.58820900E+01
 20
1.21109383E+02
  0
VERTEX
  8
0
 62
4
 10
-7.56247534E+01
 20
1.21374447E+02
  0
VERTEX
  8
0
 62
4
 10
-7.53925795E+01
 20
1.21661161E+02
  0
VERTEX
  8
0
 62
4
 10
-7.51874375E+01
 20
1.21967216E+02
  0
VERTEX
  8
0
 62
4
 10
-7.50109792E+01
 20
1.22290149E+02
  0
VERTEX
  8
0
 62
4
 10
-7.48646253E+01
 20
1.22627359E+02
  0
VERTEX
  8
0
 62
4
 10
-7.47495541E+01
 20
1.22976131E+02
  0
VERTEX
  8
0
 62
4
 10
-7.46666922E+01
 20
1.23333657E+02
  0
VERTEX
  8
0
 62
4
 10
-7.46167067E+01
 20
1.23697059E+02
  0
VERTEX
  8
0
 62
4
 10
-7.46000000E+01
 20
1.24063411E+02
  0
SEQEND
  8
0
  0
LINE
  8
0
  6
CENTER
 62
6
 10
-8.62500000E+01
 20
1.29944252E+02
 11
-8.62500000E+01
 21
1.24944252E+02
  0
LINE
  8
0
  6
CENTER
 62
6
 10
-8.37500000E+01
 20
1.27444252E+02
 11
-8.87500000E+01
 21
1.27444252E+02
  0
LINE
  8
0
  6
CENTER
 62
6
 10
-7.87500000E+01
 20
1.26497425E+02
 11
-7.87500000E+01
 21
1.21497425E+02
  0
LINE
  8
0
  6
CENTER
 62
6
 10
-7.62500000E+01
 20
1.23997425E+02
 11
-8.12500000E+01
 21
1.23997425E+02
  0
LINE
  8
0
  6
CENTER
 62
6
 10
-7.12500000E+01
 20
1.29944252E+02
 11
-7.12500000E+01
 21
1.24944252E+02
  0
LINE
  8
0
  6
CENTER
 62
6
 10
-6.87500000E+01
 20
1.27444252E+02
 11
-7.37500000E+01
 21
1.27444252E+02
  0
LINE
  8
0
 62
4
 10
-7.54128770E+01
 20
1.21633887E+02
 11
-6.37500000E+01
 21
1.21633887E+02
  0
LINE
  8
0
 62
4
 10
-7.58127552E+01
 20
1.21176212E+02
 11
-7.02500000E+01
 21
1.21176212E+02
  0
LINE
  8
0
 62
4
 10
-4.75000000E+00
 20
1.21176212E+02
 11
-3.25000000E+00
 21
1.20168356E+02
  0
LINE
  8
0
 62
4
 10
-3.25000000E+00
 20
1.17937766E+02
 11
-4.75000000E+00
 21
1.17236981E+02
  0
LINE
  8
0
 62
4
 10
-3.25000000E+00
 20
1.17544453E+02
 11
-4.75000000E+00
 21
1.16542389E+02
  0
LINE
  8
0
 62
4
 10
-3.25000000E+00
 20
1.20168356E+02
 11
-3.25000000E+00
 21
1.17544453E+02
  0
LINE
  8
0
 62
7
 10
-3.47500000E+01
 20
1.15369434E+02
 11
-1.04250000E+02
 21
1.15369434E+02
  0
LINE
  8
0
 62
7
 10
-3.47500000E+01
 20
1.14519443E+02
 11
-1.04249985E+02
 21
1.14519443E+02
  0
LINE
  8
0
 62
7
 10
-3.47500000E+01
 20
1.09219456E+02
 11
-1.04249985E+02
 21
1.09219456E+02
  0
CIRCLE
  8
0
 62
7
 10
-2.69249977E+02
 20
1.11869495E+02
 40
2.45850000E+00
  0
CIRCLE
  8
0
 62
7
 10
-2.69249908E+02
 20
6.48695028E+01
 40
2.45850000E+00
  0
CIRCLE
  8
0
 62
7
 10
-3.16249901E+02
 20
6.48694342E+01
 40
2.45850000E+00
  0
CIRCLE
  8
0
 62
7
 10
-3.16249969E+02
 20
1.11869427E+02
 40
2.45850000E+00
  0
LINE
  8
0
  6
CENTER
 62
2
 10
-2.80749969E+02
 20
1.21843738E+02
 11
-2.80749969E+02
 21
9.60319097E+01
  0
LINE
  8
0
  6
CENTER
 62
2
 10
-3.16250000E+02
 20
5.52785070E+01
 11
-3.16250000E+02
 21
7.41650350E+01
  0
LINE
  8
0
  6
CENTER
 62
2
 10
-2.69249969E+02
 20
1.21847706E+02
 11
-2.69249969E+02
 21
1.02145077E+02
  0
LINE
  8
0
 62
7
 10
-2.93750000E+02
 20
6.13694952E+01
 11
-2.93750000E+02
 21
6.84697149E+01
  0
LINE
  8
0
 62
7
 10
-2.93749969E+02
 20
1.15369434E+02
 11
-2.93749969E+02
 21
1.08269214E+02
  0
LINE
  8
0
 62
7
 10
-3.06114224E+02
 20
7.35912493E+01
 11
-3.10065773E+02
 21
6.96397011E+01
  0
LINE
  8
0
 62
7
 10
-3.07528427E+02
 20
7.50054306E+01
 11
-3.11479975E+02
 21
7.10538824E+01
  0
LINE
  8
0
 62
7
 10
-3.03281342E+02
 20
1.16369449E+02
 11
-2.82218597E+02
 21
1.16369449E+02
  0
LINE
  8
0
 62
7
 10
-2.91749969E+02
 20
1.15369434E+02
 11
-2.91749969E+02
 21
1.08269176E+02
  0
LINE
  8
0
 62
7
 10
-3.20249939E+02
 20
1.18869480E+02
 11
-2.65250031E+02
 21
1.18869434E+02
  0
LINE
  8
0
  6
CENTER
 62
2
 10
-2.59296844E+02
 20
1.11869427E+02
 11
-2.78999420E+02
 21
1.11869427E+02
  0
LINE
  8
0
 62
7
 10
-2.65750031E+02
 20
8.93694494E+01
 11
-2.72850250E+02
 21
8.93694494E+01
  0
LINE
  8
0
 62
7
 10
-2.77971771E+02
 20
1.01733737E+02
 11
-2.74020254E+02
 21
1.05685252E+02
  0
LINE
  8
0
 62
7
 10
-2.79385985E+02
 20
1.03147994E+02
 11
-2.75434468E+02
 21
1.07099509E+02
  0
LINE
  8
0
 62
7
 10
-3.06114211E+02
 20
1.03147735E+02
 11
-3.10065792E+02
 21
1.07099315E+02
  0
LINE
  8
0
 62
7
 10
-3.07528392E+02
 20
1.01733467E+02
 11
-3.11479952E+02
 21
1.05685026E+02
  0
LINE
  8
0
 62
7
 10
-3.19749969E+02
 20
8.93694952E+01
 11
-3.12649750E+02
 21
8.93694952E+01
  0
LINE
  8
0
 62
7
 10
-3.19749969E+02
 20
8.73694952E+01
 11
-3.12649750E+02
 21
8.73694952E+01
  0
LINE
  8
0
 62
7
 10
-3.23249969E+02
 20
6.08694876E+01
 11
-3.23249969E+02
 21
1.15869419E+02
  0
LINE
  8
0
 62
7
 10
-3.20249939E+02
 20
1.19369465E+02
 11
-2.65250031E+02
 21
1.19369465E+02
  0
LINE
  8
0
 62
7
 10
-3.23749969E+02
 20
6.08694647E+01
 11
-3.23749969E+02
 21
1.15869419E+02
  0
LINE
  8
0
  6
CENTER
 62
2
 10
-2.99749969E+02
 20
1.21731128E+02
 11
-2.99749969E+02
 21
1.00140301E+02
  0
LINE
  8
0
  6
CENTER
 62
2
 10
-3.16249969E+02
 20
1.21423145E+02
 11
-3.16249969E+02
 21
1.03985096E+02
  0
LINE
  8
0
 62
7
 10
-3.20749969E+02
 20
7.78381002E+01
 11
-3.20749969E+02
 21
9.89008215E+01
  0
LINE
  8
0
 62
7
 10
-2.91750031E+02
 20
6.13694952E+01
 11
-2.91750031E+02
 21
6.84697149E+01
  0
LINE
  8
0
 62
7
 10
-2.77971633E+02
 20
7.50054037E+01
 11
-2.74020118E+02
 21
7.10538872E+01
  0
LINE
  8
0
 62
7
 10
-2.79385912E+02
 20
7.35911255E+01
 11
-2.75434353E+02
 21
6.96395659E+01
  0
LINE
  8
0
 62
7
 10
-2.65750031E+02
 20
8.73694647E+01
 11
-2.72850250E+02
 21
8.73694647E+01
  0
LINE
  8
0
 62
7
 10
-2.62250031E+02
 20
6.08694876E+01
 11
-2.62250031E+02
 21
1.15869419E+02
  0
LINE
  8
0
 62
7
 10
-3.20249939E+02
 20
5.78695104E+01
 11
-2.65250031E+02
 21
5.78694799E+01
  0
LINE
  8
0
 62
7
 10
-2.61750031E+02
 20
6.08694876E+01
 11
-2.61750031E+02
 21
1.15869465E+02
  0
LINE
  8
0
 62
7
 10
-3.20249939E+02
 20
5.73694799E+01
 11
-2.65249939E+02
 21
5.73694799E+01
  0
LINE
  8
0
  6
CENTER
 62
2
 10
-2.92749939E+02
 20
1.23130115E+02
 11
-2.92749939E+02
 21
5.50425909E+01
  0
LINE
  8
0
  6
CENTER
 62
2
 10
-2.59063629E+02
 20
6.48694189E+01
 11
-2.78766266E+02
 21
6.48694189E+01
  0
LINE
  8
0
 62
7
 10
-2.64750031E+02
 20
7.78381002E+01
 11
-2.64750031E+02
 21
9.89008215E+01
  0
LINE
  8
0
 62
7
 10
-3.03281342E+02
 20
6.03694799E+01
 11
-2.82218597E+02
 21
6.03694799E+01
  0
LINE
  8
0
 62
7
 10
-2.70749969E+02
 20
1.19369465E+02
 11
-2.70749969E+02
 21
1.18869434E+02
  0
LINE
  8
0
 62
7
 10
-3.14750000E+02
 20
1.19369465E+02
 11
-3.14750000E+02
 21
1.18869449E+02
  0
LINE
  8
0
 62
7
 10
-3.14750000E+02
 20
5.78695104E+01
 11
-3.14750000E+02
 21
5.73694799E+01
  0
LINE
  8
0
 62
7
 10
-2.70749969E+02
 20
5.78694799E+01
 11
-2.70749969E+02
 21
5.73694799E+01
  0
LINE
  8
0
  6
CENTER
 62
2
 10
-2.69250031E+02
 20
5.52083929E+01
 11
-2.69250031E+02
 21
7.40654562E+01
  0
LINE
  8
0
 62
7
 10
-3.17250000E+02
 20
1.04118061E+02
 11
-3.17250000E+02
 21
1.02869449E+02
  0
LINE
  8
0
 62
7
 10
-3.08498352E+02
 20
1.12869510E+02
 11
-3.07249969E+02
 21
1.12869510E+02
  0
LINE
  8
0
 62
7
 10
-2.77001251E+02
 20
1.12869434E+02
 11
-2.78249939E+02
 21
1.12869434E+02
  0
LINE
  8
0
 62
7
 10
-2.68249969E+02
 20
1.04117809E+02
 11
-2.68249969E+02
 21
1.02869449E+02
  0
LINE
  8
0
 62
7
 10
-3.17250031E+02
 20
7.26212271E+01
 11
-3.17250031E+02
 21
7.38694723E+01
  0
LINE
  8
0
 62
7
 10
-3.08498749E+02
 20
6.38695104E+01
 11
-3.07249969E+02
 21
6.38695104E+01
  0
LINE
  8
0
 62
7
 10
-2.77001556E+02
 20
6.38694189E+01
 11
-2.78249939E+02
 21
6.38694189E+01
  0
LINE
  8
0
 62
7
 10
-2.68250031E+02
 20
7.26207388E+01
 11
-2.68250031E+02
 21
7.38694723E+01
  0
LINE
  8
0
  6
CENTER
 62
2
 10
-2.58102081E+02
 20
8.83694647E+01
 11
-3.27265015E+02
 21
8.83694647E+01
  0
LINE
  8
0
  6
CENTER
 62
2
 10
-3.06862885E+02
 20
1.11869427E+02
 11
-3.25982574E+02
 21
1.11869427E+02
  0
LINE
  8
0
  6
CENTER
 62
2
 10
-3.07212646E+02
 20
6.48694189E+01
 11
-3.25982574E+02
 21
6.48694189E+01
  0
ARC
  8
0
 62
7
 10
-3.08235443E+02
 20
7.57124212E+01
 40
1.00000000E+00
 50
3.14999968E+02
 51
3.92609655E+01
  0
ARC
  8
0
 62
7
 10
-3.05407013E+02
 20
7.28839834E+01
 40
1.00000000E+00
 50
5.07389892E+01
 51
1.34999987E+02
  0
ARC
  8
0
 62
7
 10
-2.77264496E+02
 20
1.01026516E+02
 40
1.00000000E+00
 50
1.34999959E+02
 51
2.19260957E+02
  0
ARC
  8
0
 62
7
 10
-2.80092926E+02
 20
1.03854938E+02
 40
1.00000000E+00
 50
2.30738998E+02
 51
3.14999995E+02
  0
ARC
  8
0
 62
7
 10
-2.72850250E+02
 20
9.03694494E+01
 40
1.00000000E+00
 50
1.85739458E+02
 51
2.69999963E+02
  0
ARC
  8
0
 62
7
 10
-2.65750031E+02
 20
9.03694723E+01
 40
1.00000000E+00
 50
2.69999963E+02
 51
0.00000000E+00
  0
ARC
  8
0
 62
7
 10
-2.65250031E+02
 20
1.15869449E+02
 40
3.00000000E+00
 50
0.00000000E+00
 51
8.99999818E+01
  0
ARC
  8
0
 62
7
 10
-2.90749969E+02
 20
1.15369434E+02
 40
1.00000000E+00
 50
8.99999818E+01
 51
1.79999964E+02
  0
ARC
  8
0
 62
7
 10
-2.90749969E+02
 20
1.08269192E+02
 40
1.00000000E+00
 50
1.79999964E+02
 51
2.64260484E+02
  0
CIRCLE
  8
0
 62
7
 10
-2.69249969E+02
 20
1.11869427E+02
 40
5.00000000E+00
  0
ARC
  8
0
 62
7
 10
-2.73312958E+02
 20
1.04978023E+02
 40
1.00000000E+00
 50
5.94777518E+01
 51
1.34999345E+02
  0
ARC
  8
0
 62
7
 10
-2.76141357E+02
 20
1.07806415E+02
 40
1.00000000E+00
 50
3.15000624E+02
 51
3.05224488E+01
  0
ARC
  8
0
 62
7
 10
-3.20249939E+02
 20
6.08695028E+01
 40
3.00000000E+00
 50
1.80000036E+02
 51
2.69999991E+02
  0
ARC
  8
0
 62
7
 10
-2.94749969E+02
 20
6.13694952E+01
 40
1.00000000E+00
 50
2.69999991E+02
 51
3.59999973E+02
  0
ARC
  8
0
 62
7
 10
-2.94749969E+02
 20
6.84697531E+01
 40
1.00000000E+00
 50
3.59999973E+02
 51
8.42604992E+01
  0
CIRCLE
  8
0
 62
7
 10
-3.16250000E+02
 20
6.48694952E+01
 40
5.00000000E+00
  0
ARC
  8
0
 62
7
 10
-3.12186981E+02
 20
7.17609213E+01
 40
1.00000000E+00
 50
2.39477760E+02
 51
3.14999353E+02
  0
ARC
  8
0
 62
7
 10
-3.09358521E+02
 20
6.89325140E+01
 40
1.00000000E+00
 50
1.35000615E+02
 51
2.10522426E+02
  0
ARC
  8
0
 62
7
 10
-2.65250031E+02
 20
1.15869465E+02
 40
3.50000000E+00
 50
0.00000000E+00
 51
8.99999818E+01
  0
CIRCLE
  8
0
 62
7
 10
-2.69249969E+02
 20
1.11869427E+02
 40
4.50000000E+00
  0
ARC
  8
0
 62
7
 10
-3.20249939E+02
 20
6.08694647E+01
 40
3.50000000E+00
 50
1.80000036E+02
 51
2.69999991E+02
  0
CIRCLE
  8
0
 62
7
 10
-3.16250000E+02
 20
6.48694952E+01
 40
4.50000000E+00
  0
ARC
  8
0
 62
7
 10
-2.65750031E+02
 20
9.89008215E+01
 40
1.00000000E+00
 50
0.00000000E+00
 51
8.28191923E+01
  0
ARC
  8
0
 62
7
 10
-2.65250031E+02
 20
1.02869449E+02
 40
3.00000000E+00
 50
1.79999977E+02
 51
2.62819232E+02
  0
ARC
  8
0
 62
7
 10
-2.69218658E+02
 20
1.03869541E+02
 40
1.00000000E+00
 50
7.17896597E+00
 51
9.02255215E+01
  0
ARC
  8
0
 62
7
 10
-2.69250031E+02
 20
1.11869488E+02
 40
7.00000000E+00
 50
1.79775278E+02
 51
2.70224550E+02
  0
ARC
  8
0
 62
7
 10
-2.77249969E+02
 20
1.11900860E+02
 40
1.00000000E+00
 50
3.59775314E+02
 51
8.28191923E+01
  0
ARC
  8
0
 62
7
 10
-2.78249969E+02
 20
1.15869480E+02
 40
3.00000000E+00
 50
1.87181024E+02
 51
2.70000018E+02
  0
ARC
  8
0
 62
7
 10
-2.82218597E+02
 20
1.15369449E+02
 40
1.00000000E+00
 50
7.18156141E+00
 51
8.99999818E+01
  0
ARC
  8
0
 62
7
 10
-3.19750000E+02
 20
7.78381155E+01
 40
1.00000000E+00
 50
1.80000036E+02
 51
2.62819228E+02
  0
ARC
  8
0
 62
7
 10
-3.20249939E+02
 20
7.38694723E+01
 40
3.00000000E+00
 50
0.00000000E+00
 51
8.28192405E+01
  0
ARC
  8
0
 62
7
 10
-3.16281372E+02
 20
7.28693960E+01
 40
1.00000000E+00
 50
1.87179002E+02
 51
2.70225557E+02
  0
ARC
  8
0
 62
7
 10
-3.16249969E+02
 20
6.48694494E+01
 40
7.00000000E+00
 50
3.59775313E+02
 51
9.02245790E+01
  0
ARC
  8
0
 62
7
 10
-3.08250061E+02
 20
6.48380850E+01
 40
1.00000000E+00
 50
1.79775333E+02
 51
2.62819204E+02
  0
ARC
  8
0
 62
7
 10
-3.07250000E+02
 20
6.08694418E+01
 40
3.00000000E+00
 50
7.18104317E+00
 51
8.99999818E+01
  0
ARC
  8
0
 62
7
 10
-3.03281342E+02
 20
6.13694723E+01
 40
1.00000000E+00
 50
1.87181597E+02
 51
2.70000018E+02
  0
ARC
  8
0
 62
7
 10
-3.08235443E+02
 20
1.01026493E+02
 40
1.00000000E+00
 50
3.20738994E+02
 51
4.49999910E+01
  0
ARC
  8
0
 62
7
 10
-3.05407013E+02
 20
1.03854923E+02
 40
1.00000000E+00
 50
2.24999972E+02
 51
3.09260983E+02
  0
ARC
  8
0
 62
7
 10
-3.12649780E+02
 20
9.03694723E+01
 40
1.00000000E+00
 50
2.69999963E+02
 51
3.54260510E+02
  0
ARC
  8
0
 62
7
 10
-3.12649780E+02
 20
8.63694647E+01
 40
1.00000000E+00
 50
5.73944893E+00
 51
8.99999549E+01
  0
CIRCLE
  8
0
 62
7
 10
-3.16249969E+02
 20
1.11869488E+02
 40
5.00000000E+00
  0
ARC
  8
0
 62
7
 10
-3.09358521E+02
 20
1.07806469E+02
 40
1.00000000E+00
 50
1.49477747E+02
 51
2.24999340E+02
  0
ARC
  8
0
 62
7
 10
-2.94749969E+02
 20
1.15369434E+02
 40
1.00000000E+00
 50
3.59999959E+02
 51
8.99999956E+01
  0
ARC
  8
0
 62
7
 10
-2.94749969E+02
 20
1.08269192E+02
 40
1.00000000E+00
 50
2.75739617E+02
 51
3.59999959E+02
  0
ARC
  8
0
 62
7
 10
-3.19750000E+02
 20
9.03694723E+01
 40
1.00000000E+00
 50
1.79999964E+02
 51
2.69999946E+02
  0
ARC
  8
0
 62
7
 10
-3.16249969E+02
 20
1.11869488E+02
 40
7.00000000E+00
 50
2.69775421E+02
 51
2.24686703E-01
  0
ARC
  8
0
 62
7
 10
-3.12186890E+02
 20
1.04978023E+02
 40
1.00000000E+00
 50
4.50006194E+01
 51
1.20522431E+02
  0
ARC
  8
0
 62
7
 10
-3.20249939E+02
 20
1.15869419E+02
 40
3.00000000E+00
 50
9.00000231E+01
 51
1.79999977E+02
  0
ARC
  8
0
 62
7
 10
-3.19750000E+02
 20
8.63694647E+01
 40
1.00000000E+00
 50
8.99999549E+01
 51
1.79999991E+02
  0
ARC
  8
0
 62
7
 10
-3.20249939E+02
 20
1.15869419E+02
 40
3.50000000E+00
 50
9.00000231E+01
 51
1.79999977E+02
  0
CIRCLE
  8
0
 62
7
 10
-3.16249969E+02
 20
1.11869488E+02
 40
4.50000000E+00
  0
ARC
  8
0
 62
7
 10
-3.20249939E+02
 20
1.02869449E+02
 40
3.00000000E+00
 50
2.77180753E+02
 51
0.00000000E+00
  0
ARC
  8
0
 62
7
 10
-3.07250000E+02
 20
1.15869480E+02
 40
3.00000000E+00
 50
2.70000018E+02
 51
3.52818957E+02
  0
ARC
  8
0
 62
7
 10
-3.03281342E+02
 20
1.15369449E+02
 40
1.00000000E+00
 50
8.99999818E+01
 51
1.72818402E+02
  0
ARC
  8
0
 62
7
 10
-3.08250061E+02
 20
1.11900860E+02
 40
1.00000000E+00
 50
9.71807714E+01
 51
1.80224650E+02
  0
ARC
  8
0
 62
7
 10
-3.16281372E+02
 20
1.03869541E+02
 40
1.00000000E+00
 50
8.97744422E+01
 51
1.72820998E+02
  0
ARC
  8
0
 62
7
 10
-3.19750000E+02
 20
9.89008215E+01
 40
1.00000000E+00
 50
9.71807714E+01
 51
1.79999964E+02
  0
ARC
  8
0
 62
7
 10
-2.90749969E+02
 20
6.84697149E+01
 40
1.00000000E+00
 50
9.57394445E+01
 51
1.79999951E+02
  0
ARC
  8
0
 62
7
 10
-2.80092926E+02
 20
7.28840063E+01
 40
1.00000000E+00
 50
4.49999637E+01
 51
1.29260961E+02
  0
ARC
  8
0
 62
7
 10
-2.77264496E+02
 20
7.57124288E+01
 40
1.00000000E+00
 50
1.40738985E+02
 51
2.24999982E+02
  0
ARC
  8
0
 62
7
 10
-2.72850250E+02
 20
8.63694647E+01
 40
1.00000000E+00
 50
8.99999681E+01
 51
1.74260502E+02
  0
ARC
  8
0
 62
7
 10
-2.90749969E+02
 20
6.13694952E+01
 40
1.00000000E+00
 50
1.79999951E+02
 51
2.70000001E+02
  0
ARC
  8
0
 62
7
 10
-2.65250031E+02
 20
6.08695028E+01
 40
3.00000000E+00
 50
2.70000018E+02
 51
3.59999986E+02
  0
ARC
  8
0
 62
7
 10
-2.65750031E+02
 20
8.63694647E+01
 40
1.00000000E+00
 50
3.59999986E+02
 51
8.99999681E+01
  0
CIRCLE
  8
0
 62
7
 10
-2.69250031E+02
 20
6.48694418E+01
 40
5.00000000E+00
  0
ARC
  8
0
 62
7
 10
-2.76141449E+02
 20
6.89324530E+01
 40
1.00000000E+00
 50
3.29477756E+02
 51
4.49993490E+01
  0
ARC
  8
0
 62
7
 10
-2.73312988E+02
 20
7.17608831E+01
 40
1.00000000E+00
 50
2.25000628E+02
 51
3.00522440E+02
  0
ARC
  8
0
 62
7
 10
-2.65249939E+02
 20
6.08695028E+01
 40
3.50000000E+00
 50
2.70000018E+02
 51
3.59999986E+02
  0
CIRCLE
  8
0
 62
7
 10
-2.69250031E+02
 20
6.48694418E+01
 40
4.50000000E+00
  0
ARC
  8
0
 62
7
 10
-2.82218597E+02
 20
6.13694723E+01
 40
1.00000000E+00
 50
2.70000018E+02
 51
3.52818438E+02
  0
ARC
  8
0
 62
7
 10
-2.78249969E+02
 20
6.08694418E+01
 40
3.00000000E+00
 50
8.99999818E+01
 51
1.72818977E+02
  0
ARC
  8
0
 62
7
 10
-2.77249969E+02
 20
6.48380850E+01
 40
1.00000000E+00
 50
2.77180808E+02
 51
2.24685903E-01
  0
ARC
  8
0
 62
7
 10
-2.69250031E+02
 20
6.48694494E+01
 40
7.00000000E+00
 50
8.97754328E+01
 51
1.80224705E+02
  0
ARC
  8
0
 62
7
 10
-2.69218658E+02
 20
7.28693960E+01
 40
1.00000000E+00
 50
2.69774478E+02
 51
3.52821034E+02
  0
ARC
  8
0
 62
7
 10
-2.65250031E+02
 20
7.38694723E+01
 40
3.00000000E+00
 50
9.71807782E+01
 51
1.79999964E+02
  0
ARC
  8
0
 62
7
 10
-2.65750031E+02
 20
7.78381155E+01
 40
1.00000000E+00
 50
2.77180808E+02
 51
0.00000000E+00
  0
CIRCLE
  8
0
 62
7
 10
-2.92749939E+02
 20
8.83694647E+01
 40
1.75294495E+01
  0
CIRCLE
  8
0
 62
7
 10
-2.92749939E+02
 20
8.83694647E+01
 40
1.90000000E+01
  0
CIRCLE
  8
0
 62
7
 10
-2.92749939E+02
 20
8.83694647E+01
 40
1.70000000E+01
  0
CIRCLE
  8
0
 62
2
 10
-3.16249969E+02
 20
1.11869427E+02
 40
3.00000000E+00
  0
CIRCLE
  8
0
 62
2
 10
-3.16250000E+02
 20
6.48694189E+01
 40
3.00000000E+00
  0
CIRCLE
  8
0
 62
2
 10
-2.69250031E+02
 20
6.48694189E+01
 40
3.00000000E+00
  0
CIRCLE
  8
0
 62
2
 10
-2.69249969E+02
 20
1.11869427E+02
 40
3.00000000E+00
  0
CIRCLE
  8
0
 62
7
 10
-2.92749939E+02
 20
8.83694647E+01
 40
8.99999237E+00
  0
CIRCLE
  8
0
 62
2
 10
-2.92749939E+02
 20
8.83694647E+01
 40
8.18000031E+00
  0
CIRCLE
  8
0
 62
7
 10
-2.92749939E+02
 20
8.83694647E+01
 40
7.49999237E+00
  0
CIRCLE
  8
0
 62
4
 10
-2.92749939E+02
 20
8.83694647E+01
 40
1.35000000E+01
  0
LINE
  8
0
 62
4
 10
-2.92749939E+02
 20
1.03957922E+02
 11
-3.06249939E+02
 21
9.61636933E+01
  0
LINE
  8
0
 62
4
 10
-3.06249939E+02
 20
9.61636933E+01
 11
-3.06249939E+02
 21
8.05752360E+01
  0
LINE
  8
0
 62
4
 10
-3.06249939E+02
 20
8.05752360E+01
 11
-2.92749939E+02
 21
7.27810074E+01
  0
LINE
  8
0
 62
4
 10
-2.92749939E+02
 20
7.27810074E+01
 11
-2.79249939E+02
 21
8.05752360E+01
  0
LINE
  8
0
 62
4
 10
-2.79249939E+02
 20
8.05752360E+01
 11
-2.79249939E+02
 21
9.61636933E+01
  0
LINE
  8
0
 62
4
 10
-2.79249939E+02
 20
9.61636933E+01
 11
-2.92749939E+02
 21
1.03957922E+02
  0
LINE
  8
0
 62
6
 10
-3.26263072E+02
 20
1.05686743E+02
 11
-3.23749939E+02
 21
1.06129876E+02
  0
LINE
  8
0
 62
6
 10
-3.26784016E+02
 20
1.08641166E+02
 11
-3.23746255E+02
 21
1.09176805E+02
  0
LINE
  8
0
 62
4
 10
-3.26176248E+02
 20
1.05194339E+02
 11
-3.26870841E+02
 21
1.09133570E+02
  0
LINE
  8
0
 62
4
 10
-3.26176248E+02
 20
1.05194339E+02
 11
-3.23749939E+02
 21
1.05622163E+02
  0
LINE
  8
0
 62
4
 10
-3.26870841E+02
 20
1.09133570E+02
 11
-3.23833079E+02
 21
1.09669209E+02
  0
LINE
  8
0
 62
4
 10
-3.24402223E+02
 20
1.12896984E+02
 11
-3.23749939E+02
 21
1.09197700E+02
  0
LINE
  8
0
 62
4
 10
-3.11694226E+02
 20
1.30087296E+02
 11
-3.18587880E+02
 21
1.28871758E+02
  0
LINE
  8
0
 62
4
 10
-3.18587880E+02
 20
1.28871758E+02
 11
-3.22283544E+02
 21
1.18718007E+02
  0
LINE
  8
0
 62
4
 10
-3.10218216E+02
 20
1.21716430E+02
 11
-3.10710620E+02
 21
1.21629606E+02
  0
LINE
  8
0
 62
4
 10
-3.11116200E+02
 20
1.21050378E+02
 11
-3.10819810E+02
 21
1.19369465E+02
  0
ARC
  8
0
 62
4
 10
-3.10623796E+02
 20
1.21137202E+02
 40
5.00000000E-01
 50
9.99999999E+01
 51
1.90000000E+02
  0
LINE
  8
0
  6
CENTER
 62
6
 10
-3.11843480E+02
 20
1.21937565E+02
 11
-2.98992974E+02
 21
1.24203456E+02
  0
LINE
  8
0
  6
CENTER
 62
6
 10
-3.21685115E+02
 20
1.23756213E+02
 11
-2.99600743E+02
 21
1.27650283E+02
  0
LINE
  8
0
 62
4
 10
-3.02925171E+02
 20
1.20666909E+02
 11
-3.02600707E+02
 21
1.21130292E+02
  0
LINE
  8
0
 62
4
 10
-3.02600707E+02
 20
1.21130292E+02
 11
-2.99744765E+02
 21
1.21633871E+02
  0
LINE
  8
0
 62
4
 10
-3.03417575E+02
 20
1.20580085E+02
 11
-3.03204110E+02
 21
1.19369465E+02
  0
LINE
  8
0
 62
4
 10
-3.03417575E+02
 20
1.20580085E+02
 11
-3.02925171E+02
 21
1.20666909E+02
  0
LINE
  8
0
 62
4
 10
-3.11694226E+02
 20
1.30087296E+02
 11
-3.10218216E+02
 21
1.21716430E+02
  0
LINE
  8
0
 62
4
 10
-3.01550706E+02
 20
1.31875872E+02
 11
-3.11694226E+02
 21
1.30087296E+02
  0
LINE
  8
0
 62
4
 10
-3.10612139E+02
 20
1.21646971E+02
 11
-3.10210554E+02
 21
1.19369465E+02
  0
LINE
  8
0
 62
4
 10
-3.00166688E+02
 20
1.20168340E+02
 11
-3.00025825E+02
 21
1.19369465E+02
  0
LINE
  8
0
 62
4
 10
-2.99460979E+02
 20
1.21176197E+02
 11
-3.00166688E+02
 21
1.20168340E+02
  0
LINE
  8
0
 62
4
 10
-3.03400210E+02
 20
1.20481604E+02
 11
-3.02397278E+02
 21
1.19775027E+02
  0
LINE
  8
0
 62
4
 10
-3.02397278E+02
 20
1.19775027E+02
 11
-3.00166688E+02
 21
1.20168340E+02
  0
LINE
  8
0
 62
4
 10
-3.03400210E+02
 20
1.20481604E+02
 11
-2.99460979E+02
 21
1.21176197E+02
  0
LINE
  8
0
 62
4
 10
-2.99460979E+02
 20
1.21176197E+02
 11
-2.99142404E+02
 21
1.19369465E+02
  0
LINE
  8
0
  6
CENTER
 62
6
 10
-3.01604243E+02
 20
1.21813708E+02
 11
-3.01173257E+02
 21
1.19369465E+02
  0
LINE
  8
0
  6
CENTER
 62
6
 10
-3.04037722E+02
 20
1.18338341E+02
 11
-2.98128875E+02
 21
1.19380230E+02
  0
LINE
  8
0
 62
4
 10
-3.01429152E+02
 20
1.31186506E+02
 11
-3.00444345E+02
 21
1.31360155E+02
  0
ARC
  8
0
 62
4
 10
-2.98254103E+02
 20
1.25450708E+02
 40
1.00000000E+00
 50
3.28723662E+02
 51
3.57172490E+02
  0
ARC
  8
0
 62
4
 10
-2.99087614E+02
 20
1.30177786E+02
 40
1.00000000E+00
 50
2.28275100E+01
 51
9.99999999E+01
  0
ARC
  8
0
 62
4
 10
-3.09050942E+02
 20
1.25983958E+02
 40
1.18100000E+01
 50
3.57172490E+02
 51
2.28275100E+01
  0
LINE
  8
0
 62
4
 10
-3.00374885E+02
 20
1.30966232E+02
 11
-2.99262053E+02
 21
1.31162454E+02
  0
LINE
  8
0
 62
4
 10
-2.99897353E+02
 20
1.28258010E+02
 11
-3.00444345E+02
 21
1.31360155E+02
  0
LINE
  8
0
 62
4
 10
-2.99066654E+02
 20
1.19976444E+02
 11
-3.00507934E+02
 21
1.28150348E+02
  0
LINE
  8
0
 62
4
 10
-3.00856113E+02
 20
1.27936641E+02
 11
-3.00481886E+02
 21
1.28002627E+02
  0
LINE
  8
0
 62
4
 10
-2.99269966E+02
 20
1.20092909E+02
 11
-2.99092701E+02
 21
1.20124165E+02
  0
LINE
  8
0
 62
4
 10
-3.00507934E+02
 20
1.28150348E+02
 11
-2.98774672E+02
 21
1.28455969E+02
  0
LINE
  8
0
 62
4
 10
-2.99066654E+02
 20
1.19976444E+02
 11
-2.97333392E+02
 21
1.20282065E+02
  0
ARC
  8
0
 62
4
 10
-3.08947090E+02
 20
1.22456135E+02
 40
1.18100000E+01
 50
9.99999999E+00
 51
3.05326991E+01
  0
ARC
  8
0
 62
4
 10
-3.08944402E+02
 20
1.22440893E+02
 40
1.18100000E+01
 50
3.49467301E+02
 51
9.99999999E+00
  0
LINE
  8
0
 62
4
 10
-2.99657941E+02
 20
1.21141467E+02
 11
-3.01550706E+02
 21
1.31875872E+02
  0
LINE
  8
0
 62
4
 10
-2.59323630E+02
 20
1.05194339E+02
 11
-2.58629037E+02
 21
1.09133570E+02
  0
LINE
  8
0
 62
6
 10
-2.59236806E+02
 20
1.05686743E+02
 11
-2.61750000E+02
 21
1.06129887E+02
  0
LINE
  8
0
 62
6
 10
-2.58715861E+02
 20
1.08641166E+02
 11
-2.61753623E+02
 21
1.09176805E+02
  0
LINE
  8
0
 62
4
 10
-2.59323630E+02
 20
1.05194339E+02
 11
-2.61750000E+02
 21
1.05622173E+02
  0
LINE
  8
0
 62
4
 10
-2.58629037E+02
 20
1.09133570E+02
 11
-2.61666799E+02
 21
1.09669209E+02
  0
LINE
  8
0
  6
CENTER
 62
6
 10
-2.81462156E+02
 20
1.18338341E+02
 11
-2.87309951E+02
 21
1.19369465E+02
  0
LINE
  8
0
  6
CENTER
 62
6
 10
-2.83895635E+02
 20
1.21813708E+02
 11
-2.84326621E+02
 21
1.19369465E+02
  0
LINE
  8
0
 62
4
 10
-2.86038899E+02
 20
1.21176197E+02
 11
-2.86357474E+02
 21
1.19369465E+02
  0
LINE
  8
0
 62
4
 10
-2.82099668E+02
 20
1.20481604E+02
 11
-2.86038899E+02
 21
1.21176197E+02
  0
LINE
  8
0
 62
4
 10
-2.74887738E+02
 20
1.21646971E+02
 11
-2.75289324E+02
 21
1.19369465E+02
  0
LINE
  8
0
 62
4
 10
-2.83949172E+02
 20
1.31875872E+02
 11
-2.73805652E+02
 21
1.30087296E+02
  0
LINE
  8
0
 62
4
 10
-2.73805652E+02
 20
1.30087296E+02
 11
-2.75281662E+02
 21
1.21716430E+02
  0
LINE
  8
0
 62
4
 10
-2.82082303E+02
 20
1.20580085E+02
 11
-2.82574707E+02
 21
1.20666909E+02
  0
LINE
  8
0
 62
4
 10
-2.82082303E+02
 20
1.20580085E+02
 11
-2.82295768E+02
 21
1.19369465E+02
  0
LINE
  8
0
 62
4
 10
-2.82899170E+02
 20
1.21130292E+02
 11
-2.85755113E+02
 21
1.21633871E+02
  0
LINE
  8
0
 62
4
 10
-2.82574707E+02
 20
1.20666909E+02
 11
-2.82899170E+02
 21
1.21130292E+02
  0
LINE
  8
0
  6
CENTER
 62
6
 10
-2.63814763E+02
 20
1.23756213E+02
 11
-2.85899135E+02
 21
1.27650283E+02
  0
LINE
  8
0
  6
CENTER
 62
6
 10
-2.73656398E+02
 20
1.21937565E+02
 11
-2.86506904E+02
 21
1.24203456E+02
  0
LINE
  8
0
  6
CENTER
 62
6
 10
-2.67681991E+02
 20
1.08698997E+02
 11
-2.60215986E+02
 21
1.07382539E+02
  0
ARC
  8
0
 62
4
 10
-2.74876082E+02
 20
1.21137202E+02
 40
5.00000000E-01
 50
3.50000000E+02
 51
7.99999999E+01
  0
LINE
  8
0
 62
4
 10
-2.74383678E+02
 20
1.21050378E+02
 11
-2.74680068E+02
 21
1.19369465E+02
  0
LINE
  8
0
 62
4
 10
-2.75281662E+02
 20
1.21716430E+02
 11
-2.74789258E+02
 21
1.21629606E+02
  0
LINE
  8
0
 62
4
 10
-2.66911998E+02
 20
1.28871758E+02
 11
-2.63216335E+02
 21
1.18718010E+02
  0
LINE
  8
0
 62
4
 10
-2.73805652E+02
 20
1.30087296E+02
 11
-2.66911998E+02
 21
1.28871758E+02
  0
LINE
  8
0
 62
4
 10
-2.61097655E+02
 20
1.12896984E+02
 11
-2.61750000E+02
 21
1.09197353E+02
  0
ARC
  8
0
 62
4
 10
-2.84416579E+02
 20
1.18859285E+02
 40
1.50000000E+00
 50
1.98841649E+01
 51
1.60115835E+02
  0
ARC
  8
0
 62
4
 10
-2.84286343E+02
 20
1.19597891E+02
 40
3.00000000E-01
 50
3.10410364E+02
 51
2.29589636E+02
  0
ARC
  8
0
 62
4
 10
-2.84286343E+02
 20
1.19597891E+02
 40
5.00000000E-01
 50
3.32815800E+02
 51
2.07184200E+02
  0
LINE
  8
0
 62
4
 10
-2.85390452E+02
 20
1.23701968E+02
 11
-2.86375260E+02
 21
1.23875616E+02
  0
LINE
  8
0
 62
4
 10
-2.84070726E+02
 20
1.31186506E+02
 11
-2.85055533E+02
 21
1.31360155E+02
  0
ARC
  8
0
 62
4
 10
-2.87245775E+02
 20
1.25450708E+02
 40
1.00000000E+00
 50
1.82827510E+02
 51
2.60000000E+02
  0
ARC
  8
0
 62
4
 10
-2.86412264E+02
 20
1.30177786E+02
 40
1.00000000E+00
 50
7.99999999E+01
 51
1.57172490E+02
  0
ARC
  8
0
 62
4
 10
-2.76448936E+02
 20
1.25983958E+02
 40
1.18100000E+01
 50
1.57172490E+02
 51
1.82827510E+02
  0
LINE
  8
0
 62
4
 10
-2.86305800E+02
 20
1.24269539E+02
 11
-2.87418633E+02
 21
1.24465761E+02
  0
LINE
  8
0
 62
4
 10
-2.85124993E+02
 20
1.30966232E+02
 11
-2.86237825E+02
 21
1.31162454E+02
  0
LINE
  8
0
 62
4
 10
-2.86375260E+02
 20
1.23875616E+02
 11
-2.85055533E+02
 21
1.31360155E+02
  0
LINE
  8
0
 62
4
 10
-2.86433224E+02
 20
1.19976444E+02
 11
-2.85764679E+02
 21
1.23767954E+02
  0
LINE
  8
0
 62
4
 10
-2.86032950E+02
 20
1.20058179E+02
 11
-2.86407177E+02
 21
1.20124165E+02
  0
LINE
  8
0
 62
4
 10
-2.86433224E+02
 20
1.19976444E+02
 11
-2.88166486E+02
 21
1.20282065E+02
  0
ARC
  8
0
 62
4
 10
-2.76552788E+02
 20
1.22456135E+02
 40
1.18100000E+01
 50
1.67900933E+02
 51
1.70000000E+02
  0
ARC
  8
0
 62
4
 10
-2.76555476E+02
 20
1.22440893E+02
 40
1.18100000E+01
 50
1.70000000E+02
 51
1.90532699E+02
  0
LINE
  8
0
 62
4
 10
-2.86032950E+02
 20
1.20058179E+02
 11
-2.83949172E+02
 21
1.31875872E+02
  0
LINE
  8
0
 62
4
 10
-3.23749939E+02
 20
1.14689118E+02
 11
-3.24402223E+02
 21
1.12896984E+02
  0
LINE
  8
0
 62
4
 10
-2.61750000E+02
 20
1.14689286E+02
 11
-2.61097655E+02
 21
1.12896984E+02
  0
LINE
  8
0
  6
CENTER
 62
6
 10
-2.87309951E+02
 20
1.19369465E+02
 11
-2.87371003E+02
 21
1.19380230E+02
  0
LINE
  8
0
  6
CENTER
 62
6
 10
-2.84326621E+02
 20
1.19369465E+02
 11
-2.84937524E+02
 21
1.15904862E+02
  0
LINE
  8
0
 62
4
 10
-3.02325766E+02
 20
1.19369465E+02
 11
-3.02397278E+02
 21
1.19775027E+02
  0
LINE
  8
0
  6
CENTER
 62
6
 10
-3.01173257E+02
 20
1.19369465E+02
 11
-3.00562354E+02
 21
1.15904862E+02
  0
LINE
  8
0
  6
CENTER
 62
6
 10
-3.25283891E+02
 20
1.07382539E+02
 11
-3.17817887E+02
 21
1.08698997E+02
  0
CIRCLE
  8
0
 62
7
 10
2.70750092E+02
 20
6.48695028E+01
 40
2.45850000E+00
  0
CIRCLE
  8
0
 62
7
 10
2.23750099E+02
 20
6.48694342E+01
 40
2.45850000E+00
  0
CIRCLE
  8
0
 62
7
 10
2.23750031E+02
 20
1.11869427E+02
 40
2.45850000E+00
  0
CIRCLE
  8
0
 62
7
 10
2.70750023E+02
 20
1.11869495E+02
 40
2.45850000E+00
  0
LINE
  8
0
 62
7
 10
2.52750036E+02
 20
9.18335913E+01
 11
2.52750036E+02
 21
8.49053381E+01
  0
LINE
  8
0
 62
7
 10
2.41750086E+02
 20
9.18335913E+01
 11
2.41750086E+02
 21
8.49053381E+01
  0
LINE
  8
0
 62
7
 10
2.43785962E+02
 20
8.28694723E+01
 11
2.50714160E+02
 21
8.28694723E+01
  0
LINE
  8
0
 62
7
 10
2.43785962E+02
 20
9.38694570E+01
 11
2.50714160E+02
 21
9.38694570E+01
  0
LINE
  8
0
 62
7
 10
2.59250061E+02
 20
9.52976679E+01
 11
2.47250061E+02
 21
1.02225871E+02
  0
LINE
  8
0
 62
7
 10
2.59250061E+02
 20
8.14412614E+01
 11
2.59250061E+02
 21
9.52976679E+01
  0
LINE
  8
0
 62
7
 10
2.47250061E+02
 20
7.45130582E+01
 11
2.59250061E+02
 21
8.14412614E+01
  0
LINE
  8
0
 62
7
 10
2.35250061E+02
 20
8.14412614E+01
 11
2.47250061E+02
 21
7.45130582E+01
  0
LINE
  8
0
 62
7
 10
2.35250061E+02
 20
9.52976679E+01
 11
2.35250061E+02
 21
8.14412614E+01
  0
LINE
  8
0
 62
7
 10
2.47250061E+02
 20
1.02225871E+02
 11
2.35250061E+02
 21
9.52976679E+01
  0
CIRCLE
  8
0
 62
7
 10
2.47250061E+02
 20
8.83694647E+01
 40
1.20000000E+01
  0
CIRCLE
  8
0
 62
7
 10
2.47250061E+02
 20
8.83694647E+01
 40
6.49999237E+00
  0
CIRCLE
  8
0
 62
7
 10
2.47250061E+02
 20
8.83694647E+01
 40
6.99996141E+00
  0
CIRCLE
  8
0
 62
2
 10
2.47250061E+02
 20
8.83694647E+01
 40
7.18000031E+00
  0
CIRCLE
  8
0
 62
7
 10
2.47250061E+02
 20
8.83694647E+01
 40
8.00000000E+00
  0
CIRCLE
  8
0
 62
7
 10
2.47250061E+02
 20
8.83694647E+01
 40
1.51499939E+01
  0
LINE
  8
0
  6
CENTER
 62
6
 10
2.14716109E+02
 20
1.07382539E+02
 11
2.22182113E+02
 21
1.08698997E+02
  0
LINE
  8
0
 62
4
 10
2.37674234E+02
 20
1.19369465E+02
 11
2.37602722E+02
 21
1.19775027E+02
  0
LINE
  8
0
  6
CENTER
 62
6
 10
2.52690049E+02
 20
1.19369465E+02
 11
2.52628997E+02
 21
1.19380230E+02
  0
LINE
  8
0
 62
4
 10
2.78250000E+02
 20
1.14689286E+02
 11
2.78902345E+02
 21
1.12896984E+02
  0
LINE
  8
0
 62
4
 10
2.16250061E+02
 20
1.14689118E+02
 11
2.15597777E+02
 21
1.12896984E+02
  0
LINE
  8
0
 62
4
 10
2.53967050E+02
 20
1.20058179E+02
 11
2.56050828E+02
 21
1.31875872E+02
  0
ARC
  8
0
 62
4
 10
2.63444524E+02
 20
1.22440893E+02
 40
1.18100000E+01
 50
1.70000000E+02
 51
1.90532699E+02
  0
ARC
  8
0
 62
4
 10
2.63447212E+02
 20
1.22456135E+02
 40
1.18100000E+01
 50
1.67900933E+02
 51
1.70000000E+02
  0
LINE
  8
0
 62
4
 10
2.53566776E+02
 20
1.19976444E+02
 11
2.51833514E+02
 21
1.20282065E+02
  0
LINE
  8
0
 62
4
 10
2.53967050E+02
 20
1.20058179E+02
 11
2.53592823E+02
 21
1.20124165E+02
  0
LINE
  8
0
 62
4
 10
2.53566776E+02
 20
1.19976444E+02
 11
2.54235321E+02
 21
1.23767954E+02
  0
LINE
  8
0
 62
4
 10
2.53624740E+02
 20
1.23875616E+02
 11
2.54944467E+02
 21
1.31360155E+02
  0
LINE
  8
0
 62
4
 10
2.54875007E+02
 20
1.30966232E+02
 11
2.53762175E+02
 21
1.31162454E+02
  0
LINE
  8
0
 62
4
 10
2.53694200E+02
 20
1.24269539E+02
 11
2.52581367E+02
 21
1.24465761E+02
  0
ARC
  8
0
 62
4
 10
2.63551064E+02
 20
1.25983958E+02
 40
1.18100000E+01
 50
1.57172490E+02
 51
1.82827510E+02
  0
ARC
  8
0
 62
4
 10
2.53587736E+02
 20
1.30177786E+02
 40
1.00000000E+00
 50
7.99999999E+01
 51
1.57172490E+02
  0
ARC
  8
0
 62
4
 10
2.52754225E+02
 20
1.25450708E+02
 40
1.00000000E+00
 50
1.82827510E+02
 51
2.60000000E+02
  0
LINE
  8
0
 62
4
 10
2.55929274E+02
 20
1.31186506E+02
 11
2.54944467E+02
 21
1.31360155E+02
  0
LINE
  8
0
 62
4
 10
2.54609548E+02
 20
1.23701968E+02
 11
2.53624740E+02
 21
1.23875616E+02
  0
ARC
  8
0
 62
4
 10
2.55713657E+02
 20
1.19597891E+02
 40
5.00000000E-01
 50
3.32815800E+02
 51
2.07184200E+02
  0
ARC
  8
0
 62
4
 10
2.55713657E+02
 20
1.19597891E+02
 40
3.00000000E-01
 50
3.10410364E+02
 51
2.29589636E+02
  0
ARC
  8
0
 62
4
 10
2.55583421E+02
 20
1.18859285E+02
 40
1.50000000E+00
 50
1.98841649E+01
 51
1.60115835E+02
  0
LINE
  8
0
 62
4
 10
2.78902345E+02
 20
1.12896984E+02
 11
2.78250000E+02
 21
1.09197353E+02
  0
LINE
  8
0
 62
4
 10
2.66194348E+02
 20
1.30087296E+02
 11
2.73088002E+02
 21
1.28871758E+02
  0
LINE
  8
0
 62
4
 10
2.73088002E+02
 20
1.28871758E+02
 11
2.76783665E+02
 21
1.18718010E+02
  0
LINE
  8
0
 62
4
 10
2.64718338E+02
 20
1.21716430E+02
 11
2.65210742E+02
 21
1.21629606E+02
  0
LINE
  8
0
 62
4
 10
2.65616322E+02
 20
1.21050378E+02
 11
2.65319932E+02
 21
1.19369465E+02
  0
ARC
  8
0
 62
4
 10
2.65123918E+02
 20
1.21137202E+02
 40
5.00000000E-01
 50
3.50000000E+02
 51
7.99999999E+01
  0
LINE
  8
0
  6
CENTER
 62
6
 10
2.72318009E+02
 20
1.08698997E+02
 11
2.79784014E+02
 21
1.07382539E+02
  0
LINE
  8
0
  6
CENTER
 62
6
 10
2.66343602E+02
 20
1.21937565E+02
 11
2.53493096E+02
 21
1.24203456E+02
  0
LINE
  8
0
  6
CENTER
 62
6
 10
2.76185237E+02
 20
1.23756213E+02
 11
2.54100865E+02
 21
1.27650283E+02
  0
LINE
  8
0
 62
4
 10
2.57425293E+02
 20
1.20666909E+02
 11
2.57100830E+02
 21
1.21130292E+02
  0
LINE
  8
0
 62
4
 10
2.57100830E+02
 20
1.21130292E+02
 11
2.54244887E+02
 21
1.21633871E+02
  0
LINE
  8
0
 62
4
 10
2.57917697E+02
 20
1.20580085E+02
 11
2.57704232E+02
 21
1.19369465E+02
  0
LINE
  8
0
 62
4
 10
2.57917697E+02
 20
1.20580085E+02
 11
2.57425293E+02
 21
1.20666909E+02
  0
LINE
  8
0
 62
4
 10
2.66194348E+02
 20
1.30087296E+02
 11
2.64718338E+02
 21
1.21716430E+02
  0
LINE
  8
0
 62
4
 10
2.56050828E+02
 20
1.31875872E+02
 11
2.66194348E+02
 21
1.30087296E+02
  0
LINE
  8
0
 62
4
 10
2.65112262E+02
 20
1.21646971E+02
 11
2.64710676E+02
 21
1.19369465E+02
  0
LINE
  8
0
 62
4
 10
2.57900332E+02
 20
1.20481604E+02
 11
2.53961101E+02
 21
1.21176197E+02
  0
LINE
  8
0
 62
4
 10
2.53961101E+02
 20
1.21176197E+02
 11
2.53642526E+02
 21
1.19369465E+02
  0
LINE
  8
0
  6
CENTER
 62
6
 10
2.56104365E+02
 20
1.21813708E+02
 11
2.55673379E+02
 21
1.19369465E+02
  0
LINE
  8
0
 62
4
 10
2.81370963E+02
 20
1.09133570E+02
 11
2.78333201E+02
 21
1.09669209E+02
  0
LINE
  8
0
 62
4
 10
2.80676370E+02
 20
1.05194339E+02
 11
2.78250000E+02
 21
1.05622173E+02
  0
LINE
  8
0
 62
6
 10
2.81284139E+02
 20
1.08641166E+02
 11
2.78246377E+02
 21
1.09176805E+02
  0
LINE
  8
0
 62
6
 10
2.80763194E+02
 20
1.05686743E+02
 11
2.78250000E+02
 21
1.06129887E+02
  0
LINE
  8
0
 62
4
 10
2.80676370E+02
 20
1.05194339E+02
 11
2.81370963E+02
 21
1.09133570E+02
  0
LINE
  8
0
 62
4
 10
2.40342059E+02
 20
1.21141467E+02
 11
2.38449294E+02
 21
1.31875872E+02
  0
ARC
  8
0
 62
4
 10
2.31055598E+02
 20
1.22440893E+02
 40
1.18100000E+01
 50
3.49467301E+02
 51
9.99999999E+00
  0
ARC
  8
0
 62
4
 10
2.31052910E+02
 20
1.22456135E+02
 40
1.18100000E+01
 50
9.99999999E+00
 51
3.05326991E+01
  0
LINE
  8
0
 62
4
 10
2.40933346E+02
 20
1.19976444E+02
 11
2.42666608E+02
 21
1.20282065E+02
  0
LINE
  8
0
 62
4
 10
2.39492066E+02
 20
1.28150348E+02
 11
2.41225328E+02
 21
1.28455969E+02
  0
LINE
  8
0
 62
4
 10
2.40730034E+02
 20
1.20092909E+02
 11
2.40907299E+02
 21
1.20124165E+02
  0
LINE
  8
0
 62
4
 10
2.39143887E+02
 20
1.27936641E+02
 11
2.39518114E+02
 21
1.28002627E+02
  0
LINE
  8
0
 62
4
 10
2.40933346E+02
 20
1.19976444E+02
 11
2.39492066E+02
 21
1.28150348E+02
  0
LINE
  8
0
 62
4
 10
2.40102647E+02
 20
1.28258010E+02
 11
2.39555655E+02
 21
1.31360155E+02
  0
LINE
  8
0
 62
4
 10
2.39625115E+02
 20
1.30966232E+02
 11
2.40737947E+02
 21
1.31162454E+02
  0
ARC
  8
0
 62
4
 10
2.30949058E+02
 20
1.25983958E+02
 40
1.18100000E+01
 50
3.57172490E+02
 51
2.28275100E+01
  0
ARC
  8
0
 62
4
 10
2.40912386E+02
 20
1.30177786E+02
 40
1.00000000E+00
 50
2.28275100E+01
 51
9.99999999E+01
  0
ARC
  8
0
 62
4
 10
2.41745897E+02
 20
1.25450708E+02
 40
1.00000000E+00
 50
3.28723662E+02
 51
3.57172490E+02
  0
LINE
  8
0
 62
4
 10
2.38570848E+02
 20
1.31186506E+02
 11
2.39555655E+02
 21
1.31360155E+02
  0
LINE
  8
0
  6
CENTER
 62
6
 10
2.38395757E+02
 20
1.21813708E+02
 11
2.38826743E+02
 21
1.19369465E+02
  0
LINE
  8
0
 62
4
 10
2.40539021E+02
 20
1.21176197E+02
 11
2.40857596E+02
 21
1.19369465E+02
  0
LINE
  8
0
 62
4
 10
2.36599790E+02
 20
1.20481604E+02
 11
2.40539021E+02
 21
1.21176197E+02
  0
LINE
  8
0
 62
4
 10
2.37602722E+02
 20
1.19775027E+02
 11
2.39833312E+02
 21
1.20168340E+02
  0
LINE
  8
0
 62
4
 10
2.36599790E+02
 20
1.20481604E+02
 11
2.37602722E+02
 21
1.19775027E+02
  0
LINE
  8
0
 62
4
 10
2.40539021E+02
 20
1.21176197E+02
 11
2.39833312E+02
 21
1.20168340E+02
  0
LINE
  8
0
 62
4
 10
2.39833312E+02
 20
1.20168340E+02
 11
2.39974175E+02
 21
1.19369465E+02
  0
LINE
  8
0
 62
4
 10
2.29387861E+02
 20
1.21646971E+02
 11
2.29789446E+02
 21
1.19369465E+02
  0
LINE
  8
0
 62
4
 10
2.38449294E+02
 20
1.31875872E+02
 11
2.28305774E+02
 21
1.30087296E+02
  0
LINE
  8
0
 62
4
 10
2.28305774E+02
 20
1.30087296E+02
 11
2.29781784E+02
 21
1.21716430E+02
  0
LINE
  8
0
 62
4
 10
2.36582425E+02
 20
1.20580085E+02
 11
2.37074829E+02
 21
1.20666909E+02
  0
LINE
  8
0
 62
4
 10
2.36582425E+02
 20
1.20580085E+02
 11
2.36795890E+02
 21
1.19369465E+02
  0
LINE
  8
0
 62
4
 10
2.37399293E+02
 20
1.21130292E+02
 11
2.40255235E+02
 21
1.21633871E+02
  0
LINE
  8
0
 62
4
 10
2.37074829E+02
 20
1.20666909E+02
 11
2.37399293E+02
 21
1.21130292E+02
  0
LINE
  8
0
  6
CENTER
 62
6
 10
2.18314885E+02
 20
1.23756213E+02
 11
2.40399257E+02
 21
1.27650283E+02
  0
LINE
  8
0
  6
CENTER
 62
6
 10
2.28156520E+02
 20
1.21937565E+02
 11
2.41007026E+02
 21
1.24203456E+02
  0
ARC
  8
0
 62
4
 10
2.29376204E+02
 20
1.21137202E+02
 40
5.00000000E-01
 50
9.99999999E+01
 51
1.90000000E+02
  0
LINE
  8
0
 62
4
 10
2.28883800E+02
 20
1.21050378E+02
 11
2.29180190E+02
 21
1.19369465E+02
  0
LINE
  8
0
 62
4
 10
2.29781784E+02
 20
1.21716430E+02
 11
2.29289380E+02
 21
1.21629606E+02
  0
LINE
  8
0
 62
4
 10
2.21412120E+02
 20
1.28871758E+02
 11
2.17716456E+02
 21
1.18718007E+02
  0
LINE
  8
0
 62
4
 10
2.28305774E+02
 20
1.30087296E+02
 11
2.21412120E+02
 21
1.28871758E+02
  0
LINE
  8
0
 62
4
 10
2.15597777E+02
 20
1.12896984E+02
 11
2.16250061E+02
 21
1.09197700E+02
  0
LINE
  8
0
 62
4
 10
2.13129159E+02
 20
1.09133570E+02
 11
2.16166921E+02
 21
1.09669209E+02
  0
LINE
  8
0
 62
4
 10
2.13823752E+02
 20
1.05194339E+02
 11
2.16250061E+02
 21
1.05622163E+02
  0
LINE
  8
0
 62
4
 10
2.13823752E+02
 20
1.05194339E+02
 11
2.13129159E+02
 21
1.09133570E+02
  0
LINE
  8
0
 62
6
 10
2.13215984E+02
 20
1.08641166E+02
 11
2.16253745E+02
 21
1.09176805E+02
  0
LINE
  8
0
 62
6
 10
2.13736928E+02
 20
1.05686743E+02
 11
2.16250061E+02
 21
1.06129876E+02
  0
CIRCLE
  8
0
 62
2
 10
2.70750031E+02
 20
1.11869427E+02
 40
3.00000000E+00
  0
CIRCLE
  8
0
 62
2
 10
2.70749969E+02
 20
6.48694189E+01
 40
3.00000000E+00
  0
CIRCLE
  8
0
 62
2
 10
2.23750000E+02
 20
6.48694189E+01
 40
3.00000000E+00
  0
CIRCLE
  8
0
 62
2
 10
2.23750031E+02
 20
1.11869427E+02
 40
3.00000000E+00
  0
CIRCLE
  8
0
 62
7
 10
2.70749969E+02
 20
6.48694418E+01
 40
4.50000000E+00
  0
ARC
  8
0
 62
7
 10
2.74750061E+02
 20
6.08695028E+01
 40
3.50000000E+00
 50
2.70000018E+02
 51
3.59999986E+02
  0
CIRCLE
  8
0
 62
7
 10
2.70749969E+02
 20
6.48694418E+01
 40
5.00000000E+00
  0
CIRCLE
  8
0
 62
7
 10
2.23750031E+02
 20
1.11869488E+02
 40
4.50000000E+00
  0
ARC
  8
0
 62
7
 10
2.19750061E+02
 20
1.15869419E+02
 40
3.50000000E+00
 50
9.00000231E+01
 51
1.79999977E+02
  0
CIRCLE
  8
0
 62
7
 10
2.23750031E+02
 20
1.11869488E+02
 40
5.00000000E+00
  0
CIRCLE
  8
0
 62
7
 10
2.23750000E+02
 20
6.48694952E+01
 40
4.50000000E+00
  0
ARC
  8
0
 62
7
 10
2.19750061E+02
 20
6.08694647E+01
 40
3.50000000E+00
 50
1.80000036E+02
 51
2.69999991E+02
  0
CIRCLE
  8
0
 62
7
 10
2.70750031E+02
 20
1.11869427E+02
 40
4.50000000E+00
  0
ARC
  8
0
 62
7
 10
2.74749969E+02
 20
1.15869465E+02
 40
3.50000000E+00
 50
0.00000000E+00
 51
8.99999818E+01
  0
CIRCLE
  8
0
 62
7
 10
2.23750000E+02
 20
6.48694952E+01
 40
5.00000000E+00
  0
CIRCLE
  8
0
 62
7
 10
2.70750031E+02
 20
1.11869427E+02
 40
5.00000000E+00
  0
LINE
  8
0
  6
CENTER
 62
2
 10
2.32787354E+02
 20
6.48694189E+01
 11
2.14017426E+02
 21
6.48694189E+01
  0
LINE
  8
0
  6
CENTER
 62
2
 10
2.33137115E+02
 20
1.11869427E+02
 11
2.14017426E+02
 21
1.11869427E+02
  0
LINE
  8
0
  6
CENTER
 62
2
 10
2.81897919E+02
 20
8.83694647E+01
 11
2.12734985E+02
 21
8.83694647E+01
  0
LINE
  8
0
  6
CENTER
 62
2
 10
2.70749969E+02
 20
5.52083929E+01
 11
2.70749969E+02
 21
7.40654562E+01
  0
LINE
  8
0
  6
CENTER
 62
2
 10
2.80936371E+02
 20
6.48694189E+01
 11
2.61233734E+02
 21
6.48694189E+01
  0
LINE
  8
0
  6
CENTER
 62
2
 10
2.47250061E+02
 20
1.23130115E+02
 11
2.47250061E+02
 21
5.50425909E+01
  0
LINE
  8
0
 62
7
 10
2.19750061E+02
 20
5.73694799E+01
 11
2.74750061E+02
 21
5.73694799E+01
  0
LINE
  8
0
 62
7
 10
2.78249969E+02
 20
6.08694876E+01
 11
2.78249969E+02
 21
1.15869465E+02
  0
LINE
  8
0
  6
CENTER
 62
2
 10
2.23750031E+02
 20
1.21423145E+02
 11
2.23750031E+02
 21
1.03985096E+02
  0
LINE
  8
0
  6
CENTER
 62
2
 10
2.54250092E+02
 20
1.21731128E+02
 11
2.54250092E+02
 21
1.00140301E+02
  0
LINE
  8
0
 62
7
 10
2.16250031E+02
 20
6.08694647E+01
 11
2.16250031E+02
 21
1.15869419E+02
  0
LINE
  8
0
 62
7
 10
2.19750061E+02
 20
1.19369465E+02
 11
2.74749969E+02
 21
1.19369465E+02
  0
LINE
  8
0
  6
CENTER
 62
2
 10
2.80703156E+02
 20
1.11869427E+02
 11
2.61000580E+02
 21
1.11869427E+02
  0
LINE
  8
0
  6
CENTER
 62
2
 10
2.70750031E+02
 20
1.21847706E+02
 11
2.70750031E+02
 21
1.02145077E+02
  0
LINE
  8
0
  6
CENTER
 62
2
 10
2.23750000E+02
 20
5.52785070E+01
 11
2.23750000E+02
 21
7.41650350E+01
  0
LINE
  8
0
  6
CENTER
 62
2
 10
2.35250092E+02
 20
1.21843738E+02
 11
2.35250092E+02
 21
9.60319097E+01
  0
LINE
  8
0
  6
PHANTOM
 10
-4.92500000E+01
 20
2.47628397E+02
 11
-4.92500000E+01
 21
1.48945349E+02
  0
LINE
  8
0
  6
CENTER
 62
2
 10
-1.95283264E+02
 20
2.08369465E+02
 11
1.34459721E+02
 21
2.08369465E+02
  0
LINE
  8
0
 62
7
 10
-1.50250000E+02
 20
2.24869434E+02
 11
-1.50250000E+02
 21
1.91869495E+02
  0
LINE
  8
0
 62
7
 10
-1.49750000E+02
 20
2.25369465E+02
 11
-1.45241455E+02
 21
2.25369465E+02
  0
LINE
  8
0
 62
7
 10
-1.45250000E+02
 20
2.25369465E+02
 11
-1.45250000E+02
 21
2.25378010E+02
  0
LINE
  8
0
 62
7
 10
-1.49750000E+02
 20
1.91369465E+02
 11
-1.45241455E+02
 21
1.91369465E+02
  0
LINE
  8
0
 62
7
 10
-1.36749969E+02
 20
2.27369465E+02
 11
-1.35250000E+02
 21
2.27369465E+02
  0
LINE
  8
0
 62
7
 10
-1.45250000E+02
 20
1.91369465E+02
 11
-1.45250000E+02
 21
1.91360920E+02
  0
LINE
  8
0
 62
7
 10
-1.45008771E+02
 20
1.91111045E+02
 11
-1.37250042E+02
 21
1.90840104E+02
  0
LINE
  8
0
 62
7
 10
-1.37250000E+02
 20
2.26869449E+02
 11
-1.37250000E+02
 21
1.89869480E+02
  0
LINE
  8
0
 62
7
 10
-1.36749969E+02
 20
1.89369449E+02
 11
-1.35250000E+02
 21
1.89369449E+02
  0
LINE
  8
0
 62
7
 10
-1.45008738E+02
 20
2.25628077E+02
 11
-1.37250039E+02
 21
2.25899017E+02
  0
LINE
  8
0
 62
7
 10
-1.45250000E+02
 20
2.25369495E+02
 11
-1.45250000E+02
 21
1.91369480E+02
  0
LINE
  8
0
 62
7
 10
-1.35250000E+02
 20
2.38583957E+02
 11
-1.35250000E+02
 21
1.78155048E+02
  0
LINE
  8
0
 62
7
 10
6.17500038E+01
 20
2.16369465E+02
 11
1.20750018E+02
 21
2.16369465E+02
  0
LINE
  8
0
 62
2
 10
6.17500038E+01
 20
2.15549488E+02
 11
1.21570025E+02
 21
2.15549488E+02
  0
LINE
  8
0
 62
7
 10
1.21750022E+02
 20
2.14869449E+02
 11
1.23750020E+02
 21
2.14869449E+02
  0
LINE
  8
0
 62
7
 10
1.23750020E+02
 20
2.02869480E+02
 11
1.31750021E+02
 21
2.02869480E+02
  0
LINE
  8
0
 62
7
 10
1.23750020E+02
 20
2.13869495E+02
 11
1.31750021E+02
 21
2.13869495E+02
  0
LINE
  8
0
 62
7
 10
1.20749899E+02
 20
2.16369347E+02
 11
1.21749900E+02
 21
2.15369346E+02
  0
LINE
  8
0
 62
7
 10
1.21750059E+02
 20
2.01369461E+02
 11
1.20750020E+02
 21
2.00369433E+02
  0
LINE
  8
0
 62
7
 10
1.23750020E+02
 20
2.11833637E+02
 11
1.23750020E+02
 21
2.04905384E+02
  0
LINE
  8
0
 62
7
 10
1.21750022E+02
 20
2.01869495E+02
 11
1.23750020E+02
 21
2.01869495E+02
  0
LINE
  8
0
 62
7
 10
6.17500038E+01
 20
2.00369480E+02
 11
1.20750018E+02
 21
2.00369480E+02
  0
LINE
  8
0
 62
7
 10
1.20750028E+02
 20
2.16369465E+02
 11
1.20750028E+02
 21
2.00369480E+02
  0
LINE
  8
0
 62
7
 10
1.21750012E+02
 20
2.15369480E+02
 11
1.21750012E+02
 21
2.01369465E+02
  0
LINE
  8
0
 62
7
 10
1.31750011E+02
 20
2.13869495E+02
 11
1.31750011E+02
 21
2.02869480E+02
  0
LINE
  8
0
 62
7
 10
1.23750020E+02
 20
2.14869449E+02
 11
1.23750020E+02
 21
2.13869495E+02
  0
LINE
  8
0
 62
2
 10
6.17500038E+01
 20
2.01189487E+02
 11
1.21570025E+02
 21
2.01189487E+02
  0
LINE
  8
0
 62
7
 10
4.87500000E+01
 20
2.08369465E+02
 11
6.03932304E+01
 21
2.08369465E+02
  0
LINE
  8
0
 62
7
 10
4.87500000E+01
 20
2.20369480E+02
 11
6.17499924E+01
 21
2.20369480E+02
  0
LINE
  8
0
 62
7
 10
4.67499924E+01
 20
2.23519459E+02
 11
4.87500000E+01
 21
2.23519459E+02
  0
LINE
  8
0
  6
CENTER
 62
2
 10
-1.11250015E+02
 20
1.88898304E+02
 11
-1.11250015E+02
 21
2.05487293E+02
  0
LINE
  8
0
  6
CENTER
 62
2
 10
-1.20095276E+02
 20
1.96369419E+02
 11
-1.02620743E+02
 21
1.96369419E+02
  0
LINE
  8
0
 62
7
 10
-1.35250025E+02
 20
2.38584072E+02
 11
-1.04249970E+02
 21
2.39395837E+02
  0
LINE
  8
0
 62
7
 10
-1.30250000E+02
 20
1.88369434E+02
 11
-1.30250000E+02
 21
2.28369434E+02
  0
LINE
  8
0
  6
CENTER
 62
2
 10
-1.17250031E+02
 20
2.04127338E+02
 11
-1.17250031E+02
 21
2.27713749E+02
  0
LINE
  8
0
  6
CENTER
 62
2
 10
-1.26660156E+02
 20
2.15369358E+02
 11
-1.07301529E+02
 21
2.15369358E+02
  0
LINE
  8
0
 62
7
 10
-1.04250000E+02
 20
2.39395725E+02
 11
-1.04250000E+02
 21
1.77369465E+02
  0
LINE
  8
0
 62
7
 10
-1.35249999E+02
 20
1.78155021E+02
 11
-1.04249990E+02
 21
1.77343257E+02
  0
LINE
  8
0
 62
7
 10
-1.28249969E+02
 20
2.30369434E+02
 11
-1.04249985E+02
 21
2.30369434E+02
  0
LINE
  8
0
 62
7
 10
-1.28249969E+02
 20
1.86369419E+02
 11
-1.04249985E+02
 21
1.86369419E+02
  0
LINE
  8
0
 62
7
 10
1.75001526E+00
 20
2.35369434E+02
 11
-6.37500000E+01
 21
2.35369434E+02
  0
LINE
  8
0
  6
CENTER
 62
2
 10
4.95332069E+01
 20
2.31869449E+02
 11
-1.37353455E+02
 21
2.31869449E+02
  0
LINE
  8
0
 62
7
 10
1.75001526E+00
 20
2.29219456E+02
 11
-6.37500000E+01
 21
2.29219456E+02
  0
LINE
  8
0
 62
7
 10
1.75001526E+00
 20
2.34519443E+02
 11
-6.37500000E+01
 21
2.34519443E+02
  0
LINE
  8
0
 62
7
 10
3.27500000E+01
 20
2.39369480E+02
 11
4.67500000E+01
 21
2.39369480E+02
  0
LINE
  8
0
 62
7
 10
3.27500000E+01
 20
1.77369465E+02
 11
3.27500000E+01
 21
2.39369480E+02
  0
LINE
  8
0
  6
CENTER
 62
2
 10
8.75001526E+00
 20
1.88898304E+02
 11
8.75001526E+00
 21
2.05487293E+02
  0
LINE
  8
0
  6
CENTER
 62
2
 10
1.75952835E+01
 20
1.96369419E+02
 11
1.20758057E-01
 21
1.96369419E+02
  0
LINE
  8
0
 62
7
 10
3.27500243E+01
 20
1.78154904E+02
 11
1.74998473E+00
 21
1.77343140E+02
  0
LINE
  8
0
 62
7
 10
2.77500000E+01
 20
2.28369434E+02
 11
2.77500000E+01
 21
1.88369434E+02
  0
LINE
  8
0
  6
CENTER
 62
2
 10
1.47500458E+01
 20
2.04127338E+02
 11
1.47500458E+01
 21
2.27713749E+02
  0
LINE
  8
0
  6
CENTER
 62
2
 10
2.41601791E+01
 20
2.15369358E+02
 11
4.80154419E+00
 21
2.15369358E+02
  0
LINE
  8
0
 62
7
 10
1.75001526E+00
 20
1.77343143E+02
 11
1.75001526E+00
 21
2.39369419E+02
  0
LINE
  8
0
 62
7
 10
3.27499961E+01
 20
2.38583899E+02
 11
1.74997939E+00
 21
2.39395663E+02
  0
LINE
  8
0
 62
7
 10
2.57500076E+01
 20
1.86369419E+02
 11
1.75001526E+00
 21
1.86369419E+02
  0
LINE
  8
0
 62
7
 10
2.57500076E+01
 20
2.30369434E+02
 11
1.75001526E+00
 21
2.30369434E+02
  0
LINE
  8
0
 62
7
 10
2.08847580E+01
 20
2.18369373E+02
 11
8.61533356E+00
 21
2.18369373E+02
  0
LINE
  8
0
 62
7
 10
3.27500000E+01
 20
1.77369465E+02
 11
4.67500000E+01
 21
1.77369465E+02
  0
LINE
  8
0
 62
7
 10
-1.09517916E+02
 20
1.96369379E+02
 11
-1.10383940E+02
 21
1.94869373E+02
  0
LINE
  8
0
 62
7
 10
-1.10383987E+02
 20
1.94869404E+02
 11
-1.12115967E+02
 21
1.94869404E+02
  0
LINE
  8
0
 62
7
 10
-1.12115956E+02
 20
1.94869375E+02
 11
-1.12982010E+02
 21
1.96369434E+02
  0
LINE
  8
0
 62
7
 10
-1.12981975E+02
 20
1.96369384E+02
 11
-1.12115966E+02
 21
1.97869364E+02
  0
LINE
  8
0
 62
7
 10
-1.10383987E+02
 20
1.97869434E+02
 11
-1.12115967E+02
 21
1.97869434E+02
  0
LINE
  8
0
 62
7
 10
-1.09517908E+02
 20
1.96369455E+02
 11
-1.10383932E+02
 21
1.97869461E+02
  0
LINE
  8
0
  6
CENTER
 62
2
 10
4.95332069E+01
 20
1.84869480E+02
 11
-1.37353455E+02
 21
1.84869480E+02
  0
LINE
  8
0
 62
7
 10
1.75001526E+00
 20
1.87519474E+02
 11
-1.97500000E+01
 21
1.87519474E+02
  0
LINE
  8
0
 62
7
 10
1.75001526E+00
 20
1.82219486E+02
 11
-1.97500000E+01
 21
1.82219486E+02
  0
LINE
  8
0
 62
7
 10
1.75001526E+00
 20
1.81369495E+02
 11
-1.97500000E+01
 21
1.81369495E+02
  0
LINE
  8
0
 62
7
 10
1.04820754E+01
 20
1.96369445E+02
 11
9.61605908E+00
 21
1.97869438E+02
  0
LINE
  8
0
 62
7
 10
9.61605072E+00
 20
1.97869434E+02
 11
7.88404846E+00
 21
1.97869434E+02
  0
LINE
  8
0
 62
7
 10
7.01807192E+00
 20
1.96369375E+02
 11
7.88408057E+00
 21
1.97869355E+02
  0
LINE
  8
0
 62
7
 10
7.88402825E+00
 20
1.94869400E+02
 11
7.01798909E+00
 21
1.96369433E+02
  0
LINE
  8
0
 62
7
 10
9.61605072E+00
 20
1.94869404E+02
 11
7.88404846E+00
 21
1.94869404E+02
  0
LINE
  8
0
 62
7
 10
1.04820793E+01
 20
1.96369374E+02
 11
9.61605924E+00
 21
1.94869374E+02
  0
LINE
  8
0
 62
7
 10
6.17500038E+01
 20
2.20369480E+02
 11
6.17500038E+01
 21
1.96369465E+02
  0
LINE
  8
0
 62
7
 10
4.87499733E+01
 20
2.23519459E+02
 11
4.87499733E+01
 21
1.93219501E+02
  0
LINE
  8
0
 62
7
 10
4.67500000E+01
 20
2.39369480E+02
 11
4.67500000E+01
 21
1.77369465E+02
  0
LINE
  8
0
 62
7
 10
1.23750020E+02
 20
2.02869480E+02
 11
1.23750020E+02
 21
2.01869495E+02
  0
LINE
  8
0
 62
7
 10
4.67499924E+01
 20
1.93219501E+02
 11
4.87500000E+01
 21
1.93219501E+02
  0
LINE
  8
0
 62
7
 10
1.23750020E+02
 20
2.11833591E+02
 11
1.31750021E+02
 21
2.11833591E+02
  0
LINE
  8
0
 62
7
 10
4.87500000E+01
 20
1.96369465E+02
 11
6.17499924E+01
 21
1.96369465E+02
  0
LINE
  8
0
 62
2
 10
1.23749875E+02
 20
2.04905540E+02
 11
1.31749877E+02
 21
2.11833792E+02
  0
LINE
  8
0
 62
2
 10
1.23750079E+02
 20
2.11833766E+02
 11
1.31750081E+02
 21
2.04905514E+02
  0
LINE
  8
0
 62
7
 10
1.23750020E+02
 20
2.04905338E+02
 11
1.31750021E+02
 21
2.04905338E+02
  0
LINE
  8
0
 62
7
 10
-1.57249985E+02
 20
2.16869465E+02
 11
-1.57249985E+02
 21
1.99869465E+02
  0
LINE
  8
0
 62
7
 10
-1.51750031E+02
 20
1.98369480E+02
 11
-1.50250046E+02
 21
1.98369480E+02
  0
LINE
  8
0
 62
7
 10
-1.51749969E+02
 20
2.18369495E+02
 11
-1.50250000E+02
 21
2.18369495E+02
  0
LINE
  8
0
 62
7
 10
-1.63249969E+02
 20
1.99369465E+02
 11
-1.63249969E+02
 21
2.17369465E+02
  0
LINE
  8
0
 62
7
 10
-1.92249969E+02
 20
2.00869495E+02
 11
-1.92249969E+02
 21
2.15869312E+02
  0
LINE
  8
0
 62
7
 10
-1.90749969E+02
 20
1.99369465E+02
 11
-1.90749969E+02
 21
2.17369465E+02
  0
LINE
  8
0
 62
7
 10
-1.90749908E+02
 20
2.17369465E+02
 11
-1.83249969E+02
 21
2.17369465E+02
  0
LINE
  8
0
 62
2
 10
-1.91569916E+02
 20
2.16549457E+02
 11
-1.83249969E+02
 21
2.16549457E+02
  0
LINE
  8
0
 62
7
 10
-1.92249922E+02
 20
2.15869319E+02
 11
-1.90749876E+02
 21
2.17369319E+02
  0
LINE
  8
0
 62
7
 10
-1.90749908E+02
 20
1.99369465E+02
 11
-1.83249969E+02
 21
1.99369465E+02
  0
LINE
  8
0
 62
2
 10
-1.91569916E+02
 20
2.00189472E+02
 11
-1.83249969E+02
 21
2.00189472E+02
  0
LINE
  8
0
 62
7
 10
-1.92250004E+02
 20
2.00869541E+02
 11
-1.90749969E+02
 21
1.99369551E+02
  0
LINE
  8
0
 62
7
 10
-1.60249969E+02
 20
1.99869465E+02
 11
-1.60249969E+02
 21
2.16869465E+02
  0
LINE
  8
0
 62
7
 10
-1.60249969E+02
 20
1.99869465E+02
 11
-1.53250015E+02
 21
1.99869465E+02
  0
LINE
  8
0
 62
7
 10
-1.60249969E+02
 20
2.16869465E+02
 11
-1.53250015E+02
 21
2.16869465E+02
  0
LINE
  8
0
 62
7
 10
-1.53250030E+02
 20
1.99869476E+02
 11
-1.51750061E+02
 21
1.98369506E+02
  0
LINE
  8
0
 62
7
 10
-1.53250066E+02
 20
2.16869527E+02
 11
-1.51750036E+02
 21
2.18369557E+02
  0
LINE
  8
0
 62
7
 10
-1.63249969E+02
 20
2.16549457E+02
 11
-1.60249969E+02
 21
2.16549457E+02
  0
LINE
  8
0
 62
7
 10
-1.63249969E+02
 20
2.00189472E+02
 11
-1.60249969E+02
 21
2.00189472E+02
  0
LINE
  8
0
 62
7
 10
-1.23384735E+02
 20
2.18369373E+02
 11
-1.11115326E+02
 21
2.18369373E+02
  0
ARC
  8
0
 62
7
 10
-1.49750000E+02
 20
2.24869434E+02
 40
5.00000000E-01
 50
8.99999818E+01
 51
1.79999964E+02
  0
ARC
  8
0
 62
7
 10
-1.45000000E+02
 20
2.25378010E+02
 40
2.50000000E-01
 50
9.19988093E+01
 51
1.79999964E+02
  0
ARC
  8
0
 62
7
 10
-1.36750000E+02
 20
2.26869449E+02
 40
5.00000000E-01
 50
8.99999818E+01
 51
1.79999964E+02
  0
ARC
  8
0
 62
7
 10
-1.36750000E+02
 20
1.89869465E+02
 40
5.00000000E-01
 50
1.79999977E+02
 51
2.69999974E+02
  0
ARC
  8
0
 62
7
 10
-1.45000000E+02
 20
1.91360920E+02
 40
2.50000000E-01
 50
1.79999977E+02
 51
2.68001132E+02
  0
ARC
  8
0
 62
7
 10
-1.49750000E+02
 20
1.91869495E+02
 40
5.00000000E-01
 50
1.79999977E+02
 51
2.69999974E+02
  0
ARC
  8
0
 62
7
 10
-1.28249969E+02
 20
2.28369434E+02
 40
2.00000000E+00
 50
8.99999818E+01
 51
1.79999964E+02
  0
ARC
  8
0
 62
7
 10
-1.28249969E+02
 20
1.88369434E+02
 40
2.00000000E+00
 50
1.79999977E+02
 51
2.70000028E+02
  0
ARC
  8
0
 62
7
 10
2.57500076E+01
 20
1.88369434E+02
 40
2.00000000E+00
 50
2.70000073E+02
 51
5.46415133E-05
  0
ARC
  8
0
 62
7
 10
2.57500076E+01
 20
2.28369434E+02
 40
2.00000000E+00
 50
5.46415133E-05
 51
9.00000913E+01
  0
ARC
  8
0
 62
7
 10
-1.11250015E+02
 20
1.96369419E+02
 40
5.00000000E+00
 50
1.79999977E+02
 51
1.00179127E-05
  0
ARC
  8
0
 62
7
 10
-1.11250015E+02
 20
1.96369419E+02
 40
5.00000000E+00
 50
0.00000000E+00
 51
1.79999964E+02
  0
CIRCLE
  8
0
 62
7
 10
-1.11250015E+02
 20
1.96369419E+02
 40
2.59999990E+00
  0
CIRCLE
  8
0
 62
7
 10
8.75001526E+00
 20
1.96369419E+02
 40
2.59999990E+00
  0
ARC
  8
0
 62
7
 10
8.75001526E+00
 20
1.96369419E+02
 40
5.00000000E+00
 50
0.00000000E+00
 51
1.79999964E+02
  0
ARC
  8
0
 62
7
 10
8.75001526E+00
 20
1.96369419E+02
 40
5.00000000E+00
 50
1.79999977E+02
 51
1.00179127E-05
  0
CIRCLE
  8
0
 62
7
 10
8.75001526E+00
 20
1.96369419E+02
 40
2.50000000E+00
  0
ARC
  8
0
 62
7
 10
4.78047485E+01
 20
2.14369495E+02
 40
1.39452267E+01
 50
3.34516282E+02
 51
2.54837176E+01
  0
ARC
  8
0
 62
7
 10
4.78047485E+01
 20
2.02369480E+02
 40
1.39452267E+01
 50
3.34516282E+02
 51
2.54837176E+01
  0
CIRCLE
  8
0
 62
2
 10
-1.17250031E+02
 20
2.15369358E+02
 40
8.33099937E+00
  0
CIRCLE
  8
0
 62
7
 10
-1.17250031E+02
 20
2.15369358E+02
 40
8.75249958E+00
  0
CIRCLE
  8
0
 62
7
 10
-1.17250031E+02
 20
2.15369358E+02
 40
7.45249987E+00
  0
CIRCLE
  8
0
 62
7
 10
1.47500458E+01
 20
2.15369358E+02
 40
8.75249958E+00
  0
CIRCLE
  8
0
 62
2
 10
1.47500458E+01
 20
2.15369358E+02
 40
8.33099937E+00
  0
CIRCLE
  8
0
 62
7
 10
1.47500458E+01
 20
2.15369358E+02
 40
7.45249987E+00
  0
ARC
  8
0
 62
7
 10
-1.23384735E+02
 20
2.17369373E+02
 40
1.00000000E+00
 50
9.00000025E+01
 51
1.61943198E+02
  0
ARC
  8
0
 62
7
 10
-1.11115326E+02
 20
2.17369373E+02
 40
1.00000000E+00
 50
1.80568055E+01
 51
9.00000025E+01
  0
ARC
  8
0
 62
7
 10
8.61533356E+00
 20
2.17369373E+02
 40
1.00000000E+00
 50
9.00000025E+01
 51
1.61943198E+02
  0
ARC
  8
0
 62
7
 10
2.08847580E+01
 20
2.17369373E+02
 40
1.00000000E+00
 50
1.80568055E+01
 51
9.00000025E+01
  0
LINE
  8
0
 62
4
 10
-1.72249969E+02
 20
2.21869465E+02
 11
-1.72249969E+02
 21
1.94869465E+02
  0
LINE
  8
0
 62
4
 10
-1.83249969E+02
 20
2.21869465E+02
 11
-1.83249969E+02
 21
1.94869465E+02
  0
LINE
  8
0
 62
4
 10
-1.72249969E+02
 20
2.21869465E+02
 11
-1.83249969E+02
 21
2.21869465E+02
  0
LINE
  8
0
 62
4
 10
-1.72249969E+02
 20
1.94869465E+02
 11
-1.83249969E+02
 21
1.94869465E+02
  0
LINE
  8
0
 62
4
 10
-1.73455741E+02
 20
2.08369465E+02
 11
-1.82044198E+02
 21
2.08369465E+02
  0
ARC
  8
0
 62
4
 10
-1.63753577E+02
 20
2.01619465E+02
 40
1.94963929E+01
 50
1.59743842E+02
 51
2.00256158E+02
  0
ARC
  8
0
 62
4
 10
-1.63753577E+02
 20
2.15119465E+02
 40
1.94963929E+01
 50
1.59743842E+02
 51
2.00256158E+02
  0
ARC
  8
0
 62
4
 10
-1.91746362E+02
 20
2.15119465E+02
 40
1.94963929E+01
 50
3.39743842E+02
 51
2.02561580E+01
  0
ARC
  8
0
 62
4
 10
-1.91746362E+02
 20
2.01619465E+02
 40
1.94963929E+01
 50
3.39743842E+02
 51
2.02561580E+01
  0
LINE
  8
0
 62
7
 10
-1.72249969E+02
 20
2.17369465E+02
 11
-1.63249969E+02
 21
2.17369465E+02
  0
LINE
  8
0
 62
2
 10
-1.72249969E+02
 20
2.16549457E+02
 11
-1.63249969E+02
 21
2.16549457E+02
  0
LINE
  8
0
 62
7
 10
-1.72249969E+02
 20
1.99369465E+02
 11
-1.63249969E+02
 21
1.99369465E+02
  0
LINE
  8
0
 62
2
 10
-1.72249969E+02
 20
2.00189472E+02
 11
-1.63249969E+02
 21
2.00189472E+02
  0
LINE
  8
0
  6
CENTER
 62
6
 10
-9.87500000E+01
 20
2.16702809E+02
 11
-5.17500000E+01
 21
2.16702809E+02
  0
LINE
  8
0
 62
6
 10
-4.30179492E+01
 20
2.03036120E+02
 11
-4.64820508E+01
 21
1.97036120E+02
  0
LINE
  8
0
 62
4
 10
-3.47500000E+01
 20
2.01536120E+02
 11
-4.38839746E+01
 21
2.01536120E+02
  0
LINE
  8
0
  6
CENTER
 62
6
 10
2.50000000E-01
 20
2.00036120E+02
 11
-4.67500000E+01
 21
2.00036120E+02
  0
LINE
  8
0
 62
4
 10
-3.47500000E+01
 20
1.98536120E+02
 11
-4.56160254E+01
 21
1.98536120E+02
  0
LINE
  8
0
 62
6
 10
-5.54820508E+01
 20
2.13702809E+02
 11
-5.20179492E+01
 21
2.19702809E+02
  0
LINE
  8
0
 62
4
 10
-6.37500000E+01
 20
2.15202809E+02
 11
-5.46160254E+01
 21
2.15202809E+02
  0
LINE
  8
0
 62
4
 10
-6.37500000E+01
 20
2.18202809E+02
 11
-5.28839746E+01
 21
2.18202809E+02
  0
LINE
  8
0
 62
6
 10
-2.97500000E+01
 20
1.74366160E+02
 11
-2.97500000E+01
 21
1.76717196E+02
  0
LINE
  8
0
 62
6
 10
-3.27500000E+01
 20
1.74366160E+02
 11
-3.27500000E+01
 21
1.76717196E+02
  0
LINE
  8
0
 62
4
 10
-2.92500000E+01
 20
1.74595875E+02
 11
-2.92500000E+01
 21
1.76717196E+02
  0
LINE
  8
0
 62
4
 10
-3.32500000E+01
 20
1.74595875E+02
 11
-3.32500000E+01
 21
1.76717196E+02
  0
LINE
  8
0
 62
4
 10
-1.97500000E+01
 20
1.76717196E+02
 11
-1.97500000E+01
 21
1.89425193E+02
  0
LINE
  8
0
 62
4
 10
-3.47500000E+01
 20
1.76717196E+02
 11
-3.47500000E+01
 21
2.02347084E+02
  0
LINE
  8
0
 62
4
 10
-4.75000000E+00
 20
1.89425193E+02
 11
-4.75000000E+00
 21
2.01374654E+02
  0
LINE
  8
0
  6
CENTER
 62
6
 10
-3.12500000E+01
 20
1.71253901E+02
 11
-3.12500000E+01
 21
1.81519480E+02
  0
LINE
  8
0
  6
CENTER
 62
6
 10
-2.32500000E+01
 20
1.71253901E+02
 11
-2.32500000E+01
 21
1.81519480E+02
  0
LINE
  8
0
  6
CENTER
 62
6
 10
-1.97500000E+01
 20
1.98457898E+02
 11
-1.97500000E+01
 21
2.03457898E+02
  0
LINE
  8
0
 62
4
 10
-1.97500000E+01
 20
1.76717196E+02
 11
-3.47500000E+01
 21
1.76717196E+02
  0
LINE
  8
0
 62
4
 10
-1.97500000E+01
 20
1.82531539E+02
 11
-3.47500000E+01
 21
1.82531539E+02
  0
LINE
  8
0
 62
4
 10
-4.74999999E+00
 20
1.89425193E+02
 11
-3.47500000E+01
 21
1.89425193E+02
  0
LINE
  8
0
 62
4
 10
-4.74999999E+00
 20
1.99568713E+02
 11
-3.47500000E+01
 21
1.99568713E+02
  0
LINE
  8
0
 62
4
 10
-3.06500000E+01
 20
2.02347084E+02
 11
-3.47500000E+01
 21
2.02347084E+02
  0
LINE
  8
0
 62
4
 10
-3.06500000E+01
 20
2.02173436E+02
 11
-3.47500000E+01
 21
2.02173436E+02
  0
LINE
  8
0
 62
4
 10
-4.74999999E+00
 20
2.01374654E+02
 11
-1.56000000E+01
 21
2.01374654E+02
  0
POLYLINE
  8
0
 62
4
 66
1
  0
VERTEX
  8
0
 62
4
 10
-3.32500000E+01
 20
1.74595875E+02
  0
VERTEX
  8
0
 62
4
 10
-3.32419486E+01
 20
1.74564744E+02
  0
VERTEX
  8
0
 62
4
 10
-3.32178592E+01
 20
1.74533863E+02
  0
VERTEX
  8
0
 62
4
 10
-3.31779257E+01
 20
1.74503481E+02
  0
VERTEX
  8
0
 62
4
 10
-3.31224697E+01
 20
1.74473844E+02
  0
VERTEX
  8
0
 62
4
 10
-3.30519377E+01
 20
1.74445189E+02
  0
VERTEX
  8
0
 62
4
 10
-3.29668976E+01
 20
1.74417747E+02
  0
VERTEX
  8
0
 62
4
 10
-3.28680340E+01
 20
1.74391739E+02
  0
VERTEX
  8
0
 62
4
 10
-3.27561429E+01
 20
1.74367375E+02
  0
VERTEX
  8
0
 62
4
 10
-3.26321253E+01
 20
1.74344851E+02
  0
VERTEX
  8
0
 62
4
 10
-3.24969796E+01
 20
1.74324348E+02
  0
VERTEX
  8
0
 62
4
 10
-3.23517940E+01
 20
1.74306031E+02
  0
VERTEX
  8
0
 62
4
 10
-3.21977373E+01
 20
1.74290047E+02
  0
VERTEX
  8
0
 62
4
 10
-3.20360501E+01
 20
1.74276526E+02
  0
VERTEX
  8
0
 62
4
 10
-3.18680340E+01
 20
1.74265577E+02
  0
VERTEX
  8
0
 62
4
 10
-3.16950419E+01
 20
1.74257286E+02
  0
VERTEX
  8
0
 62
4
 10
-3.15184665E+01
 20
1.74251722E+02
  0
VERTEX
  8
0
 62
4
 10
-3.13397297E+01
 20
1.74248928E+02
  0
VERTEX
  8
0
 62
4
 10
-3.11602704E+01
 20
1.74248928E+02
  0
VERTEX
  8
0
 62
4
 10
-3.09815335E+01
 20
1.74251722E+02
  0
VERTEX
  8
0
 62
4
 10
-3.08049581E+01
 20
1.74257286E+02
  0
VERTEX
  8
0
 62
4
 10
-3.06319660E+01
 20
1.74265577E+02
  0
VERTEX
  8
0
 62
4
 10
-3.04639499E+01
 20
1.74276526E+02
  0
VERTEX
  8
0
 62
4
 10
-3.03022627E+01
 20
1.74290047E+02
  0
VERTEX
  8
0
 62
4
 10
-3.01482060E+01
 20
1.74306031E+02
  0
VERTEX
  8
0
 62
4
 10
-3.00030204E+01
 20
1.74324348E+02
  0
VERTEX
  8
0
 62
4
 10
-2.98678747E+01
 20
1.74344851E+02
  0
VERTEX
  8
0
 62
4
 10
-2.97438571E+01
 20
1.74367375E+02
  0
VERTEX
  8
0
 62
4
 10
-2.96319660E+01
 20
1.74391739E+02
  0
VERTEX
  8
0
 62
4
 10
-2.95331024E+01
 20
1.74417747E+02
  0
VERTEX
  8
0
 62
4
 10
-2.94480623E+01
 20
1.74445189E+02
  0
VERTEX
  8
0
 62
4
 10
-2.93775303E+01
 20
1.74473844E+02
  0
VERTEX
  8
0
 62
4
 10
-2.93220743E+01
 20
1.74503481E+02
  0
VERTEX
  8
0
 62
4
 10
-2.92821408E+01
 20
1.74533863E+02
  0
VERTEX
  8
0
 62
4
 10
-2.92580514E+01
 20
1.74564744E+02
  0
VERTEX
  8
0
 62
4
 10
-2.92500000E+01
 20
1.74595875E+02
  0
SEQEND
  8
0
  0
LINE
  8
0
 62
6
 10
-2.17500000E+01
 20
1.74366160E+02
 11
-2.17500000E+01
 21
1.76717196E+02
  0
LINE
  8
0
 62
6
 10
-2.47500000E+01
 20
1.74366160E+02
 11
-2.47500000E+01
 21
1.76717196E+02
  0
LINE
  8
0
 62
4
 10
-2.12500000E+01
 20
1.74595875E+02
 11
-2.12500000E+01
 21
1.76717196E+02
  0
LINE
  8
0
 62
4
 10
-2.52500000E+01
 20
1.74595875E+02
 11
-2.52500000E+01
 21
1.76717196E+02
  0
POLYLINE
  8
0
 62
4
 66
1
  0
VERTEX
  8
0
 62
4
 10
-2.52500000E+01
 20
1.74595875E+02
  0
VERTEX
  8
0
 62
4
 10
-2.52419486E+01
 20
1.74564744E+02
  0
VERTEX
  8
0
 62
4
 10
-2.52178592E+01
 20
1.74533863E+02
  0
VERTEX
  8
0
 62
4
 10
-2.51779257E+01
 20
1.74503481E+02
  0
VERTEX
  8
0
 62
4
 10
-2.51224697E+01
 20
1.74473844E+02
  0
VERTEX
  8
0
 62
4
 10
-2.50519377E+01
 20
1.74445189E+02
  0
VERTEX
  8
0
 62
4
 10
-2.49668976E+01
 20
1.74417747E+02
  0
VERTEX
  8
0
 62
4
 10
-2.48680340E+01
 20
1.74391739E+02
  0
VERTEX
  8
0
 62
4
 10
-2.47561429E+01
 20
1.74367375E+02
  0
VERTEX
  8
0
 62
4
 10
-2.46321253E+01
 20
1.74344851E+02
  0
VERTEX
  8
0
 62
4
 10
-2.44969796E+01
 20
1.74324348E+02
  0
VERTEX
  8
0
 62
4
 10
-2.43517940E+01
 20
1.74306031E+02
  0
VERTEX
  8
0
 62
4
 10
-2.41977373E+01
 20
1.74290047E+02
  0
VERTEX
  8
0
 62
4
 10
-2.40360501E+01
 20
1.74276526E+02
  0
VERTEX
  8
0
 62
4
 10
-2.38680340E+01
 20
1.74265577E+02
  0
VERTEX
  8
0
 62
4
 10
-2.36950419E+01
 20
1.74257286E+02
  0
VERTEX
  8
0
 62
4
 10
-2.35184665E+01
 20
1.74251722E+02
  0
VERTEX
  8
0
 62
4
 10
-2.33397297E+01
 20
1.74248928E+02
  0
VERTEX
  8
0
 62
4
 10
-2.31602704E+01
 20
1.74248928E+02
  0
VERTEX
  8
0
 62
4
 10
-2.29815335E+01
 20
1.74251722E+02
  0
VERTEX
  8
0
 62
4
 10
-2.28049581E+01
 20
1.74257286E+02
  0
VERTEX
  8
0
 62
4
 10
-2.26319660E+01
 20
1.74265577E+02
  0
VERTEX
  8
0
 62
4
 10
-2.24639499E+01
 20
1.74276526E+02
  0
VERTEX
  8
0
 62
4
 10
-2.23022627E+01
 20
1.74290047E+02
  0
VERTEX
  8
0
 62
4
 10
-2.21482060E+01
 20
1.74306031E+02
  0
VERTEX
  8
0
 62
4
 10
-2.20030204E+01
 20
1.74324348E+02
  0
VERTEX
  8
0
 62
4
 10
-2.18678747E+01
 20
1.74344851E+02
  0
VERTEX
  8
0
 62
4
 10
-2.17438571E+01
 20
1.74367375E+02
  0
VERTEX
  8
0
 62
4
 10
-2.16319660E+01
 20
1.74391739E+02
  0
VERTEX
  8
0
 62
4
 10
-2.15331024E+01
 20
1.74417747E+02
  0
VERTEX
  8
0
 62
4
 10
-2.14480623E+01
 20
1.74445189E+02
  0
VERTEX
  8
0
 62
4
 10
-2.13775303E+01
 20
1.74473844E+02
  0
VERTEX
  8
0
 62
4
 10
-2.13220743E+01
 20
1.74503481E+02
  0
VERTEX
  8
0
 62
4
 10
-2.12821408E+01
 20
1.74533863E+02
  0
VERTEX
  8
0
 62
4
 10
-2.12580514E+01
 20
1.74564744E+02
  0
VERTEX
  8
0
 62
4
 10
-2.12500000E+01
 20
1.74595875E+02
  0
SEQEND
  8
0
  0
LINE
  8
0
 62
4
 10
-4.75000000E+00
 20
1.97719209E+02
 11
-3.25000000E+00
 21
1.98722141E+02
  0
LINE
  8
0
 62
4
 10
-3.25000000E+00
 20
1.98722141E+02
 11
-3.25000000E+00
 21
2.01346044E+02
  0
LINE
  8
0
 62
4
 10
-3.25000000E+00
 20
2.00952731E+02
 11
-4.75000000E+00
 21
2.01658440E+02
  0
LINE
  8
0
 62
4
 10
-3.25000000E+00
 20
2.01346044E+02
 11
-4.75000000E+00
 21
2.02353032E+02
  0
LINE
  8
0
 62
4
 10
-4.74999999E+00
 20
2.02353032E+02
 11
-1.56000000E+01
 21
2.02353032E+02
  0
LINE
  8
0
 62
4
 10
-4.74999999E+00
 20
2.01658440E+02
 11
-1.56000000E+01
 21
2.01658440E+02
  0
LINE
  8
0
 62
4
 10
-4.75000000E+00
 20
2.01374654E+02
 11
-4.75000000E+00
 21
2.02347084E+02
  0
POLYLINE
  8
0
 62
4
 66
1
  0
VERTEX
  8
0
 62
4
 10
-2.34500000E+01
 20
2.01005754E+02
  0
VERTEX
  8
0
 62
4
 10
-2.32681850E+01
 20
2.00949907E+02
  0
VERTEX
  8
0
 62
4
 10
-2.30584878E+01
 20
2.00897088E+02
  0
VERTEX
  8
0
 62
4
 10
-2.28225701E+01
 20
2.00847718E+02
  0
VERTEX
  8
0
 62
4
 10
-2.25623018E+01
 20
2.00802186E+02
  0
VERTEX
  8
0
 62
4
 10
-2.22797455E+01
 20
2.00760855E+02
  0
VERTEX
  8
0
 62
4
 10
-2.19771404E+01
 20
2.00724050E+02
  0
VERTEX
  8
0
 62
4
 10
-2.16568849E+01
 20
2.00692065E+02
  0
VERTEX
  8
0
 62
4
 10
-2.13215169E+01
 20
2.00665152E+02
  0
VERTEX
  8
0
 62
4
 10
-2.09736944E+01
 20
2.00643526E+02
  0
VERTEX
  8
0
 62
4
 10
-2.06161738E+01
 20
2.00627356E+02
  0
VERTEX
  8
0
 62
4
 10
-2.02517887E+01
 20
2.00616772E+02
  0
VERTEX
  8
0
 62
4
 10
-1.98834268E+01
 20
2.00611858E+02
  0
VERTEX
  8
0
 62
4
 10
-1.95140075E+01
 20
2.00612651E+02
  0
VERTEX
  8
0
 62
4
 10
-1.91464584E+01
 20
2.00619147E+02
  0
VERTEX
  8
0
 62
4
 10
-1.87836926E+01
 20
2.00631293E+02
  0
VERTEX
  8
0
 62
4
 10
-1.84285849E+01
 20
2.00648993E+02
  0
VERTEX
  8
0
 62
4
 10
-1.80839496E+01
 20
2.00672107E+02
  0
VERTEX
  8
0
 62
4
 10
-1.77525182E+01
 20
2.00700452E+02
  0
VERTEX
  8
0
 62
4
 10
-1.74369171E+01
 20
2.00733803E+02
  0
VERTEX
  8
0
 62
4
 10
-1.71396477E+01
 20
2.00771896E+02
  0
VERTEX
  8
0
 62
4
 10
-1.68630657E+01
 20
2.00814429E+02
  0
VERTEX
  8
0
 62
4
 10
-1.66093633E+01
 20
2.00861064E+02
  0
VERTEX
  8
0
 62
4
 10
-1.63805510E+01
 20
2.00911433E+02
  0
VERTEX
  8
0
 62
4
 10
-1.61784422E+01
 20
2.00965136E+02
  0
VERTEX
  8
0
 62
4
 10
-1.60046387E+01
 20
2.01021748E+02
  0
VERTEX
  8
0
 62
4
 10
-1.58605179E+01
 20
2.01080819E+02
  0
VERTEX
  8
0
 62
4
 10
-1.57472219E+01
 20
2.01141882E+02
  0
VERTEX
  8
0
 62
4
 10
-1.56656487E+01
 20
2.01204452E+02
  0
VERTEX
  8
0
 62
4
 10
-1.56164448E+01
 20
2.01268035E+02
  0
VERTEX
  8
0
 62
4
 10
-1.56000000E+01
 20
2.01332125E+02
  0
SEQEND
  8
0
  0
ARC
  8
0
 62
4
 10
-1.97577383E+01
 20
1.92175019E+02
 40
1.18100000E+01
 50
8.99624577E+01
 51
1.09675998E+02
  0
ARC
  8
0
 62
4
 10
-1.97422617E+01
 20
1.92175019E+02
 40
1.18100000E+01
 50
7.03240015E+01
 51
9.00375421E+01
  0
LINE
  8
0
 62
4
 10
-1.56000000E+01
 20
2.03060050E+02
 11
-1.56000000E+01
 21
2.01332125E+02
  0
LINE
  8
0
 62
4
 10
-2.39000000E+01
 20
2.03060050E+02
 11
-2.39000000E+01
 21
2.02920941E+02
  0
LINE
  8
0
 62
4
 10
-1.57500000E+01
 20
2.00957898E+02
 11
-1.57500000E+01
 21
2.01140128E+02
  0
POLYLINE
  8
0
 62
4
 66
1
  0
VERTEX
  8
0
 62
4
 10
-2.34500000E+01
 20
2.00693976E+02
  0
VERTEX
  8
0
 62
4
 10
-2.33006920E+01
 20
2.00638056E+02
  0
VERTEX
  8
0
 62
4
 10
-2.31234233E+01
 20
2.00584655E+02
  0
VERTEX
  8
0
 62
4
 10
-2.29195899E+01
 20
2.00534193E+02
  0
VERTEX
  8
0
 62
4
 10
-2.26907968E+01
 20
2.00487068E+02
  0
VERTEX
  8
0
 62
4
 10
-2.24388458E+01
 20
2.00443650E+02
  0
VERTEX
  8
0
 62
4
 10
-2.21657208E+01
 20
2.00404282E+02
  0
VERTEX
  8
0
 62
4
 10
-2.18735727E+01
 20
2.00369273E+02
  0
VERTEX
  8
0
 62
4
 10
-2.15647021E+01
 20
2.00338900E+02
  0
VERTEX
  8
0
 62
4
 10
-2.12415412E+01
 20
2.00313401E+02
  0
VERTEX
  8
0
 62
4
 10
-2.09066348E+01
 20
2.00292977E+02
  0
VERTEX
  8
0
 62
4
 10
-2.05626202E+01
 20
2.00277790E+02
  0
VERTEX
  8
0
 62
4
 10
-2.02122065E+01
 20
2.00267958E+02
  0
VERTEX
  8
0
 62
4
 10
-1.98581531E+01
 20
2.00263559E+02
  0
VERTEX
  8
0
 62
4
 10
-1.95032479E+01
 20
2.00264628E+02
  0
VERTEX
  8
0
 62
4
 10
-1.91502859E+01
 20
2.00271156E+02
  0
VERTEX
  8
0
 62
4
 10
-1.88020464E+01
 20
2.00283092E+02
  0
VERTEX
  8
0
 62
4
 10
-1.84612719E+01
 20
2.00300343E+02
  0
VERTEX
  8
0
 62
4
 10
-1.81306456E+01
 20
2.00322771E+02
  0
VERTEX
  8
0
 62
4
 10
-1.78127714E+01
 20
2.00350200E+02
  0
VERTEX
  8
0
 62
4
 10
-1.75101523E+01
 20
2.00382415E+02
  0
VERTEX
  8
0
 62
4
 10
-1.72251714E+01
 20
2.00419162E+02
  0
VERTEX
  8
0
 62
4
 10
-1.69600728E+01
 20
2.00460151E+02
  0
VERTEX
  8
0
 62
4
 10
-1.67169441E+01
 20
2.00505060E+02
  0
VERTEX
  8
0
 62
4
 10
-1.64976998E+01
 20
2.00553535E+02
  0
VERTEX
  8
0
 62
4
 10
-1.63040666E+01
 20
2.00605194E+02
  0
VERTEX
  8
0
 62
4
 10
-1.61375691E+01
 20
2.00659630E+02
  0
VERTEX
  8
0
 62
4
 10
-1.59995184E+01
 20
2.00716415E+02
  0
VERTEX
  8
0
 62
4
 10
-1.58910018E+01
 20
2.00775102E+02
  0
VERTEX
  8
0
 62
4
 10
-1.58128737E+01
 20
2.00835229E+02
  0
VERTEX
  8
0
 62
4
 10
-1.57657494E+01
 20
2.00896321E+02
  0
VERTEX
  8
0
 62
4
 10
-1.57500000E+01
 20
2.00957898E+02
  0
SEQEND
  8
0
  0
ARC
  8
0
 62
4
 10
-1.76313944E+01
 20
1.91473809E+02
 40
1.25124521E+01
 50
9.49416351E+01
 51
1.08095416E+02
  0
ARC
  8
0
 62
4
 10
-2.18686058E+01
 20
1.91473807E+02
 40
1.25124547E+01
 50
7.19045858E+01
 51
8.50583647E+01
  0
POLYLINE
  8
0
 62
4
 66
1
  0
VERTEX
  8
0
 62
4
 10
-2.39000000E+01
 20
2.03065387E+02
  0
VERTEX
  8
0
 62
4
 10
-2.38832933E+01
 20
2.03000789E+02
  0
VERTEX
  8
0
 62
4
 10
-2.38333078E+01
 20
2.02936712E+02
  0
VERTEX
  8
0
 62
4
 10
-2.37504459E+01
 20
2.02873670E+02
  0
VERTEX
  8
0
 62
4
 10
-2.36353747E+01
 20
2.02812172E+02
  0
VERTEX
  8
0
 62
4
 10
-2.34890208E+01
 20
2.02752713E+02
  0
VERTEX
  8
0
 62
4
 10
-2.33125625E+01
 20
2.02695771E+02
  0
VERTEX
  8
0
 62
4
 10
-2.31074205E+01
 20
2.02641805E+02
  0
VERTEX
  8
0
 62
4
 10
-2.28752466E+01
 20
2.02591250E+02
  0
VERTEX
  8
0
 62
4
 10
-2.26179100E+01
 20
2.02544512E+02
  0
VERTEX
  8
0
 62
4
 10
-2.23374827E+01
 20
2.02501968E+02
  0
VERTEX
  8
0
 62
4
 10
-2.20362225E+01
 20
2.02463960E+02
  0
VERTEX
  8
0
 62
4
 10
-2.17165550E+01
 20
2.02430795E+02
  0
VERTEX
  8
0
 62
4
 10
-2.13810539E+01
 20
2.02402739E+02
  0
VERTEX
  8
0
 62
4
 10
-2.10324205E+01
 20
2.02380018E+02
  0
VERTEX
  8
0
 62
4
 10
-2.06734619E+01
 20
2.02362815E+02
  0
VERTEX
  8
0
 62
4
 10
-2.03070681E+01
 20
2.02351269E+02
  0
VERTEX
  8
0
 62
4
 10
-1.99361891E+01
 20
2.02345473E+02
  0
VERTEX
  8
0
 62
4
 10
-1.95638110E+01
 20
2.02345473E+02
  0
VERTEX
  8
0
 62
4
 10
-1.91929320E+01
 20
2.02351269E+02
  0
VERTEX
  8
0
 62
4
 10
-1.88265381E+01
 20
2.02362815E+02
  0
VERTEX
  8
0
 62
4
 10
-1.84675795E+01
 20
2.02380018E+02
  0
VERTEX
  8
0
 62
4
 10
-1.81189461E+01
 20
2.02402739E+02
  0
VERTEX
  8
0
 62
4
 10
-1.77834451E+01
 20
2.02430795E+02
  0
VERTEX
  8
0
 62
4
 10
-1.74637775E+01
 20
2.02463960E+02
  0
VERTEX
  8
0
 62
4
 10
-1.71625173E+01
 20
2.02501968E+02
  0
VERTEX
  8
0
 62
4
 10
-1.68820900E+01
 20
2.02544512E+02
  0
VERTEX
  8
0
 62
4
 10
-1.66247534E+01
 20
2.02591250E+02
  0
VERTEX
  8
0
 62
4
 10
-1.63925795E+01
 20
2.02641805E+02
  0
VERTEX
  8
0
 62
4
 10
-1.61874375E+01
 20
2.02695771E+02
  0
VERTEX
  8
0
 62
4
 10
-1.60109792E+01
 20
2.02752713E+02
  0
VERTEX
  8
0
 62
4
 10
-1.58646253E+01
 20
2.02812172E+02
  0
VERTEX
  8
0
 62
4
 10
-1.57495541E+01
 20
2.02873670E+02
  0
VERTEX
  8
0
 62
4
 10
-1.56666922E+01
 20
2.02936712E+02
  0
VERTEX
  8
0
 62
4
 10
-1.56167067E+01
 20
2.03000789E+02
  0
VERTEX
  8
0
 62
4
 10
-1.56000000E+01
 20
2.03065387E+02
  0
SEQEND
  8
0
  0
ARC
  8
0
 62
4
 10
-1.58500000E+01
 20
2.03060050E+02
 40
2.50000000E-01
 50
0.00000000E+00
 51
7.03240015E+01
  0
ARC
  8
0
 62
4
 10
-2.36500000E+01
 20
2.03060050E+02
 40
2.50000000E-01
 50
1.09675998E+02
 51
1.80000000E+02
  0
LINE
  8
0
 62
4
 10
-2.34500000E+01
 20
2.01334937E+02
 11
-2.34500000E+01
 21
2.00350130E+02
  0
LINE
  8
0
 62
4
 10
-3.10500000E+01
 20
2.01334937E+02
 11
-3.10500000E+01
 21
2.00350130E+02
  0
POLYLINE
  8
0
 62
4
 66
1
  0
VERTEX
  8
0
 62
4
 10
-3.10500000E+01
 20
2.00350130E+02
  0
VERTEX
  8
0
 62
4
 10
-3.10347023E+01
 20
2.00290980E+02
  0
VERTEX
  8
0
 62
4
 10
-3.09889324E+01
 20
2.00232307E+02
  0
VERTEX
  8
0
 62
4
 10
-3.09130589E+01
 20
2.00174582E+02
  0
VERTEX
  8
0
 62
4
 10
-3.08076925E+01
 20
2.00118271E+02
  0
VERTEX
  8
0
 62
4
 10
-3.06736817E+01
 20
2.00063826E+02
  0
VERTEX
  8
0
 62
4
 10
-3.05121054E+01
 20
2.00011687E+02
  0
VERTEX
  8
0
 62
4
 10
-3.03242646E+01
 20
1.99962272E+02
  0
VERTEX
  8
0
 62
4
 10
-3.01116716E+01
 20
1.99915981E+02
  0
VERTEX
  8
0
 62
4
 10
-2.98760381E+01
 20
1.99873184E+02
  0
VERTEX
  8
0
 62
4
 10
-2.96192613E+01
 20
1.99834228E+02
  0
VERTEX
  8
0
 62
4
 10
-2.93434085E+01
 20
1.99799426E+02
  0
VERTEX
  8
0
 62
4
 10
-2.90507009E+01
 20
1.99769058E+02
  0
VERTEX
  8
0
 62
4
 10
-2.87434951E+01
 20
1.99743368E+02
  0
VERTEX
  8
0
 62
4
 10
-2.84242646E+01
 20
1.99722563E+02
  0
VERTEX
  8
0
 62
4
 10
-2.80955796E+01
 20
1.99706811E+02
  0
VERTEX
  8
0
 62
4
 10
-2.77600864E+01
 20
1.99696239E+02
  0
VERTEX
  8
0
 62
4
 10
-2.74204864E+01
 20
1.99690931E+02
  0
VERTEX
  8
0
 62
4
 10
-2.70795137E+01
 20
1.99690931E+02
  0
VERTEX
  8
0
 62
4
 10
-2.67399136E+01
 20
1.99696239E+02
  0
VERTEX
  8
0
 62
4
 10
-2.64044205E+01
 20
1.99706811E+02
  0
VERTEX
  8
0
 62
4
 10
-2.60757354E+01
 20
1.99722563E+02
  0
VERTEX
  8
0
 62
4
 10
-2.57565049E+01
 20
1.99743368E+02
  0
VERTEX
  8
0
 62
4
 10
-2.54492991E+01
 20
1.99769058E+02
  0
VERTEX
  8
0
 62
4
 10
-2.51565915E+01
 20
1.99799426E+02
  0
VERTEX
  8
0
 62
4
 10
-2.48807388E+01
 20
1.99834228E+02
  0
VERTEX
  8
0
 62
4
 10
-2.46239620E+01
 20
1.99873184E+02
  0
VERTEX
  8
0
 62
4
 10
-2.43883284E+01
 20
1.99915981E+02
  0
VERTEX
  8
0
 62
4
 10
-2.41757354E+01
 20
1.99962272E+02
  0
VERTEX
  8
0
 62
4
 10
-2.39878946E+01
 20
2.00011687E+02
  0
VERTEX
  8
0
 62
4
 10
-2.38263183E+01
 20
2.00063826E+02
  0
VERTEX
  8
0
 62
4
 10
-2.36923075E+01
 20
2.00118271E+02
  0
VERTEX
  8
0
 62
4
 10
-2.35869411E+01
 20
2.00174582E+02
  0
VERTEX
  8
0
 62
4
 10
-2.35110676E+01
 20
2.00232307E+02
  0
VERTEX
  8
0
 62
4
 10
-2.34652977E+01
 20
2.00290980E+02
  0
VERTEX
  8
0
 62
4
 10
-2.34500000E+01
 20
2.00350130E+02
  0
SEQEND
  8
0
  0
POLYLINE
  8
0
 62
4
 66
1
  0
VERTEX
  8
0
 62
4
 10
-3.06500000E+01
 20
2.01629628E+02
  0
VERTEX
  8
0
 62
4
 10
-3.07865817E+01
 20
2.01576339E+02
  0
VERTEX
  8
0
 62
4
 10
-3.08955295E+01
 20
2.01521163E+02
  0
VERTEX
  8
0
 62
4
 10
-3.09759923E+01
 20
2.01464533E+02
  0
VERTEX
  8
0
 62
4
 10
-3.10273413E+01
 20
2.01406890E+02
  0
VERTEX
  8
0
 62
4
 10
-3.10491753E+01
 20
2.01348684E+02
  0
VERTEX
  8
0
 62
4
 10
-3.10413236E+01
 20
2.01290371E+02
  0
VERTEX
  8
0
 62
4
 10
-3.10038476E+01
 20
2.01232407E+02
  0
VERTEX
  8
0
 62
4
 10
-3.09370402E+01
 20
2.01175244E+02
  0
VERTEX
  8
0
 62
4
 10
-3.08414234E+01
 20
2.01119328E+02
  0
VERTEX
  8
0
 62
4
 10
-3.07177442E+01
 20
2.01065097E+02
  0
VERTEX
  8
0
 62
4
 10
-3.05669691E+01
 20
2.01012975E+02
  0
VERTEX
  8
0
 62
4
 10
-3.03902762E+01
 20
2.00963368E+02
  0
VERTEX
  8
0
 62
4
 10
-3.01890462E+01
 20
2.00916664E+02
  0
VERTEX
  8
0
 62
4
 10
-2.99648512E+01
 20
2.00873229E+02
  0
VERTEX
  8
0
 62
4
 10
-2.97194433E+01
 20
2.00833402E+02
  0
VERTEX
  8
0
 62
4
 10
-2.94547398E+01
 20
2.00797493E+02
  0
VERTEX
  8
0
 62
4
 10
-2.91728092E+01
 20
2.00765784E+02
  0
VERTEX
  8
0
 62
4
 10
-2.88758543E+01
 20
2.00738522E+02
  0
VERTEX
  8
0
 62
4
 10
-2.85661954E+01
 20
2.00715920E+02
  0
VERTEX
  8
0
 62
4
 10
-2.82462522E+01
 20
2.00698155E+02
  0
VERTEX
  8
0
 62
4
 10
-2.79185246E+01
 20
2.00685366E+02
  0
VERTEX
  8
0
 62
4
 10
-2.75855733E+01
 20
2.00677652E+02
  0
VERTEX
  8
0
 62
4
 10
-2.72500000E+01
 20
2.00675074E+02
  0
VERTEX
  8
0
 62
4
 10
-2.69144266E+01
 20
2.00677652E+02
  0
VERTEX
  8
0
 62
4
 10
-2.65814754E+01
 20
2.00685366E+02
  0
VERTEX
  8
0
 62
4
 10
-2.62537477E+01
 20
2.00698155E+02
  0
VERTEX
  8
0
 62
4
 10
-2.59338045E+01
 20
2.00715920E+02
  0
VERTEX
  8
0
 62
4
 10
-2.56241457E+01
 20
2.00738522E+02
  0
VERTEX
  8
0
 62
4
 10
-2.53271908E+01
 20
2.00765784E+02
  0
VERTEX
  8
0
 62
4
 10
-2.50452601E+01
 20
2.00797493E+02
  0
VERTEX
  8
0
 62
4
 10
-2.47805567E+01
 20
2.00833402E+02
  0
VERTEX
  8
0
 62
4
 10
-2.45351487E+01
 20
2.00873229E+02
  0
VERTEX
  8
0
 62
4
 10
-2.43109538E+01
 20
2.00916664E+02
  0
VERTEX
  8
0
 62
4
 10
-2.41097237E+01
 20
2.00963368E+02
  0
VERTEX
  8
0
 62
4
 10
-2.39330308E+01
 20
2.01012975E+02
  0
VERTEX
  8
0
 62
4
 10
-2.37822558E+01
 20
2.01065097E+02
  0
VERTEX
  8
0
 62
4
 10
-2.36585766E+01
 20
2.01119328E+02
  0
VERTEX
  8
0
 62
4
 10
-2.35629598E+01
 20
2.01175244E+02
  0
VERTEX
  8
0
 62
4
 10
-2.34961524E+01
 20
2.01232407E+02
  0
VERTEX
  8
0
 62
4
 10
-2.34586764E+01
 20
2.01290371E+02
  0
VERTEX
  8
0
 62
4
 10
-2.34508248E+01
 20
2.01348684E+02
  0
VERTEX
  8
0
 62
4
 10
-2.34726587E+01
 20
2.01406890E+02
  0
VERTEX
  8
0
 62
4
 10
-2.35240077E+01
 20
2.01464533E+02
  0
VERTEX
  8
0
 62
4
 10
-2.36044705E+01
 20
2.01521163E+02
  0
VERTEX
  8
0
 62
4
 10
-2.37134183E+01
 20
2.01576339E+02
  0
VERTEX
  8
0
 62
4
 10
-2.38500000E+01
 20
2.01629628E+02
  0
SEQEND
  8
0
  0
LINE
  8
0
 62
4
 10
-2.38500000E+01
 20
2.02608690E+02
 11
-2.38500000E+01
 21
2.01334937E+02
  0
LINE
  8
0
 62
4
 10
-3.06500000E+01
 20
2.02608690E+02
 11
-3.06500000E+01
 21
2.01334937E+02
  0
POLYLINE
  8
0
 62
4
 66
1
  0
VERTEX
  8
0
 62
4
 10
-3.06500000E+01
 20
2.01334937E+02
  0
VERTEX
  8
0
 62
4
 10
-3.06363126E+01
 20
2.01282014E+02
  0
VERTEX
  8
0
 62
4
 10
-3.05953606E+01
 20
2.01229516E+02
  0
VERTEX
  8
0
 62
4
 10
-3.05274737E+01
 20
2.01177868E+02
  0
VERTEX
  8
0
 62
4
 10
-3.04331986E+01
 20
2.01127484E+02
  0
VERTEX
  8
0
 62
4
 10
-3.03132942E+01
 20
2.01078770E+02
  0
VERTEX
  8
0
 62
4
 10
-3.01687259E+01
 20
2.01032119E+02
  0
VERTEX
  8
0
 62
4
 10
-3.00006578E+01
 20
2.00987906E+02
  0
VERTEX
  8
0
 62
4
 10
-2.98104430E+01
 20
2.00946487E+02
  0
VERTEX
  8
0
 62
4
 10
-2.95996130E+01
 20
2.00908196E+02
  0
VERTEX
  8
0
 62
4
 10
-2.93698653E+01
 20
2.00873341E+02
  0
VERTEX
  8
0
 62
4
 10
-2.91230498E+01
 20
2.00842202E+02
  0
VERTEX
  8
0
 62
4
 10
-2.88611535E+01
 20
2.00815030E+02
  0
VERTEX
  8
0
 62
4
 10
-2.85862851E+01
 20
2.00792044E+02
  0
VERTEX
  8
0
 62
4
 10
-2.83006578E+01
 20
2.00773430E+02
  0
VERTEX
  8
0
 62
4
 10
-2.80065712E+01
 20
2.00759336E+02
  0
VERTEX
  8
0
 62
4
 10
-2.77063931E+01
 20
2.00749876E+02
  0
VERTEX
  8
0
 62
4
 10
-2.74025404E+01
 20
2.00745128E+02
  0
VERTEX
  8
0
 62
4
 10
-2.70974596E+01
 20
2.00745128E+02
  0
VERTEX
  8
0
 62
4
 10
-2.67936069E+01
 20
2.00749876E+02
  0
VERTEX
  8
0
 62
4
 10
-2.64934288E+01
 20
2.00759336E+02
  0
VERTEX
  8
0
 62
4
 10
-2.61993422E+01
 20
2.00773430E+02
  0
VERTEX
  8
0
 62
4
 10
-2.59137149E+01
 20
2.00792044E+02
  0
VERTEX
  8
0
 62
4
 10
-2.56388466E+01
 20
2.00815030E+02
  0
VERTEX
  8
0
 62
4
 10
-2.53769503E+01
 20
2.00842202E+02
  0
VERTEX
  8
0
 62
4
 10
-2.51301347E+01
 20
2.00873341E+02
  0
VERTEX
  8
0
 62
4
 10
-2.49003870E+01
 20
2.00908196E+02
  0
VERTEX
  8
0
 62
4
 10
-2.46895570E+01
 20
2.00946487E+02
  0
VERTEX
  8
0
 62
4
 10
-2.44993422E+01
 20
2.00987906E+02
  0
VERTEX
  8
0
 62
4
 10
-2.43312741E+01
 20
2.01032119E+02
  0
VERTEX
  8
0
 62
4
 10
-2.41867059E+01
 20
2.01078770E+02
  0
VERTEX
  8
0
 62
4
 10
-2.40668014E+01
 20
2.01127484E+02
  0
VERTEX
  8
0
 62
4
 10
-2.39725263E+01
 20
2.01177868E+02
  0
VERTEX
  8
0
 62
4
 10
-2.39046394E+01
 20
2.01229516E+02
  0
VERTEX
  8
0
 62
4
 10
-2.38636874E+01
 20
2.01282014E+02
  0
VERTEX
  8
0
 62
4
 10
-2.38500000E+01
 20
2.01334937E+02
  0
SEQEND
  8
0
  0
ARC
  8
0
 62
4
 10
-2.72500000E+01
 20
1.92068476E+02
 40
1.18100000E+01
 50
7.71724899E+01
 51
1.02827510E+02
  0
ARC
  8
0
 62
4
 10
-2.96500003E+01
 20
2.02608690E+02
 40
1.00000000E+00
 50
1.02827510E+02
 51
1.80000000E+02
  0
ARC
  8
0
 62
4
 10
-2.48499997E+01
 20
2.02608690E+02
 40
1.00000000E+00
 50
3.60000000E+02
 51
7.71724899E+01
  0
ARC
  8
0
 62
4
 10
-2.51282465E+01
 20
1.91349333E+02
 40
1.25306621E+01
 50
9.49686598E+01
 51
1.08083352E+02
  0
ARC
  8
0
 62
4
 10
-2.93717536E+01
 20
1.91349333E+02
 40
1.25306626E+01
 50
7.19166483E+01
 51
8.50313400E+01
  0
LINE
  8
0
  6
CENTER
 62
6
 10
-1.72500000E+01
 20
2.00957898E+02
 11
-2.22500000E+01
 21
2.00957898E+02
  0
LINE
  8
0
  6
CENTER
 62
6
 10
-2.72500000E+01
 20
1.97850130E+02
 11
-2.72500000E+01
 21
2.02850130E+02
  0
LINE
  8
0
  6
CENTER
 62
6
 10
-2.47500000E+01
 20
2.00350130E+02
 11
-2.97500000E+01
 21
2.00350130E+02
  0
LINE
  8
0
  6
CENTER
 62
6
 10
-1.22500000E+01
 20
1.97850130E+02
 11
-1.22500000E+01
 21
2.02850130E+02
  0
LINE
  8
0
  6
CENTER
 62
6
 10
-9.74999999E+00
 20
2.00350130E+02
 11
-1.47500000E+01
 21
2.00350130E+02
  0
LINE
  8
0
 62
4
 10
-3.10431106E+01
 20
2.01374654E+02
 11
-3.47500000E+01
 21
2.01374654E+02
  0
LINE
  8
0
 62
6
 10
-6.87500000E+01
 20
2.42372770E+02
 11
-6.87500000E+01
 21
2.40021733E+02
  0
LINE
  8
0
 62
6
 10
-6.57500000E+01
 20
2.42372770E+02
 11
-6.57500000E+01
 21
2.40021733E+02
  0
LINE
  8
0
 62
4
 10
-6.92500000E+01
 20
2.42143055E+02
 11
-6.92500000E+01
 21
2.40021733E+02
  0
LINE
  8
0
 62
4
 10
-6.52500000E+01
 20
2.42143055E+02
 11
-6.52500000E+01
 21
2.40021733E+02
  0
LINE
  8
0
 62
4
 10
-7.87500000E+01
 20
2.40021733E+02
 11
-7.87500000E+01
 21
2.27313736E+02
  0
LINE
  8
0
 62
4
 10
-6.37500000E+01
 20
2.40021733E+02
 11
-6.37500000E+01
 21
2.14391846E+02
  0
LINE
  8
0
 62
4
 10
-9.37500000E+01
 20
2.27313736E+02
 11
-9.37500000E+01
 21
2.15364275E+02
  0
LINE
  8
0
  6
CENTER
 62
6
 10
-6.72500000E+01
 20
2.45485028E+02
 11
-6.72500000E+01
 21
2.35219449E+02
  0
LINE
  8
0
  6
CENTER
 62
6
 10
-7.52500000E+01
 20
2.45485028E+02
 11
-7.52500000E+01
 21
2.35219449E+02
  0
LINE
  8
0
  6
CENTER
 62
6
 10
-7.87500000E+01
 20
2.18281031E+02
 11
-7.87500000E+01
 21
2.13281031E+02
  0
LINE
  8
0
 62
4
 10
-7.87500000E+01
 20
2.40021733E+02
 11
-6.37500000E+01
 21
2.40021733E+02
  0
LINE
  8
0
 62
4
 10
-7.87500000E+01
 20
2.34207391E+02
 11
-6.37500000E+01
 21
2.34207391E+02
  0
LINE
  8
0
 62
4
 10
-9.37500000E+01
 20
2.27313736E+02
 11
-6.37500000E+01
 21
2.27313736E+02
  0
LINE
  8
0
 62
4
 10
-9.37500000E+01
 20
2.17170216E+02
 11
-6.37500000E+01
 21
2.17170216E+02
  0
LINE
  8
0
 62
4
 10
-6.78500000E+01
 20
2.14391846E+02
 11
-6.37500000E+01
 21
2.14391846E+02
  0
LINE
  8
0
 62
4
 10
-6.78500000E+01
 20
2.14565494E+02
 11
-6.37500000E+01
 21
2.14565494E+02
  0
LINE
  8
0
 62
4
 10
-9.37500000E+01
 20
2.15364275E+02
 11
-8.29000000E+01
 21
2.15364275E+02
  0
POLYLINE
  8
0
 62
4
 66
1
  0
VERTEX
  8
0
 62
4
 10
-6.52500000E+01
 20
2.42143055E+02
  0
VERTEX
  8
0
 62
4
 10
-6.52580514E+01
 20
2.42174186E+02
  0
VERTEX
  8
0
 62
4
 10
-6.52821408E+01
 20
2.42205067E+02
  0
VERTEX
  8
0
 62
4
 10
-6.53220743E+01
 20
2.42235449E+02
  0
VERTEX
  8
0
 62
4
 10
-6.53775303E+01
 20
2.42265086E+02
  0
VERTEX
  8
0
 62
4
 10
-6.54480623E+01
 20
2.42293741E+02
  0
VERTEX
  8
0
 62
4
 10
-6.55331024E+01
 20
2.42321183E+02
  0
VERTEX
  8
0
 62
4
 10
-6.56319660E+01
 20
2.42347191E+02
  0
VERTEX
  8
0
 62
4
 10
-6.57438571E+01
 20
2.42371555E+02
  0
VERTEX
  8
0
 62
4
 10
-6.58678747E+01
 20
2.42394079E+02
  0
VERTEX
  8
0
 62
4
 10
-6.60030204E+01
 20
2.42414582E+02
  0
VERTEX
  8
0
 62
4
 10
-6.61482060E+01
 20
2.42432899E+02
  0
VERTEX
  8
0
 62
4
 10
-6.63022627E+01
 20
2.42448883E+02
  0
VERTEX
  8
0
 62
4
 10
-6.64639499E+01
 20
2.42462404E+02
  0
VERTEX
  8
0
 62
4
 10
-6.66319660E+01
 20
2.42473353E+02
  0
VERTEX
  8
0
 62
4
 10
-6.68049581E+01
 20
2.42481644E+02
  0
VERTEX
  8
0
 62
4
 10
-6.69815335E+01
 20
2.42487208E+02
  0
VERTEX
  8
0
 62
4
 10
-6.71602703E+01
 20
2.42490002E+02
  0
VERTEX
  8
0
 62
4
 10
-6.73397296E+01
 20
2.42490002E+02
  0
VERTEX
  8
0
 62
4
 10
-6.75184665E+01
 20
2.42487208E+02
  0
VERTEX
  8
0
 62
4
 10
-6.76950419E+01
 20
2.42481644E+02
  0
VERTEX
  8
0
 62
4
 10
-6.78680340E+01
 20
2.42473353E+02
  0
VERTEX
  8
0
 62
4
 10
-6.80360501E+01
 20
2.42462404E+02
  0
VERTEX
  8
0
 62
4
 10
-6.81977373E+01
 20
2.42448883E+02
  0
VERTEX
  8
0
 62
4
 10
-6.83517940E+01
 20
2.42432899E+02
  0
VERTEX
  8
0
 62
4
 10
-6.84969796E+01
 20
2.42414582E+02
  0
VERTEX
  8
0
 62
4
 10
-6.86321253E+01
 20
2.42394079E+02
  0
VERTEX
  8
0
 62
4
 10
-6.87561429E+01
 20
2.42371555E+02
  0
VERTEX
  8
0
 62
4
 10
-6.88680340E+01
 20
2.42347191E+02
  0
VERTEX
  8
0
 62
4
 10
-6.89668976E+01
 20
2.42321183E+02
  0
VERTEX
  8
0
 62
4
 10
-6.90519377E+01
 20
2.42293741E+02
  0
VERTEX
  8
0
 62
4
 10
-6.91224697E+01
 20
2.42265086E+02
  0
VERTEX
  8
0
 62
4
 10
-6.91779257E+01
 20
2.42235449E+02
  0
VERTEX
  8
0
 62
4
 10
-6.92178592E+01
 20
2.42205067E+02
  0
VERTEX
  8
0
 62
4
 10
-6.92419486E+01
 20
2.42174186E+02
  0
VERTEX
  8
0
 62
4
 10
-6.92500000E+01
 20
2.42143055E+02
  0
SEQEND
  8
0
  0
LINE
  8
0
 62
6
 10
-7.67500000E+01
 20
2.42372770E+02
 11
-7.67500000E+01
 21
2.40021733E+02
  0
LINE
  8
0
 62
6
 10
-7.37500000E+01
 20
2.42372770E+02
 11
-7.37500000E+01
 21
2.40021733E+02
  0
LINE
  8
0
 62
4
 10
-7.72500000E+01
 20
2.42143055E+02
 11
-7.72500000E+01
 21
2.40021733E+02
  0
LINE
  8
0
 62
4
 10
-7.32500000E+01
 20
2.42143055E+02
 11
-7.32500000E+01
 21
2.40021733E+02
  0
POLYLINE
  8
0
 62
4
 66
1
  0
VERTEX
  8
0
 62
4
 10
-7.32500000E+01
 20
2.42143055E+02
  0
VERTEX
  8
0
 62
4
 10
-7.32580514E+01
 20
2.42174186E+02
  0
VERTEX
  8
0
 62
4
 10
-7.32821408E+01
 20
2.42205067E+02
  0
VERTEX
  8
0
 62
4
 10
-7.33220743E+01
 20
2.42235449E+02
  0
VERTEX
  8
0
 62
4
 10
-7.33775303E+01
 20
2.42265086E+02
  0
VERTEX
  8
0
 62
4
 10
-7.34480623E+01
 20
2.42293741E+02
  0
VERTEX
  8
0
 62
4
 10
-7.35331024E+01
 20
2.42321183E+02
  0
VERTEX
  8
0
 62
4
 10
-7.36319660E+01
 20
2.42347191E+02
  0
VERTEX
  8
0
 62
4
 10
-7.37438571E+01
 20
2.42371555E+02
  0
VERTEX
  8
0
 62
4
 10
-7.38678747E+01
 20
2.42394079E+02
  0
VERTEX
  8
0
 62
4
 10
-7.40030204E+01
 20
2.42414582E+02
  0
VERTEX
  8
0
 62
4
 10
-7.41482060E+01
 20
2.42432899E+02
  0
VERTEX
  8
0
 62
4
 10
-7.43022627E+01
 20
2.42448883E+02
  0
VERTEX
  8
0
 62
4
 10
-7.44639499E+01
 20
2.42462404E+02
  0
VERTEX
  8
0
 62
4
 10
-7.46319660E+01
 20
2.42473353E+02
  0
VERTEX
  8
0
 62
4
 10
-7.48049581E+01
 20
2.42481644E+02
  0
VERTEX
  8
0
 62
4
 10
-7.49815335E+01
 20
2.42487208E+02
  0
VERTEX
  8
0
 62
4
 10
-7.51602703E+01
 20
2.42490002E+02
  0
VERTEX
  8
0
 62
4
 10
-7.53397296E+01
 20
2.42490002E+02
  0
VERTEX
  8
0
 62
4
 10
-7.55184665E+01
 20
2.42487208E+02
  0
VERTEX
  8
0
 62
4
 10
-7.56950419E+01
 20
2.42481644E+02
  0
VERTEX
  8
0
 62
4
 10
-7.58680340E+01
 20
2.42473353E+02
  0
VERTEX
  8
0
 62
4
 10
-7.60360501E+01
 20
2.42462404E+02
  0
VERTEX
  8
0
 62
4
 10
-7.61977373E+01
 20
2.42448883E+02
  0
VERTEX
  8
0
 62
4
 10
-7.63517940E+01
 20
2.42432899E+02
  0
VERTEX
  8
0
 62
4
 10
-7.64969796E+01
 20
2.42414582E+02
  0
VERTEX
  8
0
 62
4
 10
-7.66321253E+01
 20
2.42394079E+02
  0
VERTEX
  8
0
 62
4
 10
-7.67561429E+01
 20
2.42371555E+02
  0
VERTEX
  8
0
 62
4
 10
-7.68680340E+01
 20
2.42347191E+02
  0
VERTEX
  8
0
 62
4
 10
-7.69668976E+01
 20
2.42321183E+02
  0
VERTEX
  8
0
 62
4
 10
-7.70519377E+01
 20
2.42293741E+02
  0
VERTEX
  8
0
 62
4
 10
-7.71224697E+01
 20
2.42265086E+02
  0
VERTEX
  8
0
 62
4
 10
-7.71779257E+01
 20
2.42235449E+02
  0
VERTEX
  8
0
 62
4
 10
-7.72178592E+01
 20
2.42205067E+02
  0
VERTEX
  8
0
 62
4
 10
-7.72419486E+01
 20
2.42174186E+02
  0
VERTEX
  8
0
 62
4
 10
-7.72500000E+01
 20
2.42143055E+02
  0
SEQEND
  8
0
  0
LINE
  8
0
 62
4
 10
-9.37500000E+01
 20
2.19019721E+02
 11
-9.52500000E+01
 21
2.18016788E+02
  0
LINE
  8
0
 62
4
 10
-9.52500000E+01
 20
2.18016788E+02
 11
-9.52500000E+01
 21
2.15392886E+02
  0
LINE
  8
0
 62
4
 10
-9.52500000E+01
 20
2.15786199E+02
 11
-9.37500000E+01
 21
2.15080490E+02
  0
LINE
  8
0
 62
4
 10
-9.52500000E+01
 20
2.15392886E+02
 11
-9.37500000E+01
 21
2.14385897E+02
  0
LINE
  8
0
 62
4
 10
-9.37500000E+01
 20
2.14385897E+02
 11
-8.29000000E+01
 21
2.14385897E+02
  0
LINE
  8
0
 62
4
 10
-9.37500000E+01
 20
2.15080490E+02
 11
-8.29000000E+01
 21
2.15080490E+02
  0
LINE
  8
0
 62
4
 10
-9.37500000E+01
 20
2.15364275E+02
 11
-9.37500000E+01
 21
2.14391846E+02
  0
POLYLINE
  8
0
 62
4
 66
1
  0
VERTEX
  8
0
 62
4
 10
-7.50500000E+01
 20
2.15733175E+02
  0
VERTEX
  8
0
 62
4
 10
-7.52318150E+01
 20
2.15789022E+02
  0
VERTEX
  8
0
 62
4
 10
-7.54415122E+01
 20
2.15841841E+02
  0
VERTEX
  8
0
 62
4
 10
-7.56774299E+01
 20
2.15891211E+02
  0
VERTEX
  8
0
 62
4
 10
-7.59376982E+01
 20
2.15936743E+02
  0
VERTEX
  8
0
 62
4
 10
-7.62202545E+01
 20
2.15978074E+02
  0
VERTEX
  8
0
 62
4
 10
-7.65228596E+01
 20
2.16014879E+02
  0
VERTEX
  8
0
 62
4
 10
-7.68431151E+01
 20
2.16046864E+02
  0
VERTEX
  8
0
 62
4
 10
-7.71784831E+01
 20
2.16073777E+02
  0
VERTEX
  8
0
 62
4
 10
-7.75263056E+01
 20
2.16095403E+02
  0
VERTEX
  8
0
 62
4
 10
-7.78838262E+01
 20
2.16111573E+02
  0
VERTEX
  8
0
 62
4
 10
-7.82482113E+01
 20
2.16122157E+02
  0
VERTEX
  8
0
 62
4
 10
-7.86165732E+01
 20
2.16127071E+02
  0
VERTEX
  8
0
 62
4
 10
-7.89859925E+01
 20
2.16126278E+02
  0
VERTEX
  8
0
 62
4
 10
-7.93535416E+01
 20
2.16119782E+02
  0
VERTEX
  8
0
 62
4
 10
-7.97163074E+01
 20
2.16107636E+02
  0
VERTEX
  8
0
 62
4
 10
-8.00714151E+01
 20
2.16089936E+02
  0
VERTEX
  8
0
 62
4
 10
-8.04160504E+01
 20
2.16066822E+02
  0
VERTEX
  8
0
 62
4
 10
-8.07474818E+01
 20
2.16038477E+02
  0
VERTEX
  8
0
 62
4
 10
-8.10630829E+01
 20
2.16005126E+02
  0
VERTEX
  8
0
 62
4
 10
-8.13603523E+01
 20
2.15967033E+02
  0
VERTEX
  8
0
 62
4
 10
-8.16369343E+01
 20
2.15924500E+02
  0
VERTEX
  8
0
 62
4
 10
-8.18906367E+01
 20
2.15877865E+02
  0
VERTEX
  8
0
 62
4
 10
-8.21194490E+01
 20
2.15827496E+02
  0
VERTEX
  8
0
 62
4
 10
-8.23215578E+01
 20
2.15773793E+02
  0
VERTEX
  8
0
 62
4
 10
-8.24953613E+01
 20
2.15717181E+02
  0
VERTEX
  8
0
 62
4
 10
-8.26394821E+01
 20
2.15658110E+02
  0
VERTEX
  8
0
 62
4
 10
-8.27527781E+01
 20
2.15597047E+02
  0
VERTEX
  8
0
 62
4
 10
-8.28343513E+01
 20
2.15534477E+02
  0
VERTEX
  8
0
 62
4
 10
-8.28835552E+01
 20
2.15470894E+02
  0
VERTEX
  8
0
 62
4
 10
-8.29000000E+01
 20
2.15406804E+02
  0
SEQEND
  8
0
  0
ARC
  8
0
 62
4
 10
-7.87422617E+01
 20
2.24563910E+02
 40
1.18100000E+01
 50
2.69962458E+02
 51
2.89675999E+02
  0
ARC
  8
0
 62
4
 10
-7.87577383E+01
 20
2.24563910E+02
 40
1.18100000E+01
 50
2.50324001E+02
 51
2.70037542E+02
  0
LINE
  8
0
 62
4
 10
-8.29000000E+01
 20
2.13678879E+02
 11
-8.29000000E+01
 21
2.15406804E+02
  0
LINE
  8
0
 62
4
 10
-7.46000000E+01
 20
2.13678879E+02
 11
-7.46000000E+01
 21
2.13817989E+02
  0
LINE
  8
0
 62
4
 10
-8.27500000E+01
 20
2.15781031E+02
 11
-8.27500000E+01
 21
2.15598801E+02
  0
POLYLINE
  8
0
 62
4
 66
1
  0
VERTEX
  8
0
 62
4
 10
-7.50500000E+01
 20
2.16044953E+02
  0
VERTEX
  8
0
 62
4
 10
-7.51993080E+01
 20
2.16100873E+02
  0
VERTEX
  8
0
 62
4
 10
-7.53765767E+01
 20
2.16154274E+02
  0
VERTEX
  8
0
 62
4
 10
-7.55804101E+01
 20
2.16204736E+02
  0
VERTEX
  8
0
 62
4
 10
-7.58092032E+01
 20
2.16251861E+02
  0
VERTEX
  8
0
 62
4
 10
-7.60611542E+01
 20
2.16295279E+02
  0
VERTEX
  8
0
 62
4
 10
-7.63342792E+01
 20
2.16334647E+02
  0
VERTEX
  8
0
 62
4
 10
-7.66264273E+01
 20
2.16369656E+02
  0
VERTEX
  8
0
 62
4
 10
-7.69352979E+01
 20
2.16400029E+02
  0
VERTEX
  8
0
 62
4
 10
-7.72584588E+01
 20
2.16425528E+02
  0
VERTEX
  8
0
 62
4
 10
-7.75933652E+01
 20
2.16445952E+02
  0
VERTEX
  8
0
 62
4
 10
-7.79373798E+01
 20
2.16461139E+02
  0
VERTEX
  8
0
 62
4
 10
-7.82877935E+01
 20
2.16470971E+02
  0
VERTEX
  8
0
 62
4
 10
-7.86418469E+01
 20
2.16475370E+02
  0
VERTEX
  8
0
 62
4
 10
-7.89967521E+01
 20
2.16474301E+02
  0
VERTEX
  8
0
 62
4
 10
-7.93497141E+01
 20
2.16467773E+02
  0
VERTEX
  8
0
 62
4
 10
-7.96979536E+01
 20
2.16455837E+02
  0
VERTEX
  8
0
 62
4
 10
-8.00387281E+01
 20
2.16438586E+02
  0
VERTEX
  8
0
 62
4
 10
-8.03693543E+01
 20
2.16416158E+02
  0
VERTEX
  8
0
 62
4
 10
-8.06872286E+01
 20
2.16388729E+02
  0
VERTEX
  8
0
 62
4
 10
-8.09898477E+01
 20
2.16356514E+02
  0
VERTEX
  8
0
 62
4
 10
-8.12748286E+01
 20
2.16319767E+02
  0
VERTEX
  8
0
 62
4
 10
-8.15399272E+01
 20
2.16278778E+02
  0
VERTEX
  8
0
 62
4
 10
-8.17830559E+01
 20
2.16233869E+02
  0
VERTEX
  8
0
 62
4
 10
-8.20023002E+01
 20
2.16185394E+02
  0
VERTEX
  8
0
 62
4
 10
-8.21959334E+01
 20
2.16133735E+02
  0
VERTEX
  8
0
 62
4
 10
-8.23624309E+01
 20
2.16079299E+02
  0
VERTEX
  8
0
 62
4
 10
-8.25004816E+01
 20
2.16022514E+02
  0
VERTEX
  8
0
 62
4
 10
-8.26089982E+01
 20
2.15963827E+02
  0
VERTEX
  8
0
 62
4
 10
-8.26871262E+01
 20
2.15903701E+02
  0
VERTEX
  8
0
 62
4
 10
-8.27342506E+01
 20
2.15842608E+02
  0
VERTEX
  8
0
 62
4
 10
-8.27500000E+01
 20
2.15781031E+02
  0
SEQEND
  8
0
  0
ARC
  8
0
 62
4
 10
-8.08686056E+01
 20
2.25265120E+02
 40
1.25124521E+01
 50
2.74941635E+02
 51
2.88095416E+02
  0
ARC
  8
0
 62
4
 10
-7.66313942E+01
 20
2.25265123E+02
 40
1.25124547E+01
 50
2.51904586E+02
 51
2.65058365E+02
  0
POLYLINE
  8
0
 62
4
 66
1
  0
VERTEX
  8
0
 62
4
 10
-7.46000000E+01
 20
2.13673542E+02
  0
VERTEX
  8
0
 62
4
 10
-7.46167067E+01
 20
2.13738140E+02
  0
VERTEX
  8
0
 62
4
 10
-7.46666922E+01
 20
2.13802217E+02
  0
VERTEX
  8
0
 62
4
 10
-7.47495541E+01
 20
2.13865259E+02
  0
VERTEX
  8
0
 62
4
 10
-7.48646253E+01
 20
2.13926757E+02
  0
VERTEX
  8
0
 62
4
 10
-7.50109792E+01
 20
2.13986216E+02
  0
VERTEX
  8
0
 62
4
 10
-7.51874375E+01
 20
2.14043158E+02
  0
VERTEX
  8
0
 62
4
 10
-7.53925795E+01
 20
2.14097124E+02
  0
VERTEX
  8
0
 62
4
 10
-7.56247534E+01
 20
2.14147679E+02
  0
VERTEX
  8
0
 62
4
 10
-7.58820900E+01
 20
2.14194417E+02
  0
VERTEX
  8
0
 62
4
 10
-7.61625173E+01
 20
2.14236961E+02
  0
VERTEX
  8
0
 62
4
 10
-7.64637775E+01
 20
2.14274969E+02
  0
VERTEX
  8
0
 62
4
 10
-7.67834450E+01
 20
2.14308134E+02
  0
VERTEX
  8
0
 62
4
 10
-7.71189461E+01
 20
2.14336190E+02
  0
VERTEX
  8
0
 62
4
 10
-7.74675794E+01
 20
2.14358911E+02
  0
VERTEX
  8
0
 62
4
 10
-7.78265381E+01
 20
2.14376114E+02
  0
VERTEX
  8
0
 62
4
 10
-7.81929319E+01
 20
2.14387660E+02
  0
VERTEX
  8
0
 62
4
 10
-7.85638109E+01
 20
2.14393456E+02
  0
VERTEX
  8
0
 62
4
 10
-7.89361890E+01
 20
2.14393456E+02
  0
VERTEX
  8
0
 62
4
 10
-7.93070680E+01
 20
2.14387660E+02
  0
VERTEX
  8
0
 62
4
 10
-7.96734619E+01
 20
2.14376114E+02
  0
VERTEX
  8
0
 62
4
 10
-8.00324205E+01
 20
2.14358911E+02
  0
VERTEX
  8
0
 62
4
 10
-8.03810539E+01
 20
2.14336190E+02
  0
VERTEX
  8
0
 62
4
 10
-8.07165549E+01
 20
2.14308134E+02
  0
VERTEX
  8
0
 62
4
 10
-8.10362225E+01
 20
2.14274969E+02
  0
VERTEX
  8
0
 62
4
 10
-8.13374827E+01
 20
2.14236961E+02
  0
VERTEX
  8
0
 62
4
 10
-8.16179100E+01
 20
2.14194417E+02
  0
VERTEX
  8
0
 62
4
 10
-8.18752466E+01
 20
2.14147679E+02
  0
VERTEX
  8
0
 62
4
 10
-8.21074205E+01
 20
2.14097124E+02
  0
VERTEX
  8
0
 62
4
 10
-8.23125625E+01
 20
2.14043158E+02
  0
VERTEX
  8
0
 62
4
 10
-8.24890208E+01
 20
2.13986216E+02
  0
VERTEX
  8
0
 62
4
 10
-8.26353747E+01
 20
2.13926757E+02
  0
VERTEX
  8
0
 62
4
 10
-8.27504459E+01
 20
2.13865259E+02
  0
VERTEX
  8
0
 62
4
 10
-8.28333078E+01
 20
2.13802217E+02
  0
VERTEX
  8
0
 62
4
 10
-8.28832933E+01
 20
2.13738140E+02
  0
VERTEX
  8
0
 62
4
 10
-8.29000000E+01
 20
2.13673542E+02
  0
SEQEND
  8
0
  0
ARC
  8
0
 62
4
 10
-8.26500000E+01
 20
2.13678879E+02
 40
2.50000000E-01
 50
1.80000000E+02
 51
2.50324001E+02
  0
ARC
  8
0
 62
4
 10
-7.48500000E+01
 20
2.13678879E+02
 40
2.50000000E-01
 50
2.89675999E+02
 51
0.00000000E+00
  0
LINE
  8
0
 62
4
 10
-7.50500000E+01
 20
2.15403992E+02
 11
-7.50500000E+01
 21
2.16388800E+02
  0
LINE
  8
0
 62
4
 10
-6.74500000E+01
 20
2.15403992E+02
 11
-6.74500000E+01
 21
2.16388800E+02
  0
POLYLINE
  8
0
 62
4
 66
1
  0
VERTEX
  8
0
 62
4
 10
-6.74500000E+01
 20
2.16388800E+02
  0
VERTEX
  8
0
 62
4
 10
-6.74652977E+01
 20
2.16447950E+02
  0
VERTEX
  8
0
 62
4
 10
-6.75110676E+01
 20
2.16506623E+02
  0
VERTEX
  8
0
 62
4
 10
-6.75869411E+01
 20
2.16564348E+02
  0
VERTEX
  8
0
 62
4
 10
-6.76923075E+01
 20
2.16620659E+02
  0
VERTEX
  8
0
 62
4
 10
-6.78263183E+01
 20
2.16675104E+02
  0
VERTEX
  8
0
 62
4
 10
-6.79878946E+01
 20
2.16727243E+02
  0
VERTEX
  8
0
 62
4
 10
-6.81757354E+01
 20
2.16776658E+02
  0
VERTEX
  8
0
 62
4
 10
-6.83883284E+01
 20
2.16822949E+02
  0
VERTEX
  8
0
 62
4
 10
-6.86239619E+01
 20
2.16865746E+02
  0
VERTEX
  8
0
 62
4
 10
-6.88807387E+01
 20
2.16904702E+02
  0
VERTEX
  8
0
 62
4
 10
-6.91565915E+01
 20
2.16939504E+02
  0
VERTEX
  8
0
 62
4
 10
-6.94492991E+01
 20
2.16969872E+02
  0
VERTEX
  8
0
 62
4
 10
-6.97565049E+01
 20
2.16995562E+02
  0
VERTEX
  8
0
 62
4
 10
-7.00757354E+01
 20
2.17016367E+02
  0
VERTEX
  8
0
 62
4
 10
-7.04044204E+01
 20
2.17032119E+02
  0
VERTEX
  8
0
 62
4
 10
-7.07399136E+01
 20
2.17042691E+02
  0
VERTEX
  8
0
 62
4
 10
-7.10795136E+01
 20
2.17047999E+02
  0
VERTEX
  8
0
 62
4
 10
-7.14204863E+01
 20
2.17047999E+02
  0
VERTEX
  8
0
 62
4
 10
-7.17600864E+01
 20
2.17042691E+02
  0
VERTEX
  8
0
 62
4
 10
-7.20955795E+01
 20
2.17032119E+02
  0
VERTEX
  8
0
 62
4
 10
-7.24242646E+01
 20
2.17016367E+02
  0
VERTEX
  8
0
 62
4
 10
-7.27434951E+01
 20
2.16995562E+02
  0
VERTEX
  8
0
 62
4
 10
-7.30507009E+01
 20
2.16969872E+02
  0
VERTEX
  8
0
 62
4
 10
-7.33434085E+01
 20
2.16939504E+02
  0
VERTEX
  8
0
 62
4
 10
-7.36192612E+01
 20
2.16904702E+02
  0
VERTEX
  8
0
 62
4
 10
-7.38760380E+01
 20
2.16865746E+02
  0
VERTEX
  8
0
 62
4
 10
-7.41116716E+01
 20
2.16822949E+02
  0
VERTEX
  8
0
 62
4
 10
-7.43242646E+01
 20
2.16776658E+02
  0
VERTEX
  8
0
 62
4
 10
-7.45121054E+01
 20
2.16727243E+02
  0
VERTEX
  8
0
 62
4
 10
-7.46736817E+01
 20
2.16675104E+02
  0
VERTEX
  8
0
 62
4
 10
-7.48076925E+01
 20
2.16620659E+02
  0
VERTEX
  8
0
 62
4
 10
-7.49130589E+01
 20
2.16564348E+02
  0
VERTEX
  8
0
 62
4
 10
-7.49889324E+01
 20
2.16506623E+02
  0
VERTEX
  8
0
 62
4
 10
-7.50347023E+01
 20
2.16447950E+02
  0
VERTEX
  8
0
 62
4
 10
-7.50500000E+01
 20
2.16388800E+02
  0
SEQEND
  8
0
  0
POLYLINE
  8
0
 62
4
 66
1
  0
VERTEX
  8
0
 62
4
 10
-6.78500000E+01
 20
2.15109301E+02
  0
VERTEX
  8
0
 62
4
 10
-6.77134183E+01
 20
2.15162590E+02
  0
VERTEX
  8
0
 62
4
 10
-6.76044705E+01
 20
2.15217766E+02
  0
VERTEX
  8
0
 62
4
 10
-6.75240077E+01
 20
2.15274396E+02
  0
VERTEX
  8
0
 62
4
 10
-6.74726587E+01
 20
2.15332039E+02
  0
VERTEX
  8
0
 62
4
 10
-6.74508247E+01
 20
2.15390245E+02
  0
VERTEX
  8
0
 62
4
 10
-6.74586764E+01
 20
2.15448558E+02
  0
VERTEX
  8
0
 62
4
 10
-6.74961524E+01
 20
2.15506522E+02
  0
VERTEX
  8
0
 62
4
 10
-6.75629598E+01
 20
2.15563685E+02
  0
VERTEX
  8
0
 62
4
 10
-6.76585766E+01
 20
2.15619601E+02
  0
VERTEX
  8
0
 62
4
 10
-6.77822558E+01
 20
2.15673832E+02
  0
VERTEX
  8
0
 62
4
 10
-6.79330309E+01
 20
2.15725954E+02
  0
VERTEX
  8
0
 62
4
 10
-6.81097238E+01
 20
2.15775561E+02
  0
VERTEX
  8
0
 62
4
 10
-6.83109538E+01
 20
2.15822265E+02
  0
VERTEX
  8
0
 62
4
 10
-6.85351488E+01
 20
2.15865700E+02
  0
VERTEX
  8
0
 62
4
 10
-6.87805567E+01
 20
2.15905527E+02
  0
VERTEX
  8
0
 62
4
 10
-6.90452602E+01
 20
2.15941436E+02
  0
VERTEX
  8
0
 62
4
 10
-6.93271908E+01
 20
2.15973145E+02
  0
VERTEX
  8
0
 62
4
 10
-6.96241457E+01
 20
2.16000407E+02
  0
VERTEX
  8
0
 62
4
 10
-6.99338046E+01
 20
2.16023009E+02
  0
VERTEX
  8
0
 62
4
 10
-7.02537478E+01
 20
2.16040774E+02
  0
VERTEX
  8
0
 62
4
 10
-7.05814754E+01
 20
2.16053563E+02
  0
VERTEX
  8
0
 62
4
 10
-7.09144267E+01
 20
2.16061277E+02
  0
VERTEX
  8
0
 62
4
 10
-7.12500000E+01
 20
2.16063855E+02
  0
VERTEX
  8
0
 62
4
 10
-7.15855734E+01
 20
2.16061277E+02
  0
VERTEX
  8
0
 62
4
 10
-7.19185246E+01
 20
2.16053563E+02
  0
VERTEX
  8
0
 62
4
 10
-7.22462523E+01
 20
2.16040774E+02
  0
VERTEX
  8
0
 62
4
 10
-7.25661955E+01
 20
2.16023009E+02
  0
VERTEX
  8
0
 62
4
 10
-7.28758543E+01
 20
2.16000407E+02
  0
VERTEX
  8
0
 62
4
 10
-7.31728092E+01
 20
2.15973145E+02
  0
VERTEX
  8
0
 62
4
 10
-7.34547399E+01
 20
2.15941436E+02
  0
VERTEX
  8
0
 62
4
 10
-7.37194433E+01
 20
2.15905527E+02
  0
VERTEX
  8
0
 62
4
 10
-7.39648513E+01
 20
2.15865700E+02
  0
VERTEX
  8
0
 62
4
 10
-7.41890462E+01
 20
2.15822265E+02
  0
VERTEX
  8
0
 62
4
 10
-7.43902763E+01
 20
2.15775561E+02
  0
VERTEX
  8
0
 62
4
 10
-7.45669692E+01
 20
2.15725954E+02
  0
VERTEX
  8
0
 62
4
 10
-7.47177442E+01
 20
2.15673832E+02
  0
VERTEX
  8
0
 62
4
 10
-7.48414234E+01
 20
2.15619601E+02
  0
VERTEX
  8
0
 62
4
 10
-7.49370402E+01
 20
2.15563686E+02
  0
VERTEX
  8
0
 62
4
 10
-7.50038476E+01
 20
2.15506522E+02
  0
VERTEX
  8
0
 62
4
 10
-7.50413236E+01
 20
2.15448558E+02
  0
VERTEX
  8
0
 62
4
 10
-7.50491753E+01
 20
2.15390245E+02
  0
VERTEX
  8
0
 62
4
 10
-7.50273413E+01
 20
2.15332039E+02
  0
VERTEX
  8
0
 62
4
 10
-7.49759923E+01
 20
2.15274396E+02
  0
VERTEX
  8
0
 62
4
 10
-7.48955295E+01
 20
2.15217766E+02
  0
VERTEX
  8
0
 62
4
 10
-7.47865817E+01
 20
2.15162590E+02
  0
VERTEX
  8
0
 62
4
 10
-7.46500000E+01
 20
2.15109301E+02
  0
SEQEND
  8
0
  0
LINE
  8
0
 62
4
 10
-7.46500000E+01
 20
2.14130239E+02
 11
-7.46500000E+01
 21
2.15403992E+02
  0
LINE
  8
0
 62
4
 10
-6.78500000E+01
 20
2.14130239E+02
 11
-6.78500000E+01
 21
2.15403992E+02
  0
POLYLINE
  8
0
 62
4
 66
1
  0
VERTEX
  8
0
 62
4
 10
-6.78500000E+01
 20
2.15403992E+02
  0
VERTEX
  8
0
 62
4
 10
-6.78636874E+01
 20
2.15456915E+02
  0
VERTEX
  8
0
 62
4
 10
-6.79046394E+01
 20
2.15509413E+02
  0
VERTEX
  8
0
 62
4
 10
-6.79725263E+01
 20
2.15561061E+02
  0
VERTEX
  8
0
 62
4
 10
-6.80668014E+01
 20
2.15611445E+02
  0
VERTEX
  8
0
 62
4
 10
-6.81867058E+01
 20
2.15660159E+02
  0
VERTEX
  8
0
 62
4
 10
-6.83312741E+01
 20
2.15706810E+02
  0
VERTEX
  8
0
 62
4
 10
-6.84993422E+01
 20
2.15751023E+02
  0
VERTEX
  8
0
 62
4
 10
-6.86895570E+01
 20
2.15792442E+02
  0
VERTEX
  8
0
 62
4
 10
-6.89003870E+01
 20
2.15830733E+02
  0
VERTEX
  8
0
 62
4
 10
-6.91301347E+01
 20
2.15865588E+02
  0
VERTEX
  8
0
 62
4
 10
-6.93769502E+01
 20
2.15896727E+02
  0
VERTEX
  8
0
 62
4
 10
-6.96388465E+01
 20
2.15923899E+02
  0
VERTEX
  8
0
 62
4
 10
-6.99137149E+01
 20
2.15946885E+02
  0
VERTEX
  8
0
 62
4
 10
-7.01993422E+01
 20
2.15965499E+02
  0
VERTEX
  8
0
 62
4
 10
-7.04934288E+01
 20
2.15979593E+02
  0
VERTEX
  8
0
 62
4
 10
-7.07936069E+01
 20
2.15989053E+02
  0
VERTEX
  8
0
 62
4
 10
-7.10974596E+01
 20
2.15993801E+02
  0
VERTEX
  8
0
 62
4
 10
-7.14025404E+01
 20
2.15993801E+02
  0
VERTEX
  8
0
 62
4
 10
-7.17063931E+01
 20
2.15989053E+02
  0
VERTEX
  8
0
 62
4
 10
-7.20065712E+01
 20
2.15979593E+02
  0
VERTEX
  8
0
 62
4
 10
-7.23006578E+01
 20
2.15965499E+02
  0
VERTEX
  8
0
 62
4
 10
-7.25862851E+01
 20
2.15946885E+02
  0
VERTEX
  8
0
 62
4
 10
-7.28611534E+01
 20
2.15923899E+02
  0
VERTEX
  8
0
 62
4
 10
-7.31230497E+01
 20
2.15896727E+02
  0
VERTEX
  8
0
 62
4
 10
-7.33698653E+01
 20
2.15865588E+02
  0
VERTEX
  8
0
 62
4
 10
-7.35996130E+01
 20
2.15830733E+02
  0
VERTEX
  8
0
 62
4
 10
-7.38104430E+01
 20
2.15792442E+02
  0
VERTEX
  8
0
 62
4
 10
-7.40006578E+01
 20
2.15751023E+02
  0
VERTEX
  8
0
 62
4
 10
-7.41687259E+01
 20
2.15706810E+02
  0
VERTEX
  8
0
 62
4
 10
-7.43132941E+01
 20
2.15660159E+02
  0
VERTEX
  8
0
 62
4
 10
-7.44331986E+01
 20
2.15611445E+02
  0
VERTEX
  8
0
 62
4
 10
-7.45274737E+01
 20
2.15561061E+02
  0
VERTEX
  8
0
 62
4
 10
-7.45953606E+01
 20
2.15509413E+02
  0
VERTEX
  8
0
 62
4
 10
-7.46363126E+01
 20
2.15456915E+02
  0
VERTEX
  8
0
 62
4
 10
-7.46500000E+01
 20
2.15403992E+02
  0
SEQEND
  8
0
  0
ARC
  8
0
 62
4
 10
-7.12500000E+01
 20
2.24670453E+02
 40
1.18100000E+01
 50
2.57172490E+02
 51
2.82827510E+02
  0
ARC
  8
0
 62
4
 10
-6.88499997E+01
 20
2.14130239E+02
 40
1.00000000E+00
 50
2.82827510E+02
 51
5.08888749E-14
  0
ARC
  8
0
 62
4
 10
-7.36500003E+01
 20
2.14130239E+02
 40
1.00000000E+00
 50
1.80000000E+02
 51
2.57172490E+02
  0
ARC
  8
0
 62
4
 10
-7.33717535E+01
 20
2.25389596E+02
 40
1.25306621E+01
 50
2.74968660E+02
 51
2.88083352E+02
  0
ARC
  8
0
 62
4
 10
-6.91282464E+01
 20
2.25389597E+02
 40
1.25306626E+01
 50
2.51916648E+02
 51
2.65031340E+02
  0
LINE
  8
0
  6
CENTER
 62
6
 10
-8.12500000E+01
 20
2.15781031E+02
 11
-7.62500000E+01
 21
2.15781031E+02
  0
LINE
  8
0
  6
CENTER
 62
6
 10
-7.12500000E+01
 20
2.18888800E+02
 11
-7.12500000E+01
 21
2.13888800E+02
  0
LINE
  8
0
  6
CENTER
 62
6
 10
-7.37500000E+01
 20
2.16388800E+02
 11
-6.87500000E+01
 21
2.16388800E+02
  0
LINE
  8
0
  6
CENTER
 62
6
 10
-8.62500000E+01
 20
2.18888800E+02
 11
-8.62500000E+01
 21
2.13888800E+02
  0
LINE
  8
0
  6
CENTER
 62
6
 10
-8.87500000E+01
 20
2.16388800E+02
 11
-8.37500000E+01
 21
2.16388800E+02
  0
LINE
  8
0
 62
4
 10
-6.74568894E+01
 20
2.15364275E+02
 11
-6.37500000E+01
 21
2.15364275E+02
  0
LINE
  8
0
 62
7
 10
-7.87500000E+01
 20
2.35369434E+02
 11
-1.04250000E+02
 21
2.35369434E+02
  0
LINE
  8
0
 62
7
 10
-7.87500000E+01
 20
2.34519443E+02
 11
-1.04249985E+02
 21
2.34519443E+02
  0
LINE
  8
0
 62
7
 10
-7.87500000E+01
 20
2.29219456E+02
 11
-1.04249985E+02
 21
2.29219456E+02
  0
LINE
  8
0
 62
7
 10
-3.47500000E+01
 20
1.87519474E+02
 11
-1.04249985E+02
 21
1.87519474E+02
  0
LINE
  8
0
 62
7
 10
-3.47500000E+01
 20
1.82219486E+02
 11
-1.04249985E+02
 21
1.82219486E+02
  0
LINE
  8
0
 62
7
 10
-3.47500000E+01
 20
1.81369495E+02
 11
-1.04250000E+02
 21
1.81369495E+02
  0
POLYLINE
  8
0
 62
4
 66
1
  0
VERTEX
  8
0
 62
4
 10
-9.21465855E+01
 20
-1.82882114E+02
  0
VERTEX
  8
0
 62
4
 10
-9.21469441E+01
 20
-1.83174444E+02
  0
VERTEX
  8
0
 62
4
 10
-9.21214103E+01
 20
-1.83465691E+02
  0
VERTEX
  8
0
 62
4
 10
-9.20701786E+01
 20
-1.83753634E+02
  0
VERTEX
  8
0
 62
4
 10
-9.19936396E+01
 20
-1.84036079E+02
  0
VERTEX
  8
0
 62
4
 10
-9.18923766E+01
 20
-1.84310874E+02
  0
VERTEX
  8
0
 62
4
 10
-9.17671616E+01
 20
-1.84575922E+02
  0
VERTEX
  8
0
 62
4
 10
-9.16189488E+01
 20
-1.84829205E+02
  0
VERTEX
  8
0
 62
4
 10
-9.14488681E+01
 20
-1.85068792E+02
  0
VERTEX
  8
0
 62
4
 10
-9.12582159E+01
 20
-1.85292856E+02
  0
VERTEX
  8
0
 62
4
 10
-9.10484454E+01
 20
-1.85499689E+02
  0
VERTEX
  8
0
 62
4
 10
-9.08211555E+01
 20
-1.85687716E+02
  0
VERTEX
  8
0
 62
4
 10
-9.05780786E+01
 20
-1.85855502E+02
  0
VERTEX
  8
0
 62
4
 10
-9.03210676E+01
 20
-1.86001769E+02
  0
VERTEX
  8
0
 62
4
 10
-9.00520816E+01
 20
-1.86125402E+02
  0
VERTEX
  8
0
 62
4
 10
-8.97731707E+01
 20
-1.86225459E+02
  0
VERTEX
  8
0
 62
4
 10
-8.94864610E+01
 20
-1.86301176E+02
  0
VERTEX
  8
0
 62
4
 10
-8.91941379E+01
 20
-1.86351978E+02
  0
VERTEX
  8
0
 62
4
 10
-8.88984294E+01
 20
-1.86377476E+02
  0
VERTEX
  8
0
 62
4
 10
-8.86015896E+01
 20
-1.86377476E+02
  0
VERTEX
  8
0
 62
4
 10
-8.83058811E+01
 20
-1.86351978E+02
  0
VERTEX
  8
0
 62
4
 10
-8.80135579E+01
 20
-1.86301177E+02
  0
VERTEX
  8
0
 62
4
 10
-8.77268481E+01
 20
-1.86225459E+02
  0
VERTEX
  8
0
 62
4
 10
-8.74479372E+01
 20
-1.86125403E+02
  0
VERTEX
  8
0
 62
4
 10
-8.71789511E+01
 20
-1.86001770E+02
  0
VERTEX
  8
0
 62
4
 10
-8.69219400E+01
 20
-1.85855503E+02
  0
VERTEX
  8
0
 62
4
 10
-8.66788630E+01
 20
-1.85687717E+02
  0
VERTEX
  8
0
 62
4
 10
-8.64515730E+01
 20
-1.85499691E+02
  0
VERTEX
  8
0
 62
4
 10
-8.62418023E+01
 20
-1.85292858E+02
  0
VERTEX
  8
0
 62
4
 10
-8.60511499E+01
 20
-1.85068794E+02
  0
VERTEX
  8
0
 62
4
 10
-8.58810691E+01
 20
-1.84829207E+02
  0
VERTEX
  8
0
 62
4
 10
-8.57328561E+01
 20
-1.84575924E+02
  0
VERTEX
  8
0
 62
4
 10
-8.56076409E+01
 20
-1.84310876E+02
  0
VERTEX
  8
0
 62
4
 10
-8.55063777E+01
 20
-1.84036081E+02
  0
VERTEX
  8
0
 62
4
 10
-8.54298385E+01
 20
-1.83753636E+02
  0
VERTEX
  8
0
 62
4
 10
-8.53786066E+01
 20
-1.83465693E+02
  0
VERTEX
  8
0
 62
4
 10
-8.53530726E+01
 20
-1.83174446E+02
  0
VERTEX
  8
0
 62
4
 10
-8.53534310E+01
 20
-1.82882117E+02
  0
SEQEND
  8
0
  0
POLYLINE
  8
0
 62
4
 66
1
  0
VERTEX
  8
0
 62
4
 10
-9.27500081E+01
 20
-1.83032229E+02
  0
VERTEX
  8
0
 62
4
 10
-9.27347948E+01
 20
-1.83375556E+02
  0
VERTEX
  8
0
 62
4
 10
-9.26892548E+01
 20
-1.83716271E+02
  0
VERTEX
  8
0
 62
4
 10
-9.26137348E+01
 20
-1.84051780E+02
  0
VERTEX
  8
0
 62
4
 10
-9.25088095E+01
 20
-1.84379531E+02
  0
VERTEX
  8
0
 62
4
 10
-9.23752775E+01
 20
-1.84697029E+02
  0
VERTEX
  8
0
 62
4
 10
-9.22141550E+01
 20
-1.85001857E+02
  0
VERTEX
  8
0
 62
4
 10
-9.20266682E+01
 20
-1.85291696E+02
  0
VERTEX
  8
0
 62
4
 10
-9.18142440E+01
 20
-1.85564339E+02
  0
VERTEX
  8
0
 62
4
 10
-9.15784992E+01
 20
-1.85817713E+02
  0
VERTEX
  8
0
 62
4
 10
-9.13212279E+01
 20
-1.86049888E+02
  0
VERTEX
  8
0
 62
4
 10
-9.10443880E+01
 20
-1.86259097E+02
  0
VERTEX
  8
0
 62
4
 10
-9.07500865E+01
 20
-1.86443749E+02
  0
VERTEX
  8
0
 62
4
 10
-9.04405632E+01
 20
-1.86602438E+02
  0
VERTEX
  8
0
 62
4
 10
-9.01181737E+01
 20
-1.86733956E+02
  0
VERTEX
  8
0
 62
4
 10
-8.97853717E+01
 20
-1.86837302E+02
  0
VERTEX
  8
0
 62
4
 10
-8.94446899E+01
 20
-1.86911690E+02
  0
VERTEX
  8
0
 62
4
 10
-8.90987212E+01
 20
-1.86956554E+02
  0
VERTEX
  8
0
 62
4
 10
-8.87500986E+01
 20
-1.86971552E+02
  0
VERTEX
  8
0
 62
4
 10
-8.84014753E+01
 20
-1.86956570E+02
  0
VERTEX
  8
0
 62
4
 10
-8.80555045E+01
 20
-1.86911722E+02
  0
VERTEX
  8
0
 62
4
 10
-8.77148193E+01
 20
-1.86837350E+02
  0
VERTEX
  8
0
 62
4
 10
-8.73820126E+01
 20
-1.86734019E+02
  0
VERTEX
  8
0
 62
4
 10
-8.70596171E+01
 20
-1.86602516E+02
  0
VERTEX
  8
0
 62
4
 10
-8.67500865E+01
 20
-1.86443841E+02
  0
VERTEX
  8
0
 62
4
 10
-8.64557765E+01
 20
-1.86259203E+02
  0
VERTEX
  8
0
 62
4
 10
-8.61789270E+01
 20
-1.86050006E+02
  0
VERTEX
  8
0
 62
4
 10
-8.59216450E+01
 20
-1.85817843E+02
  0
VERTEX
  8
0
 62
4
 10
-8.56858885E+01
 20
-1.85564480E+02
  0
VERTEX
  8
0
 62
4
 10
-8.54734518E+01
 20
-1.85291846E+02
  0
VERTEX
  8
0
 62
4
 10
-8.52859517E+01
 20
-1.85002016E+02
  0
VERTEX
  8
0
 62
4
 10
-8.51248152E+01
 20
-1.84697195E+02
  0
VERTEX
  8
0
 62
4
 10
-8.49912686E+01
 20
-1.84379704E+02
  0
VERTEX
  8
0
 62
4
 10
-8.48863282E+01
 20
-1.84051958E+02
  0
VERTEX
  8
0
 62
4
 10
-8.48107928E+01
 20
-1.83716452E+02
  0
VERTEX
  8
0
 62
4
 10
-8.47652372E+01
 20
-1.83375739E+02
  0
VERTEX
  8
0
 62
4
 10
-8.47500081E+01
 20
-1.83032413E+02
  0
VERTEX
  8
0
 62
4
 10
-8.47652214E+01
 20
-1.82689086E+02
  0
VERTEX
  8
0
 62
4
 10
-8.48107614E+01
 20
-1.82348371E+02
  0
VERTEX
  8
0
 62
4
 10
-8.48862814E+01
 20
-1.82012862E+02
  0
VERTEX
  8
0
 62
4
 10
-8.49912067E+01
 20
-1.81685111E+02
  0
VERTEX
  8
0
 62
4
 10
-8.51247387E+01
 20
-1.81367613E+02
  0
VERTEX
  8
0
 62
4
 10
-8.52858612E+01
 20
-1.81062785E+02
  0
VERTEX
  8
0
 62
4
 10
-8.54733480E+01
 20
-1.80772946E+02
  0
VERTEX
  8
0
 62
4
 10
-8.56857722E+01
 20
-1.80500303E+02
  0
VERTEX
  8
0
 62
4
 10
-8.59215170E+01
 20
-1.80246929E+02
  0
VERTEX
  8
0
 62
4
 10
-8.61787883E+01
 20
-1.80014754E+02
  0
VERTEX
  8
0
 62
4
 10
-8.64556282E+01
 20
-1.79805545E+02
  0
VERTEX
  8
0
 62
4
 10
-8.67499297E+01
 20
-1.79620893E+02
  0
VERTEX
  8
0
 62
4
 10
-8.70594530E+01
 20
-1.79462204E+02
  0
VERTEX
  8
0
 62
4
 10
-8.73818425E+01
 20
-1.79330686E+02
  0
VERTEX
  8
0
 62
4
 10
-8.77146445E+01
 20
-1.79227340E+02
  0
VERTEX
  8
0
 62
4
 10
-8.80553263E+01
 20
-1.79152952E+02
  0
VERTEX
  8
0
 62
4
 10
-8.84012950E+01
 20
-1.79108088E+02
  0
VERTEX
  8
0
 62
4
 10
-8.87499176E+01
 20
-1.79093090E+02
  0
VERTEX
  8
0
 62
4
 10
-8.90985409E+01
 20
-1.79108072E+02
  0
VERTEX
  8
0
 62
4
 10
-8.94445117E+01
 20
-1.79152920E+02
  0
VERTEX
  8
0
 62
4
 10
-8.97851969E+01
 20
-1.79227292E+02
  0
VERTEX
  8
0
 62
4
 10
-9.01180036E+01
 20
-1.79330623E+02
  0
VERTEX
  8
0
 62
4
 10
-9.04403991E+01
 20
-1.79462126E+02
  0
VERTEX
  8
0
 62
4
 10
-9.07499297E+01
 20
-1.79620801E+02
  0
VERTEX
  8
0
 62
4
 10
-9.10442397E+01
 20
-1.79805439E+02
  0
VERTEX
  8
0
 62
4
 10
-9.13210892E+01
 20
-1.80014636E+02
  0
VERTEX
  8
0
 62
4
 10
-9.15783712E+01
 20
-1.80246799E+02
  0
VERTEX
  8
0
 62
4
 10
-9.18141277E+01
 20
-1.80500162E+02
  0
VERTEX
  8
0
 62
4
 10
-9.20265644E+01
 20
-1.80772796E+02
  0
VERTEX
  8
0
 62
4
 10
-9.22140645E+01
 20
-1.81062626E+02
  0
VERTEX
  8
0
 62
4
 10
-9.23752010E+01
 20
-1.81367447E+02
  0
VERTEX
  8
0
 62
4
 10
-9.25087476E+01
 20
-1.81684938E+02
  0
VERTEX
  8
0
 62
4
 10
-9.26136880E+01
 20
-1.82012684E+02
  0
VERTEX
  8
0
 62
4
 10
-9.26892234E+01
 20
-1.82348190E+02
  0
VERTEX
  8
0
 62
4
 10
-9.27347790E+01
 20
-1.82688903E+02
  0
VERTEX
  8
0
 62
4
 10
-9.27500081E+01
 20
-1.83032229E+02
  0
SEQEND
  8
0
  0
POLYLINE
  8
0
 62
4
 66
1
  0
VERTEX
  8
0
 62
4
 10
-9.21500083E+01
 20
-1.82731832E+02
  0
VERTEX
  8
0
 62
4
 10
-9.21370770E+01
 20
-1.83023660E+02
  0
VERTEX
  8
0
 62
4
 10
-9.20983680E+01
 20
-1.83313267E+02
  0
VERTEX
  8
0
 62
4
 10
-9.20341760E+01
 20
-1.83598450E+02
  0
VERTEX
  8
0
 62
4
 10
-9.19449895E+01
 20
-1.83877039E+02
  0
VERTEX
  8
0
 62
4
 10
-9.18314873E+01
 20
-1.84146912E+02
  0
VERTEX
  8
0
 62
4
 10
-9.16945331E+01
 20
-1.84406016E+02
  0
VERTEX
  8
0
 62
4
 10
-9.15351694E+01
 20
-1.84652379E+02
  0
VERTEX
  8
0
 62
4
 10
-9.13546089E+01
 20
-1.84884126E+02
  0
VERTEX
  8
0
 62
4
 10
-9.11542257E+01
 20
-1.85099493E+02
  0
VERTEX
  8
0
 62
4
 10
-9.09355451E+01
 20
-1.85296842E+02
  0
VERTEX
  8
0
 62
4
 10
-9.07002312E+01
 20
-1.85474670E+02
  0
VERTEX
  8
0
 62
4
 10
-9.04500749E+01
 20
-1.85631624E+02
  0
VERTEX
  8
0
 62
4
 10
-9.01869801E+01
 20
-1.85766509E+02
  0
VERTEX
  8
0
 62
4
 10
-8.99129491E+01
 20
-1.85878300E+02
  0
VERTEX
  8
0
 62
4
 10
-8.96300674E+01
 20
-1.85966144E+02
  0
VERTEX
  8
0
 62
4
 10
-8.93404879E+01
 20
-1.86029374E+02
  0
VERTEX
  8
0
 62
4
 10
-8.90464145E+01
 20
-1.86067508E+02
  0
VERTEX
  8
0
 62
4
 10
-8.87500852E+01
 20
-1.86080256E+02
  0
VERTEX
  8
0
 62
4
 10
-8.84537554E+01
 20
-1.86067522E+02
  0
VERTEX
  8
0
 62
4
 10
-8.81596802E+01
 20
-1.86029401E+02
  0
VERTEX
  8
0
 62
4
 10
-8.78700978E+01
 20
-1.85966184E+02
  0
VERTEX
  8
0
 62
4
 10
-8.75872121E+01
 20
-1.85878353E+02
  0
VERTEX
  8
0
 62
4
 10
-8.73131759E+01
 20
-1.85766575E+02
  0
VERTEX
  8
0
 62
4
 10
-8.70500749E+01
 20
-1.85631702E+02
  0
VERTEX
  8
0
 62
4
 10
-8.67999114E+01
 20
-1.85474760E+02
  0
VERTEX
  8
0
 62
4
 10
-8.65645894E+01
 20
-1.85296942E+02
  0
VERTEX
  8
0
 62
4
 10
-8.63458996E+01
 20
-1.85099604E+02
  0
VERTEX
  8
0
 62
4
 10
-8.61455066E+01
 20
-1.84884245E+02
  0
VERTEX
  8
0
 62
4
 10
-8.59649355E+01
 20
-1.84652507E+02
  0
VERTEX
  8
0
 62
4
 10
-8.58055604E+01
 20
-1.84406151E+02
  0
VERTEX
  8
0
 62
4
 10
-8.56685943E+01
 20
-1.84147053E+02
  0
VERTEX
  8
0
 62
4
 10
-8.55550797E+01
 20
-1.83877185E+02
  0
VERTEX
  8
0
 62
4
 10
-8.54658804E+01
 20
-1.83598601E+02
  0
VERTEX
  8
0
 62
4
 10
-8.54016753E+01
 20
-1.83313421E+02
  0
VERTEX
  8
0
 62
4
 10
-8.53629530E+01
 20
-1.83023815E+02
  0
VERTEX
  8
0
 62
4
 10
-8.53500083E+01
 20
-1.82731988E+02
  0
VERTEX
  8
0
 62
4
 10
-8.53629396E+01
 20
-1.82440160E+02
  0
VERTEX
  8
0
 62
4
 10
-8.54016486E+01
 20
-1.82150553E+02
  0
VERTEX
  8
0
 62
4
 10
-8.54658406E+01
 20
-1.81865370E+02
  0
VERTEX
  8
0
 62
4
 10
-8.55550271E+01
 20
-1.81586781E+02
  0
VERTEX
  8
0
 62
4
 10
-8.56685293E+01
 20
-1.81316908E+02
  0
VERTEX
  8
0
 62
4
 10
-8.58054835E+01
 20
-1.81057804E+02
  0
VERTEX
  8
0
 62
4
 10
-8.59648472E+01
 20
-1.80811441E+02
  0
VERTEX
  8
0
 62
4
 10
-8.61454078E+01
 20
-1.80579694E+02
  0
VERTEX
  8
0
 62
4
 10
-8.63457909E+01
 20
-1.80364327E+02
  0
VERTEX
  8
0
 62
4
 10
-8.65644715E+01
 20
-1.80166978E+02
  0
VERTEX
  8
0
 62
4
 10
-8.67997854E+01
 20
-1.79989150E+02
  0
VERTEX
  8
0
 62
4
 10
-8.70499417E+01
 20
-1.79832196E+02
  0
VERTEX
  8
0
 62
4
 10
-8.73130365E+01
 20
-1.79697311E+02
  0
VERTEX
  8
0
 62
4
 10
-8.75870675E+01
 20
-1.79585520E+02
  0
VERTEX
  8
0
 62
4
 10
-8.78699493E+01
 20
-1.79497676E+02
  0
VERTEX
  8
0
 62
4
 10
-8.81595287E+01
 20
-1.79434446E+02
  0
VERTEX
  8
0
 62
4
 10
-8.84536022E+01
 20
-1.79396312E+02
  0
VERTEX
  8
0
 62
4
 10
-8.87499314E+01
 20
-1.79383564E+02
  0
VERTEX
  8
0
 62
4
 10
-8.90462612E+01
 20
-1.79396298E+02
  0
VERTEX
  8
0
 62
4
 10
-8.93403364E+01
 20
-1.79434419E+02
  0
VERTEX
  8
0
 62
4
 10
-8.96299188E+01
 20
-1.79497636E+02
  0
VERTEX
  8
0
 62
4
 10
-8.99128045E+01
 20
-1.79585467E+02
  0
VERTEX
  8
0
 62
4
 10
-9.01868407E+01
 20
-1.79697245E+02
  0
VERTEX
  8
0
 62
4
 10
-9.04499417E+01
 20
-1.79832118E+02
  0
VERTEX
  8
0
 62
4
 10
-9.07001052E+01
 20
-1.79989060E+02
  0
VERTEX
  8
0
 62
4
 10
-9.09354273E+01
 20
-1.80166878E+02
  0
VERTEX
  8
0
 62
4
 10
-9.11541170E+01
 20
-1.80364216E+02
  0
VERTEX
  8
0
 62
4
 10
-9.13545100E+01
 20
-1.80579575E+02
  0
VERTEX
  8
0
 62
4
 10
-9.15350811E+01
 20
-1.80811313E+02
  0
VERTEX
  8
0
 62
4
 10
-9.16944562E+01
 20
-1.81057669E+02
  0
VERTEX
  8
0
 62
4
 10
-9.18314223E+01
 20
-1.81316767E+02
  0
VERTEX
  8
0
 62
4
 10
-9.19449369E+01
 20
-1.81586635E+02
  0
VERTEX
  8
0
 62
4
 10
-9.20341362E+01
 20
-1.81865219E+02
  0
VERTEX
  8
0
 62
4
 10
-9.20983413E+01
 20
-1.82150399E+02
  0
VERTEX
  8
0
 62
4
 10
-9.21370636E+01
 20
-1.82440005E+02
  0
VERTEX
  8
0
 62
4
 10
-9.21500083E+01
 20
-1.82731832E+02
  0
SEQEND
  8
0
  0
LINE
  8
0
 62
4
 10
-9.77499951E+01
 20
-1.95746796E+02
 11
-6.47499951E+01
 21
-1.95746772E+02
  0
LINE
  8
0
 62
4
 10
-6.17499994E+01
 20
-1.90505176E+02
 11
-6.47499951E+01
 21
-1.94965356E+02
  0
LINE
  8
0
 62
4
 10
-9.77499952E+01
 20
-1.94965379E+02
 11
-1.00749999E+02
 21
-1.90505204E+02
  0
LINE
  8
0
 62
4
 10
-6.47499951E+01
 20
-1.98557736E+02
 11
-6.47499951E+01
 21
-1.94965356E+02
  0
LINE
  8
0
 62
4
 10
-9.77499951E+01
 20
-1.98557736E+02
 11
-9.77499951E+01
 21
-1.94965379E+02
  0
LINE
  8
0
 62
4
 10
-9.77499951E+01
 20
-1.94965379E+02
 11
-6.47499951E+01
 21
-1.94965356E+02
  0
LINE
  8
0
 62
4
 10
-9.62500332E+01
 20
-1.47955090E+02
 11
-8.12500332E+01
 21
-1.47955079E+02
  0
LINE
  8
0
  6
CENTER
 62
6
 10
-8.87500039E+01
 20
-1.88911117E+02
 11
-8.87500131E+01
 21
-1.76111117E+02
  0
LINE
  8
0
  6
CENTER
 62
6
 10
-9.51500085E+01
 20
-1.82511122E+02
 11
-8.23500085E+01
 21
-1.82511113E+02
  0
LINE
  8
0
 62
4
 10
-9.82500158E+01
 20
-1.72227977E+02
 11
-7.92500158E+01
 21
-1.72227963E+02
  0
LINE
  8
0
 62
4
 10
-1.00750009E+02
 20
-1.77629088E+02
 11
-1.00749999E+02
 21
-1.90505204E+02
  0
LINE
  8
0
 62
4
 10
-9.82500158E+01
 20
-1.72227977E+02
 11
-9.82500131E+01
 21
-1.76129071E+02
  0
LINE
  8
0
 62
4
 10
-8.12500332E+01
 20
-1.47955079E+02
 11
-8.12500158E+01
 21
-1.72227977E+02
  0
LINE
  8
0
 62
4
 10
-9.62500332E+01
 20
-1.47955079E+02
 11
-9.62500158E+01
 21
-1.72227975E+02
  0
LINE
  8
0
 62
4
 10
-7.92500158E+01
 20
-1.72227977E+02
 11
-7.92500131E+01
 21
-1.76129072E+02
  0
LINE
  8
0
 62
4
 10
-9.62500163E+01
 20
-1.71590465E+02
 11
-8.12500163E+01
 21
-1.71590455E+02
  0
LINE
  8
0
 62
4
 10
-6.17500086E+01
 20
-1.77629060E+02
 11
-6.17499994E+01
 21
-1.90505176E+02
  0
LINE
  8
0
 62
4
 10
-1.00749999E+02
 20
-1.90505204E+02
 11
-6.17499994E+01
 21
-1.90505176E+02
  0
LINE
  8
0
 62
4
 10
-1.00750000E+02
 20
-1.89027992E+02
 11
-6.17500004E+01
 21
-1.89027964E+02
  0
LINE
  8
0
 62
4
 10
-9.92500096E+01
 20
-1.76129087E+02
 11
-6.32500096E+01
 21
-1.76129061E+02
  0
LINE
  8
0
 62
4
 10
-1.15750033E+02
 20
-1.47780229E+02
 11
-1.10750033E+02
 21
-1.47780225E+02
  0
LINE
  8
0
 62
4
 10
-1.15750031E+02
 20
-1.50344545E+02
 11
-1.10750031E+02
 21
-1.50344541E+02
  0
LINE
  8
0
 62
4
 10
-1.15750026E+02
 20
-1.57740451E+02
 11
-1.10750026E+02
 21
-1.57740448E+02
  0
LINE
  8
0
 62
4
 10
-1.15750023E+02
 20
-1.62562193E+02
 11
-1.10750023E+02
 21
-1.62562190E+02
  0
LINE
  8
0
 62
4
 10
-1.05250023E+02
 20
-1.62165149E+02
 11
-9.67500230E+01
 21
-1.62165143E+02
  0
LINE
  8
0
 62
4
 10
-9.62500330E+01
 20
-1.48165144E+02
 11
-1.05250033E+02
 21
-1.48165150E+02
  0
LINE
  8
0
 62
4
 10
-1.05750033E+02
 20
-1.48665151E+02
 11
-1.05750023E+02
 21
-1.61664641E+02
  0
LINE
  8
0
 62
4
 10
-1.15750033E+02
 20
-1.47780229E+02
 11
-1.15750023E+02
 21
-1.62562193E+02
  0
LINE
  8
0
 62
4
 10
-1.10750033E+02
 20
-1.47780225E+02
 11
-1.10750023E+02
 21
-1.62562193E+02
  0
LINE
  8
0
 62
4
 10
-1.10750032E+02
 20
-1.48915148E+02
 11
-1.05750032E+02
 21
-1.48915144E+02
  0
LINE
  8
0
 62
4
 10
-1.10750024E+02
 20
-1.61415148E+02
 11
-1.05750024E+02
 21
-1.61415144E+02
  0
LINE
  8
0
 62
4
 10
-1.09250032E+02
 20
-1.48915146E+02
 11
-1.09250024E+02
 21
-1.61415146E+02
  0
LINE
  8
0
 62
4
 10
-1.09250032E+02
 20
-1.49415146E+02
 11
-1.05750032E+02
 21
-1.49415144E+02
  0
LINE
  8
0
 62
4
 10
-1.09250024E+02
 20
-1.60915146E+02
 11
-1.05750024E+02
 21
-1.60915144E+02
  0
ARC
  8
0
 62
4
 10
-1.05250525E+02
 20
-1.48664658E+02
 40
4.99508251E-01
 50
8.99436074E+01
 51
1.80056475E+02
  0
ARC
  8
0
 62
4
 10
-9.67495154E+01
 20
-1.62664635E+02
 40
4.99492993E-01
 50
3.59941854E+02
 51
9.00582282E+01
  0
ARC
  8
0
 62
4
 10
-6.32495011E+01
 20
-1.77628553E+02
 40
1.49949266E+00
 50
3.59980652E+02
 51
9.00194298E+01
  0
ARC
  8
0
 62
4
 10
-1.05249516E+02
 20
-1.61664641E+02
 40
5.00508007E-01
 50
1.80058166E+02
 51
2.69941916E+02
  0
ARC
  8
0
 62
4
 10
-9.92505007E+01
 20
-1.77628594E+02
 40
1.49950792E+00
 50
8.99812358E+01
 51
1.80018846E+02
  0
LINE
  8
0
 62
6
 10
-9.04649432E+01
 20
-1.84446847E+02
 11
-8.70350735E+01
 21
-1.81016973E+02
  0
LINE
  8
0
 62
6
 10
-8.70350710E+01
 20
-1.84446845E+02
 11
-9.04649456E+01
 21
-1.81016975E+02
  0
LINE
  8
0
 62
4
 10
-3.18763019E+02
 20
-1.84070869E+02
 11
-3.23123147E+02
 21
-1.96059047E+02
  0
LINE
  8
0
 62
4
 10
-3.18763019E+02
 20
-1.84070869E+02
 11
-3.11867905E+02
 21
-1.82855074E+02
  0
LINE
  8
0
 62
4
 10
-3.10884299E+02
 20
-1.91312764E+02
 11
-3.10391895E+02
 21
-1.91225940E+02
  0
LINE
  8
0
 62
4
 10
-3.11289879E+02
 20
-1.91891992E+02
 11
-3.10819840E+02
 21
-1.94557713E+02
  0
LINE
  8
0
 62
4
 10
-3.12993011E+02
 20
-1.50559810E+02
 11
-3.08177301E+02
 21
-1.49710670E+02
  0
LINE
  8
0
 62
4
 10
-2.98220895E+02
 20
-1.47955087E+02
 11
-2.93879691E+02
 21
-1.72575281E+02
  0
LINE
  8
0
 62
4
 10
-3.12993011E+02
 20
-1.50559810E+02
 11
-3.08651807E+02
 21
-1.75180003E+02
  0
LINE
  8
0
 62
4
 10
-3.10621422E+02
 20
-1.75527300E+02
 11
-2.91910075E+02
 21
-1.72227984E+02
  0
LINE
  8
0
 62
4
 10
-3.08825455E+02
 20
-1.74195196E+02
 11
-2.94053339E+02
 21
-1.71590473E+02
  0
LINE
  8
0
 62
4
 10
-2.91910075E+02
 20
-1.72227984E+02
 11
-2.91215482E+02
 21
-1.76167215E+02
  0
LINE
  8
0
 62
4
 10
-3.10621422E+02
 20
-1.75527300E+02
 11
-3.09926830E+02
 21
-1.79466531E+02
  0
LINE
  8
0
 62
4
 10
-3.09926830E+02
 20
-1.79466531E+02
 11
-2.91215482E+02
 21
-1.76167215E+02
  0
LINE
  8
0
 62
4
 10
-3.09131621E+02
 20
-1.94557713E+02
 11
-2.86148740E+02
 21
-1.90505211E+02
  0
LINE
  8
0
 62
4
 10
-2.88319343E+02
 20
-1.78195114E+02
 11
-2.86148740E+02
 21
-1.90505211E+02
  0
LINE
  8
0
 62
4
 10
-3.11954729E+02
 20
-1.82362671E+02
 11
-3.09804414E+02
 21
-1.94557713E+02
  0
LINE
  8
0
 62
4
 10
-2.86148740E+02
 20
-1.90505211E+02
 11
-2.88202016E+02
 21
-1.94557713E+02
  0
LINE
  8
0
 62
4
 10
-3.10044599E+02
 20
-1.93195556E+02
 11
-2.86409213E+02
 21
-1.89028000E+02
  0
LINE
  8
0
 62
4
 10
-3.01151586E+02
 20
-1.86042631E+02
 11
-2.97212355E+02
 21
-1.85348039E+02
  0
LINE
  8
0
 62
4
 10
-3.00717466E+02
 20
-1.88504651E+02
 11
-2.96778235E+02
 21
-1.87810058E+02
  0
LINE
  8
0
 62
4
 10
-3.01151586E+02
 20
-1.86042631E+02
 11
-3.00717466E+02
 21
-1.88504651E+02
  0
LINE
  8
0
 62
4
 10
-2.97212355E+02
 20
-1.85348039E+02
 11
-2.96778235E+02
 21
-1.87810058E+02
  0
LINE
  8
0
 62
4
 10
-3.03260966E+02
 20
-1.62562201E+02
 11
-2.97510897E+02
 21
-1.57740459E+02
  0
LINE
  8
0
 62
4
 10
-3.11617495E+02
 20
-1.52601979E+02
 11
-3.05867426E+02
 21
-1.47780237E+02
  0
LINE
  8
0
 62
4
 10
-3.11617495E+02
 20
-1.52601979E+02
 11
-3.10313397E+02
 21
-1.59997885E+02
  0
LINE
  8
0
 62
4
 10
-2.98814994E+02
 20
-1.50344552E+02
 11
-2.97510897E+02
 21
-1.57740459E+02
  0
LINE
  8
0
 62
4
 10
-3.10313397E+02
 20
-1.59997885E+02
 11
-3.03260966E+02
 21
-1.62562201E+02
  0
LINE
  8
0
 62
4
 10
-3.05867426E+02
 20
-1.47780237E+02
 11
-2.98814994E+02
 21
-1.50344552E+02
  0
LINE
  8
0
 62
4
 10
-3.03046453E+02
 20
-1.48805963E+02
 11
-2.98220895E+02
 21
-1.47955087E+02
  0
LINE
  8
0
 62
4
 10
-2.88145694E+02
 20
-1.79179922E+02
 11
-2.87653291E+02
 21
-1.79093098E+02
  0
LINE
  8
0
 62
4
 10
-2.86756509E+02
 20
-1.87058384E+02
 11
-2.86264105E+02
 21
-1.86971560E+02
  0
LINE
  8
0
 62
4
 10
-2.87549102E+02
 20
-1.79683983E+02
 11
-2.85845384E+02
 21
-1.79383571E+02
  0
LINE
  8
0
 62
4
 10
-2.84664577E+02
 20
-1.86080264E+02
 11
-2.86368294E+02
 21
-1.86380675E+02
  0
LINE
  8
0
  6
CENTER
 62
6
 10
-3.18403609E+02
 20
-1.88576915E+02
 11
-2.81049851E+02
 21
-1.81990440E+02
  0
LINE
  8
0
 62
4
 10
-2.87653291E+02
 20
-1.79093098E+02
 11
-2.86264105E+02
 21
-1.86971560E+02
  0
ARC
  8
0
 62
4
 10
-3.10797474E+02
 20
-1.91805169E+02
 40
5.00000533E-01
 50
1.00000061E+02
 51
1.89999939E+02
  0
ARC
  8
0
 62
4
 10
-2.95634864E+02
 20
-1.84540522E+02
 40
1.18077645E+01
 50
3.57024145E+02
 51
2.27266957E+01
  0
ARC
  8
0
 62
4
 10
-3.09492688E+02
 20
-1.81928565E+02
 40
2.50001831E+00
 50
1.00000420E+02
 51
1.89999580E+02
  0
ARC
  8
0
 62
4
 10
-2.90780563E+02
 20
-1.78628094E+02
 40
2.49901570E+00
 50
9.97742809E+00
 51
1.00022572E+02
  0
CIRCLE
  8
0
 62
4
 10
-3.04564251E+02
 20
-1.55165152E+02
 40
3.75000000E+00
  0
ARC
  8
0
 62
4
 10
-2.84839919E+02
 20
-1.85097299E+02
 40
9.98481423E-01
 50
2.80114125E+02
 51
3.56771982E+02
  0
ARC
  8
0
 62
4
 10
-2.85674763E+02
 20
-1.80364962E+02
 40
9.96112687E-01
 50
2.25301420E+01
 51
9.98626848E+01
  0
ARC
  8
0
 62
4
 10
-3.04564251E+02
 20
-1.55165152E+02
 40
7.00000000E+00
 50
6.89816399E+01
 51
9.19142837E+01
  0
ARC
  8
0
 62
4
 10
-3.04564251E+02
 20
-1.55165152E+02
 40
7.00000000E+00
 50
1.08107658E+02
 51
1.31018360E+02
  0
LINE
  8
0
 62
4
 10
-3.23749969E+02
 20
-1.97782495E+02
 11
-3.24568111E+02
 21
-2.00031977E+02
  0
LINE
  8
0
 62
4
 10
-3.24568111E+02
 20
-2.00031977E+02
 11
-3.23749969E+02
 21
-2.04671891E+02
  0
LINE
  8
0
  6
CENTER
 62
6
 10
-3.26989848E+02
 20
-2.05819859E+02
 11
-3.23749969E+02
 21
-2.05248581E+02
  0
LINE
  8
0
 62
6
 10
-3.25515457E+02
 20
-2.07083024E+02
 11
-3.23749969E+02
 21
-2.06771721E+02
  0
LINE
  8
0
 62
4
 10
-3.25136681E+02
 20
-2.03472397E+02
 11
-3.23996909E+02
 21
-2.03271424E+02
  0
LINE
  8
0
 62
4
 10
-3.24443825E+02
 20
-2.07401780E+02
 11
-3.23749969E+02
 21
-2.07279434E+02
  0
LINE
  8
0
 62
4
 10
-3.26076340E+02
 20
-2.03902095E+02
 11
-3.25473781E+02
 21
-2.07319378E+02
  0
LINE
  8
0
 62
4
 10
-3.25136681E+02
 20
-2.03472397E+02
 11
-3.26076340E+02
 21
-2.03902095E+02
  0
LINE
  8
0
 62
4
 10
-3.24443825E+02
 20
-2.07401780E+02
 11
-3.25473781E+02
 21
-2.07319378E+02
  0
LINE
  8
0
 62
6
 10
-3.26036401E+02
 20
-2.04128601E+02
 11
-3.23911822E+02
 21
-2.03753980E+02
  0
LINE
  8
0
 62
4
 10
8.52630189E+01
 20
-1.84070869E+02
 11
8.96231474E+01
 21
-1.96059047E+02
  0
LINE
  8
0
 62
4
 10
7.73842990E+01
 20
-1.91312764E+02
 11
7.68918951E+01
 21
-1.91225940E+02
  0
ARC
  8
0
 62
4
 10
7.72974743E+01
 20
-1.91805169E+02
 40
5.00000533E-01
 50
3.50000061E+02
 51
7.99999392E+01
  0
LINE
  8
0
 62
4
 10
7.77898788E+01
 20
-1.91891992E+02
 11
7.73198402E+01
 21
-1.94557713E+02
  0
LINE
  8
0
 62
4
 10
7.65445987E+01
 20
-1.93195556E+02
 11
5.29092127E+01
 21
-1.89028000E+02
  0
LINE
  8
0
 62
4
 10
5.26487404E+01
 20
-1.90505211E+02
 11
5.47020156E+01
 21
-1.94557713E+02
  0
LINE
  8
0
 62
4
 10
7.56316212E+01
 20
-1.94557713E+02
 11
5.26487404E+01
 21
-1.90505211E+02
  0
ARC
  8
0
 62
4
 10
7.10651978E+01
 20
-1.55165174E+02
 40
7.00000000E+00
 50
4.89793705E+01
 51
1.11020629E+02
  0
LINE
  8
0
 62
4
 10
6.47208951E+01
 20
-1.47955087E+02
 11
7.94930114E+01
 21
-1.50559810E+02
  0
LINE
  8
0
 62
4
 10
6.47208951E+01
 20
-1.47955087E+02
 11
6.03796907E+01
 21
-1.72575281E+02
  0
LINE
  8
0
 62
4
 10
7.94930114E+01
 20
-1.50559810E+02
 11
7.51518070E+01
 21
-1.75180003E+02
  0
LINE
  8
0
 62
4
 10
7.71214225E+01
 20
-1.75527300E+02
 11
5.84100752E+01
 21
-1.72227984E+02
  0
LINE
  8
0
 62
4
 10
7.53254551E+01
 20
-1.74195196E+02
 11
6.05533388E+01
 21
-1.71590473E+02
  0
LINE
  8
0
 62
4
 10
5.84100752E+01
 20
-1.72227984E+02
 11
5.77154824E+01
 21
-1.76167215E+02
  0
LINE
  8
0
 62
4
 10
7.71214225E+01
 20
-1.75527300E+02
 11
7.64268297E+01
 21
-1.79466531E+02
  0
LINE
  8
0
 62
4
 10
7.64268297E+01
 20
-1.79466531E+02
 11
5.77154824E+01
 21
-1.76167215E+02
  0
LINE
  8
0
 62
4
 10
6.76515862E+01
 20
-1.86042631E+02
 11
6.37123552E+01
 21
-1.85348039E+02
  0
LINE
  8
0
 62
4
 10
6.72174657E+01
 20
-1.88504651E+02
 11
6.32782347E+01
 21
-1.87810058E+02
  0
LINE
  8
0
 62
4
 10
6.76515862E+01
 20
-1.86042631E+02
 11
6.72174657E+01
 21
-1.88504651E+02
  0
LINE
  8
0
 62
4
 10
6.37123552E+01
 20
-1.85348039E+02
 11
6.32782347E+01
 21
-1.87810058E+02
  0
LINE
  8
0
 62
4
 10
7.32393126E+01
 20
-1.48511361E+02
 11
7.23674255E+01
 21
-1.47780237E+02
  0
LINE
  8
0
 62
4
 10
7.23674255E+01
 20
-1.47780237E+02
 11
7.12981053E+01
 21
-1.48169049E+02
  0
LINE
  8
0
 62
4
 10
5.46456944E+01
 20
-1.79179922E+02
 11
5.41532906E+01
 21
-1.79093098E+02
  0
LINE
  8
0
 62
4
 10
5.32565090E+01
 20
-1.87058384E+02
 11
5.27641051E+01
 21
-1.86971560E+02
  0
LINE
  8
0
 62
4
 10
5.40491017E+01
 20
-1.79683983E+02
 11
5.23453842E+01
 21
-1.79383571E+02
  0
LINE
  8
0
 62
4
 10
5.11645766E+01
 20
-1.86080264E+02
 11
5.28682940E+01
 21
-1.86380675E+02
  0
LINE
  8
0
 62
4
 10
5.41532906E+01
 20
-1.79093098E+02
 11
5.27641051E+01
 21
-1.86971560E+02
  0
ARC
  8
0
 62
4
 10
6.21348639E+01
 20
-1.84540522E+02
 40
1.18077645E+01
 50
1.57273305E+02
 51
1.82975855E+02
  0
ARC
  8
0
 62
4
 10
7.59926881E+01
 20
-1.81928565E+02
 40
2.50001831E+00
 50
3.50000420E+02
 51
7.99995805E+01
  0
ARC
  8
0
 62
4
 10
5.72805634E+01
 20
-1.78628094E+02
 40
2.49901570E+00
 50
7.99774282E+01
 51
1.70022572E+02
  0
ARC
  8
0
 62
4
 10
5.13399194E+01
 20
-1.85097299E+02
 40
9.98481423E-01
 50
1.83228018E+02
 51
2.59885875E+02
  0
ARC
  8
0
 62
4
 10
5.21747626E+01
 20
-1.80364962E+02
 40
9.96112687E-01
 50
8.01373150E+01
 51
1.57469858E+02
  0
LINE
  8
0
  6
CENTER
 62
6
 10
6.76332051E+01
 20
-1.74629337E+02
 11
6.68124207E+01
 21
-1.79284237E+02
  0
LINE
  8
0
 62
4
 10
6.36243293E+01
 20
-1.77209104E+02
 11
6.41525083E+01
 21
-1.76286810E+02
  0
LINE
  8
0
 62
4
 10
7.03371010E+01
 20
-1.77377321E+02
 11
7.05179836E+01
 21
-1.78424642E+02
  0
LINE
  8
0
 62
4
 10
6.41525083E+01
 20
-1.76286810E+02
 11
7.03371010E+01
 21
-1.77377321E+02
  0
LINE
  8
0
  6
CENTER
 62
6
 10
8.49036094E+01
 20
-1.88576915E+02
 11
4.75498513E+01
 21
-1.81990440E+02
  0
LINE
  8
0
 62
4
 10
7.84547287E+01
 20
-1.82362671E+02
 11
7.63044136E+01
 21
-1.94557713E+02
  0
LINE
  8
0
 62
4
 10
5.48193426E+01
 20
-1.78195114E+02
 11
5.26487404E+01
 21
-1.90505211E+02
  0
LINE
  8
0
 62
4
 10
8.52630189E+01
 20
-1.84070869E+02
 11
7.83679046E+01
 21
-1.82855074E+02
  0
LINE
  8
0
 62
4
 10
9.25763404E+01
 20
-2.03902095E+02
 11
9.19737812E+01
 21
-2.07319378E+02
  0
LINE
  8
0
 62
4
 10
9.16366812E+01
 20
-2.03472397E+02
 11
9.25763404E+01
 21
-2.03902095E+02
  0
LINE
  8
0
 62
4
 10
9.09438250E+01
 20
-2.07401780E+02
 11
9.19737812E+01
 21
-2.07319378E+02
  0
LINE
  8
0
 62
6
 10
9.25364013E+01
 20
-2.04128601E+02
 11
9.04118219E+01
 21
-2.03753980E+02
  0
LINE
  8
0
 62
4
 10
9.09438250E+01
 20
-2.07401780E+02
 11
9.02499695E+01
 21
-2.07279434E+02
  0
LINE
  8
0
 62
4
 10
9.16366812E+01
 20
-2.03472397E+02
 11
9.04969095E+01
 21
-2.03271424E+02
  0
LINE
  8
0
 62
6
 10
9.20154568E+01
 20
-2.07083024E+02
 11
9.02499695E+01
 21
-2.06771721E+02
  0
LINE
  8
0
  6
CENTER
 62
6
 10
9.34898479E+01
 20
-2.05819859E+02
 11
9.02499695E+01
 21
-2.05248581E+02
  0
LINE
  8
0
 62
4
 10
9.02358476E+01
 20
-1.97743667E+02
 11
9.10681114E+01
 21
-2.00031977E+02
  0
LINE
  8
0
 62
4
 10
9.10681114E+01
 20
-2.00031977E+02
 11
9.02499695E+01
 21
-2.04671891E+02
  0
ARC
  8
0
 62
4
 10
-6.32494947E+01
 20
-8.80547118E+01
 40
1.49950029E+00
 50
2.69980903E+02
 51
1.90971113E-02
  0
ARC
  8
0
 62
4
 10
-9.92504981E+01
 20
-8.80547156E+01
 40
1.49949647E+00
 50
1.79980757E+02
 51
2.70019243E+02
  0
LINE
  8
0
 62
4
 10
-9.62499945E+01
 20
-8.44279844E+01
 11
-8.12499945E+01
 21
-8.44279844E+01
  0
LINE
  8
0
 62
4
 10
-9.82499945E+01
 20
-8.70921926E+01
 11
-7.92499945E+01
 21
-8.70921926E+01
  0
POLYLINE
  8
0
 62
4
 66
1
  0
VERTEX
  8
0
 62
4
 10
-6.92499945E+01
 20
-7.77365186E+01
  0
VERTEX
  8
0
 62
4
 10
-6.92633131E+01
 20
-7.74361078E+01
  0
VERTEX
  8
0
 62
4
 10
-6.93031674E+01
 20
-7.71379833E+01
  0
VERTEX
  8
0
 62
4
 10
-6.93692541E+01
 20
-7.68444141E+01
  0
VERTEX
  8
0
 62
4
 10
-6.94610703E+01
 20
-7.65576343E+01
  0
VERTEX
  8
0
 62
4
 10
-6.95779172E+01
 20
-7.62798265E+01
  0
VERTEX
  8
0
 62
4
 10
-6.97189056E+01
 20
-7.60131050E+01
  0
VERTEX
  8
0
 62
4
 10
-6.98829623E+01
 20
-7.57594998E+01
  0
VERTEX
  8
0
 62
4
 10
-7.00688389E+01
 20
-7.55209408E+01
  0
VERTEX
  8
0
 62
4
 10
-7.02751208E+01
 20
-7.52992438E+01
  0
VERTEX
  8
0
 62
4
 10
-7.05002379E+01
 20
-7.50960958E+01
  0
VERTEX
  8
0
 62
4
 10
-7.07424770E+01
 20
-7.49130431E+01
  0
VERTEX
  8
0
 62
4
 10
-7.09999945E+01
 20
-7.47514787E+01
  0
VERTEX
  8
0
 62
4
 10
-7.12708306E+01
 20
-7.46126323E+01
  0
VERTEX
  8
0
 62
4
 10
-7.15529240E+01
 20
-7.44975606E+01
  0
VERTEX
  8
0
 62
4
 10
-7.18441278E+01
 20
-7.44071392E+01
  0
VERTEX
  8
0
 62
4
 10
-7.21422259E+01
 20
-7.43420565E+01
  0
VERTEX
  8
0
 62
4
 10
-7.24449494E+01
 20
-7.43028077E+01
  0
VERTEX
  8
0
 62
4
 10
-7.27499945E+01
 20
-7.42896915E+01
  0
VERTEX
  8
0
 62
4
 10
-7.30550396E+01
 20
-7.43028077E+01
  0
VERTEX
  8
0
 62
4
 10
-7.33577631E+01
 20
-7.43420565E+01
  0
VERTEX
  8
0
 62
4
 10
-7.36558612E+01
 20
-7.44071392E+01
  0
VERTEX
  8
0
 62
4
 10
-7.39470650E+01
 20
-7.44975606E+01
  0
VERTEX
  8
0
 62
4
 10
-7.42291584E+01
 20
-7.46126323E+01
  0
VERTEX
  8
0
 62
4
 10
-7.44999945E+01
 20
-7.47514787E+01
  0
VERTEX
  8
0
 62
4
 10
-7.47575120E+01
 20
-7.49130431E+01
  0
VERTEX
  8
0
 62
4
 10
-7.49997511E+01
 20
-7.50960958E+01
  0
VERTEX
  8
0
 62
4
 10
-7.52248682E+01
 20
-7.52992438E+01
  0
VERTEX
  8
0
 62
4
 10
-7.54311501E+01
 20
-7.55209408E+01
  0
VERTEX
  8
0
 62
4
 10
-7.56170267E+01
 20
-7.57594998E+01
  0
VERTEX
  8
0
 62
4
 10
-7.57810834E+01
 20
-7.60131050E+01
  0
VERTEX
  8
0
 62
4
 10
-7.59220718E+01
 20
-7.62798265E+01
  0
VERTEX
  8
0
 62
4
 10
-7.60389187E+01
 20
-7.65576343E+01
  0
VERTEX
  8
0
 62
4
 10
-7.61307349E+01
 20
-7.68444141E+01
  0
VERTEX
  8
0
 62
4
 10
-7.61968216E+01
 20
-7.71379834E+01
  0
VERTEX
  8
0
 62
4
 10
-7.62366759E+01
 20
-7.74361078E+01
  0
VERTEX
  8
0
 62
4
 10
-7.62499945E+01
 20
-7.77365186E+01
  0
VERTEX
  8
0
 62
4
 10
-7.62366759E+01
 20
-7.80369294E+01
  0
VERTEX
  8
0
 62
4
 10
-7.61968216E+01
 20
-7.83350539E+01
  0
VERTEX
  8
0
 62
4
 10
-7.61307349E+01
 20
-7.86286231E+01
  0
VERTEX
  8
0
 62
4
 10
-7.60389187E+01
 20
-7.89154029E+01
  0
VERTEX
  8
0
 62
4
 10
-7.59220718E+01
 20
-7.91932107E+01
  0
VERTEX
  8
0
 62
4
 10
-7.57810834E+01
 20
-7.94599322E+01
  0
VERTEX
  8
0
 62
4
 10
-7.56170267E+01
 20
-7.97135374E+01
  0
VERTEX
  8
0
 62
4
 10
-7.54311500E+01
 20
-7.99520964E+01
  0
VERTEX
  8
0
 62
4
 10
-7.52248682E+01
 20
-8.01737934E+01
  0
VERTEX
  8
0
 62
4
 10
-7.49997511E+01
 20
-8.03769414E+01
  0
VERTEX
  8
0
 62
4
 10
-7.47575120E+01
 20
-8.05599941E+01
  0
VERTEX
  8
0
 62
4
 10
-7.44999945E+01
 20
-8.07215585E+01
  0
VERTEX
  8
0
 62
4
 10
-7.42291584E+01
 20
-8.08604049E+01
  0
VERTEX
  8
0
 62
4
 10
-7.39470650E+01
 20
-8.09754766E+01
  0
VERTEX
  8
0
 62
4
 10
-7.36558612E+01
 20
-8.10658980E+01
  0
VERTEX
  8
0
 62
4
 10
-7.33577631E+01
 20
-8.11309807E+01
  0
VERTEX
  8
0
 62
4
 10
-7.30550396E+01
 20
-8.11702295E+01
  0
VERTEX
  8
0
 62
4
 10
-7.27499945E+01
 20
-8.11833457E+01
  0
VERTEX
  8
0
 62
4
 10
-7.24449494E+01
 20
-8.11702295E+01
  0
VERTEX
  8
0
 62
4
 10
-7.21422259E+01
 20
-8.11309807E+01
  0
VERTEX
  8
0
 62
4
 10
-7.18441278E+01
 20
-8.10658980E+01
  0
VERTEX
  8
0
 62
4
 10
-7.15529240E+01
 20
-8.09754766E+01
  0
VERTEX
  8
0
 62
4
 10
-7.12708306E+01
 20
-8.08604049E+01
  0
VERTEX
  8
0
 62
4
 10
-7.09999945E+01
 20
-8.07215585E+01
  0
VERTEX
  8
0
 62
4
 10
-7.07424770E+01
 20
-8.05599941E+01
  0
VERTEX
  8
0
 62
4
 10
-7.05002379E+01
 20
-8.03769414E+01
  0
VERTEX
  8
0
 62
4
 10
-7.02751208E+01
 20
-8.01737934E+01
  0
VERTEX
  8
0
 62
4
 10
-7.00688389E+01
 20
-7.99520964E+01
  0
VERTEX
  8
0
 62
4
 10
-6.98829623E+01
 20
-7.97135374E+01
  0
VERTEX
  8
0
 62
4
 10
-6.97189056E+01
 20
-7.94599322E+01
  0
VERTEX
  8
0
 62
4
 10
-6.95779172E+01
 20
-7.91932107E+01
  0
VERTEX
  8
0
 62
4
 10
-6.94610703E+01
 20
-7.89154029E+01
  0
VERTEX
  8
0
 62
4
 10
-6.93692541E+01
 20
-7.86286231E+01
  0
VERTEX
  8
0
 62
4
 10
-6.93031674E+01
 20
-7.83350538E+01
  0
VERTEX
  8
0
 62
4
 10
-6.92633131E+01
 20
-7.80369294E+01
  0
VERTEX
  8
0
 62
4
 10
-6.92499945E+01
 20
-7.77365186E+01
  0
SEQEND
  8
0
  0
POLYLINE
  8
0
 62
4
 66
1
  0
VERTEX
  8
0
 62
4
 10
-6.96099945E+01
 20
-7.75628704E+01
  0
VERTEX
  8
0
 62
4
 10
-6.96219431E+01
 20
-7.72933590E+01
  0
VERTEX
  8
0
 62
4
 10
-6.96576982E+01
 20
-7.70258988E+01
  0
VERTEX
  8
0
 62
4
 10
-6.97169874E+01
 20
-7.67625252E+01
  0
VERTEX
  8
0
 62
4
 10
-6.97993597E+01
 20
-7.65052428E+01
  0
VERTEX
  8
0
 62
4
 10
-6.99041880E+01
 20
-7.62560095E+01
  0
VERTEX
  8
0
 62
4
 10
-7.00306747E+01
 20
-7.60167222E+01
  0
VERTEX
  8
0
 62
4
 10
-7.01778571E+01
 20
-7.57892021E+01
  0
VERTEX
  8
0
 62
4
 10
-7.03446149E+01
 20
-7.55751806E+01
  0
VERTEX
  8
0
 62
4
 10
-7.05296792E+01
 20
-7.53762867E+01
  0
VERTEX
  8
0
 62
4
 10
-7.07316414E+01
 20
-7.51940340E+01
  0
VERTEX
  8
0
 62
4
 10
-7.09489645E+01
 20
-7.50298095E+01
  0
VERTEX
  8
0
 62
4
 10
-7.11799945E+01
 20
-7.48848632E+01
  0
VERTEX
  8
0
 62
4
 10
-7.14229732E+01
 20
-7.47602981E+01
  0
VERTEX
  8
0
 62
4
 10
-7.16760513E+01
 20
-7.46570623E+01
  0
VERTEX
  8
0
 62
4
 10
-7.19373027E+01
 20
-7.45759415E+01
  0
VERTEX
  8
0
 62
4
 10
-7.22047392E+01
 20
-7.45175530E+01
  0
VERTEX
  8
0
 62
4
 10
-7.24763255E+01
 20
-7.44823412E+01
  0
VERTEX
  8
0
 62
4
 10
-7.27499945E+01
 20
-7.44705741E+01
  0
VERTEX
  8
0
 62
4
 10
-7.30236635E+01
 20
-7.44823412E+01
  0
VERTEX
  8
0
 62
4
 10
-7.32952498E+01
 20
-7.45175530E+01
  0
VERTEX
  8
0
 62
4
 10
-7.35626863E+01
 20
-7.45759415E+01
  0
VERTEX
  8
0
 62
4
 10
-7.38239378E+01
 20
-7.46570623E+01
  0
VERTEX
  8
0
 62
4
 10
-7.40770158E+01
 20
-7.47602981E+01
  0
VERTEX
  8
0
 62
4
 10
-7.43199945E+01
 20
-7.48848632E+01
  0
VERTEX
  8
0
 62
4
 10
-7.45510245E+01
 20
-7.50298095E+01
  0
VERTEX
  8
0
 62
4
 10
-7.47683476E+01
 20
-7.51940340E+01
  0
VERTEX
  8
0
 62
4
 10
-7.49703098E+01
 20
-7.53762867E+01
  0
VERTEX
  8
0
 62
4
 10
-7.51553741E+01
 20
-7.55751806E+01
  0
VERTEX
  8
0
 62
4
 10
-7.53221319E+01
 20
-7.57892021E+01
  0
VERTEX
  8
0
 62
4
 10
-7.54693143E+01
 20
-7.60167222E+01
  0
VERTEX
  8
0
 62
4
 10
-7.55958010E+01
 20
-7.62560095E+01
  0
VERTEX
  8
0
 62
4
 10
-7.57006293E+01
 20
-7.65052428E+01
  0
VERTEX
  8
0
 62
4
 10
-7.57830016E+01
 20
-7.67625252E+01
  0
VERTEX
  8
0
 62
4
 10
-7.58422908E+01
 20
-7.70258988E+01
  0
VERTEX
  8
0
 62
4
 10
-7.58780459E+01
 20
-7.72933590E+01
  0
VERTEX
  8
0
 62
4
 10
-7.58899945E+01
 20
-7.75628704E+01
  0
VERTEX
  8
0
 62
4
 10
-7.58780459E+01
 20
-7.78323818E+01
  0
VERTEX
  8
0
 62
4
 10
-7.58422908E+01
 20
-7.80998420E+01
  0
VERTEX
  8
0
 62
4
 10
-7.57830016E+01
 20
-7.83632156E+01
  0
VERTEX
  8
0
 62
4
 10
-7.57006293E+01
 20
-7.86204980E+01
  0
VERTEX
  8
0
 62
4
 10
-7.55958009E+01
 20
-7.88697313E+01
  0
VERTEX
  8
0
 62
4
 10
-7.54693143E+01
 20
-7.91090186E+01
  0
VERTEX
  8
0
 62
4
 10
-7.53221319E+01
 20
-7.93365387E+01
  0
VERTEX
  8
0
 62
4
 10
-7.51553740E+01
 20
-7.95505602E+01
  0
VERTEX
  8
0
 62
4
 10
-7.49703098E+01
 20
-7.97494541E+01
  0
VERTEX
  8
0
 62
4
 10
-7.47683476E+01
 20
-7.99317068E+01
  0
VERTEX
  8
0
 62
4
 10
-7.45510245E+01
 20
-8.00959313E+01
  0
VERTEX
  8
0
 62
4
 10
-7.43199945E+01
 20
-8.02408776E+01
  0
VERTEX
  8
0
 62
4
 10
-7.40770158E+01
 20
-8.03654427E+01
  0
VERTEX
  8
0
 62
4
 10
-7.38239377E+01
 20
-8.04686785E+01
  0
VERTEX
  8
0
 62
4
 10
-7.35626863E+01
 20
-8.05497993E+01
  0
VERTEX
  8
0
 62
4
 10
-7.32952498E+01
 20
-8.06081878E+01
  0
VERTEX
  8
0
 62
4
 10
-7.30236635E+01
 20
-8.06433996E+01
  0
VERTEX
  8
0
 62
4
 10
-7.27499945E+01
 20
-8.06551667E+01
  0
VERTEX
  8
0
 62
4
 10
-7.24763255E+01
 20
-8.06433996E+01
  0
VERTEX
  8
0
 62
4
 10
-7.22047392E+01
 20
-8.06081878E+01
  0
VERTEX
  8
0
 62
4
 10
-7.19373027E+01
 20
-8.05497993E+01
  0
VERTEX
  8
0
 62
4
 10
-7.16760512E+01
 20
-8.04686784E+01
  0
VERTEX
  8
0
 62
4
 10
-7.14229732E+01
 20
-8.03654426E+01
  0
VERTEX
  8
0
 62
4
 10
-7.11799945E+01
 20
-8.02408776E+01
  0
VERTEX
  8
0
 62
4
 10
-7.09489645E+01
 20
-8.00959313E+01
  0
VERTEX
  8
0
 62
4
 10
-7.07316414E+01
 20
-7.99317068E+01
  0
VERTEX
  8
0
 62
4
 10
-7.05296792E+01
 20
-7.97494541E+01
  0
VERTEX
  8
0
 62
4
 10
-7.03446149E+01
 20
-7.95505602E+01
  0
VERTEX
  8
0
 62
4
 10
-7.01778571E+01
 20
-7.93365387E+01
  0
VERTEX
  8
0
 62
4
 10
-7.00306747E+01
 20
-7.91090186E+01
  0
VERTEX
  8
0
 62
4
 10
-6.99041880E+01
 20
-7.88697313E+01
  0
VERTEX
  8
0
 62
4
 10
-6.97993597E+01
 20
-7.86204980E+01
  0
VERTEX
  8
0
 62
4
 10
-6.97169874E+01
 20
-7.83632156E+01
  0
VERTEX
  8
0
 62
4
 10
-6.96576982E+01
 20
-7.80998420E+01
  0
VERTEX
  8
0
 62
4
 10
-6.96219431E+01
 20
-7.78323818E+01
  0
VERTEX
  8
0
 62
4
 10
-6.96099945E+01
 20
-7.75628704E+01
  0
SEQEND
  8
0
  0
ARC
  8
0
 62
4
 10
-8.45143995E+01
 20
-8.28882866E+01
 40
1.21769740E+01
 50
2.40462101E+02
 51
2.52020214E+02
  0
ARC
  8
0
 62
4
 10
-9.29855895E+01
 20
-8.28882866E+01
 40
1.21769740E+01
 50
2.87979786E+02
 51
2.99537899E+02
  0
POLYLINE
  8
0
 62
4
 66
1
  0
VERTEX
  8
0
 62
4
 10
-8.53499945E+01
 20
-9.34714332E+01
  0
VERTEX
  8
0
 62
4
 10
-8.53629325E+01
 20
-9.33834806E+01
  0
VERTEX
  8
0
 62
4
 10
-8.54016481E+01
 20
-9.32961975E+01
  0
VERTEX
  8
0
 62
4
 10
-8.54658467E+01
 20
-9.32102479E+01
  0
VERTEX
  8
0
 62
4
 10
-8.55550396E+01
 20
-9.31262862E+01
  0
VERTEX
  8
0
 62
4
 10
-8.56685480E+01
 20
-9.30449512E+01
  0
VERTEX
  8
0
 62
4
 10
-8.58055081E+01
 20
-9.29668620E+01
  0
VERTEX
  8
0
 62
4
 10
-8.59648775E+01
 20
-9.28926129E+01
  0
VERTEX
  8
0
 62
4
 10
-8.61454434E+01
 20
-9.28227690E+01
  0
VERTEX
  8
0
 62
4
 10
-8.63458314E+01
 20
-9.27578618E+01
  0
VERTEX
  8
0
 62
4
 10
-8.65645166E+01
 20
-9.26983853E+01
  0
VERTEX
  8
0
 62
4
 10
-8.67998346E+01
 20
-9.26447921E+01
  0
VERTEX
  8
0
 62
4
 10
-8.70499945E+01
 20
-9.25974902E+01
  0
VERTEX
  8
0
 62
4
 10
-8.73130924E+01
 20
-9.25568396E+01
  0
VERTEX
  8
0
 62
4
 10
-8.75871260E+01
 20
-9.25231495E+01
  0
VERTEX
  8
0
 62
4
 10
-8.78700097E+01
 20
-9.24966765E+01
  0
VERTEX
  8
0
 62
4
 10
-8.81595907E+01
 20
-9.24776219E+01
  0
VERTEX
  8
0
 62
4
 10
-8.84536650E+01
 20
-9.24661309E+01
  0
VERTEX
  8
0
 62
4
 10
-8.87499945E+01
 20
-9.24622908E+01
  0
VERTEX
  8
0
 62
4
 10
-8.90463240E+01
 20
-9.24661309E+01
  0
VERTEX
  8
0
 62
4
 10
-8.93403983E+01
 20
-9.24776219E+01
  0
VERTEX
  8
0
 62
4
 10
-8.96299793E+01
 20
-9.24966765E+01
  0
VERTEX
  8
0
 62
4
 10
-8.99128630E+01
 20
-9.25231495E+01
  0
VERTEX
  8
0
 62
4
 10
-9.01868966E+01
 20
-9.25568396E+01
  0
VERTEX
  8
0
 62
4
 10
-9.04499945E+01
 20
-9.25974902E+01
  0
VERTEX
  8
0
 62
4
 10
-9.07001544E+01
 20
-9.26447921E+01
  0
VERTEX
  8
0
 62
4
 10
-9.09354724E+01
 20
-9.26983853E+01
  0
VERTEX
  8
0
 62
4
 10
-9.11541576E+01
 20
-9.27578618E+01
  0
VERTEX
  8
0
 62
4
 10
-9.13545456E+01
 20
-9.28227690E+01
  0
VERTEX
  8
0
 62
4
 10
-9.15351115E+01
 20
-9.28926129E+01
  0
VERTEX
  8
0
 62
4
 10
-9.16944809E+01
 20
-9.29668620E+01
  0
VERTEX
  8
0
 62
4
 10
-9.18314410E+01
 20
-9.30449512E+01
  0
VERTEX
  8
0
 62
4
 10
-9.19449494E+01
 20
-9.31262862E+01
  0
VERTEX
  8
0
 62
4
 10
-9.20341423E+01
 20
-9.32102479E+01
  0
VERTEX
  8
0
 62
4
 10
-9.20983409E+01
 20
-9.32961975E+01
  0
VERTEX
  8
0
 62
4
 10
-9.21370565E+01
 20
-9.33834806E+01
  0
VERTEX
  8
0
 62
4
 10
-9.21499945E+01
 20
-9.34714332E+01
  0
VERTEX
  8
0
 62
4
 10
-9.21370565E+01
 20
-9.35593858E+01
  0
VERTEX
  8
0
 62
4
 10
-9.20983409E+01
 20
-9.36466689E+01
  0
VERTEX
  8
0
 62
4
 10
-9.20341423E+01
 20
-9.37326185E+01
  0
VERTEX
  8
0
 62
4
 10
-9.19449494E+01
 20
-9.38165802E+01
  0
VERTEX
  8
0
 62
4
 10
-9.18314410E+01
 20
-9.38979152E+01
  0
VERTEX
  8
0
 62
4
 10
-9.16944809E+01
 20
-9.39760044E+01
  0
VERTEX
  8
0
 62
4
 10
-9.15351114E+01
 20
-9.40502535E+01
  0
VERTEX
  8
0
 62
4
 10
-9.13545456E+01
 20
-9.41200974E+01
  0
VERTEX
  8
0
 62
4
 10
-9.11541576E+01
 20
-9.41850046E+01
  0
VERTEX
  8
0
 62
4
 10
-9.09354724E+01
 20
-9.42444811E+01
  0
VERTEX
  8
0
 62
4
 10
-9.07001544E+01
 20
-9.42980743E+01
  0
VERTEX
  8
0
 62
4
 10
-9.04499945E+01
 20
-9.43453762E+01
  0
VERTEX
  8
0
 62
4
 10
-9.01868966E+01
 20
-9.43860268E+01
  0
VERTEX
  8
0
 62
4
 10
-8.99128630E+01
 20
-9.44197169E+01
  0
VERTEX
  8
0
 62
4
 10
-8.96299792E+01
 20
-9.44461899E+01
  0
VERTEX
  8
0
 62
4
 10
-8.93403983E+01
 20
-9.44652445E+01
  0
VERTEX
  8
0
 62
4
 10
-8.90463240E+01
 20
-9.44767355E+01
  0
VERTEX
  8
0
 62
4
 10
-8.87499945E+01
 20
-9.44805756E+01
  0
VERTEX
  8
0
 62
4
 10
-8.84536650E+01
 20
-9.44767355E+01
  0
VERTEX
  8
0
 62
4
 10
-8.81595907E+01
 20
-9.44652445E+01
  0
VERTEX
  8
0
 62
4
 10
-8.78700097E+01
 20
-9.44461899E+01
  0
VERTEX
  8
0
 62
4
 10
-8.75871260E+01
 20
-9.44197169E+01
  0
VERTEX
  8
0
 62
4
 10
-8.73130924E+01
 20
-9.43860268E+01
  0
VERTEX
  8
0
 62
4
 10
-8.70499945E+01
 20
-9.43453762E+01
  0
VERTEX
  8
0
 62
4
 10
-8.67998346E+01
 20
-9.42980743E+01
  0
VERTEX
  8
0
 62
4
 10
-8.65645166E+01
 20
-9.42444811E+01
  0
VERTEX
  8
0
 62
4
 10
-8.63458314E+01
 20
-9.41850046E+01
  0
VERTEX
  8
0
 62
4
 10
-8.61454434E+01
 20
-9.41200974E+01
  0
VERTEX
  8
0
 62
4
 10
-8.59648775E+01
 20
-9.40502535E+01
  0
VERTEX
  8
0
 62
4
 10
-8.58055081E+01
 20
-9.39760044E+01
  0
VERTEX
  8
0
 62
4
 10
-8.56685480E+01
 20
-9.38979152E+01
  0
VERTEX
  8
0
 62
4
 10
-8.55550396E+01
 20
-9.38165802E+01
  0
VERTEX
  8
0
 62
4
 10
-8.54658467E+01
 20
-9.37326185E+01
  0
VERTEX
  8
0
 62
4
 10
-8.54016481E+01
 20
-9.36466689E+01
  0
VERTEX
  8
0
 62
4
 10
-8.53629325E+01
 20
-9.35593858E+01
  0
VERTEX
  8
0
 62
4
 10
-8.53499945E+01
 20
-9.34714332E+01
  0
SEQEND
  8
0
  0
ARC
  8
0
 62
4
 10
-9.92494946E+01
 20
-6.78154686E+01
 40
1.50050004E+00
 50
9.00190906E+01
 51
1.34401209E+02
  0
ARC
  8
0
 62
4
 10
-1.05249494E+02
 20
-6.72439246E+01
 40
5.00500378E-01
 50
9.00572530E+01
 51
1.79942747E+02
  0
ARC
  8
0
 62
4
 10
-1.05250494E+02
 20
-8.02439241E+01
 40
4.99500622E-01
 50
1.79942690E+02
 51
2.70057311E+02
  0
ARC
  8
0
 62
4
 10
-6.32504983E+01
 20
-6.78154724E+01
 40
1.50050386E+00
 50
1.92364101E-02
 51
8.99807637E+01
  0
LINE
  8
0
 62
4
 10
-7.92499945E+01
 20
-6.76862526E+01
 11
-8.12499945E+01
 21
-6.76862526E+01
  0
LINE
  8
0
 62
4
 10
-9.92499945E+01
 20
-8.95542120E+01
 11
-6.32499945E+01
 21
-8.95542120E+01
  0
LINE
  8
0
 62
4
 10
-9.92499945E+01
 20
-6.63149686E+01
 11
-9.62499945E+01
 21
-6.63149686E+01
  0
LINE
  8
0
 62
4
 10
-9.82499945E+01
 20
-8.63975999E+01
 11
-7.92499945E+01
 21
-8.63975999E+01
  0
LINE
  8
0
 62
4
 10
-9.82499945E+01
 20
-8.07277765E+01
 11
-9.82499945E+01
 21
-8.70921926E+01
  0
LINE
  8
0
 62
4
 10
-1.00749995E+02
 20
-8.07277765E+01
 11
-1.00749995E+02
 21
-9.06589346E+01
  0
LINE
  8
0
 62
4
 10
-7.92499945E+01
 20
-6.76862526E+01
 11
-7.92499945E+01
 21
-8.70921926E+01
  0
LINE
  8
0
 62
4
 10
-6.17499945E+01
 20
-6.78149686E+01
 11
-6.17499945E+01
 21
-9.06594344E+01
  0
LINE
  8
0
 62
4
 10
-1.15749995E+02
 20
-6.66901798E+01
 11
-1.10749995E+02
 21
-6.66901798E+01
  0
LINE
  8
0
 62
4
 10
-9.62499945E+01
 20
-8.00867799E+01
 11
-8.12499945E+01
 21
-8.00867799E+01
  0
LINE
  8
0
 62
4
 10
-9.62499945E+01
 20
-6.53146636E+01
 11
-8.12499945E+01
 21
-6.53146636E+01
  0
LINE
  8
0
 62
4
 10
-8.12499945E+01
 20
-5.37395636E+01
 11
-8.12499945E+01
 21
-8.44279844E+01
  0
LINE
  8
0
 62
4
 10
-1.09249995E+02
 20
-7.94934245E+01
 11
-1.05749995E+02
 21
-7.94934245E+01
  0
LINE
  8
0
 62
4
 10
-1.09249995E+02
 20
-6.79934245E+01
 11
-1.05749995E+02
 21
-6.79934245E+01
  0
LINE
  8
0
 62
4
 10
-1.09249995E+02
 20
-6.74934245E+01
 11
-1.09249995E+02
 21
-7.99934245E+01
  0
LINE
  8
0
 62
4
 10
-1.10749995E+02
 20
-7.99934245E+01
 11
-1.05749995E+02
 21
-7.99934245E+01
  0
LINE
  8
0
 62
4
 10
-1.10749995E+02
 20
-6.74934245E+01
 11
-1.05749995E+02
 21
-6.74934245E+01
  0
LINE
  8
0
 62
4
 10
-1.10749995E+02
 20
-6.66901798E+01
 11
-1.10749995E+02
 21
-8.07967784E+01
  0
LINE
  8
0
 62
4
 10
-1.15749995E+02
 20
-6.66901798E+01
 11
-1.15749995E+02
 21
-8.07967784E+01
  0
LINE
  8
0
 62
4
 10
-1.05749995E+02
 20
-6.72277765E+01
 11
-1.05749995E+02
 21
-8.02277765E+01
  0
LINE
  8
0
 62
4
 10
-9.62499945E+01
 20
-6.67434245E+01
 11
-1.05249995E+02
 21
-6.67434245E+01
  0
LINE
  8
0
 62
4
 10
-1.05249995E+02
 20
-8.07434245E+01
 11
-9.62499945E+01
 21
-8.07434245E+01
  0
LINE
  8
0
  6
CENTER
 62
6
 10
-8.87499945E+01
 20
-5.20899052E+01
 11
-8.87499945E+01
 21
-9.56647212E+01
  0
LINE
  8
0
 62
4
 10
-9.21499945E+01
 20
-9.34714332E+01
 11
-9.21499945E+01
 21
-9.13489772E+01
  0
LINE
  8
0
 62
4
 10
-8.53499945E+01
 20
-9.13489772E+01
 11
-8.53499945E+01
 21
-9.34714332E+01
  0
LINE
  8
0
 62
4
 10
-9.27499945E+01
 20
-9.08565733E+01
 11
-9.27499945E+01
 21
-9.13489772E+01
  0
LINE
  8
0
 62
4
 10
-8.47499945E+01
 20
-9.13489772E+01
 11
-8.47499945E+01
 21
-9.08565733E+01
  0
LINE
  8
0
 62
6
 10
-9.12499945E+01
 20
-5.22313346E+01
 11
-9.12499945E+01
 21
-5.37395636E+01
  0
LINE
  8
0
 62
4
 10
-9.47499945E+01
 20
-5.32313346E+01
 11
-9.44899945E+01
 21
-5.22313346E+01
  0
LINE
  8
0
 62
4
 10
-9.07499945E+01
 20
-5.32313346E+01
 11
-9.10199945E+01
 21
-5.22313346E+01
  0
LINE
  8
0
 62
4
 10
-9.10199945E+01
 20
-5.22313346E+01
 11
-9.44899945E+01
 21
-5.22313346E+01
  0
LINE
  8
0
 62
4
 10
-9.47499945E+01
 20
-5.32313346E+01
 11
-9.47499945E+01
 21
-5.37395636E+01
  0
LINE
  8
0
 62
4
 10
-9.07499945E+01
 20
-5.32313346E+01
 11
-9.07499945E+01
 21
-5.37395636E+01
  0
LINE
  8
0
 62
6
 10
-9.42499945E+01
 20
-5.22313346E+01
 11
-9.42499945E+01
 21
-5.37395636E+01
  0
LINE
  8
0
  6
CENTER
 62
6
 10
-9.27499945E+01
 20
-5.09713346E+01
 11
-9.27499945E+01
 21
-6.14713346E+01
  0
LINE
  8
0
 62
4
 10
-8.12499945E+01
 20
-5.37395636E+01
 11
-9.62499945E+01
 21
-5.37395636E+01
  0
LINE
  8
0
 62
4
 10
-8.22499945E+01
 20
-5.95446561E+01
 11
-9.52499945E+01
 21
-5.95446561E+01
  0
LINE
  8
0
 62
4
 10
-9.62499945E+01
 20
-5.37395636E+01
 11
-9.62499945E+01
 21
-8.44279844E+01
  0
LINE
  8
0
 62
6
 10
-8.62499945E+01
 20
-5.22313346E+01
 11
-8.62499945E+01
 21
-5.37395636E+01
  0
LINE
  8
0
 62
6
 10
-8.32499945E+01
 20
-5.22313346E+01
 11
-8.32499945E+01
 21
-5.37395636E+01
  0
LINE
  8
0
 62
4
 10
-8.67499945E+01
 20
-5.32313346E+01
 11
-8.64899945E+01
 21
-5.22313346E+01
  0
LINE
  8
0
 62
4
 10
-8.27499945E+01
 20
-5.32313346E+01
 11
-8.30199945E+01
 21
-5.22313346E+01
  0
LINE
  8
0
 62
4
 10
-8.30199945E+01
 20
-5.22313346E+01
 11
-8.64899945E+01
 21
-5.22313346E+01
  0
LINE
  8
0
 62
4
 10
-8.67499945E+01
 20
-5.32313346E+01
 11
-8.67499945E+01
 21
-5.37395636E+01
  0
LINE
  8
0
 62
4
 10
-8.27499945E+01
 20
-5.32313346E+01
 11
-8.27499945E+01
 21
-5.37395636E+01
  0
LINE
  8
0
  6
CENTER
 62
6
 10
-8.47499945E+01
 20
-5.09713346E+01
 11
-8.47499945E+01
 21
-6.14713346E+01
  0
LINE
  8
0
 62
4
 10
-1.15749995E+02
 20
-7.24402495E+01
 11
-1.10749995E+02
 21
-7.24402495E+01
  0
LINE
  8
0
 62
4
 10
-1.15749995E+02
 20
-8.07967784E+01
 11
-1.10749995E+02
 21
-8.07967784E+01
  0
LINE
  8
0
 62
4
 10
-8.12499945E+01
 20
-6.63149686E+01
 11
-6.32499945E+01
 21
-6.63149686E+01
  0
ARC
  8
0
 62
4
 10
-6.32494947E+01
 20
-9.06594344E+01
 40
1.49950029E+00
 50
2.69980903E+02
 51
1.90971113E-02
  0
LINE
  8
0
 62
4
 10
-9.92499945E+01
 20
-9.21589346E+01
 11
-9.21499945E+01
 21
-9.21589346E+01
  0
ARC
  8
0
 62
4
 10
-9.92504981E+01
 20
-9.06594383E+01
 40
1.49949647E+00
 50
1.79980757E+02
 51
2.70019243E+02
  0
LINE
  8
0
 62
4
 10
-1.15749995E+02
 20
-7.94926806E+01
 11
-1.10749995E+02
 21
-7.94926806E+01
  0
POLYLINE
  8
0
 62
4
 66
1
  0
VERTEX
  8
0
 62
4
 10
-8.57499945E+01
 20
-7.27007218E+01
  0
VERTEX
  8
0
 62
4
 10
-8.57614104E+01
 20
-7.24432268E+01
  0
VERTEX
  8
0
 62
4
 10
-8.57955712E+01
 20
-7.21876916E+01
  0
VERTEX
  8
0
 62
4
 10
-8.58522170E+01
 20
-7.19360608E+01
  0
VERTEX
  8
0
 62
4
 10
-8.59309166E+01
 20
-7.16902495E+01
  0
VERTEX
  8
0
 62
4
 10
-8.60310711E+01
 20
-7.14521286E+01
  0
VERTEX
  8
0
 62
4
 10
-8.61519183E+01
 20
-7.12235102E+01
  0
VERTEX
  8
0
 62
4
 10
-8.62925384E+01
 20
-7.10061342E+01
  0
VERTEX
  8
0
 62
4
 10
-8.64518612E+01
 20
-7.08016551E+01
  0
VERTEX
  8
0
 62
4
 10
-8.66286742E+01
 20
-7.06116291E+01
  0
VERTEX
  8
0
 62
4
 10
-8.68216317E+01
 20
-7.04375023E+01
  0
VERTEX
  8
0
 62
4
 10
-8.70292652E+01
 20
-7.02805999E+01
  0
VERTEX
  8
0
 62
4
 10
-8.72499945E+01
 20
-7.01421162E+01
  0
VERTEX
  8
0
 62
4
 10
-8.74821397E+01
 20
-7.00231050E+01
  0
VERTEX
  8
0
 62
4
 10
-8.77239341E+01
 20
-6.99244721E+01
  0
VERTEX
  8
0
 62
4
 10
-8.79735374E+01
 20
-6.98469681E+01
  0
VERTEX
  8
0
 62
4
 10
-8.82290500E+01
 20
-6.97911829E+01
  0
VERTEX
  8
0
 62
4
 10
-8.84885273E+01
 20
-6.97575410E+01
  0
VERTEX
  8
0
 62
4
 10
-8.87499945E+01
 20
-6.97462985E+01
  0
VERTEX
  8
0
 62
4
 10
-8.90114617E+01
 20
-6.97575410E+01
  0
VERTEX
  8
0
 62
4
 10
-8.92709390E+01
 20
-6.97911829E+01
  0
VERTEX
  8
0
 62
4
 10
-8.95264516E+01
 20
-6.98469681E+01
  0
VERTEX
  8
0
 62
4
 10
-8.97760549E+01
 20
-6.99244721E+01
  0
VERTEX
  8
0
 62
4
 10
-9.00178493E+01
 20
-7.00231050E+01
  0
VERTEX
  8
0
 62
4
 10
-9.02499945E+01
 20
-7.01421162E+01
  0
VERTEX
  8
0
 62
4
 10
-9.04707238E+01
 20
-7.02805999E+01
  0
VERTEX
  8
0
 62
4
 10
-9.06783573E+01
 20
-7.04375023E+01
  0
VERTEX
  8
0
 62
4
 10
-9.08713148E+01
 20
-7.06116291E+01
  0
VERTEX
  8
0
 62
4
 10
-9.10481278E+01
 20
-7.08016551E+01
  0
VERTEX
  8
0
 62
4
 10
-9.12074506E+01
 20
-7.10061342E+01
  0
VERTEX
  8
0
 62
4
 10
-9.13480707E+01
 20
-7.12235102E+01
  0
VERTEX
  8
0
 62
4
 10
-9.14689179E+01
 20
-7.14521286E+01
  0
VERTEX
  8
0
 62
4
 10
-9.15690724E+01
 20
-7.16902495E+01
  0
VERTEX
  8
0
 62
4
 10
-9.16477720E+01
 20
-7.19360608E+01
  0
VERTEX
  8
0
 62
4
 10
-9.17044178E+01
 20
-7.21876916E+01
  0
VERTEX
  8
0
 62
4
 10
-9.17385786E+01
 20
-7.24432269E+01
  0
VERTEX
  8
0
 62
4
 10
-9.17499945E+01
 20
-7.27007218E+01
  0
VERTEX
  8
0
 62
4
 10
-9.17385786E+01
 20
-7.29582168E+01
  0
VERTEX
  8
0
 62
4
 10
-9.17044178E+01
 20
-7.32137520E+01
  0
VERTEX
  8
0
 62
4
 10
-9.16477720E+01
 20
-7.34653828E+01
  0
VERTEX
  8
0
 62
4
 10
-9.15690724E+01
 20
-7.37111941E+01
  0
VERTEX
  8
0
 62
4
 10
-9.14689179E+01
 20
-7.39493150E+01
  0
VERTEX
  8
0
 62
4
 10
-9.13480707E+01
 20
-7.41779334E+01
  0
VERTEX
  8
0
 62
4
 10
-9.12074506E+01
 20
-7.43953094E+01
  0
VERTEX
  8
0
 62
4
 10
-9.10481278E+01
 20
-7.45997885E+01
  0
VERTEX
  8
0
 62
4
 10
-9.08713148E+01
 20
-7.47898145E+01
  0
VERTEX
  8
0
 62
4
 10
-9.06783573E+01
 20
-7.49639413E+01
  0
VERTEX
  8
0
 62
4
 10
-9.04707238E+01
 20
-7.51208437E+01
  0
VERTEX
  8
0
 62
4
 10
-9.02499945E+01
 20
-7.52593274E+01
  0
VERTEX
  8
0
 62
4
 10
-9.00178493E+01
 20
-7.53783386E+01
  0
VERTEX
  8
0
 62
4
 10
-8.97760549E+01
 20
-7.54769715E+01
  0
VERTEX
  8
0
 62
4
 10
-8.95264516E+01
 20
-7.55544755E+01
  0
VERTEX
  8
0
 62
4
 10
-8.92709390E+01
 20
-7.56102607E+01
  0
VERTEX
  8
0
 62
4
 10
-8.90114617E+01
 20
-7.56439026E+01
  0
VERTEX
  8
0
 62
4
 10
-8.87499945E+01
 20
-7.56551451E+01
  0
VERTEX
  8
0
 62
4
 10
-8.84885273E+01
 20
-7.56439026E+01
  0
VERTEX
  8
0
 62
4
 10
-8.82290500E+01
 20
-7.56102607E+01
  0
VERTEX
  8
0
 62
4
 10
-8.79735374E+01
 20
-7.55544755E+01
  0
VERTEX
  8
0
 62
4
 10
-8.77239341E+01
 20
-7.54769715E+01
  0
VERTEX
  8
0
 62
4
 10
-8.74821397E+01
 20
-7.53783386E+01
  0
VERTEX
  8
0
 62
4
 10
-8.72499945E+01
 20
-7.52593274E+01
  0
VERTEX
  8
0
 62
4
 10
-8.70292652E+01
 20
-7.51208436E+01
  0
VERTEX
  8
0
 62
4
 10
-8.68216317E+01
 20
-7.49639413E+01
  0
VERTEX
  8
0
 62
4
 10
-8.66286742E+01
 20
-7.47898145E+01
  0
VERTEX
  8
0
 62
4
 10
-8.64518612E+01
 20
-7.45997885E+01
  0
VERTEX
  8
0
 62
4
 10
-8.62925384E+01
 20
-7.43953094E+01
  0
VERTEX
  8
0
 62
4
 10
-8.61519183E+01
 20
-7.41779334E+01
  0
VERTEX
  8
0
 62
4
 10
-8.60310711E+01
 20
-7.39493150E+01
  0
VERTEX
  8
0
 62
4
 10
-8.59309166E+01
 20
-7.37111941E+01
  0
VERTEX
  8
0
 62
4
 10
-8.58522170E+01
 20
-7.34653828E+01
  0
VERTEX
  8
0
 62
4
 10
-8.57955712E+01
 20
-7.32137520E+01
  0
VERTEX
  8
0
 62
4
 10
-8.57614104E+01
 20
-7.29582167E+01
  0
VERTEX
  8
0
 62
4
 10
-8.57499945E+01
 20
-7.27007218E+01
  0
SEQEND
  8
0
  0
LINE
  8
0
  6
CENTER
 62
6
 10
-9.42365603E+01
 20
-7.27007218E+01
 11
-8.32634286E+01
 21
-7.27007218E+01
  0
LINE
  8
0
  6
CENTER
 62
6
 10
-7.27499945E+01
 20
-7.20408186E+01
 11
-7.27499945E+01
 21
-8.30849222E+01
  0
LINE
  8
0
  6
CENTER
 62
6
 10
-7.82720464E+01
 20
-7.75628704E+01
 11
-6.72279427E+01
 21
-7.75628704E+01
  0
POLYLINE
  8
0
 62
4
 66
1
  0
VERTEX
  8
0
 62
4
 10
-8.47499945E+01
 20
-9.08565733E+01
  0
VERTEX
  8
0
 62
4
 10
-8.47660973E+01
 20
-9.07943105E+01
  0
VERTEX
  8
0
 62
4
 10
-8.48142761E+01
 20
-9.07325490E+01
  0
VERTEX
  8
0
 62
4
 10
-8.48941431E+01
 20
-9.06717860E+01
  0
VERTEX
  8
0
 62
4
 10
-8.50050550E+01
 20
-9.06125109E+01
  0
VERTEX
  8
0
 62
4
 10
-8.51461190E+01
 20
-9.05552008E+01
  0
VERTEX
  8
0
 62
4
 10
-8.53161993E+01
 20
-9.05003172E+01
  0
VERTEX
  8
0
 62
4
 10
-8.55139265E+01
 20
-9.04483019E+01
  0
VERTEX
  8
0
 62
4
 10
-8.57377086E+01
 20
-9.03995739E+01
  0
VERTEX
  8
0
 62
4
 10
-8.59857439E+01
 20
-9.03545253E+01
  0
VERTEX
  8
0
 62
4
 10
-8.62560353E+01
 20
-9.03135189E+01
  0
VERTEX
  8
0
 62
4
 10
-8.65464066E+01
 20
-9.02768848E+01
  0
VERTEX
  8
0
 62
4
 10
-8.68545198E+01
 20
-9.02449181E+01
  0
VERTEX
  8
0
 62
4
 10
-8.71778944E+01
 20
-9.02178760E+01
  0
VERTEX
  8
0
 62
4
 10
-8.75139265E+01
 20
-9.01959764E+01
  0
VERTEX
  8
0
 62
4
 10
-8.78599108E+01
 20
-9.01793955E+01
  0
VERTEX
  8
0
 62
4
 10
-8.82130614E+01
 20
-9.01682668E+01
  0
VERTEX
  8
0
 62
4
 10
-8.85705352E+01
 20
-9.01626800E+01
  0
VERTEX
  8
0
 62
4
 10
-8.89294538E+01
 20
-9.01626800E+01
  0
VERTEX
  8
0
 62
4
 10
-8.92869276E+01
 20
-9.01682668E+01
  0
VERTEX
  8
0
 62
4
 10
-8.96400782E+01
 20
-9.01793955E+01
  0
VERTEX
  8
0
 62
4
 10
-8.99860625E+01
 20
-9.01959764E+01
  0
VERTEX
  8
0
 62
4
 10
-9.03220946E+01
 20
-9.02178760E+01
  0
VERTEX
  8
0
 62
4
 10
-9.06454691E+01
 20
-9.02449181E+01
  0
VERTEX
  8
0
 62
4
 10
-9.09535824E+01
 20
-9.02768848E+01
  0
VERTEX
  8
0
 62
4
 10
-9.12439537E+01
 20
-9.03135188E+01
  0
VERTEX
  8
0
 62
4
 10
-9.15142451E+01
 20
-9.03545253E+01
  0
VERTEX
  8
0
 62
4
 10
-9.17622804E+01
 20
-9.03995739E+01
  0
VERTEX
  8
0
 62
4
 10
-9.19860625E+01
 20
-9.04483019E+01
  0
VERTEX
  8
0
 62
4
 10
-9.21837897E+01
 20
-9.05003172E+01
  0
VERTEX
  8
0
 62
4
 10
-9.23538700E+01
 20
-9.05552008E+01
  0
VERTEX
  8
0
 62
4
 10
-9.24949340E+01
 20
-9.06125109E+01
  0
VERTEX
  8
0
 62
4
 10
-9.26058459E+01
 20
-9.06717860E+01
  0
VERTEX
  8
0
 62
4
 10
-9.26857129E+01
 20
-9.07325490E+01
  0
VERTEX
  8
0
 62
4
 10
-9.27338917E+01
 20
-9.07943105E+01
  0
VERTEX
  8
0
 62
4
 10
-9.27499945E+01
 20
-9.08565733E+01
  0
SEQEND
  8
0
  0
POLYLINE
  8
0
 62
4
 66
1
  0
VERTEX
  8
0
 62
4
 10
-8.53499945E+01
 20
-9.17148766E+01
  0
VERTEX
  8
0
 62
4
 10
-8.51769425E+01
 20
-9.16612205E+01
  0
VERTEX
  8
0
 62
4
 10
-8.50318995E+01
 20
-9.16051168E+01
  0
VERTEX
  8
0
 62
4
 10
-8.49160027E+01
 20
-9.15470052E+01
  0
VERTEX
  8
0
 62
4
 10
-8.48301604E+01
 20
-9.14873412E+01
  0
VERTEX
  8
0
 62
4
 10
-8.47750456E+01
 20
-9.14265926E+01
  0
VERTEX
  8
0
 62
4
 10
-8.47510904E+01
 20
-9.13652356E+01
  0
VERTEX
  8
0
 62
4
 10
-8.47584826E+01
 20
-9.13037511E+01
  0
VERTEX
  8
0
 62
4
 10
-8.47971641E+01
 20
-9.12426212E+01
  0
VERTEX
  8
0
 62
4
 10
-8.48668318E+01
 20
-9.11823249E+01
  0
VERTEX
  8
0
 62
4
 10
-8.49669395E+01
 20
-9.11233351E+01
  0
VERTEX
  8
0
 62
4
 10
-8.50967026E+01
 20
-9.10661141E+01
  0
VERTEX
  8
0
 62
4
 10
-8.52551037E+01
 20
-9.10111104E+01
  0
VERTEX
  8
0
 62
4
 10
-8.54409012E+01
 20
-9.09587552E+01
  0
VERTEX
  8
0
 62
4
 10
-8.56526387E+01
 20
-9.09094590E+01
  0
VERTEX
  8
0
 62
4
 10
-8.58886563E+01
 20
-9.08636082E+01
  0
VERTEX
  8
0
 62
4
 10
-8.61471038E+01
 20
-9.08215622E+01
  0
VERTEX
  8
0
 62
4
 10
-8.64259554E+01
 20
-9.07836506E+01
  0
VERTEX
  8
0
 62
4
 10
-8.67230250E+01
 20
-9.07501705E+01
  0
VERTEX
  8
0
 62
4
 10
-8.70359841E+01
 20
-9.07213845E+01
  0
VERTEX
  8
0
 62
4
 10
-8.73623792E+01
 20
-9.06975182E+01
  0
VERTEX
  8
0
 62
4
 10
-8.76996519E+01
 20
-9.06787587E+01
  0
VERTEX
  8
0
 62
4
 10
-8.80451581E+01
 20
-9.06652529E+01
  0
VERTEX
  8
0
 62
4
 10
-8.83961896E+01
 20
-9.06571069E+01
  0
VERTEX
  8
0
 62
4
 10
-8.87499945E+01
 20
-9.06543845E+01
  0
VERTEX
  8
0
 62
4
 10
-8.91037994E+01
 20
-9.06571069E+01
  0
VERTEX
  8
0
 62
4
 10
-8.94548309E+01
 20
-9.06652529E+01
  0
VERTEX
  8
0
 62
4
 10
-8.98003371E+01
 20
-9.06787587E+01
  0
VERTEX
  8
0
 62
4
 10
-9.01376097E+01
 20
-9.06975182E+01
  0
VERTEX
  8
0
 62
4
 10
-9.04640049E+01
 20
-9.07213845E+01
  0
VERTEX
  8
0
 62
4
 10
-9.07769639E+01
 20
-9.07501705E+01
  0
VERTEX
  8
0
 62
4
 10
-9.10740336E+01
 20
-9.07836506E+01
  0
VERTEX
  8
0
 62
4
 10
-9.13528852E+01
 20
-9.08215622E+01
  0
VERTEX
  8
0
 62
4
 10
-9.16113327E+01
 20
-9.08636082E+01
  0
VERTEX
  8
0
 62
4
 10
-9.18473503E+01
 20
-9.09094590E+01
  0
VERTEX
  8
0
 62
4
 10
-9.20590877E+01
 20
-9.09587552E+01
  0
VERTEX
  8
0
 62
4
 10
-9.22448853E+01
 20
-9.10111104E+01
  0
VERTEX
  8
0
 62
4
 10
-9.24032864E+01
 20
-9.10661141E+01
  0
VERTEX
  8
0
 62
4
 10
-9.25330495E+01
 20
-9.11233351E+01
  0
VERTEX
  8
0
 62
4
 10
-9.26331572E+01
 20
-9.11823249E+01
  0
VERTEX
  8
0
 62
4
 10
-9.27028249E+01
 20
-9.12426212E+01
  0
VERTEX
  8
0
 62
4
 10
-9.27415064E+01
 20
-9.13037511E+01
  0
VERTEX
  8
0
 62
4
 10
-9.27488986E+01
 20
-9.13652356E+01
  0
VERTEX
  8
0
 62
4
 10
-9.27249434E+01
 20
-9.14265926E+01
  0
VERTEX
  8
0
 62
4
 10
-9.26698286E+01
 20
-9.14873412E+01
  0
VERTEX
  8
0
 62
4
 10
-9.25839863E+01
 20
-9.15470052E+01
  0
VERTEX
  8
0
 62
4
 10
-9.24680895E+01
 20
-9.16051168E+01
  0
VERTEX
  8
0
 62
4
 10
-9.23230465E+01
 20
-9.16612205E+01
  0
VERTEX
  8
0
 62
4
 10
-9.21499945E+01
 20
-9.17148766E+01
  0
SEQEND
  8
0
  0
POLYLINE
  8
0
 62
4
 66
1
  0
VERTEX
  8
0
 62
4
 10
-8.53499945E+01
 20
-9.13489772E+01
  0
VERTEX
  8
0
 62
4
 10
-8.53636819E+01
 20
-9.12960538E+01
  0
VERTEX
  8
0
 62
4
 10
-8.54046339E+01
 20
-9.12435565E+01
  0
VERTEX
  8
0
 62
4
 10
-8.54725208E+01
 20
-9.11919080E+01
  0
VERTEX
  8
0
 62
4
 10
-8.55667959E+01
 20
-9.11415242E+01
  0
VERTEX
  8
0
 62
4
 10
-8.56867003E+01
 20
-9.10928106E+01
  0
VERTEX
  8
0
 62
4
 10
-8.58312686E+01
 20
-9.10461595E+01
  0
VERTEX
  8
0
 62
4
 10
-8.59993367E+01
 20
-9.10019466E+01
  0
VERTEX
  8
0
 62
4
 10
-8.61895515E+01
 20
-9.09605277E+01
  0
VERTEX
  8
0
 62
4
 10
-8.64003815E+01
 20
-9.09222364E+01
  0
VERTEX
  8
0
 62
4
 10
-8.66301292E+01
 20
-9.08873809E+01
  0
VERTEX
  8
0
 62
4
 10
-8.68769448E+01
 20
-9.08562420E+01
  0
VERTEX
  8
0
 62
4
 10
-8.71388410E+01
 20
-9.08290702E+01
  0
VERTEX
  8
0
 62
4
 10
-8.74137094E+01
 20
-9.08060845E+01
  0
VERTEX
  8
0
 62
4
 10
-8.76993367E+01
 20
-9.07874698E+01
  0
VERTEX
  8
0
 62
4
 10
-8.79934233E+01
 20
-9.07733761E+01
  0
VERTEX
  8
0
 62
4
 10
-8.82936014E+01
 20
-9.07639167E+01
  0
VERTEX
  8
0
 62
4
 10
-8.85974541E+01
 20
-9.07591679E+01
  0
VERTEX
  8
0
 62
4
 10
-8.89025349E+01
 20
-9.07591679E+01
  0
VERTEX
  8
0
 62
4
 10
-8.92063876E+01
 20
-9.07639167E+01
  0
VERTEX
  8
0
 62
4
 10
-8.95065657E+01
 20
-9.07733761E+01
  0
VERTEX
  8
0
 62
4
 10
-8.98006523E+01
 20
-9.07874698E+01
  0
VERTEX
  8
0
 62
4
 10
-9.00862796E+01
 20
-9.08060845E+01
  0
VERTEX
  8
0
 62
4
 10
-9.03611479E+01
 20
-9.08290702E+01
  0
VERTEX
  8
0
 62
4
 10
-9.06230442E+01
 20
-9.08562420E+01
  0
VERTEX
  8
0
 62
4
 10
-9.08698598E+01
 20
-9.08873809E+01
  0
VERTEX
  8
0
 62
4
 10
-9.10996075E+01
 20
-9.09222364E+01
  0
VERTEX
  8
0
 62
4
 10
-9.13104375E+01
 20
-9.09605277E+01
  0
VERTEX
  8
0
 62
4
 10
-9.15006523E+01
 20
-9.10019465E+01
  0
VERTEX
  8
0
 62
4
 10
-9.16687204E+01
 20
-9.10461595E+01
  0
VERTEX
  8
0
 62
4
 10
-9.18132886E+01
 20
-9.10928106E+01
  0
VERTEX
  8
0
 62
4
 10
-9.19331931E+01
 20
-9.11415242E+01
  0
VERTEX
  8
0
 62
4
 10
-9.20274682E+01
 20
-9.11919080E+01
  0
VERTEX
  8
0
 62
4
 10
-9.20953551E+01
 20
-9.12435565E+01
  0
VERTEX
  8
0
 62
4
 10
-9.21363071E+01
 20
-9.12960538E+01
  0
VERTEX
  8
0
 62
4
 10
-9.21499945E+01
 20
-9.13489772E+01
  0
SEQEND
  8
0
  0
LINE
  8
0
 62
4
 10
-8.53499945E+01
 20
-9.21589346E+01
 11
-6.32499945E+01
 21
-9.21589346E+01
  0
LINE
  8
0
 62
4
 10
2.20198848E+02
 20
-1.76832058E+02
 11
2.20551529E+02
 21
-1.77777582E+02
  0
LINE
  8
0
 62
4
 10
2.13918848E+02
 20
-1.76832058E+02
 11
2.13566166E+02
 21
-1.77777582E+02
  0
POLYLINE
  8
0
 62
4
 66
1
  0
VERTEX
  8
0
 62
4
 10
2.13566167E+02
 20
-1.77777582E+02
  0
VERTEX
  8
0
 62
4
 10
2.13559833E+02
 20
-1.77831282E+02
  0
VERTEX
  8
0
 62
4
 10
2.13580827E+02
 20
-1.77884870E+02
  0
VERTEX
  8
0
 62
4
 10
2.13628985E+02
 20
-1.77937927E+02
  0
VERTEX
  8
0
 62
4
 10
2.13703932E+02
 20
-1.77990038E+02
  0
VERTEX
  8
0
 62
4
 10
2.13805080E+02
 20
-1.78040797E+02
  0
VERTEX
  8
0
 62
4
 10
2.13931642E+02
 20
-1.78089807E+02
  0
VERTEX
  8
0
 62
4
 10
2.14082627E+02
 20
-1.78136685E+02
  0
VERTEX
  8
0
 62
4
 10
2.14256858E+02
 20
-1.78181065E+02
  0
VERTEX
  8
0
 62
4
 10
2.14452972E+02
 20
-1.78222601E+02
  0
VERTEX
  8
0
 62
4
 10
2.14669439E+02
 20
-1.78260967E+02
  0
VERTEX
  8
0
 62
4
 10
2.14904568E+02
 20
-1.78295866E+02
  0
VERTEX
  8
0
 62
4
 10
2.15156522E+02
 20
-1.78327023E+02
  0
VERTEX
  8
0
 62
4
 10
2.15423334E+02
 20
-1.78354196E+02
  0
VERTEX
  8
0
 62
4
 10
2.15702919E+02
 20
-1.78377172E+02
  0
VERTEX
  8
0
 62
4
 10
2.15993094E+02
 20
-1.78395772E+02
  0
VERTEX
  8
0
 62
4
 10
2.16291594E+02
 20
-1.78409851E+02
  0
VERTEX
  8
0
 62
4
 10
2.16596085E+02
 20
-1.78419298E+02
  0
VERTEX
  8
0
 62
4
 10
2.16904191E+02
 20
-1.78424040E+02
  0
VERTEX
  8
0
 62
4
 10
2.17213505E+02
 20
-1.78424040E+02
  0
VERTEX
  8
0
 62
4
 10
2.17521611E+02
 20
-1.78419298E+02
  0
VERTEX
  8
0
 62
4
 10
2.17826102E+02
 20
-1.78409851E+02
  0
VERTEX
  8
0
 62
4
 10
2.18124602E+02
 20
-1.78395772E+02
  0
VERTEX
  8
0
 62
4
 10
2.18414777E+02
 20
-1.78377172E+02
  0
VERTEX
  8
0
 62
4
 10
2.18694362E+02
 20
-1.78354196E+02
  0
VERTEX
  8
0
 62
4
 10
2.18961174E+02
 20
-1.78327023E+02
  0
VERTEX
  8
0
 62
4
 10
2.19213128E+02
 20
-1.78295866E+02
  0
VERTEX
  8
0
 62
4
 10
2.19448257E+02
 20
-1.78260967E+02
  0
VERTEX
  8
0
 62
4
 10
2.19664724E+02
 20
-1.78222601E+02
  0
VERTEX
  8
0
 62
4
 10
2.19860838E+02
 20
-1.78181065E+02
  0
VERTEX
  8
0
 62
4
 10
2.20035069E+02
 20
-1.78136685E+02
  0
VERTEX
  8
0
 62
4
 10
2.20186054E+02
 20
-1.78089807E+02
  0
VERTEX
  8
0
 62
4
 10
2.20312616E+02
 20
-1.78040797E+02
  0
VERTEX
  8
0
 62
4
 10
2.20413764E+02
 20
-1.77990038E+02
  0
VERTEX
  8
0
 62
4
 10
2.20488711E+02
 20
-1.77937927E+02
  0
VERTEX
  8
0
 62
4
 10
2.20536869E+02
 20
-1.77884870E+02
  0
VERTEX
  8
0
 62
4
 10
2.20557863E+02
 20
-1.77831282E+02
  0
VERTEX
  8
0
 62
4
 10
2.20551529E+02
 20
-1.77777582E+02
  0
SEQEND
  8
0
  0
POLYLINE
  8
0
 62
4
 66
1
  0
VERTEX
  8
0
 62
4
 10
2.20198848E+02
 20
-1.76832058E+02
  0
VERTEX
  8
0
 62
4
 10
2.20186899E+02
 20
-1.76784536E+02
  0
VERTEX
  8
0
 62
4
 10
2.20151144E+02
 20
-1.76737375E+02
  0
VERTEX
  8
0
 62
4
 10
2.20091855E+02
 20
-1.76690936E+02
  0
VERTEX
  8
0
 62
4
 10
2.20009483E+02
 20
-1.76645570E+02
  0
VERTEX
  8
0
 62
4
 10
2.19904654E+02
 20
-1.76601623E+02
  0
VERTEX
  8
0
 62
4
 10
2.19778168E+02
 20
-1.76559430E+02
  0
VERTEX
  8
0
 62
4
 10
2.19630985E+02
 20
-1.76519312E+02
  0
VERTEX
  8
0
 62
4
 10
2.19464228E+02
 20
-1.76481575E+02
  0
VERTEX
  8
0
 62
4
 10
2.19279163E+02
 20
-1.76446504E+02
  0
VERTEX
  8
0
 62
4
 10
2.19077201E+02
 20
-1.76414368E+02
  0
VERTEX
  8
0
 62
4
 10
2.18859878E+02
 20
-1.76385411E+02
  0
VERTEX
  8
0
 62
4
 10
2.18628848E+02
 20
-1.76359853E+02
  0
VERTEX
  8
0
 62
4
 10
2.18385869E+02
 20
-1.76337889E+02
  0
VERTEX
  8
0
 62
4
 10
2.18132791E+02
 20
-1.76319686E+02
  0
VERTEX
  8
0
 62
4
 10
2.17871540E+02
 20
-1.76305382E+02
  0
VERTEX
  8
0
 62
4
 10
2.17604103E+02
 20
-1.76295086E+02
  0
VERTEX
  8
0
 62
4
 10
2.17332517E+02
 20
-1.76288878E+02
  0
VERTEX
  8
0
 62
4
 10
2.17058848E+02
 20
-1.76286803E+02
  0
VERTEX
  8
0
 62
4
 10
2.16785179E+02
 20
-1.76288878E+02
  0
VERTEX
  8
0
 62
4
 10
2.16513593E+02
 20
-1.76295086E+02
  0
VERTEX
  8
0
 62
4
 10
2.16246156E+02
 20
-1.76305382E+02
  0
VERTEX
  8
0
 62
4
 10
2.15984905E+02
 20
-1.76319686E+02
  0
VERTEX
  8
0
 62
4
 10
2.15731827E+02
 20
-1.76337889E+02
  0
VERTEX
  8
0
 62
4
 10
2.15488848E+02
 20
-1.76359853E+02
  0
VERTEX
  8
0
 62
4
 10
2.15257818E+02
 20
-1.76385411E+02
  0
VERTEX
  8
0
 62
4
 10
2.15040495E+02
 20
-1.76414368E+02
  0
VERTEX
  8
0
 62
4
 10
2.14838533E+02
 20
-1.76446504E+02
  0
VERTEX
  8
0
 62
4
 10
2.14653468E+02
 20
-1.76481575E+02
  0
VERTEX
  8
0
 62
4
 10
2.14486711E+02
 20
-1.76519312E+02
  0
VERTEX
  8
0
 62
4
 10
2.14339528E+02
 20
-1.76559430E+02
  0
VERTEX
  8
0
 62
4
 10
2.14213042E+02
 20
-1.76601623E+02
  0
VERTEX
  8
0
 62
4
 10
2.14108213E+02
 20
-1.76645570E+02
  0
VERTEX
  8
0
 62
4
 10
2.14025841E+02
 20
-1.76690936E+02
  0
VERTEX
  8
0
 62
4
 10
2.13966552E+02
 20
-1.76737375E+02
  0
VERTEX
  8
0
 62
4
 10
2.13930797E+02
 20
-1.76784536E+02
  0
VERTEX
  8
0
 62
4
 10
2.13918848E+02
 20
-1.76832058E+02
  0
VERTEX
  8
0
 62
4
 10
2.13930797E+02
 20
-1.76879580E+02
  0
VERTEX
  8
0
 62
4
 10
2.13966552E+02
 20
-1.76926741E+02
  0
VERTEX
  8
0
 62
4
 10
2.14025841E+02
 20
-1.76973180E+02
  0
VERTEX
  8
0
 62
4
 10
2.14108213E+02
 20
-1.77018546E+02
  0
VERTEX
  8
0
 62
4
 10
2.14213042E+02
 20
-1.77062493E+02
  0
VERTEX
  8
0
 62
4
 10
2.14339528E+02
 20
-1.77104686E+02
  0
VERTEX
  8
0
 62
4
 10
2.14486711E+02
 20
-1.77144804E+02
  0
VERTEX
  8
0
 62
4
 10
2.14653468E+02
 20
-1.77182541E+02
  0
VERTEX
  8
0
 62
4
 10
2.14838533E+02
 20
-1.77217612E+02
  0
VERTEX
  8
0
 62
4
 10
2.15040495E+02
 20
-1.77249748E+02
  0
VERTEX
  8
0
 62
4
 10
2.15257818E+02
 20
-1.77278705E+02
  0
VERTEX
  8
0
 62
4
 10
2.15488848E+02
 20
-1.77304263E+02
  0
VERTEX
  8
0
 62
4
 10
2.15731827E+02
 20
-1.77326227E+02
  0
VERTEX
  8
0
 62
4
 10
2.15984905E+02
 20
-1.77344430E+02
  0
VERTEX
  8
0
 62
4
 10
2.16246156E+02
 20
-1.77358734E+02
  0
VERTEX
  8
0
 62
4
 10
2.16513593E+02
 20
-1.77369030E+02
  0
VERTEX
  8
0
 62
4
 10
2.16785179E+02
 20
-1.77375238E+02
  0
VERTEX
  8
0
 62
4
 10
2.17058848E+02
 20
-1.77377313E+02
  0
VERTEX
  8
0
 62
4
 10
2.17332517E+02
 20
-1.77375238E+02
  0
VERTEX
  8
0
 62
4
 10
2.17604103E+02
 20
-1.77369030E+02
  0
VERTEX
  8
0
 62
4
 10
2.17871540E+02
 20
-1.77358734E+02
  0
VERTEX
  8
0
 62
4
 10
2.18132791E+02
 20
-1.77344430E+02
  0
VERTEX
  8
0
 62
4
 10
2.18385869E+02
 20
-1.77326227E+02
  0
VERTEX
  8
0
 62
4
 10
2.18628848E+02
 20
-1.77304263E+02
  0
VERTEX
  8
0
 62
4
 10
2.18859878E+02
 20
-1.77278705E+02
  0
VERTEX
  8
0
 62
4
 10
2.19077201E+02
 20
-1.77249748E+02
  0
VERTEX
  8
0
 62
4
 10
2.19279163E+02
 20
-1.77217612E+02
  0
VERTEX
  8
0
 62
4
 10
2.19464228E+02
 20
-1.77182541E+02
  0
VERTEX
  8
0
 62
4
 10
2.19630985E+02
 20
-1.77144804E+02
  0
VERTEX
  8
0
 62
4
 10
2.19778168E+02
 20
-1.77104686E+02
  0
VERTEX
  8
0
 62
4
 10
2.19904654E+02
 20
-1.77062493E+02
  0
VERTEX
  8
0
 62
4
 10
2.20009483E+02
 20
-1.77018546E+02
  0
VERTEX
  8
0
 62
4
 10
2.20091855E+02
 20
-1.76973180E+02
  0
VERTEX
  8
0
 62
4
 10
2.20151144E+02
 20
-1.76926741E+02
  0
VERTEX
  8
0
 62
4
 10
2.20186899E+02
 20
-1.76879580E+02
  0
VERTEX
  8
0
 62
4
 10
2.20198848E+02
 20
-1.76832058E+02
  0
SEQEND
  8
0
  0
LINE
  8
0
  6
CENTER
 62
6
 10
2.17058848E+02
 20
-1.74677926E+02
 11
2.17058848E+02
 21
-1.76832058E+02
  0
LINE
  8
0
 62
4
 10
2.60058848E+02
 20
-1.47780229E+02
 11
2.55058848E+02
 21
-1.47780229E+02
  0
LINE
  8
0
 62
4
 10
2.43558848E+02
 20
-1.78914042E+02
 11
2.43558848E+02
 21
-1.76809944E+02
  0
LINE
  8
0
 62
4
 10
2.07558848E+02
 20
-1.78914042E+02
 11
2.07558848E+02
 21
-1.76809944E+02
  0
LINE
  8
0
 62
4
 10
2.23558848E+02
 20
-1.76129071E+02
 11
2.07558848E+02
 21
-1.76129071E+02
  0
ARC
  8
0
 62
4
 10
2.43559348E+02
 20
-1.77628571E+02
 40
1.49950029E+00
 50
3.59980903E+02
 51
9.00190969E+01
  0
LINE
  8
0
 62
4
 10
2.43558848E+02
 20
-1.76129071E+02
 11
2.42558848E+02
 21
-1.76129071E+02
  0
ARC
  8
0
 62
4
 10
2.07558348E+02
 20
-1.77628571E+02
 40
1.49950029E+00
 50
8.99809029E+01
 51
1.80019097E+02
  0
POLYLINE
  8
0
 62
4
 66
1
  0
VERTEX
  8
0
 62
4
 10
2.39058848E+02
 20
-2.05236108E+02
  0
VERTEX
  8
0
 62
4
 10
2.39050988E+02
 20
-2.05062092E+02
  0
VERTEX
  8
0
 62
4
 10
2.39027468E+02
 20
-2.04889444E+02
  0
VERTEX
  8
0
 62
4
 10
2.38988475E+02
 20
-2.04719521E+02
  0
VERTEX
  8
0
 62
4
 10
2.38934314E+02
 20
-2.04553658E+02
  0
VERTEX
  8
0
 62
4
 10
2.38865411E+02
 20
-2.04393160E+02
  0
VERTEX
  8
0
 62
4
 10
2.38782308E+02
 20
-2.04239288E+02
  0
VERTEX
  8
0
 62
4
 10
2.38685658E+02
 20
-2.04093251E+02
  0
VERTEX
  8
0
 62
4
 10
2.38576220E+02
 20
-2.03956197E+02
  0
VERTEX
  8
0
 62
4
 10
2.38454856E+02
 20
-2.03829204E+02
  0
VERTEX
  8
0
 62
4
 10
2.38322518E+02
 20
-2.03713270E+02
  0
VERTEX
  8
0
 62
4
 10
2.38180247E+02
 20
-2.03609306E+02
  0
VERTEX
  8
0
 62
4
 10
2.38029162E+02
 20
-2.03518129E+02
  0
VERTEX
  8
0
 62
4
 10
2.37870450E+02
 20
-2.03440456E+02
  0
VERTEX
  8
0
 62
4
 10
2.37705358E+02
 20
-2.03376897E+02
  0
VERTEX
  8
0
 62
4
 10
2.37535184E+02
 20
-2.03327953E+02
  0
VERTEX
  8
0
 62
4
 10
2.37361266E+02
 20
-2.03294007E+02
  0
VERTEX
  8
0
 62
4
 10
2.37184971E+02
 20
-2.03275327E+02
  0
VERTEX
  8
0
 62
4
 10
2.37007685E+02
 20
-2.03272059E+02
  0
VERTEX
  8
0
 62
4
 10
2.36830801E+02
 20
-2.03284230E+02
  0
VERTEX
  8
0
 62
4
 10
2.36655709E+02
 20
-2.03311743E+02
  0
VERTEX
  8
0
 62
4
 10
2.36483787E+02
 20
-2.03354383E+02
  0
VERTEX
  8
0
 62
4
 10
2.36316384E+02
 20
-2.03411813E+02
  0
VERTEX
  8
0
 62
4
 10
2.36154818E+02
 20
-2.03483583E+02
  0
VERTEX
  8
0
 62
4
 10
2.36000357E+02
 20
-2.03569129E+02
  0
VERTEX
  8
0
 62
4
 10
2.35854217E+02
 20
-2.03667777E+02
  0
VERTEX
  8
0
 62
4
 10
2.35717545E+02
 20
-2.03778754E+02
  0
VERTEX
  8
0
 62
4
 10
2.35591417E+02
 20
-2.03901185E+02
  0
VERTEX
  8
0
 62
4
 10
2.35476823E+02
 20
-2.04034110E+02
  0
VERTEX
  8
0
 62
4
 10
2.35374664E+02
 20
-2.04176483E+02
  0
VERTEX
  8
0
 62
4
 10
2.35285744E+02
 20
-2.04327185E+02
  0
VERTEX
  8
0
 62
4
 10
2.35210761E+02
 20
-2.04485031E+02
  0
VERTEX
  8
0
 62
4
 10
2.35150305E+02
 20
-2.04648781E+02
  0
VERTEX
  8
0
 62
4
 10
2.35104850E+02
 20
-2.04817148E+02
  0
VERTEX
  8
0
 62
4
 10
2.35074755E+02
 20
-2.04988807E+02
  0
VERTEX
  8
0
 62
4
 10
2.35060256E+02
 20
-2.05162411E+02
  0
VERTEX
  8
0
 62
4
 10
2.35061466E+02
 20
-2.05336594E+02
  0
SEQEND
  8
0
  0
POLYLINE
  8
0
 62
4
 66
1
  0
VERTEX
  8
0
 62
4
 10
2.38793848E+02
 20
-2.05610729E+02
  0
VERTEX
  8
0
 62
4
 10
2.38787246E+02
 20
-2.05461811E+02
  0
VERTEX
  8
0
 62
4
 10
2.38767489E+02
 20
-2.05314027E+02
  0
VERTEX
  8
0
 62
4
 10
2.38734729E+02
 20
-2.05168500E+02
  0
VERTEX
  8
0
 62
4
 10
2.38689215E+02
 20
-2.05026339E+02
  0
VERTEX
  8
0
 62
4
 10
2.38631292E+02
 20
-2.04888626E+02
  0
VERTEX
  8
0
 62
4
 10
2.38561402E+02
 20
-2.04756408E+02
  0
VERTEX
  8
0
 62
4
 10
2.38480077E+02
 20
-2.04630693E+02
  0
VERTEX
  8
0
 62
4
 10
2.38387935E+02
 20
-2.04512435E+02
  0
VERTEX
  8
0
 62
4
 10
2.38285678E+02
 20
-2.04402537E+02
  0
VERTEX
  8
0
 62
4
 10
2.38174085E+02
 20
-2.04301834E+02
  0
VERTEX
  8
0
 62
4
 10
2.38054003E+02
 20
-2.04211092E+02
  0
VERTEX
  8
0
 62
4
 10
2.37926348E+02
 20
-2.04131002E+02
  0
VERTEX
  8
0
 62
4
 10
2.37792091E+02
 20
-2.04062174E+02
  0
VERTEX
  8
0
 62
4
 10
2.37652253E+02
 20
-2.04005131E+02
  0
VERTEX
  8
0
 62
4
 10
2.37507899E+02
 20
-2.03960308E+02
  0
VERTEX
  8
0
 62
4
 10
2.37360128E+02
 20
-2.03928046E+02
  0
VERTEX
  8
0
 62
4
 10
2.37210063E+02
 20
-2.03908589E+02
  0
VERTEX
  8
0
 62
4
 10
2.37058848E+02
 20
-2.03902088E+02
  0
VERTEX
  8
0
 62
4
 10
2.36907633E+02
 20
-2.03908589E+02
  0
VERTEX
  8
0
 62
4
 10
2.36757568E+02
 20
-2.03928046E+02
  0
VERTEX
  8
0
 62
4
 10
2.36609797E+02
 20
-2.03960308E+02
  0
VERTEX
  8
0
 62
4
 10
2.36465443E+02
 20
-2.04005131E+02
  0
VERTEX
  8
0
 62
4
 10
2.36325605E+02
 20
-2.04062174E+02
  0
VERTEX
  8
0
 62
4
 10
2.36191348E+02
 20
-2.04131002E+02
  0
VERTEX
  8
0
 62
4
 10
2.36063693E+02
 20
-2.04211092E+02
  0
VERTEX
  8
0
 62
4
 10
2.35943611E+02
 20
-2.04301834E+02
  0
VERTEX
  8
0
 62
4
 10
2.35832018E+02
 20
-2.04402537E+02
  0
VERTEX
  8
0
 62
4
 10
2.35729761E+02
 20
-2.04512435E+02
  0
VERTEX
  8
0
 62
4
 10
2.35637619E+02
 20
-2.04630693E+02
  0
VERTEX
  8
0
 62
4
 10
2.35556294E+02
 20
-2.04756408E+02
  0
VERTEX
  8
0
 62
4
 10
2.35486404E+02
 20
-2.04888626E+02
  0
VERTEX
  8
0
 62
4
 10
2.35428481E+02
 20
-2.05026339E+02
  0
VERTEX
  8
0
 62
4
 10
2.35382967E+02
 20
-2.05168500E+02
  0
VERTEX
  8
0
 62
4
 10
2.35350207E+02
 20
-2.05314027E+02
  0
VERTEX
  8
0
 62
4
 10
2.35330450E+02
 20
-2.05461811E+02
  0
VERTEX
  8
0
 62
4
 10
2.35323848E+02
 20
-2.05610729E+02
  0
VERTEX
  8
0
 62
4
 10
2.35330450E+02
 20
-2.05759647E+02
  0
VERTEX
  8
0
 62
4
 10
2.35350207E+02
 20
-2.05907431E+02
  0
VERTEX
  8
0
 62
4
 10
2.35382967E+02
 20
-2.06052958E+02
  0
VERTEX
  8
0
 62
4
 10
2.35428481E+02
 20
-2.06195119E+02
  0
VERTEX
  8
0
 62
4
 10
2.35486404E+02
 20
-2.06332832E+02
  0
VERTEX
  8
0
 62
4
 10
2.35556294E+02
 20
-2.06465050E+02
  0
VERTEX
  8
0
 62
4
 10
2.35637619E+02
 20
-2.06590765E+02
  0
VERTEX
  8
0
 62
4
 10
2.35729761E+02
 20
-2.06709023E+02
  0
VERTEX
  8
0
 62
4
 10
2.35832018E+02
 20
-2.06818921E+02
  0
VERTEX
  8
0
 62
4
 10
2.35943611E+02
 20
-2.06919624E+02
  0
VERTEX
  8
0
 62
4
 10
2.36063693E+02
 20
-2.07010366E+02
  0
VERTEX
  8
0
 62
4
 10
2.36191348E+02
 20
-2.07090456E+02
  0
VERTEX
  8
0
 62
4
 10
2.36325605E+02
 20
-2.07159284E+02
  0
VERTEX
  8
0
 62
4
 10
2.36465443E+02
 20
-2.07216327E+02
  0
VERTEX
  8
0
 62
4
 10
2.36609797E+02
 20
-2.07261150E+02
  0
VERTEX
  8
0
 62
4
 10
2.36757568E+02
 20
-2.07293412E+02
  0
VERTEX
  8
0
 62
4
 10
2.36907633E+02
 20
-2.07312869E+02
  0
VERTEX
  8
0
 62
4
 10
2.37058848E+02
 20
-2.07319370E+02
  0
VERTEX
  8
0
 62
4
 10
2.37210063E+02
 20
-2.07312869E+02
  0
VERTEX
  8
0
 62
4
 10
2.37360128E+02
 20
-2.07293412E+02
  0
VERTEX
  8
0
 62
4
 10
2.37507899E+02
 20
-2.07261150E+02
  0
VERTEX
  8
0
 62
4
 10
2.37652253E+02
 20
-2.07216327E+02
  0
VERTEX
  8
0
 62
4
 10
2.37792091E+02
 20
-2.07159284E+02
  0
VERTEX
  8
0
 62
4
 10
2.37926348E+02
 20
-2.07090456E+02
  0
VERTEX
  8
0
 62
4
 10
2.38054003E+02
 20
-2.07010366E+02
  0
VERTEX
  8
0
 62
4
 10
2.38174085E+02
 20
-2.06919624E+02
  0
VERTEX
  8
0
 62
4
 10
2.38285678E+02
 20
-2.06818921E+02
  0
VERTEX
  8
0
 62
4
 10
2.38387935E+02
 20
-2.06709023E+02
  0
VERTEX
  8
0
 62
4
 10
2.38480077E+02
 20
-2.06590765E+02
  0
VERTEX
  8
0
 62
4
 10
2.38561402E+02
 20
-2.06465050E+02
  0
VERTEX
  8
0
 62
4
 10
2.38631292E+02
 20
-2.06332832E+02
  0
VERTEX
  8
0
 62
4
 10
2.38689215E+02
 20
-2.06195119E+02
  0
VERTEX
  8
0
 62
4
 10
2.38734729E+02
 20
-2.06052958E+02
  0
VERTEX
  8
0
 62
4
 10
2.38767489E+02
 20
-2.05907431E+02
  0
VERTEX
  8
0
 62
4
 10
2.38787246E+02
 20
-2.05759647E+02
  0
VERTEX
  8
0
 62
4
 10
2.38793848E+02
 20
-2.05610729E+02
  0
SEQEND
  8
0
  0
POLYLINE
  8
0
 62
4
 66
1
  0
VERTEX
  8
0
 62
4
 10
2.39058848E+02
 20
-2.05437081E+02
  0
VERTEX
  8
0
 62
4
 10
2.39051237E+02
 20
-2.05265847E+02
  0
VERTEX
  8
0
 62
4
 10
2.39028464E+02
 20
-2.05095916E+02
  0
VERTEX
  8
0
 62
4
 10
2.38990700E+02
 20
-2.04928581E+02
  0
VERTEX
  8
0
 62
4
 10
2.38938233E+02
 20
-2.04765117E+02
  0
VERTEX
  8
0
 62
4
 10
2.38871464E+02
 20
-2.04606767E+02
  0
VERTEX
  8
0
 62
4
 10
2.38790899E+02
 20
-2.04454735E+02
  0
VERTEX
  8
0
 62
4
 10
2.38697152E+02
 20
-2.04310180E+02
  0
VERTEX
  8
0
 62
4
 10
2.38590937E+02
 20
-2.04174202E+02
  0
VERTEX
  8
0
 62
4
 10
2.38473062E+02
 20
-2.04047834E+02
  0
VERTEX
  8
0
 62
4
 10
2.38344423E+02
 20
-2.03932040E+02
  0
VERTEX
  8
0
 62
4
 10
2.38206001E+02
 20
-2.03827700E+02
  0
VERTEX
  8
0
 62
4
 10
2.38058848E+02
 20
-2.03735608E+02
  0
VERTEX
  8
0
 62
4
 10
2.37904085E+02
 20
-2.03656466E+02
  0
VERTEX
  8
0
 62
4
 10
2.37742888E+02
 20
-2.03590875E+02
  0
VERTEX
  8
0
 62
4
 10
2.37576486E+02
 20
-2.03539335E+02
  0
VERTEX
  8
0
 62
4
 10
2.37406144E+02
 20
-2.03502238E+02
  0
VERTEX
  8
0
 62
4
 10
2.37233159E+02
 20
-2.03479866E+02
  0
VERTEX
  8
0
 62
4
 10
2.37058848E+02
 20
-2.03472390E+02
  0
VERTEX
  8
0
 62
4
 10
2.36884537E+02
 20
-2.03479866E+02
  0
VERTEX
  8
0
 62
4
 10
2.36711552E+02
 20
-2.03502238E+02
  0
VERTEX
  8
0
 62
4
 10
2.36541210E+02
 20
-2.03539335E+02
  0
VERTEX
  8
0
 62
4
 10
2.36374808E+02
 20
-2.03590875E+02
  0
VERTEX
  8
0
 62
4
 10
2.36213611E+02
 20
-2.03656466E+02
  0
VERTEX
  8
0
 62
4
 10
2.36058848E+02
 20
-2.03735608E+02
  0
VERTEX
  8
0
 62
4
 10
2.35911695E+02
 20
-2.03827700E+02
  0
VERTEX
  8
0
 62
4
 10
2.35773273E+02
 20
-2.03932040E+02
  0
VERTEX
  8
0
 62
4
 10
2.35644634E+02
 20
-2.04047834E+02
  0
VERTEX
  8
0
 62
4
 10
2.35526759E+02
 20
-2.04174202E+02
  0
VERTEX
  8
0
 62
4
 10
2.35420544E+02
 20
-2.04310180E+02
  0
VERTEX
  8
0
 62
4
 10
2.35326797E+02
 20
-2.04454735E+02
  0
VERTEX
  8
0
 62
4
 10
2.35246232E+02
 20
-2.04606767E+02
  0
VERTEX
  8
0
 62
4
 10
2.35179463E+02
 20
-2.04765117E+02
  0
VERTEX
  8
0
 62
4
 10
2.35126996E+02
 20
-2.04928581E+02
  0
VERTEX
  8
0
 62
4
 10
2.35089232E+02
 20
-2.05095916E+02
  0
VERTEX
  8
0
 62
4
 10
2.35066459E+02
 20
-2.05265847E+02
  0
VERTEX
  8
0
 62
4
 10
2.35058848E+02
 20
-2.05437081E+02
  0
VERTEX
  8
0
 62
4
 10
2.35066459E+02
 20
-2.05608315E+02
  0
VERTEX
  8
0
 62
4
 10
2.35089232E+02
 20
-2.05778246E+02
  0
VERTEX
  8
0
 62
4
 10
2.35126996E+02
 20
-2.05945581E+02
  0
VERTEX
  8
0
 62
4
 10
2.35179463E+02
 20
-2.06109045E+02
  0
VERTEX
  8
0
 62
4
 10
2.35246232E+02
 20
-2.06267395E+02
  0
VERTEX
  8
0
 62
4
 10
2.35326797E+02
 20
-2.06419427E+02
  0
VERTEX
  8
0
 62
4
 10
2.35420544E+02
 20
-2.06563982E+02
  0
VERTEX
  8
0
 62
4
 10
2.35526759E+02
 20
-2.06699960E+02
  0
VERTEX
  8
0
 62
4
 10
2.35644634E+02
 20
-2.06826328E+02
  0
VERTEX
  8
0
 62
4
 10
2.35773273E+02
 20
-2.06942122E+02
  0
VERTEX
  8
0
 62
4
 10
2.35911695E+02
 20
-2.07046462E+02
  0
VERTEX
  8
0
 62
4
 10
2.36058848E+02
 20
-2.07138554E+02
  0
VERTEX
  8
0
 62
4
 10
2.36213611E+02
 20
-2.07217696E+02
  0
VERTEX
  8
0
 62
4
 10
2.36374808E+02
 20
-2.07283287E+02
  0
VERTEX
  8
0
 62
4
 10
2.36541210E+02
 20
-2.07334827E+02
  0
VERTEX
  8
0
 62
4
 10
2.36711552E+02
 20
-2.07371924E+02
  0
VERTEX
  8
0
 62
4
 10
2.36884537E+02
 20
-2.07394296E+02
  0
VERTEX
  8
0
 62
4
 10
2.37058848E+02
 20
-2.07401772E+02
  0
VERTEX
  8
0
 62
4
 10
2.37233159E+02
 20
-2.07394296E+02
  0
VERTEX
  8
0
 62
4
 10
2.37406144E+02
 20
-2.07371924E+02
  0
VERTEX
  8
0
 62
4
 10
2.37576486E+02
 20
-2.07334827E+02
  0
VERTEX
  8
0
 62
4
 10
2.37742888E+02
 20
-2.07283287E+02
  0
VERTEX
  8
0
 62
4
 10
2.37904085E+02
 20
-2.07217696E+02
  0
VERTEX
  8
0
 62
4
 10
2.38058848E+02
 20
-2.07138554E+02
  0
VERTEX
  8
0
 62
4
 10
2.38206001E+02
 20
-2.07046462E+02
  0
VERTEX
  8
0
 62
4
 10
2.38344423E+02
 20
-2.06942122E+02
  0
VERTEX
  8
0
 62
4
 10
2.38473062E+02
 20
-2.06826328E+02
  0
VERTEX
  8
0
 62
4
 10
2.38590937E+02
 20
-2.06699960E+02
  0
VERTEX
  8
0
 62
4
 10
2.38697152E+02
 20
-2.06563982E+02
  0
VERTEX
  8
0
 62
4
 10
2.38790899E+02
 20
-2.06419427E+02
  0
VERTEX
  8
0
 62
4
 10
2.38871464E+02
 20
-2.06267395E+02
  0
VERTEX
  8
0
 62
4
 10
2.38938233E+02
 20
-2.06109045E+02
  0
VERTEX
  8
0
 62
4
 10
2.38990700E+02
 20
-2.05945581E+02
  0
VERTEX
  8
0
 62
4
 10
2.39028464E+02
 20
-2.05778246E+02
  0
VERTEX
  8
0
 62
4
 10
2.39051237E+02
 20
-2.05608315E+02
  0
VERTEX
  8
0
 62
4
 10
2.39058848E+02
 20
-2.05437081E+02
  0
SEQEND
  8
0
  0
POLYLINE
  8
0
 62
6
 66
1
  0
VERTEX
  8
0
 62
6
 10
2.38558848E+02
 20
-2.05605805E+02
  0
VERTEX
  8
0
 62
6
 10
2.38553140E+02
 20
-2.05477058E+02
  0
VERTEX
  8
0
 62
6
 10
2.38536060E+02
 20
-2.05349290E+02
  0
VERTEX
  8
0
 62
6
 10
2.38507737E+02
 20
-2.05223474E+02
  0
VERTEX
  8
0
 62
6
 10
2.38468387E+02
 20
-2.05100569E+02
  0
VERTEX
  8
0
 62
6
 10
2.38418310E+02
 20
-2.04981508E+02
  0
VERTEX
  8
0
 62
6
 10
2.38357886E+02
 20
-2.04867199E+02
  0
VERTEX
  8
0
 62
6
 10
2.38287576E+02
 20
-2.04758511E+02
  0
VERTEX
  8
0
 62
6
 10
2.38207915E+02
 20
-2.04656272E+02
  0
VERTEX
  8
0
 62
6
 10
2.38119508E+02
 20
-2.04561259E+02
  0
VERTEX
  8
0
 62
6
 10
2.38023029E+02
 20
-2.04474195E+02
  0
VERTEX
  8
0
 62
6
 10
2.37919213E+02
 20
-2.04395744E+02
  0
VERTEX
  8
0
 62
6
 10
2.37808848E+02
 20
-2.04326502E+02
  0
VERTEX
  8
0
 62
6
 10
2.37692775E+02
 20
-2.04266997E+02
  0
VERTEX
  8
0
 62
6
 10
2.37571878E+02
 20
-2.04217680E+02
  0
VERTEX
  8
0
 62
6
 10
2.37447077E+02
 20
-2.04178928E+02
  0
VERTEX
  8
0
 62
6
 10
2.37319320E+02
 20
-2.04151036E+02
  0
VERTEX
  8
0
 62
6
 10
2.37189582E+02
 20
-2.04134215E+02
  0
VERTEX
  8
0
 62
6
 10
2.37058848E+02
 20
-2.04128593E+02
  0
VERTEX
  8
0
 62
6
 10
2.36928114E+02
 20
-2.04134215E+02
  0
VERTEX
  8
0
 62
6
 10
2.36798376E+02
 20
-2.04151036E+02
  0
VERTEX
  8
0
 62
6
 10
2.36670619E+02
 20
-2.04178928E+02
  0
VERTEX
  8
0
 62
6
 10
2.36545818E+02
 20
-2.04217680E+02
  0
VERTEX
  8
0
 62
6
 10
2.36424921E+02
 20
-2.04266997E+02
  0
VERTEX
  8
0
 62
6
 10
2.36308848E+02
 20
-2.04326502E+02
  0
VERTEX
  8
0
 62
6
 10
2.36198483E+02
 20
-2.04395744E+02
  0
VERTEX
  8
0
 62
6
 10
2.36094667E+02
 20
-2.04474195E+02
  0
VERTEX
  8
0
 62
6
 10
2.35998188E+02
 20
-2.04561259E+02
  0
VERTEX
  8
0
 62
6
 10
2.35909781E+02
 20
-2.04656272E+02
  0
VERTEX
  8
0
 62
6
 10
2.35830120E+02
 20
-2.04758511E+02
  0
VERTEX
  8
0
 62
6
 10
2.35759810E+02
 20
-2.04867199E+02
  0
VERTEX
  8
0
 62
6
 10
2.35699386E+02
 20
-2.04981508E+02
  0
VERTEX
  8
0
 62
6
 10
2.35649309E+02
 20
-2.05100569E+02
  0
VERTEX
  8
0
 62
6
 10
2.35609959E+02
 20
-2.05223474E+02
  0
VERTEX
  8
0
 62
6
 10
2.35581636E+02
 20
-2.05349290E+02
  0
VERTEX
  8
0
 62
6
 10
2.35564556E+02
 20
-2.05477058E+02
  0
VERTEX
  8
0
 62
6
 10
2.35558848E+02
 20
-2.05605805E+02
  0
VERTEX
  8
0
 62
6
 10
2.35564556E+02
 20
-2.05734552E+02
  0
VERTEX
  8
0
 62
6
 10
2.35581636E+02
 20
-2.05862320E+02
  0
VERTEX
  8
0
 62
6
 10
2.35609959E+02
 20
-2.05988136E+02
  0
VERTEX
  8
0
 62
6
 10
2.35649309E+02
 20
-2.06111041E+02
  0
VERTEX
  8
0
 62
6
 10
2.35699386E+02
 20
-2.06230102E+02
  0
VERTEX
  8
0
 62
6
 10
2.35759810E+02
 20
-2.06344411E+02
  0
VERTEX
  8
0
 62
6
 10
2.35830120E+02
 20
-2.06453099E+02
  0
VERTEX
  8
0
 62
6
 10
2.35909781E+02
 20
-2.06555338E+02
  0
VERTEX
  8
0
 62
6
 10
2.35998188E+02
 20
-2.06650351E+02
  0
VERTEX
  8
0
 62
6
 10
2.36094667E+02
 20
-2.06737415E+02
  0
VERTEX
  8
0
 62
6
 10
2.36198483E+02
 20
-2.06815866E+02
  0
VERTEX
  8
0
 62
6
 10
2.36308848E+02
 20
-2.06885108E+02
  0
VERTEX
  8
0
 62
6
 10
2.36424921E+02
 20
-2.06944613E+02
  0
VERTEX
  8
0
 62
6
 10
2.36545818E+02
 20
-2.06993930E+02
  0
VERTEX
  8
0
 62
6
 10
2.36670619E+02
 20
-2.07032682E+02
  0
VERTEX
  8
0
 62
6
 10
2.36798376E+02
 20
-2.07060574E+02
  0
VERTEX
  8
0
 62
6
 10
2.36928114E+02
 20
-2.07077395E+02
  0
VERTEX
  8
0
 62
6
 10
2.37058848E+02
 20
-2.07083017E+02
  0
VERTEX
  8
0
 62
6
 10
2.37189582E+02
 20
-2.07077395E+02
  0
VERTEX
  8
0
 62
6
 10
2.37319320E+02
 20
-2.07060574E+02
  0
VERTEX
  8
0
 62
6
 10
2.37447077E+02
 20
-2.07032682E+02
  0
VERTEX
  8
0
 62
6
 10
2.37571878E+02
 20
-2.06993930E+02
  0
VERTEX
  8
0
 62
6
 10
2.37692775E+02
 20
-2.06944613E+02
  0
VERTEX
  8
0
 62
6
 10
2.37808848E+02
 20
-2.06885108E+02
  0
VERTEX
  8
0
 62
6
 10
2.37919213E+02
 20
-2.06815866E+02
  0
VERTEX
  8
0
 62
6
 10
2.38023029E+02
 20
-2.06737415E+02
  0
VERTEX
  8
0
 62
6
 10
2.38119508E+02
 20
-2.06650351E+02
  0
VERTEX
  8
0
 62
6
 10
2.38207915E+02
 20
-2.06555338E+02
  0
VERTEX
  8
0
 62
6
 10
2.38287576E+02
 20
-2.06453099E+02
  0
VERTEX
  8
0
 62
6
 10
2.38357886E+02
 20
-2.06344411E+02
  0
VERTEX
  8
0
 62
6
 10
2.38418310E+02
 20
-2.06230102E+02
  0
VERTEX
  8
0
 62
6
 10
2.38468387E+02
 20
-2.06111041E+02
  0
VERTEX
  8
0
 62
6
 10
2.38507737E+02
 20
-2.05988135E+02
  0
VERTEX
  8
0
 62
6
 10
2.38536060E+02
 20
-2.05862320E+02
  0
VERTEX
  8
0
 62
6
 10
2.38553140E+02
 20
-2.05734552E+02
  0
VERTEX
  8
0
 62
6
 10
2.38558848E+02
 20
-2.05605805E+02
  0
SEQEND
  8
0
  0
POLYLINE
  8
0
 62
4
 66
1
  0
VERTEX
  8
0
 62
4
 10
2.31058848E+02
 20
-2.05236108E+02
  0
VERTEX
  8
0
 62
4
 10
2.31050988E+02
 20
-2.05062092E+02
  0
VERTEX
  8
0
 62
4
 10
2.31027468E+02
 20
-2.04889444E+02
  0
VERTEX
  8
0
 62
4
 10
2.30988475E+02
 20
-2.04719521E+02
  0
VERTEX
  8
0
 62
4
 10
2.30934314E+02
 20
-2.04553658E+02
  0
VERTEX
  8
0
 62
4
 10
2.30865411E+02
 20
-2.04393160E+02
  0
VERTEX
  8
0
 62
4
 10
2.30782308E+02
 20
-2.04239288E+02
  0
VERTEX
  8
0
 62
4
 10
2.30685658E+02
 20
-2.04093251E+02
  0
VERTEX
  8
0
 62
4
 10
2.30576220E+02
 20
-2.03956197E+02
  0
VERTEX
  8
0
 62
4
 10
2.30454856E+02
 20
-2.03829204E+02
  0
VERTEX
  8
0
 62
4
 10
2.30322518E+02
 20
-2.03713270E+02
  0
VERTEX
  8
0
 62
4
 10
2.30180247E+02
 20
-2.03609306E+02
  0
VERTEX
  8
0
 62
4
 10
2.30029162E+02
 20
-2.03518129E+02
  0
VERTEX
  8
0
 62
4
 10
2.29870450E+02
 20
-2.03440456E+02
  0
VERTEX
  8
0
 62
4
 10
2.29705358E+02
 20
-2.03376897E+02
  0
VERTEX
  8
0
 62
4
 10
2.29535184E+02
 20
-2.03327953E+02
  0
VERTEX
  8
0
 62
4
 10
2.29361266E+02
 20
-2.03294007E+02
  0
VERTEX
  8
0
 62
4
 10
2.29184971E+02
 20
-2.03275327E+02
  0
VERTEX
  8
0
 62
4
 10
2.29007685E+02
 20
-2.03272059E+02
  0
VERTEX
  8
0
 62
4
 10
2.28830801E+02
 20
-2.03284230E+02
  0
VERTEX
  8
0
 62
4
 10
2.28655709E+02
 20
-2.03311743E+02
  0
VERTEX
  8
0
 62
4
 10
2.28483787E+02
 20
-2.03354383E+02
  0
VERTEX
  8
0
 62
4
 10
2.28316384E+02
 20
-2.03411813E+02
  0
VERTEX
  8
0
 62
4
 10
2.28154818E+02
 20
-2.03483583E+02
  0
VERTEX
  8
0
 62
4
 10
2.28000357E+02
 20
-2.03569129E+02
  0
VERTEX
  8
0
 62
4
 10
2.27854217E+02
 20
-2.03667777E+02
  0
VERTEX
  8
0
 62
4
 10
2.27717545E+02
 20
-2.03778754E+02
  0
VERTEX
  8
0
 62
4
 10
2.27591417E+02
 20
-2.03901185E+02
  0
VERTEX
  8
0
 62
4
 10
2.27476823E+02
 20
-2.04034110E+02
  0
VERTEX
  8
0
 62
4
 10
2.27374664E+02
 20
-2.04176483E+02
  0
VERTEX
  8
0
 62
4
 10
2.27285744E+02
 20
-2.04327185E+02
  0
VERTEX
  8
0
 62
4
 10
2.27210761E+02
 20
-2.04485031E+02
  0
VERTEX
  8
0
 62
4
 10
2.27150305E+02
 20
-2.04648781E+02
  0
VERTEX
  8
0
 62
4
 10
2.27104850E+02
 20
-2.04817148E+02
  0
VERTEX
  8
0
 62
4
 10
2.27074755E+02
 20
-2.04988807E+02
  0
VERTEX
  8
0
 62
4
 10
2.27060256E+02
 20
-2.05162411E+02
  0
VERTEX
  8
0
 62
4
 10
2.27061466E+02
 20
-2.05336594E+02
  0
SEQEND
  8
0
  0
POLYLINE
  8
0
 62
4
 66
1
  0
VERTEX
  8
0
 62
4
 10
2.30793848E+02
 20
-2.05610729E+02
  0
VERTEX
  8
0
 62
4
 10
2.30787246E+02
 20
-2.05461811E+02
  0
VERTEX
  8
0
 62
4
 10
2.30767489E+02
 20
-2.05314027E+02
  0
VERTEX
  8
0
 62
4
 10
2.30734729E+02
 20
-2.05168500E+02
  0
VERTEX
  8
0
 62
4
 10
2.30689215E+02
 20
-2.05026339E+02
  0
VERTEX
  8
0
 62
4
 10
2.30631292E+02
 20
-2.04888626E+02
  0
VERTEX
  8
0
 62
4
 10
2.30561402E+02
 20
-2.04756408E+02
  0
VERTEX
  8
0
 62
4
 10
2.30480077E+02
 20
-2.04630693E+02
  0
VERTEX
  8
0
 62
4
 10
2.30387935E+02
 20
-2.04512435E+02
  0
VERTEX
  8
0
 62
4
 10
2.30285678E+02
 20
-2.04402537E+02
  0
VERTEX
  8
0
 62
4
 10
2.30174085E+02
 20
-2.04301834E+02
  0
VERTEX
  8
0
 62
4
 10
2.30054003E+02
 20
-2.04211092E+02
  0
VERTEX
  8
0
 62
4
 10
2.29926348E+02
 20
-2.04131002E+02
  0
VERTEX
  8
0
 62
4
 10
2.29792091E+02
 20
-2.04062174E+02
  0
VERTEX
  8
0
 62
4
 10
2.29652253E+02
 20
-2.04005131E+02
  0
VERTEX
  8
0
 62
4
 10
2.29507899E+02
 20
-2.03960308E+02
  0
VERTEX
  8
0
 62
4
 10
2.29360128E+02
 20
-2.03928046E+02
  0
VERTEX
  8
0
 62
4
 10
2.29210063E+02
 20
-2.03908589E+02
  0
VERTEX
  8
0
 62
4
 10
2.29058848E+02
 20
-2.03902088E+02
  0
VERTEX
  8
0
 62
4
 10
2.28907633E+02
 20
-2.03908589E+02
  0
VERTEX
  8
0
 62
4
 10
2.28757568E+02
 20
-2.03928046E+02
  0
VERTEX
  8
0
 62
4
 10
2.28609797E+02
 20
-2.03960308E+02
  0
VERTEX
  8
0
 62
4
 10
2.28465443E+02
 20
-2.04005131E+02
  0
VERTEX
  8
0
 62
4
 10
2.28325605E+02
 20
-2.04062174E+02
  0
VERTEX
  8
0
 62
4
 10
2.28191348E+02
 20
-2.04131002E+02
  0
VERTEX
  8
0
 62
4
 10
2.28063693E+02
 20
-2.04211092E+02
  0
VERTEX
  8
0
 62
4
 10
2.27943611E+02
 20
-2.04301834E+02
  0
VERTEX
  8
0
 62
4
 10
2.27832018E+02
 20
-2.04402537E+02
  0
VERTEX
  8
0
 62
4
 10
2.27729761E+02
 20
-2.04512435E+02
  0
VERTEX
  8
0
 62
4
 10
2.27637619E+02
 20
-2.04630693E+02
  0
VERTEX
  8
0
 62
4
 10
2.27556294E+02
 20
-2.04756408E+02
  0
VERTEX
  8
0
 62
4
 10
2.27486404E+02
 20
-2.04888626E+02
  0
VERTEX
  8
0
 62
4
 10
2.27428481E+02
 20
-2.05026339E+02
  0
VERTEX
  8
0
 62
4
 10
2.27382967E+02
 20
-2.05168500E+02
  0
VERTEX
  8
0
 62
4
 10
2.27350207E+02
 20
-2.05314027E+02
  0
VERTEX
  8
0
 62
4
 10
2.27330450E+02
 20
-2.05461811E+02
  0
VERTEX
  8
0
 62
4
 10
2.27323848E+02
 20
-2.05610729E+02
  0
VERTEX
  8
0
 62
4
 10
2.27330450E+02
 20
-2.05759647E+02
  0
VERTEX
  8
0
 62
4
 10
2.27350207E+02
 20
-2.05907431E+02
  0
VERTEX
  8
0
 62
4
 10
2.27382967E+02
 20
-2.06052958E+02
  0
VERTEX
  8
0
 62
4
 10
2.27428481E+02
 20
-2.06195119E+02
  0
VERTEX
  8
0
 62
4
 10
2.27486404E+02
 20
-2.06332832E+02
  0
VERTEX
  8
0
 62
4
 10
2.27556294E+02
 20
-2.06465050E+02
  0
VERTEX
  8
0
 62
4
 10
2.27637619E+02
 20
-2.06590765E+02
  0
VERTEX
  8
0
 62
4
 10
2.27729761E+02
 20
-2.06709023E+02
  0
VERTEX
  8
0
 62
4
 10
2.27832018E+02
 20
-2.06818921E+02
  0
VERTEX
  8
0
 62
4
 10
2.27943611E+02
 20
-2.06919624E+02
  0
VERTEX
  8
0
 62
4
 10
2.28063693E+02
 20
-2.07010366E+02
  0
VERTEX
  8
0
 62
4
 10
2.28191348E+02
 20
-2.07090456E+02
  0
VERTEX
  8
0
 62
4
 10
2.28325605E+02
 20
-2.07159284E+02
  0
VERTEX
  8
0
 62
4
 10
2.28465443E+02
 20
-2.07216327E+02
  0
VERTEX
  8
0
 62
4
 10
2.28609797E+02
 20
-2.07261150E+02
  0
VERTEX
  8
0
 62
4
 10
2.28757568E+02
 20
-2.07293412E+02
  0
VERTEX
  8
0
 62
4
 10
2.28907633E+02
 20
-2.07312869E+02
  0
VERTEX
  8
0
 62
4
 10
2.29058848E+02
 20
-2.07319370E+02
  0
VERTEX
  8
0
 62
4
 10
2.29210063E+02
 20
-2.07312869E+02
  0
VERTEX
  8
0
 62
4
 10
2.29360128E+02
 20
-2.07293412E+02
  0
VERTEX
  8
0
 62
4
 10
2.29507899E+02
 20
-2.07261150E+02
  0
VERTEX
  8
0
 62
4
 10
2.29652253E+02
 20
-2.07216327E+02
  0
VERTEX
  8
0
 62
4
 10
2.29792091E+02
 20
-2.07159284E+02
  0
VERTEX
  8
0
 62
4
 10
2.29926348E+02
 20
-2.07090456E+02
  0
VERTEX
  8
0
 62
4
 10
2.30054003E+02
 20
-2.07010366E+02
  0
VERTEX
  8
0
 62
4
 10
2.30174085E+02
 20
-2.06919624E+02
  0
VERTEX
  8
0
 62
4
 10
2.30285678E+02
 20
-2.06818921E+02
  0
VERTEX
  8
0
 62
4
 10
2.30387935E+02
 20
-2.06709023E+02
  0
VERTEX
  8
0
 62
4
 10
2.30480077E+02
 20
-2.06590765E+02
  0
VERTEX
  8
0
 62
4
 10
2.30561402E+02
 20
-2.06465050E+02
  0
VERTEX
  8
0
 62
4
 10
2.30631292E+02
 20
-2.06332832E+02
  0
VERTEX
  8
0
 62
4
 10
2.30689215E+02
 20
-2.06195119E+02
  0
VERTEX
  8
0
 62
4
 10
2.30734729E+02
 20
-2.06052958E+02
  0
VERTEX
  8
0
 62
4
 10
2.30767489E+02
 20
-2.05907431E+02
  0
VERTEX
  8
0
 62
4
 10
2.30787246E+02
 20
-2.05759647E+02
  0
VERTEX
  8
0
 62
4
 10
2.30793848E+02
 20
-2.05610729E+02
  0
SEQEND
  8
0
  0
POLYLINE
  8
0
 62
4
 66
1
  0
VERTEX
  8
0
 62
4
 10
2.31058848E+02
 20
-2.05437081E+02
  0
VERTEX
  8
0
 62
4
 10
2.31051237E+02
 20
-2.05265847E+02
  0
VERTEX
  8
0
 62
4
 10
2.31028464E+02
 20
-2.05095916E+02
  0
VERTEX
  8
0
 62
4
 10
2.30990700E+02
 20
-2.04928581E+02
  0
VERTEX
  8
0
 62
4
 10
2.30938233E+02
 20
-2.04765117E+02
  0
VERTEX
  8
0
 62
4
 10
2.30871464E+02
 20
-2.04606767E+02
  0
VERTEX
  8
0
 62
4
 10
2.30790899E+02
 20
-2.04454735E+02
  0
VERTEX
  8
0
 62
4
 10
2.30697152E+02
 20
-2.04310180E+02
  0
VERTEX
  8
0
 62
4
 10
2.30590937E+02
 20
-2.04174202E+02
  0
VERTEX
  8
0
 62
4
 10
2.30473062E+02
 20
-2.04047834E+02
  0
VERTEX
  8
0
 62
4
 10
2.30344423E+02
 20
-2.03932040E+02
  0
VERTEX
  8
0
 62
4
 10
2.30206001E+02
 20
-2.03827700E+02
  0
VERTEX
  8
0
 62
4
 10
2.30058848E+02
 20
-2.03735608E+02
  0
VERTEX
  8
0
 62
4
 10
2.29904085E+02
 20
-2.03656466E+02
  0
VERTEX
  8
0
 62
4
 10
2.29742888E+02
 20
-2.03590875E+02
  0
VERTEX
  8
0
 62
4
 10
2.29576486E+02
 20
-2.03539335E+02
  0
VERTEX
  8
0
 62
4
 10
2.29406144E+02
 20
-2.03502238E+02
  0
VERTEX
  8
0
 62
4
 10
2.29233159E+02
 20
-2.03479866E+02
  0
VERTEX
  8
0
 62
4
 10
2.29058848E+02
 20
-2.03472390E+02
  0
VERTEX
  8
0
 62
4
 10
2.28884537E+02
 20
-2.03479866E+02
  0
VERTEX
  8
0
 62
4
 10
2.28711552E+02
 20
-2.03502238E+02
  0
VERTEX
  8
0
 62
4
 10
2.28541210E+02
 20
-2.03539335E+02
  0
VERTEX
  8
0
 62
4
 10
2.28374808E+02
 20
-2.03590875E+02
  0
VERTEX
  8
0
 62
4
 10
2.28213611E+02
 20
-2.03656466E+02
  0
VERTEX
  8
0
 62
4
 10
2.28058848E+02
 20
-2.03735608E+02
  0
VERTEX
  8
0
 62
4
 10
2.27911695E+02
 20
-2.03827700E+02
  0
VERTEX
  8
0
 62
4
 10
2.27773273E+02
 20
-2.03932040E+02
  0
VERTEX
  8
0
 62
4
 10
2.27644634E+02
 20
-2.04047834E+02
  0
VERTEX
  8
0
 62
4
 10
2.27526759E+02
 20
-2.04174202E+02
  0
VERTEX
  8
0
 62
4
 10
2.27420544E+02
 20
-2.04310180E+02
  0
VERTEX
  8
0
 62
4
 10
2.27326797E+02
 20
-2.04454735E+02
  0
VERTEX
  8
0
 62
4
 10
2.27246232E+02
 20
-2.04606767E+02
  0
VERTEX
  8
0
 62
4
 10
2.27179463E+02
 20
-2.04765117E+02
  0
VERTEX
  8
0
 62
4
 10
2.27126996E+02
 20
-2.04928581E+02
  0
VERTEX
  8
0
 62
4
 10
2.27089232E+02
 20
-2.05095916E+02
  0
VERTEX
  8
0
 62
4
 10
2.27066459E+02
 20
-2.05265847E+02
  0
VERTEX
  8
0
 62
4
 10
2.27058848E+02
 20
-2.05437081E+02
  0
VERTEX
  8
0
 62
4
 10
2.27066459E+02
 20
-2.05608315E+02
  0
VERTEX
  8
0
 62
4
 10
2.27089232E+02
 20
-2.05778246E+02
  0
VERTEX
  8
0
 62
4
 10
2.27126996E+02
 20
-2.05945581E+02
  0
VERTEX
  8
0
 62
4
 10
2.27179463E+02
 20
-2.06109045E+02
  0
VERTEX
  8
0
 62
4
 10
2.27246232E+02
 20
-2.06267395E+02
  0
VERTEX
  8
0
 62
4
 10
2.27326797E+02
 20
-2.06419427E+02
  0
VERTEX
  8
0
 62
4
 10
2.27420544E+02
 20
-2.06563982E+02
  0
VERTEX
  8
0
 62
4
 10
2.27526759E+02
 20
-2.06699960E+02
  0
VERTEX
  8
0
 62
4
 10
2.27644634E+02
 20
-2.06826328E+02
  0
VERTEX
  8
0
 62
4
 10
2.27773273E+02
 20
-2.06942122E+02
  0
VERTEX
  8
0
 62
4
 10
2.27911695E+02
 20
-2.07046462E+02
  0
VERTEX
  8
0
 62
4
 10
2.28058848E+02
 20
-2.07138554E+02
  0
VERTEX
  8
0
 62
4
 10
2.28213611E+02
 20
-2.07217696E+02
  0
VERTEX
  8
0
 62
4
 10
2.28374808E+02
 20
-2.07283287E+02
  0
VERTEX
  8
0
 62
4
 10
2.28541210E+02
 20
-2.07334827E+02
  0
VERTEX
  8
0
 62
4
 10
2.28711552E+02
 20
-2.07371924E+02
  0
VERTEX
  8
0
 62
4
 10
2.28884537E+02
 20
-2.07394296E+02
  0
VERTEX
  8
0
 62
4
 10
2.29058848E+02
 20
-2.07401772E+02
  0
VERTEX
  8
0
 62
4
 10
2.29233159E+02
 20
-2.07394296E+02
  0
VERTEX
  8
0
 62
4
 10
2.29406144E+02
 20
-2.07371924E+02
  0
VERTEX
  8
0
 62
4
 10
2.29576486E+02
 20
-2.07334827E+02
  0
VERTEX
  8
0
 62
4
 10
2.29742888E+02
 20
-2.07283287E+02
  0
VERTEX
  8
0
 62
4
 10
2.29904085E+02
 20
-2.07217696E+02
  0
VERTEX
  8
0
 62
4
 10
2.30058848E+02
 20
-2.07138554E+02
  0
VERTEX
  8
0
 62
4
 10
2.30206001E+02
 20
-2.07046462E+02
  0
VERTEX
  8
0
 62
4
 10
2.30344423E+02
 20
-2.06942122E+02
  0
VERTEX
  8
0
 62
4
 10
2.30473062E+02
 20
-2.06826328E+02
  0
VERTEX
  8
0
 62
4
 10
2.30590937E+02
 20
-2.06699960E+02
  0
VERTEX
  8
0
 62
4
 10
2.30697152E+02
 20
-2.06563982E+02
  0
VERTEX
  8
0
 62
4
 10
2.30790899E+02
 20
-2.06419427E+02
  0
VERTEX
  8
0
 62
4
 10
2.30871464E+02
 20
-2.06267395E+02
  0
VERTEX
  8
0
 62
4
 10
2.30938233E+02
 20
-2.06109045E+02
  0
VERTEX
  8
0
 62
4
 10
2.30990700E+02
 20
-2.05945581E+02
  0
VERTEX
  8
0
 62
4
 10
2.31028464E+02
 20
-2.05778246E+02
  0
VERTEX
  8
0
 62
4
 10
2.31051237E+02
 20
-2.05608315E+02
  0
VERTEX
  8
0
 62
4
 10
2.31058848E+02
 20
-2.05437081E+02
  0
SEQEND
  8
0
  0
POLYLINE
  8
0
 62
6
 66
1
  0
VERTEX
  8
0
 62
6
 10
2.30558848E+02
 20
-2.05605805E+02
  0
VERTEX
  8
0
 62
6
 10
2.30553140E+02
 20
-2.05477058E+02
  0
VERTEX
  8
0
 62
6
 10
2.30536060E+02
 20
-2.05349290E+02
  0
VERTEX
  8
0
 62
6
 10
2.30507737E+02
 20
-2.05223474E+02
  0
VERTEX
  8
0
 62
6
 10
2.30468387E+02
 20
-2.05100569E+02
  0
VERTEX
  8
0
 62
6
 10
2.30418310E+02
 20
-2.04981508E+02
  0
VERTEX
  8
0
 62
6
 10
2.30357886E+02
 20
-2.04867199E+02
  0
VERTEX
  8
0
 62
6
 10
2.30287576E+02
 20
-2.04758511E+02
  0
VERTEX
  8
0
 62
6
 10
2.30207915E+02
 20
-2.04656272E+02
  0
VERTEX
  8
0
 62
6
 10
2.30119508E+02
 20
-2.04561259E+02
  0
VERTEX
  8
0
 62
6
 10
2.30023029E+02
 20
-2.04474195E+02
  0
VERTEX
  8
0
 62
6
 10
2.29919213E+02
 20
-2.04395744E+02
  0
VERTEX
  8
0
 62
6
 10
2.29808848E+02
 20
-2.04326502E+02
  0
VERTEX
  8
0
 62
6
 10
2.29692775E+02
 20
-2.04266997E+02
  0
VERTEX
  8
0
 62
6
 10
2.29571878E+02
 20
-2.04217680E+02
  0
VERTEX
  8
0
 62
6
 10
2.29447077E+02
 20
-2.04178928E+02
  0
VERTEX
  8
0
 62
6
 10
2.29319320E+02
 20
-2.04151036E+02
  0
VERTEX
  8
0
 62
6
 10
2.29189582E+02
 20
-2.04134215E+02
  0
VERTEX
  8
0
 62
6
 10
2.29058848E+02
 20
-2.04128593E+02
  0
VERTEX
  8
0
 62
6
 10
2.28928114E+02
 20
-2.04134215E+02
  0
VERTEX
  8
0
 62
6
 10
2.28798376E+02
 20
-2.04151036E+02
  0
VERTEX
  8
0
 62
6
 10
2.28670619E+02
 20
-2.04178928E+02
  0
VERTEX
  8
0
 62
6
 10
2.28545818E+02
 20
-2.04217680E+02
  0
VERTEX
  8
0
 62
6
 10
2.28424921E+02
 20
-2.04266997E+02
  0
VERTEX
  8
0
 62
6
 10
2.28308848E+02
 20
-2.04326502E+02
  0
VERTEX
  8
0
 62
6
 10
2.28198483E+02
 20
-2.04395744E+02
  0
VERTEX
  8
0
 62
6
 10
2.28094667E+02
 20
-2.04474195E+02
  0
VERTEX
  8
0
 62
6
 10
2.27998188E+02
 20
-2.04561259E+02
  0
VERTEX
  8
0
 62
6
 10
2.27909781E+02
 20
-2.04656272E+02
  0
VERTEX
  8
0
 62
6
 10
2.27830120E+02
 20
-2.04758511E+02
  0
VERTEX
  8
0
 62
6
 10
2.27759810E+02
 20
-2.04867199E+02
  0
VERTEX
  8
0
 62
6
 10
2.27699386E+02
 20
-2.04981508E+02
  0
VERTEX
  8
0
 62
6
 10
2.27649309E+02
 20
-2.05100569E+02
  0
VERTEX
  8
0
 62
6
 10
2.27609959E+02
 20
-2.05223474E+02
  0
VERTEX
  8
0
 62
6
 10
2.27581636E+02
 20
-2.05349290E+02
  0
VERTEX
  8
0
 62
6
 10
2.27564556E+02
 20
-2.05477058E+02
  0
VERTEX
  8
0
 62
6
 10
2.27558848E+02
 20
-2.05605805E+02
  0
VERTEX
  8
0
 62
6
 10
2.27564556E+02
 20
-2.05734552E+02
  0
VERTEX
  8
0
 62
6
 10
2.27581636E+02
 20
-2.05862320E+02
  0
VERTEX
  8
0
 62
6
 10
2.27609959E+02
 20
-2.05988136E+02
  0
VERTEX
  8
0
 62
6
 10
2.27649309E+02
 20
-2.06111041E+02
  0
VERTEX
  8
0
 62
6
 10
2.27699386E+02
 20
-2.06230102E+02
  0
VERTEX
  8
0
 62
6
 10
2.27759810E+02
 20
-2.06344411E+02
  0
VERTEX
  8
0
 62
6
 10
2.27830120E+02
 20
-2.06453099E+02
  0
VERTEX
  8
0
 62
6
 10
2.27909781E+02
 20
-2.06555338E+02
  0
VERTEX
  8
0
 62
6
 10
2.27998188E+02
 20
-2.06650351E+02
  0
VERTEX
  8
0
 62
6
 10
2.28094667E+02
 20
-2.06737415E+02
  0
VERTEX
  8
0
 62
6
 10
2.28198483E+02
 20
-2.06815866E+02
  0
VERTEX
  8
0
 62
6
 10
2.28308848E+02
 20
-2.06885108E+02
  0
VERTEX
  8
0
 62
6
 10
2.28424921E+02
 20
-2.06944613E+02
  0
VERTEX
  8
0
 62
6
 10
2.28545818E+02
 20
-2.06993930E+02
  0
VERTEX
  8
0
 62
6
 10
2.28670619E+02
 20
-2.07032682E+02
  0
VERTEX
  8
0
 62
6
 10
2.28798376E+02
 20
-2.07060574E+02
  0
VERTEX
  8
0
 62
6
 10
2.28928114E+02
 20
-2.07077395E+02
  0
VERTEX
  8
0
 62
6
 10
2.29058848E+02
 20
-2.07083017E+02
  0
VERTEX
  8
0
 62
6
 10
2.29189582E+02
 20
-2.07077395E+02
  0
VERTEX
  8
0
 62
6
 10
2.29319320E+02
 20
-2.07060574E+02
  0
VERTEX
  8
0
 62
6
 10
2.29447077E+02
 20
-2.07032682E+02
  0
VERTEX
  8
0
 62
6
 10
2.29571878E+02
 20
-2.06993930E+02
  0
VERTEX
  8
0
 62
6
 10
2.29692775E+02
 20
-2.06944613E+02
  0
VERTEX
  8
0
 62
6
 10
2.29808848E+02
 20
-2.06885108E+02
  0
VERTEX
  8
0
 62
6
 10
2.29919213E+02
 20
-2.06815866E+02
  0
VERTEX
  8
0
 62
6
 10
2.30023029E+02
 20
-2.06737415E+02
  0
VERTEX
  8
0
 62
6
 10
2.30119508E+02
 20
-2.06650351E+02
  0
VERTEX
  8
0
 62
6
 10
2.30207915E+02
 20
-2.06555338E+02
  0
VERTEX
  8
0
 62
6
 10
2.30287576E+02
 20
-2.06453099E+02
  0
VERTEX
  8
0
 62
6
 10
2.30357886E+02
 20
-2.06344411E+02
  0
VERTEX
  8
0
 62
6
 10
2.30418310E+02
 20
-2.06230102E+02
  0
VERTEX
  8
0
 62
6
 10
2.30468387E+02
 20
-2.06111041E+02
  0
VERTEX
  8
0
 62
6
 10
2.30507737E+02
 20
-2.05988135E+02
  0
VERTEX
  8
0
 62
6
 10
2.30536060E+02
 20
-2.05862320E+02
  0
VERTEX
  8
0
 62
6
 10
2.30553140E+02
 20
-2.05734552E+02
  0
VERTEX
  8
0
 62
6
 10
2.30558848E+02
 20
-2.05605805E+02
  0
SEQEND
  8
0
  0
LINE
  8
0
 62
4
 10
2.09058848E+02
 20
-1.98091046E+02
 11
2.09058848E+02
 21
-1.99407727E+02
  0
LINE
  8
0
 62
4
 10
2.42058848E+02
 20
-1.98091046E+02
 11
2.42058848E+02
 21
-1.99407727E+02
  0
LINE
  8
0
 62
4
 10
2.42058848E+02
 20
-1.98094210E+02
 11
2.45058848E+02
 21
-1.94675924E+02
  0
LINE
  8
0
 62
4
 10
2.09058848E+02
 20
-1.98094210E+02
 11
2.06058848E+02
 21
-1.94675924E+02
  0
LINE
  8
0
  6
CENTER
 62
6
 10
2.37058848E+02
 20
-2.00612482E+02
 11
2.37058848E+02
 21
-2.10602482E+02
  0
LINE
  8
0
 62
4
 10
2.40558848E+02
 20
-1.74195188E+02
 11
2.25558848E+02
 21
-1.74195188E+02
  0
LINE
  8
0
 62
4
 10
2.40558848E+02
 20
-2.00035134E+02
 11
2.25558848E+02
 21
-2.00035134E+02
  0
LINE
  8
0
 62
4
 10
2.40558848E+02
 20
-1.47955079E+02
 11
2.25558848E+02
 21
-1.47955079E+02
  0
LINE
  8
0
 62
4
 10
2.25558848E+02
 20
-1.84070861E+02
 11
2.40558848E+02
 21
-1.84070861E+02
  0
LINE
  8
0
 62
4
 10
2.25558848E+02
 20
-2.10411395E+02
 11
2.40558848E+02
 21
-2.10411395E+02
  0
LINE
  8
0
 62
4
 10
2.40558848E+02
 20
-1.84070861E+02
 11
2.40558848E+02
 21
-2.10411395E+02
  0
LINE
  8
0
 62
4
 10
2.25558848E+02
 20
-1.84070861E+02
 11
2.25558848E+02
 21
-2.10411395E+02
  0
LINE
  8
0
  6
CENTER
 62
6
 10
2.29058848E+02
 20
-2.00612482E+02
 11
2.29058848E+02
 21
-2.10602482E+02
  0
LINE
  8
0
  6
CENTER
 62
6
 10
2.24058848E+02
 20
-2.05605805E+02
 11
2.42058848E+02
 21
-2.05605805E+02
  0
LINE
  8
0
 62
4
 10
2.53558848E+02
 20
-1.49415166E+02
 11
2.50058848E+02
 21
-1.49415166E+02
  0
LINE
  8
0
 62
4
 10
2.43558848E+02
 20
-1.79466523E+02
 11
2.07558848E+02
 21
-1.79466523E+02
  0
LINE
  8
0
 62
4
 10
2.60058848E+02
 20
-1.52601971E+02
 11
2.55058848E+02
 21
-1.52601971E+02
  0
LINE
  8
0
 62
4
 10
2.60058848E+02
 20
-1.59997877E+02
 11
2.55058848E+02
 21
-1.59997877E+02
  0
LINE
  8
0
 62
4
 10
2.40558848E+02
 20
-1.48165166E+02
 11
2.49558848E+02
 21
-1.48165166E+02
  0
LINE
  8
0
 62
4
 10
2.50058848E+02
 20
-1.48668308E+02
 11
2.50058848E+02
 21
-1.61668308E+02
  0
LINE
  8
0
 62
4
 10
2.60058848E+02
 20
-1.47780229E+02
 11
2.60058848E+02
 21
-1.62562193E+02
  0
LINE
  8
0
 62
4
 10
2.55058848E+02
 20
-1.47780229E+02
 11
2.55058848E+02
 21
-1.62562193E+02
  0
LINE
  8
0
 62
4
 10
2.55058848E+02
 20
-1.48915166E+02
 11
2.50058848E+02
 21
-1.48915166E+02
  0
LINE
  8
0
 62
4
 10
2.55058848E+02
 20
-1.61415166E+02
 11
2.50058848E+02
 21
-1.61415166E+02
  0
LINE
  8
0
 62
4
 10
2.53558848E+02
 20
-1.48915166E+02
 11
2.53558848E+02
 21
-1.61415166E+02
  0
LINE
  8
0
 62
4
 10
2.53558848E+02
 20
-1.60915166E+02
 11
2.50058848E+02
 21
-1.60915166E+02
  0
LINE
  8
0
 62
4
 10
2.49558848E+02
 20
-1.62165166E+02
 11
2.41058848E+02
 21
-1.62165166E+02
  0
LINE
  8
0
 62
4
 10
2.25558848E+02
 20
-1.98091046E+02
 11
2.09058848E+02
 21
-1.98091046E+02
  0
LINE
  8
0
 62
4
 10
2.60058848E+02
 20
-1.62562193E+02
 11
2.55058848E+02
 21
-1.62562193E+02
  0
LINE
  8
0
 62
4
 10
2.25558848E+02
 20
-1.94672760E+02
 11
2.06058848E+02
 21
-1.94672760E+02
  0
LINE
  8
0
 62
4
 10
2.25558848E+02
 20
-1.93195548E+02
 11
2.06058848E+02
 21
-1.93195548E+02
  0
LINE
  8
0
 62
4
 10
2.40558848E+02
 20
-1.50559802E+02
 11
2.25558848E+02
 21
-1.50559802E+02
  0
LINE
  8
0
 62
4
 10
2.42558848E+02
 20
-1.75527292E+02
 11
2.23558848E+02
 21
-1.75527292E+02
  0
LINE
  8
0
 62
4
 10
2.45058848E+02
 20
-1.77629071E+02
 11
2.45058848E+02
 21
-1.94672760E+02
  0
LINE
  8
0
 62
4
 10
2.45058848E+02
 20
-1.94672760E+02
 11
2.40558848E+02
 21
-1.94672760E+02
  0
LINE
  8
0
 62
4
 10
2.45058848E+02
 20
-1.93195548E+02
 11
2.40558848E+02
 21
-1.93195548E+02
  0
LINE
  8
0
 62
4
 10
2.42558848E+02
 20
-1.75527292E+02
 11
2.42558848E+02
 21
-1.79466523E+02
  0
LINE
  8
0
 62
4
 10
2.25558848E+02
 20
-1.47955079E+02
 11
2.25558848E+02
 21
-1.75527292E+02
  0
LINE
  8
0
 62
4
 10
2.40558848E+02
 20
-1.47955079E+02
 11
2.40558848E+02
 21
-1.75527292E+02
  0
LINE
  8
0
 62
4
 10
2.23558848E+02
 20
-1.75527292E+02
 11
2.23558848E+02
 21
-1.79466523E+02
  0
LINE
  8
0
 62
4
 10
2.06058848E+02
 20
-1.77629071E+02
 11
2.06058848E+02
 21
-1.94672760E+02
  0
LINE
  8
0
 62
4
 10
2.42058848E+02
 20
-1.98091046E+02
 11
2.40558848E+02
 21
-1.98091046E+02
  0
ARC
  8
0
 62
4
 10
2.49559347E+02
 20
-1.48664666E+02
 40
4.99500622E-01
 50
3.59942689E+02
 51
9.00573103E+01
  0
ARC
  8
0
 62
4
 10
2.41058348E+02
 20
-1.62664666E+02
 40
4.99500622E-01
 50
8.99426895E+01
 51
1.80057310E+02
  0
ARC
  8
0
 62
4
 10
2.07558348E+02
 20
-1.80966023E+02
 40
1.49950029E+00
 50
8.99809029E+01
 51
1.80019097E+02
  0
ARC
  8
0
 62
4
 10
2.49558348E+02
 20
-1.61664666E+02
 40
5.00500378E-01
 50
2.70057253E+02
 51
3.59942747E+02
  0
ARC
  8
0
 62
4
 10
2.43559348E+02
 20
-1.80966023E+02
 40
1.49950029E+00
 50
3.59980903E+02
 51
9.00190969E+01
  0
CIRCLE
  8
0
 62
7
 10
3.57499084E+01
 20
-2.02057744E+02
 40
2.45850000E+00
  0
CIRCLE
  8
0
 62
7
 10
8.27499008E+01
 20
-2.02057675E+02
 40
2.45850000E+00
  0
CIRCLE
  8
0
 62
7
 10
-3.16249969E+02
 20
-2.02057744E+02
 40
2.45850000E+00
  0
CIRCLE
  8
0
 62
7
 10
-2.69249977E+02
 20
-2.02057675E+02
 40
2.45850000E+00
  0
LINE
  8
0
 62
7
 10
2.82499084E+01
 20
-2.25557706E+02
 11
2.82499084E+01
 21
-1.98057751E+02
  0
LINE
  8
0
 62
7
 10
9.02498474E+01
 20
-2.25557706E+02
 11
9.02498474E+01
 21
-1.98057706E+02
  0
LINE
  8
0
 62
7
 10
7.12499390E+01
 20
-2.25557706E+02
 11
7.12499390E+01
 21
-2.18629502E+02
  0
LINE
  8
0
  6
CENTER
 62
2
 10
4.72499695E+01
 20
-1.92083432E+02
 11
4.72499695E+01
 21
-2.17895260E+02
  0
LINE
  8
0
  6
CENTER
 62
2
 10
8.27499084E+01
 20
-1.92079465E+02
 11
8.27499084E+01
 21
-2.11782094E+02
  0
LINE
  8
0
  6
CENTER
 62
2
 10
9.27030334E+01
 20
-2.02057744E+02
 11
7.30004578E+01
 21
-2.02057744E+02
  0
LINE
  8
0
 62
7
 10
3.17499390E+01
 20
-1.94557706E+02
 11
8.67498474E+01
 21
-1.94557706E+02
  0
LINE
  8
0
  6
CENTER
 62
2
 10
6.62499695E+01
 20
-1.92196042E+02
 11
6.62499695E+01
 21
-2.13786870E+02
  0
LINE
  8
0
  6
CENTER
 62
2
 10
3.57499084E+01
 20
-1.92504025E+02
 11
3.57499084E+01
 21
-2.09942074E+02
  0
LINE
  8
0
  6
CENTER
 62
2
 10
5.92499390E+01
 20
-1.90797055E+02
 11
5.92499390E+01
 21
-2.25557706E+02
  0
LINE
  8
0
  6
CENTER
 62
2
 10
9.38977966E+01
 20
-2.25557706E+02
 11
2.47348633E+01
 21
-2.25557706E+02
  0
LINE
  8
0
  6
CENTER
 62
2
 10
4.51369934E+01
 20
-2.02057744E+02
 11
2.60173035E+01
 21
-2.02057744E+02
  0
CIRCLE
  8
0
 62
7
 10
8.27499084E+01
 20
-2.02057744E+02
 40
5.00000000E+00
  0
ARC
  8
0
 62
7
 10
8.67498474E+01
 20
-1.98057706E+02
 40
3.50000000E+00
 50
0.00000000E+00
 51
8.99999818E+01
  0
CIRCLE
  8
0
 62
7
 10
8.27499084E+01
 20
-2.02057744E+02
 40
4.50000000E+00
  0
CIRCLE
  8
0
 62
7
 10
3.57499084E+01
 20
-2.02057683E+02
 40
5.00000000E+00
  0
ARC
  8
0
 62
7
 10
3.17499390E+01
 20
-1.98057751E+02
 40
3.50000000E+00
 50
9.00000231E+01
 51
1.79999977E+02
  0
CIRCLE
  8
0
 62
7
 10
3.57499084E+01
 20
-2.02057683E+02
 40
4.50000000E+00
  0
CIRCLE
  8
0
 62
2
 10
3.57499084E+01
 20
-2.02057744E+02
 40
3.00000000E+00
  0
CIRCLE
  8
0
 62
2
 10
8.27499084E+01
 20
-2.02057744E+02
 40
3.00000000E+00
  0
ARC
  8
0
 62
7
 10
5.92499390E+01
 20
-2.25557706E+02
 40
1.51499939E+01
 50
0.00000000E+00
 51
1.80000000E+02
  0
ARC
  8
0
 62
7
 10
5.92499390E+01
 20
-2.25557706E+02
 40
8.00000000E+00
 50
0.00000000E+00
 51
1.80000000E+02
  0
ARC
  8
0
 62
2
 10
5.92499390E+01
 20
-2.25557706E+02
 40
7.18000031E+00
 50
0.00000000E+00
 51
1.80000000E+02
  0
ARC
  8
0
 62
7
 10
5.92499390E+01
 20
-2.25557706E+02
 40
6.99996141E+00
 50
0.00000000E+00
 51
1.80000000E+02
  0
ARC
  8
0
 62
7
 10
5.92499390E+01
 20
-2.25557706E+02
 40
6.49999237E+00
 50
0.00000000E+00
 51
1.80000000E+02
  0
ARC
  8
0
 62
7
 10
5.92499390E+01
 20
-2.25557706E+02
 40
1.20000000E+01
 50
0.00000000E+00
 51
1.80000000E+02
  0
LINE
  8
0
 62
7
 10
5.92499390E+01
 20
-2.11701299E+02
 11
4.72499390E+01
 21
-2.18629502E+02
  0
LINE
  8
0
 62
7
 10
4.72499390E+01
 20
-2.18629502E+02
 11
4.72499390E+01
 21
-2.25557706E+02
  0
LINE
  8
0
 62
7
 10
7.12499390E+01
 20
-2.18629502E+02
 11
5.92499390E+01
 21
-2.11701299E+02
  0
LINE
  8
0
 62
7
 10
5.57858396E+01
 20
-2.20057713E+02
 11
6.27140384E+01
 21
-2.20057713E+02
  0
LINE
  8
0
 62
7
 10
5.37499637E+01
 20
-2.22093579E+02
 11
5.37499637E+01
 21
-2.25557706E+02
  0
LINE
  8
0
 62
7
 10
6.47499142E+01
 20
-2.22093579E+02
 11
6.47499142E+01
 21
-2.25557706E+02
  0
TEXT
  8
0
 62
7
 10
2.77828819E+02
 20
-2.35266619E+00
 40
6.30000019E+00
  1
925
 41
1.00000000E+00
  7
MONOTXT
  0
TEXT
  8
0
 62
7
 10
2.46328819E+02
 20
-2.35266619E+00
 40
6.30000019E+00
  1
825
 41
1.00000000E+00
  7
MONOTXT
  0
TEXT
  8
0
 62
7
 10
2.14828819E+02
 20
-2.35266619E+00
 40
6.30000019E+00
  1
725
 41
1.00000000E+00
  7
MONOTXT
  0
TEXT
  8
0
 62
7
 10
1.83328819E+02
 20
-2.35266619E+00
 40
6.30000019E+00
  1
625
 41
1.00000000E+00
  7
MONOTXT
  0
TEXT
  8
0
 62
7
 10
1.51828819E+02
 20
-2.35266619E+00
 40
6.30000019E+00
  1
525
 41
1.00000000E+00
  7
MONOTXT
  0
TEXT
  8
0
 62
7
 10
1.20328819E+02
 20
-2.35266619E+00
 40
6.30000019E+00
  1
425
 41
1.00000000E+00
  7
MONOTXT
  0
TEXT
  8
0
 62
7
 10
8.88288188E+01
 20
-2.35266619E+00
 40
6.30000019E+00
  1
375
 41
1.00000000E+00
  7
MONOTXT
  0
TEXT
  8
0
 62
7
 10
5.73288188E+01
 20
-2.35266619E+00
 40
6.30000019E+00
  1
325
 41
1.00000000E+00
  7
MONOTXT
  0
TEXT
  8
0
 62
7
 10
2.58288188E+01
 20
-2.35266619E+00
 40
6.30000019E+00
  1
275
 41
1.00000000E+00
  7
MONOTXT
  0
TEXT
  8
0
 62
7
 10
-5.67118119E+00
 20
-2.35266619E+00
 40
6.30000019E+00
  1
225
 41
1.00000000E+00
  7
MONOTXT
  0
TEXT
  8
0
 62
7
 10
-3.71711812E+01
 20
-2.35266619E+00
 40
6.30000019E+00
  1
175
 41
1.00000000E+00
  7
MONOTXT
  0
TEXT
  8
0
 62
7
 10
-6.86711812E+01
 20
-2.35266619E+00
 40
6.30000019E+00
  1
125
 41
1.00000000E+00
  7
MONOTXT
  0
TEXT
  8
0
 62
7
 10
-9.70211811E+01
 20
-2.35266619E+00
 40
6.30000019E+00
  1
75
 41
1.00000000E+00
  7
MONOTXT
  0
TEXT
  8
0
 62
7
 10
-1.28521181E+02
 20
-2.35266619E+00
 40
6.30000019E+00
  1
25
 41
1.00000000E+00
  7
MONOTXT
  0
TEXT
  8
0
 62
7
 10
-1.56871181E+02
 20
-2.35266619E+00
 40
6.30000019E+00
  1
0
 41
1.00000000E+00
  7
MONOTXT
  0
TEXT
  8
0
 62
7
 10
-1.94671181E+02
 20
-2.35266619E+00
 40
6.30000019E+00
  1
-25
 41
1.00000000E+00
  7
MONOTXT
  0
TEXT
  8
0
 62
7
 10
2.74678819E+02
 20
7.64733380E+00
 40
6.30000019E+00
  1
1000
 41
1.00000000E+00
  7
MONOTXT
  0
TEXT
  8
0
 62
7
 10
2.46328819E+02
 20
7.64733380E+00
 40
6.30000019E+00
  1
900
 41
1.00000000E+00
  7
MONOTXT
  0
TEXT
  8
0
 62
7
 10
2.14828819E+02
 20
7.64733380E+00
 40
6.30000019E+00
  1
800
 41
1.00000000E+00
  7
MONOTXT
  0
TEXT
  8
0
 62
7
 10
1.83328819E+02
 20
7.64733380E+00
 40
6.30000019E+00
  1
700
 41
1.00000000E+00
  7
MONOTXT
  0
TEXT
  8
0
 62
7
 10
1.51828819E+02
 20
7.64733380E+00
 40
6.30000019E+00
  1
600
 41
1.00000000E+00
  7
MONOTXT
  0
TEXT
  8
0
 62
7
 10
1.20328819E+02
 20
7.64733380E+00
 40
6.30000019E+00
  1
500
 41
1.00000000E+00
  7
MONOTXT
  0
TEXT
  8
0
 62
7
 10
8.88288188E+01
 20
7.64733380E+00
 40
6.30000019E+00
  1
450
 41
1.00000000E+00
  7
MONOTXT
  0
TEXT
  8
0
 62
7
 10
5.73288188E+01
 20
7.64733380E+00
 40
6.30000019E+00
  1
400
 41
1.00000000E+00
  7
MONOTXT
  0
TEXT
  8
0
 62
7
 10
2.58288188E+01
 20
7.64733380E+00
 40
6.30000019E+00
  1
350
 41
1.00000000E+00
  7
MONOTXT
  0
TEXT
  8
0
 62
7
 10
-5.67118119E+00
 20
7.64733380E+00
 40
6.30000019E+00
  1
300
 41
1.00000000E+00
  7
MONOTXT
  0
TEXT
  8
0
 62
7
 10
-3.71711812E+01
 20
7.64733380E+00
 40
6.30000019E+00
  1
250
 41
1.00000000E+00
  7
MONOTXT
  0
TEXT
  8
0
 62
7
 10
-6.86711812E+01
 20
7.64733380E+00
 40
6.30000019E+00
  1
200
 41
1.00000000E+00
  7
MONOTXT
  0
TEXT
  8
0
 62
7
 10
-1.00171181E+02
 20
7.64733380E+00
 40
6.30000019E+00
  1
150
 41
1.00000000E+00
  7
MONOTXT
  0
TEXT
  8
0
 62
7
 10
-1.31671181E+02
 20
7.64733380E+00
 40
6.30000019E+00
  1
100
 41
1.00000000E+00
  7
MONOTXT
  0
TEXT
  8
0
 62
7
 10
-1.60021181E+02
 20
7.64733380E+00
 40
6.30000019E+00
  1
75
 41
1.00000000E+00
  7
MONOTXT
  0
TEXT
  8
0
 62
7
 10
-1.91521181E+02
 20
7.64733380E+00
 40
6.30000019E+00
  1
50
 41
1.00000000E+00
  7
MONOTXT
  0
LINE
  8
0
 62
7
 10
3.02339757E+02
 20
-4.20266610E+00
 11
3.02339757E+02
 21
1.57973339E+01
  0
LINE
  8
0
 62
7
 10
2.70839757E+02
 20
-4.20266610E+00
 11
2.70839757E+02
 21
1.57973339E+01
  0
LINE
  8
0
 62
7
 10
2.39339757E+02
 20
-4.20266610E+00
 11
2.39339757E+02
 21
1.57973339E+01
  0
LINE
  8
0
 62
7
 10
2.07839757E+02
 20
-4.20266610E+00
 11
2.07839757E+02
 21
1.57973339E+01
  0
LINE
  8
0
 62
7
 10
1.76339757E+02
 20
-4.20266610E+00
 11
1.76339757E+02
 21
1.57973339E+01
  0
LINE
  8
0
 62
7
 10
1.44839757E+02
 20
-4.20266610E+00
 11
1.44839757E+02
 21
1.57973339E+01
  0
LINE
  8
0
 62
7
 10
1.13339757E+02
 20
-4.20266610E+00
 11
1.13339757E+02
 21
1.57973339E+01
  0
LINE
  8
0
 62
7
 10
8.18397565E+01
 20
-4.20266610E+00
 11
8.18397565E+01
 21
1.57973339E+01
  0
LINE
  8
0
 62
7
 10
5.03397565E+01
 20
-4.20266610E+00
 11
5.03397565E+01
 21
1.57973339E+01
  0
LINE
  8
0
 62
7
 10
1.88397565E+01
 20
-4.20266610E+00
 11
1.88397565E+01
 21
1.57973339E+01
  0
LINE
  8
0
 62
7
 10
-1.26602435E+01
 20
-4.20266610E+00
 11
-1.26602435E+01
 21
1.57973339E+01
  0
LINE
  8
0
 62
7
 10
-4.41602435E+01
 20
-4.20266610E+00
 11
-4.41602435E+01
 21
1.57973339E+01
  0
LINE
  8
0
 62
7
 10
-7.56602435E+01
 20
-4.20266610E+00
 11
-7.56602435E+01
 21
1.57973339E+01
  0
LINE
  8
0
 62
7
 10
-1.07160243E+02
 20
-4.20266610E+00
 11
-1.07160243E+02
 21
1.57973339E+01
  0
LINE
  8
0
 62
7
 10
-1.38660243E+02
 20
-4.20266610E+00
 11
-1.38660243E+02
 21
1.57973339E+01
  0
LINE
  8
0
 62
7
 10
-1.70160243E+02
 20
-4.20266610E+00
 11
-1.70160243E+02
 21
1.57973339E+01
  0
LINE
  8
0
 62
7
 10
-2.52060244E+02
 20
5.79733391E+00
 11
3.02339757E+02
 21
5.79733391E+00
  0
LINE
  8
0
 62
7
 10
-2.52060243E+02
 20
-4.20266610E+00
 11
-2.52060243E+02
 21
1.57973339E+01
  0
LINE
  8
0
 62
7
 10
-2.52060244E+02
 20
1.57973339E+01
 11
3.02339757E+02
 21
1.57973339E+01
  0
LINE
  8
0
 62
7
 10
-2.52060244E+02
 20
-4.20266609E+00
 11
3.02339757E+02
 21
-4.20266609E+00
  0
LINE
  8
0
 62
7
 10
-2.01660243E+02
 20
-4.20266610E+00
 11
-2.01660243E+02
 21
1.57973339E+01
  0
TEXT
  8
0
 62
7
 10
-2.45071181E+02
 20
7.64733380E+00
 40
6.30000019E+00
  1
STROKE
 41
1.00000000E+00
  7
MONOTXT
  0
TEXT
  8
0
 62
7
 10
-2.48221181E+02
 20
-2.35266619E+00
 40
6.30000019E+00
  1
STRETCH
 41
1.00000000E+00
  7
MONOTXT
  0
TEXT
  8
0
 62
7
 10
-1.19711821E+01
 20
2.06473338E+01
 40
6.30000019E+00
  1
STRETCH LIST
 41
1.05263158E+00
  7
MONOTXT
  0
TEXT
  8
0
 62
7
 10
2.77628819E+02
 20
2.06473338E+01
 40
6.30000019E+00
  1
(mm)
 41
1.00000000E+00
  7
MONOTXT
  0
LINE
  8
0
 62
7
 10
-4.00030138E+01
 20
-2.04707715E+02
 11
-1.04249985E+02
 21
-2.04707715E+02
  0
LINE
  8
0
 62
7
 10
-3.69430644E+01
 20
-1.99407727E+02
 11
-1.04249985E+02
 21
-1.99407727E+02
  0
LINE
  8
0
 62
7
 10
-3.64523220E+01
 20
-1.98557736E+02
 11
-1.04250000E+02
 21
-1.98557736E+02
  0
LINE
  8
0
 62
7
 10
-6.76292013E+01
 20
-1.12557675E+02
 11
-1.04250000E+02
 21
-1.12557675E+02
  0
LINE
  8
0
 62
7
 10
-6.71384589E+01
 20
-1.11707684E+02
 11
-1.04249985E+02
 21
-1.11707684E+02
  0
LINE
  8
0
 62
7
 10
-6.40785095E+01
 20
-1.06407696E+02
 11
-1.04249985E+02
 21
-1.06407696E+02
  0
LINE
  8
0
 62
7
 10
-9.62499945E+01
 20
-6.47077147E+01
 11
-1.04249985E+02
 21
-6.47077147E+01
  0
LINE
  8
0
 62
7
 10
-9.62499945E+01
 20
-5.94077269E+01
 11
-1.04249985E+02
 21
-5.94077269E+01
  0
LINE
  8
0
 62
7
 10
-9.62499945E+01
 20
-5.85577361E+01
 11
-1.04250000E+02
 21
-5.85577361E+01
  0
LINE
  8
0
 62
2
 10
-1.72249969E+02
 20
-2.17377713E+02
 11
-1.63249969E+02
 21
-2.17377713E+02
  0
LINE
  8
0
 62
7
 10
-1.72249969E+02
 20
-2.16557706E+02
 11
-1.63249969E+02
 21
-2.16557706E+02
  0
LINE
  8
0
 62
2
 10
-1.72249969E+02
 20
-9.37376982E+01
 11
-1.63249969E+02
 21
-9.37376982E+01
  0
LINE
  8
0
 62
7
 10
-1.72249969E+02
 20
-9.45577056E+01
 11
-1.63249969E+02
 21
-9.45577056E+01
  0
LINE
  8
0
 62
2
 10
-1.72249969E+02
 20
-7.73777129E+01
 11
-1.63249969E+02
 21
-7.73777129E+01
  0
LINE
  8
0
 62
7
 10
-1.72249969E+02
 20
-7.65577056E+01
 11
-1.63249969E+02
 21
-7.65577056E+01
  0
ARC
  8
0
 62
4
 10
-1.91746362E+02
 20
-9.23077056E+01
 40
1.94963929E+01
 50
3.39743842E+02
 51
2.02561580E+01
  0
ARC
  8
0
 62
4
 10
-1.91746362E+02
 20
-7.88077056E+01
 40
1.94963929E+01
 50
3.39743842E+02
 51
2.02561580E+01
  0
ARC
  8
0
 62
4
 10
-1.63753577E+02
 20
-7.88077056E+01
 40
1.94963929E+01
 50
1.59743842E+02
 51
2.00256158E+02
  0
ARC
  8
0
 62
4
 10
-1.63753577E+02
 20
-9.23077056E+01
 40
1.94963929E+01
 50
1.59743842E+02
 51
2.00256158E+02
  0
LINE
  8
0
 62
4
 10
-1.73455741E+02
 20
-8.55577056E+01
 11
-1.82044198E+02
 21
-8.55577056E+01
  0
LINE
  8
0
 62
4
 10
-1.72249969E+02
 20
-9.90577056E+01
 11
-1.83249969E+02
 21
-9.90577056E+01
  0
LINE
  8
0
 62
4
 10
-1.72249969E+02
 20
-7.20577056E+01
 11
-1.83249969E+02
 21
-7.20577056E+01
  0
LINE
  8
0
 62
4
 10
-1.83249969E+02
 20
-7.20577056E+01
 11
-1.83249969E+02
 21
-9.90577056E+01
  0
LINE
  8
0
 62
4
 10
-1.72249969E+02
 20
-7.20577056E+01
 11
-1.72249969E+02
 21
-9.90577056E+01
  0
LINE
  8
0
 62
4
 10
-1.72249969E+02
 20
-2.25557706E+02
 11
-1.72249969E+02
 21
-2.12057706E+02
  0
LINE
  8
0
 62
4
 10
-1.83249969E+02
 20
-2.25557706E+02
 11
-1.83249969E+02
 21
-2.12057706E+02
  0
ARC
  8
0
 62
4
 10
-1.57455741E+02
 20
-2.25557706E+02
 40
2.57942282E+01
 50
1.62412046E+02
 51
1.80000000E+02
  0
ARC
  8
0
 62
4
 10
-1.98044198E+02
 20
-2.25557706E+02
 40
2.57942282E+01
 50
2.54444375E-13
 51
1.75879541E+01
  0
ARC
  8
0
 62
4
 10
-1.79150691E+02
 20
-2.13866363E+02
 40
6.90072132E+00
 50
3.25615752E+02
 51
3.43842480E+01
  0
ARC
  8
0
 62
4
 10
-1.76349248E+02
 20
-2.13866363E+02
 40
6.90072132E+00
 50
1.45615752E+02
 51
2.14384248E+02
  0
LINE
  8
0
 62
4
 10
-1.73455741E+02
 20
-2.09969248E+02
 11
-1.72249969E+02
 21
-2.12057706E+02
  0
LINE
  8
0
 62
4
 10
-1.82044198E+02
 20
-2.09969248E+02
 11
-1.83249969E+02
 21
-2.12057706E+02
  0
LINE
  8
0
 62
4
 10
-1.82044198E+02
 20
-2.17763477E+02
 11
-1.73455741E+02
 21
-2.17763477E+02
  0
LINE
  8
0
 62
4
 10
-1.82044198E+02
 20
-2.09969248E+02
 11
-1.73455741E+02
 21
-2.09969248E+02
  0
LINE
  8
0
 62
4
 10
-2.79249939E+02
 20
-2.17763477E+02
 11
-2.92749939E+02
 21
-2.09969248E+02
  0
LINE
  8
0
 62
4
 10
-2.79249939E+02
 20
-2.25557706E+02
 11
-2.79249939E+02
 21
-2.17763477E+02
  0
LINE
  8
0
 62
4
 10
-3.06249939E+02
 20
-2.17763477E+02
 11
-3.06249939E+02
 21
-2.25557706E+02
  0
LINE
  8
0
 62
4
 10
-2.92749939E+02
 20
-2.09969248E+02
 11
-3.06249939E+02
 21
-2.17763477E+02
  0
ARC
  8
0
 62
4
 10
-2.92749939E+02
 20
-2.25557706E+02
 40
1.35000000E+01
 50
0.00000000E+00
 51
1.80000000E+02
  0
ARC
  8
0
 62
7
 10
-1.23384735E+02
 20
-7.65577971E+01
 40
1.00000000E+00
 50
9.00000025E+01
 51
1.61943198E+02
  0
ARC
  8
0
 62
7
 10
-1.17250031E+02
 20
-7.85578124E+01
 40
7.45249987E+00
 50
7.83882049E+01
 51
3.48893402E+02
  0
ARC
  8
0
 62
7
 10
-1.17250031E+02
 20
-7.85578124E+01
 40
8.75249958E+00
 50
8.01317183E+01
 51
3.50559511E+02
  0
ARC
  8
0
 62
2
 10
-1.17250031E+02
 20
-7.85578124E+01
 40
8.33099937E+00
 50
7.96270514E+01
 51
3.50077164E+02
  0
ARC
  8
0
 62
7
 10
-2.92749939E+02
 20
-2.25557706E+02
 40
7.49999237E+00
 50
0.00000000E+00
 51
1.80000000E+02
  0
ARC
  8
0
 62
2
 10
-2.92749939E+02
 20
-2.25557706E+02
 40
8.18000031E+00
 50
0.00000000E+00
 51
1.80000000E+02
  0
ARC
  8
0
 62
7
 10
-2.92749939E+02
 20
-2.25557706E+02
 40
8.99999237E+00
 50
0.00000000E+00
 51
1.80000000E+02
  0
ARC
  8
0
 62
7
 10
-1.61749969E+02
 20
-2.25557706E+02
 40
9.99998474E+00
 50
0.00000000E+00
 51
3.17883527E+01
  0
ARC
  8
0
 62
7
 10
-1.49750000E+02
 20
-2.09057744E+02
 40
5.00000000E-01
 50
9.00000369E+01
 51
1.80000019E+02
  0
ARC
  8
0
 62
7
 10
-1.45000000E+02
 20
-2.08549168E+02
 40
2.50000000E-01
 50
9.19988643E+01
 51
1.80000019E+02
  0
ARC
  8
0
 62
7
 10
-1.36750000E+02
 20
-2.07057706E+02
 40
5.00000000E-01
 50
9.00000369E+01
 51
1.80000019E+02
  0
CIRCLE
  8
0
 62
2
 10
-2.69249969E+02
 20
-2.02057744E+02
 40
3.00000000E+00
  0
CIRCLE
  8
0
 62
2
 10
-3.16249969E+02
 20
-2.02057744E+02
 40
3.00000000E+00
  0
CIRCLE
  8
0
 62
7
 10
-1.11250015E+02
 20
-9.75577513E+01
 40
2.59999990E+00
  0
ARC
  8
0
 62
7
 10
-1.11250015E+02
 20
-9.75577513E+01
 40
5.00000000E+00
 50
0.00000000E+00
 51
1.79999964E+02
  0
ARC
  8
0
 62
7
 10
-1.11250015E+02
 20
-9.75577513E+01
 40
5.00000000E+00
 50
1.79999977E+02
 51
1.00179127E-05
  0
ARC
  8
0
 62
7
 10
-2.92749939E+02
 20
-2.25557706E+02
 40
1.70000000E+01
 50
0.00000000E+00
 51
1.80000000E+02
  0
ARC
  8
0
 62
7
 10
-2.92749939E+02
 20
-2.25557706E+02
 40
1.90000000E+01
 50
0.00000000E+00
 51
1.80000000E+02
  0
ARC
  8
0
 62
7
 10
-2.92749939E+02
 20
-2.25557706E+02
 40
1.75294495E+01
 50
0.00000000E+00
 51
1.80000000E+02
  0
ARC
  8
0
 62
7
 10
-3.19750000E+02
 20
-2.15026349E+02
 40
1.00000000E+00
 50
9.71807714E+01
 51
1.79999964E+02
  0
ARC
  8
0
 62
7
 10
-3.16281372E+02
 20
-2.10057629E+02
 40
1.00000000E+00
 50
8.97744422E+01
 51
1.72820998E+02
  0
ARC
  8
0
 62
7
 10
-3.08250061E+02
 20
-2.02026311E+02
 40
1.00000000E+00
 50
9.71807714E+01
 51
1.80224650E+02
  0
ARC
  8
0
 62
7
 10
-3.03281342E+02
 20
-1.98557721E+02
 40
1.00000000E+00
 50
8.99999818E+01
 51
1.72818402E+02
  0
ARC
  8
0
 62
7
 10
-3.07250000E+02
 20
-1.98057690E+02
 40
3.00000000E+00
 50
2.70000018E+02
 51
3.52818957E+02
  0
ARC
  8
0
 62
7
 10
-3.20249939E+02
 20
-2.11057721E+02
 40
3.00000000E+00
 50
2.77180753E+02
 51
0.00000000E+00
  0
CIRCLE
  8
0
 62
7
 10
-3.16249969E+02
 20
-2.02057683E+02
 40
4.50000000E+00
  0
ARC
  8
0
 62
7
 10
-3.20249939E+02
 20
-1.98057751E+02
 40
3.50000000E+00
 50
9.00000231E+01
 51
1.79999977E+02
  0
ARC
  8
0
 62
7
 10
-3.20249939E+02
 20
-1.98057751E+02
 40
3.00000000E+00
 50
9.00000231E+01
 51
1.79999977E+02
  0
ARC
  8
0
 62
7
 10
-3.12186890E+02
 20
-2.08949147E+02
 40
1.00000000E+00
 50
4.50006194E+01
 51
1.20522431E+02
  0
ARC
  8
0
 62
7
 10
-3.16249969E+02
 20
-2.02057683E+02
 40
7.00000000E+00
 50
2.69775421E+02
 51
2.24686703E-01
  0
ARC
  8
0
 62
7
 10
-3.19750000E+02
 20
-2.23557698E+02
 40
1.00000000E+00
 50
1.79999964E+02
 51
2.69999946E+02
  0
ARC
  8
0
 62
7
 10
-2.94749969E+02
 20
-2.05657979E+02
 40
1.00000000E+00
 50
2.75739617E+02
 51
3.59999959E+02
  0
ARC
  8
0
 62
7
 10
-2.94749969E+02
 20
-1.98557736E+02
 40
1.00000000E+00
 50
3.59999959E+02
 51
8.99999956E+01
  0
ARC
  8
0
 62
7
 10
-3.09358521E+02
 20
-2.06120701E+02
 40
1.00000000E+00
 50
1.49477747E+02
 51
2.24999340E+02
  0
CIRCLE
  8
0
 62
7
 10
-3.16249969E+02
 20
-2.02057683E+02
 40
5.00000000E+00
  0
ARC
  8
0
 62
7
 10
-3.12649780E+02
 20
-2.23557698E+02
 40
1.00000000E+00
 50
2.69999963E+02
 51
3.54260510E+02
  0
ARC
  8
0
 62
7
 10
-3.05407013E+02
 20
-2.10072247E+02
 40
1.00000000E+00
 50
2.24999972E+02
 51
3.09260983E+02
  0
ARC
  8
0
 62
7
 10
-3.08235443E+02
 20
-2.12900677E+02
 40
1.00000000E+00
 50
3.20738994E+02
 51
4.49999910E+01
  0
ARC
  8
0
 62
7
 10
-1.28249969E+02
 20
-1.05557736E+02
 40
2.00000000E+00
 50
1.79999977E+02
 51
2.70000028E+02
  0
ARC
  8
0
 62
7
 10
-1.28249969E+02
 20
-6.55577361E+01
 40
2.00000000E+00
 50
8.99999818E+01
 51
1.79999964E+02
  0
ARC
  8
0
 62
7
 10
-2.82218597E+02
 20
-1.98557721E+02
 40
1.00000000E+00
 50
7.18156141E+00
 51
8.99999818E+01
  0
ARC
  8
0
 62
7
 10
-2.78249969E+02
 20
-1.98057690E+02
 40
3.00000000E+00
 50
1.87181024E+02
 51
2.70000018E+02
  0
ARC
  8
0
 62
7
 10
-2.77249969E+02
 20
-2.02026311E+02
 40
1.00000000E+00
 50
3.59775314E+02
 51
8.28191923E+01
  0
ARC
  8
0
 62
7
 10
-2.69250031E+02
 20
-2.02057683E+02
 40
7.00000000E+00
 50
1.79775278E+02
 51
2.70224550E+02
  0
ARC
  8
0
 62
7
 10
-2.69218658E+02
 20
-2.10057629E+02
 40
1.00000000E+00
 50
7.17896597E+00
 51
9.02255215E+01
  0
ARC
  8
0
 62
7
 10
-2.65250031E+02
 20
-2.11057721E+02
 40
3.00000000E+00
 50
1.79999977E+02
 51
2.62819232E+02
  0
ARC
  8
0
 62
7
 10
-2.65750031E+02
 20
-2.15026349E+02
 40
1.00000000E+00
 50
0.00000000E+00
 51
8.28191923E+01
  0
CIRCLE
  8
0
 62
7
 10
-2.69249969E+02
 20
-2.02057744E+02
 40
4.50000000E+00
  0
ARC
  8
0
 62
7
 10
-2.65250031E+02
 20
-1.98057706E+02
 40
3.50000000E+00
 50
0.00000000E+00
 51
8.99999818E+01
  0
ARC
  8
0
 62
7
 10
-2.76141357E+02
 20
-2.06120755E+02
 40
1.00000000E+00
 50
3.15000624E+02
 51
3.05224488E+01
  0
ARC
  8
0
 62
7
 10
-2.73312958E+02
 20
-2.08949147E+02
 40
1.00000000E+00
 50
5.94777518E+01
 51
1.34999345E+02
  0
CIRCLE
  8
0
 62
7
 10
-2.69249969E+02
 20
-2.02057744E+02
 40
5.00000000E+00
  0
ARC
  8
0
 62
7
 10
-2.90749969E+02
 20
-2.05657979E+02
 40
1.00000000E+00
 50
1.79999964E+02
 51
2.64260484E+02
  0
ARC
  8
0
 62
7
 10
-2.90749969E+02
 20
-1.98557736E+02
 40
1.00000000E+00
 50
8.99999818E+01
 51
1.79999964E+02
  0
ARC
  8
0
 62
7
 10
-2.65250031E+02
 20
-1.98057721E+02
 40
3.00000000E+00
 50
0.00000000E+00
 51
8.99999818E+01
  0
ARC
  8
0
 62
7
 10
-2.65750031E+02
 20
-2.23557698E+02
 40
1.00000000E+00
 50
2.69999963E+02
 51
0.00000000E+00
  0
ARC
  8
0
 62
7
 10
-1.49750000E+02
 20
-1.02057675E+02
 40
5.00000000E-01
 50
1.79999977E+02
 51
2.69999974E+02
  0
ARC
  8
0
 62
7
 10
-1.45000000E+02
 20
-1.02566250E+02
 40
2.50000000E-01
 50
1.79999977E+02
 51
2.68001132E+02
  0
ARC
  8
0
 62
7
 10
-1.36750000E+02
 20
-1.04057706E+02
 40
5.00000000E-01
 50
1.79999977E+02
 51
2.69999974E+02
  0
ARC
  8
0
 62
7
 10
-2.72850250E+02
 20
-2.23557721E+02
 40
1.00000000E+00
 50
1.85739458E+02
 51
2.69999963E+02
  0
ARC
  8
0
 62
7
 10
-2.80092926E+02
 20
-2.10072232E+02
 40
1.00000000E+00
 50
2.30738998E+02
 51
3.14999995E+02
  0
ARC
  8
0
 62
7
 10
-2.77264496E+02
 20
-2.12900654E+02
 40
1.00000000E+00
 50
1.34999959E+02
 51
2.19260957E+02
  0
ARC
  8
0
 62
7
 10
-1.36750000E+02
 20
-6.70577208E+01
 40
5.00000000E-01
 50
8.99999818E+01
 51
1.79999964E+02
  0
ARC
  8
0
 62
7
 10
-1.45000000E+02
 20
-6.85491606E+01
 40
2.50000000E-01
 50
9.19988093E+01
 51
1.79999964E+02
  0
ARC
  8
0
 62
7
 10
-1.49750000E+02
 20
-6.90577361E+01
 40
5.00000000E-01
 50
8.99999818E+01
 51
1.79999964E+02
  0
LINE
  8
0
 62
7
 10
-1.23384735E+02
 20
-7.55577971E+01
 11
-1.15749995E+02
 21
-7.55577971E+01
  0
LINE
  8
0
 62
7
 10
-1.63249969E+02
 20
-9.37376982E+01
 11
-1.60249969E+02
 21
-9.37376982E+01
  0
LINE
  8
0
 62
7
 10
-1.63249969E+02
 20
-7.73777129E+01
 11
-1.60249969E+02
 21
-7.73777129E+01
  0
LINE
  8
0
 62
7
 10
-1.53250066E+02
 20
-7.70576434E+01
 11
-1.51750036E+02
 21
-7.55576135E+01
  0
LINE
  8
0
 62
7
 10
-1.53250030E+02
 20
-9.40576946E+01
 11
-1.51750061E+02
 21
-9.55576638E+01
  0
LINE
  8
0
 62
7
 10
-1.60249969E+02
 20
-7.70577056E+01
 11
-1.53250015E+02
 21
-7.70577056E+01
  0
LINE
  8
0
 62
7
 10
-1.60249969E+02
 20
-9.40577056E+01
 11
-1.53250015E+02
 21
-9.40577056E+01
  0
LINE
  8
0
 62
7
 10
-1.60249969E+02
 20
-9.40577056E+01
 11
-1.60249969E+02
 21
-7.70577056E+01
  0
LINE
  8
0
 62
7
 10
-1.92250004E+02
 20
-9.30576294E+01
 11
-1.90749969E+02
 21
-9.45576189E+01
  0
LINE
  8
0
 62
2
 10
-1.91569916E+02
 20
-9.37376982E+01
 11
-1.83249969E+02
 21
-9.37376982E+01
  0
LINE
  8
0
 62
7
 10
-1.90749908E+02
 20
-9.45577056E+01
 11
-1.83249969E+02
 21
-9.45577056E+01
  0
LINE
  8
0
 62
7
 10
-1.92249922E+02
 20
-7.80578514E+01
 11
-1.90749876E+02
 21
-7.65578511E+01
  0
LINE
  8
0
 62
2
 10
-1.91569916E+02
 20
-7.73777129E+01
 11
-1.83249969E+02
 21
-7.73777129E+01
  0
LINE
  8
0
 62
7
 10
-1.90749908E+02
 20
-7.65577056E+01
 11
-1.83249969E+02
 21
-7.65577056E+01
  0
LINE
  8
0
 62
7
 10
-1.90749969E+02
 20
-9.45577056E+01
 11
-1.90749969E+02
 21
-7.65577056E+01
  0
LINE
  8
0
 62
7
 10
-1.92249969E+02
 20
-9.30576750E+01
 11
-1.92249969E+02
 21
-7.80578581E+01
  0
LINE
  8
0
 62
7
 10
-1.63249969E+02
 20
-9.45577056E+01
 11
-1.63249969E+02
 21
-7.65577056E+01
  0
LINE
  8
0
 62
7
 10
-1.51749969E+02
 20
-7.55576750E+01
 11
-1.50250000E+02
 21
-7.55576750E+01
  0
LINE
  8
0
 62
7
 10
-1.51750031E+02
 20
-9.55576903E+01
 11
-1.50250046E+02
 21
-9.55576903E+01
  0
LINE
  8
0
 62
7
 10
-1.57249985E+02
 20
-7.70577056E+01
 11
-1.57249985E+02
 21
-9.40577056E+01
  0
LINE
  8
0
 62
7
 10
-1.63249969E+02
 20
-2.17377713E+02
 11
-1.60249969E+02
 21
-2.17377713E+02
  0
LINE
  8
0
 62
7
 10
-1.60249953E+02
 20
-2.22435271E+02
 11
-1.57249961E+02
 21
-2.20289865E+02
  0
LINE
  8
0
 62
7
 10
-1.60249974E+02
 20
-2.16557707E+02
 11
-1.57249986E+02
 21
-2.15557721E+02
  0
LINE
  8
0
 62
7
 10
-1.57250076E+02
 20
-2.15557721E+02
 11
-1.50250046E+02
 21
-2.15557721E+02
  0
LINE
  8
0
 62
7
 10
-1.92249918E+02
 20
-2.18057831E+02
 11
-1.90749872E+02
 21
-2.16557831E+02
  0
LINE
  8
0
 62
2
 10
-1.91569916E+02
 20
-2.17377713E+02
 11
-1.83249969E+02
 21
-2.17377713E+02
  0
LINE
  8
0
 62
7
 10
-1.90749908E+02
 20
-2.16557706E+02
 11
-1.83249969E+02
 21
-2.16557706E+02
  0
LINE
  8
0
 62
7
 10
-1.90749969E+02
 20
-2.25557706E+02
 11
-1.90749969E+02
 21
-2.16557706E+02
  0
LINE
  8
0
 62
7
 10
-1.92249969E+02
 20
-2.25557706E+02
 11
-1.92249969E+02
 21
-2.18057858E+02
  0
LINE
  8
0
 62
7
 10
-1.63249969E+02
 20
-2.25557706E+02
 11
-1.63249969E+02
 21
-2.16557706E+02
  0
LINE
  8
0
 62
7
 10
-1.53250015E+02
 20
-2.25557706E+02
 11
-1.53250015E+02
 21
-2.20289853E+02
  0
LINE
  8
0
 62
7
 10
-1.57249985E+02
 20
-2.15557675E+02
 11
-1.57249985E+02
 21
-2.20289853E+02
  0
LINE
  8
0
 62
2
 10
-1.56749970E+02
 20
-2.25557706E+02
 11
-1.53249983E+02
 21
-2.20289860E+02
  0
LINE
  8
0
 62
2
 10
-1.59283647E+02
 20
-2.21744224E+02
 11
-1.56749947E+02
 21
-2.25557706E+02
  0
LINE
  8
0
 62
7
 10
-1.57250076E+02
 20
-2.20289853E+02
 11
-1.53250015E+02
 21
-2.20289853E+02
  0
LINE
  8
0
 62
7
 10
-1.60249969E+02
 20
-2.16557706E+02
 11
-1.60249969E+02
 21
-2.25557706E+02
  0
LINE
  8
0
  6
CENTER
 62
2
 10
-3.84730391E+01
 20
-2.02057721E+02
 11
-1.37353455E+02
 21
-2.02057721E+02
  0
LINE
  8
0
 62
7
 10
-1.50250000E+02
 20
-2.25557706E+02
 11
-1.50250000E+02
 21
-2.09057744E+02
  0
LINE
  8
0
 62
7
 10
-1.36749969E+02
 20
-2.06557713E+02
 11
-1.35250000E+02
 21
-2.06557713E+02
  0
LINE
  8
0
 62
7
 10
-1.49750000E+02
 20
-2.08557713E+02
 11
-1.45241455E+02
 21
-2.08557713E+02
  0
LINE
  8
0
 62
7
 10
-1.45250000E+02
 20
-2.08557713E+02
 11
-1.45250000E+02
 21
-2.08549168E+02
  0
LINE
  8
0
 62
7
 10
-1.45008750E+02
 20
-2.08299233E+02
 11
-1.37250052E+02
 21
-2.08028293E+02
  0
LINE
  8
0
 62
7
 10
-1.37250000E+02
 20
-2.25557706E+02
 11
-1.37250000E+02
 21
-2.07057706E+02
  0
LINE
  8
0
 62
7
 10
-1.35250000E+02
 20
-2.25557706E+02
 11
-1.35250000E+02
 21
-1.95343289E+02
  0
LINE
  8
0
 62
7
 10
-1.04250000E+02
 20
-2.25557706E+02
 11
-1.04250000E+02
 21
-1.94557706E+02
  0
LINE
  8
0
 62
7
 10
-1.30250000E+02
 20
-1.94557706E+02
 11
-1.04250000E+02
 21
-1.94557706E+02
  0
LINE
  8
0
 62
7
 10
-1.35249994E+02
 20
-1.95343207E+02
 11
-1.05252845E+02
 21
-1.94557704E+02
  0
LINE
  8
0
 62
7
 10
-1.30250000E+02
 20
-1.95212308E+02
 11
-1.30250000E+02
 21
-1.94557706E+02
  0
LINE
  8
0
 62
7
 10
-1.45250000E+02
 20
-2.25557706E+02
 11
-1.45250000E+02
 21
-2.08557713E+02
  0
LINE
  8
0
  6
CENTER
 62
2
 10
-6.56084842E+01
 20
-1.09057690E+02
 11
-1.37353455E+02
 21
-1.09057690E+02
  0
LINE
  8
0
 62
7
 10
-1.09517908E+02
 20
-9.75577153E+01
 11
-1.10383932E+02
 21
-9.60577088E+01
  0
LINE
  8
0
 62
7
 10
-1.10383987E+02
 20
-9.60577361E+01
 11
-1.12115967E+02
 21
-9.60577361E+01
  0
LINE
  8
0
 62
7
 10
-1.12981975E+02
 20
-9.75577864E+01
 11
-1.12115966E+02
 21
-9.60578064E+01
  0
LINE
  8
0
 62
7
 10
-1.12115956E+02
 20
-9.90577954E+01
 11
-1.12982010E+02
 21
-9.75577361E+01
  0
LINE
  8
0
 62
7
 10
-1.10383987E+02
 20
-9.90577666E+01
 11
-1.12115967E+02
 21
-9.90577666E+01
  0
LINE
  8
0
 62
7
 10
-1.09517916E+02
 20
-9.75577909E+01
 11
-1.10383940E+02
 21
-9.90577974E+01
  0
LINE
  8
0
 62
7
 10
-3.69430645E+01
 20
-5.94077269E+01
 11
-8.12499945E+01
 21
-5.94077269E+01
  0
LINE
  8
0
 62
7
 10
-4.00030138E+01
 20
-6.47077147E+01
 11
-8.12499945E+01
 21
-6.47077147E+01
  0
LINE
  8
0
  6
CENTER
 62
2
 10
-3.84730392E+01
 20
-6.20577208E+01
 11
-8.12499945E+01
 21
-6.20577208E+01
  0
LINE
  8
0
  6
CENTER
 62
2
 10
-1.17250000E+02
 20
-2.11790997E+02
 11
-1.17250000E+02
 21
-1.91752240E+02
  0
LINE
  8
0
 62
7
 10
-3.64523220E+01
 20
-5.85577361E+01
 11
-8.12499945E+01
 21
-5.85577361E+01
  0
LINE
  8
0
  6
CENTER
 62
2
 10
-3.06862885E+02
 20
-2.02057744E+02
 11
-3.25982574E+02
 21
-2.02057744E+02
  0
LINE
  8
0
  6
CENTER
 62
2
 10
-2.58102081E+02
 20
-2.25557706E+02
 11
-3.27265015E+02
 21
-2.25557706E+02
  0
LINE
  8
0
 62
7
 10
-2.68249969E+02
 20
-2.09809361E+02
 11
-2.68249969E+02
 21
-2.11057721E+02
  0
LINE
  8
0
 62
7
 10
-2.77001251E+02
 20
-2.01057736E+02
 11
-2.78249939E+02
 21
-2.01057736E+02
  0
LINE
  8
0
 62
7
 10
-3.08498352E+02
 20
-2.01057660E+02
 11
-3.07249969E+02
 21
-2.01057660E+02
  0
LINE
  8
0
 62
7
 10
-3.17250000E+02
 20
-2.09809109E+02
 11
-3.17250000E+02
 21
-2.11057721E+02
  0
LINE
  8
0
 62
7
 10
-3.14750000E+02
 20
-1.94557706E+02
 11
-3.14750000E+02
 21
-1.95057721E+02
  0
LINE
  8
0
 62
7
 10
-2.70749969E+02
 20
-1.94557706E+02
 11
-2.70749969E+02
 21
-1.95057736E+02
  0
LINE
  8
0
 62
7
 10
-2.64750031E+02
 20
-2.25557706E+02
 11
-2.64750031E+02
 21
-2.15026349E+02
  0
LINE
  8
0
  6
CENTER
 62
2
 10
-2.92749939E+02
 20
-1.90797055E+02
 11
-2.92749939E+02
 21
-2.25557706E+02
  0
LINE
  8
0
 62
7
 10
-2.61750031E+02
 20
-2.25557706E+02
 11
-2.61750031E+02
 21
-1.98057706E+02
  0
LINE
  8
0
 62
7
 10
-2.62250031E+02
 20
-2.25557706E+02
 11
-2.62250031E+02
 21
-1.98057751E+02
  0
LINE
  8
0
 62
7
 10
-3.20749969E+02
 20
-2.25557706E+02
 11
-3.20749969E+02
 21
-2.15026349E+02
  0
LINE
  8
0
  6
CENTER
 62
2
 10
-3.16249969E+02
 20
-1.92504025E+02
 11
-3.16249969E+02
 21
-2.09942074E+02
  0
LINE
  8
0
  6
CENTER
 62
2
 10
-2.99749969E+02
 20
-1.92196042E+02
 11
-2.99749969E+02
 21
-2.13786870E+02
  0
LINE
  8
0
 62
7
 10
-3.23749969E+02
 20
-2.25557706E+02
 11
-3.23749969E+02
 21
-1.98057751E+02
  0
LINE
  8
0
 62
7
 10
-3.20249939E+02
 20
-1.94557706E+02
 11
-2.65250031E+02
 21
-1.94557706E+02
  0
LINE
  8
0
 62
7
 10
-3.23249969E+02
 20
-2.25557706E+02
 11
-3.23249969E+02
 21
-1.98057751E+02
  0
LINE
  8
0
 62
7
 10
-3.19749969E+02
 20
-2.24557675E+02
 11
-3.12649750E+02
 21
-2.24557675E+02
  0
LINE
  8
0
 62
7
 10
-3.07528392E+02
 20
-2.12193703E+02
 11
-3.11479952E+02
 21
-2.08242144E+02
  0
LINE
  8
0
 62
7
 10
-3.06114211E+02
 20
-2.10779435E+02
 11
-3.10065792E+02
 21
-2.06827855E+02
  0
LINE
  8
0
 62
7
 10
-1.28249969E+02
 20
-1.07557751E+02
 11
-1.04249985E+02
 21
-1.07557751E+02
  0
LINE
  8
0
 62
7
 10
-1.28249969E+02
 20
-6.35577361E+01
 11
-1.04249985E+02
 21
-6.35577361E+01
  0
LINE
  8
0
 62
7
 10
-1.35249999E+02
 20
-1.15772149E+02
 11
-1.04249990E+02
 21
-1.16583913E+02
  0
LINE
  8
0
 62
7
 10
-1.04250000E+02
 20
-5.45314452E+01
 11
-1.04250000E+02
 21
-6.67434245E+01
  0
LINE
  8
0
  6
CENTER
 62
2
 10
-1.26660156E+02
 20
-7.85578124E+01
 11
-1.15749995E+02
 21
-7.85578124E+01
  0
LINE
  8
0
  6
CENTER
 62
2
 10
-1.17250031E+02
 20
-8.97998320E+01
 11
-1.17250031E+02
 21
-6.62134215E+01
  0
LINE
  8
0
 62
7
 10
-1.30250000E+02
 20
-1.05557736E+02
 11
-1.30250000E+02
 21
-6.55577361E+01
  0
LINE
  8
0
 62
7
 10
-1.35250025E+02
 20
-5.53430986E+01
 11
-1.04249970E+02
 21
-5.45313336E+01
  0
LINE
  8
0
  6
CENTER
 62
2
 10
-1.20095276E+02
 20
-9.75577513E+01
 11
-1.02620743E+02
 21
-9.75577513E+01
  0
LINE
  8
0
  6
CENTER
 62
2
 10
-1.11250015E+02
 20
-1.05028866E+02
 11
-1.11250015E+02
 21
-8.84398772E+01
  0
LINE
  8
0
 62
7
 10
-1.35250000E+02
 20
-5.53432128E+01
 11
-1.35250000E+02
 21
-1.15772122E+02
  0
LINE
  8
0
 62
7
 10
-1.45250000E+02
 20
-6.85576750E+01
 11
-1.45250000E+02
 21
-1.02557690E+02
  0
LINE
  8
0
 62
7
 10
-1.45008738E+02
 20
-6.82990928E+01
 11
-1.37250039E+02
 21
-6.80281531E+01
  0
LINE
  8
0
 62
7
 10
-2.79385985E+02
 20
-2.10779177E+02
 11
-2.75434468E+02
 21
-2.06827661E+02
  0
LINE
  8
0
 62
7
 10
-2.77971771E+02
 20
-2.12193434E+02
 11
-2.74020254E+02
 21
-2.08241918E+02
  0
LINE
  8
0
 62
7
 10
-2.65750031E+02
 20
-2.24557721E+02
 11
-2.72850250E+02
 21
-2.24557721E+02
  0
LINE
  8
0
 62
7
 10
-1.36749969E+02
 20
-1.04557721E+02
 11
-1.35250000E+02
 21
-1.04557721E+02
  0
LINE
  8
0
 62
7
 10
-1.37250000E+02
 20
-6.70577208E+01
 11
-1.37250000E+02
 21
-1.04057690E+02
  0
LINE
  8
0
 62
7
 10
-1.45008771E+02
 20
-1.02816126E+02
 11
-1.37250042E+02
 21
-1.03087066E+02
  0
LINE
  8
0
 62
7
 10
-1.45250000E+02
 20
-1.02557706E+02
 11
-1.45250000E+02
 21
-1.02566250E+02
  0
LINE
  8
0
  6
CENTER
 62
2
 10
-2.59296844E+02
 20
-2.02057744E+02
 11
-2.78999420E+02
 21
-2.02057744E+02
  0
LINE
  8
0
 62
7
 10
-3.20249939E+02
 20
-1.95057690E+02
 11
-2.65250031E+02
 21
-1.95057736E+02
  0
LINE
  8
0
 62
7
 10
-2.91749969E+02
 20
-1.98557736E+02
 11
-2.91749969E+02
 21
-2.05657994E+02
  0
LINE
  8
0
 62
7
 10
-1.36749969E+02
 20
-6.65577056E+01
 11
-1.35250000E+02
 21
-6.65577056E+01
  0
LINE
  8
0
 62
7
 10
-1.49750000E+02
 20
-1.02557706E+02
 11
-1.45241455E+02
 21
-1.02557706E+02
  0
LINE
  8
0
 62
7
 10
-3.03281342E+02
 20
-1.97557721E+02
 11
-2.82218597E+02
 21
-1.97557721E+02
  0
LINE
  8
0
 62
7
 10
-2.93749969E+02
 20
-1.98557736E+02
 11
-2.93749969E+02
 21
-2.05657956E+02
  0
LINE
  8
0
 62
7
 10
-1.45250000E+02
 20
-6.85577056E+01
 11
-1.45250000E+02
 21
-6.85491606E+01
  0
LINE
  8
0
 62
7
 10
-1.49750000E+02
 20
-6.85577056E+01
 11
-1.45241455E+02
 21
-6.85577056E+01
  0
LINE
  8
0
  6
CENTER
 62
2
 10
-2.69249969E+02
 20
-1.92079465E+02
 11
-2.69249969E+02
 21
-2.11782094E+02
  0
LINE
  8
0
  6
CENTER
 62
2
 10
-2.80749969E+02
 20
-1.92083432E+02
 11
-2.80749969E+02
 21
-2.17895260E+02
  0
LINE
  8
0
 62
7
 10
-1.50250000E+02
 20
-6.90577361E+01
 11
-1.50250000E+02
 21
-1.02057675E+02
  0
LINE
  8
0
  6
CENTER
 62
2
 10
-1.96023193E+02
 20
-2.25557706E+02
 11
-5.20407616E+01
 21
-2.25557706E+02
  0
LINE
  8
0
  6
CENTER
 62
2
 10
-1.95283264E+02
 20
-8.55577056E+01
 11
-1.00749995E+02
 21
-8.55577056E+01
  0
LINE
  8
0
  6
CENTER
 62
2
 10
-9.62499945E+01
 20
-6.20577208E+01
 11
-1.37353455E+02
 21
-6.20577208E+01
  0
LINE
  8
0
  6
CENTER
 62
2
 10
-6.17499945E+01
 20
-8.55577056E+01
 11
-5.20407617E+01
 21
-8.55577056E+01
  0
LINE
  8
0
 62
7
 10
-1.04250000E+02
 20
-8.07434245E+01
 11
-1.04250000E+02
 21
-1.16557706E+02
  0
LINE
  8
0
 62
2
 10
-7.03794067E+01
 20
-1.17321171E+02
 11
-3.23513644E+01
 21
-5.14546693E+01
  0
LINE
  8
0
 62
7
 10
-7.03794067E+01
 20
-1.17321171E+02
 11
-3.13953567E+01
 21
-4.97988153E+01
  0
LINE
  8
0
 62
2
 10
-6.00299445E+01
 20
-2.39395376E+02
 11
-3.13953567E+01
 21
-1.89798815E+02
  0
LINE
  8
0
 62
7
 10
1.77210478E+02
 20
-2.04707715E+02
 11
2.25558848E+02
 21
-2.04707715E+02
  0
LINE
  8
0
 62
7
 10
1.80270427E+02
 20
-1.99407727E+02
 11
2.25558848E+02
 21
-1.99407727E+02
  0
LINE
  8
0
 62
7
 10
1.80761170E+02
 20
-1.98557736E+02
 11
2.09058848E+02
 21
-1.98557736E+02
  0
LINE
  8
0
  6
CENTER
 62
2
 10
1.78740453E+02
 20
-2.02057721E+02
 11
2.25558848E+02
 21
-2.02057721E+02
  0
LINE
  8
0
  6
CENTER
 62
2
 10
3.40332041E+02
 20
-2.25557706E+02
 11
1.65172730E+02
 21
-2.25557706E+02
  0
LINE
  8
0
  6
CENTER
 62
2
 10
2.61558848E+02
 20
-2.11790997E+02
 11
2.61558848E+02
 21
-1.91752240E+02
  0
LINE
  8
0
 62
7
 10
2.89558848E+02
 20
-2.25557706E+02
 11
2.89558848E+02
 21
-2.08557713E+02
  0
LINE
  8
0
 62
7
 10
2.74558848E+02
 20
-1.95212308E+02
 11
2.74558848E+02
 21
-1.94557706E+02
  0
LINE
  8
0
 62
7
 10
2.79558841E+02
 20
-1.95343207E+02
 11
2.49561693E+02
 21
-1.94557704E+02
  0
LINE
  8
0
 62
7
 10
2.74558848E+02
 20
-1.94557706E+02
 11
2.48558848E+02
 21
-1.94557706E+02
  0
LINE
  8
0
 62
7
 10
2.48558848E+02
 20
-2.25557706E+02
 11
2.48558848E+02
 21
-1.94557706E+02
  0
LINE
  8
0
 62
7
 10
2.79558848E+02
 20
-2.25557706E+02
 11
2.79558848E+02
 21
-1.95343289E+02
  0
LINE
  8
0
 62
7
 10
2.81558848E+02
 20
-2.25557706E+02
 11
2.81558848E+02
 21
-2.07057706E+02
  0
LINE
  8
0
 62
7
 10
2.89317598E+02
 20
-2.08299233E+02
 11
2.81558899E+02
 21
-2.08028293E+02
  0
LINE
  8
0
 62
7
 10
2.89558848E+02
 20
-2.08557713E+02
 11
2.89558848E+02
 21
-2.08549168E+02
  0
LINE
  8
0
 62
7
 10
2.94058848E+02
 20
-2.08557713E+02
 11
2.89550303E+02
 21
-2.08557713E+02
  0
LINE
  8
0
 62
7
 10
2.81058817E+02
 20
-2.06557713E+02
 11
2.79558848E+02
 21
-2.06557713E+02
  0
LINE
  8
0
 62
7
 10
2.94558848E+02
 20
-2.25557706E+02
 11
2.94558848E+02
 21
-2.09057744E+02
  0
LINE
  8
0
 62
7
 10
3.04558817E+02
 20
-2.16557706E+02
 11
3.04558817E+02
 21
-2.25557706E+02
  0
LINE
  8
0
 62
7
 10
3.01558924E+02
 20
-2.20289853E+02
 11
2.97558863E+02
 21
-2.20289853E+02
  0
LINE
  8
0
 62
2
 10
3.03592495E+02
 20
-2.21744224E+02
 11
3.01058795E+02
 21
-2.25557706E+02
  0
LINE
  8
0
 62
2
 10
3.01058818E+02
 20
-2.25557706E+02
 11
2.97558830E+02
 21
-2.20289860E+02
  0
LINE
  8
0
 62
7
 10
3.01558832E+02
 20
-2.15557675E+02
 11
3.01558832E+02
 21
-2.20289853E+02
  0
LINE
  8
0
 62
7
 10
2.97558863E+02
 20
-2.25557706E+02
 11
2.97558863E+02
 21
-2.20289853E+02
  0
LINE
  8
0
 62
7
 10
3.07558817E+02
 20
-2.25557706E+02
 11
3.07558817E+02
 21
-2.16557706E+02
  0
LINE
  8
0
 62
7
 10
3.36558817E+02
 20
-2.25557706E+02
 11
3.36558817E+02
 21
-2.18057858E+02
  0
LINE
  8
0
 62
7
 10
3.35058817E+02
 20
-2.25557706E+02
 11
3.35058817E+02
 21
-2.16557706E+02
  0
LINE
  8
0
 62
7
 10
3.35058756E+02
 20
-2.16557706E+02
 11
3.27558817E+02
 21
-2.16557706E+02
  0
LINE
  8
0
 62
2
 10
3.35878763E+02
 20
-2.17377713E+02
 11
3.27558817E+02
 21
-2.17377713E+02
  0
LINE
  8
0
 62
7
 10
3.36558766E+02
 20
-2.18057831E+02
 11
3.35058720E+02
 21
-2.16557831E+02
  0
LINE
  8
0
 62
7
 10
3.01558924E+02
 20
-2.15557721E+02
 11
2.94558893E+02
 21
-2.15557721E+02
  0
LINE
  8
0
 62
7
 10
3.04558822E+02
 20
-2.16557707E+02
 11
3.01558834E+02
 21
-2.15557721E+02
  0
LINE
  8
0
 62
7
 10
3.04558801E+02
 20
-2.22435271E+02
 11
3.01558809E+02
 21
-2.20289865E+02
  0
LINE
  8
0
 62
7
 10
3.07558817E+02
 20
-2.17377713E+02
 11
3.04558817E+02
 21
-2.17377713E+02
  0
ARC
  8
0
 62
7
 10
2.81058848E+02
 20
-2.07057706E+02
 40
5.00000000E-01
 50
3.59999981E+02
 51
8.99999635E+01
  0
ARC
  8
0
 62
7
 10
2.89308848E+02
 20
-2.08549168E+02
 40
2.50000000E-01
 50
3.59999981E+02
 51
8.80011361E+01
  0
ARC
  8
0
 62
7
 10
2.94058848E+02
 20
-2.09057744E+02
 40
5.00000000E-01
 50
3.59999981E+02
 51
8.99999635E+01
  0
ARC
  8
0
 62
7
 10
3.06058817E+02
 20
-2.25557706E+02
 40
9.99998474E+00
 50
1.48211648E+02
 51
1.80000000E+02
  0
LINE
  8
0
 62
4
 10
3.26353046E+02
 20
-2.09969248E+02
 11
3.17764589E+02
 21
-2.09969248E+02
  0
LINE
  8
0
 62
4
 10
3.26353046E+02
 20
-2.17763477E+02
 11
3.17764589E+02
 21
-2.17763477E+02
  0
LINE
  8
0
 62
4
 10
3.26353046E+02
 20
-2.09969248E+02
 11
3.27558817E+02
 21
-2.12057706E+02
  0
LINE
  8
0
 62
4
 10
3.17764589E+02
 20
-2.09969248E+02
 11
3.16558817E+02
 21
-2.12057706E+02
  0
ARC
  8
0
 62
4
 10
3.20658096E+02
 20
-2.13866363E+02
 40
6.90072132E+00
 50
3.25615752E+02
 51
3.43842480E+01
  0
ARC
  8
0
 62
4
 10
3.23459539E+02
 20
-2.13866363E+02
 40
6.90072132E+00
 50
1.45615752E+02
 51
2.14384248E+02
  0
ARC
  8
0
 62
4
 10
3.42353045E+02
 20
-2.25557706E+02
 40
2.57942282E+01
 50
1.62412046E+02
 51
1.80000000E+02
  0
ARC
  8
0
 62
4
 10
3.01764589E+02
 20
-2.25557706E+02
 40
2.57942282E+01
 50
2.54444375E-13
 51
1.75879541E+01
  0
LINE
  8
0
 62
4
 10
3.27558817E+02
 20
-2.25557706E+02
 11
3.27558817E+02
 21
-2.12057706E+02
  0
LINE
  8
0
 62
4
 10
3.16558817E+02
 20
-2.25557706E+02
 11
3.16558817E+02
 21
-2.12057706E+02
  0
LINE
  8
0
 62
7
 10
3.16558817E+02
 20
-2.16557706E+02
 11
3.07558817E+02
 21
-2.16557706E+02
  0
LINE
  8
0
 62
2
 10
3.16558817E+02
 20
-2.17377713E+02
 11
3.07558817E+02
 21
-2.17377713E+02
  0
LINE
  8
0
 62
2
 10
1.61931344E+02
 20
-2.31171951E+02
 11
1.85818135E+02
 21
-1.89798815E+02
  0
LINE
  8
0
 62
7
 10
2.42058848E+02
 20
-1.98557736E+02
 11
2.48558848E+02
 21
-1.98557736E+02
  0
LINE
  8
0
 62
7
 10
2.40558848E+02
 20
-1.99407727E+02
 11
2.48558832E+02
 21
-1.99407727E+02
  0
LINE
  8
0
 62
7
 10
2.40558848E+02
 20
-2.04707715E+02
 11
2.48558832E+02
 21
-2.04707715E+02
  0
LINE
  8
0
  6
CENTER
 62
2
 10
2.40558848E+02
 20
-2.02057721E+02
 11
2.81662302E+02
 21
-2.02057721E+02
  0
TEXT
  8
0
 10
-8.61502877E+01
 20
2.49478397E+02
 40
6.30000019E+00
  1
STRETCH LINE
 41
1.05263174E+00
  7
MONOTXT
  0
LINE
  8
0
 62
7
 10
2.79799927E+02
 20
-2.56750000E+02
 11
3.99799805E+02
 21
-2.56750000E+02
  0
LINE
  8
0
 62
7
 10
2.79799927E+02
 20
-2.56750000E+02
 11
2.79799927E+02
 21
-2.76750000E+02
  0
TEXT
  8
0
 62
7
 10
2.87585240E+02
 20
-2.71250000E+02
 40
9.00000000E+00
  1
KOGANEI CORP.
 41
1.04838710E+00
  7
MONOTXT
  0
TEXT
  8
0
 62
7
 10
3.15499641E+02
 20
2.63100000E+02
 40
6.30000019E+00
  1
Ver. 1.0
 41
1.08108124E+00
  7
MONOTXT
  0
LINE
  8
0
 62
7
 10
2.79799927E+02
 20
2.56250000E+02
 11
3.99799805E+02
 21
2.56250000E+02
  0
LINE
  8
0
 62
7
 10
2.79799927E+02
 20
2.76250000E+02
 11
2.79799927E+02
 21
2.56250000E+02
  0
TEXT
  8
0
 62
7
 10
-3.85600562E+02
 20
2.38100000E+02
 40
6.30000019E+00
  1
MODEL:DDAE50*75
 41
1.00000015E+00
  7
MONOTXT
  0
LINE
  8
0
 62
7
 10
-3.99250000E+02
 20
2.56250000E+02
 11
-2.79250000E+02
 21
2.56250000E+02
  0
LINE
  8
0
 62
7
 10
-2.79250000E+02
 20
2.76250000E+02
 11
-2.79250000E+02
 21
2.56250000E+02
  0
TEXT
  8
0
 62
7
 10
-3.91900291E+02
 20
2.63100000E+02
 40
6.30000019E+00
  1
NEW DYNA CYLINDER
 41
1.07594953E+00
  7
MONOTXT
  0
LINE
  8
0
 62
7
 10
-3.99250000E+02
 20
-2.76750000E+02
 11
3.99799805E+02
 21
-2.76750000E+02
  0
LINE
  8
0
 62
7
 10
-3.99250000E+02
 20
2.76250000E+02
 11
3.99799805E+02
 21
2.76250000E+02
  0
LINE
  8
0
 62
7
 10
-3.99250000E+02
 20
2.76250000E+02
 11
-3.99250000E+02
 21
-2.76750000E+02
  0
LINE
  8
0
 62
7
 10
3.99799805E+02
 20
2.76250000E+02
 11
3.99799805E+02
 21
-2.76750000E+02
  0
ENDSEC
  0
EOF
