  0
SECTION
  2
HEADER
  9
$ACADVER
  1
AC1003
  9
$EXTMIN
 10
-5.64500000E+02
 20
-4.00500000E+02
  9
$EXTMAX
 10
5.74500000E+02
 20
4.00500000E+02
  9
$LIMMIN
 10
-5.64501000E+02
 20
-4.00501000E+02
  9
$LIMMAX
 10
5.74501000E+02
 20
4.00501000E+02
  9
$SNAPUNIT
 10
1
 20
1
  9
$SNAPBASE
 10
0
 20
0
  9
$GRIDMODE
 70
0
  9
$GRIDUNIT
 10
0
 20
0
  9
$LTSCALE
 40
1.89833333E+01
  9
$TEXTSIZE
 40
3.2
  9
$DIMTAD
 70
0
  9
$LUNITS
 70
2
  9
$LUPREC
 70
4
  9
$FILLETRAD
 40
0
  9
$AUNITS
 70
0
  9
$AUPREC
 70
0
  0
ENDSEC
  0
SECTION
  2
TABLES
  0
TABLE
  2
LTYPE
 70
2
  0
LTYPE
  2
CONTINUOUS
 70
64
  3
Solid-Line
 72
65
 73
0
 40
0
  0
LTYPE
  2
DASHED
 70
64
  3
DASHED
 72
65
 73
2
 40
.75
 49
.5
 49
-.25
  0
LTYPE
  2
HIDDEN
 70
64
  3
HIDDEN
 72
65
 73
2
 40
.375
 49
.25
 49
-.125
  0
LTYPE
  2
CENTER
 70
64
  3
CENTER
 72
65
 73
4
 40
2
 49
1.25
 49
-.25
 49
.25
 49
-.25
  0
LTYPE
  2
PHANTOM
 70
64
  3
PHANTOM
 72
65
 73
6
 40
2.5
 49
1.25
 49
-.25
 49
.25
 49
-.25
 49
.25
 49
-.25
  0
ENDTAB
  0
TABLE
  2
LAYER
 70
1
  0
LAYER
  2
1
 70
0
 62
7
  6
CONTINUOUS
 0
ENDTAB
  0
TABLE
  2
STYLE
 70
2
  0
STYLE
  2
MONOTXT
 70
0
 40
0
 41
1
 50
0
 71
0
 42
.2
  3
monotxt
  0
STYLE
  2
BIGFONT
 70
0
 40
0
 41
1
 50
0
 71
0
 42
.2
  3
txt
  4
bigfont
  0
ENDTAB
  0
ENDSEC
  0
SECTION
  2
ENTITIES
  0
LINE
  8
0
  6
PHANTOM
 10
-2.45000000E+01
 20
2.81313474E+01
 11
-2.45000000E+01
 21
1.93505299E+02
  0
LINE
  8
0
  6
CENTER
 62
2
 10
-2.02243361E+02
 20
1.00500000E+02
 11
9.53036671E+01
 21
1.00500000E+02
  0
LINE
  8
0
 62
7
 10
-8.29999981E+01
 20
1.56500000E+02
 11
-8.29999981E+01
 21
4.45000153E+01
  0
LINE
  8
0
 62
7
 10
2.80000218E+01
 20
1.56500000E+02
 11
2.80000218E+01
 21
4.45000038E+01
  0
LINE
  8
0
  6
CENTER
 62
2
 10
9.19616871E+01
 20
5.84999924E+01
 11
-1.21524473E+02
 21
5.84999924E+01
  0
LINE
  8
0
 62
7
 10
2.80000218E+01
 20
6.29999847E+01
 11
-8.29999981E+01
 21
6.29999847E+01
  0
LINE
  8
0
 62
7
 10
2.80000218E+01
 20
5.39999733E+01
 11
-8.29999981E+01
 21
5.39999733E+01
  0
LINE
  8
0
 62
7
 10
-8.29999981E+01
 20
4.69999771E+01
 11
2.80000218E+01
 21
4.69999771E+01
  0
LINE
  8
0
  6
CENTER
 62
2
 10
9.16578693E+01
 20
1.42500000E+02
 11
-1.21524473E+02
 21
1.42500000E+02
  0
LINE
  8
0
 62
7
 10
2.80000218E+01
 20
1.38000015E+02
 11
5.00002098E+00
 21
1.38000015E+02
  0
LINE
  8
0
 62
7
 10
2.80000218E+01
 20
1.47000031E+02
 11
2.00000210E+01
 21
1.47000031E+02
  0
LINE
  8
0
 62
7
 10
-8.29999981E+01
 20
1.54000015E+02
 11
-9.99997902E+00
 21
1.54000015E+02
  0
LINE
  8
0
  6
CENTER
 62
2
 10
8.59121838E+01
 20
8.64999619E+01
 11
7.31858196E+01
 21
8.64999619E+01
  0
LINE
  8
0
  6
CENTER
 62
2
 10
7.90000286E+01
 20
7.99228363E+01
 11
7.90000286E+01
 21
9.26491776E+01
  0
LINE
  8
0
  6
DASHED
 62
7
 10
7.90001340E+01
 20
8.50566723E+01
 11
7.77501382E+01
 21
8.57783496E+01
  0
LINE
  8
0
  6
DASHED
 62
7
 10
7.89996808E+01
 20
8.50571087E+01
 11
8.02496570E+01
 21
8.57787746E+01
  0
LINE
  8
0
  6
DASHED
 62
7
 10
7.77497177E+01
 20
8.72222243E+01
 11
7.89996741E+01
 21
8.79438788E+01
  0
LINE
  8
0
  6
DASHED
 62
7
 10
7.90001688E+01
 20
8.79434658E+01
 11
8.02501981E+01
 21
8.72217693E+01
  0
LINE
  8
0
  6
DASHED
 62
7
 10
7.77499523E+01
 20
8.57782669E+01
 11
7.77499523E+01
 21
8.72216492E+01
  0
LINE
  8
0
  6
DASHED
 62
7
 10
8.02499790E+01
 20
8.57782669E+01
 11
8.02499790E+01
 21
8.72216492E+01
  0
LINE
  8
0
 62
7
 10
9.04999728E+01
 20
1.25499900E+02
 11
9.09999437E+01
 21
1.24999929E+02
  0
LINE
  8
0
 62
7
 10
-1.39500090E+02
 20
1.23500000E+02
 11
-1.35000074E+02
 21
1.23500000E+02
  0
LINE
  8
0
 62
7
 10
8.90000057E+01
 20
1.56499954E+02
 11
8.90000057E+01
 21
4.44999924E+01
  0
LINE
  8
0
 62
7
 10
8.90000057E+01
 20
1.56499954E+02
 11
2.79999964E+01
 21
1.56499954E+02
  0
LINE
  8
0
 62
7
 10
8.90000057E+01
 20
4.45000191E+01
 11
2.79999964E+01
 21
4.45000191E+01
  0
LINE
  8
0
 62
7
 10
9.04999943E+01
 20
7.54999771E+01
 11
8.90000057E+01
 21
7.54999771E+01
  0
LINE
  8
0
 62
7
 10
9.04999943E+01
 20
1.25499969E+02
 11
8.90000057E+01
 21
1.25499969E+02
  0
LINE
  8
0
  6
CENTER
 62
2
 10
6.49999905E+01
 20
7.42138138E+01
 11
6.49999905E+01
 21
1.58747955E+02
  0
LINE
  8
0
 62
7
 10
-1.14999968E+02
 20
4.44999924E+01
 11
-8.29999676E+01
 21
4.44999924E+01
  0
LINE
  8
0
 62
7
 10
-1.14999968E+02
 20
1.56499985E+02
 11
-8.29999676E+01
 21
1.56499985E+02
  0
LINE
  8
0
 62
7
 10
-1.15000013E+02
 20
4.50585403E+01
 11
-1.15000013E+02
 21
4.44999924E+01
  0
LINE
  8
0
 62
7
 10
-1.15000013E+02
 20
1.55941437E+02
 11
-1.15000013E+02
 21
1.56499985E+02
  0
LINE
  8
0
 62
7
 10
-1.18508639E+02
 20
1.55880162E+02
 11
-8.29998719E+01
 21
1.56499965E+02
  0
LINE
  8
0
 62
7
 10
-1.19000013E+02
 20
1.55380264E+02
 11
-1.19000013E+02
 21
4.56197319E+01
  0
LINE
  8
0
 62
7
 10
-1.18508655E+02
 20
4.51197311E+01
 11
-8.29999794E+01
 21
4.44999195E+01
  0
LINE
  8
0
  6
CENTER
 62
2
 10
-9.90000286E+01
 20
1.43807007E+02
 11
-9.90000286E+01
 21
1.58747955E+02
  0
LINE
  8
0
  6
CENTER
 62
2
 10
4.40877953E+01
 20
8.64999619E+01
 11
5.68141842E+01
 21
8.64999619E+01
  0
LINE
  8
0
  6
CENTER
 62
2
 10
5.09999752E+01
 20
7.99228363E+01
 11
5.09999752E+01
 21
9.26491776E+01
  0
LINE
  8
0
  6
DASHED
 62
7
 10
5.10001992E+01
 20
8.50568678E+01
 11
4.97502147E+01
 21
8.57785385E+01
  0
LINE
  8
0
  6
DASHED
 62
7
 10
4.97500267E+01
 20
8.57782669E+01
 11
4.97500267E+01
 21
8.72216492E+01
  0
LINE
  8
0
  6
DASHED
 62
7
 10
5.09997333E+01
 20
8.79435653E+01
 11
4.97496844E+01
 21
8.72218574E+01
  0
LINE
  8
0
  6
DASHED
 62
7
 10
5.22502395E+01
 20
8.72220753E+01
 11
5.10002551E+01
 21
8.79437460E+01
  0
LINE
  8
0
  6
DASHED
 62
7
 10
5.22500515E+01
 20
8.57782669E+01
 11
5.22500515E+01
 21
8.72216492E+01
  0
LINE
  8
0
  6
DASHED
 62
7
 10
5.09997597E+01
 20
8.50568375E+01
 11
5.22497491E+01
 21
8.57785110E+01
  0
LINE
  8
0
  6
CENTER
 62
2
 10
8.59121838E+01
 20
1.14499992E+02
 11
7.31858196E+01
 21
1.14499992E+02
  0
LINE
  8
0
  6
CENTER
 62
2
 10
7.90000286E+01
 20
1.21077133E+02
 11
7.90000286E+01
 21
1.08350800E+02
  0
LINE
  8
0
  6
DASHED
 62
7
 10
7.89998249E+01
 20
1.15943161E+02
 11
8.02498540E+01
 21
1.15221464E+02
  0
LINE
  8
0
  6
DASHED
 62
7
 10
8.02499790E+01
 20
1.15221703E+02
 11
8.02499790E+01
 21
1.13778328E+02
  0
LINE
  8
0
  6
DASHED
 62
7
 10
7.90000010E+01
 20
1.13056715E+02
 11
8.02500300E+01
 21
1.13778411E+02
  0
LINE
  8
0
  6
DASHED
 62
7
 10
7.77497644E+01
 20
1.13778044E+02
 11
7.89997703E+01
 21
1.13056361E+02
  0
LINE
  8
0
  6
DASHED
 62
7
 10
7.77499523E+01
 20
1.15221703E+02
 11
7.77499523E+01
 21
1.13778328E+02
  0
LINE
  8
0
  6
DASHED
 62
7
 10
7.89999878E+01
 20
1.15943450E+02
 11
7.77499852E+01
 21
1.15221769E+02
  0
LINE
  8
0
  6
CENTER
 62
2
 10
4.40877953E+01
 20
1.14499992E+02
 11
5.68141842E+01
 21
1.14499992E+02
  0
LINE
  8
0
  6
CENTER
 62
2
 10
5.09999752E+01
 20
1.21077133E+02
 11
5.09999752E+01
 21
1.08350800E+02
  0
LINE
  8
0
  6
DASHED
 62
7
 10
5.10000833E+01
 20
1.15943272E+02
 11
4.97500807E+01
 21
1.15221591E+02
  0
LINE
  8
0
  6
DASHED
 62
7
 10
4.97500267E+01
 20
1.15221703E+02
 11
4.97500267E+01
 21
1.13778328E+02
  0
LINE
  8
0
  6
DASHED
 62
7
 10
5.09999594E+01
 20
1.13056617E+02
 11
4.97498874E+01
 21
1.13778338E+02
  0
LINE
  8
0
  6
DASHED
 62
7
 10
5.22500361E+01
 20
1.13778129E+02
 11
5.10000599E+01
 21
1.13056463E+02
  0
LINE
  8
0
  6
DASHED
 62
7
 10
5.22500515E+01
 20
1.15221703E+02
 11
5.22500515E+01
 21
1.13778328E+02
  0
LINE
  8
0
  6
DASHED
 62
7
 10
5.09999118E+01
 20
1.15943423E+02
 11
5.22498979E+01
 21
1.15221751E+02
  0
LINE
  8
0
 62
7
 10
-1.34517454E+02
 20
1.24527917E+02
 11
-1.20999998E+02
 21
1.24999957E+02
  0
LINE
  8
0
 62
7
 10
-1.34517459E+02
 20
7.64720698E+01
 11
-1.21000002E+02
 21
7.60000298E+01
  0
LINE
  8
0
 62
7
 10
-1.40000013E+02
 20
7.79999847E+01
 11
-1.40000013E+02
 21
1.22999969E+02
  0
LINE
  8
0
 62
7
 10
-1.39500090E+02
 20
7.74999542E+01
 11
-1.35000074E+02
 21
7.74999542E+01
  0
LINE
  8
0
 62
7
 10
9.04999836E+01
 20
7.54999868E+01
 11
9.09999679E+01
 21
7.59999712E+01
  0
LINE
  8
0
 62
7
 10
9.04999943E+01
 20
1.25499969E+02
 11
9.04999943E+01
 21
7.54999771E+01
  0
LINE
  8
0
 62
7
 10
-1.20499968E+02
 20
7.55000000E+01
 11
-1.19000013E+02
 21
7.55000000E+01
  0
LINE
  8
0
 62
7
 10
-1.20499968E+02
 20
1.25500000E+02
 11
-1.18999983E+02
 21
1.25500000E+02
  0
LINE
  8
0
 62
7
 10
-1.21000029E+02
 20
7.59999771E+01
 11
-1.21000029E+02
 21
1.24999969E+02
  0
LINE
  8
0
 62
7
 10
9.09999981E+01
 20
1.24999969E+02
 11
9.09999981E+01
 21
7.59999771E+01
  0
LINE
  8
0
 62
7
 10
-1.54000013E+02
 20
8.74999847E+01
 11
-1.54000013E+02
 21
1.13499992E+02
  0
LINE
  8
0
 62
7
 10
-1.49999998E+02
 20
8.54999619E+01
 11
-1.40000013E+02
 21
8.54999619E+01
  0
LINE
  8
0
 62
7
 10
-1.94000029E+02
 20
8.89999237E+01
 11
-1.94000029E+02
 21
1.11999695E+02
  0
LINE
  8
0
 62
7
 10
-1.57000013E+02
 20
8.74999847E+01
 11
-1.57000013E+02
 21
1.13499992E+02
  0
LINE
  8
0
 62
7
 10
-1.92500074E+02
 20
1.13499992E+02
 11
-1.82500036E+02
 21
1.13499992E+02
  0
LINE
  8
0
 62
7
 10
-1.92500013E+02
 20
8.74999847E+01
 11
-1.92500013E+02
 21
1.13499992E+02
  0
LINE
  8
0
 62
7
 10
-1.93999895E+02
 20
1.11999813E+02
 11
-1.92499878E+02
 21
1.13499830E+02
  0
LINE
  8
0
 62
2
 10
-1.93320082E+02
 20
1.12679985E+02
 11
-1.82500036E+02
 21
1.12679985E+02
  0
LINE
  8
0
 62
7
 10
-1.92500074E+02
 20
8.74999847E+01
 11
-1.82500036E+02
 21
8.74999847E+01
  0
LINE
  8
0
 62
7
 10
-1.94000079E+02
 20
8.89999715E+01
 11
-1.92500077E+02
 21
8.74999699E+01
  0
LINE
  8
0
 62
2
 10
-1.93320082E+02
 20
8.83199921E+01
 11
-1.82500036E+02
 21
8.83199921E+01
  0
LINE
  8
0
 62
7
 10
-1.49999998E+02
 20
1.15500038E+02
 11
-1.40000013E+02
 21
1.15500038E+02
  0
LINE
  8
0
 62
7
 10
-1.49999998E+02
 20
9.30166550E+01
 11
-1.49999998E+02
 21
8.54999619E+01
  0
LINE
  8
0
 62
7
 10
-1.49999998E+02
 20
1.07983376E+02
 11
-1.49999998E+02
 21
1.15500038E+02
  0
LINE
  8
0
 62
7
 10
-1.54000007E+02
 20
8.74999829E+01
 11
-1.49999997E+02
 21
8.54999653E+01
  0
LINE
  8
0
 62
7
 10
-1.53999986E+02
 20
1.13499983E+02
 11
-1.49999973E+02
 21
1.15500028E+02
  0
LINE
  8
0
 62
7
 10
-1.44000013E+02
 20
9.30166550E+01
 11
-1.44000013E+02
 21
1.07983376E+02
  0
LINE
  8
0
 62
7
 10
-1.49999998E+02
 20
9.30166550E+01
 11
-1.44000013E+02
 21
9.30166550E+01
  0
LINE
  8
0
 62
7
 10
-1.49999998E+02
 20
1.07983376E+02
 11
-1.44000013E+02
 21
1.07983376E+02
  0
LINE
  8
0
 62
7
 10
-1.50000012E+02
 20
9.30166655E+01
 11
-1.54000012E+02
 21
1.00499991E+02
  0
LINE
  8
0
 62
7
 10
-1.53999995E+02
 20
1.00500001E+02
 11
-1.49999979E+02
 21
1.07983370E+02
  0
LINE
  8
0
 62
2
 10
-1.44000008E+02
 20
1.07983368E+02
 11
-1.51777783E+02
 21
9.63425869E+01
  0
LINE
  8
0
 62
2
 10
-1.43999981E+02
 20
9.30166470E+01
 11
-1.51777767E+02
 21
1.04657445E+02
  0
LINE
  8
0
 62
7
 10
-1.57000013E+02
 20
1.12679985E+02
 11
-1.54000013E+02
 21
1.12679985E+02
  0
LINE
  8
0
 62
7
 10
-1.57000013E+02
 20
8.83199921E+01
 11
-1.54000013E+02
 21
8.83199921E+01
  0
CIRCLE
  8
0
  6
DASHED
 62
7
 10
7.90000286E+01
 20
8.64999619E+01
 40
3.74999976E+00
  0
CIRCLE
  8
0
  6
DASHED
 62
2
 10
6.49999905E+01
 20
1.00500000E+02
 40
2.50000000E+00
  0
CIRCLE
  8
0
  6
DASHED
 62
7
 10
6.49999905E+01
 20
1.00500000E+02
 40
2.00000000E+00
  0
ARC
  8
0
 62
7
 10
-1.18499952E+02
 20
1.55380264E+02
 40
5.00000000E-01
 50
9.10002905E+01
 51
1.79999977E+02
  0
ARC
  8
0
 62
7
 10
-1.18500029E+02
 20
4.56197319E+01
 40
5.00000000E-01
 50
1.79999991E+02
 51
2.68999706E+02
  0
ARC
  8
0
  6
DASHED
 62
7
 10
6.49999905E+01
 20
1.00500000E+02
 40
2.30000019E+01
 50
5.02468877E+01
 51
1.29753131E+02
  0
CIRCLE
  8
0
  6
DASHED
 62
7
 10
5.09999752E+01
 20
8.64999619E+01
 40
3.74999976E+00
  0
CIRCLE
  8
0
  6
DASHED
 62
7
 10
7.90000286E+01
 20
1.14499992E+02
 40
3.74999976E+00
  0
CIRCLE
  8
0
  6
DASHED
 62
7
 10
5.09999752E+01
 20
1.14499992E+02
 40
3.74999976E+00
  0
ARC
  8
0
  6
DASHED
 62
7
 10
6.49999905E+01
 20
1.00500000E+02
 40
2.30000019E+01
 50
1.40246897E+02
 51
2.19753140E+02
  0
ARC
  8
0
  6
DASHED
 62
7
 10
6.49999905E+01
 20
1.00500000E+02
 40
2.30000019E+01
 50
2.30246924E+02
 51
3.09753174E+02
  0
ARC
  8
0
  6
DASHED
 62
7
 10
6.49999905E+01
 20
1.00500000E+02
 40
2.30000019E+01
 50
3.20246933E+02
 51
3.97531217E+01
  0
ARC
  8
0
 62
7
 10
-1.20499998E+02
 20
7.60000076E+01
 40
5.00000000E-01
 50
1.80000091E+02
 51
2.70000073E+02
  0
ARC
  8
0
 62
7
 10
-1.20499998E+02
 20
1.25000000E+02
 40
5.00000000E-01
 50
9.00000913E+01
 51
1.80000073E+02
  0
ARC
  8
0
 62
7
 10
-1.34500059E+02
 20
7.69716949E+01
 40
5.00000000E-01
 50
1.79999977E+02
 51
2.67999192E+02
  0
ARC
  8
0
 62
7
 10
-1.39500059E+02
 20
7.79999771E+01
 40
5.00000000E-01
 50
1.79999977E+02
 51
2.69999974E+02
  0
ARC
  8
0
 62
7
 10
-1.39500059E+02
 20
1.22999969E+02
 40
5.00000000E-01
 50
8.99999818E+01
 51
1.79999964E+02
  0
ARC
  8
0
 62
7
 10
-1.34500059E+02
 20
1.24028259E+02
 40
5.00000000E-01
 50
9.20007356E+01
 51
1.79999964E+02
  0
ARC
  8
0
 62
7
 10
-1.57000013E+02
 20
1.00500015E+02
 40
1.50000248E+01
 50
3.30073440E+02
 51
2.99266002E+01
  0
ARC
  8
0
 62
4
 10
-1.73299082E+02
 20
1.16088455E+02
 40
9.20095253E+00
 50
1.45615726E+02
 51
2.14384256E+02
  0
ARC
  8
0
 62
4
 10
-1.48107771E+02
 20
1.00500000E+02
 40
3.43922653E+01
 50
1.62412050E+02
 51
1.97587933E+02
  0
ARC
  8
0
 62
4
 10
-1.73299082E+02
 20
8.49115448E+01
 40
9.20095253E+00
 50
1.45615726E+02
 51
2.14384256E+02
  0
ARC
  8
0
 62
4
 10
-1.77700991E+02
 20
1.16088455E+02
 40
9.20095253E+00
 50
3.25615707E+02
 51
3.43842378E+01
  0
ARC
  8
0
 62
4
 10
-2.02892302E+02
 20
1.00500000E+02
 40
3.43922653E+01
 50
3.42412030E+02
 51
1.75879147E+01
  0
ARC
  8
0
 62
4
 10
-1.77700991E+02
 20
8.49115448E+01
 40
9.20095253E+00
 50
3.25615707E+02
 51
3.43842378E+01
  0
LINE
  8
0
 62
4
 10
-1.68500067E+02
 20
8.24999970E+01
 11
-1.70107759E+02
 21
7.97154066E+01
  0
LINE
  8
0
 62
4
 10
-1.68500036E+02
 20
1.18500000E+02
 11
-1.68500036E+02
 21
8.25000000E+01
  0
LINE
  8
0
 62
4
 10
-1.68500036E+02
 20
1.18500012E+02
 11
-1.70107716E+02
 21
1.21284634E+02
  0
LINE
  8
0
 62
4
 10
-1.82500059E+02
 20
8.25000896E+01
 11
-1.80892354E+02
 21
7.97154821E+01
  0
LINE
  8
0
 62
4
 10
-1.82500045E+02
 20
1.18499999E+02
 11
-1.80892367E+02
 21
1.21284608E+02
  0
LINE
  8
0
 62
4
 10
-1.80892340E+02
 20
1.21284607E+02
 11
-1.70107733E+02
 21
1.21284607E+02
  0
LINE
  8
0
 62
4
 10
-1.80892340E+02
 20
1.10892303E+02
 11
-1.70107733E+02
 21
1.10892303E+02
  0
LINE
  8
0
 62
4
 10
-1.80892340E+02
 20
9.01076965E+01
 11
-1.70107733E+02
 21
9.01076965E+01
  0
LINE
  8
0
 62
4
 10
-1.80892340E+02
 20
7.97153931E+01
 11
-1.70107733E+02
 21
7.97153931E+01
  0
LINE
  8
0
 62
4
 10
-1.82500036E+02
 20
1.18500000E+02
 11
-1.82500036E+02
 21
8.25000000E+01
  0
LINE
  8
0
 62
7
 10
-1.68500036E+02
 20
1.13499992E+02
 11
-1.57000013E+02
 21
1.13499992E+02
  0
LINE
  8
0
 62
2
 10
-1.68500036E+02
 20
1.12679985E+02
 11
-1.57000013E+02
 21
1.12679985E+02
  0
LINE
  8
0
 62
7
 10
-1.68500036E+02
 20
8.74999847E+01
 11
-1.57000013E+02
 21
8.74999847E+01
  0
LINE
  8
0
 62
2
 10
-1.68500036E+02
 20
8.83199921E+01
 11
-1.57000013E+02
 21
8.83199921E+01
  0
LINE
  8
0
 62
7
 10
-1.35000013E+02
 20
1.24028259E+02
 11
-1.35000013E+02
 21
7.69367294E+01
  0
LINE
  8
0
 62
4
 10
-9.99997900E+00
 20
1.52920416E+02
 11
-1.91339536E+01
 21
1.52920416E+02
  0
LINE
  8
0
 62
4
 10
-9.99997900E+00
 20
1.49920416E+02
 11
-2.08660044E+01
 21
1.49920416E+02
  0
LINE
  8
0
 62
6
 10
-1.82679282E+01
 20
1.54420416E+02
 11
-2.17320298E+01
 21
1.48420416E+02
  0
LINE
  8
0
  6
CENTER
 62
6
 10
-2.45000000E+01
 20
1.51420416E+02
 11
2.50000210E+01
 21
1.51420416E+02
  0
POLYLINE
  8
0
 62
4
 66
1
  0
VERTEX
  8
0
 62
4
 10
-5.24777176E+01
 20
1.54000012E+02
  0
VERTEX
  8
0
 62
4
 10
-5.21450090E+01
 20
1.54135027E+02
  0
VERTEX
  8
0
 62
4
 10
-5.18265942E+01
 20
1.54296071E+02
  0
VERTEX
  8
0
 62
4
 10
-5.15249269E+01
 20
1.54481906E+02
  0
VERTEX
  8
0
 62
4
 10
-5.12423315E+01
 20
1.54691097E+02
  0
VERTEX
  8
0
 62
4
 10
-5.09809856E+01
 20
1.54922034E+02
  0
VERTEX
  8
0
 62
4
 10
-5.07429030E+01
 20
1.55172937E+02
  0
VERTEX
  8
0
 62
4
 10
-5.05299183E+01
 20
1.55441872E+02
  0
VERTEX
  8
0
 62
4
 10
-5.03436727E+01
 20
1.55726768E+02
  0
VERTEX
  8
0
 62
4
 10
-5.01856013E+01
 20
1.56025428E+02
  0
VERTEX
  8
0
 62
4
 10
-5.00569222E+01
 20
1.56335552E+02
  0
VERTEX
  8
0
 62
4
 10
-4.99586268E+01
 20
1.56654750E+02
  0
VERTEX
  8
0
 62
4
 10
-4.98914727E+01
 20
1.56980562E+02
  0
VERTEX
  8
0
 62
4
 10
-4.98559773E+01
 20
1.57310478E+02
  0
VERTEX
  8
0
 62
4
 10
-4.98524140E+01
 20
1.57641955E+02
  0
VERTEX
  8
0
 62
4
 10
-4.98808105E+01
 20
1.57972440E+02
  0
VERTEX
  8
0
 62
4
 10
-4.99409477E+01
 20
1.58299385E+02
  0
VERTEX
  8
0
 62
4
 10
-5.00323625E+01
 20
1.58620271E+02
  0
VERTEX
  8
0
 62
4
 10
-5.01543503E+01
 20
1.58932626E+02
  0
VERTEX
  8
0
 62
4
 10
-5.03059711E+01
 20
1.59234043E+02
  0
VERTEX
  8
0
 62
4
 10
-5.04860567E+01
 20
1.59522199E+02
  0
VERTEX
  8
0
 62
4
 10
-5.06932193E+01
 20
1.59794874E+02
  0
VERTEX
  8
0
 62
4
 10
-5.09258627E+01
 20
1.60049967E+02
  0
VERTEX
  8
0
 62
4
 10
-5.11821941E+01
 20
1.60285512E+02
  0
VERTEX
  8
0
 62
4
 10
-5.14602385E+01
 20
1.60499694E+02
  0
VERTEX
  8
0
 62
4
 10
-5.17578532E+01
 20
1.60690862E+02
  0
VERTEX
  8
0
 62
4
 10
-5.20727450E+01
 20
1.60857544E+02
  0
VERTEX
  8
0
 62
4
 10
-5.24024875E+01
 20
1.60998455E+02
  0
VERTEX
  8
0
 62
4
 10
-5.27445398E+01
 20
1.61112509E+02
  0
VERTEX
  8
0
 62
4
 10
-5.30962661E+01
 20
1.61198828E+02
  0
VERTEX
  8
0
 62
4
 10
-5.34549563E+01
 20
1.61256747E+02
  0
VERTEX
  8
0
 62
4
 10
-5.38178463E+01
 20
1.61285818E+02
  0
VERTEX
  8
0
 62
4
 10
-5.41821400E+01
 20
1.61285818E+02
  0
VERTEX
  8
0
 62
4
 10
-5.45450301E+01
 20
1.61256748E+02
  0
VERTEX
  8
0
 62
4
 10
-5.49037204E+01
 20
1.61198830E+02
  0
VERTEX
  8
0
 62
4
 10
-5.52554470E+01
 20
1.61112512E+02
  0
VERTEX
  8
0
 62
4
 10
-5.55974995E+01
 20
1.60998458E+02
  0
VERTEX
  8
0
 62
4
 10
-5.59272424E+01
 20
1.60857548E+02
  0
VERTEX
  8
0
 62
4
 10
-5.62421347E+01
 20
1.60690867E+02
  0
VERTEX
  8
0
 62
4
 10
-5.65397499E+01
 20
1.60499699E+02
  0
VERTEX
  8
0
 62
4
 10
-5.68177948E+01
 20
1.60285518E+02
  0
VERTEX
  8
0
 62
4
 10
-5.70741269E+01
 20
1.60049974E+02
  0
VERTEX
  8
0
 62
4
 10
-5.73067709E+01
 20
1.59794882E+02
  0
VERTEX
  8
0
 62
4
 10
-5.75139343E+01
 20
1.59522207E+02
  0
VERTEX
  8
0
 62
4
 10
-5.76940206E+01
 20
1.59234051E+02
  0
VERTEX
  8
0
 62
4
 10
-5.78456422E+01
 20
1.58932635E+02
  0
VERTEX
  8
0
 62
4
 10
-5.79676308E+01
 20
1.58620280E+02
  0
VERTEX
  8
0
 62
4
 10
-5.80590464E+01
 20
1.58299393E+02
  0
VERTEX
  8
0
 62
4
 10
-5.81191845E+01
 20
1.57972449E+02
  0
VERTEX
  8
0
 62
4
 10
-5.81475818E+01
 20
1.57641964E+02
  0
VERTEX
  8
0
 62
4
 10
-5.81440195E+01
 20
1.57310487E+02
  0
VERTEX
  8
0
 62
4
 10
-5.81085249E+01
 20
1.56980571E+02
  0
VERTEX
  8
0
 62
4
 10
-5.80413716E+01
 20
1.56654759E+02
  0
VERTEX
  8
0
 62
4
 10
-5.79430771E+01
 20
1.56335561E+02
  0
VERTEX
  8
0
 62
4
 10
-5.78143988E+01
 20
1.56025436E+02
  0
VERTEX
  8
0
 62
4
 10
-5.76563282E+01
 20
1.55726776E+02
  0
VERTEX
  8
0
 62
4
 10
-5.74700833E+01
 20
1.55441880E+02
  0
VERTEX
  8
0
 62
4
 10
-5.72570994E+01
 20
1.55172944E+02
  0
VERTEX
  8
0
 62
4
 10
-5.70190174E+01
 20
1.54922041E+02
  0
VERTEX
  8
0
 62
4
 10
-5.67576721E+01
 20
1.54691103E+02
  0
VERTEX
  8
0
 62
4
 10
-5.64750773E+01
 20
1.54481911E+02
  0
VERTEX
  8
0
 62
4
 10
-5.61734104E+01
 20
1.54296076E+02
  0
VERTEX
  8
0
 62
4
 10
-5.58549961E+01
 20
1.54135031E+02
  0
VERTEX
  8
0
 62
4
 10
-5.55222879E+01
 20
1.54000015E+02
  0
SEQEND
  8
0
  0
POLYLINE
  8
0
 62
4
 66
1
  0
VERTEX
  8
0
 62
4
 10
-5.11951388E+01
 20
1.54000016E+02
  0
VERTEX
  8
0
 62
4
 10
-5.09258007E+01
 20
1.54246471E+02
  0
VERTEX
  8
0
 62
4
 10
-5.06825052E+01
 20
1.54514416E+02
  0
VERTEX
  8
0
 62
4
 10
-5.04673133E+01
 20
1.54801581E+02
  0
VERTEX
  8
0
 62
4
 10
-5.02820481E+01
 20
1.55105533E+02
  0
VERTEX
  8
0
 62
4
 10
-5.01282789E+01
 20
1.55423698E+02
  0
VERTEX
  8
0
 62
4
 10
-5.00073084E+01
 20
1.55753381E+02
  0
VERTEX
  8
0
 62
4
 10
-4.99201614E+01
 20
1.56091788E+02
  0
VERTEX
  8
0
 62
4
 10
-4.98675762E+01
 20
1.56436052E+02
  0
VERTEX
  8
0
 62
4
 10
-4.98499981E+01
 20
1.56783258E+02
  0
SEQEND
  8
0
  0
LINE
  8
0
 62
4
 10
-3.89999981E+01
 20
1.54000015E+02
 11
-3.89999981E+01
 21
1.63905365E+02
  0
LINE
  8
0
 62
4
 10
-4.54999981E+01
 20
1.54069725E+02
 11
-4.54999981E+01
 21
1.54000015E+02
  0
LINE
  8
0
 62
4
 10
-6.89999981E+01
 20
1.63905365E+02
 11
-6.89999981E+01
 21
1.54069725E+02
  0
LINE
  8
0
  6
CENTER
 62
6
 10
-4.93499981E+01
 20
1.56625674E+02
 11
-5.86499981E+01
 21
1.56625674E+02
  0
LINE
  8
0
  6
CENTER
 62
6
 10
-5.39999981E+01
 20
1.61275674E+02
 11
-5.39999981E+01
 21
1.51975674E+02
  0
LINE
  8
0
  6
CENTER
 62
6
 10
-5.79254012E+01
 20
1.59810539E+02
 11
-6.50745950E+01
 21
1.59810539E+02
  0
LINE
  8
0
  6
CENTER
 62
6
 10
-6.14999981E+01
 20
1.63385136E+02
 11
-6.14999981E+01
 21
1.56235942E+02
  0
LINE
  8
0
  6
CENTER
 62
6
 10
-4.16999981E+01
 20
1.59810539E+02
 11
-5.12999981E+01
 21
1.59810539E+02
  0
LINE
  8
0
  6
CENTER
 62
6
 10
-4.64999981E+01
 20
1.64610539E+02
 11
-4.64999981E+01
 21
1.55010539E+02
  0
LINE
  8
0
 62
4
 10
5.00002098E+00
 20
1.31767706E+02
 11
5.00002098E+00
 21
1.59634024E+02
  0
LINE
  8
0
 62
4
 10
-9.99997902E+00
 20
1.31767706E+02
 11
-9.99997902E+00
 21
1.63905365E+02
  0
LINE
  8
0
 62
4
 10
2.00000210E+01
 20
1.63905365E+02
 11
2.00000210E+01
 21
1.44908767E+02
  0
LINE
  8
0
  6
CENTER
 62
6
 10
1.50002098E+00
 20
1.32330530E+02
 11
1.50002098E+00
 21
1.39330530E+02
  0
LINE
  8
0
  6
CENTER
 62
6
 10
-9.99997902E+00
 20
1.35830530E+02
 11
-2.99997902E+00
 21
1.35830530E+02
  0
LINE
  8
0
  6
CENTER
 62
6
 10
-6.49997902E+00
 20
1.32330530E+02
 11
-6.49997902E+00
 21
1.39330530E+02
  0
LINE
  8
0
  6
CENTER
 62
6
 10
-1.99997902E+00
 20
1.35830530E+02
 11
5.00002098E+00
 21
1.35830530E+02
  0
LINE
  8
0
 62
4
 10
-6.89999981E+01
 20
1.63905365E+02
 11
-3.89999981E+01
 21
1.63905365E+02
  0
LINE
  8
0
 62
4
 10
-9.99997902E+00
 20
1.63905365E+02
 11
2.00000210E+01
 21
1.63905365E+02
  0
LINE
  8
0
 62
4
 10
-9.99997904E+00
 20
1.59634024E+02
 11
2.00000210E+01
 21
1.59634024E+02
  0
LINE
  8
0
 62
4
 10
-9.99997904E+00
 20
1.56731172E+02
 11
5.00002096E+00
 21
1.56731172E+02
  0
LINE
  8
0
 62
4
 10
-8.99997898E+00
 20
1.42592275E+02
 11
4.00002100E+00
 21
1.42592275E+02
  0
LINE
  8
0
 62
4
 10
5.00002096E+00
 20
1.44908767E+02
 11
2.00000210E+01
 21
1.44908767E+02
  0
LINE
  8
0
 62
4
 10
-9.99997904E+00
 20
1.31767706E+02
 11
5.00002096E+00
 21
1.31767706E+02
  0
LINE
  8
0
 62
4
 10
5.00002096E+00
 20
1.51899353E+02
 11
2.00000210E+01
 21
1.51899353E+02
  0
LINE
  8
0
 62
4
 10
5.00002096E+00
 20
1.51733476E+02
 11
2.00000210E+01
 21
1.51733476E+02
  0
LINE
  8
0
  6
CENTER
 62
6
 10
1.60746179E+01
 20
1.55539199E+02
 11
8.92542409E+00
 21
1.55539199E+02
  0
LINE
  8
0
  6
CENTER
 62
6
 10
1.25000210E+01
 20
1.59113795E+02
 11
1.25000210E+01
 21
1.51964602E+02
  0
POLYLINE
  8
0
 62
4
 66
1
  0
VERTEX
  8
0
 62
4
 10
1.47500210E+01
 20
1.55539199E+02
  0
VERTEX
  8
0
 62
4
 10
1.47414591E+01
 20
1.55717643E+02
  0
VERTEX
  8
0
 62
4
 10
1.47158384E+01
 20
1.55894729E+02
  0
VERTEX
  8
0
 62
4
 10
1.46733541E+01
 20
1.56069108E+02
  0
VERTEX
  8
0
 62
4
 10
1.46143294E+01
 20
1.56239455E+02
  0
VERTEX
  8
0
 62
4
 10
1.45392135E+01
 20
1.56404473E+02
  0
VERTEX
  8
0
 62
4
 10
1.44485782E+01
 20
1.56562905E+02
  0
VERTEX
  8
0
 62
4
 10
1.43431131E+01
 20
1.56713547E+02
  0
VERTEX
  8
0
 62
4
 10
1.42236210E+01
 20
1.56855251E+02
  0
VERTEX
  8
0
 62
4
 10
1.40910113E+01
 20
1.56986939E+02
  0
VERTEX
  8
0
 62
4
 10
1.39462931E+01
 20
1.57107608E+02
  0
VERTEX
  8
0
 62
4
 10
1.37905680E+01
 20
1.57216341E+02
  0
VERTEX
  8
0
 62
4
 10
1.36250210E+01
 20
1.57312311E+02
  0
VERTEX
  8
0
 62
4
 10
1.34509121E+01
 20
1.57394785E+02
  0
VERTEX
  8
0
 62
4
 10
1.32695663E+01
 20
1.57463138E+02
  0
VERTEX
  8
0
 62
4
 10
1.30823639E+01
 20
1.57516848E+02
  0
VERTEX
  8
0
 62
4
 10
1.28907294E+01
 20
1.57555507E+02
  0
VERTEX
  8
0
 62
4
 10
1.26961214E+01
 20
1.57578821E+02
  0
VERTEX
  8
0
 62
4
 10
1.25000210E+01
 20
1.57586612E+02
  0
VERTEX
  8
0
 62
4
 10
1.23039206E+01
 20
1.57578821E+02
  0
VERTEX
  8
0
 62
4
 10
1.21093126E+01
 20
1.57555507E+02
  0
VERTEX
  8
0
 62
4
 10
1.19176781E+01
 20
1.57516848E+02
  0
VERTEX
  8
0
 62
4
 10
1.17304757E+01
 20
1.57463138E+02
  0
VERTEX
  8
0
 62
4
 10
1.15491299E+01
 20
1.57394785E+02
  0
VERTEX
  8
0
 62
4
 10
1.13750210E+01
 20
1.57312311E+02
  0
VERTEX
  8
0
 62
4
 10
1.12094740E+01
 20
1.57216341E+02
  0
VERTEX
  8
0
 62
4
 10
1.10537489E+01
 20
1.57107608E+02
  0
VERTEX
  8
0
 62
4
 10
1.09090307E+01
 20
1.56986939E+02
  0
VERTEX
  8
0
 62
4
 10
1.07764210E+01
 20
1.56855251E+02
  0
VERTEX
  8
0
 62
4
 10
1.06569289E+01
 20
1.56713547E+02
  0
VERTEX
  8
0
 62
4
 10
1.05514638E+01
 20
1.56562905E+02
  0
VERTEX
  8
0
 62
4
 10
1.04608285E+01
 20
1.56404473E+02
  0
VERTEX
  8
0
 62
4
 10
1.03857126E+01
 20
1.56239455E+02
  0
VERTEX
  8
0
 62
4
 10
1.03266879E+01
 20
1.56069108E+02
  0
VERTEX
  8
0
 62
4
 10
1.02842036E+01
 20
1.55894729E+02
  0
VERTEX
  8
0
 62
4
 10
1.02585829E+01
 20
1.55717643E+02
  0
VERTEX
  8
0
 62
4
 10
1.02500210E+01
 20
1.55539199E+02
  0
VERTEX
  8
0
 62
4
 10
1.02585829E+01
 20
1.55360755E+02
  0
VERTEX
  8
0
 62
4
 10
1.02842036E+01
 20
1.55183669E+02
  0
VERTEX
  8
0
 62
4
 10
1.03266879E+01
 20
1.55009290E+02
  0
VERTEX
  8
0
 62
4
 10
1.03857126E+01
 20
1.54838943E+02
  0
VERTEX
  8
0
 62
4
 10
1.04608285E+01
 20
1.54673925E+02
  0
VERTEX
  8
0
 62
4
 10
1.05514638E+01
 20
1.54515493E+02
  0
VERTEX
  8
0
 62
4
 10
1.06569289E+01
 20
1.54364851E+02
  0
VERTEX
  8
0
 62
4
 10
1.07764210E+01
 20
1.54223147E+02
  0
VERTEX
  8
0
 62
4
 10
1.09090307E+01
 20
1.54091459E+02
  0
VERTEX
  8
0
 62
4
 10
1.10537489E+01
 20
1.53970790E+02
  0
VERTEX
  8
0
 62
4
 10
1.12094740E+01
 20
1.53862057E+02
  0
VERTEX
  8
0
 62
4
 10
1.13750210E+01
 20
1.53766087E+02
  0
VERTEX
  8
0
 62
4
 10
1.15491299E+01
 20
1.53683613E+02
  0
VERTEX
  8
0
 62
4
 10
1.17304757E+01
 20
1.53615260E+02
  0
VERTEX
  8
0
 62
4
 10
1.19176782E+01
 20
1.53561550E+02
  0
VERTEX
  8
0
 62
4
 10
1.21093126E+01
 20
1.53522891E+02
  0
VERTEX
  8
0
 62
4
 10
1.23039206E+01
 20
1.53499577E+02
  0
VERTEX
  8
0
 62
4
 10
1.25000210E+01
 20
1.53491786E+02
  0
VERTEX
  8
0
 62
4
 10
1.26961214E+01
 20
1.53499577E+02
  0
VERTEX
  8
0
 62
4
 10
1.28907294E+01
 20
1.53522891E+02
  0
VERTEX
  8
0
 62
4
 10
1.30823639E+01
 20
1.53561550E+02
  0
VERTEX
  8
0
 62
4
 10
1.32695663E+01
 20
1.53615260E+02
  0
VERTEX
  8
0
 62
4
 10
1.34509121E+01
 20
1.53683613E+02
  0
VERTEX
  8
0
 62
4
 10
1.36250210E+01
 20
1.53766087E+02
  0
VERTEX
  8
0
 62
4
 10
1.37905680E+01
 20
1.53862057E+02
  0
VERTEX
  8
0
 62
4
 10
1.39462931E+01
 20
1.53970790E+02
  0
VERTEX
  8
0
 62
4
 10
1.40910113E+01
 20
1.54091459E+02
  0
VERTEX
  8
0
 62
4
 10
1.42236210E+01
 20
1.54223147E+02
  0
VERTEX
  8
0
 62
4
 10
1.43431131E+01
 20
1.54364851E+02
  0
VERTEX
  8
0
 62
4
 10
1.44485782E+01
 20
1.54515493E+02
  0
VERTEX
  8
0
 62
4
 10
1.45392135E+01
 20
1.54673925E+02
  0
VERTEX
  8
0
 62
4
 10
1.46143294E+01
 20
1.54838943E+02
  0
VERTEX
  8
0
 62
4
 10
1.46733541E+01
 20
1.55009290E+02
  0
VERTEX
  8
0
 62
4
 10
1.47158384E+01
 20
1.55183669E+02
  0
VERTEX
  8
0
 62
4
 10
1.47414591E+01
 20
1.55360755E+02
  0
VERTEX
  8
0
 62
4
 10
1.47500210E+01
 20
1.55539199E+02
  0
SEQEND
  8
0
  0
POLYLINE
  8
0
 62
4
 66
1
  0
VERTEX
  8
0
 62
4
 10
3.50002098E+00
 20
1.35830530E+02
  0
VERTEX
  8
0
 62
4
 10
3.49196957E+00
 20
1.35993667E+02
  0
VERTEX
  8
0
 62
4
 10
3.46788016E+00
 20
1.36155490E+02
  0
VERTEX
  8
0
 62
4
 10
3.42794671E+00
 20
1.36314696E+02
  0
VERTEX
  8
0
 62
4
 10
3.37249073E+00
 20
1.36470005E+02
  0
VERTEX
  8
0
 62
4
 10
3.30195872E+00
 20
1.36620165E+02
  0
VERTEX
  8
0
 62
4
 10
3.21691857E+00
 20
1.36763967E+02
  0
VERTEX
  8
0
 62
4
 10
3.11805498E+00
 20
1.36900254E+02
  0
VERTEX
  8
0
 62
4
 10
3.00616392E+00
 20
1.37027927E+02
  0
VERTEX
  8
0
 62
4
 10
2.88214629E+00
 20
1.37145961E+02
  0
VERTEX
  8
0
 62
4
 10
2.74700060E+00
 20
1.37253403E+02
  0
VERTEX
  8
0
 62
4
 10
2.60181496E+00
 20
1.37349389E+02
  0
VERTEX
  8
0
 62
4
 10
2.44775832E+00
 20
1.37433146E+02
  0
VERTEX
  8
0
 62
4
 10
2.28607106E+00
 20
1.37503999E+02
  0
VERTEX
  8
0
 62
4
 10
2.11805498E+00
 20
1.37561379E+02
  0
VERTEX
  8
0
 62
4
 10
1.94506286E+00
 20
1.37604823E+02
  0
VERTEX
  8
0
 62
4
 10
1.76848753E+00
 20
1.37633982E+02
  0
VERTEX
  8
0
 62
4
 10
1.58975066E+00
 20
1.37648620E+02
  0
VERTEX
  8
0
 62
4
 10
1.41029134E+00
 20
1.37648620E+02
  0
VERTEX
  8
0
 62
4
 10
1.23155447E+00
 20
1.37633982E+02
  0
VERTEX
  8
0
 62
4
 10
1.05497913E+00
 20
1.37604823E+02
  0
VERTEX
  8
0
 62
4
 10
8.81987008E-01
 20
1.37561379E+02
  0
VERTEX
  8
0
 62
4
 10
7.13970933E-01
 20
1.37503999E+02
  0
VERTEX
  8
0
 62
4
 10
5.52283671E-01
 20
1.37433146E+02
  0
VERTEX
  8
0
 62
4
 10
3.98227033E-01
 20
1.37349389E+02
  0
VERTEX
  8
0
 62
4
 10
2.53041391E-01
 20
1.37253403E+02
  0
VERTEX
  8
0
 62
4
 10
1.17895696E-01
 20
1.37145961E+02
  0
VERTEX
  8
0
 62
4
 10
-6.12193934E-03
 20
1.37027927E+02
  0
VERTEX
  8
0
 62
4
 10
-1.18012997E-01
 20
1.36900254E+02
  0
VERTEX
  8
0
 62
4
 10
-2.16876597E-01
 20
1.36763967E+02
  0
VERTEX
  8
0
 62
4
 10
-3.01916747E-01
 20
1.36620165E+02
  0
VERTEX
  8
0
 62
4
 10
-3.72448754E-01
 20
1.36470005E+02
  0
VERTEX
  8
0
 62
4
 10
-4.27904736E-01
 20
1.36314696E+02
  0
VERTEX
  8
0
 62
4
 10
-4.67838194E-01
 20
1.36155490E+02
  0
VERTEX
  8
0
 62
4
 10
-4.91927606E-01
 20
1.35993667E+02
  0
VERTEX
  8
0
 62
4
 10
-4.99979020E-01
 20
1.35830530E+02
  0
SEQEND
  8
0
  0
LINE
  8
0
 62
4
 10
-4.99979019E-01
 20
1.34195613E+02
 11
-4.99979019E-01
 21
1.35830530E+02
  0
POLYLINE
  8
0
 62
4
 66
1
  0
VERTEX
  8
0
 62
4
 10
-4.99979020E-01
 20
1.34195613E+02
  0
VERTEX
  8
0
 62
4
 10
-4.92368417E-01
 20
1.34036996E+02
  0
VERTEX
  8
0
 62
4
 10
-4.69594527E-01
 20
1.33879587E+02
  0
VERTEX
  8
0
 62
4
 10
-4.31830674E-01
 20
1.33724582E+02
  0
VERTEX
  8
0
 62
4
 10
-3.79364264E-01
 20
1.33573163E+02
  0
VERTEX
  8
0
 62
4
 10
-3.12594597E-01
 20
1.33426481E+02
  0
VERTEX
  8
0
 62
4
 10
-2.32029831E-01
 20
1.33285652E+02
  0
VERTEX
  8
0
 62
4
 10
-1.38283112E-01
 20
1.33151748E+02
  0
VERTEX
  8
0
 62
4
 10
-3.20679100E-02
 20
1.33025789E+02
  0
VERTEX
  8
0
 62
4
 10
8.58074135E-02
 20
1.32908733E+02
  0
VERTEX
  8
0
 62
4
 10
2.14445756E-01
 20
1.32801472E+02
  0
VERTEX
  8
0
 62
4
 10
3.52868103E-01
 20
1.32704820E+02
  0
VERTEX
  8
0
 62
4
 10
5.00020975E-01
 20
1.32619514E+02
  0
VERTEX
  8
0
 62
4
 10
6.54784452E-01
 20
1.32546203E+02
  0
VERTEX
  8
0
 62
4
 10
8.15980688E-01
 20
1.32485445E+02
  0
VERTEX
  8
0
 62
4
 10
9.82382885E-01
 20
1.32437703E+02
  0
VERTEX
  8
0
 62
4
 10
1.15272462E+00
 20
1.32403339E+02
  0
VERTEX
  8
0
 62
4
 10
1.32570949E+00
 20
1.32382616E+02
  0
VERTEX
  8
0
 62
4
 10
1.50002097E+00
 20
1.32375691E+02
  0
VERTEX
  8
0
 62
4
 10
1.67433246E+00
 20
1.32382616E+02
  0
VERTEX
  8
0
 62
4
 10
1.84731733E+00
 20
1.32403339E+02
  0
VERTEX
  8
0
 62
4
 10
2.01765907E+00
 20
1.32437703E+02
  0
VERTEX
  8
0
 62
4
 10
2.18406126E+00
 20
1.32485445E+02
  0
VERTEX
  8
0
 62
4
 10
2.34525750E+00
 20
1.32546203E+02
  0
VERTEX
  8
0
 62
4
 10
2.50002098E+00
 20
1.32619514E+02
  0
VERTEX
  8
0
 62
4
 10
2.64717385E+00
 20
1.32704820E+02
  0
VERTEX
  8
0
 62
4
 10
2.78559620E+00
 20
1.32801471E+02
  0
VERTEX
  8
0
 62
4
 10
2.91423454E+00
 20
1.32908733E+02
  0
VERTEX
  8
0
 62
4
 10
3.03210986E+00
 20
1.33025789E+02
  0
VERTEX
  8
0
 62
4
 10
3.13832507E+00
 20
1.33151748E+02
  0
VERTEX
  8
0
 62
4
 10
3.23207179E+00
 20
1.33285652E+02
  0
VERTEX
  8
0
 62
4
 10
3.31263655E+00
 20
1.33426481E+02
  0
VERTEX
  8
0
 62
4
 10
3.37940622E+00
 20
1.33573163E+02
  0
VERTEX
  8
0
 62
4
 10
3.43187263E+00
 20
1.33724582E+02
  0
VERTEX
  8
0
 62
4
 10
3.46963649E+00
 20
1.33879587E+02
  0
VERTEX
  8
0
 62
4
 10
3.49241038E+00
 20
1.34036996E+02
  0
VERTEX
  8
0
 62
4
 10
3.50002098E+00
 20
1.34195613E+02
  0
VERTEX
  8
0
 62
4
 10
3.49241038E+00
 20
1.34354230E+02
  0
VERTEX
  8
0
 62
4
 10
3.46963649E+00
 20
1.34511639E+02
  0
VERTEX
  8
0
 62
4
 10
3.43187263E+00
 20
1.34666644E+02
  0
VERTEX
  8
0
 62
4
 10
3.37940622E+00
 20
1.34818063E+02
  0
VERTEX
  8
0
 62
4
 10
3.31263656E+00
 20
1.34964745E+02
  0
VERTEX
  8
0
 62
4
 10
3.23207179E+00
 20
1.35105574E+02
  0
VERTEX
  8
0
 62
4
 10
3.13832507E+00
 20
1.35239478E+02
  0
VERTEX
  8
0
 62
4
 10
3.03210987E+00
 20
1.35365437E+02
  0
VERTEX
  8
0
 62
4
 10
2.91423454E+00
 20
1.35482493E+02
  0
VERTEX
  8
0
 62
4
 10
2.78559620E+00
 20
1.35589755E+02
  0
VERTEX
  8
0
 62
4
 10
2.64717386E+00
 20
1.35686406E+02
  0
VERTEX
  8
0
 62
4
 10
2.50002098E+00
 20
1.35771712E+02
  0
VERTEX
  8
0
 62
4
 10
2.34525751E+00
 20
1.35845023E+02
  0
VERTEX
  8
0
 62
4
 10
2.18406127E+00
 20
1.35905781E+02
  0
VERTEX
  8
0
 62
4
 10
2.01765907E+00
 20
1.35953523E+02
  0
VERTEX
  8
0
 62
4
 10
1.84731734E+00
 20
1.35987887E+02
  0
VERTEX
  8
0
 62
4
 10
1.67433247E+00
 20
1.36008610E+02
  0
VERTEX
  8
0
 62
4
 10
1.50002098E+00
 20
1.36015535E+02
  0
VERTEX
  8
0
 62
4
 10
1.32570950E+00
 20
1.36008610E+02
  0
VERTEX
  8
0
 62
4
 10
1.15272463E+00
 20
1.35987887E+02
  0
VERTEX
  8
0
 62
4
 10
9.82382892E-01
 20
1.35953523E+02
  0
VERTEX
  8
0
 62
4
 10
8.15980695E-01
 20
1.35905781E+02
  0
VERTEX
  8
0
 62
4
 10
6.54784458E-01
 20
1.35845023E+02
  0
VERTEX
  8
0
 62
4
 10
5.00020982E-01
 20
1.35771712E+02
  0
VERTEX
  8
0
 62
4
 10
3.52868109E-01
 20
1.35686406E+02
  0
VERTEX
  8
0
 62
4
 10
2.14445762E-01
 20
1.35589755E+02
  0
VERTEX
  8
0
 62
4
 10
8.58074188E-02
 20
1.35482493E+02
  0
VERTEX
  8
0
 62
4
 10
-3.20679053E-02
 20
1.35365437E+02
  0
VERTEX
  8
0
 62
4
 10
-1.38283108E-01
 20
1.35239478E+02
  0
VERTEX
  8
0
 62
4
 10
-2.32029827E-01
 20
1.35105574E+02
  0
VERTEX
  8
0
 62
4
 10
-3.12594594E-01
 20
1.34964745E+02
  0
VERTEX
  8
0
 62
4
 10
-3.79364261E-01
 20
1.34818063E+02
  0
VERTEX
  8
0
 62
4
 10
-4.31830672E-01
 20
1.34666644E+02
  0
VERTEX
  8
0
 62
4
 10
-4.69594526E-01
 20
1.34511639E+02
  0
VERTEX
  8
0
 62
4
 10
-4.92368416E-01
 20
1.34354230E+02
  0
VERTEX
  8
0
 62
4
 10
-4.99979020E-01
 20
1.34195613E+02
  0
SEQEND
  8
0
  0
LINE
  8
0
 62
4
 10
3.50002098E+00
 20
1.34195613E+02
 11
3.50002098E+00
 21
1.35830530E+02
  0
POLYLINE
  8
0
 62
6
 66
1
  0
VERTEX
  8
0
 62
6
 10
2.09600000E-05
 20
1.34195613E+02
  0
VERTEX
  8
0
 62
6
 10
5.72891252E-03
 20
1.34076650E+02
  0
VERTEX
  8
0
 62
6
 10
2.28093300E-02
 20
1.33958593E+02
  0
VERTEX
  8
0
 62
6
 10
5.11322200E-02
 20
1.33842340E+02
  0
VERTEX
  8
0
 62
6
 10
9.04820284E-02
 20
1.33728775E+02
  0
VERTEX
  8
0
 62
6
 10
1.40559279E-01
 20
1.33618764E+02
  0
VERTEX
  8
0
 62
6
 10
2.00982855E-01
 20
1.33513142E+02
  0
VERTEX
  8
0
 62
6
 10
2.71292895E-01
 20
1.33412714E+02
  0
VERTEX
  8
0
 62
6
 10
3.50954297E-01
 20
1.33318245E+02
  0
VERTEX
  8
0
 62
6
 10
4.39360791E-01
 20
1.33230453E+02
  0
VERTEX
  8
0
 62
6
 10
5.35839549E-01
 20
1.33150007E+02
  0
VERTEX
  8
0
 62
6
 10
6.39656311E-01
 20
1.33077518E+02
  0
VERTEX
  8
0
 62
6
 10
7.50020966E-01
 20
1.33013539E+02
  0
VERTEX
  8
0
 62
6
 10
8.66093575E-01
 20
1.32958556E+02
  0
VERTEX
  8
0
 62
6
 10
9.86990754E-01
 20
1.32912987E+02
  0
VERTEX
  8
0
 62
6
 10
1.11179240E+00
 20
1.32877180E+02
  0
VERTEX
  8
0
 62
6
 10
1.23954871E+00
 20
1.32851408E+02
  0
VERTEX
  8
0
 62
6
 10
1.36928736E+00
 20
1.32835865E+02
  0
VERTEX
  8
0
 62
6
 10
1.50002098E+00
 20
1.32830671E+02
  0
VERTEX
  8
0
 62
6
 10
1.63075459E+00
 20
1.32835865E+02
  0
VERTEX
  8
0
 62
6
 10
1.76049325E+00
 20
1.32851408E+02
  0
VERTEX
  8
0
 62
6
 10
1.88824955E+00
 20
1.32877180E+02
  0
VERTEX
  8
0
 62
6
 10
2.01305120E+00
 20
1.32912987E+02
  0
VERTEX
  8
0
 62
6
 10
2.13394838E+00
 20
1.32958556E+02
  0
VERTEX
  8
0
 62
6
 10
2.25002099E+00
 20
1.33013539E+02
  0
VERTEX
  8
0
 62
6
 10
2.36038564E+00
 20
1.33077518E+02
  0
VERTEX
  8
0
 62
6
 10
2.46420240E+00
 20
1.33150007E+02
  0
VERTEX
  8
0
 62
6
 10
2.56068116E+00
 20
1.33230453E+02
  0
VERTEX
  8
0
 62
6
 10
2.64908766E+00
 20
1.33318245E+02
  0
VERTEX
  8
0
 62
6
 10
2.72874906E+00
 20
1.33412714E+02
  0
VERTEX
  8
0
 62
6
 10
2.79905910E+00
 20
1.33513142E+02
  0
VERTEX
  8
0
 62
6
 10
2.85948268E+00
 20
1.33618764E+02
  0
VERTEX
  8
0
 62
6
 10
2.90955993E+00
 20
1.33728775E+02
  0
VERTEX
  8
0
 62
6
 10
2.94890974E+00
 20
1.33842340E+02
  0
VERTEX
  8
0
 62
6
 10
2.97723263E+00
 20
1.33958593E+02
  0
VERTEX
  8
0
 62
6
 10
2.99431305E+00
 20
1.34076650E+02
  0
VERTEX
  8
0
 62
6
 10
3.00002100E+00
 20
1.34195613E+02
  0
VERTEX
  8
0
 62
6
 10
2.99431305E+00
 20
1.34314576E+02
  0
VERTEX
  8
0
 62
6
 10
2.97723263E+00
 20
1.34432633E+02
  0
VERTEX
  8
0
 62
6
 10
2.94890974E+00
 20
1.34548886E+02
  0
VERTEX
  8
0
 62
6
 10
2.90955993E+00
 20
1.34662451E+02
  0
VERTEX
  8
0
 62
6
 10
2.85948268E+00
 20
1.34772462E+02
  0
VERTEX
  8
0
 62
6
 10
2.79905910E+00
 20
1.34878084E+02
  0
VERTEX
  8
0
 62
6
 10
2.72874906E+00
 20
1.34978512E+02
  0
VERTEX
  8
0
 62
6
 10
2.64908766E+00
 20
1.35072981E+02
  0
VERTEX
  8
0
 62
6
 10
2.56068117E+00
 20
1.35160773E+02
  0
VERTEX
  8
0
 62
6
 10
2.46420241E+00
 20
1.35241219E+02
  0
VERTEX
  8
0
 62
6
 10
2.36038565E+00
 20
1.35313708E+02
  0
VERTEX
  8
0
 62
6
 10
2.25002099E+00
 20
1.35377687E+02
  0
VERTEX
  8
0
 62
6
 10
2.13394838E+00
 20
1.35432670E+02
  0
VERTEX
  8
0
 62
6
 10
2.01305120E+00
 20
1.35478239E+02
  0
VERTEX
  8
0
 62
6
 10
1.88824955E+00
 20
1.35514046E+02
  0
VERTEX
  8
0
 62
6
 10
1.76049325E+00
 20
1.35539818E+02
  0
VERTEX
  8
0
 62
6
 10
1.63075460E+00
 20
1.35555361E+02
  0
VERTEX
  8
0
 62
6
 10
1.50002098E+00
 20
1.35560555E+02
  0
VERTEX
  8
0
 62
6
 10
1.36928737E+00
 20
1.35555361E+02
  0
VERTEX
  8
0
 62
6
 10
1.23954871E+00
 20
1.35539818E+02
  0
VERTEX
  8
0
 62
6
 10
1.11179241E+00
 20
1.35514046E+02
  0
VERTEX
  8
0
 62
6
 10
9.86990760E-01
 20
1.35478239E+02
  0
VERTEX
  8
0
 62
6
 10
8.66093580E-01
 20
1.35432670E+02
  0
VERTEX
  8
0
 62
6
 10
7.50020971E-01
 20
1.35377687E+02
  0
VERTEX
  8
0
 62
6
 10
6.39656315E-01
 20
1.35313708E+02
  0
VERTEX
  8
0
 62
6
 10
5.35839554E-01
 20
1.35241219E+02
  0
VERTEX
  8
0
 62
6
 10
4.39360795E-01
 20
1.35160773E+02
  0
VERTEX
  8
0
 62
6
 10
3.50954301E-01
 20
1.35072981E+02
  0
VERTEX
  8
0
 62
6
 10
2.71292898E-01
 20
1.34978512E+02
  0
VERTEX
  8
0
 62
6
 10
2.00982858E-01
 20
1.34878084E+02
  0
VERTEX
  8
0
 62
6
 10
1.40559282E-01
 20
1.34772462E+02
  0
VERTEX
  8
0
 62
6
 10
9.04820303E-02
 20
1.34662451E+02
  0
VERTEX
  8
0
 62
6
 10
5.11322215E-02
 20
1.34548886E+02
  0
VERTEX
  8
0
 62
6
 10
2.28093309E-02
 20
1.34432633E+02
  0
VERTEX
  8
0
 62
6
 10
5.72891300E-03
 20
1.34314576E+02
  0
VERTEX
  8
0
 62
6
 10
2.09600000E-05
 20
1.34195613E+02
  0
SEQEND
  8
0
  0
LINE
  8
0
 62
4
 10
5.00020981E-01
 20
1.33667835E+02
 11
5.00020981E-01
 21
1.34723391E+02
  0
LINE
  8
0
 62
4
 10
1.50002098E+00
 20
1.35242068E+02
 11
5.00020981E-01
 21
1.34723391E+02
  0
LINE
  8
0
 62
4
 10
1.50002098E+00
 20
1.33140058E+02
 11
5.00020981E-01
 21
1.33667835E+02
  0
LINE
  8
0
 62
4
 10
1.50002098E+00
 20
1.35242068E+02
 11
2.50002098E+00
 21
1.34723391E+02
  0
LINE
  8
0
 62
4
 10
2.50002098E+00
 20
1.33667835E+02
 11
2.50002098E+00
 21
1.34723391E+02
  0
LINE
  8
0
 62
4
 10
1.50002098E+00
 20
1.33140058E+02
 11
2.50002098E+00
 21
1.33667835E+02
  0
LINE
  8
0
 62
4
 10
-6.49997902E+00
 20
1.33140058E+02
 11
-5.49997902E+00
 21
1.33667835E+02
  0
LINE
  8
0
 62
4
 10
-5.49997902E+00
 20
1.33667835E+02
 11
-5.49997902E+00
 21
1.34723391E+02
  0
LINE
  8
0
 62
4
 10
-6.49997902E+00
 20
1.35242068E+02
 11
-5.49997902E+00
 21
1.34723391E+02
  0
LINE
  8
0
 62
4
 10
-6.49997902E+00
 20
1.33140058E+02
 11
-7.49997902E+00
 21
1.33667835E+02
  0
LINE
  8
0
 62
4
 10
-6.49997902E+00
 20
1.35242068E+02
 11
-7.49997902E+00
 21
1.34723391E+02
  0
LINE
  8
0
 62
4
 10
-7.49997902E+00
 20
1.33667835E+02
 11
-7.49997902E+00
 21
1.34723391E+02
  0
POLYLINE
  8
0
 62
6
 66
1
  0
VERTEX
  8
0
 62
6
 10
-7.99997904E+00
 20
1.34195613E+02
  0
VERTEX
  8
0
 62
6
 10
-7.99427109E+00
 20
1.34076650E+02
  0
VERTEX
  8
0
 62
6
 10
-7.97719067E+00
 20
1.33958593E+02
  0
VERTEX
  8
0
 62
6
 10
-7.94886778E+00
 20
1.33842340E+02
  0
VERTEX
  8
0
 62
6
 10
-7.90951797E+00
 20
1.33728775E+02
  0
VERTEX
  8
0
 62
6
 10
-7.85944072E+00
 20
1.33618764E+02
  0
VERTEX
  8
0
 62
6
 10
-7.79901715E+00
 20
1.33513142E+02
  0
VERTEX
  8
0
 62
6
 10
-7.72870711E+00
 20
1.33412714E+02
  0
VERTEX
  8
0
 62
6
 10
-7.64904570E+00
 20
1.33318245E+02
  0
VERTEX
  8
0
 62
6
 10
-7.56063921E+00
 20
1.33230453E+02
  0
VERTEX
  8
0
 62
6
 10
-7.46416045E+00
 20
1.33150007E+02
  0
VERTEX
  8
0
 62
6
 10
-7.36034369E+00
 20
1.33077518E+02
  0
VERTEX
  8
0
 62
6
 10
-7.24997903E+00
 20
1.33013539E+02
  0
VERTEX
  8
0
 62
6
 10
-7.13390642E+00
 20
1.32958556E+02
  0
VERTEX
  8
0
 62
6
 10
-7.01300925E+00
 20
1.32912987E+02
  0
VERTEX
  8
0
 62
6
 10
-6.88820760E+00
 20
1.32877180E+02
  0
VERTEX
  8
0
 62
6
 10
-6.76045129E+00
 20
1.32851408E+02
  0
VERTEX
  8
0
 62
6
 10
-6.63071264E+00
 20
1.32835865E+02
  0
VERTEX
  8
0
 62
6
 10
-6.49997902E+00
 20
1.32830671E+02
  0
VERTEX
  8
0
 62
6
 10
-6.36924541E+00
 20
1.32835865E+02
  0
VERTEX
  8
0
 62
6
 10
-6.23950675E+00
 20
1.32851408E+02
  0
VERTEX
  8
0
 62
6
 10
-6.11175045E+00
 20
1.32877180E+02
  0
VERTEX
  8
0
 62
6
 10
-5.98694880E+00
 20
1.32912987E+02
  0
VERTEX
  8
0
 62
6
 10
-5.86605162E+00
 20
1.32958556E+02
  0
VERTEX
  8
0
 62
6
 10
-5.74997901E+00
 20
1.33013539E+02
  0
VERTEX
  8
0
 62
6
 10
-5.63961436E+00
 20
1.33077518E+02
  0
VERTEX
  8
0
 62
6
 10
-5.53579760E+00
 20
1.33150007E+02
  0
VERTEX
  8
0
 62
6
 10
-5.43931884E+00
 20
1.33230453E+02
  0
VERTEX
  8
0
 62
6
 10
-5.35091234E+00
 20
1.33318245E+02
  0
VERTEX
  8
0
 62
6
 10
-5.27125094E+00
 20
1.33412714E+02
  0
VERTEX
  8
0
 62
6
 10
-5.20094090E+00
 20
1.33513142E+02
  0
VERTEX
  8
0
 62
6
 10
-5.14051732E+00
 20
1.33618764E+02
  0
VERTEX
  8
0
 62
6
 10
-5.09044007E+00
 20
1.33728775E+02
  0
VERTEX
  8
0
 62
6
 10
-5.05109026E+00
 20
1.33842340E+02
  0
VERTEX
  8
0
 62
6
 10
-5.02276737E+00
 20
1.33958593E+02
  0
VERTEX
  8
0
 62
6
 10
-5.00568695E+00
 20
1.34076650E+02
  0
VERTEX
  8
0
 62
6
 10
-4.99997900E+00
 20
1.34195613E+02
  0
VERTEX
  8
0
 62
6
 10
-5.00568695E+00
 20
1.34314576E+02
  0
VERTEX
  8
0
 62
6
 10
-5.02276737E+00
 20
1.34432633E+02
  0
VERTEX
  8
0
 62
6
 10
-5.05109026E+00
 20
1.34548886E+02
  0
VERTEX
  8
0
 62
6
 10
-5.09044007E+00
 20
1.34662451E+02
  0
VERTEX
  8
0
 62
6
 10
-5.14051732E+00
 20
1.34772462E+02
  0
VERTEX
  8
0
 62
6
 10
-5.20094090E+00
 20
1.34878084E+02
  0
VERTEX
  8
0
 62
6
 10
-5.27125094E+00
 20
1.34978512E+02
  0
VERTEX
  8
0
 62
6
 10
-5.35091234E+00
 20
1.35072981E+02
  0
VERTEX
  8
0
 62
6
 10
-5.43931883E+00
 20
1.35160773E+02
  0
VERTEX
  8
0
 62
6
 10
-5.53579759E+00
 20
1.35241219E+02
  0
VERTEX
  8
0
 62
6
 10
-5.63961435E+00
 20
1.35313708E+02
  0
VERTEX
  8
0
 62
6
 10
-5.74997901E+00
 20
1.35377687E+02
  0
VERTEX
  8
0
 62
6
 10
-5.86605162E+00
 20
1.35432670E+02
  0
VERTEX
  8
0
 62
6
 10
-5.98694880E+00
 20
1.35478239E+02
  0
VERTEX
  8
0
 62
6
 10
-6.11175045E+00
 20
1.35514046E+02
  0
VERTEX
  8
0
 62
6
 10
-6.23950675E+00
 20
1.35539818E+02
  0
VERTEX
  8
0
 62
6
 10
-6.36924540E+00
 20
1.35555361E+02
  0
VERTEX
  8
0
 62
6
 10
-6.49997902E+00
 20
1.35560555E+02
  0
VERTEX
  8
0
 62
6
 10
-6.63071263E+00
 20
1.35555361E+02
  0
VERTEX
  8
0
 62
6
 10
-6.76045129E+00
 20
1.35539818E+02
  0
VERTEX
  8
0
 62
6
 10
-6.88820759E+00
 20
1.35514046E+02
  0
VERTEX
  8
0
 62
6
 10
-7.01300924E+00
 20
1.35478239E+02
  0
VERTEX
  8
0
 62
6
 10
-7.13390642E+00
 20
1.35432670E+02
  0
VERTEX
  8
0
 62
6
 10
-7.24997903E+00
 20
1.35377687E+02
  0
VERTEX
  8
0
 62
6
 10
-7.36034368E+00
 20
1.35313708E+02
  0
VERTEX
  8
0
 62
6
 10
-7.46416045E+00
 20
1.35241219E+02
  0
VERTEX
  8
0
 62
6
 10
-7.56063921E+00
 20
1.35160773E+02
  0
VERTEX
  8
0
 62
6
 10
-7.64904570E+00
 20
1.35072981E+02
  0
VERTEX
  8
0
 62
6
 10
-7.72870710E+00
 20
1.34978512E+02
  0
VERTEX
  8
0
 62
6
 10
-7.79901714E+00
 20
1.34878084E+02
  0
VERTEX
  8
0
 62
6
 10
-7.85944072E+00
 20
1.34772462E+02
  0
VERTEX
  8
0
 62
6
 10
-7.90951797E+00
 20
1.34662451E+02
  0
VERTEX
  8
0
 62
6
 10
-7.94886778E+00
 20
1.34548886E+02
  0
VERTEX
  8
0
 62
6
 10
-7.97719067E+00
 20
1.34432633E+02
  0
VERTEX
  8
0
 62
6
 10
-7.99427109E+00
 20
1.34314576E+02
  0
VERTEX
  8
0
 62
6
 10
-7.99997904E+00
 20
1.34195613E+02
  0
SEQEND
  8
0
  0
LINE
  8
0
 62
4
 10
-4.49997902E+00
 20
1.34195613E+02
 11
-4.49997902E+00
 21
1.35830530E+02
  0
POLYLINE
  8
0
 62
4
 66
1
  0
VERTEX
  8
0
 62
4
 10
-8.49997902E+00
 20
1.34195613E+02
  0
VERTEX
  8
0
 62
4
 10
-8.49236842E+00
 20
1.34036996E+02
  0
VERTEX
  8
0
 62
4
 10
-8.46959453E+00
 20
1.33879587E+02
  0
VERTEX
  8
0
 62
4
 10
-8.43183067E+00
 20
1.33724582E+02
  0
VERTEX
  8
0
 62
4
 10
-8.37936426E+00
 20
1.33573163E+02
  0
VERTEX
  8
0
 62
4
 10
-8.31259460E+00
 20
1.33426481E+02
  0
VERTEX
  8
0
 62
4
 10
-8.23202983E+00
 20
1.33285652E+02
  0
VERTEX
  8
0
 62
4
 10
-8.13828311E+00
 20
1.33151748E+02
  0
VERTEX
  8
0
 62
4
 10
-8.03206791E+00
 20
1.33025789E+02
  0
VERTEX
  8
0
 62
4
 10
-7.91419259E+00
 20
1.32908733E+02
  0
VERTEX
  8
0
 62
4
 10
-7.78555424E+00
 20
1.32801472E+02
  0
VERTEX
  8
0
 62
4
 10
-7.64713190E+00
 20
1.32704820E+02
  0
VERTEX
  8
0
 62
4
 10
-7.49997902E+00
 20
1.32619514E+02
  0
VERTEX
  8
0
 62
4
 10
-7.34521555E+00
 20
1.32546203E+02
  0
VERTEX
  8
0
 62
4
 10
-7.18401931E+00
 20
1.32485445E+02
  0
VERTEX
  8
0
 62
4
 10
-7.01761712E+00
 20
1.32437703E+02
  0
VERTEX
  8
0
 62
4
 10
-6.84727538E+00
 20
1.32403339E+02
  0
VERTEX
  8
0
 62
4
 10
-6.67429051E+00
 20
1.32382616E+02
  0
VERTEX
  8
0
 62
4
 10
-6.49997903E+00
 20
1.32375691E+02
  0
VERTEX
  8
0
 62
4
 10
-6.32566754E+00
 20
1.32382616E+02
  0
VERTEX
  8
0
 62
4
 10
-6.15268267E+00
 20
1.32403339E+02
  0
VERTEX
  8
0
 62
4
 10
-5.98234093E+00
 20
1.32437703E+02
  0
VERTEX
  8
0
 62
4
 10
-5.81593874E+00
 20
1.32485445E+02
  0
VERTEX
  8
0
 62
4
 10
-5.65474250E+00
 20
1.32546203E+02
  0
VERTEX
  8
0
 62
4
 10
-5.49997902E+00
 20
1.32619514E+02
  0
VERTEX
  8
0
 62
4
 10
-5.35282615E+00
 20
1.32704820E+02
  0
VERTEX
  8
0
 62
4
 10
-5.21440380E+00
 20
1.32801471E+02
  0
VERTEX
  8
0
 62
4
 10
-5.08576546E+00
 20
1.32908733E+02
  0
VERTEX
  8
0
 62
4
 10
-4.96789014E+00
 20
1.33025789E+02
  0
VERTEX
  8
0
 62
4
 10
-4.86167493E+00
 20
1.33151748E+02
  0
VERTEX
  8
0
 62
4
 10
-4.76792821E+00
 20
1.33285652E+02
  0
VERTEX
  8
0
 62
4
 10
-4.68736345E+00
 20
1.33426481E+02
  0
VERTEX
  8
0
 62
4
 10
-4.62059378E+00
 20
1.33573163E+02
  0
VERTEX
  8
0
 62
4
 10
-4.56812737E+00
 20
1.33724582E+02
  0
VERTEX
  8
0
 62
4
 10
-4.53036351E+00
 20
1.33879587E+02
  0
VERTEX
  8
0
 62
4
 10
-4.50758962E+00
 20
1.34036996E+02
  0
VERTEX
  8
0
 62
4
 10
-4.49997902E+00
 20
1.34195613E+02
  0
VERTEX
  8
0
 62
4
 10
-4.50758962E+00
 20
1.34354230E+02
  0
VERTEX
  8
0
 62
4
 10
-4.53036351E+00
 20
1.34511639E+02
  0
VERTEX
  8
0
 62
4
 10
-4.56812737E+00
 20
1.34666644E+02
  0
VERTEX
  8
0
 62
4
 10
-4.62059378E+00
 20
1.34818063E+02
  0
VERTEX
  8
0
 62
4
 10
-4.68736344E+00
 20
1.34964745E+02
  0
VERTEX
  8
0
 62
4
 10
-4.76792821E+00
 20
1.35105574E+02
  0
VERTEX
  8
0
 62
4
 10
-4.86167493E+00
 20
1.35239478E+02
  0
VERTEX
  8
0
 62
4
 10
-4.96789013E+00
 20
1.35365437E+02
  0
VERTEX
  8
0
 62
4
 10
-5.08576546E+00
 20
1.35482493E+02
  0
VERTEX
  8
0
 62
4
 10
-5.21440380E+00
 20
1.35589755E+02
  0
VERTEX
  8
0
 62
4
 10
-5.35282614E+00
 20
1.35686406E+02
  0
VERTEX
  8
0
 62
4
 10
-5.49997902E+00
 20
1.35771712E+02
  0
VERTEX
  8
0
 62
4
 10
-5.65474249E+00
 20
1.35845023E+02
  0
VERTEX
  8
0
 62
4
 10
-5.81593873E+00
 20
1.35905781E+02
  0
VERTEX
  8
0
 62
4
 10
-5.98234093E+00
 20
1.35953523E+02
  0
VERTEX
  8
0
 62
4
 10
-6.15268266E+00
 20
1.35987887E+02
  0
VERTEX
  8
0
 62
4
 10
-6.32566753E+00
 20
1.36008610E+02
  0
VERTEX
  8
0
 62
4
 10
-6.49997902E+00
 20
1.36015535E+02
  0
VERTEX
  8
0
 62
4
 10
-6.67429050E+00
 20
1.36008610E+02
  0
VERTEX
  8
0
 62
4
 10
-6.84727537E+00
 20
1.35987887E+02
  0
VERTEX
  8
0
 62
4
 10
-7.01761711E+00
 20
1.35953523E+02
  0
VERTEX
  8
0
 62
4
 10
-7.18401930E+00
 20
1.35905781E+02
  0
VERTEX
  8
0
 62
4
 10
-7.34521554E+00
 20
1.35845023E+02
  0
VERTEX
  8
0
 62
4
 10
-7.49997902E+00
 20
1.35771712E+02
  0
VERTEX
  8
0
 62
4
 10
-7.64713189E+00
 20
1.35686406E+02
  0
VERTEX
  8
0
 62
4
 10
-7.78555424E+00
 20
1.35589755E+02
  0
VERTEX
  8
0
 62
4
 10
-7.91419258E+00
 20
1.35482493E+02
  0
VERTEX
  8
0
 62
4
 10
-8.03206791E+00
 20
1.35365437E+02
  0
VERTEX
  8
0
 62
4
 10
-8.13828311E+00
 20
1.35239478E+02
  0
VERTEX
  8
0
 62
4
 10
-8.23202983E+00
 20
1.35105574E+02
  0
VERTEX
  8
0
 62
4
 10
-8.31259459E+00
 20
1.34964745E+02
  0
VERTEX
  8
0
 62
4
 10
-8.37936426E+00
 20
1.34818063E+02
  0
VERTEX
  8
0
 62
4
 10
-8.43183067E+00
 20
1.34666644E+02
  0
VERTEX
  8
0
 62
4
 10
-8.46959453E+00
 20
1.34511639E+02
  0
VERTEX
  8
0
 62
4
 10
-8.49236842E+00
 20
1.34354230E+02
  0
VERTEX
  8
0
 62
4
 10
-8.49997902E+00
 20
1.34195613E+02
  0
SEQEND
  8
0
  0
LINE
  8
0
 62
4
 10
-8.49997902E+00
 20
1.34195613E+02
 11
-8.49997902E+00
 21
1.35830530E+02
  0
POLYLINE
  8
0
 62
4
 66
1
  0
VERTEX
  8
0
 62
4
 10
-4.49997902E+00
 20
1.35830530E+02
  0
VERTEX
  8
0
 62
4
 10
-4.50803043E+00
 20
1.35993667E+02
  0
VERTEX
  8
0
 62
4
 10
-4.53211984E+00
 20
1.36155490E+02
  0
VERTEX
  8
0
 62
4
 10
-4.57205329E+00
 20
1.36314696E+02
  0
VERTEX
  8
0
 62
4
 10
-4.62750927E+00
 20
1.36470005E+02
  0
VERTEX
  8
0
 62
4
 10
-4.69804128E+00
 20
1.36620165E+02
  0
VERTEX
  8
0
 62
4
 10
-4.78308143E+00
 20
1.36763967E+02
  0
VERTEX
  8
0
 62
4
 10
-4.88194502E+00
 20
1.36900254E+02
  0
VERTEX
  8
0
 62
4
 10
-4.99383608E+00
 20
1.37027927E+02
  0
VERTEX
  8
0
 62
4
 10
-5.11785371E+00
 20
1.37145961E+02
  0
VERTEX
  8
0
 62
4
 10
-5.25299940E+00
 20
1.37253403E+02
  0
VERTEX
  8
0
 62
4
 10
-5.39818504E+00
 20
1.37349389E+02
  0
VERTEX
  8
0
 62
4
 10
-5.55224168E+00
 20
1.37433146E+02
  0
VERTEX
  8
0
 62
4
 10
-5.71392894E+00
 20
1.37503999E+02
  0
VERTEX
  8
0
 62
4
 10
-5.88194502E+00
 20
1.37561379E+02
  0
VERTEX
  8
0
 62
4
 10
-6.05493714E+00
 20
1.37604823E+02
  0
VERTEX
  8
0
 62
4
 10
-6.23151247E+00
 20
1.37633982E+02
  0
VERTEX
  8
0
 62
4
 10
-6.41024934E+00
 20
1.37648620E+02
  0
VERTEX
  8
0
 62
4
 10
-6.58970866E+00
 20
1.37648620E+02
  0
VERTEX
  8
0
 62
4
 10
-6.76844553E+00
 20
1.37633982E+02
  0
VERTEX
  8
0
 62
4
 10
-6.94502087E+00
 20
1.37604823E+02
  0
VERTEX
  8
0
 62
4
 10
-7.11801299E+00
 20
1.37561379E+02
  0
VERTEX
  8
0
 62
4
 10
-7.28602907E+00
 20
1.37503999E+02
  0
VERTEX
  8
0
 62
4
 10
-7.44771633E+00
 20
1.37433146E+02
  0
VERTEX
  8
0
 62
4
 10
-7.60177297E+00
 20
1.37349389E+02
  0
VERTEX
  8
0
 62
4
 10
-7.74695861E+00
 20
1.37253403E+02
  0
VERTEX
  8
0
 62
4
 10
-7.88210430E+00
 20
1.37145961E+02
  0
VERTEX
  8
0
 62
4
 10
-8.00612194E+00
 20
1.37027927E+02
  0
VERTEX
  8
0
 62
4
 10
-8.11801300E+00
 20
1.36900254E+02
  0
VERTEX
  8
0
 62
4
 10
-8.21687660E+00
 20
1.36763967E+02
  0
VERTEX
  8
0
 62
4
 10
-8.30191675E+00
 20
1.36620165E+02
  0
VERTEX
  8
0
 62
4
 10
-8.37244875E+00
 20
1.36470005E+02
  0
VERTEX
  8
0
 62
4
 10
-8.42790474E+00
 20
1.36314696E+02
  0
VERTEX
  8
0
 62
4
 10
-8.46783819E+00
 20
1.36155490E+02
  0
VERTEX
  8
0
 62
4
 10
-8.49192761E+00
 20
1.35993667E+02
  0
VERTEX
  8
0
 62
4
 10
-8.49997902E+00
 20
1.35830530E+02
  0
SEQEND
  8
0
  0
LINE
  8
0
 62
4
 10
-6.89999981E+01
 20
1.54069725E+02
 11
-6.90907311E+01
 21
1.54000015E+02
  0
LINE
  8
0
 62
4
 10
-6.89999981E+01
 20
1.54069725E+02
 11
-5.68861708E+01
 21
1.54069725E+02
  0
LINE
  8
0
 62
4
 10
-6.89999981E+01
 20
1.54069725E+02
 11
-6.89999981E+01
 21
1.54000015E+02
  0
POLYLINE
  8
0
 62
4
 66
1
  0
VERTEX
  8
0
 62
4
 10
-4.87639664E+01
 20
1.63002396E+02
  0
VERTEX
  8
0
 62
4
 10
-4.90229686E+01
 20
1.62810967E+02
  0
VERTEX
  8
0
 62
4
 10
-4.92625178E+01
 20
1.62599601E+02
  0
VERTEX
  8
0
 62
4
 10
-4.94807669E+01
 20
1.62369927E+02
  0
VERTEX
  8
0
 62
4
 10
-4.96760332E+01
 20
1.62123718E+02
  0
VERTEX
  8
0
 62
4
 10
-4.98468110E+01
 20
1.61862870E+02
  0
VERTEX
  8
0
 62
4
 10
-4.99917836E+01
 20
1.61589395E+02
  0
VERTEX
  8
0
 62
4
 10
-5.01098332E+01
 20
1.61305403E+02
  0
VERTEX
  8
0
 62
4
 10
-5.02000496E+01
 20
1.61013081E+02
  0
VERTEX
  8
0
 62
4
 10
-5.02617372E+01
 20
1.60714685E+02
  0
VERTEX
  8
0
 62
4
 10
-5.02944204E+01
 20
1.60412516E+02
  0
VERTEX
  8
0
 62
4
 10
-5.02978471E+01
 20
1.60108902E+02
  0
VERTEX
  8
0
 62
4
 10
-5.02719909E+01
 20
1.59806185E+02
  0
VERTEX
  8
0
 62
4
 10
-5.02170513E+01
 20
1.59506699E+02
  0
VERTEX
  8
0
 62
4
 10
-5.01334518E+01
 20
1.59212753E+02
  0
VERTEX
  8
0
 62
4
 10
-5.00218369E+01
 20
1.58926614E+02
  0
VERTEX
  8
0
 62
4
 10
-4.98830673E+01
 20
1.58650488E+02
  0
VERTEX
  8
0
 62
4
 10
-4.97182130E+01
 20
1.58386504E+02
  0
VERTEX
  8
0
 62
4
 10
-4.95285450E+01
 20
1.58136697E+02
  0
VERTEX
  8
0
 62
4
 10
-4.93155258E+01
 20
1.57902993E+02
  0
VERTEX
  8
0
 62
4
 10
-4.90807977E+01
 20
1.57687195E+02
  0
VERTEX
  8
0
 62
4
 10
-4.88261708E+01
 20
1.57490966E+02
  0
VERTEX
  8
0
 62
4
 10
-4.85536081E+01
 20
1.57315819E+02
  0
VERTEX
  8
0
 62
4
 10
-4.82652113E+01
 20
1.57163105E+02
  0
VERTEX
  8
0
 62
4
 10
-4.79632041E+01
 20
1.57034001E+02
  0
VERTEX
  8
0
 62
4
 10
-4.76499150E+01
 20
1.56929502E+02
  0
VERTEX
  8
0
 62
4
 10
-4.73277595E+01
 20
1.56850415E+02
  0
VERTEX
  8
0
 62
4
 10
-4.69992218E+01
 20
1.56797349E+02
  0
VERTEX
  8
0
 62
4
 10
-4.66668348E+01
 20
1.56770713E+02
  0
VERTEX
  8
0
 62
4
 10
-4.63331615E+01
 20
1.56770713E+02
  0
VERTEX
  8
0
 62
4
 10
-4.60007745E+01
 20
1.56797349E+02
  0
VERTEX
  8
0
 62
4
 10
-4.56722367E+01
 20
1.56850415E+02
  0
VERTEX
  8
0
 62
4
 10
-4.53500813E+01
 20
1.56929502E+02
  0
VERTEX
  8
0
 62
4
 10
-4.50367922E+01
 20
1.57034000E+02
  0
VERTEX
  8
0
 62
4
 10
-4.47347849E+01
 20
1.57163104E+02
  0
VERTEX
  8
0
 62
4
 10
-4.44463882E+01
 20
1.57315819E+02
  0
VERTEX
  8
0
 62
4
 10
-4.41738255E+01
 20
1.57490966E+02
  0
VERTEX
  8
0
 62
4
 10
-4.39191985E+01
 20
1.57687195E+02
  0
VERTEX
  8
0
 62
4
 10
-4.36844705E+01
 20
1.57902993E+02
  0
VERTEX
  8
0
 62
4
 10
-4.34714512E+01
 20
1.58136697E+02
  0
VERTEX
  8
0
 62
4
 10
-4.32817832E+01
 20
1.58386504E+02
  0
VERTEX
  8
0
 62
4
 10
-4.31169289E+01
 20
1.58650488E+02
  0
VERTEX
  8
0
 62
4
 10
-4.29781593E+01
 20
1.58926614E+02
  0
VERTEX
  8
0
 62
4
 10
-4.28665445E+01
 20
1.59212753E+02
  0
VERTEX
  8
0
 62
4
 10
-4.27829449E+01
 20
1.59506699E+02
  0
VERTEX
  8
0
 62
4
 10
-4.27280053E+01
 20
1.59806185E+02
  0
VERTEX
  8
0
 62
4
 10
-4.27021491E+01
 20
1.60108902E+02
  0
VERTEX
  8
0
 62
4
 10
-4.27055758E+01
 20
1.60412516E+02
  0
VERTEX
  8
0
 62
4
 10
-4.27382590E+01
 20
1.60714685E+02
  0
VERTEX
  8
0
 62
4
 10
-4.27999466E+01
 20
1.61013081E+02
  0
VERTEX
  8
0
 62
4
 10
-4.28901630E+01
 20
1.61305403E+02
  0
VERTEX
  8
0
 62
4
 10
-4.30082126E+01
 20
1.61589395E+02
  0
VERTEX
  8
0
 62
4
 10
-4.31531852E+01
 20
1.61862870E+02
  0
VERTEX
  8
0
 62
4
 10
-4.33239630E+01
 20
1.62123718E+02
  0
VERTEX
  8
0
 62
4
 10
-4.35192292E+01
 20
1.62369927E+02
  0
VERTEX
  8
0
 62
4
 10
-4.37374784E+01
 20
1.62599601E+02
  0
VERTEX
  8
0
 62
4
 10
-4.39770275E+01
 20
1.62810967E+02
  0
VERTEX
  8
0
 62
4
 10
-4.42360298E+01
 20
1.63002396E+02
  0
SEQEND
  8
0
  0
POLYLINE
  8
0
 62
4
 66
1
  0
VERTEX
  8
0
 62
4
 10
-4.98999981E+01
 20
1.60225232E+02
  0
VERTEX
  8
0
 62
4
 10
-4.98863107E+01
 20
1.59947900E+02
  0
VERTEX
  8
0
 62
4
 10
-4.98453587E+01
 20
1.59672800E+02
  0
VERTEX
  8
0
 62
4
 10
-4.97774719E+01
 20
1.59402149E+02
  0
VERTEX
  8
0
 62
4
 10
-4.96831967E+01
 20
1.59138125E+02
  0
VERTEX
  8
0
 62
4
 10
-4.95632923E+01
 20
1.58882853E+02
  0
VERTEX
  8
0
 62
4
 10
-4.94187240E+01
 20
1.58638389E+02
  0
VERTEX
  8
0
 62
4
 10
-4.92506559E+01
 20
1.58406702E+02
  0
VERTEX
  8
0
 62
4
 10
-4.90604411E+01
 20
1.58189656E+02
  0
VERTEX
  8
0
 62
4
 10
-4.88496111E+01
 20
1.57989000E+02
  0
VERTEX
  8
0
 62
4
 10
-4.86198635E+01
 20
1.57806348E+02
  0
VERTEX
  8
0
 62
4
 10
-4.83730479E+01
 20
1.57643172E+02
  0
VERTEX
  8
0
 62
4
 10
-4.81111516E+01
 20
1.57500785E+02
  0
VERTEX
  8
0
 62
4
 10
-4.78362832E+01
 20
1.57380334E+02
  0
VERTEX
  8
0
 62
4
 10
-4.75506559E+01
 20
1.57282788E+02
  0
VERTEX
  8
0
 62
4
 10
-4.72565693E+01
 20
1.57208933E+02
  0
VERTEX
  8
0
 62
4
 10
-4.69563912E+01
 20
1.57159364E+02
  0
VERTEX
  8
0
 62
4
 10
-4.66525385E+01
 20
1.57134479E+02
  0
VERTEX
  8
0
 62
4
 10
-4.63474577E+01
 20
1.57134479E+02
  0
VERTEX
  8
0
 62
4
 10
-4.60436050E+01
 20
1.57159364E+02
  0
VERTEX
  8
0
 62
4
 10
-4.57434269E+01
 20
1.57208933E+02
  0
VERTEX
  8
0
 62
4
 10
-4.54493403E+01
 20
1.57282788E+02
  0
VERTEX
  8
0
 62
4
 10
-4.51637130E+01
 20
1.57380334E+02
  0
VERTEX
  8
0
 62
4
 10
-4.48888447E+01
 20
1.57500785E+02
  0
VERTEX
  8
0
 62
4
 10
-4.46269484E+01
 20
1.57643172E+02
  0
VERTEX
  8
0
 62
4
 10
-4.43801328E+01
 20
1.57806348E+02
  0
VERTEX
  8
0
 62
4
 10
-4.41503851E+01
 20
1.57989000E+02
  0
VERTEX
  8
0
 62
4
 10
-4.39395551E+01
 20
1.58189656E+02
  0
VERTEX
  8
0
 62
4
 10
-4.37493403E+01
 20
1.58406702E+02
  0
VERTEX
  8
0
 62
4
 10
-4.35812722E+01
 20
1.58638389E+02
  0
VERTEX
  8
0
 62
4
 10
-4.34367039E+01
 20
1.58882853E+02
  0
VERTEX
  8
0
 62
4
 10
-4.33167995E+01
 20
1.59138125E+02
  0
VERTEX
  8
0
 62
4
 10
-4.32225244E+01
 20
1.59402149E+02
  0
VERTEX
  8
0
 62
4
 10
-4.31546375E+01
 20
1.59672800E+02
  0
VERTEX
  8
0
 62
4
 10
-4.31136855E+01
 20
1.59947900E+02
  0
VERTEX
  8
0
 62
4
 10
-4.30999981E+01
 20
1.60225232E+02
  0
SEQEND
  8
0
  0
POLYLINE
  8
0
 62
4
 66
1
  0
VERTEX
  8
0
 62
4
 10
-4.98999981E+01
 20
1.60694169E+02
  0
VERTEX
  8
0
 62
4
 10
-4.98870601E+01
 20
1.60424521E+02
  0
VERTEX
  8
0
 62
4
 10
-4.98483445E+01
 20
1.60156924E+02
  0
VERTEX
  8
0
 62
4
 10
-4.97841459E+01
 20
1.59893417E+02
  0
VERTEX
  8
0
 62
4
 10
-4.96949530E+01
 20
1.59636004E+02
  0
VERTEX
  8
0
 62
4
 10
-4.95814446E+01
 20
1.59386644E+02
  0
VERTEX
  8
0
 62
4
 10
-4.94444845E+01
 20
1.59147235E+02
  0
VERTEX
  8
0
 62
4
 10
-4.92851151E+01
 20
1.58919599E+02
  0
VERTEX
  8
0
 62
4
 10
-4.91045492E+01
 20
1.58705469E+02
  0
VERTEX
  8
0
 62
4
 10
-4.89041612E+01
 20
1.58506474E+02
  0
VERTEX
  8
0
 62
4
 10
-4.86854760E+01
 20
1.58324128E+02
  0
VERTEX
  8
0
 62
4
 10
-4.84501580E+01
 20
1.58159820E+02
  0
VERTEX
  8
0
 62
4
 10
-4.81999981E+01
 20
1.58014800E+02
  0
VERTEX
  8
0
 62
4
 10
-4.79369002E+01
 20
1.57890172E+02
  0
VERTEX
  8
0
 62
4
 10
-4.76628666E+01
 20
1.57786884E+02
  0
VERTEX
  8
0
 62
4
 10
-4.73799829E+01
 20
1.57705722E+02
  0
VERTEX
  8
0
 62
4
 10
-4.70904019E+01
 20
1.57647303E+02
  0
VERTEX
  8
0
 62
4
 10
-4.67963276E+01
 20
1.57612074E+02
  0
VERTEX
  8
0
 62
4
 10
-4.64999981E+01
 20
1.57600301E+02
  0
VERTEX
  8
0
 62
4
 10
-4.62036686E+01
 20
1.57612074E+02
  0
VERTEX
  8
0
 62
4
 10
-4.59095943E+01
 20
1.57647303E+02
  0
VERTEX
  8
0
 62
4
 10
-4.56200133E+01
 20
1.57705722E+02
  0
VERTEX
  8
0
 62
4
 10
-4.53371296E+01
 20
1.57786884E+02
  0
VERTEX
  8
0
 62
4
 10
-4.50630960E+01
 20
1.57890172E+02
  0
VERTEX
  8
0
 62
4
 10
-4.47999981E+01
 20
1.58014800E+02
  0
VERTEX
  8
0
 62
4
 10
-4.45498382E+01
 20
1.58159820E+02
  0
VERTEX
  8
0
 62
4
 10
-4.43145202E+01
 20
1.58324128E+02
  0
VERTEX
  8
0
 62
4
 10
-4.40958350E+01
 20
1.58506474E+02
  0
VERTEX
  8
0
 62
4
 10
-4.38954470E+01
 20
1.58705469E+02
  0
VERTEX
  8
0
 62
4
 10
-4.37148811E+01
 20
1.58919599E+02
  0
VERTEX
  8
0
 62
4
 10
-4.35555117E+01
 20
1.59147235E+02
  0
VERTEX
  8
0
 62
4
 10
-4.34185516E+01
 20
1.59386644E+02
  0
VERTEX
  8
0
 62
4
 10
-4.33050432E+01
 20
1.59636004E+02
  0
VERTEX
  8
0
 62
4
 10
-4.32158503E+01
 20
1.59893417E+02
  0
VERTEX
  8
0
 62
4
 10
-4.31516517E+01
 20
1.60156924E+02
  0
VERTEX
  8
0
 62
4
 10
-4.31129361E+01
 20
1.60424521E+02
  0
VERTEX
  8
0
 62
4
 10
-4.30999981E+01
 20
1.60694169E+02
  0
VERTEX
  8
0
 62
4
 10
-4.31129361E+01
 20
1.60963817E+02
  0
VERTEX
  8
0
 62
4
 10
-4.31516517E+01
 20
1.61231414E+02
  0
VERTEX
  8
0
 62
4
 10
-4.32158503E+01
 20
1.61494921E+02
  0
VERTEX
  8
0
 62
4
 10
-4.33050432E+01
 20
1.61752334E+02
  0
VERTEX
  8
0
 62
4
 10
-4.34185516E+01
 20
1.62001694E+02
  0
VERTEX
  8
0
 62
4
 10
-4.35555117E+01
 20
1.62241103E+02
  0
VERTEX
  8
0
 62
4
 10
-4.37148811E+01
 20
1.62468739E+02
  0
VERTEX
  8
0
 62
4
 10
-4.38954470E+01
 20
1.62682869E+02
  0
VERTEX
  8
0
 62
4
 10
-4.40958350E+01
 20
1.62881864E+02
  0
VERTEX
  8
0
 62
4
 10
-4.43145202E+01
 20
1.63064210E+02
  0
VERTEX
  8
0
 62
4
 10
-4.45498382E+01
 20
1.63228518E+02
  0
VERTEX
  8
0
 62
4
 10
-4.47999981E+01
 20
1.63373538E+02
  0
VERTEX
  8
0
 62
4
 10
-4.50630960E+01
 20
1.63498166E+02
  0
VERTEX
  8
0
 62
4
 10
-4.53371296E+01
 20
1.63601454E+02
  0
VERTEX
  8
0
 62
4
 10
-4.56200133E+01
 20
1.63682616E+02
  0
VERTEX
  8
0
 62
4
 10
-4.59095943E+01
 20
1.63741035E+02
  0
VERTEX
  8
0
 62
4
 10
-4.62036686E+01
 20
1.63776264E+02
  0
VERTEX
  8
0
 62
4
 10
-4.64999981E+01
 20
1.63788037E+02
  0
VERTEX
  8
0
 62
4
 10
-4.67963276E+01
 20
1.63776264E+02
  0
VERTEX
  8
0
 62
4
 10
-4.70904019E+01
 20
1.63741035E+02
  0
VERTEX
  8
0
 62
4
 10
-4.73799829E+01
 20
1.63682616E+02
  0
VERTEX
  8
0
 62
4
 10
-4.76628666E+01
 20
1.63601454E+02
  0
VERTEX
  8
0
 62
4
 10
-4.79369002E+01
 20
1.63498166E+02
  0
VERTEX
  8
0
 62
4
 10
-4.81999981E+01
 20
1.63373538E+02
  0
VERTEX
  8
0
 62
4
 10
-4.84501580E+01
 20
1.63228518E+02
  0
VERTEX
  8
0
 62
4
 10
-4.86854760E+01
 20
1.63064210E+02
  0
VERTEX
  8
0
 62
4
 10
-4.89041612E+01
 20
1.62881864E+02
  0
VERTEX
  8
0
 62
4
 10
-4.91045492E+01
 20
1.62682869E+02
  0
VERTEX
  8
0
 62
4
 10
-4.92851151E+01
 20
1.62468739E+02
  0
VERTEX
  8
0
 62
4
 10
-4.94444845E+01
 20
1.62241103E+02
  0
VERTEX
  8
0
 62
4
 10
-4.95814446E+01
 20
1.62001694E+02
  0
VERTEX
  8
0
 62
4
 10
-4.96949530E+01
 20
1.61752334E+02
  0
VERTEX
  8
0
 62
4
 10
-4.97841459E+01
 20
1.61494921E+02
  0
VERTEX
  8
0
 62
4
 10
-4.98483445E+01
 20
1.61231414E+02
  0
VERTEX
  8
0
 62
4
 10
-4.98870601E+01
 20
1.60963817E+02
  0
VERTEX
  8
0
 62
4
 10
-4.98999981E+01
 20
1.60694169E+02
  0
SEQEND
  8
0
  0
POLYLINE
  8
0
 62
4
 66
1
  0
VERTEX
  8
0
 62
4
 10
-4.99622041E+01
 20
1.58385315E+02
  0
VERTEX
  8
0
 62
4
 10
-4.98118311E+01
 20
1.58115039E+02
  0
VERTEX
  8
0
 62
4
 10
-4.96360385E+01
 20
1.57857776E+02
  0
VERTEX
  8
0
 62
4
 10
-4.94361756E+01
 20
1.57615502E+02
  0
VERTEX
  8
0
 62
4
 10
-4.92137763E+01
 20
1.57390075E+02
  0
VERTEX
  8
0
 62
4
 10
-4.89705478E+01
 20
1.57183226E+02
  0
VERTEX
  8
0
 62
4
 10
-4.87083568E+01
 20
1.56996543E+02
  0
VERTEX
  8
0
 62
4
 10
-4.84292158E+01
 20
1.56831459E+02
  0
VERTEX
  8
0
 62
4
 10
-4.81352673E+01
 20
1.56689240E+02
  0
VERTEX
  8
0
 62
4
 10
-4.78287674E+01
 20
1.56570978E+02
  0
VERTEX
  8
0
 62
4
 10
-4.75120688E+01
 20
1.56477581E+02
  0
VERTEX
  8
0
 62
4
 10
-4.71876021E+01
 20
1.56409766E+02
  0
VERTEX
  8
0
 62
4
 10
-4.68578577E+01
 20
1.56368054E+02
  0
VERTEX
  8
0
 62
4
 10
-4.65253667E+01
 20
1.56352763E+02
  0
VERTEX
  8
0
 62
4
 10
-4.61926809E+01
 20
1.56364013E+02
  0
VERTEX
  8
0
 62
4
 10
-4.58623539E+01
 20
1.56401716E+02
  0
VERTEX
  8
0
 62
4
 10
-4.55369211E+01
 20
1.56465582E+02
  0
VERTEX
  8
0
 62
4
 10
-4.52188803E+01
 20
1.56555123E+02
  0
VERTEX
  8
0
 62
4
 10
-4.49106726E+01
 20
1.56669651E+02
  0
VERTEX
  8
0
 62
4
 10
-4.46146635E+01
 20
1.56808285E+02
  0
VERTEX
  8
0
 62
4
 10
-4.43331252E+01
 20
1.56969964E+02
  0
VERTEX
  8
0
 62
4
 10
-4.40682184E+01
 20
1.57153445E+02
  0
VERTEX
  8
0
 62
4
 10
-4.38219765E+01
 20
1.57357320E+02
  0
VERTEX
  8
0
 62
4
 10
-4.35962894E+01
 20
1.57580024E+02
  0
VERTEX
  8
0
 62
4
 10
-4.33928895E+01
 20
1.57819849E+02
  0
VERTEX
  8
0
 62
4
 10
-4.32133378E+01
 20
1.58074953E+02
  0
VERTEX
  8
0
 62
4
 10
-4.30590125E+01
 20
1.58343378E+02
  0
VERTEX
  8
0
 62
4
 10
-4.29310982E+01
 20
1.58623064E+02
  0
VERTEX
  8
0
 62
4
 10
-4.28305765E+01
 20
1.58911865E+02
  0
VERTEX
  8
0
 62
4
 10
-4.27582191E+01
 20
1.59207563E+02
  0
VERTEX
  8
0
 62
4
 10
-4.27145813E+01
 20
1.59507890E+02
  0
VERTEX
  8
0
 62
4
 10
-4.26999981E+01
 20
1.59810539E+02
  0
SEQEND
  8
0
  0
ARC
  8
0
 62
4
 10
-9.35808403E+01
 20
1.09426173E+02
 40
6.99948777E+01
 50
4.57421700E+01
 51
4.96558689E+01
  0
ARC
  8
0
 62
4
 10
5.80844147E-01
 20
1.09426173E+02
 40
6.99948777E+01
 50
1.30344131E+02
 51
1.34257830E+02
  0
LINE
  8
0
 62
4
 10
-4.30999981E+01
 20
1.60225232E+02
 11
-4.30999981E+01
 21
1.60694169E+02
  0
LINE
  8
0
 62
4
 10
-4.26999981E+01
 20
1.59810539E+02
 11
-4.26999981E+01
 21
1.60225232E+02
  0
LINE
  8
0
 62
4
 10
-4.98999981E+01
 20
1.60225232E+02
 11
-4.98999981E+01
 21
1.60694169E+02
  0
LINE
  8
0
 62
4
 10
-5.02999981E+01
 20
1.59810539E+02
 11
-5.02999981E+01
 21
1.60225232E+02
  0
POLYLINE
  8
0
 62
4
 66
1
  0
VERTEX
  8
0
 62
4
 10
-5.02999981E+01
 20
1.59810539E+02
  0
VERTEX
  8
0
 62
4
 10
-5.02940094E+01
 20
1.59616483E+02
  0
VERTEX
  8
0
 62
4
 10
-5.02760620E+01
 20
1.59423039E+02
  0
VERTEX
  8
0
 62
4
 10
-5.02462125E+01
 20
1.59230816E+02
  0
VERTEX
  8
0
 62
4
 10
-5.02045551E+01
 20
1.59040421E+02
  0
SEQEND
  8
0
  0
ARC
  8
0
 62
4
 10
-9.17816884E+01
 20
1.16254885E+02
 40
5.61787639E+01
 50
4.52517517E+01
 51
5.01291401E+01
  0
ARC
  8
0
 62
4
 10
-1.62182435E+01
 20
1.16254814E+02
 40
5.61788594E+01
 50
1.29870864E+02
 51
1.34748244E+02
  0
LINE
  8
0
 62
4
 10
-4.98499981E+01
 20
1.56783258E+02
 11
-4.98499981E+01
 21
1.57513118E+02
  0
POLYLINE
  8
0
 62
4
 66
1
  0
VERTEX
  8
0
 62
4
 10
-5.81499981E+01
 20
1.56783258E+02
  0
VERTEX
  8
0
 62
4
 10
-5.81324200E+01
 20
1.56436052E+02
  0
VERTEX
  8
0
 62
4
 10
-5.80798348E+01
 20
1.56091788E+02
  0
VERTEX
  8
0
 62
4
 10
-5.79926878E+01
 20
1.55753381E+02
  0
VERTEX
  8
0
 62
4
 10
-5.78717173E+01
 20
1.55423698E+02
  0
VERTEX
  8
0
 62
4
 10
-5.77179481E+01
 20
1.55105533E+02
  0
VERTEX
  8
0
 62
4
 10
-5.75326829E+01
 20
1.54801581E+02
  0
VERTEX
  8
0
 62
4
 10
-5.73174910E+01
 20
1.54514416E+02
  0
VERTEX
  8
0
 62
4
 10
-5.70741955E+01
 20
1.54246471E+02
  0
VERTEX
  8
0
 62
4
 10
-5.68048574E+01
 20
1.54000016E+02
  0
SEQEND
  8
0
  0
LINE
  8
0
 62
4
 10
-5.81499981E+01
 20
1.56783258E+02
 11
-5.81499981E+01
 21
1.57513118E+02
  0
LINE
  8
0
 62
4
 10
-6.89999981E+01
 20
1.54441767E+02
 11
-5.72559565E+01
 21
1.54441767E+02
  0
LINE
  8
0
 62
4
 10
-5.07440396E+01
 20
1.54441767E+02
 11
-3.89999981E+01
 21
1.54441767E+02
  0
LINE
  8
0
 62
4
 10
-5.11138254E+01
 20
1.54069725E+02
 11
-4.54999981E+01
 21
1.54069725E+02
  0
LINE
  8
0
 62
4
 10
2.00000210E+01
 20
1.54069725E+02
 11
2.15000210E+01
 21
1.52917276E+02
  0
LINE
  8
0
 62
4
 10
2.15000210E+01
 20
1.50856214E+02
 11
2.00000210E+01
 21
1.50429880E+02
  0
LINE
  8
0
 62
4
 10
2.15000210E+01
 20
1.49916934E+02
 11
2.00000210E+01
 21
1.48771107E+02
  0
LINE
  8
0
 62
4
 10
2.15000210E+01
 20
1.52917276E+02
 11
2.15000210E+01
 21
1.49916934E+02
  0
LINE
  8
0
 62
7
 10
2.00907540E+01
 20
1.54000015E+02
 11
2.80000218E+01
 21
1.54000015E+02
  0
LINE
  8
0
 62
7
 10
-9.99997902E+00
 20
1.47000031E+02
 11
-8.29999981E+01
 21
1.47000031E+02
  0
LINE
  8
0
 62
7
 10
-9.99997902E+00
 20
1.38000015E+02
 11
-8.29999981E+01
 21
1.38000015E+02
  0
LINE
  8
0
 62
7
 10
-4.17600019E+02
 20
1.12899979E+02
 11
-4.17600019E+02
 21
1.16099998E+02
  0
LINE
  8
0
  6
CENTER
 62
2
 10
-4.18464186E+02
 20
1.14500015E+02
 11
-4.15000135E+02
 21
1.14500015E+02
  0
LINE
  8
0
  6
CENTER
 62
2
 10
-3.59000013E+02
 20
1.61798706E+02
 11
-3.59000013E+02
 21
3.89689751E+01
  0
LINE
  8
0
 62
7
 10
-4.15400068E+02
 20
9.02500000E+01
 11
-4.15000135E+02
 21
9.02500000E+01
  0
LINE
  8
0
  6
CENTER
 62
2
 10
-3.16999983E+02
 20
4.29276619E+01
 11
-3.16999983E+02
 21
7.34962006E+01
  0
LINE
  8
0
 62
7
 10
-3.24000013E+02
 20
4.50999565E+01
 11
-3.24000013E+02
 21
4.44999275E+01
  0
LINE
  8
0
 62
7
 10
-4.15400068E+02
 20
1.10750038E+02
 11
-4.15000135E+02
 21
1.10750038E+02
  0
LINE
  8
0
 62
7
 10
-4.15400068E+02
 20
1.18250015E+02
 11
-4.15000135E+02
 21
1.18250015E+02
  0
LINE
  8
0
  6
CENTER
 62
2
 10
-4.18464186E+02
 20
8.65000000E+01
 11
-4.15000135E+02
 21
8.65000000E+01
  0
LINE
  8
0
 62
7
 10
-4.15400160E+02
 20
8.27500000E+01
 11
-4.15000135E+02
 21
8.27500000E+01
  0
LINE
  8
0
 62
7
 10
-4.17600019E+02
 20
8.48999634E+01
 11
-4.17600019E+02
 21
8.80999832E+01
  0
LINE
  8
0
  6
CENTER
 62
2
 10
-2.99312208E+02
 20
1.00500000E+02
 11
-4.19946119E+02
 21
1.00500000E+02
  0
LINE
  8
0
 62
7
 10
-3.06599958E+02
 20
1.25516144E+02
 11
-3.06599958E+02
 21
7.54839630E+01
  0
LINE
  8
0
 62
2
 10
-3.09916609E+02
 20
1.00464729E+02
 11
-3.09916609E+02
 21
1.00500023E+02
  0
LINE
  8
0
 62
7
 10
-3.03599989E+02
 20
1.51499939E+02
 11
-3.03599989E+02
 21
4.94999275E+01
  0
LINE
  8
0
 62
7
 10
-4.10000135E+02
 20
4.51000557E+01
 11
-3.08000044E+02
 21
4.51000557E+01
  0
LINE
  8
0
 62
7
 10
-3.07600111E+02
 20
1.01750053E+02
 11
-3.33097548E+02
 21
1.01750053E+02
  0
LINE
  8
0
 62
7
 10
-3.39800317E+02
 20
8.30679142E+01
 11
-3.24810660E+02
 21
6.80782537E+01
  0
LINE
  8
0
 62
7
 10
-3.41568235E+02
 20
8.13000827E+01
 11
-3.26578578E+02
 21
6.63104222E+01
  0
LINE
  8
0
 62
7
 10
-3.07600111E+02
 20
9.92500381E+01
 11
-3.33097548E+02
 21
9.92500381E+01
  0
LINE
  8
0
 62
7
 10
-3.76432321E+02
 20
8.13003912E+01
 11
-3.91422024E+02
 21
6.63106902E+01
  0
LINE
  8
0
 62
7
 10
-3.78199991E+02
 20
8.30681691E+01
 11
-3.93189650E+02
 21
6.80785112E+01
  0
LINE
  8
0
 62
7
 10
-3.84016035E+02
 20
4.81000366E+01
 11
-3.33983839E+02
 21
4.81000366E+01
  0
LINE
  8
0
 62
7
 10
-3.60250013E+02
 20
4.90998955E+01
 11
-3.60250013E+02
 21
7.45974274E+01
  0
LINE
  8
0
 62
7
 10
-4.10400068E+02
 20
9.92500381E+01
 11
-3.84902632E+02
 21
9.92500381E+01
  0
LINE
  8
0
 62
7
 10
-3.03000013E+02
 20
1.51499939E+02
 11
-3.03000013E+02
 21
4.94999275E+01
  0
LINE
  8
0
  6
CENTER
 62
2
 10
-3.16999983E+02
 20
1.59392700E+02
 11
-3.16999983E+02
 21
1.27642151E+02
  0
LINE
  8
0
 62
7
 10
-4.10000135E+02
 20
4.45000420E+01
 11
-3.08000044E+02
 21
4.45000420E+01
  0
LINE
  8
0
  6
CENTER
 62
2
 10
-4.00999983E+02
 20
4.28216667E+01
 11
-4.00999983E+02
 21
7.28635712E+01
  0
LINE
  8
0
  6
CENTER
 62
2
 10
-4.17068708E+02
 20
5.85000229E+01
 11
-3.85503920E+02
 21
5.85000229E+01
  0
LINE
  8
0
 62
7
 10
-3.57750013E+02
 20
4.90998955E+01
 11
-3.57750013E+02
 21
7.45974274E+01
  0
LINE
  8
0
 62
7
 10
-3.57750013E+02
 20
1.51899918E+02
 11
-3.57750013E+02
 21
1.26402527E+02
  0
LINE
  8
0
  6
CENTER
 62
2
 10
-3.40999983E+02
 20
1.58286484E+02
 11
-3.40999983E+02
 21
1.13154800E+02
  0
LINE
  8
0
 62
7
 10
-3.41568230E+02
 20
1.19699874E+02
 11
-3.26578557E+02
 21
1.34689540E+02
  0
LINE
  8
0
 62
7
 10
-3.39800442E+02
 20
1.17932085E+02
 11
-3.24810737E+02
 21
1.32921784E+02
  0
LINE
  8
0
 62
7
 10
-3.24000013E+02
 20
1.56499939E+02
 11
-3.24000013E+02
 21
1.55899963E+02
  0
LINE
  8
0
 62
7
 10
-3.94000013E+02
 20
4.50999565E+01
 11
-3.94000013E+02
 21
4.44999275E+01
  0
LINE
  8
0
  6
CENTER
 62
2
 10
-3.31806349E+02
 20
1.42500046E+02
 11
-3.00716871E+02
 21
1.42500046E+02
  0
LINE
  8
0
  6
CENTER
 62
2
 10
-3.70999983E+02
 20
1.16543831E+02
 11
-3.70999983E+02
 21
1.58763580E+02
  0
LINE
  8
0
 62
7
 10
-4.10000135E+02
 20
1.55900055E+02
 11
-3.08000044E+02
 21
1.55900055E+02
  0
LINE
  8
0
 62
7
 10
-4.14400007E+02
 20
1.51499985E+02
 11
-4.14400007E+02
 21
4.94999275E+01
  0
LINE
  8
0
 62
7
 10
-3.78199968E+02
 20
1.17931937E+02
 11
-3.93189584E+02
 21
1.32921552E+02
  0
LINE
  8
0
 62
7
 10
-3.76432234E+02
 20
1.19699585E+02
 11
-3.91421850E+02
 21
1.34689200E+02
  0
LINE
  8
0
 62
7
 10
-3.84016188E+02
 20
1.52900024E+02
 11
-3.33984083E+02
 21
1.52900024E+02
  0
LINE
  8
0
 62
7
 10
-4.11400007E+02
 20
1.25515945E+02
 11
-4.11400007E+02
 21
7.56843643E+01
  0
LINE
  8
0
 62
7
 10
-4.10400068E+02
 20
1.01750053E+02
 11
-3.84902632E+02
 21
1.01750053E+02
  0
LINE
  8
0
 62
7
 10
-3.60250013E+02
 20
1.51899918E+02
 11
-3.60250013E+02
 21
1.26402481E+02
  0
LINE
  8
0
 62
7
 10
-4.10000135E+02
 20
1.56500031E+02
 11
-3.08000044E+02
 21
1.56500031E+02
  0
LINE
  8
0
 62
7
 10
-4.14999983E+02
 20
1.51499939E+02
 11
-4.14999983E+02
 21
4.94999275E+01
  0
LINE
  8
0
  6
CENTER
 62
2
 10
-4.16964033E+02
 20
1.42500046E+02
 11
-3.85109022E+02
 21
1.42500046E+02
  0
LINE
  8
0
  6
CENTER
 62
2
 10
-4.00999983E+02
 20
1.58980713E+02
 11
-4.00999983E+02
 21
1.28073776E+02
  0
LINE
  8
0
 62
7
 10
-3.94000013E+02
 20
1.56499939E+02
 11
-3.94000013E+02
 21
1.55899963E+02
  0
LINE
  8
0
  6
CENTER
 62
2
 10
-3.31806349E+02
 20
5.85000229E+01
 11
-3.00624403E+02
 21
5.85000229E+01
  0
ARC
  8
0
 62
7
 10
-4.15122541E+02
 20
1.15765503E+02
 40
2.50000024E+00
 50
9.63728081E+01
 51
1.87691385E+02
  0
ARC
  8
0
 62
7
 10
-4.15122541E+02
 20
1.13234627E+02
 40
2.50000024E+00
 50
1.87691403E+02
 51
2.69999963E+02
  0
ARC
  8
0
 62
7
 10
-4.15122541E+02
 20
8.52345963E+01
 40
2.50000024E+00
 50
1.87691403E+02
 51
2.69999963E+02
  0
ARC
  8
0
 62
7
 10
-4.15122541E+02
 20
8.77654724E+01
 40
2.50000024E+00
 50
9.63728081E+01
 51
1.87691385E+02
  0
CIRCLE
  8
0
 62
7
 10
-3.17000044E+02
 20
1.42500015E+02
 40
8.69999981E+00
  0
CIRCLE
  8
0
 62
7
 10
-3.17000044E+02
 20
5.84999847E+01
 40
8.69999981E+00
  0
ARC
  8
0
 62
7
 10
-3.41920301E+02
 20
8.02382584E+01
 40
1.00000000E+00
 50
4.49999637E+01
 51
1.30129488E+02
  0
CIRCLE
  8
0
 62
7
 10
-4.01000074E+02
 20
5.84999847E+01
 40
8.69999981E+00
  0
ARC
  8
0
 62
7
 10
-3.24103529E+02
 20
1.32214523E+02
 40
1.00000000E+00
 50
5.53696252E+01
 51
1.34999959E+02
  0
ARC
  8
0
 62
7
 10
-3.27285475E+02
 20
1.35396545E+02
 40
1.00000000E+00
 50
3.14999995E+02
 51
3.46303842E+01
  0
ARC
  8
0
 62
7
 10
-3.39093184E+02
 20
1.17224907E+02
 40
1.00000000E+00
 50
1.34999959E+02
 51
2.20035227E+02
  0
ARC
  8
0
 62
7
 10
-3.42275221E+02
 20
1.20406921E+02
 40
1.00000000E+00
 50
2.29964427E+02
 51
3.14999981E+02
  0
ARC
  8
0
 62
7
 10
-3.56750013E+02
 20
1.51899994E+02
 40
1.00000000E+00
 50
8.99999818E+01
 51
1.79999964E+02
  0
ARC
  8
0
 62
7
 10
-3.56750013E+02
 20
1.26402557E+02
 40
1.00000000E+00
 50
1.79999964E+02
 51
2.65035792E+02
  0
ARC
  8
0
 62
7
 10
-3.33097517E+02
 20
1.02750008E+02
 40
1.00000000E+00
 50
1.84964149E+02
 51
2.69999963E+02
  0
ARC
  8
0
 62
7
 10
-3.07600019E+02
 20
1.02750008E+02
 40
1.00000000E+00
 50
2.69999963E+02
 51
0.00000000E+00
  0
ARC
  8
0
 62
7
 10
-3.27285475E+02
 20
6.56035080E+01
 40
1.00000000E+00
 50
3.25369629E+02
 51
4.49999637E+01
  0
ARC
  8
0
 62
7
 10
-3.24103529E+02
 20
6.87854691E+01
 40
1.00000000E+00
 50
2.25000000E+02
 51
3.04630388E+02
  0
ARC
  8
0
 62
7
 10
-3.42275099E+02
 20
8.05931320E+01
 40
1.00000000E+00
 50
4.49999637E+01
 51
1.30035231E+02
  0
ARC
  8
0
 62
7
 10
-3.39093153E+02
 20
8.37751465E+01
 40
1.00000000E+00
 50
1.39964428E+02
 51
2.24999982E+02
  0
ARC
  8
0
 62
7
 10
-3.07600019E+02
 20
9.82499924E+01
 40
1.00000000E+00
 50
3.59999986E+02
 51
8.99999681E+01
  0
ARC
  8
0
 62
7
 10
-3.33097517E+02
 20
9.82499924E+01
 40
1.00000000E+00
 50
8.99999681E+01
 51
1.75035796E+02
  0
ARC
  8
0
 62
7
 10
-3.56750013E+02
 20
7.45974426E+01
 40
1.00000000E+00
 50
9.49641432E+01
 51
1.79999951E+02
  0
ARC
  8
0
 62
7
 10
-3.56750013E+02
 20
4.91000099E+01
 40
1.00000000E+00
 50
1.79999951E+02
 51
2.70000001E+02
  0
ARC
  8
0
 62
7
 10
-3.93896498E+02
 20
6.87854233E+01
 40
1.00000000E+00
 50
2.35369648E+02
 51
3.14999981E+02
  0
ARC
  8
0
 62
7
 10
-3.90714552E+02
 20
6.56034088E+01
 40
1.00000000E+00
 50
1.34999987E+02
 51
2.14630376E+02
  0
ARC
  8
0
 62
7
 10
-3.78906874E+02
 20
8.37750931E+01
 40
1.00000000E+00
 50
3.14999968E+02
 51
4.00352358E+01
  0
ARC
  8
0
 62
7
 10
-3.75724928E+02
 20
8.05930786E+01
 40
1.00000000E+00
 50
4.99644184E+01
 51
1.34999987E+02
  0
ARC
  8
0
 62
7
 10
-3.61250013E+02
 20
4.91000099E+01
 40
1.00000000E+00
 50
2.69999991E+02
 51
3.59999973E+02
  0
ARC
  8
0
 62
7
 10
-3.61250013E+02
 20
7.45974426E+01
 40
1.00000000E+00
 50
3.59999973E+02
 51
8.50358005E+01
  0
ARC
  8
0
 62
7
 10
-3.84902571E+02
 20
9.82499924E+01
 40
1.00000000E+00
 50
4.96415417E+00
 51
8.99999549E+01
  0
ARC
  8
0
 62
7
 10
-4.10400068E+02
 20
9.82499924E+01
 40
1.00000000E+00
 50
8.99999549E+01
 51
1.79999991E+02
  0
ARC
  8
0
 62
7
 10
-3.07600019E+02
 20
7.40000076E+01
 40
1.00000000E+00
 50
4.79036786E+01
 51
9.00000369E+01
  0
ARC
  8
0
 62
7
 10
-3.08000044E+02
 20
1.51500015E+02
 40
4.40000010E+00
 50
0.00000000E+00
 51
8.99999818E+01
  0
ARC
  8
0
 62
7
 10
-3.17000044E+02
 20
5.84999847E+01
 40
1.15000000E+01
 50
7.13249336E+01
 51
1.98674411E+02
  0
ARC
  8
0
 62
7
 10
-4.01000074E+02
 20
5.84999847E+01
 40
1.15000000E+01
 50
3.41325006E+02
 51
1.07701394E+02
  0
ARC
  8
0
 62
7
 10
-4.10000013E+02
 20
4.94999924E+01
 40
4.40000010E+00
 50
1.79999964E+02
 51
2.69999946E+02
  0
ARC
  8
0
 62
7
 10
-3.08000044E+02
 20
4.94999924E+01
 40
4.40000010E+00
 50
2.69999963E+02
 51
0.00000000E+00
  0
ARC
  8
0
 62
7
 10
-3.08000044E+02
 20
1.51500015E+02
 40
5.00000000E+00
 50
0.00000000E+00
 51
8.99999818E+01
  0
CIRCLE
  8
0
 62
7
 10
-3.17000044E+02
 20
1.42500015E+02
 40
8.00000000E+00
  0
ARC
  8
0
 62
7
 10
-4.10000013E+02
 20
4.94999924E+01
 40
5.00000000E+00
 50
1.79999964E+02
 51
2.69999946E+02
  0
CIRCLE
  8
0
 62
7
 10
-4.01000074E+02
 20
5.84999847E+01
 40
8.00000000E+00
  0
ARC
  8
0
 62
7
 10
-3.08000044E+02
 20
4.94999924E+01
 40
5.00000000E+00
 50
2.69999963E+02
 51
0.00000000E+00
  0
CIRCLE
  8
0
 62
7
 10
-3.17000044E+02
 20
5.84999847E+01
 40
8.00000000E+00
  0
ARC
  8
0
 62
7
 10
-3.07600019E+02
 20
1.25516174E+02
 40
1.00000000E+00
 50
0.00000000E+00
 51
9.45895548E+01
  0
ARC
  8
0
 62
7
 10
-3.33984053E+02
 20
1.51899994E+02
 40
1.00000000E+00
 50
3.55412203E+02
 51
8.99999818E+01
  0
ARC
  8
0
 62
7
 10
-4.09999861E+02
 20
7.04998474E+01
 40
4.19999981E+00
 50
3.58989754E+02
 51
9.44131721E+01
  0
ARC
  8
0
 62
7
 10
-3.88999952E+02
 20
4.94999924E+01
 40
4.00000000E+00
 50
3.55411554E+02
 51
9.18126662E+01
  0
ARC
  8
0
 62
7
 10
-3.28999922E+02
 20
4.95001450E+01
 40
4.00000000E+00
 50
8.81895309E+01
 51
1.84590151E+02
  0
ARC
  8
0
 62
7
 10
-3.08000044E+02
 20
7.05000534E+01
 40
4.00000000E+00
 50
8.54113313E+01
 51
1.81813065E+02
  0
ARC
  8
0
 62
7
 10
-4.10400068E+02
 20
7.56844788E+01
 40
1.00000000E+00
 50
1.79999977E+02
 51
2.74414106E+02
  0
ARC
  8
0
 62
7
 10
-3.84015944E+02
 20
4.91000099E+01
 40
1.00000000E+00
 50
1.75411348E+02
 51
2.70000001E+02
  0
ARC
  8
0
 62
7
 10
-3.33983900E+02
 20
4.90999565E+01
 40
1.00000000E+00
 50
2.70000018E+02
 51
4.59054965E+00
  0
ARC
  8
0
 62
7
 10
-3.07600019E+02
 20
7.54840317E+01
 40
1.00000000E+00
 50
2.65412207E+02
 51
0.00000000E+00
  0
ARC
  8
0
 62
7
 10
-3.28841871E+02
 20
1.46502502E+02
 40
1.00000000E+00
 50
3.41324801E+02
 51
9.18135474E+01
  0
ARC
  8
0
 62
7
 10
-3.12997663E+02
 20
1.30658081E+02
 40
1.00000000E+00
 50
3.58189938E+02
 51
1.08674388E+02
  0
ARC
  8
0
 62
7
 10
-4.04800734E+02
 20
7.04081955E+01
 40
1.00000000E+00
 50
1.78989315E+02
 51
2.87700627E+02
  0
ARC
  8
0
 62
7
 10
-3.89158155E+02
 20
5.44974976E+01
 40
1.00000000E+00
 50
1.61324820E+02
 51
2.71813498E+02
  0
ARC
  8
0
 62
7
 10
-3.28841993E+02
 20
5.44976044E+01
 40
1.00000000E+00
 50
2.68189963E+02
 51
1.86743382E+01
  0
ARC
  8
0
 62
7
 10
-3.12997572E+02
 20
7.03418655E+01
 40
1.00000000E+00
 50
2.51325352E+02
 51
1.81262292E+00
  0
ARC
  8
0
 62
7
 10
-3.17000044E+02
 20
1.42500015E+02
 40
1.15000000E+01
 50
1.61325025E+02
 51
2.88674421E+02
  0
ARC
  8
0
 62
7
 10
-3.29000105E+02
 20
1.51500015E+02
 40
4.00000000E+00
 50
1.75411348E+02
 51
2.71812624E+02
  0
ARC
  8
0
 62
7
 10
-3.08000166E+02
 20
1.30500153E+02
 40
4.00000000E+00
 50
1.78189554E+02
 51
2.74590407E+02
  0
CIRCLE
  8
0
 62
7
 10
-4.01000044E+02
 20
1.42499969E+02
 40
8.69999981E+00
  0
ARC
  8
0
 62
7
 10
-3.90714552E+02
 20
1.35396500E+02
 40
1.00000000E+00
 50
1.45369634E+02
 51
2.24999955E+02
  0
ARC
  8
0
 62
7
 10
-3.93896620E+02
 20
1.32214523E+02
 40
1.00000000E+00
 50
4.49999910E+01
 51
1.24630380E+02
  0
ARC
  8
0
 62
7
 10
-4.10400068E+02
 20
1.02749962E+02
 40
1.00000000E+00
 50
1.79999964E+02
 51
2.69999946E+02
  0
ARC
  8
0
 62
7
 10
-3.61250013E+02
 20
1.51899994E+02
 40
1.00000000E+00
 50
3.59999959E+02
 51
8.99999956E+01
  0
ARC
  8
0
 62
7
 10
-3.84902571E+02
 20
1.02750008E+02
 40
1.00000000E+00
 50
2.69999963E+02
 51
3.55035819E+02
  0
ARC
  8
0
 62
7
 10
-3.78906996E+02
 20
1.17224854E+02
 40
1.00000000E+00
 50
3.19964423E+02
 51
4.49999910E+01
  0
ARC
  8
0
 62
7
 10
-3.75724928E+02
 20
1.20406876E+02
 40
1.00000000E+00
 50
2.24999972E+02
 51
3.10035254E+02
  0
ARC
  8
0
 62
7
 10
-3.61250013E+02
 20
1.26402512E+02
 40
1.00000000E+00
 50
2.74964145E+02
 51
3.59999959E+02
  0
ARC
  8
0
 62
7
 10
-4.01000044E+02
 20
1.42500015E+02
 40
1.15000000E+01
 50
2.51324914E+02
 51
1.86744475E+01
  0
ARC
  8
0
 62
7
 10
-4.10400068E+02
 20
1.26999985E+02
 40
1.00000000E+00
 50
2.27903663E+02
 51
2.69999963E+02
  0
ARC
  8
0
 62
7
 10
-4.10000013E+02
 20
1.51500015E+02
 40
4.40000010E+00
 50
8.99999818E+01
 51
1.79999964E+02
  0
ARC
  8
0
 62
7
 10
-4.10000013E+02
 20
1.51500015E+02
 40
5.00000000E+00
 50
8.99999818E+01
 51
1.79999964E+02
  0
CIRCLE
  8
0
 62
7
 10
-4.01000044E+02
 20
1.42499969E+02
 40
8.00000000E+00
  0
ARC
  8
0
 62
7
 10
-4.10000013E+02
 20
1.30499954E+02
 40
4.00000000E+00
 50
2.65411333E+02
 51
1.81311470E+00
  0
ARC
  8
0
 62
7
 10
-3.89000166E+02
 20
1.51499863E+02
 40
4.00000000E+00
 50
2.68189526E+02
 51
4.59037889E+00
  0
ARC
  8
0
 62
7
 10
-4.10400068E+02
 20
1.25515976E+02
 40
1.00000000E+00
 50
8.54104639E+01
 51
1.79999964E+02
  0
ARC
  8
0
 62
7
 10
-3.84016249E+02
 20
1.51900040E+02
 40
1.00000000E+00
 50
8.99999818E+01
 51
1.84589646E+02
  0
ARC
  8
0
 62
7
 10
-4.05002516E+02
 20
1.30658127E+02
 40
1.00000000E+00
 50
7.13253501E+01
 51
1.81812600E+02
  0
ARC
  8
0
 62
7
 10
-3.89158155E+02
 20
1.46502396E+02
 40
1.00000000E+00
 50
8.81899612E+01
 51
1.98674330E+02
  0
CIRCLE
  8
0
 62
7
 10
-3.58999952E+02
 20
1.00500053E+02
 40
2.50000153E+01
  0
CIRCLE
  8
0
 62
7
 10
-3.58999952E+02
 20
1.00500053E+02
 40
2.35000153E+01
  0
CIRCLE
  8
0
 62
7
 10
-3.59000074E+02
 20
1.00500000E+02
 40
2.40000000E+01
  0
CIRCLE
  8
0
 62
2
 10
-4.01000074E+02
 20
5.84999847E+01
 40
5.00000000E+00
  0
CIRCLE
  8
0
 62
2
 10
-4.01000044E+02
 20
1.42500015E+02
 40
5.00000000E+00
  0
CIRCLE
  8
0
 62
2
 10
-3.17000044E+02
 20
1.42500015E+02
 40
5.00000000E+00
  0
CIRCLE
  8
0
 62
2
 10
-3.17000044E+02
 20
5.84999847E+01
 40
5.00000000E+00
  0
CIRCLE
  8
0
 62
7
 10
-4.01000074E+02
 20
5.84999847E+01
 40
4.17999983E+00
  0
CIRCLE
  8
0
 62
7
 10
-4.01000044E+02
 20
1.42500015E+02
 40
4.17999983E+00
  0
CIRCLE
  8
0
 62
7
 10
-3.17000044E+02
 20
1.42500015E+02
 40
4.17999983E+00
  0
CIRCLE
  8
0
 62
7
 10
-3.17000044E+02
 20
5.84999847E+01
 40
4.17999983E+00
  0
CIRCLE
  8
0
 62
7
 10
-3.59000013E+02
 20
1.00500000E+02
 40
1.29999914E+01
  0
CIRCLE
  8
0
 62
2
 10
-3.59000013E+02
 20
1.00500000E+02
 40
1.21799841E+01
  0
CIRCLE
  8
0
 62
7
 10
-3.59000013E+02
 20
1.00500000E+02
 40
1.14999914E+01
  0
CIRCLE
  8
0
 62
4
 10
-3.59000013E+02
 20
1.00500000E+02
 40
1.80000000E+01
  0
LINE
  8
0
 62
4
 10
-3.77000021E+02
 20
1.10892303E+02
 11
-3.77000021E+02
 21
9.01076965E+01
  0
LINE
  8
0
 62
4
 10
-3.41000013E+02
 20
1.10892303E+02
 11
-3.41000013E+02
 21
9.01076965E+01
  0
LINE
  8
0
 62
4
 10
-3.77000078E+02
 20
1.10892269E+02
 11
-3.59000076E+02
 21
1.21284573E+02
  0
LINE
  8
0
 62
4
 10
-3.59000092E+02
 20
7.97153727E+01
 11
-3.41000090E+02
 21
9.01076769E+01
  0
LINE
  8
0
 62
4
 10
-3.59000156E+02
 20
1.21284608E+02
 11
-3.41000151E+02
 21
1.10892302E+02
  0
LINE
  8
0
 62
4
 10
-3.77000101E+02
 20
9.01077224E+01
 11
-3.59000109E+02
 21
7.97154240E+01
  0
LINE
  8
0
 62
4
 10
-3.29004164E+02
 20
1.63905365E+02
 11
-3.19631563E+02
 21
1.59634024E+02
  0
LINE
  8
0
 62
4
 10
-3.13261834E+02
 20
1.56731172E+02
 11
-3.19631563E+02
 21
1.59634024E+02
  0
LINE
  8
0
 62
4
 10
-3.29294449E+02
 20
1.63268392E+02
 11
-3.30204411E+02
 21
1.63683085E+02
  0
ARC
  8
0
 62
4
 10
-3.33804495E+02
 20
1.58510261E+02
 40
1.00000000E+00
 50
1.68327510E+02
 51
2.45500000E+02
  0
ARC
  8
0
 62
4
 10
-3.31813967E+02
 20
1.62878076E+02
 40
1.00000000E+00
 50
6.55000000E+01
 51
1.42672490E+02
  0
LINE
  8
0
 62
4
 10
-3.33190202E+02
 20
1.57131364E+02
 11
-3.34218458E+02
 21
1.57599967E+02
  0
LINE
  8
0
 62
4
 10
-3.30370288E+02
 20
1.63319100E+02
 11
-3.31398544E+02
 21
1.63787704E+02
  0
LINE
  8
0
 62
4
 10
-3.33356079E+02
 20
1.56767379E+02
 11
-3.30204411E+02
 21
1.63683085E+02
  0
ARC
  8
0
 62
4
 10
-3.23218045E+02
 20
1.56323213E+02
 40
1.18100000E+01
 50
1.42672490E+02
 51
1.68327510E+02
  0
ARC
  8
0
 62
4
 10
-3.24201886E+02
 20
1.52933762E+02
 40
1.18100000E+01
 50
1.53400933E+02
 51
1.55500000E+02
  0
ARC
  8
0
 62
4
 10
-3.24208304E+02
 20
1.52919679E+02
 40
1.18100000E+01
 50
1.55500000E+02
 51
1.62352491E+02
  0
LINE
  8
0
 62
4
 10
-3.21059820E+02
 20
1.56500000E+02
 11
-3.19631563E+02
 21
1.59634024E+02
  0
LINE
  8
0
 62
4
 10
-3.32378983E+02
 20
1.56500000E+02
 11
-3.29004164E+02
 21
1.63905365E+02
  0
LINE
  8
0
 62
4
 10
-3.32769369E+02
 20
1.56500000E+02
 11
-3.33356079E+02
 21
1.56767379E+02
  0
LINE
  8
0
 62
4
 10
-3.13151571E+02
 20
1.56500000E+02
 11
-3.13261834E+02
 21
1.56731172E+02
  0
LINE
  8
0
 62
4
 10
-3.32796583E+02
 20
1.56500000E+02
 11
-3.32791903E+02
 21
1.56510270E+02
  0
LINE
  8
0
  6
CENTER
 62
6
 10
-3.25626418E+02
 20
1.57420744E+02
 11
-3.34855216E+02
 21
1.61626550E+02
  0
LINE
  8
0
  6
CENTER
 62
6
 10
-3.27077845E+02
 20
1.54235880E+02
 11
-3.36306643E+02
 21
1.58441685E+02
  0
LINE
  8
0
 62
4
 10
-3.88995802E+02
 20
1.63905365E+02
 11
-3.98368403E+02
 21
1.59634024E+02
  0
LINE
  8
0
  6
CENTER
 62
6
 10
-3.92373609E+02
 20
1.57420744E+02
 11
-3.83144810E+02
 21
1.61626550E+02
  0
LINE
  8
0
  6
CENTER
 62
6
 10
-3.90922182E+02
 20
1.54235880E+02
 11
-3.81693384E+02
 21
1.58441685E+02
  0
LINE
  8
0
 62
4
 10
-4.04738132E+02
 20
1.56731172E+02
 11
-3.98368403E+02
 21
1.59634024E+02
  0
LINE
  8
0
 62
4
 10
-3.88705516E+02
 20
1.63268392E+02
 11
-3.87795555E+02
 21
1.63683085E+02
  0
ARC
  8
0
 62
4
 10
-3.84195471E+02
 20
1.58510261E+02
 40
1.00000000E+00
 50
3.43223662E+02
 51
1.16724900E+01
  0
ARC
  8
0
 62
4
 10
-3.86185998E+02
 20
1.62878076E+02
 40
1.00000000E+00
 50
3.73275101E+01
 51
1.14500000E+02
  0
ARC
  8
0
 62
4
 10
-3.94781920E+02
 20
1.56323213E+02
 40
1.18100000E+01
 50
1.16724900E+01
 51
3.73275101E+01
  0
LINE
  8
0
 62
4
 10
-3.87629678E+02
 20
1.63319100E+02
 11
-3.86601422E+02
 21
1.63787704E+02
  0
LINE
  8
0
 62
4
 10
-3.86489271E+02
 20
1.60816707E+02
 11
-3.87795555E+02
 21
1.63683085E+02
  0
LINE
  8
0
 62
4
 10
-3.87337029E+02
 20
1.60265520E+02
 11
-3.86991243E+02
 21
1.60423103E+02
  0
LINE
  8
0
 62
4
 10
-3.87053447E+02
 20
1.60559597E+02
 11
-3.85451916E+02
 21
1.61289457E+02
  0
ARC
  8
0
 62
4
 10
-3.93798079E+02
 20
1.52933762E+02
 40
1.18100000E+01
 50
2.45000000E+01
 51
4.50326991E+01
  0
ARC
  8
0
 62
4
 10
-3.93791661E+02
 20
1.52919679E+02
 40
1.18100000E+01
 50
1.76475088E+01
 51
2.45000000E+01
  0
LINE
  8
0
 62
4
 10
-4.04848395E+02
 20
1.56500000E+02
 11
-4.04738132E+02
 21
1.56731172E+02
  0
LINE
  8
0
 62
4
 10
-3.96940146E+02
 20
1.56500000E+02
 11
-3.98368403E+02
 21
1.59634024E+02
  0
LINE
  8
0
 62
4
 10
-3.85620983E+02
 20
1.56500000E+02
 11
-3.88995802E+02
 21
1.63905365E+02
  0
LINE
  8
0
 62
4
 10
-3.85203382E+02
 20
1.56500000E+02
 11
-3.87053447E+02
 21
1.60559597E+02
  0
CIRCLE
  8
0
 62
7
 10
3.60999987E+02
 20
1.00500000E+02
 40
2.44999695E+01
  0
LINE
  8
0
 62
4
 10
4.06738105E+02
 20
1.56731172E+02
 11
4.00368376E+02
 21
1.59634024E+02
  0
LINE
  8
0
 62
4
 10
3.98940119E+02
 20
1.56500000E+02
 11
4.00368376E+02
 21
1.59634024E+02
  0
LINE
  8
0
  6
CENTER
 62
6
 10
3.94373521E+02
 20
1.57420744E+02
 11
3.85144723E+02
 21
1.61626550E+02
  0
ARC
  8
0
 62
4
 10
3.95798053E+02
 20
1.52933762E+02
 40
1.18100000E+01
 50
1.53400933E+02
 51
1.55500000E+02
  0
ARC
  8
0
 62
4
 10
3.96781894E+02
 20
1.56323213E+02
 40
1.18100000E+01
 50
1.42672490E+02
 51
1.68327510E+02
  0
LINE
  8
0
 62
4
 10
3.89629651E+02
 20
1.63319100E+02
 11
3.88601395E+02
 21
1.63787704E+02
  0
LINE
  8
0
 62
4
 10
3.86809737E+02
 20
1.57131364E+02
 11
3.85781481E+02
 21
1.57599967E+02
  0
ARC
  8
0
 62
4
 10
3.88185972E+02
 20
1.62878076E+02
 40
1.00000000E+00
 50
6.55000000E+01
 51
1.42672490E+02
  0
ARC
  8
0
 62
4
 10
3.86195444E+02
 20
1.58510261E+02
 40
1.00000000E+00
 50
1.68327510E+02
 51
2.45500000E+02
  0
LINE
  8
0
 62
4
 10
3.90705490E+02
 20
1.63268392E+02
 11
3.89795528E+02
 21
1.63683085E+02
  0
LINE
  8
0
 62
4
 10
3.90995775E+02
 20
1.63905365E+02
 11
4.00368376E+02
 21
1.59634024E+02
  0
LINE
  8
0
 62
4
 10
3.86643860E+02
 20
1.56767379E+02
 11
3.89795528E+02
 21
1.63683085E+02
  0
ARC
  8
0
 62
4
 10
3.95791635E+02
 20
1.52919679E+02
 40
1.18100000E+01
 50
1.55500000E+02
 51
1.62352491E+02
  0
LINE
  8
0
 62
4
 10
3.87620956E+02
 20
1.56500000E+02
 11
3.90995775E+02
 21
1.63905365E+02
  0
LINE
  8
0
  6
CENTER
 62
6
 10
3.92922094E+02
 20
1.54235880E+02
 11
3.83693296E+02
 21
1.58441685E+02
  0
ARC
  8
0
 62
4
 10
3.26201860E+02
 20
1.52933762E+02
 40
1.18100000E+01
 50
2.45000000E+01
 51
4.50326991E+01
  0
LINE
  8
0
 62
4
 10
3.32946492E+02
 20
1.60559597E+02
 11
3.34548023E+02
 21
1.61289457E+02
  0
LINE
  8
0
 62
4
 10
3.32662910E+02
 20
1.60265520E+02
 11
3.33008696E+02
 21
1.60423103E+02
  0
LINE
  8
0
 62
4
 10
3.33510668E+02
 20
1.60816707E+02
 11
3.32204384E+02
 21
1.63683085E+02
  0
LINE
  8
0
 62
4
 10
3.32370261E+02
 20
1.63319100E+02
 11
3.33398517E+02
 21
1.63787704E+02
  0
ARC
  8
0
 62
4
 10
3.25218019E+02
 20
1.56323213E+02
 40
1.18100000E+01
 50
1.16724900E+01
 51
3.73275101E+01
  0
ARC
  8
0
 62
4
 10
3.33813941E+02
 20
1.62878076E+02
 40
1.00000000E+00
 50
3.73275101E+01
 51
1.14500000E+02
  0
ARC
  8
0
 62
4
 10
3.35804468E+02
 20
1.58510261E+02
 40
1.00000000E+00
 50
3.43223662E+02
 51
1.16724900E+01
  0
LINE
  8
0
 62
4
 10
3.31294423E+02
 20
1.63268392E+02
 11
3.32204384E+02
 21
1.63683085E+02
  0
LINE
  8
0
  6
CENTER
 62
6
 10
3.27626330E+02
 20
1.57420744E+02
 11
3.36855129E+02
 21
1.61626550E+02
  0
LINE
  8
0
 62
4
 10
3.31004137E+02
 20
1.63905365E+02
 11
3.21631536E+02
 21
1.59634024E+02
  0
LINE
  8
0
  6
CENTER
 62
6
 10
3.29077757E+02
 20
1.54235880E+02
 11
3.38306555E+02
 21
1.58441685E+02
  0
LINE
  8
0
 62
4
 10
3.15261807E+02
 20
1.56731172E+02
 11
3.21631536E+02
 21
1.59634024E+02
  0
ARC
  8
0
 62
4
 10
3.26208278E+02
 20
1.52919679E+02
 40
1.18100000E+01
 50
1.76475088E+01
 51
2.45000000E+01
  0
LINE
  8
0
 62
4
 10
3.23059793E+02
 20
1.56500000E+02
 11
3.21631536E+02
 21
1.59634024E+02
  0
LINE
  8
0
 62
4
 10
3.34378956E+02
 20
1.56500000E+02
 11
3.31004137E+02
 21
1.63905365E+02
  0
LINE
  8
0
 62
4
 10
3.34796557E+02
 20
1.56500000E+02
 11
3.32946492E+02
 21
1.60559597E+02
  0
LINE
  8
0
 62
7
 10
4.12000109E+02
 20
1.55900055E+02
 11
3.10000017E+02
 21
1.55900055E+02
  0
LINE
  8
0
 62
7
 10
3.86016161E+02
 20
1.52900024E+02
 11
3.35984056E+02
 21
1.52900024E+02
  0
LINE
  8
0
 62
7
 10
4.12000109E+02
 20
1.56500031E+02
 11
3.10000017E+02
 21
1.56500031E+02
  0
CIRCLE
  8
0
 62
7
 10
3.19000017E+02
 20
5.84999847E+01
 40
4.17999983E+00
  0
CIRCLE
  8
0
 62
7
 10
3.19000017E+02
 20
1.42500015E+02
 40
4.17999983E+00
  0
CIRCLE
  8
0
 62
7
 10
4.03000017E+02
 20
1.42500015E+02
 40
4.17999983E+00
  0
CIRCLE
  8
0
 62
7
 10
4.03000048E+02
 20
5.84999847E+01
 40
4.17999983E+00
  0
CIRCLE
  8
0
 62
2
 10
3.19000017E+02
 20
5.84999847E+01
 40
5.00000000E+00
  0
CIRCLE
  8
0
 62
2
 10
3.19000017E+02
 20
1.42500015E+02
 40
5.00000000E+00
  0
CIRCLE
  8
0
 62
2
 10
4.03000017E+02
 20
1.42500015E+02
 40
5.00000000E+00
  0
CIRCLE
  8
0
 62
2
 10
4.03000048E+02
 20
5.84999847E+01
 40
5.00000000E+00
  0
CIRCLE
  8
0
 62
7
 10
3.60999926E+02
 20
1.00500053E+02
 40
2.50000153E+01
  0
ARC
  8
0
 62
7
 10
3.91158129E+02
 20
1.46502396E+02
 40
1.00000000E+00
 50
3.41325670E+02
 51
9.18100386E+01
  0
ARC
  8
0
 62
7
 10
4.07002489E+02
 20
1.30658127E+02
 40
1.00000000E+00
 50
3.58187399E+02
 51
1.08674650E+02
  0
ARC
  8
0
 62
7
 10
4.12400042E+02
 20
1.25515976E+02
 40
1.00000000E+00
 50
3.59721787E-05
 51
9.45895365E+01
  0
ARC
  8
0
 62
7
 10
3.91000139E+02
 20
1.51499863E+02
 40
4.00000000E+00
 50
1.75409621E+02
 51
2.71810474E+02
  0
ARC
  8
0
 62
7
 10
4.11999987E+02
 20
1.30499954E+02
 40
4.00000000E+00
 50
1.78186885E+02
 51
2.74588667E+02
  0
CIRCLE
  8
0
 62
7
 10
4.03000017E+02
 20
1.42499969E+02
 40
8.00000000E+00
  0
ARC
  8
0
 62
7
 10
4.12400042E+02
 20
1.26999985E+02
 40
1.00000000E+00
 50
2.70000037E+02
 51
3.12096337E+02
  0
ARC
  8
0
 62
7
 10
4.03000017E+02
 20
1.42500015E+02
 40
1.15000000E+01
 50
1.61325553E+02
 51
2.88675085E+02
  0
ARC
  8
0
 62
7
 10
3.63249987E+02
 20
1.26402512E+02
 40
1.00000000E+00
 50
1.80000041E+02
 51
2.65035855E+02
  0
ARC
  8
0
 62
7
 10
3.77724901E+02
 20
1.20406876E+02
 40
1.00000000E+00
 50
2.29964747E+02
 51
3.15000028E+02
  0
ARC
  8
0
 62
7
 10
3.80906969E+02
 20
1.17224854E+02
 40
1.00000000E+00
 50
1.35000009E+02
 51
2.20035578E+02
  0
ARC
  8
0
 62
7
 10
3.86902544E+02
 20
1.02750008E+02
 40
1.00000000E+00
 50
1.84964182E+02
 51
2.70000037E+02
  0
ARC
  8
0
 62
7
 10
4.12400042E+02
 20
1.02749962E+02
 40
1.00000000E+00
 50
2.70000054E+02
 51
3.59721787E-05
  0
ARC
  8
0
 62
7
 10
3.95896593E+02
 20
1.32214523E+02
 40
1.00000000E+00
 50
5.53696202E+01
 51
1.35000009E+02
  0
ARC
  8
0
 62
7
 10
3.92714525E+02
 20
1.35396500E+02
 40
1.00000000E+00
 50
3.15000045E+02
 51
3.46303655E+01
  0
CIRCLE
  8
0
 62
7
 10
4.03000017E+02
 20
1.42499969E+02
 40
8.69999981E+00
  0
ARC
  8
0
 62
7
 10
3.10000139E+02
 20
1.30500153E+02
 40
4.00000000E+00
 50
2.65409593E+02
 51
1.81044591E+00
  0
ARC
  8
0
 62
7
 10
3.31000078E+02
 20
1.51500015E+02
 40
4.00000000E+00
 50
2.68187376E+02
 51
4.58865268E+00
  0
ARC
  8
0
 62
7
 10
3.19000017E+02
 20
1.42500015E+02
 40
1.15000000E+01
 50
2.51325579E+02
 51
1.86749753E+01
  0
ARC
  8
0
 62
7
 10
3.14997545E+02
 20
7.03418655E+01
 40
1.00000000E+00
 50
1.78187377E+02
 51
2.88674648E+02
  0
ARC
  8
0
 62
7
 10
3.30841967E+02
 20
5.44976044E+01
 40
1.00000000E+00
 50
1.61325662E+02
 51
2.71810037E+02
  0
ARC
  8
0
 62
7
 10
3.91158129E+02
 20
5.44974976E+01
 40
1.00000000E+00
 50
2.68186502E+02
 51
1.86751802E+01
  0
ARC
  8
0
 62
7
 10
4.06800707E+02
 20
7.04081955E+01
 40
1.00000000E+00
 50
2.52299373E+02
 51
1.01068540E+00
  0
ARC
  8
0
 62
7
 10
3.14997637E+02
 20
1.30658081E+02
 40
1.00000000E+00
 50
7.13256114E+01
 51
1.81810062E+02
  0
ARC
  8
0
 62
7
 10
3.30841845E+02
 20
1.46502502E+02
 40
1.00000000E+00
 50
8.81864524E+01
 51
1.98675199E+02
  0
ARC
  8
0
 62
7
 10
3.09599993E+02
 20
7.54840317E+01
 40
1.00000000E+00
 50
1.80000000E+02
 51
2.74587793E+02
  0
ARC
  8
0
 62
7
 10
3.35983873E+02
 20
4.90999565E+01
 40
1.00000000E+00
 50
1.75409450E+02
 51
2.69999982E+02
  0
ARC
  8
0
 62
7
 10
3.86015917E+02
 20
4.91000099E+01
 40
1.00000000E+00
 50
2.69999999E+02
 51
4.58865268E+00
  0
ARC
  8
0
 62
7
 10
4.12400042E+02
 20
7.56844788E+01
 40
1.00000000E+00
 50
2.65585894E+02
 51
2.23118003E-05
  0
ARC
  8
0
 62
7
 10
3.10000017E+02
 20
7.05000534E+01
 40
4.00000000E+00
 50
3.58186935E+02
 51
9.45886690E+01
  0
ARC
  8
0
 62
7
 10
3.30999895E+02
 20
4.95001450E+01
 40
4.00000000E+00
 50
3.55409848E+02
 51
9.18104689E+01
  0
ARC
  8
0
 62
7
 10
3.90999926E+02
 20
4.94999924E+01
 40
4.00000000E+00
 50
8.81873336E+01
 51
1.84588446E+02
  0
ARC
  8
0
 62
7
 10
4.11999834E+02
 20
7.04998474E+01
 40
4.19999981E+00
 50
8.55868277E+01
 51
1.81010246E+02
  0
ARC
  8
0
 62
7
 10
3.09599993E+02
 20
1.25516174E+02
 40
1.00000000E+00
 50
8.54104450E+01
 51
1.80000000E+02
  0
CIRCLE
  8
0
 62
7
 10
3.19000017E+02
 20
5.84999847E+01
 40
8.00000000E+00
  0
ARC
  8
0
 62
7
 10
3.10000017E+02
 20
4.94999924E+01
 40
5.00000000E+00
 50
1.80000000E+02
 51
2.70000037E+02
  0
CIRCLE
  8
0
 62
7
 10
4.03000048E+02
 20
5.84999847E+01
 40
8.00000000E+00
  0
ARC
  8
0
 62
7
 10
4.11999987E+02
 20
4.94999924E+01
 40
5.00000000E+00
 50
2.70000054E+02
 51
3.59721787E-05
  0
CIRCLE
  8
0
 62
7
 10
3.19000017E+02
 20
1.42500015E+02
 40
8.00000000E+00
  0
ARC
  8
0
 62
7
 10
3.10000017E+02
 20
4.94999924E+01
 40
4.40000010E+00
 50
1.80000000E+02
 51
2.70000037E+02
  0
ARC
  8
0
 62
7
 10
4.11999987E+02
 20
4.94999924E+01
 40
4.40000010E+00
 50
2.70000054E+02
 51
3.59721787E-05
  0
ARC
  8
0
 62
7
 10
4.03000048E+02
 20
5.84999847E+01
 40
1.15000000E+01
 50
7.22986060E+01
 51
1.98674994E+02
  0
ARC
  8
0
 62
7
 10
3.19000017E+02
 20
5.84999847E+01
 40
1.15000000E+01
 50
3.41325588E+02
 51
1.08675067E+02
  0
ARC
  8
0
 62
7
 10
3.09599993E+02
 20
7.40000076E+01
 40
1.00000000E+00
 50
8.99999635E+01
 51
1.32096322E+02
  0
ARC
  8
0
 62
7
 10
4.12400042E+02
 20
9.82499924E+01
 40
1.00000000E+00
 50
8.65142201E-06
 51
9.00000454E+01
  0
ARC
  8
0
 62
7
 10
3.86902544E+02
 20
9.82499924E+01
 40
1.00000000E+00
 50
9.00000454E+01
 51
1.75035846E+02
  0
ARC
  8
0
 62
7
 10
3.63249987E+02
 20
7.45974426E+01
 40
1.00000000E+00
 50
9.49641993E+01
 51
1.80000027E+02
  0
ARC
  8
0
 62
7
 10
3.63249987E+02
 20
4.91000099E+01
 40
1.00000000E+00
 50
1.80000027E+02
 51
2.70000009E+02
  0
ARC
  8
0
 62
7
 10
3.77724901E+02
 20
8.05930786E+01
 40
1.00000000E+00
 50
4.50000133E+01
 51
1.30035581E+02
  0
ARC
  8
0
 62
7
 10
3.80906847E+02
 20
8.37750931E+01
 40
1.00000000E+00
 50
1.39964764E+02
 51
2.25000032E+02
  0
ARC
  8
0
 62
7
 10
3.92714525E+02
 20
6.56034088E+01
 40
1.00000000E+00
 50
3.25369624E+02
 51
4.50000133E+01
  0
ARC
  8
0
 62
7
 10
3.95896471E+02
 20
6.87854233E+01
 40
1.00000000E+00
 50
2.25000019E+02
 51
3.04630352E+02
  0
ARC
  8
0
 62
7
 10
3.58749987E+02
 20
4.91000099E+01
 40
1.00000000E+00
 50
2.69999999E+02
 51
4.96325570E-05
  0
ARC
  8
0
 62
7
 10
3.58749987E+02
 20
7.45974426E+01
 40
1.00000000E+00
 50
4.96325570E-05
 51
8.50358572E+01
  0
ARC
  8
0
 62
7
 10
3.35097490E+02
 20
9.82499924E+01
 40
1.00000000E+00
 50
4.96420380E+00
 51
9.00000317E+01
  0
ARC
  8
0
 62
7
 10
3.09599993E+02
 20
9.82499924E+01
 40
1.00000000E+00
 50
9.00000317E+01
 51
1.80000014E+02
  0
ARC
  8
0
 62
7
 10
3.41093126E+02
 20
8.37751465E+01
 40
1.00000000E+00
 50
3.15000018E+02
 51
4.00355723E+01
  0
ARC
  8
0
 62
7
 10
3.44275072E+02
 20
8.05931320E+01
 40
1.00000000E+00
 50
4.99647685E+01
 51
1.35000036E+02
  0
ARC
  8
0
 62
7
 10
3.26103502E+02
 20
6.87854691E+01
 40
1.00000000E+00
 50
2.35369612E+02
 51
3.15000000E+02
  0
ARC
  8
0
 62
7
 10
3.29285448E+02
 20
6.56035080E+01
 40
1.00000000E+00
 50
1.35000036E+02
 51
2.14630370E+02
  0
ARC
  8
0
 62
7
 10
3.09599993E+02
 20
1.02750008E+02
 40
1.00000000E+00
 50
1.80000000E+02
 51
2.70000037E+02
  0
ARC
  8
0
 62
7
 10
3.35097490E+02
 20
1.02750008E+02
 40
1.00000000E+00
 50
2.70000037E+02
 51
3.55035851E+02
  0
ARC
  8
0
 62
7
 10
3.58749987E+02
 20
1.26402557E+02
 40
1.00000000E+00
 50
2.74964208E+02
 51
3.59721787E-05
  0
ARC
  8
0
 62
7
 10
3.44275194E+02
 20
1.20406921E+02
 40
1.00000000E+00
 50
2.25000019E+02
 51
3.10035573E+02
  0
ARC
  8
0
 62
7
 10
3.41093157E+02
 20
1.17224907E+02
 40
1.00000000E+00
 50
3.19964773E+02
 51
4.50000407E+01
  0
ARC
  8
0
 62
7
 10
3.29285448E+02
 20
1.35396545E+02
 40
1.00000000E+00
 50
1.45369616E+02
 51
2.25000005E+02
  0
ARC
  8
0
 62
7
 10
3.26103502E+02
 20
1.32214523E+02
 40
1.00000000E+00
 50
4.50000407E+01
 51
1.24630375E+02
  0
CIRCLE
  8
0
 62
7
 10
4.03000048E+02
 20
5.84999847E+01
 40
8.69999981E+00
  0
ARC
  8
0
 62
7
 10
3.43920275E+02
 20
8.02382584E+01
 40
1.00000000E+00
 50
4.98705119E+01
 51
1.35000036E+02
  0
CIRCLE
  8
0
 62
7
 10
3.19000017E+02
 20
5.84999847E+01
 40
8.69999981E+00
  0
CIRCLE
  8
0
 62
7
 10
3.19000017E+02
 20
1.42500015E+02
 40
8.69999981E+00
  0
ARC
  8
0
 62
7
 10
4.17122515E+02
 20
8.77654724E+01
 40
2.50000024E+00
 50
3.52308615E+02
 51
8.36271917E+01
  0
ARC
  8
0
 62
7
 10
4.17122515E+02
 20
8.52345963E+01
 40
2.50000024E+00
 50
2.70000037E+02
 51
3.52308598E+02
  0
ARC
  8
0
 62
7
 10
4.17122515E+02
 20
1.13234627E+02
 40
2.50000024E+00
 50
2.70000037E+02
 51
3.52308598E+02
  0
ARC
  8
0
 62
7
 10
4.17122515E+02
 20
1.15765503E+02
 40
2.50000024E+00
 50
3.52308615E+02
 51
8.36271917E+01
  0
LINE
  8
0
  6
CENTER
 62
2
 10
3.33806322E+02
 20
5.85000229E+01
 11
3.02624376E+02
 21
5.85000229E+01
  0
LINE
  8
0
  6
CENTER
 62
2
 10
4.18964006E+02
 20
1.42500046E+02
 11
3.87108995E+02
 21
1.42500046E+02
  0
LINE
  8
0
 62
7
 10
4.16999956E+02
 20
1.51499939E+02
 11
4.16999956E+02
 21
4.94999275E+01
  0
LINE
  8
0
 62
7
 10
3.62249987E+02
 20
1.51899918E+02
 11
3.62249987E+02
 21
1.26402481E+02
  0
LINE
  8
0
 62
7
 10
4.12400042E+02
 20
1.01750053E+02
 11
3.86902605E+02
 21
1.01750053E+02
  0
LINE
  8
0
 62
7
 10
4.13399981E+02
 20
1.25515945E+02
 11
4.13399981E+02
 21
7.56843643E+01
  0
LINE
  8
0
 62
7
 10
3.78432207E+02
 20
1.19699585E+02
 11
3.93421823E+02
 21
1.34689200E+02
  0
LINE
  8
0
 62
7
 10
3.80199942E+02
 20
1.17931937E+02
 11
3.95189558E+02
 21
1.32921552E+02
  0
LINE
  8
0
 62
7
 10
4.16399981E+02
 20
1.51499985E+02
 11
4.16399981E+02
 21
4.94999275E+01
  0
LINE
  8
0
  6
CENTER
 62
2
 10
3.33806322E+02
 20
1.42500046E+02
 11
3.02716845E+02
 21
1.42500046E+02
  0
LINE
  8
0
 62
7
 10
3.95999987E+02
 20
4.50999565E+01
 11
3.95999987E+02
 21
4.44999275E+01
  0
LINE
  8
0
 62
7
 10
3.41800415E+02
 20
1.17932085E+02
 11
3.26810710E+02
 21
1.32921784E+02
  0
LINE
  8
0
 62
7
 10
3.43568203E+02
 20
1.19699874E+02
 11
3.28578531E+02
 21
1.34689540E+02
  0
LINE
  8
0
 62
7
 10
3.59749987E+02
 20
1.51899918E+02
 11
3.59749987E+02
 21
1.26402527E+02
  0
LINE
  8
0
 62
7
 10
3.59749987E+02
 20
4.90998955E+01
 11
3.59749987E+02
 21
7.45974274E+01
  0
LINE
  8
0
  6
CENTER
 62
2
 10
4.19068682E+02
 20
5.85000229E+01
 11
3.87503893E+02
 21
5.85000229E+01
  0
LINE
  8
0
  6
CENTER
 62
2
 10
4.02999956E+02
 20
4.28216667E+01
 11
4.02999956E+02
 21
7.28635712E+01
  0
LINE
  8
0
 62
7
 10
4.12000109E+02
 20
4.45000420E+01
 11
3.10000017E+02
 21
4.45000420E+01
  0
LINE
  8
0
 62
7
 10
3.04999987E+02
 20
1.51499939E+02
 11
3.04999987E+02
 21
4.94999275E+01
  0
LINE
  8
0
 62
7
 10
4.12400042E+02
 20
9.92500381E+01
 11
3.86902605E+02
 21
9.92500381E+01
  0
LINE
  8
0
 62
7
 10
3.62249987E+02
 20
4.90998955E+01
 11
3.62249987E+02
 21
7.45974274E+01
  0
LINE
  8
0
 62
7
 10
3.86016008E+02
 20
4.81000366E+01
 11
3.35983812E+02
 21
4.81000366E+01
  0
LINE
  8
0
 62
7
 10
3.80199965E+02
 20
8.30681691E+01
 11
3.95189624E+02
 21
6.80785112E+01
  0
LINE
  8
0
 62
7
 10
3.78432295E+02
 20
8.13003912E+01
 11
3.93421997E+02
 21
6.63106902E+01
  0
LINE
  8
0
 62
7
 10
3.09600084E+02
 20
9.92500381E+01
 11
3.35097521E+02
 21
9.92500381E+01
  0
LINE
  8
0
 62
7
 10
3.43568208E+02
 20
8.13000827E+01
 11
3.28578551E+02
 21
6.63104222E+01
  0
LINE
  8
0
 62
7
 10
3.41800290E+02
 20
8.30679142E+01
 11
3.26810633E+02
 21
6.80782537E+01
  0
LINE
  8
0
 62
7
 10
3.09600084E+02
 20
1.01750053E+02
 11
3.35097521E+02
 21
1.01750053E+02
  0
LINE
  8
0
 62
7
 10
4.12000109E+02
 20
4.51000557E+01
 11
3.10000017E+02
 21
4.51000557E+01
  0
LINE
  8
0
 62
7
 10
3.05599962E+02
 20
1.51499939E+02
 11
3.05599962E+02
 21
4.94999275E+01
  0
LINE
  8
0
 62
2
 10
3.11916582E+02
 20
1.00464729E+02
 11
3.11916582E+02
 21
1.00500023E+02
  0
LINE
  8
0
 62
7
 10
3.08599932E+02
 20
1.25516144E+02
 11
3.08599932E+02
 21
7.54839630E+01
  0
LINE
  8
0
  6
CENTER
 62
2
 10
3.01312181E+02
 20
1.00500000E+02
 11
4.21946093E+02
 21
1.00500000E+02
  0
LINE
  8
0
 62
7
 10
4.19599993E+02
 20
8.48999634E+01
 11
4.19599993E+02
 21
8.80999832E+01
  0
LINE
  8
0
 62
7
 10
4.17400133E+02
 20
8.27500000E+01
 11
4.17000109E+02
 21
8.27500000E+01
  0
LINE
  8
0
  6
CENTER
 62
2
 10
4.20464159E+02
 20
8.65000000E+01
 11
4.17000109E+02
 21
8.65000000E+01
  0
LINE
  8
0
 62
7
 10
4.17400042E+02
 20
1.18250015E+02
 11
4.17000109E+02
 21
1.18250015E+02
  0
LINE
  8
0
 62
7
 10
4.17400042E+02
 20
1.10750038E+02
 11
4.17000109E+02
 21
1.10750038E+02
  0
LINE
  8
0
 62
7
 10
3.25999987E+02
 20
4.50999565E+01
 11
3.25999987E+02
 21
4.44999275E+01
  0
LINE
  8
0
  6
CENTER
 62
2
 10
3.18999956E+02
 20
4.29276619E+01
 11
3.18999956E+02
 21
7.34962006E+01
  0
LINE
  8
0
 62
7
 10
4.17400042E+02
 20
9.02500000E+01
 11
4.17000109E+02
 21
9.02500000E+01
  0
LINE
  8
0
  6
CENTER
 62
2
 10
4.20464159E+02
 20
1.14500015E+02
 11
4.17000109E+02
 21
1.14500015E+02
  0
LINE
  8
0
 62
7
 10
4.19599993E+02
 20
1.12899979E+02
 11
4.19599993E+02
 21
1.16099998E+02
  0
LINE
  8
0
  6
CENTER
 62
2
 10
3.60999987E+02
 20
1.61798706E+02
 11
3.60999987E+02
 21
3.89689751E+01
  0
LINE
  8
0
  6
CENTER
 62
2
 10
3.18999956E+02
 20
1.59392700E+02
 11
3.18999956E+02
 21
1.27642151E+02
  0
LINE
  8
0
  6
CENTER
 62
2
 10
3.42999956E+02
 20
1.58286484E+02
 11
3.42999956E+02
 21
1.13154800E+02
  0
LINE
  8
0
  6
CENTER
 62
2
 10
3.72999956E+02
 20
1.16543831E+02
 11
3.72999956E+02
 21
1.58763580E+02
  0
LINE
  8
0
  6
CENTER
 62
2
 10
4.02999956E+02
 20
1.58980713E+02
 11
4.02999956E+02
 21
1.28073776E+02
  0
ARC
  8
0
 62
7
 10
3.58749987E+02
 20
1.51899994E+02
 40
1.00000000E+00
 50
3.59721787E-05
 51
9.00000179E+01
  0
ARC
  8
0
 62
7
 10
3.10000017E+02
 20
1.51500015E+02
 40
4.40000010E+00
 50
9.00000179E+01
 51
1.80000000E+02
  0
ARC
  8
0
 62
7
 10
3.10000017E+02
 20
1.51500015E+02
 40
5.00000000E+00
 50
9.00000179E+01
 51
1.80000000E+02
  0
ARC
  8
0
 62
7
 10
3.35984026E+02
 20
1.51899994E+02
 40
1.00000000E+00
 50
9.00000179E+01
 51
1.84587797E+02
  0
ARC
  8
0
 62
7
 10
3.63249987E+02
 20
1.51899994E+02
 40
1.00000000E+00
 50
9.00000042E+01
 51
1.80000041E+02
  0
ARC
  8
0
 62
7
 10
4.11999987E+02
 20
1.51500015E+02
 40
4.40000010E+00
 50
3.59721787E-05
 51
9.00000179E+01
  0
ARC
  8
0
 62
7
 10
4.11999987E+02
 20
1.51500015E+02
 40
5.00000000E+00
 50
3.59721787E-05
 51
9.00000179E+01
  0
ARC
  8
0
 62
7
 10
3.86016222E+02
 20
1.51900040E+02
 40
1.00000000E+00
 50
3.55410354E+02
 51
9.00000179E+01
  0
LINE
  8
0
  6
PHANTOM
 10
-2.45000000E+01
 20
1.93505299E+02
 11
-2.45000000E+01
 21
3.53816712E+02
  0
ARC
  8
0
 62
7
 10
-1.13000013E+02
 20
2.47500000E+02
 40
2.00000000E+00
 50
1.80000000E+02
 51
2.70000000E+02
  0
ARC
  8
0
 62
7
 10
-1.13000013E+02
 20
3.13500000E+02
 40
2.00000000E+00
 50
9.00000002E+01
 51
1.80000000E+02
  0
LINE
  8
0
 62
7
 10
-1.13000013E+02
 20
2.45500000E+02
 11
-8.29999981E+01
 21
2.45500000E+02
  0
LINE
  8
0
 62
7
 10
-1.13000013E+02
 20
3.15500000E+02
 11
-8.29999981E+01
 21
3.15500000E+02
  0
LINE
  8
0
 62
7
 10
-1.15000013E+02
 20
2.47500000E+02
 11
-1.15000013E+02
 21
3.13500000E+02
  0
LINE
  8
0
  6
CENTER
 62
2
 10
-2.02798323E+02
 20
2.80500000E+02
 11
9.80922184E+01
 21
2.80500000E+02
  0
LINE
  8
0
  6
CENTER
 62
2
 10
9.56908207E+01
 20
2.38499985E+02
 11
-1.21524473E+02
 21
2.38499985E+02
  0
LINE
  8
0
 62
7
 10
2.79999964E+01
 20
2.43000000E+02
 11
1.99999981E+01
 21
2.43000000E+02
  0
LINE
  8
0
 62
7
 10
2.79999964E+01
 20
2.33999954E+02
 11
4.99999809E+00
 21
2.33999954E+02
  0
LINE
  8
0
 62
7
 10
-8.29999981E+01
 20
3.36500183E+02
 11
-8.29999981E+01
 21
2.24499985E+02
  0
LINE
  8
0
 62
7
 10
2.79999964E+01
 20
2.24499756E+02
 11
2.79999964E+01
 21
3.36499969E+02
  0
LINE
  8
0
 62
7
 10
-8.29999981E+01
 20
2.26999985E+02
 11
-8.07351693E+00
 21
2.26999985E+02
  0
LINE
  8
0
  6
CENTER
 62
2
 10
9.32894230E+01
 20
3.22500031E+02
 11
-1.21524473E+02
 21
3.22500031E+02
  0
LINE
  8
0
 62
7
 10
2.79999964E+01
 20
3.18000000E+02
 11
-3.89999981E+01
 21
3.18000000E+02
  0
LINE
  8
0
 62
7
 10
2.79999964E+01
 20
3.27000031E+02
 11
-3.89999981E+01
 21
3.27000031E+02
  0
LINE
  8
0
 62
7
 10
-8.29999981E+01
 20
3.34000000E+02
 11
-5.20735708E+01
 21
3.34000000E+02
  0
LINE
  8
0
 62
7
 10
8.89999790E+01
 20
3.36499969E+02
 11
2.79999710E+01
 21
3.36499969E+02
  0
LINE
  8
0
 62
7
 10
8.89999790E+01
 20
2.24500015E+02
 11
2.80000472E+01
 21
2.24500015E+02
  0
LINE
  8
0
 62
7
 10
8.89999790E+01
 20
3.36499969E+02
 11
8.89999790E+01
 21
2.24499985E+02
  0
LINE
  8
0
  6
CENTER
 62
2
 10
6.49999905E+01
 20
2.77574219E+02
 11
6.49999905E+01
 21
3.38460083E+02
  0
LINE
  8
0
 62
7
 10
9.04999431E+01
 20
2.55499978E+02
 11
9.09999545E+01
 21
2.55999990E+02
  0
LINE
  8
0
 62
7
 10
-1.19000013E+02
 20
3.35380280E+02
 11
-1.19000013E+02
 21
2.25619705E+02
  0
LINE
  8
0
 62
7
 10
-1.18508668E+02
 20
2.25119888E+02
 11
-8.29999928E+01
 21
2.24500082E+02
  0
LINE
  8
0
 62
7
 10
-1.20499968E+02
 20
3.05500000E+02
 11
-1.19000013E+02
 21
3.05500000E+02
  0
LINE
  8
0
  6
CENTER
 62
2
 10
-9.00000439E+01
 20
2.70047821E+02
 11
-9.00000439E+01
 21
2.55434418E+02
  0
LINE
  8
0
  6
CENTER
 62
2
 10
-8.18053875E+01
 20
2.62500000E+02
 11
-9.80744152E+01
 21
2.62500000E+02
  0
LINE
  8
0
 62
7
 10
-9.17320584E+01
 20
2.62499891E+02
 11
-9.08660116E+01
 21
2.63999937E+02
  0
LINE
  8
0
 62
7
 10
-9.08660107E+01
 20
2.64000015E+02
 11
-8.91339092E+01
 21
2.64000015E+02
  0
LINE
  8
0
 62
7
 10
-8.82682501E+01
 20
2.62499773E+02
 11
-8.91342587E+01
 21
2.63999753E+02
  0
LINE
  8
0
 62
7
 10
-8.91339361E+01
 20
2.61000032E+02
 11
-8.82678969E+01
 21
2.62500065E+02
  0
LINE
  8
0
 62
7
 10
-9.08660107E+01
 20
2.60999985E+02
 11
-8.91339092E+01
 21
2.60999985E+02
  0
LINE
  8
0
 62
7
 10
-9.17323193E+01
 20
2.62499947E+02
 11
-9.08662649E+01
 21
2.60999888E+02
  0
LINE
  8
0
  6
CENTER
 62
2
 10
3.49999909E+01
 20
2.70047760E+02
 11
3.49999909E+01
 21
2.55434357E+02
  0
LINE
  8
0
  6
CENTER
 62
2
 10
4.31946220E+01
 20
2.62499939E+02
 11
2.69255997E+01
 21
2.62499939E+02
  0
LINE
  8
0
 62
7
 10
3.32678671E+01
 20
2.62499860E+02
 11
3.41338987E+01
 21
2.63999880E+02
  0
LINE
  8
0
 62
7
 10
3.41340041E+01
 20
2.63999954E+02
 11
3.58661051E+01
 21
2.63999954E+02
  0
LINE
  8
0
 62
7
 10
3.67317960E+01
 20
2.62499733E+02
 11
3.58658026E+01
 21
2.63999686E+02
  0
LINE
  8
0
 62
7
 10
3.58659305E+01
 20
2.60999929E+02
 11
3.67319925E+01
 21
2.62500002E+02
  0
LINE
  8
0
 62
7
 10
3.41340041E+01
 20
2.60999924E+02
 11
3.58661051E+01
 21
2.60999924E+02
  0
LINE
  8
0
 62
7
 10
3.32676858E+01
 20
2.62499848E+02
 11
3.41337174E+01
 21
2.60999828E+02
  0
LINE
  8
0
 62
7
 10
-1.39500044E+02
 20
3.03499969E+02
 11
-1.34999998E+02
 21
3.03499969E+02
  0
LINE
  8
0
 62
7
 10
-1.34517348E+02
 20
3.04528272E+02
 11
-1.20999891E+02
 21
3.05000312E+02
  0
LINE
  8
0
 62
7
 10
-1.40000013E+02
 20
2.58000076E+02
 11
-1.40000013E+02
 21
3.03000061E+02
  0
LINE
  8
0
 62
7
 10
-1.39500044E+02
 20
2.57499969E+02
 11
-1.34999998E+02
 21
2.57499969E+02
  0
LINE
  8
0
  6
CENTER
 62
2
 10
5.09999504E+01
 20
3.39964081E+02
 11
5.09999504E+01
 21
3.36500000E+02
  0
LINE
  8
0
 62
7
 10
5.26000633E+01
 20
3.39100006E+02
 11
4.94000149E+01
 21
3.39100006E+02
  0
LINE
  8
0
 62
7
 10
5.47499504E+01
 20
3.36899933E+02
 11
5.47499504E+01
 21
3.36500000E+02
  0
LINE
  8
0
 62
7
 10
4.72499504E+01
 20
3.36899933E+02
 11
4.72499504E+01
 21
3.36500000E+02
  0
LINE
  8
0
  6
CENTER
 62
2
 10
7.90000057E+01
 20
3.39964081E+02
 11
7.90000057E+01
 21
3.36500000E+02
  0
LINE
  8
0
 62
7
 10
8.06000919E+01
 20
3.39100006E+02
 11
7.74000454E+01
 21
3.39100006E+02
  0
LINE
  8
0
 62
7
 10
8.27500057E+01
 20
3.36899933E+02
 11
8.27500057E+01
 21
3.36500000E+02
  0
LINE
  8
0
 62
7
 10
7.52499790E+01
 20
3.36899933E+02
 11
7.52499790E+01
 21
3.36500000E+02
  0
LINE
  8
0
 62
7
 10
-1.20499968E+02
 20
2.55500000E+02
 11
-1.18999983E+02
 21
2.55500000E+02
  0
LINE
  8
0
 62
7
 10
-1.21000029E+02
 20
3.05000000E+02
 11
-1.21000029E+02
 21
2.56000000E+02
  0
LINE
  8
0
  6
CENTER
 62
2
 10
5.12976494E+01
 20
2.92499969E+02
 11
7.90949154E+01
 21
2.92499969E+02
  0
LINE
  8
0
  6
CENTER
 62
2
 10
-8.52976208E+01
 20
2.92500000E+02
 11
-1.13094862E+02
 21
2.92500000E+02
  0
LINE
  8
0
 62
7
 10
-1.18508706E+02
 20
3.35880376E+02
 11
-8.29999695E+01
 21
3.36500183E+02
  0
LINE
  8
0
  6
CENTER
 62
2
 10
-9.89999371E+01
 20
2.78394165E+02
 11
-9.89999371E+01
 21
3.06323273E+02
  0
LINE
  8
0
 62
7
 10
9.04999676E+01
 20
2.55499969E+02
 11
8.89999790E+01
 21
2.55499969E+02
  0
LINE
  8
0
 62
7
 10
9.09999752E+01
 20
3.04999969E+02
 11
9.09999752E+01
 21
2.55999985E+02
  0
LINE
  8
0
 62
7
 10
9.04999676E+01
 20
3.05499969E+02
 11
9.04999676E+01
 21
2.55499969E+02
  0
LINE
  8
0
 62
7
 10
-1.34517457E+02
 20
2.56472467E+02
 11
-1.21000000E+02
 21
2.56000427E+02
  0
LINE
  8
0
 62
7
 10
9.04999676E+01
 20
3.05499969E+02
 11
8.89999790E+01
 21
3.05499969E+02
  0
LINE
  8
0
 62
7
 10
9.04999647E+01
 20
3.05499945E+02
 11
9.09999437E+01
 21
3.04999966E+02
  0
LINE
  8
0
 62
7
 10
-1.94000044E+02
 20
2.68999939E+02
 11
-1.94000044E+02
 21
2.91999695E+02
  0
LINE
  8
0
 62
7
 10
-1.57000029E+02
 20
2.67500000E+02
 11
-1.57000029E+02
 21
2.93500000E+02
  0
LINE
  8
0
 62
7
 10
-1.92500059E+02
 20
2.93499969E+02
 11
-1.82500036E+02
 21
2.93499969E+02
  0
LINE
  8
0
 62
7
 10
-1.92500029E+02
 20
2.67500000E+02
 11
-1.92500029E+02
 21
2.93500000E+02
  0
LINE
  8
0
 62
7
 10
-1.93999882E+02
 20
2.91999798E+02
 11
-1.92499869E+02
 21
2.93499811E+02
  0
LINE
  8
0
 62
2
 10
-1.93320066E+02
 20
2.92679962E+02
 11
-1.82500036E+02
 21
2.92679962E+02
  0
LINE
  8
0
 62
7
 10
-1.92500059E+02
 20
2.67500000E+02
 11
-1.82500036E+02
 21
2.67500000E+02
  0
LINE
  8
0
 62
7
 10
-1.94000071E+02
 20
2.68999952E+02
 11
-1.92500058E+02
 21
2.67499940E+02
  0
LINE
  8
0
 62
2
 10
-1.93320066E+02
 20
2.68320007E+02
 11
-1.82500036E+02
 21
2.68320007E+02
  0
LINE
  8
0
 62
7
 10
-1.54000029E+02
 20
2.67500000E+02
 11
-1.54000029E+02
 21
2.93500000E+02
  0
LINE
  8
0
 62
7
 10
-1.42000059E+02
 20
2.95500061E+02
 11
-1.40000013E+02
 21
2.95500061E+02
  0
LINE
  8
0
 62
7
 10
-1.51000013E+02
 20
2.67500000E+02
 11
-1.51000013E+02
 21
2.93500000E+02
  0
LINE
  8
0
 62
7
 10
-1.41999952E+02
 20
2.65499954E+02
 11
-1.40000029E+02
 21
2.65499954E+02
  0
LINE
  8
0
 62
7
 10
-1.54000029E+02
 20
2.93500000E+02
 11
-1.44000105E+02
 21
2.93500000E+02
  0
LINE
  8
0
 62
7
 10
-1.54000029E+02
 20
2.67500000E+02
 11
-1.43999998E+02
 21
2.67500000E+02
  0
LINE
  8
0
 62
7
 10
-1.44000010E+02
 20
2.67500012E+02
 11
-1.41999943E+02
 21
2.65499945E+02
  0
LINE
  8
0
 62
7
 10
-1.44000079E+02
 20
2.93500047E+02
 11
-1.42000056E+02
 21
2.95500071E+02
  0
LINE
  8
0
 62
7
 10
-1.57000029E+02
 20
2.92679962E+02
 11
-1.54000029E+02
 21
2.92679962E+02
  0
LINE
  8
0
 62
7
 10
-1.57000029E+02
 20
2.68320007E+02
 11
-1.54000029E+02
 21
2.68320007E+02
  0
ARC
  8
0
 62
7
 10
-1.20499998E+02
 20
2.56000000E+02
 40
5.00000000E-01
 50
1.79999909E+02
 51
2.69999891E+02
  0
ARC
  8
0
 62
7
 10
-1.18500029E+02
 20
2.25619736E+02
 40
5.00000000E-01
 50
1.79999909E+02
 51
2.68999624E+02
  0
ARC
  8
0
 62
7
 10
-9.00000439E+01
 20
2.62500000E+02
 40
5.00000000E+00
 50
0.00000000E+00
 51
1.79999964E+02
  0
ARC
  8
0
 62
7
 10
-9.00000439E+01
 20
2.62500000E+02
 40
5.00000000E+00
 50
1.79999964E+02
 51
1.00179127E-05
  0
ARC
  8
0
 62
7
 10
3.49999909E+01
 20
2.62499939E+02
 40
5.00000000E+00
 50
0.00000000E+00
 51
1.79999964E+02
  0
ARC
  8
0
 62
7
 10
3.49999909E+01
 20
2.62499939E+02
 40
5.00000000E+00
 50
1.79999964E+02
 51
1.00179127E-05
  0
CIRCLE
  8
0
 62
7
 10
3.49999909E+01
 20
2.62499939E+02
 40
2.59999990E+00
  0
CIRCLE
  8
0
 62
7
 10
-9.00000439E+01
 20
2.62500000E+02
 40
2.59999990E+00
  0
ARC
  8
0
 62
7
 10
5.22654114E+01
 20
3.36622498E+02
 40
2.50000000E+00
 50
1.36603783E-05
 51
8.23085878E+01
  0
ARC
  8
0
 62
7
 10
4.97345123E+01
 20
3.36622498E+02
 40
2.50000000E+00
 50
8.23085741E+01
 51
1.73627152E+02
  0
ARC
  8
0
 62
7
 10
8.02654400E+01
 20
3.36622498E+02
 40
2.50000000E+00
 50
1.36603783E-05
 51
8.23085878E+01
  0
ARC
  8
0
 62
7
 10
7.77345409E+01
 20
3.36622498E+02
 40
2.50000000E+00
 50
8.23085741E+01
 51
1.73627152E+02
  0
ARC
  8
0
 62
7
 10
-1.20499998E+02
 20
3.05000000E+02
 40
5.00000000E-01
 50
8.99999274E+01
 51
1.79999909E+02
  0
CIRCLE
  8
0
 62
7
 10
6.49999638E+01
 20
2.92500061E+02
 40
9.25000000E+00
  0
CIRCLE
  8
0
 62
2
 10
6.49999905E+01
 20
2.92500000E+02
 40
1.04775009E+01
  0
ARC
  8
0
 62
7
 10
-1.18500029E+02
 20
3.35380280E+02
 40
5.00000000E-01
 50
9.10002017E+01
 51
1.79999909E+02
  0
CIRCLE
  8
0
 62
7
 10
-9.89999065E+01
 20
2.92500061E+02
 40
9.25000000E+00
  0
CIRCLE
  8
0
 62
2
 10
-9.89999371E+01
 20
2.92500000E+02
 40
1.04775009E+01
  0
ARC
  8
0
 62
7
 10
-1.39499983E+02
 20
3.03000061E+02
 40
5.00000000E-01
 50
8.99999818E+01
 51
1.79999951E+02
  0
ARC
  8
0
 62
7
 10
-1.34499983E+02
 20
3.04028320E+02
 40
5.00000000E-01
 50
9.20007356E+01
 51
1.79999951E+02
  0
ARC
  8
0
 62
7
 10
-1.34499983E+02
 20
2.56971817E+02
 40
5.00000000E-01
 50
1.79999977E+02
 51
2.67999192E+02
  0
ARC
  8
0
 62
7
 10
-1.39499983E+02
 20
2.58000046E+02
 40
5.00000000E-01
 50
1.79999977E+02
 51
2.69999974E+02
  0
ARC
  8
0
 62
4
 10
-1.94498067E+02
 20
2.71499996E+02
 40
2.59980309E+01
 50
3.39746143E+02
 51
2.02538569E+01
  0
ARC
  8
0
 62
4
 10
-1.94498067E+02
 20
2.89500004E+02
 40
2.59980309E+01
 50
3.39746143E+02
 51
2.02538569E+01
  0
ARC
  8
0
 62
4
 10
-1.56502005E+02
 20
2.89500004E+02
 40
2.59980309E+01
 50
1.59746143E+02
 51
2.00253857E+02
  0
ARC
  8
0
 62
4
 10
-1.56502005E+02
 20
2.71499996E+02
 40
2.59980309E+01
 50
1.59746143E+02
 51
2.00253857E+02
  0
LINE
  8
0
 62
4
 10
-1.80892527E+02
 20
2.80500000E+02
 11
-1.70107546E+02
 21
2.80500000E+02
  0
LINE
  8
0
 62
4
 10
-1.68500036E+02
 20
2.98500008E+02
 11
-1.68500036E+02
 21
2.62500137E+02
  0
LINE
  8
0
 62
4
 10
-1.82500036E+02
 20
2.98500008E+02
 11
-1.82500036E+02
 21
2.62500137E+02
  0
LINE
  8
0
 62
4
 10
-1.82500036E+02
 20
2.98500008E+02
 11
-1.68500036E+02
 21
2.98500008E+02
  0
LINE
  8
0
 62
4
 10
-1.82500036E+02
 20
2.62500137E+02
 11
-1.68500036E+02
 21
2.62500137E+02
  0
LINE
  8
0
 62
7
 10
-1.68500036E+02
 20
2.93499969E+02
 11
-1.57000029E+02
 21
2.93499969E+02
  0
LINE
  8
0
 62
2
 10
-1.68500036E+02
 20
2.92679962E+02
 11
-1.57000029E+02
 21
2.92679962E+02
  0
LINE
  8
0
 62
7
 10
-1.68500036E+02
 20
2.67500000E+02
 11
-1.57000029E+02
 21
2.67500000E+02
  0
LINE
  8
0
 62
2
 10
-1.68500036E+02
 20
2.68320007E+02
 11
-1.57000029E+02
 21
2.68320007E+02
  0
LINE
  8
0
 62
7
 10
-1.35000013E+02
 20
3.04063293E+02
 11
-1.35000013E+02
 21
2.56936813E+02
  0
LINE
  8
0
 62
4
 10
-1.00000019E+01
 20
2.55715778E+02
 11
-1.91339765E+01
 21
2.55715778E+02
  0
LINE
  8
0
 62
4
 10
-1.00000019E+01
 20
2.52715778E+02
 11
-2.08660273E+01
 21
2.52715778E+02
  0
LINE
  8
0
 62
6
 10
-1.82679511E+01
 20
2.57215778E+02
 11
-2.17320527E+01
 21
2.51215778E+02
  0
LINE
  8
0
  6
CENTER
 62
6
 10
2.49999981E+01
 20
2.54215778E+02
 11
-2.50000019E+01
 21
2.54215778E+02
  0
LINE
  8
0
 62
4
 10
-3.89999981E+01
 20
3.05284237E+02
 11
-2.98660235E+01
 21
3.05284237E+02
  0
LINE
  8
0
 62
4
 10
-3.89999981E+01
 20
3.08284237E+02
 11
-2.81339727E+01
 21
3.08284237E+02
  0
LINE
  8
0
 62
6
 10
-3.07320489E+01
 20
3.03784237E+02
 11
-2.72679473E+01
 21
3.09784237E+02
  0
LINE
  8
0
  6
CENTER
 62
6
 10
-7.39999981E+01
 20
3.06784237E+02
 11
-2.39999981E+01
 21
3.06784237E+02
  0
LINE
  8
0
 62
6
 10
2.99999813E+00
 20
2.26963346E+02
 11
2.99999813E+00
 21
2.28017928E+02
  0
LINE
  8
0
 62
6
 10
-1.87421408E-06
 20
2.26963346E+02
 11
-1.87421408E-06
 21
2.28017928E+02
  0
LINE
  8
0
 62
4
 10
3.49999813E+00
 20
2.27511934E+02
 11
3.49999813E+00
 21
2.28017928E+02
  0
LINE
  8
0
 62
4
 10
-5.00001874E-01
 20
2.27511934E+02
 11
-5.00001874E-01
 21
2.28017928E+02
  0
LINE
  8
0
 62
4
 10
4.99999809E+00
 20
2.28017928E+02
 11
4.99999809E+00
 21
2.41131565E+02
  0
LINE
  8
0
 62
4
 10
-1.00000019E+01
 20
2.28017928E+02
 11
-1.00000019E+01
 21
2.57139258E+02
  0
LINE
  8
0
 62
4
 10
1.99999981E+01
 20
2.41131565E+02
 11
1.99999981E+01
 21
2.54816976E+02
  0
LINE
  8
0
  6
CENTER
 62
6
 10
-6.50000194E+00
 20
2.23234406E+02
 11
-6.50000194E+00
 21
2.33499985E+02
  0
LINE
  8
0
  6
CENTER
 62
6
 10
1.49999806E+00
 20
2.23234406E+02
 11
1.49999806E+00
 21
2.33499985E+02
  0
LINE
  8
0
  6
CENTER
 62
6
 10
1.24999981E+01
 20
2.49870285E+02
 11
1.24999981E+01
 21
2.54870285E+02
  0
LINE
  8
0
 62
4
 10
-5.00000191E+00
 20
2.55264829E+02
 11
-5.00000191E+00
 21
2.56865087E+02
  0
LINE
  8
0
 62
4
 10
1.99999981E+01
 20
2.47999985E+02
 11
1.99999981E+01
 21
2.47599985E+02
  0
LINE
  8
0
 62
4
 10
-3.50000191E+00
 20
2.55656827E+02
 11
-3.50000191E+00
 21
2.56865087E+02
  0
LINE
  8
0
 62
4
 10
2.14999981E+01
 20
2.52714369E+02
 11
2.14999981E+01
 21
2.55714711E+02
  0
POLYLINE
  8
0
 62
4
 66
1
  0
VERTEX
  8
0
 62
4
 10
-5.00002000E-01
 20
2.27511934E+02
  0
VERTEX
  8
0
 62
4
 10
-4.91950588E-01
 20
2.27437588E+02
  0
VERTEX
  8
0
 62
4
 10
-4.67861177E-01
 20
2.27363841E+02
  0
VERTEX
  8
0
 62
4
 10
-4.27927720E-01
 20
2.27291287E+02
  0
VERTEX
  8
0
 62
4
 10
-3.72471738E-01
 20
2.27220508E+02
  0
VERTEX
  8
0
 62
4
 10
-3.01939731E-01
 20
2.27152077E+02
  0
VERTEX
  8
0
 62
4
 10
-2.16899580E-01
 20
2.27086542E+02
  0
VERTEX
  8
0
 62
4
 10
-1.18035979E-01
 20
2.27024433E+02
  0
VERTEX
  8
0
 62
4
 10
-6.14491899E-03
 20
2.26966249E+02
  0
VERTEX
  8
0
 62
4
 10
1.17872718E-01
 20
2.26912458E+02
  0
VERTEX
  8
0
 62
4
 10
2.53018416E-01
 20
2.26863494E+02
  0
VERTEX
  8
0
 62
4
 10
3.98204061E-01
 20
2.26819750E+02
  0
VERTEX
  8
0
 62
4
 10
5.52260703E-01
 20
2.26781580E+02
  0
VERTEX
  8
0
 62
4
 10
7.13947970E-01
 20
2.26749290E+02
  0
VERTEX
  8
0
 62
4
 10
8.81964049E-01
 20
2.26723141E+02
  0
VERTEX
  8
0
 62
4
 10
1.05495617E+00
 20
2.26703342E+02
  0
VERTEX
  8
0
 62
4
 10
1.23153152E+00
 20
2.26690054E+02
  0
VERTEX
  8
0
 62
4
 10
1.41026839E+00
 20
2.26683383E+02
  0
VERTEX
  8
0
 62
4
 10
1.58972772E+00
 20
2.26683383E+02
  0
VERTEX
  8
0
 62
4
 10
1.76846459E+00
 20
2.26690054E+02
  0
VERTEX
  8
0
 62
4
 10
1.94503994E+00
 20
2.26703342E+02
  0
VERTEX
  8
0
 62
4
 10
2.11803206E+00
 20
2.26723141E+02
  0
VERTEX
  8
0
 62
4
 10
2.28604814E+00
 20
2.26749290E+02
  0
VERTEX
  8
0
 62
4
 10
2.44773541E+00
 20
2.26781580E+02
  0
VERTEX
  8
0
 62
4
 10
2.60179205E+00
 20
2.26819750E+02
  0
VERTEX
  8
0
 62
4
 10
2.74697770E+00
 20
2.26863494E+02
  0
VERTEX
  8
0
 62
4
 10
2.88212339E+00
 20
2.26912458E+02
  0
VERTEX
  8
0
 62
4
 10
3.00614103E+00
 20
2.26966249E+02
  0
VERTEX
  8
0
 62
4
 10
3.11803209E+00
 20
2.27024433E+02
  0
VERTEX
  8
0
 62
4
 10
3.21689570E+00
 20
2.27086542E+02
  0
VERTEX
  8
0
 62
4
 10
3.30193585E+00
 20
2.27152077E+02
  0
VERTEX
  8
0
 62
4
 10
3.37246785E+00
 20
2.27220508E+02
  0
VERTEX
  8
0
 62
4
 10
3.42792384E+00
 20
2.27291287E+02
  0
VERTEX
  8
0
 62
4
 10
3.46785729E+00
 20
2.27363841E+02
  0
VERTEX
  8
0
 62
4
 10
3.49194671E+00
 20
2.27437588E+02
  0
VERTEX
  8
0
 62
4
 10
3.49999812E+00
 20
2.27511934E+02
  0
SEQEND
  8
0
  0
LINE
  8
0
 62
6
 10
-8.00000187E+00
 20
2.26963346E+02
 11
-8.00000187E+00
 21
2.28017928E+02
  0
LINE
  8
0
 62
4
 10
-8.50000187E+00
 20
2.27511934E+02
 11
-8.50000187E+00
 21
2.28017928E+02
  0
POLYLINE
  8
0
 62
4
 66
1
  0
VERTEX
  8
0
 62
4
 10
-8.50000200E+00
 20
2.27511934E+02
  0
VERTEX
  8
0
 62
4
 10
-8.49195059E+00
 20
2.27437588E+02
  0
VERTEX
  8
0
 62
4
 10
-8.46786118E+00
 20
2.27363841E+02
  0
VERTEX
  8
0
 62
4
 10
-8.42792772E+00
 20
2.27291287E+02
  0
VERTEX
  8
0
 62
4
 10
-8.37247174E+00
 20
2.27220508E+02
  0
VERTEX
  8
0
 62
4
 10
-8.30193973E+00
 20
2.27152077E+02
  0
VERTEX
  8
0
 62
4
 10
-8.21689958E+00
 20
2.27086542E+02
  0
VERTEX
  8
0
 62
4
 10
-8.11803598E+00
 20
2.27024433E+02
  0
VERTEX
  8
0
 62
4
 10
-8.00614492E+00
 20
2.26966249E+02
  0
VERTEX
  8
0
 62
4
 10
-7.88212728E+00
 20
2.26912458E+02
  0
VERTEX
  8
0
 62
4
 10
-7.74698158E+00
 20
2.26863494E+02
  0
VERTEX
  8
0
 62
4
 10
-7.60179594E+00
 20
2.26819750E+02
  0
VERTEX
  8
0
 62
4
 10
-7.44773930E+00
 20
2.26781580E+02
  0
VERTEX
  8
0
 62
4
 10
-7.28605203E+00
 20
2.26749290E+02
  0
VERTEX
  8
0
 62
4
 10
-7.11803595E+00
 20
2.26723141E+02
  0
VERTEX
  8
0
 62
4
 10
-6.94504383E+00
 20
2.26703342E+02
  0
VERTEX
  8
0
 62
4
 10
-6.76846848E+00
 20
2.26690054E+02
  0
VERTEX
  8
0
 62
4
 10
-6.58973161E+00
 20
2.26683383E+02
  0
VERTEX
  8
0
 62
4
 10
-6.41027228E+00
 20
2.26683383E+02
  0
VERTEX
  8
0
 62
4
 10
-6.23153541E+00
 20
2.26690054E+02
  0
VERTEX
  8
0
 62
4
 10
-6.05496006E+00
 20
2.26703342E+02
  0
VERTEX
  8
0
 62
4
 10
-5.88196794E+00
 20
2.26723141E+02
  0
VERTEX
  8
0
 62
4
 10
-5.71395186E+00
 20
2.26749290E+02
  0
VERTEX
  8
0
 62
4
 10
-5.55226459E+00
 20
2.26781580E+02
  0
VERTEX
  8
0
 62
4
 10
-5.39820795E+00
 20
2.26819750E+02
  0
VERTEX
  8
0
 62
4
 10
-5.25302230E+00
 20
2.26863494E+02
  0
VERTEX
  8
0
 62
4
 10
-5.11787661E+00
 20
2.26912458E+02
  0
VERTEX
  8
0
 62
4
 10
-4.99385897E+00
 20
2.26966249E+02
  0
VERTEX
  8
0
 62
4
 10
-4.88196791E+00
 20
2.27024433E+02
  0
VERTEX
  8
0
 62
4
 10
-4.78310430E+00
 20
2.27086542E+02
  0
VERTEX
  8
0
 62
4
 10
-4.69806415E+00
 20
2.27152077E+02
  0
VERTEX
  8
0
 62
4
 10
-4.62753215E+00
 20
2.27220508E+02
  0
VERTEX
  8
0
 62
4
 10
-4.57207616E+00
 20
2.27291287E+02
  0
VERTEX
  8
0
 62
4
 10
-4.53214271E+00
 20
2.27363841E+02
  0
VERTEX
  8
0
 62
4
 10
-4.50805329E+00
 20
2.27437588E+02
  0
VERTEX
  8
0
 62
4
 10
-4.50000188E+00
 20
2.27511934E+02
  0
SEQEND
  8
0
  0
LINE
  8
0
 62
6
 10
-5.00000187E+00
 20
2.26963346E+02
 11
-5.00000187E+00
 21
2.28017928E+02
  0
LINE
  8
0
 62
4
 10
-4.50000187E+00
 20
2.27511934E+02
 11
-4.50000187E+00
 21
2.28017928E+02
  0
LINE
  8
0
 62
4
 10
4.99999811E+00
 20
2.28017928E+02
 11
-1.00000019E+01
 21
2.28017928E+02
  0
LINE
  8
0
 62
4
 10
4.99999811E+00
 20
2.34761836E+02
 11
-1.00000019E+01
 21
2.34761836E+02
  0
LINE
  8
0
 62
4
 10
1.99999981E+01
 20
2.41131565E+02
 11
-1.00000019E+01
 21
2.41131565E+02
  0
LINE
  8
0
 62
4
 10
1.99999981E+01
 20
2.50504166E+02
 11
-1.00000019E+01
 21
2.50504166E+02
  0
LINE
  8
0
 62
4
 10
1.99999981E+01
 20
2.57139258E+02
 11
7.51092849E+00
 21
2.57139258E+02
  0
LINE
  8
0
 62
4
 10
1.99999981E+01
 20
2.51566469E+02
 11
2.14999981E+01
 21
2.52714369E+02
  0
LINE
  8
0
 62
4
 10
1.99999981E+01
 20
2.55206314E+02
 11
9.14999809E+00
 21
2.55206314E+02
  0
LINE
  8
0
 62
4
 10
2.14999981E+01
 20
2.54775431E+02
 11
1.99999981E+01
 21
2.55206314E+02
  0
LINE
  8
0
 62
4
 10
1.99999981E+01
 20
2.56865087E+02
 11
8.19948890E+00
 21
2.56865087E+02
  0
LINE
  8
0
 62
4
 10
2.14999981E+01
 20
2.55714711E+02
 11
1.99999981E+01
 21
2.56865087E+02
  0
LINE
  8
0
 62
4
 10
1.99999981E+01
 20
2.54816976E+02
 11
9.14999809E+00
 21
2.54816976E+02
  0
LINE
  8
0
 62
4
 10
1.99999981E+01
 20
2.54816976E+02
 11
1.99999981E+01
 21
2.56865087E+02
  0
LINE
  8
0
 62
4
 10
1.99999981E+01
 20
2.56865087E+02
 11
1.99999981E+01
 21
2.57139258E+02
  0
LINE
  8
0
 62
4
 10
1.29999809E+00
 20
2.52370285E+02
 11
1.29999809E+00
 21
2.53280247E+02
  0
LINE
  8
0
 62
4
 10
-6.30000191E+00
 20
2.53280247E+02
 11
-6.30000191E+00
 21
2.52370285E+02
  0
LINE
  8
0
 62
4
 10
8.99998093E-01
 20
2.53280247E+02
 11
8.99998093E-01
 21
2.54309233E+02
  0
LINE
  8
0
 62
4
 10
-5.90000191E+00
 20
2.53280247E+02
 11
-5.90000191E+00
 21
2.54309233E+02
  0
LINE
  8
0
 62
4
 10
8.49998093E-01
 20
2.54550148E+02
 11
8.49998093E-01
 21
2.55769029E+02
  0
LINE
  8
0
 62
4
 10
9.14999809E+00
 20
2.55769029E+02
 11
9.14999809E+00
 21
2.54167497E+02
  0
POLYLINE
  8
0
 62
4
 66
1
  0
VERTEX
  8
0
 62
4
 10
1.29999810E+00
 20
2.53191433E+02
  0
VERTEX
  8
0
 62
4
 10
1.44989876E+00
 20
2.53057416E+02
  0
VERTEX
  8
0
 62
4
 10
1.62795832E+00
 20
2.52929461E+02
  0
VERTEX
  8
0
 62
4
 10
1.83276444E+00
 20
2.52808584E+02
  0
VERTEX
  8
0
 62
4
 10
2.06269261E+00
 20
2.52695743E+02
  0
VERTEX
  8
0
 62
4
 10
2.31591908E+00
 20
2.52591832E+02
  0
VERTEX
  8
0
 62
4
 10
2.59043529E+00
 20
2.52497677E+02
  0
VERTEX
  8
0
 62
4
 10
2.88406382E+00
 20
2.52414024E+02
  0
VERTEX
  8
0
 62
4
 10
3.19447565E+00
 20
2.52341537E+02
  0
VERTEX
  8
0
 62
4
 10
3.51920863E+00
 20
2.52280790E+02
  0
VERTEX
  8
0
 62
4
 10
3.85568703E+00
 20
2.52232265E+02
  0
VERTEX
  8
0
 62
4
 10
4.20124194E+00
 20
2.52196348E+02
  0
VERTEX
  8
0
 62
4
 10
4.55313248E+00
 20
2.52173323E+02
  0
VERTEX
  8
0
 62
4
 10
4.90856749E+00
 20
2.52163372E+02
  0
VERTEX
  8
0
 62
4
 10
5.26472772E+00
 20
2.52166576E+02
  0
VERTEX
  8
0
 62
4
 10
5.61878815E+00
 20
2.52182908E+02
  0
VERTEX
  8
0
 62
4
 10
5.96794042E+00
 20
2.52212238E+02
  0
VERTEX
  8
0
 62
4
 10
6.30941511E+00
 20
2.52254335E+02
  0
VERTEX
  8
0
 62
4
 10
6.64050368E+00
 20
2.52308863E+02
  0
VERTEX
  8
0
 62
4
 10
6.95857999E+00
 20
2.52375392E+02
  0
VERTEX
  8
0
 62
4
 10
7.26112110E+00
 20
2.52453393E+02
  0
VERTEX
  8
0
 62
4
 10
7.54572730E+00
 20
2.52542246E+02
  0
VERTEX
  8
0
 62
4
 10
7.81014113E+00
 20
2.52641249E+02
  0
VERTEX
  8
0
 62
4
 10
8.05226529E+00
 20
2.52749614E+02
  0
VERTEX
  8
0
 62
4
 10
8.27017929E+00
 20
2.52866484E+02
  0
VERTEX
  8
0
 62
4
 10
8.46215467E+00
 20
2.52990930E+02
  0
VERTEX
  8
0
 62
4
 10
8.62666870E+00
 20
2.53121966E+02
  0
VERTEX
  8
0
 62
4
 10
8.76241649E+00
 20
2.53258552E+02
  0
VERTEX
  8
0
 62
4
 10
8.86832129E+00
 20
2.53399605E+02
  0
VERTEX
  8
0
 62
4
 10
8.94354309E+00
 20
2.53544006E+02
  0
VERTEX
  8
0
 62
4
 10
8.98748524E+00
 20
2.53690610E+02
  0
SEQEND
  8
0
  0
POLYLINE
  8
0
 62
4
 66
1
  0
VERTEX
  8
0
 62
4
 10
1.28962358E+00
 20
2.53396611E+02
  0
VERTEX
  8
0
 62
4
 10
1.47005441E+00
 20
2.53262553E+02
  0
VERTEX
  8
0
 62
4
 10
1.67857699E+00
 20
2.53135697E+02
  0
VERTEX
  8
0
 62
4
 10
1.91353186E+00
 20
2.53017052E+02
  0
VERTEX
  8
0
 62
4
 10
2.17304922E+00
 20
2.52907562E+02
  0
VERTEX
  8
0
 62
4
 10
2.45506381E+00
 20
2.52808099E+02
  0
VERTEX
  8
0
 62
4
 10
2.75733130E+00
 20
2.52719455E+02
  0
VERTEX
  8
0
 62
4
 10
3.07744623E+00
 20
2.52642334E+02
  0
VERTEX
  8
0
 62
4
 10
3.41286106E+00
 20
2.52577350E+02
  0
VERTEX
  8
0
 62
4
 10
3.76090654E+00
 20
2.52525021E+02
  0
VERTEX
  8
0
 62
4
 10
4.11881287E+00
 20
2.52485763E+02
  0
VERTEX
  8
0
 62
4
 10
4.48373178E+00
 20
2.52459889E+02
  0
VERTEX
  8
0
 62
4
 10
4.85275920E+00
 20
2.52447604E+02
  0
VERTEX
  8
0
 62
4
 10
5.22295837E+00
 20
2.52449006E+02
  0
VERTEX
  8
0
 62
4
 10
5.59138319E+00
 20
2.52464084E+02
  0
VERTEX
  8
0
 62
4
 10
5.95510170E+00
 20
2.52492718E+02
  0
VERTEX
  8
0
 62
4
 10
6.31121936E+00
 20
2.52534680E+02
  0
VERTEX
  8
0
 62
4
 10
6.65690217E+00
 20
2.52589636E+02
  0
VERTEX
  8
0
 62
4
 10
6.98939911E+00
 20
2.52657149E+02
  0
VERTEX
  8
0
 62
4
 10
7.30606415E+00
 20
2.52736682E+02
  0
VERTEX
  8
0
 62
4
 10
7.60437723E+00
 20
2.52827601E+02
  0
VERTEX
  8
0
 62
4
 10
7.88196432E+00
 20
2.52929183E+02
  0
VERTEX
  8
0
 62
4
 10
8.13661635E+00
 20
2.53040620E+02
  0
VERTEX
  8
0
 62
4
 10
8.36630678E+00
 20
2.53161025E+02
  0
VERTEX
  8
0
 62
4
 10
8.56920769E+00
 20
2.53289439E+02
  0
VERTEX
  8
0
 62
4
 10
8.74370437E+00
 20
2.53424841E+02
  0
VERTEX
  8
0
 62
4
 10
8.88840816E+00
 20
2.53566154E+02
  0
VERTEX
  8
0
 62
4
 10
9.00216749E+00
 20
2.53712251E+02
  0
VERTEX
  8
0
 62
4
 10
9.08407705E+00
 20
2.53861972E+02
  0
VERTEX
  8
0
 62
4
 10
9.13348498E+00
 20
2.54014124E+02
  0
VERTEX
  8
0
 62
4
 10
9.14999809E+00
 20
2.54167497E+02
  0
SEQEND
  8
0
  0
POLYLINE
  8
0
 62
4
 66
1
  0
VERTEX
  8
0
 62
4
 10
9.14999809E+00
 20
2.55769029E+02
  0
VERTEX
  8
0
 62
4
 10
9.13420609E+00
 20
2.55919022E+02
  0
VERTEX
  8
0
 62
4
 10
9.08695026E+00
 20
2.56067874E+02
  0
VERTEX
  8
0
 62
4
 10
9.00859027E+00
 20
2.56214451E+02
  0
VERTEX
  8
0
 62
4
 10
8.89972247E+00
 20
2.56357638E+02
  0
VERTEX
  8
0
 62
4
 10
8.76117541E+00
 20
2.56496345E+02
  0
VERTEX
  8
0
 62
4
 10
8.59400352E+00
 20
2.56629517E+02
  0
VERTEX
  8
0
 62
4
 10
8.39947907E+00
 20
2.56756141E+02
  0
VERTEX
  8
0
 62
4
 10
8.17908253E+00
 20
2.56875252E+02
  0
VERTEX
  8
0
 62
4
 10
7.93449123E+00
 20
2.56985943E+02
  0
VERTEX
  8
0
 62
4
 10
7.66756667E+00
 20
2.57087374E+02
  0
VERTEX
  8
0
 62
4
 10
7.38034030E+00
 20
2.57178771E+02
  0
VERTEX
  8
0
 62
4
 10
7.07499809E+00
 20
2.57259439E+02
  0
VERTEX
  8
0
 62
4
 10
6.75386387E+00
 20
2.57328764E+02
  0
VERTEX
  8
0
 62
4
 10
6.41938168E+00
 20
2.57386218E+02
  0
VERTEX
  8
0
 62
4
 10
6.07409712E+00
 20
2.57431365E+02
  0
VERTEX
  8
0
 62
4
 10
5.72063802E+00
 20
2.57463860E+02
  0
VERTEX
  8
0
 62
4
 10
5.36169442E+00
 20
2.57483457E+02
  0
VERTEX
  8
0
 62
4
 10
4.99999809E+00
 20
2.57490006E+02
  0
VERTEX
  8
0
 62
4
 10
4.63830175E+00
 20
2.57483457E+02
  0
VERTEX
  8
0
 62
4
 10
4.27935815E+00
 20
2.57463860E+02
  0
VERTEX
  8
0
 62
4
 10
3.92589905E+00
 20
2.57431365E+02
  0
VERTEX
  8
0
 62
4
 10
3.58061449E+00
 20
2.57386218E+02
  0
VERTEX
  8
0
 62
4
 10
3.24613230E+00
 20
2.57328764E+02
  0
VERTEX
  8
0
 62
4
 10
2.92499809E+00
 20
2.57259439E+02
  0
VERTEX
  8
0
 62
4
 10
2.61965588E+00
 20
2.57178771E+02
  0
VERTEX
  8
0
 62
4
 10
2.33242951E+00
 20
2.57087374E+02
  0
VERTEX
  8
0
 62
4
 10
2.06550494E+00
 20
2.56985943E+02
  0
VERTEX
  8
0
 62
4
 10
1.82091365E+00
 20
2.56875252E+02
  0
VERTEX
  8
0
 62
4
 10
1.60051710E+00
 20
2.56756141E+02
  0
VERTEX
  8
0
 62
4
 10
1.40599266E+00
 20
2.56629517E+02
  0
VERTEX
  8
0
 62
4
 10
1.23882077E+00
 20
2.56496345E+02
  0
VERTEX
  8
0
 62
4
 10
1.10027371E+00
 20
2.56357638E+02
  0
VERTEX
  8
0
 62
4
 10
9.91405910E-01
 20
2.56214451E+02
  0
VERTEX
  8
0
 62
4
 10
9.13045914E-01
 20
2.56067874E+02
  0
VERTEX
  8
0
 62
4
 10
8.65790092E-01
 20
2.55919022E+02
  0
VERTEX
  8
0
 62
4
 10
8.49998090E-01
 20
2.55769029E+02
  0
VERTEX
  8
0
 62
4
 10
8.65790093E-01
 20
2.55619036E+02
  0
VERTEX
  8
0
 62
4
 10
9.13045916E-01
 20
2.55470184E+02
  0
VERTEX
  8
0
 62
4
 10
9.91405913E-01
 20
2.55323607E+02
  0
VERTEX
  8
0
 62
4
 10
1.10027372E+00
 20
2.55180420E+02
  0
VERTEX
  8
0
 62
4
 10
1.23882078E+00
 20
2.55041713E+02
  0
VERTEX
  8
0
 62
4
 10
1.40599267E+00
 20
2.54908541E+02
  0
VERTEX
  8
0
 62
4
 10
1.60051711E+00
 20
2.54781917E+02
  0
VERTEX
  8
0
 62
4
 10
1.82091366E+00
 20
2.54662806E+02
  0
VERTEX
  8
0
 62
4
 10
2.06550495E+00
 20
2.54552115E+02
  0
VERTEX
  8
0
 62
4
 10
2.33242952E+00
 20
2.54450684E+02
  0
VERTEX
  8
0
 62
4
 10
2.61965589E+00
 20
2.54359287E+02
  0
VERTEX
  8
0
 62
4
 10
2.92499810E+00
 20
2.54278619E+02
  0
VERTEX
  8
0
 62
4
 10
3.24613231E+00
 20
2.54209294E+02
  0
VERTEX
  8
0
 62
4
 10
3.58061450E+00
 20
2.54151840E+02
  0
VERTEX
  8
0
 62
4
 10
3.92589906E+00
 20
2.54106693E+02
  0
VERTEX
  8
0
 62
4
 10
4.27935816E+00
 20
2.54074198E+02
  0
VERTEX
  8
0
 62
4
 10
4.63830177E+00
 20
2.54054601E+02
  0
VERTEX
  8
0
 62
4
 10
4.99999810E+00
 20
2.54048052E+02
  0
VERTEX
  8
0
 62
4
 10
5.36169443E+00
 20
2.54054601E+02
  0
VERTEX
  8
0
 62
4
 10
5.72063804E+00
 20
2.54074198E+02
  0
VERTEX
  8
0
 62
4
 10
6.07409714E+00
 20
2.54106693E+02
  0
VERTEX
  8
0
 62
4
 10
6.41938169E+00
 20
2.54151840E+02
  0
VERTEX
  8
0
 62
4
 10
6.75386388E+00
 20
2.54209294E+02
  0
VERTEX
  8
0
 62
4
 10
7.07499810E+00
 20
2.54278619E+02
  0
VERTEX
  8
0
 62
4
 10
7.38034031E+00
 20
2.54359287E+02
  0
VERTEX
  8
0
 62
4
 10
7.66756668E+00
 20
2.54450684E+02
  0
VERTEX
  8
0
 62
4
 10
7.93449124E+00
 20
2.54552115E+02
  0
VERTEX
  8
0
 62
4
 10
8.17908254E+00
 20
2.54662806E+02
  0
VERTEX
  8
0
 62
4
 10
8.39947908E+00
 20
2.54781917E+02
  0
VERTEX
  8
0
 62
4
 10
8.59400352E+00
 20
2.54908541E+02
  0
VERTEX
  8
0
 62
4
 10
8.76117541E+00
 20
2.55041713E+02
  0
VERTEX
  8
0
 62
4
 10
8.89972247E+00
 20
2.55180420E+02
  0
VERTEX
  8
0
 62
4
 10
9.00859027E+00
 20
2.55323607E+02
  0
VERTEX
  8
0
 62
4
 10
9.08695027E+00
 20
2.55470184E+02
  0
VERTEX
  8
0
 62
4
 10
9.13420609E+00
 20
2.55619036E+02
  0
VERTEX
  8
0
 62
4
 10
9.14999809E+00
 20
2.55769029E+02
  0
SEQEND
  8
0
  0
ARC
  8
0
 62
4
 10
1.13695988E+01
 20
2.40984410E+02
 40
1.67245585E+01
 50
1.05971208E+02
 51
1.19114206E+02
  0
ARC
  8
0
 62
4
 10
-1.36960596E+00
 20
2.40984401E+02
 40
1.67245676E+01
 50
6.08857978E+01
 51
7.40287885E+01
  0
POLYLINE
  8
0
 62
4
 66
1
  0
VERTEX
  8
0
 62
4
 10
-6.30000191E+00
 20
2.52370285E+02
  0
VERTEX
  8
0
 62
4
 10
-6.28470423E+00
 20
2.52229028E+02
  0
VERTEX
  8
0
 62
4
 10
-6.23893435E+00
 20
2.52088909E+02
  0
VERTEX
  8
0
 62
4
 10
-6.16306078E+00
 20
2.51951055E+02
  0
VERTEX
  8
0
 62
4
 10
-6.05769442E+00
 20
2.51816576E+02
  0
VERTEX
  8
0
 62
4
 10
-5.92368361E+00
 20
2.51686556E+02
  0
VERTEX
  8
0
 62
4
 10
-5.76210733E+00
 20
2.51562041E+02
  0
VERTEX
  8
0
 62
4
 10
-5.57426650E+00
 20
2.51444033E+02
  0
VERTEX
  8
0
 62
4
 10
-5.36167349E+00
 20
2.51333483E+02
  0
VERTEX
  8
0
 62
4
 10
-5.12603999E+00
 20
2.51231280E+02
  0
VERTEX
  8
0
 62
4
 10
-4.86926317E+00
 20
2.51138248E+02
  0
VERTEX
  8
0
 62
4
 10
-4.59341045E+00
 20
2.51055136E+02
  0
VERTEX
  8
0
 62
4
 10
-4.30070284E+00
 20
2.50982612E+02
  0
VERTEX
  8
0
 62
4
 10
-3.99349705E+00
 20
2.50921262E+02
  0
VERTEX
  8
0
 62
4
 10
-3.67426651E+00
 20
2.50871578E+02
  0
VERTEX
  8
0
 62
4
 10
-3.34558148E+00
 20
2.50833960E+02
  0
VERTEX
  8
0
 62
4
 10
-3.01008834E+00
 20
2.50808712E+02
  0
VERTEX
  8
0
 62
4
 10
-2.67048829E+00
 20
2.50796037E+02
  0
VERTEX
  8
0
 62
4
 10
-2.32951558E+00
 20
2.50796037E+02
  0
VERTEX
  8
0
 62
4
 10
-1.98991552E+00
 20
2.50808712E+02
  0
VERTEX
  8
0
 62
4
 10
-1.65442238E+00
 20
2.50833960E+02
  0
VERTEX
  8
0
 62
4
 10
-1.32573735E+00
 20
2.50871577E+02
  0
VERTEX
  8
0
 62
4
 10
-1.00650681E+00
 20
2.50921262E+02
  0
VERTEX
  8
0
 62
4
 10
-6.99301013E-01
 20
2.50982612E+02
  0
VERTEX
  8
0
 62
4
 10
-4.06593400E-01
 20
2.51055136E+02
  0
VERTEX
  8
0
 62
4
 10
-1.30740681E-01
 20
2.51138248E+02
  0
VERTEX
  8
0
 62
4
 10
1.26036139E-01
 20
2.51231280E+02
  0
VERTEX
  8
0
 62
4
 10
3.61669645E-01
 20
2.51333483E+02
  0
VERTEX
  8
0
 62
4
 10
5.74262654E-01
 20
2.51444033E+02
  0
VERTEX
  8
0
 62
4
 10
7.62103493E-01
 20
2.51562041E+02
  0
VERTEX
  8
0
 62
4
 10
9.23679777E-01
 20
2.51686556E+02
  0
VERTEX
  8
0
 62
4
 10
1.05769059E+00
 20
2.51816576E+02
  0
VERTEX
  8
0
 62
4
 10
1.16305695E+00
 20
2.51951055E+02
  0
VERTEX
  8
0
 62
4
 10
1.23893052E+00
 20
2.52088909E+02
  0
VERTEX
  8
0
 62
4
 10
1.28470040E+00
 20
2.52229028E+02
  0
VERTEX
  8
0
 62
4
 10
1.29999809E+00
 20
2.52370285E+02
  0
SEQEND
  8
0
  0
POLYLINE
  8
0
 62
4
 66
1
  0
VERTEX
  8
0
 62
4
 10
-5.90000192E+00
 20
2.53984005E+02
  0
VERTEX
  8
0
 62
4
 10
-6.03658358E+00
 20
2.53856744E+02
  0
VERTEX
  8
0
 62
4
 10
-6.14553145E+00
 20
2.53724978E+02
  0
VERTEX
  8
0
 62
4
 10
-6.22599423E+00
 20
2.53589737E+02
  0
VERTEX
  8
0
 62
4
 10
-6.27734321E+00
 20
2.53452079E+02
  0
VERTEX
  8
0
 62
4
 10
-6.29917716E+00
 20
2.53313077E+02
  0
VERTEX
  8
0
 62
4
 10
-6.29132549E+00
 20
2.53173819E+02
  0
VERTEX
  8
0
 62
4
 10
-6.25384954E+00
 20
2.53035393E+02
  0
VERTEX
  8
0
 62
4
 10
-6.18704213E+00
 20
2.52898879E+02
  0
VERTEX
  8
0
 62
4
 10
-6.09142529E+00
 20
2.52765346E+02
  0
VERTEX
  8
0
 62
4
 10
-5.96774613E+00
 20
2.52635836E+02
  0
VERTEX
  8
0
 62
4
 10
-5.81697105E+00
 20
2.52511361E+02
  0
VERTEX
  8
0
 62
4
 10
-5.64027815E+00
 20
2.52392894E+02
  0
VERTEX
  8
0
 62
4
 10
-5.43904807E+00
 20
2.52281361E+02
  0
VERTEX
  8
0
 62
4
 10
-5.21485315E+00
 20
2.52177632E+02
  0
VERTEX
  8
0
 62
4
 10
-4.96944519E+00
 20
2.52082519E+02
  0
VERTEX
  8
0
 62
4
 10
-4.70474173E+00
 20
2.51996765E+02
  0
VERTEX
  8
0
 62
4
 10
-4.42281109E+00
 20
2.51921039E+02
  0
VERTEX
  8
0
 62
4
 10
-4.12585619E+00
 20
2.51855934E+02
  0
VERTEX
  8
0
 62
4
 10
-3.81619735E+00
 20
2.51801958E+02
  0
VERTEX
  8
0
 62
4
 10
-3.49625414E+00
 20
2.51759533E+02
  0
VERTEX
  8
0
 62
4
 10
-3.16852652E+00
 20
2.51728991E+02
  0
VERTEX
  8
0
 62
4
 10
-2.83557524E+00
 20
2.51710569E+02
  0
VERTEX
  8
0
 62
4
 10
-2.50000189E+00
 20
2.51704413E+02
  0
VERTEX
  8
0
 62
4
 10
-2.16442854E+00
 20
2.51710569E+02
  0
VERTEX
  8
0
 62
4
 10
-1.83147727E+00
 20
2.51728991E+02
  0
VERTEX
  8
0
 62
4
 10
-1.50374964E+00
 20
2.51759533E+02
  0
VERTEX
  8
0
 62
4
 10
-1.18380644E+00
 20
2.51801958E+02
  0
VERTEX
  8
0
 62
4
 10
-8.74147596E-01
 20
2.51855934E+02
  0
VERTEX
  8
0
 62
4
 10
-5.77192696E-01
 20
2.51921039E+02
  0
VERTEX
  8
0
 62
4
 10
-2.95262057E-01
 20
2.51996765E+02
  0
VERTEX
  8
0
 62
4
 10
-3.05586009E-02
 20
2.52082519E+02
  0
VERTEX
  8
0
 62
4
 10
2.14849357E-01
 20
2.52177632E+02
  0
VERTEX
  8
0
 62
4
 10
4.39044273E-01
 20
2.52281361E+02
  0
VERTEX
  8
0
 62
4
 10
6.40274354E-01
 20
2.52392894E+02
  0
VERTEX
  8
0
 62
4
 10
8.16967248E-01
 20
2.52511361E+02
  0
VERTEX
  8
0
 62
4
 10
9.67742328E-01
 20
2.52635836E+02
  0
VERTEX
  8
0
 62
4
 10
1.09142148E+00
 20
2.52765346E+02
  0
VERTEX
  8
0
 62
4
 10
1.18703832E+00
 20
2.52898879E+02
  0
VERTEX
  8
0
 62
4
 10
1.25384572E+00
 20
2.53035393E+02
  0
VERTEX
  8
0
 62
4
 10
1.29132167E+00
 20
2.53173819E+02
  0
VERTEX
  8
0
 62
4
 10
1.29917334E+00
 20
2.53313077E+02
  0
VERTEX
  8
0
 62
4
 10
1.27733938E+00
 20
2.53452079E+02
  0
VERTEX
  8
0
 62
4
 10
1.22599040E+00
 20
2.53589737E+02
  0
VERTEX
  8
0
 62
4
 10
1.14552762E+00
 20
2.53724978E+02
  0
VERTEX
  8
0
 62
4
 10
1.03657975E+00
 20
2.53856744E+02
  0
VERTEX
  8
0
 62
4
 10
8.99998082E-01
 20
2.53984005E+02
  0
SEQEND
  8
0
  0
POLYLINE
  8
0
 62
4
 66
1
  0
VERTEX
  8
0
 62
4
 10
-5.90000191E+00
 20
2.53280247E+02
  0
VERTEX
  8
0
 62
4
 10
-5.88631451E+00
 20
2.53153859E+02
  0
VERTEX
  8
0
 62
4
 10
-5.84536251E+00
 20
2.53028489E+02
  0
VERTEX
  8
0
 62
4
 10
-5.77747564E+00
 20
2.52905146E+02
  0
VERTEX
  8
0
 62
4
 10
-5.68320047E+00
 20
2.52784824E+02
  0
VERTEX
  8
0
 62
4
 10
-5.56329607E+00
 20
2.52668490E+02
  0
VERTEX
  8
0
 62
4
 10
-5.41872782E+00
 20
2.52557081E+02
  0
VERTEX
  8
0
 62
4
 10
-5.25065970E+00
 20
2.52451495E+02
  0
VERTEX
  8
0
 62
4
 10
-5.06044490E+00
 20
2.52352582E+02
  0
VERTEX
  8
0
 62
4
 10
-4.84961493E+00
 20
2.52261137E+02
  0
VERTEX
  8
0
 62
4
 10
-4.61986725E+00
 20
2.52177898E+02
  0
VERTEX
  8
0
 62
4
 10
-4.37305166E+00
 20
2.52103535E+02
  0
VERTEX
  8
0
 62
4
 10
-4.11115538E+00
 20
2.52038645E+02
  0
VERTEX
  8
0
 62
4
 10
-3.83628703E+00
 20
2.51983752E+02
  0
VERTEX
  8
0
 62
4
 10
-3.55065971E+00
 20
2.51939298E+02
  0
VERTEX
  8
0
 62
4
 10
-3.25657310E+00
 20
2.51905641E+02
  0
VERTEX
  8
0
 62
4
 10
-2.95639503E+00
 20
2.51883050E+02
  0
VERTEX
  8
0
 62
4
 10
-2.65254235E+00
 20
2.51871710E+02
  0
VERTEX
  8
0
 62
4
 10
-2.34746151E+00
 20
2.51871710E+02
  0
VERTEX
  8
0
 62
4
 10
-2.04360882E+00
 20
2.51883050E+02
  0
VERTEX
  8
0
 62
4
 10
-1.74343075E+00
 20
2.51905641E+02
  0
VERTEX
  8
0
 62
4
 10
-1.44934415E+00
 20
2.51939298E+02
  0
VERTEX
  8
0
 62
4
 10
-1.16371682E+00
 20
2.51983752E+02
  0
VERTEX
  8
0
 62
4
 10
-8.88848475E-01
 20
2.52038645E+02
  0
VERTEX
  8
0
 62
4
 10
-6.26952190E-01
 20
2.52103535E+02
  0
VERTEX
  8
0
 62
4
 10
-3.80136600E-01
 20
2.52177898E+02
  0
VERTEX
  8
0
 62
4
 10
-1.50388919E-01
 20
2.52261137E+02
  0
VERTEX
  8
0
 62
4
 10
6.04410602E-02
 20
2.52352582E+02
  0
VERTEX
  8
0
 62
4
 10
2.50655858E-01
 20
2.52451495E+02
  0
VERTEX
  8
0
 62
4
 10
4.18723977E-01
 20
2.52557081E+02
  0
VERTEX
  8
0
 62
4
 10
5.63292231E-01
 20
2.52668490E+02
  0
VERTEX
  8
0
 62
4
 10
6.83196642E-01
 20
2.52784824E+02
  0
VERTEX
  8
0
 62
4
 10
7.77471810E-01
 20
2.52905146E+02
  0
VERTEX
  8
0
 62
4
 10
8.45358687E-01
 20
2.53028489E+02
  0
VERTEX
  8
0
 62
4
 10
8.86310687E-01
 20
2.53153859E+02
  0
VERTEX
  8
0
 62
4
 10
8.99998090E-01
 20
2.53280247E+02
  0
SEQEND
  8
0
  0
POLYLINE
  8
0
 62
4
 66
1
  0
VERTEX
  8
0
 62
4
 10
8.99998090E-01
 20
2.54309233E+02
  0
VERTEX
  8
0
 62
4
 10
8.87060064E-01
 20
2.54432119E+02
  0
VERTEX
  8
0
 62
4
 10
8.48344450E-01
 20
2.54554069E+02
  0
VERTEX
  8
0
 62
4
 10
7.84145899E-01
 20
2.54674157E+02
  0
VERTEX
  8
0
 62
4
 10
6.94953000E-01
 20
2.54791467E+02
  0
VERTEX
  8
0
 62
4
 10
5.81444566E-01
 20
2.54905107E+02
  0
VERTEX
  8
0
 62
4
 10
4.44484462E-01
 20
2.55014212E+02
  0
VERTEX
  8
0
 62
4
 10
2.85115040E-01
 20
2.55117951E+02
  0
VERTEX
  8
0
 62
4
 10
1.04549196E-01
 20
2.55215536E+02
  0
VERTEX
  8
0
 62
4
 10
-9.58388548E-02
 20
2.55306223E+02
  0
VERTEX
  8
0
 62
4
 10
-3.14524038E-01
 20
2.55389323E+02
  0
VERTEX
  8
0
 62
4
 10
-5.49842028E-01
 20
2.55464202E+02
  0
VERTEX
  8
0
 62
4
 10
-8.00001911E-01
 20
2.55530292E+02
  0
VERTEX
  8
0
 62
4
 10
-1.06309982E+00
 20
2.55587088E+02
  0
VERTEX
  8
0
 62
4
 10
-1.33713342E+00
 20
2.55634159E+02
  0
VERTEX
  8
0
 62
4
 10
-1.62001716E+00
 20
2.55671147E+02
  0
VERTEX
  8
0
 62
4
 10
-1.90959811E+00
 20
2.55697770E+02
  0
VERTEX
  8
0
 62
4
 10
-2.20367239E+00
 20
2.55713825E+02
  0
VERTEX
  8
0
 62
4
 10
-2.50000191E+00
 20
2.55719190E+02
  0
VERTEX
  8
0
 62
4
 10
-2.79633144E+00
 20
2.55713825E+02
  0
VERTEX
  8
0
 62
4
 10
-3.09040572E+00
 20
2.55697770E+02
  0
VERTEX
  8
0
 62
4
 10
-3.37998667E+00
 20
2.55671147E+02
  0
VERTEX
  8
0
 62
4
 10
-3.66287040E+00
 20
2.55634159E+02
  0
VERTEX
  8
0
 62
4
 10
-3.93690400E+00
 20
2.55587088E+02
  0
VERTEX
  8
0
 62
4
 10
-4.20000191E+00
 20
2.55530292E+02
  0
VERTEX
  8
0
 62
4
 10
-4.45016180E+00
 20
2.55464202E+02
  0
VERTEX
  8
0
 62
4
 10
-4.68547979E+00
 20
2.55389323E+02
  0
VERTEX
  8
0
 62
4
 10
-4.90416497E+00
 20
2.55306223E+02
  0
VERTEX
  8
0
 62
4
 10
-5.10455302E+00
 20
2.55215536E+02
  0
VERTEX
  8
0
 62
4
 10
-5.28511886E+00
 20
2.55117951E+02
  0
VERTEX
  8
0
 62
4
 10
-5.44448828E+00
 20
2.55014212E+02
  0
VERTEX
  8
0
 62
4
 10
-5.58144839E+00
 20
2.54905107E+02
  0
VERTEX
  8
0
 62
4
 10
-5.69495682E+00
 20
2.54791467E+02
  0
VERTEX
  8
0
 62
4
 10
-5.78414972E+00
 20
2.54674157E+02
  0
VERTEX
  8
0
 62
4
 10
-5.84834827E+00
 20
2.54554069E+02
  0
VERTEX
  8
0
 62
4
 10
-5.88706388E+00
 20
2.54432119E+02
  0
VERTEX
  8
0
 62
4
 10
-5.90000191E+00
 20
2.54309233E+02
  0
VERTEX
  8
0
 62
4
 10
-5.88706388E+00
 20
2.54186347E+02
  0
VERTEX
  8
0
 62
4
 10
-5.84834827E+00
 20
2.54064397E+02
  0
VERTEX
  8
0
 62
4
 10
-5.78414972E+00
 20
2.53944309E+02
  0
VERTEX
  8
0
 62
4
 10
-5.69495682E+00
 20
2.53826999E+02
  0
VERTEX
  8
0
 62
4
 10
-5.58144838E+00
 20
2.53713359E+02
  0
VERTEX
  8
0
 62
4
 10
-5.44448828E+00
 20
2.53604254E+02
  0
VERTEX
  8
0
 62
4
 10
-5.28511886E+00
 20
2.53500515E+02
  0
VERTEX
  8
0
 62
4
 10
-5.10455301E+00
 20
2.53402930E+02
  0
VERTEX
  8
0
 62
4
 10
-4.90416496E+00
 20
2.53312243E+02
  0
VERTEX
  8
0
 62
4
 10
-4.68547978E+00
 20
2.53229143E+02
  0
VERTEX
  8
0
 62
4
 10
-4.45016179E+00
 20
2.53154264E+02
  0
VERTEX
  8
0
 62
4
 10
-4.20000190E+00
 20
2.53088174E+02
  0
VERTEX
  8
0
 62
4
 10
-3.93690399E+00
 20
2.53031378E+02
  0
VERTEX
  8
0
 62
4
 10
-3.66287039E+00
 20
2.52984307E+02
  0
VERTEX
  8
0
 62
4
 10
-3.37998666E+00
 20
2.52947319E+02
  0
VERTEX
  8
0
 62
4
 10
-3.09040571E+00
 20
2.52920696E+02
  0
VERTEX
  8
0
 62
4
 10
-2.79633143E+00
 20
2.52904641E+02
  0
VERTEX
  8
0
 62
4
 10
-2.50000190E+00
 20
2.52899276E+02
  0
VERTEX
  8
0
 62
4
 10
-2.20367238E+00
 20
2.52904641E+02
  0
VERTEX
  8
0
 62
4
 10
-1.90959810E+00
 20
2.52920696E+02
  0
VERTEX
  8
0
 62
4
 10
-1.62001715E+00
 20
2.52947319E+02
  0
VERTEX
  8
0
 62
4
 10
-1.33713342E+00
 20
2.52984307E+02
  0
VERTEX
  8
0
 62
4
 10
-1.06309981E+00
 20
2.53031378E+02
  0
VERTEX
  8
0
 62
4
 10
-8.00001903E-01
 20
2.53088174E+02
  0
VERTEX
  8
0
 62
4
 10
-5.49842020E-01
 20
2.53154264E+02
  0
VERTEX
  8
0
 62
4
 10
-3.14524031E-01
 20
2.53229143E+02
  0
VERTEX
  8
0
 62
4
 10
-9.58388480E-02
 20
2.53312243E+02
  0
VERTEX
  8
0
 62
4
 10
1.04549202E-01
 20
2.53402930E+02
  0
VERTEX
  8
0
 62
4
 10
2.85115046E-01
 20
2.53500515E+02
  0
VERTEX
  8
0
 62
4
 10
4.44484467E-01
 20
2.53604254E+02
  0
VERTEX
  8
0
 62
4
 10
5.81444570E-01
 20
2.53713359E+02
  0
VERTEX
  8
0
 62
4
 10
6.94953004E-01
 20
2.53826999E+02
  0
VERTEX
  8
0
 62
4
 10
7.84145902E-01
 20
2.53944309E+02
  0
VERTEX
  8
0
 62
4
 10
8.48344452E-01
 20
2.54064397E+02
  0
VERTEX
  8
0
 62
4
 10
8.87060064E-01
 20
2.54186347E+02
  0
VERTEX
  8
0
 62
4
 10
8.99998090E-01
 20
2.54309233E+02
  0
SEQEND
  8
0
  0
ARC
  8
0
 62
4
 10
3.74705630E+00
 20
2.40279330E+02
 40
1.64201370E+01
 50
1.10122188E+02
 51
1.19216401E+02
  0
ARC
  8
0
 62
4
 10
-8.74706072E+00
 20
2.40279328E+02
 40
1.64201386E+01
 50
6.07835994E+01
 51
6.98778124E+01
  0
LINE
  8
0
  6
CENTER
 62
6
 10
1.49999981E+01
 20
2.52370285E+02
 11
9.99999809E+00
 21
2.52370285E+02
  0
LINE
  8
0
 62
4
 10
-5.67189262E+00
 20
2.54816976E+02
 11
-1.00000019E+01
 21
2.54816976E+02
  0
LINE
  8
0
 62
4
 10
8.49998093E-01
 20
2.54816976E+02
 11
6.71888803E-01
 21
2.54816976E+02
  0
LINE
  8
0
 62
4
 10
8.49998093E-01
 20
2.55206314E+02
 11
1.23047414E-01
 21
2.55206314E+02
  0
LINE
  8
0
 62
4
 10
1.80050728E+00
 20
2.56865087E+02
 11
-5.00000191E+00
 21
2.56865087E+02
  0
LINE
  8
0
 62
4
 10
2.48906770E+00
 20
2.57139258E+02
 11
-1.00000019E+01
 21
2.57139258E+02
  0
LINE
  8
0
  6
CENTER
 62
6
 10
4.99999809E+00
 20
2.51321712E+02
 11
4.99999809E+00
 21
2.56321712E+02
  0
LINE
  8
0
  6
CENTER
 62
6
 10
7.49999809E+00
 20
2.53821712E+02
 11
2.49999809E+00
 21
2.53821712E+02
  0
LINE
  8
0
  6
CENTER
 62
6
 10
-2.50000191E+00
 20
2.49870285E+02
 11
-2.50000191E+00
 21
2.54870285E+02
  0
LINE
  8
0
  6
CENTER
 62
6
 10
-1.90734862E-06
 20
2.52370285E+02
 11
-5.00000191E+00
 21
2.52370285E+02
  0
LINE
  8
0
 62
4
 10
-5.00000189E+00
 20
2.55715778E+02
 11
-1.00000019E+01
 21
2.55715778E+02
  0
LINE
  8
0
 62
6
 10
-5.19999981E+01
 20
3.34036669E+02
 11
-5.19999981E+01
 21
3.32982087E+02
  0
LINE
  8
0
 62
6
 10
-4.89999981E+01
 20
3.34036669E+02
 11
-4.89999981E+01
 21
3.32982087E+02
  0
LINE
  8
0
 62
4
 10
-5.24999981E+01
 20
3.33488082E+02
 11
-5.24999981E+01
 21
3.32982087E+02
  0
LINE
  8
0
 62
4
 10
-4.84999981E+01
 20
3.33488082E+02
 11
-4.84999981E+01
 21
3.32982087E+02
  0
LINE
  8
0
 62
4
 10
-5.39999981E+01
 20
3.32982087E+02
 11
-5.39999981E+01
 21
3.19868450E+02
  0
LINE
  8
0
 62
4
 10
-3.89999981E+01
 20
3.32982087E+02
 11
-3.89999981E+01
 21
3.03860757E+02
  0
LINE
  8
0
 62
4
 10
-6.89999981E+01
 20
3.19868450E+02
 11
-6.89999981E+01
 21
3.06183040E+02
  0
LINE
  8
0
  6
CENTER
 62
6
 10
-4.24999981E+01
 20
3.37765609E+02
 11
-4.24999981E+01
 21
3.27500031E+02
  0
LINE
  8
0
  6
CENTER
 62
6
 10
-5.04999981E+01
 20
3.37765609E+02
 11
-5.04999981E+01
 21
3.27500031E+02
  0
LINE
  8
0
  6
CENTER
 62
6
 10
-6.14999981E+01
 20
3.11129730E+02
 11
-6.14999981E+01
 21
3.06129730E+02
  0
LINE
  8
0
 62
4
 10
-4.39999981E+01
 20
3.05735186E+02
 11
-4.39999981E+01
 21
3.04134928E+02
  0
LINE
  8
0
 62
4
 10
-6.89999981E+01
 20
3.13000031E+02
 11
-6.89999981E+01
 21
3.13400031E+02
  0
LINE
  8
0
 62
4
 10
-4.54999981E+01
 20
3.05343189E+02
 11
-4.54999981E+01
 21
3.04134928E+02
  0
LINE
  8
0
 62
4
 10
-7.04999981E+01
 20
3.08285646E+02
 11
-7.04999981E+01
 21
3.05285304E+02
  0
POLYLINE
  8
0
 62
4
 66
1
  0
VERTEX
  8
0
 62
4
 10
-4.84999980E+01
 20
3.33488082E+02
  0
VERTEX
  8
0
 62
4
 10
-4.85080495E+01
 20
3.33562428E+02
  0
VERTEX
  8
0
 62
4
 10
-4.85321389E+01
 20
3.33636175E+02
  0
VERTEX
  8
0
 62
4
 10
-4.85720723E+01
 20
3.33708729E+02
  0
VERTEX
  8
0
 62
4
 10
-4.86275283E+01
 20
3.33779508E+02
  0
VERTEX
  8
0
 62
4
 10
-4.86980603E+01
 20
3.33847939E+02
  0
VERTEX
  8
0
 62
4
 10
-4.87831005E+01
 20
3.33913474E+02
  0
VERTEX
  8
0
 62
4
 10
-4.88819641E+01
 20
3.33975583E+02
  0
VERTEX
  8
0
 62
4
 10
-4.89938551E+01
 20
3.34033767E+02
  0
VERTEX
  8
0
 62
4
 10
-4.91178728E+01
 20
3.34087558E+02
  0
VERTEX
  8
0
 62
4
 10
-4.92530185E+01
 20
3.34136522E+02
  0
VERTEX
  8
0
 62
4
 10
-4.93982041E+01
 20
3.34180266E+02
  0
VERTEX
  8
0
 62
4
 10
-4.95522607E+01
 20
3.34218436E+02
  0
VERTEX
  8
0
 62
4
 10
-4.97139480E+01
 20
3.34250726E+02
  0
VERTEX
  8
0
 62
4
 10
-4.98819641E+01
 20
3.34276875E+02
  0
VERTEX
  8
0
 62
4
 10
-5.00549562E+01
 20
3.34296674E+02
  0
VERTEX
  8
0
 62
4
 10
-5.02315316E+01
 20
3.34309962E+02
  0
VERTEX
  8
0
 62
4
 10
-5.04102684E+01
 20
3.34316633E+02
  0
VERTEX
  8
0
 62
4
 10
-5.05897278E+01
 20
3.34316633E+02
  0
VERTEX
  8
0
 62
4
 10
-5.07684646E+01
 20
3.34309962E+02
  0
VERTEX
  8
0
 62
4
 10
-5.09450400E+01
 20
3.34296674E+02
  0
VERTEX
  8
0
 62
4
 10
-5.11180321E+01
 20
3.34276875E+02
  0
VERTEX
  8
0
 62
4
 10
-5.12860482E+01
 20
3.34250726E+02
  0
VERTEX
  8
0
 62
4
 10
-5.14477355E+01
 20
3.34218436E+02
  0
VERTEX
  8
0
 62
4
 10
-5.16017921E+01
 20
3.34180266E+02
  0
VERTEX
  8
0
 62
4
 10
-5.17469777E+01
 20
3.34136522E+02
  0
VERTEX
  8
0
 62
4
 10
-5.18821234E+01
 20
3.34087558E+02
  0
VERTEX
  8
0
 62
4
 10
-5.20061411E+01
 20
3.34033767E+02
  0
VERTEX
  8
0
 62
4
 10
-5.21180321E+01
 20
3.33975583E+02
  0
VERTEX
  8
0
 62
4
 10
-5.22168957E+01
 20
3.33913474E+02
  0
VERTEX
  8
0
 62
4
 10
-5.23019359E+01
 20
3.33847939E+02
  0
VERTEX
  8
0
 62
4
 10
-5.23724679E+01
 20
3.33779508E+02
  0
VERTEX
  8
0
 62
4
 10
-5.24279239E+01
 20
3.33708729E+02
  0
VERTEX
  8
0
 62
4
 10
-5.24678573E+01
 20
3.33636175E+02
  0
VERTEX
  8
0
 62
4
 10
-5.24919467E+01
 20
3.33562428E+02
  0
VERTEX
  8
0
 62
4
 10
-5.24999982E+01
 20
3.33488082E+02
  0
SEQEND
  8
0
  0
LINE
  8
0
 62
6
 10
-4.09999981E+01
 20
3.34036669E+02
 11
-4.09999981E+01
 21
3.32982087E+02
  0
LINE
  8
0
 62
4
 10
-4.04999981E+01
 20
3.33488082E+02
 11
-4.04999981E+01
 21
3.32982087E+02
  0
POLYLINE
  8
0
 62
4
 66
1
  0
VERTEX
  8
0
 62
4
 10
-4.04999980E+01
 20
3.33488082E+02
  0
VERTEX
  8
0
 62
4
 10
-4.05080495E+01
 20
3.33562428E+02
  0
VERTEX
  8
0
 62
4
 10
-4.05321389E+01
 20
3.33636175E+02
  0
VERTEX
  8
0
 62
4
 10
-4.05720723E+01
 20
3.33708729E+02
  0
VERTEX
  8
0
 62
4
 10
-4.06275283E+01
 20
3.33779508E+02
  0
VERTEX
  8
0
 62
4
 10
-4.06980603E+01
 20
3.33847939E+02
  0
VERTEX
  8
0
 62
4
 10
-4.07831005E+01
 20
3.33913474E+02
  0
VERTEX
  8
0
 62
4
 10
-4.08819641E+01
 20
3.33975583E+02
  0
VERTEX
  8
0
 62
4
 10
-4.09938551E+01
 20
3.34033767E+02
  0
VERTEX
  8
0
 62
4
 10
-4.11178728E+01
 20
3.34087558E+02
  0
VERTEX
  8
0
 62
4
 10
-4.12530185E+01
 20
3.34136522E+02
  0
VERTEX
  8
0
 62
4
 10
-4.13982041E+01
 20
3.34180266E+02
  0
VERTEX
  8
0
 62
4
 10
-4.15522607E+01
 20
3.34218436E+02
  0
VERTEX
  8
0
 62
4
 10
-4.17139480E+01
 20
3.34250726E+02
  0
VERTEX
  8
0
 62
4
 10
-4.18819641E+01
 20
3.34276875E+02
  0
VERTEX
  8
0
 62
4
 10
-4.20549562E+01
 20
3.34296674E+02
  0
VERTEX
  8
0
 62
4
 10
-4.22315316E+01
 20
3.34309962E+02
  0
VERTEX
  8
0
 62
4
 10
-4.24102684E+01
 20
3.34316633E+02
  0
VERTEX
  8
0
 62
4
 10
-4.25897278E+01
 20
3.34316633E+02
  0
VERTEX
  8
0
 62
4
 10
-4.27684646E+01
 20
3.34309962E+02
  0
VERTEX
  8
0
 62
4
 10
-4.29450400E+01
 20
3.34296674E+02
  0
VERTEX
  8
0
 62
4
 10
-4.31180321E+01
 20
3.34276875E+02
  0
VERTEX
  8
0
 62
4
 10
-4.32860482E+01
 20
3.34250726E+02
  0
VERTEX
  8
0
 62
4
 10
-4.34477355E+01
 20
3.34218436E+02
  0
VERTEX
  8
0
 62
4
 10
-4.36017921E+01
 20
3.34180266E+02
  0
VERTEX
  8
0
 62
4
 10
-4.37469777E+01
 20
3.34136522E+02
  0
VERTEX
  8
0
 62
4
 10
-4.38821234E+01
 20
3.34087558E+02
  0
VERTEX
  8
0
 62
4
 10
-4.40061411E+01
 20
3.34033767E+02
  0
VERTEX
  8
0
 62
4
 10
-4.41180321E+01
 20
3.33975583E+02
  0
VERTEX
  8
0
 62
4
 10
-4.42168957E+01
 20
3.33913474E+02
  0
VERTEX
  8
0
 62
4
 10
-4.43019359E+01
 20
3.33847939E+02
  0
VERTEX
  8
0
 62
4
 10
-4.43724679E+01
 20
3.33779508E+02
  0
VERTEX
  8
0
 62
4
 10
-4.44279239E+01
 20
3.33708729E+02
  0
VERTEX
  8
0
 62
4
 10
-4.44678573E+01
 20
3.33636175E+02
  0
VERTEX
  8
0
 62
4
 10
-4.44919467E+01
 20
3.33562428E+02
  0
VERTEX
  8
0
 62
4
 10
-4.44999982E+01
 20
3.33488082E+02
  0
SEQEND
  8
0
  0
LINE
  8
0
 62
6
 10
-4.39999981E+01
 20
3.34036669E+02
 11
-4.39999981E+01
 21
3.32982087E+02
  0
LINE
  8
0
 62
4
 10
-4.44999981E+01
 20
3.33488082E+02
 11
-4.44999981E+01
 21
3.32982087E+02
  0
LINE
  8
0
 62
4
 10
-5.39999981E+01
 20
3.32982087E+02
 11
-3.89999981E+01
 21
3.32982087E+02
  0
LINE
  8
0
 62
4
 10
-5.39999981E+01
 20
3.26238179E+02
 11
-3.89999981E+01
 21
3.26238179E+02
  0
LINE
  8
0
 62
4
 10
-6.89999981E+01
 20
3.19868450E+02
 11
-3.89999981E+01
 21
3.19868450E+02
  0
LINE
  8
0
 62
4
 10
-6.89999981E+01
 20
3.10495849E+02
 11
-3.89999981E+01
 21
3.10495849E+02
  0
LINE
  8
0
 62
4
 10
-6.89999981E+01
 20
3.03860757E+02
 11
-5.65109285E+01
 21
3.03860757E+02
  0
LINE
  8
0
 62
4
 10
-6.89999981E+01
 20
3.09433546E+02
 11
-7.04999981E+01
 21
3.08285646E+02
  0
LINE
  8
0
 62
4
 10
-6.89999981E+01
 20
3.05793701E+02
 11
-5.81499981E+01
 21
3.05793701E+02
  0
LINE
  8
0
 62
4
 10
-7.04999981E+01
 20
3.06224584E+02
 11
-6.89999981E+01
 21
3.05793701E+02
  0
LINE
  8
0
 62
4
 10
-6.89999981E+01
 20
3.04134928E+02
 11
-5.71994889E+01
 21
3.04134928E+02
  0
LINE
  8
0
 62
4
 10
-7.04999981E+01
 20
3.05285304E+02
 11
-6.89999981E+01
 21
3.04134928E+02
  0
LINE
  8
0
 62
4
 10
-6.89999981E+01
 20
3.06183040E+02
 11
-5.81499981E+01
 21
3.06183040E+02
  0
LINE
  8
0
 62
4
 10
-6.89999981E+01
 20
3.06183040E+02
 11
-6.89999981E+01
 21
3.04134928E+02
  0
LINE
  8
0
 62
4
 10
-6.89999981E+01
 20
3.04134928E+02
 11
-6.89999981E+01
 21
3.03860757E+02
  0
LINE
  8
0
 62
4
 10
-5.02999981E+01
 20
3.08629730E+02
 11
-5.02999981E+01
 21
3.07719769E+02
  0
LINE
  8
0
 62
4
 10
-4.26999981E+01
 20
3.07719769E+02
 11
-4.26999981E+01
 21
3.08629730E+02
  0
LINE
  8
0
 62
4
 10
-4.98999981E+01
 20
3.07719769E+02
 11
-4.98999981E+01
 21
3.06690782E+02
  0
LINE
  8
0
 62
4
 10
-4.30999981E+01
 20
3.07719769E+02
 11
-4.30999981E+01
 21
3.06690782E+02
  0
LINE
  8
0
 62
4
 10
-4.98499981E+01
 20
3.06449867E+02
 11
-4.98499981E+01
 21
3.05230986E+02
  0
LINE
  8
0
 62
4
 10
-5.81499981E+01
 20
3.05230986E+02
 11
-5.81499981E+01
 21
3.06832518E+02
  0
POLYLINE
  8
0
 62
4
 66
1
  0
VERTEX
  8
0
 62
4
 10
-5.02999981E+01
 20
3.07808582E+02
  0
VERTEX
  8
0
 62
4
 10
-5.04498988E+01
 20
3.07942599E+02
  0
VERTEX
  8
0
 62
4
 10
-5.06279583E+01
 20
3.08070554E+02
  0
VERTEX
  8
0
 62
4
 10
-5.08327644E+01
 20
3.08191431E+02
  0
VERTEX
  8
0
 62
4
 10
-5.10626926E+01
 20
3.08304272E+02
  0
VERTEX
  8
0
 62
4
 10
-5.13159191E+01
 20
3.08408183E+02
  0
VERTEX
  8
0
 62
4
 10
-5.15904353E+01
 20
3.08502338E+02
  0
VERTEX
  8
0
 62
4
 10
-5.18840638E+01
 20
3.08585991E+02
  0
VERTEX
  8
0
 62
4
 10
-5.21944757E+01
 20
3.08658478E+02
  0
VERTEX
  8
0
 62
4
 10
-5.25192086E+01
 20
3.08719225E+02
  0
VERTEX
  8
0
 62
4
 10
-5.28556870E+01
 20
3.08767750E+02
  0
VERTEX
  8
0
 62
4
 10
-5.32012419E+01
 20
3.08803667E+02
  0
VERTEX
  8
0
 62
4
 10
-5.35531325E+01
 20
3.08826692E+02
  0
VERTEX
  8
0
 62
4
 10
-5.39085675E+01
 20
3.08836643E+02
  0
VERTEX
  8
0
 62
4
 10
-5.42647277E+01
 20
3.08833439E+02
  0
VERTEX
  8
0
 62
4
 10
-5.46187882E+01
 20
3.08817107E+02
  0
VERTEX
  8
0
 62
4
 10
-5.49679404E+01
 20
3.08787777E+02
  0
VERTEX
  8
0
 62
4
 10
-5.53094151E+01
 20
3.08745680E+02
  0
VERTEX
  8
0
 62
4
 10
-5.56405037E+01
 20
3.08691152E+02
  0
VERTEX
  8
0
 62
4
 10
-5.59585800E+01
 20
3.08624623E+02
  0
VERTEX
  8
0
 62
4
 10
-5.62611211E+01
 20
3.08546622E+02
  0
VERTEX
  8
0
 62
4
 10
-5.65457273E+01
 20
3.08457769E+02
  0
VERTEX
  8
0
 62
4
 10
-5.68101411E+01
 20
3.08358766E+02
  0
VERTEX
  8
0
 62
4
 10
-5.70522653E+01
 20
3.08250401E+02
  0
VERTEX
  8
0
 62
4
 10
-5.72701793E+01
 20
3.08133531E+02
  0
VERTEX
  8
0
 62
4
 10
-5.74621547E+01
 20
3.08009085E+02
  0
VERTEX
  8
0
 62
4
 10
-5.76266687E+01
 20
3.07878049E+02
  0
VERTEX
  8
0
 62
4
 10
-5.77624165E+01
 20
3.07741463E+02
  0
VERTEX
  8
0
 62
4
 10
-5.78683213E+01
 20
3.07600410E+02
  0
VERTEX
  8
0
 62
4
 10
-5.79435431E+01
 20
3.07456009E+02
  0
VERTEX
  8
0
 62
4
 10
-5.79874853E+01
 20
3.07309405E+02
  0
SEQEND
  8
0
  0
POLYLINE
  8
0
 62
4
 66
1
  0
VERTEX
  8
0
 62
4
 10
-5.02896236E+01
 20
3.07603404E+02
  0
VERTEX
  8
0
 62
4
 10
-5.04700544E+01
 20
3.07737462E+02
  0
VERTEX
  8
0
 62
4
 10
-5.06785770E+01
 20
3.07864318E+02
  0
VERTEX
  8
0
 62
4
 10
-5.09135319E+01
 20
3.07982963E+02
  0
VERTEX
  8
0
 62
4
 10
-5.11730492E+01
 20
3.08092453E+02
  0
VERTEX
  8
0
 62
4
 10
-5.14550638E+01
 20
3.08191916E+02
  0
VERTEX
  8
0
 62
4
 10
-5.17573313E+01
 20
3.08280560E+02
  0
VERTEX
  8
0
 62
4
 10
-5.20774462E+01
 20
3.08357681E+02
  0
VERTEX
  8
0
 62
4
 10
-5.24128611E+01
 20
3.08422665E+02
  0
VERTEX
  8
0
 62
4
 10
-5.27609065E+01
 20
3.08474994E+02
  0
VERTEX
  8
0
 62
4
 10
-5.31188129E+01
 20
3.08514252E+02
  0
VERTEX
  8
0
 62
4
 10
-5.34837318E+01
 20
3.08540126E+02
  0
VERTEX
  8
0
 62
4
 10
-5.38527592E+01
 20
3.08552411E+02
  0
VERTEX
  8
0
 62
4
 10
-5.42229584E+01
 20
3.08551009E+02
  0
VERTEX
  8
0
 62
4
 10
-5.45913832E+01
 20
3.08535931E+02
  0
VERTEX
  8
0
 62
4
 10
-5.49551017E+01
 20
3.08507297E+02
  0
VERTEX
  8
0
 62
4
 10
-5.53112194E+01
 20
3.08465335E+02
  0
VERTEX
  8
0
 62
4
 10
-5.56569022E+01
 20
3.08410379E+02
  0
VERTEX
  8
0
 62
4
 10
-5.59893991E+01
 20
3.08342866E+02
  0
VERTEX
  8
0
 62
4
 10
-5.63060642E+01
 20
3.08263333E+02
  0
VERTEX
  8
0
 62
4
 10
-5.66043772E+01
 20
3.08172414E+02
  0
VERTEX
  8
0
 62
4
 10
-5.68819643E+01
 20
3.08070832E+02
  0
VERTEX
  8
0
 62
4
 10
-5.71366164E+01
 20
3.07959395E+02
  0
VERTEX
  8
0
 62
4
 10
-5.73663068E+01
 20
3.07838990E+02
  0
VERTEX
  8
0
 62
4
 10
-5.75692077E+01
 20
3.07710576E+02
  0
VERTEX
  8
0
 62
4
 10
-5.77437044E+01
 20
3.07575174E+02
  0
VERTEX
  8
0
 62
4
 10
-5.78884082E+01
 20
3.07433861E+02
  0
VERTEX
  8
0
 62
4
 10
-5.80021675E+01
 20
3.07287764E+02
  0
VERTEX
  8
0
 62
4
 10
-5.80840771E+01
 20
3.07138043E+02
  0
VERTEX
  8
0
 62
4
 10
-5.81334850E+01
 20
3.06985891E+02
  0
VERTEX
  8
0
 62
4
 10
-5.81499981E+01
 20
3.06832518E+02
  0
SEQEND
  8
0
  0
POLYLINE
  8
0
 62
4
 66
1
  0
VERTEX
  8
0
 62
4
 10
-5.81499981E+01
 20
3.05230986E+02
  0
VERTEX
  8
0
 62
4
 10
-5.81342061E+01
 20
3.05080993E+02
  0
VERTEX
  8
0
 62
4
 10
-5.80869503E+01
 20
3.04932142E+02
  0
VERTEX
  8
0
 62
4
 10
-5.80085903E+01
 20
3.04785564E+02
  0
VERTEX
  8
0
 62
4
 10
-5.78997225E+01
 20
3.04642377E+02
  0
VERTEX
  8
0
 62
4
 10
-5.77611754E+01
 20
3.04503670E+02
  0
VERTEX
  8
0
 62
4
 10
-5.75940035E+01
 20
3.04370498E+02
  0
VERTEX
  8
0
 62
4
 10
-5.73994791E+01
 20
3.04243874E+02
  0
VERTEX
  8
0
 62
4
 10
-5.71790825E+01
 20
3.04124763E+02
  0
VERTEX
  8
0
 62
4
 10
-5.69344912E+01
 20
3.04014072E+02
  0
VERTEX
  8
0
 62
4
 10
-5.66675667E+01
 20
3.03912641E+02
  0
VERTEX
  8
0
 62
4
 10
-5.63803403E+01
 20
3.03821244E+02
  0
VERTEX
  8
0
 62
4
 10
-5.60749981E+01
 20
3.03740576E+02
  0
VERTEX
  8
0
 62
4
 10
-5.57538639E+01
 20
3.03671251E+02
  0
VERTEX
  8
0
 62
4
 10
-5.54193817E+01
 20
3.03613797E+02
  0
VERTEX
  8
0
 62
4
 10
-5.50740971E+01
 20
3.03568650E+02
  0
VERTEX
  8
0
 62
4
 10
-5.47206380E+01
 20
3.03536155E+02
  0
VERTEX
  8
0
 62
4
 10
-5.43616944E+01
 20
3.03516558E+02
  0
VERTEX
  8
0
 62
4
 10
-5.39999981E+01
 20
3.03510009E+02
  0
VERTEX
  8
0
 62
4
 10
-5.36383018E+01
 20
3.03516558E+02
  0
VERTEX
  8
0
 62
4
 10
-5.32793582E+01
 20
3.03536155E+02
  0
VERTEX
  8
0
 62
4
 10
-5.29258991E+01
 20
3.03568650E+02
  0
VERTEX
  8
0
 62
4
 10
-5.25806145E+01
 20
3.03613797E+02
  0
VERTEX
  8
0
 62
4
 10
-5.22461323E+01
 20
3.03671251E+02
  0
VERTEX
  8
0
 62
4
 10
-5.19249981E+01
 20
3.03740576E+02
  0
VERTEX
  8
0
 62
4
 10
-5.16196559E+01
 20
3.03821244E+02
  0
VERTEX
  8
0
 62
4
 10
-5.13324295E+01
 20
3.03912641E+02
  0
VERTEX
  8
0
 62
4
 10
-5.10655050E+01
 20
3.04014072E+02
  0
VERTEX
  8
0
 62
4
 10
-5.08209137E+01
 20
3.04124763E+02
  0
VERTEX
  8
0
 62
4
 10
-5.06005171E+01
 20
3.04243874E+02
  0
VERTEX
  8
0
 62
4
 10
-5.04059927E+01
 20
3.04370498E+02
  0
VERTEX
  8
0
 62
4
 10
-5.02388208E+01
 20
3.04503670E+02
  0
VERTEX
  8
0
 62
4
 10
-5.01002737E+01
 20
3.04642377E+02
  0
VERTEX
  8
0
 62
4
 10
-4.99914059E+01
 20
3.04785564E+02
  0
VERTEX
  8
0
 62
4
 10
-4.99130459E+01
 20
3.04932141E+02
  0
VERTEX
  8
0
 62
4
 10
-4.98657901E+01
 20
3.05080993E+02
  0
VERTEX
  8
0
 62
4
 10
-4.98499981E+01
 20
3.05230986E+02
  0
VERTEX
  8
0
 62
4
 10
-4.98657901E+01
 20
3.05380979E+02
  0
VERTEX
  8
0
 62
4
 10
-4.99130459E+01
 20
3.05529830E+02
  0
VERTEX
  8
0
 62
4
 10
-4.99914059E+01
 20
3.05676408E+02
  0
VERTEX
  8
0
 62
4
 10
-5.01002737E+01
 20
3.05819595E+02
  0
VERTEX
  8
0
 62
4
 10
-5.02388208E+01
 20
3.05958302E+02
  0
VERTEX
  8
0
 62
4
 10
-5.04059927E+01
 20
3.06091474E+02
  0
VERTEX
  8
0
 62
4
 10
-5.06005171E+01
 20
3.06218098E+02
  0
VERTEX
  8
0
 62
4
 10
-5.08209137E+01
 20
3.06337209E+02
  0
VERTEX
  8
0
 62
4
 10
-5.10655050E+01
 20
3.06447900E+02
  0
VERTEX
  8
0
 62
4
 10
-5.13324295E+01
 20
3.06549331E+02
  0
VERTEX
  8
0
 62
4
 10
-5.16196559E+01
 20
3.06640728E+02
  0
VERTEX
  8
0
 62
4
 10
-5.19249981E+01
 20
3.06721396E+02
  0
VERTEX
  8
0
 62
4
 10
-5.22461323E+01
 20
3.06790721E+02
  0
VERTEX
  8
0
 62
4
 10
-5.25806145E+01
 20
3.06848175E+02
  0
VERTEX
  8
0
 62
4
 10
-5.29258991E+01
 20
3.06893322E+02
  0
VERTEX
  8
0
 62
4
 10
-5.32793582E+01
 20
3.06925817E+02
  0
VERTEX
  8
0
 62
4
 10
-5.36383018E+01
 20
3.06945414E+02
  0
VERTEX
  8
0
 62
4
 10
-5.39999981E+01
 20
3.06951963E+02
  0
VERTEX
  8
0
 62
4
 10
-5.43616944E+01
 20
3.06945414E+02
  0
VERTEX
  8
0
 62
4
 10
-5.47206380E+01
 20
3.06925817E+02
  0
VERTEX
  8
0
 62
4
 10
-5.50740971E+01
 20
3.06893322E+02
  0
VERTEX
  8
0
 62
4
 10
-5.54193817E+01
 20
3.06848175E+02
  0
VERTEX
  8
0
 62
4
 10
-5.57538639E+01
 20
3.06790721E+02
  0
VERTEX
  8
0
 62
4
 10
-5.60749981E+01
 20
3.06721396E+02
  0
VERTEX
  8
0
 62
4
 10
-5.63803403E+01
 20
3.06640728E+02
  0
VERTEX
  8
0
 62
4
 10
-5.66675667E+01
 20
3.06549331E+02
  0
VERTEX
  8
0
 62
4
 10
-5.69344912E+01
 20
3.06447900E+02
  0
VERTEX
  8
0
 62
4
 10
-5.71790825E+01
 20
3.06337209E+02
  0
VERTEX
  8
0
 62
4
 10
-5.73994791E+01
 20
3.06218098E+02
  0
VERTEX
  8
0
 62
4
 10
-5.75940035E+01
 20
3.06091474E+02
  0
VERTEX
  8
0
 62
4
 10
-5.77611754E+01
 20
3.05958302E+02
  0
VERTEX
  8
0
 62
4
 10
-5.78997225E+01
 20
3.05819595E+02
  0
VERTEX
  8
0
 62
4
 10
-5.80085903E+01
 20
3.05676408E+02
  0
VERTEX
  8
0
 62
4
 10
-5.80869503E+01
 20
3.05529831E+02
  0
VERTEX
  8
0
 62
4
 10
-5.81342061E+01
 20
3.05380979E+02
  0
VERTEX
  8
0
 62
4
 10
-5.81499981E+01
 20
3.05230986E+02
  0
SEQEND
  8
0
  0
ARC
  8
0
 62
4
 10
-6.03695988E+01
 20
3.20015606E+02
 40
1.67245585E+01
 50
2.85971208E+02
 51
2.99114206E+02
  0
ARC
  8
0
 62
4
 10
-4.76303940E+01
 20
3.20015614E+02
 40
1.67245676E+01
 50
2.40885798E+02
 51
2.54028789E+02
  0
POLYLINE
  8
0
 62
4
 66
1
  0
VERTEX
  8
0
 62
4
 10
-4.26999981E+01
 20
3.08629730E+02
  0
VERTEX
  8
0
 62
4
 10
-4.27152958E+01
 20
3.08770987E+02
  0
VERTEX
  8
0
 62
4
 10
-4.27610657E+01
 20
3.08911106E+02
  0
VERTEX
  8
0
 62
4
 10
-4.28369392E+01
 20
3.09048960E+02
  0
VERTEX
  8
0
 62
4
 10
-4.29423056E+01
 20
3.09183438E+02
  0
VERTEX
  8
0
 62
4
 10
-4.30763164E+01
 20
3.09313459E+02
  0
VERTEX
  8
0
 62
4
 10
-4.32378927E+01
 20
3.09437974E+02
  0
VERTEX
  8
0
 62
4
 10
-4.34257335E+01
 20
3.09555982E+02
  0
VERTEX
  8
0
 62
4
 10
-4.36383265E+01
 20
3.09666532E+02
  0
VERTEX
  8
0
 62
4
 10
-4.38739600E+01
 20
3.09768735E+02
  0
VERTEX
  8
0
 62
4
 10
-4.41307368E+01
 20
3.09861767E+02
  0
VERTEX
  8
0
 62
4
 10
-4.44065896E+01
 20
3.09944879E+02
  0
VERTEX
  8
0
 62
4
 10
-4.46992972E+01
 20
3.10017403E+02
  0
VERTEX
  8
0
 62
4
 10
-4.50065030E+01
 20
3.10078753E+02
  0
VERTEX
  8
0
 62
4
 10
-4.53257335E+01
 20
3.10128437E+02
  0
VERTEX
  8
0
 62
4
 10
-4.56544185E+01
 20
3.10166055E+02
  0
VERTEX
  8
0
 62
4
 10
-4.59899117E+01
 20
3.10191303E+02
  0
VERTEX
  8
0
 62
4
 10
-4.63295117E+01
 20
3.10203978E+02
  0
VERTEX
  8
0
 62
4
 10
-4.66704844E+01
 20
3.10203978E+02
  0
VERTEX
  8
0
 62
4
 10
-4.70100845E+01
 20
3.10191303E+02
  0
VERTEX
  8
0
 62
4
 10
-4.73455776E+01
 20
3.10166055E+02
  0
VERTEX
  8
0
 62
4
 10
-4.76742627E+01
 20
3.10128438E+02
  0
VERTEX
  8
0
 62
4
 10
-4.79934932E+01
 20
3.10078753E+02
  0
VERTEX
  8
0
 62
4
 10
-4.83006990E+01
 20
3.10017403E+02
  0
VERTEX
  8
0
 62
4
 10
-4.85934066E+01
 20
3.09944879E+02
  0
VERTEX
  8
0
 62
4
 10
-4.88692593E+01
 20
3.09861767E+02
  0
VERTEX
  8
0
 62
4
 10
-4.91260361E+01
 20
3.09768735E+02
  0
VERTEX
  8
0
 62
4
 10
-4.93616697E+01
 20
3.09666532E+02
  0
VERTEX
  8
0
 62
4
 10
-4.95742627E+01
 20
3.09555982E+02
  0
VERTEX
  8
0
 62
4
 10
-4.97621035E+01
 20
3.09437974E+02
  0
VERTEX
  8
0
 62
4
 10
-4.99236798E+01
 20
3.09313459E+02
  0
VERTEX
  8
0
 62
4
 10
-5.00576906E+01
 20
3.09183439E+02
  0
VERTEX
  8
0
 62
4
 10
-5.01630570E+01
 20
3.09048960E+02
  0
VERTEX
  8
0
 62
4
 10
-5.02389305E+01
 20
3.08911106E+02
  0
VERTEX
  8
0
 62
4
 10
-5.02847004E+01
 20
3.08770987E+02
  0
VERTEX
  8
0
 62
4
 10
-5.02999981E+01
 20
3.08629730E+02
  0
SEQEND
  8
0
  0
POLYLINE
  8
0
 62
4
 66
1
  0
VERTEX
  8
0
 62
4
 10
-4.30999981E+01
 20
3.07016011E+02
  0
VERTEX
  8
0
 62
4
 10
-4.29634164E+01
 20
3.07143272E+02
  0
VERTEX
  8
0
 62
4
 10
-4.28544686E+01
 20
3.07275038E+02
  0
VERTEX
  8
0
 62
4
 10
-4.27740058E+01
 20
3.07410279E+02
  0
VERTEX
  8
0
 62
4
 10
-4.27226568E+01
 20
3.07547937E+02
  0
VERTEX
  8
0
 62
4
 10
-4.27008228E+01
 20
3.07686939E+02
  0
VERTEX
  8
0
 62
4
 10
-4.27086745E+01
 20
3.07826197E+02
  0
VERTEX
  8
0
 62
4
 10
-4.27461505E+01
 20
3.07964623E+02
  0
VERTEX
  8
0
 62
4
 10
-4.28129579E+01
 20
3.08101137E+02
  0
VERTEX
  8
0
 62
4
 10
-4.29085747E+01
 20
3.08234670E+02
  0
VERTEX
  8
0
 62
4
 10
-4.30322539E+01
 20
3.08364180E+02
  0
VERTEX
  8
0
 62
4
 10
-4.31830290E+01
 20
3.08488655E+02
  0
VERTEX
  8
0
 62
4
 10
-4.33597219E+01
 20
3.08607122E+02
  0
VERTEX
  8
0
 62
4
 10
-4.35609519E+01
 20
3.08718655E+02
  0
VERTEX
  8
0
 62
4
 10
-4.37851469E+01
 20
3.08822384E+02
  0
VERTEX
  8
0
 62
4
 10
-4.40305548E+01
 20
3.08917497E+02
  0
VERTEX
  8
0
 62
4
 10
-4.42952583E+01
 20
3.09003251E+02
  0
VERTEX
  8
0
 62
4
 10
-4.45771889E+01
 20
3.09078977E+02
  0
VERTEX
  8
0
 62
4
 10
-4.48741438E+01
 20
3.09144082E+02
  0
VERTEX
  8
0
 62
4
 10
-4.51838027E+01
 20
3.09198058E+02
  0
VERTEX
  8
0
 62
4
 10
-4.55037459E+01
 20
3.09240483E+02
  0
VERTEX
  8
0
 62
4
 10
-4.58314735E+01
 20
3.09271025E+02
  0
VERTEX
  8
0
 62
4
 10
-4.61644248E+01
 20
3.09289447E+02
  0
VERTEX
  8
0
 62
4
 10
-4.64999981E+01
 20
3.09295603E+02
  0
VERTEX
  8
0
 62
4
 10
-4.68355715E+01
 20
3.09289447E+02
  0
VERTEX
  8
0
 62
4
 10
-4.71685227E+01
 20
3.09271025E+02
  0
VERTEX
  8
0
 62
4
 10
-4.74962504E+01
 20
3.09240483E+02
  0
VERTEX
  8
0
 62
4
 10
-4.78161936E+01
 20
3.09198058E+02
  0
VERTEX
  8
0
 62
4
 10
-4.81258524E+01
 20
3.09144082E+02
  0
VERTEX
  8
0
 62
4
 10
-4.84228073E+01
 20
3.09078977E+02
  0
VERTEX
  8
0
 62
4
 10
-4.87047379E+01
 20
3.09003251E+02
  0
VERTEX
  8
0
 62
4
 10
-4.89694414E+01
 20
3.08917497E+02
  0
VERTEX
  8
0
 62
4
 10
-4.92148494E+01
 20
3.08822384E+02
  0
VERTEX
  8
0
 62
4
 10
-4.94390443E+01
 20
3.08718655E+02
  0
VERTEX
  8
0
 62
4
 10
-4.96402744E+01
 20
3.08607122E+02
  0
VERTEX
  8
0
 62
4
 10
-4.98169673E+01
 20
3.08488655E+02
  0
VERTEX
  8
0
 62
4
 10
-4.99677423E+01
 20
3.08364180E+02
  0
VERTEX
  8
0
 62
4
 10
-5.00914215E+01
 20
3.08234670E+02
  0
VERTEX
  8
0
 62
4
 10
-5.01870383E+01
 20
3.08101137E+02
  0
VERTEX
  8
0
 62
4
 10
-5.02538457E+01
 20
3.07964623E+02
  0
VERTEX
  8
0
 62
4
 10
-5.02913217E+01
 20
3.07826197E+02
  0
VERTEX
  8
0
 62
4
 10
-5.02991734E+01
 20
3.07686939E+02
  0
VERTEX
  8
0
 62
4
 10
-5.02773394E+01
 20
3.07547937E+02
  0
VERTEX
  8
0
 62
4
 10
-5.02259904E+01
 20
3.07410279E+02
  0
VERTEX
  8
0
 62
4
 10
-5.01455276E+01
 20
3.07275038E+02
  0
VERTEX
  8
0
 62
4
 10
-5.00365798E+01
 20
3.07143272E+02
  0
VERTEX
  8
0
 62
4
 10
-4.98999981E+01
 20
3.07016011E+02
  0
SEQEND
  8
0
  0
POLYLINE
  8
0
 62
4
 66
1
  0
VERTEX
  8
0
 62
4
 10
-4.30999981E+01
 20
3.07719769E+02
  0
VERTEX
  8
0
 62
4
 10
-4.31136855E+01
 20
3.07846157E+02
  0
VERTEX
  8
0
 62
4
 10
-4.31546375E+01
 20
3.07971527E+02
  0
VERTEX
  8
0
 62
4
 10
-4.32225244E+01
 20
3.08094870E+02
  0
VERTEX
  8
0
 62
4
 10
-4.33167995E+01
 20
3.08215192E+02
  0
VERTEX
  8
0
 62
4
 10
-4.34367039E+01
 20
3.08331526E+02
  0
VERTEX
  8
0
 62
4
 10
-4.35812722E+01
 20
3.08442935E+02
  0
VERTEX
  8
0
 62
4
 10
-4.37493403E+01
 20
3.08548521E+02
  0
VERTEX
  8
0
 62
4
 10
-4.39395551E+01
 20
3.08647434E+02
  0
VERTEX
  8
0
 62
4
 10
-4.41503851E+01
 20
3.08738879E+02
  0
VERTEX
  8
0
 62
4
 10
-4.43801328E+01
 20
3.08822118E+02
  0
VERTEX
  8
0
 62
4
 10
-4.46269483E+01
 20
3.08896481E+02
  0
VERTEX
  8
0
 62
4
 10
-4.48888446E+01
 20
3.08961371E+02
  0
VERTEX
  8
0
 62
4
 10
-4.51637130E+01
 20
3.09016264E+02
  0
VERTEX
  8
0
 62
4
 10
-4.54493403E+01
 20
3.09060718E+02
  0
VERTEX
  8
0
 62
4
 10
-4.57434269E+01
 20
3.09094375E+02
  0
VERTEX
  8
0
 62
4
 10
-4.60436050E+01
 20
3.09116966E+02
  0
VERTEX
  8
0
 62
4
 10
-4.63474577E+01
 20
3.09128306E+02
  0
VERTEX
  8
0
 62
4
 10
-4.66525385E+01
 20
3.09128306E+02
  0
VERTEX
  8
0
 62
4
 10
-4.69563912E+01
 20
3.09116966E+02
  0
VERTEX
  8
0
 62
4
 10
-4.72565693E+01
 20
3.09094375E+02
  0
VERTEX
  8
0
 62
4
 10
-4.75506559E+01
 20
3.09060718E+02
  0
VERTEX
  8
0
 62
4
 10
-4.78362832E+01
 20
3.09016264E+02
  0
VERTEX
  8
0
 62
4
 10
-4.81111515E+01
 20
3.08961371E+02
  0
VERTEX
  8
0
 62
4
 10
-4.83730478E+01
 20
3.08896481E+02
  0
VERTEX
  8
0
 62
4
 10
-4.86198634E+01
 20
3.08822118E+02
  0
VERTEX
  8
0
 62
4
 10
-4.88496111E+01
 20
3.08738879E+02
  0
VERTEX
  8
0
 62
4
 10
-4.90604411E+01
 20
3.08647434E+02
  0
VERTEX
  8
0
 62
4
 10
-4.92506559E+01
 20
3.08548521E+02
  0
VERTEX
  8
0
 62
4
 10
-4.94187240E+01
 20
3.08442935E+02
  0
VERTEX
  8
0
 62
4
 10
-4.95632922E+01
 20
3.08331526E+02
  0
VERTEX
  8
0
 62
4
 10
-4.96831967E+01
 20
3.08215192E+02
  0
VERTEX
  8
0
 62
4
 10
-4.97774718E+01
 20
3.08094870E+02
  0
VERTEX
  8
0
 62
4
 10
-4.98453587E+01
 20
3.07971527E+02
  0
VERTEX
  8
0
 62
4
 10
-4.98863107E+01
 20
3.07846157E+02
  0
VERTEX
  8
0
 62
4
 10
-4.98999981E+01
 20
3.07719769E+02
  0
SEQEND
  8
0
  0
POLYLINE
  8
0
 62
4
 66
1
  0
VERTEX
  8
0
 62
4
 10
-4.98999981E+01
 20
3.06690782E+02
  0
VERTEX
  8
0
 62
4
 10
-4.98870601E+01
 20
3.06567896E+02
  0
VERTEX
  8
0
 62
4
 10
-4.98483445E+01
 20
3.06445946E+02
  0
VERTEX
  8
0
 62
4
 10
-4.97841459E+01
 20
3.06325858E+02
  0
VERTEX
  8
0
 62
4
 10
-4.96949530E+01
 20
3.06208548E+02
  0
VERTEX
  8
0
 62
4
 10
-4.95814446E+01
 20
3.06094908E+02
  0
VERTEX
  8
0
 62
4
 10
-4.94444845E+01
 20
3.05985803E+02
  0
VERTEX
  8
0
 62
4
 10
-4.92851151E+01
 20
3.05882064E+02
  0
VERTEX
  8
0
 62
4
 10
-4.91045492E+01
 20
3.05784479E+02
  0
VERTEX
  8
0
 62
4
 10
-4.89041612E+01
 20
3.05693792E+02
  0
VERTEX
  8
0
 62
4
 10
-4.86854760E+01
 20
3.05610692E+02
  0
VERTEX
  8
0
 62
4
 10
-4.84501580E+01
 20
3.05535813E+02
  0
VERTEX
  8
0
 62
4
 10
-4.81999981E+01
 20
3.05469723E+02
  0
VERTEX
  8
0
 62
4
 10
-4.79369002E+01
 20
3.05412927E+02
  0
VERTEX
  8
0
 62
4
 10
-4.76628666E+01
 20
3.05365856E+02
  0
VERTEX
  8
0
 62
4
 10
-4.73799829E+01
 20
3.05328868E+02
  0
VERTEX
  8
0
 62
4
 10
-4.70904019E+01
 20
3.05302245E+02
  0
VERTEX
  8
0
 62
4
 10
-4.67963276E+01
 20
3.05286190E+02
  0
VERTEX
  8
0
 62
4
 10
-4.64999981E+01
 20
3.05280825E+02
  0
VERTEX
  8
0
 62
4
 10
-4.62036686E+01
 20
3.05286190E+02
  0
VERTEX
  8
0
 62
4
 10
-4.59095943E+01
 20
3.05302245E+02
  0
VERTEX
  8
0
 62
4
 10
-4.56200133E+01
 20
3.05328868E+02
  0
VERTEX
  8
0
 62
4
 10
-4.53371296E+01
 20
3.05365856E+02
  0
VERTEX
  8
0
 62
4
 10
-4.50630960E+01
 20
3.05412927E+02
  0
VERTEX
  8
0
 62
4
 10
-4.47999981E+01
 20
3.05469723E+02
  0
VERTEX
  8
0
 62
4
 10
-4.45498382E+01
 20
3.05535813E+02
  0
VERTEX
  8
0
 62
4
 10
-4.43145202E+01
 20
3.05610692E+02
  0
VERTEX
  8
0
 62
4
 10
-4.40958350E+01
 20
3.05693792E+02
  0
VERTEX
  8
0
 62
4
 10
-4.38954470E+01
 20
3.05784479E+02
  0
VERTEX
  8
0
 62
4
 10
-4.37148812E+01
 20
3.05882064E+02
  0
VERTEX
  8
0
 62
4
 10
-4.35555117E+01
 20
3.05985803E+02
  0
VERTEX
  8
0
 62
4
 10
-4.34185516E+01
 20
3.06094908E+02
  0
VERTEX
  8
0
 62
4
 10
-4.33050432E+01
 20
3.06208548E+02
  0
VERTEX
  8
0
 62
4
 10
-4.32158503E+01
 20
3.06325858E+02
  0
VERTEX
  8
0
 62
4
 10
-4.31516517E+01
 20
3.06445946E+02
  0
VERTEX
  8
0
 62
4
 10
-4.31129361E+01
 20
3.06567896E+02
  0
VERTEX
  8
0
 62
4
 10
-4.30999981E+01
 20
3.06690782E+02
  0
VERTEX
  8
0
 62
4
 10
-4.31129361E+01
 20
3.06813668E+02
  0
VERTEX
  8
0
 62
4
 10
-4.31516517E+01
 20
3.06935618E+02
  0
VERTEX
  8
0
 62
4
 10
-4.32158503E+01
 20
3.07055706E+02
  0
VERTEX
  8
0
 62
4
 10
-4.33050432E+01
 20
3.07173016E+02
  0
VERTEX
  8
0
 62
4
 10
-4.34185516E+01
 20
3.07286656E+02
  0
VERTEX
  8
0
 62
4
 10
-4.35555117E+01
 20
3.07395761E+02
  0
VERTEX
  8
0
 62
4
 10
-4.37148811E+01
 20
3.07499500E+02
  0
VERTEX
  8
0
 62
4
 10
-4.38954470E+01
 20
3.07597085E+02
  0
VERTEX
  8
0
 62
4
 10
-4.40958350E+01
 20
3.07687772E+02
  0
VERTEX
  8
0
 62
4
 10
-4.43145202E+01
 20
3.07770872E+02
  0
VERTEX
  8
0
 62
4
 10
-4.45498382E+01
 20
3.07845751E+02
  0
VERTEX
  8
0
 62
4
 10
-4.47999981E+01
 20
3.07911841E+02
  0
VERTEX
  8
0
 62
4
 10
-4.50630960E+01
 20
3.07968637E+02
  0
VERTEX
  8
0
 62
4
 10
-4.53371296E+01
 20
3.08015708E+02
  0
VERTEX
  8
0
 62
4
 10
-4.56200133E+01
 20
3.08052696E+02
  0
VERTEX
  8
0
 62
4
 10
-4.59095943E+01
 20
3.08079319E+02
  0
VERTEX
  8
0
 62
4
 10
-4.62036686E+01
 20
3.08095374E+02
  0
VERTEX
  8
0
 62
4
 10
-4.64999981E+01
 20
3.08100739E+02
  0
VERTEX
  8
0
 62
4
 10
-4.67963276E+01
 20
3.08095374E+02
  0
VERTEX
  8
0
 62
4
 10
-4.70904019E+01
 20
3.08079319E+02
  0
VERTEX
  8
0
 62
4
 10
-4.73799829E+01
 20
3.08052696E+02
  0
VERTEX
  8
0
 62
4
 10
-4.76628666E+01
 20
3.08015708E+02
  0
VERTEX
  8
0
 62
4
 10
-4.79369002E+01
 20
3.07968637E+02
  0
VERTEX
  8
0
 62
4
 10
-4.81999981E+01
 20
3.07911841E+02
  0
VERTEX
  8
0
 62
4
 10
-4.84501580E+01
 20
3.07845751E+02
  0
VERTEX
  8
0
 62
4
 10
-4.86854760E+01
 20
3.07770872E+02
  0
VERTEX
  8
0
 62
4
 10
-4.89041612E+01
 20
3.07687772E+02
  0
VERTEX
  8
0
 62
4
 10
-4.91045492E+01
 20
3.07597085E+02
  0
VERTEX
  8
0
 62
4
 10
-4.92851151E+01
 20
3.07499500E+02
  0
VERTEX
  8
0
 62
4
 10
-4.94444845E+01
 20
3.07395761E+02
  0
VERTEX
  8
0
 62
4
 10
-4.95814446E+01
 20
3.07286656E+02
  0
VERTEX
  8
0
 62
4
 10
-4.96949530E+01
 20
3.07173016E+02
  0
VERTEX
  8
0
 62
4
 10
-4.97841459E+01
 20
3.07055706E+02
  0
VERTEX
  8
0
 62
4
 10
-4.98483445E+01
 20
3.06935618E+02
  0
VERTEX
  8
0
 62
4
 10
-4.98870601E+01
 20
3.06813668E+02
  0
VERTEX
  8
0
 62
4
 10
-4.98999981E+01
 20
3.06690782E+02
  0
SEQEND
  8
0
  0
ARC
  8
0
 62
4
 10
-5.27470563E+01
 20
3.20720686E+02
 40
1.64201370E+01
 50
2.90122188E+02
 51
2.99216401E+02
  0
ARC
  8
0
 62
4
 10
-4.02529393E+01
 20
3.20720687E+02
 40
1.64201386E+01
 50
2.40783600E+02
 51
2.49877812E+02
  0
LINE
  8
0
  6
CENTER
 62
6
 10
-6.39999981E+01
 20
3.08629730E+02
 11
-5.89999981E+01
 21
3.08629730E+02
  0
LINE
  8
0
 62
4
 10
-4.33281074E+01
 20
3.06183040E+02
 11
-3.89999981E+01
 21
3.06183040E+02
  0
LINE
  8
0
 62
4
 10
-4.98499981E+01
 20
3.06183040E+02
 11
-4.96718888E+01
 21
3.06183040E+02
  0
LINE
  8
0
 62
4
 10
-4.98499981E+01
 20
3.05793701E+02
 11
-4.91230474E+01
 21
3.05793701E+02
  0
LINE
  8
0
 62
4
 10
-5.08005073E+01
 20
3.04134928E+02
 11
-4.39999981E+01
 21
3.04134928E+02
  0
LINE
  8
0
 62
4
 10
-5.14890677E+01
 20
3.03860757E+02
 11
-3.89999981E+01
 21
3.03860757E+02
  0
LINE
  8
0
  6
CENTER
 62
6
 10
-5.39999981E+01
 20
3.09678303E+02
 11
-5.39999981E+01
 21
3.04678303E+02
  0
LINE
  8
0
  6
CENTER
 62
6
 10
-5.64999981E+01
 20
3.07178303E+02
 11
-5.14999981E+01
 21
3.07178303E+02
  0
LINE
  8
0
  6
CENTER
 62
6
 10
-4.64999981E+01
 20
3.11129730E+02
 11
-4.64999981E+01
 21
3.06129730E+02
  0
LINE
  8
0
  6
CENTER
 62
6
 10
-4.89999981E+01
 20
3.08629730E+02
 11
-4.39999981E+01
 21
3.08629730E+02
  0
LINE
  8
0
 62
4
 10
-4.39999981E+01
 20
3.05284237E+02
 11
-3.89999981E+01
 21
3.05284237E+02
  0
LINE
  8
0
 62
7
 10
-4.89264253E+01
 20
3.34000000E+02
 11
-4.40735708E+01
 21
3.34000000E+02
  0
LINE
  8
0
 62
7
 10
-4.09264253E+01
 20
3.34000000E+02
 11
2.79999964E+01
 21
3.34000000E+02
  0
LINE
  8
0
 62
7
 10
-5.39999981E+01
 20
3.27000031E+02
 11
-8.29999981E+01
 21
3.27000031E+02
  0
LINE
  8
0
 62
7
 10
-6.89999981E+01
 20
3.18000000E+02
 11
-8.29999981E+01
 21
3.18000000E+02
  0
LINE
  8
0
 62
7
 10
-1.00000019E+01
 20
2.43000000E+02
 11
-8.29999981E+01
 21
2.43000000E+02
  0
LINE
  8
0
 62
7
 10
-1.00000019E+01
 20
2.33999954E+02
 11
-8.29999981E+01
 21
2.33999954E+02
  0
LINE
  8
0
 62
7
 10
-4.92648695E+00
 20
2.26999985E+02
 11
-7.35169272E-02
 21
2.26999985E+02
  0
LINE
  8
0
 62
7
 10
3.07351305E+00
 20
2.26999985E+02
 11
2.79999964E+01
 21
2.26999985E+02
  0
LINE
  8
0
  6
CENTER
 62
6
 10
-4.79999703E+01
 20
-2.45639053E+02
 11
-4.79999703E+01
 21
-2.50212543E+02
  0
LINE
  8
0
 62
4
 10
-9.09999703E+01
 20
-2.38514613E+02
 11
-8.59999703E+01
 21
-2.38514613E+02
  0
LINE
  8
0
 62
4
 10
-9.09999703E+01
 20
-2.32368941E+02
 11
-8.59999703E+01
 21
-2.32368941E+02
  0
LINE
  8
0
 62
4
 10
-9.09999703E+01
 20
-2.25562569E+02
 11
-8.59999703E+01
 21
-2.25562569E+02
  0
LINE
  8
0
 62
6
 10
-6.57149052E+01
 20
-2.54519549E+02
 11
-6.22850355E+01
 21
-2.51089675E+02
  0
LINE
  8
0
 62
6
 10
-6.22850330E+01
 20
-2.54519547E+02
 11
-6.57149076E+01
 21
-2.51089677E+02
  0
POLYLINE
  8
0
 62
4
 66
1
  0
VERTEX
  8
0
 62
4
 10
-6.73767449E+01
 20
-2.53708343E+02
  0
VERTEX
  8
0
 62
4
 10
-6.73986259E+01
 20
-2.53981255E+02
  0
VERTEX
  8
0
 62
4
 10
-6.73937073E+01
 20
-2.54254850E+02
  0
VERTEX
  8
0
 62
4
 10
-6.73620277E+01
 20
-2.54526971E+02
  0
VERTEX
  8
0
 62
4
 10
-6.73038371E+01
 20
-2.54795471E+02
  0
VERTEX
  8
0
 62
4
 10
-6.72195943E+01
 20
-2.55058235E+02
  0
VERTEX
  8
0
 62
4
 10
-6.71099636E+01
 20
-2.55313190E+02
  0
VERTEX
  8
0
 62
4
 10
-6.69758094E+01
 20
-2.55558325E+02
  0
VERTEX
  8
0
 62
4
 10
-6.68181896E+01
 20
-2.55791707E+02
  0
VERTEX
  8
0
 62
4
 10
-6.66383471E+01
 20
-2.56011497E+02
  0
VERTEX
  8
0
 62
4
 10
-6.64377000E+01
 20
-2.56215960E+02
  0
VERTEX
  8
0
 62
4
 10
-6.62178305E+01
 20
-2.56403486E+02
  0
VERTEX
  8
0
 62
4
 10
-6.59804723E+01
 20
-2.56572594E+02
  0
VERTEX
  8
0
 62
4
 10
-6.57274972E+01
 20
-2.56721952E+02
  0
VERTEX
  8
0
 62
4
 10
-6.54608999E+01
 20
-2.56850382E+02
  0
VERTEX
  8
0
 62
4
 10
-6.51827826E+01
 20
-2.56956871E+02
  0
VERTEX
  8
0
 62
4
 10
-6.48953383E+01
 20
-2.57040579E+02
  0
VERTEX
  8
0
 62
4
 10
-6.46008338E+01
 20
-2.57100847E+02
  0
VERTEX
  8
0
 62
4
 10
-6.43015913E+01
 20
-2.57137198E+02
  0
VERTEX
  8
0
 62
4
 10
-6.39999703E+01
 20
-2.57149347E+02
  0
VERTEX
  8
0
 62
4
 10
-6.36983493E+01
 20
-2.57137198E+02
  0
VERTEX
  8
0
 62
4
 10
-6.33991068E+01
 20
-2.57100847E+02
  0
VERTEX
  8
0
 62
4
 10
-6.31046023E+01
 20
-2.57040579E+02
  0
VERTEX
  8
0
 62
4
 10
-6.28171580E+01
 20
-2.56956871E+02
  0
VERTEX
  8
0
 62
4
 10
-6.25390407E+01
 20
-2.56850382E+02
  0
VERTEX
  8
0
 62
4
 10
-6.22724434E+01
 20
-2.56721952E+02
  0
VERTEX
  8
0
 62
4
 10
-6.20194683E+01
 20
-2.56572594E+02
  0
VERTEX
  8
0
 62
4
 10
-6.17821101E+01
 20
-2.56403486E+02
  0
VERTEX
  8
0
 62
4
 10
-6.15622406E+01
 20
-2.56215960E+02
  0
VERTEX
  8
0
 62
4
 10
-6.13615935E+01
 20
-2.56011497E+02
  0
VERTEX
  8
0
 62
4
 10
-6.11817510E+01
 20
-2.55791707E+02
  0
VERTEX
  8
0
 62
4
 10
-6.10241312E+01
 20
-2.55558325E+02
  0
VERTEX
  8
0
 62
4
 10
-6.08899770E+01
 20
-2.55313190E+02
  0
VERTEX
  8
0
 62
4
 10
-6.07803463E+01
 20
-2.55058235E+02
  0
VERTEX
  8
0
 62
4
 10
-6.06961035E+01
 20
-2.54795471E+02
  0
VERTEX
  8
0
 62
4
 10
-6.06379129E+01
 20
-2.54526971E+02
  0
VERTEX
  8
0
 62
4
 10
-6.06062333E+01
 20
-2.54254850E+02
  0
VERTEX
  8
0
 62
4
 10
-6.06013147E+01
 20
-2.53981255E+02
  0
VERTEX
  8
0
 62
4
 10
-6.06231957E+01
 20
-2.53708343E+02
  0
SEQEND
  8
0
  0
POLYLINE
  8
0
 62
4
 66
1
  0
VERTEX
  8
0
 62
4
 10
-6.05999703E+01
 20
-2.53337911E+02
  0
VERTEX
  8
0
 62
4
 10
-6.06129083E+01
 20
-2.53061223E+02
  0
VERTEX
  8
0
 62
4
 10
-6.06516239E+01
 20
-2.52786640E+02
  0
VERTEX
  8
0
 62
4
 10
-6.07158225E+01
 20
-2.52516254E+02
  0
VERTEX
  8
0
 62
4
 10
-6.08050154E+01
 20
-2.52252120E+02
  0
VERTEX
  8
0
 62
4
 10
-6.09185238E+01
 20
-2.51996250E+02
  0
VERTEX
  8
0
 62
4
 10
-6.10554839E+01
 20
-2.51750591E+02
  0
VERTEX
  8
0
 62
4
 10
-6.12148533E+01
 20
-2.51517012E+02
  0
VERTEX
  8
0
 62
4
 10
-6.13954192E+01
 20
-2.51297291E+02
  0
VERTEX
  8
0
 62
4
 10
-6.15958072E+01
 20
-2.51093101E+02
  0
VERTEX
  8
0
 62
4
 10
-6.18144924E+01
 20
-2.50905995E+02
  0
VERTEX
  8
0
 62
4
 10
-6.20498104E+01
 20
-2.50737398E+02
  0
VERTEX
  8
0
 62
4
 10
-6.22999703E+01
 20
-2.50588591E+02
  0
VERTEX
  8
0
 62
4
 10
-6.25630682E+01
 20
-2.50460709E+02
  0
VERTEX
  8
0
 62
4
 10
-6.28371018E+01
 20
-2.50354725E+02
  0
VERTEX
  8
0
 62
4
 10
-6.31199855E+01
 20
-2.50271444E+02
  0
VERTEX
  8
0
 62
4
 10
-6.34095665E+01
 20
-2.50211500E+02
  0
VERTEX
  8
0
 62
4
 10
-6.37036408E+01
 20
-2.50175351E+02
  0
VERTEX
  8
0
 62
4
 10
-6.39999703E+01
 20
-2.50163270E+02
  0
VERTEX
  8
0
 62
4
 10
-6.42962998E+01
 20
-2.50175351E+02
  0
VERTEX
  8
0
 62
4
 10
-6.45903741E+01
 20
-2.50211500E+02
  0
VERTEX
  8
0
 62
4
 10
-6.48799551E+01
 20
-2.50271444E+02
  0
VERTEX
  8
0
 62
4
 10
-6.51628388E+01
 20
-2.50354725E+02
  0
VERTEX
  8
0
 62
4
 10
-6.54368724E+01
 20
-2.50460709E+02
  0
VERTEX
  8
0
 62
4
 10
-6.56999703E+01
 20
-2.50588591E+02
  0
VERTEX
  8
0
 62
4
 10
-6.59501302E+01
 20
-2.50737398E+02
  0
VERTEX
  8
0
 62
4
 10
-6.61854482E+01
 20
-2.50905995E+02
  0
VERTEX
  8
0
 62
4
 10
-6.64041334E+01
 20
-2.51093101E+02
  0
VERTEX
  8
0
 62
4
 10
-6.66045214E+01
 20
-2.51297291E+02
  0
VERTEX
  8
0
 62
4
 10
-6.67850873E+01
 20
-2.51517012E+02
  0
VERTEX
  8
0
 62
4
 10
-6.69444567E+01
 20
-2.51750591E+02
  0
VERTEX
  8
0
 62
4
 10
-6.70814168E+01
 20
-2.51996250E+02
  0
VERTEX
  8
0
 62
4
 10
-6.71949252E+01
 20
-2.52252120E+02
  0
VERTEX
  8
0
 62
4
 10
-6.72841181E+01
 20
-2.52516254E+02
  0
VERTEX
  8
0
 62
4
 10
-6.73483167E+01
 20
-2.52786640E+02
  0
VERTEX
  8
0
 62
4
 10
-6.73870323E+01
 20
-2.53061223E+02
  0
VERTEX
  8
0
 62
4
 10
-6.73999703E+01
 20
-2.53337911E+02
  0
VERTEX
  8
0
 62
4
 10
-6.73870323E+01
 20
-2.53614599E+02
  0
VERTEX
  8
0
 62
4
 10
-6.73483167E+01
 20
-2.53889182E+02
  0
VERTEX
  8
0
 62
4
 10
-6.72841181E+01
 20
-2.54159568E+02
  0
VERTEX
  8
0
 62
4
 10
-6.71949252E+01
 20
-2.54423702E+02
  0
VERTEX
  8
0
 62
4
 10
-6.70814168E+01
 20
-2.54679572E+02
  0
VERTEX
  8
0
 62
4
 10
-6.69444567E+01
 20
-2.54925231E+02
  0
VERTEX
  8
0
 62
4
 10
-6.67850872E+01
 20
-2.55158810E+02
  0
VERTEX
  8
0
 62
4
 10
-6.66045214E+01
 20
-2.55378531E+02
  0
VERTEX
  8
0
 62
4
 10
-6.64041334E+01
 20
-2.55582721E+02
  0
VERTEX
  8
0
 62
4
 10
-6.61854482E+01
 20
-2.55769827E+02
  0
VERTEX
  8
0
 62
4
 10
-6.59501302E+01
 20
-2.55938424E+02
  0
VERTEX
  8
0
 62
4
 10
-6.56999703E+01
 20
-2.56087231E+02
  0
VERTEX
  8
0
 62
4
 10
-6.54368724E+01
 20
-2.56215113E+02
  0
VERTEX
  8
0
 62
4
 10
-6.51628388E+01
 20
-2.56321097E+02
  0
VERTEX
  8
0
 62
4
 10
-6.48799550E+01
 20
-2.56404378E+02
  0
VERTEX
  8
0
 62
4
 10
-6.45903741E+01
 20
-2.56464322E+02
  0
VERTEX
  8
0
 62
4
 10
-6.42962998E+01
 20
-2.56500471E+02
  0
VERTEX
  8
0
 62
4
 10
-6.39999703E+01
 20
-2.56512552E+02
  0
VERTEX
  8
0
 62
4
 10
-6.37036408E+01
 20
-2.56500471E+02
  0
VERTEX
  8
0
 62
4
 10
-6.34095665E+01
 20
-2.56464322E+02
  0
VERTEX
  8
0
 62
4
 10
-6.31199855E+01
 20
-2.56404378E+02
  0
VERTEX
  8
0
 62
4
 10
-6.28371018E+01
 20
-2.56321097E+02
  0
VERTEX
  8
0
 62
4
 10
-6.25630682E+01
 20
-2.56215113E+02
  0
VERTEX
  8
0
 62
4
 10
-6.22999703E+01
 20
-2.56087231E+02
  0
VERTEX
  8
0
 62
4
 10
-6.20498104E+01
 20
-2.55938424E+02
  0
VERTEX
  8
0
 62
4
 10
-6.18144924E+01
 20
-2.55769827E+02
  0
VERTEX
  8
0
 62
4
 10
-6.15958072E+01
 20
-2.55582721E+02
  0
VERTEX
  8
0
 62
4
 10
-6.13954192E+01
 20
-2.55378531E+02
  0
VERTEX
  8
0
 62
4
 10
-6.12148533E+01
 20
-2.55158810E+02
  0
VERTEX
  8
0
 62
4
 10
-6.10554839E+01
 20
-2.54925231E+02
  0
VERTEX
  8
0
 62
4
 10
-6.09185238E+01
 20
-2.54679572E+02
  0
VERTEX
  8
0
 62
4
 10
-6.08050154E+01
 20
-2.54423702E+02
  0
VERTEX
  8
0
 62
4
 10
-6.07158225E+01
 20
-2.54159568E+02
  0
VERTEX
  8
0
 62
4
 10
-6.06516239E+01
 20
-2.53889182E+02
  0
VERTEX
  8
0
 62
4
 10
-6.06129083E+01
 20
-2.53614599E+02
  0
VERTEX
  8
0
 62
4
 10
-6.05999703E+01
 20
-2.53337911E+02
  0
SEQEND
  8
0
  0
POLYLINE
  8
0
 62
4
 66
1
  0
VERTEX
  8
0
 62
4
 10
-6.79999703E+01
 20
-2.54173556E+02
  0
VERTEX
  8
0
 62
4
 10
-6.79847491E+01
 20
-2.54480308E+02
  0
VERTEX
  8
0
 62
4
 10
-6.79392012E+01
 20
-2.54784725E+02
  0
VERTEX
  8
0
 62
4
 10
-6.78636734E+01
 20
-2.55084490E+02
  0
VERTEX
  8
0
 62
4
 10
-6.77587403E+01
 20
-2.55377323E+02
  0
VERTEX
  8
0
 62
4
 10
-6.76252008E+01
 20
-2.55660995E+02
  0
VERTEX
  8
0
 62
4
 10
-6.74640709E+01
 20
-2.55933346E+02
  0
VERTEX
  8
0
 62
4
 10
-6.72765771E+01
 20
-2.56192304E+02
  0
VERTEX
  8
0
 62
4
 10
-6.70641464E+01
 20
-2.56435898E+02
  0
VERTEX
  8
0
 62
4
 10
-6.68283953E+01
 20
-2.56662274E+02
  0
VERTEX
  8
0
 62
4
 10
-6.65711182E+01
 20
-2.56869710E+02
  0
VERTEX
  8
0
 62
4
 10
-6.62942731E+01
 20
-2.57056626E+02
  0
VERTEX
  8
0
 62
4
 10
-6.59999669E+01
 20
-2.57221600E+02
  0
VERTEX
  8
0
 62
4
 10
-6.56904394E+01
 20
-2.57363377E+02
  0
VERTEX
  8
0
 62
4
 10
-6.53680465E+01
 20
-2.57480878E+02
  0
VERTEX
  8
0
 62
4
 10
-6.50352417E+01
 20
-2.57573207E+02
  0
VERTEX
  8
0
 62
4
 10
-6.46945578E+01
 20
-2.57639663E+02
  0
VERTEX
  8
0
 62
4
 10
-6.43485876E+01
 20
-2.57679740E+02
  0
VERTEX
  8
0
 62
4
 10
-6.39999643E+01
 20
-2.57693133E+02
  0
VERTEX
  8
0
 62
4
 10
-6.36513410E+01
 20
-2.57679739E+02
  0
VERTEX
  8
0
 62
4
 10
-6.33053710E+01
 20
-2.57639661E+02
  0
VERTEX
  8
0
 62
4
 10
-6.29646874E+01
 20
-2.57573204E+02
  0
VERTEX
  8
0
 62
4
 10
-6.26318829E+01
 20
-2.57480874E+02
  0
VERTEX
  8
0
 62
4
 10
-6.23094903E+01
 20
-2.57363373E+02
  0
VERTEX
  8
0
 62
4
 10
-6.19999634E+01
 20
-2.57221595E+02
  0
VERTEX
  8
0
 62
4
 10
-6.17056577E+01
 20
-2.57056620E+02
  0
VERTEX
  8
0
 62
4
 10
-6.14288132E+01
 20
-2.56869703E+02
  0
VERTEX
  8
0
 62
4
 10
-6.11715368E+01
 20
-2.56662267E+02
  0
VERTEX
  8
0
 62
4
 10
-6.09357865E+01
 20
-2.56435890E+02
  0
VERTEX
  8
0
 62
4
 10
-6.07233566E+01
 20
-2.56192295E+02
  0
VERTEX
  8
0
 62
4
 10
-6.05358637E+01
 20
-2.55933337E+02
  0
VERTEX
  8
0
 62
4
 10
-6.03747348E+01
 20
-2.55660985E+02
  0
VERTEX
  8
0
 62
4
 10
-6.02411962E+01
 20
-2.55377313E+02
  0
VERTEX
  8
0
 62
4
 10
-6.01362642E+01
 20
-2.55084480E+02
  0
VERTEX
  8
0
 62
4
 10
-6.00607373E+01
 20
-2.54784714E+02
  0
VERTEX
  8
0
 62
4
 10
-6.00151905E+01
 20
-2.54480297E+02
  0
VERTEX
  8
0
 62
4
 10
-5.99999703E+01
 20
-2.54173545E+02
  0
SEQEND
  8
0
  0
POLYLINE
  8
0
 62
4
 66
1
  0
VERTEX
  8
0
 62
4
 10
-6.67327180E+01
 20
-2.51449101E+02
  0
VERTEX
  8
0
 62
4
 10
-6.69801896E+01
 20
-2.51685043E+02
  0
VERTEX
  8
0
 62
4
 10
-6.72043351E+01
 20
-2.51940463E+02
  0
VERTEX
  8
0
 62
4
 10
-6.74034001E+01
 20
-2.52213361E+02
  0
VERTEX
  8
0
 62
4
 10
-6.75758266E+01
 20
-2.52501602E+02
  0
VERTEX
  8
0
 62
4
 10
-6.77202649E+01
 20
-2.52802929E+02
  0
VERTEX
  8
0
 62
4
 10
-6.78355846E+01
 20
-2.53114984E+02
  0
VERTEX
  8
0
 62
4
 10
-6.79208830E+01
 20
-2.53435324E+02
  0
VERTEX
  8
0
 62
4
 10
-6.79754926E+01
 20
-2.53761442E+02
  0
VERTEX
  8
0
 62
4
 10
-6.79989858E+01
 20
-2.54090786E+02
  0
VERTEX
  8
0
 62
4
 10
-6.79911789E+01
 20
-2.54420778E+02
  0
VERTEX
  8
0
 62
4
 10
-6.79521329E+01
 20
-2.54748835E+02
  0
VERTEX
  8
0
 62
4
 10
-6.78821534E+01
 20
-2.55072389E+02
  0
VERTEX
  8
0
 62
4
 10
-6.77817881E+01
 20
-2.55388908E+02
  0
VERTEX
  8
0
 62
4
 10
-6.76518227E+01
 20
-2.55695915E+02
  0
VERTEX
  8
0
 62
4
 10
-6.74932743E+01
 20
-2.55991006E+02
  0
VERTEX
  8
0
 62
4
 10
-6.73073839E+01
 20
-2.56271871E+02
  0
VERTEX
  8
0
 62
4
 10
-6.70956065E+01
 20
-2.56536314E+02
  0
VERTEX
  8
0
 62
4
 10
-6.68595996E+01
 20
-2.56782263E+02
  0
VERTEX
  8
0
 62
4
 10
-6.66012105E+01
 20
-2.57007794E+02
  0
VERTEX
  8
0
 62
4
 10
-6.63224615E+01
 20
-2.57211141E+02
  0
VERTEX
  8
0
 62
4
 10
-6.60255345E+01
 20
-2.57390714E+02
  0
VERTEX
  8
0
 62
4
 10
-6.57127534E+01
 20
-2.57545105E+02
  0
VERTEX
  8
0
 62
4
 10
-6.53865664E+01
 20
-2.57673108E+02
  0
VERTEX
  8
0
 62
4
 10
-6.50495266E+01
 20
-2.57773720E+02
  0
VERTEX
  8
0
 62
4
 10
-6.47042719E+01
 20
-2.57846153E+02
  0
VERTEX
  8
0
 62
4
 10
-6.43535046E+01
 20
-2.57889841E+02
  0
VERTEX
  8
0
 62
4
 10
-6.39999703E+01
 20
-2.57904442E+02
  0
VERTEX
  8
0
 62
4
 10
-6.36464359E+01
 20
-2.57889841E+02
  0
VERTEX
  8
0
 62
4
 10
-6.32956687E+01
 20
-2.57846153E+02
  0
VERTEX
  8
0
 62
4
 10
-6.29504140E+01
 20
-2.57773720E+02
  0
VERTEX
  8
0
 62
4
 10
-6.26133742E+01
 20
-2.57673108E+02
  0
VERTEX
  8
0
 62
4
 10
-6.22871872E+01
 20
-2.57545105E+02
  0
VERTEX
  8
0
 62
4
 10
-6.19744061E+01
 20
-2.57390713E+02
  0
VERTEX
  8
0
 62
4
 10
-6.16774791E+01
 20
-2.57211141E+02
  0
VERTEX
  8
0
 62
4
 10
-6.13987301E+01
 20
-2.57007794E+02
  0
VERTEX
  8
0
 62
4
 10
-6.11403410E+01
 20
-2.56782263E+02
  0
VERTEX
  8
0
 62
4
 10
-6.09043341E+01
 20
-2.56536314E+02
  0
VERTEX
  8
0
 62
4
 10
-6.06925567E+01
 20
-2.56271871E+02
  0
VERTEX
  8
0
 62
4
 10
-6.05066663E+01
 20
-2.55991006E+02
  0
VERTEX
  8
0
 62
4
 10
-6.03481179E+01
 20
-2.55695915E+02
  0
VERTEX
  8
0
 62
4
 10
-6.02181525E+01
 20
-2.55388908E+02
  0
VERTEX
  8
0
 62
4
 10
-6.01177872E+01
 20
-2.55072389E+02
  0
VERTEX
  8
0
 62
4
 10
-6.00478077E+01
 20
-2.54748835E+02
  0
VERTEX
  8
0
 62
4
 10
-6.00087617E+01
 20
-2.54420778E+02
  0
VERTEX
  8
0
 62
4
 10
-6.00009548E+01
 20
-2.54090786E+02
  0
VERTEX
  8
0
 62
4
 10
-6.00244480E+01
 20
-2.53761442E+02
  0
VERTEX
  8
0
 62
4
 10
-6.00790576E+01
 20
-2.53435324E+02
  0
VERTEX
  8
0
 62
4
 10
-6.01643560E+01
 20
-2.53114984E+02
  0
VERTEX
  8
0
 62
4
 10
-6.02796757E+01
 20
-2.52802929E+02
  0
VERTEX
  8
0
 62
4
 10
-6.04241140E+01
 20
-2.52501602E+02
  0
VERTEX
  8
0
 62
4
 10
-6.05965405E+01
 20
-2.52213361E+02
  0
VERTEX
  8
0
 62
4
 10
-6.07956055E+01
 20
-2.51940463E+02
  0
VERTEX
  8
0
 62
4
 10
-6.10197510E+01
 20
-2.51685043E+02
  0
VERTEX
  8
0
 62
4
 10
-6.12672226E+01
 20
-2.51449101E+02
  0
SEQEND
  8
0
  0
LINE
  8
0
  6
CENTER
 62
6
 10
-6.39999703E+01
 20
-2.48201077E+02
 11
-6.39999703E+01
 21
-2.59168484E+02
  0
LINE
  8
0
  6
CENTER
 62
6
 10
-7.00639757E+01
 20
-2.52804612E+02
 11
-5.81176868E+01
 21
-2.52804612E+02
  0
LINE
  8
0
 62
4
 10
-7.59999703E+01
 20
-2.61076519E+02
 11
-7.29999703E+01
 21
-2.65969605E+02
  0
LINE
  8
0
 62
4
 10
-3.69999703E+01
 20
-2.61076519E+02
 11
-3.99999703E+01
 21
-2.65969605E+02
  0
ARC
  8
0
 62
4
 10
-7.44999675E+01
 20
-2.49804225E+02
 40
1.50000284E+00
 50
9.00001085E+01
 51
1.79999892E+02
  0
ARC
  8
0
 62
4
 10
-8.04999746E+01
 20
-2.38208271E+02
 40
4.99995728E-01
 50
1.79999510E+02
 51
2.70000490E+02
  0
ARC
  8
0
 62
4
 10
-3.84999732E+01
 20
-2.49804225E+02
 40
1.50000284E+00
 50
1.08554370E-04
 51
8.99998913E+01
  0
ARC
  8
0
 62
4
 10
-7.19999746E+01
 20
-2.39208271E+02
 40
5.00004272E-01
 50
4.89585868E-04
 51
8.99995103E+01
  0
ARC
  8
0
 62
4
 10
-8.04999661E+01
 20
-2.25208271E+02
 40
5.00004272E-01
 50
9.00004895E+01
 51
1.79999510E+02
  0
LINE
  8
0
 62
4
 10
-8.44999703E+01
 20
-2.37458267E+02
 11
-8.09999703E+01
 21
-2.37458267E+02
  0
LINE
  8
0
 62
4
 10
-8.44999703E+01
 20
-2.25958267E+02
 11
-8.09999703E+01
 21
-2.25958267E+02
  0
LINE
  8
0
 62
4
 10
-8.44999703E+01
 20
-2.25458267E+02
 11
-8.44999703E+01
 21
-2.37958267E+02
  0
LINE
  8
0
 62
4
 10
-8.59999703E+01
 20
-2.37958267E+02
 11
-8.09999703E+01
 21
-2.37958267E+02
  0
LINE
  8
0
 62
4
 10
-8.59999703E+01
 20
-2.25458267E+02
 11
-8.09999703E+01
 21
-2.25458267E+02
  0
LINE
  8
0
 62
4
 10
-8.59999703E+01
 20
-2.24910934E+02
 11
-8.59999703E+01
 21
-2.38514613E+02
  0
LINE
  8
0
 62
4
 10
-9.09999703E+01
 20
-2.24910934E+02
 11
-9.09999703E+01
 21
-2.38514613E+02
  0
LINE
  8
0
 62
4
 10
-8.09999703E+01
 20
-2.25208267E+02
 11
-8.09999703E+01
 21
-2.38208267E+02
  0
LINE
  8
0
 62
4
 10
-7.14999703E+01
 20
-2.24708267E+02
 11
-8.04999703E+01
 21
-2.24708267E+02
  0
LINE
  8
0
 62
4
 10
-8.04999703E+01
 20
-2.38708267E+02
 11
-7.19999703E+01
 21
-2.38708267E+02
  0
LINE
  8
0
 62
4
 10
-9.09999703E+01
 20
-2.24910934E+02
 11
-8.59999703E+01
 21
-2.24910934E+02
  0
LINE
  8
0
 62
4
 10
-7.44999703E+01
 20
-2.48304222E+02
 11
-3.84999703E+01
 21
-2.48304222E+02
  0
LINE
  8
0
 62
4
 10
-7.59999703E+01
 20
-2.59717057E+02
 11
-3.69999703E+01
 21
-2.59717057E+02
  0
LINE
  8
0
 62
4
 10
-7.59999703E+01
 20
-2.61076519E+02
 11
-3.69999703E+01
 21
-2.61076519E+02
  0
LINE
  8
0
 62
4
 10
-3.69999703E+01
 20
-2.49804222E+02
 11
-3.69999703E+01
 21
-2.61076519E+02
  0
LINE
  8
0
 62
4
 10
-7.14999703E+01
 20
-2.44852145E+02
 11
-5.64999703E+01
 21
-2.44852145E+02
  0
LINE
  8
0
 62
4
 10
-5.44999703E+01
 20
-2.44913216E+02
 11
-5.44999703E+01
 21
-2.48304222E+02
  0
LINE
  8
0
 62
4
 10
-7.14999703E+01
 20
-2.23100758E+02
 11
-7.14999703E+01
 21
-2.44913216E+02
  0
LINE
  8
0
 62
4
 10
-5.64999703E+01
 20
-2.23100758E+02
 11
-5.64999703E+01
 21
-2.44913216E+02
  0
LINE
  8
0
 62
4
 10
-7.34999703E+01
 20
-2.44913216E+02
 11
-7.34999703E+01
 21
-2.48304222E+02
  0
LINE
  8
0
 62
4
 10
-7.59999703E+01
 20
-2.49804222E+02
 11
-7.59999703E+01
 21
-2.61076519E+02
  0
LINE
  8
0
 62
4
 10
-7.34999703E+01
 20
-2.44913216E+02
 11
-5.44999703E+01
 21
-2.44913216E+02
  0
LINE
  8
0
 62
4
 10
-7.14999703E+01
 20
-2.23100758E+02
 11
-5.64999703E+01
 21
-2.23100758E+02
  0
ARC
  8
0
 62
4
 10
-3.98630375E+02
 20
-2.31708221E+02
 40
7.00000000E+00
 50
1.23115777E+02
 51
1.46002341E+02
  0
ARC
  8
0
 62
4
 10
-3.98630375E+02
 20
-2.31708221E+02
 40
7.00000000E+00
 50
8.39976594E+01
 51
1.06884035E+02
  0
ARC
  8
0
 62
4
 10
-3.79243695E+02
 20
-2.50804192E+02
 40
2.50001570E+00
 50
2.50003598E+01
 51
1.14999640E+02
  0
ARC
  8
0
 62
4
 10
-3.96463520E+02
 20
-2.58833924E+02
 40
2.50001192E+00
 50
1.15000273E+02
 51
2.04999727E+02
  0
ARC
  8
0
 62
4
 10
-3.82386288E+02
 20
-2.57822856E+02
 40
1.18036308E+01
 50
1.22898056E+01
 51
3.79747793E+01
  0
CIRCLE
  8
0
 62
4
 10
-3.98630375E+02
 20
-2.31708221E+02
 40
3.75000000E+00
  0
ARC
  8
0
 62
4
 10
-3.73862187E+02
 20
-2.51160434E+02
 40
9.97209177E-01
 50
3.75805360E+01
 51
1.14812291E+02
  0
ARC
  8
0
 62
4
 10
-3.71830481E+02
 20
-2.55514161E+02
 40
9.98345090E-01
 50
2.95107939E+02
 51
1.17781676E+01
  0
LINE
  8
0
 62
4
 10
-3.76102146E+02
 20
-2.50442624E+02
 11
-3.72721200E+02
 21
-2.57693087E+02
  0
LINE
  8
0
  6
CENTER
 62
6
 10
-3.94638874E+02
 20
-2.63499954E+02
 11
-3.68973826E+02
 21
-2.51532146E+02
  0
LINE
  8
0
 62
4
 10
-3.71406858E+02
 20
-2.56418172E+02
 11
-3.72974771E+02
 21
-2.57149302E+02
  0
LINE
  8
0
 62
4
 10
-3.75848575E+02
 20
-2.50986409E+02
 11
-3.74280663E+02
 21
-2.50255279E+02
  0
LINE
  8
0
 62
4
 10
-3.73174354E+02
 20
-2.57904396E+02
 11
-3.72721200E+02
 21
-2.57693087E+02
  0
LINE
  8
0
 62
4
 10
-3.76555300E+02
 20
-2.50653933E+02
 11
-3.76102146E+02
 21
-2.50442624E+02
  0
LINE
  8
0
 62
4
 10
-3.98809687E+02
 20
-2.25171542E+02
 11
-3.94368778E+02
 21
-2.23100713E+02
  0
LINE
  8
0
 62
4
 10
-4.01800014E+02
 20
-2.24910888E+02
 11
-3.94324195E+02
 21
-2.25562523E+02
  0
LINE
  8
0
 62
4
 10
-4.02932333E+02
 20
-2.37862932E+02
 11
-3.95456514E+02
 21
-2.38514568E+02
  0
LINE
  8
0
 62
4
 10
-3.94324195E+02
 20
-2.25562523E+02
 11
-3.91150332E+02
 21
-2.32368895E+02
  0
LINE
  8
0
 62
4
 10
-4.06106196E+02
 20
-2.31056561E+02
 11
-4.02932333E+02
 21
-2.37862932E+02
  0
LINE
  8
0
 62
4
 10
-4.06106196E+02
 20
-2.31056561E+02
 11
-4.01800014E+02
 21
-2.24910888E+02
  0
LINE
  8
0
 62
4
 10
-3.95456514E+02
 20
-2.38514568E+02
 11
-3.91150332E+02
 21
-2.32368895E+02
  0
LINE
  8
0
 62
4
 10
-3.83716596E+02
 20
-2.58958501E+02
 11
-3.82660050E+02
 21
-2.61224271E+02
  0
LINE
  8
0
 62
4
 10
-3.87341827E+02
 20
-2.60648974E+02
 11
-3.86285281E+02
 21
-2.62914744E+02
  0
LINE
  8
0
 62
4
 10
-3.86285281E+02
 20
-2.62914744E+02
 11
-3.82660050E+02
 21
-2.61224271E+02
  0
LINE
  8
0
 62
4
 10
-3.87341827E+02
 20
-2.60648974E+02
 11
-3.83716596E+02
 21
-2.58958501E+02
  0
LINE
  8
0
 62
4
 10
-3.80441665E+02
 20
-2.63499954E+02
 11
-3.72329117E+02
 21
-2.59717011E+02
  0
LINE
  8
0
 62
4
 10
-3.71695190E+02
 20
-2.61076473E+02
 11
-3.72204568E+02
 21
-2.63499954E+02
  0
LINE
  8
0
 62
4
 10
-3.98729305E+02
 20
-2.59890464E+02
 11
-3.97046172E+02
 21
-2.63499954E+02
  0
LINE
  8
0
 62
4
 10
-3.76977918E+02
 20
-2.49747626E+02
 11
-3.71695190E+02
 21
-2.61076473E+02
  0
LINE
  8
0
 62
4
 10
-3.76892362E+02
 20
-2.63499954E+02
 11
-3.71695190E+02
 21
-2.61076473E+02
  0
LINE
  8
0
 62
4
 10
-3.97520081E+02
 20
-2.56568149E+02
 11
-3.80300233E+02
 21
-2.48538402E+02
  0
LINE
  8
0
 62
4
 10
-3.99210554E+02
 20
-2.52942918E+02
 11
-3.97520081E+02
 21
-2.56568149E+02
  0
LINE
  8
0
 62
4
 10
-3.81990706E+02
 20
-2.44913171E+02
 11
-3.80300233E+02
 21
-2.48538402E+02
  0
LINE
  8
0
 62
4
 10
-3.97820557E+02
 20
-2.51191373E+02
 11
-3.84225940E+02
 21
-2.44852099E+02
  0
LINE
  8
0
 62
4
 10
-3.99210554E+02
 20
-2.52942918E+02
 11
-3.81990706E+02
 21
-2.44913171E+02
  0
LINE
  8
0
 62
4
 10
-4.07963395E+02
 20
-2.29439986E+02
 11
-3.97397939E+02
 21
-2.52097681E+02
  0
LINE
  8
0
 62
4
 10
-3.94368778E+02
 20
-2.23100713E+02
 11
-3.83803322E+02
 21
-2.45758407E+02
  0
LINE
  8
0
 62
4
 10
-4.07963395E+02
 20
-2.29439986E+02
 11
-4.03531550E+02
 21
-2.27373383E+02
  0
LINE
  8
0
 62
4
 10
-4.04856691E+02
 20
-2.63299400E+02
 11
-4.04950212E+02
 21
-2.63499954E+02
  0
LINE
  8
0
 62
4
 10
-4.04856691E+02
 20
-2.63299400E+02
 11
-3.98517996E+02
 21
-2.60343618E+02
  0
LINE
  8
0
 62
4
 10
-4.04848367E+02
 20
-2.63499954E+02
 11
-4.04738104E+02
 21
-2.63268783E+02
  0
LINE
  8
0
 62
4
 10
-3.32796556E+02
 20
-2.63499954E+02
 11
-3.32791875E+02
 21
-2.63489685E+02
  0
LINE
  8
0
 62
4
 10
1.45716624E+02
 20
-2.58958501E+02
 11
1.44660079E+02
 21
-2.61224271E+02
  0
LINE
  8
0
 62
4
 10
1.49341856E+02
 20
-2.60648974E+02
 11
1.45716624E+02
 21
-2.58958501E+02
  0
LINE
  8
0
 62
4
 10
1.38892391E+02
 20
-2.63499954E+02
 11
1.33695219E+02
 21
-2.61076473E+02
  0
LINE
  8
0
 62
4
 10
1.33695219E+02
 20
-2.61076473E+02
 11
1.34204597E+02
 21
-2.63499954E+02
  0
LINE
  8
0
 62
4
 10
1.42441693E+02
 20
-2.63499954E+02
 11
1.34329146E+02
 21
-2.59717011E+02
  0
LINE
  8
0
 62
4
 10
1.48285310E+02
 20
-2.62914744E+02
 11
1.44660079E+02
 21
-2.61224271E+02
  0
LINE
  8
0
 62
4
 10
1.49341856E+02
 20
-2.60648974E+02
 11
1.48285310E+02
 21
-2.62914744E+02
  0
ARC
  8
0
 62
4
 10
1.58463549E+02
 20
-2.58833924E+02
 40
2.50001192E+00
 50
3.35000273E+02
 51
6.49997271E+01
  0
LINE
  8
0
 62
4
 10
1.61210583E+02
 20
-2.52942918E+02
 11
1.59520110E+02
 21
-2.56568149E+02
  0
LINE
  8
0
 62
4
 10
1.66856720E+02
 20
-2.63299400E+02
 11
1.60518025E+02
 21
-2.60343618E+02
  0
LINE
  8
0
 62
4
 10
1.60729334E+02
 20
-2.59890464E+02
 11
1.59046201E+02
 21
-2.63499954E+02
  0
ARC
  8
0
 62
4
 10
1.41243724E+02
 20
-2.50804192E+02
 40
2.50001570E+00
 50
6.50003596E+01
 51
1.54999640E+02
  0
ARC
  8
0
 62
4
 10
1.44386317E+02
 20
-2.57822856E+02
 40
1.18036308E+01
 50
1.42025221E+02
 51
1.67710194E+02
  0
ARC
  8
0
 62
4
 10
1.35862216E+02
 20
-2.51160434E+02
 40
9.97209177E-01
 50
6.51877094E+01
 51
1.42419464E+02
  0
ARC
  8
0
 62
4
 10
1.33830510E+02
 20
-2.55514161E+02
 40
9.98345090E-01
 50
1.68221832E+02
 51
2.44892061E+02
  0
LINE
  8
0
 62
4
 10
1.38102175E+02
 20
-2.50442624E+02
 11
1.34721229E+02
 21
-2.57693087E+02
  0
LINE
  8
0
 62
4
 10
1.33406887E+02
 20
-2.56418172E+02
 11
1.34974800E+02
 21
-2.57149302E+02
  0
LINE
  8
0
 62
4
 10
1.37848604E+02
 20
-2.50986409E+02
 11
1.36280691E+02
 21
-2.50255279E+02
  0
LINE
  8
0
 62
4
 10
1.35174383E+02
 20
-2.57904396E+02
 11
1.34721229E+02
 21
-2.57693087E+02
  0
LINE
  8
0
 62
4
 10
1.38555329E+02
 20
-2.50653933E+02
 11
1.38102175E+02
 21
-2.50442624E+02
  0
LINE
  8
0
 62
4
 10
1.43990735E+02
 20
-2.44913171E+02
 11
1.42300262E+02
 21
-2.48538402E+02
  0
LINE
  8
0
  6
CENTER
 62
6
 10
1.52281884E+02
 20
-2.49611659E+02
 11
1.50280485E+02
 21
-2.53903674E+02
  0
LINE
  8
0
 62
4
 10
1.47738109E+02
 20
-2.51074111E+02
 11
1.48486998E+02
 21
-2.50319946E+02
  0
LINE
  8
0
 62
4
 10
1.54178611E+02
 20
-2.52973989E+02
 11
1.54082263E+02
 21
-2.54032439E+02
  0
LINE
  8
0
 62
4
 10
1.48486998E+02
 20
-2.50319946E+02
 11
1.54178611E+02
 21
-2.52973989E+02
  0
LINE
  8
0
 62
4
 10
1.61210583E+02
 20
-2.52942918E+02
 11
1.43990735E+02
 21
-2.44913171E+02
  0
LINE
  8
0
 62
4
 10
1.59820586E+02
 20
-2.51191373E+02
 11
1.46225969E+02
 21
-2.44852099E+02
  0
LINE
  8
0
 62
4
 10
1.59520110E+02
 20
-2.56568149E+02
 11
1.42300262E+02
 21
-2.48538402E+02
  0
LINE
  8
0
 62
4
 10
1.38977947E+02
 20
-2.49747626E+02
 11
1.33695219E+02
 21
-2.61076473E+02
  0
LINE
  8
0
  6
CENTER
 62
6
 10
1.56638903E+02
 20
-2.63499954E+02
 11
1.30973855E+02
 21
-2.51532146E+02
  0
LINE
  8
0
 62
4
 10
1.63800043E+02
 20
-2.24910888E+02
 11
1.62663456E+02
 21
-2.25009959E+02
  0
LINE
  8
0
 62
4
 10
1.64454734E+02
 20
-2.25845246E+02
 11
1.63800043E+02
 21
-2.24910888E+02
  0
LINE
  8
0
 62
4
 10
1.56368807E+02
 20
-2.23100713E+02
 11
1.69963424E+02
 21
-2.29439986E+02
  0
ARC
  8
0
 62
4
 10
1.60630396E+02
 20
-2.31708218E+02
 40
7.00000000E+00
 50
3.39976591E+01
 51
9.60023410E+01
  0
LINE
  8
0
 62
4
 10
1.56368807E+02
 20
-2.23100713E+02
 11
1.45803351E+02
 21
-2.45758407E+02
  0
LINE
  8
0
 62
4
 10
1.69963424E+02
 20
-2.29439986E+02
 11
1.59397967E+02
 21
-2.52097681E+02
  0
ARC
  8
0
 62
4
 10
-7.44999580E+01
 20
-1.18965521E+02
 40
1.50000046E+00
 50
1.80000018E+02
 51
2.69999983E+02
  0
ARC
  8
0
 62
4
 10
-3.84999551E+01
 20
-1.18965525E+02
 40
1.49999664E+00
 50
2.69999872E+02
 51
1.28225561E-04
  0
LINE
  8
0
 62
4
 10
-7.34999551E+01
 20
-1.18199738E+02
 11
-5.44999551E+01
 21
-1.18199738E+02
  0
POLYLINE
  8
0
 62
4
 66
1
  0
VERTEX
  8
0
 62
4
 10
-4.48599551E+01
 20
-1.09167241E+02
  0
VERTEX
  8
0
 62
4
 10
-4.48719037E+01
 20
-1.08919213E+02
  0
VERTEX
  8
0
 62
4
 10
-4.49076588E+01
 20
-1.08673072E+02
  0
VERTEX
  8
0
 62
4
 10
-4.49669480E+01
 20
-1.08430692E+02
  0
VERTEX
  8
0
 62
4
 10
-4.50493203E+01
 20
-1.08193918E+02
  0
VERTEX
  8
0
 62
4
 10
-4.51541486E+01
 20
-1.07964551E+02
  0
VERTEX
  8
0
 62
4
 10
-4.52806353E+01
 20
-1.07744338E+02
  0
VERTEX
  8
0
 62
4
 10
-4.54278177E+01
 20
-1.07534953E+02
  0
VERTEX
  8
0
 62
4
 10
-4.55945755E+01
 20
-1.07337992E+02
  0
VERTEX
  8
0
 62
4
 10
-4.57796398E+01
 20
-1.07154952E+02
  0
VERTEX
  8
0
 62
4
 10
-4.59816020E+01
 20
-1.06987227E+02
  0
VERTEX
  8
0
 62
4
 10
-4.61989251E+01
 20
-1.06836093E+02
  0
VERTEX
  8
0
 62
4
 10
-4.64299551E+01
 20
-1.06702700E+02
  0
VERTEX
  8
0
 62
4
 10
-4.66729338E+01
 20
-1.06588064E+02
  0
VERTEX
  8
0
 62
4
 10
-4.69260119E+01
 20
-1.06493058E+02
  0
VERTEX
  8
0
 62
4
 10
-4.71872633E+01
 20
-1.06418403E+02
  0
VERTEX
  8
0
 62
4
 10
-4.74546998E+01
 20
-1.06364669E+02
  0
VERTEX
  8
0
 62
4
 10
-4.77262861E+01
 20
-1.06332264E+02
  0
VERTEX
  8
0
 62
4
 10
-4.79999551E+01
 20
-1.06321435E+02
  0
VERTEX
  8
0
 62
4
 10
-4.82736241E+01
 20
-1.06332264E+02
  0
VERTEX
  8
0
 62
4
 10
-4.85452104E+01
 20
-1.06364669E+02
  0
VERTEX
  8
0
 62
4
 10
-4.88126469E+01
 20
-1.06418403E+02
  0
VERTEX
  8
0
 62
4
 10
-4.90738984E+01
 20
-1.06493058E+02
  0
VERTEX
  8
0
 62
4
 10
-4.93269764E+01
 20
-1.06588064E+02
  0
VERTEX
  8
0
 62
4
 10
-4.95699551E+01
 20
-1.06702700E+02
  0
VERTEX
  8
0
 62
4
 10
-4.98009851E+01
 20
-1.06836093E+02
  0
VERTEX
  8
0
 62
4
 10
-5.00183082E+01
 20
-1.06987227E+02
  0
VERTEX
  8
0
 62
4
 10
-5.02202704E+01
 20
-1.07154952E+02
  0
VERTEX
  8
0
 62
4
 10
-5.04053347E+01
 20
-1.07337992E+02
  0
VERTEX
  8
0
 62
4
 10
-5.05720925E+01
 20
-1.07534953E+02
  0
VERTEX
  8
0
 62
4
 10
-5.07192749E+01
 20
-1.07744338E+02
  0
VERTEX
  8
0
 62
4
 10
-5.08457616E+01
 20
-1.07964551E+02
  0
VERTEX
  8
0
 62
4
 10
-5.09505899E+01
 20
-1.08193918E+02
  0
VERTEX
  8
0
 62
4
 10
-5.10329622E+01
 20
-1.08430692E+02
  0
VERTEX
  8
0
 62
4
 10
-5.10922514E+01
 20
-1.08673072E+02
  0
VERTEX
  8
0
 62
4
 10
-5.11280065E+01
 20
-1.08919213E+02
  0
VERTEX
  8
0
 62
4
 10
-5.11399551E+01
 20
-1.09167241E+02
  0
VERTEX
  8
0
 62
4
 10
-5.11280065E+01
 20
-1.09415269E+02
  0
VERTEX
  8
0
 62
4
 10
-5.10922514E+01
 20
-1.09661410E+02
  0
VERTEX
  8
0
 62
4
 10
-5.10329622E+01
 20
-1.09903790E+02
  0
VERTEX
  8
0
 62
4
 10
-5.09505899E+01
 20
-1.10140564E+02
  0
VERTEX
  8
0
 62
4
 10
-5.08457615E+01
 20
-1.10369931E+02
  0
VERTEX
  8
0
 62
4
 10
-5.07192749E+01
 20
-1.10590144E+02
  0
VERTEX
  8
0
 62
4
 10
-5.05720925E+01
 20
-1.10799529E+02
  0
VERTEX
  8
0
 62
4
 10
-5.04053346E+01
 20
-1.10996490E+02
  0
VERTEX
  8
0
 62
4
 10
-5.02202704E+01
 20
-1.11179530E+02
  0
VERTEX
  8
0
 62
4
 10
-5.00183082E+01
 20
-1.11347255E+02
  0
VERTEX
  8
0
 62
4
 10
-4.98009851E+01
 20
-1.11498389E+02
  0
VERTEX
  8
0
 62
4
 10
-4.95699551E+01
 20
-1.11631782E+02
  0
VERTEX
  8
0
 62
4
 10
-4.93269764E+01
 20
-1.11746418E+02
  0
VERTEX
  8
0
 62
4
 10
-4.90738983E+01
 20
-1.11841424E+02
  0
VERTEX
  8
0
 62
4
 10
-4.88126469E+01
 20
-1.11916079E+02
  0
VERTEX
  8
0
 62
4
 10
-4.85452104E+01
 20
-1.11969813E+02
  0
VERTEX
  8
0
 62
4
 10
-4.82736241E+01
 20
-1.12002218E+02
  0
VERTEX
  8
0
 62
4
 10
-4.79999551E+01
 20
-1.12013047E+02
  0
VERTEX
  8
0
 62
4
 10
-4.77262861E+01
 20
-1.12002218E+02
  0
VERTEX
  8
0
 62
4
 10
-4.74546998E+01
 20
-1.11969813E+02
  0
VERTEX
  8
0
 62
4
 10
-4.71872633E+01
 20
-1.11916079E+02
  0
VERTEX
  8
0
 62
4
 10
-4.69260118E+01
 20
-1.11841424E+02
  0
VERTEX
  8
0
 62
4
 10
-4.66729338E+01
 20
-1.11746418E+02
  0
VERTEX
  8
0
 62
4
 10
-4.64299551E+01
 20
-1.11631782E+02
  0
VERTEX
  8
0
 62
4
 10
-4.61989251E+01
 20
-1.11498389E+02
  0
VERTEX
  8
0
 62
4
 10
-4.59816020E+01
 20
-1.11347255E+02
  0
VERTEX
  8
0
 62
4
 10
-4.57796398E+01
 20
-1.11179530E+02
  0
VERTEX
  8
0
 62
4
 10
-4.55945755E+01
 20
-1.10996490E+02
  0
VERTEX
  8
0
 62
4
 10
-4.54278177E+01
 20
-1.10799529E+02
  0
VERTEX
  8
0
 62
4
 10
-4.52806353E+01
 20
-1.10590144E+02
  0
VERTEX
  8
0
 62
4
 10
-4.51541486E+01
 20
-1.10369931E+02
  0
VERTEX
  8
0
 62
4
 10
-4.50493203E+01
 20
-1.10140564E+02
  0
VERTEX
  8
0
 62
4
 10
-4.49669480E+01
 20
-1.09903790E+02
  0
VERTEX
  8
0
 62
4
 10
-4.49076588E+01
 20
-1.09661410E+02
  0
VERTEX
  8
0
 62
4
 10
-4.48719037E+01
 20
-1.09415269E+02
  0
VERTEX
  8
0
 62
4
 10
-4.48599551E+01
 20
-1.09167241E+02
  0
SEQEND
  8
0
  0
POLYLINE
  8
0
 62
4
 66
1
  0
VERTEX
  8
0
 62
4
 10
-5.01049130E+01
 20
-1.07055572E+02
  0
VERTEX
  8
0
 62
4
 10
-5.03414566E+01
 20
-1.07232173E+02
  0
VERTEX
  8
0
 62
4
 10
-5.05600476E+01
 20
-1.07426851E+02
  0
VERTEX
  8
0
 62
4
 10
-5.07590101E+01
 20
-1.07638113E+02
  0
VERTEX
  8
0
 62
4
 10
-5.09368185E+01
 20
-1.07864339E+02
  0
VERTEX
  8
0
 62
4
 10
-5.10921095E+01
 20
-1.08103795E+02
  0
VERTEX
  8
0
 62
4
 10
-5.12236926E+01
 20
-1.08354644E+02
  0
VERTEX
  8
0
 62
4
 10
-5.13305589E+01
 20
-1.08614964E+02
  0
VERTEX
  8
0
 62
4
 10
-5.14118890E+01
 20
-1.08882759E+02
  0
VERTEX
  8
0
 62
4
 10
-5.14670593E+01
 20
-1.09155976E+02
  0
VERTEX
  8
0
 62
4
 10
-5.14956469E+01
 20
-1.09432519E+02
  0
VERTEX
  8
0
 62
4
 10
-5.14974326E+01
 20
-1.09710268E+02
  0
VERTEX
  8
0
 62
4
 10
-5.14724026E+01
 20
-1.09987094E+02
  0
VERTEX
  8
0
 62
4
 10
-5.14207490E+01
 20
-1.10260875E+02
  0
VERTEX
  8
0
 62
4
 10
-5.13428676E+01
 20
-1.10529510E+02
  0
VERTEX
  8
0
 62
4
 10
-5.12393557E+01
 20
-1.10790941E+02
  0
VERTEX
  8
0
 62
4
 10
-5.11110068E+01
 20
-1.11043164E+02
  0
VERTEX
  8
0
 62
4
 10
-5.09588052E+01
 20
-1.11284243E+02
  0
VERTEX
  8
0
 62
4
 10
-5.07839176E+01
 20
-1.11512332E+02
  0
VERTEX
  8
0
 62
4
 10
-5.05876850E+01
 20
-1.11725681E+02
  0
VERTEX
  8
0
 62
4
 10
-5.03716119E+01
 20
-1.11922654E+02
  0
VERTEX
  8
0
 62
4
 10
-5.01373551E+01
 20
-1.12101741E+02
  0
VERTEX
  8
0
 62
4
 10
-4.98867105E+01
 20
-1.12261569E+02
  0
VERTEX
  8
0
 62
4
 10
-4.96215999E+01
 20
-1.12400913E+02
  0
VERTEX
  8
0
 62
4
 10
-4.93440559E+01
 20
-1.12518704E+02
  0
VERTEX
  8
0
 62
4
 10
-4.90562066E+01
 20
-1.12614040E+02
  0
VERTEX
  8
0
 62
4
 10
-4.87602588E+01
 20
-1.12686188E+02
  0
VERTEX
  8
0
 62
4
 10
-4.84584816E+01
 20
-1.12734597E+02
  0
VERTEX
  8
0
 62
4
 10
-4.81531889E+01
 20
-1.12758894E+02
  0
VERTEX
  8
0
 62
4
 10
-4.78467213E+01
 20
-1.12758894E+02
  0
VERTEX
  8
0
 62
4
 10
-4.75414286E+01
 20
-1.12734597E+02
  0
VERTEX
  8
0
 62
4
 10
-4.72396515E+01
 20
-1.12686188E+02
  0
VERTEX
  8
0
 62
4
 10
-4.69437037E+01
 20
-1.12614040E+02
  0
VERTEX
  8
0
 62
4
 10
-4.66558543E+01
 20
-1.12518704E+02
  0
VERTEX
  8
0
 62
4
 10
-4.63783104E+01
 20
-1.12400913E+02
  0
VERTEX
  8
0
 62
4
 10
-4.61131998E+01
 20
-1.12261569E+02
  0
VERTEX
  8
0
 62
4
 10
-4.58625552E+01
 20
-1.12101741E+02
  0
VERTEX
  8
0
 62
4
 10
-4.56282983E+01
 20
-1.11922654E+02
  0
VERTEX
  8
0
 62
4
 10
-4.54122252E+01
 20
-1.11725681E+02
  0
VERTEX
  8
0
 62
4
 10
-4.52159926E+01
 20
-1.11512332E+02
  0
VERTEX
  8
0
 62
4
 10
-4.50411051E+01
 20
-1.11284243E+02
  0
VERTEX
  8
0
 62
4
 10
-4.48889034E+01
 20
-1.11043164E+02
  0
VERTEX
  8
0
 62
4
 10
-4.47605545E+01
 20
-1.10790941E+02
  0
VERTEX
  8
0
 62
4
 10
-4.46570426E+01
 20
-1.10529510E+02
  0
VERTEX
  8
0
 62
4
 10
-4.45791613E+01
 20
-1.10260875E+02
  0
VERTEX
  8
0
 62
4
 10
-4.45275076E+01
 20
-1.09987094E+02
  0
VERTEX
  8
0
 62
4
 10
-4.45024776E+01
 20
-1.09710268E+02
  0
VERTEX
  8
0
 62
4
 10
-4.45042633E+01
 20
-1.09432519E+02
  0
VERTEX
  8
0
 62
4
 10
-4.45328509E+01
 20
-1.09155976E+02
  0
VERTEX
  8
0
 62
4
 10
-4.45880212E+01
 20
-1.08882759E+02
  0
VERTEX
  8
0
 62
4
 10
-4.46693513E+01
 20
-1.08614965E+02
  0
VERTEX
  8
0
 62
4
 10
-4.47762176E+01
 20
-1.08354644E+02
  0
VERTEX
  8
0
 62
4
 10
-4.49078007E+01
 20
-1.08103795E+02
  0
VERTEX
  8
0
 62
4
 10
-4.50630917E+01
 20
-1.07864339E+02
  0
VERTEX
  8
0
 62
4
 10
-4.52409001E+01
 20
-1.07638113E+02
  0
VERTEX
  8
0
 62
4
 10
-4.54398625E+01
 20
-1.07426851E+02
  0
VERTEX
  8
0
 62
4
 10
-4.56584535E+01
 20
-1.07232173E+02
  0
VERTEX
  8
0
 62
4
 10
-4.58949971E+01
 20
-1.07055572E+02
  0
SEQEND
  8
0
  0
LINE
  8
0
 62
4
 10
-6.09909946E+01
 20
-1.26804796E+02
 11
-3.84999551E+01
 21
-1.26804796E+02
  0
ARC
  8
0
 62
4
 10
-5.97643601E+01
 20
-1.15380859E+02
 40
1.21769740E+01
 50
2.40462101E+02
 51
2.58262147E+02
  0
ARC
  8
0
 62
4
 10
-6.82355501E+01
 20
-1.15380859E+02
 40
1.21769740E+01
 50
2.81737853E+02
 51
2.99537899E+02
  0
POLYLINE
  8
0
 62
4
 66
1
  0
VERTEX
  8
0
 62
4
 10
-6.05999551E+01
 20
-1.26052814E+02
  0
VERTEX
  8
0
 62
4
 10
-6.06128931E+01
 20
-1.25912054E+02
  0
VERTEX
  8
0
 62
4
 10
-6.06516087E+01
 20
-1.25772366E+02
  0
VERTEX
  8
0
 62
4
 10
-6.07158073E+01
 20
-1.25634812E+02
  0
VERTEX
  8
0
 62
4
 10
-6.08050002E+01
 20
-1.25500439E+02
  0
VERTEX
  8
0
 62
4
 10
-6.09185086E+01
 20
-1.25370270E+02
  0
VERTEX
  8
0
 62
4
 10
-6.10554687E+01
 20
-1.25245296E+02
  0
VERTEX
  8
0
 62
4
 10
-6.12148381E+01
 20
-1.25126468E+02
  0
VERTEX
  8
0
 62
4
 10
-6.13954040E+01
 20
-1.25014689E+02
  0
VERTEX
  8
0
 62
4
 10
-6.15957920E+01
 20
-1.24910811E+02
  0
VERTEX
  8
0
 62
4
 10
-6.18144772E+01
 20
-1.24815625E+02
  0
VERTEX
  8
0
 62
4
 10
-6.20497952E+01
 20
-1.24729854E+02
  0
VERTEX
  8
0
 62
4
 10
-6.22999551E+01
 20
-1.24654152E+02
  0
VERTEX
  8
0
 62
4
 10
-6.25630530E+01
 20
-1.24589095E+02
  0
VERTEX
  8
0
 62
4
 10
-6.28370866E+01
 20
-1.24535177E+02
  0
VERTEX
  8
0
 62
4
 10
-6.31199703E+01
 20
-1.24492809E+02
  0
VERTEX
  8
0
 62
4
 10
-6.34095513E+01
 20
-1.24462314E+02
  0
VERTEX
  8
0
 62
4
 10
-6.37036256E+01
 20
-1.24443924E+02
  0
VERTEX
  8
0
 62
4
 10
-6.39999551E+01
 20
-1.24437778E+02
  0
VERTEX
  8
0
 62
4
 10
-6.42962846E+01
 20
-1.24443924E+02
  0
VERTEX
  8
0
 62
4
 10
-6.45903589E+01
 20
-1.24462314E+02
  0
VERTEX
  8
0
 62
4
 10
-6.48799399E+01
 20
-1.24492809E+02
  0
VERTEX
  8
0
 62
4
 10
-6.51628236E+01
 20
-1.24535177E+02
  0
VERTEX
  8
0
 62
4
 10
-6.54368572E+01
 20
-1.24589095E+02
  0
VERTEX
  8
0
 62
4
 10
-6.56999551E+01
 20
-1.24654152E+02
  0
VERTEX
  8
0
 62
4
 10
-6.59501150E+01
 20
-1.24729854E+02
  0
VERTEX
  8
0
 62
4
 10
-6.61854330E+01
 20
-1.24815625E+02
  0
VERTEX
  8
0
 62
4
 10
-6.64041182E+01
 20
-1.24910811E+02
  0
VERTEX
  8
0
 62
4
 10
-6.66045062E+01
 20
-1.25014689E+02
  0
VERTEX
  8
0
 62
4
 10
-6.67850721E+01
 20
-1.25126468E+02
  0
VERTEX
  8
0
 62
4
 10
-6.69444415E+01
 20
-1.25245296E+02
  0
VERTEX
  8
0
 62
4
 10
-6.70814016E+01
 20
-1.25370270E+02
  0
VERTEX
  8
0
 62
4
 10
-6.71949100E+01
 20
-1.25500439E+02
  0
VERTEX
  8
0
 62
4
 10
-6.72841029E+01
 20
-1.25634812E+02
  0
VERTEX
  8
0
 62
4
 10
-6.73483015E+01
 20
-1.25772366E+02
  0
VERTEX
  8
0
 62
4
 10
-6.73870171E+01
 20
-1.25912054E+02
  0
VERTEX
  8
0
 62
4
 10
-6.73999551E+01
 20
-1.26052814E+02
  0
VERTEX
  8
0
 62
4
 10
-6.73870171E+01
 20
-1.26193574E+02
  0
VERTEX
  8
0
 62
4
 10
-6.73483015E+01
 20
-1.26333262E+02
  0
VERTEX
  8
0
 62
4
 10
-6.72841029E+01
 20
-1.26470816E+02
  0
VERTEX
  8
0
 62
4
 10
-6.71949100E+01
 20
-1.26605189E+02
  0
VERTEX
  8
0
 62
4
 10
-6.70814016E+01
 20
-1.26735358E+02
  0
VERTEX
  8
0
 62
4
 10
-6.69444415E+01
 20
-1.26860332E+02
  0
VERTEX
  8
0
 62
4
 10
-6.67850720E+01
 20
-1.26979160E+02
  0
VERTEX
  8
0
 62
4
 10
-6.66045062E+01
 20
-1.27090939E+02
  0
VERTEX
  8
0
 62
4
 10
-6.64041182E+01
 20
-1.27194817E+02
  0
VERTEX
  8
0
 62
4
 10
-6.61854330E+01
 20
-1.27290003E+02
  0
VERTEX
  8
0
 62
4
 10
-6.59501150E+01
 20
-1.27375774E+02
  0
VERTEX
  8
0
 62
4
 10
-6.56999551E+01
 20
-1.27451476E+02
  0
VERTEX
  8
0
 62
4
 10
-6.54368572E+01
 20
-1.27516533E+02
  0
VERTEX
  8
0
 62
4
 10
-6.51628236E+01
 20
-1.27570451E+02
  0
VERTEX
  8
0
 62
4
 10
-6.48799398E+01
 20
-1.27612819E+02
  0
VERTEX
  8
0
 62
4
 10
-6.45903589E+01
 20
-1.27643314E+02
  0
VERTEX
  8
0
 62
4
 10
-6.42962846E+01
 20
-1.27661704E+02
  0
VERTEX
  8
0
 62
4
 10
-6.39999551E+01
 20
-1.27667850E+02
  0
VERTEX
  8
0
 62
4
 10
-6.37036256E+01
 20
-1.27661704E+02
  0
VERTEX
  8
0
 62
4
 10
-6.34095513E+01
 20
-1.27643314E+02
  0
VERTEX
  8
0
 62
4
 10
-6.31199703E+01
 20
-1.27612819E+02
  0
VERTEX
  8
0
 62
4
 10
-6.28370866E+01
 20
-1.27570451E+02
  0
VERTEX
  8
0
 62
4
 10
-6.25630530E+01
 20
-1.27516533E+02
  0
VERTEX
  8
0
 62
4
 10
-6.22999551E+01
 20
-1.27451476E+02
  0
VERTEX
  8
0
 62
4
 10
-6.20497952E+01
 20
-1.27375774E+02
  0
VERTEX
  8
0
 62
4
 10
-6.18144772E+01
 20
-1.27290003E+02
  0
VERTEX
  8
0
 62
4
 10
-6.15957920E+01
 20
-1.27194817E+02
  0
VERTEX
  8
0
 62
4
 10
-6.13954040E+01
 20
-1.27090939E+02
  0
VERTEX
  8
0
 62
4
 10
-6.12148381E+01
 20
-1.26979160E+02
  0
VERTEX
  8
0
 62
4
 10
-6.10554687E+01
 20
-1.26860332E+02
  0
VERTEX
  8
0
 62
4
 10
-6.09185086E+01
 20
-1.26735358E+02
  0
VERTEX
  8
0
 62
4
 10
-6.08050002E+01
 20
-1.26605189E+02
  0
VERTEX
  8
0
 62
4
 10
-6.07158073E+01
 20
-1.26470816E+02
  0
VERTEX
  8
0
 62
4
 10
-6.06516087E+01
 20
-1.26333262E+02
  0
VERTEX
  8
0
 62
4
 10
-6.06128931E+01
 20
-1.26193574E+02
  0
VERTEX
  8
0
 62
4
 10
-6.05999551E+01
 20
-1.26052814E+02
  0
SEQEND
  8
0
  0
POLYLINE
  8
0
 62
4
 66
1
  0
VERTEX
  8
0
 62
4
 10
-6.05999551E+01
 20
-1.24088313E+02
  0
VERTEX
  8
0
 62
4
 10
-6.06136425E+01
 20
-1.23959510E+02
  0
VERTEX
  8
0
 62
4
 10
-6.06545945E+01
 20
-1.23831744E+02
  0
VERTEX
  8
0
 62
4
 10
-6.07224814E+01
 20
-1.23706044E+02
  0
VERTEX
  8
0
 62
4
 10
-6.08167565E+01
 20
-1.23583422E+02
  0
VERTEX
  8
0
 62
4
 10
-6.09366609E+01
 20
-1.23464865E+02
  0
VERTEX
  8
0
 62
4
 10
-6.10812292E+01
 20
-1.23351327E+02
  0
VERTEX
  8
0
 62
4
 10
-6.12492973E+01
 20
-1.23243723E+02
  0
VERTEX
  8
0
 62
4
 10
-6.14395121E+01
 20
-1.23142919E+02
  0
VERTEX
  8
0
 62
4
 10
-6.16503421E+01
 20
-1.23049728E+02
  0
VERTEX
  8
0
 62
4
 10
-6.18800898E+01
 20
-1.22964898E+02
  0
VERTEX
  8
0
 62
4
 10
-6.21269054E+01
 20
-1.22889113E+02
  0
VERTEX
  8
0
 62
4
 10
-6.23888016E+01
 20
-1.22822983E+02
  0
VERTEX
  8
0
 62
4
 10
-6.26636700E+01
 20
-1.22767042E+02
  0
VERTEX
  8
0
 62
4
 10
-6.29492973E+01
 20
-1.22721738E+02
  0
VERTEX
  8
0
 62
4
 10
-6.32433839E+01
 20
-1.22687437E+02
  0
VERTEX
  8
0
 62
4
 10
-6.35435620E+01
 20
-1.22664415E+02
  0
VERTEX
  8
0
 62
4
 10
-6.38474147E+01
 20
-1.22652858E+02
  0
VERTEX
  8
0
 62
4
 10
-6.41524955E+01
 20
-1.22652858E+02
  0
VERTEX
  8
0
 62
4
 10
-6.44563482E+01
 20
-1.22664415E+02
  0
VERTEX
  8
0
 62
4
 10
-6.47565263E+01
 20
-1.22687437E+02
  0
VERTEX
  8
0
 62
4
 10
-6.50506129E+01
 20
-1.22721738E+02
  0
VERTEX
  8
0
 62
4
 10
-6.53362402E+01
 20
-1.22767042E+02
  0
VERTEX
  8
0
 62
4
 10
-6.56111085E+01
 20
-1.22822983E+02
  0
VERTEX
  8
0
 62
4
 10
-6.58730048E+01
 20
-1.22889113E+02
  0
VERTEX
  8
0
 62
4
 10
-6.61198204E+01
 20
-1.22964898E+02
  0
VERTEX
  8
0
 62
4
 10
-6.63495681E+01
 20
-1.23049728E+02
  0
VERTEX
  8
0
 62
4
 10
-6.65603981E+01
 20
-1.23142919E+02
  0
VERTEX
  8
0
 62
4
 10
-6.67506129E+01
 20
-1.23243723E+02
  0
VERTEX
  8
0
 62
4
 10
-6.69186810E+01
 20
-1.23351327E+02
  0
VERTEX
  8
0
 62
4
 10
-6.70632492E+01
 20
-1.23464865E+02
  0
VERTEX
  8
0
 62
4
 10
-6.71831537E+01
 20
-1.23583422E+02
  0
VERTEX
  8
0
 62
4
 10
-6.72774288E+01
 20
-1.23706044E+02
  0
VERTEX
  8
0
 62
4
 10
-6.73453157E+01
 20
-1.23831744E+02
  0
VERTEX
  8
0
 62
4
 10
-6.73862677E+01
 20
-1.23959510E+02
  0
VERTEX
  8
0
 62
4
 10
-6.73999551E+01
 20
-1.24088313E+02
  0
SEQEND
  8
0
  0
LINE
  8
0
 62
4
 10
-6.73999551E+01
 20
-1.24088313E+02
 11
-6.73999551E+01
 21
-1.26052814E+02
  0
LINE
  8
0
 62
4
 10
-6.05999551E+01
 20
-1.24088313E+02
 11
-6.05999551E+01
 21
-1.26052814E+02
  0
LINE
  8
0
 62
4
 10
-6.79999551E+01
 20
-1.23635159E+02
 11
-6.79999551E+01
 21
-1.24088313E+02
  0
LINE
  8
0
 62
4
 10
-5.99999551E+01
 20
-1.23635159E+02
 11
-5.99999551E+01
 21
-1.24088313E+02
  0
POLYLINE
  8
0
 62
4
 66
1
  0
VERTEX
  8
0
 62
4
 10
-5.99999551E+01
 20
-1.23635159E+02
  0
VERTEX
  8
0
 62
4
 10
-6.00160579E+01
 20
-1.23483626E+02
  0
VERTEX
  8
0
 62
4
 10
-6.00642367E+01
 20
-1.23333313E+02
  0
VERTEX
  8
0
 62
4
 10
-6.01441037E+01
 20
-1.23185431E+02
  0
VERTEX
  8
0
 62
4
 10
-6.02550156E+01
 20
-1.23041169E+02
  0
VERTEX
  8
0
 62
4
 10
-6.03960796E+01
 20
-1.22901690E+02
  0
VERTEX
  8
0
 62
4
 10
-6.05661599E+01
 20
-1.22768117E+02
  0
VERTEX
  8
0
 62
4
 10
-6.07638871E+01
 20
-1.22641524E+02
  0
VERTEX
  8
0
 62
4
 10
-6.09876692E+01
 20
-1.22522931E+02
  0
VERTEX
  8
0
 62
4
 10
-6.12357045E+01
 20
-1.22413294E+02
  0
VERTEX
  8
0
 62
4
 10
-6.15059959E+01
 20
-1.22313494E+02
  0
VERTEX
  8
0
 62
4
 10
-6.17963672E+01
 20
-1.22224335E+02
  0
VERTEX
  8
0
 62
4
 10
-6.21044804E+01
 20
-1.22146536E+02
  0
VERTEX
  8
0
 62
4
 10
-6.24278550E+01
 20
-1.22080722E+02
  0
VERTEX
  8
0
 62
4
 10
-6.27638871E+01
 20
-1.22027424E+02
  0
VERTEX
  8
0
 62
4
 10
-6.31098714E+01
 20
-1.21987070E+02
  0
VERTEX
  8
0
 62
4
 10
-6.34630220E+01
 20
-1.21959985E+02
  0
VERTEX
  8
0
 62
4
 10
-6.38204958E+01
 20
-1.21946388E+02
  0
VERTEX
  8
0
 62
4
 10
-6.41794144E+01
 20
-1.21946388E+02
  0
VERTEX
  8
0
 62
4
 10
-6.45368882E+01
 20
-1.21959985E+02
  0
VERTEX
  8
0
 62
4
 10
-6.48900388E+01
 20
-1.21987070E+02
  0
VERTEX
  8
0
 62
4
 10
-6.52360231E+01
 20
-1.22027424E+02
  0
VERTEX
  8
0
 62
4
 10
-6.55720552E+01
 20
-1.22080722E+02
  0
VERTEX
  8
0
 62
4
 10
-6.58954297E+01
 20
-1.22146536E+02
  0
VERTEX
  8
0
 62
4
 10
-6.62035430E+01
 20
-1.22224335E+02
  0
VERTEX
  8
0
 62
4
 10
-6.64939143E+01
 20
-1.22313494E+02
  0
VERTEX
  8
0
 62
4
 10
-6.67642057E+01
 20
-1.22413294E+02
  0
VERTEX
  8
0
 62
4
 10
-6.70122410E+01
 20
-1.22522931E+02
  0
VERTEX
  8
0
 62
4
 10
-6.72360231E+01
 20
-1.22641524E+02
  0
VERTEX
  8
0
 62
4
 10
-6.74337503E+01
 20
-1.22768117E+02
  0
VERTEX
  8
0
 62
4
 10
-6.76038306E+01
 20
-1.22901690E+02
  0
VERTEX
  8
0
 62
4
 10
-6.77448946E+01
 20
-1.23041169E+02
  0
VERTEX
  8
0
 62
4
 10
-6.78558065E+01
 20
-1.23185431E+02
  0
VERTEX
  8
0
 62
4
 10
-6.79356735E+01
 20
-1.23333313E+02
  0
VERTEX
  8
0
 62
4
 10
-6.79838523E+01
 20
-1.23483626E+02
  0
VERTEX
  8
0
 62
4
 10
-6.79999551E+01
 20
-1.23635159E+02
  0
SEQEND
  8
0
  0
POLYLINE
  8
0
 62
4
 66
1
  0
VERTEX
  8
0
 62
4
 10
-6.05999551E+01
 20
-1.24978825E+02
  0
VERTEX
  8
0
 62
4
 10
-6.04269031E+01
 20
-1.24848239E+02
  0
VERTEX
  8
0
 62
4
 10
-6.02818601E+01
 20
-1.24711696E+02
  0
VERTEX
  8
0
 62
4
 10
-6.01659633E+01
 20
-1.24570266E+02
  0
VERTEX
  8
0
 62
4
 10
-6.00801210E+01
 20
-1.24425058E+02
  0
VERTEX
  8
0
 62
4
 10
-6.00250062E+01
 20
-1.24277210E+02
  0
VERTEX
  8
0
 62
4
 10
-6.00010510E+01
 20
-1.24127882E+02
  0
VERTEX
  8
0
 62
4
 10
-6.00084432E+01
 20
-1.23978243E+02
  0
VERTEX
  8
0
 62
4
 10
-6.00471247E+01
 20
-1.23829468E+02
  0
VERTEX
  8
0
 62
4
 10
-6.01167924E+01
 20
-1.23682721E+02
  0
VERTEX
  8
0
 62
4
 10
-6.02169001E+01
 20
-1.23539154E+02
  0
VERTEX
  8
0
 62
4
 10
-6.03466632E+01
 20
-1.23399892E+02
  0
VERTEX
  8
0
 62
4
 10
-6.05050643E+01
 20
-1.23266026E+02
  0
VERTEX
  8
0
 62
4
 10
-6.06908618E+01
 20
-1.23138606E+02
  0
VERTEX
  8
0
 62
4
 10
-6.09025993E+01
 20
-1.23018631E+02
  0
VERTEX
  8
0
 62
4
 10
-6.11386169E+01
 20
-1.22907041E+02
  0
VERTEX
  8
0
 62
4
 10
-6.13970644E+01
 20
-1.22804711E+02
  0
VERTEX
  8
0
 62
4
 10
-6.16759160E+01
 20
-1.22712443E+02
  0
VERTEX
  8
0
 62
4
 10
-6.19729856E+01
 20
-1.22630960E+02
  0
VERTEX
  8
0
 62
4
 10
-6.22859447E+01
 20
-1.22560902E+02
  0
VERTEX
  8
0
 62
4
 10
-6.26123398E+01
 20
-1.22502817E+02
  0
VERTEX
  8
0
 62
4
 10
-6.29496125E+01
 20
-1.22457161E+02
  0
VERTEX
  8
0
 62
4
 10
-6.32951187E+01
 20
-1.22424291E+02
  0
VERTEX
  8
0
 62
4
 10
-6.36461502E+01
 20
-1.22404466E+02
  0
VERTEX
  8
0
 62
4
 10
-6.39999551E+01
 20
-1.22397840E+02
  0
VERTEX
  8
0
 62
4
 10
-6.43537600E+01
 20
-1.22404466E+02
  0
VERTEX
  8
0
 62
4
 10
-6.47047915E+01
 20
-1.22424291E+02
  0
VERTEX
  8
0
 62
4
 10
-6.50502977E+01
 20
-1.22457161E+02
  0
VERTEX
  8
0
 62
4
 10
-6.53875703E+01
 20
-1.22502817E+02
  0
VERTEX
  8
0
 62
4
 10
-6.57139655E+01
 20
-1.22560902E+02
  0
VERTEX
  8
0
 62
4
 10
-6.60269245E+01
 20
-1.22630960E+02
  0
VERTEX
  8
0
 62
4
 10
-6.63239942E+01
 20
-1.22712443E+02
  0
VERTEX
  8
0
 62
4
 10
-6.66028458E+01
 20
-1.22804711E+02
  0
VERTEX
  8
0
 62
4
 10
-6.68612933E+01
 20
-1.22907041E+02
  0
VERTEX
  8
0
 62
4
 10
-6.70973109E+01
 20
-1.23018631E+02
  0
VERTEX
  8
0
 62
4
 10
-6.73090483E+01
 20
-1.23138606E+02
  0
VERTEX
  8
0
 62
4
 10
-6.74948459E+01
 20
-1.23266026E+02
  0
VERTEX
  8
0
 62
4
 10
-6.76532470E+01
 20
-1.23399892E+02
  0
VERTEX
  8
0
 62
4
 10
-6.77830101E+01
 20
-1.23539154E+02
  0
VERTEX
  8
0
 62
4
 10
-6.78831178E+01
 20
-1.23682721E+02
  0
VERTEX
  8
0
 62
4
 10
-6.79527855E+01
 20
-1.23829468E+02
  0
VERTEX
  8
0
 62
4
 10
-6.79914670E+01
 20
-1.23978243E+02
  0
VERTEX
  8
0
 62
4
 10
-6.79988592E+01
 20
-1.24127882E+02
  0
VERTEX
  8
0
 62
4
 10
-6.79749040E+01
 20
-1.24277210E+02
  0
VERTEX
  8
0
 62
4
 10
-6.79197892E+01
 20
-1.24425058E+02
  0
VERTEX
  8
0
 62
4
 10
-6.78339469E+01
 20
-1.24570266E+02
  0
VERTEX
  8
0
 62
4
 10
-6.77180501E+01
 20
-1.24711696E+02
  0
VERTEX
  8
0
 62
4
 10
-6.75730071E+01
 20
-1.24848239E+02
  0
VERTEX
  8
0
 62
4
 10
-6.73999551E+01
 20
-1.24978825E+02
  0
SEQEND
  8
0
  0
LINE
  8
0
  6
CENTER
 62
6
 10
-4.79999551E+01
 20
-1.03558224E+02
 11
-4.79999551E+01
 21
-1.14776257E+02
  0
LINE
  8
0
  6
CENTER
 62
6
 10
-5.36089718E+01
 20
-1.09167241E+02
 11
-4.23909383E+01
 21
-1.09167241E+02
  0
POLYLINE
  8
0
 62
4
 66
1
  0
VERTEX
  8
0
 62
4
 10
-6.09999551E+01
 20
-9.73338988E+01
  0
VERTEX
  8
0
 62
4
 10
-6.10113710E+01
 20
-9.70969290E+01
  0
VERTEX
  8
0
 62
4
 10
-6.10455318E+01
 20
-9.68617627E+01
  0
VERTEX
  8
0
 62
4
 10
-6.11021776E+01
 20
-9.66301897E+01
  0
VERTEX
  8
0
 62
4
 10
-6.11808772E+01
 20
-9.64039722E+01
  0
VERTEX
  8
0
 62
4
 10
-6.12810317E+01
 20
-9.61848321E+01
  0
VERTEX
  8
0
 62
4
 10
-6.14018789E+01
 20
-9.59744371E+01
  0
VERTEX
  8
0
 62
4
 10
-6.15424990E+01
 20
-9.57743884E+01
  0
VERTEX
  8
0
 62
4
 10
-6.17018218E+01
 20
-9.55862086E+01
  0
VERTEX
  8
0
 62
4
 10
-6.18786348E+01
 20
-9.54113297E+01
  0
VERTEX
  8
0
 62
4
 10
-6.20715923E+01
 20
-9.52510827E+01
  0
VERTEX
  8
0
 62
4
 10
-6.22792258E+01
 20
-9.51066872E+01
  0
VERTEX
  8
0
 62
4
 10
-6.24999551E+01
 20
-9.49792421E+01
  0
VERTEX
  8
0
 62
4
 10
-6.27321003E+01
 20
-9.48697174E+01
  0
VERTEX
  8
0
 62
4
 10
-6.29738947E+01
 20
-9.47789466E+01
  0
VERTEX
  8
0
 62
4
 10
-6.32234980E+01
 20
-9.47076205E+01
  0
VERTEX
  8
0
 62
4
 10
-6.34790106E+01
 20
-9.46562820E+01
  0
VERTEX
  8
0
 62
4
 10
-6.37384879E+01
 20
-9.46253218E+01
  0
VERTEX
  8
0
 62
4
 10
-6.39999551E+01
 20
-9.46149754E+01
  0
VERTEX
  8
0
 62
4
 10
-6.42614223E+01
 20
-9.46253218E+01
  0
VERTEX
  8
0
 62
4
 10
-6.45208996E+01
 20
-9.46562820E+01
  0
VERTEX
  8
0
 62
4
 10
-6.47764122E+01
 20
-9.47076205E+01
  0
VERTEX
  8
0
 62
4
 10
-6.50260155E+01
 20
-9.47789466E+01
  0
VERTEX
  8
0
 62
4
 10
-6.52678099E+01
 20
-9.48697174E+01
  0
VERTEX
  8
0
 62
4
 10
-6.54999551E+01
 20
-9.49792421E+01
  0
VERTEX
  8
0
 62
4
 10
-6.57206844E+01
 20
-9.51066872E+01
  0
VERTEX
  8
0
 62
4
 10
-6.59283179E+01
 20
-9.52510827E+01
  0
VERTEX
  8
0
 62
4
 10
-6.61212754E+01
 20
-9.54113297E+01
  0
VERTEX
  8
0
 62
4
 10
-6.62980884E+01
 20
-9.55862086E+01
  0
VERTEX
  8
0
 62
4
 10
-6.64574112E+01
 20
-9.57743884E+01
  0
VERTEX
  8
0
 62
4
 10
-6.65980313E+01
 20
-9.59744371E+01
  0
VERTEX
  8
0
 62
4
 10
-6.67188785E+01
 20
-9.61848321E+01
  0
VERTEX
  8
0
 62
4
 10
-6.68190330E+01
 20
-9.64039722E+01
  0
VERTEX
  8
0
 62
4
 10
-6.68977326E+01
 20
-9.66301897E+01
  0
VERTEX
  8
0
 62
4
 10
-6.69543784E+01
 20
-9.68617627E+01
  0
VERTEX
  8
0
 62
4
 10
-6.69885392E+01
 20
-9.70969290E+01
  0
VERTEX
  8
0
 62
4
 10
-6.69999551E+01
 20
-9.73338988E+01
  0
VERTEX
  8
0
 62
4
 10
-6.69885392E+01
 20
-9.75708686E+01
  0
VERTEX
  8
0
 62
4
 10
-6.69543784E+01
 20
-9.78060349E+01
  0
VERTEX
  8
0
 62
4
 10
-6.68977326E+01
 20
-9.80376080E+01
  0
VERTEX
  8
0
 62
4
 10
-6.68190330E+01
 20
-9.82638254E+01
  0
VERTEX
  8
0
 62
4
 10
-6.67188785E+01
 20
-9.84829655E+01
  0
VERTEX
  8
0
 62
4
 10
-6.65980313E+01
 20
-9.86933605E+01
  0
VERTEX
  8
0
 62
4
 10
-6.64574112E+01
 20
-9.88934092E+01
  0
VERTEX
  8
0
 62
4
 10
-6.62980884E+01
 20
-9.90815891E+01
  0
VERTEX
  8
0
 62
4
 10
-6.61212754E+01
 20
-9.92564679E+01
  0
VERTEX
  8
0
 62
4
 10
-6.59283179E+01
 20
-9.94167149E+01
  0
VERTEX
  8
0
 62
4
 10
-6.57206844E+01
 20
-9.95611104E+01
  0
VERTEX
  8
0
 62
4
 10
-6.54999551E+01
 20
-9.96885555E+01
  0
VERTEX
  8
0
 62
4
 10
-6.52678099E+01
 20
-9.97980802E+01
  0
VERTEX
  8
0
 62
4
 10
-6.50260155E+01
 20
-9.98888510E+01
  0
VERTEX
  8
0
 62
4
 10
-6.47764122E+01
 20
-9.99601771E+01
  0
VERTEX
  8
0
 62
4
 10
-6.45208996E+01
 20
-1.00011516E+02
  0
VERTEX
  8
0
 62
4
 10
-6.42614223E+01
 20
-1.00042476E+02
  0
VERTEX
  8
0
 62
4
 10
-6.39999551E+01
 20
-1.00052822E+02
  0
VERTEX
  8
0
 62
4
 10
-6.37384879E+01
 20
-1.00042476E+02
  0
VERTEX
  8
0
 62
4
 10
-6.34790106E+01
 20
-1.00011516E+02
  0
VERTEX
  8
0
 62
4
 10
-6.32234980E+01
 20
-9.99601771E+01
  0
VERTEX
  8
0
 62
4
 10
-6.29738947E+01
 20
-9.98888510E+01
  0
VERTEX
  8
0
 62
4
 10
-6.27321003E+01
 20
-9.97980802E+01
  0
VERTEX
  8
0
 62
4
 10
-6.24999551E+01
 20
-9.96885555E+01
  0
VERTEX
  8
0
 62
4
 10
-6.22792258E+01
 20
-9.95611104E+01
  0
VERTEX
  8
0
 62
4
 10
-6.20715923E+01
 20
-9.94167149E+01
  0
VERTEX
  8
0
 62
4
 10
-6.18786348E+01
 20
-9.92564679E+01
  0
VERTEX
  8
0
 62
4
 10
-6.17018218E+01
 20
-9.90815890E+01
  0
VERTEX
  8
0
 62
4
 10
-6.15424990E+01
 20
-9.88934092E+01
  0
VERTEX
  8
0
 62
4
 10
-6.14018789E+01
 20
-9.86933605E+01
  0
VERTEX
  8
0
 62
4
 10
-6.12810317E+01
 20
-9.84829655E+01
  0
VERTEX
  8
0
 62
4
 10
-6.11808772E+01
 20
-9.82638254E+01
  0
VERTEX
  8
0
 62
4
 10
-6.11021776E+01
 20
-9.80376079E+01
  0
VERTEX
  8
0
 62
4
 10
-6.10455318E+01
 20
-9.78060349E+01
  0
VERTEX
  8
0
 62
4
 10
-6.10113710E+01
 20
-9.75708686E+01
  0
VERTEX
  8
0
 62
4
 10
-6.09999551E+01
 20
-9.73338988E+01
  0
SEQEND
  8
0
  0
LINE
  8
0
  6
CENTER
 62
6
 10
-6.95009626E+01
 20
-9.73338988E+01
 11
-5.84989476E+01
 21
-9.73338988E+01
  0
LINE
  8
0
 62
4
 10
-9.09999551E+01
 20
-1.07349654E+02
 11
-8.59999551E+01
 21
-1.07349654E+02
  0
LINE
  8
0
 62
4
 10
-9.09999551E+01
 20
-1.04175790E+02
 11
-8.59999551E+01
 21
-1.04175790E+02
  0
LINE
  8
0
 62
4
 10
-9.09999551E+01
 20
-9.66999714E+01
 11
-8.59999551E+01
 21
-9.66999714E+01
  0
LINE
  8
0
 62
4
 10
-7.44999551E+01
 20
-1.20465522E+02
 11
-3.84999551E+01
 21
-1.20465522E+02
  0
LINE
  8
0
 62
4
 10
-5.44999551E+01
 20
-9.95364540E+01
 11
-3.84999551E+01
 21
-9.95364540E+01
  0
ARC
  8
0
 62
4
 10
-7.44999546E+01
 20
-1.25304795E+02
 40
1.50000046E+00
 50
1.80000018E+02
 51
2.69999983E+02
  0
ARC
  8
0
 62
4
 10
-8.04999555E+01
 20
-9.33696102E+01
 40
4.99999542E-01
 50
8.99999475E+01
 51
1.80000053E+02
  0
ARC
  8
0
 62
4
 10
-8.04999508E+01
 20
-1.06369606E+02
 40
5.00004272E-01
 50
1.80000490E+02
 51
2.69999511E+02
  0
ARC
  8
0
 62
4
 10
-3.84999517E+01
 20
-1.25304799E+02
 40
1.49999664E+00
 50
2.69999872E+02
 51
1.28225561E-04
  0
ARC
  8
0
 62
4
 10
-3.84999584E+01
 20
-1.01036457E+02
 40
1.50000336E+00
 50
1.28225275E-04
 51
8.99998718E+01
  0
LINE
  8
0
 62
4
 10
-5.44999551E+01
 20
-9.92894313E+01
 11
-5.64999551E+01
 21
-9.92894313E+01
  0
LINE
  8
0
 62
4
 10
-7.44999551E+01
 20
-1.26804796E+02
 11
-6.70089156E+01
 21
-1.26804796E+02
  0
LINE
  8
0
 62
4
 10
-7.34999551E+01
 20
-1.16509279E+02
 11
-5.44999551E+01
 21
-1.16509279E+02
  0
LINE
  8
0
 62
4
 10
-7.59999551E+01
 20
-1.06869611E+02
 11
-7.59999551E+01
 21
-1.25304796E+02
  0
LINE
  8
0
 62
4
 10
-5.44999551E+01
 20
-9.92894313E+01
 11
-5.44999551E+01
 21
-1.18199738E+02
  0
LINE
  8
0
 62
4
 10
-7.34999551E+01
 20
-1.06869611E+02
 11
-7.34999551E+01
 21
-1.18199738E+02
  0
LINE
  8
0
 62
4
 10
-3.69999551E+01
 20
-1.01036454E+02
 11
-3.69999551E+01
 21
-1.25304796E+02
  0
LINE
  8
0
 62
4
 10
-9.09999551E+01
 20
-9.23937892E+01
 11
-8.59999551E+01
 21
-9.23937892E+01
  0
LINE
  8
0
 62
4
 10
-7.14999551E+01
 20
-1.14696664E+02
 11
-5.64999551E+01
 21
-1.14696664E+02
  0
LINE
  8
0
 62
4
 10
-7.14999551E+01
 20
-1.04131207E+02
 11
-5.64999551E+01
 21
-1.04131207E+02
  0
LINE
  8
0
 62
4
 10
-8.44999551E+01
 20
-1.05619611E+02
 11
-8.09999551E+01
 21
-1.05619611E+02
  0
LINE
  8
0
 62
4
 10
-8.44999551E+01
 20
-9.41196107E+01
 11
-8.09999551E+01
 21
-9.41196107E+01
  0
LINE
  8
0
 62
4
 10
-8.44999551E+01
 20
-9.36196107E+01
 11
-8.44999551E+01
 21
-1.06119611E+02
  0
LINE
  8
0
 62
4
 10
-8.59999551E+01
 20
-1.06119611E+02
 11
-8.09999551E+01
 21
-1.06119611E+02
  0
LINE
  8
0
 62
4
 10
-8.59999551E+01
 20
-9.36196107E+01
 11
-8.09999551E+01
 21
-9.36196107E+01
  0
LINE
  8
0
 62
4
 10
-8.59999551E+01
 20
-9.23937892E+01
 11
-8.59999551E+01
 21
-1.07349654E+02
  0
LINE
  8
0
 62
4
 10
-9.09999551E+01
 20
-9.23937892E+01
 11
-9.09999551E+01
 21
-1.07349654E+02
  0
LINE
  8
0
 62
4
 10
-8.09999551E+01
 20
-9.33696107E+01
 11
-8.09999551E+01
 21
-1.06369611E+02
  0
LINE
  8
0
 62
4
 10
-7.14999551E+01
 20
-9.28696107E+01
 11
-8.04999551E+01
 21
-9.28696107E+01
  0
LINE
  8
0
 62
4
 10
-8.04999551E+01
 20
-1.06869611E+02
 11
-7.14999551E+01
 21
-1.06869611E+02
  0
LINE
  8
0
  6
CENTER
 62
6
 10
-6.39999551E+01
 20
-8.49318751E+01
 11
-6.39999551E+01
 21
-1.37499969E+02
  0
LINE
  8
0
  6
CENTER
 62
6
 10
-6.79999551E+01
 20
-8.43199695E+01
 11
-6.79999551E+01
 21
-9.48199695E+01
  0
LINE
  8
0
 62
4
 10
-5.64999551E+01
 20
-8.70196596E+01
 11
-7.14999551E+01
 21
-8.70196596E+01
  0
LINE
  8
0
 62
4
 10
-5.64999551E+01
 20
-9.05365904E+01
 11
-7.14999551E+01
 21
-9.05365904E+01
  0
LINE
  8
0
 62
4
 10
-5.64999551E+01
 20
-8.70196596E+01
 11
-5.64999551E+01
 21
-1.14696664E+02
  0
LINE
  8
0
 62
4
 10
-7.14999551E+01
 20
-8.70196596E+01
 11
-7.14999551E+01
 21
-1.14696664E+02
  0
LINE
  8
0
  6
CENTER
 62
6
 10
-5.99999551E+01
 20
-8.43199695E+01
 11
-5.99999551E+01
 21
-9.48199695E+01
  0
LINE
  8
0
 62
4
 10
3.23139999E+02
 20
-2.51647013E+02
 11
3.23431845E+02
 21
-2.52262839E+02
  0
LINE
  8
0
 62
4
 10
3.16859999E+02
 20
-2.51647013E+02
 11
3.16568154E+02
 21
-2.52262839E+02
  0
POLYLINE
  8
0
 62
4
 66
1
  0
VERTEX
  8
0
 62
4
 10
3.16568153E+02
 20
-2.52262839E+02
  0
VERTEX
  8
0
 62
4
 10
3.16520863E+02
 20
-2.52392052E+02
  0
VERTEX
  8
0
 62
4
 10
3.16500758E+02
 20
-2.52522525E+02
  0
VERTEX
  8
0
 62
4
 10
3.16507994E+02
 20
-2.52653239E+02
  0
VERTEX
  8
0
 62
4
 10
3.16542514E+02
 20
-2.52783173E+02
  0
VERTEX
  8
0
 62
4
 10
3.16604051E+02
 20
-2.52911310E+02
  0
VERTEX
  8
0
 62
4
 10
3.16692121E+02
 20
-2.53036650E+02
  0
VERTEX
  8
0
 62
4
 10
3.16806038E+02
 20
-2.53158214E+02
  0
VERTEX
  8
0
 62
4
 10
3.16944912E+02
 20
-2.53275051E+02
  0
VERTEX
  8
0
 62
4
 10
3.17107656E+02
 20
-2.53386249E+02
  0
VERTEX
  8
0
 62
4
 10
3.17293000E+02
 20
-2.53490939E+02
  0
VERTEX
  8
0
 62
4
 10
3.17499495E+02
 20
-2.53588303E+02
  0
VERTEX
  8
0
 62
4
 10
3.17725528E+02
 20
-2.53677579E+02
  0
VERTEX
  8
0
 62
4
 10
3.17969333E+02
 20
-2.53758072E+02
  0
VERTEX
  8
0
 62
4
 10
3.18229004E+02
 20
-2.53829151E+02
  0
VERTEX
  8
0
 62
4
 10
3.18502514E+02
 20
-2.53890261E+02
  0
VERTEX
  8
0
 62
4
 10
3.18787724E+02
 20
-2.53940925E+02
  0
VERTEX
  8
0
 62
4
 10
3.19082406E+02
 20
-2.53980747E+02
  0
VERTEX
  8
0
 62
4
 10
3.19384258E+02
 20
-2.54009415E+02
  0
VERTEX
  8
0
 62
4
 10
3.19690921E+02
 20
-2.54026706E+02
  0
VERTEX
  8
0
 62
4
 10
3.19999999E+02
 20
-2.54032485E+02
  0
VERTEX
  8
0
 62
4
 10
3.20309077E+02
 20
-2.54026706E+02
  0
VERTEX
  8
0
 62
4
 10
3.20615740E+02
 20
-2.54009415E+02
  0
VERTEX
  8
0
 62
4
 10
3.20917592E+02
 20
-2.53980747E+02
  0
VERTEX
  8
0
 62
4
 10
3.21212274E+02
 20
-2.53940925E+02
  0
VERTEX
  8
0
 62
4
 10
3.21497484E+02
 20
-2.53890261E+02
  0
VERTEX
  8
0
 62
4
 10
3.21770994E+02
 20
-2.53829151E+02
  0
VERTEX
  8
0
 62
4
 10
3.22030665E+02
 20
-2.53758072E+02
  0
VERTEX
  8
0
 62
4
 10
3.22274470E+02
 20
-2.53677579E+02
  0
VERTEX
  8
0
 62
4
 10
3.22500503E+02
 20
-2.53588303E+02
  0
VERTEX
  8
0
 62
4
 10
3.22706998E+02
 20
-2.53490939E+02
  0
VERTEX
  8
0
 62
4
 10
3.22892342E+02
 20
-2.53386249E+02
  0
VERTEX
  8
0
 62
4
 10
3.23055086E+02
 20
-2.53275051E+02
  0
VERTEX
  8
0
 62
4
 10
3.23193960E+02
 20
-2.53158214E+02
  0
VERTEX
  8
0
 62
4
 10
3.23307877E+02
 20
-2.53036650E+02
  0
VERTEX
  8
0
 62
4
 10
3.23395947E+02
 20
-2.52911310E+02
  0
VERTEX
  8
0
 62
4
 10
3.23457484E+02
 20
-2.52783173E+02
  0
VERTEX
  8
0
 62
4
 10
3.23492004E+02
 20
-2.52653239E+02
  0
VERTEX
  8
0
 62
4
 10
3.23499240E+02
 20
-2.52522525E+02
  0
VERTEX
  8
0
 62
4
 10
3.23479135E+02
 20
-2.52392052E+02
  0
VERTEX
  8
0
 62
4
 10
3.23431845E+02
 20
-2.52262839E+02
  0
SEQEND
  8
0
  0
POLYLINE
  8
0
 62
4
 66
1
  0
VERTEX
  8
0
 62
4
 10
3.23139999E+02
 20
-2.51647013E+02
  0
VERTEX
  8
0
 62
4
 10
3.23128050E+02
 20
-2.51531355E+02
  0
VERTEX
  8
0
 62
4
 10
3.23092295E+02
 20
-2.51416578E+02
  0
VERTEX
  8
0
 62
4
 10
3.23033006E+02
 20
-2.51303555E+02
  0
VERTEX
  8
0
 62
4
 10
3.22950634E+02
 20
-2.51193145E+02
  0
VERTEX
  8
0
 62
4
 10
3.22845805E+02
 20
-2.51086190E+02
  0
VERTEX
  8
0
 62
4
 10
3.22719319E+02
 20
-2.50983502E+02
  0
VERTEX
  8
0
 62
4
 10
3.22572136E+02
 20
-2.50885865E+02
  0
VERTEX
  8
0
 62
4
 10
3.22405379E+02
 20
-2.50794020E+02
  0
VERTEX
  8
0
 62
4
 10
3.22220314E+02
 20
-2.50708667E+02
  0
VERTEX
  8
0
 62
4
 10
3.22018352E+02
 20
-2.50630456E+02
  0
VERTEX
  8
0
 62
4
 10
3.21801029E+02
 20
-2.50559981E+02
  0
VERTEX
  8
0
 62
4
 10
3.21569999E+02
 20
-2.50497779E+02
  0
VERTEX
  8
0
 62
4
 10
3.21327020E+02
 20
-2.50444323E+02
  0
VERTEX
  8
0
 62
4
 10
3.21073942E+02
 20
-2.50400021E+02
  0
VERTEX
  8
0
 62
4
 10
3.20812691E+02
 20
-2.50365209E+02
  0
VERTEX
  8
0
 62
4
 10
3.20545254E+02
 20
-2.50340152E+02
  0
VERTEX
  8
0
 62
4
 10
3.20273668E+02
 20
-2.50325041E+02
  0
VERTEX
  8
0
 62
4
 10
3.19999999E+02
 20
-2.50319992E+02
  0
VERTEX
  8
0
 62
4
 10
3.19726330E+02
 20
-2.50325041E+02
  0
VERTEX
  8
0
 62
4
 10
3.19454744E+02
 20
-2.50340152E+02
  0
VERTEX
  8
0
 62
4
 10
3.19187307E+02
 20
-2.50365209E+02
  0
VERTEX
  8
0
 62
4
 10
3.18926056E+02
 20
-2.50400021E+02
  0
VERTEX
  8
0
 62
4
 10
3.18672978E+02
 20
-2.50444323E+02
  0
VERTEX
  8
0
 62
4
 10
3.18429999E+02
 20
-2.50497779E+02
  0
VERTEX
  8
0
 62
4
 10
3.18198969E+02
 20
-2.50559981E+02
  0
VERTEX
  8
0
 62
4
 10
3.17981646E+02
 20
-2.50630456E+02
  0
VERTEX
  8
0
 62
4
 10
3.17779684E+02
 20
-2.50708667E+02
  0
VERTEX
  8
0
 62
4
 10
3.17594619E+02
 20
-2.50794020E+02
  0
VERTEX
  8
0
 62
4
 10
3.17427862E+02
 20
-2.50885865E+02
  0
VERTEX
  8
0
 62
4
 10
3.17280679E+02
 20
-2.50983502E+02
  0
VERTEX
  8
0
 62
4
 10
3.17154193E+02
 20
-2.51086190E+02
  0
VERTEX
  8
0
 62
4
 10
3.17049364E+02
 20
-2.51193145E+02
  0
VERTEX
  8
0
 62
4
 10
3.16966992E+02
 20
-2.51303555E+02
  0
VERTEX
  8
0
 62
4
 10
3.16907703E+02
 20
-2.51416578E+02
  0
VERTEX
  8
0
 62
4
 10
3.16871948E+02
 20
-2.51531355E+02
  0
VERTEX
  8
0
 62
4
 10
3.16859999E+02
 20
-2.51647013E+02
  0
VERTEX
  8
0
 62
4
 10
3.16871948E+02
 20
-2.51762671E+02
  0
VERTEX
  8
0
 62
4
 10
3.16907703E+02
 20
-2.51877448E+02
  0
VERTEX
  8
0
 62
4
 10
3.16966992E+02
 20
-2.51990471E+02
  0
VERTEX
  8
0
 62
4
 10
3.17049364E+02
 20
-2.52100881E+02
  0
VERTEX
  8
0
 62
4
 10
3.17154193E+02
 20
-2.52207836E+02
  0
VERTEX
  8
0
 62
4
 10
3.17280679E+02
 20
-2.52310524E+02
  0
VERTEX
  8
0
 62
4
 10
3.17427862E+02
 20
-2.52408161E+02
  0
VERTEX
  8
0
 62
4
 10
3.17594619E+02
 20
-2.52500006E+02
  0
VERTEX
  8
0
 62
4
 10
3.17779684E+02
 20
-2.52585359E+02
  0
VERTEX
  8
0
 62
4
 10
3.17981646E+02
 20
-2.52663570E+02
  0
VERTEX
  8
0
 62
4
 10
3.18198969E+02
 20
-2.52734045E+02
  0
VERTEX
  8
0
 62
4
 10
3.18429999E+02
 20
-2.52796247E+02
  0
VERTEX
  8
0
 62
4
 10
3.18672978E+02
 20
-2.52849703E+02
  0
VERTEX
  8
0
 62
4
 10
3.18926056E+02
 20
-2.52894005E+02
  0
VERTEX
  8
0
 62
4
 10
3.19187307E+02
 20
-2.52928817E+02
  0
VERTEX
  8
0
 62
4
 10
3.19454744E+02
 20
-2.52953874E+02
  0
VERTEX
  8
0
 62
4
 10
3.19726330E+02
 20
-2.52968985E+02
  0
VERTEX
  8
0
 62
4
 10
3.19999999E+02
 20
-2.52974034E+02
  0
VERTEX
  8
0
 62
4
 10
3.20273668E+02
 20
-2.52968985E+02
  0
VERTEX
  8
0
 62
4
 10
3.20545254E+02
 20
-2.52953874E+02
  0
VERTEX
  8
0
 62
4
 10
3.20812691E+02
 20
-2.52928817E+02
  0
VERTEX
  8
0
 62
4
 10
3.21073942E+02
 20
-2.52894005E+02
  0
VERTEX
  8
0
 62
4
 10
3.21327020E+02
 20
-2.52849703E+02
  0
VERTEX
  8
0
 62
4
 10
3.21569999E+02
 20
-2.52796247E+02
  0
VERTEX
  8
0
 62
4
 10
3.21801029E+02
 20
-2.52734045E+02
  0
VERTEX
  8
0
 62
4
 10
3.22018352E+02
 20
-2.52663570E+02
  0
VERTEX
  8
0
 62
4
 10
3.22220314E+02
 20
-2.52585359E+02
  0
VERTEX
  8
0
 62
4
 10
3.22405379E+02
 20
-2.52500006E+02
  0
VERTEX
  8
0
 62
4
 10
3.22572136E+02
 20
-2.52408161E+02
  0
VERTEX
  8
0
 62
4
 10
3.22719319E+02
 20
-2.52310524E+02
  0
VERTEX
  8
0
 62
4
 10
3.22845805E+02
 20
-2.52207836E+02
  0
VERTEX
  8
0
 62
4
 10
3.22950634E+02
 20
-2.52100881E+02
  0
VERTEX
  8
0
 62
4
 10
3.23033006E+02
 20
-2.51990471E+02
  0
VERTEX
  8
0
 62
4
 10
3.23092295E+02
 20
-2.51877448E+02
  0
VERTEX
  8
0
 62
4
 10
3.23128050E+02
 20
-2.51762671E+02
  0
VERTEX
  8
0
 62
4
 10
3.23139999E+02
 20
-2.51647013E+02
  0
SEQEND
  8
0
  0
LINE
  8
0
  6
CENTER
 62
6
 10
3.19999999E+02
 20
-2.49804222E+02
 11
3.19999999E+02
 21
-2.51647013E+02
  0
LINE
  8
0
 62
4
 10
3.62999999E+02
 20
-2.38514613E+02
 11
3.57999999E+02
 21
-2.38514613E+02
  0
LINE
  8
0
 62
4
 10
3.62999999E+02
 20
-2.37862978E+02
 11
3.57999999E+02
 21
-2.37862978E+02
  0
LINE
  8
0
 62
4
 10
3.62999999E+02
 20
-2.31056606E+02
 11
3.57999999E+02
 21
-2.31056606E+02
  0
LINE
  8
0
 62
4
 10
3.46499991E+02
 20
-2.55148119E+02
 11
3.46499991E+02
 21
-2.49513089E+02
  0
LINE
  8
0
 62
4
 10
3.10499999E+02
 20
-2.55148119E+02
 11
3.10499999E+02
 21
-2.49513089E+02
  0
POLYLINE
  8
0
 62
4
 66
1
  0
VERTEX
  8
0
 62
4
 10
3.41732721E+02
 20
-2.85139051E+02
  0
VERTEX
  8
0
 62
4
 10
3.41814722E+02
 20
-2.84995733E+02
  0
VERTEX
  8
0
 62
4
 10
3.41882327E+02
 20
-2.84846371E+02
  0
VERTEX
  8
0
 62
4
 10
3.41935001E+02
 20
-2.84692150E+02
  0
VERTEX
  8
0
 62
4
 10
3.41972325E+02
 20
-2.84534292E+02
  0
VERTEX
  8
0
 62
4
 10
3.41994003E+02
 20
-2.84374051E+02
  0
VERTEX
  8
0
 62
4
 10
3.41999864E+02
 20
-2.84212698E+02
  0
VERTEX
  8
0
 62
4
 10
3.41989860E+02
 20
-2.84051512E+02
  0
VERTEX
  8
0
 62
4
 10
3.41964072E+02
 20
-2.83891772E+02
  0
VERTEX
  8
0
 62
4
 10
3.41922703E+02
 20
-2.83734745E+02
  0
VERTEX
  8
0
 62
4
 10
3.41866083E+02
 20
-2.83581677E+02
  0
VERTEX
  8
0
 62
4
 10
3.41794659E+02
 20
-2.83433781E+02
  0
VERTEX
  8
0
 62
4
 10
3.41709000E+02
 20
-2.83292232E+02
  0
VERTEX
  8
0
 62
4
 10
3.41609783E+02
 20
-2.83158152E+02
  0
VERTEX
  8
0
 62
4
 10
3.41497797E+02
 20
-2.83032605E+02
  0
VERTEX
  8
0
 62
4
 10
3.41373929E+02
 20
-2.82916587E+02
  0
VERTEX
  8
0
 62
4
 10
3.41239162E+02
 20
-2.82811017E+02
  0
VERTEX
  8
0
 62
4
 10
3.41094566E+02
 20
-2.82716733E+02
  0
VERTEX
  8
0
 62
4
 10
3.40941287E+02
 20
-2.82634484E+02
  0
VERTEX
  8
0
 62
4
 10
3.40780541E+02
 20
-2.82564922E+02
  0
VERTEX
  8
0
 62
4
 10
3.40613603E+02
 20
-2.82508598E+02
  0
VERTEX
  8
0
 62
4
 10
3.40441798E+02
 20
-2.82465959E+02
  0
VERTEX
  8
0
 62
4
 10
3.40266488E+02
 20
-2.82437344E+02
  0
VERTEX
  8
0
 62
4
 10
3.40089064E+02
 20
-2.82422980E+02
  0
VERTEX
  8
0
 62
4
 10
3.39910934E+02
 20
-2.82422980E+02
  0
VERTEX
  8
0
 62
4
 10
3.39733510E+02
 20
-2.82437344E+02
  0
VERTEX
  8
0
 62
4
 10
3.39558200E+02
 20
-2.82465959E+02
  0
VERTEX
  8
0
 62
4
 10
3.39386395E+02
 20
-2.82508598E+02
  0
VERTEX
  8
0
 62
4
 10
3.39219457E+02
 20
-2.82564922E+02
  0
VERTEX
  8
0
 62
4
 10
3.39058711E+02
 20
-2.82634484E+02
  0
VERTEX
  8
0
 62
4
 10
3.38905432E+02
 20
-2.82716733E+02
  0
VERTEX
  8
0
 62
4
 10
3.38760836E+02
 20
-2.82811017E+02
  0
VERTEX
  8
0
 62
4
 10
3.38626069E+02
 20
-2.82916587E+02
  0
VERTEX
  8
0
 62
4
 10
3.38502201E+02
 20
-2.83032605E+02
  0
VERTEX
  8
0
 62
4
 10
3.38390215E+02
 20
-2.83158152E+02
  0
VERTEX
  8
0
 62
4
 10
3.38290998E+02
 20
-2.83292232E+02
  0
VERTEX
  8
0
 62
4
 10
3.38205339E+02
 20
-2.83433781E+02
  0
VERTEX
  8
0
 62
4
 10
3.38133915E+02
 20
-2.83581677E+02
  0
VERTEX
  8
0
 62
4
 10
3.38077295E+02
 20
-2.83734745E+02
  0
VERTEX
  8
0
 62
4
 10
3.38035926E+02
 20
-2.83891772E+02
  0
VERTEX
  8
0
 62
4
 10
3.38010138E+02
 20
-2.84051512E+02
  0
VERTEX
  8
0
 62
4
 10
3.38000134E+02
 20
-2.84212698E+02
  0
VERTEX
  8
0
 62
4
 10
3.38005995E+02
 20
-2.84374052E+02
  0
VERTEX
  8
0
 62
4
 10
3.38027673E+02
 20
-2.84534292E+02
  0
VERTEX
  8
0
 62
4
 10
3.38064997E+02
 20
-2.84692150E+02
  0
VERTEX
  8
0
 62
4
 10
3.38117671E+02
 20
-2.84846371E+02
  0
VERTEX
  8
0
 62
4
 10
3.38185276E+02
 20
-2.84995733E+02
  0
VERTEX
  8
0
 62
4
 10
3.38267277E+02
 20
-2.85139051E+02
  0
SEQEND
  8
0
  0
POLYLINE
  8
0
 62
6
 66
1
  0
VERTEX
  8
0
 62
6
 10
3.41499999E+02
 20
-2.85063027E+02
  0
VERTEX
  8
0
 62
6
 10
3.41494291E+02
 20
-2.84944542E+02
  0
VERTEX
  8
0
 62
6
 10
3.41477211E+02
 20
-2.84826959E+02
  0
VERTEX
  8
0
 62
6
 10
3.41448888E+02
 20
-2.84711172E+02
  0
VERTEX
  8
0
 62
6
 10
3.41409538E+02
 20
-2.84598064E+02
  0
VERTEX
  8
0
 62
6
 10
3.41359461E+02
 20
-2.84488494E+02
  0
VERTEX
  8
0
 62
6
 10
3.41299037E+02
 20
-2.84383296E+02
  0
VERTEX
  8
0
 62
6
 10
3.41228727E+02
 20
-2.84283272E+02
  0
VERTEX
  8
0
 62
6
 10
3.41149066E+02
 20
-2.84189182E+02
  0
VERTEX
  8
0
 62
6
 10
3.41060659E+02
 20
-2.84101742E+02
  0
VERTEX
  8
0
 62
6
 10
3.40964180E+02
 20
-2.84021619E+02
  0
VERTEX
  8
0
 62
6
 10
3.40860364E+02
 20
-2.83949421E+02
  0
VERTEX
  8
0
 62
6
 10
3.40749999E+02
 20
-2.83885699E+02
  0
VERTEX
  8
0
 62
6
 10
3.40633926E+02
 20
-2.83830936E+02
  0
VERTEX
  8
0
 62
6
 10
3.40513029E+02
 20
-2.83785551E+02
  0
VERTEX
  8
0
 62
6
 10
3.40388228E+02
 20
-2.83749888E+02
  0
VERTEX
  8
0
 62
6
 10
3.40260471E+02
 20
-2.83724219E+02
  0
VERTEX
  8
0
 62
6
 10
3.40130733E+02
 20
-2.83708738E+02
  0
VERTEX
  8
0
 62
6
 10
3.39999999E+02
 20
-2.83703565E+02
  0
VERTEX
  8
0
 62
6
 10
3.39869265E+02
 20
-2.83708738E+02
  0
VERTEX
  8
0
 62
6
 10
3.39739527E+02
 20
-2.83724219E+02
  0
VERTEX
  8
0
 62
6
 10
3.39611770E+02
 20
-2.83749888E+02
  0
VERTEX
  8
0
 62
6
 10
3.39486969E+02
 20
-2.83785551E+02
  0
VERTEX
  8
0
 62
6
 10
3.39366072E+02
 20
-2.83830936E+02
  0
VERTEX
  8
0
 62
6
 10
3.39249999E+02
 20
-2.83885699E+02
  0
VERTEX
  8
0
 62
6
 10
3.39139634E+02
 20
-2.83949421E+02
  0
VERTEX
  8
0
 62
6
 10
3.39035818E+02
 20
-2.84021619E+02
  0
VERTEX
  8
0
 62
6
 10
3.38939339E+02
 20
-2.84101742E+02
  0
VERTEX
  8
0
 62
6
 10
3.38850932E+02
 20
-2.84189182E+02
  0
VERTEX
  8
0
 62
6
 10
3.38771271E+02
 20
-2.84283272E+02
  0
VERTEX
  8
0
 62
6
 10
3.38700961E+02
 20
-2.84383296E+02
  0
VERTEX
  8
0
 62
6
 10
3.38640537E+02
 20
-2.84488494E+02
  0
VERTEX
  8
0
 62
6
 10
3.38590460E+02
 20
-2.84598064E+02
  0
VERTEX
  8
0
 62
6
 10
3.38551110E+02
 20
-2.84711172E+02
  0
VERTEX
  8
0
 62
6
 10
3.38522787E+02
 20
-2.84826959E+02
  0
VERTEX
  8
0
 62
6
 10
3.38505707E+02
 20
-2.84944542E+02
  0
VERTEX
  8
0
 62
6
 10
3.38499999E+02
 20
-2.85063027E+02
  0
VERTEX
  8
0
 62
6
 10
3.38505707E+02
 20
-2.85181512E+02
  0
VERTEX
  8
0
 62
6
 10
3.38522787E+02
 20
-2.85299095E+02
  0
VERTEX
  8
0
 62
6
 10
3.38551110E+02
 20
-2.85414882E+02
  0
VERTEX
  8
0
 62
6
 10
3.38590460E+02
 20
-2.85527990E+02
  0
VERTEX
  8
0
 62
6
 10
3.38640537E+02
 20
-2.85637560E+02
  0
VERTEX
  8
0
 62
6
 10
3.38700961E+02
 20
-2.85742758E+02
  0
VERTEX
  8
0
 62
6
 10
3.38771271E+02
 20
-2.85842782E+02
  0
VERTEX
  8
0
 62
6
 10
3.38850932E+02
 20
-2.85936872E+02
  0
VERTEX
  8
0
 62
6
 10
3.38939339E+02
 20
-2.86024312E+02
  0
VERTEX
  8
0
 62
6
 10
3.39035818E+02
 20
-2.86104435E+02
  0
VERTEX
  8
0
 62
6
 10
3.39139634E+02
 20
-2.86176633E+02
  0
VERTEX
  8
0
 62
6
 10
3.39249999E+02
 20
-2.86240355E+02
  0
VERTEX
  8
0
 62
6
 10
3.39366072E+02
 20
-2.86295118E+02
  0
VERTEX
  8
0
 62
6
 10
3.39486969E+02
 20
-2.86340503E+02
  0
VERTEX
  8
0
 62
6
 10
3.39611770E+02
 20
-2.86376166E+02
  0
VERTEX
  8
0
 62
6
 10
3.39739527E+02
 20
-2.86401835E+02
  0
VERTEX
  8
0
 62
6
 10
3.39869265E+02
 20
-2.86417316E+02
  0
VERTEX
  8
0
 62
6
 10
3.39999999E+02
 20
-2.86422489E+02
  0
VERTEX
  8
0
 62
6
 10
3.40130733E+02
 20
-2.86417316E+02
  0
VERTEX
  8
0
 62
6
 10
3.40260471E+02
 20
-2.86401835E+02
  0
VERTEX
  8
0
 62
6
 10
3.40388228E+02
 20
-2.86376166E+02
  0
VERTEX
  8
0
 62
6
 10
3.40513029E+02
 20
-2.86340503E+02
  0
VERTEX
  8
0
 62
6
 10
3.40633926E+02
 20
-2.86295118E+02
  0
VERTEX
  8
0
 62
6
 10
3.40749999E+02
 20
-2.86240355E+02
  0
VERTEX
  8
0
 62
6
 10
3.40860364E+02
 20
-2.86176633E+02
  0
VERTEX
  8
0
 62
6
 10
3.40964180E+02
 20
-2.86104435E+02
  0
VERTEX
  8
0
 62
6
 10
3.41060659E+02
 20
-2.86024312E+02
  0
VERTEX
  8
0
 62
6
 10
3.41149066E+02
 20
-2.85936872E+02
  0
VERTEX
  8
0
 62
6
 10
3.41228727E+02
 20
-2.85842782E+02
  0
VERTEX
  8
0
 62
6
 10
3.41299037E+02
 20
-2.85742758E+02
  0
VERTEX
  8
0
 62
6
 10
3.41359461E+02
 20
-2.85637560E+02
  0
VERTEX
  8
0
 62
6
 10
3.41409538E+02
 20
-2.85527990E+02
  0
VERTEX
  8
0
 62
6
 10
3.41448888E+02
 20
-2.85414882E+02
  0
VERTEX
  8
0
 62
6
 10
3.41477211E+02
 20
-2.85299095E+02
  0
VERTEX
  8
0
 62
6
 10
3.41494291E+02
 20
-2.85181512E+02
  0
VERTEX
  8
0
 62
6
 10
3.41499999E+02
 20
-2.85063027E+02
  0
SEQEND
  8
0
  0
POLYLINE
  8
0
 62
4
 66
1
  0
VERTEX
  8
0
 62
4
 10
3.41734999E+02
 20
-2.85058495E+02
  0
VERTEX
  8
0
 62
4
 10
3.41728397E+02
 20
-2.84921447E+02
  0
VERTEX
  8
0
 62
4
 10
3.41708640E+02
 20
-2.84785443E+02
  0
VERTEX
  8
0
 62
4
 10
3.41675880E+02
 20
-2.84651517E+02
  0
VERTEX
  8
0
 62
4
 10
3.41630366E+02
 20
-2.84520687E+02
  0
VERTEX
  8
0
 62
4
 10
3.41572443E+02
 20
-2.84393951E+02
  0
VERTEX
  8
0
 62
4
 10
3.41502553E+02
 20
-2.84272273E+02
  0
VERTEX
  8
0
 62
4
 10
3.41421228E+02
 20
-2.84156578E+02
  0
VERTEX
  8
0
 62
4
 10
3.41329086E+02
 20
-2.84047747E+02
  0
VERTEX
  8
0
 62
4
 10
3.41226829E+02
 20
-2.83946609E+02
  0
VERTEX
  8
0
 62
4
 10
3.41115236E+02
 20
-2.83853933E+02
  0
VERTEX
  8
0
 62
4
 10
3.40995154E+02
 20
-2.83770424E+02
  0
VERTEX
  8
0
 62
4
 10
3.40867499E+02
 20
-2.83696719E+02
  0
VERTEX
  8
0
 62
4
 10
3.40733242E+02
 20
-2.83633377E+02
  0
VERTEX
  8
0
 62
4
 10
3.40593404E+02
 20
-2.83580881E+02
  0
VERTEX
  8
0
 62
4
 10
3.40449050E+02
 20
-2.83539631E+02
  0
VERTEX
  8
0
 62
4
 10
3.40301279E+02
 20
-2.83509940E+02
  0
VERTEX
  8
0
 62
4
 10
3.40151214E+02
 20
-2.83492035E+02
  0
VERTEX
  8
0
 62
4
 10
3.39999999E+02
 20
-2.83486051E+02
  0
VERTEX
  8
0
 62
4
 10
3.39848784E+02
 20
-2.83492035E+02
  0
VERTEX
  8
0
 62
4
 10
3.39698719E+02
 20
-2.83509940E+02
  0
VERTEX
  8
0
 62
4
 10
3.39550948E+02
 20
-2.83539631E+02
  0
VERTEX
  8
0
 62
4
 10
3.39406594E+02
 20
-2.83580881E+02
  0
VERTEX
  8
0
 62
4
 10
3.39266756E+02
 20
-2.83633377E+02
  0
VERTEX
  8
0
 62
4
 10
3.39132499E+02
 20
-2.83696719E+02
  0
VERTEX
  8
0
 62
4
 10
3.39004844E+02
 20
-2.83770424E+02
  0
VERTEX
  8
0
 62
4
 10
3.38884762E+02
 20
-2.83853933E+02
  0
VERTEX
  8
0
 62
4
 10
3.38773169E+02
 20
-2.83946609E+02
  0
VERTEX
  8
0
 62
4
 10
3.38670912E+02
 20
-2.84047747E+02
  0
VERTEX
  8
0
 62
4
 10
3.38578770E+02
 20
-2.84156578E+02
  0
VERTEX
  8
0
 62
4
 10
3.38497445E+02
 20
-2.84272273E+02
  0
VERTEX
  8
0
 62
4
 10
3.38427555E+02
 20
-2.84393951E+02
  0
VERTEX
  8
0
 62
4
 10
3.38369632E+02
 20
-2.84520687E+02
  0
VERTEX
  8
0
 62
4
 10
3.38324118E+02
 20
-2.84651517E+02
  0
VERTEX
  8
0
 62
4
 10
3.38291358E+02
 20
-2.84785443E+02
  0
VERTEX
  8
0
 62
4
 10
3.38271601E+02
 20
-2.84921447E+02
  0
VERTEX
  8
0
 62
4
 10
3.38264999E+02
 20
-2.85058495E+02
  0
VERTEX
  8
0
 62
4
 10
3.38271601E+02
 20
-2.85195543E+02
  0
VERTEX
  8
0
 62
4
 10
3.38291358E+02
 20
-2.85331547E+02
  0
VERTEX
  8
0
 62
4
 10
3.38324118E+02
 20
-2.85465473E+02
  0
VERTEX
  8
0
 62
4
 10
3.38369632E+02
 20
-2.85596303E+02
  0
VERTEX
  8
0
 62
4
 10
3.38427555E+02
 20
-2.85723039E+02
  0
VERTEX
  8
0
 62
4
 10
3.38497445E+02
 20
-2.85844717E+02
  0
VERTEX
  8
0
 62
4
 10
3.38578770E+02
 20
-2.85960412E+02
  0
VERTEX
  8
0
 62
4
 10
3.38670912E+02
 20
-2.86069243E+02
  0
VERTEX
  8
0
 62
4
 10
3.38773169E+02
 20
-2.86170381E+02
  0
VERTEX
  8
0
 62
4
 10
3.38884762E+02
 20
-2.86263057E+02
  0
VERTEX
  8
0
 62
4
 10
3.39004844E+02
 20
-2.86346566E+02
  0
VERTEX
  8
0
 62
4
 10
3.39132499E+02
 20
-2.86420271E+02
  0
VERTEX
  8
0
 62
4
 10
3.39266756E+02
 20
-2.86483613E+02
  0
VERTEX
  8
0
 62
4
 10
3.39406594E+02
 20
-2.86536109E+02
  0
VERTEX
  8
0
 62
4
 10
3.39550948E+02
 20
-2.86577359E+02
  0
VERTEX
  8
0
 62
4
 10
3.39698719E+02
 20
-2.86607050E+02
  0
VERTEX
  8
0
 62
4
 10
3.39848784E+02
 20
-2.86624955E+02
  0
VERTEX
  8
0
 62
4
 10
3.39999999E+02
 20
-2.86630939E+02
  0
VERTEX
  8
0
 62
4
 10
3.40151214E+02
 20
-2.86624955E+02
  0
VERTEX
  8
0
 62
4
 10
3.40301279E+02
 20
-2.86607050E+02
  0
VERTEX
  8
0
 62
4
 10
3.40449050E+02
 20
-2.86577359E+02
  0
VERTEX
  8
0
 62
4
 10
3.40593404E+02
 20
-2.86536109E+02
  0
VERTEX
  8
0
 62
4
 10
3.40733242E+02
 20
-2.86483613E+02
  0
VERTEX
  8
0
 62
4
 10
3.40867499E+02
 20
-2.86420271E+02
  0
VERTEX
  8
0
 62
4
 10
3.40995154E+02
 20
-2.86346566E+02
  0
VERTEX
  8
0
 62
4
 10
3.41115236E+02
 20
-2.86263057E+02
  0
VERTEX
  8
0
 62
4
 10
3.41226829E+02
 20
-2.86170381E+02
  0
VERTEX
  8
0
 62
4
 10
3.41329086E+02
 20
-2.86069243E+02
  0
VERTEX
  8
0
 62
4
 10
3.41421228E+02
 20
-2.85960412E+02
  0
VERTEX
  8
0
 62
4
 10
3.41502553E+02
 20
-2.85844717E+02
  0
VERTEX
  8
0
 62
4
 10
3.41572443E+02
 20
-2.85723039E+02
  0
VERTEX
  8
0
 62
4
 10
3.41630366E+02
 20
-2.85596303E+02
  0
VERTEX
  8
0
 62
4
 10
3.41675880E+02
 20
-2.85465473E+02
  0
VERTEX
  8
0
 62
4
 10
3.41708640E+02
 20
-2.85331547E+02
  0
VERTEX
  8
0
 62
4
 10
3.41728397E+02
 20
-2.85195543E+02
  0
VERTEX
  8
0
 62
4
 10
3.41734999E+02
 20
-2.85058495E+02
  0
SEQEND
  8
0
  0
POLYLINE
  8
0
 62
4
 66
1
  0
VERTEX
  8
0
 62
4
 10
3.33732721E+02
 20
-2.85139051E+02
  0
VERTEX
  8
0
 62
4
 10
3.33814722E+02
 20
-2.84995733E+02
  0
VERTEX
  8
0
 62
4
 10
3.33882327E+02
 20
-2.84846371E+02
  0
VERTEX
  8
0
 62
4
 10
3.33935001E+02
 20
-2.84692150E+02
  0
VERTEX
  8
0
 62
4
 10
3.33972325E+02
 20
-2.84534292E+02
  0
VERTEX
  8
0
 62
4
 10
3.33994003E+02
 20
-2.84374051E+02
  0
VERTEX
  8
0
 62
4
 10
3.33999864E+02
 20
-2.84212698E+02
  0
VERTEX
  8
0
 62
4
 10
3.33989860E+02
 20
-2.84051512E+02
  0
VERTEX
  8
0
 62
4
 10
3.33964072E+02
 20
-2.83891772E+02
  0
VERTEX
  8
0
 62
4
 10
3.33922703E+02
 20
-2.83734745E+02
  0
VERTEX
  8
0
 62
4
 10
3.33866083E+02
 20
-2.83581677E+02
  0
VERTEX
  8
0
 62
4
 10
3.33794659E+02
 20
-2.83433781E+02
  0
VERTEX
  8
0
 62
4
 10
3.33709000E+02
 20
-2.83292232E+02
  0
VERTEX
  8
0
 62
4
 10
3.33609783E+02
 20
-2.83158152E+02
  0
VERTEX
  8
0
 62
4
 10
3.33497797E+02
 20
-2.83032605E+02
  0
VERTEX
  8
0
 62
4
 10
3.33373929E+02
 20
-2.82916587E+02
  0
VERTEX
  8
0
 62
4
 10
3.33239162E+02
 20
-2.82811017E+02
  0
VERTEX
  8
0
 62
4
 10
3.33094566E+02
 20
-2.82716733E+02
  0
VERTEX
  8
0
 62
4
 10
3.32941287E+02
 20
-2.82634484E+02
  0
VERTEX
  8
0
 62
4
 10
3.32780541E+02
 20
-2.82564922E+02
  0
VERTEX
  8
0
 62
4
 10
3.32613603E+02
 20
-2.82508598E+02
  0
VERTEX
  8
0
 62
4
 10
3.32441798E+02
 20
-2.82465959E+02
  0
VERTEX
  8
0
 62
4
 10
3.32266488E+02
 20
-2.82437344E+02
  0
VERTEX
  8
0
 62
4
 10
3.32089064E+02
 20
-2.82422980E+02
  0
VERTEX
  8
0
 62
4
 10
3.31910934E+02
 20
-2.82422980E+02
  0
VERTEX
  8
0
 62
4
 10
3.31733510E+02
 20
-2.82437344E+02
  0
VERTEX
  8
0
 62
4
 10
3.31558200E+02
 20
-2.82465959E+02
  0
VERTEX
  8
0
 62
4
 10
3.31386395E+02
 20
-2.82508598E+02
  0
VERTEX
  8
0
 62
4
 10
3.31219457E+02
 20
-2.82564922E+02
  0
VERTEX
  8
0
 62
4
 10
3.31058711E+02
 20
-2.82634484E+02
  0
VERTEX
  8
0
 62
4
 10
3.30905432E+02
 20
-2.82716733E+02
  0
VERTEX
  8
0
 62
4
 10
3.30760836E+02
 20
-2.82811017E+02
  0
VERTEX
  8
0
 62
4
 10
3.30626069E+02
 20
-2.82916587E+02
  0
VERTEX
  8
0
 62
4
 10
3.30502201E+02
 20
-2.83032605E+02
  0
VERTEX
  8
0
 62
4
 10
3.30390215E+02
 20
-2.83158152E+02
  0
VERTEX
  8
0
 62
4
 10
3.30290998E+02
 20
-2.83292232E+02
  0
VERTEX
  8
0
 62
4
 10
3.30205339E+02
 20
-2.83433781E+02
  0
VERTEX
  8
0
 62
4
 10
3.30133915E+02
 20
-2.83581677E+02
  0
VERTEX
  8
0
 62
4
 10
3.30077295E+02
 20
-2.83734745E+02
  0
VERTEX
  8
0
 62
4
 10
3.30035926E+02
 20
-2.83891772E+02
  0
VERTEX
  8
0
 62
4
 10
3.30010138E+02
 20
-2.84051512E+02
  0
VERTEX
  8
0
 62
4
 10
3.30000134E+02
 20
-2.84212698E+02
  0
VERTEX
  8
0
 62
4
 10
3.30005995E+02
 20
-2.84374052E+02
  0
VERTEX
  8
0
 62
4
 10
3.30027673E+02
 20
-2.84534292E+02
  0
VERTEX
  8
0
 62
4
 10
3.30064997E+02
 20
-2.84692150E+02
  0
VERTEX
  8
0
 62
4
 10
3.30117671E+02
 20
-2.84846371E+02
  0
VERTEX
  8
0
 62
4
 10
3.30185276E+02
 20
-2.84995733E+02
  0
VERTEX
  8
0
 62
4
 10
3.30267277E+02
 20
-2.85139051E+02
  0
SEQEND
  8
0
  0
POLYLINE
  8
0
 62
6
 66
1
  0
VERTEX
  8
0
 62
6
 10
3.33499999E+02
 20
-2.85063027E+02
  0
VERTEX
  8
0
 62
6
 10
3.33494291E+02
 20
-2.84944542E+02
  0
VERTEX
  8
0
 62
6
 10
3.33477211E+02
 20
-2.84826959E+02
  0
VERTEX
  8
0
 62
6
 10
3.33448888E+02
 20
-2.84711172E+02
  0
VERTEX
  8
0
 62
6
 10
3.33409538E+02
 20
-2.84598064E+02
  0
VERTEX
  8
0
 62
6
 10
3.33359461E+02
 20
-2.84488494E+02
  0
VERTEX
  8
0
 62
6
 10
3.33299037E+02
 20
-2.84383296E+02
  0
VERTEX
  8
0
 62
6
 10
3.33228727E+02
 20
-2.84283272E+02
  0
VERTEX
  8
0
 62
6
 10
3.33149066E+02
 20
-2.84189182E+02
  0
VERTEX
  8
0
 62
6
 10
3.33060659E+02
 20
-2.84101742E+02
  0
VERTEX
  8
0
 62
6
 10
3.32964180E+02
 20
-2.84021619E+02
  0
VERTEX
  8
0
 62
6
 10
3.32860364E+02
 20
-2.83949421E+02
  0
VERTEX
  8
0
 62
6
 10
3.32749999E+02
 20
-2.83885699E+02
  0
VERTEX
  8
0
 62
6
 10
3.32633926E+02
 20
-2.83830936E+02
  0
VERTEX
  8
0
 62
6
 10
3.32513029E+02
 20
-2.83785551E+02
  0
VERTEX
  8
0
 62
6
 10
3.32388228E+02
 20
-2.83749888E+02
  0
VERTEX
  8
0
 62
6
 10
3.32260471E+02
 20
-2.83724219E+02
  0
VERTEX
  8
0
 62
6
 10
3.32130733E+02
 20
-2.83708738E+02
  0
VERTEX
  8
0
 62
6
 10
3.31999999E+02
 20
-2.83703565E+02
  0
VERTEX
  8
0
 62
6
 10
3.31869265E+02
 20
-2.83708738E+02
  0
VERTEX
  8
0
 62
6
 10
3.31739527E+02
 20
-2.83724219E+02
  0
VERTEX
  8
0
 62
6
 10
3.31611770E+02
 20
-2.83749888E+02
  0
VERTEX
  8
0
 62
6
 10
3.31486969E+02
 20
-2.83785551E+02
  0
VERTEX
  8
0
 62
6
 10
3.31366072E+02
 20
-2.83830936E+02
  0
VERTEX
  8
0
 62
6
 10
3.31249999E+02
 20
-2.83885699E+02
  0
VERTEX
  8
0
 62
6
 10
3.31139634E+02
 20
-2.83949421E+02
  0
VERTEX
  8
0
 62
6
 10
3.31035818E+02
 20
-2.84021619E+02
  0
VERTEX
  8
0
 62
6
 10
3.30939339E+02
 20
-2.84101742E+02
  0
VERTEX
  8
0
 62
6
 10
3.30850932E+02
 20
-2.84189182E+02
  0
VERTEX
  8
0
 62
6
 10
3.30771271E+02
 20
-2.84283272E+02
  0
VERTEX
  8
0
 62
6
 10
3.30700961E+02
 20
-2.84383296E+02
  0
VERTEX
  8
0
 62
6
 10
3.30640537E+02
 20
-2.84488494E+02
  0
VERTEX
  8
0
 62
6
 10
3.30590460E+02
 20
-2.84598064E+02
  0
VERTEX
  8
0
 62
6
 10
3.30551110E+02
 20
-2.84711172E+02
  0
VERTEX
  8
0
 62
6
 10
3.30522787E+02
 20
-2.84826959E+02
  0
VERTEX
  8
0
 62
6
 10
3.30505707E+02
 20
-2.84944542E+02
  0
VERTEX
  8
0
 62
6
 10
3.30499999E+02
 20
-2.85063027E+02
  0
VERTEX
  8
0
 62
6
 10
3.30505707E+02
 20
-2.85181512E+02
  0
VERTEX
  8
0
 62
6
 10
3.30522787E+02
 20
-2.85299095E+02
  0
VERTEX
  8
0
 62
6
 10
3.30551110E+02
 20
-2.85414882E+02
  0
VERTEX
  8
0
 62
6
 10
3.30590460E+02
 20
-2.85527990E+02
  0
VERTEX
  8
0
 62
6
 10
3.30640537E+02
 20
-2.85637560E+02
  0
VERTEX
  8
0
 62
6
 10
3.30700961E+02
 20
-2.85742758E+02
  0
VERTEX
  8
0
 62
6
 10
3.30771271E+02
 20
-2.85842782E+02
  0
VERTEX
  8
0
 62
6
 10
3.30850932E+02
 20
-2.85936872E+02
  0
VERTEX
  8
0
 62
6
 10
3.30939339E+02
 20
-2.86024312E+02
  0
VERTEX
  8
0
 62
6
 10
3.31035818E+02
 20
-2.86104435E+02
  0
VERTEX
  8
0
 62
6
 10
3.31139634E+02
 20
-2.86176633E+02
  0
VERTEX
  8
0
 62
6
 10
3.31249999E+02
 20
-2.86240355E+02
  0
VERTEX
  8
0
 62
6
 10
3.31366072E+02
 20
-2.86295118E+02
  0
VERTEX
  8
0
 62
6
 10
3.31486969E+02
 20
-2.86340503E+02
  0
VERTEX
  8
0
 62
6
 10
3.31611770E+02
 20
-2.86376166E+02
  0
VERTEX
  8
0
 62
6
 10
3.31739527E+02
 20
-2.86401835E+02
  0
VERTEX
  8
0
 62
6
 10
3.31869265E+02
 20
-2.86417316E+02
  0
VERTEX
  8
0
 62
6
 10
3.31999999E+02
 20
-2.86422489E+02
  0
VERTEX
  8
0
 62
6
 10
3.32130733E+02
 20
-2.86417316E+02
  0
VERTEX
  8
0
 62
6
 10
3.32260471E+02
 20
-2.86401835E+02
  0
VERTEX
  8
0
 62
6
 10
3.32388228E+02
 20
-2.86376166E+02
  0
VERTEX
  8
0
 62
6
 10
3.32513029E+02
 20
-2.86340503E+02
  0
VERTEX
  8
0
 62
6
 10
3.32633926E+02
 20
-2.86295118E+02
  0
VERTEX
  8
0
 62
6
 10
3.32749999E+02
 20
-2.86240355E+02
  0
VERTEX
  8
0
 62
6
 10
3.32860364E+02
 20
-2.86176633E+02
  0
VERTEX
  8
0
 62
6
 10
3.32964180E+02
 20
-2.86104435E+02
  0
VERTEX
  8
0
 62
6
 10
3.33060659E+02
 20
-2.86024312E+02
  0
VERTEX
  8
0
 62
6
 10
3.33149066E+02
 20
-2.85936872E+02
  0
VERTEX
  8
0
 62
6
 10
3.33228727E+02
 20
-2.85842782E+02
  0
VERTEX
  8
0
 62
6
 10
3.33299037E+02
 20
-2.85742758E+02
  0
VERTEX
  8
0
 62
6
 10
3.33359461E+02
 20
-2.85637560E+02
  0
VERTEX
  8
0
 62
6
 10
3.33409538E+02
 20
-2.85527990E+02
  0
VERTEX
  8
0
 62
6
 10
3.33448888E+02
 20
-2.85414882E+02
  0
VERTEX
  8
0
 62
6
 10
3.33477211E+02
 20
-2.85299095E+02
  0
VERTEX
  8
0
 62
6
 10
3.33494291E+02
 20
-2.85181512E+02
  0
VERTEX
  8
0
 62
6
 10
3.33499999E+02
 20
-2.85063027E+02
  0
SEQEND
  8
0
  0
POLYLINE
  8
0
 62
4
 66
1
  0
VERTEX
  8
0
 62
4
 10
3.33734999E+02
 20
-2.85058495E+02
  0
VERTEX
  8
0
 62
4
 10
3.33728397E+02
 20
-2.84921447E+02
  0
VERTEX
  8
0
 62
4
 10
3.33708640E+02
 20
-2.84785443E+02
  0
VERTEX
  8
0
 62
4
 10
3.33675880E+02
 20
-2.84651517E+02
  0
VERTEX
  8
0
 62
4
 10
3.33630366E+02
 20
-2.84520687E+02
  0
VERTEX
  8
0
 62
4
 10
3.33572443E+02
 20
-2.84393951E+02
  0
VERTEX
  8
0
 62
4
 10
3.33502553E+02
 20
-2.84272273E+02
  0
VERTEX
  8
0
 62
4
 10
3.33421228E+02
 20
-2.84156578E+02
  0
VERTEX
  8
0
 62
4
 10
3.33329086E+02
 20
-2.84047747E+02
  0
VERTEX
  8
0
 62
4
 10
3.33226829E+02
 20
-2.83946609E+02
  0
VERTEX
  8
0
 62
4
 10
3.33115236E+02
 20
-2.83853933E+02
  0
VERTEX
  8
0
 62
4
 10
3.32995154E+02
 20
-2.83770424E+02
  0
VERTEX
  8
0
 62
4
 10
3.32867499E+02
 20
-2.83696719E+02
  0
VERTEX
  8
0
 62
4
 10
3.32733242E+02
 20
-2.83633377E+02
  0
VERTEX
  8
0
 62
4
 10
3.32593404E+02
 20
-2.83580881E+02
  0
VERTEX
  8
0
 62
4
 10
3.32449050E+02
 20
-2.83539631E+02
  0
VERTEX
  8
0
 62
4
 10
3.32301279E+02
 20
-2.83509940E+02
  0
VERTEX
  8
0
 62
4
 10
3.32151214E+02
 20
-2.83492035E+02
  0
VERTEX
  8
0
 62
4
 10
3.31999999E+02
 20
-2.83486051E+02
  0
VERTEX
  8
0
 62
4
 10
3.31848784E+02
 20
-2.83492035E+02
  0
VERTEX
  8
0
 62
4
 10
3.31698719E+02
 20
-2.83509940E+02
  0
VERTEX
  8
0
 62
4
 10
3.31550948E+02
 20
-2.83539631E+02
  0
VERTEX
  8
0
 62
4
 10
3.31406594E+02
 20
-2.83580881E+02
  0
VERTEX
  8
0
 62
4
 10
3.31266756E+02
 20
-2.83633377E+02
  0
VERTEX
  8
0
 62
4
 10
3.31132499E+02
 20
-2.83696719E+02
  0
VERTEX
  8
0
 62
4
 10
3.31004844E+02
 20
-2.83770424E+02
  0
VERTEX
  8
0
 62
4
 10
3.30884762E+02
 20
-2.83853933E+02
  0
VERTEX
  8
0
 62
4
 10
3.30773169E+02
 20
-2.83946609E+02
  0
VERTEX
  8
0
 62
4
 10
3.30670912E+02
 20
-2.84047747E+02
  0
VERTEX
  8
0
 62
4
 10
3.30578770E+02
 20
-2.84156578E+02
  0
VERTEX
  8
0
 62
4
 10
3.30497445E+02
 20
-2.84272273E+02
  0
VERTEX
  8
0
 62
4
 10
3.30427555E+02
 20
-2.84393951E+02
  0
VERTEX
  8
0
 62
4
 10
3.30369632E+02
 20
-2.84520687E+02
  0
VERTEX
  8
0
 62
4
 10
3.30324118E+02
 20
-2.84651517E+02
  0
VERTEX
  8
0
 62
4
 10
3.30291358E+02
 20
-2.84785443E+02
  0
VERTEX
  8
0
 62
4
 10
3.30271601E+02
 20
-2.84921447E+02
  0
VERTEX
  8
0
 62
4
 10
3.30264999E+02
 20
-2.85058495E+02
  0
VERTEX
  8
0
 62
4
 10
3.30271601E+02
 20
-2.85195543E+02
  0
VERTEX
  8
0
 62
4
 10
3.30291358E+02
 20
-2.85331547E+02
  0
VERTEX
  8
0
 62
4
 10
3.30324118E+02
 20
-2.85465473E+02
  0
VERTEX
  8
0
 62
4
 10
3.30369632E+02
 20
-2.85596303E+02
  0
VERTEX
  8
0
 62
4
 10
3.30427555E+02
 20
-2.85723039E+02
  0
VERTEX
  8
0
 62
4
 10
3.30497445E+02
 20
-2.85844717E+02
  0
VERTEX
  8
0
 62
4
 10
3.30578770E+02
 20
-2.85960412E+02
  0
VERTEX
  8
0
 62
4
 10
3.30670912E+02
 20
-2.86069243E+02
  0
VERTEX
  8
0
 62
4
 10
3.30773169E+02
 20
-2.86170381E+02
  0
VERTEX
  8
0
 62
4
 10
3.30884762E+02
 20
-2.86263057E+02
  0
VERTEX
  8
0
 62
4
 10
3.31004844E+02
 20
-2.86346566E+02
  0
VERTEX
  8
0
 62
4
 10
3.31132499E+02
 20
-2.86420271E+02
  0
VERTEX
  8
0
 62
4
 10
3.31266756E+02
 20
-2.86483613E+02
  0
VERTEX
  8
0
 62
4
 10
3.31406594E+02
 20
-2.86536109E+02
  0
VERTEX
  8
0
 62
4
 10
3.31550948E+02
 20
-2.86577359E+02
  0
VERTEX
  8
0
 62
4
 10
3.31698719E+02
 20
-2.86607050E+02
  0
VERTEX
  8
0
 62
4
 10
3.31848784E+02
 20
-2.86624955E+02
  0
VERTEX
  8
0
 62
4
 10
3.31999999E+02
 20
-2.86630939E+02
  0
VERTEX
  8
0
 62
4
 10
3.32151214E+02
 20
-2.86624955E+02
  0
VERTEX
  8
0
 62
4
 10
3.32301279E+02
 20
-2.86607050E+02
  0
VERTEX
  8
0
 62
4
 10
3.32449050E+02
 20
-2.86577359E+02
  0
VERTEX
  8
0
 62
4
 10
3.32593404E+02
 20
-2.86536109E+02
  0
VERTEX
  8
0
 62
4
 10
3.32733242E+02
 20
-2.86483613E+02
  0
VERTEX
  8
0
 62
4
 10
3.32867499E+02
 20
-2.86420271E+02
  0
VERTEX
  8
0
 62
4
 10
3.32995154E+02
 20
-2.86346566E+02
  0
VERTEX
  8
0
 62
4
 10
3.33115236E+02
 20
-2.86263057E+02
  0
VERTEX
  8
0
 62
4
 10
3.33226829E+02
 20
-2.86170381E+02
  0
VERTEX
  8
0
 62
4
 10
3.33329086E+02
 20
-2.86069243E+02
  0
VERTEX
  8
0
 62
4
 10
3.33421228E+02
 20
-2.85960412E+02
  0
VERTEX
  8
0
 62
4
 10
3.33502553E+02
 20
-2.85844717E+02
  0
VERTEX
  8
0
 62
4
 10
3.33572443E+02
 20
-2.85723039E+02
  0
VERTEX
  8
0
 62
4
 10
3.33630366E+02
 20
-2.85596303E+02
  0
VERTEX
  8
0
 62
4
 10
3.33675880E+02
 20
-2.85465473E+02
  0
VERTEX
  8
0
 62
4
 10
3.33708640E+02
 20
-2.85331547E+02
  0
VERTEX
  8
0
 62
4
 10
3.33728397E+02
 20
-2.85195543E+02
  0
VERTEX
  8
0
 62
4
 10
3.33734999E+02
 20
-2.85058495E+02
  0
SEQEND
  8
0
  0
LINE
  8
0
  6
CENTER
 62
6
 10
3.39999999E+02
 20
-2.80063027E+02
 11
3.39999999E+02
 21
-2.90063027E+02
  0
LINE
  8
0
  6
CENTER
 62
6
 10
3.31999999E+02
 20
-2.80063027E+02
 11
3.31999999E+02
 21
-2.90063027E+02
  0
LINE
  8
0
  6
CENTER
 62
6
 10
3.26999999E+02
 20
-2.85063027E+02
 11
3.44999999E+02
 21
-2.85063027E+02
  0
LINE
  8
0
 62
4
 10
3.28499999E+02
 20
-2.60343664E+02
 11
3.43499999E+02
 21
-2.60343664E+02
  0
LINE
  8
0
 62
4
 10
3.28499999E+02
 20
-2.48304222E+02
 11
3.10499999E+02
 21
-2.48304222E+02
  0
ARC
  8
0
 62
4
 10
3.10500008E+02
 20
-2.49804231E+02
 40
1.50000856E+00
 50
9.00003273E+01
 51
1.79999673E+02
  0
LINE
  8
0
 62
4
 10
3.46499999E+02
 20
-2.48304222E+02
 11
3.43499999E+02
 21
-2.48304222E+02
  0
ARC
  8
0
 62
4
 10
3.46499991E+02
 20
-2.49804231E+02
 40
1.50000856E+00
 50
3.27119593E-04
 51
8.99996730E+01
  0
LINE
  8
0
 62
4
 10
3.43499999E+02
 20
-2.51191419E+02
 11
3.28499999E+02
 21
-2.51191419E+02
  0
LINE
  8
0
 62
4
 10
3.43499999E+02
 20
-2.23100758E+02
 11
3.28499999E+02
 21
-2.23100758E+02
  0
ARC
  8
0
 62
4
 10
3.10500008E+02
 20
-2.58068203E+02
 40
1.50000856E+00
 50
9.00003273E+01
 51
1.79999673E+02
  0
ARC
  8
0
 62
4
 10
3.44000013E+02
 20
-2.39208277E+02
 40
5.00013809E-01
 50
9.00015821E+01
 51
1.79998418E+02
  0
ARC
  8
0
 62
4
 10
3.52499987E+02
 20
-2.25208275E+02
 40
5.00011902E-01
 50
1.36383594E-03
 51
8.99986360E+01
  0
ARC
  8
0
 62
4
 10
3.52500011E+02
 20
-2.38208275E+02
 40
4.99988098E-01
 50
2.69998636E+02
 51
1.36386840E-03
  0
ARC
  8
0
 62
4
 10
3.46499991E+02
 20
-2.58068203E+02
 40
1.50000856E+00
 50
3.27119593E-04
 51
8.99996730E+01
  0
LINE
  8
0
 62
4
 10
3.08999999E+02
 20
-2.49804222E+02
 11
3.08999999E+02
 21
-2.72999969E+02
  0
LINE
  8
0
 62
4
 10
3.26499999E+02
 20
-2.52942963E+02
 11
3.26499999E+02
 21
-2.56568195E+02
  0
LINE
  8
0
 62
4
 10
3.43499999E+02
 20
-2.23100758E+02
 11
3.43499999E+02
 21
-2.52942963E+02
  0
LINE
  8
0
 62
4
 10
3.28499999E+02
 20
-2.23100758E+02
 11
3.28499999E+02
 21
-2.52942963E+02
  0
LINE
  8
0
 62
4
 10
3.45499999E+02
 20
-2.52942963E+02
 11
3.45499999E+02
 21
-2.56568195E+02
  0
LINE
  8
0
 62
4
 10
3.47999999E+02
 20
-2.49804222E+02
 11
3.47999999E+02
 21
-2.72999969E+02
  0
LINE
  8
0
 62
4
 10
3.45499999E+02
 20
-2.52942963E+02
 11
3.26499999E+02
 21
-2.52942963E+02
  0
LINE
  8
0
 62
4
 10
3.43499999E+02
 20
-2.29440032E+02
 11
3.28499999E+02
 21
-2.29440032E+02
  0
LINE
  8
0
 62
4
 10
3.52499999E+02
 20
-2.38708264E+02
 11
3.43999999E+02
 21
-2.38708264E+02
  0
LINE
  8
0
 62
4
 10
3.56499999E+02
 20
-2.37458264E+02
 11
3.52999999E+02
 21
-2.37458264E+02
  0
LINE
  8
0
 62
4
 10
3.56499999E+02
 20
-2.25458264E+02
 11
3.56499999E+02
 21
-2.37958264E+02
  0
LINE
  8
0
 62
4
 10
3.57999999E+02
 20
-2.37958264E+02
 11
3.52999999E+02
 21
-2.37958264E+02
  0
LINE
  8
0
 62
4
 10
3.57999999E+02
 20
-2.25458264E+02
 11
3.52999999E+02
 21
-2.25458264E+02
  0
LINE
  8
0
 62
4
 10
3.57999999E+02
 20
-2.24910934E+02
 11
3.57999999E+02
 21
-2.38514613E+02
  0
LINE
  8
0
 62
4
 10
3.62999999E+02
 20
-2.24910934E+02
 11
3.62999999E+02
 21
-2.38514613E+02
  0
LINE
  8
0
 62
4
 10
3.52999999E+02
 20
-2.25208264E+02
 11
3.52999999E+02
 21
-2.38208264E+02
  0
LINE
  8
0
 62
4
 10
3.43499999E+02
 20
-2.24708264E+02
 11
3.52499999E+02
 21
-2.24708264E+02
  0
LINE
  8
0
 62
4
 10
3.62999999E+02
 20
-2.24910934E+02
 11
3.57999999E+02
 21
-2.24910934E+02
  0
LINE
  8
0
 62
4
 10
3.46499999E+02
 20
-2.56568195E+02
 11
3.10499999E+02
 21
-2.56568195E+02
  0
LINE
  8
0
 62
4
 10
3.56499999E+02
 20
-2.25958264E+02
 11
3.52999999E+02
 21
-2.25958264E+02
  0
LINE
  8
0
 62
4
 10
3.28499999E+02
 20
-2.60343664E+02
 11
3.28499999E+02
 21
-2.88271947E+02
  0
LINE
  8
0
 62
4
 10
3.43499999E+02
 20
-2.60343664E+02
 11
3.43499999E+02
 21
-2.88271947E+02
  0
LINE
  8
0
 62
4
 10
3.28499999E+02
 20
-2.88271947E+02
 11
3.43499999E+02
 21
-2.88271947E+02
  0
LINE
  8
0
 62
4
 10
3.28499999E+02
 20
-2.63299446E+02
 11
3.43499999E+02
 21
-2.63299446E+02
  0
ARC
  8
0
 62
7
 10
1.46016250E+02
 20
-2.68099960E+02
 40
1.00000000E+00
 50
3.55410354E+02
 51
9.00000179E+01
  0
ARC
  8
0
 62
7
 10
1.72000014E+02
 20
-2.68499985E+02
 40
5.00000000E+00
 50
3.59721787E-05
 51
9.00000179E+01
  0
ARC
  8
0
 62
7
 10
1.72000014E+02
 20
-2.68499985E+02
 40
4.40000010E+00
 50
3.59721787E-05
 51
9.00000179E+01
  0
ARC
  8
0
 62
7
 10
1.23250014E+02
 20
-2.68100006E+02
 40
1.00000000E+00
 50
9.00000042E+01
 51
1.80000041E+02
  0
ARC
  8
0
 62
7
 10
9.59840537E+01
 20
-2.68100006E+02
 40
1.00000000E+00
 50
9.00000179E+01
 51
1.84587797E+02
  0
ARC
  8
0
 62
7
 10
7.00000449E+01
 20
-2.68499985E+02
 40
5.00000000E+00
 50
9.00000179E+01
 51
1.80000000E+02
  0
ARC
  8
0
 62
7
 10
7.00000449E+01
 20
-2.68499985E+02
 40
4.40000010E+00
 50
9.00000179E+01
 51
1.80000000E+02
  0
ARC
  8
0
 62
7
 10
1.18750014E+02
 20
-2.68100006E+02
 40
1.00000000E+00
 50
3.59721787E-05
 51
9.00000179E+01
  0
LINE
  8
0
  6
CENTER
 62
2
 10
1.62999984E+02
 20
-2.61019287E+02
 11
1.62999984E+02
 21
-2.91926224E+02
  0
LINE
  8
0
  6
CENTER
 62
2
 10
1.32999984E+02
 20
-3.03456169E+02
 11
1.32999984E+02
 21
-2.61236420E+02
  0
LINE
  8
0
  6
CENTER
 62
2
 10
1.02999984E+02
 20
-2.61713516E+02
 11
1.02999984E+02
 21
-3.06845200E+02
  0
LINE
  8
0
  6
CENTER
 62
2
 10
7.89999839E+01
 20
-2.60607300E+02
 11
7.89999839E+01
 21
-2.92357849E+02
  0
LINE
  8
0
  6
CENTER
 62
2
 10
1.21000014E+02
 20
-2.58201294E+02
 11
1.21000014E+02
 21
-3.19500000E+02
  0
LINE
  8
0
 62
7
 10
1.79600021E+02
 20
-3.07100021E+02
 11
1.79600021E+02
 21
-3.03900002E+02
  0
LINE
  8
0
  6
CENTER
 62
2
 10
1.80464187E+02
 20
-3.05499985E+02
 11
1.77000136E+02
 21
-3.05499985E+02
  0
LINE
  8
0
 62
7
 10
1.77400069E+02
 20
-3.09249962E+02
 11
1.77000136E+02
 21
-3.09249962E+02
  0
LINE
  8
0
 62
7
 10
1.77400069E+02
 20
-3.01749985E+02
 11
1.77000136E+02
 21
-3.01749985E+02
  0
LINE
  8
0
  6
CENTER
 62
2
 10
6.13122092E+01
 20
-3.19500000E+02
 11
1.81946120E+02
 21
-3.19500000E+02
  0
LINE
  8
0
 62
7
 10
6.85999595E+01
 20
-2.94483856E+02
 11
6.85999595E+01
 21
-3.19500000E+02
  0
LINE
  8
0
 62
2
 10
7.19166099E+01
 20
-3.19535271E+02
 11
7.19166099E+01
 21
-3.19499977E+02
  0
LINE
  8
0
 62
7
 10
6.55999900E+01
 20
-2.68500061E+02
 11
6.55999900E+01
 21
-3.19500000E+02
  0
LINE
  8
0
 62
7
 10
6.96001121E+01
 20
-3.18249947E+02
 11
9.50975486E+01
 21
-3.18249947E+02
  0
LINE
  8
0
 62
7
 10
6.50000144E+01
 20
-2.68500061E+02
 11
6.50000144E+01
 21
-3.19500000E+02
  0
LINE
  8
0
 62
7
 10
1.19750014E+02
 20
-2.68100082E+02
 11
1.19750014E+02
 21
-2.93597473E+02
  0
LINE
  8
0
 62
7
 10
1.03568231E+02
 20
-3.00300126E+02
 11
8.85785584E+01
 21
-2.85310460E+02
  0
LINE
  8
0
 62
7
 10
1.01800443E+02
 20
-3.02067915E+02
 11
8.68107379E+01
 21
-2.87078216E+02
  0
LINE
  8
0
  6
CENTER
 62
2
 10
9.38063499E+01
 20
-2.77499954E+02
 11
6.27168723E+01
 21
-2.77499954E+02
  0
LINE
  8
0
 62
7
 10
1.76400008E+02
 20
-2.68500015E+02
 11
1.76400008E+02
 21
-3.19500000E+02
  0
LINE
  8
0
 62
7
 10
1.40199969E+02
 20
-3.02068063E+02
 11
1.55189585E+02
 21
-2.87078448E+02
  0
LINE
  8
0
 62
7
 10
1.38432235E+02
 20
-3.00300415E+02
 11
1.53421851E+02
 21
-2.85310800E+02
  0
LINE
  8
0
 62
7
 10
1.73400008E+02
 20
-2.94484055E+02
 11
1.73400008E+02
 21
-3.19500000E+02
  0
LINE
  8
0
 62
7
 10
1.72400069E+02
 20
-3.18249947E+02
 11
1.46902633E+02
 21
-3.18249947E+02
  0
LINE
  8
0
 62
7
 10
1.22250014E+02
 20
-2.68100082E+02
 11
1.22250014E+02
 21
-2.93597519E+02
  0
LINE
  8
0
 62
7
 10
1.76999984E+02
 20
-2.68500061E+02
 11
1.76999984E+02
 21
-3.19500000E+02
  0
LINE
  8
0
  6
CENTER
 62
2
 10
1.78964034E+02
 20
-2.77499954E+02
 11
1.47109023E+02
 21
-2.77499954E+02
  0
ARC
  8
0
 62
7
 10
1.77122542E+02
 20
-3.04234497E+02
 40
2.50000024E+00
 50
3.52308615E+02
 51
8.36271917E+01
  0
ARC
  8
0
 62
7
 10
1.77122542E+02
 20
-3.06765373E+02
 40
2.50000024E+00
 50
2.70000037E+02
 51
3.52308598E+02
  0
CIRCLE
  8
0
 62
7
 10
7.90000449E+01
 20
-2.77499985E+02
 40
8.69999981E+00
  0
ARC
  8
0
 62
7
 10
8.61035300E+01
 20
-2.87785477E+02
 40
1.00000000E+00
 50
4.50000407E+01
 51
1.24630375E+02
  0
ARC
  8
0
 62
7
 10
8.92854758E+01
 20
-2.84603455E+02
 40
1.00000000E+00
 50
1.45369616E+02
 51
2.25000005E+02
  0
ARC
  8
0
 62
7
 10
1.01093185E+02
 20
-3.02775093E+02
 40
1.00000000E+00
 50
3.19964773E+02
 51
4.50000407E+01
  0
ARC
  8
0
 62
7
 10
1.04275222E+02
 20
-2.99593079E+02
 40
1.00000000E+00
 50
2.25000019E+02
 51
3.10035573E+02
  0
ARC
  8
0
 62
7
 10
1.18750014E+02
 20
-2.93597443E+02
 40
1.00000000E+00
 50
2.74964208E+02
 51
3.59721787E-05
  0
ARC
  8
0
 62
7
 10
9.50975181E+01
 20
-3.17249992E+02
 40
1.00000000E+00
 50
2.70000037E+02
 51
3.55035851E+02
  0
ARC
  8
0
 62
7
 10
6.96000205E+01
 20
-3.17249992E+02
 40
1.00000000E+00
 50
1.80000000E+02
 51
2.70000037E+02
  0
CIRCLE
  8
0
 62
7
 10
7.90000449E+01
 20
-2.77499985E+02
 40
8.00000000E+00
  0
ARC
  8
0
 62
7
 10
6.96000205E+01
 20
-2.94483826E+02
 40
1.00000000E+00
 50
8.54104450E+01
 51
1.80000000E+02
  0
ARC
  8
0
 62
7
 10
9.08418723E+01
 20
-2.73497498E+02
 40
1.00000000E+00
 50
8.81864524E+01
 51
1.98675199E+02
  0
ARC
  8
0
 62
7
 10
7.49976646E+01
 20
-2.89341919E+02
 40
1.00000000E+00
 50
7.13256114E+01
 51
1.81810062E+02
  0
ARC
  8
0
 62
7
 10
7.90000449E+01
 20
-2.77499985E+02
 40
1.15000000E+01
 50
2.51325579E+02
 51
1.86749753E+01
  0
ARC
  8
0
 62
7
 10
9.10001060E+01
 20
-2.68499985E+02
 40
4.00000000E+00
 50
2.68187376E+02
 51
4.58865268E+00
  0
ARC
  8
0
 62
7
 10
7.00001670E+01
 20
-2.89499847E+02
 40
4.00000000E+00
 50
2.65409593E+02
 51
1.81044591E+00
  0
CIRCLE
  8
0
 62
7
 10
1.63000045E+02
 20
-2.77500031E+02
 40
8.69999981E+00
  0
ARC
  8
0
 62
7
 10
1.52714553E+02
 20
-2.84603500E+02
 40
1.00000000E+00
 50
3.15000045E+02
 51
3.46303655E+01
  0
ARC
  8
0
 62
7
 10
1.55896621E+02
 20
-2.87785477E+02
 40
1.00000000E+00
 50
5.53696202E+01
 51
1.35000009E+02
  0
ARC
  8
0
 62
7
 10
1.72400069E+02
 20
-3.17250038E+02
 40
1.00000000E+00
 50
2.70000054E+02
 51
3.59721787E-05
  0
ARC
  8
0
 62
7
 10
1.46902572E+02
 20
-3.17249992E+02
 40
1.00000000E+00
 50
1.84964182E+02
 51
2.70000037E+02
  0
ARC
  8
0
 62
7
 10
1.40906997E+02
 20
-3.02775146E+02
 40
1.00000000E+00
 50
1.35000009E+02
 51
2.20035578E+02
  0
ARC
  8
0
 62
7
 10
1.37724929E+02
 20
-2.99593124E+02
 40
1.00000000E+00
 50
2.29964747E+02
 51
3.15000028E+02
  0
ARC
  8
0
 62
7
 10
1.23250014E+02
 20
-2.93597488E+02
 40
1.00000000E+00
 50
1.80000041E+02
 51
2.65035855E+02
  0
ARC
  8
0
 62
7
 10
1.63000045E+02
 20
-2.77499985E+02
 40
1.15000000E+01
 50
1.61325553E+02
 51
2.88675085E+02
  0
ARC
  8
0
 62
7
 10
1.72400069E+02
 20
-2.93000015E+02
 40
1.00000000E+00
 50
2.70000037E+02
 51
3.12096337E+02
  0
CIRCLE
  8
0
 62
7
 10
1.63000045E+02
 20
-2.77500031E+02
 40
8.00000000E+00
  0
ARC
  8
0
 62
7
 10
1.72000014E+02
 20
-2.89500046E+02
 40
4.00000000E+00
 50
1.78186885E+02
 51
2.74588667E+02
  0
ARC
  8
0
 62
7
 10
1.51000167E+02
 20
-2.68500137E+02
 40
4.00000000E+00
 50
1.75409621E+02
 51
2.71810474E+02
  0
ARC
  8
0
 62
7
 10
1.72400069E+02
 20
-2.94484024E+02
 40
1.00000000E+00
 50
3.59721787E-05
 51
9.45895365E+01
  0
ARC
  8
0
 62
7
 10
1.67002517E+02
 20
-2.89341873E+02
 40
1.00000000E+00
 50
3.58187399E+02
 51
1.08674650E+02
  0
ARC
  8
0
 62
7
 10
1.51158156E+02
 20
-2.73497604E+02
 40
1.00000000E+00
 50
3.41325670E+02
 51
9.18100386E+01
  0
ARC
  8
0
 62
7
 10
1.20999953E+02
 20
-3.19499947E+02
 40
2.50000153E+01
 50
0.00000000E+00
 51
1.80000122E+02
  0
CIRCLE
  8
0
 62
2
 10
1.63000045E+02
 20
-2.77499985E+02
 40
5.00000000E+00
  0
CIRCLE
  8
0
 62
2
 10
7.90000449E+01
 20
-2.77499985E+02
 40
5.00000000E+00
  0
CIRCLE
  8
0
 62
7
 10
1.63000045E+02
 20
-2.77499985E+02
 40
4.17999983E+00
  0
CIRCLE
  8
0
 62
7
 10
7.90000449E+01
 20
-2.77499985E+02
 40
4.17999983E+00
  0
LINE
  8
0
 62
7
 10
1.72000136E+02
 20
-2.63499969E+02
 11
7.00000449E+01
 21
-2.63499969E+02
  0
LINE
  8
0
 62
7
 10
1.46016189E+02
 20
-2.67099976E+02
 11
9.59840842E+01
 21
-2.67099976E+02
  0
LINE
  8
0
 62
7
 10
1.72000136E+02
 20
-2.64099945E+02
 11
7.00000449E+01
 21
-2.64099945E+02
  0
ARC
  8
0
 62
7
 10
1.21000014E+02
 20
-3.19500000E+02
 40
2.44999695E+01
 50
0.00000000E+00
 51
1.80000000E+02
  0
TEXT
  8
0
 62
7
 10
-5.88411988E+01
 20
-1.23636066E+01
 40
9.00000000E+00
  1
STRETCH LIST
 41
1.05263158E+00
  7
MONOTXT
  0
TEXT
  8
0
 62
7
 10
3.47158801E+02
 20
-1.23636066E+01
 40
9.00000000E+00
  1
(mm)
 41
1.00000000E+00
  7
MONOTXT
  0
LINE
  8
0
 62
7
 10
-4.01825574E+02
 20
-1.78636066E+01
 11
3.90174426E+02
 21
-1.78636066E+01
  0
LINE
  8
0
 62
7
 10
-4.01825574E+02
 20
-4.78636066E+01
 11
3.90174426E+02
 21
-4.78636066E+01
  0
LINE
  8
0
 62
7
 10
-4.01825574E+02
 20
-4.78636066E+01
 11
-4.01825574E+02
 21
-1.78636066E+01
  0
TEXT
  8
0
 62
7
 10
-3.91540261E+02
 20
-2.98636066E+01
 40
9.00000000E+00
  1
STROKE
 41
1.00000000E+00
  7
MONOTXT
  0
TEXT
  8
0
 62
7
 10
-3.96040261E+02
 20
-4.48636066E+01
 40
9.00000000E+00
  1
STRETCH
 41
1.00000000E+00
  7
MONOTXT
  0
LINE
  8
0
 62
7
 10
-4.01825574E+02
 20
-3.28636066E+01
 11
3.90174426E+02
 21
-3.28636066E+01
  0
LINE
  8
0
 62
7
 10
-3.29825574E+02
 20
-4.78636066E+01
 11
-3.29825574E+02
 21
-1.78636066E+01
  0
LINE
  8
0
 62
7
 10
-2.84825574E+02
 20
-4.78636066E+01
 11
-2.84825574E+02
 21
-1.78636066E+01
  0
LINE
  8
0
 62
7
 10
-2.39825574E+02
 20
-4.78636066E+01
 11
-2.39825574E+02
 21
-1.78636066E+01
  0
LINE
  8
0
 62
7
 10
-1.94825574E+02
 20
-4.78636066E+01
 11
-1.94825574E+02
 21
-1.78636066E+01
  0
LINE
  8
0
 62
7
 10
-1.49825574E+02
 20
-4.78636066E+01
 11
-1.49825574E+02
 21
-1.78636066E+01
  0
LINE
  8
0
 62
7
 10
-1.04825574E+02
 20
-4.78636066E+01
 11
-1.04825574E+02
 21
-1.78636066E+01
  0
LINE
  8
0
 62
7
 10
-5.98255738E+01
 20
-4.78636066E+01
 11
-5.98255738E+01
 21
-1.78636066E+01
  0
LINE
  8
0
 62
7
 10
-1.48255738E+01
 20
-4.78636066E+01
 11
-1.48255738E+01
 21
-1.78636066E+01
  0
LINE
  8
0
 62
7
 10
3.01744262E+01
 20
-4.78636066E+01
 11
3.01744262E+01
 21
-1.78636066E+01
  0
LINE
  8
0
 62
7
 10
7.51744262E+01
 20
-4.78636066E+01
 11
7.51744262E+01
 21
-1.78636066E+01
  0
LINE
  8
0
 62
7
 10
1.20174426E+02
 20
-4.78636066E+01
 11
1.20174426E+02
 21
-1.78636066E+01
  0
LINE
  8
0
 62
7
 10
1.65174426E+02
 20
-4.78636066E+01
 11
1.65174426E+02
 21
-1.78636066E+01
  0
LINE
  8
0
 62
7
 10
2.10174426E+02
 20
-4.78636066E+01
 11
2.10174426E+02
 21
-1.78636066E+01
  0
LINE
  8
0
 62
7
 10
2.55174426E+02
 20
-4.78636066E+01
 11
2.55174426E+02
 21
-1.78636066E+01
  0
LINE
  8
0
 62
7
 10
3.00174426E+02
 20
-4.78636066E+01
 11
3.00174426E+02
 21
-1.78636066E+01
  0
LINE
  8
0
 62
7
 10
3.45174426E+02
 20
-4.78636066E+01
 11
3.45174426E+02
 21
-1.78636066E+01
  0
LINE
  8
0
 62
7
 10
3.90174426E+02
 20
-4.78636066E+01
 11
3.90174426E+02
 21
-1.78636066E+01
  0
TEXT
  8
0
 62
7
 10
-3.15341199E+02
 20
-2.98636066E+01
 40
9.00000000E+00
  1
50
 41
1.00000000E+00
  7
MONOTXT
  0
TEXT
  8
0
 62
7
 10
-2.70341199E+02
 20
-2.98636066E+01
 40
9.00000000E+00
  1
75
 41
1.00000000E+00
  7
MONOTXT
  0
TEXT
  8
0
 62
7
 10
-2.29841199E+02
 20
-2.98636066E+01
 40
9.00000000E+00
  1
100
 41
1.00000000E+00
  7
MONOTXT
  0
TEXT
  8
0
 62
7
 10
-1.84841199E+02
 20
-2.98636066E+01
 40
9.00000000E+00
  1
150
 41
1.00000000E+00
  7
MONOTXT
  0
TEXT
  8
0
 62
7
 10
-1.39841199E+02
 20
-2.98636066E+01
 40
9.00000000E+00
  1
200
 41
1.00000000E+00
  7
MONOTXT
  0
TEXT
  8
0
 62
7
 10
-9.48411988E+01
 20
-2.98636066E+01
 40
9.00000000E+00
  1
250
 41
1.00000000E+00
  7
MONOTXT
  0
TEXT
  8
0
 62
7
 10
-4.98411988E+01
 20
-2.98636066E+01
 40
9.00000000E+00
  1
300
 41
1.00000000E+00
  7
MONOTXT
  0
TEXT
  8
0
 62
7
 10
-4.84119877E+00
 20
-2.98636066E+01
 40
9.00000000E+00
  1
350
 41
1.00000000E+00
  7
MONOTXT
  0
TEXT
  8
0
 62
7
 10
4.01588012E+01
 20
-2.98636066E+01
 40
9.00000000E+00
  1
400
 41
1.00000000E+00
  7
MONOTXT
  0
TEXT
  8
0
 62
7
 10
8.51588012E+01
 20
-2.98636066E+01
 40
9.00000000E+00
  1
450
 41
1.00000000E+00
  7
MONOTXT
  0
TEXT
  8
0
 62
7
 10
1.30158801E+02
 20
-2.98636066E+01
 40
9.00000000E+00
  1
500
 41
1.00000000E+00
  7
MONOTXT
  0
TEXT
  8
0
 62
7
 10
1.75158801E+02
 20
-2.98636066E+01
 40
9.00000000E+00
  1
600
 41
1.00000000E+00
  7
MONOTXT
  0
TEXT
  8
0
 62
7
 10
2.20158801E+02
 20
-2.98636066E+01
 40
9.00000000E+00
  1
700
 41
1.00000000E+00
  7
MONOTXT
  0
TEXT
  8
0
 62
7
 10
2.65158801E+02
 20
-2.98636066E+01
 40
9.00000000E+00
  1
800
 41
1.00000000E+00
  7
MONOTXT
  0
TEXT
  8
0
 62
7
 10
3.10158801E+02
 20
-2.98636066E+01
 40
9.00000000E+00
  1
900
 41
1.00000000E+00
  7
MONOTXT
  0
TEXT
  8
0
 62
7
 10
3.50658801E+02
 20
-2.98636066E+01
 40
9.00000000E+00
  1
1000
 41
1.00000000E+00
  7
MONOTXT
  0
TEXT
  8
0
 62
7
 10
-3.19841199E+02
 20
-4.48636066E+01
 40
9.00000000E+00
  1
-25
 41
1.00000000E+00
  7
MONOTXT
  0
TEXT
  8
0
 62
7
 10
-2.65841199E+02
 20
-4.48636066E+01
 40
9.00000000E+00
  1
0
 41
1.00000000E+00
  7
MONOTXT
  0
TEXT
  8
0
 62
7
 10
-2.25341199E+02
 20
-4.48636066E+01
 40
9.00000000E+00
  1
25
 41
1.00000000E+00
  7
MONOTXT
  0
TEXT
  8
0
 62
7
 10
-1.80341199E+02
 20
-4.48636066E+01
 40
9.00000000E+00
  1
75
 41
1.00000000E+00
  7
MONOTXT
  0
TEXT
  8
0
 62
7
 10
-1.39841199E+02
 20
-4.48636066E+01
 40
9.00000000E+00
  1
125
 41
1.00000000E+00
  7
MONOTXT
  0
TEXT
  8
0
 62
7
 10
-9.48411988E+01
 20
-4.48636066E+01
 40
9.00000000E+00
  1
175
 41
1.00000000E+00
  7
MONOTXT
  0
TEXT
  8
0
 62
7
 10
-4.98411988E+01
 20
-4.48636066E+01
 40
9.00000000E+00
  1
225
 41
1.00000000E+00
  7
MONOTXT
  0
TEXT
  8
0
 62
7
 10
-4.84119877E+00
 20
-4.48636066E+01
 40
9.00000000E+00
  1
275
 41
1.00000000E+00
  7
MONOTXT
  0
TEXT
  8
0
 62
7
 10
4.01588012E+01
 20
-4.48636066E+01
 40
9.00000000E+00
  1
325
 41
1.00000000E+00
  7
MONOTXT
  0
TEXT
  8
0
 62
7
 10
8.51588012E+01
 20
-4.48636066E+01
 40
9.00000000E+00
  1
375
 41
1.00000000E+00
  7
MONOTXT
  0
TEXT
  8
0
 62
7
 10
1.30158801E+02
 20
-4.48636066E+01
 40
9.00000000E+00
  1
425
 41
1.00000000E+00
  7
MONOTXT
  0
TEXT
  8
0
 62
7
 10
1.75158801E+02
 20
-4.48636066E+01
 40
9.00000000E+00
  1
525
 41
1.00000000E+00
  7
MONOTXT
  0
TEXT
  8
0
 62
7
 10
2.20158801E+02
 20
-4.48636066E+01
 40
9.00000000E+00
  1
625
 41
1.00000000E+00
  7
MONOTXT
  0
TEXT
  8
0
 62
7
 10
2.65158801E+02
 20
-4.48636066E+01
 40
9.00000000E+00
  1
725
 41
1.00000000E+00
  7
MONOTXT
  0
TEXT
  8
0
 62
7
 10
3.10158801E+02
 20
-4.48636066E+01
 40
9.00000000E+00
  1
825
 41
1.00000000E+00
  7
MONOTXT
  0
TEXT
  8
0
 62
7
 10
3.55158801E+02
 20
-4.48636066E+01
 40
9.00000000E+00
  1
925
 41
1.00000000E+00
  7
MONOTXT
  0
ARC
  8
0
 62
7
 10
-1.12999970E+02
 20
-1.72500000E+02
 40
2.00000000E+00
 50
1.80000000E+02
 51
2.70000000E+02
  0
LINE
  8
0
 62
7
 10
-1.12999970E+02
 20
-1.74500000E+02
 11
-8.29999551E+01
 21
-1.74500000E+02
  0
ARC
  8
0
 62
7
 10
-1.12999970E+02
 20
-1.06500000E+02
 40
2.00000000E+00
 50
9.00000002E+01
 51
1.80000000E+02
  0
LINE
  8
0
 62
7
 10
-1.12999970E+02
 20
-1.04500000E+02
 11
-9.09999551E+01
 21
-1.04500000E+02
  0
LINE
  8
0
 62
7
 10
-1.14999970E+02
 20
-1.72500000E+02
 11
-1.14999970E+02
 21
-1.06500000E+02
  0
LINE
  8
0
 62
7
 10
-1.66533348E+01
 20
-2.81999985E+02
 11
-8.29999703E+01
 21
-2.81999985E+02
  0
LINE
  8
0
 62
7
 10
-1.14571736E+01
 20
-2.72999969E+02
 11
-8.29999703E+01
 21
-2.72999969E+02
  0
LINE
  8
0
 62
7
 10
-6.51507926E+01
 20
-1.86000046E+02
 11
-8.29999551E+01
 21
-1.86000046E+02
  0
LINE
  8
0
 62
7
 10
-5.99546138E+01
 20
-1.77000000E+02
 11
-8.29999551E+01
 21
-1.77000000E+02
  0
LINE
  8
0
 62
7
 10
-8.09999551E+01
 20
-9.29999695E+01
 11
-8.29999551E+01
 21
-9.29999695E+01
  0
LINE
  8
0
 62
7
 10
-8.29999551E+01
 20
-8.60000000E+01
 11
-7.41573929E+00
 21
-8.60000000E+01
  0
LINE
  8
0
 62
7
 10
-1.34999970E+02
 20
-1.15936707E+02
 11
-1.34999970E+02
 21
-1.63063187E+02
  0
LINE
  8
0
 62
7
 10
-1.34999986E+02
 20
-2.95971741E+02
 11
-1.34999986E+02
 21
-3.19500000E+02
  0
LINE
  8
0
 62
2
 10
-1.68500008E+02
 20
-3.07320015E+02
 11
-1.56999986E+02
 21
-3.07320015E+02
  0
LINE
  8
0
 62
7
 10
-1.68500008E+02
 20
-3.06500008E+02
 11
-1.56999986E+02
 21
-3.06500008E+02
  0
LINE
  8
0
 62
2
 10
-1.68499993E+02
 20
-1.51679993E+02
 11
-1.56999986E+02
 21
-1.51679993E+02
  0
LINE
  8
0
 62
7
 10
-1.68499993E+02
 20
-1.52500000E+02
 11
-1.56999986E+02
 21
-1.52500000E+02
  0
LINE
  8
0
 62
2
 10
-1.68499993E+02
 20
-1.27320038E+02
 11
-1.56999986E+02
 21
-1.27320038E+02
  0
LINE
  8
0
 62
7
 10
-1.68499993E+02
 20
-1.26500031E+02
 11
-1.56999986E+02
 21
-1.26500031E+02
  0
LINE
  8
0
 62
4
 10
-1.82499993E+02
 20
-1.57499863E+02
 11
-1.68499993E+02
 21
-1.57499863E+02
  0
LINE
  8
0
 62
4
 10
-1.82499993E+02
 20
-1.21499992E+02
 11
-1.68499993E+02
 21
-1.21499992E+02
  0
LINE
  8
0
 62
4
 10
-1.82499993E+02
 20
-1.21499992E+02
 11
-1.82499993E+02
 21
-1.57499863E+02
  0
LINE
  8
0
 62
4
 10
-1.68499993E+02
 20
-1.21499992E+02
 11
-1.68499993E+02
 21
-1.57499863E+02
  0
LINE
  8
0
 62
4
 10
-1.80892484E+02
 20
-1.39500000E+02
 11
-1.70107503E+02
 21
-1.39500000E+02
  0
ARC
  8
0
 62
4
 10
-1.56501962E+02
 20
-1.48500004E+02
 40
2.59980309E+01
 50
1.59746143E+02
 51
2.00253857E+02
  0
ARC
  8
0
 62
4
 10
-1.56501962E+02
 20
-1.30499996E+02
 40
2.59980309E+01
 50
1.59746143E+02
 51
2.00253857E+02
  0
ARC
  8
0
 62
4
 10
-1.94498024E+02
 20
-1.30499996E+02
 40
2.59980309E+01
 50
3.39746143E+02
 51
2.02538569E+01
  0
ARC
  8
0
 62
4
 10
-1.94498024E+02
 20
-1.48500004E+02
 40
2.59980309E+01
 50
3.39746143E+02
 51
2.02538569E+01
  0
LINE
  8
0
 62
4
 10
-1.82500008E+02
 20
-3.01500000E+02
 11
-1.82500008E+02
 21
-3.19500000E+02
  0
LINE
  8
0
 62
4
 10
-1.80892312E+02
 20
-3.09107697E+02
 11
-1.70107705E+02
 21
-3.09107697E+02
  0
LINE
  8
0
 62
4
 10
-1.80892312E+02
 20
-2.98715393E+02
 11
-1.70107705E+02
 21
-2.98715393E+02
  0
LINE
  8
0
 62
4
 10
-1.82500018E+02
 20
-3.01500001E+02
 11
-1.80892339E+02
 21
-2.98715392E+02
  0
LINE
  8
0
 62
4
 10
-1.68500008E+02
 20
-3.01499988E+02
 11
-1.70107689E+02
 21
-2.98715366E+02
  0
LINE
  8
0
 62
4
 10
-1.68500008E+02
 20
-3.01500000E+02
 11
-1.68500008E+02
 21
-3.19500000E+02
  0
ARC
  8
0
 62
4
 10
-2.02892274E+02
 20
-3.19500000E+02
 40
3.43922653E+01
 50
0.00000000E+00
 51
1.75879147E+01
  0
ARC
  8
0
 62
4
 10
-1.77700963E+02
 20
-3.03911545E+02
 40
9.20095253E+00
 50
3.25615707E+02
 51
3.43842378E+01
  0
ARC
  8
0
 62
4
 10
-1.48107743E+02
 20
-3.19500000E+02
 40
3.43922653E+01
 50
1.62412050E+02
 51
1.80000000E+02
  0
ARC
  8
0
 62
4
 10
-1.73299054E+02
 20
-3.03911545E+02
 40
9.20095253E+00
 50
1.45615726E+02
 51
2.14384256E+02
  0
LINE
  8
0
 62
4
 10
-3.59000128E+02
 20
-2.98715392E+02
 11
-3.41000123E+02
 21
-3.09107698E+02
  0
LINE
  8
0
 62
4
 10
-3.77000051E+02
 20
-3.09107731E+02
 11
-3.59000049E+02
 21
-2.98715427E+02
  0
LINE
  8
0
 62
4
 10
-3.40999986E+02
 20
-3.09107697E+02
 11
-3.40999986E+02
 21
-3.19500000E+02
  0
LINE
  8
0
 62
4
 10
-3.76999993E+02
 20
-3.09107697E+02
 11
-3.76999993E+02
 21
-3.19500000E+02
  0
ARC
  8
0
 62
4
 10
-3.58999986E+02
 20
-3.19500000E+02
 40
1.80000000E+01
 50
0.00000000E+00
 51
1.80000000E+02
  0
ARC
  8
0
 62
7
 10
-1.56999986E+02
 20
-3.19499985E+02
 40
1.50000248E+01
 50
3.59999942E+02
 51
2.99266002E+01
  0
ARC
  8
0
 62
7
 10
-3.58999986E+02
 20
-3.19500000E+02
 40
1.14999914E+01
 50
0.00000000E+00
 51
1.80000000E+02
  0
ARC
  8
0
 62
2
 10
-3.58999986E+02
 20
-3.19500000E+02
 40
1.21799841E+01
 50
0.00000000E+00
 51
1.80000000E+02
  0
ARC
  8
0
 62
7
 10
-3.58999986E+02
 20
-3.19500000E+02
 40
1.29999914E+01
 50
0.00000000E+00
 51
1.80000000E+02
  0
ARC
  8
0
 62
7
 10
-1.39499940E+02
 20
-1.61999954E+02
 40
5.00000000E-01
 50
1.79999977E+02
 51
2.69999974E+02
  0
ARC
  8
0
 62
7
 10
-1.34499940E+02
 20
-1.63028183E+02
 40
5.00000000E-01
 50
1.79999977E+02
 51
2.67999192E+02
  0
ARC
  8
0
 62
7
 10
-1.34499940E+02
 20
-1.15971680E+02
 40
5.00000000E-01
 50
9.20007356E+01
 51
1.79999951E+02
  0
ARC
  8
0
 62
7
 10
-1.39499940E+02
 20
-1.16999939E+02
 40
5.00000000E-01
 50
8.99999818E+01
 51
1.79999951E+02
  0
ARC
  8
0
 62
7
 10
-1.34500031E+02
 20
-2.95971741E+02
 40
5.00000000E-01
 50
9.20007356E+01
 51
1.79999964E+02
  0
ARC
  8
0
 62
7
 10
-1.39500031E+02
 20
-2.97000031E+02
 40
5.00000000E-01
 50
8.99999818E+01
 51
1.79999964E+02
  0
CIRCLE
  8
0
 62
7
 10
-3.17000016E+02
 20
-2.77499985E+02
 40
4.17999983E+00
  0
CIRCLE
  8
0
 62
7
 10
-4.01000016E+02
 20
-2.77499985E+02
 40
4.17999983E+00
  0
CIRCLE
  8
0
 62
2
 10
-3.17000016E+02
 20
-2.77499985E+02
 40
5.00000000E+00
  0
CIRCLE
  8
0
 62
2
 10
-4.01000016E+02
 20
-2.77499985E+02
 40
5.00000000E+00
  0
ARC
  8
0
 62
7
 10
-3.59000047E+02
 20
-3.19500000E+02
 40
2.40000000E+01
 50
0.00000000E+00
 51
1.80000000E+02
  0
ARC
  8
0
 62
7
 10
-3.58999925E+02
 20
-3.19499947E+02
 40
2.35000153E+01
 50
0.00000000E+00
 51
1.80000130E+02
  0
ARC
  8
0
 62
7
 10
-3.58999925E+02
 20
-3.19499947E+02
 40
2.50000153E+01
 50
0.00000000E+00
 51
1.80000122E+02
  0
ARC
  8
0
 62
7
 10
-3.89158128E+02
 20
-2.73497604E+02
 40
1.00000000E+00
 50
8.81899612E+01
 51
1.98674330E+02
  0
ARC
  8
0
 62
7
 10
-4.05002488E+02
 20
-2.89341873E+02
 40
1.00000000E+00
 50
7.13253501E+01
 51
1.81812600E+02
  0
ARC
  8
0
 62
7
 10
-3.84016221E+02
 20
-2.68099960E+02
 40
1.00000000E+00
 50
8.99999818E+01
 51
1.84589646E+02
  0
ARC
  8
0
 62
7
 10
-4.10400041E+02
 20
-2.94484024E+02
 40
1.00000000E+00
 50
8.54104639E+01
 51
1.79999964E+02
  0
ARC
  8
0
 62
7
 10
-3.89000138E+02
 20
-2.68500137E+02
 40
4.00000000E+00
 50
2.68189526E+02
 51
4.59037889E+00
  0
ARC
  8
0
 62
7
 10
-4.09999986E+02
 20
-2.89500046E+02
 40
4.00000000E+00
 50
2.65411333E+02
 51
1.81311470E+00
  0
CIRCLE
  8
0
 62
7
 10
-4.01000016E+02
 20
-2.77500031E+02
 40
8.00000000E+00
  0
ARC
  8
0
 62
7
 10
-4.09999986E+02
 20
-2.68499985E+02
 40
5.00000000E+00
 50
8.99999818E+01
 51
1.79999964E+02
  0
ARC
  8
0
 62
7
 10
-4.09999986E+02
 20
-2.68499985E+02
 40
4.40000010E+00
 50
8.99999818E+01
 51
1.79999964E+02
  0
ARC
  8
0
 62
7
 10
-4.10400041E+02
 20
-2.93000015E+02
 40
1.00000000E+00
 50
2.27903663E+02
 51
2.69999963E+02
  0
ARC
  8
0
 62
7
 10
-4.01000016E+02
 20
-2.77499985E+02
 40
1.15000000E+01
 50
2.51324914E+02
 51
1.86744475E+01
  0
ARC
  8
0
 62
7
 10
-3.61249986E+02
 20
-2.93597488E+02
 40
1.00000000E+00
 50
2.74964145E+02
 51
3.59999959E+02
  0
ARC
  8
0
 62
7
 10
-3.75724900E+02
 20
-2.99593124E+02
 40
1.00000000E+00
 50
2.24999972E+02
 51
3.10035254E+02
  0
ARC
  8
0
 62
7
 10
-3.78906968E+02
 20
-3.02775146E+02
 40
1.00000000E+00
 50
3.19964423E+02
 51
4.49999910E+01
  0
ARC
  8
0
 62
7
 10
-3.84902543E+02
 20
-3.17249992E+02
 40
1.00000000E+00
 50
2.69999963E+02
 51
3.55035819E+02
  0
ARC
  8
0
 62
7
 10
-3.61249986E+02
 20
-2.68100006E+02
 40
1.00000000E+00
 50
3.59999959E+02
 51
8.99999956E+01
  0
ARC
  8
0
 62
7
 10
-4.10400041E+02
 20
-3.17250038E+02
 40
1.00000000E+00
 50
1.79999964E+02
 51
2.69999946E+02
  0
ARC
  8
0
 62
7
 10
-3.93896592E+02
 20
-2.87785477E+02
 40
1.00000000E+00
 50
4.49999910E+01
 51
1.24630380E+02
  0
ARC
  8
0
 62
7
 10
-3.90714524E+02
 20
-2.84603500E+02
 40
1.00000000E+00
 50
1.45369634E+02
 51
2.24999955E+02
  0
CIRCLE
  8
0
 62
7
 10
-4.01000016E+02
 20
-2.77500031E+02
 40
8.69999981E+00
  0
ARC
  8
0
 62
7
 10
-3.08000138E+02
 20
-2.89499847E+02
 40
4.00000000E+00
 50
1.78189554E+02
 51
2.74590407E+02
  0
ARC
  8
0
 62
7
 10
-3.29000077E+02
 20
-2.68499985E+02
 40
4.00000000E+00
 50
1.75411348E+02
 51
2.71812624E+02
  0
ARC
  8
0
 62
7
 10
-3.17000016E+02
 20
-2.77499985E+02
 40
1.15000000E+01
 50
1.61325025E+02
 51
2.88674421E+02
  0
ARC
  8
0
 62
7
 10
-3.12997636E+02
 20
-2.89341919E+02
 40
1.00000000E+00
 50
3.58189938E+02
 51
1.08674388E+02
  0
ARC
  8
0
 62
7
 10
-3.28841844E+02
 20
-2.73497498E+02
 40
1.00000000E+00
 50
3.41324801E+02
 51
9.18135474E+01
  0
ARC
  8
0
 62
7
 10
-3.33984025E+02
 20
-2.68100006E+02
 40
1.00000000E+00
 50
3.55412203E+02
 51
8.99999818E+01
  0
ARC
  8
0
 62
7
 10
-3.07599992E+02
 20
-2.94483826E+02
 40
1.00000000E+00
 50
0.00000000E+00
 51
9.45895548E+01
  0
CIRCLE
  8
0
 62
7
 10
-3.17000016E+02
 20
-2.77499985E+02
 40
8.00000000E+00
  0
ARC
  8
0
 62
7
 10
-3.08000016E+02
 20
-2.68499985E+02
 40
5.00000000E+00
 50
0.00000000E+00
 51
8.99999818E+01
  0
ARC
  8
0
 62
7
 10
-3.08000016E+02
 20
-2.68499985E+02
 40
4.40000010E+00
 50
0.00000000E+00
 51
8.99999818E+01
  0
ARC
  8
0
 62
7
 10
-3.07599992E+02
 20
-3.17249992E+02
 40
1.00000000E+00
 50
2.69999963E+02
 51
0.00000000E+00
  0
ARC
  8
0
 62
7
 10
-3.33097489E+02
 20
-3.17249992E+02
 40
1.00000000E+00
 50
1.84964149E+02
 51
2.69999963E+02
  0
ARC
  8
0
 62
7
 10
-3.56749986E+02
 20
-2.93597443E+02
 40
1.00000000E+00
 50
1.79999964E+02
 51
2.65035792E+02
  0
ARC
  8
0
 62
7
 10
-3.56749986E+02
 20
-2.68100006E+02
 40
1.00000000E+00
 50
8.99999818E+01
 51
1.79999964E+02
  0
ARC
  8
0
 62
7
 10
-3.42275193E+02
 20
-2.99593079E+02
 40
1.00000000E+00
 50
2.29964427E+02
 51
3.14999981E+02
  0
ARC
  8
0
 62
7
 10
-3.39093156E+02
 20
-3.02775093E+02
 40
1.00000000E+00
 50
1.34999959E+02
 51
2.20035227E+02
  0
ARC
  8
0
 62
7
 10
-3.27285447E+02
 20
-2.84603455E+02
 40
1.00000000E+00
 50
3.14999995E+02
 51
3.46303842E+01
  0
ARC
  8
0
 62
7
 10
-3.24103501E+02
 20
-2.87785477E+02
 40
1.00000000E+00
 50
5.53696252E+01
 51
1.34999959E+02
  0
CIRCLE
  8
0
 62
7
 10
-3.17000016E+02
 20
-2.77499985E+02
 40
8.69999981E+00
  0
CIRCLE
  8
0
 62
2
 10
-9.89998940E+01
 20
-1.27500000E+02
 40
1.04775009E+01
  0
CIRCLE
  8
0
 62
7
 10
-9.89998635E+01
 20
-1.27499939E+02
 40
9.25000000E+00
  0
ARC
  8
0
 62
7
 10
-1.20499970E+02
 20
-2.95000000E+02
 40
5.00000000E-01
 50
9.00000913E+01
 51
1.80000073E+02
  0
ARC
  8
0
 62
7
 10
-1.18499986E+02
 20
-8.46197205E+01
 40
5.00000000E-01
 50
9.10002017E+01
 51
1.79999909E+02
  0
ARC
  8
0
 62
7
 10
-4.15122514E+02
 20
-3.06765373E+02
 40
2.50000024E+00
 50
1.87691403E+02
 51
2.69999963E+02
  0
ARC
  8
0
 62
7
 10
-4.15122514E+02
 20
-3.04234497E+02
 40
2.50000024E+00
 50
9.63728081E+01
 51
1.87691385E+02
  0
ARC
  8
0
 62
7
 10
-1.20499955E+02
 20
-1.15000000E+02
 40
5.00000000E-01
 50
8.99999274E+01
 51
1.79999909E+02
  0
CIRCLE
  8
0
 62
7
 10
-9.00000009E+01
 20
-1.57500000E+02
 40
2.59999990E+00
  0
ARC
  8
0
 62
7
 10
-9.00000009E+01
 20
-1.57500000E+02
 40
5.00000000E+00
 50
1.79999964E+02
 51
1.00179127E-05
  0
ARC
  8
0
 62
7
 10
-9.00000009E+01
 20
-1.57500000E+02
 40
5.00000000E+00
 50
0.00000000E+00
 51
1.79999964E+02
  0
ARC
  8
0
 62
7
 10
-1.18499925E+02
 20
-2.64619736E+02
 40
5.00000000E-01
 50
9.10002905E+01
 51
1.79999977E+02
  0
ARC
  8
0
 62
7
 10
-1.18499986E+02
 20
-1.94380264E+02
 40
5.00000000E-01
 50
1.79999909E+02
 51
2.68999624E+02
  0
ARC
  8
0
 62
7
 10
-1.20499955E+02
 20
-1.64000000E+02
 40
5.00000000E-01
 50
1.79999909E+02
 51
2.69999891E+02
  0
LINE
  8
0
 62
7
 10
-1.56999986E+02
 20
-1.51679993E+02
 11
-1.53999986E+02
 21
-1.51679993E+02
  0
LINE
  8
0
 62
7
 10
-1.56999986E+02
 20
-1.27320038E+02
 11
-1.53999986E+02
 21
-1.27320038E+02
  0
LINE
  8
0
 62
7
 10
-1.44000036E+02
 20
-1.26499953E+02
 11
-1.42000013E+02
 21
-1.24499929E+02
  0
LINE
  8
0
 62
7
 10
-1.43999967E+02
 20
-1.52499988E+02
 11
-1.41999900E+02
 21
-1.54500055E+02
  0
LINE
  8
0
 62
7
 10
-1.53999986E+02
 20
-1.52500000E+02
 11
-1.43999955E+02
 21
-1.52500000E+02
  0
LINE
  8
0
 62
7
 10
-1.53999986E+02
 20
-1.26500000E+02
 11
-1.44000062E+02
 21
-1.26500000E+02
  0
LINE
  8
0
 62
7
 10
-1.41999909E+02
 20
-1.54500046E+02
 11
-1.39999986E+02
 21
-1.54500046E+02
  0
LINE
  8
0
 62
7
 10
-1.50999970E+02
 20
-1.52500000E+02
 11
-1.50999970E+02
 21
-1.26500000E+02
  0
LINE
  8
0
 62
7
 10
-1.42000016E+02
 20
-1.24499939E+02
 11
-1.39999970E+02
 21
-1.24499939E+02
  0
LINE
  8
0
 62
7
 10
-1.53999986E+02
 20
-1.52500000E+02
 11
-1.53999986E+02
 21
-1.26500000E+02
  0
LINE
  8
0
 62
2
 10
-1.93320023E+02
 20
-1.51679993E+02
 11
-1.82499993E+02
 21
-1.51679993E+02
  0
LINE
  8
0
 62
7
 10
-1.94000028E+02
 20
-1.51000048E+02
 11
-1.92500015E+02
 21
-1.52500060E+02
  0
LINE
  8
0
 62
7
 10
-1.92500016E+02
 20
-1.52500000E+02
 11
-1.82499993E+02
 21
-1.52500000E+02
  0
LINE
  8
0
 62
2
 10
-1.93320023E+02
 20
-1.27320038E+02
 11
-1.82499993E+02
 21
-1.27320038E+02
  0
LINE
  8
0
 62
7
 10
-1.93999839E+02
 20
-1.28000202E+02
 11
-1.92499826E+02
 21
-1.26500189E+02
  0
LINE
  8
0
 62
7
 10
-1.92499986E+02
 20
-1.52500000E+02
 11
-1.92499986E+02
 21
-1.26500000E+02
  0
LINE
  8
0
 62
7
 10
-1.92500016E+02
 20
-1.26500031E+02
 11
-1.82499993E+02
 21
-1.26500031E+02
  0
LINE
  8
0
 62
7
 10
-1.56999986E+02
 20
-1.52500000E+02
 11
-1.56999986E+02
 21
-1.26500000E+02
  0
LINE
  8
0
 62
7
 10
-1.94000001E+02
 20
-1.51000061E+02
 11
-1.94000001E+02
 21
-1.28000305E+02
  0
LINE
  8
0
 62
7
 10
-1.56999986E+02
 20
-3.07320015E+02
 11
-1.53999986E+02
 21
-3.07320015E+02
  0
LINE
  8
0
 62
2
 10
-1.48999947E+02
 20
-3.19500000E+02
 11
-1.51777739E+02
 21
-3.15342555E+02
  0
LINE
  8
0
 62
2
 10
-1.43999980E+02
 20
-3.12016632E+02
 11
-1.48999984E+02
 21
-3.19500000E+02
  0
LINE
  8
0
 62
7
 10
-1.53999967E+02
 20
-3.19499999E+02
 11
-1.49999951E+02
 21
-3.12016630E+02
  0
LINE
  8
0
 62
7
 10
-1.49999970E+02
 20
-3.12016624E+02
 11
-1.43999986E+02
 21
-3.12016624E+02
  0
LINE
  8
0
 62
7
 10
-1.43999986E+02
 20
-3.19500000E+02
 11
-1.43999986E+02
 21
-3.12016624E+02
  0
LINE
  8
0
 62
7
 10
-1.53999958E+02
 20
-3.06500017E+02
 11
-1.49999945E+02
 21
-3.04499972E+02
  0
LINE
  8
0
 62
7
 10
-1.49999970E+02
 20
-3.12016624E+02
 11
-1.49999970E+02
 21
-3.04499962E+02
  0
LINE
  8
0
 62
7
 10
-1.49999970E+02
 20
-3.04499962E+02
 11
-1.39999986E+02
 21
-3.04499962E+02
  0
LINE
  8
0
 62
2
 10
-1.93320054E+02
 20
-3.07320015E+02
 11
-1.82500008E+02
 21
-3.07320015E+02
  0
LINE
  8
0
 62
7
 10
-1.93999868E+02
 20
-3.08000187E+02
 11
-1.92499850E+02
 21
-3.06500170E+02
  0
LINE
  8
0
 62
7
 10
-1.92499986E+02
 20
-3.19500000E+02
 11
-1.92499986E+02
 21
-3.06500008E+02
  0
LINE
  8
0
 62
7
 10
-1.92500047E+02
 20
-3.06500008E+02
 11
-1.82500008E+02
 21
-3.06500008E+02
  0
LINE
  8
0
 62
7
 10
-1.56999986E+02
 20
-3.19500000E+02
 11
-1.56999986E+02
 21
-3.06500008E+02
  0
LINE
  8
0
 62
7
 10
-1.94000001E+02
 20
-3.19500000E+02
 11
-1.94000001E+02
 21
-3.08000305E+02
  0
LINE
  8
0
 62
7
 10
-1.53999986E+02
 20
-3.19500000E+02
 11
-1.53999986E+02
 21
-3.06500008E+02
  0
LINE
  8
0
 62
7
 10
-1.34517414E+02
 20
-1.63527533E+02
 11
-1.20999957E+02
 21
-1.63999573E+02
  0
LINE
  8
0
 62
7
 10
-1.21000001E+02
 20
-3.19500000E+02
 11
-1.21000001E+02
 21
-2.95000031E+02
  0
LINE
  8
0
  6
CENTER
 62
2
 10
-9.89998940E+01
 20
-1.41605835E+02
 11
-9.89998940E+01
 21
-1.13676727E+02
  0
LINE
  8
0
 62
7
 10
-1.20499940E+02
 20
-2.94500000E+02
 11
-1.18999955E+02
 21
-2.94500000E+02
  0
LINE
  8
0
 62
7
 10
-1.18508663E+02
 20
-8.41196239E+01
 11
-8.29999264E+01
 21
-8.34998166E+01
  0
LINE
  8
0
  6
CENTER
 62
2
 10
-8.52975778E+01
 20
-1.27500000E+02
 11
-1.13094819E+02
 21
-1.27500000E+02
  0
LINE
  8
0
 62
7
 10
-3.93999986E+02
 20
-2.63500061E+02
 11
-3.93999986E+02
 21
-2.64100037E+02
  0
LINE
  8
0
  6
CENTER
 62
2
 10
-4.00999955E+02
 20
-2.61019287E+02
 11
-4.00999955E+02
 21
-2.91926224E+02
  0
LINE
  8
0
  6
CENTER
 62
2
 10
-4.16964005E+02
 20
-2.77499954E+02
 11
-3.85108994E+02
 21
-2.77499954E+02
  0
LINE
  8
0
 62
7
 10
-4.14999955E+02
 20
-2.68500061E+02
 11
-4.14999955E+02
 21
-3.19500000E+02
  0
LINE
  8
0
 62
7
 10
-4.10000108E+02
 20
-2.63499969E+02
 11
-3.08000016E+02
 21
-2.63499969E+02
  0
LINE
  8
0
 62
7
 10
-3.60249986E+02
 20
-2.68100082E+02
 11
-3.60249986E+02
 21
-2.93597519E+02
  0
LINE
  8
0
 62
7
 10
-4.10400041E+02
 20
-3.18249947E+02
 11
-3.84902604E+02
 21
-3.18249947E+02
  0
LINE
  8
0
 62
7
 10
-4.11399979E+02
 20
-2.94484055E+02
 11
-4.11399979E+02
 21
-3.19500000E+02
  0
LINE
  8
0
 62
7
 10
-3.84016160E+02
 20
-2.67099976E+02
 11
-3.33984055E+02
 21
-2.67099976E+02
  0
LINE
  8
0
 62
7
 10
-3.76432206E+02
 20
-3.00300415E+02
 11
-3.91421822E+02
 21
-2.85310800E+02
  0
LINE
  8
0
 62
7
 10
-3.78199940E+02
 20
-3.02068063E+02
 11
-3.93189556E+02
 21
-2.87078448E+02
  0
LINE
  8
0
 62
7
 10
-4.14399979E+02
 20
-2.68500015E+02
 11
-4.14399979E+02
 21
-3.19500000E+02
  0
LINE
  8
0
 62
7
 10
-4.10000108E+02
 20
-2.64099945E+02
 11
-3.08000016E+02
 21
-2.64099945E+02
  0
LINE
  8
0
  6
CENTER
 62
2
 10
-3.70999955E+02
 20
-3.03456169E+02
 11
-3.70999955E+02
 21
-2.61236420E+02
  0
LINE
  8
0
  6
CENTER
 62
2
 10
-3.31806321E+02
 20
-2.77499954E+02
 11
-3.00716844E+02
 21
-2.77499954E+02
  0
LINE
  8
0
 62
7
 10
-3.23999986E+02
 20
-2.63500061E+02
 11
-3.23999986E+02
 21
-2.64100037E+02
  0
LINE
  8
0
 62
7
 10
-3.39800414E+02
 20
-3.02067915E+02
 11
-3.24810709E+02
 21
-2.87078216E+02
  0
LINE
  8
0
 62
7
 10
-3.41568202E+02
 20
-3.00300126E+02
 11
-3.26578530E+02
 21
-2.85310460E+02
  0
LINE
  8
0
  6
CENTER
 62
2
 10
-3.40999955E+02
 20
-2.61713516E+02
 11
-3.40999955E+02
 21
-3.06845200E+02
  0
LINE
  8
0
 62
7
 10
-3.57749986E+02
 20
-2.68100082E+02
 11
-3.57749986E+02
 21
-2.93597473E+02
  0
LINE
  8
0
  6
CENTER
 62
2
 10
-3.16999955E+02
 20
-2.60607300E+02
 11
-3.16999955E+02
 21
-2.92357849E+02
  0
LINE
  8
0
 62
7
 10
-3.02999986E+02
 20
-2.68500061E+02
 11
-3.02999986E+02
 21
-3.19500000E+02
  0
LINE
  8
0
 62
7
 10
-3.07600083E+02
 20
-3.18249947E+02
 11
-3.33097520E+02
 21
-3.18249947E+02
  0
LINE
  8
0
 62
7
 10
-1.20999986E+02
 20
-1.15000000E+02
 11
-1.20999986E+02
 21
-1.64000000E+02
  0
LINE
  8
0
 62
7
 10
-1.20499925E+02
 20
-1.64500000E+02
 11
-1.18999940E+02
 21
-1.64500000E+02
  0
LINE
  8
0
 62
7
 10
-3.03599961E+02
 20
-2.68500061E+02
 11
-3.03599961E+02
 21
-3.19500000E+02
  0
LINE
  8
0
 62
2
 10
-3.09916581E+02
 20
-3.19535271E+02
 11
-3.09916581E+02
 21
-3.19499977E+02
  0
LINE
  8
0
 62
7
 10
-3.06599931E+02
 20
-2.94483856E+02
 11
-3.06599931E+02
 21
-3.19500000E+02
  0
LINE
  8
0
 62
7
 10
-1.39999986E+02
 20
-3.19500000E+02
 11
-1.39999986E+02
 21
-2.97000031E+02
  0
LINE
  8
0
 62
7
 10
-1.39500001E+02
 20
-1.62500031E+02
 11
-1.34999955E+02
 21
-1.62500031E+02
  0
LINE
  8
0
 62
7
 10
-1.39999970E+02
 20
-1.61999924E+02
 11
-1.39999970E+02
 21
-1.16999939E+02
  0
LINE
  8
0
 62
7
 10
-1.34517427E+02
 20
-2.95472083E+02
 11
-1.20999970E+02
 21
-2.95000043E+02
  0
LINE
  8
0
  6
CENTER
 62
2
 10
-2.99312180E+02
 20
-3.19500000E+02
 11
-4.19946092E+02
 21
-3.19500000E+02
  0
LINE
  8
0
 62
7
 10
-4.15400041E+02
 20
-3.01749985E+02
 11
-4.15000108E+02
 21
-3.01749985E+02
  0
LINE
  8
0
 62
7
 10
-4.15400041E+02
 20
-3.09249962E+02
 11
-4.15000108E+02
 21
-3.09249962E+02
  0
LINE
  8
0
  6
CENTER
 62
2
 10
-9.90000009E+01
 20
-2.76192993E+02
 11
-9.90000009E+01
 21
-2.61252045E+02
  0
LINE
  8
0
 62
7
 10
-1.34517305E+02
 20
-1.15471728E+02
 11
-1.20999848E+02
 21
-1.14999688E+02
  0
LINE
  8
0
 62
7
 10
-1.39500001E+02
 20
-1.16500031E+02
 11
-1.34999955E+02
 21
-1.16500031E+02
  0
LINE
  8
0
 62
7
 10
-9.17322763E+01
 20
-1.57500053E+02
 11
-9.08662219E+01
 21
-1.59000112E+02
  0
LINE
  8
0
 62
7
 10
-9.08659677E+01
 20
-1.59000015E+02
 11
-8.91338662E+01
 21
-1.59000015E+02
  0
LINE
  8
0
 62
7
 10
-8.91338931E+01
 20
-1.58999968E+02
 11
-8.82678539E+01
 21
-1.57499935E+02
  0
LINE
  8
0
 62
7
 10
-8.82682070E+01
 20
-1.57500227E+02
 11
-8.91342157E+01
 21
-1.56000247E+02
  0
LINE
  8
0
 62
7
 10
-9.08659677E+01
 20
-1.55999985E+02
 11
-8.91338662E+01
 21
-1.55999985E+02
  0
LINE
  8
0
 62
7
 10
-9.17320154E+01
 20
-1.57500109E+02
 11
-9.08659686E+01
 21
-1.56000063E+02
  0
LINE
  8
0
  6
CENTER
 62
2
 10
-8.18053445E+01
 20
-1.57500000E+02
 11
-9.80743722E+01
 21
-1.57500000E+02
  0
LINE
  8
0
  6
CENTER
 62
2
 10
-9.00000009E+01
 20
-1.49952179E+02
 11
-9.00000009E+01
 21
-1.64565582E+02
  0
LINE
  8
0
 62
7
 10
-1.20499925E+02
 20
-1.14500000E+02
 11
-1.18999970E+02
 21
-1.14500000E+02
  0
LINE
  8
0
 62
7
 10
-1.18999986E+02
 20
-2.64619736E+02
 11
-1.18999986E+02
 21
-3.19500000E+02
  0
LINE
  8
0
 62
7
 10
-1.18508611E+02
 20
-2.64119838E+02
 11
-8.29998441E+01
 21
-2.63500035E+02
  0
LINE
  8
0
 62
7
 10
-1.14999986E+02
 20
-2.64058563E+02
 11
-1.14999986E+02
 21
-2.63500015E+02
  0
LINE
  8
0
 62
7
 10
-1.18508625E+02
 20
-1.94880112E+02
 11
-8.29999498E+01
 21
-1.95499918E+02
  0
LINE
  8
0
 62
7
 10
-1.14999940E+02
 20
-2.63500015E+02
 11
-8.29999398E+01
 21
-2.63500015E+02
  0
LINE
  8
0
 62
7
 10
-1.18999970E+02
 20
-8.46197205E+01
 11
-1.18999970E+02
 21
-1.94380295E+02
  0
LINE
  8
0
  6
CENTER
 62
2
 10
-3.58999986E+02
 20
-2.58201294E+02
 11
-3.58999986E+02
 21
-3.19500000E+02
  0
LINE
  8
0
 62
7
 10
-1.39500062E+02
 20
-2.96500000E+02
 11
-1.35000047E+02
 21
-2.96500000E+02
  0
LINE
  8
0
  6
CENTER
 62
2
 10
-4.18464158E+02
 20
-3.05499985E+02
 11
-4.15000108E+02
 21
-3.05499985E+02
  0
LINE
  8
0
 62
7
 10
-4.17599992E+02
 20
-3.07100021E+02
 11
-4.17599992E+02
 21
-3.03900002E+02
  0
LINE
  8
0
 62
7
 10
-8.29999703E+01
 20
-2.65999985E+02
 11
-7.41573049E+00
 21
-2.65999985E+02
  0
LINE
  8
0
  6
CENTER
 62
2
 10
-1.40552674E+01
 20
-2.77500000E+02
 11
-1.21524445E+02
 21
-2.77500000E+02
  0
LINE
  8
0
 62
7
 10
-1.14571736E+01
 20
-9.29999695E+01
 11
-5.64999551E+01
 21
-9.29999695E+01
  0
LINE
  8
0
 62
7
 10
-1.66533436E+01
 20
-1.02000000E+02
 11
-3.69999551E+01
 21
-1.02000000E+02
  0
LINE
  8
0
  6
CENTER
 62
2
 10
-1.40552498E+01
 20
-9.74999695E+01
 11
-5.64999551E+01
 21
-9.74999695E+01
  0
LINE
  8
0
 62
7
 10
-8.29999551E+01
 20
-1.93000015E+02
 11
-6.91922269E+01
 21
-1.93000015E+02
  0
LINE
  8
0
 62
7
 10
-8.29999551E+01
 20
-8.34998169E+01
 11
-8.29999551E+01
 21
-9.36196107E+01
  0
LINE
  8
0
  6
CENTER
 62
2
 10
-6.25526988E+01
 20
-1.81500015E+02
 11
-1.21524430E+02
 21
-1.81500015E+02
  0
LINE
  8
0
 62
7
 10
-8.29999703E+01
 20
-2.63500000E+02
 11
-8.29999703E+01
 21
-3.19500000E+02
  0
LINE
  8
0
  6
CENTER
 62
2
 10
-2.02798280E+02
 20
-1.39500000E+02
 11
-3.83039787E+01
 21
-1.39500000E+02
  0
LINE
  8
0
  6
CENTER
 62
2
 10
-2.02243333E+02
 20
-3.19500000E+02
 11
-3.83039787E+01
 21
-3.19500000E+02
  0
LINE
  8
0
 62
7
 10
-8.29999551E+01
 20
-1.06119611E+02
 11
-8.29999551E+01
 21
-1.95500015E+02
  0
LINE
  8
0
  6
CENTER
 62
2
 10
-9.09999551E+01
 20
-9.74999695E+01
 11
-1.21524430E+02
 21
-9.74999695E+01
  0
LINE
  8
0
 62
2
 10
-7.30766435E+01
 20
-1.99728022E+02
 11
-5.06443505E+00
 21
-8.19274216E+01
  0
LINE
  8
0
 62
2
 10
-4.58701239E+01
 20
-3.32604948E+02
 11
-5.06443505E+00
 21
-2.61927422E+02
  0
LINE
  8
0
 62
7
 10
2.70178155E+02
 20
-2.81999985E+02
 11
3.28499999E+02
 21
-2.81999985E+02
  0
LINE
  8
0
 62
7
 10
2.75374316E+02
 20
-2.72999969E+02
 11
3.28499999E+02
 21
-2.72999969E+02
  0
LINE
  8
0
 62
7
 10
3.54999999E+02
 20
-2.65999985E+02
 11
3.47999999E+02
 21
-2.65999985E+02
  0
LINE
  8
0
  6
CENTER
 62
2
 10
2.72776222E+02
 20
-2.77500000E+02
 11
3.28499999E+02
 21
-2.77500000E+02
  0
LINE
  8
0
  6
CENTER
 62
2
 10
4.74243362E+02
 20
-3.19500000E+02
 11
2.48527511E+02
 21
-3.19500000E+02
  0
LINE
  8
0
 62
7
 10
3.54999999E+02
 20
-2.63500000E+02
 11
3.54999999E+02
 21
-3.19500000E+02
  0
LINE
  8
0
 62
7
 10
4.11500091E+02
 20
-2.96500000E+02
 11
4.07000075E+02
 21
-2.96500000E+02
  0
LINE
  8
0
 62
7
 10
3.86999969E+02
 20
-2.63500015E+02
 11
3.54999969E+02
 21
-2.63500015E+02
  0
LINE
  8
0
 62
7
 10
3.87000014E+02
 20
-2.64058563E+02
 11
3.87000014E+02
 21
-2.63500015E+02
  0
LINE
  8
0
 62
7
 10
3.90508640E+02
 20
-2.64119838E+02
 11
3.54999873E+02
 21
-2.63500035E+02
  0
LINE
  8
0
 62
7
 10
3.91000014E+02
 20
-2.64619736E+02
 11
3.91000014E+02
 21
-3.19500000E+02
  0
LINE
  8
0
  6
CENTER
 62
2
 10
3.71000030E+02
 20
-2.76192993E+02
 11
3.71000030E+02
 21
-2.61252045E+02
  0
LINE
  8
0
 62
7
 10
4.06517456E+02
 20
-2.95472083E+02
 11
3.92999999E+02
 21
-2.95000043E+02
  0
LINE
  8
0
 62
7
 10
4.12000014E+02
 20
-3.19500000E+02
 11
4.12000014E+02
 21
-2.97000031E+02
  0
LINE
  8
0
 62
7
 10
3.92499969E+02
 20
-2.94500000E+02
 11
3.90999984E+02
 21
-2.94500000E+02
  0
LINE
  8
0
 62
7
 10
3.93000030E+02
 20
-3.19500000E+02
 11
3.93000030E+02
 21
-2.95000031E+02
  0
LINE
  8
0
 62
7
 10
4.26000014E+02
 20
-3.19500000E+02
 11
4.26000014E+02
 21
-3.06500008E+02
  0
LINE
  8
0
 62
7
 10
4.66000030E+02
 20
-3.19500000E+02
 11
4.66000030E+02
 21
-3.08000305E+02
  0
LINE
  8
0
 62
7
 10
4.29000014E+02
 20
-3.19500000E+02
 11
4.29000014E+02
 21
-3.06500008E+02
  0
LINE
  8
0
 62
7
 10
4.64500075E+02
 20
-3.06500008E+02
 11
4.54500037E+02
 21
-3.06500008E+02
  0
LINE
  8
0
 62
7
 10
4.64500014E+02
 20
-3.19500000E+02
 11
4.64500014E+02
 21
-3.06500008E+02
  0
LINE
  8
0
 62
7
 10
4.65999896E+02
 20
-3.08000187E+02
 11
4.64499879E+02
 21
-3.06500170E+02
  0
LINE
  8
0
 62
2
 10
4.65320083E+02
 20
-3.07320015E+02
 11
4.54500037E+02
 21
-3.07320015E+02
  0
LINE
  8
0
 62
7
 10
4.21999999E+02
 20
-3.04499962E+02
 11
4.12000014E+02
 21
-3.04499962E+02
  0
LINE
  8
0
 62
7
 10
4.21999999E+02
 20
-3.12016624E+02
 11
4.21999999E+02
 21
-3.04499962E+02
  0
LINE
  8
0
 62
7
 10
4.25999987E+02
 20
-3.06500017E+02
 11
4.21999974E+02
 21
-3.04499972E+02
  0
LINE
  8
0
 62
7
 10
4.16000014E+02
 20
-3.19500000E+02
 11
4.16000014E+02
 21
-3.12016624E+02
  0
LINE
  8
0
 62
7
 10
4.21999999E+02
 20
-3.12016624E+02
 11
4.16000014E+02
 21
-3.12016624E+02
  0
LINE
  8
0
 62
7
 10
4.25999996E+02
 20
-3.19499999E+02
 11
4.21999980E+02
 21
-3.12016630E+02
  0
LINE
  8
0
 62
2
 10
4.16000009E+02
 20
-3.12016632E+02
 11
4.21000013E+02
 21
-3.19500000E+02
  0
LINE
  8
0
 62
2
 10
4.20999976E+02
 20
-3.19500000E+02
 11
4.23777768E+02
 21
-3.15342555E+02
  0
LINE
  8
0
 62
7
 10
4.29000014E+02
 20
-3.07320015E+02
 11
4.26000014E+02
 21
-3.07320015E+02
  0
ARC
  8
0
 62
7
 10
3.90499953E+02
 20
-2.64619736E+02
 40
5.00000000E-01
 50
2.23118003E-05
 51
8.89997093E+01
  0
ARC
  8
0
 62
7
 10
3.92499999E+02
 20
-2.95000000E+02
 40
5.00000000E-01
 50
3.59999927E+02
 51
8.99999085E+01
  0
ARC
  8
0
 62
7
 10
4.11500060E+02
 20
-2.97000031E+02
 40
5.00000000E-01
 50
3.59721787E-05
 51
9.00000179E+01
  0
ARC
  8
0
 62
7
 10
4.06500060E+02
 20
-2.95971741E+02
 40
5.00000000E-01
 50
3.59721787E-05
 51
8.79992642E+01
  0
ARC
  8
0
 62
7
 10
4.29000014E+02
 20
-3.19499985E+02
 40
1.50000248E+01
 50
1.50073400E+02
 51
1.80000058E+02
  0
ARC
  8
0
 62
4
 10
4.45299083E+02
 20
-3.03911545E+02
 40
9.20095253E+00
 50
3.25615743E+02
 51
3.43842738E+01
  0
ARC
  8
0
 62
4
 10
4.20107772E+02
 20
-3.19500000E+02
 40
3.43922653E+01
 50
0.00000000E+00
 51
1.75879507E+01
  0
ARC
  8
0
 62
4
 10
4.49700992E+02
 20
-3.03911545E+02
 40
9.20095253E+00
 50
1.45615762E+02
 51
2.14384293E+02
  0
ARC
  8
0
 62
4
 10
4.74892303E+02
 20
-3.19500000E+02
 40
3.43922653E+01
 50
1.62412085E+02
 51
1.80000000E+02
  0
LINE
  8
0
 62
4
 10
4.40500037E+02
 20
-3.01500000E+02
 11
4.40500037E+02
 21
-3.19500000E+02
  0
LINE
  8
0
 62
4
 10
4.40500037E+02
 20
-3.01499988E+02
 11
4.42107718E+02
 21
-2.98715366E+02
  0
LINE
  8
0
 62
4
 10
4.54500046E+02
 20
-3.01500001E+02
 11
4.52892368E+02
 21
-2.98715392E+02
  0
LINE
  8
0
 62
4
 10
4.52892341E+02
 20
-2.98715393E+02
 11
4.42107734E+02
 21
-2.98715393E+02
  0
LINE
  8
0
 62
4
 10
4.52892341E+02
 20
-3.09107697E+02
 11
4.42107734E+02
 21
-3.09107697E+02
  0
LINE
  8
0
 62
4
 10
4.54500037E+02
 20
-3.01500000E+02
 11
4.54500037E+02
 21
-3.19500000E+02
  0
LINE
  8
0
 62
7
 10
4.40500037E+02
 20
-3.06500008E+02
 11
4.29000014E+02
 21
-3.06500008E+02
  0
LINE
  8
0
 62
2
 10
4.40500037E+02
 20
-3.07320015E+02
 11
4.29000014E+02
 21
-3.07320015E+02
  0
LINE
  8
0
 62
7
 10
4.07000014E+02
 20
-2.95971741E+02
 11
4.07000014E+02
 21
-3.19500000E+02
  0
LINE
  8
0
 62
2
 10
2.47302225E+02
 20
-3.21622257E+02
 11
2.82653399E+02
 21
-2.60392228E+02
  0
LINE
  8
0
 62
7
 10
3.08999999E+02
 20
-2.65999985E+02
 11
2.79415759E+02
 21
-2.65999985E+02
  0
LINE
  8
0
 62
7
 10
3.43499999E+02
 20
-2.72999969E+02
 11
3.54999999E+02
 21
-2.72999969E+02
  0
LINE
  8
0
  6
CENTER
 62
2
 10
3.43499999E+02
 20
-2.77500000E+02
 11
3.93524474E+02
 21
-2.77500000E+02
  0
LINE
  8
0
 62
7
 10
3.43499999E+02
 20
-2.81999985E+02
 11
3.54999999E+02
 21
-2.81999985E+02
  0
TEXT
  8
0
 10
-7.72146873E+01
 20
3.54316712E+02
 40
9.00000000E+00
  1
STRETCH LINE
 41
1.05263158E+00
  7
MONOTXT
  0
LINE
  8
0
 62
7
 10
5.74500000E+02
 20
4.00500000E+02
 11
5.74500000E+02
 21
-4.00500000E+02
  0
LINE
  8
0
 62
7
 10
-5.64500000E+02
 20
4.00500000E+02
 11
5.74500000E+02
 21
4.00500000E+02
  0
LINE
  8
0
 62
7
 10
-5.64500000E+02
 20
-4.00500000E+02
 11
5.74500000E+02
 21
-4.00500000E+02
  0
LINE
  8
0
 62
7
 10
-5.64500000E+02
 20
4.00500000E+02
 11
-5.64500000E+02
 21
-4.00500000E+02
  0
LINE
  8
0
 62
7
 10
-5.64500000E+02
 20
3.70500000E+02
 11
-3.34500000E+02
 21
3.70500000E+02
  0
LINE
  8
0
 62
7
 10
3.44500000E+02
 20
3.70500000E+02
 11
5.74500000E+02
 21
3.70500000E+02
  0
LINE
  8
0
 62
7
 10
3.44500000E+02
 20
-3.70500000E+02
 11
5.74500000E+02
 21
-3.70500000E+02
  0
LINE
  8
0
 62
7
 10
3.44500000E+02
 20
-3.70500000E+02
 11
3.44500000E+02
 21
-4.00500000E+02
  0
LINE
  8
0
 62
7
 10
3.44500000E+02
 20
4.00500000E+02
 11
3.44500000E+02
 21
3.70500000E+02
  0
LINE
  8
0
 62
7
 10
-3.34500000E+02
 20
4.00500000E+02
 11
-3.34500000E+02
 21
3.70500000E+02
  0
TEXT
  8
0
 62
7
 10
-5.37179687E+02
 20
3.34250000E+02
 40
1.25000000E+01
  1
MODEL:DDAK-HL100*75
 41
1.00000015E+00
  7
MONOTXT
  0
TEXT
  8
0
 62
7
 10
4.11285149E+02
 20
3.79250000E+02
 40
1.25000000E+01
  1
Ver. 1.0
 41
1.08108125E+00
  7
MONOTXT
  0
TEXT
  8
0
 62
7
 10
3.50070624E+02
 20
-3.94500000E+02
 40
1.80000000E+01
  1
KOGANEI CORP.
 41
1.04838710E+00
  7
MONOTXT
  0
TEXT
  8
0
 62
7
 10
-5.53964859E+02
 20
3.79250000E+02
 40
1.25000000E+01
  1
NEW DYNA CYLINDER
 41
1.07594953E+00
  7
MONOTXT
  0
ENDSEC
  0
EOF
