  0
SECTION
  2
HEADER
  9
$ACADVER
  1
AC1003
  9
$EXTMIN
 10
-5.64500000E+02
 20
-4.00500000E+02
  9
$EXTMAX
 10
5.74500000E+02
 20
4.00500000E+02
  9
$LIMMIN
 10
-5.64501000E+02
 20
-4.00501000E+02
  9
$LIMMAX
 10
5.74501000E+02
 20
4.00501000E+02
  9
$SNAPUNIT
 10
1
 20
1
  9
$SNAPBASE
 10
0
 20
0
  9
$GRIDMODE
 70
0
  9
$GRIDUNIT
 10
0
 20
0
  9
$LTSCALE
 40
1.89833333E+01
  9
$TEXTSIZE
 40
3.2
  9
$DIMTAD
 70
0
  9
$LUNITS
 70
2
  9
$LUPREC
 70
4
  9
$FILLETRAD
 40
0
  9
$AUNITS
 70
0
  9
$AUPREC
 70
0
  0
ENDSEC
  0
SECTION
  2
TABLES
  0
TABLE
  2
LTYPE
 70
2
  0
LTYPE
  2
CONTINUOUS
 70
64
  3
Solid-Line
 72
65
 73
0
 40
0
  0
LTYPE
  2
DASHED
 70
64
  3
DASHED
 72
65
 73
2
 40
.75
 49
.5
 49
-.25
  0
LTYPE
  2
HIDDEN
 70
64
  3
HIDDEN
 72
65
 73
2
 40
.375
 49
.25
 49
-.125
  0
LTYPE
  2
CENTER
 70
64
  3
CENTER
 72
65
 73
4
 40
2
 49
1.25
 49
-.25
 49
.25
 49
-.25
  0
LTYPE
  2
PHANTOM
 70
64
  3
PHANTOM
 72
65
 73
6
 40
2.5
 49
1.25
 49
-.25
 49
.25
 49
-.25
 49
.25
 49
-.25
  0
ENDTAB
  0
TABLE
  2
LAYER
 70
1
  0
LAYER
  2
1
 70
0
 62
7
  6
CONTINUOUS
 0
ENDTAB
  0
TABLE
  2
STYLE
 70
2
  0
STYLE
  2
MONOTXT
 70
0
 40
0
 41
1
 50
0
 71
0
 42
.2
  3
monotxt
  0
STYLE
  2
BIGFONT
 70
0
 40
0
 41
1
 50
0
 71
0
 42
.2
  3
txt
  4
bigfont
  0
ENDTAB
  0
ENDSEC
  0
SECTION
  2
ENTITIES
  0
LINE
  8
0
  6
PHANTOM
 10
4.99954224E-01
 20
2.81313474E+01
 11
4.99954224E-01
 21
1.94808365E+02
  0
LINE
  8
0
  6
CENTER
 62
2
 10
-2.00115721E+02
 20
1.00500000E+02
 11
9.74326611E+01
 21
1.00500000E+02
  0
LINE
  8
0
 62
7
 10
-5.80000591E+01
 20
1.56500000E+02
 11
-5.80000591E+01
 21
4.45000153E+01
  0
LINE
  8
0
 62
7
 10
5.29999608E+01
 20
1.56500000E+02
 11
5.29999608E+01
 21
4.45000038E+01
  0
LINE
  8
0
  6
CENTER
 62
2
 10
9.17791424E+01
 20
5.84999924E+01
 11
-1.23349150E+02
 21
5.84999924E+01
  0
LINE
  8
0
 62
7
 10
5.29999608E+01
 20
6.29999847E+01
 11
-5.80000591E+01
 21
6.29999847E+01
  0
LINE
  8
0
 62
7
 10
5.29999608E+01
 20
5.39999733E+01
 11
-5.80000591E+01
 21
5.39999733E+01
  0
LINE
  8
0
 62
7
 10
-5.80000591E+01
 20
4.69999771E+01
 11
5.29999608E+01
 21
4.69999771E+01
  0
LINE
  8
0
  6
CENTER
 62
2
 10
9.17791424E+01
 20
1.42500000E+02
 11
-1.22140226E+02
 21
1.42500000E+02
  0
LINE
  8
0
 62
7
 10
5.29999608E+01
 20
1.38000015E+02
 11
2.99999599E+01
 21
1.38000015E+02
  0
LINE
  8
0
 62
7
 10
5.29999608E+01
 20
1.47000031E+02
 11
4.49999599E+01
 21
1.47000031E+02
  0
LINE
  8
0
 62
7
 10
-5.80000591E+01
 20
1.54000015E+02
 11
1.49999599E+01
 21
1.54000015E+02
  0
LINE
  8
0
  6
CENTER
 62
2
 10
-1.15912230E+02
 20
8.64999619E+01
 11
-1.03185865E+02
 21
8.64999619E+01
  0
LINE
  8
0
  6
CENTER
 62
2
 10
-1.09000074E+02
 20
7.99228363E+01
 11
-1.09000074E+02
 21
9.26491776E+01
  0
LINE
  8
0
  6
DASHED
 62
7
 10
-1.09000171E+02
 20
8.50566730E+01
 11
-1.07750175E+02
 21
8.57783503E+01
  0
LINE
  8
0
  6
DASHED
 62
7
 10
-1.08999712E+02
 20
8.50571311E+01
 11
-1.10249688E+02
 21
8.57787970E+01
  0
LINE
  8
0
  6
DASHED
 62
7
 10
-1.07749759E+02
 20
8.72222285E+01
 11
-1.08999722E+02
 21
8.79438868E+01
  0
LINE
  8
0
  6
DASHED
 62
7
 10
-1.09000195E+02
 20
8.79434728E+01
 11
-1.10250237E+02
 21
8.72217687E+01
  0
LINE
  8
0
  6
DASHED
 62
7
 10
-1.07749998E+02
 20
8.57782669E+01
 11
-1.07749998E+02
 21
8.72216492E+01
  0
LINE
  8
0
  6
DASHED
 62
7
 10
-1.10250013E+02
 20
8.57782669E+01
 11
-1.10250013E+02
 21
8.72216492E+01
  0
LINE
  8
0
 62
7
 10
-1.20999994E+02
 20
1.25499921E+02
 11
-1.21499973E+02
 21
1.24999942E+02
  0
LINE
  8
0
 62
7
 10
-1.34000044E+02
 20
1.24999969E+02
 11
-1.21500044E+02
 21
1.24999969E+02
  0
LINE
  8
0
 62
7
 10
-1.19000044E+02
 20
1.56499954E+02
 11
-1.19000044E+02
 21
4.44999924E+01
  0
LINE
  8
0
 62
7
 10
-1.19000044E+02
 20
1.56499954E+02
 11
-5.80000286E+01
 21
1.56499954E+02
  0
LINE
  8
0
 62
7
 10
-1.19000044E+02
 20
4.45000191E+01
 11
-5.80000286E+01
 21
4.45000191E+01
  0
LINE
  8
0
 62
7
 10
-1.21000044E+02
 20
7.54999771E+01
 11
-1.19000044E+02
 21
7.54999771E+01
  0
LINE
  8
0
 62
7
 10
-1.34000044E+02
 20
7.59999771E+01
 11
-1.21500044E+02
 21
7.59999771E+01
  0
LINE
  8
0
 62
7
 10
-1.21000044E+02
 20
1.25499969E+02
 11
-1.19000044E+02
 21
1.25499969E+02
  0
LINE
  8
0
 62
7
 10
8.49999294E+01
 20
4.44999924E+01
 11
5.29999353E+01
 21
4.44999924E+01
  0
LINE
  8
0
 62
7
 10
-1.40000022E+02
 20
1.22999958E+02
 11
-1.39499993E+02
 21
1.23499962E+02
  0
LINE
  8
0
 62
7
 10
8.49999294E+01
 20
1.56499985E+02
 11
5.29999353E+01
 21
1.56499985E+02
  0
LINE
  8
0
 62
7
 10
8.49999790E+01
 20
4.50585403E+01
 11
8.49999790E+01
 21
4.44999924E+01
  0
LINE
  8
0
 62
7
 10
8.49999790E+01
 20
1.55941437E+02
 11
8.49999790E+01
 21
1.56499985E+02
  0
LINE
  8
0
 62
7
 10
8.85085869E+01
 20
1.55880179E+02
 11
5.29998442E+01
 21
1.56499981E+02
  0
LINE
  8
0
 62
7
 10
8.89999714E+01
 20
1.55380264E+02
 11
8.89999714E+01
 21
4.56197319E+01
  0
LINE
  8
0
 62
7
 10
8.85086131E+01
 20
4.51197301E+01
 11
5.29999561E+01
 21
4.44999188E+01
  0
LINE
  8
0
 62
7
 10
-1.39500013E+02
 20
1.23499985E+02
 11
-1.35000044E+02
 21
1.23499985E+02
  0
LINE
  8
0
 62
7
 10
-1.35000044E+02
 20
7.69999771E+01
 11
-1.35000044E+02
 21
1.23999954E+02
  0
LINE
  8
0
  6
CENTER
 62
2
 10
6.89999962E+01
 20
1.43806976E+02
 11
6.89999962E+01
 21
1.58747925E+02
  0
LINE
  8
0
  6
CENTER
 62
2
 10
-7.40878277E+01
 20
8.64999619E+01
 11
-8.68142223E+01
 21
8.64999619E+01
  0
LINE
  8
0
  6
CENTER
 62
2
 10
-8.10000134E+01
 20
7.99228363E+01
 11
-8.10000134E+01
 21
9.26491776E+01
  0
LINE
  8
0
  6
DASHED
 62
7
 10
-8.10002620E+01
 20
8.50568888E+01
 11
-7.97502594E+01
 21
8.57785700E+01
  0
LINE
  8
0
  6
DASHED
 62
7
 10
-7.97500591E+01
 20
8.57782669E+01
 11
-7.97500591E+01
 21
8.72216492E+01
  0
LINE
  8
0
  6
DASHED
 62
7
 10
-8.09997711E+01
 20
8.79435915E+01
 11
-7.97497156E+01
 21
8.72218798E+01
  0
LINE
  8
0
  6
DASHED
 62
7
 10
-8.22502727E+01
 20
8.72220870E+01
 11
-8.10003098E+01
 21
8.79437453E+01
  0
LINE
  8
0
  6
DASHED
 62
7
 10
-8.22500896E+01
 20
8.57782669E+01
 11
-8.22500896E+01
 21
8.72216492E+01
  0
LINE
  8
0
  6
DASHED
 62
7
 10
-8.09997993E+01
 20
8.50568604E+01
 11
-8.22497887E+01
 21
8.57785339E+01
  0
LINE
  8
0
  6
CENTER
 62
2
 10
-1.15912230E+02
 20
1.14499992E+02
 11
-1.03185865E+02
 21
1.14499992E+02
  0
LINE
  8
0
  6
CENTER
 62
2
 10
-1.09000074E+02
 20
1.21077133E+02
 11
-1.09000074E+02
 21
1.08350800E+02
  0
LINE
  8
0
  6
DASHED
 62
7
 10
-1.08999878E+02
 20
1.15943161E+02
 11
-1.10249894E+02
 21
1.15221472E+02
  0
LINE
  8
0
  6
DASHED
 62
7
 10
-1.10250013E+02
 20
1.15221703E+02
 11
-1.10250013E+02
 21
1.13778328E+02
  0
LINE
  8
0
  6
DASHED
 62
7
 10
-1.09000033E+02
 20
1.13056720E+02
 11
-1.10250062E+02
 21
1.13778417E+02
  0
LINE
  8
0
  6
DASHED
 62
7
 10
-1.07749825E+02
 20
1.13778058E+02
 11
-1.08999821E+02
 21
1.13056380E+02
  0
LINE
  8
0
  6
DASHED
 62
7
 10
-1.07749998E+02
 20
1.15221703E+02
 11
-1.07749998E+02
 21
1.13778328E+02
  0
LINE
  8
0
  6
DASHED
 62
7
 10
-1.09000029E+02
 20
1.15943470E+02
 11
-1.07750027E+02
 21
1.15221789E+02
  0
LINE
  8
0
  6
CENTER
 62
2
 10
-7.40878277E+01
 20
1.14499992E+02
 11
-8.68142223E+01
 21
1.14499992E+02
  0
LINE
  8
0
  6
CENTER
 62
2
 10
-8.10000134E+01
 20
1.21077133E+02
 11
-8.10000134E+01
 21
1.08350800E+02
  0
LINE
  8
0
  6
DASHED
 62
7
 10
-8.10001353E+01
 20
1.15943289E+02
 11
-7.97501195E+01
 21
1.15221600E+02
  0
LINE
  8
0
  6
DASHED
 62
7
 10
-7.97500591E+01
 20
1.15221703E+02
 11
-7.97500591E+01
 21
1.13778328E+02
  0
LINE
  8
0
  6
DASHED
 62
7
 10
-8.09999964E+01
 20
1.13056635E+02
 11
-7.97499393E+01
 21
1.13778348E+02
  0
LINE
  8
0
  6
DASHED
 62
7
 10
-8.22500776E+01
 20
1.13778149E+02
 11
-8.10000882E+01
 21
1.13056475E+02
  0
LINE
  8
0
  6
DASHED
 62
7
 10
-8.22500896E+01
 20
1.15221703E+02
 11
-8.22500896E+01
 21
1.13778328E+02
  0
LINE
  8
0
  6
DASHED
 62
7
 10
-8.09999647E+01
 20
1.15943450E+02
 11
-8.22499491E+01
 21
1.15221779E+02
  0
LINE
  8
0
 62
7
 10
-1.21000024E+02
 20
7.54999895E+01
 11
-1.21500014E+02
 21
7.59999793E+01
  0
LINE
  8
0
 62
7
 10
-1.21000044E+02
 20
1.25499969E+02
 11
-1.21000044E+02
 21
7.54999771E+01
  0
LINE
  8
0
 62
7
 10
9.04999332E+01
 20
7.55000000E+01
 11
8.89999714E+01
 21
7.55000000E+01
  0
LINE
  8
0
 62
7
 10
9.04999332E+01
 20
1.25500000E+02
 11
8.89999371E+01
 21
1.25500000E+02
  0
LINE
  8
0
 62
7
 10
-1.39500044E+02
 20
7.74999695E+01
 11
-1.39500044E+02
 21
1.23499985E+02
  0
LINE
  8
0
 62
7
 10
-1.40000039E+02
 20
7.79999652E+01
 11
-1.39500028E+02
 21
7.74999539E+01
  0
LINE
  8
0
 62
7
 10
9.09999905E+01
 20
7.59999771E+01
 11
9.09999905E+01
 21
1.24999969E+02
  0
LINE
  8
0
 62
7
 10
-1.21500044E+02
 20
1.24999969E+02
 11
-1.21500044E+02
 21
7.59999771E+01
  0
LINE
  8
0
 62
7
 10
-1.40000044E+02
 20
7.79999771E+01
 11
-1.40000044E+02
 21
1.22999954E+02
  0
LINE
  8
0
 62
7
 10
-1.39500044E+02
 20
7.74999695E+01
 11
-1.35000044E+02
 21
7.74999695E+01
  0
LINE
  8
0
 62
7
 10
-1.54000044E+02
 20
8.74999847E+01
 11
-1.54000044E+02
 21
1.13499992E+02
  0
LINE
  8
0
 62
7
 10
-1.50000029E+02
 20
8.54999619E+01
 11
-1.40000044E+02
 21
8.54999619E+01
  0
LINE
  8
0
 62
7
 10
-1.94000059E+02
 20
8.89999237E+01
 11
-1.94000059E+02
 21
1.11999695E+02
  0
LINE
  8
0
 62
7
 10
-1.57000044E+02
 20
8.74999847E+01
 11
-1.57000044E+02
 21
1.13499992E+02
  0
LINE
  8
0
 62
7
 10
-1.92500105E+02
 20
1.13499992E+02
 11
-1.82500059E+02
 21
1.13499992E+02
  0
LINE
  8
0
 62
7
 10
-1.92500044E+02
 20
8.74999847E+01
 11
-1.92500044E+02
 21
1.13499992E+02
  0
LINE
  8
0
 62
7
 10
-1.93999924E+02
 20
1.11999807E+02
 11
-1.92499906E+02
 21
1.13499825E+02
  0
LINE
  8
0
 62
2
 10
-1.93320112E+02
 20
1.12679985E+02
 11
-1.82500059E+02
 21
1.12679985E+02
  0
LINE
  8
0
 62
7
 10
-1.92500105E+02
 20
8.74999847E+01
 11
-1.82500059E+02
 21
8.74999847E+01
  0
LINE
  8
0
 62
7
 10
-1.94000107E+02
 20
8.89999661E+01
 11
-1.92500105E+02
 21
8.74999645E+01
  0
LINE
  8
0
 62
2
 10
-1.93320112E+02
 20
8.83199921E+01
 11
-1.82500059E+02
 21
8.83199921E+01
  0
LINE
  8
0
 62
7
 10
-1.50000029E+02
 20
1.15500038E+02
 11
-1.40000044E+02
 21
1.15500038E+02
  0
LINE
  8
0
 62
7
 10
-1.50000029E+02
 20
9.30166550E+01
 11
-1.50000029E+02
 21
8.54999619E+01
  0
LINE
  8
0
 62
7
 10
-1.50000029E+02
 20
1.07983376E+02
 11
-1.50000029E+02
 21
1.15500038E+02
  0
LINE
  8
0
 62
7
 10
-1.54000026E+02
 20
8.74999771E+01
 11
-1.50000016E+02
 21
8.54999595E+01
  0
LINE
  8
0
 62
7
 10
-1.54000014E+02
 20
1.13499984E+02
 11
-1.50000001E+02
 21
1.15500028E+02
  0
LINE
  8
0
 62
7
 10
-1.44000044E+02
 20
9.30166550E+01
 11
-1.44000044E+02
 21
1.07983376E+02
  0
LINE
  8
0
 62
7
 10
-1.50000029E+02
 20
9.30166550E+01
 11
-1.44000044E+02
 21
9.30166550E+01
  0
LINE
  8
0
 62
7
 10
-1.50000029E+02
 20
1.07983376E+02
 11
-1.44000044E+02
 21
1.07983376E+02
  0
LINE
  8
0
 62
7
 10
-1.50000038E+02
 20
9.30166637E+01
 11
-1.54000044E+02
 21
1.00500003E+02
  0
LINE
  8
0
 62
7
 10
-1.54000022E+02
 20
1.00500000E+02
 11
-1.50000007E+02
 21
1.07983368E+02
  0
LINE
  8
0
 62
2
 10
-1.44000027E+02
 20
1.07983362E+02
 11
-1.51777802E+02
 21
9.63425798E+01
  0
LINE
  8
0
 62
2
 10
-1.44000012E+02
 20
9.30166440E+01
 11
-1.51777798E+02
 21
1.04657442E+02
  0
LINE
  8
0
 62
7
 10
-1.57000044E+02
 20
1.12679985E+02
 11
-1.54000044E+02
 21
1.12679985E+02
  0
LINE
  8
0
 62
7
 10
-1.57000044E+02
 20
8.83199921E+01
 11
-1.54000044E+02
 21
8.83199921E+01
  0
CIRCLE
  8
0
  6
DASHED
 62
7
 10
-1.09000074E+02
 20
8.64999619E+01
 40
3.74999976E+00
  0
CIRCLE
  8
0
  6
DASHED
 62
2
 10
-9.50000286E+01
 20
1.00500000E+02
 40
2.50000000E+00
  0
CIRCLE
  8
0
  6
DASHED
 62
7
 10
-9.50000286E+01
 20
1.00500000E+02
 40
2.00000000E+00
  0
ARC
  8
0
 62
7
 10
-1.34000044E+02
 20
1.23999954E+02
 40
1.00000000E+00
 50
8.99999274E+01
 51
1.79999964E+02
  0
ARC
  8
0
 62
7
 10
-1.34000044E+02
 20
7.69999771E+01
 40
1.00000000E+00
 50
1.79999977E+02
 51
2.70000028E+02
  0
ARC
  8
0
 62
7
 10
8.84999142E+01
 20
1.55380264E+02
 40
5.00000000E-01
 50
3.59999986E+02
 51
8.89996737E+01
  0
ARC
  8
0
 62
7
 10
8.84999905E+01
 20
4.56197319E+01
 40
5.00000000E-01
 50
2.71000265E+02
 51
3.59999973E+02
  0
ARC
  8
0
  6
DASHED
 62
7
 10
-9.50000286E+01
 20
1.00500000E+02
 40
2.30000019E+01
 50
5.02468330E+01
 51
1.29753077E+02
  0
CIRCLE
  8
0
  6
DASHED
 62
7
 10
-8.10000134E+01
 20
8.64999619E+01
 40
3.74999976E+00
  0
CIRCLE
  8
0
  6
DASHED
 62
7
 10
-1.09000074E+02
 20
1.14499992E+02
 40
3.74999976E+00
  0
CIRCLE
  8
0
  6
DASHED
 62
7
 10
-8.10000134E+01
 20
1.14499992E+02
 40
3.74999976E+00
  0
ARC
  8
0
  6
DASHED
 62
7
 10
-9.50000286E+01
 20
1.00500000E+02
 40
2.30000019E+01
 50
3.20246827E+02
 51
3.97530636E+01
  0
ARC
  8
0
  6
DASHED
 62
7
 10
-9.50000286E+01
 20
1.00500000E+02
 40
2.30000019E+01
 50
2.30246814E+02
 51
3.09753064E+02
  0
ARC
  8
0
  6
DASHED
 62
7
 10
-9.50000286E+01
 20
1.00500000E+02
 40
2.30000019E+01
 50
1.40246843E+02
 51
2.19753031E+02
  0
ARC
  8
0
 62
7
 10
9.04999599E+01
 20
7.60000076E+01
 40
5.00000000E-01
 50
2.69999909E+02
 51
3.59999891E+02
  0
ARC
  8
0
 62
7
 10
9.04999599E+01
 20
1.25000000E+02
 40
5.00000000E-01
 50
3.59999891E+02
 51
8.99998730E+01
  0
ARC
  8
0
 62
7
 10
-1.57000044E+02
 20
1.00500015E+02
 40
1.50000248E+01
 50
3.30073440E+02
 51
2.99266002E+01
  0
LINE
  8
0
  6
CENTER
 62
2
 10
-9.50000591E+01
 20
1.43806946E+02
 11
-9.50000591E+01
 21
1.58747894E+02
  0
ARC
  8
0
 62
4
 10
-1.73299105E+02
 20
1.16088455E+02
 40
9.20095253E+00
 50
1.45615726E+02
 51
2.14384256E+02
  0
ARC
  8
0
 62
4
 10
-1.48107794E+02
 20
1.00500000E+02
 40
3.43922653E+01
 50
1.62412050E+02
 51
1.97587933E+02
  0
ARC
  8
0
 62
4
 10
-1.73299105E+02
 20
8.49115448E+01
 40
9.20095253E+00
 50
1.45615726E+02
 51
2.14384256E+02
  0
ARC
  8
0
 62
4
 10
-1.77701014E+02
 20
1.16088455E+02
 40
9.20095253E+00
 50
3.25615707E+02
 51
3.43842378E+01
  0
ARC
  8
0
 62
4
 10
-2.02892324E+02
 20
1.00500000E+02
 40
3.43922653E+01
 50
3.42412030E+02
 51
1.75879147E+01
  0
ARC
  8
0
 62
4
 10
-1.77701014E+02
 20
8.49115448E+01
 40
9.20095253E+00
 50
3.25615707E+02
 51
3.43842378E+01
  0
LINE
  8
0
 62
4
 10
-1.68500090E+02
 20
8.24999970E+01
 11
-1.70107782E+02
 21
7.97154066E+01
  0
LINE
  8
0
 62
4
 10
-1.68500059E+02
 20
1.18500000E+02
 11
-1.68500059E+02
 21
8.25000000E+01
  0
LINE
  8
0
 62
4
 10
-1.68500059E+02
 20
1.18500012E+02
 11
-1.70107739E+02
 21
1.21284634E+02
  0
LINE
  8
0
 62
4
 10
-1.82500082E+02
 20
8.25000896E+01
 11
-1.80892377E+02
 21
7.97154821E+01
  0
LINE
  8
0
 62
4
 10
-1.82500068E+02
 20
1.18499999E+02
 11
-1.80892389E+02
 21
1.21284608E+02
  0
LINE
  8
0
 62
4
 10
-1.80892363E+02
 20
1.21284607E+02
 11
-1.70107756E+02
 21
1.21284607E+02
  0
LINE
  8
0
 62
4
 10
-1.80892363E+02
 20
1.10892303E+02
 11
-1.70107756E+02
 21
1.10892303E+02
  0
LINE
  8
0
 62
4
 10
-1.80892363E+02
 20
9.01076965E+01
 11
-1.70107756E+02
 21
9.01076965E+01
  0
LINE
  8
0
 62
4
 10
-1.80892363E+02
 20
7.97153931E+01
 11
-1.70107756E+02
 21
7.97153931E+01
  0
LINE
  8
0
 62
4
 10
-1.82500059E+02
 20
1.18500000E+02
 11
-1.82500059E+02
 21
8.25000000E+01
  0
LINE
  8
0
 62
7
 10
-1.68500059E+02
 20
1.13499992E+02
 11
-1.57000044E+02
 21
1.13499992E+02
  0
LINE
  8
0
 62
2
 10
-1.68500059E+02
 20
1.12679985E+02
 11
-1.57000044E+02
 21
1.12679985E+02
  0
LINE
  8
0
 62
7
 10
-1.68500059E+02
 20
8.74999847E+01
 11
-1.57000044E+02
 21
8.74999847E+01
  0
LINE
  8
0
 62
2
 10
-1.68500059E+02
 20
8.83199921E+01
 11
-1.57000044E+02
 21
8.83199921E+01
  0
LINE
  8
0
 62
4
 10
1.49999600E+01
 20
1.52920416E+02
 11
5.86598535E+00
 21
1.52920416E+02
  0
LINE
  8
0
 62
4
 10
1.49999600E+01
 20
1.49920416E+02
 11
4.13393454E+00
 21
1.49920416E+02
  0
LINE
  8
0
 62
6
 10
6.73201078E+00
 20
1.54420416E+02
 11
3.26790917E+00
 21
1.48420416E+02
  0
LINE
  8
0
  6
CENTER
 62
6
 10
4.99938965E-01
 20
1.51420416E+02
 11
4.99999600E+01
 21
1.51420416E+02
  0
POLYLINE
  8
0
 62
4
 66
1
  0
VERTEX
  8
0
 62
4
 10
-2.74777786E+01
 20
1.54000012E+02
  0
VERTEX
  8
0
 62
4
 10
-2.71450700E+01
 20
1.54135027E+02
  0
VERTEX
  8
0
 62
4
 10
-2.68266552E+01
 20
1.54296071E+02
  0
VERTEX
  8
0
 62
4
 10
-2.65249879E+01
 20
1.54481906E+02
  0
VERTEX
  8
0
 62
4
 10
-2.62423925E+01
 20
1.54691097E+02
  0
VERTEX
  8
0
 62
4
 10
-2.59810466E+01
 20
1.54922034E+02
  0
VERTEX
  8
0
 62
4
 10
-2.57429640E+01
 20
1.55172937E+02
  0
VERTEX
  8
0
 62
4
 10
-2.55299793E+01
 20
1.55441872E+02
  0
VERTEX
  8
0
 62
4
 10
-2.53437337E+01
 20
1.55726768E+02
  0
VERTEX
  8
0
 62
4
 10
-2.51856623E+01
 20
1.56025428E+02
  0
VERTEX
  8
0
 62
4
 10
-2.50569832E+01
 20
1.56335552E+02
  0
VERTEX
  8
0
 62
4
 10
-2.49586878E+01
 20
1.56654750E+02
  0
VERTEX
  8
0
 62
4
 10
-2.48915337E+01
 20
1.56980562E+02
  0
VERTEX
  8
0
 62
4
 10
-2.48560383E+01
 20
1.57310478E+02
  0
VERTEX
  8
0
 62
4
 10
-2.48524750E+01
 20
1.57641955E+02
  0
VERTEX
  8
0
 62
4
 10
-2.48808715E+01
 20
1.57972440E+02
  0
VERTEX
  8
0
 62
4
 10
-2.49410087E+01
 20
1.58299385E+02
  0
VERTEX
  8
0
 62
4
 10
-2.50324235E+01
 20
1.58620271E+02
  0
VERTEX
  8
0
 62
4
 10
-2.51544113E+01
 20
1.58932626E+02
  0
VERTEX
  8
0
 62
4
 10
-2.53060321E+01
 20
1.59234043E+02
  0
VERTEX
  8
0
 62
4
 10
-2.54861177E+01
 20
1.59522199E+02
  0
VERTEX
  8
0
 62
4
 10
-2.56932803E+01
 20
1.59794874E+02
  0
VERTEX
  8
0
 62
4
 10
-2.59259237E+01
 20
1.60049967E+02
  0
VERTEX
  8
0
 62
4
 10
-2.61822551E+01
 20
1.60285512E+02
  0
VERTEX
  8
0
 62
4
 10
-2.64602995E+01
 20
1.60499694E+02
  0
VERTEX
  8
0
 62
4
 10
-2.67579142E+01
 20
1.60690862E+02
  0
VERTEX
  8
0
 62
4
 10
-2.70728060E+01
 20
1.60857544E+02
  0
VERTEX
  8
0
 62
4
 10
-2.74025485E+01
 20
1.60998455E+02
  0
VERTEX
  8
0
 62
4
 10
-2.77446008E+01
 20
1.61112509E+02
  0
VERTEX
  8
0
 62
4
 10
-2.80963271E+01
 20
1.61198828E+02
  0
VERTEX
  8
0
 62
4
 10
-2.84550173E+01
 20
1.61256747E+02
  0
VERTEX
  8
0
 62
4
 10
-2.88179073E+01
 20
1.61285818E+02
  0
VERTEX
  8
0
 62
4
 10
-2.91822010E+01
 20
1.61285818E+02
  0
VERTEX
  8
0
 62
4
 10
-2.95450911E+01
 20
1.61256748E+02
  0
VERTEX
  8
0
 62
4
 10
-2.99037814E+01
 20
1.61198830E+02
  0
VERTEX
  8
0
 62
4
 10
-3.02555080E+01
 20
1.61112512E+02
  0
VERTEX
  8
0
 62
4
 10
-3.05975605E+01
 20
1.60998458E+02
  0
VERTEX
  8
0
 62
4
 10
-3.09273034E+01
 20
1.60857548E+02
  0
VERTEX
  8
0
 62
4
 10
-3.12421957E+01
 20
1.60690867E+02
  0
VERTEX
  8
0
 62
4
 10
-3.15398109E+01
 20
1.60499699E+02
  0
VERTEX
  8
0
 62
4
 10
-3.18178558E+01
 20
1.60285518E+02
  0
VERTEX
  8
0
 62
4
 10
-3.20741879E+01
 20
1.60049974E+02
  0
VERTEX
  8
0
 62
4
 10
-3.23068319E+01
 20
1.59794882E+02
  0
VERTEX
  8
0
 62
4
 10
-3.25139953E+01
 20
1.59522207E+02
  0
VERTEX
  8
0
 62
4
 10
-3.26940816E+01
 20
1.59234051E+02
  0
VERTEX
  8
0
 62
4
 10
-3.28457032E+01
 20
1.58932635E+02
  0
VERTEX
  8
0
 62
4
 10
-3.29676918E+01
 20
1.58620280E+02
  0
VERTEX
  8
0
 62
4
 10
-3.30591074E+01
 20
1.58299393E+02
  0
VERTEX
  8
0
 62
4
 10
-3.31192455E+01
 20
1.57972449E+02
  0
VERTEX
  8
0
 62
4
 10
-3.31476428E+01
 20
1.57641964E+02
  0
VERTEX
  8
0
 62
4
 10
-3.31440805E+01
 20
1.57310487E+02
  0
VERTEX
  8
0
 62
4
 10
-3.31085859E+01
 20
1.56980571E+02
  0
VERTEX
  8
0
 62
4
 10
-3.30414326E+01
 20
1.56654759E+02
  0
VERTEX
  8
0
 62
4
 10
-3.29431381E+01
 20
1.56335561E+02
  0
VERTEX
  8
0
 62
4
 10
-3.28144598E+01
 20
1.56025436E+02
  0
VERTEX
  8
0
 62
4
 10
-3.26563892E+01
 20
1.55726776E+02
  0
VERTEX
  8
0
 62
4
 10
-3.24701443E+01
 20
1.55441880E+02
  0
VERTEX
  8
0
 62
4
 10
-3.22571604E+01
 20
1.55172944E+02
  0
VERTEX
  8
0
 62
4
 10
-3.20190784E+01
 20
1.54922041E+02
  0
VERTEX
  8
0
 62
4
 10
-3.17577331E+01
 20
1.54691103E+02
  0
VERTEX
  8
0
 62
4
 10
-3.14751383E+01
 20
1.54481911E+02
  0
VERTEX
  8
0
 62
4
 10
-3.11734714E+01
 20
1.54296076E+02
  0
VERTEX
  8
0
 62
4
 10
-3.08550571E+01
 20
1.54135031E+02
  0
VERTEX
  8
0
 62
4
 10
-3.05223489E+01
 20
1.54000015E+02
  0
SEQEND
  8
0
  0
POLYLINE
  8
0
 62
4
 66
1
  0
VERTEX
  8
0
 62
4
 10
-2.61951998E+01
 20
1.54000016E+02
  0
VERTEX
  8
0
 62
4
 10
-2.59258617E+01
 20
1.54246471E+02
  0
VERTEX
  8
0
 62
4
 10
-2.56825662E+01
 20
1.54514416E+02
  0
VERTEX
  8
0
 62
4
 10
-2.54673743E+01
 20
1.54801581E+02
  0
VERTEX
  8
0
 62
4
 10
-2.52821091E+01
 20
1.55105533E+02
  0
VERTEX
  8
0
 62
4
 10
-2.51283399E+01
 20
1.55423698E+02
  0
VERTEX
  8
0
 62
4
 10
-2.50073694E+01
 20
1.55753381E+02
  0
VERTEX
  8
0
 62
4
 10
-2.49202224E+01
 20
1.56091788E+02
  0
VERTEX
  8
0
 62
4
 10
-2.48676372E+01
 20
1.56436052E+02
  0
VERTEX
  8
0
 62
4
 10
-2.48500591E+01
 20
1.56783258E+02
  0
SEQEND
  8
0
  0
LINE
  8
0
 62
4
 10
-1.40000591E+01
 20
1.54000015E+02
 11
-1.40000591E+01
 21
1.63905365E+02
  0
LINE
  8
0
 62
4
 10
-2.05000591E+01
 20
1.54069725E+02
 11
-2.05000591E+01
 21
1.54000015E+02
  0
LINE
  8
0
 62
4
 10
-4.40000591E+01
 20
1.63905365E+02
 11
-4.40000591E+01
 21
1.54069725E+02
  0
LINE
  8
0
  6
CENTER
 62
6
 10
-2.43500591E+01
 20
1.56625674E+02
 11
-3.36500591E+01
 21
1.56625674E+02
  0
LINE
  8
0
  6
CENTER
 62
6
 10
-2.90000591E+01
 20
1.61275674E+02
 11
-2.90000591E+01
 21
1.51975674E+02
  0
LINE
  8
0
  6
CENTER
 62
6
 10
-3.29254622E+01
 20
1.59810539E+02
 11
-4.00746560E+01
 21
1.59810539E+02
  0
LINE
  8
0
  6
CENTER
 62
6
 10
-3.65000591E+01
 20
1.63385136E+02
 11
-3.65000591E+01
 21
1.56235942E+02
  0
LINE
  8
0
  6
CENTER
 62
6
 10
-1.67000592E+01
 20
1.59810539E+02
 11
-2.63000592E+01
 21
1.59810539E+02
  0
LINE
  8
0
  6
CENTER
 62
6
 10
-2.15000591E+01
 20
1.64610539E+02
 11
-2.15000591E+01
 21
1.55010539E+02
  0
LINE
  8
0
 62
4
 10
2.99999599E+01
 20
1.31767706E+02
 11
2.99999599E+01
 21
1.59634024E+02
  0
LINE
  8
0
 62
4
 10
1.49999599E+01
 20
1.31767706E+02
 11
1.49999599E+01
 21
1.63905365E+02
  0
LINE
  8
0
 62
4
 10
4.49999599E+01
 20
1.63905365E+02
 11
4.49999599E+01
 21
1.44908767E+02
  0
LINE
  8
0
  6
CENTER
 62
6
 10
2.64999599E+01
 20
1.32330530E+02
 11
2.64999599E+01
 21
1.39330530E+02
  0
LINE
  8
0
  6
CENTER
 62
6
 10
1.49999599E+01
 20
1.35830530E+02
 11
2.19999599E+01
 21
1.35830530E+02
  0
LINE
  8
0
  6
CENTER
 62
6
 10
1.84999599E+01
 20
1.32330530E+02
 11
1.84999599E+01
 21
1.39330530E+02
  0
LINE
  8
0
  6
CENTER
 62
6
 10
2.29999599E+01
 20
1.35830530E+02
 11
2.99999599E+01
 21
1.35830530E+02
  0
LINE
  8
0
 62
4
 10
-4.40000591E+01
 20
1.63905365E+02
 11
-1.40000591E+01
 21
1.63905365E+02
  0
LINE
  8
0
 62
4
 10
1.49999599E+01
 20
1.63905365E+02
 11
4.49999599E+01
 21
1.63905365E+02
  0
LINE
  8
0
 62
4
 10
1.49999599E+01
 20
1.59634024E+02
 11
4.49999599E+01
 21
1.59634024E+02
  0
LINE
  8
0
 62
4
 10
1.49999599E+01
 20
1.56731172E+02
 11
2.99999599E+01
 21
1.56731172E+02
  0
LINE
  8
0
 62
4
 10
1.59999600E+01
 20
1.42592275E+02
 11
2.89999600E+01
 21
1.42592275E+02
  0
LINE
  8
0
 62
4
 10
2.99999599E+01
 20
1.44908767E+02
 11
4.49999599E+01
 21
1.44908767E+02
  0
LINE
  8
0
 62
4
 10
1.49999599E+01
 20
1.31767706E+02
 11
2.99999599E+01
 21
1.31767706E+02
  0
LINE
  8
0
 62
4
 10
2.99999599E+01
 20
1.51899353E+02
 11
4.49999599E+01
 21
1.51899353E+02
  0
LINE
  8
0
 62
4
 10
2.99999599E+01
 20
1.51733476E+02
 11
4.49999599E+01
 21
1.51733476E+02
  0
LINE
  8
0
  6
CENTER
 62
6
 10
4.10745568E+01
 20
1.55539199E+02
 11
3.39253631E+01
 21
1.55539199E+02
  0
LINE
  8
0
  6
CENTER
 62
6
 10
3.74999599E+01
 20
1.59113795E+02
 11
3.74999599E+01
 21
1.51964602E+02
  0
POLYLINE
  8
0
 62
4
 66
1
  0
VERTEX
  8
0
 62
4
 10
3.97499599E+01
 20
1.55539199E+02
  0
VERTEX
  8
0
 62
4
 10
3.97413980E+01
 20
1.55717643E+02
  0
VERTEX
  8
0
 62
4
 10
3.97157773E+01
 20
1.55894729E+02
  0
VERTEX
  8
0
 62
4
 10
3.96732930E+01
 20
1.56069108E+02
  0
VERTEX
  8
0
 62
4
 10
3.96142683E+01
 20
1.56239455E+02
  0
VERTEX
  8
0
 62
4
 10
3.95391524E+01
 20
1.56404473E+02
  0
VERTEX
  8
0
 62
4
 10
3.94485171E+01
 20
1.56562905E+02
  0
VERTEX
  8
0
 62
4
 10
3.93430520E+01
 20
1.56713547E+02
  0
VERTEX
  8
0
 62
4
 10
3.92235599E+01
 20
1.56855251E+02
  0
VERTEX
  8
0
 62
4
 10
3.90909502E+01
 20
1.56986939E+02
  0
VERTEX
  8
0
 62
4
 10
3.89462320E+01
 20
1.57107608E+02
  0
VERTEX
  8
0
 62
4
 10
3.87905069E+01
 20
1.57216341E+02
  0
VERTEX
  8
0
 62
4
 10
3.86249599E+01
 20
1.57312311E+02
  0
VERTEX
  8
0
 62
4
 10
3.84508510E+01
 20
1.57394785E+02
  0
VERTEX
  8
0
 62
4
 10
3.82695052E+01
 20
1.57463138E+02
  0
VERTEX
  8
0
 62
4
 10
3.80823028E+01
 20
1.57516848E+02
  0
VERTEX
  8
0
 62
4
 10
3.78906683E+01
 20
1.57555507E+02
  0
VERTEX
  8
0
 62
4
 10
3.76960603E+01
 20
1.57578821E+02
  0
VERTEX
  8
0
 62
4
 10
3.74999599E+01
 20
1.57586612E+02
  0
VERTEX
  8
0
 62
4
 10
3.73038595E+01
 20
1.57578821E+02
  0
VERTEX
  8
0
 62
4
 10
3.71092515E+01
 20
1.57555507E+02
  0
VERTEX
  8
0
 62
4
 10
3.69176170E+01
 20
1.57516848E+02
  0
VERTEX
  8
0
 62
4
 10
3.67304146E+01
 20
1.57463138E+02
  0
VERTEX
  8
0
 62
4
 10
3.65490688E+01
 20
1.57394785E+02
  0
VERTEX
  8
0
 62
4
 10
3.63749599E+01
 20
1.57312311E+02
  0
VERTEX
  8
0
 62
4
 10
3.62094129E+01
 20
1.57216341E+02
  0
VERTEX
  8
0
 62
4
 10
3.60536878E+01
 20
1.57107608E+02
  0
VERTEX
  8
0
 62
4
 10
3.59089696E+01
 20
1.56986939E+02
  0
VERTEX
  8
0
 62
4
 10
3.57763599E+01
 20
1.56855251E+02
  0
VERTEX
  8
0
 62
4
 10
3.56568678E+01
 20
1.56713547E+02
  0
VERTEX
  8
0
 62
4
 10
3.55514027E+01
 20
1.56562905E+02
  0
VERTEX
  8
0
 62
4
 10
3.54607674E+01
 20
1.56404473E+02
  0
VERTEX
  8
0
 62
4
 10
3.53856515E+01
 20
1.56239455E+02
  0
VERTEX
  8
0
 62
4
 10
3.53266268E+01
 20
1.56069108E+02
  0
VERTEX
  8
0
 62
4
 10
3.52841425E+01
 20
1.55894729E+02
  0
VERTEX
  8
0
 62
4
 10
3.52585218E+01
 20
1.55717643E+02
  0
VERTEX
  8
0
 62
4
 10
3.52499599E+01
 20
1.55539199E+02
  0
VERTEX
  8
0
 62
4
 10
3.52585218E+01
 20
1.55360755E+02
  0
VERTEX
  8
0
 62
4
 10
3.52841425E+01
 20
1.55183669E+02
  0
VERTEX
  8
0
 62
4
 10
3.53266268E+01
 20
1.55009290E+02
  0
VERTEX
  8
0
 62
4
 10
3.53856515E+01
 20
1.54838943E+02
  0
VERTEX
  8
0
 62
4
 10
3.54607674E+01
 20
1.54673925E+02
  0
VERTEX
  8
0
 62
4
 10
3.55514027E+01
 20
1.54515493E+02
  0
VERTEX
  8
0
 62
4
 10
3.56568678E+01
 20
1.54364851E+02
  0
VERTEX
  8
0
 62
4
 10
3.57763599E+01
 20
1.54223147E+02
  0
VERTEX
  8
0
 62
4
 10
3.59089696E+01
 20
1.54091459E+02
  0
VERTEX
  8
0
 62
4
 10
3.60536878E+01
 20
1.53970790E+02
  0
VERTEX
  8
0
 62
4
 10
3.62094129E+01
 20
1.53862057E+02
  0
VERTEX
  8
0
 62
4
 10
3.63749599E+01
 20
1.53766087E+02
  0
VERTEX
  8
0
 62
4
 10
3.65490688E+01
 20
1.53683613E+02
  0
VERTEX
  8
0
 62
4
 10
3.67304146E+01
 20
1.53615260E+02
  0
VERTEX
  8
0
 62
4
 10
3.69176171E+01
 20
1.53561550E+02
  0
VERTEX
  8
0
 62
4
 10
3.71092515E+01
 20
1.53522891E+02
  0
VERTEX
  8
0
 62
4
 10
3.73038595E+01
 20
1.53499577E+02
  0
VERTEX
  8
0
 62
4
 10
3.74999599E+01
 20
1.53491786E+02
  0
VERTEX
  8
0
 62
4
 10
3.76960603E+01
 20
1.53499577E+02
  0
VERTEX
  8
0
 62
4
 10
3.78906683E+01
 20
1.53522891E+02
  0
VERTEX
  8
0
 62
4
 10
3.80823028E+01
 20
1.53561550E+02
  0
VERTEX
  8
0
 62
4
 10
3.82695052E+01
 20
1.53615260E+02
  0
VERTEX
  8
0
 62
4
 10
3.84508510E+01
 20
1.53683613E+02
  0
VERTEX
  8
0
 62
4
 10
3.86249599E+01
 20
1.53766087E+02
  0
VERTEX
  8
0
 62
4
 10
3.87905069E+01
 20
1.53862057E+02
  0
VERTEX
  8
0
 62
4
 10
3.89462320E+01
 20
1.53970790E+02
  0
VERTEX
  8
0
 62
4
 10
3.90909502E+01
 20
1.54091459E+02
  0
VERTEX
  8
0
 62
4
 10
3.92235599E+01
 20
1.54223147E+02
  0
VERTEX
  8
0
 62
4
 10
3.93430520E+01
 20
1.54364851E+02
  0
VERTEX
  8
0
 62
4
 10
3.94485171E+01
 20
1.54515493E+02
  0
VERTEX
  8
0
 62
4
 10
3.95391524E+01
 20
1.54673925E+02
  0
VERTEX
  8
0
 62
4
 10
3.96142683E+01
 20
1.54838943E+02
  0
VERTEX
  8
0
 62
4
 10
3.96732930E+01
 20
1.55009290E+02
  0
VERTEX
  8
0
 62
4
 10
3.97157773E+01
 20
1.55183669E+02
  0
VERTEX
  8
0
 62
4
 10
3.97413980E+01
 20
1.55360755E+02
  0
VERTEX
  8
0
 62
4
 10
3.97499599E+01
 20
1.55539199E+02
  0
SEQEND
  8
0
  0
POLYLINE
  8
0
 62
4
 66
1
  0
VERTEX
  8
0
 62
4
 10
2.84999599E+01
 20
1.35830530E+02
  0
VERTEX
  8
0
 62
4
 10
2.84919085E+01
 20
1.35993667E+02
  0
VERTEX
  8
0
 62
4
 10
2.84678191E+01
 20
1.36155490E+02
  0
VERTEX
  8
0
 62
4
 10
2.84278856E+01
 20
1.36314696E+02
  0
VERTEX
  8
0
 62
4
 10
2.83724296E+01
 20
1.36470005E+02
  0
VERTEX
  8
0
 62
4
 10
2.83018976E+01
 20
1.36620165E+02
  0
VERTEX
  8
0
 62
4
 10
2.82168575E+01
 20
1.36763967E+02
  0
VERTEX
  8
0
 62
4
 10
2.81179939E+01
 20
1.36900254E+02
  0
VERTEX
  8
0
 62
4
 10
2.80061028E+01
 20
1.37027927E+02
  0
VERTEX
  8
0
 62
4
 10
2.78820852E+01
 20
1.37145961E+02
  0
VERTEX
  8
0
 62
4
 10
2.77469395E+01
 20
1.37253403E+02
  0
VERTEX
  8
0
 62
4
 10
2.76017539E+01
 20
1.37349389E+02
  0
VERTEX
  8
0
 62
4
 10
2.74476972E+01
 20
1.37433146E+02
  0
VERTEX
  8
0
 62
4
 10
2.72860100E+01
 20
1.37503999E+02
  0
VERTEX
  8
0
 62
4
 10
2.71179939E+01
 20
1.37561379E+02
  0
VERTEX
  8
0
 62
4
 10
2.69450018E+01
 20
1.37604823E+02
  0
VERTEX
  8
0
 62
4
 10
2.67684264E+01
 20
1.37633982E+02
  0
VERTEX
  8
0
 62
4
 10
2.65896896E+01
 20
1.37648620E+02
  0
VERTEX
  8
0
 62
4
 10
2.64102303E+01
 20
1.37648620E+02
  0
VERTEX
  8
0
 62
4
 10
2.62314934E+01
 20
1.37633982E+02
  0
VERTEX
  8
0
 62
4
 10
2.60549180E+01
 20
1.37604823E+02
  0
VERTEX
  8
0
 62
4
 10
2.58819259E+01
 20
1.37561379E+02
  0
VERTEX
  8
0
 62
4
 10
2.57139099E+01
 20
1.37503999E+02
  0
VERTEX
  8
0
 62
4
 10
2.55522226E+01
 20
1.37433146E+02
  0
VERTEX
  8
0
 62
4
 10
2.53981660E+01
 20
1.37349389E+02
  0
VERTEX
  8
0
 62
4
 10
2.52529803E+01
 20
1.37253403E+02
  0
VERTEX
  8
0
 62
4
 10
2.51178346E+01
 20
1.37145961E+02
  0
VERTEX
  8
0
 62
4
 10
2.49938170E+01
 20
1.37027927E+02
  0
VERTEX
  8
0
 62
4
 10
2.48819259E+01
 20
1.36900254E+02
  0
VERTEX
  8
0
 62
4
 10
2.47830623E+01
 20
1.36763967E+02
  0
VERTEX
  8
0
 62
4
 10
2.46980222E+01
 20
1.36620165E+02
  0
VERTEX
  8
0
 62
4
 10
2.46274902E+01
 20
1.36470005E+02
  0
VERTEX
  8
0
 62
4
 10
2.45720342E+01
 20
1.36314696E+02
  0
VERTEX
  8
0
 62
4
 10
2.45321007E+01
 20
1.36155490E+02
  0
VERTEX
  8
0
 62
4
 10
2.45080113E+01
 20
1.35993667E+02
  0
VERTEX
  8
0
 62
4
 10
2.44999599E+01
 20
1.35830530E+02
  0
SEQEND
  8
0
  0
LINE
  8
0
 62
4
 10
2.44999599E+01
 20
1.34195613E+02
 11
2.44999599E+01
 21
1.35830530E+02
  0
POLYLINE
  8
0
 62
4
 66
1
  0
VERTEX
  8
0
 62
4
 10
2.44999599E+01
 20
1.34195613E+02
  0
VERTEX
  8
0
 62
4
 10
2.45075705E+01
 20
1.34036996E+02
  0
VERTEX
  8
0
 62
4
 10
2.45303444E+01
 20
1.33879587E+02
  0
VERTEX
  8
0
 62
4
 10
2.45681082E+01
 20
1.33724582E+02
  0
VERTEX
  8
0
 62
4
 10
2.46205747E+01
 20
1.33573163E+02
  0
VERTEX
  8
0
 62
4
 10
2.46873443E+01
 20
1.33426481E+02
  0
VERTEX
  8
0
 62
4
 10
2.47679091E+01
 20
1.33285652E+02
  0
VERTEX
  8
0
 62
4
 10
2.48616558E+01
 20
1.33151748E+02
  0
VERTEX
  8
0
 62
4
 10
2.49678710E+01
 20
1.33025789E+02
  0
VERTEX
  8
0
 62
4
 10
2.50857463E+01
 20
1.32908733E+02
  0
VERTEX
  8
0
 62
4
 10
2.52143847E+01
 20
1.32801472E+02
  0
VERTEX
  8
0
 62
4
 10
2.53528070E+01
 20
1.32704820E+02
  0
VERTEX
  8
0
 62
4
 10
2.54999599E+01
 20
1.32619514E+02
  0
VERTEX
  8
0
 62
4
 10
2.56547234E+01
 20
1.32546203E+02
  0
VERTEX
  8
0
 62
4
 10
2.58159196E+01
 20
1.32485445E+02
  0
VERTEX
  8
0
 62
4
 10
2.59823218E+01
 20
1.32437703E+02
  0
VERTEX
  8
0
 62
4
 10
2.61526635E+01
 20
1.32403339E+02
  0
VERTEX
  8
0
 62
4
 10
2.63256484E+01
 20
1.32382616E+02
  0
VERTEX
  8
0
 62
4
 10
2.64999599E+01
 20
1.32375691E+02
  0
VERTEX
  8
0
 62
4
 10
2.66742714E+01
 20
1.32382616E+02
  0
VERTEX
  8
0
 62
4
 10
2.68472563E+01
 20
1.32403339E+02
  0
VERTEX
  8
0
 62
4
 10
2.70175980E+01
 20
1.32437703E+02
  0
VERTEX
  8
0
 62
4
 10
2.71840002E+01
 20
1.32485445E+02
  0
VERTEX
  8
0
 62
4
 10
2.73451964E+01
 20
1.32546203E+02
  0
VERTEX
  8
0
 62
4
 10
2.74999599E+01
 20
1.32619514E+02
  0
VERTEX
  8
0
 62
4
 10
2.76471128E+01
 20
1.32704820E+02
  0
VERTEX
  8
0
 62
4
 10
2.77855351E+01
 20
1.32801471E+02
  0
VERTEX
  8
0
 62
4
 10
2.79141735E+01
 20
1.32908733E+02
  0
VERTEX
  8
0
 62
4
 10
2.80320488E+01
 20
1.33025789E+02
  0
VERTEX
  8
0
 62
4
 10
2.81382640E+01
 20
1.33151748E+02
  0
VERTEX
  8
0
 62
4
 10
2.82320107E+01
 20
1.33285652E+02
  0
VERTEX
  8
0
 62
4
 10
2.83125755E+01
 20
1.33426481E+02
  0
VERTEX
  8
0
 62
4
 10
2.83793451E+01
 20
1.33573163E+02
  0
VERTEX
  8
0
 62
4
 10
2.84318116E+01
 20
1.33724582E+02
  0
VERTEX
  8
0
 62
4
 10
2.84695754E+01
 20
1.33879587E+02
  0
VERTEX
  8
0
 62
4
 10
2.84923493E+01
 20
1.34036996E+02
  0
VERTEX
  8
0
 62
4
 10
2.84999599E+01
 20
1.34195613E+02
  0
VERTEX
  8
0
 62
4
 10
2.84923493E+01
 20
1.34354230E+02
  0
VERTEX
  8
0
 62
4
 10
2.84695754E+01
 20
1.34511639E+02
  0
VERTEX
  8
0
 62
4
 10
2.84318116E+01
 20
1.34666644E+02
  0
VERTEX
  8
0
 62
4
 10
2.83793451E+01
 20
1.34818063E+02
  0
VERTEX
  8
0
 62
4
 10
2.83125755E+01
 20
1.34964745E+02
  0
VERTEX
  8
0
 62
4
 10
2.82320107E+01
 20
1.35105574E+02
  0
VERTEX
  8
0
 62
4
 10
2.81382640E+01
 20
1.35239478E+02
  0
VERTEX
  8
0
 62
4
 10
2.80320488E+01
 20
1.35365437E+02
  0
VERTEX
  8
0
 62
4
 10
2.79141735E+01
 20
1.35482493E+02
  0
VERTEX
  8
0
 62
4
 10
2.77855351E+01
 20
1.35589755E+02
  0
VERTEX
  8
0
 62
4
 10
2.76471128E+01
 20
1.35686406E+02
  0
VERTEX
  8
0
 62
4
 10
2.74999599E+01
 20
1.35771712E+02
  0
VERTEX
  8
0
 62
4
 10
2.73451964E+01
 20
1.35845023E+02
  0
VERTEX
  8
0
 62
4
 10
2.71840002E+01
 20
1.35905781E+02
  0
VERTEX
  8
0
 62
4
 10
2.70175980E+01
 20
1.35953523E+02
  0
VERTEX
  8
0
 62
4
 10
2.68472563E+01
 20
1.35987887E+02
  0
VERTEX
  8
0
 62
4
 10
2.66742714E+01
 20
1.36008610E+02
  0
VERTEX
  8
0
 62
4
 10
2.64999599E+01
 20
1.36015535E+02
  0
VERTEX
  8
0
 62
4
 10
2.63256484E+01
 20
1.36008610E+02
  0
VERTEX
  8
0
 62
4
 10
2.61526635E+01
 20
1.35987887E+02
  0
VERTEX
  8
0
 62
4
 10
2.59823218E+01
 20
1.35953523E+02
  0
VERTEX
  8
0
 62
4
 10
2.58159196E+01
 20
1.35905781E+02
  0
VERTEX
  8
0
 62
4
 10
2.56547234E+01
 20
1.35845023E+02
  0
VERTEX
  8
0
 62
4
 10
2.54999599E+01
 20
1.35771712E+02
  0
VERTEX
  8
0
 62
4
 10
2.53528070E+01
 20
1.35686406E+02
  0
VERTEX
  8
0
 62
4
 10
2.52143847E+01
 20
1.35589755E+02
  0
VERTEX
  8
0
 62
4
 10
2.50857463E+01
 20
1.35482493E+02
  0
VERTEX
  8
0
 62
4
 10
2.49678710E+01
 20
1.35365437E+02
  0
VERTEX
  8
0
 62
4
 10
2.48616558E+01
 20
1.35239478E+02
  0
VERTEX
  8
0
 62
4
 10
2.47679091E+01
 20
1.35105574E+02
  0
VERTEX
  8
0
 62
4
 10
2.46873443E+01
 20
1.34964745E+02
  0
VERTEX
  8
0
 62
4
 10
2.46205747E+01
 20
1.34818063E+02
  0
VERTEX
  8
0
 62
4
 10
2.45681082E+01
 20
1.34666644E+02
  0
VERTEX
  8
0
 62
4
 10
2.45303444E+01
 20
1.34511639E+02
  0
VERTEX
  8
0
 62
4
 10
2.45075705E+01
 20
1.34354230E+02
  0
VERTEX
  8
0
 62
4
 10
2.44999599E+01
 20
1.34195613E+02
  0
SEQEND
  8
0
  0
LINE
  8
0
 62
4
 10
2.84999599E+01
 20
1.34195613E+02
 11
2.84999599E+01
 21
1.35830530E+02
  0
POLYLINE
  8
0
 62
6
 66
1
  0
VERTEX
  8
0
 62
6
 10
2.49999599E+01
 20
1.34195613E+02
  0
VERTEX
  8
0
 62
6
 10
2.50056678E+01
 20
1.34076650E+02
  0
VERTEX
  8
0
 62
6
 10
2.50227482E+01
 20
1.33958593E+02
  0
VERTEX
  8
0
 62
6
 10
2.50510711E+01
 20
1.33842340E+02
  0
VERTEX
  8
0
 62
6
 10
2.50904209E+01
 20
1.33728775E+02
  0
VERTEX
  8
0
 62
6
 10
2.51404982E+01
 20
1.33618764E+02
  0
VERTEX
  8
0
 62
6
 10
2.52009218E+01
 20
1.33513142E+02
  0
VERTEX
  8
0
 62
6
 10
2.52712318E+01
 20
1.33412714E+02
  0
VERTEX
  8
0
 62
6
 10
2.53508932E+01
 20
1.33318245E+02
  0
VERTEX
  8
0
 62
6
 10
2.54392997E+01
 20
1.33230453E+02
  0
VERTEX
  8
0
 62
6
 10
2.55357785E+01
 20
1.33150007E+02
  0
VERTEX
  8
0
 62
6
 10
2.56395952E+01
 20
1.33077518E+02
  0
VERTEX
  8
0
 62
6
 10
2.57499599E+01
 20
1.33013539E+02
  0
VERTEX
  8
0
 62
6
 10
2.58660325E+01
 20
1.32958556E+02
  0
VERTEX
  8
0
 62
6
 10
2.59869297E+01
 20
1.32912987E+02
  0
VERTEX
  8
0
 62
6
 10
2.61117313E+01
 20
1.32877180E+02
  0
VERTEX
  8
0
 62
6
 10
2.62394876E+01
 20
1.32851408E+02
  0
VERTEX
  8
0
 62
6
 10
2.63692263E+01
 20
1.32835865E+02
  0
VERTEX
  8
0
 62
6
 10
2.64999599E+01
 20
1.32830671E+02
  0
VERTEX
  8
0
 62
6
 10
2.66306935E+01
 20
1.32835865E+02
  0
VERTEX
  8
0
 62
6
 10
2.67604322E+01
 20
1.32851408E+02
  0
VERTEX
  8
0
 62
6
 10
2.68881885E+01
 20
1.32877180E+02
  0
VERTEX
  8
0
 62
6
 10
2.70129901E+01
 20
1.32912987E+02
  0
VERTEX
  8
0
 62
6
 10
2.71338873E+01
 20
1.32958556E+02
  0
VERTEX
  8
0
 62
6
 10
2.72499599E+01
 20
1.33013539E+02
  0
VERTEX
  8
0
 62
6
 10
2.73603246E+01
 20
1.33077518E+02
  0
VERTEX
  8
0
 62
6
 10
2.74641413E+01
 20
1.33150007E+02
  0
VERTEX
  8
0
 62
6
 10
2.75606201E+01
 20
1.33230453E+02
  0
VERTEX
  8
0
 62
6
 10
2.76490266E+01
 20
1.33318245E+02
  0
VERTEX
  8
0
 62
6
 10
2.77286880E+01
 20
1.33412714E+02
  0
VERTEX
  8
0
 62
6
 10
2.77989980E+01
 20
1.33513142E+02
  0
VERTEX
  8
0
 62
6
 10
2.78594216E+01
 20
1.33618764E+02
  0
VERTEX
  8
0
 62
6
 10
2.79094988E+01
 20
1.33728775E+02
  0
VERTEX
  8
0
 62
6
 10
2.79488487E+01
 20
1.33842340E+02
  0
VERTEX
  8
0
 62
6
 10
2.79771715E+01
 20
1.33958593E+02
  0
VERTEX
  8
0
 62
6
 10
2.79942520E+01
 20
1.34076650E+02
  0
VERTEX
  8
0
 62
6
 10
2.79999599E+01
 20
1.34195613E+02
  0
VERTEX
  8
0
 62
6
 10
2.79942520E+01
 20
1.34314576E+02
  0
VERTEX
  8
0
 62
6
 10
2.79771715E+01
 20
1.34432633E+02
  0
VERTEX
  8
0
 62
6
 10
2.79488487E+01
 20
1.34548886E+02
  0
VERTEX
  8
0
 62
6
 10
2.79094989E+01
 20
1.34662451E+02
  0
VERTEX
  8
0
 62
6
 10
2.78594216E+01
 20
1.34772462E+02
  0
VERTEX
  8
0
 62
6
 10
2.77989980E+01
 20
1.34878084E+02
  0
VERTEX
  8
0
 62
6
 10
2.77286880E+01
 20
1.34978512E+02
  0
VERTEX
  8
0
 62
6
 10
2.76490266E+01
 20
1.35072981E+02
  0
VERTEX
  8
0
 62
6
 10
2.75606201E+01
 20
1.35160773E+02
  0
VERTEX
  8
0
 62
6
 10
2.74641413E+01
 20
1.35241219E+02
  0
VERTEX
  8
0
 62
6
 10
2.73603246E+01
 20
1.35313708E+02
  0
VERTEX
  8
0
 62
6
 10
2.72499599E+01
 20
1.35377687E+02
  0
VERTEX
  8
0
 62
6
 10
2.71338873E+01
 20
1.35432670E+02
  0
VERTEX
  8
0
 62
6
 10
2.70129901E+01
 20
1.35478239E+02
  0
VERTEX
  8
0
 62
6
 10
2.68881885E+01
 20
1.35514046E+02
  0
VERTEX
  8
0
 62
6
 10
2.67604322E+01
 20
1.35539818E+02
  0
VERTEX
  8
0
 62
6
 10
2.66306935E+01
 20
1.35555361E+02
  0
VERTEX
  8
0
 62
6
 10
2.64999599E+01
 20
1.35560555E+02
  0
VERTEX
  8
0
 62
6
 10
2.63692263E+01
 20
1.35555361E+02
  0
VERTEX
  8
0
 62
6
 10
2.62394876E+01
 20
1.35539818E+02
  0
VERTEX
  8
0
 62
6
 10
2.61117313E+01
 20
1.35514046E+02
  0
VERTEX
  8
0
 62
6
 10
2.59869297E+01
 20
1.35478239E+02
  0
VERTEX
  8
0
 62
6
 10
2.58660325E+01
 20
1.35432670E+02
  0
VERTEX
  8
0
 62
6
 10
2.57499599E+01
 20
1.35377687E+02
  0
VERTEX
  8
0
 62
6
 10
2.56395952E+01
 20
1.35313708E+02
  0
VERTEX
  8
0
 62
6
 10
2.55357785E+01
 20
1.35241219E+02
  0
VERTEX
  8
0
 62
6
 10
2.54392997E+01
 20
1.35160773E+02
  0
VERTEX
  8
0
 62
6
 10
2.53508932E+01
 20
1.35072981E+02
  0
VERTEX
  8
0
 62
6
 10
2.52712318E+01
 20
1.34978512E+02
  0
VERTEX
  8
0
 62
6
 10
2.52009218E+01
 20
1.34878084E+02
  0
VERTEX
  8
0
 62
6
 10
2.51404982E+01
 20
1.34772462E+02
  0
VERTEX
  8
0
 62
6
 10
2.50904210E+01
 20
1.34662451E+02
  0
VERTEX
  8
0
 62
6
 10
2.50510711E+01
 20
1.34548886E+02
  0
VERTEX
  8
0
 62
6
 10
2.50227483E+01
 20
1.34432633E+02
  0
VERTEX
  8
0
 62
6
 10
2.50056678E+01
 20
1.34314576E+02
  0
VERTEX
  8
0
 62
6
 10
2.49999599E+01
 20
1.34195613E+02
  0
SEQEND
  8
0
  0
LINE
  8
0
 62
4
 10
2.54999599E+01
 20
1.33667835E+02
 11
2.54999599E+01
 21
1.34723391E+02
  0
LINE
  8
0
 62
4
 10
2.64999599E+01
 20
1.35242068E+02
 11
2.54999599E+01
 21
1.34723391E+02
  0
LINE
  8
0
 62
4
 10
2.64999599E+01
 20
1.33140058E+02
 11
2.54999599E+01
 21
1.33667835E+02
  0
LINE
  8
0
 62
4
 10
2.64999599E+01
 20
1.35242068E+02
 11
2.74999599E+01
 21
1.34723391E+02
  0
LINE
  8
0
 62
4
 10
2.74999599E+01
 20
1.33667835E+02
 11
2.74999599E+01
 21
1.34723391E+02
  0
LINE
  8
0
 62
4
 10
2.64999599E+01
 20
1.33140058E+02
 11
2.74999599E+01
 21
1.33667835E+02
  0
LINE
  8
0
 62
4
 10
1.84999599E+01
 20
1.33140058E+02
 11
1.94999599E+01
 21
1.33667835E+02
  0
LINE
  8
0
 62
4
 10
1.94999599E+01
 20
1.33667835E+02
 11
1.94999599E+01
 21
1.34723391E+02
  0
LINE
  8
0
 62
4
 10
1.84999599E+01
 20
1.35242068E+02
 11
1.94999599E+01
 21
1.34723391E+02
  0
LINE
  8
0
 62
4
 10
1.84999599E+01
 20
1.33140058E+02
 11
1.74999599E+01
 21
1.33667835E+02
  0
LINE
  8
0
 62
4
 10
1.84999599E+01
 20
1.35242068E+02
 11
1.74999599E+01
 21
1.34723391E+02
  0
LINE
  8
0
 62
4
 10
1.74999599E+01
 20
1.33667835E+02
 11
1.74999599E+01
 21
1.34723391E+02
  0
POLYLINE
  8
0
 62
6
 66
1
  0
VERTEX
  8
0
 62
6
 10
1.69999599E+01
 20
1.34195613E+02
  0
VERTEX
  8
0
 62
6
 10
1.70056678E+01
 20
1.34076650E+02
  0
VERTEX
  8
0
 62
6
 10
1.70227482E+01
 20
1.33958593E+02
  0
VERTEX
  8
0
 62
6
 10
1.70510711E+01
 20
1.33842340E+02
  0
VERTEX
  8
0
 62
6
 10
1.70904209E+01
 20
1.33728775E+02
  0
VERTEX
  8
0
 62
6
 10
1.71404982E+01
 20
1.33618764E+02
  0
VERTEX
  8
0
 62
6
 10
1.72009218E+01
 20
1.33513142E+02
  0
VERTEX
  8
0
 62
6
 10
1.72712318E+01
 20
1.33412714E+02
  0
VERTEX
  8
0
 62
6
 10
1.73508932E+01
 20
1.33318245E+02
  0
VERTEX
  8
0
 62
6
 10
1.74392997E+01
 20
1.33230453E+02
  0
VERTEX
  8
0
 62
6
 10
1.75357785E+01
 20
1.33150007E+02
  0
VERTEX
  8
0
 62
6
 10
1.76395952E+01
 20
1.33077518E+02
  0
VERTEX
  8
0
 62
6
 10
1.77499599E+01
 20
1.33013539E+02
  0
VERTEX
  8
0
 62
6
 10
1.78660325E+01
 20
1.32958556E+02
  0
VERTEX
  8
0
 62
6
 10
1.79869297E+01
 20
1.32912987E+02
  0
VERTEX
  8
0
 62
6
 10
1.81117313E+01
 20
1.32877180E+02
  0
VERTEX
  8
0
 62
6
 10
1.82394876E+01
 20
1.32851408E+02
  0
VERTEX
  8
0
 62
6
 10
1.83692263E+01
 20
1.32835865E+02
  0
VERTEX
  8
0
 62
6
 10
1.84999599E+01
 20
1.32830671E+02
  0
VERTEX
  8
0
 62
6
 10
1.86306935E+01
 20
1.32835865E+02
  0
VERTEX
  8
0
 62
6
 10
1.87604322E+01
 20
1.32851408E+02
  0
VERTEX
  8
0
 62
6
 10
1.88881885E+01
 20
1.32877180E+02
  0
VERTEX
  8
0
 62
6
 10
1.90129901E+01
 20
1.32912987E+02
  0
VERTEX
  8
0
 62
6
 10
1.91338873E+01
 20
1.32958556E+02
  0
VERTEX
  8
0
 62
6
 10
1.92499599E+01
 20
1.33013539E+02
  0
VERTEX
  8
0
 62
6
 10
1.93603246E+01
 20
1.33077518E+02
  0
VERTEX
  8
0
 62
6
 10
1.94641413E+01
 20
1.33150007E+02
  0
VERTEX
  8
0
 62
6
 10
1.95606201E+01
 20
1.33230453E+02
  0
VERTEX
  8
0
 62
6
 10
1.96490266E+01
 20
1.33318245E+02
  0
VERTEX
  8
0
 62
6
 10
1.97286880E+01
 20
1.33412714E+02
  0
VERTEX
  8
0
 62
6
 10
1.97989980E+01
 20
1.33513142E+02
  0
VERTEX
  8
0
 62
6
 10
1.98594216E+01
 20
1.33618764E+02
  0
VERTEX
  8
0
 62
6
 10
1.99094988E+01
 20
1.33728775E+02
  0
VERTEX
  8
0
 62
6
 10
1.99488487E+01
 20
1.33842340E+02
  0
VERTEX
  8
0
 62
6
 10
1.99771715E+01
 20
1.33958593E+02
  0
VERTEX
  8
0
 62
6
 10
1.99942520E+01
 20
1.34076650E+02
  0
VERTEX
  8
0
 62
6
 10
1.99999599E+01
 20
1.34195613E+02
  0
VERTEX
  8
0
 62
6
 10
1.99942520E+01
 20
1.34314576E+02
  0
VERTEX
  8
0
 62
6
 10
1.99771715E+01
 20
1.34432633E+02
  0
VERTEX
  8
0
 62
6
 10
1.99488487E+01
 20
1.34548886E+02
  0
VERTEX
  8
0
 62
6
 10
1.99094989E+01
 20
1.34662451E+02
  0
VERTEX
  8
0
 62
6
 10
1.98594216E+01
 20
1.34772462E+02
  0
VERTEX
  8
0
 62
6
 10
1.97989980E+01
 20
1.34878084E+02
  0
VERTEX
  8
0
 62
6
 10
1.97286880E+01
 20
1.34978512E+02
  0
VERTEX
  8
0
 62
6
 10
1.96490266E+01
 20
1.35072981E+02
  0
VERTEX
  8
0
 62
6
 10
1.95606201E+01
 20
1.35160773E+02
  0
VERTEX
  8
0
 62
6
 10
1.94641413E+01
 20
1.35241219E+02
  0
VERTEX
  8
0
 62
6
 10
1.93603246E+01
 20
1.35313708E+02
  0
VERTEX
  8
0
 62
6
 10
1.92499599E+01
 20
1.35377687E+02
  0
VERTEX
  8
0
 62
6
 10
1.91338873E+01
 20
1.35432670E+02
  0
VERTEX
  8
0
 62
6
 10
1.90129901E+01
 20
1.35478239E+02
  0
VERTEX
  8
0
 62
6
 10
1.88881885E+01
 20
1.35514046E+02
  0
VERTEX
  8
0
 62
6
 10
1.87604322E+01
 20
1.35539818E+02
  0
VERTEX
  8
0
 62
6
 10
1.86306935E+01
 20
1.35555361E+02
  0
VERTEX
  8
0
 62
6
 10
1.84999599E+01
 20
1.35560555E+02
  0
VERTEX
  8
0
 62
6
 10
1.83692263E+01
 20
1.35555361E+02
  0
VERTEX
  8
0
 62
6
 10
1.82394876E+01
 20
1.35539818E+02
  0
VERTEX
  8
0
 62
6
 10
1.81117313E+01
 20
1.35514046E+02
  0
VERTEX
  8
0
 62
6
 10
1.79869297E+01
 20
1.35478239E+02
  0
VERTEX
  8
0
 62
6
 10
1.78660325E+01
 20
1.35432670E+02
  0
VERTEX
  8
0
 62
6
 10
1.77499599E+01
 20
1.35377687E+02
  0
VERTEX
  8
0
 62
6
 10
1.76395952E+01
 20
1.35313708E+02
  0
VERTEX
  8
0
 62
6
 10
1.75357785E+01
 20
1.35241219E+02
  0
VERTEX
  8
0
 62
6
 10
1.74392997E+01
 20
1.35160773E+02
  0
VERTEX
  8
0
 62
6
 10
1.73508932E+01
 20
1.35072981E+02
  0
VERTEX
  8
0
 62
6
 10
1.72712318E+01
 20
1.34978512E+02
  0
VERTEX
  8
0
 62
6
 10
1.72009218E+01
 20
1.34878084E+02
  0
VERTEX
  8
0
 62
6
 10
1.71404982E+01
 20
1.34772462E+02
  0
VERTEX
  8
0
 62
6
 10
1.70904210E+01
 20
1.34662451E+02
  0
VERTEX
  8
0
 62
6
 10
1.70510711E+01
 20
1.34548886E+02
  0
VERTEX
  8
0
 62
6
 10
1.70227483E+01
 20
1.34432633E+02
  0
VERTEX
  8
0
 62
6
 10
1.70056678E+01
 20
1.34314576E+02
  0
VERTEX
  8
0
 62
6
 10
1.69999599E+01
 20
1.34195613E+02
  0
SEQEND
  8
0
  0
LINE
  8
0
 62
4
 10
2.04999599E+01
 20
1.34195613E+02
 11
2.04999599E+01
 21
1.35830530E+02
  0
POLYLINE
  8
0
 62
4
 66
1
  0
VERTEX
  8
0
 62
4
 10
1.64999599E+01
 20
1.34195613E+02
  0
VERTEX
  8
0
 62
4
 10
1.65075705E+01
 20
1.34036996E+02
  0
VERTEX
  8
0
 62
4
 10
1.65303444E+01
 20
1.33879587E+02
  0
VERTEX
  8
0
 62
4
 10
1.65681082E+01
 20
1.33724582E+02
  0
VERTEX
  8
0
 62
4
 10
1.66205747E+01
 20
1.33573163E+02
  0
VERTEX
  8
0
 62
4
 10
1.66873443E+01
 20
1.33426481E+02
  0
VERTEX
  8
0
 62
4
 10
1.67679091E+01
 20
1.33285652E+02
  0
VERTEX
  8
0
 62
4
 10
1.68616558E+01
 20
1.33151748E+02
  0
VERTEX
  8
0
 62
4
 10
1.69678710E+01
 20
1.33025789E+02
  0
VERTEX
  8
0
 62
4
 10
1.70857463E+01
 20
1.32908733E+02
  0
VERTEX
  8
0
 62
4
 10
1.72143847E+01
 20
1.32801472E+02
  0
VERTEX
  8
0
 62
4
 10
1.73528070E+01
 20
1.32704820E+02
  0
VERTEX
  8
0
 62
4
 10
1.74999599E+01
 20
1.32619514E+02
  0
VERTEX
  8
0
 62
4
 10
1.76547234E+01
 20
1.32546203E+02
  0
VERTEX
  8
0
 62
4
 10
1.78159196E+01
 20
1.32485445E+02
  0
VERTEX
  8
0
 62
4
 10
1.79823218E+01
 20
1.32437703E+02
  0
VERTEX
  8
0
 62
4
 10
1.81526635E+01
 20
1.32403339E+02
  0
VERTEX
  8
0
 62
4
 10
1.83256484E+01
 20
1.32382616E+02
  0
VERTEX
  8
0
 62
4
 10
1.84999599E+01
 20
1.32375691E+02
  0
VERTEX
  8
0
 62
4
 10
1.86742714E+01
 20
1.32382616E+02
  0
VERTEX
  8
0
 62
4
 10
1.88472563E+01
 20
1.32403339E+02
  0
VERTEX
  8
0
 62
4
 10
1.90175980E+01
 20
1.32437703E+02
  0
VERTEX
  8
0
 62
4
 10
1.91840002E+01
 20
1.32485445E+02
  0
VERTEX
  8
0
 62
4
 10
1.93451964E+01
 20
1.32546203E+02
  0
VERTEX
  8
0
 62
4
 10
1.94999599E+01
 20
1.32619514E+02
  0
VERTEX
  8
0
 62
4
 10
1.96471128E+01
 20
1.32704820E+02
  0
VERTEX
  8
0
 62
4
 10
1.97855351E+01
 20
1.32801471E+02
  0
VERTEX
  8
0
 62
4
 10
1.99141735E+01
 20
1.32908733E+02
  0
VERTEX
  8
0
 62
4
 10
2.00320488E+01
 20
1.33025789E+02
  0
VERTEX
  8
0
 62
4
 10
2.01382640E+01
 20
1.33151748E+02
  0
VERTEX
  8
0
 62
4
 10
2.02320107E+01
 20
1.33285652E+02
  0
VERTEX
  8
0
 62
4
 10
2.03125755E+01
 20
1.33426481E+02
  0
VERTEX
  8
0
 62
4
 10
2.03793451E+01
 20
1.33573163E+02
  0
VERTEX
  8
0
 62
4
 10
2.04318116E+01
 20
1.33724582E+02
  0
VERTEX
  8
0
 62
4
 10
2.04695754E+01
 20
1.33879587E+02
  0
VERTEX
  8
0
 62
4
 10
2.04923493E+01
 20
1.34036996E+02
  0
VERTEX
  8
0
 62
4
 10
2.04999599E+01
 20
1.34195613E+02
  0
VERTEX
  8
0
 62
4
 10
2.04923493E+01
 20
1.34354230E+02
  0
VERTEX
  8
0
 62
4
 10
2.04695754E+01
 20
1.34511639E+02
  0
VERTEX
  8
0
 62
4
 10
2.04318116E+01
 20
1.34666644E+02
  0
VERTEX
  8
0
 62
4
 10
2.03793451E+01
 20
1.34818063E+02
  0
VERTEX
  8
0
 62
4
 10
2.03125755E+01
 20
1.34964745E+02
  0
VERTEX
  8
0
 62
4
 10
2.02320107E+01
 20
1.35105574E+02
  0
VERTEX
  8
0
 62
4
 10
2.01382640E+01
 20
1.35239478E+02
  0
VERTEX
  8
0
 62
4
 10
2.00320488E+01
 20
1.35365437E+02
  0
VERTEX
  8
0
 62
4
 10
1.99141735E+01
 20
1.35482493E+02
  0
VERTEX
  8
0
 62
4
 10
1.97855351E+01
 20
1.35589755E+02
  0
VERTEX
  8
0
 62
4
 10
1.96471128E+01
 20
1.35686406E+02
  0
VERTEX
  8
0
 62
4
 10
1.94999599E+01
 20
1.35771712E+02
  0
VERTEX
  8
0
 62
4
 10
1.93451964E+01
 20
1.35845023E+02
  0
VERTEX
  8
0
 62
4
 10
1.91840002E+01
 20
1.35905781E+02
  0
VERTEX
  8
0
 62
4
 10
1.90175980E+01
 20
1.35953523E+02
  0
VERTEX
  8
0
 62
4
 10
1.88472563E+01
 20
1.35987887E+02
  0
VERTEX
  8
0
 62
4
 10
1.86742714E+01
 20
1.36008610E+02
  0
VERTEX
  8
0
 62
4
 10
1.84999599E+01
 20
1.36015535E+02
  0
VERTEX
  8
0
 62
4
 10
1.83256484E+01
 20
1.36008610E+02
  0
VERTEX
  8
0
 62
4
 10
1.81526635E+01
 20
1.35987887E+02
  0
VERTEX
  8
0
 62
4
 10
1.79823218E+01
 20
1.35953523E+02
  0
VERTEX
  8
0
 62
4
 10
1.78159196E+01
 20
1.35905781E+02
  0
VERTEX
  8
0
 62
4
 10
1.76547234E+01
 20
1.35845023E+02
  0
VERTEX
  8
0
 62
4
 10
1.74999599E+01
 20
1.35771712E+02
  0
VERTEX
  8
0
 62
4
 10
1.73528070E+01
 20
1.35686406E+02
  0
VERTEX
  8
0
 62
4
 10
1.72143847E+01
 20
1.35589755E+02
  0
VERTEX
  8
0
 62
4
 10
1.70857463E+01
 20
1.35482493E+02
  0
VERTEX
  8
0
 62
4
 10
1.69678710E+01
 20
1.35365437E+02
  0
VERTEX
  8
0
 62
4
 10
1.68616558E+01
 20
1.35239478E+02
  0
VERTEX
  8
0
 62
4
 10
1.67679091E+01
 20
1.35105574E+02
  0
VERTEX
  8
0
 62
4
 10
1.66873443E+01
 20
1.34964745E+02
  0
VERTEX
  8
0
 62
4
 10
1.66205747E+01
 20
1.34818063E+02
  0
VERTEX
  8
0
 62
4
 10
1.65681082E+01
 20
1.34666644E+02
  0
VERTEX
  8
0
 62
4
 10
1.65303444E+01
 20
1.34511639E+02
  0
VERTEX
  8
0
 62
4
 10
1.65075705E+01
 20
1.34354230E+02
  0
VERTEX
  8
0
 62
4
 10
1.64999599E+01
 20
1.34195613E+02
  0
SEQEND
  8
0
  0
LINE
  8
0
 62
4
 10
1.64999599E+01
 20
1.34195613E+02
 11
1.64999599E+01
 21
1.35830530E+02
  0
POLYLINE
  8
0
 62
4
 66
1
  0
VERTEX
  8
0
 62
4
 10
2.04999599E+01
 20
1.35830530E+02
  0
VERTEX
  8
0
 62
4
 10
2.04919085E+01
 20
1.35993667E+02
  0
VERTEX
  8
0
 62
4
 10
2.04678191E+01
 20
1.36155490E+02
  0
VERTEX
  8
0
 62
4
 10
2.04278856E+01
 20
1.36314696E+02
  0
VERTEX
  8
0
 62
4
 10
2.03724296E+01
 20
1.36470005E+02
  0
VERTEX
  8
0
 62
4
 10
2.03018976E+01
 20
1.36620165E+02
  0
VERTEX
  8
0
 62
4
 10
2.02168575E+01
 20
1.36763967E+02
  0
VERTEX
  8
0
 62
4
 10
2.01179939E+01
 20
1.36900254E+02
  0
VERTEX
  8
0
 62
4
 10
2.00061028E+01
 20
1.37027927E+02
  0
VERTEX
  8
0
 62
4
 10
1.98820852E+01
 20
1.37145961E+02
  0
VERTEX
  8
0
 62
4
 10
1.97469395E+01
 20
1.37253403E+02
  0
VERTEX
  8
0
 62
4
 10
1.96017539E+01
 20
1.37349389E+02
  0
VERTEX
  8
0
 62
4
 10
1.94476972E+01
 20
1.37433146E+02
  0
VERTEX
  8
0
 62
4
 10
1.92860100E+01
 20
1.37503999E+02
  0
VERTEX
  8
0
 62
4
 10
1.91179939E+01
 20
1.37561379E+02
  0
VERTEX
  8
0
 62
4
 10
1.89450018E+01
 20
1.37604823E+02
  0
VERTEX
  8
0
 62
4
 10
1.87684264E+01
 20
1.37633982E+02
  0
VERTEX
  8
0
 62
4
 10
1.85896896E+01
 20
1.37648620E+02
  0
VERTEX
  8
0
 62
4
 10
1.84102303E+01
 20
1.37648620E+02
  0
VERTEX
  8
0
 62
4
 10
1.82314934E+01
 20
1.37633982E+02
  0
VERTEX
  8
0
 62
4
 10
1.80549180E+01
 20
1.37604823E+02
  0
VERTEX
  8
0
 62
4
 10
1.78819259E+01
 20
1.37561379E+02
  0
VERTEX
  8
0
 62
4
 10
1.77139099E+01
 20
1.37503999E+02
  0
VERTEX
  8
0
 62
4
 10
1.75522226E+01
 20
1.37433146E+02
  0
VERTEX
  8
0
 62
4
 10
1.73981660E+01
 20
1.37349389E+02
  0
VERTEX
  8
0
 62
4
 10
1.72529803E+01
 20
1.37253403E+02
  0
VERTEX
  8
0
 62
4
 10
1.71178346E+01
 20
1.37145961E+02
  0
VERTEX
  8
0
 62
4
 10
1.69938170E+01
 20
1.37027927E+02
  0
VERTEX
  8
0
 62
4
 10
1.68819259E+01
 20
1.36900254E+02
  0
VERTEX
  8
0
 62
4
 10
1.67830623E+01
 20
1.36763967E+02
  0
VERTEX
  8
0
 62
4
 10
1.66980222E+01
 20
1.36620165E+02
  0
VERTEX
  8
0
 62
4
 10
1.66274902E+01
 20
1.36470005E+02
  0
VERTEX
  8
0
 62
4
 10
1.65720342E+01
 20
1.36314696E+02
  0
VERTEX
  8
0
 62
4
 10
1.65321007E+01
 20
1.36155490E+02
  0
VERTEX
  8
0
 62
4
 10
1.65080113E+01
 20
1.35993667E+02
  0
VERTEX
  8
0
 62
4
 10
1.64999599E+01
 20
1.35830530E+02
  0
SEQEND
  8
0
  0
LINE
  8
0
 62
4
 10
-4.40000591E+01
 20
1.54069725E+02
 11
-4.40907922E+01
 21
1.54000015E+02
  0
LINE
  8
0
 62
4
 10
-4.40000591E+01
 20
1.54069725E+02
 11
-3.18862318E+01
 21
1.54069725E+02
  0
LINE
  8
0
 62
4
 10
-4.40000591E+01
 20
1.54069725E+02
 11
-4.40000591E+01
 21
1.54000015E+02
  0
POLYLINE
  8
0
 62
4
 66
1
  0
VERTEX
  8
0
 62
4
 10
-2.37640274E+01
 20
1.63002396E+02
  0
VERTEX
  8
0
 62
4
 10
-2.40230296E+01
 20
1.62810967E+02
  0
VERTEX
  8
0
 62
4
 10
-2.42625788E+01
 20
1.62599601E+02
  0
VERTEX
  8
0
 62
4
 10
-2.44808279E+01
 20
1.62369927E+02
  0
VERTEX
  8
0
 62
4
 10
-2.46760942E+01
 20
1.62123718E+02
  0
VERTEX
  8
0
 62
4
 10
-2.48468720E+01
 20
1.61862870E+02
  0
VERTEX
  8
0
 62
4
 10
-2.49918446E+01
 20
1.61589395E+02
  0
VERTEX
  8
0
 62
4
 10
-2.51098942E+01
 20
1.61305403E+02
  0
VERTEX
  8
0
 62
4
 10
-2.52001106E+01
 20
1.61013081E+02
  0
VERTEX
  8
0
 62
4
 10
-2.52617982E+01
 20
1.60714685E+02
  0
VERTEX
  8
0
 62
4
 10
-2.52944814E+01
 20
1.60412516E+02
  0
VERTEX
  8
0
 62
4
 10
-2.52979081E+01
 20
1.60108902E+02
  0
VERTEX
  8
0
 62
4
 10
-2.52720519E+01
 20
1.59806185E+02
  0
VERTEX
  8
0
 62
4
 10
-2.52171123E+01
 20
1.59506699E+02
  0
VERTEX
  8
0
 62
4
 10
-2.51335128E+01
 20
1.59212753E+02
  0
VERTEX
  8
0
 62
4
 10
-2.50218979E+01
 20
1.58926614E+02
  0
VERTEX
  8
0
 62
4
 10
-2.48831283E+01
 20
1.58650488E+02
  0
VERTEX
  8
0
 62
4
 10
-2.47182740E+01
 20
1.58386504E+02
  0
VERTEX
  8
0
 62
4
 10
-2.45286060E+01
 20
1.58136697E+02
  0
VERTEX
  8
0
 62
4
 10
-2.43155868E+01
 20
1.57902993E+02
  0
VERTEX
  8
0
 62
4
 10
-2.40808587E+01
 20
1.57687195E+02
  0
VERTEX
  8
0
 62
4
 10
-2.38262318E+01
 20
1.57490966E+02
  0
VERTEX
  8
0
 62
4
 10
-2.35536691E+01
 20
1.57315819E+02
  0
VERTEX
  8
0
 62
4
 10
-2.32652723E+01
 20
1.57163105E+02
  0
VERTEX
  8
0
 62
4
 10
-2.29632651E+01
 20
1.57034001E+02
  0
VERTEX
  8
0
 62
4
 10
-2.26499760E+01
 20
1.56929502E+02
  0
VERTEX
  8
0
 62
4
 10
-2.23278205E+01
 20
1.56850415E+02
  0
VERTEX
  8
0
 62
4
 10
-2.19992828E+01
 20
1.56797349E+02
  0
VERTEX
  8
0
 62
4
 10
-2.16668958E+01
 20
1.56770713E+02
  0
VERTEX
  8
0
 62
4
 10
-2.13332225E+01
 20
1.56770713E+02
  0
VERTEX
  8
0
 62
4
 10
-2.10008355E+01
 20
1.56797349E+02
  0
VERTEX
  8
0
 62
4
 10
-2.06722977E+01
 20
1.56850415E+02
  0
VERTEX
  8
0
 62
4
 10
-2.03501423E+01
 20
1.56929502E+02
  0
VERTEX
  8
0
 62
4
 10
-2.00368532E+01
 20
1.57034000E+02
  0
VERTEX
  8
0
 62
4
 10
-1.97348459E+01
 20
1.57163104E+02
  0
VERTEX
  8
0
 62
4
 10
-1.94464492E+01
 20
1.57315819E+02
  0
VERTEX
  8
0
 62
4
 10
-1.91738865E+01
 20
1.57490966E+02
  0
VERTEX
  8
0
 62
4
 10
-1.89192595E+01
 20
1.57687195E+02
  0
VERTEX
  8
0
 62
4
 10
-1.86845315E+01
 20
1.57902993E+02
  0
VERTEX
  8
0
 62
4
 10
-1.84715122E+01
 20
1.58136697E+02
  0
VERTEX
  8
0
 62
4
 10
-1.82818442E+01
 20
1.58386504E+02
  0
VERTEX
  8
0
 62
4
 10
-1.81169899E+01
 20
1.58650488E+02
  0
VERTEX
  8
0
 62
4
 10
-1.79782203E+01
 20
1.58926614E+02
  0
VERTEX
  8
0
 62
4
 10
-1.78666055E+01
 20
1.59212753E+02
  0
VERTEX
  8
0
 62
4
 10
-1.77830059E+01
 20
1.59506699E+02
  0
VERTEX
  8
0
 62
4
 10
-1.77280663E+01
 20
1.59806185E+02
  0
VERTEX
  8
0
 62
4
 10
-1.77022101E+01
 20
1.60108902E+02
  0
VERTEX
  8
0
 62
4
 10
-1.77056368E+01
 20
1.60412516E+02
  0
VERTEX
  8
0
 62
4
 10
-1.77383200E+01
 20
1.60714685E+02
  0
VERTEX
  8
0
 62
4
 10
-1.78000076E+01
 20
1.61013081E+02
  0
VERTEX
  8
0
 62
4
 10
-1.78902240E+01
 20
1.61305403E+02
  0
VERTEX
  8
0
 62
4
 10
-1.80082736E+01
 20
1.61589395E+02
  0
VERTEX
  8
0
 62
4
 10
-1.81532462E+01
 20
1.61862870E+02
  0
VERTEX
  8
0
 62
4
 10
-1.83240240E+01
 20
1.62123718E+02
  0
VERTEX
  8
0
 62
4
 10
-1.85192902E+01
 20
1.62369927E+02
  0
VERTEX
  8
0
 62
4
 10
-1.87375394E+01
 20
1.62599601E+02
  0
VERTEX
  8
0
 62
4
 10
-1.89770885E+01
 20
1.62810967E+02
  0
VERTEX
  8
0
 62
4
 10
-1.92360908E+01
 20
1.63002396E+02
  0
SEQEND
  8
0
  0
POLYLINE
  8
0
 62
4
 66
1
  0
VERTEX
  8
0
 62
4
 10
-2.49000591E+01
 20
1.60225232E+02
  0
VERTEX
  8
0
 62
4
 10
-2.48863717E+01
 20
1.59947900E+02
  0
VERTEX
  8
0
 62
4
 10
-2.48454197E+01
 20
1.59672800E+02
  0
VERTEX
  8
0
 62
4
 10
-2.47775329E+01
 20
1.59402149E+02
  0
VERTEX
  8
0
 62
4
 10
-2.46832577E+01
 20
1.59138125E+02
  0
VERTEX
  8
0
 62
4
 10
-2.45633533E+01
 20
1.58882853E+02
  0
VERTEX
  8
0
 62
4
 10
-2.44187850E+01
 20
1.58638389E+02
  0
VERTEX
  8
0
 62
4
 10
-2.42507169E+01
 20
1.58406702E+02
  0
VERTEX
  8
0
 62
4
 10
-2.40605021E+01
 20
1.58189656E+02
  0
VERTEX
  8
0
 62
4
 10
-2.38496721E+01
 20
1.57989000E+02
  0
VERTEX
  8
0
 62
4
 10
-2.36199245E+01
 20
1.57806348E+02
  0
VERTEX
  8
0
 62
4
 10
-2.33731089E+01
 20
1.57643172E+02
  0
VERTEX
  8
0
 62
4
 10
-2.31112126E+01
 20
1.57500785E+02
  0
VERTEX
  8
0
 62
4
 10
-2.28363442E+01
 20
1.57380334E+02
  0
VERTEX
  8
0
 62
4
 10
-2.25507169E+01
 20
1.57282788E+02
  0
VERTEX
  8
0
 62
4
 10
-2.22566303E+01
 20
1.57208933E+02
  0
VERTEX
  8
0
 62
4
 10
-2.19564522E+01
 20
1.57159364E+02
  0
VERTEX
  8
0
 62
4
 10
-2.16525995E+01
 20
1.57134479E+02
  0
VERTEX
  8
0
 62
4
 10
-2.13475187E+01
 20
1.57134479E+02
  0
VERTEX
  8
0
 62
4
 10
-2.10436660E+01
 20
1.57159364E+02
  0
VERTEX
  8
0
 62
4
 10
-2.07434879E+01
 20
1.57208933E+02
  0
VERTEX
  8
0
 62
4
 10
-2.04494013E+01
 20
1.57282788E+02
  0
VERTEX
  8
0
 62
4
 10
-2.01637740E+01
 20
1.57380334E+02
  0
VERTEX
  8
0
 62
4
 10
-1.98889057E+01
 20
1.57500785E+02
  0
VERTEX
  8
0
 62
4
 10
-1.96270094E+01
 20
1.57643172E+02
  0
VERTEX
  8
0
 62
4
 10
-1.93801938E+01
 20
1.57806348E+02
  0
VERTEX
  8
0
 62
4
 10
-1.91504461E+01
 20
1.57989000E+02
  0
VERTEX
  8
0
 62
4
 10
-1.89396161E+01
 20
1.58189656E+02
  0
VERTEX
  8
0
 62
4
 10
-1.87494013E+01
 20
1.58406702E+02
  0
VERTEX
  8
0
 62
4
 10
-1.85813332E+01
 20
1.58638389E+02
  0
VERTEX
  8
0
 62
4
 10
-1.84367649E+01
 20
1.58882853E+02
  0
VERTEX
  8
0
 62
4
 10
-1.83168605E+01
 20
1.59138125E+02
  0
VERTEX
  8
0
 62
4
 10
-1.82225854E+01
 20
1.59402149E+02
  0
VERTEX
  8
0
 62
4
 10
-1.81546985E+01
 20
1.59672800E+02
  0
VERTEX
  8
0
 62
4
 10
-1.81137465E+01
 20
1.59947900E+02
  0
VERTEX
  8
0
 62
4
 10
-1.81000591E+01
 20
1.60225232E+02
  0
SEQEND
  8
0
  0
POLYLINE
  8
0
 62
4
 66
1
  0
VERTEX
  8
0
 62
4
 10
-2.49000591E+01
 20
1.60694169E+02
  0
VERTEX
  8
0
 62
4
 10
-2.48871211E+01
 20
1.60424521E+02
  0
VERTEX
  8
0
 62
4
 10
-2.48484055E+01
 20
1.60156924E+02
  0
VERTEX
  8
0
 62
4
 10
-2.47842069E+01
 20
1.59893417E+02
  0
VERTEX
  8
0
 62
4
 10
-2.46950140E+01
 20
1.59636004E+02
  0
VERTEX
  8
0
 62
4
 10
-2.45815056E+01
 20
1.59386644E+02
  0
VERTEX
  8
0
 62
4
 10
-2.44445455E+01
 20
1.59147235E+02
  0
VERTEX
  8
0
 62
4
 10
-2.42851761E+01
 20
1.58919599E+02
  0
VERTEX
  8
0
 62
4
 10
-2.41046102E+01
 20
1.58705469E+02
  0
VERTEX
  8
0
 62
4
 10
-2.39042222E+01
 20
1.58506474E+02
  0
VERTEX
  8
0
 62
4
 10
-2.36855370E+01
 20
1.58324128E+02
  0
VERTEX
  8
0
 62
4
 10
-2.34502190E+01
 20
1.58159820E+02
  0
VERTEX
  8
0
 62
4
 10
-2.32000591E+01
 20
1.58014800E+02
  0
VERTEX
  8
0
 62
4
 10
-2.29369612E+01
 20
1.57890172E+02
  0
VERTEX
  8
0
 62
4
 10
-2.26629276E+01
 20
1.57786884E+02
  0
VERTEX
  8
0
 62
4
 10
-2.23800439E+01
 20
1.57705722E+02
  0
VERTEX
  8
0
 62
4
 10
-2.20904629E+01
 20
1.57647303E+02
  0
VERTEX
  8
0
 62
4
 10
-2.17963886E+01
 20
1.57612074E+02
  0
VERTEX
  8
0
 62
4
 10
-2.15000591E+01
 20
1.57600301E+02
  0
VERTEX
  8
0
 62
4
 10
-2.12037296E+01
 20
1.57612074E+02
  0
VERTEX
  8
0
 62
4
 10
-2.09096553E+01
 20
1.57647303E+02
  0
VERTEX
  8
0
 62
4
 10
-2.06200743E+01
 20
1.57705722E+02
  0
VERTEX
  8
0
 62
4
 10
-2.03371906E+01
 20
1.57786884E+02
  0
VERTEX
  8
0
 62
4
 10
-2.00631570E+01
 20
1.57890172E+02
  0
VERTEX
  8
0
 62
4
 10
-1.98000591E+01
 20
1.58014800E+02
  0
VERTEX
  8
0
 62
4
 10
-1.95498992E+01
 20
1.58159820E+02
  0
VERTEX
  8
0
 62
4
 10
-1.93145812E+01
 20
1.58324128E+02
  0
VERTEX
  8
0
 62
4
 10
-1.90958960E+01
 20
1.58506474E+02
  0
VERTEX
  8
0
 62
4
 10
-1.88955080E+01
 20
1.58705469E+02
  0
VERTEX
  8
0
 62
4
 10
-1.87149421E+01
 20
1.58919599E+02
  0
VERTEX
  8
0
 62
4
 10
-1.85555727E+01
 20
1.59147235E+02
  0
VERTEX
  8
0
 62
4
 10
-1.84186126E+01
 20
1.59386644E+02
  0
VERTEX
  8
0
 62
4
 10
-1.83051042E+01
 20
1.59636004E+02
  0
VERTEX
  8
0
 62
4
 10
-1.82159113E+01
 20
1.59893417E+02
  0
VERTEX
  8
0
 62
4
 10
-1.81517127E+01
 20
1.60156924E+02
  0
VERTEX
  8
0
 62
4
 10
-1.81129971E+01
 20
1.60424521E+02
  0
VERTEX
  8
0
 62
4
 10
-1.81000591E+01
 20
1.60694169E+02
  0
VERTEX
  8
0
 62
4
 10
-1.81129971E+01
 20
1.60963817E+02
  0
VERTEX
  8
0
 62
4
 10
-1.81517127E+01
 20
1.61231414E+02
  0
VERTEX
  8
0
 62
4
 10
-1.82159113E+01
 20
1.61494921E+02
  0
VERTEX
  8
0
 62
4
 10
-1.83051042E+01
 20
1.61752334E+02
  0
VERTEX
  8
0
 62
4
 10
-1.84186126E+01
 20
1.62001694E+02
  0
VERTEX
  8
0
 62
4
 10
-1.85555727E+01
 20
1.62241103E+02
  0
VERTEX
  8
0
 62
4
 10
-1.87149421E+01
 20
1.62468739E+02
  0
VERTEX
  8
0
 62
4
 10
-1.88955080E+01
 20
1.62682869E+02
  0
VERTEX
  8
0
 62
4
 10
-1.90958960E+01
 20
1.62881864E+02
  0
VERTEX
  8
0
 62
4
 10
-1.93145812E+01
 20
1.63064210E+02
  0
VERTEX
  8
0
 62
4
 10
-1.95498992E+01
 20
1.63228518E+02
  0
VERTEX
  8
0
 62
4
 10
-1.98000591E+01
 20
1.63373538E+02
  0
VERTEX
  8
0
 62
4
 10
-2.00631570E+01
 20
1.63498166E+02
  0
VERTEX
  8
0
 62
4
 10
-2.03371906E+01
 20
1.63601454E+02
  0
VERTEX
  8
0
 62
4
 10
-2.06200743E+01
 20
1.63682616E+02
  0
VERTEX
  8
0
 62
4
 10
-2.09096553E+01
 20
1.63741035E+02
  0
VERTEX
  8
0
 62
4
 10
-2.12037296E+01
 20
1.63776264E+02
  0
VERTEX
  8
0
 62
4
 10
-2.15000591E+01
 20
1.63788037E+02
  0
VERTEX
  8
0
 62
4
 10
-2.17963886E+01
 20
1.63776264E+02
  0
VERTEX
  8
0
 62
4
 10
-2.20904629E+01
 20
1.63741035E+02
  0
VERTEX
  8
0
 62
4
 10
-2.23800439E+01
 20
1.63682616E+02
  0
VERTEX
  8
0
 62
4
 10
-2.26629276E+01
 20
1.63601454E+02
  0
VERTEX
  8
0
 62
4
 10
-2.29369612E+01
 20
1.63498166E+02
  0
VERTEX
  8
0
 62
4
 10
-2.32000591E+01
 20
1.63373538E+02
  0
VERTEX
  8
0
 62
4
 10
-2.34502190E+01
 20
1.63228518E+02
  0
VERTEX
  8
0
 62
4
 10
-2.36855370E+01
 20
1.63064210E+02
  0
VERTEX
  8
0
 62
4
 10
-2.39042222E+01
 20
1.62881864E+02
  0
VERTEX
  8
0
 62
4
 10
-2.41046102E+01
 20
1.62682869E+02
  0
VERTEX
  8
0
 62
4
 10
-2.42851761E+01
 20
1.62468739E+02
  0
VERTEX
  8
0
 62
4
 10
-2.44445455E+01
 20
1.62241103E+02
  0
VERTEX
  8
0
 62
4
 10
-2.45815056E+01
 20
1.62001694E+02
  0
VERTEX
  8
0
 62
4
 10
-2.46950140E+01
 20
1.61752334E+02
  0
VERTEX
  8
0
 62
4
 10
-2.47842069E+01
 20
1.61494921E+02
  0
VERTEX
  8
0
 62
4
 10
-2.48484055E+01
 20
1.61231414E+02
  0
VERTEX
  8
0
 62
4
 10
-2.48871211E+01
 20
1.60963817E+02
  0
VERTEX
  8
0
 62
4
 10
-2.49000591E+01
 20
1.60694169E+02
  0
SEQEND
  8
0
  0
POLYLINE
  8
0
 62
4
 66
1
  0
VERTEX
  8
0
 62
4
 10
-2.49622651E+01
 20
1.58385315E+02
  0
VERTEX
  8
0
 62
4
 10
-2.48118921E+01
 20
1.58115039E+02
  0
VERTEX
  8
0
 62
4
 10
-2.46360995E+01
 20
1.57857776E+02
  0
VERTEX
  8
0
 62
4
 10
-2.44362366E+01
 20
1.57615502E+02
  0
VERTEX
  8
0
 62
4
 10
-2.42138373E+01
 20
1.57390075E+02
  0
VERTEX
  8
0
 62
4
 10
-2.39706088E+01
 20
1.57183226E+02
  0
VERTEX
  8
0
 62
4
 10
-2.37084178E+01
 20
1.56996543E+02
  0
VERTEX
  8
0
 62
4
 10
-2.34292768E+01
 20
1.56831459E+02
  0
VERTEX
  8
0
 62
4
 10
-2.31353283E+01
 20
1.56689240E+02
  0
VERTEX
  8
0
 62
4
 10
-2.28288284E+01
 20
1.56570978E+02
  0
VERTEX
  8
0
 62
4
 10
-2.25121298E+01
 20
1.56477581E+02
  0
VERTEX
  8
0
 62
4
 10
-2.21876631E+01
 20
1.56409766E+02
  0
VERTEX
  8
0
 62
4
 10
-2.18579187E+01
 20
1.56368054E+02
  0
VERTEX
  8
0
 62
4
 10
-2.15254277E+01
 20
1.56352763E+02
  0
VERTEX
  8
0
 62
4
 10
-2.11927419E+01
 20
1.56364013E+02
  0
VERTEX
  8
0
 62
4
 10
-2.08624149E+01
 20
1.56401716E+02
  0
VERTEX
  8
0
 62
4
 10
-2.05369821E+01
 20
1.56465582E+02
  0
VERTEX
  8
0
 62
4
 10
-2.02189413E+01
 20
1.56555123E+02
  0
VERTEX
  8
0
 62
4
 10
-1.99107336E+01
 20
1.56669651E+02
  0
VERTEX
  8
0
 62
4
 10
-1.96147245E+01
 20
1.56808285E+02
  0
VERTEX
  8
0
 62
4
 10
-1.93331862E+01
 20
1.56969964E+02
  0
VERTEX
  8
0
 62
4
 10
-1.90682794E+01
 20
1.57153445E+02
  0
VERTEX
  8
0
 62
4
 10
-1.88220375E+01
 20
1.57357320E+02
  0
VERTEX
  8
0
 62
4
 10
-1.85963504E+01
 20
1.57580024E+02
  0
VERTEX
  8
0
 62
4
 10
-1.83929505E+01
 20
1.57819849E+02
  0
VERTEX
  8
0
 62
4
 10
-1.82133988E+01
 20
1.58074953E+02
  0
VERTEX
  8
0
 62
4
 10
-1.80590735E+01
 20
1.58343378E+02
  0
VERTEX
  8
0
 62
4
 10
-1.79311592E+01
 20
1.58623064E+02
  0
VERTEX
  8
0
 62
4
 10
-1.78306375E+01
 20
1.58911865E+02
  0
VERTEX
  8
0
 62
4
 10
-1.77582801E+01
 20
1.59207563E+02
  0
VERTEX
  8
0
 62
4
 10
-1.77146423E+01
 20
1.59507890E+02
  0
VERTEX
  8
0
 62
4
 10
-1.77000591E+01
 20
1.59810539E+02
  0
SEQEND
  8
0
  0
ARC
  8
0
 62
4
 10
-6.85809014E+01
 20
1.09426173E+02
 40
6.99948777E+01
 50
4.57421700E+01
 51
4.96558689E+01
  0
ARC
  8
0
 62
4
 10
2.55807831E+01
 20
1.09426173E+02
 40
6.99948777E+01
 50
1.30344131E+02
 51
1.34257830E+02
  0
LINE
  8
0
 62
4
 10
-1.81000591E+01
 20
1.60225232E+02
 11
-1.81000591E+01
 21
1.60694169E+02
  0
LINE
  8
0
 62
4
 10
-1.77000592E+01
 20
1.59810539E+02
 11
-1.77000592E+01
 21
1.60225232E+02
  0
LINE
  8
0
 62
4
 10
-2.49000592E+01
 20
1.60225232E+02
 11
-2.49000592E+01
 21
1.60694169E+02
  0
LINE
  8
0
 62
4
 10
-2.53000592E+01
 20
1.59810539E+02
 11
-2.53000592E+01
 21
1.60225232E+02
  0
POLYLINE
  8
0
 62
4
 66
1
  0
VERTEX
  8
0
 62
4
 10
-2.53000591E+01
 20
1.59810539E+02
  0
VERTEX
  8
0
 62
4
 10
-2.52940704E+01
 20
1.59616483E+02
  0
VERTEX
  8
0
 62
4
 10
-2.52761230E+01
 20
1.59423039E+02
  0
VERTEX
  8
0
 62
4
 10
-2.52462735E+01
 20
1.59230816E+02
  0
VERTEX
  8
0
 62
4
 10
-2.52046161E+01
 20
1.59040421E+02
  0
SEQEND
  8
0
  0
ARC
  8
0
 62
4
 10
-6.67817494E+01
 20
1.16254885E+02
 40
5.61787639E+01
 50
4.52517517E+01
 51
5.01291401E+01
  0
ARC
  8
0
 62
4
 10
8.78169544E+00
 20
1.16254814E+02
 40
5.61788594E+01
 50
1.29870864E+02
 51
1.34748244E+02
  0
LINE
  8
0
 62
4
 10
-2.48500591E+01
 20
1.56783258E+02
 11
-2.48500591E+01
 21
1.57513118E+02
  0
POLYLINE
  8
0
 62
4
 66
1
  0
VERTEX
  8
0
 62
4
 10
-3.31500591E+01
 20
1.56783258E+02
  0
VERTEX
  8
0
 62
4
 10
-3.31324810E+01
 20
1.56436052E+02
  0
VERTEX
  8
0
 62
4
 10
-3.30798958E+01
 20
1.56091788E+02
  0
VERTEX
  8
0
 62
4
 10
-3.29927488E+01
 20
1.55753381E+02
  0
VERTEX
  8
0
 62
4
 10
-3.28717783E+01
 20
1.55423698E+02
  0
VERTEX
  8
0
 62
4
 10
-3.27180091E+01
 20
1.55105533E+02
  0
VERTEX
  8
0
 62
4
 10
-3.25327439E+01
 20
1.54801581E+02
  0
VERTEX
  8
0
 62
4
 10
-3.23175520E+01
 20
1.54514416E+02
  0
VERTEX
  8
0
 62
4
 10
-3.20742565E+01
 20
1.54246471E+02
  0
VERTEX
  8
0
 62
4
 10
-3.18049184E+01
 20
1.54000016E+02
  0
SEQEND
  8
0
  0
LINE
  8
0
 62
4
 10
-3.31500591E+01
 20
1.56783258E+02
 11
-3.31500591E+01
 21
1.57513118E+02
  0
LINE
  8
0
 62
4
 10
-4.40000591E+01
 20
1.54441767E+02
 11
-3.22560176E+01
 21
1.54441767E+02
  0
LINE
  8
0
 62
4
 10
-2.57441007E+01
 20
1.54441767E+02
 11
-1.40000591E+01
 21
1.54441767E+02
  0
LINE
  8
0
 62
4
 10
-2.61138864E+01
 20
1.54069725E+02
 11
-2.05000591E+01
 21
1.54069725E+02
  0
LINE
  8
0
 62
4
 10
4.49999599E+01
 20
1.54069725E+02
 11
4.64999599E+01
 21
1.52917276E+02
  0
LINE
  8
0
 62
4
 10
4.64999599E+01
 20
1.50856214E+02
 11
4.49999599E+01
 21
1.50429880E+02
  0
LINE
  8
0
 62
4
 10
4.64999599E+01
 20
1.49916934E+02
 11
4.49999599E+01
 21
1.48771107E+02
  0
LINE
  8
0
 62
4
 10
4.64999599E+01
 20
1.52917276E+02
 11
4.64999599E+01
 21
1.49916934E+02
  0
LINE
  8
0
 62
7
 10
4.50906930E+01
 20
1.54000015E+02
 11
5.29999608E+01
 21
1.54000015E+02
  0
LINE
  8
0
 62
7
 10
1.49999599E+01
 20
1.47000031E+02
 11
-5.80000591E+01
 21
1.47000031E+02
  0
LINE
  8
0
 62
7
 10
1.49999599E+01
 20
1.38000015E+02
 11
-5.80000591E+01
 21
1.38000015E+02
  0
LINE
  8
0
  6
CENTER
 62
2
 10
-4.18464094E+02
 20
1.14500015E+02
 11
-4.15000044E+02
 21
1.14500015E+02
  0
LINE
  8
0
 62
7
 10
-4.15400038E+02
 20
1.18250015E+02
 11
-4.15000044E+02
 21
1.18250015E+02
  0
LINE
  8
0
 62
7
 10
-4.15400099E+02
 20
1.10750015E+02
 11
-4.15000044E+02
 21
1.10750015E+02
  0
LINE
  8
0
 62
7
 10
-4.17599989E+02
 20
1.12899979E+02
 11
-4.17599989E+02
 21
1.16099998E+02
  0
LINE
  8
0
  6
CENTER
 62
2
 10
-2.97701307E+02
 20
1.00500000E+02
 11
-4.20531050E+02
 21
1.00500000E+02
  0
LINE
  8
0
 62
7
 10
-3.08000074E+02
 20
4.44999924E+01
 11
-4.10000044E+02
 21
4.44999924E+01
  0
LINE
  8
0
 62
7
 10
-4.15000044E+02
 20
4.94999924E+01
 11
-4.15000044E+02
 21
1.51499985E+02
  0
LINE
  8
0
  6
CENTER
 62
2
 10
-4.15555464E+02
 20
1.42500000E+02
 11
-3.86309065E+02
 21
1.42500000E+02
  0
LINE
  8
0
  6
CENTER
 62
2
 10
-4.15555464E+02
 20
5.85000305E+01
 11
-3.87134871E+02
 21
5.85000305E+01
  0
LINE
  8
0
  6
CENTER
 62
2
 10
-4.01000105E+02
 20
4.37628784E+01
 11
-4.01000105E+02
 21
7.39070435E+01
  0
LINE
  8
0
  6
CENTER
 62
2
 10
-4.01000105E+02
 20
1.56685349E+02
 11
-4.01000105E+02
 21
1.27961624E+02
  0
LINE
  8
0
 62
7
 10
-4.10000044E+02
 20
1.56499985E+02
 11
-3.08000074E+02
 21
1.56499985E+02
  0
LINE
  8
0
  6
CENTER
 62
2
 10
-4.18464094E+02
 20
8.65000000E+01
 11
-4.15000044E+02
 21
8.65000000E+01
  0
LINE
  8
0
 62
7
 10
-4.17599989E+02
 20
8.48999481E+01
 11
-4.17599989E+02
 21
8.80999680E+01
  0
LINE
  8
0
 62
7
 10
-4.15400038E+02
 20
8.27500000E+01
 11
-4.15000044E+02
 21
8.27500000E+01
  0
LINE
  8
0
 62
7
 10
-4.15400038E+02
 20
9.02500000E+01
 11
-4.15000044E+02
 21
9.02500000E+01
  0
LINE
  8
0
 62
7
 10
-3.03000074E+02
 20
4.94999924E+01
 11
-3.03000074E+02
 21
1.51499985E+02
  0
LINE
  8
0
  6
CENTER
 62
2
 10
-3.17000074E+02
 20
1.56872681E+02
 11
-3.17000074E+02
 21
1.27135773E+02
  0
LINE
  8
0
  6
CENTER
 62
2
 10
-3.41000013E+02
 20
1.59076889E+02
 11
-3.41000013E+02
 21
1.26645706E+02
  0
LINE
  8
0
  6
CENTER
 62
2
 10
-3.30809187E+02
 20
5.85000305E+01
 11
-3.02012373E+02
 21
5.85000305E+01
  0
LINE
  8
0
  6
CENTER
 62
2
 10
-3.31222181E+02
 20
1.42500000E+02
 11
-3.02012373E+02
 21
1.42500000E+02
  0
LINE
  8
0
  6
CENTER
 62
2
 10
-3.17000074E+02
 20
4.38976631E+01
 11
-3.17000074E+02
 21
7.25789337E+01
  0
LINE
  8
0
  6
CENTER
 62
2
 10
-3.59000044E+02
 20
4.08121338E+01
 11
-3.59000044E+02
 21
1.61446014E+02
  0
LINE
  8
0
 62
7
 10
-3.17000071E+02
 20
6.42734750E+01
 11
-3.22000125E+02
 21
6.13867035E+01
  0
LINE
  8
0
 62
7
 10
-3.22000074E+02
 20
6.13867798E+01
 11
-3.22000074E+02
 21
5.56132736E+01
  0
LINE
  8
0
 62
7
 10
-3.17000100E+02
 20
5.27264668E+01
 11
-3.22000127E+02
 21
5.56132230E+01
  0
LINE
  8
0
 62
7
 10
-3.12000089E+02
 20
5.56132809E+01
 11
-3.17000091E+02
 21
5.27265399E+01
  0
LINE
  8
0
 62
7
 10
-3.12000074E+02
 20
6.13867798E+01
 11
-3.12000074E+02
 21
5.56132736E+01
  0
LINE
  8
0
 62
7
 10
-3.17000047E+02
 20
6.42734659E+01
 11
-3.12000073E+02
 21
6.13867402E+01
  0
LINE
  8
0
 62
7
 10
-4.01000162E+02
 20
6.42734551E+01
 11
-4.06000136E+02
 21
6.13867293E+01
  0
LINE
  8
0
 62
7
 10
-4.06000105E+02
 20
6.13867798E+01
 11
-4.06000105E+02
 21
5.56132736E+01
  0
LINE
  8
0
 62
7
 10
-4.01000174E+02
 20
5.27264857E+01
 11
-4.06000254E+02
 21
5.56132725E+01
  0
LINE
  8
0
 62
7
 10
-3.96000104E+02
 20
5.56132518E+01
 11
-4.01000079E+02
 21
5.27265261E+01
  0
LINE
  8
0
 62
7
 10
-3.96000105E+02
 20
6.13867798E+01
 11
-3.96000105E+02
 21
5.56132736E+01
  0
LINE
  8
0
 62
7
 10
-4.01000158E+02
 20
6.42736033E+01
 11
-3.96000104E+02
 21
6.13868318E+01
  0
LINE
  8
0
 62
7
 10
-4.01000047E+02
 20
1.48273465E+02
 11
-4.06000088E+02
 21
1.45386701E+02
  0
LINE
  8
0
 62
7
 10
-4.06000105E+02
 20
1.45386749E+02
 11
-4.06000105E+02
 21
1.39613266E+02
  0
LINE
  8
0
 62
7
 10
-4.01000214E+02
 20
1.36726532E+02
 11
-4.06000189E+02
 21
1.39613258E+02
  0
LINE
  8
0
 62
7
 10
-3.96000103E+02
 20
1.39613214E+02
 11
-4.01000144E+02
 21
1.36726450E+02
  0
LINE
  8
0
 62
7
 10
-3.96000105E+02
 20
1.45386749E+02
 11
-3.96000105E+02
 21
1.39613266E+02
  0
LINE
  8
0
 62
7
 10
-4.01000145E+02
 20
1.48273500E+02
 11
-3.96000170E+02
 21
1.45386774E+02
  0
LINE
  8
0
 62
7
 10
-3.17000092E+02
 20
1.48273477E+02
 11
-3.22000107E+02
 21
1.45386728E+02
  0
LINE
  8
0
 62
7
 10
-3.22000074E+02
 20
1.45386749E+02
 11
-3.22000074E+02
 21
1.39613266E+02
  0
LINE
  8
0
 62
7
 10
-3.17000142E+02
 20
1.36726512E+02
 11
-3.22000116E+02
 21
1.39613237E+02
  0
LINE
  8
0
 62
7
 10
-3.12000010E+02
 20
1.39613200E+02
 11
-3.17000025E+02
 21
1.36726451E+02
  0
LINE
  8
0
 62
7
 10
-3.12000074E+02
 20
1.45386749E+02
 11
-3.12000074E+02
 21
1.39613266E+02
  0
LINE
  8
0
 62
7
 10
-3.17000075E+02
 20
1.48273475E+02
 11
-3.12000100E+02
 21
1.45386749E+02
  0
LINE
  8
0
  6
CENTER
 62
2
 10
-3.70999952E+02
 20
1.24476410E+02
 11
-3.70999952E+02
 21
1.58763474E+02
  0
CIRCLE
  8
0
 62
7
 10
-4.01000105E+02
 20
5.85000305E+01
 40
4.18000031E+00
  0
CIRCLE
  8
0
 62
2
 10
-4.01000105E+02
 20
1.42500000E+02
 40
5.00000000E+00
  0
CIRCLE
  8
0
 62
2
 10
-4.01000105E+02
 20
5.85000305E+01
 40
5.00000000E+00
  0
ARC
  8
0
 62
7
 10
-4.15122541E+02
 20
1.15765503E+02
 40
2.50000000E+00
 50
9.63728081E+01
 51
1.87691385E+02
  0
ARC
  8
0
 62
7
 10
-4.15122541E+02
 20
1.13234627E+02
 40
2.50000000E+00
 50
1.87691403E+02
 51
2.69999963E+02
  0
CIRCLE
  8
0
 62
7
 10
-4.01000105E+02
 20
1.42500000E+02
 40
4.18000031E+00
  0
CIRCLE
  8
0
 62
7
 10
-4.01000105E+02
 20
5.85000076E+01
 40
8.00000000E+00
  0
CIRCLE
  8
0
 62
7
 10
-4.01000105E+02
 20
1.42499969E+02
 40
8.00000000E+00
  0
CIRCLE
  8
0
 62
7
 10
-4.01000105E+02
 20
5.85000076E+01
 40
8.50000000E+00
  0
CIRCLE
  8
0
 62
7
 10
-3.17000074E+02
 20
5.85000076E+01
 40
8.50000000E+00
  0
CIRCLE
  8
0
 62
7
 10
-3.59000044E+02
 20
1.00500000E+02
 40
2.49999981E+01
  0
CIRCLE
  8
0
 62
7
 10
-3.59000044E+02
 20
1.00500000E+02
 40
2.30000038E+01
  0
CIRCLE
  8
0
 62
7
 10
-3.59000044E+02
 20
1.00500000E+02
 40
2.25000038E+01
  0
CIRCLE
  8
0
 62
7
 10
-3.59000044E+02
 20
1.00500000E+02
 40
2.44999962E+01
  0
ARC
  8
0
 62
7
 10
-4.10000044E+02
 20
1.51499985E+02
 40
5.00000000E+00
 50
8.99999818E+01
 51
1.79999964E+02
  0
ARC
  8
0
 62
7
 10
-4.10000044E+02
 20
4.94999924E+01
 40
5.00000000E+00
 50
1.79999977E+02
 51
2.70000028E+02
  0
ARC
  8
0
 62
7
 10
-3.08000074E+02
 20
4.94999924E+01
 40
5.00000000E+00
 50
2.70000018E+02
 51
0.00000000E+00
  0
ARC
  8
0
 62
7
 10
-4.15122541E+02
 20
8.52345963E+01
 40
2.50000000E+00
 50
1.87691403E+02
 51
2.69999963E+02
  0
ARC
  8
0
 62
7
 10
-4.15122541E+02
 20
8.77654724E+01
 40
2.50000000E+00
 50
9.63728081E+01
 51
1.87691385E+02
  0
CIRCLE
  8
0
 62
7
 10
-4.01000105E+02
 20
1.42499969E+02
 40
8.50000000E+00
  0
CIRCLE
  8
0
 62
7
 10
-3.17000074E+02
 20
5.85000076E+01
 40
8.00000000E+00
  0
CIRCLE
  8
0
 62
7
 10
-3.17000074E+02
 20
1.42499969E+02
 40
8.50000000E+00
  0
ARC
  8
0
 62
7
 10
-3.08000074E+02
 20
1.51499985E+02
 40
5.00000000E+00
 50
0.00000000E+00
 51
8.99999818E+01
  0
CIRCLE
  8
0
 62
7
 10
-3.17000074E+02
 20
1.42499969E+02
 40
8.00000000E+00
  0
CIRCLE
  8
0
 62
2
 10
-3.17000074E+02
 20
1.42500000E+02
 40
5.00000000E+00
  0
CIRCLE
  8
0
 62
2
 10
-3.17000074E+02
 20
5.85000305E+01
 40
5.00000000E+00
  0
CIRCLE
  8
0
 62
7
 10
-3.17000074E+02
 20
1.42500000E+02
 40
4.18000031E+00
  0
CIRCLE
  8
0
 62
7
 10
-3.17000074E+02
 20
5.85000305E+01
 40
4.18000031E+00
  0
CIRCLE
  8
0
 62
7
 10
-3.59000044E+02
 20
1.00500000E+02
 40
1.29999914E+01
  0
CIRCLE
  8
0
 62
2
 10
-3.59000044E+02
 20
1.00500000E+02
 40
1.21799841E+01
  0
CIRCLE
  8
0
 62
4
 10
-3.59000044E+02
 20
1.00500000E+02
 40
1.80000000E+01
  0
LINE
  8
0
 62
4
 10
-3.77000051E+02
 20
1.10892303E+02
 11
-3.77000051E+02
 21
9.01076965E+01
  0
LINE
  8
0
 62
4
 10
-3.41000044E+02
 20
1.10892303E+02
 11
-3.41000044E+02
 21
9.01076965E+01
  0
LINE
  8
0
 62
4
 10
-3.77000109E+02
 20
1.10892269E+02
 11
-3.59000107E+02
 21
1.21284573E+02
  0
LINE
  8
0
 62
4
 10
-3.59000122E+02
 20
7.97153727E+01
 11
-3.41000121E+02
 21
9.01076769E+01
  0
LINE
  8
0
 62
4
 10
-3.59000186E+02
 20
1.21284608E+02
 11
-3.41000181E+02
 21
1.10892302E+02
  0
LINE
  8
0
 62
4
 10
-3.77000131E+02
 20
9.01077224E+01
 11
-3.59000140E+02
 21
7.97154240E+01
  0
LINE
  8
0
 62
4
 10
-3.29004194E+02
 20
1.63905365E+02
 11
-3.19631593E+02
 21
1.59634024E+02
  0
LINE
  8
0
 62
4
 10
-3.13261864E+02
 20
1.56731172E+02
 11
-3.19631593E+02
 21
1.59634024E+02
  0
LINE
  8
0
 62
4
 10
-3.29294480E+02
 20
1.63268392E+02
 11
-3.30204441E+02
 21
1.63683085E+02
  0
ARC
  8
0
 62
4
 10
-3.33804526E+02
 20
1.58510261E+02
 40
1.00000000E+00
 50
1.68327510E+02
 51
2.45500000E+02
  0
ARC
  8
0
 62
4
 10
-3.31813998E+02
 20
1.62878076E+02
 40
1.00000000E+00
 50
6.55000000E+01
 51
1.42672490E+02
  0
LINE
  8
0
 62
4
 10
-3.33190232E+02
 20
1.57131364E+02
 11
-3.34218489E+02
 21
1.57599967E+02
  0
LINE
  8
0
 62
4
 10
-3.30370318E+02
 20
1.63319100E+02
 11
-3.31398575E+02
 21
1.63787704E+02
  0
LINE
  8
0
 62
4
 10
-3.33356110E+02
 20
1.56767379E+02
 11
-3.30204441E+02
 21
1.63683085E+02
  0
ARC
  8
0
 62
4
 10
-3.23218076E+02
 20
1.56323213E+02
 40
1.18100000E+01
 50
1.42672490E+02
 51
1.68327510E+02
  0
ARC
  8
0
 62
4
 10
-3.24201917E+02
 20
1.52933762E+02
 40
1.18100000E+01
 50
1.53400933E+02
 51
1.55500000E+02
  0
ARC
  8
0
 62
4
 10
-3.24208335E+02
 20
1.52919679E+02
 40
1.18100000E+01
 50
1.55500000E+02
 51
1.62352491E+02
  0
LINE
  8
0
 62
4
 10
-3.21059851E+02
 20
1.56500000E+02
 11
-3.19631593E+02
 21
1.59634024E+02
  0
LINE
  8
0
 62
4
 10
-3.32379014E+02
 20
1.56500000E+02
 11
-3.29004194E+02
 21
1.63905365E+02
  0
LINE
  8
0
 62
4
 10
-3.32769399E+02
 20
1.56500000E+02
 11
-3.33356110E+02
 21
1.56767379E+02
  0
LINE
  8
0
 62
4
 10
-3.13151601E+02
 20
1.56500000E+02
 11
-3.13261864E+02
 21
1.56731172E+02
  0
LINE
  8
0
 62
4
 10
-3.32796614E+02
 20
1.56500000E+02
 11
-3.32791934E+02
 21
1.56510270E+02
  0
LINE
  8
0
  6
CENTER
 62
6
 10
-3.25626449E+02
 20
1.57420744E+02
 11
-3.34855247E+02
 21
1.61626550E+02
  0
LINE
  8
0
  6
CENTER
 62
6
 10
-3.27077875E+02
 20
1.54235880E+02
 11
-3.36306673E+02
 21
1.58441685E+02
  0
LINE
  8
0
 62
4
 10
-3.88995832E+02
 20
1.63905365E+02
 11
-3.98368433E+02
 21
1.59634024E+02
  0
LINE
  8
0
  6
CENTER
 62
6
 10
-3.92373639E+02
 20
1.57420744E+02
 11
-3.83144841E+02
 21
1.61626550E+02
  0
LINE
  8
0
  6
CENTER
 62
6
 10
-3.90922213E+02
 20
1.54235880E+02
 11
-3.81693414E+02
 21
1.58441685E+02
  0
LINE
  8
0
 62
4
 10
-4.04738162E+02
 20
1.56731172E+02
 11
-3.98368433E+02
 21
1.59634024E+02
  0
LINE
  8
0
 62
4
 10
-3.88705547E+02
 20
1.63268392E+02
 11
-3.87795586E+02
 21
1.63683085E+02
  0
ARC
  8
0
 62
4
 10
-3.84195501E+02
 20
1.58510261E+02
 40
1.00000000E+00
 50
3.43223662E+02
 51
1.16724900E+01
  0
ARC
  8
0
 62
4
 10
-3.86186029E+02
 20
1.62878076E+02
 40
1.00000000E+00
 50
3.73275101E+01
 51
1.14500000E+02
  0
ARC
  8
0
 62
4
 10
-3.94781951E+02
 20
1.56323213E+02
 40
1.18100000E+01
 50
1.16724900E+01
 51
3.73275101E+01
  0
LINE
  8
0
 62
4
 10
-3.87629708E+02
 20
1.63319100E+02
 11
-3.86601452E+02
 21
1.63787704E+02
  0
LINE
  8
0
 62
4
 10
-3.86489302E+02
 20
1.60816707E+02
 11
-3.87795586E+02
 21
1.63683085E+02
  0
LINE
  8
0
 62
4
 10
-3.87337059E+02
 20
1.60265520E+02
 11
-3.86991274E+02
 21
1.60423103E+02
  0
LINE
  8
0
 62
4
 10
-3.87053478E+02
 20
1.60559597E+02
 11
-3.85451946E+02
 21
1.61289457E+02
  0
ARC
  8
0
 62
4
 10
-3.93798110E+02
 20
1.52933762E+02
 40
1.18100000E+01
 50
2.45000000E+01
 51
4.50326991E+01
  0
ARC
  8
0
 62
4
 10
-3.93791692E+02
 20
1.52919679E+02
 40
1.18100000E+01
 50
1.76475088E+01
 51
2.45000000E+01
  0
LINE
  8
0
 62
4
 10
-4.04848425E+02
 20
1.56500000E+02
 11
-4.04738162E+02
 21
1.56731172E+02
  0
LINE
  8
0
 62
4
 10
-3.96940176E+02
 20
1.56500000E+02
 11
-3.98368433E+02
 21
1.59634024E+02
  0
LINE
  8
0
 62
4
 10
-3.85621013E+02
 20
1.56500000E+02
 11
-3.88995832E+02
 21
1.63905365E+02
  0
LINE
  8
0
 62
4
 10
-3.85203413E+02
 20
1.56500000E+02
 11
-3.87053478E+02
 21
1.60559597E+02
  0
LINE
  8
0
 62
4
 10
2.55151666E+02
 20
1.56500000E+02
 11
2.55261929E+02
 21
1.56731172E+02
  0
ARC
  8
0
 62
4
 10
2.66201982E+02
 20
1.52933762E+02
 40
1.18100000E+01
 50
2.45000000E+01
 51
4.50326991E+01
  0
LINE
  8
0
 62
4
 10
2.72946614E+02
 20
1.60559597E+02
 11
2.74548145E+02
 21
1.61289457E+02
  0
LINE
  8
0
 62
4
 10
2.72663032E+02
 20
1.60265520E+02
 11
2.73008818E+02
 21
1.60423103E+02
  0
LINE
  8
0
 62
4
 10
2.73510790E+02
 20
1.60816707E+02
 11
2.72204506E+02
 21
1.63683085E+02
  0
LINE
  8
0
 62
4
 10
2.72370383E+02
 20
1.63319100E+02
 11
2.73398639E+02
 21
1.63787704E+02
  0
ARC
  8
0
 62
4
 10
2.65218141E+02
 20
1.56323213E+02
 40
1.18100000E+01
 50
1.16724900E+01
 51
3.73275101E+01
  0
ARC
  8
0
 62
4
 10
2.73814063E+02
 20
1.62878076E+02
 40
1.00000000E+00
 50
3.73275101E+01
 51
1.14500000E+02
  0
ARC
  8
0
 62
4
 10
2.75804591E+02
 20
1.58510261E+02
 40
1.00000000E+00
 50
3.43223662E+02
 51
1.16724900E+01
  0
LINE
  8
0
 62
4
 10
2.71294545E+02
 20
1.63268392E+02
 11
2.72204506E+02
 21
1.63683085E+02
  0
LINE
  8
0
  6
CENTER
 62
6
 10
2.67626452E+02
 20
1.57420744E+02
 11
2.76855251E+02
 21
1.61626550E+02
  0
LINE
  8
0
 62
4
 10
2.71004259E+02
 20
1.63905365E+02
 11
2.61631658E+02
 21
1.59634024E+02
  0
LINE
  8
0
  6
CENTER
 62
6
 10
2.69077879E+02
 20
1.54235880E+02
 11
2.78306677E+02
 21
1.58441685E+02
  0
LINE
  8
0
 62
4
 10
2.55261929E+02
 20
1.56731172E+02
 11
2.61631658E+02
 21
1.59634024E+02
  0
ARC
  8
0
 62
4
 10
2.66208400E+02
 20
1.52919679E+02
 40
1.18100000E+01
 50
1.76475088E+01
 51
2.45000000E+01
  0
LINE
  8
0
 62
4
 10
2.63059915E+02
 20
1.56500000E+02
 11
2.61631658E+02
 21
1.59634024E+02
  0
LINE
  8
0
 62
4
 10
2.74379078E+02
 20
1.56500000E+02
 11
2.71004259E+02
 21
1.63905365E+02
  0
LINE
  8
0
 62
4
 10
2.74796679E+02
 20
1.56500000E+02
 11
2.72946614E+02
 21
1.60559597E+02
  0
LINE
  8
0
 62
4
 10
3.46738227E+02
 20
1.56731172E+02
 11
3.40368498E+02
 21
1.59634024E+02
  0
LINE
  8
0
 62
4
 10
3.27230692E+02
 20
1.56500000E+02
 11
3.26643982E+02
 21
1.56767379E+02
  0
LINE
  8
0
  6
CENTER
 62
6
 10
3.34373643E+02
 20
1.57420744E+02
 11
3.25144845E+02
 21
1.61626550E+02
  0
ARC
  8
0
 62
4
 10
3.35798175E+02
 20
1.52933762E+02
 40
1.18100000E+01
 50
1.53400933E+02
 51
1.55500000E+02
  0
ARC
  8
0
 62
4
 10
3.36782016E+02
 20
1.56323213E+02
 40
1.18100000E+01
 50
1.42672490E+02
 51
1.68327510E+02
  0
LINE
  8
0
 62
4
 10
3.29629773E+02
 20
1.63319100E+02
 11
3.28601517E+02
 21
1.63787704E+02
  0
LINE
  8
0
 62
4
 10
3.26809859E+02
 20
1.57131364E+02
 11
3.25781603E+02
 21
1.57599967E+02
  0
ARC
  8
0
 62
4
 10
3.28186094E+02
 20
1.62878076E+02
 40
1.00000000E+00
 50
6.55000000E+01
 51
1.42672490E+02
  0
ARC
  8
0
 62
4
 10
3.26195566E+02
 20
1.58510261E+02
 40
1.00000000E+00
 50
1.68327510E+02
 51
2.45500000E+02
  0
LINE
  8
0
 62
4
 10
3.30705612E+02
 20
1.63268392E+02
 11
3.29795651E+02
 21
1.63683085E+02
  0
LINE
  8
0
 62
4
 10
3.30995897E+02
 20
1.63905365E+02
 11
3.40368498E+02
 21
1.59634024E+02
  0
LINE
  8
0
 62
4
 10
3.26643982E+02
 20
1.56767379E+02
 11
3.29795651E+02
 21
1.63683085E+02
  0
ARC
  8
0
 62
4
 10
3.35791757E+02
 20
1.52919679E+02
 40
1.18100000E+01
 50
1.55500000E+02
 51
1.62352491E+02
  0
LINE
  8
0
 62
4
 10
3.38940241E+02
 20
1.56500000E+02
 11
3.40368498E+02
 21
1.59634024E+02
  0
LINE
  8
0
 62
4
 10
3.27621078E+02
 20
1.56500000E+02
 11
3.30995897E+02
 21
1.63905365E+02
  0
LINE
  8
0
  6
CENTER
 62
6
 10
3.32922217E+02
 20
1.54235880E+02
 11
3.23693418E+02
 21
1.58441685E+02
  0
LINE
  8
0
 62
4
 10
3.46848338E+02
 20
1.56500000E+02
 11
3.46738074E+02
 21
1.56731172E+02
  0
LINE
  8
0
 62
4
 10
2.74796526E+02
 20
1.56500000E+02
 11
2.74791846E+02
 21
1.56510270E+02
  0
LINE
  8
0
 62
4
 10
2.55151514E+02
 20
1.56500000E+02
 11
2.55261777E+02
 21
1.56731172E+02
  0
CIRCLE
  8
0
 62
7
 10
2.58999987E+02
 20
5.85000305E+01
 40
4.18000031E+00
  0
CIRCLE
  8
0
 62
7
 10
2.58999987E+02
 20
1.42500000E+02
 40
4.18000031E+00
  0
CIRCLE
  8
0
 62
2
 10
2.58999987E+02
 20
5.85000305E+01
 40
5.00000000E+00
  0
CIRCLE
  8
0
 62
2
 10
2.58999987E+02
 20
1.42500000E+02
 40
5.00000000E+00
  0
CIRCLE
  8
0
 62
7
 10
2.58999987E+02
 20
1.42499969E+02
 40
8.00000000E+00
  0
ARC
  8
0
 62
7
 10
2.49999987E+02
 20
1.51499985E+02
 40
5.00000000E+00
 50
9.00000179E+01
 51
1.80000000E+02
  0
CIRCLE
  8
0
 62
7
 10
2.58999987E+02
 20
1.42499969E+02
 40
8.50000000E+00
  0
CIRCLE
  8
0
 62
7
 10
2.58999987E+02
 20
5.85000076E+01
 40
8.00000000E+00
  0
CIRCLE
  8
0
 62
7
 10
3.43000017E+02
 20
1.42499969E+02
 40
8.50000000E+00
  0
ARC
  8
0
 62
7
 10
3.57122454E+02
 20
8.77654724E+01
 40
2.50000000E+00
 50
3.52308615E+02
 51
8.36271917E+01
  0
ARC
  8
0
 62
7
 10
3.57122454E+02
 20
8.52345963E+01
 40
2.50000000E+00
 50
2.70000037E+02
 51
3.52308598E+02
  0
ARC
  8
0
 62
7
 10
2.49999987E+02
 20
4.94999924E+01
 40
5.00000000E+00
 50
1.80000000E+02
 51
2.69999982E+02
  0
ARC
  8
0
 62
7
 10
3.51999956E+02
 20
4.94999924E+01
 40
5.00000000E+00
 50
2.69999972E+02
 51
2.23118003E-05
  0
ARC
  8
0
 62
7
 10
3.51999956E+02
 20
1.51499985E+02
 40
5.00000000E+00
 50
3.59721787E-05
 51
9.00000179E+01
  0
CIRCLE
  8
0
 62
7
 10
3.00999956E+02
 20
1.00500000E+02
 40
2.49999981E+01
  0
CIRCLE
  8
0
 62
7
 10
2.58999987E+02
 20
5.85000076E+01
 40
8.50000000E+00
  0
CIRCLE
  8
0
 62
7
 10
3.43000017E+02
 20
5.85000076E+01
 40
8.50000000E+00
  0
CIRCLE
  8
0
 62
7
 10
3.43000017E+02
 20
1.42499969E+02
 40
8.00000000E+00
  0
CIRCLE
  8
0
 62
7
 10
3.43000017E+02
 20
5.85000076E+01
 40
8.00000000E+00
  0
CIRCLE
  8
0
 62
7
 10
3.43000017E+02
 20
1.42500000E+02
 40
4.18000031E+00
  0
ARC
  8
0
 62
7
 10
3.57122454E+02
 20
1.13234627E+02
 40
2.50000000E+00
 50
2.70000037E+02
 51
3.52308598E+02
  0
ARC
  8
0
 62
7
 10
3.57122454E+02
 20
1.15765503E+02
 40
2.50000000E+00
 50
3.52308615E+02
 51
8.36271917E+01
  0
CIRCLE
  8
0
 62
2
 10
3.43000017E+02
 20
5.85000305E+01
 40
5.00000000E+00
  0
CIRCLE
  8
0
 62
2
 10
3.43000017E+02
 20
1.42500000E+02
 40
5.00000000E+00
  0
CIRCLE
  8
0
 62
7
 10
3.43000017E+02
 20
5.85000305E+01
 40
4.18000031E+00
  0
LINE
  8
0
  6
CENTER
 62
2
 10
3.12999865E+02
 20
1.24476410E+02
 11
3.12999865E+02
 21
1.58763474E+02
  0
LINE
  8
0
 62
7
 10
2.58999987E+02
 20
1.48273475E+02
 11
2.54000012E+02
 21
1.45386749E+02
  0
LINE
  8
0
 62
7
 10
2.53999987E+02
 20
1.45386749E+02
 11
2.53999987E+02
 21
1.39613266E+02
  0
LINE
  8
0
 62
7
 10
2.53999922E+02
 20
1.39613200E+02
 11
2.58999937E+02
 21
1.36726451E+02
  0
LINE
  8
0
 62
7
 10
2.59000054E+02
 20
1.36726512E+02
 11
2.64000029E+02
 21
1.39613237E+02
  0
LINE
  8
0
 62
7
 10
2.63999987E+02
 20
1.45386749E+02
 11
2.63999987E+02
 21
1.39613266E+02
  0
LINE
  8
0
 62
7
 10
2.59000005E+02
 20
1.48273477E+02
 11
2.64000019E+02
 21
1.45386728E+02
  0
LINE
  8
0
 62
7
 10
3.43000057E+02
 20
1.48273500E+02
 11
3.38000082E+02
 21
1.45386774E+02
  0
LINE
  8
0
 62
7
 10
3.38000017E+02
 20
1.45386749E+02
 11
3.38000017E+02
 21
1.39613266E+02
  0
LINE
  8
0
 62
7
 10
3.38000015E+02
 20
1.39613214E+02
 11
3.43000056E+02
 21
1.36726450E+02
  0
LINE
  8
0
 62
7
 10
3.43000127E+02
 20
1.36726532E+02
 11
3.48000101E+02
 21
1.39613258E+02
  0
LINE
  8
0
 62
7
 10
3.48000017E+02
 20
1.45386749E+02
 11
3.48000017E+02
 21
1.39613266E+02
  0
LINE
  8
0
 62
7
 10
3.42999959E+02
 20
1.48273465E+02
 11
3.48000000E+02
 21
1.45386701E+02
  0
LINE
  8
0
 62
7
 10
3.43000071E+02
 20
6.42736033E+01
 11
3.38000017E+02
 21
6.13868318E+01
  0
LINE
  8
0
 62
7
 10
3.38000017E+02
 20
6.13867798E+01
 11
3.38000017E+02
 21
5.56132736E+01
  0
LINE
  8
0
 62
7
 10
3.38000017E+02
 20
5.56132518E+01
 11
3.42999991E+02
 21
5.27265261E+01
  0
LINE
  8
0
 62
7
 10
3.43000086E+02
 20
5.27264857E+01
 11
3.48000166E+02
 21
5.56132725E+01
  0
LINE
  8
0
 62
7
 10
3.48000017E+02
 20
6.13867798E+01
 11
3.48000017E+02
 21
5.56132736E+01
  0
LINE
  8
0
 62
7
 10
3.43000074E+02
 20
6.42734551E+01
 11
3.48000049E+02
 21
6.13867293E+01
  0
LINE
  8
0
 62
7
 10
2.58999960E+02
 20
6.42734659E+01
 11
2.53999985E+02
 21
6.13867402E+01
  0
LINE
  8
0
 62
7
 10
2.53999987E+02
 20
6.13867798E+01
 11
2.53999987E+02
 21
5.56132736E+01
  0
LINE
  8
0
 62
7
 10
2.54000002E+02
 20
5.56132809E+01
 11
2.59000003E+02
 21
5.27265399E+01
  0
LINE
  8
0
 62
7
 10
2.59000012E+02
 20
5.27264668E+01
 11
2.64000040E+02
 21
5.56132230E+01
  0
LINE
  8
0
 62
7
 10
2.63999987E+02
 20
6.13867798E+01
 11
2.63999987E+02
 21
5.56132736E+01
  0
LINE
  8
0
 62
7
 10
2.58999983E+02
 20
6.42734750E+01
 11
2.64000037E+02
 21
6.13867035E+01
  0
LINE
  8
0
  6
CENTER
 62
2
 10
3.00999956E+02
 20
4.08121338E+01
 11
3.00999956E+02
 21
1.61446014E+02
  0
LINE
  8
0
  6
CENTER
 62
2
 10
2.58999987E+02
 20
4.38976631E+01
 11
2.58999987E+02
 21
7.25789337E+01
  0
LINE
  8
0
  6
CENTER
 62
2
 10
2.73222094E+02
 20
1.42500000E+02
 11
2.44012285E+02
 21
1.42500000E+02
  0
LINE
  8
0
  6
CENTER
 62
2
 10
2.72809099E+02
 20
5.85000305E+01
 11
2.44012285E+02
 21
5.85000305E+01
  0
LINE
  8
0
  6
CENTER
 62
2
 10
2.82999926E+02
 20
1.59076889E+02
 11
2.82999926E+02
 21
1.26645706E+02
  0
LINE
  8
0
  6
CENTER
 62
2
 10
2.58999987E+02
 20
1.56872681E+02
 11
2.58999987E+02
 21
1.27135773E+02
  0
LINE
  8
0
 62
7
 10
2.44999987E+02
 20
4.94999924E+01
 11
2.44999987E+02
 21
1.51499985E+02
  0
LINE
  8
0
 62
7
 10
3.57399950E+02
 20
9.02500000E+01
 11
3.56999956E+02
 21
9.02500000E+01
  0
LINE
  8
0
 62
7
 10
3.57399950E+02
 20
8.27500000E+01
 11
3.56999956E+02
 21
8.27500000E+01
  0
LINE
  8
0
 62
7
 10
3.59599901E+02
 20
8.48999481E+01
 11
3.59599901E+02
 21
8.80999680E+01
  0
LINE
  8
0
  6
CENTER
 62
2
 10
3.60464006E+02
 20
8.65000000E+01
 11
3.56999956E+02
 21
8.65000000E+01
  0
LINE
  8
0
 62
7
 10
3.51999956E+02
 20
1.56499985E+02
 11
2.49999987E+02
 21
1.56499985E+02
  0
LINE
  8
0
  6
CENTER
 62
2
 10
3.43000017E+02
 20
1.56685349E+02
 11
3.43000017E+02
 21
1.27961624E+02
  0
LINE
  8
0
  6
CENTER
 62
2
 10
3.43000017E+02
 20
4.37628784E+01
 11
3.43000017E+02
 21
7.39070435E+01
  0
LINE
  8
0
  6
CENTER
 62
2
 10
3.57555376E+02
 20
5.85000305E+01
 11
3.29134783E+02
 21
5.85000305E+01
  0
LINE
  8
0
  6
CENTER
 62
2
 10
3.57555376E+02
 20
1.42500000E+02
 11
3.28308977E+02
 21
1.42500000E+02
  0
LINE
  8
0
 62
7
 10
3.56999956E+02
 20
4.94999924E+01
 11
3.56999956E+02
 21
1.51499985E+02
  0
LINE
  8
0
 62
7
 10
2.49999987E+02
 20
4.44999924E+01
 11
3.51999956E+02
 21
4.44999924E+01
  0
LINE
  8
0
  6
CENTER
 62
2
 10
2.39701220E+02
 20
1.00500000E+02
 11
3.62530962E+02
 21
1.00500000E+02
  0
LINE
  8
0
 62
7
 10
3.59599901E+02
 20
1.12899979E+02
 11
3.59599901E+02
 21
1.16099998E+02
  0
LINE
  8
0
 62
7
 10
3.57400011E+02
 20
1.10750015E+02
 11
3.56999956E+02
 21
1.10750015E+02
  0
LINE
  8
0
 62
7
 10
3.57399950E+02
 20
1.18250015E+02
 11
3.56999956E+02
 21
1.18250015E+02
  0
LINE
  8
0
  6
CENTER
 62
2
 10
3.60464006E+02
 20
1.14500015E+02
 11
3.56999956E+02
 21
1.14500015E+02
  0
LINE
  8
0
  6
PHANTOM
 10
4.99954224E-01
 20
1.94808365E+02
 11
4.99954224E-01
 21
3.53816712E+02
  0
ARC
  8
0
 62
7
 10
8.29999790E+01
 20
2.47500000E+02
 40
2.00000000E+00
 50
2.70000000E+02
 51
0.00000000E+00
  0
ARC
  8
0
 62
7
 10
8.29999790E+01
 20
3.13500000E+02
 40
2.00000000E+00
 50
0.00000000E+00
 51
9.00000002E+01
  0
LINE
  8
0
 62
7
 10
5.29999506E+01
 20
2.45500000E+02
 11
8.29999790E+01
 21
2.45500000E+02
  0
LINE
  8
0
 62
7
 10
5.29999506E+01
 20
3.15500000E+02
 11
8.29999790E+01
 21
3.15500000E+02
  0
LINE
  8
0
 62
7
 10
8.49999790E+01
 20
2.47500000E+02
 11
8.49999790E+01
 21
3.13500000E+02
  0
LINE
  8
0
  6
CENTER
 62
2
 10
-2.01777357E+02
 20
2.80500000E+02
 11
9.68777294E+01
 21
2.80500000E+02
  0
LINE
  8
0
  6
CENTER
 62
2
 10
9.17791576E+01
 20
2.38499985E+02
 11
-9.65245190E+01
 21
2.38499985E+02
  0
LINE
  8
0
 62
7
 10
5.29999506E+01
 20
2.43000000E+02
 11
4.49999523E+01
 21
2.43000000E+02
  0
LINE
  8
0
 62
7
 10
5.29999506E+01
 20
2.33999954E+02
 11
2.99999523E+01
 21
2.33999954E+02
  0
LINE
  8
0
 62
7
 10
-5.80000439E+01
 20
3.36500183E+02
 11
-5.80000439E+01
 21
2.24499985E+02
  0
LINE
  8
0
 62
7
 10
5.29999506E+01
 20
2.24499756E+02
 11
5.29999506E+01
 21
3.36499969E+02
  0
LINE
  8
0
 62
7
 10
-5.80000439E+01
 20
2.26999985E+02
 11
1.69264373E+01
 21
2.26999985E+02
  0
LINE
  8
0
  6
CENTER
 62
2
 10
9.17791576E+01
 20
3.22500031E+02
 11
-9.65245190E+01
 21
3.22500031E+02
  0
LINE
  8
0
 62
7
 10
5.29999506E+01
 20
3.18000000E+02
 11
-1.40000439E+01
 21
3.18000000E+02
  0
LINE
  8
0
 62
7
 10
5.29999506E+01
 20
3.27000031E+02
 11
-1.40000439E+01
 21
3.27000031E+02
  0
LINE
  8
0
 62
7
 10
-5.80000439E+01
 20
3.34000000E+02
 11
-2.70736166E+01
 21
3.34000000E+02
  0
LINE
  8
0
 62
7
 10
-1.19000029E+02
 20
3.36499969E+02
 11
-5.80000134E+01
 21
3.36499969E+02
  0
LINE
  8
0
 62
7
 10
-1.19000029E+02
 20
2.24500015E+02
 11
-5.80000896E+01
 21
2.24500015E+02
  0
LINE
  8
0
 62
7
 10
-1.19000029E+02
 20
3.36499969E+02
 11
-1.19000029E+02
 21
2.24499985E+02
  0
LINE
  8
0
  6
CENTER
 62
2
 10
-9.50000439E+01
 20
2.77574219E+02
 11
-9.50000439E+01
 21
3.38460083E+02
  0
LINE
  8
0
 62
7
 10
-1.40000029E+02
 20
2.57999969E+02
 11
-1.40000029E+02
 21
3.02999908E+02
  0
LINE
  8
0
 62
7
 10
-1.39500029E+02
 20
2.57499969E+02
 11
-1.39500029E+02
 21
3.03499969E+02
  0
LINE
  8
0
 62
7
 10
-1.20999993E+02
 20
2.55500000E+02
 11
-1.21499982E+02
 21
2.55999990E+02
  0
LINE
  8
0
 62
7
 10
-1.40000008E+02
 20
3.02999926E+02
 11
-1.39499978E+02
 21
3.03499930E+02
  0
LINE
  8
0
 62
7
 10
-1.34000029E+02
 20
2.55999985E+02
 11
-1.21500029E+02
 21
2.55999985E+02
  0
LINE
  8
0
 62
7
 10
8.89999599E+01
 20
3.35380280E+02
 11
8.89999599E+01
 21
2.25619705E+02
  0
LINE
  8
0
 62
7
 10
8.85086343E+01
 20
2.25119904E+02
 11
5.29999231E+01
 21
2.24500097E+02
  0
LINE
  8
0
 62
7
 10
9.04999218E+01
 20
3.05500000E+02
 11
8.89999599E+01
 21
3.05500000E+02
  0
LINE
  8
0
 62
7
 10
-1.34000029E+02
 20
3.04999969E+02
 11
-1.21500029E+02
 21
3.04999969E+02
  0
LINE
  8
0
  6
CENTER
 62
2
 10
5.99999833E+01
 20
2.70047821E+02
 11
5.99999833E+01
 21
2.55434418E+02
  0
LINE
  8
0
  6
CENTER
 62
2
 10
5.18053401E+01
 20
2.62500000E+02
 11
6.80743618E+01
 21
2.62500000E+02
  0
LINE
  8
0
 62
7
 10
6.17320277E+01
 20
2.62499893E+02
 11
6.08659809E+01
 21
2.63999939E+02
  0
LINE
  8
0
 62
7
 10
6.08659577E+01
 20
2.64000015E+02
 11
5.91338692E+01
 21
2.64000015E+02
  0
LINE
  8
0
 62
7
 10
5.82682280E+01
 20
2.62499801E+02
 11
5.91342367E+01
 21
2.63999781E+02
  0
LINE
  8
0
 62
7
 10
5.91339186E+01
 20
2.61000041E+02
 11
5.82678871E+01
 21
2.62500061E+02
  0
LINE
  8
0
 62
7
 10
6.08659577E+01
 20
2.60999985E+02
 11
5.91338692E+01
 21
2.60999985E+02
  0
LINE
  8
0
 62
7
 10
6.17322721E+01
 20
2.62499955E+02
 11
6.08662253E+01
 21
2.60999909E+02
  0
LINE
  8
0
  6
CENTER
 62
2
 10
-6.50000439E+01
 20
2.70047760E+02
 11
-6.50000439E+01
 21
2.55434357E+02
  0
LINE
  8
0
  6
CENTER
 62
2
 10
-7.31946697E+01
 20
2.62499939E+02
 11
-5.69256420E+01
 21
2.62499939E+02
  0
LINE
  8
0
 62
7
 10
-6.32679197E+01
 20
2.62499884E+02
 11
-6.41339436E+01
 21
2.63999890E+02
  0
LINE
  8
0
 62
7
 10
-6.41340466E+01
 20
2.63999954E+02
 11
-6.58661480E+01
 21
2.63999954E+02
  0
LINE
  8
0
 62
7
 10
-6.67318246E+01
 20
2.62499765E+02
 11
-6.58658389E+01
 21
2.63999706E+02
  0
LINE
  8
0
 62
7
 10
-6.58659820E+01
 20
2.60999936E+02
 11
-6.67320517E+01
 21
2.62500022E+02
  0
LINE
  8
0
 62
7
 10
-6.41340466E+01
 20
2.60999924E+02
 11
-6.58661480E+01
 21
2.60999924E+02
  0
LINE
  8
0
 62
7
 10
-6.32677221E+01
 20
2.62499867E+02
 11
-6.41337689E+01
 21
2.60999821E+02
  0
LINE
  8
0
 62
7
 10
-1.40000007E+02
 20
2.57999975E+02
 11
-1.39499996E+02
 21
2.57499964E+02
  0
LINE
  8
0
  6
CENTER
 62
2
 10
-8.09999981E+01
 20
3.39964081E+02
 11
-8.09999981E+01
 21
3.36500000E+02
  0
LINE
  8
0
 62
7
 10
-8.26001110E+01
 20
3.39100006E+02
 11
-7.94000683E+01
 21
3.39100006E+02
  0
LINE
  8
0
 62
7
 10
-8.47499981E+01
 20
3.36899933E+02
 11
-8.47499981E+01
 21
3.36500000E+02
  0
LINE
  8
0
 62
7
 10
-7.72499981E+01
 20
3.36899933E+02
 11
-7.72499981E+01
 21
3.36500000E+02
  0
LINE
  8
0
  6
CENTER
 62
2
 10
-1.09000059E+02
 20
3.39964081E+02
 11
-1.09000059E+02
 21
3.36500000E+02
  0
LINE
  8
0
 62
7
 10
-1.10600142E+02
 20
3.39100006E+02
 11
-1.07400099E+02
 21
3.39100006E+02
  0
LINE
  8
0
 62
7
 10
-1.12750059E+02
 20
3.36899933E+02
 11
-1.12750059E+02
 21
3.36500000E+02
  0
LINE
  8
0
 62
7
 10
-1.05250029E+02
 20
3.36899933E+02
 11
-1.05250029E+02
 21
3.36500000E+02
  0
LINE
  8
0
 62
7
 10
9.04999218E+01
 20
2.55500000E+02
 11
8.89999294E+01
 21
2.55500000E+02
  0
LINE
  8
0
 62
7
 10
9.09999790E+01
 20
3.05000000E+02
 11
9.09999790E+01
 21
2.56000000E+02
  0
LINE
  8
0
  6
CENTER
 62
2
 10
-8.12976971E+01
 20
2.92499969E+02
 11
-1.09094969E+02
 21
2.92499969E+02
  0
LINE
  8
0
 62
7
 10
-1.39499998E+02
 20
3.03499969E+02
 11
-1.35000029E+02
 21
3.03499969E+02
  0
LINE
  8
0
 62
7
 10
-1.39500029E+02
 20
2.57499969E+02
 11
-1.35000029E+02
 21
2.57499969E+02
  0
LINE
  8
0
  6
CENTER
 62
2
 10
5.52975681E+01
 20
2.92500000E+02
 11
8.30948086E+01
 21
2.92500000E+02
  0
LINE
  8
0
 62
7
 10
-1.35000029E+02
 20
2.56999969E+02
 11
-1.35000029E+02
 21
3.03999969E+02
  0
LINE
  8
0
 62
7
 10
8.85086638E+01
 20
3.35880330E+02
 11
5.29999221E+01
 21
3.36500137E+02
  0
LINE
  8
0
  6
CENTER
 62
2
 10
6.89998837E+01
 20
2.78394165E+02
 11
6.89998837E+01
 21
3.06323273E+02
  0
LINE
  8
0
 62
7
 10
-1.21000029E+02
 20
2.55499969E+02
 11
-1.19000029E+02
 21
2.55499969E+02
  0
LINE
  8
0
 62
7
 10
-1.21500029E+02
 20
3.04999969E+02
 11
-1.21500029E+02
 21
2.55999985E+02
  0
LINE
  8
0
 62
7
 10
-1.21000029E+02
 20
3.05499969E+02
 11
-1.21000029E+02
 21
2.55499969E+02
  0
LINE
  8
0
 62
7
 10
-1.21000029E+02
 20
3.05499969E+02
 11
-1.19000029E+02
 21
3.05499969E+02
  0
LINE
  8
0
 62
7
 10
-1.20999987E+02
 20
3.05499929E+02
 11
-1.21499966E+02
 21
3.04999950E+02
  0
LINE
  8
0
 62
7
 10
-1.94000059E+02
 20
2.68999939E+02
 11
-1.94000059E+02
 21
2.91999695E+02
  0
LINE
  8
0
 62
7
 10
-1.57000044E+02
 20
2.67500000E+02
 11
-1.57000044E+02
 21
2.93500000E+02
  0
LINE
  8
0
 62
7
 10
-1.92500074E+02
 20
2.93499969E+02
 11
-1.82500044E+02
 21
2.93499969E+02
  0
LINE
  8
0
 62
7
 10
-1.92500044E+02
 20
2.67500000E+02
 11
-1.92500044E+02
 21
2.93500000E+02
  0
LINE
  8
0
 62
7
 10
-1.93999914E+02
 20
2.91999817E+02
 11
-1.92499901E+02
 21
2.93499830E+02
  0
LINE
  8
0
 62
2
 10
-1.93320082E+02
 20
2.92679962E+02
 11
-1.82500044E+02
 21
2.92679962E+02
  0
LINE
  8
0
 62
7
 10
-1.92500074E+02
 20
2.67500000E+02
 11
-1.82500044E+02
 21
2.67500000E+02
  0
LINE
  8
0
 62
7
 10
-1.94000103E+02
 20
2.68999971E+02
 11
-1.92500090E+02
 21
2.67499959E+02
  0
LINE
  8
0
 62
2
 10
-1.93320082E+02
 20
2.68320007E+02
 11
-1.82500044E+02
 21
2.68320007E+02
  0
LINE
  8
0
 62
7
 10
-1.54000044E+02
 20
2.80500000E+02
 11
-1.54000044E+02
 21
2.93500000E+02
  0
LINE
  8
0
 62
7
 10
-1.54000044E+02
 20
2.80500000E+02
 11
-1.54000044E+02
 21
2.67500000E+02
  0
LINE
  8
0
 62
7
 10
-1.42000074E+02
 20
2.95500061E+02
 11
-1.40000029E+02
 21
2.95500061E+02
  0
LINE
  8
0
 62
7
 10
-1.51000029E+02
 20
2.67500000E+02
 11
-1.51000029E+02
 21
2.93500000E+02
  0
LINE
  8
0
 62
7
 10
-1.41999968E+02
 20
2.65499954E+02
 11
-1.40000044E+02
 21
2.65499954E+02
  0
LINE
  8
0
 62
7
 10
-1.54000044E+02
 20
2.93500000E+02
 11
-1.44000120E+02
 21
2.93500000E+02
  0
LINE
  8
0
 62
7
 10
-1.54000044E+02
 20
2.67500000E+02
 11
-1.44000013E+02
 21
2.67500000E+02
  0
LINE
  8
0
 62
7
 10
-1.44000024E+02
 20
2.67500005E+02
 11
-1.41999957E+02
 21
2.65499938E+02
  0
LINE
  8
0
 62
7
 10
-1.44000110E+02
 20
2.93500070E+02
 11
-1.42000086E+02
 21
2.95500094E+02
  0
LINE
  8
0
 62
7
 10
-1.57000044E+02
 20
2.92679962E+02
 11
-1.54000044E+02
 21
2.92679962E+02
  0
LINE
  8
0
 62
7
 10
-1.57000044E+02
 20
2.68320007E+02
 11
-1.54000044E+02
 21
2.68320007E+02
  0
ARC
  8
0
 62
7
 10
9.04999485E+01
 20
2.56000000E+02
 40
5.00000000E-01
 50
2.70000073E+02
 51
5.46415133E-05
  0
ARC
  8
0
 62
7
 10
8.84999790E+01
 20
2.25619736E+02
 40
5.00000000E-01
 50
2.71000347E+02
 51
5.46415133E-05
  0
ARC
  8
0
 62
7
 10
5.99999833E+01
 20
2.62500000E+02
 40
5.00000000E+00
 50
0.00000000E+00
 51
1.79999964E+02
  0
ARC
  8
0
 62
7
 10
5.99999833E+01
 20
2.62500000E+02
 40
5.00000000E+00
 50
1.79999977E+02
 51
1.00179127E-05
  0
ARC
  8
0
 62
7
 10
-6.50000439E+01
 20
2.62499939E+02
 40
5.00000000E+00
 50
0.00000000E+00
 51
1.79999964E+02
  0
ARC
  8
0
 62
7
 10
-6.50000439E+01
 20
2.62499939E+02
 40
5.00000000E+00
 50
1.79999977E+02
 51
1.00179127E-05
  0
CIRCLE
  8
0
 62
7
 10
-6.50000439E+01
 20
2.62499939E+02
 40
2.59999990E+00
  0
CIRCLE
  8
0
 62
7
 10
5.99999833E+01
 20
2.62500000E+02
 40
2.59999990E+00
  0
ARC
  8
0
 62
7
 10
-8.22654552E+01
 20
3.36622498E+02
 40
2.50000000E+00
 50
9.76913759E+01
 51
1.79999951E+02
  0
ARC
  8
0
 62
7
 10
-7.97345562E+01
 20
3.36622498E+02
 40
2.50000000E+00
 50
6.37281240E+00
 51
9.76913896E+01
  0
ARC
  8
0
 62
7
 10
-1.10265486E+02
 20
3.36622498E+02
 40
2.50000000E+00
 50
9.76913759E+01
 51
1.79999951E+02
  0
ARC
  8
0
 62
7
 10
-1.07734587E+02
 20
3.36622498E+02
 40
2.50000000E+00
 50
6.37281240E+00
 51
9.76913896E+01
  0
ARC
  8
0
 62
7
 10
9.04999485E+01
 20
3.05000000E+02
 40
5.00000000E-01
 50
5.46415133E-05
 51
9.00000369E+01
  0
CIRCLE
  8
0
 62
7
 10
-9.50000134E+01
 20
2.92500061E+02
 40
9.25000000E+00
  0
CIRCLE
  8
0
 62
2
 10
-9.50000439E+01
 20
2.92500000E+02
 40
1.04775009E+01
  0
ARC
  8
0
 62
7
 10
8.84999790E+01
 20
3.35380280E+02
 40
5.00000000E-01
 50
5.46415133E-05
 51
8.89997626E+01
  0
CIRCLE
  8
0
 62
7
 10
6.89998589E+01
 20
2.92500061E+02
 40
9.25000000E+00
  0
CIRCLE
  8
0
 62
2
 10
6.89998837E+01
 20
2.92500000E+02
 40
1.04775009E+01
  0
ARC
  8
0
 62
7
 10
-1.34000029E+02
 20
3.03999969E+02
 40
1.00000000E+00
 50
8.99999274E+01
 51
1.79999964E+02
  0
ARC
  8
0
 62
7
 10
-1.34000029E+02
 20
2.56999969E+02
 40
1.00000000E+00
 50
1.79999977E+02
 51
2.70000028E+02
  0
ARC
  8
0
 62
4
 10
-1.94498075E+02
 20
2.71499924E+02
 40
2.59980309E+01
 50
3.39746143E+02
 51
2.02538569E+01
  0
ARC
  8
0
 62
4
 10
-1.94498075E+02
 20
2.89499931E+02
 40
2.59980309E+01
 50
3.39746143E+02
 51
2.02538569E+01
  0
ARC
  8
0
 62
4
 10
-1.56502013E+02
 20
2.89499931E+02
 40
2.59980309E+01
 50
1.59746143E+02
 51
2.00253857E+02
  0
ARC
  8
0
 62
4
 10
-1.56502013E+02
 20
2.71499924E+02
 40
2.59980309E+01
 50
1.59746143E+02
 51
2.00253857E+02
  0
LINE
  8
0
 62
4
 10
-1.80892535E+02
 20
2.80499928E+02
 11
-1.70107553E+02
 21
2.80499928E+02
  0
LINE
  8
0
 62
4
 10
-1.68500044E+02
 20
2.98499935E+02
 11
-1.68500044E+02
 21
2.62500065E+02
  0
LINE
  8
0
 62
4
 10
-1.82500044E+02
 20
2.98499935E+02
 11
-1.82500044E+02
 21
2.62500065E+02
  0
LINE
  8
0
 62
4
 10
-1.82500044E+02
 20
2.98499935E+02
 11
-1.68500044E+02
 21
2.98499935E+02
  0
LINE
  8
0
 62
4
 10
-1.82500044E+02
 20
2.62500065E+02
 11
-1.68500044E+02
 21
2.62500065E+02
  0
LINE
  8
0
 62
7
 10
-1.68500044E+02
 20
2.93499969E+02
 11
-1.57000044E+02
 21
2.93499969E+02
  0
LINE
  8
0
 62
2
 10
-1.68500044E+02
 20
2.92679962E+02
 11
-1.57000044E+02
 21
2.92679962E+02
  0
LINE
  8
0
 62
7
 10
-1.68500044E+02
 20
2.67500000E+02
 11
-1.57000044E+02
 21
2.67500000E+02
  0
LINE
  8
0
 62
2
 10
-1.68500044E+02
 20
2.68320007E+02
 11
-1.57000044E+02
 21
2.68320007E+02
  0
LINE
  8
0
 62
4
 10
1.49999524E+01
 20
2.55715778E+02
 11
5.86597774E+00
 21
2.55715778E+02
  0
LINE
  8
0
 62
4
 10
1.49999524E+01
 20
2.52715778E+02
 11
4.13392693E+00
 21
2.52715778E+02
  0
LINE
  8
0
 62
6
 10
6.73200317E+00
 20
2.57215778E+02
 11
3.26790155E+00
 21
2.51215778E+02
  0
LINE
  8
0
  6
CENTER
 62
6
 10
4.99999523E+01
 20
2.54215778E+02
 11
-4.76658308E-05
 21
2.54215778E+02
  0
LINE
  8
0
 62
4
 10
-1.40000439E+01
 20
3.05284237E+02
 11
-4.86606927E+00
 21
3.05284237E+02
  0
LINE
  8
0
 62
4
 10
-1.40000439E+01
 20
3.08284237E+02
 11
-3.13401847E+00
 21
3.08284237E+02
  0
LINE
  8
0
 62
6
 10
-5.73209470E+00
 20
3.03784237E+02
 11
-2.26799309E+00
 21
3.09784237E+02
  0
LINE
  8
0
  6
CENTER
 62
6
 10
-4.90000439E+01
 20
3.06784237E+02
 11
9.99956131E-01
 21
3.06784237E+02
  0
LINE
  8
0
 62
6
 10
2.79999523E+01
 20
2.26963346E+02
 11
2.79999523E+01
 21
2.28017928E+02
  0
LINE
  8
0
 62
6
 10
2.49999523E+01
 20
2.26963346E+02
 11
2.49999523E+01
 21
2.28017928E+02
  0
LINE
  8
0
 62
4
 10
2.84999523E+01
 20
2.27511934E+02
 11
2.84999523E+01
 21
2.28017928E+02
  0
LINE
  8
0
 62
4
 10
2.44999523E+01
 20
2.27511934E+02
 11
2.44999523E+01
 21
2.28017928E+02
  0
LINE
  8
0
 62
4
 10
2.99999523E+01
 20
2.28017928E+02
 11
2.99999523E+01
 21
2.41131565E+02
  0
LINE
  8
0
 62
4
 10
1.49999523E+01
 20
2.28017928E+02
 11
1.49999523E+01
 21
2.57139258E+02
  0
LINE
  8
0
 62
4
 10
4.49999523E+01
 20
2.41131565E+02
 11
4.49999523E+01
 21
2.54816976E+02
  0
LINE
  8
0
  6
CENTER
 62
6
 10
1.84999523E+01
 20
2.23234406E+02
 11
1.84999523E+01
 21
2.33499985E+02
  0
LINE
  8
0
  6
CENTER
 62
6
 10
2.64999523E+01
 20
2.23234406E+02
 11
2.64999523E+01
 21
2.33499985E+02
  0
LINE
  8
0
  6
CENTER
 62
6
 10
3.74999523E+01
 20
2.49870285E+02
 11
3.74999523E+01
 21
2.54870285E+02
  0
LINE
  8
0
 62
4
 10
1.99999523E+01
 20
2.55264829E+02
 11
1.99999523E+01
 21
2.56865087E+02
  0
LINE
  8
0
 62
4
 10
4.49999523E+01
 20
2.47999985E+02
 11
4.49999523E+01
 21
2.47599985E+02
  0
LINE
  8
0
 62
4
 10
2.14999523E+01
 20
2.55656827E+02
 11
2.14999523E+01
 21
2.56865087E+02
  0
LINE
  8
0
 62
4
 10
4.64999523E+01
 20
2.52714369E+02
 11
4.64999523E+01
 21
2.55714711E+02
  0
POLYLINE
  8
0
 62
4
 66
1
  0
VERTEX
  8
0
 62
4
 10
2.44999522E+01
 20
2.27511934E+02
  0
VERTEX
  8
0
 62
4
 10
2.45080037E+01
 20
2.27437588E+02
  0
VERTEX
  8
0
 62
4
 10
2.45320931E+01
 20
2.27363841E+02
  0
VERTEX
  8
0
 62
4
 10
2.45720265E+01
 20
2.27291287E+02
  0
VERTEX
  8
0
 62
4
 10
2.46274825E+01
 20
2.27220508E+02
  0
VERTEX
  8
0
 62
4
 10
2.46980145E+01
 20
2.27152077E+02
  0
VERTEX
  8
0
 62
4
 10
2.47830547E+01
 20
2.27086542E+02
  0
VERTEX
  8
0
 62
4
 10
2.48819183E+01
 20
2.27024433E+02
  0
VERTEX
  8
0
 62
4
 10
2.49938093E+01
 20
2.26966249E+02
  0
VERTEX
  8
0
 62
4
 10
2.51178270E+01
 20
2.26912458E+02
  0
VERTEX
  8
0
 62
4
 10
2.52529727E+01
 20
2.26863494E+02
  0
VERTEX
  8
0
 62
4
 10
2.53981583E+01
 20
2.26819750E+02
  0
VERTEX
  8
0
 62
4
 10
2.55522149E+01
 20
2.26781580E+02
  0
VERTEX
  8
0
 62
4
 10
2.57139022E+01
 20
2.26749290E+02
  0
VERTEX
  8
0
 62
4
 10
2.58819183E+01
 20
2.26723141E+02
  0
VERTEX
  8
0
 62
4
 10
2.60549104E+01
 20
2.26703342E+02
  0
VERTEX
  8
0
 62
4
 10
2.62314858E+01
 20
2.26690054E+02
  0
VERTEX
  8
0
 62
4
 10
2.64102226E+01
 20
2.26683383E+02
  0
VERTEX
  8
0
 62
4
 10
2.65896820E+01
 20
2.26683383E+02
  0
VERTEX
  8
0
 62
4
 10
2.67684188E+01
 20
2.26690054E+02
  0
VERTEX
  8
0
 62
4
 10
2.69449942E+01
 20
2.26703342E+02
  0
VERTEX
  8
0
 62
4
 10
2.71179863E+01
 20
2.26723141E+02
  0
VERTEX
  8
0
 62
4
 10
2.72860024E+01
 20
2.26749290E+02
  0
VERTEX
  8
0
 62
4
 10
2.74476896E+01
 20
2.26781580E+02
  0
VERTEX
  8
0
 62
4
 10
2.76017463E+01
 20
2.26819750E+02
  0
VERTEX
  8
0
 62
4
 10
2.77469319E+01
 20
2.26863494E+02
  0
VERTEX
  8
0
 62
4
 10
2.78820776E+01
 20
2.26912458E+02
  0
VERTEX
  8
0
 62
4
 10
2.80060953E+01
 20
2.26966249E+02
  0
VERTEX
  8
0
 62
4
 10
2.81179863E+01
 20
2.27024433E+02
  0
VERTEX
  8
0
 62
4
 10
2.82168499E+01
 20
2.27086542E+02
  0
VERTEX
  8
0
 62
4
 10
2.83018901E+01
 20
2.27152077E+02
  0
VERTEX
  8
0
 62
4
 10
2.83724221E+01
 20
2.27220508E+02
  0
VERTEX
  8
0
 62
4
 10
2.84278781E+01
 20
2.27291287E+02
  0
VERTEX
  8
0
 62
4
 10
2.84678115E+01
 20
2.27363841E+02
  0
VERTEX
  8
0
 62
4
 10
2.84919009E+01
 20
2.27437588E+02
  0
VERTEX
  8
0
 62
4
 10
2.84999524E+01
 20
2.27511934E+02
  0
SEQEND
  8
0
  0
LINE
  8
0
 62
6
 10
1.69999523E+01
 20
2.26963346E+02
 11
1.69999523E+01
 21
2.28017928E+02
  0
LINE
  8
0
 62
4
 10
1.64999523E+01
 20
2.27511934E+02
 11
1.64999523E+01
 21
2.28017928E+02
  0
POLYLINE
  8
0
 62
4
 66
1
  0
VERTEX
  8
0
 62
4
 10
1.64999522E+01
 20
2.27511934E+02
  0
VERTEX
  8
0
 62
4
 10
1.65080037E+01
 20
2.27437588E+02
  0
VERTEX
  8
0
 62
4
 10
1.65320931E+01
 20
2.27363841E+02
  0
VERTEX
  8
0
 62
4
 10
1.65720265E+01
 20
2.27291287E+02
  0
VERTEX
  8
0
 62
4
 10
1.66274825E+01
 20
2.27220508E+02
  0
VERTEX
  8
0
 62
4
 10
1.66980145E+01
 20
2.27152077E+02
  0
VERTEX
  8
0
 62
4
 10
1.67830547E+01
 20
2.27086542E+02
  0
VERTEX
  8
0
 62
4
 10
1.68819183E+01
 20
2.27024433E+02
  0
VERTEX
  8
0
 62
4
 10
1.69938093E+01
 20
2.26966249E+02
  0
VERTEX
  8
0
 62
4
 10
1.71178270E+01
 20
2.26912458E+02
  0
VERTEX
  8
0
 62
4
 10
1.72529727E+01
 20
2.26863494E+02
  0
VERTEX
  8
0
 62
4
 10
1.73981583E+01
 20
2.26819750E+02
  0
VERTEX
  8
0
 62
4
 10
1.75522149E+01
 20
2.26781580E+02
  0
VERTEX
  8
0
 62
4
 10
1.77139022E+01
 20
2.26749290E+02
  0
VERTEX
  8
0
 62
4
 10
1.78819183E+01
 20
2.26723141E+02
  0
VERTEX
  8
0
 62
4
 10
1.80549104E+01
 20
2.26703342E+02
  0
VERTEX
  8
0
 62
4
 10
1.82314858E+01
 20
2.26690054E+02
  0
VERTEX
  8
0
 62
4
 10
1.84102226E+01
 20
2.26683383E+02
  0
VERTEX
  8
0
 62
4
 10
1.85896820E+01
 20
2.26683383E+02
  0
VERTEX
  8
0
 62
4
 10
1.87684188E+01
 20
2.26690054E+02
  0
VERTEX
  8
0
 62
4
 10
1.89449942E+01
 20
2.26703342E+02
  0
VERTEX
  8
0
 62
4
 10
1.91179863E+01
 20
2.26723141E+02
  0
VERTEX
  8
0
 62
4
 10
1.92860024E+01
 20
2.26749290E+02
  0
VERTEX
  8
0
 62
4
 10
1.94476896E+01
 20
2.26781580E+02
  0
VERTEX
  8
0
 62
4
 10
1.96017463E+01
 20
2.26819750E+02
  0
VERTEX
  8
0
 62
4
 10
1.97469319E+01
 20
2.26863494E+02
  0
VERTEX
  8
0
 62
4
 10
1.98820776E+01
 20
2.26912458E+02
  0
VERTEX
  8
0
 62
4
 10
2.00060953E+01
 20
2.26966249E+02
  0
VERTEX
  8
0
 62
4
 10
2.01179863E+01
 20
2.27024433E+02
  0
VERTEX
  8
0
 62
4
 10
2.02168499E+01
 20
2.27086542E+02
  0
VERTEX
  8
0
 62
4
 10
2.03018901E+01
 20
2.27152077E+02
  0
VERTEX
  8
0
 62
4
 10
2.03724221E+01
 20
2.27220508E+02
  0
VERTEX
  8
0
 62
4
 10
2.04278781E+01
 20
2.27291287E+02
  0
VERTEX
  8
0
 62
4
 10
2.04678115E+01
 20
2.27363841E+02
  0
VERTEX
  8
0
 62
4
 10
2.04919009E+01
 20
2.27437588E+02
  0
VERTEX
  8
0
 62
4
 10
2.04999524E+01
 20
2.27511934E+02
  0
SEQEND
  8
0
  0
LINE
  8
0
 62
6
 10
1.99999523E+01
 20
2.26963346E+02
 11
1.99999523E+01
 21
2.28017928E+02
  0
LINE
  8
0
 62
4
 10
2.04999523E+01
 20
2.27511934E+02
 11
2.04999523E+01
 21
2.28017928E+02
  0
LINE
  8
0
 62
4
 10
2.99999523E+01
 20
2.28017928E+02
 11
1.49999523E+01
 21
2.28017928E+02
  0
LINE
  8
0
 62
4
 10
2.99999523E+01
 20
2.34761836E+02
 11
1.49999523E+01
 21
2.34761836E+02
  0
LINE
  8
0
 62
4
 10
4.49999523E+01
 20
2.41131565E+02
 11
1.49999523E+01
 21
2.41131565E+02
  0
LINE
  8
0
 62
4
 10
4.49999523E+01
 20
2.50504166E+02
 11
1.49999523E+01
 21
2.50504166E+02
  0
LINE
  8
0
 62
4
 10
4.49999523E+01
 20
2.57139258E+02
 11
3.25108827E+01
 21
2.57139258E+02
  0
LINE
  8
0
 62
4
 10
4.49999523E+01
 20
2.51566469E+02
 11
4.64999523E+01
 21
2.52714369E+02
  0
LINE
  8
0
 62
4
 10
4.49999523E+01
 20
2.55206314E+02
 11
3.41499523E+01
 21
2.55206314E+02
  0
LINE
  8
0
 62
4
 10
4.64999523E+01
 20
2.54775431E+02
 11
4.49999523E+01
 21
2.55206314E+02
  0
LINE
  8
0
 62
4
 10
4.49999523E+01
 20
2.56865087E+02
 11
3.31994431E+01
 21
2.56865087E+02
  0
LINE
  8
0
 62
4
 10
4.64999523E+01
 20
2.55714711E+02
 11
4.49999523E+01
 21
2.56865087E+02
  0
LINE
  8
0
 62
4
 10
4.49999523E+01
 20
2.54816976E+02
 11
3.41499523E+01
 21
2.54816976E+02
  0
LINE
  8
0
 62
4
 10
4.49999523E+01
 20
2.54816976E+02
 11
4.49999523E+01
 21
2.56865087E+02
  0
LINE
  8
0
 62
4
 10
4.49999523E+01
 20
2.56865087E+02
 11
4.49999523E+01
 21
2.57139258E+02
  0
LINE
  8
0
 62
4
 10
2.62999523E+01
 20
2.52370285E+02
 11
2.62999523E+01
 21
2.53280247E+02
  0
LINE
  8
0
 62
4
 10
1.86999523E+01
 20
2.53280247E+02
 11
1.86999523E+01
 21
2.52370285E+02
  0
LINE
  8
0
 62
4
 10
2.58999523E+01
 20
2.53280247E+02
 11
2.58999523E+01
 21
2.54309233E+02
  0
LINE
  8
0
 62
4
 10
1.90999523E+01
 20
2.53280247E+02
 11
1.90999523E+01
 21
2.54309233E+02
  0
LINE
  8
0
 62
4
 10
2.58499523E+01
 20
2.54550148E+02
 11
2.58499523E+01
 21
2.55769029E+02
  0
LINE
  8
0
 62
4
 10
3.41499523E+01
 20
2.55769029E+02
 11
3.41499523E+01
 21
2.54167497E+02
  0
POLYLINE
  8
0
 62
4
 66
1
  0
VERTEX
  8
0
 62
4
 10
2.62999523E+01
 20
2.53191433E+02
  0
VERTEX
  8
0
 62
4
 10
2.64498530E+01
 20
2.53057416E+02
  0
VERTEX
  8
0
 62
4
 10
2.66279125E+01
 20
2.52929461E+02
  0
VERTEX
  8
0
 62
4
 10
2.68327186E+01
 20
2.52808584E+02
  0
VERTEX
  8
0
 62
4
 10
2.70626468E+01
 20
2.52695743E+02
  0
VERTEX
  8
0
 62
4
 10
2.73158733E+01
 20
2.52591832E+02
  0
VERTEX
  8
0
 62
4
 10
2.75903895E+01
 20
2.52497677E+02
  0
VERTEX
  8
0
 62
4
 10
2.78840180E+01
 20
2.52414024E+02
  0
VERTEX
  8
0
 62
4
 10
2.81944299E+01
 20
2.52341537E+02
  0
VERTEX
  8
0
 62
4
 10
2.85191628E+01
 20
2.52280790E+02
  0
VERTEX
  8
0
 62
4
 10
2.88556412E+01
 20
2.52232265E+02
  0
VERTEX
  8
0
 62
4
 10
2.92011962E+01
 20
2.52196348E+02
  0
VERTEX
  8
0
 62
4
 10
2.95530867E+01
 20
2.52173323E+02
  0
VERTEX
  8
0
 62
4
 10
2.99085217E+01
 20
2.52163372E+02
  0
VERTEX
  8
0
 62
4
 10
3.02646819E+01
 20
2.52166576E+02
  0
VERTEX
  8
0
 62
4
 10
3.06187424E+01
 20
2.52182908E+02
  0
VERTEX
  8
0
 62
4
 10
3.09678946E+01
 20
2.52212238E+02
  0
VERTEX
  8
0
 62
4
 10
3.13093693E+01
 20
2.52254335E+02
  0
VERTEX
  8
0
 62
4
 10
3.16404579E+01
 20
2.52308863E+02
  0
VERTEX
  8
0
 62
4
 10
3.19585342E+01
 20
2.52375392E+02
  0
VERTEX
  8
0
 62
4
 10
3.22610753E+01
 20
2.52453393E+02
  0
VERTEX
  8
0
 62
4
 10
3.25456815E+01
 20
2.52542246E+02
  0
VERTEX
  8
0
 62
4
 10
3.28100953E+01
 20
2.52641249E+02
  0
VERTEX
  8
0
 62
4
 10
3.30522195E+01
 20
2.52749614E+02
  0
VERTEX
  8
0
 62
4
 10
3.32701335E+01
 20
2.52866484E+02
  0
VERTEX
  8
0
 62
4
 10
3.34621089E+01
 20
2.52990930E+02
  0
VERTEX
  8
0
 62
4
 10
3.36266229E+01
 20
2.53121966E+02
  0
VERTEX
  8
0
 62
4
 10
3.37623707E+01
 20
2.53258552E+02
  0
VERTEX
  8
0
 62
4
 10
3.38682755E+01
 20
2.53399605E+02
  0
VERTEX
  8
0
 62
4
 10
3.39434973E+01
 20
2.53544006E+02
  0
VERTEX
  8
0
 62
4
 10
3.39874395E+01
 20
2.53690610E+02
  0
SEQEND
  8
0
  0
POLYLINE
  8
0
 62
4
 66
1
  0
VERTEX
  8
0
 62
4
 10
2.62895778E+01
 20
2.53396611E+02
  0
VERTEX
  8
0
 62
4
 10
2.64700086E+01
 20
2.53262553E+02
  0
VERTEX
  8
0
 62
4
 10
2.66785312E+01
 20
2.53135697E+02
  0
VERTEX
  8
0
 62
4
 10
2.69134861E+01
 20
2.53017052E+02
  0
VERTEX
  8
0
 62
4
 10
2.71730034E+01
 20
2.52907562E+02
  0
VERTEX
  8
0
 62
4
 10
2.74550180E+01
 20
2.52808099E+02
  0
VERTEX
  8
0
 62
4
 10
2.77572855E+01
 20
2.52719455E+02
  0
VERTEX
  8
0
 62
4
 10
2.80774004E+01
 20
2.52642334E+02
  0
VERTEX
  8
0
 62
4
 10
2.84128153E+01
 20
2.52577350E+02
  0
VERTEX
  8
0
 62
4
 10
2.87608608E+01
 20
2.52525021E+02
  0
VERTEX
  8
0
 62
4
 10
2.91187671E+01
 20
2.52485763E+02
  0
VERTEX
  8
0
 62
4
 10
2.94836860E+01
 20
2.52459889E+02
  0
VERTEX
  8
0
 62
4
 10
2.98527134E+01
 20
2.52447604E+02
  0
VERTEX
  8
0
 62
4
 10
3.02229126E+01
 20
2.52449006E+02
  0
VERTEX
  8
0
 62
4
 10
3.05913374E+01
 20
2.52464084E+02
  0
VERTEX
  8
0
 62
4
 10
3.09550559E+01
 20
2.52492718E+02
  0
VERTEX
  8
0
 62
4
 10
3.13111736E+01
 20
2.52534680E+02
  0
VERTEX
  8
0
 62
4
 10
3.16568564E+01
 20
2.52589636E+02
  0
VERTEX
  8
0
 62
4
 10
3.19893533E+01
 20
2.52657149E+02
  0
VERTEX
  8
0
 62
4
 10
3.23060184E+01
 20
2.52736682E+02
  0
VERTEX
  8
0
 62
4
 10
3.26043314E+01
 20
2.52827601E+02
  0
VERTEX
  8
0
 62
4
 10
3.28819185E+01
 20
2.52929183E+02
  0
VERTEX
  8
0
 62
4
 10
3.31365706E+01
 20
2.53040620E+02
  0
VERTEX
  8
0
 62
4
 10
3.33662610E+01
 20
2.53161025E+02
  0
VERTEX
  8
0
 62
4
 10
3.35691619E+01
 20
2.53289439E+02
  0
VERTEX
  8
0
 62
4
 10
3.37436586E+01
 20
2.53424841E+02
  0
VERTEX
  8
0
 62
4
 10
3.38883624E+01
 20
2.53566154E+02
  0
VERTEX
  8
0
 62
4
 10
3.40021217E+01
 20
2.53712251E+02
  0
VERTEX
  8
0
 62
4
 10
3.40840313E+01
 20
2.53861972E+02
  0
VERTEX
  8
0
 62
4
 10
3.41334392E+01
 20
2.54014124E+02
  0
VERTEX
  8
0
 62
4
 10
3.41499523E+01
 20
2.54167497E+02
  0
SEQEND
  8
0
  0
POLYLINE
  8
0
 62
4
 66
1
  0
VERTEX
  8
0
 62
4
 10
3.41499523E+01
 20
2.55769029E+02
  0
VERTEX
  8
0
 62
4
 10
3.41341603E+01
 20
2.55919022E+02
  0
VERTEX
  8
0
 62
4
 10
3.40869045E+01
 20
2.56067874E+02
  0
VERTEX
  8
0
 62
4
 10
3.40085445E+01
 20
2.56214451E+02
  0
VERTEX
  8
0
 62
4
 10
3.38996767E+01
 20
2.56357638E+02
  0
VERTEX
  8
0
 62
4
 10
3.37611296E+01
 20
2.56496345E+02
  0
VERTEX
  8
0
 62
4
 10
3.35939577E+01
 20
2.56629517E+02
  0
VERTEX
  8
0
 62
4
 10
3.33994333E+01
 20
2.56756141E+02
  0
VERTEX
  8
0
 62
4
 10
3.31790367E+01
 20
2.56875252E+02
  0
VERTEX
  8
0
 62
4
 10
3.29344454E+01
 20
2.56985943E+02
  0
VERTEX
  8
0
 62
4
 10
3.26675209E+01
 20
2.57087374E+02
  0
VERTEX
  8
0
 62
4
 10
3.23802945E+01
 20
2.57178771E+02
  0
VERTEX
  8
0
 62
4
 10
3.20749523E+01
 20
2.57259439E+02
  0
VERTEX
  8
0
 62
4
 10
3.17538181E+01
 20
2.57328764E+02
  0
VERTEX
  8
0
 62
4
 10
3.14193359E+01
 20
2.57386218E+02
  0
VERTEX
  8
0
 62
4
 10
3.10740513E+01
 20
2.57431365E+02
  0
VERTEX
  8
0
 62
4
 10
3.07205922E+01
 20
2.57463860E+02
  0
VERTEX
  8
0
 62
4
 10
3.03616486E+01
 20
2.57483457E+02
  0
VERTEX
  8
0
 62
4
 10
2.99999523E+01
 20
2.57490006E+02
  0
VERTEX
  8
0
 62
4
 10
2.96382560E+01
 20
2.57483457E+02
  0
VERTEX
  8
0
 62
4
 10
2.92793124E+01
 20
2.57463860E+02
  0
VERTEX
  8
0
 62
4
 10
2.89258533E+01
 20
2.57431365E+02
  0
VERTEX
  8
0
 62
4
 10
2.85805687E+01
 20
2.57386218E+02
  0
VERTEX
  8
0
 62
4
 10
2.82460865E+01
 20
2.57328764E+02
  0
VERTEX
  8
0
 62
4
 10
2.79249523E+01
 20
2.57259439E+02
  0
VERTEX
  8
0
 62
4
 10
2.76196101E+01
 20
2.57178771E+02
  0
VERTEX
  8
0
 62
4
 10
2.73323837E+01
 20
2.57087374E+02
  0
VERTEX
  8
0
 62
4
 10
2.70654592E+01
 20
2.56985943E+02
  0
VERTEX
  8
0
 62
4
 10
2.68208679E+01
 20
2.56875252E+02
  0
VERTEX
  8
0
 62
4
 10
2.66004713E+01
 20
2.56756141E+02
  0
VERTEX
  8
0
 62
4
 10
2.64059469E+01
 20
2.56629517E+02
  0
VERTEX
  8
0
 62
4
 10
2.62387750E+01
 20
2.56496345E+02
  0
VERTEX
  8
0
 62
4
 10
2.61002279E+01
 20
2.56357638E+02
  0
VERTEX
  8
0
 62
4
 10
2.59913601E+01
 20
2.56214451E+02
  0
VERTEX
  8
0
 62
4
 10
2.59130001E+01
 20
2.56067874E+02
  0
VERTEX
  8
0
 62
4
 10
2.58657443E+01
 20
2.55919022E+02
  0
VERTEX
  8
0
 62
4
 10
2.58499523E+01
 20
2.55769029E+02
  0
VERTEX
  8
0
 62
4
 10
2.58657443E+01
 20
2.55619036E+02
  0
VERTEX
  8
0
 62
4
 10
2.59130001E+01
 20
2.55470184E+02
  0
VERTEX
  8
0
 62
4
 10
2.59913601E+01
 20
2.55323607E+02
  0
VERTEX
  8
0
 62
4
 10
2.61002279E+01
 20
2.55180420E+02
  0
VERTEX
  8
0
 62
4
 10
2.62387750E+01
 20
2.55041713E+02
  0
VERTEX
  8
0
 62
4
 10
2.64059469E+01
 20
2.54908541E+02
  0
VERTEX
  8
0
 62
4
 10
2.66004713E+01
 20
2.54781917E+02
  0
VERTEX
  8
0
 62
4
 10
2.68208679E+01
 20
2.54662806E+02
  0
VERTEX
  8
0
 62
4
 10
2.70654592E+01
 20
2.54552115E+02
  0
VERTEX
  8
0
 62
4
 10
2.73323837E+01
 20
2.54450684E+02
  0
VERTEX
  8
0
 62
4
 10
2.76196101E+01
 20
2.54359287E+02
  0
VERTEX
  8
0
 62
4
 10
2.79249523E+01
 20
2.54278619E+02
  0
VERTEX
  8
0
 62
4
 10
2.82460865E+01
 20
2.54209294E+02
  0
VERTEX
  8
0
 62
4
 10
2.85805687E+01
 20
2.54151840E+02
  0
VERTEX
  8
0
 62
4
 10
2.89258533E+01
 20
2.54106693E+02
  0
VERTEX
  8
0
 62
4
 10
2.92793124E+01
 20
2.54074198E+02
  0
VERTEX
  8
0
 62
4
 10
2.96382560E+01
 20
2.54054601E+02
  0
VERTEX
  8
0
 62
4
 10
2.99999523E+01
 20
2.54048052E+02
  0
VERTEX
  8
0
 62
4
 10
3.03616486E+01
 20
2.54054601E+02
  0
VERTEX
  8
0
 62
4
 10
3.07205922E+01
 20
2.54074198E+02
  0
VERTEX
  8
0
 62
4
 10
3.10740513E+01
 20
2.54106693E+02
  0
VERTEX
  8
0
 62
4
 10
3.14193359E+01
 20
2.54151840E+02
  0
VERTEX
  8
0
 62
4
 10
3.17538181E+01
 20
2.54209294E+02
  0
VERTEX
  8
0
 62
4
 10
3.20749523E+01
 20
2.54278619E+02
  0
VERTEX
  8
0
 62
4
 10
3.23802945E+01
 20
2.54359287E+02
  0
VERTEX
  8
0
 62
4
 10
3.26675209E+01
 20
2.54450684E+02
  0
VERTEX
  8
0
 62
4
 10
3.29344454E+01
 20
2.54552115E+02
  0
VERTEX
  8
0
 62
4
 10
3.31790367E+01
 20
2.54662806E+02
  0
VERTEX
  8
0
 62
4
 10
3.33994333E+01
 20
2.54781917E+02
  0
VERTEX
  8
0
 62
4
 10
3.35939577E+01
 20
2.54908541E+02
  0
VERTEX
  8
0
 62
4
 10
3.37611296E+01
 20
2.55041713E+02
  0
VERTEX
  8
0
 62
4
 10
3.38996767E+01
 20
2.55180420E+02
  0
VERTEX
  8
0
 62
4
 10
3.40085445E+01
 20
2.55323607E+02
  0
VERTEX
  8
0
 62
4
 10
3.40869045E+01
 20
2.55470184E+02
  0
VERTEX
  8
0
 62
4
 10
3.41341603E+01
 20
2.55619036E+02
  0
VERTEX
  8
0
 62
4
 10
3.41499523E+01
 20
2.55769029E+02
  0
SEQEND
  8
0
  0
ARC
  8
0
 62
4
 10
3.63695530E+01
 20
2.40984410E+02
 40
1.67245585E+01
 50
1.05971208E+02
 51
1.19114206E+02
  0
ARC
  8
0
 62
4
 10
2.36303483E+01
 20
2.40984401E+02
 40
1.67245676E+01
 50
6.08857978E+01
 51
7.40287885E+01
  0
POLYLINE
  8
0
 62
4
 66
1
  0
VERTEX
  8
0
 62
4
 10
1.86999523E+01
 20
2.52370285E+02
  0
VERTEX
  8
0
 62
4
 10
1.87152500E+01
 20
2.52229028E+02
  0
VERTEX
  8
0
 62
4
 10
1.87610199E+01
 20
2.52088909E+02
  0
VERTEX
  8
0
 62
4
 10
1.88368934E+01
 20
2.51951055E+02
  0
VERTEX
  8
0
 62
4
 10
1.89422598E+01
 20
2.51816576E+02
  0
VERTEX
  8
0
 62
4
 10
1.90762706E+01
 20
2.51686556E+02
  0
VERTEX
  8
0
 62
4
 10
1.92378469E+01
 20
2.51562041E+02
  0
VERTEX
  8
0
 62
4
 10
1.94256877E+01
 20
2.51444033E+02
  0
VERTEX
  8
0
 62
4
 10
1.96382807E+01
 20
2.51333483E+02
  0
VERTEX
  8
0
 62
4
 10
1.98739142E+01
 20
2.51231280E+02
  0
VERTEX
  8
0
 62
4
 10
2.01306910E+01
 20
2.51138248E+02
  0
VERTEX
  8
0
 62
4
 10
2.04065438E+01
 20
2.51055136E+02
  0
VERTEX
  8
0
 62
4
 10
2.06992514E+01
 20
2.50982612E+02
  0
VERTEX
  8
0
 62
4
 10
2.10064572E+01
 20
2.50921262E+02
  0
VERTEX
  8
0
 62
4
 10
2.13256877E+01
 20
2.50871578E+02
  0
VERTEX
  8
0
 62
4
 10
2.16543727E+01
 20
2.50833960E+02
  0
VERTEX
  8
0
 62
4
 10
2.19898659E+01
 20
2.50808712E+02
  0
VERTEX
  8
0
 62
4
 10
2.23294659E+01
 20
2.50796037E+02
  0
VERTEX
  8
0
 62
4
 10
2.26704386E+01
 20
2.50796037E+02
  0
VERTEX
  8
0
 62
4
 10
2.30100387E+01
 20
2.50808712E+02
  0
VERTEX
  8
0
 62
4
 10
2.33455318E+01
 20
2.50833960E+02
  0
VERTEX
  8
0
 62
4
 10
2.36742169E+01
 20
2.50871577E+02
  0
VERTEX
  8
0
 62
4
 10
2.39934474E+01
 20
2.50921262E+02
  0
VERTEX
  8
0
 62
4
 10
2.43006532E+01
 20
2.50982612E+02
  0
VERTEX
  8
0
 62
4
 10
2.45933608E+01
 20
2.51055136E+02
  0
VERTEX
  8
0
 62
4
 10
2.48692135E+01
 20
2.51138248E+02
  0
VERTEX
  8
0
 62
4
 10
2.51259903E+01
 20
2.51231280E+02
  0
VERTEX
  8
0
 62
4
 10
2.53616239E+01
 20
2.51333483E+02
  0
VERTEX
  8
0
 62
4
 10
2.55742169E+01
 20
2.51444033E+02
  0
VERTEX
  8
0
 62
4
 10
2.57620577E+01
 20
2.51562041E+02
  0
VERTEX
  8
0
 62
4
 10
2.59236340E+01
 20
2.51686556E+02
  0
VERTEX
  8
0
 62
4
 10
2.60576448E+01
 20
2.51816576E+02
  0
VERTEX
  8
0
 62
4
 10
2.61630112E+01
 20
2.51951055E+02
  0
VERTEX
  8
0
 62
4
 10
2.62388847E+01
 20
2.52088909E+02
  0
VERTEX
  8
0
 62
4
 10
2.62846546E+01
 20
2.52229028E+02
  0
VERTEX
  8
0
 62
4
 10
2.62999523E+01
 20
2.52370285E+02
  0
SEQEND
  8
0
  0
POLYLINE
  8
0
 62
4
 66
1
  0
VERTEX
  8
0
 62
4
 10
1.90999523E+01
 20
2.53984005E+02
  0
VERTEX
  8
0
 62
4
 10
1.89633706E+01
 20
2.53856744E+02
  0
VERTEX
  8
0
 62
4
 10
1.88544228E+01
 20
2.53724978E+02
  0
VERTEX
  8
0
 62
4
 10
1.87739600E+01
 20
2.53589737E+02
  0
VERTEX
  8
0
 62
4
 10
1.87226110E+01
 20
2.53452079E+02
  0
VERTEX
  8
0
 62
4
 10
1.87007770E+01
 20
2.53313077E+02
  0
VERTEX
  8
0
 62
4
 10
1.87086287E+01
 20
2.53173819E+02
  0
VERTEX
  8
0
 62
4
 10
1.87461047E+01
 20
2.53035393E+02
  0
VERTEX
  8
0
 62
4
 10
1.88129121E+01
 20
2.52898879E+02
  0
VERTEX
  8
0
 62
4
 10
1.89085289E+01
 20
2.52765346E+02
  0
VERTEX
  8
0
 62
4
 10
1.90322081E+01
 20
2.52635836E+02
  0
VERTEX
  8
0
 62
4
 10
1.91829832E+01
 20
2.52511361E+02
  0
VERTEX
  8
0
 62
4
 10
1.93596761E+01
 20
2.52392894E+02
  0
VERTEX
  8
0
 62
4
 10
1.95609061E+01
 20
2.52281361E+02
  0
VERTEX
  8
0
 62
4
 10
1.97851011E+01
 20
2.52177632E+02
  0
VERTEX
  8
0
 62
4
 10
2.00305090E+01
 20
2.52082519E+02
  0
VERTEX
  8
0
 62
4
 10
2.02952125E+01
 20
2.51996765E+02
  0
VERTEX
  8
0
 62
4
 10
2.05771431E+01
 20
2.51921039E+02
  0
VERTEX
  8
0
 62
4
 10
2.08740980E+01
 20
2.51855934E+02
  0
VERTEX
  8
0
 62
4
 10
2.11837569E+01
 20
2.51801958E+02
  0
VERTEX
  8
0
 62
4
 10
2.15037001E+01
 20
2.51759533E+02
  0
VERTEX
  8
0
 62
4
 10
2.18314277E+01
 20
2.51728991E+02
  0
VERTEX
  8
0
 62
4
 10
2.21643790E+01
 20
2.51710569E+02
  0
VERTEX
  8
0
 62
4
 10
2.24999523E+01
 20
2.51704413E+02
  0
VERTEX
  8
0
 62
4
 10
2.28355257E+01
 20
2.51710569E+02
  0
VERTEX
  8
0
 62
4
 10
2.31684769E+01
 20
2.51728991E+02
  0
VERTEX
  8
0
 62
4
 10
2.34962046E+01
 20
2.51759533E+02
  0
VERTEX
  8
0
 62
4
 10
2.38161478E+01
 20
2.51801958E+02
  0
VERTEX
  8
0
 62
4
 10
2.41258066E+01
 20
2.51855934E+02
  0
VERTEX
  8
0
 62
4
 10
2.44227615E+01
 20
2.51921039E+02
  0
VERTEX
  8
0
 62
4
 10
2.47046922E+01
 20
2.51996765E+02
  0
VERTEX
  8
0
 62
4
 10
2.49693956E+01
 20
2.52082519E+02
  0
VERTEX
  8
0
 62
4
 10
2.52148036E+01
 20
2.52177632E+02
  0
VERTEX
  8
0
 62
4
 10
2.54389985E+01
 20
2.52281361E+02
  0
VERTEX
  8
0
 62
4
 10
2.56402286E+01
 20
2.52392894E+02
  0
VERTEX
  8
0
 62
4
 10
2.58169215E+01
 20
2.52511361E+02
  0
VERTEX
  8
0
 62
4
 10
2.59676965E+01
 20
2.52635836E+02
  0
VERTEX
  8
0
 62
4
 10
2.60913757E+01
 20
2.52765346E+02
  0
VERTEX
  8
0
 62
4
 10
2.61869925E+01
 20
2.52898879E+02
  0
VERTEX
  8
0
 62
4
 10
2.62537999E+01
 20
2.53035393E+02
  0
VERTEX
  8
0
 62
4
 10
2.62912759E+01
 20
2.53173819E+02
  0
VERTEX
  8
0
 62
4
 10
2.62991275E+01
 20
2.53313077E+02
  0
VERTEX
  8
0
 62
4
 10
2.62772936E+01
 20
2.53452079E+02
  0
VERTEX
  8
0
 62
4
 10
2.62259446E+01
 20
2.53589737E+02
  0
VERTEX
  8
0
 62
4
 10
2.61454818E+01
 20
2.53724978E+02
  0
VERTEX
  8
0
 62
4
 10
2.60365340E+01
 20
2.53856744E+02
  0
VERTEX
  8
0
 62
4
 10
2.58999523E+01
 20
2.53984005E+02
  0
SEQEND
  8
0
  0
POLYLINE
  8
0
 62
4
 66
1
  0
VERTEX
  8
0
 62
4
 10
1.90999523E+01
 20
2.53280247E+02
  0
VERTEX
  8
0
 62
4
 10
1.91136397E+01
 20
2.53153859E+02
  0
VERTEX
  8
0
 62
4
 10
1.91545917E+01
 20
2.53028489E+02
  0
VERTEX
  8
0
 62
4
 10
1.92224786E+01
 20
2.52905146E+02
  0
VERTEX
  8
0
 62
4
 10
1.93167537E+01
 20
2.52784824E+02
  0
VERTEX
  8
0
 62
4
 10
1.94366581E+01
 20
2.52668490E+02
  0
VERTEX
  8
0
 62
4
 10
1.95812264E+01
 20
2.52557081E+02
  0
VERTEX
  8
0
 62
4
 10
1.97492945E+01
 20
2.52451495E+02
  0
VERTEX
  8
0
 62
4
 10
1.99395093E+01
 20
2.52352582E+02
  0
VERTEX
  8
0
 62
4
 10
2.01503393E+01
 20
2.52261137E+02
  0
VERTEX
  8
0
 62
4
 10
2.03800870E+01
 20
2.52177898E+02
  0
VERTEX
  8
0
 62
4
 10
2.06269025E+01
 20
2.52103535E+02
  0
VERTEX
  8
0
 62
4
 10
2.08887988E+01
 20
2.52038645E+02
  0
VERTEX
  8
0
 62
4
 10
2.11636672E+01
 20
2.51983752E+02
  0
VERTEX
  8
0
 62
4
 10
2.14492945E+01
 20
2.51939298E+02
  0
VERTEX
  8
0
 62
4
 10
2.17433811E+01
 20
2.51905641E+02
  0
VERTEX
  8
0
 62
4
 10
2.20435592E+01
 20
2.51883050E+02
  0
VERTEX
  8
0
 62
4
 10
2.23474119E+01
 20
2.51871710E+02
  0
VERTEX
  8
0
 62
4
 10
2.26524927E+01
 20
2.51871710E+02
  0
VERTEX
  8
0
 62
4
 10
2.29563454E+01
 20
2.51883050E+02
  0
VERTEX
  8
0
 62
4
 10
2.32565235E+01
 20
2.51905641E+02
  0
VERTEX
  8
0
 62
4
 10
2.35506101E+01
 20
2.51939298E+02
  0
VERTEX
  8
0
 62
4
 10
2.38362374E+01
 20
2.51983752E+02
  0
VERTEX
  8
0
 62
4
 10
2.41111057E+01
 20
2.52038645E+02
  0
VERTEX
  8
0
 62
4
 10
2.43730020E+01
 20
2.52103535E+02
  0
VERTEX
  8
0
 62
4
 10
2.46198176E+01
 20
2.52177898E+02
  0
VERTEX
  8
0
 62
4
 10
2.48495653E+01
 20
2.52261137E+02
  0
VERTEX
  8
0
 62
4
 10
2.50603953E+01
 20
2.52352582E+02
  0
VERTEX
  8
0
 62
4
 10
2.52506101E+01
 20
2.52451495E+02
  0
VERTEX
  8
0
 62
4
 10
2.54186782E+01
 20
2.52557081E+02
  0
VERTEX
  8
0
 62
4
 10
2.55632464E+01
 20
2.52668490E+02
  0
VERTEX
  8
0
 62
4
 10
2.56831509E+01
 20
2.52784824E+02
  0
VERTEX
  8
0
 62
4
 10
2.57774260E+01
 20
2.52905146E+02
  0
VERTEX
  8
0
 62
4
 10
2.58453129E+01
 20
2.53028489E+02
  0
VERTEX
  8
0
 62
4
 10
2.58862649E+01
 20
2.53153859E+02
  0
VERTEX
  8
0
 62
4
 10
2.58999523E+01
 20
2.53280247E+02
  0
SEQEND
  8
0
  0
POLYLINE
  8
0
 62
4
 66
1
  0
VERTEX
  8
0
 62
4
 10
2.58999523E+01
 20
2.54309233E+02
  0
VERTEX
  8
0
 62
4
 10
2.58870143E+01
 20
2.54432119E+02
  0
VERTEX
  8
0
 62
4
 10
2.58482987E+01
 20
2.54554069E+02
  0
VERTEX
  8
0
 62
4
 10
2.57841001E+01
 20
2.54674157E+02
  0
VERTEX
  8
0
 62
4
 10
2.56949072E+01
 20
2.54791467E+02
  0
VERTEX
  8
0
 62
4
 10
2.55813988E+01
 20
2.54905107E+02
  0
VERTEX
  8
0
 62
4
 10
2.54444387E+01
 20
2.55014212E+02
  0
VERTEX
  8
0
 62
4
 10
2.52850693E+01
 20
2.55117951E+02
  0
VERTEX
  8
0
 62
4
 10
2.51045034E+01
 20
2.55215536E+02
  0
VERTEX
  8
0
 62
4
 10
2.49041154E+01
 20
2.55306223E+02
  0
VERTEX
  8
0
 62
4
 10
2.46854302E+01
 20
2.55389323E+02
  0
VERTEX
  8
0
 62
4
 10
2.44501122E+01
 20
2.55464202E+02
  0
VERTEX
  8
0
 62
4
 10
2.41999523E+01
 20
2.55530292E+02
  0
VERTEX
  8
0
 62
4
 10
2.39368544E+01
 20
2.55587088E+02
  0
VERTEX
  8
0
 62
4
 10
2.36628208E+01
 20
2.55634159E+02
  0
VERTEX
  8
0
 62
4
 10
2.33799371E+01
 20
2.55671147E+02
  0
VERTEX
  8
0
 62
4
 10
2.30903561E+01
 20
2.55697770E+02
  0
VERTEX
  8
0
 62
4
 10
2.27962818E+01
 20
2.55713825E+02
  0
VERTEX
  8
0
 62
4
 10
2.24999523E+01
 20
2.55719190E+02
  0
VERTEX
  8
0
 62
4
 10
2.22036228E+01
 20
2.55713825E+02
  0
VERTEX
  8
0
 62
4
 10
2.19095485E+01
 20
2.55697770E+02
  0
VERTEX
  8
0
 62
4
 10
2.16199675E+01
 20
2.55671147E+02
  0
VERTEX
  8
0
 62
4
 10
2.13370838E+01
 20
2.55634159E+02
  0
VERTEX
  8
0
 62
4
 10
2.10630502E+01
 20
2.55587088E+02
  0
VERTEX
  8
0
 62
4
 10
2.07999523E+01
 20
2.55530292E+02
  0
VERTEX
  8
0
 62
4
 10
2.05497924E+01
 20
2.55464202E+02
  0
VERTEX
  8
0
 62
4
 10
2.03144744E+01
 20
2.55389323E+02
  0
VERTEX
  8
0
 62
4
 10
2.00957892E+01
 20
2.55306223E+02
  0
VERTEX
  8
0
 62
4
 10
1.98954012E+01
 20
2.55215536E+02
  0
VERTEX
  8
0
 62
4
 10
1.97148353E+01
 20
2.55117951E+02
  0
VERTEX
  8
0
 62
4
 10
1.95554659E+01
 20
2.55014212E+02
  0
VERTEX
  8
0
 62
4
 10
1.94185058E+01
 20
2.54905107E+02
  0
VERTEX
  8
0
 62
4
 10
1.93049974E+01
 20
2.54791467E+02
  0
VERTEX
  8
0
 62
4
 10
1.92158045E+01
 20
2.54674157E+02
  0
VERTEX
  8
0
 62
4
 10
1.91516059E+01
 20
2.54554069E+02
  0
VERTEX
  8
0
 62
4
 10
1.91128903E+01
 20
2.54432119E+02
  0
VERTEX
  8
0
 62
4
 10
1.90999523E+01
 20
2.54309233E+02
  0
VERTEX
  8
0
 62
4
 10
1.91128903E+01
 20
2.54186347E+02
  0
VERTEX
  8
0
 62
4
 10
1.91516059E+01
 20
2.54064397E+02
  0
VERTEX
  8
0
 62
4
 10
1.92158045E+01
 20
2.53944309E+02
  0
VERTEX
  8
0
 62
4
 10
1.93049974E+01
 20
2.53826999E+02
  0
VERTEX
  8
0
 62
4
 10
1.94185058E+01
 20
2.53713359E+02
  0
VERTEX
  8
0
 62
4
 10
1.95554659E+01
 20
2.53604254E+02
  0
VERTEX
  8
0
 62
4
 10
1.97148354E+01
 20
2.53500515E+02
  0
VERTEX
  8
0
 62
4
 10
1.98954012E+01
 20
2.53402930E+02
  0
VERTEX
  8
0
 62
4
 10
2.00957892E+01
 20
2.53312243E+02
  0
VERTEX
  8
0
 62
4
 10
2.03144744E+01
 20
2.53229143E+02
  0
VERTEX
  8
0
 62
4
 10
2.05497924E+01
 20
2.53154264E+02
  0
VERTEX
  8
0
 62
4
 10
2.07999523E+01
 20
2.53088174E+02
  0
VERTEX
  8
0
 62
4
 10
2.10630502E+01
 20
2.53031378E+02
  0
VERTEX
  8
0
 62
4
 10
2.13370838E+01
 20
2.52984307E+02
  0
VERTEX
  8
0
 62
4
 10
2.16199676E+01
 20
2.52947319E+02
  0
VERTEX
  8
0
 62
4
 10
2.19095485E+01
 20
2.52920696E+02
  0
VERTEX
  8
0
 62
4
 10
2.22036228E+01
 20
2.52904641E+02
  0
VERTEX
  8
0
 62
4
 10
2.24999523E+01
 20
2.52899276E+02
  0
VERTEX
  8
0
 62
4
 10
2.27962818E+01
 20
2.52904641E+02
  0
VERTEX
  8
0
 62
4
 10
2.30903561E+01
 20
2.52920696E+02
  0
VERTEX
  8
0
 62
4
 10
2.33799371E+01
 20
2.52947319E+02
  0
VERTEX
  8
0
 62
4
 10
2.36628208E+01
 20
2.52984307E+02
  0
VERTEX
  8
0
 62
4
 10
2.39368544E+01
 20
2.53031378E+02
  0
VERTEX
  8
0
 62
4
 10
2.41999523E+01
 20
2.53088174E+02
  0
VERTEX
  8
0
 62
4
 10
2.44501122E+01
 20
2.53154264E+02
  0
VERTEX
  8
0
 62
4
 10
2.46854302E+01
 20
2.53229143E+02
  0
VERTEX
  8
0
 62
4
 10
2.49041154E+01
 20
2.53312243E+02
  0
VERTEX
  8
0
 62
4
 10
2.51045034E+01
 20
2.53402930E+02
  0
VERTEX
  8
0
 62
4
 10
2.52850693E+01
 20
2.53500515E+02
  0
VERTEX
  8
0
 62
4
 10
2.54444387E+01
 20
2.53604254E+02
  0
VERTEX
  8
0
 62
4
 10
2.55813988E+01
 20
2.53713359E+02
  0
VERTEX
  8
0
 62
4
 10
2.56949072E+01
 20
2.53826999E+02
  0
VERTEX
  8
0
 62
4
 10
2.57841001E+01
 20
2.53944309E+02
  0
VERTEX
  8
0
 62
4
 10
2.58482987E+01
 20
2.54064397E+02
  0
VERTEX
  8
0
 62
4
 10
2.58870143E+01
 20
2.54186347E+02
  0
VERTEX
  8
0
 62
4
 10
2.58999523E+01
 20
2.54309233E+02
  0
SEQEND
  8
0
  0
ARC
  8
0
 62
4
 10
2.87470105E+01
 20
2.40279330E+02
 40
1.64201370E+01
 50
1.10122188E+02
 51
1.19216401E+02
  0
ARC
  8
0
 62
4
 10
1.62528935E+01
 20
2.40279328E+02
 40
1.64201386E+01
 50
6.07835994E+01
 51
6.98778124E+01
  0
LINE
  8
0
  6
CENTER
 62
6
 10
3.99999523E+01
 20
2.52370285E+02
 11
3.49999523E+01
 21
2.52370285E+02
  0
LINE
  8
0
 62
4
 10
1.93280616E+01
 20
2.54816976E+02
 11
1.49999523E+01
 21
2.54816976E+02
  0
LINE
  8
0
 62
4
 10
2.58499523E+01
 20
2.54816976E+02
 11
2.56718430E+01
 21
2.54816976E+02
  0
LINE
  8
0
 62
4
 10
2.58499523E+01
 20
2.55206314E+02
 11
2.51230016E+01
 21
2.55206314E+02
  0
LINE
  8
0
 62
4
 10
2.68004615E+01
 20
2.56865087E+02
 11
1.99999523E+01
 21
2.56865087E+02
  0
LINE
  8
0
 62
4
 10
2.74890219E+01
 20
2.57139258E+02
 11
1.49999523E+01
 21
2.57139258E+02
  0
LINE
  8
0
  6
CENTER
 62
6
 10
2.99999523E+01
 20
2.51321712E+02
 11
2.99999523E+01
 21
2.56321712E+02
  0
LINE
  8
0
  6
CENTER
 62
6
 10
3.24999523E+01
 20
2.53821712E+02
 11
2.74999523E+01
 21
2.53821712E+02
  0
LINE
  8
0
  6
CENTER
 62
6
 10
2.24999523E+01
 20
2.49870285E+02
 11
2.24999523E+01
 21
2.54870285E+02
  0
LINE
  8
0
  6
CENTER
 62
6
 10
2.49999523E+01
 20
2.52370285E+02
 11
1.99999523E+01
 21
2.52370285E+02
  0
LINE
  8
0
 62
4
 10
1.99999523E+01
 20
2.55715778E+02
 11
1.49999523E+01
 21
2.55715778E+02
  0
LINE
  8
0
 62
6
 10
-2.70000439E+01
 20
3.34036669E+02
 11
-2.70000439E+01
 21
3.32982087E+02
  0
LINE
  8
0
 62
6
 10
-2.40000439E+01
 20
3.34036669E+02
 11
-2.40000439E+01
 21
3.32982087E+02
  0
LINE
  8
0
 62
4
 10
-2.75000439E+01
 20
3.33488082E+02
 11
-2.75000439E+01
 21
3.32982087E+02
  0
LINE
  8
0
 62
4
 10
-2.35000439E+01
 20
3.33488082E+02
 11
-2.35000439E+01
 21
3.32982087E+02
  0
LINE
  8
0
 62
4
 10
-2.90000439E+01
 20
3.32982087E+02
 11
-2.90000439E+01
 21
3.19868450E+02
  0
LINE
  8
0
 62
4
 10
-1.40000439E+01
 20
3.32982087E+02
 11
-1.40000439E+01
 21
3.03860757E+02
  0
LINE
  8
0
 62
4
 10
-4.40000439E+01
 20
3.19868450E+02
 11
-4.40000439E+01
 21
3.06183040E+02
  0
LINE
  8
0
  6
CENTER
 62
6
 10
-1.75000438E+01
 20
3.37765609E+02
 11
-1.75000438E+01
 21
3.27500031E+02
  0
LINE
  8
0
  6
CENTER
 62
6
 10
-2.55000438E+01
 20
3.37765609E+02
 11
-2.55000438E+01
 21
3.27500031E+02
  0
LINE
  8
0
  6
CENTER
 62
6
 10
-3.65000439E+01
 20
3.11129730E+02
 11
-3.65000439E+01
 21
3.06129730E+02
  0
LINE
  8
0
 62
4
 10
-1.90000439E+01
 20
3.05735186E+02
 11
-1.90000439E+01
 21
3.04134928E+02
  0
LINE
  8
0
 62
4
 10
-4.40000439E+01
 20
3.13000031E+02
 11
-4.40000439E+01
 21
3.13400031E+02
  0
LINE
  8
0
 62
4
 10
-2.05000439E+01
 20
3.05343189E+02
 11
-2.05000439E+01
 21
3.04134928E+02
  0
LINE
  8
0
 62
4
 10
-4.55000439E+01
 20
3.08285646E+02
 11
-4.55000439E+01
 21
3.05285304E+02
  0
POLYLINE
  8
0
 62
4
 66
1
  0
VERTEX
  8
0
 62
4
 10
-2.35000437E+01
 20
3.33488082E+02
  0
VERTEX
  8
0
 62
4
 10
-2.35080952E+01
 20
3.33562428E+02
  0
VERTEX
  8
0
 62
4
 10
-2.35321846E+01
 20
3.33636175E+02
  0
VERTEX
  8
0
 62
4
 10
-2.35721180E+01
 20
3.33708729E+02
  0
VERTEX
  8
0
 62
4
 10
-2.36275740E+01
 20
3.33779508E+02
  0
VERTEX
  8
0
 62
4
 10
-2.36981060E+01
 20
3.33847939E+02
  0
VERTEX
  8
0
 62
4
 10
-2.37831462E+01
 20
3.33913474E+02
  0
VERTEX
  8
0
 62
4
 10
-2.38820098E+01
 20
3.33975583E+02
  0
VERTEX
  8
0
 62
4
 10
-2.39939008E+01
 20
3.34033767E+02
  0
VERTEX
  8
0
 62
4
 10
-2.41179185E+01
 20
3.34087558E+02
  0
VERTEX
  8
0
 62
4
 10
-2.42530642E+01
 20
3.34136522E+02
  0
VERTEX
  8
0
 62
4
 10
-2.43982498E+01
 20
3.34180266E+02
  0
VERTEX
  8
0
 62
4
 10
-2.45523064E+01
 20
3.34218436E+02
  0
VERTEX
  8
0
 62
4
 10
-2.47139937E+01
 20
3.34250726E+02
  0
VERTEX
  8
0
 62
4
 10
-2.48820098E+01
 20
3.34276875E+02
  0
VERTEX
  8
0
 62
4
 10
-2.50550019E+01
 20
3.34296674E+02
  0
VERTEX
  8
0
 62
4
 10
-2.52315773E+01
 20
3.34309962E+02
  0
VERTEX
  8
0
 62
4
 10
-2.54103141E+01
 20
3.34316633E+02
  0
VERTEX
  8
0
 62
4
 10
-2.55897735E+01
 20
3.34316633E+02
  0
VERTEX
  8
0
 62
4
 10
-2.57685103E+01
 20
3.34309962E+02
  0
VERTEX
  8
0
 62
4
 10
-2.59450857E+01
 20
3.34296674E+02
  0
VERTEX
  8
0
 62
4
 10
-2.61180778E+01
 20
3.34276875E+02
  0
VERTEX
  8
0
 62
4
 10
-2.62860939E+01
 20
3.34250726E+02
  0
VERTEX
  8
0
 62
4
 10
-2.64477812E+01
 20
3.34218436E+02
  0
VERTEX
  8
0
 62
4
 10
-2.66018378E+01
 20
3.34180266E+02
  0
VERTEX
  8
0
 62
4
 10
-2.67470234E+01
 20
3.34136522E+02
  0
VERTEX
  8
0
 62
4
 10
-2.68821691E+01
 20
3.34087558E+02
  0
VERTEX
  8
0
 62
4
 10
-2.70061868E+01
 20
3.34033767E+02
  0
VERTEX
  8
0
 62
4
 10
-2.71180778E+01
 20
3.33975583E+02
  0
VERTEX
  8
0
 62
4
 10
-2.72169414E+01
 20
3.33913474E+02
  0
VERTEX
  8
0
 62
4
 10
-2.73019816E+01
 20
3.33847939E+02
  0
VERTEX
  8
0
 62
4
 10
-2.73725136E+01
 20
3.33779508E+02
  0
VERTEX
  8
0
 62
4
 10
-2.74279696E+01
 20
3.33708729E+02
  0
VERTEX
  8
0
 62
4
 10
-2.74679030E+01
 20
3.33636175E+02
  0
VERTEX
  8
0
 62
4
 10
-2.74919924E+01
 20
3.33562428E+02
  0
VERTEX
  8
0
 62
4
 10
-2.75000439E+01
 20
3.33488082E+02
  0
SEQEND
  8
0
  0
LINE
  8
0
 62
6
 10
-1.60000439E+01
 20
3.34036669E+02
 11
-1.60000439E+01
 21
3.32982087E+02
  0
LINE
  8
0
 62
4
 10
-1.55000439E+01
 20
3.33488082E+02
 11
-1.55000439E+01
 21
3.32982087E+02
  0
POLYLINE
  8
0
 62
4
 66
1
  0
VERTEX
  8
0
 62
4
 10
-1.55000437E+01
 20
3.33488082E+02
  0
VERTEX
  8
0
 62
4
 10
-1.55080952E+01
 20
3.33562428E+02
  0
VERTEX
  8
0
 62
4
 10
-1.55321846E+01
 20
3.33636175E+02
  0
VERTEX
  8
0
 62
4
 10
-1.55721180E+01
 20
3.33708729E+02
  0
VERTEX
  8
0
 62
4
 10
-1.56275740E+01
 20
3.33779508E+02
  0
VERTEX
  8
0
 62
4
 10
-1.56981060E+01
 20
3.33847939E+02
  0
VERTEX
  8
0
 62
4
 10
-1.57831462E+01
 20
3.33913474E+02
  0
VERTEX
  8
0
 62
4
 10
-1.58820098E+01
 20
3.33975583E+02
  0
VERTEX
  8
0
 62
4
 10
-1.59939008E+01
 20
3.34033767E+02
  0
VERTEX
  8
0
 62
4
 10
-1.61179185E+01
 20
3.34087558E+02
  0
VERTEX
  8
0
 62
4
 10
-1.62530642E+01
 20
3.34136522E+02
  0
VERTEX
  8
0
 62
4
 10
-1.63982498E+01
 20
3.34180266E+02
  0
VERTEX
  8
0
 62
4
 10
-1.65523064E+01
 20
3.34218436E+02
  0
VERTEX
  8
0
 62
4
 10
-1.67139937E+01
 20
3.34250726E+02
  0
VERTEX
  8
0
 62
4
 10
-1.68820098E+01
 20
3.34276875E+02
  0
VERTEX
  8
0
 62
4
 10
-1.70550019E+01
 20
3.34296674E+02
  0
VERTEX
  8
0
 62
4
 10
-1.72315773E+01
 20
3.34309962E+02
  0
VERTEX
  8
0
 62
4
 10
-1.74103141E+01
 20
3.34316633E+02
  0
VERTEX
  8
0
 62
4
 10
-1.75897735E+01
 20
3.34316633E+02
  0
VERTEX
  8
0
 62
4
 10
-1.77685103E+01
 20
3.34309962E+02
  0
VERTEX
  8
0
 62
4
 10
-1.79450857E+01
 20
3.34296674E+02
  0
VERTEX
  8
0
 62
4
 10
-1.81180778E+01
 20
3.34276875E+02
  0
VERTEX
  8
0
 62
4
 10
-1.82860939E+01
 20
3.34250726E+02
  0
VERTEX
  8
0
 62
4
 10
-1.84477812E+01
 20
3.34218436E+02
  0
VERTEX
  8
0
 62
4
 10
-1.86018378E+01
 20
3.34180266E+02
  0
VERTEX
  8
0
 62
4
 10
-1.87470234E+01
 20
3.34136522E+02
  0
VERTEX
  8
0
 62
4
 10
-1.88821691E+01
 20
3.34087558E+02
  0
VERTEX
  8
0
 62
4
 10
-1.90061868E+01
 20
3.34033767E+02
  0
VERTEX
  8
0
 62
4
 10
-1.91180778E+01
 20
3.33975583E+02
  0
VERTEX
  8
0
 62
4
 10
-1.92169414E+01
 20
3.33913474E+02
  0
VERTEX
  8
0
 62
4
 10
-1.93019816E+01
 20
3.33847939E+02
  0
VERTEX
  8
0
 62
4
 10
-1.93725136E+01
 20
3.33779508E+02
  0
VERTEX
  8
0
 62
4
 10
-1.94279696E+01
 20
3.33708729E+02
  0
VERTEX
  8
0
 62
4
 10
-1.94679030E+01
 20
3.33636175E+02
  0
VERTEX
  8
0
 62
4
 10
-1.94919924E+01
 20
3.33562428E+02
  0
VERTEX
  8
0
 62
4
 10
-1.95000439E+01
 20
3.33488082E+02
  0
SEQEND
  8
0
  0
LINE
  8
0
 62
6
 10
-1.90000439E+01
 20
3.34036669E+02
 11
-1.90000439E+01
 21
3.32982087E+02
  0
LINE
  8
0
 62
4
 10
-1.95000439E+01
 20
3.33488082E+02
 11
-1.95000439E+01
 21
3.32982087E+02
  0
LINE
  8
0
 62
4
 10
-2.90000439E+01
 20
3.32982087E+02
 11
-1.40000439E+01
 21
3.32982087E+02
  0
LINE
  8
0
 62
4
 10
-2.90000439E+01
 20
3.26238179E+02
 11
-1.40000439E+01
 21
3.26238179E+02
  0
LINE
  8
0
 62
4
 10
-4.40000439E+01
 20
3.19868450E+02
 11
-1.40000439E+01
 21
3.19868450E+02
  0
LINE
  8
0
 62
4
 10
-4.40000439E+01
 20
3.10495849E+02
 11
-1.40000439E+01
 21
3.10495849E+02
  0
LINE
  8
0
 62
4
 10
-4.40000439E+01
 20
3.03860757E+02
 11
-3.15109743E+01
 21
3.03860757E+02
  0
LINE
  8
0
 62
4
 10
-4.40000439E+01
 20
3.09433546E+02
 11
-4.55000439E+01
 21
3.08285646E+02
  0
LINE
  8
0
 62
4
 10
-4.40000439E+01
 20
3.05793701E+02
 11
-3.31500439E+01
 21
3.05793701E+02
  0
LINE
  8
0
 62
4
 10
-4.55000439E+01
 20
3.06224584E+02
 11
-4.40000439E+01
 21
3.05793701E+02
  0
LINE
  8
0
 62
4
 10
-4.40000439E+01
 20
3.04134928E+02
 11
-3.21995347E+01
 21
3.04134928E+02
  0
LINE
  8
0
 62
4
 10
-4.55000439E+01
 20
3.05285304E+02
 11
-4.40000439E+01
 21
3.04134928E+02
  0
LINE
  8
0
 62
4
 10
-4.40000439E+01
 20
3.06183040E+02
 11
-3.31500439E+01
 21
3.06183040E+02
  0
LINE
  8
0
 62
4
 10
-4.40000439E+01
 20
3.06183040E+02
 11
-4.40000439E+01
 21
3.04134928E+02
  0
LINE
  8
0
 62
4
 10
-4.40000439E+01
 20
3.04134928E+02
 11
-4.40000439E+01
 21
3.03860757E+02
  0
LINE
  8
0
 62
4
 10
-2.53000439E+01
 20
3.08629730E+02
 11
-2.53000439E+01
 21
3.07719769E+02
  0
LINE
  8
0
 62
4
 10
-1.77000439E+01
 20
3.07719769E+02
 11
-1.77000439E+01
 21
3.08629730E+02
  0
LINE
  8
0
 62
4
 10
-2.49000439E+01
 20
3.07719769E+02
 11
-2.49000439E+01
 21
3.06690782E+02
  0
LINE
  8
0
 62
4
 10
-1.81000439E+01
 20
3.07719769E+02
 11
-1.81000439E+01
 21
3.06690782E+02
  0
LINE
  8
0
 62
4
 10
-2.48500439E+01
 20
3.06449867E+02
 11
-2.48500439E+01
 21
3.05230986E+02
  0
LINE
  8
0
 62
4
 10
-3.31500439E+01
 20
3.05230986E+02
 11
-3.31500439E+01
 21
3.06832518E+02
  0
POLYLINE
  8
0
 62
4
 66
1
  0
VERTEX
  8
0
 62
4
 10
-2.53000439E+01
 20
3.07808582E+02
  0
VERTEX
  8
0
 62
4
 10
-2.54499446E+01
 20
3.07942599E+02
  0
VERTEX
  8
0
 62
4
 10
-2.56280041E+01
 20
3.08070554E+02
  0
VERTEX
  8
0
 62
4
 10
-2.58328102E+01
 20
3.08191431E+02
  0
VERTEX
  8
0
 62
4
 10
-2.60627384E+01
 20
3.08304272E+02
  0
VERTEX
  8
0
 62
4
 10
-2.63159649E+01
 20
3.08408183E+02
  0
VERTEX
  8
0
 62
4
 10
-2.65904811E+01
 20
3.08502338E+02
  0
VERTEX
  8
0
 62
4
 10
-2.68841096E+01
 20
3.08585991E+02
  0
VERTEX
  8
0
 62
4
 10
-2.71945215E+01
 20
3.08658478E+02
  0
VERTEX
  8
0
 62
4
 10
-2.75192544E+01
 20
3.08719225E+02
  0
VERTEX
  8
0
 62
4
 10
-2.78557328E+01
 20
3.08767750E+02
  0
VERTEX
  8
0
 62
4
 10
-2.82012877E+01
 20
3.08803667E+02
  0
VERTEX
  8
0
 62
4
 10
-2.85531783E+01
 20
3.08826692E+02
  0
VERTEX
  8
0
 62
4
 10
-2.89086133E+01
 20
3.08836643E+02
  0
VERTEX
  8
0
 62
4
 10
-2.92647735E+01
 20
3.08833439E+02
  0
VERTEX
  8
0
 62
4
 10
-2.96188340E+01
 20
3.08817107E+02
  0
VERTEX
  8
0
 62
4
 10
-2.99679862E+01
 20
3.08787777E+02
  0
VERTEX
  8
0
 62
4
 10
-3.03094609E+01
 20
3.08745680E+02
  0
VERTEX
  8
0
 62
4
 10
-3.06405495E+01
 20
3.08691152E+02
  0
VERTEX
  8
0
 62
4
 10
-3.09586258E+01
 20
3.08624623E+02
  0
VERTEX
  8
0
 62
4
 10
-3.12611669E+01
 20
3.08546622E+02
  0
VERTEX
  8
0
 62
4
 10
-3.15457731E+01
 20
3.08457769E+02
  0
VERTEX
  8
0
 62
4
 10
-3.18101869E+01
 20
3.08358766E+02
  0
VERTEX
  8
0
 62
4
 10
-3.20523111E+01
 20
3.08250401E+02
  0
VERTEX
  8
0
 62
4
 10
-3.22702251E+01
 20
3.08133531E+02
  0
VERTEX
  8
0
 62
4
 10
-3.24622005E+01
 20
3.08009085E+02
  0
VERTEX
  8
0
 62
4
 10
-3.26267145E+01
 20
3.07878049E+02
  0
VERTEX
  8
0
 62
4
 10
-3.27624623E+01
 20
3.07741463E+02
  0
VERTEX
  8
0
 62
4
 10
-3.28683671E+01
 20
3.07600410E+02
  0
VERTEX
  8
0
 62
4
 10
-3.29435889E+01
 20
3.07456009E+02
  0
VERTEX
  8
0
 62
4
 10
-3.29875311E+01
 20
3.07309405E+02
  0
SEQEND
  8
0
  0
POLYLINE
  8
0
 62
4
 66
1
  0
VERTEX
  8
0
 62
4
 10
-2.52896694E+01
 20
3.07603404E+02
  0
VERTEX
  8
0
 62
4
 10
-2.54701002E+01
 20
3.07737462E+02
  0
VERTEX
  8
0
 62
4
 10
-2.56786228E+01
 20
3.07864318E+02
  0
VERTEX
  8
0
 62
4
 10
-2.59135777E+01
 20
3.07982963E+02
  0
VERTEX
  8
0
 62
4
 10
-2.61730950E+01
 20
3.08092453E+02
  0
VERTEX
  8
0
 62
4
 10
-2.64551096E+01
 20
3.08191916E+02
  0
VERTEX
  8
0
 62
4
 10
-2.67573771E+01
 20
3.08280560E+02
  0
VERTEX
  8
0
 62
4
 10
-2.70774920E+01
 20
3.08357681E+02
  0
VERTEX
  8
0
 62
4
 10
-2.74129069E+01
 20
3.08422665E+02
  0
VERTEX
  8
0
 62
4
 10
-2.77609523E+01
 20
3.08474994E+02
  0
VERTEX
  8
0
 62
4
 10
-2.81188587E+01
 20
3.08514252E+02
  0
VERTEX
  8
0
 62
4
 10
-2.84837776E+01
 20
3.08540126E+02
  0
VERTEX
  8
0
 62
4
 10
-2.88528050E+01
 20
3.08552411E+02
  0
VERTEX
  8
0
 62
4
 10
-2.92230042E+01
 20
3.08551009E+02
  0
VERTEX
  8
0
 62
4
 10
-2.95914290E+01
 20
3.08535931E+02
  0
VERTEX
  8
0
 62
4
 10
-2.99551475E+01
 20
3.08507297E+02
  0
VERTEX
  8
0
 62
4
 10
-3.03112652E+01
 20
3.08465335E+02
  0
VERTEX
  8
0
 62
4
 10
-3.06569480E+01
 20
3.08410379E+02
  0
VERTEX
  8
0
 62
4
 10
-3.09894449E+01
 20
3.08342866E+02
  0
VERTEX
  8
0
 62
4
 10
-3.13061100E+01
 20
3.08263333E+02
  0
VERTEX
  8
0
 62
4
 10
-3.16044230E+01
 20
3.08172414E+02
  0
VERTEX
  8
0
 62
4
 10
-3.18820101E+01
 20
3.08070832E+02
  0
VERTEX
  8
0
 62
4
 10
-3.21366622E+01
 20
3.07959395E+02
  0
VERTEX
  8
0
 62
4
 10
-3.23663526E+01
 20
3.07838990E+02
  0
VERTEX
  8
0
 62
4
 10
-3.25692535E+01
 20
3.07710576E+02
  0
VERTEX
  8
0
 62
4
 10
-3.27437502E+01
 20
3.07575174E+02
  0
VERTEX
  8
0
 62
4
 10
-3.28884540E+01
 20
3.07433861E+02
  0
VERTEX
  8
0
 62
4
 10
-3.30022133E+01
 20
3.07287764E+02
  0
VERTEX
  8
0
 62
4
 10
-3.30841229E+01
 20
3.07138043E+02
  0
VERTEX
  8
0
 62
4
 10
-3.31335308E+01
 20
3.06985891E+02
  0
VERTEX
  8
0
 62
4
 10
-3.31500439E+01
 20
3.06832518E+02
  0
SEQEND
  8
0
  0
POLYLINE
  8
0
 62
4
 66
1
  0
VERTEX
  8
0
 62
4
 10
-3.31500439E+01
 20
3.05230986E+02
  0
VERTEX
  8
0
 62
4
 10
-3.31342519E+01
 20
3.05080993E+02
  0
VERTEX
  8
0
 62
4
 10
-3.30869961E+01
 20
3.04932142E+02
  0
VERTEX
  8
0
 62
4
 10
-3.30086361E+01
 20
3.04785564E+02
  0
VERTEX
  8
0
 62
4
 10
-3.28997683E+01
 20
3.04642377E+02
  0
VERTEX
  8
0
 62
4
 10
-3.27612212E+01
 20
3.04503670E+02
  0
VERTEX
  8
0
 62
4
 10
-3.25940493E+01
 20
3.04370498E+02
  0
VERTEX
  8
0
 62
4
 10
-3.23995249E+01
 20
3.04243874E+02
  0
VERTEX
  8
0
 62
4
 10
-3.21791283E+01
 20
3.04124763E+02
  0
VERTEX
  8
0
 62
4
 10
-3.19345370E+01
 20
3.04014072E+02
  0
VERTEX
  8
0
 62
4
 10
-3.16676125E+01
 20
3.03912641E+02
  0
VERTEX
  8
0
 62
4
 10
-3.13803861E+01
 20
3.03821244E+02
  0
VERTEX
  8
0
 62
4
 10
-3.10750439E+01
 20
3.03740576E+02
  0
VERTEX
  8
0
 62
4
 10
-3.07539097E+01
 20
3.03671251E+02
  0
VERTEX
  8
0
 62
4
 10
-3.04194275E+01
 20
3.03613797E+02
  0
VERTEX
  8
0
 62
4
 10
-3.00741429E+01
 20
3.03568650E+02
  0
VERTEX
  8
0
 62
4
 10
-2.97206838E+01
 20
3.03536155E+02
  0
VERTEX
  8
0
 62
4
 10
-2.93617402E+01
 20
3.03516558E+02
  0
VERTEX
  8
0
 62
4
 10
-2.90000439E+01
 20
3.03510009E+02
  0
VERTEX
  8
0
 62
4
 10
-2.86383476E+01
 20
3.03516558E+02
  0
VERTEX
  8
0
 62
4
 10
-2.82794040E+01
 20
3.03536155E+02
  0
VERTEX
  8
0
 62
4
 10
-2.79259449E+01
 20
3.03568650E+02
  0
VERTEX
  8
0
 62
4
 10
-2.75806603E+01
 20
3.03613797E+02
  0
VERTEX
  8
0
 62
4
 10
-2.72461781E+01
 20
3.03671251E+02
  0
VERTEX
  8
0
 62
4
 10
-2.69250439E+01
 20
3.03740576E+02
  0
VERTEX
  8
0
 62
4
 10
-2.66197017E+01
 20
3.03821244E+02
  0
VERTEX
  8
0
 62
4
 10
-2.63324753E+01
 20
3.03912641E+02
  0
VERTEX
  8
0
 62
4
 10
-2.60655508E+01
 20
3.04014072E+02
  0
VERTEX
  8
0
 62
4
 10
-2.58209595E+01
 20
3.04124763E+02
  0
VERTEX
  8
0
 62
4
 10
-2.56005629E+01
 20
3.04243874E+02
  0
VERTEX
  8
0
 62
4
 10
-2.54060385E+01
 20
3.04370498E+02
  0
VERTEX
  8
0
 62
4
 10
-2.52388666E+01
 20
3.04503670E+02
  0
VERTEX
  8
0
 62
4
 10
-2.51003195E+01
 20
3.04642377E+02
  0
VERTEX
  8
0
 62
4
 10
-2.49914517E+01
 20
3.04785564E+02
  0
VERTEX
  8
0
 62
4
 10
-2.49130917E+01
 20
3.04932141E+02
  0
VERTEX
  8
0
 62
4
 10
-2.48658359E+01
 20
3.05080993E+02
  0
VERTEX
  8
0
 62
4
 10
-2.48500439E+01
 20
3.05230986E+02
  0
VERTEX
  8
0
 62
4
 10
-2.48658359E+01
 20
3.05380979E+02
  0
VERTEX
  8
0
 62
4
 10
-2.49130917E+01
 20
3.05529830E+02
  0
VERTEX
  8
0
 62
4
 10
-2.49914517E+01
 20
3.05676408E+02
  0
VERTEX
  8
0
 62
4
 10
-2.51003195E+01
 20
3.05819595E+02
  0
VERTEX
  8
0
 62
4
 10
-2.52388666E+01
 20
3.05958302E+02
  0
VERTEX
  8
0
 62
4
 10
-2.54060385E+01
 20
3.06091474E+02
  0
VERTEX
  8
0
 62
4
 10
-2.56005629E+01
 20
3.06218098E+02
  0
VERTEX
  8
0
 62
4
 10
-2.58209595E+01
 20
3.06337209E+02
  0
VERTEX
  8
0
 62
4
 10
-2.60655508E+01
 20
3.06447900E+02
  0
VERTEX
  8
0
 62
4
 10
-2.63324753E+01
 20
3.06549331E+02
  0
VERTEX
  8
0
 62
4
 10
-2.66197017E+01
 20
3.06640728E+02
  0
VERTEX
  8
0
 62
4
 10
-2.69250439E+01
 20
3.06721396E+02
  0
VERTEX
  8
0
 62
4
 10
-2.72461781E+01
 20
3.06790721E+02
  0
VERTEX
  8
0
 62
4
 10
-2.75806603E+01
 20
3.06848175E+02
  0
VERTEX
  8
0
 62
4
 10
-2.79259449E+01
 20
3.06893322E+02
  0
VERTEX
  8
0
 62
4
 10
-2.82794040E+01
 20
3.06925817E+02
  0
VERTEX
  8
0
 62
4
 10
-2.86383476E+01
 20
3.06945414E+02
  0
VERTEX
  8
0
 62
4
 10
-2.90000439E+01
 20
3.06951963E+02
  0
VERTEX
  8
0
 62
4
 10
-2.93617402E+01
 20
3.06945414E+02
  0
VERTEX
  8
0
 62
4
 10
-2.97206838E+01
 20
3.06925817E+02
  0
VERTEX
  8
0
 62
4
 10
-3.00741429E+01
 20
3.06893322E+02
  0
VERTEX
  8
0
 62
4
 10
-3.04194275E+01
 20
3.06848175E+02
  0
VERTEX
  8
0
 62
4
 10
-3.07539097E+01
 20
3.06790721E+02
  0
VERTEX
  8
0
 62
4
 10
-3.10750439E+01
 20
3.06721396E+02
  0
VERTEX
  8
0
 62
4
 10
-3.13803861E+01
 20
3.06640728E+02
  0
VERTEX
  8
0
 62
4
 10
-3.16676125E+01
 20
3.06549331E+02
  0
VERTEX
  8
0
 62
4
 10
-3.19345370E+01
 20
3.06447900E+02
  0
VERTEX
  8
0
 62
4
 10
-3.21791283E+01
 20
3.06337209E+02
  0
VERTEX
  8
0
 62
4
 10
-3.23995249E+01
 20
3.06218098E+02
  0
VERTEX
  8
0
 62
4
 10
-3.25940493E+01
 20
3.06091474E+02
  0
VERTEX
  8
0
 62
4
 10
-3.27612212E+01
 20
3.05958302E+02
  0
VERTEX
  8
0
 62
4
 10
-3.28997683E+01
 20
3.05819595E+02
  0
VERTEX
  8
0
 62
4
 10
-3.30086361E+01
 20
3.05676408E+02
  0
VERTEX
  8
0
 62
4
 10
-3.30869961E+01
 20
3.05529831E+02
  0
VERTEX
  8
0
 62
4
 10
-3.31342519E+01
 20
3.05380979E+02
  0
VERTEX
  8
0
 62
4
 10
-3.31500439E+01
 20
3.05230986E+02
  0
SEQEND
  8
0
  0
ARC
  8
0
 62
4
 10
-3.53696446E+01
 20
3.20015606E+02
 40
1.67245585E+01
 50
2.85971208E+02
 51
2.99114206E+02
  0
ARC
  8
0
 62
4
 10
-2.26304398E+01
 20
3.20015614E+02
 40
1.67245676E+01
 50
2.40885798E+02
 51
2.54028789E+02
  0
POLYLINE
  8
0
 62
4
 66
1
  0
VERTEX
  8
0
 62
4
 10
-1.77000439E+01
 20
3.08629730E+02
  0
VERTEX
  8
0
 62
4
 10
-1.77153416E+01
 20
3.08770987E+02
  0
VERTEX
  8
0
 62
4
 10
-1.77611115E+01
 20
3.08911106E+02
  0
VERTEX
  8
0
 62
4
 10
-1.78369850E+01
 20
3.09048960E+02
  0
VERTEX
  8
0
 62
4
 10
-1.79423514E+01
 20
3.09183438E+02
  0
VERTEX
  8
0
 62
4
 10
-1.80763622E+01
 20
3.09313459E+02
  0
VERTEX
  8
0
 62
4
 10
-1.82379385E+01
 20
3.09437974E+02
  0
VERTEX
  8
0
 62
4
 10
-1.84257793E+01
 20
3.09555982E+02
  0
VERTEX
  8
0
 62
4
 10
-1.86383723E+01
 20
3.09666532E+02
  0
VERTEX
  8
0
 62
4
 10
-1.88740058E+01
 20
3.09768735E+02
  0
VERTEX
  8
0
 62
4
 10
-1.91307826E+01
 20
3.09861767E+02
  0
VERTEX
  8
0
 62
4
 10
-1.94066354E+01
 20
3.09944879E+02
  0
VERTEX
  8
0
 62
4
 10
-1.96993430E+01
 20
3.10017403E+02
  0
VERTEX
  8
0
 62
4
 10
-2.00065488E+01
 20
3.10078753E+02
  0
VERTEX
  8
0
 62
4
 10
-2.03257793E+01
 20
3.10128437E+02
  0
VERTEX
  8
0
 62
4
 10
-2.06544643E+01
 20
3.10166055E+02
  0
VERTEX
  8
0
 62
4
 10
-2.09899575E+01
 20
3.10191303E+02
  0
VERTEX
  8
0
 62
4
 10
-2.13295575E+01
 20
3.10203978E+02
  0
VERTEX
  8
0
 62
4
 10
-2.16705302E+01
 20
3.10203978E+02
  0
VERTEX
  8
0
 62
4
 10
-2.20101303E+01
 20
3.10191303E+02
  0
VERTEX
  8
0
 62
4
 10
-2.23456234E+01
 20
3.10166055E+02
  0
VERTEX
  8
0
 62
4
 10
-2.26743085E+01
 20
3.10128438E+02
  0
VERTEX
  8
0
 62
4
 10
-2.29935390E+01
 20
3.10078753E+02
  0
VERTEX
  8
0
 62
4
 10
-2.33007448E+01
 20
3.10017403E+02
  0
VERTEX
  8
0
 62
4
 10
-2.35934524E+01
 20
3.09944879E+02
  0
VERTEX
  8
0
 62
4
 10
-2.38693051E+01
 20
3.09861767E+02
  0
VERTEX
  8
0
 62
4
 10
-2.41260819E+01
 20
3.09768735E+02
  0
VERTEX
  8
0
 62
4
 10
-2.43617155E+01
 20
3.09666532E+02
  0
VERTEX
  8
0
 62
4
 10
-2.45743085E+01
 20
3.09555982E+02
  0
VERTEX
  8
0
 62
4
 10
-2.47621493E+01
 20
3.09437974E+02
  0
VERTEX
  8
0
 62
4
 10
-2.49237256E+01
 20
3.09313459E+02
  0
VERTEX
  8
0
 62
4
 10
-2.50577364E+01
 20
3.09183439E+02
  0
VERTEX
  8
0
 62
4
 10
-2.51631028E+01
 20
3.09048960E+02
  0
VERTEX
  8
0
 62
4
 10
-2.52389763E+01
 20
3.08911106E+02
  0
VERTEX
  8
0
 62
4
 10
-2.52847462E+01
 20
3.08770987E+02
  0
VERTEX
  8
0
 62
4
 10
-2.53000439E+01
 20
3.08629730E+02
  0
SEQEND
  8
0
  0
POLYLINE
  8
0
 62
4
 66
1
  0
VERTEX
  8
0
 62
4
 10
-1.81000439E+01
 20
3.07016011E+02
  0
VERTEX
  8
0
 62
4
 10
-1.79634622E+01
 20
3.07143272E+02
  0
VERTEX
  8
0
 62
4
 10
-1.78545144E+01
 20
3.07275038E+02
  0
VERTEX
  8
0
 62
4
 10
-1.77740516E+01
 20
3.07410279E+02
  0
VERTEX
  8
0
 62
4
 10
-1.77227026E+01
 20
3.07547937E+02
  0
VERTEX
  8
0
 62
4
 10
-1.77008686E+01
 20
3.07686939E+02
  0
VERTEX
  8
0
 62
4
 10
-1.77087203E+01
 20
3.07826197E+02
  0
VERTEX
  8
0
 62
4
 10
-1.77461963E+01
 20
3.07964623E+02
  0
VERTEX
  8
0
 62
4
 10
-1.78130037E+01
 20
3.08101137E+02
  0
VERTEX
  8
0
 62
4
 10
-1.79086205E+01
 20
3.08234670E+02
  0
VERTEX
  8
0
 62
4
 10
-1.80322997E+01
 20
3.08364180E+02
  0
VERTEX
  8
0
 62
4
 10
-1.81830748E+01
 20
3.08488655E+02
  0
VERTEX
  8
0
 62
4
 10
-1.83597677E+01
 20
3.08607122E+02
  0
VERTEX
  8
0
 62
4
 10
-1.85609977E+01
 20
3.08718655E+02
  0
VERTEX
  8
0
 62
4
 10
-1.87851927E+01
 20
3.08822384E+02
  0
VERTEX
  8
0
 62
4
 10
-1.90306006E+01
 20
3.08917497E+02
  0
VERTEX
  8
0
 62
4
 10
-1.92953041E+01
 20
3.09003251E+02
  0
VERTEX
  8
0
 62
4
 10
-1.95772347E+01
 20
3.09078977E+02
  0
VERTEX
  8
0
 62
4
 10
-1.98741896E+01
 20
3.09144082E+02
  0
VERTEX
  8
0
 62
4
 10
-2.01838485E+01
 20
3.09198058E+02
  0
VERTEX
  8
0
 62
4
 10
-2.05037917E+01
 20
3.09240483E+02
  0
VERTEX
  8
0
 62
4
 10
-2.08315193E+01
 20
3.09271025E+02
  0
VERTEX
  8
0
 62
4
 10
-2.11644706E+01
 20
3.09289447E+02
  0
VERTEX
  8
0
 62
4
 10
-2.15000439E+01
 20
3.09295603E+02
  0
VERTEX
  8
0
 62
4
 10
-2.18356173E+01
 20
3.09289447E+02
  0
VERTEX
  8
0
 62
4
 10
-2.21685685E+01
 20
3.09271025E+02
  0
VERTEX
  8
0
 62
4
 10
-2.24962962E+01
 20
3.09240483E+02
  0
VERTEX
  8
0
 62
4
 10
-2.28162394E+01
 20
3.09198058E+02
  0
VERTEX
  8
0
 62
4
 10
-2.31258982E+01
 20
3.09144082E+02
  0
VERTEX
  8
0
 62
4
 10
-2.34228531E+01
 20
3.09078977E+02
  0
VERTEX
  8
0
 62
4
 10
-2.37047837E+01
 20
3.09003251E+02
  0
VERTEX
  8
0
 62
4
 10
-2.39694872E+01
 20
3.08917497E+02
  0
VERTEX
  8
0
 62
4
 10
-2.42148952E+01
 20
3.08822384E+02
  0
VERTEX
  8
0
 62
4
 10
-2.44390901E+01
 20
3.08718655E+02
  0
VERTEX
  8
0
 62
4
 10
-2.46403202E+01
 20
3.08607122E+02
  0
VERTEX
  8
0
 62
4
 10
-2.48170131E+01
 20
3.08488655E+02
  0
VERTEX
  8
0
 62
4
 10
-2.49677881E+01
 20
3.08364180E+02
  0
VERTEX
  8
0
 62
4
 10
-2.50914673E+01
 20
3.08234670E+02
  0
VERTEX
  8
0
 62
4
 10
-2.51870841E+01
 20
3.08101137E+02
  0
VERTEX
  8
0
 62
4
 10
-2.52538915E+01
 20
3.07964623E+02
  0
VERTEX
  8
0
 62
4
 10
-2.52913675E+01
 20
3.07826197E+02
  0
VERTEX
  8
0
 62
4
 10
-2.52992192E+01
 20
3.07686939E+02
  0
VERTEX
  8
0
 62
4
 10
-2.52773852E+01
 20
3.07547937E+02
  0
VERTEX
  8
0
 62
4
 10
-2.52260362E+01
 20
3.07410279E+02
  0
VERTEX
  8
0
 62
4
 10
-2.51455734E+01
 20
3.07275038E+02
  0
VERTEX
  8
0
 62
4
 10
-2.50366256E+01
 20
3.07143272E+02
  0
VERTEX
  8
0
 62
4
 10
-2.49000439E+01
 20
3.07016011E+02
  0
SEQEND
  8
0
  0
POLYLINE
  8
0
 62
4
 66
1
  0
VERTEX
  8
0
 62
4
 10
-1.81000439E+01
 20
3.07719769E+02
  0
VERTEX
  8
0
 62
4
 10
-1.81137313E+01
 20
3.07846157E+02
  0
VERTEX
  8
0
 62
4
 10
-1.81546833E+01
 20
3.07971527E+02
  0
VERTEX
  8
0
 62
4
 10
-1.82225702E+01
 20
3.08094870E+02
  0
VERTEX
  8
0
 62
4
 10
-1.83168453E+01
 20
3.08215192E+02
  0
VERTEX
  8
0
 62
4
 10
-1.84367497E+01
 20
3.08331526E+02
  0
VERTEX
  8
0
 62
4
 10
-1.85813180E+01
 20
3.08442935E+02
  0
VERTEX
  8
0
 62
4
 10
-1.87493861E+01
 20
3.08548521E+02
  0
VERTEX
  8
0
 62
4
 10
-1.89396009E+01
 20
3.08647434E+02
  0
VERTEX
  8
0
 62
4
 10
-1.91504309E+01
 20
3.08738879E+02
  0
VERTEX
  8
0
 62
4
 10
-1.93801786E+01
 20
3.08822118E+02
  0
VERTEX
  8
0
 62
4
 10
-1.96269941E+01
 20
3.08896481E+02
  0
VERTEX
  8
0
 62
4
 10
-1.98888904E+01
 20
3.08961371E+02
  0
VERTEX
  8
0
 62
4
 10
-2.01637588E+01
 20
3.09016264E+02
  0
VERTEX
  8
0
 62
4
 10
-2.04493861E+01
 20
3.09060718E+02
  0
VERTEX
  8
0
 62
4
 10
-2.07434727E+01
 20
3.09094375E+02
  0
VERTEX
  8
0
 62
4
 10
-2.10436508E+01
 20
3.09116966E+02
  0
VERTEX
  8
0
 62
4
 10
-2.13475035E+01
 20
3.09128306E+02
  0
VERTEX
  8
0
 62
4
 10
-2.16525843E+01
 20
3.09128306E+02
  0
VERTEX
  8
0
 62
4
 10
-2.19564370E+01
 20
3.09116966E+02
  0
VERTEX
  8
0
 62
4
 10
-2.22566151E+01
 20
3.09094375E+02
  0
VERTEX
  8
0
 62
4
 10
-2.25507017E+01
 20
3.09060718E+02
  0
VERTEX
  8
0
 62
4
 10
-2.28363290E+01
 20
3.09016264E+02
  0
VERTEX
  8
0
 62
4
 10
-2.31111973E+01
 20
3.08961371E+02
  0
VERTEX
  8
0
 62
4
 10
-2.33730936E+01
 20
3.08896481E+02
  0
VERTEX
  8
0
 62
4
 10
-2.36199092E+01
 20
3.08822118E+02
  0
VERTEX
  8
0
 62
4
 10
-2.38496569E+01
 20
3.08738879E+02
  0
VERTEX
  8
0
 62
4
 10
-2.40604869E+01
 20
3.08647434E+02
  0
VERTEX
  8
0
 62
4
 10
-2.42507017E+01
 20
3.08548521E+02
  0
VERTEX
  8
0
 62
4
 10
-2.44187698E+01
 20
3.08442935E+02
  0
VERTEX
  8
0
 62
4
 10
-2.45633380E+01
 20
3.08331526E+02
  0
VERTEX
  8
0
 62
4
 10
-2.46832425E+01
 20
3.08215192E+02
  0
VERTEX
  8
0
 62
4
 10
-2.47775176E+01
 20
3.08094870E+02
  0
VERTEX
  8
0
 62
4
 10
-2.48454045E+01
 20
3.07971527E+02
  0
VERTEX
  8
0
 62
4
 10
-2.48863565E+01
 20
3.07846157E+02
  0
VERTEX
  8
0
 62
4
 10
-2.49000439E+01
 20
3.07719769E+02
  0
SEQEND
  8
0
  0
POLYLINE
  8
0
 62
4
 66
1
  0
VERTEX
  8
0
 62
4
 10
-2.49000439E+01
 20
3.06690782E+02
  0
VERTEX
  8
0
 62
4
 10
-2.48871059E+01
 20
3.06567896E+02
  0
VERTEX
  8
0
 62
4
 10
-2.48483903E+01
 20
3.06445946E+02
  0
VERTEX
  8
0
 62
4
 10
-2.47841917E+01
 20
3.06325858E+02
  0
VERTEX
  8
0
 62
4
 10
-2.46949988E+01
 20
3.06208548E+02
  0
VERTEX
  8
0
 62
4
 10
-2.45814904E+01
 20
3.06094908E+02
  0
VERTEX
  8
0
 62
4
 10
-2.44445303E+01
 20
3.05985803E+02
  0
VERTEX
  8
0
 62
4
 10
-2.42851609E+01
 20
3.05882064E+02
  0
VERTEX
  8
0
 62
4
 10
-2.41045950E+01
 20
3.05784479E+02
  0
VERTEX
  8
0
 62
4
 10
-2.39042070E+01
 20
3.05693792E+02
  0
VERTEX
  8
0
 62
4
 10
-2.36855218E+01
 20
3.05610692E+02
  0
VERTEX
  8
0
 62
4
 10
-2.34502038E+01
 20
3.05535813E+02
  0
VERTEX
  8
0
 62
4
 10
-2.32000439E+01
 20
3.05469723E+02
  0
VERTEX
  8
0
 62
4
 10
-2.29369460E+01
 20
3.05412927E+02
  0
VERTEX
  8
0
 62
4
 10
-2.26629124E+01
 20
3.05365856E+02
  0
VERTEX
  8
0
 62
4
 10
-2.23800287E+01
 20
3.05328868E+02
  0
VERTEX
  8
0
 62
4
 10
-2.20904477E+01
 20
3.05302245E+02
  0
VERTEX
  8
0
 62
4
 10
-2.17963734E+01
 20
3.05286190E+02
  0
VERTEX
  8
0
 62
4
 10
-2.15000439E+01
 20
3.05280825E+02
  0
VERTEX
  8
0
 62
4
 10
-2.12037144E+01
 20
3.05286190E+02
  0
VERTEX
  8
0
 62
4
 10
-2.09096401E+01
 20
3.05302245E+02
  0
VERTEX
  8
0
 62
4
 10
-2.06200591E+01
 20
3.05328868E+02
  0
VERTEX
  8
0
 62
4
 10
-2.03371754E+01
 20
3.05365856E+02
  0
VERTEX
  8
0
 62
4
 10
-2.00631418E+01
 20
3.05412927E+02
  0
VERTEX
  8
0
 62
4
 10
-1.98000439E+01
 20
3.05469723E+02
  0
VERTEX
  8
0
 62
4
 10
-1.95498840E+01
 20
3.05535813E+02
  0
VERTEX
  8
0
 62
4
 10
-1.93145660E+01
 20
3.05610692E+02
  0
VERTEX
  8
0
 62
4
 10
-1.90958808E+01
 20
3.05693792E+02
  0
VERTEX
  8
0
 62
4
 10
-1.88954928E+01
 20
3.05784479E+02
  0
VERTEX
  8
0
 62
4
 10
-1.87149270E+01
 20
3.05882064E+02
  0
VERTEX
  8
0
 62
4
 10
-1.85555575E+01
 20
3.05985803E+02
  0
VERTEX
  8
0
 62
4
 10
-1.84185974E+01
 20
3.06094908E+02
  0
VERTEX
  8
0
 62
4
 10
-1.83050890E+01
 20
3.06208548E+02
  0
VERTEX
  8
0
 62
4
 10
-1.82158961E+01
 20
3.06325858E+02
  0
VERTEX
  8
0
 62
4
 10
-1.81516975E+01
 20
3.06445946E+02
  0
VERTEX
  8
0
 62
4
 10
-1.81129819E+01
 20
3.06567896E+02
  0
VERTEX
  8
0
 62
4
 10
-1.81000439E+01
 20
3.06690782E+02
  0
VERTEX
  8
0
 62
4
 10
-1.81129819E+01
 20
3.06813668E+02
  0
VERTEX
  8
0
 62
4
 10
-1.81516975E+01
 20
3.06935618E+02
  0
VERTEX
  8
0
 62
4
 10
-1.82158961E+01
 20
3.07055706E+02
  0
VERTEX
  8
0
 62
4
 10
-1.83050890E+01
 20
3.07173016E+02
  0
VERTEX
  8
0
 62
4
 10
-1.84185974E+01
 20
3.07286656E+02
  0
VERTEX
  8
0
 62
4
 10
-1.85555575E+01
 20
3.07395761E+02
  0
VERTEX
  8
0
 62
4
 10
-1.87149269E+01
 20
3.07499500E+02
  0
VERTEX
  8
0
 62
4
 10
-1.88954928E+01
 20
3.07597085E+02
  0
VERTEX
  8
0
 62
4
 10
-1.90958808E+01
 20
3.07687772E+02
  0
VERTEX
  8
0
 62
4
 10
-1.93145660E+01
 20
3.07770872E+02
  0
VERTEX
  8
0
 62
4
 10
-1.95498840E+01
 20
3.07845751E+02
  0
VERTEX
  8
0
 62
4
 10
-1.98000439E+01
 20
3.07911841E+02
  0
VERTEX
  8
0
 62
4
 10
-2.00631418E+01
 20
3.07968637E+02
  0
VERTEX
  8
0
 62
4
 10
-2.03371754E+01
 20
3.08015708E+02
  0
VERTEX
  8
0
 62
4
 10
-2.06200591E+01
 20
3.08052696E+02
  0
VERTEX
  8
0
 62
4
 10
-2.09096401E+01
 20
3.08079319E+02
  0
VERTEX
  8
0
 62
4
 10
-2.12037144E+01
 20
3.08095374E+02
  0
VERTEX
  8
0
 62
4
 10
-2.15000439E+01
 20
3.08100739E+02
  0
VERTEX
  8
0
 62
4
 10
-2.17963734E+01
 20
3.08095374E+02
  0
VERTEX
  8
0
 62
4
 10
-2.20904477E+01
 20
3.08079319E+02
  0
VERTEX
  8
0
 62
4
 10
-2.23800287E+01
 20
3.08052696E+02
  0
VERTEX
  8
0
 62
4
 10
-2.26629124E+01
 20
3.08015708E+02
  0
VERTEX
  8
0
 62
4
 10
-2.29369460E+01
 20
3.07968637E+02
  0
VERTEX
  8
0
 62
4
 10
-2.32000439E+01
 20
3.07911841E+02
  0
VERTEX
  8
0
 62
4
 10
-2.34502038E+01
 20
3.07845751E+02
  0
VERTEX
  8
0
 62
4
 10
-2.36855218E+01
 20
3.07770872E+02
  0
VERTEX
  8
0
 62
4
 10
-2.39042070E+01
 20
3.07687772E+02
  0
VERTEX
  8
0
 62
4
 10
-2.41045950E+01
 20
3.07597085E+02
  0
VERTEX
  8
0
 62
4
 10
-2.42851609E+01
 20
3.07499500E+02
  0
VERTEX
  8
0
 62
4
 10
-2.44445303E+01
 20
3.07395761E+02
  0
VERTEX
  8
0
 62
4
 10
-2.45814904E+01
 20
3.07286656E+02
  0
VERTEX
  8
0
 62
4
 10
-2.46949988E+01
 20
3.07173016E+02
  0
VERTEX
  8
0
 62
4
 10
-2.47841917E+01
 20
3.07055706E+02
  0
VERTEX
  8
0
 62
4
 10
-2.48483903E+01
 20
3.06935618E+02
  0
VERTEX
  8
0
 62
4
 10
-2.48871059E+01
 20
3.06813668E+02
  0
VERTEX
  8
0
 62
4
 10
-2.49000439E+01
 20
3.06690782E+02
  0
SEQEND
  8
0
  0
ARC
  8
0
 62
4
 10
-2.77471021E+01
 20
3.20720686E+02
 40
1.64201370E+01
 50
2.90122188E+02
 51
2.99216401E+02
  0
ARC
  8
0
 62
4
 10
-1.52529851E+01
 20
3.20720687E+02
 40
1.64201386E+01
 50
2.40783600E+02
 51
2.49877812E+02
  0
LINE
  8
0
  6
CENTER
 62
6
 10
-3.90000439E+01
 20
3.08629730E+02
 11
-3.40000439E+01
 21
3.08629730E+02
  0
LINE
  8
0
 62
4
 10
-1.83281532E+01
 20
3.06183040E+02
 11
-1.40000439E+01
 21
3.06183040E+02
  0
LINE
  8
0
 62
4
 10
-2.48500439E+01
 20
3.06183040E+02
 11
-2.46719346E+01
 21
3.06183040E+02
  0
LINE
  8
0
 62
4
 10
-2.48500439E+01
 20
3.05793701E+02
 11
-2.41230932E+01
 21
3.05793701E+02
  0
LINE
  8
0
 62
4
 10
-2.58005531E+01
 20
3.04134928E+02
 11
-1.90000439E+01
 21
3.04134928E+02
  0
LINE
  8
0
 62
4
 10
-2.64891135E+01
 20
3.03860757E+02
 11
-1.40000439E+01
 21
3.03860757E+02
  0
LINE
  8
0
  6
CENTER
 62
6
 10
-2.90000439E+01
 20
3.09678303E+02
 11
-2.90000439E+01
 21
3.04678303E+02
  0
LINE
  8
0
  6
CENTER
 62
6
 10
-3.15000439E+01
 20
3.07178303E+02
 11
-2.65000439E+01
 21
3.07178303E+02
  0
LINE
  8
0
  6
CENTER
 62
6
 10
-2.15000439E+01
 20
3.11129730E+02
 11
-2.15000439E+01
 21
3.06129730E+02
  0
LINE
  8
0
  6
CENTER
 62
6
 10
-2.40000439E+01
 20
3.08629730E+02
 11
-1.90000439E+01
 21
3.08629730E+02
  0
LINE
  8
0
 62
4
 10
-1.90000439E+01
 20
3.05284237E+02
 11
-1.40000439E+01
 21
3.05284237E+02
  0
LINE
  8
0
 62
7
 10
-2.39264711E+01
 20
3.34000000E+02
 11
-1.90736166E+01
 21
3.34000000E+02
  0
LINE
  8
0
 62
7
 10
-1.59264711E+01
 20
3.34000000E+02
 11
5.29999506E+01
 21
3.34000000E+02
  0
LINE
  8
0
 62
7
 10
-2.90000439E+01
 20
3.27000031E+02
 11
-5.80000439E+01
 21
3.27000031E+02
  0
LINE
  8
0
 62
7
 10
-4.40000439E+01
 20
3.18000000E+02
 11
-5.80000439E+01
 21
3.18000000E+02
  0
LINE
  8
0
 62
7
 10
1.49999523E+01
 20
2.43000000E+02
 11
-5.80000439E+01
 21
2.43000000E+02
  0
LINE
  8
0
 62
7
 10
1.49999523E+01
 20
2.33999954E+02
 11
-5.80000439E+01
 21
2.33999954E+02
  0
LINE
  8
0
 62
7
 10
2.00734673E+01
 20
2.26999985E+02
 11
2.49264373E+01
 21
2.26999985E+02
  0
LINE
  8
0
 62
7
 10
2.80734673E+01
 20
2.26999985E+02
 11
5.29999506E+01
 21
2.26999985E+02
  0
LINE
  8
0
  6
CENTER
 62
6
 10
-2.30000591E+01
 20
-2.45639053E+02
 11
-2.30000591E+01
 21
-2.50212543E+02
  0
LINE
  8
0
 62
4
 10
-6.60000591E+01
 20
-2.38514613E+02
 11
-6.10000591E+01
 21
-2.38514613E+02
  0
LINE
  8
0
 62
4
 10
-6.60000591E+01
 20
-2.32368941E+02
 11
-6.10000591E+01
 21
-2.32368941E+02
  0
LINE
  8
0
 62
4
 10
-6.60000591E+01
 20
-2.25562569E+02
 11
-6.10000591E+01
 21
-2.25562569E+02
  0
LINE
  8
0
 62
6
 10
-4.07149940E+01
 20
-2.54519549E+02
 11
-3.72851243E+01
 21
-2.51089675E+02
  0
LINE
  8
0
 62
6
 10
-3.72851218E+01
 20
-2.54519547E+02
 11
-4.07149964E+01
 21
-2.51089677E+02
  0
POLYLINE
  8
0
 62
4
 66
1
  0
VERTEX
  8
0
 62
4
 10
-4.23768337E+01
 20
-2.53708343E+02
  0
VERTEX
  8
0
 62
4
 10
-4.23987147E+01
 20
-2.53981255E+02
  0
VERTEX
  8
0
 62
4
 10
-4.23937961E+01
 20
-2.54254850E+02
  0
VERTEX
  8
0
 62
4
 10
-4.23621165E+01
 20
-2.54526971E+02
  0
VERTEX
  8
0
 62
4
 10
-4.23039259E+01
 20
-2.54795471E+02
  0
VERTEX
  8
0
 62
4
 10
-4.22196831E+01
 20
-2.55058235E+02
  0
VERTEX
  8
0
 62
4
 10
-4.21100524E+01
 20
-2.55313190E+02
  0
VERTEX
  8
0
 62
4
 10
-4.19758982E+01
 20
-2.55558325E+02
  0
VERTEX
  8
0
 62
4
 10
-4.18182784E+01
 20
-2.55791707E+02
  0
VERTEX
  8
0
 62
4
 10
-4.16384359E+01
 20
-2.56011497E+02
  0
VERTEX
  8
0
 62
4
 10
-4.14377888E+01
 20
-2.56215960E+02
  0
VERTEX
  8
0
 62
4
 10
-4.12179193E+01
 20
-2.56403486E+02
  0
VERTEX
  8
0
 62
4
 10
-4.09805611E+01
 20
-2.56572594E+02
  0
VERTEX
  8
0
 62
4
 10
-4.07275860E+01
 20
-2.56721952E+02
  0
VERTEX
  8
0
 62
4
 10
-4.04609887E+01
 20
-2.56850382E+02
  0
VERTEX
  8
0
 62
4
 10
-4.01828714E+01
 20
-2.56956871E+02
  0
VERTEX
  8
0
 62
4
 10
-3.98954271E+01
 20
-2.57040579E+02
  0
VERTEX
  8
0
 62
4
 10
-3.96009226E+01
 20
-2.57100847E+02
  0
VERTEX
  8
0
 62
4
 10
-3.93016801E+01
 20
-2.57137198E+02
  0
VERTEX
  8
0
 62
4
 10
-3.90000591E+01
 20
-2.57149347E+02
  0
VERTEX
  8
0
 62
4
 10
-3.86984381E+01
 20
-2.57137198E+02
  0
VERTEX
  8
0
 62
4
 10
-3.83991956E+01
 20
-2.57100847E+02
  0
VERTEX
  8
0
 62
4
 10
-3.81046911E+01
 20
-2.57040579E+02
  0
VERTEX
  8
0
 62
4
 10
-3.78172468E+01
 20
-2.56956871E+02
  0
VERTEX
  8
0
 62
4
 10
-3.75391295E+01
 20
-2.56850382E+02
  0
VERTEX
  8
0
 62
4
 10
-3.72725322E+01
 20
-2.56721952E+02
  0
VERTEX
  8
0
 62
4
 10
-3.70195571E+01
 20
-2.56572594E+02
  0
VERTEX
  8
0
 62
4
 10
-3.67821989E+01
 20
-2.56403486E+02
  0
VERTEX
  8
0
 62
4
 10
-3.65623294E+01
 20
-2.56215960E+02
  0
VERTEX
  8
0
 62
4
 10
-3.63616823E+01
 20
-2.56011497E+02
  0
VERTEX
  8
0
 62
4
 10
-3.61818398E+01
 20
-2.55791707E+02
  0
VERTEX
  8
0
 62
4
 10
-3.60242200E+01
 20
-2.55558325E+02
  0
VERTEX
  8
0
 62
4
 10
-3.58900658E+01
 20
-2.55313190E+02
  0
VERTEX
  8
0
 62
4
 10
-3.57804351E+01
 20
-2.55058235E+02
  0
VERTEX
  8
0
 62
4
 10
-3.56961923E+01
 20
-2.54795471E+02
  0
VERTEX
  8
0
 62
4
 10
-3.56380017E+01
 20
-2.54526971E+02
  0
VERTEX
  8
0
 62
4
 10
-3.56063221E+01
 20
-2.54254850E+02
  0
VERTEX
  8
0
 62
4
 10
-3.56014035E+01
 20
-2.53981255E+02
  0
VERTEX
  8
0
 62
4
 10
-3.56232845E+01
 20
-2.53708343E+02
  0
SEQEND
  8
0
  0
POLYLINE
  8
0
 62
4
 66
1
  0
VERTEX
  8
0
 62
4
 10
-3.56000591E+01
 20
-2.53337911E+02
  0
VERTEX
  8
0
 62
4
 10
-3.56129971E+01
 20
-2.53061223E+02
  0
VERTEX
  8
0
 62
4
 10
-3.56517127E+01
 20
-2.52786640E+02
  0
VERTEX
  8
0
 62
4
 10
-3.57159113E+01
 20
-2.52516254E+02
  0
VERTEX
  8
0
 62
4
 10
-3.58051042E+01
 20
-2.52252120E+02
  0
VERTEX
  8
0
 62
4
 10
-3.59186126E+01
 20
-2.51996250E+02
  0
VERTEX
  8
0
 62
4
 10
-3.60555727E+01
 20
-2.51750591E+02
  0
VERTEX
  8
0
 62
4
 10
-3.62149421E+01
 20
-2.51517012E+02
  0
VERTEX
  8
0
 62
4
 10
-3.63955080E+01
 20
-2.51297291E+02
  0
VERTEX
  8
0
 62
4
 10
-3.65958960E+01
 20
-2.51093101E+02
  0
VERTEX
  8
0
 62
4
 10
-3.68145812E+01
 20
-2.50905995E+02
  0
VERTEX
  8
0
 62
4
 10
-3.70498992E+01
 20
-2.50737398E+02
  0
VERTEX
  8
0
 62
4
 10
-3.73000591E+01
 20
-2.50588591E+02
  0
VERTEX
  8
0
 62
4
 10
-3.75631570E+01
 20
-2.50460709E+02
  0
VERTEX
  8
0
 62
4
 10
-3.78371906E+01
 20
-2.50354725E+02
  0
VERTEX
  8
0
 62
4
 10
-3.81200743E+01
 20
-2.50271444E+02
  0
VERTEX
  8
0
 62
4
 10
-3.84096553E+01
 20
-2.50211500E+02
  0
VERTEX
  8
0
 62
4
 10
-3.87037296E+01
 20
-2.50175351E+02
  0
VERTEX
  8
0
 62
4
 10
-3.90000591E+01
 20
-2.50163270E+02
  0
VERTEX
  8
0
 62
4
 10
-3.92963886E+01
 20
-2.50175351E+02
  0
VERTEX
  8
0
 62
4
 10
-3.95904629E+01
 20
-2.50211500E+02
  0
VERTEX
  8
0
 62
4
 10
-3.98800439E+01
 20
-2.50271444E+02
  0
VERTEX
  8
0
 62
4
 10
-4.01629276E+01
 20
-2.50354725E+02
  0
VERTEX
  8
0
 62
4
 10
-4.04369612E+01
 20
-2.50460709E+02
  0
VERTEX
  8
0
 62
4
 10
-4.07000591E+01
 20
-2.50588591E+02
  0
VERTEX
  8
0
 62
4
 10
-4.09502190E+01
 20
-2.50737398E+02
  0
VERTEX
  8
0
 62
4
 10
-4.11855370E+01
 20
-2.50905995E+02
  0
VERTEX
  8
0
 62
4
 10
-4.14042222E+01
 20
-2.51093101E+02
  0
VERTEX
  8
0
 62
4
 10
-4.16046102E+01
 20
-2.51297291E+02
  0
VERTEX
  8
0
 62
4
 10
-4.17851761E+01
 20
-2.51517012E+02
  0
VERTEX
  8
0
 62
4
 10
-4.19445455E+01
 20
-2.51750591E+02
  0
VERTEX
  8
0
 62
4
 10
-4.20815056E+01
 20
-2.51996250E+02
  0
VERTEX
  8
0
 62
4
 10
-4.21950140E+01
 20
-2.52252120E+02
  0
VERTEX
  8
0
 62
4
 10
-4.22842069E+01
 20
-2.52516254E+02
  0
VERTEX
  8
0
 62
4
 10
-4.23484055E+01
 20
-2.52786640E+02
  0
VERTEX
  8
0
 62
4
 10
-4.23871211E+01
 20
-2.53061223E+02
  0
VERTEX
  8
0
 62
4
 10
-4.24000591E+01
 20
-2.53337911E+02
  0
VERTEX
  8
0
 62
4
 10
-4.23871211E+01
 20
-2.53614599E+02
  0
VERTEX
  8
0
 62
4
 10
-4.23484055E+01
 20
-2.53889182E+02
  0
VERTEX
  8
0
 62
4
 10
-4.22842069E+01
 20
-2.54159568E+02
  0
VERTEX
  8
0
 62
4
 10
-4.21950140E+01
 20
-2.54423702E+02
  0
VERTEX
  8
0
 62
4
 10
-4.20815056E+01
 20
-2.54679572E+02
  0
VERTEX
  8
0
 62
4
 10
-4.19445455E+01
 20
-2.54925231E+02
  0
VERTEX
  8
0
 62
4
 10
-4.17851760E+01
 20
-2.55158810E+02
  0
VERTEX
  8
0
 62
4
 10
-4.16046102E+01
 20
-2.55378531E+02
  0
VERTEX
  8
0
 62
4
 10
-4.14042222E+01
 20
-2.55582721E+02
  0
VERTEX
  8
0
 62
4
 10
-4.11855370E+01
 20
-2.55769827E+02
  0
VERTEX
  8
0
 62
4
 10
-4.09502190E+01
 20
-2.55938424E+02
  0
VERTEX
  8
0
 62
4
 10
-4.07000591E+01
 20
-2.56087231E+02
  0
VERTEX
  8
0
 62
4
 10
-4.04369612E+01
 20
-2.56215113E+02
  0
VERTEX
  8
0
 62
4
 10
-4.01629276E+01
 20
-2.56321097E+02
  0
VERTEX
  8
0
 62
4
 10
-3.98800438E+01
 20
-2.56404378E+02
  0
VERTEX
  8
0
 62
4
 10
-3.95904629E+01
 20
-2.56464322E+02
  0
VERTEX
  8
0
 62
4
 10
-3.92963886E+01
 20
-2.56500471E+02
  0
VERTEX
  8
0
 62
4
 10
-3.90000591E+01
 20
-2.56512552E+02
  0
VERTEX
  8
0
 62
4
 10
-3.87037296E+01
 20
-2.56500471E+02
  0
VERTEX
  8
0
 62
4
 10
-3.84096553E+01
 20
-2.56464322E+02
  0
VERTEX
  8
0
 62
4
 10
-3.81200743E+01
 20
-2.56404378E+02
  0
VERTEX
  8
0
 62
4
 10
-3.78371906E+01
 20
-2.56321097E+02
  0
VERTEX
  8
0
 62
4
 10
-3.75631570E+01
 20
-2.56215113E+02
  0
VERTEX
  8
0
 62
4
 10
-3.73000591E+01
 20
-2.56087231E+02
  0
VERTEX
  8
0
 62
4
 10
-3.70498992E+01
 20
-2.55938424E+02
  0
VERTEX
  8
0
 62
4
 10
-3.68145812E+01
 20
-2.55769827E+02
  0
VERTEX
  8
0
 62
4
 10
-3.65958960E+01
 20
-2.55582721E+02
  0
VERTEX
  8
0
 62
4
 10
-3.63955080E+01
 20
-2.55378531E+02
  0
VERTEX
  8
0
 62
4
 10
-3.62149421E+01
 20
-2.55158810E+02
  0
VERTEX
  8
0
 62
4
 10
-3.60555727E+01
 20
-2.54925231E+02
  0
VERTEX
  8
0
 62
4
 10
-3.59186126E+01
 20
-2.54679572E+02
  0
VERTEX
  8
0
 62
4
 10
-3.58051042E+01
 20
-2.54423702E+02
  0
VERTEX
  8
0
 62
4
 10
-3.57159113E+01
 20
-2.54159568E+02
  0
VERTEX
  8
0
 62
4
 10
-3.56517127E+01
 20
-2.53889182E+02
  0
VERTEX
  8
0
 62
4
 10
-3.56129971E+01
 20
-2.53614599E+02
  0
VERTEX
  8
0
 62
4
 10
-3.56000591E+01
 20
-2.53337911E+02
  0
SEQEND
  8
0
  0
POLYLINE
  8
0
 62
4
 66
1
  0
VERTEX
  8
0
 62
4
 10
-4.30000591E+01
 20
-2.54173556E+02
  0
VERTEX
  8
0
 62
4
 10
-4.29848379E+01
 20
-2.54480308E+02
  0
VERTEX
  8
0
 62
4
 10
-4.29392900E+01
 20
-2.54784725E+02
  0
VERTEX
  8
0
 62
4
 10
-4.28637622E+01
 20
-2.55084490E+02
  0
VERTEX
  8
0
 62
4
 10
-4.27588291E+01
 20
-2.55377323E+02
  0
VERTEX
  8
0
 62
4
 10
-4.26252896E+01
 20
-2.55660995E+02
  0
VERTEX
  8
0
 62
4
 10
-4.24641597E+01
 20
-2.55933346E+02
  0
VERTEX
  8
0
 62
4
 10
-4.22766659E+01
 20
-2.56192304E+02
  0
VERTEX
  8
0
 62
4
 10
-4.20642352E+01
 20
-2.56435898E+02
  0
VERTEX
  8
0
 62
4
 10
-4.18284841E+01
 20
-2.56662274E+02
  0
VERTEX
  8
0
 62
4
 10
-4.15712070E+01
 20
-2.56869710E+02
  0
VERTEX
  8
0
 62
4
 10
-4.12943619E+01
 20
-2.57056626E+02
  0
VERTEX
  8
0
 62
4
 10
-4.10000557E+01
 20
-2.57221600E+02
  0
VERTEX
  8
0
 62
4
 10
-4.06905282E+01
 20
-2.57363377E+02
  0
VERTEX
  8
0
 62
4
 10
-4.03681353E+01
 20
-2.57480878E+02
  0
VERTEX
  8
0
 62
4
 10
-4.00353305E+01
 20
-2.57573207E+02
  0
VERTEX
  8
0
 62
4
 10
-3.96946466E+01
 20
-2.57639663E+02
  0
VERTEX
  8
0
 62
4
 10
-3.93486764E+01
 20
-2.57679740E+02
  0
VERTEX
  8
0
 62
4
 10
-3.90000531E+01
 20
-2.57693133E+02
  0
VERTEX
  8
0
 62
4
 10
-3.86514298E+01
 20
-2.57679739E+02
  0
VERTEX
  8
0
 62
4
 10
-3.83054598E+01
 20
-2.57639661E+02
  0
VERTEX
  8
0
 62
4
 10
-3.79647762E+01
 20
-2.57573204E+02
  0
VERTEX
  8
0
 62
4
 10
-3.76319717E+01
 20
-2.57480874E+02
  0
VERTEX
  8
0
 62
4
 10
-3.73095791E+01
 20
-2.57363373E+02
  0
VERTEX
  8
0
 62
4
 10
-3.70000522E+01
 20
-2.57221595E+02
  0
VERTEX
  8
0
 62
4
 10
-3.67057465E+01
 20
-2.57056620E+02
  0
VERTEX
  8
0
 62
4
 10
-3.64289020E+01
 20
-2.56869703E+02
  0
VERTEX
  8
0
 62
4
 10
-3.61716256E+01
 20
-2.56662267E+02
  0
VERTEX
  8
0
 62
4
 10
-3.59358753E+01
 20
-2.56435890E+02
  0
VERTEX
  8
0
 62
4
 10
-3.57234454E+01
 20
-2.56192295E+02
  0
VERTEX
  8
0
 62
4
 10
-3.55359525E+01
 20
-2.55933337E+02
  0
VERTEX
  8
0
 62
4
 10
-3.53748236E+01
 20
-2.55660985E+02
  0
VERTEX
  8
0
 62
4
 10
-3.52412850E+01
 20
-2.55377313E+02
  0
VERTEX
  8
0
 62
4
 10
-3.51363530E+01
 20
-2.55084480E+02
  0
VERTEX
  8
0
 62
4
 10
-3.50608261E+01
 20
-2.54784714E+02
  0
VERTEX
  8
0
 62
4
 10
-3.50152793E+01
 20
-2.54480297E+02
  0
VERTEX
  8
0
 62
4
 10
-3.50000591E+01
 20
-2.54173545E+02
  0
SEQEND
  8
0
  0
POLYLINE
  8
0
 62
4
 66
1
  0
VERTEX
  8
0
 62
4
 10
-4.17328068E+01
 20
-2.51449101E+02
  0
VERTEX
  8
0
 62
4
 10
-4.19802784E+01
 20
-2.51685043E+02
  0
VERTEX
  8
0
 62
4
 10
-4.22044239E+01
 20
-2.51940463E+02
  0
VERTEX
  8
0
 62
4
 10
-4.24034889E+01
 20
-2.52213361E+02
  0
VERTEX
  8
0
 62
4
 10
-4.25759154E+01
 20
-2.52501602E+02
  0
VERTEX
  8
0
 62
4
 10
-4.27203537E+01
 20
-2.52802929E+02
  0
VERTEX
  8
0
 62
4
 10
-4.28356734E+01
 20
-2.53114984E+02
  0
VERTEX
  8
0
 62
4
 10
-4.29209718E+01
 20
-2.53435324E+02
  0
VERTEX
  8
0
 62
4
 10
-4.29755814E+01
 20
-2.53761442E+02
  0
VERTEX
  8
0
 62
4
 10
-4.29990746E+01
 20
-2.54090786E+02
  0
VERTEX
  8
0
 62
4
 10
-4.29912677E+01
 20
-2.54420778E+02
  0
VERTEX
  8
0
 62
4
 10
-4.29522217E+01
 20
-2.54748835E+02
  0
VERTEX
  8
0
 62
4
 10
-4.28822422E+01
 20
-2.55072389E+02
  0
VERTEX
  8
0
 62
4
 10
-4.27818769E+01
 20
-2.55388908E+02
  0
VERTEX
  8
0
 62
4
 10
-4.26519115E+01
 20
-2.55695915E+02
  0
VERTEX
  8
0
 62
4
 10
-4.24933631E+01
 20
-2.55991006E+02
  0
VERTEX
  8
0
 62
4
 10
-4.23074727E+01
 20
-2.56271871E+02
  0
VERTEX
  8
0
 62
4
 10
-4.20956953E+01
 20
-2.56536314E+02
  0
VERTEX
  8
0
 62
4
 10
-4.18596884E+01
 20
-2.56782263E+02
  0
VERTEX
  8
0
 62
4
 10
-4.16012993E+01
 20
-2.57007794E+02
  0
VERTEX
  8
0
 62
4
 10
-4.13225503E+01
 20
-2.57211141E+02
  0
VERTEX
  8
0
 62
4
 10
-4.10256233E+01
 20
-2.57390714E+02
  0
VERTEX
  8
0
 62
4
 10
-4.07128422E+01
 20
-2.57545105E+02
  0
VERTEX
  8
0
 62
4
 10
-4.03866552E+01
 20
-2.57673108E+02
  0
VERTEX
  8
0
 62
4
 10
-4.00496154E+01
 20
-2.57773720E+02
  0
VERTEX
  8
0
 62
4
 10
-3.97043607E+01
 20
-2.57846153E+02
  0
VERTEX
  8
0
 62
4
 10
-3.93535934E+01
 20
-2.57889841E+02
  0
VERTEX
  8
0
 62
4
 10
-3.90000591E+01
 20
-2.57904442E+02
  0
VERTEX
  8
0
 62
4
 10
-3.86465247E+01
 20
-2.57889841E+02
  0
VERTEX
  8
0
 62
4
 10
-3.82957575E+01
 20
-2.57846153E+02
  0
VERTEX
  8
0
 62
4
 10
-3.79505028E+01
 20
-2.57773720E+02
  0
VERTEX
  8
0
 62
4
 10
-3.76134630E+01
 20
-2.57673108E+02
  0
VERTEX
  8
0
 62
4
 10
-3.72872760E+01
 20
-2.57545105E+02
  0
VERTEX
  8
0
 62
4
 10
-3.69744949E+01
 20
-2.57390713E+02
  0
VERTEX
  8
0
 62
4
 10
-3.66775679E+01
 20
-2.57211141E+02
  0
VERTEX
  8
0
 62
4
 10
-3.63988189E+01
 20
-2.57007794E+02
  0
VERTEX
  8
0
 62
4
 10
-3.61404298E+01
 20
-2.56782263E+02
  0
VERTEX
  8
0
 62
4
 10
-3.59044229E+01
 20
-2.56536314E+02
  0
VERTEX
  8
0
 62
4
 10
-3.56926455E+01
 20
-2.56271871E+02
  0
VERTEX
  8
0
 62
4
 10
-3.55067551E+01
 20
-2.55991006E+02
  0
VERTEX
  8
0
 62
4
 10
-3.53482067E+01
 20
-2.55695915E+02
  0
VERTEX
  8
0
 62
4
 10
-3.52182413E+01
 20
-2.55388908E+02
  0
VERTEX
  8
0
 62
4
 10
-3.51178760E+01
 20
-2.55072389E+02
  0
VERTEX
  8
0
 62
4
 10
-3.50478965E+01
 20
-2.54748835E+02
  0
VERTEX
  8
0
 62
4
 10
-3.50088505E+01
 20
-2.54420778E+02
  0
VERTEX
  8
0
 62
4
 10
-3.50010436E+01
 20
-2.54090786E+02
  0
VERTEX
  8
0
 62
4
 10
-3.50245368E+01
 20
-2.53761442E+02
  0
VERTEX
  8
0
 62
4
 10
-3.50791464E+01
 20
-2.53435324E+02
  0
VERTEX
  8
0
 62
4
 10
-3.51644448E+01
 20
-2.53114984E+02
  0
VERTEX
  8
0
 62
4
 10
-3.52797645E+01
 20
-2.52802929E+02
  0
VERTEX
  8
0
 62
4
 10
-3.54242028E+01
 20
-2.52501602E+02
  0
VERTEX
  8
0
 62
4
 10
-3.55966293E+01
 20
-2.52213361E+02
  0
VERTEX
  8
0
 62
4
 10
-3.57956943E+01
 20
-2.51940463E+02
  0
VERTEX
  8
0
 62
4
 10
-3.60198398E+01
 20
-2.51685043E+02
  0
VERTEX
  8
0
 62
4
 10
-3.62673114E+01
 20
-2.51449101E+02
  0
SEQEND
  8
0
  0
LINE
  8
0
  6
CENTER
 62
6
 10
-3.90000591E+01
 20
-2.48201077E+02
 11
-3.90000591E+01
 21
-2.59168484E+02
  0
LINE
  8
0
  6
CENTER
 62
6
 10
-4.50640645E+01
 20
-2.52804612E+02
 11
-3.31177756E+01
 21
-2.52804612E+02
  0
LINE
  8
0
 62
4
 10
-5.10000591E+01
 20
-2.61076519E+02
 11
-4.80000591E+01
 21
-2.65969605E+02
  0
LINE
  8
0
 62
4
 10
-1.20000591E+01
 20
-2.61076519E+02
 11
-1.50000591E+01
 21
-2.65969605E+02
  0
ARC
  8
0
 62
4
 10
-4.95000563E+01
 20
-2.49804225E+02
 40
1.50000284E+00
 50
9.00001085E+01
 51
1.79999892E+02
  0
ARC
  8
0
 62
4
 10
-5.55000634E+01
 20
-2.38208271E+02
 40
4.99995728E-01
 50
1.79999510E+02
 51
2.70000490E+02
  0
ARC
  8
0
 62
4
 10
-1.35000620E+01
 20
-2.49804225E+02
 40
1.50000284E+00
 50
1.08554370E-04
 51
8.99998913E+01
  0
ARC
  8
0
 62
4
 10
-4.70000634E+01
 20
-2.39208271E+02
 40
5.00004272E-01
 50
4.89585868E-04
 51
8.99995103E+01
  0
ARC
  8
0
 62
4
 10
-5.55000549E+01
 20
-2.25208271E+02
 40
5.00004272E-01
 50
9.00004895E+01
 51
1.79999510E+02
  0
LINE
  8
0
 62
4
 10
-5.95000591E+01
 20
-2.37458267E+02
 11
-5.60000591E+01
 21
-2.37458267E+02
  0
LINE
  8
0
 62
4
 10
-5.95000591E+01
 20
-2.25958267E+02
 11
-5.60000591E+01
 21
-2.25958267E+02
  0
LINE
  8
0
 62
4
 10
-5.95000591E+01
 20
-2.25458267E+02
 11
-5.95000591E+01
 21
-2.37958267E+02
  0
LINE
  8
0
 62
4
 10
-6.10000591E+01
 20
-2.37958267E+02
 11
-5.60000591E+01
 21
-2.37958267E+02
  0
LINE
  8
0
 62
4
 10
-6.10000591E+01
 20
-2.25458267E+02
 11
-5.60000591E+01
 21
-2.25458267E+02
  0
LINE
  8
0
 62
4
 10
-6.10000591E+01
 20
-2.24910934E+02
 11
-6.10000591E+01
 21
-2.38514613E+02
  0
LINE
  8
0
 62
4
 10
-6.60000591E+01
 20
-2.24910934E+02
 11
-6.60000591E+01
 21
-2.38514613E+02
  0
LINE
  8
0
 62
4
 10
-5.60000591E+01
 20
-2.25208267E+02
 11
-5.60000591E+01
 21
-2.38208267E+02
  0
LINE
  8
0
 62
4
 10
-4.65000591E+01
 20
-2.24708267E+02
 11
-5.55000591E+01
 21
-2.24708267E+02
  0
LINE
  8
0
 62
4
 10
-5.55000591E+01
 20
-2.38708267E+02
 11
-4.70000591E+01
 21
-2.38708267E+02
  0
LINE
  8
0
 62
4
 10
-6.60000591E+01
 20
-2.24910934E+02
 11
-6.10000591E+01
 21
-2.24910934E+02
  0
LINE
  8
0
 62
4
 10
-4.95000591E+01
 20
-2.48304222E+02
 11
-1.35000591E+01
 21
-2.48304222E+02
  0
LINE
  8
0
 62
4
 10
-5.10000591E+01
 20
-2.59717057E+02
 11
-1.20000591E+01
 21
-2.59717057E+02
  0
LINE
  8
0
 62
4
 10
-5.10000591E+01
 20
-2.61076519E+02
 11
-1.20000591E+01
 21
-2.61076519E+02
  0
LINE
  8
0
 62
4
 10
-1.20000591E+01
 20
-2.49804222E+02
 11
-1.20000591E+01
 21
-2.61076519E+02
  0
LINE
  8
0
 62
4
 10
-4.65000591E+01
 20
-2.44852145E+02
 11
-3.15000591E+01
 21
-2.44852145E+02
  0
LINE
  8
0
 62
4
 10
-2.95000591E+01
 20
-2.44913216E+02
 11
-2.95000591E+01
 21
-2.48304222E+02
  0
LINE
  8
0
 62
4
 10
-4.65000591E+01
 20
-2.23100758E+02
 11
-4.65000591E+01
 21
-2.44913216E+02
  0
LINE
  8
0
 62
4
 10
-3.15000591E+01
 20
-2.23100758E+02
 11
-3.15000591E+01
 21
-2.44913216E+02
  0
LINE
  8
0
 62
4
 10
-4.85000591E+01
 20
-2.44913216E+02
 11
-4.85000591E+01
 21
-2.48304222E+02
  0
LINE
  8
0
 62
4
 10
-5.10000591E+01
 20
-2.49804222E+02
 11
-5.10000591E+01
 21
-2.61076519E+02
  0
LINE
  8
0
 62
4
 10
-4.85000591E+01
 20
-2.44913216E+02
 11
-2.95000591E+01
 21
-2.44913216E+02
  0
LINE
  8
0
 62
4
 10
-4.65000591E+01
 20
-2.23100758E+02
 11
-3.15000591E+01
 21
-2.23100758E+02
  0
ARC
  8
0
 62
4
 10
-3.98630525E+02
 20
-2.31708267E+02
 40
7.00000000E+00
 50
1.23115777E+02
 51
1.46002341E+02
  0
ARC
  8
0
 62
4
 10
-3.98630525E+02
 20
-2.31708267E+02
 40
7.00000000E+00
 50
8.39976594E+01
 51
1.06884035E+02
  0
ARC
  8
0
 62
4
 10
-3.79243845E+02
 20
-2.50804238E+02
 40
2.50001570E+00
 50
2.50003598E+01
 51
1.14999640E+02
  0
ARC
  8
0
 62
4
 10
-3.96463670E+02
 20
-2.58833970E+02
 40
2.50001192E+00
 50
1.15000273E+02
 51
2.04999727E+02
  0
ARC
  8
0
 62
4
 10
-3.82386438E+02
 20
-2.57822901E+02
 40
1.18036308E+01
 50
1.22898056E+01
 51
3.79747793E+01
  0
CIRCLE
  8
0
 62
4
 10
-3.98630525E+02
 20
-2.31708267E+02
 40
3.75000000E+00
  0
ARC
  8
0
 62
4
 10
-3.73862337E+02
 20
-2.51160479E+02
 40
9.97209177E-01
 50
3.75805360E+01
 51
1.14812291E+02
  0
ARC
  8
0
 62
4
 10
-3.71830631E+02
 20
-2.55514207E+02
 40
9.98345090E-01
 50
2.95107939E+02
 51
1.17781676E+01
  0
LINE
  8
0
 62
4
 10
-3.76102296E+02
 20
-2.50442670E+02
 11
-3.72721350E+02
 21
-2.57693132E+02
  0
LINE
  8
0
  6
CENTER
 62
6
 10
-3.94639024E+02
 20
-2.63500000E+02
 11
-3.68973976E+02
 21
-2.51532192E+02
  0
LINE
  8
0
 62
4
 10
-3.71407008E+02
 20
-2.56418218E+02
 11
-3.72974921E+02
 21
-2.57149348E+02
  0
LINE
  8
0
 62
4
 10
-3.75848725E+02
 20
-2.50986455E+02
 11
-3.74280812E+02
 21
-2.50255325E+02
  0
LINE
  8
0
 62
4
 10
-3.73174504E+02
 20
-2.57904442E+02
 11
-3.72721350E+02
 21
-2.57693132E+02
  0
LINE
  8
0
 62
4
 10
-3.76555450E+02
 20
-2.50653979E+02
 11
-3.76102296E+02
 21
-2.50442670E+02
  0
LINE
  8
0
 62
4
 10
-3.98809836E+02
 20
-2.25171588E+02
 11
-3.94368928E+02
 21
-2.23100758E+02
  0
LINE
  8
0
 62
4
 10
-4.01800164E+02
 20
-2.24910934E+02
 11
-3.94324345E+02
 21
-2.25562569E+02
  0
LINE
  8
0
 62
4
 10
-4.02932483E+02
 20
-2.37862978E+02
 11
-3.95456664E+02
 21
-2.38514613E+02
  0
LINE
  8
0
 62
4
 10
-3.94324345E+02
 20
-2.25562569E+02
 11
-3.91150482E+02
 21
-2.32368941E+02
  0
LINE
  8
0
 62
4
 10
-4.06106346E+02
 20
-2.31056606E+02
 11
-4.02932483E+02
 21
-2.37862978E+02
  0
LINE
  8
0
 62
4
 10
-4.06106346E+02
 20
-2.31056606E+02
 11
-4.01800164E+02
 21
-2.24910934E+02
  0
LINE
  8
0
 62
4
 10
-3.95456664E+02
 20
-2.38514613E+02
 11
-3.91150482E+02
 21
-2.32368941E+02
  0
LINE
  8
0
 62
4
 10
-3.83716745E+02
 20
-2.58958547E+02
 11
-3.82660200E+02
 21
-2.61224316E+02
  0
LINE
  8
0
 62
4
 10
-3.87341977E+02
 20
-2.60649020E+02
 11
-3.86285431E+02
 21
-2.62914789E+02
  0
LINE
  8
0
 62
4
 10
-3.86285431E+02
 20
-2.62914789E+02
 11
-3.82660200E+02
 21
-2.61224316E+02
  0
LINE
  8
0
 62
4
 10
-3.87341977E+02
 20
-2.60649020E+02
 11
-3.83716745E+02
 21
-2.58958547E+02
  0
LINE
  8
0
 62
4
 10
-3.80441814E+02
 20
-2.63500000E+02
 11
-3.72329267E+02
 21
-2.59717057E+02
  0
LINE
  8
0
 62
4
 10
-3.71695340E+02
 20
-2.61076519E+02
 11
-3.72204718E+02
 21
-2.63500000E+02
  0
LINE
  8
0
 62
4
 10
-3.98729455E+02
 20
-2.59890510E+02
 11
-3.97046322E+02
 21
-2.63500000E+02
  0
LINE
  8
0
 62
4
 10
-3.76978068E+02
 20
-2.49747671E+02
 11
-3.71695340E+02
 21
-2.61076519E+02
  0
LINE
  8
0
 62
4
 10
-3.76892512E+02
 20
-2.63500000E+02
 11
-3.71695340E+02
 21
-2.61076519E+02
  0
LINE
  8
0
 62
4
 10
-3.97520231E+02
 20
-2.56568195E+02
 11
-3.80300383E+02
 21
-2.48538448E+02
  0
LINE
  8
0
 62
4
 10
-3.99210704E+02
 20
-2.52942963E+02
 11
-3.97520231E+02
 21
-2.56568195E+02
  0
LINE
  8
0
 62
4
 10
-3.81990856E+02
 20
-2.44913216E+02
 11
-3.80300383E+02
 21
-2.48538448E+02
  0
LINE
  8
0
 62
4
 10
-3.97820707E+02
 20
-2.51191419E+02
 11
-3.84226090E+02
 21
-2.44852145E+02
  0
LINE
  8
0
 62
4
 10
-3.99210704E+02
 20
-2.52942963E+02
 11
-3.81990856E+02
 21
-2.44913216E+02
  0
LINE
  8
0
 62
4
 10
-4.07963545E+02
 20
-2.29440032E+02
 11
-3.97398089E+02
 21
-2.52097727E+02
  0
LINE
  8
0
 62
4
 10
-3.94368928E+02
 20
-2.23100758E+02
 11
-3.83803472E+02
 21
-2.45758453E+02
  0
LINE
  8
0
 62
4
 10
-4.07963545E+02
 20
-2.29440032E+02
 11
-4.03531700E+02
 21
-2.27373429E+02
  0
LINE
  8
0
 62
4
 10
-4.04856841E+02
 20
-2.63299446E+02
 11
-4.04950362E+02
 21
-2.63500000E+02
  0
LINE
  8
0
 62
4
 10
-4.04856841E+02
 20
-2.63299446E+02
 11
-3.98518146E+02
 21
-2.60343664E+02
  0
LINE
  8
0
 62
4
 10
-4.04848517E+02
 20
-2.63500000E+02
 11
-4.04738254E+02
 21
-2.63268828E+02
  0
LINE
  8
0
 62
4
 10
1.66856753E+02
 20
-2.63299446E+02
 11
1.66950274E+02
 21
-2.63500000E+02
  0
LINE
  8
0
 62
4
 10
1.49341889E+02
 20
-2.60649020E+02
 11
1.48285343E+02
 21
-2.62914789E+02
  0
LINE
  8
0
 62
4
 10
1.48285343E+02
 20
-2.62914789E+02
 11
1.44660112E+02
 21
-2.61224316E+02
  0
LINE
  8
0
 62
4
 10
1.66856753E+02
 20
-2.63299446E+02
 11
1.60518058E+02
 21
-2.60343664E+02
  0
LINE
  8
0
 62
4
 10
1.38892424E+02
 20
-2.63500000E+02
 11
1.33695252E+02
 21
-2.61076519E+02
  0
LINE
  8
0
 62
4
 10
1.33695252E+02
 20
-2.61076519E+02
 11
1.34204630E+02
 21
-2.63500000E+02
  0
LINE
  8
0
 62
4
 10
1.42441727E+02
 20
-2.63500000E+02
 11
1.34329179E+02
 21
-2.59717057E+02
  0
LINE
  8
0
 62
4
 10
1.49341889E+02
 20
-2.60649020E+02
 11
1.45716658E+02
 21
-2.58958547E+02
  0
LINE
  8
0
 62
4
 10
1.45716658E+02
 20
-2.58958547E+02
 11
1.44660112E+02
 21
-2.61224316E+02
  0
ARC
  8
0
 62
4
 10
1.58463582E+02
 20
-2.58833970E+02
 40
2.50001192E+00
 50
3.35000273E+02
 51
6.49997271E+01
  0
LINE
  8
0
 62
4
 10
1.61210616E+02
 20
-2.52942963E+02
 11
1.59520143E+02
 21
-2.56568195E+02
  0
LINE
  8
0
 62
4
 10
1.60729367E+02
 20
-2.59890510E+02
 11
1.59046234E+02
 21
-2.63500000E+02
  0
ARC
  8
0
 62
4
 10
1.41243757E+02
 20
-2.50804238E+02
 40
2.50001570E+00
 50
6.50003596E+01
 51
1.54999640E+02
  0
ARC
  8
0
 62
4
 10
1.44386350E+02
 20
-2.57822901E+02
 40
1.18036308E+01
 50
1.42025221E+02
 51
1.67710194E+02
  0
ARC
  8
0
 62
4
 10
1.35862249E+02
 20
-2.51160479E+02
 40
9.97209177E-01
 50
6.51877094E+01
 51
1.42419464E+02
  0
ARC
  8
0
 62
4
 10
1.33830543E+02
 20
-2.55514207E+02
 40
9.98345090E-01
 50
1.68221832E+02
 51
2.44892061E+02
  0
LINE
  8
0
 62
4
 10
1.38102208E+02
 20
-2.50442670E+02
 11
1.34721262E+02
 21
-2.57693132E+02
  0
LINE
  8
0
 62
4
 10
1.33406920E+02
 20
-2.56418218E+02
 11
1.34974833E+02
 21
-2.57149348E+02
  0
LINE
  8
0
 62
4
 10
1.37848637E+02
 20
-2.50986455E+02
 11
1.36280725E+02
 21
-2.50255325E+02
  0
LINE
  8
0
 62
4
 10
1.35174416E+02
 20
-2.57904442E+02
 11
1.34721262E+02
 21
-2.57693132E+02
  0
LINE
  8
0
 62
4
 10
1.38555362E+02
 20
-2.50653979E+02
 11
1.38102208E+02
 21
-2.50442670E+02
  0
LINE
  8
0
 62
4
 10
1.43990768E+02
 20
-2.44913216E+02
 11
1.42300295E+02
 21
-2.48538448E+02
  0
LINE
  8
0
  6
CENTER
 62
6
 10
1.52281917E+02
 20
-2.49611705E+02
 11
1.50280518E+02
 21
-2.53903720E+02
  0
LINE
  8
0
 62
4
 10
1.47738142E+02
 20
-2.51074157E+02
 11
1.48487031E+02
 21
-2.50319992E+02
  0
LINE
  8
0
 62
4
 10
1.54178644E+02
 20
-2.52974035E+02
 11
1.54082297E+02
 21
-2.54032485E+02
  0
LINE
  8
0
 62
4
 10
1.48487031E+02
 20
-2.50319992E+02
 11
1.54178644E+02
 21
-2.52974035E+02
  0
LINE
  8
0
 62
4
 10
1.61210616E+02
 20
-2.52942963E+02
 11
1.43990768E+02
 21
-2.44913216E+02
  0
LINE
  8
0
 62
4
 10
1.59820619E+02
 20
-2.51191419E+02
 11
1.46226002E+02
 21
-2.44852145E+02
  0
LINE
  8
0
 62
4
 10
1.59520143E+02
 20
-2.56568195E+02
 11
1.42300295E+02
 21
-2.48538448E+02
  0
LINE
  8
0
 62
4
 10
1.38977980E+02
 20
-2.49747671E+02
 11
1.33695252E+02
 21
-2.61076519E+02
  0
LINE
  8
0
  6
CENTER
 62
6
 10
1.56638936E+02
 20
-2.63500000E+02
 11
1.30973888E+02
 21
-2.51532192E+02
  0
LINE
  8
0
 62
4
 10
1.63800076E+02
 20
-2.24910934E+02
 11
1.62663489E+02
 21
-2.25010005E+02
  0
LINE
  8
0
 62
4
 10
1.64454767E+02
 20
-2.25845292E+02
 11
1.63800076E+02
 21
-2.24910934E+02
  0
LINE
  8
0
 62
4
 10
1.56368841E+02
 20
-2.23100758E+02
 11
1.69963457E+02
 21
-2.29440032E+02
  0
ARC
  8
0
 62
4
 10
1.60630429E+02
 20
-2.31708264E+02
 40
7.00000000E+00
 50
3.39976591E+01
 51
9.60023410E+01
  0
LINE
  8
0
 62
4
 10
1.56368841E+02
 20
-2.23100758E+02
 11
1.45803384E+02
 21
-2.45758453E+02
  0
LINE
  8
0
 62
4
 10
1.69963457E+02
 20
-2.29440032E+02
 11
1.59398001E+02
 21
-2.52097727E+02
  0
LINE
  8
0
 62
4
 10
1.66848338E+02
 20
-2.63500000E+02
 11
1.66738074E+02
 21
-2.63268828E+02
  0
ARC
  8
0
 62
4
 10
-4.95000468E+01
 20
-1.18965521E+02
 40
1.50000046E+00
 50
1.80000018E+02
 51
2.69999983E+02
  0
ARC
  8
0
 62
4
 10
-1.35000439E+01
 20
-1.18965525E+02
 40
1.49999664E+00
 50
2.69999872E+02
 51
1.28225561E-04
  0
LINE
  8
0
 62
4
 10
-4.85000439E+01
 20
-1.18199738E+02
 11
-2.95000439E+01
 21
-1.18199738E+02
  0
POLYLINE
  8
0
 62
4
 66
1
  0
VERTEX
  8
0
 62
4
 10
-1.98600439E+01
 20
-1.09167241E+02
  0
VERTEX
  8
0
 62
4
 10
-1.98719925E+01
 20
-1.08919213E+02
  0
VERTEX
  8
0
 62
4
 10
-1.99077476E+01
 20
-1.08673072E+02
  0
VERTEX
  8
0
 62
4
 10
-1.99670368E+01
 20
-1.08430692E+02
  0
VERTEX
  8
0
 62
4
 10
-2.00494091E+01
 20
-1.08193918E+02
  0
VERTEX
  8
0
 62
4
 10
-2.01542374E+01
 20
-1.07964551E+02
  0
VERTEX
  8
0
 62
4
 10
-2.02807241E+01
 20
-1.07744338E+02
  0
VERTEX
  8
0
 62
4
 10
-2.04279065E+01
 20
-1.07534953E+02
  0
VERTEX
  8
0
 62
4
 10
-2.05946643E+01
 20
-1.07337992E+02
  0
VERTEX
  8
0
 62
4
 10
-2.07797286E+01
 20
-1.07154952E+02
  0
VERTEX
  8
0
 62
4
 10
-2.09816908E+01
 20
-1.06987227E+02
  0
VERTEX
  8
0
 62
4
 10
-2.11990139E+01
 20
-1.06836093E+02
  0
VERTEX
  8
0
 62
4
 10
-2.14300439E+01
 20
-1.06702700E+02
  0
VERTEX
  8
0
 62
4
 10
-2.16730226E+01
 20
-1.06588064E+02
  0
VERTEX
  8
0
 62
4
 10
-2.19261007E+01
 20
-1.06493058E+02
  0
VERTEX
  8
0
 62
4
 10
-2.21873521E+01
 20
-1.06418403E+02
  0
VERTEX
  8
0
 62
4
 10
-2.24547886E+01
 20
-1.06364669E+02
  0
VERTEX
  8
0
 62
4
 10
-2.27263749E+01
 20
-1.06332264E+02
  0
VERTEX
  8
0
 62
4
 10
-2.30000439E+01
 20
-1.06321435E+02
  0
VERTEX
  8
0
 62
4
 10
-2.32737129E+01
 20
-1.06332264E+02
  0
VERTEX
  8
0
 62
4
 10
-2.35452992E+01
 20
-1.06364669E+02
  0
VERTEX
  8
0
 62
4
 10
-2.38127357E+01
 20
-1.06418403E+02
  0
VERTEX
  8
0
 62
4
 10
-2.40739872E+01
 20
-1.06493058E+02
  0
VERTEX
  8
0
 62
4
 10
-2.43270652E+01
 20
-1.06588064E+02
  0
VERTEX
  8
0
 62
4
 10
-2.45700439E+01
 20
-1.06702700E+02
  0
VERTEX
  8
0
 62
4
 10
-2.48010739E+01
 20
-1.06836093E+02
  0
VERTEX
  8
0
 62
4
 10
-2.50183970E+01
 20
-1.06987227E+02
  0
VERTEX
  8
0
 62
4
 10
-2.52203592E+01
 20
-1.07154952E+02
  0
VERTEX
  8
0
 62
4
 10
-2.54054235E+01
 20
-1.07337992E+02
  0
VERTEX
  8
0
 62
4
 10
-2.55721813E+01
 20
-1.07534953E+02
  0
VERTEX
  8
0
 62
4
 10
-2.57193637E+01
 20
-1.07744338E+02
  0
VERTEX
  8
0
 62
4
 10
-2.58458504E+01
 20
-1.07964551E+02
  0
VERTEX
  8
0
 62
4
 10
-2.59506787E+01
 20
-1.08193918E+02
  0
VERTEX
  8
0
 62
4
 10
-2.60330510E+01
 20
-1.08430692E+02
  0
VERTEX
  8
0
 62
4
 10
-2.60923402E+01
 20
-1.08673072E+02
  0
VERTEX
  8
0
 62
4
 10
-2.61280953E+01
 20
-1.08919213E+02
  0
VERTEX
  8
0
 62
4
 10
-2.61400439E+01
 20
-1.09167241E+02
  0
VERTEX
  8
0
 62
4
 10
-2.61280953E+01
 20
-1.09415269E+02
  0
VERTEX
  8
0
 62
4
 10
-2.60923402E+01
 20
-1.09661410E+02
  0
VERTEX
  8
0
 62
4
 10
-2.60330510E+01
 20
-1.09903790E+02
  0
VERTEX
  8
0
 62
4
 10
-2.59506787E+01
 20
-1.10140564E+02
  0
VERTEX
  8
0
 62
4
 10
-2.58458503E+01
 20
-1.10369931E+02
  0
VERTEX
  8
0
 62
4
 10
-2.57193637E+01
 20
-1.10590144E+02
  0
VERTEX
  8
0
 62
4
 10
-2.55721813E+01
 20
-1.10799529E+02
  0
VERTEX
  8
0
 62
4
 10
-2.54054234E+01
 20
-1.10996490E+02
  0
VERTEX
  8
0
 62
4
 10
-2.52203592E+01
 20
-1.11179530E+02
  0
VERTEX
  8
0
 62
4
 10
-2.50183970E+01
 20
-1.11347255E+02
  0
VERTEX
  8
0
 62
4
 10
-2.48010739E+01
 20
-1.11498389E+02
  0
VERTEX
  8
0
 62
4
 10
-2.45700439E+01
 20
-1.11631782E+02
  0
VERTEX
  8
0
 62
4
 10
-2.43270652E+01
 20
-1.11746418E+02
  0
VERTEX
  8
0
 62
4
 10
-2.40739871E+01
 20
-1.11841424E+02
  0
VERTEX
  8
0
 62
4
 10
-2.38127357E+01
 20
-1.11916079E+02
  0
VERTEX
  8
0
 62
4
 10
-2.35452992E+01
 20
-1.11969813E+02
  0
VERTEX
  8
0
 62
4
 10
-2.32737129E+01
 20
-1.12002218E+02
  0
VERTEX
  8
0
 62
4
 10
-2.30000439E+01
 20
-1.12013047E+02
  0
VERTEX
  8
0
 62
4
 10
-2.27263749E+01
 20
-1.12002218E+02
  0
VERTEX
  8
0
 62
4
 10
-2.24547886E+01
 20
-1.11969813E+02
  0
VERTEX
  8
0
 62
4
 10
-2.21873521E+01
 20
-1.11916079E+02
  0
VERTEX
  8
0
 62
4
 10
-2.19261006E+01
 20
-1.11841424E+02
  0
VERTEX
  8
0
 62
4
 10
-2.16730226E+01
 20
-1.11746418E+02
  0
VERTEX
  8
0
 62
4
 10
-2.14300439E+01
 20
-1.11631782E+02
  0
VERTEX
  8
0
 62
4
 10
-2.11990139E+01
 20
-1.11498389E+02
  0
VERTEX
  8
0
 62
4
 10
-2.09816908E+01
 20
-1.11347255E+02
  0
VERTEX
  8
0
 62
4
 10
-2.07797286E+01
 20
-1.11179530E+02
  0
VERTEX
  8
0
 62
4
 10
-2.05946643E+01
 20
-1.10996490E+02
  0
VERTEX
  8
0
 62
4
 10
-2.04279065E+01
 20
-1.10799529E+02
  0
VERTEX
  8
0
 62
4
 10
-2.02807241E+01
 20
-1.10590144E+02
  0
VERTEX
  8
0
 62
4
 10
-2.01542374E+01
 20
-1.10369931E+02
  0
VERTEX
  8
0
 62
4
 10
-2.00494091E+01
 20
-1.10140564E+02
  0
VERTEX
  8
0
 62
4
 10
-1.99670368E+01
 20
-1.09903790E+02
  0
VERTEX
  8
0
 62
4
 10
-1.99077476E+01
 20
-1.09661410E+02
  0
VERTEX
  8
0
 62
4
 10
-1.98719925E+01
 20
-1.09415269E+02
  0
VERTEX
  8
0
 62
4
 10
-1.98600439E+01
 20
-1.09167241E+02
  0
SEQEND
  8
0
  0
POLYLINE
  8
0
 62
4
 66
1
  0
VERTEX
  8
0
 62
4
 10
-2.51050018E+01
 20
-1.07055572E+02
  0
VERTEX
  8
0
 62
4
 10
-2.53415454E+01
 20
-1.07232173E+02
  0
VERTEX
  8
0
 62
4
 10
-2.55601364E+01
 20
-1.07426851E+02
  0
VERTEX
  8
0
 62
4
 10
-2.57590989E+01
 20
-1.07638113E+02
  0
VERTEX
  8
0
 62
4
 10
-2.59369073E+01
 20
-1.07864339E+02
  0
VERTEX
  8
0
 62
4
 10
-2.60921983E+01
 20
-1.08103795E+02
  0
VERTEX
  8
0
 62
4
 10
-2.62237814E+01
 20
-1.08354644E+02
  0
VERTEX
  8
0
 62
4
 10
-2.63306477E+01
 20
-1.08614964E+02
  0
VERTEX
  8
0
 62
4
 10
-2.64119778E+01
 20
-1.08882759E+02
  0
VERTEX
  8
0
 62
4
 10
-2.64671481E+01
 20
-1.09155976E+02
  0
VERTEX
  8
0
 62
4
 10
-2.64957357E+01
 20
-1.09432519E+02
  0
VERTEX
  8
0
 62
4
 10
-2.64975214E+01
 20
-1.09710268E+02
  0
VERTEX
  8
0
 62
4
 10
-2.64724914E+01
 20
-1.09987094E+02
  0
VERTEX
  8
0
 62
4
 10
-2.64208378E+01
 20
-1.10260875E+02
  0
VERTEX
  8
0
 62
4
 10
-2.63429564E+01
 20
-1.10529510E+02
  0
VERTEX
  8
0
 62
4
 10
-2.62394445E+01
 20
-1.10790941E+02
  0
VERTEX
  8
0
 62
4
 10
-2.61110956E+01
 20
-1.11043164E+02
  0
VERTEX
  8
0
 62
4
 10
-2.59588940E+01
 20
-1.11284243E+02
  0
VERTEX
  8
0
 62
4
 10
-2.57840064E+01
 20
-1.11512332E+02
  0
VERTEX
  8
0
 62
4
 10
-2.55877738E+01
 20
-1.11725681E+02
  0
VERTEX
  8
0
 62
4
 10
-2.53717007E+01
 20
-1.11922654E+02
  0
VERTEX
  8
0
 62
4
 10
-2.51374439E+01
 20
-1.12101741E+02
  0
VERTEX
  8
0
 62
4
 10
-2.48867993E+01
 20
-1.12261569E+02
  0
VERTEX
  8
0
 62
4
 10
-2.46216887E+01
 20
-1.12400913E+02
  0
VERTEX
  8
0
 62
4
 10
-2.43441447E+01
 20
-1.12518704E+02
  0
VERTEX
  8
0
 62
4
 10
-2.40562954E+01
 20
-1.12614040E+02
  0
VERTEX
  8
0
 62
4
 10
-2.37603476E+01
 20
-1.12686188E+02
  0
VERTEX
  8
0
 62
4
 10
-2.34585704E+01
 20
-1.12734597E+02
  0
VERTEX
  8
0
 62
4
 10
-2.31532777E+01
 20
-1.12758894E+02
  0
VERTEX
  8
0
 62
4
 10
-2.28468101E+01
 20
-1.12758894E+02
  0
VERTEX
  8
0
 62
4
 10
-2.25415174E+01
 20
-1.12734597E+02
  0
VERTEX
  8
0
 62
4
 10
-2.22397403E+01
 20
-1.12686188E+02
  0
VERTEX
  8
0
 62
4
 10
-2.19437925E+01
 20
-1.12614040E+02
  0
VERTEX
  8
0
 62
4
 10
-2.16559431E+01
 20
-1.12518704E+02
  0
VERTEX
  8
0
 62
4
 10
-2.13783992E+01
 20
-1.12400913E+02
  0
VERTEX
  8
0
 62
4
 10
-2.11132886E+01
 20
-1.12261569E+02
  0
VERTEX
  8
0
 62
4
 10
-2.08626440E+01
 20
-1.12101741E+02
  0
VERTEX
  8
0
 62
4
 10
-2.06283871E+01
 20
-1.11922654E+02
  0
VERTEX
  8
0
 62
4
 10
-2.04123140E+01
 20
-1.11725681E+02
  0
VERTEX
  8
0
 62
4
 10
-2.02160814E+01
 20
-1.11512332E+02
  0
VERTEX
  8
0
 62
4
 10
-2.00411939E+01
 20
-1.11284243E+02
  0
VERTEX
  8
0
 62
4
 10
-1.98889922E+01
 20
-1.11043164E+02
  0
VERTEX
  8
0
 62
4
 10
-1.97606433E+01
 20
-1.10790941E+02
  0
VERTEX
  8
0
 62
4
 10
-1.96571314E+01
 20
-1.10529510E+02
  0
VERTEX
  8
0
 62
4
 10
-1.95792501E+01
 20
-1.10260875E+02
  0
VERTEX
  8
0
 62
4
 10
-1.95275964E+01
 20
-1.09987094E+02
  0
VERTEX
  8
0
 62
4
 10
-1.95025664E+01
 20
-1.09710268E+02
  0
VERTEX
  8
0
 62
4
 10
-1.95043521E+01
 20
-1.09432519E+02
  0
VERTEX
  8
0
 62
4
 10
-1.95329397E+01
 20
-1.09155976E+02
  0
VERTEX
  8
0
 62
4
 10
-1.95881100E+01
 20
-1.08882759E+02
  0
VERTEX
  8
0
 62
4
 10
-1.96694401E+01
 20
-1.08614965E+02
  0
VERTEX
  8
0
 62
4
 10
-1.97763064E+01
 20
-1.08354644E+02
  0
VERTEX
  8
0
 62
4
 10
-1.99078895E+01
 20
-1.08103795E+02
  0
VERTEX
  8
0
 62
4
 10
-2.00631805E+01
 20
-1.07864339E+02
  0
VERTEX
  8
0
 62
4
 10
-2.02409889E+01
 20
-1.07638113E+02
  0
VERTEX
  8
0
 62
4
 10
-2.04399513E+01
 20
-1.07426851E+02
  0
VERTEX
  8
0
 62
4
 10
-2.06585423E+01
 20
-1.07232173E+02
  0
VERTEX
  8
0
 62
4
 10
-2.08950859E+01
 20
-1.07055572E+02
  0
SEQEND
  8
0
  0
LINE
  8
0
 62
4
 10
-3.59910834E+01
 20
-1.26804796E+02
 11
-1.35000439E+01
 21
-1.26804796E+02
  0
ARC
  8
0
 62
4
 10
-3.47644489E+01
 20
-1.15380859E+02
 40
1.21769740E+01
 50
2.40462101E+02
 51
2.58262147E+02
  0
ARC
  8
0
 62
4
 10
-4.32356389E+01
 20
-1.15380859E+02
 40
1.21769740E+01
 50
2.81737853E+02
 51
2.99537899E+02
  0
POLYLINE
  8
0
 62
4
 66
1
  0
VERTEX
  8
0
 62
4
 10
-3.56000439E+01
 20
-1.26052814E+02
  0
VERTEX
  8
0
 62
4
 10
-3.56129819E+01
 20
-1.25912054E+02
  0
VERTEX
  8
0
 62
4
 10
-3.56516975E+01
 20
-1.25772366E+02
  0
VERTEX
  8
0
 62
4
 10
-3.57158961E+01
 20
-1.25634812E+02
  0
VERTEX
  8
0
 62
4
 10
-3.58050890E+01
 20
-1.25500439E+02
  0
VERTEX
  8
0
 62
4
 10
-3.59185974E+01
 20
-1.25370270E+02
  0
VERTEX
  8
0
 62
4
 10
-3.60555575E+01
 20
-1.25245296E+02
  0
VERTEX
  8
0
 62
4
 10
-3.62149269E+01
 20
-1.25126468E+02
  0
VERTEX
  8
0
 62
4
 10
-3.63954928E+01
 20
-1.25014689E+02
  0
VERTEX
  8
0
 62
4
 10
-3.65958808E+01
 20
-1.24910811E+02
  0
VERTEX
  8
0
 62
4
 10
-3.68145660E+01
 20
-1.24815625E+02
  0
VERTEX
  8
0
 62
4
 10
-3.70498840E+01
 20
-1.24729854E+02
  0
VERTEX
  8
0
 62
4
 10
-3.73000439E+01
 20
-1.24654152E+02
  0
VERTEX
  8
0
 62
4
 10
-3.75631418E+01
 20
-1.24589095E+02
  0
VERTEX
  8
0
 62
4
 10
-3.78371754E+01
 20
-1.24535177E+02
  0
VERTEX
  8
0
 62
4
 10
-3.81200591E+01
 20
-1.24492809E+02
  0
VERTEX
  8
0
 62
4
 10
-3.84096401E+01
 20
-1.24462314E+02
  0
VERTEX
  8
0
 62
4
 10
-3.87037144E+01
 20
-1.24443924E+02
  0
VERTEX
  8
0
 62
4
 10
-3.90000439E+01
 20
-1.24437778E+02
  0
VERTEX
  8
0
 62
4
 10
-3.92963734E+01
 20
-1.24443924E+02
  0
VERTEX
  8
0
 62
4
 10
-3.95904477E+01
 20
-1.24462314E+02
  0
VERTEX
  8
0
 62
4
 10
-3.98800287E+01
 20
-1.24492809E+02
  0
VERTEX
  8
0
 62
4
 10
-4.01629124E+01
 20
-1.24535177E+02
  0
VERTEX
  8
0
 62
4
 10
-4.04369460E+01
 20
-1.24589095E+02
  0
VERTEX
  8
0
 62
4
 10
-4.07000439E+01
 20
-1.24654152E+02
  0
VERTEX
  8
0
 62
4
 10
-4.09502038E+01
 20
-1.24729854E+02
  0
VERTEX
  8
0
 62
4
 10
-4.11855218E+01
 20
-1.24815625E+02
  0
VERTEX
  8
0
 62
4
 10
-4.14042070E+01
 20
-1.24910811E+02
  0
VERTEX
  8
0
 62
4
 10
-4.16045950E+01
 20
-1.25014689E+02
  0
VERTEX
  8
0
 62
4
 10
-4.17851609E+01
 20
-1.25126468E+02
  0
VERTEX
  8
0
 62
4
 10
-4.19445303E+01
 20
-1.25245296E+02
  0
VERTEX
  8
0
 62
4
 10
-4.20814904E+01
 20
-1.25370270E+02
  0
VERTEX
  8
0
 62
4
 10
-4.21949988E+01
 20
-1.25500439E+02
  0
VERTEX
  8
0
 62
4
 10
-4.22841917E+01
 20
-1.25634812E+02
  0
VERTEX
  8
0
 62
4
 10
-4.23483903E+01
 20
-1.25772366E+02
  0
VERTEX
  8
0
 62
4
 10
-4.23871059E+01
 20
-1.25912054E+02
  0
VERTEX
  8
0
 62
4
 10
-4.24000439E+01
 20
-1.26052814E+02
  0
VERTEX
  8
0
 62
4
 10
-4.23871059E+01
 20
-1.26193574E+02
  0
VERTEX
  8
0
 62
4
 10
-4.23483903E+01
 20
-1.26333262E+02
  0
VERTEX
  8
0
 62
4
 10
-4.22841917E+01
 20
-1.26470816E+02
  0
VERTEX
  8
0
 62
4
 10
-4.21949988E+01
 20
-1.26605189E+02
  0
VERTEX
  8
0
 62
4
 10
-4.20814904E+01
 20
-1.26735358E+02
  0
VERTEX
  8
0
 62
4
 10
-4.19445303E+01
 20
-1.26860332E+02
  0
VERTEX
  8
0
 62
4
 10
-4.17851608E+01
 20
-1.26979160E+02
  0
VERTEX
  8
0
 62
4
 10
-4.16045950E+01
 20
-1.27090939E+02
  0
VERTEX
  8
0
 62
4
 10
-4.14042070E+01
 20
-1.27194817E+02
  0
VERTEX
  8
0
 62
4
 10
-4.11855218E+01
 20
-1.27290003E+02
  0
VERTEX
  8
0
 62
4
 10
-4.09502038E+01
 20
-1.27375774E+02
  0
VERTEX
  8
0
 62
4
 10
-4.07000439E+01
 20
-1.27451476E+02
  0
VERTEX
  8
0
 62
4
 10
-4.04369460E+01
 20
-1.27516533E+02
  0
VERTEX
  8
0
 62
4
 10
-4.01629124E+01
 20
-1.27570451E+02
  0
VERTEX
  8
0
 62
4
 10
-3.98800286E+01
 20
-1.27612819E+02
  0
VERTEX
  8
0
 62
4
 10
-3.95904477E+01
 20
-1.27643314E+02
  0
VERTEX
  8
0
 62
4
 10
-3.92963734E+01
 20
-1.27661704E+02
  0
VERTEX
  8
0
 62
4
 10
-3.90000439E+01
 20
-1.27667850E+02
  0
VERTEX
  8
0
 62
4
 10
-3.87037144E+01
 20
-1.27661704E+02
  0
VERTEX
  8
0
 62
4
 10
-3.84096401E+01
 20
-1.27643314E+02
  0
VERTEX
  8
0
 62
4
 10
-3.81200591E+01
 20
-1.27612819E+02
  0
VERTEX
  8
0
 62
4
 10
-3.78371754E+01
 20
-1.27570451E+02
  0
VERTEX
  8
0
 62
4
 10
-3.75631418E+01
 20
-1.27516533E+02
  0
VERTEX
  8
0
 62
4
 10
-3.73000439E+01
 20
-1.27451476E+02
  0
VERTEX
  8
0
 62
4
 10
-3.70498840E+01
 20
-1.27375774E+02
  0
VERTEX
  8
0
 62
4
 10
-3.68145660E+01
 20
-1.27290003E+02
  0
VERTEX
  8
0
 62
4
 10
-3.65958808E+01
 20
-1.27194817E+02
  0
VERTEX
  8
0
 62
4
 10
-3.63954928E+01
 20
-1.27090939E+02
  0
VERTEX
  8
0
 62
4
 10
-3.62149269E+01
 20
-1.26979160E+02
  0
VERTEX
  8
0
 62
4
 10
-3.60555575E+01
 20
-1.26860332E+02
  0
VERTEX
  8
0
 62
4
 10
-3.59185974E+01
 20
-1.26735358E+02
  0
VERTEX
  8
0
 62
4
 10
-3.58050890E+01
 20
-1.26605189E+02
  0
VERTEX
  8
0
 62
4
 10
-3.57158961E+01
 20
-1.26470816E+02
  0
VERTEX
  8
0
 62
4
 10
-3.56516975E+01
 20
-1.26333262E+02
  0
VERTEX
  8
0
 62
4
 10
-3.56129819E+01
 20
-1.26193574E+02
  0
VERTEX
  8
0
 62
4
 10
-3.56000439E+01
 20
-1.26052814E+02
  0
SEQEND
  8
0
  0
POLYLINE
  8
0
 62
4
 66
1
  0
VERTEX
  8
0
 62
4
 10
-3.56000439E+01
 20
-1.24088313E+02
  0
VERTEX
  8
0
 62
4
 10
-3.56137313E+01
 20
-1.23959510E+02
  0
VERTEX
  8
0
 62
4
 10
-3.56546833E+01
 20
-1.23831744E+02
  0
VERTEX
  8
0
 62
4
 10
-3.57225702E+01
 20
-1.23706044E+02
  0
VERTEX
  8
0
 62
4
 10
-3.58168453E+01
 20
-1.23583422E+02
  0
VERTEX
  8
0
 62
4
 10
-3.59367497E+01
 20
-1.23464865E+02
  0
VERTEX
  8
0
 62
4
 10
-3.60813180E+01
 20
-1.23351327E+02
  0
VERTEX
  8
0
 62
4
 10
-3.62493861E+01
 20
-1.23243723E+02
  0
VERTEX
  8
0
 62
4
 10
-3.64396009E+01
 20
-1.23142919E+02
  0
VERTEX
  8
0
 62
4
 10
-3.66504309E+01
 20
-1.23049728E+02
  0
VERTEX
  8
0
 62
4
 10
-3.68801786E+01
 20
-1.22964898E+02
  0
VERTEX
  8
0
 62
4
 10
-3.71269942E+01
 20
-1.22889113E+02
  0
VERTEX
  8
0
 62
4
 10
-3.73888904E+01
 20
-1.22822983E+02
  0
VERTEX
  8
0
 62
4
 10
-3.76637588E+01
 20
-1.22767042E+02
  0
VERTEX
  8
0
 62
4
 10
-3.79493861E+01
 20
-1.22721738E+02
  0
VERTEX
  8
0
 62
4
 10
-3.82434727E+01
 20
-1.22687437E+02
  0
VERTEX
  8
0
 62
4
 10
-3.85436508E+01
 20
-1.22664415E+02
  0
VERTEX
  8
0
 62
4
 10
-3.88475035E+01
 20
-1.22652858E+02
  0
VERTEX
  8
0
 62
4
 10
-3.91525843E+01
 20
-1.22652858E+02
  0
VERTEX
  8
0
 62
4
 10
-3.94564370E+01
 20
-1.22664415E+02
  0
VERTEX
  8
0
 62
4
 10
-3.97566151E+01
 20
-1.22687437E+02
  0
VERTEX
  8
0
 62
4
 10
-4.00507017E+01
 20
-1.22721738E+02
  0
VERTEX
  8
0
 62
4
 10
-4.03363290E+01
 20
-1.22767042E+02
  0
VERTEX
  8
0
 62
4
 10
-4.06111973E+01
 20
-1.22822983E+02
  0
VERTEX
  8
0
 62
4
 10
-4.08730936E+01
 20
-1.22889113E+02
  0
VERTEX
  8
0
 62
4
 10
-4.11199092E+01
 20
-1.22964898E+02
  0
VERTEX
  8
0
 62
4
 10
-4.13496569E+01
 20
-1.23049728E+02
  0
VERTEX
  8
0
 62
4
 10
-4.15604869E+01
 20
-1.23142919E+02
  0
VERTEX
  8
0
 62
4
 10
-4.17507017E+01
 20
-1.23243723E+02
  0
VERTEX
  8
0
 62
4
 10
-4.19187698E+01
 20
-1.23351327E+02
  0
VERTEX
  8
0
 62
4
 10
-4.20633380E+01
 20
-1.23464865E+02
  0
VERTEX
  8
0
 62
4
 10
-4.21832425E+01
 20
-1.23583422E+02
  0
VERTEX
  8
0
 62
4
 10
-4.22775176E+01
 20
-1.23706044E+02
  0
VERTEX
  8
0
 62
4
 10
-4.23454045E+01
 20
-1.23831744E+02
  0
VERTEX
  8
0
 62
4
 10
-4.23863565E+01
 20
-1.23959510E+02
  0
VERTEX
  8
0
 62
4
 10
-4.24000439E+01
 20
-1.24088313E+02
  0
SEQEND
  8
0
  0
LINE
  8
0
 62
4
 10
-4.24000439E+01
 20
-1.24088313E+02
 11
-4.24000439E+01
 21
-1.26052814E+02
  0
LINE
  8
0
 62
4
 10
-3.56000439E+01
 20
-1.24088313E+02
 11
-3.56000439E+01
 21
-1.26052814E+02
  0
LINE
  8
0
 62
4
 10
-4.30000439E+01
 20
-1.23635159E+02
 11
-4.30000439E+01
 21
-1.24088313E+02
  0
LINE
  8
0
 62
4
 10
-3.50000439E+01
 20
-1.23635159E+02
 11
-3.50000439E+01
 21
-1.24088313E+02
  0
POLYLINE
  8
0
 62
4
 66
1
  0
VERTEX
  8
0
 62
4
 10
-3.50000439E+01
 20
-1.23635159E+02
  0
VERTEX
  8
0
 62
4
 10
-3.50161467E+01
 20
-1.23483626E+02
  0
VERTEX
  8
0
 62
4
 10
-3.50643255E+01
 20
-1.23333313E+02
  0
VERTEX
  8
0
 62
4
 10
-3.51441925E+01
 20
-1.23185431E+02
  0
VERTEX
  8
0
 62
4
 10
-3.52551044E+01
 20
-1.23041169E+02
  0
VERTEX
  8
0
 62
4
 10
-3.53961684E+01
 20
-1.22901690E+02
  0
VERTEX
  8
0
 62
4
 10
-3.55662487E+01
 20
-1.22768117E+02
  0
VERTEX
  8
0
 62
4
 10
-3.57639759E+01
 20
-1.22641524E+02
  0
VERTEX
  8
0
 62
4
 10
-3.59877580E+01
 20
-1.22522931E+02
  0
VERTEX
  8
0
 62
4
 10
-3.62357933E+01
 20
-1.22413294E+02
  0
VERTEX
  8
0
 62
4
 10
-3.65060847E+01
 20
-1.22313494E+02
  0
VERTEX
  8
0
 62
4
 10
-3.67964560E+01
 20
-1.22224335E+02
  0
VERTEX
  8
0
 62
4
 10
-3.71045692E+01
 20
-1.22146536E+02
  0
VERTEX
  8
0
 62
4
 10
-3.74279438E+01
 20
-1.22080722E+02
  0
VERTEX
  8
0
 62
4
 10
-3.77639759E+01
 20
-1.22027424E+02
  0
VERTEX
  8
0
 62
4
 10
-3.81099602E+01
 20
-1.21987070E+02
  0
VERTEX
  8
0
 62
4
 10
-3.84631108E+01
 20
-1.21959985E+02
  0
VERTEX
  8
0
 62
4
 10
-3.88205846E+01
 20
-1.21946388E+02
  0
VERTEX
  8
0
 62
4
 10
-3.91795032E+01
 20
-1.21946388E+02
  0
VERTEX
  8
0
 62
4
 10
-3.95369770E+01
 20
-1.21959985E+02
  0
VERTEX
  8
0
 62
4
 10
-3.98901276E+01
 20
-1.21987070E+02
  0
VERTEX
  8
0
 62
4
 10
-4.02361119E+01
 20
-1.22027424E+02
  0
VERTEX
  8
0
 62
4
 10
-4.05721440E+01
 20
-1.22080722E+02
  0
VERTEX
  8
0
 62
4
 10
-4.08955185E+01
 20
-1.22146536E+02
  0
VERTEX
  8
0
 62
4
 10
-4.12036318E+01
 20
-1.22224335E+02
  0
VERTEX
  8
0
 62
4
 10
-4.14940031E+01
 20
-1.22313494E+02
  0
VERTEX
  8
0
 62
4
 10
-4.17642945E+01
 20
-1.22413294E+02
  0
VERTEX
  8
0
 62
4
 10
-4.20123298E+01
 20
-1.22522931E+02
  0
VERTEX
  8
0
 62
4
 10
-4.22361119E+01
 20
-1.22641524E+02
  0
VERTEX
  8
0
 62
4
 10
-4.24338391E+01
 20
-1.22768117E+02
  0
VERTEX
  8
0
 62
4
 10
-4.26039194E+01
 20
-1.22901690E+02
  0
VERTEX
  8
0
 62
4
 10
-4.27449834E+01
 20
-1.23041169E+02
  0
VERTEX
  8
0
 62
4
 10
-4.28558953E+01
 20
-1.23185431E+02
  0
VERTEX
  8
0
 62
4
 10
-4.29357623E+01
 20
-1.23333313E+02
  0
VERTEX
  8
0
 62
4
 10
-4.29839411E+01
 20
-1.23483626E+02
  0
VERTEX
  8
0
 62
4
 10
-4.30000439E+01
 20
-1.23635159E+02
  0
SEQEND
  8
0
  0
POLYLINE
  8
0
 62
4
 66
1
  0
VERTEX
  8
0
 62
4
 10
-3.56000439E+01
 20
-1.24978825E+02
  0
VERTEX
  8
0
 62
4
 10
-3.54269919E+01
 20
-1.24848239E+02
  0
VERTEX
  8
0
 62
4
 10
-3.52819489E+01
 20
-1.24711696E+02
  0
VERTEX
  8
0
 62
4
 10
-3.51660521E+01
 20
-1.24570266E+02
  0
VERTEX
  8
0
 62
4
 10
-3.50802098E+01
 20
-1.24425058E+02
  0
VERTEX
  8
0
 62
4
 10
-3.50250950E+01
 20
-1.24277210E+02
  0
VERTEX
  8
0
 62
4
 10
-3.50011398E+01
 20
-1.24127882E+02
  0
VERTEX
  8
0
 62
4
 10
-3.50085320E+01
 20
-1.23978243E+02
  0
VERTEX
  8
0
 62
4
 10
-3.50472135E+01
 20
-1.23829468E+02
  0
VERTEX
  8
0
 62
4
 10
-3.51168812E+01
 20
-1.23682721E+02
  0
VERTEX
  8
0
 62
4
 10
-3.52169889E+01
 20
-1.23539154E+02
  0
VERTEX
  8
0
 62
4
 10
-3.53467520E+01
 20
-1.23399892E+02
  0
VERTEX
  8
0
 62
4
 10
-3.55051531E+01
 20
-1.23266026E+02
  0
VERTEX
  8
0
 62
4
 10
-3.56909506E+01
 20
-1.23138606E+02
  0
VERTEX
  8
0
 62
4
 10
-3.59026881E+01
 20
-1.23018631E+02
  0
VERTEX
  8
0
 62
4
 10
-3.61387057E+01
 20
-1.22907041E+02
  0
VERTEX
  8
0
 62
4
 10
-3.63971532E+01
 20
-1.22804711E+02
  0
VERTEX
  8
0
 62
4
 10
-3.66760048E+01
 20
-1.22712443E+02
  0
VERTEX
  8
0
 62
4
 10
-3.69730744E+01
 20
-1.22630960E+02
  0
VERTEX
  8
0
 62
4
 10
-3.72860335E+01
 20
-1.22560902E+02
  0
VERTEX
  8
0
 62
4
 10
-3.76124286E+01
 20
-1.22502817E+02
  0
VERTEX
  8
0
 62
4
 10
-3.79497013E+01
 20
-1.22457161E+02
  0
VERTEX
  8
0
 62
4
 10
-3.82952075E+01
 20
-1.22424291E+02
  0
VERTEX
  8
0
 62
4
 10
-3.86462390E+01
 20
-1.22404466E+02
  0
VERTEX
  8
0
 62
4
 10
-3.90000439E+01
 20
-1.22397840E+02
  0
VERTEX
  8
0
 62
4
 10
-3.93538488E+01
 20
-1.22404466E+02
  0
VERTEX
  8
0
 62
4
 10
-3.97048803E+01
 20
-1.22424291E+02
  0
VERTEX
  8
0
 62
4
 10
-4.00503865E+01
 20
-1.22457161E+02
  0
VERTEX
  8
0
 62
4
 10
-4.03876591E+01
 20
-1.22502817E+02
  0
VERTEX
  8
0
 62
4
 10
-4.07140543E+01
 20
-1.22560902E+02
  0
VERTEX
  8
0
 62
4
 10
-4.10270133E+01
 20
-1.22630960E+02
  0
VERTEX
  8
0
 62
4
 10
-4.13240830E+01
 20
-1.22712443E+02
  0
VERTEX
  8
0
 62
4
 10
-4.16029346E+01
 20
-1.22804711E+02
  0
VERTEX
  8
0
 62
4
 10
-4.18613821E+01
 20
-1.22907041E+02
  0
VERTEX
  8
0
 62
4
 10
-4.20973997E+01
 20
-1.23018631E+02
  0
VERTEX
  8
0
 62
4
 10
-4.23091371E+01
 20
-1.23138606E+02
  0
VERTEX
  8
0
 62
4
 10
-4.24949347E+01
 20
-1.23266026E+02
  0
VERTEX
  8
0
 62
4
 10
-4.26533358E+01
 20
-1.23399892E+02
  0
VERTEX
  8
0
 62
4
 10
-4.27830989E+01
 20
-1.23539154E+02
  0
VERTEX
  8
0
 62
4
 10
-4.28832066E+01
 20
-1.23682721E+02
  0
VERTEX
  8
0
 62
4
 10
-4.29528743E+01
 20
-1.23829468E+02
  0
VERTEX
  8
0
 62
4
 10
-4.29915558E+01
 20
-1.23978243E+02
  0
VERTEX
  8
0
 62
4
 10
-4.29989480E+01
 20
-1.24127882E+02
  0
VERTEX
  8
0
 62
4
 10
-4.29749928E+01
 20
-1.24277210E+02
  0
VERTEX
  8
0
 62
4
 10
-4.29198780E+01
 20
-1.24425058E+02
  0
VERTEX
  8
0
 62
4
 10
-4.28340357E+01
 20
-1.24570266E+02
  0
VERTEX
  8
0
 62
4
 10
-4.27181389E+01
 20
-1.24711696E+02
  0
VERTEX
  8
0
 62
4
 10
-4.25730959E+01
 20
-1.24848239E+02
  0
VERTEX
  8
0
 62
4
 10
-4.24000439E+01
 20
-1.24978825E+02
  0
SEQEND
  8
0
  0
LINE
  8
0
  6
CENTER
 62
6
 10
-2.30000439E+01
 20
-1.03558224E+02
 11
-2.30000439E+01
 21
-1.14776257E+02
  0
LINE
  8
0
  6
CENTER
 62
6
 10
-2.86090606E+01
 20
-1.09167241E+02
 11
-1.73910271E+01
 21
-1.09167241E+02
  0
POLYLINE
  8
0
 62
4
 66
1
  0
VERTEX
  8
0
 62
4
 10
-3.60000439E+01
 20
-9.73338988E+01
  0
VERTEX
  8
0
 62
4
 10
-3.60114598E+01
 20
-9.70969290E+01
  0
VERTEX
  8
0
 62
4
 10
-3.60456206E+01
 20
-9.68617627E+01
  0
VERTEX
  8
0
 62
4
 10
-3.61022664E+01
 20
-9.66301897E+01
  0
VERTEX
  8
0
 62
4
 10
-3.61809660E+01
 20
-9.64039722E+01
  0
VERTEX
  8
0
 62
4
 10
-3.62811205E+01
 20
-9.61848321E+01
  0
VERTEX
  8
0
 62
4
 10
-3.64019677E+01
 20
-9.59744371E+01
  0
VERTEX
  8
0
 62
4
 10
-3.65425878E+01
 20
-9.57743884E+01
  0
VERTEX
  8
0
 62
4
 10
-3.67019106E+01
 20
-9.55862086E+01
  0
VERTEX
  8
0
 62
4
 10
-3.68787236E+01
 20
-9.54113297E+01
  0
VERTEX
  8
0
 62
4
 10
-3.70716811E+01
 20
-9.52510827E+01
  0
VERTEX
  8
0
 62
4
 10
-3.72793146E+01
 20
-9.51066872E+01
  0
VERTEX
  8
0
 62
4
 10
-3.75000439E+01
 20
-9.49792421E+01
  0
VERTEX
  8
0
 62
4
 10
-3.77321891E+01
 20
-9.48697174E+01
  0
VERTEX
  8
0
 62
4
 10
-3.79739835E+01
 20
-9.47789466E+01
  0
VERTEX
  8
0
 62
4
 10
-3.82235868E+01
 20
-9.47076205E+01
  0
VERTEX
  8
0
 62
4
 10
-3.84790994E+01
 20
-9.46562820E+01
  0
VERTEX
  8
0
 62
4
 10
-3.87385767E+01
 20
-9.46253218E+01
  0
VERTEX
  8
0
 62
4
 10
-3.90000439E+01
 20
-9.46149754E+01
  0
VERTEX
  8
0
 62
4
 10
-3.92615111E+01
 20
-9.46253218E+01
  0
VERTEX
  8
0
 62
4
 10
-3.95209884E+01
 20
-9.46562820E+01
  0
VERTEX
  8
0
 62
4
 10
-3.97765010E+01
 20
-9.47076205E+01
  0
VERTEX
  8
0
 62
4
 10
-4.00261043E+01
 20
-9.47789466E+01
  0
VERTEX
  8
0
 62
4
 10
-4.02678987E+01
 20
-9.48697174E+01
  0
VERTEX
  8
0
 62
4
 10
-4.05000439E+01
 20
-9.49792421E+01
  0
VERTEX
  8
0
 62
4
 10
-4.07207732E+01
 20
-9.51066872E+01
  0
VERTEX
  8
0
 62
4
 10
-4.09284067E+01
 20
-9.52510827E+01
  0
VERTEX
  8
0
 62
4
 10
-4.11213642E+01
 20
-9.54113297E+01
  0
VERTEX
  8
0
 62
4
 10
-4.12981772E+01
 20
-9.55862086E+01
  0
VERTEX
  8
0
 62
4
 10
-4.14575000E+01
 20
-9.57743884E+01
  0
VERTEX
  8
0
 62
4
 10
-4.15981201E+01
 20
-9.59744371E+01
  0
VERTEX
  8
0
 62
4
 10
-4.17189673E+01
 20
-9.61848321E+01
  0
VERTEX
  8
0
 62
4
 10
-4.18191218E+01
 20
-9.64039722E+01
  0
VERTEX
  8
0
 62
4
 10
-4.18978214E+01
 20
-9.66301897E+01
  0
VERTEX
  8
0
 62
4
 10
-4.19544672E+01
 20
-9.68617627E+01
  0
VERTEX
  8
0
 62
4
 10
-4.19886280E+01
 20
-9.70969290E+01
  0
VERTEX
  8
0
 62
4
 10
-4.20000439E+01
 20
-9.73338988E+01
  0
VERTEX
  8
0
 62
4
 10
-4.19886280E+01
 20
-9.75708686E+01
  0
VERTEX
  8
0
 62
4
 10
-4.19544672E+01
 20
-9.78060349E+01
  0
VERTEX
  8
0
 62
4
 10
-4.18978214E+01
 20
-9.80376080E+01
  0
VERTEX
  8
0
 62
4
 10
-4.18191218E+01
 20
-9.82638254E+01
  0
VERTEX
  8
0
 62
4
 10
-4.17189673E+01
 20
-9.84829655E+01
  0
VERTEX
  8
0
 62
4
 10
-4.15981201E+01
 20
-9.86933605E+01
  0
VERTEX
  8
0
 62
4
 10
-4.14575000E+01
 20
-9.88934092E+01
  0
VERTEX
  8
0
 62
4
 10
-4.12981772E+01
 20
-9.90815891E+01
  0
VERTEX
  8
0
 62
4
 10
-4.11213642E+01
 20
-9.92564679E+01
  0
VERTEX
  8
0
 62
4
 10
-4.09284067E+01
 20
-9.94167149E+01
  0
VERTEX
  8
0
 62
4
 10
-4.07207732E+01
 20
-9.95611104E+01
  0
VERTEX
  8
0
 62
4
 10
-4.05000439E+01
 20
-9.96885555E+01
  0
VERTEX
  8
0
 62
4
 10
-4.02678987E+01
 20
-9.97980802E+01
  0
VERTEX
  8
0
 62
4
 10
-4.00261043E+01
 20
-9.98888510E+01
  0
VERTEX
  8
0
 62
4
 10
-3.97765010E+01
 20
-9.99601771E+01
  0
VERTEX
  8
0
 62
4
 10
-3.95209884E+01
 20
-1.00011516E+02
  0
VERTEX
  8
0
 62
4
 10
-3.92615111E+01
 20
-1.00042476E+02
  0
VERTEX
  8
0
 62
4
 10
-3.90000439E+01
 20
-1.00052822E+02
  0
VERTEX
  8
0
 62
4
 10
-3.87385767E+01
 20
-1.00042476E+02
  0
VERTEX
  8
0
 62
4
 10
-3.84790994E+01
 20
-1.00011516E+02
  0
VERTEX
  8
0
 62
4
 10
-3.82235868E+01
 20
-9.99601771E+01
  0
VERTEX
  8
0
 62
4
 10
-3.79739835E+01
 20
-9.98888510E+01
  0
VERTEX
  8
0
 62
4
 10
-3.77321891E+01
 20
-9.97980802E+01
  0
VERTEX
  8
0
 62
4
 10
-3.75000439E+01
 20
-9.96885555E+01
  0
VERTEX
  8
0
 62
4
 10
-3.72793146E+01
 20
-9.95611104E+01
  0
VERTEX
  8
0
 62
4
 10
-3.70716811E+01
 20
-9.94167149E+01
  0
VERTEX
  8
0
 62
4
 10
-3.68787236E+01
 20
-9.92564679E+01
  0
VERTEX
  8
0
 62
4
 10
-3.67019106E+01
 20
-9.90815890E+01
  0
VERTEX
  8
0
 62
4
 10
-3.65425878E+01
 20
-9.88934092E+01
  0
VERTEX
  8
0
 62
4
 10
-3.64019677E+01
 20
-9.86933605E+01
  0
VERTEX
  8
0
 62
4
 10
-3.62811205E+01
 20
-9.84829655E+01
  0
VERTEX
  8
0
 62
4
 10
-3.61809660E+01
 20
-9.82638254E+01
  0
VERTEX
  8
0
 62
4
 10
-3.61022664E+01
 20
-9.80376079E+01
  0
VERTEX
  8
0
 62
4
 10
-3.60456206E+01
 20
-9.78060349E+01
  0
VERTEX
  8
0
 62
4
 10
-3.60114598E+01
 20
-9.75708686E+01
  0
VERTEX
  8
0
 62
4
 10
-3.60000439E+01
 20
-9.73338988E+01
  0
SEQEND
  8
0
  0
LINE
  8
0
  6
CENTER
 62
6
 10
-4.45010514E+01
 20
-9.73338988E+01
 11
-3.34990364E+01
 21
-9.73338988E+01
  0
LINE
  8
0
 62
4
 10
-6.60000439E+01
 20
-1.07349654E+02
 11
-6.10000439E+01
 21
-1.07349654E+02
  0
LINE
  8
0
 62
4
 10
-6.60000439E+01
 20
-1.04175790E+02
 11
-6.10000439E+01
 21
-1.04175790E+02
  0
LINE
  8
0
 62
4
 10
-6.60000439E+01
 20
-9.66999714E+01
 11
-6.10000439E+01
 21
-9.66999714E+01
  0
LINE
  8
0
 62
4
 10
-4.95000439E+01
 20
-1.20465522E+02
 11
-1.35000439E+01
 21
-1.20465522E+02
  0
LINE
  8
0
 62
4
 10
-2.95000439E+01
 20
-9.95364540E+01
 11
-1.35000439E+01
 21
-9.95364540E+01
  0
ARC
  8
0
 62
4
 10
-4.95000434E+01
 20
-1.25304795E+02
 40
1.50000046E+00
 50
1.80000018E+02
 51
2.69999983E+02
  0
ARC
  8
0
 62
4
 10
-5.55000443E+01
 20
-9.33696102E+01
 40
4.99999542E-01
 50
8.99999475E+01
 51
1.80000053E+02
  0
ARC
  8
0
 62
4
 10
-5.55000396E+01
 20
-1.06369606E+02
 40
5.00004272E-01
 50
1.80000490E+02
 51
2.69999511E+02
  0
ARC
  8
0
 62
4
 10
-1.35000405E+01
 20
-1.25304799E+02
 40
1.49999664E+00
 50
2.69999872E+02
 51
1.28225561E-04
  0
ARC
  8
0
 62
4
 10
-1.35000472E+01
 20
-1.01036457E+02
 40
1.50000336E+00
 50
1.28225275E-04
 51
8.99998718E+01
  0
LINE
  8
0
 62
4
 10
-2.95000439E+01
 20
-9.92894313E+01
 11
-3.15000439E+01
 21
-9.92894313E+01
  0
LINE
  8
0
 62
4
 10
-4.95000439E+01
 20
-1.26804796E+02
 11
-4.20090044E+01
 21
-1.26804796E+02
  0
LINE
  8
0
 62
4
 10
-4.85000439E+01
 20
-1.16509279E+02
 11
-2.95000439E+01
 21
-1.16509279E+02
  0
LINE
  8
0
 62
4
 10
-5.10000439E+01
 20
-1.06869611E+02
 11
-5.10000439E+01
 21
-1.25304796E+02
  0
LINE
  8
0
 62
4
 10
-2.95000439E+01
 20
-9.92894313E+01
 11
-2.95000439E+01
 21
-1.18199738E+02
  0
LINE
  8
0
 62
4
 10
-4.85000439E+01
 20
-1.06869611E+02
 11
-4.85000439E+01
 21
-1.18199738E+02
  0
LINE
  8
0
 62
4
 10
-1.20000439E+01
 20
-1.01036454E+02
 11
-1.20000439E+01
 21
-1.25304796E+02
  0
LINE
  8
0
 62
4
 10
-6.60000439E+01
 20
-9.23937892E+01
 11
-6.10000439E+01
 21
-9.23937892E+01
  0
LINE
  8
0
 62
4
 10
-4.65000439E+01
 20
-1.14696664E+02
 11
-3.15000439E+01
 21
-1.14696664E+02
  0
LINE
  8
0
 62
4
 10
-4.65000439E+01
 20
-1.04131207E+02
 11
-3.15000439E+01
 21
-1.04131207E+02
  0
LINE
  8
0
 62
4
 10
-5.95000439E+01
 20
-1.05619611E+02
 11
-5.60000439E+01
 21
-1.05619611E+02
  0
LINE
  8
0
 62
4
 10
-5.95000439E+01
 20
-9.41196107E+01
 11
-5.60000439E+01
 21
-9.41196107E+01
  0
LINE
  8
0
 62
4
 10
-5.95000439E+01
 20
-9.36196107E+01
 11
-5.95000439E+01
 21
-1.06119611E+02
  0
LINE
  8
0
 62
4
 10
-6.10000439E+01
 20
-1.06119611E+02
 11
-5.60000439E+01
 21
-1.06119611E+02
  0
LINE
  8
0
 62
4
 10
-6.10000439E+01
 20
-9.36196107E+01
 11
-5.60000439E+01
 21
-9.36196107E+01
  0
LINE
  8
0
 62
4
 10
-6.10000439E+01
 20
-9.23937892E+01
 11
-6.10000439E+01
 21
-1.07349654E+02
  0
LINE
  8
0
 62
4
 10
-6.60000439E+01
 20
-9.23937892E+01
 11
-6.60000439E+01
 21
-1.07349654E+02
  0
LINE
  8
0
 62
4
 10
-5.60000439E+01
 20
-9.33696107E+01
 11
-5.60000439E+01
 21
-1.06369611E+02
  0
LINE
  8
0
 62
4
 10
-4.65000439E+01
 20
-9.28696107E+01
 11
-5.55000439E+01
 21
-9.28696107E+01
  0
LINE
  8
0
 62
4
 10
-5.55000439E+01
 20
-1.06869611E+02
 11
-4.65000439E+01
 21
-1.06869611E+02
  0
LINE
  8
0
  6
CENTER
 62
6
 10
-3.90000439E+01
 20
-8.49318751E+01
 11
-3.90000439E+01
 21
-1.37499969E+02
  0
LINE
  8
0
  6
CENTER
 62
6
 10
-4.30000439E+01
 20
-8.43199695E+01
 11
-4.30000439E+01
 21
-9.48199695E+01
  0
LINE
  8
0
 62
4
 10
-3.15000439E+01
 20
-8.70196596E+01
 11
-4.65000439E+01
 21
-8.70196596E+01
  0
LINE
  8
0
 62
4
 10
-3.15000439E+01
 20
-9.05365904E+01
 11
-4.65000439E+01
 21
-9.05365904E+01
  0
LINE
  8
0
 62
4
 10
-3.15000439E+01
 20
-8.70196596E+01
 11
-3.15000439E+01
 21
-1.14696664E+02
  0
LINE
  8
0
 62
4
 10
-4.65000439E+01
 20
-8.70196596E+01
 11
-4.65000439E+01
 21
-1.14696664E+02
  0
LINE
  8
0
  6
CENTER
 62
6
 10
-3.50000439E+01
 20
-8.43199695E+01
 11
-3.50000439E+01
 21
-9.48199695E+01
  0
LINE
  8
0
 62
4
 10
3.28139971E+02
 20
-2.51647013E+02
 11
3.28431817E+02
 21
-2.52262839E+02
  0
LINE
  8
0
 62
4
 10
3.21859971E+02
 20
-2.51647013E+02
 11
3.21568126E+02
 21
-2.52262839E+02
  0
POLYLINE
  8
0
 62
4
 66
1
  0
VERTEX
  8
0
 62
4
 10
3.21568125E+02
 20
-2.52262839E+02
  0
VERTEX
  8
0
 62
4
 10
3.21520835E+02
 20
-2.52392052E+02
  0
VERTEX
  8
0
 62
4
 10
3.21500730E+02
 20
-2.52522525E+02
  0
VERTEX
  8
0
 62
4
 10
3.21507966E+02
 20
-2.52653239E+02
  0
VERTEX
  8
0
 62
4
 10
3.21542486E+02
 20
-2.52783173E+02
  0
VERTEX
  8
0
 62
4
 10
3.21604023E+02
 20
-2.52911310E+02
  0
VERTEX
  8
0
 62
4
 10
3.21692093E+02
 20
-2.53036650E+02
  0
VERTEX
  8
0
 62
4
 10
3.21806010E+02
 20
-2.53158214E+02
  0
VERTEX
  8
0
 62
4
 10
3.21944884E+02
 20
-2.53275051E+02
  0
VERTEX
  8
0
 62
4
 10
3.22107628E+02
 20
-2.53386249E+02
  0
VERTEX
  8
0
 62
4
 10
3.22292972E+02
 20
-2.53490939E+02
  0
VERTEX
  8
0
 62
4
 10
3.22499467E+02
 20
-2.53588303E+02
  0
VERTEX
  8
0
 62
4
 10
3.22725500E+02
 20
-2.53677579E+02
  0
VERTEX
  8
0
 62
4
 10
3.22969305E+02
 20
-2.53758072E+02
  0
VERTEX
  8
0
 62
4
 10
3.23228976E+02
 20
-2.53829151E+02
  0
VERTEX
  8
0
 62
4
 10
3.23502486E+02
 20
-2.53890261E+02
  0
VERTEX
  8
0
 62
4
 10
3.23787696E+02
 20
-2.53940925E+02
  0
VERTEX
  8
0
 62
4
 10
3.24082378E+02
 20
-2.53980747E+02
  0
VERTEX
  8
0
 62
4
 10
3.24384230E+02
 20
-2.54009415E+02
  0
VERTEX
  8
0
 62
4
 10
3.24690893E+02
 20
-2.54026706E+02
  0
VERTEX
  8
0
 62
4
 10
3.24999971E+02
 20
-2.54032485E+02
  0
VERTEX
  8
0
 62
4
 10
3.25309049E+02
 20
-2.54026706E+02
  0
VERTEX
  8
0
 62
4
 10
3.25615712E+02
 20
-2.54009415E+02
  0
VERTEX
  8
0
 62
4
 10
3.25917564E+02
 20
-2.53980747E+02
  0
VERTEX
  8
0
 62
4
 10
3.26212246E+02
 20
-2.53940925E+02
  0
VERTEX
  8
0
 62
4
 10
3.26497456E+02
 20
-2.53890261E+02
  0
VERTEX
  8
0
 62
4
 10
3.26770966E+02
 20
-2.53829151E+02
  0
VERTEX
  8
0
 62
4
 10
3.27030637E+02
 20
-2.53758072E+02
  0
VERTEX
  8
0
 62
4
 10
3.27274442E+02
 20
-2.53677579E+02
  0
VERTEX
  8
0
 62
4
 10
3.27500475E+02
 20
-2.53588303E+02
  0
VERTEX
  8
0
 62
4
 10
3.27706970E+02
 20
-2.53490939E+02
  0
VERTEX
  8
0
 62
4
 10
3.27892314E+02
 20
-2.53386249E+02
  0
VERTEX
  8
0
 62
4
 10
3.28055058E+02
 20
-2.53275051E+02
  0
VERTEX
  8
0
 62
4
 10
3.28193932E+02
 20
-2.53158214E+02
  0
VERTEX
  8
0
 62
4
 10
3.28307849E+02
 20
-2.53036650E+02
  0
VERTEX
  8
0
 62
4
 10
3.28395919E+02
 20
-2.52911310E+02
  0
VERTEX
  8
0
 62
4
 10
3.28457456E+02
 20
-2.52783173E+02
  0
VERTEX
  8
0
 62
4
 10
3.28491976E+02
 20
-2.52653239E+02
  0
VERTEX
  8
0
 62
4
 10
3.28499212E+02
 20
-2.52522525E+02
  0
VERTEX
  8
0
 62
4
 10
3.28479107E+02
 20
-2.52392052E+02
  0
VERTEX
  8
0
 62
4
 10
3.28431817E+02
 20
-2.52262839E+02
  0
SEQEND
  8
0
  0
POLYLINE
  8
0
 62
4
 66
1
  0
VERTEX
  8
0
 62
4
 10
3.28139971E+02
 20
-2.51647013E+02
  0
VERTEX
  8
0
 62
4
 10
3.28128022E+02
 20
-2.51531355E+02
  0
VERTEX
  8
0
 62
4
 10
3.28092267E+02
 20
-2.51416578E+02
  0
VERTEX
  8
0
 62
4
 10
3.28032978E+02
 20
-2.51303555E+02
  0
VERTEX
  8
0
 62
4
 10
3.27950606E+02
 20
-2.51193145E+02
  0
VERTEX
  8
0
 62
4
 10
3.27845777E+02
 20
-2.51086190E+02
  0
VERTEX
  8
0
 62
4
 10
3.27719291E+02
 20
-2.50983502E+02
  0
VERTEX
  8
0
 62
4
 10
3.27572108E+02
 20
-2.50885865E+02
  0
VERTEX
  8
0
 62
4
 10
3.27405351E+02
 20
-2.50794020E+02
  0
VERTEX
  8
0
 62
4
 10
3.27220286E+02
 20
-2.50708667E+02
  0
VERTEX
  8
0
 62
4
 10
3.27018324E+02
 20
-2.50630456E+02
  0
VERTEX
  8
0
 62
4
 10
3.26801001E+02
 20
-2.50559981E+02
  0
VERTEX
  8
0
 62
4
 10
3.26569971E+02
 20
-2.50497779E+02
  0
VERTEX
  8
0
 62
4
 10
3.26326992E+02
 20
-2.50444323E+02
  0
VERTEX
  8
0
 62
4
 10
3.26073914E+02
 20
-2.50400021E+02
  0
VERTEX
  8
0
 62
4
 10
3.25812663E+02
 20
-2.50365209E+02
  0
VERTEX
  8
0
 62
4
 10
3.25545226E+02
 20
-2.50340152E+02
  0
VERTEX
  8
0
 62
4
 10
3.25273640E+02
 20
-2.50325041E+02
  0
VERTEX
  8
0
 62
4
 10
3.24999971E+02
 20
-2.50319992E+02
  0
VERTEX
  8
0
 62
4
 10
3.24726302E+02
 20
-2.50325041E+02
  0
VERTEX
  8
0
 62
4
 10
3.24454716E+02
 20
-2.50340152E+02
  0
VERTEX
  8
0
 62
4
 10
3.24187279E+02
 20
-2.50365209E+02
  0
VERTEX
  8
0
 62
4
 10
3.23926028E+02
 20
-2.50400021E+02
  0
VERTEX
  8
0
 62
4
 10
3.23672950E+02
 20
-2.50444323E+02
  0
VERTEX
  8
0
 62
4
 10
3.23429971E+02
 20
-2.50497779E+02
  0
VERTEX
  8
0
 62
4
 10
3.23198941E+02
 20
-2.50559981E+02
  0
VERTEX
  8
0
 62
4
 10
3.22981618E+02
 20
-2.50630456E+02
  0
VERTEX
  8
0
 62
4
 10
3.22779656E+02
 20
-2.50708667E+02
  0
VERTEX
  8
0
 62
4
 10
3.22594591E+02
 20
-2.50794020E+02
  0
VERTEX
  8
0
 62
4
 10
3.22427834E+02
 20
-2.50885865E+02
  0
VERTEX
  8
0
 62
4
 10
3.22280651E+02
 20
-2.50983502E+02
  0
VERTEX
  8
0
 62
4
 10
3.22154165E+02
 20
-2.51086190E+02
  0
VERTEX
  8
0
 62
4
 10
3.22049336E+02
 20
-2.51193145E+02
  0
VERTEX
  8
0
 62
4
 10
3.21966964E+02
 20
-2.51303555E+02
  0
VERTEX
  8
0
 62
4
 10
3.21907675E+02
 20
-2.51416578E+02
  0
VERTEX
  8
0
 62
4
 10
3.21871920E+02
 20
-2.51531355E+02
  0
VERTEX
  8
0
 62
4
 10
3.21859971E+02
 20
-2.51647013E+02
  0
VERTEX
  8
0
 62
4
 10
3.21871920E+02
 20
-2.51762671E+02
  0
VERTEX
  8
0
 62
4
 10
3.21907675E+02
 20
-2.51877448E+02
  0
VERTEX
  8
0
 62
4
 10
3.21966964E+02
 20
-2.51990471E+02
  0
VERTEX
  8
0
 62
4
 10
3.22049336E+02
 20
-2.52100881E+02
  0
VERTEX
  8
0
 62
4
 10
3.22154165E+02
 20
-2.52207836E+02
  0
VERTEX
  8
0
 62
4
 10
3.22280651E+02
 20
-2.52310524E+02
  0
VERTEX
  8
0
 62
4
 10
3.22427834E+02
 20
-2.52408161E+02
  0
VERTEX
  8
0
 62
4
 10
3.22594591E+02
 20
-2.52500006E+02
  0
VERTEX
  8
0
 62
4
 10
3.22779656E+02
 20
-2.52585359E+02
  0
VERTEX
  8
0
 62
4
 10
3.22981618E+02
 20
-2.52663570E+02
  0
VERTEX
  8
0
 62
4
 10
3.23198941E+02
 20
-2.52734045E+02
  0
VERTEX
  8
0
 62
4
 10
3.23429971E+02
 20
-2.52796247E+02
  0
VERTEX
  8
0
 62
4
 10
3.23672950E+02
 20
-2.52849703E+02
  0
VERTEX
  8
0
 62
4
 10
3.23926028E+02
 20
-2.52894005E+02
  0
VERTEX
  8
0
 62
4
 10
3.24187279E+02
 20
-2.52928817E+02
  0
VERTEX
  8
0
 62
4
 10
3.24454716E+02
 20
-2.52953874E+02
  0
VERTEX
  8
0
 62
4
 10
3.24726302E+02
 20
-2.52968985E+02
  0
VERTEX
  8
0
 62
4
 10
3.24999971E+02
 20
-2.52974034E+02
  0
VERTEX
  8
0
 62
4
 10
3.25273640E+02
 20
-2.52968985E+02
  0
VERTEX
  8
0
 62
4
 10
3.25545226E+02
 20
-2.52953874E+02
  0
VERTEX
  8
0
 62
4
 10
3.25812663E+02
 20
-2.52928817E+02
  0
VERTEX
  8
0
 62
4
 10
3.26073914E+02
 20
-2.52894005E+02
  0
VERTEX
  8
0
 62
4
 10
3.26326992E+02
 20
-2.52849703E+02
  0
VERTEX
  8
0
 62
4
 10
3.26569971E+02
 20
-2.52796247E+02
  0
VERTEX
  8
0
 62
4
 10
3.26801001E+02
 20
-2.52734045E+02
  0
VERTEX
  8
0
 62
4
 10
3.27018324E+02
 20
-2.52663570E+02
  0
VERTEX
  8
0
 62
4
 10
3.27220286E+02
 20
-2.52585359E+02
  0
VERTEX
  8
0
 62
4
 10
3.27405351E+02
 20
-2.52500006E+02
  0
VERTEX
  8
0
 62
4
 10
3.27572108E+02
 20
-2.52408161E+02
  0
VERTEX
  8
0
 62
4
 10
3.27719291E+02
 20
-2.52310524E+02
  0
VERTEX
  8
0
 62
4
 10
3.27845777E+02
 20
-2.52207836E+02
  0
VERTEX
  8
0
 62
4
 10
3.27950606E+02
 20
-2.52100881E+02
  0
VERTEX
  8
0
 62
4
 10
3.28032978E+02
 20
-2.51990471E+02
  0
VERTEX
  8
0
 62
4
 10
3.28092267E+02
 20
-2.51877448E+02
  0
VERTEX
  8
0
 62
4
 10
3.28128022E+02
 20
-2.51762671E+02
  0
VERTEX
  8
0
 62
4
 10
3.28139971E+02
 20
-2.51647013E+02
  0
SEQEND
  8
0
  0
LINE
  8
0
  6
CENTER
 62
6
 10
3.24999971E+02
 20
-2.49804222E+02
 11
3.24999971E+02
 21
-2.51647013E+02
  0
LINE
  8
0
 62
4
 10
3.67999971E+02
 20
-2.38514613E+02
 11
3.62999971E+02
 21
-2.38514613E+02
  0
LINE
  8
0
 62
4
 10
3.67999971E+02
 20
-2.37862978E+02
 11
3.62999971E+02
 21
-2.37862978E+02
  0
LINE
  8
0
 62
4
 10
3.67999971E+02
 20
-2.31056606E+02
 11
3.62999971E+02
 21
-2.31056606E+02
  0
LINE
  8
0
 62
4
 10
3.51499963E+02
 20
-2.55148119E+02
 11
3.51499963E+02
 21
-2.49513089E+02
  0
LINE
  8
0
 62
4
 10
3.15499971E+02
 20
-2.55148119E+02
 11
3.15499971E+02
 21
-2.49513089E+02
  0
POLYLINE
  8
0
 62
4
 66
1
  0
VERTEX
  8
0
 62
4
 10
3.46732693E+02
 20
-2.85139051E+02
  0
VERTEX
  8
0
 62
4
 10
3.46814694E+02
 20
-2.84995733E+02
  0
VERTEX
  8
0
 62
4
 10
3.46882299E+02
 20
-2.84846371E+02
  0
VERTEX
  8
0
 62
4
 10
3.46934973E+02
 20
-2.84692150E+02
  0
VERTEX
  8
0
 62
4
 10
3.46972297E+02
 20
-2.84534292E+02
  0
VERTEX
  8
0
 62
4
 10
3.46993975E+02
 20
-2.84374051E+02
  0
VERTEX
  8
0
 62
4
 10
3.46999836E+02
 20
-2.84212698E+02
  0
VERTEX
  8
0
 62
4
 10
3.46989832E+02
 20
-2.84051512E+02
  0
VERTEX
  8
0
 62
4
 10
3.46964044E+02
 20
-2.83891772E+02
  0
VERTEX
  8
0
 62
4
 10
3.46922675E+02
 20
-2.83734745E+02
  0
VERTEX
  8
0
 62
4
 10
3.46866055E+02
 20
-2.83581677E+02
  0
VERTEX
  8
0
 62
4
 10
3.46794631E+02
 20
-2.83433781E+02
  0
VERTEX
  8
0
 62
4
 10
3.46708972E+02
 20
-2.83292232E+02
  0
VERTEX
  8
0
 62
4
 10
3.46609755E+02
 20
-2.83158152E+02
  0
VERTEX
  8
0
 62
4
 10
3.46497769E+02
 20
-2.83032605E+02
  0
VERTEX
  8
0
 62
4
 10
3.46373901E+02
 20
-2.82916587E+02
  0
VERTEX
  8
0
 62
4
 10
3.46239134E+02
 20
-2.82811017E+02
  0
VERTEX
  8
0
 62
4
 10
3.46094538E+02
 20
-2.82716733E+02
  0
VERTEX
  8
0
 62
4
 10
3.45941259E+02
 20
-2.82634484E+02
  0
VERTEX
  8
0
 62
4
 10
3.45780513E+02
 20
-2.82564922E+02
  0
VERTEX
  8
0
 62
4
 10
3.45613575E+02
 20
-2.82508598E+02
  0
VERTEX
  8
0
 62
4
 10
3.45441770E+02
 20
-2.82465959E+02
  0
VERTEX
  8
0
 62
4
 10
3.45266460E+02
 20
-2.82437344E+02
  0
VERTEX
  8
0
 62
4
 10
3.45089036E+02
 20
-2.82422980E+02
  0
VERTEX
  8
0
 62
4
 10
3.44910906E+02
 20
-2.82422980E+02
  0
VERTEX
  8
0
 62
4
 10
3.44733482E+02
 20
-2.82437344E+02
  0
VERTEX
  8
0
 62
4
 10
3.44558172E+02
 20
-2.82465959E+02
  0
VERTEX
  8
0
 62
4
 10
3.44386367E+02
 20
-2.82508598E+02
  0
VERTEX
  8
0
 62
4
 10
3.44219429E+02
 20
-2.82564922E+02
  0
VERTEX
  8
0
 62
4
 10
3.44058683E+02
 20
-2.82634484E+02
  0
VERTEX
  8
0
 62
4
 10
3.43905404E+02
 20
-2.82716733E+02
  0
VERTEX
  8
0
 62
4
 10
3.43760808E+02
 20
-2.82811017E+02
  0
VERTEX
  8
0
 62
4
 10
3.43626041E+02
 20
-2.82916587E+02
  0
VERTEX
  8
0
 62
4
 10
3.43502173E+02
 20
-2.83032605E+02
  0
VERTEX
  8
0
 62
4
 10
3.43390187E+02
 20
-2.83158152E+02
  0
VERTEX
  8
0
 62
4
 10
3.43290970E+02
 20
-2.83292232E+02
  0
VERTEX
  8
0
 62
4
 10
3.43205311E+02
 20
-2.83433781E+02
  0
VERTEX
  8
0
 62
4
 10
3.43133887E+02
 20
-2.83581677E+02
  0
VERTEX
  8
0
 62
4
 10
3.43077267E+02
 20
-2.83734745E+02
  0
VERTEX
  8
0
 62
4
 10
3.43035898E+02
 20
-2.83891772E+02
  0
VERTEX
  8
0
 62
4
 10
3.43010110E+02
 20
-2.84051512E+02
  0
VERTEX
  8
0
 62
4
 10
3.43000106E+02
 20
-2.84212698E+02
  0
VERTEX
  8
0
 62
4
 10
3.43005967E+02
 20
-2.84374052E+02
  0
VERTEX
  8
0
 62
4
 10
3.43027645E+02
 20
-2.84534292E+02
  0
VERTEX
  8
0
 62
4
 10
3.43064969E+02
 20
-2.84692150E+02
  0
VERTEX
  8
0
 62
4
 10
3.43117643E+02
 20
-2.84846371E+02
  0
VERTEX
  8
0
 62
4
 10
3.43185248E+02
 20
-2.84995733E+02
  0
VERTEX
  8
0
 62
4
 10
3.43267249E+02
 20
-2.85139051E+02
  0
SEQEND
  8
0
  0
POLYLINE
  8
0
 62
6
 66
1
  0
VERTEX
  8
0
 62
6
 10
3.46499971E+02
 20
-2.85063027E+02
  0
VERTEX
  8
0
 62
6
 10
3.46494263E+02
 20
-2.84944542E+02
  0
VERTEX
  8
0
 62
6
 10
3.46477183E+02
 20
-2.84826959E+02
  0
VERTEX
  8
0
 62
6
 10
3.46448860E+02
 20
-2.84711172E+02
  0
VERTEX
  8
0
 62
6
 10
3.46409510E+02
 20
-2.84598064E+02
  0
VERTEX
  8
0
 62
6
 10
3.46359433E+02
 20
-2.84488494E+02
  0
VERTEX
  8
0
 62
6
 10
3.46299009E+02
 20
-2.84383296E+02
  0
VERTEX
  8
0
 62
6
 10
3.46228699E+02
 20
-2.84283272E+02
  0
VERTEX
  8
0
 62
6
 10
3.46149038E+02
 20
-2.84189182E+02
  0
VERTEX
  8
0
 62
6
 10
3.46060631E+02
 20
-2.84101742E+02
  0
VERTEX
  8
0
 62
6
 10
3.45964152E+02
 20
-2.84021619E+02
  0
VERTEX
  8
0
 62
6
 10
3.45860336E+02
 20
-2.83949421E+02
  0
VERTEX
  8
0
 62
6
 10
3.45749971E+02
 20
-2.83885699E+02
  0
VERTEX
  8
0
 62
6
 10
3.45633898E+02
 20
-2.83830936E+02
  0
VERTEX
  8
0
 62
6
 10
3.45513001E+02
 20
-2.83785551E+02
  0
VERTEX
  8
0
 62
6
 10
3.45388200E+02
 20
-2.83749888E+02
  0
VERTEX
  8
0
 62
6
 10
3.45260443E+02
 20
-2.83724219E+02
  0
VERTEX
  8
0
 62
6
 10
3.45130705E+02
 20
-2.83708738E+02
  0
VERTEX
  8
0
 62
6
 10
3.44999971E+02
 20
-2.83703565E+02
  0
VERTEX
  8
0
 62
6
 10
3.44869237E+02
 20
-2.83708738E+02
  0
VERTEX
  8
0
 62
6
 10
3.44739499E+02
 20
-2.83724219E+02
  0
VERTEX
  8
0
 62
6
 10
3.44611742E+02
 20
-2.83749888E+02
  0
VERTEX
  8
0
 62
6
 10
3.44486941E+02
 20
-2.83785551E+02
  0
VERTEX
  8
0
 62
6
 10
3.44366044E+02
 20
-2.83830936E+02
  0
VERTEX
  8
0
 62
6
 10
3.44249971E+02
 20
-2.83885699E+02
  0
VERTEX
  8
0
 62
6
 10
3.44139606E+02
 20
-2.83949421E+02
  0
VERTEX
  8
0
 62
6
 10
3.44035790E+02
 20
-2.84021619E+02
  0
VERTEX
  8
0
 62
6
 10
3.43939311E+02
 20
-2.84101742E+02
  0
VERTEX
  8
0
 62
6
 10
3.43850904E+02
 20
-2.84189182E+02
  0
VERTEX
  8
0
 62
6
 10
3.43771243E+02
 20
-2.84283272E+02
  0
VERTEX
  8
0
 62
6
 10
3.43700933E+02
 20
-2.84383296E+02
  0
VERTEX
  8
0
 62
6
 10
3.43640509E+02
 20
-2.84488494E+02
  0
VERTEX
  8
0
 62
6
 10
3.43590432E+02
 20
-2.84598064E+02
  0
VERTEX
  8
0
 62
6
 10
3.43551082E+02
 20
-2.84711172E+02
  0
VERTEX
  8
0
 62
6
 10
3.43522759E+02
 20
-2.84826959E+02
  0
VERTEX
  8
0
 62
6
 10
3.43505679E+02
 20
-2.84944542E+02
  0
VERTEX
  8
0
 62
6
 10
3.43499971E+02
 20
-2.85063027E+02
  0
VERTEX
  8
0
 62
6
 10
3.43505679E+02
 20
-2.85181512E+02
  0
VERTEX
  8
0
 62
6
 10
3.43522759E+02
 20
-2.85299095E+02
  0
VERTEX
  8
0
 62
6
 10
3.43551082E+02
 20
-2.85414882E+02
  0
VERTEX
  8
0
 62
6
 10
3.43590432E+02
 20
-2.85527990E+02
  0
VERTEX
  8
0
 62
6
 10
3.43640509E+02
 20
-2.85637560E+02
  0
VERTEX
  8
0
 62
6
 10
3.43700933E+02
 20
-2.85742758E+02
  0
VERTEX
  8
0
 62
6
 10
3.43771243E+02
 20
-2.85842782E+02
  0
VERTEX
  8
0
 62
6
 10
3.43850904E+02
 20
-2.85936872E+02
  0
VERTEX
  8
0
 62
6
 10
3.43939311E+02
 20
-2.86024312E+02
  0
VERTEX
  8
0
 62
6
 10
3.44035790E+02
 20
-2.86104435E+02
  0
VERTEX
  8
0
 62
6
 10
3.44139606E+02
 20
-2.86176633E+02
  0
VERTEX
  8
0
 62
6
 10
3.44249971E+02
 20
-2.86240355E+02
  0
VERTEX
  8
0
 62
6
 10
3.44366044E+02
 20
-2.86295118E+02
  0
VERTEX
  8
0
 62
6
 10
3.44486941E+02
 20
-2.86340503E+02
  0
VERTEX
  8
0
 62
6
 10
3.44611742E+02
 20
-2.86376166E+02
  0
VERTEX
  8
0
 62
6
 10
3.44739499E+02
 20
-2.86401835E+02
  0
VERTEX
  8
0
 62
6
 10
3.44869237E+02
 20
-2.86417316E+02
  0
VERTEX
  8
0
 62
6
 10
3.44999971E+02
 20
-2.86422489E+02
  0
VERTEX
  8
0
 62
6
 10
3.45130705E+02
 20
-2.86417316E+02
  0
VERTEX
  8
0
 62
6
 10
3.45260443E+02
 20
-2.86401835E+02
  0
VERTEX
  8
0
 62
6
 10
3.45388200E+02
 20
-2.86376166E+02
  0
VERTEX
  8
0
 62
6
 10
3.45513001E+02
 20
-2.86340503E+02
  0
VERTEX
  8
0
 62
6
 10
3.45633898E+02
 20
-2.86295118E+02
  0
VERTEX
  8
0
 62
6
 10
3.45749971E+02
 20
-2.86240355E+02
  0
VERTEX
  8
0
 62
6
 10
3.45860336E+02
 20
-2.86176633E+02
  0
VERTEX
  8
0
 62
6
 10
3.45964152E+02
 20
-2.86104435E+02
  0
VERTEX
  8
0
 62
6
 10
3.46060631E+02
 20
-2.86024312E+02
  0
VERTEX
  8
0
 62
6
 10
3.46149038E+02
 20
-2.85936872E+02
  0
VERTEX
  8
0
 62
6
 10
3.46228699E+02
 20
-2.85842782E+02
  0
VERTEX
  8
0
 62
6
 10
3.46299009E+02
 20
-2.85742758E+02
  0
VERTEX
  8
0
 62
6
 10
3.46359433E+02
 20
-2.85637560E+02
  0
VERTEX
  8
0
 62
6
 10
3.46409510E+02
 20
-2.85527990E+02
  0
VERTEX
  8
0
 62
6
 10
3.46448860E+02
 20
-2.85414882E+02
  0
VERTEX
  8
0
 62
6
 10
3.46477183E+02
 20
-2.85299095E+02
  0
VERTEX
  8
0
 62
6
 10
3.46494263E+02
 20
-2.85181512E+02
  0
VERTEX
  8
0
 62
6
 10
3.46499971E+02
 20
-2.85063027E+02
  0
SEQEND
  8
0
  0
POLYLINE
  8
0
 62
4
 66
1
  0
VERTEX
  8
0
 62
4
 10
3.46734971E+02
 20
-2.85058495E+02
  0
VERTEX
  8
0
 62
4
 10
3.46728369E+02
 20
-2.84921447E+02
  0
VERTEX
  8
0
 62
4
 10
3.46708612E+02
 20
-2.84785443E+02
  0
VERTEX
  8
0
 62
4
 10
3.46675852E+02
 20
-2.84651517E+02
  0
VERTEX
  8
0
 62
4
 10
3.46630338E+02
 20
-2.84520687E+02
  0
VERTEX
  8
0
 62
4
 10
3.46572415E+02
 20
-2.84393951E+02
  0
VERTEX
  8
0
 62
4
 10
3.46502525E+02
 20
-2.84272273E+02
  0
VERTEX
  8
0
 62
4
 10
3.46421200E+02
 20
-2.84156578E+02
  0
VERTEX
  8
0
 62
4
 10
3.46329058E+02
 20
-2.84047747E+02
  0
VERTEX
  8
0
 62
4
 10
3.46226801E+02
 20
-2.83946609E+02
  0
VERTEX
  8
0
 62
4
 10
3.46115208E+02
 20
-2.83853933E+02
  0
VERTEX
  8
0
 62
4
 10
3.45995126E+02
 20
-2.83770424E+02
  0
VERTEX
  8
0
 62
4
 10
3.45867471E+02
 20
-2.83696719E+02
  0
VERTEX
  8
0
 62
4
 10
3.45733214E+02
 20
-2.83633377E+02
  0
VERTEX
  8
0
 62
4
 10
3.45593376E+02
 20
-2.83580881E+02
  0
VERTEX
  8
0
 62
4
 10
3.45449022E+02
 20
-2.83539631E+02
  0
VERTEX
  8
0
 62
4
 10
3.45301251E+02
 20
-2.83509940E+02
  0
VERTEX
  8
0
 62
4
 10
3.45151186E+02
 20
-2.83492035E+02
  0
VERTEX
  8
0
 62
4
 10
3.44999971E+02
 20
-2.83486051E+02
  0
VERTEX
  8
0
 62
4
 10
3.44848756E+02
 20
-2.83492035E+02
  0
VERTEX
  8
0
 62
4
 10
3.44698691E+02
 20
-2.83509940E+02
  0
VERTEX
  8
0
 62
4
 10
3.44550920E+02
 20
-2.83539631E+02
  0
VERTEX
  8
0
 62
4
 10
3.44406566E+02
 20
-2.83580881E+02
  0
VERTEX
  8
0
 62
4
 10
3.44266728E+02
 20
-2.83633377E+02
  0
VERTEX
  8
0
 62
4
 10
3.44132471E+02
 20
-2.83696719E+02
  0
VERTEX
  8
0
 62
4
 10
3.44004816E+02
 20
-2.83770424E+02
  0
VERTEX
  8
0
 62
4
 10
3.43884734E+02
 20
-2.83853933E+02
  0
VERTEX
  8
0
 62
4
 10
3.43773141E+02
 20
-2.83946609E+02
  0
VERTEX
  8
0
 62
4
 10
3.43670884E+02
 20
-2.84047747E+02
  0
VERTEX
  8
0
 62
4
 10
3.43578742E+02
 20
-2.84156578E+02
  0
VERTEX
  8
0
 62
4
 10
3.43497417E+02
 20
-2.84272273E+02
  0
VERTEX
  8
0
 62
4
 10
3.43427527E+02
 20
-2.84393951E+02
  0
VERTEX
  8
0
 62
4
 10
3.43369604E+02
 20
-2.84520687E+02
  0
VERTEX
  8
0
 62
4
 10
3.43324090E+02
 20
-2.84651517E+02
  0
VERTEX
  8
0
 62
4
 10
3.43291330E+02
 20
-2.84785443E+02
  0
VERTEX
  8
0
 62
4
 10
3.43271573E+02
 20
-2.84921447E+02
  0
VERTEX
  8
0
 62
4
 10
3.43264971E+02
 20
-2.85058495E+02
  0
VERTEX
  8
0
 62
4
 10
3.43271573E+02
 20
-2.85195543E+02
  0
VERTEX
  8
0
 62
4
 10
3.43291330E+02
 20
-2.85331547E+02
  0
VERTEX
  8
0
 62
4
 10
3.43324090E+02
 20
-2.85465473E+02
  0
VERTEX
  8
0
 62
4
 10
3.43369604E+02
 20
-2.85596303E+02
  0
VERTEX
  8
0
 62
4
 10
3.43427527E+02
 20
-2.85723039E+02
  0
VERTEX
  8
0
 62
4
 10
3.43497417E+02
 20
-2.85844717E+02
  0
VERTEX
  8
0
 62
4
 10
3.43578742E+02
 20
-2.85960412E+02
  0
VERTEX
  8
0
 62
4
 10
3.43670884E+02
 20
-2.86069243E+02
  0
VERTEX
  8
0
 62
4
 10
3.43773141E+02
 20
-2.86170381E+02
  0
VERTEX
  8
0
 62
4
 10
3.43884734E+02
 20
-2.86263057E+02
  0
VERTEX
  8
0
 62
4
 10
3.44004816E+02
 20
-2.86346566E+02
  0
VERTEX
  8
0
 62
4
 10
3.44132471E+02
 20
-2.86420271E+02
  0
VERTEX
  8
0
 62
4
 10
3.44266728E+02
 20
-2.86483613E+02
  0
VERTEX
  8
0
 62
4
 10
3.44406566E+02
 20
-2.86536109E+02
  0
VERTEX
  8
0
 62
4
 10
3.44550920E+02
 20
-2.86577359E+02
  0
VERTEX
  8
0
 62
4
 10
3.44698691E+02
 20
-2.86607050E+02
  0
VERTEX
  8
0
 62
4
 10
3.44848756E+02
 20
-2.86624955E+02
  0
VERTEX
  8
0
 62
4
 10
3.44999971E+02
 20
-2.86630939E+02
  0
VERTEX
  8
0
 62
4
 10
3.45151186E+02
 20
-2.86624955E+02
  0
VERTEX
  8
0
 62
4
 10
3.45301251E+02
 20
-2.86607050E+02
  0
VERTEX
  8
0
 62
4
 10
3.45449022E+02
 20
-2.86577359E+02
  0
VERTEX
  8
0
 62
4
 10
3.45593376E+02
 20
-2.86536109E+02
  0
VERTEX
  8
0
 62
4
 10
3.45733214E+02
 20
-2.86483613E+02
  0
VERTEX
  8
0
 62
4
 10
3.45867471E+02
 20
-2.86420271E+02
  0
VERTEX
  8
0
 62
4
 10
3.45995126E+02
 20
-2.86346566E+02
  0
VERTEX
  8
0
 62
4
 10
3.46115208E+02
 20
-2.86263057E+02
  0
VERTEX
  8
0
 62
4
 10
3.46226801E+02
 20
-2.86170381E+02
  0
VERTEX
  8
0
 62
4
 10
3.46329058E+02
 20
-2.86069243E+02
  0
VERTEX
  8
0
 62
4
 10
3.46421200E+02
 20
-2.85960412E+02
  0
VERTEX
  8
0
 62
4
 10
3.46502525E+02
 20
-2.85844717E+02
  0
VERTEX
  8
0
 62
4
 10
3.46572415E+02
 20
-2.85723039E+02
  0
VERTEX
  8
0
 62
4
 10
3.46630338E+02
 20
-2.85596303E+02
  0
VERTEX
  8
0
 62
4
 10
3.46675852E+02
 20
-2.85465473E+02
  0
VERTEX
  8
0
 62
4
 10
3.46708612E+02
 20
-2.85331547E+02
  0
VERTEX
  8
0
 62
4
 10
3.46728369E+02
 20
-2.85195543E+02
  0
VERTEX
  8
0
 62
4
 10
3.46734971E+02
 20
-2.85058495E+02
  0
SEQEND
  8
0
  0
POLYLINE
  8
0
 62
4
 66
1
  0
VERTEX
  8
0
 62
4
 10
3.38732693E+02
 20
-2.85139051E+02
  0
VERTEX
  8
0
 62
4
 10
3.38814694E+02
 20
-2.84995733E+02
  0
VERTEX
  8
0
 62
4
 10
3.38882299E+02
 20
-2.84846371E+02
  0
VERTEX
  8
0
 62
4
 10
3.38934973E+02
 20
-2.84692150E+02
  0
VERTEX
  8
0
 62
4
 10
3.38972297E+02
 20
-2.84534292E+02
  0
VERTEX
  8
0
 62
4
 10
3.38993975E+02
 20
-2.84374051E+02
  0
VERTEX
  8
0
 62
4
 10
3.38999836E+02
 20
-2.84212698E+02
  0
VERTEX
  8
0
 62
4
 10
3.38989832E+02
 20
-2.84051512E+02
  0
VERTEX
  8
0
 62
4
 10
3.38964044E+02
 20
-2.83891772E+02
  0
VERTEX
  8
0
 62
4
 10
3.38922675E+02
 20
-2.83734745E+02
  0
VERTEX
  8
0
 62
4
 10
3.38866055E+02
 20
-2.83581677E+02
  0
VERTEX
  8
0
 62
4
 10
3.38794631E+02
 20
-2.83433781E+02
  0
VERTEX
  8
0
 62
4
 10
3.38708972E+02
 20
-2.83292232E+02
  0
VERTEX
  8
0
 62
4
 10
3.38609755E+02
 20
-2.83158152E+02
  0
VERTEX
  8
0
 62
4
 10
3.38497769E+02
 20
-2.83032605E+02
  0
VERTEX
  8
0
 62
4
 10
3.38373901E+02
 20
-2.82916587E+02
  0
VERTEX
  8
0
 62
4
 10
3.38239134E+02
 20
-2.82811017E+02
  0
VERTEX
  8
0
 62
4
 10
3.38094538E+02
 20
-2.82716733E+02
  0
VERTEX
  8
0
 62
4
 10
3.37941259E+02
 20
-2.82634484E+02
  0
VERTEX
  8
0
 62
4
 10
3.37780513E+02
 20
-2.82564922E+02
  0
VERTEX
  8
0
 62
4
 10
3.37613575E+02
 20
-2.82508598E+02
  0
VERTEX
  8
0
 62
4
 10
3.37441770E+02
 20
-2.82465959E+02
  0
VERTEX
  8
0
 62
4
 10
3.37266460E+02
 20
-2.82437344E+02
  0
VERTEX
  8
0
 62
4
 10
3.37089036E+02
 20
-2.82422980E+02
  0
VERTEX
  8
0
 62
4
 10
3.36910906E+02
 20
-2.82422980E+02
  0
VERTEX
  8
0
 62
4
 10
3.36733482E+02
 20
-2.82437344E+02
  0
VERTEX
  8
0
 62
4
 10
3.36558172E+02
 20
-2.82465959E+02
  0
VERTEX
  8
0
 62
4
 10
3.36386367E+02
 20
-2.82508598E+02
  0
VERTEX
  8
0
 62
4
 10
3.36219429E+02
 20
-2.82564922E+02
  0
VERTEX
  8
0
 62
4
 10
3.36058683E+02
 20
-2.82634484E+02
  0
VERTEX
  8
0
 62
4
 10
3.35905404E+02
 20
-2.82716733E+02
  0
VERTEX
  8
0
 62
4
 10
3.35760808E+02
 20
-2.82811017E+02
  0
VERTEX
  8
0
 62
4
 10
3.35626041E+02
 20
-2.82916587E+02
  0
VERTEX
  8
0
 62
4
 10
3.35502173E+02
 20
-2.83032605E+02
  0
VERTEX
  8
0
 62
4
 10
3.35390187E+02
 20
-2.83158152E+02
  0
VERTEX
  8
0
 62
4
 10
3.35290970E+02
 20
-2.83292232E+02
  0
VERTEX
  8
0
 62
4
 10
3.35205311E+02
 20
-2.83433781E+02
  0
VERTEX
  8
0
 62
4
 10
3.35133887E+02
 20
-2.83581677E+02
  0
VERTEX
  8
0
 62
4
 10
3.35077267E+02
 20
-2.83734745E+02
  0
VERTEX
  8
0
 62
4
 10
3.35035898E+02
 20
-2.83891772E+02
  0
VERTEX
  8
0
 62
4
 10
3.35010110E+02
 20
-2.84051512E+02
  0
VERTEX
  8
0
 62
4
 10
3.35000106E+02
 20
-2.84212698E+02
  0
VERTEX
  8
0
 62
4
 10
3.35005967E+02
 20
-2.84374052E+02
  0
VERTEX
  8
0
 62
4
 10
3.35027645E+02
 20
-2.84534292E+02
  0
VERTEX
  8
0
 62
4
 10
3.35064969E+02
 20
-2.84692150E+02
  0
VERTEX
  8
0
 62
4
 10
3.35117643E+02
 20
-2.84846371E+02
  0
VERTEX
  8
0
 62
4
 10
3.35185248E+02
 20
-2.84995733E+02
  0
VERTEX
  8
0
 62
4
 10
3.35267249E+02
 20
-2.85139051E+02
  0
SEQEND
  8
0
  0
POLYLINE
  8
0
 62
6
 66
1
  0
VERTEX
  8
0
 62
6
 10
3.38499971E+02
 20
-2.85063027E+02
  0
VERTEX
  8
0
 62
6
 10
3.38494263E+02
 20
-2.84944542E+02
  0
VERTEX
  8
0
 62
6
 10
3.38477183E+02
 20
-2.84826959E+02
  0
VERTEX
  8
0
 62
6
 10
3.38448860E+02
 20
-2.84711172E+02
  0
VERTEX
  8
0
 62
6
 10
3.38409510E+02
 20
-2.84598064E+02
  0
VERTEX
  8
0
 62
6
 10
3.38359433E+02
 20
-2.84488494E+02
  0
VERTEX
  8
0
 62
6
 10
3.38299009E+02
 20
-2.84383296E+02
  0
VERTEX
  8
0
 62
6
 10
3.38228699E+02
 20
-2.84283272E+02
  0
VERTEX
  8
0
 62
6
 10
3.38149038E+02
 20
-2.84189182E+02
  0
VERTEX
  8
0
 62
6
 10
3.38060631E+02
 20
-2.84101742E+02
  0
VERTEX
  8
0
 62
6
 10
3.37964152E+02
 20
-2.84021619E+02
  0
VERTEX
  8
0
 62
6
 10
3.37860336E+02
 20
-2.83949421E+02
  0
VERTEX
  8
0
 62
6
 10
3.37749971E+02
 20
-2.83885699E+02
  0
VERTEX
  8
0
 62
6
 10
3.37633898E+02
 20
-2.83830936E+02
  0
VERTEX
  8
0
 62
6
 10
3.37513001E+02
 20
-2.83785551E+02
  0
VERTEX
  8
0
 62
6
 10
3.37388200E+02
 20
-2.83749888E+02
  0
VERTEX
  8
0
 62
6
 10
3.37260443E+02
 20
-2.83724219E+02
  0
VERTEX
  8
0
 62
6
 10
3.37130705E+02
 20
-2.83708738E+02
  0
VERTEX
  8
0
 62
6
 10
3.36999971E+02
 20
-2.83703565E+02
  0
VERTEX
  8
0
 62
6
 10
3.36869237E+02
 20
-2.83708738E+02
  0
VERTEX
  8
0
 62
6
 10
3.36739499E+02
 20
-2.83724219E+02
  0
VERTEX
  8
0
 62
6
 10
3.36611742E+02
 20
-2.83749888E+02
  0
VERTEX
  8
0
 62
6
 10
3.36486941E+02
 20
-2.83785551E+02
  0
VERTEX
  8
0
 62
6
 10
3.36366044E+02
 20
-2.83830936E+02
  0
VERTEX
  8
0
 62
6
 10
3.36249971E+02
 20
-2.83885699E+02
  0
VERTEX
  8
0
 62
6
 10
3.36139606E+02
 20
-2.83949421E+02
  0
VERTEX
  8
0
 62
6
 10
3.36035790E+02
 20
-2.84021619E+02
  0
VERTEX
  8
0
 62
6
 10
3.35939311E+02
 20
-2.84101742E+02
  0
VERTEX
  8
0
 62
6
 10
3.35850904E+02
 20
-2.84189182E+02
  0
VERTEX
  8
0
 62
6
 10
3.35771243E+02
 20
-2.84283272E+02
  0
VERTEX
  8
0
 62
6
 10
3.35700933E+02
 20
-2.84383296E+02
  0
VERTEX
  8
0
 62
6
 10
3.35640509E+02
 20
-2.84488494E+02
  0
VERTEX
  8
0
 62
6
 10
3.35590432E+02
 20
-2.84598064E+02
  0
VERTEX
  8
0
 62
6
 10
3.35551082E+02
 20
-2.84711172E+02
  0
VERTEX
  8
0
 62
6
 10
3.35522759E+02
 20
-2.84826959E+02
  0
VERTEX
  8
0
 62
6
 10
3.35505679E+02
 20
-2.84944542E+02
  0
VERTEX
  8
0
 62
6
 10
3.35499971E+02
 20
-2.85063027E+02
  0
VERTEX
  8
0
 62
6
 10
3.35505679E+02
 20
-2.85181512E+02
  0
VERTEX
  8
0
 62
6
 10
3.35522759E+02
 20
-2.85299095E+02
  0
VERTEX
  8
0
 62
6
 10
3.35551082E+02
 20
-2.85414882E+02
  0
VERTEX
  8
0
 62
6
 10
3.35590432E+02
 20
-2.85527990E+02
  0
VERTEX
  8
0
 62
6
 10
3.35640509E+02
 20
-2.85637560E+02
  0
VERTEX
  8
0
 62
6
 10
3.35700933E+02
 20
-2.85742758E+02
  0
VERTEX
  8
0
 62
6
 10
3.35771243E+02
 20
-2.85842782E+02
  0
VERTEX
  8
0
 62
6
 10
3.35850904E+02
 20
-2.85936872E+02
  0
VERTEX
  8
0
 62
6
 10
3.35939311E+02
 20
-2.86024312E+02
  0
VERTEX
  8
0
 62
6
 10
3.36035790E+02
 20
-2.86104435E+02
  0
VERTEX
  8
0
 62
6
 10
3.36139606E+02
 20
-2.86176633E+02
  0
VERTEX
  8
0
 62
6
 10
3.36249971E+02
 20
-2.86240355E+02
  0
VERTEX
  8
0
 62
6
 10
3.36366044E+02
 20
-2.86295118E+02
  0
VERTEX
  8
0
 62
6
 10
3.36486941E+02
 20
-2.86340503E+02
  0
VERTEX
  8
0
 62
6
 10
3.36611742E+02
 20
-2.86376166E+02
  0
VERTEX
  8
0
 62
6
 10
3.36739499E+02
 20
-2.86401835E+02
  0
VERTEX
  8
0
 62
6
 10
3.36869237E+02
 20
-2.86417316E+02
  0
VERTEX
  8
0
 62
6
 10
3.36999971E+02
 20
-2.86422489E+02
  0
VERTEX
  8
0
 62
6
 10
3.37130705E+02
 20
-2.86417316E+02
  0
VERTEX
  8
0
 62
6
 10
3.37260443E+02
 20
-2.86401835E+02
  0
VERTEX
  8
0
 62
6
 10
3.37388200E+02
 20
-2.86376166E+02
  0
VERTEX
  8
0
 62
6
 10
3.37513001E+02
 20
-2.86340503E+02
  0
VERTEX
  8
0
 62
6
 10
3.37633898E+02
 20
-2.86295118E+02
  0
VERTEX
  8
0
 62
6
 10
3.37749971E+02
 20
-2.86240355E+02
  0
VERTEX
  8
0
 62
6
 10
3.37860336E+02
 20
-2.86176633E+02
  0
VERTEX
  8
0
 62
6
 10
3.37964152E+02
 20
-2.86104435E+02
  0
VERTEX
  8
0
 62
6
 10
3.38060631E+02
 20
-2.86024312E+02
  0
VERTEX
  8
0
 62
6
 10
3.38149038E+02
 20
-2.85936872E+02
  0
VERTEX
  8
0
 62
6
 10
3.38228699E+02
 20
-2.85842782E+02
  0
VERTEX
  8
0
 62
6
 10
3.38299009E+02
 20
-2.85742758E+02
  0
VERTEX
  8
0
 62
6
 10
3.38359433E+02
 20
-2.85637560E+02
  0
VERTEX
  8
0
 62
6
 10
3.38409510E+02
 20
-2.85527990E+02
  0
VERTEX
  8
0
 62
6
 10
3.38448860E+02
 20
-2.85414882E+02
  0
VERTEX
  8
0
 62
6
 10
3.38477183E+02
 20
-2.85299095E+02
  0
VERTEX
  8
0
 62
6
 10
3.38494263E+02
 20
-2.85181512E+02
  0
VERTEX
  8
0
 62
6
 10
3.38499971E+02
 20
-2.85063027E+02
  0
SEQEND
  8
0
  0
POLYLINE
  8
0
 62
4
 66
1
  0
VERTEX
  8
0
 62
4
 10
3.38734971E+02
 20
-2.85058495E+02
  0
VERTEX
  8
0
 62
4
 10
3.38728369E+02
 20
-2.84921447E+02
  0
VERTEX
  8
0
 62
4
 10
3.38708612E+02
 20
-2.84785443E+02
  0
VERTEX
  8
0
 62
4
 10
3.38675852E+02
 20
-2.84651517E+02
  0
VERTEX
  8
0
 62
4
 10
3.38630338E+02
 20
-2.84520687E+02
  0
VERTEX
  8
0
 62
4
 10
3.38572415E+02
 20
-2.84393951E+02
  0
VERTEX
  8
0
 62
4
 10
3.38502525E+02
 20
-2.84272273E+02
  0
VERTEX
  8
0
 62
4
 10
3.38421200E+02
 20
-2.84156578E+02
  0
VERTEX
  8
0
 62
4
 10
3.38329058E+02
 20
-2.84047747E+02
  0
VERTEX
  8
0
 62
4
 10
3.38226801E+02
 20
-2.83946609E+02
  0
VERTEX
  8
0
 62
4
 10
3.38115208E+02
 20
-2.83853933E+02
  0
VERTEX
  8
0
 62
4
 10
3.37995126E+02
 20
-2.83770424E+02
  0
VERTEX
  8
0
 62
4
 10
3.37867471E+02
 20
-2.83696719E+02
  0
VERTEX
  8
0
 62
4
 10
3.37733214E+02
 20
-2.83633377E+02
  0
VERTEX
  8
0
 62
4
 10
3.37593376E+02
 20
-2.83580881E+02
  0
VERTEX
  8
0
 62
4
 10
3.37449022E+02
 20
-2.83539631E+02
  0
VERTEX
  8
0
 62
4
 10
3.37301251E+02
 20
-2.83509940E+02
  0
VERTEX
  8
0
 62
4
 10
3.37151186E+02
 20
-2.83492035E+02
  0
VERTEX
  8
0
 62
4
 10
3.36999971E+02
 20
-2.83486051E+02
  0
VERTEX
  8
0
 62
4
 10
3.36848756E+02
 20
-2.83492035E+02
  0
VERTEX
  8
0
 62
4
 10
3.36698691E+02
 20
-2.83509940E+02
  0
VERTEX
  8
0
 62
4
 10
3.36550920E+02
 20
-2.83539631E+02
  0
VERTEX
  8
0
 62
4
 10
3.36406566E+02
 20
-2.83580881E+02
  0
VERTEX
  8
0
 62
4
 10
3.36266728E+02
 20
-2.83633377E+02
  0
VERTEX
  8
0
 62
4
 10
3.36132471E+02
 20
-2.83696719E+02
  0
VERTEX
  8
0
 62
4
 10
3.36004816E+02
 20
-2.83770424E+02
  0
VERTEX
  8
0
 62
4
 10
3.35884734E+02
 20
-2.83853933E+02
  0
VERTEX
  8
0
 62
4
 10
3.35773141E+02
 20
-2.83946609E+02
  0
VERTEX
  8
0
 62
4
 10
3.35670884E+02
 20
-2.84047747E+02
  0
VERTEX
  8
0
 62
4
 10
3.35578742E+02
 20
-2.84156578E+02
  0
VERTEX
  8
0
 62
4
 10
3.35497417E+02
 20
-2.84272273E+02
  0
VERTEX
  8
0
 62
4
 10
3.35427527E+02
 20
-2.84393951E+02
  0
VERTEX
  8
0
 62
4
 10
3.35369604E+02
 20
-2.84520687E+02
  0
VERTEX
  8
0
 62
4
 10
3.35324090E+02
 20
-2.84651517E+02
  0
VERTEX
  8
0
 62
4
 10
3.35291330E+02
 20
-2.84785443E+02
  0
VERTEX
  8
0
 62
4
 10
3.35271573E+02
 20
-2.84921447E+02
  0
VERTEX
  8
0
 62
4
 10
3.35264971E+02
 20
-2.85058495E+02
  0
VERTEX
  8
0
 62
4
 10
3.35271573E+02
 20
-2.85195543E+02
  0
VERTEX
  8
0
 62
4
 10
3.35291330E+02
 20
-2.85331547E+02
  0
VERTEX
  8
0
 62
4
 10
3.35324090E+02
 20
-2.85465473E+02
  0
VERTEX
  8
0
 62
4
 10
3.35369604E+02
 20
-2.85596303E+02
  0
VERTEX
  8
0
 62
4
 10
3.35427527E+02
 20
-2.85723039E+02
  0
VERTEX
  8
0
 62
4
 10
3.35497417E+02
 20
-2.85844717E+02
  0
VERTEX
  8
0
 62
4
 10
3.35578742E+02
 20
-2.85960412E+02
  0
VERTEX
  8
0
 62
4
 10
3.35670884E+02
 20
-2.86069243E+02
  0
VERTEX
  8
0
 62
4
 10
3.35773141E+02
 20
-2.86170381E+02
  0
VERTEX
  8
0
 62
4
 10
3.35884734E+02
 20
-2.86263057E+02
  0
VERTEX
  8
0
 62
4
 10
3.36004816E+02
 20
-2.86346566E+02
  0
VERTEX
  8
0
 62
4
 10
3.36132471E+02
 20
-2.86420271E+02
  0
VERTEX
  8
0
 62
4
 10
3.36266728E+02
 20
-2.86483613E+02
  0
VERTEX
  8
0
 62
4
 10
3.36406566E+02
 20
-2.86536109E+02
  0
VERTEX
  8
0
 62
4
 10
3.36550920E+02
 20
-2.86577359E+02
  0
VERTEX
  8
0
 62
4
 10
3.36698691E+02
 20
-2.86607050E+02
  0
VERTEX
  8
0
 62
4
 10
3.36848756E+02
 20
-2.86624955E+02
  0
VERTEX
  8
0
 62
4
 10
3.36999971E+02
 20
-2.86630939E+02
  0
VERTEX
  8
0
 62
4
 10
3.37151186E+02
 20
-2.86624955E+02
  0
VERTEX
  8
0
 62
4
 10
3.37301251E+02
 20
-2.86607050E+02
  0
VERTEX
  8
0
 62
4
 10
3.37449022E+02
 20
-2.86577359E+02
  0
VERTEX
  8
0
 62
4
 10
3.37593376E+02
 20
-2.86536109E+02
  0
VERTEX
  8
0
 62
4
 10
3.37733214E+02
 20
-2.86483613E+02
  0
VERTEX
  8
0
 62
4
 10
3.37867471E+02
 20
-2.86420271E+02
  0
VERTEX
  8
0
 62
4
 10
3.37995126E+02
 20
-2.86346566E+02
  0
VERTEX
  8
0
 62
4
 10
3.38115208E+02
 20
-2.86263057E+02
  0
VERTEX
  8
0
 62
4
 10
3.38226801E+02
 20
-2.86170381E+02
  0
VERTEX
  8
0
 62
4
 10
3.38329058E+02
 20
-2.86069243E+02
  0
VERTEX
  8
0
 62
4
 10
3.38421200E+02
 20
-2.85960412E+02
  0
VERTEX
  8
0
 62
4
 10
3.38502525E+02
 20
-2.85844717E+02
  0
VERTEX
  8
0
 62
4
 10
3.38572415E+02
 20
-2.85723039E+02
  0
VERTEX
  8
0
 62
4
 10
3.38630338E+02
 20
-2.85596303E+02
  0
VERTEX
  8
0
 62
4
 10
3.38675852E+02
 20
-2.85465473E+02
  0
VERTEX
  8
0
 62
4
 10
3.38708612E+02
 20
-2.85331547E+02
  0
VERTEX
  8
0
 62
4
 10
3.38728369E+02
 20
-2.85195543E+02
  0
VERTEX
  8
0
 62
4
 10
3.38734971E+02
 20
-2.85058495E+02
  0
SEQEND
  8
0
  0
LINE
  8
0
  6
CENTER
 62
6
 10
3.44999971E+02
 20
-2.80063027E+02
 11
3.44999971E+02
 21
-2.90063027E+02
  0
LINE
  8
0
  6
CENTER
 62
6
 10
3.36999971E+02
 20
-2.80063027E+02
 11
3.36999971E+02
 21
-2.90063027E+02
  0
LINE
  8
0
  6
CENTER
 62
6
 10
3.31999971E+02
 20
-2.85063027E+02
 11
3.49999971E+02
 21
-2.85063027E+02
  0
LINE
  8
0
 62
4
 10
3.33499971E+02
 20
-2.60343664E+02
 11
3.48499971E+02
 21
-2.60343664E+02
  0
LINE
  8
0
 62
4
 10
3.33499971E+02
 20
-2.48304222E+02
 11
3.15499971E+02
 21
-2.48304222E+02
  0
ARC
  8
0
 62
4
 10
3.15499980E+02
 20
-2.49804231E+02
 40
1.50000856E+00
 50
9.00003273E+01
 51
1.79999673E+02
  0
LINE
  8
0
 62
4
 10
3.51499971E+02
 20
-2.48304222E+02
 11
3.48499971E+02
 21
-2.48304222E+02
  0
ARC
  8
0
 62
4
 10
3.51499963E+02
 20
-2.49804231E+02
 40
1.50000856E+00
 50
3.27119593E-04
 51
8.99996730E+01
  0
LINE
  8
0
 62
4
 10
3.48499971E+02
 20
-2.51191419E+02
 11
3.33499971E+02
 21
-2.51191419E+02
  0
LINE
  8
0
 62
4
 10
3.48499971E+02
 20
-2.23100758E+02
 11
3.33499971E+02
 21
-2.23100758E+02
  0
ARC
  8
0
 62
4
 10
3.15499980E+02
 20
-2.58068203E+02
 40
1.50000856E+00
 50
9.00003273E+01
 51
1.79999673E+02
  0
ARC
  8
0
 62
4
 10
3.48999985E+02
 20
-2.39208277E+02
 40
5.00013809E-01
 50
9.00015821E+01
 51
1.79998418E+02
  0
ARC
  8
0
 62
4
 10
3.57499959E+02
 20
-2.25208275E+02
 40
5.00011902E-01
 50
1.36383594E-03
 51
8.99986360E+01
  0
ARC
  8
0
 62
4
 10
3.57499983E+02
 20
-2.38208275E+02
 40
4.99988098E-01
 50
2.69998636E+02
 51
1.36386840E-03
  0
ARC
  8
0
 62
4
 10
3.51499963E+02
 20
-2.58068203E+02
 40
1.50000856E+00
 50
3.27119593E-04
 51
8.99996730E+01
  0
LINE
  8
0
 62
4
 10
3.13999971E+02
 20
-2.49804222E+02
 11
3.13999971E+02
 21
-2.72999969E+02
  0
LINE
  8
0
 62
4
 10
3.31499971E+02
 20
-2.52942963E+02
 11
3.31499971E+02
 21
-2.56568195E+02
  0
LINE
  8
0
 62
4
 10
3.48499971E+02
 20
-2.23100758E+02
 11
3.48499971E+02
 21
-2.52942963E+02
  0
LINE
  8
0
 62
4
 10
3.33499971E+02
 20
-2.23100758E+02
 11
3.33499971E+02
 21
-2.52942963E+02
  0
LINE
  8
0
 62
4
 10
3.50499971E+02
 20
-2.52942963E+02
 11
3.50499971E+02
 21
-2.56568195E+02
  0
LINE
  8
0
 62
4
 10
3.52999971E+02
 20
-2.49804222E+02
 11
3.52999971E+02
 21
-2.72999969E+02
  0
LINE
  8
0
 62
4
 10
3.50499971E+02
 20
-2.52942963E+02
 11
3.31499971E+02
 21
-2.52942963E+02
  0
LINE
  8
0
 62
4
 10
3.48499971E+02
 20
-2.29440032E+02
 11
3.33499971E+02
 21
-2.29440032E+02
  0
LINE
  8
0
 62
4
 10
3.57499971E+02
 20
-2.38708264E+02
 11
3.48999971E+02
 21
-2.38708264E+02
  0
LINE
  8
0
 62
4
 10
3.61499971E+02
 20
-2.37458264E+02
 11
3.57999971E+02
 21
-2.37458264E+02
  0
LINE
  8
0
 62
4
 10
3.61499971E+02
 20
-2.25458264E+02
 11
3.61499971E+02
 21
-2.37958264E+02
  0
LINE
  8
0
 62
4
 10
3.62999971E+02
 20
-2.37958264E+02
 11
3.57999971E+02
 21
-2.37958264E+02
  0
LINE
  8
0
 62
4
 10
3.62999971E+02
 20
-2.25458264E+02
 11
3.57999971E+02
 21
-2.25458264E+02
  0
LINE
  8
0
 62
4
 10
3.62999971E+02
 20
-2.24910934E+02
 11
3.62999971E+02
 21
-2.38514613E+02
  0
LINE
  8
0
 62
4
 10
3.67999971E+02
 20
-2.24910934E+02
 11
3.67999971E+02
 21
-2.38514613E+02
  0
LINE
  8
0
 62
4
 10
3.57999971E+02
 20
-2.25208264E+02
 11
3.57999971E+02
 21
-2.38208264E+02
  0
LINE
  8
0
 62
4
 10
3.48499971E+02
 20
-2.24708264E+02
 11
3.57499971E+02
 21
-2.24708264E+02
  0
LINE
  8
0
 62
4
 10
3.67999971E+02
 20
-2.24910934E+02
 11
3.62999971E+02
 21
-2.24910934E+02
  0
LINE
  8
0
 62
4
 10
3.51499971E+02
 20
-2.56568195E+02
 11
3.15499971E+02
 21
-2.56568195E+02
  0
LINE
  8
0
 62
4
 10
3.61499971E+02
 20
-2.25958264E+02
 11
3.57999971E+02
 21
-2.25958264E+02
  0
LINE
  8
0
 62
4
 10
3.33499971E+02
 20
-2.60343664E+02
 11
3.33499971E+02
 21
-2.88271947E+02
  0
LINE
  8
0
 62
4
 10
3.48499971E+02
 20
-2.60343664E+02
 11
3.48499971E+02
 21
-2.88271947E+02
  0
LINE
  8
0
 62
4
 10
3.34499971E+02
 20
-2.77503687E+02
 11
3.47499971E+02
 21
-2.77503687E+02
  0
LINE
  8
0
 62
4
 10
3.33499971E+02
 20
-2.88271947E+02
 11
3.48499971E+02
 21
-2.88271947E+02
  0
LINE
  8
0
 62
4
 10
3.33499971E+02
 20
-2.63299446E+02
 11
3.48499971E+02
 21
-2.63299446E+02
  0
LINE
  8
0
  6
CENTER
 62
2
 10
1.80464006E+02
 20
-3.05499985E+02
 11
1.76999956E+02
 21
-3.05499985E+02
  0
LINE
  8
0
 62
7
 10
1.77399950E+02
 20
-3.01749985E+02
 11
1.76999956E+02
 21
-3.01749985E+02
  0
LINE
  8
0
 62
7
 10
1.77400011E+02
 20
-3.09249985E+02
 11
1.76999956E+02
 21
-3.09249985E+02
  0
LINE
  8
0
 62
7
 10
1.79599901E+02
 20
-3.07100021E+02
 11
1.79599901E+02
 21
-3.03900002E+02
  0
LINE
  8
0
  6
CENTER
 62
2
 10
5.97012196E+01
 20
-3.19500000E+02
 11
1.82530962E+02
 21
-3.19500000E+02
  0
LINE
  8
0
 62
7
 10
1.76999956E+02
 20
-3.19500000E+02
 11
1.76999956E+02
 21
-2.68500015E+02
  0
LINE
  8
0
  6
CENTER
 62
2
 10
1.77555376E+02
 20
-2.77500000E+02
 11
1.48308977E+02
 21
-2.77500000E+02
  0
LINE
  8
0
  6
CENTER
 62
2
 10
1.63000017E+02
 20
-2.63314651E+02
 11
1.63000017E+02
 21
-2.92038376E+02
  0
LINE
  8
0
 62
7
 10
1.71999956E+02
 20
-2.63500015E+02
 11
6.99999866E+01
 21
-2.63500015E+02
  0
LINE
  8
0
 62
7
 10
6.49999866E+01
 20
-3.19500000E+02
 11
6.49999866E+01
 21
-2.68500015E+02
  0
LINE
  8
0
  6
CENTER
 62
2
 10
7.89999866E+01
 20
-2.63127319E+02
 11
7.89999866E+01
 21
-2.92864227E+02
  0
LINE
  8
0
  6
CENTER
 62
2
 10
1.02999926E+02
 20
-2.60923111E+02
 11
1.02999926E+02
 21
-2.93354294E+02
  0
LINE
  8
0
  6
CENTER
 62
2
 10
9.32220936E+01
 20
-2.77500000E+02
 11
6.40122852E+01
 21
-2.77500000E+02
  0
LINE
  8
0
  6
CENTER
 62
2
 10
1.20999956E+02
 20
-3.19500000E+02
 11
1.20999956E+02
 21
-2.58553986E+02
  0
LINE
  8
0
 62
7
 10
1.62999959E+02
 20
-2.71726535E+02
 11
1.68000000E+02
 21
-2.74613299E+02
  0
LINE
  8
0
 62
7
 10
1.68000017E+02
 20
-2.74613251E+02
 11
1.68000017E+02
 21
-2.80386734E+02
  0
LINE
  8
0
 62
7
 10
1.63000127E+02
 20
-2.83273468E+02
 11
1.68000101E+02
 21
-2.80386742E+02
  0
LINE
  8
0
 62
7
 10
1.58000015E+02
 20
-2.80386786E+02
 11
1.63000056E+02
 21
-2.83273550E+02
  0
LINE
  8
0
 62
7
 10
1.58000017E+02
 20
-2.74613251E+02
 11
1.58000017E+02
 21
-2.80386734E+02
  0
LINE
  8
0
 62
7
 10
1.63000057E+02
 20
-2.71726500E+02
 11
1.58000082E+02
 21
-2.74613226E+02
  0
LINE
  8
0
 62
7
 10
7.90000047E+01
 20
-2.71726523E+02
 11
8.40000191E+01
 21
-2.74613272E+02
  0
LINE
  8
0
 62
7
 10
8.39999866E+01
 20
-2.74613251E+02
 11
8.39999866E+01
 21
-2.80386734E+02
  0
LINE
  8
0
 62
7
 10
7.90000540E+01
 20
-2.83273488E+02
 11
8.40000287E+01
 21
-2.80386763E+02
  0
LINE
  8
0
 62
7
 10
7.39999224E+01
 20
-2.80386800E+02
 11
7.89999368E+01
 21
-2.83273549E+02
  0
LINE
  8
0
 62
7
 10
7.39999866E+01
 20
-2.74613251E+02
 11
7.39999866E+01
 21
-2.80386734E+02
  0
LINE
  8
0
 62
7
 10
7.89999868E+01
 20
-2.71726525E+02
 11
7.40000121E+01
 21
-2.74613251E+02
  0
LINE
  8
0
  6
CENTER
 62
2
 10
1.32999865E+02
 20
-2.95523590E+02
 11
1.32999865E+02
 21
-2.61236526E+02
  0
CIRCLE
  8
0
 62
2
 10
1.63000017E+02
 20
-2.77500000E+02
 40
5.00000000E+00
  0
ARC
  8
0
 62
7
 10
1.77122454E+02
 20
-3.04234497E+02
 40
2.50000000E+00
 50
3.52308615E+02
 51
8.36271917E+01
  0
ARC
  8
0
 62
7
 10
1.77122454E+02
 20
-3.06765373E+02
 40
2.50000000E+00
 50
2.70000037E+02
 51
3.52308598E+02
  0
CIRCLE
  8
0
 62
7
 10
1.63000017E+02
 20
-2.77500000E+02
 40
4.18000031E+00
  0
CIRCLE
  8
0
 62
7
 10
1.63000017E+02
 20
-2.77500031E+02
 40
8.00000000E+00
  0
ARC
  8
0
 62
7
 10
1.20999956E+02
 20
-3.19500000E+02
 40
2.49999981E+01
 50
0.00000000E+00
 51
1.80000000E+02
  0
ARC
  8
0
 62
7
 10
1.71999956E+02
 20
-2.68500015E+02
 40
5.00000000E+00
 50
3.59721787E-05
 51
9.00000179E+01
  0
CIRCLE
  8
0
 62
7
 10
1.63000017E+02
 20
-2.77500031E+02
 40
8.50000000E+00
  0
CIRCLE
  8
0
 62
7
 10
7.89999866E+01
 20
-2.77500031E+02
 40
8.50000000E+00
  0
ARC
  8
0
 62
7
 10
6.99999866E+01
 20
-2.68500015E+02
 40
5.00000000E+00
 50
9.00000179E+01
 51
1.80000000E+02
  0
CIRCLE
  8
0
 62
7
 10
7.89999866E+01
 20
-2.77500031E+02
 40
8.00000000E+00
  0
CIRCLE
  8
0
 62
2
 10
7.89999866E+01
 20
-2.77500000E+02
 40
5.00000000E+00
  0
CIRCLE
  8
0
 62
7
 10
7.89999866E+01
 20
-2.77500000E+02
 40
4.18000031E+00
  0
TEXT
  8
0
 62
7
 10
3.67672572E+02
 20
-2.66426230E+00
 40
9.00000000E+00
  1
(mm)
 41
1.00000000E+00
  7
MONOTXT
  0
TEXT
  8
0
 62
7
 10
-3.83274283E+01
 20
-2.66426230E+00
 40
9.00000000E+00
  1
STRETCH LIST
 41
1.05263158E+00
  7
MONOTXT
  0
TEXT
  8
0
 62
7
 10
3.75672572E+02
 20
-3.51642623E+01
 40
9.00000000E+00
  1
925
 41
1.00000000E+00
  7
MONOTXT
  0
TEXT
  8
0
 62
7
 10
3.30672572E+02
 20
-3.51642623E+01
 40
9.00000000E+00
  1
825
 41
1.00000000E+00
  7
MONOTXT
  0
TEXT
  8
0
 62
7
 10
2.85672572E+02
 20
-3.51642623E+01
 40
9.00000000E+00
  1
725
 41
1.00000000E+00
  7
MONOTXT
  0
TEXT
  8
0
 62
7
 10
2.40672572E+02
 20
-3.51642623E+01
 40
9.00000000E+00
  1
625
 41
1.00000000E+00
  7
MONOTXT
  0
TEXT
  8
0
 62
7
 10
1.95672572E+02
 20
-3.51642623E+01
 40
9.00000000E+00
  1
525
 41
1.00000000E+00
  7
MONOTXT
  0
TEXT
  8
0
 62
7
 10
1.50672572E+02
 20
-3.51642623E+01
 40
9.00000000E+00
  1
425
 41
1.00000000E+00
  7
MONOTXT
  0
TEXT
  8
0
 62
7
 10
1.05672572E+02
 20
-3.51642623E+01
 40
9.00000000E+00
  1
375
 41
1.00000000E+00
  7
MONOTXT
  0
TEXT
  8
0
 62
7
 10
6.06725717E+01
 20
-3.51642623E+01
 40
9.00000000E+00
  1
325
 41
1.00000000E+00
  7
MONOTXT
  0
TEXT
  8
0
 62
7
 10
1.56725717E+01
 20
-3.51642623E+01
 40
9.00000000E+00
  1
275
 41
1.00000000E+00
  7
MONOTXT
  0
TEXT
  8
0
 62
7
 10
-2.93274283E+01
 20
-3.51642623E+01
 40
9.00000000E+00
  1
225
 41
1.00000000E+00
  7
MONOTXT
  0
TEXT
  8
0
 62
7
 10
-7.43274283E+01
 20
-3.51642623E+01
 40
9.00000000E+00
  1
175
 41
1.00000000E+00
  7
MONOTXT
  0
TEXT
  8
0
 62
7
 10
-1.19327428E+02
 20
-3.51642623E+01
 40
9.00000000E+00
  1
125
 41
1.00000000E+00
  7
MONOTXT
  0
TEXT
  8
0
 62
7
 10
-1.59827428E+02
 20
-3.51642623E+01
 40
9.00000000E+00
  1
75
 41
1.00000000E+00
  7
MONOTXT
  0
TEXT
  8
0
 62
7
 10
-2.04827428E+02
 20
-3.51642623E+01
 40
9.00000000E+00
  1
25
 41
1.00000000E+00
  7
MONOTXT
  0
TEXT
  8
0
 62
7
 10
-2.45327428E+02
 20
-3.51642623E+01
 40
9.00000000E+00
  1
0
 41
1.00000000E+00
  7
MONOTXT
  0
TEXT
  8
0
 62
7
 10
-2.99327428E+02
 20
-3.51642623E+01
 40
9.00000000E+00
  1
-25
 41
1.00000000E+00
  7
MONOTXT
  0
TEXT
  8
0
 62
7
 10
3.71172572E+02
 20
-2.01642623E+01
 40
9.00000000E+00
  1
1000
 41
1.00000000E+00
  7
MONOTXT
  0
TEXT
  8
0
 62
7
 10
3.30672572E+02
 20
-2.01642623E+01
 40
9.00000000E+00
  1
900
 41
1.00000000E+00
  7
MONOTXT
  0
TEXT
  8
0
 62
7
 10
2.85672572E+02
 20
-2.01642623E+01
 40
9.00000000E+00
  1
800
 41
1.00000000E+00
  7
MONOTXT
  0
TEXT
  8
0
 62
7
 10
2.40672572E+02
 20
-2.01642623E+01
 40
9.00000000E+00
  1
700
 41
1.00000000E+00
  7
MONOTXT
  0
TEXT
  8
0
 62
7
 10
1.95672572E+02
 20
-2.01642623E+01
 40
9.00000000E+00
  1
600
 41
1.00000000E+00
  7
MONOTXT
  0
TEXT
  8
0
 62
7
 10
1.50672572E+02
 20
-2.01642623E+01
 40
9.00000000E+00
  1
500
 41
1.00000000E+00
  7
MONOTXT
  0
TEXT
  8
0
 62
7
 10
1.05672572E+02
 20
-2.01642623E+01
 40
9.00000000E+00
  1
450
 41
1.00000000E+00
  7
MONOTXT
  0
TEXT
  8
0
 62
7
 10
6.06725717E+01
 20
-2.01642623E+01
 40
9.00000000E+00
  1
400
 41
1.00000000E+00
  7
MONOTXT
  0
TEXT
  8
0
 62
7
 10
1.56725717E+01
 20
-2.01642623E+01
 40
9.00000000E+00
  1
350
 41
1.00000000E+00
  7
MONOTXT
  0
TEXT
  8
0
 62
7
 10
-2.93274283E+01
 20
-2.01642623E+01
 40
9.00000000E+00
  1
300
 41
1.00000000E+00
  7
MONOTXT
  0
TEXT
  8
0
 62
7
 10
-7.43274283E+01
 20
-2.01642623E+01
 40
9.00000000E+00
  1
250
 41
1.00000000E+00
  7
MONOTXT
  0
TEXT
  8
0
 62
7
 10
-1.19327428E+02
 20
-2.01642623E+01
 40
9.00000000E+00
  1
200
 41
1.00000000E+00
  7
MONOTXT
  0
TEXT
  8
0
 62
7
 10
-1.64327428E+02
 20
-2.01642623E+01
 40
9.00000000E+00
  1
150
 41
1.00000000E+00
  7
MONOTXT
  0
TEXT
  8
0
 62
7
 10
-2.09327428E+02
 20
-2.01642623E+01
 40
9.00000000E+00
  1
100
 41
1.00000000E+00
  7
MONOTXT
  0
TEXT
  8
0
 62
7
 10
-2.49827428E+02
 20
-2.01642623E+01
 40
9.00000000E+00
  1
75
 41
1.00000000E+00
  7
MONOTXT
  0
TEXT
  8
0
 62
7
 10
-2.94827428E+02
 20
-2.01642623E+01
 40
9.00000000E+00
  1
50
 41
1.00000000E+00
  7
MONOTXT
  0
LINE
  8
0
 62
7
 10
4.10688197E+02
 20
-3.81642623E+01
 11
4.10688197E+02
 21
-8.16426230E+00
  0
LINE
  8
0
 62
7
 10
3.65688197E+02
 20
-3.81642623E+01
 11
3.65688197E+02
 21
-8.16426230E+00
  0
LINE
  8
0
 62
7
 10
3.20688197E+02
 20
-3.81642623E+01
 11
3.20688197E+02
 21
-8.16426230E+00
  0
LINE
  8
0
 62
7
 10
2.75688197E+02
 20
-3.81642623E+01
 11
2.75688197E+02
 21
-8.16426230E+00
  0
LINE
  8
0
 62
7
 10
2.30688197E+02
 20
-3.81642623E+01
 11
2.30688197E+02
 21
-8.16426230E+00
  0
LINE
  8
0
 62
7
 10
1.85688197E+02
 20
-3.81642623E+01
 11
1.85688197E+02
 21
-8.16426230E+00
  0
LINE
  8
0
 62
7
 10
1.40688197E+02
 20
-3.81642623E+01
 11
1.40688197E+02
 21
-8.16426230E+00
  0
LINE
  8
0
 62
7
 10
9.56881967E+01
 20
-3.81642623E+01
 11
9.56881967E+01
 21
-8.16426230E+00
  0
LINE
  8
0
 62
7
 10
5.06881967E+01
 20
-3.81642623E+01
 11
5.06881967E+01
 21
-8.16426230E+00
  0
LINE
  8
0
 62
7
 10
5.68819674E+00
 20
-3.81642623E+01
 11
5.68819674E+00
 21
-8.16426230E+00
  0
LINE
  8
0
 62
7
 10
-3.93118033E+01
 20
-3.81642623E+01
 11
-3.93118033E+01
 21
-8.16426230E+00
  0
LINE
  8
0
 62
7
 10
-8.43118033E+01
 20
-3.81642623E+01
 11
-8.43118033E+01
 21
-8.16426230E+00
  0
LINE
  8
0
 62
7
 10
-1.29311803E+02
 20
-3.81642623E+01
 11
-1.29311803E+02
 21
-8.16426230E+00
  0
LINE
  8
0
 62
7
 10
-1.74311803E+02
 20
-3.81642623E+01
 11
-1.74311803E+02
 21
-8.16426230E+00
  0
LINE
  8
0
 62
7
 10
-2.19311803E+02
 20
-3.81642623E+01
 11
-2.19311803E+02
 21
-8.16426230E+00
  0
LINE
  8
0
 62
7
 10
-2.64311803E+02
 20
-3.81642623E+01
 11
-2.64311803E+02
 21
-8.16426230E+00
  0
LINE
  8
0
 62
7
 10
-3.09311803E+02
 20
-3.81642623E+01
 11
-3.09311803E+02
 21
-8.16426230E+00
  0
LINE
  8
0
 62
7
 10
-3.81311803E+02
 20
-2.31642623E+01
 11
4.10688197E+02
 21
-2.31642623E+01
  0
TEXT
  8
0
 62
7
 10
-3.75526490E+02
 20
-3.51642623E+01
 40
9.00000000E+00
  1
STRETCH
 41
1.00000000E+00
  7
MONOTXT
  0
TEXT
  8
0
 62
7
 10
-3.71026490E+02
 20
-2.01642623E+01
 40
9.00000000E+00
  1
STROKE
 41
1.00000000E+00
  7
MONOTXT
  0
LINE
  8
0
 62
7
 10
-3.81311803E+02
 20
-3.81642623E+01
 11
-3.81311803E+02
 21
-8.16426230E+00
  0
LINE
  8
0
 62
7
 10
-3.81311803E+02
 20
-3.81642623E+01
 11
4.10688197E+02
 21
-3.81642623E+01
  0
LINE
  8
0
 62
7
 10
-3.81311803E+02
 20
-8.16426230E+00
 11
4.10688197E+02
 21
-8.16426230E+00
  0
LINE
  8
0
 62
7
 10
9.41765289E+00
 20
-2.81999985E+02
 11
-5.80000591E+01
 21
-2.81999985E+02
  0
LINE
  8
0
 62
7
 10
1.46138141E+01
 20
-2.72999969E+02
 11
-5.80000591E+01
 21
-2.72999969E+02
  0
LINE
  8
0
 62
7
 10
-3.90798050E+01
 20
-1.86000046E+02
 11
-5.80000439E+01
 21
-1.86000046E+02
  0
LINE
  8
0
 62
7
 10
-3.38836261E+01
 20
-1.77000000E+02
 11
-5.80000439E+01
 21
-1.77000000E+02
  0
LINE
  8
0
 62
7
 10
-5.60000439E+01
 20
-9.29999695E+01
 11
-5.80000439E+01
 21
-9.29999695E+01
  0
LINE
  8
0
 62
7
 10
-5.80000439E+01
 20
-8.60000000E+01
 11
1.86552484E+01
 21
-8.60000000E+01
  0
LINE
  8
0
 62
2
 10
-1.68500044E+02
 20
-1.51679993E+02
 11
-1.57000044E+02
 21
-1.51679993E+02
  0
LINE
  8
0
 62
7
 10
-1.68500044E+02
 20
-1.52500000E+02
 11
-1.57000044E+02
 21
-1.52500000E+02
  0
LINE
  8
0
 62
2
 10
-1.68500044E+02
 20
-1.27320038E+02
 11
-1.57000044E+02
 21
-1.27320038E+02
  0
LINE
  8
0
 62
7
 10
-1.68500044E+02
 20
-1.26500031E+02
 11
-1.57000044E+02
 21
-1.26500031E+02
  0
LINE
  8
0
 62
2
 10
-1.68500059E+02
 20
-3.07320015E+02
 11
-1.57000044E+02
 21
-3.07320015E+02
  0
LINE
  8
0
 62
7
 10
-1.68500059E+02
 20
-3.06500008E+02
 11
-1.57000044E+02
 21
-3.06500008E+02
  0
LINE
  8
0
 62
4
 10
-3.59000186E+02
 20
-2.98715392E+02
 11
-3.41000181E+02
 21
-3.09107698E+02
  0
LINE
  8
0
 62
4
 10
-3.77000109E+02
 20
-3.09107731E+02
 11
-3.59000107E+02
 21
-2.98715427E+02
  0
LINE
  8
0
 62
4
 10
-3.41000044E+02
 20
-3.09107697E+02
 11
-3.41000044E+02
 21
-3.19500000E+02
  0
LINE
  8
0
 62
4
 10
-3.77000051E+02
 20
-3.09107697E+02
 11
-3.77000051E+02
 21
-3.19500000E+02
  0
ARC
  8
0
 62
4
 10
-3.59000044E+02
 20
-3.19500000E+02
 40
1.80000000E+01
 50
0.00000000E+00
 51
1.80000000E+02
  0
LINE
  8
0
 62
4
 10
-1.82500059E+02
 20
-3.01500000E+02
 11
-1.82500059E+02
 21
-3.19500000E+02
  0
LINE
  8
0
 62
4
 10
-1.80892363E+02
 20
-3.09107697E+02
 11
-1.70107756E+02
 21
-3.09107697E+02
  0
LINE
  8
0
 62
4
 10
-1.80892363E+02
 20
-2.98715393E+02
 11
-1.70107756E+02
 21
-2.98715393E+02
  0
LINE
  8
0
 62
4
 10
-1.82500068E+02
 20
-3.01500001E+02
 11
-1.80892389E+02
 21
-2.98715392E+02
  0
LINE
  8
0
 62
4
 10
-1.68500059E+02
 20
-3.01499988E+02
 11
-1.70107739E+02
 21
-2.98715366E+02
  0
LINE
  8
0
 62
4
 10
-1.68500059E+02
 20
-3.01500000E+02
 11
-1.68500059E+02
 21
-3.19500000E+02
  0
ARC
  8
0
 62
4
 10
-2.02892324E+02
 20
-3.19500000E+02
 40
3.43922653E+01
 50
0.00000000E+00
 51
1.75879147E+01
  0
ARC
  8
0
 62
4
 10
-1.77701014E+02
 20
-3.03911545E+02
 40
9.20095253E+00
 50
3.25615707E+02
 51
3.43842378E+01
  0
ARC
  8
0
 62
4
 10
-1.48107794E+02
 20
-3.19500000E+02
 40
3.43922653E+01
 50
1.62412050E+02
 51
1.80000000E+02
  0
ARC
  8
0
 62
4
 10
-1.73299105E+02
 20
-3.03911545E+02
 40
9.20095253E+00
 50
1.45615726E+02
 51
2.14384256E+02
  0
LINE
  8
0
 62
4
 10
-1.82500044E+02
 20
-1.57499935E+02
 11
-1.68500044E+02
 21
-1.57499935E+02
  0
LINE
  8
0
 62
4
 10
-1.82500044E+02
 20
-1.21500065E+02
 11
-1.68500044E+02
 21
-1.21500065E+02
  0
LINE
  8
0
 62
4
 10
-1.82500044E+02
 20
-1.21500065E+02
 11
-1.82500044E+02
 21
-1.57499935E+02
  0
LINE
  8
0
 62
4
 10
-1.68500044E+02
 20
-1.21500065E+02
 11
-1.68500044E+02
 21
-1.57499935E+02
  0
LINE
  8
0
 62
4
 10
-1.80892535E+02
 20
-1.39500072E+02
 11
-1.70107553E+02
 21
-1.39500072E+02
  0
ARC
  8
0
 62
4
 10
-1.56502013E+02
 20
-1.48500076E+02
 40
2.59980309E+01
 50
1.59746143E+02
 51
2.00253857E+02
  0
ARC
  8
0
 62
4
 10
-1.56502013E+02
 20
-1.30500069E+02
 40
2.59980309E+01
 50
1.59746143E+02
 51
2.00253857E+02
  0
ARC
  8
0
 62
4
 10
-1.94498075E+02
 20
-1.30500069E+02
 40
2.59980309E+01
 50
3.39746143E+02
 51
2.02538569E+01
  0
ARC
  8
0
 62
4
 10
-1.94498075E+02
 20
-1.48500076E+02
 40
2.59980309E+01
 50
3.39746143E+02
 51
2.02538569E+01
  0
LINE
  8
0
  6
CENTER
 62
2
 10
-9.50000591E+01
 20
-2.76193054E+02
 11
-9.50000591E+01
 21
-2.61252106E+02
  0
ARC
  8
0
 62
7
 10
-1.57000044E+02
 20
-3.19499985E+02
 40
1.50000248E+01
 50
3.59999942E+02
 51
2.99266002E+01
  0
ARC
  8
0
 62
2
 10
-3.59000044E+02
 20
-3.19500000E+02
 40
1.21799841E+01
 50
0.00000000E+00
 51
1.80000000E+02
  0
ARC
  8
0
 62
7
 10
-3.59000044E+02
 20
-3.19500000E+02
 40
1.29999914E+01
 50
0.00000000E+00
 51
1.80000000E+02
  0
ARC
  8
0
 62
7
 10
-1.34000029E+02
 20
-1.63000031E+02
 40
1.00000000E+00
 50
1.79999977E+02
 51
2.70000028E+02
  0
ARC
  8
0
 62
7
 10
-1.34000029E+02
 20
-1.16000031E+02
 40
1.00000000E+00
 50
8.99999274E+01
 51
1.79999964E+02
  0
CIRCLE
  8
0
 62
2
 10
-9.50000439E+01
 20
-1.27500000E+02
 40
1.04775009E+01
  0
CIRCLE
  8
0
 62
7
 10
-9.50000134E+01
 20
-1.27499939E+02
 40
9.25000000E+00
  0
ARC
  8
0
 62
7
 10
-1.07734587E+02
 20
-8.33775024E+01
 40
2.50000000E+00
 50
6.37281240E+00
 51
9.76913896E+01
  0
ARC
  8
0
 62
7
 10
-1.10265486E+02
 20
-8.33775024E+01
 40
2.50000000E+00
 50
9.76913759E+01
 51
1.79999951E+02
  0
ARC
  8
0
 62
7
 10
-7.97345562E+01
 20
-8.33775024E+01
 40
2.50000000E+00
 50
6.37281240E+00
 51
9.76913896E+01
  0
ARC
  8
0
 62
7
 10
-8.22654552E+01
 20
-8.33775024E+01
 40
2.50000000E+00
 50
9.76913759E+01
 51
1.79999951E+02
  0
CIRCLE
  8
0
 62
7
 10
-3.17000074E+02
 20
-2.77500000E+02
 40
4.18000031E+00
  0
CIRCLE
  8
0
 62
2
 10
-3.17000074E+02
 20
-2.77500000E+02
 40
5.00000000E+00
  0
CIRCLE
  8
0
 62
7
 10
-3.17000074E+02
 20
-2.77500031E+02
 40
8.00000000E+00
  0
ARC
  8
0
 62
7
 10
-3.08000074E+02
 20
-2.68500015E+02
 40
5.00000000E+00
 50
0.00000000E+00
 51
8.99999818E+01
  0
CIRCLE
  8
0
 62
7
 10
-3.17000074E+02
 20
-2.77500031E+02
 40
8.50000000E+00
  0
CIRCLE
  8
0
 62
7
 10
-4.01000105E+02
 20
-2.77500031E+02
 40
8.50000000E+00
  0
ARC
  8
0
  6
DASHED
 62
7
 10
-9.50000286E+01
 20
-3.19500000E+02
 40
2.30000019E+01
 50
1.40246843E+02
 51
1.80000000E+02
  0
ARC
  8
0
  6
DASHED
 62
7
 10
-9.50000286E+01
 20
-3.19500000E+02
 40
2.30000019E+01
 50
0.00000000E+00
 51
3.97530636E+01
  0
CIRCLE
  8
0
  6
DASHED
 62
7
 10
-8.10000134E+01
 20
-3.05500008E+02
 40
3.74999976E+00
  0
CIRCLE
  8
0
  6
DASHED
 62
7
 10
-1.09000074E+02
 20
-3.05500008E+02
 40
3.74999976E+00
  0
ARC
  8
0
  6
DASHED
 62
7
 10
-9.50000286E+01
 20
-3.19500000E+02
 40
2.30000019E+01
 50
5.02468330E+01
 51
1.29753077E+02
  0
CIRCLE
  8
0
 62
7
 10
-6.50000439E+01
 20
-1.57500061E+02
 40
2.59999990E+00
  0
ARC
  8
0
 62
7
 10
-4.10000044E+02
 20
-2.68500015E+02
 40
5.00000000E+00
 50
8.99999818E+01
 51
1.79999964E+02
  0
ARC
  8
0
 62
7
 10
-6.50000439E+01
 20
-1.57500061E+02
 40
5.00000000E+00
 50
1.79999977E+02
 51
1.00179127E-05
  0
ARC
  8
0
 62
7
 10
-6.50000439E+01
 20
-1.57500061E+02
 40
5.00000000E+00
 50
0.00000000E+00
 51
1.79999964E+02
  0
ARC
  8
0
 62
7
 10
-3.59000044E+02
 20
-3.19500000E+02
 40
2.44999962E+01
 50
0.00000000E+00
 51
1.80000000E+02
  0
ARC
  8
0
 62
7
 10
-3.59000044E+02
 20
-3.19500000E+02
 40
2.25000038E+01
 50
0.00000000E+00
 51
1.80000000E+02
  0
ARC
  8
0
 62
7
 10
-3.59000044E+02
 20
-3.19500000E+02
 40
2.30000038E+01
 50
0.00000000E+00
 51
1.80000000E+02
  0
ARC
  8
0
 62
7
 10
-3.59000044E+02
 20
-3.19500000E+02
 40
2.49999981E+01
 50
0.00000000E+00
 51
1.80000000E+02
  0
CIRCLE
  8
0
 62
7
 10
-4.01000105E+02
 20
-2.77500031E+02
 40
8.00000000E+00
  0
CIRCLE
  8
0
 62
7
 10
-4.01000105E+02
 20
-2.77500000E+02
 40
4.18000031E+00
  0
ARC
  8
0
 62
7
 10
-1.34000044E+02
 20
-2.96000046E+02
 40
1.00000000E+00
 50
8.99999274E+01
 51
1.79999964E+02
  0
ARC
  8
0
  6
DASHED
 62
7
 10
-9.50000286E+01
 20
-3.19500000E+02
 40
2.00000000E+00
 50
0.00000000E+00
 51
1.80000000E+02
  0
ARC
  8
0
 62
7
 10
-4.15122541E+02
 20
-3.06765373E+02
 40
2.50000000E+00
 50
1.87691403E+02
 51
2.69999963E+02
  0
ARC
  8
0
 62
7
 10
-4.15122541E+02
 20
-3.04234497E+02
 40
2.50000000E+00
 50
9.63728081E+01
 51
1.87691385E+02
  0
ARC
  8
0
  6
DASHED
 62
2
 10
-9.50000286E+01
 20
-3.19500000E+02
 40
2.50000000E+00
 50
0.00000000E+00
 51
1.80000000E+02
  0
CIRCLE
  8
0
 62
2
 10
-4.01000105E+02
 20
-2.77500000E+02
 40
5.00000000E+00
  0
LINE
  8
0
 62
7
 10
-1.57000044E+02
 20
-1.51679993E+02
 11
-1.54000044E+02
 21
-1.51679993E+02
  0
LINE
  8
0
 62
7
 10
-1.57000044E+02
 20
-1.27320038E+02
 11
-1.54000044E+02
 21
-1.27320038E+02
  0
LINE
  8
0
 62
7
 10
-1.44000110E+02
 20
-1.26499930E+02
 11
-1.42000086E+02
 21
-1.24499906E+02
  0
LINE
  8
0
 62
7
 10
-1.44000024E+02
 20
-1.52499995E+02
 11
-1.41999957E+02
 21
-1.54500062E+02
  0
LINE
  8
0
 62
7
 10
-1.54000044E+02
 20
-1.52500000E+02
 11
-1.44000013E+02
 21
-1.52500000E+02
  0
LINE
  8
0
 62
7
 10
-1.54000044E+02
 20
-1.26500000E+02
 11
-1.44000120E+02
 21
-1.26500000E+02
  0
LINE
  8
0
 62
7
 10
-1.41999968E+02
 20
-1.54500046E+02
 11
-1.40000044E+02
 21
-1.54500046E+02
  0
LINE
  8
0
 62
7
 10
-1.51000029E+02
 20
-1.52500000E+02
 11
-1.51000029E+02
 21
-1.26500000E+02
  0
LINE
  8
0
 62
7
 10
-1.42000074E+02
 20
-1.24499939E+02
 11
-1.40000029E+02
 21
-1.24499939E+02
  0
LINE
  8
0
 62
7
 10
-1.54000044E+02
 20
-1.39500000E+02
 11
-1.54000044E+02
 21
-1.52500000E+02
  0
LINE
  8
0
 62
7
 10
-1.54000044E+02
 20
-1.39500000E+02
 11
-1.54000044E+02
 21
-1.26500000E+02
  0
LINE
  8
0
 62
2
 10
-1.93320082E+02
 20
-1.51679993E+02
 11
-1.82500044E+02
 21
-1.51679993E+02
  0
LINE
  8
0
 62
7
 10
-1.94000103E+02
 20
-1.51000029E+02
 11
-1.92500090E+02
 21
-1.52500041E+02
  0
LINE
  8
0
 62
7
 10
-1.92500074E+02
 20
-1.52500000E+02
 11
-1.82500044E+02
 21
-1.52500000E+02
  0
LINE
  8
0
 62
2
 10
-1.93320082E+02
 20
-1.27320038E+02
 11
-1.82500044E+02
 21
-1.27320038E+02
  0
LINE
  8
0
 62
7
 10
-1.93999914E+02
 20
-1.28000183E+02
 11
-1.92499901E+02
 21
-1.26500170E+02
  0
LINE
  8
0
 62
7
 10
-1.92500044E+02
 20
-1.52500000E+02
 11
-1.92500044E+02
 21
-1.26500000E+02
  0
LINE
  8
0
 62
7
 10
-1.92500074E+02
 20
-1.26500031E+02
 11
-1.82500044E+02
 21
-1.26500031E+02
  0
LINE
  8
0
 62
7
 10
-1.57000044E+02
 20
-1.52500000E+02
 11
-1.57000044E+02
 21
-1.26500000E+02
  0
LINE
  8
0
 62
7
 10
-1.94000059E+02
 20
-1.51000061E+02
 11
-1.94000059E+02
 21
-1.28000305E+02
  0
LINE
  8
0
 62
7
 10
-1.57000044E+02
 20
-3.07320015E+02
 11
-1.54000044E+02
 21
-3.07320015E+02
  0
LINE
  8
0
 62
2
 10
-1.49000008E+02
 20
-3.19500000E+02
 11
-1.51777798E+02
 21
-3.15342558E+02
  0
LINE
  8
0
 62
2
 10
-1.44000027E+02
 20
-3.12016638E+02
 11
-1.49000027E+02
 21
-3.19500000E+02
  0
LINE
  8
0
 62
7
 10
-1.54000022E+02
 20
-3.19500000E+02
 11
-1.50000007E+02
 21
-3.12016632E+02
  0
LINE
  8
0
 62
7
 10
-1.50000029E+02
 20
-3.12016624E+02
 11
-1.44000044E+02
 21
-3.12016624E+02
  0
LINE
  8
0
 62
7
 10
-1.44000044E+02
 20
-3.19500000E+02
 11
-1.44000044E+02
 21
-3.12016624E+02
  0
LINE
  8
0
 62
7
 10
-1.54000014E+02
 20
-3.06500016E+02
 11
-1.50000001E+02
 21
-3.04499972E+02
  0
LINE
  8
0
 62
7
 10
-1.50000029E+02
 20
-3.12016624E+02
 11
-1.50000029E+02
 21
-3.04499962E+02
  0
LINE
  8
0
 62
7
 10
-1.50000029E+02
 20
-3.04499962E+02
 11
-1.40000044E+02
 21
-3.04499962E+02
  0
LINE
  8
0
 62
2
 10
-1.93320112E+02
 20
-3.07320015E+02
 11
-1.82500059E+02
 21
-3.07320015E+02
  0
LINE
  8
0
 62
7
 10
-1.93999924E+02
 20
-3.08000193E+02
 11
-1.92499906E+02
 21
-3.06500175E+02
  0
LINE
  8
0
 62
7
 10
-1.92500044E+02
 20
-3.19500000E+02
 11
-1.92500044E+02
 21
-3.06500008E+02
  0
LINE
  8
0
 62
7
 10
-1.92500105E+02
 20
-3.06500008E+02
 11
-1.82500059E+02
 21
-3.06500008E+02
  0
LINE
  8
0
 62
7
 10
-1.57000044E+02
 20
-3.19500000E+02
 11
-1.57000044E+02
 21
-3.06500008E+02
  0
LINE
  8
0
 62
7
 10
-1.94000059E+02
 20
-3.19500000E+02
 11
-1.94000059E+02
 21
-3.08000305E+02
  0
LINE
  8
0
 62
7
 10
-1.54000044E+02
 20
-3.19500000E+02
 11
-1.54000044E+02
 21
-3.06500008E+02
  0
LINE
  8
0
 62
7
 10
-1.20999987E+02
 20
-1.14500071E+02
 11
-1.21499966E+02
 21
-1.15000050E+02
  0
LINE
  8
0
 62
7
 10
-1.21000029E+02
 20
-1.14500031E+02
 11
-1.19000029E+02
 21
-1.14500031E+02
  0
LINE
  8
0
 62
7
 10
-1.40000044E+02
 20
-3.19500000E+02
 11
-1.40000044E+02
 21
-2.97000046E+02
  0
LINE
  8
0
 62
7
 10
-1.21500044E+02
 20
-2.95000031E+02
 11
-1.21500044E+02
 21
-3.19500000E+02
  0
LINE
  8
0
 62
7
 10
-1.21000029E+02
 20
-1.14500031E+02
 11
-1.21000029E+02
 21
-1.64500031E+02
  0
LINE
  8
0
 62
7
 10
-1.21500029E+02
 20
-1.15000031E+02
 11
-1.21500029E+02
 21
-1.64000015E+02
  0
LINE
  8
0
 62
7
 10
-1.21000029E+02
 20
-1.64500031E+02
 11
-1.19000029E+02
 21
-1.64500031E+02
  0
LINE
  8
0
 62
7
 10
-1.39500044E+02
 20
-3.19500000E+02
 11
-1.39500044E+02
 21
-2.96500015E+02
  0
LINE
  8
0
 62
7
 10
-1.35000029E+02
 20
-1.63000031E+02
 11
-1.35000029E+02
 21
-1.16000031E+02
  0
LINE
  8
0
  6
CENTER
 62
2
 10
-3.70999952E+02
 20
-2.95523590E+02
 11
-3.70999952E+02
 21
-2.61236526E+02
  0
LINE
  8
0
 62
7
 10
-1.39500029E+02
 20
-1.62500031E+02
 11
-1.35000029E+02
 21
-1.62500031E+02
  0
LINE
  8
0
 62
7
 10
-1.39499998E+02
 20
-1.16500031E+02
 11
-1.35000029E+02
 21
-1.16500031E+02
  0
LINE
  8
0
 62
7
 10
-1.21000044E+02
 20
-2.94500031E+02
 11
-1.21000044E+02
 21
-3.19500000E+02
  0
LINE
  8
0
  6
CENTER
 62
2
 10
-8.12976971E+01
 20
-1.27500031E+02
 11
-1.09094969E+02
 21
-1.27500031E+02
  0
LINE
  8
0
 62
7
 10
-3.17000075E+02
 20
-2.71726525E+02
 11
-3.12000100E+02
 21
-2.74613251E+02
  0
LINE
  8
0
 62
7
 10
-3.12000074E+02
 20
-2.74613251E+02
 11
-3.12000074E+02
 21
-2.80386734E+02
  0
LINE
  8
0
 62
7
 10
-3.12000010E+02
 20
-2.80386800E+02
 11
-3.17000025E+02
 21
-2.83273549E+02
  0
LINE
  8
0
 62
7
 10
-3.17000142E+02
 20
-2.83273488E+02
 11
-3.22000116E+02
 21
-2.80386763E+02
  0
LINE
  8
0
 62
7
 10
-3.22000074E+02
 20
-2.74613251E+02
 11
-3.22000074E+02
 21
-2.80386734E+02
  0
LINE
  8
0
 62
7
 10
-3.17000092E+02
 20
-2.71726523E+02
 11
-3.22000107E+02
 21
-2.74613272E+02
  0
LINE
  8
0
 62
7
 10
-4.01000145E+02
 20
-2.71726500E+02
 11
-3.96000170E+02
 21
-2.74613226E+02
  0
LINE
  8
0
 62
7
 10
-3.96000105E+02
 20
-2.74613251E+02
 11
-3.96000105E+02
 21
-2.80386734E+02
  0
LINE
  8
0
 62
7
 10
-3.96000103E+02
 20
-2.80386786E+02
 11
-4.01000144E+02
 21
-2.83273550E+02
  0
LINE
  8
0
 62
7
 10
-4.01000214E+02
 20
-2.83273468E+02
 11
-4.06000189E+02
 21
-2.80386742E+02
  0
LINE
  8
0
 62
7
 10
-4.06000105E+02
 20
-2.74613251E+02
 11
-4.06000105E+02
 21
-2.80386734E+02
  0
LINE
  8
0
 62
7
 10
-4.01000047E+02
 20
-2.71726535E+02
 11
-4.06000088E+02
 21
-2.74613299E+02
  0
LINE
  8
0
 62
7
 10
-1.05250029E+02
 20
-8.31000671E+01
 11
-1.05250029E+02
 21
-8.35000000E+01
  0
LINE
  8
0
 62
7
 10
-1.12750059E+02
 20
-8.31000671E+01
 11
-1.12750059E+02
 21
-8.35000000E+01
  0
LINE
  8
0
 62
7
 10
-1.10600142E+02
 20
-8.08999939E+01
 11
-1.07400099E+02
 21
-8.08999939E+01
  0
LINE
  8
0
  6
CENTER
 62
2
 10
-1.09000059E+02
 20
-8.00359192E+01
 11
-1.09000059E+02
 21
-8.35000000E+01
  0
LINE
  8
0
 62
7
 10
-7.72499981E+01
 20
-8.31000671E+01
 11
-7.72499981E+01
 21
-8.35000000E+01
  0
LINE
  8
0
 62
7
 10
-8.47499981E+01
 20
-8.31000671E+01
 11
-8.47499981E+01
 21
-8.35000000E+01
  0
LINE
  8
0
 62
7
 10
-8.26001110E+01
 20
-8.08999939E+01
 11
-7.94000683E+01
 21
-8.08999939E+01
  0
LINE
  8
0
  6
CENTER
 62
2
 10
-8.09999981E+01
 20
-8.00359192E+01
 11
-8.09999981E+01
 21
-8.35000000E+01
  0
LINE
  8
0
  6
CENTER
 62
2
 10
-3.59000044E+02
 20
-3.19500000E+02
 11
-3.59000044E+02
 21
-2.58553986E+02
  0
LINE
  8
0
  6
CENTER
 62
2
 10
-3.31222181E+02
 20
-2.77500000E+02
 11
-3.02012373E+02
 21
-2.77500000E+02
  0
LINE
  8
0
  6
CENTER
 62
2
 10
-3.41000013E+02
 20
-2.60923111E+02
 11
-3.41000013E+02
 21
-2.93354294E+02
  0
LINE
  8
0
  6
CENTER
 62
2
 10
-3.17000074E+02
 20
-2.63127319E+02
 11
-3.17000074E+02
 21
-2.92864227E+02
  0
LINE
  8
0
 62
7
 10
-3.03000074E+02
 20
-3.19500000E+02
 11
-3.03000074E+02
 21
-2.68500015E+02
  0
LINE
  8
0
  6
DASHED
 62
7
 10
-8.09999647E+01
 20
-3.04056550E+02
 11
-8.22499491E+01
 21
-3.04778221E+02
  0
LINE
  8
0
  6
DASHED
 62
7
 10
-8.22500896E+01
 20
-3.04778297E+02
 11
-8.22500896E+01
 21
-3.06221672E+02
  0
LINE
  8
0
  6
DASHED
 62
7
 10
-8.22500776E+01
 20
-3.06221851E+02
 11
-8.10000882E+01
 21
-3.06943525E+02
  0
LINE
  8
0
  6
DASHED
 62
7
 10
-8.09999964E+01
 20
-3.06943365E+02
 11
-7.97499393E+01
 21
-3.06221652E+02
  0
LINE
  8
0
  6
DASHED
 62
7
 10
-7.97500591E+01
 20
-3.04778297E+02
 11
-7.97500591E+01
 21
-3.06221672E+02
  0
LINE
  8
0
  6
DASHED
 62
7
 10
-8.10001353E+01
 20
-3.04056711E+02
 11
-7.97501195E+01
 21
-3.04778400E+02
  0
LINE
  8
0
  6
CENTER
 62
2
 10
-8.10000134E+01
 20
-2.98922867E+02
 11
-8.10000134E+01
 21
-3.11649200E+02
  0
LINE
  8
0
  6
CENTER
 62
2
 10
-7.40878277E+01
 20
-3.05500008E+02
 11
-8.68142223E+01
 21
-3.05500008E+02
  0
LINE
  8
0
  6
DASHED
 62
7
 10
-1.09000029E+02
 20
-3.04056530E+02
 11
-1.07750027E+02
 21
-3.04778211E+02
  0
LINE
  8
0
  6
DASHED
 62
7
 10
-1.07749998E+02
 20
-3.04778297E+02
 11
-1.07749998E+02
 21
-3.06221672E+02
  0
LINE
  8
0
  6
DASHED
 62
7
 10
-1.07749825E+02
 20
-3.06221942E+02
 11
-1.08999821E+02
 21
-3.06943620E+02
  0
LINE
  8
0
  6
DASHED
 62
7
 10
-1.09000033E+02
 20
-3.06943280E+02
 11
-1.10250062E+02
 21
-3.06221583E+02
  0
LINE
  8
0
  6
DASHED
 62
7
 10
-1.10250013E+02
 20
-3.04778297E+02
 11
-1.10250013E+02
 21
-3.06221672E+02
  0
LINE
  8
0
  6
DASHED
 62
7
 10
-1.08999878E+02
 20
-3.04056839E+02
 11
-1.10249894E+02
 21
-3.04778528E+02
  0
LINE
  8
0
  6
CENTER
 62
2
 10
-1.09000074E+02
 20
-2.98922867E+02
 11
-1.09000074E+02
 21
-3.11649200E+02
  0
LINE
  8
0
  6
CENTER
 62
2
 10
-1.15912230E+02
 20
-3.05500008E+02
 11
-1.03185865E+02
 21
-3.05500008E+02
  0
LINE
  8
0
 62
7
 10
-4.10000044E+02
 20
-2.63500015E+02
 11
-3.08000074E+02
 21
-2.63500015E+02
  0
LINE
  8
0
  6
CENTER
 62
2
 10
-4.01000105E+02
 20
-2.63314651E+02
 11
-4.01000105E+02
 21
-2.92038376E+02
  0
LINE
  8
0
  6
CENTER
 62
2
 10
-4.15555464E+02
 20
-2.77500000E+02
 11
-3.86309065E+02
 21
-2.77500000E+02
  0
LINE
  8
0
 62
7
 10
-4.15000044E+02
 20
-3.19500000E+02
 11
-4.15000044E+02
 21
-2.68500015E+02
  0
LINE
  8
0
 62
7
 10
-1.35000044E+02
 20
-3.19500000E+02
 11
-1.35000044E+02
 21
-2.96000046E+02
  0
LINE
  8
0
 62
7
 10
-1.40000007E+02
 20
-1.62000025E+02
 11
-1.39499996E+02
 21
-1.62500036E+02
  0
LINE
  8
0
 62
7
 10
-6.32677221E+01
 20
-1.57500133E+02
 11
-6.41337689E+01
 21
-1.59000179E+02
  0
LINE
  8
0
 62
7
 10
-6.41340466E+01
 20
-1.59000076E+02
 11
-6.58661480E+01
 21
-1.59000076E+02
  0
LINE
  8
0
 62
7
 10
-6.58659820E+01
 20
-1.59000064E+02
 11
-6.67320517E+01
 21
-1.57499978E+02
  0
LINE
  8
0
 62
7
 10
-6.67318246E+01
 20
-1.57500235E+02
 11
-6.58658389E+01
 21
-1.56000294E+02
  0
LINE
  8
0
 62
7
 10
-6.41340466E+01
 20
-1.56000046E+02
 11
-6.58661480E+01
 21
-1.56000046E+02
  0
LINE
  8
0
 62
7
 10
-6.32679197E+01
 20
-1.57500116E+02
 11
-6.41339436E+01
 21
-1.56000110E+02
  0
LINE
  8
0
  6
CENTER
 62
2
 10
-7.31946697E+01
 20
-1.57500061E+02
 11
-5.69256420E+01
 21
-1.57500061E+02
  0
LINE
  8
0
  6
CENTER
 62
2
 10
-6.50000439E+01
 20
-1.49952240E+02
 11
-6.50000439E+01
 21
-1.64565643E+02
  0
LINE
  8
0
 62
7
 10
-1.39500013E+02
 20
-2.96500015E+02
 11
-1.35000044E+02
 21
-2.96500015E+02
  0
LINE
  8
0
 62
7
 10
-1.34000029E+02
 20
-1.15000031E+02
 11
-1.21500029E+02
 21
-1.15000031E+02
  0
LINE
  8
0
 62
7
 10
-1.34000029E+02
 20
-1.64000015E+02
 11
-1.21500029E+02
 21
-1.64000015E+02
  0
LINE
  8
0
 62
7
 10
-1.40000022E+02
 20
-2.97000042E+02
 11
-1.39499993E+02
 21
-2.96500038E+02
  0
LINE
  8
0
 62
7
 10
-1.21000044E+02
 20
-2.94500031E+02
 11
-1.19000044E+02
 21
-2.94500031E+02
  0
LINE
  8
0
 62
7
 10
-1.40000008E+02
 20
-1.17000074E+02
 11
-1.39499978E+02
 21
-1.16500070E+02
  0
LINE
  8
0
 62
7
 10
-1.20999993E+02
 20
-1.64500000E+02
 11
-1.21499982E+02
 21
-1.64000010E+02
  0
LINE
  8
0
 62
7
 10
-1.39500029E+02
 20
-1.62500031E+02
 11
-1.39500029E+02
 21
-1.16500031E+02
  0
LINE
  8
0
 62
7
 10
-1.40000029E+02
 20
-1.62000031E+02
 11
-1.40000029E+02
 21
-1.17000092E+02
  0
LINE
  8
0
  6
CENTER
 62
2
 10
-9.50000439E+01
 20
-1.42425781E+02
 11
-9.50000439E+01
 21
-8.15399170E+01
  0
LINE
  8
0
 62
7
 10
-1.19000029E+02
 20
-8.35000305E+01
 11
-1.19000029E+02
 21
-1.95500015E+02
  0
LINE
  8
0
 62
7
 10
-1.19000044E+02
 20
-2.63500046E+02
 11
-5.80000286E+01
 21
-2.63500046E+02
  0
LINE
  8
0
 62
7
 10
-1.19000029E+02
 20
-1.95499985E+02
 11
-5.80000896E+01
 21
-1.95499985E+02
  0
LINE
  8
0
 62
7
 10
-1.19000044E+02
 20
-2.63500046E+02
 11
-1.19000044E+02
 21
-3.19500000E+02
  0
LINE
  8
0
 62
7
 10
-1.19000029E+02
 20
-8.35000305E+01
 11
-5.80000134E+01
 21
-8.35000305E+01
  0
LINE
  8
0
  6
CENTER
 62
2
 10
-2.97701307E+02
 20
-3.19500000E+02
 11
-4.20531050E+02
 21
-3.19500000E+02
  0
LINE
  8
0
 62
7
 10
-1.34000044E+02
 20
-2.95000031E+02
 11
-1.21500044E+02
 21
-2.95000031E+02
  0
LINE
  8
0
 62
7
 10
-1.20999994E+02
 20
-2.94500079E+02
 11
-1.21499973E+02
 21
-2.95000058E+02
  0
LINE
  8
0
 62
7
 10
-4.17599989E+02
 20
-3.07100021E+02
 11
-4.17599989E+02
 21
-3.03900002E+02
  0
LINE
  8
0
 62
7
 10
-4.15400099E+02
 20
-3.09249985E+02
 11
-4.15000044E+02
 21
-3.09249985E+02
  0
LINE
  8
0
 62
7
 10
-4.15400038E+02
 20
-3.01749985E+02
 11
-4.15000044E+02
 21
-3.01749985E+02
  0
LINE
  8
0
  6
CENTER
 62
2
 10
-4.18464094E+02
 20
-3.05499985E+02
 11
-4.15000044E+02
 21
-3.05499985E+02
  0
LINE
  8
0
 62
7
 10
-5.80000591E+01
 20
-2.65999985E+02
 11
1.86552572E+01
 21
-2.65999985E+02
  0
LINE
  8
0
  6
CENTER
 62
2
 10
1.20157203E+01
 20
-2.77500000E+02
 11
-1.22140226E+02
 21
-2.77500000E+02
  0
LINE
  8
0
 62
7
 10
1.46138141E+01
 20
-9.29999695E+01
 11
-3.15000439E+01
 21
-9.29999695E+01
  0
LINE
  8
0
 62
7
 10
9.41764409E+00
 20
-1.02000000E+02
 11
-1.20000439E+01
 21
-1.02000000E+02
  0
LINE
  8
0
  6
CENTER
 62
2
 10
1.20157379E+01
 20
-9.74999695E+01
 11
-3.15000439E+01
 21
-9.74999695E+01
  0
LINE
  8
0
 62
7
 10
-5.80000439E+01
 20
-1.93000015E+02
 11
-4.31212392E+01
 21
-1.93000015E+02
  0
LINE
  8
0
 62
7
 10
-5.80000439E+01
 20
-8.34998169E+01
 11
-5.80000439E+01
 21
-9.36196107E+01
  0
LINE
  8
0
  6
CENTER
 62
2
 10
-3.64817111E+01
 20
-1.81500015E+02
 11
-9.65245190E+01
 21
-1.81500015E+02
  0
LINE
  8
0
 62
7
 10
-5.80000591E+01
 20
-2.63500000E+02
 11
-5.80000591E+01
 21
-3.19500000E+02
  0
LINE
  8
0
  6
CENTER
 62
2
 10
-2.01777357E+02
 20
-1.39500000E+02
 11
-1.22329910E+01
 21
-1.39500000E+02
  0
LINE
  8
0
  6
CENTER
 62
2
 10
-2.00115721E+02
 20
-3.19500000E+02
 11
-1.22329910E+01
 21
-3.19500000E+02
  0
LINE
  8
0
  6
CENTER
 62
2
 10
-6.60000439E+01
 20
-9.74999695E+01
 11
-9.65245190E+01
 21
-9.74999695E+01
  0
LINE
  8
0
 62
7
 10
-5.80000439E+01
 20
-1.06119611E+02
 11
-5.80000439E+01
 21
-1.95500015E+02
  0
LINE
  8
0
 62
2
 10
-4.80136311E+01
 20
-2.01473886E+02
 11
1.98355991E+01
 21
-8.39555726E+01
  0
LINE
  8
0
 62
2
 10
-1.63855620E+01
 20
-3.26692464E+02
 11
2.43770453E+01
 21
-2.56089557E+02
  0
LINE
  8
0
 62
7
 10
2.77762348E+02
 20
-2.81999985E+02
 11
3.33499971E+02
 21
-2.81999985E+02
  0
LINE
  8
0
 62
7
 10
2.82958509E+02
 20
-2.72999969E+02
 11
3.33499971E+02
 21
-2.72999969E+02
  0
LINE
  8
0
 62
7
 10
3.59999971E+02
 20
-2.65999985E+02
 11
3.52999971E+02
 21
-2.65999985E+02
  0
LINE
  8
0
  6
CENTER
 62
2
 10
2.80360415E+02
 20
-2.77500000E+02
 11
3.33499971E+02
 21
-2.77500000E+02
  0
LINE
  8
0
  6
CENTER
 62
2
 10
5.02115633E+02
 20
-3.19500000E+02
 11
2.56111704E+02
 21
-3.19500000E+02
  0
LINE
  8
0
 62
7
 10
3.59999971E+02
 20
-2.63500000E+02
 11
3.59999971E+02
 21
-3.19500000E+02
  0
LINE
  8
0
 62
7
 10
4.22999907E+02
 20
-2.94500079E+02
 11
4.23499886E+02
 21
-2.95000058E+02
  0
LINE
  8
0
 62
7
 10
4.35999956E+02
 20
-2.95000031E+02
 11
4.23499956E+02
 21
-2.95000031E+02
  0
LINE
  8
0
 62
7
 10
4.20999956E+02
 20
-2.63500046E+02
 11
4.20999956E+02
 21
-3.19500000E+02
  0
LINE
  8
0
 62
7
 10
4.20999956E+02
 20
-2.63500046E+02
 11
3.59999941E+02
 21
-2.63500046E+02
  0
LINE
  8
0
 62
7
 10
4.22999956E+02
 20
-2.94500031E+02
 11
4.20999956E+02
 21
-2.94500031E+02
  0
LINE
  8
0
 62
7
 10
4.41999934E+02
 20
-2.97000042E+02
 11
4.41499905E+02
 21
-2.96500038E+02
  0
LINE
  8
0
 62
7
 10
4.41499926E+02
 20
-2.96500015E+02
 11
4.36999956E+02
 21
-2.96500015E+02
  0
LINE
  8
0
 62
7
 10
4.36999956E+02
 20
-3.19500000E+02
 11
4.36999956E+02
 21
-2.96000046E+02
  0
LINE
  8
0
  6
CENTER
 62
2
 10
4.17912142E+02
 20
-3.05500008E+02
 11
4.05185778E+02
 21
-3.05500008E+02
  0
LINE
  8
0
  6
CENTER
 62
2
 10
4.10999987E+02
 20
-2.98922867E+02
 11
4.10999987E+02
 21
-3.11649200E+02
  0
LINE
  8
0
 62
7
 10
4.10999790E+02
 20
-3.04056839E+02
 11
4.12249806E+02
 21
-3.04778528E+02
  0
LINE
  8
0
 62
7
 10
4.12249926E+02
 20
-3.04778297E+02
 11
4.12249926E+02
 21
-3.06221672E+02
  0
LINE
  8
0
 62
7
 10
4.10999945E+02
 20
-3.06943280E+02
 11
4.12249974E+02
 21
-3.06221583E+02
  0
LINE
  8
0
 62
7
 10
4.09749737E+02
 20
-3.06221942E+02
 11
4.10999733E+02
 21
-3.06943620E+02
  0
LINE
  8
0
 62
7
 10
4.09749910E+02
 20
-3.04778297E+02
 11
4.09749910E+02
 21
-3.06221672E+02
  0
LINE
  8
0
 62
7
 10
4.10999942E+02
 20
-3.04056530E+02
 11
4.09749939E+02
 21
-3.04778211E+02
  0
LINE
  8
0
  6
CENTER
 62
2
 10
3.76087740E+02
 20
-3.05500008E+02
 11
3.88814135E+02
 21
-3.05500008E+02
  0
LINE
  8
0
  6
CENTER
 62
2
 10
3.82999926E+02
 20
-2.98922867E+02
 11
3.82999926E+02
 21
-3.11649200E+02
  0
LINE
  8
0
 62
7
 10
3.83000048E+02
 20
-3.04056711E+02
 11
3.81750032E+02
 21
-3.04778400E+02
  0
LINE
  8
0
 62
7
 10
3.81749971E+02
 20
-3.04778297E+02
 11
3.81749971E+02
 21
-3.06221672E+02
  0
LINE
  8
0
 62
7
 10
3.82999909E+02
 20
-3.06943365E+02
 11
3.81749852E+02
 21
-3.06221652E+02
  0
LINE
  8
0
 62
7
 10
3.84249990E+02
 20
-3.06221851E+02
 11
3.83000001E+02
 21
-3.06943525E+02
  0
LINE
  8
0
 62
7
 10
3.84250002E+02
 20
-3.04778297E+02
 11
3.84250002E+02
 21
-3.06221672E+02
  0
LINE
  8
0
 62
7
 10
3.82999877E+02
 20
-3.04056550E+02
 11
3.84249861E+02
 21
-3.04778221E+02
  0
LINE
  8
0
 62
7
 10
4.22999956E+02
 20
-2.94500031E+02
 11
4.22999956E+02
 21
-3.19500000E+02
  0
LINE
  8
0
 62
7
 10
4.41499956E+02
 20
-3.19500000E+02
 11
4.41499956E+02
 21
-2.96500015E+02
  0
LINE
  8
0
 62
7
 10
4.23499956E+02
 20
-2.95000031E+02
 11
4.23499956E+02
 21
-3.19500000E+02
  0
LINE
  8
0
 62
7
 10
4.41999956E+02
 20
-3.19500000E+02
 11
4.41999956E+02
 21
-2.97000046E+02
  0
LINE
  8
0
 62
7
 10
4.55999956E+02
 20
-3.19500000E+02
 11
4.55999956E+02
 21
-3.06500008E+02
  0
LINE
  8
0
 62
7
 10
4.95999971E+02
 20
-3.19500000E+02
 11
4.95999971E+02
 21
-3.08000305E+02
  0
LINE
  8
0
 62
7
 10
4.58999956E+02
 20
-3.19500000E+02
 11
4.58999956E+02
 21
-3.06500008E+02
  0
LINE
  8
0
 62
7
 10
4.94500017E+02
 20
-3.06500008E+02
 11
4.84499971E+02
 21
-3.06500008E+02
  0
LINE
  8
0
 62
7
 10
4.94499956E+02
 20
-3.19500000E+02
 11
4.94499956E+02
 21
-3.06500008E+02
  0
LINE
  8
0
 62
7
 10
4.95999836E+02
 20
-3.08000193E+02
 11
4.94499818E+02
 21
-3.06500175E+02
  0
LINE
  8
0
 62
2
 10
4.95320024E+02
 20
-3.07320015E+02
 11
4.84499971E+02
 21
-3.07320015E+02
  0
LINE
  8
0
 62
7
 10
4.51999941E+02
 20
-3.04499962E+02
 11
4.41999956E+02
 21
-3.04499962E+02
  0
LINE
  8
0
 62
7
 10
4.51999941E+02
 20
-3.12016624E+02
 11
4.51999941E+02
 21
-3.04499962E+02
  0
LINE
  8
0
 62
7
 10
4.55999927E+02
 20
-3.06500016E+02
 11
4.51999913E+02
 21
-3.04499972E+02
  0
LINE
  8
0
 62
7
 10
4.45999956E+02
 20
-3.19500000E+02
 11
4.45999956E+02
 21
-3.12016624E+02
  0
LINE
  8
0
 62
7
 10
4.51999941E+02
 20
-3.12016624E+02
 11
4.45999956E+02
 21
-3.12016624E+02
  0
LINE
  8
0
 62
7
 10
4.55999934E+02
 20
-3.19500000E+02
 11
4.51999919E+02
 21
-3.12016632E+02
  0
LINE
  8
0
 62
2
 10
4.45999939E+02
 20
-3.12016638E+02
 11
4.50999939E+02
 21
-3.19500000E+02
  0
LINE
  8
0
 62
2
 10
4.50999920E+02
 20
-3.19500000E+02
 11
4.53777710E+02
 21
-3.15342558E+02
  0
LINE
  8
0
 62
7
 10
4.58999956E+02
 20
-3.07320015E+02
 11
4.55999956E+02
 21
-3.07320015E+02
  0
ARC
  8
0
 62
2
 10
3.96999941E+02
 20
-3.19500000E+02
 40
2.50000000E+00
 50
0.00000000E+00
 51
1.80000000E+02
  0
ARC
  8
0
 62
7
 10
3.96999941E+02
 20
-3.19500000E+02
 40
2.00000000E+00
 50
0.00000000E+00
 51
1.80000000E+02
  0
ARC
  8
0
 62
7
 10
4.35999956E+02
 20
-2.96000046E+02
 40
1.00000000E+00
 50
3.59721787E-05
 51
9.00000724E+01
  0
ARC
  8
0
 62
7
 10
3.96999941E+02
 20
-3.19500000E+02
 40
2.30000019E+01
 50
5.02469237E+01
 51
1.29753167E+02
  0
CIRCLE
  8
0
 62
7
 10
4.10999987E+02
 20
-3.05500008E+02
 40
3.74999976E+00
  0
CIRCLE
  8
0
 62
7
 10
3.82999926E+02
 20
-3.05500008E+02
 40
3.74999976E+00
  0
ARC
  8
0
 62
7
 10
3.96999941E+02
 20
-3.19500000E+02
 40
2.30000019E+01
 50
1.40246937E+02
 51
1.80000000E+02
  0
ARC
  8
0
 62
7
 10
3.96999941E+02
 20
-3.19500000E+02
 40
2.30000019E+01
 50
0.00000000E+00
 51
3.97531576E+01
  0
ARC
  8
0
 62
7
 10
4.58999956E+02
 20
-3.19499985E+02
 40
1.50000248E+01
 50
1.50073400E+02
 51
1.80000058E+02
  0
LINE
  8
0
  6
CENTER
 62
2
 10
3.96999971E+02
 20
-2.76193054E+02
 11
3.96999971E+02
 21
-2.61252106E+02
  0
ARC
  8
0
 62
4
 10
4.75299017E+02
 20
-3.03911545E+02
 40
9.20095253E+00
 50
3.25615743E+02
 51
3.43842738E+01
  0
ARC
  8
0
 62
4
 10
4.50107706E+02
 20
-3.19500000E+02
 40
3.43922653E+01
 50
0.00000000E+00
 51
1.75879507E+01
  0
ARC
  8
0
 62
4
 10
4.79700926E+02
 20
-3.03911545E+02
 40
9.20095253E+00
 50
1.45615762E+02
 51
2.14384293E+02
  0
ARC
  8
0
 62
4
 10
5.04892237E+02
 20
-3.19500000E+02
 40
3.43922653E+01
 50
1.62412085E+02
 51
1.80000000E+02
  0
LINE
  8
0
 62
4
 10
4.70499971E+02
 20
-3.01500000E+02
 11
4.70499971E+02
 21
-3.19500000E+02
  0
LINE
  8
0
 62
4
 10
4.70499971E+02
 20
-3.01499988E+02
 11
4.72107652E+02
 21
-2.98715366E+02
  0
LINE
  8
0
 62
4
 10
4.84499980E+02
 20
-3.01500001E+02
 11
4.82892302E+02
 21
-2.98715392E+02
  0
LINE
  8
0
 62
4
 10
4.82892275E+02
 20
-2.98715393E+02
 11
4.72107668E+02
 21
-2.98715393E+02
  0
LINE
  8
0
 62
4
 10
4.82892275E+02
 20
-3.09107697E+02
 11
4.72107668E+02
 21
-3.09107697E+02
  0
LINE
  8
0
 62
4
 10
4.84499971E+02
 20
-3.01500000E+02
 11
4.84499971E+02
 21
-3.19500000E+02
  0
LINE
  8
0
 62
7
 10
4.70499971E+02
 20
-3.06500008E+02
 11
4.58999956E+02
 21
-3.06500008E+02
  0
LINE
  8
0
 62
2
 10
4.70499971E+02
 20
-3.07320015E+02
 11
4.58999956E+02
 21
-3.07320015E+02
  0
LINE
  8
0
 62
7
 10
3.13999971E+02
 20
-2.65999985E+02
 11
2.86999952E+02
 21
-2.65999985E+02
  0
LINE
  8
0
 62
7
 10
3.48499971E+02
 20
-2.72999969E+02
 11
3.59999971E+02
 21
-2.72999969E+02
  0
LINE
  8
0
  6
CENTER
 62
2
 10
3.48499971E+02
 20
-2.77500000E+02
 11
4.24140139E+02
 21
-2.77500000E+02
  0
LINE
  8
0
 62
7
 10
3.48499971E+02
 20
-2.81999985E+02
 11
3.59999971E+02
 21
-2.81999985E+02
  0
LINE
  8
0
 62
2
 10
2.51657012E+02
 20
-3.27215753E+02
 11
2.91867556E+02
 21
-2.57569048E+02
  0
TEXT
  8
0
 10
-5.22147331E+01
 20
3.54316712E+02
 40
9.00000000E+00
  1
STRETCH LINE
 41
1.05263158E+00
  7
MONOTXT
  0
LINE
  8
0
 62
7
 10
5.74500000E+02
 20
4.00500000E+02
 11
5.74500000E+02
 21
-4.00500000E+02
  0
LINE
  8
0
 62
7
 10
-5.64500000E+02
 20
4.00500000E+02
 11
5.74500000E+02
 21
4.00500000E+02
  0
LINE
  8
0
 62
7
 10
-5.64500000E+02
 20
-4.00500000E+02
 11
5.74500000E+02
 21
-4.00500000E+02
  0
LINE
  8
0
 62
7
 10
-5.64500000E+02
 20
4.00500000E+02
 11
-5.64500000E+02
 21
-4.00500000E+02
  0
LINE
  8
0
 62
7
 10
-5.64500000E+02
 20
3.70500000E+02
 11
-3.34500000E+02
 21
3.70500000E+02
  0
LINE
  8
0
 62
7
 10
3.44500000E+02
 20
3.70500000E+02
 11
5.74500000E+02
 21
3.70500000E+02
  0
LINE
  8
0
 62
7
 10
3.44500000E+02
 20
-3.70500000E+02
 11
5.74500000E+02
 21
-3.70500000E+02
  0
LINE
  8
0
 62
7
 10
3.44500000E+02
 20
-3.70500000E+02
 11
3.44500000E+02
 21
-4.00500000E+02
  0
LINE
  8
0
 62
7
 10
3.44500000E+02
 20
4.00500000E+02
 11
3.44500000E+02
 21
3.70500000E+02
  0
LINE
  8
0
 62
7
 10
-3.34500000E+02
 20
4.00500000E+02
 11
-3.34500000E+02
 21
3.70500000E+02
  0
TEXT
  8
0
 62
7
 10
-5.37179687E+02
 20
3.34250000E+02
 40
1.25000000E+01
  1
MODEL:DDAK-RL100*75
 41
1.00000015E+00
  7
MONOTXT
  0
TEXT
  8
0
 62
7
 10
4.11285149E+02
 20
3.79250000E+02
 40
1.25000000E+01
  1
Ver. 1.0
 41
1.08108125E+00
  7
MONOTXT
  0
TEXT
  8
0
 62
7
 10
3.50070624E+02
 20
-3.94500000E+02
 40
1.80000000E+01
  1
KOGANEI CORP.
 41
1.04838710E+00
  7
MONOTXT
  0
TEXT
  8
0
 62
7
 10
-5.53964859E+02
 20
3.79250000E+02
 40
1.25000000E+01
  1
NEW DYNA CYLINDER
 41
1.07594953E+00
  7
MONOTXT
  0
ENDSEC
  0
EOF
