  0
SECTION
  2
HEADER
  9
$ACADVER
  1
AC1003
  9
$EXTMIN
 10
-4.19780226E+02
 20
-2.76750000E+02
  9
$EXTMAX
 10
3.99799805E+02
 20
2.76250000E+02
  9
$LIMMIN
 10
-4.19781226E+02
 20
-2.76751000E+02
  9
$LIMMAX
 10
3.99800805E+02
 20
2.76251000E+02
  9
$SNAPUNIT
 10
1
 20
1
  9
$SNAPBASE
 10
0
 20
0
  9
$GRIDMODE
 70
0
  9
$GRIDUNIT
 10
0
 20
0
  9
$LTSCALE
 40
1.36596672E+01
  9
$TEXTSIZE
 40
3.2
  9
$DIMTAD
 70
0
  9
$LUNITS
 70
2
  9
$LUPREC
 70
4
  9
$FILLETRAD
 40
0
  9
$AUNITS
 70
0
  9
$AUPREC
 70
0
  0
ENDSEC
  0
SECTION
  2
TABLES
  0
TABLE
  2
LTYPE
 70
2
  0
LTYPE
  2
CONTINUOUS
 70
64
  3
Solid-Line
 72
65
 73
0
 40
0
  0
LTYPE
  2
DASHED
 70
64
  3
DASHED
 72
65
 73
2
 40
.75
 49
.5
 49
-.25
  0
LTYPE
  2
HIDDEN
 70
64
  3
HIDDEN
 72
65
 73
2
 40
.375
 49
.25
 49
-.125
  0
LTYPE
  2
CENTER
 70
64
  3
CENTER
 72
65
 73
4
 40
2
 49
1.25
 49
-.25
 49
.25
 49
-.25
  0
LTYPE
  2
PHANTOM
 70
64
  3
PHANTOM
 72
65
 73
6
 40
2.5
 49
1.25
 49
-.25
 49
.25
 49
-.25
 49
.25
 49
-.25
  0
ENDTAB
  0
TABLE
  2
LAYER
 70
1
  0
LAYER
  2
1
 70
0
 62
7
  6
CONTINUOUS
 0
ENDTAB
  0
TABLE
  2
STYLE
 70
2
  0
STYLE
  2
MONOTXT
 70
0
 40
0
 41
1
 50
0
 71
0
 42
.2
  3
monotxt
  0
STYLE
  2
BIGFONT
 70
0
 40
0
 41
1
 50
0
 71
0
 42
.2
  3
txt
  4
bigfont
  0
ENDTAB
  0
ENDSEC
  0
SECTION
  2
ENTITIES
  0
LINE
  8
0
  6
PHANTOM
 10
-6.92500000E+01
 20
1.29605211E+02
 11
-6.92500000E+01
 21
2.71367846E+01
  0
LINE
  8
0
 62
7
 10
-1.82500000E+01
 20
5.25194586E+01
 11
-1.24250000E+02
 21
5.25194586E+01
  0
LINE
  8
0
 62
7
 10
-1.82500153E+01
 20
4.72194708E+01
 11
-1.24249969E+02
 21
4.72194708E+01
  0
LINE
  8
0
 62
7
 10
-1.82500000E+01
 20
4.63694799E+01
 11
-1.24250000E+02
 21
4.63694799E+01
  0
LINE
  8
0
 62
7
 10
-1.82500000E+01
 20
9.33694647E+01
 11
-1.82500000E+01
 21
4.33694647E+01
  0
LINE
  8
0
 62
7
 10
-1.24250000E+02
 20
9.33694647E+01
 11
-1.24250000E+02
 21
4.33432653E+01
  0
LINE
  8
0
 62
7
 10
-1.82500000E+01
 20
8.42194708E+01
 11
-3.97500000E+01
 21
8.42194708E+01
  0
LINE
  8
0
 62
7
 10
-1.82500153E+01
 20
8.95194586E+01
 11
-2.47500000E+01
 21
8.95194586E+01
  0
LINE
  8
0
 62
7
 10
-1.82500000E+01
 20
9.03694494E+01
 11
-2.47500000E+01
 21
9.03694494E+01
  0
LINE
  8
0
  6
CENTER
 62
2
 10
-2.07079865E+02
 20
6.83694647E+01
 11
3.36539841E+01
 21
6.83694647E+01
  0
LINE
  8
0
 62
7
 10
-1.56750031E+02
 20
5.23694647E+01
 11
-1.55250061E+02
 21
5.23694647E+01
  0
LINE
  8
0
 62
7
 10
-1.55250046E+02
 20
9.28282354E+01
 11
-1.55250046E+02
 21
4.39105093E+01
  0
LINE
  8
0
 62
7
 10
-1.50250000E+02
 20
9.33694647E+01
 11
-1.24250000E+02
 21
9.33694647E+01
  0
LINE
  8
0
  6
CENTER
 62
2
 10
3.13849182E+01
 20
8.68694647E+01
 11
-1.57353516E+02
 21
8.68694647E+01
  0
LINE
  8
0
 62
7
 10
-1.50249985E+02
 20
9.29155157E+01
 11
-1.50249985E+02
 21
9.33694647E+01
  0
LINE
  8
0
  6
CENTER
 62
2
 10
-1.37250015E+02
 20
9.51218450E+01
 11
-1.37250015E+02
 21
8.40438269E+01
  0
LINE
  8
0
 62
7
 10
-1.65250046E+02
 20
5.33694342E+01
 11
-1.65250046E+02
 21
8.33694952E+01
  0
LINE
  8
0
 62
7
 10
-1.69750107E+02
 20
5.33694342E+01
 11
-1.65241135E+02
 21
5.33694342E+01
  0
LINE
  8
0
 62
7
 10
-1.70250046E+02
 20
5.38694647E+01
 11
-1.70250046E+02
 21
8.28694647E+01
  0
LINE
  8
0
 62
7
 10
-1.65008761E+02
 20
5.31110104E+01
 11
-1.57249193E+02
 21
5.28400404E+01
  0
LINE
  8
0
 62
7
 10
-1.69750107E+02
 20
8.33694952E+01
 11
-1.65241135E+02
 21
8.33694952E+01
  0
LINE
  8
0
 62
7
 10
-1.65008759E+02
 20
8.36279770E+01
 11
-1.57249191E+02
 21
8.38989470E+01
  0
LINE
  8
0
  6
CENTER
 62
2
 10
3.09985657E+01
 20
4.98694647E+01
 11
-1.57353516E+02
 21
4.98694647E+01
  0
LINE
  8
0
 62
7
 10
-1.24250047E+02
 20
4.33694070E+01
 11
-1.55250040E+02
 21
4.39105092E+01
  0
LINE
  8
0
 62
7
 10
-1.24249997E+02
 20
9.33693480E+01
 11
-1.55250052E+02
 21
9.28282354E+01
  0
LINE
  8
0
 62
7
 10
-1.50250000E+02
 20
4.33694647E+01
 11
-1.24250000E+02
 21
4.33694647E+01
  0
LINE
  8
0
 62
7
 10
2.92500534E+01
 20
5.23694647E+01
 11
2.77500381E+01
 21
5.23694647E+01
  0
LINE
  8
0
 62
7
 10
2.77500610E+01
 20
9.33694647E+01
 11
2.77500610E+01
 21
4.33694647E+01
  0
LINE
  8
0
 62
7
 10
-1.50249985E+02
 20
4.38232229E+01
 11
-1.50249985E+02
 21
4.33694647E+01
  0
LINE
  8
0
 62
7
 10
-1.57250046E+02
 20
8.38694494E+01
 11
-1.57250046E+02
 21
5.28400457E+01
  0
LINE
  8
0
 62
7
 10
-1.56750031E+02
 20
8.43694647E+01
 11
-1.55250061E+02
 21
8.43694647E+01
  0
LINE
  8
0
 62
7
 10
2.77500000E+01
 20
9.33694647E+01
 11
-1.82500000E+01
 21
9.33694647E+01
  0
LINE
  8
0
 62
7
 10
2.77500000E+01
 20
4.33694647E+01
 11
-1.82500000E+01
 21
4.33694647E+01
  0
LINE
  8
0
 62
7
 10
2.92500687E+01
 20
8.43694647E+01
 11
2.77500381E+01
 21
8.43694647E+01
  0
LINE
  8
0
  6
CENTER
 62
2
 10
6.75000000E+00
 20
9.56111639E+01
 11
6.75000000E+00
 21
4.61460760E+01
  0
LINE
  8
0
  6
CENTER
 62
2
 10
2.46621017E+01
 20
5.73694647E+01
 11
1.19357376E+01
 21
5.73694647E+01
  0
LINE
  8
0
  6
CENTER
 62
2
 10
1.77500000E+01
 20
5.07923544E+01
 11
1.77500000E+01
 21
6.35186804E+01
  0
LINE
  8
0
  6
DASHED
 62
7
 10
1.77500004E+01
 20
5.59260781E+01
 11
1.64999846E+01
 21
5.66477669E+01
  0
LINE
  8
0
  6
DASHED
 62
7
 10
1.77500026E+01
 20
5.59261800E+01
 11
1.89999904E+01
 21
5.66478525E+01
  0
LINE
  8
0
  6
DASHED
 62
7
 10
1.64999429E+01
 20
5.80912265E+01
 11
1.77499447E+01
 21
5.88129072E+01
  0
LINE
  8
0
  6
DASHED
 62
7
 10
1.77500040E+01
 20
5.88127971E+01
 11
1.90000066E+01
 21
5.80911159E+01
  0
LINE
  8
0
  6
DASHED
 62
7
 10
1.65000000E+01
 20
5.66477774E+01
 11
1.65000000E+01
 21
5.80911672E+01
  0
LINE
  8
0
  6
DASHED
 62
7
 10
1.90000000E+01
 20
5.66477774E+01
 11
1.90000000E+01
 21
5.80911672E+01
  0
LINE
  8
0
  6
CENTER
 62
2
 10
-1.11621017E+01
 20
5.73694647E+01
 11
1.56426239E+00
 21
5.73694647E+01
  0
LINE
  8
0
  6
CENTER
 62
2
 10
-4.24998474E+00
 20
5.07923544E+01
 11
-4.24998474E+00
 21
6.35186804E+01
  0
LINE
  8
0
  6
DASHED
 62
7
 10
-4.24997317E+00
 20
5.59260302E+01
 11
-5.50001542E+00
 21
5.66477342E+01
  0
LINE
  8
0
  6
DASHED
 62
7
 10
-5.49998474E+00
 20
5.66477774E+01
 11
-5.49998474E+00
 21
5.80911672E+01
  0
LINE
  8
0
  6
DASHED
 62
7
 10
-4.25000546E+00
 20
5.88129202E+01
 11
-5.49998659E+00
 21
5.80912515E+01
  0
LINE
  8
0
  6
DASHED
 62
7
 10
-3.00000658E+00
 20
5.80910909E+01
 11
-4.25002240E+00
 21
5.88127796E+01
  0
LINE
  8
0
  6
DASHED
 62
7
 10
-2.99998474E+00
 20
5.66477774E+01
 11
-2.99998474E+00
 21
5.80911672E+01
  0
LINE
  8
0
  6
DASHED
 62
7
 10
-4.25000055E+00
 20
5.59261800E+01
 11
-3.00000124E+00
 21
5.66478592E+01
  0
LINE
  8
0
  6
CENTER
 62
2
 10
2.46621017E+01
 20
7.93694647E+01
 11
1.19357376E+01
 21
7.93694647E+01
  0
LINE
  8
0
  6
CENTER
 62
2
 10
1.77500000E+01
 20
8.59465826E+01
 11
1.77500000E+01
 21
7.32202642E+01
  0
LINE
  8
0
  6
DASHED
 62
7
 10
1.77499678E+01
 20
8.08127375E+01
 11
1.89999308E+01
 21
8.00910792E+01
  0
LINE
  8
0
  6
DASHED
 62
7
 10
1.90000000E+01
 20
8.00911749E+01
 11
1.90000000E+01
 21
7.86477697E+01
  0
LINE
  8
0
  6
DASHED
 62
7
 10
1.77499511E+01
 20
7.79261490E+01
 11
1.89999078E+01
 21
7.86478037E+01
  0
LINE
  8
0
  6
DASHED
 62
7
 10
1.64999426E+01
 20
7.86476974E+01
 11
1.77499584E+01
 21
7.79260086E+01
  0
LINE
  8
0
  6
DASHED
 62
7
 10
1.65000000E+01
 20
8.00911749E+01
 11
1.65000000E+01
 21
7.86477697E+01
  0
LINE
  8
0
  6
DASHED
 62
7
 10
1.77499618E+01
 20
8.08128983E+01
 11
1.64999679E+01
 21
8.00912221E+01
  0
LINE
  8
0
  6
CENTER
 62
2
 10
-1.11621017E+01
 20
7.93694647E+01
 11
1.56426239E+00
 21
7.93694647E+01
  0
LINE
  8
0
  6
CENTER
 62
2
 10
-4.24998474E+00
 20
8.59465826E+01
 11
-4.24998474E+00
 21
7.32202642E+01
  0
LINE
  8
0
  6
DASHED
 62
7
 10
-4.24999985E+00
 20
8.08128870E+01
 11
-5.50000246E+00
 21
8.00912058E+01
  0
LINE
  8
0
  6
DASHED
 62
7
 10
-5.49998474E+00
 20
8.00911749E+01
 11
-5.49998474E+00
 21
7.86477697E+01
  0
LINE
  8
0
  6
DASHED
 62
7
 10
-4.25009224E+00
 20
7.79260712E+01
 11
-5.50006842E+00
 21
7.86477372E+01
  0
LINE
  8
0
  6
DASHED
 62
7
 10
-3.00008955E+00
 20
7.86478246E+01
 11
-4.25006738E+00
 21
7.79261578E+01
  0
LINE
  8
0
  6
DASHED
 62
7
 10
-2.99998474E+00
 20
8.00911749E+01
 11
-2.99998474E+00
 21
7.86477697E+01
  0
LINE
  8
0
  6
DASHED
 62
7
 10
-4.25002622E+00
 20
8.08127762E+01
 11
-3.00001040E+00
 21
8.00910874E+01
  0
LINE
  8
0
 62
7
 10
2.97500610E+01
 20
8.38694799E+01
 11
2.97500610E+01
 21
5.28694647E+01
  0
LINE
  8
0
 62
7
 10
2.92500534E+01
 20
8.43694647E+01
 11
2.92500534E+01
 21
5.23694647E+01
  0
LINE
  8
0
 62
7
 10
2.92500618E+01
 20
5.23694552E+01
 11
2.97500624E+01
 21
5.28694557E+01
  0
LINE
  8
0
 62
7
 10
2.97500651E+01
 20
8.38694697E+01
 11
2.92500753E+01
 21
8.43694595E+01
  0
LINE
  8
0
 62
7
 10
-1.77250046E+02
 20
6.44964788E+01
 11
-1.77250046E+02
 21
6.03694494E+01
  0
LINE
  8
0
 62
7
 10
-1.80250031E+02
 20
6.13694342E+01
 11
-1.80250031E+02
 21
7.53694494E+01
  0
LINE
  8
0
 62
7
 10
-1.77250046E+02
 20
6.03694494E+01
 11
-1.70250061E+02
 21
6.03694494E+01
  0
LINE
  8
0
 62
7
 10
-1.77250046E+02
 20
7.22424505E+01
 11
-1.77250046E+02
 21
7.63694342E+01
  0
LINE
  8
0
 62
7
 10
-1.73250046E+02
 20
6.44964788E+01
 11
-1.73250046E+02
 21
7.22424505E+01
  0
LINE
  8
0
 62
7
 10
-2.04250031E+02
 20
6.28694189E+01
 11
-2.04250031E+02
 21
7.38694494E+01
  0
LINE
  8
0
 62
7
 10
-2.02750031E+02
 20
7.53694494E+01
 11
-1.97749969E+02
 21
7.53694494E+01
  0
LINE
  8
0
 62
7
 10
-2.02750031E+02
 20
6.13694342E+01
 11
-1.97749969E+02
 21
6.13694342E+01
  0
LINE
  8
0
 62
2
 10
-2.03569977E+02
 20
7.45494573E+01
 11
-1.97749969E+02
 21
7.45494573E+01
  0
LINE
  8
0
 62
2
 10
-2.03569977E+02
 20
6.21894262E+01
 11
-1.97749969E+02
 21
6.21894262E+01
  0
LINE
  8
0
 62
7
 10
-2.02750031E+02
 20
7.53694494E+01
 11
-2.02750031E+02
 21
6.13694342E+01
  0
LINE
  8
0
 62
7
 10
-1.83250031E+02
 20
7.53694494E+01
 11
-1.83250031E+02
 21
6.13694342E+01
  0
LINE
  8
0
 62
7
 10
-2.04249924E+02
 20
7.38693605E+01
 11
-2.02749978E+02
 21
7.53693526E+01
  0
LINE
  8
0
 62
7
 10
-2.04250025E+02
 20
6.28694285E+01
 11
-2.02750012E+02
 21
6.13694162E+01
  0
LINE
  8
0
 62
7
 10
-1.77250031E+02
 20
7.22424505E+01
 11
-1.73250046E+02
 21
7.22424505E+01
  0
LINE
  8
0
 62
7
 10
-1.77250031E+02
 20
6.44964788E+01
 11
-1.73250046E+02
 21
6.44964788E+01
  0
LINE
  8
0
 62
2
 10
-1.78634645E+02
 20
6.62840029E+01
 11
-1.73250026E+02
 21
7.22424466E+01
  0
LINE
  8
0
 62
2
 10
-1.78634652E+02
 20
7.04549258E+01
 11
-1.73250038E+02
 21
6.44964878E+01
  0
LINE
  8
0
 62
7
 10
-1.77250046E+02
 20
7.63694799E+01
 11
-1.70250061E+02
 21
7.63694799E+01
  0
LINE
  8
0
 62
7
 10
-1.80250043E+02
 20
6.83694609E+01
 11
-1.77250042E+02
 21
7.22424479E+01
  0
LINE
  8
0
 62
7
 10
-1.77250049E+02
 20
7.63694843E+01
 11
-1.80250054E+02
 21
7.53694521E+01
  0
LINE
  8
0
 62
7
 10
-1.80250034E+02
 20
6.83694501E+01
 11
-1.77250040E+02
 21
6.44964721E+01
  0
LINE
  8
0
 62
7
 10
-1.80250009E+02
 20
6.13694233E+01
 11
-1.77250019E+02
 21
6.03694419E+01
  0
LINE
  8
0
 62
7
 10
-1.83250031E+02
 20
7.45494573E+01
 11
-1.80250031E+02
 21
7.45494573E+01
  0
LINE
  8
0
 62
7
 10
-1.83250031E+02
 20
6.21894262E+01
 11
-1.80250031E+02
 21
6.21894262E+01
  0
ARC
  8
0
 62
7
 10
-1.56750031E+02
 20
5.28694647E+01
 40
5.00000000E-01
 50
1.79999909E+02
 51
2.69999891E+02
  0
ARC
  8
0
 62
7
 10
-1.56750031E+02
 20
8.38694494E+01
 40
5.00000000E-01
 50
8.99999274E+01
 51
1.79999909E+02
  0
CIRCLE
  8
0
  6
DASHED
 62
7
 10
6.75000000E+00
 20
6.83694647E+01
 40
1.95000000E+01
  0
CIRCLE
  8
0
  6
DASHED
 62
7
 10
1.77500000E+01
 20
5.73694647E+01
 40
3.75000000E+00
  0
CIRCLE
  8
0
  6
DASHED
 62
7
 10
-4.24998474E+00
 20
5.73694647E+01
 40
3.75000000E+00
  0
CIRCLE
  8
0
  6
DASHED
 62
7
 10
1.77500000E+01
 20
7.93694647E+01
 40
3.75000000E+00
  0
CIRCLE
  8
0
  6
DASHED
 62
7
 10
-4.24998474E+00
 20
7.93694647E+01
 40
3.75000000E+00
  0
CIRCLE
  8
0
  6
DASHED
 62
7
 10
6.75000000E+00
 20
6.83694647E+01
 40
2.00000000E+00
  0
CIRCLE
  8
0
  6
DASHED
 62
2
 10
6.75000000E+00
 20
6.83694647E+01
 40
2.50000000E+00
  0
ARC
  8
0
 62
7
 10
-1.69750092E+02
 20
5.38694647E+01
 40
5.00000000E-01
 50
1.79999977E+02
 51
2.69999974E+02
  0
ARC
  8
0
 62
7
 10
-1.65000046E+02
 20
5.33608663E+01
 40
2.50000000E-01
 50
1.79999977E+02
 51
2.67999192E+02
  0
ARC
  8
0
 62
7
 10
-1.65000046E+02
 20
8.33780706E+01
 40
2.50000000E-01
 50
9.20007356E+01
 51
1.79999964E+02
  0
ARC
  8
0
 62
7
 10
-1.69750092E+02
 20
8.28694647E+01
 40
5.00000000E-01
 50
8.99999818E+01
 51
1.79999964E+02
  0
ARC
  8
0
 62
7
 10
-1.80250031E+02
 20
6.83694647E+01
 40
8.00000000E+00
 50
3.31044960E+02
 51
2.89550399E+01
  0
LINE
  8
0
 62
4
 10
-1.96767489E+02
 20
8.10711706E+01
 11
-1.90732450E+02
 21
8.10711706E+01
  0
LINE
  8
0
 62
4
 10
-1.96767489E+02
 20
7.47203176E+01
 11
-1.90732450E+02
 21
7.47203176E+01
  0
LINE
  8
0
 62
4
 10
-1.96767489E+02
 20
6.20186117E+01
 11
-1.90732450E+02
 21
6.20186117E+01
  0
LINE
  8
0
 62
4
 10
-1.97749969E+02
 20
5.73694647E+01
 11
-1.97749969E+02
 21
7.93694647E+01
  0
LINE
  8
0
 62
4
 10
-1.89749969E+02
 20
5.73694647E+01
 11
-1.89749969E+02
 21
7.93694647E+01
  0
LINE
  8
0
 62
4
 10
-1.97749970E+02
 20
7.93694646E+01
 11
-1.96767489E+02
 21
8.10711705E+01
  0
LINE
  8
0
 62
4
 10
-1.89749969E+02
 20
7.93694647E+01
 11
-1.90732450E+02
 21
8.10711707E+01
  0
LINE
  8
0
 62
4
 10
-1.97749970E+02
 20
5.73694647E+01
 11
-1.96767489E+02
 21
5.56677588E+01
  0
LINE
  8
0
 62
4
 10
-1.89749969E+02
 20
5.73694647E+01
 11
-1.90732450E+02
 21
5.56677586E+01
  0
LINE
  8
0
 62
4
 10
-1.96767489E+02
 20
5.56677587E+01
 11
-1.90732450E+02
 21
5.56677587E+01
  0
ARC
  8
0
 62
4
 10
-1.92127159E+02
 20
7.78957441E+01
 40
5.62281003E+00
 50
1.45615752E+02
 51
2.14384247E+02
  0
ARC
  8
0
 62
4
 10
-1.76732450E+02
 20
6.83694646E+01
 40
2.10175199E+01
 50
1.62412046E+02
 51
1.97587953E+02
  0
ARC
  8
0
 62
4
 10
-1.92127159E+02
 20
5.88431852E+01
 40
5.62281017E+00
 50
1.45615753E+02
 51
2.14384247E+02
  0
ARC
  8
0
 62
4
 10
-1.95372780E+02
 20
7.78957441E+01
 40
5.62281003E+00
 50
3.25615753E+02
 51
3.43842476E+01
  0
ARC
  8
0
 62
4
 10
-2.10767489E+02
 20
6.83694646E+01
 40
2.10175199E+01
 50
3.42412047E+02
 51
1.75879537E+01
  0
ARC
  8
0
 62
4
 10
-1.95372780E+02
 20
5.88431852E+01
 40
5.62281017E+00
 50
3.25615753E+02
 51
3.43842467E+01
  0
LINE
  8
0
 62
7
 10
-1.89749969E+02
 20
7.53694494E+01
 11
-1.83250031E+02
 21
7.53694494E+01
  0
LINE
  8
0
 62
7
 10
-1.89749969E+02
 20
6.13694342E+01
 11
-1.83250031E+02
 21
6.13694342E+01
  0
LINE
  8
0
 62
2
 10
-1.89749969E+02
 20
7.45494573E+01
 11
-1.83250031E+02
 21
7.45494573E+01
  0
LINE
  8
0
 62
2
 10
-1.89749969E+02
 20
6.21894262E+01
 11
-1.83250031E+02
 21
6.21894262E+01
  0
LINE
  8
0
 62
4
 10
-8.37500000E+01
 20
9.53593157E+01
 11
-8.37500000E+01
 21
1.06875902E+02
  0
LINE
  8
0
 62
6
 10
-6.30178881E+01
 20
9.68593157E+01
 11
-6.64819897E+01
 21
9.08593157E+01
  0
LINE
  8
0
 62
6
 10
-7.54820508E+01
 20
9.08593156E+01
 11
-7.20179492E+01
 21
9.68593156E+01
  0
LINE
  8
0
 62
4
 10
-5.47499390E+01
 20
9.53593157E+01
 11
-6.38839136E+01
 21
9.53593157E+01
  0
LINE
  8
0
  6
CENTER
 62
6
 10
-1.97499390E+01
 20
9.38593157E+01
 11
-6.67499390E+01
 21
9.38593157E+01
  0
LINE
  8
0
 62
4
 10
-5.47499390E+01
 20
9.23593157E+01
 11
-6.56159644E+01
 21
9.23593157E+01
  0
LINE
  8
0
 62
4
 10
-9.02500000E+01
 20
9.23593157E+01
 11
-7.46160254E+01
 21
9.23593157E+01
  0
LINE
  8
0
  6
CENTER
 62
6
 10
-1.18750000E+02
 20
9.38593157E+01
 11
-7.17500000E+01
 21
9.38593157E+01
  0
LINE
  8
0
 62
4
 10
-9.02500000E+01
 20
9.53593157E+01
 11
-7.28839746E+01
 21
9.53593157E+01
  0
LINE
  8
0
 62
4
 10
-2.32500000E+01
 20
9.51683709E+01
 11
-2.32500000E+01
 21
9.25444682E+01
  0
LINE
  8
0
 62
4
 10
-2.32500000E+01
 20
9.25444682E+01
 11
-2.47500000E+01
 21
9.15424038E+01
  0
LINE
  8
0
 62
4
 10
-2.32500000E+01
 20
9.29377813E+01
 11
-2.47500000E+01
 21
9.22369965E+01
  0
LINE
  8
0
 62
4
 10
-2.47500000E+01
 20
9.61762276E+01
 11
-2.32500000E+01
 21
9.51683709E+01
  0
LINE
  8
0
 62
4
 10
-9.58127552E+01
 20
9.61762276E+01
 11
-9.02500000E+01
 21
9.61762276E+01
  0
LINE
  8
0
 62
4
 10
-9.54128770E+01
 20
9.66339018E+01
 11
-8.37500000E+01
 21
9.66339018E+01
  0
LINE
  8
0
  6
CENTER
 62
6
 10
-8.87500000E+01
 20
1.02444268E+02
 11
-9.37500000E+01
 21
1.02444268E+02
  0
LINE
  8
0
  6
CENTER
 62
6
 10
-9.12500000E+01
 20
1.04944268E+02
 11
-9.12500000E+01
 21
9.99442675E+01
  0
LINE
  8
0
  6
CENTER
 62
6
 10
-9.62500000E+01
 20
9.89974404E+01
 11
-1.01250000E+02
 21
9.89974404E+01
  0
LINE
  8
0
  6
CENTER
 62
6
 10
-9.87500000E+01
 20
1.01497440E+02
 11
-9.87500000E+01
 21
9.64974404E+01
  0
LINE
  8
0
  6
CENTER
 62
6
 10
-1.03750000E+02
 20
1.02444268E+02
 11
-1.08750000E+02
 21
1.02444268E+02
  0
LINE
  8
0
  6
CENTER
 62
6
 10
-1.06250000E+02
 20
1.04944268E+02
 11
-1.06250000E+02
 21
9.99442675E+01
  0
POLYLINE
  8
0
 62
4
 66
1
  0
VERTEX
  8
0
 62
4
 10
-1.02900000E+02
 20
9.90634267E+01
  0
VERTEX
  8
0
 62
4
 10
-1.02883293E+02
 20
9.86970751E+01
  0
VERTEX
  8
0
 62
4
 10
-1.02833308E+02
 20
9.83336732E+01
  0
VERTEX
  8
0
 62
4
 10
-1.02750446E+02
 20
9.79761468E+01
  0
VERTEX
  8
0
 62
4
 10
-1.02635375E+02
 20
9.76273746E+01
  0
VERTEX
  8
0
 62
4
 10
-1.02489021E+02
 20
9.72901646E+01
  0
VERTEX
  8
0
 62
4
 10
-1.02312563E+02
 20
9.69672319E+01
  0
VERTEX
  8
0
 62
4
 10
-1.02107421E+02
 20
9.66611765E+01
  0
VERTEX
  8
0
 62
4
 10
-1.01875247E+02
 20
9.63744626E+01
  0
VERTEX
  8
0
 62
4
 10
-1.01617910E+02
 20
9.61093987E+01
  0
VERTEX
  8
0
 62
4
 10
-1.01337483E+02
 20
9.58681188E+01
  0
VERTEX
  8
0
 62
4
 10
-1.01036222E+02
 20
9.56525657E+01
  0
VERTEX
  8
0
 62
4
 10
-1.00716555E+02
 20
9.54644749E+01
  0
VERTEX
  8
0
 62
4
 10
-1.00381054E+02
 20
9.53053607E+01
  0
VERTEX
  8
0
 62
4
 10
-1.00032421E+02
 20
9.51765042E+01
  0
VERTEX
  8
0
 62
4
 10
-9.96734619E+01
 20
9.50789429E+01
  0
VERTEX
  8
0
 62
4
 10
-9.93070681E+01
 20
9.50134624E+01
  0
VERTEX
  8
0
 62
4
 10
-9.89361891E+01
 20
9.49805898E+01
  0
VERTEX
  8
0
 62
4
 10
-9.85638110E+01
 20
9.49805898E+01
  0
VERTEX
  8
0
 62
4
 10
-9.81929320E+01
 20
9.50134624E+01
  0
VERTEX
  8
0
 62
4
 10
-9.78265381E+01
 20
9.50789429E+01
  0
VERTEX
  8
0
 62
4
 10
-9.74675795E+01
 20
9.51765042E+01
  0
VERTEX
  8
0
 62
4
 10
-9.71189461E+01
 20
9.53053607E+01
  0
VERTEX
  8
0
 62
4
 10
-9.67834451E+01
 20
9.54644749E+01
  0
VERTEX
  8
0
 62
4
 10
-9.64637775E+01
 20
9.56525657E+01
  0
VERTEX
  8
0
 62
4
 10
-9.61625173E+01
 20
9.58681188E+01
  0
VERTEX
  8
0
 62
4
 10
-9.58820900E+01
 20
9.61093986E+01
  0
VERTEX
  8
0
 62
4
 10
-9.56247534E+01
 20
9.63744626E+01
  0
VERTEX
  8
0
 62
4
 10
-9.53925795E+01
 20
9.66611765E+01
  0
VERTEX
  8
0
 62
4
 10
-9.51874375E+01
 20
9.69672319E+01
  0
VERTEX
  8
0
 62
4
 10
-9.50109792E+01
 20
9.72901646E+01
  0
VERTEX
  8
0
 62
4
 10
-9.48646253E+01
 20
9.76273746E+01
  0
VERTEX
  8
0
 62
4
 10
-9.47495541E+01
 20
9.79761468E+01
  0
VERTEX
  8
0
 62
4
 10
-9.46666922E+01
 20
9.83336732E+01
  0
VERTEX
  8
0
 62
4
 10
-9.46167067E+01
 20
9.86970751E+01
  0
VERTEX
  8
0
 62
4
 10
-9.46000000E+01
 20
9.90634267E+01
  0
SEQEND
  8
0
  0
POLYLINE
  8
0
 62
4
 66
1
  0
VERTEX
  8
0
 62
4
 10
-9.46000000E+01
 20
9.93690475E+01
  0
VERTEX
  8
0
 62
4
 10
-9.46157920E+01
 20
9.97252489E+01
  0
VERTEX
  8
0
 62
4
 10
-9.46630478E+01
 20
1.00078739E+02
  0
VERTEX
  8
0
 62
4
 10
-9.47414078E+01
 20
1.00426829E+02
  0
VERTEX
  8
0
 62
4
 10
-9.48502756E+01
 20
1.00766867E+02
  0
VERTEX
  8
0
 62
4
 10
-9.49888227E+01
 20
1.01096268E+02
  0
VERTEX
  8
0
 62
4
 10
-9.51559946E+01
 20
1.01412524E+02
  0
VERTEX
  8
0
 62
4
 10
-9.53505190E+01
 20
1.01713227E+02
  0
VERTEX
  8
0
 62
4
 10
-9.55709156E+01
 20
1.01996090E+02
  0
VERTEX
  8
0
 62
4
 10
-9.58155069E+01
 20
1.02258959E+02
  0
VERTEX
  8
0
 62
4
 10
-9.60824314E+01
 20
1.02499835E+02
  0
VERTEX
  8
0
 62
4
 10
-9.63696578E+01
 20
1.02716883E+02
  0
VERTEX
  8
0
 62
4
 10
-9.66750000E+01
 20
1.02908452E+02
  0
VERTEX
  8
0
 62
4
 10
-9.69961342E+01
 20
1.03073084E+02
  0
VERTEX
  8
0
 62
4
 10
-9.73306164E+01
 20
1.03209526E+02
  0
VERTEX
  8
0
 62
4
 10
-9.76759010E+01
 20
1.03316740E+02
  0
VERTEX
  8
0
 62
4
 10
-9.80293601E+01
 20
1.03393910E+02
  0
VERTEX
  8
0
 62
4
 10
-9.83883037E+01
 20
1.03440448E+02
  0
VERTEX
  8
0
 62
4
 10
-9.87500000E+01
 20
1.03456000E+02
  0
VERTEX
  8
0
 62
4
 10
-9.91116963E+01
 20
1.03440448E+02
  0
VERTEX
  8
0
 62
4
 10
-9.94706399E+01
 20
1.03393910E+02
  0
VERTEX
  8
0
 62
4
 10
-9.98240990E+01
 20
1.03316740E+02
  0
VERTEX
  8
0
 62
4
 10
-1.00169384E+02
 20
1.03209526E+02
  0
VERTEX
  8
0
 62
4
 10
-1.00503866E+02
 20
1.03073084E+02
  0
VERTEX
  8
0
 62
4
 10
-1.00825000E+02
 20
1.02908452E+02
  0
VERTEX
  8
0
 62
4
 10
-1.01130342E+02
 20
1.02716883E+02
  0
VERTEX
  8
0
 62
4
 10
-1.01417569E+02
 20
1.02499835E+02
  0
VERTEX
  8
0
 62
4
 10
-1.01684493E+02
 20
1.02258959E+02
  0
VERTEX
  8
0
 62
4
 10
-1.01929084E+02
 20
1.01996090E+02
  0
VERTEX
  8
0
 62
4
 10
-1.02149481E+02
 20
1.01713227E+02
  0
VERTEX
  8
0
 62
4
 10
-1.02344005E+02
 20
1.01412524E+02
  0
VERTEX
  8
0
 62
4
 10
-1.02511177E+02
 20
1.01096268E+02
  0
VERTEX
  8
0
 62
4
 10
-1.02649724E+02
 20
1.00766867E+02
  0
VERTEX
  8
0
 62
4
 10
-1.02758592E+02
 20
1.00426829E+02
  0
VERTEX
  8
0
 62
4
 10
-1.02836952E+02
 20
1.00078739E+02
  0
VERTEX
  8
0
 62
4
 10
-1.02884208E+02
 20
9.97252488E+01
  0
VERTEX
  8
0
 62
4
 10
-1.02900000E+02
 20
9.93690475E+01
  0
VERTEX
  8
0
 62
4
 10
-1.02884208E+02
 20
9.90128461E+01
  0
VERTEX
  8
0
 62
4
 10
-1.02836952E+02
 20
9.86593557E+01
  0
VERTEX
  8
0
 62
4
 10
-1.02758592E+02
 20
9.83112664E+01
  0
VERTEX
  8
0
 62
4
 10
-1.02649724E+02
 20
9.79712275E+01
  0
VERTEX
  8
0
 62
4
 10
-1.02511177E+02
 20
9.76418269E+01
  0
VERTEX
  8
0
 62
4
 10
-1.02344005E+02
 20
9.73255714E+01
  0
VERTEX
  8
0
 62
4
 10
-1.02149481E+02
 20
9.70248680E+01
  0
VERTEX
  8
0
 62
4
 10
-1.01929084E+02
 20
9.67420053E+01
  0
VERTEX
  8
0
 62
4
 10
-1.01684493E+02
 20
9.64791359E+01
  0
VERTEX
  8
0
 62
4
 10
-1.01417569E+02
 20
9.62382605E+01
  0
VERTEX
  8
0
 62
4
 10
-1.01130342E+02
 20
9.60212123E+01
  0
VERTEX
  8
0
 62
4
 10
-1.00825000E+02
 20
9.58296431E+01
  0
VERTEX
  8
0
 62
4
 10
-1.00503866E+02
 20
9.56650109E+01
  0
VERTEX
  8
0
 62
4
 10
-1.00169384E+02
 20
9.55285687E+01
  0
VERTEX
  8
0
 62
4
 10
-9.98240990E+01
 20
9.54213548E+01
  0
VERTEX
  8
0
 62
4
 10
-9.94706399E+01
 20
9.53441853E+01
  0
VERTEX
  8
0
 62
4
 10
-9.91116963E+01
 20
9.52976474E+01
  0
VERTEX
  8
0
 62
4
 10
-9.87500000E+01
 20
9.52820953E+01
  0
VERTEX
  8
0
 62
4
 10
-9.83883037E+01
 20
9.52976474E+01
  0
VERTEX
  8
0
 62
4
 10
-9.80293601E+01
 20
9.53441853E+01
  0
VERTEX
  8
0
 62
4
 10
-9.76759010E+01
 20
9.54213548E+01
  0
VERTEX
  8
0
 62
4
 10
-9.73306164E+01
 20
9.55285687E+01
  0
VERTEX
  8
0
 62
4
 10
-9.69961342E+01
 20
9.56650109E+01
  0
VERTEX
  8
0
 62
4
 10
-9.66750000E+01
 20
9.58296431E+01
  0
VERTEX
  8
0
 62
4
 10
-9.63696578E+01
 20
9.60212123E+01
  0
VERTEX
  8
0
 62
4
 10
-9.60824314E+01
 20
9.62382605E+01
  0
VERTEX
  8
0
 62
4
 10
-9.58155069E+01
 20
9.64791359E+01
  0
VERTEX
  8
0
 62
4
 10
-9.55709156E+01
 20
9.67420053E+01
  0
VERTEX
  8
0
 62
4
 10
-9.53505190E+01
 20
9.70248680E+01
  0
VERTEX
  8
0
 62
4
 10
-9.51559946E+01
 20
9.73255714E+01
  0
VERTEX
  8
0
 62
4
 10
-9.49888227E+01
 20
9.76418269E+01
  0
VERTEX
  8
0
 62
4
 10
-9.48502756E+01
 20
9.79712275E+01
  0
VERTEX
  8
0
 62
4
 10
-9.47414078E+01
 20
9.83112665E+01
  0
VERTEX
  8
0
 62
4
 10
-9.46630478E+01
 20
9.86593557E+01
  0
VERTEX
  8
0
 62
4
 10
-9.46157920E+01
 20
9.90128462E+01
  0
VERTEX
  8
0
 62
4
 10
-9.46000000E+01
 20
9.93690475E+01
  0
SEQEND
  8
0
  0
LINE
  8
0
 62
4
 10
-1.02900000E+02
 20
9.90634267E+01
 11
-1.02900000E+02
 21
9.93690475E+01
  0
LINE
  8
0
 62
4
 10
-9.46000000E+01
 20
9.90634267E+01
 11
-9.46000000E+01
 21
9.93690475E+01
  0
ARC
  8
0
 62
4
 10
3.36228232E+01
 20
-3.49304455E+01
 40
1.88658103E+02
 50
1.33811210E+02
 51
1.35318357E+02
  0
ARC
  8
0
 62
4
 10
-2.31122535E+02
 20
-3.49301524E+01
 40
1.88657692E+02
 50
4.46816411E+01
 51
4.61887918E+01
  0
LINE
  8
0
 62
4
 10
-9.50500000E+01
 20
1.02444268E+02
 11
-9.50500000E+01
 21
1.02617916E+02
  0
POLYLINE
  8
0
 62
4
 66
1
  0
VERTEX
  8
0
 62
4
 10
-9.50500000E+01
 20
1.02444268E+02
  0
VERTEX
  8
0
 62
4
 10
-9.50347023E+01
 20
1.02108814E+02
  0
VERTEX
  8
0
 62
4
 10
-9.49889325E+01
 20
1.01776060E+02
  0
VERTEX
  8
0
 62
4
 10
-9.49130589E+01
 20
1.01448686E+02
  0
VERTEX
  8
0
 62
4
 10
-9.48076925E+01
 20
1.01129329E+02
  0
VERTEX
  8
0
 62
4
 10
-9.46736817E+01
 20
1.00820558E+02
  0
VERTEX
  8
0
 62
4
 10
-9.45121054E+01
 20
1.00524861E+02
  0
VERTEX
  8
0
 62
4
 10
-9.43242646E+01
 20
1.00244617E+02
  0
VERTEX
  8
0
 62
4
 10
-9.41116716E+01
 20
9.99820840E+01
  0
VERTEX
  8
0
 62
4
 10
-9.38760381E+01
 20
9.97393749E+01
  0
VERTEX
  8
0
 62
4
 10
-9.36192613E+01
 20
9.95184439E+01
  0
VERTEX
  8
0
 62
4
 10
-9.33434086E+01
 20
9.93210700E+01
  0
VERTEX
  8
0
 62
4
 10
-9.30507009E+01
 20
9.91488422E+01
  0
VERTEX
  8
0
 62
4
 10
-9.27434951E+01
 20
9.90031473E+01
  0
VERTEX
  8
0
 62
4
 10
-9.24242646E+01
 20
9.88851583E+01
  0
VERTEX
  8
0
 62
4
 10
-9.20955796E+01
 20
9.87958251E+01
  0
VERTEX
  8
0
 62
4
 10
-9.17600864E+01
 20
9.87358670E+01
  0
VERTEX
  8
0
 62
4
 10
-9.14204864E+01
 20
9.87057668E+01
  0
VERTEX
  8
0
 62
4
 10
-9.10795137E+01
 20
9.87057668E+01
  0
VERTEX
  8
0
 62
4
 10
-9.07399136E+01
 20
9.87358670E+01
  0
VERTEX
  8
0
 62
4
 10
-9.04044205E+01
 20
9.87958250E+01
  0
VERTEX
  8
0
 62
4
 10
-9.00757354E+01
 20
9.88851582E+01
  0
VERTEX
  8
0
 62
4
 10
-8.97565049E+01
 20
9.90031473E+01
  0
VERTEX
  8
0
 62
4
 10
-8.94492991E+01
 20
9.91488422E+01
  0
VERTEX
  8
0
 62
4
 10
-8.91565915E+01
 20
9.93210700E+01
  0
VERTEX
  8
0
 62
4
 10
-8.88807388E+01
 20
9.95184439E+01
  0
VERTEX
  8
0
 62
4
 10
-8.86239619E+01
 20
9.97393748E+01
  0
VERTEX
  8
0
 62
4
 10
-8.83883284E+01
 20
9.99820840E+01
  0
VERTEX
  8
0
 62
4
 10
-8.81757354E+01
 20
1.00244617E+02
  0
VERTEX
  8
0
 62
4
 10
-8.79878946E+01
 20
1.00524861E+02
  0
VERTEX
  8
0
 62
4
 10
-8.78263183E+01
 20
1.00820558E+02
  0
VERTEX
  8
0
 62
4
 10
-8.76923075E+01
 20
1.01129329E+02
  0
VERTEX
  8
0
 62
4
 10
-8.75869411E+01
 20
1.01448686E+02
  0
VERTEX
  8
0
 62
4
 10
-8.75110675E+01
 20
1.01776060E+02
  0
VERTEX
  8
0
 62
4
 10
-8.74652977E+01
 20
1.02108814E+02
  0
VERTEX
  8
0
 62
4
 10
-8.74500000E+01
 20
1.02444268E+02
  0
SEQEND
  8
0
  0
POLYLINE
  8
0
 62
4
 66
1
  0
VERTEX
  8
0
 62
4
 10
-9.50500000E+01
 20
1.02617916E+02
  0
VERTEX
  8
0
 62
4
 10
-9.50355399E+01
 20
1.02291756E+02
  0
VERTEX
  8
0
 62
4
 10
-9.49922695E+01
 20
1.01968078E+02
  0
VERTEX
  8
0
 62
4
 10
-9.49205182E+01
 20
1.01649345E+02
  0
VERTEX
  8
0
 62
4
 10
-9.48208320E+01
 20
1.01337984E+02
  0
VERTEX
  8
0
 62
4
 10
-9.46939696E+01
 20
1.01036365E+02
  0
VERTEX
  8
0
 62
4
 10
-9.45408966E+01
 20
1.00746781E+02
  0
VERTEX
  8
0
 62
4
 10
-9.43627778E+01
 20
1.00471438E+02
  0
VERTEX
  8
0
 62
4
 10
-9.41609689E+01
 20
1.00212432E+02
  0
VERTEX
  8
0
 62
4
 10
-9.39370058E+01
 20
9.99717319E+01
  0
VERTEX
  8
0
 62
4
 10
-9.36925929E+01
 20
9.97511713E+01
  0
VERTEX
  8
0
 62
4
 10
-9.34295905E+01
 20
9.95524283E+01
  0
VERTEX
  8
0
 62
4
 10
-9.31500000E+01
 20
9.93770156E+01
  0
VERTEX
  8
0
 62
4
 10
-9.28559494E+01
 20
9.92262681E+01
  0
VERTEX
  8
0
 62
4
 10
-9.25496766E+01
 20
9.91013330E+01
  0
VERTEX
  8
0
 62
4
 10
-9.22335124E+01
 20
9.90031613E+01
  0
VERTEX
  8
0
 62
4
 10
-9.19098631E+01
 20
9.89325000E+01
  0
VERTEX
  8
0
 62
4
 10
-9.15811918E+01
 20
9.88898870E+01
  0
VERTEX
  8
0
 62
4
 10
-9.12500000E+01
 20
9.88756465E+01
  0
VERTEX
  8
0
 62
4
 10
-9.09188082E+01
 20
9.88898870E+01
  0
VERTEX
  8
0
 62
4
 10
-9.05901369E+01
 20
9.89325000E+01
  0
VERTEX
  8
0
 62
4
 10
-9.02664876E+01
 20
9.90031613E+01
  0
VERTEX
  8
0
 62
4
 10
-8.99503235E+01
 20
9.91013330E+01
  0
VERTEX
  8
0
 62
4
 10
-8.96440506E+01
 20
9.92262680E+01
  0
VERTEX
  8
0
 62
4
 10
-8.93500000E+01
 20
9.93770156E+01
  0
VERTEX
  8
0
 62
4
 10
-8.90704095E+01
 20
9.95524283E+01
  0
VERTEX
  8
0
 62
4
 10
-8.88074071E+01
 20
9.97511713E+01
  0
VERTEX
  8
0
 62
4
 10
-8.85629942E+01
 20
9.99717319E+01
  0
VERTEX
  8
0
 62
4
 10
-8.83390311E+01
 20
1.00212432E+02
  0
VERTEX
  8
0
 62
4
 10
-8.81372222E+01
 20
1.00471438E+02
  0
VERTEX
  8
0
 62
4
 10
-8.79591034E+01
 20
1.00746781E+02
  0
VERTEX
  8
0
 62
4
 10
-8.78060304E+01
 20
1.01036365E+02
  0
VERTEX
  8
0
 62
4
 10
-8.76791680E+01
 20
1.01337984E+02
  0
VERTEX
  8
0
 62
4
 10
-8.75794818E+01
 20
1.01649345E+02
  0
VERTEX
  8
0
 62
4
 10
-8.75077305E+01
 20
1.01968078E+02
  0
VERTEX
  8
0
 62
4
 10
-8.74644601E+01
 20
1.02291756E+02
  0
VERTEX
  8
0
 62
4
 10
-8.74500000E+01
 20
1.02617916E+02
  0
VERTEX
  8
0
 62
4
 10
-8.74644601E+01
 20
1.02944076E+02
  0
VERTEX
  8
0
 62
4
 10
-8.75077305E+01
 20
1.03267754E+02
  0
VERTEX
  8
0
 62
4
 10
-8.75794818E+01
 20
1.03586487E+02
  0
VERTEX
  8
0
 62
4
 10
-8.76791680E+01
 20
1.03897848E+02
  0
VERTEX
  8
0
 62
4
 10
-8.78060304E+01
 20
1.04199467E+02
  0
VERTEX
  8
0
 62
4
 10
-8.79591034E+01
 20
1.04489051E+02
  0
VERTEX
  8
0
 62
4
 10
-8.81372222E+01
 20
1.04764394E+02
  0
VERTEX
  8
0
 62
4
 10
-8.83390311E+01
 20
1.05023400E+02
  0
VERTEX
  8
0
 62
4
 10
-8.85629942E+01
 20
1.05264100E+02
  0
VERTEX
  8
0
 62
4
 10
-8.88074071E+01
 20
1.05484661E+02
  0
VERTEX
  8
0
 62
4
 10
-8.90704095E+01
 20
1.05683404E+02
  0
VERTEX
  8
0
 62
4
 10
-8.93500000E+01
 20
1.05858816E+02
  0
VERTEX
  8
0
 62
4
 10
-8.96440506E+01
 20
1.06009564E+02
  0
VERTEX
  8
0
 62
4
 10
-8.99503234E+01
 20
1.06134499E+02
  0
VERTEX
  8
0
 62
4
 10
-9.02664876E+01
 20
1.06232671E+02
  0
VERTEX
  8
0
 62
4
 10
-9.05901369E+01
 20
1.06303332E+02
  0
VERTEX
  8
0
 62
4
 10
-9.09188082E+01
 20
1.06345945E+02
  0
VERTEX
  8
0
 62
4
 10
-9.12500000E+01
 20
1.06360185E+02
  0
VERTEX
  8
0
 62
4
 10
-9.15811918E+01
 20
1.06345945E+02
  0
VERTEX
  8
0
 62
4
 10
-9.19098631E+01
 20
1.06303332E+02
  0
VERTEX
  8
0
 62
4
 10
-9.22335124E+01
 20
1.06232671E+02
  0
VERTEX
  8
0
 62
4
 10
-9.25496766E+01
 20
1.06134499E+02
  0
VERTEX
  8
0
 62
4
 10
-9.28559494E+01
 20
1.06009564E+02
  0
VERTEX
  8
0
 62
4
 10
-9.31500000E+01
 20
1.05858816E+02
  0
VERTEX
  8
0
 62
4
 10
-9.34295905E+01
 20
1.05683404E+02
  0
VERTEX
  8
0
 62
4
 10
-9.36925929E+01
 20
1.05484661E+02
  0
VERTEX
  8
0
 62
4
 10
-9.39370058E+01
 20
1.05264100E+02
  0
VERTEX
  8
0
 62
4
 10
-9.41609689E+01
 20
1.05023400E+02
  0
VERTEX
  8
0
 62
4
 10
-9.43627778E+01
 20
1.04764394E+02
  0
VERTEX
  8
0
 62
4
 10
-9.45408966E+01
 20
1.04489051E+02
  0
VERTEX
  8
0
 62
4
 10
-9.46939696E+01
 20
1.04199467E+02
  0
VERTEX
  8
0
 62
4
 10
-9.48208320E+01
 20
1.03897848E+02
  0
VERTEX
  8
0
 62
4
 10
-9.49205182E+01
 20
1.03586487E+02
  0
VERTEX
  8
0
 62
4
 10
-9.49922695E+01
 20
1.03267754E+02
  0
VERTEX
  8
0
 62
4
 10
-9.50355399E+01
 20
1.02944076E+02
  0
VERTEX
  8
0
 62
4
 10
-9.50500000E+01
 20
1.02617916E+02
  0
SEQEND
  8
0
  0
LINE
  8
0
 62
4
 10
-8.74500000E+01
 20
1.02444268E+02
 11
-8.74500000E+01
 21
1.02617916E+02
  0
LINE
  8
0
 62
4
 10
-9.46500000E+01
 20
1.02617916E+02
 11
-9.46500000E+01
 21
1.02814278E+02
  0
POLYLINE
  8
0
 62
4
 66
1
  0
VERTEX
  8
0
 62
4
 10
-9.46500000E+01
 20
1.02617916E+02
  0
VERTEX
  8
0
 62
4
 10
-9.46363126E+01
 20
1.02317773E+02
  0
VERTEX
  8
0
 62
4
 10
-9.45953606E+01
 20
1.02020046E+02
  0
VERTEX
  8
0
 62
4
 10
-9.45274738E+01
 20
1.01727133E+02
  0
VERTEX
  8
0
 62
4
 10
-9.44331986E+01
 20
1.01441391E+02
  0
VERTEX
  8
0
 62
4
 10
-9.43132942E+01
 20
1.01165123E+02
  0
VERTEX
  8
0
 62
4
 10
-9.41687259E+01
 20
1.00900552E+02
  0
VERTEX
  8
0
 62
4
 10
-9.40006578E+01
 20
1.00649807E+02
  0
VERTEX
  8
0
 62
4
 10
-9.38104430E+01
 20
1.00414909E+02
  0
VERTEX
  8
0
 62
4
 10
-9.35996130E+01
 20
1.00197748E+02
  0
VERTEX
  8
0
 62
4
 10
-9.33698654E+01
 20
1.00000073E+02
  0
VERTEX
  8
0
 62
4
 10
-9.31230498E+01
 20
9.98234757E+01
  0
VERTEX
  8
0
 62
4
 10
-9.28611535E+01
 20
9.96693772E+01
  0
VERTEX
  8
0
 62
4
 10
-9.25862851E+01
 20
9.95390185E+01
  0
VERTEX
  8
0
 62
4
 10
-9.23006578E+01
 20
9.94334494E+01
  0
VERTEX
  8
0
 62
4
 10
-9.20065712E+01
 20
9.93535197E+01
  0
VERTEX
  8
0
 62
4
 10
-9.17063931E+01
 20
9.92998730E+01
  0
VERTEX
  8
0
 62
4
 10
-9.14025404E+01
 20
9.92729412E+01
  0
VERTEX
  8
0
 62
4
 10
-9.10974596E+01
 20
9.92729412E+01
  0
VERTEX
  8
0
 62
4
 10
-9.07936069E+01
 20
9.92998730E+01
  0
VERTEX
  8
0
 62
4
 10
-9.04934288E+01
 20
9.93535197E+01
  0
VERTEX
  8
0
 62
4
 10
-9.01993422E+01
 20
9.94334494E+01
  0
VERTEX
  8
0
 62
4
 10
-8.99137149E+01
 20
9.95390185E+01
  0
VERTEX
  8
0
 62
4
 10
-8.96388466E+01
 20
9.96693771E+01
  0
VERTEX
  8
0
 62
4
 10
-8.93769503E+01
 20
9.98234757E+01
  0
VERTEX
  8
0
 62
4
 10
-8.91301347E+01
 20
1.00000073E+02
  0
VERTEX
  8
0
 62
4
 10
-8.89003870E+01
 20
1.00197748E+02
  0
VERTEX
  8
0
 62
4
 10
-8.86895570E+01
 20
1.00414909E+02
  0
VERTEX
  8
0
 62
4
 10
-8.84993422E+01
 20
1.00649807E+02
  0
VERTEX
  8
0
 62
4
 10
-8.83312741E+01
 20
1.00900552E+02
  0
VERTEX
  8
0
 62
4
 10
-8.81867058E+01
 20
1.01165123E+02
  0
VERTEX
  8
0
 62
4
 10
-8.80668014E+01
 20
1.01441391E+02
  0
VERTEX
  8
0
 62
4
 10
-8.79725263E+01
 20
1.01727132E+02
  0
VERTEX
  8
0
 62
4
 10
-8.79046394E+01
 20
1.02020046E+02
  0
VERTEX
  8
0
 62
4
 10
-8.78636874E+01
 20
1.02317773E+02
  0
VERTEX
  8
0
 62
4
 10
-8.78500000E+01
 20
1.02617916E+02
  0
SEQEND
  8
0
  0
POLYLINE
  8
0
 62
4
 66
1
  0
VERTEX
  8
0
 62
4
 10
-9.46500000E+01
 20
1.02814278E+02
  0
VERTEX
  8
0
 62
4
 10
-9.46370620E+01
 20
1.02522450E+02
  0
VERTEX
  8
0
 62
4
 10
-9.45983464E+01
 20
1.02232844E+02
  0
VERTEX
  8
0
 62
4
 10
-9.45341478E+01
 20
1.01947662E+02
  0
VERTEX
  8
0
 62
4
 10
-9.44449549E+01
 20
1.01669076E+02
  0
VERTEX
  8
0
 62
4
 10
-9.43314465E+01
 20
1.01399206E+02
  0
VERTEX
  8
0
 62
4
 10
-9.41944864E+01
 20
1.01140105E+02
  0
VERTEX
  8
0
 62
4
 10
-9.40351170E+01
 20
1.00893745E+02
  0
VERTEX
  8
0
 62
4
 10
-9.38545511E+01
 20
1.00662002E+02
  0
VERTEX
  8
0
 62
4
 10
-9.36541631E+01
 20
1.00446639E+02
  0
VERTEX
  8
0
 62
4
 10
-9.34354779E+01
 20
1.00249296E+02
  0
VERTEX
  8
0
 62
4
 10
-9.32001599E+01
 20
1.00071473E+02
  0
VERTEX
  8
0
 62
4
 10
-9.29500000E+01
 20
9.99145247E+01
  0
VERTEX
  8
0
 62
4
 10
-9.26869021E+01
 20
9.97796454E+01
  0
VERTEX
  8
0
 62
4
 10
-9.24128685E+01
 20
9.96678614E+01
  0
VERTEX
  8
0
 62
4
 10
-9.21299848E+01
 20
9.95800235E+01
  0
VERTEX
  8
0
 62
4
 10
-9.18404038E+01
 20
9.95168003E+01
  0
VERTEX
  8
0
 62
4
 10
-9.15463295E+01
 20
9.94786728E+01
  0
VERTEX
  8
0
 62
4
 10
-9.12500000E+01
 20
9.94659314E+01
  0
VERTEX
  8
0
 62
4
 10
-9.09536705E+01
 20
9.94786728E+01
  0
VERTEX
  8
0
 62
4
 10
-9.06595962E+01
 20
9.95168003E+01
  0
VERTEX
  8
0
 62
4
 10
-9.03700152E+01
 20
9.95800235E+01
  0
VERTEX
  8
0
 62
4
 10
-9.00871315E+01
 20
9.96678614E+01
  0
VERTEX
  8
0
 62
4
 10
-8.98130979E+01
 20
9.97796454E+01
  0
VERTEX
  8
0
 62
4
 10
-8.95500000E+01
 20
9.99145247E+01
  0
VERTEX
  8
0
 62
4
 10
-8.92998401E+01
 20
1.00071473E+02
  0
VERTEX
  8
0
 62
4
 10
-8.90645221E+01
 20
1.00249296E+02
  0
VERTEX
  8
0
 62
4
 10
-8.88458369E+01
 20
1.00446639E+02
  0
VERTEX
  8
0
 62
4
 10
-8.86454489E+01
 20
1.00662002E+02
  0
VERTEX
  8
0
 62
4
 10
-8.84648830E+01
 20
1.00893745E+02
  0
VERTEX
  8
0
 62
4
 10
-8.83055136E+01
 20
1.01140105E+02
  0
VERTEX
  8
0
 62
4
 10
-8.81685535E+01
 20
1.01399206E+02
  0
VERTEX
  8
0
 62
4
 10
-8.80550451E+01
 20
1.01669076E+02
  0
VERTEX
  8
0
 62
4
 10
-8.79658522E+01
 20
1.01947662E+02
  0
VERTEX
  8
0
 62
4
 10
-8.79016536E+01
 20
1.02232844E+02
  0
VERTEX
  8
0
 62
4
 10
-8.78629380E+01
 20
1.02522450E+02
  0
VERTEX
  8
0
 62
4
 10
-8.78500000E+01
 20
1.02814278E+02
  0
VERTEX
  8
0
 62
4
 10
-8.78629380E+01
 20
1.03106106E+02
  0
VERTEX
  8
0
 62
4
 10
-8.79016536E+01
 20
1.03395712E+02
  0
VERTEX
  8
0
 62
4
 10
-8.79658522E+01
 20
1.03680894E+02
  0
VERTEX
  8
0
 62
4
 10
-8.80550451E+01
 20
1.03959480E+02
  0
VERTEX
  8
0
 62
4
 10
-8.81685535E+01
 20
1.04229350E+02
  0
VERTEX
  8
0
 62
4
 10
-8.83055136E+01
 20
1.04488451E+02
  0
VERTEX
  8
0
 62
4
 10
-8.84648830E+01
 20
1.04734811E+02
  0
VERTEX
  8
0
 62
4
 10
-8.86454489E+01
 20
1.04966554E+02
  0
VERTEX
  8
0
 62
4
 10
-8.88458369E+01
 20
1.05181917E+02
  0
VERTEX
  8
0
 62
4
 10
-8.90645221E+01
 20
1.05379260E+02
  0
VERTEX
  8
0
 62
4
 10
-8.92998401E+01
 20
1.05557083E+02
  0
VERTEX
  8
0
 62
4
 10
-8.95500000E+01
 20
1.05714031E+02
  0
VERTEX
  8
0
 62
4
 10
-8.98130979E+01
 20
1.05848911E+02
  0
VERTEX
  8
0
 62
4
 10
-9.00871315E+01
 20
1.05960695E+02
  0
VERTEX
  8
0
 62
4
 10
-9.03700152E+01
 20
1.06048533E+02
  0
VERTEX
  8
0
 62
4
 10
-9.06595962E+01
 20
1.06111756E+02
  0
VERTEX
  8
0
 62
4
 10
-9.09536705E+01
 20
1.06149883E+02
  0
VERTEX
  8
0
 62
4
 10
-9.12500000E+01
 20
1.06162625E+02
  0
VERTEX
  8
0
 62
4
 10
-9.15463295E+01
 20
1.06149883E+02
  0
VERTEX
  8
0
 62
4
 10
-9.18404038E+01
 20
1.06111756E+02
  0
VERTEX
  8
0
 62
4
 10
-9.21299848E+01
 20
1.06048533E+02
  0
VERTEX
  8
0
 62
4
 10
-9.24128685E+01
 20
1.05960695E+02
  0
VERTEX
  8
0
 62
4
 10
-9.26869021E+01
 20
1.05848911E+02
  0
VERTEX
  8
0
 62
4
 10
-9.29500000E+01
 20
1.05714031E+02
  0
VERTEX
  8
0
 62
4
 10
-9.32001599E+01
 20
1.05557083E+02
  0
VERTEX
  8
0
 62
4
 10
-9.34354779E+01
 20
1.05379260E+02
  0
VERTEX
  8
0
 62
4
 10
-9.36541631E+01
 20
1.05181917E+02
  0
VERTEX
  8
0
 62
4
 10
-9.38545511E+01
 20
1.04966554E+02
  0
VERTEX
  8
0
 62
4
 10
-9.40351170E+01
 20
1.04734811E+02
  0
VERTEX
  8
0
 62
4
 10
-9.41944864E+01
 20
1.04488451E+02
  0
VERTEX
  8
0
 62
4
 10
-9.43314465E+01
 20
1.04229350E+02
  0
VERTEX
  8
0
 62
4
 10
-9.44449549E+01
 20
1.03959480E+02
  0
VERTEX
  8
0
 62
4
 10
-9.45341478E+01
 20
1.03680894E+02
  0
VERTEX
  8
0
 62
4
 10
-9.45983464E+01
 20
1.03395712E+02
  0
VERTEX
  8
0
 62
4
 10
-9.46370620E+01
 20
1.03106106E+02
  0
VERTEX
  8
0
 62
4
 10
-9.46500000E+01
 20
1.02814278E+02
  0
SEQEND
  8
0
  0
LINE
  8
0
 62
4
 10
-8.78500000E+01
 20
1.02617916E+02
 11
-8.78500000E+01
 21
1.02814278E+02
  0
ARC
  8
0
 62
4
 10
3.99314687E+01
 20
-3.01934850E+01
 40
1.86971513E+02
 50
1.33801123E+02
 51
1.35321779E+02
  0
ARC
  8
0
 62
4
 10
-2.22431469E+02
 20
-3.01934850E+01
 40
1.86971513E+02
 50
4.46782203E+01
 51
4.61988768E+01
  0
LINE
  8
0
 62
4
 10
-1.13750000E+02
 20
9.21037861E+01
 11
-1.13750000E+02
 21
9.03694494E+01
  0
LINE
  8
0
 62
4
 10
-1.13750000E+02
 20
9.61762276E+01
 11
-1.13750000E+02
 21
9.21037861E+01
  0
LINE
  8
0
 62
4
 10
-1.13750000E+02
 20
9.66339018E+01
 11
-1.02087123E+02
 21
9.66339018E+01
  0
LINE
  8
0
 62
4
 10
-1.13750000E+02
 20
9.22369965E+01
 11
-9.02500000E+01
 21
9.22369965E+01
  0
LINE
  8
0
 62
4
 10
-1.13750000E+02
 20
9.61762276E+01
 11
-1.01687245E+02
 21
9.61762276E+01
  0
LINE
  8
0
 62
4
 10
-1.15250000E+02
 20
9.25444682E+01
 11
-1.13750000E+02
 21
9.15424038E+01
  0
LINE
  8
0
 62
4
 10
-1.15250000E+02
 20
9.29377813E+01
 11
-1.13750000E+02
 21
9.22369965E+01
  0
LINE
  8
0
 62
4
 10
-1.15250000E+02
 20
9.51683709E+01
 11
-1.15250000E+02
 21
9.25444682E+01
  0
LINE
  8
0
 62
4
 10
-1.13750000E+02
 20
9.61762276E+01
 11
-1.15250000E+02
 21
9.51683709E+01
  0
LINE
  8
0
 62
4
 10
-1.13750000E+02
 20
9.21037861E+01
 11
-8.37500000E+01
 21
9.21037861E+01
  0
LINE
  8
0
 62
4
 10
-1.13750000E+02
 20
9.11189784E+01
 11
-8.37500000E+01
 21
9.11189784E+01
  0
LINE
  8
0
 62
4
 10
-1.13750000E+02
 20
1.06875902E+02
 11
-8.37500000E+01
 21
1.06875902E+02
  0
POLYLINE
  8
0
 62
4
 66
1
  0
VERTEX
  8
0
 62
4
 10
-4.92500000E+01
 20
8.26996244E+01
  0
VERTEX
  8
0
 62
4
 10
-4.92580514E+01
 20
8.28761794E+01
  0
VERTEX
  8
0
 62
4
 10
-4.92821408E+01
 20
8.30513128E+01
  0
VERTEX
  8
0
 62
4
 10
-4.93220743E+01
 20
8.32236147E+01
  0
VERTEX
  8
0
 62
4
 10
-4.93775303E+01
 20
8.33916977E+01
  0
VERTEX
  8
0
 62
4
 10
-4.94480623E+01
 20
8.35542085E+01
  0
VERTEX
  8
0
 62
4
 10
-4.95331024E+01
 20
8.37098388E+01
  0
VERTEX
  8
0
 62
4
 10
-4.96319660E+01
 20
8.38573353E+01
  0
VERTEX
  8
0
 62
4
 10
-4.97438571E+01
 20
8.39955107E+01
  0
VERTEX
  8
0
 62
4
 10
-4.98678747E+01
 20
8.41232524E+01
  0
VERTEX
  8
0
 62
4
 10
-5.00030204E+01
 20
8.42395318E+01
  0
VERTEX
  8
0
 62
4
 10
-5.01482060E+01
 20
8.43434128E+01
  0
VERTEX
  8
0
 62
4
 10
-5.03022627E+01
 20
8.44340590E+01
  0
VERTEX
  8
0
 62
4
 10
-5.04639499E+01
 20
8.45107406E+01
  0
VERTEX
  8
0
 62
4
 10
-5.06319660E+01
 20
8.45728401E+01
  0
VERTEX
  8
0
 62
4
 10
-5.08049581E+01
 20
8.46198575E+01
  0
VERTEX
  8
0
 62
4
 10
-5.09815335E+01
 20
8.46514144E+01
  0
VERTEX
  8
0
 62
4
 10
-5.11602703E+01
 20
8.46672566E+01
  0
VERTEX
  8
0
 62
4
 10
-5.13397296E+01
 20
8.46672566E+01
  0
VERTEX
  8
0
 62
4
 10
-5.15184665E+01
 20
8.46514144E+01
  0
VERTEX
  8
0
 62
4
 10
-5.16950419E+01
 20
8.46198575E+01
  0
VERTEX
  8
0
 62
4
 10
-5.18680340E+01
 20
8.45728401E+01
  0
VERTEX
  8
0
 62
4
 10
-5.20360500E+01
 20
8.45107406E+01
  0
VERTEX
  8
0
 62
4
 10
-5.21977373E+01
 20
8.44340590E+01
  0
VERTEX
  8
0
 62
4
 10
-5.23517939E+01
 20
8.43434128E+01
  0
VERTEX
  8
0
 62
4
 10
-5.24969796E+01
 20
8.42395318E+01
  0
VERTEX
  8
0
 62
4
 10
-5.26321253E+01
 20
8.41232524E+01
  0
VERTEX
  8
0
 62
4
 10
-5.27561429E+01
 20
8.39955107E+01
  0
VERTEX
  8
0
 62
4
 10
-5.28680340E+01
 20
8.38573354E+01
  0
VERTEX
  8
0
 62
4
 10
-5.29668976E+01
 20
8.37098388E+01
  0
VERTEX
  8
0
 62
4
 10
-5.30519377E+01
 20
8.35542086E+01
  0
VERTEX
  8
0
 62
4
 10
-5.31224697E+01
 20
8.33916977E+01
  0
VERTEX
  8
0
 62
4
 10
-5.31779257E+01
 20
8.32236147E+01
  0
VERTEX
  8
0
 62
4
 10
-5.32178592E+01
 20
8.30513128E+01
  0
VERTEX
  8
0
 62
4
 10
-5.32419486E+01
 20
8.28761794E+01
  0
VERTEX
  8
0
 62
4
 10
-5.32500000E+01
 20
8.26996244E+01
  0
SEQEND
  8
0
  0
POLYLINE
  8
0
 62
4
 66
1
  0
VERTEX
  8
0
 62
4
 10
-5.32500000E+01
 20
8.21639850E+01
  0
VERTEX
  8
0
 62
4
 10
-5.32423894E+01
 20
8.19923217E+01
  0
VERTEX
  8
0
 62
4
 10
-5.32196155E+01
 20
8.18219649E+01
  0
VERTEX
  8
0
 62
4
 10
-5.31818517E+01
 20
8.16542110E+01
  0
VERTEX
  8
0
 62
4
 10
-5.31293852E+01
 20
8.14903368E+01
  0
VERTEX
  8
0
 62
4
 10
-5.30626156E+01
 20
8.13315895E+01
  0
VERTEX
  8
0
 62
4
 10
-5.29820508E+01
 20
8.11791773E+01
  0
VERTEX
  8
0
 62
4
 10
-5.28883041E+01
 20
8.10342600E+01
  0
VERTEX
  8
0
 62
4
 10
-5.27820889E+01
 20
8.08979406E+01
  0
VERTEX
  8
0
 62
4
 10
-5.26642136E+01
 20
8.07712565E+01
  0
VERTEX
  8
0
 62
4
 10
-5.25355752E+01
 20
8.06551720E+01
  0
VERTEX
  8
0
 62
4
 10
-5.23971529E+01
 20
8.05505704E+01
  0
VERTEX
  8
0
 62
4
 10
-5.22500000E+01
 20
8.04582479E+01
  0
VERTEX
  8
0
 62
4
 10
-5.20952365E+01
 20
8.03789071E+01
  0
VERTEX
  8
0
 62
4
 10
-5.19340403E+01
 20
8.03131518E+01
  0
VERTEX
  8
0
 62
4
 10
-5.17676381E+01
 20
8.02614825E+01
  0
VERTEX
  8
0
 62
4
 10
-5.15972964E+01
 20
8.02242924E+01
  0
VERTEX
  8
0
 62
4
 10
-5.14243115E+01
 20
8.02018645E+01
  0
VERTEX
  8
0
 62
4
 10
-5.12500000E+01
 20
8.01943695E+01
  0
VERTEX
  8
0
 62
4
 10
-5.10756885E+01
 20
8.02018645E+01
  0
VERTEX
  8
0
 62
4
 10
-5.09027037E+01
 20
8.02242924E+01
  0
VERTEX
  8
0
 62
4
 10
-5.07323619E+01
 20
8.02614825E+01
  0
VERTEX
  8
0
 62
4
 10
-5.05659597E+01
 20
8.03131518E+01
  0
VERTEX
  8
0
 62
4
 10
-5.04047635E+01
 20
8.03789071E+01
  0
VERTEX
  8
0
 62
4
 10
-5.02500000E+01
 20
8.04582479E+01
  0
VERTEX
  8
0
 62
4
 10
-5.01028471E+01
 20
8.05505704E+01
  0
VERTEX
  8
0
 62
4
 10
-4.99644248E+01
 20
8.06551720E+01
  0
VERTEX
  8
0
 62
4
 10
-4.98357864E+01
 20
8.07712565E+01
  0
VERTEX
  8
0
 62
4
 10
-4.97179111E+01
 20
8.08979406E+01
  0
VERTEX
  8
0
 62
4
 10
-4.96116959E+01
 20
8.10342600E+01
  0
VERTEX
  8
0
 62
4
 10
-4.95179492E+01
 20
8.11791772E+01
  0
VERTEX
  8
0
 62
4
 10
-4.94373844E+01
 20
8.13315895E+01
  0
VERTEX
  8
0
 62
4
 10
-4.93706148E+01
 20
8.14903368E+01
  0
VERTEX
  8
0
 62
4
 10
-4.93181483E+01
 20
8.16542110E+01
  0
VERTEX
  8
0
 62
4
 10
-4.92803845E+01
 20
8.18219649E+01
  0
VERTEX
  8
0
 62
4
 10
-4.92576106E+01
 20
8.19923217E+01
  0
VERTEX
  8
0
 62
4
 10
-4.92500000E+01
 20
8.21639850E+01
  0
VERTEX
  8
0
 62
4
 10
-4.92576106E+01
 20
8.23356483E+01
  0
VERTEX
  8
0
 62
4
 10
-4.92803845E+01
 20
8.25060051E+01
  0
VERTEX
  8
0
 62
4
 10
-4.93181483E+01
 20
8.26737590E+01
  0
VERTEX
  8
0
 62
4
 10
-4.93706148E+01
 20
8.28376332E+01
  0
VERTEX
  8
0
 62
4
 10
-4.94373844E+01
 20
8.29963805E+01
  0
VERTEX
  8
0
 62
4
 10
-4.95179492E+01
 20
8.31487928E+01
  0
VERTEX
  8
0
 62
4
 10
-4.96116959E+01
 20
8.32937100E+01
  0
VERTEX
  8
0
 62
4
 10
-4.97179111E+01
 20
8.34300294E+01
  0
VERTEX
  8
0
 62
4
 10
-4.98357864E+01
 20
8.35567135E+01
  0
VERTEX
  8
0
 62
4
 10
-4.99644248E+01
 20
8.36727980E+01
  0
VERTEX
  8
0
 62
4
 10
-5.01028471E+01
 20
8.37773996E+01
  0
VERTEX
  8
0
 62
4
 10
-5.02500000E+01
 20
8.38697221E+01
  0
VERTEX
  8
0
 62
4
 10
-5.04047635E+01
 20
8.39490629E+01
  0
VERTEX
  8
0
 62
4
 10
-5.05659597E+01
 20
8.40148182E+01
  0
VERTEX
  8
0
 62
4
 10
-5.07323619E+01
 20
8.40664875E+01
  0
VERTEX
  8
0
 62
4
 10
-5.09027036E+01
 20
8.41036776E+01
  0
VERTEX
  8
0
 62
4
 10
-5.10756885E+01
 20
8.41261055E+01
  0
VERTEX
  8
0
 62
4
 10
-5.12500000E+01
 20
8.41336005E+01
  0
VERTEX
  8
0
 62
4
 10
-5.14243115E+01
 20
8.41261055E+01
  0
VERTEX
  8
0
 62
4
 10
-5.15972964E+01
 20
8.41036776E+01
  0
VERTEX
  8
0
 62
4
 10
-5.17676381E+01
 20
8.40664875E+01
  0
VERTEX
  8
0
 62
4
 10
-5.19340403E+01
 20
8.40148182E+01
  0
VERTEX
  8
0
 62
4
 10
-5.20952365E+01
 20
8.39490629E+01
  0
VERTEX
  8
0
 62
4
 10
-5.22500000E+01
 20
8.38697221E+01
  0
VERTEX
  8
0
 62
4
 10
-5.23971529E+01
 20
8.37773996E+01
  0
VERTEX
  8
0
 62
4
 10
-5.25355752E+01
 20
8.36727980E+01
  0
VERTEX
  8
0
 62
4
 10
-5.26642136E+01
 20
8.35567135E+01
  0
VERTEX
  8
0
 62
4
 10
-5.27820889E+01
 20
8.34300294E+01
  0
VERTEX
  8
0
 62
4
 10
-5.28883041E+01
 20
8.32937100E+01
  0
VERTEX
  8
0
 62
4
 10
-5.29820508E+01
 20
8.31487928E+01
  0
VERTEX
  8
0
 62
4
 10
-5.30626156E+01
 20
8.29963805E+01
  0
VERTEX
  8
0
 62
4
 10
-5.31293852E+01
 20
8.28376332E+01
  0
VERTEX
  8
0
 62
4
 10
-5.31818517E+01
 20
8.26737590E+01
  0
VERTEX
  8
0
 62
4
 10
-5.32196155E+01
 20
8.25060051E+01
  0
VERTEX
  8
0
 62
4
 10
-5.32423894E+01
 20
8.23356483E+01
  0
VERTEX
  8
0
 62
4
 10
-5.32500000E+01
 20
8.21639850E+01
  0
SEQEND
  8
0
  0
LINE
  8
0
 62
4
 10
-5.32500000E+01
 20
8.21639850E+01
 11
-5.32500000E+01
 21
8.26996244E+01
  0
LINE
  8
0
 62
4
 10
-4.92500000E+01
 20
8.21639850E+01
 11
-4.92500000E+01
 21
8.26996244E+01
  0
POLYLINE
  8
0
 62
6
 66
1
  0
VERTEX
  8
0
 62
6
 10
-4.97500000E+01
 20
8.21639850E+01
  0
VERTEX
  8
0
 62
6
 10
-4.97557080E+01
 20
8.22927325E+01
  0
VERTEX
  8
0
 62
6
 10
-4.97727884E+01
 20
8.24205001E+01
  0
VERTEX
  8
0
 62
6
 10
-4.98011113E+01
 20
8.25463155E+01
  0
VERTEX
  8
0
 62
6
 10
-4.98404611E+01
 20
8.26692211E+01
  0
VERTEX
  8
0
 62
6
 10
-4.98905383E+01
 20
8.27882816E+01
  0
VERTEX
  8
0
 62
6
 10
-4.99509619E+01
 20
8.29025908E+01
  0
VERTEX
  8
0
 62
6
 10
-5.00212719E+01
 20
8.30112788E+01
  0
VERTEX
  8
0
 62
6
 10
-5.01009333E+01
 20
8.31135183E+01
  0
VERTEX
  8
0
 62
6
 10
-5.01893398E+01
 20
8.32085314E+01
  0
VERTEX
  8
0
 62
6
 10
-5.02858186E+01
 20
8.32955948E+01
  0
VERTEX
  8
0
 62
6
 10
-5.03896353E+01
 20
8.33740459E+01
  0
VERTEX
  8
0
 62
6
 10
-5.05000000E+01
 20
8.34432878E+01
  0
VERTEX
  8
0
 62
6
 10
-5.06160726E+01
 20
8.35027934E+01
  0
VERTEX
  8
0
 62
6
 10
-5.07369698E+01
 20
8.35521099E+01
  0
VERTEX
  8
0
 62
6
 10
-5.08617714E+01
 20
8.35908619E+01
  0
VERTEX
  8
0
 62
6
 10
-5.09895277E+01
 20
8.36187545E+01
  0
VERTEX
  8
0
 62
6
 10
-5.11192664E+01
 20
8.36355754E+01
  0
VERTEX
  8
0
 62
6
 10
-5.12500000E+01
 20
8.36411966E+01
  0
VERTEX
  8
0
 62
6
 10
-5.13807336E+01
 20
8.36355754E+01
  0
VERTEX
  8
0
 62
6
 10
-5.15104723E+01
 20
8.36187545E+01
  0
VERTEX
  8
0
 62
6
 10
-5.16382286E+01
 20
8.35908619E+01
  0
VERTEX
  8
0
 62
6
 10
-5.17630302E+01
 20
8.35521099E+01
  0
VERTEX
  8
0
 62
6
 10
-5.18839274E+01
 20
8.35027934E+01
  0
VERTEX
  8
0
 62
6
 10
-5.20000000E+01
 20
8.34432878E+01
  0
VERTEX
  8
0
 62
6
 10
-5.21103647E+01
 20
8.33740459E+01
  0
VERTEX
  8
0
 62
6
 10
-5.22141814E+01
 20
8.32955948E+01
  0
VERTEX
  8
0
 62
6
 10
-5.23106602E+01
 20
8.32085314E+01
  0
VERTEX
  8
0
 62
6
 10
-5.23990667E+01
 20
8.31135183E+01
  0
VERTEX
  8
0
 62
6
 10
-5.24787281E+01
 20
8.30112788E+01
  0
VERTEX
  8
0
 62
6
 10
-5.25490381E+01
 20
8.29025908E+01
  0
VERTEX
  8
0
 62
6
 10
-5.26094617E+01
 20
8.27882816E+01
  0
VERTEX
  8
0
 62
6
 10
-5.26595389E+01
 20
8.26692211E+01
  0
VERTEX
  8
0
 62
6
 10
-5.26988887E+01
 20
8.25463155E+01
  0
VERTEX
  8
0
 62
6
 10
-5.27272116E+01
 20
8.24205001E+01
  0
VERTEX
  8
0
 62
6
 10
-5.27442920E+01
 20
8.22927325E+01
  0
VERTEX
  8
0
 62
6
 10
-5.27500000E+01
 20
8.21639850E+01
  0
VERTEX
  8
0
 62
6
 10
-5.27442920E+01
 20
8.20352375E+01
  0
VERTEX
  8
0
 62
6
 10
-5.27272116E+01
 20
8.19074699E+01
  0
VERTEX
  8
0
 62
6
 10
-5.26988887E+01
 20
8.17816545E+01
  0
VERTEX
  8
0
 62
6
 10
-5.26595389E+01
 20
8.16587489E+01
  0
VERTEX
  8
0
 62
6
 10
-5.26094617E+01
 20
8.15396884E+01
  0
VERTEX
  8
0
 62
6
 10
-5.25490381E+01
 20
8.14253792E+01
  0
VERTEX
  8
0
 62
6
 10
-5.24787281E+01
 20
8.13166912E+01
  0
VERTEX
  8
0
 62
6
 10
-5.23990667E+01
 20
8.12144517E+01
  0
VERTEX
  8
0
 62
6
 10
-5.23106602E+01
 20
8.11194386E+01
  0
VERTEX
  8
0
 62
6
 10
-5.22141814E+01
 20
8.10323752E+01
  0
VERTEX
  8
0
 62
6
 10
-5.21103647E+01
 20
8.09539241E+01
  0
VERTEX
  8
0
 62
6
 10
-5.20000000E+01
 20
8.08846822E+01
  0
VERTEX
  8
0
 62
6
 10
-5.18839274E+01
 20
8.08251766E+01
  0
VERTEX
  8
0
 62
6
 10
-5.17630302E+01
 20
8.07758601E+01
  0
VERTEX
  8
0
 62
6
 10
-5.16382286E+01
 20
8.07371081E+01
  0
VERTEX
  8
0
 62
6
 10
-5.15104723E+01
 20
8.07092155E+01
  0
VERTEX
  8
0
 62
6
 10
-5.13807336E+01
 20
8.06923946E+01
  0
VERTEX
  8
0
 62
6
 10
-5.12500000E+01
 20
8.06867734E+01
  0
VERTEX
  8
0
 62
6
 10
-5.11192664E+01
 20
8.06923946E+01
  0
VERTEX
  8
0
 62
6
 10
-5.09895277E+01
 20
8.07092155E+01
  0
VERTEX
  8
0
 62
6
 10
-5.08617714E+01
 20
8.07371081E+01
  0
VERTEX
  8
0
 62
6
 10
-5.07369698E+01
 20
8.07758601E+01
  0
VERTEX
  8
0
 62
6
 10
-5.06160726E+01
 20
8.08251766E+01
  0
VERTEX
  8
0
 62
6
 10
-5.05000000E+01
 20
8.08846822E+01
  0
VERTEX
  8
0
 62
6
 10
-5.03896353E+01
 20
8.09539241E+01
  0
VERTEX
  8
0
 62
6
 10
-5.02858186E+01
 20
8.10323752E+01
  0
VERTEX
  8
0
 62
6
 10
-5.01893398E+01
 20
8.11194386E+01
  0
VERTEX
  8
0
 62
6
 10
-5.01009333E+01
 20
8.12144517E+01
  0
VERTEX
  8
0
 62
6
 10
-5.00212719E+01
 20
8.13166912E+01
  0
VERTEX
  8
0
 62
6
 10
-4.99509619E+01
 20
8.14253792E+01
  0
VERTEX
  8
0
 62
6
 10
-4.98905383E+01
 20
8.15396884E+01
  0
VERTEX
  8
0
 62
6
 10
-4.98404611E+01
 20
8.16587489E+01
  0
VERTEX
  8
0
 62
6
 10
-4.98011113E+01
 20
8.17816545E+01
  0
VERTEX
  8
0
 62
6
 10
-4.97727884E+01
 20
8.19074699E+01
  0
VERTEX
  8
0
 62
6
 10
-4.97557080E+01
 20
8.20352375E+01
  0
VERTEX
  8
0
 62
6
 10
-4.97500000E+01
 20
8.21639850E+01
  0
SEQEND
  8
0
  0
LINE
  8
0
 62
4
 10
-5.22500000E+01
 20
8.27351735E+01
 11
-5.22500000E+01
 21
8.15927965E+01
  0
LINE
  8
0
 62
4
 10
-5.02500000E+01
 20
8.27351735E+01
 11
-5.02500000E+01
 21
8.15927965E+01
  0
LINE
  8
0
 62
4
 10
-5.12500000E+01
 20
8.32965139E+01
 11
-5.22500000E+01
 21
8.27351735E+01
  0
LINE
  8
0
 62
4
 10
-5.12500000E+01
 20
8.32965139E+01
 11
-5.02500000E+01
 21
8.27351735E+01
  0
LINE
  8
0
 62
4
 10
-5.02500000E+01
 20
8.15927965E+01
 11
-5.12500000E+01
 21
8.10216080E+01
  0
LINE
  8
0
 62
4
 10
-5.22500000E+01
 20
8.15927965E+01
 11
-5.12500000E+01
 21
8.10216080E+01
  0
LINE
  8
0
 62
4
 10
-4.42500000E+01
 20
8.15927965E+01
 11
-4.32500000E+01
 21
8.10216080E+01
  0
LINE
  8
0
 62
4
 10
-4.22500000E+01
 20
8.15927965E+01
 11
-4.32500000E+01
 21
8.10216080E+01
  0
LINE
  8
0
 62
4
 10
-4.32500000E+01
 20
8.32965139E+01
 11
-4.22500000E+01
 21
8.27351735E+01
  0
LINE
  8
0
 62
4
 10
-4.32500000E+01
 20
8.32965139E+01
 11
-4.42500000E+01
 21
8.27351735E+01
  0
LINE
  8
0
 62
4
 10
-4.22500000E+01
 20
8.27351735E+01
 11
-4.22500000E+01
 21
8.15927965E+01
  0
LINE
  8
0
 62
4
 10
-4.42500000E+01
 20
8.27351735E+01
 11
-4.42500000E+01
 21
8.15927965E+01
  0
POLYLINE
  8
0
 62
6
 66
1
  0
VERTEX
  8
0
 62
6
 10
-4.17500000E+01
 20
8.21639850E+01
  0
VERTEX
  8
0
 62
6
 10
-4.17557080E+01
 20
8.22927325E+01
  0
VERTEX
  8
0
 62
6
 10
-4.17727884E+01
 20
8.24205001E+01
  0
VERTEX
  8
0
 62
6
 10
-4.18011113E+01
 20
8.25463155E+01
  0
VERTEX
  8
0
 62
6
 10
-4.18404611E+01
 20
8.26692211E+01
  0
VERTEX
  8
0
 62
6
 10
-4.18905383E+01
 20
8.27882816E+01
  0
VERTEX
  8
0
 62
6
 10
-4.19509619E+01
 20
8.29025908E+01
  0
VERTEX
  8
0
 62
6
 10
-4.20212719E+01
 20
8.30112788E+01
  0
VERTEX
  8
0
 62
6
 10
-4.21009333E+01
 20
8.31135183E+01
  0
VERTEX
  8
0
 62
6
 10
-4.21893398E+01
 20
8.32085314E+01
  0
VERTEX
  8
0
 62
6
 10
-4.22858186E+01
 20
8.32955948E+01
  0
VERTEX
  8
0
 62
6
 10
-4.23896353E+01
 20
8.33740459E+01
  0
VERTEX
  8
0
 62
6
 10
-4.25000000E+01
 20
8.34432878E+01
  0
VERTEX
  8
0
 62
6
 10
-4.26160726E+01
 20
8.35027934E+01
  0
VERTEX
  8
0
 62
6
 10
-4.27369698E+01
 20
8.35521099E+01
  0
VERTEX
  8
0
 62
6
 10
-4.28617714E+01
 20
8.35908619E+01
  0
VERTEX
  8
0
 62
6
 10
-4.29895277E+01
 20
8.36187545E+01
  0
VERTEX
  8
0
 62
6
 10
-4.31192664E+01
 20
8.36355754E+01
  0
VERTEX
  8
0
 62
6
 10
-4.32500000E+01
 20
8.36411966E+01
  0
VERTEX
  8
0
 62
6
 10
-4.33807336E+01
 20
8.36355754E+01
  0
VERTEX
  8
0
 62
6
 10
-4.35104723E+01
 20
8.36187545E+01
  0
VERTEX
  8
0
 62
6
 10
-4.36382286E+01
 20
8.35908619E+01
  0
VERTEX
  8
0
 62
6
 10
-4.37630302E+01
 20
8.35521099E+01
  0
VERTEX
  8
0
 62
6
 10
-4.38839274E+01
 20
8.35027934E+01
  0
VERTEX
  8
0
 62
6
 10
-4.40000000E+01
 20
8.34432878E+01
  0
VERTEX
  8
0
 62
6
 10
-4.41103647E+01
 20
8.33740459E+01
  0
VERTEX
  8
0
 62
6
 10
-4.42141814E+01
 20
8.32955948E+01
  0
VERTEX
  8
0
 62
6
 10
-4.43106602E+01
 20
8.32085314E+01
  0
VERTEX
  8
0
 62
6
 10
-4.43990667E+01
 20
8.31135183E+01
  0
VERTEX
  8
0
 62
6
 10
-4.44787281E+01
 20
8.30112788E+01
  0
VERTEX
  8
0
 62
6
 10
-4.45490381E+01
 20
8.29025908E+01
  0
VERTEX
  8
0
 62
6
 10
-4.46094617E+01
 20
8.27882816E+01
  0
VERTEX
  8
0
 62
6
 10
-4.46595389E+01
 20
8.26692211E+01
  0
VERTEX
  8
0
 62
6
 10
-4.46988887E+01
 20
8.25463155E+01
  0
VERTEX
  8
0
 62
6
 10
-4.47272116E+01
 20
8.24205001E+01
  0
VERTEX
  8
0
 62
6
 10
-4.47442920E+01
 20
8.22927325E+01
  0
VERTEX
  8
0
 62
6
 10
-4.47500000E+01
 20
8.21639850E+01
  0
VERTEX
  8
0
 62
6
 10
-4.47442920E+01
 20
8.20352375E+01
  0
VERTEX
  8
0
 62
6
 10
-4.47272116E+01
 20
8.19074699E+01
  0
VERTEX
  8
0
 62
6
 10
-4.46988887E+01
 20
8.17816545E+01
  0
VERTEX
  8
0
 62
6
 10
-4.46595389E+01
 20
8.16587489E+01
  0
VERTEX
  8
0
 62
6
 10
-4.46094617E+01
 20
8.15396884E+01
  0
VERTEX
  8
0
 62
6
 10
-4.45490381E+01
 20
8.14253792E+01
  0
VERTEX
  8
0
 62
6
 10
-4.44787281E+01
 20
8.13166912E+01
  0
VERTEX
  8
0
 62
6
 10
-4.43990667E+01
 20
8.12144517E+01
  0
VERTEX
  8
0
 62
6
 10
-4.43106602E+01
 20
8.11194386E+01
  0
VERTEX
  8
0
 62
6
 10
-4.42141814E+01
 20
8.10323752E+01
  0
VERTEX
  8
0
 62
6
 10
-4.41103647E+01
 20
8.09539241E+01
  0
VERTEX
  8
0
 62
6
 10
-4.40000000E+01
 20
8.08846822E+01
  0
VERTEX
  8
0
 62
6
 10
-4.38839274E+01
 20
8.08251766E+01
  0
VERTEX
  8
0
 62
6
 10
-4.37630302E+01
 20
8.07758601E+01
  0
VERTEX
  8
0
 62
6
 10
-4.36382286E+01
 20
8.07371081E+01
  0
VERTEX
  8
0
 62
6
 10
-4.35104723E+01
 20
8.07092155E+01
  0
VERTEX
  8
0
 62
6
 10
-4.33807336E+01
 20
8.06923946E+01
  0
VERTEX
  8
0
 62
6
 10
-4.32500000E+01
 20
8.06867734E+01
  0
VERTEX
  8
0
 62
6
 10
-4.31192664E+01
 20
8.06923946E+01
  0
VERTEX
  8
0
 62
6
 10
-4.29895277E+01
 20
8.07092155E+01
  0
VERTEX
  8
0
 62
6
 10
-4.28617714E+01
 20
8.07371081E+01
  0
VERTEX
  8
0
 62
6
 10
-4.27369698E+01
 20
8.07758601E+01
  0
VERTEX
  8
0
 62
6
 10
-4.26160726E+01
 20
8.08251766E+01
  0
VERTEX
  8
0
 62
6
 10
-4.25000000E+01
 20
8.08846822E+01
  0
VERTEX
  8
0
 62
6
 10
-4.23896353E+01
 20
8.09539241E+01
  0
VERTEX
  8
0
 62
6
 10
-4.22858186E+01
 20
8.10323752E+01
  0
VERTEX
  8
0
 62
6
 10
-4.21893398E+01
 20
8.11194386E+01
  0
VERTEX
  8
0
 62
6
 10
-4.21009333E+01
 20
8.12144517E+01
  0
VERTEX
  8
0
 62
6
 10
-4.20212719E+01
 20
8.13166912E+01
  0
VERTEX
  8
0
 62
6
 10
-4.19509619E+01
 20
8.14253792E+01
  0
VERTEX
  8
0
 62
6
 10
-4.18905383E+01
 20
8.15396884E+01
  0
VERTEX
  8
0
 62
6
 10
-4.18404611E+01
 20
8.16587489E+01
  0
VERTEX
  8
0
 62
6
 10
-4.18011113E+01
 20
8.17816545E+01
  0
VERTEX
  8
0
 62
6
 10
-4.17727884E+01
 20
8.19074699E+01
  0
VERTEX
  8
0
 62
6
 10
-4.17557080E+01
 20
8.20352375E+01
  0
VERTEX
  8
0
 62
6
 10
-4.17500000E+01
 20
8.21639850E+01
  0
SEQEND
  8
0
  0
LINE
  8
0
 62
4
 10
-4.12500000E+01
 20
8.21639850E+01
 11
-4.12500000E+01
 21
8.26996244E+01
  0
LINE
  8
0
 62
4
 10
-4.52500000E+01
 20
8.21639850E+01
 11
-4.52500000E+01
 21
8.26996244E+01
  0
POLYLINE
  8
0
 62
4
 66
1
  0
VERTEX
  8
0
 62
4
 10
-4.52500000E+01
 20
8.21639850E+01
  0
VERTEX
  8
0
 62
4
 10
-4.52423894E+01
 20
8.19923217E+01
  0
VERTEX
  8
0
 62
4
 10
-4.52196155E+01
 20
8.18219649E+01
  0
VERTEX
  8
0
 62
4
 10
-4.51818517E+01
 20
8.16542110E+01
  0
VERTEX
  8
0
 62
4
 10
-4.51293852E+01
 20
8.14903368E+01
  0
VERTEX
  8
0
 62
4
 10
-4.50626156E+01
 20
8.13315895E+01
  0
VERTEX
  8
0
 62
4
 10
-4.49820508E+01
 20
8.11791773E+01
  0
VERTEX
  8
0
 62
4
 10
-4.48883041E+01
 20
8.10342600E+01
  0
VERTEX
  8
0
 62
4
 10
-4.47820889E+01
 20
8.08979406E+01
  0
VERTEX
  8
0
 62
4
 10
-4.46642136E+01
 20
8.07712565E+01
  0
VERTEX
  8
0
 62
4
 10
-4.45355752E+01
 20
8.06551720E+01
  0
VERTEX
  8
0
 62
4
 10
-4.43971529E+01
 20
8.05505704E+01
  0
VERTEX
  8
0
 62
4
 10
-4.42500000E+01
 20
8.04582479E+01
  0
VERTEX
  8
0
 62
4
 10
-4.40952365E+01
 20
8.03789071E+01
  0
VERTEX
  8
0
 62
4
 10
-4.39340403E+01
 20
8.03131518E+01
  0
VERTEX
  8
0
 62
4
 10
-4.37676381E+01
 20
8.02614825E+01
  0
VERTEX
  8
0
 62
4
 10
-4.35972964E+01
 20
8.02242924E+01
  0
VERTEX
  8
0
 62
4
 10
-4.34243115E+01
 20
8.02018645E+01
  0
VERTEX
  8
0
 62
4
 10
-4.32500000E+01
 20
8.01943695E+01
  0
VERTEX
  8
0
 62
4
 10
-4.30756885E+01
 20
8.02018645E+01
  0
VERTEX
  8
0
 62
4
 10
-4.29027037E+01
 20
8.02242924E+01
  0
VERTEX
  8
0
 62
4
 10
-4.27323619E+01
 20
8.02614825E+01
  0
VERTEX
  8
0
 62
4
 10
-4.25659597E+01
 20
8.03131518E+01
  0
VERTEX
  8
0
 62
4
 10
-4.24047635E+01
 20
8.03789071E+01
  0
VERTEX
  8
0
 62
4
 10
-4.22500000E+01
 20
8.04582479E+01
  0
VERTEX
  8
0
 62
4
 10
-4.21028471E+01
 20
8.05505704E+01
  0
VERTEX
  8
0
 62
4
 10
-4.19644248E+01
 20
8.06551720E+01
  0
VERTEX
  8
0
 62
4
 10
-4.18357864E+01
 20
8.07712565E+01
  0
VERTEX
  8
0
 62
4
 10
-4.17179111E+01
 20
8.08979406E+01
  0
VERTEX
  8
0
 62
4
 10
-4.16116959E+01
 20
8.10342600E+01
  0
VERTEX
  8
0
 62
4
 10
-4.15179492E+01
 20
8.11791772E+01
  0
VERTEX
  8
0
 62
4
 10
-4.14373844E+01
 20
8.13315895E+01
  0
VERTEX
  8
0
 62
4
 10
-4.13706148E+01
 20
8.14903368E+01
  0
VERTEX
  8
0
 62
4
 10
-4.13181483E+01
 20
8.16542110E+01
  0
VERTEX
  8
0
 62
4
 10
-4.12803845E+01
 20
8.18219649E+01
  0
VERTEX
  8
0
 62
4
 10
-4.12576106E+01
 20
8.19923217E+01
  0
VERTEX
  8
0
 62
4
 10
-4.12500000E+01
 20
8.21639850E+01
  0
VERTEX
  8
0
 62
4
 10
-4.12576106E+01
 20
8.23356483E+01
  0
VERTEX
  8
0
 62
4
 10
-4.12803845E+01
 20
8.25060051E+01
  0
VERTEX
  8
0
 62
4
 10
-4.13181483E+01
 20
8.26737590E+01
  0
VERTEX
  8
0
 62
4
 10
-4.13706148E+01
 20
8.28376332E+01
  0
VERTEX
  8
0
 62
4
 10
-4.14373844E+01
 20
8.29963805E+01
  0
VERTEX
  8
0
 62
4
 10
-4.15179492E+01
 20
8.31487928E+01
  0
VERTEX
  8
0
 62
4
 10
-4.16116959E+01
 20
8.32937100E+01
  0
VERTEX
  8
0
 62
4
 10
-4.17179111E+01
 20
8.34300294E+01
  0
VERTEX
  8
0
 62
4
 10
-4.18357864E+01
 20
8.35567135E+01
  0
VERTEX
  8
0
 62
4
 10
-4.19644248E+01
 20
8.36727980E+01
  0
VERTEX
  8
0
 62
4
 10
-4.21028471E+01
 20
8.37773996E+01
  0
VERTEX
  8
0
 62
4
 10
-4.22500000E+01
 20
8.38697221E+01
  0
VERTEX
  8
0
 62
4
 10
-4.24047635E+01
 20
8.39490629E+01
  0
VERTEX
  8
0
 62
4
 10
-4.25659597E+01
 20
8.40148182E+01
  0
VERTEX
  8
0
 62
4
 10
-4.27323619E+01
 20
8.40664875E+01
  0
VERTEX
  8
0
 62
4
 10
-4.29027036E+01
 20
8.41036776E+01
  0
VERTEX
  8
0
 62
4
 10
-4.30756885E+01
 20
8.41261055E+01
  0
VERTEX
  8
0
 62
4
 10
-4.32500000E+01
 20
8.41336005E+01
  0
VERTEX
  8
0
 62
4
 10
-4.34243115E+01
 20
8.41261055E+01
  0
VERTEX
  8
0
 62
4
 10
-4.35972964E+01
 20
8.41036776E+01
  0
VERTEX
  8
0
 62
4
 10
-4.37676381E+01
 20
8.40664875E+01
  0
VERTEX
  8
0
 62
4
 10
-4.39340403E+01
 20
8.40148182E+01
  0
VERTEX
  8
0
 62
4
 10
-4.40952365E+01
 20
8.39490629E+01
  0
VERTEX
  8
0
 62
4
 10
-4.42500000E+01
 20
8.38697221E+01
  0
VERTEX
  8
0
 62
4
 10
-4.43971529E+01
 20
8.37773996E+01
  0
VERTEX
  8
0
 62
4
 10
-4.45355752E+01
 20
8.36727980E+01
  0
VERTEX
  8
0
 62
4
 10
-4.46642136E+01
 20
8.35567135E+01
  0
VERTEX
  8
0
 62
4
 10
-4.47820889E+01
 20
8.34300294E+01
  0
VERTEX
  8
0
 62
4
 10
-4.48883041E+01
 20
8.32937100E+01
  0
VERTEX
  8
0
 62
4
 10
-4.49820508E+01
 20
8.31487928E+01
  0
VERTEX
  8
0
 62
4
 10
-4.50626156E+01
 20
8.29963805E+01
  0
VERTEX
  8
0
 62
4
 10
-4.51293852E+01
 20
8.28376332E+01
  0
VERTEX
  8
0
 62
4
 10
-4.51818517E+01
 20
8.26737590E+01
  0
VERTEX
  8
0
 62
4
 10
-4.52196155E+01
 20
8.25060051E+01
  0
VERTEX
  8
0
 62
4
 10
-4.52423894E+01
 20
8.23356483E+01
  0
VERTEX
  8
0
 62
4
 10
-4.52500000E+01
 20
8.21639850E+01
  0
SEQEND
  8
0
  0
POLYLINE
  8
0
 62
4
 66
1
  0
VERTEX
  8
0
 62
4
 10
-4.12500000E+01
 20
8.26996244E+01
  0
VERTEX
  8
0
 62
4
 10
-4.12580514E+01
 20
8.28761794E+01
  0
VERTEX
  8
0
 62
4
 10
-4.12821408E+01
 20
8.30513128E+01
  0
VERTEX
  8
0
 62
4
 10
-4.13220743E+01
 20
8.32236147E+01
  0
VERTEX
  8
0
 62
4
 10
-4.13775303E+01
 20
8.33916977E+01
  0
VERTEX
  8
0
 62
4
 10
-4.14480623E+01
 20
8.35542085E+01
  0
VERTEX
  8
0
 62
4
 10
-4.15331024E+01
 20
8.37098388E+01
  0
VERTEX
  8
0
 62
4
 10
-4.16319660E+01
 20
8.38573353E+01
  0
VERTEX
  8
0
 62
4
 10
-4.17438571E+01
 20
8.39955107E+01
  0
VERTEX
  8
0
 62
4
 10
-4.18678747E+01
 20
8.41232524E+01
  0
VERTEX
  8
0
 62
4
 10
-4.20030204E+01
 20
8.42395318E+01
  0
VERTEX
  8
0
 62
4
 10
-4.21482060E+01
 20
8.43434128E+01
  0
VERTEX
  8
0
 62
4
 10
-4.23022627E+01
 20
8.44340590E+01
  0
VERTEX
  8
0
 62
4
 10
-4.24639499E+01
 20
8.45107406E+01
  0
VERTEX
  8
0
 62
4
 10
-4.26319660E+01
 20
8.45728401E+01
  0
VERTEX
  8
0
 62
4
 10
-4.28049581E+01
 20
8.46198575E+01
  0
VERTEX
  8
0
 62
4
 10
-4.29815335E+01
 20
8.46514144E+01
  0
VERTEX
  8
0
 62
4
 10
-4.31602703E+01
 20
8.46672566E+01
  0
VERTEX
  8
0
 62
4
 10
-4.33397296E+01
 20
8.46672566E+01
  0
VERTEX
  8
0
 62
4
 10
-4.35184665E+01
 20
8.46514144E+01
  0
VERTEX
  8
0
 62
4
 10
-4.36950419E+01
 20
8.46198575E+01
  0
VERTEX
  8
0
 62
4
 10
-4.38680340E+01
 20
8.45728401E+01
  0
VERTEX
  8
0
 62
4
 10
-4.40360500E+01
 20
8.45107406E+01
  0
VERTEX
  8
0
 62
4
 10
-4.41977373E+01
 20
8.44340590E+01
  0
VERTEX
  8
0
 62
4
 10
-4.43517939E+01
 20
8.43434128E+01
  0
VERTEX
  8
0
 62
4
 10
-4.44969796E+01
 20
8.42395318E+01
  0
VERTEX
  8
0
 62
4
 10
-4.46321253E+01
 20
8.41232524E+01
  0
VERTEX
  8
0
 62
4
 10
-4.47561429E+01
 20
8.39955107E+01
  0
VERTEX
  8
0
 62
4
 10
-4.48680340E+01
 20
8.38573354E+01
  0
VERTEX
  8
0
 62
4
 10
-4.49668976E+01
 20
8.37098388E+01
  0
VERTEX
  8
0
 62
4
 10
-4.50519377E+01
 20
8.35542086E+01
  0
VERTEX
  8
0
 62
4
 10
-4.51224697E+01
 20
8.33916977E+01
  0
VERTEX
  8
0
 62
4
 10
-4.51779257E+01
 20
8.32236147E+01
  0
VERTEX
  8
0
 62
4
 10
-4.52178592E+01
 20
8.30513128E+01
  0
VERTEX
  8
0
 62
4
 10
-4.52419486E+01
 20
8.28761794E+01
  0
VERTEX
  8
0
 62
4
 10
-4.52500000E+01
 20
8.26996244E+01
  0
SEQEND
  8
0
  0
POLYLINE
  8
0
 62
4
 66
1
  0
VERTEX
  8
0
 62
4
 10
-3.45000000E+01
 20
1.00655691E+02
  0
VERTEX
  8
0
 62
4
 10
-3.44914381E+01
 20
1.00462570E+02
  0
VERTEX
  8
0
 62
4
 10
-3.44658174E+01
 20
1.00270918E+02
  0
VERTEX
  8
0
 62
4
 10
-3.44233331E+01
 20
1.00082195E+02
  0
VERTEX
  8
0
 62
4
 10
-3.43643084E+01
 20
9.98978368E+01
  0
VERTEX
  8
0
 62
4
 10
-3.42891925E+01
 20
9.97192461E+01
  0
VERTEX
  8
0
 62
4
 10
-3.41985572E+01
 20
9.95477823E+01
  0
VERTEX
  8
0
 62
4
 10
-3.40930921E+01
 20
9.93847503E+01
  0
VERTEX
  8
0
 62
4
 10
-3.39736000E+01
 20
9.92313910E+01
  0
VERTEX
  8
0
 62
4
 10
-3.38409903E+01
 20
9.90888715E+01
  0
VERTEX
  8
0
 62
4
 10
-3.36962721E+01
 20
9.89582764E+01
  0
VERTEX
  8
0
 62
4
 10
-3.35405470E+01
 20
9.88405996E+01
  0
VERTEX
  8
0
 62
4
 10
-3.33750000E+01
 20
9.87367368E+01
  0
VERTEX
  8
0
 62
4
 10
-3.32008911E+01
 20
9.86474784E+01
  0
VERTEX
  8
0
 62
4
 10
-3.30195453E+01
 20
9.85735037E+01
  0
VERTEX
  8
0
 62
4
 10
-3.28323429E+01
 20
9.85153757E+01
  0
VERTEX
  8
0
 62
4
 10
-3.26407084E+01
 20
9.84735368E+01
  0
VERTEX
  8
0
 62
4
 10
-3.24461004E+01
 20
9.84483054E+01
  0
VERTEX
  8
0
 62
4
 10
-3.22500000E+01
 20
9.84398736E+01
  0
VERTEX
  8
0
 62
4
 10
-3.20538996E+01
 20
9.84483054E+01
  0
VERTEX
  8
0
 62
4
 10
-3.18592916E+01
 20
9.84735368E+01
  0
VERTEX
  8
0
 62
4
 10
-3.16676572E+01
 20
9.85153757E+01
  0
VERTEX
  8
0
 62
4
 10
-3.14804547E+01
 20
9.85735037E+01
  0
VERTEX
  8
0
 62
4
 10
-3.12991089E+01
 20
9.86474784E+01
  0
VERTEX
  8
0
 62
4
 10
-3.11250000E+01
 20
9.87367368E+01
  0
VERTEX
  8
0
 62
4
 10
-3.09594530E+01
 20
9.88405996E+01
  0
VERTEX
  8
0
 62
4
 10
-3.08037279E+01
 20
9.89582764E+01
  0
VERTEX
  8
0
 62
4
 10
-3.06590097E+01
 20
9.90888715E+01
  0
VERTEX
  8
0
 62
4
 10
-3.05264000E+01
 20
9.92313910E+01
  0
VERTEX
  8
0
 62
4
 10
-3.04069079E+01
 20
9.93847503E+01
  0
VERTEX
  8
0
 62
4
 10
-3.03014428E+01
 20
9.95477823E+01
  0
VERTEX
  8
0
 62
4
 10
-3.02108075E+01
 20
9.97192461E+01
  0
VERTEX
  8
0
 62
4
 10
-3.01356916E+01
 20
9.98978368E+01
  0
VERTEX
  8
0
 62
4
 10
-3.00766669E+01
 20
1.00082195E+02
  0
VERTEX
  8
0
 62
4
 10
-3.00341826E+01
 20
1.00270918E+02
  0
VERTEX
  8
0
 62
4
 10
-3.00085619E+01
 20
1.00462570E+02
  0
VERTEX
  8
0
 62
4
 10
-3.00000000E+01
 20
1.00655691E+02
  0
VERTEX
  8
0
 62
4
 10
-3.00085619E+01
 20
1.00848812E+02
  0
VERTEX
  8
0
 62
4
 10
-3.00341826E+01
 20
1.01040464E+02
  0
VERTEX
  8
0
 62
4
 10
-3.00766669E+01
 20
1.01229187E+02
  0
VERTEX
  8
0
 62
4
 10
-3.01356916E+01
 20
1.01413545E+02
  0
VERTEX
  8
0
 62
4
 10
-3.02108075E+01
 20
1.01592136E+02
  0
VERTEX
  8
0
 62
4
 10
-3.03014428E+01
 20
1.01763600E+02
  0
VERTEX
  8
0
 62
4
 10
-3.04069079E+01
 20
1.01926632E+02
  0
VERTEX
  8
0
 62
4
 10
-3.05264000E+01
 20
1.02079991E+02
  0
VERTEX
  8
0
 62
4
 10
-3.06590097E+01
 20
1.02222511E+02
  0
VERTEX
  8
0
 62
4
 10
-3.08037279E+01
 20
1.02353106E+02
  0
VERTEX
  8
0
 62
4
 10
-3.09594530E+01
 20
1.02470782E+02
  0
VERTEX
  8
0
 62
4
 10
-3.11250000E+01
 20
1.02574645E+02
  0
VERTEX
  8
0
 62
4
 10
-3.12991089E+01
 20
1.02663904E+02
  0
VERTEX
  8
0
 62
4
 10
-3.14804547E+01
 20
1.02737878E+02
  0
VERTEX
  8
0
 62
4
 10
-3.16676571E+01
 20
1.02796006E+02
  0
VERTEX
  8
0
 62
4
 10
-3.18592916E+01
 20
1.02837845E+02
  0
VERTEX
  8
0
 62
4
 10
-3.20538996E+01
 20
1.02863077E+02
  0
VERTEX
  8
0
 62
4
 10
-3.22500000E+01
 20
1.02871508E+02
  0
VERTEX
  8
0
 62
4
 10
-3.24461004E+01
 20
1.02863077E+02
  0
VERTEX
  8
0
 62
4
 10
-3.26407084E+01
 20
1.02837845E+02
  0
VERTEX
  8
0
 62
4
 10
-3.28323428E+01
 20
1.02796006E+02
  0
VERTEX
  8
0
 62
4
 10
-3.30195453E+01
 20
1.02737878E+02
  0
VERTEX
  8
0
 62
4
 10
-3.32008911E+01
 20
1.02663904E+02
  0
VERTEX
  8
0
 62
4
 10
-3.33750000E+01
 20
1.02574645E+02
  0
VERTEX
  8
0
 62
4
 10
-3.35405470E+01
 20
1.02470782E+02
  0
VERTEX
  8
0
 62
4
 10
-3.36962721E+01
 20
1.02353106E+02
  0
VERTEX
  8
0
 62
4
 10
-3.38409903E+01
 20
1.02222511E+02
  0
VERTEX
  8
0
 62
4
 10
-3.39736000E+01
 20
1.02079991E+02
  0
VERTEX
  8
0
 62
4
 10
-3.40930921E+01
 20
1.01926632E+02
  0
VERTEX
  8
0
 62
4
 10
-3.41985572E+01
 20
1.01763600E+02
  0
VERTEX
  8
0
 62
4
 10
-3.42891925E+01
 20
1.01592136E+02
  0
VERTEX
  8
0
 62
4
 10
-3.43643084E+01
 20
1.01413545E+02
  0
VERTEX
  8
0
 62
4
 10
-3.44233331E+01
 20
1.01229187E+02
  0
VERTEX
  8
0
 62
4
 10
-3.44658174E+01
 20
1.01040464E+02
  0
VERTEX
  8
0
 62
4
 10
-3.44914381E+01
 20
1.00848812E+02
  0
VERTEX
  8
0
 62
4
 10
-3.45000000E+01
 20
1.00655691E+02
  0
SEQEND
  8
0
  0
LINE
  8
0
 62
4
 10
-3.97500000E+01
 20
9.66470010E+01
 11
-2.47500000E+01
 21
9.66470010E+01
  0
LINE
  8
0
 62
4
 10
-3.97500000E+01
 20
9.67164603E+01
 11
-2.47500000E+01
 21
9.67164603E+01
  0
LINE
  8
0
 62
4
 10
-3.97500000E+01
 20
8.92609429E+01
 11
-2.47500000E+01
 21
8.92609429E+01
  0
LINE
  8
0
 62
4
 10
-5.47500000E+01
 20
7.75208656E+01
 11
-3.97500000E+01
 21
7.75208656E+01
  0
LINE
  8
0
 62
4
 10
-5.35884360E+01
 20
8.78970144E+01
 11
-4.10092527E+01
 21
8.78970144E+01
  0
LINE
  8
0
 62
4
 10
-5.47500000E+01
 20
1.03871789E+02
 11
-3.97500000E+01
 21
1.03871789E+02
  0
LINE
  8
0
 62
4
 10
-5.47500000E+01
 20
1.05087326E+02
 11
-2.47500000E+01
 21
1.05087326E+02
  0
LINE
  8
0
 62
4
 10
-5.47500000E+01
 20
1.06875902E+02
 11
-2.47500000E+01
 21
1.06875902E+02
  0
LINE
  8
0
  6
CENTER
 62
6
 10
-2.86754031E+01
 20
1.00655691E+02
 11
-3.58245969E+01
 21
1.00655691E+02
  0
LINE
  8
0
  6
CENTER
 62
6
 10
-3.22500000E+01
 20
1.04230288E+02
 11
-3.22500000E+01
 21
9.70810944E+01
  0
LINE
  8
0
 62
4
 10
-2.47500000E+01
 20
1.06875902E+02
 11
-2.47500000E+01
 21
8.92609429E+01
  0
LINE
  8
0
 62
4
 10
-5.47500000E+01
 20
1.06875902E+02
 11
-5.47500000E+01
 21
7.75208656E+01
  0
LINE
  8
0
 62
4
 10
-3.97500000E+01
 20
1.05087326E+02
 11
-3.97500000E+01
 21
7.75208656E+01
  0
LINE
  8
0
  6
CENTER
 62
6
 10
-4.07500000E+01
 20
8.26996244E+01
 11
-4.57500000E+01
 21
8.26996244E+01
  0
LINE
  8
0
  6
CENTER
 62
6
 10
-4.32500000E+01
 20
8.51996244E+01
 11
-4.32500000E+01
 21
8.01996244E+01
  0
LINE
  8
0
  6
CENTER
 62
6
 10
-5.12500000E+01
 20
8.51996244E+01
 11
-5.12500000E+01
 21
8.01996244E+01
  0
LINE
  8
0
  6
CENTER
 62
6
 10
-4.87500000E+01
 20
8.26996244E+01
 11
-5.37500000E+01
 21
8.26996244E+01
  0
LINE
  8
0
 62
4
 10
-9.02500000E+01
 20
9.61762276E+01
 11
-9.02500000E+01
 21
9.21037861E+01
  0
LINE
  8
0
 62
4
 10
-1.13750000E+02
 20
1.06875902E+02
 11
-1.13750000E+02
 21
9.61762276E+01
  0
LINE
  8
0
 62
4
 10
-8.37500000E+01
 20
9.03694494E+01
 11
-8.37500000E+01
 21
9.23593157E+01
  0
LINE
  8
0
 62
7
 10
-5.47500000E+01
 20
8.95194586E+01
 11
-1.24249969E+02
 21
8.95194586E+01
  0
LINE
  8
0
 62
7
 10
-5.47500000E+01
 20
9.03694494E+01
 11
-1.24250000E+02
 21
9.03694494E+01
  0
LINE
  8
0
 62
7
 10
-5.47500000E+01
 20
8.42194708E+01
 11
-1.24250000E+02
 21
8.42194708E+01
  0
CIRCLE
  8
0
 62
7
 10
-2.75250031E+02
 20
4.98694876E+01
 40
2.45850000E+00
  0
CIRCLE
  8
0
 62
7
 10
-3.12250092E+02
 20
4.98694876E+01
 40
2.45850000E+00
  0
CIRCLE
  8
0
 62
7
 10
-2.75249908E+02
 20
8.68695410E+01
 40
2.45850000E+00
  0
CIRCLE
  8
0
 62
7
 10
-3.12250000E+02
 20
8.68695410E+01
 40
2.45850000E+00
  0
LINE
  8
0
  6
CENTER
 62
2
 10
-3.30214050E+02
 20
7.93694494E+01
 11
-3.26750000E+02
 21
7.93694494E+01
  0
LINE
  8
0
 62
7
 10
-3.29349976E+02
 20
5.57694662E+01
 11
-3.29349976E+02
 21
5.89694708E+01
  0
LINE
  8
0
  6
CENTER
 62
2
 10
-3.28969116E+02
 20
6.83694647E+01
 11
-2.64448761E+02
 21
6.83694647E+01
  0
LINE
  8
0
 62
7
 10
-3.27149933E+02
 20
7.56194494E+01
 11
-3.26750000E+02
 21
7.56194494E+01
  0
LINE
  8
0
 62
7
 10
-3.26749969E+02
 20
4.88694647E+01
 11
-3.26749969E+02
 21
8.78694647E+01
  0
LINE
  8
0
  6
CENTER
 62
2
 10
-3.30214050E+02
 20
5.73694647E+01
 11
-3.26750000E+02
 21
5.73694647E+01
  0
LINE
  8
0
 62
7
 10
-3.27149994E+02
 20
8.31194494E+01
 11
-3.26750000E+02
 21
8.31194494E+01
  0
LINE
  8
0
 62
7
 10
-3.27149933E+02
 20
5.36194647E+01
 11
-3.26750000E+02
 21
5.36194647E+01
  0
LINE
  8
0
 62
7
 10
-3.15750061E+02
 20
9.33695257E+01
 11
-2.71750000E+02
 21
9.33695257E+01
  0
LINE
  8
0
 62
7
 10
-2.81434374E+02
 20
8.20994110E+01
 11
-2.82519807E+02
 21
8.10139779E+01
  0
LINE
  8
0
 62
7
 10
-3.29349976E+02
 20
8.09694708E+01
 11
-3.29349976E+02
 21
7.77694433E+01
  0
LINE
  8
0
  6
CENTER
 62
2
 10
-3.12250000E+02
 20
9.52721136E+01
 11
-3.12250000E+02
 21
7.89851110E+01
  0
LINE
  8
0
  6
CENTER
 62
2
 10
-3.20839935E+02
 20
8.68695410E+01
 11
-3.06173035E+02
 21
8.68695410E+01
  0
LINE
  8
0
 62
7
 10
-3.27149933E+02
 20
6.11194647E+01
 11
-3.26750000E+02
 21
6.11194647E+01
  0
LINE
  8
0
 62
7
 10
-3.26750000E+02
 20
4.88694570E+01
 11
-3.18750031E+02
 21
4.88694570E+01
  0
LINE
  8
0
 62
7
 10
-3.26750000E+02
 20
8.78694647E+01
 11
-3.20397382E+02
 21
8.78694647E+01
  0
LINE
  8
0
  6
CENTER
 62
2
 10
-2.75249908E+02
 20
9.53761022E+01
 11
-2.75249908E+02
 21
8.04549749E+01
  0
LINE
  8
0
 62
7
 10
-2.68749969E+02
 20
9.03694952E+01
 11
-2.68749969E+02
 21
4.63694647E+01
  0
LINE
  8
0
 62
7
 10
-3.15750000E+02
 20
9.28695257E+01
 11
-2.71750000E+02
 21
9.28694647E+01
  0
LINE
  8
0
 62
7
 10
-2.69249969E+02
 20
9.03694342E+01
 11
-2.69249969E+02
 21
4.63694647E+01
  0
LINE
  8
0
 62
7
 10
-2.72750031E+02
 20
6.93694799E+01
 11
-2.76868073E+02
 21
6.93694799E+01
  0
LINE
  8
0
 62
7
 10
-2.80020214E+02
 20
8.06852297E+01
 11
-2.81105691E+02
 21
7.95997534E+01
  0
LINE
  8
0
 62
7
 10
-2.92750000E+02
 20
8.93694647E+01
 11
-2.92750000E+02
 21
8.52513922E+01
  0
LINE
  8
0
 62
7
 10
-2.71749969E+02
 20
7.33694952E+01
 11
-2.71749969E+02
 21
6.33694342E+01
  0
LINE
  8
0
 62
7
 10
-3.18249969E+02
 20
9.03694952E+01
 11
-3.18249969E+02
 21
4.63694647E+01
  0
LINE
  8
0
 62
7
 10
-3.18750031E+02
 20
9.03694952E+01
 11
-3.18750031E+02
 21
4.63694647E+01
  0
LINE
  8
0
  6
CENTER
 62
2
 10
-3.12250092E+02
 20
4.12464788E+01
 11
-3.12250092E+02
 21
5.78889654E+01
  0
LINE
  8
0
  6
CENTER
 62
2
 10
-3.20694702E+02
 20
4.98694876E+01
 11
-3.05882660E+02
 21
4.98694876E+01
  0
LINE
  8
0
 62
7
 10
-3.15750061E+02
 20
4.33694570E+01
 11
-2.71750000E+02
 21
4.33694570E+01
  0
LINE
  8
0
 62
7
 10
-3.15750061E+02
 20
4.38694876E+01
 11
-2.71750092E+02
 21
4.38694570E+01
  0
LINE
  8
0
 62
7
 10
-2.94750000E+02
 20
8.93694647E+01
 11
-2.94750000E+02
 21
8.52514227E+01
  0
LINE
  8
0
 62
7
 10
-3.14750000E+02
 20
6.93694799E+01
 11
-3.10631958E+02
 21
6.93694799E+01
  0
LINE
  8
0
 62
7
 10
-3.07479981E+02
 20
8.06851413E+01
 11
-3.06394483E+02
 21
7.95996437E+01
  0
LINE
  8
0
 62
7
 10
-3.06065833E+02
 20
8.20993336E+01
 11
-3.04980335E+02
 21
8.10138360E+01
  0
LINE
  8
0
 62
7
 10
-2.98750092E+02
 20
9.03695257E+01
 11
-2.88750000E+02
 21
9.03695257E+01
  0
LINE
  8
0
 62
7
 10
-3.15749969E+02
 20
7.33694952E+01
 11
-3.15749969E+02
 21
6.33694342E+01
  0
LINE
  8
0
 62
7
 10
-3.14750000E+02
 20
6.73694799E+01
 11
-3.10631958E+02
 21
6.73694799E+01
  0
LINE
  8
0
 62
7
 10
-3.07480042E+02
 20
5.60538348E+01
 11
-3.06394566E+02
 21
5.71393112E+01
  0
LINE
  8
0
 62
7
 10
-2.94750031E+02
 20
4.73695028E+01
 11
-2.94750031E+02
 21
5.14875448E+01
  0
LINE
  8
0
 62
7
 10
-3.06065850E+02
 20
5.46396861E+01
 11
-3.04980363E+02
 21
5.57251733E+01
  0
LINE
  8
0
  6
CENTER
 62
2
 10
-2.97750031E+02
 20
9.51218450E+01
 11
-2.97750031E+02
 21
7.97356909E+01
  0
LINE
  8
0
 62
7
 10
-2.98750092E+02
 20
4.63694570E+01
 11
-2.88750000E+02
 21
4.63694570E+01
  0
LINE
  8
0
 62
7
 10
-2.99327026E+02
 20
9.01862677E+01
 11
-2.99327026E+02
 21
8.33660162E+01
  0
LINE
  8
0
 62
7
 10
-2.92750031E+02
 20
4.73695028E+01
 11
-2.92750031E+02
 21
5.14875448E+01
  0
LINE
  8
0
 62
7
 10
-2.81434396E+02
 20
5.46394255E+01
 11
-2.82519872E+02
 21
5.57249017E+01
  0
LINE
  8
0
 62
7
 10
-2.72750031E+02
 20
6.73694647E+01
 11
-2.76868073E+02
 21
6.73694647E+01
  0
LINE
  8
0
 62
7
 10
-2.80020247E+02
 20
5.60536608E+01
 11
-2.81105680E+02
 21
5.71390938E+01
  0
LINE
  8
0
  6
CENTER
 62
2
 10
-2.93749969E+02
 20
9.68644445E+01
 11
-2.93749969E+02
 21
3.90681951E+01
  0
LINE
  8
0
  6
CENTER
 62
2
 10
-2.75250031E+02
 20
4.14814031E+01
 11
-2.75250031E+02
 21
5.74457968E+01
  0
LINE
  8
0
 62
7
 10
-3.13749969E+02
 20
9.33694952E+01
 11
-3.13749969E+02
 21
9.28694952E+01
  0
LINE
  8
0
 62
7
 10
-2.73749969E+02
 20
9.33694952E+01
 11
-2.73749969E+02
 21
9.28694342E+01
  0
LINE
  8
0
 62
7
 10
-3.13749969E+02
 20
4.38694647E+01
 11
-3.13749969E+02
 21
4.33694647E+01
  0
LINE
  8
0
 62
7
 10
-2.73749969E+02
 20
4.38694647E+01
 11
-2.73749969E+02
 21
4.33694647E+01
  0
LINE
  8
0
 62
7
 10
-3.04463196E+02
 20
5.03694952E+01
 11
-3.02500092E+02
 21
5.03694952E+01
  0
LINE
  8
0
 62
7
 10
-2.83038116E+02
 20
5.03693960E+01
 11
-2.85000000E+02
 21
5.03693960E+01
  0
LINE
  8
0
 62
7
 10
-2.75750061E+02
 20
5.76568487E+01
 11
-2.75750061E+02
 21
5.96194342E+01
  0
LINE
  8
0
 62
7
 10
-2.75749908E+02
 20
7.90807684E+01
 11
-2.75749908E+02
 21
7.71194952E+01
  0
LINE
  8
0
 62
7
 10
-2.83037048E+02
 20
8.63694952E+01
 11
-2.85000000E+02
 21
8.63694952E+01
  0
LINE
  8
0
 62
7
 10
-3.04461761E+02
 20
8.63695715E+01
 11
-3.02500092E+02
 21
8.63695715E+01
  0
LINE
  8
0
 62
7
 10
-3.11749969E+02
 20
7.90816229E+01
 11
-3.11749969E+02
 21
7.71194952E+01
  0
LINE
  8
0
 62
7
 10
-3.11749969E+02
 20
5.76573065E+01
 11
-3.11749969E+02
 21
5.96194342E+01
  0
LINE
  8
0
  6
CENTER
 62
2
 10
-2.81631409E+02
 20
4.98694876E+01
 11
-2.67109772E+02
 21
4.98694876E+01
  0
LINE
  8
0
  6
CENTER
 62
2
 10
-2.81631409E+02
 20
8.68695410E+01
 11
-2.67109772E+02
 21
8.68695410E+01
  0
LINE
  8
0
  6
CENTER
 62
2
 10
-2.83749969E+02
 20
7.67235601E+01
 11
-2.83749969E+02
 21
9.52984808E+01
  0
ARC
  8
0
 62
7
 10
-3.26872498E+02
 20
5.86349142E+01
 40
2.50000000E+00
 50
9.63728081E+01
 51
1.87691385E+02
  0
ARC
  8
0
 62
7
 10
-3.26872498E+02
 20
8.06348913E+01
 40
2.50000000E+00
 50
8.99999956E+01
 51
1.72308570E+02
  0
ARC
  8
0
 62
7
 10
-3.26872498E+02
 20
5.61040228E+01
 40
2.50000000E+00
 50
1.87691403E+02
 51
2.69999963E+02
  0
ARC
  8
0
 62
7
 10
-3.26872498E+02
 20
7.81040228E+01
 40
2.50000000E+00
 50
1.72308570E+02
 51
2.63627161E+02
  0
ARC
  8
0
 62
7
 10
-2.71750000E+02
 20
9.03694342E+01
 40
2.50000000E+00
 50
0.00000000E+00
 51
8.99999818E+01
  0
CIRCLE
  8
0
 62
7
 10
-2.75249939E+02
 20
8.68694647E+01
 40
5.00000000E+00
  0
CIRCLE
  8
0
 62
7
 10
-2.75249939E+02
 20
8.68694647E+01
 40
4.50000000E+00
  0
ARC
  8
0
 62
7
 10
-2.82141418E+02
 20
8.28064459E+01
 40
1.00000000E+00
 50
3.15000624E+02
 51
3.05224488E+01
  0
ARC
  8
0
 62
7
 10
-2.72750031E+02
 20
7.03694647E+01
 40
1.00000000E+00
 50
2.69999963E+02
 51
0.00000000E+00
  0
ARC
  8
0
 62
7
 10
-2.76868073E+02
 20
7.03694647E+01
 40
1.00000000E+00
 50
1.86756090E+02
 51
2.69999963E+02
  0
ARC
  8
0
 62
7
 10
-2.79312988E+02
 20
7.99780462E+01
 40
1.00000000E+00
 50
5.94777518E+01
 51
1.34999345E+02
  0
ARC
  8
0
 62
7
 10
-2.91750000E+02
 20
8.93694647E+01
 40
1.00000000E+00
 50
8.99999818E+01
 51
1.79999964E+02
  0
ARC
  8
0
 62
7
 10
-2.91750000E+02
 20
8.52514227E+01
 40
1.00000000E+00
 50
1.79999964E+02
 51
2.63243741E+02
  0
ARC
  8
0
 62
7
 10
-2.80398468E+02
 20
7.88925665E+01
 40
1.00000000E+00
 50
1.34999959E+02
 51
2.18243614E+02
  0
ARC
  8
0
 62
7
 10
-2.83226868E+02
 20
8.17209967E+01
 40
1.00000000E+00
 50
2.31755794E+02
 51
3.14999380E+02
  0
ARC
  8
0
 62
7
 10
-2.71750000E+02
 20
9.03694952E+01
 40
3.00000000E+00
 50
0.00000000E+00
 51
8.99999818E+01
  0
ARC
  8
0
 62
7
 10
-2.72750031E+02
 20
7.33694952E+01
 40
1.00000000E+00
 50
0.00000000E+00
 51
8.99999818E+01
  0
ARC
  8
0
 62
7
 10
-2.72750031E+02
 20
7.73694952E+01
 40
3.00000000E+00
 50
1.77973583E+02
 51
2.69999946E+02
  0
ARC
  8
0
 62
7
 10
-2.76747528E+02
 20
7.90109442E+01
 40
1.00000000E+00
 50
3.57973879E+02
 51
7.92109058E+01
  0
ARC
  8
0
 62
7
 10
-2.75250031E+02
 20
8.68695257E+01
 40
7.00000000E+00
 50
1.90788689E+02
 51
2.59211379E+02
  0
ARC
  8
0
 62
7
 10
-2.83108612E+02
 20
8.53720281E+01
 40
1.00000000E+00
 50
1.07884614E+01
 51
9.20251808E+01
  0
ARC
  8
0
 62
7
 10
-2.84750000E+02
 20
8.93695257E+01
 40
3.00000000E+00
 50
1.80000569E+02
 51
2.72025798E+02
  0
ARC
  8
0
 62
7
 10
-2.88750000E+02
 20
8.93694799E+01
 40
1.00000000E+00
 50
0.00000000E+00
 51
8.99999818E+01
  0
ARC
  8
0
 62
7
 10
-3.15750061E+02
 20
4.63694952E+01
 40
2.50000000E+00
 50
1.79999964E+02
 51
2.69999946E+02
  0
ARC
  8
0
 62
7
 10
-3.15750000E+02
 20
9.03694952E+01
 40
2.50000000E+00
 50
8.99999818E+01
 51
1.79999964E+02
  0
ARC
  8
0
 62
7
 10
-3.15750061E+02
 20
9.03694952E+01
 40
3.00000000E+00
 50
8.99999818E+01
 51
1.79999964E+02
  0
ARC
  8
0
 62
7
 10
-3.15750061E+02
 20
4.63694647E+01
 40
3.00000000E+00
 50
1.79999964E+02
 51
2.69999946E+02
  0
CIRCLE
  8
0
 62
7
 10
-3.12250000E+02
 20
8.68695257E+01
 40
4.50000000E+00
  0
CIRCLE
  8
0
 62
7
 10
-3.12250000E+02
 20
8.68695257E+01
 40
5.00000000E+00
  0
CIRCLE
  8
0
 62
7
 10
-3.12250061E+02
 20
4.98694647E+01
 40
4.50000000E+00
  0
CIRCLE
  8
0
 62
7
 10
-3.12250061E+02
 20
4.98694647E+01
 40
5.00000000E+00
  0
ARC
  8
0
 62
7
 10
-3.14750000E+02
 20
7.03694647E+01
 40
1.00000000E+00
 50
1.79999964E+02
 51
2.69999946E+02
  0
ARC
  8
0
 62
7
 10
-2.95750000E+02
 20
8.93694647E+01
 40
1.00000000E+00
 50
3.59999959E+02
 51
8.99999956E+01
  0
ARC
  8
0
 62
7
 10
-3.05358582E+02
 20
8.28065069E+01
 40
1.00000000E+00
 50
1.49477747E+02
 51
2.24999340E+02
  0
ARC
  8
0
 62
7
 10
-3.12250000E+02
 20
8.68695257E+01
 40
7.00000000E+00
 50
2.80788616E+02
 51
3.49211279E+02
  0
ARC
  8
0
 62
7
 10
-3.08187042E+02
 20
7.99780767E+01
 40
1.00000000E+00
 50
4.50006194E+01
 51
1.20522431E+02
  0
ARC
  8
0
 62
7
 10
-2.95750000E+02
 20
8.52514227E+01
 40
1.00000000E+00
 50
2.76756086E+02
 51
3.59999959E+02
  0
ARC
  8
0
 62
7
 10
-3.04273163E+02
 20
8.17210577E+01
 40
1.00000000E+00
 50
2.24999972E+02
 51
3.08243613E+02
  0
ARC
  8
0
 62
7
 10
-3.07101562E+02
 20
7.88926275E+01
 40
1.00000000E+00
 50
3.21755790E+02
 51
4.49993763E+01
  0
ARC
  8
0
 62
7
 10
-3.10631958E+02
 20
7.03694647E+01
 40
1.00000000E+00
 50
2.69999963E+02
 51
3.53243741E+02
  0
ARC
  8
0
 62
7
 10
-3.05358673E+02
 20
5.39324835E+01
 40
1.00000000E+00
 50
1.35000615E+02
 51
2.10522426E+02
  0
ARC
  8
0
 62
7
 10
-3.14750000E+02
 20
6.63694570E+01
 40
1.00000000E+00
 50
8.99999549E+01
 51
1.79999991E+02
  0
ARC
  8
0
 62
7
 10
-3.10631958E+02
 20
6.63694570E+01
 40
1.00000000E+00
 50
6.75608163E+00
 51
8.99999549E+01
  0
ARC
  8
0
 62
7
 10
-3.08187073E+02
 20
5.67608831E+01
 40
1.00000000E+00
 50
2.39477760E+02
 51
3.14999353E+02
  0
ARC
  8
0
 62
7
 10
-2.95750000E+02
 20
4.73694647E+01
 40
1.00000000E+00
 50
2.69999991E+02
 51
3.59999973E+02
  0
ARC
  8
0
 62
7
 10
-2.95750000E+02
 20
5.14875067E+01
 40
1.00000000E+00
 50
3.59999973E+02
 51
8.32437569E+01
  0
ARC
  8
0
 62
7
 10
-3.07101624E+02
 20
5.78463629E+01
 40
1.00000000E+00
 50
3.14999968E+02
 51
3.82436225E+01
  0
ARC
  8
0
 62
7
 10
-3.04273193E+02
 20
5.50179327E+01
 40
1.00000000E+00
 50
5.17557857E+01
 51
1.34999372E+02
  0
ARC
  8
0
 62
7
 10
-3.14750000E+02
 20
7.73694952E+01
 40
3.00000000E+00
 50
2.70000018E+02
 51
0.00000000E+00
  0
ARC
  8
0
 62
7
 10
-3.02750061E+02
 20
8.93695257E+01
 40
3.00000000E+00
 50
2.67974184E+02
 51
3.59999399E+02
  0
ARC
  8
0
 62
7
 10
-3.14750000E+02
 20
7.33694952E+01
 40
1.00000000E+00
 50
8.99999818E+01
 51
1.79999964E+02
  0
ARC
  8
0
 62
7
 10
-3.10752502E+02
 20
7.90108984E+01
 40
1.00000000E+00
 50
1.00789058E+02
 51
1.82026085E+02
  0
ARC
  8
0
 62
7
 10
-2.98750092E+02
 20
8.93694799E+01
 40
1.00000000E+00
 50
8.99999818E+01
 51
1.79999964E+02
  0
ARC
  8
0
 62
7
 10
-3.04391418E+02
 20
8.53720281E+01
 40
1.00000000E+00
 50
8.79747829E+01
 51
1.69211502E+02
  0
ARC
  8
0
 62
7
 10
-3.10752502E+02
 20
5.77279852E+01
 40
1.00000000E+00
 50
1.77973898E+02
 51
2.59210925E+02
  0
ARC
  8
0
 62
7
 10
-3.12250000E+02
 20
4.98694036E+01
 40
7.00000000E+00
 50
1.07887209E+01
 51
7.92113774E+01
  0
ARC
  8
0
 62
7
 10
-3.04391418E+02
 20
5.13669012E+01
 40
1.00000000E+00
 50
1.90788497E+02
 51
2.72025197E+02
  0
ARC
  8
0
 62
7
 10
-3.02750061E+02
 20
4.73694036E+01
 40
3.00000000E+00
 50
5.80566079E-04
 51
9.20258231E+01
  0
ARC
  8
0
 62
7
 10
-2.98750092E+02
 20
4.73694342E+01
 40
1.00000000E+00
 50
1.80000050E+02
 51
2.70000018E+02
  0
ARC
  8
0
 62
7
 10
-2.71750092E+02
 20
4.63694647E+01
 40
2.50000000E+00
 50
2.69999963E+02
 51
0.00000000E+00
  0
ARC
  8
0
 62
7
 10
-2.71750000E+02
 20
4.63694647E+01
 40
3.00000000E+00
 50
2.69999963E+02
 51
0.00000000E+00
  0
CIRCLE
  8
0
 62
7
 10
-2.75250031E+02
 20
4.98694036E+01
 40
4.50000000E+00
  0
CIRCLE
  8
0
 62
7
 10
-2.75250031E+02
 20
4.98694036E+01
 40
5.00000000E+00
  0
ARC
  8
0
 62
7
 10
-2.79313049E+02
 20
5.67608526E+01
 40
1.00000000E+00
 50
2.25000628E+02
 51
3.00522440E+02
  0
ARC
  8
0
 62
7
 10
-2.91750000E+02
 20
4.73694647E+01
 40
1.00000000E+00
 50
1.79999951E+02
 51
2.70000001E+02
  0
ARC
  8
0
 62
7
 10
-2.91750000E+02
 20
5.14875067E+01
 40
1.00000000E+00
 50
9.67560773E+01
 51
1.79999951E+02
  0
ARC
  8
0
 62
7
 10
-2.82141418E+02
 20
5.39324224E+01
 40
1.00000000E+00
 50
3.29477756E+02
 51
4.49993490E+01
  0
ARC
  8
0
 62
7
 10
-2.72750031E+02
 20
6.63694570E+01
 40
1.00000000E+00
 50
3.59999986E+02
 51
8.99999681E+01
  0
ARC
  8
0
 62
7
 10
-2.76868073E+02
 20
6.63694570E+01
 40
1.00000000E+00
 50
8.99999681E+01
 51
1.73243759E+02
  0
ARC
  8
0
 62
7
 10
-2.83226929E+02
 20
5.50178717E+01
 40
1.00000000E+00
 50
4.49999637E+01
 51
1.28243618E+02
  0
ARC
  8
0
 62
7
 10
-2.80398499E+02
 20
5.78463018E+01
 40
1.00000000E+00
 50
1.41755781E+02
 51
2.24999368E+02
  0
ARC
  8
0
 62
7
 10
-2.88750000E+02
 20
4.73694342E+01
 40
1.00000000E+00
 50
2.70000018E+02
 51
0.00000000E+00
  0
ARC
  8
0
 62
7
 10
-2.84750000E+02
 20
4.73694036E+01
 40
3.00000000E+00
 50
8.79741887E+01
 51
1.79999431E+02
  0
ARC
  8
0
 62
7
 10
-2.83108612E+02
 20
5.13669012E+01
 40
1.00000000E+00
 50
2.67974839E+02
 51
3.49211525E+02
  0
ARC
  8
0
 62
7
 10
-2.75250031E+02
 20
4.98694036E+01
 40
7.00000000E+00
 50
1.00788641E+02
 51
1.69211298E+02
  0
ARC
  8
0
 62
7
 10
-2.76747528E+02
 20
5.77280157E+01
 40
1.00000000E+00
 50
2.80789094E+02
 51
2.02612098E+00
  0
ARC
  8
0
 62
7
 10
-2.72750031E+02
 20
5.93694342E+01
 40
3.00000000E+00
 50
9.00000369E+01
 51
1.82026399E+02
  0
ARC
  8
0
 62
7
 10
-2.72750031E+02
 20
6.33694342E+01
 40
1.00000000E+00
 50
2.70000018E+02
 51
0.00000000E+00
  0
CIRCLE
  8
0
 62
7
 10
-2.93750000E+02
 20
6.83694647E+01
 40
1.60000000E+01
  0
CIRCLE
  8
0
 62
7
 10
-2.93750000E+02
 20
6.83694647E+01
 40
1.55000010E+01
  0
CIRCLE
  8
0
 62
7
 10
-2.93750000E+02
 20
6.83694647E+01
 40
1.50000000E+01
  0
ARC
  8
0
 62
7
 10
-3.14750000E+02
 20
5.93694342E+01
 40
3.00000000E+00
 50
3.57973626E+02
 51
8.99999818E+01
  0
ARC
  8
0
 62
7
 10
-3.14750000E+02
 20
6.33694342E+01
 40
1.00000000E+00
 50
1.79999977E+02
 51
2.70000001E+02
  0
CIRCLE
  8
0
 62
2
 10
-3.12250000E+02
 20
8.68695257E+01
 40
3.00000000E+00
  0
CIRCLE
  8
0
 62
2
 10
-3.12250153E+02
 20
4.98695028E+01
 40
3.00000000E+00
  0
CIRCLE
  8
0
 62
2
 10
-2.75250061E+02
 20
4.98695028E+01
 40
3.00000000E+00
  0
CIRCLE
  8
0
 62
2
 10
-2.75249939E+02
 20
8.68695562E+01
 40
3.00000000E+00
  0
CIRCLE
  8
0
 62
7
 10
-2.93749969E+02
 20
6.83694647E+01
 40
6.99998474E+00
  0
CIRCLE
  8
0
 62
2
 10
-2.93749969E+02
 20
6.83694647E+01
 40
6.17999268E+00
  0
CIRCLE
  8
0
 62
7
 10
-2.93749969E+02
 20
6.83694647E+01
 40
5.49998474E+00
  0
CIRCLE
  8
0
 62
4
 10
-2.93749969E+02
 20
6.83694647E+01
 40
1.10000000E+01
  0
LINE
  8
0
 62
4
 10
-2.93749969E+02
 20
8.10711706E+01
 11
-3.04749969E+02
 21
7.47203176E+01
  0
LINE
  8
0
 62
4
 10
-3.04749969E+02
 20
7.47203176E+01
 11
-3.04749969E+02
 21
6.20186117E+01
  0
LINE
  8
0
 62
4
 10
-3.04749969E+02
 20
6.20186117E+01
 11
-2.93749969E+02
 21
5.56677587E+01
  0
LINE
  8
0
 62
4
 10
-2.93749969E+02
 20
5.56677587E+01
 11
-2.82749969E+02
 21
6.20186117E+01
  0
LINE
  8
0
 62
4
 10
-2.82749969E+02
 20
6.20186117E+01
 11
-2.82749969E+02
 21
7.47203176E+01
  0
LINE
  8
0
 62
4
 10
-2.82749969E+02
 20
7.47203176E+01
 11
-2.93749969E+02
 21
8.10711706E+01
  0
LINE
  8
0
 62
6
 10
-3.22263102E+02
 20
8.06868497E+01
 11
-3.19225341E+02
 21
8.12224890E+01
  0
LINE
  8
0
 62
6
 10
-3.22784047E+02
 20
8.36412730E+01
 11
-3.19746285E+02
 21
8.41769123E+01
  0
LINE
  8
0
 62
4
 10
-3.22176278E+02
 20
8.01944458E+01
 11
-3.22870871E+02
 21
8.41336768E+01
  0
LINE
  8
0
 62
4
 10
-3.22176278E+02
 20
8.01944458E+01
 11
-3.19138517E+02
 21
8.07300852E+01
  0
LINE
  8
0
 62
4
 10
-3.22870871E+02
 20
8.41336768E+01
 11
-3.19833109E+02
 21
8.46693162E+01
  0
LINE
  8
0
 62
4
 10
-3.20402253E+02
 20
8.78970907E+01
 11
-3.18791220E+02
 21
7.87604697E+01
  0
LINE
  8
0
 62
4
 10
-3.07694256E+02
 20
1.05087402E+02
 11
-3.14587911E+02
 21
1.03871865E+02
  0
LINE
  8
0
 62
4
 10
-3.14587911E+02
 20
1.03871865E+02
 11
-3.20402253E+02
 21
8.78970907E+01
  0
ARC
  8
0
 62
4
 10
-3.17314009E+02
 20
7.90209419E+01
 40
1.50000000E+00
 50
1.90000000E+02
 51
1.96794373E+02
  0
LINE
  8
0
 62
4
 10
-3.06218247E+02
 20
9.67165366E+01
 11
-3.06710651E+02
 21
9.66297125E+01
  0
LINE
  8
0
 62
4
 10
-3.07116231E+02
 20
9.60504845E+01
 11
-3.06643500E+02
 21
9.33694952E+01
  0
ARC
  8
0
 62
4
 10
-3.06623827E+02
 20
9.61373086E+01
 40
5.00000000E-01
 50
9.99999999E+01
 51
1.90000000E+02
  0
LINE
  8
0
  6
CENTER
 62
6
 10
-3.13408852E+02
 20
8.37712328E+01
 11
-3.20874857E+02
 21
8.24547748E+01
  0
LINE
  8
0
  6
CENTER
 62
6
 10
-3.07843510E+02
 20
9.69376722E+01
 11
-2.94993005E+02
 21
9.92035630E+01
  0
LINE
  8
0
  6
CENTER
 62
6
 10
-3.17685146E+02
 20
9.87563194E+01
 11
-2.95600773E+02
 21
1.02650390E+02
  0
LINE
  8
0
 62
4
 10
-2.98925202E+02
 20
9.56670160E+01
 11
-2.98600738E+02
 21
9.61303984E+01
  0
LINE
  8
0
 62
4
 10
-2.98600738E+02
 20
9.61303984E+01
 11
-2.95744796E+02
 21
9.66339781E+01
  0
LINE
  8
0
 62
4
 10
-2.99417606E+02
 20
9.55801919E+01
 11
-2.99027800E+02
 21
9.33694952E+01
  0
LINE
  8
0
 62
4
 10
-2.99417606E+02
 20
9.55801919E+01
 11
-2.98925202E+02
 21
9.56670160E+01
  0
LINE
  8
0
 62
4
 10
-3.07694256E+02
 20
1.05087402E+02
 11
-3.06218247E+02
 21
9.67165366E+01
  0
LINE
  8
0
 62
4
 10
-2.97550737E+02
 20
1.06875979E+02
 11
-3.07694256E+02
 21
1.05087402E+02
  0
LINE
  8
0
 62
4
 10
-3.06612170E+02
 20
9.66470773E+01
 11
-3.06034244E+02
 21
9.33694952E+01
  0
LINE
  8
0
 62
4
 10
-2.96166719E+02
 20
9.51684472E+01
 11
-2.95849515E+02
 21
9.33694952E+01
  0
LINE
  8
0
 62
4
 10
-2.98149456E+02
 20
9.33694952E+01
 11
-2.98397308E+02
 21
9.47751341E+01
  0
LINE
  8
0
 62
4
 10
-2.95461010E+02
 20
9.61763038E+01
 11
-2.96166719E+02
 21
9.51684472E+01
  0
LINE
  8
0
 62
4
 10
-2.99400241E+02
 20
9.54817111E+01
 11
-2.98397308E+02
 21
9.47751341E+01
  0
LINE
  8
0
 62
4
 10
-2.98397308E+02
 20
9.47751341E+01
 11
-2.96166719E+02
 21
9.51684472E+01
  0
LINE
  8
0
 62
4
 10
-2.99400241E+02
 20
9.54817111E+01
 11
-2.95461010E+02
 21
9.61763038E+01
  0
LINE
  8
0
 62
4
 10
-2.95461010E+02
 20
9.61763038E+01
 11
-2.94966094E+02
 21
9.33694952E+01
  0
LINE
  8
0
  6
CENTER
 62
6
 10
-2.97604274E+02
 20
9.68138152E+01
 11
-2.96562384E+02
 21
9.09049687E+01
  0
LINE
  8
0
  6
CENTER
 62
6
 10
-3.00037752E+02
 20
9.33384475E+01
 11
-2.94128906E+02
 21
9.43803365E+01
  0
LINE
  8
0
 62
4
 10
-2.97429183E+02
 20
1.06186613E+02
 11
-2.96444375E+02
 21
1.06360261E+02
  0
ARC
  8
0
 62
4
 10
-2.94254133E+02
 20
1.00450815E+02
 40
1.00000000E+00
 50
3.28723662E+02
 51
3.57172490E+02
  0
ARC
  8
0
 62
4
 10
-2.95087645E+02
 20
1.05177893E+02
 40
1.00000000E+00
 50
2.28275100E+01
 51
9.99999999E+01
  0
ARC
  8
0
 62
4
 10
-3.05050973E+02
 20
1.00984065E+02
 40
1.18100000E+01
 50
3.57172490E+02
 51
2.28275100E+01
  0
LINE
  8
0
 62
4
 10
-2.96374916E+02
 20
1.05966338E+02
 11
-2.95262083E+02
 21
1.06162561E+02
  0
LINE
  8
0
 62
4
 10
-2.95897383E+02
 20
1.03258117E+02
 11
-2.96444375E+02
 21
1.06360261E+02
  0
LINE
  8
0
 62
4
 10
-2.95066684E+02
 20
9.49765508E+01
 11
-2.96507964E+02
 21
1.03150455E+02
  0
LINE
  8
0
 62
4
 10
-2.96856144E+02
 20
1.02936748E+02
 11
-2.96481917E+02
 21
1.03002734E+02
  0
LINE
  8
0
 62
4
 10
-2.95269997E+02
 20
9.50930153E+01
 11
-2.95092731E+02
 21
9.51242720E+01
  0
LINE
  8
0
 62
4
 10
-2.96507964E+02
 20
1.03150455E+02
 11
-2.94774702E+02
 21
1.03456076E+02
  0
LINE
  8
0
 62
4
 10
-2.95066684E+02
 20
9.49765508E+01
 11
-2.93333423E+02
 21
9.52821716E+01
  0
ARC
  8
0
 62
4
 10
-3.04947120E+02
 20
9.74562415E+01
 40
1.18100000E+01
 50
9.99999999E+00
 51
3.05326991E+01
  0
ARC
  8
0
 62
4
 10
-3.04944433E+02
 20
9.74410000E+01
 40
1.18100000E+01
 50
3.49467301E+02
 51
9.99999999E+00
  0
LINE
  8
0
 62
4
 10
-2.95657971E+02
 20
9.61415742E+01
 11
-2.97550737E+02
 21
1.06875979E+02
  0
LINE
  8
0
 62
4
 10
-2.92032920E+02
 20
9.50582857E+01
 11
-2.89949141E+02
 21
1.06875979E+02
  0
LINE
  8
0
 62
4
 10
-2.92032919E+02
 20
9.50582857E+01
 11
-2.92407146E+02
 21
9.51242720E+01
  0
LINE
  8
0
 62
4
 10
-2.92433194E+02
 20
9.49765508E+01
 11
-2.91764648E+02
 21
9.87680607E+01
  0
LINE
  8
0
 62
4
 10
-2.92375229E+02
 20
9.88757225E+01
 11
-2.91055503E+02
 21
1.06360261E+02
  0
LINE
  8
0
 62
4
 10
-2.90070695E+02
 20
1.06186613E+02
 11
-2.91055503E+02
 21
1.06360261E+02
  0
LINE
  8
0
 62
4
 10
-2.91390421E+02
 20
9.87020744E+01
 11
-2.92375229E+02
 21
9.88757225E+01
  0
ARC
  8
0
 62
4
 10
-2.90546785E+02
 20
9.31207862E+01
 40
5.00000000E-01
 50
2.98293252E+01
 51
1.50170675E+02
  0
CIRCLE
  8
0
 62
4
 10
-2.90286313E+02
 20
9.45979978E+01
 40
5.00000000E-01
  0
CIRCLE
  8
0
 62
4
 10
-2.90286313E+02
 20
9.45979978E+01
 40
3.00000000E-01
  0
ARC
  8
0
 62
4
 10
-2.90546785E+02
 20
9.31207862E+01
 40
3.00000000E-01
 50
5.59992305E+01
 51
1.24000769E+02
  0
ARC
  8
0
 62
4
 10
-2.90416549E+02
 20
9.38593920E+01
 40
1.50000000E+00
 50
3.40937591E+02
 51
1.99062409E+02
  0
LINE
  8
0
 62
4
 10
-2.67097625E+02
 20
8.78970907E+01
 11
-2.68708658E+02
 21
7.87604697E+01
  0
LINE
  8
0
 62
4
 10
-2.79805622E+02
 20
1.05087402E+02
 11
-2.72911967E+02
 21
1.03871865E+02
  0
LINE
  8
0
 62
4
 10
-2.72911967E+02
 20
1.03871865E+02
 11
-2.67097625E+02
 21
8.78970907E+01
  0
ARC
  8
0
 62
4
 10
-2.70185869E+02
 20
7.90209419E+01
 40
1.50000000E+00
 50
3.43189498E+02
 51
3.50000000E+02
  0
LINE
  8
0
 62
4
 10
-2.81281631E+02
 20
9.67165366E+01
 11
-2.80789227E+02
 21
9.66297125E+01
  0
LINE
  8
0
 62
4
 10
-2.80383647E+02
 20
9.60504845E+01
 11
-2.80856378E+02
 21
9.33694952E+01
  0
ARC
  8
0
 62
4
 10
-2.80876051E+02
 20
9.61373086E+01
 40
5.00000000E-01
 50
3.50000000E+02
 51
7.99999999E+01
  0
LINE
  8
0
  6
CENTER
 62
6
 10
-2.73681960E+02
 20
8.36991035E+01
 11
-2.66215956E+02
 21
8.23826456E+01
  0
LINE
  8
0
  6
CENTER
 62
6
 10
-2.79656368E+02
 20
9.69376722E+01
 11
-2.92506873E+02
 21
9.92035630E+01
  0
LINE
  8
0
  6
CENTER
 62
6
 10
-2.69814732E+02
 20
9.87563194E+01
 11
-2.91899105E+02
 21
1.02650390E+02
  0
LINE
  8
0
 62
4
 10
-2.88574676E+02
 20
9.56670160E+01
 11
-2.88899140E+02
 21
9.61303984E+01
  0
LINE
  8
0
 62
4
 10
-2.88899140E+02
 20
9.61303984E+01
 11
-2.91755082E+02
 21
9.66339781E+01
  0
LINE
  8
0
 62
4
 10
-2.88082272E+02
 20
9.55801919E+01
 11
-2.88472078E+02
 21
9.33694952E+01
  0
LINE
  8
0
 62
4
 10
-2.88082272E+02
 20
9.55801919E+01
 11
-2.88574676E+02
 21
9.56670160E+01
  0
LINE
  8
0
 62
4
 10
-2.79805622E+02
 20
1.05087402E+02
 11
-2.81281631E+02
 21
9.67165366E+01
  0
LINE
  8
0
 62
4
 10
-2.89949141E+02
 20
1.06875979E+02
 11
-2.79805622E+02
 21
1.05087402E+02
  0
LINE
  8
0
 62
4
 10
-2.80887708E+02
 20
9.66470773E+01
 11
-2.81465634E+02
 21
9.33694952E+01
  0
LINE
  8
0
 62
4
 10
-2.88099637E+02
 20
9.54817111E+01
 11
-2.92038868E+02
 21
9.61763038E+01
  0
LINE
  8
0
 62
4
 10
-2.92038868E+02
 20
9.61763038E+01
 11
-2.92533784E+02
 21
9.33694952E+01
  0
LINE
  8
0
  6
CENTER
 62
6
 10
-2.89895604E+02
 20
9.68138152E+01
 11
-2.90937493E+02
 21
9.09049687E+01
  0
LINE
  8
0
  6
CENTER
 62
6
 10
-2.87462126E+02
 20
9.33384475E+01
 11
-2.93370972E+02
 21
9.43803365E+01
  0
LINE
  8
0
 62
4
 10
-2.64629007E+02
 20
8.41336768E+01
 11
-2.67666769E+02
 21
8.46693162E+01
  0
LINE
  8
0
 62
4
 10
-2.65323600E+02
 20
8.01944458E+01
 11
-2.68361361E+02
 21
8.07300852E+01
  0
LINE
  8
0
 62
6
 10
-2.64715831E+02
 20
8.36412730E+01
 11
-2.67753593E+02
 21
8.41769123E+01
  0
LINE
  8
0
 62
6
 10
-2.65236775E+02
 20
8.06868497E+01
 11
-2.68274537E+02
 21
8.12224890E+01
  0
LINE
  8
0
 62
4
 10
-2.65323600E+02
 20
8.01944458E+01
 11
-2.64629007E+02
 21
8.41336768E+01
  0
ARC
  8
0
 62
4
 10
-2.92412233E+02
 20
1.05177893E+02
 40
1.00000000E+00
 50
7.99999999E+01
 51
1.57172490E+02
  0
LINE
  8
0
 62
4
 10
-2.91124962E+02
 20
1.05966338E+02
 11
-2.92237795E+02
 21
1.06162561E+02
  0
ARC
  8
0
  6
DASHED
 62
4
 10
-2.82448905E+02
 20
1.00984065E+02
 40
1.18100000E+01
 50
1.63117791E+02
 51
1.82827510E+02
  0
LINE
  8
0
 62
4
 10
-2.92305770E+02
 20
9.92696456E+01
 11
-2.93305871E+02
 21
9.94459906E+01
  0
ARC
  8
0
  6
DASHED
 62
4
 10
-2.93245745E+02
 20
1.00450815E+02
 40
1.00000000E+00
 50
1.82827510E+02
 51
2.60000000E+02
  0
ARC
  8
0
  6
DASHED
 62
4
 10
-2.82555445E+02
 20
9.74410000E+01
 40
1.18100000E+01
 50
1.70000000E+02
 51
1.90532699E+02
  0
ARC
  8
0
  6
DASHED
 62
4
 10
-2.82552758E+02
 20
9.74562415E+01
 40
1.18100000E+01
 50
1.67900933E+02
 51
1.70000000E+02
  0
LINE
  8
0
 62
4
 10
-2.92433194E+02
 20
9.49765508E+01
 11
-2.93749939E+02
 21
9.52087285E+01
  0
ARC
  8
0
 62
4
 10
-2.82448905E+02
 20
1.00984065E+02
 40
1.18100000E+01
 50
1.57172490E+02
 51
1.63117791E+02
  0
LINE
  8
0
  6
DASHED
 62
4
 10
-2.93305871E+02
 20
9.94459906E+01
 11
-2.93418602E+02
 21
9.94658681E+01
  0
LINE
  8
0
  6
DASHED
 62
4
 10
-2.93749939E+02
 20
9.52087285E+01
 11
-2.94166455E+02
 21
9.52821716E+01
  0
CIRCLE
  8
0
 62
7
 10
1.21750031E+02
 20
4.98694876E+01
 40
2.45850000E+00
  0
CIRCLE
  8
0
 62
7
 10
1.58750092E+02
 20
4.98694876E+01
 40
2.45850000E+00
  0
CIRCLE
  8
0
 62
7
 10
1.58750000E+02
 20
8.68695410E+01
 40
2.45850000E+00
  0
CIRCLE
  8
0
 62
7
 10
1.21749908E+02
 20
8.68695410E+01
 40
2.45850000E+00
  0
CIRCLE
  8
0
 62
7
 10
1.40249969E+02
 20
6.83694647E+01
 40
1.60000000E+01
  0
LINE
  8
0
  6
CENTER
 62
6
 10
1.20591056E+02
 20
8.37712328E+01
 11
1.13125052E+02
 21
8.24547748E+01
  0
ARC
  8
0
 62
4
 10
1.16685900E+02
 20
7.90209419E+01
 40
1.50000000E+00
 50
1.90000000E+02
 51
1.96794373E+02
  0
LINE
  8
0
 62
4
 10
1.13597655E+02
 20
8.78970907E+01
 11
1.15208688E+02
 21
7.87604697E+01
  0
LINE
  8
0
 62
4
 10
1.11129037E+02
 20
8.41336768E+01
 11
1.14166799E+02
 21
8.46693162E+01
  0
LINE
  8
0
 62
4
 10
1.11823630E+02
 20
8.01944458E+01
 11
1.14861392E+02
 21
8.07300852E+01
  0
LINE
  8
0
 62
4
 10
1.11823630E+02
 20
8.01944458E+01
 11
1.11129037E+02
 21
8.41336768E+01
  0
LINE
  8
0
 62
6
 10
1.11215861E+02
 20
8.36412730E+01
 11
1.14253623E+02
 21
8.41769123E+01
  0
LINE
  8
0
 62
6
 10
1.11736806E+02
 20
8.06868497E+01
 11
1.14774568E+02
 21
8.12224890E+01
  0
LINE
  8
0
  6
DASHED
 62
4
 10
1.40249969E+02
 20
9.52087285E+01
 11
1.39833453E+02
 21
9.52821716E+01
  0
LINE
  8
0
  6
DASHED
 62
4
 10
1.40694037E+02
 20
9.94459906E+01
 11
1.40581306E+02
 21
9.94658681E+01
  0
ARC
  8
0
 62
4
 10
1.51551003E+02
 20
1.00984065E+02
 40
1.18100000E+01
 50
1.57172490E+02
 51
1.63117791E+02
  0
LINE
  8
0
 62
4
 10
1.41566715E+02
 20
9.49765508E+01
 11
1.40249969E+02
 21
9.52087285E+01
  0
ARC
  8
0
  6
DASHED
 62
4
 10
1.51447151E+02
 20
9.74562415E+01
 40
1.18100000E+01
 50
1.67900933E+02
 51
1.70000000E+02
  0
ARC
  8
0
  6
DASHED
 62
4
 10
1.51444463E+02
 20
9.74410000E+01
 40
1.18100000E+01
 50
1.70000000E+02
 51
1.90532699E+02
  0
ARC
  8
0
  6
DASHED
 62
4
 10
1.40754164E+02
 20
1.00450815E+02
 40
1.00000000E+00
 50
1.82827510E+02
 51
2.60000000E+02
  0
LINE
  8
0
 62
4
 10
1.41694139E+02
 20
9.92696456E+01
 11
1.40694037E+02
 21
9.94459906E+01
  0
ARC
  8
0
  6
DASHED
 62
4
 10
1.51551003E+02
 20
1.00984065E+02
 40
1.18100000E+01
 50
1.63117791E+02
 51
1.82827510E+02
  0
LINE
  8
0
 62
4
 10
1.42874946E+02
 20
1.05966338E+02
 11
1.41762114E+02
 21
1.06162561E+02
  0
ARC
  8
0
 62
4
 10
1.41587675E+02
 20
1.05177893E+02
 40
1.00000000E+00
 50
7.99999999E+01
 51
1.57172490E+02
  0
LINE
  8
0
  6
CENTER
 62
6
 10
1.46537783E+02
 20
9.33384475E+01
 11
1.40628936E+02
 21
9.43803365E+01
  0
LINE
  8
0
  6
CENTER
 62
6
 10
1.44104304E+02
 20
9.68138152E+01
 11
1.43062415E+02
 21
9.09049687E+01
  0
LINE
  8
0
 62
4
 10
1.41961040E+02
 20
9.61763038E+01
 11
1.41466124E+02
 21
9.33694952E+01
  0
LINE
  8
0
 62
4
 10
1.45900271E+02
 20
9.54817111E+01
 11
1.41961040E+02
 21
9.61763038E+01
  0
LINE
  8
0
 62
4
 10
1.53112201E+02
 20
9.66470773E+01
 11
1.52534274E+02
 21
9.33694952E+01
  0
LINE
  8
0
 62
4
 10
1.44050767E+02
 20
1.06875979E+02
 11
1.54194287E+02
 21
1.05087402E+02
  0
LINE
  8
0
 62
4
 10
1.54194287E+02
 20
1.05087402E+02
 11
1.52718277E+02
 21
9.67165366E+01
  0
LINE
  8
0
 62
4
 10
1.45917636E+02
 20
9.55801919E+01
 11
1.45425232E+02
 21
9.56670160E+01
  0
LINE
  8
0
 62
4
 10
1.45917636E+02
 20
9.55801919E+01
 11
1.45527831E+02
 21
9.33694952E+01
  0
LINE
  8
0
 62
4
 10
1.45100769E+02
 20
9.61303984E+01
 11
1.42244826E+02
 21
9.66339781E+01
  0
LINE
  8
0
 62
4
 10
1.45425232E+02
 20
9.56670160E+01
 11
1.45100769E+02
 21
9.61303984E+01
  0
LINE
  8
0
  6
CENTER
 62
6
 10
1.64185176E+02
 20
9.87563194E+01
 11
1.42100804E+02
 21
1.02650390E+02
  0
LINE
  8
0
  6
CENTER
 62
6
 10
1.54343541E+02
 20
9.69376722E+01
 11
1.41493035E+02
 21
9.92035630E+01
  0
ARC
  8
0
 62
4
 10
1.53123857E+02
 20
9.61373086E+01
 40
5.00000000E-01
 50
3.50000000E+02
 51
7.99999999E+01
  0
LINE
  8
0
 62
4
 10
1.53616261E+02
 20
9.60504845E+01
 11
1.53143530E+02
 21
9.33694952E+01
  0
LINE
  8
0
 62
4
 10
1.52718277E+02
 20
9.67165366E+01
 11
1.53210681E+02
 21
9.66297125E+01
  0
LINE
  8
0
 62
4
 10
1.54194287E+02
 20
1.05087402E+02
 11
1.61087941E+02
 21
1.03871865E+02
  0
ARC
  8
0
 62
4
 10
1.43583360E+02
 20
9.38593920E+01
 40
1.50000000E+00
 50
3.40937591E+02
 51
1.99062409E+02
  0
ARC
  8
0
 62
4
 10
1.43453123E+02
 20
9.31207862E+01
 40
3.00000000E-01
 50
5.59992305E+01
 51
1.24000769E+02
  0
CIRCLE
  8
0
 62
4
 10
1.43713596E+02
 20
9.45979978E+01
 40
3.00000000E-01
  0
CIRCLE
  8
0
 62
4
 10
1.43713596E+02
 20
9.45979978E+01
 40
5.00000000E-01
  0
ARC
  8
0
 62
4
 10
1.43453123E+02
 20
9.31207862E+01
 40
5.00000000E-01
 50
2.98293252E+01
 51
1.50170675E+02
  0
LINE
  8
0
 62
4
 10
1.42609487E+02
 20
9.87020744E+01
 11
1.41624679E+02
 21
9.88757225E+01
  0
LINE
  8
0
 62
4
 10
1.43929213E+02
 20
1.06186613E+02
 11
1.42944406E+02
 21
1.06360261E+02
  0
LINE
  8
0
 62
4
 10
1.41624679E+02
 20
9.88757225E+01
 11
1.42944406E+02
 21
1.06360261E+02
  0
LINE
  8
0
 62
4
 10
1.41566715E+02
 20
9.49765508E+01
 11
1.42235260E+02
 21
9.87680607E+01
  0
LINE
  8
0
 62
4
 10
1.41966989E+02
 20
9.50582857E+01
 11
1.41592762E+02
 21
9.51242720E+01
  0
LINE
  8
0
 62
4
 10
1.41966989E+02
 20
9.50582857E+01
 11
1.44050767E+02
 21
1.06875979E+02
  0
LINE
  8
0
 62
4
 10
1.38341937E+02
 20
9.61415742E+01
 11
1.36449172E+02
 21
1.06875979E+02
  0
ARC
  8
0
 62
4
 10
1.29055476E+02
 20
9.74410000E+01
 40
1.18100000E+01
 50
3.49467301E+02
 51
9.99999999E+00
  0
ARC
  8
0
 62
4
 10
1.29052788E+02
 20
9.74562415E+01
 40
1.18100000E+01
 50
9.99999999E+00
 51
3.05326991E+01
  0
LINE
  8
0
 62
4
 10
1.38933224E+02
 20
9.49765508E+01
 11
1.40666486E+02
 21
9.52821716E+01
  0
LINE
  8
0
 62
4
 10
1.37491944E+02
 20
1.03150455E+02
 11
1.39225206E+02
 21
1.03456076E+02
  0
LINE
  8
0
 62
4
 10
1.38729912E+02
 20
9.50930153E+01
 11
1.38907177E+02
 21
9.51242720E+01
  0
LINE
  8
0
 62
4
 10
1.37143765E+02
 20
1.02936748E+02
 11
1.37517992E+02
 21
1.03002734E+02
  0
LINE
  8
0
 62
4
 10
1.38933224E+02
 20
9.49765508E+01
 11
1.37491944E+02
 21
1.03150455E+02
  0
LINE
  8
0
 62
4
 10
1.38102525E+02
 20
1.03258117E+02
 11
1.37555533E+02
 21
1.06360261E+02
  0
LINE
  8
0
 62
4
 10
1.37624993E+02
 20
1.05966338E+02
 11
1.38737825E+02
 21
1.06162561E+02
  0
ARC
  8
0
 62
4
 10
1.28948936E+02
 20
1.00984065E+02
 40
1.18100000E+01
 50
3.57172490E+02
 51
2.28275100E+01
  0
ARC
  8
0
 62
4
 10
1.38912264E+02
 20
1.05177893E+02
 40
1.00000000E+00
 50
2.28275100E+01
 51
9.99999999E+01
  0
ARC
  8
0
 62
4
 10
1.39745775E+02
 20
1.00450815E+02
 40
1.00000000E+00
 50
3.28723662E+02
 51
3.57172490E+02
  0
LINE
  8
0
 62
4
 10
1.36570726E+02
 20
1.06186613E+02
 11
1.37555533E+02
 21
1.06360261E+02
  0
LINE
  8
0
  6
CENTER
 62
6
 10
1.33962156E+02
 20
9.33384475E+01
 11
1.39871003E+02
 21
9.43803365E+01
  0
LINE
  8
0
  6
CENTER
 62
6
 10
1.36395635E+02
 20
9.68138152E+01
 11
1.37437524E+02
 21
9.09049687E+01
  0
LINE
  8
0
 62
4
 10
1.38538899E+02
 20
9.61763038E+01
 11
1.39033815E+02
 21
9.33694952E+01
  0
LINE
  8
0
 62
4
 10
1.34599668E+02
 20
9.54817111E+01
 11
1.38538899E+02
 21
9.61763038E+01
  0
LINE
  8
0
 62
4
 10
1.35602600E+02
 20
9.47751341E+01
 11
1.37833190E+02
 21
9.51684472E+01
  0
LINE
  8
0
 62
4
 10
1.34599668E+02
 20
9.54817111E+01
 11
1.35602600E+02
 21
9.47751341E+01
  0
LINE
  8
0
 62
4
 10
1.38538899E+02
 20
9.61763038E+01
 11
1.37833190E+02
 21
9.51684472E+01
  0
LINE
  8
0
 62
4
 10
1.35850452E+02
 20
9.33694952E+01
 11
1.35602600E+02
 21
9.47751341E+01
  0
LINE
  8
0
 62
4
 10
1.37833190E+02
 20
9.51684472E+01
 11
1.38150394E+02
 21
9.33694952E+01
  0
LINE
  8
0
 62
4
 10
1.27387738E+02
 20
9.66470773E+01
 11
1.27965665E+02
 21
9.33694952E+01
  0
LINE
  8
0
 62
4
 10
1.36449172E+02
 20
1.06875979E+02
 11
1.26305652E+02
 21
1.05087402E+02
  0
LINE
  8
0
 62
4
 10
1.26305652E+02
 20
1.05087402E+02
 11
1.27781662E+02
 21
9.67165366E+01
  0
LINE
  8
0
 62
4
 10
1.34582303E+02
 20
9.55801919E+01
 11
1.35074707E+02
 21
9.56670160E+01
  0
LINE
  8
0
 62
4
 10
1.34582303E+02
 20
9.55801919E+01
 11
1.34972108E+02
 21
9.33694952E+01
  0
LINE
  8
0
 62
4
 10
1.35399170E+02
 20
9.61303984E+01
 11
1.38255113E+02
 21
9.66339781E+01
  0
LINE
  8
0
 62
4
 10
1.35074707E+02
 20
9.56670160E+01
 11
1.35399170E+02
 21
9.61303984E+01
  0
LINE
  8
0
  6
CENTER
 62
6
 10
1.16314763E+02
 20
9.87563194E+01
 11
1.38399135E+02
 21
1.02650390E+02
  0
LINE
  8
0
  6
CENTER
 62
6
 10
1.26156398E+02
 20
9.69376722E+01
 11
1.39006904E+02
 21
9.92035630E+01
  0
ARC
  8
0
 62
4
 10
1.27376082E+02
 20
9.61373086E+01
 40
5.00000000E-01
 50
9.99999999E+01
 51
1.90000000E+02
  0
LINE
  8
0
 62
4
 10
1.26883678E+02
 20
9.60504845E+01
 11
1.27356409E+02
 21
9.33694952E+01
  0
LINE
  8
0
 62
4
 10
1.27781662E+02
 20
9.67165366E+01
 11
1.27289258E+02
 21
9.66297125E+01
  0
LINE
  8
0
 62
4
 10
1.26305652E+02
 20
1.05087402E+02
 11
1.19411998E+02
 21
1.03871865E+02
  0
LINE
  8
0
 62
4
 10
1.19411998E+02
 20
1.03871865E+02
 11
1.13597655E+02
 21
8.78970907E+01
  0
LINE
  8
0
 62
4
 10
1.61087941E+02
 20
1.03871865E+02
 11
1.66902284E+02
 21
8.78970907E+01
  0
CIRCLE
  8
0
 62
2
 10
1.21749939E+02
 20
8.68695562E+01
 40
3.00000000E+00
  0
CIRCLE
  8
0
 62
2
 10
1.21750061E+02
 20
4.98695028E+01
 40
3.00000000E+00
  0
CIRCLE
  8
0
 62
2
 10
1.58750153E+02
 20
4.98695028E+01
 40
3.00000000E+00
  0
CIRCLE
  8
0
 62
2
 10
1.58750000E+02
 20
8.68695257E+01
 40
3.00000000E+00
  0
ARC
  8
0
 62
7
 10
1.61250000E+02
 20
6.33694342E+01
 40
1.00000000E+00
 50
2.69999999E+02
 51
2.23118003E-05
  0
ARC
  8
0
 62
7
 10
1.61250000E+02
 20
5.93694342E+01
 40
3.00000000E+00
 50
9.00000179E+01
 51
1.82026374E+02
  0
CIRCLE
  8
0
 62
7
 10
1.40250000E+02
 20
6.83694647E+01
 40
1.55000010E+01
  0
ARC
  8
0
 62
7
 10
1.19250031E+02
 20
6.33694342E+01
 40
1.00000000E+00
 50
1.80000000E+02
 51
2.69999982E+02
  0
ARC
  8
0
 62
7
 10
1.19250031E+02
 20
5.93694342E+01
 40
3.00000000E+00
 50
3.57973601E+02
 51
8.99999635E+01
  0
ARC
  8
0
 62
7
 10
1.23247528E+02
 20
5.77280157E+01
 40
1.00000000E+00
 50
1.77973879E+02
 51
2.59210906E+02
  0
ARC
  8
0
 62
7
 10
1.21750031E+02
 20
4.98694036E+01
 40
7.00000000E+00
 50
1.07887022E+01
 51
7.92113585E+01
  0
ARC
  8
0
 62
7
 10
1.29608612E+02
 20
5.13669012E+01
 40
1.00000000E+00
 50
1.90788475E+02
 51
2.72025161E+02
  0
ARC
  8
0
 62
7
 10
1.31250000E+02
 20
4.73694036E+01
 40
3.00000000E+00
 50
5.68726934E-04
 51
9.20258111E+01
  0
ARC
  8
0
 62
7
 10
1.35250000E+02
 20
4.73694342E+01
 40
1.00000000E+00
 50
1.80000000E+02
 51
2.69999982E+02
  0
ARC
  8
0
 62
7
 10
1.26898499E+02
 20
5.78463018E+01
 40
1.00000000E+00
 50
3.15000632E+02
 51
3.82442186E+01
  0
ARC
  8
0
 62
7
 10
1.29726929E+02
 20
5.50178717E+01
 40
1.00000000E+00
 50
5.17563818E+01
 51
1.35000036E+02
  0
ARC
  8
0
 62
7
 10
1.23368073E+02
 20
6.63694570E+01
 40
1.00000000E+00
 50
6.75624051E+00
 51
9.00000317E+01
  0
ARC
  8
0
 62
7
 10
1.19250031E+02
 20
6.63694570E+01
 40
1.00000000E+00
 50
9.00000317E+01
 51
1.80000014E+02
  0
ARC
  8
0
 62
7
 10
1.28641418E+02
 20
5.39324224E+01
 40
1.00000000E+00
 50
1.35000651E+02
 51
2.10522244E+02
  0
ARC
  8
0
 62
7
 10
1.38250000E+02
 20
5.14875067E+01
 40
1.00000000E+00
 50
4.96325570E-05
 51
8.32439225E+01
  0
ARC
  8
0
 62
7
 10
1.38250000E+02
 20
4.73694647E+01
 40
1.00000000E+00
 50
2.69999999E+02
 51
4.96325570E-05
  0
ARC
  8
0
 62
7
 10
1.25813049E+02
 20
5.67608526E+01
 40
1.00000000E+00
 50
2.39477561E+02
 51
3.14999372E+02
  0
CIRCLE
  8
0
 62
7
 10
1.21750031E+02
 20
4.98694036E+01
 40
5.00000000E+00
  0
CIRCLE
  8
0
 62
7
 10
1.21750031E+02
 20
4.98694036E+01
 40
4.50000000E+00
  0
ARC
  8
0
 62
7
 10
1.18250000E+02
 20
4.63694647E+01
 40
3.00000000E+00
 50
1.80000000E+02
 51
2.70000037E+02
  0
ARC
  8
0
 62
7
 10
1.18250092E+02
 20
4.63694647E+01
 40
2.50000000E+00
 50
1.80000000E+02
 51
2.70000037E+02
  0
ARC
  8
0
 62
7
 10
1.45250092E+02
 20
4.73694342E+01
 40
1.00000000E+00
 50
2.69999982E+02
 51
3.59999950E+02
  0
ARC
  8
0
 62
7
 10
1.49250061E+02
 20
4.73694036E+01
 40
3.00000000E+00
 50
8.79741773E+01
 51
1.79999419E+02
  0
ARC
  8
0
 62
7
 10
1.50891418E+02
 20
5.13669012E+01
 40
1.00000000E+00
 50
2.67974804E+02
 51
3.49211503E+02
  0
ARC
  8
0
 62
7
 10
1.58750000E+02
 20
4.98694036E+01
 40
7.00000000E+00
 50
1.00788623E+02
 51
1.69211279E+02
  0
ARC
  8
0
 62
7
 10
1.57252502E+02
 20
5.77279852E+01
 40
1.00000000E+00
 50
2.80789075E+02
 51
2.02610230E+00
  0
ARC
  8
0
 62
7
 10
1.50891418E+02
 20
8.53720281E+01
 40
1.00000000E+00
 50
1.07884973E+01
 51
9.20252169E+01
  0
ARC
  8
0
 62
7
 10
1.45250092E+02
 20
8.93694799E+01
 40
1.00000000E+00
 50
3.59721787E-05
 51
9.00000179E+01
  0
ARC
  8
0
 62
7
 10
1.57252502E+02
 20
7.90108984E+01
 40
1.00000000E+00
 50
3.57973915E+02
 51
7.92109419E+01
  0
ARC
  8
0
 62
7
 10
1.61250000E+02
 20
7.33694952E+01
 40
1.00000000E+00
 50
3.59721787E-05
 51
9.00000179E+01
  0
ARC
  8
0
 62
7
 10
1.49250061E+02
 20
8.93695257E+01
 40
3.00000000E+00
 50
1.80000601E+02
 51
2.72025816E+02
  0
ARC
  8
0
 62
7
 10
1.61250000E+02
 20
7.73694952E+01
 40
3.00000000E+00
 50
1.80000000E+02
 51
2.69999982E+02
  0
ARC
  8
0
 62
7
 10
1.50773193E+02
 20
5.50179327E+01
 40
1.00000000E+00
 50
4.50006281E+01
 51
1.28244215E+02
  0
ARC
  8
0
 62
7
 10
1.53601624E+02
 20
5.78463629E+01
 40
1.00000000E+00
 50
1.41756377E+02
 51
2.25000032E+02
  0
ARC
  8
0
 62
7
 10
1.42250000E+02
 20
5.14875067E+01
 40
1.00000000E+00
 50
9.67562429E+01
 51
1.80000027E+02
  0
ARC
  8
0
 62
7
 10
1.42250000E+02
 20
4.73694647E+01
 40
1.00000000E+00
 50
1.80000027E+02
 51
2.70000009E+02
  0
ARC
  8
0
 62
7
 10
1.54687073E+02
 20
5.67608831E+01
 40
1.00000000E+00
 50
2.25000646E+02
 51
3.00522240E+02
  0
ARC
  8
0
 62
7
 10
1.57131958E+02
 20
6.63694570E+01
 40
1.00000000E+00
 50
9.00000454E+01
 51
1.73243918E+02
  0
ARC
  8
0
 62
7
 10
1.61250000E+02
 20
6.63694570E+01
 40
1.00000000E+00
 50
8.65142201E-06
 51
9.00000454E+01
  0
ARC
  8
0
 62
7
 10
1.51858673E+02
 20
5.39324835E+01
 40
1.00000000E+00
 50
3.29477574E+02
 51
4.49993850E+01
  0
ARC
  8
0
 62
7
 10
1.57131958E+02
 20
7.03694647E+01
 40
1.00000000E+00
 50
1.86756259E+02
 51
2.70000037E+02
  0
ARC
  8
0
 62
7
 10
1.53601562E+02
 20
7.88926275E+01
 40
1.00000000E+00
 50
1.35000624E+02
 51
2.18244210E+02
  0
ARC
  8
0
 62
7
 10
1.50773163E+02
 20
8.17210577E+01
 40
1.00000000E+00
 50
2.31756387E+02
 51
3.15000028E+02
  0
ARC
  8
0
 62
7
 10
1.42250000E+02
 20
8.52514227E+01
 40
1.00000000E+00
 50
1.80000041E+02
 51
2.63243914E+02
  0
ARC
  8
0
 62
7
 10
1.54687042E+02
 20
7.99780767E+01
 40
1.00000000E+00
 50
5.94775690E+01
 51
1.34999381E+02
  0
ARC
  8
0
 62
7
 10
1.58750000E+02
 20
8.68695257E+01
 40
7.00000000E+00
 50
1.90788721E+02
 51
2.59211384E+02
  0
ARC
  8
0
 62
7
 10
1.51858582E+02
 20
8.28065069E+01
 40
1.00000000E+00
 50
3.15000660E+02
 51
3.05222526E+01
  0
ARC
  8
0
 62
7
 10
1.42250000E+02
 20
8.93694647E+01
 40
1.00000000E+00
 50
9.00000042E+01
 51
1.80000041E+02
  0
ARC
  8
0
 62
7
 10
1.61250000E+02
 20
7.03694647E+01
 40
1.00000000E+00
 50
2.70000054E+02
 51
3.59721787E-05
  0
CIRCLE
  8
0
 62
7
 10
1.58750061E+02
 20
4.98694647E+01
 40
5.00000000E+00
  0
CIRCLE
  8
0
 62
7
 10
1.58750061E+02
 20
4.98694647E+01
 40
4.50000000E+00
  0
CIRCLE
  8
0
 62
7
 10
1.58750000E+02
 20
8.68695257E+01
 40
5.00000000E+00
  0
CIRCLE
  8
0
 62
7
 10
1.58750000E+02
 20
8.68695257E+01
 40
4.50000000E+00
  0
ARC
  8
0
 62
7
 10
1.62250061E+02
 20
4.63694647E+01
 40
3.00000000E+00
 50
2.70000054E+02
 51
3.59721787E-05
  0
ARC
  8
0
 62
7
 10
1.62250061E+02
 20
9.03694952E+01
 40
3.00000000E+00
 50
3.59721787E-05
 51
9.00000179E+01
  0
ARC
  8
0
 62
7
 10
1.62250000E+02
 20
9.03694952E+01
 40
2.50000000E+00
 50
3.59721787E-05
 51
9.00000179E+01
  0
ARC
  8
0
 62
7
 10
1.62250061E+02
 20
4.63694952E+01
 40
2.50000000E+00
 50
2.70000054E+02
 51
3.59721787E-05
  0
ARC
  8
0
 62
7
 10
1.35250000E+02
 20
8.93694799E+01
 40
1.00000000E+00
 50
9.00000179E+01
 51
1.80000000E+02
  0
ARC
  8
0
 62
7
 10
1.31250000E+02
 20
8.93695257E+01
 40
3.00000000E+00
 50
2.67974202E+02
 51
3.59999431E+02
  0
ARC
  8
0
 62
7
 10
1.29608612E+02
 20
8.53720281E+01
 40
1.00000000E+00
 50
8.79748190E+01
 51
1.69211539E+02
  0
ARC
  8
0
 62
7
 10
1.21750031E+02
 20
8.68695257E+01
 40
7.00000000E+00
 50
2.80788621E+02
 51
3.49211311E+02
  0
ARC
  8
0
 62
7
 10
1.23247528E+02
 20
7.90109442E+01
 40
1.00000000E+00
 50
1.00789094E+02
 51
1.82026121E+02
  0
ARC
  8
0
 62
7
 10
1.19250031E+02
 20
7.73694952E+01
 40
3.00000000E+00
 50
2.70000054E+02
 51
2.02641650E+00
  0
ARC
  8
0
 62
7
 10
1.19250031E+02
 20
7.33694952E+01
 40
1.00000000E+00
 50
9.00000179E+01
 51
1.80000000E+02
  0
ARC
  8
0
 62
7
 10
1.18250000E+02
 20
9.03694952E+01
 40
3.00000000E+00
 50
9.00000179E+01
 51
1.80000000E+02
  0
ARC
  8
0
 62
7
 10
1.29726868E+02
 20
8.17209967E+01
 40
1.00000000E+00
 50
2.25000620E+02
 51
3.08244206E+02
  0
ARC
  8
0
 62
7
 10
1.26898468E+02
 20
7.88925665E+01
 40
1.00000000E+00
 50
3.21756386E+02
 51
4.50000407E+01
  0
ARC
  8
0
 62
7
 10
1.38250000E+02
 20
8.52514227E+01
 40
1.00000000E+00
 50
2.76756259E+02
 51
3.59721787E-05
  0
ARC
  8
0
 62
7
 10
1.38250000E+02
 20
8.93694647E+01
 40
1.00000000E+00
 50
3.59721787E-05
 51
9.00000179E+01
  0
ARC
  8
0
 62
7
 10
1.25812988E+02
 20
7.99780462E+01
 40
1.00000000E+00
 50
4.50006554E+01
 51
1.20522248E+02
  0
ARC
  8
0
 62
7
 10
1.23368073E+02
 20
7.03694647E+01
 40
1.00000000E+00
 50
2.70000037E+02
 51
3.53243910E+02
  0
ARC
  8
0
 62
7
 10
1.19250031E+02
 20
7.03694647E+01
 40
1.00000000E+00
 50
1.80000000E+02
 51
2.70000037E+02
  0
ARC
  8
0
 62
7
 10
1.28641418E+02
 20
8.28064459E+01
 40
1.00000000E+00
 50
1.49477551E+02
 51
2.24999376E+02
  0
CIRCLE
  8
0
 62
7
 10
1.21749939E+02
 20
8.68694647E+01
 40
4.50000000E+00
  0
CIRCLE
  8
0
 62
7
 10
1.21749939E+02
 20
8.68694647E+01
 40
5.00000000E+00
  0
ARC
  8
0
 62
7
 10
1.18250000E+02
 20
9.03694342E+01
 40
2.50000000E+00
 50
9.00000179E+01
 51
1.80000000E+02
  0
ARC
  8
0
 62
7
 10
1.73372498E+02
 20
7.81040228E+01
 40
2.50000000E+00
 50
2.76372839E+02
 51
7.69143002E+00
  0
ARC
  8
0
 62
7
 10
1.73372498E+02
 20
5.61040228E+01
 40
2.50000000E+00
 50
2.70000037E+02
 51
3.52308598E+02
  0
ARC
  8
0
 62
7
 10
1.73372498E+02
 20
8.06348913E+01
 40
2.50000000E+00
 50
7.69143002E+00
 51
9.00000042E+01
  0
ARC
  8
0
 62
7
 10
1.73372498E+02
 20
5.86349142E+01
 40
2.50000000E+00
 50
3.52308615E+02
 51
8.36271917E+01
  0
LINE
  8
0
  6
CENTER
 62
2
 10
1.30249969E+02
 20
7.67235601E+01
 11
1.30249969E+02
 21
9.52984808E+01
  0
LINE
  8
0
  6
CENTER
 62
2
 10
1.28131409E+02
 20
8.68695410E+01
 11
1.13609772E+02
 21
8.68695410E+01
  0
LINE
  8
0
  6
CENTER
 62
2
 10
1.28131409E+02
 20
4.98694876E+01
 11
1.13609772E+02
 21
4.98694876E+01
  0
LINE
  8
0
 62
7
 10
1.58249969E+02
 20
5.76573065E+01
 11
1.58249969E+02
 21
5.96194342E+01
  0
LINE
  8
0
 62
7
 10
1.58249969E+02
 20
7.90816229E+01
 11
1.58249969E+02
 21
7.71194952E+01
  0
LINE
  8
0
 62
7
 10
1.50961761E+02
 20
8.63695715E+01
 11
1.49000092E+02
 21
8.63695715E+01
  0
LINE
  8
0
 62
7
 10
1.29537048E+02
 20
8.63694952E+01
 11
1.31500000E+02
 21
8.63694952E+01
  0
LINE
  8
0
 62
7
 10
1.22249908E+02
 20
7.90807684E+01
 11
1.22249908E+02
 21
7.71194952E+01
  0
LINE
  8
0
 62
7
 10
1.22250061E+02
 20
5.76568487E+01
 11
1.22250061E+02
 21
5.96194342E+01
  0
LINE
  8
0
 62
7
 10
1.29538116E+02
 20
5.03693960E+01
 11
1.31500000E+02
 21
5.03693960E+01
  0
LINE
  8
0
 62
7
 10
1.50963196E+02
 20
5.03694952E+01
 11
1.49000092E+02
 21
5.03694952E+01
  0
LINE
  8
0
 62
7
 10
1.20249969E+02
 20
4.38694647E+01
 11
1.20249969E+02
 21
4.33694647E+01
  0
LINE
  8
0
 62
7
 10
1.60249969E+02
 20
4.38694647E+01
 11
1.60249969E+02
 21
4.33694647E+01
  0
LINE
  8
0
 62
7
 10
1.20249969E+02
 20
9.33694952E+01
 11
1.20249969E+02
 21
9.28694342E+01
  0
LINE
  8
0
 62
7
 10
1.60249969E+02
 20
9.33694952E+01
 11
1.60249969E+02
 21
9.28694952E+01
  0
LINE
  8
0
  6
CENTER
 62
2
 10
1.21750031E+02
 20
4.14814031E+01
 11
1.21750031E+02
 21
5.74457968E+01
  0
LINE
  8
0
  6
CENTER
 62
2
 10
1.40249969E+02
 20
9.68644445E+01
 11
1.40249969E+02
 21
3.90681951E+01
  0
LINE
  8
0
 62
7
 10
1.26520247E+02
 20
5.60536608E+01
 11
1.27605680E+02
 21
5.71390938E+01
  0
LINE
  8
0
 62
7
 10
1.19250031E+02
 20
6.73694647E+01
 11
1.23368073E+02
 21
6.73694647E+01
  0
LINE
  8
0
 62
7
 10
1.27934396E+02
 20
5.46394255E+01
 11
1.29019872E+02
 21
5.57249017E+01
  0
LINE
  8
0
 62
7
 10
1.39250031E+02
 20
4.73695028E+01
 11
1.39250031E+02
 21
5.14875448E+01
  0
LINE
  8
0
 62
7
 10
1.45827026E+02
 20
9.01862677E+01
 11
1.45827026E+02
 21
8.33660162E+01
  0
LINE
  8
0
 62
7
 10
1.45250092E+02
 20
4.63694570E+01
 11
1.35250000E+02
 21
4.63694570E+01
  0
LINE
  8
0
  6
CENTER
 62
2
 10
1.44250031E+02
 20
9.51218450E+01
 11
1.44250031E+02
 21
7.97356909E+01
  0
LINE
  8
0
 62
7
 10
1.52565850E+02
 20
5.46396861E+01
 11
1.51480363E+02
 21
5.57251733E+01
  0
LINE
  8
0
 62
7
 10
1.41250031E+02
 20
4.73695028E+01
 11
1.41250031E+02
 21
5.14875448E+01
  0
LINE
  8
0
 62
7
 10
1.53980042E+02
 20
5.60538348E+01
 11
1.52894566E+02
 21
5.71393112E+01
  0
LINE
  8
0
 62
7
 10
1.61250000E+02
 20
6.73694799E+01
 11
1.57131958E+02
 21
6.73694799E+01
  0
LINE
  8
0
 62
7
 10
1.62249969E+02
 20
7.33694952E+01
 11
1.62249969E+02
 21
6.33694342E+01
  0
LINE
  8
0
 62
7
 10
1.45250092E+02
 20
9.03695257E+01
 11
1.35250000E+02
 21
9.03695257E+01
  0
LINE
  8
0
 62
7
 10
1.52565833E+02
 20
8.20993336E+01
 11
1.51480335E+02
 21
8.10138360E+01
  0
LINE
  8
0
 62
7
 10
1.53979981E+02
 20
8.06851413E+01
 11
1.52894483E+02
 21
7.95996437E+01
  0
LINE
  8
0
 62
7
 10
1.61250000E+02
 20
6.93694799E+01
 11
1.57131958E+02
 21
6.93694799E+01
  0
LINE
  8
0
 62
7
 10
1.41250000E+02
 20
8.93694647E+01
 11
1.41250000E+02
 21
8.52514227E+01
  0
LINE
  8
0
 62
7
 10
1.62250061E+02
 20
4.38694876E+01
 11
1.18250092E+02
 21
4.38694570E+01
  0
LINE
  8
0
 62
7
 10
1.62250061E+02
 20
4.33694570E+01
 11
1.18250000E+02
 21
4.33694570E+01
  0
LINE
  8
0
  6
CENTER
 62
2
 10
1.67194702E+02
 20
4.98694876E+01
 11
1.52382660E+02
 21
4.98694876E+01
  0
LINE
  8
0
  6
CENTER
 62
2
 10
1.58750092E+02
 20
4.12464788E+01
 11
1.58750092E+02
 21
5.78889654E+01
  0
LINE
  8
0
 62
7
 10
1.65250031E+02
 20
9.03694952E+01
 11
1.65250031E+02
 21
4.63694647E+01
  0
LINE
  8
0
 62
7
 10
1.64749969E+02
 20
9.03694952E+01
 11
1.64749969E+02
 21
4.63694647E+01
  0
LINE
  8
0
 62
7
 10
1.18249969E+02
 20
7.33694952E+01
 11
1.18249969E+02
 21
6.33694342E+01
  0
LINE
  8
0
 62
7
 10
1.39250000E+02
 20
8.93694647E+01
 11
1.39250000E+02
 21
8.52513922E+01
  0
LINE
  8
0
 62
7
 10
1.26520214E+02
 20
8.06852297E+01
 11
1.27605691E+02
 21
7.95997534E+01
  0
LINE
  8
0
 62
7
 10
1.19250031E+02
 20
6.93694799E+01
 11
1.23368073E+02
 21
6.93694799E+01
  0
LINE
  8
0
 62
7
 10
1.15749969E+02
 20
9.03694342E+01
 11
1.15749969E+02
 21
4.63694647E+01
  0
LINE
  8
0
 62
7
 10
1.62250000E+02
 20
9.28695257E+01
 11
1.18250000E+02
 21
9.28694647E+01
  0
LINE
  8
0
 62
7
 10
1.15249969E+02
 20
9.03694952E+01
 11
1.15249969E+02
 21
4.63694647E+01
  0
LINE
  8
0
  6
CENTER
 62
2
 10
1.21749908E+02
 20
9.53761022E+01
 11
1.21749908E+02
 21
8.04549749E+01
  0
LINE
  8
0
 62
7
 10
1.73250000E+02
 20
8.78694647E+01
 11
1.65250031E+02
 21
8.78694647E+01
  0
LINE
  8
0
 62
7
 10
1.73250000E+02
 20
4.88694570E+01
 11
1.65250031E+02
 21
4.88694570E+01
  0
LINE
  8
0
 62
7
 10
1.73649933E+02
 20
6.11194647E+01
 11
1.73250000E+02
 21
6.11194647E+01
  0
LINE
  8
0
  6
CENTER
 62
2
 10
1.67339935E+02
 20
8.68695410E+01
 11
1.52673035E+02
 21
8.68695410E+01
  0
LINE
  8
0
  6
CENTER
 62
2
 10
1.58750000E+02
 20
9.52721136E+01
 11
1.58750000E+02
 21
7.89851110E+01
  0
LINE
  8
0
 62
7
 10
1.75849976E+02
 20
8.09694708E+01
 11
1.75849976E+02
 21
7.77694433E+01
  0
LINE
  8
0
 62
7
 10
1.27934374E+02
 20
8.20994110E+01
 11
1.29019807E+02
 21
8.10139779E+01
  0
LINE
  8
0
 62
7
 10
1.62250061E+02
 20
9.33695257E+01
 11
1.18250000E+02
 21
9.33695257E+01
  0
LINE
  8
0
 62
7
 10
1.73649933E+02
 20
5.36194647E+01
 11
1.73250000E+02
 21
5.36194647E+01
  0
LINE
  8
0
 62
7
 10
1.73649994E+02
 20
8.31194494E+01
 11
1.73250000E+02
 21
8.31194494E+01
  0
LINE
  8
0
  6
CENTER
 62
2
 10
1.76714050E+02
 20
5.73694647E+01
 11
1.73250000E+02
 21
5.73694647E+01
  0
LINE
  8
0
 62
7
 10
1.73249969E+02
 20
4.88694647E+01
 11
1.73249969E+02
 21
8.78694647E+01
  0
LINE
  8
0
 62
7
 10
1.73649933E+02
 20
7.56194494E+01
 11
1.73250000E+02
 21
7.56194494E+01
  0
LINE
  8
0
  6
CENTER
 62
2
 10
1.75469116E+02
 20
6.83694647E+01
 11
1.10948761E+02
 21
6.83694647E+01
  0
LINE
  8
0
 62
7
 10
1.75849976E+02
 20
5.57694662E+01
 11
1.75849976E+02
 21
5.89694708E+01
  0
LINE
  8
0
  6
CENTER
 62
2
 10
1.76714050E+02
 20
7.93694494E+01
 11
1.73250000E+02
 21
7.93694494E+01
  0
LINE
  8
0
  6
PHANTOM
 10
-6.92500000E+01
 20
2.27628397E+02
 11
-6.92500000E+01
 21
1.29605211E+02
  0
ARC
  8
0
 62
7
 10
-1.48249985E+02
 20
1.70369465E+02
 40
2.00000000E+00
 50
1.80000000E+02
 51
2.70000000E+02
  0
ARC
  8
0
 62
7
 10
-1.48249985E+02
 20
2.06369465E+02
 40
2.00000000E+00
 50
9.00000002E+01
 51
1.80000000E+02
  0
LINE
  8
0
 62
7
 10
-1.48249985E+02
 20
1.68369465E+02
 11
-1.24249954E+02
 21
1.68369465E+02
  0
LINE
  8
0
 62
7
 10
-1.48249985E+02
 20
2.08369465E+02
 11
-1.24249954E+02
 21
2.08369465E+02
  0
LINE
  8
0
 62
7
 10
-1.50249985E+02
 20
1.70369465E+02
 11
-1.50249985E+02
 21
2.06369465E+02
  0
LINE
  8
0
 62
7
 10
-1.24249954E+02
 20
1.63369465E+02
 11
-1.24249954E+02
 21
2.13369465E+02
  0
LINE
  8
0
 62
7
 10
-1.82500458E+01
 20
1.63369465E+02
 11
-1.82500458E+01
 21
2.13369465E+02
  0
LINE
  8
0
 62
7
 10
-1.24249954E+02
 20
1.72519459E+02
 11
-5.47500458E+01
 21
1.72519459E+02
  0
LINE
  8
0
 62
7
 10
-1.24249954E+02
 20
1.67219471E+02
 11
-5.47500458E+01
 21
1.67219471E+02
  0
LINE
  8
0
 62
7
 10
-1.24249954E+02
 20
1.66369480E+02
 11
-5.47500458E+01
 21
1.66369480E+02
  0
LINE
  8
0
 62
7
 10
-1.24249954E+02
 20
2.04219471E+02
 11
-9.87499542E+01
 21
2.04219471E+02
  0
LINE
  8
0
 62
7
 10
-1.24249954E+02
 20
2.09519459E+02
 11
-9.87499542E+01
 21
2.09519459E+02
  0
LINE
  8
0
 62
7
 10
-1.24249954E+02
 20
2.10369449E+02
 11
-9.87499542E+01
 21
2.10369449E+02
  0
LINE
  8
0
  6
CENTER
 62
2
 10
-1.57476990E+02
 20
1.69869465E+02
 11
3.17712708E+01
 21
1.69869465E+02
  0
LINE
  8
0
  6
CENTER
 62
2
 10
-1.57476990E+02
 20
2.06869465E+02
 11
3.13849182E+01
 21
2.06869465E+02
  0
LINE
  8
0
  6
CENTER
 62
2
 10
1.68666992E+01
 20
1.92369388E+02
 11
-3.19845581E+00
 21
1.92369388E+02
  0
LINE
  8
0
  6
CENTER
 62
2
 10
-1.27500153E+01
 20
1.72449726E+02
 11
-1.27500153E+01
 21
1.83974369E+02
  0
LINE
  8
0
 62
7
 10
2.92498932E+01
 20
1.72369495E+02
 11
2.77499390E+01
 21
1.72369495E+02
  0
LINE
  8
0
 62
7
 10
2.92498932E+01
 20
2.04369480E+02
 11
2.77499390E+01
 21
2.04369480E+02
  0
LINE
  8
0
 62
7
 10
2.77499008E+01
 20
1.63369449E+02
 11
2.77499008E+01
 21
2.13369449E+02
  0
LINE
  8
0
  6
CENTER
 62
2
 10
-7.05341339E+00
 20
1.78369449E+02
 11
-1.86689148E+01
 21
1.78369449E+02
  0
LINE
  8
0
 62
7
 10
-1.55249953E+02
 20
1.64155042E+02
 11
-1.24249914E+02
 21
1.63343278E+02
  0
LINE
  8
0
 62
7
 10
-1.65008766E+02
 20
1.73111120E+02
 11
-1.57249198E+02
 21
1.72840149E+02
  0
LINE
  8
0
 62
7
 10
-1.69750015E+02
 20
1.73369465E+02
 11
-1.65241043E+02
 21
1.73369465E+02
  0
LINE
  8
0
 62
7
 10
-1.41934148E+01
 20
1.78369585E+02
 11
-1.34717574E+01
 21
1.79619549E+02
  0
LINE
  8
0
 62
7
 10
-1.34717178E+01
 20
1.79619510E+02
 11
-1.20283356E+01
 21
1.79619510E+02
  0
LINE
  8
0
  6
CENTER
 62
2
 10
-1.37249908E+02
 20
1.82353596E+02
 11
-1.37249908E+02
 21
2.02513630E+02
  0
LINE
  8
0
  6
CENTER
 62
2
 10
-1.47366638E+02
 20
1.92369404E+02
 11
-1.27301483E+02
 21
1.92369404E+02
  0
LINE
  8
0
  6
CENTER
 62
2
 10
-1.29749908E+02
 20
1.72449741E+02
 11
-1.29749908E+02
 21
1.83974384E+02
  0
LINE
  8
0
 62
7
 10
-1.56749954E+02
 20
2.04369434E+02
 11
-1.55249969E+02
 21
2.04369434E+02
  0
LINE
  8
0
 62
7
 10
-1.56749954E+02
 20
1.72369449E+02
 11
-1.55249969E+02
 21
1.72369449E+02
  0
LINE
  8
0
 62
7
 10
-1.55249924E+02
 20
2.12584003E+02
 11
-1.55249924E+02
 21
1.64155048E+02
  0
LINE
  8
0
 62
7
 10
-1.57249908E+02
 20
1.72869480E+02
 11
-1.57249908E+02
 21
2.03898884E+02
  0
LINE
  8
0
  6
CENTER
 62
2
 10
-1.35446503E+02
 20
1.78369465E+02
 11
-1.23831024E+02
 21
1.78369465E+02
  0
LINE
  8
0
 62
7
 10
-1.55249959E+02
 20
2.12584003E+02
 11
-1.24249905E+02
 21
2.13395768E+02
  0
LINE
  8
0
 62
7
 10
2.77499390E+01
 20
1.63369449E+02
 11
-1.82500992E+01
 21
1.63369449E+02
  0
LINE
  8
0
 62
7
 10
-1.31193225E+02
 20
1.78369508E+02
 11
-1.30471548E+02
 21
1.79619504E+02
  0
LINE
  8
0
 62
7
 10
-1.30471588E+02
 20
1.79619526E+02
 11
-1.29028198E+02
 21
1.79619526E+02
  0
LINE
  8
0
 62
7
 10
-1.70249924E+02
 20
1.73869465E+02
 11
-1.70249924E+02
 21
2.02869465E+02
  0
LINE
  8
0
 62
7
 10
-1.69750015E+02
 20
2.03369541E+02
 11
-1.65241043E+02
 21
2.03369541E+02
  0
LINE
  8
0
 62
7
 10
-1.65008717E+02
 20
2.03628060E+02
 11
-1.57249134E+02
 21
2.03899030E+02
  0
LINE
  8
0
 62
7
 10
-1.65249924E+02
 20
2.03369495E+02
 11
-1.65249924E+02
 21
1.73369434E+02
  0
LINE
  8
0
 62
7
 10
-1.13067745E+01
 20
1.78369414E+02
 11
-1.20284853E+01
 21
1.79619470E+02
  0
LINE
  8
0
 62
7
 10
-1.20284279E+01
 20
1.77119514E+02
 11
-1.13067133E+01
 21
1.78369576E+02
  0
LINE
  8
0
 62
7
 10
-1.34717178E+01
 20
1.77119495E+02
 11
-1.20283356E+01
 21
1.77119495E+02
  0
LINE
  8
0
 62
7
 10
-1.41936535E+01
 20
1.78369337E+02
 11
-1.34719732E+01
 21
1.77119334E+02
  0
LINE
  8
0
 62
7
 10
-1.28306615E+02
 20
1.78369456E+02
 11
-1.29028288E+02
 21
1.79619446E+02
  0
LINE
  8
0
 62
7
 10
-1.29028196E+02
 20
1.77119447E+02
 11
-1.28306497E+02
 21
1.78369483E+02
  0
LINE
  8
0
 62
7
 10
-1.30471588E+02
 20
1.77119510E+02
 11
-1.29028198E+02
 21
1.77119510E+02
  0
LINE
  8
0
 62
7
 10
-1.31193416E+02
 20
1.78369390E+02
 11
-1.30471758E+02
 21
1.77119426E+02
  0
LINE
  8
0
  6
CENTER
 62
2
 10
-2.07787811E+02
 20
1.88369465E+02
 11
3.57189102E+01
 21
1.88369465E+02
  0
LINE
  8
0
  6
CENTER
 62
2
 10
6.74995422E+00
 20
2.24904667E+02
 11
6.74995422E+00
 21
1.82072834E+02
  0
LINE
  8
0
 62
7
 10
-5.85006714E+00
 20
2.23969471E+02
 11
-2.65005493E+00
 21
2.23969471E+02
  0
LINE
  8
0
 62
7
 10
-5.00053406E-01
 20
2.21769382E+02
 11
-5.00053406E-01
 21
2.21369449E+02
  0
LINE
  8
0
 62
7
 10
-8.00005341E+00
 20
2.21769382E+02
 11
-8.00005341E+00
 21
2.21369449E+02
  0
LINE
  8
0
 62
7
 10
2.77499390E+01
 20
2.13369449E+02
 11
-1.82500610E+01
 21
2.13369449E+02
  0
LINE
  8
0
 62
7
 10
2.62499390E+01
 20
2.21369449E+02
 11
2.62499390E+01
 21
2.13369449E+02
  0
LINE
  8
0
 62
7
 10
-1.27500534E+01
 20
2.21369449E+02
 11
-1.27500534E+01
 21
2.13369449E+02
  0
LINE
  8
0
  6
CENTER
 62
2
 10
-4.25005341E+00
 20
2.24833500E+02
 11
-4.25005341E+00
 21
2.21369449E+02
  0
LINE
  8
0
 62
7
 10
2.62499390E+01
 20
2.21369449E+02
 11
-1.27500534E+01
 21
2.21369449E+02
  0
LINE
  8
0
  6
CENTER
 62
2
 10
1.77499542E+01
 20
2.24833500E+02
 11
1.77499542E+01
 21
2.21369449E+02
  0
LINE
  8
0
 62
7
 10
1.93499527E+01
 20
2.23969471E+02
 11
1.61499405E+01
 21
2.23969471E+02
  0
LINE
  8
0
 62
7
 10
2.14999542E+01
 20
2.21769382E+02
 11
2.14999542E+01
 21
2.21369449E+02
  0
LINE
  8
0
 62
7
 10
1.39999542E+01
 20
2.21769382E+02
 11
1.39999542E+01
 21
2.21369449E+02
  0
LINE
  8
0
 62
7
 10
2.97499008E+01
 20
1.72869495E+02
 11
2.97499008E+01
 21
2.03869480E+02
  0
LINE
  8
0
 62
7
 10
2.92498932E+01
 20
1.72369495E+02
 11
2.92498932E+01
 21
2.04369480E+02
  0
LINE
  8
0
 62
7
 10
2.92499036E+01
 20
2.04369487E+02
 11
2.97498982E+01
 21
2.03869502E+02
  0
LINE
  8
0
 62
7
 10
2.92498915E+01
 20
1.72369500E+02
 11
2.97498981E+01
 21
1.72869516E+02
  0
LINE
  8
0
 62
7
 10
-1.72250000E+02
 20
1.96369434E+02
 11
-1.70249924E+02
 21
1.96369434E+02
  0
LINE
  8
0
 62
7
 10
-1.72249908E+02
 20
1.80369449E+02
 11
-1.70249939E+02
 21
1.80369449E+02
  0
LINE
  8
0
 62
7
 10
-1.80249939E+02
 20
1.95369465E+02
 11
-1.80249939E+02
 21
1.81369434E+02
  0
LINE
  8
0
 62
7
 10
-1.80249939E+02
 20
1.95369465E+02
 11
-1.73249969E+02
 21
1.95369465E+02
  0
LINE
  8
0
 62
7
 10
-1.80249939E+02
 20
1.81369434E+02
 11
-1.73249893E+02
 21
1.81369434E+02
  0
LINE
  8
0
 62
7
 10
-1.73249975E+02
 20
1.95369499E+02
 11
-1.72250025E+02
 21
1.96369450E+02
  0
LINE
  8
0
 62
7
 10
-1.73249940E+02
 20
1.81369474E+02
 11
-1.72249917E+02
 21
1.80369451E+02
  0
LINE
  8
0
 62
7
 10
-1.77249939E+02
 20
1.95369465E+02
 11
-1.77249939E+02
 21
1.81369434E+02
  0
CIRCLE
  8
0
 62
7
 10
-1.37249908E+02
 20
1.92369404E+02
 40
5.65999985E+00
  0
CIRCLE
  8
0
 62
7
 10
-1.27500153E+01
 20
1.78369449E+02
 40
4.00000000E+00
  0
CIRCLE
  8
0
 62
7
 10
-1.29749908E+02
 20
1.78369465E+02
 40
4.00000000E+00
  0
ARC
  8
0
 62
7
 10
-1.56749954E+02
 20
2.03869449E+02
 40
5.00000000E-01
 50
9.00000369E+01
 51
1.80000032E+02
  0
ARC
  8
0
 62
7
 10
-1.56749954E+02
 20
1.72869480E+02
 40
5.00000000E-01
 50
1.80000022E+02
 51
2.69999998E+02
  0
CIRCLE
  8
0
 62
7
 10
-1.27500153E+01
 20
1.78369449E+02
 40
2.09999990E+00
  0
CIRCLE
  8
0
 62
7
 10
-1.29749908E+02
 20
1.78369465E+02
 40
2.09999990E+00
  0
ARC
  8
0
 62
7
 10
-2.98460388E+00
 20
2.21491962E+02
 40
2.50000000E+00
 50
6.37279871E+00
 51
9.76913759E+01
  0
ARC
  8
0
 62
7
 10
-5.51550293E+00
 20
2.21491962E+02
 40
2.50000000E+00
 50
9.76913896E+01
 51
1.79999964E+02
  0
ARC
  8
0
 62
7
 10
1.90153885E+01
 20
2.21491962E+02
 40
2.50000000E+00
 50
1.36603783E-05
 51
8.23085878E+01
  0
ARC
  8
0
 62
7
 10
1.64845047E+01
 20
2.21491962E+02
 40
2.50000000E+00
 50
8.23085741E+01
 51
1.73627152E+02
  0
CIRCLE
  8
0
 62
2
 10
-1.37249908E+02
 20
1.92369404E+02
 40
6.57849979E+00
  0
CIRCLE
  8
0
 62
2
 10
6.74999237E+00
 20
1.92369388E+02
 40
6.57849979E+00
  0
CIRCLE
  8
0
 62
7
 10
6.74999237E+00
 20
1.92369388E+02
 40
5.65999985E+00
  0
ARC
  8
0
 62
7
 10
-1.64999985E+02
 20
2.03378086E+02
 40
2.50000000E-01
 50
9.20007768E+01
 51
1.79999991E+02
  0
ARC
  8
0
 62
7
 10
-1.69750000E+02
 20
2.02869465E+02
 40
5.00000000E-01
 50
9.00000231E+01
 51
1.80000005E+02
  0
ARC
  8
0
 62
7
 10
-1.69750000E+02
 20
1.73869465E+02
 40
5.00000000E-01
 50
1.80000008E+02
 51
2.69999998E+02
  0
ARC
  8
0
 62
7
 10
-1.64999985E+02
 20
1.73360859E+02
 40
2.50000000E-01
 50
1.80000008E+02
 51
2.67999216E+02
  0
LINE
  8
0
 62
4
 10
-1.89749969E+02
 20
1.77369465E+02
 11
-1.89749969E+02
 21
1.99369465E+02
  0
LINE
  8
0
 62
4
 10
-1.97749969E+02
 20
1.77369465E+02
 11
-1.97749969E+02
 21
1.99369465E+02
  0
LINE
  8
0
 62
4
 10
-1.96767489E+02
 20
1.88369465E+02
 11
-1.90732450E+02
 21
1.88369465E+02
  0
LINE
  8
0
 62
4
 10
-1.97749969E+02
 20
1.99369465E+02
 11
-1.89749969E+02
 21
1.99369465E+02
  0
LINE
  8
0
 62
4
 10
-1.97749969E+02
 20
1.77369465E+02
 11
-1.89749969E+02
 21
1.77369465E+02
  0
ARC
  8
0
 62
4
 10
-2.05635919E+02
 20
1.82869465E+02
 40
1.58859499E+01
 50
3.39743842E+02
 51
2.02561578E+01
  0
ARC
  8
0
 62
4
 10
-2.05635919E+02
 20
1.93869465E+02
 40
1.58859499E+01
 50
3.39743842E+02
 51
2.02561578E+01
  0
ARC
  8
0
 62
4
 10
-1.81864022E+02
 20
1.93869465E+02
 40
1.58859474E+01
 50
1.59743839E+02
 51
2.00256161E+02
  0
ARC
  8
0
 62
4
 10
-1.81864022E+02
 20
1.82869465E+02
 40
1.58859473E+01
 50
1.59743839E+02
 51
2.00256161E+02
  0
LINE
  8
0
 62
7
 10
-1.83249939E+02
 20
1.95369468E+02
 11
-1.83249939E+02
 21
1.81369453E+02
  0
LINE
  8
0
 62
7
 10
-1.83249939E+02
 20
1.94549476E+02
 11
-1.80249939E+02
 21
1.94549476E+02
  0
LINE
  8
0
 62
7
 10
-1.89749878E+02
 20
1.95369468E+02
 11
-1.83249939E+02
 21
1.95369468E+02
  0
LINE
  8
0
 62
2
 10
-1.89749878E+02
 20
1.94549476E+02
 11
-1.83249939E+02
 21
1.94549476E+02
  0
LINE
  8
0
 62
7
 10
-1.83249939E+02
 20
1.82189445E+02
 11
-1.80249939E+02
 21
1.82189445E+02
  0
LINE
  8
0
 62
7
 10
-1.89749878E+02
 20
1.81369453E+02
 11
-1.83249939E+02
 21
1.81369453E+02
  0
LINE
  8
0
 62
2
 10
-1.89749878E+02
 20
1.82189445E+02
 11
-1.83249939E+02
 21
1.82189445E+02
  0
LINE
  8
0
 62
7
 10
-2.04249939E+02
 20
1.82869438E+02
 11
-2.04249939E+02
 21
1.93869468E+02
  0
LINE
  8
0
 62
7
 10
-2.02749939E+02
 20
1.95369468E+02
 11
-1.97749878E+02
 21
1.95369468E+02
  0
LINE
  8
0
 62
2
 10
-2.03569885E+02
 20
1.94549476E+02
 11
-1.97749878E+02
 21
1.94549476E+02
  0
LINE
  8
0
 62
7
 10
-2.02749939E+02
 20
1.95369468E+02
 11
-2.02749939E+02
 21
1.81369453E+02
  0
LINE
  8
0
 62
7
 10
-2.04249833E+02
 20
1.93869380E+02
 11
-2.02749886E+02
 21
1.95369372E+02
  0
LINE
  8
0
 62
7
 10
-2.02749939E+02
 20
1.81369453E+02
 11
-1.97749878E+02
 21
1.81369453E+02
  0
LINE
  8
0
 62
2
 10
-2.03569885E+02
 20
1.82189445E+02
 11
-1.97749878E+02
 21
1.82189445E+02
  0
LINE
  8
0
 62
7
 10
-2.04249933E+02
 20
1.82869448E+02
 11
-2.02749921E+02
 21
1.81369435E+02
  0
LINE
  8
0
 62
6
 10
-6.30179949E+01
 20
1.88036105E+02
 11
-6.64820966E+01
 21
1.82036105E+02
  0
LINE
  8
0
 62
4
 10
-5.47500458E+01
 20
1.86536105E+02
 11
-6.38840204E+01
 21
1.86536105E+02
  0
LINE
  8
0
  6
CENTER
 62
6
 10
-1.97500458E+01
 20
1.85036105E+02
 11
-6.67500458E+01
 21
1.85036105E+02
  0
LINE
  8
0
 62
4
 10
-5.47500458E+01
 20
1.83536105E+02
 11
-6.56160712E+01
 21
1.83536105E+02
  0
LINE
  8
0
 62
6
 10
-7.54820051E+01
 20
1.88702824E+02
 11
-7.20179034E+01
 21
1.94702824E+02
  0
LINE
  8
0
 62
4
 10
-8.37499542E+01
 20
1.90202824E+02
 11
-7.46159796E+01
 21
1.90202824E+02
  0
LINE
  8
0
  6
CENTER
 62
6
 10
-1.18749954E+02
 20
1.91702824E+02
 11
-7.17499542E+01
 21
1.91702824E+02
  0
LINE
  8
0
 62
4
 10
-8.37499542E+01
 20
1.93202824E+02
 11
-7.28839288E+01
 21
1.93202824E+02
  0
LINE
  8
0
 62
6
 10
-4.97500458E+01
 20
1.59366144E+02
 11
-4.97500458E+01
 21
1.61717181E+02
  0
LINE
  8
0
 62
6
 10
-5.27500458E+01
 20
1.59366144E+02
 11
-5.27500458E+01
 21
1.61717181E+02
  0
LINE
  8
0
 62
4
 10
-4.92500458E+01
 20
1.59595859E+02
 11
-4.92500458E+01
 21
1.61717181E+02
  0
LINE
  8
0
 62
4
 10
-5.32500458E+01
 20
1.59595859E+02
 11
-5.32500458E+01
 21
1.61717181E+02
  0
LINE
  8
0
 62
4
 10
-3.97500458E+01
 20
1.61717181E+02
 11
-3.97500458E+01
 21
1.74425178E+02
  0
LINE
  8
0
 62
4
 10
-5.47500458E+01
 20
1.61717181E+02
 11
-5.47500458E+01
 21
1.87347068E+02
  0
LINE
  8
0
 62
4
 10
-2.47500458E+01
 20
1.74425178E+02
 11
-2.47500458E+01
 21
1.86374639E+02
  0
LINE
  8
0
  6
CENTER
 62
6
 10
-5.12500458E+01
 20
1.56253886E+02
 11
-5.12500458E+01
 21
1.66519465E+02
  0
LINE
  8
0
  6
CENTER
 62
6
 10
-4.32500458E+01
 20
1.56253886E+02
 11
-4.32500458E+01
 21
1.66519465E+02
  0
LINE
  8
0
  6
CENTER
 62
6
 10
-3.97500458E+01
 20
1.83457883E+02
 11
-3.97500458E+01
 21
1.88457883E+02
  0
LINE
  8
0
 62
4
 10
-3.97500458E+01
 20
1.61717181E+02
 11
-5.47500458E+01
 21
1.61717181E+02
  0
LINE
  8
0
 62
4
 10
-3.97500458E+01
 20
1.67531523E+02
 11
-5.47500458E+01
 21
1.67531523E+02
  0
LINE
  8
0
 62
4
 10
-2.47500458E+01
 20
1.74425178E+02
 11
-5.47500458E+01
 21
1.74425178E+02
  0
LINE
  8
0
 62
4
 10
-2.47500458E+01
 20
1.84568698E+02
 11
-5.47500458E+01
 21
1.84568698E+02
  0
LINE
  8
0
 62
4
 10
-5.06500458E+01
 20
1.87347068E+02
 11
-5.47500458E+01
 21
1.87347068E+02
  0
LINE
  8
0
 62
4
 10
-5.06500458E+01
 20
1.87173420E+02
 11
-5.47500458E+01
 21
1.87173420E+02
  0
LINE
  8
0
 62
4
 10
-2.47500458E+01
 20
1.86374639E+02
 11
-3.56000458E+01
 21
1.86374639E+02
  0
POLYLINE
  8
0
 62
4
 66
1
  0
VERTEX
  8
0
 62
4
 10
-5.32500458E+01
 20
1.59595859E+02
  0
VERTEX
  8
0
 62
4
 10
-5.32419944E+01
 20
1.59564728E+02
  0
VERTEX
  8
0
 62
4
 10
-5.32179050E+01
 20
1.59533847E+02
  0
VERTEX
  8
0
 62
4
 10
-5.31779715E+01
 20
1.59503465E+02
  0
VERTEX
  8
0
 62
4
 10
-5.31225155E+01
 20
1.59473828E+02
  0
VERTEX
  8
0
 62
4
 10
-5.30519835E+01
 20
1.59445173E+02
  0
VERTEX
  8
0
 62
4
 10
-5.29669434E+01
 20
1.59417731E+02
  0
VERTEX
  8
0
 62
4
 10
-5.28680798E+01
 20
1.59391723E+02
  0
VERTEX
  8
0
 62
4
 10
-5.27561887E+01
 20
1.59367359E+02
  0
VERTEX
  8
0
 62
4
 10
-5.26321711E+01
 20
1.59344835E+02
  0
VERTEX
  8
0
 62
4
 10
-5.24970254E+01
 20
1.59324332E+02
  0
VERTEX
  8
0
 62
4
 10
-5.23518398E+01
 20
1.59306015E+02
  0
VERTEX
  8
0
 62
4
 10
-5.21977831E+01
 20
1.59290031E+02
  0
VERTEX
  8
0
 62
4
 10
-5.20360959E+01
 20
1.59276510E+02
  0
VERTEX
  8
0
 62
4
 10
-5.18680798E+01
 20
1.59265561E+02
  0
VERTEX
  8
0
 62
4
 10
-5.16950877E+01
 20
1.59257270E+02
  0
VERTEX
  8
0
 62
4
 10
-5.15185123E+01
 20
1.59251706E+02
  0
VERTEX
  8
0
 62
4
 10
-5.13397755E+01
 20
1.59248912E+02
  0
VERTEX
  8
0
 62
4
 10
-5.11603162E+01
 20
1.59248912E+02
  0
VERTEX
  8
0
 62
4
 10
-5.09815793E+01
 20
1.59251706E+02
  0
VERTEX
  8
0
 62
4
 10
-5.08050039E+01
 20
1.59257270E+02
  0
VERTEX
  8
0
 62
4
 10
-5.06320118E+01
 20
1.59265561E+02
  0
VERTEX
  8
0
 62
4
 10
-5.04639957E+01
 20
1.59276510E+02
  0
VERTEX
  8
0
 62
4
 10
-5.03023085E+01
 20
1.59290031E+02
  0
VERTEX
  8
0
 62
4
 10
-5.01482518E+01
 20
1.59306015E+02
  0
VERTEX
  8
0
 62
4
 10
-5.00030662E+01
 20
1.59324332E+02
  0
VERTEX
  8
0
 62
4
 10
-4.98679205E+01
 20
1.59344835E+02
  0
VERTEX
  8
0
 62
4
 10
-4.97439029E+01
 20
1.59367359E+02
  0
VERTEX
  8
0
 62
4
 10
-4.96320118E+01
 20
1.59391723E+02
  0
VERTEX
  8
0
 62
4
 10
-4.95331482E+01
 20
1.59417731E+02
  0
VERTEX
  8
0
 62
4
 10
-4.94481081E+01
 20
1.59445173E+02
  0
VERTEX
  8
0
 62
4
 10
-4.93775761E+01
 20
1.59473828E+02
  0
VERTEX
  8
0
 62
4
 10
-4.93221201E+01
 20
1.59503465E+02
  0
VERTEX
  8
0
 62
4
 10
-4.92821866E+01
 20
1.59533847E+02
  0
VERTEX
  8
0
 62
4
 10
-4.92580972E+01
 20
1.59564728E+02
  0
VERTEX
  8
0
 62
4
 10
-4.92500458E+01
 20
1.59595859E+02
  0
SEQEND
  8
0
  0
LINE
  8
0
 62
6
 10
-4.17500458E+01
 20
1.59366144E+02
 11
-4.17500458E+01
 21
1.61717181E+02
  0
LINE
  8
0
 62
6
 10
-4.47500458E+01
 20
1.59366144E+02
 11
-4.47500458E+01
 21
1.61717181E+02
  0
LINE
  8
0
 62
4
 10
-4.12500458E+01
 20
1.59595859E+02
 11
-4.12500458E+01
 21
1.61717181E+02
  0
LINE
  8
0
 62
4
 10
-4.52500458E+01
 20
1.59595859E+02
 11
-4.52500458E+01
 21
1.61717181E+02
  0
POLYLINE
  8
0
 62
4
 66
1
  0
VERTEX
  8
0
 62
4
 10
-4.52500458E+01
 20
1.59595859E+02
  0
VERTEX
  8
0
 62
4
 10
-4.52419944E+01
 20
1.59564728E+02
  0
VERTEX
  8
0
 62
4
 10
-4.52179050E+01
 20
1.59533847E+02
  0
VERTEX
  8
0
 62
4
 10
-4.51779715E+01
 20
1.59503465E+02
  0
VERTEX
  8
0
 62
4
 10
-4.51225155E+01
 20
1.59473828E+02
  0
VERTEX
  8
0
 62
4
 10
-4.50519835E+01
 20
1.59445173E+02
  0
VERTEX
  8
0
 62
4
 10
-4.49669434E+01
 20
1.59417731E+02
  0
VERTEX
  8
0
 62
4
 10
-4.48680798E+01
 20
1.59391723E+02
  0
VERTEX
  8
0
 62
4
 10
-4.47561887E+01
 20
1.59367359E+02
  0
VERTEX
  8
0
 62
4
 10
-4.46321711E+01
 20
1.59344835E+02
  0
VERTEX
  8
0
 62
4
 10
-4.44970254E+01
 20
1.59324332E+02
  0
VERTEX
  8
0
 62
4
 10
-4.43518398E+01
 20
1.59306015E+02
  0
VERTEX
  8
0
 62
4
 10
-4.41977831E+01
 20
1.59290031E+02
  0
VERTEX
  8
0
 62
4
 10
-4.40360959E+01
 20
1.59276510E+02
  0
VERTEX
  8
0
 62
4
 10
-4.38680798E+01
 20
1.59265561E+02
  0
VERTEX
  8
0
 62
4
 10
-4.36950877E+01
 20
1.59257270E+02
  0
VERTEX
  8
0
 62
4
 10
-4.35185123E+01
 20
1.59251706E+02
  0
VERTEX
  8
0
 62
4
 10
-4.33397755E+01
 20
1.59248912E+02
  0
VERTEX
  8
0
 62
4
 10
-4.31603162E+01
 20
1.59248912E+02
  0
VERTEX
  8
0
 62
4
 10
-4.29815793E+01
 20
1.59251706E+02
  0
VERTEX
  8
0
 62
4
 10
-4.28050039E+01
 20
1.59257270E+02
  0
VERTEX
  8
0
 62
4
 10
-4.26320118E+01
 20
1.59265561E+02
  0
VERTEX
  8
0
 62
4
 10
-4.24639957E+01
 20
1.59276510E+02
  0
VERTEX
  8
0
 62
4
 10
-4.23023085E+01
 20
1.59290031E+02
  0
VERTEX
  8
0
 62
4
 10
-4.21482518E+01
 20
1.59306015E+02
  0
VERTEX
  8
0
 62
4
 10
-4.20030662E+01
 20
1.59324332E+02
  0
VERTEX
  8
0
 62
4
 10
-4.18679205E+01
 20
1.59344835E+02
  0
VERTEX
  8
0
 62
4
 10
-4.17439029E+01
 20
1.59367359E+02
  0
VERTEX
  8
0
 62
4
 10
-4.16320118E+01
 20
1.59391723E+02
  0
VERTEX
  8
0
 62
4
 10
-4.15331482E+01
 20
1.59417731E+02
  0
VERTEX
  8
0
 62
4
 10
-4.14481081E+01
 20
1.59445173E+02
  0
VERTEX
  8
0
 62
4
 10
-4.13775761E+01
 20
1.59473828E+02
  0
VERTEX
  8
0
 62
4
 10
-4.13221201E+01
 20
1.59503465E+02
  0
VERTEX
  8
0
 62
4
 10
-4.12821866E+01
 20
1.59533847E+02
  0
VERTEX
  8
0
 62
4
 10
-4.12580972E+01
 20
1.59564728E+02
  0
VERTEX
  8
0
 62
4
 10
-4.12500458E+01
 20
1.59595859E+02
  0
SEQEND
  8
0
  0
LINE
  8
0
 62
4
 10
-2.47500458E+01
 20
1.82719193E+02
 11
-2.32500458E+01
 21
1.83722126E+02
  0
LINE
  8
0
 62
4
 10
-2.32500458E+01
 20
1.83722126E+02
 11
-2.32500458E+01
 21
1.86346029E+02
  0
LINE
  8
0
 62
4
 10
-2.32500458E+01
 20
1.85952715E+02
 11
-2.47500458E+01
 21
1.86658424E+02
  0
LINE
  8
0
 62
4
 10
-2.32500458E+01
 20
1.86346029E+02
 11
-2.47500458E+01
 21
1.87353017E+02
  0
LINE
  8
0
 62
4
 10
-2.47500458E+01
 20
1.87353017E+02
 11
-3.56000458E+01
 21
1.87353017E+02
  0
LINE
  8
0
 62
4
 10
-2.47500458E+01
 20
1.86658424E+02
 11
-3.56000458E+01
 21
1.86658424E+02
  0
LINE
  8
0
 62
4
 10
-2.47500458E+01
 20
1.86374639E+02
 11
-2.47500458E+01
 21
1.87347068E+02
  0
POLYLINE
  8
0
 62
4
 66
1
  0
VERTEX
  8
0
 62
4
 10
-4.34500458E+01
 20
1.86005739E+02
  0
VERTEX
  8
0
 62
4
 10
-4.32682308E+01
 20
1.85949892E+02
  0
VERTEX
  8
0
 62
4
 10
-4.30585336E+01
 20
1.85897073E+02
  0
VERTEX
  8
0
 62
4
 10
-4.28226159E+01
 20
1.85847703E+02
  0
VERTEX
  8
0
 62
4
 10
-4.25623476E+01
 20
1.85802171E+02
  0
VERTEX
  8
0
 62
4
 10
-4.22797913E+01
 20
1.85760840E+02
  0
VERTEX
  8
0
 62
4
 10
-4.19771862E+01
 20
1.85724035E+02
  0
VERTEX
  8
0
 62
4
 10
-4.16569307E+01
 20
1.85692050E+02
  0
VERTEX
  8
0
 62
4
 10
-4.13215627E+01
 20
1.85665137E+02
  0
VERTEX
  8
0
 62
4
 10
-4.09737402E+01
 20
1.85643511E+02
  0
VERTEX
  8
0
 62
4
 10
-4.06162196E+01
 20
1.85627341E+02
  0
VERTEX
  8
0
 62
4
 10
-4.02518345E+01
 20
1.85616757E+02
  0
VERTEX
  8
0
 62
4
 10
-3.98834726E+01
 20
1.85611843E+02
  0
VERTEX
  8
0
 62
4
 10
-3.95140533E+01
 20
1.85612636E+02
  0
VERTEX
  8
0
 62
4
 10
-3.91465042E+01
 20
1.85619132E+02
  0
VERTEX
  8
0
 62
4
 10
-3.87837384E+01
 20
1.85631278E+02
  0
VERTEX
  8
0
 62
4
 10
-3.84286307E+01
 20
1.85648978E+02
  0
VERTEX
  8
0
 62
4
 10
-3.80839954E+01
 20
1.85672092E+02
  0
VERTEX
  8
0
 62
4
 10
-3.77525640E+01
 20
1.85700437E+02
  0
VERTEX
  8
0
 62
4
 10
-3.74369629E+01
 20
1.85733788E+02
  0
VERTEX
  8
0
 62
4
 10
-3.71396935E+01
 20
1.85771881E+02
  0
VERTEX
  8
0
 62
4
 10
-3.68631115E+01
 20
1.85814414E+02
  0
VERTEX
  8
0
 62
4
 10
-3.66094091E+01
 20
1.85861049E+02
  0
VERTEX
  8
0
 62
4
 10
-3.63805968E+01
 20
1.85911418E+02
  0
VERTEX
  8
0
 62
4
 10
-3.61784880E+01
 20
1.85965121E+02
  0
VERTEX
  8
0
 62
4
 10
-3.60046845E+01
 20
1.86021733E+02
  0
VERTEX
  8
0
 62
4
 10
-3.58605637E+01
 20
1.86080804E+02
  0
VERTEX
  8
0
 62
4
 10
-3.57472677E+01
 20
1.86141867E+02
  0
VERTEX
  8
0
 62
4
 10
-3.56656945E+01
 20
1.86204437E+02
  0
VERTEX
  8
0
 62
4
 10
-3.56164906E+01
 20
1.86268020E+02
  0
VERTEX
  8
0
 62
4
 10
-3.56000458E+01
 20
1.86332110E+02
  0
SEQEND
  8
0
  0
ARC
  8
0
 62
4
 10
-3.97577841E+01
 20
1.77175004E+02
 40
1.18100000E+01
 50
8.99624577E+01
 51
1.09675998E+02
  0
ARC
  8
0
 62
4
 10
-3.97423075E+01
 20
1.77175004E+02
 40
1.18100000E+01
 50
7.03240015E+01
 51
9.00375421E+01
  0
LINE
  8
0
 62
4
 10
-3.56000458E+01
 20
1.88060035E+02
 11
-3.56000458E+01
 21
1.86332110E+02
  0
LINE
  8
0
 62
4
 10
-4.39000458E+01
 20
1.88060035E+02
 11
-4.39000458E+01
 21
1.87920926E+02
  0
LINE
  8
0
 62
4
 10
-3.57500458E+01
 20
1.85957883E+02
 11
-3.57500458E+01
 21
1.86140113E+02
  0
POLYLINE
  8
0
 62
4
 66
1
  0
VERTEX
  8
0
 62
4
 10
-4.34500458E+01
 20
1.85693961E+02
  0
VERTEX
  8
0
 62
4
 10
-4.33007378E+01
 20
1.85638041E+02
  0
VERTEX
  8
0
 62
4
 10
-4.31234691E+01
 20
1.85584640E+02
  0
VERTEX
  8
0
 62
4
 10
-4.29196357E+01
 20
1.85534178E+02
  0
VERTEX
  8
0
 62
4
 10
-4.26908426E+01
 20
1.85487053E+02
  0
VERTEX
  8
0
 62
4
 10
-4.24388916E+01
 20
1.85443635E+02
  0
VERTEX
  8
0
 62
4
 10
-4.21657666E+01
 20
1.85404267E+02
  0
VERTEX
  8
0
 62
4
 10
-4.18736185E+01
 20
1.85369258E+02
  0
VERTEX
  8
0
 62
4
 10
-4.15647479E+01
 20
1.85338885E+02
  0
VERTEX
  8
0
 62
4
 10
-4.12415870E+01
 20
1.85313386E+02
  0
VERTEX
  8
0
 62
4
 10
-4.09066806E+01
 20
1.85292962E+02
  0
VERTEX
  8
0
 62
4
 10
-4.05626660E+01
 20
1.85277775E+02
  0
VERTEX
  8
0
 62
4
 10
-4.02122523E+01
 20
1.85267943E+02
  0
VERTEX
  8
0
 62
4
 10
-3.98581989E+01
 20
1.85263544E+02
  0
VERTEX
  8
0
 62
4
 10
-3.95032937E+01
 20
1.85264613E+02
  0
VERTEX
  8
0
 62
4
 10
-3.91503317E+01
 20
1.85271141E+02
  0
VERTEX
  8
0
 62
4
 10
-3.88020922E+01
 20
1.85283077E+02
  0
VERTEX
  8
0
 62
4
 10
-3.84613177E+01
 20
1.85300328E+02
  0
VERTEX
  8
0
 62
4
 10
-3.81306914E+01
 20
1.85322756E+02
  0
VERTEX
  8
0
 62
4
 10
-3.78128172E+01
 20
1.85350185E+02
  0
VERTEX
  8
0
 62
4
 10
-3.75101981E+01
 20
1.85382400E+02
  0
VERTEX
  8
0
 62
4
 10
-3.72252172E+01
 20
1.85419147E+02
  0
VERTEX
  8
0
 62
4
 10
-3.69601186E+01
 20
1.85460136E+02
  0
VERTEX
  8
0
 62
4
 10
-3.67169899E+01
 20
1.85505045E+02
  0
VERTEX
  8
0
 62
4
 10
-3.64977456E+01
 20
1.85553520E+02
  0
VERTEX
  8
0
 62
4
 10
-3.63041124E+01
 20
1.85605179E+02
  0
VERTEX
  8
0
 62
4
 10
-3.61376149E+01
 20
1.85659615E+02
  0
VERTEX
  8
0
 62
4
 10
-3.59995642E+01
 20
1.85716400E+02
  0
VERTEX
  8
0
 62
4
 10
-3.58910476E+01
 20
1.85775087E+02
  0
VERTEX
  8
0
 62
4
 10
-3.58129195E+01
 20
1.85835214E+02
  0
VERTEX
  8
0
 62
4
 10
-3.57657952E+01
 20
1.85896306E+02
  0
VERTEX
  8
0
 62
4
 10
-3.57500458E+01
 20
1.85957883E+02
  0
SEQEND
  8
0
  0
ARC
  8
0
 62
4
 10
-3.76314402E+01
 20
1.76473794E+02
 40
1.25124521E+01
 50
9.49416351E+01
 51
1.08095416E+02
  0
ARC
  8
0
 62
4
 10
-4.18686516E+01
 20
1.76473791E+02
 40
1.25124547E+01
 50
7.19045858E+01
 51
8.50583647E+01
  0
POLYLINE
  8
0
 62
4
 66
1
  0
VERTEX
  8
0
 62
4
 10
-4.39000458E+01
 20
1.88065372E+02
  0
VERTEX
  8
0
 62
4
 10
-4.38833391E+01
 20
1.88000774E+02
  0
VERTEX
  8
0
 62
4
 10
-4.38333536E+01
 20
1.87936697E+02
  0
VERTEX
  8
0
 62
4
 10
-4.37504917E+01
 20
1.87873655E+02
  0
VERTEX
  8
0
 62
4
 10
-4.36354205E+01
 20
1.87812157E+02
  0
VERTEX
  8
0
 62
4
 10
-4.34890666E+01
 20
1.87752698E+02
  0
VERTEX
  8
0
 62
4
 10
-4.33126083E+01
 20
1.87695756E+02
  0
VERTEX
  8
0
 62
4
 10
-4.31074663E+01
 20
1.87641790E+02
  0
VERTEX
  8
0
 62
4
 10
-4.28752924E+01
 20
1.87591235E+02
  0
VERTEX
  8
0
 62
4
 10
-4.26179558E+01
 20
1.87544497E+02
  0
VERTEX
  8
0
 62
4
 10
-4.23375285E+01
 20
1.87501953E+02
  0
VERTEX
  8
0
 62
4
 10
-4.20362683E+01
 20
1.87463945E+02
  0
VERTEX
  8
0
 62
4
 10
-4.17166008E+01
 20
1.87430780E+02
  0
VERTEX
  8
0
 62
4
 10
-4.13810997E+01
 20
1.87402724E+02
  0
VERTEX
  8
0
 62
4
 10
-4.10324663E+01
 20
1.87380003E+02
  0
VERTEX
  8
0
 62
4
 10
-4.06735077E+01
 20
1.87362800E+02
  0
VERTEX
  8
0
 62
4
 10
-4.03071139E+01
 20
1.87351254E+02
  0
VERTEX
  8
0
 62
4
 10
-3.99362349E+01
 20
1.87345458E+02
  0
VERTEX
  8
0
 62
4
 10
-3.95638568E+01
 20
1.87345458E+02
  0
VERTEX
  8
0
 62
4
 10
-3.91929778E+01
 20
1.87351254E+02
  0
VERTEX
  8
0
 62
4
 10
-3.88265839E+01
 20
1.87362800E+02
  0
VERTEX
  8
0
 62
4
 10
-3.84676253E+01
 20
1.87380003E+02
  0
VERTEX
  8
0
 62
4
 10
-3.81189919E+01
 20
1.87402724E+02
  0
VERTEX
  8
0
 62
4
 10
-3.77834909E+01
 20
1.87430780E+02
  0
VERTEX
  8
0
 62
4
 10
-3.74638233E+01
 20
1.87463945E+02
  0
VERTEX
  8
0
 62
4
 10
-3.71625631E+01
 20
1.87501953E+02
  0
VERTEX
  8
0
 62
4
 10
-3.68821358E+01
 20
1.87544497E+02
  0
VERTEX
  8
0
 62
4
 10
-3.66247992E+01
 20
1.87591235E+02
  0
VERTEX
  8
0
 62
4
 10
-3.63926253E+01
 20
1.87641790E+02
  0
VERTEX
  8
0
 62
4
 10
-3.61874833E+01
 20
1.87695756E+02
  0
VERTEX
  8
0
 62
4
 10
-3.60110250E+01
 20
1.87752698E+02
  0
VERTEX
  8
0
 62
4
 10
-3.58646711E+01
 20
1.87812157E+02
  0
VERTEX
  8
0
 62
4
 10
-3.57495999E+01
 20
1.87873655E+02
  0
VERTEX
  8
0
 62
4
 10
-3.56667380E+01
 20
1.87936697E+02
  0
VERTEX
  8
0
 62
4
 10
-3.56167525E+01
 20
1.88000774E+02
  0
VERTEX
  8
0
 62
4
 10
-3.56000458E+01
 20
1.88065372E+02
  0
SEQEND
  8
0
  0
ARC
  8
0
 62
4
 10
-3.58500458E+01
 20
1.88060035E+02
 40
2.50000000E-01
 50
0.00000000E+00
 51
7.03240015E+01
  0
ARC
  8
0
 62
4
 10
-4.36500458E+01
 20
1.88060035E+02
 40
2.50000000E-01
 50
1.09675998E+02
 51
1.80000000E+02
  0
LINE
  8
0
 62
4
 10
-4.34500458E+01
 20
1.86334922E+02
 11
-4.34500458E+01
 21
1.85350114E+02
  0
LINE
  8
0
 62
4
 10
-5.10500458E+01
 20
1.86334922E+02
 11
-5.10500458E+01
 21
1.85350114E+02
  0
POLYLINE
  8
0
 62
4
 66
1
  0
VERTEX
  8
0
 62
4
 10
-5.10500458E+01
 20
1.85350114E+02
  0
VERTEX
  8
0
 62
4
 10
-5.10347481E+01
 20
1.85290964E+02
  0
VERTEX
  8
0
 62
4
 10
-5.09889782E+01
 20
1.85232291E+02
  0
VERTEX
  8
0
 62
4
 10
-5.09131047E+01
 20
1.85174566E+02
  0
VERTEX
  8
0
 62
4
 10
-5.08077383E+01
 20
1.85118255E+02
  0
VERTEX
  8
0
 62
4
 10
-5.06737275E+01
 20
1.85063810E+02
  0
VERTEX
  8
0
 62
4
 10
-5.05121512E+01
 20
1.85011671E+02
  0
VERTEX
  8
0
 62
4
 10
-5.03243104E+01
 20
1.84962256E+02
  0
VERTEX
  8
0
 62
4
 10
-5.01117174E+01
 20
1.84915965E+02
  0
VERTEX
  8
0
 62
4
 10
-4.98760839E+01
 20
1.84873168E+02
  0
VERTEX
  8
0
 62
4
 10
-4.96193071E+01
 20
1.84834212E+02
  0
VERTEX
  8
0
 62
4
 10
-4.93434543E+01
 20
1.84799410E+02
  0
VERTEX
  8
0
 62
4
 10
-4.90507467E+01
 20
1.84769042E+02
  0
VERTEX
  8
0
 62
4
 10
-4.87435409E+01
 20
1.84743352E+02
  0
VERTEX
  8
0
 62
4
 10
-4.84243104E+01
 20
1.84722547E+02
  0
VERTEX
  8
0
 62
4
 10
-4.80956254E+01
 20
1.84706795E+02
  0
VERTEX
  8
0
 62
4
 10
-4.77601322E+01
 20
1.84696223E+02
  0
VERTEX
  8
0
 62
4
 10
-4.74205322E+01
 20
1.84690915E+02
  0
VERTEX
  8
0
 62
4
 10
-4.70795595E+01
 20
1.84690915E+02
  0
VERTEX
  8
0
 62
4
 10
-4.67399594E+01
 20
1.84696223E+02
  0
VERTEX
  8
0
 62
4
 10
-4.64044663E+01
 20
1.84706795E+02
  0
VERTEX
  8
0
 62
4
 10
-4.60757812E+01
 20
1.84722547E+02
  0
VERTEX
  8
0
 62
4
 10
-4.57565507E+01
 20
1.84743352E+02
  0
VERTEX
  8
0
 62
4
 10
-4.54493449E+01
 20
1.84769042E+02
  0
VERTEX
  8
0
 62
4
 10
-4.51566373E+01
 20
1.84799410E+02
  0
VERTEX
  8
0
 62
4
 10
-4.48807846E+01
 20
1.84834212E+02
  0
VERTEX
  8
0
 62
4
 10
-4.46240078E+01
 20
1.84873168E+02
  0
VERTEX
  8
0
 62
4
 10
-4.43883742E+01
 20
1.84915965E+02
  0
VERTEX
  8
0
 62
4
 10
-4.41757812E+01
 20
1.84962256E+02
  0
VERTEX
  8
0
 62
4
 10
-4.39879404E+01
 20
1.85011671E+02
  0
VERTEX
  8
0
 62
4
 10
-4.38263641E+01
 20
1.85063810E+02
  0
VERTEX
  8
0
 62
4
 10
-4.36923533E+01
 20
1.85118255E+02
  0
VERTEX
  8
0
 62
4
 10
-4.35869869E+01
 20
1.85174566E+02
  0
VERTEX
  8
0
 62
4
 10
-4.35111134E+01
 20
1.85232291E+02
  0
VERTEX
  8
0
 62
4
 10
-4.34653435E+01
 20
1.85290964E+02
  0
VERTEX
  8
0
 62
4
 10
-4.34500458E+01
 20
1.85350114E+02
  0
SEQEND
  8
0
  0
POLYLINE
  8
0
 62
4
 66
1
  0
VERTEX
  8
0
 62
4
 10
-5.06500458E+01
 20
1.86629613E+02
  0
VERTEX
  8
0
 62
4
 10
-5.07866275E+01
 20
1.86576324E+02
  0
VERTEX
  8
0
 62
4
 10
-5.08955753E+01
 20
1.86521148E+02
  0
VERTEX
  8
0
 62
4
 10
-5.09760381E+01
 20
1.86464518E+02
  0
VERTEX
  8
0
 62
4
 10
-5.10273871E+01
 20
1.86406875E+02
  0
VERTEX
  8
0
 62
4
 10
-5.10492211E+01
 20
1.86348669E+02
  0
VERTEX
  8
0
 62
4
 10
-5.10413694E+01
 20
1.86290356E+02
  0
VERTEX
  8
0
 62
4
 10
-5.10038934E+01
 20
1.86232392E+02
  0
VERTEX
  8
0
 62
4
 10
-5.09370860E+01
 20
1.86175229E+02
  0
VERTEX
  8
0
 62
4
 10
-5.08414692E+01
 20
1.86119313E+02
  0
VERTEX
  8
0
 62
4
 10
-5.07177900E+01
 20
1.86065082E+02
  0
VERTEX
  8
0
 62
4
 10
-5.05670149E+01
 20
1.86012960E+02
  0
VERTEX
  8
0
 62
4
 10
-5.03903220E+01
 20
1.85963353E+02
  0
VERTEX
  8
0
 62
4
 10
-5.01890920E+01
 20
1.85916649E+02
  0
VERTEX
  8
0
 62
4
 10
-4.99648970E+01
 20
1.85873214E+02
  0
VERTEX
  8
0
 62
4
 10
-4.97194891E+01
 20
1.85833387E+02
  0
VERTEX
  8
0
 62
4
 10
-4.94547856E+01
 20
1.85797478E+02
  0
VERTEX
  8
0
 62
4
 10
-4.91728550E+01
 20
1.85765769E+02
  0
VERTEX
  8
0
 62
4
 10
-4.88759001E+01
 20
1.85738507E+02
  0
VERTEX
  8
0
 62
4
 10
-4.85662412E+01
 20
1.85715905E+02
  0
VERTEX
  8
0
 62
4
 10
-4.82462980E+01
 20
1.85698140E+02
  0
VERTEX
  8
0
 62
4
 10
-4.79185704E+01
 20
1.85685351E+02
  0
VERTEX
  8
0
 62
4
 10
-4.75856191E+01
 20
1.85677637E+02
  0
VERTEX
  8
0
 62
4
 10
-4.72500458E+01
 20
1.85675059E+02
  0
VERTEX
  8
0
 62
4
 10
-4.69144724E+01
 20
1.85677637E+02
  0
VERTEX
  8
0
 62
4
 10
-4.65815212E+01
 20
1.85685351E+02
  0
VERTEX
  8
0
 62
4
 10
-4.62537935E+01
 20
1.85698140E+02
  0
VERTEX
  8
0
 62
4
 10
-4.59338503E+01
 20
1.85715905E+02
  0
VERTEX
  8
0
 62
4
 10
-4.56241915E+01
 20
1.85738507E+02
  0
VERTEX
  8
0
 62
4
 10
-4.53272366E+01
 20
1.85765769E+02
  0
VERTEX
  8
0
 62
4
 10
-4.50453059E+01
 20
1.85797478E+02
  0
VERTEX
  8
0
 62
4
 10
-4.47806025E+01
 20
1.85833387E+02
  0
VERTEX
  8
0
 62
4
 10
-4.45351945E+01
 20
1.85873214E+02
  0
VERTEX
  8
0
 62
4
 10
-4.43109996E+01
 20
1.85916649E+02
  0
VERTEX
  8
0
 62
4
 10
-4.41097695E+01
 20
1.85963353E+02
  0
VERTEX
  8
0
 62
4
 10
-4.39330766E+01
 20
1.86012960E+02
  0
VERTEX
  8
0
 62
4
 10
-4.37823016E+01
 20
1.86065082E+02
  0
VERTEX
  8
0
 62
4
 10
-4.36586224E+01
 20
1.86119313E+02
  0
VERTEX
  8
0
 62
4
 10
-4.35630056E+01
 20
1.86175229E+02
  0
VERTEX
  8
0
 62
4
 10
-4.34961982E+01
 20
1.86232392E+02
  0
VERTEX
  8
0
 62
4
 10
-4.34587222E+01
 20
1.86290356E+02
  0
VERTEX
  8
0
 62
4
 10
-4.34508706E+01
 20
1.86348669E+02
  0
VERTEX
  8
0
 62
4
 10
-4.34727045E+01
 20
1.86406875E+02
  0
VERTEX
  8
0
 62
4
 10
-4.35240535E+01
 20
1.86464518E+02
  0
VERTEX
  8
0
 62
4
 10
-4.36045163E+01
 20
1.86521148E+02
  0
VERTEX
  8
0
 62
4
 10
-4.37134641E+01
 20
1.86576324E+02
  0
VERTEX
  8
0
 62
4
 10
-4.38500458E+01
 20
1.86629613E+02
  0
SEQEND
  8
0
  0
LINE
  8
0
 62
4
 10
-4.38500458E+01
 20
1.87608675E+02
 11
-4.38500458E+01
 21
1.86334922E+02
  0
LINE
  8
0
 62
4
 10
-5.06500458E+01
 20
1.87608675E+02
 11
-5.06500458E+01
 21
1.86334922E+02
  0
POLYLINE
  8
0
 62
4
 66
1
  0
VERTEX
  8
0
 62
4
 10
-5.06500458E+01
 20
1.86334922E+02
  0
VERTEX
  8
0
 62
4
 10
-5.06363584E+01
 20
1.86281999E+02
  0
VERTEX
  8
0
 62
4
 10
-5.05954064E+01
 20
1.86229501E+02
  0
VERTEX
  8
0
 62
4
 10
-5.05275195E+01
 20
1.86177853E+02
  0
VERTEX
  8
0
 62
4
 10
-5.04332444E+01
 20
1.86127469E+02
  0
VERTEX
  8
0
 62
4
 10
-5.03133400E+01
 20
1.86078755E+02
  0
VERTEX
  8
0
 62
4
 10
-5.01687717E+01
 20
1.86032104E+02
  0
VERTEX
  8
0
 62
4
 10
-5.00007036E+01
 20
1.85987891E+02
  0
VERTEX
  8
0
 62
4
 10
-4.98104888E+01
 20
1.85946472E+02
  0
VERTEX
  8
0
 62
4
 10
-4.95996588E+01
 20
1.85908181E+02
  0
VERTEX
  8
0
 62
4
 10
-4.93699111E+01
 20
1.85873326E+02
  0
VERTEX
  8
0
 62
4
 10
-4.91230956E+01
 20
1.85842187E+02
  0
VERTEX
  8
0
 62
4
 10
-4.88611993E+01
 20
1.85815015E+02
  0
VERTEX
  8
0
 62
4
 10
-4.85863309E+01
 20
1.85792029E+02
  0
VERTEX
  8
0
 62
4
 10
-4.83007036E+01
 20
1.85773415E+02
  0
VERTEX
  8
0
 62
4
 10
-4.80066170E+01
 20
1.85759321E+02
  0
VERTEX
  8
0
 62
4
 10
-4.77064389E+01
 20
1.85749861E+02
  0
VERTEX
  8
0
 62
4
 10
-4.74025862E+01
 20
1.85745113E+02
  0
VERTEX
  8
0
 62
4
 10
-4.70975054E+01
 20
1.85745113E+02
  0
VERTEX
  8
0
 62
4
 10
-4.67936527E+01
 20
1.85749861E+02
  0
VERTEX
  8
0
 62
4
 10
-4.64934746E+01
 20
1.85759321E+02
  0
VERTEX
  8
0
 62
4
 10
-4.61993880E+01
 20
1.85773415E+02
  0
VERTEX
  8
0
 62
4
 10
-4.59137607E+01
 20
1.85792029E+02
  0
VERTEX
  8
0
 62
4
 10
-4.56388924E+01
 20
1.85815015E+02
  0
VERTEX
  8
0
 62
4
 10
-4.53769961E+01
 20
1.85842187E+02
  0
VERTEX
  8
0
 62
4
 10
-4.51301805E+01
 20
1.85873326E+02
  0
VERTEX
  8
0
 62
4
 10
-4.49004328E+01
 20
1.85908181E+02
  0
VERTEX
  8
0
 62
4
 10
-4.46896028E+01
 20
1.85946472E+02
  0
VERTEX
  8
0
 62
4
 10
-4.44993880E+01
 20
1.85987891E+02
  0
VERTEX
  8
0
 62
4
 10
-4.43313199E+01
 20
1.86032104E+02
  0
VERTEX
  8
0
 62
4
 10
-4.41867517E+01
 20
1.86078755E+02
  0
VERTEX
  8
0
 62
4
 10
-4.40668472E+01
 20
1.86127469E+02
  0
VERTEX
  8
0
 62
4
 10
-4.39725721E+01
 20
1.86177853E+02
  0
VERTEX
  8
0
 62
4
 10
-4.39046852E+01
 20
1.86229501E+02
  0
VERTEX
  8
0
 62
4
 10
-4.38637332E+01
 20
1.86281999E+02
  0
VERTEX
  8
0
 62
4
 10
-4.38500458E+01
 20
1.86334922E+02
  0
SEQEND
  8
0
  0
ARC
  8
0
 62
4
 10
-4.72500458E+01
 20
1.77068461E+02
 40
1.18100000E+01
 50
7.71724899E+01
 51
1.02827510E+02
  0
ARC
  8
0
 62
4
 10
-4.96500461E+01
 20
1.87608675E+02
 40
1.00000000E+00
 50
1.02827510E+02
 51
1.80000000E+02
  0
ARC
  8
0
 62
4
 10
-4.48500455E+01
 20
1.87608675E+02
 40
1.00000000E+00
 50
3.60000000E+02
 51
7.71724899E+01
  0
ARC
  8
0
 62
4
 10
-4.51282922E+01
 20
1.76349318E+02
 40
1.25306621E+01
 50
9.49686598E+01
 51
1.08083352E+02
  0
ARC
  8
0
 62
4
 10
-4.93717994E+01
 20
1.76349317E+02
 40
1.25306626E+01
 50
7.19166483E+01
 51
8.50313400E+01
  0
LINE
  8
0
  6
CENTER
 62
6
 10
-3.72500458E+01
 20
1.85957883E+02
 11
-4.22500458E+01
 21
1.85957883E+02
  0
LINE
  8
0
  6
CENTER
 62
6
 10
-4.72500458E+01
 20
1.82850114E+02
 11
-4.72500458E+01
 21
1.87850114E+02
  0
LINE
  8
0
  6
CENTER
 62
6
 10
-4.47500458E+01
 20
1.85350114E+02
 11
-4.97500458E+01
 21
1.85350114E+02
  0
LINE
  8
0
  6
CENTER
 62
6
 10
-3.22500458E+01
 20
1.82850114E+02
 11
-3.22500458E+01
 21
1.87850114E+02
  0
LINE
  8
0
  6
CENTER
 62
6
 10
-2.97500458E+01
 20
1.85350114E+02
 11
-3.47500458E+01
 21
1.85350114E+02
  0
LINE
  8
0
 62
4
 10
-5.10431564E+01
 20
1.86374639E+02
 11
-5.47500458E+01
 21
1.86374639E+02
  0
LINE
  8
0
 62
6
 10
-8.87499542E+01
 20
2.17372785E+02
 11
-8.87499542E+01
 21
2.15021748E+02
  0
LINE
  8
0
 62
6
 10
-8.57499542E+01
 20
2.17372785E+02
 11
-8.57499542E+01
 21
2.15021748E+02
  0
LINE
  8
0
 62
4
 10
-8.92499542E+01
 20
2.17143070E+02
 11
-8.92499542E+01
 21
2.15021748E+02
  0
LINE
  8
0
 62
4
 10
-8.52499542E+01
 20
2.17143070E+02
 11
-8.52499542E+01
 21
2.15021748E+02
  0
LINE
  8
0
 62
4
 10
-9.87499542E+01
 20
2.15021748E+02
 11
-9.87499542E+01
 21
2.02313752E+02
  0
LINE
  8
0
 62
4
 10
-8.37499542E+01
 20
2.15021748E+02
 11
-8.37499542E+01
 21
1.89391861E+02
  0
LINE
  8
0
 62
4
 10
-1.13749954E+02
 20
2.02313752E+02
 11
-1.13749954E+02
 21
1.90364291E+02
  0
LINE
  8
0
  6
CENTER
 62
6
 10
-8.72499542E+01
 20
2.20485044E+02
 11
-8.72499542E+01
 21
2.10219465E+02
  0
LINE
  8
0
  6
CENTER
 62
6
 10
-9.52499542E+01
 20
2.20485044E+02
 11
-9.52499542E+01
 21
2.10219465E+02
  0
LINE
  8
0
  6
CENTER
 62
6
 10
-9.87499542E+01
 20
1.93281046E+02
 11
-9.87499542E+01
 21
1.88281046E+02
  0
LINE
  8
0
 62
4
 10
-9.87499542E+01
 20
2.15021748E+02
 11
-8.37499542E+01
 21
2.15021748E+02
  0
LINE
  8
0
 62
4
 10
-9.87499542E+01
 20
2.09207406E+02
 11
-8.37499542E+01
 21
2.09207406E+02
  0
LINE
  8
0
 62
4
 10
-1.13749954E+02
 20
2.02313752E+02
 11
-8.37499542E+01
 21
2.02313752E+02
  0
LINE
  8
0
 62
4
 10
-1.13749954E+02
 20
1.92170232E+02
 11
-8.37499542E+01
 21
1.92170232E+02
  0
LINE
  8
0
 62
4
 10
-8.78499542E+01
 20
1.89391861E+02
 11
-8.37499542E+01
 21
1.89391861E+02
  0
LINE
  8
0
 62
4
 10
-8.78499542E+01
 20
1.89565509E+02
 11
-8.37499542E+01
 21
1.89565509E+02
  0
LINE
  8
0
 62
4
 10
-1.13749954E+02
 20
1.90364291E+02
 11
-1.02899954E+02
 21
1.90364291E+02
  0
POLYLINE
  8
0
 62
4
 66
1
  0
VERTEX
  8
0
 62
4
 10
-8.52499542E+01
 20
2.17143070E+02
  0
VERTEX
  8
0
 62
4
 10
-8.52580056E+01
 20
2.17174201E+02
  0
VERTEX
  8
0
 62
4
 10
-8.52820950E+01
 20
2.17205082E+02
  0
VERTEX
  8
0
 62
4
 10
-8.53220285E+01
 20
2.17235464E+02
  0
VERTEX
  8
0
 62
4
 10
-8.53774845E+01
 20
2.17265101E+02
  0
VERTEX
  8
0
 62
4
 10
-8.54480165E+01
 20
2.17293756E+02
  0
VERTEX
  8
0
 62
4
 10
-8.55330566E+01
 20
2.17321198E+02
  0
VERTEX
  8
0
 62
4
 10
-8.56319202E+01
 20
2.17347206E+02
  0
VERTEX
  8
0
 62
4
 10
-8.57438113E+01
 20
2.17371570E+02
  0
VERTEX
  8
0
 62
4
 10
-8.58678289E+01
 20
2.17394094E+02
  0
VERTEX
  8
0
 62
4
 10
-8.60029746E+01
 20
2.17414597E+02
  0
VERTEX
  8
0
 62
4
 10
-8.61481602E+01
 20
2.17432914E+02
  0
VERTEX
  8
0
 62
4
 10
-8.63022169E+01
 20
2.17448898E+02
  0
VERTEX
  8
0
 62
4
 10
-8.64639041E+01
 20
2.17462419E+02
  0
VERTEX
  8
0
 62
4
 10
-8.66319202E+01
 20
2.17473368E+02
  0
VERTEX
  8
0
 62
4
 10
-8.68049123E+01
 20
2.17481659E+02
  0
VERTEX
  8
0
 62
4
 10
-8.69814877E+01
 20
2.17487223E+02
  0
VERTEX
  8
0
 62
4
 10
-8.71602245E+01
 20
2.17490017E+02
  0
VERTEX
  8
0
 62
4
 10
-8.73396838E+01
 20
2.17490017E+02
  0
VERTEX
  8
0
 62
4
 10
-8.75184207E+01
 20
2.17487223E+02
  0
VERTEX
  8
0
 62
4
 10
-8.76949961E+01
 20
2.17481659E+02
  0
VERTEX
  8
0
 62
4
 10
-8.78679882E+01
 20
2.17473368E+02
  0
VERTEX
  8
0
 62
4
 10
-8.80360043E+01
 20
2.17462419E+02
  0
VERTEX
  8
0
 62
4
 10
-8.81976915E+01
 20
2.17448898E+02
  0
VERTEX
  8
0
 62
4
 10
-8.83517482E+01
 20
2.17432914E+02
  0
VERTEX
  8
0
 62
4
 10
-8.84969338E+01
 20
2.17414597E+02
  0
VERTEX
  8
0
 62
4
 10
-8.86320795E+01
 20
2.17394094E+02
  0
VERTEX
  8
0
 62
4
 10
-8.87560971E+01
 20
2.17371570E+02
  0
VERTEX
  8
0
 62
4
 10
-8.88679882E+01
 20
2.17347206E+02
  0
VERTEX
  8
0
 62
4
 10
-8.89668518E+01
 20
2.17321198E+02
  0
VERTEX
  8
0
 62
4
 10
-8.90518919E+01
 20
2.17293756E+02
  0
VERTEX
  8
0
 62
4
 10
-8.91224239E+01
 20
2.17265101E+02
  0
VERTEX
  8
0
 62
4
 10
-8.91778799E+01
 20
2.17235464E+02
  0
VERTEX
  8
0
 62
4
 10
-8.92178134E+01
 20
2.17205082E+02
  0
VERTEX
  8
0
 62
4
 10
-8.92419028E+01
 20
2.17174201E+02
  0
VERTEX
  8
0
 62
4
 10
-8.92499542E+01
 20
2.17143070E+02
  0
SEQEND
  8
0
  0
LINE
  8
0
 62
6
 10
-9.67499542E+01
 20
2.17372785E+02
 11
-9.67499542E+01
 21
2.15021748E+02
  0
LINE
  8
0
 62
6
 10
-9.37499542E+01
 20
2.17372785E+02
 11
-9.37499542E+01
 21
2.15021748E+02
  0
LINE
  8
0
 62
4
 10
-9.72499542E+01
 20
2.17143070E+02
 11
-9.72499542E+01
 21
2.15021748E+02
  0
LINE
  8
0
 62
4
 10
-9.32499542E+01
 20
2.17143070E+02
 11
-9.32499542E+01
 21
2.15021748E+02
  0
POLYLINE
  8
0
 62
4
 66
1
  0
VERTEX
  8
0
 62
4
 10
-9.32499542E+01
 20
2.17143070E+02
  0
VERTEX
  8
0
 62
4
 10
-9.32580056E+01
 20
2.17174201E+02
  0
VERTEX
  8
0
 62
4
 10
-9.32820950E+01
 20
2.17205082E+02
  0
VERTEX
  8
0
 62
4
 10
-9.33220285E+01
 20
2.17235464E+02
  0
VERTEX
  8
0
 62
4
 10
-9.33774845E+01
 20
2.17265101E+02
  0
VERTEX
  8
0
 62
4
 10
-9.34480165E+01
 20
2.17293756E+02
  0
VERTEX
  8
0
 62
4
 10
-9.35330566E+01
 20
2.17321198E+02
  0
VERTEX
  8
0
 62
4
 10
-9.36319202E+01
 20
2.17347206E+02
  0
VERTEX
  8
0
 62
4
 10
-9.37438113E+01
 20
2.17371570E+02
  0
VERTEX
  8
0
 62
4
 10
-9.38678289E+01
 20
2.17394094E+02
  0
VERTEX
  8
0
 62
4
 10
-9.40029746E+01
 20
2.17414597E+02
  0
VERTEX
  8
0
 62
4
 10
-9.41481602E+01
 20
2.17432914E+02
  0
VERTEX
  8
0
 62
4
 10
-9.43022169E+01
 20
2.17448898E+02
  0
VERTEX
  8
0
 62
4
 10
-9.44639041E+01
 20
2.17462419E+02
  0
VERTEX
  8
0
 62
4
 10
-9.46319202E+01
 20
2.17473368E+02
  0
VERTEX
  8
0
 62
4
 10
-9.48049123E+01
 20
2.17481659E+02
  0
VERTEX
  8
0
 62
4
 10
-9.49814877E+01
 20
2.17487223E+02
  0
VERTEX
  8
0
 62
4
 10
-9.51602245E+01
 20
2.17490017E+02
  0
VERTEX
  8
0
 62
4
 10
-9.53396838E+01
 20
2.17490017E+02
  0
VERTEX
  8
0
 62
4
 10
-9.55184207E+01
 20
2.17487223E+02
  0
VERTEX
  8
0
 62
4
 10
-9.56949961E+01
 20
2.17481659E+02
  0
VERTEX
  8
0
 62
4
 10
-9.58679882E+01
 20
2.17473368E+02
  0
VERTEX
  8
0
 62
4
 10
-9.60360043E+01
 20
2.17462419E+02
  0
VERTEX
  8
0
 62
4
 10
-9.61976915E+01
 20
2.17448898E+02
  0
VERTEX
  8
0
 62
4
 10
-9.63517482E+01
 20
2.17432914E+02
  0
VERTEX
  8
0
 62
4
 10
-9.64969338E+01
 20
2.17414597E+02
  0
VERTEX
  8
0
 62
4
 10
-9.66320795E+01
 20
2.17394094E+02
  0
VERTEX
  8
0
 62
4
 10
-9.67560971E+01
 20
2.17371570E+02
  0
VERTEX
  8
0
 62
4
 10
-9.68679882E+01
 20
2.17347206E+02
  0
VERTEX
  8
0
 62
4
 10
-9.69668518E+01
 20
2.17321198E+02
  0
VERTEX
  8
0
 62
4
 10
-9.70518919E+01
 20
2.17293756E+02
  0
VERTEX
  8
0
 62
4
 10
-9.71224239E+01
 20
2.17265101E+02
  0
VERTEX
  8
0
 62
4
 10
-9.71778799E+01
 20
2.17235464E+02
  0
VERTEX
  8
0
 62
4
 10
-9.72178134E+01
 20
2.17205082E+02
  0
VERTEX
  8
0
 62
4
 10
-9.72419028E+01
 20
2.17174201E+02
  0
VERTEX
  8
0
 62
4
 10
-9.72499542E+01
 20
2.17143070E+02
  0
SEQEND
  8
0
  0
LINE
  8
0
 62
4
 10
-1.13749954E+02
 20
1.94019736E+02
 11
-1.15249954E+02
 21
1.93016803E+02
  0
LINE
  8
0
 62
4
 10
-1.15249954E+02
 20
1.93016803E+02
 11
-1.15249954E+02
 21
1.90392901E+02
  0
LINE
  8
0
 62
4
 10
-1.15249954E+02
 20
1.90786214E+02
 11
-1.13749954E+02
 21
1.90080505E+02
  0
LINE
  8
0
 62
4
 10
-1.15249954E+02
 20
1.90392901E+02
 11
-1.13749954E+02
 21
1.89385912E+02
  0
LINE
  8
0
 62
4
 10
-1.13749954E+02
 20
1.89385912E+02
 11
-1.02899954E+02
 21
1.89385912E+02
  0
LINE
  8
0
 62
4
 10
-1.13749954E+02
 20
1.90080505E+02
 11
-1.02899954E+02
 21
1.90080505E+02
  0
LINE
  8
0
 62
4
 10
-1.13749954E+02
 20
1.90364291E+02
 11
-1.13749954E+02
 21
1.89391861E+02
  0
POLYLINE
  8
0
 62
4
 66
1
  0
VERTEX
  8
0
 62
4
 10
-9.50499542E+01
 20
1.90733190E+02
  0
VERTEX
  8
0
 62
4
 10
-9.52317692E+01
 20
1.90789037E+02
  0
VERTEX
  8
0
 62
4
 10
-9.54414664E+01
 20
1.90841856E+02
  0
VERTEX
  8
0
 62
4
 10
-9.56773841E+01
 20
1.90891226E+02
  0
VERTEX
  8
0
 62
4
 10
-9.59376524E+01
 20
1.90936758E+02
  0
VERTEX
  8
0
 62
4
 10
-9.62202087E+01
 20
1.90978089E+02
  0
VERTEX
  8
0
 62
4
 10
-9.65228138E+01
 20
1.91014894E+02
  0
VERTEX
  8
0
 62
4
 10
-9.68430693E+01
 20
1.91046879E+02
  0
VERTEX
  8
0
 62
4
 10
-9.71784373E+01
 20
1.91073792E+02
  0
VERTEX
  8
0
 62
4
 10
-9.75262598E+01
 20
1.91095418E+02
  0
VERTEX
  8
0
 62
4
 10
-9.78837804E+01
 20
1.91111588E+02
  0
VERTEX
  8
0
 62
4
 10
-9.82481655E+01
 20
1.91122172E+02
  0
VERTEX
  8
0
 62
4
 10
-9.86165274E+01
 20
1.91127086E+02
  0
VERTEX
  8
0
 62
4
 10
-9.89859467E+01
 20
1.91126293E+02
  0
VERTEX
  8
0
 62
4
 10
-9.93534958E+01
 20
1.91119797E+02
  0
VERTEX
  8
0
 62
4
 10
-9.97162616E+01
 20
1.91107651E+02
  0
VERTEX
  8
0
 62
4
 10
-1.00071369E+02
 20
1.91089951E+02
  0
VERTEX
  8
0
 62
4
 10
-1.00416005E+02
 20
1.91066837E+02
  0
VERTEX
  8
0
 62
4
 10
-1.00747436E+02
 20
1.91038492E+02
  0
VERTEX
  8
0
 62
4
 10
-1.01063037E+02
 20
1.91005141E+02
  0
VERTEX
  8
0
 62
4
 10
-1.01360307E+02
 20
1.90967048E+02
  0
VERTEX
  8
0
 62
4
 10
-1.01636888E+02
 20
1.90924515E+02
  0
VERTEX
  8
0
 62
4
 10
-1.01890591E+02
 20
1.90877880E+02
  0
VERTEX
  8
0
 62
4
 10
-1.02119403E+02
 20
1.90827511E+02
  0
VERTEX
  8
0
 62
4
 10
-1.02321512E+02
 20
1.90773808E+02
  0
VERTEX
  8
0
 62
4
 10
-1.02495315E+02
 20
1.90717196E+02
  0
VERTEX
  8
0
 62
4
 10
-1.02639436E+02
 20
1.90658125E+02
  0
VERTEX
  8
0
 62
4
 10
-1.02752732E+02
 20
1.90597062E+02
  0
VERTEX
  8
0
 62
4
 10
-1.02834305E+02
 20
1.90534492E+02
  0
VERTEX
  8
0
 62
4
 10
-1.02883509E+02
 20
1.90470909E+02
  0
VERTEX
  8
0
 62
4
 10
-1.02899954E+02
 20
1.90406819E+02
  0
SEQEND
  8
0
  0
ARC
  8
0
 62
4
 10
-9.87422159E+01
 20
1.99563926E+02
 40
1.18100000E+01
 50
2.69962458E+02
 51
2.89675999E+02
  0
ARC
  8
0
 62
4
 10
-9.87576925E+01
 20
1.99563926E+02
 40
1.18100000E+01
 50
2.50324001E+02
 51
2.70037542E+02
  0
LINE
  8
0
 62
4
 10
-1.02899954E+02
 20
1.88678895E+02
 11
-1.02899954E+02
 21
1.90406819E+02
  0
LINE
  8
0
 62
4
 10
-9.45999542E+01
 20
1.88678895E+02
 11
-9.45999542E+01
 21
1.88818004E+02
  0
LINE
  8
0
 62
4
 10
-1.02749954E+02
 20
1.90781046E+02
 11
-1.02749954E+02
 21
1.90598816E+02
  0
POLYLINE
  8
0
 62
4
 66
1
  0
VERTEX
  8
0
 62
4
 10
-9.50499542E+01
 20
1.91044968E+02
  0
VERTEX
  8
0
 62
4
 10
-9.51992622E+01
 20
1.91100888E+02
  0
VERTEX
  8
0
 62
4
 10
-9.53765309E+01
 20
1.91154289E+02
  0
VERTEX
  8
0
 62
4
 10
-9.55803643E+01
 20
1.91204751E+02
  0
VERTEX
  8
0
 62
4
 10
-9.58091574E+01
 20
1.91251876E+02
  0
VERTEX
  8
0
 62
4
 10
-9.60611084E+01
 20
1.91295294E+02
  0
VERTEX
  8
0
 62
4
 10
-9.63342334E+01
 20
1.91334662E+02
  0
VERTEX
  8
0
 62
4
 10
-9.66263815E+01
 20
1.91369671E+02
  0
VERTEX
  8
0
 62
4
 10
-9.69352521E+01
 20
1.91400044E+02
  0
VERTEX
  8
0
 62
4
 10
-9.72584130E+01
 20
1.91425543E+02
  0
VERTEX
  8
0
 62
4
 10
-9.75933194E+01
 20
1.91445967E+02
  0
VERTEX
  8
0
 62
4
 10
-9.79373340E+01
 20
1.91461154E+02
  0
VERTEX
  8
0
 62
4
 10
-9.82877477E+01
 20
1.91470986E+02
  0
VERTEX
  8
0
 62
4
 10
-9.86418011E+01
 20
1.91475385E+02
  0
VERTEX
  8
0
 62
4
 10
-9.89967063E+01
 20
1.91474316E+02
  0
VERTEX
  8
0
 62
4
 10
-9.93496683E+01
 20
1.91467788E+02
  0
VERTEX
  8
0
 62
4
 10
-9.96979078E+01
 20
1.91455852E+02
  0
VERTEX
  8
0
 62
4
 10
-1.00038682E+02
 20
1.91438601E+02
  0
VERTEX
  8
0
 62
4
 10
-1.00369309E+02
 20
1.91416173E+02
  0
VERTEX
  8
0
 62
4
 10
-1.00687183E+02
 20
1.91388744E+02
  0
VERTEX
  8
0
 62
4
 10
-1.00989802E+02
 20
1.91356529E+02
  0
VERTEX
  8
0
 62
4
 10
-1.01274783E+02
 20
1.91319782E+02
  0
VERTEX
  8
0
 62
4
 10
-1.01539881E+02
 20
1.91278793E+02
  0
VERTEX
  8
0
 62
4
 10
-1.01783010E+02
 20
1.91233884E+02
  0
VERTEX
  8
0
 62
4
 10
-1.02002254E+02
 20
1.91185409E+02
  0
VERTEX
  8
0
 62
4
 10
-1.02195888E+02
 20
1.91133750E+02
  0
VERTEX
  8
0
 62
4
 10
-1.02362385E+02
 20
1.91079314E+02
  0
VERTEX
  8
0
 62
4
 10
-1.02500436E+02
 20
1.91022529E+02
  0
VERTEX
  8
0
 62
4
 10
-1.02608952E+02
 20
1.90963842E+02
  0
VERTEX
  8
0
 62
4
 10
-1.02687080E+02
 20
1.90903716E+02
  0
VERTEX
  8
0
 62
4
 10
-1.02734205E+02
 20
1.90842623E+02
  0
VERTEX
  8
0
 62
4
 10
-1.02749954E+02
 20
1.90781046E+02
  0
SEQEND
  8
0
  0
ARC
  8
0
 62
4
 10
-1.00868560E+02
 20
2.00265135E+02
 40
1.25124521E+01
 50
2.74941635E+02
 51
2.88095416E+02
  0
ARC
  8
0
 62
4
 10
-9.66313484E+01
 20
2.00265138E+02
 40
1.25124547E+01
 50
2.51904586E+02
 51
2.65058365E+02
  0
POLYLINE
  8
0
 62
4
 66
1
  0
VERTEX
  8
0
 62
4
 10
-9.45999542E+01
 20
1.88673558E+02
  0
VERTEX
  8
0
 62
4
 10
-9.46166609E+01
 20
1.88738156E+02
  0
VERTEX
  8
0
 62
4
 10
-9.46666464E+01
 20
1.88802233E+02
  0
VERTEX
  8
0
 62
4
 10
-9.47495083E+01
 20
1.88865275E+02
  0
VERTEX
  8
0
 62
4
 10
-9.48645795E+01
 20
1.88926773E+02
  0
VERTEX
  8
0
 62
4
 10
-9.50109334E+01
 20
1.88986232E+02
  0
VERTEX
  8
0
 62
4
 10
-9.51873917E+01
 20
1.89043174E+02
  0
VERTEX
  8
0
 62
4
 10
-9.53925337E+01
 20
1.89097140E+02
  0
VERTEX
  8
0
 62
4
 10
-9.56247076E+01
 20
1.89147695E+02
  0
VERTEX
  8
0
 62
4
 10
-9.58820442E+01
 20
1.89194433E+02
  0
VERTEX
  8
0
 62
4
 10
-9.61624715E+01
 20
1.89236977E+02
  0
VERTEX
  8
0
 62
4
 10
-9.64637317E+01
 20
1.89274985E+02
  0
VERTEX
  8
0
 62
4
 10
-9.67833992E+01
 20
1.89308150E+02
  0
VERTEX
  8
0
 62
4
 10
-9.71189003E+01
 20
1.89336206E+02
  0
VERTEX
  8
0
 62
4
 10
-9.74675336E+01
 20
1.89358927E+02
  0
VERTEX
  8
0
 62
4
 10
-9.78264923E+01
 20
1.89376130E+02
  0
VERTEX
  8
0
 62
4
 10
-9.81928861E+01
 20
1.89387676E+02
  0
VERTEX
  8
0
 62
4
 10
-9.85637651E+01
 20
1.89393472E+02
  0
VERTEX
  8
0
 62
4
 10
-9.89361432E+01
 20
1.89393472E+02
  0
VERTEX
  8
0
 62
4
 10
-9.93070222E+01
 20
1.89387676E+02
  0
VERTEX
  8
0
 62
4
 10
-9.96734161E+01
 20
1.89376130E+02
  0
VERTEX
  8
0
 62
4
 10
-1.00032375E+02
 20
1.89358927E+02
  0
VERTEX
  8
0
 62
4
 10
-1.00381008E+02
 20
1.89336206E+02
  0
VERTEX
  8
0
 62
4
 10
-1.00716509E+02
 20
1.89308150E+02
  0
VERTEX
  8
0
 62
4
 10
-1.01036177E+02
 20
1.89274985E+02
  0
VERTEX
  8
0
 62
4
 10
-1.01337437E+02
 20
1.89236977E+02
  0
VERTEX
  8
0
 62
4
 10
-1.01617864E+02
 20
1.89194433E+02
  0
VERTEX
  8
0
 62
4
 10
-1.01875201E+02
 20
1.89147695E+02
  0
VERTEX
  8
0
 62
4
 10
-1.02107375E+02
 20
1.89097140E+02
  0
VERTEX
  8
0
 62
4
 10
-1.02312517E+02
 20
1.89043174E+02
  0
VERTEX
  8
0
 62
4
 10
-1.02488975E+02
 20
1.88986232E+02
  0
VERTEX
  8
0
 62
4
 10
-1.02635329E+02
 20
1.88926773E+02
  0
VERTEX
  8
0
 62
4
 10
-1.02750400E+02
 20
1.88865275E+02
  0
VERTEX
  8
0
 62
4
 10
-1.02833262E+02
 20
1.88802233E+02
  0
VERTEX
  8
0
 62
4
 10
-1.02883248E+02
 20
1.88738156E+02
  0
VERTEX
  8
0
 62
4
 10
-1.02899954E+02
 20
1.88673558E+02
  0
SEQEND
  8
0
  0
ARC
  8
0
 62
4
 10
-1.02649954E+02
 20
1.88678895E+02
 40
2.50000000E-01
 50
1.80000000E+02
 51
2.50324001E+02
  0
ARC
  8
0
 62
4
 10
-9.48499542E+01
 20
1.88678895E+02
 40
2.50000000E-01
 50
2.89675999E+02
 51
0.00000000E+00
  0
LINE
  8
0
 62
4
 10
-9.50499542E+01
 20
1.90404007E+02
 11
-9.50499542E+01
 21
1.91388815E+02
  0
LINE
  8
0
 62
4
 10
-8.74499542E+01
 20
1.90404007E+02
 11
-8.74499542E+01
 21
1.91388815E+02
  0
POLYLINE
  8
0
 62
4
 66
1
  0
VERTEX
  8
0
 62
4
 10
-8.74499542E+01
 20
1.91388815E+02
  0
VERTEX
  8
0
 62
4
 10
-8.74652519E+01
 20
1.91447965E+02
  0
VERTEX
  8
0
 62
4
 10
-8.75110218E+01
 20
1.91506638E+02
  0
VERTEX
  8
0
 62
4
 10
-8.75868953E+01
 20
1.91564363E+02
  0
VERTEX
  8
0
 62
4
 10
-8.76922617E+01
 20
1.91620674E+02
  0
VERTEX
  8
0
 62
4
 10
-8.78262725E+01
 20
1.91675119E+02
  0
VERTEX
  8
0
 62
4
 10
-8.79878488E+01
 20
1.91727258E+02
  0
VERTEX
  8
0
 62
4
 10
-8.81756896E+01
 20
1.91776673E+02
  0
VERTEX
  8
0
 62
4
 10
-8.83882826E+01
 20
1.91822964E+02
  0
VERTEX
  8
0
 62
4
 10
-8.86239161E+01
 20
1.91865761E+02
  0
VERTEX
  8
0
 62
4
 10
-8.88806929E+01
 20
1.91904717E+02
  0
VERTEX
  8
0
 62
4
 10
-8.91565457E+01
 20
1.91939519E+02
  0
VERTEX
  8
0
 62
4
 10
-8.94492533E+01
 20
1.91969887E+02
  0
VERTEX
  8
0
 62
4
 10
-8.97564591E+01
 20
1.91995577E+02
  0
VERTEX
  8
0
 62
4
 10
-9.00756896E+01
 20
1.92016382E+02
  0
VERTEX
  8
0
 62
4
 10
-9.04043746E+01
 20
1.92032134E+02
  0
VERTEX
  8
0
 62
4
 10
-9.07398678E+01
 20
1.92042706E+02
  0
VERTEX
  8
0
 62
4
 10
-9.10794678E+01
 20
1.92048014E+02
  0
VERTEX
  8
0
 62
4
 10
-9.14204405E+01
 20
1.92048014E+02
  0
VERTEX
  8
0
 62
4
 10
-9.17600406E+01
 20
1.92042706E+02
  0
VERTEX
  8
0
 62
4
 10
-9.20955337E+01
 20
1.92032134E+02
  0
VERTEX
  8
0
 62
4
 10
-9.24242188E+01
 20
1.92016382E+02
  0
VERTEX
  8
0
 62
4
 10
-9.27434493E+01
 20
1.91995577E+02
  0
VERTEX
  8
0
 62
4
 10
-9.30506551E+01
 20
1.91969887E+02
  0
VERTEX
  8
0
 62
4
 10
-9.33433627E+01
 20
1.91939519E+02
  0
VERTEX
  8
0
 62
4
 10
-9.36192154E+01
 20
1.91904717E+02
  0
VERTEX
  8
0
 62
4
 10
-9.38759922E+01
 20
1.91865761E+02
  0
VERTEX
  8
0
 62
4
 10
-9.41116258E+01
 20
1.91822964E+02
  0
VERTEX
  8
0
 62
4
 10
-9.43242188E+01
 20
1.91776673E+02
  0
VERTEX
  8
0
 62
4
 10
-9.45120596E+01
 20
1.91727258E+02
  0
VERTEX
  8
0
 62
4
 10
-9.46736359E+01
 20
1.91675119E+02
  0
VERTEX
  8
0
 62
4
 10
-9.48076467E+01
 20
1.91620674E+02
  0
VERTEX
  8
0
 62
4
 10
-9.49130131E+01
 20
1.91564363E+02
  0
VERTEX
  8
0
 62
4
 10
-9.49888866E+01
 20
1.91506638E+02
  0
VERTEX
  8
0
 62
4
 10
-9.50346565E+01
 20
1.91447965E+02
  0
VERTEX
  8
0
 62
4
 10
-9.50499542E+01
 20
1.91388815E+02
  0
SEQEND
  8
0
  0
POLYLINE
  8
0
 62
4
 66
1
  0
VERTEX
  8
0
 62
4
 10
-8.78499542E+01
 20
1.90109316E+02
  0
VERTEX
  8
0
 62
4
 10
-8.77133725E+01
 20
1.90162605E+02
  0
VERTEX
  8
0
 62
4
 10
-8.76044247E+01
 20
1.90217781E+02
  0
VERTEX
  8
0
 62
4
 10
-8.75239619E+01
 20
1.90274411E+02
  0
VERTEX
  8
0
 62
4
 10
-8.74726129E+01
 20
1.90332054E+02
  0
VERTEX
  8
0
 62
4
 10
-8.74507789E+01
 20
1.90390260E+02
  0
VERTEX
  8
0
 62
4
 10
-8.74586306E+01
 20
1.90448573E+02
  0
VERTEX
  8
0
 62
4
 10
-8.74961066E+01
 20
1.90506537E+02
  0
VERTEX
  8
0
 62
4
 10
-8.75629140E+01
 20
1.90563700E+02
  0
VERTEX
  8
0
 62
4
 10
-8.76585308E+01
 20
1.90619616E+02
  0
VERTEX
  8
0
 62
4
 10
-8.77822100E+01
 20
1.90673847E+02
  0
VERTEX
  8
0
 62
4
 10
-8.79329851E+01
 20
1.90725969E+02
  0
VERTEX
  8
0
 62
4
 10
-8.81096780E+01
 20
1.90775576E+02
  0
VERTEX
  8
0
 62
4
 10
-8.83109080E+01
 20
1.90822280E+02
  0
VERTEX
  8
0
 62
4
 10
-8.85351030E+01
 20
1.90865715E+02
  0
VERTEX
  8
0
 62
4
 10
-8.87805109E+01
 20
1.90905542E+02
  0
VERTEX
  8
0
 62
4
 10
-8.90452144E+01
 20
1.90941451E+02
  0
VERTEX
  8
0
 62
4
 10
-8.93271450E+01
 20
1.90973160E+02
  0
VERTEX
  8
0
 62
4
 10
-8.96240999E+01
 20
1.91000422E+02
  0
VERTEX
  8
0
 62
4
 10
-8.99337588E+01
 20
1.91023024E+02
  0
VERTEX
  8
0
 62
4
 10
-9.02537020E+01
 20
1.91040789E+02
  0
VERTEX
  8
0
 62
4
 10
-9.05814296E+01
 20
1.91053578E+02
  0
VERTEX
  8
0
 62
4
 10
-9.09143809E+01
 20
1.91061292E+02
  0
VERTEX
  8
0
 62
4
 10
-9.12499542E+01
 20
1.91063870E+02
  0
VERTEX
  8
0
 62
4
 10
-9.15855276E+01
 20
1.91061292E+02
  0
VERTEX
  8
0
 62
4
 10
-9.19184788E+01
 20
1.91053578E+02
  0
VERTEX
  8
0
 62
4
 10
-9.22462065E+01
 20
1.91040789E+02
  0
VERTEX
  8
0
 62
4
 10
-9.25661497E+01
 20
1.91023024E+02
  0
VERTEX
  8
0
 62
4
 10
-9.28758085E+01
 20
1.91000422E+02
  0
VERTEX
  8
0
 62
4
 10
-9.31727634E+01
 20
1.90973160E+02
  0
VERTEX
  8
0
 62
4
 10
-9.34546941E+01
 20
1.90941451E+02
  0
VERTEX
  8
0
 62
4
 10
-9.37193975E+01
 20
1.90905542E+02
  0
VERTEX
  8
0
 62
4
 10
-9.39648055E+01
 20
1.90865715E+02
  0
VERTEX
  8
0
 62
4
 10
-9.41890004E+01
 20
1.90822280E+02
  0
VERTEX
  8
0
 62
4
 10
-9.43902305E+01
 20
1.90775576E+02
  0
VERTEX
  8
0
 62
4
 10
-9.45669234E+01
 20
1.90725969E+02
  0
VERTEX
  8
0
 62
4
 10
-9.47176984E+01
 20
1.90673847E+02
  0
VERTEX
  8
0
 62
4
 10
-9.48413776E+01
 20
1.90619616E+02
  0
VERTEX
  8
0
 62
4
 10
-9.49369944E+01
 20
1.90563701E+02
  0
VERTEX
  8
0
 62
4
 10
-9.50038018E+01
 20
1.90506537E+02
  0
VERTEX
  8
0
 62
4
 10
-9.50412778E+01
 20
1.90448573E+02
  0
VERTEX
  8
0
 62
4
 10
-9.50491295E+01
 20
1.90390260E+02
  0
VERTEX
  8
0
 62
4
 10
-9.50272955E+01
 20
1.90332054E+02
  0
VERTEX
  8
0
 62
4
 10
-9.49759465E+01
 20
1.90274411E+02
  0
VERTEX
  8
0
 62
4
 10
-9.48954837E+01
 20
1.90217781E+02
  0
VERTEX
  8
0
 62
4
 10
-9.47865359E+01
 20
1.90162605E+02
  0
VERTEX
  8
0
 62
4
 10
-9.46499542E+01
 20
1.90109316E+02
  0
SEQEND
  8
0
  0
LINE
  8
0
 62
4
 10
-9.46499542E+01
 20
1.89130255E+02
 11
-9.46499542E+01
 21
1.90404007E+02
  0
LINE
  8
0
 62
4
 10
-8.78499542E+01
 20
1.89130255E+02
 11
-8.78499542E+01
 21
1.90404007E+02
  0
POLYLINE
  8
0
 62
4
 66
1
  0
VERTEX
  8
0
 62
4
 10
-8.78499542E+01
 20
1.90404007E+02
  0
VERTEX
  8
0
 62
4
 10
-8.78636416E+01
 20
1.90456930E+02
  0
VERTEX
  8
0
 62
4
 10
-8.79045936E+01
 20
1.90509428E+02
  0
VERTEX
  8
0
 62
4
 10
-8.79724805E+01
 20
1.90561076E+02
  0
VERTEX
  8
0
 62
4
 10
-8.80667556E+01
 20
1.90611460E+02
  0
VERTEX
  8
0
 62
4
 10
-8.81866600E+01
 20
1.90660174E+02
  0
VERTEX
  8
0
 62
4
 10
-8.83312283E+01
 20
1.90706825E+02
  0
VERTEX
  8
0
 62
4
 10
-8.84992964E+01
 20
1.90751038E+02
  0
VERTEX
  8
0
 62
4
 10
-8.86895112E+01
 20
1.90792457E+02
  0
VERTEX
  8
0
 62
4
 10
-8.89003412E+01
 20
1.90830748E+02
  0
VERTEX
  8
0
 62
4
 10
-8.91300889E+01
 20
1.90865603E+02
  0
VERTEX
  8
0
 62
4
 10
-8.93769044E+01
 20
1.90896742E+02
  0
VERTEX
  8
0
 62
4
 10
-8.96388007E+01
 20
1.90923914E+02
  0
VERTEX
  8
0
 62
4
 10
-8.99136691E+01
 20
1.90946900E+02
  0
VERTEX
  8
0
 62
4
 10
-9.01992964E+01
 20
1.90965514E+02
  0
VERTEX
  8
0
 62
4
 10
-9.04933830E+01
 20
1.90979608E+02
  0
VERTEX
  8
0
 62
4
 10
-9.07935611E+01
 20
1.90989068E+02
  0
VERTEX
  8
0
 62
4
 10
-9.10974138E+01
 20
1.90993816E+02
  0
VERTEX
  8
0
 62
4
 10
-9.14024946E+01
 20
1.90993816E+02
  0
VERTEX
  8
0
 62
4
 10
-9.17063473E+01
 20
1.90989068E+02
  0
VERTEX
  8
0
 62
4
 10
-9.20065254E+01
 20
1.90979608E+02
  0
VERTEX
  8
0
 62
4
 10
-9.23006120E+01
 20
1.90965514E+02
  0
VERTEX
  8
0
 62
4
 10
-9.25862393E+01
 20
1.90946900E+02
  0
VERTEX
  8
0
 62
4
 10
-9.28611076E+01
 20
1.90923914E+02
  0
VERTEX
  8
0
 62
4
 10
-9.31230039E+01
 20
1.90896742E+02
  0
VERTEX
  8
0
 62
4
 10
-9.33698195E+01
 20
1.90865603E+02
  0
VERTEX
  8
0
 62
4
 10
-9.35995672E+01
 20
1.90830748E+02
  0
VERTEX
  8
0
 62
4
 10
-9.38103972E+01
 20
1.90792457E+02
  0
VERTEX
  8
0
 62
4
 10
-9.40006120E+01
 20
1.90751038E+02
  0
VERTEX
  8
0
 62
4
 10
-9.41686801E+01
 20
1.90706825E+02
  0
VERTEX
  8
0
 62
4
 10
-9.43132483E+01
 20
1.90660174E+02
  0
VERTEX
  8
0
 62
4
 10
-9.44331528E+01
 20
1.90611460E+02
  0
VERTEX
  8
0
 62
4
 10
-9.45274279E+01
 20
1.90561076E+02
  0
VERTEX
  8
0
 62
4
 10
-9.45953148E+01
 20
1.90509428E+02
  0
VERTEX
  8
0
 62
4
 10
-9.46362668E+01
 20
1.90456930E+02
  0
VERTEX
  8
0
 62
4
 10
-9.46499542E+01
 20
1.90404007E+02
  0
SEQEND
  8
0
  0
ARC
  8
0
 62
4
 10
-9.12499542E+01
 20
1.99670468E+02
 40
1.18100000E+01
 50
2.57172490E+02
 51
2.82827510E+02
  0
ARC
  8
0
 62
4
 10
-8.88499539E+01
 20
1.89130255E+02
 40
1.00000000E+00
 50
2.82827510E+02
 51
5.08888749E-14
  0
ARC
  8
0
 62
4
 10
-9.36499545E+01
 20
1.89130255E+02
 40
1.00000000E+00
 50
1.80000000E+02
 51
2.57172490E+02
  0
ARC
  8
0
 62
4
 10
-9.33717078E+01
 20
2.00389611E+02
 40
1.25306621E+01
 50
2.74968660E+02
 51
2.88083352E+02
  0
ARC
  8
0
 62
4
 10
-8.91282006E+01
 20
2.00389612E+02
 40
1.25306626E+01
 50
2.51916648E+02
 51
2.65031340E+02
  0
LINE
  8
0
  6
CENTER
 62
6
 10
-1.01249954E+02
 20
1.90781046E+02
 11
-9.62499542E+01
 21
1.90781046E+02
  0
LINE
  8
0
  6
CENTER
 62
6
 10
-9.12499542E+01
 20
1.93888815E+02
 11
-9.12499542E+01
 21
1.88888815E+02
  0
LINE
  8
0
  6
CENTER
 62
6
 10
-9.37499542E+01
 20
1.91388815E+02
 11
-8.87499542E+01
 21
1.91388815E+02
  0
LINE
  8
0
  6
CENTER
 62
6
 10
-1.06249954E+02
 20
1.93888815E+02
 11
-1.06249954E+02
 21
1.88888815E+02
  0
LINE
  8
0
  6
CENTER
 62
6
 10
-1.08749954E+02
 20
1.91388815E+02
 11
-1.03749954E+02
 21
1.91388815E+02
  0
LINE
  8
0
 62
4
 10
-8.74568436E+01
 20
1.90364291E+02
 11
-8.37499542E+01
 21
1.90364291E+02
  0
LINE
  8
0
 62
7
 10
-8.37499542E+01
 20
2.09519459E+02
 11
-1.82500458E+01
 21
2.09519459E+02
  0
LINE
  8
0
 62
7
 10
-8.37499542E+01
 20
2.10369449E+02
 11
-1.82500458E+01
 21
2.10369449E+02
  0
LINE
  8
0
 62
7
 10
-8.37499542E+01
 20
2.04219471E+02
 11
-1.82500458E+01
 21
2.04219471E+02
  0
LINE
  8
0
 62
7
 10
-3.97500458E+01
 20
1.72519459E+02
 11
-1.82500458E+01
 21
1.72519459E+02
  0
LINE
  8
0
 62
7
 10
-3.97500458E+01
 20
1.67219471E+02
 11
-1.82500458E+01
 21
1.67219471E+02
  0
LINE
  8
0
 62
7
 10
-3.97500458E+01
 20
1.66369480E+02
 11
-1.82500458E+01
 21
1.66369480E+02
  0
LINE
  8
0
 62
6
 10
-1.10464944E+02
 20
-2.03377284E+02
 11
-1.07035074E+02
 21
-1.99947409E+02
  0
LINE
  8
0
 62
6
 10
-1.07035072E+02
 20
-2.03377282E+02
 11
-1.10464946E+02
 21
-1.99947412E+02
  0
POLYLINE
  8
0
 62
4
 66
1
  0
VERTEX
  8
0
 62
4
 10
-1.12750009E+02
 20
-2.02021491E+02
  0
VERTEX
  8
0
 62
4
 10
-1.12734793E+02
 20
-2.02362496E+02
  0
VERTEX
  8
0
 62
4
 10
-1.12689251E+02
 20
-2.02700906E+02
  0
VERTEX
  8
0
 62
4
 10
-1.12613728E+02
 20
-2.03034146E+02
  0
VERTEX
  8
0
 62
4
 10
-1.12508801E+02
 20
-2.03359679E+02
  0
VERTEX
  8
0
 62
4
 10
-1.12375266E+02
 20
-2.03675029E+02
  0
VERTEX
  8
0
 62
4
 10
-1.12214142E+02
 20
-2.03977794E+02
  0
VERTEX
  8
0
 62
4
 10
-1.12026653E+02
 20
-2.04265672E+02
  0
VERTEX
  8
0
 62
4
 10
-1.11814227E+02
 20
-2.04536470E+02
  0
VERTEX
  8
0
 62
4
 10
-1.11578480E+02
 20
-2.04788128E+02
  0
VERTEX
  8
0
 62
4
 10
-1.11321207E+02
 20
-2.05018731E+02
  0
VERTEX
  8
0
 62
4
 10
-1.11044365E+02
 20
-2.05226524E+02
  0
VERTEX
  8
0
 62
4
 10
-1.10750063E+02
 20
-2.05409925E+02
  0
VERTEX
  8
0
 62
4
 10
-1.10440538E+02
 20
-2.05567538E+02
  0
VERTEX
  8
0
 62
4
 10
-1.10118148E+02
 20
-2.05698165E+02
  0
VERTEX
  8
0
 62
4
 10
-1.09785345E+02
 20
-2.05800810E+02
  0
VERTEX
  8
0
 62
4
 10
-1.09444663E+02
 20
-2.05874692E+02
  0
VERTEX
  8
0
 62
4
 10
-1.09098694E+02
 20
-2.05919250E+02
  0
VERTEX
  8
0
 62
4
 10
-1.08750071E+02
 20
-2.05934144E+02
  0
VERTEX
  8
0
 62
4
 10
-1.08401448E+02
 20
-2.05919261E+02
  0
VERTEX
  8
0
 62
4
 10
-1.08055477E+02
 20
-2.05874714E+02
  0
VERTEX
  8
0
 62
4
 10
-1.07714793E+02
 20
-2.05800842E+02
  0
VERTEX
  8
0
 62
4
 10
-1.07381987E+02
 20
-2.05698208E+02
  0
VERTEX
  8
0
 62
4
 10
-1.07059592E+02
 20
-2.05567592E+02
  0
VERTEX
  8
0
 62
4
 10
-1.06750063E+02
 20
-2.05409988E+02
  0
VERTEX
  8
0
 62
4
 10
-1.06455754E+02
 20
-2.05226597E+02
  0
VERTEX
  8
0
 62
4
 10
-1.06178906E+02
 20
-2.05018813E+02
  0
VERTEX
  8
0
 62
4
 10
-1.05921626E+02
 20
-2.04788218E+02
  0
VERTEX
  8
0
 62
4
 10
-1.05685871E+02
 20
-2.04536567E+02
  0
VERTEX
  8
0
 62
4
 10
-1.05473436E+02
 20
-2.04265775E+02
  0
VERTEX
  8
0
 62
4
 10
-1.05285938E+02
 20
-2.03977904E+02
  0
VERTEX
  8
0
 62
4
 10
-1.05124804E+02
 20
-2.03675143E+02
  0
VERTEX
  8
0
 62
4
 10
-1.04991260E+02
 20
-2.03359798E+02
  0
VERTEX
  8
0
 62
4
 10
-1.04886322E+02
 20
-2.03034268E+02
  0
VERTEX
  8
0
 62
4
 10
-1.04810789E+02
 20
-2.02701030E+02
  0
VERTEX
  8
0
 62
4
 10
-1.04765236E+02
 20
-2.02362622E+02
  0
VERTEX
  8
0
 62
4
 10
-1.04750009E+02
 20
-2.02021617E+02
  0
VERTEX
  8
0
 62
4
 10
-1.04765225E+02
 20
-2.01680612E+02
  0
VERTEX
  8
0
 62
4
 10
-1.04810767E+02
 20
-2.01342202E+02
  0
VERTEX
  8
0
 62
4
 10
-1.04886290E+02
 20
-2.01008962E+02
  0
VERTEX
  8
0
 62
4
 10
-1.04991217E+02
 20
-2.00683429E+02
  0
VERTEX
  8
0
 62
4
 10
-1.05124752E+02
 20
-2.00368079E+02
  0
VERTEX
  8
0
 62
4
 10
-1.05285876E+02
 20
-2.00065314E+02
  0
VERTEX
  8
0
 62
4
 10
-1.05473365E+02
 20
-1.99777436E+02
  0
VERTEX
  8
0
 62
4
 10
-1.05685791E+02
 20
-1.99506638E+02
  0
VERTEX
  8
0
 62
4
 10
-1.05921538E+02
 20
-1.99254980E+02
  0
VERTEX
  8
0
 62
4
 10
-1.06178811E+02
 20
-1.99024377E+02
  0
VERTEX
  8
0
 62
4
 10
-1.06455653E+02
 20
-1.98816584E+02
  0
VERTEX
  8
0
 62
4
 10
-1.06749955E+02
 20
-1.98633183E+02
  0
VERTEX
  8
0
 62
4
 10
-1.07059480E+02
 20
-1.98475570E+02
  0
VERTEX
  8
0
 62
4
 10
-1.07381870E+02
 20
-1.98344943E+02
  0
VERTEX
  8
0
 62
4
 10
-1.07714673E+02
 20
-1.98242298E+02
  0
VERTEX
  8
0
 62
4
 10
-1.08055355E+02
 20
-1.98168416E+02
  0
VERTEX
  8
0
 62
4
 10
-1.08401324E+02
 20
-1.98123858E+02
  0
VERTEX
  8
0
 62
4
 10
-1.08749947E+02
 20
-1.98108964E+02
  0
VERTEX
  8
0
 62
4
 10
-1.09098570E+02
 20
-1.98123847E+02
  0
VERTEX
  8
0
 62
4
 10
-1.09444541E+02
 20
-1.98168394E+02
  0
VERTEX
  8
0
 62
4
 10
-1.09785225E+02
 20
-1.98242266E+02
  0
VERTEX
  8
0
 62
4
 10
-1.10118031E+02
 20
-1.98344900E+02
  0
VERTEX
  8
0
 62
4
 10
-1.10440426E+02
 20
-1.98475516E+02
  0
VERTEX
  8
0
 62
4
 10
-1.10749955E+02
 20
-1.98633120E+02
  0
VERTEX
  8
0
 62
4
 10
-1.11044264E+02
 20
-1.98816511E+02
  0
VERTEX
  8
0
 62
4
 10
-1.11321112E+02
 20
-1.99024295E+02
  0
VERTEX
  8
0
 62
4
 10
-1.11578392E+02
 20
-1.99254890E+02
  0
VERTEX
  8
0
 62
4
 10
-1.11814147E+02
 20
-1.99506541E+02
  0
VERTEX
  8
0
 62
4
 10
-1.12026582E+02
 20
-1.99777333E+02
  0
VERTEX
  8
0
 62
4
 10
-1.12214080E+02
 20
-2.00065204E+02
  0
VERTEX
  8
0
 62
4
 10
-1.12375214E+02
 20
-2.00367965E+02
  0
VERTEX
  8
0
 62
4
 10
-1.12508758E+02
 20
-2.00683310E+02
  0
VERTEX
  8
0
 62
4
 10
-1.12613696E+02
 20
-2.01008840E+02
  0
VERTEX
  8
0
 62
4
 10
-1.12689229E+02
 20
-2.01342078E+02
  0
VERTEX
  8
0
 62
4
 10
-1.12734782E+02
 20
-2.01680486E+02
  0
VERTEX
  8
0
 62
4
 10
-1.12750009E+02
 20
-2.02021491E+02
  0
SEQEND
  8
0
  0
POLYLINE
  8
0
 62
4
 66
1
  0
VERTEX
  8
0
 62
4
 10
-1.12148982E+02
 20
-2.01744636E+02
  0
VERTEX
  8
0
 62
4
 10
-1.12143038E+02
 20
-2.02056121E+02
  0
VERTEX
  8
0
 62
4
 10
-1.12110457E+02
 20
-2.02365839E+02
  0
VERTEX
  8
0
 62
4
 10
-1.12051494E+02
 20
-2.02671358E+02
  0
VERTEX
  8
0
 62
4
 10
-1.11966614E+02
 20
-2.02970281E+02
  0
VERTEX
  8
0
 62
4
 10
-1.11856481E+02
 20
-2.03260261E+02
  0
VERTEX
  8
0
 62
4
 10
-1.11721961E+02
 20
-2.03539021E+02
  0
VERTEX
  8
0
 62
4
 10
-1.11564109E+02
 20
-2.03804372E+02
  0
VERTEX
  8
0
 62
4
 10
-1.11384165E+02
 20
-2.04054232E+02
  0
VERTEX
  8
0
 62
4
 10
-1.11183541E+02
 20
-2.04286639E+02
  0
VERTEX
  8
0
 62
4
 10
-1.10963813E+02
 20
-2.04499769E+02
  0
VERTEX
  8
0
 62
4
 10
-1.10726705E+02
 20
-2.04691947E+02
  0
VERTEX
  8
0
 62
4
 10
-1.10474080E+02
 20
-2.04861667E+02
  0
VERTEX
  8
0
 62
4
 10
-1.10207919E+02
 20
-2.05007594E+02
  0
VERTEX
  8
0
 62
4
 10
-1.09930313E+02
 20
-2.05128584E+02
  0
VERTEX
  8
0
 62
4
 10
-1.09643441E+02
 20
-2.05223687E+02
  0
VERTEX
  8
0
 62
4
 10
-1.09349555E+02
 20
-2.05292156E+02
  0
VERTEX
  8
0
 62
4
 10
-1.09050962E+02
 20
-2.05333453E+02
  0
VERTEX
  8
0
 62
4
 10
-1.08750006E+02
 20
-2.05347255E+02
  0
VERTEX
  8
0
 62
4
 10
-1.08449051E+02
 20
-2.05333453E+02
  0
VERTEX
  8
0
 62
4
 10
-1.08150458E+02
 20
-2.05292156E+02
  0
VERTEX
  8
0
 62
4
 10
-1.07856572E+02
 20
-2.05223687E+02
  0
VERTEX
  8
0
 62
4
 10
-1.07569700E+02
 20
-2.05128584E+02
  0
VERTEX
  8
0
 62
4
 10
-1.07292095E+02
 20
-2.05007594E+02
  0
VERTEX
  8
0
 62
4
 10
-1.07025934E+02
 20
-2.04861667E+02
  0
VERTEX
  8
0
 62
4
 10
-1.06773308E+02
 20
-2.04691947E+02
  0
VERTEX
  8
0
 62
4
 10
-1.06536201E+02
 20
-2.04499769E+02
  0
VERTEX
  8
0
 62
4
 10
-1.06316473E+02
 20
-2.04286639E+02
  0
VERTEX
  8
0
 62
4
 10
-1.06115850E+02
 20
-2.04054232E+02
  0
VERTEX
  8
0
 62
4
 10
-1.05935906E+02
 20
-2.03804372E+02
  0
VERTEX
  8
0
 62
4
 10
-1.05778055E+02
 20
-2.03539021E+02
  0
VERTEX
  8
0
 62
4
 10
-1.05643535E+02
 20
-2.03260261E+02
  0
VERTEX
  8
0
 62
4
 10
-1.05533403E+02
 20
-2.02970281E+02
  0
VERTEX
  8
0
 62
4
 10
-1.05448522E+02
 20
-2.02671358E+02
  0
VERTEX
  8
0
 62
4
 10
-1.05389560E+02
 20
-2.02365839E+02
  0
VERTEX
  8
0
 62
4
 10
-1.05356980E+02
 20
-2.02056121E+02
  0
VERTEX
  8
0
 62
4
 10
-1.05351037E+02
 20
-2.01744636E+02
  0
SEQEND
  8
0
  0
POLYLINE
  8
0
 62
4
 66
1
  0
VERTEX
  8
0
 62
4
 10
-1.12150009E+02
 20
-2.01662270E+02
  0
VERTEX
  8
0
 62
4
 10
-1.12137078E+02
 20
-2.01954021E+02
  0
VERTEX
  8
0
 62
4
 10
-1.12098368E+02
 20
-2.02243551E+02
  0
VERTEX
  8
0
 62
4
 10
-1.12034176E+02
 20
-2.02528658E+02
  0
VERTEX
  8
0
 62
4
 10
-1.11944990E+02
 20
-2.02807172E+02
  0
VERTEX
  8
0
 62
4
 10
-1.11831487E+02
 20
-2.03076974E+02
  0
VERTEX
  8
0
 62
4
 10
-1.11694533E+02
 20
-2.03336009E+02
  0
VERTEX
  8
0
 62
4
 10
-1.11535169E+02
 20
-2.03582306E+02
  0
VERTEX
  8
0
 62
4
 10
-1.11354609E+02
 20
-2.03813992E+02
  0
VERTEX
  8
0
 62
4
 10
-1.11154225E+02
 20
-2.04029302E+02
  0
VERTEX
  8
0
 62
4
 10
-1.10935545E+02
 20
-2.04226598E+02
  0
VERTEX
  8
0
 62
4
 10
-1.10700231E+02
 20
-2.04404379E+02
  0
VERTEX
  8
0
 62
4
 10
-1.10450074E+02
 20
-2.04561291E+02
  0
VERTEX
  8
0
 62
4
 10
-1.10186980E+02
 20
-2.04696140E+02
  0
VERTEX
  8
0
 62
4
 10
-1.09912948E+02
 20
-2.04807901E+02
  0
VERTEX
  8
0
 62
4
 10
-1.09630067E+02
 20
-2.04895721E+02
  0
VERTEX
  8
0
 62
4
 10
-1.09340487E+02
 20
-2.04958934E+02
  0
VERTEX
  8
0
 62
4
 10
-1.09046414E+02
 20
-2.04997058E+02
  0
VERTEX
  8
0
 62
4
 10
-1.08750085E+02
 20
-2.05009803E+02
  0
VERTEX
  8
0
 62
4
 10
-1.08453755E+02
 20
-2.04997072E+02
  0
VERTEX
  8
0
 62
4
 10
-1.08159680E+02
 20
-2.04958961E+02
  0
VERTEX
  8
0
 62
4
 10
-1.07870097E+02
 20
-2.04895761E+02
  0
VERTEX
  8
0
 62
4
 10
-1.07587212E+02
 20
-2.04807953E+02
  0
VERTEX
  8
0
 62
4
 10
-1.07313175E+02
 20
-2.04696205E+02
  0
VERTEX
  8
0
 62
4
 10
-1.07050074E+02
 20
-2.04561367E+02
  0
VERTEX
  8
0
 62
4
 10
-1.06799911E+02
 20
-2.04404467E+02
  0
VERTEX
  8
0
 62
4
 10
-1.06564589E+02
 20
-2.04226696E+02
  0
VERTEX
  8
0
 62
4
 10
-1.06345899E+02
 20
-2.04029410E+02
  0
VERTEX
  8
0
 62
4
 10
-1.06145506E+02
 20
-2.03814109E+02
  0
VERTEX
  8
0
 62
4
 10
-1.05964935E+02
 20
-2.03582432E+02
  0
VERTEX
  8
0
 62
4
 10
-1.05805560E+02
 20
-2.03336142E+02
  0
VERTEX
  8
0
 62
4
 10
-1.05668594E+02
 20
-2.03077113E+02
  0
VERTEX
  8
0
 62
4
 10
-1.05555080E+02
 20
-2.02807317E+02
  0
VERTEX
  8
0
 62
4
 10
-1.05465881E+02
 20
-2.02528807E+02
  0
VERTEX
  8
0
 62
4
 10
-1.05401676E+02
 20
-2.02243702E+02
  0
VERTEX
  8
0
 62
4
 10
-1.05362954E+02
 20
-2.01954173E+02
  0
VERTEX
  8
0
 62
4
 10
-1.05350009E+02
 20
-2.01662424E+02
  0
VERTEX
  8
0
 62
4
 10
-1.05362940E+02
 20
-2.01370673E+02
  0
VERTEX
  8
0
 62
4
 10
-1.05401650E+02
 20
-2.01081143E+02
  0
VERTEX
  8
0
 62
4
 10
-1.05465842E+02
 20
-2.00796036E+02
  0
VERTEX
  8
0
 62
4
 10
-1.05555028E+02
 20
-2.00517522E+02
  0
VERTEX
  8
0
 62
4
 10
-1.05668531E+02
 20
-2.00247720E+02
  0
VERTEX
  8
0
 62
4
 10
-1.05805485E+02
 20
-1.99988685E+02
  0
VERTEX
  8
0
 62
4
 10
-1.05964849E+02
 20
-1.99742388E+02
  0
VERTEX
  8
0
 62
4
 10
-1.06145409E+02
 20
-1.99510702E+02
  0
VERTEX
  8
0
 62
4
 10
-1.06345793E+02
 20
-1.99295392E+02
  0
VERTEX
  8
0
 62
4
 10
-1.06564473E+02
 20
-1.99098096E+02
  0
VERTEX
  8
0
 62
4
 10
-1.06799787E+02
 20
-1.98920315E+02
  0
VERTEX
  8
0
 62
4
 10
-1.07049944E+02
 20
-1.98763403E+02
  0
VERTEX
  8
0
 62
4
 10
-1.07313038E+02
 20
-1.98628554E+02
  0
VERTEX
  8
0
 62
4
 10
-1.07587070E+02
 20
-1.98516793E+02
  0
VERTEX
  8
0
 62
4
 10
-1.07869951E+02
 20
-1.98428973E+02
  0
VERTEX
  8
0
 62
4
 10
-1.08159531E+02
 20
-1.98365760E+02
  0
VERTEX
  8
0
 62
4
 10
-1.08453604E+02
 20
-1.98327636E+02
  0
VERTEX
  8
0
 62
4
 10
-1.08749933E+02
 20
-1.98314891E+02
  0
VERTEX
  8
0
 62
4
 10
-1.09046263E+02
 20
-1.98327622E+02
  0
VERTEX
  8
0
 62
4
 10
-1.09340338E+02
 20
-1.98365733E+02
  0
VERTEX
  8
0
 62
4
 10
-1.09629921E+02
 20
-1.98428933E+02
  0
VERTEX
  8
0
 62
4
 10
-1.09912806E+02
 20
-1.98516741E+02
  0
VERTEX
  8
0
 62
4
 10
-1.10186843E+02
 20
-1.98628489E+02
  0
VERTEX
  8
0
 62
4
 10
-1.10449944E+02
 20
-1.98763327E+02
  0
VERTEX
  8
0
 62
4
 10
-1.10700107E+02
 20
-1.98920227E+02
  0
VERTEX
  8
0
 62
4
 10
-1.10935429E+02
 20
-1.99097998E+02
  0
VERTEX
  8
0
 62
4
 10
-1.11154119E+02
 20
-1.99295284E+02
  0
VERTEX
  8
0
 62
4
 10
-1.11354512E+02
 20
-1.99510585E+02
  0
VERTEX
  8
0
 62
4
 10
-1.11535083E+02
 20
-1.99742262E+02
  0
VERTEX
  8
0
 62
4
 10
-1.11694458E+02
 20
-1.99988552E+02
  0
VERTEX
  8
0
 62
4
 10
-1.11831424E+02
 20
-2.00247581E+02
  0
VERTEX
  8
0
 62
4
 10
-1.11944938E+02
 20
-2.00517377E+02
  0
VERTEX
  8
0
 62
4
 10
-1.12034137E+02
 20
-2.00795887E+02
  0
VERTEX
  8
0
 62
4
 10
-1.12098342E+02
 20
-2.01080992E+02
  0
VERTEX
  8
0
 62
4
 10
-1.12137064E+02
 20
-2.01370521E+02
  0
VERTEX
  8
0
 62
4
 10
-1.12150009E+02
 20
-2.01662270E+02
  0
SEQEND
  8
0
  0
LINE
  8
0
 62
4
 10
-1.17749996E+02
 20
-2.17740352E+02
 11
-8.43747179E+01
 21
-2.17740329E+02
  0
LINE
  8
0
 62
4
 10
-1.17749996E+02
 20
-2.16804750E+02
 11
-8.43747179E+01
 21
-2.16804726E+02
  0
LINE
  8
0
 62
4
 10
-1.17749996E+02
 20
-2.14933545E+02
 11
-8.43747179E+01
 21
-2.14933521E+02
  0
LINE
  8
0
 62
4
 10
-1.17749996E+02
 20
-2.13997942E+02
 11
-8.43747179E+01
 21
-2.13997918E+02
  0
LINE
  8
0
 62
4
 10
-8.43747179E+01
 20
-2.13997942E+02
 11
-8.17500035E+01
 21
-2.09461589E+02
  0
LINE
  8
0
 62
4
 10
-1.17749996E+02
 20
-2.13997942E+02
 11
-1.20750004E+02
 21
-2.09461617E+02
  0
LINE
  8
0
 62
4
 10
-8.43747179E+01
 20
-2.18557721E+02
 11
-8.43747179E+01
 21
-2.13997942E+02
  0
LINE
  8
0
 62
4
 10
-1.17749996E+02
 20
-2.18557721E+02
 11
-1.17749996E+02
 21
-2.13997942E+02
  0
LINE
  8
0
  6
CENTER
 62
6
 10
-1.08750005E+02
 20
-2.07801216E+02
 11
-1.08750014E+02
 21
-1.95001216E+02
  0
LINE
  8
0
  6
CENTER
 62
6
 10
-1.15150009E+02
 20
-2.01397512E+02
 11
-1.02350009E+02
 21
-2.01397503E+02
  0
LINE
  8
0
 62
4
 10
-1.16250030E+02
 20
-1.67358725E+02
 11
-1.01250030E+02
 21
-1.67358714E+02
  0
LINE
  8
0
 62
4
 10
-1.18250013E+02
 20
-1.91396605E+02
 11
-9.92500125E+01
 21
-1.91396591E+02
  0
LINE
  8
0
 62
4
 10
-1.20750013E+02
 20
-1.96754378E+02
 11
-1.20750004E+02
 21
-2.09461617E+02
  0
LINE
  8
0
 62
4
 10
-1.18250013E+02
 20
-1.91396591E+02
 11
-1.18250010E+02
 21
-1.95258075E+02
  0
LINE
  8
0
 62
4
 10
-1.01250030E+02
 20
-1.67358725E+02
 11
-1.01250013E+02
 21
-1.91396593E+02
  0
LINE
  8
0
 62
4
 10
-1.16250030E+02
 20
-1.67358725E+02
 11
-1.16250013E+02
 21
-1.91396603E+02
  0
LINE
  8
0
 62
4
 10
-9.92500125E+01
 20
-1.91396591E+02
 11
-9.92500097E+01
 21
-1.95258075E+02
  0
LINE
  8
0
 62
4
 10
-1.16250014E+02
 20
-1.90834267E+02
 11
-1.01250014E+02
 21
-1.90834256E+02
  0
LINE
  8
0
 62
4
 10
-8.17500126E+01
 20
-1.96754350E+02
 11
-8.17500035E+01
 21
-2.09461592E+02
  0
LINE
  8
0
 62
4
 10
-1.20750004E+02
 20
-2.09461617E+02
 11
-8.17500035E+01
 21
-2.09461589E+02
  0
LINE
  8
0
 62
4
 10
-1.20750005E+02
 20
-2.07994395E+02
 11
-8.17500046E+01
 21
-2.07994367E+02
  0
LINE
  8
0
 62
4
 10
-1.19250010E+02
 20
-1.95254377E+02
 11
-8.32500096E+01
 21
-1.95254351E+02
  0
LINE
  8
0
 62
4
 10
-1.35750031E+02
 20
-1.67454549E+02
 11
-1.30750031E+02
 21
-1.67454545E+02
  0
LINE
  8
0
 62
4
 10
-1.35750031E+02
 20
-1.69771177E+02
 11
-1.30750031E+02
 21
-1.69771173E+02
  0
LINE
  8
0
 62
4
 10
-1.35750023E+02
 20
-1.77117065E+02
 11
-1.30750023E+02
 21
-1.77117061E+02
  0
LINE
  8
0
 62
4
 10
-1.35750021E+02
 20
-1.82136548E+02
 11
-1.30750021E+02
 21
-1.82136545E+02
  0
LINE
  8
0
 62
4
 10
-1.25250015E+02
 20
-1.81789492E+02
 11
-1.16750015E+02
 21
-1.81789486E+02
  0
LINE
  8
0
 62
4
 10
-1.16250025E+02
 20
-1.67789485E+02
 11
-1.25250025E+02
 21
-1.67789492E+02
  0
LINE
  8
0
 62
4
 10
-1.25750025E+02
 20
-1.68289492E+02
 11
-1.25750015E+02
 21
-1.81289492E+02
  0
LINE
  8
0
 62
4
 10
-1.35750031E+02
 20
-1.67454549E+02
 11
-1.35750021E+02
 21
-1.82136548E+02
  0
LINE
  8
0
 62
4
 10
-1.30750031E+02
 20
-1.67454545E+02
 11
-1.30750021E+02
 21
-1.82136545E+02
  0
LINE
  8
0
 62
4
 10
-1.30750025E+02
 20
-1.68535781E+02
 11
-1.25750025E+02
 21
-1.68535777E+02
  0
LINE
  8
0
 62
4
 10
-1.30750016E+02
 20
-1.81035781E+02
 11
-1.25750016E+02
 21
-1.81035777E+02
  0
LINE
  8
0
 62
4
 10
-1.29250025E+02
 20
-1.68535780E+02
 11
-1.29250016E+02
 21
-1.81035780E+02
  0
LINE
  8
0
 62
4
 10
-1.29250024E+02
 20
-1.69035780E+02
 11
-1.25750024E+02
 21
-1.69035777E+02
  0
LINE
  8
0
 62
4
 10
-1.29250016E+02
 20
-1.80535780E+02
 11
-1.25750016E+02
 21
-1.80535777E+02
  0
ARC
  8
0
 62
4
 10
-1.25250517E+02
 20
-1.68289000E+02
 40
4.99508251E-01
 50
8.99436074E+01
 51
1.80056475E+02
  0
ARC
  8
0
 62
4
 10
-1.16749507E+02
 20
-1.82288978E+02
 40
4.99492993E-01
 50
3.59941854E+02
 51
9.00582282E+01
  0
ARC
  8
0
 62
4
 10
-8.32495011E+01
 20
-1.96753844E+02
 40
1.49949266E+00
 50
3.59980652E+02
 51
9.00194298E+01
  0
ARC
  8
0
 62
4
 10
-1.25249508E+02
 20
-1.81288984E+02
 40
5.00508007E-01
 50
1.80058166E+02
 51
2.69941916E+02
  0
ARC
  8
0
 62
4
 10
-1.19250501E+02
 20
-1.96753885E+02
 40
1.49950792E+00
 50
8.99812358E+01
 51
1.80018846E+02
  0
LINE
  8
0
 62
4
 10
-3.20633773E+02
 20
-2.20323396E+02
 11
-3.18750061E+02
 21
-2.29185564E+02
  0
ARC
  8
0
 62
4
 10
-3.02207928E+02
 20
-1.74785777E+02
 40
7.00000000E+00
 50
1.10107658E+02
 51
1.33018360E+02
  0
LINE
  8
0
 62
4
 10
-3.15389251E+02
 20
-2.04169416E+02
 11
-3.08540768E+02
 21
-2.02713726E+02
  0
LINE
  8
0
 62
4
 10
-3.07262592E+02
 20
-2.11131936E+02
 11
-3.06773519E+02
 21
-2.11027980E+02
  0
LINE
  8
0
 62
4
 10
-3.07647710E+02
 20
-2.11724966E+02
 11
-3.06833043E+02
 21
-2.15557675E+02
  0
LINE
  8
0
 62
4
 10
-3.15389251E+02
 20
-2.04169416E+02
 11
-3.20633773E+02
 21
-2.20323396E+02
  0
LINE
  8
0
 62
4
 10
-3.10792278E+02
 20
-1.70477400E+02
 11
-3.06009136E+02
 21
-1.69460712E+02
  0
LINE
  8
0
 62
4
 10
-2.96120064E+02
 20
-1.67358725E+02
 11
-2.90922272E+02
 21
-1.91812415E+02
  0
LINE
  8
0
 62
4
 10
-3.10792278E+02
 20
-1.70477400E+02
 11
-3.05594486E+02
 21
-1.94931090E+02
  0
LINE
  8
0
 62
4
 10
-3.07550781E+02
 20
-1.95346913E+02
 11
-2.88965976E+02
 21
-1.91396591E+02
  0
LINE
  8
0
 62
4
 10
-3.05802397E+02
 20
-1.93952942E+02
 11
-2.91130183E+02
 21
-1.90834267E+02
  0
LINE
  8
0
 62
4
 10
-2.88965976E+02
 20
-1.91396591E+02
 11
-2.88134330E+02
 21
-1.95309182E+02
  0
LINE
  8
0
 62
4
 10
-3.07550781E+02
 20
-1.95346913E+02
 11
-3.06719134E+02
 21
-1.99259504E+02
  0
LINE
  8
0
 62
4
 10
-3.06719134E+02
 20
-1.99259504E+02
 11
-2.88134330E+02
 21
-1.95309182E+02
  0
LINE
  8
0
 62
4
 10
-3.06045828E+02
 20
-2.14451497E+02
 11
-2.82570285E+02
 21
-2.09461617E+02
  0
LINE
  8
0
 62
4
 10
-2.85169181E+02
 20
-1.97234771E+02
 11
-2.82570285E+02
 21
-2.09461617E+02
  0
LINE
  8
0
 62
4
 10
-3.08644724E+02
 20
-2.02224652E+02
 11
-3.06045828E+02
 21
-2.14451497E+02
  0
LINE
  8
0
 62
4
 10
-3.06045828E+02
 20
-2.14451497E+02
 11
-3.04779136E+02
 21
-2.15557675E+02
  0
LINE
  8
0
 62
4
 10
-2.82570285E+02
 20
-2.09461617E+02
 11
-2.84673081E+02
 21
-2.13997942E+02
  0
LINE
  8
0
 62
4
 10
-2.89074746E+02
 20
-2.14933545E+02
 11
-2.84673081E+02
 21
-2.13997942E+02
  0
LINE
  8
0
 62
4
 10
-3.06357695E+02
 20
-2.12984276E+02
 11
-2.82882153E+02
 21
-2.07994395E+02
  0
LINE
  8
0
 62
4
 10
-2.97719734E+02
 20
-2.05525347E+02
 11
-2.93807143E+02
 21
-2.04693700E+02
  0
LINE
  8
0
 62
4
 10
-2.97199954E+02
 20
-2.07970716E+02
 11
-2.93287364E+02
 21
-2.07139069E+02
  0
LINE
  8
0
 62
4
 10
-2.97719734E+02
 20
-2.05525347E+02
 11
-2.97199954E+02
 21
-2.07970716E+02
  0
LINE
  8
0
 62
4
 10
-2.93807143E+02
 20
-2.04693700E+02
 11
-2.93287364E+02
 21
-2.07139069E+02
  0
LINE
  8
0
 62
4
 10
-3.00647284E+02
 20
-1.82132836E+02
 11
-2.95068993E+02
 21
-1.77113357E+02
  0
LINE
  8
0
 62
4
 10
-3.09346329E+02
 20
-1.72470320E+02
 11
-3.03768038E+02
 21
-1.67450841E+02
  0
LINE
  8
0
 62
4
 10
-3.09346329E+02
 20
-1.72470320E+02
 11
-3.07784912E+02
 21
-1.79816209E+02
  0
LINE
  8
0
 62
4
 10
-2.96630410E+02
 20
-1.69767468E+02
 11
-2.95068993E+02
 21
-1.77113357E+02
  0
LINE
  8
0
 62
4
 10
-3.07784912E+02
 20
-1.79816209E+02
 11
-3.00647284E+02
 21
-1.82132836E+02
  0
LINE
  8
0
 62
4
 10
-3.03768038E+02
 20
-1.67450841E+02
 11
-2.96630410E+02
 21
-1.69767468E+02
  0
LINE
  8
0
 62
4
 10
-3.00912987E+02
 20
-1.68377492E+02
 11
-2.96120064E+02
 21
-1.67358725E+02
  0
LINE
  8
0
 62
4
 10
-2.84961270E+02
 20
-1.98212919E+02
 11
-2.84472196E+02
 21
-1.98108963E+02
  0
LINE
  8
0
 62
4
 10
-2.83297976E+02
 20
-2.06038100E+02
 11
-2.82808902E+02
 21
-2.05934144E+02
  0
LINE
  8
0
 62
4
 10
-2.84347449E+02
 20
-1.98695852E+02
 11
-2.82655254E+02
 21
-1.98336165E+02
  0
LINE
  8
0
 62
4
 10
-2.81241454E+02
 20
-2.04987568E+02
 11
-2.82933649E+02
 21
-2.05347255E+02
  0
LINE
  8
0
  6
CENTER
 62
6
 10
-3.14872802E+02
 20
-2.08660174E+02
 11
-2.77771664E+02
 21
-2.00774084E+02
  0
LINE
  8
0
 62
4
 10
-2.84472196E+02
 20
-1.98108963E+02
 11
-2.82808902E+02
 21
-2.05934144E+02
  0
ARC
  8
0
 62
4
 10
-3.07158636E+02
 20
-2.11621011E+02
 40
5.00000533E-01
 50
1.02000061E+02
 51
1.91999939E+02
  0
ARC
  8
0
 62
4
 10
-2.92258795E+02
 20
-2.03831622E+02
 40
1.18077645E+01
 50
3.59024145E+02
 51
2.47266957E+01
  0
ARC
  8
0
 62
4
 10
-3.06199333E+02
 20
-2.01704887E+02
 40
2.50001831E+00
 50
1.02000420E+02
 51
1.91999580E+02
  0
ARC
  8
0
 62
4
 10
-2.87613792E+02
 20
-1.97753383E+02
 40
2.49901570E+00
 50
1.19774281E+01
 51
1.02022572E+02
  0
ARC
  8
0
 62
4
 10
-2.91475464E+02
 20
-2.25282857E+02
 40
1.06241099E+01
 50
7.69401406E+01
 51
1.13739125E+02
  0
CIRCLE
  8
0
 62
4
 10
-3.02207928E+02
 20
-1.74785777E+02
 40
3.75000000E+00
  0
ARC
  8
0
 62
4
 10
-2.81450995E+02
 20
-2.04011322E+02
 40
9.98481423E-01
 50
2.82114125E+02
 51
3.58771982E+02
  0
ARC
  8
0
 62
4
 10
-2.82450486E+02
 20
-1.99311003E+02
 40
9.96112687E-01
 50
2.45301420E+01
 51
1.01862685E+02
  0
ARC
  8
0
 62
4
 10
-3.02207928E+02
 20
-1.74785777E+02
 40
7.00000000E+00
 50
7.09816396E+01
 51
9.39142840E+01
  0
LINE
  8
0
  6
CENTER
 62
6
 10
-3.22852040E+02
 20
-2.26192269E+02
 11
-3.18750061E+02
 21
-2.25320367E+02
  0
LINE
  8
0
 62
6
 10
-3.21334463E+02
 20
-2.27403209E+02
 11
-3.19224252E+02
 21
-2.26954670E+02
  0
LINE
  8
0
 62
4
 10
-3.21081927E+02
 20
-2.23781562E+02
 11
-3.19949864E+02
 21
-2.23540935E+02
  0
LINE
  8
0
 62
4
 10
-3.20252360E+02
 20
-2.27684371E+02
 11
-3.19120296E+02
 21
-2.27443744E+02
  0
LINE
  8
0
 62
4
 10
-3.22006018E+02
 20
-2.24243792E+02
 11
-3.21284564E+02
 21
-2.27637965E+02
  0
LINE
  8
0
 62
4
 10
-3.21081927E+02
 20
-2.23781562E+02
 11
-3.22006018E+02
 21
-2.24243792E+02
  0
LINE
  8
0
 62
4
 10
-3.20252360E+02
 20
-2.27684371E+02
 11
-3.21284564E+02
 21
-2.27637965E+02
  0
LINE
  8
0
 62
6
 10
-3.21958198E+02
 20
-2.24468766E+02
 11
-3.19847987E+02
 21
-2.24020227E+02
  0
LINE
  8
0
 62
4
 10
5.21337730E+01
 20
-2.20323396E+02
 11
5.19776906E+01
 21
-2.21057706E+02
  0
LINE
  8
0
 62
4
 10
3.87625925E+01
 20
-2.11131936E+02
 11
3.82735187E+01
 21
-2.11027980E+02
  0
ARC
  8
0
 62
4
 10
3.86586360E+01
 20
-2.11621011E+02
 40
5.00000533E-01
 50
3.48000061E+02
 51
7.79999389E+01
  0
LINE
  8
0
 62
4
 10
3.75458278E+01
 20
-2.14451497E+02
 11
3.62791362E+01
 21
-2.15557675E+02
  0
LINE
  8
0
 62
4
 10
3.91477104E+01
 20
-2.11724966E+02
 11
3.83330430E+01
 21
-2.15557675E+02
  0
ARC
  8
0
 62
4
 10
2.29754640E+01
 20
-2.25282857E+02
 40
1.06241099E+01
 50
6.62608748E+01
 51
1.03059860E+02
  0
LINE
  8
0
 62
4
 10
1.40702853E+01
 20
-2.09461617E+02
 11
1.61730814E+01
 21
-2.13997942E+02
  0
LINE
  8
0
 62
4
 10
3.78576953E+01
 20
-2.12984276E+02
 11
1.43821529E+01
 21
-2.07994395E+02
  0
LINE
  8
0
 62
4
 10
2.05747456E+01
 20
-2.14933545E+02
 11
1.61730814E+01
 21
-2.13997942E+02
  0
LINE
  8
0
 62
4
 10
3.75458278E+01
 20
-2.14451497E+02
 11
1.40702853E+01
 21
-2.09461617E+02
  0
ARC
  8
0
 62
4
 10
3.37088734E+01
 20
-1.74785832E+02
 40
7.00000000E+00
 50
4.69793705E+01
 51
1.09020630E+02
  0
LINE
  8
0
 62
4
 10
4.68892514E+01
 20
-2.04169416E+02
 11
4.00407680E+01
 21
-2.02713726E+02
  0
LINE
  8
0
 62
4
 10
2.76200639E+01
 20
-1.67358725E+02
 11
4.22922779E+01
 21
-1.70477400E+02
  0
LINE
  8
0
 62
4
 10
2.76200639E+01
 20
-1.67358725E+02
 11
2.24222717E+01
 21
-1.91812415E+02
  0
LINE
  8
0
 62
4
 10
4.22922779E+01
 20
-1.70477400E+02
 11
3.70944857E+01
 21
-1.94931090E+02
  0
LINE
  8
0
 62
4
 10
3.90507809E+01
 20
-1.95346913E+02
 11
2.04659765E+01
 21
-1.91396591E+02
  0
LINE
  8
0
 62
4
 10
3.73023974E+01
 20
-1.93952942E+02
 11
2.26301834E+01
 21
-1.90834267E+02
  0
LINE
  8
0
 62
4
 10
2.04659765E+01
 20
-1.91396591E+02
 11
1.96343297E+01
 21
-1.95309182E+02
  0
LINE
  8
0
 62
4
 10
3.90507809E+01
 20
-1.95346913E+02
 11
3.82191341E+01
 21
-1.99259504E+02
  0
LINE
  8
0
 62
4
 10
3.82191341E+01
 20
-1.99259504E+02
 11
1.96343297E+01
 21
-1.95309182E+02
  0
LINE
  8
0
 62
4
 10
2.92197336E+01
 20
-2.05525347E+02
 11
2.53071432E+01
 21
-2.04693700E+02
  0
LINE
  8
0
 62
4
 10
2.53071432E+01
 20
-2.04693700E+02
 11
2.47873640E+01
 21
-2.07139069E+02
  0
LINE
  8
0
 62
4
 10
3.61138786E+01
 20
-1.68211948E+02
 11
3.52680385E+01
 21
-1.67450841E+02
  0
LINE
  8
0
 62
4
 10
3.52680385E+01
 20
-1.67450841E+02
 11
3.41858003E+01
 21
-1.67802098E+02
  0
LINE
  8
0
 62
4
 10
1.64612698E+01
 20
-1.98212919E+02
 11
1.59721960E+01
 21
-1.98108963E+02
  0
LINE
  8
0
 62
4
 10
1.47979763E+01
 20
-2.06038100E+02
 11
1.43089025E+01
 21
-2.05934144E+02
  0
LINE
  8
0
 62
4
 10
1.58474490E+01
 20
-1.98695852E+02
 11
1.41552536E+01
 21
-1.98336165E+02
  0
LINE
  8
0
 62
4
 10
1.27414541E+01
 20
-2.04987568E+02
 11
1.44336495E+01
 21
-2.05347255E+02
  0
LINE
  8
0
 62
4
 10
1.59721960E+01
 20
-1.98108963E+02
 11
1.43089025E+01
 21
-2.05934144E+02
  0
ARC
  8
0
 62
4
 10
2.37587949E+01
 20
-2.03831622E+02
 40
1.18077645E+01
 50
1.55273304E+02
 51
1.80975855E+02
  0
ARC
  8
0
 62
4
 10
3.76993332E+01
 20
-2.01704887E+02
 40
2.50001831E+00
 50
3.48000420E+02
 51
7.79995802E+01
  0
ARC
  8
0
 62
4
 10
1.91137922E+01
 20
-1.97753383E+02
 40
2.49901570E+00
 50
7.79774280E+01
 51
1.68022572E+02
  0
ARC
  8
0
 62
4
 10
1.29509950E+01
 20
-2.04011322E+02
 40
9.98481423E-01
 50
1.81228019E+02
 51
2.57885875E+02
  0
ARC
  8
0
 62
4
 10
1.39504859E+01
 20
-1.99311003E+02
 40
9.96112687E-01
 50
7.81373153E+01
 51
1.55469858E+02
  0
LINE
  8
0
 62
4
 10
3.22060274E+01
 20
-1.96959038E+02
 11
3.23502489E+01
 21
-1.98012034E+02
  0
LINE
  8
0
 62
4
 10
2.55032157E+01
 20
-1.96556652E+02
 11
2.60632605E+01
 21
-1.95653353E+02
  0
LINE
  8
0
  6
CENTER
 62
6
 10
2.94854446E+01
 20
-1.94655808E+02
 11
2.86169438E+01
 21
-1.98741783E+02
  0
LINE
  8
0
 62
4
 10
2.60632605E+01
 20
-1.95653353E+02
 11
3.22060274E+01
 21
-1.96959038E+02
  0
LINE
  8
0
  6
CENTER
 62
6
 10
4.63728021E+01
 20
-2.08660174E+02
 11
9.27166361E+00
 21
-2.00774084E+02
  0
LINE
  8
0
 62
4
 10
2.92197336E+01
 20
-2.05525347E+02
 11
2.86999544E+01
 21
-2.07970716E+02
  0
LINE
  8
0
 62
4
 10
2.86999544E+01
 20
-2.07970716E+02
 11
2.47873640E+01
 21
-2.07139069E+02
  0
LINE
  8
0
 62
4
 10
4.01447239E+01
 20
-2.02224652E+02
 11
3.75458278E+01
 21
-2.14451497E+02
  0
LINE
  8
0
 62
4
 10
1.66691815E+01
 20
-1.97234771E+02
 11
1.40702853E+01
 21
-2.09461617E+02
  0
LINE
  8
0
 62
4
 10
4.68892514E+01
 20
-2.04169416E+02
 11
5.21337730E+01
 21
-2.20323396E+02
  0
ARC
  8
0
 62
4
 10
-8.32495405E+01
 20
-1.12119245E+02
 40
1.49950029E+00
 50
2.69980903E+02
 51
1.90971113E-02
  0
ARC
  8
0
 62
4
 10
-1.19250544E+02
 20
-1.12119248E+02
 40
1.49949647E+00
 50
1.79980757E+02
 51
2.70019243E+02
  0
LINE
  8
0
 62
4
 10
-1.18250040E+02
 20
-1.11173376E+02
 11
-9.92500403E+01
 21
-1.11173376E+02
  0
POLYLINE
  8
0
 62
4
 66
1
  0
VERTEX
  8
0
 62
4
 10
-8.96100403E+01
 20
-1.01673062E+02
  0
VERTEX
  8
0
 62
4
 10
-8.96219889E+01
 20
-1.01405373E+02
  0
VERTEX
  8
0
 62
4
 10
-8.96577440E+01
 20
-1.01139722E+02
  0
VERTEX
  8
0
 62
4
 10
-8.97170332E+01
 20
-1.00878129E+02
  0
VERTEX
  8
0
 62
4
 10
-8.97994055E+01
 20
-1.00622587E+02
  0
VERTEX
  8
0
 62
4
 10
-8.99042338E+01
 20
-1.00375039E+02
  0
VERTEX
  8
0
 62
4
 10
-9.00307205E+01
 20
-1.00137370E+02
  0
VERTEX
  8
0
 62
4
 10
-9.01779029E+01
 20
-9.99113888E+01
  0
VERTEX
  8
0
 62
4
 10
-9.03446607E+01
 20
-9.96988148E+01
  0
VERTEX
  8
0
 62
4
 10
-9.05297250E+01
 20
-9.95012659E+01
  0
VERTEX
  8
0
 62
4
 10
-9.07316872E+01
 20
-9.93202458E+01
  0
VERTEX
  8
0
 62
4
 10
-9.09490103E+01
 20
-9.91571320E+01
  0
VERTEX
  8
0
 62
4
 10
-9.11800403E+01
 20
-9.90131659E+01
  0
VERTEX
  8
0
 62
4
 10
-9.14230190E+01
 20
-9.88894432E+01
  0
VERTEX
  8
0
 62
4
 10
-9.16760971E+01
 20
-9.87869056E+01
  0
VERTEX
  8
0
 62
4
 10
-9.19373485E+01
 20
-9.87063334E+01
  0
VERTEX
  8
0
 62
4
 10
-9.22047850E+01
 20
-9.86483397E+01
  0
VERTEX
  8
0
 62
4
 10
-9.24763713E+01
 20
-9.86133661E+01
  0
VERTEX
  8
0
 62
4
 10
-9.27500403E+01
 20
-9.86016785E+01
  0
VERTEX
  8
0
 62
4
 10
-9.30237093E+01
 20
-9.86133661E+01
  0
VERTEX
  8
0
 62
4
 10
-9.32952956E+01
 20
-9.86483397E+01
  0
VERTEX
  8
0
 62
4
 10
-9.35627321E+01
 20
-9.87063334E+01
  0
VERTEX
  8
0
 62
4
 10
-9.38239836E+01
 20
-9.87869056E+01
  0
VERTEX
  8
0
 62
4
 10
-9.40770616E+01
 20
-9.88894432E+01
  0
VERTEX
  8
0
 62
4
 10
-9.43200403E+01
 20
-9.90131659E+01
  0
VERTEX
  8
0
 62
4
 10
-9.45510703E+01
 20
-9.91571320E+01
  0
VERTEX
  8
0
 62
4
 10
-9.47683934E+01
 20
-9.93202458E+01
  0
VERTEX
  8
0
 62
4
 10
-9.49703556E+01
 20
-9.95012659E+01
  0
VERTEX
  8
0
 62
4
 10
-9.51554199E+01
 20
-9.96988148E+01
  0
VERTEX
  8
0
 62
4
 10
-9.53221777E+01
 20
-9.99113888E+01
  0
VERTEX
  8
0
 62
4
 10
-9.54693601E+01
 20
-1.00137370E+02
  0
VERTEX
  8
0
 62
4
 10
-9.55958468E+01
 20
-1.00375039E+02
  0
VERTEX
  8
0
 62
4
 10
-9.57006751E+01
 20
-1.00622587E+02
  0
VERTEX
  8
0
 62
4
 10
-9.57830474E+01
 20
-1.00878129E+02
  0
VERTEX
  8
0
 62
4
 10
-9.58423366E+01
 20
-1.01139722E+02
  0
VERTEX
  8
0
 62
4
 10
-9.58780917E+01
 20
-1.01405373E+02
  0
VERTEX
  8
0
 62
4
 10
-9.58900403E+01
 20
-1.01673062E+02
  0
VERTEX
  8
0
 62
4
 10
-9.58780917E+01
 20
-1.01940751E+02
  0
VERTEX
  8
0
 62
4
 10
-9.58423366E+01
 20
-1.02206402E+02
  0
VERTEX
  8
0
 62
4
 10
-9.57830474E+01
 20
-1.02467995E+02
  0
VERTEX
  8
0
 62
4
 10
-9.57006751E+01
 20
-1.02723537E+02
  0
VERTEX
  8
0
 62
4
 10
-9.55958467E+01
 20
-1.02971085E+02
  0
VERTEX
  8
0
 62
4
 10
-9.54693601E+01
 20
-1.03208754E+02
  0
VERTEX
  8
0
 62
4
 10
-9.53221777E+01
 20
-1.03434735E+02
  0
VERTEX
  8
0
 62
4
 10
-9.51554198E+01
 20
-1.03647309E+02
  0
VERTEX
  8
0
 62
4
 10
-9.49703556E+01
 20
-1.03844858E+02
  0
VERTEX
  8
0
 62
4
 10
-9.47683934E+01
 20
-1.04025878E+02
  0
VERTEX
  8
0
 62
4
 10
-9.45510703E+01
 20
-1.04188992E+02
  0
VERTEX
  8
0
 62
4
 10
-9.43200403E+01
 20
-1.04332958E+02
  0
VERTEX
  8
0
 62
4
 10
-9.40770616E+01
 20
-1.04456681E+02
  0
VERTEX
  8
0
 62
4
 10
-9.38239835E+01
 20
-1.04559218E+02
  0
VERTEX
  8
0
 62
4
 10
-9.35627321E+01
 20
-1.04639791E+02
  0
VERTEX
  8
0
 62
4
 10
-9.32952956E+01
 20
-1.04697784E+02
  0
VERTEX
  8
0
 62
4
 10
-9.30237093E+01
 20
-1.04732758E+02
  0
VERTEX
  8
0
 62
4
 10
-9.27500403E+01
 20
-1.04744445E+02
  0
VERTEX
  8
0
 62
4
 10
-9.24763713E+01
 20
-1.04732758E+02
  0
VERTEX
  8
0
 62
4
 10
-9.22047850E+01
 20
-1.04697784E+02
  0
VERTEX
  8
0
 62
4
 10
-9.19373485E+01
 20
-1.04639791E+02
  0
VERTEX
  8
0
 62
4
 10
-9.16760970E+01
 20
-1.04559218E+02
  0
VERTEX
  8
0
 62
4
 10
-9.14230190E+01
 20
-1.04456681E+02
  0
VERTEX
  8
0
 62
4
 10
-9.11800403E+01
 20
-1.04332958E+02
  0
VERTEX
  8
0
 62
4
 10
-9.09490103E+01
 20
-1.04188992E+02
  0
VERTEX
  8
0
 62
4
 10
-9.07316872E+01
 20
-1.04025878E+02
  0
VERTEX
  8
0
 62
4
 10
-9.05297250E+01
 20
-1.03844858E+02
  0
VERTEX
  8
0
 62
4
 10
-9.03446607E+01
 20
-1.03647309E+02
  0
VERTEX
  8
0
 62
4
 10
-9.01779029E+01
 20
-1.03434735E+02
  0
VERTEX
  8
0
 62
4
 10
-9.00307205E+01
 20
-1.03208754E+02
  0
VERTEX
  8
0
 62
4
 10
-8.99042338E+01
 20
-1.02971085E+02
  0
VERTEX
  8
0
 62
4
 10
-8.97994055E+01
 20
-1.02723537E+02
  0
VERTEX
  8
0
 62
4
 10
-8.97170332E+01
 20
-1.02467995E+02
  0
VERTEX
  8
0
 62
4
 10
-8.96577440E+01
 20
-1.02206402E+02
  0
VERTEX
  8
0
 62
4
 10
-8.96219889E+01
 20
-1.01940751E+02
  0
VERTEX
  8
0
 62
4
 10
-8.96100403E+01
 20
-1.01673062E+02
  0
SEQEND
  8
0
  0
POLYLINE
  8
0
 62
4
 66
1
  0
VERTEX
  8
0
 62
4
 10
-8.92500403E+01
 20
-1.01880973E+02
  0
VERTEX
  8
0
 62
4
 10
-8.92633589E+01
 20
-1.01582594E+02
  0
VERTEX
  8
0
 62
4
 10
-8.93032132E+01
 20
-1.01286486E+02
  0
VERTEX
  8
0
 62
4
 10
-8.93692999E+01
 20
-1.00994902E+02
  0
VERTEX
  8
0
 62
4
 10
-8.94611161E+01
 20
-1.00710061E+02
  0
VERTEX
  8
0
 62
4
 10
-8.95779630E+01
 20
-1.00434132E+02
  0
VERTEX
  8
0
 62
4
 10
-8.97189514E+01
 20
-1.00169215E+02
  0
VERTEX
  8
0
 62
4
 10
-8.98830081E+01
 20
-9.99173245E+01
  0
VERTEX
  8
0
 62
4
 10
-9.00688847E+01
 20
-9.96803789E+01
  0
VERTEX
  8
0
 62
4
 10
-9.02751666E+01
 20
-9.94601812E+01
  0
VERTEX
  8
0
 62
4
 10
-9.05002837E+01
 20
-9.92584071E+01
  0
VERTEX
  8
0
 62
4
 10
-9.07425228E+01
 20
-9.90765924E+01
  0
VERTEX
  8
0
 62
4
 10
-9.10000403E+01
 20
-9.89161207E+01
  0
VERTEX
  8
0
 62
4
 10
-9.12708764E+01
 20
-9.87782132E+01
  0
VERTEX
  8
0
 62
4
 10
-9.15529698E+01
 20
-9.86639197E+01
  0
VERTEX
  8
0
 62
4
 10
-9.18441736E+01
 20
-9.85741099E+01
  0
VERTEX
  8
0
 62
4
 10
-9.21422717E+01
 20
-9.85094673E+01
  0
VERTEX
  8
0
 62
4
 10
-9.24449952E+01
 20
-9.84704839E+01
  0
VERTEX
  8
0
 62
4
 10
-9.27500403E+01
 20
-9.84574564E+01
  0
VERTEX
  8
0
 62
4
 10
-9.30550854E+01
 20
-9.84704839E+01
  0
VERTEX
  8
0
 62
4
 10
-9.33578089E+01
 20
-9.85094673E+01
  0
VERTEX
  8
0
 62
4
 10
-9.36559070E+01
 20
-9.85741099E+01
  0
VERTEX
  8
0
 62
4
 10
-9.39471108E+01
 20
-9.86639197E+01
  0
VERTEX
  8
0
 62
4
 10
-9.42292042E+01
 20
-9.87782132E+01
  0
VERTEX
  8
0
 62
4
 10
-9.45000403E+01
 20
-9.89161207E+01
  0
VERTEX
  8
0
 62
4
 10
-9.47575578E+01
 20
-9.90765924E+01
  0
VERTEX
  8
0
 62
4
 10
-9.49997969E+01
 20
-9.92584071E+01
  0
VERTEX
  8
0
 62
4
 10
-9.52249140E+01
 20
-9.94601812E+01
  0
VERTEX
  8
0
 62
4
 10
-9.54311959E+01
 20
-9.96803790E+01
  0
VERTEX
  8
0
 62
4
 10
-9.56170725E+01
 20
-9.99173246E+01
  0
VERTEX
  8
0
 62
4
 10
-9.57811292E+01
 20
-1.00169215E+02
  0
VERTEX
  8
0
 62
4
 10
-9.59221176E+01
 20
-1.00434132E+02
  0
VERTEX
  8
0
 62
4
 10
-9.60389645E+01
 20
-1.00710061E+02
  0
VERTEX
  8
0
 62
4
 10
-9.61307807E+01
 20
-1.00994902E+02
  0
VERTEX
  8
0
 62
4
 10
-9.61968674E+01
 20
-1.01286486E+02
  0
VERTEX
  8
0
 62
4
 10
-9.62367217E+01
 20
-1.01582594E+02
  0
VERTEX
  8
0
 62
4
 10
-9.62500403E+01
 20
-1.01880973E+02
  0
VERTEX
  8
0
 62
4
 10
-9.62367217E+01
 20
-1.02179352E+02
  0
VERTEX
  8
0
 62
4
 10
-9.61968674E+01
 20
-1.02475460E+02
  0
VERTEX
  8
0
 62
4
 10
-9.61307807E+01
 20
-1.02767044E+02
  0
VERTEX
  8
0
 62
4
 10
-9.60389645E+01
 20
-1.03051885E+02
  0
VERTEX
  8
0
 62
4
 10
-9.59221176E+01
 20
-1.03327814E+02
  0
VERTEX
  8
0
 62
4
 10
-9.57811292E+01
 20
-1.03592731E+02
  0
VERTEX
  8
0
 62
4
 10
-9.56170725E+01
 20
-1.03844621E+02
  0
VERTEX
  8
0
 62
4
 10
-9.54311958E+01
 20
-1.04081567E+02
  0
VERTEX
  8
0
 62
4
 10
-9.52249140E+01
 20
-1.04301765E+02
  0
VERTEX
  8
0
 62
4
 10
-9.49997969E+01
 20
-1.04503539E+02
  0
VERTEX
  8
0
 62
4
 10
-9.47575578E+01
 20
-1.04685354E+02
  0
VERTEX
  8
0
 62
4
 10
-9.45000403E+01
 20
-1.04845825E+02
  0
VERTEX
  8
0
 62
4
 10
-9.42292042E+01
 20
-1.04983733E+02
  0
VERTEX
  8
0
 62
4
 10
-9.39471108E+01
 20
-1.05098026E+02
  0
VERTEX
  8
0
 62
4
 10
-9.36559070E+01
 20
-1.05187836E+02
  0
VERTEX
  8
0
 62
4
 10
-9.33578089E+01
 20
-1.05252479E+02
  0
VERTEX
  8
0
 62
4
 10
-9.30550854E+01
 20
-1.05291462E+02
  0
VERTEX
  8
0
 62
4
 10
-9.27500403E+01
 20
-1.05304490E+02
  0
VERTEX
  8
0
 62
4
 10
-9.24449952E+01
 20
-1.05291462E+02
  0
VERTEX
  8
0
 62
4
 10
-9.21422717E+01
 20
-1.05252479E+02
  0
VERTEX
  8
0
 62
4
 10
-9.18441736E+01
 20
-1.05187836E+02
  0
VERTEX
  8
0
 62
4
 10
-9.15529698E+01
 20
-1.05098026E+02
  0
VERTEX
  8
0
 62
4
 10
-9.12708764E+01
 20
-1.04983733E+02
  0
VERTEX
  8
0
 62
4
 10
-9.10000403E+01
 20
-1.04845825E+02
  0
VERTEX
  8
0
 62
4
 10
-9.07425228E+01
 20
-1.04685354E+02
  0
VERTEX
  8
0
 62
4
 10
-9.05002837E+01
 20
-1.04503539E+02
  0
VERTEX
  8
0
 62
4
 10
-9.02751666E+01
 20
-1.04301765E+02
  0
VERTEX
  8
0
 62
4
 10
-9.00688847E+01
 20
-1.04081567E+02
  0
VERTEX
  8
0
 62
4
 10
-8.98830081E+01
 20
-1.03844621E+02
  0
VERTEX
  8
0
 62
4
 10
-8.97189514E+01
 20
-1.03592731E+02
  0
VERTEX
  8
0
 62
4
 10
-8.95779630E+01
 20
-1.03327814E+02
  0
VERTEX
  8
0
 62
4
 10
-8.94611161E+01
 20
-1.03051885E+02
  0
VERTEX
  8
0
 62
4
 10
-8.93692999E+01
 20
-1.02767044E+02
  0
VERTEX
  8
0
 62
4
 10
-8.93032132E+01
 20
-1.02475460E+02
  0
VERTEX
  8
0
 62
4
 10
-8.92633589E+01
 20
-1.02179352E+02
  0
VERTEX
  8
0
 62
4
 10
-8.92500403E+01
 20
-1.01880973E+02
  0
SEQEND
  8
0
  0
ARC
  8
0
 62
4
 10
-1.04514445E+02
 20
-1.07186475E+02
 40
1.21769740E+01
 50
2.40462101E+02
 51
2.53021762E+02
  0
ARC
  8
0
 62
4
 10
-1.12985635E+02
 20
-1.07186475E+02
 40
1.21769740E+01
 50
2.86978238E+02
 51
2.99537899E+02
  0
POLYLINE
  8
0
 62
4
 66
1
  0
VERTEX
  8
0
 62
4
 10
-1.05350040E+02
 20
-1.17753707E+02
  0
VERTEX
  8
0
 62
4
 10
-1.05362978E+02
 20
-1.17657726E+02
  0
VERTEX
  8
0
 62
4
 10
-1.05401694E+02
 20
-1.17562476E+02
  0
VERTEX
  8
0
 62
4
 10
-1.05465892E+02
 20
-1.17468681E+02
  0
VERTEX
  8
0
 62
4
 10
-1.05555085E+02
 20
-1.17377055E+02
  0
VERTEX
  8
0
 62
4
 10
-1.05668594E+02
 20
-1.17288296E+02
  0
VERTEX
  8
0
 62
4
 10
-1.05805554E+02
 20
-1.17203079E+02
  0
VERTEX
  8
0
 62
4
 10
-1.05964923E+02
 20
-1.17122053E+02
  0
VERTEX
  8
0
 62
4
 10
-1.06145489E+02
 20
-1.17045834E+02
  0
VERTEX
  8
0
 62
4
 10
-1.06345877E+02
 20
-1.16975002E+02
  0
VERTEX
  8
0
 62
4
 10
-1.06564562E+02
 20
-1.16910096E+02
  0
VERTEX
  8
0
 62
4
 10
-1.06799880E+02
 20
-1.16851611E+02
  0
VERTEX
  8
0
 62
4
 10
-1.07050040E+02
 20
-1.16799992E+02
  0
VERTEX
  8
0
 62
4
 10
-1.07313138E+02
 20
-1.16755631E+02
  0
VERTEX
  8
0
 62
4
 10
-1.07587172E+02
 20
-1.16718865E+02
  0
VERTEX
  8
0
 62
4
 10
-1.07870055E+02
 20
-1.16689976E+02
  0
VERTEX
  8
0
 62
4
 10
-1.08159636E+02
 20
-1.16669182E+02
  0
VERTEX
  8
0
 62
4
 10
-1.08453710E+02
 20
-1.16656642E+02
  0
VERTEX
  8
0
 62
4
 10
-1.08750040E+02
 20
-1.16652452E+02
  0
VERTEX
  8
0
 62
4
 10
-1.09046370E+02
 20
-1.16656642E+02
  0
VERTEX
  8
0
 62
4
 10
-1.09340444E+02
 20
-1.16669182E+02
  0
VERTEX
  8
0
 62
4
 10
-1.09630025E+02
 20
-1.16689976E+02
  0
VERTEX
  8
0
 62
4
 10
-1.09912908E+02
 20
-1.16718865E+02
  0
VERTEX
  8
0
 62
4
 10
-1.10186942E+02
 20
-1.16755631E+02
  0
VERTEX
  8
0
 62
4
 10
-1.10450040E+02
 20
-1.16799992E+02
  0
VERTEX
  8
0
 62
4
 10
-1.10700200E+02
 20
-1.16851611E+02
  0
VERTEX
  8
0
 62
4
 10
-1.10935518E+02
 20
-1.16910096E+02
  0
VERTEX
  8
0
 62
4
 10
-1.11154203E+02
 20
-1.16975002E+02
  0
VERTEX
  8
0
 62
4
 10
-1.11354591E+02
 20
-1.17045834E+02
  0
VERTEX
  8
0
 62
4
 10
-1.11535157E+02
 20
-1.17122053E+02
  0
VERTEX
  8
0
 62
4
 10
-1.11694526E+02
 20
-1.17203079E+02
  0
VERTEX
  8
0
 62
4
 10
-1.11831486E+02
 20
-1.17288296E+02
  0
VERTEX
  8
0
 62
4
 10
-1.11944995E+02
 20
-1.17377055E+02
  0
VERTEX
  8
0
 62
4
 10
-1.12034188E+02
 20
-1.17468681E+02
  0
VERTEX
  8
0
 62
4
 10
-1.12098386E+02
 20
-1.17562476E+02
  0
VERTEX
  8
0
 62
4
 10
-1.12137102E+02
 20
-1.17657726E+02
  0
VERTEX
  8
0
 62
4
 10
-1.12150040E+02
 20
-1.17753707E+02
  0
VERTEX
  8
0
 62
4
 10
-1.12137102E+02
 20
-1.17849688E+02
  0
VERTEX
  8
0
 62
4
 10
-1.12098386E+02
 20
-1.17944938E+02
  0
VERTEX
  8
0
 62
4
 10
-1.12034188E+02
 20
-1.18038733E+02
  0
VERTEX
  8
0
 62
4
 10
-1.11944995E+02
 20
-1.18130359E+02
  0
VERTEX
  8
0
 62
4
 10
-1.11831486E+02
 20
-1.18219118E+02
  0
VERTEX
  8
0
 62
4
 10
-1.11694526E+02
 20
-1.18304335E+02
  0
VERTEX
  8
0
 62
4
 10
-1.11535157E+02
 20
-1.18385361E+02
  0
VERTEX
  8
0
 62
4
 10
-1.11354591E+02
 20
-1.18461580E+02
  0
VERTEX
  8
0
 62
4
 10
-1.11154203E+02
 20
-1.18532412E+02
  0
VERTEX
  8
0
 62
4
 10
-1.10935518E+02
 20
-1.18597318E+02
  0
VERTEX
  8
0
 62
4
 10
-1.10700200E+02
 20
-1.18655803E+02
  0
VERTEX
  8
0
 62
4
 10
-1.10450040E+02
 20
-1.18707422E+02
  0
VERTEX
  8
0
 62
4
 10
-1.10186942E+02
 20
-1.18751783E+02
  0
VERTEX
  8
0
 62
4
 10
-1.09912908E+02
 20
-1.18788549E+02
  0
VERTEX
  8
0
 62
4
 10
-1.09630025E+02
 20
-1.18817438E+02
  0
VERTEX
  8
0
 62
4
 10
-1.09340444E+02
 20
-1.18838232E+02
  0
VERTEX
  8
0
 62
4
 10
-1.09046370E+02
 20
-1.18850772E+02
  0
VERTEX
  8
0
 62
4
 10
-1.08750040E+02
 20
-1.18854962E+02
  0
VERTEX
  8
0
 62
4
 10
-1.08453710E+02
 20
-1.18850772E+02
  0
VERTEX
  8
0
 62
4
 10
-1.08159636E+02
 20
-1.18838232E+02
  0
VERTEX
  8
0
 62
4
 10
-1.07870055E+02
 20
-1.18817438E+02
  0
VERTEX
  8
0
 62
4
 10
-1.07587172E+02
 20
-1.18788549E+02
  0
VERTEX
  8
0
 62
4
 10
-1.07313138E+02
 20
-1.18751783E+02
  0
VERTEX
  8
0
 62
4
 10
-1.07050040E+02
 20
-1.18707422E+02
  0
VERTEX
  8
0
 62
4
 10
-1.06799880E+02
 20
-1.18655803E+02
  0
VERTEX
  8
0
 62
4
 10
-1.06564562E+02
 20
-1.18597318E+02
  0
VERTEX
  8
0
 62
4
 10
-1.06345877E+02
 20
-1.18532412E+02
  0
VERTEX
  8
0
 62
4
 10
-1.06145489E+02
 20
-1.18461580E+02
  0
VERTEX
  8
0
 62
4
 10
-1.05964923E+02
 20
-1.18385361E+02
  0
VERTEX
  8
0
 62
4
 10
-1.05805554E+02
 20
-1.18304335E+02
  0
VERTEX
  8
0
 62
4
 10
-1.05668594E+02
 20
-1.18219118E+02
  0
VERTEX
  8
0
 62
4
 10
-1.05555085E+02
 20
-1.18130359E+02
  0
VERTEX
  8
0
 62
4
 10
-1.05465892E+02
 20
-1.18038733E+02
  0
VERTEX
  8
0
 62
4
 10
-1.05401694E+02
 20
-1.17944938E+02
  0
VERTEX
  8
0
 62
4
 10
-1.05362978E+02
 20
-1.17849688E+02
  0
VERTEX
  8
0
 62
4
 10
-1.05350040E+02
 20
-1.17753707E+02
  0
SEQEND
  8
0
  0
POLYLINE
  8
0
 62
4
 66
1
  0
VERTEX
  8
0
 62
4
 10
-1.04750040E+02
 20
-1.15178083E+02
  0
VERTEX
  8
0
 62
4
 10
-1.04766143E+02
 20
-1.15103535E+02
  0
VERTEX
  8
0
 62
4
 10
-1.04814322E+02
 20
-1.15029587E+02
  0
VERTEX
  8
0
 62
4
 10
-1.04894189E+02
 20
-1.14956834E+02
  0
VERTEX
  8
0
 62
4
 10
-1.05005101E+02
 20
-1.14885863E+02
  0
VERTEX
  8
0
 62
4
 10
-1.05146165E+02
 20
-1.14817245E+02
  0
VERTEX
  8
0
 62
4
 10
-1.05316245E+02
 20
-1.14751532E+02
  0
VERTEX
  8
0
 62
4
 10
-1.05513972E+02
 20
-1.14689253E+02
  0
VERTEX
  8
0
 62
4
 10
-1.05737754E+02
 20
-1.14630910E+02
  0
VERTEX
  8
0
 62
4
 10
-1.05985789E+02
 20
-1.14576973E+02
  0
VERTEX
  8
0
 62
4
 10
-1.06256081E+02
 20
-1.14527875E+02
  0
VERTEX
  8
0
 62
4
 10
-1.06546452E+02
 20
-1.14484013E+02
  0
VERTEX
  8
0
 62
4
 10
-1.06854565E+02
 20
-1.14445739E+02
  0
VERTEX
  8
0
 62
4
 10
-1.07177940E+02
 20
-1.14413361E+02
  0
VERTEX
  8
0
 62
4
 10
-1.07513972E+02
 20
-1.14387140E+02
  0
VERTEX
  8
0
 62
4
 10
-1.07859956E+02
 20
-1.14367287E+02
  0
VERTEX
  8
0
 62
4
 10
-1.08213107E+02
 20
-1.14353963E+02
  0
VERTEX
  8
0
 62
4
 10
-1.08570581E+02
 20
-1.14347274E+02
  0
VERTEX
  8
0
 62
4
 10
-1.08929499E+02
 20
-1.14347274E+02
  0
VERTEX
  8
0
 62
4
 10
-1.09286973E+02
 20
-1.14353963E+02
  0
VERTEX
  8
0
 62
4
 10
-1.09640124E+02
 20
-1.14367287E+02
  0
VERTEX
  8
0
 62
4
 10
-1.09986108E+02
 20
-1.14387140E+02
  0
VERTEX
  8
0
 62
4
 10
-1.10322140E+02
 20
-1.14413361E+02
  0
VERTEX
  8
0
 62
4
 10
-1.10645515E+02
 20
-1.14445739E+02
  0
VERTEX
  8
0
 62
4
 10
-1.10953628E+02
 20
-1.14484013E+02
  0
VERTEX
  8
0
 62
4
 10
-1.11243999E+02
 20
-1.14527875E+02
  0
VERTEX
  8
0
 62
4
 10
-1.11514291E+02
 20
-1.14576973E+02
  0
VERTEX
  8
0
 62
4
 10
-1.11762326E+02
 20
-1.14630910E+02
  0
VERTEX
  8
0
 62
4
 10
-1.11986108E+02
 20
-1.14689253E+02
  0
VERTEX
  8
0
 62
4
 10
-1.12183835E+02
 20
-1.14751532E+02
  0
VERTEX
  8
0
 62
4
 10
-1.12353915E+02
 20
-1.14817245E+02
  0
VERTEX
  8
0
 62
4
 10
-1.12494979E+02
 20
-1.14885863E+02
  0
VERTEX
  8
0
 62
4
 10
-1.12605891E+02
 20
-1.14956834E+02
  0
VERTEX
  8
0
 62
4
 10
-1.12685758E+02
 20
-1.15029587E+02
  0
VERTEX
  8
0
 62
4
 10
-1.12733937E+02
 20
-1.15103535E+02
  0
VERTEX
  8
0
 62
4
 10
-1.12750040E+02
 20
-1.15178083E+02
  0
SEQEND
  8
0
  0
LINE
  8
0
 62
4
 10
-1.05350040E+02
 20
-1.16737420E+02
 11
-8.32500403E+01
 21
-1.16737420E+02
  0
ARC
  8
0
 62
4
 10
-1.19250544E+02
 20
-1.15237924E+02
 40
1.49949647E+00
 50
1.79980757E+02
 51
2.70019243E+02
  0
ARC
  8
0
 62
4
 10
-8.32495405E+01
 20
-1.15237920E+02
 40
1.49950029E+00
 50
2.69980903E+02
 51
1.90971113E-02
  0
LINE
  8
0
 62
4
 10
-1.19250040E+02
 20
-1.16737420E+02
 11
-1.12150040E+02
 21
-1.16737420E+02
  0
POLYLINE
  8
0
 62
4
 66
1
  0
VERTEX
  8
0
 62
4
 10
-1.05350040E+02
 20
-1.15667148E+02
  0
VERTEX
  8
0
 62
4
 10
-1.05363731E+02
 20
-1.15603782E+02
  0
VERTEX
  8
0
 62
4
 10
-1.05404686E+02
 20
-1.15540926E+02
  0
VERTEX
  8
0
 62
4
 10
-1.05472576E+02
 20
-1.15479087E+02
  0
VERTEX
  8
0
 62
4
 10
-1.05566854E+02
 20
-1.15418762E+02
  0
VERTEX
  8
0
 62
4
 10
-1.05686761E+02
 20
-1.15360437E+02
  0
VERTEX
  8
0
 62
4
 10
-1.05831331E+02
 20
-1.15304582E+02
  0
VERTEX
  8
0
 62
4
 10
-1.05999401E+02
 20
-1.15251645E+02
  0
VERTEX
  8
0
 62
4
 10
-1.06189618E+02
 20
-1.15202054E+02
  0
VERTEX
  8
0
 62
4
 10
-1.06400449E+02
 20
-1.15156208E+02
  0
VERTEX
  8
0
 62
4
 10
-1.06630197E+02
 20
-1.15114476E+02
  0
VERTEX
  8
0
 62
4
 10
-1.06877014E+02
 20
-1.15077193E+02
  0
VERTEX
  8
0
 62
4
 10
-1.07138910E+02
 20
-1.15044661E+02
  0
VERTEX
  8
0
 62
4
 10
-1.07413778E+02
 20
-1.15017140E+02
  0
VERTEX
  8
0
 62
4
 10
-1.07699405E+02
 20
-1.14994853E+02
  0
VERTEX
  8
0
 62
4
 10
-1.07993492E+02
 20
-1.14977979E+02
  0
VERTEX
  8
0
 62
4
 10
-1.08293669E+02
 20
-1.14966653E+02
  0
VERTEX
  8
0
 62
4
 10
-1.08597521E+02
 20
-1.14960968E+02
  0
VERTEX
  8
0
 62
4
 10
-1.08902600E+02
 20
-1.14960968E+02
  0
VERTEX
  8
0
 62
4
 10
-1.09206452E+02
 20
-1.14966654E+02
  0
VERTEX
  8
0
 62
4
 10
-1.09506628E+02
 20
-1.14977981E+02
  0
VERTEX
  8
0
 62
4
 10
-1.09800713E+02
 20
-1.14994855E+02
  0
VERTEX
  8
0
 62
4
 10
-1.10086339E+02
 20
-1.15017143E+02
  0
VERTEX
  8
0
 62
4
 10
-1.10361206E+02
 20
-1.15044665E+02
  0
VERTEX
  8
0
 62
4
 10
-1.10623100E+02
 20
-1.15077198E+02
  0
VERTEX
  8
0
 62
4
 10
-1.10869914E+02
 20
-1.15114481E+02
  0
VERTEX
  8
0
 62
4
 10
-1.11099661E+02
 20
-1.15156214E+02
  0
VERTEX
  8
0
 62
4
 10
-1.11310489E+02
 20
-1.15202061E+02
  0
VERTEX
  8
0
 62
4
 10
-1.11500703E+02
 20
-1.15251652E+02
  0
VERTEX
  8
0
 62
4
 10
-1.11668769E+02
 20
-1.15304589E+02
  0
VERTEX
  8
0
 62
4
 10
-1.11813337E+02
 20
-1.15360445E+02
  0
VERTEX
  8
0
 62
4
 10
-1.11933240E+02
 20
-1.15418770E+02
  0
VERTEX
  8
0
 62
4
 10
-1.12027515E+02
 20
-1.15479095E+02
  0
VERTEX
  8
0
 62
4
 10
-1.12095401E+02
 20
-1.15540935E+02
  0
VERTEX
  8
0
 62
4
 10
-1.12136353E+02
 20
-1.15603790E+02
  0
VERTEX
  8
0
 62
4
 10
-1.12150040E+02
 20
-1.15667156E+02
  0
SEQEND
  8
0
  0
POLYLINE
  8
0
 62
4
 66
1
  0
VERTEX
  8
0
 62
4
 10
-1.05350040E+02
 20
-1.16105253E+02
  0
VERTEX
  8
0
 62
4
 10
-1.05176988E+02
 20
-1.16041010E+02
  0
VERTEX
  8
0
 62
4
 10
-1.05031945E+02
 20
-1.15973836E+02
  0
VERTEX
  8
0
 62
4
 10
-1.04916048E+02
 20
-1.15904258E+02
  0
VERTEX
  8
0
 62
4
 10
-1.04830206E+02
 20
-1.15832821E+02
  0
VERTEX
  8
0
 62
4
 10
-1.04775091E+02
 20
-1.15760086E+02
  0
VERTEX
  8
0
 62
4
 10
-1.04751136E+02
 20
-1.15686622E+02
  0
VERTEX
  8
0
 62
4
 10
-1.04758528E+02
 20
-1.15613006E+02
  0
VERTEX
  8
0
 62
4
 10
-1.04797210E+02
 20
-1.15539814E+02
  0
VERTEX
  8
0
 62
4
 10
-1.04866877E+02
 20
-1.15467621E+02
  0
VERTEX
  8
0
 62
4
 10
-1.04966985E+02
 20
-1.15396991E+02
  0
VERTEX
  8
0
 62
4
 10
-1.05096748E+02
 20
-1.15328480E+02
  0
VERTEX
  8
0
 62
4
 10
-1.05255149E+02
 20
-1.15262623E+02
  0
VERTEX
  8
0
 62
4
 10
-1.05440947E+02
 20
-1.15199937E+02
  0
VERTEX
  8
0
 62
4
 10
-1.05652684E+02
 20
-1.15140914E+02
  0
VERTEX
  8
0
 62
4
 10
-1.05888702E+02
 20
-1.15086016E+02
  0
VERTEX
  8
0
 62
4
 10
-1.06147149E+02
 20
-1.15035674E+02
  0
VERTEX
  8
0
 62
4
 10
-1.06426001E+02
 20
-1.14990282E+02
  0
VERTEX
  8
0
 62
4
 10
-1.06723071E+02
 20
-1.14950195E+02
  0
VERTEX
  8
0
 62
4
 10
-1.07036030E+02
 20
-1.14915729E+02
  0
VERTEX
  8
0
 62
4
 10
-1.07362425E+02
 20
-1.14887154E+02
  0
VERTEX
  8
0
 62
4
 10
-1.07699697E+02
 20
-1.14864693E+02
  0
VERTEX
  8
0
 62
4
 10
-1.08045204E+02
 20
-1.14848522E+02
  0
VERTEX
  8
0
 62
4
 10
-1.08396235E+02
 20
-1.14838769E+02
  0
VERTEX
  8
0
 62
4
 10
-1.08750040E+02
 20
-1.14835509E+02
  0
VERTEX
  8
0
 62
4
 10
-1.09103845E+02
 20
-1.14838769E+02
  0
VERTEX
  8
0
 62
4
 10
-1.09454876E+02
 20
-1.14848522E+02
  0
VERTEX
  8
0
 62
4
 10
-1.09800383E+02
 20
-1.14864693E+02
  0
VERTEX
  8
0
 62
4
 10
-1.10137655E+02
 20
-1.14887154E+02
  0
VERTEX
  8
0
 62
4
 10
-1.10464050E+02
 20
-1.14915729E+02
  0
VERTEX
  8
0
 62
4
 10
-1.10777009E+02
 20
-1.14950195E+02
  0
VERTEX
  8
0
 62
4
 10
-1.11074079E+02
 20
-1.14990282E+02
  0
VERTEX
  8
0
 62
4
 10
-1.11352931E+02
 20
-1.15035674E+02
  0
VERTEX
  8
0
 62
4
 10
-1.11611378E+02
 20
-1.15086016E+02
  0
VERTEX
  8
0
 62
4
 10
-1.11847396E+02
 20
-1.15140914E+02
  0
VERTEX
  8
0
 62
4
 10
-1.12059133E+02
 20
-1.15199937E+02
  0
VERTEX
  8
0
 62
4
 10
-1.12244931E+02
 20
-1.15262623E+02
  0
VERTEX
  8
0
 62
4
 10
-1.12403332E+02
 20
-1.15328480E+02
  0
VERTEX
  8
0
 62
4
 10
-1.12533095E+02
 20
-1.15396991E+02
  0
VERTEX
  8
0
 62
4
 10
-1.12633203E+02
 20
-1.15467621E+02
  0
VERTEX
  8
0
 62
4
 10
-1.12702870E+02
 20
-1.15539814E+02
  0
VERTEX
  8
0
 62
4
 10
-1.12741552E+02
 20
-1.15613006E+02
  0
VERTEX
  8
0
 62
4
 10
-1.12748944E+02
 20
-1.15686622E+02
  0
VERTEX
  8
0
 62
4
 10
-1.12724989E+02
 20
-1.15760086E+02
  0
VERTEX
  8
0
 62
4
 10
-1.12669874E+02
 20
-1.15832821E+02
  0
VERTEX
  8
0
 62
4
 10
-1.12584032E+02
 20
-1.15904258E+02
  0
VERTEX
  8
0
 62
4
 10
-1.12468135E+02
 20
-1.15973836E+02
  0
VERTEX
  8
0
 62
4
 10
-1.12323092E+02
 20
-1.16041010E+02
  0
VERTEX
  8
0
 62
4
 10
-1.12150040E+02
 20
-1.16105253E+02
  0
SEQEND
  8
0
  0
LINE
  8
0
  6
CENTER
 62
6
 10
-1.13799125E+02
 20
-9.58515346E+01
 11
-1.03700955E+02
 21
-9.58515346E+01
  0
LINE
  8
0
  6
CENTER
 62
6
 10
-9.27500403E+01
 20
-9.67237131E+01
 11
-9.27500403E+01
 21
-1.06622410E+02
  0
POLYLINE
  8
0
 62
4
 66
1
  0
VERTEX
  8
0
 62
4
 10
-1.05750040E+02
 20
-9.58515346E+01
  0
VERTEX
  8
0
 62
4
 10
-1.05761456E+02
 20
-9.55957811E+01
  0
VERTEX
  8
0
 62
4
 10
-1.05795617E+02
 20
-9.53419740E+01
  0
VERTEX
  8
0
 62
4
 10
-1.05852263E+02
 20
-9.50920449E+01
  0
VERTEX
  8
0
 62
4
 10
-1.05930962E+02
 20
-9.48478961E+01
  0
VERTEX
  8
0
 62
4
 10
-1.06031117E+02
 20
-9.46113855E+01
  0
VERTEX
  8
0
 62
4
 10
-1.06151964E+02
 20
-9.43843132E+01
  0
VERTEX
  8
0
 62
4
 10
-1.06292584E+02
 20
-9.41684074E+01
  0
VERTEX
  8
0
 62
4
 10
-1.06451907E+02
 20
-9.39653111E+01
  0
VERTEX
  8
0
 62
4
 10
-1.06628720E+02
 20
-9.37765702E+01
  0
VERTEX
  8
0
 62
4
 10
-1.06821677E+02
 20
-9.36036210E+01
  0
VERTEX
  8
0
 62
4
 10
-1.07029311E+02
 20
-9.34477798E+01
  0
VERTEX
  8
0
 62
4
 10
-1.07250040E+02
 20
-9.33102326E+01
  0
VERTEX
  8
0
 62
4
 10
-1.07482185E+02
 20
-9.31920262E+01
  0
VERTEX
  8
0
 62
4
 10
-1.07723980E+02
 20
-9.30940604E+01
  0
VERTEX
  8
0
 62
4
 10
-1.07973583E+02
 20
-9.30170805E+01
  0
VERTEX
  8
0
 62
4
 10
-1.08229095E+02
 20
-9.29616726E+01
  0
VERTEX
  8
0
 62
4
 10
-1.08488573E+02
 20
-9.29282582E+01
  0
VERTEX
  8
0
 62
4
 10
-1.08750040E+02
 20
-9.29170918E+01
  0
VERTEX
  8
0
 62
4
 10
-1.09011507E+02
 20
-9.29282582E+01
  0
VERTEX
  8
0
 62
4
 10
-1.09270985E+02
 20
-9.29616726E+01
  0
VERTEX
  8
0
 62
4
 10
-1.09526497E+02
 20
-9.30170805E+01
  0
VERTEX
  8
0
 62
4
 10
-1.09776100E+02
 20
-9.30940604E+01
  0
VERTEX
  8
0
 62
4
 10
-1.10017895E+02
 20
-9.31920262E+01
  0
VERTEX
  8
0
 62
4
 10
-1.10250040E+02
 20
-9.33102326E+01
  0
VERTEX
  8
0
 62
4
 10
-1.10470769E+02
 20
-9.34477798E+01
  0
VERTEX
  8
0
 62
4
 10
-1.10678403E+02
 20
-9.36036210E+01
  0
VERTEX
  8
0
 62
4
 10
-1.10871360E+02
 20
-9.37765702E+01
  0
VERTEX
  8
0
 62
4
 10
-1.11048173E+02
 20
-9.39653111E+01
  0
VERTEX
  8
0
 62
4
 10
-1.11207496E+02
 20
-9.41684074E+01
  0
VERTEX
  8
0
 62
4
 10
-1.11348116E+02
 20
-9.43843132E+01
  0
VERTEX
  8
0
 62
4
 10
-1.11468963E+02
 20
-9.46113855E+01
  0
VERTEX
  8
0
 62
4
 10
-1.11569118E+02
 20
-9.48478961E+01
  0
VERTEX
  8
0
 62
4
 10
-1.11647817E+02
 20
-9.50920449E+01
  0
VERTEX
  8
0
 62
4
 10
-1.11704463E+02
 20
-9.53419740E+01
  0
VERTEX
  8
0
 62
4
 10
-1.11738624E+02
 20
-9.55957811E+01
  0
VERTEX
  8
0
 62
4
 10
-1.11750040E+02
 20
-9.58515346E+01
  0
VERTEX
  8
0
 62
4
 10
-1.11738624E+02
 20
-9.61072881E+01
  0
VERTEX
  8
0
 62
4
 10
-1.11704463E+02
 20
-9.63610952E+01
  0
VERTEX
  8
0
 62
4
 10
-1.11647817E+02
 20
-9.66110243E+01
  0
VERTEX
  8
0
 62
4
 10
-1.11569118E+02
 20
-9.68551732E+01
  0
VERTEX
  8
0
 62
4
 10
-1.11468963E+02
 20
-9.70916837E+01
  0
VERTEX
  8
0
 62
4
 10
-1.11348116E+02
 20
-9.73187560E+01
  0
VERTEX
  8
0
 62
4
 10
-1.11207496E+02
 20
-9.75346618E+01
  0
VERTEX
  8
0
 62
4
 10
-1.11048173E+02
 20
-9.77377581E+01
  0
VERTEX
  8
0
 62
4
 10
-1.10871360E+02
 20
-9.79264990E+01
  0
VERTEX
  8
0
 62
4
 10
-1.10678403E+02
 20
-9.80994482E+01
  0
VERTEX
  8
0
 62
4
 10
-1.10470769E+02
 20
-9.82552894E+01
  0
VERTEX
  8
0
 62
4
 10
-1.10250040E+02
 20
-9.83928366E+01
  0
VERTEX
  8
0
 62
4
 10
-1.10017895E+02
 20
-9.85110430E+01
  0
VERTEX
  8
0
 62
4
 10
-1.09776100E+02
 20
-9.86090088E+01
  0
VERTEX
  8
0
 62
4
 10
-1.09526497E+02
 20
-9.86859887E+01
  0
VERTEX
  8
0
 62
4
 10
-1.09270985E+02
 20
-9.87413966E+01
  0
VERTEX
  8
0
 62
4
 10
-1.09011507E+02
 20
-9.87748110E+01
  0
VERTEX
  8
0
 62
4
 10
-1.08750040E+02
 20
-9.87859774E+01
  0
VERTEX
  8
0
 62
4
 10
-1.08488573E+02
 20
-9.87748110E+01
  0
VERTEX
  8
0
 62
4
 10
-1.08229095E+02
 20
-9.87413966E+01
  0
VERTEX
  8
0
 62
4
 10
-1.07973583E+02
 20
-9.86859887E+01
  0
VERTEX
  8
0
 62
4
 10
-1.07723980E+02
 20
-9.86090088E+01
  0
VERTEX
  8
0
 62
4
 10
-1.07482185E+02
 20
-9.85110430E+01
  0
VERTEX
  8
0
 62
4
 10
-1.07250040E+02
 20
-9.83928366E+01
  0
VERTEX
  8
0
 62
4
 10
-1.07029311E+02
 20
-9.82552894E+01
  0
VERTEX
  8
0
 62
4
 10
-1.06821677E+02
 20
-9.80994482E+01
  0
VERTEX
  8
0
 62
4
 10
-1.06628720E+02
 20
-9.79264990E+01
  0
VERTEX
  8
0
 62
4
 10
-1.06451907E+02
 20
-9.77377581E+01
  0
VERTEX
  8
0
 62
4
 10
-1.06292584E+02
 20
-9.75346618E+01
  0
VERTEX
  8
0
 62
4
 10
-1.06151964E+02
 20
-9.73187560E+01
  0
VERTEX
  8
0
 62
4
 10
-1.06031117E+02
 20
-9.70916837E+01
  0
VERTEX
  8
0
 62
4
 10
-1.05930962E+02
 20
-9.68551731E+01
  0
VERTEX
  8
0
 62
4
 10
-1.05852263E+02
 20
-9.66110243E+01
  0
VERTEX
  8
0
 62
4
 10
-1.05795617E+02
 20
-9.63610952E+01
  0
VERTEX
  8
0
 62
4
 10
-1.05761456E+02
 20
-9.61072881E+01
  0
VERTEX
  8
0
 62
4
 10
-1.05750040E+02
 20
-9.58515346E+01
  0
SEQEND
  8
0
  0
LINE
  8
0
  6
CENTER
 62
6
 10
-9.76993889E+01
 20
-1.01673062E+02
 11
-8.78006917E+01
 21
-1.01673062E+02
  0
LINE
  8
0
 62
4
 10
-1.16250040E+02
 20
-1.08385434E+02
 11
-1.01250040E+02
 21
-1.08385434E+02
  0
LINE
  8
0
 62
4
 10
-1.35750040E+02
 20
-1.04238712E+02
 11
-1.30750040E+02
 21
-1.04238712E+02
  0
LINE
  8
0
 62
4
 10
-1.25750040E+02
 20
-9.05997780E+01
 11
-1.25750040E+02
 21
-1.03599778E+02
  0
ARC
  8
0
 62
4
 10
-1.25249540E+02
 20
-9.06002781E+01
 40
5.00500378E-01
 50
9.00572530E+01
 51
1.79942747E+02
  0
LINE
  8
0
 62
4
 10
-1.16250040E+02
 20
-9.00997780E+01
 11
-1.25250040E+02
 21
-9.00997780E+01
  0
LINE
  8
0
 62
4
 10
-1.35750040E+02
 20
-1.02677295E+02
 11
-1.30750040E+02
 21
-1.02677295E+02
  0
LINE
  8
0
 62
4
 10
-1.35750040E+02
 20
-9.55396671E+01
 11
-1.30750040E+02
 21
-9.55396671E+01
  0
LINE
  8
0
 62
4
 10
-1.01250040E+02
 20
-9.06083541E+01
 11
-8.32500403E+01
 21
-9.06083541E+01
  0
LINE
  8
0
  6
CENTER
 62
6
 10
-1.04750040E+02
 20
-7.60416875E+01
 11
-1.04750040E+02
 21
-8.65416875E+01
  0
LINE
  8
0
 62
4
 10
-1.02750040E+02
 20
-7.83016875E+01
 11
-1.02750040E+02
 21
-7.86739326E+01
  0
LINE
  8
0
 62
4
 10
-1.06750040E+02
 20
-7.83016875E+01
 11
-1.06750040E+02
 21
-7.86739326E+01
  0
LINE
  8
0
 62
4
 10
-1.03020040E+02
 20
-7.73016875E+01
 11
-1.06490040E+02
 21
-7.73016875E+01
  0
LINE
  8
0
 62
4
 10
-1.02750040E+02
 20
-7.83016875E+01
 11
-1.03020040E+02
 21
-7.73016875E+01
  0
LINE
  8
0
 62
4
 10
-1.06750040E+02
 20
-7.83016875E+01
 11
-1.06490040E+02
 21
-7.73016875E+01
  0
LINE
  8
0
 62
6
 10
-1.03250040E+02
 20
-7.73016875E+01
 11
-1.03250040E+02
 21
-7.86739326E+01
  0
LINE
  8
0
 62
6
 10
-1.06250040E+02
 20
-7.73016875E+01
 11
-1.06250040E+02
 21
-7.86739326E+01
  0
LINE
  8
0
 62
4
 10
-1.02250040E+02
 20
-8.39184541E+01
 11
-1.15250040E+02
 21
-8.39184541E+01
  0
LINE
  8
0
 62
4
 10
-1.01250040E+02
 20
-7.86739326E+01
 11
-1.16250040E+02
 21
-7.86739326E+01
  0
LINE
  8
0
  6
CENTER
 62
6
 10
-1.12750040E+02
 20
-7.60416875E+01
 11
-1.12750040E+02
 21
-8.65416875E+01
  0
LINE
  8
0
 62
6
 10
-1.14250040E+02
 20
-7.73016875E+01
 11
-1.14250040E+02
 21
-7.86739326E+01
  0
LINE
  8
0
 62
4
 10
-1.10750040E+02
 20
-7.83016875E+01
 11
-1.10750040E+02
 21
-7.86739326E+01
  0
LINE
  8
0
 62
4
 10
-1.14750040E+02
 20
-7.83016875E+01
 11
-1.14750040E+02
 21
-7.86739326E+01
  0
LINE
  8
0
 62
4
 10
-1.11020040E+02
 20
-7.73016875E+01
 11
-1.14490040E+02
 21
-7.73016875E+01
  0
LINE
  8
0
 62
4
 10
-1.10750040E+02
 20
-7.83016875E+01
 11
-1.11020040E+02
 21
-7.73016875E+01
  0
LINE
  8
0
 62
4
 10
-1.14750040E+02
 20
-7.83016875E+01
 11
-1.14490040E+02
 21
-7.73016875E+01
  0
LINE
  8
0
 62
6
 10
-1.11250040E+02
 20
-7.73016875E+01
 11
-1.11250040E+02
 21
-7.86739326E+01
  0
LINE
  8
0
 62
4
 10
-1.04750040E+02
 20
-1.15178083E+02
 11
-1.04750040E+02
 21
-1.15667156E+02
  0
LINE
  8
0
 62
4
 10
-1.12750040E+02
 20
-1.15667156E+02
 11
-1.12750040E+02
 21
-1.15178083E+02
  0
LINE
  8
0
 62
4
 10
-1.05350040E+02
 20
-1.15667156E+02
 11
-1.05350040E+02
 21
-1.17591113E+02
  0
LINE
  8
0
 62
4
 10
-1.12150040E+02
 20
-1.17591113E+02
 11
-1.12150040E+02
 21
-1.15667156E+02
  0
LINE
  8
0
  6
CENTER
 62
6
 10
-1.08750040E+02
 20
-7.14742264E+01
 11
-1.08750040E+02
 21
-1.25191746E+02
  0
LINE
  8
0
 62
4
 10
-1.25250040E+02
 20
-1.04099778E+02
 11
-1.16250040E+02
 21
-1.04099778E+02
  0
LINE
  8
0
 62
4
 10
-1.35750040E+02
 20
-8.99613765E+01
 11
-1.35750040E+02
 21
-1.04238712E+02
  0
LINE
  8
0
 62
4
 10
-1.30750040E+02
 20
-8.99613765E+01
 11
-1.30750040E+02
 21
-1.04238712E+02
  0
LINE
  8
0
 62
4
 10
-1.30750040E+02
 20
-9.08497780E+01
 11
-1.25750040E+02
 21
-9.08497780E+01
  0
LINE
  8
0
 62
4
 10
-1.30750040E+02
 20
-1.03349778E+02
 11
-1.25750040E+02
 21
-1.03349778E+02
  0
LINE
  8
0
 62
4
 10
-1.29250040E+02
 20
-9.08497780E+01
 11
-1.29250040E+02
 21
-1.03349778E+02
  0
LINE
  8
0
 62
4
 10
-1.29250040E+02
 20
-9.13497780E+01
 11
-1.25750040E+02
 21
-9.13497780E+01
  0
LINE
  8
0
 62
4
 10
-1.29250040E+02
 20
-1.02849778E+02
 11
-1.25750040E+02
 21
-1.02849778E+02
  0
LINE
  8
0
 62
4
 10
-1.01250040E+02
 20
-1.08385434E+02
 11
-1.01250040E+02
 21
-7.86739326E+01
  0
LINE
  8
0
 62
4
 10
-1.16250040E+02
 20
-8.85154276E+01
 11
-1.01250040E+02
 21
-8.85154276E+01
  0
LINE
  8
0
 62
4
 10
-1.16250040E+02
 20
-1.03187642E+02
 11
-1.01250040E+02
 21
-1.03187642E+02
  0
LINE
  8
0
 62
4
 10
-1.35750040E+02
 20
-8.99613765E+01
 11
-1.30750040E+02
 21
-8.99613765E+01
  0
LINE
  8
0
 62
4
 10
-8.17500403E+01
 20
-9.21088579E+01
 11
-8.17500403E+01
 21
-1.15237420E+02
  0
LINE
  8
0
 62
4
 10
-9.92500403E+01
 20
-9.17569247E+01
 11
-9.92500403E+01
 21
-1.11173376E+02
  0
LINE
  8
0
 62
4
 10
-1.20750040E+02
 20
-1.15237420E+02
 11
-1.20750040E+02
 21
-1.04099778E+02
  0
LINE
  8
0
 62
4
 10
-1.18250040E+02
 20
-1.04099778E+02
 11
-1.18250040E+02
 21
-1.11173376E+02
  0
LINE
  8
0
 62
4
 10
-1.16250040E+02
 20
-7.86739326E+01
 11
-1.16250040E+02
 21
-1.08385434E+02
  0
LINE
  8
0
 62
4
 10
-1.18250040E+02
 20
-1.10341729E+02
 11
-9.92500403E+01
 21
-1.10341729E+02
  0
LINE
  8
0
 62
4
 10
-1.19250040E+02
 20
-1.13618745E+02
 11
-8.32500403E+01
 21
-1.13618745E+02
  0
LINE
  8
0
 62
4
 10
-9.92500403E+01
 20
-9.17569247E+01
 11
-1.01250040E+02
 21
-9.17569247E+01
  0
ARC
  8
0
 62
4
 10
-8.32505441E+01
 20
-9.21088579E+01
 40
1.50050386E+00
 50
1.92364101E-02
 51
8.99807637E+01
  0
ARC
  8
0
 62
4
 10
-1.25250540E+02
 20
-1.03600278E+02
 40
4.99500622E-01
 50
1.79942690E+02
 51
2.70057311E+02
  0
LINE
  8
0
 62
4
 10
1.82861705E+02
 20
-1.96306195E+02
 11
1.83221705E+02
 21
-1.97284343E+02
  0
LINE
  8
0
 62
4
 10
1.76581705E+02
 20
-1.96306195E+02
 11
1.76221705E+02
 21
-1.97284343E+02
  0
POLYLINE
  8
0
 62
4
 66
1
  0
VERTEX
  8
0
 62
4
 10
1.76262454E+02
 20
-1.97173625E+02
  0
VERTEX
  8
0
 62
4
 10
1.76228805E+02
 20
-1.97238015E+02
  0
VERTEX
  8
0
 62
4
 10
1.76222828E+02
 20
-1.97302773E+02
  0
VERTEX
  8
0
 62
4
 10
1.76244569E+02
 20
-1.97367384E+02
  0
VERTEX
  8
0
 62
4
 10
1.76293857E+02
 20
-1.97431338E+02
  0
VERTEX
  8
0
 62
4
 10
1.76370301E+02
 20
-1.97494127E+02
  0
VERTEX
  8
0
 62
4
 10
1.76473295E+02
 20
-1.97555254E+02
  0
VERTEX
  8
0
 62
4
 10
1.76602024E+02
 20
-1.97614235E+02
  0
VERTEX
  8
0
 62
4
 10
1.76755468E+02
 20
-1.97670602E+02
  0
VERTEX
  8
0
 62
4
 10
1.76932411E+02
 20
-1.97723910E+02
  0
VERTEX
  8
0
 62
4
 10
1.77131451E+02
 20
-1.97773735E+02
  0
VERTEX
  8
0
 62
4
 10
1.77351011E+02
 20
-1.97819683E+02
  0
VERTEX
  8
0
 62
4
 10
1.77589353E+02
 20
-1.97861390E+02
  0
VERTEX
  8
0
 62
4
 10
1.77844587E+02
 20
-1.97898525E+02
  0
VERTEX
  8
0
 62
4
 10
1.78114693E+02
 20
-1.97930795E+02
  0
VERTEX
  8
0
 62
4
 10
1.78397529E+02
 20
-1.97957943E+02
  0
VERTEX
  8
0
 62
4
 10
1.78690856E+02
 20
-1.97979756E+02
  0
VERTEX
  8
0
 62
4
 10
1.78992350E+02
 20
-1.97996058E+02
  0
VERTEX
  8
0
 62
4
 10
1.79299621E+02
 20
-1.98006723E+02
  0
VERTEX
  8
0
 62
4
 10
1.79610237E+02
 20
-1.98011665E+02
  0
VERTEX
  8
0
 62
4
 10
1.79921735E+02
 20
-1.98010845E+02
  0
VERTEX
  8
0
 62
4
 10
1.80231649E+02
 20
-1.98004269E+02
  0
VERTEX
  8
0
 62
4
 10
1.80537523E+02
 20
-1.97991990E+02
  0
VERTEX
  8
0
 62
4
 10
1.80836934E+02
 20
-1.97974104E+02
  0
VERTEX
  8
0
 62
4
 10
1.81127509E+02
 20
-1.97950755E+02
  0
VERTEX
  8
0
 62
4
 10
1.81406948E+02
 20
-1.97922126E+02
  0
VERTEX
  8
0
 62
4
 10
1.81673036E+02
 20
-1.97888444E+02
  0
VERTEX
  8
0
 62
4
 10
1.81923665E+02
 20
-1.97849976E+02
  0
VERTEX
  8
0
 62
4
 10
1.82156850E+02
 20
-1.97807028E+02
  0
VERTEX
  8
0
 62
4
 10
1.82370743E+02
 20
-1.97759938E+02
  0
VERTEX
  8
0
 62
4
 10
1.82563650E+02
 20
-1.97709081E+02
  0
VERTEX
  8
0
 62
4
 10
1.82734042E+02
 20
-1.97654859E+02
  0
VERTEX
  8
0
 62
4
 10
1.82880570E+02
 20
-1.97597702E+02
  0
VERTEX
  8
0
 62
4
 10
1.83002073E+02
 20
-1.97538062E+02
  0
VERTEX
  8
0
 62
4
 10
1.83097589E+02
 20
-1.97476412E+02
  0
VERTEX
  8
0
 62
4
 10
1.83166359E+02
 20
-1.97413241E+02
  0
VERTEX
  8
0
 62
4
 10
1.83207841E+02
 20
-1.97349048E+02
  0
VERTEX
  8
0
 62
4
 10
1.83221705E+02
 20
-1.97284343E+02
  0
SEQEND
  8
0
  0
POLYLINE
  8
0
 62
4
 66
1
  0
VERTEX
  8
0
 62
4
 10
1.82861705E+02
 20
-1.96306195E+02
  0
VERTEX
  8
0
 62
4
 10
1.82849756E+02
 20
-1.96249296E+02
  0
VERTEX
  8
0
 62
4
 10
1.82814001E+02
 20
-1.96192830E+02
  0
VERTEX
  8
0
 62
4
 10
1.82754712E+02
 20
-1.96137227E+02
  0
VERTEX
  8
0
 62
4
 10
1.82672340E+02
 20
-1.96082910E+02
  0
VERTEX
  8
0
 62
4
 10
1.82567511E+02
 20
-1.96030292E+02
  0
VERTEX
  8
0
 62
4
 10
1.82441025E+02
 20
-1.95979774E+02
  0
VERTEX
  8
0
 62
4
 10
1.82293842E+02
 20
-1.95931740E+02
  0
VERTEX
  8
0
 62
4
 10
1.82127085E+02
 20
-1.95886556E+02
  0
VERTEX
  8
0
 62
4
 10
1.81942020E+02
 20
-1.95844565E+02
  0
VERTEX
  8
0
 62
4
 10
1.81740058E+02
 20
-1.95806088E+02
  0
VERTEX
  8
0
 62
4
 10
1.81522735E+02
 20
-1.95771418E+02
  0
VERTEX
  8
0
 62
4
 10
1.81291705E+02
 20
-1.95740817E+02
  0
VERTEX
  8
0
 62
4
 10
1.81048726E+02
 20
-1.95714519E+02
  0
VERTEX
  8
0
 62
4
 10
1.80795648E+02
 20
-1.95692724E+02
  0
VERTEX
  8
0
 62
4
 10
1.80534397E+02
 20
-1.95675597E+02
  0
VERTEX
  8
0
 62
4
 10
1.80266960E+02
 20
-1.95663270E+02
  0
VERTEX
  8
0
 62
4
 10
1.79995374E+02
 20
-1.95655837E+02
  0
VERTEX
  8
0
 62
4
 10
1.79721705E+02
 20
-1.95653352E+02
  0
VERTEX
  8
0
 62
4
 10
1.79448036E+02
 20
-1.95655837E+02
  0
VERTEX
  8
0
 62
4
 10
1.79176450E+02
 20
-1.95663270E+02
  0
VERTEX
  8
0
 62
4
 10
1.78909013E+02
 20
-1.95675597E+02
  0
VERTEX
  8
0
 62
4
 10
1.78647762E+02
 20
-1.95692724E+02
  0
VERTEX
  8
0
 62
4
 10
1.78394684E+02
 20
-1.95714519E+02
  0
VERTEX
  8
0
 62
4
 10
1.78151705E+02
 20
-1.95740817E+02
  0
VERTEX
  8
0
 62
4
 10
1.77920675E+02
 20
-1.95771418E+02
  0
VERTEX
  8
0
 62
4
 10
1.77703352E+02
 20
-1.95806088E+02
  0
VERTEX
  8
0
 62
4
 10
1.77501390E+02
 20
-1.95844565E+02
  0
VERTEX
  8
0
 62
4
 10
1.77316325E+02
 20
-1.95886556E+02
  0
VERTEX
  8
0
 62
4
 10
1.77149568E+02
 20
-1.95931740E+02
  0
VERTEX
  8
0
 62
4
 10
1.77002385E+02
 20
-1.95979774E+02
  0
VERTEX
  8
0
 62
4
 10
1.76875899E+02
 20
-1.96030292E+02
  0
VERTEX
  8
0
 62
4
 10
1.76771070E+02
 20
-1.96082910E+02
  0
VERTEX
  8
0
 62
4
 10
1.76688698E+02
 20
-1.96137227E+02
  0
VERTEX
  8
0
 62
4
 10
1.76629409E+02
 20
-1.96192830E+02
  0
VERTEX
  8
0
 62
4
 10
1.76593654E+02
 20
-1.96249296E+02
  0
VERTEX
  8
0
 62
4
 10
1.76581705E+02
 20
-1.96306195E+02
  0
VERTEX
  8
0
 62
4
 10
1.76593654E+02
 20
-1.96363094E+02
  0
VERTEX
  8
0
 62
4
 10
1.76629409E+02
 20
-1.96419560E+02
  0
VERTEX
  8
0
 62
4
 10
1.76688698E+02
 20
-1.96475163E+02
  0
VERTEX
  8
0
 62
4
 10
1.76771070E+02
 20
-1.96529480E+02
  0
VERTEX
  8
0
 62
4
 10
1.76875899E+02
 20
-1.96582098E+02
  0
VERTEX
  8
0
 62
4
 10
1.77002385E+02
 20
-1.96632616E+02
  0
VERTEX
  8
0
 62
4
 10
1.77149568E+02
 20
-1.96680650E+02
  0
VERTEX
  8
0
 62
4
 10
1.77316325E+02
 20
-1.96725834E+02
  0
VERTEX
  8
0
 62
4
 10
1.77501390E+02
 20
-1.96767825E+02
  0
VERTEX
  8
0
 62
4
 10
1.77703352E+02
 20
-1.96806302E+02
  0
VERTEX
  8
0
 62
4
 10
1.77920675E+02
 20
-1.96840972E+02
  0
VERTEX
  8
0
 62
4
 10
1.78151705E+02
 20
-1.96871573E+02
  0
VERTEX
  8
0
 62
4
 10
1.78394684E+02
 20
-1.96897871E+02
  0
VERTEX
  8
0
 62
4
 10
1.78647762E+02
 20
-1.96919666E+02
  0
VERTEX
  8
0
 62
4
 10
1.78909013E+02
 20
-1.96936793E+02
  0
VERTEX
  8
0
 62
4
 10
1.79176450E+02
 20
-1.96949120E+02
  0
VERTEX
  8
0
 62
4
 10
1.79448036E+02
 20
-1.96956553E+02
  0
VERTEX
  8
0
 62
4
 10
1.79721705E+02
 20
-1.96959038E+02
  0
VERTEX
  8
0
 62
4
 10
1.79995374E+02
 20
-1.96956553E+02
  0
VERTEX
  8
0
 62
4
 10
1.80266960E+02
 20
-1.96949120E+02
  0
VERTEX
  8
0
 62
4
 10
1.80534397E+02
 20
-1.96936793E+02
  0
VERTEX
  8
0
 62
4
 10
1.80795648E+02
 20
-1.96919666E+02
  0
VERTEX
  8
0
 62
4
 10
1.81048726E+02
 20
-1.96897871E+02
  0
VERTEX
  8
0
 62
4
 10
1.81291705E+02
 20
-1.96871573E+02
  0
VERTEX
  8
0
 62
4
 10
1.81522735E+02
 20
-1.96840972E+02
  0
VERTEX
  8
0
 62
4
 10
1.81740058E+02
 20
-1.96806302E+02
  0
VERTEX
  8
0
 62
4
 10
1.81942020E+02
 20
-1.96767825E+02
  0
VERTEX
  8
0
 62
4
 10
1.82127085E+02
 20
-1.96725834E+02
  0
VERTEX
  8
0
 62
4
 10
1.82293842E+02
 20
-1.96680650E+02
  0
VERTEX
  8
0
 62
4
 10
1.82441025E+02
 20
-1.96632616E+02
  0
VERTEX
  8
0
 62
4
 10
1.82567511E+02
 20
-1.96582098E+02
  0
VERTEX
  8
0
 62
4
 10
1.82672340E+02
 20
-1.96529480E+02
  0
VERTEX
  8
0
 62
4
 10
1.82754712E+02
 20
-1.96475163E+02
  0
VERTEX
  8
0
 62
4
 10
1.82814001E+02
 20
-1.96419560E+02
  0
VERTEX
  8
0
 62
4
 10
1.82849756E+02
 20
-1.96363094E+02
  0
VERTEX
  8
0
 62
4
 10
1.82861705E+02
 20
-1.96306195E+02
  0
SEQEND
  8
0
  0
LINE
  8
0
  6
CENTER
 62
6
 10
1.79721705E+02
 20
-1.94223230E+02
 11
1.79721705E+02
 21
-1.96306195E+02
  0
LINE
  8
0
 62
4
 10
1.88221705E+02
 20
-1.95254367E+02
 11
1.70221705E+02
 21
-1.95254367E+02
  0
ARC
  8
0
 62
4
 10
2.06222205E+02
 20
-2.00759004E+02
 40
1.49950029E+00
 50
3.59980903E+02
 51
9.00190969E+01
  0
LINE
  8
0
 62
4
 10
2.06221705E+02
 20
-1.99259504E+02
 11
1.70221705E+02
 21
-1.99259504E+02
  0
ARC
  8
0
 62
4
 10
1.70221205E+02
 20
-2.00759004E+02
 40
1.49950029E+00
 50
8.99809029E+01
 51
1.80019097E+02
  0
LINE
  8
0
 62
4
 10
2.04721705E+02
 20
-2.17740352E+02
 11
2.07721705E+02
 21
-2.14451497E+02
  0
LINE
  8
0
 62
4
 10
1.71721705E+02
 20
-2.17740352E+02
 11
1.68721705E+02
 21
-2.14451497E+02
  0
LINE
  8
0
 62
4
 10
1.88221705E+02
 20
-2.17740352E+02
 11
1.71721705E+02
 21
-2.17740352E+02
  0
LINE
  8
0
 62
4
 10
2.04721705E+02
 20
-2.17740352E+02
 11
2.03221705E+02
 21
-2.17740352E+02
  0
POLYLINE
  8
0
 62
6
 66
1
  0
VERTEX
  8
0
 62
6
 10
2.01221705E+02
 20
-2.25935988E+02
  0
VERTEX
  8
0
 62
6
 10
2.01215997E+02
 20
-2.25808111E+02
  0
VERTEX
  8
0
 62
6
 10
2.01198917E+02
 20
-2.25681208E+02
  0
VERTEX
  8
0
 62
6
 10
2.01170594E+02
 20
-2.25556243E+02
  0
VERTEX
  8
0
 62
6
 10
2.01131244E+02
 20
-2.25434169E+02
  0
VERTEX
  8
0
 62
6
 10
2.01081167E+02
 20
-2.25315913E+02
  0
VERTEX
  8
0
 62
6
 10
2.01020743E+02
 20
-2.25202377E+02
  0
VERTEX
  8
0
 62
6
 10
2.00950433E+02
 20
-2.25094424E+02
  0
VERTEX
  8
0
 62
6
 10
2.00870772E+02
 20
-2.24992876E+02
  0
VERTEX
  8
0
 62
6
 10
2.00782365E+02
 20
-2.24898506E+02
  0
VERTEX
  8
0
 62
6
 10
2.00685886E+02
 20
-2.24812031E+02
  0
VERTEX
  8
0
 62
6
 10
2.00582070E+02
 20
-2.24734111E+02
  0
VERTEX
  8
0
 62
6
 10
2.00471705E+02
 20
-2.24665337E+02
  0
VERTEX
  8
0
 62
6
 10
2.00355632E+02
 20
-2.24606234E+02
  0
VERTEX
  8
0
 62
6
 10
2.00234735E+02
 20
-2.24557251E+02
  0
VERTEX
  8
0
 62
6
 10
2.00109934E+02
 20
-2.24518761E+02
  0
VERTEX
  8
0
 62
6
 10
1.99982177E+02
 20
-2.24491057E+02
  0
VERTEX
  8
0
 62
6
 10
1.99852439E+02
 20
-2.24474350E+02
  0
VERTEX
  8
0
 62
6
 10
1.99721705E+02
 20
-2.24468767E+02
  0
VERTEX
  8
0
 62
6
 10
1.99590971E+02
 20
-2.24474350E+02
  0
VERTEX
  8
0
 62
6
 10
1.99461233E+02
 20
-2.24491057E+02
  0
VERTEX
  8
0
 62
6
 10
1.99333476E+02
 20
-2.24518761E+02
  0
VERTEX
  8
0
 62
6
 10
1.99208675E+02
 20
-2.24557251E+02
  0
VERTEX
  8
0
 62
6
 10
1.99087778E+02
 20
-2.24606234E+02
  0
VERTEX
  8
0
 62
6
 10
1.98971705E+02
 20
-2.24665337E+02
  0
VERTEX
  8
0
 62
6
 10
1.98861340E+02
 20
-2.24734111E+02
  0
VERTEX
  8
0
 62
6
 10
1.98757524E+02
 20
-2.24812031E+02
  0
VERTEX
  8
0
 62
6
 10
1.98661045E+02
 20
-2.24898506E+02
  0
VERTEX
  8
0
 62
6
 10
1.98572638E+02
 20
-2.24992876E+02
  0
VERTEX
  8
0
 62
6
 10
1.98492977E+02
 20
-2.25094424E+02
  0
VERTEX
  8
0
 62
6
 10
1.98422667E+02
 20
-2.25202377E+02
  0
VERTEX
  8
0
 62
6
 10
1.98362243E+02
 20
-2.25315913E+02
  0
VERTEX
  8
0
 62
6
 10
1.98312166E+02
 20
-2.25434169E+02
  0
VERTEX
  8
0
 62
6
 10
1.98272816E+02
 20
-2.25556243E+02
  0
VERTEX
  8
0
 62
6
 10
1.98244493E+02
 20
-2.25681208E+02
  0
VERTEX
  8
0
 62
6
 10
1.98227413E+02
 20
-2.25808111E+02
  0
VERTEX
  8
0
 62
6
 10
1.98221705E+02
 20
-2.25935988E+02
  0
VERTEX
  8
0
 62
6
 10
1.98227413E+02
 20
-2.26063865E+02
  0
VERTEX
  8
0
 62
6
 10
1.98244493E+02
 20
-2.26190768E+02
  0
VERTEX
  8
0
 62
6
 10
1.98272816E+02
 20
-2.26315733E+02
  0
VERTEX
  8
0
 62
6
 10
1.98312166E+02
 20
-2.26437807E+02
  0
VERTEX
  8
0
 62
6
 10
1.98362243E+02
 20
-2.26556063E+02
  0
VERTEX
  8
0
 62
6
 10
1.98422667E+02
 20
-2.26669599E+02
  0
VERTEX
  8
0
 62
6
 10
1.98492977E+02
 20
-2.26777552E+02
  0
VERTEX
  8
0
 62
6
 10
1.98572638E+02
 20
-2.26879100E+02
  0
VERTEX
  8
0
 62
6
 10
1.98661045E+02
 20
-2.26973470E+02
  0
VERTEX
  8
0
 62
6
 10
1.98757524E+02
 20
-2.27059945E+02
  0
VERTEX
  8
0
 62
6
 10
1.98861340E+02
 20
-2.27137865E+02
  0
VERTEX
  8
0
 62
6
 10
1.98971705E+02
 20
-2.27206639E+02
  0
VERTEX
  8
0
 62
6
 10
1.99087778E+02
 20
-2.27265742E+02
  0
VERTEX
  8
0
 62
6
 10
1.99208675E+02
 20
-2.27314725E+02
  0
VERTEX
  8
0
 62
6
 10
1.99333476E+02
 20
-2.27353215E+02
  0
VERTEX
  8
0
 62
6
 10
1.99461233E+02
 20
-2.27380919E+02
  0
VERTEX
  8
0
 62
6
 10
1.99590971E+02
 20
-2.27397626E+02
  0
VERTEX
  8
0
 62
6
 10
1.99721705E+02
 20
-2.27403209E+02
  0
VERTEX
  8
0
 62
6
 10
1.99852439E+02
 20
-2.27397626E+02
  0
VERTEX
  8
0
 62
6
 10
1.99982177E+02
 20
-2.27380919E+02
  0
VERTEX
  8
0
 62
6
 10
2.00109934E+02
 20
-2.27353215E+02
  0
VERTEX
  8
0
 62
6
 10
2.00234735E+02
 20
-2.27314725E+02
  0
VERTEX
  8
0
 62
6
 10
2.00355632E+02
 20
-2.27265742E+02
  0
VERTEX
  8
0
 62
6
 10
2.00471705E+02
 20
-2.27206639E+02
  0
VERTEX
  8
0
 62
6
 10
2.00582070E+02
 20
-2.27137865E+02
  0
VERTEX
  8
0
 62
6
 10
2.00685886E+02
 20
-2.27059945E+02
  0
VERTEX
  8
0
 62
6
 10
2.00782365E+02
 20
-2.26973470E+02
  0
VERTEX
  8
0
 62
6
 10
2.00870772E+02
 20
-2.26879100E+02
  0
VERTEX
  8
0
 62
6
 10
2.00950433E+02
 20
-2.26777552E+02
  0
VERTEX
  8
0
 62
6
 10
2.01020743E+02
 20
-2.26669599E+02
  0
VERTEX
  8
0
 62
6
 10
2.01081167E+02
 20
-2.26556063E+02
  0
VERTEX
  8
0
 62
6
 10
2.01131244E+02
 20
-2.26437807E+02
  0
VERTEX
  8
0
 62
6
 10
2.01170594E+02
 20
-2.26315733E+02
  0
VERTEX
  8
0
 62
6
 10
2.01198917E+02
 20
-2.26190768E+02
  0
VERTEX
  8
0
 62
6
 10
2.01215997E+02
 20
-2.26063865E+02
  0
VERTEX
  8
0
 62
6
 10
2.01221705E+02
 20
-2.25935988E+02
  0
SEQEND
  8
0
  0
POLYLINE
  8
0
 62
4
 66
1
  0
VERTEX
  8
0
 62
4
 10
2.01456705E+02
 20
-2.25940878E+02
  0
VERTEX
  8
0
 62
4
 10
2.01450103E+02
 20
-2.25792967E+02
  0
VERTEX
  8
0
 62
4
 10
2.01430346E+02
 20
-2.25646182E+02
  0
VERTEX
  8
0
 62
4
 10
2.01397586E+02
 20
-2.25501640E+02
  0
VERTEX
  8
0
 62
4
 10
2.01352072E+02
 20
-2.25360440E+02
  0
VERTEX
  8
0
 62
4
 10
2.01294149E+02
 20
-2.25223658E+02
  0
VERTEX
  8
0
 62
4
 10
2.01224259E+02
 20
-2.25092335E+02
  0
VERTEX
  8
0
 62
4
 10
2.01142934E+02
 20
-2.24967469E+02
  0
VERTEX
  8
0
 62
4
 10
2.01050792E+02
 20
-2.24850012E+02
  0
VERTEX
  8
0
 62
4
 10
2.00948535E+02
 20
-2.24740857E+02
  0
VERTEX
  8
0
 62
4
 10
2.00836942E+02
 20
-2.24640835E+02
  0
VERTEX
  8
0
 62
4
 10
2.00716860E+02
 20
-2.24550706E+02
  0
VERTEX
  8
0
 62
4
 10
2.00589205E+02
 20
-2.24471158E+02
  0
VERTEX
  8
0
 62
4
 10
2.00454948E+02
 20
-2.24402796E+02
  0
VERTEX
  8
0
 62
4
 10
2.00315110E+02
 20
-2.24346139E+02
  0
VERTEX
  8
0
 62
4
 10
2.00170756E+02
 20
-2.24301619E+02
  0
VERTEX
  8
0
 62
4
 10
2.00022985E+02
 20
-2.24269574E+02
  0
VERTEX
  8
0
 62
4
 10
1.99872920E+02
 20
-2.24250250E+02
  0
VERTEX
  8
0
 62
4
 10
1.99721705E+02
 20
-2.24243792E+02
  0
VERTEX
  8
0
 62
4
 10
1.99570490E+02
 20
-2.24250250E+02
  0
VERTEX
  8
0
 62
4
 10
1.99420425E+02
 20
-2.24269574E+02
  0
VERTEX
  8
0
 62
4
 10
1.99272654E+02
 20
-2.24301619E+02
  0
VERTEX
  8
0
 62
4
 10
1.99128300E+02
 20
-2.24346139E+02
  0
VERTEX
  8
0
 62
4
 10
1.98988462E+02
 20
-2.24402796E+02
  0
VERTEX
  8
0
 62
4
 10
1.98854205E+02
 20
-2.24471158E+02
  0
VERTEX
  8
0
 62
4
 10
1.98726550E+02
 20
-2.24550706E+02
  0
VERTEX
  8
0
 62
4
 10
1.98606468E+02
 20
-2.24640835E+02
  0
VERTEX
  8
0
 62
4
 10
1.98494875E+02
 20
-2.24740857E+02
  0
VERTEX
  8
0
 62
4
 10
1.98392618E+02
 20
-2.24850012E+02
  0
VERTEX
  8
0
 62
4
 10
1.98300476E+02
 20
-2.24967469E+02
  0
VERTEX
  8
0
 62
4
 10
1.98219151E+02
 20
-2.25092335E+02
  0
VERTEX
  8
0
 62
4
 10
1.98149261E+02
 20
-2.25223658E+02
  0
VERTEX
  8
0
 62
4
 10
1.98091338E+02
 20
-2.25360440E+02
  0
VERTEX
  8
0
 62
4
 10
1.98045824E+02
 20
-2.25501640E+02
  0
VERTEX
  8
0
 62
4
 10
1.98013064E+02
 20
-2.25646182E+02
  0
VERTEX
  8
0
 62
4
 10
1.97993307E+02
 20
-2.25792967E+02
  0
VERTEX
  8
0
 62
4
 10
1.97986705E+02
 20
-2.25940878E+02
  0
VERTEX
  8
0
 62
4
 10
1.97993307E+02
 20
-2.26088789E+02
  0
VERTEX
  8
0
 62
4
 10
1.98013064E+02
 20
-2.26235574E+02
  0
VERTEX
  8
0
 62
4
 10
1.98045824E+02
 20
-2.26380116E+02
  0
VERTEX
  8
0
 62
4
 10
1.98091338E+02
 20
-2.26521316E+02
  0
VERTEX
  8
0
 62
4
 10
1.98149261E+02
 20
-2.26658098E+02
  0
VERTEX
  8
0
 62
4
 10
1.98219151E+02
 20
-2.26789421E+02
  0
VERTEX
  8
0
 62
4
 10
1.98300476E+02
 20
-2.26914287E+02
  0
VERTEX
  8
0
 62
4
 10
1.98392618E+02
 20
-2.27031744E+02
  0
VERTEX
  8
0
 62
4
 10
1.98494875E+02
 20
-2.27140899E+02
  0
VERTEX
  8
0
 62
4
 10
1.98606468E+02
 20
-2.27240921E+02
  0
VERTEX
  8
0
 62
4
 10
1.98726550E+02
 20
-2.27331050E+02
  0
VERTEX
  8
0
 62
4
 10
1.98854205E+02
 20
-2.27410598E+02
  0
VERTEX
  8
0
 62
4
 10
1.98988462E+02
 20
-2.27478960E+02
  0
VERTEX
  8
0
 62
4
 10
1.99128300E+02
 20
-2.27535617E+02
  0
VERTEX
  8
0
 62
4
 10
1.99272654E+02
 20
-2.27580137E+02
  0
VERTEX
  8
0
 62
4
 10
1.99420425E+02
 20
-2.27612182E+02
  0
VERTEX
  8
0
 62
4
 10
1.99570490E+02
 20
-2.27631506E+02
  0
VERTEX
  8
0
 62
4
 10
1.99721705E+02
 20
-2.27637964E+02
  0
VERTEX
  8
0
 62
4
 10
1.99872920E+02
 20
-2.27631506E+02
  0
VERTEX
  8
0
 62
4
 10
2.00022985E+02
 20
-2.27612182E+02
  0
VERTEX
  8
0
 62
4
 10
2.00170756E+02
 20
-2.27580137E+02
  0
VERTEX
  8
0
 62
4
 10
2.00315110E+02
 20
-2.27535617E+02
  0
VERTEX
  8
0
 62
4
 10
2.00454948E+02
 20
-2.27478960E+02
  0
VERTEX
  8
0
 62
4
 10
2.00589205E+02
 20
-2.27410598E+02
  0
VERTEX
  8
0
 62
4
 10
2.00716860E+02
 20
-2.27331050E+02
  0
VERTEX
  8
0
 62
4
 10
2.00836942E+02
 20
-2.27240921E+02
  0
VERTEX
  8
0
 62
4
 10
2.00948535E+02
 20
-2.27140899E+02
  0
VERTEX
  8
0
 62
4
 10
2.01050792E+02
 20
-2.27031744E+02
  0
VERTEX
  8
0
 62
4
 10
2.01142934E+02
 20
-2.26914287E+02
  0
VERTEX
  8
0
 62
4
 10
2.01224259E+02
 20
-2.26789421E+02
  0
VERTEX
  8
0
 62
4
 10
2.01294149E+02
 20
-2.26658098E+02
  0
VERTEX
  8
0
 62
4
 10
2.01352072E+02
 20
-2.26521316E+02
  0
VERTEX
  8
0
 62
4
 10
2.01397586E+02
 20
-2.26380116E+02
  0
VERTEX
  8
0
 62
4
 10
2.01430346E+02
 20
-2.26235574E+02
  0
VERTEX
  8
0
 62
4
 10
2.01450103E+02
 20
-2.26088789E+02
  0
VERTEX
  8
0
 62
4
 10
2.01456705E+02
 20
-2.25940878E+02
  0
SEQEND
  8
0
  0
POLYLINE
  8
0
 62
4
 66
1
  0
VERTEX
  8
0
 62
4
 10
1.99721705E+02
 20
-2.27684371E+02
  0
VERTEX
  8
0
 62
4
 10
1.99896016E+02
 20
-2.27676488E+02
  0
VERTEX
  8
0
 62
4
 10
2.00069001E+02
 20
-2.27652897E+02
  0
VERTEX
  8
0
 62
4
 10
2.00239343E+02
 20
-2.27613779E+02
  0
VERTEX
  8
0
 62
4
 10
2.00405745E+02
 20
-2.27559431E+02
  0
VERTEX
  8
0
 62
4
 10
2.00566942E+02
 20
-2.27490267E+02
  0
VERTEX
  8
0
 62
4
 10
2.00721705E+02
 20
-2.27406814E+02
  0
VERTEX
  8
0
 62
4
 10
2.00868858E+02
 20
-2.27309705E+02
  0
VERTEX
  8
0
 62
4
 10
2.01007280E+02
 20
-2.27199681E+02
  0
VERTEX
  8
0
 62
4
 10
2.01135919E+02
 20
-2.27077579E+02
  0
VERTEX
  8
0
 62
4
 10
2.01253794E+02
 20
-2.26944328E+02
  0
VERTEX
  8
0
 62
4
 10
2.01360009E+02
 20
-2.26800942E+02
  0
VERTEX
  8
0
 62
4
 10
2.01453756E+02
 20
-2.26648512E+02
  0
VERTEX
  8
0
 62
4
 10
2.01534321E+02
 20
-2.26488199E+02
  0
VERTEX
  8
0
 62
4
 10
2.01601090E+02
 20
-2.26321222E+02
  0
VERTEX
  8
0
 62
4
 10
2.01653557E+02
 20
-2.26148853E+02
  0
VERTEX
  8
0
 62
4
 10
2.01691321E+02
 20
-2.25972403E+02
  0
VERTEX
  8
0
 62
4
 10
2.01714094E+02
 20
-2.25793215E+02
  0
VERTEX
  8
0
 62
4
 10
2.01721705E+02
 20
-2.25612653E+02
  0
VERTEX
  8
0
 62
4
 10
2.01714094E+02
 20
-2.25432091E+02
  0
VERTEX
  8
0
 62
4
 10
2.01691321E+02
 20
-2.25252903E+02
  0
VERTEX
  8
0
 62
4
 10
2.01653557E+02
 20
-2.25076453E+02
  0
VERTEX
  8
0
 62
4
 10
2.01601090E+02
 20
-2.24904084E+02
  0
VERTEX
  8
0
 62
4
 10
2.01534321E+02
 20
-2.24737107E+02
  0
VERTEX
  8
0
 62
4
 10
2.01453756E+02
 20
-2.24576794E+02
  0
VERTEX
  8
0
 62
4
 10
2.01360009E+02
 20
-2.24424364E+02
  0
VERTEX
  8
0
 62
4
 10
2.01253794E+02
 20
-2.24280978E+02
  0
VERTEX
  8
0
 62
4
 10
2.01135919E+02
 20
-2.24147727E+02
  0
VERTEX
  8
0
 62
4
 10
2.01007280E+02
 20
-2.24025625E+02
  0
VERTEX
  8
0
 62
4
 10
2.00868858E+02
 20
-2.23915601E+02
  0
VERTEX
  8
0
 62
4
 10
2.00721705E+02
 20
-2.23818492E+02
  0
VERTEX
  8
0
 62
4
 10
2.00566942E+02
 20
-2.23735039E+02
  0
VERTEX
  8
0
 62
4
 10
2.00405745E+02
 20
-2.23665875E+02
  0
VERTEX
  8
0
 62
4
 10
2.00239343E+02
 20
-2.23611527E+02
  0
VERTEX
  8
0
 62
4
 10
2.00069001E+02
 20
-2.23572409E+02
  0
VERTEX
  8
0
 62
4
 10
1.99896016E+02
 20
-2.23548818E+02
  0
VERTEX
  8
0
 62
4
 10
1.99721705E+02
 20
-2.23540935E+02
  0
VERTEX
  8
0
 62
4
 10
1.99547394E+02
 20
-2.23548818E+02
  0
VERTEX
  8
0
 62
4
 10
1.99374409E+02
 20
-2.23572409E+02
  0
VERTEX
  8
0
 62
4
 10
1.99204067E+02
 20
-2.23611527E+02
  0
VERTEX
  8
0
 62
4
 10
1.99037665E+02
 20
-2.23665875E+02
  0
VERTEX
  8
0
 62
4
 10
1.98876468E+02
 20
-2.23735039E+02
  0
VERTEX
  8
0
 62
4
 10
1.98721705E+02
 20
-2.23818492E+02
  0
VERTEX
  8
0
 62
4
 10
1.98574552E+02
 20
-2.23915601E+02
  0
VERTEX
  8
0
 62
4
 10
1.98436130E+02
 20
-2.24025625E+02
  0
VERTEX
  8
0
 62
4
 10
1.98307491E+02
 20
-2.24147727E+02
  0
VERTEX
  8
0
 62
4
 10
1.98189616E+02
 20
-2.24280978E+02
  0
VERTEX
  8
0
 62
4
 10
1.98083401E+02
 20
-2.24424364E+02
  0
VERTEX
  8
0
 62
4
 10
1.97989654E+02
 20
-2.24576794E+02
  0
VERTEX
  8
0
 62
4
 10
1.97909089E+02
 20
-2.24737107E+02
  0
VERTEX
  8
0
 62
4
 10
1.97842320E+02
 20
-2.24904084E+02
  0
VERTEX
  8
0
 62
4
 10
1.97789853E+02
 20
-2.25076453E+02
  0
VERTEX
  8
0
 62
4
 10
1.97752089E+02
 20
-2.25252903E+02
  0
VERTEX
  8
0
 62
4
 10
1.97729316E+02
 20
-2.25432091E+02
  0
VERTEX
  8
0
 62
4
 10
1.97721705E+02
 20
-2.25612653E+02
  0
VERTEX
  8
0
 62
4
 10
1.97729316E+02
 20
-2.25793215E+02
  0
VERTEX
  8
0
 62
4
 10
1.97752089E+02
 20
-2.25972403E+02
  0
VERTEX
  8
0
 62
4
 10
1.97789853E+02
 20
-2.26148853E+02
  0
VERTEX
  8
0
 62
4
 10
1.97842320E+02
 20
-2.26321222E+02
  0
VERTEX
  8
0
 62
4
 10
1.97909089E+02
 20
-2.26488199E+02
  0
VERTEX
  8
0
 62
4
 10
1.97989654E+02
 20
-2.26648512E+02
  0
VERTEX
  8
0
 62
4
 10
1.98083401E+02
 20
-2.26800942E+02
  0
VERTEX
  8
0
 62
4
 10
1.98189616E+02
 20
-2.26944328E+02
  0
VERTEX
  8
0
 62
4
 10
1.98307491E+02
 20
-2.27077579E+02
  0
VERTEX
  8
0
 62
4
 10
1.98436130E+02
 20
-2.27199681E+02
  0
VERTEX
  8
0
 62
4
 10
1.98574552E+02
 20
-2.27309705E+02
  0
VERTEX
  8
0
 62
4
 10
1.98721705E+02
 20
-2.27406814E+02
  0
VERTEX
  8
0
 62
4
 10
1.98876468E+02
 20
-2.27490267E+02
  0
VERTEX
  8
0
 62
4
 10
1.99037665E+02
 20
-2.27559431E+02
  0
VERTEX
  8
0
 62
4
 10
1.99204067E+02
 20
-2.27613779E+02
  0
VERTEX
  8
0
 62
4
 10
1.99374409E+02
 20
-2.27652897E+02
  0
VERTEX
  8
0
 62
4
 10
1.99547394E+02
 20
-2.27676488E+02
  0
VERTEX
  8
0
 62
4
 10
1.99721705E+02
 20
-2.27684371E+02
  0
SEQEND
  8
0
  0
LINE
  8
0
  6
CENTER
 62
6
 10
1.99721705E+02
 20
-2.23013720E+02
 11
1.99721705E+02
 21
-2.28858255E+02
  0
LINE
  8
0
  6
CENTER
 62
6
 10
1.88799437E+02
 20
-2.25935988E+02
 11
2.02643972E+02
 21
-2.25935988E+02
  0
POLYLINE
  8
0
 62
6
 66
1
  0
VERTEX
  8
0
 62
6
 10
1.93221705E+02
 20
-2.25935988E+02
  0
VERTEX
  8
0
 62
6
 10
1.93215997E+02
 20
-2.25808111E+02
  0
VERTEX
  8
0
 62
6
 10
1.93198917E+02
 20
-2.25681208E+02
  0
VERTEX
  8
0
 62
6
 10
1.93170594E+02
 20
-2.25556243E+02
  0
VERTEX
  8
0
 62
6
 10
1.93131244E+02
 20
-2.25434169E+02
  0
VERTEX
  8
0
 62
6
 10
1.93081167E+02
 20
-2.25315913E+02
  0
VERTEX
  8
0
 62
6
 10
1.93020743E+02
 20
-2.25202377E+02
  0
VERTEX
  8
0
 62
6
 10
1.92950433E+02
 20
-2.25094424E+02
  0
VERTEX
  8
0
 62
6
 10
1.92870772E+02
 20
-2.24992876E+02
  0
VERTEX
  8
0
 62
6
 10
1.92782365E+02
 20
-2.24898506E+02
  0
VERTEX
  8
0
 62
6
 10
1.92685886E+02
 20
-2.24812031E+02
  0
VERTEX
  8
0
 62
6
 10
1.92582070E+02
 20
-2.24734111E+02
  0
VERTEX
  8
0
 62
6
 10
1.92471705E+02
 20
-2.24665337E+02
  0
VERTEX
  8
0
 62
6
 10
1.92355632E+02
 20
-2.24606234E+02
  0
VERTEX
  8
0
 62
6
 10
1.92234735E+02
 20
-2.24557251E+02
  0
VERTEX
  8
0
 62
6
 10
1.92109934E+02
 20
-2.24518761E+02
  0
VERTEX
  8
0
 62
6
 10
1.91982177E+02
 20
-2.24491057E+02
  0
VERTEX
  8
0
 62
6
 10
1.91852439E+02
 20
-2.24474350E+02
  0
VERTEX
  8
0
 62
6
 10
1.91721705E+02
 20
-2.24468767E+02
  0
VERTEX
  8
0
 62
6
 10
1.91590971E+02
 20
-2.24474350E+02
  0
VERTEX
  8
0
 62
6
 10
1.91461233E+02
 20
-2.24491057E+02
  0
VERTEX
  8
0
 62
6
 10
1.91333476E+02
 20
-2.24518761E+02
  0
VERTEX
  8
0
 62
6
 10
1.91208675E+02
 20
-2.24557251E+02
  0
VERTEX
  8
0
 62
6
 10
1.91087778E+02
 20
-2.24606234E+02
  0
VERTEX
  8
0
 62
6
 10
1.90971705E+02
 20
-2.24665337E+02
  0
VERTEX
  8
0
 62
6
 10
1.90861340E+02
 20
-2.24734111E+02
  0
VERTEX
  8
0
 62
6
 10
1.90757524E+02
 20
-2.24812031E+02
  0
VERTEX
  8
0
 62
6
 10
1.90661045E+02
 20
-2.24898506E+02
  0
VERTEX
  8
0
 62
6
 10
1.90572638E+02
 20
-2.24992876E+02
  0
VERTEX
  8
0
 62
6
 10
1.90492977E+02
 20
-2.25094424E+02
  0
VERTEX
  8
0
 62
6
 10
1.90422667E+02
 20
-2.25202377E+02
  0
VERTEX
  8
0
 62
6
 10
1.90362243E+02
 20
-2.25315913E+02
  0
VERTEX
  8
0
 62
6
 10
1.90312166E+02
 20
-2.25434169E+02
  0
VERTEX
  8
0
 62
6
 10
1.90272816E+02
 20
-2.25556243E+02
  0
VERTEX
  8
0
 62
6
 10
1.90244493E+02
 20
-2.25681208E+02
  0
VERTEX
  8
0
 62
6
 10
1.90227413E+02
 20
-2.25808111E+02
  0
VERTEX
  8
0
 62
6
 10
1.90221705E+02
 20
-2.25935988E+02
  0
VERTEX
  8
0
 62
6
 10
1.90227413E+02
 20
-2.26063865E+02
  0
VERTEX
  8
0
 62
6
 10
1.90244493E+02
 20
-2.26190768E+02
  0
VERTEX
  8
0
 62
6
 10
1.90272816E+02
 20
-2.26315733E+02
  0
VERTEX
  8
0
 62
6
 10
1.90312166E+02
 20
-2.26437807E+02
  0
VERTEX
  8
0
 62
6
 10
1.90362243E+02
 20
-2.26556063E+02
  0
VERTEX
  8
0
 62
6
 10
1.90422667E+02
 20
-2.26669599E+02
  0
VERTEX
  8
0
 62
6
 10
1.90492977E+02
 20
-2.26777552E+02
  0
VERTEX
  8
0
 62
6
 10
1.90572638E+02
 20
-2.26879100E+02
  0
VERTEX
  8
0
 62
6
 10
1.90661045E+02
 20
-2.26973470E+02
  0
VERTEX
  8
0
 62
6
 10
1.90757524E+02
 20
-2.27059945E+02
  0
VERTEX
  8
0
 62
6
 10
1.90861340E+02
 20
-2.27137865E+02
  0
VERTEX
  8
0
 62
6
 10
1.90971705E+02
 20
-2.27206639E+02
  0
VERTEX
  8
0
 62
6
 10
1.91087778E+02
 20
-2.27265742E+02
  0
VERTEX
  8
0
 62
6
 10
1.91208675E+02
 20
-2.27314725E+02
  0
VERTEX
  8
0
 62
6
 10
1.91333476E+02
 20
-2.27353215E+02
  0
VERTEX
  8
0
 62
6
 10
1.91461233E+02
 20
-2.27380919E+02
  0
VERTEX
  8
0
 62
6
 10
1.91590971E+02
 20
-2.27397626E+02
  0
VERTEX
  8
0
 62
6
 10
1.91721705E+02
 20
-2.27403209E+02
  0
VERTEX
  8
0
 62
6
 10
1.91852439E+02
 20
-2.27397626E+02
  0
VERTEX
  8
0
 62
6
 10
1.91982177E+02
 20
-2.27380919E+02
  0
VERTEX
  8
0
 62
6
 10
1.92109934E+02
 20
-2.27353215E+02
  0
VERTEX
  8
0
 62
6
 10
1.92234735E+02
 20
-2.27314725E+02
  0
VERTEX
  8
0
 62
6
 10
1.92355632E+02
 20
-2.27265742E+02
  0
VERTEX
  8
0
 62
6
 10
1.92471705E+02
 20
-2.27206639E+02
  0
VERTEX
  8
0
 62
6
 10
1.92582070E+02
 20
-2.27137865E+02
  0
VERTEX
  8
0
 62
6
 10
1.92685886E+02
 20
-2.27059945E+02
  0
VERTEX
  8
0
 62
6
 10
1.92782365E+02
 20
-2.26973470E+02
  0
VERTEX
  8
0
 62
6
 10
1.92870772E+02
 20
-2.26879100E+02
  0
VERTEX
  8
0
 62
6
 10
1.92950433E+02
 20
-2.26777552E+02
  0
VERTEX
  8
0
 62
6
 10
1.93020743E+02
 20
-2.26669599E+02
  0
VERTEX
  8
0
 62
6
 10
1.93081167E+02
 20
-2.26556063E+02
  0
VERTEX
  8
0
 62
6
 10
1.93131244E+02
 20
-2.26437807E+02
  0
VERTEX
  8
0
 62
6
 10
1.93170594E+02
 20
-2.26315733E+02
  0
VERTEX
  8
0
 62
6
 10
1.93198917E+02
 20
-2.26190768E+02
  0
VERTEX
  8
0
 62
6
 10
1.93215997E+02
 20
-2.26063865E+02
  0
VERTEX
  8
0
 62
6
 10
1.93221705E+02
 20
-2.25935988E+02
  0
SEQEND
  8
0
  0
POLYLINE
  8
0
 62
4
 66
1
  0
VERTEX
  8
0
 62
4
 10
1.93456705E+02
 20
-2.25940878E+02
  0
VERTEX
  8
0
 62
4
 10
1.93450103E+02
 20
-2.25792967E+02
  0
VERTEX
  8
0
 62
4
 10
1.93430346E+02
 20
-2.25646182E+02
  0
VERTEX
  8
0
 62
4
 10
1.93397586E+02
 20
-2.25501640E+02
  0
VERTEX
  8
0
 62
4
 10
1.93352072E+02
 20
-2.25360440E+02
  0
VERTEX
  8
0
 62
4
 10
1.93294149E+02
 20
-2.25223658E+02
  0
VERTEX
  8
0
 62
4
 10
1.93224259E+02
 20
-2.25092335E+02
  0
VERTEX
  8
0
 62
4
 10
1.93142934E+02
 20
-2.24967469E+02
  0
VERTEX
  8
0
 62
4
 10
1.93050792E+02
 20
-2.24850012E+02
  0
VERTEX
  8
0
 62
4
 10
1.92948535E+02
 20
-2.24740857E+02
  0
VERTEX
  8
0
 62
4
 10
1.92836942E+02
 20
-2.24640835E+02
  0
VERTEX
  8
0
 62
4
 10
1.92716860E+02
 20
-2.24550706E+02
  0
VERTEX
  8
0
 62
4
 10
1.92589205E+02
 20
-2.24471158E+02
  0
VERTEX
  8
0
 62
4
 10
1.92454948E+02
 20
-2.24402796E+02
  0
VERTEX
  8
0
 62
4
 10
1.92315110E+02
 20
-2.24346139E+02
  0
VERTEX
  8
0
 62
4
 10
1.92170756E+02
 20
-2.24301619E+02
  0
VERTEX
  8
0
 62
4
 10
1.92022985E+02
 20
-2.24269574E+02
  0
VERTEX
  8
0
 62
4
 10
1.91872920E+02
 20
-2.24250250E+02
  0
VERTEX
  8
0
 62
4
 10
1.91721705E+02
 20
-2.24243792E+02
  0
VERTEX
  8
0
 62
4
 10
1.91570490E+02
 20
-2.24250250E+02
  0
VERTEX
  8
0
 62
4
 10
1.91420425E+02
 20
-2.24269574E+02
  0
VERTEX
  8
0
 62
4
 10
1.91272654E+02
 20
-2.24301619E+02
  0
VERTEX
  8
0
 62
4
 10
1.91128300E+02
 20
-2.24346139E+02
  0
VERTEX
  8
0
 62
4
 10
1.90988462E+02
 20
-2.24402796E+02
  0
VERTEX
  8
0
 62
4
 10
1.90854205E+02
 20
-2.24471158E+02
  0
VERTEX
  8
0
 62
4
 10
1.90726550E+02
 20
-2.24550706E+02
  0
VERTEX
  8
0
 62
4
 10
1.90606468E+02
 20
-2.24640835E+02
  0
VERTEX
  8
0
 62
4
 10
1.90494875E+02
 20
-2.24740857E+02
  0
VERTEX
  8
0
 62
4
 10
1.90392618E+02
 20
-2.24850012E+02
  0
VERTEX
  8
0
 62
4
 10
1.90300476E+02
 20
-2.24967469E+02
  0
VERTEX
  8
0
 62
4
 10
1.90219151E+02
 20
-2.25092335E+02
  0
VERTEX
  8
0
 62
4
 10
1.90149261E+02
 20
-2.25223658E+02
  0
VERTEX
  8
0
 62
4
 10
1.90091338E+02
 20
-2.25360440E+02
  0
VERTEX
  8
0
 62
4
 10
1.90045824E+02
 20
-2.25501640E+02
  0
VERTEX
  8
0
 62
4
 10
1.90013064E+02
 20
-2.25646182E+02
  0
VERTEX
  8
0
 62
4
 10
1.89993307E+02
 20
-2.25792967E+02
  0
VERTEX
  8
0
 62
4
 10
1.89986705E+02
 20
-2.25940878E+02
  0
VERTEX
  8
0
 62
4
 10
1.89993307E+02
 20
-2.26088789E+02
  0
VERTEX
  8
0
 62
4
 10
1.90013064E+02
 20
-2.26235574E+02
  0
VERTEX
  8
0
 62
4
 10
1.90045824E+02
 20
-2.26380116E+02
  0
VERTEX
  8
0
 62
4
 10
1.90091338E+02
 20
-2.26521316E+02
  0
VERTEX
  8
0
 62
4
 10
1.90149261E+02
 20
-2.26658098E+02
  0
VERTEX
  8
0
 62
4
 10
1.90219151E+02
 20
-2.26789421E+02
  0
VERTEX
  8
0
 62
4
 10
1.90300476E+02
 20
-2.26914287E+02
  0
VERTEX
  8
0
 62
4
 10
1.90392618E+02
 20
-2.27031744E+02
  0
VERTEX
  8
0
 62
4
 10
1.90494875E+02
 20
-2.27140899E+02
  0
VERTEX
  8
0
 62
4
 10
1.90606468E+02
 20
-2.27240921E+02
  0
VERTEX
  8
0
 62
4
 10
1.90726550E+02
 20
-2.27331050E+02
  0
VERTEX
  8
0
 62
4
 10
1.90854205E+02
 20
-2.27410598E+02
  0
VERTEX
  8
0
 62
4
 10
1.90988462E+02
 20
-2.27478960E+02
  0
VERTEX
  8
0
 62
4
 10
1.91128300E+02
 20
-2.27535617E+02
  0
VERTEX
  8
0
 62
4
 10
1.91272654E+02
 20
-2.27580137E+02
  0
VERTEX
  8
0
 62
4
 10
1.91420425E+02
 20
-2.27612182E+02
  0
VERTEX
  8
0
 62
4
 10
1.91570490E+02
 20
-2.27631506E+02
  0
VERTEX
  8
0
 62
4
 10
1.91721705E+02
 20
-2.27637964E+02
  0
VERTEX
  8
0
 62
4
 10
1.91872920E+02
 20
-2.27631506E+02
  0
VERTEX
  8
0
 62
4
 10
1.92022985E+02
 20
-2.27612182E+02
  0
VERTEX
  8
0
 62
4
 10
1.92170756E+02
 20
-2.27580137E+02
  0
VERTEX
  8
0
 62
4
 10
1.92315110E+02
 20
-2.27535617E+02
  0
VERTEX
  8
0
 62
4
 10
1.92454948E+02
 20
-2.27478960E+02
  0
VERTEX
  8
0
 62
4
 10
1.92589205E+02
 20
-2.27410598E+02
  0
VERTEX
  8
0
 62
4
 10
1.92716860E+02
 20
-2.27331050E+02
  0
VERTEX
  8
0
 62
4
 10
1.92836942E+02
 20
-2.27240921E+02
  0
VERTEX
  8
0
 62
4
 10
1.92948535E+02
 20
-2.27140899E+02
  0
VERTEX
  8
0
 62
4
 10
1.93050792E+02
 20
-2.27031744E+02
  0
VERTEX
  8
0
 62
4
 10
1.93142934E+02
 20
-2.26914287E+02
  0
VERTEX
  8
0
 62
4
 10
1.93224259E+02
 20
-2.26789421E+02
  0
VERTEX
  8
0
 62
4
 10
1.93294149E+02
 20
-2.26658098E+02
  0
VERTEX
  8
0
 62
4
 10
1.93352072E+02
 20
-2.26521316E+02
  0
VERTEX
  8
0
 62
4
 10
1.93397586E+02
 20
-2.26380116E+02
  0
VERTEX
  8
0
 62
4
 10
1.93430346E+02
 20
-2.26235574E+02
  0
VERTEX
  8
0
 62
4
 10
1.93450103E+02
 20
-2.26088789E+02
  0
VERTEX
  8
0
 62
4
 10
1.93456705E+02
 20
-2.25940878E+02
  0
SEQEND
  8
0
  0
POLYLINE
  8
0
 62
4
 66
1
  0
VERTEX
  8
0
 62
4
 10
1.91721705E+02
 20
-2.27684371E+02
  0
VERTEX
  8
0
 62
4
 10
1.91896016E+02
 20
-2.27676488E+02
  0
VERTEX
  8
0
 62
4
 10
1.92069001E+02
 20
-2.27652897E+02
  0
VERTEX
  8
0
 62
4
 10
1.92239343E+02
 20
-2.27613779E+02
  0
VERTEX
  8
0
 62
4
 10
1.92405745E+02
 20
-2.27559431E+02
  0
VERTEX
  8
0
 62
4
 10
1.92566942E+02
 20
-2.27490267E+02
  0
VERTEX
  8
0
 62
4
 10
1.92721705E+02
 20
-2.27406814E+02
  0
VERTEX
  8
0
 62
4
 10
1.92868858E+02
 20
-2.27309705E+02
  0
VERTEX
  8
0
 62
4
 10
1.93007280E+02
 20
-2.27199681E+02
  0
VERTEX
  8
0
 62
4
 10
1.93135919E+02
 20
-2.27077579E+02
  0
VERTEX
  8
0
 62
4
 10
1.93253794E+02
 20
-2.26944328E+02
  0
VERTEX
  8
0
 62
4
 10
1.93360009E+02
 20
-2.26800942E+02
  0
VERTEX
  8
0
 62
4
 10
1.93453756E+02
 20
-2.26648512E+02
  0
VERTEX
  8
0
 62
4
 10
1.93534321E+02
 20
-2.26488199E+02
  0
VERTEX
  8
0
 62
4
 10
1.93601090E+02
 20
-2.26321222E+02
  0
VERTEX
  8
0
 62
4
 10
1.93653557E+02
 20
-2.26148853E+02
  0
VERTEX
  8
0
 62
4
 10
1.93691321E+02
 20
-2.25972403E+02
  0
VERTEX
  8
0
 62
4
 10
1.93714094E+02
 20
-2.25793215E+02
  0
VERTEX
  8
0
 62
4
 10
1.93721705E+02
 20
-2.25612653E+02
  0
VERTEX
  8
0
 62
4
 10
1.93714094E+02
 20
-2.25432091E+02
  0
VERTEX
  8
0
 62
4
 10
1.93691321E+02
 20
-2.25252903E+02
  0
VERTEX
  8
0
 62
4
 10
1.93653557E+02
 20
-2.25076453E+02
  0
VERTEX
  8
0
 62
4
 10
1.93601090E+02
 20
-2.24904084E+02
  0
VERTEX
  8
0
 62
4
 10
1.93534321E+02
 20
-2.24737107E+02
  0
VERTEX
  8
0
 62
4
 10
1.93453756E+02
 20
-2.24576794E+02
  0
VERTEX
  8
0
 62
4
 10
1.93360009E+02
 20
-2.24424364E+02
  0
VERTEX
  8
0
 62
4
 10
1.93253794E+02
 20
-2.24280978E+02
  0
VERTEX
  8
0
 62
4
 10
1.93135919E+02
 20
-2.24147727E+02
  0
VERTEX
  8
0
 62
4
 10
1.93007280E+02
 20
-2.24025625E+02
  0
VERTEX
  8
0
 62
4
 10
1.92868858E+02
 20
-2.23915601E+02
  0
VERTEX
  8
0
 62
4
 10
1.92721705E+02
 20
-2.23818492E+02
  0
VERTEX
  8
0
 62
4
 10
1.92566942E+02
 20
-2.23735039E+02
  0
VERTEX
  8
0
 62
4
 10
1.92405745E+02
 20
-2.23665875E+02
  0
VERTEX
  8
0
 62
4
 10
1.92239343E+02
 20
-2.23611527E+02
  0
VERTEX
  8
0
 62
4
 10
1.92069001E+02
 20
-2.23572409E+02
  0
VERTEX
  8
0
 62
4
 10
1.91896016E+02
 20
-2.23548818E+02
  0
VERTEX
  8
0
 62
4
 10
1.91721705E+02
 20
-2.23540935E+02
  0
VERTEX
  8
0
 62
4
 10
1.91547394E+02
 20
-2.23548818E+02
  0
VERTEX
  8
0
 62
4
 10
1.91374409E+02
 20
-2.23572409E+02
  0
VERTEX
  8
0
 62
4
 10
1.91204067E+02
 20
-2.23611527E+02
  0
VERTEX
  8
0
 62
4
 10
1.91037665E+02
 20
-2.23665875E+02
  0
VERTEX
  8
0
 62
4
 10
1.90876468E+02
 20
-2.23735039E+02
  0
VERTEX
  8
0
 62
4
 10
1.90721705E+02
 20
-2.23818492E+02
  0
VERTEX
  8
0
 62
4
 10
1.90574552E+02
 20
-2.23915601E+02
  0
VERTEX
  8
0
 62
4
 10
1.90436130E+02
 20
-2.24025625E+02
  0
VERTEX
  8
0
 62
4
 10
1.90307491E+02
 20
-2.24147727E+02
  0
VERTEX
  8
0
 62
4
 10
1.90189616E+02
 20
-2.24280978E+02
  0
VERTEX
  8
0
 62
4
 10
1.90083401E+02
 20
-2.24424364E+02
  0
VERTEX
  8
0
 62
4
 10
1.89989654E+02
 20
-2.24576794E+02
  0
VERTEX
  8
0
 62
4
 10
1.89909089E+02
 20
-2.24737107E+02
  0
VERTEX
  8
0
 62
4
 10
1.89842320E+02
 20
-2.24904084E+02
  0
VERTEX
  8
0
 62
4
 10
1.89789853E+02
 20
-2.25076453E+02
  0
VERTEX
  8
0
 62
4
 10
1.89752089E+02
 20
-2.25252903E+02
  0
VERTEX
  8
0
 62
4
 10
1.89729316E+02
 20
-2.25432091E+02
  0
VERTEX
  8
0
 62
4
 10
1.89721705E+02
 20
-2.25612653E+02
  0
VERTEX
  8
0
 62
4
 10
1.89729316E+02
 20
-2.25793215E+02
  0
VERTEX
  8
0
 62
4
 10
1.89752089E+02
 20
-2.25972403E+02
  0
VERTEX
  8
0
 62
4
 10
1.89789853E+02
 20
-2.26148853E+02
  0
VERTEX
  8
0
 62
4
 10
1.89842320E+02
 20
-2.26321222E+02
  0
VERTEX
  8
0
 62
4
 10
1.89909089E+02
 20
-2.26488199E+02
  0
VERTEX
  8
0
 62
4
 10
1.89989654E+02
 20
-2.26648512E+02
  0
VERTEX
  8
0
 62
4
 10
1.90083401E+02
 20
-2.26800942E+02
  0
VERTEX
  8
0
 62
4
 10
1.90189616E+02
 20
-2.26944328E+02
  0
VERTEX
  8
0
 62
4
 10
1.90307491E+02
 20
-2.27077579E+02
  0
VERTEX
  8
0
 62
4
 10
1.90436130E+02
 20
-2.27199681E+02
  0
VERTEX
  8
0
 62
4
 10
1.90574552E+02
 20
-2.27309705E+02
  0
VERTEX
  8
0
 62
4
 10
1.90721705E+02
 20
-2.27406814E+02
  0
VERTEX
  8
0
 62
4
 10
1.90876468E+02
 20
-2.27490267E+02
  0
VERTEX
  8
0
 62
4
 10
1.91037665E+02
 20
-2.27559431E+02
  0
VERTEX
  8
0
 62
4
 10
1.91204067E+02
 20
-2.27613779E+02
  0
VERTEX
  8
0
 62
4
 10
1.91374409E+02
 20
-2.27652897E+02
  0
VERTEX
  8
0
 62
4
 10
1.91547394E+02
 20
-2.27676488E+02
  0
VERTEX
  8
0
 62
4
 10
1.91721705E+02
 20
-2.27684371E+02
  0
SEQEND
  8
0
  0
LINE
  8
0
 62
4
 10
2.04721705E+02
 20
-2.19407712E+02
 11
2.04721705E+02
 21
-2.17740352E+02
  0
LINE
  8
0
 62
4
 10
1.71721705E+02
 20
-2.19407712E+02
 11
1.71721705E+02
 21
-2.17740352E+02
  0
LINE
  8
0
 62
4
 10
2.22721705E+02
 20
-1.67450841E+02
 11
2.17721705E+02
 21
-1.67450841E+02
  0
LINE
  8
0
 62
4
 10
2.03221705E+02
 20
-1.70477400E+02
 11
1.88221705E+02
 21
-1.70477400E+02
  0
LINE
  8
0
 62
4
 10
1.88221705E+02
 20
-2.04169416E+02
 11
2.03221705E+02
 21
-2.04169416E+02
  0
LINE
  8
0
 62
4
 10
1.88221705E+02
 20
-2.30589872E+02
 11
2.03221705E+02
 21
-2.30589872E+02
  0
LINE
  8
0
 62
4
 10
2.03221705E+02
 20
-2.04169416E+02
 11
2.03221705E+02
 21
-2.30589872E+02
  0
LINE
  8
0
 62
4
 10
1.88221705E+02
 20
-2.04169416E+02
 11
1.88221705E+02
 21
-2.30589872E+02
  0
LINE
  8
0
  6
CENTER
 62
6
 10
1.91721705E+02
 20
-2.23013720E+02
 11
1.91721705E+02
 21
-2.28858255E+02
  0
LINE
  8
0
 62
4
 10
2.16221705E+02
 20
-1.69035832E+02
 11
2.12721705E+02
 21
-1.69035832E+02
  0
LINE
  8
0
 62
4
 10
2.06221705E+02
 20
-1.95254367E+02
 11
2.03221705E+02
 21
-1.95254367E+02
  0
LINE
  8
0
 62
4
 10
2.22721705E+02
 20
-1.72470320E+02
 11
2.17721705E+02
 21
-1.72470320E+02
  0
LINE
  8
0
 62
4
 10
2.22721705E+02
 20
-1.72474029E+02
 11
2.17721705E+02
 21
-1.72474029E+02
  0
LINE
  8
0
 62
4
 10
2.22721705E+02
 20
-1.79816209E+02
 11
2.17721705E+02
 21
-1.79816209E+02
  0
LINE
  8
0
 62
4
 10
2.03221705E+02
 20
-1.67785832E+02
 11
2.12221705E+02
 21
-1.67785832E+02
  0
LINE
  8
0
 62
4
 10
2.12721705E+02
 20
-1.68285832E+02
 11
2.12721705E+02
 21
-1.81285832E+02
  0
LINE
  8
0
 62
4
 10
2.22721705E+02
 20
-1.67450841E+02
 11
2.22721705E+02
 21
-1.82132836E+02
  0
LINE
  8
0
 62
4
 10
2.17721705E+02
 20
-1.67450841E+02
 11
2.17721705E+02
 21
-1.82132836E+02
  0
LINE
  8
0
 62
4
 10
2.17721705E+02
 20
-1.68535832E+02
 11
2.12721705E+02
 21
-1.68535832E+02
  0
LINE
  8
0
 62
4
 10
2.17721705E+02
 20
-1.81035832E+02
 11
2.12721705E+02
 21
-1.81035832E+02
  0
LINE
  8
0
 62
4
 10
2.16221705E+02
 20
-1.68535832E+02
 11
2.16221705E+02
 21
-1.81035832E+02
  0
LINE
  8
0
 62
4
 10
2.16221705E+02
 20
-1.80535832E+02
 11
2.12721705E+02
 21
-1.80535832E+02
  0
LINE
  8
0
 62
4
 10
2.12221705E+02
 20
-1.81785832E+02
 11
2.03721705E+02
 21
-1.81785832E+02
  0
LINE
  8
0
 62
4
 10
2.22721705E+02
 20
-1.82132836E+02
 11
2.17721705E+02
 21
-1.82132836E+02
  0
LINE
  8
0
 62
4
 10
1.88221705E+02
 20
-2.14451497E+02
 11
1.68721705E+02
 21
-2.14451497E+02
  0
LINE
  8
0
 62
4
 10
1.88221705E+02
 20
-2.12984276E+02
 11
1.68721705E+02
 21
-2.12984276E+02
  0
LINE
  8
0
 62
4
 10
2.03221705E+02
 20
-1.67358725E+02
 11
1.88221705E+02
 21
-1.67358725E+02
  0
LINE
  8
0
 62
4
 10
2.05221705E+02
 20
-1.95346913E+02
 11
1.86221705E+02
 21
-1.95346913E+02
  0
LINE
  8
0
 62
4
 10
2.07721705E+02
 20
-1.96754367E+02
 11
2.07721705E+02
 21
-2.14451497E+02
  0
LINE
  8
0
 62
4
 10
2.07721705E+02
 20
-2.14451497E+02
 11
2.03221705E+02
 21
-2.14451497E+02
  0
LINE
  8
0
 62
4
 10
2.07721705E+02
 20
-2.12984276E+02
 11
2.03221705E+02
 21
-2.12984276E+02
  0
LINE
  8
0
 62
4
 10
2.05221705E+02
 20
-1.95346913E+02
 11
2.05221705E+02
 21
-1.99259504E+02
  0
LINE
  8
0
 62
4
 10
1.88221705E+02
 20
-1.67358725E+02
 11
1.88221705E+02
 21
-1.95346913E+02
  0
LINE
  8
0
 62
4
 10
2.03221705E+02
 20
-1.67358725E+02
 11
2.03221705E+02
 21
-1.95346913E+02
  0
LINE
  8
0
 62
4
 10
1.86221705E+02
 20
-1.95346913E+02
 11
1.86221705E+02
 21
-1.99259504E+02
  0
LINE
  8
0
 62
4
 10
2.03221705E+02
 20
-1.93952942E+02
 11
1.88221705E+02
 21
-1.93952942E+02
  0
LINE
  8
0
 62
4
 10
1.68721705E+02
 20
-1.96754367E+02
 11
1.68721705E+02
 21
-2.14451497E+02
  0
ARC
  8
0
 62
4
 10
2.12222204E+02
 20
-1.68285332E+02
 40
4.99500622E-01
 50
3.59942689E+02
 51
9.00573103E+01
  0
ARC
  8
0
 62
4
 10
2.03721205E+02
 20
-1.82285332E+02
 40
4.99500622E-01
 50
8.99426895E+01
 51
1.80057310E+02
  0
ARC
  8
0
 62
4
 10
1.70221205E+02
 20
-1.96753868E+02
 40
1.49950029E+00
 50
8.99809029E+01
 51
1.80019097E+02
  0
ARC
  8
0
 62
4
 10
2.12221205E+02
 20
-1.81285332E+02
 40
5.00500378E-01
 50
2.70057253E+02
 51
3.59942747E+02
  0
ARC
  8
0
 62
4
 10
2.06222205E+02
 20
-1.96753868E+02
 40
1.49950029E+00
 50
3.59980903E+02
 51
9.00190969E+01
  0
LINE
  8
0
 62
4
 10
1.89221705E+02
 20
-2.20323396E+02
 11
2.02221705E+02
 21
-2.20323396E+02
  0
CIRCLE
  8
0
 62
7
 10
4.37500000E+01
 20
-2.22057629E+02
 40
2.45850000E+00
  0
CIRCLE
  8
0
 62
7
 10
6.74990845E+00
 20
-2.22057629E+02
 40
2.45850000E+00
  0
CIRCLE
  8
0
 62
7
 10
-2.75249908E+02
 20
-2.22057629E+02
 40
2.45850000E+00
  0
CIRCLE
  8
0
 62
7
 10
-3.12250000E+02
 20
-2.22057629E+02
 40
2.45850000E+00
  0
LINE
  8
0
  6
CENTER
 62
2
 10
6.17140503E+01
 20
-2.29557721E+02
 11
5.82500000E+01
 21
-2.29557721E+02
  0
LINE
  8
0
  6
CENTER
 62
2
 10
6.04691162E+01
 20
-2.40557706E+02
 11
-4.05123901E+00
 21
-2.40557706E+02
  0
LINE
  8
0
 62
7
 10
5.86499329E+01
 20
-2.33307721E+02
 11
5.82500000E+01
 21
-2.33307721E+02
  0
LINE
  8
0
 62
7
 10
5.82499695E+01
 20
-2.40557706E+02
 11
5.82499695E+01
 21
-2.21057706E+02
  0
LINE
  8
0
 62
7
 10
5.86499939E+01
 20
-2.25807721E+02
 11
5.82500000E+01
 21
-2.25807721E+02
  0
LINE
  8
0
 62
7
 10
4.72500610E+01
 20
-2.15557645E+02
 11
3.25000000E+00
 21
-2.15557645E+02
  0
LINE
  8
0
 62
7
 10
1.29343740E+01
 20
-2.26827759E+02
 11
1.40198071E+01
 21
-2.27913192E+02
  0
LINE
  8
0
 62
7
 10
6.08499756E+01
 20
-2.27957699E+02
 11
6.08499756E+01
 21
-2.31157727E+02
  0
LINE
  8
0
  6
CENTER
 62
2
 10
4.37500000E+01
 20
-2.13655057E+02
 11
4.37500000E+01
 21
-2.29942059E+02
  0
LINE
  8
0
  6
CENTER
 62
2
 10
5.23399353E+01
 20
-2.22057629E+02
 11
3.76730347E+01
 21
-2.22057629E+02
  0
LINE
  8
0
 62
7
 10
5.82500000E+01
 20
-2.21057706E+02
 11
5.02500305E+01
 21
-2.21057706E+02
  0
LINE
  8
0
  6
CENTER
 62
2
 10
6.74990845E+00
 20
-2.13551068E+02
 11
6.74990845E+00
 21
-2.28472195E+02
  0
LINE
  8
0
 62
7
 10
2.49969482E-01
 20
-2.18557675E+02
 11
2.49969482E-01
 21
-2.40557706E+02
  0
LINE
  8
0
 62
7
 10
4.72500000E+01
 20
-2.16057645E+02
 11
3.25000000E+00
 21
-2.16057706E+02
  0
LINE
  8
0
 62
7
 10
7.49969482E-01
 20
-2.18557736E+02
 11
7.49969482E-01
 21
-2.40557706E+02
  0
LINE
  8
0
 62
7
 10
4.25003052E+00
 20
-2.39557690E+02
 11
8.36807251E+00
 21
-2.39557690E+02
  0
LINE
  8
0
 62
7
 10
1.15202144E+01
 20
-2.28241941E+02
 11
1.26056907E+01
 21
-2.29327417E+02
  0
LINE
  8
0
 62
7
 10
2.42500000E+01
 20
-2.19557706E+02
 11
2.42500000E+01
 21
-2.23675778E+02
  0
LINE
  8
0
 62
7
 10
3.24996948E+00
 20
-2.35557675E+02
 11
3.24996948E+00
 21
-2.40557706E+02
  0
LINE
  8
0
 62
7
 10
4.97499695E+01
 20
-2.18557675E+02
 11
4.97499695E+01
 21
-2.40557706E+02
  0
LINE
  8
0
 62
7
 10
5.02500305E+01
 20
-2.18557675E+02
 11
5.02500305E+01
 21
-2.40557706E+02
  0
LINE
  8
0
 62
7
 10
2.62500000E+01
 20
-2.19557706E+02
 11
2.62500000E+01
 21
-2.23675748E+02
  0
LINE
  8
0
 62
7
 10
4.62500000E+01
 20
-2.39557690E+02
 11
4.21319580E+01
 21
-2.39557690E+02
  0
LINE
  8
0
 62
7
 10
3.89799814E+01
 20
-2.28242029E+02
 11
3.78944833E+01
 21
-2.29327527E+02
  0
LINE
  8
0
 62
7
 10
3.75658328E+01
 20
-2.26827837E+02
 11
3.64803347E+01
 21
-2.27913334E+02
  0
LINE
  8
0
 62
7
 10
3.02500916E+01
 20
-2.18557645E+02
 11
2.02500000E+01
 21
-2.18557645E+02
  0
LINE
  8
0
 62
7
 10
4.72499695E+01
 20
-2.35557675E+02
 11
4.72499695E+01
 21
-2.40557706E+02
  0
LINE
  8
0
  6
CENTER
 62
2
 10
2.92500305E+01
 20
-2.13805325E+02
 11
2.92500305E+01
 21
-2.29191479E+02
  0
LINE
  8
0
 62
7
 10
3.08270264E+01
 20
-2.18740903E+02
 11
3.08270264E+01
 21
-2.25561154E+02
  0
LINE
  8
0
  6
CENTER
 62
2
 10
2.52499695E+01
 20
-2.12062726E+02
 11
2.52499695E+01
 21
-2.40557706E+02
  0
LINE
  8
0
 62
7
 10
4.52499695E+01
 20
-2.15557675E+02
 11
4.52499695E+01
 21
-2.16057675E+02
  0
LINE
  8
0
 62
7
 10
5.24996948E+00
 20
-2.15557675E+02
 11
5.24996948E+00
 21
-2.16057736E+02
  0
LINE
  8
0
 62
7
 10
7.24990845E+00
 20
-2.29846402E+02
 11
7.24990845E+00
 21
-2.31807675E+02
  0
LINE
  8
0
 62
7
 10
1.45370483E+01
 20
-2.22557675E+02
 11
1.65000000E+01
 21
-2.22557675E+02
  0
LINE
  8
0
 62
7
 10
3.59617615E+01
 20
-2.22557599E+02
 11
3.40000916E+01
 21
-2.22557599E+02
  0
LINE
  8
0
 62
7
 10
4.32499695E+01
 20
-2.29845547E+02
 11
4.32499695E+01
 21
-2.31807675E+02
  0
LINE
  8
0
  6
CENTER
 62
2
 10
1.31314087E+01
 20
-2.22057629E+02
 11
-1.39022827E+00
 21
-2.22057629E+02
  0
LINE
  8
0
  6
CENTER
 62
2
 10
1.52499695E+01
 20
-2.32203610E+02
 11
1.52499695E+01
 21
-2.13628689E+02
  0
ARC
  8
0
 62
7
 10
5.83724976E+01
 20
-2.28292279E+02
 40
2.50000000E+00
 50
7.69143002E+00
 51
9.00000042E+01
  0
ARC
  8
0
 62
7
 10
5.83724976E+01
 20
-2.30823147E+02
 40
2.50000000E+00
 50
2.76372839E+02
 51
7.69143002E+00
  0
ARC
  8
0
 62
7
 10
3.25000000E+00
 20
-2.18557736E+02
 40
2.50000000E+00
 50
9.00000179E+01
 51
1.80000000E+02
  0
CIRCLE
  8
0
 62
7
 10
6.74993896E+00
 20
-2.22057706E+02
 40
5.00000000E+00
  0
CIRCLE
  8
0
 62
7
 10
6.74993896E+00
 20
-2.22057706E+02
 40
4.50000000E+00
  0
ARC
  8
0
 62
7
 10
1.36414185E+01
 20
-2.26120724E+02
 40
1.00000000E+00
 50
1.49477551E+02
 51
2.24999376E+02
  0
ARC
  8
0
 62
7
 10
4.25003052E+00
 20
-2.38557706E+02
 40
1.00000000E+00
 50
1.80000000E+02
 51
2.70000037E+02
  0
ARC
  8
0
 62
7
 10
8.36807251E+00
 20
-2.38557706E+02
 40
1.00000000E+00
 50
2.70000037E+02
 51
3.53243910E+02
  0
ARC
  8
0
 62
7
 10
1.08129883E+01
 20
-2.28949124E+02
 40
1.00000000E+00
 50
4.50006554E+01
 51
1.20522248E+02
  0
ARC
  8
0
 62
7
 10
2.32500000E+01
 20
-2.19557706E+02
 40
1.00000000E+00
 50
3.59721787E-05
 51
9.00000179E+01
  0
ARC
  8
0
 62
7
 10
2.32500000E+01
 20
-2.23675748E+02
 40
1.00000000E+00
 50
2.76756259E+02
 51
3.59721787E-05
  0
ARC
  8
0
 62
7
 10
1.18984680E+01
 20
-2.30034604E+02
 40
1.00000000E+00
 50
3.21756386E+02
 51
4.50000407E+01
  0
ARC
  8
0
 62
7
 10
1.47268677E+01
 20
-2.27206174E+02
 40
1.00000000E+00
 50
2.25000620E+02
 51
3.08244206E+02
  0
ARC
  8
0
 62
7
 10
3.25000000E+00
 20
-2.18557675E+02
 40
3.00000000E+00
 50
9.00000179E+01
 51
1.80000000E+02
  0
ARC
  8
0
 62
7
 10
4.25003052E+00
 20
-2.35557675E+02
 40
1.00000000E+00
 50
9.00000179E+01
 51
1.80000000E+02
  0
ARC
  8
0
 62
7
 10
4.25003052E+00
 20
-2.31557675E+02
 40
3.00000000E+00
 50
2.70000054E+02
 51
2.02641650E+00
  0
ARC
  8
0
 62
7
 10
8.24752808E+00
 20
-2.29916226E+02
 40
1.00000000E+00
 50
1.00789094E+02
 51
1.82026121E+02
  0
ARC
  8
0
 62
7
 10
6.75003052E+00
 20
-2.22057645E+02
 40
7.00000000E+00
 50
2.80788621E+02
 51
3.49211311E+02
  0
ARC
  8
0
 62
7
 10
1.46086121E+01
 20
-2.23555142E+02
 40
1.00000000E+00
 50
8.79748190E+01
 51
1.69211539E+02
  0
ARC
  8
0
 62
7
 10
1.62500000E+01
 20
-2.19557645E+02
 40
3.00000000E+00
 50
2.67974202E+02
 51
3.59999431E+02
  0
ARC
  8
0
 62
7
 10
2.02500000E+01
 20
-2.19557690E+02
 40
1.00000000E+00
 50
9.00000179E+01
 51
1.80000000E+02
  0
ARC
  8
0
 62
7
 10
4.72500000E+01
 20
-2.18557675E+02
 40
2.50000000E+00
 50
3.59721787E-05
 51
9.00000179E+01
  0
ARC
  8
0
 62
7
 10
4.72500610E+01
 20
-2.18557675E+02
 40
3.00000000E+00
 50
3.59721787E-05
 51
9.00000179E+01
  0
CIRCLE
  8
0
 62
7
 10
4.37500000E+01
 20
-2.22057645E+02
 40
4.50000000E+00
  0
CIRCLE
  8
0
 62
7
 10
4.37500000E+01
 20
-2.22057645E+02
 40
5.00000000E+00
  0
ARC
  8
0
 62
7
 10
4.62500000E+01
 20
-2.38557706E+02
 40
1.00000000E+00
 50
2.70000054E+02
 51
3.59721787E-05
  0
ARC
  8
0
 62
7
 10
2.72500000E+01
 20
-2.19557706E+02
 40
1.00000000E+00
 50
9.00000042E+01
 51
1.80000041E+02
  0
ARC
  8
0
 62
7
 10
3.68585815E+01
 20
-2.26120663E+02
 40
1.00000000E+00
 50
3.15000660E+02
 51
3.05222526E+01
  0
ARC
  8
0
 62
7
 10
4.37500000E+01
 20
-2.22057645E+02
 40
7.00000000E+00
 50
1.90788721E+02
 51
2.59211384E+02
  0
ARC
  8
0
 62
7
 10
3.96870422E+01
 20
-2.28949093E+02
 40
1.00000000E+00
 50
5.94775690E+01
 51
1.34999381E+02
  0
ARC
  8
0
 62
7
 10
2.72500000E+01
 20
-2.23675748E+02
 40
1.00000000E+00
 50
1.80000041E+02
 51
2.63243914E+02
  0
ARC
  8
0
 62
7
 10
3.57731628E+01
 20
-2.27206113E+02
 40
1.00000000E+00
 50
2.31756387E+02
 51
3.15000028E+02
  0
ARC
  8
0
 62
7
 10
3.86015625E+01
 20
-2.30034543E+02
 40
1.00000000E+00
 50
1.35000624E+02
 51
2.18244210E+02
  0
ARC
  8
0
 62
7
 10
4.21319580E+01
 20
-2.38557706E+02
 40
1.00000000E+00
 50
1.86756259E+02
 51
2.70000037E+02
  0
ARC
  8
0
 62
7
 10
4.62500000E+01
 20
-2.31557675E+02
 40
3.00000000E+00
 50
1.80000000E+02
 51
2.69999982E+02
  0
ARC
  8
0
 62
7
 10
3.42500610E+01
 20
-2.19557645E+02
 40
3.00000000E+00
 50
1.80000601E+02
 51
2.72025816E+02
  0
ARC
  8
0
 62
7
 10
4.62500000E+01
 20
-2.35557675E+02
 40
1.00000000E+00
 50
3.59721787E-05
 51
9.00000179E+01
  0
ARC
  8
0
 62
7
 10
4.22525024E+01
 20
-2.29916272E+02
 40
1.00000000E+00
 50
3.57973915E+02
 51
7.92109419E+01
  0
ARC
  8
0
 62
7
 10
3.02500916E+01
 20
-2.19557690E+02
 40
1.00000000E+00
 50
3.59721787E-05
 51
9.00000179E+01
  0
ARC
  8
0
 62
7
 10
3.58914185E+01
 20
-2.23555142E+02
 40
1.00000000E+00
 50
1.07884973E+01
 51
9.20252169E+01
  0
ARC
  8
0
 62
7
 10
2.52500000E+01
 20
-2.40557706E+02
 40
1.60000000E+01
 50
0.00000000E+00
 51
1.80000000E+02
  0
ARC
  8
0
 62
7
 10
2.52500000E+01
 20
-2.40557706E+02
 40
1.55000010E+01
 50
0.00000000E+00
 51
1.80000000E+02
  0
CIRCLE
  8
0
 62
2
 10
4.37500000E+01
 20
-2.22057645E+02
 40
3.00000000E+00
  0
CIRCLE
  8
0
 62
2
 10
6.74993896E+00
 20
-2.22057614E+02
 40
3.00000000E+00
  0
LINE
  8
0
 62
7
 10
-2.53715927E+02
 20
-2.63655303E+01
 11
1.49484073E+02
 21
-2.63655303E+01
  0
LINE
  8
0
 62
7
 10
-2.53715927E+02
 20
-3.63655303E+01
 11
-2.53715927E+02
 21
-1.63655303E+01
  0
LINE
  8
0
 62
7
 10
-2.53715927E+02
 20
-1.63655303E+01
 11
1.49484073E+02
 21
-1.63655303E+01
  0
LINE
  8
0
 62
7
 10
-2.53715927E+02
 20
-3.63655303E+01
 11
1.49484073E+02
 21
-3.63655303E+01
  0
LINE
  8
0
 62
7
 10
-2.03315927E+02
 20
-3.63655303E+01
 11
-2.03315927E+02
 21
-1.63655303E+01
  0
LINE
  8
0
 62
7
 10
-1.78115927E+02
 20
-3.63655303E+01
 11
-1.78115927E+02
 21
-1.63655303E+01
  0
LINE
  8
0
 62
7
 10
-1.52915927E+02
 20
-3.63655303E+01
 11
-1.52915927E+02
 21
-1.63655303E+01
  0
LINE
  8
0
 62
7
 10
-1.27715927E+02
 20
-3.63655303E+01
 11
-1.27715927E+02
 21
-1.63655303E+01
  0
LINE
  8
0
 62
7
 10
-1.02515927E+02
 20
-3.63655303E+01
 11
-1.02515927E+02
 21
-1.63655303E+01
  0
LINE
  8
0
 62
7
 10
-7.73159267E+01
 20
-3.63655303E+01
 11
-7.73159267E+01
 21
-1.63655303E+01
  0
LINE
  8
0
 62
7
 10
-5.21159267E+01
 20
-3.63655303E+01
 11
-5.21159267E+01
 21
-1.63655303E+01
  0
LINE
  8
0
 62
7
 10
-2.69159267E+01
 20
-3.63655303E+01
 11
-2.69159267E+01
 21
-1.63655303E+01
  0
LINE
  8
0
 62
7
 10
-1.71592672E+00
 20
-3.63655303E+01
 11
-1.71592672E+00
 21
-1.63655303E+01
  0
LINE
  8
0
 62
7
 10
2.34840733E+01
 20
-3.63655303E+01
 11
2.34840733E+01
 21
-1.63655303E+01
  0
LINE
  8
0
 62
7
 10
4.86840733E+01
 20
-3.63655303E+01
 11
4.86840733E+01
 21
-1.63655303E+01
  0
LINE
  8
0
 62
7
 10
7.38840733E+01
 20
-3.63655303E+01
 11
7.38840733E+01
 21
-1.63655303E+01
  0
LINE
  8
0
 62
7
 10
9.90840733E+01
 20
-3.63655303E+01
 11
9.90840733E+01
 21
-1.63655303E+01
  0
LINE
  8
0
 62
7
 10
1.24284073E+02
 20
-3.63655303E+01
 11
1.24284073E+02
 21
-1.63655303E+01
  0
TEXT
  8
0
 62
7
 10
-1.96326864E+02
 20
-2.45155304E+01
 40
6.30000019E+00
  1
50
 41
1.00000000E+00
  7
MONOTXT
  0
TEXT
  8
0
 62
7
 10
-1.99476864E+02
 20
-3.45155304E+01
 40
6.30000019E+00
  1
-25
 41
1.00000000E+00
  7
MONOTXT
  0
TEXT
  8
0
 62
7
 10
-2.46726864E+02
 20
-2.45155304E+01
 40
6.30000019E+00
  1
STROKE
 41
1.00000000E+00
  7
MONOTXT
  0
TEXT
  8
0
 62
7
 10
-2.49876864E+02
 20
-3.45155304E+01
 40
6.30000019E+00
  1
STRETCH
 41
1.00000000E+00
  7
MONOTXT
  0
TEXT
  8
0
 62
7
 10
-1.71126864E+02
 20
-2.45155304E+01
 40
6.30000019E+00
  1
75
 41
1.00000000E+00
  7
MONOTXT
  0
TEXT
  8
0
 62
7
 10
-1.67976864E+02
 20
-3.45155304E+01
 40
6.30000019E+00
  1
0
 41
1.00000000E+00
  7
MONOTXT
  0
TEXT
  8
0
 62
7
 10
-1.49076864E+02
 20
-2.45155304E+01
 40
6.30000019E+00
  1
100
 41
1.00000000E+00
  7
MONOTXT
  0
TEXT
  8
0
 62
7
 10
-1.45926864E+02
 20
-3.45155304E+01
 40
6.30000019E+00
  1
25
 41
1.00000000E+00
  7
MONOTXT
  0
TEXT
  8
0
 62
7
 10
-1.23876864E+02
 20
-2.45155304E+01
 40
6.30000019E+00
  1
150
 41
1.00000000E+00
  7
MONOTXT
  0
TEXT
  8
0
 62
7
 10
-1.20726864E+02
 20
-3.45155304E+01
 40
6.30000019E+00
  1
75
 41
1.00000000E+00
  7
MONOTXT
  0
TEXT
  8
0
 62
7
 10
-9.86768644E+01
 20
-2.45155304E+01
 40
6.30000019E+00
  1
200
 41
1.00000000E+00
  7
MONOTXT
  0
TEXT
  8
0
 62
7
 10
-9.86768644E+01
 20
-3.45155304E+01
 40
6.30000019E+00
  1
125
 41
1.00000000E+00
  7
MONOTXT
  0
TEXT
  8
0
 62
7
 10
-7.34768644E+01
 20
-2.45155304E+01
 40
6.30000019E+00
  1
250
 41
1.00000000E+00
  7
MONOTXT
  0
TEXT
  8
0
 62
7
 10
-7.34768644E+01
 20
-3.45155304E+01
 40
6.30000019E+00
  1
175
 41
1.00000000E+00
  7
MONOTXT
  0
TEXT
  8
0
 62
7
 10
-4.82768644E+01
 20
-2.45155304E+01
 40
6.30000019E+00
  1
300
 41
1.00000000E+00
  7
MONOTXT
  0
TEXT
  8
0
 62
7
 10
-4.82768644E+01
 20
-3.45155304E+01
 40
6.30000019E+00
  1
225
 41
1.00000000E+00
  7
MONOTXT
  0
TEXT
  8
0
 62
7
 10
-2.30768644E+01
 20
-2.45155304E+01
 40
6.30000019E+00
  1
350
 41
1.00000000E+00
  7
MONOTXT
  0
TEXT
  8
0
 62
7
 10
-2.30768644E+01
 20
-3.45155304E+01
 40
6.30000019E+00
  1
275
 41
1.00000000E+00
  7
MONOTXT
  0
TEXT
  8
0
 62
7
 10
2.12313558E+00
 20
-2.45155304E+01
 40
6.30000019E+00
  1
400
 41
1.00000000E+00
  7
MONOTXT
  0
TEXT
  8
0
 62
7
 10
2.12313558E+00
 20
-3.45155304E+01
 40
6.30000019E+00
  1
325
 41
1.00000000E+00
  7
MONOTXT
  0
TEXT
  8
0
 62
7
 10
2.73231356E+01
 20
-2.45155304E+01
 40
6.30000019E+00
  1
450
 41
1.00000000E+00
  7
MONOTXT
  0
TEXT
  8
0
 62
7
 10
2.73231356E+01
 20
-3.45155304E+01
 40
6.30000019E+00
  1
375
 41
1.00000000E+00
  7
MONOTXT
  0
TEXT
  8
0
 62
7
 10
5.25231356E+01
 20
-2.45155304E+01
 40
6.30000019E+00
  1
500
 41
1.00000000E+00
  7
MONOTXT
  0
TEXT
  8
0
 62
7
 10
5.25231356E+01
 20
-3.45155304E+01
 40
6.30000019E+00
  1
425
 41
1.00000000E+00
  7
MONOTXT
  0
TEXT
  8
0
 62
7
 10
7.77231356E+01
 20
-2.45155304E+01
 40
6.30000019E+00
  1
600
 41
1.00000000E+00
  7
MONOTXT
  0
TEXT
  8
0
 62
7
 10
7.77231356E+01
 20
-3.45155304E+01
 40
6.30000019E+00
  1
525
 41
1.00000000E+00
  7
MONOTXT
  0
TEXT
  8
0
 62
7
 10
1.02923136E+02
 20
-2.45155304E+01
 40
6.30000019E+00
  1
700
 41
1.00000000E+00
  7
MONOTXT
  0
TEXT
  8
0
 62
7
 10
1.02923136E+02
 20
-3.45155304E+01
 40
6.30000019E+00
  1
625
 41
1.00000000E+00
  7
MONOTXT
  0
TEXT
  8
0
 62
7
 10
-8.92268653E+01
 20
-1.15155304E+01
 40
6.30000019E+00
  1
STRETCH LIST
 41
1.05263158E+00
  7
MONOTXT
  0
TEXT
  8
0
 62
7
 10
1.28123136E+02
 20
-2.45155304E+01
 40
6.30000019E+00
  1
800
 41
1.00000000E+00
  7
MONOTXT
  0
TEXT
  8
0
 62
7
 10
1.28123136E+02
 20
-3.45155304E+01
 40
6.30000019E+00
  1
725
 41
1.00000000E+00
  7
MONOTXT
  0
LINE
  8
0
 62
7
 10
1.49484073E+02
 20
-3.63655303E+01
 11
1.49484073E+02
 21
-1.63655303E+01
  0
TEXT
  8
0
 62
7
 10
1.25973136E+02
 20
-1.15155304E+01
 40
6.30000019E+00
  1
(mm)
 41
1.00000000E+00
  7
MONOTXT
  0
LINE
  8
0
 62
7
 10
-1.48250076E+02
 20
-1.25557706E+02
 11
-1.24250046E+02
 21
-1.25557706E+02
  0
ARC
  8
0
 62
7
 10
-1.48250076E+02
 20
-1.23557706E+02
 40
2.00000000E+00
 50
1.80000000E+02
 51
2.70000000E+02
  0
LINE
  8
0
 62
7
 10
-1.50250076E+02
 20
-1.23557706E+02
 11
-1.50250076E+02
 21
-8.75577055E+01
  0
ARC
  8
0
 62
7
 10
-1.48250076E+02
 20
-8.75577056E+01
 40
2.00000000E+00
 50
9.00000002E+01
 51
1.80000000E+02
  0
LINE
  8
0
 62
7
 10
-1.48250076E+02
 20
-8.55577056E+01
 11
-1.24250046E+02
 21
-8.55577056E+01
  0
LINE
  8
0
 62
7
 10
-1.24250046E+02
 20
-9.00997780E+01
 11
-1.24250046E+02
 21
-8.05577056E+01
  0
LINE
  8
0
 62
7
 10
-6.22130524E+01
 20
-2.24707699E+02
 11
-1.24250000E+02
 21
-2.24707699E+02
  0
LINE
  8
0
 62
7
 10
-5.86623605E+01
 20
-2.18557721E+02
 11
-1.24250000E+02
 21
-2.18557721E+02
  0
LINE
  8
0
 62
7
 10
-5.91531030E+01
 20
-2.19407712E+02
 11
-1.24249969E+02
 21
-2.19407712E+02
  0
LINE
  8
0
 62
7
 10
-1.01250040E+02
 20
-8.97076995E+01
 11
-6.22130523E+01
 21
-8.97076995E+01
  0
LINE
  8
0
 62
7
 10
-1.01250040E+02
 20
-8.35577208E+01
 11
-5.86623605E+01
 21
-8.35577208E+01
  0
LINE
  8
0
 62
7
 10
-1.01250040E+02
 20
-8.44077117E+01
 11
-5.91531030E+01
 21
-8.44077117E+01
  0
LINE
  8
0
 62
7
 10
-2.04250025E+02
 20
-1.11057723E+02
 11
-2.02750012E+02
 21
-1.12557735E+02
  0
LINE
  8
0
 62
2
 10
-2.03569977E+02
 20
-1.11737725E+02
 11
-1.97749969E+02
 21
-1.11737725E+02
  0
LINE
  8
0
 62
7
 10
-2.02750031E+02
 20
-1.12557717E+02
 11
-1.97749969E+02
 21
-1.12557717E+02
  0
LINE
  8
0
 62
7
 10
-2.04249924E+02
 20
-1.00057791E+02
 11
-2.02749978E+02
 21
-9.85577985E+01
  0
LINE
  8
0
 62
7
 10
-2.02750031E+02
 20
-9.85577018E+01
 11
-2.02750031E+02
 21
-1.12557717E+02
  0
LINE
  8
0
 62
2
 10
-2.03569977E+02
 20
-9.93776938E+01
 11
-1.97749969E+02
 21
-9.93776938E+01
  0
LINE
  8
0
 62
7
 10
-2.02750031E+02
 20
-9.85577018E+01
 11
-1.97749969E+02
 21
-9.85577018E+01
  0
LINE
  8
0
 62
7
 10
-2.04250031E+02
 20
-1.11057732E+02
 11
-2.04250031E+02
 21
-1.00057702E+02
  0
LINE
  8
0
 62
2
 10
-1.89749969E+02
 20
-1.11737725E+02
 11
-1.83250031E+02
 21
-1.11737725E+02
  0
LINE
  8
0
 62
7
 10
-1.89749969E+02
 20
-1.12557717E+02
 11
-1.83250031E+02
 21
-1.12557717E+02
  0
LINE
  8
0
 62
7
 10
-1.83250031E+02
 20
-1.11737725E+02
 11
-1.80250031E+02
 21
-1.11737725E+02
  0
LINE
  8
0
 62
2
 10
-1.89749969E+02
 20
-9.93776938E+01
 11
-1.83250031E+02
 21
-9.93776938E+01
  0
LINE
  8
0
 62
7
 10
-1.89749969E+02
 20
-9.85577018E+01
 11
-1.83250031E+02
 21
-9.85577018E+01
  0
LINE
  8
0
 62
7
 10
-1.83250031E+02
 20
-9.93776938E+01
 11
-1.80250031E+02
 21
-9.93776938E+01
  0
LINE
  8
0
 62
7
 10
-1.83250031E+02
 20
-9.85577018E+01
 11
-1.83250031E+02
 21
-1.12557717E+02
  0
LINE
  8
0
 62
2
 10
-1.89749969E+02
 20
-2.34377713E+02
 11
-1.83250031E+02
 21
-2.34377713E+02
  0
LINE
  8
0
 62
7
 10
-1.89749969E+02
 20
-2.33557721E+02
 11
-1.83250031E+02
 21
-2.33557721E+02
  0
ARC
  8
0
 62
4
 10
-1.81864114E+02
 20
-1.11057706E+02
 40
1.58859473E+01
 50
1.59743839E+02
 51
2.00256161E+02
  0
ARC
  8
0
 62
4
 10
-1.81864114E+02
 20
-1.00057706E+02
 40
1.58859474E+01
 50
1.59743839E+02
 51
2.00256161E+02
  0
ARC
  8
0
 62
4
 10
-2.05636011E+02
 20
-1.00057706E+02
 40
1.58859499E+01
 50
3.39743842E+02
 51
2.02561578E+01
  0
ARC
  8
0
 62
4
 10
-2.05636011E+02
 20
-1.11057706E+02
 40
1.58859499E+01
 50
3.39743842E+02
 51
2.02561578E+01
  0
LINE
  8
0
 62
4
 10
-1.97750061E+02
 20
-1.16557706E+02
 11
-1.89750061E+02
 21
-1.16557706E+02
  0
LINE
  8
0
 62
4
 10
-1.97750061E+02
 20
-9.45577056E+01
 11
-1.89750061E+02
 21
-9.45577056E+01
  0
LINE
  8
0
 62
4
 10
-1.96767581E+02
 20
-1.05557706E+02
 11
-1.90732541E+02
 21
-1.05557706E+02
  0
LINE
  8
0
 62
4
 10
-1.97750061E+02
 20
-1.16557706E+02
 11
-1.97750061E+02
 21
-9.45577056E+01
  0
LINE
  8
0
 62
4
 10
-1.89750061E+02
 20
-1.16557706E+02
 11
-1.89750061E+02
 21
-9.45577056E+01
  0
ARC
  8
0
 62
4
 10
-2.10767489E+02
 20
-2.40557706E+02
 40
2.10175199E+01
 50
1.22042667E-07
 51
1.75879537E+01
  0
ARC
  8
0
 62
4
 10
-1.95372780E+02
 20
-2.31031426E+02
 40
5.62281003E+00
 50
3.25615753E+02
 51
3.43842476E+01
  0
ARC
  8
0
 62
4
 10
-1.76732450E+02
 20
-2.40557706E+02
 40
2.10175199E+01
 50
1.62412046E+02
 51
1.80000000E+02
  0
ARC
  8
0
 62
4
 10
-1.92127159E+02
 20
-2.31031426E+02
 40
5.62281003E+00
 50
1.45615752E+02
 51
2.14384247E+02
  0
LINE
  8
0
 62
4
 10
-1.89749969E+02
 20
-2.29557706E+02
 11
-1.90732450E+02
 21
-2.27856000E+02
  0
LINE
  8
0
 62
4
 10
-1.97749970E+02
 20
-2.29557706E+02
 11
-1.96767489E+02
 21
-2.27856000E+02
  0
LINE
  8
0
 62
4
 10
-1.89749969E+02
 20
-2.40557706E+02
 11
-1.89749969E+02
 21
-2.29557706E+02
  0
LINE
  8
0
 62
4
 10
-1.97749969E+02
 20
-2.40557706E+02
 11
-1.97749969E+02
 21
-2.29557706E+02
  0
LINE
  8
0
 62
4
 10
-1.96767489E+02
 20
-2.34206853E+02
 11
-1.90732450E+02
 21
-2.34206853E+02
  0
LINE
  8
0
 62
4
 10
-1.96767489E+02
 20
-2.27856000E+02
 11
-1.90732450E+02
 21
-2.27856000E+02
  0
LINE
  8
0
 62
4
 10
-2.82749969E+02
 20
-2.34206853E+02
 11
-2.93749969E+02
 21
-2.27856000E+02
  0
LINE
  8
0
 62
4
 10
-2.82749969E+02
 20
-2.40557706E+02
 11
-2.82749969E+02
 21
-2.34206853E+02
  0
LINE
  8
0
 62
4
 10
-3.04749969E+02
 20
-2.34206853E+02
 11
-3.04749969E+02
 21
-2.40557706E+02
  0
LINE
  8
0
 62
4
 10
-2.93749969E+02
 20
-2.27856000E+02
 11
-3.04749969E+02
 21
-2.34206853E+02
  0
ARC
  8
0
 62
4
 10
-2.93749969E+02
 20
-2.40557706E+02
 40
1.10000000E+01
 50
0.00000000E+00
 51
1.80000000E+02
  0
ARC
  8
0
 62
7
 10
-2.93749969E+02
 20
-2.40557706E+02
 40
5.49998474E+00
 50
0.00000000E+00
 51
1.80000000E+02
  0
ARC
  8
0
 62
2
 10
-2.93749969E+02
 20
-2.40557706E+02
 40
6.17999268E+00
 50
0.00000000E+00
 51
1.80000000E+02
  0
ARC
  8
0
 62
7
 10
-2.93749969E+02
 20
-2.40557706E+02
 40
6.99998474E+00
 50
0.00000000E+00
 51
1.80000000E+02
  0
ARC
  8
0
 62
7
 10
-1.80250031E+02
 20
-2.40557706E+02
 40
8.00000000E+00
 50
0.00000000E+00
 51
2.89550399E+01
  0
ARC
  8
0
 62
7
 10
-1.65000076E+02
 20
-1.20566312E+02
 40
2.50000000E-01
 50
1.80000008E+02
 51
2.67999216E+02
  0
ARC
  8
0
 62
7
 10
-1.69750092E+02
 20
-1.20057706E+02
 40
5.00000000E-01
 50
1.80000008E+02
 51
2.69999998E+02
  0
ARC
  8
0
 62
7
 10
-1.69750092E+02
 20
-9.10577056E+01
 40
5.00000000E-01
 50
9.00000231E+01
 51
1.80000005E+02
  0
ARC
  8
0
 62
7
 10
-1.65000076E+02
 20
-9.05490843E+01
 40
2.50000000E-01
 50
9.20007768E+01
 51
1.79999991E+02
  0
ARC
  8
0
 62
7
 10
-1.69750092E+02
 20
-2.26057706E+02
 40
5.00000000E-01
 50
8.99999818E+01
 51
1.79999964E+02
  0
ARC
  8
0
 62
7
 10
-1.65000046E+02
 20
-2.25549100E+02
 40
2.50000000E-01
 50
9.20007356E+01
 51
1.79999964E+02
  0
CIRCLE
  8
0
 62
2
 10
-2.75249939E+02
 20
-2.22057614E+02
 40
3.00000000E+00
  0
CIRCLE
  8
0
 62
2
 10
-3.12250000E+02
 20
-2.22057645E+02
 40
3.00000000E+00
  0
ARC
  8
0
 62
7
 10
-2.93750000E+02
 20
-2.40557706E+02
 40
1.50000000E+01
 50
0.00000000E+00
 51
1.80000000E+02
  0
ARC
  8
0
 62
7
 10
-2.93750000E+02
 20
-2.40557706E+02
 40
1.55000010E+01
 50
0.00000000E+00
 51
1.80000000E+02
  0
ARC
  8
0
 62
7
 10
-2.93750000E+02
 20
-2.40557706E+02
 40
1.60000000E+01
 50
0.00000000E+00
 51
1.80000000E+02
  0
ARC
  8
0
 62
7
 10
-3.04391418E+02
 20
-2.23555142E+02
 40
1.00000000E+00
 50
8.79747829E+01
 51
1.69211502E+02
  0
ARC
  8
0
 62
7
 10
-2.98750092E+02
 20
-2.19557690E+02
 40
1.00000000E+00
 50
8.99999818E+01
 51
1.79999964E+02
  0
ARC
  8
0
 62
7
 10
-3.10752502E+02
 20
-2.29916272E+02
 40
1.00000000E+00
 50
1.00789058E+02
 51
1.82026085E+02
  0
ARC
  8
0
 62
7
 10
-3.14750000E+02
 20
-2.35557675E+02
 40
1.00000000E+00
 50
8.99999818E+01
 51
1.79999964E+02
  0
ARC
  8
0
 62
7
 10
-3.02750061E+02
 20
-2.19557645E+02
 40
3.00000000E+00
 50
2.67974184E+02
 51
3.59999399E+02
  0
ARC
  8
0
 62
7
 10
-3.14750000E+02
 20
-2.31557675E+02
 40
3.00000000E+00
 50
2.70000018E+02
 51
0.00000000E+00
  0
ARC
  8
0
 62
7
 10
-3.10631958E+02
 20
-2.38557706E+02
 40
1.00000000E+00
 50
2.69999963E+02
 51
3.53243741E+02
  0
ARC
  8
0
 62
7
 10
-3.07101562E+02
 20
-2.30034543E+02
 40
1.00000000E+00
 50
3.21755790E+02
 51
4.49993763E+01
  0
ARC
  8
0
 62
7
 10
-3.04273163E+02
 20
-2.27206113E+02
 40
1.00000000E+00
 50
2.24999972E+02
 51
3.08243613E+02
  0
ARC
  8
0
 62
7
 10
-2.95750000E+02
 20
-2.23675748E+02
 40
1.00000000E+00
 50
2.76756086E+02
 51
3.59999959E+02
  0
ARC
  8
0
 62
7
 10
-3.08187042E+02
 20
-2.28949093E+02
 40
1.00000000E+00
 50
4.50006194E+01
 51
1.20522431E+02
  0
ARC
  8
0
 62
7
 10
-3.12250000E+02
 20
-2.22057645E+02
 40
7.00000000E+00
 50
2.80788616E+02
 51
3.49211279E+02
  0
ARC
  8
0
 62
7
 10
-3.05358582E+02
 20
-2.26120663E+02
 40
1.00000000E+00
 50
1.49477747E+02
 51
2.24999340E+02
  0
ARC
  8
0
 62
7
 10
-2.95750000E+02
 20
-2.19557706E+02
 40
1.00000000E+00
 50
3.59999959E+02
 51
8.99999956E+01
  0
ARC
  8
0
 62
7
 10
-3.14750000E+02
 20
-2.38557706E+02
 40
1.00000000E+00
 50
1.79999964E+02
 51
2.69999946E+02
  0
CIRCLE
  8
0
 62
7
 10
-3.12250000E+02
 20
-2.22057645E+02
 40
5.00000000E+00
  0
CIRCLE
  8
0
 62
7
 10
-3.12250000E+02
 20
-2.22057645E+02
 40
4.50000000E+00
  0
ARC
  8
0
 62
7
 10
-3.15750061E+02
 20
-2.18557675E+02
 40
3.00000000E+00
 50
8.99999818E+01
 51
1.79999964E+02
  0
ARC
  8
0
 62
7
 10
-3.15750000E+02
 20
-2.18557675E+02
 40
2.50000000E+00
 50
8.99999818E+01
 51
1.79999964E+02
  0
ARC
  8
0
 62
7
 10
-2.88750000E+02
 20
-2.19557690E+02
 40
1.00000000E+00
 50
0.00000000E+00
 51
8.99999818E+01
  0
ARC
  8
0
 62
7
 10
-2.84750000E+02
 20
-2.19557645E+02
 40
3.00000000E+00
 50
1.80000569E+02
 51
2.72025798E+02
  0
ARC
  8
0
 62
7
 10
-2.83108612E+02
 20
-2.23555142E+02
 40
1.00000000E+00
 50
1.07884614E+01
 51
9.20251808E+01
  0
ARC
  8
0
 62
7
 10
-2.75250031E+02
 20
-2.22057645E+02
 40
7.00000000E+00
 50
1.90788689E+02
 51
2.59211379E+02
  0
ARC
  8
0
 62
7
 10
-2.76747528E+02
 20
-2.29916226E+02
 40
1.00000000E+00
 50
3.57973879E+02
 51
7.92109058E+01
  0
ARC
  8
0
 62
7
 10
-2.72750031E+02
 20
-2.31557675E+02
 40
3.00000000E+00
 50
1.77973583E+02
 51
2.69999946E+02
  0
ARC
  8
0
 62
7
 10
-2.72750031E+02
 20
-2.35557675E+02
 40
1.00000000E+00
 50
0.00000000E+00
 51
8.99999818E+01
  0
ARC
  8
0
 62
7
 10
-2.71750000E+02
 20
-2.18557675E+02
 40
3.00000000E+00
 50
0.00000000E+00
 51
8.99999818E+01
  0
ARC
  8
0
 62
7
 10
-2.83226868E+02
 20
-2.27206174E+02
 40
1.00000000E+00
 50
2.31755794E+02
 51
3.14999380E+02
  0
ARC
  8
0
 62
7
 10
-2.80398468E+02
 20
-2.30034604E+02
 40
1.00000000E+00
 50
1.34999959E+02
 51
2.18243614E+02
  0
ARC
  8
0
 62
7
 10
-2.91750000E+02
 20
-2.23675748E+02
 40
1.00000000E+00
 50
1.79999964E+02
 51
2.63243741E+02
  0
ARC
  8
0
 62
7
 10
-2.91750000E+02
 20
-2.19557706E+02
 40
1.00000000E+00
 50
8.99999818E+01
 51
1.79999964E+02
  0
ARC
  8
0
 62
7
 10
-2.79312988E+02
 20
-2.28949124E+02
 40
1.00000000E+00
 50
5.94777518E+01
 51
1.34999345E+02
  0
ARC
  8
0
 62
7
 10
-2.76868073E+02
 20
-2.38557706E+02
 40
1.00000000E+00
 50
1.86756090E+02
 51
2.69999963E+02
  0
ARC
  8
0
 62
7
 10
-2.72750031E+02
 20
-2.38557706E+02
 40
1.00000000E+00
 50
2.69999963E+02
 51
0.00000000E+00
  0
ARC
  8
0
 62
7
 10
-2.82141418E+02
 20
-2.26120724E+02
 40
1.00000000E+00
 50
3.15000624E+02
 51
3.05224488E+01
  0
CIRCLE
  8
0
 62
7
 10
-2.75249939E+02
 20
-2.22057706E+02
 40
4.50000000E+00
  0
ARC
  8
0
 62
2
 10
-1.37250000E+02
 20
-1.01557767E+02
 40
6.57849979E+00
 50
7.68200956E+01
 51
3.35950142E+02
  0
CIRCLE
  8
0
 62
7
 10
-2.75249939E+02
 20
-2.22057706E+02
 40
5.00000000E+00
  0
ARC
  8
0
 62
7
 10
-2.71750000E+02
 20
-2.18557736E+02
 40
2.50000000E+00
 50
0.00000000E+00
 51
8.99999818E+01
  0
ARC
  8
0
 62
7
 10
-3.26872498E+02
 20
-2.30823147E+02
 40
2.50000000E+00
 50
1.72308570E+02
 51
2.63627161E+02
  0
ARC
  8
0
 62
7
 10
-3.26872498E+02
 20
-2.28292279E+02
 40
2.50000000E+00
 50
8.99999956E+01
 51
1.72308570E+02
  0
CIRCLE
  8
0
 62
7
 10
-1.29750000E+02
 20
-1.15557706E+02
 40
2.09999990E+00
  0
ARC
  8
0
 62
7
 10
-1.56750031E+02
 20
-2.25057721E+02
 40
5.00000000E-01
 50
8.99999274E+01
 51
1.79999909E+02
  0
ARC
  8
0
 62
7
 10
-1.56750046E+02
 20
-1.21057690E+02
 40
5.00000000E-01
 50
1.80000022E+02
 51
2.69999998E+02
  0
ARC
  8
0
 62
7
 10
-1.56750046E+02
 20
-9.00577208E+01
 40
5.00000000E-01
 50
9.00000369E+01
 51
1.80000032E+02
  0
CIRCLE
  8
0
 62
7
 10
-1.29750000E+02
 20
-1.15557706E+02
 40
4.00000000E+00
  0
ARC
  8
0
 62
7
 10
-1.37250000E+02
 20
-1.01557767E+02
 40
5.65999985E+00
 50
7.46324201E+01
 51
3.31727516E+02
  0
LINE
  8
0
 62
7
 10
-1.77250031E+02
 20
-9.85577056E+01
 11
-1.77250031E+02
 21
-1.12557736E+02
  0
LINE
  8
0
 62
7
 10
-1.73250031E+02
 20
-1.12557697E+02
 11
-1.72250009E+02
 21
-1.13557719E+02
  0
LINE
  8
0
 62
7
 10
-1.73250067E+02
 20
-9.85576708E+01
 11
-1.72250116E+02
 21
-9.75577203E+01
  0
LINE
  8
0
 62
7
 10
-1.80250031E+02
 20
-1.12557736E+02
 11
-1.73249985E+02
 21
-1.12557736E+02
  0
LINE
  8
0
 62
7
 10
-1.80250031E+02
 20
-9.85577056E+01
 11
-1.73250061E+02
 21
-9.85577056E+01
  0
LINE
  8
0
 62
7
 10
-1.80250031E+02
 20
-9.85577056E+01
 11
-1.80250031E+02
 21
-1.12557736E+02
  0
LINE
  8
0
 62
7
 10
-1.72250000E+02
 20
-1.13557721E+02
 11
-1.70250031E+02
 21
-1.13557721E+02
  0
LINE
  8
0
 62
7
 10
-1.72250092E+02
 20
-9.75577361E+01
 11
-1.70250015E+02
 21
-9.75577361E+01
  0
LINE
  8
0
 62
7
 10
-1.83250031E+02
 20
-2.34377713E+02
 11
-1.80250031E+02
 21
-2.34377713E+02
  0
LINE
  8
0
 62
7
 10
-1.77250049E+02
 20
-2.32557686E+02
 11
-1.80250054E+02
 21
-2.33557718E+02
  0
LINE
  8
0
 62
7
 10
-1.80250043E+02
 20
-2.40557709E+02
 11
-1.77250042E+02
 21
-2.36684722E+02
  0
LINE
  8
0
 62
7
 10
-1.77250046E+02
 20
-2.32557690E+02
 11
-1.70250061E+02
 21
-2.32557690E+02
  0
LINE
  8
0
 62
2
 10
-1.78634652E+02
 20
-2.38472244E+02
 11
-1.76750030E+02
 21
-2.40557706E+02
  0
LINE
  8
0
 62
2
 10
-1.76750022E+02
 20
-2.40557706E+02
 11
-1.73250026E+02
 21
-2.36684724E+02
  0
LINE
  8
0
 62
7
 10
-1.77250031E+02
 20
-2.36684720E+02
 11
-1.73250046E+02
 21
-2.36684720E+02
  0
LINE
  8
0
 62
7
 10
-2.04249924E+02
 20
-2.35057810E+02
 11
-2.02749978E+02
 21
-2.33557818E+02
  0
LINE
  8
0
 62
7
 10
-1.83250031E+02
 20
-2.33557721E+02
 11
-1.83250031E+02
 21
-2.40557706E+02
  0
LINE
  8
0
 62
7
 10
-2.02750031E+02
 20
-2.33557721E+02
 11
-2.02750031E+02
 21
-2.40557706E+02
  0
LINE
  8
0
 62
2
 10
-2.03569977E+02
 20
-2.34377713E+02
 11
-1.97749969E+02
 21
-2.34377713E+02
  0
LINE
  8
0
 62
7
 10
-2.02750031E+02
 20
-2.33557721E+02
 11
-1.97749969E+02
 21
-2.33557721E+02
  0
LINE
  8
0
 62
7
 10
-2.04250031E+02
 20
-2.40557706E+02
 11
-2.04250031E+02
 21
-2.35057721E+02
  0
LINE
  8
0
 62
7
 10
-1.73250046E+02
 20
-2.40557706E+02
 11
-1.73250046E+02
 21
-2.36684720E+02
  0
LINE
  8
0
 62
7
 10
-1.77250046E+02
 20
-2.36684720E+02
 11
-1.77250046E+02
 21
-2.32557736E+02
  0
LINE
  8
0
 62
7
 10
-1.80250031E+02
 20
-2.40557706E+02
 11
-1.80250031E+02
 21
-2.33557721E+02
  0
LINE
  8
0
  6
CENTER
 62
2
 10
-2.83749969E+02
 20
-2.32203610E+02
 11
-2.83749969E+02
 21
-2.13628689E+02
  0
LINE
  8
0
  6
CENTER
 62
2
 10
-2.81631409E+02
 20
-2.22057629E+02
 11
-2.67109772E+02
 21
-2.22057629E+02
  0
LINE
  8
0
 62
7
 10
-3.11749969E+02
 20
-2.29845547E+02
 11
-3.11749969E+02
 21
-2.31807675E+02
  0
LINE
  8
0
 62
7
 10
-3.04461761E+02
 20
-2.22557599E+02
 11
-3.02500092E+02
 21
-2.22557599E+02
  0
LINE
  8
0
 62
7
 10
-2.83037048E+02
 20
-2.22557675E+02
 11
-2.85000000E+02
 21
-2.22557675E+02
  0
LINE
  8
0
 62
7
 10
-2.75749908E+02
 20
-2.29846402E+02
 11
-2.75749908E+02
 21
-2.31807675E+02
  0
LINE
  8
0
 62
7
 10
-2.73749969E+02
 20
-2.15557675E+02
 11
-2.73749969E+02
 21
-2.16057736E+02
  0
LINE
  8
0
 62
7
 10
-3.13749969E+02
 20
-2.15557675E+02
 11
-3.13749969E+02
 21
-2.16057675E+02
  0
LINE
  8
0
  6
CENTER
 62
2
 10
-2.93749969E+02
 20
-2.12062726E+02
 11
-2.93749969E+02
 21
-2.40557706E+02
  0
LINE
  8
0
 62
7
 10
-2.99327026E+02
 20
-2.18740903E+02
 11
-2.99327026E+02
 21
-2.25561154E+02
  0
LINE
  8
0
  6
CENTER
 62
2
 10
-2.97750031E+02
 20
-2.13805325E+02
 11
-2.97750031E+02
 21
-2.29191479E+02
  0
LINE
  8
0
 62
7
 10
-3.15749969E+02
 20
-2.35557675E+02
 11
-3.15749969E+02
 21
-2.40557706E+02
  0
LINE
  8
0
 62
7
 10
-2.98750092E+02
 20
-2.18557645E+02
 11
-2.88750000E+02
 21
-2.18557645E+02
  0
LINE
  8
0
 62
7
 10
-3.06065833E+02
 20
-2.26827837E+02
 11
-3.04980335E+02
 21
-2.27913334E+02
  0
LINE
  8
0
 62
7
 10
-3.07479981E+02
 20
-2.28242029E+02
 11
-3.06394483E+02
 21
-2.29327527E+02
  0
LINE
  8
0
 62
7
 10
-3.14750000E+02
 20
-2.39557690E+02
 11
-3.10631958E+02
 21
-2.39557690E+02
  0
LINE
  8
0
 62
7
 10
-2.94750000E+02
 20
-2.19557706E+02
 11
-2.94750000E+02
 21
-2.23675748E+02
  0
LINE
  8
0
 62
7
 10
-3.18750031E+02
 20
-2.18557675E+02
 11
-3.18750031E+02
 21
-2.40557706E+02
  0
LINE
  8
0
 62
7
 10
-3.18249969E+02
 20
-2.18557675E+02
 11
-3.18249969E+02
 21
-2.40557706E+02
  0
LINE
  8
0
 62
7
 10
-2.71749969E+02
 20
-2.35557675E+02
 11
-2.71749969E+02
 21
-2.40557706E+02
  0
LINE
  8
0
 62
7
 10
-2.92750000E+02
 20
-2.19557706E+02
 11
-2.92750000E+02
 21
-2.23675778E+02
  0
LINE
  8
0
 62
7
 10
-2.80020214E+02
 20
-2.28241941E+02
 11
-2.81105691E+02
 21
-2.29327417E+02
  0
LINE
  8
0
 62
7
 10
-2.72750031E+02
 20
-2.39557690E+02
 11
-2.76868073E+02
 21
-2.39557690E+02
  0
LINE
  8
0
 62
7
 10
-2.69249969E+02
 20
-2.18557736E+02
 11
-2.69249969E+02
 21
-2.40557706E+02
  0
LINE
  8
0
 62
7
 10
-3.15750000E+02
 20
-2.16057645E+02
 11
-2.71750000E+02
 21
-2.16057706E+02
  0
LINE
  8
0
 62
7
 10
-2.68749969E+02
 20
-2.18557675E+02
 11
-2.68749969E+02
 21
-2.40557706E+02
  0
LINE
  8
0
  6
CENTER
 62
2
 10
-2.75249908E+02
 20
-2.13551068E+02
 11
-2.75249908E+02
 21
-2.28472195E+02
  0
LINE
  8
0
 62
7
 10
-3.26750000E+02
 20
-2.21057706E+02
 11
-3.20397382E+02
 21
-2.21057706E+02
  0
LINE
  8
0
  6
CENTER
 62
2
 10
-3.20839935E+02
 20
-2.22057629E+02
 11
-3.06173035E+02
 21
-2.22057629E+02
  0
LINE
  8
0
  6
CENTER
 62
2
 10
-3.12250000E+02
 20
-2.13655057E+02
 11
-3.12250000E+02
 21
-2.29942059E+02
  0
LINE
  8
0
 62
7
 10
-3.29349976E+02
 20
-2.27957699E+02
 11
-3.29349976E+02
 21
-2.31157727E+02
  0
LINE
  8
0
 62
7
 10
-2.81434374E+02
 20
-2.26827759E+02
 11
-2.82519807E+02
 21
-2.27913192E+02
  0
LINE
  8
0
 62
7
 10
-3.15750061E+02
 20
-2.15557645E+02
 11
-2.71750000E+02
 21
-2.15557645E+02
  0
LINE
  8
0
 62
7
 10
-3.27149994E+02
 20
-2.25807721E+02
 11
-3.26750000E+02
 21
-2.25807721E+02
  0
LINE
  8
0
  6
CENTER
 62
2
 10
-2.07787903E+02
 20
-1.05557706E+02
 11
-1.20750040E+02
 21
-1.05557706E+02
  0
LINE
  8
0
 62
7
 10
-3.26749969E+02
 20
-2.40557706E+02
 11
-3.26749969E+02
 21
-2.21057706E+02
  0
LINE
  8
0
 62
7
 10
-3.27149933E+02
 20
-2.33307721E+02
 11
-3.26750000E+02
 21
-2.33307721E+02
  0
LINE
  8
0
 62
7
 10
-1.31193507E+02
 20
-1.15557780E+02
 11
-1.30471850E+02
 21
-1.16807744E+02
  0
LINE
  8
0
 62
7
 10
-1.30471680E+02
 20
-1.16807660E+02
 11
-1.29028290E+02
 21
-1.16807660E+02
  0
LINE
  8
0
 62
7
 10
-1.29028288E+02
 20
-1.16807723E+02
 11
-1.28306589E+02
 21
-1.15557687E+02
  0
LINE
  8
0
 62
7
 10
-1.28306707E+02
 20
-1.15557714E+02
 11
-1.29028379E+02
 21
-1.14307724E+02
  0
LINE
  8
0
 62
7
 10
-1.65250015E+02
 20
-9.05576750E+01
 11
-1.65250015E+02
 21
-1.20557736E+02
  0
LINE
  8
0
 62
7
 10
-1.65008809E+02
 20
-9.02991097E+01
 11
-1.57249226E+02
 21
-9.00281403E+01
  0
LINE
  8
0
 62
7
 10
-1.69750107E+02
 20
-9.05576293E+01
 11
-1.65241135E+02
 21
-9.05576293E+01
  0
LINE
  8
0
 62
7
 10
-1.70250015E+02
 20
-1.20057706E+02
 11
-1.70250015E+02
 21
-9.10577056E+01
  0
LINE
  8
0
 62
7
 10
-1.30471680E+02
 20
-1.14307645E+02
 11
-1.29028290E+02
 21
-1.14307645E+02
  0
LINE
  8
0
 62
7
 10
-1.31193316E+02
 20
-1.15557663E+02
 11
-1.30471640E+02
 21
-1.14307666E+02
  0
LINE
  8
0
 62
7
 10
-1.56750031E+02
 20
-2.24557706E+02
 11
-1.55250061E+02
 21
-2.24557706E+02
  0
LINE
  8
0
 62
7
 10
-1.57250046E+02
 20
-2.25057721E+02
 11
-1.57250046E+02
 21
-2.40557706E+02
  0
LINE
  8
0
 62
7
 10
-1.55250051E+02
 20
-8.13431669E+01
 11
-1.24249996E+02
 21
-8.05314019E+01
  0
LINE
  8
0
  6
CENTER
 62
2
 10
-1.35446594E+02
 20
-1.15557706E+02
 11
-1.23831116E+02
 21
-1.15557706E+02
  0
LINE
  8
0
 62
7
 10
-1.24249997E+02
 20
-2.15557822E+02
 11
-1.55250052E+02
 21
-2.16098935E+02
  0
LINE
  8
0
 62
7
 10
-1.57250000E+02
 20
-1.21057690E+02
 11
-1.57250000E+02
 21
-9.00282866E+01
  0
LINE
  8
0
 62
7
 10
-1.55250015E+02
 20
-8.13431670E+01
 11
-1.55250015E+02
 21
-1.29772122E+02
  0
LINE
  8
0
 62
7
 10
-1.56750046E+02
 20
-1.21557721E+02
 11
-1.55250061E+02
 21
-1.21557721E+02
  0
LINE
  8
0
 62
7
 10
-1.56750046E+02
 20
-8.95577361E+01
 11
-1.55250061E+02
 21
-8.95577361E+01
  0
LINE
  8
0
  6
CENTER
 62
2
 10
-1.29750000E+02
 20
-1.21477429E+02
 11
-1.29750000E+02
 21
-1.09952786E+02
  0
LINE
  8
0
  6
CENTER
 62
2
 10
-1.47366730E+02
 20
-1.01557767E+02
 11
-1.35750040E+02
 21
-1.01557767E+02
  0
LINE
  8
0
  6
CENTER
 62
2
 10
-1.37250000E+02
 20
-1.11573575E+02
 11
-1.37250000E+02
 21
-9.14135405E+01
  0
LINE
  8
0
 62
7
 10
-1.69750107E+02
 20
-1.20557706E+02
 11
-1.65241135E+02
 21
-1.20557706E+02
  0
LINE
  8
0
 62
7
 10
-1.65008857E+02
 20
-1.20816050E+02
 11
-1.57249289E+02
 21
-1.21087021E+02
  0
LINE
  8
0
 62
7
 10
-1.65008759E+02
 20
-2.25299193E+02
 11
-1.57249191E+02
 21
-2.25028223E+02
  0
LINE
  8
0
 62
7
 10
-1.69750107E+02
 20
-2.25557675E+02
 11
-1.65241135E+02
 21
-2.25557675E+02
  0
LINE
  8
0
 62
7
 10
-1.70250046E+02
 20
-2.40557706E+02
 11
-1.70250046E+02
 21
-2.26057706E+02
  0
LINE
  8
0
  6
CENTER
 62
2
 10
-3.28969116E+02
 20
-2.40557706E+02
 11
-2.64448761E+02
 21
-2.40557706E+02
  0
LINE
  8
0
 62
7
 10
-1.65250046E+02
 20
-2.40557706E+02
 11
-1.65250046E+02
 21
-2.25557675E+02
  0
LINE
  8
0
  6
CENTER
 62
2
 10
-1.37250015E+02
 20
-2.13805325E+02
 11
-1.37250015E+02
 21
-2.24883343E+02
  0
LINE
  8
0
 62
7
 10
-1.50249985E+02
 20
-2.16011655E+02
 11
-1.50249985E+02
 21
-2.15557706E+02
  0
LINE
  8
0
  6
CENTER
 62
2
 10
-6.06830777E+01
 20
-2.22057706E+02
 11
-1.57353516E+02
 21
-2.22057706E+02
  0
LINE
  8
0
 62
7
 10
-1.55250045E+02
 20
-1.29772128E+02
 11
-1.24250005E+02
 21
-1.30583892E+02
  0
LINE
  8
0
 62
7
 10
-1.50250000E+02
 20
-2.15557706E+02
 11
-1.24250000E+02
 21
-2.15557706E+02
  0
LINE
  8
0
 62
7
 10
-1.55250046E+02
 20
-2.16098935E+02
 11
-1.55250046E+02
 21
-2.40557706E+02
  0
LINE
  8
0
  6
CENTER
 62
2
 10
-2.07079865E+02
 20
-2.40557706E+02
 11
-7.13640576E+01
 21
-2.40557706E+02
  0
LINE
  8
0
  6
CENTER
 62
2
 10
-1.57477081E+02
 20
-8.70577056E+01
 11
-1.16250040E+02
 21
-8.70577056E+01
  0
LINE
  8
0
  6
CENTER
 62
2
 10
-1.57477081E+02
 20
-1.24057706E+02
 11
-8.20450376E+01
 21
-1.24057706E+02
  0
LINE
  8
0
  6
CENTER
 62
2
 10
-3.30214050E+02
 20
-2.29557721E+02
 11
-3.26750000E+02
 21
-2.29557721E+02
  0
LINE
  8
0
 62
7
 10
-1.24250046E+02
 20
-8.35577208E+01
 11
-1.16250040E+02
 21
-8.35577208E+01
  0
LINE
  8
0
 62
7
 10
-1.24250046E+02
 20
-8.44077117E+01
 11
-1.16250040E+02
 21
-8.44077117E+01
  0
LINE
  8
0
 62
7
 10
-1.24250046E+02
 20
-8.97076995E+01
 11
-1.16250040E+02
 21
-8.97076995E+01
  0
LINE
  8
0
 62
7
 10
-1.24250046E+02
 20
-1.27557690E+02
 11
-8.40657548E+01
 21
-1.27557690E+02
  0
LINE
  8
0
 62
7
 10
-1.24250046E+02
 20
-1.26707699E+02
 11
-8.35750123E+01
 21
-1.26707699E+02
  0
LINE
  8
0
 62
7
 10
-1.24250046E+02
 20
-1.21407712E+02
 11
-8.05150629E+01
 21
-1.21407712E+02
  0
LINE
  8
0
 62
7
 10
-1.24250000E+02
 20
-2.15557706E+02
 11
-1.24250000E+02
 21
-2.40557706E+02
  0
LINE
  8
0
 62
7
 10
-1.24250046E+02
 20
-1.30557706E+02
 11
-1.24250046E+02
 21
-1.04099778E+02
  0
LINE
  8
0
  6
CENTER
 62
2
 10
-8.17500403E+01
 20
-1.05557706E+02
 11
-7.13640576E+01
 21
-1.05557706E+02
  0
LINE
  8
0
  6
CENTER
 62
2
 10
-1.01250040E+02
 20
-8.70577056E+01
 11
-6.06830777E+01
 21
-8.70577056E+01
  0
LINE
  8
0
 62
2
 10
-7.50526407E+01
 20
-2.46946519E+02
 11
-5.71151400E+01
 21
-2.15877856E+02
  0
LINE
  8
0
 62
2
 10
-8.63838238E+01
 20
-1.31572704E+02
 11
-5.71151400E+01
 21
-8.08778562E+01
  0
LINE
  8
0
 62
7
 10
1.42083373E+02
 20
-2.24707699E+02
 11
1.88221705E+02
 21
-2.24707699E+02
  0
LINE
  8
0
 62
7
 10
1.45634065E+02
 20
-2.18557721E+02
 11
1.71721705E+02
 21
-2.18557721E+02
  0
LINE
  8
0
 62
7
 10
1.45143323E+02
 20
-2.19407712E+02
 11
1.88221705E+02
 21
-2.19407712E+02
  0
LINE
  8
0
  6
CENTER
 62
2
 10
1.43613348E+02
 20
-2.22057706E+02
 11
1.88221705E+02
 21
-2.22057706E+02
  0
LINE
  8
0
  6
CENTER
 62
2
 10
2.94051569E+02
 20
-2.40557706E+02
 11
1.32932368E+02
 21
-2.40557706E+02
  0
LINE
  8
0
 62
7
 10
2.11221705E+02
 20
-2.15557706E+02
 11
2.11221705E+02
 21
-2.40557706E+02
  0
LINE
  8
0
 62
7
 10
2.42221750E+02
 20
-2.16098935E+02
 11
2.42221750E+02
 21
-2.40557706E+02
  0
LINE
  8
0
 62
7
 10
2.37221705E+02
 20
-2.15557706E+02
 11
2.11221705E+02
 21
-2.15557706E+02
  0
LINE
  8
0
 62
7
 10
2.37221689E+02
 20
-2.16011655E+02
 11
2.37221689E+02
 21
-2.15557706E+02
  0
LINE
  8
0
  6
CENTER
 62
2
 10
2.24221720E+02
 20
-2.13805325E+02
 11
2.24221720E+02
 21
-2.24883343E+02
  0
LINE
  8
0
 62
7
 10
2.52221750E+02
 20
-2.40557706E+02
 11
2.52221750E+02
 21
-2.25557675E+02
  0
LINE
  8
0
 62
7
 10
2.57221750E+02
 20
-2.40557706E+02
 11
2.57221750E+02
 21
-2.26057706E+02
  0
LINE
  8
0
 62
7
 10
2.56721812E+02
 20
-2.25557675E+02
 11
2.52212839E+02
 21
-2.25557675E+02
  0
LINE
  8
0
 62
7
 10
2.51980464E+02
 20
-2.25299193E+02
 11
2.44220896E+02
 21
-2.25028223E+02
  0
LINE
  8
0
 62
7
 10
2.11221702E+02
 20
-2.15557822E+02
 11
2.42221756E+02
 21
-2.16098935E+02
  0
LINE
  8
0
 62
7
 10
2.44221750E+02
 20
-2.25057721E+02
 11
2.44221750E+02
 21
-2.40557706E+02
  0
LINE
  8
0
 62
7
 10
2.43721735E+02
 20
-2.24557706E+02
 11
2.42221766E+02
 21
-2.24557706E+02
  0
LINE
  8
0
 62
7
 10
2.67221735E+02
 20
-2.40557706E+02
 11
2.67221735E+02
 21
-2.33557721E+02
  0
LINE
  8
0
 62
7
 10
2.64221750E+02
 20
-2.36684720E+02
 11
2.64221750E+02
 21
-2.32557736E+02
  0
LINE
  8
0
 62
7
 10
2.60221750E+02
 20
-2.40557706E+02
 11
2.60221750E+02
 21
-2.36684720E+02
  0
LINE
  8
0
 62
7
 10
2.91221735E+02
 20
-2.40557706E+02
 11
2.91221735E+02
 21
-2.35057721E+02
  0
LINE
  8
0
 62
7
 10
2.89721735E+02
 20
-2.33557721E+02
 11
2.84721674E+02
 21
-2.33557721E+02
  0
LINE
  8
0
 62
2
 10
2.90541682E+02
 20
-2.34377713E+02
 11
2.84721674E+02
 21
-2.34377713E+02
  0
LINE
  8
0
 62
7
 10
2.89721735E+02
 20
-2.33557721E+02
 11
2.89721735E+02
 21
-2.40557706E+02
  0
LINE
  8
0
 62
7
 10
2.70221735E+02
 20
-2.33557721E+02
 11
2.70221735E+02
 21
-2.40557706E+02
  0
LINE
  8
0
 62
7
 10
2.91221629E+02
 20
-2.35057810E+02
 11
2.89721683E+02
 21
-2.33557818E+02
  0
LINE
  8
0
 62
7
 10
2.64221735E+02
 20
-2.36684720E+02
 11
2.60221750E+02
 21
-2.36684720E+02
  0
LINE
  8
0
 62
2
 10
2.63721727E+02
 20
-2.40557706E+02
 11
2.60221730E+02
 21
-2.36684724E+02
  0
LINE
  8
0
 62
2
 10
2.65606357E+02
 20
-2.38472244E+02
 11
2.63721735E+02
 21
-2.40557706E+02
  0
LINE
  8
0
 62
7
 10
2.64221750E+02
 20
-2.32557690E+02
 11
2.57221766E+02
 21
-2.32557690E+02
  0
LINE
  8
0
 62
7
 10
2.67221748E+02
 20
-2.40557709E+02
 11
2.64221747E+02
 21
-2.36684722E+02
  0
LINE
  8
0
 62
7
 10
2.64221754E+02
 20
-2.32557686E+02
 11
2.67221759E+02
 21
-2.33557718E+02
  0
LINE
  8
0
 62
7
 10
2.70221735E+02
 20
-2.34377713E+02
 11
2.67221735E+02
 21
-2.34377713E+02
  0
ARC
  8
0
 62
7
 10
2.43721735E+02
 20
-2.25057721E+02
 40
5.00000000E-01
 50
9.06136918E-05
 51
9.00000724E+01
  0
ARC
  8
0
 62
7
 10
2.51971750E+02
 20
-2.25549100E+02
 40
2.50000000E-01
 50
3.59721787E-05
 51
8.79992642E+01
  0
ARC
  8
0
 62
7
 10
2.56721796E+02
 20
-2.26057706E+02
 40
5.00000000E-01
 50
3.59721787E-05
 51
9.00000179E+01
  0
ARC
  8
0
 62
7
 10
2.67221735E+02
 20
-2.40557706E+02
 40
8.00000000E+00
 50
1.51044960E+02
 51
1.80000000E+02
  0
LINE
  8
0
 62
4
 10
2.83739194E+02
 20
-2.27856000E+02
 11
2.77704155E+02
 21
-2.27856000E+02
  0
LINE
  8
0
 62
4
 10
2.83739194E+02
 20
-2.34206853E+02
 11
2.77704155E+02
 21
-2.34206853E+02
  0
LINE
  8
0
 62
4
 10
2.84721674E+02
 20
-2.40557706E+02
 11
2.84721674E+02
 21
-2.29557706E+02
  0
LINE
  8
0
 62
4
 10
2.76721674E+02
 20
-2.40557706E+02
 11
2.76721674E+02
 21
-2.29557706E+02
  0
LINE
  8
0
 62
4
 10
2.84721674E+02
 20
-2.29557706E+02
 11
2.83739194E+02
 21
-2.27856000E+02
  0
LINE
  8
0
 62
4
 10
2.76721674E+02
 20
-2.29557706E+02
 11
2.77704155E+02
 21
-2.27856000E+02
  0
ARC
  8
0
 62
4
 10
2.79098864E+02
 20
-2.31031426E+02
 40
5.62281003E+00
 50
3.25615753E+02
 51
3.43842476E+01
  0
ARC
  8
0
 62
4
 10
2.63704154E+02
 20
-2.40557706E+02
 40
2.10175199E+01
 50
1.22042641E-07
 51
1.75879537E+01
  0
ARC
  8
0
 62
4
 10
2.82344484E+02
 20
-2.31031426E+02
 40
5.62281003E+00
 50
1.45615752E+02
 51
2.14384247E+02
  0
ARC
  8
0
 62
4
 10
2.97739194E+02
 20
-2.40557706E+02
 40
2.10175199E+01
 50
1.62412046E+02
 51
1.80000000E+02
  0
LINE
  8
0
 62
7
 10
2.76721674E+02
 20
-2.33557721E+02
 11
2.70221735E+02
 21
-2.33557721E+02
  0
LINE
  8
0
 62
2
 10
2.76721674E+02
 20
-2.34377713E+02
 11
2.70221735E+02
 21
-2.34377713E+02
  0
LINE
  8
0
 62
2
 10
1.26952413E+02
 20
-2.50915292E+02
 11
1.48596511E+02
 21
-2.13426615E+02
  0
LINE
  8
0
 62
7
 10
2.04721705E+02
 20
-2.18557721E+02
 11
2.11221705E+02
 21
-2.18557721E+02
  0
LINE
  8
0
 62
7
 10
2.03221705E+02
 20
-2.19407712E+02
 11
2.11221674E+02
 21
-2.19407712E+02
  0
LINE
  8
0
 62
7
 10
2.03221705E+02
 20
-2.24707699E+02
 11
2.11221705E+02
 21
-2.24707699E+02
  0
LINE
  8
0
  6
CENTER
 62
2
 10
2.03221705E+02
 20
-2.22057706E+02
 11
2.44325220E+02
 21
-2.22057706E+02
  0
TEXT
  8
0
 10
-1.06150288E+02
 20
2.29478397E+02
 40
6.30000019E+00
  1
STRETCH LINE
 41
1.05263174E+00
  7
MONOTXT
  0
LINE
  8
0
 62
7
 10
2.79799927E+02
 20
-2.56750000E+02
 11
3.99799805E+02
 21
-2.56750000E+02
  0
LINE
  8
0
 62
7
 10
2.79799927E+02
 20
-2.56750000E+02
 11
2.79799927E+02
 21
-2.76750000E+02
  0
TEXT
  8
0
 62
7
 10
2.87585240E+02
 20
-2.71250000E+02
 40
9.00000000E+00
  1
KOGANEI CORP.
 41
1.04838710E+00
  7
MONOTXT
  0
TEXT
  8
0
 62
7
 10
3.15499641E+02
 20
2.63100000E+02
 40
6.30000019E+00
  1
Ver. 1.0
 41
1.08108124E+00
  7
MONOTXT
  0
LINE
  8
0
 62
7
 10
2.79799927E+02
 20
2.56250000E+02
 11
3.99799805E+02
 21
2.56250000E+02
  0
LINE
  8
0
 62
7
 10
2.79799927E+02
 20
2.76250000E+02
 11
2.79799927E+02
 21
2.56250000E+02
  0
TEXT
  8
0
 62
7
 10
-3.85600562E+02
 20
2.38100000E+02
 40
6.30000019E+00
  1
MODEL:DDAK-HL40*75
 41
1.00000015E+00
  7
MONOTXT
  0
LINE
  8
0
 62
7
 10
-3.99250000E+02
 20
2.56250000E+02
 11
-2.79250000E+02
 21
2.56250000E+02
  0
LINE
  8
0
 62
7
 10
-2.79250000E+02
 20
2.76250000E+02
 11
-2.79250000E+02
 21
2.56250000E+02
  0
TEXT
  8
0
 62
7
 10
-3.91900291E+02
 20
2.63100000E+02
 40
6.30000019E+00
  1
NEW DYNA CYLINDER
 41
1.07594953E+00
  7
MONOTXT
  0
LINE
  8
0
 62
7
 10
-3.99250000E+02
 20
-2.76750000E+02
 11
3.99799805E+02
 21
-2.76750000E+02
  0
LINE
  8
0
 62
7
 10
-3.99250000E+02
 20
2.76250000E+02
 11
3.99799805E+02
 21
2.76250000E+02
  0
LINE
  8
0
 62
7
 10
-3.99250000E+02
 20
2.76250000E+02
 11
-3.99250000E+02
 21
-2.76750000E+02
  0
LINE
  8
0
 62
7
 10
3.99799805E+02
 20
2.76250000E+02
 11
3.99799805E+02
 21
-2.76750000E+02
  0
ENDSEC
  0
EOF
