  0
SECTION
  2
HEADER
  9
$ACADVER
  1
AC1003
  9
$EXTMIN
 10
-3.99250000E+02
 20
-2.76750000E+02
  9
$EXTMAX
 10
3.99799805E+02
 20
2.76250000E+02
  9
$LIMMIN
 10
-3.99251000E+02
 20
-2.76751000E+02
  9
$LIMMAX
 10
3.99800805E+02
 20
2.76251000E+02
  9
$SNAPUNIT
 10
1
 20
1
  9
$SNAPBASE
 10
0
 20
0
  9
$GRIDMODE
 70
0
  9
$GRIDUNIT
 10
0
 20
0
  9
$LTSCALE
 40
1.33174967E+01
  9
$TEXTSIZE
 40
3.2
  9
$DIMTAD
 70
0
  9
$LUNITS
 70
2
  9
$LUPREC
 70
4
  9
$FILLETRAD
 40
0
  9
$AUNITS
 70
0
  9
$AUPREC
 70
0
  0
ENDSEC
  0
SECTION
  2
TABLES
  0
TABLE
  2
LTYPE
 70
2
  0
LTYPE
  2
CONTINUOUS
 70
64
  3
Solid-Line
 72
65
 73
0
 40
0
  0
LTYPE
  2
DASHED
 70
64
  3
DASHED
 72
65
 73
2
 40
.75
 49
.5
 49
-.25
  0
LTYPE
  2
HIDDEN
 70
64
  3
HIDDEN
 72
65
 73
2
 40
.375
 49
.25
 49
-.125
  0
LTYPE
  2
CENTER
 70
64
  3
CENTER
 72
65
 73
4
 40
2
 49
1.25
 49
-.25
 49
.25
 49
-.25
  0
LTYPE
  2
PHANTOM
 70
64
  3
PHANTOM
 72
65
 73
6
 40
2.5
 49
1.25
 49
-.25
 49
.25
 49
-.25
 49
.25
 49
-.25
  0
ENDTAB
  0
TABLE
  2
LAYER
 70
1
  0
LAYER
  2
1
 70
0
 62
7
  6
CONTINUOUS
 0
ENDTAB
  0
TABLE
  2
STYLE
 70
2
  0
STYLE
  2
MONOTXT
 70
0
 40
0
 41
1
 50
0
 71
0
 42
.2
  3
monotxt
  0
STYLE
  2
BIGFONT
 70
0
 40
0
 41
1
 50
0
 71
0
 42
.2
  3
txt
  4
bigfont
  0
ENDTAB
  0
ENDSEC
  0
SECTION
  2
ENTITIES
  0
LINE
  8
0
  6
PHANTOM
 10
-2.92500000E+01
 20
1.48950959E+02
 11
-2.92500000E+01
 21
4.71367846E+01
  0
ARC
  8
0
 62
7
 10
5.22500534E+01
 20
6.44018545E+01
 40
5.00000000E-01
 50
2.70999991E+02
 51
0.00000000E+00
  0
ARC
  8
0
 62
7
 10
5.22500534E+01
 20
1.12336880E+02
 40
5.00000000E-01
 50
0.00000000E+00
 51
8.89999912E+01
  0
LINE
  8
0
  6
CENTER
 62
2
 10
5.49770203E+01
 20
6.98694647E+01
 11
-1.33240997E+02
 21
6.98694647E+01
  0
LINE
  8
0
 62
7
 10
2.17500000E+01
 20
7.25194586E+01
 11
-8.42500000E+01
 21
7.25194586E+01
  0
LINE
  8
0
 62
7
 10
2.17499847E+01
 20
6.72194708E+01
 11
-8.42499695E+01
 21
6.72194708E+01
  0
LINE
  8
0
 62
7
 10
2.17500000E+01
 20
6.63694799E+01
 11
-8.42500000E+01
 21
6.63694799E+01
  0
LINE
  8
0
  6
CENTER
 62
2
 10
-1.81578339E+02
 20
8.83694647E+01
 11
5.90549469E+01
 21
8.83694647E+01
  0
LINE
  8
0
 62
7
 10
2.17500000E+01
 20
1.13369465E+02
 11
2.17500000E+01
 21
6.33694647E+01
  0
LINE
  8
0
 62
7
 10
-8.42500000E+01
 20
1.13369465E+02
 11
-8.42500000E+01
 21
6.33432653E+01
  0
LINE
  8
0
  6
CENTER
 62
2
 10
5.49770203E+01
 20
1.06869465E+02
 11
-1.33035873E+02
 21
1.06869465E+02
  0
LINE
  8
0
 62
7
 10
2.17500000E+01
 20
1.04219471E+02
 11
2.50000000E-01
 21
1.04219471E+02
  0
LINE
  8
0
 62
7
 10
2.17500000E+01
 20
1.10369449E+02
 11
1.52500000E+01
 21
1.10369449E+02
  0
LINE
  8
0
 62
7
 10
-1.45250061E+02
 20
7.38694265E+01
 11
-1.45250061E+02
 21
1.02869510E+02
  0
LINE
  8
0
 62
7
 10
-1.44750061E+02
 20
7.33694265E+01
 11
-1.40241089E+02
 21
7.33694265E+01
  0
LINE
  8
0
 62
7
 10
5.42500534E+01
 20
7.23694647E+01
 11
5.27500610E+01
 21
7.23694647E+01
  0
LINE
  8
0
 62
7
 10
5.27500534E+01
 20
1.12336880E+02
 11
5.27500534E+01
 21
6.44018545E+01
  0
LINE
  8
0
 62
7
 10
4.77500153E+01
 20
1.13369465E+02
 11
2.17500076E+01
 21
1.13369465E+02
  0
LINE
  8
0
 62
7
 10
-1.40250048E+02
 20
7.33694886E+01
 11
-1.39250025E+02
 21
7.23694659E+01
  0
LINE
  8
0
 62
7
 10
4.77499924E+01
 20
1.12915516E+02
 11
4.77499924E+01
 21
1.13369465E+02
  0
LINE
  8
0
  6
CENTER
 62
2
 10
3.47500229E+01
 20
1.15121845E+02
 11
3.47500229E+01
 21
1.04043827E+02
  0
LINE
  8
0
 62
7
 10
-1.40250061E+02
 20
7.33694647E+01
 11
-1.40250061E+02
 21
1.03369480E+02
  0
LINE
  8
0
 62
7
 10
-1.44750061E+02
 20
1.03369495E+02
 11
-1.40241089E+02
 21
1.03369495E+02
  0
LINE
  8
0
 62
7
 10
-1.40250109E+02
 20
1.03369515E+02
 11
-1.39250095E+02
 21
1.04369514E+02
  0
LINE
  8
0
 62
7
 10
-1.45250021E+02
 20
1.02869455E+02
 11
-1.44750026E+02
 21
1.03369450E+02
  0
LINE
  8
0
 62
7
 10
-1.39250061E+02
 20
7.23694647E+01
 11
-1.39250061E+02
 21
1.04369465E+02
  0
LINE
  8
0
 62
7
 10
2.17500594E+01
 20
6.33694036E+01
 11
5.22587795E+01
 21
6.39019307E+01
  0
LINE
  8
0
 62
7
 10
2.17499983E+01
 20
1.13369341E+02
 11
5.22587797E+01
 21
1.12836804E+02
  0
LINE
  8
0
 62
7
 10
4.77500153E+01
 20
6.33694647E+01
 11
2.17500076E+01
 21
6.33694647E+01
  0
LINE
  8
0
 62
7
 10
-1.39250031E+02
 20
7.23694647E+01
 11
-1.30250046E+02
 21
7.23694647E+01
  0
LINE
  8
0
 62
7
 10
-1.30250061E+02
 20
1.13369465E+02
 11
-1.30250061E+02
 21
6.33694647E+01
  0
LINE
  8
0
 62
7
 10
4.77499924E+01
 20
6.38232229E+01
 11
4.77499924E+01
 21
6.33694647E+01
  0
LINE
  8
0
 62
7
 10
5.47500610E+01
 20
1.03869449E+02
 11
5.47500610E+01
 21
7.28400457E+01
  0
LINE
  8
0
 62
7
 10
5.42500534E+01
 20
1.04369465E+02
 11
5.27500610E+01
 21
1.04369465E+02
  0
LINE
  8
0
 62
7
 10
-1.30250000E+02
 20
1.13369465E+02
 11
-8.42500000E+01
 21
1.13369465E+02
  0
LINE
  8
0
 62
7
 10
-1.44750061E+02
 20
7.33694265E+01
 11
-1.44750061E+02
 21
1.03369480E+02
  0
LINE
  8
0
 62
7
 10
-1.30250000E+02
 20
6.33694647E+01
 11
-8.42500000E+01
 21
6.33694647E+01
  0
LINE
  8
0
 62
7
 10
-1.45250015E+02
 20
7.38694082E+01
 11
-1.44750004E+02
 21
7.33693969E+01
  0
LINE
  8
0
 62
7
 10
-1.39250031E+02
 20
1.04369465E+02
 11
-1.30250046E+02
 21
1.04369465E+02
  0
LINE
  8
0
  6
CENTER
 62
2
 10
-1.09250000E+02
 20
1.15611164E+02
 11
-1.09250000E+02
 21
6.10170553E+01
  0
LINE
  8
0
  6
CENTER
 62
2
 10
-1.27162094E+02
 20
7.73694647E+01
 11
-1.14435730E+02
 21
7.73694647E+01
  0
LINE
  8
0
  6
CENTER
 62
2
 10
-1.20250000E+02
 20
7.07923544E+01
 11
-1.20250000E+02
 21
8.35186804E+01
  0
LINE
  8
0
  6
DASHED
 62
7
 10
-1.20250015E+02
 20
7.59260722E+01
 11
-1.18999986E+02
 21
7.66477686E+01
  0
LINE
  8
0
  6
DASHED
 62
7
 10
-1.20249987E+02
 20
7.59261772E+01
 11
-1.21500003E+02
 21
7.66478660E+01
  0
LINE
  8
0
  6
DASHED
 62
7
 10
-1.18999942E+02
 20
7.80912204E+01
 11
-1.20249958E+02
 21
7.88129092E+01
  0
LINE
  8
0
  6
DASHED
 62
7
 10
-1.20250007E+02
 20
7.88128021E+01
 11
-1.21499996E+02
 21
7.80911286E+01
  0
LINE
  8
0
  6
DASHED
 62
7
 10
-1.19000000E+02
 20
7.66477774E+01
 11
-1.19000000E+02
 21
7.80911672E+01
  0
LINE
  8
0
  6
DASHED
 62
7
 10
-1.21500000E+02
 20
7.66477774E+01
 11
-1.21500000E+02
 21
7.80911672E+01
  0
LINE
  8
0
  6
CENTER
 62
2
 10
-9.13378906E+01
 20
7.73694647E+01
 11
-1.04064255E+02
 21
7.73694647E+01
  0
LINE
  8
0
  6
CENTER
 62
2
 10
-9.82500153E+01
 20
7.07923544E+01
 11
-9.82500153E+01
 21
8.35186804E+01
  0
LINE
  8
0
  6
DASHED
 62
7
 10
-9.82500138E+01
 20
7.59260533E+01
 11
-9.69999848E+01
 21
7.66477497E+01
  0
LINE
  8
0
  6
DASHED
 62
7
 10
-9.70000153E+01
 20
7.66477774E+01
 11
-9.70000153E+01
 21
7.80911672E+01
  0
LINE
  8
0
  6
DASHED
 62
7
 10
-9.82500060E+01
 20
7.88129195E+01
 11
-9.70000166E+01
 21
7.80912460E+01
  0
LINE
  8
0
  6
DASHED
 62
7
 10
-9.94999823E+01
 20
7.80911173E+01
 11
-9.82499731E+01
 21
7.88128022E+01
  0
LINE
  8
0
  6
DASHED
 62
7
 10
-9.95000153E+01
 20
7.66477774E+01
 11
-9.95000153E+01
 21
7.80911672E+01
  0
LINE
  8
0
  6
DASHED
 62
7
 10
-9.82499871E+01
 20
7.59261787E+01
 11
-9.95000029E+01
 21
7.66478675E+01
  0
LINE
  8
0
  6
CENTER
 62
2
 10
-1.27162094E+02
 20
9.93694647E+01
 11
-1.14435730E+02
 21
9.93694647E+01
  0
LINE
  8
0
  6
CENTER
 62
2
 10
-1.20250000E+02
 20
1.05946583E+02
 11
-1.20250000E+02
 21
9.32202642E+01
  0
LINE
  8
0
  6
DASHED
 62
7
 10
-1.20249948E+02
 20
1.00812764E+02
 11
-1.21499911E+02
 21
1.00091106E+02
  0
LINE
  8
0
  6
DASHED
 62
7
 10
-1.21500000E+02
 20
1.00091175E+02
 11
-1.21500000E+02
 21
9.86477697E+01
  0
LINE
  8
0
  6
DASHED
 62
7
 10
-1.20249935E+02
 20
9.79261480E+01
 11
-1.21499898E+02
 21
9.86478063E+01
  0
LINE
  8
0
  6
DASHED
 62
7
 10
-1.18999932E+02
 20
9.86477101E+01
 11
-1.20249935E+02
 21
9.79260289E+01
  0
LINE
  8
0
  6
DASHED
 62
7
 10
-1.19000000E+02
 20
1.00091175E+02
 11
-1.19000000E+02
 21
9.86477697E+01
  0
LINE
  8
0
  6
DASHED
 62
7
 10
-1.20249964E+02
 20
1.00812902E+02
 11
-1.18999948E+02
 21
1.00091213E+02
  0
LINE
  8
0
  6
CENTER
 62
2
 10
-9.13378906E+01
 20
9.93694647E+01
 11
-1.04064255E+02
 21
9.93694647E+01
  0
LINE
  8
0
  6
CENTER
 62
2
 10
-9.82500153E+01
 20
1.05946583E+02
 11
-9.82500153E+01
 21
9.32202642E+01
  0
LINE
  8
0
  6
DASHED
 62
7
 10
-9.82500069E+01
 20
1.00812891E+02
 11
-9.69999911E+01
 21
1.00091202E+02
  0
LINE
  8
0
  6
DASHED
 62
7
 10
-9.70000153E+01
 20
1.00091175E+02
 11
-9.70000153E+01
 21
9.86477697E+01
  0
LINE
  8
0
  6
DASHED
 62
7
 10
-9.82499041E+01
 20
9.79260801E+01
 11
-9.69999412E+01
 21
9.86477384E+01
  0
LINE
  8
0
  6
DASHED
 62
7
 10
-9.94999114E+01
 20
9.86478459E+01
 11
-9.82499220E+01
 21
9.79261724E+01
  0
LINE
  8
0
  6
DASHED
 62
7
 10
-9.95000153E+01
 20
1.00091175E+02
 11
-9.95000153E+01
 21
9.86477697E+01
  0
LINE
  8
0
  6
DASHED
 62
7
 10
-9.82499702E+01
 20
1.00812785E+02
 11
-9.94999926E+01
 21
1.00091092E+02
  0
LINE
  8
0
 62
7
 10
-1.52250061E+02
 20
8.44964788E+01
 11
-1.52250061E+02
 21
8.03694494E+01
  0
LINE
  8
0
 62
7
 10
-1.55250061E+02
 20
8.13694342E+01
 11
-1.55250061E+02
 21
9.53694494E+01
  0
LINE
  8
0
 62
7
 10
-1.52250061E+02
 20
8.03694494E+01
 11
-1.45250092E+02
 21
8.03694494E+01
  0
LINE
  8
0
 62
7
 10
-1.52250061E+02
 20
9.22424505E+01
 11
-1.52250061E+02
 21
9.63694342E+01
  0
LINE
  8
0
 62
7
 10
-1.48250061E+02
 20
8.44964788E+01
 11
-1.48250061E+02
 21
9.22424505E+01
  0
LINE
  8
0
 62
7
 10
-1.79250031E+02
 20
8.28694189E+01
 11
-1.79250031E+02
 21
9.38694494E+01
  0
LINE
  8
0
 62
7
 10
-1.77750031E+02
 20
9.53694494E+01
 11
-1.72750031E+02
 21
9.53694494E+01
  0
LINE
  8
0
 62
7
 10
-1.77750031E+02
 20
8.13694342E+01
 11
-1.72750031E+02
 21
8.13694342E+01
  0
LINE
  8
0
 62
2
 10
-1.78569977E+02
 20
9.45494573E+01
 11
-1.72750031E+02
 21
9.45494573E+01
  0
LINE
  8
0
 62
2
 10
-1.78569977E+02
 20
8.21894262E+01
 11
-1.72750031E+02
 21
8.21894262E+01
  0
LINE
  8
0
 62
7
 10
-1.77750031E+02
 20
9.53694494E+01
 11
-1.77750031E+02
 21
8.13694342E+01
  0
LINE
  8
0
 62
7
 10
-1.58250061E+02
 20
9.53694494E+01
 11
-1.58250061E+02
 21
8.13694342E+01
  0
LINE
  8
0
 62
7
 10
-1.79249946E+02
 20
9.38693637E+01
 11
-1.77749999E+02
 21
9.53693558E+01
  0
LINE
  8
0
 62
7
 10
-1.79250030E+02
 20
8.28694178E+01
 11
-1.77750017E+02
 21
8.13694054E+01
  0
LINE
  8
0
 62
7
 10
-1.52250031E+02
 20
9.22424505E+01
 11
-1.48250061E+02
 21
9.22424505E+01
  0
LINE
  8
0
 62
7
 10
-1.52250031E+02
 20
8.44964788E+01
 11
-1.48250061E+02
 21
8.44964788E+01
  0
LINE
  8
0
 62
2
 10
-1.53634672E+02
 20
8.62840149E+01
 11
-1.48250053E+02
 21
9.22424586E+01
  0
LINE
  8
0
 62
2
 10
-1.53634668E+02
 20
9.04549348E+01
 11
-1.48250054E+02
 21
8.44964968E+01
  0
LINE
  8
0
 62
7
 10
-1.52250061E+02
 20
9.63694799E+01
 11
-1.45250092E+02
 21
9.63694799E+01
  0
LINE
  8
0
 62
7
 10
-1.55250052E+02
 20
8.83694601E+01
 11
-1.52250054E+02
 21
9.22424441E+01
  0
LINE
  8
0
 62
7
 10
-1.52250052E+02
 20
9.63694818E+01
 11
-1.55250057E+02
 21
9.53694497E+01
  0
LINE
  8
0
 62
7
 10
-1.55250036E+02
 20
8.83694419E+01
 11
-1.52250051E+02
 21
8.44964760E+01
  0
LINE
  8
0
 62
7
 10
-1.55250024E+02
 20
8.13694248E+01
 11
-1.52250034E+02
 21
8.03694434E+01
  0
LINE
  8
0
 62
7
 10
-1.58250061E+02
 20
9.45494573E+01
 11
-1.55250061E+02
 21
9.45494573E+01
  0
LINE
  8
0
 62
7
 10
-1.58250061E+02
 20
8.21894262E+01
 11
-1.55250061E+02
 21
8.21894262E+01
  0
ARC
  8
0
 62
7
 10
5.42500458E+01
 20
7.28694647E+01
 40
5.00000000E-01
 50
2.70000073E+02
 51
5.46415133E-05
  0
ARC
  8
0
 62
7
 10
5.42500458E+01
 20
1.03869449E+02
 40
5.00000000E-01
 50
5.46415133E-05
 51
9.00000369E+01
  0
CIRCLE
  8
0
  6
DASHED
 62
7
 10
-1.09250000E+02
 20
8.83694647E+01
 40
1.95000000E+01
  0
CIRCLE
  8
0
  6
DASHED
 62
7
 10
-1.20250000E+02
 20
7.73694647E+01
 40
3.75000000E+00
  0
CIRCLE
  8
0
  6
DASHED
 62
7
 10
-9.82500153E+01
 20
7.73694647E+01
 40
3.75000000E+00
  0
CIRCLE
  8
0
  6
DASHED
 62
7
 10
-1.20250000E+02
 20
9.93694647E+01
 40
3.75000000E+00
  0
CIRCLE
  8
0
  6
DASHED
 62
7
 10
-9.82500153E+01
 20
9.93694647E+01
 40
3.75000000E+00
  0
CIRCLE
  8
0
  6
DASHED
 62
7
 10
-1.09250000E+02
 20
8.83694647E+01
 40
2.00000000E+00
  0
CIRCLE
  8
0
  6
DASHED
 62
2
 10
-1.09250000E+02
 20
8.83694647E+01
 40
2.50000000E+00
  0
ARC
  8
0
 62
7
 10
-1.55250061E+02
 20
8.83694647E+01
 40
8.00000000E+00
 50
3.31044960E+02
 51
2.89550399E+01
  0
LINE
  8
0
 62
4
 10
-1.71767550E+02
 20
1.01071171E+02
 11
-1.65732511E+02
 21
1.01071171E+02
  0
LINE
  8
0
 62
4
 10
-1.71767550E+02
 20
9.47203176E+01
 11
-1.65732511E+02
 21
9.47203176E+01
  0
LINE
  8
0
 62
4
 10
-1.71767550E+02
 20
8.20186117E+01
 11
-1.65732511E+02
 21
8.20186117E+01
  0
LINE
  8
0
 62
4
 10
-1.72750031E+02
 20
7.73694647E+01
 11
-1.72750031E+02
 21
9.93694647E+01
  0
LINE
  8
0
 62
4
 10
-1.64750031E+02
 20
7.73694647E+01
 11
-1.64750031E+02
 21
9.93694647E+01
  0
LINE
  8
0
 62
4
 10
-1.72750031E+02
 20
9.93694646E+01
 11
-1.71767550E+02
 21
1.01071171E+02
  0
LINE
  8
0
 62
4
 10
-1.64750031E+02
 20
9.93694647E+01
 11
-1.65732511E+02
 21
1.01071171E+02
  0
LINE
  8
0
 62
4
 10
-1.72750031E+02
 20
7.73694647E+01
 11
-1.71767550E+02
 21
7.56677588E+01
  0
LINE
  8
0
 62
4
 10
-1.64750031E+02
 20
7.73694647E+01
 11
-1.65732511E+02
 21
7.56677586E+01
  0
LINE
  8
0
 62
4
 10
-1.71767550E+02
 20
7.56677587E+01
 11
-1.65732511E+02
 21
7.56677587E+01
  0
ARC
  8
0
 62
4
 10
-1.67127220E+02
 20
9.78957441E+01
 40
5.62281003E+00
 50
1.45615752E+02
 51
2.14384247E+02
  0
ARC
  8
0
 62
4
 10
-1.51732511E+02
 20
8.83694646E+01
 40
2.10175199E+01
 50
1.62412046E+02
 51
1.97587953E+02
  0
ARC
  8
0
 62
4
 10
-1.67127220E+02
 20
7.88431852E+01
 40
5.62281017E+00
 50
1.45615753E+02
 51
2.14384247E+02
  0
ARC
  8
0
 62
4
 10
-1.70372841E+02
 20
9.78957441E+01
 40
5.62281003E+00
 50
3.25615753E+02
 51
3.43842476E+01
  0
ARC
  8
0
 62
4
 10
-1.85767550E+02
 20
8.83694646E+01
 40
2.10175199E+01
 50
3.42412047E+02
 51
1.75879537E+01
  0
ARC
  8
0
 62
4
 10
-1.70372841E+02
 20
7.88431852E+01
 40
5.62281017E+00
 50
3.25615753E+02
 51
3.43842467E+01
  0
LINE
  8
0
 62
7
 10
-1.64750031E+02
 20
9.53694494E+01
 11
-1.58250061E+02
 21
9.53694494E+01
  0
LINE
  8
0
 62
2
 10
-1.64750031E+02
 20
9.45494573E+01
 11
-1.58250061E+02
 21
9.45494573E+01
  0
LINE
  8
0
 62
2
 10
-1.64750031E+02
 20
8.21894262E+01
 11
-1.58250061E+02
 21
8.21894262E+01
  0
LINE
  8
0
 62
7
 10
-1.64750031E+02
 20
8.13694342E+01
 11
-1.58250061E+02
 21
8.13694342E+01
  0
LINE
  8
0
 62
7
 10
-8.42500000E+01
 20
1.09519459E+02
 11
-1.47500000E+01
 21
1.09519459E+02
  0
LINE
  8
0
 62
4
 10
-4.37500000E+01
 20
1.15359316E+02
 11
-4.37500000E+01
 21
1.26875902E+02
  0
LINE
  8
0
 62
6
 10
-2.30178881E+01
 20
1.16859316E+02
 11
-2.64819897E+01
 21
1.10859316E+02
  0
LINE
  8
0
 62
6
 10
-3.54820508E+01
 20
1.10859316E+02
 11
-3.20179492E+01
 21
1.16859316E+02
  0
LINE
  8
0
 62
4
 10
-1.47499390E+01
 20
1.15359316E+02
 11
-2.38839136E+01
 21
1.15359316E+02
  0
LINE
  8
0
  6
CENTER
 62
6
 10
2.02500610E+01
 20
1.13859316E+02
 11
-2.67499390E+01
 21
1.13859316E+02
  0
LINE
  8
0
 62
4
 10
-1.47499390E+01
 20
1.12359316E+02
 11
-2.56159644E+01
 21
1.12359316E+02
  0
LINE
  8
0
 62
4
 10
-5.02500000E+01
 20
1.12359316E+02
 11
-3.46160254E+01
 21
1.12359316E+02
  0
LINE
  8
0
  6
CENTER
 62
6
 10
-7.87500000E+01
 20
1.13859316E+02
 11
-3.17500000E+01
 21
1.13859316E+02
  0
LINE
  8
0
 62
4
 10
-5.02500000E+01
 20
1.15359316E+02
 11
-3.28839746E+01
 21
1.15359316E+02
  0
LINE
  8
0
 62
4
 10
1.67500000E+01
 20
1.15168371E+02
 11
1.67500000E+01
 21
1.12544468E+02
  0
LINE
  8
0
 62
4
 10
1.67500000E+01
 20
1.12544468E+02
 11
1.52500000E+01
 21
1.11542404E+02
  0
LINE
  8
0
 62
4
 10
1.67500000E+01
 20
1.12937781E+02
 11
1.52500000E+01
 21
1.12236997E+02
  0
LINE
  8
0
 62
4
 10
1.52500000E+01
 20
1.16176228E+02
 11
1.67500000E+01
 21
1.15168371E+02
  0
LINE
  8
0
 62
4
 10
-5.58127552E+01
 20
1.16176228E+02
 11
-5.02500000E+01
 21
1.16176228E+02
  0
LINE
  8
0
 62
4
 10
-5.54128770E+01
 20
1.16633902E+02
 11
-4.37500000E+01
 21
1.16633902E+02
  0
LINE
  8
0
  6
CENTER
 62
6
 10
-4.87500000E+01
 20
1.22444268E+02
 11
-5.37500000E+01
 21
1.22444268E+02
  0
LINE
  8
0
  6
CENTER
 62
6
 10
-5.12500000E+01
 20
1.24944268E+02
 11
-5.12500000E+01
 21
1.19944268E+02
  0
LINE
  8
0
  6
CENTER
 62
6
 10
-5.62500000E+01
 20
1.18997440E+02
 11
-6.12500000E+01
 21
1.18997440E+02
  0
LINE
  8
0
  6
CENTER
 62
6
 10
-5.87500000E+01
 20
1.21497440E+02
 11
-5.87500000E+01
 21
1.16497440E+02
  0
LINE
  8
0
  6
CENTER
 62
6
 10
-6.37500000E+01
 20
1.22444268E+02
 11
-6.87500000E+01
 21
1.22444268E+02
  0
LINE
  8
0
  6
CENTER
 62
6
 10
-6.62500000E+01
 20
1.24944268E+02
 11
-6.62500000E+01
 21
1.19944268E+02
  0
POLYLINE
  8
0
 62
4
 66
1
  0
VERTEX
  8
0
 62
4
 10
-6.29000000E+01
 20
1.19063427E+02
  0
VERTEX
  8
0
 62
4
 10
-6.28832933E+01
 20
1.18697075E+02
  0
VERTEX
  8
0
 62
4
 10
-6.28333078E+01
 20
1.18333674E+02
  0
VERTEX
  8
0
 62
4
 10
-6.27504459E+01
 20
1.17976147E+02
  0
VERTEX
  8
0
 62
4
 10
-6.26353747E+01
 20
1.17627375E+02
  0
VERTEX
  8
0
 62
4
 10
-6.24890208E+01
 20
1.17290165E+02
  0
VERTEX
  8
0
 62
4
 10
-6.23125625E+01
 20
1.16967232E+02
  0
VERTEX
  8
0
 62
4
 10
-6.21074205E+01
 20
1.16661177E+02
  0
VERTEX
  8
0
 62
4
 10
-6.18752466E+01
 20
1.16374463E+02
  0
VERTEX
  8
0
 62
4
 10
-6.16179100E+01
 20
1.16109399E+02
  0
VERTEX
  8
0
 62
4
 10
-6.13374827E+01
 20
1.15868119E+02
  0
VERTEX
  8
0
 62
4
 10
-6.10362225E+01
 20
1.15652566E+02
  0
VERTEX
  8
0
 62
4
 10
-6.07165550E+01
 20
1.15464475E+02
  0
VERTEX
  8
0
 62
4
 10
-6.03810539E+01
 20
1.15305361E+02
  0
VERTEX
  8
0
 62
4
 10
-6.00324205E+01
 20
1.15176505E+02
  0
VERTEX
  8
0
 62
4
 10
-5.96734619E+01
 20
1.15078943E+02
  0
VERTEX
  8
0
 62
4
 10
-5.93070681E+01
 20
1.15013463E+02
  0
VERTEX
  8
0
 62
4
 10
-5.89361891E+01
 20
1.14980590E+02
  0
VERTEX
  8
0
 62
4
 10
-5.85638110E+01
 20
1.14980590E+02
  0
VERTEX
  8
0
 62
4
 10
-5.81929320E+01
 20
1.15013463E+02
  0
VERTEX
  8
0
 62
4
 10
-5.78265381E+01
 20
1.15078943E+02
  0
VERTEX
  8
0
 62
4
 10
-5.74675795E+01
 20
1.15176504E+02
  0
VERTEX
  8
0
 62
4
 10
-5.71189461E+01
 20
1.15305361E+02
  0
VERTEX
  8
0
 62
4
 10
-5.67834451E+01
 20
1.15464475E+02
  0
VERTEX
  8
0
 62
4
 10
-5.64637775E+01
 20
1.15652566E+02
  0
VERTEX
  8
0
 62
4
 10
-5.61625173E+01
 20
1.15868119E+02
  0
VERTEX
  8
0
 62
4
 10
-5.58820900E+01
 20
1.16109399E+02
  0
VERTEX
  8
0
 62
4
 10
-5.56247534E+01
 20
1.16374463E+02
  0
VERTEX
  8
0
 62
4
 10
-5.53925795E+01
 20
1.16661177E+02
  0
VERTEX
  8
0
 62
4
 10
-5.51874375E+01
 20
1.16967232E+02
  0
VERTEX
  8
0
 62
4
 10
-5.50109792E+01
 20
1.17290165E+02
  0
VERTEX
  8
0
 62
4
 10
-5.48646253E+01
 20
1.17627375E+02
  0
VERTEX
  8
0
 62
4
 10
-5.47495541E+01
 20
1.17976147E+02
  0
VERTEX
  8
0
 62
4
 10
-5.46666922E+01
 20
1.18333673E+02
  0
VERTEX
  8
0
 62
4
 10
-5.46167067E+01
 20
1.18697075E+02
  0
VERTEX
  8
0
 62
4
 10
-5.46000000E+01
 20
1.19063427E+02
  0
SEQEND
  8
0
  0
POLYLINE
  8
0
 62
4
 66
1
  0
VERTEX
  8
0
 62
4
 10
-5.46000000E+01
 20
1.19369047E+02
  0
VERTEX
  8
0
 62
4
 10
-5.46157920E+01
 20
1.19725248E+02
  0
VERTEX
  8
0
 62
4
 10
-5.46630478E+01
 20
1.20078739E+02
  0
VERTEX
  8
0
 62
4
 10
-5.47414078E+01
 20
1.20426828E+02
  0
VERTEX
  8
0
 62
4
 10
-5.48502756E+01
 20
1.20766867E+02
  0
VERTEX
  8
0
 62
4
 10
-5.49888227E+01
 20
1.21096268E+02
  0
VERTEX
  8
0
 62
4
 10
-5.51559946E+01
 20
1.21412523E+02
  0
VERTEX
  8
0
 62
4
 10
-5.53505190E+01
 20
1.21713226E+02
  0
VERTEX
  8
0
 62
4
 10
-5.55709156E+01
 20
1.21996089E+02
  0
VERTEX
  8
0
 62
4
 10
-5.58155069E+01
 20
1.22258959E+02
  0
VERTEX
  8
0
 62
4
 10
-5.60824314E+01
 20
1.22499834E+02
  0
VERTEX
  8
0
 62
4
 10
-5.63696578E+01
 20
1.22716882E+02
  0
VERTEX
  8
0
 62
4
 10
-5.66750000E+01
 20
1.22908451E+02
  0
VERTEX
  8
0
 62
4
 10
-5.69961342E+01
 20
1.23073084E+02
  0
VERTEX
  8
0
 62
4
 10
-5.73306164E+01
 20
1.23209526E+02
  0
VERTEX
  8
0
 62
4
 10
-5.76759010E+01
 20
1.23316740E+02
  0
VERTEX
  8
0
 62
4
 10
-5.80293601E+01
 20
1.23393909E+02
  0
VERTEX
  8
0
 62
4
 10
-5.83883037E+01
 20
1.23440447E+02
  0
VERTEX
  8
0
 62
4
 10
-5.87500000E+01
 20
1.23455999E+02
  0
VERTEX
  8
0
 62
4
 10
-5.91116963E+01
 20
1.23440447E+02
  0
VERTEX
  8
0
 62
4
 10
-5.94706399E+01
 20
1.23393909E+02
  0
VERTEX
  8
0
 62
4
 10
-5.98240990E+01
 20
1.23316740E+02
  0
VERTEX
  8
0
 62
4
 10
-6.01693836E+01
 20
1.23209526E+02
  0
VERTEX
  8
0
 62
4
 10
-6.05038658E+01
 20
1.23073084E+02
  0
VERTEX
  8
0
 62
4
 10
-6.08250000E+01
 20
1.22908451E+02
  0
VERTEX
  8
0
 62
4
 10
-6.11303422E+01
 20
1.22716882E+02
  0
VERTEX
  8
0
 62
4
 10
-6.14175686E+01
 20
1.22499834E+02
  0
VERTEX
  8
0
 62
4
 10
-6.16844931E+01
 20
1.22258959E+02
  0
VERTEX
  8
0
 62
4
 10
-6.19290844E+01
 20
1.21996089E+02
  0
VERTEX
  8
0
 62
4
 10
-6.21494810E+01
 20
1.21713226E+02
  0
VERTEX
  8
0
 62
4
 10
-6.23440054E+01
 20
1.21412523E+02
  0
VERTEX
  8
0
 62
4
 10
-6.25111773E+01
 20
1.21096268E+02
  0
VERTEX
  8
0
 62
4
 10
-6.26497244E+01
 20
1.20766867E+02
  0
VERTEX
  8
0
 62
4
 10
-6.27585922E+01
 20
1.20426828E+02
  0
VERTEX
  8
0
 62
4
 10
-6.28369522E+01
 20
1.20078739E+02
  0
VERTEX
  8
0
 62
4
 10
-6.28842080E+01
 20
1.19725248E+02
  0
VERTEX
  8
0
 62
4
 10
-6.29000000E+01
 20
1.19369047E+02
  0
VERTEX
  8
0
 62
4
 10
-6.28842080E+01
 20
1.19012846E+02
  0
VERTEX
  8
0
 62
4
 10
-6.28369522E+01
 20
1.18659355E+02
  0
VERTEX
  8
0
 62
4
 10
-6.27585922E+01
 20
1.18311266E+02
  0
VERTEX
  8
0
 62
4
 10
-6.26497244E+01
 20
1.17971227E+02
  0
VERTEX
  8
0
 62
4
 10
-6.25111773E+01
 20
1.17641826E+02
  0
VERTEX
  8
0
 62
4
 10
-6.23440054E+01
 20
1.17325571E+02
  0
VERTEX
  8
0
 62
4
 10
-6.21494810E+01
 20
1.17024868E+02
  0
VERTEX
  8
0
 62
4
 10
-6.19290844E+01
 20
1.16742005E+02
  0
VERTEX
  8
0
 62
4
 10
-6.16844931E+01
 20
1.16479135E+02
  0
VERTEX
  8
0
 62
4
 10
-6.14175686E+01
 20
1.16238260E+02
  0
VERTEX
  8
0
 62
4
 10
-6.11303422E+01
 20
1.16021212E+02
  0
VERTEX
  8
0
 62
4
 10
-6.08250000E+01
 20
1.15829643E+02
  0
VERTEX
  8
0
 62
4
 10
-6.05038658E+01
 20
1.15665010E+02
  0
VERTEX
  8
0
 62
4
 10
-6.01693836E+01
 20
1.15528568E+02
  0
VERTEX
  8
0
 62
4
 10
-5.98240990E+01
 20
1.15421354E+02
  0
VERTEX
  8
0
 62
4
 10
-5.94706399E+01
 20
1.15344185E+02
  0
VERTEX
  8
0
 62
4
 10
-5.91116963E+01
 20
1.15297647E+02
  0
VERTEX
  8
0
 62
4
 10
-5.87500000E+01
 20
1.15282095E+02
  0
VERTEX
  8
0
 62
4
 10
-5.83883037E+01
 20
1.15297647E+02
  0
VERTEX
  8
0
 62
4
 10
-5.80293601E+01
 20
1.15344185E+02
  0
VERTEX
  8
0
 62
4
 10
-5.76759010E+01
 20
1.15421354E+02
  0
VERTEX
  8
0
 62
4
 10
-5.73306164E+01
 20
1.15528568E+02
  0
VERTEX
  8
0
 62
4
 10
-5.69961342E+01
 20
1.15665010E+02
  0
VERTEX
  8
0
 62
4
 10
-5.66750000E+01
 20
1.15829643E+02
  0
VERTEX
  8
0
 62
4
 10
-5.63696578E+01
 20
1.16021212E+02
  0
VERTEX
  8
0
 62
4
 10
-5.60824314E+01
 20
1.16238260E+02
  0
VERTEX
  8
0
 62
4
 10
-5.58155069E+01
 20
1.16479135E+02
  0
VERTEX
  8
0
 62
4
 10
-5.55709156E+01
 20
1.16742005E+02
  0
VERTEX
  8
0
 62
4
 10
-5.53505190E+01
 20
1.17024868E+02
  0
VERTEX
  8
0
 62
4
 10
-5.51559946E+01
 20
1.17325571E+02
  0
VERTEX
  8
0
 62
4
 10
-5.49888227E+01
 20
1.17641826E+02
  0
VERTEX
  8
0
 62
4
 10
-5.48502756E+01
 20
1.17971227E+02
  0
VERTEX
  8
0
 62
4
 10
-5.47414078E+01
 20
1.18311266E+02
  0
VERTEX
  8
0
 62
4
 10
-5.46630478E+01
 20
1.18659355E+02
  0
VERTEX
  8
0
 62
4
 10
-5.46157920E+01
 20
1.19012846E+02
  0
VERTEX
  8
0
 62
4
 10
-5.46000000E+01
 20
1.19369047E+02
  0
SEQEND
  8
0
  0
LINE
  8
0
 62
4
 10
-6.29000000E+01
 20
1.19063427E+02
 11
-6.29000000E+01
 21
1.19369047E+02
  0
LINE
  8
0
 62
4
 10
-5.46000000E+01
 20
1.19063427E+02
 11
-5.46000000E+01
 21
1.19369047E+02
  0
ARC
  8
0
 62
4
 10
7.36228232E+01
 20
-1.49304455E+01
 40
1.88658103E+02
 50
1.33811210E+02
 51
1.35318357E+02
  0
ARC
  8
0
 62
4
 10
-1.91122535E+02
 20
-1.49301524E+01
 40
1.88657692E+02
 50
4.46816411E+01
 51
4.61887918E+01
  0
LINE
  8
0
 62
4
 10
-5.50500000E+01
 20
1.22444268E+02
 11
-5.50500000E+01
 21
1.22617916E+02
  0
POLYLINE
  8
0
 62
4
 66
1
  0
VERTEX
  8
0
 62
4
 10
-5.50500000E+01
 20
1.22444268E+02
  0
VERTEX
  8
0
 62
4
 10
-5.50347023E+01
 20
1.22108814E+02
  0
VERTEX
  8
0
 62
4
 10
-5.49889325E+01
 20
1.21776060E+02
  0
VERTEX
  8
0
 62
4
 10
-5.49130589E+01
 20
1.21448686E+02
  0
VERTEX
  8
0
 62
4
 10
-5.48076925E+01
 20
1.21129329E+02
  0
VERTEX
  8
0
 62
4
 10
-5.46736817E+01
 20
1.20820558E+02
  0
VERTEX
  8
0
 62
4
 10
-5.45121054E+01
 20
1.20524861E+02
  0
VERTEX
  8
0
 62
4
 10
-5.43242646E+01
 20
1.20244617E+02
  0
VERTEX
  8
0
 62
4
 10
-5.41116716E+01
 20
1.19982084E+02
  0
VERTEX
  8
0
 62
4
 10
-5.38760381E+01
 20
1.19739375E+02
  0
VERTEX
  8
0
 62
4
 10
-5.36192613E+01
 20
1.19518444E+02
  0
VERTEX
  8
0
 62
4
 10
-5.33434086E+01
 20
1.19321070E+02
  0
VERTEX
  8
0
 62
4
 10
-5.30507009E+01
 20
1.19148842E+02
  0
VERTEX
  8
0
 62
4
 10
-5.27434951E+01
 20
1.19003147E+02
  0
VERTEX
  8
0
 62
4
 10
-5.24242646E+01
 20
1.18885158E+02
  0
VERTEX
  8
0
 62
4
 10
-5.20955796E+01
 20
1.18795825E+02
  0
VERTEX
  8
0
 62
4
 10
-5.17600864E+01
 20
1.18735867E+02
  0
VERTEX
  8
0
 62
4
 10
-5.14204864E+01
 20
1.18705767E+02
  0
VERTEX
  8
0
 62
4
 10
-5.10795137E+01
 20
1.18705767E+02
  0
VERTEX
  8
0
 62
4
 10
-5.07399136E+01
 20
1.18735867E+02
  0
VERTEX
  8
0
 62
4
 10
-5.04044205E+01
 20
1.18795825E+02
  0
VERTEX
  8
0
 62
4
 10
-5.00757354E+01
 20
1.18885158E+02
  0
VERTEX
  8
0
 62
4
 10
-4.97565049E+01
 20
1.19003147E+02
  0
VERTEX
  8
0
 62
4
 10
-4.94492991E+01
 20
1.19148842E+02
  0
VERTEX
  8
0
 62
4
 10
-4.91565915E+01
 20
1.19321070E+02
  0
VERTEX
  8
0
 62
4
 10
-4.88807388E+01
 20
1.19518444E+02
  0
VERTEX
  8
0
 62
4
 10
-4.86239619E+01
 20
1.19739375E+02
  0
VERTEX
  8
0
 62
4
 10
-4.83883284E+01
 20
1.19982084E+02
  0
VERTEX
  8
0
 62
4
 10
-4.81757354E+01
 20
1.20244617E+02
  0
VERTEX
  8
0
 62
4
 10
-4.79878946E+01
 20
1.20524861E+02
  0
VERTEX
  8
0
 62
4
 10
-4.78263183E+01
 20
1.20820558E+02
  0
VERTEX
  8
0
 62
4
 10
-4.76923075E+01
 20
1.21129329E+02
  0
VERTEX
  8
0
 62
4
 10
-4.75869411E+01
 20
1.21448686E+02
  0
VERTEX
  8
0
 62
4
 10
-4.75110675E+01
 20
1.21776060E+02
  0
VERTEX
  8
0
 62
4
 10
-4.74652977E+01
 20
1.22108814E+02
  0
VERTEX
  8
0
 62
4
 10
-4.74500000E+01
 20
1.22444268E+02
  0
SEQEND
  8
0
  0
POLYLINE
  8
0
 62
4
 66
1
  0
VERTEX
  8
0
 62
4
 10
-5.50500000E+01
 20
1.22617916E+02
  0
VERTEX
  8
0
 62
4
 10
-5.50355399E+01
 20
1.22291756E+02
  0
VERTEX
  8
0
 62
4
 10
-5.49922695E+01
 20
1.21968078E+02
  0
VERTEX
  8
0
 62
4
 10
-5.49205182E+01
 20
1.21649345E+02
  0
VERTEX
  8
0
 62
4
 10
-5.48208320E+01
 20
1.21337984E+02
  0
VERTEX
  8
0
 62
4
 10
-5.46939696E+01
 20
1.21036365E+02
  0
VERTEX
  8
0
 62
4
 10
-5.45408966E+01
 20
1.20746781E+02
  0
VERTEX
  8
0
 62
4
 10
-5.43627778E+01
 20
1.20471438E+02
  0
VERTEX
  8
0
 62
4
 10
-5.41609689E+01
 20
1.20212432E+02
  0
VERTEX
  8
0
 62
4
 10
-5.39370058E+01
 20
1.19971732E+02
  0
VERTEX
  8
0
 62
4
 10
-5.36925929E+01
 20
1.19751171E+02
  0
VERTEX
  8
0
 62
4
 10
-5.34295905E+01
 20
1.19552428E+02
  0
VERTEX
  8
0
 62
4
 10
-5.31500000E+01
 20
1.19377016E+02
  0
VERTEX
  8
0
 62
4
 10
-5.28559494E+01
 20
1.19226268E+02
  0
VERTEX
  8
0
 62
4
 10
-5.25496766E+01
 20
1.19101333E+02
  0
VERTEX
  8
0
 62
4
 10
-5.22335124E+01
 20
1.19003161E+02
  0
VERTEX
  8
0
 62
4
 10
-5.19098631E+01
 20
1.18932500E+02
  0
VERTEX
  8
0
 62
4
 10
-5.15811918E+01
 20
1.18889887E+02
  0
VERTEX
  8
0
 62
4
 10
-5.12500000E+01
 20
1.18875647E+02
  0
VERTEX
  8
0
 62
4
 10
-5.09188082E+01
 20
1.18889887E+02
  0
VERTEX
  8
0
 62
4
 10
-5.05901369E+01
 20
1.18932500E+02
  0
VERTEX
  8
0
 62
4
 10
-5.02664876E+01
 20
1.19003161E+02
  0
VERTEX
  8
0
 62
4
 10
-4.99503235E+01
 20
1.19101333E+02
  0
VERTEX
  8
0
 62
4
 10
-4.96440506E+01
 20
1.19226268E+02
  0
VERTEX
  8
0
 62
4
 10
-4.93500000E+01
 20
1.19377016E+02
  0
VERTEX
  8
0
 62
4
 10
-4.90704095E+01
 20
1.19552428E+02
  0
VERTEX
  8
0
 62
4
 10
-4.88074071E+01
 20
1.19751171E+02
  0
VERTEX
  8
0
 62
4
 10
-4.85629942E+01
 20
1.19971732E+02
  0
VERTEX
  8
0
 62
4
 10
-4.83390311E+01
 20
1.20212432E+02
  0
VERTEX
  8
0
 62
4
 10
-4.81372222E+01
 20
1.20471438E+02
  0
VERTEX
  8
0
 62
4
 10
-4.79591034E+01
 20
1.20746781E+02
  0
VERTEX
  8
0
 62
4
 10
-4.78060304E+01
 20
1.21036365E+02
  0
VERTEX
  8
0
 62
4
 10
-4.76791680E+01
 20
1.21337984E+02
  0
VERTEX
  8
0
 62
4
 10
-4.75794818E+01
 20
1.21649345E+02
  0
VERTEX
  8
0
 62
4
 10
-4.75077305E+01
 20
1.21968078E+02
  0
VERTEX
  8
0
 62
4
 10
-4.74644601E+01
 20
1.22291756E+02
  0
VERTEX
  8
0
 62
4
 10
-4.74500000E+01
 20
1.22617916E+02
  0
VERTEX
  8
0
 62
4
 10
-4.74644601E+01
 20
1.22944076E+02
  0
VERTEX
  8
0
 62
4
 10
-4.75077305E+01
 20
1.23267754E+02
  0
VERTEX
  8
0
 62
4
 10
-4.75794818E+01
 20
1.23586487E+02
  0
VERTEX
  8
0
 62
4
 10
-4.76791680E+01
 20
1.23897848E+02
  0
VERTEX
  8
0
 62
4
 10
-4.78060304E+01
 20
1.24199467E+02
  0
VERTEX
  8
0
 62
4
 10
-4.79591034E+01
 20
1.24489051E+02
  0
VERTEX
  8
0
 62
4
 10
-4.81372222E+01
 20
1.24764394E+02
  0
VERTEX
  8
0
 62
4
 10
-4.83390311E+01
 20
1.25023400E+02
  0
VERTEX
  8
0
 62
4
 10
-4.85629942E+01
 20
1.25264100E+02
  0
VERTEX
  8
0
 62
4
 10
-4.88074071E+01
 20
1.25484661E+02
  0
VERTEX
  8
0
 62
4
 10
-4.90704095E+01
 20
1.25683404E+02
  0
VERTEX
  8
0
 62
4
 10
-4.93500000E+01
 20
1.25858816E+02
  0
VERTEX
  8
0
 62
4
 10
-4.96440506E+01
 20
1.26009564E+02
  0
VERTEX
  8
0
 62
4
 10
-4.99503234E+01
 20
1.26134499E+02
  0
VERTEX
  8
0
 62
4
 10
-5.02664876E+01
 20
1.26232671E+02
  0
VERTEX
  8
0
 62
4
 10
-5.05901369E+01
 20
1.26303332E+02
  0
VERTEX
  8
0
 62
4
 10
-5.09188082E+01
 20
1.26345945E+02
  0
VERTEX
  8
0
 62
4
 10
-5.12500000E+01
 20
1.26360185E+02
  0
VERTEX
  8
0
 62
4
 10
-5.15811918E+01
 20
1.26345945E+02
  0
VERTEX
  8
0
 62
4
 10
-5.19098631E+01
 20
1.26303332E+02
  0
VERTEX
  8
0
 62
4
 10
-5.22335124E+01
 20
1.26232671E+02
  0
VERTEX
  8
0
 62
4
 10
-5.25496766E+01
 20
1.26134499E+02
  0
VERTEX
  8
0
 62
4
 10
-5.28559494E+01
 20
1.26009564E+02
  0
VERTEX
  8
0
 62
4
 10
-5.31500000E+01
 20
1.25858816E+02
  0
VERTEX
  8
0
 62
4
 10
-5.34295905E+01
 20
1.25683404E+02
  0
VERTEX
  8
0
 62
4
 10
-5.36925929E+01
 20
1.25484661E+02
  0
VERTEX
  8
0
 62
4
 10
-5.39370058E+01
 20
1.25264100E+02
  0
VERTEX
  8
0
 62
4
 10
-5.41609689E+01
 20
1.25023400E+02
  0
VERTEX
  8
0
 62
4
 10
-5.43627778E+01
 20
1.24764394E+02
  0
VERTEX
  8
0
 62
4
 10
-5.45408966E+01
 20
1.24489051E+02
  0
VERTEX
  8
0
 62
4
 10
-5.46939696E+01
 20
1.24199467E+02
  0
VERTEX
  8
0
 62
4
 10
-5.48208320E+01
 20
1.23897848E+02
  0
VERTEX
  8
0
 62
4
 10
-5.49205182E+01
 20
1.23586487E+02
  0
VERTEX
  8
0
 62
4
 10
-5.49922695E+01
 20
1.23267754E+02
  0
VERTEX
  8
0
 62
4
 10
-5.50355399E+01
 20
1.22944076E+02
  0
VERTEX
  8
0
 62
4
 10
-5.50500000E+01
 20
1.22617916E+02
  0
SEQEND
  8
0
  0
LINE
  8
0
 62
4
 10
-4.74500000E+01
 20
1.22444268E+02
 11
-4.74500000E+01
 21
1.22617916E+02
  0
LINE
  8
0
 62
4
 10
-5.46500000E+01
 20
1.22617916E+02
 11
-5.46500000E+01
 21
1.22814278E+02
  0
POLYLINE
  8
0
 62
4
 66
1
  0
VERTEX
  8
0
 62
4
 10
-5.46500000E+01
 20
1.22617916E+02
  0
VERTEX
  8
0
 62
4
 10
-5.46363126E+01
 20
1.22317773E+02
  0
VERTEX
  8
0
 62
4
 10
-5.45953606E+01
 20
1.22020046E+02
  0
VERTEX
  8
0
 62
4
 10
-5.45274738E+01
 20
1.21727133E+02
  0
VERTEX
  8
0
 62
4
 10
-5.44331986E+01
 20
1.21441391E+02
  0
VERTEX
  8
0
 62
4
 10
-5.43132942E+01
 20
1.21165123E+02
  0
VERTEX
  8
0
 62
4
 10
-5.41687259E+01
 20
1.20900552E+02
  0
VERTEX
  8
0
 62
4
 10
-5.40006578E+01
 20
1.20649807E+02
  0
VERTEX
  8
0
 62
4
 10
-5.38104430E+01
 20
1.20414909E+02
  0
VERTEX
  8
0
 62
4
 10
-5.35996130E+01
 20
1.20197748E+02
  0
VERTEX
  8
0
 62
4
 10
-5.33698654E+01
 20
1.20000073E+02
  0
VERTEX
  8
0
 62
4
 10
-5.31230498E+01
 20
1.19823476E+02
  0
VERTEX
  8
0
 62
4
 10
-5.28611535E+01
 20
1.19669377E+02
  0
VERTEX
  8
0
 62
4
 10
-5.25862851E+01
 20
1.19539019E+02
  0
VERTEX
  8
0
 62
4
 10
-5.23006578E+01
 20
1.19433449E+02
  0
VERTEX
  8
0
 62
4
 10
-5.20065712E+01
 20
1.19353520E+02
  0
VERTEX
  8
0
 62
4
 10
-5.17063931E+01
 20
1.19299873E+02
  0
VERTEX
  8
0
 62
4
 10
-5.14025404E+01
 20
1.19272941E+02
  0
VERTEX
  8
0
 62
4
 10
-5.10974596E+01
 20
1.19272941E+02
  0
VERTEX
  8
0
 62
4
 10
-5.07936069E+01
 20
1.19299873E+02
  0
VERTEX
  8
0
 62
4
 10
-5.04934288E+01
 20
1.19353520E+02
  0
VERTEX
  8
0
 62
4
 10
-5.01993422E+01
 20
1.19433449E+02
  0
VERTEX
  8
0
 62
4
 10
-4.99137149E+01
 20
1.19539019E+02
  0
VERTEX
  8
0
 62
4
 10
-4.96388466E+01
 20
1.19669377E+02
  0
VERTEX
  8
0
 62
4
 10
-4.93769503E+01
 20
1.19823476E+02
  0
VERTEX
  8
0
 62
4
 10
-4.91301347E+01
 20
1.20000073E+02
  0
VERTEX
  8
0
 62
4
 10
-4.89003870E+01
 20
1.20197748E+02
  0
VERTEX
  8
0
 62
4
 10
-4.86895570E+01
 20
1.20414909E+02
  0
VERTEX
  8
0
 62
4
 10
-4.84993422E+01
 20
1.20649807E+02
  0
VERTEX
  8
0
 62
4
 10
-4.83312741E+01
 20
1.20900552E+02
  0
VERTEX
  8
0
 62
4
 10
-4.81867058E+01
 20
1.21165123E+02
  0
VERTEX
  8
0
 62
4
 10
-4.80668014E+01
 20
1.21441391E+02
  0
VERTEX
  8
0
 62
4
 10
-4.79725263E+01
 20
1.21727132E+02
  0
VERTEX
  8
0
 62
4
 10
-4.79046394E+01
 20
1.22020046E+02
  0
VERTEX
  8
0
 62
4
 10
-4.78636874E+01
 20
1.22317773E+02
  0
VERTEX
  8
0
 62
4
 10
-4.78500000E+01
 20
1.22617916E+02
  0
SEQEND
  8
0
  0
POLYLINE
  8
0
 62
4
 66
1
  0
VERTEX
  8
0
 62
4
 10
-5.46500000E+01
 20
1.22814278E+02
  0
VERTEX
  8
0
 62
4
 10
-5.46370620E+01
 20
1.22522450E+02
  0
VERTEX
  8
0
 62
4
 10
-5.45983464E+01
 20
1.22232844E+02
  0
VERTEX
  8
0
 62
4
 10
-5.45341478E+01
 20
1.21947662E+02
  0
VERTEX
  8
0
 62
4
 10
-5.44449549E+01
 20
1.21669076E+02
  0
VERTEX
  8
0
 62
4
 10
-5.43314465E+01
 20
1.21399206E+02
  0
VERTEX
  8
0
 62
4
 10
-5.41944864E+01
 20
1.21140105E+02
  0
VERTEX
  8
0
 62
4
 10
-5.40351170E+01
 20
1.20893745E+02
  0
VERTEX
  8
0
 62
4
 10
-5.38545511E+01
 20
1.20662002E+02
  0
VERTEX
  8
0
 62
4
 10
-5.36541631E+01
 20
1.20446639E+02
  0
VERTEX
  8
0
 62
4
 10
-5.34354779E+01
 20
1.20249296E+02
  0
VERTEX
  8
0
 62
4
 10
-5.32001599E+01
 20
1.20071473E+02
  0
VERTEX
  8
0
 62
4
 10
-5.29500000E+01
 20
1.19914525E+02
  0
VERTEX
  8
0
 62
4
 10
-5.26869021E+01
 20
1.19779645E+02
  0
VERTEX
  8
0
 62
4
 10
-5.24128685E+01
 20
1.19667861E+02
  0
VERTEX
  8
0
 62
4
 10
-5.21299848E+01
 20
1.19580023E+02
  0
VERTEX
  8
0
 62
4
 10
-5.18404038E+01
 20
1.19516800E+02
  0
VERTEX
  8
0
 62
4
 10
-5.15463295E+01
 20
1.19478673E+02
  0
VERTEX
  8
0
 62
4
 10
-5.12500000E+01
 20
1.19465931E+02
  0
VERTEX
  8
0
 62
4
 10
-5.09536705E+01
 20
1.19478673E+02
  0
VERTEX
  8
0
 62
4
 10
-5.06595962E+01
 20
1.19516800E+02
  0
VERTEX
  8
0
 62
4
 10
-5.03700152E+01
 20
1.19580023E+02
  0
VERTEX
  8
0
 62
4
 10
-5.00871315E+01
 20
1.19667861E+02
  0
VERTEX
  8
0
 62
4
 10
-4.98130979E+01
 20
1.19779645E+02
  0
VERTEX
  8
0
 62
4
 10
-4.95500000E+01
 20
1.19914525E+02
  0
VERTEX
  8
0
 62
4
 10
-4.92998401E+01
 20
1.20071473E+02
  0
VERTEX
  8
0
 62
4
 10
-4.90645221E+01
 20
1.20249296E+02
  0
VERTEX
  8
0
 62
4
 10
-4.88458369E+01
 20
1.20446639E+02
  0
VERTEX
  8
0
 62
4
 10
-4.86454489E+01
 20
1.20662002E+02
  0
VERTEX
  8
0
 62
4
 10
-4.84648830E+01
 20
1.20893745E+02
  0
VERTEX
  8
0
 62
4
 10
-4.83055136E+01
 20
1.21140105E+02
  0
VERTEX
  8
0
 62
4
 10
-4.81685535E+01
 20
1.21399206E+02
  0
VERTEX
  8
0
 62
4
 10
-4.80550451E+01
 20
1.21669076E+02
  0
VERTEX
  8
0
 62
4
 10
-4.79658522E+01
 20
1.21947662E+02
  0
VERTEX
  8
0
 62
4
 10
-4.79016536E+01
 20
1.22232844E+02
  0
VERTEX
  8
0
 62
4
 10
-4.78629380E+01
 20
1.22522450E+02
  0
VERTEX
  8
0
 62
4
 10
-4.78500000E+01
 20
1.22814278E+02
  0
VERTEX
  8
0
 62
4
 10
-4.78629380E+01
 20
1.23106106E+02
  0
VERTEX
  8
0
 62
4
 10
-4.79016536E+01
 20
1.23395712E+02
  0
VERTEX
  8
0
 62
4
 10
-4.79658522E+01
 20
1.23680894E+02
  0
VERTEX
  8
0
 62
4
 10
-4.80550451E+01
 20
1.23959480E+02
  0
VERTEX
  8
0
 62
4
 10
-4.81685535E+01
 20
1.24229350E+02
  0
VERTEX
  8
0
 62
4
 10
-4.83055136E+01
 20
1.24488451E+02
  0
VERTEX
  8
0
 62
4
 10
-4.84648830E+01
 20
1.24734811E+02
  0
VERTEX
  8
0
 62
4
 10
-4.86454489E+01
 20
1.24966554E+02
  0
VERTEX
  8
0
 62
4
 10
-4.88458369E+01
 20
1.25181917E+02
  0
VERTEX
  8
0
 62
4
 10
-4.90645221E+01
 20
1.25379260E+02
  0
VERTEX
  8
0
 62
4
 10
-4.92998401E+01
 20
1.25557083E+02
  0
VERTEX
  8
0
 62
4
 10
-4.95500000E+01
 20
1.25714031E+02
  0
VERTEX
  8
0
 62
4
 10
-4.98130979E+01
 20
1.25848911E+02
  0
VERTEX
  8
0
 62
4
 10
-5.00871315E+01
 20
1.25960695E+02
  0
VERTEX
  8
0
 62
4
 10
-5.03700152E+01
 20
1.26048533E+02
  0
VERTEX
  8
0
 62
4
 10
-5.06595962E+01
 20
1.26111756E+02
  0
VERTEX
  8
0
 62
4
 10
-5.09536705E+01
 20
1.26149883E+02
  0
VERTEX
  8
0
 62
4
 10
-5.12500000E+01
 20
1.26162625E+02
  0
VERTEX
  8
0
 62
4
 10
-5.15463295E+01
 20
1.26149883E+02
  0
VERTEX
  8
0
 62
4
 10
-5.18404038E+01
 20
1.26111756E+02
  0
VERTEX
  8
0
 62
4
 10
-5.21299848E+01
 20
1.26048533E+02
  0
VERTEX
  8
0
 62
4
 10
-5.24128685E+01
 20
1.25960695E+02
  0
VERTEX
  8
0
 62
4
 10
-5.26869021E+01
 20
1.25848911E+02
  0
VERTEX
  8
0
 62
4
 10
-5.29500000E+01
 20
1.25714031E+02
  0
VERTEX
  8
0
 62
4
 10
-5.32001599E+01
 20
1.25557083E+02
  0
VERTEX
  8
0
 62
4
 10
-5.34354779E+01
 20
1.25379260E+02
  0
VERTEX
  8
0
 62
4
 10
-5.36541631E+01
 20
1.25181917E+02
  0
VERTEX
  8
0
 62
4
 10
-5.38545511E+01
 20
1.24966554E+02
  0
VERTEX
  8
0
 62
4
 10
-5.40351170E+01
 20
1.24734811E+02
  0
VERTEX
  8
0
 62
4
 10
-5.41944864E+01
 20
1.24488451E+02
  0
VERTEX
  8
0
 62
4
 10
-5.43314465E+01
 20
1.24229350E+02
  0
VERTEX
  8
0
 62
4
 10
-5.44449549E+01
 20
1.23959480E+02
  0
VERTEX
  8
0
 62
4
 10
-5.45341478E+01
 20
1.23680894E+02
  0
VERTEX
  8
0
 62
4
 10
-5.45983464E+01
 20
1.23395712E+02
  0
VERTEX
  8
0
 62
4
 10
-5.46370620E+01
 20
1.23106106E+02
  0
VERTEX
  8
0
 62
4
 10
-5.46500000E+01
 20
1.22814278E+02
  0
SEQEND
  8
0
  0
LINE
  8
0
 62
4
 10
-4.78500000E+01
 20
1.22617916E+02
 11
-4.78500000E+01
 21
1.22814278E+02
  0
ARC
  8
0
 62
4
 10
7.99314687E+01
 20
-1.01934850E+01
 40
1.86971513E+02
 50
1.33801123E+02
 51
1.35321779E+02
  0
ARC
  8
0
 62
4
 10
-1.82431469E+02
 20
-1.01934850E+01
 40
1.86971513E+02
 50
4.46782203E+01
 51
4.61988768E+01
  0
LINE
  8
0
 62
4
 10
-7.37500000E+01
 20
1.12103786E+02
 11
-7.37500000E+01
 21
1.10369449E+02
  0
LINE
  8
0
 62
4
 10
-7.37500000E+01
 20
1.16176228E+02
 11
-7.37500000E+01
 21
1.12103786E+02
  0
LINE
  8
0
 62
4
 10
-7.37500000E+01
 20
1.16633902E+02
 11
-6.20871230E+01
 21
1.16633902E+02
  0
LINE
  8
0
 62
4
 10
-7.37500000E+01
 20
1.12236997E+02
 11
-5.02500000E+01
 21
1.12236997E+02
  0
LINE
  8
0
 62
4
 10
-7.37500000E+01
 20
1.16176228E+02
 11
-6.16872448E+01
 21
1.16176228E+02
  0
LINE
  8
0
 62
4
 10
-7.52500000E+01
 20
1.12544468E+02
 11
-7.37500000E+01
 21
1.11542404E+02
  0
LINE
  8
0
 62
4
 10
-7.52500000E+01
 20
1.12937781E+02
 11
-7.37500000E+01
 21
1.12236997E+02
  0
LINE
  8
0
 62
4
 10
-7.52500000E+01
 20
1.15168371E+02
 11
-7.52500000E+01
 21
1.12544468E+02
  0
LINE
  8
0
 62
4
 10
-7.37500000E+01
 20
1.16176228E+02
 11
-7.52500000E+01
 21
1.15168371E+02
  0
LINE
  8
0
 62
4
 10
-7.37500000E+01
 20
1.12103786E+02
 11
-4.37500000E+01
 21
1.12103786E+02
  0
LINE
  8
0
 62
4
 10
-7.37500000E+01
 20
1.11118978E+02
 11
-4.37500000E+01
 21
1.11118978E+02
  0
LINE
  8
0
 62
4
 10
-7.37500000E+01
 20
1.26875902E+02
 11
-4.37500000E+01
 21
1.26875902E+02
  0
POLYLINE
  8
0
 62
4
 66
1
  0
VERTEX
  8
0
 62
4
 10
-9.25000000E+00
 20
1.02699624E+02
  0
VERTEX
  8
0
 62
4
 10
-9.25805141E+00
 20
1.02876179E+02
  0
VERTEX
  8
0
 62
4
 10
-9.28214082E+00
 20
1.03051312E+02
  0
VERTEX
  8
0
 62
4
 10
-9.32207427E+00
 20
1.03223614E+02
  0
VERTEX
  8
0
 62
4
 10
-9.37753025E+00
 20
1.03391697E+02
  0
VERTEX
  8
0
 62
4
 10
-9.44806226E+00
 20
1.03554208E+02
  0
VERTEX
  8
0
 62
4
 10
-9.53310240E+00
 20
1.03709838E+02
  0
VERTEX
  8
0
 62
4
 10
-9.63196600E+00
 20
1.03857335E+02
  0
VERTEX
  8
0
 62
4
 10
-9.74385706E+00
 20
1.03995510E+02
  0
VERTEX
  8
0
 62
4
 10
-9.86787469E+00
 20
1.04123252E+02
  0
VERTEX
  8
0
 62
4
 10
-1.00030204E+01
 20
1.04239531E+02
  0
VERTEX
  8
0
 62
4
 10
-1.01482060E+01
 20
1.04343412E+02
  0
VERTEX
  8
0
 62
4
 10
-1.03022627E+01
 20
1.04434059E+02
  0
VERTEX
  8
0
 62
4
 10
-1.04639499E+01
 20
1.04510740E+02
  0
VERTEX
  8
0
 62
4
 10
-1.06319660E+01
 20
1.04572840E+02
  0
VERTEX
  8
0
 62
4
 10
-1.08049581E+01
 20
1.04619857E+02
  0
VERTEX
  8
0
 62
4
 10
-1.09815335E+01
 20
1.04651414E+02
  0
VERTEX
  8
0
 62
4
 10
-1.11602703E+01
 20
1.04667256E+02
  0
VERTEX
  8
0
 62
4
 10
-1.13397296E+01
 20
1.04667256E+02
  0
VERTEX
  8
0
 62
4
 10
-1.15184665E+01
 20
1.04651414E+02
  0
VERTEX
  8
0
 62
4
 10
-1.16950419E+01
 20
1.04619857E+02
  0
VERTEX
  8
0
 62
4
 10
-1.18680340E+01
 20
1.04572840E+02
  0
VERTEX
  8
0
 62
4
 10
-1.20360500E+01
 20
1.04510740E+02
  0
VERTEX
  8
0
 62
4
 10
-1.21977373E+01
 20
1.04434059E+02
  0
VERTEX
  8
0
 62
4
 10
-1.23517939E+01
 20
1.04343412E+02
  0
VERTEX
  8
0
 62
4
 10
-1.24969796E+01
 20
1.04239531E+02
  0
VERTEX
  8
0
 62
4
 10
-1.26321253E+01
 20
1.04123252E+02
  0
VERTEX
  8
0
 62
4
 10
-1.27561429E+01
 20
1.03995510E+02
  0
VERTEX
  8
0
 62
4
 10
-1.28680340E+01
 20
1.03857335E+02
  0
VERTEX
  8
0
 62
4
 10
-1.29668976E+01
 20
1.03709838E+02
  0
VERTEX
  8
0
 62
4
 10
-1.30519377E+01
 20
1.03554208E+02
  0
VERTEX
  8
0
 62
4
 10
-1.31224697E+01
 20
1.03391697E+02
  0
VERTEX
  8
0
 62
4
 10
-1.31779257E+01
 20
1.03223614E+02
  0
VERTEX
  8
0
 62
4
 10
-1.32178592E+01
 20
1.03051312E+02
  0
VERTEX
  8
0
 62
4
 10
-1.32419486E+01
 20
1.02876179E+02
  0
VERTEX
  8
0
 62
4
 10
-1.32500000E+01
 20
1.02699624E+02
  0
SEQEND
  8
0
  0
POLYLINE
  8
0
 62
4
 66
1
  0
VERTEX
  8
0
 62
4
 10
-1.32500000E+01
 20
1.02163985E+02
  0
VERTEX
  8
0
 62
4
 10
-1.32423894E+01
 20
1.01992322E+02
  0
VERTEX
  8
0
 62
4
 10
-1.32196155E+01
 20
1.01821965E+02
  0
VERTEX
  8
0
 62
4
 10
-1.31818517E+01
 20
1.01654211E+02
  0
VERTEX
  8
0
 62
4
 10
-1.31293852E+01
 20
1.01490337E+02
  0
VERTEX
  8
0
 62
4
 10
-1.30626156E+01
 20
1.01331590E+02
  0
VERTEX
  8
0
 62
4
 10
-1.29820508E+01
 20
1.01179177E+02
  0
VERTEX
  8
0
 62
4
 10
-1.28883041E+01
 20
1.01034260E+02
  0
VERTEX
  8
0
 62
4
 10
-1.27820889E+01
 20
1.00897941E+02
  0
VERTEX
  8
0
 62
4
 10
-1.26642136E+01
 20
1.00771257E+02
  0
VERTEX
  8
0
 62
4
 10
-1.25355752E+01
 20
1.00655172E+02
  0
VERTEX
  8
0
 62
4
 10
-1.23971529E+01
 20
1.00550570E+02
  0
VERTEX
  8
0
 62
4
 10
-1.22500000E+01
 20
1.00458248E+02
  0
VERTEX
  8
0
 62
4
 10
-1.20952365E+01
 20
1.00378907E+02
  0
VERTEX
  8
0
 62
4
 10
-1.19340403E+01
 20
1.00313152E+02
  0
VERTEX
  8
0
 62
4
 10
-1.17676381E+01
 20
1.00261483E+02
  0
VERTEX
  8
0
 62
4
 10
-1.15972964E+01
 20
1.00224292E+02
  0
VERTEX
  8
0
 62
4
 10
-1.14243115E+01
 20
1.00201864E+02
  0
VERTEX
  8
0
 62
4
 10
-1.12500000E+01
 20
1.00194369E+02
  0
VERTEX
  8
0
 62
4
 10
-1.10756885E+01
 20
1.00201864E+02
  0
VERTEX
  8
0
 62
4
 10
-1.09027037E+01
 20
1.00224292E+02
  0
VERTEX
  8
0
 62
4
 10
-1.07323619E+01
 20
1.00261483E+02
  0
VERTEX
  8
0
 62
4
 10
-1.05659597E+01
 20
1.00313152E+02
  0
VERTEX
  8
0
 62
4
 10
-1.04047635E+01
 20
1.00378907E+02
  0
VERTEX
  8
0
 62
4
 10
-1.02500000E+01
 20
1.00458248E+02
  0
VERTEX
  8
0
 62
4
 10
-1.01028471E+01
 20
1.00550570E+02
  0
VERTEX
  8
0
 62
4
 10
-9.96442478E+00
 20
1.00655172E+02
  0
VERTEX
  8
0
 62
4
 10
-9.83578644E+00
 20
1.00771257E+02
  0
VERTEX
  8
0
 62
4
 10
-9.71791112E+00
 20
1.00897941E+02
  0
VERTEX
  8
0
 62
4
 10
-9.61169591E+00
 20
1.01034260E+02
  0
VERTEX
  8
0
 62
4
 10
-9.51794919E+00
 20
1.01179177E+02
  0
VERTEX
  8
0
 62
4
 10
-9.43738443E+00
 20
1.01331590E+02
  0
VERTEX
  8
0
 62
4
 10
-9.37061476E+00
 20
1.01490337E+02
  0
VERTEX
  8
0
 62
4
 10
-9.31814835E+00
 20
1.01654211E+02
  0
VERTEX
  8
0
 62
4
 10
-9.28038449E+00
 20
1.01821965E+02
  0
VERTEX
  8
0
 62
4
 10
-9.25761060E+00
 20
1.01992322E+02
  0
VERTEX
  8
0
 62
4
 10
-9.25000000E+00
 20
1.02163985E+02
  0
VERTEX
  8
0
 62
4
 10
-9.25761060E+00
 20
1.02335648E+02
  0
VERTEX
  8
0
 62
4
 10
-9.28038449E+00
 20
1.02506005E+02
  0
VERTEX
  8
0
 62
4
 10
-9.31814835E+00
 20
1.02673759E+02
  0
VERTEX
  8
0
 62
4
 10
-9.37061476E+00
 20
1.02837633E+02
  0
VERTEX
  8
0
 62
4
 10
-9.43738442E+00
 20
1.02996380E+02
  0
VERTEX
  8
0
 62
4
 10
-9.51794919E+00
 20
1.03148793E+02
  0
VERTEX
  8
0
 62
4
 10
-9.61169591E+00
 20
1.03293710E+02
  0
VERTEX
  8
0
 62
4
 10
-9.71791111E+00
 20
1.03430029E+02
  0
VERTEX
  8
0
 62
4
 10
-9.83578644E+00
 20
1.03556713E+02
  0
VERTEX
  8
0
 62
4
 10
-9.96442478E+00
 20
1.03672798E+02
  0
VERTEX
  8
0
 62
4
 10
-1.01028471E+01
 20
1.03777400E+02
  0
VERTEX
  8
0
 62
4
 10
-1.02500000E+01
 20
1.03869722E+02
  0
VERTEX
  8
0
 62
4
 10
-1.04047635E+01
 20
1.03949063E+02
  0
VERTEX
  8
0
 62
4
 10
-1.05659597E+01
 20
1.04014818E+02
  0
VERTEX
  8
0
 62
4
 10
-1.07323619E+01
 20
1.04066487E+02
  0
VERTEX
  8
0
 62
4
 10
-1.09027036E+01
 20
1.04103678E+02
  0
VERTEX
  8
0
 62
4
 10
-1.10756885E+01
 20
1.04126106E+02
  0
VERTEX
  8
0
 62
4
 10
-1.12500000E+01
 20
1.04133601E+02
  0
VERTEX
  8
0
 62
4
 10
-1.14243115E+01
 20
1.04126106E+02
  0
VERTEX
  8
0
 62
4
 10
-1.15972964E+01
 20
1.04103678E+02
  0
VERTEX
  8
0
 62
4
 10
-1.17676381E+01
 20
1.04066487E+02
  0
VERTEX
  8
0
 62
4
 10
-1.19340403E+01
 20
1.04014818E+02
  0
VERTEX
  8
0
 62
4
 10
-1.20952365E+01
 20
1.03949063E+02
  0
VERTEX
  8
0
 62
4
 10
-1.22500000E+01
 20
1.03869722E+02
  0
VERTEX
  8
0
 62
4
 10
-1.23971529E+01
 20
1.03777400E+02
  0
VERTEX
  8
0
 62
4
 10
-1.25355752E+01
 20
1.03672798E+02
  0
VERTEX
  8
0
 62
4
 10
-1.26642136E+01
 20
1.03556713E+02
  0
VERTEX
  8
0
 62
4
 10
-1.27820889E+01
 20
1.03430029E+02
  0
VERTEX
  8
0
 62
4
 10
-1.28883041E+01
 20
1.03293710E+02
  0
VERTEX
  8
0
 62
4
 10
-1.29820508E+01
 20
1.03148793E+02
  0
VERTEX
  8
0
 62
4
 10
-1.30626156E+01
 20
1.02996380E+02
  0
VERTEX
  8
0
 62
4
 10
-1.31293852E+01
 20
1.02837633E+02
  0
VERTEX
  8
0
 62
4
 10
-1.31818517E+01
 20
1.02673759E+02
  0
VERTEX
  8
0
 62
4
 10
-1.32196155E+01
 20
1.02506005E+02
  0
VERTEX
  8
0
 62
4
 10
-1.32423894E+01
 20
1.02335648E+02
  0
VERTEX
  8
0
 62
4
 10
-1.32500000E+01
 20
1.02163985E+02
  0
SEQEND
  8
0
  0
LINE
  8
0
 62
4
 10
-1.32500000E+01
 20
1.02163985E+02
 11
-1.32500000E+01
 21
1.02699624E+02
  0
LINE
  8
0
 62
4
 10
-9.25000000E+00
 20
1.02163985E+02
 11
-9.25000000E+00
 21
1.02699624E+02
  0
POLYLINE
  8
0
 62
6
 66
1
  0
VERTEX
  8
0
 62
6
 10
-9.75000000E+00
 20
1.02163985E+02
  0
VERTEX
  8
0
 62
6
 10
-9.75570795E+00
 20
1.02292732E+02
  0
VERTEX
  8
0
 62
6
 10
-9.77278837E+00
 20
1.02420500E+02
  0
VERTEX
  8
0
 62
6
 10
-9.80111126E+00
 20
1.02546316E+02
  0
VERTEX
  8
0
 62
6
 10
-9.84046107E+00
 20
1.02669221E+02
  0
VERTEX
  8
0
 62
6
 10
-9.89053832E+00
 20
1.02788282E+02
  0
VERTEX
  8
0
 62
6
 10
-9.95096189E+00
 20
1.02902591E+02
  0
VERTEX
  8
0
 62
6
 10
-1.00212719E+01
 20
1.03011279E+02
  0
VERTEX
  8
0
 62
6
 10
-1.01009333E+01
 20
1.03113518E+02
  0
VERTEX
  8
0
 62
6
 10
-1.01893398E+01
 20
1.03208531E+02
  0
VERTEX
  8
0
 62
6
 10
-1.02858186E+01
 20
1.03295595E+02
  0
VERTEX
  8
0
 62
6
 10
-1.03896353E+01
 20
1.03374046E+02
  0
VERTEX
  8
0
 62
6
 10
-1.05000000E+01
 20
1.03443288E+02
  0
VERTEX
  8
0
 62
6
 10
-1.06160726E+01
 20
1.03502793E+02
  0
VERTEX
  8
0
 62
6
 10
-1.07369698E+01
 20
1.03552110E+02
  0
VERTEX
  8
0
 62
6
 10
-1.08617714E+01
 20
1.03590862E+02
  0
VERTEX
  8
0
 62
6
 10
-1.09895277E+01
 20
1.03618754E+02
  0
VERTEX
  8
0
 62
6
 10
-1.11192664E+01
 20
1.03635575E+02
  0
VERTEX
  8
0
 62
6
 10
-1.12500000E+01
 20
1.03641197E+02
  0
VERTEX
  8
0
 62
6
 10
-1.13807336E+01
 20
1.03635575E+02
  0
VERTEX
  8
0
 62
6
 10
-1.15104723E+01
 20
1.03618754E+02
  0
VERTEX
  8
0
 62
6
 10
-1.16382286E+01
 20
1.03590862E+02
  0
VERTEX
  8
0
 62
6
 10
-1.17630302E+01
 20
1.03552110E+02
  0
VERTEX
  8
0
 62
6
 10
-1.18839274E+01
 20
1.03502793E+02
  0
VERTEX
  8
0
 62
6
 10
-1.20000000E+01
 20
1.03443288E+02
  0
VERTEX
  8
0
 62
6
 10
-1.21103647E+01
 20
1.03374046E+02
  0
VERTEX
  8
0
 62
6
 10
-1.22141814E+01
 20
1.03295595E+02
  0
VERTEX
  8
0
 62
6
 10
-1.23106602E+01
 20
1.03208531E+02
  0
VERTEX
  8
0
 62
6
 10
-1.23990667E+01
 20
1.03113518E+02
  0
VERTEX
  8
0
 62
6
 10
-1.24787281E+01
 20
1.03011279E+02
  0
VERTEX
  8
0
 62
6
 10
-1.25490381E+01
 20
1.02902591E+02
  0
VERTEX
  8
0
 62
6
 10
-1.26094617E+01
 20
1.02788282E+02
  0
VERTEX
  8
0
 62
6
 10
-1.26595389E+01
 20
1.02669221E+02
  0
VERTEX
  8
0
 62
6
 10
-1.26988887E+01
 20
1.02546316E+02
  0
VERTEX
  8
0
 62
6
 10
-1.27272116E+01
 20
1.02420500E+02
  0
VERTEX
  8
0
 62
6
 10
-1.27442920E+01
 20
1.02292732E+02
  0
VERTEX
  8
0
 62
6
 10
-1.27500000E+01
 20
1.02163985E+02
  0
VERTEX
  8
0
 62
6
 10
-1.27442920E+01
 20
1.02035238E+02
  0
VERTEX
  8
0
 62
6
 10
-1.27272116E+01
 20
1.01907470E+02
  0
VERTEX
  8
0
 62
6
 10
-1.26988887E+01
 20
1.01781654E+02
  0
VERTEX
  8
0
 62
6
 10
-1.26595389E+01
 20
1.01658749E+02
  0
VERTEX
  8
0
 62
6
 10
-1.26094617E+01
 20
1.01539688E+02
  0
VERTEX
  8
0
 62
6
 10
-1.25490381E+01
 20
1.01425379E+02
  0
VERTEX
  8
0
 62
6
 10
-1.24787281E+01
 20
1.01316691E+02
  0
VERTEX
  8
0
 62
6
 10
-1.23990667E+01
 20
1.01214452E+02
  0
VERTEX
  8
0
 62
6
 10
-1.23106602E+01
 20
1.01119439E+02
  0
VERTEX
  8
0
 62
6
 10
-1.22141814E+01
 20
1.01032375E+02
  0
VERTEX
  8
0
 62
6
 10
-1.21103647E+01
 20
1.00953924E+02
  0
VERTEX
  8
0
 62
6
 10
-1.20000000E+01
 20
1.00884682E+02
  0
VERTEX
  8
0
 62
6
 10
-1.18839274E+01
 20
1.00825177E+02
  0
VERTEX
  8
0
 62
6
 10
-1.17630302E+01
 20
1.00775860E+02
  0
VERTEX
  8
0
 62
6
 10
-1.16382286E+01
 20
1.00737108E+02
  0
VERTEX
  8
0
 62
6
 10
-1.15104723E+01
 20
1.00709216E+02
  0
VERTEX
  8
0
 62
6
 10
-1.13807336E+01
 20
1.00692395E+02
  0
VERTEX
  8
0
 62
6
 10
-1.12500000E+01
 20
1.00686773E+02
  0
VERTEX
  8
0
 62
6
 10
-1.11192664E+01
 20
1.00692395E+02
  0
VERTEX
  8
0
 62
6
 10
-1.09895277E+01
 20
1.00709216E+02
  0
VERTEX
  8
0
 62
6
 10
-1.08617714E+01
 20
1.00737108E+02
  0
VERTEX
  8
0
 62
6
 10
-1.07369698E+01
 20
1.00775860E+02
  0
VERTEX
  8
0
 62
6
 10
-1.06160726E+01
 20
1.00825177E+02
  0
VERTEX
  8
0
 62
6
 10
-1.05000000E+01
 20
1.00884682E+02
  0
VERTEX
  8
0
 62
6
 10
-1.03896353E+01
 20
1.00953924E+02
  0
VERTEX
  8
0
 62
6
 10
-1.02858186E+01
 20
1.01032375E+02
  0
VERTEX
  8
0
 62
6
 10
-1.01893398E+01
 20
1.01119439E+02
  0
VERTEX
  8
0
 62
6
 10
-1.01009333E+01
 20
1.01214452E+02
  0
VERTEX
  8
0
 62
6
 10
-1.00212719E+01
 20
1.01316691E+02
  0
VERTEX
  8
0
 62
6
 10
-9.95096189E+00
 20
1.01425379E+02
  0
VERTEX
  8
0
 62
6
 10
-9.89053832E+00
 20
1.01539688E+02
  0
VERTEX
  8
0
 62
6
 10
-9.84046107E+00
 20
1.01658749E+02
  0
VERTEX
  8
0
 62
6
 10
-9.80111126E+00
 20
1.01781655E+02
  0
VERTEX
  8
0
 62
6
 10
-9.77278837E+00
 20
1.01907470E+02
  0
VERTEX
  8
0
 62
6
 10
-9.75570795E+00
 20
1.02035238E+02
  0
VERTEX
  8
0
 62
6
 10
-9.75000000E+00
 20
1.02163985E+02
  0
SEQEND
  8
0
  0
LINE
  8
0
 62
4
 10
-1.22500000E+01
 20
1.02735174E+02
 11
-1.22500000E+01
 21
1.01592797E+02
  0
LINE
  8
0
 62
4
 10
-1.02500000E+01
 20
1.02735174E+02
 11
-1.02500000E+01
 21
1.01592797E+02
  0
LINE
  8
0
 62
4
 10
-1.12500000E+01
 20
1.03296514E+02
 11
-1.22500000E+01
 21
1.02735174E+02
  0
LINE
  8
0
 62
4
 10
-1.12500000E+01
 20
1.03296514E+02
 11
-1.02500000E+01
 21
1.02735174E+02
  0
LINE
  8
0
 62
4
 10
-1.02500000E+01
 20
1.01592797E+02
 11
-1.12500000E+01
 21
1.01021608E+02
  0
LINE
  8
0
 62
4
 10
-1.22500000E+01
 20
1.01592797E+02
 11
-1.12500000E+01
 21
1.01021608E+02
  0
LINE
  8
0
 62
4
 10
-4.25000000E+00
 20
1.01592797E+02
 11
-3.25000000E+00
 21
1.01021608E+02
  0
LINE
  8
0
 62
4
 10
-2.25000000E+00
 20
1.01592797E+02
 11
-3.25000000E+00
 21
1.01021608E+02
  0
LINE
  8
0
 62
4
 10
-3.25000000E+00
 20
1.03296514E+02
 11
-2.25000000E+00
 21
1.02735174E+02
  0
LINE
  8
0
 62
4
 10
-3.25000000E+00
 20
1.03296514E+02
 11
-4.25000000E+00
 21
1.02735174E+02
  0
LINE
  8
0
 62
4
 10
-2.25000000E+00
 20
1.02735174E+02
 11
-2.25000000E+00
 21
1.01592797E+02
  0
LINE
  8
0
 62
4
 10
-4.25000000E+00
 20
1.02735174E+02
 11
-4.25000000E+00
 21
1.01592797E+02
  0
POLYLINE
  8
0
 62
6
 66
1
  0
VERTEX
  8
0
 62
6
 10
-1.75000000E+00
 20
1.02163985E+02
  0
VERTEX
  8
0
 62
6
 10
-1.75570795E+00
 20
1.02292732E+02
  0
VERTEX
  8
0
 62
6
 10
-1.77278837E+00
 20
1.02420500E+02
  0
VERTEX
  8
0
 62
6
 10
-1.80111126E+00
 20
1.02546316E+02
  0
VERTEX
  8
0
 62
6
 10
-1.84046107E+00
 20
1.02669221E+02
  0
VERTEX
  8
0
 62
6
 10
-1.89053832E+00
 20
1.02788282E+02
  0
VERTEX
  8
0
 62
6
 10
-1.95096189E+00
 20
1.02902591E+02
  0
VERTEX
  8
0
 62
6
 10
-2.02127193E+00
 20
1.03011279E+02
  0
VERTEX
  8
0
 62
6
 10
-2.10093334E+00
 20
1.03113518E+02
  0
VERTEX
  8
0
 62
6
 10
-2.18933983E+00
 20
1.03208531E+02
  0
VERTEX
  8
0
 62
6
 10
-2.28581859E+00
 20
1.03295595E+02
  0
VERTEX
  8
0
 62
6
 10
-2.38963535E+00
 20
1.03374046E+02
  0
VERTEX
  8
0
 62
6
 10
-2.50000000E+00
 20
1.03443288E+02
  0
VERTEX
  8
0
 62
6
 10
-2.61607261E+00
 20
1.03502793E+02
  0
VERTEX
  8
0
 62
6
 10
-2.73696979E+00
 20
1.03552110E+02
  0
VERTEX
  8
0
 62
6
 10
-2.86177143E+00
 20
1.03590862E+02
  0
VERTEX
  8
0
 62
6
 10
-2.98952773E+00
 20
1.03618754E+02
  0
VERTEX
  8
0
 62
6
 10
-3.11926639E+00
 20
1.03635575E+02
  0
VERTEX
  8
0
 62
6
 10
-3.25000000E+00
 20
1.03641197E+02
  0
VERTEX
  8
0
 62
6
 10
-3.38073362E+00
 20
1.03635575E+02
  0
VERTEX
  8
0
 62
6
 10
-3.51047227E+00
 20
1.03618754E+02
  0
VERTEX
  8
0
 62
6
 10
-3.63822857E+00
 20
1.03590862E+02
  0
VERTEX
  8
0
 62
6
 10
-3.76303022E+00
 20
1.03552110E+02
  0
VERTEX
  8
0
 62
6
 10
-3.88392739E+00
 20
1.03502793E+02
  0
VERTEX
  8
0
 62
6
 10
-4.00000000E+00
 20
1.03443288E+02
  0
VERTEX
  8
0
 62
6
 10
-4.11036466E+00
 20
1.03374046E+02
  0
VERTEX
  8
0
 62
6
 10
-4.21418142E+00
 20
1.03295595E+02
  0
VERTEX
  8
0
 62
6
 10
-4.31066017E+00
 20
1.03208531E+02
  0
VERTEX
  8
0
 62
6
 10
-4.39906667E+00
 20
1.03113518E+02
  0
VERTEX
  8
0
 62
6
 10
-4.47872807E+00
 20
1.03011279E+02
  0
VERTEX
  8
0
 62
6
 10
-4.54903811E+00
 20
1.02902591E+02
  0
VERTEX
  8
0
 62
6
 10
-4.60946168E+00
 20
1.02788282E+02
  0
VERTEX
  8
0
 62
6
 10
-4.65953893E+00
 20
1.02669221E+02
  0
VERTEX
  8
0
 62
6
 10
-4.69888874E+00
 20
1.02546316E+02
  0
VERTEX
  8
0
 62
6
 10
-4.72721163E+00
 20
1.02420500E+02
  0
VERTEX
  8
0
 62
6
 10
-4.74429205E+00
 20
1.02292732E+02
  0
VERTEX
  8
0
 62
6
 10
-4.75000000E+00
 20
1.02163985E+02
  0
VERTEX
  8
0
 62
6
 10
-4.74429205E+00
 20
1.02035238E+02
  0
VERTEX
  8
0
 62
6
 10
-4.72721163E+00
 20
1.01907470E+02
  0
VERTEX
  8
0
 62
6
 10
-4.69888874E+00
 20
1.01781654E+02
  0
VERTEX
  8
0
 62
6
 10
-4.65953893E+00
 20
1.01658749E+02
  0
VERTEX
  8
0
 62
6
 10
-4.60946168E+00
 20
1.01539688E+02
  0
VERTEX
  8
0
 62
6
 10
-4.54903810E+00
 20
1.01425379E+02
  0
VERTEX
  8
0
 62
6
 10
-4.47872806E+00
 20
1.01316691E+02
  0
VERTEX
  8
0
 62
6
 10
-4.39906666E+00
 20
1.01214452E+02
  0
VERTEX
  8
0
 62
6
 10
-4.31066017E+00
 20
1.01119439E+02
  0
VERTEX
  8
0
 62
6
 10
-4.21418141E+00
 20
1.01032375E+02
  0
VERTEX
  8
0
 62
6
 10
-4.11036465E+00
 20
1.00953924E+02
  0
VERTEX
  8
0
 62
6
 10
-4.00000000E+00
 20
1.00884682E+02
  0
VERTEX
  8
0
 62
6
 10
-3.88392739E+00
 20
1.00825177E+02
  0
VERTEX
  8
0
 62
6
 10
-3.76303021E+00
 20
1.00775860E+02
  0
VERTEX
  8
0
 62
6
 10
-3.63822856E+00
 20
1.00737108E+02
  0
VERTEX
  8
0
 62
6
 10
-3.51047226E+00
 20
1.00709216E+02
  0
VERTEX
  8
0
 62
6
 10
-3.38073361E+00
 20
1.00692395E+02
  0
VERTEX
  8
0
 62
6
 10
-3.25000000E+00
 20
1.00686773E+02
  0
VERTEX
  8
0
 62
6
 10
-3.11926638E+00
 20
1.00692395E+02
  0
VERTEX
  8
0
 62
6
 10
-2.98952773E+00
 20
1.00709216E+02
  0
VERTEX
  8
0
 62
6
 10
-2.86177143E+00
 20
1.00737108E+02
  0
VERTEX
  8
0
 62
6
 10
-2.73696978E+00
 20
1.00775860E+02
  0
VERTEX
  8
0
 62
6
 10
-2.61607260E+00
 20
1.00825177E+02
  0
VERTEX
  8
0
 62
6
 10
-2.50000000E+00
 20
1.00884682E+02
  0
VERTEX
  8
0
 62
6
 10
-2.38963534E+00
 20
1.00953924E+02
  0
VERTEX
  8
0
 62
6
 10
-2.28581858E+00
 20
1.01032375E+02
  0
VERTEX
  8
0
 62
6
 10
-2.18933983E+00
 20
1.01119439E+02
  0
VERTEX
  8
0
 62
6
 10
-2.10093333E+00
 20
1.01214452E+02
  0
VERTEX
  8
0
 62
6
 10
-2.02127193E+00
 20
1.01316691E+02
  0
VERTEX
  8
0
 62
6
 10
-1.95096189E+00
 20
1.01425379E+02
  0
VERTEX
  8
0
 62
6
 10
-1.89053832E+00
 20
1.01539688E+02
  0
VERTEX
  8
0
 62
6
 10
-1.84046107E+00
 20
1.01658749E+02
  0
VERTEX
  8
0
 62
6
 10
-1.80111126E+00
 20
1.01781655E+02
  0
VERTEX
  8
0
 62
6
 10
-1.77278837E+00
 20
1.01907470E+02
  0
VERTEX
  8
0
 62
6
 10
-1.75570795E+00
 20
1.02035238E+02
  0
VERTEX
  8
0
 62
6
 10
-1.75000000E+00
 20
1.02163985E+02
  0
SEQEND
  8
0
  0
LINE
  8
0
 62
4
 10
-1.25000000E+00
 20
1.02163985E+02
 11
-1.25000000E+00
 21
1.02699624E+02
  0
LINE
  8
0
 62
4
 10
-5.25000000E+00
 20
1.02163985E+02
 11
-5.25000000E+00
 21
1.02699624E+02
  0
POLYLINE
  8
0
 62
4
 66
1
  0
VERTEX
  8
0
 62
4
 10
-5.25000000E+00
 20
1.02163985E+02
  0
VERTEX
  8
0
 62
4
 10
-5.24238940E+00
 20
1.01992322E+02
  0
VERTEX
  8
0
 62
4
 10
-5.21961551E+00
 20
1.01821965E+02
  0
VERTEX
  8
0
 62
4
 10
-5.18185165E+00
 20
1.01654211E+02
  0
VERTEX
  8
0
 62
4
 10
-5.12938524E+00
 20
1.01490337E+02
  0
VERTEX
  8
0
 62
4
 10
-5.06261558E+00
 20
1.01331590E+02
  0
VERTEX
  8
0
 62
4
 10
-4.98205081E+00
 20
1.01179177E+02
  0
VERTEX
  8
0
 62
4
 10
-4.88830409E+00
 20
1.01034260E+02
  0
VERTEX
  8
0
 62
4
 10
-4.78208889E+00
 20
1.00897941E+02
  0
VERTEX
  8
0
 62
4
 10
-4.66421357E+00
 20
1.00771257E+02
  0
VERTEX
  8
0
 62
4
 10
-4.53557522E+00
 20
1.00655172E+02
  0
VERTEX
  8
0
 62
4
 10
-4.39715288E+00
 20
1.00550570E+02
  0
VERTEX
  8
0
 62
4
 10
-4.25000001E+00
 20
1.00458248E+02
  0
VERTEX
  8
0
 62
4
 10
-4.09523653E+00
 20
1.00378907E+02
  0
VERTEX
  8
0
 62
4
 10
-3.93404029E+00
 20
1.00313152E+02
  0
VERTEX
  8
0
 62
4
 10
-3.76763810E+00
 20
1.00261483E+02
  0
VERTEX
  8
0
 62
4
 10
-3.59729636E+00
 20
1.00224292E+02
  0
VERTEX
  8
0
 62
4
 10
-3.42431149E+00
 20
1.00201864E+02
  0
VERTEX
  8
0
 62
4
 10
-3.25000001E+00
 20
1.00194369E+02
  0
VERTEX
  8
0
 62
4
 10
-3.07568852E+00
 20
1.00201864E+02
  0
VERTEX
  8
0
 62
4
 10
-2.90270365E+00
 20
1.00224292E+02
  0
VERTEX
  8
0
 62
4
 10
-2.73236192E+00
 20
1.00261483E+02
  0
VERTEX
  8
0
 62
4
 10
-2.56595972E+00
 20
1.00313152E+02
  0
VERTEX
  8
0
 62
4
 10
-2.40476348E+00
 20
1.00378907E+02
  0
VERTEX
  8
0
 62
4
 10
-2.25000000E+00
 20
1.00458248E+02
  0
VERTEX
  8
0
 62
4
 10
-2.10284713E+00
 20
1.00550570E+02
  0
VERTEX
  8
0
 62
4
 10
-1.96442478E+00
 20
1.00655172E+02
  0
VERTEX
  8
0
 62
4
 10
-1.83578644E+00
 20
1.00771257E+02
  0
VERTEX
  8
0
 62
4
 10
-1.71791112E+00
 20
1.00897941E+02
  0
VERTEX
  8
0
 62
4
 10
-1.61169591E+00
 20
1.01034260E+02
  0
VERTEX
  8
0
 62
4
 10
-1.51794919E+00
 20
1.01179177E+02
  0
VERTEX
  8
0
 62
4
 10
-1.43738443E+00
 20
1.01331590E+02
  0
VERTEX
  8
0
 62
4
 10
-1.37061476E+00
 20
1.01490337E+02
  0
VERTEX
  8
0
 62
4
 10
-1.31814835E+00
 20
1.01654211E+02
  0
VERTEX
  8
0
 62
4
 10
-1.28038449E+00
 20
1.01821965E+02
  0
VERTEX
  8
0
 62
4
 10
-1.25761060E+00
 20
1.01992322E+02
  0
VERTEX
  8
0
 62
4
 10
-1.25000000E+00
 20
1.02163985E+02
  0
VERTEX
  8
0
 62
4
 10
-1.25761060E+00
 20
1.02335648E+02
  0
VERTEX
  8
0
 62
4
 10
-1.28038449E+00
 20
1.02506005E+02
  0
VERTEX
  8
0
 62
4
 10
-1.31814835E+00
 20
1.02673759E+02
  0
VERTEX
  8
0
 62
4
 10
-1.37061476E+00
 20
1.02837633E+02
  0
VERTEX
  8
0
 62
4
 10
-1.43738442E+00
 20
1.02996380E+02
  0
VERTEX
  8
0
 62
4
 10
-1.51794919E+00
 20
1.03148793E+02
  0
VERTEX
  8
0
 62
4
 10
-1.61169591E+00
 20
1.03293710E+02
  0
VERTEX
  8
0
 62
4
 10
-1.71791111E+00
 20
1.03430029E+02
  0
VERTEX
  8
0
 62
4
 10
-1.83578644E+00
 20
1.03556713E+02
  0
VERTEX
  8
0
 62
4
 10
-1.96442478E+00
 20
1.03672798E+02
  0
VERTEX
  8
0
 62
4
 10
-2.10284712E+00
 20
1.03777400E+02
  0
VERTEX
  8
0
 62
4
 10
-2.25000000E+00
 20
1.03869722E+02
  0
VERTEX
  8
0
 62
4
 10
-2.40476347E+00
 20
1.03949063E+02
  0
VERTEX
  8
0
 62
4
 10
-2.56595971E+00
 20
1.04014818E+02
  0
VERTEX
  8
0
 62
4
 10
-2.73236191E+00
 20
1.04066487E+02
  0
VERTEX
  8
0
 62
4
 10
-2.90270364E+00
 20
1.04103678E+02
  0
VERTEX
  8
0
 62
4
 10
-3.07568851E+00
 20
1.04126106E+02
  0
VERTEX
  8
0
 62
4
 10
-3.25000000E+00
 20
1.04133601E+02
  0
VERTEX
  8
0
 62
4
 10
-3.42431148E+00
 20
1.04126106E+02
  0
VERTEX
  8
0
 62
4
 10
-3.59729635E+00
 20
1.04103678E+02
  0
VERTEX
  8
0
 62
4
 10
-3.76763809E+00
 20
1.04066487E+02
  0
VERTEX
  8
0
 62
4
 10
-3.93404028E+00
 20
1.04014818E+02
  0
VERTEX
  8
0
 62
4
 10
-4.09523652E+00
 20
1.03949063E+02
  0
VERTEX
  8
0
 62
4
 10
-4.25000000E+00
 20
1.03869722E+02
  0
VERTEX
  8
0
 62
4
 10
-4.39715287E+00
 20
1.03777400E+02
  0
VERTEX
  8
0
 62
4
 10
-4.53557522E+00
 20
1.03672798E+02
  0
VERTEX
  8
0
 62
4
 10
-4.66421356E+00
 20
1.03556713E+02
  0
VERTEX
  8
0
 62
4
 10
-4.78208888E+00
 20
1.03430029E+02
  0
VERTEX
  8
0
 62
4
 10
-4.88830409E+00
 20
1.03293710E+02
  0
VERTEX
  8
0
 62
4
 10
-4.98205081E+00
 20
1.03148793E+02
  0
VERTEX
  8
0
 62
4
 10
-5.06261557E+00
 20
1.02996380E+02
  0
VERTEX
  8
0
 62
4
 10
-5.12938524E+00
 20
1.02837633E+02
  0
VERTEX
  8
0
 62
4
 10
-5.18185165E+00
 20
1.02673759E+02
  0
VERTEX
  8
0
 62
4
 10
-5.21961551E+00
 20
1.02506005E+02
  0
VERTEX
  8
0
 62
4
 10
-5.24238940E+00
 20
1.02335648E+02
  0
VERTEX
  8
0
 62
4
 10
-5.25000000E+00
 20
1.02163985E+02
  0
SEQEND
  8
0
  0
POLYLINE
  8
0
 62
4
 66
1
  0
VERTEX
  8
0
 62
4
 10
-1.25000000E+00
 20
1.02699624E+02
  0
VERTEX
  8
0
 62
4
 10
-1.25805141E+00
 20
1.02876179E+02
  0
VERTEX
  8
0
 62
4
 10
-1.28214082E+00
 20
1.03051312E+02
  0
VERTEX
  8
0
 62
4
 10
-1.32207427E+00
 20
1.03223614E+02
  0
VERTEX
  8
0
 62
4
 10
-1.37753025E+00
 20
1.03391697E+02
  0
VERTEX
  8
0
 62
4
 10
-1.44806226E+00
 20
1.03554208E+02
  0
VERTEX
  8
0
 62
4
 10
-1.53310240E+00
 20
1.03709838E+02
  0
VERTEX
  8
0
 62
4
 10
-1.63196600E+00
 20
1.03857335E+02
  0
VERTEX
  8
0
 62
4
 10
-1.74385706E+00
 20
1.03995510E+02
  0
VERTEX
  8
0
 62
4
 10
-1.86787469E+00
 20
1.04123252E+02
  0
VERTEX
  8
0
 62
4
 10
-2.00302038E+00
 20
1.04239531E+02
  0
VERTEX
  8
0
 62
4
 10
-2.14820602E+00
 20
1.04343412E+02
  0
VERTEX
  8
0
 62
4
 10
-2.30226266E+00
 20
1.04434059E+02
  0
VERTEX
  8
0
 62
4
 10
-2.46394992E+00
 20
1.04510740E+02
  0
VERTEX
  8
0
 62
4
 10
-2.63196599E+00
 20
1.04572840E+02
  0
VERTEX
  8
0
 62
4
 10
-2.80495812E+00
 20
1.04619857E+02
  0
VERTEX
  8
0
 62
4
 10
-2.98153345E+00
 20
1.04651414E+02
  0
VERTEX
  8
0
 62
4
 10
-3.16027032E+00
 20
1.04667256E+02
  0
VERTEX
  8
0
 62
4
 10
-3.33972964E+00
 20
1.04667256E+02
  0
VERTEX
  8
0
 62
4
 10
-3.51846651E+00
 20
1.04651414E+02
  0
VERTEX
  8
0
 62
4
 10
-3.69504185E+00
 20
1.04619857E+02
  0
VERTEX
  8
0
 62
4
 10
-3.86803397E+00
 20
1.04572840E+02
  0
VERTEX
  8
0
 62
4
 10
-4.03605005E+00
 20
1.04510740E+02
  0
VERTEX
  8
0
 62
4
 10
-4.19773731E+00
 20
1.04434059E+02
  0
VERTEX
  8
0
 62
4
 10
-4.35179395E+00
 20
1.04343412E+02
  0
VERTEX
  8
0
 62
4
 10
-4.49697959E+00
 20
1.04239531E+02
  0
VERTEX
  8
0
 62
4
 10
-4.63212528E+00
 20
1.04123252E+02
  0
VERTEX
  8
0
 62
4
 10
-4.75614292E+00
 20
1.03995510E+02
  0
VERTEX
  8
0
 62
4
 10
-4.86803398E+00
 20
1.03857335E+02
  0
VERTEX
  8
0
 62
4
 10
-4.96689758E+00
 20
1.03709838E+02
  0
VERTEX
  8
0
 62
4
 10
-5.05193773E+00
 20
1.03554208E+02
  0
VERTEX
  8
0
 62
4
 10
-5.12246973E+00
 20
1.03391697E+02
  0
VERTEX
  8
0
 62
4
 10
-5.17792572E+00
 20
1.03223614E+02
  0
VERTEX
  8
0
 62
4
 10
-5.21785917E+00
 20
1.03051312E+02
  0
VERTEX
  8
0
 62
4
 10
-5.24194859E+00
 20
1.02876179E+02
  0
VERTEX
  8
0
 62
4
 10
-5.25000000E+00
 20
1.02699624E+02
  0
SEQEND
  8
0
  0
POLYLINE
  8
0
 62
4
 66
1
  0
VERTEX
  8
0
 62
4
 10
5.50000000E+00
 20
1.20655691E+02
  0
VERTEX
  8
0
 62
4
 10
5.50856193E+00
 20
1.20462570E+02
  0
VERTEX
  8
0
 62
4
 10
5.53418255E+00
 20
1.20270918E+02
  0
VERTEX
  8
0
 62
4
 10
5.57666689E+00
 20
1.20082195E+02
  0
VERTEX
  8
0
 62
4
 10
5.63569160E+00
 20
1.19897837E+02
  0
VERTEX
  8
0
 62
4
 10
5.71080748E+00
 20
1.19719246E+02
  0
VERTEX
  8
0
 62
4
 10
5.80144284E+00
 20
1.19547782E+02
  0
VERTEX
  8
0
 62
4
 10
5.90690790E+00
 20
1.19384750E+02
  0
VERTEX
  8
0
 62
4
 10
6.02640000E+00
 20
1.19231391E+02
  0
VERTEX
  8
0
 62
4
 10
6.15900974E+00
 20
1.19088871E+02
  0
VERTEX
  8
0
 62
4
 10
6.30372787E+00
 20
1.18958276E+02
  0
VERTEX
  8
0
 62
4
 10
6.45945301E+00
 20
1.18840600E+02
  0
VERTEX
  8
0
 62
4
 10
6.62499999E+00
 20
1.18736737E+02
  0
VERTEX
  8
0
 62
4
 10
6.79910890E+00
 20
1.18647478E+02
  0
VERTEX
  8
0
 62
4
 10
6.98045467E+00
 20
1.18573504E+02
  0
VERTEX
  8
0
 62
4
 10
7.16765714E+00
 20
1.18515376E+02
  0
VERTEX
  8
0
 62
4
 10
7.35929159E+00
 20
1.18473537E+02
  0
VERTEX
  8
0
 62
4
 10
7.55389957E+00
 20
1.18448305E+02
  0
VERTEX
  8
0
 62
4
 10
7.74999999E+00
 20
1.18439874E+02
  0
VERTEX
  8
0
 62
4
 10
7.94610041E+00
 20
1.18448305E+02
  0
VERTEX
  8
0
 62
4
 10
8.14070839E+00
 20
1.18473537E+02
  0
VERTEX
  8
0
 62
4
 10
8.33234285E+00
 20
1.18515376E+02
  0
VERTEX
  8
0
 62
4
 10
8.51954532E+00
 20
1.18573504E+02
  0
VERTEX
  8
0
 62
4
 10
8.70089108E+00
 20
1.18647478E+02
  0
VERTEX
  8
0
 62
4
 10
8.87499999E+00
 20
1.18736737E+02
  0
VERTEX
  8
0
 62
4
 10
9.04054698E+00
 20
1.18840600E+02
  0
VERTEX
  8
0
 62
4
 10
9.19627212E+00
 20
1.18958276E+02
  0
VERTEX
  8
0
 62
4
 10
9.34099025E+00
 20
1.19088871E+02
  0
VERTEX
  8
0
 62
4
 10
9.47359999E+00
 20
1.19231391E+02
  0
VERTEX
  8
0
 62
4
 10
9.59309210E+00
 20
1.19384750E+02
  0
VERTEX
  8
0
 62
4
 10
9.69855716E+00
 20
1.19547782E+02
  0
VERTEX
  8
0
 62
4
 10
9.78919252E+00
 20
1.19719246E+02
  0
VERTEX
  8
0
 62
4
 10
9.86430840E+00
 20
1.19897837E+02
  0
VERTEX
  8
0
 62
4
 10
9.92333311E+00
 20
1.20082195E+02
  0
VERTEX
  8
0
 62
4
 10
9.96581744E+00
 20
1.20270918E+02
  0
VERTEX
  8
0
 62
4
 10
9.99143807E+00
 20
1.20462570E+02
  0
VERTEX
  8
0
 62
4
 10
1.00000000E+01
 20
1.20655691E+02
  0
VERTEX
  8
0
 62
4
 10
9.99143807E+00
 20
1.20848812E+02
  0
VERTEX
  8
0
 62
4
 10
9.96581745E+00
 20
1.21040464E+02
  0
VERTEX
  8
0
 62
4
 10
9.92333311E+00
 20
1.21229187E+02
  0
VERTEX
  8
0
 62
4
 10
9.86430840E+00
 20
1.21413545E+02
  0
VERTEX
  8
0
 62
4
 10
9.78919252E+00
 20
1.21592136E+02
  0
VERTEX
  8
0
 62
4
 10
9.69855716E+00
 20
1.21763600E+02
  0
VERTEX
  8
0
 62
4
 10
9.59309210E+00
 20
1.21926632E+02
  0
VERTEX
  8
0
 62
4
 10
9.47360000E+00
 20
1.22079991E+02
  0
VERTEX
  8
0
 62
4
 10
9.34099026E+00
 20
1.22222511E+02
  0
VERTEX
  8
0
 62
4
 10
9.19627212E+00
 20
1.22353106E+02
  0
VERTEX
  8
0
 62
4
 10
9.04054698E+00
 20
1.22470782E+02
  0
VERTEX
  8
0
 62
4
 10
8.87500000E+00
 20
1.22574645E+02
  0
VERTEX
  8
0
 62
4
 10
8.70089109E+00
 20
1.22663904E+02
  0
VERTEX
  8
0
 62
4
 10
8.51954533E+00
 20
1.22737878E+02
  0
VERTEX
  8
0
 62
4
 10
8.33234285E+00
 20
1.22796006E+02
  0
VERTEX
  8
0
 62
4
 10
8.14070840E+00
 20
1.22837845E+02
  0
VERTEX
  8
0
 62
4
 10
7.94610042E+00
 20
1.22863077E+02
  0
VERTEX
  8
0
 62
4
 10
7.75000000E+00
 20
1.22871508E+02
  0
VERTEX
  8
0
 62
4
 10
7.55389958E+00
 20
1.22863077E+02
  0
VERTEX
  8
0
 62
4
 10
7.35929160E+00
 20
1.22837845E+02
  0
VERTEX
  8
0
 62
4
 10
7.16765715E+00
 20
1.22796006E+02
  0
VERTEX
  8
0
 62
4
 10
6.98045468E+00
 20
1.22737878E+02
  0
VERTEX
  8
0
 62
4
 10
6.79910891E+00
 20
1.22663904E+02
  0
VERTEX
  8
0
 62
4
 10
6.62500000E+00
 20
1.22574645E+02
  0
VERTEX
  8
0
 62
4
 10
6.45945302E+00
 20
1.22470782E+02
  0
VERTEX
  8
0
 62
4
 10
6.30372788E+00
 20
1.22353106E+02
  0
VERTEX
  8
0
 62
4
 10
6.15900974E+00
 20
1.22222511E+02
  0
VERTEX
  8
0
 62
4
 10
6.02640000E+00
 20
1.22079991E+02
  0
VERTEX
  8
0
 62
4
 10
5.90690790E+00
 20
1.21926632E+02
  0
VERTEX
  8
0
 62
4
 10
5.80144284E+00
 20
1.21763600E+02
  0
VERTEX
  8
0
 62
4
 10
5.71080748E+00
 20
1.21592136E+02
  0
VERTEX
  8
0
 62
4
 10
5.63569160E+00
 20
1.21413545E+02
  0
VERTEX
  8
0
 62
4
 10
5.57666689E+00
 20
1.21229187E+02
  0
VERTEX
  8
0
 62
4
 10
5.53418256E+00
 20
1.21040464E+02
  0
VERTEX
  8
0
 62
4
 10
5.50856193E+00
 20
1.20848812E+02
  0
VERTEX
  8
0
 62
4
 10
5.50000000E+00
 20
1.20655691E+02
  0
SEQEND
  8
0
  0
LINE
  8
0
 62
4
 10
2.49999992E-01
 20
1.16647001E+02
 11
1.52500000E+01
 21
1.16647001E+02
  0
LINE
  8
0
 62
4
 10
2.49999992E-01
 20
1.16716460E+02
 11
1.52500000E+01
 21
1.16716460E+02
  0
LINE
  8
0
 62
4
 10
2.49999992E-01
 20
1.09260943E+02
 11
1.52500000E+01
 21
1.09260943E+02
  0
LINE
  8
0
 62
4
 10
-1.47500000E+01
 20
9.75208656E+01
 11
2.50000000E-01
 21
9.75208656E+01
  0
LINE
  8
0
 62
4
 10
-1.35884360E+01
 20
1.07897014E+02
 11
-1.00925273E+00
 21
1.07897014E+02
  0
LINE
  8
0
 62
4
 10
-1.47500000E+01
 20
1.23871789E+02
 11
2.49999992E-01
 21
1.23871789E+02
  0
LINE
  8
0
 62
4
 10
-1.47500000E+01
 20
1.25087326E+02
 11
1.52500000E+01
 21
1.25087326E+02
  0
LINE
  8
0
 62
4
 10
-1.47500000E+01
 20
1.26875902E+02
 11
1.52500000E+01
 21
1.26875902E+02
  0
LINE
  8
0
  6
CENTER
 62
6
 10
1.13245969E+01
 20
1.20655691E+02
 11
4.17540311E+00
 21
1.20655691E+02
  0
LINE
  8
0
  6
CENTER
 62
6
 10
7.75000000E+00
 20
1.24230288E+02
 11
7.75000000E+00
 21
1.17081094E+02
  0
LINE
  8
0
 62
4
 10
1.52500000E+01
 20
1.26875902E+02
 11
1.52500000E+01
 21
1.09260943E+02
  0
LINE
  8
0
 62
4
 10
-1.47500000E+01
 20
1.26875902E+02
 11
-1.47500000E+01
 21
9.75208656E+01
  0
LINE
  8
0
 62
4
 10
2.50000000E-01
 20
1.25087326E+02
 11
2.50000000E-01
 21
9.75208656E+01
  0
LINE
  8
0
  6
CENTER
 62
6
 10
-7.50000000E-01
 20
1.02699624E+02
 11
-5.75000000E+00
 21
1.02699624E+02
  0
LINE
  8
0
  6
CENTER
 62
6
 10
-3.25000000E+00
 20
1.05199624E+02
 11
-3.25000000E+00
 21
1.00199624E+02
  0
LINE
  8
0
  6
CENTER
 62
6
 10
-1.12500000E+01
 20
1.05199624E+02
 11
-1.12500000E+01
 21
1.00199624E+02
  0
LINE
  8
0
  6
CENTER
 62
6
 10
-8.75000000E+00
 20
1.02699624E+02
 11
-1.37500000E+01
 21
1.02699624E+02
  0
LINE
  8
0
 62
4
 10
-5.02500000E+01
 20
1.16176228E+02
 11
-5.02500000E+01
 21
1.12103786E+02
  0
LINE
  8
0
 62
4
 10
-7.37500000E+01
 20
1.26875902E+02
 11
-7.37500000E+01
 21
1.16176228E+02
  0
LINE
  8
0
 62
4
 10
-4.37500000E+01
 20
1.10369449E+02
 11
-4.37500000E+01
 21
1.12359316E+02
  0
LINE
  8
0
 62
7
 10
-1.47500000E+01
 20
1.10369449E+02
 11
-8.42500000E+01
 21
1.10369449E+02
  0
LINE
  8
0
 62
7
 10
1.52500000E+01
 20
1.09519459E+02
 11
2.17499084E+01
 21
1.09519459E+02
  0
LINE
  8
0
 62
7
 10
-1.47500000E+01
 20
1.04219471E+02
 11
-8.42500000E+01
 21
1.04219471E+02
  0
CIRCLE
  8
0
 62
7
 10
-2.45250076E+02
 20
1.06869358E+02
 40
2.45850000E+00
  0
CIRCLE
  8
0
 62
7
 10
-2.45250076E+02
 20
6.98695715E+01
 40
2.45850000E+00
  0
CIRCLE
  8
0
 62
7
 10
-2.82249863E+02
 20
6.98695715E+01
 40
2.45850000E+00
  0
CIRCLE
  8
0
 62
7
 10
-2.82249863E+02
 20
1.06869358E+02
 40
2.45850000E+00
  0
LINE
  8
0
  6
CENTER
 62
2
 10
-2.98969116E+02
 20
8.83694647E+01
 11
-2.34448761E+02
 21
8.83694647E+01
  0
LINE
  8
0
  6
CENTER
 62
2
 10
-2.63749969E+02
 20
1.17341785E+02
 11
-2.63749969E+02
 21
5.86656759E+01
  0
LINE
  8
0
  6
CENTER
 62
2
 10
-2.82250031E+02
 20
1.15376102E+02
 11
-2.82250031E+02
 21
1.00454960E+02
  0
LINE
  8
0
 62
7
 10
-2.88750000E+02
 20
6.63693807E+01
 11
-2.88750000E+02
 21
1.10369465E+02
  0
LINE
  8
0
 62
7
 10
-2.38749969E+02
 20
6.63693807E+01
 11
-2.38749969E+02
 21
1.10369465E+02
  0
LINE
  8
0
 62
7
 10
-2.48249939E+02
 20
7.16015051E+01
 11
-2.48249939E+02
 21
6.81374166E+01
  0
LINE
  8
0
 62
7
 10
-2.45249985E+02
 20
6.64054675E+01
 11
-2.48249964E+02
 21
6.81375116E+01
  0
LINE
  8
0
 62
7
 10
-2.85750061E+02
 20
6.33693807E+01
 11
-2.41750000E+02
 21
6.33693807E+01
  0
LINE
  8
0
  6
CENTER
 62
2
 10
-2.90652618E+02
 20
6.98694342E+01
 11
-2.74365662E+02
 21
6.98694342E+01
  0
LINE
  8
0
  6
CENTER
 62
2
 10
-2.82250061E+02
 20
6.12795446E+01
 11
-2.82250061E+02
 21
7.59464071E+01
  0
LINE
  8
0
 62
7
 10
-2.85750061E+02
 20
1.13369449E+02
 11
-2.41750000E+02
 21
1.13369449E+02
  0
LINE
  8
0
  6
CENTER
 62
2
 10
-2.45250000E+02
 20
6.14247702E+01
 11
-2.45250000E+02
 21
7.62368200E+01
  0
LINE
  8
0
  6
CENTER
 62
2
 10
-2.36627014E+02
 20
6.98693197E+01
 11
-2.53269501E+02
 21
6.98693197E+01
  0
LINE
  8
0
  6
CENTER
 62
2
 10
-2.45250000E+02
 20
1.00488025E+02
 11
-2.45250000E+02
 21
1.15009708E+02
  0
LINE
  8
0
  6
CENTER
 62
2
 10
-2.90638062E+02
 20
1.06869358E+02
 11
-2.74673645E+02
 21
1.06869358E+02
  0
LINE
  8
0
  6
CENTER
 62
2
 10
-3.00214050E+02
 20
9.93694494E+01
 11
-2.96750000E+02
 21
9.93694494E+01
  0
LINE
  8
0
 62
7
 10
-2.99349976E+02
 20
1.00969440E+02
 11
-2.99349976E+02
 21
9.77694433E+01
  0
LINE
  8
0
 62
7
 10
-2.99349976E+02
 20
7.57694433E+01
 11
-2.99349976E+02
 21
7.89694784E+01
  0
LINE
  8
0
 62
7
 10
-2.97149933E+02
 20
8.11194342E+01
 11
-2.96750000E+02
 21
8.11194342E+01
  0
LINE
  8
0
 62
7
 10
-2.97149933E+02
 20
1.03119449E+02
 11
-2.96750000E+02
 21
1.03119449E+02
  0
LINE
  8
0
 62
7
 10
-2.97149933E+02
 20
9.56194494E+01
 11
-2.96750000E+02
 21
9.56194494E+01
  0
LINE
  8
0
 62
7
 10
-2.96749969E+02
 20
6.88694570E+01
 11
-2.96749969E+02
 21
1.07869465E+02
  0
LINE
  8
0
  6
CENTER
 62
2
 10
-3.00214050E+02
 20
7.73694342E+01
 11
-2.96750000E+02
 21
7.73694342E+01
  0
LINE
  8
0
 62
7
 10
-2.97149963E+02
 20
7.36194342E+01
 11
-2.96750000E+02
 21
7.36194342E+01
  0
LINE
  8
0
 62
7
 10
-2.96750000E+02
 20
1.07869419E+02
 11
-2.88750000E+02
 21
1.07869419E+02
  0
LINE
  8
0
 62
7
 10
-2.96750000E+02
 20
6.88694494E+01
 11
-2.88750000E+02
 21
6.88694494E+01
  0
LINE
  8
0
  6
CENTER
 62
2
 10
-2.51631409E+02
 20
1.06869510E+02
 11
-2.37109772E+02
 21
1.06869510E+02
  0
LINE
  8
0
  6
CENTER
 62
2
 10
-2.53749969E+02
 20
9.57628363E+01
 11
-2.53749969E+02
 21
1.15298481E+02
  0
LINE
  8
0
  6
CENTER
 62
2
 10
-2.67750031E+02
 20
1.15121815E+02
 11
-2.67750031E+02
 21
9.88694494E+01
  0
LINE
  8
0
 62
7
 10
-2.45249994E+02
 20
7.33336182E+01
 11
-2.48250014E+02
 21
7.16015512E+01
  0
LINE
  8
0
 62
7
 10
-2.45249998E+02
 20
7.33335910E+01
 11
-2.42250018E+02
 21
7.16015468E+01
  0
LINE
  8
0
 62
7
 10
-2.45250116E+02
 20
1.10333588E+02
 11
-2.48250116E+02
 21
1.08601547E+02
  0
LINE
  8
0
 62
7
 10
-2.42249908E+02
 20
7.16015051E+01
 11
-2.42249908E+02
 21
6.81374166E+01
  0
LINE
  8
0
 62
7
 10
-2.42249990E+02
 20
6.81375035E+01
 11
-2.45250010E+02
 21
6.64054365E+01
  0
LINE
  8
0
 62
7
 10
-2.48250092E+02
 20
1.08601551E+02
 11
-2.48250092E+02
 21
1.05137455E+02
  0
LINE
  8
0
 62
7
 10
-2.45250125E+02
 20
1.03405512E+02
 11
-2.48250078E+02
 21
1.05137540E+02
  0
LINE
  8
0
 62
7
 10
-2.42250092E+02
 20
1.05137540E+02
 11
-2.45250111E+02
 21
1.03405473E+02
  0
LINE
  8
0
 62
7
 10
-2.42250061E+02
 20
1.08601551E+02
 11
-2.42250061E+02
 21
1.05137455E+02
  0
LINE
  8
0
 62
7
 10
-2.45250080E+02
 20
1.10333614E+02
 11
-2.42250094E+02
 21
1.08601581E+02
  0
LINE
  8
0
 62
7
 10
-2.82250162E+02
 20
7.33336521E+01
 11
-2.85250155E+02
 21
7.16016004E+01
  0
LINE
  8
0
 62
7
 10
-2.85250092E+02
 20
7.16015051E+01
 11
-2.85250092E+02
 21
6.81374166E+01
  0
LINE
  8
0
 62
7
 10
-2.82250181E+02
 20
6.64053533E+01
 11
-2.85250214E+02
 21
6.81374279E+01
  0
LINE
  8
0
 62
7
 10
-2.79250206E+02
 20
6.81374388E+01
 11
-2.82250213E+02
 21
6.64053794E+01
  0
LINE
  8
0
 62
7
 10
-2.79250122E+02
 20
7.16015051E+01
 11
-2.79250122E+02
 21
6.81374166E+01
  0
LINE
  8
0
 62
7
 10
-2.82250196E+02
 20
7.33335965E+01
 11
-2.79250216E+02
 21
7.16015523E+01
  0
LINE
  8
0
 62
7
 10
-2.82249961E+02
 20
1.10333633E+02
 11
-2.85249947E+02
 21
1.08601600E+02
  0
LINE
  8
0
 62
7
 10
-2.85250031E+02
 20
1.08601581E+02
 11
-2.85250031E+02
 21
1.05137501E+02
  0
LINE
  8
0
 62
7
 10
-2.82249990E+02
 20
1.03405422E+02
 11
-2.85250023E+02
 21
1.05137497E+02
  0
LINE
  8
0
 62
7
 10
-2.79250053E+02
 20
1.05137552E+02
 11
-2.82250046E+02
 21
1.03405500E+02
  0
LINE
  8
0
 62
7
 10
-2.79250000E+02
 20
1.08601581E+02
 11
-2.79250000E+02
 21
1.05137501E+02
  0
LINE
  8
0
 62
7
 10
-2.82250030E+02
 20
1.10333662E+02
 11
-2.79250017E+02
 21
1.08601615E+02
  0
CIRCLE
  8
0
 62
2
 10
-2.82250031E+02
 20
1.06869556E+02
 40
3.00000000E+00
  0
CIRCLE
  8
0
 62
7
 10
-2.82250031E+02
 20
1.06869556E+02
 40
4.75000000E+00
  0
CIRCLE
  8
0
 62
7
 10
-2.45249939E+02
 20
1.06869449E+02
 40
4.50000000E+00
  0
CIRCLE
  8
0
 62
7
 10
-2.82250031E+02
 20
1.06869526E+02
 40
4.50000000E+00
  0
CIRCLE
  8
0
 62
7
 10
-2.82250061E+02
 20
6.98694799E+01
 40
4.50000000E+00
  0
CIRCLE
  8
0
 62
7
 10
-2.82250153E+02
 20
6.98694799E+01
 40
4.75000000E+00
  0
CIRCLE
  8
0
 62
7
 10
-2.45250031E+02
 20
6.98694036E+01
 40
4.50000000E+00
  0
CIRCLE
  8
0
 62
7
 10
-2.63750000E+02
 20
8.83694647E+01
 40
1.60000000E+01
  0
CIRCLE
  8
0
 62
7
 10
-2.63750000E+02
 20
8.83694647E+01
 40
1.55000010E+01
  0
CIRCLE
  8
0
 62
7
 10
-2.63750000E+02
 20
8.83694647E+01
 40
1.50000000E+01
  0
CIRCLE
  8
0
 62
2
 10
-2.82250153E+02
 20
6.98694799E+01
 40
3.00000000E+00
  0
CIRCLE
  8
0
 62
2
 10
-2.45250092E+02
 20
6.98694799E+01
 40
3.00000000E+00
  0
CIRCLE
  8
0
 62
2
 10
-2.45249939E+02
 20
1.06869526E+02
 40
3.00000000E+00
  0
ARC
  8
0
 62
7
 10
-2.85750061E+02
 20
6.63693807E+01
 40
3.00000000E+00
 50
1.79999977E+02
 51
2.69999946E+02
  0
ARC
  8
0
 62
7
 10
-2.85750000E+02
 20
1.10369434E+02
 40
3.00000000E+00
 50
8.99999956E+01
 51
1.79999977E+02
  0
ARC
  8
0
 62
7
 10
-2.41750000E+02
 20
1.10369434E+02
 40
3.00000000E+00
 50
3.59999959E+02
 51
8.99999956E+01
  0
ARC
  8
0
 62
7
 10
-2.41750000E+02
 20
6.63693807E+01
 40
3.00000000E+00
 50
2.69999963E+02
 51
3.59999945E+02
  0
ARC
  8
0
 62
7
 10
-2.96872498E+02
 20
1.00634891E+02
 40
2.50000000E+00
 50
8.99999956E+01
 51
1.72308570E+02
  0
ARC
  8
0
 62
7
 10
-2.96872498E+02
 20
7.86348913E+01
 40
2.50000000E+00
 50
9.63728081E+01
 51
1.87691385E+02
  0
ARC
  8
0
 62
7
 10
-2.96872498E+02
 20
7.61039923E+01
 40
2.50000000E+00
 50
1.87691403E+02
 51
2.69999963E+02
  0
ARC
  8
0
 62
7
 10
-2.96872498E+02
 20
9.81039923E+01
 40
2.50000000E+00
 50
1.72308570E+02
 51
2.63627161E+02
  0
CIRCLE
  8
0
 62
7
 10
-2.45249939E+02
 20
6.98694799E+01
 40
4.75000000E+00
  0
CIRCLE
  8
0
 62
7
 10
-2.45250092E+02
 20
1.06869480E+02
 40
4.75000000E+00
  0
CIRCLE
  8
0
 62
7
 10
-2.63749969E+02
 20
8.83694647E+01
 40
6.99998474E+00
  0
CIRCLE
  8
0
 62
2
 10
-2.63749969E+02
 20
8.83694647E+01
 40
6.17999268E+00
  0
CIRCLE
  8
0
 62
4
 10
-2.63749969E+02
 20
8.83694647E+01
 40
1.10000000E+01
  0
LINE
  8
0
 62
4
 10
-2.63749969E+02
 20
1.01071171E+02
 11
-2.74749969E+02
 21
9.47203176E+01
  0
LINE
  8
0
 62
4
 10
-2.74749969E+02
 20
9.47203176E+01
 11
-2.74749969E+02
 21
8.20186117E+01
  0
LINE
  8
0
 62
4
 10
-2.74749969E+02
 20
8.20186117E+01
 11
-2.63749969E+02
 21
7.56677587E+01
  0
LINE
  8
0
 62
4
 10
-2.63749969E+02
 20
7.56677587E+01
 11
-2.52749969E+02
 21
8.20186117E+01
  0
LINE
  8
0
 62
4
 10
-2.52749969E+02
 20
8.20186117E+01
 11
-2.52749969E+02
 21
9.47203176E+01
  0
LINE
  8
0
 62
4
 10
-2.52749969E+02
 20
9.47203176E+01
 11
-2.63749969E+02
 21
1.01071171E+02
  0
LINE
  8
0
 62
4
 10
-2.90402253E+02
 20
1.07897091E+02
 11
-2.90397374E+02
 21
1.07869419E+02
  0
LINE
  8
0
 62
4
 10
-2.77694256E+02
 20
1.25087402E+02
 11
-2.84587911E+02
 21
1.23871865E+02
  0
LINE
  8
0
 62
4
 10
-2.84587911E+02
 20
1.23871865E+02
 11
-2.90402253E+02
 21
1.07897091E+02
  0
LINE
  8
0
 62
4
 10
-2.76218247E+02
 20
1.16716537E+02
 11
-2.76710651E+02
 21
1.16629712E+02
  0
LINE
  8
0
 62
4
 10
-2.77116231E+02
 20
1.16050485E+02
 11
-2.76643500E+02
 21
1.13369495E+02
  0
ARC
  8
0
 62
4
 10
-2.76623827E+02
 20
1.16137309E+02
 40
5.00000000E-01
 50
9.99999999E+01
 51
1.90000000E+02
  0
LINE
  8
0
  6
CENTER
 62
6
 10
-2.77843510E+02
 20
1.16937672E+02
 11
-2.64993005E+02
 21
1.19203563E+02
  0
LINE
  8
0
  6
CENTER
 62
6
 10
-2.87685146E+02
 20
1.18756319E+02
 11
-2.65600773E+02
 21
1.22650390E+02
  0
LINE
  8
0
 62
4
 10
-2.68925202E+02
 20
1.15667016E+02
 11
-2.68600738E+02
 21
1.16130398E+02
  0
LINE
  8
0
 62
4
 10
-2.68600738E+02
 20
1.16130398E+02
 11
-2.65744796E+02
 21
1.16633978E+02
  0
LINE
  8
0
 62
4
 10
-2.69417606E+02
 20
1.15580192E+02
 11
-2.69027800E+02
 21
1.13369495E+02
  0
LINE
  8
0
 62
4
 10
-2.69417606E+02
 20
1.15580192E+02
 11
-2.68925202E+02
 21
1.15667016E+02
  0
LINE
  8
0
 62
4
 10
-2.77694256E+02
 20
1.25087402E+02
 11
-2.76218247E+02
 21
1.16716537E+02
  0
LINE
  8
0
 62
4
 10
-2.67550737E+02
 20
1.26875979E+02
 11
-2.77694256E+02
 21
1.25087402E+02
  0
LINE
  8
0
 62
4
 10
-2.76612170E+02
 20
1.16647077E+02
 11
-2.76034244E+02
 21
1.13369495E+02
  0
LINE
  8
0
 62
4
 10
-2.66166719E+02
 20
1.15168447E+02
 11
-2.65849515E+02
 21
1.13369495E+02
  0
LINE
  8
0
 62
4
 10
-2.68149456E+02
 20
1.13369495E+02
 11
-2.68397308E+02
 21
1.14775134E+02
  0
LINE
  8
0
 62
4
 10
-2.65461010E+02
 20
1.16176304E+02
 11
-2.66166719E+02
 21
1.15168447E+02
  0
LINE
  8
0
 62
4
 10
-2.69400241E+02
 20
1.15481711E+02
 11
-2.68397308E+02
 21
1.14775134E+02
  0
LINE
  8
0
 62
4
 10
-2.68397308E+02
 20
1.14775134E+02
 11
-2.66166719E+02
 21
1.15168447E+02
  0
LINE
  8
0
 62
4
 10
-2.69400241E+02
 20
1.15481711E+02
 11
-2.65461010E+02
 21
1.16176304E+02
  0
LINE
  8
0
 62
4
 10
-2.65461010E+02
 20
1.16176304E+02
 11
-2.64966094E+02
 21
1.13369495E+02
  0
LINE
  8
0
  6
CENTER
 62
6
 10
-2.67604274E+02
 20
1.16813815E+02
 11
-2.66562384E+02
 21
1.10904969E+02
  0
LINE
  8
0
  6
CENTER
 62
6
 10
-2.70037752E+02
 20
1.13338447E+02
 11
-2.64128906E+02
 21
1.14380337E+02
  0
LINE
  8
0
 62
4
 10
-2.67429183E+02
 20
1.26186613E+02
 11
-2.66444375E+02
 21
1.26360261E+02
  0
ARC
  8
0
 62
4
 10
-2.64254133E+02
 20
1.20450815E+02
 40
1.00000000E+00
 50
3.28723662E+02
 51
3.57172490E+02
  0
ARC
  8
0
 62
4
 10
-2.65087645E+02
 20
1.25177893E+02
 40
1.00000000E+00
 50
2.28275100E+01
 51
9.99999999E+01
  0
ARC
  8
0
 62
4
 10
-2.75050973E+02
 20
1.20984065E+02
 40
1.18100000E+01
 50
3.57172490E+02
 51
2.28275100E+01
  0
LINE
  8
0
 62
4
 10
-2.66374916E+02
 20
1.25966338E+02
 11
-2.65262083E+02
 21
1.26162561E+02
  0
LINE
  8
0
 62
4
 10
-2.65897383E+02
 20
1.23258117E+02
 11
-2.66444375E+02
 21
1.26360261E+02
  0
LINE
  8
0
 62
4
 10
-2.65066684E+02
 20
1.14976551E+02
 11
-2.66507964E+02
 21
1.23150455E+02
  0
LINE
  8
0
 62
4
 10
-2.66856144E+02
 20
1.22936748E+02
 11
-2.66481917E+02
 21
1.23002734E+02
  0
LINE
  8
0
 62
4
 10
-2.65269997E+02
 20
1.15093015E+02
 11
-2.65092731E+02
 21
1.15124272E+02
  0
LINE
  8
0
 62
4
 10
-2.66507964E+02
 20
1.23150455E+02
 11
-2.64774702E+02
 21
1.23456076E+02
  0
LINE
  8
0
 62
4
 10
-2.65066684E+02
 20
1.14976551E+02
 11
-2.63333423E+02
 21
1.15282172E+02
  0
ARC
  8
0
 62
4
 10
-2.74947120E+02
 20
1.17456241E+02
 40
1.18100000E+01
 50
9.99999999E+00
 51
3.05326991E+01
  0
ARC
  8
0
 62
4
 10
-2.74944433E+02
 20
1.17441000E+02
 40
1.18100000E+01
 50
3.49467301E+02
 51
9.99999999E+00
  0
LINE
  8
0
 62
4
 10
-2.65657971E+02
 20
1.16141574E+02
 11
-2.67550737E+02
 21
1.26875979E+02
  0
LINE
  8
0
 62
4
 10
-2.62032920E+02
 20
1.15058286E+02
 11
-2.59949141E+02
 21
1.26875979E+02
  0
LINE
  8
0
 62
4
 10
-2.62032919E+02
 20
1.15058286E+02
 11
-2.62407146E+02
 21
1.15124272E+02
  0
LINE
  8
0
 62
4
 10
-2.62433194E+02
 20
1.14976551E+02
 11
-2.61764648E+02
 21
1.18768061E+02
  0
LINE
  8
0
 62
4
 10
-2.62375229E+02
 20
1.18875723E+02
 11
-2.61055503E+02
 21
1.26360261E+02
  0
LINE
  8
0
 62
4
 10
-2.60070695E+02
 20
1.26186613E+02
 11
-2.61055503E+02
 21
1.26360261E+02
  0
LINE
  8
0
 62
4
 10
-2.61390421E+02
 20
1.18702074E+02
 11
-2.62375229E+02
 21
1.18875723E+02
  0
ARC
  8
0
 62
4
 10
-2.60546785E+02
 20
1.13120786E+02
 40
5.00000000E-01
 50
2.98293252E+01
 51
1.50170675E+02
  0
CIRCLE
  8
0
 62
4
 10
-2.60286313E+02
 20
1.14597998E+02
 40
5.00000000E-01
  0
CIRCLE
  8
0
 62
4
 10
-2.60286313E+02
 20
1.14597998E+02
 40
3.00000000E-01
  0
ARC
  8
0
 62
4
 10
-2.60546785E+02
 20
1.13120786E+02
 40
3.00000000E-01
 50
5.59992305E+01
 51
1.24000769E+02
  0
ARC
  8
0
 62
4
 10
-2.60416549E+02
 20
1.13859392E+02
 40
1.50000000E+00
 50
3.40937591E+02
 51
1.99062409E+02
  0
LINE
  8
0
 62
4
 10
-2.37097625E+02
 20
1.07897091E+02
 11
-2.38708658E+02
 21
9.87604697E+01
  0
LINE
  8
0
 62
4
 10
-2.49805622E+02
 20
1.25087402E+02
 11
-2.42911967E+02
 21
1.23871865E+02
  0
LINE
  8
0
 62
4
 10
-2.42911967E+02
 20
1.23871865E+02
 11
-2.37097625E+02
 21
1.07897091E+02
  0
ARC
  8
0
 62
4
 10
-2.40185869E+02
 20
9.90209419E+01
 40
1.50000000E+00
 50
3.43189498E+02
 51
3.50000000E+02
  0
LINE
  8
0
 62
4
 10
-2.51281631E+02
 20
1.16716537E+02
 11
-2.50789227E+02
 21
1.16629712E+02
  0
LINE
  8
0
 62
4
 10
-2.50383647E+02
 20
1.16050485E+02
 11
-2.50856378E+02
 21
1.13369495E+02
  0
ARC
  8
0
 62
4
 10
-2.50876051E+02
 20
1.16137309E+02
 40
5.00000000E-01
 50
3.50000000E+02
 51
7.99999999E+01
  0
LINE
  8
0
  6
CENTER
 62
6
 10
-2.43681960E+02
 20
1.03699104E+02
 11
-2.36215956E+02
 21
1.02382646E+02
  0
LINE
  8
0
  6
CENTER
 62
6
 10
-2.49656368E+02
 20
1.16937672E+02
 11
-2.62506873E+02
 21
1.19203563E+02
  0
LINE
  8
0
  6
CENTER
 62
6
 10
-2.39814732E+02
 20
1.18756319E+02
 11
-2.61899105E+02
 21
1.22650390E+02
  0
LINE
  8
0
 62
4
 10
-2.58574676E+02
 20
1.15667016E+02
 11
-2.58899140E+02
 21
1.16130398E+02
  0
LINE
  8
0
 62
4
 10
-2.58899140E+02
 20
1.16130398E+02
 11
-2.61755082E+02
 21
1.16633978E+02
  0
LINE
  8
0
 62
4
 10
-2.58082272E+02
 20
1.15580192E+02
 11
-2.58472078E+02
 21
1.13369495E+02
  0
LINE
  8
0
 62
4
 10
-2.58082272E+02
 20
1.15580192E+02
 11
-2.58574676E+02
 21
1.15667016E+02
  0
LINE
  8
0
 62
4
 10
-2.49805622E+02
 20
1.25087402E+02
 11
-2.51281631E+02
 21
1.16716537E+02
  0
LINE
  8
0
 62
4
 10
-2.59949141E+02
 20
1.26875979E+02
 11
-2.49805622E+02
 21
1.25087402E+02
  0
LINE
  8
0
 62
4
 10
-2.50887708E+02
 20
1.16647077E+02
 11
-2.51465634E+02
 21
1.13369495E+02
  0
LINE
  8
0
 62
4
 10
-2.58099637E+02
 20
1.15481711E+02
 11
-2.62038868E+02
 21
1.16176304E+02
  0
LINE
  8
0
 62
4
 10
-2.62038868E+02
 20
1.16176304E+02
 11
-2.62533784E+02
 21
1.13369495E+02
  0
LINE
  8
0
  6
CENTER
 62
6
 10
-2.59895604E+02
 20
1.16813815E+02
 11
-2.60937493E+02
 21
1.10904969E+02
  0
LINE
  8
0
  6
CENTER
 62
6
 10
-2.57462126E+02
 20
1.13338447E+02
 11
-2.63370972E+02
 21
1.14380337E+02
  0
LINE
  8
0
 62
4
 10
-2.34629007E+02
 20
1.04133677E+02
 11
-2.37666769E+02
 21
1.04669316E+02
  0
LINE
  8
0
 62
4
 10
-2.35323600E+02
 20
1.00194446E+02
 11
-2.38361361E+02
 21
1.00730085E+02
  0
LINE
  8
0
 62
6
 10
-2.34715831E+02
 20
1.03641273E+02
 11
-2.37753593E+02
 21
1.04176912E+02
  0
LINE
  8
0
 62
6
 10
-2.35236775E+02
 20
1.00686850E+02
 11
-2.38274537E+02
 21
1.01222489E+02
  0
LINE
  8
0
 62
4
 10
-2.35323600E+02
 20
1.00194446E+02
 11
-2.34629007E+02
 21
1.04133677E+02
  0
ARC
  8
0
 62
4
 10
-2.62412233E+02
 20
1.25177893E+02
 40
1.00000000E+00
 50
7.99999999E+01
 51
1.57172490E+02
  0
LINE
  8
0
 62
4
 10
-2.61124962E+02
 20
1.25966338E+02
 11
-2.62237795E+02
 21
1.26162561E+02
  0
ARC
  8
0
  6
DASHED
 62
4
 10
-2.52448905E+02
 20
1.20984065E+02
 40
1.18100000E+01
 50
1.63117791E+02
 51
1.82827510E+02
  0
LINE
  8
0
 62
4
 10
-2.62305770E+02
 20
1.19269646E+02
 11
-2.63305871E+02
 21
1.19445991E+02
  0
ARC
  8
0
  6
DASHED
 62
4
 10
-2.63245745E+02
 20
1.20450815E+02
 40
1.00000000E+00
 50
1.82827510E+02
 51
2.60000000E+02
  0
ARC
  8
0
  6
DASHED
 62
4
 10
-2.52555445E+02
 20
1.17441000E+02
 40
1.18100000E+01
 50
1.70000000E+02
 51
1.90532699E+02
  0
ARC
  8
0
  6
DASHED
 62
4
 10
-2.52552758E+02
 20
1.17456241E+02
 40
1.18100000E+01
 50
1.67900933E+02
 51
1.70000000E+02
  0
LINE
  8
0
 62
4
 10
-2.62433194E+02
 20
1.14976551E+02
 11
-2.63749939E+02
 21
1.15208729E+02
  0
ARC
  8
0
 62
4
 10
-2.52448905E+02
 20
1.20984065E+02
 40
1.18100000E+01
 50
1.57172490E+02
 51
1.63117791E+02
  0
LINE
  8
0
  6
DASHED
 62
4
 10
-2.63305871E+02
 20
1.19445991E+02
 11
-2.63418602E+02
 21
1.19465868E+02
  0
LINE
  8
0
  6
DASHED
 62
4
 10
-2.63749939E+02
 20
1.15208729E+02
 11
-2.64166455E+02
 21
1.15282172E+02
  0
CIRCLE
  8
0
 62
7
 10
1.83749863E+02
 20
6.98695715E+01
 40
2.45850000E+00
  0
CIRCLE
  8
0
 62
7
 10
1.46750076E+02
 20
6.98695715E+01
 40
2.45850000E+00
  0
CIRCLE
  8
0
 62
7
 10
1.46750076E+02
 20
1.06869358E+02
 40
2.45850000E+00
  0
CIRCLE
  8
0
 62
7
 10
1.83749863E+02
 20
1.06869358E+02
 40
2.45850000E+00
  0
LINE
  8
0
 62
4
 10
1.93676431E+02
 20
1.00194598E+02
 11
1.94371024E+02
 21
1.04133829E+02
  0
LINE
  8
0
 62
6
 10
1.93763255E+02
 20
1.00687002E+02
 11
1.90725493E+02
 21
1.01222642E+02
  0
LINE
  8
0
 62
6
 10
1.94284200E+02
 20
1.03641426E+02
 11
1.91246438E+02
 21
1.04177065E+02
  0
LINE
  8
0
 62
4
 10
1.94371024E+02
 20
1.04133829E+02
 11
1.91333262E+02
 21
1.04669469E+02
  0
LINE
  8
0
 62
4
 10
1.91902406E+02
 20
1.07897243E+02
 11
1.90291373E+02
 21
9.87606223E+01
  0
LINE
  8
0
  6
CENTER
 62
6
 10
1.85318070E+02
 20
1.03699256E+02
 11
1.92784075E+02
 21
1.02382798E+02
  0
LINE
  8
0
 62
4
 10
1.93676431E+02
 20
1.00194598E+02
 11
1.90638669E+02
 21
1.00730238E+02
  0
LINE
  8
0
  6
CENTER
 62
6
 10
1.45591178E+02
 20
1.03771385E+02
 11
1.38125174E+02
 21
1.02454927E+02
  0
LINE
  8
0
 62
4
 10
1.36823752E+02
 20
1.00194598E+02
 11
1.36129159E+02
 21
1.04133829E+02
  0
LINE
  8
0
 62
6
 10
1.36736928E+02
 20
1.00687002E+02
 11
1.39774690E+02
 21
1.01222642E+02
  0
LINE
  8
0
 62
6
 10
1.36215984E+02
 20
1.03641426E+02
 11
1.39253745E+02
 21
1.04177065E+02
  0
LINE
  8
0
 62
4
 10
1.36823752E+02
 20
1.00194598E+02
 11
1.39861514E+02
 21
1.00730238E+02
  0
LINE
  8
0
 62
4
 10
1.36129159E+02
 20
1.04133829E+02
 11
1.39166921E+02
 21
1.04669469E+02
  0
LINE
  8
0
 62
4
 10
1.38597777E+02
 20
1.07897243E+02
 11
1.40249969E+02
 21
9.85271963E+01
  0
LINE
  8
0
 62
4
 10
1.78616383E+02
 20
1.16050637E+02
 11
1.78143652E+02
 21
1.13369648E+02
  0
LINE
  8
0
 62
4
 10
1.79194409E+02
 20
1.25087555E+02
 11
1.77718399E+02
 21
1.16716689E+02
  0
LINE
  8
0
 62
4
 10
1.77718399E+02
 20
1.16716689E+02
 11
1.78210803E+02
 21
1.16629865E+02
  0
LINE
  8
0
 62
4
 10
1.79194409E+02
 20
1.25087555E+02
 11
1.86088063E+02
 21
1.23872018E+02
  0
LINE
  8
0
 62
4
 10
1.86088063E+02
 20
1.23872018E+02
 11
1.91902406E+02
 21
1.07897243E+02
  0
ARC
  8
0
 62
4
 10
1.78123979E+02
 20
1.16137461E+02
 40
5.00000000E-01
 50
3.50000000E+02
 51
7.99999999E+01
  0
LINE
  8
0
 62
4
 10
1.78112323E+02
 20
1.16647230E+02
 11
1.77534396E+02
 21
1.13369648E+02
  0
LINE
  8
0
  6
DASHED
 62
4
 10
1.65250092E+02
 20
1.15208881E+02
 11
1.64833575E+02
 21
1.15282324E+02
  0
ARC
  8
0
 62
4
 10
1.68453245E+02
 20
1.13120939E+02
 40
3.00000000E-01
 50
5.59992305E+01
 51
1.24000769E+02
  0
ARC
  8
0
 62
4
 10
1.68453245E+02
 20
1.13120939E+02
 40
5.00000000E-01
 50
2.98293252E+01
 51
1.50170675E+02
  0
LINE
  8
0
 62
4
 10
1.70900393E+02
 20
1.15481864E+02
 11
1.66961162E+02
 21
1.16176456E+02
  0
LINE
  8
0
 62
4
 10
1.70917758E+02
 20
1.15580344E+02
 11
1.70425354E+02
 21
1.15667169E+02
  0
LINE
  8
0
 62
4
 10
1.70100891E+02
 20
1.16130551E+02
 11
1.67244948E+02
 21
1.16634131E+02
  0
LINE
  8
0
 62
4
 10
1.70425354E+02
 20
1.15667169E+02
 11
1.70100891E+02
 21
1.16130551E+02
  0
CIRCLE
  8
0
 62
4
 10
1.68713718E+02
 20
1.14598150E+02
 40
3.00000000E-01
  0
CIRCLE
  8
0
 62
4
 10
1.68713718E+02
 20
1.14598150E+02
 40
5.00000000E-01
  0
LINE
  8
0
 62
4
 10
1.66967111E+02
 20
1.15058438E+02
 11
1.66592884E+02
 21
1.15124425E+02
  0
ARC
  8
0
 62
4
 10
1.68583482E+02
 20
1.13859545E+02
 40
1.50000000E+00
 50
3.40937591E+02
 51
1.99062409E+02
  0
LINE
  8
0
 62
4
 10
1.70917758E+02
 20
1.15580344E+02
 11
1.70527953E+02
 21
1.13369648E+02
  0
LINE
  8
0
 62
4
 10
1.66961162E+02
 20
1.16176456E+02
 11
1.66466246E+02
 21
1.13369648E+02
  0
LINE
  8
0
  6
CENTER
 62
6
 10
1.69104426E+02
 20
1.16813968E+02
 11
1.68062537E+02
 21
1.10905121E+02
  0
LINE
  8
0
  6
CENTER
 62
6
 10
1.71537905E+02
 20
1.13338600E+02
 11
1.65629058E+02
 21
1.14380489E+02
  0
LINE
  8
0
 62
4
 10
1.66566837E+02
 20
1.14976703E+02
 11
1.65250092E+02
 21
1.15208881E+02
  0
LINE
  8
0
  6
DASHED
 62
4
 10
1.65694159E+02
 20
1.19446143E+02
 11
1.65581428E+02
 21
1.19466021E+02
  0
ARC
  8
0
  6
DASHED
 62
4
 10
1.76447273E+02
 20
1.17456394E+02
 40
1.18100000E+01
 50
1.67900933E+02
 51
1.70000000E+02
  0
LINE
  8
0
 62
4
 10
1.66694261E+02
 20
1.19269798E+02
 11
1.65694159E+02
 21
1.19446143E+02
  0
LINE
  8
0
 62
4
 10
1.67609609E+02
 20
1.18702227E+02
 11
1.66624802E+02
 21
1.18875875E+02
  0
ARC
  8
0
 62
4
 10
1.64745897E+02
 20
1.20450967E+02
 40
1.00000000E+00
 50
3.28723662E+02
 51
3.57172490E+02
  0
ARC
  8
0
 62
4
 10
1.54055598E+02
 20
1.17441153E+02
 40
1.18100000E+01
 50
3.49467301E+02
 51
9.99999999E+00
  0
LINE
  8
0
 62
4
 10
1.66566837E+02
 20
1.14976703E+02
 11
1.67235382E+02
 21
1.18768213E+02
  0
LINE
  8
0
  6
CENTER
 62
6
 10
1.79343663E+02
 20
1.16937825E+02
 11
1.66493157E+02
 21
1.19203716E+02
  0
ARC
  8
0
  6
DASHED
 62
4
 10
1.65754286E+02
 20
1.20450967E+02
 40
1.00000000E+00
 50
1.82827510E+02
 51
2.60000000E+02
  0
ARC
  8
0
  6
DASHED
 62
4
 10
1.76444585E+02
 20
1.17441153E+02
 40
1.18100000E+01
 50
1.70000000E+02
 51
1.90532699E+02
  0
LINE
  8
0
 62
4
 10
1.63730034E+02
 20
1.15093168E+02
 11
1.63907299E+02
 21
1.15124425E+02
  0
LINE
  8
0
 62
4
 10
1.62833312E+02
 20
1.15168600E+02
 11
1.63150516E+02
 21
1.13369648E+02
  0
LINE
  8
0
 62
4
 10
1.63539021E+02
 20
1.16176456E+02
 11
1.64033937E+02
 21
1.13369648E+02
  0
LINE
  8
0
 62
4
 10
1.63933346E+02
 20
1.14976703E+02
 11
1.65666608E+02
 21
1.15282324E+02
  0
LINE
  8
0
 62
4
 10
1.63539021E+02
 20
1.16176456E+02
 11
1.62833312E+02
 21
1.15168600E+02
  0
LINE
  8
0
  6
CENTER
 62
6
 10
1.61395757E+02
 20
1.16813968E+02
 11
1.62437646E+02
 21
1.10905121E+02
  0
LINE
  8
0
 62
4
 10
1.59599790E+02
 20
1.15481864E+02
 11
1.60602722E+02
 21
1.14775287E+02
  0
LINE
  8
0
 62
4
 10
1.59582425E+02
 20
1.15580344E+02
 11
1.60074829E+02
 21
1.15667169E+02
  0
LINE
  8
0
 62
4
 10
1.60074829E+02
 20
1.15667169E+02
 11
1.60399293E+02
 21
1.16130551E+02
  0
LINE
  8
0
 62
4
 10
1.60399293E+02
 20
1.16130551E+02
 11
1.63255235E+02
 21
1.16634131E+02
  0
LINE
  8
0
 62
4
 10
1.59582425E+02
 20
1.15580344E+02
 11
1.59972230E+02
 21
1.13369648E+02
  0
LINE
  8
0
 62
4
 10
1.60850574E+02
 20
1.13369648E+02
 11
1.60602722E+02
 21
1.14775287E+02
  0
LINE
  8
0
 62
4
 10
1.60602722E+02
 20
1.14775287E+02
 11
1.62833312E+02
 21
1.15168600E+02
  0
LINE
  8
0
 62
4
 10
1.59599790E+02
 20
1.15481864E+02
 11
1.63539021E+02
 21
1.16176456E+02
  0
LINE
  8
0
  6
CENTER
 62
6
 10
1.58962278E+02
 20
1.13338600E+02
 11
1.64871125E+02
 21
1.14380489E+02
  0
ARC
  8
0
 62
4
 10
1.52376204E+02
 20
1.16137461E+02
 40
5.00000000E-01
 50
9.99999999E+01
 51
1.90000000E+02
  0
LINE
  8
0
 62
4
 10
1.52781784E+02
 20
1.16716689E+02
 11
1.52289380E+02
 21
1.16629865E+02
  0
LINE
  8
0
 62
4
 10
1.51883800E+02
 20
1.16050637E+02
 11
1.52356531E+02
 21
1.13369648E+02
  0
LINE
  8
0
 62
4
 10
1.52387861E+02
 20
1.16647230E+02
 11
1.52965787E+02
 21
1.13369648E+02
  0
LINE
  8
0
 62
4
 10
1.51305774E+02
 20
1.25087555E+02
 11
1.44412120E+02
 21
1.23872018E+02
  0
LINE
  8
0
 62
4
 10
1.44412120E+02
 20
1.23872018E+02
 11
1.38597777E+02
 21
1.07897243E+02
  0
LINE
  8
0
  6
CENTER
 62
6
 10
1.51156520E+02
 20
1.16937825E+02
 11
1.64007026E+02
 21
1.19203716E+02
  0
LINE
  8
0
 62
4
 10
1.51305774E+02
 20
1.25087555E+02
 11
1.52781784E+02
 21
1.16716689E+02
  0
ARC
  8
0
 62
4
 10
1.76551126E+02
 20
1.20984218E+02
 40
1.18100000E+01
 50
1.57172490E+02
 51
1.63117791E+02
  0
LINE
  8
0
 62
4
 10
1.67875068E+02
 20
1.25966491E+02
 11
1.66762236E+02
 21
1.26162713E+02
  0
ARC
  8
0
 62
4
 10
1.66587797E+02
 20
1.25178045E+02
 40
1.00000000E+00
 50
7.99999999E+01
 51
1.57172490E+02
  0
LINE
  8
0
 62
4
 10
1.68929335E+02
 20
1.26186766E+02
 11
1.67944528E+02
 21
1.26360414E+02
  0
LINE
  8
0
 62
4
 10
1.62492066E+02
 20
1.23150608E+02
 11
1.64225328E+02
 21
1.23456229E+02
  0
LINE
  8
0
 62
4
 10
1.62143887E+02
 20
1.22936900E+02
 11
1.62518114E+02
 21
1.23002887E+02
  0
LINE
  8
0
 62
4
 10
1.63102647E+02
 20
1.23258270E+02
 11
1.62555655E+02
 21
1.26360414E+02
  0
LINE
  8
0
 62
4
 10
1.62625115E+02
 20
1.25966491E+02
 11
1.63737947E+02
 21
1.26162713E+02
  0
ARC
  8
0
 62
4
 10
1.63912386E+02
 20
1.25178045E+02
 40
1.00000000E+00
 50
2.28275100E+01
 51
9.99999999E+01
  0
LINE
  8
0
 62
4
 10
1.61570848E+02
 20
1.26186766E+02
 11
1.62555655E+02
 21
1.26360414E+02
  0
LINE
  8
0
  6
CENTER
 62
6
 10
1.41314885E+02
 20
1.18756472E+02
 11
1.63399257E+02
 21
1.22650543E+02
  0
LINE
  8
0
 62
4
 10
1.61449294E+02
 20
1.26876131E+02
 11
1.51305774E+02
 21
1.25087555E+02
  0
ARC
  8
0
 62
4
 10
1.53949058E+02
 20
1.20984218E+02
 40
1.18100000E+01
 50
3.57172490E+02
 51
2.28275100E+01
  0
LINE
  8
0
 62
4
 10
1.63933346E+02
 20
1.14976703E+02
 11
1.62492066E+02
 21
1.23150608E+02
  0
ARC
  8
0
 62
4
 10
1.54052910E+02
 20
1.17456394E+02
 40
1.18100000E+01
 50
9.99999999E+00
 51
3.05326991E+01
  0
LINE
  8
0
 62
4
 10
1.63342059E+02
 20
1.16141727E+02
 11
1.61449294E+02
 21
1.26876131E+02
  0
LINE
  8
0
 62
4
 10
1.66967111E+02
 20
1.15058438E+02
 11
1.69050889E+02
 21
1.26876131E+02
  0
LINE
  8
0
 62
4
 10
1.66624802E+02
 20
1.18875875E+02
 11
1.67944528E+02
 21
1.26360414E+02
  0
LINE
  8
0
  6
CENTER
 62
6
 10
1.89185298E+02
 20
1.18756472E+02
 11
1.67100926E+02
 21
1.22650543E+02
  0
LINE
  8
0
 62
4
 10
1.69050889E+02
 20
1.26876131E+02
 11
1.79194409E+02
 21
1.25087555E+02
  0
ARC
  8
0
  6
DASHED
 62
4
 10
1.76551126E+02
 20
1.20984218E+02
 40
1.18100000E+01
 50
1.63117791E+02
 51
1.82827510E+02
  0
LINE
  8
0
 62
7
 10
1.87250061E+02
 20
1.13369449E+02
 11
1.43250000E+02
 21
1.13369449E+02
  0
ARC
  8
0
 62
4
 10
1.88814009E+02
 20
9.90209419E+01
 40
1.50000000E+00
 50
3.43205627E+02
 51
3.50000000E+02
  0
CIRCLE
  8
0
 62
7
 10
1.46750092E+02
 20
1.06869480E+02
 40
4.75000000E+00
  0
CIRCLE
  8
0
 62
7
 10
1.46749939E+02
 20
6.98694799E+01
 40
4.75000000E+00
  0
ARC
  8
0
 62
7
 10
1.98372498E+02
 20
9.81039923E+01
 40
2.50000000E+00
 50
2.76372839E+02
 51
7.69143002E+00
  0
ARC
  8
0
 62
7
 10
1.98372498E+02
 20
7.61039923E+01
 40
2.50000000E+00
 50
2.70000037E+02
 51
3.52308598E+02
  0
ARC
  8
0
 62
7
 10
1.98372498E+02
 20
7.86348913E+01
 40
2.50000000E+00
 50
3.52308615E+02
 51
8.36271917E+01
  0
ARC
  8
0
 62
7
 10
1.98372498E+02
 20
1.00634891E+02
 40
2.50000000E+00
 50
7.69143002E+00
 51
9.00000042E+01
  0
ARC
  8
0
 62
7
 10
1.43250000E+02
 20
6.63693807E+01
 40
3.00000000E+00
 50
1.80000055E+02
 51
2.70000037E+02
  0
ARC
  8
0
 62
7
 10
1.87250061E+02
 20
6.63693807E+01
 40
3.00000000E+00
 50
2.70000054E+02
 51
2.23118003E-05
  0
CIRCLE
  8
0
 62
2
 10
1.46749939E+02
 20
1.06869526E+02
 40
3.00000000E+00
  0
CIRCLE
  8
0
 62
2
 10
1.46750092E+02
 20
6.98694799E+01
 40
3.00000000E+00
  0
CIRCLE
  8
0
 62
2
 10
1.83750153E+02
 20
6.98694799E+01
 40
3.00000000E+00
  0
CIRCLE
  8
0
 62
7
 10
1.65250000E+02
 20
8.83694647E+01
 40
1.60000000E+01
  0
CIRCLE
  8
0
 62
7
 10
1.46750031E+02
 20
6.98694036E+01
 40
4.50000000E+00
  0
CIRCLE
  8
0
 62
7
 10
1.83750153E+02
 20
6.98694799E+01
 40
4.75000000E+00
  0
CIRCLE
  8
0
 62
7
 10
1.83750061E+02
 20
6.98694799E+01
 40
4.50000000E+00
  0
CIRCLE
  8
0
 62
7
 10
1.83750031E+02
 20
1.06869526E+02
 40
4.50000000E+00
  0
CIRCLE
  8
0
 62
7
 10
1.46749939E+02
 20
1.06869449E+02
 40
4.50000000E+00
  0
CIRCLE
  8
0
 62
7
 10
1.83750031E+02
 20
1.06869556E+02
 40
4.75000000E+00
  0
CIRCLE
  8
0
 62
2
 10
1.83750031E+02
 20
1.06869556E+02
 40
3.00000000E+00
  0
LINE
  8
0
 62
7
 10
1.83750030E+02
 20
1.10333662E+02
 11
1.80750017E+02
 21
1.08601615E+02
  0
LINE
  8
0
 62
7
 10
1.80750000E+02
 20
1.08601581E+02
 11
1.80750000E+02
 21
1.05137501E+02
  0
LINE
  8
0
 62
7
 10
1.80750053E+02
 20
1.05137552E+02
 11
1.83750046E+02
 21
1.03405500E+02
  0
LINE
  8
0
 62
7
 10
1.83749990E+02
 20
1.03405422E+02
 11
1.86750023E+02
 21
1.05137497E+02
  0
LINE
  8
0
 62
7
 10
1.86750031E+02
 20
1.08601581E+02
 11
1.86750031E+02
 21
1.05137501E+02
  0
LINE
  8
0
 62
7
 10
1.83749961E+02
 20
1.10333633E+02
 11
1.86749947E+02
 21
1.08601600E+02
  0
LINE
  8
0
 62
7
 10
1.83750196E+02
 20
7.33335965E+01
 11
1.80750216E+02
 21
7.16015523E+01
  0
LINE
  8
0
 62
7
 10
1.80750122E+02
 20
7.16015051E+01
 11
1.80750122E+02
 21
6.81374166E+01
  0
LINE
  8
0
 62
7
 10
1.80750206E+02
 20
6.81374388E+01
 11
1.83750213E+02
 21
6.64053794E+01
  0
LINE
  8
0
 62
7
 10
1.83750181E+02
 20
6.64053533E+01
 11
1.86750214E+02
 21
6.81374279E+01
  0
LINE
  8
0
 62
7
 10
1.86750092E+02
 20
7.16015051E+01
 11
1.86750092E+02
 21
6.81374166E+01
  0
LINE
  8
0
 62
7
 10
1.83750162E+02
 20
7.33336521E+01
 11
1.86750155E+02
 21
7.16016004E+01
  0
LINE
  8
0
 62
7
 10
1.46750080E+02
 20
1.10333614E+02
 11
1.43750094E+02
 21
1.08601581E+02
  0
LINE
  8
0
 62
7
 10
1.43750061E+02
 20
1.08601551E+02
 11
1.43750061E+02
 21
1.05137455E+02
  0
LINE
  8
0
 62
7
 10
1.43750092E+02
 20
1.05137540E+02
 11
1.46750111E+02
 21
1.03405473E+02
  0
LINE
  8
0
 62
7
 10
1.46750125E+02
 20
1.03405512E+02
 11
1.49750078E+02
 21
1.05137540E+02
  0
LINE
  8
0
 62
7
 10
1.49750092E+02
 20
1.08601551E+02
 11
1.49750092E+02
 21
1.05137455E+02
  0
LINE
  8
0
 62
7
 10
1.43749990E+02
 20
6.81375035E+01
 11
1.46750010E+02
 21
6.64054365E+01
  0
LINE
  8
0
 62
7
 10
1.43749908E+02
 20
7.16015051E+01
 11
1.43749908E+02
 21
6.81374166E+01
  0
LINE
  8
0
 62
7
 10
1.46750116E+02
 20
1.10333588E+02
 11
1.49750116E+02
 21
1.08601547E+02
  0
LINE
  8
0
 62
7
 10
1.46749998E+02
 20
7.33335910E+01
 11
1.43750018E+02
 21
7.16015468E+01
  0
LINE
  8
0
 62
7
 10
1.46749994E+02
 20
7.33336182E+01
 11
1.49750014E+02
 21
7.16015512E+01
  0
LINE
  8
0
  6
CENTER
 62
2
 10
1.53131409E+02
 20
1.06869510E+02
 11
1.38609772E+02
 21
1.06869510E+02
  0
LINE
  8
0
 62
7
 10
1.98250000E+02
 20
6.88694494E+01
 11
1.90250000E+02
 21
6.88694494E+01
  0
LINE
  8
0
 62
7
 10
1.98250000E+02
 20
1.07869419E+02
 11
1.91897500E+02
 21
1.07869419E+02
  0
LINE
  8
0
 62
7
 10
1.98649963E+02
 20
7.36194342E+01
 11
1.98250000E+02
 21
7.36194342E+01
  0
LINE
  8
0
  6
CENTER
 62
2
 10
2.01714050E+02
 20
7.73694342E+01
 11
1.98250000E+02
 21
7.73694342E+01
  0
LINE
  8
0
 62
7
 10
1.98249969E+02
 20
6.88694570E+01
 11
1.98249969E+02
 21
1.07869465E+02
  0
LINE
  8
0
 62
7
 10
1.98649933E+02
 20
9.56194494E+01
 11
1.98250000E+02
 21
9.56194494E+01
  0
LINE
  8
0
 62
7
 10
1.98649933E+02
 20
1.03119449E+02
 11
1.98250000E+02
 21
1.03119449E+02
  0
LINE
  8
0
 62
7
 10
1.98649933E+02
 20
8.11194342E+01
 11
1.98250000E+02
 21
8.11194342E+01
  0
LINE
  8
0
 62
7
 10
2.00849976E+02
 20
7.57694433E+01
 11
2.00849976E+02
 21
7.89694784E+01
  0
LINE
  8
0
 62
7
 10
2.00849976E+02
 20
1.00969440E+02
 11
2.00849976E+02
 21
9.77694433E+01
  0
LINE
  8
0
  6
CENTER
 62
2
 10
2.01714050E+02
 20
9.93694494E+01
 11
1.98250000E+02
 21
9.93694494E+01
  0
LINE
  8
0
  6
CENTER
 62
2
 10
1.92138062E+02
 20
1.06869358E+02
 11
1.76173645E+02
 21
1.06869358E+02
  0
LINE
  8
0
  6
CENTER
 62
2
 10
1.38127014E+02
 20
6.98693197E+01
 11
1.54769501E+02
 21
6.98693197E+01
  0
LINE
  8
0
  6
CENTER
 62
2
 10
1.46750000E+02
 20
6.14247702E+01
 11
1.46750000E+02
 21
7.62368200E+01
  0
LINE
  8
0
  6
CENTER
 62
2
 10
1.83750061E+02
 20
6.12795446E+01
 11
1.83750061E+02
 21
7.59464071E+01
  0
LINE
  8
0
  6
CENTER
 62
2
 10
1.92152618E+02
 20
6.98694342E+01
 11
1.75865662E+02
 21
6.98694342E+01
  0
LINE
  8
0
 62
7
 10
1.87250061E+02
 20
6.33693807E+01
 11
1.43250000E+02
 21
6.33693807E+01
  0
LINE
  8
0
 62
7
 10
1.46749985E+02
 20
6.64054675E+01
 11
1.49749964E+02
 21
6.81375116E+01
  0
LINE
  8
0
 62
7
 10
1.49749939E+02
 20
7.16015051E+01
 11
1.49749939E+02
 21
6.81374166E+01
  0
LINE
  8
0
 62
7
 10
1.40249969E+02
 20
6.63693807E+01
 11
1.40249969E+02
 21
1.10369465E+02
  0
LINE
  8
0
 62
7
 10
1.90250000E+02
 20
6.63693807E+01
 11
1.90250000E+02
 21
1.10369465E+02
  0
LINE
  8
0
  6
CENTER
 62
2
 10
2.00469116E+02
 20
8.83694647E+01
 11
1.35948761E+02
 21
8.83694647E+01
  0
LINE
  8
0
  6
CENTER
 62
2
 10
1.65249969E+02
 20
1.17341785E+02
 11
1.65249969E+02
 21
5.86656759E+01
  0
LINE
  8
0
  6
CENTER
 62
2
 10
1.83750031E+02
 20
1.15376102E+02
 11
1.83750031E+02
 21
1.00454960E+02
  0
LINE
  8
0
  6
CENTER
 62
2
 10
1.46750000E+02
 20
1.00488025E+02
 11
1.46750000E+02
 21
1.15009708E+02
  0
LINE
  8
0
  6
CENTER
 62
2
 10
1.55249969E+02
 20
9.57628363E+01
 11
1.55249969E+02
 21
1.15298481E+02
  0
LINE
  8
0
  6
CENTER
 62
2
 10
1.69250031E+02
 20
1.15121815E+02
 11
1.69250031E+02
 21
9.88694494E+01
  0
ARC
  8
0
 62
7
 10
1.87250000E+02
 20
1.10369434E+02
 40
3.00000000E+00
 50
2.23118003E-05
 51
9.00000042E+01
  0
ARC
  8
0
 62
7
 10
1.43250000E+02
 20
1.10369434E+02
 40
3.00000000E+00
 50
9.00000042E+01
 51
1.80000041E+02
  0
LINE
  8
0
  6
PHANTOM
 10
-2.92500000E+01
 20
2.47628397E+02
 11
-2.92500000E+01
 21
1.48950959E+02
  0
ARC
  8
0
 62
7
 10
5.22499161E+01
 20
1.84642116E+02
 40
5.00000000E-01
 50
2.71500000E+02
 51
0.00000000E+00
  0
ARC
  8
0
 62
7
 10
5.22499161E+01
 20
2.32096915E+02
 40
5.00000000E-01
 50
0.00000000E+00
 51
8.85000001E+01
  0
ARC
  8
0
 62
7
 10
4.57499847E+01
 20
1.90369465E+02
 40
2.00000000E+00
 50
2.70000000E+02
 51
0.00000000E+00
  0
LINE
  8
0
 62
7
 10
4.57499847E+01
 20
1.88369465E+02
 11
2.17499542E+01
 21
1.88369465E+02
  0
LINE
  8
0
 62
7
 10
4.77499847E+01
 20
1.90369465E+02
 11
4.77499847E+01
 21
2.26369465E+02
  0
ARC
  8
0
 62
7
 10
4.57499847E+01
 20
2.26369465E+02
 40
2.00000000E+00
 50
0.00000000E+00
 51
9.00000002E+01
  0
LINE
  8
0
 62
7
 10
4.57499847E+01
 20
2.28369465E+02
 11
2.17499542E+01
 21
2.28369465E+02
  0
LINE
  8
0
  6
CENTER
 62
2
 10
-1.81276978E+02
 20
2.08369465E+02
 11
5.86960907E+01
 21
2.08369465E+02
  0
LINE
  8
0
 62
7
 10
-8.42499542E+01
 20
1.83369465E+02
 11
-8.42499542E+01
 21
2.33369465E+02
  0
LINE
  8
0
 62
7
 10
2.17499542E+01
 20
1.83369465E+02
 11
2.17499542E+01
 21
2.33369465E+02
  0
LINE
  8
0
  6
CENTER
 62
2
 10
-1.33361328E+02
 20
1.89869465E+02
 11
5.48534698E+01
 21
1.89869465E+02
  0
LINE
  8
0
 62
7
 10
-8.42499542E+01
 20
1.92519459E+02
 11
-1.47500458E+01
 21
1.92519459E+02
  0
LINE
  8
0
 62
7
 10
-8.42499542E+01
 20
1.87219471E+02
 11
-1.47500458E+01
 21
1.87219471E+02
  0
LINE
  8
0
 62
7
 10
-8.42499542E+01
 20
1.86369480E+02
 11
-1.47500458E+01
 21
1.86369480E+02
  0
LINE
  8
0
  6
CENTER
 62
2
 10
-1.33964035E+02
 20
2.26869465E+02
 11
5.48534698E+01
 21
2.26869465E+02
  0
LINE
  8
0
 62
7
 10
-8.42499542E+01
 20
2.24219471E+02
 11
-5.87499542E+01
 21
2.24219471E+02
  0
LINE
  8
0
 62
7
 10
-8.42499542E+01
 20
2.29519459E+02
 11
-5.87499542E+01
 21
2.29519459E+02
  0
LINE
  8
0
 62
7
 10
-8.42499542E+01
 20
2.30369449E+02
 11
-5.87499542E+01
 21
2.30369449E+02
  0
LINE
  8
0
  6
CENTER
 62
2
 10
-1.19366699E+02
 20
2.12369404E+02
 11
-9.93015442E+01
 21
2.12369404E+02
  0
LINE
  8
0
  6
CENTER
 62
2
 10
-8.97499847E+01
 20
1.92449741E+02
 11
-8.97499847E+01
 21
2.03974384E+02
  0
LINE
  8
0
 62
7
 10
-1.44749878E+02
 20
1.93369465E+02
 11
-1.40240997E+02
 21
1.93369465E+02
  0
LINE
  8
0
 62
7
 10
-1.39249893E+02
 20
1.92369495E+02
 11
-1.30249939E+02
 21
1.92369495E+02
  0
LINE
  8
0
 62
7
 10
-1.40249897E+02
 20
1.93369519E+02
 11
-1.39249917E+02
 21
1.92369540E+02
  0
LINE
  8
0
 62
7
 10
-1.45249908E+02
 20
1.93869465E+02
 11
-1.45249908E+02
 21
2.22869526E+02
  0
LINE
  8
0
 62
7
 10
-1.44749878E+02
 20
2.23369526E+02
 11
-1.40240997E+02
 21
2.23369526E+02
  0
LINE
  8
0
 62
7
 10
-1.39249878E+02
 20
2.24369480E+02
 11
-1.30249939E+02
 21
2.24369480E+02
  0
LINE
  8
0
 62
7
 10
-1.30249893E+02
 20
1.83369465E+02
 11
-1.30249893E+02
 21
2.33369465E+02
  0
LINE
  8
0
 62
7
 10
-1.39249893E+02
 20
2.24369480E+02
 11
-1.39249893E+02
 21
1.92369495E+02
  0
LINE
  8
0
 62
7
 10
-1.40249908E+02
 20
2.23369480E+02
 11
-1.40249908E+02
 21
1.93369480E+02
  0
LINE
  8
0
 62
7
 10
-1.45249926E+02
 20
1.93869463E+02
 11
-1.44749937E+02
 21
1.93369474E+02
  0
LINE
  8
0
 62
7
 10
-1.40249998E+02
 20
2.23369600E+02
 11
-1.39249984E+02
 21
2.24369599E+02
  0
LINE
  8
0
  6
CENTER
 62
2
 10
-9.54465790E+01
 20
1.98369465E+02
 11
-8.38310852E+01
 21
1.98369465E+02
  0
LINE
  8
0
 62
7
 10
5.22630046E+01
 20
1.84142287E+02
 11
2.17499165E+01
 21
1.83343274E+02
  0
LINE
  8
0
 62
7
 10
-1.44749908E+02
 20
1.93369465E+02
 11
-1.44749908E+02
 21
2.23369526E+02
  0
LINE
  8
0
 62
7
 10
-1.45249802E+02
 20
2.22869424E+02
 11
-1.44749803E+02
 21
2.23369423E+02
  0
LINE
  8
0
 62
7
 10
-8.83065815E+01
 20
1.98369581E+02
 11
-8.90282389E+01
 21
1.99619545E+02
  0
LINE
  8
0
 62
7
 10
-8.90282745E+01
 20
1.99619526E+02
 11
-9.04716644E+01
 21
1.99619526E+02
  0
LINE
  8
0
  6
CENTER
 62
2
 10
3.47499084E+01
 20
2.02353596E+02
 11
3.47499084E+01
 21
2.22513630E+02
  0
LINE
  8
0
  6
CENTER
 62
2
 10
4.48666382E+01
 20
2.12369404E+02
 11
2.48014755E+01
 21
2.12369404E+02
  0
LINE
  8
0
  6
CENTER
 62
2
 10
2.72499008E+01
 20
1.92449741E+02
 11
2.72499008E+01
 21
2.03974384E+02
  0
LINE
  8
0
 62
7
 10
5.42499619E+01
 20
2.24369434E+02
 11
5.27499695E+01
 21
2.24369434E+02
  0
LINE
  8
0
 62
7
 10
5.42499619E+01
 20
1.92369449E+02
 11
5.27499695E+01
 21
1.92369449E+02
  0
LINE
  8
0
 62
7
 10
5.27499161E+01
 20
2.32096915E+02
 11
5.27499161E+01
 21
1.84642116E+02
  0
LINE
  8
0
 62
7
 10
5.47499084E+01
 20
1.92869480E+02
 11
5.47499084E+01
 21
2.23898884E+02
  0
LINE
  8
0
  6
CENTER
 62
2
 10
3.29465103E+01
 20
1.98369465E+02
 11
2.13310165E+01
 21
1.98369465E+02
  0
LINE
  8
0
 62
7
 10
5.22630046E+01
 20
2.32596743E+02
 11
2.17498995E+01
 21
2.33395757E+02
  0
LINE
  8
0
 62
7
 10
-1.30249939E+02
 20
1.83369465E+02
 11
-8.42498932E+01
 21
1.83369465E+02
  0
LINE
  8
0
 62
7
 10
2.86932470E+01
 20
1.98369532E+02
 11
2.79715743E+01
 21
1.99619522E+02
  0
LINE
  8
0
 62
7
 10
2.79715881E+01
 20
1.99619526E+02
 11
2.65282135E+01
 21
1.99619526E+02
  0
LINE
  8
0
 62
7
 10
-9.11932251E+01
 20
1.98369446E+02
 11
-9.04715220E+01
 21
1.99619489E+02
  0
LINE
  8
0
 62
7
 10
-9.04715797E+01
 20
1.97119529E+02
 11
-9.11932829E+01
 21
1.98369572E+02
  0
LINE
  8
0
 62
7
 10
-8.90282745E+01
 20
1.97119510E+02
 11
-9.04716644E+01
 21
1.97119510E+02
  0
LINE
  8
0
 62
7
 10
-8.83063537E+01
 20
1.98369365E+02
 11
-8.90280340E+01
 21
1.97119362E+02
  0
LINE
  8
0
 62
7
 10
2.58066149E+01
 20
1.98369454E+02
 11
2.65282914E+01
 21
1.99619450E+02
  0
LINE
  8
0
 62
7
 10
2.65282188E+01
 20
1.97119480E+02
 11
2.58065233E+01
 21
1.98369510E+02
  0
LINE
  8
0
 62
7
 10
2.79715881E+01
 20
1.97119510E+02
 11
2.65282135E+01
 21
1.97119510E+02
  0
LINE
  8
0
 62
7
 10
2.86934412E+01
 20
1.98369417E+02
 11
2.79717647E+01
 21
1.97119420E+02
  0
LINE
  8
0
  6
CENTER
 62
2
 10
-1.09249954E+02
 20
2.44904667E+02
 11
-1.09249954E+02
 21
2.02072849E+02
  0
LINE
  8
0
 62
7
 10
-9.66499329E+01
 20
2.43969471E+02
 11
-9.98499451E+01
 21
2.43969471E+02
  0
LINE
  8
0
 62
7
 10
-1.01999954E+02
 20
2.41769382E+02
 11
-1.01999954E+02
 21
2.41369449E+02
  0
LINE
  8
0
 62
7
 10
-9.44999542E+01
 20
2.41769382E+02
 11
-9.44999542E+01
 21
2.41369449E+02
  0
LINE
  8
0
 62
7
 10
-1.30249939E+02
 20
2.33369465E+02
 11
-8.42499390E+01
 21
2.33369465E+02
  0
LINE
  8
0
 62
7
 10
-1.28749939E+02
 20
2.41369449E+02
 11
-1.28749939E+02
 21
2.33369465E+02
  0
LINE
  8
0
 62
7
 10
-8.97499390E+01
 20
2.41369449E+02
 11
-8.97499390E+01
 21
2.33369465E+02
  0
LINE
  8
0
  6
CENTER
 62
2
 10
-9.82499542E+01
 20
2.44833500E+02
 11
-9.82499542E+01
 21
2.41369449E+02
  0
LINE
  8
0
 62
7
 10
-1.28749939E+02
 20
2.41369449E+02
 11
-8.97499390E+01
 21
2.41369449E+02
  0
LINE
  8
0
  6
CENTER
 62
2
 10
-1.20249954E+02
 20
2.44833500E+02
 11
-1.20249954E+02
 21
2.41369449E+02
  0
LINE
  8
0
 62
7
 10
-1.21849960E+02
 20
2.43969471E+02
 11
-1.18649933E+02
 21
2.43969471E+02
  0
LINE
  8
0
 62
7
 10
-1.23999954E+02
 20
2.41769382E+02
 11
-1.23999954E+02
 21
2.41369449E+02
  0
LINE
  8
0
 62
7
 10
-1.16499954E+02
 20
2.41769382E+02
 11
-1.16499954E+02
 21
2.41369449E+02
  0
LINE
  8
0
 62
7
 10
-1.47249969E+02
 20
2.16369434E+02
 11
-1.45249908E+02
 21
2.16369434E+02
  0
LINE
  8
0
 62
7
 10
-1.47249908E+02
 20
2.00369449E+02
 11
-1.45249908E+02
 21
2.00369449E+02
  0
LINE
  8
0
 62
7
 10
-1.55249908E+02
 20
2.15369465E+02
 11
-1.55249908E+02
 21
2.01369434E+02
  0
LINE
  8
0
 62
7
 10
-1.79249969E+02
 20
2.02869434E+02
 11
-1.79249969E+02
 21
2.13869465E+02
  0
LINE
  8
0
 62
7
 10
-1.77749908E+02
 20
2.15369465E+02
 11
-1.72750031E+02
 21
2.15369465E+02
  0
LINE
  8
0
 62
7
 10
-1.58249969E+02
 20
2.01369434E+02
 11
-1.58249969E+02
 21
2.15369465E+02
  0
LINE
  8
0
 62
2
 10
-1.78449982E+02
 20
2.14669452E+02
 11
-1.72750031E+02
 21
2.14669452E+02
  0
LINE
  8
0
 62
7
 10
-1.55249908E+02
 20
2.15369465E+02
 11
-1.48249969E+02
 21
2.15369465E+02
  0
LINE
  8
0
 62
7
 10
-1.77749969E+02
 20
2.01369434E+02
 11
-1.72750031E+02
 21
2.01369434E+02
  0
LINE
  8
0
 62
2
 10
-1.78449982E+02
 20
2.02069431E+02
 11
-1.72750031E+02
 21
2.02069431E+02
  0
LINE
  8
0
 62
7
 10
-1.55249908E+02
 20
2.01369434E+02
 11
-1.48249878E+02
 21
2.01369434E+02
  0
LINE
  8
0
 62
7
 10
-1.48249965E+02
 20
2.15369505E+02
 11
-1.47250015E+02
 21
2.16369455E+02
  0
LINE
  8
0
 62
7
 10
-1.48249928E+02
 20
2.01369480E+02
 11
-1.47249905E+02
 21
2.00369457E+02
  0
LINE
  8
0
 62
7
 10
-1.52249908E+02
 20
2.15369465E+02
 11
-1.52249908E+02
 21
2.01369434E+02
  0
LINE
  8
0
 62
7
 10
-1.77749969E+02
 20
2.01369434E+02
 11
-1.77749969E+02
 21
2.15369465E+02
  0
LINE
  8
0
 62
7
 10
-1.79249968E+02
 20
2.02869446E+02
 11
-1.77749955E+02
 21
2.01369433E+02
  0
LINE
  8
0
 62
7
 10
-1.79249941E+02
 20
2.13869455E+02
 11
-1.77749911E+02
 21
2.15369455E+02
  0
LINE
  8
0
 62
7
 10
-1.58249969E+02
 20
2.14669452E+02
 11
-1.55249908E+02
 21
2.14669452E+02
  0
LINE
  8
0
 62
7
 10
-1.58249969E+02
 20
2.02069431E+02
 11
-1.55249908E+02
 21
2.02069431E+02
  0
CIRCLE
  8
0
 62
7
 10
3.47499084E+01
 20
2.12369404E+02
 40
5.65999985E+00
  0
CIRCLE
  8
0
 62
7
 10
-8.97499847E+01
 20
1.98369465E+02
 40
4.00000000E+00
  0
CIRCLE
  8
0
 62
7
 10
2.72499008E+01
 20
1.98369465E+02
 40
4.00000000E+00
  0
ARC
  8
0
 62
7
 10
5.42499542E+01
 20
2.23869449E+02
 40
5.00000000E-01
 50
3.59999932E+02
 51
8.99999274E+01
  0
ARC
  8
0
 62
7
 10
5.42499542E+01
 20
1.92869480E+02
 40
5.00000000E-01
 50
2.69999963E+02
 51
3.59999945E+02
  0
CIRCLE
  8
0
 62
7
 10
-8.97499847E+01
 20
1.98369465E+02
 40
2.09999990E+00
  0
CIRCLE
  8
0
 62
7
 10
2.72499008E+01
 20
1.98369465E+02
 40
2.09999990E+00
  0
ARC
  8
0
 62
7
 10
-9.95153961E+01
 20
2.41491962E+02
 40
2.50000000E+00
 50
8.23085878E+01
 51
1.73627166E+02
  0
ARC
  8
0
 62
7
 10
-9.69844971E+01
 20
2.41491962E+02
 40
2.50000000E+00
 50
0.00000000E+00
 51
8.23085741E+01
  0
ARC
  8
0
 62
7
 10
-1.21515381E+02
 20
2.41491962E+02
 40
2.50000000E+00
 50
9.76913759E+01
 51
1.79999951E+02
  0
ARC
  8
0
 62
7
 10
-1.18984512E+02
 20
2.41491962E+02
 40
2.50000000E+00
 50
6.37281240E+00
 51
9.76913896E+01
  0
CIRCLE
  8
0
 62
2
 10
3.47499084E+01
 20
2.12369404E+02
 40
6.57849979E+00
  0
CIRCLE
  8
0
 62
2
 10
-1.09249985E+02
 20
2.12369404E+02
 40
6.57849979E+00
  0
CIRCLE
  8
0
 62
7
 10
-1.09249985E+02
 20
2.12369404E+02
 40
5.65999985E+00
  0
LINE
  8
0
 62
4
 10
-1.64750031E+02
 20
1.97369465E+02
 11
-1.64750031E+02
 21
2.19369465E+02
  0
LINE
  8
0
 62
4
 10
-1.72750031E+02
 20
1.97369465E+02
 11
-1.72750031E+02
 21
2.19369465E+02
  0
LINE
  8
0
 62
4
 10
-1.71767550E+02
 20
2.08369465E+02
 11
-1.65732511E+02
 21
2.08369465E+02
  0
LINE
  8
0
 62
4
 10
-1.72750031E+02
 20
2.19369465E+02
 11
-1.64750031E+02
 21
2.19369465E+02
  0
LINE
  8
0
 62
4
 10
-1.72750031E+02
 20
1.97369465E+02
 11
-1.64750031E+02
 21
1.97369465E+02
  0
ARC
  8
0
 62
4
 10
-1.80635980E+02
 20
2.02869465E+02
 40
1.58859499E+01
 50
3.39743842E+02
 51
2.02561578E+01
  0
ARC
  8
0
 62
4
 10
-1.80635980E+02
 20
2.13869465E+02
 40
1.58859499E+01
 50
3.39743842E+02
 51
2.02561578E+01
  0
ARC
  8
0
 62
4
 10
-1.56864083E+02
 20
2.13869465E+02
 40
1.58859474E+01
 50
1.59743839E+02
 51
2.00256161E+02
  0
ARC
  8
0
 62
4
 10
-1.56864083E+02
 20
2.02869465E+02
 40
1.58859473E+01
 50
1.59743839E+02
 51
2.00256161E+02
  0
LINE
  8
0
 62
7
 10
-1.64750031E+02
 20
2.15369465E+02
 11
-1.58249969E+02
 21
2.15369465E+02
  0
LINE
  8
0
 62
2
 10
-1.64750031E+02
 20
2.14669452E+02
 11
-1.58249969E+02
 21
2.14669452E+02
  0
LINE
  8
0
 62
7
 10
-1.64750031E+02
 20
2.01369434E+02
 11
-1.58249969E+02
 21
2.01369434E+02
  0
LINE
  8
0
 62
2
 10
-1.64750031E+02
 20
2.02069431E+02
 11
-1.58249969E+02
 21
2.02069431E+02
  0
LINE
  8
0
 62
6
 10
-2.30179949E+01
 20
2.08036105E+02
 11
-2.64820966E+01
 21
2.02036105E+02
  0
LINE
  8
0
 62
4
 10
-1.47500458E+01
 20
2.06536105E+02
 11
-2.38840204E+01
 21
2.06536105E+02
  0
LINE
  8
0
  6
CENTER
 62
6
 10
2.02499542E+01
 20
2.05036105E+02
 11
-2.67500458E+01
 21
2.05036105E+02
  0
LINE
  8
0
 62
4
 10
-1.47500458E+01
 20
2.03536105E+02
 11
-2.56160712E+01
 21
2.03536105E+02
  0
LINE
  8
0
 62
6
 10
-3.54820051E+01
 20
2.08702824E+02
 11
-3.20179034E+01
 21
2.14702824E+02
  0
LINE
  8
0
 62
4
 10
-4.37499542E+01
 20
2.10202824E+02
 11
-3.46159796E+01
 21
2.10202824E+02
  0
LINE
  8
0
  6
CENTER
 62
6
 10
-7.87499542E+01
 20
2.11702824E+02
 11
-3.17499542E+01
 21
2.11702824E+02
  0
LINE
  8
0
 62
4
 10
-4.37499542E+01
 20
2.13202824E+02
 11
-3.28839288E+01
 21
2.13202824E+02
  0
LINE
  8
0
 62
6
 10
-9.75004580E+00
 20
1.79366144E+02
 11
-9.75004580E+00
 21
1.81717181E+02
  0
LINE
  8
0
 62
6
 10
-1.27500458E+01
 20
1.79366144E+02
 11
-1.27500458E+01
 21
1.81717181E+02
  0
LINE
  8
0
 62
4
 10
-9.25004580E+00
 20
1.79595859E+02
 11
-9.25004580E+00
 21
1.81717181E+02
  0
LINE
  8
0
 62
4
 10
-1.32500458E+01
 20
1.79595859E+02
 11
-1.32500458E+01
 21
1.81717181E+02
  0
LINE
  8
0
 62
4
 10
2.49954224E-01
 20
1.81717181E+02
 11
2.49954224E-01
 21
1.94425178E+02
  0
LINE
  8
0
 62
4
 10
-1.47500458E+01
 20
1.81717181E+02
 11
-1.47500458E+01
 21
2.07347068E+02
  0
LINE
  8
0
 62
4
 10
1.52499542E+01
 20
1.94425178E+02
 11
1.52499542E+01
 21
2.06374639E+02
  0
LINE
  8
0
  6
CENTER
 62
6
 10
-1.12500458E+01
 20
1.76253886E+02
 11
-1.12500458E+01
 21
1.86519465E+02
  0
LINE
  8
0
  6
CENTER
 62
6
 10
-3.25004581E+00
 20
1.76253886E+02
 11
-3.25004581E+00
 21
1.86519465E+02
  0
LINE
  8
0
  6
CENTER
 62
6
 10
2.49954224E-01
 20
2.03457883E+02
 11
2.49954224E-01
 21
2.08457883E+02
  0
LINE
  8
0
 62
4
 10
2.49954231E-01
 20
1.81717181E+02
 11
-1.47500458E+01
 21
1.81717181E+02
  0
LINE
  8
0
 62
4
 10
2.49954231E-01
 20
1.87531523E+02
 11
-1.47500458E+01
 21
1.87531523E+02
  0
LINE
  8
0
 62
4
 10
1.52499542E+01
 20
1.94425178E+02
 11
-1.47500458E+01
 21
1.94425178E+02
  0
LINE
  8
0
 62
4
 10
1.52499542E+01
 20
2.04568698E+02
 11
-1.47500458E+01
 21
2.04568698E+02
  0
LINE
  8
0
 62
4
 10
-1.06500458E+01
 20
2.07347068E+02
 11
-1.47500458E+01
 21
2.07347068E+02
  0
LINE
  8
0
 62
4
 10
-1.06500458E+01
 20
2.07173420E+02
 11
-1.47500458E+01
 21
2.07173420E+02
  0
LINE
  8
0
 62
4
 10
1.52499542E+01
 20
2.06374639E+02
 11
4.39995424E+00
 21
2.06374639E+02
  0
POLYLINE
  8
0
 62
4
 66
1
  0
VERTEX
  8
0
 62
4
 10
-1.32500458E+01
 20
1.79595859E+02
  0
VERTEX
  8
0
 62
4
 10
-1.32419944E+01
 20
1.79564728E+02
  0
VERTEX
  8
0
 62
4
 10
-1.32179050E+01
 20
1.79533847E+02
  0
VERTEX
  8
0
 62
4
 10
-1.31779715E+01
 20
1.79503465E+02
  0
VERTEX
  8
0
 62
4
 10
-1.31225155E+01
 20
1.79473828E+02
  0
VERTEX
  8
0
 62
4
 10
-1.30519835E+01
 20
1.79445173E+02
  0
VERTEX
  8
0
 62
4
 10
-1.29669434E+01
 20
1.79417731E+02
  0
VERTEX
  8
0
 62
4
 10
-1.28680798E+01
 20
1.79391723E+02
  0
VERTEX
  8
0
 62
4
 10
-1.27561887E+01
 20
1.79367359E+02
  0
VERTEX
  8
0
 62
4
 10
-1.26321711E+01
 20
1.79344835E+02
  0
VERTEX
  8
0
 62
4
 10
-1.24970254E+01
 20
1.79324332E+02
  0
VERTEX
  8
0
 62
4
 10
-1.23518398E+01
 20
1.79306015E+02
  0
VERTEX
  8
0
 62
4
 10
-1.21977831E+01
 20
1.79290031E+02
  0
VERTEX
  8
0
 62
4
 10
-1.20360959E+01
 20
1.79276510E+02
  0
VERTEX
  8
0
 62
4
 10
-1.18680798E+01
 20
1.79265561E+02
  0
VERTEX
  8
0
 62
4
 10
-1.16950877E+01
 20
1.79257270E+02
  0
VERTEX
  8
0
 62
4
 10
-1.15185123E+01
 20
1.79251706E+02
  0
VERTEX
  8
0
 62
4
 10
-1.13397755E+01
 20
1.79248912E+02
  0
VERTEX
  8
0
 62
4
 10
-1.11603162E+01
 20
1.79248912E+02
  0
VERTEX
  8
0
 62
4
 10
-1.09815793E+01
 20
1.79251706E+02
  0
VERTEX
  8
0
 62
4
 10
-1.08050039E+01
 20
1.79257270E+02
  0
VERTEX
  8
0
 62
4
 10
-1.06320118E+01
 20
1.79265561E+02
  0
VERTEX
  8
0
 62
4
 10
-1.04639957E+01
 20
1.79276510E+02
  0
VERTEX
  8
0
 62
4
 10
-1.03023085E+01
 20
1.79290031E+02
  0
VERTEX
  8
0
 62
4
 10
-1.01482518E+01
 20
1.79306015E+02
  0
VERTEX
  8
0
 62
4
 10
-1.00030662E+01
 20
1.79324332E+02
  0
VERTEX
  8
0
 62
4
 10
-9.86792051E+00
 20
1.79344835E+02
  0
VERTEX
  8
0
 62
4
 10
-9.74390288E+00
 20
1.79367359E+02
  0
VERTEX
  8
0
 62
4
 10
-9.63201182E+00
 20
1.79391723E+02
  0
VERTEX
  8
0
 62
4
 10
-9.53314822E+00
 20
1.79417731E+02
  0
VERTEX
  8
0
 62
4
 10
-9.44810807E+00
 20
1.79445173E+02
  0
VERTEX
  8
0
 62
4
 10
-9.37757606E+00
 20
1.79473828E+02
  0
VERTEX
  8
0
 62
4
 10
-9.32212008E+00
 20
1.79503465E+02
  0
VERTEX
  8
0
 62
4
 10
-9.28218663E+00
 20
1.79533847E+02
  0
VERTEX
  8
0
 62
4
 10
-9.25809721E+00
 20
1.79564728E+02
  0
VERTEX
  8
0
 62
4
 10
-9.25004580E+00
 20
1.79595859E+02
  0
SEQEND
  8
0
  0
LINE
  8
0
 62
6
 10
-1.75004580E+00
 20
1.79366144E+02
 11
-1.75004580E+00
 21
1.81717181E+02
  0
LINE
  8
0
 62
6
 10
-4.75004580E+00
 20
1.79366144E+02
 11
-4.75004580E+00
 21
1.81717181E+02
  0
LINE
  8
0
 62
4
 10
-1.25004580E+00
 20
1.79595859E+02
 11
-1.25004580E+00
 21
1.81717181E+02
  0
LINE
  8
0
 62
4
 10
-5.25004580E+00
 20
1.79595859E+02
 11
-5.25004580E+00
 21
1.81717181E+02
  0
POLYLINE
  8
0
 62
4
 66
1
  0
VERTEX
  8
0
 62
4
 10
-5.25004581E+00
 20
1.79595859E+02
  0
VERTEX
  8
0
 62
4
 10
-5.24199440E+00
 20
1.79564728E+02
  0
VERTEX
  8
0
 62
4
 10
-5.21790499E+00
 20
1.79533847E+02
  0
VERTEX
  8
0
 62
4
 10
-5.17797153E+00
 20
1.79503465E+02
  0
VERTEX
  8
0
 62
4
 10
-5.12251555E+00
 20
1.79473828E+02
  0
VERTEX
  8
0
 62
4
 10
-5.05198355E+00
 20
1.79445173E+02
  0
VERTEX
  8
0
 62
4
 10
-4.96694340E+00
 20
1.79417731E+02
  0
VERTEX
  8
0
 62
4
 10
-4.86807980E+00
 20
1.79391723E+02
  0
VERTEX
  8
0
 62
4
 10
-4.75618875E+00
 20
1.79367359E+02
  0
VERTEX
  8
0
 62
4
 10
-4.63217111E+00
 20
1.79344835E+02
  0
VERTEX
  8
0
 62
4
 10
-4.49702542E+00
 20
1.79324332E+02
  0
VERTEX
  8
0
 62
4
 10
-4.35183978E+00
 20
1.79306015E+02
  0
VERTEX
  8
0
 62
4
 10
-4.19778314E+00
 20
1.79290031E+02
  0
VERTEX
  8
0
 62
4
 10
-4.03609588E+00
 20
1.79276510E+02
  0
VERTEX
  8
0
 62
4
 10
-3.86807981E+00
 20
1.79265561E+02
  0
VERTEX
  8
0
 62
4
 10
-3.69508769E+00
 20
1.79257270E+02
  0
VERTEX
  8
0
 62
4
 10
-3.51851235E+00
 20
1.79251706E+02
  0
VERTEX
  8
0
 62
4
 10
-3.33977548E+00
 20
1.79248912E+02
  0
VERTEX
  8
0
 62
4
 10
-3.16031616E+00
 20
1.79248912E+02
  0
VERTEX
  8
0
 62
4
 10
-2.98157929E+00
 20
1.79251706E+02
  0
VERTEX
  8
0
 62
4
 10
-2.80500395E+00
 20
1.79257270E+02
  0
VERTEX
  8
0
 62
4
 10
-2.63201183E+00
 20
1.79265561E+02
  0
VERTEX
  8
0
 62
4
 10
-2.46399576E+00
 20
1.79276510E+02
  0
VERTEX
  8
0
 62
4
 10
-2.30230850E+00
 20
1.79290031E+02
  0
VERTEX
  8
0
 62
4
 10
-2.14825186E+00
 20
1.79306015E+02
  0
VERTEX
  8
0
 62
4
 10
-2.00306622E+00
 20
1.79324332E+02
  0
VERTEX
  8
0
 62
4
 10
-1.86792052E+00
 20
1.79344835E+02
  0
VERTEX
  8
0
 62
4
 10
-1.74390289E+00
 20
1.79367359E+02
  0
VERTEX
  8
0
 62
4
 10
-1.63201183E+00
 20
1.79391723E+02
  0
VERTEX
  8
0
 62
4
 10
-1.53314823E+00
 20
1.79417731E+02
  0
VERTEX
  8
0
 62
4
 10
-1.44810808E+00
 20
1.79445173E+02
  0
VERTEX
  8
0
 62
4
 10
-1.37757607E+00
 20
1.79473828E+02
  0
VERTEX
  8
0
 62
4
 10
-1.32212009E+00
 20
1.79503465E+02
  0
VERTEX
  8
0
 62
4
 10
-1.28218664E+00
 20
1.79533847E+02
  0
VERTEX
  8
0
 62
4
 10
-1.25809722E+00
 20
1.79564728E+02
  0
VERTEX
  8
0
 62
4
 10
-1.25004581E+00
 20
1.79595859E+02
  0
SEQEND
  8
0
  0
LINE
  8
0
 62
4
 10
1.52499542E+01
 20
2.02719193E+02
 11
1.67499542E+01
 21
2.03722126E+02
  0
LINE
  8
0
 62
4
 10
1.67499542E+01
 20
2.03722126E+02
 11
1.67499542E+01
 21
2.06346029E+02
  0
LINE
  8
0
 62
4
 10
1.67499542E+01
 20
2.05952715E+02
 11
1.52499542E+01
 21
2.06658424E+02
  0
LINE
  8
0
 62
4
 10
1.67499542E+01
 20
2.06346029E+02
 11
1.52499542E+01
 21
2.07353017E+02
  0
LINE
  8
0
 62
4
 10
1.52499542E+01
 20
2.07353017E+02
 11
4.39995424E+00
 21
2.07353017E+02
  0
LINE
  8
0
 62
4
 10
1.52499542E+01
 20
2.06658424E+02
 11
4.39995424E+00
 21
2.06658424E+02
  0
LINE
  8
0
 62
4
 10
1.52499542E+01
 20
2.06374639E+02
 11
1.52499542E+01
 21
2.07347068E+02
  0
POLYLINE
  8
0
 62
4
 66
1
  0
VERTEX
  8
0
 62
4
 10
-3.45004577E+00
 20
2.06005739E+02
  0
VERTEX
  8
0
 62
4
 10
-3.26823079E+00
 20
2.05949892E+02
  0
VERTEX
  8
0
 62
4
 10
-3.05853353E+00
 20
2.05897073E+02
  0
VERTEX
  8
0
 62
4
 10
-2.82261590E+00
 20
2.05847703E+02
  0
VERTEX
  8
0
 62
4
 10
-2.56234757E+00
 20
2.05802171E+02
  0
VERTEX
  8
0
 62
4
 10
-2.27979123E+00
 20
2.05760840E+02
  0
VERTEX
  8
0
 62
4
 10
-1.97718619E+00
 20
2.05724035E+02
  0
VERTEX
  8
0
 62
4
 10
-1.65693064E+00
 20
2.05692050E+02
  0
VERTEX
  8
0
 62
4
 10
-1.32156267E+00
 20
2.05665137E+02
  0
VERTEX
  8
0
 62
4
 10
-9.73740138E-01
 20
2.05643511E+02
  0
VERTEX
  8
0
 62
4
 10
-6.16219601E-01
 20
2.05627341E+02
  0
VERTEX
  8
0
 62
4
 10
-2.51834474E-01
 20
2.05616757E+02
  0
VERTEX
  8
0
 62
4
 10
1.16527421E-01
 20
2.05611843E+02
  0
VERTEX
  8
0
 62
4
 10
4.85946749E-01
 20
2.05612636E+02
  0
VERTEX
  8
0
 62
4
 10
8.53495792E-01
 20
2.05619132E+02
  0
VERTEX
  8
0
 62
4
 10
1.21626166E+00
 20
2.05631278E+02
  0
VERTEX
  8
0
 62
4
 10
1.57136935E+00
 20
2.05648978E+02
  0
VERTEX
  8
0
 62
4
 10
1.91600459E+00
 20
2.05672092E+02
  0
VERTEX
  8
0
 62
4
 10
2.24743606E+00
 20
2.05700437E+02
  0
VERTEX
  8
0
 62
4
 10
2.56303712E+00
 20
2.05733788E+02
  0
VERTEX
  8
0
 62
4
 10
2.86030657E+00
 20
2.05771881E+02
  0
VERTEX
  8
0
 62
4
 10
3.13688849E+00
 20
2.05814414E+02
  0
VERTEX
  8
0
 62
4
 10
3.39059091E+00
 20
2.05861049E+02
  0
VERTEX
  8
0
 62
4
 10
3.61940321E+00
 20
2.05911418E+02
  0
VERTEX
  8
0
 62
4
 10
3.82151199E+00
 20
2.05965121E+02
  0
VERTEX
  8
0
 62
4
 10
3.99531551E+00
 20
2.06021733E+02
  0
VERTEX
  8
0
 62
4
 10
4.13943635E+00
 20
2.06080804E+02
  0
VERTEX
  8
0
 62
4
 10
4.25273231E+00
 20
2.06141867E+02
  0
VERTEX
  8
0
 62
4
 10
4.33430552E+00
 20
2.06204437E+02
  0
VERTEX
  8
0
 62
4
 10
4.38350947E+00
 20
2.06268020E+02
  0
VERTEX
  8
0
 62
4
 10
4.39995423E+00
 20
2.06332110E+02
  0
SEQEND
  8
0
  0
ARC
  8
0
 62
4
 10
2.42215930E-01
 20
1.97175004E+02
 40
1.18100000E+01
 50
8.99624577E+01
 51
1.09675998E+02
  0
ARC
  8
0
 62
4
 10
2.57692517E-01
 20
1.97175004E+02
 40
1.18100000E+01
 50
7.03240015E+01
 51
9.00375421E+01
  0
LINE
  8
0
 62
4
 10
4.39995424E+00
 20
2.08060035E+02
 11
4.39995424E+00
 21
2.06332110E+02
  0
LINE
  8
0
 62
4
 10
-3.90004579E+00
 20
2.08060035E+02
 11
-3.90004579E+00
 21
2.07920926E+02
  0
LINE
  8
0
 62
4
 10
4.24995422E+00
 20
2.05957883E+02
 11
4.24995422E+00
 21
2.06140113E+02
  0
POLYLINE
  8
0
 62
4
 66
1
  0
VERTEX
  8
0
 62
4
 10
-3.45004577E+00
 20
2.05693961E+02
  0
VERTEX
  8
0
 62
4
 10
-3.30073780E+00
 20
2.05638041E+02
  0
VERTEX
  8
0
 62
4
 10
-3.12346912E+00
 20
2.05584640E+02
  0
VERTEX
  8
0
 62
4
 10
-2.91963567E+00
 20
2.05534178E+02
  0
VERTEX
  8
0
 62
4
 10
-2.69084258E+00
 20
2.05487053E+02
  0
VERTEX
  8
0
 62
4
 10
-2.43889153E+00
 20
2.05443635E+02
  0
VERTEX
  8
0
 62
4
 10
-2.16576657E+00
 20
2.05404267E+02
  0
VERTEX
  8
0
 62
4
 10
-1.87361848E+00
 20
2.05369258E+02
  0
VERTEX
  8
0
 62
4
 10
-1.56474785E+00
 20
2.05338885E+02
  0
VERTEX
  8
0
 62
4
 10
-1.24158694E+00
 20
2.05313386E+02
  0
VERTEX
  8
0
 62
4
 10
-9.06680562E-01
 20
2.05292962E+02
  0
VERTEX
  8
0
 62
4
 10
-5.62666007E-01
 20
2.05277775E+02
  0
VERTEX
  8
0
 62
4
 10
-2.12252293E-01
 20
2.05267943E+02
  0
VERTEX
  8
0
 62
4
 10
1.41801169E-01
 20
2.05263544E+02
  0
VERTEX
  8
0
 62
4
 10
4.96706305E-01
 20
2.05264613E+02
  0
VERTEX
  8
0
 62
4
 10
8.49668338E-01
 20
2.05271141E+02
  0
VERTEX
  8
0
 62
4
 10
1.19790779E+00
 20
2.05283077E+02
  0
VERTEX
  8
0
 62
4
 10
1.53868237E+00
 20
2.05300328E+02
  0
VERTEX
  8
0
 62
4
 10
1.86930857E+00
 20
2.05322756E+02
  0
VERTEX
  8
0
 62
4
 10
2.18718281E+00
 20
2.05350185E+02
  0
VERTEX
  8
0
 62
4
 10
2.48980192E+00
 20
2.05382400E+02
  0
VERTEX
  8
0
 62
4
 10
2.77478284E+00
 20
2.05419147E+02
  0
VERTEX
  8
0
 62
4
 10
3.03988145E+00
 20
2.05460136E+02
  0
VERTEX
  8
0
 62
4
 10
3.28301015E+00
 20
2.05505045E+02
  0
VERTEX
  8
0
 62
4
 10
3.50225438E+00
 20
2.05553520E+02
  0
VERTEX
  8
0
 62
4
 10
3.69588765E+00
 20
2.05605179E+02
  0
VERTEX
  8
0
 62
4
 10
3.86238516E+00
 20
2.05659615E+02
  0
VERTEX
  8
0
 62
4
 10
4.00043578E+00
 20
2.05716400E+02
  0
VERTEX
  8
0
 62
4
 10
4.10895239E+00
 20
2.05775087E+02
  0
VERTEX
  8
0
 62
4
 10
4.18708047E+00
 20
2.05835214E+02
  0
VERTEX
  8
0
 62
4
 10
4.23420478E+00
 20
2.05896306E+02
  0
VERTEX
  8
0
 62
4
 10
4.24995422E+00
 20
2.05957883E+02
  0
SEQEND
  8
0
  0
ARC
  8
0
 62
4
 10
2.36855978E+00
 20
1.96473794E+02
 40
1.25124521E+01
 50
9.49416351E+01
 51
1.08095416E+02
  0
ARC
  8
0
 62
4
 10
-1.86865162E+00
 20
1.96473791E+02
 40
1.25124547E+01
 50
7.19045858E+01
 51
8.50583647E+01
  0
POLYLINE
  8
0
 62
4
 66
1
  0
VERTEX
  8
0
 62
4
 10
-3.90004579E+00
 20
2.08065372E+02
  0
VERTEX
  8
0
 62
4
 10
-3.88333911E+00
 20
2.08000774E+02
  0
VERTEX
  8
0
 62
4
 10
-3.83335358E+00
 20
2.07936697E+02
  0
VERTEX
  8
0
 62
4
 10
-3.75049166E+00
 20
2.07873655E+02
  0
VERTEX
  8
0
 62
4
 10
-3.63542050E+00
 20
2.07812157E+02
  0
VERTEX
  8
0
 62
4
 10
-3.48906659E+00
 20
2.07752698E+02
  0
VERTEX
  8
0
 62
4
 10
-3.31260829E+00
 20
2.07695756E+02
  0
VERTEX
  8
0
 62
4
 10
-3.10746632E+00
 20
2.07641790E+02
  0
VERTEX
  8
0
 62
4
 10
-2.87529238E+00
 20
2.07591235E+02
  0
VERTEX
  8
0
 62
4
 10
-2.61795579E+00
 20
2.07544497E+02
  0
VERTEX
  8
0
 62
4
 10
-2.33752847E+00
 20
2.07501953E+02
  0
VERTEX
  8
0
 62
4
 10
-2.03626827E+00
 20
2.07463945E+02
  0
VERTEX
  8
0
 62
4
 10
-1.71660075E+00
 20
2.07430780E+02
  0
VERTEX
  8
0
 62
4
 10
-1.38109968E+00
 20
2.07402724E+02
  0
VERTEX
  8
0
 62
4
 10
-1.03246633E+00
 20
2.07380003E+02
  0
VERTEX
  8
0
 62
4
 10
-6.73507675E-01
 20
2.07362800E+02
  0
VERTEX
  8
0
 62
4
 10
-3.07113852E-01
 20
2.07351254E+02
  0
VERTEX
  8
0
 62
4
 10
6.37651555E-02
 20
2.07345458E+02
  0
VERTEX
  8
0
 62
4
 10
4.36143248E-01
 20
2.07345458E+02
  0
VERTEX
  8
0
 62
4
 10
8.07022256E-01
 20
2.07351254E+02
  0
VERTEX
  8
0
 62
4
 10
1.17341608E+00
 20
2.07362800E+02
  0
VERTEX
  8
0
 62
4
 10
1.53237473E+00
 20
2.07380003E+02
  0
VERTEX
  8
0
 62
4
 10
1.88100809E+00
 20
2.07402724E+02
  0
VERTEX
  8
0
 62
4
 10
2.21650916E+00
 20
2.07430780E+02
  0
VERTEX
  8
0
 62
4
 10
2.53617668E+00
 20
2.07463945E+02
  0
VERTEX
  8
0
 62
4
 10
2.83743689E+00
 20
2.07501953E+02
  0
VERTEX
  8
0
 62
4
 10
3.11786421E+00
 20
2.07544497E+02
  0
VERTEX
  8
0
 62
4
 10
3.37520080E+00
 20
2.07591235E+02
  0
VERTEX
  8
0
 62
4
 10
3.60737474E+00
 20
2.07641790E+02
  0
VERTEX
  8
0
 62
4
 10
3.81251671E+00
 20
2.07695756E+02
  0
VERTEX
  8
0
 62
4
 10
3.98897502E+00
 20
2.07752698E+02
  0
VERTEX
  8
0
 62
4
 10
4.13532894E+00
 20
2.07812157E+02
  0
VERTEX
  8
0
 62
4
 10
4.25040010E+00
 20
2.07873655E+02
  0
VERTEX
  8
0
 62
4
 10
4.33326202E+00
 20
2.07936697E+02
  0
VERTEX
  8
0
 62
4
 10
4.38324755E+00
 20
2.08000774E+02
  0
VERTEX
  8
0
 62
4
 10
4.39995423E+00
 20
2.08065372E+02
  0
SEQEND
  8
0
  0
ARC
  8
0
 62
4
 10
4.14995424E+00
 20
2.08060035E+02
 40
2.50000000E-01
 50
0.00000000E+00
 51
7.03240015E+01
  0
ARC
  8
0
 62
4
 10
-3.65004579E+00
 20
2.08060035E+02
 40
2.50000000E-01
 50
1.09675998E+02
 51
1.80000000E+02
  0
LINE
  8
0
 62
4
 10
-3.45004578E+00
 20
2.06334922E+02
 11
-3.45004578E+00
 21
2.05350114E+02
  0
LINE
  8
0
 62
4
 10
-1.10500458E+01
 20
2.06334922E+02
 11
-1.10500458E+01
 21
2.05350114E+02
  0
POLYLINE
  8
0
 62
4
 66
1
  0
VERTEX
  8
0
 62
4
 10
-1.10500458E+01
 20
2.05350114E+02
  0
VERTEX
  8
0
 62
4
 10
-1.10347481E+01
 20
2.05290964E+02
  0
VERTEX
  8
0
 62
4
 10
-1.09889782E+01
 20
2.05232291E+02
  0
VERTEX
  8
0
 62
4
 10
-1.09131047E+01
 20
2.05174566E+02
  0
VERTEX
  8
0
 62
4
 10
-1.08077383E+01
 20
2.05118255E+02
  0
VERTEX
  8
0
 62
4
 10
-1.06737275E+01
 20
2.05063810E+02
  0
VERTEX
  8
0
 62
4
 10
-1.05121512E+01
 20
2.05011671E+02
  0
VERTEX
  8
0
 62
4
 10
-1.03243104E+01
 20
2.04962256E+02
  0
VERTEX
  8
0
 62
4
 10
-1.01117174E+01
 20
2.04915965E+02
  0
VERTEX
  8
0
 62
4
 10
-9.87608386E+00
 20
2.04873168E+02
  0
VERTEX
  8
0
 62
4
 10
-9.61930704E+00
 20
2.04834212E+02
  0
VERTEX
  8
0
 62
4
 10
-9.34345432E+00
 20
2.04799410E+02
  0
VERTEX
  8
0
 62
4
 10
-9.05074671E+00
 20
2.04769042E+02
  0
VERTEX
  8
0
 62
4
 10
-8.74354092E+00
 20
2.04743352E+02
  0
VERTEX
  8
0
 62
4
 10
-8.42431038E+00
 20
2.04722547E+02
  0
VERTEX
  8
0
 62
4
 10
-8.09562535E+00
 20
2.04706795E+02
  0
VERTEX
  8
0
 62
4
 10
-7.76013221E+00
 20
2.04696223E+02
  0
VERTEX
  8
0
 62
4
 10
-7.42053216E+00
 20
2.04690915E+02
  0
VERTEX
  8
0
 62
4
 10
-7.07955945E+00
 20
2.04690915E+02
  0
VERTEX
  8
0
 62
4
 10
-6.73995939E+00
 20
2.04696223E+02
  0
VERTEX
  8
0
 62
4
 10
-6.40446625E+00
 20
2.04706795E+02
  0
VERTEX
  8
0
 62
4
 10
-6.07578122E+00
 20
2.04722547E+02
  0
VERTEX
  8
0
 62
4
 10
-5.75655068E+00
 20
2.04743352E+02
  0
VERTEX
  8
0
 62
4
 10
-5.44934488E+00
 20
2.04769042E+02
  0
VERTEX
  8
0
 62
4
 10
-5.15663727E+00
 20
2.04799410E+02
  0
VERTEX
  8
0
 62
4
 10
-4.88078455E+00
 20
2.04834212E+02
  0
VERTEX
  8
0
 62
4
 10
-4.62400773E+00
 20
2.04873168E+02
  0
VERTEX
  8
0
 62
4
 10
-4.38837423E+00
 20
2.04915965E+02
  0
VERTEX
  8
0
 62
4
 10
-4.17578122E+00
 20
2.04962256E+02
  0
VERTEX
  8
0
 62
4
 10
-3.98794038E+00
 20
2.05011671E+02
  0
VERTEX
  8
0
 62
4
 10
-3.82636409E+00
 20
2.05063810E+02
  0
VERTEX
  8
0
 62
4
 10
-3.69235328E+00
 20
2.05118255E+02
  0
VERTEX
  8
0
 62
4
 10
-3.58698692E+00
 20
2.05174566E+02
  0
VERTEX
  8
0
 62
4
 10
-3.51111335E+00
 20
2.05232291E+02
  0
VERTEX
  8
0
 62
4
 10
-3.46534347E+00
 20
2.05290964E+02
  0
VERTEX
  8
0
 62
4
 10
-3.45004578E+00
 20
2.05350114E+02
  0
SEQEND
  8
0
  0
POLYLINE
  8
0
 62
4
 66
1
  0
VERTEX
  8
0
 62
4
 10
-1.06500458E+01
 20
2.06629613E+02
  0
VERTEX
  8
0
 62
4
 10
-1.07866275E+01
 20
2.06576324E+02
  0
VERTEX
  8
0
 62
4
 10
-1.08955753E+01
 20
2.06521148E+02
  0
VERTEX
  8
0
 62
4
 10
-1.09760381E+01
 20
2.06464518E+02
  0
VERTEX
  8
0
 62
4
 10
-1.10273871E+01
 20
2.06406875E+02
  0
VERTEX
  8
0
 62
4
 10
-1.10492210E+01
 20
2.06348669E+02
  0
VERTEX
  8
0
 62
4
 10
-1.10413694E+01
 20
2.06290356E+02
  0
VERTEX
  8
0
 62
4
 10
-1.10038934E+01
 20
2.06232392E+02
  0
VERTEX
  8
0
 62
4
 10
-1.09370860E+01
 20
2.06175229E+02
  0
VERTEX
  8
0
 62
4
 10
-1.08414692E+01
 20
2.06119313E+02
  0
VERTEX
  8
0
 62
4
 10
-1.07177900E+01
 20
2.06065082E+02
  0
VERTEX
  8
0
 62
4
 10
-1.05670149E+01
 20
2.06012960E+02
  0
VERTEX
  8
0
 62
4
 10
-1.03903220E+01
 20
2.05963353E+02
  0
VERTEX
  8
0
 62
4
 10
-1.01890919E+01
 20
2.05916649E+02
  0
VERTEX
  8
0
 62
4
 10
-9.96489702E+00
 20
2.05873214E+02
  0
VERTEX
  8
0
 62
4
 10
-9.71948906E+00
 20
2.05833387E+02
  0
VERTEX
  8
0
 62
4
 10
-9.45478560E+00
 20
2.05797478E+02
  0
VERTEX
  8
0
 62
4
 10
-9.17285496E+00
 20
2.05765769E+02
  0
VERTEX
  8
0
 62
4
 10
-8.87590006E+00
 20
2.05738507E+02
  0
VERTEX
  8
0
 62
4
 10
-8.56624122E+00
 20
2.05715905E+02
  0
VERTEX
  8
0
 62
4
 10
-8.24629801E+00
 20
2.05698140E+02
  0
VERTEX
  8
0
 62
4
 10
-7.91857039E+00
 20
2.05685351E+02
  0
VERTEX
  8
0
 62
4
 10
-7.58561911E+00
 20
2.05677637E+02
  0
VERTEX
  8
0
 62
4
 10
-7.25004576E+00
 20
2.05675059E+02
  0
VERTEX
  8
0
 62
4
 10
-6.91447241E+00
 20
2.05677637E+02
  0
VERTEX
  8
0
 62
4
 10
-6.58152114E+00
 20
2.05685351E+02
  0
VERTEX
  8
0
 62
4
 10
-6.25379351E+00
 20
2.05698140E+02
  0
VERTEX
  8
0
 62
4
 10
-5.93385031E+00
 20
2.05715905E+02
  0
VERTEX
  8
0
 62
4
 10
-5.62419147E+00
 20
2.05738507E+02
  0
VERTEX
  8
0
 62
4
 10
-5.32723657E+00
 20
2.05765769E+02
  0
VERTEX
  8
0
 62
4
 10
-5.04530593E+00
 20
2.05797478E+02
  0
VERTEX
  8
0
 62
4
 10
-4.78060247E+00
 20
2.05833387E+02
  0
VERTEX
  8
0
 62
4
 10
-4.53519451E+00
 20
2.05873214E+02
  0
VERTEX
  8
0
 62
4
 10
-4.31099960E+00
 20
2.05916649E+02
  0
VERTEX
  8
0
 62
4
 10
-4.10976952E+00
 20
2.05963353E+02
  0
VERTEX
  8
0
 62
4
 10
-3.93307662E+00
 20
2.06012960E+02
  0
VERTEX
  8
0
 62
4
 10
-3.78230154E+00
 20
2.06065082E+02
  0
VERTEX
  8
0
 62
4
 10
-3.65862239E+00
 20
2.06119313E+02
  0
VERTEX
  8
0
 62
4
 10
-3.56300555E+00
 20
2.06175229E+02
  0
VERTEX
  8
0
 62
4
 10
-3.49619815E+00
 20
2.06232392E+02
  0
VERTEX
  8
0
 62
4
 10
-3.45872220E+00
 20
2.06290356E+02
  0
VERTEX
  8
0
 62
4
 10
-3.45087053E+00
 20
2.06348669E+02
  0
VERTEX
  8
0
 62
4
 10
-3.47270449E+00
 20
2.06406875E+02
  0
VERTEX
  8
0
 62
4
 10
-3.52405347E+00
 20
2.06464518E+02
  0
VERTEX
  8
0
 62
4
 10
-3.60451625E+00
 20
2.06521148E+02
  0
VERTEX
  8
0
 62
4
 10
-3.71346412E+00
 20
2.06576324E+02
  0
VERTEX
  8
0
 62
4
 10
-3.85004579E+00
 20
2.06629613E+02
  0
SEQEND
  8
0
  0
LINE
  8
0
 62
4
 10
-3.85004578E+00
 20
2.07608675E+02
 11
-3.85004578E+00
 21
2.06334922E+02
  0
LINE
  8
0
 62
4
 10
-1.06500458E+01
 20
2.07608675E+02
 11
-1.06500458E+01
 21
2.06334922E+02
  0
POLYLINE
  8
0
 62
4
 66
1
  0
VERTEX
  8
0
 62
4
 10
-1.06500458E+01
 20
2.06334922E+02
  0
VERTEX
  8
0
 62
4
 10
-1.06363584E+01
 20
2.06281999E+02
  0
VERTEX
  8
0
 62
4
 10
-1.05954064E+01
 20
2.06229501E+02
  0
VERTEX
  8
0
 62
4
 10
-1.05275195E+01
 20
2.06177853E+02
  0
VERTEX
  8
0
 62
4
 10
-1.04332443E+01
 20
2.06127469E+02
  0
VERTEX
  8
0
 62
4
 10
-1.03133399E+01
 20
2.06078755E+02
  0
VERTEX
  8
0
 62
4
 10
-1.01687717E+01
 20
2.06032104E+02
  0
VERTEX
  8
0
 62
4
 10
-1.00007036E+01
 20
2.05987891E+02
  0
VERTEX
  8
0
 62
4
 10
-9.81048877E+00
 20
2.05946472E+02
  0
VERTEX
  8
0
 62
4
 10
-9.59965880E+00
 20
2.05908181E+02
  0
VERTEX
  8
0
 62
4
 10
-9.36991112E+00
 20
2.05873326E+02
  0
VERTEX
  8
0
 62
4
 10
-9.12309553E+00
 20
2.05842187E+02
  0
VERTEX
  8
0
 62
4
 10
-8.86119925E+00
 20
2.05815015E+02
  0
VERTEX
  8
0
 62
4
 10
-8.58633090E+00
 20
2.05792029E+02
  0
VERTEX
  8
0
 62
4
 10
-8.30070358E+00
 20
2.05773415E+02
  0
VERTEX
  8
0
 62
4
 10
-8.00661697E+00
 20
2.05759321E+02
  0
VERTEX
  8
0
 62
4
 10
-7.70643890E+00
 20
2.05749861E+02
  0
VERTEX
  8
0
 62
4
 10
-7.40258622E+00
 20
2.05745113E+02
  0
VERTEX
  8
0
 62
4
 10
-7.09750538E+00
 20
2.05745113E+02
  0
VERTEX
  8
0
 62
4
 10
-6.79365269E+00
 20
2.05749861E+02
  0
VERTEX
  8
0
 62
4
 10
-6.49347462E+00
 20
2.05759321E+02
  0
VERTEX
  8
0
 62
4
 10
-6.19938802E+00
 20
2.05773415E+02
  0
VERTEX
  8
0
 62
4
 10
-5.91376069E+00
 20
2.05792029E+02
  0
VERTEX
  8
0
 62
4
 10
-5.63889235E+00
 20
2.05815015E+02
  0
VERTEX
  8
0
 62
4
 10
-5.37699606E+00
 20
2.05842187E+02
  0
VERTEX
  8
0
 62
4
 10
-5.13018047E+00
 20
2.05873326E+02
  0
VERTEX
  8
0
 62
4
 10
-4.90043279E+00
 20
2.05908181E+02
  0
VERTEX
  8
0
 62
4
 10
-4.68960281E+00
 20
2.05946472E+02
  0
VERTEX
  8
0
 62
4
 10
-4.49938801E+00
 20
2.05987891E+02
  0
VERTEX
  8
0
 62
4
 10
-4.33131989E+00
 20
2.06032104E+02
  0
VERTEX
  8
0
 62
4
 10
-4.18675164E+00
 20
2.06078755E+02
  0
VERTEX
  8
0
 62
4
 10
-4.06684723E+00
 20
2.06127469E+02
  0
VERTEX
  8
0
 62
4
 10
-3.97257206E+00
 20
2.06177853E+02
  0
VERTEX
  8
0
 62
4
 10
-3.90468518E+00
 20
2.06229501E+02
  0
VERTEX
  8
0
 62
4
 10
-3.86373318E+00
 20
2.06281999E+02
  0
VERTEX
  8
0
 62
4
 10
-3.85004578E+00
 20
2.06334922E+02
  0
SEQEND
  8
0
  0
ARC
  8
0
 62
4
 10
-7.25004578E+00
 20
1.97068461E+02
 40
1.18100000E+01
 50
7.71724899E+01
 51
1.02827510E+02
  0
ARC
  8
0
 62
4
 10
-9.65004610E+00
 20
2.07608675E+02
 40
1.00000000E+00
 50
1.02827510E+02
 51
1.80000000E+02
  0
ARC
  8
0
 62
4
 10
-4.85004545E+00
 20
2.07608675E+02
 40
1.00000000E+00
 50
3.60000000E+02
 51
7.71724899E+01
  0
ARC
  8
0
 62
4
 10
-5.12829223E+00
 20
1.96349318E+02
 40
1.25306621E+01
 50
9.49686598E+01
 51
1.08083352E+02
  0
ARC
  8
0
 62
4
 10
-9.37179937E+00
 20
1.96349317E+02
 40
1.25306626E+01
 50
7.19166483E+01
 51
8.50313400E+01
  0
LINE
  8
0
  6
CENTER
 62
6
 10
2.74995423E+00
 20
2.05957883E+02
 11
-2.25004577E+00
 21
2.05957883E+02
  0
LINE
  8
0
  6
CENTER
 62
6
 10
-7.25004578E+00
 20
2.02850114E+02
 11
-7.25004578E+00
 21
2.07850114E+02
  0
LINE
  8
0
  6
CENTER
 62
6
 10
-4.75004577E+00
 20
2.05350114E+02
 11
-9.75004577E+00
 21
2.05350114E+02
  0
LINE
  8
0
  6
CENTER
 62
6
 10
7.74995422E+00
 20
2.02850114E+02
 11
7.74995422E+00
 21
2.07850114E+02
  0
LINE
  8
0
  6
CENTER
 62
6
 10
1.02499542E+01
 20
2.05350114E+02
 11
5.24995423E+00
 21
2.05350114E+02
  0
LINE
  8
0
 62
4
 10
-1.10431564E+01
 20
2.06374639E+02
 11
-1.47500458E+01
 21
2.06374639E+02
  0
LINE
  8
0
 62
6
 10
-4.87499542E+01
 20
2.37372785E+02
 11
-4.87499542E+01
 21
2.35021748E+02
  0
LINE
  8
0
 62
6
 10
-4.57499542E+01
 20
2.37372785E+02
 11
-4.57499542E+01
 21
2.35021748E+02
  0
LINE
  8
0
 62
4
 10
-4.92499542E+01
 20
2.37143070E+02
 11
-4.92499542E+01
 21
2.35021748E+02
  0
LINE
  8
0
 62
4
 10
-4.52499542E+01
 20
2.37143070E+02
 11
-4.52499542E+01
 21
2.35021748E+02
  0
LINE
  8
0
 62
4
 10
-5.87499542E+01
 20
2.35021748E+02
 11
-5.87499542E+01
 21
2.22313752E+02
  0
LINE
  8
0
 62
4
 10
-4.37499542E+01
 20
2.35021748E+02
 11
-4.37499542E+01
 21
2.09391861E+02
  0
LINE
  8
0
 62
4
 10
-7.37499542E+01
 20
2.22313752E+02
 11
-7.37499542E+01
 21
2.10364291E+02
  0
LINE
  8
0
  6
CENTER
 62
6
 10
-4.72499542E+01
 20
2.40485044E+02
 11
-4.72499542E+01
 21
2.30219465E+02
  0
LINE
  8
0
  6
CENTER
 62
6
 10
-5.52499542E+01
 20
2.40485044E+02
 11
-5.52499542E+01
 21
2.30219465E+02
  0
LINE
  8
0
  6
CENTER
 62
6
 10
-5.87499542E+01
 20
2.13281046E+02
 11
-5.87499542E+01
 21
2.08281046E+02
  0
LINE
  8
0
 62
4
 10
-5.87499542E+01
 20
2.35021748E+02
 11
-4.37499542E+01
 21
2.35021748E+02
  0
LINE
  8
0
 62
4
 10
-5.87499542E+01
 20
2.29207406E+02
 11
-4.37499542E+01
 21
2.29207406E+02
  0
LINE
  8
0
 62
4
 10
-7.37499542E+01
 20
2.22313752E+02
 11
-4.37499542E+01
 21
2.22313752E+02
  0
LINE
  8
0
 62
4
 10
-7.37499542E+01
 20
2.12170232E+02
 11
-4.37499542E+01
 21
2.12170232E+02
  0
LINE
  8
0
 62
4
 10
-4.78499542E+01
 20
2.09391861E+02
 11
-4.37499542E+01
 21
2.09391861E+02
  0
LINE
  8
0
 62
4
 10
-4.78499542E+01
 20
2.09565509E+02
 11
-4.37499542E+01
 21
2.09565509E+02
  0
LINE
  8
0
 62
4
 10
-7.37499542E+01
 20
2.10364291E+02
 11
-6.28999542E+01
 21
2.10364291E+02
  0
POLYLINE
  8
0
 62
4
 66
1
  0
VERTEX
  8
0
 62
4
 10
-4.52499542E+01
 20
2.37143070E+02
  0
VERTEX
  8
0
 62
4
 10
-4.52580056E+01
 20
2.37174201E+02
  0
VERTEX
  8
0
 62
4
 10
-4.52820950E+01
 20
2.37205082E+02
  0
VERTEX
  8
0
 62
4
 10
-4.53220285E+01
 20
2.37235464E+02
  0
VERTEX
  8
0
 62
4
 10
-4.53774845E+01
 20
2.37265101E+02
  0
VERTEX
  8
0
 62
4
 10
-4.54480165E+01
 20
2.37293756E+02
  0
VERTEX
  8
0
 62
4
 10
-4.55330566E+01
 20
2.37321198E+02
  0
VERTEX
  8
0
 62
4
 10
-4.56319202E+01
 20
2.37347206E+02
  0
VERTEX
  8
0
 62
4
 10
-4.57438113E+01
 20
2.37371570E+02
  0
VERTEX
  8
0
 62
4
 10
-4.58678289E+01
 20
2.37394094E+02
  0
VERTEX
  8
0
 62
4
 10
-4.60029746E+01
 20
2.37414597E+02
  0
VERTEX
  8
0
 62
4
 10
-4.61481602E+01
 20
2.37432914E+02
  0
VERTEX
  8
0
 62
4
 10
-4.63022169E+01
 20
2.37448898E+02
  0
VERTEX
  8
0
 62
4
 10
-4.64639041E+01
 20
2.37462419E+02
  0
VERTEX
  8
0
 62
4
 10
-4.66319202E+01
 20
2.37473368E+02
  0
VERTEX
  8
0
 62
4
 10
-4.68049123E+01
 20
2.37481659E+02
  0
VERTEX
  8
0
 62
4
 10
-4.69814877E+01
 20
2.37487223E+02
  0
VERTEX
  8
0
 62
4
 10
-4.71602245E+01
 20
2.37490017E+02
  0
VERTEX
  8
0
 62
4
 10
-4.73396838E+01
 20
2.37490017E+02
  0
VERTEX
  8
0
 62
4
 10
-4.75184207E+01
 20
2.37487223E+02
  0
VERTEX
  8
0
 62
4
 10
-4.76949961E+01
 20
2.37481659E+02
  0
VERTEX
  8
0
 62
4
 10
-4.78679882E+01
 20
2.37473368E+02
  0
VERTEX
  8
0
 62
4
 10
-4.80360043E+01
 20
2.37462419E+02
  0
VERTEX
  8
0
 62
4
 10
-4.81976915E+01
 20
2.37448898E+02
  0
VERTEX
  8
0
 62
4
 10
-4.83517482E+01
 20
2.37432914E+02
  0
VERTEX
  8
0
 62
4
 10
-4.84969338E+01
 20
2.37414597E+02
  0
VERTEX
  8
0
 62
4
 10
-4.86320795E+01
 20
2.37394094E+02
  0
VERTEX
  8
0
 62
4
 10
-4.87560971E+01
 20
2.37371570E+02
  0
VERTEX
  8
0
 62
4
 10
-4.88679882E+01
 20
2.37347206E+02
  0
VERTEX
  8
0
 62
4
 10
-4.89668518E+01
 20
2.37321198E+02
  0
VERTEX
  8
0
 62
4
 10
-4.90518919E+01
 20
2.37293756E+02
  0
VERTEX
  8
0
 62
4
 10
-4.91224239E+01
 20
2.37265101E+02
  0
VERTEX
  8
0
 62
4
 10
-4.91778799E+01
 20
2.37235464E+02
  0
VERTEX
  8
0
 62
4
 10
-4.92178134E+01
 20
2.37205082E+02
  0
VERTEX
  8
0
 62
4
 10
-4.92419028E+01
 20
2.37174201E+02
  0
VERTEX
  8
0
 62
4
 10
-4.92499542E+01
 20
2.37143070E+02
  0
SEQEND
  8
0
  0
LINE
  8
0
 62
6
 10
-5.67499542E+01
 20
2.37372785E+02
 11
-5.67499542E+01
 21
2.35021748E+02
  0
LINE
  8
0
 62
6
 10
-5.37499542E+01
 20
2.37372785E+02
 11
-5.37499542E+01
 21
2.35021748E+02
  0
LINE
  8
0
 62
4
 10
-5.72499542E+01
 20
2.37143070E+02
 11
-5.72499542E+01
 21
2.35021748E+02
  0
LINE
  8
0
 62
4
 10
-5.32499542E+01
 20
2.37143070E+02
 11
-5.32499542E+01
 21
2.35021748E+02
  0
POLYLINE
  8
0
 62
4
 66
1
  0
VERTEX
  8
0
 62
4
 10
-5.32499542E+01
 20
2.37143070E+02
  0
VERTEX
  8
0
 62
4
 10
-5.32580056E+01
 20
2.37174201E+02
  0
VERTEX
  8
0
 62
4
 10
-5.32820950E+01
 20
2.37205082E+02
  0
VERTEX
  8
0
 62
4
 10
-5.33220285E+01
 20
2.37235464E+02
  0
VERTEX
  8
0
 62
4
 10
-5.33774845E+01
 20
2.37265101E+02
  0
VERTEX
  8
0
 62
4
 10
-5.34480165E+01
 20
2.37293756E+02
  0
VERTEX
  8
0
 62
4
 10
-5.35330566E+01
 20
2.37321198E+02
  0
VERTEX
  8
0
 62
4
 10
-5.36319202E+01
 20
2.37347206E+02
  0
VERTEX
  8
0
 62
4
 10
-5.37438113E+01
 20
2.37371570E+02
  0
VERTEX
  8
0
 62
4
 10
-5.38678289E+01
 20
2.37394094E+02
  0
VERTEX
  8
0
 62
4
 10
-5.40029746E+01
 20
2.37414597E+02
  0
VERTEX
  8
0
 62
4
 10
-5.41481602E+01
 20
2.37432914E+02
  0
VERTEX
  8
0
 62
4
 10
-5.43022169E+01
 20
2.37448898E+02
  0
VERTEX
  8
0
 62
4
 10
-5.44639041E+01
 20
2.37462419E+02
  0
VERTEX
  8
0
 62
4
 10
-5.46319202E+01
 20
2.37473368E+02
  0
VERTEX
  8
0
 62
4
 10
-5.48049123E+01
 20
2.37481659E+02
  0
VERTEX
  8
0
 62
4
 10
-5.49814877E+01
 20
2.37487223E+02
  0
VERTEX
  8
0
 62
4
 10
-5.51602245E+01
 20
2.37490017E+02
  0
VERTEX
  8
0
 62
4
 10
-5.53396838E+01
 20
2.37490017E+02
  0
VERTEX
  8
0
 62
4
 10
-5.55184207E+01
 20
2.37487223E+02
  0
VERTEX
  8
0
 62
4
 10
-5.56949961E+01
 20
2.37481659E+02
  0
VERTEX
  8
0
 62
4
 10
-5.58679882E+01
 20
2.37473368E+02
  0
VERTEX
  8
0
 62
4
 10
-5.60360043E+01
 20
2.37462419E+02
  0
VERTEX
  8
0
 62
4
 10
-5.61976915E+01
 20
2.37448898E+02
  0
VERTEX
  8
0
 62
4
 10
-5.63517482E+01
 20
2.37432914E+02
  0
VERTEX
  8
0
 62
4
 10
-5.64969338E+01
 20
2.37414597E+02
  0
VERTEX
  8
0
 62
4
 10
-5.66320795E+01
 20
2.37394094E+02
  0
VERTEX
  8
0
 62
4
 10
-5.67560971E+01
 20
2.37371570E+02
  0
VERTEX
  8
0
 62
4
 10
-5.68679882E+01
 20
2.37347206E+02
  0
VERTEX
  8
0
 62
4
 10
-5.69668518E+01
 20
2.37321198E+02
  0
VERTEX
  8
0
 62
4
 10
-5.70518919E+01
 20
2.37293756E+02
  0
VERTEX
  8
0
 62
4
 10
-5.71224239E+01
 20
2.37265101E+02
  0
VERTEX
  8
0
 62
4
 10
-5.71778799E+01
 20
2.37235464E+02
  0
VERTEX
  8
0
 62
4
 10
-5.72178134E+01
 20
2.37205082E+02
  0
VERTEX
  8
0
 62
4
 10
-5.72419028E+01
 20
2.37174201E+02
  0
VERTEX
  8
0
 62
4
 10
-5.72499542E+01
 20
2.37143070E+02
  0
SEQEND
  8
0
  0
LINE
  8
0
 62
4
 10
-7.37499542E+01
 20
2.14019736E+02
 11
-7.52499542E+01
 21
2.13016803E+02
  0
LINE
  8
0
 62
4
 10
-7.52499542E+01
 20
2.13016803E+02
 11
-7.52499542E+01
 21
2.10392901E+02
  0
LINE
  8
0
 62
4
 10
-7.52499542E+01
 20
2.10786214E+02
 11
-7.37499542E+01
 21
2.10080505E+02
  0
LINE
  8
0
 62
4
 10
-7.52499542E+01
 20
2.10392901E+02
 11
-7.37499542E+01
 21
2.09385912E+02
  0
LINE
  8
0
 62
4
 10
-7.37499542E+01
 20
2.09385912E+02
 11
-6.28999542E+01
 21
2.09385912E+02
  0
LINE
  8
0
 62
4
 10
-7.37499542E+01
 20
2.10080505E+02
 11
-6.28999542E+01
 21
2.10080505E+02
  0
LINE
  8
0
 62
4
 10
-7.37499542E+01
 20
2.10364291E+02
 11
-7.37499542E+01
 21
2.09391861E+02
  0
POLYLINE
  8
0
 62
4
 66
1
  0
VERTEX
  8
0
 62
4
 10
-5.50499542E+01
 20
2.10733190E+02
  0
VERTEX
  8
0
 62
4
 10
-5.52317692E+01
 20
2.10789037E+02
  0
VERTEX
  8
0
 62
4
 10
-5.54414664E+01
 20
2.10841856E+02
  0
VERTEX
  8
0
 62
4
 10
-5.56773841E+01
 20
2.10891226E+02
  0
VERTEX
  8
0
 62
4
 10
-5.59376524E+01
 20
2.10936758E+02
  0
VERTEX
  8
0
 62
4
 10
-5.62202087E+01
 20
2.10978089E+02
  0
VERTEX
  8
0
 62
4
 10
-5.65228138E+01
 20
2.11014894E+02
  0
VERTEX
  8
0
 62
4
 10
-5.68430693E+01
 20
2.11046879E+02
  0
VERTEX
  8
0
 62
4
 10
-5.71784373E+01
 20
2.11073792E+02
  0
VERTEX
  8
0
 62
4
 10
-5.75262598E+01
 20
2.11095418E+02
  0
VERTEX
  8
0
 62
4
 10
-5.78837804E+01
 20
2.11111588E+02
  0
VERTEX
  8
0
 62
4
 10
-5.82481655E+01
 20
2.11122172E+02
  0
VERTEX
  8
0
 62
4
 10
-5.86165274E+01
 20
2.11127086E+02
  0
VERTEX
  8
0
 62
4
 10
-5.89859467E+01
 20
2.11126293E+02
  0
VERTEX
  8
0
 62
4
 10
-5.93534958E+01
 20
2.11119797E+02
  0
VERTEX
  8
0
 62
4
 10
-5.97162616E+01
 20
2.11107651E+02
  0
VERTEX
  8
0
 62
4
 10
-6.00713693E+01
 20
2.11089951E+02
  0
VERTEX
  8
0
 62
4
 10
-6.04160046E+01
 20
2.11066837E+02
  0
VERTEX
  8
0
 62
4
 10
-6.07474360E+01
 20
2.11038492E+02
  0
VERTEX
  8
0
 62
4
 10
-6.10630371E+01
 20
2.11005141E+02
  0
VERTEX
  8
0
 62
4
 10
-6.13603065E+01
 20
2.10967048E+02
  0
VERTEX
  8
0
 62
4
 10
-6.16368885E+01
 20
2.10924515E+02
  0
VERTEX
  8
0
 62
4
 10
-6.18905909E+01
 20
2.10877880E+02
  0
VERTEX
  8
0
 62
4
 10
-6.21194032E+01
 20
2.10827511E+02
  0
VERTEX
  8
0
 62
4
 10
-6.23215120E+01
 20
2.10773808E+02
  0
VERTEX
  8
0
 62
4
 10
-6.24953155E+01
 20
2.10717196E+02
  0
VERTEX
  8
0
 62
4
 10
-6.26394363E+01
 20
2.10658125E+02
  0
VERTEX
  8
0
 62
4
 10
-6.27527323E+01
 20
2.10597062E+02
  0
VERTEX
  8
0
 62
4
 10
-6.28343055E+01
 20
2.10534492E+02
  0
VERTEX
  8
0
 62
4
 10
-6.28835094E+01
 20
2.10470909E+02
  0
VERTEX
  8
0
 62
4
 10
-6.28999542E+01
 20
2.10406819E+02
  0
SEQEND
  8
0
  0
ARC
  8
0
 62
4
 10
-5.87422159E+01
 20
2.19563926E+02
 40
1.18100000E+01
 50
2.69962458E+02
 51
2.89675999E+02
  0
ARC
  8
0
 62
4
 10
-5.87576925E+01
 20
2.19563926E+02
 40
1.18100000E+01
 50
2.50324001E+02
 51
2.70037542E+02
  0
LINE
  8
0
 62
4
 10
-6.28999542E+01
 20
2.08678895E+02
 11
-6.28999542E+01
 21
2.10406819E+02
  0
LINE
  8
0
 62
4
 10
-5.45999542E+01
 20
2.08678895E+02
 11
-5.45999542E+01
 21
2.08818004E+02
  0
LINE
  8
0
 62
4
 10
-6.27499542E+01
 20
2.10781046E+02
 11
-6.27499542E+01
 21
2.10598816E+02
  0
POLYLINE
  8
0
 62
4
 66
1
  0
VERTEX
  8
0
 62
4
 10
-5.50499542E+01
 20
2.11044968E+02
  0
VERTEX
  8
0
 62
4
 10
-5.51992622E+01
 20
2.11100888E+02
  0
VERTEX
  8
0
 62
4
 10
-5.53765309E+01
 20
2.11154289E+02
  0
VERTEX
  8
0
 62
4
 10
-5.55803643E+01
 20
2.11204751E+02
  0
VERTEX
  8
0
 62
4
 10
-5.58091574E+01
 20
2.11251876E+02
  0
VERTEX
  8
0
 62
4
 10
-5.60611084E+01
 20
2.11295294E+02
  0
VERTEX
  8
0
 62
4
 10
-5.63342334E+01
 20
2.11334662E+02
  0
VERTEX
  8
0
 62
4
 10
-5.66263815E+01
 20
2.11369671E+02
  0
VERTEX
  8
0
 62
4
 10
-5.69352521E+01
 20
2.11400044E+02
  0
VERTEX
  8
0
 62
4
 10
-5.72584130E+01
 20
2.11425543E+02
  0
VERTEX
  8
0
 62
4
 10
-5.75933194E+01
 20
2.11445967E+02
  0
VERTEX
  8
0
 62
4
 10
-5.79373340E+01
 20
2.11461154E+02
  0
VERTEX
  8
0
 62
4
 10
-5.82877477E+01
 20
2.11470986E+02
  0
VERTEX
  8
0
 62
4
 10
-5.86418011E+01
 20
2.11475385E+02
  0
VERTEX
  8
0
 62
4
 10
-5.89967063E+01
 20
2.11474316E+02
  0
VERTEX
  8
0
 62
4
 10
-5.93496683E+01
 20
2.11467788E+02
  0
VERTEX
  8
0
 62
4
 10
-5.96979078E+01
 20
2.11455852E+02
  0
VERTEX
  8
0
 62
4
 10
-6.00386823E+01
 20
2.11438601E+02
  0
VERTEX
  8
0
 62
4
 10
-6.03693085E+01
 20
2.11416173E+02
  0
VERTEX
  8
0
 62
4
 10
-6.06871828E+01
 20
2.11388744E+02
  0
VERTEX
  8
0
 62
4
 10
-6.09898019E+01
 20
2.11356529E+02
  0
VERTEX
  8
0
 62
4
 10
-6.12747828E+01
 20
2.11319782E+02
  0
VERTEX
  8
0
 62
4
 10
-6.15398814E+01
 20
2.11278793E+02
  0
VERTEX
  8
0
 62
4
 10
-6.17830101E+01
 20
2.11233884E+02
  0
VERTEX
  8
0
 62
4
 10
-6.20022544E+01
 20
2.11185409E+02
  0
VERTEX
  8
0
 62
4
 10
-6.21958876E+01
 20
2.11133750E+02
  0
VERTEX
  8
0
 62
4
 10
-6.23623851E+01
 20
2.11079314E+02
  0
VERTEX
  8
0
 62
4
 10
-6.25004358E+01
 20
2.11022529E+02
  0
VERTEX
  8
0
 62
4
 10
-6.26089524E+01
 20
2.10963842E+02
  0
VERTEX
  8
0
 62
4
 10
-6.26870804E+01
 20
2.10903716E+02
  0
VERTEX
  8
0
 62
4
 10
-6.27342048E+01
 20
2.10842623E+02
  0
VERTEX
  8
0
 62
4
 10
-6.27499542E+01
 20
2.10781046E+02
  0
SEQEND
  8
0
  0
ARC
  8
0
 62
4
 10
-6.08685598E+01
 20
2.20265135E+02
 40
1.25124521E+01
 50
2.74941635E+02
 51
2.88095416E+02
  0
ARC
  8
0
 62
4
 10
-5.66313484E+01
 20
2.20265138E+02
 40
1.25124547E+01
 50
2.51904586E+02
 51
2.65058365E+02
  0
POLYLINE
  8
0
 62
4
 66
1
  0
VERTEX
  8
0
 62
4
 10
-5.45999542E+01
 20
2.08673558E+02
  0
VERTEX
  8
0
 62
4
 10
-5.46166609E+01
 20
2.08738156E+02
  0
VERTEX
  8
0
 62
4
 10
-5.46666464E+01
 20
2.08802233E+02
  0
VERTEX
  8
0
 62
4
 10
-5.47495083E+01
 20
2.08865275E+02
  0
VERTEX
  8
0
 62
4
 10
-5.48645795E+01
 20
2.08926773E+02
  0
VERTEX
  8
0
 62
4
 10
-5.50109334E+01
 20
2.08986232E+02
  0
VERTEX
  8
0
 62
4
 10
-5.51873917E+01
 20
2.09043174E+02
  0
VERTEX
  8
0
 62
4
 10
-5.53925337E+01
 20
2.09097140E+02
  0
VERTEX
  8
0
 62
4
 10
-5.56247076E+01
 20
2.09147695E+02
  0
VERTEX
  8
0
 62
4
 10
-5.58820442E+01
 20
2.09194433E+02
  0
VERTEX
  8
0
 62
4
 10
-5.61624715E+01
 20
2.09236977E+02
  0
VERTEX
  8
0
 62
4
 10
-5.64637317E+01
 20
2.09274985E+02
  0
VERTEX
  8
0
 62
4
 10
-5.67833992E+01
 20
2.09308150E+02
  0
VERTEX
  8
0
 62
4
 10
-5.71189003E+01
 20
2.09336206E+02
  0
VERTEX
  8
0
 62
4
 10
-5.74675336E+01
 20
2.09358927E+02
  0
VERTEX
  8
0
 62
4
 10
-5.78264923E+01
 20
2.09376130E+02
  0
VERTEX
  8
0
 62
4
 10
-5.81928861E+01
 20
2.09387676E+02
  0
VERTEX
  8
0
 62
4
 10
-5.85637651E+01
 20
2.09393472E+02
  0
VERTEX
  8
0
 62
4
 10
-5.89361432E+01
 20
2.09393472E+02
  0
VERTEX
  8
0
 62
4
 10
-5.93070222E+01
 20
2.09387676E+02
  0
VERTEX
  8
0
 62
4
 10
-5.96734161E+01
 20
2.09376130E+02
  0
VERTEX
  8
0
 62
4
 10
-6.00323747E+01
 20
2.09358927E+02
  0
VERTEX
  8
0
 62
4
 10
-6.03810081E+01
 20
2.09336206E+02
  0
VERTEX
  8
0
 62
4
 10
-6.07165091E+01
 20
2.09308150E+02
  0
VERTEX
  8
0
 62
4
 10
-6.10361767E+01
 20
2.09274985E+02
  0
VERTEX
  8
0
 62
4
 10
-6.13374369E+01
 20
2.09236977E+02
  0
VERTEX
  8
0
 62
4
 10
-6.16178642E+01
 20
2.09194433E+02
  0
VERTEX
  8
0
 62
4
 10
-6.18752008E+01
 20
2.09147695E+02
  0
VERTEX
  8
0
 62
4
 10
-6.21073747E+01
 20
2.09097140E+02
  0
VERTEX
  8
0
 62
4
 10
-6.23125167E+01
 20
2.09043174E+02
  0
VERTEX
  8
0
 62
4
 10
-6.24889750E+01
 20
2.08986232E+02
  0
VERTEX
  8
0
 62
4
 10
-6.26353289E+01
 20
2.08926773E+02
  0
VERTEX
  8
0
 62
4
 10
-6.27504001E+01
 20
2.08865275E+02
  0
VERTEX
  8
0
 62
4
 10
-6.28332620E+01
 20
2.08802233E+02
  0
VERTEX
  8
0
 62
4
 10
-6.28832475E+01
 20
2.08738156E+02
  0
VERTEX
  8
0
 62
4
 10
-6.28999542E+01
 20
2.08673558E+02
  0
SEQEND
  8
0
  0
ARC
  8
0
 62
4
 10
-6.26499542E+01
 20
2.08678895E+02
 40
2.50000000E-01
 50
1.80000000E+02
 51
2.50324001E+02
  0
ARC
  8
0
 62
4
 10
-5.48499542E+01
 20
2.08678895E+02
 40
2.50000000E-01
 50
2.89675999E+02
 51
0.00000000E+00
  0
LINE
  8
0
 62
4
 10
-5.50499542E+01
 20
2.10404007E+02
 11
-5.50499542E+01
 21
2.11388815E+02
  0
LINE
  8
0
 62
4
 10
-4.74499542E+01
 20
2.10404007E+02
 11
-4.74499542E+01
 21
2.11388815E+02
  0
POLYLINE
  8
0
 62
4
 66
1
  0
VERTEX
  8
0
 62
4
 10
-4.74499542E+01
 20
2.11388815E+02
  0
VERTEX
  8
0
 62
4
 10
-4.74652519E+01
 20
2.11447965E+02
  0
VERTEX
  8
0
 62
4
 10
-4.75110218E+01
 20
2.11506638E+02
  0
VERTEX
  8
0
 62
4
 10
-4.75868953E+01
 20
2.11564363E+02
  0
VERTEX
  8
0
 62
4
 10
-4.76922617E+01
 20
2.11620674E+02
  0
VERTEX
  8
0
 62
4
 10
-4.78262725E+01
 20
2.11675119E+02
  0
VERTEX
  8
0
 62
4
 10
-4.79878488E+01
 20
2.11727258E+02
  0
VERTEX
  8
0
 62
4
 10
-4.81756896E+01
 20
2.11776673E+02
  0
VERTEX
  8
0
 62
4
 10
-4.83882826E+01
 20
2.11822964E+02
  0
VERTEX
  8
0
 62
4
 10
-4.86239161E+01
 20
2.11865761E+02
  0
VERTEX
  8
0
 62
4
 10
-4.88806929E+01
 20
2.11904717E+02
  0
VERTEX
  8
0
 62
4
 10
-4.91565457E+01
 20
2.11939519E+02
  0
VERTEX
  8
0
 62
4
 10
-4.94492533E+01
 20
2.11969887E+02
  0
VERTEX
  8
0
 62
4
 10
-4.97564591E+01
 20
2.11995577E+02
  0
VERTEX
  8
0
 62
4
 10
-5.00756896E+01
 20
2.12016382E+02
  0
VERTEX
  8
0
 62
4
 10
-5.04043746E+01
 20
2.12032134E+02
  0
VERTEX
  8
0
 62
4
 10
-5.07398678E+01
 20
2.12042706E+02
  0
VERTEX
  8
0
 62
4
 10
-5.10794678E+01
 20
2.12048014E+02
  0
VERTEX
  8
0
 62
4
 10
-5.14204405E+01
 20
2.12048014E+02
  0
VERTEX
  8
0
 62
4
 10
-5.17600406E+01
 20
2.12042706E+02
  0
VERTEX
  8
0
 62
4
 10
-5.20955337E+01
 20
2.12032134E+02
  0
VERTEX
  8
0
 62
4
 10
-5.24242188E+01
 20
2.12016382E+02
  0
VERTEX
  8
0
 62
4
 10
-5.27434493E+01
 20
2.11995577E+02
  0
VERTEX
  8
0
 62
4
 10
-5.30506551E+01
 20
2.11969887E+02
  0
VERTEX
  8
0
 62
4
 10
-5.33433627E+01
 20
2.11939519E+02
  0
VERTEX
  8
0
 62
4
 10
-5.36192154E+01
 20
2.11904717E+02
  0
VERTEX
  8
0
 62
4
 10
-5.38759922E+01
 20
2.11865761E+02
  0
VERTEX
  8
0
 62
4
 10
-5.41116258E+01
 20
2.11822964E+02
  0
VERTEX
  8
0
 62
4
 10
-5.43242188E+01
 20
2.11776673E+02
  0
VERTEX
  8
0
 62
4
 10
-5.45120596E+01
 20
2.11727258E+02
  0
VERTEX
  8
0
 62
4
 10
-5.46736359E+01
 20
2.11675119E+02
  0
VERTEX
  8
0
 62
4
 10
-5.48076467E+01
 20
2.11620674E+02
  0
VERTEX
  8
0
 62
4
 10
-5.49130131E+01
 20
2.11564363E+02
  0
VERTEX
  8
0
 62
4
 10
-5.49888866E+01
 20
2.11506638E+02
  0
VERTEX
  8
0
 62
4
 10
-5.50346565E+01
 20
2.11447965E+02
  0
VERTEX
  8
0
 62
4
 10
-5.50499542E+01
 20
2.11388815E+02
  0
SEQEND
  8
0
  0
POLYLINE
  8
0
 62
4
 66
1
  0
VERTEX
  8
0
 62
4
 10
-4.78499542E+01
 20
2.10109316E+02
  0
VERTEX
  8
0
 62
4
 10
-4.77133725E+01
 20
2.10162605E+02
  0
VERTEX
  8
0
 62
4
 10
-4.76044247E+01
 20
2.10217781E+02
  0
VERTEX
  8
0
 62
4
 10
-4.75239619E+01
 20
2.10274411E+02
  0
VERTEX
  8
0
 62
4
 10
-4.74726129E+01
 20
2.10332054E+02
  0
VERTEX
  8
0
 62
4
 10
-4.74507789E+01
 20
2.10390260E+02
  0
VERTEX
  8
0
 62
4
 10
-4.74586306E+01
 20
2.10448573E+02
  0
VERTEX
  8
0
 62
4
 10
-4.74961066E+01
 20
2.10506537E+02
  0
VERTEX
  8
0
 62
4
 10
-4.75629140E+01
 20
2.10563700E+02
  0
VERTEX
  8
0
 62
4
 10
-4.76585308E+01
 20
2.10619616E+02
  0
VERTEX
  8
0
 62
4
 10
-4.77822100E+01
 20
2.10673847E+02
  0
VERTEX
  8
0
 62
4
 10
-4.79329851E+01
 20
2.10725969E+02
  0
VERTEX
  8
0
 62
4
 10
-4.81096780E+01
 20
2.10775576E+02
  0
VERTEX
  8
0
 62
4
 10
-4.83109080E+01
 20
2.10822280E+02
  0
VERTEX
  8
0
 62
4
 10
-4.85351030E+01
 20
2.10865715E+02
  0
VERTEX
  8
0
 62
4
 10
-4.87805109E+01
 20
2.10905542E+02
  0
VERTEX
  8
0
 62
4
 10
-4.90452144E+01
 20
2.10941451E+02
  0
VERTEX
  8
0
 62
4
 10
-4.93271450E+01
 20
2.10973160E+02
  0
VERTEX
  8
0
 62
4
 10
-4.96240999E+01
 20
2.11000422E+02
  0
VERTEX
  8
0
 62
4
 10
-4.99337588E+01
 20
2.11023024E+02
  0
VERTEX
  8
0
 62
4
 10
-5.02537020E+01
 20
2.11040789E+02
  0
VERTEX
  8
0
 62
4
 10
-5.05814296E+01
 20
2.11053578E+02
  0
VERTEX
  8
0
 62
4
 10
-5.09143809E+01
 20
2.11061292E+02
  0
VERTEX
  8
0
 62
4
 10
-5.12499542E+01
 20
2.11063870E+02
  0
VERTEX
  8
0
 62
4
 10
-5.15855276E+01
 20
2.11061292E+02
  0
VERTEX
  8
0
 62
4
 10
-5.19184788E+01
 20
2.11053578E+02
  0
VERTEX
  8
0
 62
4
 10
-5.22462065E+01
 20
2.11040789E+02
  0
VERTEX
  8
0
 62
4
 10
-5.25661497E+01
 20
2.11023024E+02
  0
VERTEX
  8
0
 62
4
 10
-5.28758085E+01
 20
2.11000422E+02
  0
VERTEX
  8
0
 62
4
 10
-5.31727634E+01
 20
2.10973160E+02
  0
VERTEX
  8
0
 62
4
 10
-5.34546941E+01
 20
2.10941451E+02
  0
VERTEX
  8
0
 62
4
 10
-5.37193975E+01
 20
2.10905542E+02
  0
VERTEX
  8
0
 62
4
 10
-5.39648055E+01
 20
2.10865715E+02
  0
VERTEX
  8
0
 62
4
 10
-5.41890004E+01
 20
2.10822280E+02
  0
VERTEX
  8
0
 62
4
 10
-5.43902305E+01
 20
2.10775576E+02
  0
VERTEX
  8
0
 62
4
 10
-5.45669234E+01
 20
2.10725969E+02
  0
VERTEX
  8
0
 62
4
 10
-5.47176984E+01
 20
2.10673847E+02
  0
VERTEX
  8
0
 62
4
 10
-5.48413776E+01
 20
2.10619616E+02
  0
VERTEX
  8
0
 62
4
 10
-5.49369944E+01
 20
2.10563701E+02
  0
VERTEX
  8
0
 62
4
 10
-5.50038018E+01
 20
2.10506537E+02
  0
VERTEX
  8
0
 62
4
 10
-5.50412778E+01
 20
2.10448573E+02
  0
VERTEX
  8
0
 62
4
 10
-5.50491295E+01
 20
2.10390260E+02
  0
VERTEX
  8
0
 62
4
 10
-5.50272955E+01
 20
2.10332054E+02
  0
VERTEX
  8
0
 62
4
 10
-5.49759465E+01
 20
2.10274411E+02
  0
VERTEX
  8
0
 62
4
 10
-5.48954837E+01
 20
2.10217781E+02
  0
VERTEX
  8
0
 62
4
 10
-5.47865359E+01
 20
2.10162605E+02
  0
VERTEX
  8
0
 62
4
 10
-5.46499542E+01
 20
2.10109316E+02
  0
SEQEND
  8
0
  0
LINE
  8
0
 62
4
 10
-5.46499542E+01
 20
2.09130255E+02
 11
-5.46499542E+01
 21
2.10404007E+02
  0
LINE
  8
0
 62
4
 10
-4.78499542E+01
 20
2.09130255E+02
 11
-4.78499542E+01
 21
2.10404007E+02
  0
POLYLINE
  8
0
 62
4
 66
1
  0
VERTEX
  8
0
 62
4
 10
-4.78499542E+01
 20
2.10404007E+02
  0
VERTEX
  8
0
 62
4
 10
-4.78636416E+01
 20
2.10456930E+02
  0
VERTEX
  8
0
 62
4
 10
-4.79045936E+01
 20
2.10509428E+02
  0
VERTEX
  8
0
 62
4
 10
-4.79724805E+01
 20
2.10561076E+02
  0
VERTEX
  8
0
 62
4
 10
-4.80667556E+01
 20
2.10611460E+02
  0
VERTEX
  8
0
 62
4
 10
-4.81866600E+01
 20
2.10660174E+02
  0
VERTEX
  8
0
 62
4
 10
-4.83312283E+01
 20
2.10706825E+02
  0
VERTEX
  8
0
 62
4
 10
-4.84992964E+01
 20
2.10751038E+02
  0
VERTEX
  8
0
 62
4
 10
-4.86895112E+01
 20
2.10792457E+02
  0
VERTEX
  8
0
 62
4
 10
-4.89003412E+01
 20
2.10830748E+02
  0
VERTEX
  8
0
 62
4
 10
-4.91300889E+01
 20
2.10865603E+02
  0
VERTEX
  8
0
 62
4
 10
-4.93769044E+01
 20
2.10896742E+02
  0
VERTEX
  8
0
 62
4
 10
-4.96388007E+01
 20
2.10923914E+02
  0
VERTEX
  8
0
 62
4
 10
-4.99136691E+01
 20
2.10946900E+02
  0
VERTEX
  8
0
 62
4
 10
-5.01992964E+01
 20
2.10965514E+02
  0
VERTEX
  8
0
 62
4
 10
-5.04933830E+01
 20
2.10979608E+02
  0
VERTEX
  8
0
 62
4
 10
-5.07935611E+01
 20
2.10989068E+02
  0
VERTEX
  8
0
 62
4
 10
-5.10974138E+01
 20
2.10993816E+02
  0
VERTEX
  8
0
 62
4
 10
-5.14024946E+01
 20
2.10993816E+02
  0
VERTEX
  8
0
 62
4
 10
-5.17063473E+01
 20
2.10989068E+02
  0
VERTEX
  8
0
 62
4
 10
-5.20065254E+01
 20
2.10979608E+02
  0
VERTEX
  8
0
 62
4
 10
-5.23006120E+01
 20
2.10965514E+02
  0
VERTEX
  8
0
 62
4
 10
-5.25862393E+01
 20
2.10946900E+02
  0
VERTEX
  8
0
 62
4
 10
-5.28611076E+01
 20
2.10923914E+02
  0
VERTEX
  8
0
 62
4
 10
-5.31230039E+01
 20
2.10896742E+02
  0
VERTEX
  8
0
 62
4
 10
-5.33698195E+01
 20
2.10865603E+02
  0
VERTEX
  8
0
 62
4
 10
-5.35995672E+01
 20
2.10830748E+02
  0
VERTEX
  8
0
 62
4
 10
-5.38103972E+01
 20
2.10792457E+02
  0
VERTEX
  8
0
 62
4
 10
-5.40006120E+01
 20
2.10751038E+02
  0
VERTEX
  8
0
 62
4
 10
-5.41686801E+01
 20
2.10706825E+02
  0
VERTEX
  8
0
 62
4
 10
-5.43132483E+01
 20
2.10660174E+02
  0
VERTEX
  8
0
 62
4
 10
-5.44331528E+01
 20
2.10611460E+02
  0
VERTEX
  8
0
 62
4
 10
-5.45274279E+01
 20
2.10561076E+02
  0
VERTEX
  8
0
 62
4
 10
-5.45953148E+01
 20
2.10509428E+02
  0
VERTEX
  8
0
 62
4
 10
-5.46362668E+01
 20
2.10456930E+02
  0
VERTEX
  8
0
 62
4
 10
-5.46499542E+01
 20
2.10404007E+02
  0
SEQEND
  8
0
  0
ARC
  8
0
 62
4
 10
-5.12499542E+01
 20
2.19670468E+02
 40
1.18100000E+01
 50
2.57172490E+02
 51
2.82827510E+02
  0
ARC
  8
0
 62
4
 10
-4.88499539E+01
 20
2.09130255E+02
 40
1.00000000E+00
 50
2.82827510E+02
 51
5.08888749E-14
  0
ARC
  8
0
 62
4
 10
-5.36499545E+01
 20
2.09130255E+02
 40
1.00000000E+00
 50
1.80000000E+02
 51
2.57172490E+02
  0
ARC
  8
0
 62
4
 10
-5.33717078E+01
 20
2.20389611E+02
 40
1.25306621E+01
 50
2.74968660E+02
 51
2.88083352E+02
  0
ARC
  8
0
 62
4
 10
-4.91282006E+01
 20
2.20389612E+02
 40
1.25306626E+01
 50
2.51916648E+02
 51
2.65031340E+02
  0
LINE
  8
0
  6
CENTER
 62
6
 10
-6.12499542E+01
 20
2.10781046E+02
 11
-5.62499542E+01
 21
2.10781046E+02
  0
LINE
  8
0
  6
CENTER
 62
6
 10
-5.12499542E+01
 20
2.13888815E+02
 11
-5.12499542E+01
 21
2.08888815E+02
  0
LINE
  8
0
  6
CENTER
 62
6
 10
-5.37499542E+01
 20
2.11388815E+02
 11
-4.87499542E+01
 21
2.11388815E+02
  0
LINE
  8
0
  6
CENTER
 62
6
 10
-6.62499542E+01
 20
2.13888815E+02
 11
-6.62499542E+01
 21
2.08888815E+02
  0
LINE
  8
0
  6
CENTER
 62
6
 10
-6.87499542E+01
 20
2.11388815E+02
 11
-6.37499542E+01
 21
2.11388815E+02
  0
LINE
  8
0
 62
4
 10
-4.74568436E+01
 20
2.10364291E+02
 11
-4.37499542E+01
 21
2.10364291E+02
  0
LINE
  8
0
 62
7
 10
-4.37499542E+01
 20
2.29519459E+02
 11
2.17499542E+01
 21
2.29519459E+02
  0
LINE
  8
0
 62
7
 10
-4.37499542E+01
 20
2.30369449E+02
 11
2.17499542E+01
 21
2.30369449E+02
  0
LINE
  8
0
 62
7
 10
-4.37499542E+01
 20
2.24219471E+02
 11
2.17499542E+01
 21
2.24219471E+02
  0
LINE
  8
0
 62
7
 10
2.49954224E-01
 20
1.92519459E+02
 11
2.17499542E+01
 21
1.92519459E+02
  0
LINE
  8
0
 62
7
 10
2.49954224E-01
 20
1.87219471E+02
 11
2.17499542E+01
 21
1.87219471E+02
  0
LINE
  8
0
 62
7
 10
2.49954224E-01
 20
1.86369480E+02
 11
2.17499542E+01
 21
1.86369480E+02
  0
LINE
  8
0
 62
6
 10
-7.04649440E+01
 20
-1.88377284E+02
 11
-6.70350743E+01
 21
-1.84947409E+02
  0
LINE
  8
0
 62
6
 10
-6.70350718E+01
 20
-1.88377282E+02
 11
-7.04649464E+01
 21
-1.84947412E+02
  0
POLYLINE
  8
0
 62
4
 66
1
  0
VERTEX
  8
0
 62
4
 10
-7.27500088E+01
 20
-1.87021491E+02
  0
VERTEX
  8
0
 62
4
 10
-7.27347930E+01
 20
-1.87362496E+02
  0
VERTEX
  8
0
 62
4
 10
-7.26892506E+01
 20
-1.87700906E+02
  0
VERTEX
  8
0
 62
4
 10
-7.26137281E+01
 20
-1.88034146E+02
  0
VERTEX
  8
0
 62
4
 10
-7.25088004E+01
 20
-1.88359679E+02
  0
VERTEX
  8
0
 62
4
 10
-7.23752661E+01
 20
-1.88675029E+02
  0
VERTEX
  8
0
 62
4
 10
-7.22141414E+01
 20
-1.88977794E+02
  0
VERTEX
  8
0
 62
4
 10
-7.20266525E+01
 20
-1.89265672E+02
  0
VERTEX
  8
0
 62
4
 10
-7.18142263E+01
 20
-1.89536470E+02
  0
VERTEX
  8
0
 62
4
 10
-7.15784797E+01
 20
-1.89788128E+02
  0
VERTEX
  8
0
 62
4
 10
-7.13212066E+01
 20
-1.90018731E+02
  0
VERTEX
  8
0
 62
4
 10
-7.10443652E+01
 20
-1.90226524E+02
  0
VERTEX
  8
0
 62
4
 10
-7.07500624E+01
 20
-1.90409925E+02
  0
VERTEX
  8
0
 62
4
 10
-7.04405379E+01
 20
-1.90567538E+02
  0
VERTEX
  8
0
 62
4
 10
-7.01181475E+01
 20
-1.90698165E+02
  0
VERTEX
  8
0
 62
4
 10
-6.97853447E+01
 20
-1.90800810E+02
  0
VERTEX
  8
0
 62
4
 10
-6.94446624E+01
 20
-1.90874692E+02
  0
VERTEX
  8
0
 62
4
 10
-6.90986934E+01
 20
-1.90919250E+02
  0
VERTEX
  8
0
 62
4
 10
-6.87500707E+01
 20
-1.90934144E+02
  0
VERTEX
  8
0
 62
4
 10
-6.84014475E+01
 20
-1.90919261E+02
  0
VERTEX
  8
0
 62
4
 10
-6.80554770E+01
 20
-1.90874714E+02
  0
VERTEX
  8
0
 62
4
 10
-6.77147924E+01
 20
-1.90800842E+02
  0
VERTEX
  8
0
 62
4
 10
-6.73819864E+01
 20
-1.90698208E+02
  0
VERTEX
  8
0
 62
4
 10
-6.70595918E+01
 20
-1.90567592E+02
  0
VERTEX
  8
0
 62
4
 10
-6.67500624E+01
 20
-1.90409988E+02
  0
VERTEX
  8
0
 62
4
 10
-6.64557537E+01
 20
-1.90226597E+02
  0
VERTEX
  8
0
 62
4
 10
-6.61789058E+01
 20
-1.90018813E+02
  0
VERTEX
  8
0
 62
4
 10
-6.59216254E+01
 20
-1.89788218E+02
  0
VERTEX
  8
0
 62
4
 10
-6.56858708E+01
 20
-1.89536567E+02
  0
VERTEX
  8
0
 62
4
 10
-6.54734361E+01
 20
-1.89265775E+02
  0
VERTEX
  8
0
 62
4
 10
-6.52859381E+01
 20
-1.88977904E+02
  0
VERTEX
  8
0
 62
4
 10
-6.51248038E+01
 20
-1.88675143E+02
  0
VERTEX
  8
0
 62
4
 10
-6.49912595E+01
 20
-1.88359798E+02
  0
VERTEX
  8
0
 62
4
 10
-6.48863215E+01
 20
-1.88034268E+02
  0
VERTEX
  8
0
 62
4
 10
-6.48107885E+01
 20
-1.87701030E+02
  0
VERTEX
  8
0
 62
4
 10
-6.47652354E+01
 20
-1.87362622E+02
  0
VERTEX
  8
0
 62
4
 10
-6.47500088E+01
 20
-1.87021617E+02
  0
VERTEX
  8
0
 62
4
 10
-6.47652246E+01
 20
-1.86680612E+02
  0
VERTEX
  8
0
 62
4
 10
-6.48107670E+01
 20
-1.86342202E+02
  0
VERTEX
  8
0
 62
4
 10
-6.48862895E+01
 20
-1.86008962E+02
  0
VERTEX
  8
0
 62
4
 10
-6.49912172E+01
 20
-1.85683429E+02
  0
VERTEX
  8
0
 62
4
 10
-6.51247515E+01
 20
-1.85368079E+02
  0
VERTEX
  8
0
 62
4
 10
-6.52858763E+01
 20
-1.85065314E+02
  0
VERTEX
  8
0
 62
4
 10
-6.54733651E+01
 20
-1.84777436E+02
  0
VERTEX
  8
0
 62
4
 10
-6.56857913E+01
 20
-1.84506638E+02
  0
VERTEX
  8
0
 62
4
 10
-6.59215379E+01
 20
-1.84254980E+02
  0
VERTEX
  8
0
 62
4
 10
-6.61788110E+01
 20
-1.84024377E+02
  0
VERTEX
  8
0
 62
4
 10
-6.64556524E+01
 20
-1.83816584E+02
  0
VERTEX
  8
0
 62
4
 10
-6.67499552E+01
 20
-1.83633183E+02
  0
VERTEX
  8
0
 62
4
 10
-6.70594797E+01
 20
-1.83475570E+02
  0
VERTEX
  8
0
 62
4
 10
-6.73818701E+01
 20
-1.83344943E+02
  0
VERTEX
  8
0
 62
4
 10
-6.77146729E+01
 20
-1.83242298E+02
  0
VERTEX
  8
0
 62
4
 10
-6.80553552E+01
 20
-1.83168416E+02
  0
VERTEX
  8
0
 62
4
 10
-6.84013242E+01
 20
-1.83123858E+02
  0
VERTEX
  8
0
 62
4
 10
-6.87499469E+01
 20
-1.83108964E+02
  0
VERTEX
  8
0
 62
4
 10
-6.90985701E+01
 20
-1.83123847E+02
  0
VERTEX
  8
0
 62
4
 10
-6.94445406E+01
 20
-1.83168394E+02
  0
VERTEX
  8
0
 62
4
 10
-6.97852252E+01
 20
-1.83242266E+02
  0
VERTEX
  8
0
 62
4
 10
-7.01180312E+01
 20
-1.83344900E+02
  0
VERTEX
  8
0
 62
4
 10
-7.04404258E+01
 20
-1.83475516E+02
  0
VERTEX
  8
0
 62
4
 10
-7.07499552E+01
 20
-1.83633120E+02
  0
VERTEX
  8
0
 62
4
 10
-7.10442639E+01
 20
-1.83816511E+02
  0
VERTEX
  8
0
 62
4
 10
-7.13211118E+01
 20
-1.84024295E+02
  0
VERTEX
  8
0
 62
4
 10
-7.15783922E+01
 20
-1.84254890E+02
  0
VERTEX
  8
0
 62
4
 10
-7.18141468E+01
 20
-1.84506541E+02
  0
VERTEX
  8
0
 62
4
 10
-7.20265815E+01
 20
-1.84777333E+02
  0
VERTEX
  8
0
 62
4
 10
-7.22140795E+01
 20
-1.85065204E+02
  0
VERTEX
  8
0
 62
4
 10
-7.23752138E+01
 20
-1.85367965E+02
  0
VERTEX
  8
0
 62
4
 10
-7.25087581E+01
 20
-1.85683310E+02
  0
VERTEX
  8
0
 62
4
 10
-7.26136961E+01
 20
-1.86008840E+02
  0
VERTEX
  8
0
 62
4
 10
-7.26892291E+01
 20
-1.86342078E+02
  0
VERTEX
  8
0
 62
4
 10
-7.27347822E+01
 20
-1.86680486E+02
  0
VERTEX
  8
0
 62
4
 10
-7.27500088E+01
 20
-1.87021491E+02
  0
SEQEND
  8
0
  0
POLYLINE
  8
0
 62
4
 66
1
  0
VERTEX
  8
0
 62
4
 10
-7.21489816E+01
 20
-1.86744636E+02
  0
VERTEX
  8
0
 62
4
 10
-7.21430377E+01
 20
-1.87056121E+02
  0
VERTEX
  8
0
 62
4
 10
-7.21104568E+01
 20
-1.87365839E+02
  0
VERTEX
  8
0
 62
4
 10
-7.20514945E+01
 20
-1.87671358E+02
  0
VERTEX
  8
0
 62
4
 10
-7.19666137E+01
 20
-1.87970281E+02
  0
VERTEX
  8
0
 62
4
 10
-7.18564809E+01
 20
-1.88260261E+02
  0
VERTEX
  8
0
 62
4
 10
-7.17219605E+01
 20
-1.88539021E+02
  0
VERTEX
  8
0
 62
4
 10
-7.15641088E+01
 20
-1.88804372E+02
  0
VERTEX
  8
0
 62
4
 10
-7.13841648E+01
 20
-1.89054232E+02
  0
VERTEX
  8
0
 62
4
 10
-7.11835412E+01
 20
-1.89286639E+02
  0
VERTEX
  8
0
 62
4
 10
-7.09638131E+01
 20
-1.89499769E+02
  0
VERTEX
  8
0
 62
4
 10
-7.07267055E+01
 20
-1.89691947E+02
  0
VERTEX
  8
0
 62
4
 10
-7.04740796E+01
 20
-1.89861667E+02
  0
VERTEX
  8
0
 62
4
 10
-7.02079189E+01
 20
-1.90007594E+02
  0
VERTEX
  8
0
 62
4
 10
-6.99303129E+01
 20
-1.90128584E+02
  0
VERTEX
  8
0
 62
4
 10
-6.96434408E+01
 20
-1.90223687E+02
  0
VERTEX
  8
0
 62
4
 10
-6.93495547E+01
 20
-1.90292156E+02
  0
VERTEX
  8
0
 62
4
 10
-6.90509619E+01
 20
-1.90333453E+02
  0
VERTEX
  8
0
 62
4
 10
-6.87500065E+01
 20
-1.90347255E+02
  0
VERTEX
  8
0
 62
4
 10
-6.84490511E+01
 20
-1.90333453E+02
  0
VERTEX
  8
0
 62
4
 10
-6.81504583E+01
 20
-1.90292156E+02
  0
VERTEX
  8
0
 62
4
 10
-6.78565724E+01
 20
-1.90223687E+02
  0
VERTEX
  8
0
 62
4
 10
-6.75697004E+01
 20
-1.90128584E+02
  0
VERTEX
  8
0
 62
4
 10
-6.72920945E+01
 20
-1.90007594E+02
  0
VERTEX
  8
0
 62
4
 10
-6.70259340E+01
 20
-1.89861667E+02
  0
VERTEX
  8
0
 62
4
 10
-6.67733084E+01
 20
-1.89691947E+02
  0
VERTEX
  8
0
 62
4
 10
-6.65362011E+01
 20
-1.89499769E+02
  0
VERTEX
  8
0
 62
4
 10
-6.63164733E+01
 20
-1.89286639E+02
  0
VERTEX
  8
0
 62
4
 10
-6.61158501E+01
 20
-1.89054232E+02
  0
VERTEX
  8
0
 62
4
 10
-6.59359064E+01
 20
-1.88804372E+02
  0
VERTEX
  8
0
 62
4
 10
-6.57780550E+01
 20
-1.88539021E+02
  0
VERTEX
  8
0
 62
4
 10
-6.56435351E+01
 20
-1.88260261E+02
  0
VERTEX
  8
0
 62
4
 10
-6.55334026E+01
 20
-1.87970281E+02
  0
VERTEX
  8
0
 62
4
 10
-6.54485223E+01
 20
-1.87671358E+02
  0
VERTEX
  8
0
 62
4
 10
-6.53895604E+01
 20
-1.87365839E+02
  0
VERTEX
  8
0
 62
4
 10
-6.53569799E+01
 20
-1.87056121E+02
  0
VERTEX
  8
0
 62
4
 10
-6.53510365E+01
 20
-1.86744636E+02
  0
SEQEND
  8
0
  0
POLYLINE
  8
0
 62
4
 66
1
  0
VERTEX
  8
0
 62
4
 10
-7.21500091E+01
 20
-1.86662270E+02
  0
VERTEX
  8
0
 62
4
 10
-7.21370777E+01
 20
-1.86954021E+02
  0
VERTEX
  8
0
 62
4
 10
-7.20983686E+01
 20
-1.87243551E+02
  0
VERTEX
  8
0
 62
4
 10
-7.20341765E+01
 20
-1.87528658E+02
  0
VERTEX
  8
0
 62
4
 10
-7.19449899E+01
 20
-1.87807172E+02
  0
VERTEX
  8
0
 62
4
 10
-7.18314875E+01
 20
-1.88076974E+02
  0
VERTEX
  8
0
 62
4
 10
-7.16945333E+01
 20
-1.88336009E+02
  0
VERTEX
  8
0
 62
4
 10
-7.15351694E+01
 20
-1.88582306E+02
  0
VERTEX
  8
0
 62
4
 10
-7.13546088E+01
 20
-1.88813992E+02
  0
VERTEX
  8
0
 62
4
 10
-7.11542256E+01
 20
-1.89029302E+02
  0
VERTEX
  8
0
 62
4
 10
-7.09355449E+01
 20
-1.89226598E+02
  0
VERTEX
  8
0
 62
4
 10
-7.07002309E+01
 20
-1.89404379E+02
  0
VERTEX
  8
0
 62
4
 10
-7.04500745E+01
 20
-1.89561291E+02
  0
VERTEX
  8
0
 62
4
 10
-7.01869797E+01
 20
-1.89696140E+02
  0
VERTEX
  8
0
 62
4
 10
-6.99129486E+01
 20
-1.89807901E+02
  0
VERTEX
  8
0
 62
4
 10
-6.96300668E+01
 20
-1.89895721E+02
  0
VERTEX
  8
0
 62
4
 10
-6.93404873E+01
 20
-1.89958934E+02
  0
VERTEX
  8
0
 62
4
 10
-6.90464139E+01
 20
-1.89997058E+02
  0
VERTEX
  8
0
 62
4
 10
-6.87500847E+01
 20
-1.90009803E+02
  0
VERTEX
  8
0
 62
4
 10
-6.84537548E+01
 20
-1.89997072E+02
  0
VERTEX
  8
0
 62
4
 10
-6.81596797E+01
 20
-1.89958961E+02
  0
VERTEX
  8
0
 62
4
 10
-6.78700973E+01
 20
-1.89895761E+02
  0
VERTEX
  8
0
 62
4
 10
-6.75872116E+01
 20
-1.89807953E+02
  0
VERTEX
  8
0
 62
4
 10
-6.73131755E+01
 20
-1.89696205E+02
  0
VERTEX
  8
0
 62
4
 10
-6.70500745E+01
 20
-1.89561367E+02
  0
VERTEX
  8
0
 62
4
 10
-6.67999111E+01
 20
-1.89404467E+02
  0
VERTEX
  8
0
 62
4
 10
-6.65645891E+01
 20
-1.89226696E+02
  0
VERTEX
  8
0
 62
4
 10
-6.63458995E+01
 20
-1.89029410E+02
  0
VERTEX
  8
0
 62
4
 10
-6.61455066E+01
 20
-1.88814109E+02
  0
VERTEX
  8
0
 62
4
 10
-6.59649355E+01
 20
-1.88582432E+02
  0
VERTEX
  8
0
 62
4
 10
-6.58055605E+01
 20
-1.88336142E+02
  0
VERTEX
  8
0
 62
4
 10
-6.56685946E+01
 20
-1.88077113E+02
  0
VERTEX
  8
0
 62
4
 10
-6.55550800E+01
 20
-1.87807317E+02
  0
VERTEX
  8
0
 62
4
 10
-6.54658808E+01
 20
-1.87528807E+02
  0
VERTEX
  8
0
 62
4
 10
-6.54016759E+01
 20
-1.87243702E+02
  0
VERTEX
  8
0
 62
4
 10
-6.53629537E+01
 20
-1.86954173E+02
  0
VERTEX
  8
0
 62
4
 10
-6.53500091E+01
 20
-1.86662424E+02
  0
VERTEX
  8
0
 62
4
 10
-6.53629405E+01
 20
-1.86370673E+02
  0
VERTEX
  8
0
 62
4
 10
-6.54016496E+01
 20
-1.86081143E+02
  0
VERTEX
  8
0
 62
4
 10
-6.54658417E+01
 20
-1.85796036E+02
  0
VERTEX
  8
0
 62
4
 10
-6.55550283E+01
 20
-1.85517522E+02
  0
VERTEX
  8
0
 62
4
 10
-6.56685307E+01
 20
-1.85247720E+02
  0
VERTEX
  8
0
 62
4
 10
-6.58054849E+01
 20
-1.84988685E+02
  0
VERTEX
  8
0
 62
4
 10
-6.59648488E+01
 20
-1.84742388E+02
  0
VERTEX
  8
0
 62
4
 10
-6.61454094E+01
 20
-1.84510702E+02
  0
VERTEX
  8
0
 62
4
 10
-6.63457926E+01
 20
-1.84295392E+02
  0
VERTEX
  8
0
 62
4
 10
-6.65644733E+01
 20
-1.84098096E+02
  0
VERTEX
  8
0
 62
4
 10
-6.67997873E+01
 20
-1.83920315E+02
  0
VERTEX
  8
0
 62
4
 10
-6.70499437E+01
 20
-1.83763403E+02
  0
VERTEX
  8
0
 62
4
 10
-6.73130385E+01
 20
-1.83628554E+02
  0
VERTEX
  8
0
 62
4
 10
-6.75870696E+01
 20
-1.83516793E+02
  0
VERTEX
  8
0
 62
4
 10
-6.78699514E+01
 20
-1.83428973E+02
  0
VERTEX
  8
0
 62
4
 10
-6.81595309E+01
 20
-1.83365760E+02
  0
VERTEX
  8
0
 62
4
 10
-6.84536043E+01
 20
-1.83327636E+02
  0
VERTEX
  8
0
 62
4
 10
-6.87499335E+01
 20
-1.83314891E+02
  0
VERTEX
  8
0
 62
4
 10
-6.90462634E+01
 20
-1.83327622E+02
  0
VERTEX
  8
0
 62
4
 10
-6.93403385E+01
 20
-1.83365733E+02
  0
VERTEX
  8
0
 62
4
 10
-6.96299209E+01
 20
-1.83428933E+02
  0
VERTEX
  8
0
 62
4
 10
-6.99128066E+01
 20
-1.83516741E+02
  0
VERTEX
  8
0
 62
4
 10
-7.01868427E+01
 20
-1.83628489E+02
  0
VERTEX
  8
0
 62
4
 10
-7.04499437E+01
 20
-1.83763327E+02
  0
VERTEX
  8
0
 62
4
 10
-7.07001071E+01
 20
-1.83920227E+02
  0
VERTEX
  8
0
 62
4
 10
-7.09354291E+01
 20
-1.84097998E+02
  0
VERTEX
  8
0
 62
4
 10
-7.11541187E+01
 20
-1.84295284E+02
  0
VERTEX
  8
0
 62
4
 10
-7.13545116E+01
 20
-1.84510585E+02
  0
VERTEX
  8
0
 62
4
 10
-7.15350827E+01
 20
-1.84742262E+02
  0
VERTEX
  8
0
 62
4
 10
-7.16944577E+01
 20
-1.84988552E+02
  0
VERTEX
  8
0
 62
4
 10
-7.18314236E+01
 20
-1.85247581E+02
  0
VERTEX
  8
0
 62
4
 10
-7.19449382E+01
 20
-1.85517377E+02
  0
VERTEX
  8
0
 62
4
 10
-7.20341374E+01
 20
-1.85795887E+02
  0
VERTEX
  8
0
 62
4
 10
-7.20983423E+01
 20
-1.86080992E+02
  0
VERTEX
  8
0
 62
4
 10
-7.21370645E+01
 20
-1.86370521E+02
  0
VERTEX
  8
0
 62
4
 10
-7.21500091E+01
 20
-1.86662270E+02
  0
SEQEND
  8
0
  0
LINE
  8
0
 62
4
 10
-7.77499961E+01
 20
-2.02740352E+02
 11
-4.43747179E+01
 21
-2.02740329E+02
  0
LINE
  8
0
 62
4
 10
-7.77499961E+01
 20
-2.01804750E+02
 11
-4.43747179E+01
 21
-2.01804726E+02
  0
LINE
  8
0
 62
4
 10
-7.77499961E+01
 20
-1.99933545E+02
 11
-4.43747179E+01
 21
-1.99933521E+02
  0
LINE
  8
0
 62
4
 10
-7.77499961E+01
 20
-1.98997942E+02
 11
-4.43747179E+01
 21
-1.98997918E+02
  0
LINE
  8
0
 62
4
 10
-4.43747179E+01
 20
-1.98997942E+02
 11
-4.17500035E+01
 21
-1.94461589E+02
  0
LINE
  8
0
 62
4
 10
-7.77499961E+01
 20
-1.98997942E+02
 11
-8.07500035E+01
 21
-1.94461617E+02
  0
LINE
  8
0
 62
4
 10
-4.43747179E+01
 20
-2.03557721E+02
 11
-4.43747179E+01
 21
-1.98997942E+02
  0
LINE
  8
0
 62
4
 10
-7.77499961E+01
 20
-2.03557721E+02
 11
-7.77499961E+01
 21
-1.98997942E+02
  0
LINE
  8
0
  6
CENTER
 62
6
 10
-6.87500047E+01
 20
-1.92801216E+02
 11
-6.87500139E+01
 21
-1.80001216E+02
  0
LINE
  8
0
  6
CENTER
 62
6
 10
-7.51500093E+01
 20
-1.86397512E+02
 11
-6.23500093E+01
 21
-1.86397503E+02
  0
LINE
  8
0
 62
4
 10
-7.62500304E+01
 20
-1.52358725E+02
 11
-6.12500304E+01
 21
-1.52358714E+02
  0
LINE
  8
0
 62
4
 10
-7.82500125E+01
 20
-1.76396605E+02
 11
-5.92500125E+01
 21
-1.76396591E+02
  0
LINE
  8
0
 62
4
 10
-8.07500126E+01
 20
-1.81754378E+02
 11
-8.07500035E+01
 21
-1.94461617E+02
  0
LINE
  8
0
 62
4
 10
-7.82500125E+01
 20
-1.76396591E+02
 11
-7.82500097E+01
 21
-1.80258075E+02
  0
LINE
  8
0
 62
4
 10
-6.12500304E+01
 20
-1.52358725E+02
 11
-6.12500132E+01
 21
-1.76396593E+02
  0
LINE
  8
0
 62
4
 10
-7.62500304E+01
 20
-1.52358725E+02
 11
-7.62500132E+01
 21
-1.76396603E+02
  0
LINE
  8
0
 62
4
 10
-5.92500125E+01
 20
-1.76396591E+02
 11
-5.92500097E+01
 21
-1.80258075E+02
  0
LINE
  8
0
 62
4
 10
-7.62500136E+01
 20
-1.75834267E+02
 11
-6.12500136E+01
 21
-1.75834256E+02
  0
LINE
  8
0
 62
4
 10
-4.17500126E+01
 20
-1.81754350E+02
 11
-4.17500035E+01
 21
-1.94461592E+02
  0
LINE
  8
0
 62
4
 10
-8.07500035E+01
 20
-1.94461617E+02
 11
-4.17500035E+01
 21
-1.94461589E+02
  0
LINE
  8
0
 62
4
 10
-8.07500046E+01
 20
-1.92994395E+02
 11
-4.17500046E+01
 21
-1.92994367E+02
  0
LINE
  8
0
 62
4
 10
-7.92500096E+01
 20
-1.80254377E+02
 11
-4.32500096E+01
 21
-1.80254351E+02
  0
LINE
  8
0
 62
4
 10
-9.57500314E+01
 20
-1.52454549E+02
 11
-9.07500314E+01
 21
-1.52454545E+02
  0
LINE
  8
0
 62
4
 10
-9.57500309E+01
 20
-1.54771177E+02
 11
-9.07500309E+01
 21
-1.54771173E+02
  0
LINE
  8
0
 62
4
 10
-9.57500234E+01
 20
-1.62117065E+02
 11
-9.07500234E+01
 21
-1.62117061E+02
  0
LINE
  8
0
 62
4
 10
-9.57500209E+01
 20
-1.67136548E+02
 11
-9.07500209E+01
 21
-1.67136545E+02
  0
LINE
  8
0
 62
4
 10
-8.52500151E+01
 20
-1.66789492E+02
 11
-7.67500151E+01
 21
-1.66789486E+02
  0
LINE
  8
0
 62
4
 10
-7.62500251E+01
 20
-1.52789485E+02
 11
-8.52500251E+01
 21
-1.52789492E+02
  0
LINE
  8
0
 62
4
 10
-8.57500247E+01
 20
-1.53289492E+02
 11
-8.57500154E+01
 21
-1.66289492E+02
  0
LINE
  8
0
 62
4
 10
-9.57500314E+01
 20
-1.52454549E+02
 11
-9.57500209E+01
 21
-1.67136548E+02
  0
LINE
  8
0
 62
4
 10
-9.07500314E+01
 20
-1.52454545E+02
 11
-9.07500209E+01
 21
-1.67136545E+02
  0
LINE
  8
0
 62
4
 10
-9.07500245E+01
 20
-1.53535781E+02
 11
-8.57500245E+01
 21
-1.53535777E+02
  0
LINE
  8
0
 62
4
 10
-9.07500156E+01
 20
-1.66035781E+02
 11
-8.57500156E+01
 21
-1.66035777E+02
  0
LINE
  8
0
 62
4
 10
-8.92500245E+01
 20
-1.53535780E+02
 11
-8.92500156E+01
 21
-1.66035780E+02
  0
LINE
  8
0
 62
4
 10
-8.92500242E+01
 20
-1.54035780E+02
 11
-8.57500242E+01
 21
-1.54035777E+02
  0
LINE
  8
0
 62
4
 10
-8.92500159E+01
 20
-1.65535780E+02
 11
-8.57500159E+01
 21
-1.65535777E+02
  0
ARC
  8
0
 62
4
 10
-8.52505167E+01
 20
-1.53289000E+02
 40
4.99508251E-01
 50
8.99436074E+01
 51
1.80056475E+02
  0
ARC
  8
0
 62
4
 10
-7.67495074E+01
 20
-1.67288978E+02
 40
4.99492993E-01
 50
3.59941854E+02
 51
9.00582282E+01
  0
ARC
  8
0
 62
4
 10
-4.32495011E+01
 20
-1.81753844E+02
 40
1.49949266E+00
 50
3.59980652E+02
 51
9.00194298E+01
  0
ARC
  8
0
 62
4
 10
-8.52495077E+01
 20
-1.66288984E+02
 40
5.00508007E-01
 50
1.80058166E+02
 51
2.69941916E+02
  0
ARC
  8
0
 62
4
 10
-7.92505007E+01
 20
-1.81753885E+02
 40
1.49950792E+00
 50
8.99812358E+01
 51
1.80018846E+02
  0
LINE
  8
0
 62
4
 10
-2.85389219E+02
 20
-1.89169588E+02
 11
-2.90633797E+02
 21
-2.05323550E+02
  0
LINE
  8
0
 62
4
 10
-2.90633797E+02
 20
-2.05323550E+02
 11
-2.90477747E+02
 21
-2.06057722E+02
  0
ARC
  8
0
 62
4
 10
-2.72207792E+02
 20
-1.59785995E+02
 40
7.00000000E+00
 50
1.10107457E+02
 51
1.33018159E+02
  0
LINE
  8
0
 62
4
 10
-2.85389219E+02
 20
-1.89169588E+02
 11
-2.78540731E+02
 21
-1.87713922E+02
  0
LINE
  8
0
 62
4
 10
-2.77262585E+02
 20
-1.96132137E+02
 11
-2.76773510E+02
 21
-1.96028183E+02
  0
LINE
  8
0
 62
4
 10
-2.77647705E+02
 20
-1.96725165E+02
 11
-2.76833051E+02
 21
-2.00557877E+02
  0
LINE
  8
0
 62
4
 10
-2.80792128E+02
 20
-1.55477588E+02
 11
-2.76008982E+02
 21
-1.54460917E+02
  0
LINE
  8
0
 62
4
 10
-2.66119903E+02
 20
-1.52358964E+02
 11
-2.60922196E+02
 21
-1.76812673E+02
  0
LINE
  8
0
 62
4
 10
-2.80792128E+02
 20
-1.55477588E+02
 11
-2.75594421E+02
 21
-1.79931297E+02
  0
LINE
  8
0
 62
4
 10
-2.77550718E+02
 20
-1.80347113E+02
 11
-2.58965899E+02
 21
-1.76396856E+02
  0
LINE
  8
0
 62
4
 10
-2.75802329E+02
 20
-1.78953148E+02
 11
-2.61130104E+02
 21
-1.75834524E+02
  0
LINE
  8
0
 62
4
 10
-2.58965899E+02
 20
-1.76396856E+02
 11
-2.58134266E+02
 21
-1.80309449E+02
  0
LINE
  8
0
 62
4
 10
-2.77550718E+02
 20
-1.80347113E+02
 11
-2.76719085E+02
 21
-1.84259706E+02
  0
LINE
  8
0
 62
4
 10
-2.76719085E+02
 20
-1.84259706E+02
 11
-2.58134266E+02
 21
-1.80309449E+02
  0
LINE
  8
0
 62
4
 10
-2.76045832E+02
 20
-1.99451702E+02
 11
-2.52570272E+02
 21
-1.94461904E+02
  0
LINE
  8
0
 62
4
 10
-2.55169125E+02
 20
-1.82235050E+02
 11
-2.52570272E+02
 21
-1.94461904E+02
  0
LINE
  8
0
 62
4
 10
-2.78644685E+02
 20
-1.87224848E+02
 11
-2.76045832E+02
 21
-1.99451702E+02
  0
LINE
  8
0
 62
4
 10
-2.76045832E+02
 20
-1.99451702E+02
 11
-2.74779144E+02
 21
-2.00557884E+02
  0
LINE
  8
0
 62
4
 10
-2.52570272E+02
 20
-1.94461904E+02
 11
-2.54673084E+02
 21
-1.98998222E+02
  0
LINE
  8
0
 62
4
 10
-2.59074751E+02
 20
-1.99933809E+02
 11
-2.54673084E+02
 21
-1.98998222E+02
  0
LINE
  8
0
 62
4
 10
-2.76357694E+02
 20
-1.97984479E+02
 11
-2.52882134E+02
 21
-1.92994681E+02
  0
LINE
  8
0
 62
4
 10
-2.67719706E+02
 20
-1.90525581E+02
 11
-2.63807113E+02
 21
-1.89693948E+02
  0
LINE
  8
0
 62
4
 10
-2.67199935E+02
 20
-1.92970952E+02
 11
-2.63287342E+02
 21
-1.92139319E+02
  0
LINE
  8
0
 62
4
 10
-2.67719706E+02
 20
-1.90525581E+02
 11
-2.67199935E+02
 21
-1.92970952E+02
  0
LINE
  8
0
 62
4
 10
-2.63807113E+02
 20
-1.89693948E+02
 11
-2.63287342E+02
 21
-1.92139319E+02
  0
LINE
  8
0
 62
4
 10
-2.70647174E+02
 20
-1.67133060E+02
 11
-2.65068866E+02
 21
-1.62113600E+02
  0
LINE
  8
0
 62
4
 10
-2.79346186E+02
 20
-1.57470514E+02
 11
-2.73767877E+02
 21
-1.52451054E+02
  0
LINE
  8
0
 62
4
 10
-2.79346186E+02
 20
-1.57470514E+02
 11
-2.77784795E+02
 21
-1.64816408E+02
  0
LINE
  8
0
 62
4
 10
-2.66630257E+02
 20
-1.54767706E+02
 11
-2.65068866E+02
 21
-1.62113600E+02
  0
LINE
  8
0
 62
4
 10
-2.77784795E+02
 20
-1.64816408E+02
 11
-2.70647174E+02
 21
-1.67133060E+02
  0
LINE
  8
0
 62
4
 10
-2.73767877E+02
 20
-1.52451054E+02
 11
-2.66630257E+02
 21
-1.54767706E+02
  0
LINE
  8
0
 62
4
 10
-2.70912829E+02
 20
-1.53377715E+02
 11
-2.66119903E+02
 21
-1.52358964E+02
  0
LINE
  8
0
 62
4
 10
-2.54961217E+02
 20
-1.83213198E+02
 11
-2.54472142E+02
 21
-1.83109244E+02
  0
LINE
  8
0
 62
4
 10
-2.53297951E+02
 20
-1.91038385E+02
 11
-2.52808876E+02
 21
-1.90934430E+02
  0
LINE
  8
0
 62
4
 10
-2.54347398E+02
 20
-1.83696133E+02
 11
-2.52655201E+02
 21
-1.83336452E+02
  0
LINE
  8
0
 62
4
 10
-2.51241425E+02
 20
-1.89987860E+02
 11
-2.52933621E+02
 21
-1.90347541E+02
  0
LINE
  8
0
  6
CENTER
 62
6
 10
-2.84872786E+02
 20
-1.93660348E+02
 11
-2.47771619E+02
 21
-1.85774388E+02
  0
LINE
  8
0
 62
4
 10
-2.54472142E+02
 20
-1.83109244E+02
 11
-2.52808876E+02
 21
-1.90934430E+02
  0
ARC
  8
0
 62
4
 10
-2.77158630E+02
 20
-1.96621212E+02
 40
5.00000533E-01
 50
1.01999860E+02
 51
1.91999738E+02
  0
ARC
  8
0
 62
4
 10
-2.62258761E+02
 20
-1.88831875E+02
 40
1.18077645E+01
 50
3.59023944E+02
 51
2.47264947E+01
  0
ARC
  8
0
 62
4
 10
-2.76199292E+02
 20
-1.86705091E+02
 40
2.50001831E+00
 50
1.02000219E+02
 51
1.91999379E+02
  0
ARC
  8
0
 62
4
 10
-2.57613737E+02
 20
-1.82753653E+02
 40
2.49901570E+00
 50
1.19772271E+01
 51
1.02022371E+02
  0
ARC
  8
0
 62
4
 10
-2.61475506E+02
 20
-2.10283113E+02
 40
1.06241099E+01
 50
7.69399395E+01
 51
1.13738924E+02
  0
CIRCLE
  8
0
 62
4
 10
-2.72207792E+02
 20
-1.59785995E+02
 40
3.75000000E+00
  0
ARC
  8
0
 62
4
 10
-2.51450962E+02
 20
-1.89011613E+02
 40
9.98481423E-01
 50
2.82113924E+02
 51
3.58771781E+02
  0
ARC
  8
0
 62
4
 10
-2.52450437E+02
 20
-1.84311291E+02
 40
9.96112687E-01
 50
2.45299411E+01
 51
1.01862484E+02
  0
ARC
  8
0
 62
4
 10
-2.72207792E+02
 20
-1.59785995E+02
 40
7.00000000E+00
 50
7.09814385E+01
 51
9.39140829E+01
  0
LINE
  8
0
 62
6
 10
8.94356984E+01
 20
-2.09468949E+02
 11
8.73254872E+01
 21
-2.09020410E+02
  0
LINE
  8
0
 62
4
 10
8.77298598E+01
 20
-2.12684554E+02
 11
8.87620645E+01
 21
-2.12638148E+02
  0
LINE
  8
0
 62
4
 10
8.85594275E+01
 20
-2.08781745E+02
 11
8.94835181E+01
 21
-2.09243975E+02
  0
LINE
  8
0
 62
4
 10
8.94835181E+01
 20
-2.09243975E+02
 11
8.87620645E+01
 21
-2.12638148E+02
  0
LINE
  8
0
 62
4
 10
8.81112730E+01
 20
-2.05323579E+02
 11
8.62275611E+01
 21
-2.14185747E+02
  0
LINE
  8
0
  6
CENTER
 62
6
 10
9.03295401E+01
 20
-2.11192452E+02
 11
8.62275611E+01
 21
-2.10320550E+02
  0
LINE
  8
0
 62
6
 10
8.88119633E+01
 20
-2.12403392E+02
 11
8.67017522E+01
 21
-2.11954853E+02
  0
LINE
  8
0
 62
4
 10
8.85594275E+01
 20
-2.08781745E+02
 11
8.74273640E+01
 21
-2.08541118E+02
  0
LINE
  8
0
 62
4
 10
8.77298598E+01
 20
-2.12684554E+02
 11
8.65977963E+01
 21
-2.12443927E+02
  0
LINE
  8
0
 62
4
 10
7.35233278E+01
 20
-1.99451680E+02
 11
7.22566362E+01
 21
-2.00557858E+02
  0
LINE
  8
0
 62
4
 10
7.35233278E+01
 20
-1.99451680E+02
 11
5.00477854E+01
 21
-1.94461800E+02
  0
LINE
  8
0
 62
4
 10
5.65522456E+01
 20
-1.99933728E+02
 11
5.21505814E+01
 21
-1.98998125E+02
  0
ARC
  8
0
 62
4
 10
5.89529641E+01
 20
-2.10283040E+02
 40
1.06241099E+01
 50
6.62608748E+01
 51
1.03059860E+02
  0
LINE
  8
0
 62
4
 10
5.00477854E+01
 20
-1.94461800E+02
 11
5.21505814E+01
 21
-1.98998125E+02
  0
LINE
  8
0
 62
4
 10
8.28667514E+01
 20
-1.89169599E+02
 11
7.60182681E+01
 21
-1.87713909E+02
  0
LINE
  8
0
 62
4
 10
7.47400925E+01
 20
-1.96132119E+02
 11
7.42510187E+01
 21
-1.96028164E+02
  0
LINE
  8
0
 62
4
 10
7.50282809E+01
 20
-1.80347097E+02
 11
7.41966341E+01
 21
-1.84259687E+02
  0
ARC
  8
0
 62
4
 10
7.46361360E+01
 20
-1.96621194E+02
 40
5.00000533E-01
 50
3.48000061E+02
 51
7.79999389E+01
  0
ARC
  8
0
 62
4
 10
7.36768332E+01
 20
-1.86705070E+02
 40
2.50001831E+00
 50
3.48000420E+02
 51
7.79995802E+01
  0
LINE
  8
0
 62
4
 10
7.61222239E+01
 20
-1.87224835E+02
 11
7.35233278E+01
 21
-1.99451680E+02
  0
LINE
  8
0
 62
4
 10
8.28667514E+01
 20
-1.89169599E+02
 11
8.81112730E+01
 21
-2.05323579E+02
  0
LINE
  8
0
 62
4
 10
7.51252104E+01
 20
-1.96725149E+02
 11
7.43105430E+01
 21
-2.00557858E+02
  0
LINE
  8
0
 62
4
 10
5.64434765E+01
 20
-1.76396774E+02
 11
5.56118297E+01
 21
-1.80309365E+02
  0
LINE
  8
0
 62
4
 10
6.51972336E+01
 20
-1.90525530E+02
 11
6.12846432E+01
 21
-1.89693883E+02
  0
LINE
  8
0
 62
4
 10
6.46774544E+01
 20
-1.92970899E+02
 11
6.07648640E+01
 21
-1.92139252E+02
  0
LINE
  8
0
 62
4
 10
6.51972336E+01
 20
-1.90525530E+02
 11
6.46774544E+01
 21
-1.92970899E+02
  0
LINE
  8
0
 62
4
 10
6.12846432E+01
 20
-1.89693883E+02
 11
6.07648640E+01
 21
-1.92139252E+02
  0
LINE
  8
0
 62
4
 10
5.24387698E+01
 20
-1.83213102E+02
 11
5.19496960E+01
 21
-1.83109146E+02
  0
LINE
  8
0
 62
4
 10
5.07754763E+01
 20
-1.91038283E+02
 11
5.02864025E+01
 21
-1.90934327E+02
  0
LINE
  8
0
 62
4
 10
5.18249490E+01
 20
-1.83696035E+02
 11
5.01327536E+01
 21
-1.83336348E+02
  0
LINE
  8
0
 62
4
 10
4.87189541E+01
 20
-1.89987751E+02
 11
5.04111495E+01
 21
-1.90347439E+02
  0
LINE
  8
0
 62
4
 10
5.19496960E+01
 20
-1.83109146E+02
 11
5.02864025E+01
 21
-1.90934327E+02
  0
ARC
  8
0
 62
4
 10
5.97362949E+01
 20
-1.88831805E+02
 40
1.18077645E+01
 50
1.55273304E+02
 51
1.80975855E+02
  0
ARC
  8
0
 62
4
 10
5.50912922E+01
 20
-1.82753566E+02
 40
2.49901570E+00
 50
7.79774280E+01
 51
1.68022572E+02
  0
ARC
  8
0
 62
4
 10
4.89284951E+01
 20
-1.89011505E+02
 40
9.98481423E-01
 50
1.81228019E+02
 51
2.57885875E+02
  0
ARC
  8
0
 62
4
 10
4.99279859E+01
 20
-1.84311186E+02
 40
9.96112687E-01
 50
7.81373153E+01
 51
1.55469858E+02
  0
LINE
  8
0
 62
4
 10
6.14807157E+01
 20
-1.81556835E+02
 11
6.20407605E+01
 21
-1.80653536E+02
  0
LINE
  8
0
  6
CENTER
 62
6
 10
6.54629446E+01
 20
-1.79655991E+02
 11
6.45944439E+01
 21
-1.83741966E+02
  0
LINE
  8
0
 62
4
 10
6.20407605E+01
 20
-1.80653536E+02
 11
6.81835274E+01
 21
-1.81959221E+02
  0
LINE
  8
0
 62
4
 10
6.81835274E+01
 20
-1.81959221E+02
 11
6.83277489E+01
 21
-1.83012217E+02
  0
LINE
  8
0
  6
CENTER
 62
6
 10
8.23503021E+01
 20
-1.93660357E+02
 11
4.52491636E+01
 21
-1.85774267E+02
  0
LINE
  8
0
 62
4
 10
7.38351953E+01
 20
-1.97984459E+02
 11
5.03596529E+01
 21
-1.92994578E+02
  0
LINE
  8
0
 62
4
 10
5.26466815E+01
 20
-1.82234955E+02
 11
5.00477854E+01
 21
-1.94461800E+02
  0
LINE
  8
0
 62
4
 10
7.41966341E+01
 20
-1.84259687E+02
 11
5.56118297E+01
 21
-1.80309365E+02
  0
LINE
  8
0
 62
4
 10
7.32798974E+01
 20
-1.78953126E+02
 11
5.86076834E+01
 21
-1.75834450E+02
  0
LINE
  8
0
 62
4
 10
7.50282809E+01
 20
-1.80347097E+02
 11
5.64434765E+01
 21
-1.76396774E+02
  0
ARC
  8
0
 62
4
 10
6.96863735E+01
 20
-1.59786015E+02
 40
7.00000000E+00
 50
4.69793705E+01
 51
1.09020630E+02
  0
LINE
  8
0
 62
4
 10
6.35975640E+01
 20
-1.52358908E+02
 11
7.82697780E+01
 21
-1.55477583E+02
  0
LINE
  8
0
 62
4
 10
7.20913786E+01
 20
-1.53212131E+02
 11
7.12455385E+01
 21
-1.52451024E+02
  0
LINE
  8
0
 62
4
 10
7.12455385E+01
 20
-1.52451024E+02
 11
7.01633003E+01
 21
-1.52802281E+02
  0
LINE
  8
0
 62
4
 10
7.82697780E+01
 20
-1.55477583E+02
 11
7.30719857E+01
 21
-1.79931273E+02
  0
LINE
  8
0
 62
4
 10
6.35975640E+01
 20
-1.52358908E+02
 11
5.83997717E+01
 21
-1.76812598E+02
  0
ARC
  8
0
 62
4
 10
-4.32495100E+01
 20
-9.21192447E+01
 40
1.49950029E+00
 50
2.69980903E+02
 51
1.90971113E-02
  0
ARC
  8
0
 62
4
 10
-7.92505134E+01
 20
-9.21192485E+01
 40
1.49949647E+00
 50
1.79980757E+02
 51
2.70019243E+02
  0
LINE
  8
0
 62
4
 10
-7.82500098E+01
 20
-9.11733759E+01
 11
-5.92500098E+01
 21
-9.11733759E+01
  0
POLYLINE
  8
0
 62
4
 66
1
  0
VERTEX
  8
0
 62
4
 10
-4.96100098E+01
 20
-8.16730616E+01
  0
VERTEX
  8
0
 62
4
 10
-4.96219584E+01
 20
-8.14053729E+01
  0
VERTEX
  8
0
 62
4
 10
-4.96577135E+01
 20
-8.11397215E+01
  0
VERTEX
  8
0
 62
4
 10
-4.97170027E+01
 20
-8.08781291E+01
  0
VERTEX
  8
0
 62
4
 10
-4.97993750E+01
 20
-8.06225866E+01
  0
VERTEX
  8
0
 62
4
 10
-4.99042033E+01
 20
-8.03750389E+01
  0
VERTEX
  8
0
 62
4
 10
-5.00306900E+01
 20
-8.01373699E+01
  0
VERTEX
  8
0
 62
4
 10
-5.01778724E+01
 20
-7.99113884E+01
  0
VERTEX
  8
0
 62
4
 10
-5.03446302E+01
 20
-7.96988144E+01
  0
VERTEX
  8
0
 62
4
 10
-5.05296945E+01
 20
-7.95012655E+01
  0
VERTEX
  8
0
 62
4
 10
-5.07316567E+01
 20
-7.93202454E+01
  0
VERTEX
  8
0
 62
4
 10
-5.09489798E+01
 20
-7.91571316E+01
  0
VERTEX
  8
0
 62
4
 10
-5.11800098E+01
 20
-7.90131655E+01
  0
VERTEX
  8
0
 62
4
 10
-5.14229885E+01
 20
-7.88894428E+01
  0
VERTEX
  8
0
 62
4
 10
-5.16760666E+01
 20
-7.87869052E+01
  0
VERTEX
  8
0
 62
4
 10
-5.19373180E+01
 20
-7.87063330E+01
  0
VERTEX
  8
0
 62
4
 10
-5.22047545E+01
 20
-7.86483393E+01
  0
VERTEX
  8
0
 62
4
 10
-5.24763408E+01
 20
-7.86133657E+01
  0
VERTEX
  8
0
 62
4
 10
-5.27500098E+01
 20
-7.86016781E+01
  0
VERTEX
  8
0
 62
4
 10
-5.30236788E+01
 20
-7.86133657E+01
  0
VERTEX
  8
0
 62
4
 10
-5.32952651E+01
 20
-7.86483393E+01
  0
VERTEX
  8
0
 62
4
 10
-5.35627016E+01
 20
-7.87063330E+01
  0
VERTEX
  8
0
 62
4
 10
-5.38239531E+01
 20
-7.87869052E+01
  0
VERTEX
  8
0
 62
4
 10
-5.40770311E+01
 20
-7.88894428E+01
  0
VERTEX
  8
0
 62
4
 10
-5.43200098E+01
 20
-7.90131655E+01
  0
VERTEX
  8
0
 62
4
 10
-5.45510398E+01
 20
-7.91571316E+01
  0
VERTEX
  8
0
 62
4
 10
-5.47683629E+01
 20
-7.93202454E+01
  0
VERTEX
  8
0
 62
4
 10
-5.49703251E+01
 20
-7.95012655E+01
  0
VERTEX
  8
0
 62
4
 10
-5.51553894E+01
 20
-7.96988144E+01
  0
VERTEX
  8
0
 62
4
 10
-5.53221472E+01
 20
-7.99113884E+01
  0
VERTEX
  8
0
 62
4
 10
-5.54693296E+01
 20
-8.01373699E+01
  0
VERTEX
  8
0
 62
4
 10
-5.55958163E+01
 20
-8.03750389E+01
  0
VERTEX
  8
0
 62
4
 10
-5.57006446E+01
 20
-8.06225866E+01
  0
VERTEX
  8
0
 62
4
 10
-5.57830169E+01
 20
-8.08781291E+01
  0
VERTEX
  8
0
 62
4
 10
-5.58423061E+01
 20
-8.11397215E+01
  0
VERTEX
  8
0
 62
4
 10
-5.58780612E+01
 20
-8.14053729E+01
  0
VERTEX
  8
0
 62
4
 10
-5.58900098E+01
 20
-8.16730616E+01
  0
VERTEX
  8
0
 62
4
 10
-5.58780612E+01
 20
-8.19407503E+01
  0
VERTEX
  8
0
 62
4
 10
-5.58423061E+01
 20
-8.22064017E+01
  0
VERTEX
  8
0
 62
4
 10
-5.57830169E+01
 20
-8.24679941E+01
  0
VERTEX
  8
0
 62
4
 10
-5.57006446E+01
 20
-8.27235366E+01
  0
VERTEX
  8
0
 62
4
 10
-5.55958162E+01
 20
-8.29710843E+01
  0
VERTEX
  8
0
 62
4
 10
-5.54693296E+01
 20
-8.32087533E+01
  0
VERTEX
  8
0
 62
4
 10
-5.53221472E+01
 20
-8.34347348E+01
  0
VERTEX
  8
0
 62
4
 10
-5.51553893E+01
 20
-8.36473088E+01
  0
VERTEX
  8
0
 62
4
 10
-5.49703251E+01
 20
-8.38448577E+01
  0
VERTEX
  8
0
 62
4
 10
-5.47683629E+01
 20
-8.40258778E+01
  0
VERTEX
  8
0
 62
4
 10
-5.45510398E+01
 20
-8.41889917E+01
  0
VERTEX
  8
0
 62
4
 10
-5.43200098E+01
 20
-8.43329577E+01
  0
VERTEX
  8
0
 62
4
 10
-5.40770311E+01
 20
-8.44566804E+01
  0
VERTEX
  8
0
 62
4
 10
-5.38239530E+01
 20
-8.45592180E+01
  0
VERTEX
  8
0
 62
4
 10
-5.35627016E+01
 20
-8.46397902E+01
  0
VERTEX
  8
0
 62
4
 10
-5.32952651E+01
 20
-8.46977839E+01
  0
VERTEX
  8
0
 62
4
 10
-5.30236788E+01
 20
-8.47327575E+01
  0
VERTEX
  8
0
 62
4
 10
-5.27500098E+01
 20
-8.47444451E+01
  0
VERTEX
  8
0
 62
4
 10
-5.24763408E+01
 20
-8.47327575E+01
  0
VERTEX
  8
0
 62
4
 10
-5.22047545E+01
 20
-8.46977839E+01
  0
VERTEX
  8
0
 62
4
 10
-5.19373180E+01
 20
-8.46397902E+01
  0
VERTEX
  8
0
 62
4
 10
-5.16760665E+01
 20
-8.45592180E+01
  0
VERTEX
  8
0
 62
4
 10
-5.14229885E+01
 20
-8.44566804E+01
  0
VERTEX
  8
0
 62
4
 10
-5.11800098E+01
 20
-8.43329577E+01
  0
VERTEX
  8
0
 62
4
 10
-5.09489798E+01
 20
-8.41889916E+01
  0
VERTEX
  8
0
 62
4
 10
-5.07316567E+01
 20
-8.40258778E+01
  0
VERTEX
  8
0
 62
4
 10
-5.05296945E+01
 20
-8.38448577E+01
  0
VERTEX
  8
0
 62
4
 10
-5.03446302E+01
 20
-8.36473088E+01
  0
VERTEX
  8
0
 62
4
 10
-5.01778724E+01
 20
-8.34347348E+01
  0
VERTEX
  8
0
 62
4
 10
-5.00306900E+01
 20
-8.32087533E+01
  0
VERTEX
  8
0
 62
4
 10
-4.99042033E+01
 20
-8.29710843E+01
  0
VERTEX
  8
0
 62
4
 10
-4.97993750E+01
 20
-8.27235366E+01
  0
VERTEX
  8
0
 62
4
 10
-4.97170027E+01
 20
-8.24679941E+01
  0
VERTEX
  8
0
 62
4
 10
-4.96577135E+01
 20
-8.22064017E+01
  0
VERTEX
  8
0
 62
4
 10
-4.96219584E+01
 20
-8.19407503E+01
  0
VERTEX
  8
0
 62
4
 10
-4.96100098E+01
 20
-8.16730616E+01
  0
SEQEND
  8
0
  0
POLYLINE
  8
0
 62
4
 66
1
  0
VERTEX
  8
0
 62
4
 10
-4.92500098E+01
 20
-8.18809733E+01
  0
VERTEX
  8
0
 62
4
 10
-4.92633284E+01
 20
-8.15825942E+01
  0
VERTEX
  8
0
 62
4
 10
-4.93031827E+01
 20
-8.12864859E+01
  0
VERTEX
  8
0
 62
4
 10
-4.93692694E+01
 20
-8.09949020E+01
  0
VERTEX
  8
0
 62
4
 10
-4.94610856E+01
 20
-8.07100617E+01
  0
VERTEX
  8
0
 62
4
 10
-4.95779325E+01
 20
-8.04341327E+01
  0
VERTEX
  8
0
 62
4
 10
-4.97189209E+01
 20
-8.01692150E+01
  0
VERTEX
  8
0
 62
4
 10
-4.98829776E+01
 20
-7.99173248E+01
  0
VERTEX
  8
0
 62
4
 10
-5.00688542E+01
 20
-7.96803792E+01
  0
VERTEX
  8
0
 62
4
 10
-5.02751361E+01
 20
-7.94601815E+01
  0
VERTEX
  8
0
 62
4
 10
-5.05002532E+01
 20
-7.92584074E+01
  0
VERTEX
  8
0
 62
4
 10
-5.07424923E+01
 20
-7.90765927E+01
  0
VERTEX
  8
0
 62
4
 10
-5.10000098E+01
 20
-7.89161210E+01
  0
VERTEX
  8
0
 62
4
 10
-5.12708459E+01
 20
-7.87782135E+01
  0
VERTEX
  8
0
 62
4
 10
-5.15529393E+01
 20
-7.86639200E+01
  0
VERTEX
  8
0
 62
4
 10
-5.18441431E+01
 20
-7.85741102E+01
  0
VERTEX
  8
0
 62
4
 10
-5.21422412E+01
 20
-7.85094676E+01
  0
VERTEX
  8
0
 62
4
 10
-5.24449647E+01
 20
-7.84704842E+01
  0
VERTEX
  8
0
 62
4
 10
-5.27500098E+01
 20
-7.84574567E+01
  0
VERTEX
  8
0
 62
4
 10
-5.30550549E+01
 20
-7.84704842E+01
  0
VERTEX
  8
0
 62
4
 10
-5.33577784E+01
 20
-7.85094676E+01
  0
VERTEX
  8
0
 62
4
 10
-5.36558765E+01
 20
-7.85741102E+01
  0
VERTEX
  8
0
 62
4
 10
-5.39470803E+01
 20
-7.86639200E+01
  0
VERTEX
  8
0
 62
4
 10
-5.42291737E+01
 20
-7.87782135E+01
  0
VERTEX
  8
0
 62
4
 10
-5.45000098E+01
 20
-7.89161210E+01
  0
VERTEX
  8
0
 62
4
 10
-5.47575273E+01
 20
-7.90765927E+01
  0
VERTEX
  8
0
 62
4
 10
-5.49997664E+01
 20
-7.92584074E+01
  0
VERTEX
  8
0
 62
4
 10
-5.52248835E+01
 20
-7.94601815E+01
  0
VERTEX
  8
0
 62
4
 10
-5.54311654E+01
 20
-7.96803793E+01
  0
VERTEX
  8
0
 62
4
 10
-5.56170420E+01
 20
-7.99173249E+01
  0
VERTEX
  8
0
 62
4
 10
-5.57810987E+01
 20
-8.01692150E+01
  0
VERTEX
  8
0
 62
4
 10
-5.59220871E+01
 20
-8.04341327E+01
  0
VERTEX
  8
0
 62
4
 10
-5.60389340E+01
 20
-8.07100617E+01
  0
VERTEX
  8
0
 62
4
 10
-5.61307502E+01
 20
-8.09949020E+01
  0
VERTEX
  8
0
 62
4
 10
-5.61968369E+01
 20
-8.12864859E+01
  0
VERTEX
  8
0
 62
4
 10
-5.62366912E+01
 20
-8.15825942E+01
  0
VERTEX
  8
0
 62
4
 10
-5.62500098E+01
 20
-8.18809733E+01
  0
VERTEX
  8
0
 62
4
 10
-5.62366912E+01
 20
-8.21793524E+01
  0
VERTEX
  8
0
 62
4
 10
-5.61968369E+01
 20
-8.24754607E+01
  0
VERTEX
  8
0
 62
4
 10
-5.61307502E+01
 20
-8.27670446E+01
  0
VERTEX
  8
0
 62
4
 10
-5.60389340E+01
 20
-8.30518849E+01
  0
VERTEX
  8
0
 62
4
 10
-5.59220871E+01
 20
-8.33278139E+01
  0
VERTEX
  8
0
 62
4
 10
-5.57810987E+01
 20
-8.35927316E+01
  0
VERTEX
  8
0
 62
4
 10
-5.56170420E+01
 20
-8.38446218E+01
  0
VERTEX
  8
0
 62
4
 10
-5.54311653E+01
 20
-8.40815674E+01
  0
VERTEX
  8
0
 62
4
 10
-5.52248835E+01
 20
-8.43017651E+01
  0
VERTEX
  8
0
 62
4
 10
-5.49997664E+01
 20
-8.45035392E+01
  0
VERTEX
  8
0
 62
4
 10
-5.47575273E+01
 20
-8.46853539E+01
  0
VERTEX
  8
0
 62
4
 10
-5.45000098E+01
 20
-8.48458256E+01
  0
VERTEX
  8
0
 62
4
 10
-5.42291737E+01
 20
-8.49837331E+01
  0
VERTEX
  8
0
 62
4
 10
-5.39470803E+01
 20
-8.50980266E+01
  0
VERTEX
  8
0
 62
4
 10
-5.36558765E+01
 20
-8.51878364E+01
  0
VERTEX
  8
0
 62
4
 10
-5.33577784E+01
 20
-8.52524790E+01
  0
VERTEX
  8
0
 62
4
 10
-5.30550549E+01
 20
-8.52914624E+01
  0
VERTEX
  8
0
 62
4
 10
-5.27500098E+01
 20
-8.53044899E+01
  0
VERTEX
  8
0
 62
4
 10
-5.24449647E+01
 20
-8.52914624E+01
  0
VERTEX
  8
0
 62
4
 10
-5.21422412E+01
 20
-8.52524790E+01
  0
VERTEX
  8
0
 62
4
 10
-5.18441431E+01
 20
-8.51878364E+01
  0
VERTEX
  8
0
 62
4
 10
-5.15529393E+01
 20
-8.50980266E+01
  0
VERTEX
  8
0
 62
4
 10
-5.12708459E+01
 20
-8.49837331E+01
  0
VERTEX
  8
0
 62
4
 10
-5.10000098E+01
 20
-8.48458256E+01
  0
VERTEX
  8
0
 62
4
 10
-5.07424923E+01
 20
-8.46853539E+01
  0
VERTEX
  8
0
 62
4
 10
-5.05002532E+01
 20
-8.45035392E+01
  0
VERTEX
  8
0
 62
4
 10
-5.02751361E+01
 20
-8.43017651E+01
  0
VERTEX
  8
0
 62
4
 10
-5.00688542E+01
 20
-8.40815673E+01
  0
VERTEX
  8
0
 62
4
 10
-4.98829776E+01
 20
-8.38446217E+01
  0
VERTEX
  8
0
 62
4
 10
-4.97189209E+01
 20
-8.35927316E+01
  0
VERTEX
  8
0
 62
4
 10
-4.95779325E+01
 20
-8.33278139E+01
  0
VERTEX
  8
0
 62
4
 10
-4.94610856E+01
 20
-8.30518849E+01
  0
VERTEX
  8
0
 62
4
 10
-4.93692694E+01
 20
-8.27670446E+01
  0
VERTEX
  8
0
 62
4
 10
-4.93031827E+01
 20
-8.24754607E+01
  0
VERTEX
  8
0
 62
4
 10
-4.92633284E+01
 20
-8.21793524E+01
  0
VERTEX
  8
0
 62
4
 10
-4.92500098E+01
 20
-8.18809733E+01
  0
SEQEND
  8
0
  0
ARC
  8
0
 62
4
 10
-6.45144148E+01
 20
-8.71864754E+01
 40
1.21769740E+01
 50
2.40462101E+02
 51
2.53021762E+02
  0
ARC
  8
0
 62
4
 10
-7.29856048E+01
 20
-8.71864754E+01
 40
1.21769740E+01
 50
2.86978238E+02
 51
2.99537899E+02
  0
POLYLINE
  8
0
 62
4
 66
1
  0
VERTEX
  8
0
 62
4
 10
-6.53500098E+01
 20
-9.77537073E+01
  0
VERTEX
  8
0
 62
4
 10
-6.53629478E+01
 20
-9.76577266E+01
  0
VERTEX
  8
0
 62
4
 10
-6.54016634E+01
 20
-9.75624763E+01
  0
VERTEX
  8
0
 62
4
 10
-6.54658620E+01
 20
-9.74686814E+01
  0
VERTEX
  8
0
 62
4
 10
-6.55550549E+01
 20
-9.73770558E+01
  0
VERTEX
  8
0
 62
4
 10
-6.56685633E+01
 20
-9.72882967E+01
  0
VERTEX
  8
0
 62
4
 10
-6.58055234E+01
 20
-9.72030796E+01
  0
VERTEX
  8
0
 62
4
 10
-6.59648928E+01
 20
-9.71220532E+01
  0
VERTEX
  8
0
 62
4
 10
-6.61454587E+01
 20
-9.70458340E+01
  0
VERTEX
  8
0
 62
4
 10
-6.63458467E+01
 20
-9.69750022E+01
  0
VERTEX
  8
0
 62
4
 10
-6.65645319E+01
 20
-9.69100968E+01
  0
VERTEX
  8
0
 62
4
 10
-6.67998499E+01
 20
-9.68516117E+01
  0
VERTEX
  8
0
 62
4
 10
-6.70500098E+01
 20
-9.67999922E+01
  0
VERTEX
  8
0
 62
4
 10
-6.73131077E+01
 20
-9.67556310E+01
  0
VERTEX
  8
0
 62
4
 10
-6.75871413E+01
 20
-9.67188658E+01
  0
VERTEX
  8
0
 62
4
 10
-6.78700250E+01
 20
-9.66899763E+01
  0
VERTEX
  8
0
 62
4
 10
-6.81596060E+01
 20
-9.66691825E+01
  0
VERTEX
  8
0
 62
4
 10
-6.84536803E+01
 20
-9.66566426E+01
  0
VERTEX
  8
0
 62
4
 10
-6.87500098E+01
 20
-9.66524520E+01
  0
VERTEX
  8
0
 62
4
 10
-6.90463393E+01
 20
-9.66566426E+01
  0
VERTEX
  8
0
 62
4
 10
-6.93404136E+01
 20
-9.66691825E+01
  0
VERTEX
  8
0
 62
4
 10
-6.96299946E+01
 20
-9.66899763E+01
  0
VERTEX
  8
0
 62
4
 10
-6.99128783E+01
 20
-9.67188658E+01
  0
VERTEX
  8
0
 62
4
 10
-7.01869119E+01
 20
-9.67556310E+01
  0
VERTEX
  8
0
 62
4
 10
-7.04500098E+01
 20
-9.67999922E+01
  0
VERTEX
  8
0
 62
4
 10
-7.07001697E+01
 20
-9.68516117E+01
  0
VERTEX
  8
0
 62
4
 10
-7.09354877E+01
 20
-9.69100968E+01
  0
VERTEX
  8
0
 62
4
 10
-7.11541729E+01
 20
-9.69750022E+01
  0
VERTEX
  8
0
 62
4
 10
-7.13545609E+01
 20
-9.70458340E+01
  0
VERTEX
  8
0
 62
4
 10
-7.15351268E+01
 20
-9.71220532E+01
  0
VERTEX
  8
0
 62
4
 10
-7.16944962E+01
 20
-9.72030796E+01
  0
VERTEX
  8
0
 62
4
 10
-7.18314563E+01
 20
-9.72882967E+01
  0
VERTEX
  8
0
 62
4
 10
-7.19449647E+01
 20
-9.73770558E+01
  0
VERTEX
  8
0
 62
4
 10
-7.20341576E+01
 20
-9.74686814E+01
  0
VERTEX
  8
0
 62
4
 10
-7.20983562E+01
 20
-9.75624763E+01
  0
VERTEX
  8
0
 62
4
 10
-7.21370718E+01
 20
-9.76577266E+01
  0
VERTEX
  8
0
 62
4
 10
-7.21500098E+01
 20
-9.77537073E+01
  0
VERTEX
  8
0
 62
4
 10
-7.21370718E+01
 20
-9.78496880E+01
  0
VERTEX
  8
0
 62
4
 10
-7.20983562E+01
 20
-9.79449383E+01
  0
VERTEX
  8
0
 62
4
 10
-7.20341576E+01
 20
-9.80387332E+01
  0
VERTEX
  8
0
 62
4
 10
-7.19449647E+01
 20
-9.81303588E+01
  0
VERTEX
  8
0
 62
4
 10
-7.18314563E+01
 20
-9.82191179E+01
  0
VERTEX
  8
0
 62
4
 10
-7.16944962E+01
 20
-9.83043350E+01
  0
VERTEX
  8
0
 62
4
 10
-7.15351267E+01
 20
-9.83853614E+01
  0
VERTEX
  8
0
 62
4
 10
-7.13545609E+01
 20
-9.84615806E+01
  0
VERTEX
  8
0
 62
4
 10
-7.11541729E+01
 20
-9.85324124E+01
  0
VERTEX
  8
0
 62
4
 10
-7.09354877E+01
 20
-9.85973178E+01
  0
VERTEX
  8
0
 62
4
 10
-7.07001697E+01
 20
-9.86558029E+01
  0
VERTEX
  8
0
 62
4
 10
-7.04500098E+01
 20
-9.87074224E+01
  0
VERTEX
  8
0
 62
4
 10
-7.01869119E+01
 20
-9.87517836E+01
  0
VERTEX
  8
0
 62
4
 10
-6.99128783E+01
 20
-9.87885488E+01
  0
VERTEX
  8
0
 62
4
 10
-6.96299945E+01
 20
-9.88174383E+01
  0
VERTEX
  8
0
 62
4
 10
-6.93404136E+01
 20
-9.88382321E+01
  0
VERTEX
  8
0
 62
4
 10
-6.90463393E+01
 20
-9.88507720E+01
  0
VERTEX
  8
0
 62
4
 10
-6.87500098E+01
 20
-9.88549626E+01
  0
VERTEX
  8
0
 62
4
 10
-6.84536803E+01
 20
-9.88507720E+01
  0
VERTEX
  8
0
 62
4
 10
-6.81596060E+01
 20
-9.88382321E+01
  0
VERTEX
  8
0
 62
4
 10
-6.78700250E+01
 20
-9.88174383E+01
  0
VERTEX
  8
0
 62
4
 10
-6.75871413E+01
 20
-9.87885488E+01
  0
VERTEX
  8
0
 62
4
 10
-6.73131077E+01
 20
-9.87517836E+01
  0
VERTEX
  8
0
 62
4
 10
-6.70500098E+01
 20
-9.87074224E+01
  0
VERTEX
  8
0
 62
4
 10
-6.67998499E+01
 20
-9.86558029E+01
  0
VERTEX
  8
0
 62
4
 10
-6.65645319E+01
 20
-9.85973178E+01
  0
VERTEX
  8
0
 62
4
 10
-6.63458467E+01
 20
-9.85324124E+01
  0
VERTEX
  8
0
 62
4
 10
-6.61454587E+01
 20
-9.84615806E+01
  0
VERTEX
  8
0
 62
4
 10
-6.59648928E+01
 20
-9.83853614E+01
  0
VERTEX
  8
0
 62
4
 10
-6.58055234E+01
 20
-9.83043350E+01
  0
VERTEX
  8
0
 62
4
 10
-6.56685633E+01
 20
-9.82191179E+01
  0
VERTEX
  8
0
 62
4
 10
-6.55550549E+01
 20
-9.81303588E+01
  0
VERTEX
  8
0
 62
4
 10
-6.54658620E+01
 20
-9.80387332E+01
  0
VERTEX
  8
0
 62
4
 10
-6.54016634E+01
 20
-9.79449383E+01
  0
VERTEX
  8
0
 62
4
 10
-6.53629478E+01
 20
-9.78496880E+01
  0
VERTEX
  8
0
 62
4
 10
-6.53500098E+01
 20
-9.77537073E+01
  0
SEQEND
  8
0
  0
POLYLINE
  8
0
 62
4
 66
1
  0
VERTEX
  8
0
 62
4
 10
-6.47500098E+01
 20
-9.51780825E+01
  0
VERTEX
  8
0
 62
4
 10
-6.47661126E+01
 20
-9.51035343E+01
  0
VERTEX
  8
0
 62
4
 10
-6.48142914E+01
 20
-9.50295862E+01
  0
VERTEX
  8
0
 62
4
 10
-6.48941584E+01
 20
-9.49568338E+01
  0
VERTEX
  8
0
 62
4
 10
-6.50050703E+01
 20
-9.48858628E+01
  0
VERTEX
  8
0
 62
4
 10
-6.51461343E+01
 20
-9.48172445E+01
  0
VERTEX
  8
0
 62
4
 10
-6.53162146E+01
 20
-9.47515315E+01
  0
VERTEX
  8
0
 62
4
 10
-6.55139418E+01
 20
-9.46892528E+01
  0
VERTEX
  8
0
 62
4
 10
-6.57377239E+01
 20
-9.46309099E+01
  0
VERTEX
  8
0
 62
4
 10
-6.59857592E+01
 20
-9.45769725E+01
  0
VERTEX
  8
0
 62
4
 10
-6.62560506E+01
 20
-9.45278749E+01
  0
VERTEX
  8
0
 62
4
 10
-6.65464219E+01
 20
-9.44840124E+01
  0
VERTEX
  8
0
 62
4
 10
-6.68545351E+01
 20
-9.44457381E+01
  0
VERTEX
  8
0
 62
4
 10
-6.71779097E+01
 20
-9.44133602E+01
  0
VERTEX
  8
0
 62
4
 10
-6.75139418E+01
 20
-9.43871394E+01
  0
VERTEX
  8
0
 62
4
 10
-6.78599261E+01
 20
-9.43672869E+01
  0
VERTEX
  8
0
 62
4
 10
-6.82130767E+01
 20
-9.43539623E+01
  0
VERTEX
  8
0
 62
4
 10
-6.85705505E+01
 20
-9.43472732E+01
  0
VERTEX
  8
0
 62
4
 10
-6.89294691E+01
 20
-9.43472731E+01
  0
VERTEX
  8
0
 62
4
 10
-6.92869429E+01
 20
-9.43539623E+01
  0
VERTEX
  8
0
 62
4
 10
-6.96400935E+01
 20
-9.43672869E+01
  0
VERTEX
  8
0
 62
4
 10
-6.99860778E+01
 20
-9.43871394E+01
  0
VERTEX
  8
0
 62
4
 10
-7.03221099E+01
 20
-9.44133602E+01
  0
VERTEX
  8
0
 62
4
 10
-7.06454844E+01
 20
-9.44457381E+01
  0
VERTEX
  8
0
 62
4
 10
-7.09535977E+01
 20
-9.44840124E+01
  0
VERTEX
  8
0
 62
4
 10
-7.12439690E+01
 20
-9.45278749E+01
  0
VERTEX
  8
0
 62
4
 10
-7.15142604E+01
 20
-9.45769725E+01
  0
VERTEX
  8
0
 62
4
 10
-7.17622957E+01
 20
-9.46309099E+01
  0
VERTEX
  8
0
 62
4
 10
-7.19860778E+01
 20
-9.46892528E+01
  0
VERTEX
  8
0
 62
4
 10
-7.21838050E+01
 20
-9.47515315E+01
  0
VERTEX
  8
0
 62
4
 10
-7.23538853E+01
 20
-9.48172445E+01
  0
VERTEX
  8
0
 62
4
 10
-7.24949493E+01
 20
-9.48858628E+01
  0
VERTEX
  8
0
 62
4
 10
-7.26058612E+01
 20
-9.49568338E+01
  0
VERTEX
  8
0
 62
4
 10
-7.26857282E+01
 20
-9.50295862E+01
  0
VERTEX
  8
0
 62
4
 10
-7.27339070E+01
 20
-9.51035343E+01
  0
VERTEX
  8
0
 62
4
 10
-7.27500098E+01
 20
-9.51780825E+01
  0
SEQEND
  8
0
  0
LINE
  8
0
 62
4
 10
-6.53500098E+01
 20
-9.67374202E+01
 11
-4.32500098E+01
 21
-9.67374202E+01
  0
ARC
  8
0
 62
4
 10
-7.92505134E+01
 20
-9.52379238E+01
 40
1.49949647E+00
 50
1.79980757E+02
 51
2.70019243E+02
  0
ARC
  8
0
 62
4
 10
-4.32495100E+01
 20
-9.52379200E+01
 40
1.49950029E+00
 50
2.69980903E+02
 51
1.90971113E-02
  0
LINE
  8
0
 62
4
 10
-7.92500098E+01
 20
-9.67374202E+01
 11
-7.21500098E+01
 21
-9.67374202E+01
  0
POLYLINE
  8
0
 62
4
 66
1
  0
VERTEX
  8
0
 62
4
 10
-6.53500098E+01
 20
-9.56671478E+01
  0
VERTEX
  8
0
 62
4
 10
-6.53637007E+01
 20
-9.56037821E+01
  0
VERTEX
  8
0
 62
4
 10
-6.54046561E+01
 20
-9.55409266E+01
  0
VERTEX
  8
0
 62
4
 10
-6.54725460E+01
 20
-9.54790875E+01
  0
VERTEX
  8
0
 62
4
 10
-6.55668239E+01
 20
-9.54187625E+01
  0
VERTEX
  8
0
 62
4
 10
-6.56867308E+01
 20
-9.53604375E+01
  0
VERTEX
  8
0
 62
4
 10
-6.58313012E+01
 20
-9.53045819E+01
  0
VERTEX
  8
0
 62
4
 10
-6.59993712E+01
 20
-9.52516456E+01
  0
VERTEX
  8
0
 62
4
 10
-6.61895875E+01
 20
-9.52020547E+01
  0
VERTEX
  8
0
 62
4
 10
-6.64004187E+01
 20
-9.51562084E+01
  0
VERTEX
  8
0
 62
4
 10
-6.66301672E+01
 20
-9.51144760E+01
  0
VERTEX
  8
0
 62
4
 10
-6.68769834E+01
 20
-9.50771935E+01
  0
VERTEX
  8
0
 62
4
 10
-6.71388799E+01
 20
-9.50446609E+01
  0
VERTEX
  8
0
 62
4
 10
-6.74137482E+01
 20
-9.50171403E+01
  0
VERTEX
  8
0
 62
4
 10
-6.76993753E+01
 20
-9.49948531E+01
  0
VERTEX
  8
0
 62
4
 10
-6.79934613E+01
 20
-9.49779789E+01
  0
VERTEX
  8
0
 62
4
 10
-6.82936386E+01
 20
-9.49666535E+01
  0
VERTEX
  8
0
 62
4
 10
-6.85974903E+01
 20
-9.49609682E+01
  0
VERTEX
  8
0
 62
4
 10
-6.89025700E+01
 20
-9.49609685E+01
  0
VERTEX
  8
0
 62
4
 10
-6.92064214E+01
 20
-9.49666547E+01
  0
VERTEX
  8
0
 62
4
 10
-6.95065980E+01
 20
-9.49779808E+01
  0
VERTEX
  8
0
 62
4
 10
-6.98006831E+01
 20
-9.49948557E+01
  0
VERTEX
  8
0
 62
4
 10
-7.00863088E+01
 20
-9.50171436E+01
  0
VERTEX
  8
0
 62
4
 10
-7.03611756E+01
 20
-9.50446649E+01
  0
VERTEX
  8
0
 62
4
 10
-7.06230702E+01
 20
-9.50771981E+01
  0
VERTEX
  8
0
 62
4
 10
-7.08698842E+01
 20
-9.51144813E+01
  0
VERTEX
  8
0
 62
4
 10
-7.10996304E+01
 20
-9.51562143E+01
  0
VERTEX
  8
0
 62
4
 10
-7.13104589E+01
 20
-9.52020610E+01
  0
VERTEX
  8
0
 62
4
 10
-7.15006724E+01
 20
-9.52516524E+01
  0
VERTEX
  8
0
 62
4
 10
-7.16687393E+01
 20
-9.53045892E+01
  0
VERTEX
  8
0
 62
4
 10
-7.18133065E+01
 20
-9.53604451E+01
  0
VERTEX
  8
0
 62
4
 10
-7.19332100E+01
 20
-9.54187704E+01
  0
VERTEX
  8
0
 62
4
 10
-7.20274845E+01
 20
-9.54790956E+01
  0
VERTEX
  8
0
 62
4
 10
-7.20953708E+01
 20
-9.55409350E+01
  0
VERTEX
  8
0
 62
4
 10
-7.21363225E+01
 20
-9.56037905E+01
  0
VERTEX
  8
0
 62
4
 10
-7.21500098E+01
 20
-9.56671563E+01
  0
SEQEND
  8
0
  0
POLYLINE
  8
0
 62
4
 66
1
  0
VERTEX
  8
0
 62
4
 10
-6.53500098E+01
 20
-9.61052534E+01
  0
VERTEX
  8
0
 62
4
 10
-6.51769578E+01
 20
-9.60410101E+01
  0
VERTEX
  8
0
 62
4
 10
-6.50319148E+01
 20
-9.59738362E+01
  0
VERTEX
  8
0
 62
4
 10
-6.49160180E+01
 20
-9.59042583E+01
  0
VERTEX
  8
0
 62
4
 10
-6.48301757E+01
 20
-9.58328217E+01
  0
VERTEX
  8
0
 62
4
 10
-6.47750609E+01
 20
-9.57600864E+01
  0
VERTEX
  8
0
 62
4
 10
-6.47511057E+01
 20
-9.56866227E+01
  0
VERTEX
  8
0
 62
4
 10
-6.47584979E+01
 20
-9.56130064E+01
  0
VERTEX
  8
0
 62
4
 10
-6.47971794E+01
 20
-9.55398145E+01
  0
VERTEX
  8
0
 62
4
 10
-6.48668471E+01
 20
-9.54676209E+01
  0
VERTEX
  8
0
 62
4
 10
-6.49669548E+01
 20
-9.53969915E+01
  0
VERTEX
  8
0
 62
4
 10
-6.50967179E+01
 20
-9.53284798E+01
  0
VERTEX
  8
0
 62
4
 10
-6.52551190E+01
 20
-9.52626231E+01
  0
VERTEX
  8
0
 62
4
 10
-6.54409165E+01
 20
-9.51999374E+01
  0
VERTEX
  8
0
 62
4
 10
-6.56526540E+01
 20
-9.51409143E+01
  0
VERTEX
  8
0
 62
4
 10
-6.58886716E+01
 20
-9.50860164E+01
  0
VERTEX
  8
0
 62
4
 10
-6.61471191E+01
 20
-9.50356740E+01
  0
VERTEX
  8
0
 62
4
 10
-6.64259707E+01
 20
-9.49902818E+01
  0
VERTEX
  8
0
 62
4
 10
-6.67230403E+01
 20
-9.49501957E+01
  0
VERTEX
  8
0
 62
4
 10
-6.70359994E+01
 20
-9.49157297E+01
  0
VERTEX
  8
0
 62
4
 10
-6.73623945E+01
 20
-9.48871542E+01
  0
VERTEX
  8
0
 62
4
 10
-6.76996672E+01
 20
-9.48646931E+01
  0
VERTEX
  8
0
 62
4
 10
-6.80451734E+01
 20
-9.48485225E+01
  0
VERTEX
  8
0
 62
4
 10
-6.83962049E+01
 20
-9.48387692E+01
  0
VERTEX
  8
0
 62
4
 10
-6.87500098E+01
 20
-9.48355095E+01
  0
VERTEX
  8
0
 62
4
 10
-6.91038147E+01
 20
-9.48387692E+01
  0
VERTEX
  8
0
 62
4
 10
-6.94548462E+01
 20
-9.48485225E+01
  0
VERTEX
  8
0
 62
4
 10
-6.98003524E+01
 20
-9.48646931E+01
  0
VERTEX
  8
0
 62
4
 10
-7.01376250E+01
 20
-9.48871542E+01
  0
VERTEX
  8
0
 62
4
 10
-7.04640202E+01
 20
-9.49157297E+01
  0
VERTEX
  8
0
 62
4
 10
-7.07769792E+01
 20
-9.49501957E+01
  0
VERTEX
  8
0
 62
4
 10
-7.10740489E+01
 20
-9.49902818E+01
  0
VERTEX
  8
0
 62
4
 10
-7.13529005E+01
 20
-9.50356740E+01
  0
VERTEX
  8
0
 62
4
 10
-7.16113480E+01
 20
-9.50860164E+01
  0
VERTEX
  8
0
 62
4
 10
-7.18473656E+01
 20
-9.51409143E+01
  0
VERTEX
  8
0
 62
4
 10
-7.20591030E+01
 20
-9.51999374E+01
  0
VERTEX
  8
0
 62
4
 10
-7.22449006E+01
 20
-9.52626231E+01
  0
VERTEX
  8
0
 62
4
 10
-7.24033017E+01
 20
-9.53284798E+01
  0
VERTEX
  8
0
 62
4
 10
-7.25330648E+01
 20
-9.53969915E+01
  0
VERTEX
  8
0
 62
4
 10
-7.26331725E+01
 20
-9.54676209E+01
  0
VERTEX
  8
0
 62
4
 10
-7.27028402E+01
 20
-9.55398145E+01
  0
VERTEX
  8
0
 62
4
 10
-7.27415217E+01
 20
-9.56130064E+01
  0
VERTEX
  8
0
 62
4
 10
-7.27489139E+01
 20
-9.56866227E+01
  0
VERTEX
  8
0
 62
4
 10
-7.27249587E+01
 20
-9.57600864E+01
  0
VERTEX
  8
0
 62
4
 10
-7.26698439E+01
 20
-9.58328217E+01
  0
VERTEX
  8
0
 62
4
 10
-7.25840016E+01
 20
-9.59042583E+01
  0
VERTEX
  8
0
 62
4
 10
-7.24681048E+01
 20
-9.59738362E+01
  0
VERTEX
  8
0
 62
4
 10
-7.23230618E+01
 20
-9.60410101E+01
  0
VERTEX
  8
0
 62
4
 10
-7.21500098E+01
 20
-9.61052534E+01
  0
SEQEND
  8
0
  0
LINE
  8
0
  6
CENTER
 62
6
 10
-7.37990947E+01
 20
-7.58515346E+01
 11
-6.37009249E+01
 21
-7.58515346E+01
  0
LINE
  8
0
  6
CENTER
 62
6
 10
-5.27500098E+01
 20
-7.67237131E+01
 11
-5.27500098E+01
 21
-8.66224102E+01
  0
POLYLINE
  8
0
 62
4
 66
1
  0
VERTEX
  8
0
 62
4
 10
-6.57500098E+01
 20
-7.58515346E+01
  0
VERTEX
  8
0
 62
4
 10
-6.57614257E+01
 20
-7.55957811E+01
  0
VERTEX
  8
0
 62
4
 10
-6.57955865E+01
 20
-7.53419740E+01
  0
VERTEX
  8
0
 62
4
 10
-6.58522323E+01
 20
-7.50920449E+01
  0
VERTEX
  8
0
 62
4
 10
-6.59309319E+01
 20
-7.48478961E+01
  0
VERTEX
  8
0
 62
4
 10
-6.60310864E+01
 20
-7.46113855E+01
  0
VERTEX
  8
0
 62
4
 10
-6.61519336E+01
 20
-7.43843132E+01
  0
VERTEX
  8
0
 62
4
 10
-6.62925537E+01
 20
-7.41684074E+01
  0
VERTEX
  8
0
 62
4
 10
-6.64518765E+01
 20
-7.39653111E+01
  0
VERTEX
  8
0
 62
4
 10
-6.66286895E+01
 20
-7.37765702E+01
  0
VERTEX
  8
0
 62
4
 10
-6.68216470E+01
 20
-7.36036210E+01
  0
VERTEX
  8
0
 62
4
 10
-6.70292805E+01
 20
-7.34477798E+01
  0
VERTEX
  8
0
 62
4
 10
-6.72500098E+01
 20
-7.33102326E+01
  0
VERTEX
  8
0
 62
4
 10
-6.74821550E+01
 20
-7.31920262E+01
  0
VERTEX
  8
0
 62
4
 10
-6.77239494E+01
 20
-7.30940604E+01
  0
VERTEX
  8
0
 62
4
 10
-6.79735527E+01
 20
-7.30170805E+01
  0
VERTEX
  8
0
 62
4
 10
-6.82290653E+01
 20
-7.29616726E+01
  0
VERTEX
  8
0
 62
4
 10
-6.84885426E+01
 20
-7.29282582E+01
  0
VERTEX
  8
0
 62
4
 10
-6.87500098E+01
 20
-7.29170918E+01
  0
VERTEX
  8
0
 62
4
 10
-6.90114770E+01
 20
-7.29282582E+01
  0
VERTEX
  8
0
 62
4
 10
-6.92709543E+01
 20
-7.29616726E+01
  0
VERTEX
  8
0
 62
4
 10
-6.95264669E+01
 20
-7.30170805E+01
  0
VERTEX
  8
0
 62
4
 10
-6.97760702E+01
 20
-7.30940604E+01
  0
VERTEX
  8
0
 62
4
 10
-7.00178646E+01
 20
-7.31920262E+01
  0
VERTEX
  8
0
 62
4
 10
-7.02500098E+01
 20
-7.33102326E+01
  0
VERTEX
  8
0
 62
4
 10
-7.04707391E+01
 20
-7.34477798E+01
  0
VERTEX
  8
0
 62
4
 10
-7.06783726E+01
 20
-7.36036210E+01
  0
VERTEX
  8
0
 62
4
 10
-7.08713301E+01
 20
-7.37765702E+01
  0
VERTEX
  8
0
 62
4
 10
-7.10481431E+01
 20
-7.39653111E+01
  0
VERTEX
  8
0
 62
4
 10
-7.12074659E+01
 20
-7.41684074E+01
  0
VERTEX
  8
0
 62
4
 10
-7.13480860E+01
 20
-7.43843132E+01
  0
VERTEX
  8
0
 62
4
 10
-7.14689332E+01
 20
-7.46113855E+01
  0
VERTEX
  8
0
 62
4
 10
-7.15690877E+01
 20
-7.48478961E+01
  0
VERTEX
  8
0
 62
4
 10
-7.16477873E+01
 20
-7.50920449E+01
  0
VERTEX
  8
0
 62
4
 10
-7.17044331E+01
 20
-7.53419740E+01
  0
VERTEX
  8
0
 62
4
 10
-7.17385939E+01
 20
-7.55957811E+01
  0
VERTEX
  8
0
 62
4
 10
-7.17500098E+01
 20
-7.58515346E+01
  0
VERTEX
  8
0
 62
4
 10
-7.17385939E+01
 20
-7.61072881E+01
  0
VERTEX
  8
0
 62
4
 10
-7.17044331E+01
 20
-7.63610952E+01
  0
VERTEX
  8
0
 62
4
 10
-7.16477873E+01
 20
-7.66110243E+01
  0
VERTEX
  8
0
 62
4
 10
-7.15690877E+01
 20
-7.68551732E+01
  0
VERTEX
  8
0
 62
4
 10
-7.14689332E+01
 20
-7.70916837E+01
  0
VERTEX
  8
0
 62
4
 10
-7.13480860E+01
 20
-7.73187560E+01
  0
VERTEX
  8
0
 62
4
 10
-7.12074659E+01
 20
-7.75346618E+01
  0
VERTEX
  8
0
 62
4
 10
-7.10481431E+01
 20
-7.77377581E+01
  0
VERTEX
  8
0
 62
4
 10
-7.08713301E+01
 20
-7.79264990E+01
  0
VERTEX
  8
0
 62
4
 10
-7.06783726E+01
 20
-7.80994482E+01
  0
VERTEX
  8
0
 62
4
 10
-7.04707391E+01
 20
-7.82552894E+01
  0
VERTEX
  8
0
 62
4
 10
-7.02500098E+01
 20
-7.83928366E+01
  0
VERTEX
  8
0
 62
4
 10
-7.00178646E+01
 20
-7.85110430E+01
  0
VERTEX
  8
0
 62
4
 10
-6.97760702E+01
 20
-7.86090088E+01
  0
VERTEX
  8
0
 62
4
 10
-6.95264669E+01
 20
-7.86859887E+01
  0
VERTEX
  8
0
 62
4
 10
-6.92709543E+01
 20
-7.87413966E+01
  0
VERTEX
  8
0
 62
4
 10
-6.90114770E+01
 20
-7.87748110E+01
  0
VERTEX
  8
0
 62
4
 10
-6.87500098E+01
 20
-7.87859774E+01
  0
VERTEX
  8
0
 62
4
 10
-6.84885426E+01
 20
-7.87748110E+01
  0
VERTEX
  8
0
 62
4
 10
-6.82290653E+01
 20
-7.87413966E+01
  0
VERTEX
  8
0
 62
4
 10
-6.79735527E+01
 20
-7.86859887E+01
  0
VERTEX
  8
0
 62
4
 10
-6.77239494E+01
 20
-7.86090088E+01
  0
VERTEX
  8
0
 62
4
 10
-6.74821550E+01
 20
-7.85110430E+01
  0
VERTEX
  8
0
 62
4
 10
-6.72500098E+01
 20
-7.83928366E+01
  0
VERTEX
  8
0
 62
4
 10
-6.70292805E+01
 20
-7.82552894E+01
  0
VERTEX
  8
0
 62
4
 10
-6.68216470E+01
 20
-7.80994482E+01
  0
VERTEX
  8
0
 62
4
 10
-6.66286895E+01
 20
-7.79264990E+01
  0
VERTEX
  8
0
 62
4
 10
-6.64518765E+01
 20
-7.77377581E+01
  0
VERTEX
  8
0
 62
4
 10
-6.62925537E+01
 20
-7.75346618E+01
  0
VERTEX
  8
0
 62
4
 10
-6.61519336E+01
 20
-7.73187560E+01
  0
VERTEX
  8
0
 62
4
 10
-6.60310864E+01
 20
-7.70916837E+01
  0
VERTEX
  8
0
 62
4
 10
-6.59309319E+01
 20
-7.68551731E+01
  0
VERTEX
  8
0
 62
4
 10
-6.58522323E+01
 20
-7.66110243E+01
  0
VERTEX
  8
0
 62
4
 10
-6.57955865E+01
 20
-7.63610952E+01
  0
VERTEX
  8
0
 62
4
 10
-6.57614257E+01
 20
-7.61072881E+01
  0
VERTEX
  8
0
 62
4
 10
-6.57500098E+01
 20
-7.58515346E+01
  0
SEQEND
  8
0
  0
LINE
  8
0
  6
CENTER
 62
6
 10
-5.76993584E+01
 20
-8.16730616E+01
 11
-4.78006612E+01
 21
-8.16730616E+01
  0
LINE
  8
0
 62
4
 10
-7.62500098E+01
 20
-8.83854339E+01
 11
-6.12500098E+01
 21
-8.83854339E+01
  0
LINE
  8
0
 62
4
 10
-9.57500098E+01
 20
-8.42387121E+01
 11
-9.07500098E+01
 21
-8.42387121E+01
  0
LINE
  8
0
 62
4
 10
-8.57500098E+01
 20
-7.05997780E+01
 11
-8.57500098E+01
 21
-8.35997780E+01
  0
ARC
  8
0
 62
4
 10
-8.52495096E+01
 20
-7.06002781E+01
 40
5.00500378E-01
 50
9.00572530E+01
 51
1.79942747E+02
  0
LINE
  8
0
 62
4
 10
-7.62500098E+01
 20
-7.00997780E+01
 11
-8.52500098E+01
 21
-7.00997780E+01
  0
LINE
  8
0
 62
4
 10
-9.57500098E+01
 20
-8.26772953E+01
 11
-9.07500098E+01
 21
-8.26772953E+01
  0
LINE
  8
0
 62
4
 10
-9.57500098E+01
 20
-7.55396671E+01
 11
-9.07500098E+01
 21
-7.55396671E+01
  0
LINE
  8
0
 62
4
 10
-6.12500098E+01
 20
-7.06083541E+01
 11
-4.32500098E+01
 21
-7.06083541E+01
  0
LINE
  8
0
  6
CENTER
 62
6
 10
-6.47500098E+01
 20
-5.60416875E+01
 11
-6.47500098E+01
 21
-6.65416875E+01
  0
LINE
  8
0
 62
4
 10
-6.27500098E+01
 20
-5.83016875E+01
 11
-6.27500098E+01
 21
-5.86739326E+01
  0
LINE
  8
0
 62
4
 10
-6.67500098E+01
 20
-5.83016875E+01
 11
-6.67500098E+01
 21
-5.86739326E+01
  0
LINE
  8
0
 62
4
 10
-6.30200098E+01
 20
-5.73016875E+01
 11
-6.64900098E+01
 21
-5.73016875E+01
  0
LINE
  8
0
 62
4
 10
-6.27500098E+01
 20
-5.83016875E+01
 11
-6.30200098E+01
 21
-5.73016875E+01
  0
LINE
  8
0
 62
4
 10
-6.67500098E+01
 20
-5.83016875E+01
 11
-6.64900098E+01
 21
-5.73016875E+01
  0
LINE
  8
0
 62
6
 10
-6.32500098E+01
 20
-5.73016875E+01
 11
-6.32500098E+01
 21
-5.86739326E+01
  0
LINE
  8
0
 62
6
 10
-6.62500098E+01
 20
-5.73016875E+01
 11
-6.62500098E+01
 21
-5.86739326E+01
  0
LINE
  8
0
 62
4
 10
-6.22500098E+01
 20
-6.39184541E+01
 11
-7.52500098E+01
 21
-6.39184541E+01
  0
LINE
  8
0
 62
4
 10
-6.12500098E+01
 20
-5.86739326E+01
 11
-7.62500098E+01
 21
-5.86739326E+01
  0
LINE
  8
0
  6
CENTER
 62
6
 10
-7.27500098E+01
 20
-5.60416875E+01
 11
-7.27500098E+01
 21
-6.65416875E+01
  0
LINE
  8
0
 62
6
 10
-7.42500098E+01
 20
-5.73016875E+01
 11
-7.42500098E+01
 21
-5.86739326E+01
  0
LINE
  8
0
 62
4
 10
-7.07500098E+01
 20
-5.83016875E+01
 11
-7.07500098E+01
 21
-5.86739326E+01
  0
LINE
  8
0
 62
4
 10
-7.47500098E+01
 20
-5.83016875E+01
 11
-7.47500098E+01
 21
-5.86739326E+01
  0
LINE
  8
0
 62
4
 10
-7.10200098E+01
 20
-5.73016875E+01
 11
-7.44900098E+01
 21
-5.73016875E+01
  0
LINE
  8
0
 62
4
 10
-7.07500098E+01
 20
-5.83016875E+01
 11
-7.10200098E+01
 21
-5.73016875E+01
  0
LINE
  8
0
 62
4
 10
-7.47500098E+01
 20
-5.83016875E+01
 11
-7.44900098E+01
 21
-5.73016875E+01
  0
LINE
  8
0
 62
6
 10
-7.12500098E+01
 20
-5.73016875E+01
 11
-7.12500098E+01
 21
-5.86739326E+01
  0
LINE
  8
0
 62
4
 10
-6.47500098E+01
 20
-9.51780825E+01
 11
-6.47500098E+01
 21
-9.56671563E+01
  0
LINE
  8
0
 62
4
 10
-7.27500098E+01
 20
-9.56671563E+01
 11
-7.27500098E+01
 21
-9.51780825E+01
  0
LINE
  8
0
 62
4
 10
-6.53500098E+01
 20
-9.56671563E+01
 11
-6.53500098E+01
 21
-9.75911133E+01
  0
LINE
  8
0
 62
4
 10
-7.21500098E+01
 20
-9.75911133E+01
 11
-7.21500098E+01
 21
-9.56671563E+01
  0
LINE
  8
0
  6
CENTER
 62
6
 10
-6.87500098E+01
 20
-5.14742264E+01
 11
-6.87500098E+01
 21
-1.05191746E+02
  0
LINE
  8
0
 62
4
 10
-8.52500098E+01
 20
-8.40997780E+01
 11
-7.62500098E+01
 21
-8.40997780E+01
  0
LINE
  8
0
 62
4
 10
-9.57500098E+01
 20
-6.99613765E+01
 11
-9.57500098E+01
 21
-8.42387121E+01
  0
LINE
  8
0
 62
4
 10
-9.07500098E+01
 20
-6.99613765E+01
 11
-9.07500098E+01
 21
-8.42387121E+01
  0
LINE
  8
0
 62
4
 10
-9.07500098E+01
 20
-7.08497780E+01
 11
-8.57500098E+01
 21
-7.08497780E+01
  0
LINE
  8
0
 62
4
 10
-9.07500098E+01
 20
-8.33497780E+01
 11
-8.57500098E+01
 21
-8.33497780E+01
  0
LINE
  8
0
 62
4
 10
-8.92500098E+01
 20
-7.08497780E+01
 11
-8.92500098E+01
 21
-8.33497780E+01
  0
LINE
  8
0
 62
4
 10
-8.92500098E+01
 20
-7.13497780E+01
 11
-8.57500098E+01
 21
-7.13497780E+01
  0
LINE
  8
0
 62
4
 10
-8.92500098E+01
 20
-8.28497780E+01
 11
-8.57500098E+01
 21
-8.28497780E+01
  0
LINE
  8
0
 62
4
 10
-6.12500098E+01
 20
-8.83854339E+01
 11
-6.12500098E+01
 21
-5.86739326E+01
  0
LINE
  8
0
 62
4
 10
-7.62500098E+01
 20
-6.85154276E+01
 11
-6.12500098E+01
 21
-6.85154276E+01
  0
LINE
  8
0
 62
4
 10
-7.62500098E+01
 20
-8.31876416E+01
 11
-6.12500098E+01
 21
-8.31876416E+01
  0
LINE
  8
0
 62
4
 10
-9.57500098E+01
 20
-6.99613765E+01
 11
-9.07500098E+01
 21
-6.99613765E+01
  0
LINE
  8
0
 62
4
 10
-4.17500098E+01
 20
-7.21088579E+01
 11
-4.17500098E+01
 21
-9.52374202E+01
  0
LINE
  8
0
 62
4
 10
-5.92500098E+01
 20
-7.17569247E+01
 11
-5.92500098E+01
 21
-9.11733759E+01
  0
LINE
  8
0
 62
4
 10
-8.07500098E+01
 20
-9.52374202E+01
 11
-8.07500098E+01
 21
-8.40997780E+01
  0
LINE
  8
0
 62
4
 10
-7.82500098E+01
 20
-8.40997780E+01
 11
-7.82500098E+01
 21
-9.11733759E+01
  0
LINE
  8
0
 62
4
 10
-7.62500098E+01
 20
-5.86739326E+01
 11
-7.62500098E+01
 21
-8.83854339E+01
  0
LINE
  8
0
 62
4
 10
-7.82500098E+01
 20
-9.03417291E+01
 11
-5.92500098E+01
 21
-9.03417291E+01
  0
LINE
  8
0
 62
4
 10
-7.92500098E+01
 20
-9.36187449E+01
 11
-4.32500098E+01
 21
-9.36187449E+01
  0
LINE
  8
0
 62
4
 10
-5.92500098E+01
 20
-7.17569247E+01
 11
-6.12500098E+01
 21
-7.17569247E+01
  0
ARC
  8
0
 62
4
 10
-4.32505135E+01
 20
-7.21088579E+01
 40
1.50050386E+00
 50
1.92364101E-02
 51
8.99807637E+01
  0
ARC
  8
0
 62
4
 10
-8.52505094E+01
 20
-8.36002776E+01
 40
4.99500622E-01
 50
1.79942690E+02
 51
2.70057311E+02
  0
LINE
  8
0
 62
4
 10
2.13914168E+02
 20
-1.81306195E+02
 11
2.14274168E+02
 21
-1.82284343E+02
  0
LINE
  8
0
 62
4
 10
2.07634168E+02
 20
-1.81306195E+02
 11
2.07274168E+02
 21
-1.82284343E+02
  0
POLYLINE
  8
0
 62
4
 66
1
  0
VERTEX
  8
0
 62
4
 10
2.07314917E+02
 20
-1.82173625E+02
  0
VERTEX
  8
0
 62
4
 10
2.07281268E+02
 20
-1.82238015E+02
  0
VERTEX
  8
0
 62
4
 10
2.07275291E+02
 20
-1.82302773E+02
  0
VERTEX
  8
0
 62
4
 10
2.07297032E+02
 20
-1.82367384E+02
  0
VERTEX
  8
0
 62
4
 10
2.07346320E+02
 20
-1.82431338E+02
  0
VERTEX
  8
0
 62
4
 10
2.07422764E+02
 20
-1.82494127E+02
  0
VERTEX
  8
0
 62
4
 10
2.07525758E+02
 20
-1.82555254E+02
  0
VERTEX
  8
0
 62
4
 10
2.07654487E+02
 20
-1.82614235E+02
  0
VERTEX
  8
0
 62
4
 10
2.07807931E+02
 20
-1.82670602E+02
  0
VERTEX
  8
0
 62
4
 10
2.07984874E+02
 20
-1.82723910E+02
  0
VERTEX
  8
0
 62
4
 10
2.08183914E+02
 20
-1.82773735E+02
  0
VERTEX
  8
0
 62
4
 10
2.08403474E+02
 20
-1.82819683E+02
  0
VERTEX
  8
0
 62
4
 10
2.08641816E+02
 20
-1.82861390E+02
  0
VERTEX
  8
0
 62
4
 10
2.08897050E+02
 20
-1.82898525E+02
  0
VERTEX
  8
0
 62
4
 10
2.09167156E+02
 20
-1.82930795E+02
  0
VERTEX
  8
0
 62
4
 10
2.09449992E+02
 20
-1.82957943E+02
  0
VERTEX
  8
0
 62
4
 10
2.09743319E+02
 20
-1.82979756E+02
  0
VERTEX
  8
0
 62
4
 10
2.10044813E+02
 20
-1.82996058E+02
  0
VERTEX
  8
0
 62
4
 10
2.10352084E+02
 20
-1.83006723E+02
  0
VERTEX
  8
0
 62
4
 10
2.10662700E+02
 20
-1.83011665E+02
  0
VERTEX
  8
0
 62
4
 10
2.10974198E+02
 20
-1.83010845E+02
  0
VERTEX
  8
0
 62
4
 10
2.11284112E+02
 20
-1.83004269E+02
  0
VERTEX
  8
0
 62
4
 10
2.11589986E+02
 20
-1.82991990E+02
  0
VERTEX
  8
0
 62
4
 10
2.11889397E+02
 20
-1.82974104E+02
  0
VERTEX
  8
0
 62
4
 10
2.12179972E+02
 20
-1.82950755E+02
  0
VERTEX
  8
0
 62
4
 10
2.12459411E+02
 20
-1.82922126E+02
  0
VERTEX
  8
0
 62
4
 10
2.12725499E+02
 20
-1.82888444E+02
  0
VERTEX
  8
0
 62
4
 10
2.12976128E+02
 20
-1.82849976E+02
  0
VERTEX
  8
0
 62
4
 10
2.13209313E+02
 20
-1.82807028E+02
  0
VERTEX
  8
0
 62
4
 10
2.13423206E+02
 20
-1.82759938E+02
  0
VERTEX
  8
0
 62
4
 10
2.13616113E+02
 20
-1.82709081E+02
  0
VERTEX
  8
0
 62
4
 10
2.13786505E+02
 20
-1.82654859E+02
  0
VERTEX
  8
0
 62
4
 10
2.13933033E+02
 20
-1.82597702E+02
  0
VERTEX
  8
0
 62
4
 10
2.14054536E+02
 20
-1.82538062E+02
  0
VERTEX
  8
0
 62
4
 10
2.14150052E+02
 20
-1.82476412E+02
  0
VERTEX
  8
0
 62
4
 10
2.14218822E+02
 20
-1.82413241E+02
  0
VERTEX
  8
0
 62
4
 10
2.14260304E+02
 20
-1.82349048E+02
  0
VERTEX
  8
0
 62
4
 10
2.14274168E+02
 20
-1.82284343E+02
  0
SEQEND
  8
0
  0
POLYLINE
  8
0
 62
4
 66
1
  0
VERTEX
  8
0
 62
4
 10
2.13914168E+02
 20
-1.81306195E+02
  0
VERTEX
  8
0
 62
4
 10
2.13902219E+02
 20
-1.81249296E+02
  0
VERTEX
  8
0
 62
4
 10
2.13866464E+02
 20
-1.81192830E+02
  0
VERTEX
  8
0
 62
4
 10
2.13807175E+02
 20
-1.81137227E+02
  0
VERTEX
  8
0
 62
4
 10
2.13724803E+02
 20
-1.81082910E+02
  0
VERTEX
  8
0
 62
4
 10
2.13619974E+02
 20
-1.81030292E+02
  0
VERTEX
  8
0
 62
4
 10
2.13493488E+02
 20
-1.80979774E+02
  0
VERTEX
  8
0
 62
4
 10
2.13346305E+02
 20
-1.80931740E+02
  0
VERTEX
  8
0
 62
4
 10
2.13179548E+02
 20
-1.80886556E+02
  0
VERTEX
  8
0
 62
4
 10
2.12994483E+02
 20
-1.80844565E+02
  0
VERTEX
  8
0
 62
4
 10
2.12792521E+02
 20
-1.80806088E+02
  0
VERTEX
  8
0
 62
4
 10
2.12575198E+02
 20
-1.80771418E+02
  0
VERTEX
  8
0
 62
4
 10
2.12344168E+02
 20
-1.80740817E+02
  0
VERTEX
  8
0
 62
4
 10
2.12101189E+02
 20
-1.80714519E+02
  0
VERTEX
  8
0
 62
4
 10
2.11848111E+02
 20
-1.80692724E+02
  0
VERTEX
  8
0
 62
4
 10
2.11586860E+02
 20
-1.80675597E+02
  0
VERTEX
  8
0
 62
4
 10
2.11319423E+02
 20
-1.80663270E+02
  0
VERTEX
  8
0
 62
4
 10
2.11047837E+02
 20
-1.80655837E+02
  0
VERTEX
  8
0
 62
4
 10
2.10774168E+02
 20
-1.80653352E+02
  0
VERTEX
  8
0
 62
4
 10
2.10500499E+02
 20
-1.80655837E+02
  0
VERTEX
  8
0
 62
4
 10
2.10228913E+02
 20
-1.80663270E+02
  0
VERTEX
  8
0
 62
4
 10
2.09961476E+02
 20
-1.80675597E+02
  0
VERTEX
  8
0
 62
4
 10
2.09700225E+02
 20
-1.80692724E+02
  0
VERTEX
  8
0
 62
4
 10
2.09447147E+02
 20
-1.80714519E+02
  0
VERTEX
  8
0
 62
4
 10
2.09204168E+02
 20
-1.80740817E+02
  0
VERTEX
  8
0
 62
4
 10
2.08973138E+02
 20
-1.80771418E+02
  0
VERTEX
  8
0
 62
4
 10
2.08755815E+02
 20
-1.80806088E+02
  0
VERTEX
  8
0
 62
4
 10
2.08553853E+02
 20
-1.80844565E+02
  0
VERTEX
  8
0
 62
4
 10
2.08368788E+02
 20
-1.80886556E+02
  0
VERTEX
  8
0
 62
4
 10
2.08202031E+02
 20
-1.80931740E+02
  0
VERTEX
  8
0
 62
4
 10
2.08054848E+02
 20
-1.80979774E+02
  0
VERTEX
  8
0
 62
4
 10
2.07928362E+02
 20
-1.81030292E+02
  0
VERTEX
  8
0
 62
4
 10
2.07823533E+02
 20
-1.81082910E+02
  0
VERTEX
  8
0
 62
4
 10
2.07741161E+02
 20
-1.81137227E+02
  0
VERTEX
  8
0
 62
4
 10
2.07681872E+02
 20
-1.81192830E+02
  0
VERTEX
  8
0
 62
4
 10
2.07646117E+02
 20
-1.81249296E+02
  0
VERTEX
  8
0
 62
4
 10
2.07634168E+02
 20
-1.81306195E+02
  0
VERTEX
  8
0
 62
4
 10
2.07646117E+02
 20
-1.81363094E+02
  0
VERTEX
  8
0
 62
4
 10
2.07681872E+02
 20
-1.81419560E+02
  0
VERTEX
  8
0
 62
4
 10
2.07741161E+02
 20
-1.81475163E+02
  0
VERTEX
  8
0
 62
4
 10
2.07823533E+02
 20
-1.81529480E+02
  0
VERTEX
  8
0
 62
4
 10
2.07928362E+02
 20
-1.81582098E+02
  0
VERTEX
  8
0
 62
4
 10
2.08054848E+02
 20
-1.81632616E+02
  0
VERTEX
  8
0
 62
4
 10
2.08202031E+02
 20
-1.81680650E+02
  0
VERTEX
  8
0
 62
4
 10
2.08368788E+02
 20
-1.81725834E+02
  0
VERTEX
  8
0
 62
4
 10
2.08553853E+02
 20
-1.81767825E+02
  0
VERTEX
  8
0
 62
4
 10
2.08755815E+02
 20
-1.81806302E+02
  0
VERTEX
  8
0
 62
4
 10
2.08973138E+02
 20
-1.81840972E+02
  0
VERTEX
  8
0
 62
4
 10
2.09204168E+02
 20
-1.81871573E+02
  0
VERTEX
  8
0
 62
4
 10
2.09447147E+02
 20
-1.81897871E+02
  0
VERTEX
  8
0
 62
4
 10
2.09700225E+02
 20
-1.81919666E+02
  0
VERTEX
  8
0
 62
4
 10
2.09961476E+02
 20
-1.81936793E+02
  0
VERTEX
  8
0
 62
4
 10
2.10228913E+02
 20
-1.81949120E+02
  0
VERTEX
  8
0
 62
4
 10
2.10500499E+02
 20
-1.81956553E+02
  0
VERTEX
  8
0
 62
4
 10
2.10774168E+02
 20
-1.81959038E+02
  0
VERTEX
  8
0
 62
4
 10
2.11047837E+02
 20
-1.81956553E+02
  0
VERTEX
  8
0
 62
4
 10
2.11319423E+02
 20
-1.81949120E+02
  0
VERTEX
  8
0
 62
4
 10
2.11586860E+02
 20
-1.81936793E+02
  0
VERTEX
  8
0
 62
4
 10
2.11848111E+02
 20
-1.81919666E+02
  0
VERTEX
  8
0
 62
4
 10
2.12101189E+02
 20
-1.81897871E+02
  0
VERTEX
  8
0
 62
4
 10
2.12344168E+02
 20
-1.81871573E+02
  0
VERTEX
  8
0
 62
4
 10
2.12575198E+02
 20
-1.81840972E+02
  0
VERTEX
  8
0
 62
4
 10
2.12792521E+02
 20
-1.81806302E+02
  0
VERTEX
  8
0
 62
4
 10
2.12994483E+02
 20
-1.81767825E+02
  0
VERTEX
  8
0
 62
4
 10
2.13179548E+02
 20
-1.81725834E+02
  0
VERTEX
  8
0
 62
4
 10
2.13346305E+02
 20
-1.81680650E+02
  0
VERTEX
  8
0
 62
4
 10
2.13493488E+02
 20
-1.81632616E+02
  0
VERTEX
  8
0
 62
4
 10
2.13619974E+02
 20
-1.81582098E+02
  0
VERTEX
  8
0
 62
4
 10
2.13724803E+02
 20
-1.81529480E+02
  0
VERTEX
  8
0
 62
4
 10
2.13807175E+02
 20
-1.81475163E+02
  0
VERTEX
  8
0
 62
4
 10
2.13866464E+02
 20
-1.81419560E+02
  0
VERTEX
  8
0
 62
4
 10
2.13902219E+02
 20
-1.81363094E+02
  0
VERTEX
  8
0
 62
4
 10
2.13914168E+02
 20
-1.81306195E+02
  0
SEQEND
  8
0
  0
LINE
  8
0
  6
CENTER
 62
6
 10
2.10774168E+02
 20
-1.79223230E+02
 11
2.10774168E+02
 21
-1.81306195E+02
  0
LINE
  8
0
 62
4
 10
2.19274168E+02
 20
-1.80254367E+02
 11
2.01274168E+02
 21
-1.80254367E+02
  0
ARC
  8
0
 62
4
 10
2.37274668E+02
 20
-1.85759004E+02
 40
1.49950029E+00
 50
3.59980903E+02
 51
9.00190969E+01
  0
LINE
  8
0
 62
4
 10
2.37274168E+02
 20
-1.84259504E+02
 11
2.01274168E+02
 21
-1.84259504E+02
  0
ARC
  8
0
 62
4
 10
2.01273668E+02
 20
-1.85759004E+02
 40
1.49950029E+00
 50
8.99809029E+01
 51
1.80019097E+02
  0
LINE
  8
0
 62
4
 10
2.35774168E+02
 20
-2.02740352E+02
 11
2.38774168E+02
 21
-1.99451497E+02
  0
LINE
  8
0
 62
4
 10
2.02774168E+02
 20
-2.02740352E+02
 11
1.99774168E+02
 21
-1.99451497E+02
  0
LINE
  8
0
 62
4
 10
2.19274168E+02
 20
-2.02740352E+02
 11
2.02774168E+02
 21
-2.02740352E+02
  0
LINE
  8
0
 62
4
 10
2.35774168E+02
 20
-2.02740352E+02
 11
2.34274168E+02
 21
-2.02740352E+02
  0
POLYLINE
  8
0
 62
6
 66
1
  0
VERTEX
  8
0
 62
6
 10
2.32274168E+02
 20
-2.10935988E+02
  0
VERTEX
  8
0
 62
6
 10
2.32268460E+02
 20
-2.10808111E+02
  0
VERTEX
  8
0
 62
6
 10
2.32251380E+02
 20
-2.10681208E+02
  0
VERTEX
  8
0
 62
6
 10
2.32223057E+02
 20
-2.10556243E+02
  0
VERTEX
  8
0
 62
6
 10
2.32183707E+02
 20
-2.10434169E+02
  0
VERTEX
  8
0
 62
6
 10
2.32133630E+02
 20
-2.10315913E+02
  0
VERTEX
  8
0
 62
6
 10
2.32073206E+02
 20
-2.10202377E+02
  0
VERTEX
  8
0
 62
6
 10
2.32002896E+02
 20
-2.10094424E+02
  0
VERTEX
  8
0
 62
6
 10
2.31923235E+02
 20
-2.09992876E+02
  0
VERTEX
  8
0
 62
6
 10
2.31834828E+02
 20
-2.09898506E+02
  0
VERTEX
  8
0
 62
6
 10
2.31738349E+02
 20
-2.09812031E+02
  0
VERTEX
  8
0
 62
6
 10
2.31634533E+02
 20
-2.09734111E+02
  0
VERTEX
  8
0
 62
6
 10
2.31524168E+02
 20
-2.09665337E+02
  0
VERTEX
  8
0
 62
6
 10
2.31408095E+02
 20
-2.09606234E+02
  0
VERTEX
  8
0
 62
6
 10
2.31287198E+02
 20
-2.09557251E+02
  0
VERTEX
  8
0
 62
6
 10
2.31162397E+02
 20
-2.09518761E+02
  0
VERTEX
  8
0
 62
6
 10
2.31034640E+02
 20
-2.09491057E+02
  0
VERTEX
  8
0
 62
6
 10
2.30904902E+02
 20
-2.09474350E+02
  0
VERTEX
  8
0
 62
6
 10
2.30774168E+02
 20
-2.09468767E+02
  0
VERTEX
  8
0
 62
6
 10
2.30643434E+02
 20
-2.09474350E+02
  0
VERTEX
  8
0
 62
6
 10
2.30513696E+02
 20
-2.09491057E+02
  0
VERTEX
  8
0
 62
6
 10
2.30385939E+02
 20
-2.09518761E+02
  0
VERTEX
  8
0
 62
6
 10
2.30261138E+02
 20
-2.09557251E+02
  0
VERTEX
  8
0
 62
6
 10
2.30140241E+02
 20
-2.09606234E+02
  0
VERTEX
  8
0
 62
6
 10
2.30024168E+02
 20
-2.09665337E+02
  0
VERTEX
  8
0
 62
6
 10
2.29913803E+02
 20
-2.09734111E+02
  0
VERTEX
  8
0
 62
6
 10
2.29809987E+02
 20
-2.09812031E+02
  0
VERTEX
  8
0
 62
6
 10
2.29713508E+02
 20
-2.09898506E+02
  0
VERTEX
  8
0
 62
6
 10
2.29625101E+02
 20
-2.09992876E+02
  0
VERTEX
  8
0
 62
6
 10
2.29545440E+02
 20
-2.10094424E+02
  0
VERTEX
  8
0
 62
6
 10
2.29475130E+02
 20
-2.10202377E+02
  0
VERTEX
  8
0
 62
6
 10
2.29414706E+02
 20
-2.10315913E+02
  0
VERTEX
  8
0
 62
6
 10
2.29364629E+02
 20
-2.10434169E+02
  0
VERTEX
  8
0
 62
6
 10
2.29325279E+02
 20
-2.10556243E+02
  0
VERTEX
  8
0
 62
6
 10
2.29296956E+02
 20
-2.10681208E+02
  0
VERTEX
  8
0
 62
6
 10
2.29279876E+02
 20
-2.10808111E+02
  0
VERTEX
  8
0
 62
6
 10
2.29274168E+02
 20
-2.10935988E+02
  0
VERTEX
  8
0
 62
6
 10
2.29279876E+02
 20
-2.11063865E+02
  0
VERTEX
  8
0
 62
6
 10
2.29296956E+02
 20
-2.11190768E+02
  0
VERTEX
  8
0
 62
6
 10
2.29325279E+02
 20
-2.11315733E+02
  0
VERTEX
  8
0
 62
6
 10
2.29364629E+02
 20
-2.11437807E+02
  0
VERTEX
  8
0
 62
6
 10
2.29414706E+02
 20
-2.11556063E+02
  0
VERTEX
  8
0
 62
6
 10
2.29475130E+02
 20
-2.11669599E+02
  0
VERTEX
  8
0
 62
6
 10
2.29545440E+02
 20
-2.11777552E+02
  0
VERTEX
  8
0
 62
6
 10
2.29625101E+02
 20
-2.11879100E+02
  0
VERTEX
  8
0
 62
6
 10
2.29713508E+02
 20
-2.11973470E+02
  0
VERTEX
  8
0
 62
6
 10
2.29809987E+02
 20
-2.12059945E+02
  0
VERTEX
  8
0
 62
6
 10
2.29913803E+02
 20
-2.12137865E+02
  0
VERTEX
  8
0
 62
6
 10
2.30024168E+02
 20
-2.12206639E+02
  0
VERTEX
  8
0
 62
6
 10
2.30140241E+02
 20
-2.12265742E+02
  0
VERTEX
  8
0
 62
6
 10
2.30261138E+02
 20
-2.12314725E+02
  0
VERTEX
  8
0
 62
6
 10
2.30385939E+02
 20
-2.12353215E+02
  0
VERTEX
  8
0
 62
6
 10
2.30513696E+02
 20
-2.12380919E+02
  0
VERTEX
  8
0
 62
6
 10
2.30643434E+02
 20
-2.12397626E+02
  0
VERTEX
  8
0
 62
6
 10
2.30774168E+02
 20
-2.12403209E+02
  0
VERTEX
  8
0
 62
6
 10
2.30904902E+02
 20
-2.12397626E+02
  0
VERTEX
  8
0
 62
6
 10
2.31034640E+02
 20
-2.12380919E+02
  0
VERTEX
  8
0
 62
6
 10
2.31162397E+02
 20
-2.12353215E+02
  0
VERTEX
  8
0
 62
6
 10
2.31287198E+02
 20
-2.12314725E+02
  0
VERTEX
  8
0
 62
6
 10
2.31408095E+02
 20
-2.12265742E+02
  0
VERTEX
  8
0
 62
6
 10
2.31524168E+02
 20
-2.12206639E+02
  0
VERTEX
  8
0
 62
6
 10
2.31634533E+02
 20
-2.12137865E+02
  0
VERTEX
  8
0
 62
6
 10
2.31738349E+02
 20
-2.12059945E+02
  0
VERTEX
  8
0
 62
6
 10
2.31834828E+02
 20
-2.11973470E+02
  0
VERTEX
  8
0
 62
6
 10
2.31923235E+02
 20
-2.11879100E+02
  0
VERTEX
  8
0
 62
6
 10
2.32002896E+02
 20
-2.11777552E+02
  0
VERTEX
  8
0
 62
6
 10
2.32073206E+02
 20
-2.11669599E+02
  0
VERTEX
  8
0
 62
6
 10
2.32133630E+02
 20
-2.11556063E+02
  0
VERTEX
  8
0
 62
6
 10
2.32183707E+02
 20
-2.11437807E+02
  0
VERTEX
  8
0
 62
6
 10
2.32223057E+02
 20
-2.11315733E+02
  0
VERTEX
  8
0
 62
6
 10
2.32251380E+02
 20
-2.11190768E+02
  0
VERTEX
  8
0
 62
6
 10
2.32268460E+02
 20
-2.11063865E+02
  0
VERTEX
  8
0
 62
6
 10
2.32274168E+02
 20
-2.10935988E+02
  0
SEQEND
  8
0
  0
POLYLINE
  8
0
 62
4
 66
1
  0
VERTEX
  8
0
 62
4
 10
2.32509168E+02
 20
-2.10940878E+02
  0
VERTEX
  8
0
 62
4
 10
2.32502566E+02
 20
-2.10792967E+02
  0
VERTEX
  8
0
 62
4
 10
2.32482809E+02
 20
-2.10646182E+02
  0
VERTEX
  8
0
 62
4
 10
2.32450049E+02
 20
-2.10501640E+02
  0
VERTEX
  8
0
 62
4
 10
2.32404535E+02
 20
-2.10360440E+02
  0
VERTEX
  8
0
 62
4
 10
2.32346612E+02
 20
-2.10223658E+02
  0
VERTEX
  8
0
 62
4
 10
2.32276722E+02
 20
-2.10092335E+02
  0
VERTEX
  8
0
 62
4
 10
2.32195397E+02
 20
-2.09967469E+02
  0
VERTEX
  8
0
 62
4
 10
2.32103255E+02
 20
-2.09850012E+02
  0
VERTEX
  8
0
 62
4
 10
2.32000998E+02
 20
-2.09740857E+02
  0
VERTEX
  8
0
 62
4
 10
2.31889405E+02
 20
-2.09640835E+02
  0
VERTEX
  8
0
 62
4
 10
2.31769323E+02
 20
-2.09550706E+02
  0
VERTEX
  8
0
 62
4
 10
2.31641668E+02
 20
-2.09471158E+02
  0
VERTEX
  8
0
 62
4
 10
2.31507411E+02
 20
-2.09402796E+02
  0
VERTEX
  8
0
 62
4
 10
2.31367573E+02
 20
-2.09346139E+02
  0
VERTEX
  8
0
 62
4
 10
2.31223219E+02
 20
-2.09301619E+02
  0
VERTEX
  8
0
 62
4
 10
2.31075448E+02
 20
-2.09269574E+02
  0
VERTEX
  8
0
 62
4
 10
2.30925383E+02
 20
-2.09250250E+02
  0
VERTEX
  8
0
 62
4
 10
2.30774168E+02
 20
-2.09243792E+02
  0
VERTEX
  8
0
 62
4
 10
2.30622953E+02
 20
-2.09250250E+02
  0
VERTEX
  8
0
 62
4
 10
2.30472888E+02
 20
-2.09269574E+02
  0
VERTEX
  8
0
 62
4
 10
2.30325117E+02
 20
-2.09301619E+02
  0
VERTEX
  8
0
 62
4
 10
2.30180763E+02
 20
-2.09346139E+02
  0
VERTEX
  8
0
 62
4
 10
2.30040925E+02
 20
-2.09402796E+02
  0
VERTEX
  8
0
 62
4
 10
2.29906668E+02
 20
-2.09471158E+02
  0
VERTEX
  8
0
 62
4
 10
2.29779013E+02
 20
-2.09550706E+02
  0
VERTEX
  8
0
 62
4
 10
2.29658931E+02
 20
-2.09640835E+02
  0
VERTEX
  8
0
 62
4
 10
2.29547338E+02
 20
-2.09740857E+02
  0
VERTEX
  8
0
 62
4
 10
2.29445081E+02
 20
-2.09850012E+02
  0
VERTEX
  8
0
 62
4
 10
2.29352939E+02
 20
-2.09967469E+02
  0
VERTEX
  8
0
 62
4
 10
2.29271614E+02
 20
-2.10092335E+02
  0
VERTEX
  8
0
 62
4
 10
2.29201724E+02
 20
-2.10223658E+02
  0
VERTEX
  8
0
 62
4
 10
2.29143801E+02
 20
-2.10360440E+02
  0
VERTEX
  8
0
 62
4
 10
2.29098287E+02
 20
-2.10501640E+02
  0
VERTEX
  8
0
 62
4
 10
2.29065527E+02
 20
-2.10646182E+02
  0
VERTEX
  8
0
 62
4
 10
2.29045770E+02
 20
-2.10792967E+02
  0
VERTEX
  8
0
 62
4
 10
2.29039168E+02
 20
-2.10940878E+02
  0
VERTEX
  8
0
 62
4
 10
2.29045770E+02
 20
-2.11088789E+02
  0
VERTEX
  8
0
 62
4
 10
2.29065527E+02
 20
-2.11235574E+02
  0
VERTEX
  8
0
 62
4
 10
2.29098287E+02
 20
-2.11380116E+02
  0
VERTEX
  8
0
 62
4
 10
2.29143801E+02
 20
-2.11521316E+02
  0
VERTEX
  8
0
 62
4
 10
2.29201724E+02
 20
-2.11658098E+02
  0
VERTEX
  8
0
 62
4
 10
2.29271614E+02
 20
-2.11789421E+02
  0
VERTEX
  8
0
 62
4
 10
2.29352939E+02
 20
-2.11914287E+02
  0
VERTEX
  8
0
 62
4
 10
2.29445081E+02
 20
-2.12031744E+02
  0
VERTEX
  8
0
 62
4
 10
2.29547338E+02
 20
-2.12140899E+02
  0
VERTEX
  8
0
 62
4
 10
2.29658931E+02
 20
-2.12240921E+02
  0
VERTEX
  8
0
 62
4
 10
2.29779013E+02
 20
-2.12331050E+02
  0
VERTEX
  8
0
 62
4
 10
2.29906668E+02
 20
-2.12410598E+02
  0
VERTEX
  8
0
 62
4
 10
2.30040925E+02
 20
-2.12478960E+02
  0
VERTEX
  8
0
 62
4
 10
2.30180763E+02
 20
-2.12535617E+02
  0
VERTEX
  8
0
 62
4
 10
2.30325117E+02
 20
-2.12580137E+02
  0
VERTEX
  8
0
 62
4
 10
2.30472888E+02
 20
-2.12612182E+02
  0
VERTEX
  8
0
 62
4
 10
2.30622953E+02
 20
-2.12631506E+02
  0
VERTEX
  8
0
 62
4
 10
2.30774168E+02
 20
-2.12637964E+02
  0
VERTEX
  8
0
 62
4
 10
2.30925383E+02
 20
-2.12631506E+02
  0
VERTEX
  8
0
 62
4
 10
2.31075448E+02
 20
-2.12612182E+02
  0
VERTEX
  8
0
 62
4
 10
2.31223219E+02
 20
-2.12580137E+02
  0
VERTEX
  8
0
 62
4
 10
2.31367573E+02
 20
-2.12535617E+02
  0
VERTEX
  8
0
 62
4
 10
2.31507411E+02
 20
-2.12478960E+02
  0
VERTEX
  8
0
 62
4
 10
2.31641668E+02
 20
-2.12410598E+02
  0
VERTEX
  8
0
 62
4
 10
2.31769323E+02
 20
-2.12331050E+02
  0
VERTEX
  8
0
 62
4
 10
2.31889405E+02
 20
-2.12240921E+02
  0
VERTEX
  8
0
 62
4
 10
2.32000998E+02
 20
-2.12140899E+02
  0
VERTEX
  8
0
 62
4
 10
2.32103255E+02
 20
-2.12031744E+02
  0
VERTEX
  8
0
 62
4
 10
2.32195397E+02
 20
-2.11914287E+02
  0
VERTEX
  8
0
 62
4
 10
2.32276722E+02
 20
-2.11789421E+02
  0
VERTEX
  8
0
 62
4
 10
2.32346612E+02
 20
-2.11658098E+02
  0
VERTEX
  8
0
 62
4
 10
2.32404535E+02
 20
-2.11521316E+02
  0
VERTEX
  8
0
 62
4
 10
2.32450049E+02
 20
-2.11380116E+02
  0
VERTEX
  8
0
 62
4
 10
2.32482809E+02
 20
-2.11235574E+02
  0
VERTEX
  8
0
 62
4
 10
2.32502566E+02
 20
-2.11088789E+02
  0
VERTEX
  8
0
 62
4
 10
2.32509168E+02
 20
-2.10940878E+02
  0
SEQEND
  8
0
  0
POLYLINE
  8
0
 62
4
 66
1
  0
VERTEX
  8
0
 62
4
 10
2.30774168E+02
 20
-2.12684371E+02
  0
VERTEX
  8
0
 62
4
 10
2.30948479E+02
 20
-2.12676488E+02
  0
VERTEX
  8
0
 62
4
 10
2.31121464E+02
 20
-2.12652897E+02
  0
VERTEX
  8
0
 62
4
 10
2.31291806E+02
 20
-2.12613779E+02
  0
VERTEX
  8
0
 62
4
 10
2.31458208E+02
 20
-2.12559431E+02
  0
VERTEX
  8
0
 62
4
 10
2.31619405E+02
 20
-2.12490267E+02
  0
VERTEX
  8
0
 62
4
 10
2.31774168E+02
 20
-2.12406814E+02
  0
VERTEX
  8
0
 62
4
 10
2.31921321E+02
 20
-2.12309705E+02
  0
VERTEX
  8
0
 62
4
 10
2.32059743E+02
 20
-2.12199681E+02
  0
VERTEX
  8
0
 62
4
 10
2.32188382E+02
 20
-2.12077579E+02
  0
VERTEX
  8
0
 62
4
 10
2.32306257E+02
 20
-2.11944328E+02
  0
VERTEX
  8
0
 62
4
 10
2.32412472E+02
 20
-2.11800942E+02
  0
VERTEX
  8
0
 62
4
 10
2.32506219E+02
 20
-2.11648512E+02
  0
VERTEX
  8
0
 62
4
 10
2.32586784E+02
 20
-2.11488199E+02
  0
VERTEX
  8
0
 62
4
 10
2.32653553E+02
 20
-2.11321222E+02
  0
VERTEX
  8
0
 62
4
 10
2.32706020E+02
 20
-2.11148853E+02
  0
VERTEX
  8
0
 62
4
 10
2.32743784E+02
 20
-2.10972403E+02
  0
VERTEX
  8
0
 62
4
 10
2.32766557E+02
 20
-2.10793215E+02
  0
VERTEX
  8
0
 62
4
 10
2.32774168E+02
 20
-2.10612653E+02
  0
VERTEX
  8
0
 62
4
 10
2.32766557E+02
 20
-2.10432091E+02
  0
VERTEX
  8
0
 62
4
 10
2.32743784E+02
 20
-2.10252903E+02
  0
VERTEX
  8
0
 62
4
 10
2.32706020E+02
 20
-2.10076453E+02
  0
VERTEX
  8
0
 62
4
 10
2.32653553E+02
 20
-2.09904084E+02
  0
VERTEX
  8
0
 62
4
 10
2.32586784E+02
 20
-2.09737107E+02
  0
VERTEX
  8
0
 62
4
 10
2.32506219E+02
 20
-2.09576794E+02
  0
VERTEX
  8
0
 62
4
 10
2.32412472E+02
 20
-2.09424364E+02
  0
VERTEX
  8
0
 62
4
 10
2.32306257E+02
 20
-2.09280978E+02
  0
VERTEX
  8
0
 62
4
 10
2.32188382E+02
 20
-2.09147727E+02
  0
VERTEX
  8
0
 62
4
 10
2.32059743E+02
 20
-2.09025625E+02
  0
VERTEX
  8
0
 62
4
 10
2.31921321E+02
 20
-2.08915601E+02
  0
VERTEX
  8
0
 62
4
 10
2.31774168E+02
 20
-2.08818492E+02
  0
VERTEX
  8
0
 62
4
 10
2.31619405E+02
 20
-2.08735039E+02
  0
VERTEX
  8
0
 62
4
 10
2.31458208E+02
 20
-2.08665875E+02
  0
VERTEX
  8
0
 62
4
 10
2.31291806E+02
 20
-2.08611527E+02
  0
VERTEX
  8
0
 62
4
 10
2.31121464E+02
 20
-2.08572409E+02
  0
VERTEX
  8
0
 62
4
 10
2.30948479E+02
 20
-2.08548818E+02
  0
VERTEX
  8
0
 62
4
 10
2.30774168E+02
 20
-2.08540935E+02
  0
VERTEX
  8
0
 62
4
 10
2.30599857E+02
 20
-2.08548818E+02
  0
VERTEX
  8
0
 62
4
 10
2.30426872E+02
 20
-2.08572409E+02
  0
VERTEX
  8
0
 62
4
 10
2.30256530E+02
 20
-2.08611527E+02
  0
VERTEX
  8
0
 62
4
 10
2.30090128E+02
 20
-2.08665875E+02
  0
VERTEX
  8
0
 62
4
 10
2.29928931E+02
 20
-2.08735039E+02
  0
VERTEX
  8
0
 62
4
 10
2.29774168E+02
 20
-2.08818492E+02
  0
VERTEX
  8
0
 62
4
 10
2.29627015E+02
 20
-2.08915601E+02
  0
VERTEX
  8
0
 62
4
 10
2.29488593E+02
 20
-2.09025625E+02
  0
VERTEX
  8
0
 62
4
 10
2.29359954E+02
 20
-2.09147727E+02
  0
VERTEX
  8
0
 62
4
 10
2.29242079E+02
 20
-2.09280978E+02
  0
VERTEX
  8
0
 62
4
 10
2.29135864E+02
 20
-2.09424364E+02
  0
VERTEX
  8
0
 62
4
 10
2.29042117E+02
 20
-2.09576794E+02
  0
VERTEX
  8
0
 62
4
 10
2.28961552E+02
 20
-2.09737107E+02
  0
VERTEX
  8
0
 62
4
 10
2.28894783E+02
 20
-2.09904084E+02
  0
VERTEX
  8
0
 62
4
 10
2.28842316E+02
 20
-2.10076453E+02
  0
VERTEX
  8
0
 62
4
 10
2.28804552E+02
 20
-2.10252903E+02
  0
VERTEX
  8
0
 62
4
 10
2.28781779E+02
 20
-2.10432091E+02
  0
VERTEX
  8
0
 62
4
 10
2.28774168E+02
 20
-2.10612653E+02
  0
VERTEX
  8
0
 62
4
 10
2.28781779E+02
 20
-2.10793215E+02
  0
VERTEX
  8
0
 62
4
 10
2.28804552E+02
 20
-2.10972403E+02
  0
VERTEX
  8
0
 62
4
 10
2.28842316E+02
 20
-2.11148853E+02
  0
VERTEX
  8
0
 62
4
 10
2.28894783E+02
 20
-2.11321222E+02
  0
VERTEX
  8
0
 62
4
 10
2.28961552E+02
 20
-2.11488199E+02
  0
VERTEX
  8
0
 62
4
 10
2.29042117E+02
 20
-2.11648512E+02
  0
VERTEX
  8
0
 62
4
 10
2.29135864E+02
 20
-2.11800942E+02
  0
VERTEX
  8
0
 62
4
 10
2.29242079E+02
 20
-2.11944328E+02
  0
VERTEX
  8
0
 62
4
 10
2.29359954E+02
 20
-2.12077579E+02
  0
VERTEX
  8
0
 62
4
 10
2.29488593E+02
 20
-2.12199681E+02
  0
VERTEX
  8
0
 62
4
 10
2.29627015E+02
 20
-2.12309705E+02
  0
VERTEX
  8
0
 62
4
 10
2.29774168E+02
 20
-2.12406814E+02
  0
VERTEX
  8
0
 62
4
 10
2.29928931E+02
 20
-2.12490267E+02
  0
VERTEX
  8
0
 62
4
 10
2.30090128E+02
 20
-2.12559431E+02
  0
VERTEX
  8
0
 62
4
 10
2.30256530E+02
 20
-2.12613779E+02
  0
VERTEX
  8
0
 62
4
 10
2.30426872E+02
 20
-2.12652897E+02
  0
VERTEX
  8
0
 62
4
 10
2.30599857E+02
 20
-2.12676488E+02
  0
VERTEX
  8
0
 62
4
 10
2.30774168E+02
 20
-2.12684371E+02
  0
SEQEND
  8
0
  0
LINE
  8
0
  6
CENTER
 62
6
 10
2.30774168E+02
 20
-2.08013720E+02
 11
2.30774168E+02
 21
-2.13858255E+02
  0
LINE
  8
0
  6
CENTER
 62
6
 10
2.19851900E+02
 20
-2.10935988E+02
 11
2.33696436E+02
 21
-2.10935988E+02
  0
POLYLINE
  8
0
 62
6
 66
1
  0
VERTEX
  8
0
 62
6
 10
2.24274168E+02
 20
-2.10935988E+02
  0
VERTEX
  8
0
 62
6
 10
2.24268460E+02
 20
-2.10808111E+02
  0
VERTEX
  8
0
 62
6
 10
2.24251380E+02
 20
-2.10681208E+02
  0
VERTEX
  8
0
 62
6
 10
2.24223057E+02
 20
-2.10556243E+02
  0
VERTEX
  8
0
 62
6
 10
2.24183707E+02
 20
-2.10434169E+02
  0
VERTEX
  8
0
 62
6
 10
2.24133630E+02
 20
-2.10315913E+02
  0
VERTEX
  8
0
 62
6
 10
2.24073206E+02
 20
-2.10202377E+02
  0
VERTEX
  8
0
 62
6
 10
2.24002896E+02
 20
-2.10094424E+02
  0
VERTEX
  8
0
 62
6
 10
2.23923235E+02
 20
-2.09992876E+02
  0
VERTEX
  8
0
 62
6
 10
2.23834828E+02
 20
-2.09898506E+02
  0
VERTEX
  8
0
 62
6
 10
2.23738349E+02
 20
-2.09812031E+02
  0
VERTEX
  8
0
 62
6
 10
2.23634533E+02
 20
-2.09734111E+02
  0
VERTEX
  8
0
 62
6
 10
2.23524168E+02
 20
-2.09665337E+02
  0
VERTEX
  8
0
 62
6
 10
2.23408095E+02
 20
-2.09606234E+02
  0
VERTEX
  8
0
 62
6
 10
2.23287198E+02
 20
-2.09557251E+02
  0
VERTEX
  8
0
 62
6
 10
2.23162397E+02
 20
-2.09518761E+02
  0
VERTEX
  8
0
 62
6
 10
2.23034640E+02
 20
-2.09491057E+02
  0
VERTEX
  8
0
 62
6
 10
2.22904902E+02
 20
-2.09474350E+02
  0
VERTEX
  8
0
 62
6
 10
2.22774168E+02
 20
-2.09468767E+02
  0
VERTEX
  8
0
 62
6
 10
2.22643434E+02
 20
-2.09474350E+02
  0
VERTEX
  8
0
 62
6
 10
2.22513696E+02
 20
-2.09491057E+02
  0
VERTEX
  8
0
 62
6
 10
2.22385939E+02
 20
-2.09518761E+02
  0
VERTEX
  8
0
 62
6
 10
2.22261138E+02
 20
-2.09557251E+02
  0
VERTEX
  8
0
 62
6
 10
2.22140241E+02
 20
-2.09606234E+02
  0
VERTEX
  8
0
 62
6
 10
2.22024168E+02
 20
-2.09665337E+02
  0
VERTEX
  8
0
 62
6
 10
2.21913803E+02
 20
-2.09734111E+02
  0
VERTEX
  8
0
 62
6
 10
2.21809987E+02
 20
-2.09812031E+02
  0
VERTEX
  8
0
 62
6
 10
2.21713508E+02
 20
-2.09898506E+02
  0
VERTEX
  8
0
 62
6
 10
2.21625101E+02
 20
-2.09992876E+02
  0
VERTEX
  8
0
 62
6
 10
2.21545440E+02
 20
-2.10094424E+02
  0
VERTEX
  8
0
 62
6
 10
2.21475130E+02
 20
-2.10202377E+02
  0
VERTEX
  8
0
 62
6
 10
2.21414706E+02
 20
-2.10315913E+02
  0
VERTEX
  8
0
 62
6
 10
2.21364629E+02
 20
-2.10434169E+02
  0
VERTEX
  8
0
 62
6
 10
2.21325279E+02
 20
-2.10556243E+02
  0
VERTEX
  8
0
 62
6
 10
2.21296956E+02
 20
-2.10681208E+02
  0
VERTEX
  8
0
 62
6
 10
2.21279876E+02
 20
-2.10808111E+02
  0
VERTEX
  8
0
 62
6
 10
2.21274168E+02
 20
-2.10935988E+02
  0
VERTEX
  8
0
 62
6
 10
2.21279876E+02
 20
-2.11063865E+02
  0
VERTEX
  8
0
 62
6
 10
2.21296956E+02
 20
-2.11190768E+02
  0
VERTEX
  8
0
 62
6
 10
2.21325279E+02
 20
-2.11315733E+02
  0
VERTEX
  8
0
 62
6
 10
2.21364629E+02
 20
-2.11437807E+02
  0
VERTEX
  8
0
 62
6
 10
2.21414706E+02
 20
-2.11556063E+02
  0
VERTEX
  8
0
 62
6
 10
2.21475130E+02
 20
-2.11669599E+02
  0
VERTEX
  8
0
 62
6
 10
2.21545440E+02
 20
-2.11777552E+02
  0
VERTEX
  8
0
 62
6
 10
2.21625101E+02
 20
-2.11879100E+02
  0
VERTEX
  8
0
 62
6
 10
2.21713508E+02
 20
-2.11973470E+02
  0
VERTEX
  8
0
 62
6
 10
2.21809987E+02
 20
-2.12059945E+02
  0
VERTEX
  8
0
 62
6
 10
2.21913803E+02
 20
-2.12137865E+02
  0
VERTEX
  8
0
 62
6
 10
2.22024168E+02
 20
-2.12206639E+02
  0
VERTEX
  8
0
 62
6
 10
2.22140241E+02
 20
-2.12265742E+02
  0
VERTEX
  8
0
 62
6
 10
2.22261138E+02
 20
-2.12314725E+02
  0
VERTEX
  8
0
 62
6
 10
2.22385939E+02
 20
-2.12353215E+02
  0
VERTEX
  8
0
 62
6
 10
2.22513696E+02
 20
-2.12380919E+02
  0
VERTEX
  8
0
 62
6
 10
2.22643434E+02
 20
-2.12397626E+02
  0
VERTEX
  8
0
 62
6
 10
2.22774168E+02
 20
-2.12403209E+02
  0
VERTEX
  8
0
 62
6
 10
2.22904902E+02
 20
-2.12397626E+02
  0
VERTEX
  8
0
 62
6
 10
2.23034640E+02
 20
-2.12380919E+02
  0
VERTEX
  8
0
 62
6
 10
2.23162397E+02
 20
-2.12353215E+02
  0
VERTEX
  8
0
 62
6
 10
2.23287198E+02
 20
-2.12314725E+02
  0
VERTEX
  8
0
 62
6
 10
2.23408095E+02
 20
-2.12265742E+02
  0
VERTEX
  8
0
 62
6
 10
2.23524168E+02
 20
-2.12206639E+02
  0
VERTEX
  8
0
 62
6
 10
2.23634533E+02
 20
-2.12137865E+02
  0
VERTEX
  8
0
 62
6
 10
2.23738349E+02
 20
-2.12059945E+02
  0
VERTEX
  8
0
 62
6
 10
2.23834828E+02
 20
-2.11973470E+02
  0
VERTEX
  8
0
 62
6
 10
2.23923235E+02
 20
-2.11879100E+02
  0
VERTEX
  8
0
 62
6
 10
2.24002896E+02
 20
-2.11777552E+02
  0
VERTEX
  8
0
 62
6
 10
2.24073206E+02
 20
-2.11669599E+02
  0
VERTEX
  8
0
 62
6
 10
2.24133630E+02
 20
-2.11556063E+02
  0
VERTEX
  8
0
 62
6
 10
2.24183707E+02
 20
-2.11437807E+02
  0
VERTEX
  8
0
 62
6
 10
2.24223057E+02
 20
-2.11315733E+02
  0
VERTEX
  8
0
 62
6
 10
2.24251380E+02
 20
-2.11190768E+02
  0
VERTEX
  8
0
 62
6
 10
2.24268460E+02
 20
-2.11063865E+02
  0
VERTEX
  8
0
 62
6
 10
2.24274168E+02
 20
-2.10935988E+02
  0
SEQEND
  8
0
  0
POLYLINE
  8
0
 62
4
 66
1
  0
VERTEX
  8
0
 62
4
 10
2.24509168E+02
 20
-2.10940878E+02
  0
VERTEX
  8
0
 62
4
 10
2.24502566E+02
 20
-2.10792967E+02
  0
VERTEX
  8
0
 62
4
 10
2.24482809E+02
 20
-2.10646182E+02
  0
VERTEX
  8
0
 62
4
 10
2.24450049E+02
 20
-2.10501640E+02
  0
VERTEX
  8
0
 62
4
 10
2.24404535E+02
 20
-2.10360440E+02
  0
VERTEX
  8
0
 62
4
 10
2.24346612E+02
 20
-2.10223658E+02
  0
VERTEX
  8
0
 62
4
 10
2.24276722E+02
 20
-2.10092335E+02
  0
VERTEX
  8
0
 62
4
 10
2.24195397E+02
 20
-2.09967469E+02
  0
VERTEX
  8
0
 62
4
 10
2.24103255E+02
 20
-2.09850012E+02
  0
VERTEX
  8
0
 62
4
 10
2.24000998E+02
 20
-2.09740857E+02
  0
VERTEX
  8
0
 62
4
 10
2.23889405E+02
 20
-2.09640835E+02
  0
VERTEX
  8
0
 62
4
 10
2.23769323E+02
 20
-2.09550706E+02
  0
VERTEX
  8
0
 62
4
 10
2.23641668E+02
 20
-2.09471158E+02
  0
VERTEX
  8
0
 62
4
 10
2.23507411E+02
 20
-2.09402796E+02
  0
VERTEX
  8
0
 62
4
 10
2.23367573E+02
 20
-2.09346139E+02
  0
VERTEX
  8
0
 62
4
 10
2.23223219E+02
 20
-2.09301619E+02
  0
VERTEX
  8
0
 62
4
 10
2.23075448E+02
 20
-2.09269574E+02
  0
VERTEX
  8
0
 62
4
 10
2.22925383E+02
 20
-2.09250250E+02
  0
VERTEX
  8
0
 62
4
 10
2.22774168E+02
 20
-2.09243792E+02
  0
VERTEX
  8
0
 62
4
 10
2.22622953E+02
 20
-2.09250250E+02
  0
VERTEX
  8
0
 62
4
 10
2.22472888E+02
 20
-2.09269574E+02
  0
VERTEX
  8
0
 62
4
 10
2.22325117E+02
 20
-2.09301619E+02
  0
VERTEX
  8
0
 62
4
 10
2.22180763E+02
 20
-2.09346139E+02
  0
VERTEX
  8
0
 62
4
 10
2.22040925E+02
 20
-2.09402796E+02
  0
VERTEX
  8
0
 62
4
 10
2.21906668E+02
 20
-2.09471158E+02
  0
VERTEX
  8
0
 62
4
 10
2.21779013E+02
 20
-2.09550706E+02
  0
VERTEX
  8
0
 62
4
 10
2.21658931E+02
 20
-2.09640835E+02
  0
VERTEX
  8
0
 62
4
 10
2.21547338E+02
 20
-2.09740857E+02
  0
VERTEX
  8
0
 62
4
 10
2.21445081E+02
 20
-2.09850012E+02
  0
VERTEX
  8
0
 62
4
 10
2.21352939E+02
 20
-2.09967469E+02
  0
VERTEX
  8
0
 62
4
 10
2.21271614E+02
 20
-2.10092335E+02
  0
VERTEX
  8
0
 62
4
 10
2.21201724E+02
 20
-2.10223658E+02
  0
VERTEX
  8
0
 62
4
 10
2.21143801E+02
 20
-2.10360440E+02
  0
VERTEX
  8
0
 62
4
 10
2.21098287E+02
 20
-2.10501640E+02
  0
VERTEX
  8
0
 62
4
 10
2.21065527E+02
 20
-2.10646182E+02
  0
VERTEX
  8
0
 62
4
 10
2.21045770E+02
 20
-2.10792967E+02
  0
VERTEX
  8
0
 62
4
 10
2.21039168E+02
 20
-2.10940878E+02
  0
VERTEX
  8
0
 62
4
 10
2.21045770E+02
 20
-2.11088789E+02
  0
VERTEX
  8
0
 62
4
 10
2.21065527E+02
 20
-2.11235574E+02
  0
VERTEX
  8
0
 62
4
 10
2.21098287E+02
 20
-2.11380116E+02
  0
VERTEX
  8
0
 62
4
 10
2.21143801E+02
 20
-2.11521316E+02
  0
VERTEX
  8
0
 62
4
 10
2.21201724E+02
 20
-2.11658098E+02
  0
VERTEX
  8
0
 62
4
 10
2.21271614E+02
 20
-2.11789421E+02
  0
VERTEX
  8
0
 62
4
 10
2.21352939E+02
 20
-2.11914287E+02
  0
VERTEX
  8
0
 62
4
 10
2.21445081E+02
 20
-2.12031744E+02
  0
VERTEX
  8
0
 62
4
 10
2.21547338E+02
 20
-2.12140899E+02
  0
VERTEX
  8
0
 62
4
 10
2.21658931E+02
 20
-2.12240921E+02
  0
VERTEX
  8
0
 62
4
 10
2.21779013E+02
 20
-2.12331050E+02
  0
VERTEX
  8
0
 62
4
 10
2.21906668E+02
 20
-2.12410598E+02
  0
VERTEX
  8
0
 62
4
 10
2.22040925E+02
 20
-2.12478960E+02
  0
VERTEX
  8
0
 62
4
 10
2.22180763E+02
 20
-2.12535617E+02
  0
VERTEX
  8
0
 62
4
 10
2.22325117E+02
 20
-2.12580137E+02
  0
VERTEX
  8
0
 62
4
 10
2.22472888E+02
 20
-2.12612182E+02
  0
VERTEX
  8
0
 62
4
 10
2.22622953E+02
 20
-2.12631506E+02
  0
VERTEX
  8
0
 62
4
 10
2.22774168E+02
 20
-2.12637964E+02
  0
VERTEX
  8
0
 62
4
 10
2.22925383E+02
 20
-2.12631506E+02
  0
VERTEX
  8
0
 62
4
 10
2.23075448E+02
 20
-2.12612182E+02
  0
VERTEX
  8
0
 62
4
 10
2.23223219E+02
 20
-2.12580137E+02
  0
VERTEX
  8
0
 62
4
 10
2.23367573E+02
 20
-2.12535617E+02
  0
VERTEX
  8
0
 62
4
 10
2.23507411E+02
 20
-2.12478960E+02
  0
VERTEX
  8
0
 62
4
 10
2.23641668E+02
 20
-2.12410598E+02
  0
VERTEX
  8
0
 62
4
 10
2.23769323E+02
 20
-2.12331050E+02
  0
VERTEX
  8
0
 62
4
 10
2.23889405E+02
 20
-2.12240921E+02
  0
VERTEX
  8
0
 62
4
 10
2.24000998E+02
 20
-2.12140899E+02
  0
VERTEX
  8
0
 62
4
 10
2.24103255E+02
 20
-2.12031744E+02
  0
VERTEX
  8
0
 62
4
 10
2.24195397E+02
 20
-2.11914287E+02
  0
VERTEX
  8
0
 62
4
 10
2.24276722E+02
 20
-2.11789421E+02
  0
VERTEX
  8
0
 62
4
 10
2.24346612E+02
 20
-2.11658098E+02
  0
VERTEX
  8
0
 62
4
 10
2.24404535E+02
 20
-2.11521316E+02
  0
VERTEX
  8
0
 62
4
 10
2.24450049E+02
 20
-2.11380116E+02
  0
VERTEX
  8
0
 62
4
 10
2.24482809E+02
 20
-2.11235574E+02
  0
VERTEX
  8
0
 62
4
 10
2.24502566E+02
 20
-2.11088789E+02
  0
VERTEX
  8
0
 62
4
 10
2.24509168E+02
 20
-2.10940878E+02
  0
SEQEND
  8
0
  0
POLYLINE
  8
0
 62
4
 66
1
  0
VERTEX
  8
0
 62
4
 10
2.22774168E+02
 20
-2.12684371E+02
  0
VERTEX
  8
0
 62
4
 10
2.22948479E+02
 20
-2.12676488E+02
  0
VERTEX
  8
0
 62
4
 10
2.23121464E+02
 20
-2.12652897E+02
  0
VERTEX
  8
0
 62
4
 10
2.23291806E+02
 20
-2.12613779E+02
  0
VERTEX
  8
0
 62
4
 10
2.23458208E+02
 20
-2.12559431E+02
  0
VERTEX
  8
0
 62
4
 10
2.23619405E+02
 20
-2.12490267E+02
  0
VERTEX
  8
0
 62
4
 10
2.23774168E+02
 20
-2.12406814E+02
  0
VERTEX
  8
0
 62
4
 10
2.23921321E+02
 20
-2.12309705E+02
  0
VERTEX
  8
0
 62
4
 10
2.24059743E+02
 20
-2.12199681E+02
  0
VERTEX
  8
0
 62
4
 10
2.24188382E+02
 20
-2.12077579E+02
  0
VERTEX
  8
0
 62
4
 10
2.24306257E+02
 20
-2.11944328E+02
  0
VERTEX
  8
0
 62
4
 10
2.24412472E+02
 20
-2.11800942E+02
  0
VERTEX
  8
0
 62
4
 10
2.24506219E+02
 20
-2.11648512E+02
  0
VERTEX
  8
0
 62
4
 10
2.24586784E+02
 20
-2.11488199E+02
  0
VERTEX
  8
0
 62
4
 10
2.24653553E+02
 20
-2.11321222E+02
  0
VERTEX
  8
0
 62
4
 10
2.24706020E+02
 20
-2.11148853E+02
  0
VERTEX
  8
0
 62
4
 10
2.24743784E+02
 20
-2.10972403E+02
  0
VERTEX
  8
0
 62
4
 10
2.24766557E+02
 20
-2.10793215E+02
  0
VERTEX
  8
0
 62
4
 10
2.24774168E+02
 20
-2.10612653E+02
  0
VERTEX
  8
0
 62
4
 10
2.24766557E+02
 20
-2.10432091E+02
  0
VERTEX
  8
0
 62
4
 10
2.24743784E+02
 20
-2.10252903E+02
  0
VERTEX
  8
0
 62
4
 10
2.24706020E+02
 20
-2.10076453E+02
  0
VERTEX
  8
0
 62
4
 10
2.24653553E+02
 20
-2.09904084E+02
  0
VERTEX
  8
0
 62
4
 10
2.24586784E+02
 20
-2.09737107E+02
  0
VERTEX
  8
0
 62
4
 10
2.24506219E+02
 20
-2.09576794E+02
  0
VERTEX
  8
0
 62
4
 10
2.24412472E+02
 20
-2.09424364E+02
  0
VERTEX
  8
0
 62
4
 10
2.24306257E+02
 20
-2.09280978E+02
  0
VERTEX
  8
0
 62
4
 10
2.24188382E+02
 20
-2.09147727E+02
  0
VERTEX
  8
0
 62
4
 10
2.24059743E+02
 20
-2.09025625E+02
  0
VERTEX
  8
0
 62
4
 10
2.23921321E+02
 20
-2.08915601E+02
  0
VERTEX
  8
0
 62
4
 10
2.23774168E+02
 20
-2.08818492E+02
  0
VERTEX
  8
0
 62
4
 10
2.23619405E+02
 20
-2.08735039E+02
  0
VERTEX
  8
0
 62
4
 10
2.23458208E+02
 20
-2.08665875E+02
  0
VERTEX
  8
0
 62
4
 10
2.23291806E+02
 20
-2.08611527E+02
  0
VERTEX
  8
0
 62
4
 10
2.23121464E+02
 20
-2.08572409E+02
  0
VERTEX
  8
0
 62
4
 10
2.22948479E+02
 20
-2.08548818E+02
  0
VERTEX
  8
0
 62
4
 10
2.22774168E+02
 20
-2.08540935E+02
  0
VERTEX
  8
0
 62
4
 10
2.22599857E+02
 20
-2.08548818E+02
  0
VERTEX
  8
0
 62
4
 10
2.22426872E+02
 20
-2.08572409E+02
  0
VERTEX
  8
0
 62
4
 10
2.22256530E+02
 20
-2.08611527E+02
  0
VERTEX
  8
0
 62
4
 10
2.22090128E+02
 20
-2.08665875E+02
  0
VERTEX
  8
0
 62
4
 10
2.21928931E+02
 20
-2.08735039E+02
  0
VERTEX
  8
0
 62
4
 10
2.21774168E+02
 20
-2.08818492E+02
  0
VERTEX
  8
0
 62
4
 10
2.21627015E+02
 20
-2.08915601E+02
  0
VERTEX
  8
0
 62
4
 10
2.21488593E+02
 20
-2.09025625E+02
  0
VERTEX
  8
0
 62
4
 10
2.21359954E+02
 20
-2.09147727E+02
  0
VERTEX
  8
0
 62
4
 10
2.21242079E+02
 20
-2.09280978E+02
  0
VERTEX
  8
0
 62
4
 10
2.21135864E+02
 20
-2.09424364E+02
  0
VERTEX
  8
0
 62
4
 10
2.21042117E+02
 20
-2.09576794E+02
  0
VERTEX
  8
0
 62
4
 10
2.20961552E+02
 20
-2.09737107E+02
  0
VERTEX
  8
0
 62
4
 10
2.20894783E+02
 20
-2.09904084E+02
  0
VERTEX
  8
0
 62
4
 10
2.20842316E+02
 20
-2.10076453E+02
  0
VERTEX
  8
0
 62
4
 10
2.20804552E+02
 20
-2.10252903E+02
  0
VERTEX
  8
0
 62
4
 10
2.20781779E+02
 20
-2.10432091E+02
  0
VERTEX
  8
0
 62
4
 10
2.20774168E+02
 20
-2.10612653E+02
  0
VERTEX
  8
0
 62
4
 10
2.20781779E+02
 20
-2.10793215E+02
  0
VERTEX
  8
0
 62
4
 10
2.20804552E+02
 20
-2.10972403E+02
  0
VERTEX
  8
0
 62
4
 10
2.20842316E+02
 20
-2.11148853E+02
  0
VERTEX
  8
0
 62
4
 10
2.20894783E+02
 20
-2.11321222E+02
  0
VERTEX
  8
0
 62
4
 10
2.20961552E+02
 20
-2.11488199E+02
  0
VERTEX
  8
0
 62
4
 10
2.21042117E+02
 20
-2.11648512E+02
  0
VERTEX
  8
0
 62
4
 10
2.21135864E+02
 20
-2.11800942E+02
  0
VERTEX
  8
0
 62
4
 10
2.21242079E+02
 20
-2.11944328E+02
  0
VERTEX
  8
0
 62
4
 10
2.21359954E+02
 20
-2.12077579E+02
  0
VERTEX
  8
0
 62
4
 10
2.21488593E+02
 20
-2.12199681E+02
  0
VERTEX
  8
0
 62
4
 10
2.21627015E+02
 20
-2.12309705E+02
  0
VERTEX
  8
0
 62
4
 10
2.21774168E+02
 20
-2.12406814E+02
  0
VERTEX
  8
0
 62
4
 10
2.21928931E+02
 20
-2.12490267E+02
  0
VERTEX
  8
0
 62
4
 10
2.22090128E+02
 20
-2.12559431E+02
  0
VERTEX
  8
0
 62
4
 10
2.22256530E+02
 20
-2.12613779E+02
  0
VERTEX
  8
0
 62
4
 10
2.22426872E+02
 20
-2.12652897E+02
  0
VERTEX
  8
0
 62
4
 10
2.22599857E+02
 20
-2.12676488E+02
  0
VERTEX
  8
0
 62
4
 10
2.22774168E+02
 20
-2.12684371E+02
  0
SEQEND
  8
0
  0
LINE
  8
0
 62
4
 10
2.35774168E+02
 20
-2.04407712E+02
 11
2.35774168E+02
 21
-2.02740352E+02
  0
LINE
  8
0
 62
4
 10
2.02774168E+02
 20
-2.04407712E+02
 11
2.02774168E+02
 21
-2.02740352E+02
  0
LINE
  8
0
 62
4
 10
2.53774168E+02
 20
-1.52450841E+02
 11
2.48774168E+02
 21
-1.52450841E+02
  0
LINE
  8
0
 62
4
 10
2.34274168E+02
 20
-1.55477400E+02
 11
2.19274168E+02
 21
-1.55477400E+02
  0
LINE
  8
0
 62
4
 10
2.19274168E+02
 20
-1.89169416E+02
 11
2.34274168E+02
 21
-1.89169416E+02
  0
LINE
  8
0
 62
4
 10
2.19274168E+02
 20
-2.15589872E+02
 11
2.34274168E+02
 21
-2.15589872E+02
  0
LINE
  8
0
 62
4
 10
2.34274168E+02
 20
-1.89169416E+02
 11
2.34274168E+02
 21
-2.15589872E+02
  0
LINE
  8
0
 62
4
 10
2.19274168E+02
 20
-1.89169416E+02
 11
2.19274168E+02
 21
-2.15589872E+02
  0
LINE
  8
0
  6
CENTER
 62
6
 10
2.22774168E+02
 20
-2.08013720E+02
 11
2.22774168E+02
 21
-2.13858255E+02
  0
LINE
  8
0
 62
4
 10
2.47274168E+02
 20
-1.54035832E+02
 11
2.43774168E+02
 21
-1.54035832E+02
  0
LINE
  8
0
 62
4
 10
2.37274168E+02
 20
-1.80254367E+02
 11
2.34274168E+02
 21
-1.80254367E+02
  0
LINE
  8
0
 62
4
 10
2.53774168E+02
 20
-1.57470320E+02
 11
2.48774168E+02
 21
-1.57470320E+02
  0
LINE
  8
0
 62
4
 10
2.53774168E+02
 20
-1.57474029E+02
 11
2.48774168E+02
 21
-1.57474029E+02
  0
LINE
  8
0
 62
4
 10
2.53774168E+02
 20
-1.64816209E+02
 11
2.48774168E+02
 21
-1.64816209E+02
  0
LINE
  8
0
 62
4
 10
2.34274168E+02
 20
-1.52785832E+02
 11
2.43274168E+02
 21
-1.52785832E+02
  0
LINE
  8
0
 62
4
 10
2.43774168E+02
 20
-1.53285832E+02
 11
2.43774168E+02
 21
-1.66285832E+02
  0
LINE
  8
0
 62
4
 10
2.53774168E+02
 20
-1.52450841E+02
 11
2.53774168E+02
 21
-1.67132836E+02
  0
LINE
  8
0
 62
4
 10
2.48774168E+02
 20
-1.52450841E+02
 11
2.48774168E+02
 21
-1.67132836E+02
  0
LINE
  8
0
 62
4
 10
2.48774168E+02
 20
-1.53535832E+02
 11
2.43774168E+02
 21
-1.53535832E+02
  0
LINE
  8
0
 62
4
 10
2.48774168E+02
 20
-1.66035832E+02
 11
2.43774168E+02
 21
-1.66035832E+02
  0
LINE
  8
0
 62
4
 10
2.47274168E+02
 20
-1.53535832E+02
 11
2.47274168E+02
 21
-1.66035832E+02
  0
LINE
  8
0
 62
4
 10
2.47274168E+02
 20
-1.65535832E+02
 11
2.43774168E+02
 21
-1.65535832E+02
  0
LINE
  8
0
 62
4
 10
2.43274168E+02
 20
-1.66785832E+02
 11
2.34774168E+02
 21
-1.66785832E+02
  0
LINE
  8
0
 62
4
 10
2.53774168E+02
 20
-1.67132836E+02
 11
2.48774168E+02
 21
-1.67132836E+02
  0
LINE
  8
0
 62
4
 10
2.19274168E+02
 20
-1.99451497E+02
 11
1.99774168E+02
 21
-1.99451497E+02
  0
LINE
  8
0
 62
4
 10
2.19274168E+02
 20
-1.97984276E+02
 11
1.99774168E+02
 21
-1.97984276E+02
  0
LINE
  8
0
 62
4
 10
2.34274168E+02
 20
-1.52358725E+02
 11
2.19274168E+02
 21
-1.52358725E+02
  0
LINE
  8
0
 62
4
 10
2.36274168E+02
 20
-1.80346913E+02
 11
2.17274168E+02
 21
-1.80346913E+02
  0
LINE
  8
0
 62
4
 10
2.38774168E+02
 20
-1.81754367E+02
 11
2.38774168E+02
 21
-1.99451497E+02
  0
LINE
  8
0
 62
4
 10
2.38774168E+02
 20
-1.99451497E+02
 11
2.34274168E+02
 21
-1.99451497E+02
  0
LINE
  8
0
 62
4
 10
2.38774168E+02
 20
-1.97984276E+02
 11
2.34274168E+02
 21
-1.97984276E+02
  0
LINE
  8
0
 62
4
 10
2.36274168E+02
 20
-1.80346913E+02
 11
2.36274168E+02
 21
-1.84259504E+02
  0
LINE
  8
0
 62
4
 10
2.19274168E+02
 20
-1.52358725E+02
 11
2.19274168E+02
 21
-1.80346913E+02
  0
LINE
  8
0
 62
4
 10
2.34274168E+02
 20
-1.52358725E+02
 11
2.34274168E+02
 21
-1.80346913E+02
  0
LINE
  8
0
 62
4
 10
2.17274168E+02
 20
-1.80346913E+02
 11
2.17274168E+02
 21
-1.84259504E+02
  0
LINE
  8
0
 62
4
 10
2.34274168E+02
 20
-1.78952942E+02
 11
2.19274168E+02
 21
-1.78952942E+02
  0
LINE
  8
0
 62
4
 10
1.99774168E+02
 20
-1.81754367E+02
 11
1.99774168E+02
 21
-1.99451497E+02
  0
ARC
  8
0
 62
4
 10
2.43274667E+02
 20
-1.53285332E+02
 40
4.99500622E-01
 50
3.59942689E+02
 51
9.00573103E+01
  0
ARC
  8
0
 62
4
 10
2.34773668E+02
 20
-1.67285332E+02
 40
4.99500622E-01
 50
8.99426895E+01
 51
1.80057310E+02
  0
ARC
  8
0
 62
4
 10
2.01273668E+02
 20
-1.81753868E+02
 40
1.49950029E+00
 50
8.99809029E+01
 51
1.80019097E+02
  0
ARC
  8
0
 62
4
 10
2.43273668E+02
 20
-1.66285332E+02
 40
5.00500378E-01
 50
2.70057253E+02
 51
3.59942747E+02
  0
ARC
  8
0
 62
4
 10
2.37274668E+02
 20
-1.81753868E+02
 40
1.49950029E+00
 50
3.59980903E+02
 51
9.00190969E+01
  0
LINE
  8
0
 62
4
 10
2.20274168E+02
 20
-2.05323396E+02
 11
2.33274168E+02
 21
-2.05323396E+02
  0
CIRCLE
  8
0
 62
7
 10
4.27275458E+01
 20
-2.07057812E+02
 40
2.45850000E+00
  0
CIRCLE
  8
0
 62
7
 10
7.97273322E+01
 20
-2.07057812E+02
 40
2.45850000E+00
  0
CIRCLE
  8
0
 62
7
 10
-2.82249863E+02
 20
-2.07057812E+02
 40
2.45850000E+00
  0
CIRCLE
  8
0
 62
7
 10
-2.45250076E+02
 20
-2.07057812E+02
 40
2.45850000E+00
  0
ARC
  8
0
 62
7
 10
3.92274695E+01
 20
-2.03557736E+02
 40
3.00000000E+00
 50
9.00000042E+01
 51
1.80000041E+02
  0
ARC
  8
0
 62
7
 10
8.32274695E+01
 20
-2.03557736E+02
 40
3.00000000E+00
 50
2.23118003E-05
 51
9.00000042E+01
  0
LINE
  8
0
  6
CENTER
 62
2
 10
9.64465857E+01
 20
-2.25557706E+02
 11
3.19262305E+01
 21
-2.25557706E+02
  0
LINE
  8
0
 62
7
 10
8.62274695E+01
 20
-2.25557706E+02
 11
8.62274695E+01
 21
-2.03557706E+02
  0
LINE
  8
0
 62
7
 10
3.62274390E+01
 20
-2.25557706E+02
 11
3.62274390E+01
 21
-2.03557706E+02
  0
LINE
  8
0
  6
CENTER
 62
2
 10
8.81155310E+01
 20
-2.07057812E+02
 11
7.21511145E+01
 21
-2.07057812E+02
  0
LINE
  8
0
  6
CENTER
 62
2
 10
9.76915198E+01
 20
-2.14557721E+02
 11
9.42274695E+01
 21
-2.14557721E+02
  0
LINE
  8
0
 62
7
 10
9.68274451E+01
 20
-2.12957730E+02
 11
9.68274451E+01
 21
-2.16157727E+02
  0
LINE
  8
0
 62
7
 10
9.46274024E+01
 20
-2.10807721E+02
 11
9.42274695E+01
 21
-2.10807721E+02
  0
LINE
  8
0
 62
7
 10
9.46274024E+01
 20
-2.18307721E+02
 11
9.42274695E+01
 21
-2.18307721E+02
  0
LINE
  8
0
 62
7
 10
9.42274390E+01
 20
-2.25557706E+02
 11
9.42274390E+01
 21
-2.06057706E+02
  0
LINE
  8
0
 62
7
 10
9.42274695E+01
 20
-2.06057751E+02
 11
8.79552198E+01
 21
-2.06057751E+02
  0
LINE
  8
0
  6
CENTER
 62
2
 10
4.91088782E+01
 20
-2.07057660E+02
 11
3.45872412E+01
 21
-2.07057660E+02
  0
LINE
  8
0
 62
7
 10
4.27275854E+01
 20
-2.03593583E+02
 11
4.57275851E+01
 21
-2.05325623E+02
  0
LINE
  8
0
 62
7
 10
4.57275611E+01
 20
-2.05325619E+02
 11
4.57275611E+01
 21
-2.08789715E+02
  0
LINE
  8
0
 62
7
 10
4.27275945E+01
 20
-2.10521659E+02
 11
4.57275479E+01
 21
-2.08789630E+02
  0
LINE
  8
0
 62
7
 10
3.97275614E+01
 20
-2.08789630E+02
 11
4.27275809E+01
 21
-2.10521697E+02
  0
LINE
  8
0
 62
7
 10
3.97275305E+01
 20
-2.05325619E+02
 11
3.97275305E+01
 21
-2.08789715E+02
  0
LINE
  8
0
 62
7
 10
4.27275500E+01
 20
-2.03593556E+02
 11
3.97275635E+01
 21
-2.05325589E+02
  0
LINE
  8
0
 62
7
 10
7.97274300E+01
 20
-2.03593538E+02
 11
8.27274165E+01
 21
-2.05325570E+02
  0
LINE
  8
0
 62
7
 10
8.27275000E+01
 20
-2.05325589E+02
 11
8.27275000E+01
 21
-2.08789670E+02
  0
LINE
  8
0
 62
7
 10
7.97274595E+01
 20
-2.10521748E+02
 11
8.27274922E+01
 21
-2.08789674E+02
  0
LINE
  8
0
 62
7
 10
7.67275225E+01
 20
-2.08789618E+02
 11
7.97275156E+01
 21
-2.10521670E+02
  0
LINE
  8
0
 62
7
 10
7.67274695E+01
 20
-2.05325589E+02
 11
7.67274695E+01
 21
-2.08789670E+02
  0
LINE
  8
0
 62
7
 10
7.97274992E+01
 20
-2.03593508E+02
 11
7.67274863E+01
 21
-2.05325556E+02
  0
CIRCLE
  8
0
 62
2
 10
7.97275000E+01
 20
-2.07057614E+02
 40
3.00000000E+00
  0
CIRCLE
  8
0
 62
7
 10
7.97275000E+01
 20
-2.07057614E+02
 40
4.75000000E+00
  0
CIRCLE
  8
0
 62
7
 10
4.27274085E+01
 20
-2.07057721E+02
 40
4.50000000E+00
  0
CIRCLE
  8
0
 62
7
 10
7.97275000E+01
 20
-2.07057645E+02
 40
4.50000000E+00
  0
ARC
  8
0
 62
7
 10
6.12274695E+01
 20
-2.25557706E+02
 40
1.60000000E+01
 50
0.00000000E+00
 51
1.80000000E+02
  0
CIRCLE
  8
0
 62
2
 10
4.27274085E+01
 20
-2.07057645E+02
 40
3.00000000E+00
  0
ARC
  8
0
 62
7
 10
9.43499671E+01
 20
-2.13292279E+02
 40
2.50000000E+00
 50
7.69143002E+00
 51
9.00000042E+01
  0
ARC
  8
0
 62
7
 10
9.43499671E+01
 20
-2.15823178E+02
 40
2.50000000E+00
 50
2.76372839E+02
 51
7.69143002E+00
  0
CIRCLE
  8
0
 62
7
 10
4.27275611E+01
 20
-2.07057690E+02
 40
4.75000000E+00
  0
LINE
  8
0
 62
7
 10
8.32275305E+01
 20
-2.00557721E+02
 11
3.92274695E+01
 21
-2.00557721E+02
  0
LINE
  8
0
  6
CENTER
 62
2
 10
6.12274390E+01
 20
-1.96585385E+02
 11
6.12274390E+01
 21
-2.25557706E+02
  0
LINE
  8
0
  6
CENTER
 62
2
 10
7.97275000E+01
 20
-1.98551068E+02
 11
7.97275000E+01
 21
-2.13472211E+02
  0
LINE
  8
0
  6
CENTER
 62
2
 10
4.27274695E+01
 20
-2.13439145E+02
 11
4.27274695E+01
 21
-1.98917462E+02
  0
LINE
  8
0
  6
CENTER
 62
2
 10
5.12274390E+01
 20
-2.18164334E+02
 11
5.12274390E+01
 21
-1.98628689E+02
  0
LINE
  8
0
  6
CENTER
 62
2
 10
6.52275000E+01
 20
-1.98805356E+02
 11
6.52275000E+01
 21
-2.15057721E+02
  0
LINE
  8
0
 62
7
 10
1.85899072E+02
 20
1.59191788E+00
 11
1.85899072E+02
 21
2.15919179E+01
  0
TEXT
  8
0
 62
7
 10
1.64538135E+02
 20
3.44191778E+00
 40
6.30000019E+00
  1
725
 41
1.00000000E+00
  7
MONOTXT
  0
TEXT
  8
0
 62
7
 10
1.64538135E+02
 20
1.34419178E+01
 40
6.30000019E+00
  1
800
 41
1.00000000E+00
  7
MONOTXT
  0
TEXT
  8
0
 62
7
 10
1.39338135E+02
 20
3.44191780E+00
 40
6.30000019E+00
  1
625
 41
1.00000000E+00
  7
MONOTXT
  0
TEXT
  8
0
 62
7
 10
1.39338135E+02
 20
1.34419178E+01
 40
6.30000019E+00
  1
700
 41
1.00000000E+00
  7
MONOTXT
  0
TEXT
  8
0
 62
7
 10
1.14138135E+02
 20
3.44191780E+00
 40
6.30000019E+00
  1
525
 41
1.00000000E+00
  7
MONOTXT
  0
TEXT
  8
0
 62
7
 10
1.14138135E+02
 20
1.34419178E+01
 40
6.30000019E+00
  1
600
 41
1.00000000E+00
  7
MONOTXT
  0
TEXT
  8
0
 62
7
 10
8.89381342E+01
 20
3.44191780E+00
 40
6.30000019E+00
  1
425
 41
1.00000000E+00
  7
MONOTXT
  0
TEXT
  8
0
 62
7
 10
8.89381342E+01
 20
1.34419178E+01
 40
6.30000019E+00
  1
500
 41
1.00000000E+00
  7
MONOTXT
  0
TEXT
  8
0
 62
7
 10
6.37381342E+01
 20
3.44191780E+00
 40
6.30000019E+00
  1
375
 41
1.00000000E+00
  7
MONOTXT
  0
TEXT
  8
0
 62
7
 10
6.37381342E+01
 20
1.34419178E+01
 40
6.30000019E+00
  1
450
 41
1.00000000E+00
  7
MONOTXT
  0
TEXT
  8
0
 62
7
 10
3.85381342E+01
 20
3.44191780E+00
 40
6.30000019E+00
  1
325
 41
1.00000000E+00
  7
MONOTXT
  0
TEXT
  8
0
 62
7
 10
3.85381342E+01
 20
1.34419178E+01
 40
6.30000019E+00
  1
400
 41
1.00000000E+00
  7
MONOTXT
  0
TEXT
  8
0
 62
7
 10
1.33381342E+01
 20
3.44191780E+00
 40
6.30000019E+00
  1
275
 41
1.00000000E+00
  7
MONOTXT
  0
TEXT
  8
0
 62
7
 10
1.33381342E+01
 20
1.34419178E+01
 40
6.30000019E+00
  1
350
 41
1.00000000E+00
  7
MONOTXT
  0
TEXT
  8
0
 62
7
 10
-1.18618658E+01
 20
3.44191780E+00
 40
6.30000019E+00
  1
225
 41
1.00000000E+00
  7
MONOTXT
  0
TEXT
  8
0
 62
7
 10
-1.18618658E+01
 20
1.34419178E+01
 40
6.30000019E+00
  1
300
 41
1.00000000E+00
  7
MONOTXT
  0
TEXT
  8
0
 62
7
 10
-3.70618658E+01
 20
3.44191780E+00
 40
6.30000019E+00
  1
175
 41
1.00000000E+00
  7
MONOTXT
  0
TEXT
  8
0
 62
7
 10
-3.70618658E+01
 20
1.34419178E+01
 40
6.30000019E+00
  1
250
 41
1.00000000E+00
  7
MONOTXT
  0
TEXT
  8
0
 62
7
 10
-6.22618658E+01
 20
3.44191780E+00
 40
6.30000019E+00
  1
125
 41
1.00000000E+00
  7
MONOTXT
  0
TEXT
  8
0
 62
7
 10
-6.22618658E+01
 20
1.34419178E+01
 40
6.30000019E+00
  1
200
 41
1.00000000E+00
  7
MONOTXT
  0
TEXT
  8
0
 62
7
 10
-8.43118657E+01
 20
3.44191780E+00
 40
6.30000019E+00
  1
75
 41
1.00000000E+00
  7
MONOTXT
  0
TEXT
  8
0
 62
7
 10
-8.74618658E+01
 20
1.34419178E+01
 40
6.30000019E+00
  1
150
 41
1.00000000E+00
  7
MONOTXT
  0
TEXT
  8
0
 62
7
 10
-1.09511865E+02
 20
3.44191780E+00
 40
6.30000019E+00
  1
25
 41
1.00000000E+00
  7
MONOTXT
  0
TEXT
  8
0
 62
7
 10
-1.12661865E+02
 20
1.34419178E+01
 40
6.30000019E+00
  1
100
 41
1.00000000E+00
  7
MONOTXT
  0
TEXT
  8
0
 62
7
 10
-1.31561865E+02
 20
3.44191780E+00
 40
6.30000019E+00
  1
0
 41
1.00000000E+00
  7
MONOTXT
  0
TEXT
  8
0
 62
7
 10
-1.34711865E+02
 20
1.34419178E+01
 40
6.30000019E+00
  1
75
 41
1.00000000E+00
  7
MONOTXT
  0
TEXT
  8
0
 62
7
 10
-2.13461866E+02
 20
3.44191780E+00
 40
6.30000019E+00
  1
STRETCH
 41
1.00000000E+00
  7
MONOTXT
  0
TEXT
  8
0
 62
7
 10
-2.10311866E+02
 20
1.34419178E+01
 40
6.30000019E+00
  1
STROKE
 41
1.00000000E+00
  7
MONOTXT
  0
TEXT
  8
0
 62
7
 10
-1.63061865E+02
 20
3.44191780E+00
 40
6.30000019E+00
  1
-25
 41
1.00000000E+00
  7
MONOTXT
  0
TEXT
  8
0
 62
7
 10
-1.59911865E+02
 20
1.34419178E+01
 40
6.30000019E+00
  1
50
 41
1.00000000E+00
  7
MONOTXT
  0
LINE
  8
0
 62
7
 10
1.60699072E+02
 20
1.59191788E+00
 11
1.60699072E+02
 21
2.15919179E+01
  0
LINE
  8
0
 62
7
 10
1.35499072E+02
 20
1.59191788E+00
 11
1.35499072E+02
 21
2.15919179E+01
  0
LINE
  8
0
 62
7
 10
1.10299072E+02
 20
1.59191788E+00
 11
1.10299072E+02
 21
2.15919179E+01
  0
LINE
  8
0
 62
7
 10
8.50990718E+01
 20
1.59191788E+00
 11
8.50990718E+01
 21
2.15919179E+01
  0
LINE
  8
0
 62
7
 10
5.98990718E+01
 20
1.59191788E+00
 11
5.98990718E+01
 21
2.15919179E+01
  0
LINE
  8
0
 62
7
 10
3.46990718E+01
 20
1.59191788E+00
 11
3.46990718E+01
 21
2.15919179E+01
  0
LINE
  8
0
 62
7
 10
9.49907185E+00
 20
1.59191788E+00
 11
9.49907185E+00
 21
2.15919179E+01
  0
LINE
  8
0
 62
7
 10
-1.57009282E+01
 20
1.59191788E+00
 11
-1.57009282E+01
 21
2.15919179E+01
  0
LINE
  8
0
 62
7
 10
-4.09009282E+01
 20
1.59191788E+00
 11
-4.09009282E+01
 21
2.15919179E+01
  0
LINE
  8
0
 62
7
 10
-6.61009282E+01
 20
1.59191788E+00
 11
-6.61009282E+01
 21
2.15919179E+01
  0
LINE
  8
0
 62
7
 10
-9.13009282E+01
 20
1.59191788E+00
 11
-9.13009282E+01
 21
2.15919179E+01
  0
LINE
  8
0
 62
7
 10
-1.16500928E+02
 20
1.59191788E+00
 11
-1.16500928E+02
 21
2.15919179E+01
  0
LINE
  8
0
 62
7
 10
-1.41700928E+02
 20
1.59191788E+00
 11
-1.41700928E+02
 21
2.15919179E+01
  0
LINE
  8
0
 62
7
 10
-1.66900928E+02
 20
1.59191788E+00
 11
-1.66900928E+02
 21
2.15919179E+01
  0
LINE
  8
0
 62
7
 10
-2.17300928E+02
 20
1.59191789E+00
 11
1.85899072E+02
 21
1.59191789E+00
  0
LINE
  8
0
 62
7
 10
-2.17300928E+02
 20
2.15919179E+01
 11
1.85899072E+02
 21
2.15919179E+01
  0
LINE
  8
0
 62
7
 10
-2.17300928E+02
 20
1.59191788E+00
 11
-2.17300928E+02
 21
2.15919179E+01
  0
LINE
  8
0
 62
7
 10
-2.17300928E+02
 20
1.15919179E+01
 11
1.85899072E+02
 21
1.15919179E+01
  0
TEXT
  8
0
 62
7
 10
-5.28118667E+01
 20
2.64419178E+01
 40
6.30000019E+00
  1
STRETCH LIST
 41
1.05263158E+00
  7
MONOTXT
  0
TEXT
  8
0
 62
7
 10
1.62388134E+02
 20
2.64419178E+01
 40
6.30000019E+00
  1
(mm)
 41
1.00000000E+00
  7
MONOTXT
  0
LINE
  8
0
 62
7
 10
-2.23837495E+01
 20
-2.09707699E+02
 11
-8.42500000E+01
 21
-2.09707699E+02
  0
LINE
  8
0
 62
7
 10
-1.88330577E+01
 20
-2.03557721E+02
 11
-8.42500000E+01
 21
-2.03557721E+02
  0
LINE
  8
0
 62
7
 10
-6.12500098E+01
 20
-6.97076995E+01
 11
-2.23837190E+01
 21
-6.97076995E+01
  0
LINE
  8
0
 62
7
 10
-6.12500098E+01
 20
-6.35577208E+01
 11
-1.88330272E+01
 21
-6.35577208E+01
  0
LINE
  8
0
 62
7
 10
-6.12500098E+01
 20
-6.44077117E+01
 11
-1.93237696E+01
 21
-6.44077117E+01
  0
LINE
  8
0
 62
7
 10
-8.42500000E+01
 20
-2.04407712E+02
 11
-1.93238001E+01
 21
-2.04407712E+02
  0
LINE
  8
0
 62
2
 10
-1.64750031E+02
 20
-2.19377713E+02
 11
-1.58250061E+02
 21
-2.19377713E+02
  0
LINE
  8
0
 62
7
 10
-1.64750031E+02
 20
-2.18557721E+02
 11
-1.58250061E+02
 21
-2.18557721E+02
  0
LINE
  8
0
 62
2
 10
-1.64750092E+02
 20
-9.18577391E+01
 11
-1.58250031E+02
 21
-9.18577391E+01
  0
LINE
  8
0
 62
7
 10
-1.64750092E+02
 20
-9.25577361E+01
 11
-1.58250031E+02
 21
-9.25577361E+01
  0
LINE
  8
0
 62
2
 10
-1.64750092E+02
 20
-7.92577178E+01
 11
-1.58250031E+02
 21
-7.92577178E+01
  0
LINE
  8
0
 62
7
 10
-1.64750092E+02
 20
-7.85577056E+01
 11
-1.58250031E+02
 21
-7.85577056E+01
  0
LINE
  8
0
 62
4
 10
-2.52749969E+02
 20
-2.19206853E+02
 11
-2.63749969E+02
 21
-2.12856000E+02
  0
LINE
  8
0
 62
4
 10
-2.52749969E+02
 20
-2.25557706E+02
 11
-2.52749969E+02
 21
-2.19206853E+02
  0
LINE
  8
0
 62
4
 10
-2.74749969E+02
 20
-2.19206853E+02
 11
-2.74749969E+02
 21
-2.25557706E+02
  0
LINE
  8
0
 62
4
 10
-2.63749969E+02
 20
-2.12856000E+02
 11
-2.74749969E+02
 21
-2.19206853E+02
  0
ARC
  8
0
 62
4
 10
-2.63749969E+02
 20
-2.25557706E+02
 40
1.10000000E+01
 50
0.00000000E+00
 51
1.80000000E+02
  0
ARC
  8
0
 62
4
 10
-1.85767550E+02
 20
-2.25557706E+02
 40
2.10175199E+01
 50
1.22042667E-07
 51
1.75879537E+01
  0
ARC
  8
0
 62
4
 10
-1.70372841E+02
 20
-2.16031426E+02
 40
5.62281003E+00
 50
3.25615753E+02
 51
3.43842476E+01
  0
ARC
  8
0
 62
4
 10
-1.51732511E+02
 20
-2.25557706E+02
 40
2.10175199E+01
 50
1.62412046E+02
 51
1.80000000E+02
  0
ARC
  8
0
 62
4
 10
-1.67127220E+02
 20
-2.16031426E+02
 40
5.62281003E+00
 50
1.45615752E+02
 51
2.14384247E+02
  0
LINE
  8
0
 62
4
 10
-1.64750031E+02
 20
-2.14557706E+02
 11
-1.65732511E+02
 21
-2.12856000E+02
  0
LINE
  8
0
 62
4
 10
-1.72750031E+02
 20
-2.14557706E+02
 11
-1.71767550E+02
 21
-2.12856000E+02
  0
LINE
  8
0
 62
4
 10
-1.64750031E+02
 20
-2.25557706E+02
 11
-1.64750031E+02
 21
-2.14557706E+02
  0
LINE
  8
0
 62
4
 10
-1.72750031E+02
 20
-2.25557706E+02
 11
-1.72750031E+02
 21
-2.14557706E+02
  0
LINE
  8
0
 62
4
 10
-1.71767550E+02
 20
-2.19206853E+02
 11
-1.65732511E+02
 21
-2.19206853E+02
  0
LINE
  8
0
 62
4
 10
-1.71767550E+02
 20
-2.12856000E+02
 11
-1.65732511E+02
 21
-2.12856000E+02
  0
ARC
  8
0
 62
4
 10
-1.56864144E+02
 20
-9.10577055E+01
 40
1.58859473E+01
 50
1.59743839E+02
 51
2.00256161E+02
  0
ARC
  8
0
 62
4
 10
-1.56864144E+02
 20
-8.00577056E+01
 40
1.58859474E+01
 50
1.59743839E+02
 51
2.00256161E+02
  0
ARC
  8
0
 62
4
 10
-1.80636041E+02
 20
-8.00577056E+01
 40
1.58859499E+01
 50
3.39743842E+02
 51
2.02561578E+01
  0
ARC
  8
0
 62
4
 10
-1.80636041E+02
 20
-9.10577056E+01
 40
1.58859499E+01
 50
3.39743842E+02
 51
2.02561578E+01
  0
LINE
  8
0
 62
4
 10
-1.72750092E+02
 20
-9.65577056E+01
 11
-1.64750092E+02
 21
-9.65577056E+01
  0
LINE
  8
0
 62
4
 10
-1.72750092E+02
 20
-7.45577056E+01
 11
-1.64750092E+02
 21
-7.45577056E+01
  0
LINE
  8
0
 62
4
 10
-1.71767611E+02
 20
-8.55577056E+01
 11
-1.65732572E+02
 21
-8.55577056E+01
  0
LINE
  8
0
 62
4
 10
-1.72750092E+02
 20
-9.65577056E+01
 11
-1.72750092E+02
 21
-7.45577056E+01
  0
LINE
  8
0
 62
4
 10
-1.64750092E+02
 20
-9.65577056E+01
 11
-1.64750092E+02
 21
-7.45577056E+01
  0
ARC
  8
0
 62
2
 10
-2.63749969E+02
 20
-2.25557706E+02
 40
6.17999268E+00
 50
0.00000000E+00
 51
1.80000000E+02
  0
ARC
  8
0
 62
7
 10
-2.63749969E+02
 20
-2.25557706E+02
 40
6.99998474E+00
 50
0.00000000E+00
 51
1.80000000E+02
  0
ARC
  8
0
 62
7
 10
-1.55250061E+02
 20
-2.25557706E+02
 40
8.00000000E+00
 50
0.00000000E+00
 51
2.89550399E+01
  0
CIRCLE
  8
0
 62
7
 10
-2.45250092E+02
 20
-2.07057690E+02
 40
4.75000000E+00
  0
ARC
  8
0
  6
DASHED
 62
2
 10
-1.09250000E+02
 20
-2.25557706E+02
 40
2.50000000E+00
 50
0.00000000E+00
 51
1.80000000E+02
  0
CIRCLE
  8
0
 62
7
 10
-1.09250046E+02
 20
-8.15577666E+01
 40
5.65999985E+00
  0
CIRCLE
  8
0
 62
2
 10
-1.09250046E+02
 20
-8.15577666E+01
 40
6.57849979E+00
  0
ARC
  8
0
  6
DASHED
 62
7
 10
-1.09250000E+02
 20
-2.25557706E+02
 40
2.00000000E+00
 50
0.00000000E+00
 51
1.80000000E+02
  0
ARC
  8
0
 62
7
 10
-1.18984573E+02
 20
-5.24352080E+01
 40
2.50000000E+00
 50
6.37281240E+00
 51
9.76913896E+01
  0
ARC
  8
0
 62
7
 10
-1.21515442E+02
 20
-5.24352080E+01
 40
2.50000000E+00
 50
9.76913759E+01
 51
1.79999951E+02
  0
ARC
  8
0
 62
7
 10
-2.96872498E+02
 20
-2.15823178E+02
 40
2.50000000E+00
 50
1.72308570E+02
 51
2.63627161E+02
  0
CIRCLE
  8
0
  6
DASHED
 62
7
 10
-9.82500153E+01
 20
-2.14557706E+02
 40
3.75000000E+00
  0
CIRCLE
  8
0
  6
DASHED
 62
7
 10
-1.20250000E+02
 20
-2.14557706E+02
 40
3.75000000E+00
  0
ARC
  8
0
  6
DASHED
 62
7
 10
-1.09250000E+02
 20
-2.25557706E+02
 40
1.95000000E+01
 50
0.00000000E+00
 51
1.80000000E+02
  0
ARC
  8
0
 62
7
 10
-9.69845581E+01
 20
-5.24352080E+01
 40
2.50000000E+00
 50
0.00000000E+00
 51
8.23085741E+01
  0
ARC
  8
0
 62
7
 10
-9.95154572E+01
 20
-5.24352080E+01
 40
2.50000000E+00
 50
8.23085878E+01
 51
1.73627166E+02
  0
ARC
  8
0
 62
7
 10
-2.96872498E+02
 20
-2.13292279E+02
 40
2.50000000E+00
 50
8.99999956E+01
 51
1.72308570E+02
  0
ARC
  8
0
 62
7
 10
-2.41750000E+02
 20
-2.03557736E+02
 40
3.00000000E+00
 50
3.59999959E+02
 51
8.99999956E+01
  0
ARC
  8
0
 62
7
 10
-2.85750000E+02
 20
-2.03557736E+02
 40
3.00000000E+00
 50
8.99999956E+01
 51
1.79999977E+02
  0
CIRCLE
  8
0
 62
7
 10
-8.97500458E+01
 20
-9.55577056E+01
 40
2.09999990E+00
  0
CIRCLE
  8
0
 62
2
 10
-2.45249939E+02
 20
-2.07057645E+02
 40
3.00000000E+00
  0
ARC
  8
0
 62
7
 10
-2.63750000E+02
 20
-2.25557706E+02
 40
1.50000000E+01
 50
0.00000000E+00
 51
1.80000000E+02
  0
ARC
  8
0
 62
7
 10
-2.63750000E+02
 20
-2.25557706E+02
 40
1.55000010E+01
 50
0.00000000E+00
 51
1.80000000E+02
  0
ARC
  8
0
 62
7
 10
-2.63750000E+02
 20
-2.25557706E+02
 40
1.60000000E+01
 50
0.00000000E+00
 51
1.80000000E+02
  0
CIRCLE
  8
0
 62
7
 10
-2.82250031E+02
 20
-2.07057645E+02
 40
4.50000000E+00
  0
CIRCLE
  8
0
 62
7
 10
-2.45249939E+02
 20
-2.07057721E+02
 40
4.50000000E+00
  0
CIRCLE
  8
0
 62
7
 10
-2.82250031E+02
 20
-2.07057614E+02
 40
4.75000000E+00
  0
CIRCLE
  8
0
 62
7
 10
-8.97500458E+01
 20
-9.55577056E+01
 40
4.00000000E+00
  0
CIRCLE
  8
0
 62
2
 10
-2.82250031E+02
 20
-2.07057614E+02
 40
3.00000000E+00
  0
LINE
  8
0
 62
7
 10
-1.58250031E+02
 20
-9.18577391E+01
 11
-1.55249969E+02
 21
-9.18577391E+01
  0
LINE
  8
0
 62
7
 10
-1.58250031E+02
 20
-7.92577178E+01
 11
-1.55249969E+02
 21
-7.92577178E+01
  0
LINE
  8
0
 62
7
 10
-1.79250002E+02
 20
-8.00577153E+01
 11
-1.77749972E+02
 21
-7.85577156E+01
  0
LINE
  8
0
 62
7
 10
-1.79250029E+02
 20
-9.10577244E+01
 11
-1.77750016E+02
 21
-9.25577368E+01
  0
LINE
  8
0
 62
7
 10
-1.77750031E+02
 20
-9.25577361E+01
 11
-1.77750031E+02
 21
-7.85577056E+01
  0
LINE
  8
0
 62
7
 10
-1.52249969E+02
 20
-7.85577056E+01
 11
-1.52249969E+02
 21
-9.25577361E+01
  0
LINE
  8
0
 62
7
 10
-1.48249989E+02
 20
-9.25576904E+01
 11
-1.47249966E+02
 21
-9.35577131E+01
  0
LINE
  8
0
 62
7
 10
-1.48250026E+02
 20
-7.85576648E+01
 11
-1.47250076E+02
 21
-7.75577150E+01
  0
LINE
  8
0
 62
7
 10
-1.55249969E+02
 20
-9.25577361E+01
 11
-1.48249939E+02
 21
-9.25577361E+01
  0
LINE
  8
0
 62
2
 10
-1.78450043E+02
 20
-9.18577391E+01
 11
-1.72750092E+02
 21
-9.18577391E+01
  0
LINE
  8
0
 62
7
 10
-1.77750031E+02
 20
-9.25577361E+01
 11
-1.72750092E+02
 21
-9.25577361E+01
  0
LINE
  8
0
 62
7
 10
-1.55249969E+02
 20
-7.85577056E+01
 11
-1.48250031E+02
 21
-7.85577056E+01
  0
LINE
  8
0
 62
2
 10
-1.78450043E+02
 20
-7.92577178E+01
 11
-1.72750092E+02
 21
-7.92577178E+01
  0
LINE
  8
0
 62
7
 10
-1.58250031E+02
 20
-9.25577361E+01
 11
-1.58250031E+02
 21
-7.85577056E+01
  0
LINE
  8
0
 62
7
 10
-1.77749969E+02
 20
-7.85577056E+01
 11
-1.72750092E+02
 21
-7.85577056E+01
  0
LINE
  8
0
 62
7
 10
-1.79250031E+02
 20
-9.10577361E+01
 11
-1.79250031E+02
 21
-8.00577056E+01
  0
LINE
  8
0
 62
7
 10
-1.55249969E+02
 20
-7.85577056E+01
 11
-1.55249969E+02
 21
-9.25577361E+01
  0
LINE
  8
0
 62
7
 10
-1.47249969E+02
 20
-9.35577208E+01
 11
-1.45249969E+02
 21
-9.35577208E+01
  0
LINE
  8
0
 62
7
 10
-1.47250031E+02
 20
-7.75577361E+01
 11
-1.45249969E+02
 21
-7.75577361E+01
  0
LINE
  8
0
 62
7
 10
-1.58250061E+02
 20
-2.19377713E+02
 11
-1.55250061E+02
 21
-2.19377713E+02
  0
LINE
  8
0
 62
7
 10
-1.52250052E+02
 20
-2.17557688E+02
 11
-1.55250057E+02
 21
-2.18557721E+02
  0
LINE
  8
0
 62
7
 10
-1.55250052E+02
 20
-2.25557710E+02
 11
-1.52250054E+02
 21
-2.21684726E+02
  0
LINE
  8
0
 62
7
 10
-1.52250061E+02
 20
-2.17557690E+02
 11
-1.45250092E+02
 21
-2.17557690E+02
  0
LINE
  8
0
 62
2
 10
-1.53634668E+02
 20
-2.23472235E+02
 11
-1.51750038E+02
 21
-2.25557706E+02
  0
LINE
  8
0
 62
2
 10
-1.51750060E+02
 20
-2.25557706E+02
 11
-1.48250053E+02
 21
-2.21684712E+02
  0
LINE
  8
0
 62
7
 10
-1.52250031E+02
 20
-2.21684720E+02
 11
-1.48250061E+02
 21
-2.21684720E+02
  0
LINE
  8
0
 62
7
 10
-1.79249946E+02
 20
-2.20057807E+02
 11
-1.77749999E+02
 21
-2.18557814E+02
  0
LINE
  8
0
 62
7
 10
-1.58250061E+02
 20
-2.18557721E+02
 11
-1.58250061E+02
 21
-2.25557706E+02
  0
LINE
  8
0
 62
7
 10
-1.77750031E+02
 20
-2.18557721E+02
 11
-1.77750031E+02
 21
-2.25557706E+02
  0
LINE
  8
0
 62
2
 10
-1.78569977E+02
 20
-2.19377713E+02
 11
-1.72750031E+02
 21
-2.19377713E+02
  0
LINE
  8
0
 62
7
 10
-1.77750031E+02
 20
-2.18557721E+02
 11
-1.72750031E+02
 21
-2.18557721E+02
  0
LINE
  8
0
 62
7
 10
-1.79250031E+02
 20
-2.25557706E+02
 11
-1.79250031E+02
 21
-2.20057721E+02
  0
LINE
  8
0
 62
7
 10
-1.48250061E+02
 20
-2.25557706E+02
 11
-1.48250061E+02
 21
-2.21684720E+02
  0
LINE
  8
0
 62
7
 10
-1.52250061E+02
 20
-2.21684720E+02
 11
-1.52250061E+02
 21
-2.17557736E+02
  0
LINE
  8
0
 62
7
 10
-1.55250061E+02
 20
-2.25557706E+02
 11
-1.55250061E+02
 21
-2.18557721E+02
  0
LINE
  8
0
 62
7
 10
-2.82250030E+02
 20
-2.03593508E+02
 11
-2.79250017E+02
 21
-2.05325556E+02
  0
LINE
  8
0
 62
7
 10
-2.79250000E+02
 20
-2.05325589E+02
 11
-2.79250000E+02
 21
-2.08789670E+02
  0
LINE
  8
0
 62
7
 10
-2.79250053E+02
 20
-2.08789618E+02
 11
-2.82250046E+02
 21
-2.10521670E+02
  0
LINE
  8
0
 62
7
 10
-2.82249990E+02
 20
-2.10521748E+02
 11
-2.85250023E+02
 21
-2.08789674E+02
  0
LINE
  8
0
 62
7
 10
-2.85250031E+02
 20
-2.05325589E+02
 11
-2.85250031E+02
 21
-2.08789670E+02
  0
LINE
  8
0
 62
7
 10
-2.82249961E+02
 20
-2.03593538E+02
 11
-2.85249947E+02
 21
-2.05325570E+02
  0
LINE
  8
0
 62
7
 10
-2.45250080E+02
 20
-2.03593556E+02
 11
-2.42250094E+02
 21
-2.05325589E+02
  0
LINE
  8
0
 62
7
 10
-2.42250061E+02
 20
-2.05325619E+02
 11
-2.42250061E+02
 21
-2.08789715E+02
  0
LINE
  8
0
 62
7
 10
-2.42250092E+02
 20
-2.08789630E+02
 11
-2.45250111E+02
 21
-2.10521697E+02
  0
LINE
  8
0
 62
7
 10
-2.45250125E+02
 20
-2.10521659E+02
 11
-2.48250078E+02
 21
-2.08789630E+02
  0
LINE
  8
0
 62
7
 10
-2.48250092E+02
 20
-2.05325619E+02
 11
-2.48250092E+02
 21
-2.08789715E+02
  0
LINE
  8
0
 62
7
 10
-2.45250116E+02
 20
-2.03593583E+02
 11
-2.48250116E+02
 21
-2.05325623E+02
  0
LINE
  8
0
  6
CENTER
 62
2
 10
-2.67750031E+02
 20
-1.98805356E+02
 11
-2.67750031E+02
 21
-2.15057721E+02
  0
LINE
  8
0
  6
CENTER
 62
2
 10
-2.53749969E+02
 20
-2.18164334E+02
 11
-2.53749969E+02
 21
-1.98628689E+02
  0
LINE
  8
0
  6
CENTER
 62
2
 10
-2.51631409E+02
 20
-2.07057660E+02
 11
-2.37109772E+02
 21
-2.07057660E+02
  0
LINE
  8
0
 62
7
 10
-1.16500015E+02
 20
-5.21577880E+01
 11
-1.16500015E+02
 21
-5.25577208E+01
  0
LINE
  8
0
 62
7
 10
-1.24000015E+02
 20
-5.21577880E+01
 11
-1.24000015E+02
 21
-5.25577208E+01
  0
LINE
  8
0
 62
7
 10
-1.21850021E+02
 20
-4.99576995E+01
 11
-1.18649994E+02
 21
-4.99576995E+01
  0
LINE
  8
0
  6
CENTER
 62
2
 10
-1.20250015E+02
 20
-4.90936705E+01
 11
-1.20250015E+02
 21
-5.25577208E+01
  0
LINE
  8
0
 62
7
 10
-1.28750000E+02
 20
-5.25577208E+01
 11
-8.97500000E+01
 21
-5.25577208E+01
  0
LINE
  8
0
  6
CENTER
 62
2
 10
-9.82500153E+01
 20
-4.90936705E+01
 11
-9.82500153E+01
 21
-5.25577208E+01
  0
LINE
  8
0
  6
DASHED
 62
7
 10
-9.82499702E+01
 20
-2.13114385E+02
 11
-9.94999926E+01
 21
-2.13836078E+02
  0
LINE
  8
0
  6
DASHED
 62
7
 10
-9.95000153E+01
 20
-2.13835995E+02
 11
-9.95000153E+01
 21
-2.15279401E+02
  0
LINE
  8
0
  6
DASHED
 62
7
 10
-9.94999114E+01
 20
-2.15279324E+02
 11
-9.82499220E+01
 21
-2.16000998E+02
  0
LINE
  8
0
  6
DASHED
 62
7
 10
-9.82499041E+01
 20
-2.16001090E+02
 11
-9.69999412E+01
 21
-2.15279432E+02
  0
LINE
  8
0
  6
DASHED
 62
7
 10
-9.70000153E+01
 20
-2.13835995E+02
 11
-9.70000153E+01
 21
-2.15279401E+02
  0
LINE
  8
0
  6
DASHED
 62
7
 10
-9.82500069E+01
 20
-2.13114280E+02
 11
-9.69999911E+01
 21
-2.13835968E+02
  0
LINE
  8
0
  6
CENTER
 62
2
 10
-9.82500153E+01
 20
-2.07980588E+02
 11
-9.82500153E+01
 21
-2.20706906E+02
  0
LINE
  8
0
  6
CENTER
 62
2
 10
-9.13378906E+01
 20
-2.14557706E+02
 11
-1.04064255E+02
 21
-2.14557706E+02
  0
LINE
  8
0
  6
DASHED
 62
7
 10
-1.20249964E+02
 20
-2.13114268E+02
 11
-1.18999948E+02
 21
-2.13835957E+02
  0
LINE
  8
0
  6
DASHED
 62
7
 10
-1.19000000E+02
 20
-2.13835995E+02
 11
-1.19000000E+02
 21
-2.15279401E+02
  0
LINE
  8
0
  6
DASHED
 62
7
 10
-1.18999932E+02
 20
-2.15279460E+02
 11
-1.20249935E+02
 21
-2.16001141E+02
  0
LINE
  8
0
  6
DASHED
 62
7
 10
-1.20249935E+02
 20
-2.16001022E+02
 11
-1.21499898E+02
 21
-2.15279364E+02
  0
LINE
  8
0
  6
DASHED
 62
7
 10
-1.21500000E+02
 20
-2.13835995E+02
 11
-1.21500000E+02
 21
-2.15279401E+02
  0
LINE
  8
0
  6
DASHED
 62
7
 10
-1.20249948E+02
 20
-2.13114406E+02
 11
-1.21499911E+02
 21
-2.13836064E+02
  0
LINE
  8
0
  6
CENTER
 62
2
 10
-1.20250000E+02
 20
-2.07980588E+02
 11
-1.20250000E+02
 21
-2.20706906E+02
  0
LINE
  8
0
  6
CENTER
 62
2
 10
-1.27162094E+02
 20
-2.14557706E+02
 11
-1.14435730E+02
 21
-2.14557706E+02
  0
LINE
  8
0
 62
7
 10
-8.97500000E+01
 20
-5.25577208E+01
 11
-8.97500000E+01
 21
-6.05577056E+01
  0
LINE
  8
0
 62
7
 10
-1.28750000E+02
 20
-5.25577208E+01
 11
-1.28750000E+02
 21
-6.05577056E+01
  0
LINE
  8
0
 62
7
 10
-1.30250000E+02
 20
-6.05577056E+01
 11
-8.42500000E+01
 21
-6.05577056E+01
  0
LINE
  8
0
 62
7
 10
-2.96750000E+02
 20
-2.06057751E+02
 11
-2.88750000E+02
 21
-2.06057751E+02
  0
LINE
  8
0
  6
CENTER
 62
2
 10
-1.09250000E+02
 20
-1.98316006E+02
 11
-1.09250000E+02
 21
-2.25557706E+02
  0
LINE
  8
0
 62
7
 10
-2.96749969E+02
 20
-2.25557706E+02
 11
-2.96749969E+02
 21
-2.06057706E+02
  0
LINE
  8
0
 62
7
 10
-2.97149933E+02
 20
-2.18307721E+02
 11
-2.96750000E+02
 21
-2.18307721E+02
  0
LINE
  8
0
 62
7
 10
-2.97149933E+02
 20
-2.10807721E+02
 11
-2.96750000E+02
 21
-2.10807721E+02
  0
LINE
  8
0
 62
7
 10
-1.39250031E+02
 20
-2.09557706E+02
 11
-1.30250046E+02
 21
-2.09557706E+02
  0
LINE
  8
0
 62
7
 10
-9.45000153E+01
 20
-5.21577880E+01
 11
-9.45000153E+01
 21
-5.25577208E+01
  0
LINE
  8
0
 62
7
 10
-1.02000015E+02
 20
-5.21577880E+01
 11
-1.02000015E+02
 21
-5.25577208E+01
  0
LINE
  8
0
 62
7
 10
-9.66499939E+01
 20
-4.99576995E+01
 11
-9.98500061E+01
 21
-4.99576995E+01
  0
LINE
  8
0
  6
CENTER
 62
2
 10
-1.09250015E+02
 20
-4.90225035E+01
 11
-1.09250015E+02
 21
-9.18543212E+01
  0
LINE
  8
0
 62
7
 10
-2.99349976E+02
 20
-2.12957730E+02
 11
-2.99349976E+02
 21
-2.16157727E+02
  0
LINE
  8
0
  6
CENTER
 62
2
 10
-3.00214050E+02
 20
-2.14557721E+02
 11
-2.96750000E+02
 21
-2.14557721E+02
  0
LINE
  8
0
  6
CENTER
 62
2
 10
-2.90638062E+02
 20
-2.07057812E+02
 11
-2.74673645E+02
 21
-2.07057812E+02
  0
LINE
  8
0
  6
CENTER
 62
2
 10
-2.45250000E+02
 20
-2.13439145E+02
 11
-2.45250000E+02
 21
-1.98917462E+02
  0
LINE
  8
0
 62
7
 10
-2.85750061E+02
 20
-2.00557721E+02
 11
-2.41750000E+02
 21
-2.00557721E+02
  0
LINE
  8
0
 62
7
 10
-1.44750061E+02
 20
-2.25557706E+02
 11
-1.44750061E+02
 21
-2.10557690E+02
  0
LINE
  8
0
 62
7
 10
-1.30250000E+02
 20
-2.00557706E+02
 11
-8.42500000E+01
 21
-2.00557706E+02
  0
LINE
  8
0
 62
7
 10
-8.83064147E+01
 20
-9.55578050E+01
 11
-8.90280950E+01
 21
-9.68078082E+01
  0
LINE
  8
0
 62
7
 10
-8.90283356E+01
 20
-9.68076598E+01
 11
-9.04717255E+01
 21
-9.68076598E+01
  0
LINE
  8
0
 62
7
 10
-9.04716408E+01
 20
-9.68076409E+01
 11
-9.11933440E+01
 21
-9.55575981E+01
  0
LINE
  8
0
 62
7
 10
-9.11932862E+01
 20
-9.55577242E+01
 11
-9.04715830E+01
 21
-9.43076814E+01
  0
LINE
  8
0
 62
7
 10
-1.30250000E+02
 20
-1.10557706E+02
 11
-8.42499542E+01
 21
-1.10557706E+02
  0
LINE
  8
0
 62
7
 10
-1.30250061E+02
 20
-2.00557706E+02
 11
-1.30250061E+02
 21
-2.25557706E+02
  0
LINE
  8
0
 62
7
 10
-8.90283356E+01
 20
-9.43076445E+01
 11
-9.04717255E+01
 21
-9.43076445E+01
  0
LINE
  8
0
 62
7
 10
-8.83066425E+01
 20
-9.55575890E+01
 11
-8.90282999E+01
 21
-9.43076255E+01
  0
LINE
  8
0
 62
7
 10
-1.39250061E+02
 20
-2.25557706E+02
 11
-1.39250061E+02
 21
-2.09557706E+02
  0
LINE
  8
0
 62
7
 10
-1.45250021E+02
 20
-2.11057715E+02
 11
-1.44750026E+02
 21
-2.10557720E+02
  0
LINE
  8
0
 62
7
 10
-1.45249863E+02
 20
-7.10577463E+01
 11
-1.44749864E+02
 21
-7.05577471E+01
  0
LINE
  8
0
 62
7
 10
-1.44749969E+02
 20
-1.00557706E+02
 11
-1.44749969E+02
 21
-7.05576445E+01
  0
LINE
  8
0
 62
7
 10
-1.40250109E+02
 20
-2.10557655E+02
 11
-1.39250095E+02
 21
-2.09557656E+02
  0
LINE
  8
0
 62
7
 10
-1.44750061E+02
 20
-2.10557675E+02
 11
-1.40241089E+02
 21
-2.10557675E+02
  0
LINE
  8
0
 62
7
 10
-1.40250061E+02
 20
-2.25557706E+02
 11
-1.40250061E+02
 21
-2.10557690E+02
  0
LINE
  8
0
 62
7
 10
-2.38749969E+02
 20
-2.25557706E+02
 11
-2.38749969E+02
 21
-2.03557706E+02
  0
LINE
  8
0
 62
7
 10
-2.88750000E+02
 20
-2.25557706E+02
 11
-2.88750000E+02
 21
-2.03557706E+02
  0
LINE
  8
0
 62
7
 10
-1.45250061E+02
 20
-2.25557706E+02
 11
-1.45250061E+02
 21
-2.11057660E+02
  0
LINE
  8
0
  6
CENTER
 62
2
 10
-9.54466400E+01
 20
-9.55577056E+01
 11
-8.38311462E+01
 21
-9.55577056E+01
  0
LINE
  8
0
 62
7
 10
-1.40250059E+02
 20
-7.05575703E+01
 11
-1.39250045E+02
 21
-6.95575714E+01
  0
LINE
  8
0
 62
7
 10
-1.45249987E+02
 20
-1.00057707E+02
 11
-1.44749998E+02
 21
-1.00557697E+02
  0
LINE
  8
0
 62
7
 10
-1.40249969E+02
 20
-7.05576903E+01
 11
-1.40249969E+02
 21
-1.00557690E+02
  0
LINE
  8
0
 62
7
 10
-1.39249954E+02
 20
-6.95576903E+01
 11
-1.39249954E+02
 21
-1.01557675E+02
  0
LINE
  8
0
 62
7
 10
-1.30249954E+02
 20
-1.10557706E+02
 11
-1.30249954E+02
 21
-6.05577056E+01
  0
LINE
  8
0
 62
7
 10
-1.39249939E+02
 20
-6.95576903E+01
 11
-1.30250000E+02
 21
-6.95576903E+01
  0
LINE
  8
0
 62
7
 10
-1.44749939E+02
 20
-7.05576445E+01
 11
-1.40241058E+02
 21
-7.05576445E+01
  0
LINE
  8
0
 62
7
 10
-1.45249969E+02
 20
-1.00057706E+02
 11
-1.45249969E+02
 21
-7.10576445E+01
  0
LINE
  8
0
 62
7
 10
-1.40249958E+02
 20
-1.00557651E+02
 11
-1.39249978E+02
 21
-1.01557630E+02
  0
LINE
  8
0
 62
7
 10
-1.39249954E+02
 20
-1.01557675E+02
 11
-1.30250000E+02
 21
-1.01557675E+02
  0
LINE
  8
0
 62
7
 10
-1.44749939E+02
 20
-1.00557706E+02
 11
-1.40241058E+02
 21
-1.00557706E+02
  0
LINE
  8
0
  6
CENTER
 62
2
 10
-8.97500458E+01
 20
-1.01477429E+02
 11
-8.97500458E+01
 21
-8.99527861E+01
  0
LINE
  8
0
  6
CENTER
 62
2
 10
-1.19366760E+02
 20
-8.15577666E+01
 11
-9.93016052E+01
 21
-8.15577666E+01
  0
LINE
  8
0
  6
CENTER
 62
2
 10
-2.82250031E+02
 20
-1.98551068E+02
 11
-2.82250031E+02
 21
-2.13472211E+02
  0
LINE
  8
0
  6
CENTER
 62
2
 10
-2.63749969E+02
 20
-1.96585385E+02
 11
-2.63749969E+02
 21
-2.25557706E+02
  0
LINE
  8
0
  6
CENTER
 62
2
 10
-2.98969116E+02
 20
-2.25557706E+02
 11
-2.34448761E+02
 21
-2.25557706E+02
  0
LINE
  8
0
  6
CENTER
 62
2
 10
-2.08537748E+01
 20
-2.07057706E+02
 11
-1.33035873E+02
 21
-2.07057706E+02
  0
LINE
  8
0
 62
7
 10
-8.42500153E+01
 20
-6.35577208E+01
 11
-7.62500098E+01
 21
-6.35577208E+01
  0
LINE
  8
0
 62
7
 10
-8.42500153E+01
 20
-6.44077117E+01
 11
-7.62500098E+01
 21
-6.44077117E+01
  0
LINE
  8
0
 62
7
 10
-8.42500153E+01
 20
-6.97076995E+01
 11
-7.62500098E+01
 21
-6.97076995E+01
  0
LINE
  8
0
  6
CENTER
 62
2
 10
-1.33964096E+02
 20
-6.70577056E+01
 11
-7.62500098E+01
 21
-6.70577056E+01
  0
LINE
  8
0
 62
7
 10
-8.42500153E+01
 20
-1.07557690E+02
 11
-4.42364214E+01
 21
-1.07557690E+02
  0
LINE
  8
0
 62
7
 10
-8.42500153E+01
 20
-1.06707699E+02
 11
-4.37456790E+01
 21
-1.06707699E+02
  0
LINE
  8
0
 62
7
 10
-8.42500153E+01
 20
-1.01407712E+02
 11
-4.06857296E+01
 21
-1.01407712E+02
  0
LINE
  8
0
  6
CENTER
 62
2
 10
-1.33361389E+02
 20
-1.04057706E+02
 11
-4.22157043E+01
 21
-1.04057706E+02
  0
LINE
  8
0
 62
7
 10
-8.42500000E+01
 20
-2.00557706E+02
 11
-8.42500000E+01
 21
-2.25557706E+02
  0
LINE
  8
0
  6
CENTER
 62
2
 10
-1.81578339E+02
 20
-2.25557706E+02
 11
-3.15347548E+01
 21
-2.25557706E+02
  0
LINE
  8
0
 62
7
 10
-8.42500153E+01
 20
-1.10557706E+02
 11
-8.42500153E+01
 21
-8.40997780E+01
  0
LINE
  8
0
  6
CENTER
 62
2
 10
-1.81277039E+02
 20
-8.55577056E+01
 11
-8.07500098E+01
 21
-8.55577056E+01
  0
LINE
  8
0
  6
CENTER
 62
2
 10
-6.12500098E+01
 20
-6.70577056E+01
 11
-2.08537443E+01
 21
-6.70577056E+01
  0
LINE
  8
0
 62
7
 10
-8.42500153E+01
 20
-7.00997780E+01
 11
-8.42500153E+01
 21
-6.05577056E+01
  0
LINE
  8
0
  6
CENTER
 62
2
 10
-4.17500098E+01
 20
-8.55577056E+01
 11
-3.15347243E+01
 21
-8.55577056E+01
  0
LINE
  8
0
 62
2
 10
-4.66076632E+01
 20
-1.11664802E+02
 11
-1.52579525E+01
 21
-5.73655099E+01
  0
LINE
  8
0
 62
2
 10
-3.52047648E+01
 20
-2.31914349E+02
 11
-1.52579831E+01
 21
-1.97365510E+02
  0
LINE
  8
0
 62
7
 10
1.73306534E+02
 20
-2.09707699E+02
 11
2.19274168E+02
 21
-2.09707699E+02
  0
LINE
  8
0
 62
7
 10
1.76857225E+02
 20
-2.03557721E+02
 11
2.02774168E+02
 21
-2.03557721E+02
  0
LINE
  8
0
 62
7
 10
2.42274168E+02
 20
-2.04407712E+02
 11
2.34274168E+02
 21
-2.04407712E+02
  0
LINE
  8
0
  6
CENTER
 62
2
 10
2.67274168E+02
 20
-1.98316006E+02
 11
2.67274168E+02
 21
-2.25557706E+02
  0
LINE
  8
0
  6
CENTER
 62
2
 10
1.74836508E+02
 20
-2.07057706E+02
 11
2.19274168E+02
 21
-2.07057706E+02
  0
LINE
  8
0
  6
CENTER
 62
2
 10
3.39602506E+02
 20
-2.25557706E+02
 11
1.64155528E+02
 21
-2.25557706E+02
  0
LINE
  8
0
 62
7
 10
2.42274168E+02
 20
-2.00557706E+02
 11
2.42274168E+02
 21
-2.25557706E+02
  0
LINE
  8
0
 62
7
 10
3.03274229E+02
 20
-2.25557706E+02
 11
3.03274229E+02
 21
-2.11057660E+02
  0
LINE
  8
0
 62
7
 10
2.98274229E+02
 20
-2.25557706E+02
 11
2.98274229E+02
 21
-2.10557690E+02
  0
LINE
  8
0
 62
7
 10
3.02774229E+02
 20
-2.10557675E+02
 11
2.98265257E+02
 21
-2.10557675E+02
  0
LINE
  8
0
 62
7
 10
2.98274277E+02
 20
-2.10557655E+02
 11
2.97274263E+02
 21
-2.09557656E+02
  0
LINE
  8
0
 62
7
 10
3.03274188E+02
 20
-2.11057715E+02
 11
3.02774193E+02
 21
-2.10557720E+02
  0
LINE
  8
0
 62
7
 10
2.97274229E+02
 20
-2.25557706E+02
 11
2.97274229E+02
 21
-2.09557706E+02
  0
LINE
  8
0
 62
7
 10
2.88274229E+02
 20
-2.00557706E+02
 11
2.88274229E+02
 21
-2.25557706E+02
  0
LINE
  8
0
 62
7
 10
2.88274168E+02
 20
-2.00557706E+02
 11
2.42274168E+02
 21
-2.00557706E+02
  0
LINE
  8
0
 62
7
 10
3.02774229E+02
 20
-2.25557706E+02
 11
3.02774229E+02
 21
-2.10557690E+02
  0
LINE
  8
0
 62
7
 10
2.97274198E+02
 20
-2.09557706E+02
 11
2.88274214E+02
 21
-2.09557706E+02
  0
LINE
  8
0
  6
CENTER
 62
2
 10
2.85186262E+02
 20
-2.14557706E+02
 11
2.72459898E+02
 21
-2.14557706E+02
  0
LINE
  8
0
  6
CENTER
 62
2
 10
2.78274168E+02
 20
-2.07980588E+02
 11
2.78274168E+02
 21
-2.20706906E+02
  0
LINE
  8
0
 62
7
 10
2.78274116E+02
 20
-2.13114406E+02
 11
2.79524079E+02
 21
-2.13836064E+02
  0
LINE
  8
0
 62
7
 10
2.79524168E+02
 20
-2.13835995E+02
 11
2.79524168E+02
 21
-2.15279401E+02
  0
LINE
  8
0
 62
7
 10
2.78274103E+02
 20
-2.16001022E+02
 11
2.79524066E+02
 21
-2.15279364E+02
  0
LINE
  8
0
 62
7
 10
2.77024100E+02
 20
-2.15279460E+02
 11
2.78274103E+02
 21
-2.16001141E+02
  0
LINE
  8
0
 62
7
 10
2.77024168E+02
 20
-2.13835995E+02
 11
2.77024168E+02
 21
-2.15279401E+02
  0
LINE
  8
0
 62
7
 10
2.78274132E+02
 20
-2.13114268E+02
 11
2.77024116E+02
 21
-2.13835957E+02
  0
LINE
  8
0
  6
CENTER
 62
2
 10
2.49362058E+02
 20
-2.14557706E+02
 11
2.62088423E+02
 21
-2.14557706E+02
  0
LINE
  8
0
  6
CENTER
 62
2
 10
2.56274183E+02
 20
-2.07980588E+02
 11
2.56274183E+02
 21
-2.20706906E+02
  0
LINE
  8
0
 62
7
 10
2.56274175E+02
 20
-2.13114280E+02
 11
2.55024159E+02
 21
-2.13835968E+02
  0
LINE
  8
0
 62
7
 10
2.55024183E+02
 20
-2.13835995E+02
 11
2.55024183E+02
 21
-2.15279401E+02
  0
LINE
  8
0
 62
7
 10
2.56274072E+02
 20
-2.16001090E+02
 11
2.55024109E+02
 21
-2.15279432E+02
  0
LINE
  8
0
 62
7
 10
2.57524079E+02
 20
-2.15279324E+02
 11
2.56274090E+02
 21
-2.16000998E+02
  0
LINE
  8
0
 62
7
 10
2.57524183E+02
 20
-2.13835995E+02
 11
2.57524183E+02
 21
-2.15279401E+02
  0
LINE
  8
0
 62
7
 10
2.56274138E+02
 20
-2.13114385E+02
 11
2.57524160E+02
 21
-2.13836078E+02
  0
LINE
  8
0
 62
7
 10
3.13274229E+02
 20
-2.25557706E+02
 11
3.13274229E+02
 21
-2.18557721E+02
  0
LINE
  8
0
 62
7
 10
3.10274229E+02
 20
-2.21684720E+02
 11
3.10274229E+02
 21
-2.17557736E+02
  0
LINE
  8
0
 62
7
 10
3.06274229E+02
 20
-2.25557706E+02
 11
3.06274229E+02
 21
-2.21684720E+02
  0
LINE
  8
0
 62
7
 10
3.37274198E+02
 20
-2.25557706E+02
 11
3.37274198E+02
 21
-2.20057721E+02
  0
LINE
  8
0
 62
7
 10
3.35774198E+02
 20
-2.18557721E+02
 11
3.30774198E+02
 21
-2.18557721E+02
  0
LINE
  8
0
 62
2
 10
3.36594145E+02
 20
-2.19377713E+02
 11
3.30774198E+02
 21
-2.19377713E+02
  0
LINE
  8
0
 62
7
 10
3.35774198E+02
 20
-2.18557721E+02
 11
3.35774198E+02
 21
-2.25557706E+02
  0
LINE
  8
0
 62
7
 10
3.16274229E+02
 20
-2.18557721E+02
 11
3.16274229E+02
 21
-2.25557706E+02
  0
LINE
  8
0
 62
7
 10
3.37274113E+02
 20
-2.20057807E+02
 11
3.35774167E+02
 21
-2.18557814E+02
  0
LINE
  8
0
 62
7
 10
3.10274198E+02
 20
-2.21684720E+02
 11
3.06274229E+02
 21
-2.21684720E+02
  0
LINE
  8
0
 62
2
 10
3.09774228E+02
 20
-2.25557706E+02
 11
3.06274221E+02
 21
-2.21684712E+02
  0
LINE
  8
0
 62
2
 10
3.11658836E+02
 20
-2.23472235E+02
 11
3.09774206E+02
 21
-2.25557706E+02
  0
LINE
  8
0
 62
7
 10
3.10274229E+02
 20
-2.17557690E+02
 11
3.03274259E+02
 21
-2.17557690E+02
  0
LINE
  8
0
 62
7
 10
3.13274220E+02
 20
-2.25557710E+02
 11
3.10274221E+02
 21
-2.21684726E+02
  0
LINE
  8
0
 62
7
 10
3.10274220E+02
 20
-2.17557688E+02
 11
3.13274225E+02
 21
-2.18557721E+02
  0
LINE
  8
0
 62
7
 10
3.16274229E+02
 20
-2.19377713E+02
 11
3.13274229E+02
 21
-2.19377713E+02
  0
ARC
  8
0
 62
7
 10
2.67274168E+02
 20
-2.25557706E+02
 40
1.95000000E+01
 50
0.00000000E+00
 51
1.80000000E+02
  0
CIRCLE
  8
0
 62
7
 10
2.78274168E+02
 20
-2.14557706E+02
 40
3.75000000E+00
  0
CIRCLE
  8
0
 62
7
 10
2.56274183E+02
 20
-2.14557706E+02
 40
3.75000000E+00
  0
ARC
  8
0
 62
7
 10
2.67274168E+02
 20
-2.25557706E+02
 40
2.00000000E+00
 50
0.00000000E+00
 51
1.80000000E+02
  0
ARC
  8
0
 62
2
 10
2.67274168E+02
 20
-2.25557706E+02
 40
2.50000000E+00
 50
0.00000000E+00
 51
1.80000000E+02
  0
ARC
  8
0
 62
7
 10
3.13274229E+02
 20
-2.25557706E+02
 40
8.00000000E+00
 50
1.51044960E+02
 51
1.80000000E+02
  0
LINE
  8
0
 62
4
 10
3.29791718E+02
 20
-2.12856000E+02
 11
3.23756679E+02
 21
-2.12856000E+02
  0
LINE
  8
0
 62
4
 10
3.29791718E+02
 20
-2.19206853E+02
 11
3.23756679E+02
 21
-2.19206853E+02
  0
LINE
  8
0
 62
4
 10
3.30774198E+02
 20
-2.25557706E+02
 11
3.30774198E+02
 21
-2.14557706E+02
  0
LINE
  8
0
 62
4
 10
3.22774198E+02
 20
-2.25557706E+02
 11
3.22774198E+02
 21
-2.14557706E+02
  0
LINE
  8
0
 62
4
 10
3.30774198E+02
 20
-2.14557706E+02
 11
3.29791718E+02
 21
-2.12856000E+02
  0
LINE
  8
0
 62
4
 10
3.22774198E+02
 20
-2.14557706E+02
 11
3.23756679E+02
 21
-2.12856000E+02
  0
ARC
  8
0
 62
4
 10
3.25151388E+02
 20
-2.16031426E+02
 40
5.62281003E+00
 50
3.25615753E+02
 51
3.43842476E+01
  0
ARC
  8
0
 62
4
 10
3.09756678E+02
 20
-2.25557706E+02
 40
2.10175199E+01
 50
1.22042641E-07
 51
1.75879537E+01
  0
ARC
  8
0
 62
4
 10
3.28397008E+02
 20
-2.16031426E+02
 40
5.62281003E+00
 50
1.45615752E+02
 51
2.14384247E+02
  0
ARC
  8
0
 62
4
 10
3.43791718E+02
 20
-2.25557706E+02
 40
2.10175199E+01
 50
1.62412046E+02
 51
1.80000000E+02
  0
LINE
  8
0
 62
7
 10
3.22774198E+02
 20
-2.18557721E+02
 11
3.16274229E+02
 21
-2.18557721E+02
  0
LINE
  8
0
 62
2
 10
3.22774198E+02
 20
-2.19377713E+02
 11
3.16274229E+02
 21
-2.19377713E+02
  0
LINE
  8
0
 62
2
 10
1.61792340E+02
 20
-2.29650868E+02
 11
1.81559643E+02
 21
-1.95412895E+02
  0
LINE
  8
0
 62
7
 10
2.35774168E+02
 20
-2.03557721E+02
 11
2.42274168E+02
 21
-2.03557721E+02
  0
LINE
  8
0
 62
7
 10
2.34274168E+02
 20
-2.09707699E+02
 11
2.42274168E+02
 21
-2.09707699E+02
  0
LINE
  8
0
 62
7
 10
2.19274168E+02
 20
-2.04407712E+02
 11
1.76366483E+02
 21
-2.04407712E+02
  0
LINE
  8
0
  6
CENTER
 62
2
 10
2.34274168E+02
 20
-2.07057706E+02
 11
2.91060041E+02
 21
-2.07057706E+02
  0
TEXT
  8
0
 10
-6.61502877E+01
 20
2.49478397E+02
 40
6.30000019E+00
  1
STRETCH LINE
 41
1.05263174E+00
  7
MONOTXT
  0
LINE
  8
0
 62
7
 10
2.79799927E+02
 20
-2.56750000E+02
 11
3.99799805E+02
 21
-2.56750000E+02
  0
LINE
  8
0
 62
7
 10
2.79799927E+02
 20
-2.56750000E+02
 11
2.79799927E+02
 21
-2.76750000E+02
  0
TEXT
  8
0
 62
7
 10
2.87585240E+02
 20
-2.71250000E+02
 40
9.00000000E+00
  1
KOGANEI CORP.
 41
1.04838710E+00
  7
MONOTXT
  0
TEXT
  8
0
 62
7
 10
3.15499641E+02
 20
2.63100000E+02
 40
6.30000019E+00
  1
Ver. 1.0
 41
1.08108124E+00
  7
MONOTXT
  0
LINE
  8
0
 62
7
 10
2.79799927E+02
 20
2.56250000E+02
 11
3.99799805E+02
 21
2.56250000E+02
  0
LINE
  8
0
 62
7
 10
2.79799927E+02
 20
2.76250000E+02
 11
2.79799927E+02
 21
2.56250000E+02
  0
TEXT
  8
0
 62
7
 10
-3.85600562E+02
 20
2.38100000E+02
 40
6.30000019E+00
  1
MODEL:DDAK-RL40*75
 41
1.00000015E+00
  7
MONOTXT
  0
LINE
  8
0
 62
7
 10
-3.99250000E+02
 20
2.56250000E+02
 11
-2.79250000E+02
 21
2.56250000E+02
  0
LINE
  8
0
 62
7
 10
-2.79250000E+02
 20
2.76250000E+02
 11
-2.79250000E+02
 21
2.56250000E+02
  0
TEXT
  8
0
 62
7
 10
-3.91900291E+02
 20
2.63100000E+02
 40
6.30000019E+00
  1
NEW DYNA CYLINDER
 41
1.07594953E+00
  7
MONOTXT
  0
LINE
  8
0
 62
7
 10
-3.99250000E+02
 20
-2.76750000E+02
 11
3.99799805E+02
 21
-2.76750000E+02
  0
LINE
  8
0
 62
7
 10
-3.99250000E+02
 20
2.76250000E+02
 11
3.99799805E+02
 21
2.76250000E+02
  0
LINE
  8
0
 62
7
 10
-3.99250000E+02
 20
2.76250000E+02
 11
-3.99250000E+02
 21
-2.76750000E+02
  0
LINE
  8
0
 62
7
 10
3.99799805E+02
 20
2.76250000E+02
 11
3.99799805E+02
 21
-2.76750000E+02
  0
ENDSEC
  0
EOF
