  0
SECTION
  2
HEADER
  9
$ACADVER
  1
AC1003
  9
$EXTMIN
 10
-3.99250000E+02
 20
-2.76750000E+02
  9
$EXTMAX
 10
3.99799805E+02
 20
2.76250000E+02
  9
$LIMMIN
 10
-3.99251000E+02
 20
-2.76751000E+02
  9
$LIMMAX
 10
3.99800805E+02
 20
2.76251000E+02
  9
$SNAPUNIT
 10
1
 20
1
  9
$SNAPBASE
 10
0
 20
0
  9
$GRIDMODE
 70
0
  9
$GRIDUNIT
 10
0
 20
0
  9
$LTSCALE
 40
1.33174967E+01
  9
$TEXTSIZE
 40
3.2
  9
$DIMTAD
 70
0
  9
$LUNITS
 70
2
  9
$LUPREC
 70
4
  9
$FILLETRAD
 40
0
  9
$AUNITS
 70
0
  9
$AUPREC
 70
0
  0
ENDSEC
  0
SECTION
  2
TABLES
  0
TABLE
  2
LTYPE
 70
2
  0
LTYPE
  2
CONTINUOUS
 70
64
  3
Solid-Line
 72
65
 73
0
 40
0
  0
LTYPE
  2
DASHED
 70
64
  3
DASHED
 72
65
 73
2
 40
.75
 49
.5
 49
-.25
  0
LTYPE
  2
HIDDEN
 70
64
  3
HIDDEN
 72
65
 73
2
 40
.375
 49
.25
 49
-.125
  0
LTYPE
  2
CENTER
 70
64
  3
CENTER
 72
65
 73
4
 40
2
 49
1.25
 49
-.25
 49
.25
 49
-.25
  0
LTYPE
  2
PHANTOM
 70
64
  3
PHANTOM
 72
65
 73
6
 40
2.5
 49
1.25
 49
-.25
 49
.25
 49
-.25
 49
.25
 49
-.25
  0
ENDTAB
  0
TABLE
  2
LAYER
 70
1
  0
LAYER
  2
1
 70
0
 62
7
  6
CONTINUOUS
 0
ENDTAB
  0
TABLE
  2
STYLE
 70
2
  0
STYLE
  2
MONOTXT
 70
0
 40
0
 41
1
 50
0
 71
0
 42
.2
  3
monotxt
  0
STYLE
  2
BIGFONT
 70
0
 40
0
 41
1
 50
0
 71
0
 42
.2
  3
txt
  4
bigfont
  0
ENDTAB
  0
ENDSEC
  0
SECTION
  2
ENTITIES
  0
LINE
  8
0
  6
PHANTOM
 10
-3.92500000E+01
 20
1.32368088E+02
 11
-3.92500000E+01
 21
2.71367846E+01
  0
LINE
  8
0
 62
7
 10
-9.42500000E+01
 20
9.93694647E+01
 11
-9.42500000E+01
 21
3.73432043E+01
  0
LINE
  8
0
 62
7
 10
1.17500000E+01
 20
9.93694647E+01
 11
1.17500000E+01
 21
3.73432043E+01
  0
LINE
  8
0
 62
7
 10
1.17500000E+01
 20
4.75194738E+01
 11
-9.42500000E+01
 21
4.75194738E+01
  0
LINE
  8
0
 62
7
 10
1.17500000E+01
 20
4.22194860E+01
 11
-9.42500000E+01
 21
4.22194860E+01
  0
LINE
  8
0
 62
7
 10
1.17500000E+01
 20
4.13694876E+01
 11
-9.42500000E+01
 21
4.13694876E+01
  0
LINE
  8
0
 62
7
 10
1.17500000E+01
 20
8.92194555E+01
 11
-9.75000000E+00
 21
8.92194555E+01
  0
LINE
  8
0
 62
7
 10
1.17500000E+01
 20
9.45194433E+01
 11
5.25000000E+00
 21
9.45194433E+01
  0
LINE
  8
0
 62
7
 10
1.17500000E+01
 20
9.53694342E+01
 11
5.25000000E+00
 21
9.53694342E+01
  0
LINE
  8
0
 62
7
 10
-1.20250015E+02
 20
9.93694647E+01
 11
-9.42500000E+01
 21
9.93694647E+01
  0
LINE
  8
0
  6
CENTER
 62
2
 10
6.43729935E+01
 20
9.18694647E+01
 11
-1.28375732E+02
 21
9.18694647E+01
  0
LINE
  8
0
 62
7
 10
-1.20250000E+02
 20
9.89155157E+01
 11
-1.20250000E+02
 21
9.93694647E+01
  0
LINE
  8
0
  6
CENTER
 62
2
 10
-1.07250031E+02
 20
1.01121860E+02
 11
-1.07250031E+02
 21
9.00438269E+01
  0
LINE
  8
0
  6
CENTER
 62
2
 10
6.47496948E+01
 20
4.48694799E+01
 11
-1.28005753E+02
 21
4.48694799E+01
  0
LINE
  8
0
 62
7
 10
-1.26750061E+02
 20
8.73694342E+01
 11
-1.25250061E+02
 21
8.73694342E+01
  0
LINE
  8
0
 62
7
 10
-1.26750061E+02
 20
4.93694494E+01
 11
-1.25250061E+02
 21
4.93694494E+01
  0
LINE
  8
0
 62
7
 10
-1.25250000E+02
 20
9.83369940E+01
 11
-1.25250000E+02
 21
3.84019506E+01
  0
LINE
  8
0
 62
7
 10
-1.27250015E+02
 20
4.98694799E+01
 11
-1.27250015E+02
 21
8.68988989E+01
  0
LINE
  8
0
 62
7
 10
-9.42500805E+01
 20
3.73693193E+01
 11
-1.24758785E+02
 21
3.79018460E+01
  0
LINE
  8
0
 62
7
 10
-9.42499970E+01
 20
9.93692729E+01
 11
-1.24758732E+02
 21
9.88367364E+01
  0
LINE
  8
0
 62
7
 10
-1.20250015E+02
 20
3.73694799E+01
 11
-9.42500000E+01
 21
3.73694799E+01
  0
LINE
  8
0
 62
7
 10
6.27500381E+01
 20
9.93694647E+01
 11
6.27500381E+01
 21
3.73694494E+01
  0
LINE
  8
0
 62
7
 10
-1.20250000E+02
 20
3.78232229E+01
 11
-1.20250000E+02
 21
3.73694799E+01
  0
LINE
  8
0
 62
7
 10
-1.35250000E+02
 20
8.53694647E+01
 11
-1.35250000E+02
 21
5.13694647E+01
  0
LINE
  8
0
 62
7
 10
6.27499847E+01
 20
9.93694647E+01
 11
1.17500381E+01
 21
9.93694647E+01
  0
LINE
  8
0
 62
7
 10
6.27499847E+01
 20
3.73694723E+01
 11
1.17500381E+01
 21
3.73694723E+01
  0
LINE
  8
0
  6
CENTER
 62
2
 10
-1.86174408E+02
 20
6.83694647E+01
 11
6.79516640E+01
 21
6.83694647E+01
  0
LINE
  8
0
 62
7
 10
-1.39750015E+02
 20
5.13694647E+01
 11
-1.35241455E+02
 21
5.13694647E+01
  0
LINE
  8
0
 62
7
 10
-1.40250000E+02
 20
8.48694342E+01
 11
-1.40250000E+02
 21
5.18694952E+01
  0
LINE
  8
0
 62
7
 10
-1.35250000E+02
 20
5.13694647E+01
 11
-1.35250000E+02
 21
5.13609198E+01
  0
LINE
  8
0
  6
CENTER
 62
2
 10
5.96620789E+01
 20
5.73694723E+01
 11
4.69357376E+01
 21
5.73694723E+01
  0
LINE
  8
0
  6
CENTER
 62
2
 10
5.27499847E+01
 20
5.07923391E+01
 11
5.27499847E+01
 21
6.35186651E+01
  0
LINE
  8
0
  6
DASHED
 62
7
 10
5.27500119E+01
 20
5.59260938E+01
 11
5.14999894E+01
 21
5.66477864E+01
  0
LINE
  8
0
  6
DASHED
 62
7
 10
5.27499325E+01
 20
5.59262192E+01
 11
5.39999149E+01
 21
5.66478886E+01
  0
LINE
  8
0
  6
DASHED
 62
7
 10
5.14998740E+01
 20
5.80912312E+01
 11
5.27498721E+01
 21
5.88129097E+01
  0
LINE
  8
0
  6
DASHED
 62
7
 10
5.27499957E+01
 20
5.88128242E+01
 11
5.40000049E+01
 21
5.80911392E+01
  0
LINE
  8
0
  6
DASHED
 62
7
 10
5.14999847E+01
 20
5.66477697E+01
 11
5.14999847E+01
 21
5.80911520E+01
  0
LINE
  8
0
  6
DASHED
 62
7
 10
5.39999847E+01
 20
5.66477697E+01
 11
5.39999847E+01
 21
5.80911520E+01
  0
LINE
  8
0
  6
CENTER
 62
2
 10
2.38378983E+01
 20
5.73694723E+01
 11
3.65642395E+01
 21
5.73694723E+01
  0
LINE
  8
0
  6
CENTER
 62
2
 10
3.07499924E+01
 20
5.07923391E+01
 11
3.07499924E+01
 21
6.35186651E+01
  0
LINE
  8
0
  6
DASHED
 62
7
 10
3.07499997E+01
 20
5.59260858E+01
 11
2.94999706E+01
 21
5.66477822E+01
  0
LINE
  8
0
  6
DASHED
 62
7
 10
2.94999924E+01
 20
5.66477697E+01
 11
2.94999924E+01
 21
5.80911520E+01
  0
LINE
  8
0
  6
DASHED
 62
7
 10
3.07499391E+01
 20
5.88129150E+01
 11
2.94999596E+01
 21
5.80912472E+01
  0
LINE
  8
0
  6
DASHED
 62
7
 10
3.19999890E+01
 20
5.80911554E+01
 11
3.07499996E+01
 21
5.88128289E+01
  0
LINE
  8
0
  6
DASHED
 62
7
 10
3.19999924E+01
 20
5.66477697E+01
 11
3.19999924E+01
 21
5.80911520E+01
  0
LINE
  8
0
  6
DASHED
 62
7
 10
3.07499473E+01
 20
5.59261767E+01
 11
3.19999631E+01
 21
5.66478655E+01
  0
LINE
  8
0
  6
CENTER
 62
2
 10
5.96620789E+01
 20
7.93694647E+01
 11
4.69357376E+01
 21
7.93694647E+01
  0
LINE
  8
0
  6
CENTER
 62
2
 10
5.27499847E+01
 20
8.59465826E+01
 11
5.27499847E+01
 21
7.32202642E+01
  0
LINE
  8
0
  6
DASHED
 62
7
 10
5.27500148E+01
 20
8.08128604E+01
 11
5.40000306E+01
 21
8.00911716E+01
  0
LINE
  8
0
  6
DASHED
 62
7
 10
5.39999847E+01
 20
8.00911596E+01
 11
5.39999847E+01
 21
7.86477697E+01
  0
LINE
  8
0
  6
DASHED
 62
7
 10
5.27499155E+01
 20
7.79261553E+01
 11
5.39998928E+01
 21
7.86478218E+01
  0
LINE
  8
0
  6
DASHED
 62
7
 10
5.14999608E+01
 20
7.86477400E+01
 11
5.27499634E+01
 21
7.79260588E+01
  0
LINE
  8
0
  6
DASHED
 62
7
 10
5.14999847E+01
 20
8.00911596E+01
 11
5.14999847E+01
 21
7.86477697E+01
  0
LINE
  8
0
  6
DASHED
 62
7
 10
5.27499248E+01
 20
8.08129213E+01
 11
5.14998876E+01
 21
8.00912202E+01
  0
LINE
  8
0
  6
CENTER
 62
2
 10
2.38378983E+01
 20
7.93694647E+01
 11
3.65642395E+01
 21
7.93694647E+01
  0
LINE
  8
0
  6
CENTER
 62
2
 10
3.07499924E+01
 20
8.59465826E+01
 11
3.07499924E+01
 21
7.32202642E+01
  0
LINE
  8
0
  6
DASHED
 62
7
 10
3.07499426E+01
 20
8.08129158E+01
 11
2.94999268E+01
 21
8.00912270E+01
  0
LINE
  8
0
  6
DASHED
 62
7
 10
2.94999924E+01
 20
8.00911596E+01
 11
2.94999924E+01
 21
7.86477697E+01
  0
LINE
  8
0
  6
DASHED
 62
7
 10
3.07499298E+01
 20
7.79261205E+01
 11
2.95000065E+01
 21
7.86477559E+01
  0
LINE
  8
0
  6
DASHED
 62
7
 10
3.19998888E+01
 20
7.86478390E+01
 11
3.07499102E+01
 21
7.79261716E+01
  0
LINE
  8
0
  6
DASHED
 62
7
 10
3.19999924E+01
 20
8.00911596E+01
 11
3.19999924E+01
 21
7.86477697E+01
  0
LINE
  8
0
  6
DASHED
 62
7
 10
3.07499767E+01
 20
8.08127924E+01
 11
3.19999661E+01
 21
8.00911189E+01
  0
LINE
  8
0
 62
7
 10
-1.35008757E+02
 20
5.11109938E+01
 11
-1.27250059E+02
 21
5.08400541E+01
  0
LINE
  8
0
 62
7
 10
-1.39750015E+02
 20
8.53694647E+01
 11
-1.35241455E+02
 21
8.53694647E+01
  0
LINE
  8
0
 62
7
 10
-1.35008783E+02
 20
8.56279761E+01
 11
-1.27250085E+02
 21
8.58989158E+01
  0
LINE
  8
0
 62
7
 10
6.42500381E+01
 20
8.73694494E+01
 11
6.42500381E+01
 21
4.93694494E+01
  0
LINE
  8
0
 62
7
 10
6.42500572E+01
 20
8.73694494E+01
 11
6.27500381E+01
 21
8.73694494E+01
  0
LINE
  8
0
 62
7
 10
6.42500381E+01
 20
4.93694570E+01
 11
6.27500381E+01
 21
4.93694570E+01
  0
LINE
  8
0
 62
7
 10
6.47501766E+01
 20
8.68695373E+01
 11
6.42501544E+01
 21
8.73695594E+01
  0
LINE
  8
0
 62
7
 10
6.47500966E+01
 20
4.98694545E+01
 11
6.42500906E+01
 21
4.93694486E+01
  0
LINE
  8
0
 62
7
 10
6.47500496E+01
 20
8.68694647E+01
 11
6.47500496E+01
 21
4.98694494E+01
  0
LINE
  8
0
  6
CENTER
 62
2
 10
4.17500000E+01
 20
1.01427143E+02
 11
4.17500000E+01
 21
4.66845968E+01
  0
LINE
  8
0
 62
7
 10
-1.50249969E+02
 20
7.73694647E+01
 11
-1.50249969E+02
 21
5.93694723E+01
  0
LINE
  8
0
 62
7
 10
-1.47250076E+02
 20
7.36373175E+01
 11
-1.43250015E+02
 21
7.36373175E+01
  0
LINE
  8
0
 62
7
 10
-1.43250015E+02
 20
6.31016577E+01
 11
-1.43250015E+02
 21
6.83694647E+01
  0
LINE
  8
0
 62
7
 10
-1.47250076E+02
 20
6.31016577E+01
 11
-1.43250015E+02
 21
6.31016577E+01
  0
LINE
  8
0
 62
7
 10
-1.47249985E+02
 20
5.83694799E+01
 11
-1.47249985E+02
 21
6.31016577E+01
  0
LINE
  8
0
 62
2
 10
-1.49283655E+02
 20
7.21829487E+01
 11
-1.43250006E+02
 21
6.31016782E+01
  0
LINE
  8
0
 62
2
 10
-1.49283667E+02
 20
6.45559939E+01
 11
-1.43249985E+02
 21
7.36373136E+01
  0
LINE
  8
0
 62
7
 10
-1.47250076E+02
 20
5.83694799E+01
 11
-1.40250046E+02
 21
5.83694799E+01
  0
LINE
  8
0
 62
7
 10
-1.47249985E+02
 20
7.83694952E+01
 11
-1.47249985E+02
 21
7.36373175E+01
  0
LINE
  8
0
 62
7
 10
-1.43250015E+02
 20
7.36373175E+01
 11
-1.43250015E+02
 21
6.83694647E+01
  0
LINE
  8
0
 62
7
 10
-1.53249969E+02
 20
5.93694723E+01
 11
-1.53249969E+02
 21
7.73694647E+01
  0
LINE
  8
0
 62
7
 10
-1.82249969E+02
 20
6.08694952E+01
 11
-1.82249969E+02
 21
7.58693121E+01
  0
LINE
  8
0
 62
7
 10
-1.80749969E+02
 20
5.93694723E+01
 11
-1.80749969E+02
 21
7.73694647E+01
  0
LINE
  8
0
 62
7
 10
-1.80749908E+02
 20
7.73694647E+01
 11
-1.73249969E+02
 21
7.73694647E+01
  0
LINE
  8
0
 62
2
 10
-1.81569916E+02
 20
7.65494573E+01
 11
-1.73249969E+02
 21
7.65494573E+01
  0
LINE
  8
0
 62
7
 10
-1.82249915E+02
 20
7.58693340E+01
 11
-1.80749869E+02
 21
7.73693343E+01
  0
LINE
  8
0
 62
7
 10
-1.80749908E+02
 20
5.93694723E+01
 11
-1.73249969E+02
 21
5.93694723E+01
  0
LINE
  8
0
 62
2
 10
-1.81569916E+02
 20
6.01894644E+01
 11
-1.73249969E+02
 21
6.01894644E+01
  0
LINE
  8
0
 62
7
 10
-1.82250000E+02
 20
6.08695437E+01
 11
-1.80749965E+02
 21
5.93695542E+01
  0
LINE
  8
0
 62
7
 10
-1.47250076E+02
 20
7.83694494E+01
 11
-1.40250046E+02
 21
7.83694494E+01
  0
LINE
  8
0
 62
7
 10
-1.50249980E+02
 20
7.73694619E+01
 11
-1.47249992E+02
 21
7.83694478E+01
  0
LINE
  8
0
 62
7
 10
-1.50249955E+02
 20
7.14919058E+01
 11
-1.47249963E+02
 21
7.36373120E+01
  0
LINE
  8
0
 62
7
 10
-1.50249970E+02
 20
6.52470106E+01
 11
-1.47249994E+02
 21
6.31016612E+01
  0
LINE
  8
0
 62
7
 10
-1.50249980E+02
 20
5.93694756E+01
 11
-1.47249994E+02
 21
5.83694828E+01
  0
LINE
  8
0
 62
7
 10
-1.53249969E+02
 20
7.65494573E+01
 11
-1.50249969E+02
 21
7.65494573E+01
  0
LINE
  8
0
 62
7
 10
-1.53249969E+02
 20
6.01894644E+01
 11
-1.50249969E+02
 21
6.01894644E+01
  0
ARC
  8
0
 62
7
 10
-1.26750061E+02
 20
8.68694647E+01
 40
5.00000000E-01
 50
9.00000913E+01
 51
1.80000087E+02
  0
ARC
  8
0
 62
7
 10
-1.26750061E+02
 20
4.98694799E+01
 40
5.00000000E-01
 50
1.80000091E+02
 51
2.70000073E+02
  0
ARC
  8
0
 62
7
 10
-1.24750046E+02
 20
3.84019277E+01
 40
5.00000000E-01
 50
1.80000091E+02
 51
2.68999880E+02
  0
ARC
  8
0
 62
7
 10
-1.24750046E+02
 20
9.83369940E+01
 40
5.00000000E-01
 50
9.10003043E+01
 51
1.80000087E+02
  0
CIRCLE
  8
0
  6
DASHED
 62
7
 10
4.17500000E+01
 20
6.83694570E+01
 40
1.95000000E+01
  0
CIRCLE
  8
0
  6
DASHED
 62
7
 10
5.27499847E+01
 20
5.73694723E+01
 40
3.75000000E+00
  0
CIRCLE
  8
0
  6
DASHED
 62
2
 10
4.17500000E+01
 20
6.83694570E+01
 40
2.50000000E+00
  0
CIRCLE
  8
0
  6
DASHED
 62
7
 10
3.07499924E+01
 20
5.73694723E+01
 40
3.75000000E+00
  0
CIRCLE
  8
0
  6
DASHED
 62
7
 10
5.27499847E+01
 20
7.93694647E+01
 40
3.75000000E+00
  0
CIRCLE
  8
0
  6
DASHED
 62
7
 10
3.07499924E+01
 20
7.93694647E+01
 40
3.75000000E+00
  0
CIRCLE
  8
0
  6
DASHED
 62
7
 10
4.17500000E+01
 20
6.83694570E+01
 40
2.00000000E+00
  0
ARC
  8
0
 62
7
 10
-1.35000000E+02
 20
5.13609198E+01
 40
2.50000000E-01
 50
1.79999977E+02
 51
2.68001132E+02
  0
ARC
  8
0
 62
7
 10
-1.39750015E+02
 20
5.18694952E+01
 40
5.00000000E-01
 50
1.79999977E+02
 51
2.69999974E+02
  0
ARC
  8
0
 62
7
 10
-1.39750015E+02
 20
8.48694342E+01
 40
5.00000000E-01
 50
8.99999818E+01
 51
1.79999964E+02
  0
ARC
  8
0
 62
7
 10
-1.35000000E+02
 20
8.53780096E+01
 40
2.50000000E-01
 50
9.19988230E+01
 51
1.79999977E+02
  0
ARC
  8
0
 62
7
 10
-1.51749969E+02
 20
6.83694647E+01
 40
9.99998474E+00
 50
0.00000000E+00
 51
3.17883527E+01
  0
ARC
  8
0
 62
7
 10
-1.51749969E+02
 20
6.83694647E+01
 40
9.99998474E+00
 50
3.28211647E+02
 51
0.00000000E+00
  0
LINE
  8
0
 62
4
 10
-1.72044198E+02
 20
5.27810074E+01
 11
-1.63455741E+02
 21
5.27810074E+01
  0
LINE
  8
0
 62
4
 10
-1.72044198E+02
 20
6.05752360E+01
 11
-1.63455741E+02
 21
6.05752360E+01
  0
LINE
  8
0
 62
4
 10
-1.62249969E+02
 20
5.48694647E+01
 11
-1.63455741E+02
 21
5.27810074E+01
  0
LINE
  8
0
 62
4
 10
-1.73249969E+02
 20
5.48694647E+01
 11
-1.72044198E+02
 21
5.27810074E+01
  0
ARC
  8
0
 62
4
 10
-1.66349248E+02
 20
5.66781217E+01
 40
6.90072132E+00
 50
1.45615752E+02
 51
2.14384248E+02
  0
ARC
  8
0
 62
4
 10
-1.69150691E+02
 20
5.66781217E+01
 40
6.90072132E+00
 50
3.25615752E+02
 51
3.43842480E+01
  0
LINE
  8
0
 62
4
 10
-1.72044198E+02
 20
8.39579219E+01
 11
-1.63455741E+02
 21
8.39579219E+01
  0
LINE
  8
0
 62
4
 10
-1.72044198E+02
 20
7.61636933E+01
 11
-1.63455741E+02
 21
7.61636933E+01
  0
LINE
  8
0
 62
4
 10
-1.72044198E+02
 20
8.39579219E+01
 11
-1.73249969E+02
 21
8.18694647E+01
  0
LINE
  8
0
 62
4
 10
-1.63455741E+02
 20
8.39579219E+01
 11
-1.62249969E+02
 21
8.18694647E+01
  0
ARC
  8
0
 62
4
 10
-1.66349248E+02
 20
8.00608076E+01
 40
6.90072132E+00
 50
1.45615752E+02
 51
2.14384248E+02
  0
ARC
  8
0
 62
4
 10
-1.69150691E+02
 20
8.00608076E+01
 40
6.90072132E+00
 50
3.25615752E+02
 51
3.43842480E+01
  0
ARC
  8
0
 62
4
 10
-1.88044198E+02
 20
6.83694647E+01
 40
2.57942282E+01
 50
3.42412046E+02
 51
1.75879541E+01
  0
ARC
  8
0
 62
4
 10
-1.47455741E+02
 20
6.83694647E+01
 40
2.57942282E+01
 50
1.62412046E+02
 51
1.97587954E+02
  0
LINE
  8
0
 62
4
 10
-1.73249969E+02
 20
5.48694647E+01
 11
-1.73249969E+02
 21
8.18694647E+01
  0
LINE
  8
0
 62
4
 10
-1.62249969E+02
 20
5.48694647E+01
 11
-1.62249969E+02
 21
8.18694647E+01
  0
LINE
  8
0
 62
7
 10
-1.62249969E+02
 20
7.73694647E+01
 11
-1.53249969E+02
 21
7.73694647E+01
  0
LINE
  8
0
 62
2
 10
-1.62249969E+02
 20
7.65494573E+01
 11
-1.53249969E+02
 21
7.65494573E+01
  0
LINE
  8
0
 62
7
 10
-1.62249969E+02
 20
5.93694723E+01
 11
-1.53249969E+02
 21
5.93694723E+01
  0
LINE
  8
0
 62
2
 10
-1.62249969E+02
 20
6.01894644E+01
 11
-1.53249969E+02
 21
6.01894644E+01
  0
LINE
  8
0
 62
4
 10
-5.37500000E+01
 20
1.00359316E+02
 11
-5.37500000E+01
 21
1.11875902E+02
  0
LINE
  8
0
 62
6
 10
-4.54820508E+01
 20
9.58593156E+01
 11
-4.20179492E+01
 21
1.01859316E+02
  0
LINE
  8
0
 62
6
 10
-3.30178881E+01
 20
1.01859316E+02
 11
-3.64819897E+01
 21
9.58593157E+01
  0
LINE
  8
0
 62
4
 10
-2.47499390E+01
 20
1.00359316E+02
 11
-3.38839136E+01
 21
1.00359316E+02
  0
LINE
  8
0
  6
CENTER
 62
6
 10
1.02500610E+01
 20
9.88593157E+01
 11
-3.67499390E+01
 21
9.88593157E+01
  0
LINE
  8
0
 62
4
 10
-2.47499390E+01
 20
9.73593157E+01
 11
-3.56159644E+01
 21
9.73593157E+01
  0
LINE
  8
0
 62
4
 10
-6.02500000E+01
 20
9.73593157E+01
 11
-4.46160254E+01
 21
9.73593157E+01
  0
LINE
  8
0
  6
CENTER
 62
6
 10
-8.87500000E+01
 20
9.88593157E+01
 11
-4.17500000E+01
 21
9.88593157E+01
  0
LINE
  8
0
 62
4
 10
-6.02500000E+01
 20
1.00359316E+02
 11
-4.28839746E+01
 21
1.00359316E+02
  0
LINE
  8
0
 62
4
 10
-5.37500000E+01
 20
9.53694494E+01
 11
-5.37500000E+01
 21
9.73593157E+01
  0
LINE
  8
0
 62
4
 10
-8.37500000E+01
 20
1.11875902E+02
 11
-8.37500000E+01
 21
1.01176228E+02
  0
LINE
  8
0
 62
4
 10
-6.02500000E+01
 20
1.01176228E+02
 11
-6.02500000E+01
 21
9.71037861E+01
  0
LINE
  8
0
  6
CENTER
 62
6
 10
-1.87500000E+01
 20
8.76996244E+01
 11
-2.37500000E+01
 21
8.76996244E+01
  0
LINE
  8
0
  6
CENTER
 62
6
 10
-2.12500000E+01
 20
9.01996244E+01
 11
-2.12500000E+01
 21
8.51996244E+01
  0
LINE
  8
0
  6
CENTER
 62
6
 10
-1.32500000E+01
 20
9.01996244E+01
 11
-1.32500000E+01
 21
8.51996244E+01
  0
LINE
  8
0
  6
CENTER
 62
6
 10
-1.07500000E+01
 20
8.76996244E+01
 11
-1.57500000E+01
 21
8.76996244E+01
  0
LINE
  8
0
 62
4
 10
-9.75000000E+00
 20
1.10087326E+02
 11
-9.75000000E+00
 21
8.25208656E+01
  0
LINE
  8
0
 62
4
 10
-2.47500000E+01
 20
1.11875902E+02
 11
-2.47500000E+01
 21
8.25208656E+01
  0
LINE
  8
0
 62
4
 10
5.25000000E+00
 20
1.11875902E+02
 11
5.25000000E+00
 21
9.42609429E+01
  0
LINE
  8
0
  6
CENTER
 62
6
 10
-2.25000000E+00
 20
1.09230288E+02
 11
-2.25000000E+00
 21
1.02081094E+02
  0
LINE
  8
0
  6
CENTER
 62
6
 10
1.32459689E+00
 20
1.05655691E+02
 11
-5.82459689E+00
 21
1.05655691E+02
  0
LINE
  8
0
 62
4
 10
-2.47500000E+01
 20
1.11875902E+02
 11
5.24999999E+00
 21
1.11875902E+02
  0
LINE
  8
0
 62
4
 10
-2.47500000E+01
 20
1.10087326E+02
 11
5.24999999E+00
 21
1.10087326E+02
  0
LINE
  8
0
 62
4
 10
-2.47500000E+01
 20
1.08871789E+02
 11
-9.75000001E+00
 21
1.08871789E+02
  0
LINE
  8
0
 62
4
 10
-2.35884360E+01
 20
9.28970144E+01
 11
-1.10092527E+01
 21
9.28970144E+01
  0
LINE
  8
0
 62
4
 10
-2.47500000E+01
 20
8.25208656E+01
 11
-9.75000000E+00
 21
8.25208656E+01
  0
LINE
  8
0
 62
4
 10
-9.75000001E+00
 20
9.42609429E+01
 11
5.24999999E+00
 21
9.42609429E+01
  0
LINE
  8
0
 62
4
 10
-9.75000001E+00
 20
1.01716460E+02
 11
5.24999999E+00
 21
1.01716460E+02
  0
LINE
  8
0
 62
4
 10
-9.75000001E+00
 20
1.01647001E+02
 11
5.24999999E+00
 21
1.01647001E+02
  0
POLYLINE
  8
0
 62
4
 66
1
  0
VERTEX
  8
0
 62
4
 10
-4.50000000E+00
 20
1.05655691E+02
  0
VERTEX
  8
0
 62
4
 10
-4.49143807E+00
 20
1.05462570E+02
  0
VERTEX
  8
0
 62
4
 10
-4.46581745E+00
 20
1.05270918E+02
  0
VERTEX
  8
0
 62
4
 10
-4.42333311E+00
 20
1.05082195E+02
  0
VERTEX
  8
0
 62
4
 10
-4.36430840E+00
 20
1.04897837E+02
  0
VERTEX
  8
0
 62
4
 10
-4.28919252E+00
 20
1.04719246E+02
  0
VERTEX
  8
0
 62
4
 10
-4.19855716E+00
 20
1.04547782E+02
  0
VERTEX
  8
0
 62
4
 10
-4.09309210E+00
 20
1.04384750E+02
  0
VERTEX
  8
0
 62
4
 10
-3.97360000E+00
 20
1.04231391E+02
  0
VERTEX
  8
0
 62
4
 10
-3.84099026E+00
 20
1.04088871E+02
  0
VERTEX
  8
0
 62
4
 10
-3.69627213E+00
 20
1.03958276E+02
  0
VERTEX
  8
0
 62
4
 10
-3.54054699E+00
 20
1.03840600E+02
  0
VERTEX
  8
0
 62
4
 10
-3.37500001E+00
 20
1.03736737E+02
  0
VERTEX
  8
0
 62
4
 10
-3.20089110E+00
 20
1.03647478E+02
  0
VERTEX
  8
0
 62
4
 10
-3.01954533E+00
 20
1.03573504E+02
  0
VERTEX
  8
0
 62
4
 10
-2.83234286E+00
 20
1.03515376E+02
  0
VERTEX
  8
0
 62
4
 10
-2.64070841E+00
 20
1.03473537E+02
  0
VERTEX
  8
0
 62
4
 10
-2.44610043E+00
 20
1.03448305E+02
  0
VERTEX
  8
0
 62
4
 10
-2.25000001E+00
 20
1.03439874E+02
  0
VERTEX
  8
0
 62
4
 10
-2.05389959E+00
 20
1.03448305E+02
  0
VERTEX
  8
0
 62
4
 10
-1.85929161E+00
 20
1.03473537E+02
  0
VERTEX
  8
0
 62
4
 10
-1.66765715E+00
 20
1.03515376E+02
  0
VERTEX
  8
0
 62
4
 10
-1.48045468E+00
 20
1.03573504E+02
  0
VERTEX
  8
0
 62
4
 10
-1.29910892E+00
 20
1.03647478E+02
  0
VERTEX
  8
0
 62
4
 10
-1.12500001E+00
 20
1.03736737E+02
  0
VERTEX
  8
0
 62
4
 10
-9.59453023E-01
 20
1.03840600E+02
  0
VERTEX
  8
0
 62
4
 10
-8.03727883E-01
 20
1.03958276E+02
  0
VERTEX
  8
0
 62
4
 10
-6.59009746E-01
 20
1.04088871E+02
  0
VERTEX
  8
0
 62
4
 10
-5.26400007E-01
 20
1.04231391E+02
  0
VERTEX
  8
0
 62
4
 10
-4.06907903E-01
 20
1.04384750E+02
  0
VERTEX
  8
0
 62
4
 10
-3.01442844E-01
 20
1.04547782E+02
  0
VERTEX
  8
0
 62
4
 10
-2.10807481E-01
 20
1.04719246E+02
  0
VERTEX
  8
0
 62
4
 10
-1.35691605E-01
 20
1.04897837E+02
  0
VERTEX
  8
0
 62
4
 10
-7.66668922E-02
 20
1.05082195E+02
  0
VERTEX
  8
0
 62
4
 10
-3.41825566E-02
 20
1.05270918E+02
  0
VERTEX
  8
0
 62
4
 10
-8.56192972E-03
 20
1.05462570E+02
  0
VERTEX
  8
0
 62
4
 10
0.00000000E+00
 20
1.05655691E+02
  0
VERTEX
  8
0
 62
4
 10
-8.56192888E-03
 20
1.05848812E+02
  0
VERTEX
  8
0
 62
4
 10
-3.41825549E-02
 20
1.06040464E+02
  0
VERTEX
  8
0
 62
4
 10
-7.66668897E-02
 20
1.06229187E+02
  0
VERTEX
  8
0
 62
4
 10
-1.35691602E-01
 20
1.06413545E+02
  0
VERTEX
  8
0
 62
4
 10
-2.10807477E-01
 20
1.06592136E+02
  0
VERTEX
  8
0
 62
4
 10
-3.01442839E-01
 20
1.06763600E+02
  0
VERTEX
  8
0
 62
4
 10
-4.06907898E-01
 20
1.06926632E+02
  0
VERTEX
  8
0
 62
4
 10
-5.26400000E-01
 20
1.07079991E+02
  0
VERTEX
  8
0
 62
4
 10
-6.59009740E-01
 20
1.07222511E+02
  0
VERTEX
  8
0
 62
4
 10
-8.03727875E-01
 20
1.07353106E+02
  0
VERTEX
  8
0
 62
4
 10
-9.59453015E-01
 20
1.07470782E+02
  0
VERTEX
  8
0
 62
4
 10
-1.12500000E+00
 20
1.07574645E+02
  0
VERTEX
  8
0
 62
4
 10
-1.29910891E+00
 20
1.07663904E+02
  0
VERTEX
  8
0
 62
4
 10
-1.48045467E+00
 20
1.07737878E+02
  0
VERTEX
  8
0
 62
4
 10
-1.66765715E+00
 20
1.07796006E+02
  0
VERTEX
  8
0
 62
4
 10
-1.85929160E+00
 20
1.07837845E+02
  0
VERTEX
  8
0
 62
4
 10
-2.05389958E+00
 20
1.07863077E+02
  0
VERTEX
  8
0
 62
4
 10
-2.25000000E+00
 20
1.07871508E+02
  0
VERTEX
  8
0
 62
4
 10
-2.44610042E+00
 20
1.07863077E+02
  0
VERTEX
  8
0
 62
4
 10
-2.64070840E+00
 20
1.07837845E+02
  0
VERTEX
  8
0
 62
4
 10
-2.83234285E+00
 20
1.07796006E+02
  0
VERTEX
  8
0
 62
4
 10
-3.01954532E+00
 20
1.07737878E+02
  0
VERTEX
  8
0
 62
4
 10
-3.20089109E+00
 20
1.07663904E+02
  0
VERTEX
  8
0
 62
4
 10
-3.37500000E+00
 20
1.07574645E+02
  0
VERTEX
  8
0
 62
4
 10
-3.54054698E+00
 20
1.07470782E+02
  0
VERTEX
  8
0
 62
4
 10
-3.69627212E+00
 20
1.07353106E+02
  0
VERTEX
  8
0
 62
4
 10
-3.84099026E+00
 20
1.07222511E+02
  0
VERTEX
  8
0
 62
4
 10
-3.97360000E+00
 20
1.07079991E+02
  0
VERTEX
  8
0
 62
4
 10
-4.09309210E+00
 20
1.06926632E+02
  0
VERTEX
  8
0
 62
4
 10
-4.19855716E+00
 20
1.06763600E+02
  0
VERTEX
  8
0
 62
4
 10
-4.28919252E+00
 20
1.06592136E+02
  0
VERTEX
  8
0
 62
4
 10
-4.36430840E+00
 20
1.06413545E+02
  0
VERTEX
  8
0
 62
4
 10
-4.42333311E+00
 20
1.06229187E+02
  0
VERTEX
  8
0
 62
4
 10
-4.46581744E+00
 20
1.06040464E+02
  0
VERTEX
  8
0
 62
4
 10
-4.49143807E+00
 20
1.05848812E+02
  0
VERTEX
  8
0
 62
4
 10
-4.50000000E+00
 20
1.05655691E+02
  0
SEQEND
  8
0
  0
POLYLINE
  8
0
 62
4
 66
1
  0
VERTEX
  8
0
 62
4
 10
-1.12500000E+01
 20
8.76996244E+01
  0
VERTEX
  8
0
 62
4
 10
-1.12580514E+01
 20
8.78761794E+01
  0
VERTEX
  8
0
 62
4
 10
-1.12821408E+01
 20
8.80513128E+01
  0
VERTEX
  8
0
 62
4
 10
-1.13220743E+01
 20
8.82236147E+01
  0
VERTEX
  8
0
 62
4
 10
-1.13775303E+01
 20
8.83916977E+01
  0
VERTEX
  8
0
 62
4
 10
-1.14480623E+01
 20
8.85542085E+01
  0
VERTEX
  8
0
 62
4
 10
-1.15331024E+01
 20
8.87098388E+01
  0
VERTEX
  8
0
 62
4
 10
-1.16319660E+01
 20
8.88573353E+01
  0
VERTEX
  8
0
 62
4
 10
-1.17438571E+01
 20
8.89955107E+01
  0
VERTEX
  8
0
 62
4
 10
-1.18678747E+01
 20
8.91232524E+01
  0
VERTEX
  8
0
 62
4
 10
-1.20030204E+01
 20
8.92395318E+01
  0
VERTEX
  8
0
 62
4
 10
-1.21482060E+01
 20
8.93434128E+01
  0
VERTEX
  8
0
 62
4
 10
-1.23022627E+01
 20
8.94340590E+01
  0
VERTEX
  8
0
 62
4
 10
-1.24639499E+01
 20
8.95107406E+01
  0
VERTEX
  8
0
 62
4
 10
-1.26319660E+01
 20
8.95728401E+01
  0
VERTEX
  8
0
 62
4
 10
-1.28049581E+01
 20
8.96198575E+01
  0
VERTEX
  8
0
 62
4
 10
-1.29815335E+01
 20
8.96514144E+01
  0
VERTEX
  8
0
 62
4
 10
-1.31602703E+01
 20
8.96672566E+01
  0
VERTEX
  8
0
 62
4
 10
-1.33397296E+01
 20
8.96672566E+01
  0
VERTEX
  8
0
 62
4
 10
-1.35184665E+01
 20
8.96514144E+01
  0
VERTEX
  8
0
 62
4
 10
-1.36950419E+01
 20
8.96198575E+01
  0
VERTEX
  8
0
 62
4
 10
-1.38680340E+01
 20
8.95728401E+01
  0
VERTEX
  8
0
 62
4
 10
-1.40360500E+01
 20
8.95107406E+01
  0
VERTEX
  8
0
 62
4
 10
-1.41977373E+01
 20
8.94340590E+01
  0
VERTEX
  8
0
 62
4
 10
-1.43517939E+01
 20
8.93434128E+01
  0
VERTEX
  8
0
 62
4
 10
-1.44969796E+01
 20
8.92395318E+01
  0
VERTEX
  8
0
 62
4
 10
-1.46321253E+01
 20
8.91232524E+01
  0
VERTEX
  8
0
 62
4
 10
-1.47561429E+01
 20
8.89955107E+01
  0
VERTEX
  8
0
 62
4
 10
-1.48680340E+01
 20
8.88573354E+01
  0
VERTEX
  8
0
 62
4
 10
-1.49668976E+01
 20
8.87098388E+01
  0
VERTEX
  8
0
 62
4
 10
-1.50519377E+01
 20
8.85542086E+01
  0
VERTEX
  8
0
 62
4
 10
-1.51224697E+01
 20
8.83916977E+01
  0
VERTEX
  8
0
 62
4
 10
-1.51779257E+01
 20
8.82236147E+01
  0
VERTEX
  8
0
 62
4
 10
-1.52178592E+01
 20
8.80513128E+01
  0
VERTEX
  8
0
 62
4
 10
-1.52419486E+01
 20
8.78761794E+01
  0
VERTEX
  8
0
 62
4
 10
-1.52500000E+01
 20
8.76996244E+01
  0
SEQEND
  8
0
  0
POLYLINE
  8
0
 62
4
 66
1
  0
VERTEX
  8
0
 62
4
 10
-1.52500000E+01
 20
8.71639850E+01
  0
VERTEX
  8
0
 62
4
 10
-1.52423894E+01
 20
8.69923217E+01
  0
VERTEX
  8
0
 62
4
 10
-1.52196155E+01
 20
8.68219649E+01
  0
VERTEX
  8
0
 62
4
 10
-1.51818517E+01
 20
8.66542110E+01
  0
VERTEX
  8
0
 62
4
 10
-1.51293852E+01
 20
8.64903368E+01
  0
VERTEX
  8
0
 62
4
 10
-1.50626156E+01
 20
8.63315895E+01
  0
VERTEX
  8
0
 62
4
 10
-1.49820508E+01
 20
8.61791773E+01
  0
VERTEX
  8
0
 62
4
 10
-1.48883041E+01
 20
8.60342600E+01
  0
VERTEX
  8
0
 62
4
 10
-1.47820889E+01
 20
8.58979406E+01
  0
VERTEX
  8
0
 62
4
 10
-1.46642136E+01
 20
8.57712565E+01
  0
VERTEX
  8
0
 62
4
 10
-1.45355752E+01
 20
8.56551720E+01
  0
VERTEX
  8
0
 62
4
 10
-1.43971529E+01
 20
8.55505704E+01
  0
VERTEX
  8
0
 62
4
 10
-1.42500000E+01
 20
8.54582479E+01
  0
VERTEX
  8
0
 62
4
 10
-1.40952365E+01
 20
8.53789071E+01
  0
VERTEX
  8
0
 62
4
 10
-1.39340403E+01
 20
8.53131518E+01
  0
VERTEX
  8
0
 62
4
 10
-1.37676381E+01
 20
8.52614825E+01
  0
VERTEX
  8
0
 62
4
 10
-1.35972964E+01
 20
8.52242924E+01
  0
VERTEX
  8
0
 62
4
 10
-1.34243115E+01
 20
8.52018645E+01
  0
VERTEX
  8
0
 62
4
 10
-1.32500000E+01
 20
8.51943695E+01
  0
VERTEX
  8
0
 62
4
 10
-1.30756885E+01
 20
8.52018645E+01
  0
VERTEX
  8
0
 62
4
 10
-1.29027037E+01
 20
8.52242924E+01
  0
VERTEX
  8
0
 62
4
 10
-1.27323619E+01
 20
8.52614825E+01
  0
VERTEX
  8
0
 62
4
 10
-1.25659597E+01
 20
8.53131518E+01
  0
VERTEX
  8
0
 62
4
 10
-1.24047635E+01
 20
8.53789071E+01
  0
VERTEX
  8
0
 62
4
 10
-1.22500000E+01
 20
8.54582479E+01
  0
VERTEX
  8
0
 62
4
 10
-1.21028471E+01
 20
8.55505704E+01
  0
VERTEX
  8
0
 62
4
 10
-1.19644248E+01
 20
8.56551720E+01
  0
VERTEX
  8
0
 62
4
 10
-1.18357864E+01
 20
8.57712565E+01
  0
VERTEX
  8
0
 62
4
 10
-1.17179111E+01
 20
8.58979406E+01
  0
VERTEX
  8
0
 62
4
 10
-1.16116959E+01
 20
8.60342600E+01
  0
VERTEX
  8
0
 62
4
 10
-1.15179492E+01
 20
8.61791772E+01
  0
VERTEX
  8
0
 62
4
 10
-1.14373844E+01
 20
8.63315895E+01
  0
VERTEX
  8
0
 62
4
 10
-1.13706148E+01
 20
8.64903368E+01
  0
VERTEX
  8
0
 62
4
 10
-1.13181483E+01
 20
8.66542110E+01
  0
VERTEX
  8
0
 62
4
 10
-1.12803845E+01
 20
8.68219649E+01
  0
VERTEX
  8
0
 62
4
 10
-1.12576106E+01
 20
8.69923217E+01
  0
VERTEX
  8
0
 62
4
 10
-1.12500000E+01
 20
8.71639850E+01
  0
VERTEX
  8
0
 62
4
 10
-1.12576106E+01
 20
8.73356483E+01
  0
VERTEX
  8
0
 62
4
 10
-1.12803845E+01
 20
8.75060051E+01
  0
VERTEX
  8
0
 62
4
 10
-1.13181483E+01
 20
8.76737590E+01
  0
VERTEX
  8
0
 62
4
 10
-1.13706148E+01
 20
8.78376332E+01
  0
VERTEX
  8
0
 62
4
 10
-1.14373844E+01
 20
8.79963805E+01
  0
VERTEX
  8
0
 62
4
 10
-1.15179492E+01
 20
8.81487928E+01
  0
VERTEX
  8
0
 62
4
 10
-1.16116959E+01
 20
8.82937100E+01
  0
VERTEX
  8
0
 62
4
 10
-1.17179111E+01
 20
8.84300294E+01
  0
VERTEX
  8
0
 62
4
 10
-1.18357864E+01
 20
8.85567135E+01
  0
VERTEX
  8
0
 62
4
 10
-1.19644248E+01
 20
8.86727980E+01
  0
VERTEX
  8
0
 62
4
 10
-1.21028471E+01
 20
8.87773996E+01
  0
VERTEX
  8
0
 62
4
 10
-1.22500000E+01
 20
8.88697221E+01
  0
VERTEX
  8
0
 62
4
 10
-1.24047635E+01
 20
8.89490629E+01
  0
VERTEX
  8
0
 62
4
 10
-1.25659597E+01
 20
8.90148182E+01
  0
VERTEX
  8
0
 62
4
 10
-1.27323619E+01
 20
8.90664875E+01
  0
VERTEX
  8
0
 62
4
 10
-1.29027036E+01
 20
8.91036776E+01
  0
VERTEX
  8
0
 62
4
 10
-1.30756885E+01
 20
8.91261055E+01
  0
VERTEX
  8
0
 62
4
 10
-1.32500000E+01
 20
8.91336005E+01
  0
VERTEX
  8
0
 62
4
 10
-1.34243115E+01
 20
8.91261055E+01
  0
VERTEX
  8
0
 62
4
 10
-1.35972964E+01
 20
8.91036776E+01
  0
VERTEX
  8
0
 62
4
 10
-1.37676381E+01
 20
8.90664875E+01
  0
VERTEX
  8
0
 62
4
 10
-1.39340403E+01
 20
8.90148182E+01
  0
VERTEX
  8
0
 62
4
 10
-1.40952365E+01
 20
8.89490629E+01
  0
VERTEX
  8
0
 62
4
 10
-1.42500000E+01
 20
8.88697221E+01
  0
VERTEX
  8
0
 62
4
 10
-1.43971529E+01
 20
8.87773996E+01
  0
VERTEX
  8
0
 62
4
 10
-1.45355752E+01
 20
8.86727980E+01
  0
VERTEX
  8
0
 62
4
 10
-1.46642136E+01
 20
8.85567135E+01
  0
VERTEX
  8
0
 62
4
 10
-1.47820889E+01
 20
8.84300294E+01
  0
VERTEX
  8
0
 62
4
 10
-1.48883041E+01
 20
8.82937100E+01
  0
VERTEX
  8
0
 62
4
 10
-1.49820508E+01
 20
8.81487928E+01
  0
VERTEX
  8
0
 62
4
 10
-1.50626156E+01
 20
8.79963805E+01
  0
VERTEX
  8
0
 62
4
 10
-1.51293852E+01
 20
8.78376332E+01
  0
VERTEX
  8
0
 62
4
 10
-1.51818517E+01
 20
8.76737590E+01
  0
VERTEX
  8
0
 62
4
 10
-1.52196155E+01
 20
8.75060051E+01
  0
VERTEX
  8
0
 62
4
 10
-1.52423894E+01
 20
8.73356483E+01
  0
VERTEX
  8
0
 62
4
 10
-1.52500000E+01
 20
8.71639850E+01
  0
SEQEND
  8
0
  0
LINE
  8
0
 62
4
 10
-1.52500000E+01
 20
8.71639850E+01
 11
-1.52500000E+01
 21
8.76996244E+01
  0
LINE
  8
0
 62
4
 10
-1.12500000E+01
 20
8.71639850E+01
 11
-1.12500000E+01
 21
8.76996244E+01
  0
POLYLINE
  8
0
 62
6
 66
1
  0
VERTEX
  8
0
 62
6
 10
-1.17500000E+01
 20
8.71639850E+01
  0
VERTEX
  8
0
 62
6
 10
-1.17557080E+01
 20
8.72927325E+01
  0
VERTEX
  8
0
 62
6
 10
-1.17727884E+01
 20
8.74205001E+01
  0
VERTEX
  8
0
 62
6
 10
-1.18011113E+01
 20
8.75463155E+01
  0
VERTEX
  8
0
 62
6
 10
-1.18404611E+01
 20
8.76692211E+01
  0
VERTEX
  8
0
 62
6
 10
-1.18905383E+01
 20
8.77882816E+01
  0
VERTEX
  8
0
 62
6
 10
-1.19509619E+01
 20
8.79025908E+01
  0
VERTEX
  8
0
 62
6
 10
-1.20212719E+01
 20
8.80112788E+01
  0
VERTEX
  8
0
 62
6
 10
-1.21009333E+01
 20
8.81135183E+01
  0
VERTEX
  8
0
 62
6
 10
-1.21893398E+01
 20
8.82085314E+01
  0
VERTEX
  8
0
 62
6
 10
-1.22858186E+01
 20
8.82955948E+01
  0
VERTEX
  8
0
 62
6
 10
-1.23896353E+01
 20
8.83740459E+01
  0
VERTEX
  8
0
 62
6
 10
-1.25000000E+01
 20
8.84432878E+01
  0
VERTEX
  8
0
 62
6
 10
-1.26160726E+01
 20
8.85027934E+01
  0
VERTEX
  8
0
 62
6
 10
-1.27369698E+01
 20
8.85521099E+01
  0
VERTEX
  8
0
 62
6
 10
-1.28617714E+01
 20
8.85908619E+01
  0
VERTEX
  8
0
 62
6
 10
-1.29895277E+01
 20
8.86187545E+01
  0
VERTEX
  8
0
 62
6
 10
-1.31192664E+01
 20
8.86355754E+01
  0
VERTEX
  8
0
 62
6
 10
-1.32500000E+01
 20
8.86411966E+01
  0
VERTEX
  8
0
 62
6
 10
-1.33807336E+01
 20
8.86355754E+01
  0
VERTEX
  8
0
 62
6
 10
-1.35104723E+01
 20
8.86187545E+01
  0
VERTEX
  8
0
 62
6
 10
-1.36382286E+01
 20
8.85908619E+01
  0
VERTEX
  8
0
 62
6
 10
-1.37630302E+01
 20
8.85521099E+01
  0
VERTEX
  8
0
 62
6
 10
-1.38839274E+01
 20
8.85027934E+01
  0
VERTEX
  8
0
 62
6
 10
-1.40000000E+01
 20
8.84432878E+01
  0
VERTEX
  8
0
 62
6
 10
-1.41103647E+01
 20
8.83740459E+01
  0
VERTEX
  8
0
 62
6
 10
-1.42141814E+01
 20
8.82955948E+01
  0
VERTEX
  8
0
 62
6
 10
-1.43106602E+01
 20
8.82085314E+01
  0
VERTEX
  8
0
 62
6
 10
-1.43990667E+01
 20
8.81135183E+01
  0
VERTEX
  8
0
 62
6
 10
-1.44787281E+01
 20
8.80112788E+01
  0
VERTEX
  8
0
 62
6
 10
-1.45490381E+01
 20
8.79025908E+01
  0
VERTEX
  8
0
 62
6
 10
-1.46094617E+01
 20
8.77882816E+01
  0
VERTEX
  8
0
 62
6
 10
-1.46595389E+01
 20
8.76692211E+01
  0
VERTEX
  8
0
 62
6
 10
-1.46988887E+01
 20
8.75463155E+01
  0
VERTEX
  8
0
 62
6
 10
-1.47272116E+01
 20
8.74205001E+01
  0
VERTEX
  8
0
 62
6
 10
-1.47442920E+01
 20
8.72927325E+01
  0
VERTEX
  8
0
 62
6
 10
-1.47500000E+01
 20
8.71639850E+01
  0
VERTEX
  8
0
 62
6
 10
-1.47442920E+01
 20
8.70352375E+01
  0
VERTEX
  8
0
 62
6
 10
-1.47272116E+01
 20
8.69074699E+01
  0
VERTEX
  8
0
 62
6
 10
-1.46988887E+01
 20
8.67816545E+01
  0
VERTEX
  8
0
 62
6
 10
-1.46595389E+01
 20
8.66587489E+01
  0
VERTEX
  8
0
 62
6
 10
-1.46094617E+01
 20
8.65396884E+01
  0
VERTEX
  8
0
 62
6
 10
-1.45490381E+01
 20
8.64253792E+01
  0
VERTEX
  8
0
 62
6
 10
-1.44787281E+01
 20
8.63166912E+01
  0
VERTEX
  8
0
 62
6
 10
-1.43990667E+01
 20
8.62144517E+01
  0
VERTEX
  8
0
 62
6
 10
-1.43106602E+01
 20
8.61194386E+01
  0
VERTEX
  8
0
 62
6
 10
-1.42141814E+01
 20
8.60323752E+01
  0
VERTEX
  8
0
 62
6
 10
-1.41103647E+01
 20
8.59539241E+01
  0
VERTEX
  8
0
 62
6
 10
-1.40000000E+01
 20
8.58846822E+01
  0
VERTEX
  8
0
 62
6
 10
-1.38839274E+01
 20
8.58251766E+01
  0
VERTEX
  8
0
 62
6
 10
-1.37630302E+01
 20
8.57758601E+01
  0
VERTEX
  8
0
 62
6
 10
-1.36382286E+01
 20
8.57371081E+01
  0
VERTEX
  8
0
 62
6
 10
-1.35104723E+01
 20
8.57092155E+01
  0
VERTEX
  8
0
 62
6
 10
-1.33807336E+01
 20
8.56923946E+01
  0
VERTEX
  8
0
 62
6
 10
-1.32500000E+01
 20
8.56867734E+01
  0
VERTEX
  8
0
 62
6
 10
-1.31192664E+01
 20
8.56923946E+01
  0
VERTEX
  8
0
 62
6
 10
-1.29895277E+01
 20
8.57092155E+01
  0
VERTEX
  8
0
 62
6
 10
-1.28617714E+01
 20
8.57371081E+01
  0
VERTEX
  8
0
 62
6
 10
-1.27369698E+01
 20
8.57758601E+01
  0
VERTEX
  8
0
 62
6
 10
-1.26160726E+01
 20
8.58251766E+01
  0
VERTEX
  8
0
 62
6
 10
-1.25000000E+01
 20
8.58846822E+01
  0
VERTEX
  8
0
 62
6
 10
-1.23896353E+01
 20
8.59539241E+01
  0
VERTEX
  8
0
 62
6
 10
-1.22858186E+01
 20
8.60323752E+01
  0
VERTEX
  8
0
 62
6
 10
-1.21893398E+01
 20
8.61194386E+01
  0
VERTEX
  8
0
 62
6
 10
-1.21009333E+01
 20
8.62144517E+01
  0
VERTEX
  8
0
 62
6
 10
-1.20212719E+01
 20
8.63166912E+01
  0
VERTEX
  8
0
 62
6
 10
-1.19509619E+01
 20
8.64253792E+01
  0
VERTEX
  8
0
 62
6
 10
-1.18905383E+01
 20
8.65396884E+01
  0
VERTEX
  8
0
 62
6
 10
-1.18404611E+01
 20
8.66587489E+01
  0
VERTEX
  8
0
 62
6
 10
-1.18011113E+01
 20
8.67816545E+01
  0
VERTEX
  8
0
 62
6
 10
-1.17727884E+01
 20
8.69074699E+01
  0
VERTEX
  8
0
 62
6
 10
-1.17557080E+01
 20
8.70352375E+01
  0
VERTEX
  8
0
 62
6
 10
-1.17500000E+01
 20
8.71639850E+01
  0
SEQEND
  8
0
  0
LINE
  8
0
 62
4
 10
-1.42500000E+01
 20
8.77351735E+01
 11
-1.42500000E+01
 21
8.65927965E+01
  0
LINE
  8
0
 62
4
 10
-1.22500000E+01
 20
8.77351735E+01
 11
-1.22500000E+01
 21
8.65927965E+01
  0
LINE
  8
0
 62
4
 10
-1.32500000E+01
 20
8.82965139E+01
 11
-1.42500000E+01
 21
8.77351735E+01
  0
LINE
  8
0
 62
4
 10
-1.32500000E+01
 20
8.82965139E+01
 11
-1.22500000E+01
 21
8.77351735E+01
  0
LINE
  8
0
 62
4
 10
-1.22500000E+01
 20
8.65927965E+01
 11
-1.32500000E+01
 21
8.60216080E+01
  0
LINE
  8
0
 62
4
 10
-1.42500000E+01
 20
8.65927965E+01
 11
-1.32500000E+01
 21
8.60216080E+01
  0
LINE
  8
0
 62
4
 10
-2.22500000E+01
 20
8.65927965E+01
 11
-2.12500000E+01
 21
8.60216080E+01
  0
LINE
  8
0
 62
4
 10
-2.02500000E+01
 20
8.65927965E+01
 11
-2.12500000E+01
 21
8.60216080E+01
  0
LINE
  8
0
 62
4
 10
-2.12500000E+01
 20
8.82965139E+01
 11
-2.02500000E+01
 21
8.77351735E+01
  0
LINE
  8
0
 62
4
 10
-2.12500000E+01
 20
8.82965139E+01
 11
-2.22500000E+01
 21
8.77351735E+01
  0
LINE
  8
0
 62
4
 10
-2.02500000E+01
 20
8.77351735E+01
 11
-2.02500000E+01
 21
8.65927965E+01
  0
LINE
  8
0
 62
4
 10
-2.22500000E+01
 20
8.77351735E+01
 11
-2.22500000E+01
 21
8.65927965E+01
  0
POLYLINE
  8
0
 62
6
 66
1
  0
VERTEX
  8
0
 62
6
 10
-1.97500000E+01
 20
8.71639850E+01
  0
VERTEX
  8
0
 62
6
 10
-1.97557080E+01
 20
8.72927325E+01
  0
VERTEX
  8
0
 62
6
 10
-1.97727884E+01
 20
8.74205001E+01
  0
VERTEX
  8
0
 62
6
 10
-1.98011113E+01
 20
8.75463155E+01
  0
VERTEX
  8
0
 62
6
 10
-1.98404611E+01
 20
8.76692211E+01
  0
VERTEX
  8
0
 62
6
 10
-1.98905383E+01
 20
8.77882816E+01
  0
VERTEX
  8
0
 62
6
 10
-1.99509619E+01
 20
8.79025908E+01
  0
VERTEX
  8
0
 62
6
 10
-2.00212719E+01
 20
8.80112788E+01
  0
VERTEX
  8
0
 62
6
 10
-2.01009333E+01
 20
8.81135183E+01
  0
VERTEX
  8
0
 62
6
 10
-2.01893398E+01
 20
8.82085314E+01
  0
VERTEX
  8
0
 62
6
 10
-2.02858186E+01
 20
8.82955948E+01
  0
VERTEX
  8
0
 62
6
 10
-2.03896353E+01
 20
8.83740459E+01
  0
VERTEX
  8
0
 62
6
 10
-2.05000000E+01
 20
8.84432878E+01
  0
VERTEX
  8
0
 62
6
 10
-2.06160726E+01
 20
8.85027934E+01
  0
VERTEX
  8
0
 62
6
 10
-2.07369698E+01
 20
8.85521099E+01
  0
VERTEX
  8
0
 62
6
 10
-2.08617714E+01
 20
8.85908619E+01
  0
VERTEX
  8
0
 62
6
 10
-2.09895277E+01
 20
8.86187545E+01
  0
VERTEX
  8
0
 62
6
 10
-2.11192664E+01
 20
8.86355754E+01
  0
VERTEX
  8
0
 62
6
 10
-2.12500000E+01
 20
8.86411966E+01
  0
VERTEX
  8
0
 62
6
 10
-2.13807336E+01
 20
8.86355754E+01
  0
VERTEX
  8
0
 62
6
 10
-2.15104723E+01
 20
8.86187545E+01
  0
VERTEX
  8
0
 62
6
 10
-2.16382286E+01
 20
8.85908619E+01
  0
VERTEX
  8
0
 62
6
 10
-2.17630302E+01
 20
8.85521099E+01
  0
VERTEX
  8
0
 62
6
 10
-2.18839274E+01
 20
8.85027934E+01
  0
VERTEX
  8
0
 62
6
 10
-2.20000000E+01
 20
8.84432878E+01
  0
VERTEX
  8
0
 62
6
 10
-2.21103647E+01
 20
8.83740459E+01
  0
VERTEX
  8
0
 62
6
 10
-2.22141814E+01
 20
8.82955948E+01
  0
VERTEX
  8
0
 62
6
 10
-2.23106602E+01
 20
8.82085314E+01
  0
VERTEX
  8
0
 62
6
 10
-2.23990667E+01
 20
8.81135183E+01
  0
VERTEX
  8
0
 62
6
 10
-2.24787281E+01
 20
8.80112788E+01
  0
VERTEX
  8
0
 62
6
 10
-2.25490381E+01
 20
8.79025908E+01
  0
VERTEX
  8
0
 62
6
 10
-2.26094617E+01
 20
8.77882816E+01
  0
VERTEX
  8
0
 62
6
 10
-2.26595389E+01
 20
8.76692211E+01
  0
VERTEX
  8
0
 62
6
 10
-2.26988887E+01
 20
8.75463155E+01
  0
VERTEX
  8
0
 62
6
 10
-2.27272116E+01
 20
8.74205001E+01
  0
VERTEX
  8
0
 62
6
 10
-2.27442920E+01
 20
8.72927325E+01
  0
VERTEX
  8
0
 62
6
 10
-2.27500000E+01
 20
8.71639850E+01
  0
VERTEX
  8
0
 62
6
 10
-2.27442920E+01
 20
8.70352375E+01
  0
VERTEX
  8
0
 62
6
 10
-2.27272116E+01
 20
8.69074699E+01
  0
VERTEX
  8
0
 62
6
 10
-2.26988887E+01
 20
8.67816545E+01
  0
VERTEX
  8
0
 62
6
 10
-2.26595389E+01
 20
8.66587489E+01
  0
VERTEX
  8
0
 62
6
 10
-2.26094617E+01
 20
8.65396884E+01
  0
VERTEX
  8
0
 62
6
 10
-2.25490381E+01
 20
8.64253792E+01
  0
VERTEX
  8
0
 62
6
 10
-2.24787281E+01
 20
8.63166912E+01
  0
VERTEX
  8
0
 62
6
 10
-2.23990667E+01
 20
8.62144517E+01
  0
VERTEX
  8
0
 62
6
 10
-2.23106602E+01
 20
8.61194386E+01
  0
VERTEX
  8
0
 62
6
 10
-2.22141814E+01
 20
8.60323752E+01
  0
VERTEX
  8
0
 62
6
 10
-2.21103647E+01
 20
8.59539241E+01
  0
VERTEX
  8
0
 62
6
 10
-2.20000000E+01
 20
8.58846822E+01
  0
VERTEX
  8
0
 62
6
 10
-2.18839274E+01
 20
8.58251766E+01
  0
VERTEX
  8
0
 62
6
 10
-2.17630302E+01
 20
8.57758601E+01
  0
VERTEX
  8
0
 62
6
 10
-2.16382286E+01
 20
8.57371081E+01
  0
VERTEX
  8
0
 62
6
 10
-2.15104723E+01
 20
8.57092155E+01
  0
VERTEX
  8
0
 62
6
 10
-2.13807336E+01
 20
8.56923946E+01
  0
VERTEX
  8
0
 62
6
 10
-2.12500000E+01
 20
8.56867734E+01
  0
VERTEX
  8
0
 62
6
 10
-2.11192664E+01
 20
8.56923946E+01
  0
VERTEX
  8
0
 62
6
 10
-2.09895277E+01
 20
8.57092155E+01
  0
VERTEX
  8
0
 62
6
 10
-2.08617714E+01
 20
8.57371081E+01
  0
VERTEX
  8
0
 62
6
 10
-2.07369698E+01
 20
8.57758601E+01
  0
VERTEX
  8
0
 62
6
 10
-2.06160726E+01
 20
8.58251766E+01
  0
VERTEX
  8
0
 62
6
 10
-2.05000000E+01
 20
8.58846822E+01
  0
VERTEX
  8
0
 62
6
 10
-2.03896353E+01
 20
8.59539241E+01
  0
VERTEX
  8
0
 62
6
 10
-2.02858186E+01
 20
8.60323752E+01
  0
VERTEX
  8
0
 62
6
 10
-2.01893398E+01
 20
8.61194386E+01
  0
VERTEX
  8
0
 62
6
 10
-2.01009333E+01
 20
8.62144517E+01
  0
VERTEX
  8
0
 62
6
 10
-2.00212719E+01
 20
8.63166912E+01
  0
VERTEX
  8
0
 62
6
 10
-1.99509619E+01
 20
8.64253792E+01
  0
VERTEX
  8
0
 62
6
 10
-1.98905383E+01
 20
8.65396884E+01
  0
VERTEX
  8
0
 62
6
 10
-1.98404611E+01
 20
8.66587489E+01
  0
VERTEX
  8
0
 62
6
 10
-1.98011113E+01
 20
8.67816545E+01
  0
VERTEX
  8
0
 62
6
 10
-1.97727884E+01
 20
8.69074699E+01
  0
VERTEX
  8
0
 62
6
 10
-1.97557080E+01
 20
8.70352375E+01
  0
VERTEX
  8
0
 62
6
 10
-1.97500000E+01
 20
8.71639850E+01
  0
SEQEND
  8
0
  0
LINE
  8
0
 62
4
 10
-1.92500000E+01
 20
8.71639850E+01
 11
-1.92500000E+01
 21
8.76996244E+01
  0
LINE
  8
0
 62
4
 10
-2.32500000E+01
 20
8.71639850E+01
 11
-2.32500000E+01
 21
8.76996244E+01
  0
POLYLINE
  8
0
 62
4
 66
1
  0
VERTEX
  8
0
 62
4
 10
-2.32500000E+01
 20
8.71639850E+01
  0
VERTEX
  8
0
 62
4
 10
-2.32423894E+01
 20
8.69923217E+01
  0
VERTEX
  8
0
 62
4
 10
-2.32196155E+01
 20
8.68219649E+01
  0
VERTEX
  8
0
 62
4
 10
-2.31818517E+01
 20
8.66542110E+01
  0
VERTEX
  8
0
 62
4
 10
-2.31293852E+01
 20
8.64903368E+01
  0
VERTEX
  8
0
 62
4
 10
-2.30626156E+01
 20
8.63315895E+01
  0
VERTEX
  8
0
 62
4
 10
-2.29820508E+01
 20
8.61791773E+01
  0
VERTEX
  8
0
 62
4
 10
-2.28883041E+01
 20
8.60342600E+01
  0
VERTEX
  8
0
 62
4
 10
-2.27820889E+01
 20
8.58979406E+01
  0
VERTEX
  8
0
 62
4
 10
-2.26642136E+01
 20
8.57712565E+01
  0
VERTEX
  8
0
 62
4
 10
-2.25355752E+01
 20
8.56551720E+01
  0
VERTEX
  8
0
 62
4
 10
-2.23971529E+01
 20
8.55505704E+01
  0
VERTEX
  8
0
 62
4
 10
-2.22500000E+01
 20
8.54582479E+01
  0
VERTEX
  8
0
 62
4
 10
-2.20952365E+01
 20
8.53789071E+01
  0
VERTEX
  8
0
 62
4
 10
-2.19340403E+01
 20
8.53131518E+01
  0
VERTEX
  8
0
 62
4
 10
-2.17676381E+01
 20
8.52614825E+01
  0
VERTEX
  8
0
 62
4
 10
-2.15972964E+01
 20
8.52242924E+01
  0
VERTEX
  8
0
 62
4
 10
-2.14243115E+01
 20
8.52018645E+01
  0
VERTEX
  8
0
 62
4
 10
-2.12500000E+01
 20
8.51943695E+01
  0
VERTEX
  8
0
 62
4
 10
-2.10756885E+01
 20
8.52018645E+01
  0
VERTEX
  8
0
 62
4
 10
-2.09027037E+01
 20
8.52242924E+01
  0
VERTEX
  8
0
 62
4
 10
-2.07323619E+01
 20
8.52614825E+01
  0
VERTEX
  8
0
 62
4
 10
-2.05659597E+01
 20
8.53131518E+01
  0
VERTEX
  8
0
 62
4
 10
-2.04047635E+01
 20
8.53789071E+01
  0
VERTEX
  8
0
 62
4
 10
-2.02500000E+01
 20
8.54582479E+01
  0
VERTEX
  8
0
 62
4
 10
-2.01028471E+01
 20
8.55505704E+01
  0
VERTEX
  8
0
 62
4
 10
-1.99644248E+01
 20
8.56551720E+01
  0
VERTEX
  8
0
 62
4
 10
-1.98357864E+01
 20
8.57712565E+01
  0
VERTEX
  8
0
 62
4
 10
-1.97179111E+01
 20
8.58979406E+01
  0
VERTEX
  8
0
 62
4
 10
-1.96116959E+01
 20
8.60342600E+01
  0
VERTEX
  8
0
 62
4
 10
-1.95179492E+01
 20
8.61791772E+01
  0
VERTEX
  8
0
 62
4
 10
-1.94373844E+01
 20
8.63315895E+01
  0
VERTEX
  8
0
 62
4
 10
-1.93706148E+01
 20
8.64903368E+01
  0
VERTEX
  8
0
 62
4
 10
-1.93181483E+01
 20
8.66542110E+01
  0
VERTEX
  8
0
 62
4
 10
-1.92803845E+01
 20
8.68219649E+01
  0
VERTEX
  8
0
 62
4
 10
-1.92576106E+01
 20
8.69923217E+01
  0
VERTEX
  8
0
 62
4
 10
-1.92500000E+01
 20
8.71639850E+01
  0
VERTEX
  8
0
 62
4
 10
-1.92576106E+01
 20
8.73356483E+01
  0
VERTEX
  8
0
 62
4
 10
-1.92803845E+01
 20
8.75060051E+01
  0
VERTEX
  8
0
 62
4
 10
-1.93181483E+01
 20
8.76737590E+01
  0
VERTEX
  8
0
 62
4
 10
-1.93706148E+01
 20
8.78376332E+01
  0
VERTEX
  8
0
 62
4
 10
-1.94373844E+01
 20
8.79963805E+01
  0
VERTEX
  8
0
 62
4
 10
-1.95179492E+01
 20
8.81487928E+01
  0
VERTEX
  8
0
 62
4
 10
-1.96116959E+01
 20
8.82937100E+01
  0
VERTEX
  8
0
 62
4
 10
-1.97179111E+01
 20
8.84300294E+01
  0
VERTEX
  8
0
 62
4
 10
-1.98357864E+01
 20
8.85567135E+01
  0
VERTEX
  8
0
 62
4
 10
-1.99644248E+01
 20
8.86727980E+01
  0
VERTEX
  8
0
 62
4
 10
-2.01028471E+01
 20
8.87773996E+01
  0
VERTEX
  8
0
 62
4
 10
-2.02500000E+01
 20
8.88697221E+01
  0
VERTEX
  8
0
 62
4
 10
-2.04047635E+01
 20
8.89490629E+01
  0
VERTEX
  8
0
 62
4
 10
-2.05659597E+01
 20
8.90148182E+01
  0
VERTEX
  8
0
 62
4
 10
-2.07323619E+01
 20
8.90664875E+01
  0
VERTEX
  8
0
 62
4
 10
-2.09027036E+01
 20
8.91036776E+01
  0
VERTEX
  8
0
 62
4
 10
-2.10756885E+01
 20
8.91261055E+01
  0
VERTEX
  8
0
 62
4
 10
-2.12500000E+01
 20
8.91336005E+01
  0
VERTEX
  8
0
 62
4
 10
-2.14243115E+01
 20
8.91261055E+01
  0
VERTEX
  8
0
 62
4
 10
-2.15972964E+01
 20
8.91036776E+01
  0
VERTEX
  8
0
 62
4
 10
-2.17676381E+01
 20
8.90664875E+01
  0
VERTEX
  8
0
 62
4
 10
-2.19340403E+01
 20
8.90148182E+01
  0
VERTEX
  8
0
 62
4
 10
-2.20952365E+01
 20
8.89490629E+01
  0
VERTEX
  8
0
 62
4
 10
-2.22500000E+01
 20
8.88697221E+01
  0
VERTEX
  8
0
 62
4
 10
-2.23971529E+01
 20
8.87773996E+01
  0
VERTEX
  8
0
 62
4
 10
-2.25355752E+01
 20
8.86727980E+01
  0
VERTEX
  8
0
 62
4
 10
-2.26642136E+01
 20
8.85567135E+01
  0
VERTEX
  8
0
 62
4
 10
-2.27820889E+01
 20
8.84300294E+01
  0
VERTEX
  8
0
 62
4
 10
-2.28883041E+01
 20
8.82937100E+01
  0
VERTEX
  8
0
 62
4
 10
-2.29820508E+01
 20
8.81487928E+01
  0
VERTEX
  8
0
 62
4
 10
-2.30626156E+01
 20
8.79963805E+01
  0
VERTEX
  8
0
 62
4
 10
-2.31293852E+01
 20
8.78376332E+01
  0
VERTEX
  8
0
 62
4
 10
-2.31818517E+01
 20
8.76737590E+01
  0
VERTEX
  8
0
 62
4
 10
-2.32196155E+01
 20
8.75060051E+01
  0
VERTEX
  8
0
 62
4
 10
-2.32423894E+01
 20
8.73356483E+01
  0
VERTEX
  8
0
 62
4
 10
-2.32500000E+01
 20
8.71639850E+01
  0
SEQEND
  8
0
  0
POLYLINE
  8
0
 62
4
 66
1
  0
VERTEX
  8
0
 62
4
 10
-1.92500000E+01
 20
8.76996244E+01
  0
VERTEX
  8
0
 62
4
 10
-1.92580514E+01
 20
8.78761794E+01
  0
VERTEX
  8
0
 62
4
 10
-1.92821408E+01
 20
8.80513128E+01
  0
VERTEX
  8
0
 62
4
 10
-1.93220743E+01
 20
8.82236147E+01
  0
VERTEX
  8
0
 62
4
 10
-1.93775303E+01
 20
8.83916977E+01
  0
VERTEX
  8
0
 62
4
 10
-1.94480623E+01
 20
8.85542085E+01
  0
VERTEX
  8
0
 62
4
 10
-1.95331024E+01
 20
8.87098388E+01
  0
VERTEX
  8
0
 62
4
 10
-1.96319660E+01
 20
8.88573353E+01
  0
VERTEX
  8
0
 62
4
 10
-1.97438571E+01
 20
8.89955107E+01
  0
VERTEX
  8
0
 62
4
 10
-1.98678747E+01
 20
8.91232524E+01
  0
VERTEX
  8
0
 62
4
 10
-2.00030204E+01
 20
8.92395318E+01
  0
VERTEX
  8
0
 62
4
 10
-2.01482060E+01
 20
8.93434128E+01
  0
VERTEX
  8
0
 62
4
 10
-2.03022627E+01
 20
8.94340590E+01
  0
VERTEX
  8
0
 62
4
 10
-2.04639499E+01
 20
8.95107406E+01
  0
VERTEX
  8
0
 62
4
 10
-2.06319660E+01
 20
8.95728401E+01
  0
VERTEX
  8
0
 62
4
 10
-2.08049581E+01
 20
8.96198575E+01
  0
VERTEX
  8
0
 62
4
 10
-2.09815335E+01
 20
8.96514144E+01
  0
VERTEX
  8
0
 62
4
 10
-2.11602703E+01
 20
8.96672566E+01
  0
VERTEX
  8
0
 62
4
 10
-2.13397296E+01
 20
8.96672566E+01
  0
VERTEX
  8
0
 62
4
 10
-2.15184665E+01
 20
8.96514144E+01
  0
VERTEX
  8
0
 62
4
 10
-2.16950419E+01
 20
8.96198575E+01
  0
VERTEX
  8
0
 62
4
 10
-2.18680340E+01
 20
8.95728401E+01
  0
VERTEX
  8
0
 62
4
 10
-2.20360500E+01
 20
8.95107406E+01
  0
VERTEX
  8
0
 62
4
 10
-2.21977373E+01
 20
8.94340590E+01
  0
VERTEX
  8
0
 62
4
 10
-2.23517939E+01
 20
8.93434128E+01
  0
VERTEX
  8
0
 62
4
 10
-2.24969796E+01
 20
8.92395318E+01
  0
VERTEX
  8
0
 62
4
 10
-2.26321253E+01
 20
8.91232524E+01
  0
VERTEX
  8
0
 62
4
 10
-2.27561429E+01
 20
8.89955107E+01
  0
VERTEX
  8
0
 62
4
 10
-2.28680340E+01
 20
8.88573354E+01
  0
VERTEX
  8
0
 62
4
 10
-2.29668976E+01
 20
8.87098388E+01
  0
VERTEX
  8
0
 62
4
 10
-2.30519377E+01
 20
8.85542086E+01
  0
VERTEX
  8
0
 62
4
 10
-2.31224697E+01
 20
8.83916977E+01
  0
VERTEX
  8
0
 62
4
 10
-2.31779257E+01
 20
8.82236147E+01
  0
VERTEX
  8
0
 62
4
 10
-2.32178592E+01
 20
8.80513128E+01
  0
VERTEX
  8
0
 62
4
 10
-2.32419486E+01
 20
8.78761794E+01
  0
VERTEX
  8
0
 62
4
 10
-2.32500000E+01
 20
8.76996244E+01
  0
SEQEND
  8
0
  0
LINE
  8
0
 62
4
 10
-8.37500000E+01
 20
1.11875902E+02
 11
-5.37500000E+01
 21
1.11875902E+02
  0
LINE
  8
0
 62
4
 10
-8.37500000E+01
 20
9.61189784E+01
 11
-5.37500000E+01
 21
9.61189784E+01
  0
LINE
  8
0
 62
4
 10
-8.37500000E+01
 20
9.71037861E+01
 11
-5.37500000E+01
 21
9.71037861E+01
  0
LINE
  8
0
 62
4
 10
-8.37500000E+01
 20
1.01176228E+02
 11
-8.52500000E+01
 21
1.00168371E+02
  0
LINE
  8
0
 62
4
 10
-8.52500000E+01
 20
1.00168371E+02
 11
-8.52500000E+01
 21
9.75444682E+01
  0
LINE
  8
0
 62
4
 10
-8.52500000E+01
 20
9.79377813E+01
 11
-8.37500000E+01
 21
9.72369965E+01
  0
LINE
  8
0
 62
4
 10
-8.52500000E+01
 20
9.75444682E+01
 11
-8.37500000E+01
 21
9.65424038E+01
  0
LINE
  8
0
 62
4
 10
-8.37500000E+01
 20
1.01176228E+02
 11
-7.16872448E+01
 21
1.01176228E+02
  0
LINE
  8
0
 62
4
 10
-8.37500000E+01
 20
9.72369965E+01
 11
-6.02500000E+01
 21
9.72369965E+01
  0
LINE
  8
0
 62
4
 10
-8.37500000E+01
 20
1.01633902E+02
 11
-7.20871230E+01
 21
1.01633902E+02
  0
LINE
  8
0
 62
4
 10
-8.37500000E+01
 20
1.01176228E+02
 11
-8.37500000E+01
 21
9.71037861E+01
  0
LINE
  8
0
 62
4
 10
-8.37500000E+01
 20
9.71037861E+01
 11
-8.37500000E+01
 21
9.53694494E+01
  0
ARC
  8
0
 62
4
 10
-1.92431469E+02
 20
-2.51934850E+01
 40
1.86971513E+02
 50
4.46782203E+01
 51
4.61988768E+01
  0
ARC
  8
0
 62
4
 10
6.99314687E+01
 20
-2.51934850E+01
 40
1.86971513E+02
 50
1.33801123E+02
 51
1.35321779E+02
  0
LINE
  8
0
 62
4
 10
-5.78500000E+01
 20
1.07617916E+02
 11
-5.78500000E+01
 21
1.07814278E+02
  0
POLYLINE
  8
0
 62
4
 66
1
  0
VERTEX
  8
0
 62
4
 10
-6.46500000E+01
 20
1.07814278E+02
  0
VERTEX
  8
0
 62
4
 10
-6.46370620E+01
 20
1.07522450E+02
  0
VERTEX
  8
0
 62
4
 10
-6.45983464E+01
 20
1.07232844E+02
  0
VERTEX
  8
0
 62
4
 10
-6.45341478E+01
 20
1.06947662E+02
  0
VERTEX
  8
0
 62
4
 10
-6.44449549E+01
 20
1.06669076E+02
  0
VERTEX
  8
0
 62
4
 10
-6.43314465E+01
 20
1.06399206E+02
  0
VERTEX
  8
0
 62
4
 10
-6.41944864E+01
 20
1.06140105E+02
  0
VERTEX
  8
0
 62
4
 10
-6.40351170E+01
 20
1.05893745E+02
  0
VERTEX
  8
0
 62
4
 10
-6.38545511E+01
 20
1.05662002E+02
  0
VERTEX
  8
0
 62
4
 10
-6.36541631E+01
 20
1.05446639E+02
  0
VERTEX
  8
0
 62
4
 10
-6.34354779E+01
 20
1.05249296E+02
  0
VERTEX
  8
0
 62
4
 10
-6.32001599E+01
 20
1.05071473E+02
  0
VERTEX
  8
0
 62
4
 10
-6.29500000E+01
 20
1.04914525E+02
  0
VERTEX
  8
0
 62
4
 10
-6.26869021E+01
 20
1.04779645E+02
  0
VERTEX
  8
0
 62
4
 10
-6.24128685E+01
 20
1.04667861E+02
  0
VERTEX
  8
0
 62
4
 10
-6.21299848E+01
 20
1.04580023E+02
  0
VERTEX
  8
0
 62
4
 10
-6.18404038E+01
 20
1.04516800E+02
  0
VERTEX
  8
0
 62
4
 10
-6.15463295E+01
 20
1.04478673E+02
  0
VERTEX
  8
0
 62
4
 10
-6.12500000E+01
 20
1.04465931E+02
  0
VERTEX
  8
0
 62
4
 10
-6.09536705E+01
 20
1.04478673E+02
  0
VERTEX
  8
0
 62
4
 10
-6.06595962E+01
 20
1.04516800E+02
  0
VERTEX
  8
0
 62
4
 10
-6.03700152E+01
 20
1.04580023E+02
  0
VERTEX
  8
0
 62
4
 10
-6.00871315E+01
 20
1.04667861E+02
  0
VERTEX
  8
0
 62
4
 10
-5.98130979E+01
 20
1.04779645E+02
  0
VERTEX
  8
0
 62
4
 10
-5.95500000E+01
 20
1.04914525E+02
  0
VERTEX
  8
0
 62
4
 10
-5.92998401E+01
 20
1.05071473E+02
  0
VERTEX
  8
0
 62
4
 10
-5.90645221E+01
 20
1.05249296E+02
  0
VERTEX
  8
0
 62
4
 10
-5.88458369E+01
 20
1.05446639E+02
  0
VERTEX
  8
0
 62
4
 10
-5.86454489E+01
 20
1.05662002E+02
  0
VERTEX
  8
0
 62
4
 10
-5.84648830E+01
 20
1.05893745E+02
  0
VERTEX
  8
0
 62
4
 10
-5.83055136E+01
 20
1.06140105E+02
  0
VERTEX
  8
0
 62
4
 10
-5.81685535E+01
 20
1.06399206E+02
  0
VERTEX
  8
0
 62
4
 10
-5.80550451E+01
 20
1.06669076E+02
  0
VERTEX
  8
0
 62
4
 10
-5.79658522E+01
 20
1.06947662E+02
  0
VERTEX
  8
0
 62
4
 10
-5.79016536E+01
 20
1.07232844E+02
  0
VERTEX
  8
0
 62
4
 10
-5.78629380E+01
 20
1.07522450E+02
  0
VERTEX
  8
0
 62
4
 10
-5.78500000E+01
 20
1.07814278E+02
  0
VERTEX
  8
0
 62
4
 10
-5.78629380E+01
 20
1.08106106E+02
  0
VERTEX
  8
0
 62
4
 10
-5.79016536E+01
 20
1.08395712E+02
  0
VERTEX
  8
0
 62
4
 10
-5.79658522E+01
 20
1.08680894E+02
  0
VERTEX
  8
0
 62
4
 10
-5.80550451E+01
 20
1.08959480E+02
  0
VERTEX
  8
0
 62
4
 10
-5.81685535E+01
 20
1.09229350E+02
  0
VERTEX
  8
0
 62
4
 10
-5.83055136E+01
 20
1.09488451E+02
  0
VERTEX
  8
0
 62
4
 10
-5.84648830E+01
 20
1.09734811E+02
  0
VERTEX
  8
0
 62
4
 10
-5.86454489E+01
 20
1.09966554E+02
  0
VERTEX
  8
0
 62
4
 10
-5.88458369E+01
 20
1.10181917E+02
  0
VERTEX
  8
0
 62
4
 10
-5.90645221E+01
 20
1.10379260E+02
  0
VERTEX
  8
0
 62
4
 10
-5.92998401E+01
 20
1.10557083E+02
  0
VERTEX
  8
0
 62
4
 10
-5.95500000E+01
 20
1.10714031E+02
  0
VERTEX
  8
0
 62
4
 10
-5.98130979E+01
 20
1.10848911E+02
  0
VERTEX
  8
0
 62
4
 10
-6.00871315E+01
 20
1.10960695E+02
  0
VERTEX
  8
0
 62
4
 10
-6.03700152E+01
 20
1.11048533E+02
  0
VERTEX
  8
0
 62
4
 10
-6.06595962E+01
 20
1.11111756E+02
  0
VERTEX
  8
0
 62
4
 10
-6.09536705E+01
 20
1.11149883E+02
  0
VERTEX
  8
0
 62
4
 10
-6.12500000E+01
 20
1.11162625E+02
  0
VERTEX
  8
0
 62
4
 10
-6.15463295E+01
 20
1.11149883E+02
  0
VERTEX
  8
0
 62
4
 10
-6.18404038E+01
 20
1.11111756E+02
  0
VERTEX
  8
0
 62
4
 10
-6.21299848E+01
 20
1.11048533E+02
  0
VERTEX
  8
0
 62
4
 10
-6.24128685E+01
 20
1.10960695E+02
  0
VERTEX
  8
0
 62
4
 10
-6.26869021E+01
 20
1.10848911E+02
  0
VERTEX
  8
0
 62
4
 10
-6.29500000E+01
 20
1.10714031E+02
  0
VERTEX
  8
0
 62
4
 10
-6.32001599E+01
 20
1.10557083E+02
  0
VERTEX
  8
0
 62
4
 10
-6.34354779E+01
 20
1.10379260E+02
  0
VERTEX
  8
0
 62
4
 10
-6.36541631E+01
 20
1.10181917E+02
  0
VERTEX
  8
0
 62
4
 10
-6.38545511E+01
 20
1.09966554E+02
  0
VERTEX
  8
0
 62
4
 10
-6.40351170E+01
 20
1.09734811E+02
  0
VERTEX
  8
0
 62
4
 10
-6.41944864E+01
 20
1.09488451E+02
  0
VERTEX
  8
0
 62
4
 10
-6.43314465E+01
 20
1.09229350E+02
  0
VERTEX
  8
0
 62
4
 10
-6.44449549E+01
 20
1.08959480E+02
  0
VERTEX
  8
0
 62
4
 10
-6.45341478E+01
 20
1.08680894E+02
  0
VERTEX
  8
0
 62
4
 10
-6.45983464E+01
 20
1.08395712E+02
  0
VERTEX
  8
0
 62
4
 10
-6.46370620E+01
 20
1.08106106E+02
  0
VERTEX
  8
0
 62
4
 10
-6.46500000E+01
 20
1.07814278E+02
  0
SEQEND
  8
0
  0
POLYLINE
  8
0
 62
4
 66
1
  0
VERTEX
  8
0
 62
4
 10
-6.46500000E+01
 20
1.07617916E+02
  0
VERTEX
  8
0
 62
4
 10
-6.46363126E+01
 20
1.07317773E+02
  0
VERTEX
  8
0
 62
4
 10
-6.45953606E+01
 20
1.07020046E+02
  0
VERTEX
  8
0
 62
4
 10
-6.45274738E+01
 20
1.06727133E+02
  0
VERTEX
  8
0
 62
4
 10
-6.44331986E+01
 20
1.06441391E+02
  0
VERTEX
  8
0
 62
4
 10
-6.43132942E+01
 20
1.06165123E+02
  0
VERTEX
  8
0
 62
4
 10
-6.41687259E+01
 20
1.05900552E+02
  0
VERTEX
  8
0
 62
4
 10
-6.40006578E+01
 20
1.05649807E+02
  0
VERTEX
  8
0
 62
4
 10
-6.38104430E+01
 20
1.05414909E+02
  0
VERTEX
  8
0
 62
4
 10
-6.35996130E+01
 20
1.05197748E+02
  0
VERTEX
  8
0
 62
4
 10
-6.33698654E+01
 20
1.05000073E+02
  0
VERTEX
  8
0
 62
4
 10
-6.31230498E+01
 20
1.04823476E+02
  0
VERTEX
  8
0
 62
4
 10
-6.28611535E+01
 20
1.04669377E+02
  0
VERTEX
  8
0
 62
4
 10
-6.25862851E+01
 20
1.04539019E+02
  0
VERTEX
  8
0
 62
4
 10
-6.23006578E+01
 20
1.04433449E+02
  0
VERTEX
  8
0
 62
4
 10
-6.20065712E+01
 20
1.04353520E+02
  0
VERTEX
  8
0
 62
4
 10
-6.17063931E+01
 20
1.04299873E+02
  0
VERTEX
  8
0
 62
4
 10
-6.14025404E+01
 20
1.04272941E+02
  0
VERTEX
  8
0
 62
4
 10
-6.10974596E+01
 20
1.04272941E+02
  0
VERTEX
  8
0
 62
4
 10
-6.07936069E+01
 20
1.04299873E+02
  0
VERTEX
  8
0
 62
4
 10
-6.04934288E+01
 20
1.04353520E+02
  0
VERTEX
  8
0
 62
4
 10
-6.01993422E+01
 20
1.04433449E+02
  0
VERTEX
  8
0
 62
4
 10
-5.99137149E+01
 20
1.04539019E+02
  0
VERTEX
  8
0
 62
4
 10
-5.96388466E+01
 20
1.04669377E+02
  0
VERTEX
  8
0
 62
4
 10
-5.93769503E+01
 20
1.04823476E+02
  0
VERTEX
  8
0
 62
4
 10
-5.91301347E+01
 20
1.05000073E+02
  0
VERTEX
  8
0
 62
4
 10
-5.89003870E+01
 20
1.05197748E+02
  0
VERTEX
  8
0
 62
4
 10
-5.86895570E+01
 20
1.05414909E+02
  0
VERTEX
  8
0
 62
4
 10
-5.84993422E+01
 20
1.05649807E+02
  0
VERTEX
  8
0
 62
4
 10
-5.83312741E+01
 20
1.05900552E+02
  0
VERTEX
  8
0
 62
4
 10
-5.81867058E+01
 20
1.06165123E+02
  0
VERTEX
  8
0
 62
4
 10
-5.80668014E+01
 20
1.06441391E+02
  0
VERTEX
  8
0
 62
4
 10
-5.79725263E+01
 20
1.06727132E+02
  0
VERTEX
  8
0
 62
4
 10
-5.79046394E+01
 20
1.07020046E+02
  0
VERTEX
  8
0
 62
4
 10
-5.78636874E+01
 20
1.07317773E+02
  0
VERTEX
  8
0
 62
4
 10
-5.78500000E+01
 20
1.07617916E+02
  0
SEQEND
  8
0
  0
LINE
  8
0
 62
4
 10
-6.46500000E+01
 20
1.07617916E+02
 11
-6.46500000E+01
 21
1.07814278E+02
  0
LINE
  8
0
 62
4
 10
-5.74500000E+01
 20
1.07444268E+02
 11
-5.74500000E+01
 21
1.07617916E+02
  0
POLYLINE
  8
0
 62
4
 66
1
  0
VERTEX
  8
0
 62
4
 10
-6.50500000E+01
 20
1.07617916E+02
  0
VERTEX
  8
0
 62
4
 10
-6.50355399E+01
 20
1.07291756E+02
  0
VERTEX
  8
0
 62
4
 10
-6.49922695E+01
 20
1.06968078E+02
  0
VERTEX
  8
0
 62
4
 10
-6.49205182E+01
 20
1.06649345E+02
  0
VERTEX
  8
0
 62
4
 10
-6.48208320E+01
 20
1.06337984E+02
  0
VERTEX
  8
0
 62
4
 10
-6.46939696E+01
 20
1.06036365E+02
  0
VERTEX
  8
0
 62
4
 10
-6.45408966E+01
 20
1.05746781E+02
  0
VERTEX
  8
0
 62
4
 10
-6.43627778E+01
 20
1.05471438E+02
  0
VERTEX
  8
0
 62
4
 10
-6.41609689E+01
 20
1.05212432E+02
  0
VERTEX
  8
0
 62
4
 10
-6.39370058E+01
 20
1.04971732E+02
  0
VERTEX
  8
0
 62
4
 10
-6.36925929E+01
 20
1.04751171E+02
  0
VERTEX
  8
0
 62
4
 10
-6.34295905E+01
 20
1.04552428E+02
  0
VERTEX
  8
0
 62
4
 10
-6.31500000E+01
 20
1.04377016E+02
  0
VERTEX
  8
0
 62
4
 10
-6.28559494E+01
 20
1.04226268E+02
  0
VERTEX
  8
0
 62
4
 10
-6.25496766E+01
 20
1.04101333E+02
  0
VERTEX
  8
0
 62
4
 10
-6.22335124E+01
 20
1.04003161E+02
  0
VERTEX
  8
0
 62
4
 10
-6.19098631E+01
 20
1.03932500E+02
  0
VERTEX
  8
0
 62
4
 10
-6.15811918E+01
 20
1.03889887E+02
  0
VERTEX
  8
0
 62
4
 10
-6.12500000E+01
 20
1.03875647E+02
  0
VERTEX
  8
0
 62
4
 10
-6.09188082E+01
 20
1.03889887E+02
  0
VERTEX
  8
0
 62
4
 10
-6.05901369E+01
 20
1.03932500E+02
  0
VERTEX
  8
0
 62
4
 10
-6.02664876E+01
 20
1.04003161E+02
  0
VERTEX
  8
0
 62
4
 10
-5.99503235E+01
 20
1.04101333E+02
  0
VERTEX
  8
0
 62
4
 10
-5.96440506E+01
 20
1.04226268E+02
  0
VERTEX
  8
0
 62
4
 10
-5.93500000E+01
 20
1.04377016E+02
  0
VERTEX
  8
0
 62
4
 10
-5.90704095E+01
 20
1.04552428E+02
  0
VERTEX
  8
0
 62
4
 10
-5.88074071E+01
 20
1.04751171E+02
  0
VERTEX
  8
0
 62
4
 10
-5.85629942E+01
 20
1.04971732E+02
  0
VERTEX
  8
0
 62
4
 10
-5.83390311E+01
 20
1.05212432E+02
  0
VERTEX
  8
0
 62
4
 10
-5.81372222E+01
 20
1.05471438E+02
  0
VERTEX
  8
0
 62
4
 10
-5.79591034E+01
 20
1.05746781E+02
  0
VERTEX
  8
0
 62
4
 10
-5.78060304E+01
 20
1.06036365E+02
  0
VERTEX
  8
0
 62
4
 10
-5.76791680E+01
 20
1.06337984E+02
  0
VERTEX
  8
0
 62
4
 10
-5.75794818E+01
 20
1.06649345E+02
  0
VERTEX
  8
0
 62
4
 10
-5.75077305E+01
 20
1.06968078E+02
  0
VERTEX
  8
0
 62
4
 10
-5.74644601E+01
 20
1.07291756E+02
  0
VERTEX
  8
0
 62
4
 10
-5.74500000E+01
 20
1.07617916E+02
  0
VERTEX
  8
0
 62
4
 10
-5.74644601E+01
 20
1.07944076E+02
  0
VERTEX
  8
0
 62
4
 10
-5.75077305E+01
 20
1.08267754E+02
  0
VERTEX
  8
0
 62
4
 10
-5.75794818E+01
 20
1.08586487E+02
  0
VERTEX
  8
0
 62
4
 10
-5.76791680E+01
 20
1.08897848E+02
  0
VERTEX
  8
0
 62
4
 10
-5.78060304E+01
 20
1.09199467E+02
  0
VERTEX
  8
0
 62
4
 10
-5.79591034E+01
 20
1.09489051E+02
  0
VERTEX
  8
0
 62
4
 10
-5.81372222E+01
 20
1.09764394E+02
  0
VERTEX
  8
0
 62
4
 10
-5.83390311E+01
 20
1.10023400E+02
  0
VERTEX
  8
0
 62
4
 10
-5.85629942E+01
 20
1.10264100E+02
  0
VERTEX
  8
0
 62
4
 10
-5.88074071E+01
 20
1.10484661E+02
  0
VERTEX
  8
0
 62
4
 10
-5.90704095E+01
 20
1.10683404E+02
  0
VERTEX
  8
0
 62
4
 10
-5.93500000E+01
 20
1.10858816E+02
  0
VERTEX
  8
0
 62
4
 10
-5.96440506E+01
 20
1.11009564E+02
  0
VERTEX
  8
0
 62
4
 10
-5.99503234E+01
 20
1.11134499E+02
  0
VERTEX
  8
0
 62
4
 10
-6.02664876E+01
 20
1.11232671E+02
  0
VERTEX
  8
0
 62
4
 10
-6.05901369E+01
 20
1.11303332E+02
  0
VERTEX
  8
0
 62
4
 10
-6.09188082E+01
 20
1.11345945E+02
  0
VERTEX
  8
0
 62
4
 10
-6.12500000E+01
 20
1.11360185E+02
  0
VERTEX
  8
0
 62
4
 10
-6.15811918E+01
 20
1.11345945E+02
  0
VERTEX
  8
0
 62
4
 10
-6.19098631E+01
 20
1.11303332E+02
  0
VERTEX
  8
0
 62
4
 10
-6.22335124E+01
 20
1.11232671E+02
  0
VERTEX
  8
0
 62
4
 10
-6.25496766E+01
 20
1.11134499E+02
  0
VERTEX
  8
0
 62
4
 10
-6.28559494E+01
 20
1.11009564E+02
  0
VERTEX
  8
0
 62
4
 10
-6.31500000E+01
 20
1.10858816E+02
  0
VERTEX
  8
0
 62
4
 10
-6.34295905E+01
 20
1.10683404E+02
  0
VERTEX
  8
0
 62
4
 10
-6.36925929E+01
 20
1.10484661E+02
  0
VERTEX
  8
0
 62
4
 10
-6.39370058E+01
 20
1.10264100E+02
  0
VERTEX
  8
0
 62
4
 10
-6.41609689E+01
 20
1.10023400E+02
  0
VERTEX
  8
0
 62
4
 10
-6.43627778E+01
 20
1.09764394E+02
  0
VERTEX
  8
0
 62
4
 10
-6.45408966E+01
 20
1.09489051E+02
  0
VERTEX
  8
0
 62
4
 10
-6.46939696E+01
 20
1.09199467E+02
  0
VERTEX
  8
0
 62
4
 10
-6.48208320E+01
 20
1.08897848E+02
  0
VERTEX
  8
0
 62
4
 10
-6.49205182E+01
 20
1.08586487E+02
  0
VERTEX
  8
0
 62
4
 10
-6.49922695E+01
 20
1.08267754E+02
  0
VERTEX
  8
0
 62
4
 10
-6.50355399E+01
 20
1.07944076E+02
  0
VERTEX
  8
0
 62
4
 10
-6.50500000E+01
 20
1.07617916E+02
  0
SEQEND
  8
0
  0
POLYLINE
  8
0
 62
4
 66
1
  0
VERTEX
  8
0
 62
4
 10
-6.50500000E+01
 20
1.07444268E+02
  0
VERTEX
  8
0
 62
4
 10
-6.50347023E+01
 20
1.07108814E+02
  0
VERTEX
  8
0
 62
4
 10
-6.49889325E+01
 20
1.06776060E+02
  0
VERTEX
  8
0
 62
4
 10
-6.49130589E+01
 20
1.06448686E+02
  0
VERTEX
  8
0
 62
4
 10
-6.48076925E+01
 20
1.06129329E+02
  0
VERTEX
  8
0
 62
4
 10
-6.46736817E+01
 20
1.05820558E+02
  0
VERTEX
  8
0
 62
4
 10
-6.45121054E+01
 20
1.05524861E+02
  0
VERTEX
  8
0
 62
4
 10
-6.43242646E+01
 20
1.05244617E+02
  0
VERTEX
  8
0
 62
4
 10
-6.41116716E+01
 20
1.04982084E+02
  0
VERTEX
  8
0
 62
4
 10
-6.38760381E+01
 20
1.04739375E+02
  0
VERTEX
  8
0
 62
4
 10
-6.36192613E+01
 20
1.04518444E+02
  0
VERTEX
  8
0
 62
4
 10
-6.33434086E+01
 20
1.04321070E+02
  0
VERTEX
  8
0
 62
4
 10
-6.30507009E+01
 20
1.04148842E+02
  0
VERTEX
  8
0
 62
4
 10
-6.27434951E+01
 20
1.04003147E+02
  0
VERTEX
  8
0
 62
4
 10
-6.24242646E+01
 20
1.03885158E+02
  0
VERTEX
  8
0
 62
4
 10
-6.20955796E+01
 20
1.03795825E+02
  0
VERTEX
  8
0
 62
4
 10
-6.17600864E+01
 20
1.03735867E+02
  0
VERTEX
  8
0
 62
4
 10
-6.14204864E+01
 20
1.03705767E+02
  0
VERTEX
  8
0
 62
4
 10
-6.10795137E+01
 20
1.03705767E+02
  0
VERTEX
  8
0
 62
4
 10
-6.07399136E+01
 20
1.03735867E+02
  0
VERTEX
  8
0
 62
4
 10
-6.04044205E+01
 20
1.03795825E+02
  0
VERTEX
  8
0
 62
4
 10
-6.00757354E+01
 20
1.03885158E+02
  0
VERTEX
  8
0
 62
4
 10
-5.97565049E+01
 20
1.04003147E+02
  0
VERTEX
  8
0
 62
4
 10
-5.94492991E+01
 20
1.04148842E+02
  0
VERTEX
  8
0
 62
4
 10
-5.91565915E+01
 20
1.04321070E+02
  0
VERTEX
  8
0
 62
4
 10
-5.88807388E+01
 20
1.04518444E+02
  0
VERTEX
  8
0
 62
4
 10
-5.86239619E+01
 20
1.04739375E+02
  0
VERTEX
  8
0
 62
4
 10
-5.83883284E+01
 20
1.04982084E+02
  0
VERTEX
  8
0
 62
4
 10
-5.81757354E+01
 20
1.05244617E+02
  0
VERTEX
  8
0
 62
4
 10
-5.79878946E+01
 20
1.05524861E+02
  0
VERTEX
  8
0
 62
4
 10
-5.78263183E+01
 20
1.05820558E+02
  0
VERTEX
  8
0
 62
4
 10
-5.76923075E+01
 20
1.06129329E+02
  0
VERTEX
  8
0
 62
4
 10
-5.75869411E+01
 20
1.06448686E+02
  0
VERTEX
  8
0
 62
4
 10
-5.75110675E+01
 20
1.06776060E+02
  0
VERTEX
  8
0
 62
4
 10
-5.74652977E+01
 20
1.07108814E+02
  0
VERTEX
  8
0
 62
4
 10
-5.74500000E+01
 20
1.07444268E+02
  0
SEQEND
  8
0
  0
LINE
  8
0
 62
4
 10
-6.50500000E+01
 20
1.07444268E+02
 11
-6.50500000E+01
 21
1.07617916E+02
  0
ARC
  8
0
 62
4
 10
-2.01122535E+02
 20
-2.99301524E+01
 40
1.88657692E+02
 50
4.46816411E+01
 51
4.61887918E+01
  0
ARC
  8
0
 62
4
 10
6.36228232E+01
 20
-2.99304455E+01
 40
1.88658103E+02
 50
1.33811210E+02
 51
1.35318357E+02
  0
LINE
  8
0
 62
4
 10
-6.46000000E+01
 20
1.04063427E+02
 11
-6.46000000E+01
 21
1.04369047E+02
  0
LINE
  8
0
 62
4
 10
-7.29000000E+01
 20
1.04063427E+02
 11
-7.29000000E+01
 21
1.04369047E+02
  0
POLYLINE
  8
0
 62
4
 66
1
  0
VERTEX
  8
0
 62
4
 10
-6.46000000E+01
 20
1.04369047E+02
  0
VERTEX
  8
0
 62
4
 10
-6.46157920E+01
 20
1.04725248E+02
  0
VERTEX
  8
0
 62
4
 10
-6.46630478E+01
 20
1.05078739E+02
  0
VERTEX
  8
0
 62
4
 10
-6.47414078E+01
 20
1.05426828E+02
  0
VERTEX
  8
0
 62
4
 10
-6.48502756E+01
 20
1.05766867E+02
  0
VERTEX
  8
0
 62
4
 10
-6.49888227E+01
 20
1.06096268E+02
  0
VERTEX
  8
0
 62
4
 10
-6.51559946E+01
 20
1.06412523E+02
  0
VERTEX
  8
0
 62
4
 10
-6.53505190E+01
 20
1.06713226E+02
  0
VERTEX
  8
0
 62
4
 10
-6.55709156E+01
 20
1.06996089E+02
  0
VERTEX
  8
0
 62
4
 10
-6.58155069E+01
 20
1.07258959E+02
  0
VERTEX
  8
0
 62
4
 10
-6.60824314E+01
 20
1.07499834E+02
  0
VERTEX
  8
0
 62
4
 10
-6.63696578E+01
 20
1.07716882E+02
  0
VERTEX
  8
0
 62
4
 10
-6.66750000E+01
 20
1.07908451E+02
  0
VERTEX
  8
0
 62
4
 10
-6.69961342E+01
 20
1.08073084E+02
  0
VERTEX
  8
0
 62
4
 10
-6.73306164E+01
 20
1.08209526E+02
  0
VERTEX
  8
0
 62
4
 10
-6.76759010E+01
 20
1.08316740E+02
  0
VERTEX
  8
0
 62
4
 10
-6.80293601E+01
 20
1.08393909E+02
  0
VERTEX
  8
0
 62
4
 10
-6.83883037E+01
 20
1.08440447E+02
  0
VERTEX
  8
0
 62
4
 10
-6.87500000E+01
 20
1.08455999E+02
  0
VERTEX
  8
0
 62
4
 10
-6.91116963E+01
 20
1.08440447E+02
  0
VERTEX
  8
0
 62
4
 10
-6.94706399E+01
 20
1.08393909E+02
  0
VERTEX
  8
0
 62
4
 10
-6.98240990E+01
 20
1.08316740E+02
  0
VERTEX
  8
0
 62
4
 10
-7.01693836E+01
 20
1.08209526E+02
  0
VERTEX
  8
0
 62
4
 10
-7.05038658E+01
 20
1.08073084E+02
  0
VERTEX
  8
0
 62
4
 10
-7.08250000E+01
 20
1.07908451E+02
  0
VERTEX
  8
0
 62
4
 10
-7.11303422E+01
 20
1.07716882E+02
  0
VERTEX
  8
0
 62
4
 10
-7.14175686E+01
 20
1.07499834E+02
  0
VERTEX
  8
0
 62
4
 10
-7.16844931E+01
 20
1.07258959E+02
  0
VERTEX
  8
0
 62
4
 10
-7.19290844E+01
 20
1.06996089E+02
  0
VERTEX
  8
0
 62
4
 10
-7.21494810E+01
 20
1.06713226E+02
  0
VERTEX
  8
0
 62
4
 10
-7.23440054E+01
 20
1.06412523E+02
  0
VERTEX
  8
0
 62
4
 10
-7.25111773E+01
 20
1.06096268E+02
  0
VERTEX
  8
0
 62
4
 10
-7.26497244E+01
 20
1.05766867E+02
  0
VERTEX
  8
0
 62
4
 10
-7.27585922E+01
 20
1.05426828E+02
  0
VERTEX
  8
0
 62
4
 10
-7.28369522E+01
 20
1.05078739E+02
  0
VERTEX
  8
0
 62
4
 10
-7.28842080E+01
 20
1.04725248E+02
  0
VERTEX
  8
0
 62
4
 10
-7.29000000E+01
 20
1.04369047E+02
  0
VERTEX
  8
0
 62
4
 10
-7.28842080E+01
 20
1.04012846E+02
  0
VERTEX
  8
0
 62
4
 10
-7.28369522E+01
 20
1.03659355E+02
  0
VERTEX
  8
0
 62
4
 10
-7.27585922E+01
 20
1.03311266E+02
  0
VERTEX
  8
0
 62
4
 10
-7.26497244E+01
 20
1.02971227E+02
  0
VERTEX
  8
0
 62
4
 10
-7.25111773E+01
 20
1.02641826E+02
  0
VERTEX
  8
0
 62
4
 10
-7.23440054E+01
 20
1.02325571E+02
  0
VERTEX
  8
0
 62
4
 10
-7.21494810E+01
 20
1.02024868E+02
  0
VERTEX
  8
0
 62
4
 10
-7.19290844E+01
 20
1.01742005E+02
  0
VERTEX
  8
0
 62
4
 10
-7.16844931E+01
 20
1.01479135E+02
  0
VERTEX
  8
0
 62
4
 10
-7.14175686E+01
 20
1.01238260E+02
  0
VERTEX
  8
0
 62
4
 10
-7.11303422E+01
 20
1.01021212E+02
  0
VERTEX
  8
0
 62
4
 10
-7.08250000E+01
 20
1.00829643E+02
  0
VERTEX
  8
0
 62
4
 10
-7.05038658E+01
 20
1.00665010E+02
  0
VERTEX
  8
0
 62
4
 10
-7.01693836E+01
 20
1.00528568E+02
  0
VERTEX
  8
0
 62
4
 10
-6.98240990E+01
 20
1.00421354E+02
  0
VERTEX
  8
0
 62
4
 10
-6.94706399E+01
 20
1.00344185E+02
  0
VERTEX
  8
0
 62
4
 10
-6.91116963E+01
 20
1.00297647E+02
  0
VERTEX
  8
0
 62
4
 10
-6.87500000E+01
 20
1.00282095E+02
  0
VERTEX
  8
0
 62
4
 10
-6.83883037E+01
 20
1.00297647E+02
  0
VERTEX
  8
0
 62
4
 10
-6.80293601E+01
 20
1.00344185E+02
  0
VERTEX
  8
0
 62
4
 10
-6.76759010E+01
 20
1.00421354E+02
  0
VERTEX
  8
0
 62
4
 10
-6.73306164E+01
 20
1.00528568E+02
  0
VERTEX
  8
0
 62
4
 10
-6.69961342E+01
 20
1.00665010E+02
  0
VERTEX
  8
0
 62
4
 10
-6.66750000E+01
 20
1.00829643E+02
  0
VERTEX
  8
0
 62
4
 10
-6.63696578E+01
 20
1.01021212E+02
  0
VERTEX
  8
0
 62
4
 10
-6.60824314E+01
 20
1.01238260E+02
  0
VERTEX
  8
0
 62
4
 10
-6.58155069E+01
 20
1.01479135E+02
  0
VERTEX
  8
0
 62
4
 10
-6.55709156E+01
 20
1.01742005E+02
  0
VERTEX
  8
0
 62
4
 10
-6.53505190E+01
 20
1.02024868E+02
  0
VERTEX
  8
0
 62
4
 10
-6.51559946E+01
 20
1.02325571E+02
  0
VERTEX
  8
0
 62
4
 10
-6.49888227E+01
 20
1.02641826E+02
  0
VERTEX
  8
0
 62
4
 10
-6.48502756E+01
 20
1.02971227E+02
  0
VERTEX
  8
0
 62
4
 10
-6.47414078E+01
 20
1.03311266E+02
  0
VERTEX
  8
0
 62
4
 10
-6.46630478E+01
 20
1.03659355E+02
  0
VERTEX
  8
0
 62
4
 10
-6.46157920E+01
 20
1.04012846E+02
  0
VERTEX
  8
0
 62
4
 10
-6.46000000E+01
 20
1.04369047E+02
  0
SEQEND
  8
0
  0
POLYLINE
  8
0
 62
4
 66
1
  0
VERTEX
  8
0
 62
4
 10
-7.29000000E+01
 20
1.04063427E+02
  0
VERTEX
  8
0
 62
4
 10
-7.28832933E+01
 20
1.03697075E+02
  0
VERTEX
  8
0
 62
4
 10
-7.28333078E+01
 20
1.03333674E+02
  0
VERTEX
  8
0
 62
4
 10
-7.27504459E+01
 20
1.02976147E+02
  0
VERTEX
  8
0
 62
4
 10
-7.26353747E+01
 20
1.02627375E+02
  0
VERTEX
  8
0
 62
4
 10
-7.24890208E+01
 20
1.02290165E+02
  0
VERTEX
  8
0
 62
4
 10
-7.23125625E+01
 20
1.01967232E+02
  0
VERTEX
  8
0
 62
4
 10
-7.21074205E+01
 20
1.01661177E+02
  0
VERTEX
  8
0
 62
4
 10
-7.18752466E+01
 20
1.01374463E+02
  0
VERTEX
  8
0
 62
4
 10
-7.16179100E+01
 20
1.01109399E+02
  0
VERTEX
  8
0
 62
4
 10
-7.13374827E+01
 20
1.00868119E+02
  0
VERTEX
  8
0
 62
4
 10
-7.10362225E+01
 20
1.00652566E+02
  0
VERTEX
  8
0
 62
4
 10
-7.07165550E+01
 20
1.00464475E+02
  0
VERTEX
  8
0
 62
4
 10
-7.03810539E+01
 20
1.00305361E+02
  0
VERTEX
  8
0
 62
4
 10
-7.00324205E+01
 20
1.00176505E+02
  0
VERTEX
  8
0
 62
4
 10
-6.96734619E+01
 20
1.00078943E+02
  0
VERTEX
  8
0
 62
4
 10
-6.93070681E+01
 20
1.00013463E+02
  0
VERTEX
  8
0
 62
4
 10
-6.89361891E+01
 20
9.99805901E+01
  0
VERTEX
  8
0
 62
4
 10
-6.85638110E+01
 20
9.99805901E+01
  0
VERTEX
  8
0
 62
4
 10
-6.81929320E+01
 20
1.00013463E+02
  0
VERTEX
  8
0
 62
4
 10
-6.78265381E+01
 20
1.00078943E+02
  0
VERTEX
  8
0
 62
4
 10
-6.74675795E+01
 20
1.00176504E+02
  0
VERTEX
  8
0
 62
4
 10
-6.71189461E+01
 20
1.00305361E+02
  0
VERTEX
  8
0
 62
4
 10
-6.67834451E+01
 20
1.00464475E+02
  0
VERTEX
  8
0
 62
4
 10
-6.64637775E+01
 20
1.00652566E+02
  0
VERTEX
  8
0
 62
4
 10
-6.61625173E+01
 20
1.00868119E+02
  0
VERTEX
  8
0
 62
4
 10
-6.58820900E+01
 20
1.01109399E+02
  0
VERTEX
  8
0
 62
4
 10
-6.56247534E+01
 20
1.01374463E+02
  0
VERTEX
  8
0
 62
4
 10
-6.53925795E+01
 20
1.01661177E+02
  0
VERTEX
  8
0
 62
4
 10
-6.51874375E+01
 20
1.01967232E+02
  0
VERTEX
  8
0
 62
4
 10
-6.50109792E+01
 20
1.02290165E+02
  0
VERTEX
  8
0
 62
4
 10
-6.48646253E+01
 20
1.02627375E+02
  0
VERTEX
  8
0
 62
4
 10
-6.47495541E+01
 20
1.02976147E+02
  0
VERTEX
  8
0
 62
4
 10
-6.46666922E+01
 20
1.03333673E+02
  0
VERTEX
  8
0
 62
4
 10
-6.46167067E+01
 20
1.03697075E+02
  0
VERTEX
  8
0
 62
4
 10
-6.46000000E+01
 20
1.04063427E+02
  0
SEQEND
  8
0
  0
LINE
  8
0
  6
CENTER
 62
6
 10
-7.62500000E+01
 20
1.09944268E+02
 11
-7.62500000E+01
 21
1.04944268E+02
  0
LINE
  8
0
  6
CENTER
 62
6
 10
-7.37500000E+01
 20
1.07444268E+02
 11
-7.87500000E+01
 21
1.07444268E+02
  0
LINE
  8
0
  6
CENTER
 62
6
 10
-6.87500000E+01
 20
1.06497440E+02
 11
-6.87500000E+01
 21
1.01497440E+02
  0
LINE
  8
0
  6
CENTER
 62
6
 10
-6.62500000E+01
 20
1.03997440E+02
 11
-7.12500000E+01
 21
1.03997440E+02
  0
LINE
  8
0
  6
CENTER
 62
6
 10
-6.12500000E+01
 20
1.09944268E+02
 11
-6.12500000E+01
 21
1.04944268E+02
  0
LINE
  8
0
  6
CENTER
 62
6
 10
-5.87500000E+01
 20
1.07444268E+02
 11
-6.37500000E+01
 21
1.07444268E+02
  0
LINE
  8
0
 62
4
 10
-6.54128770E+01
 20
1.01633902E+02
 11
-5.37500000E+01
 21
1.01633902E+02
  0
LINE
  8
0
 62
4
 10
-6.58127552E+01
 20
1.01176228E+02
 11
-6.02500000E+01
 21
1.01176228E+02
  0
LINE
  8
0
 62
4
 10
5.25000000E+00
 20
1.01176228E+02
 11
6.75000000E+00
 21
1.00168371E+02
  0
LINE
  8
0
 62
4
 10
6.75000000E+00
 20
9.79377813E+01
 11
5.25000000E+00
 21
9.72369965E+01
  0
LINE
  8
0
 62
4
 10
6.75000000E+00
 20
9.75444682E+01
 11
5.25000000E+00
 21
9.65424038E+01
  0
LINE
  8
0
 62
4
 10
6.75000000E+00
 20
1.00168371E+02
 11
6.75000000E+00
 21
9.75444682E+01
  0
LINE
  8
0
 62
7
 10
-2.47500000E+01
 20
9.45194433E+01
 11
-9.42500000E+01
 21
9.45194433E+01
  0
LINE
  8
0
 62
7
 10
-2.47500000E+01
 20
9.53694342E+01
 11
-9.42500000E+01
 21
9.53694342E+01
  0
LINE
  8
0
 62
7
 10
-2.47500000E+01
 20
8.92194555E+01
 11
-9.42500000E+01
 21
8.92194555E+01
  0
CIRCLE
  8
0
 62
7
 10
-3.01250031E+02
 20
4.48694647E+01
 40
2.45850000E+00
  0
CIRCLE
  8
0
 62
7
 10
-2.54250031E+02
 20
4.48694647E+01
 40
2.45850000E+00
  0
CIRCLE
  8
0
 62
7
 10
-2.54250000E+02
 20
9.18694647E+01
 40
2.45850000E+00
  0
CIRCLE
  8
0
 62
7
 10
-3.01250000E+02
 20
9.18694647E+01
 40
2.45850000E+00
  0
LINE
  8
0
 62
7
 10
-3.13149933E+02
 20
7.56194647E+01
 11
-3.12750000E+02
 21
7.56194647E+01
  0
LINE
  8
0
 62
7
 10
-3.12749969E+02
 20
4.88694799E+01
 11
-3.12749969E+02
 21
8.78694647E+01
  0
LINE
  8
0
 62
7
 10
-3.12750000E+02
 20
4.88694647E+01
 11
-3.08750000E+02
 21
4.88694647E+01
  0
LINE
  8
0
  6
CENTER
 62
2
 10
-3.16214050E+02
 20
5.73694723E+01
 11
-3.12750000E+02
 21
5.73694723E+01
  0
LINE
  8
0
 62
7
 10
-3.13149933E+02
 20
5.36194723E+01
 11
-3.12750000E+02
 21
5.36194723E+01
  0
LINE
  8
0
 62
7
 10
-3.13149933E+02
 20
6.11194723E+01
 11
-3.12750000E+02
 21
6.11194723E+01
  0
LINE
  8
0
 62
7
 10
-3.12750000E+02
 20
8.78694647E+01
 11
-3.11647975E+02
 21
8.78694647E+01
  0
LINE
  8
0
  6
CENTER
 62
2
 10
-2.77749969E+02
 20
1.02407337E+02
 11
-2.77749969E+02
 21
3.50424459E+01
  0
LINE
  8
0
  6
CENTER
 62
2
 10
-3.14518646E+02
 20
6.83694647E+01
 11
-2.43757690E+02
 21
6.83694647E+01
  0
LINE
  8
0
 62
7
 10
-2.91114234E+02
 20
5.35912174E+01
 11
-2.95065804E+02
 21
4.96396477E+01
  0
LINE
  8
0
 62
7
 10
-2.92528383E+02
 20
5.50054527E+01
 11
-2.96479964E+02
 21
5.10538721E+01
  0
LINE
  8
0
 62
7
 10
-2.78750031E+02
 20
4.13695333E+01
 11
-2.78750031E+02
 21
4.84697531E+01
  0
LINE
  8
0
 62
7
 10
-2.64386002E+02
 20
8.31479942E+01
 11
-2.60434485E+02
 21
8.70995093E+01
  0
LINE
  8
0
 62
7
 10
-2.62971799E+02
 20
8.17337695E+01
 11
-2.59020261E+02
 21
8.56853062E+01
  0
LINE
  8
0
 62
7
 10
-2.50750092E+02
 20
6.93694647E+01
 11
-2.57850311E+02
 21
6.93694647E+01
  0
LINE
  8
0
 62
7
 10
-2.78750000E+02
 20
9.53694647E+01
 11
-2.78750000E+02
 21
8.82691992E+01
  0
LINE
  8
0
 62
7
 10
-2.88281403E+02
 20
9.63694799E+01
 11
-2.67218628E+02
 21
9.63694799E+01
  0
LINE
  8
0
 62
7
 10
-3.08750000E+02
 20
4.08694723E+01
 11
-3.08750000E+02
 21
9.58694799E+01
  0
LINE
  8
0
 62
7
 10
-3.08249969E+02
 20
4.08695333E+01
 11
-3.08249969E+02
 21
9.58694799E+01
  0
LINE
  8
0
 62
7
 10
-3.05749969E+02
 20
5.78381079E+01
 11
-3.05749969E+02
 21
7.89008520E+01
  0
LINE
  8
0
 62
7
 10
-3.05250000E+02
 20
9.88695257E+01
 11
-2.50250092E+02
 21
9.88694799E+01
  0
LINE
  8
0
 62
7
 10
-3.04750000E+02
 20
6.73695257E+01
 11
-2.97649780E+02
 21
6.73695257E+01
  0
LINE
  8
0
 62
7
 10
-3.04750000E+02
 20
6.93695257E+01
 11
-2.97649780E+02
 21
6.93695257E+01
  0
LINE
  8
0
 62
7
 10
-2.92528501E+02
 20
8.17334676E+01
 11
-2.96480060E+02
 21
8.56850266E+01
  0
LINE
  8
0
 62
7
 10
-2.91114277E+02
 20
8.31476921E+01
 11
-2.95065858E+02
 21
8.70992726E+01
  0
LINE
  8
0
 62
7
 10
-3.05250000E+02
 20
9.93695410E+01
 11
-2.50250092E+02
 21
9.93695410E+01
  0
LINE
  8
0
  6
CENTER
 62
2
 10
-2.65749969E+02
 20
1.01843769E+02
 11
-2.65749969E+02
 21
7.60319555E+01
  0
LINE
  8
0
  6
CENTER
 62
2
 10
-3.01250031E+02
 20
3.52785299E+01
 11
-3.01250031E+02
 21
5.41650656E+01
  0
LINE
  8
0
  6
CENTER
 62
2
 10
-2.54250000E+02
 20
1.01847736E+02
 11
-2.54250000E+02
 21
8.21451147E+01
  0
LINE
  8
0
  6
CENTER
 62
2
 10
-2.44296875E+02
 20
9.18694647E+01
 11
-2.63999481E+02
 21
9.18694647E+01
  0
LINE
  8
0
  6
CENTER
 62
2
 10
-2.84749969E+02
 20
1.01731159E+02
 11
-2.84749969E+02
 21
8.01403387E+01
  0
LINE
  8
0
  6
CENTER
 62
2
 10
-3.01250000E+02
 20
1.01423191E+02
 11
-3.01250000E+02
 21
8.39851416E+01
  0
LINE
  8
0
 62
7
 10
-2.76750031E+02
 20
4.13695333E+01
 11
-2.76750031E+02
 21
4.84697531E+01
  0
LINE
  8
0
 62
7
 10
-2.62971739E+02
 20
5.50053179E+01
 11
-2.59020223E+02
 21
5.10538014E+01
  0
LINE
  8
0
 62
7
 10
-2.64385953E+02
 20
5.35910613E+01
 11
-2.60434437E+02
 21
4.96395448E+01
  0
LINE
  8
0
 62
7
 10
-2.50750092E+02
 20
6.73695257E+01
 11
-2.57850311E+02
 21
6.73695257E+01
  0
LINE
  8
0
 62
7
 10
-3.05250000E+02
 20
3.78695333E+01
 11
-2.50250092E+02
 21
3.78695333E+01
  0
LINE
  8
0
 62
7
 10
-2.46750031E+02
 20
4.08695333E+01
 11
-2.46750031E+02
 21
9.58694799E+01
  0
LINE
  8
0
 62
7
 10
-3.05250000E+02
 20
3.73695257E+01
 11
-2.50250000E+02
 21
3.73695257E+01
  0
LINE
  8
0
  6
CENTER
 62
2
 10
-2.44063690E+02
 20
4.48694647E+01
 11
-2.63766327E+02
 21
4.48694647E+01
  0
LINE
  8
0
 62
7
 10
-2.49750061E+02
 20
5.78381079E+01
 11
-2.49750061E+02
 21
7.89008520E+01
  0
LINE
  8
0
 62
7
 10
-2.88281403E+02
 20
4.03695333E+01
 11
-2.67218628E+02
 21
4.03695333E+01
  0
LINE
  8
0
 62
7
 10
-2.55749969E+02
 20
9.93694647E+01
 11
-2.55749969E+02
 21
9.88694799E+01
  0
LINE
  8
0
 62
7
 10
-2.99749969E+02
 20
9.93694647E+01
 11
-2.99749969E+02
 21
9.88694799E+01
  0
LINE
  8
0
 62
7
 10
-2.99749969E+02
 20
3.78695410E+01
 11
-2.99749969E+02
 21
3.73694723E+01
  0
LINE
  8
0
 62
7
 10
-2.55749969E+02
 20
3.78694723E+01
 11
-2.55749969E+02
 21
3.73694723E+01
  0
LINE
  8
0
  6
CENTER
 62
2
 10
-2.54250031E+02
 20
3.52084082E+01
 11
-2.54250031E+02
 21
5.40654562E+01
  0
LINE
  8
0
 62
7
 10
-2.47250061E+02
 20
4.08695333E+01
 11
-2.47250061E+02
 21
9.58694799E+01
  0
LINE
  8
0
 62
7
 10
-2.76750000E+02
 20
9.53694647E+01
 11
-2.76750000E+02
 21
8.82691992E+01
  0
LINE
  8
0
 62
7
 10
-3.02249969E+02
 20
8.41180761E+01
 11
-3.02249969E+02
 21
8.28694647E+01
  0
LINE
  8
0
 62
7
 10
-2.93498413E+02
 20
9.28695257E+01
 11
-2.92250000E+02
 21
9.28695257E+01
  0
LINE
  8
0
 62
7
 10
-2.62001312E+02
 20
9.28694647E+01
 11
-2.63250000E+02
 21
9.28694647E+01
  0
LINE
  8
0
 62
7
 10
-2.53249969E+02
 20
8.41178320E+01
 11
-2.53249969E+02
 21
8.28694647E+01
  0
LINE
  8
0
 62
7
 10
-3.02250061E+02
 20
5.26212423E+01
 11
-3.02250061E+02
 21
5.38694799E+01
  0
LINE
  8
0
 62
7
 10
-2.93498779E+02
 20
4.38695257E+01
 11
-2.92250000E+02
 21
4.38695257E+01
  0
LINE
  8
0
 62
7
 10
-2.62001617E+02
 20
4.38694647E+01
 11
-2.63250000E+02
 21
4.38694647E+01
  0
LINE
  8
0
 62
7
 10
-2.53250031E+02
 20
5.26207540E+01
 11
-2.53250031E+02
 21
5.38694799E+01
  0
LINE
  8
0
  6
CENTER
 62
2
 10
-2.91862946E+02
 20
9.18694647E+01
 11
-3.10982605E+02
 21
9.18694647E+01
  0
LINE
  8
0
  6
CENTER
 62
2
 10
-2.92212708E+02
 20
4.48694647E+01
 11
-3.10982605E+02
 21
4.48694647E+01
  0
LINE
  8
0
 62
7
 10
-3.13150024E+02
 20
8.31194647E+01
 11
-3.12750000E+02
 21
8.31194647E+01
  0
LINE
  8
0
  6
CENTER
 62
2
 10
-3.16214050E+02
 20
7.93694647E+01
 11
-3.12750000E+02
 21
7.93694647E+01
  0
LINE
  8
0
 62
7
 10
-3.15372498E+02
 20
5.61040304E+01
 11
-3.15372498E+02
 21
5.86349218E+01
  0
LINE
  8
0
 62
7
 10
-3.15372498E+02
 20
7.81040380E+01
 11
-3.15372498E+02
 21
8.06349218E+01
  0
CIRCLE
  8
0
 62
7
 10
-2.54250031E+02
 20
9.18694647E+01
 40
5.00000000E+00
  0
ARC
  8
0
 62
7
 10
-2.90407043E+02
 20
5.28839987E+01
 40
1.00000000E+00
 50
5.07389892E+01
 51
1.34999987E+02
  0
ARC
  8
0
 62
7
 10
-2.62264557E+02
 20
8.10265081E+01
 40
1.00000000E+00
 50
1.34999959E+02
 51
2.19260957E+02
  0
ARC
  8
0
 62
7
 10
-2.65092957E+02
 20
8.38549383E+01
 40
1.00000000E+00
 50
2.30738998E+02
 51
3.14999981E+02
  0
ARC
  8
0
 62
7
 10
-2.57850311E+02
 20
7.03694723E+01
 40
1.00000000E+00
 50
1.85739458E+02
 51
2.69999963E+02
  0
ARC
  8
0
 62
7
 10
-3.12872498E+02
 20
5.86349218E+01
 40
2.50000000E+00
 50
9.63728081E+01
 51
1.87691385E+02
  0
ARC
  8
0
 62
7
 10
-3.12872498E+02
 20
8.06349218E+01
 40
2.50000000E+00
 50
8.99999956E+01
 51
1.72308570E+02
  0
ARC
  8
0
 62
7
 10
-3.12872498E+02
 20
5.61040304E+01
 40
2.50000000E+00
 50
1.87691403E+02
 51
2.69999963E+02
  0
ARC
  8
0
 62
7
 10
-3.12872498E+02
 20
7.81040380E+01
 40
2.50000000E+00
 50
1.72308570E+02
 51
2.63627161E+02
  0
ARC
  8
0
 62
7
 10
-2.50250092E+02
 20
9.58694799E+01
 40
3.00000000E+00
 50
0.00000000E+00
 51
8.99999818E+01
  0
ARC
  8
0
 62
7
 10
-2.75750000E+02
 20
9.53694647E+01
 40
1.00000000E+00
 50
8.99999818E+01
 51
1.79999964E+02
  0
ARC
  8
0
 62
7
 10
-2.50750092E+02
 20
7.03694723E+01
 40
1.00000000E+00
 50
2.69999963E+02
 51
0.00000000E+00
  0
ARC
  8
0
 62
7
 10
-2.93235474E+02
 20
5.57124365E+01
 40
1.00000000E+00
 50
3.14999968E+02
 51
3.92609655E+01
  0
ARC
  8
0
 62
7
 10
-2.75750000E+02
 20
8.82692449E+01
 40
1.00000000E+00
 50
1.79999964E+02
 51
2.64260484E+02
  0
ARC
  8
0
 62
7
 10
-2.58312988E+02
 20
8.49780615E+01
 40
1.00000000E+00
 50
5.94777518E+01
 51
1.34999345E+02
  0
ARC
  8
0
 62
7
 10
-2.61141418E+02
 20
8.78064306E+01
 40
1.00000000E+00
 50
3.15000624E+02
 51
3.05224488E+01
  0
ARC
  8
0
 62
7
 10
-3.05250000E+02
 20
4.08695333E+01
 40
3.00000000E+00
 50
1.80000050E+02
 51
2.69999991E+02
  0
ARC
  8
0
 62
7
 10
-2.79750000E+02
 20
4.13695333E+01
 40
1.00000000E+00
 50
2.69999991E+02
 51
3.59999973E+02
  0
ARC
  8
0
 62
7
 10
-2.79750000E+02
 20
4.84697531E+01
 40
1.00000000E+00
 50
3.59999973E+02
 51
8.42604992E+01
  0
CIRCLE
  8
0
 62
7
 10
-3.01250061E+02
 20
4.48695410E+01
 40
5.00000000E+00
  0
ARC
  8
0
 62
7
 10
-2.97187042E+02
 20
5.17609518E+01
 40
1.00000000E+00
 50
2.39477760E+02
 51
3.14999353E+02
  0
ARC
  8
0
 62
7
 10
-2.94358582E+02
 20
4.89325216E+01
 40
1.00000000E+00
 50
1.35000615E+02
 51
2.10522426E+02
  0
ARC
  8
0
 62
7
 10
-2.50250092E+02
 20
9.58694799E+01
 40
3.50000000E+00
 50
0.00000000E+00
 51
8.99999818E+01
  0
CIRCLE
  8
0
 62
7
 10
-2.54250031E+02
 20
9.18694647E+01
 40
4.50000000E+00
  0
ARC
  8
0
 62
7
 10
-3.05250000E+02
 20
4.08694723E+01
 40
3.50000000E+00
 50
1.80000050E+02
 51
2.69999991E+02
  0
CIRCLE
  8
0
 62
7
 10
-3.01250061E+02
 20
4.48695410E+01
 40
4.50000000E+00
  0
ARC
  8
0
 62
7
 10
-2.50750092E+02
 20
7.89008520E+01
 40
1.00000000E+00
 50
0.00000000E+00
 51
8.28191923E+01
  0
ARC
  8
0
 62
7
 10
-2.50250092E+02
 20
8.28694647E+01
 40
3.00000000E+00
 50
1.79999977E+02
 51
2.62819204E+02
  0
ARC
  8
0
 62
7
 10
-2.54218719E+02
 20
8.38695867E+01
 40
1.00000000E+00
 50
7.17896597E+00
 51
9.02255215E+01
  0
ARC
  8
0
 62
7
 10
-2.54250061E+02
 20
9.18695410E+01
 40
7.00000000E+00
 50
1.79775278E+02
 51
2.70224550E+02
  0
ARC
  8
0
 62
7
 10
-2.62250031E+02
 20
9.19008978E+01
 40
1.00000000E+00
 50
3.59775314E+02
 51
8.28191923E+01
  0
ARC
  8
0
 62
7
 10
-2.63250000E+02
 20
9.58695410E+01
 40
3.00000000E+00
 50
1.87181037E+02
 51
2.70000018E+02
  0
ARC
  8
0
 62
7
 10
-2.67218628E+02
 20
9.53694647E+01
 40
1.00000000E+00
 50
7.18156141E+00
 51
8.99999818E+01
  0
ARC
  8
0
 62
7
 10
-3.04750000E+02
 20
5.78381079E+01
 40
1.00000000E+00
 50
1.80000050E+02
 51
2.62819249E+02
  0
ARC
  8
0
 62
7
 10
-3.05250000E+02
 20
5.38694799E+01
 40
3.00000000E+00
 50
0.00000000E+00
 51
8.28192405E+01
  0
ARC
  8
0
 62
7
 10
-3.01281372E+02
 20
5.28694189E+01
 40
1.00000000E+00
 50
1.87179015E+02
 51
2.70225578E+02
  0
ARC
  8
0
 62
7
 10
-3.01250000E+02
 20
4.48694723E+01
 40
7.00000000E+00
 50
3.59775314E+02
 51
9.02245790E+01
  0
ARC
  8
0
 62
7
 10
-2.93250061E+02
 20
4.48381079E+01
 40
1.00000000E+00
 50
1.79775333E+02
 51
2.62819204E+02
  0
ARC
  8
0
 62
7
 10
-2.92250000E+02
 20
4.08694723E+01
 40
3.00000000E+00
 50
7.18104231E+00
 51
8.99999818E+01
  0
ARC
  8
0
 62
7
 10
-2.88281403E+02
 20
4.13694799E+01
 40
1.00000000E+00
 50
1.87181584E+02
 51
2.70000018E+02
  0
ARC
  8
0
 62
7
 10
-2.93235474E+02
 20
8.10265081E+01
 40
1.00000000E+00
 50
3.20738994E+02
 51
4.49999910E+01
  0
ARC
  8
0
 62
7
 10
-2.90407043E+02
 20
8.38549383E+01
 40
1.00000000E+00
 50
2.24999972E+02
 51
3.09260983E+02
  0
ARC
  8
0
 62
7
 10
-2.97649780E+02
 20
7.03694723E+01
 40
1.00000000E+00
 50
2.69999963E+02
 51
3.54260510E+02
  0
ARC
  8
0
 62
7
 10
-2.97649780E+02
 20
6.63694799E+01
 40
1.00000000E+00
 50
5.73944893E+00
 51
8.99999549E+01
  0
CIRCLE
  8
0
 62
7
 10
-3.01250000E+02
 20
9.18694647E+01
 40
5.00000000E+00
  0
ARC
  8
0
 62
7
 10
-2.94358582E+02
 20
8.78064916E+01
 40
1.00000000E+00
 50
1.49477747E+02
 51
2.24999340E+02
  0
ARC
  8
0
 62
7
 10
-2.79750000E+02
 20
9.53694647E+01
 40
1.00000000E+00
 50
3.59999959E+02
 51
8.99999956E+01
  0
ARC
  8
0
 62
7
 10
-2.79750000E+02
 20
8.82691992E+01
 40
1.00000000E+00
 50
2.75739617E+02
 51
3.59999959E+02
  0
ARC
  8
0
 62
7
 10
-3.04750000E+02
 20
7.03694723E+01
 40
1.00000000E+00
 50
1.79999964E+02
 51
2.69999946E+02
  0
ARC
  8
0
 62
7
 10
-3.01250000E+02
 20
9.18694647E+01
 40
7.00000000E+00
 50
2.69775441E+02
 51
2.24685903E-01
  0
ARC
  8
0
 62
7
 10
-2.97186951E+02
 20
8.49780615E+01
 40
1.00000000E+00
 50
4.50006194E+01
 51
1.20522431E+02
  0
ARC
  8
0
 62
7
 10
-3.05250000E+02
 20
9.58694036E+01
 40
3.00000000E+00
 50
9.00000231E+01
 51
1.79999977E+02
  0
ARC
  8
0
 62
7
 10
-3.04750000E+02
 20
6.63694799E+01
 40
1.00000000E+00
 50
8.99999549E+01
 51
1.79999991E+02
  0
ARC
  8
0
 62
7
 10
-3.05250000E+02
 20
9.58694036E+01
 40
3.50000000E+00
 50
9.00000231E+01
 51
1.79999977E+02
  0
CIRCLE
  8
0
 62
7
 10
-3.01250000E+02
 20
9.18694647E+01
 40
4.50000000E+00
  0
ARC
  8
0
 62
7
 10
-3.05250000E+02
 20
8.28694647E+01
 40
3.00000000E+00
 50
2.77180746E+02
 51
0.00000000E+00
  0
ARC
  8
0
 62
7
 10
-2.92250000E+02
 20
9.58694799E+01
 40
3.00000000E+00
 50
2.70000018E+02
 51
3.52818957E+02
  0
ARC
  8
0
 62
7
 10
-2.88281403E+02
 20
9.53694647E+01
 40
1.00000000E+00
 50
8.99999818E+01
 51
1.72818402E+02
  0
ARC
  8
0
 62
7
 10
-2.93250061E+02
 20
9.19008367E+01
 40
1.00000000E+00
 50
9.71807714E+01
 51
1.80224650E+02
  0
ARC
  8
0
 62
7
 10
-3.01281372E+02
 20
8.38695257E+01
 40
1.00000000E+00
 50
8.97744422E+01
 51
1.72820998E+02
  0
ARC
  8
0
 62
7
 10
-3.04750000E+02
 20
7.89008520E+01
 40
1.00000000E+00
 50
9.71807714E+01
 51
1.79999964E+02
  0
ARC
  8
0
 62
7
 10
-2.75750000E+02
 20
4.84697531E+01
 40
1.00000000E+00
 50
9.57394445E+01
 51
1.79999951E+02
  0
ARC
  8
0
 62
7
 10
-2.65092957E+02
 20
5.28840673E+01
 40
1.00000000E+00
 50
4.49999637E+01
 51
1.29260961E+02
  0
ARC
  8
0
 62
7
 10
-2.62264557E+02
 20
5.57124899E+01
 40
1.00000000E+00
 50
1.40738985E+02
 51
2.24999982E+02
  0
ARC
  8
0
 62
7
 10
-2.57850311E+02
 20
6.63694799E+01
 40
1.00000000E+00
 50
8.99999681E+01
 51
1.74260502E+02
  0
ARC
  8
0
 62
7
 10
-2.75750000E+02
 20
4.13695333E+01
 40
1.00000000E+00
 50
1.79999951E+02
 51
2.70000001E+02
  0
ARC
  8
0
 62
7
 10
-2.50250092E+02
 20
4.08695333E+01
 40
3.00000000E+00
 50
2.70000018E+02
 51
3.59999986E+02
  0
ARC
  8
0
 62
7
 10
-2.50750092E+02
 20
6.63694799E+01
 40
1.00000000E+00
 50
3.59999986E+02
 51
8.99999681E+01
  0
CIRCLE
  8
0
 62
7
 10
-2.54250061E+02
 20
4.48694723E+01
 40
5.00000000E+00
  0
ARC
  8
0
 62
7
 10
-2.61141510E+02
 20
4.89324682E+01
 40
1.00000000E+00
 50
3.29477756E+02
 51
4.49993490E+01
  0
ARC
  8
0
 62
7
 10
-2.58313049E+02
 20
5.17608908E+01
 40
1.00000000E+00
 50
2.25000628E+02
 51
3.00522440E+02
  0
ARC
  8
0
 62
7
 10
-2.50250000E+02
 20
4.08695333E+01
 40
3.50000000E+00
 50
2.70000018E+02
 51
3.59999986E+02
  0
CIRCLE
  8
0
 62
7
 10
-2.54250061E+02
 20
4.48694723E+01
 40
4.50000000E+00
  0
ARC
  8
0
 62
7
 10
-2.67218628E+02
 20
4.13694799E+01
 40
1.00000000E+00
 50
2.70000018E+02
 51
3.52818438E+02
  0
ARC
  8
0
 62
7
 10
-2.63250000E+02
 20
4.08694723E+01
 40
3.00000000E+00
 50
8.99999818E+01
 51
1.72818977E+02
  0
ARC
  8
0
 62
7
 10
-2.62250031E+02
 20
4.48381079E+01
 40
1.00000000E+00
 50
2.77180801E+02
 51
2.24685903E-01
  0
ARC
  8
0
 62
7
 10
-2.54250061E+02
 20
4.48694723E+01
 40
7.00000000E+00
 50
8.97754328E+01
 51
1.80224705E+02
  0
ARC
  8
0
 62
7
 10
-2.54218719E+02
 20
5.28694189E+01
 40
1.00000000E+00
 50
2.69774458E+02
 51
3.52821034E+02
  0
ARC
  8
0
 62
7
 10
-2.50250092E+02
 20
5.38695333E+01
 40
3.00000000E+00
 50
9.71807782E+01
 51
1.79999964E+02
  0
ARC
  8
0
 62
7
 10
-2.50750092E+02
 20
5.78381613E+01
 40
1.00000000E+00
 50
2.77180801E+02
 51
0.00000000E+00
  0
CIRCLE
  8
0
 62
7
 10
-2.77750000E+02
 20
6.83694723E+01
 40
1.75294495E+01
  0
CIRCLE
  8
0
 62
7
 10
-2.77750000E+02
 20
6.83694723E+01
 40
1.90000000E+01
  0
CIRCLE
  8
0
 62
7
 10
-2.77750000E+02
 20
6.83694723E+01
 40
1.70000000E+01
  0
CIRCLE
  8
0
 62
2
 10
-3.01250000E+02
 20
9.18694647E+01
 40
3.00000000E+00
  0
CIRCLE
  8
0
 62
2
 10
-3.01250061E+02
 20
4.48694113E+01
 40
3.00000000E+00
  0
CIRCLE
  8
0
 62
2
 10
-2.54250061E+02
 20
4.48694723E+01
 40
3.00000000E+00
  0
CIRCLE
  8
0
 62
2
 10
-2.54250031E+02
 20
9.18694647E+01
 40
3.00000000E+00
  0
CIRCLE
  8
0
 62
7
 10
-2.77749969E+02
 20
6.83694647E+01
 40
8.99999237E+00
  0
CIRCLE
  8
0
 62
2
 10
-2.77749969E+02
 20
6.83694647E+01
 40
8.18000031E+00
  0
CIRCLE
  8
0
 62
7
 10
-2.77749969E+02
 20
6.83694647E+01
 40
7.49999237E+00
  0
CIRCLE
  8
0
 62
4
 10
-2.77749969E+02
 20
6.83694647E+01
 40
1.35000000E+01
  0
LINE
  8
0
 62
4
 10
-2.77749969E+02
 20
8.39579219E+01
 11
-2.91249969E+02
 21
7.61636933E+01
  0
LINE
  8
0
 62
4
 10
-2.91249969E+02
 20
7.61636933E+01
 11
-2.91249969E+02
 21
6.05752360E+01
  0
LINE
  8
0
 62
4
 10
-2.91249969E+02
 20
6.05752360E+01
 11
-2.77749969E+02
 21
5.27810074E+01
  0
LINE
  8
0
 62
4
 10
-2.77749969E+02
 20
5.27810074E+01
 11
-2.64249969E+02
 21
6.05752360E+01
  0
LINE
  8
0
 62
4
 10
-2.64249969E+02
 20
6.05752360E+01
 11
-2.64249969E+02
 21
7.61636933E+01
  0
LINE
  8
0
 62
4
 10
-2.64249969E+02
 20
7.61636933E+01
 11
-2.77749969E+02
 21
8.39579219E+01
  0
LINE
  8
0
 62
6
 10
-3.11263102E+02
 20
8.56867429E+01
 11
-3.08749969E+02
 21
8.61298760E+01
  0
LINE
  8
0
 62
6
 10
-3.11784047E+02
 20
8.86411661E+01
 11
-3.08746285E+02
 21
8.91768055E+01
  0
LINE
  8
0
 62
4
 10
-3.11176278E+02
 20
8.51943390E+01
 11
-3.11870871E+02
 21
8.91335700E+01
  0
LINE
  8
0
 62
4
 10
-3.11176278E+02
 20
8.51943390E+01
 11
-3.08749969E+02
 21
8.56221627E+01
  0
LINE
  8
0
 62
4
 10
-3.11870871E+02
 20
8.91335700E+01
 11
-3.08833109E+02
 21
8.96692094E+01
  0
LINE
  8
0
 62
4
 10
-3.09402253E+02
 20
9.28969839E+01
 11
-3.08749969E+02
 21
8.91976995E+01
  0
LINE
  8
0
 62
4
 10
-2.96694256E+02
 20
1.10087296E+02
 11
-3.03587911E+02
 21
1.08871758E+02
  0
LINE
  8
0
 62
4
 10
-3.03587911E+02
 20
1.08871758E+02
 11
-3.07283574E+02
 21
9.87180067E+01
  0
LINE
  8
0
 62
4
 10
-2.95218247E+02
 20
1.01716430E+02
 11
-2.95710651E+02
 21
1.01629606E+02
  0
LINE
  8
0
 62
4
 10
-2.96116231E+02
 20
1.01050378E+02
 11
-2.95819840E+02
 21
9.93694647E+01
  0
ARC
  8
0
 62
4
 10
-2.95623827E+02
 20
1.01137202E+02
 40
5.00000000E-01
 50
9.99999999E+01
 51
1.90000000E+02
  0
LINE
  8
0
  6
CENTER
 62
6
 10
-2.96843510E+02
 20
1.01937565E+02
 11
-2.83993005E+02
 21
1.04203456E+02
  0
LINE
  8
0
  6
CENTER
 62
6
 10
-3.06685146E+02
 20
1.03756213E+02
 11
-2.84600773E+02
 21
1.07650283E+02
  0
LINE
  8
0
 62
4
 10
-2.87925202E+02
 20
1.00666909E+02
 11
-2.87600738E+02
 21
1.01130292E+02
  0
LINE
  8
0
 62
4
 10
-2.87600738E+02
 20
1.01130292E+02
 11
-2.84744796E+02
 21
1.01633871E+02
  0
LINE
  8
0
 62
4
 10
-2.88417606E+02
 20
1.00580085E+02
 11
-2.88204141E+02
 21
9.93694647E+01
  0
LINE
  8
0
 62
4
 10
-2.88417606E+02
 20
1.00580085E+02
 11
-2.87925202E+02
 21
1.00666909E+02
  0
LINE
  8
0
 62
4
 10
-2.96694256E+02
 20
1.10087296E+02
 11
-2.95218247E+02
 21
1.01716430E+02
  0
LINE
  8
0
 62
4
 10
-2.86550737E+02
 20
1.11875872E+02
 11
-2.96694256E+02
 21
1.10087296E+02
  0
LINE
  8
0
 62
4
 10
-2.95612170E+02
 20
1.01646971E+02
 11
-2.95210584E+02
 21
9.93694647E+01
  0
LINE
  8
0
 62
4
 10
-2.85166719E+02
 20
1.00168340E+02
 11
-2.85025855E+02
 21
9.93694647E+01
  0
LINE
  8
0
 62
4
 10
-2.84461010E+02
 20
1.01176197E+02
 11
-2.85166719E+02
 21
1.00168340E+02
  0
LINE
  8
0
 62
4
 10
-2.88400241E+02
 20
1.00481604E+02
 11
-2.87397308E+02
 21
9.97750273E+01
  0
LINE
  8
0
 62
4
 10
-2.87397308E+02
 20
9.97750273E+01
 11
-2.85166719E+02
 21
1.00168340E+02
  0
LINE
  8
0
 62
4
 10
-2.88400241E+02
 20
1.00481604E+02
 11
-2.84461010E+02
 21
1.01176197E+02
  0
LINE
  8
0
 62
4
 10
-2.84461010E+02
 20
1.01176197E+02
 11
-2.84142434E+02
 21
9.93694647E+01
  0
LINE
  8
0
  6
CENTER
 62
6
 10
-2.86604274E+02
 20
1.01813708E+02
 11
-2.86173287E+02
 21
9.93694647E+01
  0
LINE
  8
0
  6
CENTER
 62
6
 10
-2.89037752E+02
 20
9.83383406E+01
 11
-2.83128906E+02
 21
9.93802297E+01
  0
LINE
  8
0
 62
4
 10
-2.86429183E+02
 20
1.11186506E+02
 11
-2.85444375E+02
 21
1.11360155E+02
  0
ARC
  8
0
 62
4
 10
-2.83254133E+02
 20
1.05450708E+02
 40
1.00000000E+00
 50
3.28723662E+02
 51
3.57172490E+02
  0
ARC
  8
0
 62
4
 10
-2.84087645E+02
 20
1.10177786E+02
 40
1.00000000E+00
 50
2.28275100E+01
 51
9.99999999E+01
  0
ARC
  8
0
 62
4
 10
-2.94050973E+02
 20
1.05983958E+02
 40
1.18100000E+01
 50
3.57172490E+02
 51
2.28275100E+01
  0
LINE
  8
0
 62
4
 10
-2.85374916E+02
 20
1.10966232E+02
 11
-2.84262083E+02
 21
1.11162454E+02
  0
LINE
  8
0
 62
4
 10
-2.84897383E+02
 20
1.08258010E+02
 11
-2.85444375E+02
 21
1.11360155E+02
  0
LINE
  8
0
 62
4
 10
-2.84066684E+02
 20
9.99764440E+01
 11
-2.85507964E+02
 21
1.08150348E+02
  0
LINE
  8
0
 62
4
 10
-2.85856144E+02
 20
1.07936641E+02
 11
-2.85481917E+02
 21
1.08002627E+02
  0
LINE
  8
0
 62
4
 10
-2.84269997E+02
 20
1.00092909E+02
 11
-2.84092731E+02
 21
1.00124165E+02
  0
LINE
  8
0
 62
4
 10
-2.85507964E+02
 20
1.08150348E+02
 11
-2.83774702E+02
 21
1.08455969E+02
  0
LINE
  8
0
 62
4
 10
-2.84066684E+02
 20
9.99764440E+01
 11
-2.82333423E+02
 21
1.00282065E+02
  0
ARC
  8
0
 62
4
 10
-2.93947120E+02
 20
1.02456135E+02
 40
1.18100000E+01
 50
9.99999999E+00
 51
3.05326991E+01
  0
ARC
  8
0
 62
4
 10
-2.93944433E+02
 20
1.02440893E+02
 40
1.18100000E+01
 50
3.49467301E+02
 51
9.99999999E+00
  0
LINE
  8
0
 62
4
 10
-2.84657971E+02
 20
1.01141467E+02
 11
-2.86550737E+02
 21
1.11875872E+02
  0
LINE
  8
0
 62
4
 10
-2.44323661E+02
 20
8.51943390E+01
 11
-2.43629068E+02
 21
8.91335700E+01
  0
LINE
  8
0
 62
6
 10
-2.44236836E+02
 20
8.56867429E+01
 11
-2.46750031E+02
 21
8.61298868E+01
  0
LINE
  8
0
 62
6
 10
-2.43715892E+02
 20
8.86411661E+01
 11
-2.46753654E+02
 21
8.91768055E+01
  0
LINE
  8
0
 62
4
 10
-2.44323661E+02
 20
8.51943390E+01
 11
-2.46750031E+02
 21
8.56221735E+01
  0
LINE
  8
0
 62
4
 10
-2.43629068E+02
 20
8.91335700E+01
 11
-2.46666830E+02
 21
8.96692094E+01
  0
LINE
  8
0
  6
CENTER
 62
6
 10
-2.66462187E+02
 20
9.83383406E+01
 11
-2.72309982E+02
 21
9.93694647E+01
  0
LINE
  8
0
  6
CENTER
 62
6
 10
-2.68895665E+02
 20
1.01813708E+02
 11
-2.69326652E+02
 21
9.93694647E+01
  0
LINE
  8
0
 62
4
 10
-2.71038929E+02
 20
1.01176197E+02
 11
-2.71357505E+02
 21
9.93694647E+01
  0
LINE
  8
0
 62
4
 10
-2.67099698E+02
 20
1.00481604E+02
 11
-2.71038929E+02
 21
1.01176197E+02
  0
LINE
  8
0
 62
4
 10
-2.59887769E+02
 20
1.01646971E+02
 11
-2.60289355E+02
 21
9.93694647E+01
  0
LINE
  8
0
 62
4
 10
-2.68949202E+02
 20
1.11875872E+02
 11
-2.58805683E+02
 21
1.10087296E+02
  0
LINE
  8
0
 62
4
 10
-2.58805683E+02
 20
1.10087296E+02
 11
-2.60281692E+02
 21
1.01716430E+02
  0
LINE
  8
0
 62
4
 10
-2.67082333E+02
 20
1.00580085E+02
 11
-2.67574737E+02
 21
1.00666909E+02
  0
LINE
  8
0
 62
4
 10
-2.67082333E+02
 20
1.00580085E+02
 11
-2.67295798E+02
 21
9.93694647E+01
  0
LINE
  8
0
 62
4
 10
-2.67899201E+02
 20
1.01130292E+02
 11
-2.70755143E+02
 21
1.01633871E+02
  0
LINE
  8
0
 62
4
 10
-2.67574737E+02
 20
1.00666909E+02
 11
-2.67899201E+02
 21
1.01130292E+02
  0
LINE
  8
0
  6
CENTER
 62
6
 10
-2.48814793E+02
 20
1.03756213E+02
 11
-2.70899166E+02
 21
1.07650283E+02
  0
LINE
  8
0
  6
CENTER
 62
6
 10
-2.58656429E+02
 20
1.01937565E+02
 11
-2.71506934E+02
 21
1.04203456E+02
  0
LINE
  8
0
  6
CENTER
 62
6
 10
-2.52682021E+02
 20
8.86989967E+01
 11
-2.45216017E+02
 21
8.73825387E+01
  0
ARC
  8
0
 62
4
 10
-2.59876112E+02
 20
1.01137202E+02
 40
5.00000000E-01
 50
3.50000000E+02
 51
7.99999999E+01
  0
LINE
  8
0
 62
4
 10
-2.59383708E+02
 20
1.01050378E+02
 11
-2.59680099E+02
 21
9.93694647E+01
  0
LINE
  8
0
 62
4
 10
-2.60281692E+02
 20
1.01716430E+02
 11
-2.59789288E+02
 21
1.01629606E+02
  0
LINE
  8
0
 62
4
 10
-2.51912028E+02
 20
1.08871758E+02
 11
-2.48216366E+02
 21
9.87180096E+01
  0
LINE
  8
0
 62
4
 10
-2.58805683E+02
 20
1.10087296E+02
 11
-2.51912028E+02
 21
1.08871758E+02
  0
LINE
  8
0
 62
4
 10
-2.46097686E+02
 20
9.28969839E+01
 11
-2.46750031E+02
 21
8.91973534E+01
  0
ARC
  8
0
 62
4
 10
-2.69416610E+02
 20
9.88592852E+01
 40
1.50000000E+00
 50
1.98841649E+01
 51
1.60115835E+02
  0
ARC
  8
0
 62
4
 10
-2.69286374E+02
 20
9.95978910E+01
 40
3.00000000E-01
 50
3.10410364E+02
 51
2.29589636E+02
  0
ARC
  8
0
 62
4
 10
-2.69286374E+02
 20
9.95978910E+01
 40
5.00000000E-01
 50
3.32815800E+02
 51
2.07184200E+02
  0
LINE
  8
0
 62
4
 10
-2.70390482E+02
 20
1.03701968E+02
 11
-2.71375290E+02
 21
1.03875616E+02
  0
LINE
  8
0
 62
4
 10
-2.69070756E+02
 20
1.11186506E+02
 11
-2.70055564E+02
 21
1.11360155E+02
  0
ARC
  8
0
 62
4
 10
-2.72245806E+02
 20
1.05450708E+02
 40
1.00000000E+00
 50
1.82827510E+02
 51
2.60000000E+02
  0
ARC
  8
0
 62
4
 10
-2.71412294E+02
 20
1.10177786E+02
 40
1.00000000E+00
 50
7.99999999E+01
 51
1.57172490E+02
  0
ARC
  8
0
 62
4
 10
-2.61448966E+02
 20
1.05983958E+02
 40
1.18100000E+01
 50
1.57172490E+02
 51
1.82827510E+02
  0
LINE
  8
0
 62
4
 10
-2.71305831E+02
 20
1.04269539E+02
 11
-2.72418664E+02
 21
1.04465761E+02
  0
LINE
  8
0
 62
4
 10
-2.70125023E+02
 20
1.10966232E+02
 11
-2.71237856E+02
 21
1.11162454E+02
  0
LINE
  8
0
 62
4
 10
-2.71375290E+02
 20
1.03875616E+02
 11
-2.70055564E+02
 21
1.11360155E+02
  0
LINE
  8
0
 62
4
 10
-2.71433255E+02
 20
9.99764440E+01
 11
-2.70764709E+02
 21
1.03767954E+02
  0
LINE
  8
0
 62
4
 10
-2.71032981E+02
 20
1.00058179E+02
 11
-2.71407207E+02
 21
1.00124165E+02
  0
LINE
  8
0
 62
4
 10
-2.71433255E+02
 20
9.99764440E+01
 11
-2.73166516E+02
 21
1.00282065E+02
  0
ARC
  8
0
 62
4
 10
-2.61552819E+02
 20
1.02456135E+02
 40
1.18100000E+01
 50
1.67900933E+02
 51
1.70000000E+02
  0
ARC
  8
0
 62
4
 10
-2.61555506E+02
 20
1.02440893E+02
 40
1.18100000E+01
 50
1.70000000E+02
 51
1.90532699E+02
  0
LINE
  8
0
 62
4
 10
-2.71032981E+02
 20
1.00058179E+02
 11
-2.68949202E+02
 21
1.11875872E+02
  0
LINE
  8
0
 62
4
 10
-3.08749969E+02
 20
9.46891185E+01
 11
-3.09402253E+02
 21
9.28969839E+01
  0
LINE
  8
0
 62
4
 10
-2.46750031E+02
 20
9.46892862E+01
 11
-2.46097686E+02
 21
9.28969839E+01
  0
LINE
  8
0
  6
CENTER
 62
6
 10
-2.72309982E+02
 20
9.93694647E+01
 11
-2.72371033E+02
 21
9.93802297E+01
  0
LINE
  8
0
  6
CENTER
 62
6
 10
-2.69326652E+02
 20
9.93694647E+01
 11
-2.69937554E+02
 21
9.59048619E+01
  0
LINE
  8
0
 62
4
 10
-2.87325797E+02
 20
9.93694647E+01
 11
-2.87397308E+02
 21
9.97750273E+01
  0
LINE
  8
0
  6
CENTER
 62
6
 10
-2.86173287E+02
 20
9.93694647E+01
 11
-2.85562384E+02
 21
9.59048619E+01
  0
LINE
  8
0
  6
CENTER
 62
6
 10
-3.10283922E+02
 20
8.73825387E+01
 11
-3.02817918E+02
 21
8.86989967E+01
  0
CIRCLE
  8
0
 62
7
 10
1.65750031E+02
 20
4.48694647E+01
 40
2.45850000E+00
  0
CIRCLE
  8
0
 62
7
 10
2.12750031E+02
 20
4.48694647E+01
 40
2.45850000E+00
  0
CIRCLE
  8
0
 62
7
 10
2.12750000E+02
 20
9.18694647E+01
 40
2.45850000E+00
  0
CIRCLE
  8
0
 62
7
 10
1.65750000E+02
 20
9.18694647E+01
 40
2.45850000E+00
  0
CIRCLE
  8
0
 62
7
 10
1.89249969E+02
 20
6.83694647E+01
 40
1.85000726E+01
  0
LINE
  8
0
 62
4
 10
2.23370932E+02
 20
8.91335700E+01
 11
2.20333170E+02
 21
8.96692094E+01
  0
LINE
  8
0
 62
6
 10
2.23284108E+02
 20
8.86411661E+01
 11
2.20246346E+02
 21
8.91768055E+01
  0
LINE
  8
0
 62
4
 10
2.23148036E+02
 20
8.78694647E+01
 11
2.23370932E+02
 21
8.91335700E+01
  0
LINE
  8
0
  6
CENTER
 62
6
 10
1.97673348E+02
 20
9.93694647E+01
 11
1.97062446E+02
 21
9.59048619E+01
  0
LINE
  8
0
  6
CENTER
 62
6
 10
1.94690018E+02
 20
9.93694647E+01
 11
1.94628967E+02
 21
9.93802297E+01
  0
LINE
  8
0
 62
4
 10
2.20249969E+02
 20
9.46892862E+01
 11
2.20902314E+02
 21
9.28969839E+01
  0
LINE
  8
0
 62
4
 10
1.95967019E+02
 20
1.00058179E+02
 11
1.98050798E+02
 21
1.11875872E+02
  0
ARC
  8
0
 62
4
 10
2.05444494E+02
 20
1.02440893E+02
 40
1.18100000E+01
 50
1.70000000E+02
 51
1.90532699E+02
  0
ARC
  8
0
 62
4
 10
2.05447181E+02
 20
1.02456135E+02
 40
1.18100000E+01
 50
1.67900933E+02
 51
1.70000000E+02
  0
LINE
  8
0
 62
4
 10
1.95566745E+02
 20
9.99764440E+01
 11
1.93833484E+02
 21
1.00282065E+02
  0
LINE
  8
0
 62
4
 10
1.95967019E+02
 20
1.00058179E+02
 11
1.95592793E+02
 21
1.00124165E+02
  0
LINE
  8
0
 62
4
 10
1.95566745E+02
 20
9.99764440E+01
 11
1.96235291E+02
 21
1.03767954E+02
  0
LINE
  8
0
 62
4
 10
1.95624710E+02
 20
1.03875616E+02
 11
1.96944436E+02
 21
1.11360155E+02
  0
LINE
  8
0
 62
4
 10
1.96874977E+02
 20
1.10966232E+02
 11
1.95762144E+02
 21
1.11162454E+02
  0
LINE
  8
0
 62
4
 10
1.95694169E+02
 20
1.04269539E+02
 11
1.94581336E+02
 21
1.04465761E+02
  0
ARC
  8
0
 62
4
 10
2.05551034E+02
 20
1.05983958E+02
 40
1.18100000E+01
 50
1.57172490E+02
 51
1.82827510E+02
  0
ARC
  8
0
 62
4
 10
1.95587706E+02
 20
1.10177786E+02
 40
1.00000000E+00
 50
7.99999999E+01
 51
1.57172490E+02
  0
ARC
  8
0
 62
4
 10
1.94754194E+02
 20
1.05450708E+02
 40
1.00000000E+00
 50
1.82827510E+02
 51
2.60000000E+02
  0
LINE
  8
0
 62
4
 10
1.97929244E+02
 20
1.11186506E+02
 11
1.96944436E+02
 21
1.11360155E+02
  0
LINE
  8
0
 62
4
 10
1.96609518E+02
 20
1.03701968E+02
 11
1.95624710E+02
 21
1.03875616E+02
  0
ARC
  8
0
 62
4
 10
1.97713626E+02
 20
9.95978910E+01
 40
5.00000000E-01
 50
3.32815800E+02
 51
2.07184200E+02
  0
ARC
  8
0
 62
4
 10
1.97713626E+02
 20
9.95978910E+01
 40
3.00000000E-01
 50
3.10410364E+02
 51
2.29589636E+02
  0
ARC
  8
0
 62
4
 10
1.97583390E+02
 20
9.88592852E+01
 40
1.50000000E+00
 50
1.98841649E+01
 51
1.60115835E+02
  0
LINE
  8
0
 62
4
 10
2.08194317E+02
 20
1.10087296E+02
 11
2.15087972E+02
 21
1.08871758E+02
  0
LINE
  8
0
 62
4
 10
2.15087972E+02
 20
1.08871758E+02
 11
2.18783634E+02
 21
9.87180096E+01
  0
LINE
  8
0
 62
4
 10
2.06718308E+02
 20
1.01716430E+02
 11
2.07210712E+02
 21
1.01629606E+02
  0
LINE
  8
0
 62
4
 10
2.07616292E+02
 20
1.01050378E+02
 11
2.07319901E+02
 21
9.93694647E+01
  0
ARC
  8
0
 62
4
 10
2.07123888E+02
 20
1.01137202E+02
 40
5.00000000E-01
 50
3.50000000E+02
 51
7.99999999E+01
  0
LINE
  8
0
  6
CENTER
 62
6
 10
2.08343571E+02
 20
1.01937565E+02
 11
1.95493066E+02
 21
1.04203456E+02
  0
LINE
  8
0
  6
CENTER
 62
6
 10
2.18185207E+02
 20
1.03756213E+02
 11
1.96100834E+02
 21
1.07650283E+02
  0
LINE
  8
0
 62
4
 10
1.99425263E+02
 20
1.00666909E+02
 11
1.99100799E+02
 21
1.01130292E+02
  0
LINE
  8
0
 62
4
 10
1.99100799E+02
 20
1.01130292E+02
 11
1.96244857E+02
 21
1.01633871E+02
  0
LINE
  8
0
 62
4
 10
1.99917667E+02
 20
1.00580085E+02
 11
1.99704202E+02
 21
9.93694647E+01
  0
LINE
  8
0
 62
4
 10
1.99917667E+02
 20
1.00580085E+02
 11
1.99425263E+02
 21
1.00666909E+02
  0
LINE
  8
0
 62
4
 10
2.08194317E+02
 20
1.10087296E+02
 11
2.06718308E+02
 21
1.01716430E+02
  0
LINE
  8
0
 62
4
 10
1.98050798E+02
 20
1.11875872E+02
 11
2.08194317E+02
 21
1.10087296E+02
  0
LINE
  8
0
 62
4
 10
2.07112231E+02
 20
1.01646971E+02
 11
2.06710645E+02
 21
9.93694647E+01
  0
LINE
  8
0
 62
4
 10
1.99900302E+02
 20
1.00481604E+02
 11
1.95961071E+02
 21
1.01176197E+02
  0
LINE
  8
0
 62
4
 10
1.95961071E+02
 20
1.01176197E+02
 11
1.95642495E+02
 21
9.93694647E+01
  0
LINE
  8
0
  6
CENTER
 62
6
 10
1.98104335E+02
 20
1.01813708E+02
 11
1.97673348E+02
 21
9.93694647E+01
  0
LINE
  8
0
  6
CENTER
 62
6
 10
2.00537813E+02
 20
9.83383406E+01
 11
1.94690018E+02
 21
9.93694647E+01
  0
LINE
  8
0
 62
4
 10
2.20902314E+02
 20
9.28969839E+01
 11
2.20249969E+02
 21
8.91973534E+01
  0
LINE
  8
0
 62
4
 10
1.55823722E+02
 20
8.51943390E+01
 11
1.58250031E+02
 21
8.56221627E+01
  0
LINE
  8
0
  6
CENTER
 62
6
 10
1.56716078E+02
 20
8.73825387E+01
 11
1.64182082E+02
 21
8.86989967E+01
  0
LINE
  8
0
  6
CENTER
 62
6
 10
1.80826713E+02
 20
9.93694647E+01
 11
1.81437616E+02
 21
9.59048619E+01
  0
LINE
  8
0
 62
4
 10
1.79674203E+02
 20
9.93694647E+01
 11
1.79602692E+02
 21
9.97750273E+01
  0
LINE
  8
0
 62
4
 10
1.58250031E+02
 20
9.46891185E+01
 11
1.57597747E+02
 21
9.28969839E+01
  0
LINE
  8
0
 62
4
 10
1.82342029E+02
 20
1.01141467E+02
 11
1.80449263E+02
 21
1.11875872E+02
  0
ARC
  8
0
 62
4
 10
1.73055567E+02
 20
1.02440893E+02
 40
1.18100000E+01
 50
3.49467301E+02
 51
9.99999999E+00
  0
ARC
  8
0
 62
4
 10
1.73052880E+02
 20
1.02456135E+02
 40
1.18100000E+01
 50
9.99999999E+00
 51
3.05326991E+01
  0
LINE
  8
0
 62
4
 10
1.82933316E+02
 20
9.99764440E+01
 11
1.84666577E+02
 21
1.00282065E+02
  0
LINE
  8
0
 62
4
 10
1.81492036E+02
 20
1.08150348E+02
 11
1.83225298E+02
 21
1.08455969E+02
  0
LINE
  8
0
 62
4
 10
1.82730003E+02
 20
1.00092909E+02
 11
1.82907269E+02
 21
1.00124165E+02
  0
LINE
  8
0
 62
4
 10
1.81143856E+02
 20
1.07936641E+02
 11
1.81518083E+02
 21
1.08002627E+02
  0
LINE
  8
0
 62
4
 10
1.82933316E+02
 20
9.99764440E+01
 11
1.81492036E+02
 21
1.08150348E+02
  0
LINE
  8
0
 62
4
 10
1.82102617E+02
 20
1.08258010E+02
 11
1.81555625E+02
 21
1.11360155E+02
  0
LINE
  8
0
 62
4
 10
1.81625084E+02
 20
1.10966232E+02
 11
1.82737917E+02
 21
1.11162454E+02
  0
ARC
  8
0
 62
4
 10
1.72949027E+02
 20
1.05983958E+02
 40
1.18100000E+01
 50
3.57172490E+02
 51
2.28275100E+01
  0
ARC
  8
0
 62
4
 10
1.82912355E+02
 20
1.10177786E+02
 40
1.00000000E+00
 50
2.28275100E+01
 51
9.99999999E+01
  0
ARC
  8
0
 62
4
 10
1.83745867E+02
 20
1.05450708E+02
 40
1.00000000E+00
 50
3.28723662E+02
 51
3.57172490E+02
  0
LINE
  8
0
 62
4
 10
1.80570817E+02
 20
1.11186506E+02
 11
1.81555625E+02
 21
1.11360155E+02
  0
LINE
  8
0
  6
CENTER
 62
6
 10
1.77962248E+02
 20
9.83383406E+01
 11
1.83871094E+02
 21
9.93802297E+01
  0
LINE
  8
0
  6
CENTER
 62
6
 10
1.80395726E+02
 20
1.01813708E+02
 11
1.80826713E+02
 21
9.93694647E+01
  0
LINE
  8
0
 62
4
 10
1.82538990E+02
 20
1.01176197E+02
 11
1.82857566E+02
 21
9.93694647E+01
  0
LINE
  8
0
 62
4
 10
1.78599759E+02
 20
1.00481604E+02
 11
1.82538990E+02
 21
1.01176197E+02
  0
LINE
  8
0
 62
4
 10
1.79602692E+02
 20
9.97750273E+01
 11
1.81833281E+02
 21
1.00168340E+02
  0
LINE
  8
0
 62
4
 10
1.78599759E+02
 20
1.00481604E+02
 11
1.79602692E+02
 21
9.97750273E+01
  0
LINE
  8
0
 62
4
 10
1.82538990E+02
 20
1.01176197E+02
 11
1.81833281E+02
 21
1.00168340E+02
  0
LINE
  8
0
 62
4
 10
1.81833281E+02
 20
1.00168340E+02
 11
1.81974145E+02
 21
9.93694647E+01
  0
LINE
  8
0
 62
4
 10
1.71387830E+02
 20
1.01646971E+02
 11
1.71789416E+02
 21
9.93694647E+01
  0
LINE
  8
0
 62
4
 10
1.80449263E+02
 20
1.11875872E+02
 11
1.70305744E+02
 21
1.10087296E+02
  0
LINE
  8
0
 62
4
 10
1.70305744E+02
 20
1.10087296E+02
 11
1.71781753E+02
 21
1.01716430E+02
  0
LINE
  8
0
 62
4
 10
1.78582394E+02
 20
1.00580085E+02
 11
1.79074798E+02
 21
1.00666909E+02
  0
LINE
  8
0
 62
4
 10
1.78582394E+02
 20
1.00580085E+02
 11
1.78795859E+02
 21
9.93694647E+01
  0
LINE
  8
0
 62
4
 10
1.79399262E+02
 20
1.01130292E+02
 11
1.82255204E+02
 21
1.01633871E+02
  0
LINE
  8
0
 62
4
 10
1.79074798E+02
 20
1.00666909E+02
 11
1.79399262E+02
 21
1.01130292E+02
  0
LINE
  8
0
  6
CENTER
 62
6
 10
1.60314854E+02
 20
1.03756213E+02
 11
1.82399227E+02
 21
1.07650283E+02
  0
LINE
  8
0
  6
CENTER
 62
6
 10
1.70156490E+02
 20
1.01937565E+02
 11
1.83006995E+02
 21
1.04203456E+02
  0
ARC
  8
0
 62
4
 10
1.71376173E+02
 20
1.01137202E+02
 40
5.00000000E-01
 50
9.99999999E+01
 51
1.90000000E+02
  0
LINE
  8
0
 62
4
 10
1.70883769E+02
 20
1.01050378E+02
 11
1.71180160E+02
 21
9.93694647E+01
  0
LINE
  8
0
 62
4
 10
1.71781753E+02
 20
1.01716430E+02
 11
1.71289349E+02
 21
1.01629606E+02
  0
LINE
  8
0
 62
4
 10
1.63412089E+02
 20
1.08871758E+02
 11
1.59716426E+02
 21
9.87180067E+01
  0
LINE
  8
0
 62
4
 10
1.70305744E+02
 20
1.10087296E+02
 11
1.63412089E+02
 21
1.08871758E+02
  0
LINE
  8
0
 62
4
 10
1.57597747E+02
 20
9.28969839E+01
 11
1.58250031E+02
 21
8.91976995E+01
  0
LINE
  8
0
 62
4
 10
1.55129129E+02
 20
8.91335700E+01
 11
1.58166891E+02
 21
8.96692094E+01
  0
LINE
  8
0
 62
6
 10
1.55215953E+02
 20
8.86411661E+01
 11
1.58253715E+02
 21
8.91768055E+01
  0
LINE
  8
0
 62
6
 10
1.55736898E+02
 20
8.56867429E+01
 11
1.58250031E+02
 21
8.61298760E+01
  0
LINE
  8
0
 62
4
 10
1.55823722E+02
 20
8.51943390E+01
 11
1.55129129E+02
 21
8.91335700E+01
  0
CIRCLE
  8
0
 62
2
 10
1.65750031E+02
 20
9.18694647E+01
 40
3.00000000E+00
  0
CIRCLE
  8
0
 62
2
 10
1.65750061E+02
 20
4.48694723E+01
 40
3.00000000E+00
  0
CIRCLE
  8
0
 62
2
 10
2.12750061E+02
 20
4.48694113E+01
 40
3.00000000E+00
  0
CIRCLE
  8
0
 62
2
 10
2.12750000E+02
 20
9.18694647E+01
 40
3.00000000E+00
  0
CIRCLE
  8
0
 62
7
 10
1.89250000E+02
 20
6.83694723E+01
 40
1.90000000E+01
  0
ARC
  8
0
 62
7
 10
1.62250092E+02
 20
5.78381613E+01
 40
1.00000000E+00
 50
1.80000000E+02
 51
2.62819199E+02
  0
ARC
  8
0
 62
7
 10
1.61750092E+02
 20
5.38695333E+01
 40
3.00000000E+00
 50
3.59721787E-05
 51
8.28192216E+01
  0
ARC
  8
0
 62
7
 10
1.65718719E+02
 20
5.28694189E+01
 40
1.00000000E+00
 50
1.87178966E+02
 51
2.70225542E+02
  0
ARC
  8
0
 62
7
 10
1.65750061E+02
 20
4.48694723E+01
 40
7.00000000E+00
 50
3.59775295E+02
 51
9.02245676E+01
  0
ARC
  8
0
 62
7
 10
1.73750031E+02
 20
4.48381079E+01
 40
1.00000000E+00
 50
1.79775314E+02
 51
2.62819199E+02
  0
ARC
  8
0
 62
7
 10
1.74750000E+02
 20
4.08694723E+01
 40
3.00000000E+00
 50
7.18102363E+00
 51
9.00000179E+01
  0
ARC
  8
0
 62
7
 10
1.78718628E+02
 20
4.13694799E+01
 40
1.00000000E+00
 50
1.87181562E+02
 51
2.69999982E+02
  0
CIRCLE
  8
0
 62
7
 10
1.65750061E+02
 20
4.48694723E+01
 40
4.50000000E+00
  0
ARC
  8
0
 62
7
 10
1.61750000E+02
 20
4.08695333E+01
 40
3.50000000E+00
 50
1.80000014E+02
 51
2.69999982E+02
  0
ARC
  8
0
 62
7
 10
1.69813049E+02
 20
5.17608908E+01
 40
1.00000000E+00
 50
2.39477561E+02
 51
3.14999372E+02
  0
ARC
  8
0
 62
7
 10
1.72641510E+02
 20
4.89324682E+01
 40
1.00000000E+00
 50
1.35000651E+02
 51
2.10522244E+02
  0
CIRCLE
  8
0
 62
7
 10
1.65750061E+02
 20
4.48694723E+01
 40
5.00000000E+00
  0
ARC
  8
0
 62
7
 10
1.62250092E+02
 20
6.63694799E+01
 40
1.00000000E+00
 50
9.00000317E+01
 51
1.80000014E+02
  0
ARC
  8
0
 62
7
 10
1.61750092E+02
 20
4.08695333E+01
 40
3.00000000E+00
 50
1.80000014E+02
 51
2.69999982E+02
  0
ARC
  8
0
 62
7
 10
1.87250000E+02
 20
4.13695333E+01
 40
1.00000000E+00
 50
2.69999999E+02
 51
4.96325570E-05
  0
ARC
  8
0
 62
7
 10
1.69350311E+02
 20
6.63694799E+01
 40
1.00000000E+00
 50
5.73949860E+00
 51
9.00000317E+01
  0
ARC
  8
0
 62
7
 10
1.73764557E+02
 20
5.57124899E+01
 40
1.00000000E+00
 50
3.15000018E+02
 51
3.92610151E+01
  0
ARC
  8
0
 62
7
 10
1.76592957E+02
 20
5.28840673E+01
 40
1.00000000E+00
 50
5.07390388E+01
 51
1.35000036E+02
  0
ARC
  8
0
 62
7
 10
1.87250000E+02
 20
4.84697531E+01
 40
1.00000000E+00
 50
4.96325570E-05
 51
8.42605553E+01
  0
ARC
  8
0
 62
7
 10
2.16250000E+02
 20
7.89008520E+01
 40
1.00000000E+00
 50
3.59721787E-05
 51
8.28192284E+01
  0
ARC
  8
0
 62
7
 10
2.12781372E+02
 20
8.38695257E+01
 40
1.00000000E+00
 50
7.17900195E+00
 51
9.02255576E+01
  0
ARC
  8
0
 62
7
 10
2.04750061E+02
 20
9.19008367E+01
 40
1.00000000E+00
 50
3.59775350E+02
 51
8.28192284E+01
  0
ARC
  8
0
 62
7
 10
1.99781403E+02
 20
9.53694647E+01
 40
1.00000000E+00
 50
7.18159739E+00
 51
9.00000179E+01
  0
ARC
  8
0
 62
7
 10
2.03750000E+02
 20
9.58694799E+01
 40
3.00000000E+00
 50
1.87181043E+02
 51
2.69999982E+02
  0
ARC
  8
0
 62
7
 10
2.16750000E+02
 20
8.28694647E+01
 40
3.00000000E+00
 50
1.80000000E+02
 51
2.62819254E+02
  0
CIRCLE
  8
0
 62
7
 10
2.12750000E+02
 20
9.18694647E+01
 40
4.50000000E+00
  0
ARC
  8
0
 62
7
 10
2.16750000E+02
 20
9.58694036E+01
 40
3.50000000E+00
 50
2.23118003E-05
 51
8.99999773E+01
  0
ARC
  8
0
 62
7
 10
2.16250000E+02
 20
6.63694799E+01
 40
1.00000000E+00
 50
8.65142201E-06
 51
9.00000454E+01
  0
ARC
  8
0
 62
7
 10
2.16750000E+02
 20
9.58694036E+01
 40
3.00000000E+00
 50
2.23118003E-05
 51
8.99999773E+01
  0
ARC
  8
0
 62
7
 10
2.08686951E+02
 20
8.49780615E+01
 40
1.00000000E+00
 50
5.94775690E+01
 51
1.34999381E+02
  0
ARC
  8
0
 62
7
 10
2.12750000E+02
 20
9.18694647E+01
 40
7.00000000E+00
 50
1.79775314E+02
 51
2.70224559E+02
  0
ARC
  8
0
 62
7
 10
2.16250000E+02
 20
7.03694723E+01
 40
1.00000000E+00
 50
2.70000054E+02
 51
3.59721787E-05
  0
ARC
  8
0
 62
7
 10
1.91250000E+02
 20
8.82691992E+01
 40
1.00000000E+00
 50
1.80000041E+02
 51
2.64260383E+02
  0
ARC
  8
0
 62
7
 10
1.91250000E+02
 20
9.53694647E+01
 40
1.00000000E+00
 50
9.00000042E+01
 51
1.80000041E+02
  0
ARC
  8
0
 62
7
 10
2.05858582E+02
 20
8.78064916E+01
 40
1.00000000E+00
 50
3.15000660E+02
 51
3.05222526E+01
  0
CIRCLE
  8
0
 62
7
 10
2.12750000E+02
 20
9.18694647E+01
 40
5.00000000E+00
  0
ARC
  8
0
 62
7
 10
2.09149780E+02
 20
6.63694799E+01
 40
1.00000000E+00
 50
9.00000454E+01
 51
1.74260551E+02
  0
ARC
  8
0
 62
7
 10
2.09149780E+02
 20
7.03694723E+01
 40
1.00000000E+00
 50
1.85739490E+02
 51
2.70000037E+02
  0
ARC
  8
0
 62
7
 10
2.01907043E+02
 20
8.38549383E+01
 40
1.00000000E+00
 50
2.30739016E+02
 51
3.15000028E+02
  0
ARC
  8
0
 62
7
 10
2.04735474E+02
 20
8.10265081E+01
 40
1.00000000E+00
 50
1.35000009E+02
 51
2.19261006E+02
  0
ARC
  8
0
 62
7
 10
1.99781403E+02
 20
4.13694799E+01
 40
1.00000000E+00
 50
2.69999982E+02
 51
3.52818417E+02
  0
ARC
  8
0
 62
7
 10
2.03750000E+02
 20
4.08694723E+01
 40
3.00000000E+00
 50
9.00000179E+01
 51
1.72818958E+02
  0
ARC
  8
0
 62
7
 10
2.04750061E+02
 20
4.48381079E+01
 40
1.00000000E+00
 50
2.77180796E+02
 51
2.24667234E-01
  0
ARC
  8
0
 62
7
 10
2.12750000E+02
 20
4.48694723E+01
 40
7.00000000E+00
 50
8.97754208E+01
 51
1.80224686E+02
  0
ARC
  8
0
 62
7
 10
2.12781372E+02
 20
5.28694189E+01
 40
1.00000000E+00
 50
2.69774422E+02
 51
3.52820985E+02
  0
ARC
  8
0
 62
7
 10
2.16750000E+02
 20
5.38694799E+01
 40
3.00000000E+00
 50
9.71807599E+01
 51
1.80000000E+02
  0
ARC
  8
0
 62
7
 10
2.16250000E+02
 20
5.78381079E+01
 40
1.00000000E+00
 50
2.77180751E+02
 51
3.59999950E+02
  0
ARC
  8
0
 62
7
 10
1.78718628E+02
 20
9.53694647E+01
 40
1.00000000E+00
 50
9.00000179E+01
 51
1.72818439E+02
  0
ARC
  8
0
 62
7
 10
1.74750000E+02
 20
9.58695410E+01
 40
3.00000000E+00
 50
2.69999982E+02
 51
3.52818963E+02
  0
ARC
  8
0
 62
7
 10
1.73750031E+02
 20
9.19008978E+01
 40
1.00000000E+00
 50
9.71808075E+01
 51
1.80224686E+02
  0
ARC
  8
0
 62
7
 10
1.65750061E+02
 20
9.18695410E+01
 40
7.00000000E+00
 50
2.69775450E+02
 51
2.24721875E-01
  0
ARC
  8
0
 62
7
 10
1.65718719E+02
 20
8.38695867E+01
 40
1.00000000E+00
 50
8.97744783E+01
 51
1.72821034E+02
  0
ARC
  8
0
 62
7
 10
1.61750092E+02
 20
8.28694647E+01
 40
3.00000000E+00
 50
2.77180796E+02
 51
2.23118003E-05
  0
ARC
  8
0
 62
7
 10
1.62250092E+02
 20
7.89008520E+01
 40
1.00000000E+00
 50
9.71808075E+01
 51
1.80000000E+02
  0
CIRCLE
  8
0
 62
7
 10
2.12750061E+02
 20
4.48695410E+01
 40
4.50000000E+00
  0
ARC
  8
0
 62
7
 10
2.16750000E+02
 20
4.08694723E+01
 40
3.50000000E+00
 50
2.70000009E+02
 51
3.59999950E+02
  0
CIRCLE
  8
0
 62
7
 10
1.65750031E+02
 20
9.18694647E+01
 40
4.50000000E+00
  0
ARC
  8
0
 62
7
 10
1.61750092E+02
 20
9.58694799E+01
 40
3.50000000E+00
 50
9.00000179E+01
 51
1.80000000E+02
  0
ARC
  8
0
 62
7
 10
2.05858582E+02
 20
4.89325216E+01
 40
1.00000000E+00
 50
3.29477574E+02
 51
4.49993850E+01
  0
ARC
  8
0
 62
7
 10
2.08687042E+02
 20
5.17609518E+01
 40
1.00000000E+00
 50
2.25000646E+02
 51
3.00522240E+02
  0
CIRCLE
  8
0
 62
7
 10
2.12750061E+02
 20
4.48695410E+01
 40
5.00000000E+00
  0
ARC
  8
0
 62
7
 10
1.91250000E+02
 20
4.84697531E+01
 40
1.00000000E+00
 50
9.57395012E+01
 51
1.80000027E+02
  0
ARC
  8
0
 62
7
 10
1.91250000E+02
 20
4.13695333E+01
 40
1.00000000E+00
 50
1.80000027E+02
 51
2.70000009E+02
  0
ARC
  8
0
 62
7
 10
2.16750000E+02
 20
4.08695333E+01
 40
3.00000000E+00
 50
2.70000009E+02
 51
3.59999950E+02
  0
ARC
  8
0
 62
7
 10
1.72641418E+02
 20
8.78064306E+01
 40
1.00000000E+00
 50
1.49477551E+02
 51
2.24999376E+02
  0
ARC
  8
0
 62
7
 10
1.69812988E+02
 20
8.49780615E+01
 40
1.00000000E+00
 50
4.50006554E+01
 51
1.20522248E+02
  0
ARC
  8
0
 62
7
 10
1.87250000E+02
 20
8.82692449E+01
 40
1.00000000E+00
 50
2.75739516E+02
 51
3.59721787E-05
  0
ARC
  8
0
 62
7
 10
2.04735474E+02
 20
5.57124365E+01
 40
1.00000000E+00
 50
1.40739035E+02
 51
2.25000032E+02
  0
ARC
  8
0
 62
7
 10
1.62250092E+02
 20
7.03694723E+01
 40
1.00000000E+00
 50
1.80000000E+02
 51
2.70000037E+02
  0
ARC
  8
0
 62
7
 10
1.87250000E+02
 20
9.53694647E+01
 40
1.00000000E+00
 50
3.59721787E-05
 51
9.00000179E+01
  0
ARC
  8
0
 62
7
 10
1.61750092E+02
 20
9.58694799E+01
 40
3.00000000E+00
 50
9.00000179E+01
 51
1.80000000E+02
  0
ARC
  8
0
 62
7
 10
2.24372498E+02
 20
7.81040380E+01
 40
2.50000000E+00
 50
2.76372839E+02
 51
7.69143002E+00
  0
ARC
  8
0
 62
7
 10
2.24372498E+02
 20
5.61040304E+01
 40
2.50000000E+00
 50
2.70000037E+02
 51
3.52308598E+02
  0
ARC
  8
0
 62
7
 10
2.24372498E+02
 20
8.06349218E+01
 40
2.50000000E+00
 50
7.69143002E+00
 51
9.00000042E+01
  0
ARC
  8
0
 62
7
 10
2.24372498E+02
 20
5.86349218E+01
 40
2.50000000E+00
 50
3.52308615E+02
 51
8.36271917E+01
  0
ARC
  8
0
 62
7
 10
1.69350311E+02
 20
7.03694723E+01
 40
1.00000000E+00
 50
2.70000037E+02
 51
3.54260542E+02
  0
ARC
  8
0
 62
7
 10
1.76592957E+02
 20
8.38549383E+01
 40
1.00000000E+00
 50
2.25000019E+02
 51
3.09261002E+02
  0
ARC
  8
0
 62
7
 10
1.73764557E+02
 20
8.10265081E+01
 40
1.00000000E+00
 50
3.20739043E+02
 51
4.50000407E+01
  0
ARC
  8
0
 62
7
 10
2.01907043E+02
 20
5.28839987E+01
 40
1.00000000E+00
 50
4.50000133E+01
 51
1.29261011E+02
  0
CIRCLE
  8
0
 62
7
 10
1.65750031E+02
 20
9.18694647E+01
 40
5.00000000E+00
  0
LINE
  8
0
 62
7
 10
2.26872498E+02
 20
7.81040380E+01
 11
2.26872498E+02
 21
8.06349218E+01
  0
LINE
  8
0
 62
7
 10
2.26872498E+02
 20
5.61040304E+01
 11
2.26872498E+02
 21
5.86349218E+01
  0
LINE
  8
0
  6
CENTER
 62
2
 10
2.27714050E+02
 20
7.93694647E+01
 11
2.24250000E+02
 21
7.93694647E+01
  0
LINE
  8
0
 62
7
 10
2.24650024E+02
 20
8.31194647E+01
 11
2.24250000E+02
 21
8.31194647E+01
  0
LINE
  8
0
  6
CENTER
 62
2
 10
2.03712708E+02
 20
4.48694647E+01
 11
2.22482605E+02
 21
4.48694647E+01
  0
LINE
  8
0
  6
CENTER
 62
2
 10
2.03362946E+02
 20
9.18694647E+01
 11
2.22482605E+02
 21
9.18694647E+01
  0
LINE
  8
0
 62
7
 10
1.64750031E+02
 20
5.26207540E+01
 11
1.64750031E+02
 21
5.38694799E+01
  0
LINE
  8
0
 62
7
 10
1.73501617E+02
 20
4.38694647E+01
 11
1.74750000E+02
 21
4.38694647E+01
  0
LINE
  8
0
 62
7
 10
2.04998779E+02
 20
4.38695257E+01
 11
2.03750000E+02
 21
4.38695257E+01
  0
LINE
  8
0
 62
7
 10
2.13750061E+02
 20
5.26212423E+01
 11
2.13750061E+02
 21
5.38694799E+01
  0
LINE
  8
0
 62
7
 10
1.64749969E+02
 20
8.41178320E+01
 11
1.64749969E+02
 21
8.28694647E+01
  0
LINE
  8
0
 62
7
 10
1.73501312E+02
 20
9.28694647E+01
 11
1.74750000E+02
 21
9.28694647E+01
  0
LINE
  8
0
 62
7
 10
2.04998413E+02
 20
9.28695257E+01
 11
2.03750000E+02
 21
9.28695257E+01
  0
LINE
  8
0
 62
7
 10
2.13749969E+02
 20
8.41180761E+01
 11
2.13749969E+02
 21
8.28694647E+01
  0
LINE
  8
0
 62
7
 10
1.88250000E+02
 20
9.53694647E+01
 11
1.88250000E+02
 21
8.82691992E+01
  0
LINE
  8
0
 62
7
 10
1.58750061E+02
 20
4.08695333E+01
 11
1.58750061E+02
 21
9.58694799E+01
  0
LINE
  8
0
  6
CENTER
 62
2
 10
1.65750031E+02
 20
3.52084082E+01
 11
1.65750031E+02
 21
5.40654562E+01
  0
LINE
  8
0
 62
7
 10
1.67249969E+02
 20
3.78694723E+01
 11
1.67249969E+02
 21
3.73694723E+01
  0
LINE
  8
0
 62
7
 10
2.11249969E+02
 20
3.78695410E+01
 11
2.11249969E+02
 21
3.73694723E+01
  0
LINE
  8
0
 62
7
 10
2.11249969E+02
 20
9.93694647E+01
 11
2.11249969E+02
 21
9.88694799E+01
  0
LINE
  8
0
 62
7
 10
1.67249969E+02
 20
9.93694647E+01
 11
1.67249969E+02
 21
9.88694799E+01
  0
LINE
  8
0
 62
7
 10
1.99781403E+02
 20
4.03695333E+01
 11
1.78718628E+02
 21
4.03695333E+01
  0
LINE
  8
0
 62
7
 10
1.61250061E+02
 20
5.78381079E+01
 11
1.61250061E+02
 21
7.89008520E+01
  0
LINE
  8
0
  6
CENTER
 62
2
 10
1.55563690E+02
 20
4.48694647E+01
 11
1.75266327E+02
 21
4.48694647E+01
  0
LINE
  8
0
 62
7
 10
2.16750000E+02
 20
3.73695257E+01
 11
1.61750000E+02
 21
3.73695257E+01
  0
LINE
  8
0
 62
7
 10
1.58250031E+02
 20
4.08695333E+01
 11
1.58250031E+02
 21
9.58694799E+01
  0
LINE
  8
0
 62
7
 10
2.16750000E+02
 20
3.78695333E+01
 11
1.61750092E+02
 21
3.78695333E+01
  0
LINE
  8
0
 62
7
 10
1.62250092E+02
 20
6.73695257E+01
 11
1.69350311E+02
 21
6.73695257E+01
  0
LINE
  8
0
 62
7
 10
1.75885953E+02
 20
5.35910613E+01
 11
1.71934437E+02
 21
4.96395448E+01
  0
LINE
  8
0
 62
7
 10
1.74471739E+02
 20
5.50053179E+01
 11
1.70520223E+02
 21
5.10538014E+01
  0
LINE
  8
0
 62
7
 10
1.88250031E+02
 20
4.13695333E+01
 11
1.88250031E+02
 21
4.84697531E+01
  0
LINE
  8
0
  6
CENTER
 62
2
 10
2.12750000E+02
 20
1.01423191E+02
 11
2.12750000E+02
 21
8.39851416E+01
  0
LINE
  8
0
  6
CENTER
 62
2
 10
1.96249969E+02
 20
1.01731159E+02
 11
1.96249969E+02
 21
8.01403387E+01
  0
LINE
  8
0
  6
CENTER
 62
2
 10
1.55796875E+02
 20
9.18694647E+01
 11
1.75499481E+02
 21
9.18694647E+01
  0
LINE
  8
0
  6
CENTER
 62
2
 10
1.65750000E+02
 20
1.01847736E+02
 11
1.65750000E+02
 21
8.21451147E+01
  0
LINE
  8
0
  6
CENTER
 62
2
 10
2.12750031E+02
 20
3.52785299E+01
 11
2.12750031E+02
 21
5.41650656E+01
  0
LINE
  8
0
  6
CENTER
 62
2
 10
1.77249969E+02
 20
1.01843769E+02
 11
1.77249969E+02
 21
7.60319555E+01
  0
LINE
  8
0
 62
7
 10
2.16750000E+02
 20
9.93695410E+01
 11
1.61750092E+02
 21
9.93695410E+01
  0
LINE
  8
0
 62
7
 10
2.02614277E+02
 20
8.31476921E+01
 11
2.06565858E+02
 21
8.70992726E+01
  0
LINE
  8
0
 62
7
 10
2.04028501E+02
 20
8.17334676E+01
 11
2.07980060E+02
 21
8.56850266E+01
  0
LINE
  8
0
 62
7
 10
2.16250000E+02
 20
6.93695257E+01
 11
2.09149780E+02
 21
6.93695257E+01
  0
LINE
  8
0
 62
7
 10
2.16250000E+02
 20
6.73695257E+01
 11
2.09149780E+02
 21
6.73695257E+01
  0
LINE
  8
0
 62
7
 10
2.16750000E+02
 20
9.88695257E+01
 11
1.61750092E+02
 21
9.88694799E+01
  0
LINE
  8
0
 62
7
 10
2.17249969E+02
 20
5.78381079E+01
 11
2.17249969E+02
 21
7.89008520E+01
  0
LINE
  8
0
 62
7
 10
2.19749969E+02
 20
4.08695333E+01
 11
2.19749969E+02
 21
9.58694799E+01
  0
LINE
  8
0
 62
7
 10
2.20250000E+02
 20
4.08694723E+01
 11
2.20250000E+02
 21
9.58694799E+01
  0
LINE
  8
0
 62
7
 10
1.99781403E+02
 20
9.63694799E+01
 11
1.78718628E+02
 21
9.63694799E+01
  0
LINE
  8
0
 62
7
 10
1.90250000E+02
 20
9.53694647E+01
 11
1.90250000E+02
 21
8.82691992E+01
  0
LINE
  8
0
 62
7
 10
1.62250092E+02
 20
6.93694647E+01
 11
1.69350311E+02
 21
6.93694647E+01
  0
LINE
  8
0
 62
7
 10
1.74471799E+02
 20
8.17337695E+01
 11
1.70520261E+02
 21
8.56853062E+01
  0
LINE
  8
0
 62
7
 10
1.75886002E+02
 20
8.31479942E+01
 11
1.71934485E+02
 21
8.70995093E+01
  0
LINE
  8
0
 62
7
 10
1.90250031E+02
 20
4.13695333E+01
 11
1.90250031E+02
 21
4.84697531E+01
  0
LINE
  8
0
 62
7
 10
2.04028383E+02
 20
5.50054527E+01
 11
2.07979964E+02
 21
5.10538721E+01
  0
LINE
  8
0
 62
7
 10
2.02614234E+02
 20
5.35912174E+01
 11
2.06565804E+02
 21
4.96396477E+01
  0
LINE
  8
0
  6
CENTER
 62
2
 10
2.26018646E+02
 20
6.83694647E+01
 11
1.55257690E+02
 21
6.83694647E+01
  0
LINE
  8
0
  6
CENTER
 62
2
 10
1.89249969E+02
 20
1.02407337E+02
 11
1.89249969E+02
 21
3.50424459E+01
  0
LINE
  8
0
 62
7
 10
2.24250000E+02
 20
8.78694647E+01
 11
2.20250000E+02
 21
8.78694647E+01
  0
LINE
  8
0
 62
7
 10
2.24649933E+02
 20
6.11194723E+01
 11
2.24250000E+02
 21
6.11194723E+01
  0
LINE
  8
0
 62
7
 10
2.24649933E+02
 20
5.36194723E+01
 11
2.24250000E+02
 21
5.36194723E+01
  0
LINE
  8
0
  6
CENTER
 62
2
 10
2.27714050E+02
 20
5.73694723E+01
 11
2.24250000E+02
 21
5.73694723E+01
  0
LINE
  8
0
 62
7
 10
2.24250000E+02
 20
4.88694647E+01
 11
2.20250000E+02
 21
4.88694647E+01
  0
LINE
  8
0
 62
7
 10
2.24249969E+02
 20
4.88694799E+01
 11
2.24249969E+02
 21
8.78694647E+01
  0
LINE
  8
0
 62
7
 10
2.24649933E+02
 20
7.56194647E+01
 11
2.24250000E+02
 21
7.56194647E+01
  0
LINE
  8
0
  6
PHANTOM
 10
-3.92500000E+01
 20
2.27628397E+02
 11
-3.92500000E+01
 21
1.32368088E+02
  0
ARC
  8
0
 62
7
 10
-1.18250015E+02
 20
1.68369465E+02
 40
2.00000000E+00
 50
1.80000000E+02
 51
2.70000000E+02
  0
ARC
  8
0
 62
7
 10
-1.18250015E+02
 20
2.08369465E+02
 40
2.00000000E+00
 50
9.00000002E+01
 51
1.80000000E+02
  0
LINE
  8
0
 62
7
 10
-1.18250015E+02
 20
2.10369465E+02
 11
-9.42500000E+01
 21
2.10369465E+02
  0
LINE
  8
0
 62
7
 10
-1.18250015E+02
 20
1.66369465E+02
 11
-9.42500000E+01
 21
1.66369465E+02
  0
LINE
  8
0
 62
7
 10
-1.20250015E+02
 20
1.68369465E+02
 11
-1.20250015E+02
 21
2.08369465E+02
  0
LINE
  8
0
 62
7
 10
-9.42500000E+01
 20
2.19395725E+02
 11
-9.42500000E+01
 21
1.57369465E+02
  0
LINE
  8
0
 62
7
 10
1.17500000E+01
 20
1.57343143E+02
 11
1.17500000E+01
 21
2.19369419E+02
  0
LINE
  8
0
 62
7
 10
1.17500000E+01
 20
1.67519474E+02
 11
-9.75000000E+00
 21
1.67519474E+02
  0
LINE
  8
0
 62
7
 10
1.17500000E+01
 20
1.62219486E+02
 11
-9.75000000E+00
 21
1.62219486E+02
  0
LINE
  8
0
 62
7
 10
1.17500000E+01
 20
1.61369495E+02
 11
-9.75000000E+00
 21
1.61369495E+02
  0
LINE
  8
0
 62
7
 10
1.17500000E+01
 20
2.15369434E+02
 11
-5.37500000E+01
 21
2.15369434E+02
  0
LINE
  8
0
 62
7
 10
1.17500000E+01
 20
2.09219456E+02
 11
-5.37500000E+01
 21
2.09219456E+02
  0
LINE
  8
0
 62
7
 10
1.17500000E+01
 20
2.14519443E+02
 11
-5.37500000E+01
 21
2.14519443E+02
  0
LINE
  8
0
  6
CENTER
 62
2
 10
-1.29115646E+02
 20
1.64869465E+02
 11
6.47516174E+01
 21
1.64869465E+02
  0
LINE
  8
0
  6
CENTER
 62
2
 10
-1.85249451E+02
 20
1.88369465E+02
 11
6.74873810E+01
 21
1.88369465E+02
  0
LINE
  8
0
 62
7
 10
6.27499466E+01
 20
1.57369465E+02
 11
6.27499466E+01
 21
2.19369449E+02
  0
LINE
  8
0
 62
7
 10
-1.25250000E+02
 20
2.18584019E+02
 11
-1.25250000E+02
 21
1.58155048E+02
  0
LINE
  8
0
 62
7
 10
-1.25250075E+02
 20
1.58155026E+02
 11
-9.42500203E+01
 21
1.57343261E+02
  0
LINE
  8
0
 62
7
 10
6.27499847E+01
 20
1.57369465E+02
 11
1.17500000E+01
 21
1.57369465E+02
  0
LINE
  8
0
  6
CENTER
 62
2
 10
4.17500000E+01
 20
2.25904667E+02
 11
4.17500000E+01
 21
1.83072834E+02
  0
LINE
  8
0
 62
7
 10
3.44999924E+01
 20
2.23769398E+02
 11
3.44999924E+01
 21
2.23369465E+02
  0
LINE
  8
0
 62
7
 10
-1.40250000E+02
 20
2.04869419E+02
 11
-1.40250000E+02
 21
1.71869495E+02
  0
LINE
  8
0
 62
7
 10
2.91499786E+01
 20
2.25969471E+02
 11
3.23499908E+01
 21
2.25969471E+02
  0
LINE
  8
0
 62
7
 10
2.69999924E+01
 20
2.23769459E+02
 11
2.69999924E+01
 21
2.23369465E+02
  0
LINE
  8
0
  6
CENTER
 62
2
 10
3.07499924E+01
 20
2.26833515E+02
 11
3.07499924E+01
 21
2.23369465E+02
  0
LINE
  8
0
 62
7
 10
6.12499847E+01
 20
2.23369465E+02
 11
2.22499924E+01
 21
2.23369465E+02
  0
LINE
  8
0
  6
CENTER
 62
2
 10
5.27500000E+01
 20
2.26833515E+02
 11
5.27500000E+01
 21
2.23369465E+02
  0
LINE
  8
0
 62
7
 10
5.43499985E+01
 20
2.25969471E+02
 11
5.11499863E+01
 21
2.25969471E+02
  0
LINE
  8
0
 62
7
 10
5.65000000E+01
 20
2.23769398E+02
 11
5.65000000E+01
 21
2.23369465E+02
  0
LINE
  8
0
 62
7
 10
4.90000000E+01
 20
2.23769398E+02
 11
4.90000000E+01
 21
2.23369465E+02
  0
LINE
  8
0
 62
7
 10
6.12500076E+01
 20
2.23369465E+02
 11
6.12500076E+01
 21
2.19369465E+02
  0
LINE
  8
0
 62
7
 10
2.22499924E+01
 20
2.23369465E+02
 11
2.22499924E+01
 21
2.19369465E+02
  0
LINE
  8
0
  6
CENTER
 62
2
 10
1.87500229E+01
 20
1.68898334E+02
 11
1.87500229E+01
 21
1.85487354E+02
  0
LINE
  8
0
  6
CENTER
 62
2
 10
2.75952759E+01
 20
1.76369465E+02
 11
1.01207657E+01
 21
1.76369465E+02
  0
LINE
  8
0
  6
CENTER
 62
2
 10
5.11601105E+01
 20
1.95369388E+02
 11
3.18014984E+01
 21
1.95369388E+02
  0
LINE
  8
0
 62
7
 10
6.42499619E+01
 20
1.69369449E+02
 11
6.27500000E+01
 21
1.69369449E+02
  0
LINE
  8
0
 62
7
 10
-1.26750015E+02
 20
1.69369465E+02
 11
-1.25250015E+02
 21
1.69369465E+02
  0
LINE
  8
0
 62
7
 10
-1.25250003E+02
 20
2.18584040E+02
 11
-9.42499630E+01
 21
2.19395805E+02
  0
LINE
  8
0
  6
CENTER
 62
2
 10
-1.01250031E+02
 20
1.68898304E+02
 11
-1.01250031E+02
 21
1.85487308E+02
  0
LINE
  8
0
  6
CENTER
 62
2
 10
-1.10095291E+02
 20
1.76369434E+02
 11
-9.26207886E+01
 21
1.76369434E+02
  0
LINE
  8
0
  6
CENTER
 62
2
 10
-1.07250061E+02
 20
1.84127338E+02
 11
-1.07250061E+02
 21
2.07713733E+02
  0
LINE
  8
0
  6
CENTER
 62
2
 10
-1.16660202E+02
 20
1.95369373E+02
 11
-9.73015594E+01
 21
1.95369373E+02
  0
LINE
  8
0
 62
7
 10
-1.27250015E+02
 20
2.06869465E+02
 11
-1.27250015E+02
 21
1.69869465E+02
  0
LINE
  8
0
 62
7
 10
-1.26750015E+02
 20
2.07369465E+02
 11
-1.25250000E+02
 21
2.07369465E+02
  0
LINE
  8
0
 62
7
 10
-1.02982147E+02
 20
1.76369386E+02
 11
-1.02116108E+02
 21
1.77869419E+02
  0
LINE
  8
0
 62
7
 10
-1.02116058E+02
 20
1.77869434E+02
 11
-1.00384064E+02
 21
1.77869434E+02
  0
LINE
  8
0
 62
7
 10
-9.95180813E+01
 20
1.76369346E+02
 11
-1.00384090E+02
 21
1.77869326E+02
  0
LINE
  8
0
 62
7
 10
-1.00384056E+02
 20
1.74869351E+02
 11
-9.95180012E+01
 21
1.76369411E+02
  0
LINE
  8
0
 62
7
 10
-1.02116058E+02
 20
1.74869404E+02
 11
-1.00384064E+02
 21
1.74869404E+02
  0
LINE
  8
0
 62
7
 10
-1.02982091E+02
 20
1.76369378E+02
 11
-1.02116067E+02
 21
1.74869372E+02
  0
LINE
  8
0
 62
7
 10
1.70178986E+01
 20
1.76369528E+02
 11
1.78839263E+01
 21
1.77869541E+02
  0
LINE
  8
0
 62
7
 10
1.78839951E+01
 20
1.77869480E+02
 11
1.96159821E+01
 21
1.77869480E+02
  0
LINE
  8
0
 62
7
 10
2.04819541E+01
 20
1.76369401E+02
 11
1.96159455E+01
 21
1.77869381E+02
  0
LINE
  8
0
 62
7
 10
1.96159743E+01
 20
1.74869405E+02
 11
2.04820135E+01
 21
1.76369438E+02
  0
LINE
  8
0
 62
7
 10
1.78839951E+01
 20
1.74869449E+02
 11
1.96159821E+01
 21
1.74869449E+02
  0
LINE
  8
0
 62
7
 10
1.70179110E+01
 20
1.76369396E+02
 11
1.78839425E+01
 21
1.74869377E+02
  0
LINE
  8
0
 62
7
 10
-1.39750015E+02
 20
1.71369465E+02
 11
-1.35241455E+02
 21
1.71369465E+02
  0
LINE
  8
0
 62
7
 10
-1.35250000E+02
 20
1.71369465E+02
 11
-1.35250000E+02
 21
1.71360920E+02
  0
LINE
  8
0
 62
7
 10
-1.35008740E+02
 20
1.71110999E+02
 11
-1.27250041E+02
 21
1.70840060E+02
  0
LINE
  8
0
 62
7
 10
-1.35250000E+02
 20
2.05369449E+02
 11
-1.35250000E+02
 21
1.71369465E+02
  0
LINE
  8
0
 62
7
 10
-1.39750015E+02
 20
2.05369449E+02
 11
-1.35241455E+02
 21
2.05369449E+02
  0
LINE
  8
0
 62
7
 10
-1.35008769E+02
 20
2.05627945E+02
 11
-1.27250070E+02
 21
2.05898884E+02
  0
LINE
  8
0
 62
7
 10
6.27500000E+01
 20
2.19369465E+02
 11
1.17500000E+01
 21
2.19369465E+02
  0
LINE
  8
0
 62
7
 10
6.42499619E+01
 20
2.07369465E+02
 11
6.42499619E+01
 21
1.69369449E+02
  0
LINE
  8
0
 62
7
 10
6.47499859E+01
 20
1.69869486E+02
 11
6.42499853E+01
 21
1.69369485E+02
  0
LINE
  8
0
 62
7
 10
6.47499542E+01
 20
2.06869449E+02
 11
6.47499542E+01
 21
1.69869465E+02
  0
LINE
  8
0
 62
7
 10
6.47500702E+01
 20
2.06869559E+02
 11
6.42500588E+01
 21
2.07369570E+02
  0
LINE
  8
0
 62
7
 10
6.42499619E+01
 20
2.07369465E+02
 11
6.27500000E+01
 21
2.07369465E+02
  0
LINE
  8
0
  6
CENTER
 62
2
 10
-1.29115646E+02
 20
2.11869465E+02
 11
6.57286758E+01
 21
2.11869465E+02
  0
LINE
  8
0
 62
7
 10
-1.47249985E+02
 20
1.96869465E+02
 11
-1.47249985E+02
 21
1.79869465E+02
  0
LINE
  8
0
 62
7
 10
-1.41750031E+02
 20
1.78369480E+02
 11
-1.40250046E+02
 21
1.78369480E+02
  0
LINE
  8
0
 62
7
 10
-1.41749969E+02
 20
1.98369495E+02
 11
-1.40250000E+02
 21
1.98369495E+02
  0
LINE
  8
0
 62
7
 10
-1.53249969E+02
 20
1.79369465E+02
 11
-1.53249969E+02
 21
1.97369465E+02
  0
LINE
  8
0
 62
7
 10
-1.82249969E+02
 20
1.80869495E+02
 11
-1.82249969E+02
 21
1.95869312E+02
  0
LINE
  8
0
 62
7
 10
-1.80749969E+02
 20
1.79369465E+02
 11
-1.80749969E+02
 21
1.97369465E+02
  0
LINE
  8
0
 62
7
 10
-1.80749908E+02
 20
1.97369465E+02
 11
-1.73249969E+02
 21
1.97369465E+02
  0
LINE
  8
0
 62
2
 10
-1.81569916E+02
 20
1.96549457E+02
 11
-1.73249969E+02
 21
1.96549457E+02
  0
LINE
  8
0
 62
7
 10
-1.82249923E+02
 20
1.95869322E+02
 11
-1.80749877E+02
 21
1.97369322E+02
  0
LINE
  8
0
 62
7
 10
-1.80749908E+02
 20
1.79369465E+02
 11
-1.73249969E+02
 21
1.79369465E+02
  0
LINE
  8
0
 62
2
 10
-1.81569916E+02
 20
1.80189472E+02
 11
-1.73249969E+02
 21
1.80189472E+02
  0
LINE
  8
0
 62
7
 10
-1.82249995E+02
 20
1.80869535E+02
 11
-1.80749960E+02
 21
1.79369545E+02
  0
LINE
  8
0
 62
7
 10
-1.50249969E+02
 20
1.79869465E+02
 11
-1.50249969E+02
 21
1.96869465E+02
  0
LINE
  8
0
 62
7
 10
-1.50249969E+02
 20
1.79869465E+02
 11
-1.43250015E+02
 21
1.79869465E+02
  0
LINE
  8
0
 62
7
 10
-1.50249969E+02
 20
1.96869465E+02
 11
-1.43250015E+02
 21
1.96869465E+02
  0
LINE
  8
0
 62
7
 10
-1.43250028E+02
 20
1.79869473E+02
 11
-1.41750059E+02
 21
1.78369504E+02
  0
LINE
  8
0
 62
7
 10
-1.43250063E+02
 20
1.96869525E+02
 11
-1.41750033E+02
 21
1.98369554E+02
  0
LINE
  8
0
 62
7
 10
-1.53249969E+02
 20
1.96549457E+02
 11
-1.50249969E+02
 21
1.96549457E+02
  0
LINE
  8
0
 62
7
 10
-1.53249969E+02
 20
1.80189472E+02
 11
-1.50249969E+02
 21
1.80189472E+02
  0
ARC
  8
0
 62
7
 10
3.20154419E+01
 20
2.23491947E+02
 40
2.50000000E+00
 50
6.37283973E+00
 51
9.76914171E+01
  0
ARC
  8
0
 62
7
 10
5.14845505E+01
 20
2.23491947E+02
 40
2.50000000E+00
 50
8.23086428E+01
 51
1.73627220E+02
  0
ARC
  8
0
 62
7
 10
2.94845657E+01
 20
2.23491947E+02
 40
2.50000000E+00
 50
9.76914309E+01
 51
1.80000005E+02
  0
ARC
  8
0
 62
7
 10
5.40154343E+01
 20
2.23491947E+02
 40
2.50000000E+00
 50
5.46415133E-05
 51
8.23086291E+01
  0
ARC
  8
0
 62
7
 10
-1.26750015E+02
 20
1.69869465E+02
 40
5.00000000E-01
 50
1.79999977E+02
 51
2.69999974E+02
  0
ARC
  8
0
 62
7
 10
-1.26750015E+02
 20
2.06869465E+02
 40
5.00000000E-01
 50
8.99999818E+01
 51
1.79999964E+02
  0
ARC
  8
0
 62
7
 10
-1.01250031E+02
 20
1.76369434E+02
 40
5.00000000E+00
 50
5.46415133E-05
 51
1.80000019E+02
  0
ARC
  8
0
 62
7
 10
-1.01250031E+02
 20
1.76369434E+02
 40
5.00000000E+00
 50
1.80000036E+02
 51
5.46415133E-05
  0
CIRCLE
  8
0
 62
7
 10
-1.01250031E+02
 20
1.76369434E+02
 40
2.50000000E+00
  0
ARC
  8
0
 62
7
 10
1.87500229E+01
 20
1.76369465E+02
 40
5.00000000E+00
 50
5.46415133E-05
 51
1.80000019E+02
  0
ARC
  8
0
 62
7
 10
1.87500229E+01
 20
1.76369465E+02
 40
5.00000000E+00
 50
1.80000036E+02
 51
5.46415133E-05
  0
CIRCLE
  8
0
 62
7
 10
1.87500229E+01
 20
1.76369465E+02
 40
2.59999990E+00
  0
CIRCLE
  8
0
 62
7
 10
-1.01250031E+02
 20
1.76369434E+02
 40
2.59999990E+00
  0
ARC
  8
0
 62
7
 10
-1.39750015E+02
 20
1.71869495E+02
 40
5.00000000E-01
 50
1.79999977E+02
 51
2.69999974E+02
  0
ARC
  8
0
 62
7
 10
-1.34999985E+02
 20
1.71360920E+02
 40
2.50000000E-01
 50
1.79999977E+02
 51
2.68001132E+02
  0
ARC
  8
0
 62
7
 10
-1.39750015E+02
 20
2.04869419E+02
 40
5.00000000E-01
 50
8.99999818E+01
 51
1.79999964E+02
  0
ARC
  8
0
 62
7
 10
-1.34999985E+02
 20
2.05377994E+02
 40
2.50000000E-01
 50
9.19988230E+01
 51
1.79999977E+02
  0
CIRCLE
  8
0
 62
2
 10
-1.07249954E+02
 20
1.95369388E+02
 40
8.33099937E+00
  0
CIRCLE
  8
0
 62
7
 10
-1.07250061E+02
 20
1.95369373E+02
 40
7.45249987E+00
  0
CIRCLE
  8
0
 62
2
 10
4.17500000E+01
 20
1.95369388E+02
 40
8.33099937E+00
  0
CIRCLE
  8
0
 62
7
 10
4.17500000E+01
 20
1.95369388E+02
 40
7.45249987E+00
  0
LINE
  8
0
 62
4
 10
-1.62249969E+02
 20
2.01869465E+02
 11
-1.62249969E+02
 21
1.74869465E+02
  0
LINE
  8
0
 62
4
 10
-1.73249969E+02
 20
2.01869465E+02
 11
-1.73249969E+02
 21
1.74869465E+02
  0
LINE
  8
0
 62
4
 10
-1.62249969E+02
 20
2.01869465E+02
 11
-1.73249969E+02
 21
2.01869465E+02
  0
LINE
  8
0
 62
4
 10
-1.62249969E+02
 20
1.74869465E+02
 11
-1.73249969E+02
 21
1.74869465E+02
  0
LINE
  8
0
 62
4
 10
-1.63455741E+02
 20
1.88369465E+02
 11
-1.72044198E+02
 21
1.88369465E+02
  0
ARC
  8
0
 62
4
 10
-1.53753577E+02
 20
1.81619465E+02
 40
1.94963929E+01
 50
1.59743842E+02
 51
2.00256158E+02
  0
ARC
  8
0
 62
4
 10
-1.53753577E+02
 20
1.95119465E+02
 40
1.94963929E+01
 50
1.59743842E+02
 51
2.00256158E+02
  0
ARC
  8
0
 62
4
 10
-1.81746362E+02
 20
1.95119465E+02
 40
1.94963929E+01
 50
3.39743842E+02
 51
2.02561580E+01
  0
ARC
  8
0
 62
4
 10
-1.81746362E+02
 20
1.81619465E+02
 40
1.94963929E+01
 50
3.39743842E+02
 51
2.02561580E+01
  0
LINE
  8
0
 62
7
 10
-1.62249969E+02
 20
1.97369465E+02
 11
-1.53249969E+02
 21
1.97369465E+02
  0
LINE
  8
0
 62
2
 10
-1.62249969E+02
 20
1.96549457E+02
 11
-1.53249969E+02
 21
1.96549457E+02
  0
LINE
  8
0
 62
7
 10
-1.62249969E+02
 20
1.79369465E+02
 11
-1.53249969E+02
 21
1.79369465E+02
  0
LINE
  8
0
 62
2
 10
-1.62249969E+02
 20
1.80189472E+02
 11
-1.53249969E+02
 21
1.80189472E+02
  0
LINE
  8
0
 62
6
 10
-3.30179492E+01
 20
1.83036136E+02
 11
-3.64820508E+01
 21
1.77036136E+02
  0
LINE
  8
0
 62
4
 10
-2.47500000E+01
 20
1.81536136E+02
 11
-3.38839746E+01
 21
1.81536136E+02
  0
LINE
  8
0
  6
CENTER
 62
6
 10
1.02500000E+01
 20
1.80036136E+02
 11
-3.67500000E+01
 21
1.80036136E+02
  0
LINE
  8
0
 62
4
 10
-2.47500000E+01
 20
1.78536136E+02
 11
-3.56160254E+01
 21
1.78536136E+02
  0
LINE
  8
0
 62
6
 10
-4.54820508E+01
 20
1.93702824E+02
 11
-4.20179492E+01
 21
1.99702824E+02
  0
LINE
  8
0
 62
4
 10
-5.37500000E+01
 20
1.95202824E+02
 11
-4.46160254E+01
 21
1.95202824E+02
  0
LINE
  8
0
  6
CENTER
 62
6
 10
-8.87500000E+01
 20
1.96702824E+02
 11
-4.17500000E+01
 21
1.96702824E+02
  0
LINE
  8
0
 62
4
 10
-5.37500000E+01
 20
1.98202824E+02
 11
-4.28839746E+01
 21
1.98202824E+02
  0
LINE
  8
0
 62
6
 10
-1.97500000E+01
 20
1.54366175E+02
 11
-1.97500000E+01
 21
1.56717212E+02
  0
LINE
  8
0
 62
6
 10
-2.27500000E+01
 20
1.54366175E+02
 11
-2.27500000E+01
 21
1.56717212E+02
  0
LINE
  8
0
 62
4
 10
-1.92500000E+01
 20
1.54595890E+02
 11
-1.92500000E+01
 21
1.56717212E+02
  0
LINE
  8
0
 62
4
 10
-2.32500000E+01
 20
1.54595890E+02
 11
-2.32500000E+01
 21
1.56717212E+02
  0
LINE
  8
0
 62
4
 10
-9.75000000E+00
 20
1.56717212E+02
 11
-9.75000000E+00
 21
1.69425208E+02
  0
LINE
  8
0
 62
4
 10
-2.47500000E+01
 20
1.56717212E+02
 11
-2.47500000E+01
 21
1.82347099E+02
  0
LINE
  8
0
 62
4
 10
5.25000000E+00
 20
1.69425208E+02
 11
5.25000000E+00
 21
1.81374669E+02
  0
LINE
  8
0
  6
CENTER
 62
6
 10
-2.12500000E+01
 20
1.51253916E+02
 11
-2.12500000E+01
 21
1.61519495E+02
  0
LINE
  8
0
  6
CENTER
 62
6
 10
-1.32500000E+01
 20
1.51253916E+02
 11
-1.32500000E+01
 21
1.61519495E+02
  0
LINE
  8
0
  6
CENTER
 62
6
 10
-9.75000000E+00
 20
1.78457914E+02
 11
-9.75000000E+00
 21
1.83457914E+02
  0
LINE
  8
0
 62
4
 10
-9.74999999E+00
 20
1.56717212E+02
 11
-2.47500000E+01
 21
1.56717212E+02
  0
LINE
  8
0
 62
4
 10
-9.74999999E+00
 20
1.62531554E+02
 11
-2.47500000E+01
 21
1.62531554E+02
  0
LINE
  8
0
 62
4
 10
5.25000001E+00
 20
1.69425208E+02
 11
-2.47500000E+01
 21
1.69425208E+02
  0
LINE
  8
0
 62
4
 10
5.25000001E+00
 20
1.79568728E+02
 11
-2.47500000E+01
 21
1.79568728E+02
  0
LINE
  8
0
 62
4
 10
-2.06500000E+01
 20
1.82347099E+02
 11
-2.47500000E+01
 21
1.82347099E+02
  0
LINE
  8
0
 62
4
 10
-2.06500000E+01
 20
1.82173451E+02
 11
-2.47500000E+01
 21
1.82173451E+02
  0
LINE
  8
0
 62
4
 10
5.25000001E+00
 20
1.81374669E+02
 11
-5.59999999E+00
 21
1.81374669E+02
  0
POLYLINE
  8
0
 62
4
 66
1
  0
VERTEX
  8
0
 62
4
 10
-2.32500000E+01
 20
1.54595890E+02
  0
VERTEX
  8
0
 62
4
 10
-2.32419486E+01
 20
1.54564759E+02
  0
VERTEX
  8
0
 62
4
 10
-2.32178592E+01
 20
1.54533878E+02
  0
VERTEX
  8
0
 62
4
 10
-2.31779257E+01
 20
1.54503496E+02
  0
VERTEX
  8
0
 62
4
 10
-2.31224697E+01
 20
1.54473859E+02
  0
VERTEX
  8
0
 62
4
 10
-2.30519377E+01
 20
1.54445204E+02
  0
VERTEX
  8
0
 62
4
 10
-2.29668976E+01
 20
1.54417762E+02
  0
VERTEX
  8
0
 62
4
 10
-2.28680340E+01
 20
1.54391754E+02
  0
VERTEX
  8
0
 62
4
 10
-2.27561429E+01
 20
1.54367390E+02
  0
VERTEX
  8
0
 62
4
 10
-2.26321253E+01
 20
1.54344866E+02
  0
VERTEX
  8
0
 62
4
 10
-2.24969796E+01
 20
1.54324363E+02
  0
VERTEX
  8
0
 62
4
 10
-2.23517940E+01
 20
1.54306046E+02
  0
VERTEX
  8
0
 62
4
 10
-2.21977373E+01
 20
1.54290062E+02
  0
VERTEX
  8
0
 62
4
 10
-2.20360501E+01
 20
1.54276541E+02
  0
VERTEX
  8
0
 62
4
 10
-2.18680340E+01
 20
1.54265592E+02
  0
VERTEX
  8
0
 62
4
 10
-2.16950419E+01
 20
1.54257301E+02
  0
VERTEX
  8
0
 62
4
 10
-2.15184665E+01
 20
1.54251737E+02
  0
VERTEX
  8
0
 62
4
 10
-2.13397297E+01
 20
1.54248943E+02
  0
VERTEX
  8
0
 62
4
 10
-2.11602704E+01
 20
1.54248943E+02
  0
VERTEX
  8
0
 62
4
 10
-2.09815335E+01
 20
1.54251737E+02
  0
VERTEX
  8
0
 62
4
 10
-2.08049581E+01
 20
1.54257301E+02
  0
VERTEX
  8
0
 62
4
 10
-2.06319660E+01
 20
1.54265592E+02
  0
VERTEX
  8
0
 62
4
 10
-2.04639499E+01
 20
1.54276541E+02
  0
VERTEX
  8
0
 62
4
 10
-2.03022627E+01
 20
1.54290062E+02
  0
VERTEX
  8
0
 62
4
 10
-2.01482060E+01
 20
1.54306046E+02
  0
VERTEX
  8
0
 62
4
 10
-2.00030204E+01
 20
1.54324363E+02
  0
VERTEX
  8
0
 62
4
 10
-1.98678747E+01
 20
1.54344866E+02
  0
VERTEX
  8
0
 62
4
 10
-1.97438571E+01
 20
1.54367390E+02
  0
VERTEX
  8
0
 62
4
 10
-1.96319660E+01
 20
1.54391754E+02
  0
VERTEX
  8
0
 62
4
 10
-1.95331024E+01
 20
1.54417762E+02
  0
VERTEX
  8
0
 62
4
 10
-1.94480623E+01
 20
1.54445204E+02
  0
VERTEX
  8
0
 62
4
 10
-1.93775303E+01
 20
1.54473859E+02
  0
VERTEX
  8
0
 62
4
 10
-1.93220743E+01
 20
1.54503496E+02
  0
VERTEX
  8
0
 62
4
 10
-1.92821408E+01
 20
1.54533878E+02
  0
VERTEX
  8
0
 62
4
 10
-1.92580514E+01
 20
1.54564759E+02
  0
VERTEX
  8
0
 62
4
 10
-1.92500000E+01
 20
1.54595890E+02
  0
SEQEND
  8
0
  0
LINE
  8
0
 62
6
 10
-1.17500000E+01
 20
1.54366175E+02
 11
-1.17500000E+01
 21
1.56717212E+02
  0
LINE
  8
0
 62
6
 10
-1.47500000E+01
 20
1.54366175E+02
 11
-1.47500000E+01
 21
1.56717212E+02
  0
LINE
  8
0
 62
4
 10
-1.12500000E+01
 20
1.54595890E+02
 11
-1.12500000E+01
 21
1.56717212E+02
  0
LINE
  8
0
 62
4
 10
-1.52500000E+01
 20
1.54595890E+02
 11
-1.52500000E+01
 21
1.56717212E+02
  0
POLYLINE
  8
0
 62
4
 66
1
  0
VERTEX
  8
0
 62
4
 10
-1.52500000E+01
 20
1.54595890E+02
  0
VERTEX
  8
0
 62
4
 10
-1.52419486E+01
 20
1.54564759E+02
  0
VERTEX
  8
0
 62
4
 10
-1.52178592E+01
 20
1.54533878E+02
  0
VERTEX
  8
0
 62
4
 10
-1.51779257E+01
 20
1.54503496E+02
  0
VERTEX
  8
0
 62
4
 10
-1.51224697E+01
 20
1.54473859E+02
  0
VERTEX
  8
0
 62
4
 10
-1.50519377E+01
 20
1.54445204E+02
  0
VERTEX
  8
0
 62
4
 10
-1.49668976E+01
 20
1.54417762E+02
  0
VERTEX
  8
0
 62
4
 10
-1.48680340E+01
 20
1.54391754E+02
  0
VERTEX
  8
0
 62
4
 10
-1.47561429E+01
 20
1.54367390E+02
  0
VERTEX
  8
0
 62
4
 10
-1.46321253E+01
 20
1.54344866E+02
  0
VERTEX
  8
0
 62
4
 10
-1.44969796E+01
 20
1.54324363E+02
  0
VERTEX
  8
0
 62
4
 10
-1.43517940E+01
 20
1.54306046E+02
  0
VERTEX
  8
0
 62
4
 10
-1.41977373E+01
 20
1.54290062E+02
  0
VERTEX
  8
0
 62
4
 10
-1.40360501E+01
 20
1.54276541E+02
  0
VERTEX
  8
0
 62
4
 10
-1.38680340E+01
 20
1.54265592E+02
  0
VERTEX
  8
0
 62
4
 10
-1.36950419E+01
 20
1.54257301E+02
  0
VERTEX
  8
0
 62
4
 10
-1.35184665E+01
 20
1.54251737E+02
  0
VERTEX
  8
0
 62
4
 10
-1.33397297E+01
 20
1.54248943E+02
  0
VERTEX
  8
0
 62
4
 10
-1.31602704E+01
 20
1.54248943E+02
  0
VERTEX
  8
0
 62
4
 10
-1.29815335E+01
 20
1.54251737E+02
  0
VERTEX
  8
0
 62
4
 10
-1.28049581E+01
 20
1.54257301E+02
  0
VERTEX
  8
0
 62
4
 10
-1.26319660E+01
 20
1.54265592E+02
  0
VERTEX
  8
0
 62
4
 10
-1.24639499E+01
 20
1.54276541E+02
  0
VERTEX
  8
0
 62
4
 10
-1.23022627E+01
 20
1.54290062E+02
  0
VERTEX
  8
0
 62
4
 10
-1.21482060E+01
 20
1.54306046E+02
  0
VERTEX
  8
0
 62
4
 10
-1.20030204E+01
 20
1.54324363E+02
  0
VERTEX
  8
0
 62
4
 10
-1.18678747E+01
 20
1.54344866E+02
  0
VERTEX
  8
0
 62
4
 10
-1.17438571E+01
 20
1.54367390E+02
  0
VERTEX
  8
0
 62
4
 10
-1.16319660E+01
 20
1.54391754E+02
  0
VERTEX
  8
0
 62
4
 10
-1.15331024E+01
 20
1.54417762E+02
  0
VERTEX
  8
0
 62
4
 10
-1.14480623E+01
 20
1.54445204E+02
  0
VERTEX
  8
0
 62
4
 10
-1.13775303E+01
 20
1.54473859E+02
  0
VERTEX
  8
0
 62
4
 10
-1.13220743E+01
 20
1.54503496E+02
  0
VERTEX
  8
0
 62
4
 10
-1.12821408E+01
 20
1.54533878E+02
  0
VERTEX
  8
0
 62
4
 10
-1.12580514E+01
 20
1.54564759E+02
  0
VERTEX
  8
0
 62
4
 10
-1.12500000E+01
 20
1.54595890E+02
  0
SEQEND
  8
0
  0
LINE
  8
0
 62
4
 10
5.25000000E+00
 20
1.77719224E+02
 11
6.75000000E+00
 21
1.78722156E+02
  0
LINE
  8
0
 62
4
 10
6.75000000E+00
 20
1.78722156E+02
 11
6.75000000E+00
 21
1.81346059E+02
  0
LINE
  8
0
 62
4
 10
6.75000000E+00
 20
1.80952746E+02
 11
5.25000000E+00
 21
1.81658455E+02
  0
LINE
  8
0
 62
4
 10
6.75000000E+00
 20
1.81346059E+02
 11
5.25000000E+00
 21
1.82353048E+02
  0
LINE
  8
0
 62
4
 10
5.25000001E+00
 20
1.82353048E+02
 11
-5.59999999E+00
 21
1.82353048E+02
  0
LINE
  8
0
 62
4
 10
5.25000001E+00
 20
1.81658455E+02
 11
-5.59999999E+00
 21
1.81658455E+02
  0
LINE
  8
0
 62
4
 10
5.25000000E+00
 20
1.81374669E+02
 11
5.25000000E+00
 21
1.82347099E+02
  0
POLYLINE
  8
0
 62
4
 66
1
  0
VERTEX
  8
0
 62
4
 10
-1.34500000E+01
 20
1.81005769E+02
  0
VERTEX
  8
0
 62
4
 10
-1.32681850E+01
 20
1.80949922E+02
  0
VERTEX
  8
0
 62
4
 10
-1.30584878E+01
 20
1.80897103E+02
  0
VERTEX
  8
0
 62
4
 10
-1.28225701E+01
 20
1.80847733E+02
  0
VERTEX
  8
0
 62
4
 10
-1.25623018E+01
 20
1.80802201E+02
  0
VERTEX
  8
0
 62
4
 10
-1.22797455E+01
 20
1.80760870E+02
  0
VERTEX
  8
0
 62
4
 10
-1.19771404E+01
 20
1.80724065E+02
  0
VERTEX
  8
0
 62
4
 10
-1.16568849E+01
 20
1.80692080E+02
  0
VERTEX
  8
0
 62
4
 10
-1.13215169E+01
 20
1.80665167E+02
  0
VERTEX
  8
0
 62
4
 10
-1.09736944E+01
 20
1.80643541E+02
  0
VERTEX
  8
0
 62
4
 10
-1.06161738E+01
 20
1.80627371E+02
  0
VERTEX
  8
0
 62
4
 10
-1.02517887E+01
 20
1.80616787E+02
  0
VERTEX
  8
0
 62
4
 10
-9.88342680E+00
 20
1.80611873E+02
  0
VERTEX
  8
0
 62
4
 10
-9.51400748E+00
 20
1.80612666E+02
  0
VERTEX
  8
0
 62
4
 10
-9.14645843E+00
 20
1.80619162E+02
  0
VERTEX
  8
0
 62
4
 10
-8.78369257E+00
 20
1.80631308E+02
  0
VERTEX
  8
0
 62
4
 10
-8.42858487E+00
 20
1.80649008E+02
  0
VERTEX
  8
0
 62
4
 10
-8.08394964E+00
 20
1.80672122E+02
  0
VERTEX
  8
0
 62
4
 10
-7.75251816E+00
 20
1.80700467E+02
  0
VERTEX
  8
0
 62
4
 10
-7.43691710E+00
 20
1.80733818E+02
  0
VERTEX
  8
0
 62
4
 10
-7.13964765E+00
 20
1.80771911E+02
  0
VERTEX
  8
0
 62
4
 10
-6.86306574E+00
 20
1.80814444E+02
  0
VERTEX
  8
0
 62
4
 10
-6.60936331E+00
 20
1.80861079E+02
  0
VERTEX
  8
0
 62
4
 10
-6.38055102E+00
 20
1.80911448E+02
  0
VERTEX
  8
0
 62
4
 10
-6.17844223E+00
 20
1.80965151E+02
  0
VERTEX
  8
0
 62
4
 10
-6.00463871E+00
 20
1.81021763E+02
  0
VERTEX
  8
0
 62
4
 10
-5.86051787E+00
 20
1.81080834E+02
  0
VERTEX
  8
0
 62
4
 10
-5.74722191E+00
 20
1.81141897E+02
  0
VERTEX
  8
0
 62
4
 10
-5.66564871E+00
 20
1.81204467E+02
  0
VERTEX
  8
0
 62
4
 10
-5.61644475E+00
 20
1.81268050E+02
  0
VERTEX
  8
0
 62
4
 10
-5.59999999E+00
 20
1.81332140E+02
  0
SEQEND
  8
0
  0
ARC
  8
0
 62
4
 10
-9.75773829E+00
 20
1.72175034E+02
 40
1.18100000E+01
 50
8.99624577E+01
 51
1.09675998E+02
  0
ARC
  8
0
 62
4
 10
-9.74226171E+00
 20
1.72175034E+02
 40
1.18100000E+01
 50
7.03240015E+01
 51
9.00375421E+01
  0
LINE
  8
0
 62
4
 10
-5.59999999E+00
 20
1.83060065E+02
 11
-5.59999999E+00
 21
1.81332140E+02
  0
LINE
  8
0
 62
4
 10
-1.39000000E+01
 20
1.83060065E+02
 11
-1.39000000E+01
 21
1.82920956E+02
  0
LINE
  8
0
 62
4
 10
-5.75000000E+00
 20
1.80957914E+02
 11
-5.75000000E+00
 21
1.81140143E+02
  0
POLYLINE
  8
0
 62
4
 66
1
  0
VERTEX
  8
0
 62
4
 10
-1.34500000E+01
 20
1.80693992E+02
  0
VERTEX
  8
0
 62
4
 10
-1.33006920E+01
 20
1.80638072E+02
  0
VERTEX
  8
0
 62
4
 10
-1.31234233E+01
 20
1.80584671E+02
  0
VERTEX
  8
0
 62
4
 10
-1.29195899E+01
 20
1.80534209E+02
  0
VERTEX
  8
0
 62
4
 10
-1.26907968E+01
 20
1.80487084E+02
  0
VERTEX
  8
0
 62
4
 10
-1.24388458E+01
 20
1.80443666E+02
  0
VERTEX
  8
0
 62
4
 10
-1.21657208E+01
 20
1.80404298E+02
  0
VERTEX
  8
0
 62
4
 10
-1.18735727E+01
 20
1.80369289E+02
  0
VERTEX
  8
0
 62
4
 10
-1.15647021E+01
 20
1.80338916E+02
  0
VERTEX
  8
0
 62
4
 10
-1.12415412E+01
 20
1.80313417E+02
  0
VERTEX
  8
0
 62
4
 10
-1.09066348E+01
 20
1.80292993E+02
  0
VERTEX
  8
0
 62
4
 10
-1.05626202E+01
 20
1.80277806E+02
  0
VERTEX
  8
0
 62
4
 10
-1.02122065E+01
 20
1.80267974E+02
  0
VERTEX
  8
0
 62
4
 10
-9.85815306E+00
 20
1.80263575E+02
  0
VERTEX
  8
0
 62
4
 10
-9.50324792E+00
 20
1.80264644E+02
  0
VERTEX
  8
0
 62
4
 10
-9.15028589E+00
 20
1.80271172E+02
  0
VERTEX
  8
0
 62
4
 10
-8.80204643E+00
 20
1.80283108E+02
  0
VERTEX
  8
0
 62
4
 10
-8.46127185E+00
 20
1.80300359E+02
  0
VERTEX
  8
0
 62
4
 10
-8.13064565E+00
 20
1.80322787E+02
  0
VERTEX
  8
0
 62
4
 10
-7.81277141E+00
 20
1.80350216E+02
  0
VERTEX
  8
0
 62
4
 10
-7.51015231E+00
 20
1.80382431E+02
  0
VERTEX
  8
0
 62
4
 10
-7.22517138E+00
 20
1.80419178E+02
  0
VERTEX
  8
0
 62
4
 10
-6.96007278E+00
 20
1.80460167E+02
  0
VERTEX
  8
0
 62
4
 10
-6.71694407E+00
 20
1.80505076E+02
  0
VERTEX
  8
0
 62
4
 10
-6.49769984E+00
 20
1.80553551E+02
  0
VERTEX
  8
0
 62
4
 10
-6.30406657E+00
 20
1.80605210E+02
  0
VERTEX
  8
0
 62
4
 10
-6.13756907E+00
 20
1.80659646E+02
  0
VERTEX
  8
0
 62
4
 10
-5.99951845E+00
 20
1.80716431E+02
  0
VERTEX
  8
0
 62
4
 10
-5.89100183E+00
 20
1.80775118E+02
  0
VERTEX
  8
0
 62
4
 10
-5.81287375E+00
 20
1.80835245E+02
  0
VERTEX
  8
0
 62
4
 10
-5.76574944E+00
 20
1.80896337E+02
  0
VERTEX
  8
0
 62
4
 10
-5.75000000E+00
 20
1.80957914E+02
  0
SEQEND
  8
0
  0
ARC
  8
0
 62
4
 10
-7.63139445E+00
 20
1.71473824E+02
 40
1.25124521E+01
 50
9.49416351E+01
 51
1.08095416E+02
  0
ARC
  8
0
 62
4
 10
-1.18686058E+01
 20
1.71473822E+02
 40
1.25124547E+01
 50
7.19045858E+01
 51
8.50583647E+01
  0
POLYLINE
  8
0
 62
4
 66
1
  0
VERTEX
  8
0
 62
4
 10
-1.39000000E+01
 20
1.83065402E+02
  0
VERTEX
  8
0
 62
4
 10
-1.38832933E+01
 20
1.83000804E+02
  0
VERTEX
  8
0
 62
4
 10
-1.38333078E+01
 20
1.82936727E+02
  0
VERTEX
  8
0
 62
4
 10
-1.37504459E+01
 20
1.82873685E+02
  0
VERTEX
  8
0
 62
4
 10
-1.36353747E+01
 20
1.82812187E+02
  0
VERTEX
  8
0
 62
4
 10
-1.34890208E+01
 20
1.82752728E+02
  0
VERTEX
  8
0
 62
4
 10
-1.33125625E+01
 20
1.82695786E+02
  0
VERTEX
  8
0
 62
4
 10
-1.31074205E+01
 20
1.82641820E+02
  0
VERTEX
  8
0
 62
4
 10
-1.28752466E+01
 20
1.82591265E+02
  0
VERTEX
  8
0
 62
4
 10
-1.26179100E+01
 20
1.82544527E+02
  0
VERTEX
  8
0
 62
4
 10
-1.23374827E+01
 20
1.82501983E+02
  0
VERTEX
  8
0
 62
4
 10
-1.20362225E+01
 20
1.82463975E+02
  0
VERTEX
  8
0
 62
4
 10
-1.17165550E+01
 20
1.82430810E+02
  0
VERTEX
  8
0
 62
4
 10
-1.13810539E+01
 20
1.82402754E+02
  0
VERTEX
  8
0
 62
4
 10
-1.10324205E+01
 20
1.82380033E+02
  0
VERTEX
  8
0
 62
4
 10
-1.06734619E+01
 20
1.82362830E+02
  0
VERTEX
  8
0
 62
4
 10
-1.03070681E+01
 20
1.82351284E+02
  0
VERTEX
  8
0
 62
4
 10
-9.93618907E+00
 20
1.82345488E+02
  0
VERTEX
  8
0
 62
4
 10
-9.56381098E+00
 20
1.82345488E+02
  0
VERTEX
  8
0
 62
4
 10
-9.19293197E+00
 20
1.82351284E+02
  0
VERTEX
  8
0
 62
4
 10
-8.82653814E+00
 20
1.82362830E+02
  0
VERTEX
  8
0
 62
4
 10
-8.46757949E+00
 20
1.82380033E+02
  0
VERTEX
  8
0
 62
4
 10
-8.11894614E+00
 20
1.82402754E+02
  0
VERTEX
  8
0
 62
4
 10
-7.78344507E+00
 20
1.82430810E+02
  0
VERTEX
  8
0
 62
4
 10
-7.46377754E+00
 20
1.82463975E+02
  0
VERTEX
  8
0
 62
4
 10
-7.16251734E+00
 20
1.82501983E+02
  0
VERTEX
  8
0
 62
4
 10
-6.88209002E+00
 20
1.82544527E+02
  0
VERTEX
  8
0
 62
4
 10
-6.62475343E+00
 20
1.82591265E+02
  0
VERTEX
  8
0
 62
4
 10
-6.39257948E+00
 20
1.82641820E+02
  0
VERTEX
  8
0
 62
4
 10
-6.18743751E+00
 20
1.82695786E+02
  0
VERTEX
  8
0
 62
4
 10
-6.01097920E+00
 20
1.82752728E+02
  0
VERTEX
  8
0
 62
4
 10
-5.86462529E+00
 20
1.82812187E+02
  0
VERTEX
  8
0
 62
4
 10
-5.74955413E+00
 20
1.82873685E+02
  0
VERTEX
  8
0
 62
4
 10
-5.66669220E+00
 20
1.82936727E+02
  0
VERTEX
  8
0
 62
4
 10
-5.61670667E+00
 20
1.83000804E+02
  0
VERTEX
  8
0
 62
4
 10
-5.59999999E+00
 20
1.83065402E+02
  0
SEQEND
  8
0
  0
ARC
  8
0
 62
4
 10
-5.84999999E+00
 20
1.83060065E+02
 40
2.50000000E-01
 50
0.00000000E+00
 51
7.03240015E+01
  0
ARC
  8
0
 62
4
 10
-1.36500000E+01
 20
1.83060065E+02
 40
2.50000000E-01
 50
1.09675998E+02
 51
1.80000000E+02
  0
LINE
  8
0
 62
4
 10
-1.34500000E+01
 20
1.81334953E+02
 11
-1.34500000E+01
 21
1.80350145E+02
  0
LINE
  8
0
 62
4
 10
-2.10500000E+01
 20
1.81334953E+02
 11
-2.10500000E+01
 21
1.80350145E+02
  0
POLYLINE
  8
0
 62
4
 66
1
  0
VERTEX
  8
0
 62
4
 10
-2.10500000E+01
 20
1.80350145E+02
  0
VERTEX
  8
0
 62
4
 10
-2.10347023E+01
 20
1.80290995E+02
  0
VERTEX
  8
0
 62
4
 10
-2.09889324E+01
 20
1.80232322E+02
  0
VERTEX
  8
0
 62
4
 10
-2.09130589E+01
 20
1.80174597E+02
  0
VERTEX
  8
0
 62
4
 10
-2.08076925E+01
 20
1.80118286E+02
  0
VERTEX
  8
0
 62
4
 10
-2.06736817E+01
 20
1.80063841E+02
  0
VERTEX
  8
0
 62
4
 10
-2.05121054E+01
 20
1.80011702E+02
  0
VERTEX
  8
0
 62
4
 10
-2.03242646E+01
 20
1.79962287E+02
  0
VERTEX
  8
0
 62
4
 10
-2.01116716E+01
 20
1.79915996E+02
  0
VERTEX
  8
0
 62
4
 10
-1.98760381E+01
 20
1.79873199E+02
  0
VERTEX
  8
0
 62
4
 10
-1.96192613E+01
 20
1.79834243E+02
  0
VERTEX
  8
0
 62
4
 10
-1.93434085E+01
 20
1.79799441E+02
  0
VERTEX
  8
0
 62
4
 10
-1.90507009E+01
 20
1.79769073E+02
  0
VERTEX
  8
0
 62
4
 10
-1.87434951E+01
 20
1.79743383E+02
  0
VERTEX
  8
0
 62
4
 10
-1.84242646E+01
 20
1.79722578E+02
  0
VERTEX
  8
0
 62
4
 10
-1.80955796E+01
 20
1.79706826E+02
  0
VERTEX
  8
0
 62
4
 10
-1.77600864E+01
 20
1.79696254E+02
  0
VERTEX
  8
0
 62
4
 10
-1.74204864E+01
 20
1.79690946E+02
  0
VERTEX
  8
0
 62
4
 10
-1.70795137E+01
 20
1.79690946E+02
  0
VERTEX
  8
0
 62
4
 10
-1.67399136E+01
 20
1.79696254E+02
  0
VERTEX
  8
0
 62
4
 10
-1.64044205E+01
 20
1.79706826E+02
  0
VERTEX
  8
0
 62
4
 10
-1.60757354E+01
 20
1.79722578E+02
  0
VERTEX
  8
0
 62
4
 10
-1.57565049E+01
 20
1.79743383E+02
  0
VERTEX
  8
0
 62
4
 10
-1.54492991E+01
 20
1.79769073E+02
  0
VERTEX
  8
0
 62
4
 10
-1.51565915E+01
 20
1.79799441E+02
  0
VERTEX
  8
0
 62
4
 10
-1.48807388E+01
 20
1.79834243E+02
  0
VERTEX
  8
0
 62
4
 10
-1.46239620E+01
 20
1.79873199E+02
  0
VERTEX
  8
0
 62
4
 10
-1.43883284E+01
 20
1.79915996E+02
  0
VERTEX
  8
0
 62
4
 10
-1.41757354E+01
 20
1.79962287E+02
  0
VERTEX
  8
0
 62
4
 10
-1.39878946E+01
 20
1.80011702E+02
  0
VERTEX
  8
0
 62
4
 10
-1.38263183E+01
 20
1.80063841E+02
  0
VERTEX
  8
0
 62
4
 10
-1.36923075E+01
 20
1.80118286E+02
  0
VERTEX
  8
0
 62
4
 10
-1.35869411E+01
 20
1.80174597E+02
  0
VERTEX
  8
0
 62
4
 10
-1.35110676E+01
 20
1.80232322E+02
  0
VERTEX
  8
0
 62
4
 10
-1.34652977E+01
 20
1.80290995E+02
  0
VERTEX
  8
0
 62
4
 10
-1.34500000E+01
 20
1.80350145E+02
  0
SEQEND
  8
0
  0
POLYLINE
  8
0
 62
4
 66
1
  0
VERTEX
  8
0
 62
4
 10
-2.06500000E+01
 20
1.81629644E+02
  0
VERTEX
  8
0
 62
4
 10
-2.07865817E+01
 20
1.81576355E+02
  0
VERTEX
  8
0
 62
4
 10
-2.08955295E+01
 20
1.81521179E+02
  0
VERTEX
  8
0
 62
4
 10
-2.09759923E+01
 20
1.81464549E+02
  0
VERTEX
  8
0
 62
4
 10
-2.10273413E+01
 20
1.81406906E+02
  0
VERTEX
  8
0
 62
4
 10
-2.10491753E+01
 20
1.81348700E+02
  0
VERTEX
  8
0
 62
4
 10
-2.10413236E+01
 20
1.81290387E+02
  0
VERTEX
  8
0
 62
4
 10
-2.10038476E+01
 20
1.81232423E+02
  0
VERTEX
  8
0
 62
4
 10
-2.09370402E+01
 20
1.81175260E+02
  0
VERTEX
  8
0
 62
4
 10
-2.08414234E+01
 20
1.81119344E+02
  0
VERTEX
  8
0
 62
4
 10
-2.07177442E+01
 20
1.81065113E+02
  0
VERTEX
  8
0
 62
4
 10
-2.05669691E+01
 20
1.81012991E+02
  0
VERTEX
  8
0
 62
4
 10
-2.03902762E+01
 20
1.80963384E+02
  0
VERTEX
  8
0
 62
4
 10
-2.01890462E+01
 20
1.80916680E+02
  0
VERTEX
  8
0
 62
4
 10
-1.99648512E+01
 20
1.80873245E+02
  0
VERTEX
  8
0
 62
4
 10
-1.97194433E+01
 20
1.80833418E+02
  0
VERTEX
  8
0
 62
4
 10
-1.94547398E+01
 20
1.80797509E+02
  0
VERTEX
  8
0
 62
4
 10
-1.91728092E+01
 20
1.80765800E+02
  0
VERTEX
  8
0
 62
4
 10
-1.88758543E+01
 20
1.80738538E+02
  0
VERTEX
  8
0
 62
4
 10
-1.85661954E+01
 20
1.80715936E+02
  0
VERTEX
  8
0
 62
4
 10
-1.82462522E+01
 20
1.80698171E+02
  0
VERTEX
  8
0
 62
4
 10
-1.79185246E+01
 20
1.80685382E+02
  0
VERTEX
  8
0
 62
4
 10
-1.75855733E+01
 20
1.80677668E+02
  0
VERTEX
  8
0
 62
4
 10
-1.72500000E+01
 20
1.80675090E+02
  0
VERTEX
  8
0
 62
4
 10
-1.69144266E+01
 20
1.80677668E+02
  0
VERTEX
  8
0
 62
4
 10
-1.65814754E+01
 20
1.80685382E+02
  0
VERTEX
  8
0
 62
4
 10
-1.62537477E+01
 20
1.80698171E+02
  0
VERTEX
  8
0
 62
4
 10
-1.59338045E+01
 20
1.80715936E+02
  0
VERTEX
  8
0
 62
4
 10
-1.56241457E+01
 20
1.80738538E+02
  0
VERTEX
  8
0
 62
4
 10
-1.53271908E+01
 20
1.80765800E+02
  0
VERTEX
  8
0
 62
4
 10
-1.50452601E+01
 20
1.80797509E+02
  0
VERTEX
  8
0
 62
4
 10
-1.47805567E+01
 20
1.80833418E+02
  0
VERTEX
  8
0
 62
4
 10
-1.45351487E+01
 20
1.80873245E+02
  0
VERTEX
  8
0
 62
4
 10
-1.43109538E+01
 20
1.80916680E+02
  0
VERTEX
  8
0
 62
4
 10
-1.41097237E+01
 20
1.80963384E+02
  0
VERTEX
  8
0
 62
4
 10
-1.39330308E+01
 20
1.81012991E+02
  0
VERTEX
  8
0
 62
4
 10
-1.37822558E+01
 20
1.81065113E+02
  0
VERTEX
  8
0
 62
4
 10
-1.36585766E+01
 20
1.81119344E+02
  0
VERTEX
  8
0
 62
4
 10
-1.35629598E+01
 20
1.81175260E+02
  0
VERTEX
  8
0
 62
4
 10
-1.34961524E+01
 20
1.81232423E+02
  0
VERTEX
  8
0
 62
4
 10
-1.34586764E+01
 20
1.81290387E+02
  0
VERTEX
  8
0
 62
4
 10
-1.34508248E+01
 20
1.81348700E+02
  0
VERTEX
  8
0
 62
4
 10
-1.34726587E+01
 20
1.81406906E+02
  0
VERTEX
  8
0
 62
4
 10
-1.35240077E+01
 20
1.81464549E+02
  0
VERTEX
  8
0
 62
4
 10
-1.36044705E+01
 20
1.81521179E+02
  0
VERTEX
  8
0
 62
4
 10
-1.37134183E+01
 20
1.81576355E+02
  0
VERTEX
  8
0
 62
4
 10
-1.38500000E+01
 20
1.81629644E+02
  0
SEQEND
  8
0
  0
LINE
  8
0
 62
4
 10
-1.38500000E+01
 20
1.82608705E+02
 11
-1.38500000E+01
 21
1.81334953E+02
  0
LINE
  8
0
 62
4
 10
-2.06500000E+01
 20
1.82608705E+02
 11
-2.06500000E+01
 21
1.81334953E+02
  0
POLYLINE
  8
0
 62
4
 66
1
  0
VERTEX
  8
0
 62
4
 10
-2.06500000E+01
 20
1.81334953E+02
  0
VERTEX
  8
0
 62
4
 10
-2.06363126E+01
 20
1.81282030E+02
  0
VERTEX
  8
0
 62
4
 10
-2.05953606E+01
 20
1.81229532E+02
  0
VERTEX
  8
0
 62
4
 10
-2.05274737E+01
 20
1.81177884E+02
  0
VERTEX
  8
0
 62
4
 10
-2.04331986E+01
 20
1.81127500E+02
  0
VERTEX
  8
0
 62
4
 10
-2.03132942E+01
 20
1.81078786E+02
  0
VERTEX
  8
0
 62
4
 10
-2.01687259E+01
 20
1.81032135E+02
  0
VERTEX
  8
0
 62
4
 10
-2.00006578E+01
 20
1.80987922E+02
  0
VERTEX
  8
0
 62
4
 10
-1.98104430E+01
 20
1.80946503E+02
  0
VERTEX
  8
0
 62
4
 10
-1.95996130E+01
 20
1.80908212E+02
  0
VERTEX
  8
0
 62
4
 10
-1.93698653E+01
 20
1.80873357E+02
  0
VERTEX
  8
0
 62
4
 10
-1.91230498E+01
 20
1.80842218E+02
  0
VERTEX
  8
0
 62
4
 10
-1.88611535E+01
 20
1.80815046E+02
  0
VERTEX
  8
0
 62
4
 10
-1.85862851E+01
 20
1.80792060E+02
  0
VERTEX
  8
0
 62
4
 10
-1.83006578E+01
 20
1.80773446E+02
  0
VERTEX
  8
0
 62
4
 10
-1.80065712E+01
 20
1.80759352E+02
  0
VERTEX
  8
0
 62
4
 10
-1.77063931E+01
 20
1.80749892E+02
  0
VERTEX
  8
0
 62
4
 10
-1.74025404E+01
 20
1.80745144E+02
  0
VERTEX
  8
0
 62
4
 10
-1.70974596E+01
 20
1.80745144E+02
  0
VERTEX
  8
0
 62
4
 10
-1.67936069E+01
 20
1.80749892E+02
  0
VERTEX
  8
0
 62
4
 10
-1.64934288E+01
 20
1.80759352E+02
  0
VERTEX
  8
0
 62
4
 10
-1.61993422E+01
 20
1.80773446E+02
  0
VERTEX
  8
0
 62
4
 10
-1.59137149E+01
 20
1.80792060E+02
  0
VERTEX
  8
0
 62
4
 10
-1.56388466E+01
 20
1.80815046E+02
  0
VERTEX
  8
0
 62
4
 10
-1.53769503E+01
 20
1.80842218E+02
  0
VERTEX
  8
0
 62
4
 10
-1.51301347E+01
 20
1.80873357E+02
  0
VERTEX
  8
0
 62
4
 10
-1.49003870E+01
 20
1.80908212E+02
  0
VERTEX
  8
0
 62
4
 10
-1.46895570E+01
 20
1.80946503E+02
  0
VERTEX
  8
0
 62
4
 10
-1.44993422E+01
 20
1.80987922E+02
  0
VERTEX
  8
0
 62
4
 10
-1.43312741E+01
 20
1.81032135E+02
  0
VERTEX
  8
0
 62
4
 10
-1.41867059E+01
 20
1.81078786E+02
  0
VERTEX
  8
0
 62
4
 10
-1.40668014E+01
 20
1.81127500E+02
  0
VERTEX
  8
0
 62
4
 10
-1.39725263E+01
 20
1.81177884E+02
  0
VERTEX
  8
0
 62
4
 10
-1.39046394E+01
 20
1.81229532E+02
  0
VERTEX
  8
0
 62
4
 10
-1.38636874E+01
 20
1.81282030E+02
  0
VERTEX
  8
0
 62
4
 10
-1.38500000E+01
 20
1.81334953E+02
  0
SEQEND
  8
0
  0
ARC
  8
0
 62
4
 10
-1.72500000E+01
 20
1.72068492E+02
 40
1.18100000E+01
 50
7.71724899E+01
 51
1.02827510E+02
  0
ARC
  8
0
 62
4
 10
-1.96500003E+01
 20
1.82608705E+02
 40
1.00000000E+00
 50
1.02827510E+02
 51
1.80000000E+02
  0
ARC
  8
0
 62
4
 10
-1.48499997E+01
 20
1.82608705E+02
 40
1.00000000E+00
 50
3.60000000E+02
 51
7.71724899E+01
  0
ARC
  8
0
 62
4
 10
-1.51282465E+01
 20
1.71349348E+02
 40
1.25306621E+01
 50
9.49686598E+01
 51
1.08083352E+02
  0
ARC
  8
0
 62
4
 10
-1.93717536E+01
 20
1.71349348E+02
 40
1.25306626E+01
 50
7.19166483E+01
 51
8.50313400E+01
  0
LINE
  8
0
  6
CENTER
 62
6
 10
-7.24999999E+00
 20
1.80957914E+02
 11
-1.22500000E+01
 21
1.80957914E+02
  0
LINE
  8
0
  6
CENTER
 62
6
 10
-1.72500000E+01
 20
1.77850145E+02
 11
-1.72500000E+01
 21
1.82850145E+02
  0
LINE
  8
0
  6
CENTER
 62
6
 10
-1.47500000E+01
 20
1.80350145E+02
 11
-1.97500000E+01
 21
1.80350145E+02
  0
LINE
  8
0
  6
CENTER
 62
6
 10
-2.25000000E+00
 20
1.77850145E+02
 11
-2.25000000E+00
 21
1.82850145E+02
  0
LINE
  8
0
  6
CENTER
 62
6
 10
2.50000008E-01
 20
1.80350145E+02
 11
-4.74999999E+00
 21
1.80350145E+02
  0
LINE
  8
0
 62
4
 10
-2.10431106E+01
 20
1.81374669E+02
 11
-2.47500000E+01
 21
1.81374669E+02
  0
LINE
  8
0
 62
6
 10
-5.87500000E+01
 20
2.22372785E+02
 11
-5.87500000E+01
 21
2.20021748E+02
  0
LINE
  8
0
 62
6
 10
-5.57500000E+01
 20
2.22372785E+02
 11
-5.57500000E+01
 21
2.20021748E+02
  0
LINE
  8
0
 62
4
 10
-5.92500000E+01
 20
2.22143070E+02
 11
-5.92500000E+01
 21
2.20021748E+02
  0
LINE
  8
0
 62
4
 10
-5.52500000E+01
 20
2.22143070E+02
 11
-5.52500000E+01
 21
2.20021748E+02
  0
LINE
  8
0
 62
4
 10
-6.87500000E+01
 20
2.20021748E+02
 11
-6.87500000E+01
 21
2.07313752E+02
  0
LINE
  8
0
 62
4
 10
-5.37500000E+01
 20
2.20021748E+02
 11
-5.37500000E+01
 21
1.94391861E+02
  0
LINE
  8
0
 62
4
 10
-8.37500000E+01
 20
2.07313752E+02
 11
-8.37500000E+01
 21
1.95364291E+02
  0
LINE
  8
0
  6
CENTER
 62
6
 10
-5.72500000E+01
 20
2.25485044E+02
 11
-5.72500000E+01
 21
2.15219465E+02
  0
LINE
  8
0
  6
CENTER
 62
6
 10
-6.52500000E+01
 20
2.25485044E+02
 11
-6.52500000E+01
 21
2.15219465E+02
  0
LINE
  8
0
  6
CENTER
 62
6
 10
-6.87500000E+01
 20
1.98281046E+02
 11
-6.87500000E+01
 21
1.93281046E+02
  0
LINE
  8
0
 62
4
 10
-6.87500000E+01
 20
2.20021748E+02
 11
-5.37500000E+01
 21
2.20021748E+02
  0
LINE
  8
0
 62
4
 10
-6.87500000E+01
 20
2.14207406E+02
 11
-5.37500000E+01
 21
2.14207406E+02
  0
LINE
  8
0
 62
4
 10
-8.37500000E+01
 20
2.07313752E+02
 11
-5.37500000E+01
 21
2.07313752E+02
  0
LINE
  8
0
 62
4
 10
-8.37500000E+01
 20
1.97170232E+02
 11
-5.37500000E+01
 21
1.97170232E+02
  0
LINE
  8
0
 62
4
 10
-5.78500000E+01
 20
1.94391861E+02
 11
-5.37500000E+01
 21
1.94391861E+02
  0
LINE
  8
0
 62
4
 10
-5.78500000E+01
 20
1.94565509E+02
 11
-5.37500000E+01
 21
1.94565509E+02
  0
LINE
  8
0
 62
4
 10
-8.37500000E+01
 20
1.95364291E+02
 11
-7.29000000E+01
 21
1.95364291E+02
  0
POLYLINE
  8
0
 62
4
 66
1
  0
VERTEX
  8
0
 62
4
 10
-5.52500000E+01
 20
2.22143070E+02
  0
VERTEX
  8
0
 62
4
 10
-5.52580514E+01
 20
2.22174201E+02
  0
VERTEX
  8
0
 62
4
 10
-5.52821408E+01
 20
2.22205082E+02
  0
VERTEX
  8
0
 62
4
 10
-5.53220743E+01
 20
2.22235464E+02
  0
VERTEX
  8
0
 62
4
 10
-5.53775303E+01
 20
2.22265101E+02
  0
VERTEX
  8
0
 62
4
 10
-5.54480623E+01
 20
2.22293756E+02
  0
VERTEX
  8
0
 62
4
 10
-5.55331024E+01
 20
2.22321198E+02
  0
VERTEX
  8
0
 62
4
 10
-5.56319660E+01
 20
2.22347206E+02
  0
VERTEX
  8
0
 62
4
 10
-5.57438571E+01
 20
2.22371570E+02
  0
VERTEX
  8
0
 62
4
 10
-5.58678747E+01
 20
2.22394094E+02
  0
VERTEX
  8
0
 62
4
 10
-5.60030204E+01
 20
2.22414597E+02
  0
VERTEX
  8
0
 62
4
 10
-5.61482060E+01
 20
2.22432914E+02
  0
VERTEX
  8
0
 62
4
 10
-5.63022627E+01
 20
2.22448898E+02
  0
VERTEX
  8
0
 62
4
 10
-5.64639499E+01
 20
2.22462419E+02
  0
VERTEX
  8
0
 62
4
 10
-5.66319660E+01
 20
2.22473368E+02
  0
VERTEX
  8
0
 62
4
 10
-5.68049581E+01
 20
2.22481659E+02
  0
VERTEX
  8
0
 62
4
 10
-5.69815335E+01
 20
2.22487223E+02
  0
VERTEX
  8
0
 62
4
 10
-5.71602703E+01
 20
2.22490017E+02
  0
VERTEX
  8
0
 62
4
 10
-5.73397296E+01
 20
2.22490017E+02
  0
VERTEX
  8
0
 62
4
 10
-5.75184665E+01
 20
2.22487223E+02
  0
VERTEX
  8
0
 62
4
 10
-5.76950419E+01
 20
2.22481659E+02
  0
VERTEX
  8
0
 62
4
 10
-5.78680340E+01
 20
2.22473368E+02
  0
VERTEX
  8
0
 62
4
 10
-5.80360501E+01
 20
2.22462419E+02
  0
VERTEX
  8
0
 62
4
 10
-5.81977373E+01
 20
2.22448898E+02
  0
VERTEX
  8
0
 62
4
 10
-5.83517940E+01
 20
2.22432914E+02
  0
VERTEX
  8
0
 62
4
 10
-5.84969796E+01
 20
2.22414597E+02
  0
VERTEX
  8
0
 62
4
 10
-5.86321253E+01
 20
2.22394094E+02
  0
VERTEX
  8
0
 62
4
 10
-5.87561429E+01
 20
2.22371570E+02
  0
VERTEX
  8
0
 62
4
 10
-5.88680340E+01
 20
2.22347206E+02
  0
VERTEX
  8
0
 62
4
 10
-5.89668976E+01
 20
2.22321198E+02
  0
VERTEX
  8
0
 62
4
 10
-5.90519377E+01
 20
2.22293756E+02
  0
VERTEX
  8
0
 62
4
 10
-5.91224697E+01
 20
2.22265101E+02
  0
VERTEX
  8
0
 62
4
 10
-5.91779257E+01
 20
2.22235464E+02
  0
VERTEX
  8
0
 62
4
 10
-5.92178592E+01
 20
2.22205082E+02
  0
VERTEX
  8
0
 62
4
 10
-5.92419486E+01
 20
2.22174201E+02
  0
VERTEX
  8
0
 62
4
 10
-5.92500000E+01
 20
2.22143070E+02
  0
SEQEND
  8
0
  0
LINE
  8
0
 62
6
 10
-6.67500000E+01
 20
2.22372785E+02
 11
-6.67500000E+01
 21
2.20021748E+02
  0
LINE
  8
0
 62
6
 10
-6.37500000E+01
 20
2.22372785E+02
 11
-6.37500000E+01
 21
2.20021748E+02
  0
LINE
  8
0
 62
4
 10
-6.72500000E+01
 20
2.22143070E+02
 11
-6.72500000E+01
 21
2.20021748E+02
  0
LINE
  8
0
 62
4
 10
-6.32500000E+01
 20
2.22143070E+02
 11
-6.32500000E+01
 21
2.20021748E+02
  0
POLYLINE
  8
0
 62
4
 66
1
  0
VERTEX
  8
0
 62
4
 10
-6.32500000E+01
 20
2.22143070E+02
  0
VERTEX
  8
0
 62
4
 10
-6.32580514E+01
 20
2.22174201E+02
  0
VERTEX
  8
0
 62
4
 10
-6.32821408E+01
 20
2.22205082E+02
  0
VERTEX
  8
0
 62
4
 10
-6.33220743E+01
 20
2.22235464E+02
  0
VERTEX
  8
0
 62
4
 10
-6.33775303E+01
 20
2.22265101E+02
  0
VERTEX
  8
0
 62
4
 10
-6.34480623E+01
 20
2.22293756E+02
  0
VERTEX
  8
0
 62
4
 10
-6.35331024E+01
 20
2.22321198E+02
  0
VERTEX
  8
0
 62
4
 10
-6.36319660E+01
 20
2.22347206E+02
  0
VERTEX
  8
0
 62
4
 10
-6.37438571E+01
 20
2.22371570E+02
  0
VERTEX
  8
0
 62
4
 10
-6.38678747E+01
 20
2.22394094E+02
  0
VERTEX
  8
0
 62
4
 10
-6.40030204E+01
 20
2.22414597E+02
  0
VERTEX
  8
0
 62
4
 10
-6.41482060E+01
 20
2.22432914E+02
  0
VERTEX
  8
0
 62
4
 10
-6.43022627E+01
 20
2.22448898E+02
  0
VERTEX
  8
0
 62
4
 10
-6.44639499E+01
 20
2.22462419E+02
  0
VERTEX
  8
0
 62
4
 10
-6.46319660E+01
 20
2.22473368E+02
  0
VERTEX
  8
0
 62
4
 10
-6.48049581E+01
 20
2.22481659E+02
  0
VERTEX
  8
0
 62
4
 10
-6.49815335E+01
 20
2.22487223E+02
  0
VERTEX
  8
0
 62
4
 10
-6.51602703E+01
 20
2.22490017E+02
  0
VERTEX
  8
0
 62
4
 10
-6.53397296E+01
 20
2.22490017E+02
  0
VERTEX
  8
0
 62
4
 10
-6.55184665E+01
 20
2.22487223E+02
  0
VERTEX
  8
0
 62
4
 10
-6.56950419E+01
 20
2.22481659E+02
  0
VERTEX
  8
0
 62
4
 10
-6.58680340E+01
 20
2.22473368E+02
  0
VERTEX
  8
0
 62
4
 10
-6.60360501E+01
 20
2.22462419E+02
  0
VERTEX
  8
0
 62
4
 10
-6.61977373E+01
 20
2.22448898E+02
  0
VERTEX
  8
0
 62
4
 10
-6.63517940E+01
 20
2.22432914E+02
  0
VERTEX
  8
0
 62
4
 10
-6.64969796E+01
 20
2.22414597E+02
  0
VERTEX
  8
0
 62
4
 10
-6.66321253E+01
 20
2.22394094E+02
  0
VERTEX
  8
0
 62
4
 10
-6.67561429E+01
 20
2.22371570E+02
  0
VERTEX
  8
0
 62
4
 10
-6.68680340E+01
 20
2.22347206E+02
  0
VERTEX
  8
0
 62
4
 10
-6.69668976E+01
 20
2.22321198E+02
  0
VERTEX
  8
0
 62
4
 10
-6.70519377E+01
 20
2.22293756E+02
  0
VERTEX
  8
0
 62
4
 10
-6.71224697E+01
 20
2.22265101E+02
  0
VERTEX
  8
0
 62
4
 10
-6.71779257E+01
 20
2.22235464E+02
  0
VERTEX
  8
0
 62
4
 10
-6.72178592E+01
 20
2.22205082E+02
  0
VERTEX
  8
0
 62
4
 10
-6.72419486E+01
 20
2.22174201E+02
  0
VERTEX
  8
0
 62
4
 10
-6.72500000E+01
 20
2.22143070E+02
  0
SEQEND
  8
0
  0
LINE
  8
0
 62
4
 10
-8.37500000E+01
 20
1.99019736E+02
 11
-8.52500000E+01
 21
1.98016803E+02
  0
LINE
  8
0
 62
4
 10
-8.52500000E+01
 20
1.98016803E+02
 11
-8.52500000E+01
 21
1.95392901E+02
  0
LINE
  8
0
 62
4
 10
-8.52500000E+01
 20
1.95786214E+02
 11
-8.37500000E+01
 21
1.95080505E+02
  0
LINE
  8
0
 62
4
 10
-8.52500000E+01
 20
1.95392901E+02
 11
-8.37500000E+01
 21
1.94385912E+02
  0
LINE
  8
0
 62
4
 10
-8.37500000E+01
 20
1.94385912E+02
 11
-7.29000000E+01
 21
1.94385912E+02
  0
LINE
  8
0
 62
4
 10
-8.37500000E+01
 20
1.95080505E+02
 11
-7.29000000E+01
 21
1.95080505E+02
  0
LINE
  8
0
 62
4
 10
-8.37500000E+01
 20
1.95364291E+02
 11
-8.37500000E+01
 21
1.94391861E+02
  0
POLYLINE
  8
0
 62
4
 66
1
  0
VERTEX
  8
0
 62
4
 10
-6.50500000E+01
 20
1.95733190E+02
  0
VERTEX
  8
0
 62
4
 10
-6.52318150E+01
 20
1.95789037E+02
  0
VERTEX
  8
0
 62
4
 10
-6.54415122E+01
 20
1.95841856E+02
  0
VERTEX
  8
0
 62
4
 10
-6.56774299E+01
 20
1.95891226E+02
  0
VERTEX
  8
0
 62
4
 10
-6.59376982E+01
 20
1.95936758E+02
  0
VERTEX
  8
0
 62
4
 10
-6.62202545E+01
 20
1.95978089E+02
  0
VERTEX
  8
0
 62
4
 10
-6.65228596E+01
 20
1.96014894E+02
  0
VERTEX
  8
0
 62
4
 10
-6.68431151E+01
 20
1.96046879E+02
  0
VERTEX
  8
0
 62
4
 10
-6.71784831E+01
 20
1.96073792E+02
  0
VERTEX
  8
0
 62
4
 10
-6.75263056E+01
 20
1.96095418E+02
  0
VERTEX
  8
0
 62
4
 10
-6.78838262E+01
 20
1.96111588E+02
  0
VERTEX
  8
0
 62
4
 10
-6.82482113E+01
 20
1.96122172E+02
  0
VERTEX
  8
0
 62
4
 10
-6.86165732E+01
 20
1.96127086E+02
  0
VERTEX
  8
0
 62
4
 10
-6.89859925E+01
 20
1.96126293E+02
  0
VERTEX
  8
0
 62
4
 10
-6.93535416E+01
 20
1.96119797E+02
  0
VERTEX
  8
0
 62
4
 10
-6.97163074E+01
 20
1.96107651E+02
  0
VERTEX
  8
0
 62
4
 10
-7.00714151E+01
 20
1.96089951E+02
  0
VERTEX
  8
0
 62
4
 10
-7.04160504E+01
 20
1.96066837E+02
  0
VERTEX
  8
0
 62
4
 10
-7.07474818E+01
 20
1.96038492E+02
  0
VERTEX
  8
0
 62
4
 10
-7.10630829E+01
 20
1.96005141E+02
  0
VERTEX
  8
0
 62
4
 10
-7.13603523E+01
 20
1.95967048E+02
  0
VERTEX
  8
0
 62
4
 10
-7.16369343E+01
 20
1.95924515E+02
  0
VERTEX
  8
0
 62
4
 10
-7.18906367E+01
 20
1.95877880E+02
  0
VERTEX
  8
0
 62
4
 10
-7.21194490E+01
 20
1.95827511E+02
  0
VERTEX
  8
0
 62
4
 10
-7.23215578E+01
 20
1.95773808E+02
  0
VERTEX
  8
0
 62
4
 10
-7.24953613E+01
 20
1.95717196E+02
  0
VERTEX
  8
0
 62
4
 10
-7.26394821E+01
 20
1.95658125E+02
  0
VERTEX
  8
0
 62
4
 10
-7.27527781E+01
 20
1.95597062E+02
  0
VERTEX
  8
0
 62
4
 10
-7.28343513E+01
 20
1.95534492E+02
  0
VERTEX
  8
0
 62
4
 10
-7.28835552E+01
 20
1.95470909E+02
  0
VERTEX
  8
0
 62
4
 10
-7.29000000E+01
 20
1.95406819E+02
  0
SEQEND
  8
0
  0
ARC
  8
0
 62
4
 10
-6.87422617E+01
 20
2.04563926E+02
 40
1.18100000E+01
 50
2.69962458E+02
 51
2.89675999E+02
  0
ARC
  8
0
 62
4
 10
-6.87577383E+01
 20
2.04563926E+02
 40
1.18100000E+01
 50
2.50324001E+02
 51
2.70037542E+02
  0
LINE
  8
0
 62
4
 10
-7.29000000E+01
 20
1.93678895E+02
 11
-7.29000000E+01
 21
1.95406819E+02
  0
LINE
  8
0
 62
4
 10
-6.46000000E+01
 20
1.93678895E+02
 11
-6.46000000E+01
 21
1.93818004E+02
  0
LINE
  8
0
 62
4
 10
-7.27500000E+01
 20
1.95781046E+02
 11
-7.27500000E+01
 21
1.95598816E+02
  0
POLYLINE
  8
0
 62
4
 66
1
  0
VERTEX
  8
0
 62
4
 10
-6.50500000E+01
 20
1.96044968E+02
  0
VERTEX
  8
0
 62
4
 10
-6.51993080E+01
 20
1.96100888E+02
  0
VERTEX
  8
0
 62
4
 10
-6.53765767E+01
 20
1.96154289E+02
  0
VERTEX
  8
0
 62
4
 10
-6.55804101E+01
 20
1.96204751E+02
  0
VERTEX
  8
0
 62
4
 10
-6.58092032E+01
 20
1.96251876E+02
  0
VERTEX
  8
0
 62
4
 10
-6.60611542E+01
 20
1.96295294E+02
  0
VERTEX
  8
0
 62
4
 10
-6.63342792E+01
 20
1.96334662E+02
  0
VERTEX
  8
0
 62
4
 10
-6.66264273E+01
 20
1.96369671E+02
  0
VERTEX
  8
0
 62
4
 10
-6.69352979E+01
 20
1.96400044E+02
  0
VERTEX
  8
0
 62
4
 10
-6.72584588E+01
 20
1.96425543E+02
  0
VERTEX
  8
0
 62
4
 10
-6.75933652E+01
 20
1.96445967E+02
  0
VERTEX
  8
0
 62
4
 10
-6.79373798E+01
 20
1.96461154E+02
  0
VERTEX
  8
0
 62
4
 10
-6.82877935E+01
 20
1.96470986E+02
  0
VERTEX
  8
0
 62
4
 10
-6.86418469E+01
 20
1.96475385E+02
  0
VERTEX
  8
0
 62
4
 10
-6.89967521E+01
 20
1.96474316E+02
  0
VERTEX
  8
0
 62
4
 10
-6.93497141E+01
 20
1.96467788E+02
  0
VERTEX
  8
0
 62
4
 10
-6.96979536E+01
 20
1.96455852E+02
  0
VERTEX
  8
0
 62
4
 10
-7.00387281E+01
 20
1.96438601E+02
  0
VERTEX
  8
0
 62
4
 10
-7.03693543E+01
 20
1.96416173E+02
  0
VERTEX
  8
0
 62
4
 10
-7.06872286E+01
 20
1.96388744E+02
  0
VERTEX
  8
0
 62
4
 10
-7.09898477E+01
 20
1.96356529E+02
  0
VERTEX
  8
0
 62
4
 10
-7.12748286E+01
 20
1.96319782E+02
  0
VERTEX
  8
0
 62
4
 10
-7.15399272E+01
 20
1.96278793E+02
  0
VERTEX
  8
0
 62
4
 10
-7.17830559E+01
 20
1.96233884E+02
  0
VERTEX
  8
0
 62
4
 10
-7.20023002E+01
 20
1.96185409E+02
  0
VERTEX
  8
0
 62
4
 10
-7.21959334E+01
 20
1.96133750E+02
  0
VERTEX
  8
0
 62
4
 10
-7.23624309E+01
 20
1.96079314E+02
  0
VERTEX
  8
0
 62
4
 10
-7.25004816E+01
 20
1.96022529E+02
  0
VERTEX
  8
0
 62
4
 10
-7.26089982E+01
 20
1.95963842E+02
  0
VERTEX
  8
0
 62
4
 10
-7.26871262E+01
 20
1.95903716E+02
  0
VERTEX
  8
0
 62
4
 10
-7.27342506E+01
 20
1.95842623E+02
  0
VERTEX
  8
0
 62
4
 10
-7.27500000E+01
 20
1.95781046E+02
  0
SEQEND
  8
0
  0
ARC
  8
0
 62
4
 10
-7.08686056E+01
 20
2.05265135E+02
 40
1.25124521E+01
 50
2.74941635E+02
 51
2.88095416E+02
  0
ARC
  8
0
 62
4
 10
-6.66313942E+01
 20
2.05265138E+02
 40
1.25124547E+01
 50
2.51904586E+02
 51
2.65058365E+02
  0
POLYLINE
  8
0
 62
4
 66
1
  0
VERTEX
  8
0
 62
4
 10
-6.46000000E+01
 20
1.93673558E+02
  0
VERTEX
  8
0
 62
4
 10
-6.46167067E+01
 20
1.93738156E+02
  0
VERTEX
  8
0
 62
4
 10
-6.46666922E+01
 20
1.93802233E+02
  0
VERTEX
  8
0
 62
4
 10
-6.47495541E+01
 20
1.93865275E+02
  0
VERTEX
  8
0
 62
4
 10
-6.48646253E+01
 20
1.93926773E+02
  0
VERTEX
  8
0
 62
4
 10
-6.50109792E+01
 20
1.93986232E+02
  0
VERTEX
  8
0
 62
4
 10
-6.51874375E+01
 20
1.94043174E+02
  0
VERTEX
  8
0
 62
4
 10
-6.53925795E+01
 20
1.94097140E+02
  0
VERTEX
  8
0
 62
4
 10
-6.56247534E+01
 20
1.94147695E+02
  0
VERTEX
  8
0
 62
4
 10
-6.58820900E+01
 20
1.94194433E+02
  0
VERTEX
  8
0
 62
4
 10
-6.61625173E+01
 20
1.94236977E+02
  0
VERTEX
  8
0
 62
4
 10
-6.64637775E+01
 20
1.94274985E+02
  0
VERTEX
  8
0
 62
4
 10
-6.67834450E+01
 20
1.94308150E+02
  0
VERTEX
  8
0
 62
4
 10
-6.71189461E+01
 20
1.94336206E+02
  0
VERTEX
  8
0
 62
4
 10
-6.74675794E+01
 20
1.94358927E+02
  0
VERTEX
  8
0
 62
4
 10
-6.78265381E+01
 20
1.94376130E+02
  0
VERTEX
  8
0
 62
4
 10
-6.81929319E+01
 20
1.94387676E+02
  0
VERTEX
  8
0
 62
4
 10
-6.85638109E+01
 20
1.94393472E+02
  0
VERTEX
  8
0
 62
4
 10
-6.89361890E+01
 20
1.94393472E+02
  0
VERTEX
  8
0
 62
4
 10
-6.93070680E+01
 20
1.94387676E+02
  0
VERTEX
  8
0
 62
4
 10
-6.96734619E+01
 20
1.94376130E+02
  0
VERTEX
  8
0
 62
4
 10
-7.00324205E+01
 20
1.94358927E+02
  0
VERTEX
  8
0
 62
4
 10
-7.03810539E+01
 20
1.94336206E+02
  0
VERTEX
  8
0
 62
4
 10
-7.07165549E+01
 20
1.94308150E+02
  0
VERTEX
  8
0
 62
4
 10
-7.10362225E+01
 20
1.94274985E+02
  0
VERTEX
  8
0
 62
4
 10
-7.13374827E+01
 20
1.94236977E+02
  0
VERTEX
  8
0
 62
4
 10
-7.16179100E+01
 20
1.94194433E+02
  0
VERTEX
  8
0
 62
4
 10
-7.18752466E+01
 20
1.94147695E+02
  0
VERTEX
  8
0
 62
4
 10
-7.21074205E+01
 20
1.94097140E+02
  0
VERTEX
  8
0
 62
4
 10
-7.23125625E+01
 20
1.94043174E+02
  0
VERTEX
  8
0
 62
4
 10
-7.24890208E+01
 20
1.93986232E+02
  0
VERTEX
  8
0
 62
4
 10
-7.26353747E+01
 20
1.93926773E+02
  0
VERTEX
  8
0
 62
4
 10
-7.27504459E+01
 20
1.93865275E+02
  0
VERTEX
  8
0
 62
4
 10
-7.28333078E+01
 20
1.93802233E+02
  0
VERTEX
  8
0
 62
4
 10
-7.28832933E+01
 20
1.93738156E+02
  0
VERTEX
  8
0
 62
4
 10
-7.29000000E+01
 20
1.93673558E+02
  0
SEQEND
  8
0
  0
ARC
  8
0
 62
4
 10
-7.26500000E+01
 20
1.93678895E+02
 40
2.50000000E-01
 50
1.80000000E+02
 51
2.50324001E+02
  0
ARC
  8
0
 62
4
 10
-6.48500000E+01
 20
1.93678895E+02
 40
2.50000000E-01
 50
2.89675999E+02
 51
0.00000000E+00
  0
LINE
  8
0
 62
4
 10
-6.50500000E+01
 20
1.95404007E+02
 11
-6.50500000E+01
 21
1.96388815E+02
  0
LINE
  8
0
 62
4
 10
-5.74500000E+01
 20
1.95404007E+02
 11
-5.74500000E+01
 21
1.96388815E+02
  0
POLYLINE
  8
0
 62
4
 66
1
  0
VERTEX
  8
0
 62
4
 10
-5.74500000E+01
 20
1.96388815E+02
  0
VERTEX
  8
0
 62
4
 10
-5.74652977E+01
 20
1.96447965E+02
  0
VERTEX
  8
0
 62
4
 10
-5.75110676E+01
 20
1.96506638E+02
  0
VERTEX
  8
0
 62
4
 10
-5.75869411E+01
 20
1.96564363E+02
  0
VERTEX
  8
0
 62
4
 10
-5.76923075E+01
 20
1.96620674E+02
  0
VERTEX
  8
0
 62
4
 10
-5.78263183E+01
 20
1.96675119E+02
  0
VERTEX
  8
0
 62
4
 10
-5.79878946E+01
 20
1.96727258E+02
  0
VERTEX
  8
0
 62
4
 10
-5.81757354E+01
 20
1.96776673E+02
  0
VERTEX
  8
0
 62
4
 10
-5.83883284E+01
 20
1.96822964E+02
  0
VERTEX
  8
0
 62
4
 10
-5.86239619E+01
 20
1.96865761E+02
  0
VERTEX
  8
0
 62
4
 10
-5.88807387E+01
 20
1.96904717E+02
  0
VERTEX
  8
0
 62
4
 10
-5.91565915E+01
 20
1.96939519E+02
  0
VERTEX
  8
0
 62
4
 10
-5.94492991E+01
 20
1.96969887E+02
  0
VERTEX
  8
0
 62
4
 10
-5.97565049E+01
 20
1.96995577E+02
  0
VERTEX
  8
0
 62
4
 10
-6.00757354E+01
 20
1.97016382E+02
  0
VERTEX
  8
0
 62
4
 10
-6.04044204E+01
 20
1.97032134E+02
  0
VERTEX
  8
0
 62
4
 10
-6.07399136E+01
 20
1.97042706E+02
  0
VERTEX
  8
0
 62
4
 10
-6.10795136E+01
 20
1.97048014E+02
  0
VERTEX
  8
0
 62
4
 10
-6.14204863E+01
 20
1.97048014E+02
  0
VERTEX
  8
0
 62
4
 10
-6.17600864E+01
 20
1.97042706E+02
  0
VERTEX
  8
0
 62
4
 10
-6.20955795E+01
 20
1.97032134E+02
  0
VERTEX
  8
0
 62
4
 10
-6.24242646E+01
 20
1.97016382E+02
  0
VERTEX
  8
0
 62
4
 10
-6.27434951E+01
 20
1.96995577E+02
  0
VERTEX
  8
0
 62
4
 10
-6.30507009E+01
 20
1.96969887E+02
  0
VERTEX
  8
0
 62
4
 10
-6.33434085E+01
 20
1.96939519E+02
  0
VERTEX
  8
0
 62
4
 10
-6.36192612E+01
 20
1.96904717E+02
  0
VERTEX
  8
0
 62
4
 10
-6.38760380E+01
 20
1.96865761E+02
  0
VERTEX
  8
0
 62
4
 10
-6.41116716E+01
 20
1.96822964E+02
  0
VERTEX
  8
0
 62
4
 10
-6.43242646E+01
 20
1.96776673E+02
  0
VERTEX
  8
0
 62
4
 10
-6.45121054E+01
 20
1.96727258E+02
  0
VERTEX
  8
0
 62
4
 10
-6.46736817E+01
 20
1.96675119E+02
  0
VERTEX
  8
0
 62
4
 10
-6.48076925E+01
 20
1.96620674E+02
  0
VERTEX
  8
0
 62
4
 10
-6.49130589E+01
 20
1.96564363E+02
  0
VERTEX
  8
0
 62
4
 10
-6.49889324E+01
 20
1.96506638E+02
  0
VERTEX
  8
0
 62
4
 10
-6.50347023E+01
 20
1.96447965E+02
  0
VERTEX
  8
0
 62
4
 10
-6.50500000E+01
 20
1.96388815E+02
  0
SEQEND
  8
0
  0
POLYLINE
  8
0
 62
4
 66
1
  0
VERTEX
  8
0
 62
4
 10
-5.78500000E+01
 20
1.95109316E+02
  0
VERTEX
  8
0
 62
4
 10
-5.77134183E+01
 20
1.95162605E+02
  0
VERTEX
  8
0
 62
4
 10
-5.76044705E+01
 20
1.95217781E+02
  0
VERTEX
  8
0
 62
4
 10
-5.75240077E+01
 20
1.95274411E+02
  0
VERTEX
  8
0
 62
4
 10
-5.74726587E+01
 20
1.95332054E+02
  0
VERTEX
  8
0
 62
4
 10
-5.74508247E+01
 20
1.95390260E+02
  0
VERTEX
  8
0
 62
4
 10
-5.74586764E+01
 20
1.95448573E+02
  0
VERTEX
  8
0
 62
4
 10
-5.74961524E+01
 20
1.95506537E+02
  0
VERTEX
  8
0
 62
4
 10
-5.75629598E+01
 20
1.95563700E+02
  0
VERTEX
  8
0
 62
4
 10
-5.76585766E+01
 20
1.95619616E+02
  0
VERTEX
  8
0
 62
4
 10
-5.77822558E+01
 20
1.95673847E+02
  0
VERTEX
  8
0
 62
4
 10
-5.79330309E+01
 20
1.95725969E+02
  0
VERTEX
  8
0
 62
4
 10
-5.81097238E+01
 20
1.95775576E+02
  0
VERTEX
  8
0
 62
4
 10
-5.83109538E+01
 20
1.95822280E+02
  0
VERTEX
  8
0
 62
4
 10
-5.85351488E+01
 20
1.95865715E+02
  0
VERTEX
  8
0
 62
4
 10
-5.87805567E+01
 20
1.95905542E+02
  0
VERTEX
  8
0
 62
4
 10
-5.90452602E+01
 20
1.95941451E+02
  0
VERTEX
  8
0
 62
4
 10
-5.93271908E+01
 20
1.95973160E+02
  0
VERTEX
  8
0
 62
4
 10
-5.96241457E+01
 20
1.96000422E+02
  0
VERTEX
  8
0
 62
4
 10
-5.99338046E+01
 20
1.96023024E+02
  0
VERTEX
  8
0
 62
4
 10
-6.02537478E+01
 20
1.96040789E+02
  0
VERTEX
  8
0
 62
4
 10
-6.05814754E+01
 20
1.96053578E+02
  0
VERTEX
  8
0
 62
4
 10
-6.09144267E+01
 20
1.96061292E+02
  0
VERTEX
  8
0
 62
4
 10
-6.12500000E+01
 20
1.96063870E+02
  0
VERTEX
  8
0
 62
4
 10
-6.15855734E+01
 20
1.96061292E+02
  0
VERTEX
  8
0
 62
4
 10
-6.19185246E+01
 20
1.96053578E+02
  0
VERTEX
  8
0
 62
4
 10
-6.22462523E+01
 20
1.96040789E+02
  0
VERTEX
  8
0
 62
4
 10
-6.25661955E+01
 20
1.96023024E+02
  0
VERTEX
  8
0
 62
4
 10
-6.28758543E+01
 20
1.96000422E+02
  0
VERTEX
  8
0
 62
4
 10
-6.31728092E+01
 20
1.95973160E+02
  0
VERTEX
  8
0
 62
4
 10
-6.34547399E+01
 20
1.95941451E+02
  0
VERTEX
  8
0
 62
4
 10
-6.37194433E+01
 20
1.95905542E+02
  0
VERTEX
  8
0
 62
4
 10
-6.39648513E+01
 20
1.95865715E+02
  0
VERTEX
  8
0
 62
4
 10
-6.41890462E+01
 20
1.95822280E+02
  0
VERTEX
  8
0
 62
4
 10
-6.43902763E+01
 20
1.95775576E+02
  0
VERTEX
  8
0
 62
4
 10
-6.45669692E+01
 20
1.95725969E+02
  0
VERTEX
  8
0
 62
4
 10
-6.47177442E+01
 20
1.95673847E+02
  0
VERTEX
  8
0
 62
4
 10
-6.48414234E+01
 20
1.95619616E+02
  0
VERTEX
  8
0
 62
4
 10
-6.49370402E+01
 20
1.95563701E+02
  0
VERTEX
  8
0
 62
4
 10
-6.50038476E+01
 20
1.95506537E+02
  0
VERTEX
  8
0
 62
4
 10
-6.50413236E+01
 20
1.95448573E+02
  0
VERTEX
  8
0
 62
4
 10
-6.50491753E+01
 20
1.95390260E+02
  0
VERTEX
  8
0
 62
4
 10
-6.50273413E+01
 20
1.95332054E+02
  0
VERTEX
  8
0
 62
4
 10
-6.49759923E+01
 20
1.95274411E+02
  0
VERTEX
  8
0
 62
4
 10
-6.48955295E+01
 20
1.95217781E+02
  0
VERTEX
  8
0
 62
4
 10
-6.47865817E+01
 20
1.95162605E+02
  0
VERTEX
  8
0
 62
4
 10
-6.46500000E+01
 20
1.95109316E+02
  0
SEQEND
  8
0
  0
LINE
  8
0
 62
4
 10
-6.46500000E+01
 20
1.94130255E+02
 11
-6.46500000E+01
 21
1.95404007E+02
  0
LINE
  8
0
 62
4
 10
-5.78500000E+01
 20
1.94130255E+02
 11
-5.78500000E+01
 21
1.95404007E+02
  0
POLYLINE
  8
0
 62
4
 66
1
  0
VERTEX
  8
0
 62
4
 10
-5.78500000E+01
 20
1.95404007E+02
  0
VERTEX
  8
0
 62
4
 10
-5.78636874E+01
 20
1.95456930E+02
  0
VERTEX
  8
0
 62
4
 10
-5.79046394E+01
 20
1.95509428E+02
  0
VERTEX
  8
0
 62
4
 10
-5.79725263E+01
 20
1.95561076E+02
  0
VERTEX
  8
0
 62
4
 10
-5.80668014E+01
 20
1.95611460E+02
  0
VERTEX
  8
0
 62
4
 10
-5.81867058E+01
 20
1.95660174E+02
  0
VERTEX
  8
0
 62
4
 10
-5.83312741E+01
 20
1.95706825E+02
  0
VERTEX
  8
0
 62
4
 10
-5.84993422E+01
 20
1.95751038E+02
  0
VERTEX
  8
0
 62
4
 10
-5.86895570E+01
 20
1.95792457E+02
  0
VERTEX
  8
0
 62
4
 10
-5.89003870E+01
 20
1.95830748E+02
  0
VERTEX
  8
0
 62
4
 10
-5.91301347E+01
 20
1.95865603E+02
  0
VERTEX
  8
0
 62
4
 10
-5.93769502E+01
 20
1.95896742E+02
  0
VERTEX
  8
0
 62
4
 10
-5.96388465E+01
 20
1.95923914E+02
  0
VERTEX
  8
0
 62
4
 10
-5.99137149E+01
 20
1.95946900E+02
  0
VERTEX
  8
0
 62
4
 10
-6.01993422E+01
 20
1.95965514E+02
  0
VERTEX
  8
0
 62
4
 10
-6.04934288E+01
 20
1.95979608E+02
  0
VERTEX
  8
0
 62
4
 10
-6.07936069E+01
 20
1.95989068E+02
  0
VERTEX
  8
0
 62
4
 10
-6.10974596E+01
 20
1.95993816E+02
  0
VERTEX
  8
0
 62
4
 10
-6.14025404E+01
 20
1.95993816E+02
  0
VERTEX
  8
0
 62
4
 10
-6.17063931E+01
 20
1.95989068E+02
  0
VERTEX
  8
0
 62
4
 10
-6.20065712E+01
 20
1.95979608E+02
  0
VERTEX
  8
0
 62
4
 10
-6.23006578E+01
 20
1.95965514E+02
  0
VERTEX
  8
0
 62
4
 10
-6.25862851E+01
 20
1.95946900E+02
  0
VERTEX
  8
0
 62
4
 10
-6.28611534E+01
 20
1.95923914E+02
  0
VERTEX
  8
0
 62
4
 10
-6.31230497E+01
 20
1.95896742E+02
  0
VERTEX
  8
0
 62
4
 10
-6.33698653E+01
 20
1.95865603E+02
  0
VERTEX
  8
0
 62
4
 10
-6.35996130E+01
 20
1.95830748E+02
  0
VERTEX
  8
0
 62
4
 10
-6.38104430E+01
 20
1.95792457E+02
  0
VERTEX
  8
0
 62
4
 10
-6.40006578E+01
 20
1.95751038E+02
  0
VERTEX
  8
0
 62
4
 10
-6.41687259E+01
 20
1.95706825E+02
  0
VERTEX
  8
0
 62
4
 10
-6.43132941E+01
 20
1.95660174E+02
  0
VERTEX
  8
0
 62
4
 10
-6.44331986E+01
 20
1.95611460E+02
  0
VERTEX
  8
0
 62
4
 10
-6.45274737E+01
 20
1.95561076E+02
  0
VERTEX
  8
0
 62
4
 10
-6.45953606E+01
 20
1.95509428E+02
  0
VERTEX
  8
0
 62
4
 10
-6.46363126E+01
 20
1.95456930E+02
  0
VERTEX
  8
0
 62
4
 10
-6.46500000E+01
 20
1.95404007E+02
  0
SEQEND
  8
0
  0
ARC
  8
0
 62
4
 10
-6.12500000E+01
 20
2.04670468E+02
 40
1.18100000E+01
 50
2.57172490E+02
 51
2.82827510E+02
  0
ARC
  8
0
 62
4
 10
-5.88499997E+01
 20
1.94130255E+02
 40
1.00000000E+00
 50
2.82827510E+02
 51
5.08888749E-14
  0
ARC
  8
0
 62
4
 10
-6.36500003E+01
 20
1.94130255E+02
 40
1.00000000E+00
 50
1.80000000E+02
 51
2.57172490E+02
  0
ARC
  8
0
 62
4
 10
-6.33717535E+01
 20
2.05389611E+02
 40
1.25306621E+01
 50
2.74968660E+02
 51
2.88083352E+02
  0
ARC
  8
0
 62
4
 10
-5.91282464E+01
 20
2.05389612E+02
 40
1.25306626E+01
 50
2.51916648E+02
 51
2.65031340E+02
  0
LINE
  8
0
  6
CENTER
 62
6
 10
-7.12500000E+01
 20
1.95781046E+02
 11
-6.62500000E+01
 21
1.95781046E+02
  0
LINE
  8
0
  6
CENTER
 62
6
 10
-6.12500000E+01
 20
1.98888815E+02
 11
-6.12500000E+01
 21
1.93888815E+02
  0
LINE
  8
0
  6
CENTER
 62
6
 10
-6.37500000E+01
 20
1.96388815E+02
 11
-5.87500000E+01
 21
1.96388815E+02
  0
LINE
  8
0
  6
CENTER
 62
6
 10
-7.62500000E+01
 20
1.98888815E+02
 11
-7.62500000E+01
 21
1.93888815E+02
  0
LINE
  8
0
  6
CENTER
 62
6
 10
-7.87500000E+01
 20
1.96388815E+02
 11
-7.37500000E+01
 21
1.96388815E+02
  0
LINE
  8
0
 62
4
 10
-5.74568894E+01
 20
1.95364291E+02
 11
-5.37500000E+01
 21
1.95364291E+02
  0
LINE
  8
0
 62
7
 10
-6.87500000E+01
 20
2.15369434E+02
 11
-9.42500000E+01
 21
2.15369434E+02
  0
LINE
  8
0
 62
7
 10
-6.87500000E+01
 20
2.14519443E+02
 11
-9.42500000E+01
 21
2.14519443E+02
  0
LINE
  8
0
 62
7
 10
-6.87500000E+01
 20
2.09219456E+02
 11
-9.42500000E+01
 21
2.09219456E+02
  0
LINE
  8
0
 62
7
 10
-2.47500000E+01
 20
1.67519474E+02
 11
-9.42500000E+01
 21
1.67519474E+02
  0
LINE
  8
0
 62
7
 10
-2.47500000E+01
 20
1.62219486E+02
 11
-9.42500000E+01
 21
1.62219486E+02
  0
LINE
  8
0
 62
7
 10
-2.47500000E+01
 20
1.61369495E+02
 11
-9.42500000E+01
 21
1.61369495E+02
  0
POLYLINE
  8
0
 62
4
 66
1
  0
VERTEX
  8
0
 62
4
 10
-8.21465855E+01
 20
-2.02882099E+02
  0
VERTEX
  8
0
 62
4
 10
-8.21469441E+01
 20
-2.03174429E+02
  0
VERTEX
  8
0
 62
4
 10
-8.21214103E+01
 20
-2.03465676E+02
  0
VERTEX
  8
0
 62
4
 10
-8.20701786E+01
 20
-2.03753619E+02
  0
VERTEX
  8
0
 62
4
 10
-8.19936396E+01
 20
-2.04036064E+02
  0
VERTEX
  8
0
 62
4
 10
-8.18923766E+01
 20
-2.04310859E+02
  0
VERTEX
  8
0
 62
4
 10
-8.17671616E+01
 20
-2.04575907E+02
  0
VERTEX
  8
0
 62
4
 10
-8.16189488E+01
 20
-2.04829190E+02
  0
VERTEX
  8
0
 62
4
 10
-8.14488681E+01
 20
-2.05068777E+02
  0
VERTEX
  8
0
 62
4
 10
-8.12582159E+01
 20
-2.05292841E+02
  0
VERTEX
  8
0
 62
4
 10
-8.10484454E+01
 20
-2.05499674E+02
  0
VERTEX
  8
0
 62
4
 10
-8.08211555E+01
 20
-2.05687701E+02
  0
VERTEX
  8
0
 62
4
 10
-8.05780786E+01
 20
-2.05855487E+02
  0
VERTEX
  8
0
 62
4
 10
-8.03210676E+01
 20
-2.06001754E+02
  0
VERTEX
  8
0
 62
4
 10
-8.00520816E+01
 20
-2.06125387E+02
  0
VERTEX
  8
0
 62
4
 10
-7.97731707E+01
 20
-2.06225444E+02
  0
VERTEX
  8
0
 62
4
 10
-7.94864610E+01
 20
-2.06301161E+02
  0
VERTEX
  8
0
 62
4
 10
-7.91941379E+01
 20
-2.06351963E+02
  0
VERTEX
  8
0
 62
4
 10
-7.88984294E+01
 20
-2.06377461E+02
  0
VERTEX
  8
0
 62
4
 10
-7.86015896E+01
 20
-2.06377461E+02
  0
VERTEX
  8
0
 62
4
 10
-7.83058811E+01
 20
-2.06351963E+02
  0
VERTEX
  8
0
 62
4
 10
-7.80135579E+01
 20
-2.06301162E+02
  0
VERTEX
  8
0
 62
4
 10
-7.77268481E+01
 20
-2.06225444E+02
  0
VERTEX
  8
0
 62
4
 10
-7.74479372E+01
 20
-2.06125388E+02
  0
VERTEX
  8
0
 62
4
 10
-7.71789511E+01
 20
-2.06001755E+02
  0
VERTEX
  8
0
 62
4
 10
-7.69219400E+01
 20
-2.05855488E+02
  0
VERTEX
  8
0
 62
4
 10
-7.66788630E+01
 20
-2.05687702E+02
  0
VERTEX
  8
0
 62
4
 10
-7.64515730E+01
 20
-2.05499676E+02
  0
VERTEX
  8
0
 62
4
 10
-7.62418023E+01
 20
-2.05292843E+02
  0
VERTEX
  8
0
 62
4
 10
-7.60511499E+01
 20
-2.05068779E+02
  0
VERTEX
  8
0
 62
4
 10
-7.58810691E+01
 20
-2.04829192E+02
  0
VERTEX
  8
0
 62
4
 10
-7.57328561E+01
 20
-2.04575909E+02
  0
VERTEX
  8
0
 62
4
 10
-7.56076409E+01
 20
-2.04310861E+02
  0
VERTEX
  8
0
 62
4
 10
-7.55063777E+01
 20
-2.04036066E+02
  0
VERTEX
  8
0
 62
4
 10
-7.54298385E+01
 20
-2.03753621E+02
  0
VERTEX
  8
0
 62
4
 10
-7.53786066E+01
 20
-2.03465678E+02
  0
VERTEX
  8
0
 62
4
 10
-7.53530726E+01
 20
-2.03174431E+02
  0
VERTEX
  8
0
 62
4
 10
-7.53534310E+01
 20
-2.02882102E+02
  0
SEQEND
  8
0
  0
POLYLINE
  8
0
 62
4
 66
1
  0
VERTEX
  8
0
 62
4
 10
-8.27500081E+01
 20
-2.03032214E+02
  0
VERTEX
  8
0
 62
4
 10
-8.27347948E+01
 20
-2.03375541E+02
  0
VERTEX
  8
0
 62
4
 10
-8.26892548E+01
 20
-2.03716256E+02
  0
VERTEX
  8
0
 62
4
 10
-8.26137348E+01
 20
-2.04051765E+02
  0
VERTEX
  8
0
 62
4
 10
-8.25088095E+01
 20
-2.04379516E+02
  0
VERTEX
  8
0
 62
4
 10
-8.23752775E+01
 20
-2.04697014E+02
  0
VERTEX
  8
0
 62
4
 10
-8.22141550E+01
 20
-2.05001842E+02
  0
VERTEX
  8
0
 62
4
 10
-8.20266682E+01
 20
-2.05291681E+02
  0
VERTEX
  8
0
 62
4
 10
-8.18142440E+01
 20
-2.05564324E+02
  0
VERTEX
  8
0
 62
4
 10
-8.15784992E+01
 20
-2.05817698E+02
  0
VERTEX
  8
0
 62
4
 10
-8.13212279E+01
 20
-2.06049873E+02
  0
VERTEX
  8
0
 62
4
 10
-8.10443880E+01
 20
-2.06259082E+02
  0
VERTEX
  8
0
 62
4
 10
-8.07500865E+01
 20
-2.06443734E+02
  0
VERTEX
  8
0
 62
4
 10
-8.04405632E+01
 20
-2.06602423E+02
  0
VERTEX
  8
0
 62
4
 10
-8.01181737E+01
 20
-2.06733941E+02
  0
VERTEX
  8
0
 62
4
 10
-7.97853717E+01
 20
-2.06837287E+02
  0
VERTEX
  8
0
 62
4
 10
-7.94446899E+01
 20
-2.06911675E+02
  0
VERTEX
  8
0
 62
4
 10
-7.90987212E+01
 20
-2.06956539E+02
  0
VERTEX
  8
0
 62
4
 10
-7.87500986E+01
 20
-2.06971537E+02
  0
VERTEX
  8
0
 62
4
 10
-7.84014753E+01
 20
-2.06956555E+02
  0
VERTEX
  8
0
 62
4
 10
-7.80555045E+01
 20
-2.06911707E+02
  0
VERTEX
  8
0
 62
4
 10
-7.77148193E+01
 20
-2.06837335E+02
  0
VERTEX
  8
0
 62
4
 10
-7.73820126E+01
 20
-2.06734004E+02
  0
VERTEX
  8
0
 62
4
 10
-7.70596171E+01
 20
-2.06602501E+02
  0
VERTEX
  8
0
 62
4
 10
-7.67500865E+01
 20
-2.06443826E+02
  0
VERTEX
  8
0
 62
4
 10
-7.64557765E+01
 20
-2.06259188E+02
  0
VERTEX
  8
0
 62
4
 10
-7.61789270E+01
 20
-2.06049991E+02
  0
VERTEX
  8
0
 62
4
 10
-7.59216450E+01
 20
-2.05817828E+02
  0
VERTEX
  8
0
 62
4
 10
-7.56858885E+01
 20
-2.05564465E+02
  0
VERTEX
  8
0
 62
4
 10
-7.54734518E+01
 20
-2.05291831E+02
  0
VERTEX
  8
0
 62
4
 10
-7.52859517E+01
 20
-2.05002001E+02
  0
VERTEX
  8
0
 62
4
 10
-7.51248152E+01
 20
-2.04697180E+02
  0
VERTEX
  8
0
 62
4
 10
-7.49912686E+01
 20
-2.04379689E+02
  0
VERTEX
  8
0
 62
4
 10
-7.48863282E+01
 20
-2.04051943E+02
  0
VERTEX
  8
0
 62
4
 10
-7.48107928E+01
 20
-2.03716437E+02
  0
VERTEX
  8
0
 62
4
 10
-7.47652372E+01
 20
-2.03375724E+02
  0
VERTEX
  8
0
 62
4
 10
-7.47500081E+01
 20
-2.03032398E+02
  0
VERTEX
  8
0
 62
4
 10
-7.47652214E+01
 20
-2.02689071E+02
  0
VERTEX
  8
0
 62
4
 10
-7.48107614E+01
 20
-2.02348356E+02
  0
VERTEX
  8
0
 62
4
 10
-7.48862814E+01
 20
-2.02012847E+02
  0
VERTEX
  8
0
 62
4
 10
-7.49912067E+01
 20
-2.01685096E+02
  0
VERTEX
  8
0
 62
4
 10
-7.51247387E+01
 20
-2.01367598E+02
  0
VERTEX
  8
0
 62
4
 10
-7.52858612E+01
 20
-2.01062770E+02
  0
VERTEX
  8
0
 62
4
 10
-7.54733480E+01
 20
-2.00772931E+02
  0
VERTEX
  8
0
 62
4
 10
-7.56857722E+01
 20
-2.00500288E+02
  0
VERTEX
  8
0
 62
4
 10
-7.59215170E+01
 20
-2.00246914E+02
  0
VERTEX
  8
0
 62
4
 10
-7.61787883E+01
 20
-2.00014739E+02
  0
VERTEX
  8
0
 62
4
 10
-7.64556282E+01
 20
-1.99805530E+02
  0
VERTEX
  8
0
 62
4
 10
-7.67499297E+01
 20
-1.99620878E+02
  0
VERTEX
  8
0
 62
4
 10
-7.70594530E+01
 20
-1.99462189E+02
  0
VERTEX
  8
0
 62
4
 10
-7.73818425E+01
 20
-1.99330671E+02
  0
VERTEX
  8
0
 62
4
 10
-7.77146445E+01
 20
-1.99227325E+02
  0
VERTEX
  8
0
 62
4
 10
-7.80553263E+01
 20
-1.99152937E+02
  0
VERTEX
  8
0
 62
4
 10
-7.84012950E+01
 20
-1.99108073E+02
  0
VERTEX
  8
0
 62
4
 10
-7.87499176E+01
 20
-1.99093075E+02
  0
VERTEX
  8
0
 62
4
 10
-7.90985409E+01
 20
-1.99108057E+02
  0
VERTEX
  8
0
 62
4
 10
-7.94445117E+01
 20
-1.99152905E+02
  0
VERTEX
  8
0
 62
4
 10
-7.97851969E+01
 20
-1.99227277E+02
  0
VERTEX
  8
0
 62
4
 10
-8.01180036E+01
 20
-1.99330608E+02
  0
VERTEX
  8
0
 62
4
 10
-8.04403991E+01
 20
-1.99462111E+02
  0
VERTEX
  8
0
 62
4
 10
-8.07499297E+01
 20
-1.99620786E+02
  0
VERTEX
  8
0
 62
4
 10
-8.10442397E+01
 20
-1.99805424E+02
  0
VERTEX
  8
0
 62
4
 10
-8.13210892E+01
 20
-2.00014621E+02
  0
VERTEX
  8
0
 62
4
 10
-8.15783712E+01
 20
-2.00246784E+02
  0
VERTEX
  8
0
 62
4
 10
-8.18141277E+01
 20
-2.00500147E+02
  0
VERTEX
  8
0
 62
4
 10
-8.20265644E+01
 20
-2.00772781E+02
  0
VERTEX
  8
0
 62
4
 10
-8.22140645E+01
 20
-2.01062611E+02
  0
VERTEX
  8
0
 62
4
 10
-8.23752010E+01
 20
-2.01367432E+02
  0
VERTEX
  8
0
 62
4
 10
-8.25087476E+01
 20
-2.01684923E+02
  0
VERTEX
  8
0
 62
4
 10
-8.26136880E+01
 20
-2.02012669E+02
  0
VERTEX
  8
0
 62
4
 10
-8.26892234E+01
 20
-2.02348175E+02
  0
VERTEX
  8
0
 62
4
 10
-8.27347790E+01
 20
-2.02688888E+02
  0
VERTEX
  8
0
 62
4
 10
-8.27500081E+01
 20
-2.03032214E+02
  0
SEQEND
  8
0
  0
POLYLINE
  8
0
 62
4
 66
1
  0
VERTEX
  8
0
 62
4
 10
-8.21500083E+01
 20
-2.02731817E+02
  0
VERTEX
  8
0
 62
4
 10
-8.21370770E+01
 20
-2.03023645E+02
  0
VERTEX
  8
0
 62
4
 10
-8.20983680E+01
 20
-2.03313252E+02
  0
VERTEX
  8
0
 62
4
 10
-8.20341760E+01
 20
-2.03598435E+02
  0
VERTEX
  8
0
 62
4
 10
-8.19449895E+01
 20
-2.03877024E+02
  0
VERTEX
  8
0
 62
4
 10
-8.18314873E+01
 20
-2.04146897E+02
  0
VERTEX
  8
0
 62
4
 10
-8.16945331E+01
 20
-2.04406001E+02
  0
VERTEX
  8
0
 62
4
 10
-8.15351694E+01
 20
-2.04652364E+02
  0
VERTEX
  8
0
 62
4
 10
-8.13546089E+01
 20
-2.04884111E+02
  0
VERTEX
  8
0
 62
4
 10
-8.11542257E+01
 20
-2.05099478E+02
  0
VERTEX
  8
0
 62
4
 10
-8.09355451E+01
 20
-2.05296827E+02
  0
VERTEX
  8
0
 62
4
 10
-8.07002312E+01
 20
-2.05474655E+02
  0
VERTEX
  8
0
 62
4
 10
-8.04500749E+01
 20
-2.05631609E+02
  0
VERTEX
  8
0
 62
4
 10
-8.01869801E+01
 20
-2.05766494E+02
  0
VERTEX
  8
0
 62
4
 10
-7.99129491E+01
 20
-2.05878285E+02
  0
VERTEX
  8
0
 62
4
 10
-7.96300674E+01
 20
-2.05966129E+02
  0
VERTEX
  8
0
 62
4
 10
-7.93404879E+01
 20
-2.06029359E+02
  0
VERTEX
  8
0
 62
4
 10
-7.90464145E+01
 20
-2.06067493E+02
  0
VERTEX
  8
0
 62
4
 10
-7.87500852E+01
 20
-2.06080241E+02
  0
VERTEX
  8
0
 62
4
 10
-7.84537554E+01
 20
-2.06067507E+02
  0
VERTEX
  8
0
 62
4
 10
-7.81596802E+01
 20
-2.06029386E+02
  0
VERTEX
  8
0
 62
4
 10
-7.78700978E+01
 20
-2.05966169E+02
  0
VERTEX
  8
0
 62
4
 10
-7.75872121E+01
 20
-2.05878338E+02
  0
VERTEX
  8
0
 62
4
 10
-7.73131759E+01
 20
-2.05766560E+02
  0
VERTEX
  8
0
 62
4
 10
-7.70500749E+01
 20
-2.05631687E+02
  0
VERTEX
  8
0
 62
4
 10
-7.67999114E+01
 20
-2.05474745E+02
  0
VERTEX
  8
0
 62
4
 10
-7.65645894E+01
 20
-2.05296927E+02
  0
VERTEX
  8
0
 62
4
 10
-7.63458996E+01
 20
-2.05099589E+02
  0
VERTEX
  8
0
 62
4
 10
-7.61455066E+01
 20
-2.04884230E+02
  0
VERTEX
  8
0
 62
4
 10
-7.59649355E+01
 20
-2.04652492E+02
  0
VERTEX
  8
0
 62
4
 10
-7.58055604E+01
 20
-2.04406136E+02
  0
VERTEX
  8
0
 62
4
 10
-7.56685943E+01
 20
-2.04147038E+02
  0
VERTEX
  8
0
 62
4
 10
-7.55550797E+01
 20
-2.03877170E+02
  0
VERTEX
  8
0
 62
4
 10
-7.54658804E+01
 20
-2.03598586E+02
  0
VERTEX
  8
0
 62
4
 10
-7.54016753E+01
 20
-2.03313406E+02
  0
VERTEX
  8
0
 62
4
 10
-7.53629530E+01
 20
-2.03023800E+02
  0
VERTEX
  8
0
 62
4
 10
-7.53500083E+01
 20
-2.02731973E+02
  0
VERTEX
  8
0
 62
4
 10
-7.53629396E+01
 20
-2.02440145E+02
  0
VERTEX
  8
0
 62
4
 10
-7.54016486E+01
 20
-2.02150538E+02
  0
VERTEX
  8
0
 62
4
 10
-7.54658406E+01
 20
-2.01865355E+02
  0
VERTEX
  8
0
 62
4
 10
-7.55550271E+01
 20
-2.01586766E+02
  0
VERTEX
  8
0
 62
4
 10
-7.56685293E+01
 20
-2.01316893E+02
  0
VERTEX
  8
0
 62
4
 10
-7.58054835E+01
 20
-2.01057789E+02
  0
VERTEX
  8
0
 62
4
 10
-7.59648472E+01
 20
-2.00811426E+02
  0
VERTEX
  8
0
 62
4
 10
-7.61454078E+01
 20
-2.00579679E+02
  0
VERTEX
  8
0
 62
4
 10
-7.63457909E+01
 20
-2.00364312E+02
  0
VERTEX
  8
0
 62
4
 10
-7.65644715E+01
 20
-2.00166963E+02
  0
VERTEX
  8
0
 62
4
 10
-7.67997854E+01
 20
-1.99989135E+02
  0
VERTEX
  8
0
 62
4
 10
-7.70499417E+01
 20
-1.99832181E+02
  0
VERTEX
  8
0
 62
4
 10
-7.73130365E+01
 20
-1.99697296E+02
  0
VERTEX
  8
0
 62
4
 10
-7.75870675E+01
 20
-1.99585505E+02
  0
VERTEX
  8
0
 62
4
 10
-7.78699493E+01
 20
-1.99497661E+02
  0
VERTEX
  8
0
 62
4
 10
-7.81595287E+01
 20
-1.99434431E+02
  0
VERTEX
  8
0
 62
4
 10
-7.84536022E+01
 20
-1.99396297E+02
  0
VERTEX
  8
0
 62
4
 10
-7.87499314E+01
 20
-1.99383549E+02
  0
VERTEX
  8
0
 62
4
 10
-7.90462612E+01
 20
-1.99396283E+02
  0
VERTEX
  8
0
 62
4
 10
-7.93403364E+01
 20
-1.99434404E+02
  0
VERTEX
  8
0
 62
4
 10
-7.96299188E+01
 20
-1.99497621E+02
  0
VERTEX
  8
0
 62
4
 10
-7.99128045E+01
 20
-1.99585452E+02
  0
VERTEX
  8
0
 62
4
 10
-8.01868407E+01
 20
-1.99697230E+02
  0
VERTEX
  8
0
 62
4
 10
-8.04499417E+01
 20
-1.99832103E+02
  0
VERTEX
  8
0
 62
4
 10
-8.07001052E+01
 20
-1.99989045E+02
  0
VERTEX
  8
0
 62
4
 10
-8.09354273E+01
 20
-2.00166863E+02
  0
VERTEX
  8
0
 62
4
 10
-8.11541170E+01
 20
-2.00364201E+02
  0
VERTEX
  8
0
 62
4
 10
-8.13545100E+01
 20
-2.00579560E+02
  0
VERTEX
  8
0
 62
4
 10
-8.15350811E+01
 20
-2.00811298E+02
  0
VERTEX
  8
0
 62
4
 10
-8.16944562E+01
 20
-2.01057654E+02
  0
VERTEX
  8
0
 62
4
 10
-8.18314223E+01
 20
-2.01316752E+02
  0
VERTEX
  8
0
 62
4
 10
-8.19449369E+01
 20
-2.01586620E+02
  0
VERTEX
  8
0
 62
4
 10
-8.20341362E+01
 20
-2.01865204E+02
  0
VERTEX
  8
0
 62
4
 10
-8.20983413E+01
 20
-2.02150384E+02
  0
VERTEX
  8
0
 62
4
 10
-8.21370636E+01
 20
-2.02439990E+02
  0
VERTEX
  8
0
 62
4
 10
-8.21500083E+01
 20
-2.02731817E+02
  0
SEQEND
  8
0
  0
LINE
  8
0
 62
4
 10
-8.77499951E+01
 20
-2.15746781E+02
 11
-5.47499951E+01
 21
-2.15746757E+02
  0
LINE
  8
0
 62
4
 10
-5.17499994E+01
 20
-2.10505160E+02
 11
-5.47499951E+01
 21
-2.14965340E+02
  0
LINE
  8
0
 62
4
 10
-8.77499952E+01
 20
-2.14965364E+02
 11
-9.07499994E+01
 21
-2.10505188E+02
  0
LINE
  8
0
 62
4
 10
-5.47499951E+01
 20
-2.18557721E+02
 11
-5.47499951E+01
 21
-2.14965340E+02
  0
LINE
  8
0
 62
4
 10
-8.77499951E+01
 20
-2.18557721E+02
 11
-8.77499951E+01
 21
-2.14965364E+02
  0
LINE
  8
0
 62
4
 10
-8.77499951E+01
 20
-2.14965364E+02
 11
-5.47499951E+01
 21
-2.14965340E+02
  0
LINE
  8
0
 62
4
 10
-8.62500332E+01
 20
-1.67955075E+02
 11
-7.12500332E+01
 21
-1.67955064E+02
  0
LINE
  8
0
  6
CENTER
 62
6
 10
-7.87500039E+01
 20
-2.08911102E+02
 11
-7.87500131E+01
 21
-1.96111102E+02
  0
LINE
  8
0
  6
CENTER
 62
6
 10
-8.51500085E+01
 20
-2.02511107E+02
 11
-7.23500085E+01
 21
-2.02511097E+02
  0
LINE
  8
0
 62
4
 10
-8.82500158E+01
 20
-1.92227961E+02
 11
-6.92500158E+01
 21
-1.92227948E+02
  0
LINE
  8
0
 62
4
 10
-9.07500086E+01
 20
-1.97629072E+02
 11
-9.07499994E+01
 21
-2.10505188E+02
  0
LINE
  8
0
 62
4
 10
-8.82500158E+01
 20
-1.92227961E+02
 11
-8.82500131E+01
 21
-1.96129056E+02
  0
LINE
  8
0
 62
4
 10
-7.12500332E+01
 20
-1.67955064E+02
 11
-7.12500158E+01
 21
-1.92227961E+02
  0
LINE
  8
0
 62
4
 10
-8.62500332E+01
 20
-1.67955064E+02
 11
-8.62500158E+01
 21
-1.92227960E+02
  0
LINE
  8
0
 62
4
 10
-6.92500158E+01
 20
-1.92227961E+02
 11
-6.92500131E+01
 21
-1.96129057E+02
  0
LINE
  8
0
 62
4
 10
-8.62500163E+01
 20
-1.91590450E+02
 11
-7.12500163E+01
 21
-1.91590439E+02
  0
LINE
  8
0
 62
4
 10
-5.17500086E+01
 20
-1.97629044E+02
 11
-5.17499994E+01
 21
-2.10505160E+02
  0
LINE
  8
0
 62
4
 10
-9.07499994E+01
 20
-2.10505188E+02
 11
-5.17499994E+01
 21
-2.10505160E+02
  0
LINE
  8
0
 62
4
 10
-9.07500004E+01
 20
-2.09027977E+02
 11
-5.17500004E+01
 21
-2.09027949E+02
  0
LINE
  8
0
 62
4
 10
-8.92500096E+01
 20
-1.96129071E+02
 11
-5.32500096E+01
 21
-1.96129046E+02
  0
LINE
  8
0
 62
4
 10
-1.05750033E+02
 20
-1.67780214E+02
 11
-1.00750033E+02
 21
-1.67780210E+02
  0
LINE
  8
0
 62
4
 10
-1.05750031E+02
 20
-1.70344530E+02
 11
-1.00750031E+02
 21
-1.70344526E+02
  0
LINE
  8
0
 62
4
 10
-1.05750026E+02
 20
-1.77740436E+02
 11
-1.00750026E+02
 21
-1.77740432E+02
  0
LINE
  8
0
 62
4
 10
-1.05750023E+02
 20
-1.82562178E+02
 11
-1.00750023E+02
 21
-1.82562174E+02
  0
LINE
  8
0
 62
4
 10
-9.52500230E+01
 20
-1.82165133E+02
 11
-8.67500230E+01
 21
-1.82165127E+02
  0
LINE
  8
0
 62
4
 10
-8.62500330E+01
 20
-1.68165129E+02
 11
-9.52500330E+01
 21
-1.68165135E+02
  0
LINE
  8
0
 62
4
 10
-9.57500327E+01
 20
-1.68665135E+02
 11
-9.57500234E+01
 21
-1.81664626E+02
  0
LINE
  8
0
 62
4
 10
-1.05750033E+02
 20
-1.67780214E+02
 11
-1.05750023E+02
 21
-1.82562178E+02
  0
LINE
  8
0
 62
4
 10
-1.00750033E+02
 20
-1.67780210E+02
 11
-1.00750023E+02
 21
-1.82562178E+02
  0
LINE
  8
0
 62
4
 10
-1.00750032E+02
 20
-1.68915132E+02
 11
-9.57500325E+01
 21
-1.68915129E+02
  0
LINE
  8
0
 62
4
 10
-1.00750024E+02
 20
-1.81415132E+02
 11
-9.57500236E+01
 21
-1.81415129E+02
  0
LINE
  8
0
 62
4
 10
-9.92500325E+01
 20
-1.68915131E+02
 11
-9.92500236E+01
 21
-1.81415131E+02
  0
LINE
  8
0
 62
4
 10
-9.92500321E+01
 20
-1.69415131E+02
 11
-9.57500321E+01
 21
-1.69415129E+02
  0
LINE
  8
0
 62
4
 10
-9.92500239E+01
 20
-1.80915131E+02
 11
-9.57500239E+01
 21
-1.80915129E+02
  0
ARC
  8
0
 62
4
 10
-9.52505247E+01
 20
-1.68664643E+02
 40
4.99508251E-01
 50
8.99436074E+01
 51
1.80056475E+02
  0
ARC
  8
0
 62
4
 10
-8.67495154E+01
 20
-1.82664620E+02
 40
4.99492993E-01
 50
3.59941854E+02
 51
9.00582282E+01
  0
ARC
  8
0
 62
4
 10
-5.32495011E+01
 20
-1.97628538E+02
 40
1.49949266E+00
 50
3.59980652E+02
 51
9.00194298E+01
  0
ARC
  8
0
 62
4
 10
-9.52495156E+01
 20
-1.81664626E+02
 40
5.00508007E-01
 50
1.80058166E+02
 51
2.69941916E+02
  0
ARC
  8
0
 62
4
 10
-8.92505007E+01
 20
-1.97628579E+02
 40
1.49950792E+00
 50
8.99812358E+01
 51
1.80018846E+02
  0
LINE
  8
0
 62
6
 10
-8.04649432E+01
 20
-2.04446832E+02
 11
-7.70350735E+01
 21
-2.01016957E+02
  0
LINE
  8
0
 62
6
 10
-7.70350710E+01
 20
-2.04446830E+02
 11
-8.04649456E+01
 21
-2.01016960E+02
  0
LINE
  8
0
 62
4
 10
-3.08750000E+02
 20
-2.17782457E+02
 11
-3.09568142E+02
 21
-2.20031939E+02
  0
LINE
  8
0
 62
4
 10
-3.03763049E+02
 20
-2.04070831E+02
 11
-2.96867935E+02
 21
-2.02855036E+02
  0
LINE
  8
0
 62
4
 10
-2.95884329E+02
 20
-2.11312726E+02
 11
-2.95391926E+02
 21
-2.11225902E+02
  0
LINE
  8
0
 62
4
 10
-2.96289909E+02
 20
-2.11891954E+02
 11
-2.95819871E+02
 21
-2.14557675E+02
  0
LINE
  8
0
 62
4
 10
-3.09568142E+02
 20
-2.20031939E+02
 11
-3.08750000E+02
 21
-2.24671852E+02
  0
LINE
  8
0
 62
4
 10
-3.03763049E+02
 20
-2.04070831E+02
 11
-3.08123178E+02
 21
-2.16059009E+02
  0
LINE
  8
0
 62
4
 10
-3.03872449E+02
 20
-2.26419352E+02
 11
-3.03682730E+02
 21
-2.26385900E+02
  0
LINE
  8
0
  6
CENTER
 62
6
 10
-3.11989878E+02
 20
-2.25819821E+02
 11
-3.08750000E+02
 21
-2.25248543E+02
  0
LINE
  8
0
 62
6
 10
-3.10515487E+02
 20
-2.27082986E+02
 11
-3.08750000E+02
 21
-2.26771683E+02
  0
LINE
  8
0
 62
4
 10
-3.10136712E+02
 20
-2.23472359E+02
 11
-3.08996940E+02
 21
-2.23271386E+02
  0
LINE
  8
0
 62
4
 10
-3.09443855E+02
 20
-2.27401742E+02
 11
-3.08750000E+02
 21
-2.27279396E+02
  0
LINE
  8
0
 62
4
 10
-3.11076371E+02
 20
-2.23902057E+02
 11
-3.10473812E+02
 21
-2.27319340E+02
  0
LINE
  8
0
 62
4
 10
-3.10136712E+02
 20
-2.23472359E+02
 11
-3.11076371E+02
 21
-2.23902057E+02
  0
LINE
  8
0
 62
4
 10
-3.09443855E+02
 20
-2.27401742E+02
 11
-3.10473812E+02
 21
-2.27319340E+02
  0
LINE
  8
0
 62
6
 10
-3.11036432E+02
 20
-2.24128563E+02
 11
-3.08911852E+02
 21
-2.23753942E+02
  0
LINE
  8
0
 62
4
 10
-2.97993042E+02
 20
-1.70559771E+02
 11
-2.93177332E+02
 21
-1.69710632E+02
  0
LINE
  8
0
 62
4
 10
-2.83220926E+02
 20
-1.67955049E+02
 11
-2.78879721E+02
 21
-1.92575243E+02
  0
LINE
  8
0
 62
4
 10
-2.97993042E+02
 20
-1.70559771E+02
 11
-2.93651837E+02
 21
-1.95179965E+02
  0
LINE
  8
0
 62
4
 10
-2.95621453E+02
 20
-1.95527262E+02
 11
-2.76910106E+02
 21
-1.92227946E+02
  0
LINE
  8
0
 62
4
 10
-2.93825486E+02
 20
-1.94195157E+02
 11
-2.79053369E+02
 21
-1.91590435E+02
  0
LINE
  8
0
 62
4
 10
-2.76910106E+02
 20
-1.92227946E+02
 11
-2.76215513E+02
 21
-1.96167177E+02
  0
LINE
  8
0
 62
4
 10
-2.95621453E+02
 20
-1.95527262E+02
 11
-2.94926860E+02
 21
-1.99466493E+02
  0
LINE
  8
0
 62
4
 10
-2.94926860E+02
 20
-1.99466493E+02
 11
-2.76215513E+02
 21
-1.96167177E+02
  0
LINE
  8
0
 62
4
 10
-2.94131652E+02
 20
-2.14557675E+02
 11
-2.71148771E+02
 21
-2.10505173E+02
  0
LINE
  8
0
 62
4
 10
-2.73319373E+02
 20
-1.98195076E+02
 11
-2.71148771E+02
 21
-2.10505173E+02
  0
LINE
  8
0
 62
4
 10
-2.96954759E+02
 20
-2.02362632E+02
 11
-2.94804444E+02
 21
-2.14557675E+02
  0
LINE
  8
0
 62
4
 10
-2.71148771E+02
 20
-2.10505173E+02
 11
-2.73202046E+02
 21
-2.14557675E+02
  0
LINE
  8
0
 62
4
 10
-2.95044629E+02
 20
-2.13195518E+02
 11
-2.71409243E+02
 21
-2.09027961E+02
  0
LINE
  8
0
 62
4
 10
-2.86151617E+02
 20
-2.06042593E+02
 11
-2.82212386E+02
 21
-2.05348001E+02
  0
LINE
  8
0
 62
4
 10
-2.85717496E+02
 20
-2.08504613E+02
 11
-2.81778265E+02
 21
-2.07810020E+02
  0
LINE
  8
0
 62
4
 10
-2.86151617E+02
 20
-2.06042593E+02
 11
-2.85717496E+02
 21
-2.08504613E+02
  0
LINE
  8
0
 62
4
 10
-2.82212386E+02
 20
-2.05348001E+02
 11
-2.81778265E+02
 21
-2.07810020E+02
  0
LINE
  8
0
 62
4
 10
-2.88260997E+02
 20
-1.82562163E+02
 11
-2.82510927E+02
 21
-1.77740421E+02
  0
LINE
  8
0
 62
4
 10
-2.96617526E+02
 20
-1.72601941E+02
 11
-2.90867456E+02
 21
-1.67780198E+02
  0
LINE
  8
0
 62
4
 10
-2.96617526E+02
 20
-1.72601941E+02
 11
-2.95313428E+02
 21
-1.79997847E+02
  0
LINE
  8
0
 62
4
 10
-2.83815025E+02
 20
-1.70344514E+02
 11
-2.82510927E+02
 21
-1.77740421E+02
  0
LINE
  8
0
 62
4
 10
-2.95313428E+02
 20
-1.79997847E+02
 11
-2.88260997E+02
 21
-1.82562163E+02
  0
LINE
  8
0
 62
4
 10
-2.90867456E+02
 20
-1.67780198E+02
 11
-2.83815025E+02
 21
-1.70344514E+02
  0
LINE
  8
0
 62
4
 10
-2.88046484E+02
 20
-1.68805925E+02
 11
-2.83220926E+02
 21
-1.67955049E+02
  0
LINE
  8
0
 62
4
 10
-2.73145725E+02
 20
-1.99179884E+02
 11
-2.72653321E+02
 21
-1.99093060E+02
  0
LINE
  8
0
 62
4
 10
-2.71756540E+02
 20
-2.07058346E+02
 11
-2.71264136E+02
 21
-2.06971522E+02
  0
LINE
  8
0
 62
4
 10
-2.72549132E+02
 20
-1.99683944E+02
 11
-2.70845415E+02
 21
-1.99383533E+02
  0
LINE
  8
0
 62
4
 10
-2.69664607E+02
 20
-2.06080226E+02
 11
-2.71368325E+02
 21
-2.06380637E+02
  0
LINE
  8
0
  6
CENTER
 62
6
 10
-3.03403640E+02
 20
-2.08576877E+02
 11
-2.66049882E+02
 21
-2.01990402E+02
  0
LINE
  8
0
 62
4
 10
-2.72653321E+02
 20
-1.99093060E+02
 11
-2.71264136E+02
 21
-2.06971522E+02
  0
ARC
  8
0
 62
4
 10
-2.95797505E+02
 20
-2.11805131E+02
 40
5.00000533E-01
 50
1.00000061E+02
 51
1.89999939E+02
  0
ARC
  8
0
 62
4
 10
-2.80634894E+02
 20
-2.04540484E+02
 40
1.18077645E+01
 50
3.57024145E+02
 51
2.27266957E+01
  0
ARC
  8
0
 62
4
 10
-2.94492719E+02
 20
-2.01928527E+02
 40
2.50001831E+00
 50
1.00000420E+02
 51
1.89999580E+02
  0
ARC
  8
0
 62
4
 10
-2.75780594E+02
 20
-1.98628056E+02
 40
2.49901570E+00
 50
9.97742809E+00
 51
1.00022572E+02
  0
CIRCLE
  8
0
 62
4
 10
-2.89564281E+02
 20
-1.75165113E+02
 40
3.75000000E+00
  0
ARC
  8
0
 62
4
 10
-2.69839950E+02
 20
-2.05097261E+02
 40
9.98481423E-01
 50
2.80114125E+02
 51
3.56771982E+02
  0
ARC
  8
0
 62
4
 10
-2.70674793E+02
 20
-2.00364924E+02
 40
9.96112687E-01
 50
2.25301420E+01
 51
9.98626848E+01
  0
ARC
  8
0
 62
4
 10
-2.89564281E+02
 20
-1.75165113E+02
 40
7.00000000E+00
 50
6.89816399E+01
 51
9.19142837E+01
  0
ARC
  8
0
 62
4
 10
-2.89564281E+02
 20
-1.75165113E+02
 40
7.00000000E+00
 50
1.08107658E+02
 51
1.31018360E+02
  0
LINE
  8
0
 62
4
 10
9.81071278E+01
 20
-2.23902057E+02
 11
9.77270288E+01
 21
-2.26057706E+02
  0
LINE
  8
0
 62
4
 10
9.71674686E+01
 20
-2.23472359E+02
 11
9.81071278E+01
 21
-2.23902057E+02
  0
LINE
  8
0
 62
6
 10
9.80671887E+01
 20
-2.24128563E+02
 11
9.59426093E+01
 21
-2.23753942E+02
  0
LINE
  8
0
 62
4
 10
9.71674686E+01
 20
-2.23472359E+02
 11
9.60276969E+01
 21
-2.23271386E+02
  0
LINE
  8
0
  6
CENTER
 62
6
 10
9.90206353E+01
 20
-2.25819821E+02
 11
9.57807569E+01
 21
-2.25248543E+02
  0
LINE
  8
0
 62
4
 10
9.57666350E+01
 20
-2.17743629E+02
 11
9.65988988E+01
 21
-2.20031939E+02
  0
LINE
  8
0
 62
4
 10
9.65988988E+01
 20
-2.20031939E+02
 11
9.57807569E+01
 21
-2.24671852E+02
  0
LINE
  8
0
 62
4
 10
9.07938063E+01
 20
-2.04070831E+02
 11
9.51539348E+01
 21
-2.16059009E+02
  0
LINE
  8
0
 62
4
 10
8.29150864E+01
 20
-2.11312726E+02
 11
8.24226825E+01
 21
-2.11225902E+02
  0
ARC
  8
0
 62
4
 10
8.28282616E+01
 20
-2.11805131E+02
 40
5.00000533E-01
 50
3.50000061E+02
 51
7.99999392E+01
  0
LINE
  8
0
 62
4
 10
8.33206661E+01
 20
-2.11891954E+02
 11
8.28506276E+01
 21
-2.14557675E+02
  0
LINE
  8
0
 62
4
 10
8.26522098E+01
 20
-1.95527262E+02
 11
8.19576171E+01
 21
-1.99466493E+02
  0
ARC
  8
0
 62
4
 10
8.15234755E+01
 20
-2.01928527E+02
 40
2.50001831E+00
 50
3.50000420E+02
 51
7.99995805E+01
  0
LINE
  8
0
 62
4
 10
7.58678884E+01
 20
-1.97377282E+02
 11
7.60487710E+01
 21
-1.98424604E+02
  0
LINE
  8
0
 62
4
 10
8.39855161E+01
 20
-2.02362632E+02
 11
8.18352010E+01
 21
-2.14557675E+02
  0
LINE
  8
0
 62
4
 10
9.07938063E+01
 20
-2.04070831E+02
 11
8.38986920E+01
 21
-2.02855036E+02
  0
LINE
  8
0
 62
4
 10
8.20753861E+01
 20
-2.13195518E+02
 11
5.84400001E+01
 21
-2.09027961E+02
  0
LINE
  8
0
 62
4
 10
5.81795278E+01
 20
-2.10505173E+02
 11
6.02328030E+01
 21
-2.14557675E+02
  0
LINE
  8
0
 62
4
 10
8.11624086E+01
 20
-2.14557675E+02
 11
5.81795278E+01
 21
-2.10505173E+02
  0
LINE
  8
0
 62
4
 10
6.39408625E+01
 20
-1.92227946E+02
 11
6.32462698E+01
 21
-1.96167177E+02
  0
LINE
  8
0
 62
4
 10
7.31823736E+01
 20
-2.06042593E+02
 11
6.92431426E+01
 21
-2.05348001E+02
  0
LINE
  8
0
 62
4
 10
6.92431426E+01
 20
-2.05348001E+02
 11
6.88090221E+01
 21
-2.07810020E+02
  0
LINE
  8
0
 62
4
 10
6.01764818E+01
 20
-1.99179884E+02
 11
5.96840780E+01
 21
-1.99093060E+02
  0
LINE
  8
0
 62
4
 10
5.87872964E+01
 20
-2.07058346E+02
 11
5.82948925E+01
 21
-2.06971522E+02
  0
LINE
  8
0
 62
4
 10
5.95798890E+01
 20
-1.99683944E+02
 11
5.78761716E+01
 21
-1.99383533E+02
  0
LINE
  8
0
 62
4
 10
5.66953640E+01
 20
-2.06080226E+02
 11
5.83990814E+01
 21
-2.06380637E+02
  0
LINE
  8
0
 62
4
 10
5.96840780E+01
 20
-1.99093060E+02
 11
5.82948925E+01
 21
-2.06971522E+02
  0
ARC
  8
0
 62
4
 10
6.76656513E+01
 20
-2.04540484E+02
 40
1.18077645E+01
 50
1.57273305E+02
 51
1.82975855E+02
  0
ARC
  8
0
 62
4
 10
6.28113508E+01
 20
-1.98628056E+02
 40
2.49901570E+00
 50
7.99774282E+01
 51
1.70022572E+02
  0
ARC
  8
0
 62
4
 10
5.68707068E+01
 20
-2.05097261E+02
 40
9.98481423E-01
 50
1.83228018E+02
 51
2.59885875E+02
  0
ARC
  8
0
 62
4
 10
5.77055500E+01
 20
-2.00364924E+02
 40
9.96112687E-01
 50
8.01373150E+01
 51
1.57469858E+02
  0
LINE
  8
0
  6
CENTER
 62
6
 10
7.31639925E+01
 20
-1.94629299E+02
 11
7.23432081E+01
 21
-1.99284199E+02
  0
LINE
  8
0
 62
4
 10
6.91551167E+01
 20
-1.97209066E+02
 11
6.96832957E+01
 21
-1.96286772E+02
  0
LINE
  8
0
 62
4
 10
6.96832957E+01
 20
-1.96286772E+02
 11
7.58678884E+01
 21
-1.97377282E+02
  0
LINE
  8
0
  6
CENTER
 62
6
 10
9.04343968E+01
 20
-2.08576877E+02
 11
5.30806387E+01
 21
-2.01990402E+02
  0
LINE
  8
0
 62
4
 10
7.31823736E+01
 20
-2.06042593E+02
 11
7.27482531E+01
 21
-2.08504613E+02
  0
LINE
  8
0
 62
4
 10
7.27482531E+01
 20
-2.08504613E+02
 11
6.88090221E+01
 21
-2.07810020E+02
  0
LINE
  8
0
 62
4
 10
6.03501300E+01
 20
-1.98195076E+02
 11
5.81795278E+01
 21
-2.10505173E+02
  0
LINE
  8
0
 62
4
 10
8.19576171E+01
 20
-1.99466493E+02
 11
6.32462698E+01
 21
-1.96167177E+02
  0
LINE
  8
0
 62
4
 10
8.08562425E+01
 20
-1.94195157E+02
 11
6.60841262E+01
 21
-1.91590435E+02
  0
LINE
  8
0
 62
4
 10
8.26522098E+01
 20
-1.95527262E+02
 11
6.39408625E+01
 21
-1.92227946E+02
  0
ARC
  8
0
 62
4
 10
7.65959852E+01
 20
-1.75165135E+02
 40
7.00000000E+00
 50
4.89793705E+01
 51
1.11020629E+02
  0
LINE
  8
0
 62
4
 10
7.02516825E+01
 20
-1.67955049E+02
 11
8.50237988E+01
 21
-1.70559771E+02
  0
LINE
  8
0
 62
4
 10
7.87701000E+01
 20
-1.68511323E+02
 11
7.78982129E+01
 21
-1.67780198E+02
  0
LINE
  8
0
 62
4
 10
7.78982129E+01
 20
-1.67780198E+02
 11
7.68288927E+01
 21
-1.68169011E+02
  0
LINE
  8
0
 62
4
 10
8.50237988E+01
 20
-1.70559771E+02
 11
8.06825943E+01
 21
-1.95179965E+02
  0
LINE
  8
0
 62
4
 10
7.02516825E+01
 20
-1.67955049E+02
 11
6.59104780E+01
 21
-1.92575243E+02
  0
ARC
  8
0
 62
4
 10
-5.32494947E+01
 20
-1.08054697E+02
 40
1.49950029E+00
 50
2.69980903E+02
 51
1.90971113E-02
  0
ARC
  8
0
 62
4
 10
-8.92504981E+01
 20
-1.08054700E+02
 40
1.49949647E+00
 50
1.79980757E+02
 51
2.70019243E+02
  0
LINE
  8
0
 62
4
 10
-8.62499945E+01
 20
-1.04427969E+02
 11
-7.12499945E+01
 21
-1.04427969E+02
  0
LINE
  8
0
 62
4
 10
-8.82499945E+01
 20
-1.07092177E+02
 11
-6.92499945E+01
 21
-1.07092177E+02
  0
POLYLINE
  8
0
 62
4
 66
1
  0
VERTEX
  8
0
 62
4
 10
-5.92499945E+01
 20
-9.77365033E+01
  0
VERTEX
  8
0
 62
4
 10
-5.92633131E+01
 20
-9.74360925E+01
  0
VERTEX
  8
0
 62
4
 10
-5.93031674E+01
 20
-9.71379680E+01
  0
VERTEX
  8
0
 62
4
 10
-5.93692541E+01
 20
-9.68443988E+01
  0
VERTEX
  8
0
 62
4
 10
-5.94610703E+01
 20
-9.65576190E+01
  0
VERTEX
  8
0
 62
4
 10
-5.95779172E+01
 20
-9.62798112E+01
  0
VERTEX
  8
0
 62
4
 10
-5.97189056E+01
 20
-9.60130897E+01
  0
VERTEX
  8
0
 62
4
 10
-5.98829623E+01
 20
-9.57594845E+01
  0
VERTEX
  8
0
 62
4
 10
-6.00688389E+01
 20
-9.55209255E+01
  0
VERTEX
  8
0
 62
4
 10
-6.02751208E+01
 20
-9.52992285E+01
  0
VERTEX
  8
0
 62
4
 10
-6.05002379E+01
 20
-9.50960805E+01
  0
VERTEX
  8
0
 62
4
 10
-6.07424770E+01
 20
-9.49130278E+01
  0
VERTEX
  8
0
 62
4
 10
-6.09999945E+01
 20
-9.47514634E+01
  0
VERTEX
  8
0
 62
4
 10
-6.12708306E+01
 20
-9.46126170E+01
  0
VERTEX
  8
0
 62
4
 10
-6.15529240E+01
 20
-9.44975453E+01
  0
VERTEX
  8
0
 62
4
 10
-6.18441278E+01
 20
-9.44071239E+01
  0
VERTEX
  8
0
 62
4
 10
-6.21422259E+01
 20
-9.43420412E+01
  0
VERTEX
  8
0
 62
4
 10
-6.24449494E+01
 20
-9.43027924E+01
  0
VERTEX
  8
0
 62
4
 10
-6.27499945E+01
 20
-9.42896762E+01
  0
VERTEX
  8
0
 62
4
 10
-6.30550396E+01
 20
-9.43027924E+01
  0
VERTEX
  8
0
 62
4
 10
-6.33577631E+01
 20
-9.43420412E+01
  0
VERTEX
  8
0
 62
4
 10
-6.36558612E+01
 20
-9.44071239E+01
  0
VERTEX
  8
0
 62
4
 10
-6.39470650E+01
 20
-9.44975453E+01
  0
VERTEX
  8
0
 62
4
 10
-6.42291584E+01
 20
-9.46126170E+01
  0
VERTEX
  8
0
 62
4
 10
-6.44999945E+01
 20
-9.47514634E+01
  0
VERTEX
  8
0
 62
4
 10
-6.47575120E+01
 20
-9.49130278E+01
  0
VERTEX
  8
0
 62
4
 10
-6.49997511E+01
 20
-9.50960805E+01
  0
VERTEX
  8
0
 62
4
 10
-6.52248682E+01
 20
-9.52992285E+01
  0
VERTEX
  8
0
 62
4
 10
-6.54311501E+01
 20
-9.55209255E+01
  0
VERTEX
  8
0
 62
4
 10
-6.56170267E+01
 20
-9.57594845E+01
  0
VERTEX
  8
0
 62
4
 10
-6.57810834E+01
 20
-9.60130897E+01
  0
VERTEX
  8
0
 62
4
 10
-6.59220718E+01
 20
-9.62798112E+01
  0
VERTEX
  8
0
 62
4
 10
-6.60389187E+01
 20
-9.65576190E+01
  0
VERTEX
  8
0
 62
4
 10
-6.61307349E+01
 20
-9.68443988E+01
  0
VERTEX
  8
0
 62
4
 10
-6.61968216E+01
 20
-9.71379681E+01
  0
VERTEX
  8
0
 62
4
 10
-6.62366759E+01
 20
-9.74360925E+01
  0
VERTEX
  8
0
 62
4
 10
-6.62499945E+01
 20
-9.77365033E+01
  0
VERTEX
  8
0
 62
4
 10
-6.62366759E+01
 20
-9.80369141E+01
  0
VERTEX
  8
0
 62
4
 10
-6.61968216E+01
 20
-9.83350386E+01
  0
VERTEX
  8
0
 62
4
 10
-6.61307349E+01
 20
-9.86286078E+01
  0
VERTEX
  8
0
 62
4
 10
-6.60389187E+01
 20
-9.89153876E+01
  0
VERTEX
  8
0
 62
4
 10
-6.59220718E+01
 20
-9.91931954E+01
  0
VERTEX
  8
0
 62
4
 10
-6.57810834E+01
 20
-9.94599169E+01
  0
VERTEX
  8
0
 62
4
 10
-6.56170267E+01
 20
-9.97135221E+01
  0
VERTEX
  8
0
 62
4
 10
-6.54311500E+01
 20
-9.99520811E+01
  0
VERTEX
  8
0
 62
4
 10
-6.52248682E+01
 20
-1.00173778E+02
  0
VERTEX
  8
0
 62
4
 10
-6.49997511E+01
 20
-1.00376926E+02
  0
VERTEX
  8
0
 62
4
 10
-6.47575120E+01
 20
-1.00559979E+02
  0
VERTEX
  8
0
 62
4
 10
-6.44999945E+01
 20
-1.00721543E+02
  0
VERTEX
  8
0
 62
4
 10
-6.42291584E+01
 20
-1.00860390E+02
  0
VERTEX
  8
0
 62
4
 10
-6.39470650E+01
 20
-1.00975461E+02
  0
VERTEX
  8
0
 62
4
 10
-6.36558612E+01
 20
-1.01065883E+02
  0
VERTEX
  8
0
 62
4
 10
-6.33577631E+01
 20
-1.01130965E+02
  0
VERTEX
  8
0
 62
4
 10
-6.30550396E+01
 20
-1.01170214E+02
  0
VERTEX
  8
0
 62
4
 10
-6.27499945E+01
 20
-1.01183330E+02
  0
VERTEX
  8
0
 62
4
 10
-6.24449494E+01
 20
-1.01170214E+02
  0
VERTEX
  8
0
 62
4
 10
-6.21422259E+01
 20
-1.01130965E+02
  0
VERTEX
  8
0
 62
4
 10
-6.18441278E+01
 20
-1.01065883E+02
  0
VERTEX
  8
0
 62
4
 10
-6.15529240E+01
 20
-1.00975461E+02
  0
VERTEX
  8
0
 62
4
 10
-6.12708306E+01
 20
-1.00860390E+02
  0
VERTEX
  8
0
 62
4
 10
-6.09999945E+01
 20
-1.00721543E+02
  0
VERTEX
  8
0
 62
4
 10
-6.07424770E+01
 20
-1.00559979E+02
  0
VERTEX
  8
0
 62
4
 10
-6.05002379E+01
 20
-1.00376926E+02
  0
VERTEX
  8
0
 62
4
 10
-6.02751208E+01
 20
-1.00173778E+02
  0
VERTEX
  8
0
 62
4
 10
-6.00688389E+01
 20
-9.99520811E+01
  0
VERTEX
  8
0
 62
4
 10
-5.98829623E+01
 20
-9.97135221E+01
  0
VERTEX
  8
0
 62
4
 10
-5.97189056E+01
 20
-9.94599169E+01
  0
VERTEX
  8
0
 62
4
 10
-5.95779172E+01
 20
-9.91931954E+01
  0
VERTEX
  8
0
 62
4
 10
-5.94610703E+01
 20
-9.89153876E+01
  0
VERTEX
  8
0
 62
4
 10
-5.93692541E+01
 20
-9.86286078E+01
  0
VERTEX
  8
0
 62
4
 10
-5.93031674E+01
 20
-9.83350385E+01
  0
VERTEX
  8
0
 62
4
 10
-5.92633131E+01
 20
-9.80369141E+01
  0
VERTEX
  8
0
 62
4
 10
-5.92499945E+01
 20
-9.77365033E+01
  0
SEQEND
  8
0
  0
POLYLINE
  8
0
 62
4
 66
1
  0
VERTEX
  8
0
 62
4
 10
-5.96099945E+01
 20
-9.75628552E+01
  0
VERTEX
  8
0
 62
4
 10
-5.96219431E+01
 20
-9.72933438E+01
  0
VERTEX
  8
0
 62
4
 10
-5.96576982E+01
 20
-9.70258836E+01
  0
VERTEX
  8
0
 62
4
 10
-5.97169874E+01
 20
-9.67625100E+01
  0
VERTEX
  8
0
 62
4
 10
-5.97993597E+01
 20
-9.65052276E+01
  0
VERTEX
  8
0
 62
4
 10
-5.99041880E+01
 20
-9.62559943E+01
  0
VERTEX
  8
0
 62
4
 10
-6.00306747E+01
 20
-9.60167070E+01
  0
VERTEX
  8
0
 62
4
 10
-6.01778571E+01
 20
-9.57891869E+01
  0
VERTEX
  8
0
 62
4
 10
-6.03446149E+01
 20
-9.55751654E+01
  0
VERTEX
  8
0
 62
4
 10
-6.05296792E+01
 20
-9.53762715E+01
  0
VERTEX
  8
0
 62
4
 10
-6.07316414E+01
 20
-9.51940188E+01
  0
VERTEX
  8
0
 62
4
 10
-6.09489645E+01
 20
-9.50297943E+01
  0
VERTEX
  8
0
 62
4
 10
-6.11799945E+01
 20
-9.48848480E+01
  0
VERTEX
  8
0
 62
4
 10
-6.14229732E+01
 20
-9.47602829E+01
  0
VERTEX
  8
0
 62
4
 10
-6.16760513E+01
 20
-9.46570471E+01
  0
VERTEX
  8
0
 62
4
 10
-6.19373027E+01
 20
-9.45759263E+01
  0
VERTEX
  8
0
 62
4
 10
-6.22047392E+01
 20
-9.45175378E+01
  0
VERTEX
  8
0
 62
4
 10
-6.24763255E+01
 20
-9.44823260E+01
  0
VERTEX
  8
0
 62
4
 10
-6.27499945E+01
 20
-9.44705589E+01
  0
VERTEX
  8
0
 62
4
 10
-6.30236635E+01
 20
-9.44823260E+01
  0
VERTEX
  8
0
 62
4
 10
-6.32952498E+01
 20
-9.45175378E+01
  0
VERTEX
  8
0
 62
4
 10
-6.35626863E+01
 20
-9.45759263E+01
  0
VERTEX
  8
0
 62
4
 10
-6.38239378E+01
 20
-9.46570471E+01
  0
VERTEX
  8
0
 62
4
 10
-6.40770158E+01
 20
-9.47602829E+01
  0
VERTEX
  8
0
 62
4
 10
-6.43199945E+01
 20
-9.48848480E+01
  0
VERTEX
  8
0
 62
4
 10
-6.45510245E+01
 20
-9.50297943E+01
  0
VERTEX
  8
0
 62
4
 10
-6.47683476E+01
 20
-9.51940188E+01
  0
VERTEX
  8
0
 62
4
 10
-6.49703098E+01
 20
-9.53762715E+01
  0
VERTEX
  8
0
 62
4
 10
-6.51553741E+01
 20
-9.55751654E+01
  0
VERTEX
  8
0
 62
4
 10
-6.53221319E+01
 20
-9.57891869E+01
  0
VERTEX
  8
0
 62
4
 10
-6.54693143E+01
 20
-9.60167070E+01
  0
VERTEX
  8
0
 62
4
 10
-6.55958010E+01
 20
-9.62559943E+01
  0
VERTEX
  8
0
 62
4
 10
-6.57006293E+01
 20
-9.65052276E+01
  0
VERTEX
  8
0
 62
4
 10
-6.57830016E+01
 20
-9.67625100E+01
  0
VERTEX
  8
0
 62
4
 10
-6.58422908E+01
 20
-9.70258836E+01
  0
VERTEX
  8
0
 62
4
 10
-6.58780459E+01
 20
-9.72933438E+01
  0
VERTEX
  8
0
 62
4
 10
-6.58899945E+01
 20
-9.75628552E+01
  0
VERTEX
  8
0
 62
4
 10
-6.58780459E+01
 20
-9.78323666E+01
  0
VERTEX
  8
0
 62
4
 10
-6.58422908E+01
 20
-9.80998268E+01
  0
VERTEX
  8
0
 62
4
 10
-6.57830016E+01
 20
-9.83632004E+01
  0
VERTEX
  8
0
 62
4
 10
-6.57006293E+01
 20
-9.86204828E+01
  0
VERTEX
  8
0
 62
4
 10
-6.55958009E+01
 20
-9.88697161E+01
  0
VERTEX
  8
0
 62
4
 10
-6.54693143E+01
 20
-9.91090034E+01
  0
VERTEX
  8
0
 62
4
 10
-6.53221319E+01
 20
-9.93365235E+01
  0
VERTEX
  8
0
 62
4
 10
-6.51553740E+01
 20
-9.95505450E+01
  0
VERTEX
  8
0
 62
4
 10
-6.49703098E+01
 20
-9.97494389E+01
  0
VERTEX
  8
0
 62
4
 10
-6.47683476E+01
 20
-9.99316916E+01
  0
VERTEX
  8
0
 62
4
 10
-6.45510245E+01
 20
-1.00095916E+02
  0
VERTEX
  8
0
 62
4
 10
-6.43199945E+01
 20
-1.00240862E+02
  0
VERTEX
  8
0
 62
4
 10
-6.40770158E+01
 20
-1.00365427E+02
  0
VERTEX
  8
0
 62
4
 10
-6.38239377E+01
 20
-1.00468663E+02
  0
VERTEX
  8
0
 62
4
 10
-6.35626863E+01
 20
-1.00549784E+02
  0
VERTEX
  8
0
 62
4
 10
-6.32952498E+01
 20
-1.00608173E+02
  0
VERTEX
  8
0
 62
4
 10
-6.30236635E+01
 20
-1.00643384E+02
  0
VERTEX
  8
0
 62
4
 10
-6.27499945E+01
 20
-1.00655152E+02
  0
VERTEX
  8
0
 62
4
 10
-6.24763255E+01
 20
-1.00643384E+02
  0
VERTEX
  8
0
 62
4
 10
-6.22047392E+01
 20
-1.00608173E+02
  0
VERTEX
  8
0
 62
4
 10
-6.19373027E+01
 20
-1.00549784E+02
  0
VERTEX
  8
0
 62
4
 10
-6.16760512E+01
 20
-1.00468663E+02
  0
VERTEX
  8
0
 62
4
 10
-6.14229732E+01
 20
-1.00365427E+02
  0
VERTEX
  8
0
 62
4
 10
-6.11799945E+01
 20
-1.00240862E+02
  0
VERTEX
  8
0
 62
4
 10
-6.09489645E+01
 20
-1.00095916E+02
  0
VERTEX
  8
0
 62
4
 10
-6.07316414E+01
 20
-9.99316916E+01
  0
VERTEX
  8
0
 62
4
 10
-6.05296792E+01
 20
-9.97494389E+01
  0
VERTEX
  8
0
 62
4
 10
-6.03446149E+01
 20
-9.95505450E+01
  0
VERTEX
  8
0
 62
4
 10
-6.01778571E+01
 20
-9.93365235E+01
  0
VERTEX
  8
0
 62
4
 10
-6.00306747E+01
 20
-9.91090034E+01
  0
VERTEX
  8
0
 62
4
 10
-5.99041880E+01
 20
-9.88697161E+01
  0
VERTEX
  8
0
 62
4
 10
-5.97993597E+01
 20
-9.86204828E+01
  0
VERTEX
  8
0
 62
4
 10
-5.97169874E+01
 20
-9.83632004E+01
  0
VERTEX
  8
0
 62
4
 10
-5.96576982E+01
 20
-9.80998268E+01
  0
VERTEX
  8
0
 62
4
 10
-5.96219431E+01
 20
-9.78323666E+01
  0
VERTEX
  8
0
 62
4
 10
-5.96099945E+01
 20
-9.75628552E+01
  0
SEQEND
  8
0
  0
ARC
  8
0
 62
4
 10
-7.45143995E+01
 20
-1.02888271E+02
 40
1.21769740E+01
 50
2.40462101E+02
 51
2.52020214E+02
  0
ARC
  8
0
 62
4
 10
-8.29855895E+01
 20
-1.02888271E+02
 40
1.21769740E+01
 50
2.87979786E+02
 51
2.99537899E+02
  0
POLYLINE
  8
0
 62
4
 66
1
  0
VERTEX
  8
0
 62
4
 10
-7.53499945E+01
 20
-1.13471418E+02
  0
VERTEX
  8
0
 62
4
 10
-7.53629325E+01
 20
-1.13383465E+02
  0
VERTEX
  8
0
 62
4
 10
-7.54016481E+01
 20
-1.13296182E+02
  0
VERTEX
  8
0
 62
4
 10
-7.54658467E+01
 20
-1.13210233E+02
  0
VERTEX
  8
0
 62
4
 10
-7.55550396E+01
 20
-1.13126271E+02
  0
VERTEX
  8
0
 62
4
 10
-7.56685480E+01
 20
-1.13044936E+02
  0
VERTEX
  8
0
 62
4
 10
-7.58055081E+01
 20
-1.12966847E+02
  0
VERTEX
  8
0
 62
4
 10
-7.59648775E+01
 20
-1.12892598E+02
  0
VERTEX
  8
0
 62
4
 10
-7.61454434E+01
 20
-1.12822754E+02
  0
VERTEX
  8
0
 62
4
 10
-7.63458314E+01
 20
-1.12757847E+02
  0
VERTEX
  8
0
 62
4
 10
-7.65645166E+01
 20
-1.12698370E+02
  0
VERTEX
  8
0
 62
4
 10
-7.67998346E+01
 20
-1.12644777E+02
  0
VERTEX
  8
0
 62
4
 10
-7.70499945E+01
 20
-1.12597475E+02
  0
VERTEX
  8
0
 62
4
 10
-7.73130924E+01
 20
-1.12556824E+02
  0
VERTEX
  8
0
 62
4
 10
-7.75871260E+01
 20
-1.12523134E+02
  0
VERTEX
  8
0
 62
4
 10
-7.78700097E+01
 20
-1.12496661E+02
  0
VERTEX
  8
0
 62
4
 10
-7.81595907E+01
 20
-1.12477607E+02
  0
VERTEX
  8
0
 62
4
 10
-7.84536650E+01
 20
-1.12466116E+02
  0
VERTEX
  8
0
 62
4
 10
-7.87499945E+01
 20
-1.12462276E+02
  0
VERTEX
  8
0
 62
4
 10
-7.90463240E+01
 20
-1.12466116E+02
  0
VERTEX
  8
0
 62
4
 10
-7.93403983E+01
 20
-1.12477607E+02
  0
VERTEX
  8
0
 62
4
 10
-7.96299793E+01
 20
-1.12496661E+02
  0
VERTEX
  8
0
 62
4
 10
-7.99128630E+01
 20
-1.12523134E+02
  0
VERTEX
  8
0
 62
4
 10
-8.01868966E+01
 20
-1.12556824E+02
  0
VERTEX
  8
0
 62
4
 10
-8.04499945E+01
 20
-1.12597475E+02
  0
VERTEX
  8
0
 62
4
 10
-8.07001544E+01
 20
-1.12644777E+02
  0
VERTEX
  8
0
 62
4
 10
-8.09354724E+01
 20
-1.12698370E+02
  0
VERTEX
  8
0
 62
4
 10
-8.11541576E+01
 20
-1.12757847E+02
  0
VERTEX
  8
0
 62
4
 10
-8.13545456E+01
 20
-1.12822754E+02
  0
VERTEX
  8
0
 62
4
 10
-8.15351115E+01
 20
-1.12892598E+02
  0
VERTEX
  8
0
 62
4
 10
-8.16944809E+01
 20
-1.12966847E+02
  0
VERTEX
  8
0
 62
4
 10
-8.18314410E+01
 20
-1.13044936E+02
  0
VERTEX
  8
0
 62
4
 10
-8.19449494E+01
 20
-1.13126271E+02
  0
VERTEX
  8
0
 62
4
 10
-8.20341423E+01
 20
-1.13210233E+02
  0
VERTEX
  8
0
 62
4
 10
-8.20983409E+01
 20
-1.13296182E+02
  0
VERTEX
  8
0
 62
4
 10
-8.21370565E+01
 20
-1.13383465E+02
  0
VERTEX
  8
0
 62
4
 10
-8.21499945E+01
 20
-1.13471418E+02
  0
VERTEX
  8
0
 62
4
 10
-8.21370565E+01
 20
-1.13559371E+02
  0
VERTEX
  8
0
 62
4
 10
-8.20983409E+01
 20
-1.13646654E+02
  0
VERTEX
  8
0
 62
4
 10
-8.20341423E+01
 20
-1.13732603E+02
  0
VERTEX
  8
0
 62
4
 10
-8.19449494E+01
 20
-1.13816565E+02
  0
VERTEX
  8
0
 62
4
 10
-8.18314410E+01
 20
-1.13897900E+02
  0
VERTEX
  8
0
 62
4
 10
-8.16944809E+01
 20
-1.13975989E+02
  0
VERTEX
  8
0
 62
4
 10
-8.15351114E+01
 20
-1.14050238E+02
  0
VERTEX
  8
0
 62
4
 10
-8.13545456E+01
 20
-1.14120082E+02
  0
VERTEX
  8
0
 62
4
 10
-8.11541576E+01
 20
-1.14184989E+02
  0
VERTEX
  8
0
 62
4
 10
-8.09354724E+01
 20
-1.14244466E+02
  0
VERTEX
  8
0
 62
4
 10
-8.07001544E+01
 20
-1.14298059E+02
  0
VERTEX
  8
0
 62
4
 10
-8.04499945E+01
 20
-1.14345361E+02
  0
VERTEX
  8
0
 62
4
 10
-8.01868966E+01
 20
-1.14386012E+02
  0
VERTEX
  8
0
 62
4
 10
-7.99128630E+01
 20
-1.14419702E+02
  0
VERTEX
  8
0
 62
4
 10
-7.96299792E+01
 20
-1.14446175E+02
  0
VERTEX
  8
0
 62
4
 10
-7.93403983E+01
 20
-1.14465229E+02
  0
VERTEX
  8
0
 62
4
 10
-7.90463240E+01
 20
-1.14476720E+02
  0
VERTEX
  8
0
 62
4
 10
-7.87499945E+01
 20
-1.14480560E+02
  0
VERTEX
  8
0
 62
4
 10
-7.84536650E+01
 20
-1.14476720E+02
  0
VERTEX
  8
0
 62
4
 10
-7.81595907E+01
 20
-1.14465229E+02
  0
VERTEX
  8
0
 62
4
 10
-7.78700097E+01
 20
-1.14446175E+02
  0
VERTEX
  8
0
 62
4
 10
-7.75871260E+01
 20
-1.14419702E+02
  0
VERTEX
  8
0
 62
4
 10
-7.73130924E+01
 20
-1.14386012E+02
  0
VERTEX
  8
0
 62
4
 10
-7.70499945E+01
 20
-1.14345361E+02
  0
VERTEX
  8
0
 62
4
 10
-7.67998346E+01
 20
-1.14298059E+02
  0
VERTEX
  8
0
 62
4
 10
-7.65645166E+01
 20
-1.14244466E+02
  0
VERTEX
  8
0
 62
4
 10
-7.63458314E+01
 20
-1.14184989E+02
  0
VERTEX
  8
0
 62
4
 10
-7.61454434E+01
 20
-1.14120082E+02
  0
VERTEX
  8
0
 62
4
 10
-7.59648775E+01
 20
-1.14050238E+02
  0
VERTEX
  8
0
 62
4
 10
-7.58055081E+01
 20
-1.13975989E+02
  0
VERTEX
  8
0
 62
4
 10
-7.56685480E+01
 20
-1.13897900E+02
  0
VERTEX
  8
0
 62
4
 10
-7.55550396E+01
 20
-1.13816565E+02
  0
VERTEX
  8
0
 62
4
 10
-7.54658467E+01
 20
-1.13732603E+02
  0
VERTEX
  8
0
 62
4
 10
-7.54016481E+01
 20
-1.13646654E+02
  0
VERTEX
  8
0
 62
4
 10
-7.53629325E+01
 20
-1.13559371E+02
  0
VERTEX
  8
0
 62
4
 10
-7.53499945E+01
 20
-1.13471418E+02
  0
SEQEND
  8
0
  0
ARC
  8
0
 62
4
 10
-8.92494946E+01
 20
-8.78154533E+01
 40
1.50050004E+00
 50
9.00190906E+01
 51
1.34401209E+02
  0
ARC
  8
0
 62
4
 10
-9.52494944E+01
 20
-8.72439093E+01
 40
5.00500378E-01
 50
9.00572530E+01
 51
1.79942747E+02
  0
ARC
  8
0
 62
4
 10
-9.52504941E+01
 20
-1.00243909E+02
 40
4.99500622E-01
 50
1.79942690E+02
 51
2.70057311E+02
  0
ARC
  8
0
 62
4
 10
-5.32504983E+01
 20
-8.78154572E+01
 40
1.50050386E+00
 50
1.92364101E-02
 51
8.99807637E+01
  0
LINE
  8
0
 62
4
 10
-6.92499945E+01
 20
-8.76862373E+01
 11
-7.12499945E+01
 21
-8.76862373E+01
  0
LINE
  8
0
 62
4
 10
-8.92499945E+01
 20
-1.09554197E+02
 11
-5.32499945E+01
 21
-1.09554197E+02
  0
LINE
  8
0
 62
4
 10
-8.92499945E+01
 20
-8.63149534E+01
 11
-8.62499945E+01
 21
-8.63149534E+01
  0
LINE
  8
0
 62
4
 10
-8.82499945E+01
 20
-1.06397585E+02
 11
-6.92499945E+01
 21
-1.06397585E+02
  0
LINE
  8
0
 62
4
 10
-8.82499945E+01
 20
-1.00727761E+02
 11
-8.82499945E+01
 21
-1.07092177E+02
  0
LINE
  8
0
 62
4
 10
-9.07499945E+01
 20
-1.00727761E+02
 11
-9.07499945E+01
 21
-1.10658919E+02
  0
LINE
  8
0
 62
4
 10
-6.92499945E+01
 20
-8.76862373E+01
 11
-6.92499945E+01
 21
-1.07092177E+02
  0
LINE
  8
0
 62
4
 10
-5.17499945E+01
 20
-8.78149534E+01
 11
-5.17499945E+01
 21
-1.10659419E+02
  0
LINE
  8
0
 62
4
 10
-1.05749995E+02
 20
-8.66901645E+01
 11
-1.00749995E+02
 21
-8.66901645E+01
  0
LINE
  8
0
 62
4
 10
-8.62499945E+01
 20
-1.00086765E+02
 11
-7.12499945E+01
 21
-1.00086765E+02
  0
LINE
  8
0
 62
4
 10
-8.62499945E+01
 20
-8.53146484E+01
 11
-7.12499945E+01
 21
-8.53146484E+01
  0
LINE
  8
0
 62
4
 10
-7.12499945E+01
 20
-7.37395484E+01
 11
-7.12499945E+01
 21
-1.04427969E+02
  0
LINE
  8
0
 62
4
 10
-9.92499945E+01
 20
-9.94934092E+01
 11
-9.57499945E+01
 21
-9.94934092E+01
  0
LINE
  8
0
 62
4
 10
-9.92499945E+01
 20
-8.79934092E+01
 11
-9.57499945E+01
 21
-8.79934092E+01
  0
LINE
  8
0
 62
4
 10
-9.92499945E+01
 20
-8.74934092E+01
 11
-9.92499945E+01
 21
-9.99934092E+01
  0
LINE
  8
0
 62
4
 10
-1.00749995E+02
 20
-9.99934092E+01
 11
-9.57499945E+01
 21
-9.99934092E+01
  0
LINE
  8
0
 62
4
 10
-1.00749995E+02
 20
-8.74934092E+01
 11
-9.57499945E+01
 21
-8.74934092E+01
  0
LINE
  8
0
 62
4
 10
-1.00749995E+02
 20
-8.66901645E+01
 11
-1.00749995E+02
 21
-1.00796763E+02
  0
LINE
  8
0
 62
4
 10
-1.05749995E+02
 20
-8.66901645E+01
 11
-1.05749995E+02
 21
-1.00796763E+02
  0
LINE
  8
0
 62
4
 10
-9.57499945E+01
 20
-8.72277612E+01
 11
-9.57499945E+01
 21
-1.00227761E+02
  0
LINE
  8
0
 62
4
 10
-8.62499945E+01
 20
-8.67434092E+01
 11
-9.52499945E+01
 21
-8.67434092E+01
  0
LINE
  8
0
 62
4
 10
-9.52499945E+01
 20
-1.00743409E+02
 11
-8.62499945E+01
 21
-1.00743409E+02
  0
LINE
  8
0
  6
CENTER
 62
6
 10
-7.87499945E+01
 20
-7.20898900E+01
 11
-7.87499945E+01
 21
-1.15664706E+02
  0
LINE
  8
0
 62
4
 10
-8.21499945E+01
 20
-1.13471418E+02
 11
-8.21499945E+01
 21
-1.11348962E+02
  0
LINE
  8
0
 62
4
 10
-7.53499945E+01
 20
-1.11348962E+02
 11
-7.53499945E+01
 21
-1.13471418E+02
  0
LINE
  8
0
 62
4
 10
-8.27499945E+01
 20
-1.10856558E+02
 11
-8.27499945E+01
 21
-1.11348962E+02
  0
LINE
  8
0
 62
4
 10
-7.47499945E+01
 20
-1.11348962E+02
 11
-7.47499945E+01
 21
-1.10856558E+02
  0
LINE
  8
0
 62
6
 10
-8.12499945E+01
 20
-7.22313194E+01
 11
-8.12499945E+01
 21
-7.37395484E+01
  0
LINE
  8
0
 62
4
 10
-8.47499945E+01
 20
-7.32313194E+01
 11
-8.44899945E+01
 21
-7.22313194E+01
  0
LINE
  8
0
 62
4
 10
-8.07499945E+01
 20
-7.32313194E+01
 11
-8.10199945E+01
 21
-7.22313194E+01
  0
LINE
  8
0
 62
4
 10
-8.10199945E+01
 20
-7.22313194E+01
 11
-8.44899945E+01
 21
-7.22313194E+01
  0
LINE
  8
0
 62
4
 10
-8.47499945E+01
 20
-7.32313194E+01
 11
-8.47499945E+01
 21
-7.37395484E+01
  0
LINE
  8
0
 62
4
 10
-8.07499945E+01
 20
-7.32313194E+01
 11
-8.07499945E+01
 21
-7.37395484E+01
  0
LINE
  8
0
 62
6
 10
-8.42499945E+01
 20
-7.22313194E+01
 11
-8.42499945E+01
 21
-7.37395484E+01
  0
LINE
  8
0
  6
CENTER
 62
6
 10
-8.27499945E+01
 20
-7.09713194E+01
 11
-8.27499945E+01
 21
-8.14713194E+01
  0
LINE
  8
0
 62
4
 10
-7.12499945E+01
 20
-7.37395484E+01
 11
-8.62499945E+01
 21
-7.37395484E+01
  0
LINE
  8
0
 62
4
 10
-7.22499945E+01
 20
-7.95446409E+01
 11
-8.52499945E+01
 21
-7.95446409E+01
  0
LINE
  8
0
 62
4
 10
-8.62499945E+01
 20
-7.37395484E+01
 11
-8.62499945E+01
 21
-1.04427969E+02
  0
LINE
  8
0
 62
6
 10
-7.62499945E+01
 20
-7.22313194E+01
 11
-7.62499945E+01
 21
-7.37395484E+01
  0
LINE
  8
0
 62
6
 10
-7.32499945E+01
 20
-7.22313194E+01
 11
-7.32499945E+01
 21
-7.37395484E+01
  0
LINE
  8
0
 62
4
 10
-7.67499945E+01
 20
-7.32313194E+01
 11
-7.64899945E+01
 21
-7.22313194E+01
  0
LINE
  8
0
 62
4
 10
-7.27499945E+01
 20
-7.32313194E+01
 11
-7.30199945E+01
 21
-7.22313194E+01
  0
LINE
  8
0
 62
4
 10
-7.30199945E+01
 20
-7.22313194E+01
 11
-7.64899945E+01
 21
-7.22313194E+01
  0
LINE
  8
0
 62
4
 10
-7.67499945E+01
 20
-7.32313194E+01
 11
-7.67499945E+01
 21
-7.37395484E+01
  0
LINE
  8
0
 62
4
 10
-7.27499945E+01
 20
-7.32313194E+01
 11
-7.27499945E+01
 21
-7.37395484E+01
  0
LINE
  8
0
  6
CENTER
 62
6
 10
-7.47499945E+01
 20
-7.09713194E+01
 11
-7.47499945E+01
 21
-8.14713194E+01
  0
LINE
  8
0
 62
4
 10
-1.05749995E+02
 20
-9.24402343E+01
 11
-1.00749995E+02
 21
-9.24402343E+01
  0
LINE
  8
0
 62
4
 10
-1.05749995E+02
 20
-1.00796763E+02
 11
-1.00749995E+02
 21
-1.00796763E+02
  0
LINE
  8
0
 62
4
 10
-7.12499945E+01
 20
-8.63149534E+01
 11
-5.32499945E+01
 21
-8.63149534E+01
  0
ARC
  8
0
 62
4
 10
-5.32494947E+01
 20
-1.10659419E+02
 40
1.49950029E+00
 50
2.69980903E+02
 51
1.90971113E-02
  0
LINE
  8
0
 62
4
 10
-8.92499945E+01
 20
-1.12158919E+02
 11
-8.21499945E+01
 21
-1.12158919E+02
  0
ARC
  8
0
 62
4
 10
-8.92504981E+01
 20
-1.10659423E+02
 40
1.49949647E+00
 50
1.79980757E+02
 51
2.70019243E+02
  0
LINE
  8
0
 62
4
 10
-1.05749995E+02
 20
-9.94926653E+01
 11
-1.00749995E+02
 21
-9.94926653E+01
  0
POLYLINE
  8
0
 62
4
 66
1
  0
VERTEX
  8
0
 62
4
 10
-7.57499945E+01
 20
-9.27007065E+01
  0
VERTEX
  8
0
 62
4
 10
-7.57614104E+01
 20
-9.24432115E+01
  0
VERTEX
  8
0
 62
4
 10
-7.57955712E+01
 20
-9.21876763E+01
  0
VERTEX
  8
0
 62
4
 10
-7.58522170E+01
 20
-9.19360455E+01
  0
VERTEX
  8
0
 62
4
 10
-7.59309166E+01
 20
-9.16902342E+01
  0
VERTEX
  8
0
 62
4
 10
-7.60310711E+01
 20
-9.14521133E+01
  0
VERTEX
  8
0
 62
4
 10
-7.61519183E+01
 20
-9.12234949E+01
  0
VERTEX
  8
0
 62
4
 10
-7.62925384E+01
 20
-9.10061189E+01
  0
VERTEX
  8
0
 62
4
 10
-7.64518612E+01
 20
-9.08016398E+01
  0
VERTEX
  8
0
 62
4
 10
-7.66286742E+01
 20
-9.06116138E+01
  0
VERTEX
  8
0
 62
4
 10
-7.68216317E+01
 20
-9.04374870E+01
  0
VERTEX
  8
0
 62
4
 10
-7.70292652E+01
 20
-9.02805846E+01
  0
VERTEX
  8
0
 62
4
 10
-7.72499945E+01
 20
-9.01421009E+01
  0
VERTEX
  8
0
 62
4
 10
-7.74821397E+01
 20
-9.00230897E+01
  0
VERTEX
  8
0
 62
4
 10
-7.77239341E+01
 20
-8.99244568E+01
  0
VERTEX
  8
0
 62
4
 10
-7.79735374E+01
 20
-8.98469528E+01
  0
VERTEX
  8
0
 62
4
 10
-7.82290500E+01
 20
-8.97911676E+01
  0
VERTEX
  8
0
 62
4
 10
-7.84885273E+01
 20
-8.97575257E+01
  0
VERTEX
  8
0
 62
4
 10
-7.87499945E+01
 20
-8.97462832E+01
  0
VERTEX
  8
0
 62
4
 10
-7.90114617E+01
 20
-8.97575257E+01
  0
VERTEX
  8
0
 62
4
 10
-7.92709390E+01
 20
-8.97911676E+01
  0
VERTEX
  8
0
 62
4
 10
-7.95264516E+01
 20
-8.98469528E+01
  0
VERTEX
  8
0
 62
4
 10
-7.97760549E+01
 20
-8.99244568E+01
  0
VERTEX
  8
0
 62
4
 10
-8.00178493E+01
 20
-9.00230897E+01
  0
VERTEX
  8
0
 62
4
 10
-8.02499945E+01
 20
-9.01421009E+01
  0
VERTEX
  8
0
 62
4
 10
-8.04707238E+01
 20
-9.02805846E+01
  0
VERTEX
  8
0
 62
4
 10
-8.06783573E+01
 20
-9.04374870E+01
  0
VERTEX
  8
0
 62
4
 10
-8.08713148E+01
 20
-9.06116138E+01
  0
VERTEX
  8
0
 62
4
 10
-8.10481278E+01
 20
-9.08016398E+01
  0
VERTEX
  8
0
 62
4
 10
-8.12074506E+01
 20
-9.10061189E+01
  0
VERTEX
  8
0
 62
4
 10
-8.13480707E+01
 20
-9.12234949E+01
  0
VERTEX
  8
0
 62
4
 10
-8.14689179E+01
 20
-9.14521133E+01
  0
VERTEX
  8
0
 62
4
 10
-8.15690724E+01
 20
-9.16902342E+01
  0
VERTEX
  8
0
 62
4
 10
-8.16477720E+01
 20
-9.19360455E+01
  0
VERTEX
  8
0
 62
4
 10
-8.17044178E+01
 20
-9.21876763E+01
  0
VERTEX
  8
0
 62
4
 10
-8.17385786E+01
 20
-9.24432116E+01
  0
VERTEX
  8
0
 62
4
 10
-8.17499945E+01
 20
-9.27007065E+01
  0
VERTEX
  8
0
 62
4
 10
-8.17385786E+01
 20
-9.29582015E+01
  0
VERTEX
  8
0
 62
4
 10
-8.17044178E+01
 20
-9.32137367E+01
  0
VERTEX
  8
0
 62
4
 10
-8.16477720E+01
 20
-9.34653675E+01
  0
VERTEX
  8
0
 62
4
 10
-8.15690724E+01
 20
-9.37111788E+01
  0
VERTEX
  8
0
 62
4
 10
-8.14689179E+01
 20
-9.39492997E+01
  0
VERTEX
  8
0
 62
4
 10
-8.13480707E+01
 20
-9.41779181E+01
  0
VERTEX
  8
0
 62
4
 10
-8.12074506E+01
 20
-9.43952941E+01
  0
VERTEX
  8
0
 62
4
 10
-8.10481278E+01
 20
-9.45997732E+01
  0
VERTEX
  8
0
 62
4
 10
-8.08713148E+01
 20
-9.47897992E+01
  0
VERTEX
  8
0
 62
4
 10
-8.06783573E+01
 20
-9.49639260E+01
  0
VERTEX
  8
0
 62
4
 10
-8.04707238E+01
 20
-9.51208284E+01
  0
VERTEX
  8
0
 62
4
 10
-8.02499945E+01
 20
-9.52593121E+01
  0
VERTEX
  8
0
 62
4
 10
-8.00178493E+01
 20
-9.53783233E+01
  0
VERTEX
  8
0
 62
4
 10
-7.97760549E+01
 20
-9.54769562E+01
  0
VERTEX
  8
0
 62
4
 10
-7.95264516E+01
 20
-9.55544602E+01
  0
VERTEX
  8
0
 62
4
 10
-7.92709390E+01
 20
-9.56102454E+01
  0
VERTEX
  8
0
 62
4
 10
-7.90114617E+01
 20
-9.56438873E+01
  0
VERTEX
  8
0
 62
4
 10
-7.87499945E+01
 20
-9.56551298E+01
  0
VERTEX
  8
0
 62
4
 10
-7.84885273E+01
 20
-9.56438873E+01
  0
VERTEX
  8
0
 62
4
 10
-7.82290500E+01
 20
-9.56102454E+01
  0
VERTEX
  8
0
 62
4
 10
-7.79735374E+01
 20
-9.55544602E+01
  0
VERTEX
  8
0
 62
4
 10
-7.77239341E+01
 20
-9.54769562E+01
  0
VERTEX
  8
0
 62
4
 10
-7.74821397E+01
 20
-9.53783233E+01
  0
VERTEX
  8
0
 62
4
 10
-7.72499945E+01
 20
-9.52593121E+01
  0
VERTEX
  8
0
 62
4
 10
-7.70292652E+01
 20
-9.51208283E+01
  0
VERTEX
  8
0
 62
4
 10
-7.68216317E+01
 20
-9.49639260E+01
  0
VERTEX
  8
0
 62
4
 10
-7.66286742E+01
 20
-9.47897992E+01
  0
VERTEX
  8
0
 62
4
 10
-7.64518612E+01
 20
-9.45997732E+01
  0
VERTEX
  8
0
 62
4
 10
-7.62925384E+01
 20
-9.43952941E+01
  0
VERTEX
  8
0
 62
4
 10
-7.61519183E+01
 20
-9.41779181E+01
  0
VERTEX
  8
0
 62
4
 10
-7.60310711E+01
 20
-9.39492997E+01
  0
VERTEX
  8
0
 62
4
 10
-7.59309166E+01
 20
-9.37111788E+01
  0
VERTEX
  8
0
 62
4
 10
-7.58522170E+01
 20
-9.34653675E+01
  0
VERTEX
  8
0
 62
4
 10
-7.57955712E+01
 20
-9.32137367E+01
  0
VERTEX
  8
0
 62
4
 10
-7.57614104E+01
 20
-9.29582014E+01
  0
VERTEX
  8
0
 62
4
 10
-7.57499945E+01
 20
-9.27007065E+01
  0
SEQEND
  8
0
  0
LINE
  8
0
  6
CENTER
 62
6
 10
-8.42365603E+01
 20
-9.27007065E+01
 11
-7.32634286E+01
 21
-9.27007065E+01
  0
LINE
  8
0
  6
CENTER
 62
6
 10
-6.27499945E+01
 20
-9.20408033E+01
 11
-6.27499945E+01
 21
-1.03084907E+02
  0
LINE
  8
0
  6
CENTER
 62
6
 10
-6.82720464E+01
 20
-9.75628552E+01
 11
-5.72279427E+01
 21
-9.75628552E+01
  0
POLYLINE
  8
0
 62
4
 66
1
  0
VERTEX
  8
0
 62
4
 10
-7.47499945E+01
 20
-1.10856558E+02
  0
VERTEX
  8
0
 62
4
 10
-7.47660973E+01
 20
-1.10794295E+02
  0
VERTEX
  8
0
 62
4
 10
-7.48142761E+01
 20
-1.10732534E+02
  0
VERTEX
  8
0
 62
4
 10
-7.48941431E+01
 20
-1.10671771E+02
  0
VERTEX
  8
0
 62
4
 10
-7.50050550E+01
 20
-1.10612496E+02
  0
VERTEX
  8
0
 62
4
 10
-7.51461190E+01
 20
-1.10555186E+02
  0
VERTEX
  8
0
 62
4
 10
-7.53161993E+01
 20
-1.10500302E+02
  0
VERTEX
  8
0
 62
4
 10
-7.55139265E+01
 20
-1.10448287E+02
  0
VERTEX
  8
0
 62
4
 10
-7.57377086E+01
 20
-1.10399559E+02
  0
VERTEX
  8
0
 62
4
 10
-7.59857439E+01
 20
-1.10354510E+02
  0
VERTEX
  8
0
 62
4
 10
-7.62560353E+01
 20
-1.10313504E+02
  0
VERTEX
  8
0
 62
4
 10
-7.65464066E+01
 20
-1.10276870E+02
  0
VERTEX
  8
0
 62
4
 10
-7.68545198E+01
 20
-1.10244903E+02
  0
VERTEX
  8
0
 62
4
 10
-7.71778944E+01
 20
-1.10217861E+02
  0
VERTEX
  8
0
 62
4
 10
-7.75139265E+01
 20
-1.10195961E+02
  0
VERTEX
  8
0
 62
4
 10
-7.78599108E+01
 20
-1.10179380E+02
  0
VERTEX
  8
0
 62
4
 10
-7.82130614E+01
 20
-1.10168252E+02
  0
VERTEX
  8
0
 62
4
 10
-7.85705352E+01
 20
-1.10162665E+02
  0
VERTEX
  8
0
 62
4
 10
-7.89294538E+01
 20
-1.10162665E+02
  0
VERTEX
  8
0
 62
4
 10
-7.92869276E+01
 20
-1.10168252E+02
  0
VERTEX
  8
0
 62
4
 10
-7.96400782E+01
 20
-1.10179380E+02
  0
VERTEX
  8
0
 62
4
 10
-7.99860625E+01
 20
-1.10195961E+02
  0
VERTEX
  8
0
 62
4
 10
-8.03220946E+01
 20
-1.10217861E+02
  0
VERTEX
  8
0
 62
4
 10
-8.06454691E+01
 20
-1.10244903E+02
  0
VERTEX
  8
0
 62
4
 10
-8.09535824E+01
 20
-1.10276870E+02
  0
VERTEX
  8
0
 62
4
 10
-8.12439537E+01
 20
-1.10313504E+02
  0
VERTEX
  8
0
 62
4
 10
-8.15142451E+01
 20
-1.10354510E+02
  0
VERTEX
  8
0
 62
4
 10
-8.17622804E+01
 20
-1.10399559E+02
  0
VERTEX
  8
0
 62
4
 10
-8.19860625E+01
 20
-1.10448287E+02
  0
VERTEX
  8
0
 62
4
 10
-8.21837897E+01
 20
-1.10500302E+02
  0
VERTEX
  8
0
 62
4
 10
-8.23538700E+01
 20
-1.10555186E+02
  0
VERTEX
  8
0
 62
4
 10
-8.24949340E+01
 20
-1.10612496E+02
  0
VERTEX
  8
0
 62
4
 10
-8.26058459E+01
 20
-1.10671771E+02
  0
VERTEX
  8
0
 62
4
 10
-8.26857129E+01
 20
-1.10732534E+02
  0
VERTEX
  8
0
 62
4
 10
-8.27338917E+01
 20
-1.10794295E+02
  0
VERTEX
  8
0
 62
4
 10
-8.27499945E+01
 20
-1.10856558E+02
  0
SEQEND
  8
0
  0
POLYLINE
  8
0
 62
4
 66
1
  0
VERTEX
  8
0
 62
4
 10
-7.53499945E+01
 20
-1.11714861E+02
  0
VERTEX
  8
0
 62
4
 10
-7.51769425E+01
 20
-1.11661205E+02
  0
VERTEX
  8
0
 62
4
 10
-7.50318995E+01
 20
-1.11605102E+02
  0
VERTEX
  8
0
 62
4
 10
-7.49160027E+01
 20
-1.11546990E+02
  0
VERTEX
  8
0
 62
4
 10
-7.48301604E+01
 20
-1.11487326E+02
  0
VERTEX
  8
0
 62
4
 10
-7.47750456E+01
 20
-1.11426577E+02
  0
VERTEX
  8
0
 62
4
 10
-7.47510904E+01
 20
-1.11365220E+02
  0
VERTEX
  8
0
 62
4
 10
-7.47584826E+01
 20
-1.11303736E+02
  0
VERTEX
  8
0
 62
4
 10
-7.47971641E+01
 20
-1.11242606E+02
  0
VERTEX
  8
0
 62
4
 10
-7.48668318E+01
 20
-1.11182310E+02
  0
VERTEX
  8
0
 62
4
 10
-7.49669395E+01
 20
-1.11123320E+02
  0
VERTEX
  8
0
 62
4
 10
-7.50967026E+01
 20
-1.11066099E+02
  0
VERTEX
  8
0
 62
4
 10
-7.52551037E+01
 20
-1.11011095E+02
  0
VERTEX
  8
0
 62
4
 10
-7.54409012E+01
 20
-1.10958740E+02
  0
VERTEX
  8
0
 62
4
 10
-7.56526387E+01
 20
-1.10909444E+02
  0
VERTEX
  8
0
 62
4
 10
-7.58886563E+01
 20
-1.10863593E+02
  0
VERTEX
  8
0
 62
4
 10
-7.61471038E+01
 20
-1.10821547E+02
  0
VERTEX
  8
0
 62
4
 10
-7.64259554E+01
 20
-1.10783635E+02
  0
VERTEX
  8
0
 62
4
 10
-7.67230250E+01
 20
-1.10750155E+02
  0
VERTEX
  8
0
 62
4
 10
-7.70359841E+01
 20
-1.10721369E+02
  0
VERTEX
  8
0
 62
4
 10
-7.73623792E+01
 20
-1.10697503E+02
  0
VERTEX
  8
0
 62
4
 10
-7.76996519E+01
 20
-1.10678743E+02
  0
VERTEX
  8
0
 62
4
 10
-7.80451581E+01
 20
-1.10665238E+02
  0
VERTEX
  8
0
 62
4
 10
-7.83961896E+01
 20
-1.10657092E+02
  0
VERTEX
  8
0
 62
4
 10
-7.87499945E+01
 20
-1.10654369E+02
  0
VERTEX
  8
0
 62
4
 10
-7.91037994E+01
 20
-1.10657092E+02
  0
VERTEX
  8
0
 62
4
 10
-7.94548309E+01
 20
-1.10665238E+02
  0
VERTEX
  8
0
 62
4
 10
-7.98003371E+01
 20
-1.10678743E+02
  0
VERTEX
  8
0
 62
4
 10
-8.01376097E+01
 20
-1.10697503E+02
  0
VERTEX
  8
0
 62
4
 10
-8.04640049E+01
 20
-1.10721369E+02
  0
VERTEX
  8
0
 62
4
 10
-8.07769639E+01
 20
-1.10750155E+02
  0
VERTEX
  8
0
 62
4
 10
-8.10740336E+01
 20
-1.10783635E+02
  0
VERTEX
  8
0
 62
4
 10
-8.13528852E+01
 20
-1.10821547E+02
  0
VERTEX
  8
0
 62
4
 10
-8.16113327E+01
 20
-1.10863593E+02
  0
VERTEX
  8
0
 62
4
 10
-8.18473503E+01
 20
-1.10909444E+02
  0
VERTEX
  8
0
 62
4
 10
-8.20590877E+01
 20
-1.10958740E+02
  0
VERTEX
  8
0
 62
4
 10
-8.22448853E+01
 20
-1.11011095E+02
  0
VERTEX
  8
0
 62
4
 10
-8.24032864E+01
 20
-1.11066099E+02
  0
VERTEX
  8
0
 62
4
 10
-8.25330495E+01
 20
-1.11123320E+02
  0
VERTEX
  8
0
 62
4
 10
-8.26331572E+01
 20
-1.11182310E+02
  0
VERTEX
  8
0
 62
4
 10
-8.27028249E+01
 20
-1.11242606E+02
  0
VERTEX
  8
0
 62
4
 10
-8.27415064E+01
 20
-1.11303736E+02
  0
VERTEX
  8
0
 62
4
 10
-8.27488986E+01
 20
-1.11365220E+02
  0
VERTEX
  8
0
 62
4
 10
-8.27249434E+01
 20
-1.11426577E+02
  0
VERTEX
  8
0
 62
4
 10
-8.26698286E+01
 20
-1.11487326E+02
  0
VERTEX
  8
0
 62
4
 10
-8.25839863E+01
 20
-1.11546990E+02
  0
VERTEX
  8
0
 62
4
 10
-8.24680895E+01
 20
-1.11605102E+02
  0
VERTEX
  8
0
 62
4
 10
-8.23230465E+01
 20
-1.11661205E+02
  0
VERTEX
  8
0
 62
4
 10
-8.21499945E+01
 20
-1.11714861E+02
  0
SEQEND
  8
0
  0
POLYLINE
  8
0
 62
4
 66
1
  0
VERTEX
  8
0
 62
4
 10
-7.53499945E+01
 20
-1.11348962E+02
  0
VERTEX
  8
0
 62
4
 10
-7.53636819E+01
 20
-1.11296039E+02
  0
VERTEX
  8
0
 62
4
 10
-7.54046339E+01
 20
-1.11243541E+02
  0
VERTEX
  8
0
 62
4
 10
-7.54725208E+01
 20
-1.11191893E+02
  0
VERTEX
  8
0
 62
4
 10
-7.55667959E+01
 20
-1.11141509E+02
  0
VERTEX
  8
0
 62
4
 10
-7.56867003E+01
 20
-1.11092795E+02
  0
VERTEX
  8
0
 62
4
 10
-7.58312686E+01
 20
-1.11046144E+02
  0
VERTEX
  8
0
 62
4
 10
-7.59993367E+01
 20
-1.11001931E+02
  0
VERTEX
  8
0
 62
4
 10
-7.61895515E+01
 20
-1.10960512E+02
  0
VERTEX
  8
0
 62
4
 10
-7.64003815E+01
 20
-1.10922221E+02
  0
VERTEX
  8
0
 62
4
 10
-7.66301292E+01
 20
-1.10887366E+02
  0
VERTEX
  8
0
 62
4
 10
-7.68769448E+01
 20
-1.10856227E+02
  0
VERTEX
  8
0
 62
4
 10
-7.71388410E+01
 20
-1.10829055E+02
  0
VERTEX
  8
0
 62
4
 10
-7.74137094E+01
 20
-1.10806069E+02
  0
VERTEX
  8
0
 62
4
 10
-7.76993367E+01
 20
-1.10787455E+02
  0
VERTEX
  8
0
 62
4
 10
-7.79934233E+01
 20
-1.10773361E+02
  0
VERTEX
  8
0
 62
4
 10
-7.82936014E+01
 20
-1.10763901E+02
  0
VERTEX
  8
0
 62
4
 10
-7.85974541E+01
 20
-1.10759153E+02
  0
VERTEX
  8
0
 62
4
 10
-7.89025349E+01
 20
-1.10759153E+02
  0
VERTEX
  8
0
 62
4
 10
-7.92063876E+01
 20
-1.10763901E+02
  0
VERTEX
  8
0
 62
4
 10
-7.95065657E+01
 20
-1.10773361E+02
  0
VERTEX
  8
0
 62
4
 10
-7.98006523E+01
 20
-1.10787455E+02
  0
VERTEX
  8
0
 62
4
 10
-8.00862796E+01
 20
-1.10806069E+02
  0
VERTEX
  8
0
 62
4
 10
-8.03611479E+01
 20
-1.10829055E+02
  0
VERTEX
  8
0
 62
4
 10
-8.06230442E+01
 20
-1.10856227E+02
  0
VERTEX
  8
0
 62
4
 10
-8.08698598E+01
 20
-1.10887366E+02
  0
VERTEX
  8
0
 62
4
 10
-8.10996075E+01
 20
-1.10922221E+02
  0
VERTEX
  8
0
 62
4
 10
-8.13104375E+01
 20
-1.10960512E+02
  0
VERTEX
  8
0
 62
4
 10
-8.15006523E+01
 20
-1.11001931E+02
  0
VERTEX
  8
0
 62
4
 10
-8.16687204E+01
 20
-1.11046144E+02
  0
VERTEX
  8
0
 62
4
 10
-8.18132886E+01
 20
-1.11092795E+02
  0
VERTEX
  8
0
 62
4
 10
-8.19331931E+01
 20
-1.11141509E+02
  0
VERTEX
  8
0
 62
4
 10
-8.20274682E+01
 20
-1.11191893E+02
  0
VERTEX
  8
0
 62
4
 10
-8.20953551E+01
 20
-1.11243541E+02
  0
VERTEX
  8
0
 62
4
 10
-8.21363071E+01
 20
-1.11296039E+02
  0
VERTEX
  8
0
 62
4
 10
-8.21499945E+01
 20
-1.11348962E+02
  0
SEQEND
  8
0
  0
LINE
  8
0
 62
4
 10
-7.53499945E+01
 20
-1.12158919E+02
 11
-5.32499945E+01
 21
-1.12158919E+02
  0
LINE
  8
0
 62
4
 10
2.27899976E+02
 20
-1.96832042E+02
 11
2.28252657E+02
 21
-1.97777567E+02
  0
LINE
  8
0
 62
4
 10
2.21619976E+02
 20
-1.96832042E+02
 11
2.21267294E+02
 21
-1.97777567E+02
  0
POLYLINE
  8
0
 62
4
 66
1
  0
VERTEX
  8
0
 62
4
 10
2.21267295E+02
 20
-1.97777567E+02
  0
VERTEX
  8
0
 62
4
 10
2.21260961E+02
 20
-1.97831267E+02
  0
VERTEX
  8
0
 62
4
 10
2.21281955E+02
 20
-1.97884855E+02
  0
VERTEX
  8
0
 62
4
 10
2.21330113E+02
 20
-1.97937912E+02
  0
VERTEX
  8
0
 62
4
 10
2.21405060E+02
 20
-1.97990023E+02
  0
VERTEX
  8
0
 62
4
 10
2.21506208E+02
 20
-1.98040782E+02
  0
VERTEX
  8
0
 62
4
 10
2.21632770E+02
 20
-1.98089792E+02
  0
VERTEX
  8
0
 62
4
 10
2.21783755E+02
 20
-1.98136670E+02
  0
VERTEX
  8
0
 62
4
 10
2.21957986E+02
 20
-1.98181050E+02
  0
VERTEX
  8
0
 62
4
 10
2.22154100E+02
 20
-1.98222586E+02
  0
VERTEX
  8
0
 62
4
 10
2.22370567E+02
 20
-1.98260952E+02
  0
VERTEX
  8
0
 62
4
 10
2.22605696E+02
 20
-1.98295851E+02
  0
VERTEX
  8
0
 62
4
 10
2.22857650E+02
 20
-1.98327008E+02
  0
VERTEX
  8
0
 62
4
 10
2.23124462E+02
 20
-1.98354181E+02
  0
VERTEX
  8
0
 62
4
 10
2.23404047E+02
 20
-1.98377157E+02
  0
VERTEX
  8
0
 62
4
 10
2.23694222E+02
 20
-1.98395757E+02
  0
VERTEX
  8
0
 62
4
 10
2.23992722E+02
 20
-1.98409836E+02
  0
VERTEX
  8
0
 62
4
 10
2.24297213E+02
 20
-1.98419283E+02
  0
VERTEX
  8
0
 62
4
 10
2.24605319E+02
 20
-1.98424025E+02
  0
VERTEX
  8
0
 62
4
 10
2.24914633E+02
 20
-1.98424025E+02
  0
VERTEX
  8
0
 62
4
 10
2.25222739E+02
 20
-1.98419283E+02
  0
VERTEX
  8
0
 62
4
 10
2.25527230E+02
 20
-1.98409836E+02
  0
VERTEX
  8
0
 62
4
 10
2.25825730E+02
 20
-1.98395757E+02
  0
VERTEX
  8
0
 62
4
 10
2.26115905E+02
 20
-1.98377157E+02
  0
VERTEX
  8
0
 62
4
 10
2.26395490E+02
 20
-1.98354181E+02
  0
VERTEX
  8
0
 62
4
 10
2.26662302E+02
 20
-1.98327008E+02
  0
VERTEX
  8
0
 62
4
 10
2.26914256E+02
 20
-1.98295851E+02
  0
VERTEX
  8
0
 62
4
 10
2.27149385E+02
 20
-1.98260952E+02
  0
VERTEX
  8
0
 62
4
 10
2.27365852E+02
 20
-1.98222586E+02
  0
VERTEX
  8
0
 62
4
 10
2.27561966E+02
 20
-1.98181050E+02
  0
VERTEX
  8
0
 62
4
 10
2.27736197E+02
 20
-1.98136670E+02
  0
VERTEX
  8
0
 62
4
 10
2.27887182E+02
 20
-1.98089792E+02
  0
VERTEX
  8
0
 62
4
 10
2.28013744E+02
 20
-1.98040782E+02
  0
VERTEX
  8
0
 62
4
 10
2.28114892E+02
 20
-1.97990023E+02
  0
VERTEX
  8
0
 62
4
 10
2.28189839E+02
 20
-1.97937912E+02
  0
VERTEX
  8
0
 62
4
 10
2.28237997E+02
 20
-1.97884855E+02
  0
VERTEX
  8
0
 62
4
 10
2.28258991E+02
 20
-1.97831267E+02
  0
VERTEX
  8
0
 62
4
 10
2.28252657E+02
 20
-1.97777567E+02
  0
SEQEND
  8
0
  0
POLYLINE
  8
0
 62
4
 66
1
  0
VERTEX
  8
0
 62
4
 10
2.27899976E+02
 20
-1.96832042E+02
  0
VERTEX
  8
0
 62
4
 10
2.27888027E+02
 20
-1.96784520E+02
  0
VERTEX
  8
0
 62
4
 10
2.27852272E+02
 20
-1.96737359E+02
  0
VERTEX
  8
0
 62
4
 10
2.27792983E+02
 20
-1.96690920E+02
  0
VERTEX
  8
0
 62
4
 10
2.27710611E+02
 20
-1.96645554E+02
  0
VERTEX
  8
0
 62
4
 10
2.27605782E+02
 20
-1.96601607E+02
  0
VERTEX
  8
0
 62
4
 10
2.27479296E+02
 20
-1.96559414E+02
  0
VERTEX
  8
0
 62
4
 10
2.27332113E+02
 20
-1.96519296E+02
  0
VERTEX
  8
0
 62
4
 10
2.27165356E+02
 20
-1.96481559E+02
  0
VERTEX
  8
0
 62
4
 10
2.26980291E+02
 20
-1.96446488E+02
  0
VERTEX
  8
0
 62
4
 10
2.26778329E+02
 20
-1.96414352E+02
  0
VERTEX
  8
0
 62
4
 10
2.26561006E+02
 20
-1.96385395E+02
  0
VERTEX
  8
0
 62
4
 10
2.26329976E+02
 20
-1.96359837E+02
  0
VERTEX
  8
0
 62
4
 10
2.26086997E+02
 20
-1.96337873E+02
  0
VERTEX
  8
0
 62
4
 10
2.25833919E+02
 20
-1.96319670E+02
  0
VERTEX
  8
0
 62
4
 10
2.25572668E+02
 20
-1.96305366E+02
  0
VERTEX
  8
0
 62
4
 10
2.25305231E+02
 20
-1.96295070E+02
  0
VERTEX
  8
0
 62
4
 10
2.25033645E+02
 20
-1.96288862E+02
  0
VERTEX
  8
0
 62
4
 10
2.24759976E+02
 20
-1.96286787E+02
  0
VERTEX
  8
0
 62
4
 10
2.24486307E+02
 20
-1.96288862E+02
  0
VERTEX
  8
0
 62
4
 10
2.24214721E+02
 20
-1.96295070E+02
  0
VERTEX
  8
0
 62
4
 10
2.23947284E+02
 20
-1.96305366E+02
  0
VERTEX
  8
0
 62
4
 10
2.23686033E+02
 20
-1.96319670E+02
  0
VERTEX
  8
0
 62
4
 10
2.23432955E+02
 20
-1.96337873E+02
  0
VERTEX
  8
0
 62
4
 10
2.23189976E+02
 20
-1.96359837E+02
  0
VERTEX
  8
0
 62
4
 10
2.22958946E+02
 20
-1.96385395E+02
  0
VERTEX
  8
0
 62
4
 10
2.22741623E+02
 20
-1.96414352E+02
  0
VERTEX
  8
0
 62
4
 10
2.22539661E+02
 20
-1.96446488E+02
  0
VERTEX
  8
0
 62
4
 10
2.22354596E+02
 20
-1.96481559E+02
  0
VERTEX
  8
0
 62
4
 10
2.22187839E+02
 20
-1.96519296E+02
  0
VERTEX
  8
0
 62
4
 10
2.22040656E+02
 20
-1.96559414E+02
  0
VERTEX
  8
0
 62
4
 10
2.21914170E+02
 20
-1.96601607E+02
  0
VERTEX
  8
0
 62
4
 10
2.21809341E+02
 20
-1.96645554E+02
  0
VERTEX
  8
0
 62
4
 10
2.21726969E+02
 20
-1.96690920E+02
  0
VERTEX
  8
0
 62
4
 10
2.21667680E+02
 20
-1.96737359E+02
  0
VERTEX
  8
0
 62
4
 10
2.21631925E+02
 20
-1.96784520E+02
  0
VERTEX
  8
0
 62
4
 10
2.21619976E+02
 20
-1.96832042E+02
  0
VERTEX
  8
0
 62
4
 10
2.21631925E+02
 20
-1.96879564E+02
  0
VERTEX
  8
0
 62
4
 10
2.21667680E+02
 20
-1.96926725E+02
  0
VERTEX
  8
0
 62
4
 10
2.21726969E+02
 20
-1.96973164E+02
  0
VERTEX
  8
0
 62
4
 10
2.21809341E+02
 20
-1.97018530E+02
  0
VERTEX
  8
0
 62
4
 10
2.21914170E+02
 20
-1.97062477E+02
  0
VERTEX
  8
0
 62
4
 10
2.22040656E+02
 20
-1.97104670E+02
  0
VERTEX
  8
0
 62
4
 10
2.22187839E+02
 20
-1.97144788E+02
  0
VERTEX
  8
0
 62
4
 10
2.22354596E+02
 20
-1.97182525E+02
  0
VERTEX
  8
0
 62
4
 10
2.22539661E+02
 20
-1.97217596E+02
  0
VERTEX
  8
0
 62
4
 10
2.22741623E+02
 20
-1.97249732E+02
  0
VERTEX
  8
0
 62
4
 10
2.22958946E+02
 20
-1.97278689E+02
  0
VERTEX
  8
0
 62
4
 10
2.23189976E+02
 20
-1.97304247E+02
  0
VERTEX
  8
0
 62
4
 10
2.23432955E+02
 20
-1.97326211E+02
  0
VERTEX
  8
0
 62
4
 10
2.23686033E+02
 20
-1.97344414E+02
  0
VERTEX
  8
0
 62
4
 10
2.23947284E+02
 20
-1.97358718E+02
  0
VERTEX
  8
0
 62
4
 10
2.24214721E+02
 20
-1.97369014E+02
  0
VERTEX
  8
0
 62
4
 10
2.24486307E+02
 20
-1.97375222E+02
  0
VERTEX
  8
0
 62
4
 10
2.24759976E+02
 20
-1.97377297E+02
  0
VERTEX
  8
0
 62
4
 10
2.25033645E+02
 20
-1.97375222E+02
  0
VERTEX
  8
0
 62
4
 10
2.25305231E+02
 20
-1.97369014E+02
  0
VERTEX
  8
0
 62
4
 10
2.25572668E+02
 20
-1.97358718E+02
  0
VERTEX
  8
0
 62
4
 10
2.25833919E+02
 20
-1.97344414E+02
  0
VERTEX
  8
0
 62
4
 10
2.26086997E+02
 20
-1.97326211E+02
  0
VERTEX
  8
0
 62
4
 10
2.26329976E+02
 20
-1.97304247E+02
  0
VERTEX
  8
0
 62
4
 10
2.26561006E+02
 20
-1.97278689E+02
  0
VERTEX
  8
0
 62
4
 10
2.26778329E+02
 20
-1.97249732E+02
  0
VERTEX
  8
0
 62
4
 10
2.26980291E+02
 20
-1.97217596E+02
  0
VERTEX
  8
0
 62
4
 10
2.27165356E+02
 20
-1.97182525E+02
  0
VERTEX
  8
0
 62
4
 10
2.27332113E+02
 20
-1.97144788E+02
  0
VERTEX
  8
0
 62
4
 10
2.27479296E+02
 20
-1.97104670E+02
  0
VERTEX
  8
0
 62
4
 10
2.27605782E+02
 20
-1.97062477E+02
  0
VERTEX
  8
0
 62
4
 10
2.27710611E+02
 20
-1.97018530E+02
  0
VERTEX
  8
0
 62
4
 10
2.27792983E+02
 20
-1.96973164E+02
  0
VERTEX
  8
0
 62
4
 10
2.27852272E+02
 20
-1.96926725E+02
  0
VERTEX
  8
0
 62
4
 10
2.27888027E+02
 20
-1.96879564E+02
  0
VERTEX
  8
0
 62
4
 10
2.27899976E+02
 20
-1.96832042E+02
  0
SEQEND
  8
0
  0
LINE
  8
0
  6
CENTER
 62
6
 10
2.24759976E+02
 20
-1.94677911E+02
 11
2.24759976E+02
 21
-1.96832042E+02
  0
LINE
  8
0
 62
4
 10
2.67759976E+02
 20
-1.67780214E+02
 11
2.62759976E+02
 21
-1.67780214E+02
  0
LINE
  8
0
 62
4
 10
2.51259976E+02
 20
-1.98914027E+02
 11
2.51259976E+02
 21
-1.96809929E+02
  0
LINE
  8
0
 62
4
 10
2.15259976E+02
 20
-1.98914027E+02
 11
2.15259976E+02
 21
-1.96809929E+02
  0
LINE
  8
0
 62
4
 10
2.31259976E+02
 20
-1.96129056E+02
 11
2.15259976E+02
 21
-1.96129056E+02
  0
ARC
  8
0
 62
4
 10
2.51260475E+02
 20
-1.97628556E+02
 40
1.49950029E+00
 50
3.59980903E+02
 51
9.00190969E+01
  0
LINE
  8
0
 62
4
 10
2.51259976E+02
 20
-1.96129056E+02
 11
2.50259976E+02
 21
-1.96129056E+02
  0
ARC
  8
0
 62
4
 10
2.15259476E+02
 20
-1.97628556E+02
 40
1.49950029E+00
 50
8.99809029E+01
 51
1.80019097E+02
  0
POLYLINE
  8
0
 62
4
 66
1
  0
VERTEX
  8
0
 62
4
 10
2.46759976E+02
 20
-2.25236093E+02
  0
VERTEX
  8
0
 62
4
 10
2.46752116E+02
 20
-2.25062077E+02
  0
VERTEX
  8
0
 62
4
 10
2.46728596E+02
 20
-2.24889429E+02
  0
VERTEX
  8
0
 62
4
 10
2.46689603E+02
 20
-2.24719506E+02
  0
VERTEX
  8
0
 62
4
 10
2.46635442E+02
 20
-2.24553643E+02
  0
VERTEX
  8
0
 62
4
 10
2.46566539E+02
 20
-2.24393145E+02
  0
VERTEX
  8
0
 62
4
 10
2.46483436E+02
 20
-2.24239273E+02
  0
VERTEX
  8
0
 62
4
 10
2.46386786E+02
 20
-2.24093236E+02
  0
VERTEX
  8
0
 62
4
 10
2.46277348E+02
 20
-2.23956182E+02
  0
VERTEX
  8
0
 62
4
 10
2.46155984E+02
 20
-2.23829189E+02
  0
VERTEX
  8
0
 62
4
 10
2.46023646E+02
 20
-2.23713255E+02
  0
VERTEX
  8
0
 62
4
 10
2.45881375E+02
 20
-2.23609291E+02
  0
VERTEX
  8
0
 62
4
 10
2.45730290E+02
 20
-2.23518114E+02
  0
VERTEX
  8
0
 62
4
 10
2.45571578E+02
 20
-2.23440441E+02
  0
VERTEX
  8
0
 62
4
 10
2.45406486E+02
 20
-2.23376882E+02
  0
VERTEX
  8
0
 62
4
 10
2.45236312E+02
 20
-2.23327938E+02
  0
VERTEX
  8
0
 62
4
 10
2.45062394E+02
 20
-2.23293992E+02
  0
VERTEX
  8
0
 62
4
 10
2.44886099E+02
 20
-2.23275312E+02
  0
VERTEX
  8
0
 62
4
 10
2.44708813E+02
 20
-2.23272044E+02
  0
VERTEX
  8
0
 62
4
 10
2.44531929E+02
 20
-2.23284215E+02
  0
VERTEX
  8
0
 62
4
 10
2.44356837E+02
 20
-2.23311728E+02
  0
VERTEX
  8
0
 62
4
 10
2.44184915E+02
 20
-2.23354368E+02
  0
VERTEX
  8
0
 62
4
 10
2.44017512E+02
 20
-2.23411798E+02
  0
VERTEX
  8
0
 62
4
 10
2.43855946E+02
 20
-2.23483568E+02
  0
VERTEX
  8
0
 62
4
 10
2.43701485E+02
 20
-2.23569114E+02
  0
VERTEX
  8
0
 62
4
 10
2.43555345E+02
 20
-2.23667762E+02
  0
VERTEX
  8
0
 62
4
 10
2.43418673E+02
 20
-2.23778739E+02
  0
VERTEX
  8
0
 62
4
 10
2.43292545E+02
 20
-2.23901170E+02
  0
VERTEX
  8
0
 62
4
 10
2.43177951E+02
 20
-2.24034095E+02
  0
VERTEX
  8
0
 62
4
 10
2.43075792E+02
 20
-2.24176468E+02
  0
VERTEX
  8
0
 62
4
 10
2.42986872E+02
 20
-2.24327170E+02
  0
VERTEX
  8
0
 62
4
 10
2.42911889E+02
 20
-2.24485016E+02
  0
VERTEX
  8
0
 62
4
 10
2.42851433E+02
 20
-2.24648766E+02
  0
VERTEX
  8
0
 62
4
 10
2.42805978E+02
 20
-2.24817133E+02
  0
VERTEX
  8
0
 62
4
 10
2.42775883E+02
 20
-2.24988792E+02
  0
VERTEX
  8
0
 62
4
 10
2.42761384E+02
 20
-2.25162396E+02
  0
VERTEX
  8
0
 62
4
 10
2.42762594E+02
 20
-2.25336579E+02
  0
SEQEND
  8
0
  0
POLYLINE
  8
0
 62
4
 66
1
  0
VERTEX
  8
0
 62
4
 10
2.46494976E+02
 20
-2.25610714E+02
  0
VERTEX
  8
0
 62
4
 10
2.46488374E+02
 20
-2.25461796E+02
  0
VERTEX
  8
0
 62
4
 10
2.46468617E+02
 20
-2.25314012E+02
  0
VERTEX
  8
0
 62
4
 10
2.46435857E+02
 20
-2.25168485E+02
  0
VERTEX
  8
0
 62
4
 10
2.46390343E+02
 20
-2.25026324E+02
  0
VERTEX
  8
0
 62
4
 10
2.46332420E+02
 20
-2.24888611E+02
  0
VERTEX
  8
0
 62
4
 10
2.46262530E+02
 20
-2.24756393E+02
  0
VERTEX
  8
0
 62
4
 10
2.46181205E+02
 20
-2.24630678E+02
  0
VERTEX
  8
0
 62
4
 10
2.46089063E+02
 20
-2.24512420E+02
  0
VERTEX
  8
0
 62
4
 10
2.45986806E+02
 20
-2.24402522E+02
  0
VERTEX
  8
0
 62
4
 10
2.45875213E+02
 20
-2.24301819E+02
  0
VERTEX
  8
0
 62
4
 10
2.45755131E+02
 20
-2.24211077E+02
  0
VERTEX
  8
0
 62
4
 10
2.45627476E+02
 20
-2.24130987E+02
  0
VERTEX
  8
0
 62
4
 10
2.45493219E+02
 20
-2.24062159E+02
  0
VERTEX
  8
0
 62
4
 10
2.45353381E+02
 20
-2.24005116E+02
  0
VERTEX
  8
0
 62
4
 10
2.45209027E+02
 20
-2.23960293E+02
  0
VERTEX
  8
0
 62
4
 10
2.45061256E+02
 20
-2.23928031E+02
  0
VERTEX
  8
0
 62
4
 10
2.44911191E+02
 20
-2.23908574E+02
  0
VERTEX
  8
0
 62
4
 10
2.44759976E+02
 20
-2.23902073E+02
  0
VERTEX
  8
0
 62
4
 10
2.44608761E+02
 20
-2.23908574E+02
  0
VERTEX
  8
0
 62
4
 10
2.44458696E+02
 20
-2.23928031E+02
  0
VERTEX
  8
0
 62
4
 10
2.44310925E+02
 20
-2.23960293E+02
  0
VERTEX
  8
0
 62
4
 10
2.44166571E+02
 20
-2.24005116E+02
  0
VERTEX
  8
0
 62
4
 10
2.44026733E+02
 20
-2.24062159E+02
  0
VERTEX
  8
0
 62
4
 10
2.43892476E+02
 20
-2.24130987E+02
  0
VERTEX
  8
0
 62
4
 10
2.43764821E+02
 20
-2.24211077E+02
  0
VERTEX
  8
0
 62
4
 10
2.43644739E+02
 20
-2.24301819E+02
  0
VERTEX
  8
0
 62
4
 10
2.43533146E+02
 20
-2.24402522E+02
  0
VERTEX
  8
0
 62
4
 10
2.43430889E+02
 20
-2.24512420E+02
  0
VERTEX
  8
0
 62
4
 10
2.43338747E+02
 20
-2.24630678E+02
  0
VERTEX
  8
0
 62
4
 10
2.43257422E+02
 20
-2.24756393E+02
  0
VERTEX
  8
0
 62
4
 10
2.43187532E+02
 20
-2.24888611E+02
  0
VERTEX
  8
0
 62
4
 10
2.43129609E+02
 20
-2.25026324E+02
  0
VERTEX
  8
0
 62
4
 10
2.43084095E+02
 20
-2.25168485E+02
  0
VERTEX
  8
0
 62
4
 10
2.43051335E+02
 20
-2.25314012E+02
  0
VERTEX
  8
0
 62
4
 10
2.43031578E+02
 20
-2.25461796E+02
  0
VERTEX
  8
0
 62
4
 10
2.43024976E+02
 20
-2.25610714E+02
  0
VERTEX
  8
0
 62
4
 10
2.43031578E+02
 20
-2.25759632E+02
  0
VERTEX
  8
0
 62
4
 10
2.43051335E+02
 20
-2.25907416E+02
  0
VERTEX
  8
0
 62
4
 10
2.43084095E+02
 20
-2.26052943E+02
  0
VERTEX
  8
0
 62
4
 10
2.43129609E+02
 20
-2.26195104E+02
  0
VERTEX
  8
0
 62
4
 10
2.43187532E+02
 20
-2.26332817E+02
  0
VERTEX
  8
0
 62
4
 10
2.43257422E+02
 20
-2.26465035E+02
  0
VERTEX
  8
0
 62
4
 10
2.43338747E+02
 20
-2.26590750E+02
  0
VERTEX
  8
0
 62
4
 10
2.43430889E+02
 20
-2.26709008E+02
  0
VERTEX
  8
0
 62
4
 10
2.43533146E+02
 20
-2.26818906E+02
  0
VERTEX
  8
0
 62
4
 10
2.43644739E+02
 20
-2.26919609E+02
  0
VERTEX
  8
0
 62
4
 10
2.43764821E+02
 20
-2.27010351E+02
  0
VERTEX
  8
0
 62
4
 10
2.43892476E+02
 20
-2.27090441E+02
  0
VERTEX
  8
0
 62
4
 10
2.44026733E+02
 20
-2.27159269E+02
  0
VERTEX
  8
0
 62
4
 10
2.44166571E+02
 20
-2.27216312E+02
  0
VERTEX
  8
0
 62
4
 10
2.44310925E+02
 20
-2.27261135E+02
  0
VERTEX
  8
0
 62
4
 10
2.44458696E+02
 20
-2.27293397E+02
  0
VERTEX
  8
0
 62
4
 10
2.44608761E+02
 20
-2.27312854E+02
  0
VERTEX
  8
0
 62
4
 10
2.44759976E+02
 20
-2.27319355E+02
  0
VERTEX
  8
0
 62
4
 10
2.44911191E+02
 20
-2.27312854E+02
  0
VERTEX
  8
0
 62
4
 10
2.45061256E+02
 20
-2.27293397E+02
  0
VERTEX
  8
0
 62
4
 10
2.45209027E+02
 20
-2.27261135E+02
  0
VERTEX
  8
0
 62
4
 10
2.45353381E+02
 20
-2.27216312E+02
  0
VERTEX
  8
0
 62
4
 10
2.45493219E+02
 20
-2.27159269E+02
  0
VERTEX
  8
0
 62
4
 10
2.45627476E+02
 20
-2.27090441E+02
  0
VERTEX
  8
0
 62
4
 10
2.45755131E+02
 20
-2.27010351E+02
  0
VERTEX
  8
0
 62
4
 10
2.45875213E+02
 20
-2.26919609E+02
  0
VERTEX
  8
0
 62
4
 10
2.45986806E+02
 20
-2.26818906E+02
  0
VERTEX
  8
0
 62
4
 10
2.46089063E+02
 20
-2.26709008E+02
  0
VERTEX
  8
0
 62
4
 10
2.46181205E+02
 20
-2.26590750E+02
  0
VERTEX
  8
0
 62
4
 10
2.46262530E+02
 20
-2.26465035E+02
  0
VERTEX
  8
0
 62
4
 10
2.46332420E+02
 20
-2.26332817E+02
  0
VERTEX
  8
0
 62
4
 10
2.46390343E+02
 20
-2.26195104E+02
  0
VERTEX
  8
0
 62
4
 10
2.46435857E+02
 20
-2.26052943E+02
  0
VERTEX
  8
0
 62
4
 10
2.46468617E+02
 20
-2.25907416E+02
  0
VERTEX
  8
0
 62
4
 10
2.46488374E+02
 20
-2.25759632E+02
  0
VERTEX
  8
0
 62
4
 10
2.46494976E+02
 20
-2.25610714E+02
  0
SEQEND
  8
0
  0
POLYLINE
  8
0
 62
4
 66
1
  0
VERTEX
  8
0
 62
4
 10
2.46759976E+02
 20
-2.25437065E+02
  0
VERTEX
  8
0
 62
4
 10
2.46752365E+02
 20
-2.25265831E+02
  0
VERTEX
  8
0
 62
4
 10
2.46729592E+02
 20
-2.25095900E+02
  0
VERTEX
  8
0
 62
4
 10
2.46691828E+02
 20
-2.24928565E+02
  0
VERTEX
  8
0
 62
4
 10
2.46639361E+02
 20
-2.24765101E+02
  0
VERTEX
  8
0
 62
4
 10
2.46572592E+02
 20
-2.24606751E+02
  0
VERTEX
  8
0
 62
4
 10
2.46492027E+02
 20
-2.24454719E+02
  0
VERTEX
  8
0
 62
4
 10
2.46398280E+02
 20
-2.24310164E+02
  0
VERTEX
  8
0
 62
4
 10
2.46292065E+02
 20
-2.24174186E+02
  0
VERTEX
  8
0
 62
4
 10
2.46174190E+02
 20
-2.24047818E+02
  0
VERTEX
  8
0
 62
4
 10
2.46045551E+02
 20
-2.23932024E+02
  0
VERTEX
  8
0
 62
4
 10
2.45907129E+02
 20
-2.23827684E+02
  0
VERTEX
  8
0
 62
4
 10
2.45759976E+02
 20
-2.23735592E+02
  0
VERTEX
  8
0
 62
4
 10
2.45605213E+02
 20
-2.23656450E+02
  0
VERTEX
  8
0
 62
4
 10
2.45444016E+02
 20
-2.23590859E+02
  0
VERTEX
  8
0
 62
4
 10
2.45277614E+02
 20
-2.23539319E+02
  0
VERTEX
  8
0
 62
4
 10
2.45107272E+02
 20
-2.23502222E+02
  0
VERTEX
  8
0
 62
4
 10
2.44934287E+02
 20
-2.23479850E+02
  0
VERTEX
  8
0
 62
4
 10
2.44759976E+02
 20
-2.23472374E+02
  0
VERTEX
  8
0
 62
4
 10
2.44585665E+02
 20
-2.23479850E+02
  0
VERTEX
  8
0
 62
4
 10
2.44412680E+02
 20
-2.23502222E+02
  0
VERTEX
  8
0
 62
4
 10
2.44242338E+02
 20
-2.23539319E+02
  0
VERTEX
  8
0
 62
4
 10
2.44075936E+02
 20
-2.23590859E+02
  0
VERTEX
  8
0
 62
4
 10
2.43914739E+02
 20
-2.23656450E+02
  0
VERTEX
  8
0
 62
4
 10
2.43759976E+02
 20
-2.23735592E+02
  0
VERTEX
  8
0
 62
4
 10
2.43612823E+02
 20
-2.23827684E+02
  0
VERTEX
  8
0
 62
4
 10
2.43474401E+02
 20
-2.23932024E+02
  0
VERTEX
  8
0
 62
4
 10
2.43345762E+02
 20
-2.24047818E+02
  0
VERTEX
  8
0
 62
4
 10
2.43227887E+02
 20
-2.24174186E+02
  0
VERTEX
  8
0
 62
4
 10
2.43121672E+02
 20
-2.24310164E+02
  0
VERTEX
  8
0
 62
4
 10
2.43027925E+02
 20
-2.24454719E+02
  0
VERTEX
  8
0
 62
4
 10
2.42947360E+02
 20
-2.24606751E+02
  0
VERTEX
  8
0
 62
4
 10
2.42880591E+02
 20
-2.24765101E+02
  0
VERTEX
  8
0
 62
4
 10
2.42828124E+02
 20
-2.24928565E+02
  0
VERTEX
  8
0
 62
4
 10
2.42790360E+02
 20
-2.25095900E+02
  0
VERTEX
  8
0
 62
4
 10
2.42767587E+02
 20
-2.25265831E+02
  0
VERTEX
  8
0
 62
4
 10
2.42759976E+02
 20
-2.25437065E+02
  0
VERTEX
  8
0
 62
4
 10
2.42767587E+02
 20
-2.25608299E+02
  0
VERTEX
  8
0
 62
4
 10
2.42790360E+02
 20
-2.25778230E+02
  0
VERTEX
  8
0
 62
4
 10
2.42828124E+02
 20
-2.25945565E+02
  0
VERTEX
  8
0
 62
4
 10
2.42880591E+02
 20
-2.26109029E+02
  0
VERTEX
  8
0
 62
4
 10
2.42947360E+02
 20
-2.26267379E+02
  0
VERTEX
  8
0
 62
4
 10
2.43027925E+02
 20
-2.26419411E+02
  0
VERTEX
  8
0
 62
4
 10
2.43121672E+02
 20
-2.26563966E+02
  0
VERTEX
  8
0
 62
4
 10
2.43227887E+02
 20
-2.26699944E+02
  0
VERTEX
  8
0
 62
4
 10
2.43345762E+02
 20
-2.26826312E+02
  0
VERTEX
  8
0
 62
4
 10
2.43474401E+02
 20
-2.26942106E+02
  0
VERTEX
  8
0
 62
4
 10
2.43612823E+02
 20
-2.27046446E+02
  0
VERTEX
  8
0
 62
4
 10
2.43759976E+02
 20
-2.27138538E+02
  0
VERTEX
  8
0
 62
4
 10
2.43914739E+02
 20
-2.27217680E+02
  0
VERTEX
  8
0
 62
4
 10
2.44075936E+02
 20
-2.27283271E+02
  0
VERTEX
  8
0
 62
4
 10
2.44242338E+02
 20
-2.27334811E+02
  0
VERTEX
  8
0
 62
4
 10
2.44412680E+02
 20
-2.27371908E+02
  0
VERTEX
  8
0
 62
4
 10
2.44585665E+02
 20
-2.27394280E+02
  0
VERTEX
  8
0
 62
4
 10
2.44759976E+02
 20
-2.27401756E+02
  0
VERTEX
  8
0
 62
4
 10
2.44934287E+02
 20
-2.27394280E+02
  0
VERTEX
  8
0
 62
4
 10
2.45107272E+02
 20
-2.27371908E+02
  0
VERTEX
  8
0
 62
4
 10
2.45277614E+02
 20
-2.27334811E+02
  0
VERTEX
  8
0
 62
4
 10
2.45444016E+02
 20
-2.27283271E+02
  0
VERTEX
  8
0
 62
4
 10
2.45605213E+02
 20
-2.27217680E+02
  0
VERTEX
  8
0
 62
4
 10
2.45759976E+02
 20
-2.27138538E+02
  0
VERTEX
  8
0
 62
4
 10
2.45907129E+02
 20
-2.27046446E+02
  0
VERTEX
  8
0
 62
4
 10
2.46045551E+02
 20
-2.26942106E+02
  0
VERTEX
  8
0
 62
4
 10
2.46174190E+02
 20
-2.26826312E+02
  0
VERTEX
  8
0
 62
4
 10
2.46292065E+02
 20
-2.26699944E+02
  0
VERTEX
  8
0
 62
4
 10
2.46398280E+02
 20
-2.26563966E+02
  0
VERTEX
  8
0
 62
4
 10
2.46492027E+02
 20
-2.26419411E+02
  0
VERTEX
  8
0
 62
4
 10
2.46572592E+02
 20
-2.26267379E+02
  0
VERTEX
  8
0
 62
4
 10
2.46639361E+02
 20
-2.26109029E+02
  0
VERTEX
  8
0
 62
4
 10
2.46691828E+02
 20
-2.25945565E+02
  0
VERTEX
  8
0
 62
4
 10
2.46729592E+02
 20
-2.25778230E+02
  0
VERTEX
  8
0
 62
4
 10
2.46752365E+02
 20
-2.25608299E+02
  0
VERTEX
  8
0
 62
4
 10
2.46759976E+02
 20
-2.25437065E+02
  0
SEQEND
  8
0
  0
POLYLINE
  8
0
 62
6
 66
1
  0
VERTEX
  8
0
 62
6
 10
2.46259976E+02
 20
-2.25605789E+02
  0
VERTEX
  8
0
 62
6
 10
2.46254268E+02
 20
-2.25477042E+02
  0
VERTEX
  8
0
 62
6
 10
2.46237188E+02
 20
-2.25349274E+02
  0
VERTEX
  8
0
 62
6
 10
2.46208865E+02
 20
-2.25223458E+02
  0
VERTEX
  8
0
 62
6
 10
2.46169515E+02
 20
-2.25100553E+02
  0
VERTEX
  8
0
 62
6
 10
2.46119438E+02
 20
-2.24981492E+02
  0
VERTEX
  8
0
 62
6
 10
2.46059014E+02
 20
-2.24867183E+02
  0
VERTEX
  8
0
 62
6
 10
2.45988704E+02
 20
-2.24758495E+02
  0
VERTEX
  8
0
 62
6
 10
2.45909043E+02
 20
-2.24656256E+02
  0
VERTEX
  8
0
 62
6
 10
2.45820636E+02
 20
-2.24561243E+02
  0
VERTEX
  8
0
 62
6
 10
2.45724157E+02
 20
-2.24474179E+02
  0
VERTEX
  8
0
 62
6
 10
2.45620341E+02
 20
-2.24395728E+02
  0
VERTEX
  8
0
 62
6
 10
2.45509976E+02
 20
-2.24326486E+02
  0
VERTEX
  8
0
 62
6
 10
2.45393903E+02
 20
-2.24266981E+02
  0
VERTEX
  8
0
 62
6
 10
2.45273006E+02
 20
-2.24217664E+02
  0
VERTEX
  8
0
 62
6
 10
2.45148205E+02
 20
-2.24178912E+02
  0
VERTEX
  8
0
 62
6
 10
2.45020448E+02
 20
-2.24151020E+02
  0
VERTEX
  8
0
 62
6
 10
2.44890710E+02
 20
-2.24134199E+02
  0
VERTEX
  8
0
 62
6
 10
2.44759976E+02
 20
-2.24128577E+02
  0
VERTEX
  8
0
 62
6
 10
2.44629242E+02
 20
-2.24134199E+02
  0
VERTEX
  8
0
 62
6
 10
2.44499504E+02
 20
-2.24151020E+02
  0
VERTEX
  8
0
 62
6
 10
2.44371747E+02
 20
-2.24178912E+02
  0
VERTEX
  8
0
 62
6
 10
2.44246946E+02
 20
-2.24217664E+02
  0
VERTEX
  8
0
 62
6
 10
2.44126049E+02
 20
-2.24266981E+02
  0
VERTEX
  8
0
 62
6
 10
2.44009976E+02
 20
-2.24326486E+02
  0
VERTEX
  8
0
 62
6
 10
2.43899611E+02
 20
-2.24395728E+02
  0
VERTEX
  8
0
 62
6
 10
2.43795795E+02
 20
-2.24474179E+02
  0
VERTEX
  8
0
 62
6
 10
2.43699316E+02
 20
-2.24561243E+02
  0
VERTEX
  8
0
 62
6
 10
2.43610909E+02
 20
-2.24656256E+02
  0
VERTEX
  8
0
 62
6
 10
2.43531248E+02
 20
-2.24758495E+02
  0
VERTEX
  8
0
 62
6
 10
2.43460938E+02
 20
-2.24867183E+02
  0
VERTEX
  8
0
 62
6
 10
2.43400514E+02
 20
-2.24981492E+02
  0
VERTEX
  8
0
 62
6
 10
2.43350437E+02
 20
-2.25100553E+02
  0
VERTEX
  8
0
 62
6
 10
2.43311087E+02
 20
-2.25223458E+02
  0
VERTEX
  8
0
 62
6
 10
2.43282764E+02
 20
-2.25349274E+02
  0
VERTEX
  8
0
 62
6
 10
2.43265684E+02
 20
-2.25477042E+02
  0
VERTEX
  8
0
 62
6
 10
2.43259976E+02
 20
-2.25605789E+02
  0
VERTEX
  8
0
 62
6
 10
2.43265684E+02
 20
-2.25734536E+02
  0
VERTEX
  8
0
 62
6
 10
2.43282764E+02
 20
-2.25862304E+02
  0
VERTEX
  8
0
 62
6
 10
2.43311087E+02
 20
-2.25988120E+02
  0
VERTEX
  8
0
 62
6
 10
2.43350437E+02
 20
-2.26111025E+02
  0
VERTEX
  8
0
 62
6
 10
2.43400514E+02
 20
-2.26230086E+02
  0
VERTEX
  8
0
 62
6
 10
2.43460938E+02
 20
-2.26344395E+02
  0
VERTEX
  8
0
 62
6
 10
2.43531248E+02
 20
-2.26453083E+02
  0
VERTEX
  8
0
 62
6
 10
2.43610909E+02
 20
-2.26555322E+02
  0
VERTEX
  8
0
 62
6
 10
2.43699316E+02
 20
-2.26650335E+02
  0
VERTEX
  8
0
 62
6
 10
2.43795795E+02
 20
-2.26737399E+02
  0
VERTEX
  8
0
 62
6
 10
2.43899611E+02
 20
-2.26815850E+02
  0
VERTEX
  8
0
 62
6
 10
2.44009976E+02
 20
-2.26885092E+02
  0
VERTEX
  8
0
 62
6
 10
2.44126049E+02
 20
-2.26944597E+02
  0
VERTEX
  8
0
 62
6
 10
2.44246946E+02
 20
-2.26993914E+02
  0
VERTEX
  8
0
 62
6
 10
2.44371747E+02
 20
-2.27032666E+02
  0
VERTEX
  8
0
 62
6
 10
2.44499504E+02
 20
-2.27060558E+02
  0
VERTEX
  8
0
 62
6
 10
2.44629242E+02
 20
-2.27077379E+02
  0
VERTEX
  8
0
 62
6
 10
2.44759976E+02
 20
-2.27083001E+02
  0
VERTEX
  8
0
 62
6
 10
2.44890710E+02
 20
-2.27077379E+02
  0
VERTEX
  8
0
 62
6
 10
2.45020448E+02
 20
-2.27060558E+02
  0
VERTEX
  8
0
 62
6
 10
2.45148205E+02
 20
-2.27032666E+02
  0
VERTEX
  8
0
 62
6
 10
2.45273006E+02
 20
-2.26993914E+02
  0
VERTEX
  8
0
 62
6
 10
2.45393903E+02
 20
-2.26944597E+02
  0
VERTEX
  8
0
 62
6
 10
2.45509976E+02
 20
-2.26885092E+02
  0
VERTEX
  8
0
 62
6
 10
2.45620341E+02
 20
-2.26815850E+02
  0
VERTEX
  8
0
 62
6
 10
2.45724157E+02
 20
-2.26737399E+02
  0
VERTEX
  8
0
 62
6
 10
2.45820636E+02
 20
-2.26650335E+02
  0
VERTEX
  8
0
 62
6
 10
2.45909043E+02
 20
-2.26555322E+02
  0
VERTEX
  8
0
 62
6
 10
2.45988704E+02
 20
-2.26453083E+02
  0
VERTEX
  8
0
 62
6
 10
2.46059014E+02
 20
-2.26344395E+02
  0
VERTEX
  8
0
 62
6
 10
2.46119438E+02
 20
-2.26230086E+02
  0
VERTEX
  8
0
 62
6
 10
2.46169515E+02
 20
-2.26111025E+02
  0
VERTEX
  8
0
 62
6
 10
2.46208865E+02
 20
-2.25988119E+02
  0
VERTEX
  8
0
 62
6
 10
2.46237188E+02
 20
-2.25862304E+02
  0
VERTEX
  8
0
 62
6
 10
2.46254268E+02
 20
-2.25734536E+02
  0
VERTEX
  8
0
 62
6
 10
2.46259976E+02
 20
-2.25605789E+02
  0
SEQEND
  8
0
  0
POLYLINE
  8
0
 62
4
 66
1
  0
VERTEX
  8
0
 62
4
 10
2.38759976E+02
 20
-2.25236093E+02
  0
VERTEX
  8
0
 62
4
 10
2.38752116E+02
 20
-2.25062077E+02
  0
VERTEX
  8
0
 62
4
 10
2.38728596E+02
 20
-2.24889429E+02
  0
VERTEX
  8
0
 62
4
 10
2.38689603E+02
 20
-2.24719506E+02
  0
VERTEX
  8
0
 62
4
 10
2.38635442E+02
 20
-2.24553643E+02
  0
VERTEX
  8
0
 62
4
 10
2.38566539E+02
 20
-2.24393145E+02
  0
VERTEX
  8
0
 62
4
 10
2.38483436E+02
 20
-2.24239273E+02
  0
VERTEX
  8
0
 62
4
 10
2.38386786E+02
 20
-2.24093236E+02
  0
VERTEX
  8
0
 62
4
 10
2.38277348E+02
 20
-2.23956182E+02
  0
VERTEX
  8
0
 62
4
 10
2.38155984E+02
 20
-2.23829189E+02
  0
VERTEX
  8
0
 62
4
 10
2.38023646E+02
 20
-2.23713255E+02
  0
VERTEX
  8
0
 62
4
 10
2.37881375E+02
 20
-2.23609291E+02
  0
VERTEX
  8
0
 62
4
 10
2.37730290E+02
 20
-2.23518114E+02
  0
VERTEX
  8
0
 62
4
 10
2.37571578E+02
 20
-2.23440441E+02
  0
VERTEX
  8
0
 62
4
 10
2.37406486E+02
 20
-2.23376882E+02
  0
VERTEX
  8
0
 62
4
 10
2.37236312E+02
 20
-2.23327938E+02
  0
VERTEX
  8
0
 62
4
 10
2.37062394E+02
 20
-2.23293992E+02
  0
VERTEX
  8
0
 62
4
 10
2.36886099E+02
 20
-2.23275312E+02
  0
VERTEX
  8
0
 62
4
 10
2.36708813E+02
 20
-2.23272044E+02
  0
VERTEX
  8
0
 62
4
 10
2.36531929E+02
 20
-2.23284215E+02
  0
VERTEX
  8
0
 62
4
 10
2.36356837E+02
 20
-2.23311728E+02
  0
VERTEX
  8
0
 62
4
 10
2.36184915E+02
 20
-2.23354368E+02
  0
VERTEX
  8
0
 62
4
 10
2.36017512E+02
 20
-2.23411798E+02
  0
VERTEX
  8
0
 62
4
 10
2.35855946E+02
 20
-2.23483568E+02
  0
VERTEX
  8
0
 62
4
 10
2.35701485E+02
 20
-2.23569114E+02
  0
VERTEX
  8
0
 62
4
 10
2.35555345E+02
 20
-2.23667762E+02
  0
VERTEX
  8
0
 62
4
 10
2.35418673E+02
 20
-2.23778739E+02
  0
VERTEX
  8
0
 62
4
 10
2.35292545E+02
 20
-2.23901170E+02
  0
VERTEX
  8
0
 62
4
 10
2.35177951E+02
 20
-2.24034095E+02
  0
VERTEX
  8
0
 62
4
 10
2.35075792E+02
 20
-2.24176468E+02
  0
VERTEX
  8
0
 62
4
 10
2.34986872E+02
 20
-2.24327170E+02
  0
VERTEX
  8
0
 62
4
 10
2.34911889E+02
 20
-2.24485016E+02
  0
VERTEX
  8
0
 62
4
 10
2.34851433E+02
 20
-2.24648766E+02
  0
VERTEX
  8
0
 62
4
 10
2.34805978E+02
 20
-2.24817133E+02
  0
VERTEX
  8
0
 62
4
 10
2.34775883E+02
 20
-2.24988792E+02
  0
VERTEX
  8
0
 62
4
 10
2.34761384E+02
 20
-2.25162396E+02
  0
VERTEX
  8
0
 62
4
 10
2.34762594E+02
 20
-2.25336579E+02
  0
SEQEND
  8
0
  0
POLYLINE
  8
0
 62
4
 66
1
  0
VERTEX
  8
0
 62
4
 10
2.38494976E+02
 20
-2.25610714E+02
  0
VERTEX
  8
0
 62
4
 10
2.38488374E+02
 20
-2.25461796E+02
  0
VERTEX
  8
0
 62
4
 10
2.38468617E+02
 20
-2.25314012E+02
  0
VERTEX
  8
0
 62
4
 10
2.38435857E+02
 20
-2.25168485E+02
  0
VERTEX
  8
0
 62
4
 10
2.38390343E+02
 20
-2.25026324E+02
  0
VERTEX
  8
0
 62
4
 10
2.38332420E+02
 20
-2.24888611E+02
  0
VERTEX
  8
0
 62
4
 10
2.38262530E+02
 20
-2.24756393E+02
  0
VERTEX
  8
0
 62
4
 10
2.38181205E+02
 20
-2.24630678E+02
  0
VERTEX
  8
0
 62
4
 10
2.38089063E+02
 20
-2.24512420E+02
  0
VERTEX
  8
0
 62
4
 10
2.37986806E+02
 20
-2.24402522E+02
  0
VERTEX
  8
0
 62
4
 10
2.37875213E+02
 20
-2.24301819E+02
  0
VERTEX
  8
0
 62
4
 10
2.37755131E+02
 20
-2.24211077E+02
  0
VERTEX
  8
0
 62
4
 10
2.37627476E+02
 20
-2.24130987E+02
  0
VERTEX
  8
0
 62
4
 10
2.37493219E+02
 20
-2.24062159E+02
  0
VERTEX
  8
0
 62
4
 10
2.37353381E+02
 20
-2.24005116E+02
  0
VERTEX
  8
0
 62
4
 10
2.37209027E+02
 20
-2.23960293E+02
  0
VERTEX
  8
0
 62
4
 10
2.37061256E+02
 20
-2.23928031E+02
  0
VERTEX
  8
0
 62
4
 10
2.36911191E+02
 20
-2.23908574E+02
  0
VERTEX
  8
0
 62
4
 10
2.36759976E+02
 20
-2.23902073E+02
  0
VERTEX
  8
0
 62
4
 10
2.36608761E+02
 20
-2.23908574E+02
  0
VERTEX
  8
0
 62
4
 10
2.36458696E+02
 20
-2.23928031E+02
  0
VERTEX
  8
0
 62
4
 10
2.36310925E+02
 20
-2.23960293E+02
  0
VERTEX
  8
0
 62
4
 10
2.36166571E+02
 20
-2.24005116E+02
  0
VERTEX
  8
0
 62
4
 10
2.36026733E+02
 20
-2.24062159E+02
  0
VERTEX
  8
0
 62
4
 10
2.35892476E+02
 20
-2.24130987E+02
  0
VERTEX
  8
0
 62
4
 10
2.35764821E+02
 20
-2.24211077E+02
  0
VERTEX
  8
0
 62
4
 10
2.35644739E+02
 20
-2.24301819E+02
  0
VERTEX
  8
0
 62
4
 10
2.35533146E+02
 20
-2.24402522E+02
  0
VERTEX
  8
0
 62
4
 10
2.35430889E+02
 20
-2.24512420E+02
  0
VERTEX
  8
0
 62
4
 10
2.35338747E+02
 20
-2.24630678E+02
  0
VERTEX
  8
0
 62
4
 10
2.35257422E+02
 20
-2.24756393E+02
  0
VERTEX
  8
0
 62
4
 10
2.35187532E+02
 20
-2.24888611E+02
  0
VERTEX
  8
0
 62
4
 10
2.35129609E+02
 20
-2.25026324E+02
  0
VERTEX
  8
0
 62
4
 10
2.35084095E+02
 20
-2.25168485E+02
  0
VERTEX
  8
0
 62
4
 10
2.35051335E+02
 20
-2.25314012E+02
  0
VERTEX
  8
0
 62
4
 10
2.35031578E+02
 20
-2.25461796E+02
  0
VERTEX
  8
0
 62
4
 10
2.35024976E+02
 20
-2.25610714E+02
  0
VERTEX
  8
0
 62
4
 10
2.35031578E+02
 20
-2.25759632E+02
  0
VERTEX
  8
0
 62
4
 10
2.35051335E+02
 20
-2.25907416E+02
  0
VERTEX
  8
0
 62
4
 10
2.35084095E+02
 20
-2.26052943E+02
  0
VERTEX
  8
0
 62
4
 10
2.35129609E+02
 20
-2.26195104E+02
  0
VERTEX
  8
0
 62
4
 10
2.35187532E+02
 20
-2.26332817E+02
  0
VERTEX
  8
0
 62
4
 10
2.35257422E+02
 20
-2.26465035E+02
  0
VERTEX
  8
0
 62
4
 10
2.35338747E+02
 20
-2.26590750E+02
  0
VERTEX
  8
0
 62
4
 10
2.35430889E+02
 20
-2.26709008E+02
  0
VERTEX
  8
0
 62
4
 10
2.35533146E+02
 20
-2.26818906E+02
  0
VERTEX
  8
0
 62
4
 10
2.35644739E+02
 20
-2.26919609E+02
  0
VERTEX
  8
0
 62
4
 10
2.35764821E+02
 20
-2.27010351E+02
  0
VERTEX
  8
0
 62
4
 10
2.35892476E+02
 20
-2.27090441E+02
  0
VERTEX
  8
0
 62
4
 10
2.36026733E+02
 20
-2.27159269E+02
  0
VERTEX
  8
0
 62
4
 10
2.36166571E+02
 20
-2.27216312E+02
  0
VERTEX
  8
0
 62
4
 10
2.36310925E+02
 20
-2.27261135E+02
  0
VERTEX
  8
0
 62
4
 10
2.36458696E+02
 20
-2.27293397E+02
  0
VERTEX
  8
0
 62
4
 10
2.36608761E+02
 20
-2.27312854E+02
  0
VERTEX
  8
0
 62
4
 10
2.36759976E+02
 20
-2.27319355E+02
  0
VERTEX
  8
0
 62
4
 10
2.36911191E+02
 20
-2.27312854E+02
  0
VERTEX
  8
0
 62
4
 10
2.37061256E+02
 20
-2.27293397E+02
  0
VERTEX
  8
0
 62
4
 10
2.37209027E+02
 20
-2.27261135E+02
  0
VERTEX
  8
0
 62
4
 10
2.37353381E+02
 20
-2.27216312E+02
  0
VERTEX
  8
0
 62
4
 10
2.37493219E+02
 20
-2.27159269E+02
  0
VERTEX
  8
0
 62
4
 10
2.37627476E+02
 20
-2.27090441E+02
  0
VERTEX
  8
0
 62
4
 10
2.37755131E+02
 20
-2.27010351E+02
  0
VERTEX
  8
0
 62
4
 10
2.37875213E+02
 20
-2.26919609E+02
  0
VERTEX
  8
0
 62
4
 10
2.37986806E+02
 20
-2.26818906E+02
  0
VERTEX
  8
0
 62
4
 10
2.38089063E+02
 20
-2.26709008E+02
  0
VERTEX
  8
0
 62
4
 10
2.38181205E+02
 20
-2.26590750E+02
  0
VERTEX
  8
0
 62
4
 10
2.38262530E+02
 20
-2.26465035E+02
  0
VERTEX
  8
0
 62
4
 10
2.38332420E+02
 20
-2.26332817E+02
  0
VERTEX
  8
0
 62
4
 10
2.38390343E+02
 20
-2.26195104E+02
  0
VERTEX
  8
0
 62
4
 10
2.38435857E+02
 20
-2.26052943E+02
  0
VERTEX
  8
0
 62
4
 10
2.38468617E+02
 20
-2.25907416E+02
  0
VERTEX
  8
0
 62
4
 10
2.38488374E+02
 20
-2.25759632E+02
  0
VERTEX
  8
0
 62
4
 10
2.38494976E+02
 20
-2.25610714E+02
  0
SEQEND
  8
0
  0
POLYLINE
  8
0
 62
4
 66
1
  0
VERTEX
  8
0
 62
4
 10
2.38759976E+02
 20
-2.25437065E+02
  0
VERTEX
  8
0
 62
4
 10
2.38752365E+02
 20
-2.25265831E+02
  0
VERTEX
  8
0
 62
4
 10
2.38729592E+02
 20
-2.25095900E+02
  0
VERTEX
  8
0
 62
4
 10
2.38691828E+02
 20
-2.24928565E+02
  0
VERTEX
  8
0
 62
4
 10
2.38639361E+02
 20
-2.24765101E+02
  0
VERTEX
  8
0
 62
4
 10
2.38572592E+02
 20
-2.24606751E+02
  0
VERTEX
  8
0
 62
4
 10
2.38492027E+02
 20
-2.24454719E+02
  0
VERTEX
  8
0
 62
4
 10
2.38398280E+02
 20
-2.24310164E+02
  0
VERTEX
  8
0
 62
4
 10
2.38292065E+02
 20
-2.24174186E+02
  0
VERTEX
  8
0
 62
4
 10
2.38174190E+02
 20
-2.24047818E+02
  0
VERTEX
  8
0
 62
4
 10
2.38045551E+02
 20
-2.23932024E+02
  0
VERTEX
  8
0
 62
4
 10
2.37907129E+02
 20
-2.23827684E+02
  0
VERTEX
  8
0
 62
4
 10
2.37759976E+02
 20
-2.23735592E+02
  0
VERTEX
  8
0
 62
4
 10
2.37605213E+02
 20
-2.23656450E+02
  0
VERTEX
  8
0
 62
4
 10
2.37444016E+02
 20
-2.23590859E+02
  0
VERTEX
  8
0
 62
4
 10
2.37277614E+02
 20
-2.23539319E+02
  0
VERTEX
  8
0
 62
4
 10
2.37107272E+02
 20
-2.23502222E+02
  0
VERTEX
  8
0
 62
4
 10
2.36934287E+02
 20
-2.23479850E+02
  0
VERTEX
  8
0
 62
4
 10
2.36759976E+02
 20
-2.23472374E+02
  0
VERTEX
  8
0
 62
4
 10
2.36585665E+02
 20
-2.23479850E+02
  0
VERTEX
  8
0
 62
4
 10
2.36412680E+02
 20
-2.23502222E+02
  0
VERTEX
  8
0
 62
4
 10
2.36242338E+02
 20
-2.23539319E+02
  0
VERTEX
  8
0
 62
4
 10
2.36075936E+02
 20
-2.23590859E+02
  0
VERTEX
  8
0
 62
4
 10
2.35914739E+02
 20
-2.23656450E+02
  0
VERTEX
  8
0
 62
4
 10
2.35759976E+02
 20
-2.23735592E+02
  0
VERTEX
  8
0
 62
4
 10
2.35612823E+02
 20
-2.23827684E+02
  0
VERTEX
  8
0
 62
4
 10
2.35474401E+02
 20
-2.23932024E+02
  0
VERTEX
  8
0
 62
4
 10
2.35345762E+02
 20
-2.24047818E+02
  0
VERTEX
  8
0
 62
4
 10
2.35227887E+02
 20
-2.24174186E+02
  0
VERTEX
  8
0
 62
4
 10
2.35121672E+02
 20
-2.24310164E+02
  0
VERTEX
  8
0
 62
4
 10
2.35027925E+02
 20
-2.24454719E+02
  0
VERTEX
  8
0
 62
4
 10
2.34947360E+02
 20
-2.24606751E+02
  0
VERTEX
  8
0
 62
4
 10
2.34880591E+02
 20
-2.24765101E+02
  0
VERTEX
  8
0
 62
4
 10
2.34828124E+02
 20
-2.24928565E+02
  0
VERTEX
  8
0
 62
4
 10
2.34790360E+02
 20
-2.25095900E+02
  0
VERTEX
  8
0
 62
4
 10
2.34767587E+02
 20
-2.25265831E+02
  0
VERTEX
  8
0
 62
4
 10
2.34759976E+02
 20
-2.25437065E+02
  0
VERTEX
  8
0
 62
4
 10
2.34767587E+02
 20
-2.25608299E+02
  0
VERTEX
  8
0
 62
4
 10
2.34790360E+02
 20
-2.25778230E+02
  0
VERTEX
  8
0
 62
4
 10
2.34828124E+02
 20
-2.25945565E+02
  0
VERTEX
  8
0
 62
4
 10
2.34880591E+02
 20
-2.26109029E+02
  0
VERTEX
  8
0
 62
4
 10
2.34947360E+02
 20
-2.26267379E+02
  0
VERTEX
  8
0
 62
4
 10
2.35027925E+02
 20
-2.26419411E+02
  0
VERTEX
  8
0
 62
4
 10
2.35121672E+02
 20
-2.26563966E+02
  0
VERTEX
  8
0
 62
4
 10
2.35227887E+02
 20
-2.26699944E+02
  0
VERTEX
  8
0
 62
4
 10
2.35345762E+02
 20
-2.26826312E+02
  0
VERTEX
  8
0
 62
4
 10
2.35474401E+02
 20
-2.26942106E+02
  0
VERTEX
  8
0
 62
4
 10
2.35612823E+02
 20
-2.27046446E+02
  0
VERTEX
  8
0
 62
4
 10
2.35759976E+02
 20
-2.27138538E+02
  0
VERTEX
  8
0
 62
4
 10
2.35914739E+02
 20
-2.27217680E+02
  0
VERTEX
  8
0
 62
4
 10
2.36075936E+02
 20
-2.27283271E+02
  0
VERTEX
  8
0
 62
4
 10
2.36242338E+02
 20
-2.27334811E+02
  0
VERTEX
  8
0
 62
4
 10
2.36412680E+02
 20
-2.27371908E+02
  0
VERTEX
  8
0
 62
4
 10
2.36585665E+02
 20
-2.27394280E+02
  0
VERTEX
  8
0
 62
4
 10
2.36759976E+02
 20
-2.27401756E+02
  0
VERTEX
  8
0
 62
4
 10
2.36934287E+02
 20
-2.27394280E+02
  0
VERTEX
  8
0
 62
4
 10
2.37107272E+02
 20
-2.27371908E+02
  0
VERTEX
  8
0
 62
4
 10
2.37277614E+02
 20
-2.27334811E+02
  0
VERTEX
  8
0
 62
4
 10
2.37444016E+02
 20
-2.27283271E+02
  0
VERTEX
  8
0
 62
4
 10
2.37605213E+02
 20
-2.27217680E+02
  0
VERTEX
  8
0
 62
4
 10
2.37759976E+02
 20
-2.27138538E+02
  0
VERTEX
  8
0
 62
4
 10
2.37907129E+02
 20
-2.27046446E+02
  0
VERTEX
  8
0
 62
4
 10
2.38045551E+02
 20
-2.26942106E+02
  0
VERTEX
  8
0
 62
4
 10
2.38174190E+02
 20
-2.26826312E+02
  0
VERTEX
  8
0
 62
4
 10
2.38292065E+02
 20
-2.26699944E+02
  0
VERTEX
  8
0
 62
4
 10
2.38398280E+02
 20
-2.26563966E+02
  0
VERTEX
  8
0
 62
4
 10
2.38492027E+02
 20
-2.26419411E+02
  0
VERTEX
  8
0
 62
4
 10
2.38572592E+02
 20
-2.26267379E+02
  0
VERTEX
  8
0
 62
4
 10
2.38639361E+02
 20
-2.26109029E+02
  0
VERTEX
  8
0
 62
4
 10
2.38691828E+02
 20
-2.25945565E+02
  0
VERTEX
  8
0
 62
4
 10
2.38729592E+02
 20
-2.25778230E+02
  0
VERTEX
  8
0
 62
4
 10
2.38752365E+02
 20
-2.25608299E+02
  0
VERTEX
  8
0
 62
4
 10
2.38759976E+02
 20
-2.25437065E+02
  0
SEQEND
  8
0
  0
POLYLINE
  8
0
 62
6
 66
1
  0
VERTEX
  8
0
 62
6
 10
2.38259976E+02
 20
-2.25605789E+02
  0
VERTEX
  8
0
 62
6
 10
2.38254268E+02
 20
-2.25477042E+02
  0
VERTEX
  8
0
 62
6
 10
2.38237188E+02
 20
-2.25349274E+02
  0
VERTEX
  8
0
 62
6
 10
2.38208865E+02
 20
-2.25223458E+02
  0
VERTEX
  8
0
 62
6
 10
2.38169515E+02
 20
-2.25100553E+02
  0
VERTEX
  8
0
 62
6
 10
2.38119438E+02
 20
-2.24981492E+02
  0
VERTEX
  8
0
 62
6
 10
2.38059014E+02
 20
-2.24867183E+02
  0
VERTEX
  8
0
 62
6
 10
2.37988704E+02
 20
-2.24758495E+02
  0
VERTEX
  8
0
 62
6
 10
2.37909043E+02
 20
-2.24656256E+02
  0
VERTEX
  8
0
 62
6
 10
2.37820636E+02
 20
-2.24561243E+02
  0
VERTEX
  8
0
 62
6
 10
2.37724157E+02
 20
-2.24474179E+02
  0
VERTEX
  8
0
 62
6
 10
2.37620341E+02
 20
-2.24395728E+02
  0
VERTEX
  8
0
 62
6
 10
2.37509976E+02
 20
-2.24326486E+02
  0
VERTEX
  8
0
 62
6
 10
2.37393903E+02
 20
-2.24266981E+02
  0
VERTEX
  8
0
 62
6
 10
2.37273006E+02
 20
-2.24217664E+02
  0
VERTEX
  8
0
 62
6
 10
2.37148205E+02
 20
-2.24178912E+02
  0
VERTEX
  8
0
 62
6
 10
2.37020448E+02
 20
-2.24151020E+02
  0
VERTEX
  8
0
 62
6
 10
2.36890710E+02
 20
-2.24134199E+02
  0
VERTEX
  8
0
 62
6
 10
2.36759976E+02
 20
-2.24128577E+02
  0
VERTEX
  8
0
 62
6
 10
2.36629242E+02
 20
-2.24134199E+02
  0
VERTEX
  8
0
 62
6
 10
2.36499504E+02
 20
-2.24151020E+02
  0
VERTEX
  8
0
 62
6
 10
2.36371747E+02
 20
-2.24178912E+02
  0
VERTEX
  8
0
 62
6
 10
2.36246946E+02
 20
-2.24217664E+02
  0
VERTEX
  8
0
 62
6
 10
2.36126049E+02
 20
-2.24266981E+02
  0
VERTEX
  8
0
 62
6
 10
2.36009976E+02
 20
-2.24326486E+02
  0
VERTEX
  8
0
 62
6
 10
2.35899611E+02
 20
-2.24395728E+02
  0
VERTEX
  8
0
 62
6
 10
2.35795795E+02
 20
-2.24474179E+02
  0
VERTEX
  8
0
 62
6
 10
2.35699316E+02
 20
-2.24561243E+02
  0
VERTEX
  8
0
 62
6
 10
2.35610909E+02
 20
-2.24656256E+02
  0
VERTEX
  8
0
 62
6
 10
2.35531248E+02
 20
-2.24758495E+02
  0
VERTEX
  8
0
 62
6
 10
2.35460938E+02
 20
-2.24867183E+02
  0
VERTEX
  8
0
 62
6
 10
2.35400514E+02
 20
-2.24981492E+02
  0
VERTEX
  8
0
 62
6
 10
2.35350437E+02
 20
-2.25100553E+02
  0
VERTEX
  8
0
 62
6
 10
2.35311087E+02
 20
-2.25223458E+02
  0
VERTEX
  8
0
 62
6
 10
2.35282764E+02
 20
-2.25349274E+02
  0
VERTEX
  8
0
 62
6
 10
2.35265684E+02
 20
-2.25477042E+02
  0
VERTEX
  8
0
 62
6
 10
2.35259976E+02
 20
-2.25605789E+02
  0
VERTEX
  8
0
 62
6
 10
2.35265684E+02
 20
-2.25734536E+02
  0
VERTEX
  8
0
 62
6
 10
2.35282764E+02
 20
-2.25862304E+02
  0
VERTEX
  8
0
 62
6
 10
2.35311087E+02
 20
-2.25988120E+02
  0
VERTEX
  8
0
 62
6
 10
2.35350437E+02
 20
-2.26111025E+02
  0
VERTEX
  8
0
 62
6
 10
2.35400514E+02
 20
-2.26230086E+02
  0
VERTEX
  8
0
 62
6
 10
2.35460938E+02
 20
-2.26344395E+02
  0
VERTEX
  8
0
 62
6
 10
2.35531248E+02
 20
-2.26453083E+02
  0
VERTEX
  8
0
 62
6
 10
2.35610909E+02
 20
-2.26555322E+02
  0
VERTEX
  8
0
 62
6
 10
2.35699316E+02
 20
-2.26650335E+02
  0
VERTEX
  8
0
 62
6
 10
2.35795795E+02
 20
-2.26737399E+02
  0
VERTEX
  8
0
 62
6
 10
2.35899611E+02
 20
-2.26815850E+02
  0
VERTEX
  8
0
 62
6
 10
2.36009976E+02
 20
-2.26885092E+02
  0
VERTEX
  8
0
 62
6
 10
2.36126049E+02
 20
-2.26944597E+02
  0
VERTEX
  8
0
 62
6
 10
2.36246946E+02
 20
-2.26993914E+02
  0
VERTEX
  8
0
 62
6
 10
2.36371747E+02
 20
-2.27032666E+02
  0
VERTEX
  8
0
 62
6
 10
2.36499504E+02
 20
-2.27060558E+02
  0
VERTEX
  8
0
 62
6
 10
2.36629242E+02
 20
-2.27077379E+02
  0
VERTEX
  8
0
 62
6
 10
2.36759976E+02
 20
-2.27083001E+02
  0
VERTEX
  8
0
 62
6
 10
2.36890710E+02
 20
-2.27077379E+02
  0
VERTEX
  8
0
 62
6
 10
2.37020448E+02
 20
-2.27060558E+02
  0
VERTEX
  8
0
 62
6
 10
2.37148205E+02
 20
-2.27032666E+02
  0
VERTEX
  8
0
 62
6
 10
2.37273006E+02
 20
-2.26993914E+02
  0
VERTEX
  8
0
 62
6
 10
2.37393903E+02
 20
-2.26944597E+02
  0
VERTEX
  8
0
 62
6
 10
2.37509976E+02
 20
-2.26885092E+02
  0
VERTEX
  8
0
 62
6
 10
2.37620341E+02
 20
-2.26815850E+02
  0
VERTEX
  8
0
 62
6
 10
2.37724157E+02
 20
-2.26737399E+02
  0
VERTEX
  8
0
 62
6
 10
2.37820636E+02
 20
-2.26650335E+02
  0
VERTEX
  8
0
 62
6
 10
2.37909043E+02
 20
-2.26555322E+02
  0
VERTEX
  8
0
 62
6
 10
2.37988704E+02
 20
-2.26453083E+02
  0
VERTEX
  8
0
 62
6
 10
2.38059014E+02
 20
-2.26344395E+02
  0
VERTEX
  8
0
 62
6
 10
2.38119438E+02
 20
-2.26230086E+02
  0
VERTEX
  8
0
 62
6
 10
2.38169515E+02
 20
-2.26111025E+02
  0
VERTEX
  8
0
 62
6
 10
2.38208865E+02
 20
-2.25988119E+02
  0
VERTEX
  8
0
 62
6
 10
2.38237188E+02
 20
-2.25862304E+02
  0
VERTEX
  8
0
 62
6
 10
2.38254268E+02
 20
-2.25734536E+02
  0
VERTEX
  8
0
 62
6
 10
2.38259976E+02
 20
-2.25605789E+02
  0
SEQEND
  8
0
  0
LINE
  8
0
 62
4
 10
2.16759976E+02
 20
-2.18091031E+02
 11
2.16759976E+02
 21
-2.19407712E+02
  0
LINE
  8
0
 62
4
 10
2.49759976E+02
 20
-2.18091031E+02
 11
2.49759976E+02
 21
-2.19407712E+02
  0
LINE
  8
0
 62
4
 10
2.49759976E+02
 20
-2.18094195E+02
 11
2.52759976E+02
 21
-2.14675908E+02
  0
LINE
  8
0
 62
4
 10
2.16759976E+02
 20
-2.18094195E+02
 11
2.13759976E+02
 21
-2.14675908E+02
  0
LINE
  8
0
  6
CENTER
 62
6
 10
2.44759976E+02
 20
-2.20612467E+02
 11
2.44759976E+02
 21
-2.30602467E+02
  0
LINE
  8
0
 62
4
 10
2.48259976E+02
 20
-1.94195173E+02
 11
2.33259976E+02
 21
-1.94195173E+02
  0
LINE
  8
0
 62
4
 10
2.47480181E+02
 20
-2.20035118E+02
 11
2.34454086E+02
 21
-2.20035118E+02
  0
LINE
  8
0
 62
4
 10
2.48259976E+02
 20
-1.67955064E+02
 11
2.33259976E+02
 21
-1.67955064E+02
  0
LINE
  8
0
 62
4
 10
2.33259976E+02
 20
-2.04070846E+02
 11
2.48259976E+02
 21
-2.04070846E+02
  0
LINE
  8
0
 62
4
 10
2.33259976E+02
 20
-2.30411380E+02
 11
2.48259976E+02
 21
-2.30411380E+02
  0
LINE
  8
0
 62
4
 10
2.48259976E+02
 20
-2.04070846E+02
 11
2.48259976E+02
 21
-2.30411380E+02
  0
LINE
  8
0
 62
4
 10
2.33259976E+02
 20
-2.04070846E+02
 11
2.33259976E+02
 21
-2.30411380E+02
  0
LINE
  8
0
  6
CENTER
 62
6
 10
2.36759976E+02
 20
-2.20612467E+02
 11
2.36759976E+02
 21
-2.30602467E+02
  0
LINE
  8
0
  6
CENTER
 62
6
 10
2.31759976E+02
 20
-2.25605789E+02
 11
2.49759976E+02
 21
-2.25605789E+02
  0
LINE
  8
0
 62
4
 10
2.61259976E+02
 20
-1.69415151E+02
 11
2.57759976E+02
 21
-1.69415151E+02
  0
LINE
  8
0
 62
4
 10
2.51259976E+02
 20
-1.99466508E+02
 11
2.15259976E+02
 21
-1.99466508E+02
  0
LINE
  8
0
 62
4
 10
2.67759976E+02
 20
-1.72601956E+02
 11
2.62759976E+02
 21
-1.72601956E+02
  0
LINE
  8
0
 62
4
 10
2.67759976E+02
 20
-1.79997862E+02
 11
2.62759976E+02
 21
-1.79997862E+02
  0
LINE
  8
0
 62
4
 10
2.48259976E+02
 20
-1.68165151E+02
 11
2.57259976E+02
 21
-1.68165151E+02
  0
LINE
  8
0
 62
4
 10
2.57759976E+02
 20
-1.68668293E+02
 11
2.57759976E+02
 21
-1.81668293E+02
  0
LINE
  8
0
 62
4
 10
2.67759976E+02
 20
-1.67780214E+02
 11
2.67759976E+02
 21
-1.82562178E+02
  0
LINE
  8
0
 62
4
 10
2.62759976E+02
 20
-1.67780214E+02
 11
2.62759976E+02
 21
-1.82562178E+02
  0
LINE
  8
0
 62
4
 10
2.62759976E+02
 20
-1.68915151E+02
 11
2.57759976E+02
 21
-1.68915151E+02
  0
LINE
  8
0
 62
4
 10
2.62759976E+02
 20
-1.81415151E+02
 11
2.57759976E+02
 21
-1.81415151E+02
  0
LINE
  8
0
 62
4
 10
2.61259976E+02
 20
-1.68915151E+02
 11
2.61259976E+02
 21
-1.81415151E+02
  0
LINE
  8
0
 62
4
 10
2.61259976E+02
 20
-1.80915151E+02
 11
2.57759976E+02
 21
-1.80915151E+02
  0
LINE
  8
0
 62
4
 10
2.57259976E+02
 20
-1.82165151E+02
 11
2.48759976E+02
 21
-1.82165151E+02
  0
LINE
  8
0
 62
4
 10
2.33259976E+02
 20
-2.18091031E+02
 11
2.16759976E+02
 21
-2.18091031E+02
  0
LINE
  8
0
 62
4
 10
2.67759976E+02
 20
-1.82562178E+02
 11
2.62759976E+02
 21
-1.82562178E+02
  0
LINE
  8
0
 62
4
 10
2.33259976E+02
 20
-2.14672745E+02
 11
2.13759976E+02
 21
-2.14672745E+02
  0
LINE
  8
0
 62
4
 10
2.33259976E+02
 20
-2.13195533E+02
 11
2.13759976E+02
 21
-2.13195533E+02
  0
LINE
  8
0
 62
4
 10
2.48259976E+02
 20
-1.70559787E+02
 11
2.33259976E+02
 21
-1.70559787E+02
  0
LINE
  8
0
 62
4
 10
2.50259976E+02
 20
-1.95527277E+02
 11
2.31259976E+02
 21
-1.95527277E+02
  0
LINE
  8
0
 62
4
 10
2.52759976E+02
 20
-1.97629056E+02
 11
2.52759976E+02
 21
-2.14672745E+02
  0
LINE
  8
0
 62
4
 10
2.52759976E+02
 20
-2.14672745E+02
 11
2.48259976E+02
 21
-2.14672745E+02
  0
LINE
  8
0
 62
4
 10
2.52759976E+02
 20
-2.13195533E+02
 11
2.48259976E+02
 21
-2.13195533E+02
  0
LINE
  8
0
 62
4
 10
2.50259976E+02
 20
-1.95527277E+02
 11
2.50259976E+02
 21
-1.99466508E+02
  0
LINE
  8
0
 62
4
 10
2.33259976E+02
 20
-1.67955064E+02
 11
2.33259976E+02
 21
-1.95527277E+02
  0
LINE
  8
0
 62
4
 10
2.48259976E+02
 20
-1.67955064E+02
 11
2.48259976E+02
 21
-1.95527277E+02
  0
LINE
  8
0
 62
4
 10
2.31259976E+02
 20
-1.95527277E+02
 11
2.31259976E+02
 21
-1.99466508E+02
  0
LINE
  8
0
 62
4
 10
2.13759976E+02
 20
-1.97629056E+02
 11
2.13759976E+02
 21
-2.14672745E+02
  0
LINE
  8
0
 62
4
 10
2.49759976E+02
 20
-2.18091031E+02
 11
2.48259976E+02
 21
-2.18091031E+02
  0
ARC
  8
0
 62
4
 10
2.57260475E+02
 20
-1.68664651E+02
 40
4.99500622E-01
 50
3.59942689E+02
 51
9.00573103E+01
  0
ARC
  8
0
 62
4
 10
2.48759476E+02
 20
-1.82664651E+02
 40
4.99500622E-01
 50
8.99426895E+01
 51
1.80057310E+02
  0
ARC
  8
0
 62
4
 10
2.15259476E+02
 20
-2.00966008E+02
 40
1.49950029E+00
 50
8.99809029E+01
 51
1.80019097E+02
  0
ARC
  8
0
 62
4
 10
2.57259475E+02
 20
-1.81664650E+02
 40
5.00500378E-01
 50
2.70057253E+02
 51
3.59942747E+02
  0
ARC
  8
0
 62
4
 10
2.51260475E+02
 20
-2.00966008E+02
 40
1.49950029E+00
 50
3.59980903E+02
 51
9.00190969E+01
  0
CIRCLE
  8
0
 62
7
 10
-2.54250000E+02
 20
-2.22057706E+02
 40
2.45850000E+00
  0
CIRCLE
  8
0
 62
7
 10
-3.01250000E+02
 20
-2.22057706E+02
 40
2.45850000E+00
  0
CIRCLE
  8
0
 62
7
 10
4.12807569E+01
 20
-2.22057706E+02
 40
2.45850000E+00
  0
CIRCLE
  8
0
 62
7
 10
8.82807569E+01
 20
-2.22057706E+02
 40
2.45850000E+00
  0
LINE
  8
0
 62
7
 10
1.00180690E+02
 20
-2.38307706E+02
 11
9.97807569E+01
 21
-2.38307706E+02
  0
LINE
  8
0
 62
7
 10
9.97807264E+01
 20
-2.45557706E+02
 11
9.97807264E+01
 21
-2.26057706E+02
  0
LINE
  8
0
 62
7
 10
9.97807569E+01
 20
-2.26057706E+02
 11
9.57807569E+01
 21
-2.26057706E+02
  0
LINE
  8
0
  6
CENTER
 62
2
 10
6.47807264E+01
 20
-2.11519833E+02
 11
6.47807264E+01
 21
-2.45557706E+02
  0
LINE
  8
0
  6
CENTER
 62
2
 10
1.01549403E+02
 20
-2.45557706E+02
 11
3.07884473E+01
 21
-2.45557706E+02
  0
LINE
  8
0
 62
7
 10
5.14167588E+01
 20
-2.30779176E+02
 11
4.74652420E+01
 21
-2.26827661E+02
  0
LINE
  8
0
 62
7
 10
5.00025563E+01
 20
-2.32193401E+02
 11
4.60510179E+01
 21
-2.28241864E+02
  0
LINE
  8
0
 62
7
 10
3.77808484E+01
 20
-2.44557706E+02
 11
4.48810682E+01
 21
-2.44557706E+02
  0
LINE
  8
0
 62
7
 10
6.57807569E+01
 20
-2.18557706E+02
 11
6.57807569E+01
 21
-2.25657971E+02
  0
LINE
  8
0
 62
7
 10
7.53121595E+01
 20
-2.17557690E+02
 11
5.42493848E+01
 21
-2.17557690E+02
  0
LINE
  8
0
 62
7
 10
9.57807569E+01
 20
-2.45557706E+02
 11
9.57807569E+01
 21
-2.18057690E+02
  0
LINE
  8
0
 62
7
 10
9.52807264E+01
 20
-2.45557706E+02
 11
9.52807264E+01
 21
-2.18057690E+02
  0
LINE
  8
0
 62
7
 10
9.27807264E+01
 20
-2.45557706E+02
 11
9.27807264E+01
 21
-2.35026318E+02
  0
LINE
  8
0
 62
7
 10
9.22807569E+01
 20
-2.15057645E+02
 11
3.72808484E+01
 21
-2.15057690E+02
  0
LINE
  8
0
 62
7
 10
9.17807569E+01
 20
-2.44557645E+02
 11
8.46805371E+01
 21
-2.44557645E+02
  0
LINE
  8
0
 62
7
 10
7.95592579E+01
 20
-2.32193703E+02
 11
8.35108172E+01
 21
-2.28242144E+02
  0
LINE
  8
0
 62
7
 10
7.81450336E+01
 20
-2.30779478E+02
 11
8.20966145E+01
 21
-2.26827898E+02
  0
LINE
  8
0
 62
7
 10
9.22807569E+01
 20
-2.14557629E+02
 11
3.72808484E+01
 21
-2.14557629E+02
  0
LINE
  8
0
  6
CENTER
 62
2
 10
5.27807264E+01
 20
-2.12083401E+02
 11
5.27807264E+01
 21
-2.37895215E+02
  0
LINE
  8
0
  6
CENTER
 62
2
 10
4.12807569E+01
 20
-2.12079434E+02
 11
4.12807569E+01
 21
-2.31782056E+02
  0
LINE
  8
0
  6
CENTER
 62
2
 10
3.13276319E+01
 20
-2.22057706E+02
 11
5.10302381E+01
 21
-2.22057706E+02
  0
LINE
  8
0
  6
CENTER
 62
2
 10
7.17807264E+01
 20
-2.12196011E+02
 11
7.17807264E+01
 21
-2.33786832E+02
  0
LINE
  8
0
  6
CENTER
 62
2
 10
8.82807569E+01
 20
-2.12503979E+02
 11
8.82807569E+01
 21
-2.29942029E+02
  0
LINE
  8
0
 62
7
 10
3.37807874E+01
 20
-2.45557706E+02
 11
3.37807874E+01
 21
-2.18057690E+02
  0
LINE
  8
0
 62
7
 10
3.67808179E+01
 20
-2.45557706E+02
 11
3.67808179E+01
 21
-2.35026318E+02
  0
LINE
  8
0
 62
7
 10
4.27807264E+01
 20
-2.14557706E+02
 11
4.27807264E+01
 21
-2.15057690E+02
  0
LINE
  8
0
 62
7
 10
8.67807264E+01
 20
-2.14557706E+02
 11
8.67807264E+01
 21
-2.15057690E+02
  0
LINE
  8
0
 62
7
 10
3.42808179E+01
 20
-2.45557706E+02
 11
3.42808179E+01
 21
-2.18057690E+02
  0
LINE
  8
0
 62
7
 10
6.37807569E+01
 20
-2.18557706E+02
 11
6.37807569E+01
 21
-2.25657971E+02
  0
LINE
  8
0
 62
7
 10
8.92807264E+01
 20
-2.29809094E+02
 11
8.92807264E+01
 21
-2.31057706E+02
  0
LINE
  8
0
 62
7
 10
8.05291700E+01
 20
-2.21057645E+02
 11
7.92807569E+01
 21
-2.21057645E+02
  0
LINE
  8
0
 62
7
 10
4.90320691E+01
 20
-2.21057706E+02
 11
5.02807569E+01
 21
-2.21057706E+02
  0
LINE
  8
0
 62
7
 10
4.02807264E+01
 20
-2.29809338E+02
 11
4.02807264E+01
 21
-2.31057706E+02
  0
LINE
  8
0
  6
CENTER
 62
2
 10
7.88937024E+01
 20
-2.22057706E+02
 11
9.80133619E+01
 21
-2.22057706E+02
  0
LINE
  8
0
 62
7
 10
1.00180781E+02
 20
-2.30807706E+02
 11
9.97807569E+01
 21
-2.30807706E+02
  0
LINE
  8
0
  6
CENTER
 62
2
 10
1.03244807E+02
 20
-2.34557706E+02
 11
9.97807569E+01
 21
-2.34557706E+02
  0
LINE
  8
0
 62
7
 10
1.02403254E+02
 20
-2.35823132E+02
 11
1.02403254E+02
 21
-2.33292248E+02
  0
CIRCLE
  8
0
 62
7
 10
4.12807874E+01
 20
-2.22057706E+02
 40
5.00000000E+00
  0
ARC
  8
0
 62
7
 10
4.92953138E+01
 20
-2.32900662E+02
 40
1.00000000E+00
 50
3.20739043E+02
 51
4.50000407E+01
  0
ARC
  8
0
 62
7
 10
5.21237134E+01
 20
-2.30072232E+02
 40
1.00000000E+00
 50
2.25000019E+02
 51
3.09261002E+02
  0
ARC
  8
0
 62
7
 10
4.48810682E+01
 20
-2.43557698E+02
 40
1.00000000E+00
 50
2.70000037E+02
 51
3.54260542E+02
  0
ARC
  8
0
 62
7
 10
9.99032544E+01
 20
-2.33292248E+02
 40
2.50000000E+00
 50
7.69143002E+00
 51
9.00000042E+01
  0
ARC
  8
0
 62
7
 10
9.99032544E+01
 20
-2.35823132E+02
 40
2.50000000E+00
 50
2.76372839E+02
 51
7.69143002E+00
  0
ARC
  8
0
 62
7
 10
3.72808484E+01
 20
-2.18057690E+02
 40
3.00000000E+00
 50
9.00000179E+01
 51
1.80000000E+02
  0
ARC
  8
0
 62
7
 10
6.27807569E+01
 20
-2.18557706E+02
 40
1.00000000E+00
 50
3.59721787E-05
 51
9.00000179E+01
  0
ARC
  8
0
 62
7
 10
3.77808484E+01
 20
-2.43557698E+02
 40
1.00000000E+00
 50
1.80000000E+02
 51
2.70000037E+02
  0
ARC
  8
0
 62
7
 10
6.27807569E+01
 20
-2.25657925E+02
 40
1.00000000E+00
 50
2.75739516E+02
 51
3.59721787E-05
  0
ARC
  8
0
 62
7
 10
4.53437452E+01
 20
-2.28949109E+02
 40
1.00000000E+00
 50
4.50006554E+01
 51
1.20522248E+02
  0
ARC
  8
0
 62
7
 10
4.81721753E+01
 20
-2.26120740E+02
 40
1.00000000E+00
 50
1.49477551E+02
 51
2.24999376E+02
  0
ARC
  8
0
 62
7
 10
3.72808484E+01
 20
-2.18057690E+02
 40
3.50000000E+00
 50
9.00000179E+01
 51
1.80000000E+02
  0
CIRCLE
  8
0
 62
7
 10
4.12807874E+01
 20
-2.22057706E+02
 40
4.50000000E+00
  0
ARC
  8
0
 62
7
 10
3.77808484E+01
 20
-2.35026318E+02
 40
1.00000000E+00
 50
9.71808075E+01
 51
1.80000000E+02
  0
ARC
  8
0
 62
7
 10
3.72808484E+01
 20
-2.31057706E+02
 40
3.00000000E+00
 50
2.77180796E+02
 51
2.23118003E-05
  0
ARC
  8
0
 62
7
 10
4.12494764E+01
 20
-2.30057583E+02
 40
1.00000000E+00
 50
8.97744783E+01
 51
1.72821034E+02
  0
ARC
  8
0
 62
7
 10
4.12808179E+01
 20
-2.22057629E+02
 40
7.00000000E+00
 50
2.69775450E+02
 51
2.24721875E-01
  0
ARC
  8
0
 62
7
 10
4.92807874E+01
 20
-2.22026272E+02
 40
1.00000000E+00
 50
9.71808075E+01
 51
1.80224686E+02
  0
ARC
  8
0
 62
7
 10
5.02807569E+01
 20
-2.18057629E+02
 40
3.00000000E+00
 50
2.69999982E+02
 51
3.52818963E+02
  0
ARC
  8
0
 62
7
 10
5.42493848E+01
 20
-2.18557706E+02
 40
1.00000000E+00
 50
9.00000179E+01
 51
1.72818439E+02
  0
ARC
  8
0
 62
7
 10
8.02662305E+01
 20
-2.32900662E+02
 40
1.00000000E+00
 50
1.35000009E+02
 51
2.19261006E+02
  0
ARC
  8
0
 62
7
 10
7.74378003E+01
 20
-2.30072232E+02
 40
1.00000000E+00
 50
2.30739016E+02
 51
3.15000028E+02
  0
ARC
  8
0
 62
7
 10
8.46805371E+01
 20
-2.43557698E+02
 40
1.00000000E+00
 50
1.85739490E+02
 51
2.70000037E+02
  0
CIRCLE
  8
0
 62
7
 10
8.82807569E+01
 20
-2.22057706E+02
 40
5.00000000E+00
  0
ARC
  8
0
 62
7
 10
8.13893384E+01
 20
-2.26120679E+02
 40
1.00000000E+00
 50
3.15000660E+02
 51
3.05222526E+01
  0
ARC
  8
0
 62
7
 10
6.67807569E+01
 20
-2.18557706E+02
 40
1.00000000E+00
 50
9.00000042E+01
 51
1.80000041E+02
  0
ARC
  8
0
 62
7
 10
6.67807569E+01
 20
-2.25657971E+02
 40
1.00000000E+00
 50
1.80000041E+02
 51
2.64260383E+02
  0
ARC
  8
0
 62
7
 10
9.17807569E+01
 20
-2.43557698E+02
 40
1.00000000E+00
 50
2.70000054E+02
 51
3.59721787E-05
  0
ARC
  8
0
 62
7
 10
8.82807569E+01
 20
-2.22057706E+02
 40
7.00000000E+00
 50
1.79775314E+02
 51
2.70224559E+02
  0
ARC
  8
0
 62
7
 10
8.42177076E+01
 20
-2.28949109E+02
 40
1.00000000E+00
 50
5.94775690E+01
 51
1.34999381E+02
  0
ARC
  8
0
 62
7
 10
9.22807569E+01
 20
-2.18057767E+02
 40
3.00000000E+00
 50
2.23118003E-05
 51
8.99999773E+01
  0
ARC
  8
0
 62
7
 10
9.22807569E+01
 20
-2.18057767E+02
 40
3.50000000E+00
 50
2.23118003E-05
 51
8.99999773E+01
  0
CIRCLE
  8
0
 62
7
 10
8.82807569E+01
 20
-2.22057706E+02
 40
4.50000000E+00
  0
ARC
  8
0
 62
7
 10
9.22807569E+01
 20
-2.31057706E+02
 40
3.00000000E+00
 50
1.80000000E+02
 51
2.62819254E+02
  0
ARC
  8
0
 62
7
 10
7.92807569E+01
 20
-2.18057690E+02
 40
3.00000000E+00
 50
1.87181043E+02
 51
2.69999982E+02
  0
ARC
  8
0
 62
7
 10
7.53121595E+01
 20
-2.18557706E+02
 40
1.00000000E+00
 50
7.18159739E+00
 51
9.00000179E+01
  0
ARC
  8
0
 62
7
 10
8.02808179E+01
 20
-2.22026333E+02
 40
1.00000000E+00
 50
3.59775350E+02
 51
8.28192284E+01
  0
ARC
  8
0
 62
7
 10
8.83121289E+01
 20
-2.30057645E+02
 40
1.00000000E+00
 50
7.17900195E+00
 51
9.02255576E+01
  0
ARC
  8
0
 62
7
 10
9.17807569E+01
 20
-2.35026318E+02
 40
1.00000000E+00
 50
3.59721787E-05
 51
8.28192284E+01
  0
ARC
  8
0
 62
7
 10
6.47807569E+01
 20
-2.45557698E+02
 40
1.90000000E+01
 50
0.00000000E+00
 51
1.80000023E+02
  0
CIRCLE
  8
0
 62
2
 10
8.82807569E+01
 20
-2.22057706E+02
 40
3.00000000E+00
  0
CIRCLE
  8
0
 62
2
 10
4.12807874E+01
 20
-2.22057706E+02
 40
3.00000000E+00
  0
ARC
  8
0
 62
7
 10
6.47807264E+01
 20
-2.45557706E+02
 40
1.85000726E+01
 50
0.00000000E+00
 51
1.80000000E+02
  0
TEXT
  8
0
 62
7
 10
2.51759798E+02
 20
-2.23835795E+00
 40
6.30000019E+00
  1
(mm)
 41
1.00000000E+00
  7
MONOTXT
  0
TEXT
  8
0
 62
7
 10
-3.78402029E+01
 20
-2.23835795E+00
 40
6.30000019E+00
  1
STRETCH LIST
 41
1.05263158E+00
  7
MONOTXT
  0
TEXT
  8
0
 62
7
 10
-2.74090202E+02
 20
-2.52383580E+01
 40
6.30000019E+00
  1
STRETCH
 41
1.00000000E+00
  7
MONOTXT
  0
TEXT
  8
0
 62
7
 10
-2.70940202E+02
 20
-1.52383580E+01
 40
6.30000019E+00
  1
STROKE
 41
1.00000000E+00
  7
MONOTXT
  0
LINE
  8
0
 62
7
 10
-2.27529264E+02
 20
-2.70883579E+01
 11
-2.27529264E+02
 21
-7.08835786E+00
  0
LINE
  8
0
 62
7
 10
-2.77929264E+02
 20
-2.70883579E+01
 11
2.76470736E+02
 21
-2.70883579E+01
  0
LINE
  8
0
 62
7
 10
-2.77929264E+02
 20
-7.08835785E+00
 11
2.76470736E+02
 21
-7.08835785E+00
  0
LINE
  8
0
 62
7
 10
-2.77929264E+02
 20
-2.70883579E+01
 11
-2.77929264E+02
 21
-7.08835786E+00
  0
LINE
  8
0
 62
7
 10
-2.77929264E+02
 20
-1.70883579E+01
 11
2.76470736E+02
 21
-1.70883579E+01
  0
LINE
  8
0
 62
7
 10
-1.96029264E+02
 20
-2.70883579E+01
 11
-1.96029264E+02
 21
-7.08835786E+00
  0
LINE
  8
0
 62
7
 10
-1.64529264E+02
 20
-2.70883579E+01
 11
-1.64529264E+02
 21
-7.08835786E+00
  0
LINE
  8
0
 62
7
 10
-1.33029264E+02
 20
-2.70883579E+01
 11
-1.33029264E+02
 21
-7.08835786E+00
  0
LINE
  8
0
 62
7
 10
-1.01529264E+02
 20
-2.70883579E+01
 11
-1.01529264E+02
 21
-7.08835786E+00
  0
LINE
  8
0
 62
7
 10
-7.00292643E+01
 20
-2.70883579E+01
 11
-7.00292643E+01
 21
-7.08835786E+00
  0
LINE
  8
0
 62
7
 10
-3.85292643E+01
 20
-2.70883579E+01
 11
-3.85292643E+01
 21
-7.08835786E+00
  0
LINE
  8
0
 62
7
 10
-7.02926434E+00
 20
-2.70883579E+01
 11
-7.02926434E+00
 21
-7.08835786E+00
  0
LINE
  8
0
 62
7
 10
2.44707357E+01
 20
-2.70883579E+01
 11
2.44707357E+01
 21
-7.08835786E+00
  0
LINE
  8
0
 62
7
 10
5.59707357E+01
 20
-2.70883579E+01
 11
5.59707357E+01
 21
-7.08835786E+00
  0
LINE
  8
0
 62
7
 10
8.74707357E+01
 20
-2.70883579E+01
 11
8.74707357E+01
 21
-7.08835786E+00
  0
LINE
  8
0
 62
7
 10
1.18970736E+02
 20
-2.70883579E+01
 11
1.18970736E+02
 21
-7.08835786E+00
  0
LINE
  8
0
 62
7
 10
1.50470736E+02
 20
-2.70883579E+01
 11
1.50470736E+02
 21
-7.08835786E+00
  0
LINE
  8
0
 62
7
 10
1.81970736E+02
 20
-2.70883579E+01
 11
1.81970736E+02
 21
-7.08835786E+00
  0
LINE
  8
0
 62
7
 10
2.13470736E+02
 20
-2.70883579E+01
 11
2.13470736E+02
 21
-7.08835786E+00
  0
LINE
  8
0
 62
7
 10
2.44970736E+02
 20
-2.70883579E+01
 11
2.44970736E+02
 21
-7.08835786E+00
  0
LINE
  8
0
 62
7
 10
2.76470736E+02
 20
-2.70883579E+01
 11
2.76470736E+02
 21
-7.08835786E+00
  0
TEXT
  8
0
 62
7
 10
-2.17390202E+02
 20
-1.52383580E+01
 40
6.30000019E+00
  1
50
 41
1.00000000E+00
  7
MONOTXT
  0
TEXT
  8
0
 62
7
 10
-1.85890202E+02
 20
-1.52383580E+01
 40
6.30000019E+00
  1
75
 41
1.00000000E+00
  7
MONOTXT
  0
TEXT
  8
0
 62
7
 10
-1.57540202E+02
 20
-1.52383580E+01
 40
6.30000019E+00
  1
100
 41
1.00000000E+00
  7
MONOTXT
  0
TEXT
  8
0
 62
7
 10
-1.26040202E+02
 20
-1.52383580E+01
 40
6.30000019E+00
  1
150
 41
1.00000000E+00
  7
MONOTXT
  0
TEXT
  8
0
 62
7
 10
-9.45402020E+01
 20
-1.52383580E+01
 40
6.30000019E+00
  1
200
 41
1.00000000E+00
  7
MONOTXT
  0
TEXT
  8
0
 62
7
 10
-6.30402020E+01
 20
-1.52383580E+01
 40
6.30000019E+00
  1
250
 41
1.00000000E+00
  7
MONOTXT
  0
TEXT
  8
0
 62
7
 10
-3.15402020E+01
 20
-1.52383580E+01
 40
6.30000019E+00
  1
300
 41
1.00000000E+00
  7
MONOTXT
  0
TEXT
  8
0
 62
7
 10
-4.02020350E-02
 20
-1.52383580E+01
 40
6.30000019E+00
  1
350
 41
1.00000000E+00
  7
MONOTXT
  0
TEXT
  8
0
 62
7
 10
3.14597980E+01
 20
-1.52383580E+01
 40
6.30000019E+00
  1
400
 41
1.00000000E+00
  7
MONOTXT
  0
TEXT
  8
0
 62
7
 10
6.29597980E+01
 20
-1.52383580E+01
 40
6.30000019E+00
  1
450
 41
1.00000000E+00
  7
MONOTXT
  0
TEXT
  8
0
 62
7
 10
9.44597980E+01
 20
-1.52383580E+01
 40
6.30000019E+00
  1
500
 41
1.00000000E+00
  7
MONOTXT
  0
TEXT
  8
0
 62
7
 10
1.25959798E+02
 20
-1.52383580E+01
 40
6.30000019E+00
  1
600
 41
1.00000000E+00
  7
MONOTXT
  0
TEXT
  8
0
 62
7
 10
1.57459798E+02
 20
-1.52383580E+01
 40
6.30000019E+00
  1
700
 41
1.00000000E+00
  7
MONOTXT
  0
TEXT
  8
0
 62
7
 10
1.88959798E+02
 20
-1.52383580E+01
 40
6.30000019E+00
  1
800
 41
1.00000000E+00
  7
MONOTXT
  0
TEXT
  8
0
 62
7
 10
2.20459798E+02
 20
-1.52383580E+01
 40
6.30000019E+00
  1
900
 41
1.00000000E+00
  7
MONOTXT
  0
TEXT
  8
0
 62
7
 10
2.48809798E+02
 20
-1.52383580E+01
 40
6.30000019E+00
  1
1000
 41
1.00000000E+00
  7
MONOTXT
  0
TEXT
  8
0
 62
7
 10
-2.20540202E+02
 20
-2.52383580E+01
 40
6.30000019E+00
  1
-25
 41
1.00000000E+00
  7
MONOTXT
  0
TEXT
  8
0
 62
7
 10
-1.82740201E+02
 20
-2.52383580E+01
 40
6.30000019E+00
  1
0
 41
1.00000000E+00
  7
MONOTXT
  0
TEXT
  8
0
 62
7
 10
-1.54390202E+02
 20
-2.52383580E+01
 40
6.30000019E+00
  1
25
 41
1.00000000E+00
  7
MONOTXT
  0
TEXT
  8
0
 62
7
 10
-1.22890202E+02
 20
-2.52383580E+01
 40
6.30000019E+00
  1
75
 41
1.00000000E+00
  7
MONOTXT
  0
TEXT
  8
0
 62
7
 10
-9.45402020E+01
 20
-2.52383580E+01
 40
6.30000019E+00
  1
125
 41
1.00000000E+00
  7
MONOTXT
  0
TEXT
  8
0
 62
7
 10
-6.30402020E+01
 20
-2.52383580E+01
 40
6.30000019E+00
  1
175
 41
1.00000000E+00
  7
MONOTXT
  0
TEXT
  8
0
 62
7
 10
-3.15402020E+01
 20
-2.52383580E+01
 40
6.30000019E+00
  1
225
 41
1.00000000E+00
  7
MONOTXT
  0
TEXT
  8
0
 62
7
 10
-4.02020350E-02
 20
-2.52383580E+01
 40
6.30000019E+00
  1
275
 41
1.00000000E+00
  7
MONOTXT
  0
TEXT
  8
0
 62
7
 10
3.14597980E+01
 20
-2.52383580E+01
 40
6.30000019E+00
  1
325
 41
1.00000000E+00
  7
MONOTXT
  0
TEXT
  8
0
 62
7
 10
6.29597980E+01
 20
-2.52383580E+01
 40
6.30000019E+00
  1
375
 41
1.00000000E+00
  7
MONOTXT
  0
TEXT
  8
0
 62
7
 10
9.44597980E+01
 20
-2.52383580E+01
 40
6.30000019E+00
  1
425
 41
1.00000000E+00
  7
MONOTXT
  0
TEXT
  8
0
 62
7
 10
1.25959798E+02
 20
-2.52383580E+01
 40
6.30000019E+00
  1
525
 41
1.00000000E+00
  7
MONOTXT
  0
TEXT
  8
0
 62
7
 10
1.57459798E+02
 20
-2.52383580E+01
 40
6.30000019E+00
  1
625
 41
1.00000000E+00
  7
MONOTXT
  0
TEXT
  8
0
 62
7
 10
1.88959798E+02
 20
-2.52383580E+01
 40
6.30000019E+00
  1
725
 41
1.00000000E+00
  7
MONOTXT
  0
TEXT
  8
0
 62
7
 10
2.20459798E+02
 20
-2.52383580E+01
 40
6.30000019E+00
  1
825
 41
1.00000000E+00
  7
MONOTXT
  0
TEXT
  8
0
 62
7
 10
2.51959798E+02
 20
-2.52383580E+01
 40
6.30000019E+00
  1
925
 41
1.00000000E+00
  7
MONOTXT
  0
LINE
  8
0
 62
7
 10
-1.18250015E+02
 20
-1.27557706E+02
 11
-9.42500000E+01
 21
-1.27557706E+02
  0
ARC
  8
0
 62
7
 10
-1.18250015E+02
 20
-1.25557706E+02
 40
2.00000000E+00
 50
1.80000000E+02
 51
2.70000000E+02
  0
LINE
  8
0
 62
7
 10
-1.20250015E+02
 20
-1.25557706E+02
 11
-1.20250015E+02
 21
-8.55577055E+01
  0
ARC
  8
0
 62
7
 10
-1.18250015E+02
 20
-8.55577056E+01
 40
2.00000000E+00
 50
9.00000002E+01
 51
1.80000000E+02
  0
LINE
  8
0
 62
7
 10
-1.18250015E+02
 20
-8.35577056E+01
 11
-9.42500000E+01
 21
-8.35577056E+01
  0
LINE
  8
0
 62
7
 10
-3.11382614E+01
 20
-2.24707715E+02
 11
-9.42500000E+01
 21
-2.24707715E+02
  0
LINE
  8
0
 62
7
 10
-2.75875695E+01
 20
-2.18557736E+02
 11
-9.42500000E+01
 21
-2.18557736E+02
  0
LINE
  8
0
 62
7
 10
-2.80783120E+01
 20
-2.19407727E+02
 11
-9.42500000E+01
 21
-2.19407727E+02
  0
LINE
  8
0
 62
7
 10
-5.87644488E+01
 20
-1.32557675E+02
 11
-9.42500000E+01
 21
-1.32557675E+02
  0
LINE
  8
0
 62
7
 10
-5.82737064E+01
 20
-1.31707684E+02
 11
-9.42500000E+01
 21
-1.31707684E+02
  0
LINE
  8
0
 62
7
 10
-5.52137570E+01
 20
-1.26407696E+02
 11
-9.42500000E+01
 21
-1.26407696E+02
  0
LINE
  8
0
 62
7
 10
-8.62499945E+01
 20
-8.47077147E+01
 11
-9.42500000E+01
 21
-8.47077147E+01
  0
LINE
  8
0
 62
7
 10
-8.62499945E+01
 20
-7.94077269E+01
 11
-9.42500000E+01
 21
-7.94077269E+01
  0
LINE
  8
0
 62
7
 10
-8.62499945E+01
 20
-7.85577361E+01
 11
-9.42500000E+01
 21
-7.85577361E+01
  0
LINE
  8
0
 62
2
 10
-1.62249969E+02
 20
-2.37377713E+02
 11
-1.53249969E+02
 21
-2.37377713E+02
  0
LINE
  8
0
 62
7
 10
-1.62249969E+02
 20
-2.36557706E+02
 11
-1.53249969E+02
 21
-2.36557706E+02
  0
LINE
  8
0
 62
2
 10
-1.62249969E+02
 20
-1.13737698E+02
 11
-1.53249969E+02
 21
-1.13737698E+02
  0
LINE
  8
0
 62
7
 10
-1.62249969E+02
 20
-1.14557706E+02
 11
-1.53249969E+02
 21
-1.14557706E+02
  0
LINE
  8
0
 62
2
 10
-1.62249969E+02
 20
-9.73777129E+01
 11
-1.53249969E+02
 21
-9.73777129E+01
  0
LINE
  8
0
 62
7
 10
-1.62249969E+02
 20
-9.65577056E+01
 11
-1.53249969E+02
 21
-9.65577056E+01
  0
ARC
  8
0
 62
4
 10
-1.81746362E+02
 20
-1.12307706E+02
 40
1.94963929E+01
 50
3.39743842E+02
 51
2.02561580E+01
  0
ARC
  8
0
 62
4
 10
-1.81746362E+02
 20
-9.88077056E+01
 40
1.94963929E+01
 50
3.39743842E+02
 51
2.02561580E+01
  0
ARC
  8
0
 62
4
 10
-1.53753577E+02
 20
-9.88077056E+01
 40
1.94963929E+01
 50
1.59743842E+02
 51
2.00256158E+02
  0
ARC
  8
0
 62
4
 10
-1.53753577E+02
 20
-1.12307706E+02
 40
1.94963929E+01
 50
1.59743842E+02
 51
2.00256158E+02
  0
LINE
  8
0
 62
4
 10
-1.63455741E+02
 20
-1.05557706E+02
 11
-1.72044198E+02
 21
-1.05557706E+02
  0
LINE
  8
0
 62
4
 10
-1.62249969E+02
 20
-1.19057706E+02
 11
-1.73249969E+02
 21
-1.19057706E+02
  0
LINE
  8
0
 62
4
 10
-1.62249969E+02
 20
-9.20577056E+01
 11
-1.73249969E+02
 21
-9.20577056E+01
  0
LINE
  8
0
 62
4
 10
-1.73249969E+02
 20
-9.20577056E+01
 11
-1.73249969E+02
 21
-1.19057706E+02
  0
LINE
  8
0
 62
4
 10
-1.62249969E+02
 20
-9.20577056E+01
 11
-1.62249969E+02
 21
-1.19057706E+02
  0
LINE
  8
0
 62
4
 10
-1.62249969E+02
 20
-2.45557706E+02
 11
-1.62249969E+02
 21
-2.32057706E+02
  0
LINE
  8
0
 62
4
 10
-1.73249969E+02
 20
-2.45557706E+02
 11
-1.73249969E+02
 21
-2.32057706E+02
  0
ARC
  8
0
 62
4
 10
-1.47455741E+02
 20
-2.45557706E+02
 40
2.57942282E+01
 50
1.62412046E+02
 51
1.80000000E+02
  0
ARC
  8
0
 62
4
 10
-1.88044198E+02
 20
-2.45557706E+02
 40
2.57942282E+01
 50
2.54444375E-13
 51
1.75879541E+01
  0
ARC
  8
0
 62
4
 10
-1.69150691E+02
 20
-2.33866363E+02
 40
6.90072132E+00
 50
3.25615752E+02
 51
3.43842480E+01
  0
ARC
  8
0
 62
4
 10
-1.66349248E+02
 20
-2.33866363E+02
 40
6.90072132E+00
 50
1.45615752E+02
 51
2.14384248E+02
  0
LINE
  8
0
 62
4
 10
-1.63455741E+02
 20
-2.29969248E+02
 11
-1.62249969E+02
 21
-2.32057706E+02
  0
LINE
  8
0
 62
4
 10
-1.72044198E+02
 20
-2.29969248E+02
 11
-1.73249969E+02
 21
-2.32057706E+02
  0
LINE
  8
0
 62
4
 10
-1.72044198E+02
 20
-2.37763477E+02
 11
-1.63455741E+02
 21
-2.37763477E+02
  0
LINE
  8
0
 62
4
 10
-1.72044198E+02
 20
-2.29969248E+02
 11
-1.63455741E+02
 21
-2.29969248E+02
  0
LINE
  8
0
 62
4
 10
-2.64249969E+02
 20
-2.37763477E+02
 11
-2.77749969E+02
 21
-2.29969248E+02
  0
LINE
  8
0
 62
4
 10
-2.64249969E+02
 20
-2.45557706E+02
 11
-2.64249969E+02
 21
-2.37763477E+02
  0
LINE
  8
0
 62
4
 10
-2.91249969E+02
 20
-2.37763477E+02
 11
-2.91249969E+02
 21
-2.45557706E+02
  0
LINE
  8
0
 62
4
 10
-2.77749969E+02
 20
-2.29969248E+02
 11
-2.91249969E+02
 21
-2.37763477E+02
  0
ARC
  8
0
 62
4
 10
-2.77749969E+02
 20
-2.45557706E+02
 40
1.35000000E+01
 50
0.00000000E+00
 51
1.80000000E+02
  0
ARC
  8
0
 62
7
 10
-1.07250061E+02
 20
-9.85577971E+01
 40
7.45249987E+00
 50
7.83879654E+01
 51
3.48893402E+02
  0
ARC
  8
0
 62
2
 10
-1.07249954E+02
 20
-9.85577818E+01
 40
8.33099937E+00
 50
7.96275848E+01
 51
3.50077058E+02
  0
ARC
  8
0
 62
7
 10
-2.77749969E+02
 20
-2.45557706E+02
 40
7.49999237E+00
 50
0.00000000E+00
 51
1.80000000E+02
  0
ARC
  8
0
 62
2
 10
-2.77749969E+02
 20
-2.45557706E+02
 40
8.18000031E+00
 50
0.00000000E+00
 51
1.80000000E+02
  0
ARC
  8
0
 62
7
 10
-2.77749969E+02
 20
-2.45557706E+02
 40
8.99999237E+00
 50
0.00000000E+00
 51
1.80000000E+02
  0
ARC
  8
0
 62
7
 10
-1.51749969E+02
 20
-2.45557706E+02
 40
9.99998474E+00
 50
0.00000000E+00
 51
3.17883527E+01
  0
ARC
  8
0
 62
7
 10
-1.34999985E+02
 20
-8.85491759E+01
 40
2.50000000E-01
 50
9.19988230E+01
 51
1.79999977E+02
  0
ARC
  8
0
 62
7
 10
-1.39750015E+02
 20
-8.90577513E+01
 40
5.00000000E-01
 50
8.99999818E+01
 51
1.79999964E+02
  0
ARC
  8
0
 62
7
 10
-1.34999985E+02
 20
-1.22566250E+02
 40
2.50000000E-01
 50
1.79999977E+02
 51
2.68001132E+02
  0
ARC
  8
0
 62
7
 10
-1.39750015E+02
 20
-1.22057675E+02
 40
5.00000000E-01
 50
1.79999977E+02
 51
2.69999974E+02
  0
ARC
  8
0
 62
7
 10
-1.35000000E+02
 20
-2.28549161E+02
 40
2.50000000E-01
 50
9.19988230E+01
 51
1.79999977E+02
  0
ARC
  8
0
 62
7
 10
-1.39750015E+02
 20
-2.29057736E+02
 40
5.00000000E-01
 50
8.99999818E+01
 51
1.79999964E+02
  0
CIRCLE
  8
0
 62
2
 10
-2.54250031E+02
 20
-2.22057706E+02
 40
3.00000000E+00
  0
CIRCLE
  8
0
 62
2
 10
-3.01250000E+02
 20
-2.22057706E+02
 40
3.00000000E+00
  0
ARC
  8
0
 62
7
 10
-2.77750000E+02
 20
-2.45557698E+02
 40
1.70000000E+01
 50
0.00000000E+00
 51
1.80000026E+02
  0
ARC
  8
0
 62
7
 10
-2.77750000E+02
 20
-2.45557698E+02
 40
1.90000000E+01
 50
0.00000000E+00
 51
1.80000023E+02
  0
ARC
  8
0
 62
7
 10
-2.77750000E+02
 20
-2.45557698E+02
 40
1.75294495E+01
 50
0.00000000E+00
 51
1.80000025E+02
  0
ARC
  8
0
 62
7
 10
-3.04750000E+02
 20
-2.35026318E+02
 40
1.00000000E+00
 50
9.71807714E+01
 51
1.79999964E+02
  0
ARC
  8
0
 62
7
 10
-3.01281372E+02
 20
-2.30057645E+02
 40
1.00000000E+00
 50
8.97744422E+01
 51
1.72820998E+02
  0
ARC
  8
0
 62
7
 10
-2.93250061E+02
 20
-2.22026333E+02
 40
1.00000000E+00
 50
9.71807714E+01
 51
1.80224650E+02
  0
ARC
  8
0
 62
7
 10
-2.88281403E+02
 20
-2.18557706E+02
 40
1.00000000E+00
 50
8.99999818E+01
 51
1.72818402E+02
  0
ARC
  8
0
 62
7
 10
-2.92250000E+02
 20
-2.18057690E+02
 40
3.00000000E+00
 50
2.70000018E+02
 51
3.52818957E+02
  0
ARC
  8
0
 62
7
 10
-3.05250000E+02
 20
-2.31057706E+02
 40
3.00000000E+00
 50
2.77180746E+02
 51
0.00000000E+00
  0
CIRCLE
  8
0
 62
7
 10
-3.01250000E+02
 20
-2.22057706E+02
 40
4.50000000E+00
  0
ARC
  8
0
 62
7
 10
-3.05250000E+02
 20
-2.18057767E+02
 40
3.50000000E+00
 50
9.00000231E+01
 51
1.79999977E+02
  0
ARC
  8
0
 62
7
 10
-3.05250000E+02
 20
-2.18057767E+02
 40
3.00000000E+00
 50
9.00000231E+01
 51
1.79999977E+02
  0
ARC
  8
0
 62
7
 10
-2.97186951E+02
 20
-2.28949109E+02
 40
1.00000000E+00
 50
4.50006194E+01
 51
1.20522431E+02
  0
ARC
  8
0
 62
7
 10
-3.01250000E+02
 20
-2.22057706E+02
 40
7.00000000E+00
 50
2.69775441E+02
 51
2.24685903E-01
  0
ARC
  8
0
 62
7
 10
-3.04750000E+02
 20
-2.43557698E+02
 40
1.00000000E+00
 50
1.79999964E+02
 51
2.69999946E+02
  0
ARC
  8
0
 62
7
 10
-2.79750000E+02
 20
-2.25657971E+02
 40
1.00000000E+00
 50
2.75739617E+02
 51
3.59999959E+02
  0
ARC
  8
0
 62
7
 10
-2.79750000E+02
 20
-2.18557706E+02
 40
1.00000000E+00
 50
3.59999959E+02
 51
8.99999956E+01
  0
ARC
  8
0
 62
7
 10
-2.94358582E+02
 20
-2.26120679E+02
 40
1.00000000E+00
 50
1.49477747E+02
 51
2.24999340E+02
  0
CIRCLE
  8
0
 62
7
 10
-3.01250000E+02
 20
-2.22057706E+02
 40
5.00000000E+00
  0
ARC
  8
0
 62
7
 10
-2.97649780E+02
 20
-2.43557698E+02
 40
1.00000000E+00
 50
2.69999963E+02
 51
3.54260510E+02
  0
ARC
  8
0
 62
7
 10
-2.90407043E+02
 20
-2.30072232E+02
 40
1.00000000E+00
 50
2.24999972E+02
 51
3.09260983E+02
  0
ARC
  8
0
 62
7
 10
-2.93235474E+02
 20
-2.32900662E+02
 40
1.00000000E+00
 50
3.20738994E+02
 51
4.49999910E+01
  0
ARC
  8
0
 62
7
 10
-2.67218628E+02
 20
-2.18557706E+02
 40
1.00000000E+00
 50
7.18156141E+00
 51
8.99999818E+01
  0
ARC
  8
0
 62
7
 10
-2.63250000E+02
 20
-2.18057629E+02
 40
3.00000000E+00
 50
1.87181037E+02
 51
2.70000018E+02
  0
ARC
  8
0
 62
7
 10
-2.62250031E+02
 20
-2.22026272E+02
 40
1.00000000E+00
 50
3.59775314E+02
 51
8.28191923E+01
  0
ARC
  8
0
 62
7
 10
-2.54250061E+02
 20
-2.22057629E+02
 40
7.00000000E+00
 50
1.79775278E+02
 51
2.70224550E+02
  0
ARC
  8
0
 62
7
 10
-2.54218719E+02
 20
-2.30057583E+02
 40
1.00000000E+00
 50
7.17896597E+00
 51
9.02255215E+01
  0
ARC
  8
0
 62
7
 10
-2.50250092E+02
 20
-2.31057706E+02
 40
3.00000000E+00
 50
1.79999977E+02
 51
2.62819204E+02
  0
ARC
  8
0
 62
7
 10
-2.50750092E+02
 20
-2.35026318E+02
 40
1.00000000E+00
 50
0.00000000E+00
 51
8.28191923E+01
  0
CIRCLE
  8
0
 62
7
 10
-2.54250031E+02
 20
-2.22057706E+02
 40
4.50000000E+00
  0
ARC
  8
0
 62
7
 10
-2.50250092E+02
 20
-2.18057690E+02
 40
3.50000000E+00
 50
0.00000000E+00
 51
8.99999818E+01
  0
ARC
  8
0
 62
7
 10
-2.61141418E+02
 20
-2.26120740E+02
 40
1.00000000E+00
 50
3.15000624E+02
 51
3.05224488E+01
  0
ARC
  8
0
 62
7
 10
-2.58312988E+02
 20
-2.28949109E+02
 40
1.00000000E+00
 50
5.94777518E+01
 51
1.34999345E+02
  0
ARC
  8
0
 62
7
 10
-2.75750000E+02
 20
-2.25657925E+02
 40
1.00000000E+00
 50
1.79999964E+02
 51
2.64260484E+02
  0
ARC
  8
0
 62
7
 10
-2.50750092E+02
 20
-2.43557698E+02
 40
1.00000000E+00
 50
2.69999963E+02
 51
0.00000000E+00
  0
ARC
  8
0
 62
7
 10
-2.75750000E+02
 20
-2.18557706E+02
 40
1.00000000E+00
 50
8.99999818E+01
 51
1.79999964E+02
  0
ARC
  8
0
 62
7
 10
-2.50250092E+02
 20
-2.18057690E+02
 40
3.00000000E+00
 50
0.00000000E+00
 51
8.99999818E+01
  0
CIRCLE
  8
0
 62
7
 10
-1.01250031E+02
 20
-1.17557736E+02
 40
2.59999990E+00
  0
ARC
  8
0
 62
7
 10
-3.12872498E+02
 20
-2.35823132E+02
 40
2.50000000E+00
 50
1.72308570E+02
 51
2.63627161E+02
  0
ARC
  8
0
 62
7
 10
-3.12872498E+02
 20
-2.33292248E+02
 40
2.50000000E+00
 50
8.99999956E+01
 51
1.72308570E+02
  0
CIRCLE
  8
0
 62
7
 10
-1.01250031E+02
 20
-1.17557736E+02
 40
2.50000000E+00
  0
ARC
  8
0
 62
7
 10
-1.01250031E+02
 20
-1.17557736E+02
 40
5.00000000E+00
 50
1.80000036E+02
 51
5.46415133E-05
  0
ARC
  8
0
 62
7
 10
-1.01250031E+02
 20
-1.17557736E+02
 40
5.00000000E+00
 50
5.46415133E-05
 51
1.80000019E+02
  0
ARC
  8
0
 62
7
 10
-1.26750015E+02
 20
-8.70577056E+01
 40
5.00000000E-01
 50
8.99999818E+01
 51
1.79999964E+02
  0
ARC
  8
0
 62
7
 10
-1.26750015E+02
 20
-1.24057706E+02
 40
5.00000000E-01
 50
1.79999977E+02
 51
2.69999974E+02
  0
ARC
  8
0
 62
7
 10
-2.57850311E+02
 20
-2.43557698E+02
 40
1.00000000E+00
 50
1.85739458E+02
 51
2.69999963E+02
  0
ARC
  8
0
 62
7
 10
-2.65092957E+02
 20
-2.30072232E+02
 40
1.00000000E+00
 50
2.30738998E+02
 51
3.14999981E+02
  0
ARC
  8
0
 62
7
 10
-2.62264557E+02
 20
-2.32900662E+02
 40
1.00000000E+00
 50
1.34999959E+02
 51
2.19260957E+02
  0
ARC
  8
0
 62
7
 10
-1.24750046E+02
 20
-2.15590176E+02
 40
5.00000000E-01
 50
9.10003043E+01
 51
1.80000087E+02
  0
ARC
  8
0
 62
7
 10
-1.26750061E+02
 20
-2.27057706E+02
 40
5.00000000E-01
 50
9.00000913E+01
 51
1.80000087E+02
  0
CIRCLE
  8
0
 62
7
 10
-2.54250031E+02
 20
-2.22057706E+02
 40
5.00000000E+00
  0
LINE
  8
0
 62
7
 10
-1.53249969E+02
 20
-1.13737698E+02
 11
-1.50249969E+02
 21
-1.13737698E+02
  0
LINE
  8
0
 62
7
 10
-1.53249969E+02
 20
-9.73777129E+01
 11
-1.50249969E+02
 21
-9.73777129E+01
  0
LINE
  8
0
 62
7
 10
-1.43250063E+02
 20
-9.70576457E+01
 11
-1.41750033E+02
 21
-9.55576158E+01
  0
LINE
  8
0
 62
7
 10
-1.43250028E+02
 20
-1.14057697E+02
 11
-1.41750059E+02
 21
-1.15557667E+02
  0
LINE
  8
0
 62
7
 10
-1.50249969E+02
 20
-9.70577056E+01
 11
-1.43250015E+02
 21
-9.70577056E+01
  0
LINE
  8
0
 62
7
 10
-1.50249969E+02
 20
-1.14057706E+02
 11
-1.43250015E+02
 21
-1.14057706E+02
  0
LINE
  8
0
 62
7
 10
-1.50249969E+02
 20
-1.14057706E+02
 11
-1.50249969E+02
 21
-9.70577056E+01
  0
LINE
  8
0
 62
7
 10
-1.82249995E+02
 20
-1.13057636E+02
 11
-1.80749960E+02
 21
-1.14557625E+02
  0
LINE
  8
0
 62
2
 10
-1.81569916E+02
 20
-1.13737698E+02
 11
-1.73249969E+02
 21
-1.13737698E+02
  0
LINE
  8
0
 62
7
 10
-1.80749908E+02
 20
-1.14557706E+02
 11
-1.73249969E+02
 21
-1.14557706E+02
  0
LINE
  8
0
 62
7
 10
-1.82249923E+02
 20
-9.80578481E+01
 11
-1.80749877E+02
 21
-9.65578478E+01
  0
LINE
  8
0
 62
2
 10
-1.81569916E+02
 20
-9.73777129E+01
 11
-1.73249969E+02
 21
-9.73777129E+01
  0
LINE
  8
0
 62
7
 10
-1.80749908E+02
 20
-9.65577056E+01
 11
-1.73249969E+02
 21
-9.65577056E+01
  0
LINE
  8
0
 62
7
 10
-1.80749969E+02
 20
-1.14557706E+02
 11
-1.80749969E+02
 21
-9.65577056E+01
  0
LINE
  8
0
 62
7
 10
-1.82249969E+02
 20
-1.13057675E+02
 11
-1.82249969E+02
 21
-9.80578581E+01
  0
LINE
  8
0
 62
7
 10
-1.53249969E+02
 20
-1.14557706E+02
 11
-1.53249969E+02
 21
-9.65577056E+01
  0
LINE
  8
0
 62
7
 10
-1.41749969E+02
 20
-9.55576750E+01
 11
-1.40250000E+02
 21
-9.55576750E+01
  0
LINE
  8
0
 62
7
 10
-1.41750031E+02
 20
-1.15557690E+02
 11
-1.40250046E+02
 21
-1.15557690E+02
  0
LINE
  8
0
 62
7
 10
-1.47249985E+02
 20
-9.70577056E+01
 11
-1.47249985E+02
 21
-1.14057706E+02
  0
LINE
  8
0
 62
7
 10
-1.53249969E+02
 20
-2.37377713E+02
 11
-1.50249969E+02
 21
-2.37377713E+02
  0
LINE
  8
0
 62
7
 10
-1.50249955E+02
 20
-2.42435264E+02
 11
-1.47249963E+02
 21
-2.40289858E+02
  0
LINE
  8
0
 62
7
 10
-1.50249980E+02
 20
-2.36557708E+02
 11
-1.47249992E+02
 21
-2.35557722E+02
  0
LINE
  8
0
 62
7
 10
-1.47250076E+02
 20
-2.35557721E+02
 11
-1.40250046E+02
 21
-2.35557721E+02
  0
LINE
  8
0
 62
7
 10
-1.82249915E+02
 20
-2.38057836E+02
 11
-1.80749869E+02
 21
-2.36557836E+02
  0
LINE
  8
0
 62
2
 10
-1.81569916E+02
 20
-2.37377713E+02
 11
-1.73249969E+02
 21
-2.37377713E+02
  0
LINE
  8
0
 62
7
 10
-1.80749908E+02
 20
-2.36557706E+02
 11
-1.73249969E+02
 21
-2.36557706E+02
  0
LINE
  8
0
 62
7
 10
-1.80749969E+02
 20
-2.45557706E+02
 11
-1.80749969E+02
 21
-2.36557706E+02
  0
LINE
  8
0
 62
7
 10
-1.82249969E+02
 20
-2.45557706E+02
 11
-1.82249969E+02
 21
-2.38057858E+02
  0
LINE
  8
0
 62
7
 10
-1.53249969E+02
 20
-2.45557706E+02
 11
-1.53249969E+02
 21
-2.36557706E+02
  0
LINE
  8
0
 62
7
 10
-1.43250015E+02
 20
-2.40289853E+02
 11
-1.43250015E+02
 21
-2.45557706E+02
  0
LINE
  8
0
 62
7
 10
-1.47249985E+02
 20
-2.35557675E+02
 11
-1.47249985E+02
 21
-2.40289853E+02
  0
LINE
  8
0
 62
2
 10
-1.46749975E+02
 20
-2.45557706E+02
 11
-1.43249985E+02
 21
-2.40289857E+02
  0
LINE
  8
0
 62
2
 10
-1.49283655E+02
 20
-2.41744222E+02
 11
-1.46749954E+02
 21
-2.45557706E+02
  0
LINE
  8
0
 62
7
 10
-1.47250076E+02
 20
-2.40289853E+02
 11
-1.43250015E+02
 21
-2.40289853E+02
  0
LINE
  8
0
 62
7
 10
-1.50249969E+02
 20
-2.36557706E+02
 11
-1.50249969E+02
 21
-2.45557706E+02
  0
LINE
  8
0
 62
7
 10
-3.15372498E+02
 20
-2.35823132E+02
 11
-3.15372498E+02
 21
-2.33292248E+02
  0
LINE
  8
0
  6
CENTER
 62
2
 10
-3.16214050E+02
 20
-2.34557706E+02
 11
-3.12750000E+02
 21
-2.34557706E+02
  0
LINE
  8
0
 62
7
 10
-3.13150024E+02
 20
-2.30807706E+02
 11
-3.12750000E+02
 21
-2.30807706E+02
  0
LINE
  8
0
  6
CENTER
 62
2
 10
-1.29115646E+02
 20
-8.20577056E+01
 11
-8.62499945E+01
 21
-8.20577056E+01
  0
LINE
  8
0
  6
CENTER
 62
2
 10
-2.91862946E+02
 20
-2.22057706E+02
 11
-3.10982605E+02
 21
-2.22057706E+02
  0
LINE
  8
0
 62
7
 10
-2.53249969E+02
 20
-2.29809338E+02
 11
-2.53249969E+02
 21
-2.31057706E+02
  0
LINE
  8
0
 62
7
 10
-2.62001312E+02
 20
-2.21057706E+02
 11
-2.63250000E+02
 21
-2.21057706E+02
  0
LINE
  8
0
 62
7
 10
-2.93498413E+02
 20
-2.21057645E+02
 11
-2.92250000E+02
 21
-2.21057645E+02
  0
LINE
  8
0
 62
7
 10
-3.02249969E+02
 20
-2.29809094E+02
 11
-3.02249969E+02
 21
-2.31057706E+02
  0
LINE
  8
0
 62
7
 10
-2.76750000E+02
 20
-2.18557706E+02
 11
-2.76750000E+02
 21
-2.25657971E+02
  0
LINE
  8
0
 62
7
 10
-2.47250061E+02
 20
-2.45557706E+02
 11
-2.47250061E+02
 21
-2.18057690E+02
  0
LINE
  8
0
 62
7
 10
-2.99749969E+02
 20
-2.14557706E+02
 11
-2.99749969E+02
 21
-2.15057690E+02
  0
LINE
  8
0
 62
7
 10
-2.55749969E+02
 20
-2.14557706E+02
 11
-2.55749969E+02
 21
-2.15057690E+02
  0
LINE
  8
0
 62
7
 10
-2.49750061E+02
 20
-2.45557706E+02
 11
-2.49750061E+02
 21
-2.35026318E+02
  0
LINE
  8
0
 62
7
 10
-2.46750031E+02
 20
-2.45557706E+02
 11
-2.46750031E+02
 21
-2.18057690E+02
  0
LINE
  8
0
  6
CENTER
 62
2
 10
-3.01250000E+02
 20
-2.12503979E+02
 11
-3.01250000E+02
 21
-2.29942029E+02
  0
LINE
  8
0
  6
CENTER
 62
2
 10
-2.84749969E+02
 20
-2.12196011E+02
 11
-2.84749969E+02
 21
-2.33786832E+02
  0
LINE
  8
0
 62
7
 10
-1.35008769E+02
 20
-8.82992257E+01
 11
-1.27250070E+02
 21
-8.80282860E+01
  0
LINE
  8
0
 62
7
 10
-1.39750015E+02
 20
-8.85577208E+01
 11
-1.35241455E+02
 21
-8.85577208E+01
  0
LINE
  8
0
 62
7
 10
-1.35250000E+02
 20
-8.85577208E+01
 11
-1.35250000E+02
 21
-1.22557706E+02
  0
LINE
  8
0
 62
7
 10
-1.35008740E+02
 20
-1.22816171E+02
 11
-1.27250041E+02
 21
-1.23087111E+02
  0
LINE
  8
0
 62
7
 10
-1.35250000E+02
 20
-1.22557706E+02
 11
-1.35250000E+02
 21
-1.22566250E+02
  0
LINE
  8
0
 62
7
 10
-1.39750015E+02
 20
-1.22557706E+02
 11
-1.35241455E+02
 21
-1.22557706E+02
  0
LINE
  8
0
  6
CENTER
 62
2
 10
-2.44296875E+02
 20
-2.22057706E+02
 11
-2.63999481E+02
 21
-2.22057706E+02
  0
LINE
  8
0
  6
CENTER
 62
2
 10
-2.54250000E+02
 20
-2.12079434E+02
 11
-2.54250000E+02
 21
-2.31782056E+02
  0
LINE
  8
0
  6
CENTER
 62
2
 10
-2.65749969E+02
 20
-2.12083401E+02
 11
-2.65749969E+02
 21
-2.37895215E+02
  0
LINE
  8
0
 62
7
 10
-3.05250000E+02
 20
-2.14557629E+02
 11
-2.50250092E+02
 21
-2.14557629E+02
  0
LINE
  8
0
 62
7
 10
-1.02982091E+02
 20
-1.17557792E+02
 11
-1.02116067E+02
 21
-1.19057798E+02
  0
LINE
  8
0
 62
7
 10
-1.02116058E+02
 20
-1.19057767E+02
 11
-1.00384064E+02
 21
-1.19057767E+02
  0
LINE
  8
0
 62
7
 10
-1.00384056E+02
 20
-1.19057819E+02
 11
-9.95180012E+01
 21
-1.17557760E+02
  0
LINE
  8
0
 62
7
 10
-9.95180813E+01
 20
-1.17557824E+02
 11
-1.00384090E+02
 21
-1.16057844E+02
  0
LINE
  8
0
 62
7
 10
-1.02116058E+02
 20
-1.16057736E+02
 11
-1.00384064E+02
 21
-1.16057736E+02
  0
LINE
  8
0
 62
7
 10
-1.02982147E+02
 20
-1.17557784E+02
 11
-1.02116108E+02
 21
-1.16057751E+02
  0
LINE
  8
0
 62
7
 10
-1.26750015E+02
 20
-8.65577056E+01
 11
-1.25250000E+02
 21
-8.65577056E+01
  0
LINE
  8
0
 62
7
 10
-1.27250015E+02
 20
-8.70577056E+01
 11
-1.27250015E+02
 21
-1.24057706E+02
  0
LINE
  8
0
  6
CENTER
 62
2
 10
-1.16660202E+02
 20
-9.85577971E+01
 11
-1.05749995E+02
 21
-9.85577971E+01
  0
LINE
  8
0
  6
CENTER
 62
2
 10
-1.07250061E+02
 20
-1.09799832E+02
 11
-1.07250061E+02
 21
-8.62134368E+01
  0
LINE
  8
0
  6
CENTER
 62
2
 10
-1.10095291E+02
 20
-1.17557736E+02
 11
-9.26207886E+01
 21
-1.17557736E+02
  0
LINE
  8
0
  6
CENTER
 62
2
 10
-1.01250031E+02
 20
-1.25028866E+02
 11
-1.01250031E+02
 21
-1.08439862E+02
  0
LINE
  8
0
 62
7
 10
-1.25250003E+02
 20
-7.53431298E+01
 11
-9.42499630E+01
 21
-7.45313652E+01
  0
LINE
  8
0
 62
7
 10
-1.26750015E+02
 20
-1.24557706E+02
 11
-1.25250015E+02
 21
-1.24557706E+02
  0
LINE
  8
0
 62
7
 10
-2.91114277E+02
 20
-2.30779478E+02
 11
-2.95065858E+02
 21
-2.26827898E+02
  0
LINE
  8
0
 62
7
 10
-2.92528501E+02
 20
-2.32193703E+02
 11
-2.96480060E+02
 21
-2.28242144E+02
  0
LINE
  8
0
 62
7
 10
-3.04750000E+02
 20
-2.44557645E+02
 11
-2.97649780E+02
 21
-2.44557645E+02
  0
LINE
  8
0
 62
7
 10
-3.05250000E+02
 20
-2.15057645E+02
 11
-2.50250092E+02
 21
-2.15057690E+02
  0
LINE
  8
0
 62
7
 10
-3.05749969E+02
 20
-2.45557706E+02
 11
-3.05749969E+02
 21
-2.35026318E+02
  0
LINE
  8
0
 62
7
 10
-3.08249969E+02
 20
-2.45557706E+02
 11
-3.08249969E+02
 21
-2.18057690E+02
  0
LINE
  8
0
 62
7
 10
-3.08750000E+02
 20
-2.45557706E+02
 11
-3.08750000E+02
 21
-2.18057690E+02
  0
LINE
  8
0
 62
7
 10
-2.88281403E+02
 20
-2.17557690E+02
 11
-2.67218628E+02
 21
-2.17557690E+02
  0
LINE
  8
0
 62
7
 10
-2.78750000E+02
 20
-2.18557706E+02
 11
-2.78750000E+02
 21
-2.25657971E+02
  0
LINE
  8
0
 62
7
 10
-2.50750092E+02
 20
-2.44557706E+02
 11
-2.57850311E+02
 21
-2.44557706E+02
  0
LINE
  8
0
 62
7
 10
-2.62971799E+02
 20
-2.32193401E+02
 11
-2.59020261E+02
 21
-2.28241864E+02
  0
LINE
  8
0
 62
7
 10
-2.64386002E+02
 20
-2.30779176E+02
 11
-2.60434485E+02
 21
-2.26827661E+02
  0
LINE
  8
0
 62
7
 10
-1.40250000E+02
 20
-8.90577513E+01
 11
-1.40250000E+02
 21
-1.22057675E+02
  0
LINE
  8
0
 62
7
 10
-1.35008783E+02
 20
-2.28299194E+02
 11
-1.27250085E+02
 21
-2.28028254E+02
  0
LINE
  8
0
 62
7
 10
-1.39750015E+02
 20
-2.28557706E+02
 11
-1.35241455E+02
 21
-2.28557706E+02
  0
LINE
  8
0
  6
CENTER
 62
2
 10
-3.14518646E+02
 20
-2.45557706E+02
 11
-2.43757690E+02
 21
-2.45557706E+02
  0
LINE
  8
0
  6
CENTER
 62
2
 10
-2.77749969E+02
 20
-2.11519833E+02
 11
-2.77749969E+02
 21
-2.45557706E+02
  0
LINE
  8
0
 62
7
 10
-3.12750000E+02
 20
-2.26057706E+02
 11
-3.08750000E+02
 21
-2.26057706E+02
  0
LINE
  8
0
 62
7
 10
-3.12749969E+02
 20
-2.45557706E+02
 11
-3.12749969E+02
 21
-2.26057706E+02
  0
LINE
  8
0
 62
7
 10
-1.40250000E+02
 20
-2.29057736E+02
 11
-1.40250000E+02
 21
-2.45557706E+02
  0
LINE
  8
0
 62
7
 10
-3.13149933E+02
 20
-2.38307706E+02
 11
-3.12750000E+02
 21
-2.38307706E+02
  0
LINE
  8
0
  6
CENTER
 62
2
 10
-1.86174408E+02
 20
-2.45557706E+02
 11
-4.31760092E+01
 21
-2.45557706E+02
  0
LINE
  8
0
 62
7
 10
-1.35250000E+02
 20
-2.28557706E+02
 11
-1.35250000E+02
 21
-2.45557706E+02
  0
LINE
  8
0
 62
7
 10
-9.42499970E+01
 20
-2.14557897E+02
 11
-1.24758732E+02
 21
-2.15090434E+02
  0
LINE
  8
0
 62
7
 10
-1.27250015E+02
 20
-2.45557706E+02
 11
-1.27250015E+02
 21
-2.27028271E+02
  0
LINE
  8
0
 62
7
 10
-1.25250000E+02
 20
-2.15590176E+02
 11
-1.25250000E+02
 21
-2.45557706E+02
  0
LINE
  8
0
 62
7
 10
-1.26750061E+02
 20
-2.26557736E+02
 11
-1.25250061E+02
 21
-2.26557736E+02
  0
LINE
  8
0
  6
CENTER
 62
2
 10
-1.07250031E+02
 20
-2.12805310E+02
 11
-1.07250031E+02
 21
-2.23883343E+02
  0
LINE
  8
0
 62
7
 10
-1.20250000E+02
 20
-2.15011655E+02
 11
-1.20250000E+02
 21
-2.14557706E+02
  0
LINE
  8
0
  6
CENTER
 62
2
 10
-2.96082779E+01
 20
-2.22057706E+02
 11
-1.28375732E+02
 21
-2.22057706E+02
  0
LINE
  8
0
 62
7
 10
-1.25250075E+02
 20
-1.35772144E+02
 11
-9.42500203E+01
 21
-1.36583909E+02
  0
LINE
  8
0
 62
7
 10
-1.20250015E+02
 20
-2.14557706E+02
 11
-9.42500000E+01
 21
-2.14557706E+02
  0
LINE
  8
0
 62
7
 10
-1.25250000E+02
 20
-7.53431517E+01
 11
-1.25250000E+02
 21
-1.35772122E+02
  0
LINE
  8
0
  6
CENTER
 62
2
 10
-1.85249451E+02
 20
-1.05557706E+02
 11
-9.07499945E+01
 21
-1.05557706E+02
  0
LINE
  8
0
  6
CENTER
 62
2
 10
-1.29115646E+02
 20
-1.29057706E+02
 11
-5.67437405E+01
 21
-1.29057706E+02
  0
LINE
  8
0
 62
7
 10
-2.80783120E+01
 20
-7.94077269E+01
 11
-7.12499945E+01
 21
-7.94077269E+01
  0
LINE
  8
0
 62
7
 10
-3.11382613E+01
 20
-8.47077147E+01
 11
-7.12499945E+01
 21
-8.47077147E+01
  0
LINE
  8
0
 62
7
 10
-2.75875695E+01
 20
-7.85577361E+01
 11
-7.12499945E+01
 21
-7.85577361E+01
  0
LINE
  8
0
 62
7
 10
-9.42500000E+01
 20
-2.14557706E+02
 11
-9.42500000E+01
 21
-2.45557706E+02
  0
LINE
  8
0
 62
7
 10
-9.42500000E+01
 20
-7.45314452E+01
 11
-9.42500000E+01
 21
-8.67434092E+01
  0
LINE
  8
0
  6
CENTER
 62
2
 10
-5.17499945E+01
 20
-1.05557706E+02
 11
-4.31760092E+01
 21
-1.05557706E+02
  0
LINE
  8
0
  6
CENTER
 62
2
 10
-7.12499945E+01
 20
-8.20577056E+01
 11
-2.96082778E+01
 21
-8.20577056E+01
  0
LINE
  8
0
 62
7
 10
-9.42500000E+01
 20
-1.00743409E+02
 11
-9.42500000E+01
 21
-1.36557706E+02
  0
LINE
  8
0
 62
2
 10
-6.37814482E+01
 20
-1.41247373E+02
 11
-2.48409353E+01
 21
-7.38004261E+01
  0
LINE
  8
0
 62
2
 10
-4.84303771E+01
 20
-2.54658538E+02
 11
-2.48409353E+01
 21
-2.13800426E+02
  0
LINE
  8
0
 62
7
 10
1.86046853E+02
 20
-2.24707715E+02
 11
2.33259976E+02
 21
-2.24707715E+02
  0
LINE
  8
0
 62
7
 10
1.89597545E+02
 20
-2.18557736E+02
 11
2.16759976E+02
 21
-2.18557736E+02
  0
LINE
  8
0
 62
7
 10
1.89106803E+02
 20
-2.19407727E+02
 11
2.33259976E+02
 21
-2.19407727E+02
  0
LINE
  8
0
  6
CENTER
 62
2
 10
3.48184383E+02
 20
-2.45557706E+02
 11
1.74009105E+02
 21
-2.45557706E+02
  0
LINE
  8
0
  6
CENTER
 62
2
 10
1.87576837E+02
 20
-2.22057706E+02
 11
2.33259976E+02
 21
-2.22057706E+02
  0
LINE
  8
0
 62
7
 10
2.56259976E+02
 20
-2.14557706E+02
 11
2.56259976E+02
 21
-2.45557706E+02
  0
LINE
  8
0
 62
7
 10
2.82259991E+02
 20
-2.14557706E+02
 11
2.56259976E+02
 21
-2.14557706E+02
  0
LINE
  8
0
 62
7
 10
2.82259976E+02
 20
-2.15011655E+02
 11
2.82259976E+02
 21
-2.14557706E+02
  0
LINE
  8
0
  6
CENTER
 62
2
 10
2.69260006E+02
 20
-2.12805310E+02
 11
2.69260006E+02
 21
-2.23883343E+02
  0
LINE
  8
0
 62
7
 10
2.88760037E+02
 20
-2.26557736E+02
 11
2.87260037E+02
 21
-2.26557736E+02
  0
LINE
  8
0
 62
7
 10
2.87259976E+02
 20
-2.15590176E+02
 11
2.87259976E+02
 21
-2.45557706E+02
  0
LINE
  8
0
 62
7
 10
2.89259991E+02
 20
-2.45557706E+02
 11
2.89259991E+02
 21
-2.27028271E+02
  0
LINE
  8
0
 62
7
 10
2.56259973E+02
 20
-2.14557897E+02
 11
2.86768708E+02
 21
-2.15090434E+02
  0
LINE
  8
0
 62
7
 10
2.97259976E+02
 20
-2.28557706E+02
 11
2.97259976E+02
 21
-2.45557706E+02
  0
LINE
  8
0
 62
7
 10
3.02259976E+02
 20
-2.29057736E+02
 11
3.02259976E+02
 21
-2.45557706E+02
  0
LINE
  8
0
 62
7
 10
3.01759991E+02
 20
-2.28557706E+02
 11
2.97251431E+02
 21
-2.28557706E+02
  0
LINE
  8
0
 62
7
 10
2.97018759E+02
 20
-2.28299194E+02
 11
2.89260060E+02
 21
-2.28028254E+02
  0
LINE
  8
0
 62
7
 10
3.12259945E+02
 20
-2.36557706E+02
 11
3.12259945E+02
 21
-2.45557706E+02
  0
LINE
  8
0
 62
7
 10
3.09260052E+02
 20
-2.40289853E+02
 11
3.05259991E+02
 21
-2.40289853E+02
  0
LINE
  8
0
 62
2
 10
3.11293631E+02
 20
-2.41744222E+02
 11
3.08759930E+02
 21
-2.45557706E+02
  0
LINE
  8
0
 62
2
 10
3.08759950E+02
 20
-2.45557706E+02
 11
3.05259960E+02
 21
-2.40289857E+02
  0
LINE
  8
0
 62
7
 10
3.09259960E+02
 20
-2.35557675E+02
 11
3.09259960E+02
 21
-2.40289853E+02
  0
LINE
  8
0
 62
7
 10
3.05259991E+02
 20
-2.40289853E+02
 11
3.05259991E+02
 21
-2.45557706E+02
  0
LINE
  8
0
 62
7
 10
3.15259945E+02
 20
-2.45557706E+02
 11
3.15259945E+02
 21
-2.36557706E+02
  0
LINE
  8
0
 62
7
 10
3.44259945E+02
 20
-2.45557706E+02
 11
3.44259945E+02
 21
-2.38057858E+02
  0
LINE
  8
0
 62
7
 10
3.42759945E+02
 20
-2.45557706E+02
 11
3.42759945E+02
 21
-2.36557706E+02
  0
LINE
  8
0
 62
7
 10
3.42759884E+02
 20
-2.36557706E+02
 11
3.35259945E+02
 21
-2.36557706E+02
  0
LINE
  8
0
 62
2
 10
3.43579891E+02
 20
-2.37377713E+02
 11
3.35259945E+02
 21
-2.37377713E+02
  0
LINE
  8
0
 62
7
 10
3.44259891E+02
 20
-2.38057836E+02
 11
3.42759845E+02
 21
-2.36557836E+02
  0
LINE
  8
0
 62
7
 10
3.09260052E+02
 20
-2.35557721E+02
 11
3.02260021E+02
 21
-2.35557721E+02
  0
LINE
  8
0
 62
7
 10
3.12259956E+02
 20
-2.36557708E+02
 11
3.09259967E+02
 21
-2.35557722E+02
  0
LINE
  8
0
 62
7
 10
3.12259930E+02
 20
-2.42435264E+02
 11
3.09259938E+02
 21
-2.40289858E+02
  0
LINE
  8
0
 62
7
 10
3.15259945E+02
 20
-2.37377713E+02
 11
3.12259945E+02
 21
-2.37377713E+02
  0
ARC
  8
0
 62
7
 10
2.88760037E+02
 20
-2.27057706E+02
 40
5.00000000E-01
 50
3.59999913E+02
 51
8.99999085E+01
  0
ARC
  8
0
 62
7
 10
2.86760021E+02
 20
-2.15590176E+02
 40
5.00000000E-01
 50
3.59999913E+02
 51
8.89996961E+01
  0
ARC
  8
0
 62
7
 10
3.01759991E+02
 20
-2.29057736E+02
 40
5.00000000E-01
 50
3.59721787E-05
 51
9.00000179E+01
  0
ARC
  8
0
 62
7
 10
2.97009976E+02
 20
-2.28549161E+02
 40
2.50000000E-01
 50
2.23118003E-05
 51
8.80011768E+01
  0
ARC
  8
0
 62
7
 10
3.13759945E+02
 20
-2.45557706E+02
 40
9.99998474E+00
 50
1.48211648E+02
 51
1.80000000E+02
  0
LINE
  8
0
 62
4
 10
3.34054174E+02
 20
-2.29969248E+02
 11
3.25465716E+02
 21
-2.29969248E+02
  0
LINE
  8
0
 62
4
 10
3.34054174E+02
 20
-2.37763477E+02
 11
3.25465716E+02
 21
-2.37763477E+02
  0
LINE
  8
0
 62
4
 10
3.34054174E+02
 20
-2.29969248E+02
 11
3.35259945E+02
 21
-2.32057706E+02
  0
LINE
  8
0
 62
4
 10
3.25465716E+02
 20
-2.29969248E+02
 11
3.24259945E+02
 21
-2.32057706E+02
  0
ARC
  8
0
 62
4
 10
3.28359224E+02
 20
-2.33866363E+02
 40
6.90072132E+00
 50
3.25615752E+02
 51
3.43842480E+01
  0
ARC
  8
0
 62
4
 10
3.31160666E+02
 20
-2.33866363E+02
 40
6.90072132E+00
 50
1.45615752E+02
 51
2.14384248E+02
  0
ARC
  8
0
 62
4
 10
3.50054173E+02
 20
-2.45557706E+02
 40
2.57942282E+01
 50
1.62412046E+02
 51
1.80000000E+02
  0
ARC
  8
0
 62
4
 10
3.09465717E+02
 20
-2.45557706E+02
 40
2.57942282E+01
 50
2.54444375E-13
 51
1.75879541E+01
  0
LINE
  8
0
 62
4
 10
3.35259945E+02
 20
-2.45557706E+02
 11
3.35259945E+02
 21
-2.32057706E+02
  0
LINE
  8
0
 62
4
 10
3.24259945E+02
 20
-2.45557706E+02
 11
3.24259945E+02
 21
-2.32057706E+02
  0
LINE
  8
0
 62
7
 10
3.24259945E+02
 20
-2.36557706E+02
 11
3.15259945E+02
 21
-2.36557706E+02
  0
LINE
  8
0
 62
2
 10
3.24259945E+02
 20
-2.37377713E+02
 11
3.15259945E+02
 21
-2.37377713E+02
  0
LINE
  8
0
 62
2
 10
1.72129549E+02
 20
-2.48813193E+02
 11
1.92504716E+02
 21
-2.13522369E+02
  0
LINE
  8
0
 62
7
 10
2.49759976E+02
 20
-2.18557736E+02
 11
2.56259976E+02
 21
-2.18557736E+02
  0
LINE
  8
0
 62
7
 10
2.48259976E+02
 20
-2.19407727E+02
 11
2.56259976E+02
 21
-2.19407727E+02
  0
LINE
  8
0
 62
7
 10
2.48259976E+02
 20
-2.24707715E+02
 11
2.56259976E+02
 21
-2.24707715E+02
  0
LINE
  8
0
  6
CENTER
 62
2
 10
2.48259976E+02
 20
-2.22057706E+02
 11
2.90385708E+02
 21
-2.22057706E+02
  0
TEXT
  8
0
 10
-7.61502877E+01
 20
2.29478397E+02
 40
6.30000019E+00
  1
STRETCH LINE
 41
1.05263174E+00
  7
MONOTXT
  0
LINE
  8
0
 62
7
 10
2.79799927E+02
 20
-2.56750000E+02
 11
3.99799805E+02
 21
-2.56750000E+02
  0
LINE
  8
0
 62
7
 10
2.79799927E+02
 20
-2.56750000E+02
 11
2.79799927E+02
 21
-2.76750000E+02
  0
TEXT
  8
0
 62
7
 10
2.87585240E+02
 20
-2.71250000E+02
 40
9.00000000E+00
  1
KOGANEI CORP.
 41
1.04838710E+00
  7
MONOTXT
  0
TEXT
  8
0
 62
7
 10
3.15499641E+02
 20
2.63100000E+02
 40
6.30000019E+00
  1
Ver. 1.0
 41
1.08108124E+00
  7
MONOTXT
  0
LINE
  8
0
 62
7
 10
2.79799927E+02
 20
2.56250000E+02
 11
3.99799805E+02
 21
2.56250000E+02
  0
LINE
  8
0
 62
7
 10
2.79799927E+02
 20
2.76250000E+02
 11
2.79799927E+02
 21
2.56250000E+02
  0
TEXT
  8
0
 62
7
 10
-3.85600562E+02
 20
2.38100000E+02
 40
6.30000019E+00
  1
MODEL:DDAK-HL50*75
 41
1.00000015E+00
  7
MONOTXT
  0
LINE
  8
0
 62
7
 10
-3.99250000E+02
 20
2.56250000E+02
 11
-2.79250000E+02
 21
2.56250000E+02
  0
LINE
  8
0
 62
7
 10
-2.79250000E+02
 20
2.76250000E+02
 11
-2.79250000E+02
 21
2.56250000E+02
  0
TEXT
  8
0
 62
7
 10
-3.91900291E+02
 20
2.63100000E+02
 40
6.30000019E+00
  1
NEW DYNA CYLINDER
 41
1.07594953E+00
  7
MONOTXT
  0
LINE
  8
0
 62
7
 10
-3.99250000E+02
 20
-2.76750000E+02
 11
3.99799805E+02
 21
-2.76750000E+02
  0
LINE
  8
0
 62
7
 10
-3.99250000E+02
 20
2.76250000E+02
 11
3.99799805E+02
 21
2.76250000E+02
  0
LINE
  8
0
 62
7
 10
-3.99250000E+02
 20
2.76250000E+02
 11
-3.99250000E+02
 21
-2.76750000E+02
  0
LINE
  8
0
 62
7
 10
3.99799805E+02
 20
2.76250000E+02
 11
3.99799805E+02
 21
-2.76750000E+02
  0
ENDSEC
  0
EOF
