  0
SECTION
  2
HEADER
  9
$ACADVER
  1
AC1003
  9
$EXTMIN
 10
-3.99250000E+02
 20
-2.76750000E+02
  9
$EXTMAX
 10
3.99799805E+02
 20
2.76250000E+02
  9
$LIMMIN
 10
-3.99251000E+02
 20
-2.76751000E+02
  9
$LIMMAX
 10
3.99800805E+02
 20
2.76251000E+02
  9
$SNAPUNIT
 10
1
 20
1
  9
$SNAPBASE
 10
0
 20
0
  9
$GRIDMODE
 70
0
  9
$GRIDUNIT
 10
0
 20
0
  9
$LTSCALE
 40
1.33174967E+01
  9
$TEXTSIZE
 40
3.2
  9
$DIMTAD
 70
0
  9
$LUNITS
 70
2
  9
$LUPREC
 70
4
  9
$FILLETRAD
 40
0
  9
$AUNITS
 70
0
  9
$AUPREC
 70
0
  0
ENDSEC
  0
SECTION
  2
TABLES
  0
TABLE
  2
LTYPE
 70
2
  0
LTYPE
  2
CONTINUOUS
 70
64
  3
Solid-Line
 72
65
 73
0
 40
0
  0
LTYPE
  2
DASHED
 70
64
  3
DASHED
 72
65
 73
2
 40
.75
 49
.5
 49
-.25
  0
LTYPE
  2
HIDDEN
 70
64
  3
HIDDEN
 72
65
 73
2
 40
.375
 49
.25
 49
-.125
  0
LTYPE
  2
CENTER
 70
64
  3
CENTER
 72
65
 73
4
 40
2
 49
1.25
 49
-.25
 49
.25
 49
-.25
  0
LTYPE
  2
PHANTOM
 70
64
  3
PHANTOM
 72
65
 73
6
 40
2.5
 49
1.25
 49
-.25
 49
.25
 49
-.25
 49
.25
 49
-.25
  0
ENDTAB
  0
TABLE
  2
LAYER
 70
1
  0
LAYER
  2
1
 70
0
 62
7
  6
CONTINUOUS
 0
ENDTAB
  0
TABLE
  2
STYLE
 70
2
  0
STYLE
  2
MONOTXT
 70
0
 40
0
 41
1
 50
0
 71
0
 42
.2
  3
monotxt
  0
STYLE
  2
BIGFONT
 70
0
 40
0
 41
1
 50
0
 71
0
 42
.2
  3
txt
  4
bigfont
  0
ENDTAB
  0
ENDSEC
  0
SECTION
  2
ENTITIES
  0
LINE
  8
0
  6
PHANTOM
 10
-2.92500000E+01
 20
1.38912974E+02
 11
-2.92500000E+01
 21
3.71367846E+01
  0
LINE
  8
0
 62
7
 10
-1.47500000E+01
 20
9.92194555E+01
 11
-8.42500000E+01
 21
9.92194555E+01
  0
LINE
  8
0
 62
7
 10
-1.47500000E+01
 20
1.05369434E+02
 11
-8.42500000E+01
 21
1.05369434E+02
  0
LINE
  8
0
 62
7
 10
-1.47500000E+01
 20
1.04519443E+02
 11
-8.42500000E+01
 21
1.04519443E+02
  0
LINE
  8
0
 62
4
 10
1.67500000E+01
 20
1.10168356E+02
 11
1.67500000E+01
 21
1.07544453E+02
  0
LINE
  8
0
 62
4
 10
1.67500000E+01
 20
1.07544453E+02
 11
1.52500000E+01
 21
1.06542389E+02
  0
LINE
  8
0
 62
4
 10
1.67500000E+01
 20
1.07937766E+02
 11
1.52500000E+01
 21
1.07236981E+02
  0
LINE
  8
0
 62
4
 10
1.52500000E+01
 20
1.11176212E+02
 11
1.67500000E+01
 21
1.10168356E+02
  0
LINE
  8
0
 62
4
 10
-5.58127552E+01
 20
1.11176212E+02
 11
-5.02500000E+01
 21
1.11176212E+02
  0
LINE
  8
0
 62
4
 10
-5.54128770E+01
 20
1.11633887E+02
 11
-4.37500000E+01
 21
1.11633887E+02
  0
LINE
  8
0
  6
CENTER
 62
6
 10
-4.87500000E+01
 20
1.17444252E+02
 11
-5.37500000E+01
 21
1.17444252E+02
  0
LINE
  8
0
  6
CENTER
 62
6
 10
-5.12500000E+01
 20
1.19944252E+02
 11
-5.12500000E+01
 21
1.14944252E+02
  0
LINE
  8
0
  6
CENTER
 62
6
 10
-5.62500000E+01
 20
1.13997425E+02
 11
-6.12500000E+01
 21
1.13997425E+02
  0
LINE
  8
0
  6
CENTER
 62
6
 10
-5.87500000E+01
 20
1.16497425E+02
 11
-5.87500000E+01
 21
1.11497425E+02
  0
LINE
  8
0
  6
CENTER
 62
6
 10
-6.37500000E+01
 20
1.17444252E+02
 11
-6.87500000E+01
 21
1.17444252E+02
  0
LINE
  8
0
  6
CENTER
 62
6
 10
-6.62500000E+01
 20
1.19944252E+02
 11
-6.62500000E+01
 21
1.14944252E+02
  0
POLYLINE
  8
0
 62
4
 66
1
  0
VERTEX
  8
0
 62
4
 10
-6.29000000E+01
 20
1.14063411E+02
  0
VERTEX
  8
0
 62
4
 10
-6.28832933E+01
 20
1.13697059E+02
  0
VERTEX
  8
0
 62
4
 10
-6.28333078E+01
 20
1.13333658E+02
  0
VERTEX
  8
0
 62
4
 10
-6.27504459E+01
 20
1.12976131E+02
  0
VERTEX
  8
0
 62
4
 10
-6.26353747E+01
 20
1.12627359E+02
  0
VERTEX
  8
0
 62
4
 10
-6.24890208E+01
 20
1.12290149E+02
  0
VERTEX
  8
0
 62
4
 10
-6.23125625E+01
 20
1.11967216E+02
  0
VERTEX
  8
0
 62
4
 10
-6.21074205E+01
 20
1.11661161E+02
  0
VERTEX
  8
0
 62
4
 10
-6.18752466E+01
 20
1.11374447E+02
  0
VERTEX
  8
0
 62
4
 10
-6.16179100E+01
 20
1.11109383E+02
  0
VERTEX
  8
0
 62
4
 10
-6.13374827E+01
 20
1.10868103E+02
  0
VERTEX
  8
0
 62
4
 10
-6.10362225E+01
 20
1.10652550E+02
  0
VERTEX
  8
0
 62
4
 10
-6.07165550E+01
 20
1.10464459E+02
  0
VERTEX
  8
0
 62
4
 10
-6.03810539E+01
 20
1.10305345E+02
  0
VERTEX
  8
0
 62
4
 10
-6.00324205E+01
 20
1.10176489E+02
  0
VERTEX
  8
0
 62
4
 10
-5.96734619E+01
 20
1.10078927E+02
  0
VERTEX
  8
0
 62
4
 10
-5.93070681E+01
 20
1.10013447E+02
  0
VERTEX
  8
0
 62
4
 10
-5.89361891E+01
 20
1.09980574E+02
  0
VERTEX
  8
0
 62
4
 10
-5.85638110E+01
 20
1.09980574E+02
  0
VERTEX
  8
0
 62
4
 10
-5.81929320E+01
 20
1.10013447E+02
  0
VERTEX
  8
0
 62
4
 10
-5.78265381E+01
 20
1.10078927E+02
  0
VERTEX
  8
0
 62
4
 10
-5.74675795E+01
 20
1.10176488E+02
  0
VERTEX
  8
0
 62
4
 10
-5.71189461E+01
 20
1.10305345E+02
  0
VERTEX
  8
0
 62
4
 10
-5.67834451E+01
 20
1.10464459E+02
  0
VERTEX
  8
0
 62
4
 10
-5.64637775E+01
 20
1.10652550E+02
  0
VERTEX
  8
0
 62
4
 10
-5.61625173E+01
 20
1.10868103E+02
  0
VERTEX
  8
0
 62
4
 10
-5.58820900E+01
 20
1.11109383E+02
  0
VERTEX
  8
0
 62
4
 10
-5.56247534E+01
 20
1.11374447E+02
  0
VERTEX
  8
0
 62
4
 10
-5.53925795E+01
 20
1.11661161E+02
  0
VERTEX
  8
0
 62
4
 10
-5.51874375E+01
 20
1.11967216E+02
  0
VERTEX
  8
0
 62
4
 10
-5.50109792E+01
 20
1.12290149E+02
  0
VERTEX
  8
0
 62
4
 10
-5.48646253E+01
 20
1.12627359E+02
  0
VERTEX
  8
0
 62
4
 10
-5.47495541E+01
 20
1.12976131E+02
  0
VERTEX
  8
0
 62
4
 10
-5.46666922E+01
 20
1.13333657E+02
  0
VERTEX
  8
0
 62
4
 10
-5.46167067E+01
 20
1.13697059E+02
  0
VERTEX
  8
0
 62
4
 10
-5.46000000E+01
 20
1.14063411E+02
  0
SEQEND
  8
0
  0
POLYLINE
  8
0
 62
4
 66
1
  0
VERTEX
  8
0
 62
4
 10
-5.46000000E+01
 20
1.14369032E+02
  0
VERTEX
  8
0
 62
4
 10
-5.46157920E+01
 20
1.14725233E+02
  0
VERTEX
  8
0
 62
4
 10
-5.46630478E+01
 20
1.15078724E+02
  0
VERTEX
  8
0
 62
4
 10
-5.47414078E+01
 20
1.15426813E+02
  0
VERTEX
  8
0
 62
4
 10
-5.48502756E+01
 20
1.15766852E+02
  0
VERTEX
  8
0
 62
4
 10
-5.49888227E+01
 20
1.16096253E+02
  0
VERTEX
  8
0
 62
4
 10
-5.51559946E+01
 20
1.16412508E+02
  0
VERTEX
  8
0
 62
4
 10
-5.53505190E+01
 20
1.16713211E+02
  0
VERTEX
  8
0
 62
4
 10
-5.55709156E+01
 20
1.16996074E+02
  0
VERTEX
  8
0
 62
4
 10
-5.58155069E+01
 20
1.17258944E+02
  0
VERTEX
  8
0
 62
4
 10
-5.60824314E+01
 20
1.17499819E+02
  0
VERTEX
  8
0
 62
4
 10
-5.63696578E+01
 20
1.17716867E+02
  0
VERTEX
  8
0
 62
4
 10
-5.66750000E+01
 20
1.17908436E+02
  0
VERTEX
  8
0
 62
4
 10
-5.69961342E+01
 20
1.18073069E+02
  0
VERTEX
  8
0
 62
4
 10
-5.73306164E+01
 20
1.18209511E+02
  0
VERTEX
  8
0
 62
4
 10
-5.76759010E+01
 20
1.18316725E+02
  0
VERTEX
  8
0
 62
4
 10
-5.80293601E+01
 20
1.18393894E+02
  0
VERTEX
  8
0
 62
4
 10
-5.83883037E+01
 20
1.18440432E+02
  0
VERTEX
  8
0
 62
4
 10
-5.87500000E+01
 20
1.18455984E+02
  0
VERTEX
  8
0
 62
4
 10
-5.91116963E+01
 20
1.18440432E+02
  0
VERTEX
  8
0
 62
4
 10
-5.94706399E+01
 20
1.18393894E+02
  0
VERTEX
  8
0
 62
4
 10
-5.98240990E+01
 20
1.18316725E+02
  0
VERTEX
  8
0
 62
4
 10
-6.01693836E+01
 20
1.18209511E+02
  0
VERTEX
  8
0
 62
4
 10
-6.05038658E+01
 20
1.18073069E+02
  0
VERTEX
  8
0
 62
4
 10
-6.08250000E+01
 20
1.17908436E+02
  0
VERTEX
  8
0
 62
4
 10
-6.11303422E+01
 20
1.17716867E+02
  0
VERTEX
  8
0
 62
4
 10
-6.14175686E+01
 20
1.17499819E+02
  0
VERTEX
  8
0
 62
4
 10
-6.16844931E+01
 20
1.17258944E+02
  0
VERTEX
  8
0
 62
4
 10
-6.19290844E+01
 20
1.16996074E+02
  0
VERTEX
  8
0
 62
4
 10
-6.21494810E+01
 20
1.16713211E+02
  0
VERTEX
  8
0
 62
4
 10
-6.23440054E+01
 20
1.16412508E+02
  0
VERTEX
  8
0
 62
4
 10
-6.25111773E+01
 20
1.16096253E+02
  0
VERTEX
  8
0
 62
4
 10
-6.26497244E+01
 20
1.15766852E+02
  0
VERTEX
  8
0
 62
4
 10
-6.27585922E+01
 20
1.15426813E+02
  0
VERTEX
  8
0
 62
4
 10
-6.28369522E+01
 20
1.15078724E+02
  0
VERTEX
  8
0
 62
4
 10
-6.28842080E+01
 20
1.14725233E+02
  0
VERTEX
  8
0
 62
4
 10
-6.29000000E+01
 20
1.14369032E+02
  0
VERTEX
  8
0
 62
4
 10
-6.28842080E+01
 20
1.14012831E+02
  0
VERTEX
  8
0
 62
4
 10
-6.28369522E+01
 20
1.13659340E+02
  0
VERTEX
  8
0
 62
4
 10
-6.27585922E+01
 20
1.13311251E+02
  0
VERTEX
  8
0
 62
4
 10
-6.26497244E+01
 20
1.12971212E+02
  0
VERTEX
  8
0
 62
4
 10
-6.25111773E+01
 20
1.12641811E+02
  0
VERTEX
  8
0
 62
4
 10
-6.23440054E+01
 20
1.12325556E+02
  0
VERTEX
  8
0
 62
4
 10
-6.21494810E+01
 20
1.12024853E+02
  0
VERTEX
  8
0
 62
4
 10
-6.19290844E+01
 20
1.11741990E+02
  0
VERTEX
  8
0
 62
4
 10
-6.16844931E+01
 20
1.11479120E+02
  0
VERTEX
  8
0
 62
4
 10
-6.14175686E+01
 20
1.11238245E+02
  0
VERTEX
  8
0
 62
4
 10
-6.11303422E+01
 20
1.11021197E+02
  0
VERTEX
  8
0
 62
4
 10
-6.08250000E+01
 20
1.10829628E+02
  0
VERTEX
  8
0
 62
4
 10
-6.05038658E+01
 20
1.10664995E+02
  0
VERTEX
  8
0
 62
4
 10
-6.01693836E+01
 20
1.10528553E+02
  0
VERTEX
  8
0
 62
4
 10
-5.98240990E+01
 20
1.10421339E+02
  0
VERTEX
  8
0
 62
4
 10
-5.94706399E+01
 20
1.10344170E+02
  0
VERTEX
  8
0
 62
4
 10
-5.91116963E+01
 20
1.10297632E+02
  0
VERTEX
  8
0
 62
4
 10
-5.87500000E+01
 20
1.10282080E+02
  0
VERTEX
  8
0
 62
4
 10
-5.83883037E+01
 20
1.10297632E+02
  0
VERTEX
  8
0
 62
4
 10
-5.80293601E+01
 20
1.10344170E+02
  0
VERTEX
  8
0
 62
4
 10
-5.76759010E+01
 20
1.10421339E+02
  0
VERTEX
  8
0
 62
4
 10
-5.73306164E+01
 20
1.10528553E+02
  0
VERTEX
  8
0
 62
4
 10
-5.69961342E+01
 20
1.10664995E+02
  0
VERTEX
  8
0
 62
4
 10
-5.66750000E+01
 20
1.10829628E+02
  0
VERTEX
  8
0
 62
4
 10
-5.63696578E+01
 20
1.11021197E+02
  0
VERTEX
  8
0
 62
4
 10
-5.60824314E+01
 20
1.11238245E+02
  0
VERTEX
  8
0
 62
4
 10
-5.58155069E+01
 20
1.11479120E+02
  0
VERTEX
  8
0
 62
4
 10
-5.55709156E+01
 20
1.11741990E+02
  0
VERTEX
  8
0
 62
4
 10
-5.53505190E+01
 20
1.12024853E+02
  0
VERTEX
  8
0
 62
4
 10
-5.51559946E+01
 20
1.12325556E+02
  0
VERTEX
  8
0
 62
4
 10
-5.49888227E+01
 20
1.12641811E+02
  0
VERTEX
  8
0
 62
4
 10
-5.48502756E+01
 20
1.12971212E+02
  0
VERTEX
  8
0
 62
4
 10
-5.47414078E+01
 20
1.13311251E+02
  0
VERTEX
  8
0
 62
4
 10
-5.46630478E+01
 20
1.13659340E+02
  0
VERTEX
  8
0
 62
4
 10
-5.46157920E+01
 20
1.14012831E+02
  0
VERTEX
  8
0
 62
4
 10
-5.46000000E+01
 20
1.14369032E+02
  0
SEQEND
  8
0
  0
LINE
  8
0
 62
4
 10
-6.29000000E+01
 20
1.14063411E+02
 11
-6.29000000E+01
 21
1.14369032E+02
  0
LINE
  8
0
 62
4
 10
-5.46000000E+01
 20
1.14063411E+02
 11
-5.46000000E+01
 21
1.14369032E+02
  0
ARC
  8
0
 62
4
 10
7.36228232E+01
 20
-1.99304607E+01
 40
1.88658103E+02
 50
1.33811210E+02
 51
1.35318357E+02
  0
ARC
  8
0
 62
4
 10
-1.91122535E+02
 20
-1.99301677E+01
 40
1.88657692E+02
 50
4.46816411E+01
 51
4.61887918E+01
  0
LINE
  8
0
 62
4
 10
-5.50500000E+01
 20
1.17444252E+02
 11
-5.50500000E+01
 21
1.17617900E+02
  0
POLYLINE
  8
0
 62
4
 66
1
  0
VERTEX
  8
0
 62
4
 10
-5.50500000E+01
 20
1.17444252E+02
  0
VERTEX
  8
0
 62
4
 10
-5.50347023E+01
 20
1.17108798E+02
  0
VERTEX
  8
0
 62
4
 10
-5.49889325E+01
 20
1.16776044E+02
  0
VERTEX
  8
0
 62
4
 10
-5.49130589E+01
 20
1.16448670E+02
  0
VERTEX
  8
0
 62
4
 10
-5.48076925E+01
 20
1.16129313E+02
  0
VERTEX
  8
0
 62
4
 10
-5.46736817E+01
 20
1.15820542E+02
  0
VERTEX
  8
0
 62
4
 10
-5.45121054E+01
 20
1.15524845E+02
  0
VERTEX
  8
0
 62
4
 10
-5.43242646E+01
 20
1.15244601E+02
  0
VERTEX
  8
0
 62
4
 10
-5.41116716E+01
 20
1.14982068E+02
  0
VERTEX
  8
0
 62
4
 10
-5.38760381E+01
 20
1.14739359E+02
  0
VERTEX
  8
0
 62
4
 10
-5.36192613E+01
 20
1.14518428E+02
  0
VERTEX
  8
0
 62
4
 10
-5.33434086E+01
 20
1.14321054E+02
  0
VERTEX
  8
0
 62
4
 10
-5.30507009E+01
 20
1.14148826E+02
  0
VERTEX
  8
0
 62
4
 10
-5.27434951E+01
 20
1.14003131E+02
  0
VERTEX
  8
0
 62
4
 10
-5.24242646E+01
 20
1.13885142E+02
  0
VERTEX
  8
0
 62
4
 10
-5.20955796E+01
 20
1.13795809E+02
  0
VERTEX
  8
0
 62
4
 10
-5.17600864E+01
 20
1.13735851E+02
  0
VERTEX
  8
0
 62
4
 10
-5.14204864E+01
 20
1.13705751E+02
  0
VERTEX
  8
0
 62
4
 10
-5.10795137E+01
 20
1.13705751E+02
  0
VERTEX
  8
0
 62
4
 10
-5.07399136E+01
 20
1.13735851E+02
  0
VERTEX
  8
0
 62
4
 10
-5.04044205E+01
 20
1.13795809E+02
  0
VERTEX
  8
0
 62
4
 10
-5.00757354E+01
 20
1.13885142E+02
  0
VERTEX
  8
0
 62
4
 10
-4.97565049E+01
 20
1.14003131E+02
  0
VERTEX
  8
0
 62
4
 10
-4.94492991E+01
 20
1.14148826E+02
  0
VERTEX
  8
0
 62
4
 10
-4.91565915E+01
 20
1.14321054E+02
  0
VERTEX
  8
0
 62
4
 10
-4.88807388E+01
 20
1.14518428E+02
  0
VERTEX
  8
0
 62
4
 10
-4.86239619E+01
 20
1.14739359E+02
  0
VERTEX
  8
0
 62
4
 10
-4.83883284E+01
 20
1.14982068E+02
  0
VERTEX
  8
0
 62
4
 10
-4.81757354E+01
 20
1.15244601E+02
  0
VERTEX
  8
0
 62
4
 10
-4.79878946E+01
 20
1.15524845E+02
  0
VERTEX
  8
0
 62
4
 10
-4.78263183E+01
 20
1.15820542E+02
  0
VERTEX
  8
0
 62
4
 10
-4.76923075E+01
 20
1.16129313E+02
  0
VERTEX
  8
0
 62
4
 10
-4.75869411E+01
 20
1.16448670E+02
  0
VERTEX
  8
0
 62
4
 10
-4.75110675E+01
 20
1.16776044E+02
  0
VERTEX
  8
0
 62
4
 10
-4.74652977E+01
 20
1.17108798E+02
  0
VERTEX
  8
0
 62
4
 10
-4.74500000E+01
 20
1.17444252E+02
  0
SEQEND
  8
0
  0
POLYLINE
  8
0
 62
4
 66
1
  0
VERTEX
  8
0
 62
4
 10
-5.50500000E+01
 20
1.17617900E+02
  0
VERTEX
  8
0
 62
4
 10
-5.50355399E+01
 20
1.17291740E+02
  0
VERTEX
  8
0
 62
4
 10
-5.49922695E+01
 20
1.16968062E+02
  0
VERTEX
  8
0
 62
4
 10
-5.49205182E+01
 20
1.16649329E+02
  0
VERTEX
  8
0
 62
4
 10
-5.48208320E+01
 20
1.16337968E+02
  0
VERTEX
  8
0
 62
4
 10
-5.46939696E+01
 20
1.16036349E+02
  0
VERTEX
  8
0
 62
4
 10
-5.45408966E+01
 20
1.15746765E+02
  0
VERTEX
  8
0
 62
4
 10
-5.43627778E+01
 20
1.15471422E+02
  0
VERTEX
  8
0
 62
4
 10
-5.41609689E+01
 20
1.15212416E+02
  0
VERTEX
  8
0
 62
4
 10
-5.39370058E+01
 20
1.14971716E+02
  0
VERTEX
  8
0
 62
4
 10
-5.36925929E+01
 20
1.14751155E+02
  0
VERTEX
  8
0
 62
4
 10
-5.34295905E+01
 20
1.14552412E+02
  0
VERTEX
  8
0
 62
4
 10
-5.31500000E+01
 20
1.14377000E+02
  0
VERTEX
  8
0
 62
4
 10
-5.28559494E+01
 20
1.14226252E+02
  0
VERTEX
  8
0
 62
4
 10
-5.25496766E+01
 20
1.14101317E+02
  0
VERTEX
  8
0
 62
4
 10
-5.22335124E+01
 20
1.14003145E+02
  0
VERTEX
  8
0
 62
4
 10
-5.19098631E+01
 20
1.13932484E+02
  0
VERTEX
  8
0
 62
4
 10
-5.15811918E+01
 20
1.13889871E+02
  0
VERTEX
  8
0
 62
4
 10
-5.12500000E+01
 20
1.13875631E+02
  0
VERTEX
  8
0
 62
4
 10
-5.09188082E+01
 20
1.13889871E+02
  0
VERTEX
  8
0
 62
4
 10
-5.05901369E+01
 20
1.13932484E+02
  0
VERTEX
  8
0
 62
4
 10
-5.02664876E+01
 20
1.14003145E+02
  0
VERTEX
  8
0
 62
4
 10
-4.99503235E+01
 20
1.14101317E+02
  0
VERTEX
  8
0
 62
4
 10
-4.96440506E+01
 20
1.14226252E+02
  0
VERTEX
  8
0
 62
4
 10
-4.93500000E+01
 20
1.14377000E+02
  0
VERTEX
  8
0
 62
4
 10
-4.90704095E+01
 20
1.14552412E+02
  0
VERTEX
  8
0
 62
4
 10
-4.88074071E+01
 20
1.14751155E+02
  0
VERTEX
  8
0
 62
4
 10
-4.85629942E+01
 20
1.14971716E+02
  0
VERTEX
  8
0
 62
4
 10
-4.83390311E+01
 20
1.15212416E+02
  0
VERTEX
  8
0
 62
4
 10
-4.81372222E+01
 20
1.15471422E+02
  0
VERTEX
  8
0
 62
4
 10
-4.79591034E+01
 20
1.15746765E+02
  0
VERTEX
  8
0
 62
4
 10
-4.78060304E+01
 20
1.16036349E+02
  0
VERTEX
  8
0
 62
4
 10
-4.76791680E+01
 20
1.16337968E+02
  0
VERTEX
  8
0
 62
4
 10
-4.75794818E+01
 20
1.16649329E+02
  0
VERTEX
  8
0
 62
4
 10
-4.75077305E+01
 20
1.16968062E+02
  0
VERTEX
  8
0
 62
4
 10
-4.74644601E+01
 20
1.17291740E+02
  0
VERTEX
  8
0
 62
4
 10
-4.74500000E+01
 20
1.17617900E+02
  0
VERTEX
  8
0
 62
4
 10
-4.74644601E+01
 20
1.17944060E+02
  0
VERTEX
  8
0
 62
4
 10
-4.75077305E+01
 20
1.18267738E+02
  0
VERTEX
  8
0
 62
4
 10
-4.75794818E+01
 20
1.18586471E+02
  0
VERTEX
  8
0
 62
4
 10
-4.76791680E+01
 20
1.18897832E+02
  0
VERTEX
  8
0
 62
4
 10
-4.78060304E+01
 20
1.19199451E+02
  0
VERTEX
  8
0
 62
4
 10
-4.79591034E+01
 20
1.19489035E+02
  0
VERTEX
  8
0
 62
4
 10
-4.81372222E+01
 20
1.19764378E+02
  0
VERTEX
  8
0
 62
4
 10
-4.83390311E+01
 20
1.20023384E+02
  0
VERTEX
  8
0
 62
4
 10
-4.85629942E+01
 20
1.20264084E+02
  0
VERTEX
  8
0
 62
4
 10
-4.88074071E+01
 20
1.20484645E+02
  0
VERTEX
  8
0
 62
4
 10
-4.90704095E+01
 20
1.20683388E+02
  0
VERTEX
  8
0
 62
4
 10
-4.93500000E+01
 20
1.20858800E+02
  0
VERTEX
  8
0
 62
4
 10
-4.96440506E+01
 20
1.21009548E+02
  0
VERTEX
  8
0
 62
4
 10
-4.99503234E+01
 20
1.21134483E+02
  0
VERTEX
  8
0
 62
4
 10
-5.02664876E+01
 20
1.21232655E+02
  0
VERTEX
  8
0
 62
4
 10
-5.05901369E+01
 20
1.21303316E+02
  0
VERTEX
  8
0
 62
4
 10
-5.09188082E+01
 20
1.21345929E+02
  0
VERTEX
  8
0
 62
4
 10
-5.12500000E+01
 20
1.21360169E+02
  0
VERTEX
  8
0
 62
4
 10
-5.15811918E+01
 20
1.21345929E+02
  0
VERTEX
  8
0
 62
4
 10
-5.19098631E+01
 20
1.21303316E+02
  0
VERTEX
  8
0
 62
4
 10
-5.22335124E+01
 20
1.21232655E+02
  0
VERTEX
  8
0
 62
4
 10
-5.25496766E+01
 20
1.21134483E+02
  0
VERTEX
  8
0
 62
4
 10
-5.28559494E+01
 20
1.21009548E+02
  0
VERTEX
  8
0
 62
4
 10
-5.31500000E+01
 20
1.20858800E+02
  0
VERTEX
  8
0
 62
4
 10
-5.34295905E+01
 20
1.20683388E+02
  0
VERTEX
  8
0
 62
4
 10
-5.36925929E+01
 20
1.20484645E+02
  0
VERTEX
  8
0
 62
4
 10
-5.39370058E+01
 20
1.20264084E+02
  0
VERTEX
  8
0
 62
4
 10
-5.41609689E+01
 20
1.20023384E+02
  0
VERTEX
  8
0
 62
4
 10
-5.43627778E+01
 20
1.19764378E+02
  0
VERTEX
  8
0
 62
4
 10
-5.45408966E+01
 20
1.19489035E+02
  0
VERTEX
  8
0
 62
4
 10
-5.46939696E+01
 20
1.19199451E+02
  0
VERTEX
  8
0
 62
4
 10
-5.48208320E+01
 20
1.18897832E+02
  0
VERTEX
  8
0
 62
4
 10
-5.49205182E+01
 20
1.18586471E+02
  0
VERTEX
  8
0
 62
4
 10
-5.49922695E+01
 20
1.18267738E+02
  0
VERTEX
  8
0
 62
4
 10
-5.50355399E+01
 20
1.17944060E+02
  0
VERTEX
  8
0
 62
4
 10
-5.50500000E+01
 20
1.17617900E+02
  0
SEQEND
  8
0
  0
LINE
  8
0
 62
4
 10
-4.74500000E+01
 20
1.17444252E+02
 11
-4.74500000E+01
 21
1.17617900E+02
  0
LINE
  8
0
 62
4
 10
-5.46500000E+01
 20
1.17617900E+02
 11
-5.46500000E+01
 21
1.17814262E+02
  0
POLYLINE
  8
0
 62
4
 66
1
  0
VERTEX
  8
0
 62
4
 10
-5.46500000E+01
 20
1.17617900E+02
  0
VERTEX
  8
0
 62
4
 10
-5.46363126E+01
 20
1.17317757E+02
  0
VERTEX
  8
0
 62
4
 10
-5.45953606E+01
 20
1.17020030E+02
  0
VERTEX
  8
0
 62
4
 10
-5.45274738E+01
 20
1.16727117E+02
  0
VERTEX
  8
0
 62
4
 10
-5.44331986E+01
 20
1.16441375E+02
  0
VERTEX
  8
0
 62
4
 10
-5.43132942E+01
 20
1.16165107E+02
  0
VERTEX
  8
0
 62
4
 10
-5.41687259E+01
 20
1.15900536E+02
  0
VERTEX
  8
0
 62
4
 10
-5.40006578E+01
 20
1.15649791E+02
  0
VERTEX
  8
0
 62
4
 10
-5.38104430E+01
 20
1.15414893E+02
  0
VERTEX
  8
0
 62
4
 10
-5.35996130E+01
 20
1.15197732E+02
  0
VERTEX
  8
0
 62
4
 10
-5.33698654E+01
 20
1.15000057E+02
  0
VERTEX
  8
0
 62
4
 10
-5.31230498E+01
 20
1.14823460E+02
  0
VERTEX
  8
0
 62
4
 10
-5.28611535E+01
 20
1.14669361E+02
  0
VERTEX
  8
0
 62
4
 10
-5.25862851E+01
 20
1.14539003E+02
  0
VERTEX
  8
0
 62
4
 10
-5.23006578E+01
 20
1.14433433E+02
  0
VERTEX
  8
0
 62
4
 10
-5.20065712E+01
 20
1.14353504E+02
  0
VERTEX
  8
0
 62
4
 10
-5.17063931E+01
 20
1.14299857E+02
  0
VERTEX
  8
0
 62
4
 10
-5.14025404E+01
 20
1.14272925E+02
  0
VERTEX
  8
0
 62
4
 10
-5.10974596E+01
 20
1.14272925E+02
  0
VERTEX
  8
0
 62
4
 10
-5.07936069E+01
 20
1.14299857E+02
  0
VERTEX
  8
0
 62
4
 10
-5.04934288E+01
 20
1.14353504E+02
  0
VERTEX
  8
0
 62
4
 10
-5.01993422E+01
 20
1.14433433E+02
  0
VERTEX
  8
0
 62
4
 10
-4.99137149E+01
 20
1.14539003E+02
  0
VERTEX
  8
0
 62
4
 10
-4.96388466E+01
 20
1.14669361E+02
  0
VERTEX
  8
0
 62
4
 10
-4.93769503E+01
 20
1.14823460E+02
  0
VERTEX
  8
0
 62
4
 10
-4.91301347E+01
 20
1.15000057E+02
  0
VERTEX
  8
0
 62
4
 10
-4.89003870E+01
 20
1.15197732E+02
  0
VERTEX
  8
0
 62
4
 10
-4.86895570E+01
 20
1.15414893E+02
  0
VERTEX
  8
0
 62
4
 10
-4.84993422E+01
 20
1.15649791E+02
  0
VERTEX
  8
0
 62
4
 10
-4.83312741E+01
 20
1.15900536E+02
  0
VERTEX
  8
0
 62
4
 10
-4.81867058E+01
 20
1.16165107E+02
  0
VERTEX
  8
0
 62
4
 10
-4.80668014E+01
 20
1.16441375E+02
  0
VERTEX
  8
0
 62
4
 10
-4.79725263E+01
 20
1.16727116E+02
  0
VERTEX
  8
0
 62
4
 10
-4.79046394E+01
 20
1.17020030E+02
  0
VERTEX
  8
0
 62
4
 10
-4.78636874E+01
 20
1.17317757E+02
  0
VERTEX
  8
0
 62
4
 10
-4.78500000E+01
 20
1.17617900E+02
  0
SEQEND
  8
0
  0
POLYLINE
  8
0
 62
4
 66
1
  0
VERTEX
  8
0
 62
4
 10
-5.46500000E+01
 20
1.17814262E+02
  0
VERTEX
  8
0
 62
4
 10
-5.46370620E+01
 20
1.17522434E+02
  0
VERTEX
  8
0
 62
4
 10
-5.45983464E+01
 20
1.17232828E+02
  0
VERTEX
  8
0
 62
4
 10
-5.45341478E+01
 20
1.16947646E+02
  0
VERTEX
  8
0
 62
4
 10
-5.44449549E+01
 20
1.16669060E+02
  0
VERTEX
  8
0
 62
4
 10
-5.43314465E+01
 20
1.16399190E+02
  0
VERTEX
  8
0
 62
4
 10
-5.41944864E+01
 20
1.16140089E+02
  0
VERTEX
  8
0
 62
4
 10
-5.40351170E+01
 20
1.15893729E+02
  0
VERTEX
  8
0
 62
4
 10
-5.38545511E+01
 20
1.15661986E+02
  0
VERTEX
  8
0
 62
4
 10
-5.36541631E+01
 20
1.15446623E+02
  0
VERTEX
  8
0
 62
4
 10
-5.34354779E+01
 20
1.15249280E+02
  0
VERTEX
  8
0
 62
4
 10
-5.32001599E+01
 20
1.15071457E+02
  0
VERTEX
  8
0
 62
4
 10
-5.29500000E+01
 20
1.14914509E+02
  0
VERTEX
  8
0
 62
4
 10
-5.26869021E+01
 20
1.14779629E+02
  0
VERTEX
  8
0
 62
4
 10
-5.24128685E+01
 20
1.14667845E+02
  0
VERTEX
  8
0
 62
4
 10
-5.21299848E+01
 20
1.14580007E+02
  0
VERTEX
  8
0
 62
4
 10
-5.18404038E+01
 20
1.14516784E+02
  0
VERTEX
  8
0
 62
4
 10
-5.15463295E+01
 20
1.14478657E+02
  0
VERTEX
  8
0
 62
4
 10
-5.12500000E+01
 20
1.14465915E+02
  0
VERTEX
  8
0
 62
4
 10
-5.09536705E+01
 20
1.14478657E+02
  0
VERTEX
  8
0
 62
4
 10
-5.06595962E+01
 20
1.14516784E+02
  0
VERTEX
  8
0
 62
4
 10
-5.03700152E+01
 20
1.14580007E+02
  0
VERTEX
  8
0
 62
4
 10
-5.00871315E+01
 20
1.14667845E+02
  0
VERTEX
  8
0
 62
4
 10
-4.98130979E+01
 20
1.14779629E+02
  0
VERTEX
  8
0
 62
4
 10
-4.95500000E+01
 20
1.14914509E+02
  0
VERTEX
  8
0
 62
4
 10
-4.92998401E+01
 20
1.15071457E+02
  0
VERTEX
  8
0
 62
4
 10
-4.90645221E+01
 20
1.15249280E+02
  0
VERTEX
  8
0
 62
4
 10
-4.88458369E+01
 20
1.15446623E+02
  0
VERTEX
  8
0
 62
4
 10
-4.86454489E+01
 20
1.15661986E+02
  0
VERTEX
  8
0
 62
4
 10
-4.84648830E+01
 20
1.15893729E+02
  0
VERTEX
  8
0
 62
4
 10
-4.83055136E+01
 20
1.16140089E+02
  0
VERTEX
  8
0
 62
4
 10
-4.81685535E+01
 20
1.16399190E+02
  0
VERTEX
  8
0
 62
4
 10
-4.80550451E+01
 20
1.16669060E+02
  0
VERTEX
  8
0
 62
4
 10
-4.79658522E+01
 20
1.16947646E+02
  0
VERTEX
  8
0
 62
4
 10
-4.79016536E+01
 20
1.17232828E+02
  0
VERTEX
  8
0
 62
4
 10
-4.78629380E+01
 20
1.17522434E+02
  0
VERTEX
  8
0
 62
4
 10
-4.78500000E+01
 20
1.17814262E+02
  0
VERTEX
  8
0
 62
4
 10
-4.78629380E+01
 20
1.18106090E+02
  0
VERTEX
  8
0
 62
4
 10
-4.79016536E+01
 20
1.18395696E+02
  0
VERTEX
  8
0
 62
4
 10
-4.79658522E+01
 20
1.18680878E+02
  0
VERTEX
  8
0
 62
4
 10
-4.80550451E+01
 20
1.18959464E+02
  0
VERTEX
  8
0
 62
4
 10
-4.81685535E+01
 20
1.19229334E+02
  0
VERTEX
  8
0
 62
4
 10
-4.83055136E+01
 20
1.19488435E+02
  0
VERTEX
  8
0
 62
4
 10
-4.84648830E+01
 20
1.19734795E+02
  0
VERTEX
  8
0
 62
4
 10
-4.86454489E+01
 20
1.19966538E+02
  0
VERTEX
  8
0
 62
4
 10
-4.88458369E+01
 20
1.20181901E+02
  0
VERTEX
  8
0
 62
4
 10
-4.90645221E+01
 20
1.20379244E+02
  0
VERTEX
  8
0
 62
4
 10
-4.92998401E+01
 20
1.20557067E+02
  0
VERTEX
  8
0
 62
4
 10
-4.95500000E+01
 20
1.20714015E+02
  0
VERTEX
  8
0
 62
4
 10
-4.98130979E+01
 20
1.20848895E+02
  0
VERTEX
  8
0
 62
4
 10
-5.00871315E+01
 20
1.20960679E+02
  0
VERTEX
  8
0
 62
4
 10
-5.03700152E+01
 20
1.21048517E+02
  0
VERTEX
  8
0
 62
4
 10
-5.06595962E+01
 20
1.21111740E+02
  0
VERTEX
  8
0
 62
4
 10
-5.09536705E+01
 20
1.21149867E+02
  0
VERTEX
  8
0
 62
4
 10
-5.12500000E+01
 20
1.21162609E+02
  0
VERTEX
  8
0
 62
4
 10
-5.15463295E+01
 20
1.21149867E+02
  0
VERTEX
  8
0
 62
4
 10
-5.18404038E+01
 20
1.21111740E+02
  0
VERTEX
  8
0
 62
4
 10
-5.21299848E+01
 20
1.21048517E+02
  0
VERTEX
  8
0
 62
4
 10
-5.24128685E+01
 20
1.20960679E+02
  0
VERTEX
  8
0
 62
4
 10
-5.26869021E+01
 20
1.20848895E+02
  0
VERTEX
  8
0
 62
4
 10
-5.29500000E+01
 20
1.20714015E+02
  0
VERTEX
  8
0
 62
4
 10
-5.32001599E+01
 20
1.20557067E+02
  0
VERTEX
  8
0
 62
4
 10
-5.34354779E+01
 20
1.20379244E+02
  0
VERTEX
  8
0
 62
4
 10
-5.36541631E+01
 20
1.20181901E+02
  0
VERTEX
  8
0
 62
4
 10
-5.38545511E+01
 20
1.19966538E+02
  0
VERTEX
  8
0
 62
4
 10
-5.40351170E+01
 20
1.19734795E+02
  0
VERTEX
  8
0
 62
4
 10
-5.41944864E+01
 20
1.19488435E+02
  0
VERTEX
  8
0
 62
4
 10
-5.43314465E+01
 20
1.19229334E+02
  0
VERTEX
  8
0
 62
4
 10
-5.44449549E+01
 20
1.18959464E+02
  0
VERTEX
  8
0
 62
4
 10
-5.45341478E+01
 20
1.18680878E+02
  0
VERTEX
  8
0
 62
4
 10
-5.45983464E+01
 20
1.18395696E+02
  0
VERTEX
  8
0
 62
4
 10
-5.46370620E+01
 20
1.18106090E+02
  0
VERTEX
  8
0
 62
4
 10
-5.46500000E+01
 20
1.17814262E+02
  0
SEQEND
  8
0
  0
LINE
  8
0
 62
4
 10
-4.78500000E+01
 20
1.17617900E+02
 11
-4.78500000E+01
 21
1.17814262E+02
  0
ARC
  8
0
 62
4
 10
7.99314687E+01
 20
-1.51935003E+01
 40
1.86971513E+02
 50
1.33801123E+02
 51
1.35321779E+02
  0
ARC
  8
0
 62
4
 10
-1.82431469E+02
 20
-1.51935003E+01
 40
1.86971513E+02
 50
4.46782203E+01
 51
4.61988768E+01
  0
LINE
  8
0
 62
4
 10
-7.37500000E+01
 20
1.07103771E+02
 11
-7.37500000E+01
 21
1.05369434E+02
  0
LINE
  8
0
 62
4
 10
-7.37500000E+01
 20
1.11176212E+02
 11
-7.37500000E+01
 21
1.07103771E+02
  0
LINE
  8
0
 62
4
 10
-7.37500000E+01
 20
1.11633887E+02
 11
-6.20871230E+01
 21
1.11633887E+02
  0
LINE
  8
0
 62
4
 10
-7.37500000E+01
 20
1.07236981E+02
 11
-5.02500000E+01
 21
1.07236981E+02
  0
LINE
  8
0
 62
4
 10
-7.37500000E+01
 20
1.11176212E+02
 11
-6.16872448E+01
 21
1.11176212E+02
  0
LINE
  8
0
 62
4
 10
-7.52500000E+01
 20
1.07544453E+02
 11
-7.37500000E+01
 21
1.06542389E+02
  0
LINE
  8
0
 62
4
 10
-7.52500000E+01
 20
1.07937766E+02
 11
-7.37500000E+01
 21
1.07236981E+02
  0
LINE
  8
0
 62
4
 10
-7.52500000E+01
 20
1.10168356E+02
 11
-7.52500000E+01
 21
1.07544453E+02
  0
LINE
  8
0
 62
4
 10
-7.37500000E+01
 20
1.11176212E+02
 11
-7.52500000E+01
 21
1.10168356E+02
  0
LINE
  8
0
 62
4
 10
-7.37500000E+01
 20
1.07103771E+02
 11
-4.37500000E+01
 21
1.07103771E+02
  0
LINE
  8
0
 62
4
 10
-7.37500000E+01
 20
1.06118963E+02
 11
-4.37500000E+01
 21
1.06118963E+02
  0
LINE
  8
0
 62
4
 10
-7.37500000E+01
 20
1.21875887E+02
 11
-4.37500000E+01
 21
1.21875887E+02
  0
POLYLINE
  8
0
 62
4
 66
1
  0
VERTEX
  8
0
 62
4
 10
-9.25000000E+00
 20
9.76996091E+01
  0
VERTEX
  8
0
 62
4
 10
-9.25805141E+00
 20
9.78761641E+01
  0
VERTEX
  8
0
 62
4
 10
-9.28214082E+00
 20
9.80512975E+01
  0
VERTEX
  8
0
 62
4
 10
-9.32207427E+00
 20
9.82235994E+01
  0
VERTEX
  8
0
 62
4
 10
-9.37753025E+00
 20
9.83916824E+01
  0
VERTEX
  8
0
 62
4
 10
-9.44806226E+00
 20
9.85541932E+01
  0
VERTEX
  8
0
 62
4
 10
-9.53310240E+00
 20
9.87098235E+01
  0
VERTEX
  8
0
 62
4
 10
-9.63196600E+00
 20
9.88573200E+01
  0
VERTEX
  8
0
 62
4
 10
-9.74385706E+00
 20
9.89954954E+01
  0
VERTEX
  8
0
 62
4
 10
-9.86787469E+00
 20
9.91232371E+01
  0
VERTEX
  8
0
 62
4
 10
-1.00030204E+01
 20
9.92395165E+01
  0
VERTEX
  8
0
 62
4
 10
-1.01482060E+01
 20
9.93433975E+01
  0
VERTEX
  8
0
 62
4
 10
-1.03022627E+01
 20
9.94340437E+01
  0
VERTEX
  8
0
 62
4
 10
-1.04639499E+01
 20
9.95107253E+01
  0
VERTEX
  8
0
 62
4
 10
-1.06319660E+01
 20
9.95728248E+01
  0
VERTEX
  8
0
 62
4
 10
-1.08049581E+01
 20
9.96198422E+01
  0
VERTEX
  8
0
 62
4
 10
-1.09815335E+01
 20
9.96513991E+01
  0
VERTEX
  8
0
 62
4
 10
-1.11602703E+01
 20
9.96672413E+01
  0
VERTEX
  8
0
 62
4
 10
-1.13397296E+01
 20
9.96672413E+01
  0
VERTEX
  8
0
 62
4
 10
-1.15184665E+01
 20
9.96513991E+01
  0
VERTEX
  8
0
 62
4
 10
-1.16950419E+01
 20
9.96198422E+01
  0
VERTEX
  8
0
 62
4
 10
-1.18680340E+01
 20
9.95728248E+01
  0
VERTEX
  8
0
 62
4
 10
-1.20360500E+01
 20
9.95107253E+01
  0
VERTEX
  8
0
 62
4
 10
-1.21977373E+01
 20
9.94340437E+01
  0
VERTEX
  8
0
 62
4
 10
-1.23517939E+01
 20
9.93433975E+01
  0
VERTEX
  8
0
 62
4
 10
-1.24969796E+01
 20
9.92395165E+01
  0
VERTEX
  8
0
 62
4
 10
-1.26321253E+01
 20
9.91232371E+01
  0
VERTEX
  8
0
 62
4
 10
-1.27561429E+01
 20
9.89954954E+01
  0
VERTEX
  8
0
 62
4
 10
-1.28680340E+01
 20
9.88573201E+01
  0
VERTEX
  8
0
 62
4
 10
-1.29668976E+01
 20
9.87098235E+01
  0
VERTEX
  8
0
 62
4
 10
-1.30519377E+01
 20
9.85541933E+01
  0
VERTEX
  8
0
 62
4
 10
-1.31224697E+01
 20
9.83916824E+01
  0
VERTEX
  8
0
 62
4
 10
-1.31779257E+01
 20
9.82235994E+01
  0
VERTEX
  8
0
 62
4
 10
-1.32178592E+01
 20
9.80512975E+01
  0
VERTEX
  8
0
 62
4
 10
-1.32419486E+01
 20
9.78761641E+01
  0
VERTEX
  8
0
 62
4
 10
-1.32500000E+01
 20
9.76996091E+01
  0
SEQEND
  8
0
  0
POLYLINE
  8
0
 62
4
 66
1
  0
VERTEX
  8
0
 62
4
 10
-1.32500000E+01
 20
9.71639698E+01
  0
VERTEX
  8
0
 62
4
 10
-1.32423894E+01
 20
9.69923065E+01
  0
VERTEX
  8
0
 62
4
 10
-1.32196155E+01
 20
9.68219497E+01
  0
VERTEX
  8
0
 62
4
 10
-1.31818517E+01
 20
9.66541958E+01
  0
VERTEX
  8
0
 62
4
 10
-1.31293852E+01
 20
9.64903216E+01
  0
VERTEX
  8
0
 62
4
 10
-1.30626156E+01
 20
9.63315743E+01
  0
VERTEX
  8
0
 62
4
 10
-1.29820508E+01
 20
9.61791621E+01
  0
VERTEX
  8
0
 62
4
 10
-1.28883041E+01
 20
9.60342448E+01
  0
VERTEX
  8
0
 62
4
 10
-1.27820889E+01
 20
9.58979254E+01
  0
VERTEX
  8
0
 62
4
 10
-1.26642136E+01
 20
9.57712413E+01
  0
VERTEX
  8
0
 62
4
 10
-1.25355752E+01
 20
9.56551568E+01
  0
VERTEX
  8
0
 62
4
 10
-1.23971529E+01
 20
9.55505552E+01
  0
VERTEX
  8
0
 62
4
 10
-1.22500000E+01
 20
9.54582327E+01
  0
VERTEX
  8
0
 62
4
 10
-1.20952365E+01
 20
9.53788919E+01
  0
VERTEX
  8
0
 62
4
 10
-1.19340403E+01
 20
9.53131366E+01
  0
VERTEX
  8
0
 62
4
 10
-1.17676381E+01
 20
9.52614673E+01
  0
VERTEX
  8
0
 62
4
 10
-1.15972964E+01
 20
9.52242772E+01
  0
VERTEX
  8
0
 62
4
 10
-1.14243115E+01
 20
9.52018493E+01
  0
VERTEX
  8
0
 62
4
 10
-1.12500000E+01
 20
9.51943543E+01
  0
VERTEX
  8
0
 62
4
 10
-1.10756885E+01
 20
9.52018493E+01
  0
VERTEX
  8
0
 62
4
 10
-1.09027037E+01
 20
9.52242772E+01
  0
VERTEX
  8
0
 62
4
 10
-1.07323619E+01
 20
9.52614673E+01
  0
VERTEX
  8
0
 62
4
 10
-1.05659597E+01
 20
9.53131366E+01
  0
VERTEX
  8
0
 62
4
 10
-1.04047635E+01
 20
9.53788919E+01
  0
VERTEX
  8
0
 62
4
 10
-1.02500000E+01
 20
9.54582327E+01
  0
VERTEX
  8
0
 62
4
 10
-1.01028471E+01
 20
9.55505552E+01
  0
VERTEX
  8
0
 62
4
 10
-9.96442478E+00
 20
9.56551568E+01
  0
VERTEX
  8
0
 62
4
 10
-9.83578644E+00
 20
9.57712413E+01
  0
VERTEX
  8
0
 62
4
 10
-9.71791112E+00
 20
9.58979254E+01
  0
VERTEX
  8
0
 62
4
 10
-9.61169591E+00
 20
9.60342448E+01
  0
VERTEX
  8
0
 62
4
 10
-9.51794919E+00
 20
9.61791620E+01
  0
VERTEX
  8
0
 62
4
 10
-9.43738443E+00
 20
9.63315743E+01
  0
VERTEX
  8
0
 62
4
 10
-9.37061476E+00
 20
9.64903216E+01
  0
VERTEX
  8
0
 62
4
 10
-9.31814835E+00
 20
9.66541958E+01
  0
VERTEX
  8
0
 62
4
 10
-9.28038449E+00
 20
9.68219497E+01
  0
VERTEX
  8
0
 62
4
 10
-9.25761060E+00
 20
9.69923065E+01
  0
VERTEX
  8
0
 62
4
 10
-9.25000000E+00
 20
9.71639698E+01
  0
VERTEX
  8
0
 62
4
 10
-9.25761060E+00
 20
9.73356331E+01
  0
VERTEX
  8
0
 62
4
 10
-9.28038449E+00
 20
9.75059899E+01
  0
VERTEX
  8
0
 62
4
 10
-9.31814835E+00
 20
9.76737438E+01
  0
VERTEX
  8
0
 62
4
 10
-9.37061476E+00
 20
9.78376180E+01
  0
VERTEX
  8
0
 62
4
 10
-9.43738442E+00
 20
9.79963653E+01
  0
VERTEX
  8
0
 62
4
 10
-9.51794919E+00
 20
9.81487776E+01
  0
VERTEX
  8
0
 62
4
 10
-9.61169591E+00
 20
9.82936948E+01
  0
VERTEX
  8
0
 62
4
 10
-9.71791111E+00
 20
9.84300142E+01
  0
VERTEX
  8
0
 62
4
 10
-9.83578644E+00
 20
9.85566983E+01
  0
VERTEX
  8
0
 62
4
 10
-9.96442478E+00
 20
9.86727828E+01
  0
VERTEX
  8
0
 62
4
 10
-1.01028471E+01
 20
9.87773844E+01
  0
VERTEX
  8
0
 62
4
 10
-1.02500000E+01
 20
9.88697069E+01
  0
VERTEX
  8
0
 62
4
 10
-1.04047635E+01
 20
9.89490477E+01
  0
VERTEX
  8
0
 62
4
 10
-1.05659597E+01
 20
9.90148030E+01
  0
VERTEX
  8
0
 62
4
 10
-1.07323619E+01
 20
9.90664723E+01
  0
VERTEX
  8
0
 62
4
 10
-1.09027036E+01
 20
9.91036624E+01
  0
VERTEX
  8
0
 62
4
 10
-1.10756885E+01
 20
9.91260903E+01
  0
VERTEX
  8
0
 62
4
 10
-1.12500000E+01
 20
9.91335853E+01
  0
VERTEX
  8
0
 62
4
 10
-1.14243115E+01
 20
9.91260903E+01
  0
VERTEX
  8
0
 62
4
 10
-1.15972964E+01
 20
9.91036624E+01
  0
VERTEX
  8
0
 62
4
 10
-1.17676381E+01
 20
9.90664723E+01
  0
VERTEX
  8
0
 62
4
 10
-1.19340403E+01
 20
9.90148030E+01
  0
VERTEX
  8
0
 62
4
 10
-1.20952365E+01
 20
9.89490477E+01
  0
VERTEX
  8
0
 62
4
 10
-1.22500000E+01
 20
9.88697069E+01
  0
VERTEX
  8
0
 62
4
 10
-1.23971529E+01
 20
9.87773844E+01
  0
VERTEX
  8
0
 62
4
 10
-1.25355752E+01
 20
9.86727828E+01
  0
VERTEX
  8
0
 62
4
 10
-1.26642136E+01
 20
9.85566983E+01
  0
VERTEX
  8
0
 62
4
 10
-1.27820889E+01
 20
9.84300142E+01
  0
VERTEX
  8
0
 62
4
 10
-1.28883041E+01
 20
9.82936948E+01
  0
VERTEX
  8
0
 62
4
 10
-1.29820508E+01
 20
9.81487776E+01
  0
VERTEX
  8
0
 62
4
 10
-1.30626156E+01
 20
9.79963653E+01
  0
VERTEX
  8
0
 62
4
 10
-1.31293852E+01
 20
9.78376180E+01
  0
VERTEX
  8
0
 62
4
 10
-1.31818517E+01
 20
9.76737438E+01
  0
VERTEX
  8
0
 62
4
 10
-1.32196155E+01
 20
9.75059899E+01
  0
VERTEX
  8
0
 62
4
 10
-1.32423894E+01
 20
9.73356331E+01
  0
VERTEX
  8
0
 62
4
 10
-1.32500000E+01
 20
9.71639698E+01
  0
SEQEND
  8
0
  0
LINE
  8
0
 62
4
 10
-1.32500000E+01
 20
9.71639698E+01
 11
-1.32500000E+01
 21
9.76996091E+01
  0
LINE
  8
0
 62
4
 10
-9.25000000E+00
 20
9.71639698E+01
 11
-9.25000000E+00
 21
9.76996091E+01
  0
POLYLINE
  8
0
 62
6
 66
1
  0
VERTEX
  8
0
 62
6
 10
-9.75000000E+00
 20
9.71639698E+01
  0
VERTEX
  8
0
 62
6
 10
-9.75570795E+00
 20
9.72927173E+01
  0
VERTEX
  8
0
 62
6
 10
-9.77278837E+00
 20
9.74204849E+01
  0
VERTEX
  8
0
 62
6
 10
-9.80111126E+00
 20
9.75463003E+01
  0
VERTEX
  8
0
 62
6
 10
-9.84046107E+00
 20
9.76692059E+01
  0
VERTEX
  8
0
 62
6
 10
-9.89053832E+00
 20
9.77882664E+01
  0
VERTEX
  8
0
 62
6
 10
-9.95096189E+00
 20
9.79025756E+01
  0
VERTEX
  8
0
 62
6
 10
-1.00212719E+01
 20
9.80112636E+01
  0
VERTEX
  8
0
 62
6
 10
-1.01009333E+01
 20
9.81135031E+01
  0
VERTEX
  8
0
 62
6
 10
-1.01893398E+01
 20
9.82085162E+01
  0
VERTEX
  8
0
 62
6
 10
-1.02858186E+01
 20
9.82955796E+01
  0
VERTEX
  8
0
 62
6
 10
-1.03896353E+01
 20
9.83740307E+01
  0
VERTEX
  8
0
 62
6
 10
-1.05000000E+01
 20
9.84432726E+01
  0
VERTEX
  8
0
 62
6
 10
-1.06160726E+01
 20
9.85027782E+01
  0
VERTEX
  8
0
 62
6
 10
-1.07369698E+01
 20
9.85520947E+01
  0
VERTEX
  8
0
 62
6
 10
-1.08617714E+01
 20
9.85908467E+01
  0
VERTEX
  8
0
 62
6
 10
-1.09895277E+01
 20
9.86187393E+01
  0
VERTEX
  8
0
 62
6
 10
-1.11192664E+01
 20
9.86355602E+01
  0
VERTEX
  8
0
 62
6
 10
-1.12500000E+01
 20
9.86411814E+01
  0
VERTEX
  8
0
 62
6
 10
-1.13807336E+01
 20
9.86355602E+01
  0
VERTEX
  8
0
 62
6
 10
-1.15104723E+01
 20
9.86187393E+01
  0
VERTEX
  8
0
 62
6
 10
-1.16382286E+01
 20
9.85908467E+01
  0
VERTEX
  8
0
 62
6
 10
-1.17630302E+01
 20
9.85520947E+01
  0
VERTEX
  8
0
 62
6
 10
-1.18839274E+01
 20
9.85027782E+01
  0
VERTEX
  8
0
 62
6
 10
-1.20000000E+01
 20
9.84432726E+01
  0
VERTEX
  8
0
 62
6
 10
-1.21103647E+01
 20
9.83740307E+01
  0
VERTEX
  8
0
 62
6
 10
-1.22141814E+01
 20
9.82955796E+01
  0
VERTEX
  8
0
 62
6
 10
-1.23106602E+01
 20
9.82085162E+01
  0
VERTEX
  8
0
 62
6
 10
-1.23990667E+01
 20
9.81135031E+01
  0
VERTEX
  8
0
 62
6
 10
-1.24787281E+01
 20
9.80112636E+01
  0
VERTEX
  8
0
 62
6
 10
-1.25490381E+01
 20
9.79025756E+01
  0
VERTEX
  8
0
 62
6
 10
-1.26094617E+01
 20
9.77882664E+01
  0
VERTEX
  8
0
 62
6
 10
-1.26595389E+01
 20
9.76692059E+01
  0
VERTEX
  8
0
 62
6
 10
-1.26988887E+01
 20
9.75463003E+01
  0
VERTEX
  8
0
 62
6
 10
-1.27272116E+01
 20
9.74204849E+01
  0
VERTEX
  8
0
 62
6
 10
-1.27442920E+01
 20
9.72927173E+01
  0
VERTEX
  8
0
 62
6
 10
-1.27500000E+01
 20
9.71639698E+01
  0
VERTEX
  8
0
 62
6
 10
-1.27442920E+01
 20
9.70352223E+01
  0
VERTEX
  8
0
 62
6
 10
-1.27272116E+01
 20
9.69074547E+01
  0
VERTEX
  8
0
 62
6
 10
-1.26988887E+01
 20
9.67816393E+01
  0
VERTEX
  8
0
 62
6
 10
-1.26595389E+01
 20
9.66587337E+01
  0
VERTEX
  8
0
 62
6
 10
-1.26094617E+01
 20
9.65396732E+01
  0
VERTEX
  8
0
 62
6
 10
-1.25490381E+01
 20
9.64253640E+01
  0
VERTEX
  8
0
 62
6
 10
-1.24787281E+01
 20
9.63166760E+01
  0
VERTEX
  8
0
 62
6
 10
-1.23990667E+01
 20
9.62144365E+01
  0
VERTEX
  8
0
 62
6
 10
-1.23106602E+01
 20
9.61194234E+01
  0
VERTEX
  8
0
 62
6
 10
-1.22141814E+01
 20
9.60323600E+01
  0
VERTEX
  8
0
 62
6
 10
-1.21103647E+01
 20
9.59539089E+01
  0
VERTEX
  8
0
 62
6
 10
-1.20000000E+01
 20
9.58846670E+01
  0
VERTEX
  8
0
 62
6
 10
-1.18839274E+01
 20
9.58251614E+01
  0
VERTEX
  8
0
 62
6
 10
-1.17630302E+01
 20
9.57758449E+01
  0
VERTEX
  8
0
 62
6
 10
-1.16382286E+01
 20
9.57370929E+01
  0
VERTEX
  8
0
 62
6
 10
-1.15104723E+01
 20
9.57092003E+01
  0
VERTEX
  8
0
 62
6
 10
-1.13807336E+01
 20
9.56923794E+01
  0
VERTEX
  8
0
 62
6
 10
-1.12500000E+01
 20
9.56867582E+01
  0
VERTEX
  8
0
 62
6
 10
-1.11192664E+01
 20
9.56923794E+01
  0
VERTEX
  8
0
 62
6
 10
-1.09895277E+01
 20
9.57092003E+01
  0
VERTEX
  8
0
 62
6
 10
-1.08617714E+01
 20
9.57370929E+01
  0
VERTEX
  8
0
 62
6
 10
-1.07369698E+01
 20
9.57758449E+01
  0
VERTEX
  8
0
 62
6
 10
-1.06160726E+01
 20
9.58251614E+01
  0
VERTEX
  8
0
 62
6
 10
-1.05000000E+01
 20
9.58846670E+01
  0
VERTEX
  8
0
 62
6
 10
-1.03896353E+01
 20
9.59539089E+01
  0
VERTEX
  8
0
 62
6
 10
-1.02858186E+01
 20
9.60323600E+01
  0
VERTEX
  8
0
 62
6
 10
-1.01893398E+01
 20
9.61194234E+01
  0
VERTEX
  8
0
 62
6
 10
-1.01009333E+01
 20
9.62144365E+01
  0
VERTEX
  8
0
 62
6
 10
-1.00212719E+01
 20
9.63166760E+01
  0
VERTEX
  8
0
 62
6
 10
-9.95096189E+00
 20
9.64253640E+01
  0
VERTEX
  8
0
 62
6
 10
-9.89053832E+00
 20
9.65396732E+01
  0
VERTEX
  8
0
 62
6
 10
-9.84046107E+00
 20
9.66587337E+01
  0
VERTEX
  8
0
 62
6
 10
-9.80111126E+00
 20
9.67816393E+01
  0
VERTEX
  8
0
 62
6
 10
-9.77278837E+00
 20
9.69074547E+01
  0
VERTEX
  8
0
 62
6
 10
-9.75570795E+00
 20
9.70352223E+01
  0
VERTEX
  8
0
 62
6
 10
-9.75000000E+00
 20
9.71639698E+01
  0
SEQEND
  8
0
  0
LINE
  8
0
 62
4
 10
-1.22500000E+01
 20
9.77351583E+01
 11
-1.22500000E+01
 21
9.65927813E+01
  0
LINE
  8
0
 62
4
 10
-1.02500000E+01
 20
9.77351583E+01
 11
-1.02500000E+01
 21
9.65927813E+01
  0
LINE
  8
0
 62
4
 10
-1.12500000E+01
 20
9.82964987E+01
 11
-1.22500000E+01
 21
9.77351583E+01
  0
LINE
  8
0
 62
4
 10
-1.12500000E+01
 20
9.82964987E+01
 11
-1.02500000E+01
 21
9.77351583E+01
  0
LINE
  8
0
 62
4
 10
-1.02500000E+01
 20
9.65927813E+01
 11
-1.12500000E+01
 21
9.60215928E+01
  0
LINE
  8
0
 62
4
 10
-1.22500000E+01
 20
9.65927813E+01
 11
-1.12500000E+01
 21
9.60215928E+01
  0
LINE
  8
0
 62
4
 10
-4.25000000E+00
 20
9.65927813E+01
 11
-3.25000000E+00
 21
9.60215928E+01
  0
LINE
  8
0
 62
4
 10
-2.25000000E+00
 20
9.65927813E+01
 11
-3.25000000E+00
 21
9.60215928E+01
  0
LINE
  8
0
 62
4
 10
-3.25000000E+00
 20
9.82964987E+01
 11
-2.25000000E+00
 21
9.77351583E+01
  0
LINE
  8
0
 62
4
 10
-3.25000000E+00
 20
9.82964987E+01
 11
-4.25000000E+00
 21
9.77351583E+01
  0
LINE
  8
0
 62
4
 10
-2.25000000E+00
 20
9.77351583E+01
 11
-2.25000000E+00
 21
9.65927813E+01
  0
LINE
  8
0
 62
4
 10
-4.25000000E+00
 20
9.77351583E+01
 11
-4.25000000E+00
 21
9.65927813E+01
  0
POLYLINE
  8
0
 62
6
 66
1
  0
VERTEX
  8
0
 62
6
 10
-1.75000000E+00
 20
9.71639698E+01
  0
VERTEX
  8
0
 62
6
 10
-1.75570795E+00
 20
9.72927173E+01
  0
VERTEX
  8
0
 62
6
 10
-1.77278837E+00
 20
9.74204849E+01
  0
VERTEX
  8
0
 62
6
 10
-1.80111126E+00
 20
9.75463003E+01
  0
VERTEX
  8
0
 62
6
 10
-1.84046107E+00
 20
9.76692059E+01
  0
VERTEX
  8
0
 62
6
 10
-1.89053832E+00
 20
9.77882664E+01
  0
VERTEX
  8
0
 62
6
 10
-1.95096189E+00
 20
9.79025756E+01
  0
VERTEX
  8
0
 62
6
 10
-2.02127193E+00
 20
9.80112636E+01
  0
VERTEX
  8
0
 62
6
 10
-2.10093334E+00
 20
9.81135031E+01
  0
VERTEX
  8
0
 62
6
 10
-2.18933983E+00
 20
9.82085162E+01
  0
VERTEX
  8
0
 62
6
 10
-2.28581859E+00
 20
9.82955796E+01
  0
VERTEX
  8
0
 62
6
 10
-2.38963535E+00
 20
9.83740307E+01
  0
VERTEX
  8
0
 62
6
 10
-2.50000000E+00
 20
9.84432726E+01
  0
VERTEX
  8
0
 62
6
 10
-2.61607261E+00
 20
9.85027782E+01
  0
VERTEX
  8
0
 62
6
 10
-2.73696979E+00
 20
9.85520947E+01
  0
VERTEX
  8
0
 62
6
 10
-2.86177143E+00
 20
9.85908467E+01
  0
VERTEX
  8
0
 62
6
 10
-2.98952773E+00
 20
9.86187393E+01
  0
VERTEX
  8
0
 62
6
 10
-3.11926639E+00
 20
9.86355602E+01
  0
VERTEX
  8
0
 62
6
 10
-3.25000000E+00
 20
9.86411814E+01
  0
VERTEX
  8
0
 62
6
 10
-3.38073362E+00
 20
9.86355602E+01
  0
VERTEX
  8
0
 62
6
 10
-3.51047227E+00
 20
9.86187393E+01
  0
VERTEX
  8
0
 62
6
 10
-3.63822857E+00
 20
9.85908467E+01
  0
VERTEX
  8
0
 62
6
 10
-3.76303022E+00
 20
9.85520947E+01
  0
VERTEX
  8
0
 62
6
 10
-3.88392739E+00
 20
9.85027782E+01
  0
VERTEX
  8
0
 62
6
 10
-4.00000000E+00
 20
9.84432726E+01
  0
VERTEX
  8
0
 62
6
 10
-4.11036466E+00
 20
9.83740307E+01
  0
VERTEX
  8
0
 62
6
 10
-4.21418142E+00
 20
9.82955796E+01
  0
VERTEX
  8
0
 62
6
 10
-4.31066017E+00
 20
9.82085162E+01
  0
VERTEX
  8
0
 62
6
 10
-4.39906667E+00
 20
9.81135031E+01
  0
VERTEX
  8
0
 62
6
 10
-4.47872807E+00
 20
9.80112636E+01
  0
VERTEX
  8
0
 62
6
 10
-4.54903811E+00
 20
9.79025756E+01
  0
VERTEX
  8
0
 62
6
 10
-4.60946168E+00
 20
9.77882664E+01
  0
VERTEX
  8
0
 62
6
 10
-4.65953893E+00
 20
9.76692059E+01
  0
VERTEX
  8
0
 62
6
 10
-4.69888874E+00
 20
9.75463003E+01
  0
VERTEX
  8
0
 62
6
 10
-4.72721163E+00
 20
9.74204849E+01
  0
VERTEX
  8
0
 62
6
 10
-4.74429205E+00
 20
9.72927173E+01
  0
VERTEX
  8
0
 62
6
 10
-4.75000000E+00
 20
9.71639698E+01
  0
VERTEX
  8
0
 62
6
 10
-4.74429205E+00
 20
9.70352223E+01
  0
VERTEX
  8
0
 62
6
 10
-4.72721163E+00
 20
9.69074547E+01
  0
VERTEX
  8
0
 62
6
 10
-4.69888874E+00
 20
9.67816393E+01
  0
VERTEX
  8
0
 62
6
 10
-4.65953893E+00
 20
9.66587337E+01
  0
VERTEX
  8
0
 62
6
 10
-4.60946168E+00
 20
9.65396732E+01
  0
VERTEX
  8
0
 62
6
 10
-4.54903810E+00
 20
9.64253640E+01
  0
VERTEX
  8
0
 62
6
 10
-4.47872806E+00
 20
9.63166760E+01
  0
VERTEX
  8
0
 62
6
 10
-4.39906666E+00
 20
9.62144365E+01
  0
VERTEX
  8
0
 62
6
 10
-4.31066017E+00
 20
9.61194234E+01
  0
VERTEX
  8
0
 62
6
 10
-4.21418141E+00
 20
9.60323600E+01
  0
VERTEX
  8
0
 62
6
 10
-4.11036465E+00
 20
9.59539089E+01
  0
VERTEX
  8
0
 62
6
 10
-4.00000000E+00
 20
9.58846670E+01
  0
VERTEX
  8
0
 62
6
 10
-3.88392739E+00
 20
9.58251614E+01
  0
VERTEX
  8
0
 62
6
 10
-3.76303021E+00
 20
9.57758449E+01
  0
VERTEX
  8
0
 62
6
 10
-3.63822856E+00
 20
9.57370929E+01
  0
VERTEX
  8
0
 62
6
 10
-3.51047226E+00
 20
9.57092003E+01
  0
VERTEX
  8
0
 62
6
 10
-3.38073361E+00
 20
9.56923794E+01
  0
VERTEX
  8
0
 62
6
 10
-3.25000000E+00
 20
9.56867582E+01
  0
VERTEX
  8
0
 62
6
 10
-3.11926638E+00
 20
9.56923794E+01
  0
VERTEX
  8
0
 62
6
 10
-2.98952773E+00
 20
9.57092003E+01
  0
VERTEX
  8
0
 62
6
 10
-2.86177143E+00
 20
9.57370929E+01
  0
VERTEX
  8
0
 62
6
 10
-2.73696978E+00
 20
9.57758449E+01
  0
VERTEX
  8
0
 62
6
 10
-2.61607260E+00
 20
9.58251614E+01
  0
VERTEX
  8
0
 62
6
 10
-2.50000000E+00
 20
9.58846670E+01
  0
VERTEX
  8
0
 62
6
 10
-2.38963534E+00
 20
9.59539089E+01
  0
VERTEX
  8
0
 62
6
 10
-2.28581858E+00
 20
9.60323600E+01
  0
VERTEX
  8
0
 62
6
 10
-2.18933983E+00
 20
9.61194234E+01
  0
VERTEX
  8
0
 62
6
 10
-2.10093333E+00
 20
9.62144365E+01
  0
VERTEX
  8
0
 62
6
 10
-2.02127193E+00
 20
9.63166760E+01
  0
VERTEX
  8
0
 62
6
 10
-1.95096189E+00
 20
9.64253640E+01
  0
VERTEX
  8
0
 62
6
 10
-1.89053832E+00
 20
9.65396732E+01
  0
VERTEX
  8
0
 62
6
 10
-1.84046107E+00
 20
9.66587337E+01
  0
VERTEX
  8
0
 62
6
 10
-1.80111126E+00
 20
9.67816393E+01
  0
VERTEX
  8
0
 62
6
 10
-1.77278837E+00
 20
9.69074547E+01
  0
VERTEX
  8
0
 62
6
 10
-1.75570795E+00
 20
9.70352223E+01
  0
VERTEX
  8
0
 62
6
 10
-1.75000000E+00
 20
9.71639698E+01
  0
SEQEND
  8
0
  0
LINE
  8
0
 62
4
 10
-1.25000000E+00
 20
9.71639698E+01
 11
-1.25000000E+00
 21
9.76996091E+01
  0
LINE
  8
0
 62
4
 10
-5.25000000E+00
 20
9.71639698E+01
 11
-5.25000000E+00
 21
9.76996091E+01
  0
POLYLINE
  8
0
 62
4
 66
1
  0
VERTEX
  8
0
 62
4
 10
-5.25000000E+00
 20
9.71639698E+01
  0
VERTEX
  8
0
 62
4
 10
-5.24238940E+00
 20
9.69923065E+01
  0
VERTEX
  8
0
 62
4
 10
-5.21961551E+00
 20
9.68219497E+01
  0
VERTEX
  8
0
 62
4
 10
-5.18185165E+00
 20
9.66541958E+01
  0
VERTEX
  8
0
 62
4
 10
-5.12938524E+00
 20
9.64903216E+01
  0
VERTEX
  8
0
 62
4
 10
-5.06261558E+00
 20
9.63315743E+01
  0
VERTEX
  8
0
 62
4
 10
-4.98205081E+00
 20
9.61791621E+01
  0
VERTEX
  8
0
 62
4
 10
-4.88830409E+00
 20
9.60342448E+01
  0
VERTEX
  8
0
 62
4
 10
-4.78208889E+00
 20
9.58979254E+01
  0
VERTEX
  8
0
 62
4
 10
-4.66421357E+00
 20
9.57712413E+01
  0
VERTEX
  8
0
 62
4
 10
-4.53557522E+00
 20
9.56551568E+01
  0
VERTEX
  8
0
 62
4
 10
-4.39715288E+00
 20
9.55505552E+01
  0
VERTEX
  8
0
 62
4
 10
-4.25000001E+00
 20
9.54582327E+01
  0
VERTEX
  8
0
 62
4
 10
-4.09523653E+00
 20
9.53788919E+01
  0
VERTEX
  8
0
 62
4
 10
-3.93404029E+00
 20
9.53131366E+01
  0
VERTEX
  8
0
 62
4
 10
-3.76763810E+00
 20
9.52614673E+01
  0
VERTEX
  8
0
 62
4
 10
-3.59729636E+00
 20
9.52242772E+01
  0
VERTEX
  8
0
 62
4
 10
-3.42431149E+00
 20
9.52018493E+01
  0
VERTEX
  8
0
 62
4
 10
-3.25000001E+00
 20
9.51943543E+01
  0
VERTEX
  8
0
 62
4
 10
-3.07568852E+00
 20
9.52018493E+01
  0
VERTEX
  8
0
 62
4
 10
-2.90270365E+00
 20
9.52242772E+01
  0
VERTEX
  8
0
 62
4
 10
-2.73236192E+00
 20
9.52614673E+01
  0
VERTEX
  8
0
 62
4
 10
-2.56595972E+00
 20
9.53131366E+01
  0
VERTEX
  8
0
 62
4
 10
-2.40476348E+00
 20
9.53788919E+01
  0
VERTEX
  8
0
 62
4
 10
-2.25000000E+00
 20
9.54582327E+01
  0
VERTEX
  8
0
 62
4
 10
-2.10284713E+00
 20
9.55505552E+01
  0
VERTEX
  8
0
 62
4
 10
-1.96442478E+00
 20
9.56551568E+01
  0
VERTEX
  8
0
 62
4
 10
-1.83578644E+00
 20
9.57712413E+01
  0
VERTEX
  8
0
 62
4
 10
-1.71791112E+00
 20
9.58979254E+01
  0
VERTEX
  8
0
 62
4
 10
-1.61169591E+00
 20
9.60342448E+01
  0
VERTEX
  8
0
 62
4
 10
-1.51794919E+00
 20
9.61791620E+01
  0
VERTEX
  8
0
 62
4
 10
-1.43738443E+00
 20
9.63315743E+01
  0
VERTEX
  8
0
 62
4
 10
-1.37061476E+00
 20
9.64903216E+01
  0
VERTEX
  8
0
 62
4
 10
-1.31814835E+00
 20
9.66541958E+01
  0
VERTEX
  8
0
 62
4
 10
-1.28038449E+00
 20
9.68219497E+01
  0
VERTEX
  8
0
 62
4
 10
-1.25761060E+00
 20
9.69923065E+01
  0
VERTEX
  8
0
 62
4
 10
-1.25000000E+00
 20
9.71639698E+01
  0
VERTEX
  8
0
 62
4
 10
-1.25761060E+00
 20
9.73356331E+01
  0
VERTEX
  8
0
 62
4
 10
-1.28038449E+00
 20
9.75059899E+01
  0
VERTEX
  8
0
 62
4
 10
-1.31814835E+00
 20
9.76737438E+01
  0
VERTEX
  8
0
 62
4
 10
-1.37061476E+00
 20
9.78376180E+01
  0
VERTEX
  8
0
 62
4
 10
-1.43738442E+00
 20
9.79963653E+01
  0
VERTEX
  8
0
 62
4
 10
-1.51794919E+00
 20
9.81487776E+01
  0
VERTEX
  8
0
 62
4
 10
-1.61169591E+00
 20
9.82936948E+01
  0
VERTEX
  8
0
 62
4
 10
-1.71791111E+00
 20
9.84300142E+01
  0
VERTEX
  8
0
 62
4
 10
-1.83578644E+00
 20
9.85566983E+01
  0
VERTEX
  8
0
 62
4
 10
-1.96442478E+00
 20
9.86727828E+01
  0
VERTEX
  8
0
 62
4
 10
-2.10284712E+00
 20
9.87773844E+01
  0
VERTEX
  8
0
 62
4
 10
-2.25000000E+00
 20
9.88697069E+01
  0
VERTEX
  8
0
 62
4
 10
-2.40476347E+00
 20
9.89490477E+01
  0
VERTEX
  8
0
 62
4
 10
-2.56595971E+00
 20
9.90148030E+01
  0
VERTEX
  8
0
 62
4
 10
-2.73236191E+00
 20
9.90664723E+01
  0
VERTEX
  8
0
 62
4
 10
-2.90270364E+00
 20
9.91036624E+01
  0
VERTEX
  8
0
 62
4
 10
-3.07568851E+00
 20
9.91260903E+01
  0
VERTEX
  8
0
 62
4
 10
-3.25000000E+00
 20
9.91335853E+01
  0
VERTEX
  8
0
 62
4
 10
-3.42431148E+00
 20
9.91260903E+01
  0
VERTEX
  8
0
 62
4
 10
-3.59729635E+00
 20
9.91036624E+01
  0
VERTEX
  8
0
 62
4
 10
-3.76763809E+00
 20
9.90664723E+01
  0
VERTEX
  8
0
 62
4
 10
-3.93404028E+00
 20
9.90148030E+01
  0
VERTEX
  8
0
 62
4
 10
-4.09523652E+00
 20
9.89490477E+01
  0
VERTEX
  8
0
 62
4
 10
-4.25000000E+00
 20
9.88697069E+01
  0
VERTEX
  8
0
 62
4
 10
-4.39715287E+00
 20
9.87773844E+01
  0
VERTEX
  8
0
 62
4
 10
-4.53557522E+00
 20
9.86727828E+01
  0
VERTEX
  8
0
 62
4
 10
-4.66421356E+00
 20
9.85566983E+01
  0
VERTEX
  8
0
 62
4
 10
-4.78208888E+00
 20
9.84300142E+01
  0
VERTEX
  8
0
 62
4
 10
-4.88830409E+00
 20
9.82936948E+01
  0
VERTEX
  8
0
 62
4
 10
-4.98205081E+00
 20
9.81487776E+01
  0
VERTEX
  8
0
 62
4
 10
-5.06261557E+00
 20
9.79963653E+01
  0
VERTEX
  8
0
 62
4
 10
-5.12938524E+00
 20
9.78376180E+01
  0
VERTEX
  8
0
 62
4
 10
-5.18185165E+00
 20
9.76737438E+01
  0
VERTEX
  8
0
 62
4
 10
-5.21961551E+00
 20
9.75059899E+01
  0
VERTEX
  8
0
 62
4
 10
-5.24238940E+00
 20
9.73356331E+01
  0
VERTEX
  8
0
 62
4
 10
-5.25000000E+00
 20
9.71639698E+01
  0
SEQEND
  8
0
  0
POLYLINE
  8
0
 62
4
 66
1
  0
VERTEX
  8
0
 62
4
 10
-1.25000000E+00
 20
9.76996091E+01
  0
VERTEX
  8
0
 62
4
 10
-1.25805141E+00
 20
9.78761641E+01
  0
VERTEX
  8
0
 62
4
 10
-1.28214082E+00
 20
9.80512975E+01
  0
VERTEX
  8
0
 62
4
 10
-1.32207427E+00
 20
9.82235994E+01
  0
VERTEX
  8
0
 62
4
 10
-1.37753025E+00
 20
9.83916824E+01
  0
VERTEX
  8
0
 62
4
 10
-1.44806226E+00
 20
9.85541932E+01
  0
VERTEX
  8
0
 62
4
 10
-1.53310240E+00
 20
9.87098235E+01
  0
VERTEX
  8
0
 62
4
 10
-1.63196600E+00
 20
9.88573200E+01
  0
VERTEX
  8
0
 62
4
 10
-1.74385706E+00
 20
9.89954954E+01
  0
VERTEX
  8
0
 62
4
 10
-1.86787469E+00
 20
9.91232371E+01
  0
VERTEX
  8
0
 62
4
 10
-2.00302038E+00
 20
9.92395165E+01
  0
VERTEX
  8
0
 62
4
 10
-2.14820602E+00
 20
9.93433975E+01
  0
VERTEX
  8
0
 62
4
 10
-2.30226266E+00
 20
9.94340437E+01
  0
VERTEX
  8
0
 62
4
 10
-2.46394992E+00
 20
9.95107253E+01
  0
VERTEX
  8
0
 62
4
 10
-2.63196599E+00
 20
9.95728248E+01
  0
VERTEX
  8
0
 62
4
 10
-2.80495812E+00
 20
9.96198422E+01
  0
VERTEX
  8
0
 62
4
 10
-2.98153345E+00
 20
9.96513991E+01
  0
VERTEX
  8
0
 62
4
 10
-3.16027032E+00
 20
9.96672413E+01
  0
VERTEX
  8
0
 62
4
 10
-3.33972964E+00
 20
9.96672413E+01
  0
VERTEX
  8
0
 62
4
 10
-3.51846651E+00
 20
9.96513991E+01
  0
VERTEX
  8
0
 62
4
 10
-3.69504185E+00
 20
9.96198422E+01
  0
VERTEX
  8
0
 62
4
 10
-3.86803397E+00
 20
9.95728248E+01
  0
VERTEX
  8
0
 62
4
 10
-4.03605005E+00
 20
9.95107253E+01
  0
VERTEX
  8
0
 62
4
 10
-4.19773731E+00
 20
9.94340437E+01
  0
VERTEX
  8
0
 62
4
 10
-4.35179395E+00
 20
9.93433975E+01
  0
VERTEX
  8
0
 62
4
 10
-4.49697959E+00
 20
9.92395165E+01
  0
VERTEX
  8
0
 62
4
 10
-4.63212528E+00
 20
9.91232371E+01
  0
VERTEX
  8
0
 62
4
 10
-4.75614292E+00
 20
9.89954954E+01
  0
VERTEX
  8
0
 62
4
 10
-4.86803398E+00
 20
9.88573201E+01
  0
VERTEX
  8
0
 62
4
 10
-4.96689758E+00
 20
9.87098235E+01
  0
VERTEX
  8
0
 62
4
 10
-5.05193773E+00
 20
9.85541933E+01
  0
VERTEX
  8
0
 62
4
 10
-5.12246973E+00
 20
9.83916824E+01
  0
VERTEX
  8
0
 62
4
 10
-5.17792572E+00
 20
9.82235994E+01
  0
VERTEX
  8
0
 62
4
 10
-5.21785917E+00
 20
9.80512975E+01
  0
VERTEX
  8
0
 62
4
 10
-5.24194859E+00
 20
9.78761641E+01
  0
VERTEX
  8
0
 62
4
 10
-5.25000000E+00
 20
9.76996091E+01
  0
SEQEND
  8
0
  0
POLYLINE
  8
0
 62
4
 66
1
  0
VERTEX
  8
0
 62
4
 10
5.50000000E+00
 20
1.15655676E+02
  0
VERTEX
  8
0
 62
4
 10
5.50856193E+00
 20
1.15462555E+02
  0
VERTEX
  8
0
 62
4
 10
5.53418255E+00
 20
1.15270903E+02
  0
VERTEX
  8
0
 62
4
 10
5.57666689E+00
 20
1.15082180E+02
  0
VERTEX
  8
0
 62
4
 10
5.63569160E+00
 20
1.14897822E+02
  0
VERTEX
  8
0
 62
4
 10
5.71080748E+00
 20
1.14719231E+02
  0
VERTEX
  8
0
 62
4
 10
5.80144284E+00
 20
1.14547767E+02
  0
VERTEX
  8
0
 62
4
 10
5.90690790E+00
 20
1.14384735E+02
  0
VERTEX
  8
0
 62
4
 10
6.02640000E+00
 20
1.14231376E+02
  0
VERTEX
  8
0
 62
4
 10
6.15900974E+00
 20
1.14088856E+02
  0
VERTEX
  8
0
 62
4
 10
6.30372787E+00
 20
1.13958261E+02
  0
VERTEX
  8
0
 62
4
 10
6.45945301E+00
 20
1.13840585E+02
  0
VERTEX
  8
0
 62
4
 10
6.62499999E+00
 20
1.13736722E+02
  0
VERTEX
  8
0
 62
4
 10
6.79910890E+00
 20
1.13647463E+02
  0
VERTEX
  8
0
 62
4
 10
6.98045467E+00
 20
1.13573489E+02
  0
VERTEX
  8
0
 62
4
 10
7.16765714E+00
 20
1.13515361E+02
  0
VERTEX
  8
0
 62
4
 10
7.35929159E+00
 20
1.13473522E+02
  0
VERTEX
  8
0
 62
4
 10
7.55389957E+00
 20
1.13448290E+02
  0
VERTEX
  8
0
 62
4
 10
7.74999999E+00
 20
1.13439859E+02
  0
VERTEX
  8
0
 62
4
 10
7.94610041E+00
 20
1.13448290E+02
  0
VERTEX
  8
0
 62
4
 10
8.14070839E+00
 20
1.13473522E+02
  0
VERTEX
  8
0
 62
4
 10
8.33234285E+00
 20
1.13515361E+02
  0
VERTEX
  8
0
 62
4
 10
8.51954532E+00
 20
1.13573489E+02
  0
VERTEX
  8
0
 62
4
 10
8.70089108E+00
 20
1.13647463E+02
  0
VERTEX
  8
0
 62
4
 10
8.87499999E+00
 20
1.13736722E+02
  0
VERTEX
  8
0
 62
4
 10
9.04054698E+00
 20
1.13840585E+02
  0
VERTEX
  8
0
 62
4
 10
9.19627212E+00
 20
1.13958261E+02
  0
VERTEX
  8
0
 62
4
 10
9.34099025E+00
 20
1.14088856E+02
  0
VERTEX
  8
0
 62
4
 10
9.47359999E+00
 20
1.14231376E+02
  0
VERTEX
  8
0
 62
4
 10
9.59309210E+00
 20
1.14384735E+02
  0
VERTEX
  8
0
 62
4
 10
9.69855716E+00
 20
1.14547767E+02
  0
VERTEX
  8
0
 62
4
 10
9.78919252E+00
 20
1.14719231E+02
  0
VERTEX
  8
0
 62
4
 10
9.86430840E+00
 20
1.14897822E+02
  0
VERTEX
  8
0
 62
4
 10
9.92333311E+00
 20
1.15082180E+02
  0
VERTEX
  8
0
 62
4
 10
9.96581744E+00
 20
1.15270903E+02
  0
VERTEX
  8
0
 62
4
 10
9.99143807E+00
 20
1.15462555E+02
  0
VERTEX
  8
0
 62
4
 10
1.00000000E+01
 20
1.15655676E+02
  0
VERTEX
  8
0
 62
4
 10
9.99143807E+00
 20
1.15848797E+02
  0
VERTEX
  8
0
 62
4
 10
9.96581745E+00
 20
1.16040449E+02
  0
VERTEX
  8
0
 62
4
 10
9.92333311E+00
 20
1.16229172E+02
  0
VERTEX
  8
0
 62
4
 10
9.86430840E+00
 20
1.16413530E+02
  0
VERTEX
  8
0
 62
4
 10
9.78919252E+00
 20
1.16592121E+02
  0
VERTEX
  8
0
 62
4
 10
9.69855716E+00
 20
1.16763585E+02
  0
VERTEX
  8
0
 62
4
 10
9.59309210E+00
 20
1.16926617E+02
  0
VERTEX
  8
0
 62
4
 10
9.47360000E+00
 20
1.17079976E+02
  0
VERTEX
  8
0
 62
4
 10
9.34099026E+00
 20
1.17222496E+02
  0
VERTEX
  8
0
 62
4
 10
9.19627212E+00
 20
1.17353091E+02
  0
VERTEX
  8
0
 62
4
 10
9.04054698E+00
 20
1.17470767E+02
  0
VERTEX
  8
0
 62
4
 10
8.87500000E+00
 20
1.17574630E+02
  0
VERTEX
  8
0
 62
4
 10
8.70089109E+00
 20
1.17663889E+02
  0
VERTEX
  8
0
 62
4
 10
8.51954533E+00
 20
1.17737863E+02
  0
VERTEX
  8
0
 62
4
 10
8.33234285E+00
 20
1.17795991E+02
  0
VERTEX
  8
0
 62
4
 10
8.14070840E+00
 20
1.17837830E+02
  0
VERTEX
  8
0
 62
4
 10
7.94610042E+00
 20
1.17863062E+02
  0
VERTEX
  8
0
 62
4
 10
7.75000000E+00
 20
1.17871493E+02
  0
VERTEX
  8
0
 62
4
 10
7.55389958E+00
 20
1.17863062E+02
  0
VERTEX
  8
0
 62
4
 10
7.35929160E+00
 20
1.17837830E+02
  0
VERTEX
  8
0
 62
4
 10
7.16765715E+00
 20
1.17795991E+02
  0
VERTEX
  8
0
 62
4
 10
6.98045468E+00
 20
1.17737863E+02
  0
VERTEX
  8
0
 62
4
 10
6.79910891E+00
 20
1.17663889E+02
  0
VERTEX
  8
0
 62
4
 10
6.62500000E+00
 20
1.17574630E+02
  0
VERTEX
  8
0
 62
4
 10
6.45945302E+00
 20
1.17470767E+02
  0
VERTEX
  8
0
 62
4
 10
6.30372788E+00
 20
1.17353091E+02
  0
VERTEX
  8
0
 62
4
 10
6.15900974E+00
 20
1.17222496E+02
  0
VERTEX
  8
0
 62
4
 10
6.02640000E+00
 20
1.17079976E+02
  0
VERTEX
  8
0
 62
4
 10
5.90690790E+00
 20
1.16926617E+02
  0
VERTEX
  8
0
 62
4
 10
5.80144284E+00
 20
1.16763585E+02
  0
VERTEX
  8
0
 62
4
 10
5.71080748E+00
 20
1.16592121E+02
  0
VERTEX
  8
0
 62
4
 10
5.63569160E+00
 20
1.16413530E+02
  0
VERTEX
  8
0
 62
4
 10
5.57666689E+00
 20
1.16229172E+02
  0
VERTEX
  8
0
 62
4
 10
5.53418256E+00
 20
1.16040449E+02
  0
VERTEX
  8
0
 62
4
 10
5.50856193E+00
 20
1.15848797E+02
  0
VERTEX
  8
0
 62
4
 10
5.50000000E+00
 20
1.15655676E+02
  0
SEQEND
  8
0
  0
LINE
  8
0
 62
4
 10
2.49999992E-01
 20
1.11646986E+02
 11
1.52500000E+01
 21
1.11646986E+02
  0
LINE
  8
0
 62
4
 10
2.49999992E-01
 20
1.11716445E+02
 11
1.52500000E+01
 21
1.11716445E+02
  0
LINE
  8
0
 62
4
 10
2.49999992E-01
 20
1.04260928E+02
 11
1.52500000E+01
 21
1.04260928E+02
  0
LINE
  8
0
 62
4
 10
-1.47500000E+01
 20
9.25208504E+01
 11
2.50000000E-01
 21
9.25208504E+01
  0
LINE
  8
0
 62
4
 10
-1.35884360E+01
 20
1.02896999E+02
 11
-1.00925273E+00
 21
1.02896999E+02
  0
LINE
  8
0
 62
4
 10
-1.47500000E+01
 20
1.18871774E+02
 11
2.49999992E-01
 21
1.18871774E+02
  0
LINE
  8
0
 62
4
 10
-1.47500000E+01
 20
1.20087311E+02
 11
1.52500000E+01
 21
1.20087311E+02
  0
LINE
  8
0
 62
4
 10
-1.47500000E+01
 20
1.21875887E+02
 11
1.52500000E+01
 21
1.21875887E+02
  0
LINE
  8
0
  6
CENTER
 62
6
 10
1.13245969E+01
 20
1.15655676E+02
 11
4.17540311E+00
 21
1.15655676E+02
  0
LINE
  8
0
  6
CENTER
 62
6
 10
7.75000000E+00
 20
1.19230273E+02
 11
7.75000000E+00
 21
1.12081079E+02
  0
LINE
  8
0
 62
4
 10
1.52500000E+01
 20
1.21875887E+02
 11
1.52500000E+01
 21
1.04260928E+02
  0
LINE
  8
0
 62
4
 10
-1.47500000E+01
 20
1.21875887E+02
 11
-1.47500000E+01
 21
9.25208504E+01
  0
LINE
  8
0
 62
4
 10
2.50000000E-01
 20
1.20087311E+02
 11
2.50000000E-01
 21
9.25208504E+01
  0
LINE
  8
0
  6
CENTER
 62
6
 10
-7.50000000E-01
 20
9.76996091E+01
 11
-5.75000000E+00
 21
9.76996091E+01
  0
LINE
  8
0
  6
CENTER
 62
6
 10
-3.25000000E+00
 20
1.00199609E+02
 11
-3.25000000E+00
 21
9.51996091E+01
  0
LINE
  8
0
  6
CENTER
 62
6
 10
-1.12500000E+01
 20
1.00199609E+02
 11
-1.12500000E+01
 21
9.51996091E+01
  0
LINE
  8
0
  6
CENTER
 62
6
 10
-8.75000000E+00
 20
9.76996091E+01
 11
-1.37500000E+01
 21
9.76996091E+01
  0
LINE
  8
0
 62
4
 10
-5.02500000E+01
 20
1.11176212E+02
 11
-5.02500000E+01
 21
1.07103771E+02
  0
LINE
  8
0
 62
4
 10
-7.37500000E+01
 20
1.21875887E+02
 11
-7.37500000E+01
 21
1.11176212E+02
  0
LINE
  8
0
 62
4
 10
-4.37500000E+01
 20
1.05369434E+02
 11
-4.37500000E+01
 21
1.07359300E+02
  0
LINE
  8
0
 62
4
 10
-5.02500000E+01
 20
1.10359300E+02
 11
-3.28839746E+01
 21
1.10359300E+02
  0
LINE
  8
0
  6
CENTER
 62
6
 10
-7.87500000E+01
 20
1.08859300E+02
 11
-3.17500000E+01
 21
1.08859300E+02
  0
LINE
  8
0
 62
4
 10
-5.02500000E+01
 20
1.07359300E+02
 11
-3.46160254E+01
 21
1.07359300E+02
  0
LINE
  8
0
 62
4
 10
-1.47499390E+01
 20
1.07359300E+02
 11
-2.56159644E+01
 21
1.07359300E+02
  0
LINE
  8
0
  6
CENTER
 62
6
 10
2.02500610E+01
 20
1.08859300E+02
 11
-2.67499390E+01
 21
1.08859300E+02
  0
LINE
  8
0
 62
4
 10
-1.47499390E+01
 20
1.10359300E+02
 11
-2.38839136E+01
 21
1.10359300E+02
  0
LINE
  8
0
 62
6
 10
-2.30178881E+01
 20
1.11859300E+02
 11
-2.64819897E+01
 21
1.05859300E+02
  0
LINE
  8
0
 62
6
 10
-3.54820508E+01
 20
1.05859300E+02
 11
-3.20179492E+01
 21
1.11859300E+02
  0
LINE
  8
0
 62
4
 10
-4.37500000E+01
 20
1.10359300E+02
 11
-4.37500000E+01
 21
1.21875887E+02
  0
LINE
  8
0
 62
2
 10
-1.72250000E+02
 20
7.01894644E+01
 11
-1.63250000E+02
 21
7.01894644E+01
  0
LINE
  8
0
 62
7
 10
-1.72250000E+02
 20
6.93694723E+01
 11
-1.63250000E+02
 21
6.93694723E+01
  0
LINE
  8
0
 62
2
 10
-1.72250000E+02
 20
8.65494573E+01
 11
-1.63250000E+02
 21
8.65494573E+01
  0
LINE
  8
0
 62
7
 10
-1.72250000E+02
 20
8.73694647E+01
 11
-1.63250000E+02
 21
8.73694647E+01
  0
LINE
  8
0
 62
4
 10
-1.72250000E+02
 20
6.48694647E+01
 11
-1.72250000E+02
 21
9.18694647E+01
  0
LINE
  8
0
 62
4
 10
-1.83250000E+02
 20
6.48694647E+01
 11
-1.83250000E+02
 21
9.18694647E+01
  0
ARC
  8
0
 62
4
 10
-1.57455772E+02
 20
7.83694647E+01
 40
2.57942282E+01
 50
1.62412046E+02
 51
1.97587954E+02
  0
ARC
  8
0
 62
4
 10
-1.98044228E+02
 20
7.83694647E+01
 40
2.57942282E+01
 50
3.42412046E+02
 51
1.75879541E+01
  0
ARC
  8
0
 62
4
 10
-1.79150721E+02
 20
9.00608076E+01
 40
6.90072132E+00
 50
3.25615752E+02
 51
3.43842480E+01
  0
ARC
  8
0
 62
4
 10
-1.76349279E+02
 20
9.00608076E+01
 40
6.90072132E+00
 50
1.45615752E+02
 51
2.14384248E+02
  0
LINE
  8
0
 62
4
 10
-1.73455771E+02
 20
9.39579219E+01
 11
-1.72250000E+02
 21
9.18694647E+01
  0
LINE
  8
0
 62
4
 10
-1.82044229E+02
 20
9.39579219E+01
 11
-1.83250000E+02
 21
9.18694647E+01
  0
LINE
  8
0
 62
4
 10
-1.82044229E+02
 20
8.61636933E+01
 11
-1.73455771E+02
 21
8.61636933E+01
  0
LINE
  8
0
 62
4
 10
-1.82044229E+02
 20
9.39579219E+01
 11
-1.73455771E+02
 21
9.39579219E+01
  0
ARC
  8
0
 62
4
 10
-1.79150721E+02
 20
6.66781217E+01
 40
6.90072132E+00
 50
3.25615752E+02
 51
3.43842480E+01
  0
ARC
  8
0
 62
4
 10
-1.76349279E+02
 20
6.66781217E+01
 40
6.90072132E+00
 50
1.45615752E+02
 51
2.14384248E+02
  0
LINE
  8
0
 62
4
 10
-1.83250000E+02
 20
6.48694647E+01
 11
-1.82044229E+02
 21
6.27810074E+01
  0
LINE
  8
0
 62
4
 10
-1.72250000E+02
 20
6.48694647E+01
 11
-1.73455771E+02
 21
6.27810074E+01
  0
LINE
  8
0
 62
4
 10
-1.82044229E+02
 20
7.05752360E+01
 11
-1.73455771E+02
 21
7.05752360E+01
  0
LINE
  8
0
 62
4
 10
-1.82044229E+02
 20
6.27810074E+01
 11
-1.73455771E+02
 21
6.27810074E+01
  0
ARC
  8
0
 62
7
 10
-1.61750000E+02
 20
7.83694647E+01
 40
9.99998474E+00
 50
3.28211647E+02
 51
0.00000000E+00
  0
ARC
  8
0
 62
7
 10
-1.61750000E+02
 20
7.83694647E+01
 40
9.99998474E+00
 50
0.00000000E+00
 51
3.17883527E+01
  0
ARC
  8
0
 62
7
 10
-1.44250031E+02
 20
6.08694647E+01
 40
1.00000000E+00
 50
1.79999977E+02
 51
2.70000028E+02
  0
ARC
  8
0
 62
7
 10
-1.44250031E+02
 20
9.58694647E+01
 40
1.00000000E+00
 50
8.99999274E+01
 51
1.79999964E+02
  0
CIRCLE
  8
0
  6
DASHED
 62
7
 10
-1.14250000E+02
 20
7.83694647E+01
 40
2.00000000E+00
  0
CIRCLE
  8
0
  6
DASHED
 62
7
 10
-1.03250000E+02
 20
8.93694647E+01
 40
3.75000000E+00
  0
CIRCLE
  8
0
  6
DASHED
 62
7
 10
-1.25249985E+02
 20
8.93694647E+01
 40
3.75000000E+00
  0
CIRCLE
  8
0
  6
DASHED
 62
7
 10
-1.03250000E+02
 20
6.73694799E+01
 40
3.75000000E+00
  0
CIRCLE
  8
0
  6
DASHED
 62
2
 10
-1.14250000E+02
 20
7.83694647E+01
 40
2.50000000E+00
  0
CIRCLE
  8
0
  6
DASHED
 62
7
 10
-1.25249985E+02
 20
6.73694799E+01
 40
3.75000000E+00
  0
CIRCLE
  8
0
  6
DASHED
 62
7
 10
-1.14250000E+02
 20
7.83694647E+01
 40
1.95000000E+01
  0
ARC
  8
0
 62
7
 10
5.22500610E+01
 20
1.08336994E+02
 40
5.00000000E-01
 50
3.59999932E+02
 51
8.89997144E+01
  0
ARC
  8
0
 62
7
 10
5.22500610E+01
 20
4.84019277E+01
 40
5.00000000E-01
 50
2.71000156E+02
 51
3.59999945E+02
  0
ARC
  8
0
 62
7
 10
5.42500687E+01
 20
5.98694799E+01
 40
5.00000000E-01
 50
2.69999963E+02
 51
3.59999945E+02
  0
ARC
  8
0
 62
7
 10
5.42500687E+01
 20
9.68694647E+01
 40
5.00000000E-01
 50
3.59999932E+02
 51
8.99999274E+01
  0
LINE
  8
0
 62
7
 10
-1.63250000E+02
 20
7.01894644E+01
 11
-1.60250000E+02
 21
7.01894644E+01
  0
LINE
  8
0
 62
7
 10
-1.63250000E+02
 20
8.65494573E+01
 11
-1.60250000E+02
 21
8.65494573E+01
  0
LINE
  8
0
 62
7
 10
-1.60250006E+02
 20
6.93694736E+01
 11
-1.57250020E+02
 21
6.83694808E+01
  0
LINE
  8
0
 62
7
 10
-1.60249995E+02
 20
7.52470067E+01
 11
-1.57250019E+02
 21
7.31016573E+01
  0
LINE
  8
0
 62
7
 10
-1.60249989E+02
 20
8.14919068E+01
 11
-1.57249997E+02
 21
8.36373130E+01
  0
LINE
  8
0
 62
7
 10
-1.60250007E+02
 20
8.73694651E+01
 11
-1.57250018E+02
 21
8.83694510E+01
  0
LINE
  8
0
 62
7
 10
-1.57250092E+02
 20
8.83694494E+01
 11
-1.50250092E+02
 21
8.83694494E+01
  0
LINE
  8
0
 62
7
 10
-1.92250027E+02
 20
7.08695352E+01
 11
-1.90749991E+02
 21
6.93695458E+01
  0
LINE
  8
0
 62
2
 10
-1.91569946E+02
 20
7.01894644E+01
 11
-1.83250000E+02
 21
7.01894644E+01
  0
LINE
  8
0
 62
7
 10
-1.90749939E+02
 20
6.93694723E+01
 11
-1.83250000E+02
 21
6.93694723E+01
  0
LINE
  8
0
 62
7
 10
-1.92249942E+02
 20
8.58693316E+01
 11
-1.90749896E+02
 21
8.73693319E+01
  0
LINE
  8
0
 62
2
 10
-1.91569946E+02
 20
8.65494573E+01
 11
-1.83250000E+02
 21
8.65494573E+01
  0
LINE
  8
0
 62
7
 10
-1.90749939E+02
 20
8.73694647E+01
 11
-1.83250000E+02
 21
8.73694647E+01
  0
LINE
  8
0
 62
7
 10
-1.90750000E+02
 20
6.93694723E+01
 11
-1.90750000E+02
 21
8.73694647E+01
  0
LINE
  8
0
 62
7
 10
-1.92250000E+02
 20
7.08694952E+01
 11
-1.92250000E+02
 21
8.58693121E+01
  0
LINE
  8
0
 62
7
 10
-1.63250000E+02
 20
6.93694723E+01
 11
-1.63250000E+02
 21
8.73694647E+01
  0
LINE
  8
0
 62
7
 10
-1.53250031E+02
 20
8.36373175E+01
 11
-1.53250031E+02
 21
7.83694647E+01
  0
LINE
  8
0
 62
7
 10
-1.57250031E+02
 20
8.83694952E+01
 11
-1.57250031E+02
 21
8.36373175E+01
  0
LINE
  8
0
 62
7
 10
-1.57250092E+02
 20
6.83694799E+01
 11
-1.50250092E+02
 21
6.83694799E+01
  0
LINE
  8
0
 62
2
 10
-1.59283691E+02
 20
7.45559923E+01
 11
-1.53250009E+02
 21
8.36373104E+01
  0
LINE
  8
0
 62
2
 10
-1.59283679E+02
 20
8.21829503E+01
 11
-1.53250029E+02
 21
7.31016798E+01
  0
LINE
  8
0
 62
7
 10
-1.57250031E+02
 20
6.83694799E+01
 11
-1.57250031E+02
 21
7.31016577E+01
  0
LINE
  8
0
 62
7
 10
-1.57250092E+02
 20
7.31016577E+01
 11
-1.53250031E+02
 21
7.31016577E+01
  0
LINE
  8
0
 62
7
 10
-1.53250031E+02
 20
7.31016577E+01
 11
-1.53250031E+02
 21
7.83694647E+01
  0
LINE
  8
0
 62
7
 10
-1.57250092E+02
 20
8.36373175E+01
 11
-1.53250031E+02
 21
8.36373175E+01
  0
LINE
  8
0
 62
7
 10
-1.60250000E+02
 20
8.73694647E+01
 11
-1.60250000E+02
 21
6.93694723E+01
  0
LINE
  8
0
  6
CENTER
 62
2
 10
-1.14250000E+02
 20
1.11427158E+02
 11
-1.14250000E+02
 21
5.66846121E+01
  0
LINE
  8
0
 62
7
 10
-1.37750046E+02
 20
9.68694647E+01
 11
-1.37750046E+02
 21
5.98694647E+01
  0
LINE
  8
0
 62
7
 10
-1.37750099E+02
 20
5.98694508E+01
 11
-1.37250088E+02
 21
5.93694395E+01
  0
LINE
  8
0
 62
7
 10
-1.44250031E+02
 20
5.98694647E+01
 11
-1.37750015E+02
 21
5.98694647E+01
  0
LINE
  8
0
 62
7
 10
-1.37750137E+02
 20
9.68695505E+01
 11
-1.37250131E+02
 21
9.73695564E+01
  0
LINE
  8
0
 62
7
 10
-1.44250031E+02
 20
9.68694647E+01
 11
-1.37750015E+02
 21
9.68694647E+01
  0
LINE
  8
0
 62
7
 10
-1.50250016E+02
 20
6.18694644E+01
 11
-1.49750027E+02
 21
6.13694747E+01
  0
LINE
  8
0
 62
7
 10
-1.50250014E+02
 20
9.48694570E+01
 11
-1.49750032E+02
 21
9.53694544E+01
  0
LINE
  8
0
 62
7
 10
-1.37250031E+02
 20
5.93694723E+01
 11
-1.35250015E+02
 21
5.93694723E+01
  0
LINE
  8
0
 62
7
 10
-1.37250046E+02
 20
9.73694647E+01
 11
-1.35250015E+02
 21
9.73694647E+01
  0
LINE
  8
0
 62
7
 10
-1.49750061E+02
 20
9.53694647E+01
 11
-1.45241486E+02
 21
9.53694647E+01
  0
LINE
  8
0
 62
7
 10
-1.37250031E+02
 20
9.73694647E+01
 11
-1.37250031E+02
 21
5.93694570E+01
  0
LINE
  8
0
 62
7
 10
-1.49750031E+02
 20
6.13694570E+01
 11
-1.45241486E+02
 21
6.13694570E+01
  0
LINE
  8
0
  6
DASHED
 62
7
 10
-1.03249977E+02
 20
9.08128218E+01
 11
-1.04499973E+02
 21
9.00911445E+01
  0
LINE
  8
0
  6
DASHED
 62
7
 10
-1.04500000E+02
 20
9.00911749E+01
 11
-1.04500000E+02
 21
8.86477850E+01
  0
LINE
  8
0
  6
DASHED
 62
7
 10
-1.04499874E+02
 20
8.86478599E+01
 11
-1.03249898E+02
 21
8.79261940E+01
  0
LINE
  8
0
  6
DASHED
 62
7
 10
-1.03249939E+02
 20
8.79261357E+01
 11
-1.01999983E+02
 21
8.86477901E+01
  0
LINE
  8
0
  6
DASHED
 62
7
 10
-1.02000000E+02
 20
9.00911749E+01
 11
-1.02000000E+02
 21
8.86477850E+01
  0
LINE
  8
0
  6
DASHED
 62
7
 10
-1.03249935E+02
 20
9.08129338E+01
 11
-1.01999919E+02
 21
9.00912450E+01
  0
LINE
  8
0
  6
CENTER
 62
2
 10
-1.03250000E+02
 20
9.59465979E+01
 11
-1.03250000E+02
 21
8.32202719E+01
  0
LINE
  8
0
  6
CENTER
 62
2
 10
-9.63378906E+01
 20
8.93694647E+01
 11
-1.09064240E+02
 21
8.93694647E+01
  0
LINE
  8
0
  6
DASHED
 62
7
 10
-1.25249922E+02
 20
9.08129244E+01
 11
-1.23999879E+02
 21
9.00912203E+01
  0
LINE
  8
0
  6
DASHED
 62
7
 10
-1.23999985E+02
 20
9.00911749E+01
 11
-1.23999985E+02
 21
8.86477850E+01
  0
LINE
  8
0
  6
DASHED
 62
7
 10
-1.23999961E+02
 20
8.86477694E+01
 11
-1.25249963E+02
 21
8.79260883E+01
  0
LINE
  8
0
  6
DASHED
 62
7
 10
-1.25249924E+02
 20
8.79261770E+01
 11
-1.26499887E+02
 21
8.86478353E+01
  0
LINE
  8
0
  6
DASHED
 62
7
 10
-1.26499985E+02
 20
9.00911749E+01
 11
-1.26499985E+02
 21
8.86477850E+01
  0
LINE
  8
0
  6
DASHED
 62
7
 10
-1.25249999E+02
 20
9.08128634E+01
 11
-1.26500015E+02
 21
9.00911746E+01
  0
LINE
  8
0
  6
CENTER
 62
2
 10
-1.25249985E+02
 20
9.59465979E+01
 11
-1.25249985E+02
 21
8.32202719E+01
  0
LINE
  8
0
  6
CENTER
 62
2
 10
-1.32162079E+02
 20
8.93694647E+01
 11
-1.19435730E+02
 21
8.93694647E+01
  0
LINE
  8
0
  6
DASHED
 62
7
 10
-1.03249932E+02
 20
6.59261933E+01
 11
-1.04499947E+02
 21
6.66478821E+01
  0
LINE
  8
0
  6
DASHED
 62
7
 10
-1.04500000E+02
 20
6.66477774E+01
 11
-1.04500000E+02
 21
6.80911672E+01
  0
LINE
  8
0
  6
DASHED
 62
7
 10
-1.04499996E+02
 20
6.80911672E+01
 11
-1.03250007E+02
 21
6.88128408E+01
  0
LINE
  8
0
  6
DASHED
 62
7
 10
-1.03249937E+02
 20
6.88129265E+01
 11
-1.01999948E+02
 21
6.80912530E+01
  0
LINE
  8
0
  6
DASHED
 62
7
 10
-1.02000000E+02
 20
6.66477774E+01
 11
-1.02000000E+02
 21
6.80911672E+01
  0
LINE
  8
0
  6
DASHED
 62
7
 10
-1.03250007E+02
 20
6.59260976E+01
 11
-1.01999978E+02
 21
6.66477941E+01
  0
LINE
  8
0
  6
CENTER
 62
2
 10
-1.03250000E+02
 20
6.07923544E+01
 11
-1.03250000E+02
 21
7.35186804E+01
  0
LINE
  8
0
  6
CENTER
 62
2
 10
-9.63378906E+01
 20
6.73694799E+01
 11
-1.09064240E+02
 21
6.73694799E+01
  0
LINE
  8
0
  6
DASHED
 62
7
 10
-1.26499985E+02
 20
6.66477774E+01
 11
-1.26499985E+02
 21
6.80911672E+01
  0
LINE
  8
0
  6
DASHED
 62
7
 10
-1.23999985E+02
 20
6.66477774E+01
 11
-1.23999985E+02
 21
6.80911672E+01
  0
LINE
  8
0
  6
DASHED
 62
7
 10
-1.25249994E+02
 20
6.88128503E+01
 11
-1.26500009E+02
 21
6.80911615E+01
  0
LINE
  8
0
  6
DASHED
 62
7
 10
-1.23999866E+02
 20
6.80912410E+01
 11
-1.25249881E+02
 21
6.88129298E+01
  0
LINE
  8
0
  6
DASHED
 62
7
 10
-1.25249924E+02
 20
6.59262354E+01
 11
-1.26499913E+02
 21
6.66479089E+01
  0
LINE
  8
0
  6
DASHED
 62
7
 10
-1.25250015E+02
 20
6.59261128E+01
 11
-1.23999986E+02
 21
6.66478092E+01
  0
LINE
  8
0
  6
CENTER
 62
2
 10
-1.25249985E+02
 20
6.07923544E+01
 11
-1.25249985E+02
 21
7.35186804E+01
  0
LINE
  8
0
  6
CENTER
 62
2
 10
-1.32162079E+02
 20
6.73694799E+01
 11
-1.19435730E+02
 21
6.73694799E+01
  0
LINE
  8
0
 62
7
 10
-1.35249985E+02
 20
4.73694799E+01
 11
-8.42500305E+01
 21
4.73694799E+01
  0
LINE
  8
0
 62
7
 10
-1.49750031E+02
 20
6.13694570E+01
 11
-1.49750031E+02
 21
9.53694647E+01
  0
LINE
  8
0
 62
7
 10
-1.35249985E+02
 20
1.09369465E+02
 11
-8.42500305E+01
 21
1.09369465E+02
  0
LINE
  8
0
 62
7
 10
4.77500153E+01
 20
4.78232229E+01
 11
4.77500153E+01
 21
4.73694799E+01
  0
LINE
  8
0
 62
7
 10
-1.35250046E+02
 20
1.09369465E+02
 11
-1.35250046E+02
 21
4.73694647E+01
  0
LINE
  8
0
 62
7
 10
4.77500229E+01
 20
4.73694799E+01
 11
2.17500153E+01
 21
4.73694799E+01
  0
LINE
  8
0
 62
7
 10
2.17499961E+01
 20
1.09369279E+02
 11
5.22587465E+01
 21
1.08836742E+02
  0
LINE
  8
0
 62
7
 10
2.17500829E+01
 20
4.73693158E+01
 11
5.22587875E+01
 21
4.79018426E+01
  0
LINE
  8
0
 62
7
 10
5.47500229E+01
 20
5.98694799E+01
 11
5.47500229E+01
 21
9.68988989E+01
  0
LINE
  8
0
 62
7
 10
5.27500153E+01
 20
1.08336994E+02
 11
5.27500153E+01
 21
4.84019506E+01
  0
LINE
  8
0
 62
7
 10
5.42500687E+01
 20
5.93694494E+01
 11
5.27500687E+01
 21
5.93694494E+01
  0
LINE
  8
0
 62
7
 10
5.42500687E+01
 20
9.73694342E+01
 11
5.27500687E+01
 21
9.73694342E+01
  0
LINE
  8
0
 62
7
 10
-1.45250031E+02
 20
6.08694647E+01
 11
-1.45250031E+02
 21
9.58694647E+01
  0
LINE
  8
0
  6
CENTER
 62
2
 10
3.47500381E+01
 20
1.11121860E+02
 11
3.47500381E+01
 21
1.00043827E+02
  0
LINE
  8
0
 62
7
 10
4.77500153E+01
 20
1.08915516E+02
 11
4.77500153E+01
 21
1.09369465E+02
  0
LINE
  8
0
 62
7
 10
4.77500229E+01
 20
1.09369465E+02
 11
2.17500153E+01
 21
1.09369465E+02
  0
LINE
  8
0
 62
7
 10
-1.50250031E+02
 20
6.18694570E+01
 11
-1.50250031E+02
 21
9.48694799E+01
  0
LINE
  8
0
 62
7
 10
2.17500000E+01
 20
1.05369434E+02
 11
1.52500000E+01
 21
1.05369434E+02
  0
LINE
  8
0
 62
7
 10
2.17500000E+01
 20
1.04519443E+02
 11
1.52500000E+01
 21
1.04519443E+02
  0
LINE
  8
0
  6
CENTER
 62
2
 10
5.49769897E+01
 20
1.01869449E+02
 11
-1.37037247E+02
 21
1.01869449E+02
  0
LINE
  8
0
 62
7
 10
2.17500000E+01
 20
9.92194555E+01
 11
2.50000000E-01
 21
9.92194555E+01
  0
LINE
  8
0
 62
7
 10
2.17500000E+01
 20
5.13694876E+01
 11
-8.42500000E+01
 21
5.13694876E+01
  0
LINE
  8
0
 62
7
 10
2.17500000E+01
 20
5.22194860E+01
 11
-8.42500000E+01
 21
5.22194860E+01
  0
LINE
  8
0
 62
7
 10
2.17500000E+01
 20
5.75194738E+01
 11
-8.42500000E+01
 21
5.75194738E+01
  0
LINE
  8
0
  6
CENTER
 62
2
 10
5.49769897E+01
 20
5.48694799E+01
 11
-1.38431290E+02
 21
5.48694799E+01
  0
LINE
  8
0
 62
7
 10
2.17500000E+01
 20
1.09369465E+02
 11
2.17500000E+01
 21
4.73432043E+01
  0
LINE
  8
0
 62
7
 10
-8.42500000E+01
 20
1.09369465E+02
 11
-8.42500000E+01
 21
4.73432043E+01
  0
LINE
  8
0
  6
CENTER
 62
2
 10
-1.96284302E+02
 20
7.83694647E+01
 11
5.90549469E+01
 21
7.83694647E+01
  0
CIRCLE
  8
0
 62
7
 10
-3.11250153E+02
 20
5.48694876E+01
 40
2.45850000E+00
  0
CIRCLE
  8
0
 62
7
 10
-2.64249908E+02
 20
5.48694876E+01
 40
2.45850000E+00
  0
CIRCLE
  8
0
 62
7
 10
-2.64250061E+02
 20
1.01869510E+02
 40
2.45850000E+00
  0
CIRCLE
  8
0
 62
7
 10
-3.11250031E+02
 20
1.01869556E+02
 40
2.45850000E+00
  0
LINE
  8
0
  6
CENTER
 62
6
 10
-3.20283922E+02
 20
9.73825387E+01
 11
-3.12817918E+02
 21
9.86989967E+01
  0
LINE
  8
0
  6
CENTER
 62
6
 10
-2.96173287E+02
 20
1.09369465E+02
 11
-2.95562384E+02
 21
1.05904862E+02
  0
LINE
  8
0
 62
4
 10
-2.97325797E+02
 20
1.09369465E+02
 11
-2.97397308E+02
 21
1.09775027E+02
  0
LINE
  8
0
  6
CENTER
 62
6
 10
-2.79326652E+02
 20
1.09369465E+02
 11
-2.79937554E+02
 21
1.05904862E+02
  0
LINE
  8
0
  6
CENTER
 62
6
 10
-2.82309982E+02
 20
1.09369465E+02
 11
-2.82371033E+02
 21
1.09380230E+02
  0
LINE
  8
0
 62
4
 10
-2.56750031E+02
 20
1.04689286E+02
 11
-2.56097686E+02
 21
1.02896984E+02
  0
LINE
  8
0
 62
4
 10
-3.18749969E+02
 20
1.04689118E+02
 11
-3.19402253E+02
 21
1.02896984E+02
  0
LINE
  8
0
 62
4
 10
-2.81032981E+02
 20
1.10058179E+02
 11
-2.78949202E+02
 21
1.21875872E+02
  0
ARC
  8
0
 62
4
 10
-2.71555506E+02
 20
1.12440893E+02
 40
1.18100000E+01
 50
1.70000000E+02
 51
1.90532699E+02
  0
ARC
  8
0
 62
4
 10
-2.71552819E+02
 20
1.12456135E+02
 40
1.18100000E+01
 50
1.67900933E+02
 51
1.70000000E+02
  0
LINE
  8
0
 62
4
 10
-2.81433255E+02
 20
1.09976444E+02
 11
-2.83166516E+02
 21
1.10282065E+02
  0
LINE
  8
0
 62
4
 10
-2.81032981E+02
 20
1.10058179E+02
 11
-2.81407207E+02
 21
1.10124165E+02
  0
LINE
  8
0
 62
4
 10
-2.81433255E+02
 20
1.09976444E+02
 11
-2.80764709E+02
 21
1.13767954E+02
  0
LINE
  8
0
 62
4
 10
-2.81375290E+02
 20
1.13875616E+02
 11
-2.80055564E+02
 21
1.21360155E+02
  0
LINE
  8
0
 62
4
 10
-2.80125023E+02
 20
1.20966232E+02
 11
-2.81237856E+02
 21
1.21162454E+02
  0
LINE
  8
0
 62
4
 10
-2.81305831E+02
 20
1.14269539E+02
 11
-2.82418664E+02
 21
1.14465761E+02
  0
ARC
  8
0
 62
4
 10
-2.71448966E+02
 20
1.15983958E+02
 40
1.18100000E+01
 50
1.57172490E+02
 51
1.82827510E+02
  0
ARC
  8
0
 62
4
 10
-2.81412294E+02
 20
1.20177786E+02
 40
1.00000000E+00
 50
7.99999999E+01
 51
1.57172490E+02
  0
ARC
  8
0
 62
4
 10
-2.82245806E+02
 20
1.15450708E+02
 40
1.00000000E+00
 50
1.82827510E+02
 51
2.60000000E+02
  0
LINE
  8
0
 62
4
 10
-2.79070756E+02
 20
1.21186506E+02
 11
-2.80055564E+02
 21
1.21360155E+02
  0
LINE
  8
0
 62
4
 10
-2.80390482E+02
 20
1.13701968E+02
 11
-2.81375290E+02
 21
1.13875616E+02
  0
ARC
  8
0
 62
4
 10
-2.79286374E+02
 20
1.09597891E+02
 40
5.00000000E-01
 50
3.32815800E+02
 51
2.07184200E+02
  0
ARC
  8
0
 62
4
 10
-2.79286374E+02
 20
1.09597891E+02
 40
3.00000000E-01
 50
3.10410364E+02
 51
2.29589636E+02
  0
ARC
  8
0
 62
4
 10
-2.79416610E+02
 20
1.08859285E+02
 40
1.50000000E+00
 50
1.98841649E+01
 51
1.60115835E+02
  0
LINE
  8
0
 62
4
 10
-2.56097686E+02
 20
1.02896984E+02
 11
-2.56750031E+02
 21
9.91973534E+01
  0
LINE
  8
0
 62
4
 10
-2.68805683E+02
 20
1.20087296E+02
 11
-2.61912028E+02
 21
1.18871758E+02
  0
LINE
  8
0
 62
4
 10
-2.61912028E+02
 20
1.18871758E+02
 11
-2.58216366E+02
 21
1.08718010E+02
  0
LINE
  8
0
 62
4
 10
-2.70281692E+02
 20
1.11716430E+02
 11
-2.69789288E+02
 21
1.11629606E+02
  0
LINE
  8
0
 62
4
 10
-2.69383708E+02
 20
1.11050378E+02
 11
-2.69680099E+02
 21
1.09369465E+02
  0
ARC
  8
0
 62
4
 10
-2.69876112E+02
 20
1.11137202E+02
 40
5.00000000E-01
 50
3.50000000E+02
 51
7.99999999E+01
  0
LINE
  8
0
  6
CENTER
 62
6
 10
-2.62682021E+02
 20
9.86989967E+01
 11
-2.55216017E+02
 21
9.73825387E+01
  0
LINE
  8
0
  6
CENTER
 62
6
 10
-2.68656429E+02
 20
1.11937565E+02
 11
-2.81506934E+02
 21
1.14203456E+02
  0
LINE
  8
0
  6
CENTER
 62
6
 10
-2.58814793E+02
 20
1.13756213E+02
 11
-2.80899166E+02
 21
1.17650283E+02
  0
LINE
  8
0
 62
4
 10
-2.77574737E+02
 20
1.10666909E+02
 11
-2.77899201E+02
 21
1.11130292E+02
  0
LINE
  8
0
 62
4
 10
-2.77899201E+02
 20
1.11130292E+02
 11
-2.80755143E+02
 21
1.11633871E+02
  0
LINE
  8
0
 62
4
 10
-2.77082333E+02
 20
1.10580085E+02
 11
-2.77295798E+02
 21
1.09369465E+02
  0
LINE
  8
0
 62
4
 10
-2.77082333E+02
 20
1.10580085E+02
 11
-2.77574737E+02
 21
1.10666909E+02
  0
LINE
  8
0
 62
4
 10
-2.68805683E+02
 20
1.20087296E+02
 11
-2.70281692E+02
 21
1.11716430E+02
  0
LINE
  8
0
 62
4
 10
-2.78949202E+02
 20
1.21875872E+02
 11
-2.68805683E+02
 21
1.20087296E+02
  0
LINE
  8
0
 62
4
 10
-2.69887769E+02
 20
1.11646971E+02
 11
-2.70289355E+02
 21
1.09369465E+02
  0
LINE
  8
0
 62
4
 10
-2.77099698E+02
 20
1.10481604E+02
 11
-2.81038929E+02
 21
1.11176197E+02
  0
LINE
  8
0
 62
4
 10
-2.81038929E+02
 20
1.11176197E+02
 11
-2.81357505E+02
 21
1.09369465E+02
  0
LINE
  8
0
  6
CENTER
 62
6
 10
-2.78895665E+02
 20
1.11813708E+02
 11
-2.79326652E+02
 21
1.09369465E+02
  0
LINE
  8
0
  6
CENTER
 62
6
 10
-2.76462187E+02
 20
1.08338341E+02
 11
-2.82309982E+02
 21
1.09369465E+02
  0
LINE
  8
0
 62
4
 10
-2.53629068E+02
 20
9.91335700E+01
 11
-2.56666830E+02
 21
9.96692094E+01
  0
LINE
  8
0
 62
4
 10
-2.54323661E+02
 20
9.51943390E+01
 11
-2.56750031E+02
 21
9.56221735E+01
  0
LINE
  8
0
 62
6
 10
-2.53715892E+02
 20
9.86411661E+01
 11
-2.56753654E+02
 21
9.91768055E+01
  0
LINE
  8
0
 62
6
 10
-2.54236836E+02
 20
9.56867429E+01
 11
-2.56750031E+02
 21
9.61298868E+01
  0
LINE
  8
0
 62
4
 10
-2.54323661E+02
 20
9.51943390E+01
 11
-2.53629068E+02
 21
9.91335700E+01
  0
LINE
  8
0
 62
4
 10
-2.94657971E+02
 20
1.11141467E+02
 11
-2.96550737E+02
 21
1.21875872E+02
  0
ARC
  8
0
 62
4
 10
-3.03944433E+02
 20
1.12440893E+02
 40
1.18100000E+01
 50
3.49467301E+02
 51
9.99999999E+00
  0
ARC
  8
0
 62
4
 10
-3.03947120E+02
 20
1.12456135E+02
 40
1.18100000E+01
 50
9.99999999E+00
 51
3.05326991E+01
  0
LINE
  8
0
 62
4
 10
-2.94066684E+02
 20
1.09976444E+02
 11
-2.92333423E+02
 21
1.10282065E+02
  0
LINE
  8
0
 62
4
 10
-2.95507964E+02
 20
1.18150348E+02
 11
-2.93774702E+02
 21
1.18455969E+02
  0
LINE
  8
0
 62
4
 10
-2.94269997E+02
 20
1.10092909E+02
 11
-2.94092731E+02
 21
1.10124165E+02
  0
LINE
  8
0
 62
4
 10
-2.95856144E+02
 20
1.17936641E+02
 11
-2.95481917E+02
 21
1.18002627E+02
  0
LINE
  8
0
 62
4
 10
-2.94066684E+02
 20
1.09976444E+02
 11
-2.95507964E+02
 21
1.18150348E+02
  0
LINE
  8
0
 62
4
 10
-2.94897383E+02
 20
1.18258010E+02
 11
-2.95444375E+02
 21
1.21360155E+02
  0
LINE
  8
0
 62
4
 10
-2.95374916E+02
 20
1.20966232E+02
 11
-2.94262083E+02
 21
1.21162454E+02
  0
ARC
  8
0
 62
4
 10
-3.04050973E+02
 20
1.15983958E+02
 40
1.18100000E+01
 50
3.57172490E+02
 51
2.28275100E+01
  0
ARC
  8
0
 62
4
 10
-2.94087645E+02
 20
1.20177786E+02
 40
1.00000000E+00
 50
2.28275100E+01
 51
9.99999999E+01
  0
ARC
  8
0
 62
4
 10
-2.93254133E+02
 20
1.15450708E+02
 40
1.00000000E+00
 50
3.28723662E+02
 51
3.57172490E+02
  0
LINE
  8
0
 62
4
 10
-2.96429183E+02
 20
1.21186506E+02
 11
-2.95444375E+02
 21
1.21360155E+02
  0
LINE
  8
0
  6
CENTER
 62
6
 10
-2.99037752E+02
 20
1.08338341E+02
 11
-2.93128906E+02
 21
1.09380230E+02
  0
LINE
  8
0
  6
CENTER
 62
6
 10
-2.96604274E+02
 20
1.11813708E+02
 11
-2.96173287E+02
 21
1.09369465E+02
  0
LINE
  8
0
 62
4
 10
-2.94461010E+02
 20
1.11176197E+02
 11
-2.94142434E+02
 21
1.09369465E+02
  0
LINE
  8
0
 62
4
 10
-2.98400241E+02
 20
1.10481604E+02
 11
-2.94461010E+02
 21
1.11176197E+02
  0
LINE
  8
0
 62
4
 10
-2.97397308E+02
 20
1.09775027E+02
 11
-2.95166719E+02
 21
1.10168340E+02
  0
LINE
  8
0
 62
4
 10
-2.98400241E+02
 20
1.10481604E+02
 11
-2.97397308E+02
 21
1.09775027E+02
  0
LINE
  8
0
 62
4
 10
-2.94461010E+02
 20
1.11176197E+02
 11
-2.95166719E+02
 21
1.10168340E+02
  0
LINE
  8
0
 62
4
 10
-2.95166719E+02
 20
1.10168340E+02
 11
-2.95025855E+02
 21
1.09369465E+02
  0
LINE
  8
0
 62
4
 10
-3.05612170E+02
 20
1.11646971E+02
 11
-3.05210584E+02
 21
1.09369465E+02
  0
LINE
  8
0
 62
4
 10
-2.96550737E+02
 20
1.21875872E+02
 11
-3.06694256E+02
 21
1.20087296E+02
  0
LINE
  8
0
 62
4
 10
-3.06694256E+02
 20
1.20087296E+02
 11
-3.05218247E+02
 21
1.11716430E+02
  0
LINE
  8
0
 62
4
 10
-2.98417606E+02
 20
1.10580085E+02
 11
-2.97925202E+02
 21
1.10666909E+02
  0
LINE
  8
0
 62
4
 10
-2.98417606E+02
 20
1.10580085E+02
 11
-2.98204141E+02
 21
1.09369465E+02
  0
LINE
  8
0
 62
4
 10
-2.97600738E+02
 20
1.11130292E+02
 11
-2.94744796E+02
 21
1.11633871E+02
  0
LINE
  8
0
 62
4
 10
-2.97925202E+02
 20
1.10666909E+02
 11
-2.97600738E+02
 21
1.11130292E+02
  0
LINE
  8
0
  6
CENTER
 62
6
 10
-3.16685146E+02
 20
1.13756213E+02
 11
-2.94600773E+02
 21
1.17650283E+02
  0
LINE
  8
0
  6
CENTER
 62
6
 10
-3.06843510E+02
 20
1.11937565E+02
 11
-2.93993005E+02
 21
1.14203456E+02
  0
ARC
  8
0
 62
4
 10
-3.05623827E+02
 20
1.11137202E+02
 40
5.00000000E-01
 50
9.99999999E+01
 51
1.90000000E+02
  0
LINE
  8
0
 62
4
 10
-3.06116231E+02
 20
1.11050378E+02
 11
-3.05819840E+02
 21
1.09369465E+02
  0
LINE
  8
0
 62
4
 10
-3.05218247E+02
 20
1.11716430E+02
 11
-3.05710651E+02
 21
1.11629606E+02
  0
LINE
  8
0
 62
4
 10
-3.13587911E+02
 20
1.18871758E+02
 11
-3.17283574E+02
 21
1.08718007E+02
  0
LINE
  8
0
 62
4
 10
-3.06694256E+02
 20
1.20087296E+02
 11
-3.13587911E+02
 21
1.18871758E+02
  0
LINE
  8
0
 62
4
 10
-3.19402253E+02
 20
1.02896984E+02
 11
-3.18749969E+02
 21
9.91976995E+01
  0
LINE
  8
0
 62
4
 10
-3.21870871E+02
 20
9.91335700E+01
 11
-3.18833109E+02
 21
9.96692094E+01
  0
LINE
  8
0
 62
4
 10
-3.21647975E+02
 20
9.78694647E+01
 11
-3.21870871E+02
 21
9.91335700E+01
  0
LINE
  8
0
 62
6
 10
-3.21784047E+02
 20
9.86411661E+01
 11
-3.18746285E+02
 21
9.91768055E+01
  0
LINE
  8
0
 62
4
 10
-2.74249969E+02
 20
8.61636933E+01
 11
-2.87749969E+02
 21
9.39579219E+01
  0
LINE
  8
0
 62
4
 10
-2.74249969E+02
 20
7.05752360E+01
 11
-2.74249969E+02
 21
8.61636933E+01
  0
LINE
  8
0
 62
4
 10
-2.87749969E+02
 20
6.27810074E+01
 11
-2.74249969E+02
 21
7.05752360E+01
  0
LINE
  8
0
 62
4
 10
-3.01249969E+02
 20
7.05752360E+01
 11
-2.87749969E+02
 21
6.27810074E+01
  0
LINE
  8
0
 62
4
 10
-3.01249969E+02
 20
8.61636933E+01
 11
-3.01249969E+02
 21
7.05752360E+01
  0
LINE
  8
0
 62
4
 10
-2.87749969E+02
 20
9.39579219E+01
 11
-3.01249969E+02
 21
8.61636933E+01
  0
CIRCLE
  8
0
 62
4
 10
-2.87749969E+02
 20
7.83694647E+01
 40
1.35000000E+01
  0
CIRCLE
  8
0
 62
2
 10
-2.87749969E+02
 20
7.83694647E+01
 40
8.18000031E+00
  0
CIRCLE
  8
0
 62
7
 10
-2.87749969E+02
 20
7.83694647E+01
 40
8.99999237E+00
  0
ARC
  8
0
 62
7
 10
-3.15250031E+02
 20
1.05869480E+02
 40
3.50000000E+00
 50
8.99999818E+01
 51
1.79999964E+02
  0
ARC
  8
0
 62
7
 10
-2.60250000E+02
 20
1.05869480E+02
 40
3.50000000E+00
 50
0.00000000E+00
 51
8.99999818E+01
  0
ARC
  8
0
 62
7
 10
-2.60250000E+02
 20
5.08694723E+01
 40
3.50000000E+00
 50
2.70000018E+02
 51
0.00000000E+00
  0
ARC
  8
0
 62
7
 10
-3.15250031E+02
 20
5.08694723E+01
 40
3.50000000E+00
 50
1.79999977E+02
 51
2.70000028E+02
  0
CIRCLE
  8
0
 62
7
 10
-2.87750000E+02
 20
7.83694723E+01
 40
1.65000000E+01
  0
CIRCLE
  8
0
 62
7
 10
-2.87750000E+02
 20
7.83694723E+01
 40
1.70000000E+01
  0
CIRCLE
  8
0
 62
7
 10
-2.87750000E+02
 20
7.83694723E+01
 40
1.90000000E+01
  0
ARC
  8
0
 62
7
 10
-3.22872498E+02
 20
8.81040075E+01
 40
2.50000000E+00
 50
1.72308570E+02
 51
2.63627161E+02
  0
ARC
  8
0
 62
7
 10
-3.22872498E+02
 20
6.61040380E+01
 40
2.50000000E+00
 50
1.87691403E+02
 51
2.69999963E+02
  0
ARC
  8
0
 62
7
 10
-3.22872498E+02
 20
6.86348989E+01
 40
2.50000000E+00
 50
9.63728081E+01
 51
1.87691385E+02
  0
ARC
  8
0
 62
7
 10
-3.22872498E+02
 20
9.06349066E+01
 40
2.50000000E+00
 50
8.99999956E+01
 51
1.72308570E+02
  0
CIRCLE
  8
0
 62
2
 10
-2.64249939E+02
 20
1.01869556E+02
 40
3.00000000E+00
  0
CIRCLE
  8
0
 62
2
 10
-2.64250061E+02
 20
5.48694876E+01
 40
3.00000000E+00
  0
CIRCLE
  8
0
 62
2
 10
-3.11250153E+02
 20
5.48694876E+01
 40
3.00000000E+00
  0
CIRCLE
  8
0
 62
7
 10
-2.64250031E+02
 20
5.48694113E+01
 40
5.00000000E+00
  0
CIRCLE
  8
0
 62
7
 10
-2.64250031E+02
 20
5.48694113E+01
 40
4.50000000E+00
  0
CIRCLE
  8
0
 62
7
 10
-3.11250092E+02
 20
5.48694723E+01
 40
5.00000000E+00
  0
CIRCLE
  8
0
 62
7
 10
-3.11250092E+02
 20
5.48694723E+01
 40
4.50000000E+00
  0
CIRCLE
  8
0
 62
7
 10
-3.11250031E+02
 20
1.01869541E+02
 40
5.00000000E+00
  0
CIRCLE
  8
0
 62
7
 10
-3.11250031E+02
 20
1.01869541E+02
 40
4.50000000E+00
  0
CIRCLE
  8
0
 62
7
 10
-2.64249939E+02
 20
1.01869480E+02
 40
4.50000000E+00
  0
CIRCLE
  8
0
 62
7
 10
-2.64249939E+02
 20
1.01869480E+02
 40
5.00000000E+00
  0
CIRCLE
  8
0
 62
2
 10
-3.11250031E+02
 20
1.01869556E+02
 40
3.00000000E+00
  0
LINE
  8
0
 62
7
 10
-3.11250141E+02
 20
5.83335622E+01
 11
-3.08250161E+02
 21
5.66015181E+01
  0
LINE
  8
0
 62
7
 10
-3.08250153E+02
 20
5.66015356E+01
 11
-3.08250153E+02
 21
5.31374395E+01
  0
LINE
  8
0
 62
7
 10
-3.08250208E+02
 20
5.31375568E+01
 11
-3.11250214E+02
 21
5.14054974E+01
  0
LINE
  8
0
 62
7
 10
-3.11250160E+02
 20
5.14053825E+01
 11
-3.14250113E+02
 21
5.31374114E+01
  0
LINE
  8
0
 62
7
 10
-3.14250122E+02
 20
5.66015356E+01
 11
-3.14250122E+02
 21
5.31374395E+01
  0
LINE
  8
0
 62
7
 10
-3.11250199E+02
 20
5.83336791E+01
 11
-3.14250206E+02
 21
5.66016197E+01
  0
LINE
  8
0
 62
7
 10
-3.11250031E+02
 20
1.05333627E+02
 11
-3.08250045E+02
 21
1.03601595E+02
  0
LINE
  8
0
 62
7
 10
-3.08250000E+02
 20
1.03601597E+02
 11
-3.08250000E+02
 21
1.00137485E+02
  0
LINE
  8
0
 62
7
 10
-3.08250096E+02
 20
1.00137616E+02
 11
-3.11250109E+02
 21
9.84055680E+01
  0
LINE
  8
0
 62
7
 10
-3.11250028E+02
 20
9.84054412E+01
 11
-3.14250040E+02
 21
1.00137489E+02
  0
LINE
  8
0
 62
7
 10
-3.14250031E+02
 20
1.03601597E+02
 11
-3.14250031E+02
 21
1.00137485E+02
  0
LINE
  8
0
 62
7
 10
-3.11250094E+02
 20
1.05333734E+02
 11
-3.14250107E+02
 21
1.03601687E+02
  0
LINE
  8
0
 62
7
 10
-2.64250060E+02
 20
1.05333595E+02
 11
-2.61250074E+02
 21
1.03601562E+02
  0
LINE
  8
0
 62
7
 10
-2.61250061E+02
 20
1.03601581E+02
 11
-2.61250061E+02
 21
1.00137455E+02
  0
LINE
  8
0
 62
7
 10
-2.61250163E+02
 20
1.00137561E+02
 11
-2.64250162E+02
 21
9.84055207E+01
  0
LINE
  8
0
 62
7
 10
-2.64250074E+02
 20
9.84053787E+01
 11
-2.67250113E+02
 21
1.00137442E+02
  0
LINE
  8
0
 62
7
 10
-2.67250092E+02
 20
1.03601581E+02
 11
-2.67250092E+02
 21
1.00137455E+02
  0
LINE
  8
0
 62
7
 10
-2.64250134E+02
 20
1.05333695E+02
 11
-2.67250134E+02
 21
1.03601654E+02
  0
LINE
  8
0
 62
7
 10
-2.64249939E+02
 20
5.83335640E+01
 11
-2.61249906E+02
 21
5.66014893E+01
  0
LINE
  8
0
 62
7
 10
-2.61249908E+02
 20
5.66015356E+01
 11
-2.61249908E+02
 21
5.31374395E+01
  0
LINE
  8
0
 62
7
 10
-2.61250006E+02
 20
5.31375550E+01
 11
-2.64249999E+02
 21
5.14055032E+01
  0
LINE
  8
0
 62
7
 10
-2.64249905E+02
 20
5.14053538E+01
 11
-2.67249938E+02
 21
5.31374284E+01
  0
LINE
  8
0
 62
7
 10
-2.64250013E+02
 20
5.83337037E+01
 11
-2.67250019E+02
 21
5.66016444E+01
  0
LINE
  8
0
  6
CENTER
 62
2
 10
-2.75749969E+02
 20
1.11843754E+02
 11
-2.75749969E+02
 21
8.60319097E+01
  0
LINE
  8
0
  6
CENTER
 62
2
 10
-2.64249908E+02
 20
6.12508810E+01
 11
-2.64249908E+02
 21
4.67292135E+01
  0
LINE
  8
0
 62
7
 10
-2.60250000E+02
 20
1.09369480E+02
 11
-3.15250000E+02
 21
1.09369480E+02
  0
LINE
  8
0
 62
7
 10
-2.56750031E+02
 20
1.05869480E+02
 11
-2.56750031E+02
 21
5.08694723E+01
  0
LINE
  8
0
  6
CENTER
 62
2
 10
-2.55743378E+02
 20
1.01869510E+02
 11
-2.70664520E+02
 21
1.01869510E+02
  0
LINE
  8
0
  6
CENTER
 62
2
 10
-2.64250061E+02
 20
1.10257541E+02
 11
-2.64250061E+02
 21
9.42931250E+01
  0
LINE
  8
0
  6
CENTER
 62
2
 10
-2.70631409E+02
 20
5.48694876E+01
 11
-2.56109772E+02
 21
5.48694876E+01
  0
LINE
  8
0
 62
7
 10
-2.60250000E+02
 20
4.73694723E+01
 11
-3.15250000E+02
 21
4.73694723E+01
  0
LINE
  8
0
  6
CENTER
 62
2
 10
-3.11250153E+02
 20
4.62464712E+01
 11
-3.11250153E+02
 21
6.28889730E+01
  0
LINE
  8
0
  6
CENTER
 62
2
 10
-3.19694702E+02
 20
5.48694876E+01
 11
-3.04882660E+02
 21
5.48694876E+01
  0
LINE
  8
0
  6
CENTER
 62
2
 10
-3.19839935E+02
 20
1.01869556E+02
 11
-3.05173035E+02
 21
1.01869556E+02
  0
LINE
  8
0
  6
CENTER
 62
2
 10
-3.11250031E+02
 20
1.10272114E+02
 11
-3.11250031E+02
 21
9.39851263E+01
  0
LINE
  8
0
  6
CENTER
 62
2
 10
-3.24518646E+02
 20
7.83694647E+01
 11
-2.53757690E+02
 21
7.83694647E+01
  0
LINE
  8
0
  6
CENTER
 62
2
 10
-2.87749969E+02
 20
1.12407337E+02
 11
-2.87749969E+02
 21
4.50424459E+01
  0
LINE
  8
0
 62
7
 10
-3.18750031E+02
 20
1.05869480E+02
 11
-3.18750031E+02
 21
5.08694723E+01
  0
LINE
  8
0
  6
CENTER
 62
2
 10
-2.94750000E+02
 20
1.11121860E+02
 11
-2.94750000E+02
 21
9.18694647E+01
  0
LINE
  8
0
 62
7
 10
-3.22750000E+02
 20
5.88694570E+01
 11
-3.18750031E+02
 21
5.88694570E+01
  0
LINE
  8
0
 62
7
 10
-3.22750000E+02
 20
9.78694647E+01
 11
-3.18750031E+02
 21
9.78694647E+01
  0
LINE
  8
0
 62
7
 10
-3.23149963E+02
 20
6.36194418E+01
 11
-3.22750000E+02
 21
6.36194418E+01
  0
LINE
  8
0
  6
CENTER
 62
2
 10
-3.26214050E+02
 20
6.73694418E+01
 11
-3.22750000E+02
 21
6.73694418E+01
  0
LINE
  8
0
 62
7
 10
-3.22749969E+02
 20
5.88694647E+01
 11
-3.22749969E+02
 21
9.78694799E+01
  0
LINE
  8
0
 62
7
 10
-3.23149933E+02
 20
8.56194342E+01
 11
-3.22750000E+02
 21
8.56194342E+01
  0
LINE
  8
0
 62
7
 10
-3.23149933E+02
 20
9.31194342E+01
 11
-3.22750000E+02
 21
9.31194342E+01
  0
LINE
  8
0
 62
7
 10
-3.23149933E+02
 20
7.11194418E+01
 11
-3.22750000E+02
 21
7.11194418E+01
  0
LINE
  8
0
 62
7
 10
-3.25349976E+02
 20
6.57694509E+01
 11
-3.25349976E+02
 21
6.89694860E+01
  0
LINE
  8
0
 62
7
 10
-3.25349976E+02
 20
9.09695013E+01
 11
-3.25349976E+02
 21
8.77694586E+01
  0
LINE
  8
0
  6
CENTER
 62
2
 10
-3.26214050E+02
 20
8.93694342E+01
 11
-3.22750000E+02
 21
8.93694342E+01
  0
LINE
  8
0
 62
7
 10
-2.67249939E+02
 20
5.66015356E+01
 11
-2.67249939E+02
 21
5.31374395E+01
  0
CIRCLE
  8
0
 62
7
 10
1.75749908E+02
 20
5.48694876E+01
 40
2.45850000E+00
  0
CIRCLE
  8
0
 62
7
 10
2.22750153E+02
 20
5.48694876E+01
 40
2.45850000E+00
  0
CIRCLE
  8
0
 62
7
 10
2.22750031E+02
 20
1.01869556E+02
 40
2.45850000E+00
  0
CIRCLE
  8
0
 62
7
 10
1.75750061E+02
 20
1.01869510E+02
 40
2.45850000E+00
  0
LINE
  8
0
 62
4
 10
2.32676431E+02
 20
9.51943848E+01
 11
2.30250031E+02
 21
9.56222247E+01
  0
LINE
  8
0
 62
6
 10
2.32763255E+02
 20
9.56867887E+01
 11
2.30250031E+02
 21
9.61299380E+01
  0
LINE
  8
0
  6
CENTER
 62
6
 10
2.24318070E+02
 20
9.86990425E+01
 11
2.33802764E+02
 21
9.70266351E+01
  0
LINE
  8
0
 62
4
 10
1.65823813E+02
 20
9.51943848E+01
 11
1.68250122E+02
 21
9.56222085E+01
  0
LINE
  8
0
 62
6
 10
1.65736989E+02
 20
9.56867887E+01
 11
1.68250122E+02
 21
9.61299218E+01
  0
LINE
  8
0
  6
CENTER
 62
6
 10
1.66716170E+02
 20
9.73825845E+01
 11
1.74182174E+02
 21
9.86990425E+01
  0
LINE
  8
0
 62
4
 10
1.68250122E+02
 20
1.04689164E+02
 11
1.67597838E+02
 21
1.02897030E+02
  0
LINE
  8
0
 62
4
 10
1.67597838E+02
 20
1.02897030E+02
 11
1.68250122E+02
 21
9.91977453E+01
  0
LINE
  8
0
 62
4
 10
1.65129220E+02
 20
9.91336158E+01
 11
1.68166982E+02
 21
9.96692551E+01
  0
LINE
  8
0
 62
4
 10
1.65823813E+02
 20
9.51943848E+01
 11
1.65129220E+02
 21
9.91336158E+01
  0
LINE
  8
0
 62
6
 10
1.65216045E+02
 20
9.86412119E+01
 11
1.68253806E+02
 21
9.91768513E+01
  0
LINE
  8
0
 62
4
 10
2.32676431E+02
 20
9.51943848E+01
 11
2.33371024E+02
 21
9.91336158E+01
  0
LINE
  8
0
 62
4
 10
2.30250061E+02
 20
1.04689332E+02
 11
2.30902406E+02
 21
1.02897030E+02
  0
LINE
  8
0
 62
4
 10
2.30902406E+02
 20
1.02897030E+02
 11
2.30250061E+02
 21
9.91973991E+01
  0
LINE
  8
0
 62
4
 10
2.33371024E+02
 20
9.91336158E+01
 11
2.30333262E+02
 21
9.96692551E+01
  0
LINE
  8
0
 62
6
 10
2.33284200E+02
 20
9.86412119E+01
 11
2.30246438E+02
 21
9.91768513E+01
  0
LINE
  8
0
  6
CENTER
 62
6
 10
2.10537905E+02
 20
1.08338386E+02
 11
2.04690110E+02
 21
1.09369510E+02
  0
LINE
  8
0
  6
CENTER
 62
6
 10
2.07673440E+02
 20
1.09369510E+02
 11
2.07062537E+02
 21
1.05904908E+02
  0
LINE
  8
0
  6
CENTER
 62
6
 10
1.90826804E+02
 20
1.09369510E+02
 11
1.91437707E+02
 21
1.05904908E+02
  0
LINE
  8
0
  6
CENTER
 62
6
 10
1.87962339E+02
 20
1.08338386E+02
 11
1.93871186E+02
 21
1.09380275E+02
  0
LINE
  8
0
 62
4
 10
1.89674295E+02
 20
1.09369510E+02
 11
1.89602783E+02
 21
1.09775073E+02
  0
LINE
  8
0
 62
4
 10
1.80305835E+02
 20
1.20087341E+02
 11
1.73412181E+02
 21
1.18871804E+02
  0
LINE
  8
0
 62
4
 10
1.81781845E+02
 20
1.11716476E+02
 11
1.81289441E+02
 21
1.11629651E+02
  0
ARC
  8
0
 62
4
 10
1.81376265E+02
 20
1.11137248E+02
 40
5.00000000E-01
 50
9.99999999E+01
 51
1.90000000E+02
  0
LINE
  8
0
  6
CENTER
 62
6
 10
1.80156581E+02
 20
1.11937611E+02
 11
1.93007087E+02
 21
1.14203502E+02
  0
LINE
  8
0
  6
CENTER
 62
6
 10
1.70314946E+02
 20
1.13756258E+02
 11
1.92399318E+02
 21
1.17650329E+02
  0
LINE
  8
0
 62
4
 10
1.89074890E+02
 20
1.10666955E+02
 11
1.89399354E+02
 21
1.11130337E+02
  0
LINE
  8
0
 62
4
 10
1.89399354E+02
 20
1.11130337E+02
 11
1.92255296E+02
 21
1.11633917E+02
  0
LINE
  8
0
 62
4
 10
1.88582486E+02
 20
1.10580131E+02
 11
1.89074890E+02
 21
1.10666955E+02
  0
LINE
  8
0
 62
4
 10
1.80305835E+02
 20
1.20087341E+02
 11
1.81781845E+02
 21
1.11716476E+02
  0
LINE
  8
0
 62
4
 10
1.90449355E+02
 20
1.21875918E+02
 11
1.80305835E+02
 21
1.20087341E+02
  0
LINE
  8
0
 62
4
 10
1.92539082E+02
 20
1.11176243E+02
 11
1.91833373E+02
 21
1.10168386E+02
  0
LINE
  8
0
 62
4
 10
1.88599851E+02
 20
1.10481650E+02
 11
1.92539082E+02
 21
1.11176243E+02
  0
LINE
  8
0
 62
4
 10
1.90570909E+02
 20
1.21186552E+02
 11
1.91555716E+02
 21
1.21360200E+02
  0
ARC
  8
0
 62
4
 10
1.93745958E+02
 20
1.15450754E+02
 40
1.00000000E+00
 50
3.28723662E+02
 51
3.57172490E+02
  0
ARC
  8
0
 62
4
 10
1.92912447E+02
 20
1.20177832E+02
 40
1.00000000E+00
 50
2.28275100E+01
 51
9.99999999E+01
  0
ARC
  8
0
 62
4
 10
1.82949119E+02
 20
1.15984004E+02
 40
1.18100000E+01
 50
3.57172490E+02
 51
2.28275100E+01
  0
LINE
  8
0
 62
4
 10
1.91625176E+02
 20
1.20966277E+02
 11
1.92738008E+02
 21
1.21162500E+02
  0
LINE
  8
0
 62
4
 10
1.92102708E+02
 20
1.18258056E+02
 11
1.91555716E+02
 21
1.21360200E+02
  0
LINE
  8
0
 62
4
 10
1.92933407E+02
 20
1.09976490E+02
 11
1.91492127E+02
 21
1.18150394E+02
  0
LINE
  8
0
 62
4
 10
1.91143948E+02
 20
1.17936687E+02
 11
1.91518175E+02
 21
1.18002673E+02
  0
LINE
  8
0
 62
4
 10
1.92730095E+02
 20
1.10092954E+02
 11
1.92907360E+02
 21
1.10124211E+02
  0
LINE
  8
0
 62
4
 10
1.91492127E+02
 20
1.18150394E+02
 11
1.93225389E+02
 21
1.18456015E+02
  0
LINE
  8
0
 62
4
 10
1.92933407E+02
 20
1.09976490E+02
 11
1.94666669E+02
 21
1.10282111E+02
  0
ARC
  8
0
 62
4
 10
1.83052971E+02
 20
1.12456180E+02
 40
1.18100000E+01
 50
9.99999999E+00
 51
3.05326991E+01
  0
ARC
  8
0
 62
4
 10
1.83055659E+02
 20
1.12440939E+02
 40
1.18100000E+01
 50
3.49467301E+02
 51
9.99999999E+00
  0
LINE
  8
0
 62
4
 10
1.92342120E+02
 20
1.11141513E+02
 11
1.90449355E+02
 21
1.21875918E+02
  0
LINE
  8
0
 62
4
 10
2.09900393E+02
 20
1.10481650E+02
 11
2.05961162E+02
 21
1.11176243E+02
  0
LINE
  8
0
 62
4
 10
2.09917758E+02
 20
1.10580131E+02
 11
2.09425354E+02
 21
1.10666955E+02
  0
LINE
  8
0
 62
4
 10
2.09100891E+02
 20
1.11130337E+02
 11
2.06244948E+02
 21
1.11633917E+02
  0
LINE
  8
0
 62
4
 10
2.09425354E+02
 20
1.10666955E+02
 11
2.09100891E+02
 21
1.11130337E+02
  0
ARC
  8
0
 62
4
 10
2.17123979E+02
 20
1.11137248E+02
 40
5.00000000E-01
 50
3.50000000E+02
 51
7.99999999E+01
  0
LINE
  8
0
 62
4
 10
2.16718399E+02
 20
1.11716476E+02
 11
2.17210803E+02
 21
1.11629651E+02
  0
LINE
  8
0
 62
4
 10
2.05967111E+02
 20
1.10058225E+02
 11
2.05592884E+02
 21
1.10124211E+02
  0
LINE
  8
0
 62
4
 10
2.05566837E+02
 20
1.09976490E+02
 11
2.03833575E+02
 21
1.10282111E+02
  0
ARC
  8
0
 62
4
 10
2.07713718E+02
 20
1.09597937E+02
 40
5.00000000E-01
 50
3.32815800E+02
 51
2.07184200E+02
  0
ARC
  8
0
 62
4
 10
2.07583482E+02
 20
1.08859331E+02
 40
1.50000000E+00
 50
1.98841649E+01
 51
1.60115835E+02
  0
LINE
  8
0
 62
4
 10
2.25088063E+02
 20
1.18871804E+02
 11
2.28783726E+02
 21
1.08718055E+02
  0
LINE
  8
0
 62
4
 10
2.17616383E+02
 20
1.11050423E+02
 11
2.17319993E+02
 21
1.09369510E+02
  0
LINE
  8
0
 62
4
 10
2.09917758E+02
 20
1.10580131E+02
 11
2.09704293E+02
 21
1.09369510E+02
  0
LINE
  8
0
 62
4
 10
2.17112323E+02
 20
1.11647016E+02
 11
2.16710737E+02
 21
1.09369510E+02
  0
LINE
  8
0
 62
4
 10
2.05961162E+02
 20
1.11176243E+02
 11
2.05642587E+02
 21
1.09369510E+02
  0
LINE
  8
0
  6
CENTER
 62
6
 10
2.08104426E+02
 20
1.11813754E+02
 11
2.07673440E+02
 21
1.09369510E+02
  0
LINE
  8
0
  6
CENTER
 62
6
 10
1.90395818E+02
 20
1.11813754E+02
 11
1.90826804E+02
 21
1.09369510E+02
  0
LINE
  8
0
 62
4
 10
1.92539082E+02
 20
1.11176243E+02
 11
1.92857657E+02
 21
1.09369510E+02
  0
LINE
  8
0
 62
4
 10
1.89602783E+02
 20
1.09775073E+02
 11
1.91833373E+02
 21
1.10168386E+02
  0
LINE
  8
0
 62
4
 10
1.88599851E+02
 20
1.10481650E+02
 11
1.89602783E+02
 21
1.09775073E+02
  0
LINE
  8
0
 62
4
 10
1.91833373E+02
 20
1.10168386E+02
 11
1.91974236E+02
 21
1.09369510E+02
  0
LINE
  8
0
 62
4
 10
1.81387922E+02
 20
1.11647016E+02
 11
1.81789507E+02
 21
1.09369510E+02
  0
LINE
  8
0
 62
4
 10
1.88582486E+02
 20
1.10580131E+02
 11
1.88795951E+02
 21
1.09369510E+02
  0
LINE
  8
0
 62
4
 10
1.80883861E+02
 20
1.11050423E+02
 11
1.81180251E+02
 21
1.09369510E+02
  0
LINE
  8
0
 62
4
 10
1.73412181E+02
 20
1.18871804E+02
 11
1.69716517E+02
 21
1.08718052E+02
  0
LINE
  8
0
 62
4
 10
2.08050889E+02
 20
1.21875918E+02
 11
2.18194409E+02
 21
1.20087341E+02
  0
LINE
  8
0
 62
4
 10
2.06609609E+02
 20
1.13702013E+02
 11
2.05624802E+02
 21
1.13875662E+02
  0
LINE
  8
0
 62
4
 10
2.07929335E+02
 20
1.21186552E+02
 11
2.06944528E+02
 21
1.21360200E+02
  0
ARC
  8
0
 62
4
 10
2.04754286E+02
 20
1.15450754E+02
 40
1.00000000E+00
 50
1.82827510E+02
 51
2.60000000E+02
  0
ARC
  8
0
 62
4
 10
2.05587797E+02
 20
1.20177832E+02
 40
1.00000000E+00
 50
7.99999999E+01
 51
1.57172490E+02
  0
ARC
  8
0
 62
4
 10
2.15551126E+02
 20
1.15984004E+02
 40
1.18100000E+01
 50
1.57172490E+02
 51
1.82827510E+02
  0
LINE
  8
0
 62
4
 10
2.05694261E+02
 20
1.14269585E+02
 11
2.04581428E+02
 21
1.14465807E+02
  0
LINE
  8
0
 62
4
 10
2.06875068E+02
 20
1.20966277E+02
 11
2.05762236E+02
 21
1.21162500E+02
  0
LINE
  8
0
 62
4
 10
2.05624802E+02
 20
1.13875662E+02
 11
2.06944528E+02
 21
1.21360200E+02
  0
ARC
  8
0
 62
4
 10
2.15447273E+02
 20
1.12456180E+02
 40
1.18100000E+01
 50
1.67900933E+02
 51
1.70000000E+02
  0
LINE
  8
0
 62
4
 10
2.05967111E+02
 20
1.10058225E+02
 11
2.08050889E+02
 21
1.21875918E+02
  0
ARC
  8
0
 62
4
 10
2.15444585E+02
 20
1.12440939E+02
 40
1.18100000E+01
 50
1.70000000E+02
 51
1.90532699E+02
  0
LINE
  8
0
 62
4
 10
2.05566837E+02
 20
1.09976490E+02
 11
2.06235382E+02
 21
1.13768000E+02
  0
LINE
  8
0
 62
4
 10
2.18194409E+02
 20
1.20087341E+02
 11
2.25088063E+02
 21
1.18871804E+02
  0
LINE
  8
0
  6
CENTER
 62
6
 10
2.18343663E+02
 20
1.11937611E+02
 11
2.05493157E+02
 21
1.14203502E+02
  0
LINE
  8
0
  6
CENTER
 62
6
 10
2.28185298E+02
 20
1.13756258E+02
 11
2.06100926E+02
 21
1.17650329E+02
  0
LINE
  8
0
 62
4
 10
2.18194409E+02
 20
1.20087341E+02
 11
2.16718399E+02
 21
1.11716476E+02
  0
LINE
  8
0
 62
7
 10
1.71750000E+02
 20
1.09369480E+02
 11
2.26750000E+02
 21
1.09369480E+02
  0
LINE
  8
0
 62
7
 10
2.34649933E+02
 20
6.36194418E+01
 11
2.34250000E+02
 21
6.36194418E+01
  0
LINE
  8
0
 62
7
 10
1.78749939E+02
 20
5.66015356E+01
 11
1.78749939E+02
 21
5.31374395E+01
  0
LINE
  8
0
  6
CENTER
 62
2
 10
2.37714050E+02
 20
8.93694342E+01
 11
2.34250000E+02
 21
8.93694342E+01
  0
LINE
  8
0
 62
7
 10
2.36849976E+02
 20
9.09695013E+01
 11
2.36849976E+02
 21
8.77694586E+01
  0
LINE
  8
0
 62
7
 10
2.36849976E+02
 20
6.57694509E+01
 11
2.36849976E+02
 21
6.89694860E+01
  0
LINE
  8
0
 62
7
 10
2.34649963E+02
 20
9.31194342E+01
 11
2.34250000E+02
 21
9.31194342E+01
  0
LINE
  8
0
 62
7
 10
2.34649933E+02
 20
7.11194418E+01
 11
2.34250000E+02
 21
7.11194418E+01
  0
LINE
  8
0
 62
7
 10
2.34649933E+02
 20
8.56194342E+01
 11
2.34250000E+02
 21
8.56194342E+01
  0
LINE
  8
0
 62
7
 10
2.34249969E+02
 20
5.88694647E+01
 11
2.34249969E+02
 21
9.78694799E+01
  0
LINE
  8
0
  6
CENTER
 62
2
 10
2.37714050E+02
 20
6.73694418E+01
 11
2.34250000E+02
 21
6.73694418E+01
  0
LINE
  8
0
 62
7
 10
2.34250000E+02
 20
9.78694647E+01
 11
2.33148120E+02
 21
9.78694647E+01
  0
LINE
  8
0
 62
7
 10
2.34250000E+02
 20
5.88694570E+01
 11
2.30250031E+02
 21
5.88694570E+01
  0
LINE
  8
0
 62
7
 10
2.30250031E+02
 20
1.05869480E+02
 11
2.30250031E+02
 21
5.08694723E+01
  0
LINE
  8
0
  6
CENTER
 62
2
 10
2.36018646E+02
 20
7.83694647E+01
 11
1.65257690E+02
 21
7.83694647E+01
  0
LINE
  8
0
  6
CENTER
 62
2
 10
2.31339935E+02
 20
1.01869556E+02
 11
2.16673035E+02
 21
1.01869556E+02
  0
LINE
  8
0
  6
CENTER
 62
2
 10
2.31194702E+02
 20
5.48694876E+01
 11
2.16382660E+02
 21
5.48694876E+01
  0
LINE
  8
0
  6
CENTER
 62
2
 10
2.22750153E+02
 20
4.62464712E+01
 11
2.22750153E+02
 21
6.28889730E+01
  0
LINE
  8
0
 62
7
 10
1.71750000E+02
 20
4.73694723E+01
 11
2.26750000E+02
 21
4.73694723E+01
  0
LINE
  8
0
  6
CENTER
 62
2
 10
1.82131409E+02
 20
5.48694876E+01
 11
1.67609772E+02
 21
5.48694876E+01
  0
LINE
  8
0
  6
CENTER
 62
2
 10
1.67243378E+02
 20
1.01869510E+02
 11
1.82164520E+02
 21
1.01869510E+02
  0
LINE
  8
0
 62
7
 10
1.68250031E+02
 20
1.05869480E+02
 11
1.68250031E+02
 21
5.08694723E+01
  0
LINE
  8
0
  6
CENTER
 62
2
 10
1.75749908E+02
 20
6.12508810E+01
 11
1.75749908E+02
 21
4.67292135E+01
  0
LINE
  8
0
 62
7
 10
1.75750013E+02
 20
5.83337037E+01
 11
1.78750019E+02
 21
5.66016444E+01
  0
LINE
  8
0
 62
7
 10
1.75749905E+02
 20
5.14053538E+01
 11
1.78749938E+02
 21
5.31374284E+01
  0
LINE
  8
0
 62
7
 10
1.72750006E+02
 20
5.31375550E+01
 11
1.75749999E+02
 21
5.14055032E+01
  0
LINE
  8
0
 62
7
 10
1.72749908E+02
 20
5.66015356E+01
 11
1.72749908E+02
 21
5.31374395E+01
  0
LINE
  8
0
 62
7
 10
1.75749939E+02
 20
5.83335640E+01
 11
1.72749906E+02
 21
5.66014893E+01
  0
LINE
  8
0
 62
7
 10
1.75750134E+02
 20
1.05333695E+02
 11
1.78750134E+02
 21
1.03601654E+02
  0
LINE
  8
0
 62
7
 10
1.78750092E+02
 20
1.03601581E+02
 11
1.78750092E+02
 21
1.00137455E+02
  0
LINE
  8
0
 62
7
 10
1.75750074E+02
 20
9.84053787E+01
 11
1.78750113E+02
 21
1.00137442E+02
  0
LINE
  8
0
 62
7
 10
1.72750163E+02
 20
1.00137561E+02
 11
1.75750162E+02
 21
9.84055207E+01
  0
LINE
  8
0
 62
7
 10
1.72750061E+02
 20
1.03601581E+02
 11
1.72750061E+02
 21
1.00137455E+02
  0
LINE
  8
0
 62
7
 10
1.75750060E+02
 20
1.05333595E+02
 11
1.72750074E+02
 21
1.03601562E+02
  0
LINE
  8
0
 62
7
 10
2.22750094E+02
 20
1.05333734E+02
 11
2.25750107E+02
 21
1.03601687E+02
  0
LINE
  8
0
 62
7
 10
2.25750031E+02
 20
1.03601597E+02
 11
2.25750031E+02
 21
1.00137485E+02
  0
LINE
  8
0
 62
7
 10
2.22750028E+02
 20
9.84054412E+01
 11
2.25750040E+02
 21
1.00137489E+02
  0
LINE
  8
0
 62
7
 10
2.19750096E+02
 20
1.00137616E+02
 11
2.22750109E+02
 21
9.84055680E+01
  0
LINE
  8
0
 62
7
 10
2.19750000E+02
 20
1.03601597E+02
 11
2.19750000E+02
 21
1.00137485E+02
  0
LINE
  8
0
 62
7
 10
2.22750031E+02
 20
1.05333627E+02
 11
2.19750045E+02
 21
1.03601595E+02
  0
LINE
  8
0
 62
7
 10
2.22750199E+02
 20
5.83336791E+01
 11
2.25750206E+02
 21
5.66016197E+01
  0
LINE
  8
0
 62
7
 10
2.25750122E+02
 20
5.66015356E+01
 11
2.25750122E+02
 21
5.31374395E+01
  0
LINE
  8
0
 62
7
 10
2.22750160E+02
 20
5.14053825E+01
 11
2.25750113E+02
 21
5.31374114E+01
  0
LINE
  8
0
 62
7
 10
2.19750208E+02
 20
5.31375568E+01
 11
2.22750214E+02
 21
5.14054974E+01
  0
LINE
  8
0
 62
7
 10
2.19750153E+02
 20
5.66015356E+01
 11
2.19750153E+02
 21
5.31374395E+01
  0
LINE
  8
0
 62
7
 10
2.22750141E+02
 20
5.83335622E+01
 11
2.19750161E+02
 21
5.66015181E+01
  0
CIRCLE
  8
0
 62
2
 10
2.22750031E+02
 20
1.01869556E+02
 40
3.00000000E+00
  0
CIRCLE
  8
0
 62
7
 10
1.75749939E+02
 20
1.01869480E+02
 40
5.00000000E+00
  0
CIRCLE
  8
0
 62
7
 10
1.75749939E+02
 20
1.01869480E+02
 40
4.50000000E+00
  0
CIRCLE
  8
0
 62
7
 10
2.22750031E+02
 20
1.01869541E+02
 40
4.50000000E+00
  0
CIRCLE
  8
0
 62
7
 10
2.22750031E+02
 20
1.01869541E+02
 40
5.00000000E+00
  0
CIRCLE
  8
0
 62
7
 10
2.22750092E+02
 20
5.48694723E+01
 40
4.50000000E+00
  0
CIRCLE
  8
0
 62
7
 10
2.22750092E+02
 20
5.48694723E+01
 40
5.00000000E+00
  0
CIRCLE
  8
0
 62
7
 10
1.75750031E+02
 20
5.48694113E+01
 40
4.50000000E+00
  0
CIRCLE
  8
0
 62
7
 10
1.75750031E+02
 20
5.48694113E+01
 40
5.00000000E+00
  0
CIRCLE
  8
0
 62
2
 10
2.22750153E+02
 20
5.48694876E+01
 40
3.00000000E+00
  0
CIRCLE
  8
0
 62
2
 10
1.75750061E+02
 20
5.48694876E+01
 40
3.00000000E+00
  0
CIRCLE
  8
0
 62
2
 10
1.75749939E+02
 20
1.01869556E+02
 40
3.00000000E+00
  0
ARC
  8
0
 62
7
 10
2.34372498E+02
 20
9.06349066E+01
 40
2.50000000E+00
 50
7.69143002E+00
 51
9.00000042E+01
  0
ARC
  8
0
 62
7
 10
2.34372498E+02
 20
6.86348989E+01
 40
2.50000000E+00
 50
3.52308615E+02
 51
8.36271917E+01
  0
ARC
  8
0
 62
7
 10
2.34372498E+02
 20
6.61040380E+01
 40
2.50000000E+00
 50
2.70000037E+02
 51
3.52308598E+02
  0
ARC
  8
0
 62
7
 10
2.34372498E+02
 20
8.81040075E+01
 40
2.50000000E+00
 50
2.76372839E+02
 51
7.69143002E+00
  0
CIRCLE
  8
0
 62
7
 10
1.99250000E+02
 20
7.83694723E+01
 40
1.90000000E+01
  0
ARC
  8
0
 62
7
 10
2.26750031E+02
 20
5.08694723E+01
 40
3.50000000E+00
 50
2.69999972E+02
 51
2.23118003E-05
  0
ARC
  8
0
 62
7
 10
1.71750000E+02
 20
5.08694723E+01
 40
3.50000000E+00
 50
1.80000000E+02
 51
2.69999982E+02
  0
ARC
  8
0
 62
7
 10
2.26750031E+02
 20
1.05869480E+02
 40
3.50000000E+00
 50
3.59721787E-05
 51
9.00000179E+01
  0
ARC
  8
0
 62
7
 10
1.71750000E+02
 20
1.05869480E+02
 40
3.50000000E+00
 50
9.00000179E+01
 51
1.80000000E+02
  0
LINE
  8
0
  6
CENTER
 62
2
 10
1.87249969E+02
 20
1.11843754E+02
 11
1.87249969E+02
 21
8.60319097E+01
  0
LINE
  8
0
  6
CENTER
 62
2
 10
1.75750061E+02
 20
1.10257541E+02
 11
1.75750061E+02
 21
9.42931250E+01
  0
LINE
  8
0
  6
CENTER
 62
2
 10
2.22750031E+02
 20
1.10272114E+02
 11
2.22750031E+02
 21
9.39851263E+01
  0
LINE
  8
0
  6
CENTER
 62
2
 10
1.99249969E+02
 20
1.12407337E+02
 11
1.99249969E+02
 21
4.50424459E+01
  0
LINE
  8
0
  6
CENTER
 62
2
 10
2.06250000E+02
 20
1.11121860E+02
 11
2.06250000E+02
 21
9.18694647E+01
  0
LINE
  8
0
  6
PHANTOM
 10
-2.92500000E+01
 20
2.37628397E+02
 11
-2.92500000E+01
 21
1.38912974E+02
  0
LINE
  8
0
 62
7
 10
4.57500153E+01
 20
1.76369465E+02
 11
2.17500000E+01
 21
1.76369465E+02
  0
ARC
  8
0
 62
7
 10
4.57500153E+01
 20
1.78369465E+02
 40
2.00000000E+00
 50
2.70000000E+02
 51
0.00000000E+00
  0
LINE
  8
0
 62
7
 10
4.77500153E+01
 20
1.78369465E+02
 11
4.77500153E+01
 21
2.18369465E+02
  0
ARC
  8
0
 62
7
 10
4.57500153E+01
 20
2.18369465E+02
 40
2.00000000E+00
 50
0.00000000E+00
 51
9.00000002E+01
  0
LINE
  8
0
 62
7
 10
4.57500153E+01
 20
2.20369465E+02
 11
2.17500000E+01
 21
2.20369465E+02
  0
LINE
  8
0
 62
7
 10
-1.47500000E+01
 20
1.71369495E+02
 11
-8.42500000E+01
 21
1.71369495E+02
  0
LINE
  8
0
 62
7
 10
-1.47500000E+01
 20
1.72219486E+02
 11
-8.42500000E+01
 21
1.72219486E+02
  0
LINE
  8
0
 62
7
 10
-1.47500000E+01
 20
1.77519474E+02
 11
-8.42500000E+01
 21
1.77519474E+02
  0
LINE
  8
0
 62
7
 10
-5.87500000E+01
 20
2.19219456E+02
 11
-8.42500000E+01
 21
2.19219456E+02
  0
LINE
  8
0
 62
7
 10
-5.87500000E+01
 20
2.24519443E+02
 11
-8.42500000E+01
 21
2.24519443E+02
  0
LINE
  8
0
 62
7
 10
-5.87500000E+01
 20
2.25369434E+02
 11
-8.42500000E+01
 21
2.25369434E+02
  0
LINE
  8
0
 62
4
 10
-4.74568894E+01
 20
2.05364275E+02
 11
-4.37500000E+01
 21
2.05364275E+02
  0
LINE
  8
0
  6
CENTER
 62
6
 10
-6.87500000E+01
 20
2.06388800E+02
 11
-6.37500000E+01
 21
2.06388800E+02
  0
LINE
  8
0
  6
CENTER
 62
6
 10
-6.62500000E+01
 20
2.08888800E+02
 11
-6.62500000E+01
 21
2.03888800E+02
  0
LINE
  8
0
  6
CENTER
 62
6
 10
-5.37500000E+01
 20
2.06388800E+02
 11
-4.87500000E+01
 21
2.06388800E+02
  0
LINE
  8
0
  6
CENTER
 62
6
 10
-5.12500000E+01
 20
2.08888800E+02
 11
-5.12500000E+01
 21
2.03888800E+02
  0
LINE
  8
0
  6
CENTER
 62
6
 10
-6.12500000E+01
 20
2.05781031E+02
 11
-5.62500000E+01
 21
2.05781031E+02
  0
ARC
  8
0
 62
4
 10
-4.91282464E+01
 20
2.15389597E+02
 40
1.25306626E+01
 50
2.51916648E+02
 51
2.65031340E+02
  0
ARC
  8
0
 62
4
 10
-5.33717535E+01
 20
2.15389596E+02
 40
1.25306621E+01
 50
2.74968660E+02
 51
2.88083352E+02
  0
ARC
  8
0
 62
4
 10
-5.36500003E+01
 20
2.04130239E+02
 40
1.00000000E+00
 50
1.80000000E+02
 51
2.57172490E+02
  0
ARC
  8
0
 62
4
 10
-4.88499997E+01
 20
2.04130239E+02
 40
1.00000000E+00
 50
2.82827510E+02
 51
5.08888749E-14
  0
ARC
  8
0
 62
4
 10
-5.12500000E+01
 20
2.14670453E+02
 40
1.18100000E+01
 50
2.57172490E+02
 51
2.82827510E+02
  0
POLYLINE
  8
0
 62
4
 66
1
  0
VERTEX
  8
0
 62
4
 10
-4.78500000E+01
 20
2.05403992E+02
  0
VERTEX
  8
0
 62
4
 10
-4.78636874E+01
 20
2.05456915E+02
  0
VERTEX
  8
0
 62
4
 10
-4.79046394E+01
 20
2.05509413E+02
  0
VERTEX
  8
0
 62
4
 10
-4.79725263E+01
 20
2.05561061E+02
  0
VERTEX
  8
0
 62
4
 10
-4.80668014E+01
 20
2.05611445E+02
  0
VERTEX
  8
0
 62
4
 10
-4.81867058E+01
 20
2.05660159E+02
  0
VERTEX
  8
0
 62
4
 10
-4.83312741E+01
 20
2.05706810E+02
  0
VERTEX
  8
0
 62
4
 10
-4.84993422E+01
 20
2.05751023E+02
  0
VERTEX
  8
0
 62
4
 10
-4.86895570E+01
 20
2.05792442E+02
  0
VERTEX
  8
0
 62
4
 10
-4.89003870E+01
 20
2.05830733E+02
  0
VERTEX
  8
0
 62
4
 10
-4.91301347E+01
 20
2.05865588E+02
  0
VERTEX
  8
0
 62
4
 10
-4.93769502E+01
 20
2.05896727E+02
  0
VERTEX
  8
0
 62
4
 10
-4.96388465E+01
 20
2.05923899E+02
  0
VERTEX
  8
0
 62
4
 10
-4.99137149E+01
 20
2.05946885E+02
  0
VERTEX
  8
0
 62
4
 10
-5.01993422E+01
 20
2.05965499E+02
  0
VERTEX
  8
0
 62
4
 10
-5.04934288E+01
 20
2.05979593E+02
  0
VERTEX
  8
0
 62
4
 10
-5.07936069E+01
 20
2.05989053E+02
  0
VERTEX
  8
0
 62
4
 10
-5.10974596E+01
 20
2.05993801E+02
  0
VERTEX
  8
0
 62
4
 10
-5.14025404E+01
 20
2.05993801E+02
  0
VERTEX
  8
0
 62
4
 10
-5.17063931E+01
 20
2.05989053E+02
  0
VERTEX
  8
0
 62
4
 10
-5.20065712E+01
 20
2.05979593E+02
  0
VERTEX
  8
0
 62
4
 10
-5.23006578E+01
 20
2.05965499E+02
  0
VERTEX
  8
0
 62
4
 10
-5.25862851E+01
 20
2.05946885E+02
  0
VERTEX
  8
0
 62
4
 10
-5.28611534E+01
 20
2.05923899E+02
  0
VERTEX
  8
0
 62
4
 10
-5.31230497E+01
 20
2.05896727E+02
  0
VERTEX
  8
0
 62
4
 10
-5.33698653E+01
 20
2.05865588E+02
  0
VERTEX
  8
0
 62
4
 10
-5.35996130E+01
 20
2.05830733E+02
  0
VERTEX
  8
0
 62
4
 10
-5.38104430E+01
 20
2.05792442E+02
  0
VERTEX
  8
0
 62
4
 10
-5.40006578E+01
 20
2.05751023E+02
  0
VERTEX
  8
0
 62
4
 10
-5.41687259E+01
 20
2.05706810E+02
  0
VERTEX
  8
0
 62
4
 10
-5.43132941E+01
 20
2.05660159E+02
  0
VERTEX
  8
0
 62
4
 10
-5.44331986E+01
 20
2.05611445E+02
  0
VERTEX
  8
0
 62
4
 10
-5.45274737E+01
 20
2.05561061E+02
  0
VERTEX
  8
0
 62
4
 10
-5.45953606E+01
 20
2.05509413E+02
  0
VERTEX
  8
0
 62
4
 10
-5.46363126E+01
 20
2.05456915E+02
  0
VERTEX
  8
0
 62
4
 10
-5.46500000E+01
 20
2.05403992E+02
  0
SEQEND
  8
0
  0
LINE
  8
0
 62
4
 10
-4.78500000E+01
 20
2.04130239E+02
 11
-4.78500000E+01
 21
2.05403992E+02
  0
LINE
  8
0
 62
4
 10
-5.46500000E+01
 20
2.04130239E+02
 11
-5.46500000E+01
 21
2.05403992E+02
  0
POLYLINE
  8
0
 62
4
 66
1
  0
VERTEX
  8
0
 62
4
 10
-4.78500000E+01
 20
2.05109301E+02
  0
VERTEX
  8
0
 62
4
 10
-4.77134183E+01
 20
2.05162590E+02
  0
VERTEX
  8
0
 62
4
 10
-4.76044705E+01
 20
2.05217766E+02
  0
VERTEX
  8
0
 62
4
 10
-4.75240077E+01
 20
2.05274396E+02
  0
VERTEX
  8
0
 62
4
 10
-4.74726587E+01
 20
2.05332039E+02
  0
VERTEX
  8
0
 62
4
 10
-4.74508247E+01
 20
2.05390245E+02
  0
VERTEX
  8
0
 62
4
 10
-4.74586764E+01
 20
2.05448558E+02
  0
VERTEX
  8
0
 62
4
 10
-4.74961524E+01
 20
2.05506522E+02
  0
VERTEX
  8
0
 62
4
 10
-4.75629598E+01
 20
2.05563685E+02
  0
VERTEX
  8
0
 62
4
 10
-4.76585766E+01
 20
2.05619601E+02
  0
VERTEX
  8
0
 62
4
 10
-4.77822558E+01
 20
2.05673832E+02
  0
VERTEX
  8
0
 62
4
 10
-4.79330309E+01
 20
2.05725954E+02
  0
VERTEX
  8
0
 62
4
 10
-4.81097238E+01
 20
2.05775561E+02
  0
VERTEX
  8
0
 62
4
 10
-4.83109538E+01
 20
2.05822265E+02
  0
VERTEX
  8
0
 62
4
 10
-4.85351488E+01
 20
2.05865700E+02
  0
VERTEX
  8
0
 62
4
 10
-4.87805567E+01
 20
2.05905527E+02
  0
VERTEX
  8
0
 62
4
 10
-4.90452602E+01
 20
2.05941436E+02
  0
VERTEX
  8
0
 62
4
 10
-4.93271908E+01
 20
2.05973145E+02
  0
VERTEX
  8
0
 62
4
 10
-4.96241457E+01
 20
2.06000407E+02
  0
VERTEX
  8
0
 62
4
 10
-4.99338046E+01
 20
2.06023009E+02
  0
VERTEX
  8
0
 62
4
 10
-5.02537478E+01
 20
2.06040774E+02
  0
VERTEX
  8
0
 62
4
 10
-5.05814754E+01
 20
2.06053563E+02
  0
VERTEX
  8
0
 62
4
 10
-5.09144267E+01
 20
2.06061277E+02
  0
VERTEX
  8
0
 62
4
 10
-5.12500000E+01
 20
2.06063855E+02
  0
VERTEX
  8
0
 62
4
 10
-5.15855734E+01
 20
2.06061277E+02
  0
VERTEX
  8
0
 62
4
 10
-5.19185246E+01
 20
2.06053563E+02
  0
VERTEX
  8
0
 62
4
 10
-5.22462523E+01
 20
2.06040774E+02
  0
VERTEX
  8
0
 62
4
 10
-5.25661955E+01
 20
2.06023009E+02
  0
VERTEX
  8
0
 62
4
 10
-5.28758543E+01
 20
2.06000407E+02
  0
VERTEX
  8
0
 62
4
 10
-5.31728092E+01
 20
2.05973145E+02
  0
VERTEX
  8
0
 62
4
 10
-5.34547399E+01
 20
2.05941436E+02
  0
VERTEX
  8
0
 62
4
 10
-5.37194433E+01
 20
2.05905527E+02
  0
VERTEX
  8
0
 62
4
 10
-5.39648513E+01
 20
2.05865700E+02
  0
VERTEX
  8
0
 62
4
 10
-5.41890462E+01
 20
2.05822265E+02
  0
VERTEX
  8
0
 62
4
 10
-5.43902763E+01
 20
2.05775561E+02
  0
VERTEX
  8
0
 62
4
 10
-5.45669692E+01
 20
2.05725954E+02
  0
VERTEX
  8
0
 62
4
 10
-5.47177442E+01
 20
2.05673832E+02
  0
VERTEX
  8
0
 62
4
 10
-5.48414234E+01
 20
2.05619601E+02
  0
VERTEX
  8
0
 62
4
 10
-5.49370402E+01
 20
2.05563686E+02
  0
VERTEX
  8
0
 62
4
 10
-5.50038476E+01
 20
2.05506522E+02
  0
VERTEX
  8
0
 62
4
 10
-5.50413236E+01
 20
2.05448558E+02
  0
VERTEX
  8
0
 62
4
 10
-5.50491753E+01
 20
2.05390245E+02
  0
VERTEX
  8
0
 62
4
 10
-5.50273413E+01
 20
2.05332039E+02
  0
VERTEX
  8
0
 62
4
 10
-5.49759923E+01
 20
2.05274396E+02
  0
VERTEX
  8
0
 62
4
 10
-5.48955295E+01
 20
2.05217766E+02
  0
VERTEX
  8
0
 62
4
 10
-5.47865817E+01
 20
2.05162590E+02
  0
VERTEX
  8
0
 62
4
 10
-5.46500000E+01
 20
2.05109301E+02
  0
SEQEND
  8
0
  0
POLYLINE
  8
0
 62
4
 66
1
  0
VERTEX
  8
0
 62
4
 10
-4.74500000E+01
 20
2.06388800E+02
  0
VERTEX
  8
0
 62
4
 10
-4.74652977E+01
 20
2.06447950E+02
  0
VERTEX
  8
0
 62
4
 10
-4.75110676E+01
 20
2.06506623E+02
  0
VERTEX
  8
0
 62
4
 10
-4.75869411E+01
 20
2.06564348E+02
  0
VERTEX
  8
0
 62
4
 10
-4.76923075E+01
 20
2.06620659E+02
  0
VERTEX
  8
0
 62
4
 10
-4.78263183E+01
 20
2.06675104E+02
  0
VERTEX
  8
0
 62
4
 10
-4.79878946E+01
 20
2.06727243E+02
  0
VERTEX
  8
0
 62
4
 10
-4.81757354E+01
 20
2.06776658E+02
  0
VERTEX
  8
0
 62
4
 10
-4.83883284E+01
 20
2.06822949E+02
  0
VERTEX
  8
0
 62
4
 10
-4.86239619E+01
 20
2.06865746E+02
  0
VERTEX
  8
0
 62
4
 10
-4.88807387E+01
 20
2.06904702E+02
  0
VERTEX
  8
0
 62
4
 10
-4.91565915E+01
 20
2.06939504E+02
  0
VERTEX
  8
0
 62
4
 10
-4.94492991E+01
 20
2.06969872E+02
  0
VERTEX
  8
0
 62
4
 10
-4.97565049E+01
 20
2.06995562E+02
  0
VERTEX
  8
0
 62
4
 10
-5.00757354E+01
 20
2.07016367E+02
  0
VERTEX
  8
0
 62
4
 10
-5.04044204E+01
 20
2.07032119E+02
  0
VERTEX
  8
0
 62
4
 10
-5.07399136E+01
 20
2.07042691E+02
  0
VERTEX
  8
0
 62
4
 10
-5.10795136E+01
 20
2.07047999E+02
  0
VERTEX
  8
0
 62
4
 10
-5.14204863E+01
 20
2.07047999E+02
  0
VERTEX
  8
0
 62
4
 10
-5.17600864E+01
 20
2.07042691E+02
  0
VERTEX
  8
0
 62
4
 10
-5.20955795E+01
 20
2.07032119E+02
  0
VERTEX
  8
0
 62
4
 10
-5.24242646E+01
 20
2.07016367E+02
  0
VERTEX
  8
0
 62
4
 10
-5.27434951E+01
 20
2.06995562E+02
  0
VERTEX
  8
0
 62
4
 10
-5.30507009E+01
 20
2.06969872E+02
  0
VERTEX
  8
0
 62
4
 10
-5.33434085E+01
 20
2.06939504E+02
  0
VERTEX
  8
0
 62
4
 10
-5.36192612E+01
 20
2.06904702E+02
  0
VERTEX
  8
0
 62
4
 10
-5.38760380E+01
 20
2.06865746E+02
  0
VERTEX
  8
0
 62
4
 10
-5.41116716E+01
 20
2.06822949E+02
  0
VERTEX
  8
0
 62
4
 10
-5.43242646E+01
 20
2.06776658E+02
  0
VERTEX
  8
0
 62
4
 10
-5.45121054E+01
 20
2.06727243E+02
  0
VERTEX
  8
0
 62
4
 10
-5.46736817E+01
 20
2.06675104E+02
  0
VERTEX
  8
0
 62
4
 10
-5.48076925E+01
 20
2.06620659E+02
  0
VERTEX
  8
0
 62
4
 10
-5.49130589E+01
 20
2.06564348E+02
  0
VERTEX
  8
0
 62
4
 10
-5.49889324E+01
 20
2.06506623E+02
  0
VERTEX
  8
0
 62
4
 10
-5.50347023E+01
 20
2.06447950E+02
  0
VERTEX
  8
0
 62
4
 10
-5.50500000E+01
 20
2.06388800E+02
  0
SEQEND
  8
0
  0
LINE
  8
0
 62
4
 10
-4.74500000E+01
 20
2.05403992E+02
 11
-4.74500000E+01
 21
2.06388800E+02
  0
LINE
  8
0
 62
4
 10
-5.50500000E+01
 20
2.05403992E+02
 11
-5.50500000E+01
 21
2.06388800E+02
  0
ARC
  8
0
 62
4
 10
-5.48500000E+01
 20
2.03678879E+02
 40
2.50000000E-01
 50
2.89675999E+02
 51
0.00000000E+00
  0
ARC
  8
0
 62
4
 10
-6.26500000E+01
 20
2.03678879E+02
 40
2.50000000E-01
 50
1.80000000E+02
 51
2.50324001E+02
  0
POLYLINE
  8
0
 62
4
 66
1
  0
VERTEX
  8
0
 62
4
 10
-5.46000000E+01
 20
2.03673542E+02
  0
VERTEX
  8
0
 62
4
 10
-5.46167067E+01
 20
2.03738140E+02
  0
VERTEX
  8
0
 62
4
 10
-5.46666922E+01
 20
2.03802217E+02
  0
VERTEX
  8
0
 62
4
 10
-5.47495541E+01
 20
2.03865259E+02
  0
VERTEX
  8
0
 62
4
 10
-5.48646253E+01
 20
2.03926757E+02
  0
VERTEX
  8
0
 62
4
 10
-5.50109792E+01
 20
2.03986216E+02
  0
VERTEX
  8
0
 62
4
 10
-5.51874375E+01
 20
2.04043158E+02
  0
VERTEX
  8
0
 62
4
 10
-5.53925795E+01
 20
2.04097124E+02
  0
VERTEX
  8
0
 62
4
 10
-5.56247534E+01
 20
2.04147679E+02
  0
VERTEX
  8
0
 62
4
 10
-5.58820900E+01
 20
2.04194417E+02
  0
VERTEX
  8
0
 62
4
 10
-5.61625173E+01
 20
2.04236961E+02
  0
VERTEX
  8
0
 62
4
 10
-5.64637775E+01
 20
2.04274969E+02
  0
VERTEX
  8
0
 62
4
 10
-5.67834450E+01
 20
2.04308134E+02
  0
VERTEX
  8
0
 62
4
 10
-5.71189461E+01
 20
2.04336190E+02
  0
VERTEX
  8
0
 62
4
 10
-5.74675794E+01
 20
2.04358911E+02
  0
VERTEX
  8
0
 62
4
 10
-5.78265381E+01
 20
2.04376114E+02
  0
VERTEX
  8
0
 62
4
 10
-5.81929319E+01
 20
2.04387660E+02
  0
VERTEX
  8
0
 62
4
 10
-5.85638109E+01
 20
2.04393456E+02
  0
VERTEX
  8
0
 62
4
 10
-5.89361890E+01
 20
2.04393456E+02
  0
VERTEX
  8
0
 62
4
 10
-5.93070680E+01
 20
2.04387660E+02
  0
VERTEX
  8
0
 62
4
 10
-5.96734619E+01
 20
2.04376114E+02
  0
VERTEX
  8
0
 62
4
 10
-6.00324205E+01
 20
2.04358911E+02
  0
VERTEX
  8
0
 62
4
 10
-6.03810539E+01
 20
2.04336190E+02
  0
VERTEX
  8
0
 62
4
 10
-6.07165549E+01
 20
2.04308134E+02
  0
VERTEX
  8
0
 62
4
 10
-6.10362225E+01
 20
2.04274969E+02
  0
VERTEX
  8
0
 62
4
 10
-6.13374827E+01
 20
2.04236961E+02
  0
VERTEX
  8
0
 62
4
 10
-6.16179100E+01
 20
2.04194417E+02
  0
VERTEX
  8
0
 62
4
 10
-6.18752466E+01
 20
2.04147679E+02
  0
VERTEX
  8
0
 62
4
 10
-6.21074205E+01
 20
2.04097124E+02
  0
VERTEX
  8
0
 62
4
 10
-6.23125625E+01
 20
2.04043158E+02
  0
VERTEX
  8
0
 62
4
 10
-6.24890208E+01
 20
2.03986216E+02
  0
VERTEX
  8
0
 62
4
 10
-6.26353747E+01
 20
2.03926757E+02
  0
VERTEX
  8
0
 62
4
 10
-6.27504459E+01
 20
2.03865259E+02
  0
VERTEX
  8
0
 62
4
 10
-6.28333078E+01
 20
2.03802217E+02
  0
VERTEX
  8
0
 62
4
 10
-6.28832933E+01
 20
2.03738140E+02
  0
VERTEX
  8
0
 62
4
 10
-6.29000000E+01
 20
2.03673542E+02
  0
SEQEND
  8
0
  0
ARC
  8
0
 62
4
 10
-5.66313942E+01
 20
2.15265123E+02
 40
1.25124547E+01
 50
2.51904586E+02
 51
2.65058365E+02
  0
ARC
  8
0
 62
4
 10
-6.08686056E+01
 20
2.15265120E+02
 40
1.25124521E+01
 50
2.74941635E+02
 51
2.88095416E+02
  0
POLYLINE
  8
0
 62
4
 66
1
  0
VERTEX
  8
0
 62
4
 10
-5.50500000E+01
 20
2.06044953E+02
  0
VERTEX
  8
0
 62
4
 10
-5.51993080E+01
 20
2.06100873E+02
  0
VERTEX
  8
0
 62
4
 10
-5.53765767E+01
 20
2.06154274E+02
  0
VERTEX
  8
0
 62
4
 10
-5.55804101E+01
 20
2.06204736E+02
  0
VERTEX
  8
0
 62
4
 10
-5.58092032E+01
 20
2.06251861E+02
  0
VERTEX
  8
0
 62
4
 10
-5.60611542E+01
 20
2.06295279E+02
  0
VERTEX
  8
0
 62
4
 10
-5.63342792E+01
 20
2.06334647E+02
  0
VERTEX
  8
0
 62
4
 10
-5.66264273E+01
 20
2.06369656E+02
  0
VERTEX
  8
0
 62
4
 10
-5.69352979E+01
 20
2.06400029E+02
  0
VERTEX
  8
0
 62
4
 10
-5.72584588E+01
 20
2.06425528E+02
  0
VERTEX
  8
0
 62
4
 10
-5.75933652E+01
 20
2.06445952E+02
  0
VERTEX
  8
0
 62
4
 10
-5.79373798E+01
 20
2.06461139E+02
  0
VERTEX
  8
0
 62
4
 10
-5.82877935E+01
 20
2.06470971E+02
  0
VERTEX
  8
0
 62
4
 10
-5.86418469E+01
 20
2.06475370E+02
  0
VERTEX
  8
0
 62
4
 10
-5.89967521E+01
 20
2.06474301E+02
  0
VERTEX
  8
0
 62
4
 10
-5.93497141E+01
 20
2.06467773E+02
  0
VERTEX
  8
0
 62
4
 10
-5.96979536E+01
 20
2.06455837E+02
  0
VERTEX
  8
0
 62
4
 10
-6.00387281E+01
 20
2.06438586E+02
  0
VERTEX
  8
0
 62
4
 10
-6.03693543E+01
 20
2.06416158E+02
  0
VERTEX
  8
0
 62
4
 10
-6.06872286E+01
 20
2.06388729E+02
  0
VERTEX
  8
0
 62
4
 10
-6.09898477E+01
 20
2.06356514E+02
  0
VERTEX
  8
0
 62
4
 10
-6.12748286E+01
 20
2.06319767E+02
  0
VERTEX
  8
0
 62
4
 10
-6.15399272E+01
 20
2.06278778E+02
  0
VERTEX
  8
0
 62
4
 10
-6.17830559E+01
 20
2.06233869E+02
  0
VERTEX
  8
0
 62
4
 10
-6.20023002E+01
 20
2.06185394E+02
  0
VERTEX
  8
0
 62
4
 10
-6.21959334E+01
 20
2.06133735E+02
  0
VERTEX
  8
0
 62
4
 10
-6.23624309E+01
 20
2.06079299E+02
  0
VERTEX
  8
0
 62
4
 10
-6.25004816E+01
 20
2.06022514E+02
  0
VERTEX
  8
0
 62
4
 10
-6.26089982E+01
 20
2.05963827E+02
  0
VERTEX
  8
0
 62
4
 10
-6.26871262E+01
 20
2.05903701E+02
  0
VERTEX
  8
0
 62
4
 10
-6.27342506E+01
 20
2.05842608E+02
  0
VERTEX
  8
0
 62
4
 10
-6.27500000E+01
 20
2.05781031E+02
  0
SEQEND
  8
0
  0
LINE
  8
0
 62
4
 10
-6.27500000E+01
 20
2.05781031E+02
 11
-6.27500000E+01
 21
2.05598801E+02
  0
LINE
  8
0
 62
4
 10
-5.46000000E+01
 20
2.03678879E+02
 11
-5.46000000E+01
 21
2.03817989E+02
  0
LINE
  8
0
 62
4
 10
-6.29000000E+01
 20
2.03678879E+02
 11
-6.29000000E+01
 21
2.05406804E+02
  0
ARC
  8
0
 62
4
 10
-5.87577383E+01
 20
2.14563910E+02
 40
1.18100000E+01
 50
2.50324001E+02
 51
2.70037542E+02
  0
ARC
  8
0
 62
4
 10
-5.87422617E+01
 20
2.14563910E+02
 40
1.18100000E+01
 50
2.69962458E+02
 51
2.89675999E+02
  0
POLYLINE
  8
0
 62
4
 66
1
  0
VERTEX
  8
0
 62
4
 10
-5.50500000E+01
 20
2.05733175E+02
  0
VERTEX
  8
0
 62
4
 10
-5.52318150E+01
 20
2.05789022E+02
  0
VERTEX
  8
0
 62
4
 10
-5.54415122E+01
 20
2.05841841E+02
  0
VERTEX
  8
0
 62
4
 10
-5.56774299E+01
 20
2.05891211E+02
  0
VERTEX
  8
0
 62
4
 10
-5.59376982E+01
 20
2.05936743E+02
  0
VERTEX
  8
0
 62
4
 10
-5.62202545E+01
 20
2.05978074E+02
  0
VERTEX
  8
0
 62
4
 10
-5.65228596E+01
 20
2.06014879E+02
  0
VERTEX
  8
0
 62
4
 10
-5.68431151E+01
 20
2.06046864E+02
  0
VERTEX
  8
0
 62
4
 10
-5.71784831E+01
 20
2.06073777E+02
  0
VERTEX
  8
0
 62
4
 10
-5.75263056E+01
 20
2.06095403E+02
  0
VERTEX
  8
0
 62
4
 10
-5.78838262E+01
 20
2.06111573E+02
  0
VERTEX
  8
0
 62
4
 10
-5.82482113E+01
 20
2.06122157E+02
  0
VERTEX
  8
0
 62
4
 10
-5.86165732E+01
 20
2.06127071E+02
  0
VERTEX
  8
0
 62
4
 10
-5.89859925E+01
 20
2.06126278E+02
  0
VERTEX
  8
0
 62
4
 10
-5.93535416E+01
 20
2.06119782E+02
  0
VERTEX
  8
0
 62
4
 10
-5.97163074E+01
 20
2.06107636E+02
  0
VERTEX
  8
0
 62
4
 10
-6.00714151E+01
 20
2.06089936E+02
  0
VERTEX
  8
0
 62
4
 10
-6.04160504E+01
 20
2.06066822E+02
  0
VERTEX
  8
0
 62
4
 10
-6.07474818E+01
 20
2.06038477E+02
  0
VERTEX
  8
0
 62
4
 10
-6.10630829E+01
 20
2.06005126E+02
  0
VERTEX
  8
0
 62
4
 10
-6.13603523E+01
 20
2.05967033E+02
  0
VERTEX
  8
0
 62
4
 10
-6.16369343E+01
 20
2.05924500E+02
  0
VERTEX
  8
0
 62
4
 10
-6.18906367E+01
 20
2.05877865E+02
  0
VERTEX
  8
0
 62
4
 10
-6.21194490E+01
 20
2.05827496E+02
  0
VERTEX
  8
0
 62
4
 10
-6.23215578E+01
 20
2.05773793E+02
  0
VERTEX
  8
0
 62
4
 10
-6.24953613E+01
 20
2.05717181E+02
  0
VERTEX
  8
0
 62
4
 10
-6.26394821E+01
 20
2.05658110E+02
  0
VERTEX
  8
0
 62
4
 10
-6.27527781E+01
 20
2.05597047E+02
  0
VERTEX
  8
0
 62
4
 10
-6.28343513E+01
 20
2.05534477E+02
  0
VERTEX
  8
0
 62
4
 10
-6.28835552E+01
 20
2.05470894E+02
  0
VERTEX
  8
0
 62
4
 10
-6.29000000E+01
 20
2.05406804E+02
  0
SEQEND
  8
0
  0
LINE
  8
0
 62
4
 10
-7.37500000E+01
 20
2.05364275E+02
 11
-7.37500000E+01
 21
2.04391846E+02
  0
LINE
  8
0
 62
4
 10
-7.37500000E+01
 20
2.05080490E+02
 11
-6.29000000E+01
 21
2.05080490E+02
  0
LINE
  8
0
 62
4
 10
-7.37500000E+01
 20
2.04385897E+02
 11
-6.29000000E+01
 21
2.04385897E+02
  0
LINE
  8
0
 62
4
 10
-7.52500000E+01
 20
2.05392886E+02
 11
-7.37500000E+01
 21
2.04385897E+02
  0
LINE
  8
0
 62
4
 10
-7.52500000E+01
 20
2.05786199E+02
 11
-7.37500000E+01
 21
2.05080490E+02
  0
LINE
  8
0
 62
4
 10
-7.52500000E+01
 20
2.08016788E+02
 11
-7.52500000E+01
 21
2.05392886E+02
  0
LINE
  8
0
 62
4
 10
-7.37500000E+01
 20
2.09019721E+02
 11
-7.52500000E+01
 21
2.08016788E+02
  0
POLYLINE
  8
0
 62
4
 66
1
  0
VERTEX
  8
0
 62
4
 10
-5.32500000E+01
 20
2.32143055E+02
  0
VERTEX
  8
0
 62
4
 10
-5.32580514E+01
 20
2.32174186E+02
  0
VERTEX
  8
0
 62
4
 10
-5.32821408E+01
 20
2.32205067E+02
  0
VERTEX
  8
0
 62
4
 10
-5.33220743E+01
 20
2.32235449E+02
  0
VERTEX
  8
0
 62
4
 10
-5.33775303E+01
 20
2.32265086E+02
  0
VERTEX
  8
0
 62
4
 10
-5.34480623E+01
 20
2.32293741E+02
  0
VERTEX
  8
0
 62
4
 10
-5.35331024E+01
 20
2.32321183E+02
  0
VERTEX
  8
0
 62
4
 10
-5.36319660E+01
 20
2.32347191E+02
  0
VERTEX
  8
0
 62
4
 10
-5.37438571E+01
 20
2.32371555E+02
  0
VERTEX
  8
0
 62
4
 10
-5.38678747E+01
 20
2.32394079E+02
  0
VERTEX
  8
0
 62
4
 10
-5.40030204E+01
 20
2.32414582E+02
  0
VERTEX
  8
0
 62
4
 10
-5.41482060E+01
 20
2.32432899E+02
  0
VERTEX
  8
0
 62
4
 10
-5.43022627E+01
 20
2.32448883E+02
  0
VERTEX
  8
0
 62
4
 10
-5.44639499E+01
 20
2.32462404E+02
  0
VERTEX
  8
0
 62
4
 10
-5.46319660E+01
 20
2.32473353E+02
  0
VERTEX
  8
0
 62
4
 10
-5.48049581E+01
 20
2.32481644E+02
  0
VERTEX
  8
0
 62
4
 10
-5.49815335E+01
 20
2.32487208E+02
  0
VERTEX
  8
0
 62
4
 10
-5.51602703E+01
 20
2.32490002E+02
  0
VERTEX
  8
0
 62
4
 10
-5.53397296E+01
 20
2.32490002E+02
  0
VERTEX
  8
0
 62
4
 10
-5.55184665E+01
 20
2.32487208E+02
  0
VERTEX
  8
0
 62
4
 10
-5.56950419E+01
 20
2.32481644E+02
  0
VERTEX
  8
0
 62
4
 10
-5.58680340E+01
 20
2.32473353E+02
  0
VERTEX
  8
0
 62
4
 10
-5.60360501E+01
 20
2.32462404E+02
  0
VERTEX
  8
0
 62
4
 10
-5.61977373E+01
 20
2.32448883E+02
  0
VERTEX
  8
0
 62
4
 10
-5.63517940E+01
 20
2.32432899E+02
  0
VERTEX
  8
0
 62
4
 10
-5.64969796E+01
 20
2.32414582E+02
  0
VERTEX
  8
0
 62
4
 10
-5.66321253E+01
 20
2.32394079E+02
  0
VERTEX
  8
0
 62
4
 10
-5.67561429E+01
 20
2.32371555E+02
  0
VERTEX
  8
0
 62
4
 10
-5.68680340E+01
 20
2.32347191E+02
  0
VERTEX
  8
0
 62
4
 10
-5.69668976E+01
 20
2.32321183E+02
  0
VERTEX
  8
0
 62
4
 10
-5.70519377E+01
 20
2.32293741E+02
  0
VERTEX
  8
0
 62
4
 10
-5.71224697E+01
 20
2.32265086E+02
  0
VERTEX
  8
0
 62
4
 10
-5.71779257E+01
 20
2.32235449E+02
  0
VERTEX
  8
0
 62
4
 10
-5.72178592E+01
 20
2.32205067E+02
  0
VERTEX
  8
0
 62
4
 10
-5.72419486E+01
 20
2.32174186E+02
  0
VERTEX
  8
0
 62
4
 10
-5.72500000E+01
 20
2.32143055E+02
  0
SEQEND
  8
0
  0
LINE
  8
0
 62
4
 10
-5.32500000E+01
 20
2.32143055E+02
 11
-5.32500000E+01
 21
2.30021733E+02
  0
LINE
  8
0
 62
4
 10
-5.72500000E+01
 20
2.32143055E+02
 11
-5.72500000E+01
 21
2.30021733E+02
  0
LINE
  8
0
 62
6
 10
-5.37500000E+01
 20
2.32372770E+02
 11
-5.37500000E+01
 21
2.30021733E+02
  0
LINE
  8
0
 62
6
 10
-5.67500000E+01
 20
2.32372770E+02
 11
-5.67500000E+01
 21
2.30021733E+02
  0
POLYLINE
  8
0
 62
4
 66
1
  0
VERTEX
  8
0
 62
4
 10
-4.52500000E+01
 20
2.32143055E+02
  0
VERTEX
  8
0
 62
4
 10
-4.52580514E+01
 20
2.32174186E+02
  0
VERTEX
  8
0
 62
4
 10
-4.52821408E+01
 20
2.32205067E+02
  0
VERTEX
  8
0
 62
4
 10
-4.53220743E+01
 20
2.32235449E+02
  0
VERTEX
  8
0
 62
4
 10
-4.53775303E+01
 20
2.32265086E+02
  0
VERTEX
  8
0
 62
4
 10
-4.54480623E+01
 20
2.32293741E+02
  0
VERTEX
  8
0
 62
4
 10
-4.55331024E+01
 20
2.32321183E+02
  0
VERTEX
  8
0
 62
4
 10
-4.56319660E+01
 20
2.32347191E+02
  0
VERTEX
  8
0
 62
4
 10
-4.57438571E+01
 20
2.32371555E+02
  0
VERTEX
  8
0
 62
4
 10
-4.58678747E+01
 20
2.32394079E+02
  0
VERTEX
  8
0
 62
4
 10
-4.60030204E+01
 20
2.32414582E+02
  0
VERTEX
  8
0
 62
4
 10
-4.61482060E+01
 20
2.32432899E+02
  0
VERTEX
  8
0
 62
4
 10
-4.63022627E+01
 20
2.32448883E+02
  0
VERTEX
  8
0
 62
4
 10
-4.64639499E+01
 20
2.32462404E+02
  0
VERTEX
  8
0
 62
4
 10
-4.66319660E+01
 20
2.32473353E+02
  0
VERTEX
  8
0
 62
4
 10
-4.68049581E+01
 20
2.32481644E+02
  0
VERTEX
  8
0
 62
4
 10
-4.69815335E+01
 20
2.32487208E+02
  0
VERTEX
  8
0
 62
4
 10
-4.71602703E+01
 20
2.32490002E+02
  0
VERTEX
  8
0
 62
4
 10
-4.73397296E+01
 20
2.32490002E+02
  0
VERTEX
  8
0
 62
4
 10
-4.75184665E+01
 20
2.32487208E+02
  0
VERTEX
  8
0
 62
4
 10
-4.76950419E+01
 20
2.32481644E+02
  0
VERTEX
  8
0
 62
4
 10
-4.78680340E+01
 20
2.32473353E+02
  0
VERTEX
  8
0
 62
4
 10
-4.80360501E+01
 20
2.32462404E+02
  0
VERTEX
  8
0
 62
4
 10
-4.81977373E+01
 20
2.32448883E+02
  0
VERTEX
  8
0
 62
4
 10
-4.83517940E+01
 20
2.32432899E+02
  0
VERTEX
  8
0
 62
4
 10
-4.84969796E+01
 20
2.32414582E+02
  0
VERTEX
  8
0
 62
4
 10
-4.86321253E+01
 20
2.32394079E+02
  0
VERTEX
  8
0
 62
4
 10
-4.87561429E+01
 20
2.32371555E+02
  0
VERTEX
  8
0
 62
4
 10
-4.88680340E+01
 20
2.32347191E+02
  0
VERTEX
  8
0
 62
4
 10
-4.89668976E+01
 20
2.32321183E+02
  0
VERTEX
  8
0
 62
4
 10
-4.90519377E+01
 20
2.32293741E+02
  0
VERTEX
  8
0
 62
4
 10
-4.91224697E+01
 20
2.32265086E+02
  0
VERTEX
  8
0
 62
4
 10
-4.91779257E+01
 20
2.32235449E+02
  0
VERTEX
  8
0
 62
4
 10
-4.92178592E+01
 20
2.32205067E+02
  0
VERTEX
  8
0
 62
4
 10
-4.92419486E+01
 20
2.32174186E+02
  0
VERTEX
  8
0
 62
4
 10
-4.92500000E+01
 20
2.32143055E+02
  0
SEQEND
  8
0
  0
LINE
  8
0
 62
4
 10
-7.37500000E+01
 20
2.05364275E+02
 11
-6.29000000E+01
 21
2.05364275E+02
  0
LINE
  8
0
 62
4
 10
-4.78500000E+01
 20
2.04565494E+02
 11
-4.37500000E+01
 21
2.04565494E+02
  0
LINE
  8
0
 62
4
 10
-4.78500000E+01
 20
2.04391846E+02
 11
-4.37500000E+01
 21
2.04391846E+02
  0
LINE
  8
0
 62
4
 10
-7.37500000E+01
 20
2.07170216E+02
 11
-4.37500000E+01
 21
2.07170216E+02
  0
LINE
  8
0
 62
4
 10
-7.37500000E+01
 20
2.17313736E+02
 11
-4.37500000E+01
 21
2.17313736E+02
  0
LINE
  8
0
 62
4
 10
-5.87500000E+01
 20
2.24207391E+02
 11
-4.37500000E+01
 21
2.24207391E+02
  0
LINE
  8
0
 62
4
 10
-5.87500000E+01
 20
2.30021733E+02
 11
-4.37500000E+01
 21
2.30021733E+02
  0
LINE
  8
0
  6
CENTER
 62
6
 10
-5.87500000E+01
 20
2.08281031E+02
 11
-5.87500000E+01
 21
2.03281031E+02
  0
LINE
  8
0
  6
CENTER
 62
6
 10
-5.52500000E+01
 20
2.35485028E+02
 11
-5.52500000E+01
 21
2.25219449E+02
  0
LINE
  8
0
  6
CENTER
 62
6
 10
-4.72500000E+01
 20
2.35485028E+02
 11
-4.72500000E+01
 21
2.25219449E+02
  0
LINE
  8
0
 62
4
 10
-7.37500000E+01
 20
2.17313736E+02
 11
-7.37500000E+01
 21
2.05364275E+02
  0
LINE
  8
0
 62
4
 10
-4.37500000E+01
 20
2.30021733E+02
 11
-4.37500000E+01
 21
2.04391846E+02
  0
LINE
  8
0
 62
4
 10
-5.87500000E+01
 20
2.30021733E+02
 11
-5.87500000E+01
 21
2.17313736E+02
  0
LINE
  8
0
 62
4
 10
-4.52500000E+01
 20
2.32143055E+02
 11
-4.52500000E+01
 21
2.30021733E+02
  0
LINE
  8
0
 62
4
 10
-4.92500000E+01
 20
2.32143055E+02
 11
-4.92500000E+01
 21
2.30021733E+02
  0
LINE
  8
0
 62
6
 10
-4.57500000E+01
 20
2.32372770E+02
 11
-4.57500000E+01
 21
2.30021733E+02
  0
LINE
  8
0
 62
6
 10
-4.87500000E+01
 20
2.32372770E+02
 11
-4.87500000E+01
 21
2.30021733E+02
  0
LINE
  8
0
 62
4
 10
-1.10431106E+01
 20
1.91374654E+02
 11
-1.47500000E+01
 21
1.91374654E+02
  0
LINE
  8
0
  6
CENTER
 62
6
 10
1.02500000E+01
 20
1.90350130E+02
 11
5.25000001E+00
 21
1.90350130E+02
  0
LINE
  8
0
  6
CENTER
 62
6
 10
7.75000000E+00
 20
1.87850130E+02
 11
7.75000000E+00
 21
1.92850130E+02
  0
LINE
  8
0
  6
CENTER
 62
6
 10
-4.74999999E+00
 20
1.90350130E+02
 11
-9.74999999E+00
 21
1.90350130E+02
  0
LINE
  8
0
  6
CENTER
 62
6
 10
-7.25000000E+00
 20
1.87850130E+02
 11
-7.25000000E+00
 21
1.92850130E+02
  0
LINE
  8
0
  6
CENTER
 62
6
 10
2.75000001E+00
 20
1.90957898E+02
 11
-2.24999999E+00
 21
1.90957898E+02
  0
ARC
  8
0
 62
4
 10
-9.37175360E+00
 20
1.81349333E+02
 40
1.25306626E+01
 50
7.19166483E+01
 51
8.50313400E+01
  0
ARC
  8
0
 62
4
 10
-5.12824646E+00
 20
1.81349333E+02
 40
1.25306621E+01
 50
9.49686598E+01
 51
1.08083352E+02
  0
ARC
  8
0
 62
4
 10
-4.84999968E+00
 20
1.92608690E+02
 40
1.00000000E+00
 50
3.60000000E+02
 51
7.71724899E+01
  0
ARC
  8
0
 62
4
 10
-9.65000032E+00
 20
1.92608690E+02
 40
1.00000000E+00
 50
1.02827510E+02
 51
1.80000000E+02
  0
ARC
  8
0
 62
4
 10
-7.25000000E+00
 20
1.82068476E+02
 40
1.18100000E+01
 50
7.71724899E+01
 51
1.02827510E+02
  0
POLYLINE
  8
0
 62
4
 66
1
  0
VERTEX
  8
0
 62
4
 10
-1.06500000E+01
 20
1.91334937E+02
  0
VERTEX
  8
0
 62
4
 10
-1.06363126E+01
 20
1.91282014E+02
  0
VERTEX
  8
0
 62
4
 10
-1.05953606E+01
 20
1.91229516E+02
  0
VERTEX
  8
0
 62
4
 10
-1.05274737E+01
 20
1.91177868E+02
  0
VERTEX
  8
0
 62
4
 10
-1.04331986E+01
 20
1.91127484E+02
  0
VERTEX
  8
0
 62
4
 10
-1.03132942E+01
 20
1.91078770E+02
  0
VERTEX
  8
0
 62
4
 10
-1.01687259E+01
 20
1.91032119E+02
  0
VERTEX
  8
0
 62
4
 10
-1.00006578E+01
 20
1.90987906E+02
  0
VERTEX
  8
0
 62
4
 10
-9.81044299E+00
 20
1.90946487E+02
  0
VERTEX
  8
0
 62
4
 10
-9.59961302E+00
 20
1.90908196E+02
  0
VERTEX
  8
0
 62
4
 10
-9.36986534E+00
 20
1.90873341E+02
  0
VERTEX
  8
0
 62
4
 10
-9.12304975E+00
 20
1.90842202E+02
  0
VERTEX
  8
0
 62
4
 10
-8.86115347E+00
 20
1.90815030E+02
  0
VERTEX
  8
0
 62
4
 10
-8.58628512E+00
 20
1.90792044E+02
  0
VERTEX
  8
0
 62
4
 10
-8.30065780E+00
 20
1.90773430E+02
  0
VERTEX
  8
0
 62
4
 10
-8.00657119E+00
 20
1.90759336E+02
  0
VERTEX
  8
0
 62
4
 10
-7.70639312E+00
 20
1.90749876E+02
  0
VERTEX
  8
0
 62
4
 10
-7.40254044E+00
 20
1.90745128E+02
  0
VERTEX
  8
0
 62
4
 10
-7.09745960E+00
 20
1.90745128E+02
  0
VERTEX
  8
0
 62
4
 10
-6.79360691E+00
 20
1.90749876E+02
  0
VERTEX
  8
0
 62
4
 10
-6.49342884E+00
 20
1.90759336E+02
  0
VERTEX
  8
0
 62
4
 10
-6.19934224E+00
 20
1.90773430E+02
  0
VERTEX
  8
0
 62
4
 10
-5.91371491E+00
 20
1.90792044E+02
  0
VERTEX
  8
0
 62
4
 10
-5.63884657E+00
 20
1.90815030E+02
  0
VERTEX
  8
0
 62
4
 10
-5.37695028E+00
 20
1.90842202E+02
  0
VERTEX
  8
0
 62
4
 10
-5.13013469E+00
 20
1.90873341E+02
  0
VERTEX
  8
0
 62
4
 10
-4.90038701E+00
 20
1.90908196E+02
  0
VERTEX
  8
0
 62
4
 10
-4.68955703E+00
 20
1.90946487E+02
  0
VERTEX
  8
0
 62
4
 10
-4.49934223E+00
 20
1.90987906E+02
  0
VERTEX
  8
0
 62
4
 10
-4.33127411E+00
 20
1.91032119E+02
  0
VERTEX
  8
0
 62
4
 10
-4.18670586E+00
 20
1.91078770E+02
  0
VERTEX
  8
0
 62
4
 10
-4.06680145E+00
 20
1.91127484E+02
  0
VERTEX
  8
0
 62
4
 10
-3.97252628E+00
 20
1.91177868E+02
  0
VERTEX
  8
0
 62
4
 10
-3.90463940E+00
 20
1.91229516E+02
  0
VERTEX
  8
0
 62
4
 10
-3.86368740E+00
 20
1.91282014E+02
  0
VERTEX
  8
0
 62
4
 10
-3.85000000E+00
 20
1.91334937E+02
  0
SEQEND
  8
0
  0
LINE
  8
0
 62
4
 10
-1.06500000E+01
 20
1.92608690E+02
 11
-1.06500000E+01
 21
1.91334937E+02
  0
LINE
  8
0
 62
4
 10
-3.85000000E+00
 20
1.92608690E+02
 11
-3.85000000E+00
 21
1.91334937E+02
  0
POLYLINE
  8
0
 62
4
 66
1
  0
VERTEX
  8
0
 62
4
 10
-1.06500000E+01
 20
1.91629628E+02
  0
VERTEX
  8
0
 62
4
 10
-1.07865817E+01
 20
1.91576339E+02
  0
VERTEX
  8
0
 62
4
 10
-1.08955295E+01
 20
1.91521163E+02
  0
VERTEX
  8
0
 62
4
 10
-1.09759923E+01
 20
1.91464533E+02
  0
VERTEX
  8
0
 62
4
 10
-1.10273413E+01
 20
1.91406890E+02
  0
VERTEX
  8
0
 62
4
 10
-1.10491753E+01
 20
1.91348684E+02
  0
VERTEX
  8
0
 62
4
 10
-1.10413236E+01
 20
1.91290371E+02
  0
VERTEX
  8
0
 62
4
 10
-1.10038476E+01
 20
1.91232407E+02
  0
VERTEX
  8
0
 62
4
 10
-1.09370402E+01
 20
1.91175244E+02
  0
VERTEX
  8
0
 62
4
 10
-1.08414234E+01
 20
1.91119328E+02
  0
VERTEX
  8
0
 62
4
 10
-1.07177442E+01
 20
1.91065097E+02
  0
VERTEX
  8
0
 62
4
 10
-1.05669691E+01
 20
1.91012975E+02
  0
VERTEX
  8
0
 62
4
 10
-1.03902762E+01
 20
1.90963368E+02
  0
VERTEX
  8
0
 62
4
 10
-1.01890462E+01
 20
1.90916664E+02
  0
VERTEX
  8
0
 62
4
 10
-9.96485124E+00
 20
1.90873229E+02
  0
VERTEX
  8
0
 62
4
 10
-9.71944328E+00
 20
1.90833402E+02
  0
VERTEX
  8
0
 62
4
 10
-9.45473982E+00
 20
1.90797493E+02
  0
VERTEX
  8
0
 62
4
 10
-9.17280918E+00
 20
1.90765784E+02
  0
VERTEX
  8
0
 62
4
 10
-8.87585428E+00
 20
1.90738522E+02
  0
VERTEX
  8
0
 62
4
 10
-8.56619544E+00
 20
1.90715920E+02
  0
VERTEX
  8
0
 62
4
 10
-8.24625223E+00
 20
1.90698155E+02
  0
VERTEX
  8
0
 62
4
 10
-7.91852461E+00
 20
1.90685366E+02
  0
VERTEX
  8
0
 62
4
 10
-7.58557333E+00
 20
1.90677652E+02
  0
VERTEX
  8
0
 62
4
 10
-7.24999998E+00
 20
1.90675074E+02
  0
VERTEX
  8
0
 62
4
 10
-6.91442663E+00
 20
1.90677652E+02
  0
VERTEX
  8
0
 62
4
 10
-6.58147536E+00
 20
1.90685366E+02
  0
VERTEX
  8
0
 62
4
 10
-6.25374773E+00
 20
1.90698155E+02
  0
VERTEX
  8
0
 62
4
 10
-5.93380453E+00
 20
1.90715920E+02
  0
VERTEX
  8
0
 62
4
 10
-5.62414569E+00
 20
1.90738522E+02
  0
VERTEX
  8
0
 62
4
 10
-5.32719079E+00
 20
1.90765784E+02
  0
VERTEX
  8
0
 62
4
 10
-5.04526015E+00
 20
1.90797493E+02
  0
VERTEX
  8
0
 62
4
 10
-4.78055669E+00
 20
1.90833402E+02
  0
VERTEX
  8
0
 62
4
 10
-4.53514873E+00
 20
1.90873229E+02
  0
VERTEX
  8
0
 62
4
 10
-4.31095382E+00
 20
1.90916664E+02
  0
VERTEX
  8
0
 62
4
 10
-4.10972374E+00
 20
1.90963368E+02
  0
VERTEX
  8
0
 62
4
 10
-3.93303084E+00
 20
1.91012975E+02
  0
VERTEX
  8
0
 62
4
 10
-3.78225576E+00
 20
1.91065097E+02
  0
VERTEX
  8
0
 62
4
 10
-3.65857661E+00
 20
1.91119328E+02
  0
VERTEX
  8
0
 62
4
 10
-3.56295977E+00
 20
1.91175244E+02
  0
VERTEX
  8
0
 62
4
 10
-3.49615237E+00
 20
1.91232407E+02
  0
VERTEX
  8
0
 62
4
 10
-3.45867642E+00
 20
1.91290371E+02
  0
VERTEX
  8
0
 62
4
 10
-3.45082475E+00
 20
1.91348684E+02
  0
VERTEX
  8
0
 62
4
 10
-3.47265871E+00
 20
1.91406890E+02
  0
VERTEX
  8
0
 62
4
 10
-3.52400769E+00
 20
1.91464533E+02
  0
VERTEX
  8
0
 62
4
 10
-3.60447047E+00
 20
1.91521163E+02
  0
VERTEX
  8
0
 62
4
 10
-3.71341834E+00
 20
1.91576339E+02
  0
VERTEX
  8
0
 62
4
 10
-3.85000001E+00
 20
1.91629628E+02
  0
SEQEND
  8
0
  0
POLYLINE
  8
0
 62
4
 66
1
  0
VERTEX
  8
0
 62
4
 10
-1.10500000E+01
 20
1.90350130E+02
  0
VERTEX
  8
0
 62
4
 10
-1.10347023E+01
 20
1.90290980E+02
  0
VERTEX
  8
0
 62
4
 10
-1.09889324E+01
 20
1.90232307E+02
  0
VERTEX
  8
0
 62
4
 10
-1.09130589E+01
 20
1.90174582E+02
  0
VERTEX
  8
0
 62
4
 10
-1.08076925E+01
 20
1.90118271E+02
  0
VERTEX
  8
0
 62
4
 10
-1.06736817E+01
 20
1.90063826E+02
  0
VERTEX
  8
0
 62
4
 10
-1.05121054E+01
 20
1.90011687E+02
  0
VERTEX
  8
0
 62
4
 10
-1.03242646E+01
 20
1.89962272E+02
  0
VERTEX
  8
0
 62
4
 10
-1.01116716E+01
 20
1.89915981E+02
  0
VERTEX
  8
0
 62
4
 10
-9.87603808E+00
 20
1.89873184E+02
  0
VERTEX
  8
0
 62
4
 10
-9.61926126E+00
 20
1.89834228E+02
  0
VERTEX
  8
0
 62
4
 10
-9.34340854E+00
 20
1.89799426E+02
  0
VERTEX
  8
0
 62
4
 10
-9.05070093E+00
 20
1.89769058E+02
  0
VERTEX
  8
0
 62
4
 10
-8.74349514E+00
 20
1.89743368E+02
  0
VERTEX
  8
0
 62
4
 10
-8.42426460E+00
 20
1.89722563E+02
  0
VERTEX
  8
0
 62
4
 10
-8.09557957E+00
 20
1.89706811E+02
  0
VERTEX
  8
0
 62
4
 10
-7.76008643E+00
 20
1.89696239E+02
  0
VERTEX
  8
0
 62
4
 10
-7.42048638E+00
 20
1.89690931E+02
  0
VERTEX
  8
0
 62
4
 10
-7.07951367E+00
 20
1.89690931E+02
  0
VERTEX
  8
0
 62
4
 10
-6.73991361E+00
 20
1.89696239E+02
  0
VERTEX
  8
0
 62
4
 10
-6.40442047E+00
 20
1.89706811E+02
  0
VERTEX
  8
0
 62
4
 10
-6.07573544E+00
 20
1.89722563E+02
  0
VERTEX
  8
0
 62
4
 10
-5.75650490E+00
 20
1.89743368E+02
  0
VERTEX
  8
0
 62
4
 10
-5.44929910E+00
 20
1.89769058E+02
  0
VERTEX
  8
0
 62
4
 10
-5.15659149E+00
 20
1.89799426E+02
  0
VERTEX
  8
0
 62
4
 10
-4.88073877E+00
 20
1.89834228E+02
  0
VERTEX
  8
0
 62
4
 10
-4.62396195E+00
 20
1.89873184E+02
  0
VERTEX
  8
0
 62
4
 10
-4.38832845E+00
 20
1.89915981E+02
  0
VERTEX
  8
0
 62
4
 10
-4.17573544E+00
 20
1.89962272E+02
  0
VERTEX
  8
0
 62
4
 10
-3.98789460E+00
 20
1.90011687E+02
  0
VERTEX
  8
0
 62
4
 10
-3.82631831E+00
 20
1.90063826E+02
  0
VERTEX
  8
0
 62
4
 10
-3.69230750E+00
 20
1.90118271E+02
  0
VERTEX
  8
0
 62
4
 10
-3.58694114E+00
 20
1.90174582E+02
  0
VERTEX
  8
0
 62
4
 10
-3.51106757E+00
 20
1.90232307E+02
  0
VERTEX
  8
0
 62
4
 10
-3.46529769E+00
 20
1.90290980E+02
  0
VERTEX
  8
0
 62
4
 10
-3.45000000E+00
 20
1.90350130E+02
  0
SEQEND
  8
0
  0
LINE
  8
0
 62
4
 10
-1.10500000E+01
 20
1.91334937E+02
 11
-1.10500000E+01
 21
1.90350130E+02
  0
LINE
  8
0
 62
4
 10
-3.45000000E+00
 20
1.91334937E+02
 11
-3.45000000E+00
 21
1.90350130E+02
  0
ARC
  8
0
 62
4
 10
-3.65000001E+00
 20
1.93060050E+02
 40
2.50000000E-01
 50
1.09675998E+02
 51
1.80000000E+02
  0
ARC
  8
0
 62
4
 10
4.15000001E+00
 20
1.93060050E+02
 40
2.50000000E-01
 50
0.00000000E+00
 51
7.03240015E+01
  0
POLYLINE
  8
0
 62
4
 66
1
  0
VERTEX
  8
0
 62
4
 10
-3.90000001E+00
 20
1.93065387E+02
  0
VERTEX
  8
0
 62
4
 10
-3.88329333E+00
 20
1.93000789E+02
  0
VERTEX
  8
0
 62
4
 10
-3.83330781E+00
 20
1.92936712E+02
  0
VERTEX
  8
0
 62
4
 10
-3.75044589E+00
 20
1.92873670E+02
  0
VERTEX
  8
0
 62
4
 10
-3.63537473E+00
 20
1.92812172E+02
  0
VERTEX
  8
0
 62
4
 10
-3.48902082E+00
 20
1.92752713E+02
  0
VERTEX
  8
0
 62
4
 10
-3.31256251E+00
 20
1.92695771E+02
  0
VERTEX
  8
0
 62
4
 10
-3.10742055E+00
 20
1.92641805E+02
  0
VERTEX
  8
0
 62
4
 10
-2.87524660E+00
 20
1.92591250E+02
  0
VERTEX
  8
0
 62
4
 10
-2.61791001E+00
 20
1.92544512E+02
  0
VERTEX
  8
0
 62
4
 10
-2.33748270E+00
 20
1.92501968E+02
  0
VERTEX
  8
0
 62
4
 10
-2.03622249E+00
 20
1.92463960E+02
  0
VERTEX
  8
0
 62
4
 10
-1.71655497E+00
 20
1.92430795E+02
  0
VERTEX
  8
0
 62
4
 10
-1.38105390E+00
 20
1.92402739E+02
  0
VERTEX
  8
0
 62
4
 10
-1.03242055E+00
 20
1.92380018E+02
  0
VERTEX
  8
0
 62
4
 10
-6.73461899E-01
 20
1.92362815E+02
  0
VERTEX
  8
0
 62
4
 10
-3.07068076E-01
 20
1.92351269E+02
  0
VERTEX
  8
0
 62
4
 10
6.38109315E-02
 20
1.92345473E+02
  0
VERTEX
  8
0
 62
4
 10
4.36189024E-01
 20
1.92345473E+02
  0
VERTEX
  8
0
 62
4
 10
8.07068032E-01
 20
1.92351269E+02
  0
VERTEX
  8
0
 62
4
 10
1.17346186E+00
 20
1.92362815E+02
  0
VERTEX
  8
0
 62
4
 10
1.53242051E+00
 20
1.92380018E+02
  0
VERTEX
  8
0
 62
4
 10
1.88105386E+00
 20
1.92402739E+02
  0
VERTEX
  8
0
 62
4
 10
2.21655493E+00
 20
1.92430795E+02
  0
VERTEX
  8
0
 62
4
 10
2.53622246E+00
 20
1.92463960E+02
  0
VERTEX
  8
0
 62
4
 10
2.83748266E+00
 20
1.92501968E+02
  0
VERTEX
  8
0
 62
4
 10
3.11790998E+00
 20
1.92544512E+02
  0
VERTEX
  8
0
 62
4
 10
3.37524657E+00
 20
1.92591250E+02
  0
VERTEX
  8
0
 62
4
 10
3.60742052E+00
 20
1.92641805E+02
  0
VERTEX
  8
0
 62
4
 10
3.81256249E+00
 20
1.92695771E+02
  0
VERTEX
  8
0
 62
4
 10
3.98902080E+00
 20
1.92752713E+02
  0
VERTEX
  8
0
 62
4
 10
4.13537471E+00
 20
1.92812172E+02
  0
VERTEX
  8
0
 62
4
 10
4.25044587E+00
 20
1.92873670E+02
  0
VERTEX
  8
0
 62
4
 10
4.33330780E+00
 20
1.92936712E+02
  0
VERTEX
  8
0
 62
4
 10
4.38329333E+00
 20
1.93000789E+02
  0
VERTEX
  8
0
 62
4
 10
4.40000001E+00
 20
1.93065387E+02
  0
SEQEND
  8
0
  0
ARC
  8
0
 62
4
 10
-1.86860584E+00
 20
1.81473807E+02
 40
1.25124547E+01
 50
7.19045858E+01
 51
8.50583647E+01
  0
ARC
  8
0
 62
4
 10
2.36860555E+00
 20
1.81473809E+02
 40
1.25124521E+01
 50
9.49416351E+01
 51
1.08095416E+02
  0
POLYLINE
  8
0
 62
4
 66
1
  0
VERTEX
  8
0
 62
4
 10
-3.44999999E+00
 20
1.90693976E+02
  0
VERTEX
  8
0
 62
4
 10
-3.30069202E+00
 20
1.90638056E+02
  0
VERTEX
  8
0
 62
4
 10
-3.12342334E+00
 20
1.90584655E+02
  0
VERTEX
  8
0
 62
4
 10
-2.91958989E+00
 20
1.90534193E+02
  0
VERTEX
  8
0
 62
4
 10
-2.69079680E+00
 20
1.90487068E+02
  0
VERTEX
  8
0
 62
4
 10
-2.43884575E+00
 20
1.90443650E+02
  0
VERTEX
  8
0
 62
4
 10
-2.16572079E+00
 20
1.90404282E+02
  0
VERTEX
  8
0
 62
4
 10
-1.87357270E+00
 20
1.90369273E+02
  0
VERTEX
  8
0
 62
4
 10
-1.56470207E+00
 20
1.90338900E+02
  0
VERTEX
  8
0
 62
4
 10
-1.24154116E+00
 20
1.90313401E+02
  0
VERTEX
  8
0
 62
4
 10
-9.06634786E-01
 20
1.90292977E+02
  0
VERTEX
  8
0
 62
4
 10
-5.62620231E-01
 20
1.90277790E+02
  0
VERTEX
  8
0
 62
4
 10
-2.12206517E-01
 20
1.90267958E+02
  0
VERTEX
  8
0
 62
4
 10
1.41846945E-01
 20
1.90263559E+02
  0
VERTEX
  8
0
 62
4
 10
4.96752081E-01
 20
1.90264628E+02
  0
VERTEX
  8
0
 62
4
 10
8.49714114E-01
 20
1.90271156E+02
  0
VERTEX
  8
0
 62
4
 10
1.19795357E+00
 20
1.90283092E+02
  0
VERTEX
  8
0
 62
4
 10
1.53872815E+00
 20
1.90300343E+02
  0
VERTEX
  8
0
 62
4
 10
1.86935435E+00
 20
1.90322771E+02
  0
VERTEX
  8
0
 62
4
 10
2.18722859E+00
 20
1.90350200E+02
  0
VERTEX
  8
0
 62
4
 10
2.48984769E+00
 20
1.90382415E+02
  0
VERTEX
  8
0
 62
4
 10
2.77482862E+00
 20
1.90419162E+02
  0
VERTEX
  8
0
 62
4
 10
3.03992722E+00
 20
1.90460151E+02
  0
VERTEX
  8
0
 62
4
 10
3.28305593E+00
 20
1.90505060E+02
  0
VERTEX
  8
0
 62
4
 10
3.50230016E+00
 20
1.90553535E+02
  0
VERTEX
  8
0
 62
4
 10
3.69593343E+00
 20
1.90605194E+02
  0
VERTEX
  8
0
 62
4
 10
3.86243093E+00
 20
1.90659630E+02
  0
VERTEX
  8
0
 62
4
 10
4.00048155E+00
 20
1.90716415E+02
  0
VERTEX
  8
0
 62
4
 10
4.10899817E+00
 20
1.90775102E+02
  0
VERTEX
  8
0
 62
4
 10
4.18712625E+00
 20
1.90835229E+02
  0
VERTEX
  8
0
 62
4
 10
4.23425056E+00
 20
1.90896321E+02
  0
VERTEX
  8
0
 62
4
 10
4.25000000E+00
 20
1.90957898E+02
  0
SEQEND
  8
0
  0
LINE
  8
0
 62
4
 10
4.25000000E+00
 20
1.90957898E+02
 11
4.25000000E+00
 21
1.91140128E+02
  0
LINE
  8
0
 62
4
 10
-3.90000001E+00
 20
1.93060050E+02
 11
-3.90000001E+00
 21
1.92920941E+02
  0
LINE
  8
0
 62
4
 10
4.40000001E+00
 20
1.93060050E+02
 11
4.40000001E+00
 21
1.91332125E+02
  0
ARC
  8
0
 62
4
 10
2.57738294E-01
 20
1.82175019E+02
 40
1.18100000E+01
 50
7.03240015E+01
 51
9.00375421E+01
  0
ARC
  8
0
 62
4
 10
2.42261706E-01
 20
1.82175019E+02
 40
1.18100000E+01
 50
8.99624577E+01
 51
1.09675998E+02
  0
POLYLINE
  8
0
 62
4
 66
1
  0
VERTEX
  8
0
 62
4
 10
-3.44999999E+00
 20
1.91005754E+02
  0
VERTEX
  8
0
 62
4
 10
-3.26818501E+00
 20
1.90949907E+02
  0
VERTEX
  8
0
 62
4
 10
-3.05848776E+00
 20
1.90897088E+02
  0
VERTEX
  8
0
 62
4
 10
-2.82257012E+00
 20
1.90847718E+02
  0
VERTEX
  8
0
 62
4
 10
-2.56230180E+00
 20
1.90802186E+02
  0
VERTEX
  8
0
 62
4
 10
-2.27974546E+00
 20
1.90760855E+02
  0
VERTEX
  8
0
 62
4
 10
-1.97714041E+00
 20
1.90724050E+02
  0
VERTEX
  8
0
 62
4
 10
-1.65688486E+00
 20
1.90692065E+02
  0
VERTEX
  8
0
 62
4
 10
-1.32151689E+00
 20
1.90665152E+02
  0
VERTEX
  8
0
 62
4
 10
-9.73694362E-01
 20
1.90643526E+02
  0
VERTEX
  8
0
 62
4
 10
-6.16173825E-01
 20
1.90627356E+02
  0
VERTEX
  8
0
 62
4
 10
-2.51788698E-01
 20
1.90616772E+02
  0
VERTEX
  8
0
 62
4
 10
1.16573197E-01
 20
1.90611858E+02
  0
VERTEX
  8
0
 62
4
 10
4.85992525E-01
 20
1.90612651E+02
  0
VERTEX
  8
0
 62
4
 10
8.53541568E-01
 20
1.90619147E+02
  0
VERTEX
  8
0
 62
4
 10
1.21630743E+00
 20
1.90631293E+02
  0
VERTEX
  8
0
 62
4
 10
1.57141513E+00
 20
1.90648993E+02
  0
VERTEX
  8
0
 62
4
 10
1.91605036E+00
 20
1.90672107E+02
  0
VERTEX
  8
0
 62
4
 10
2.24748184E+00
 20
1.90700452E+02
  0
VERTEX
  8
0
 62
4
 10
2.56308290E+00
 20
1.90733803E+02
  0
VERTEX
  8
0
 62
4
 10
2.86035235E+00
 20
1.90771896E+02
  0
VERTEX
  8
0
 62
4
 10
3.13693426E+00
 20
1.90814429E+02
  0
VERTEX
  8
0
 62
4
 10
3.39063669E+00
 20
1.90861064E+02
  0
VERTEX
  8
0
 62
4
 10
3.61944898E+00
 20
1.90911433E+02
  0
VERTEX
  8
0
 62
4
 10
3.82155777E+00
 20
1.90965136E+02
  0
VERTEX
  8
0
 62
4
 10
3.99536129E+00
 20
1.91021748E+02
  0
VERTEX
  8
0
 62
4
 10
4.13948213E+00
 20
1.91080819E+02
  0
VERTEX
  8
0
 62
4
 10
4.25277809E+00
 20
1.91141882E+02
  0
VERTEX
  8
0
 62
4
 10
4.33435129E+00
 20
1.91204452E+02
  0
VERTEX
  8
0
 62
4
 10
4.38355525E+00
 20
1.91268035E+02
  0
VERTEX
  8
0
 62
4
 10
4.40000001E+00
 20
1.91332125E+02
  0
SEQEND
  8
0
  0
LINE
  8
0
 62
4
 10
1.52500000E+01
 20
1.91374654E+02
 11
1.52500000E+01
 21
1.92347084E+02
  0
LINE
  8
0
 62
4
 10
1.52500000E+01
 20
1.91658440E+02
 11
4.40000001E+00
 21
1.91658440E+02
  0
LINE
  8
0
 62
4
 10
1.52500000E+01
 20
1.92353032E+02
 11
4.40000001E+00
 21
1.92353032E+02
  0
LINE
  8
0
 62
4
 10
1.67500000E+01
 20
1.91346044E+02
 11
1.52500000E+01
 21
1.92353032E+02
  0
LINE
  8
0
 62
4
 10
1.67500000E+01
 20
1.90952731E+02
 11
1.52500000E+01
 21
1.91658440E+02
  0
LINE
  8
0
 62
4
 10
1.67500000E+01
 20
1.88722141E+02
 11
1.67500000E+01
 21
1.91346044E+02
  0
LINE
  8
0
 62
4
 10
1.52500000E+01
 20
1.87719209E+02
 11
1.67500000E+01
 21
1.88722141E+02
  0
POLYLINE
  8
0
 62
4
 66
1
  0
VERTEX
  8
0
 62
4
 10
-5.25000003E+00
 20
1.64595875E+02
  0
VERTEX
  8
0
 62
4
 10
-5.24194862E+00
 20
1.64564744E+02
  0
VERTEX
  8
0
 62
4
 10
-5.21785921E+00
 20
1.64533863E+02
  0
VERTEX
  8
0
 62
4
 10
-5.17792575E+00
 20
1.64503481E+02
  0
VERTEX
  8
0
 62
4
 10
-5.12246977E+00
 20
1.64473844E+02
  0
VERTEX
  8
0
 62
4
 10
-5.05193777E+00
 20
1.64445189E+02
  0
VERTEX
  8
0
 62
4
 10
-4.96689762E+00
 20
1.64417747E+02
  0
VERTEX
  8
0
 62
4
 10
-4.86803402E+00
 20
1.64391739E+02
  0
VERTEX
  8
0
 62
4
 10
-4.75614297E+00
 20
1.64367375E+02
  0
VERTEX
  8
0
 62
4
 10
-4.63212533E+00
 20
1.64344851E+02
  0
VERTEX
  8
0
 62
4
 10
-4.49697964E+00
 20
1.64324348E+02
  0
VERTEX
  8
0
 62
4
 10
-4.35179400E+00
 20
1.64306031E+02
  0
VERTEX
  8
0
 62
4
 10
-4.19773736E+00
 20
1.64290047E+02
  0
VERTEX
  8
0
 62
4
 10
-4.03605010E+00
 20
1.64276526E+02
  0
VERTEX
  8
0
 62
4
 10
-3.86803403E+00
 20
1.64265577E+02
  0
VERTEX
  8
0
 62
4
 10
-3.69504191E+00
 20
1.64257286E+02
  0
VERTEX
  8
0
 62
4
 10
-3.51846657E+00
 20
1.64251722E+02
  0
VERTEX
  8
0
 62
4
 10
-3.33972970E+00
 20
1.64248928E+02
  0
VERTEX
  8
0
 62
4
 10
-3.16027038E+00
 20
1.64248928E+02
  0
VERTEX
  8
0
 62
4
 10
-2.98153351E+00
 20
1.64251722E+02
  0
VERTEX
  8
0
 62
4
 10
-2.80495817E+00
 20
1.64257286E+02
  0
VERTEX
  8
0
 62
4
 10
-2.63196605E+00
 20
1.64265577E+02
  0
VERTEX
  8
0
 62
4
 10
-2.46394998E+00
 20
1.64276526E+02
  0
VERTEX
  8
0
 62
4
 10
-2.30226272E+00
 20
1.64290047E+02
  0
VERTEX
  8
0
 62
4
 10
-2.14820608E+00
 20
1.64306031E+02
  0
VERTEX
  8
0
 62
4
 10
-2.00302044E+00
 20
1.64324348E+02
  0
VERTEX
  8
0
 62
4
 10
-1.86787474E+00
 20
1.64344851E+02
  0
VERTEX
  8
0
 62
4
 10
-1.74385711E+00
 20
1.64367375E+02
  0
VERTEX
  8
0
 62
4
 10
-1.63196605E+00
 20
1.64391739E+02
  0
VERTEX
  8
0
 62
4
 10
-1.53310245E+00
 20
1.64417747E+02
  0
VERTEX
  8
0
 62
4
 10
-1.44806230E+00
 20
1.64445189E+02
  0
VERTEX
  8
0
 62
4
 10
-1.37753029E+00
 20
1.64473844E+02
  0
VERTEX
  8
0
 62
4
 10
-1.32207431E+00
 20
1.64503481E+02
  0
VERTEX
  8
0
 62
4
 10
-1.28214086E+00
 20
1.64533863E+02
  0
VERTEX
  8
0
 62
4
 10
-1.25805144E+00
 20
1.64564744E+02
  0
VERTEX
  8
0
 62
4
 10
-1.25000003E+00
 20
1.64595875E+02
  0
SEQEND
  8
0
  0
LINE
  8
0
 62
4
 10
-5.25000003E+00
 20
1.64595875E+02
 11
-5.25000003E+00
 21
1.66717196E+02
  0
LINE
  8
0
 62
4
 10
-1.25000003E+00
 20
1.64595875E+02
 11
-1.25000003E+00
 21
1.66717196E+02
  0
LINE
  8
0
 62
6
 10
-4.75000003E+00
 20
1.64366160E+02
 11
-4.75000003E+00
 21
1.66717196E+02
  0
LINE
  8
0
 62
6
 10
-1.75000003E+00
 20
1.64366160E+02
 11
-1.75000003E+00
 21
1.66717196E+02
  0
POLYLINE
  8
0
 62
4
 66
1
  0
VERTEX
  8
0
 62
4
 10
-1.32500000E+01
 20
1.64595875E+02
  0
VERTEX
  8
0
 62
4
 10
-1.32419486E+01
 20
1.64564744E+02
  0
VERTEX
  8
0
 62
4
 10
-1.32178592E+01
 20
1.64533863E+02
  0
VERTEX
  8
0
 62
4
 10
-1.31779257E+01
 20
1.64503481E+02
  0
VERTEX
  8
0
 62
4
 10
-1.31224697E+01
 20
1.64473844E+02
  0
VERTEX
  8
0
 62
4
 10
-1.30519377E+01
 20
1.64445189E+02
  0
VERTEX
  8
0
 62
4
 10
-1.29668976E+01
 20
1.64417747E+02
  0
VERTEX
  8
0
 62
4
 10
-1.28680340E+01
 20
1.64391739E+02
  0
VERTEX
  8
0
 62
4
 10
-1.27561429E+01
 20
1.64367375E+02
  0
VERTEX
  8
0
 62
4
 10
-1.26321253E+01
 20
1.64344851E+02
  0
VERTEX
  8
0
 62
4
 10
-1.24969796E+01
 20
1.64324348E+02
  0
VERTEX
  8
0
 62
4
 10
-1.23517940E+01
 20
1.64306031E+02
  0
VERTEX
  8
0
 62
4
 10
-1.21977373E+01
 20
1.64290047E+02
  0
VERTEX
  8
0
 62
4
 10
-1.20360501E+01
 20
1.64276526E+02
  0
VERTEX
  8
0
 62
4
 10
-1.18680340E+01
 20
1.64265577E+02
  0
VERTEX
  8
0
 62
4
 10
-1.16950419E+01
 20
1.64257286E+02
  0
VERTEX
  8
0
 62
4
 10
-1.15184665E+01
 20
1.64251722E+02
  0
VERTEX
  8
0
 62
4
 10
-1.13397297E+01
 20
1.64248928E+02
  0
VERTEX
  8
0
 62
4
 10
-1.11602704E+01
 20
1.64248928E+02
  0
VERTEX
  8
0
 62
4
 10
-1.09815335E+01
 20
1.64251722E+02
  0
VERTEX
  8
0
 62
4
 10
-1.08049581E+01
 20
1.64257286E+02
  0
VERTEX
  8
0
 62
4
 10
-1.06319660E+01
 20
1.64265577E+02
  0
VERTEX
  8
0
 62
4
 10
-1.04639499E+01
 20
1.64276526E+02
  0
VERTEX
  8
0
 62
4
 10
-1.03022627E+01
 20
1.64290047E+02
  0
VERTEX
  8
0
 62
4
 10
-1.01482060E+01
 20
1.64306031E+02
  0
VERTEX
  8
0
 62
4
 10
-1.00030204E+01
 20
1.64324348E+02
  0
VERTEX
  8
0
 62
4
 10
-9.86787471E+00
 20
1.64344851E+02
  0
VERTEX
  8
0
 62
4
 10
-9.74385708E+00
 20
1.64367375E+02
  0
VERTEX
  8
0
 62
4
 10
-9.63196602E+00
 20
1.64391739E+02
  0
VERTEX
  8
0
 62
4
 10
-9.53310242E+00
 20
1.64417747E+02
  0
VERTEX
  8
0
 62
4
 10
-9.44806227E+00
 20
1.64445189E+02
  0
VERTEX
  8
0
 62
4
 10
-9.37753026E+00
 20
1.64473844E+02
  0
VERTEX
  8
0
 62
4
 10
-9.32207428E+00
 20
1.64503481E+02
  0
VERTEX
  8
0
 62
4
 10
-9.28214083E+00
 20
1.64533863E+02
  0
VERTEX
  8
0
 62
4
 10
-9.25805141E+00
 20
1.64564744E+02
  0
VERTEX
  8
0
 62
4
 10
-9.25000000E+00
 20
1.64595875E+02
  0
SEQEND
  8
0
  0
LINE
  8
0
 62
4
 10
1.52500000E+01
 20
1.91374654E+02
 11
4.40000001E+00
 21
1.91374654E+02
  0
LINE
  8
0
 62
4
 10
-1.06500000E+01
 20
1.92173436E+02
 11
-1.47500000E+01
 21
1.92173436E+02
  0
LINE
  8
0
 62
4
 10
-1.06500000E+01
 20
1.92347084E+02
 11
-1.47500000E+01
 21
1.92347084E+02
  0
LINE
  8
0
 62
4
 10
1.52500000E+01
 20
1.89568713E+02
 11
-1.47500000E+01
 21
1.89568713E+02
  0
LINE
  8
0
 62
4
 10
1.52500000E+01
 20
1.79425193E+02
 11
-1.47500000E+01
 21
1.79425193E+02
  0
LINE
  8
0
 62
4
 10
2.50000008E-01
 20
1.72531539E+02
 11
-1.47500000E+01
 21
1.72531539E+02
  0
LINE
  8
0
 62
4
 10
2.50000008E-01
 20
1.66717196E+02
 11
-1.47500000E+01
 21
1.66717196E+02
  0
LINE
  8
0
  6
CENTER
 62
6
 10
2.50000000E-01
 20
1.88457898E+02
 11
2.50000000E-01
 21
1.93457898E+02
  0
LINE
  8
0
  6
CENTER
 62
6
 10
-3.25000003E+00
 20
1.61253901E+02
 11
-3.25000003E+00
 21
1.71519480E+02
  0
LINE
  8
0
  6
CENTER
 62
6
 10
-1.12500000E+01
 20
1.61253901E+02
 11
-1.12500000E+01
 21
1.71519480E+02
  0
LINE
  8
0
 62
4
 10
1.52500000E+01
 20
1.79425193E+02
 11
1.52500000E+01
 21
1.91374654E+02
  0
LINE
  8
0
 62
4
 10
-1.47500000E+01
 20
1.66717196E+02
 11
-1.47500000E+01
 21
1.92347084E+02
  0
LINE
  8
0
 62
4
 10
2.50000000E-01
 20
1.66717196E+02
 11
2.50000000E-01
 21
1.79425193E+02
  0
LINE
  8
0
 62
4
 10
-1.32500000E+01
 20
1.64595875E+02
 11
-1.32500000E+01
 21
1.66717196E+02
  0
LINE
  8
0
 62
4
 10
-9.25000003E+00
 20
1.64595875E+02
 11
-9.25000003E+00
 21
1.66717196E+02
  0
LINE
  8
0
 62
6
 10
-1.27500000E+01
 20
1.64366160E+02
 11
-1.27500000E+01
 21
1.66717196E+02
  0
LINE
  8
0
 62
6
 10
-9.75000003E+00
 20
1.64366160E+02
 11
-9.75000003E+00
 21
1.66717196E+02
  0
LINE
  8
0
 62
4
 10
-4.37500000E+01
 20
2.08202809E+02
 11
-3.28839746E+01
 21
2.08202809E+02
  0
LINE
  8
0
  6
CENTER
 62
6
 10
-7.87500000E+01
 20
2.06702809E+02
 11
-3.17500000E+01
 21
2.06702809E+02
  0
LINE
  8
0
 62
4
 10
-4.37500000E+01
 20
2.05202809E+02
 11
-3.46160254E+01
 21
2.05202809E+02
  0
LINE
  8
0
 62
6
 10
-3.54820508E+01
 20
2.03702809E+02
 11
-3.20179492E+01
 21
2.09702809E+02
  0
LINE
  8
0
 62
4
 10
-1.47500000E+01
 20
1.88536120E+02
 11
-2.56160254E+01
 21
1.88536120E+02
  0
LINE
  8
0
  6
CENTER
 62
6
 10
2.02500000E+01
 20
1.90036120E+02
 11
-2.67500000E+01
 21
1.90036120E+02
  0
LINE
  8
0
 62
4
 10
-1.47500000E+01
 20
1.91536120E+02
 11
-2.38839746E+01
 21
1.91536120E+02
  0
LINE
  8
0
 62
6
 10
-2.30179492E+01
 20
1.93036120E+02
 11
-2.64820508E+01
 21
1.87036120E+02
  0
LINE
  8
0
 62
2
 10
-1.72250000E+02
 20
2.06549457E+02
 11
-1.63249908E+02
 21
2.06549457E+02
  0
LINE
  8
0
 62
7
 10
-1.72250000E+02
 20
2.07369465E+02
 11
-1.63249908E+02
 21
2.07369465E+02
  0
LINE
  8
0
 62
2
 10
-1.72250000E+02
 20
1.90189472E+02
 11
-1.63249908E+02
 21
1.90189472E+02
  0
LINE
  8
0
 62
7
 10
-1.72250000E+02
 20
1.89369465E+02
 11
-1.63249908E+02
 21
1.89369465E+02
  0
ARC
  8
0
 62
4
 10
-1.91746393E+02
 20
1.91619465E+02
 40
1.94963929E+01
 50
3.39743842E+02
 51
2.02561580E+01
  0
ARC
  8
0
 62
4
 10
-1.91746393E+02
 20
2.05119465E+02
 40
1.94963929E+01
 50
3.39743842E+02
 51
2.02561580E+01
  0
ARC
  8
0
 62
4
 10
-1.63753607E+02
 20
2.05119465E+02
 40
1.94963929E+01
 50
1.59743842E+02
 51
2.00256158E+02
  0
ARC
  8
0
 62
4
 10
-1.63753607E+02
 20
1.91619465E+02
 40
1.94963929E+01
 50
1.59743842E+02
 51
2.00256158E+02
  0
LINE
  8
0
 62
4
 10
-1.73455771E+02
 20
1.98369465E+02
 11
-1.82044229E+02
 21
1.98369465E+02
  0
LINE
  8
0
 62
4
 10
-1.72250000E+02
 20
1.84869465E+02
 11
-1.83250000E+02
 21
1.84869465E+02
  0
LINE
  8
0
 62
4
 10
-1.72250000E+02
 20
2.11869465E+02
 11
-1.83250000E+02
 21
2.11869465E+02
  0
LINE
  8
0
 62
4
 10
-1.83250000E+02
 20
2.11869465E+02
 11
-1.83250000E+02
 21
1.84869465E+02
  0
LINE
  8
0
 62
4
 10
-1.72250000E+02
 20
2.11869465E+02
 11
-1.72250000E+02
 21
1.84869465E+02
  0
CIRCLE
  8
0
 62
7
 10
3.47500687E+01
 20
2.05369373E+02
 40
7.45249987E+00
  0
CIRCLE
  8
0
 62
2
 10
3.47499542E+01
 20
2.05369388E+02
 40
8.33099937E+00
  0
CIRCLE
  8
0
 62
7
 10
-1.14250000E+02
 20
2.05369388E+02
 40
7.45249987E+00
  0
CIRCLE
  8
0
 62
2
 10
-1.14250000E+02
 20
2.05369388E+02
 40
8.33099937E+00
  0
ARC
  8
0
 62
7
 10
-1.44249969E+02
 20
2.15869465E+02
 40
1.00000000E+00
 50
8.99999274E+01
 51
1.79999964E+02
  0
ARC
  8
0
 62
7
 10
-1.44249969E+02
 20
1.80869465E+02
 40
1.00000000E+00
 50
1.79999977E+02
 51
2.70000028E+02
  0
CIRCLE
  8
0
 62
7
 10
2.87500229E+01
 20
1.86369434E+02
 40
2.59999990E+00
  0
CIRCLE
  8
0
 62
7
 10
-9.12500305E+01
 20
1.86369465E+02
 40
2.59999990E+00
  0
ARC
  8
0
 62
7
 10
-9.12500305E+01
 20
1.86369465E+02
 40
5.00000000E+00
 50
1.79999977E+02
 51
1.00179127E-05
  0
ARC
  8
0
 62
7
 10
-9.12500305E+01
 20
1.86369465E+02
 40
5.00000000E+00
 50
0.00000000E+00
 51
1.79999964E+02
  0
CIRCLE
  8
0
 62
7
 10
2.87500229E+01
 20
1.86369434E+02
 40
2.50000000E+00
  0
ARC
  8
0
 62
7
 10
2.87500229E+01
 20
1.86369434E+02
 40
5.00000000E+00
 50
1.79999977E+02
 51
1.00179127E-05
  0
ARC
  8
0
 62
7
 10
2.87500229E+01
 20
1.86369434E+02
 40
5.00000000E+00
 50
0.00000000E+00
 51
1.79999964E+02
  0
ARC
  8
0
 62
7
 10
5.42500153E+01
 20
2.16869465E+02
 40
5.00000000E-01
 50
5.46415133E-05
 51
9.00000369E+01
  0
ARC
  8
0
 62
7
 10
5.42500153E+01
 20
1.79869465E+02
 40
5.00000000E-01
 50
2.70000073E+02
 51
5.46415133E-05
  0
ARC
  8
0
 62
7
 10
-1.26515427E+02
 20
2.33491947E+02
 40
2.50000000E+00
 50
9.76913759E+01
 51
1.79999951E+02
  0
ARC
  8
0
 62
7
 10
-1.01984558E+02
 20
2.33491947E+02
 40
2.50000000E+00
 50
0.00000000E+00
 51
8.23085741E+01
  0
ARC
  8
0
 62
7
 10
-1.23984558E+02
 20
2.33491947E+02
 40
2.50000000E+00
 50
6.37281240E+00
 51
9.76913896E+01
  0
ARC
  8
0
 62
7
 10
-1.04515442E+02
 20
2.33491947E+02
 40
2.50000000E+00
 50
8.23085878E+01
 51
1.73627166E+02
  0
LINE
  8
0
 62
7
 10
-1.63249908E+02
 20
1.90189472E+02
 11
-1.60249908E+02
 21
1.90189472E+02
  0
LINE
  8
0
 62
7
 10
-1.63249908E+02
 20
2.06549457E+02
 11
-1.60249908E+02
 21
2.06549457E+02
  0
LINE
  8
0
 62
7
 10
-1.53250001E+02
 20
2.06869523E+02
 11
-1.51749971E+02
 21
2.08369553E+02
  0
LINE
  8
0
 62
7
 10
-1.53249967E+02
 20
1.89869469E+02
 11
-1.51749997E+02
 21
1.88369500E+02
  0
LINE
  8
0
 62
7
 10
-1.60249908E+02
 20
2.06869465E+02
 11
-1.53249969E+02
 21
2.06869465E+02
  0
LINE
  8
0
 62
7
 10
-1.60249908E+02
 20
1.89869465E+02
 11
-1.53249969E+02
 21
1.89869465E+02
  0
LINE
  8
0
 62
7
 10
-1.60249908E+02
 20
1.89869465E+02
 11
-1.60249908E+02
 21
2.06869465E+02
  0
LINE
  8
0
 62
7
 10
-1.92249930E+02
 20
1.90869531E+02
 11
-1.90749894E+02
 21
1.89369542E+02
  0
LINE
  8
0
 62
2
 10
-1.91569855E+02
 20
1.90189472E+02
 11
-1.83250000E+02
 21
1.90189472E+02
  0
LINE
  8
0
 62
7
 10
-1.90749847E+02
 20
1.89369465E+02
 11
-1.83250000E+02
 21
1.89369465E+02
  0
LINE
  8
0
 62
7
 10
-1.92249861E+02
 20
2.05869322E+02
 11
-1.90749815E+02
 21
2.07369323E+02
  0
LINE
  8
0
 62
2
 10
-1.91569855E+02
 20
2.06549457E+02
 11
-1.83250000E+02
 21
2.06549457E+02
  0
LINE
  8
0
 62
7
 10
-1.90749847E+02
 20
2.07369465E+02
 11
-1.83250000E+02
 21
2.07369465E+02
  0
LINE
  8
0
 62
7
 10
-1.90749908E+02
 20
1.89369465E+02
 11
-1.90749908E+02
 21
2.07369465E+02
  0
LINE
  8
0
 62
7
 10
-1.92249908E+02
 20
1.90869495E+02
 11
-1.92249908E+02
 21
2.05869312E+02
  0
LINE
  8
0
 62
7
 10
-1.63249908E+02
 20
1.89369465E+02
 11
-1.63249908E+02
 21
2.07369465E+02
  0
LINE
  8
0
 62
7
 10
-1.51749908E+02
 20
2.08369495E+02
 11
-1.50249939E+02
 21
2.08369495E+02
  0
LINE
  8
0
 62
7
 10
-1.51749969E+02
 20
1.88369480E+02
 11
-1.50249969E+02
 21
1.88369480E+02
  0
LINE
  8
0
 62
7
 10
-1.57249908E+02
 20
2.06869465E+02
 11
-1.57249908E+02
 21
1.89869465E+02
  0
LINE
  8
0
 62
7
 10
-1.37249954E+02
 20
2.17369465E+02
 11
-1.35249939E+02
 21
2.17369465E+02
  0
LINE
  8
0
 62
7
 10
-1.37750049E+02
 20
2.16869543E+02
 11
-1.37250049E+02
 21
2.17369543E+02
  0
LINE
  8
0
 62
7
 10
-1.44249939E+02
 20
2.16869449E+02
 11
-1.37749939E+02
 21
2.16869449E+02
  0
LINE
  8
0
 62
7
 10
-1.37749939E+02
 20
2.16869449E+02
 11
-1.37749939E+02
 21
1.79869465E+02
  0
LINE
  8
0
 62
7
 10
-1.37749984E+02
 20
1.79869456E+02
 11
-1.37249994E+02
 21
1.79369467E+02
  0
LINE
  8
0
 62
7
 10
-1.37249954E+02
 20
2.17369465E+02
 11
-1.37249954E+02
 21
1.79369449E+02
  0
LINE
  8
0
 62
7
 10
-1.44249939E+02
 20
1.79869465E+02
 11
-1.37749939E+02
 21
1.79869465E+02
  0
LINE
  8
0
 62
7
 10
-1.35250000E+02
 20
2.29369465E+02
 11
-8.42500000E+01
 21
2.29369465E+02
  0
LINE
  8
0
 62
7
 10
-8.95178991E+01
 20
1.86369404E+02
 11
-9.03839344E+01
 21
1.84869378E+02
  0
LINE
  8
0
 62
7
 10
-9.03839874E+01
 20
1.84869449E+02
 11
-9.21159821E+01
 21
1.84869449E+02
  0
LINE
  8
0
 62
7
 10
-9.21159677E+01
 20
1.84869429E+02
 11
-9.29819916E+01
 21
1.86369436E+02
  0
LINE
  8
0
 62
7
 10
-9.29819690E+01
 20
1.86369389E+02
 11
-9.21159604E+01
 21
1.87869369E+02
  0
LINE
  8
0
 62
7
 10
-9.03839874E+01
 20
1.87869480E+02
 11
-9.21159821E+01
 21
1.87869480E+02
  0
LINE
  8
0
 62
7
 10
-8.95179004E+01
 20
1.86369521E+02
 11
-9.03839395E+01
 21
1.87869554E+02
  0
LINE
  8
0
 62
7
 10
3.04820984E+01
 20
1.86369371E+02
 11
2.96160783E+01
 21
1.84869371E+02
  0
LINE
  8
0
 62
7
 10
2.96160583E+01
 20
1.84869404E+02
 11
2.78840714E+01
 21
1.84869404E+02
  0
LINE
  8
0
 62
7
 10
2.78840699E+01
 20
1.84869362E+02
 11
2.70180155E+01
 21
1.86369421E+02
  0
LINE
  8
0
 62
7
 10
2.70180757E+01
 20
1.86369346E+02
 11
2.78840844E+01
 21
1.87869326E+02
  0
LINE
  8
0
 62
7
 10
2.96160583E+01
 20
1.87869434E+02
 11
2.78840714E+01
 21
1.87869434E+02
  0
LINE
  8
0
 62
7
 10
3.04821323E+01
 20
1.86369380E+02
 11
2.96160931E+01
 21
1.87869413E+02
  0
LINE
  8
0
 62
7
 10
5.42500153E+01
 20
2.17369465E+02
 11
5.27500000E+01
 21
2.17369465E+02
  0
LINE
  8
0
 62
7
 10
5.47500076E+01
 20
2.16869465E+02
 11
5.47500076E+01
 21
1.79869465E+02
  0
LINE
  8
0
  6
CENTER
 62
2
 10
4.41601944E+01
 20
2.05369373E+02
 11
2.48015671E+01
 21
2.05369373E+02
  0
LINE
  8
0
  6
CENTER
 62
2
 10
3.47500687E+01
 20
1.94127338E+02
 11
3.47500687E+01
 21
2.17713733E+02
  0
LINE
  8
0
  6
CENTER
 62
2
 10
3.75952988E+01
 20
1.86369434E+02
 11
2.01207809E+01
 21
1.86369434E+02
  0
LINE
  8
0
  6
CENTER
 62
2
 10
2.87500229E+01
 20
1.78898304E+02
 11
2.87500229E+01
 21
1.95487308E+02
  0
LINE
  8
0
 62
7
 10
5.27500079E+01
 20
2.28584040E+02
 11
2.17499760E+01
 21
2.29395804E+02
  0
LINE
  8
0
 62
7
 10
5.42500153E+01
 20
1.79369465E+02
 11
5.27500229E+01
 21
1.79369465E+02
  0
LINE
  8
0
 62
7
 10
-1.37249954E+02
 20
1.79369449E+02
 11
-1.35249939E+02
 21
1.79369449E+02
  0
LINE
  8
0
  6
CENTER
 62
2
 10
-1.23660110E+02
 20
2.05369388E+02
 11
-1.04301498E+02
 21
2.05369388E+02
  0
LINE
  8
0
  6
CENTER
 62
2
 10
-1.00095276E+02
 20
1.86369465E+02
 11
-8.26207581E+01
 21
1.86369465E+02
  0
LINE
  8
0
  6
CENTER
 62
2
 10
-9.12500305E+01
 20
1.78898334E+02
 11
-9.12500305E+01
 21
1.95487354E+02
  0
LINE
  8
0
 62
7
 10
-9.47499847E+01
 20
2.33369465E+02
 11
-9.47499847E+01
 21
2.29369465E+02
  0
LINE
  8
0
 62
7
 10
-1.33750000E+02
 20
2.33369465E+02
 11
-1.33750000E+02
 21
2.29369465E+02
  0
LINE
  8
0
 62
7
 10
-1.21500000E+02
 20
2.33769398E+02
 11
-1.21500000E+02
 21
2.33369465E+02
  0
LINE
  8
0
 62
7
 10
-1.29000000E+02
 20
2.33769398E+02
 11
-1.29000000E+02
 21
2.33369465E+02
  0
LINE
  8
0
 62
7
 10
-1.26850006E+02
 20
2.35969471E+02
 11
-1.23649979E+02
 21
2.35969471E+02
  0
LINE
  8
0
  6
CENTER
 62
2
 10
-1.25250000E+02
 20
2.36833515E+02
 11
-1.25250000E+02
 21
2.33369465E+02
  0
LINE
  8
0
 62
7
 10
-1.33749985E+02
 20
2.33369465E+02
 11
-9.47499847E+01
 21
2.33369465E+02
  0
LINE
  8
0
  6
CENTER
 62
2
 10
-1.03250000E+02
 20
2.36833515E+02
 11
-1.03250000E+02
 21
2.33369465E+02
  0
LINE
  8
0
 62
7
 10
-9.95000000E+01
 20
2.33769459E+02
 11
-9.95000000E+01
 21
2.33369465E+02
  0
LINE
  8
0
 62
7
 10
-1.01649979E+02
 20
2.35969471E+02
 11
-1.04849991E+02
 21
2.35969471E+02
  0
LINE
  8
0
 62
7
 10
-1.07000000E+02
 20
2.33769398E+02
 11
-1.07000000E+02
 21
2.33369465E+02
  0
LINE
  8
0
  6
CENTER
 62
2
 10
-1.14250000E+02
 20
2.35904667E+02
 11
-1.14250000E+02
 21
1.93072834E+02
  0
LINE
  8
0
 62
7
 10
-1.35249985E+02
 20
1.67369465E+02
 11
-8.42500000E+01
 21
1.67369465E+02
  0
LINE
  8
0
 62
7
 10
-1.49749939E+02
 20
1.81369465E+02
 11
-1.49749939E+02
 21
2.15369449E+02
  0
LINE
  8
0
 62
7
 10
-1.50249962E+02
 20
1.81869466E+02
 11
-1.49749951E+02
 21
1.81369455E+02
  0
LINE
  8
0
 62
7
 10
5.27500499E+01
 20
1.68155026E+02
 11
2.17500179E+01
 21
1.67343262E+02
  0
LINE
  8
0
 62
7
 10
5.27500000E+01
 20
2.28584019E+02
 11
5.27500000E+01
 21
1.68155048E+02
  0
LINE
  8
0
 62
7
 10
-1.50249834E+02
 20
2.14869349E+02
 11
-1.49749832E+02
 21
2.15369351E+02
  0
LINE
  8
0
 62
7
 10
-1.49749939E+02
 20
1.81369465E+02
 11
-1.45249939E+02
 21
1.81369465E+02
  0
LINE
  8
0
 62
7
 10
-1.45249939E+02
 20
2.15869449E+02
 11
-1.45249939E+02
 21
1.80869449E+02
  0
LINE
  8
0
 62
7
 10
-1.35249939E+02
 20
1.67369465E+02
 11
-1.35249939E+02
 21
2.29369449E+02
  0
LINE
  8
0
 62
7
 10
-1.50249939E+02
 20
1.81869449E+02
 11
-1.50249939E+02
 21
2.14869465E+02
  0
LINE
  8
0
 62
7
 10
-1.49749939E+02
 20
2.15369449E+02
 11
-1.45249939E+02
 21
2.15369449E+02
  0
LINE
  8
0
 62
7
 10
2.17500000E+01
 20
2.24519443E+02
 11
-4.37500000E+01
 21
2.24519443E+02
  0
LINE
  8
0
 62
7
 10
2.17500000E+01
 20
2.19219456E+02
 11
-4.37500000E+01
 21
2.19219456E+02
  0
LINE
  8
0
  6
CENTER
 62
2
 10
5.49769897E+01
 20
2.21869449E+02
 11
-1.36227188E+02
 21
2.21869449E+02
  0
LINE
  8
0
 62
7
 10
2.17500000E+01
 20
2.25369434E+02
 11
-4.37500000E+01
 21
2.25369434E+02
  0
LINE
  8
0
 62
7
 10
2.17500000E+01
 20
1.71369495E+02
 11
2.50000000E-01
 21
1.71369495E+02
  0
LINE
  8
0
 62
7
 10
2.17500000E+01
 20
1.72219486E+02
 11
2.50000000E-01
 21
1.72219486E+02
  0
LINE
  8
0
 62
7
 10
2.17500000E+01
 20
1.77519474E+02
 11
2.50000000E-01
 21
1.77519474E+02
  0
LINE
  8
0
  6
CENTER
 62
2
 10
5.49769897E+01
 20
1.74869480E+02
 11
-1.37896088E+02
 21
1.74869480E+02
  0
LINE
  8
0
 62
7
 10
2.17500000E+01
 20
1.67343143E+02
 11
2.17500000E+01
 21
2.29369419E+02
  0
LINE
  8
0
 62
7
 10
-8.42500000E+01
 20
2.29395725E+02
 11
-8.42500000E+01
 21
1.67369465E+02
  0
LINE
  8
0
  6
CENTER
 62
2
 10
-1.95306152E+02
 20
1.98369465E+02
 11
5.86960907E+01
 21
1.98369465E+02
  0
LINE
  8
0
 62
6
 10
-6.70349795E+01
 20
-1.89446845E+02
 11
-7.04648541E+01
 21
-1.86016975E+02
  0
LINE
  8
0
 62
6
 10
-7.04648516E+01
 20
-1.89446847E+02
 11
-6.70349819E+01
 21
-1.86016973E+02
  0
ARC
  8
0
 62
4
 10
-7.92504092E+01
 20
-1.82628594E+02
 40
1.49950792E+00
 50
8.99812358E+01
 51
1.80018846E+02
  0
ARC
  8
0
 62
4
 10
-8.52494241E+01
 20
-1.66664641E+02
 40
5.00508007E-01
 50
1.80058166E+02
 51
2.69941916E+02
  0
ARC
  8
0
 62
4
 10
-4.32494096E+01
 20
-1.82628553E+02
 40
1.49949266E+00
 50
3.59980652E+02
 51
9.00194298E+01
  0
ARC
  8
0
 62
4
 10
-7.67494239E+01
 20
-1.67664635E+02
 40
4.99492993E-01
 50
3.59941854E+02
 51
9.00582282E+01
  0
ARC
  8
0
 62
4
 10
-8.52504331E+01
 20
-1.53664658E+02
 40
4.99508251E-01
 50
8.99436074E+01
 51
1.80056475E+02
  0
LINE
  8
0
 62
4
 10
-8.92499324E+01
 20
-1.65915146E+02
 11
-8.57499324E+01
 21
-1.65915144E+02
  0
LINE
  8
0
 62
4
 10
-8.92499406E+01
 20
-1.54415146E+02
 11
-8.57499406E+01
 21
-1.54415144E+02
  0
LINE
  8
0
 62
4
 10
-8.92499409E+01
 20
-1.53915146E+02
 11
-8.92499320E+01
 21
-1.66415146E+02
  0
LINE
  8
0
 62
4
 10
-9.07499320E+01
 20
-1.66415148E+02
 11
-8.57499320E+01
 21
-1.66415144E+02
  0
LINE
  8
0
 62
4
 10
-9.07499409E+01
 20
-1.53915148E+02
 11
-8.57499409E+01
 21
-1.53915144E+02
  0
LINE
  8
0
 62
4
 10
-9.07499418E+01
 20
-1.52780225E+02
 11
-9.07499312E+01
 21
-1.67562193E+02
  0
LINE
  8
0
 62
4
 10
-9.57499418E+01
 20
-1.52780229E+02
 11
-9.57499312E+01
 21
-1.67562193E+02
  0
LINE
  8
0
 62
4
 10
-8.57499411E+01
 20
-1.53665151E+02
 11
-8.57499318E+01
 21
-1.66664641E+02
  0
LINE
  8
0
 62
4
 10
-7.62499415E+01
 20
-1.53165144E+02
 11
-8.52499415E+01
 21
-1.53165150E+02
  0
LINE
  8
0
 62
4
 10
-8.52499315E+01
 20
-1.67165149E+02
 11
-7.67499315E+01
 21
-1.67165143E+02
  0
LINE
  8
0
 62
4
 10
-9.57499312E+01
 20
-1.67562193E+02
 11
-9.07499312E+01
 21
-1.67562190E+02
  0
LINE
  8
0
 62
4
 10
-9.57499346E+01
 20
-1.62740451E+02
 11
-9.07499346E+01
 21
-1.62740448E+02
  0
LINE
  8
0
 62
4
 10
-9.57499399E+01
 20
-1.55344545E+02
 11
-9.07499399E+01
 21
-1.55344541E+02
  0
LINE
  8
0
 62
4
 10
-9.57499418E+01
 20
-1.52780229E+02
 11
-9.07499418E+01
 21
-1.52780225E+02
  0
LINE
  8
0
 62
4
 10
-7.92499181E+01
 20
-1.81129087E+02
 11
-4.32499181E+01
 21
-1.81129061E+02
  0
LINE
  8
0
 62
4
 10
-8.07499089E+01
 20
-1.94027992E+02
 11
-4.17499089E+01
 21
-1.94027964E+02
  0
LINE
  8
0
 62
4
 10
-8.07499078E+01
 20
-1.95505204E+02
 11
-4.17499078E+01
 21
-1.95505176E+02
  0
LINE
  8
0
 62
4
 10
-4.17499170E+01
 20
-1.82629060E+02
 11
-4.17499078E+01
 21
-1.95505176E+02
  0
LINE
  8
0
 62
4
 10
-7.62499247E+01
 20
-1.76590465E+02
 11
-6.12499247E+01
 21
-1.76590455E+02
  0
LINE
  8
0
 62
4
 10
-5.92499243E+01
 20
-1.77227977E+02
 11
-5.92499215E+01
 21
-1.81129072E+02
  0
LINE
  8
0
 62
4
 10
-7.62499416E+01
 20
-1.52955079E+02
 11
-7.62499243E+01
 21
-1.77227975E+02
  0
LINE
  8
0
 62
4
 10
-6.12499416E+01
 20
-1.52955079E+02
 11
-6.12499243E+01
 21
-1.77227977E+02
  0
LINE
  8
0
 62
4
 10
-7.82499243E+01
 20
-1.77227977E+02
 11
-7.82499215E+01
 21
-1.81129071E+02
  0
LINE
  8
0
 62
4
 10
-8.07499170E+01
 20
-1.82629088E+02
 11
-8.07499078E+01
 21
-1.95505204E+02
  0
LINE
  8
0
 62
4
 10
-7.82499243E+01
 20
-1.77227977E+02
 11
-5.92499243E+01
 21
-1.77227963E+02
  0
LINE
  8
0
  6
CENTER
 62
6
 10
-7.51499169E+01
 20
-1.87511122E+02
 11
-6.23499169E+01
 21
-1.87511113E+02
  0
LINE
  8
0
  6
CENTER
 62
6
 10
-6.87499124E+01
 20
-1.93911117E+02
 11
-6.87499215E+01
 21
-1.81111117E+02
  0
LINE
  8
0
 62
4
 10
-7.62499416E+01
 20
-1.52955090E+02
 11
-6.12499416E+01
 21
-1.52955079E+02
  0
LINE
  8
0
 62
4
 10
-7.77499036E+01
 20
-1.99965379E+02
 11
-4.47499036E+01
 21
-1.99965356E+02
  0
LINE
  8
0
 62
4
 10
-7.77499036E+01
 20
-2.03557736E+02
 11
-7.77499036E+01
 21
-1.99965379E+02
  0
LINE
  8
0
 62
4
 10
-4.47499036E+01
 20
-2.03557736E+02
 11
-4.47499036E+01
 21
-1.99965356E+02
  0
LINE
  8
0
 62
4
 10
-7.77499036E+01
 20
-1.99965379E+02
 11
-8.07499078E+01
 21
-1.95505204E+02
  0
LINE
  8
0
 62
4
 10
-4.17499078E+01
 20
-1.95505176E+02
 11
-4.47499036E+01
 21
-1.99965356E+02
  0
LINE
  8
0
 62
4
 10
-7.77499036E+01
 20
-2.00746796E+02
 11
-4.47499036E+01
 21
-2.00746772E+02
  0
POLYLINE
  8
0
 62
4
 66
1
  0
VERTEX
  8
0
 62
4
 10
-7.21499168E+01
 20
-1.87731832E+02
  0
VERTEX
  8
0
 62
4
 10
-7.21369855E+01
 20
-1.88023660E+02
  0
VERTEX
  8
0
 62
4
 10
-7.20982765E+01
 20
-1.88313267E+02
  0
VERTEX
  8
0
 62
4
 10
-7.20340845E+01
 20
-1.88598450E+02
  0
VERTEX
  8
0
 62
4
 10
-7.19448980E+01
 20
-1.88877039E+02
  0
VERTEX
  8
0
 62
4
 10
-7.18313958E+01
 20
-1.89146912E+02
  0
VERTEX
  8
0
 62
4
 10
-7.16944416E+01
 20
-1.89406016E+02
  0
VERTEX
  8
0
 62
4
 10
-7.15350779E+01
 20
-1.89652379E+02
  0
VERTEX
  8
0
 62
4
 10
-7.13545174E+01
 20
-1.89884126E+02
  0
VERTEX
  8
0
 62
4
 10
-7.11541342E+01
 20
-1.90099493E+02
  0
VERTEX
  8
0
 62
4
 10
-7.09354536E+01
 20
-1.90296842E+02
  0
VERTEX
  8
0
 62
4
 10
-7.07001397E+01
 20
-1.90474670E+02
  0
VERTEX
  8
0
 62
4
 10
-7.04499834E+01
 20
-1.90631624E+02
  0
VERTEX
  8
0
 62
4
 10
-7.01868886E+01
 20
-1.90766509E+02
  0
VERTEX
  8
0
 62
4
 10
-6.99128576E+01
 20
-1.90878300E+02
  0
VERTEX
  8
0
 62
4
 10
-6.96299759E+01
 20
-1.90966144E+02
  0
VERTEX
  8
0
 62
4
 10
-6.93403964E+01
 20
-1.91029374E+02
  0
VERTEX
  8
0
 62
4
 10
-6.90463230E+01
 20
-1.91067508E+02
  0
VERTEX
  8
0
 62
4
 10
-6.87499937E+01
 20
-1.91080256E+02
  0
VERTEX
  8
0
 62
4
 10
-6.84536639E+01
 20
-1.91067522E+02
  0
VERTEX
  8
0
 62
4
 10
-6.81595887E+01
 20
-1.91029401E+02
  0
VERTEX
  8
0
 62
4
 10
-6.78700063E+01
 20
-1.90966184E+02
  0
VERTEX
  8
0
 62
4
 10
-6.75871206E+01
 20
-1.90878353E+02
  0
VERTEX
  8
0
 62
4
 10
-6.73130844E+01
 20
-1.90766575E+02
  0
VERTEX
  8
0
 62
4
 10
-6.70499834E+01
 20
-1.90631702E+02
  0
VERTEX
  8
0
 62
4
 10
-6.67998199E+01
 20
-1.90474760E+02
  0
VERTEX
  8
0
 62
4
 10
-6.65644979E+01
 20
-1.90296942E+02
  0
VERTEX
  8
0
 62
4
 10
-6.63458081E+01
 20
-1.90099604E+02
  0
VERTEX
  8
0
 62
4
 10
-6.61454151E+01
 20
-1.89884245E+02
  0
VERTEX
  8
0
 62
4
 10
-6.59648440E+01
 20
-1.89652507E+02
  0
VERTEX
  8
0
 62
4
 10
-6.58054689E+01
 20
-1.89406151E+02
  0
VERTEX
  8
0
 62
4
 10
-6.56685028E+01
 20
-1.89147053E+02
  0
VERTEX
  8
0
 62
4
 10
-6.55549882E+01
 20
-1.88877185E+02
  0
VERTEX
  8
0
 62
4
 10
-6.54657889E+01
 20
-1.88598601E+02
  0
VERTEX
  8
0
 62
4
 10
-6.54015838E+01
 20
-1.88313421E+02
  0
VERTEX
  8
0
 62
4
 10
-6.53628615E+01
 20
-1.88023815E+02
  0
VERTEX
  8
0
 62
4
 10
-6.53499168E+01
 20
-1.87731988E+02
  0
VERTEX
  8
0
 62
4
 10
-6.53628481E+01
 20
-1.87440160E+02
  0
VERTEX
  8
0
 62
4
 10
-6.54015571E+01
 20
-1.87150553E+02
  0
VERTEX
  8
0
 62
4
 10
-6.54657491E+01
 20
-1.86865370E+02
  0
VERTEX
  8
0
 62
4
 10
-6.55549356E+01
 20
-1.86586781E+02
  0
VERTEX
  8
0
 62
4
 10
-6.56684378E+01
 20
-1.86316908E+02
  0
VERTEX
  8
0
 62
4
 10
-6.58053920E+01
 20
-1.86057804E+02
  0
VERTEX
  8
0
 62
4
 10
-6.59647557E+01
 20
-1.85811441E+02
  0
VERTEX
  8
0
 62
4
 10
-6.61453163E+01
 20
-1.85579694E+02
  0
VERTEX
  8
0
 62
4
 10
-6.63456994E+01
 20
-1.85364327E+02
  0
VERTEX
  8
0
 62
4
 10
-6.65643800E+01
 20
-1.85166978E+02
  0
VERTEX
  8
0
 62
4
 10
-6.67996939E+01
 20
-1.84989150E+02
  0
VERTEX
  8
0
 62
4
 10
-6.70498502E+01
 20
-1.84832196E+02
  0
VERTEX
  8
0
 62
4
 10
-6.73129450E+01
 20
-1.84697311E+02
  0
VERTEX
  8
0
 62
4
 10
-6.75869760E+01
 20
-1.84585520E+02
  0
VERTEX
  8
0
 62
4
 10
-6.78698578E+01
 20
-1.84497676E+02
  0
VERTEX
  8
0
 62
4
 10
-6.81594372E+01
 20
-1.84434446E+02
  0
VERTEX
  8
0
 62
4
 10
-6.84535107E+01
 20
-1.84396312E+02
  0
VERTEX
  8
0
 62
4
 10
-6.87498399E+01
 20
-1.84383564E+02
  0
VERTEX
  8
0
 62
4
 10
-6.90461697E+01
 20
-1.84396298E+02
  0
VERTEX
  8
0
 62
4
 10
-6.93402449E+01
 20
-1.84434419E+02
  0
VERTEX
  8
0
 62
4
 10
-6.96298273E+01
 20
-1.84497636E+02
  0
VERTEX
  8
0
 62
4
 10
-6.99127130E+01
 20
-1.84585467E+02
  0
VERTEX
  8
0
 62
4
 10
-7.01867492E+01
 20
-1.84697245E+02
  0
VERTEX
  8
0
 62
4
 10
-7.04498502E+01
 20
-1.84832118E+02
  0
VERTEX
  8
0
 62
4
 10
-7.07000137E+01
 20
-1.84989060E+02
  0
VERTEX
  8
0
 62
4
 10
-7.09353358E+01
 20
-1.85166878E+02
  0
VERTEX
  8
0
 62
4
 10
-7.11540255E+01
 20
-1.85364216E+02
  0
VERTEX
  8
0
 62
4
 10
-7.13544185E+01
 20
-1.85579575E+02
  0
VERTEX
  8
0
 62
4
 10
-7.15349896E+01
 20
-1.85811313E+02
  0
VERTEX
  8
0
 62
4
 10
-7.16943647E+01
 20
-1.86057669E+02
  0
VERTEX
  8
0
 62
4
 10
-7.18313308E+01
 20
-1.86316767E+02
  0
VERTEX
  8
0
 62
4
 10
-7.19448454E+01
 20
-1.86586635E+02
  0
VERTEX
  8
0
 62
4
 10
-7.20340447E+01
 20
-1.86865219E+02
  0
VERTEX
  8
0
 62
4
 10
-7.20982498E+01
 20
-1.87150399E+02
  0
VERTEX
  8
0
 62
4
 10
-7.21369721E+01
 20
-1.87440005E+02
  0
VERTEX
  8
0
 62
4
 10
-7.21499168E+01
 20
-1.87731832E+02
  0
SEQEND
  8
0
  0
POLYLINE
  8
0
 62
4
 66
1
  0
VERTEX
  8
0
 62
4
 10
-7.27499166E+01
 20
-1.88032229E+02
  0
VERTEX
  8
0
 62
4
 10
-7.27347033E+01
 20
-1.88375556E+02
  0
VERTEX
  8
0
 62
4
 10
-7.26891633E+01
 20
-1.88716271E+02
  0
VERTEX
  8
0
 62
4
 10
-7.26136433E+01
 20
-1.89051780E+02
  0
VERTEX
  8
0
 62
4
 10
-7.25087180E+01
 20
-1.89379531E+02
  0
VERTEX
  8
0
 62
4
 10
-7.23751860E+01
 20
-1.89697029E+02
  0
VERTEX
  8
0
 62
4
 10
-7.22140635E+01
 20
-1.90001857E+02
  0
VERTEX
  8
0
 62
4
 10
-7.20265767E+01
 20
-1.90291696E+02
  0
VERTEX
  8
0
 62
4
 10
-7.18141525E+01
 20
-1.90564339E+02
  0
VERTEX
  8
0
 62
4
 10
-7.15784077E+01
 20
-1.90817713E+02
  0
VERTEX
  8
0
 62
4
 10
-7.13211364E+01
 20
-1.91049888E+02
  0
VERTEX
  8
0
 62
4
 10
-7.10442965E+01
 20
-1.91259097E+02
  0
VERTEX
  8
0
 62
4
 10
-7.07499950E+01
 20
-1.91443749E+02
  0
VERTEX
  8
0
 62
4
 10
-7.04404717E+01
 20
-1.91602438E+02
  0
VERTEX
  8
0
 62
4
 10
-7.01180822E+01
 20
-1.91733956E+02
  0
VERTEX
  8
0
 62
4
 10
-6.97852802E+01
 20
-1.91837302E+02
  0
VERTEX
  8
0
 62
4
 10
-6.94445984E+01
 20
-1.91911690E+02
  0
VERTEX
  8
0
 62
4
 10
-6.90986297E+01
 20
-1.91956554E+02
  0
VERTEX
  8
0
 62
4
 10
-6.87500071E+01
 20
-1.91971552E+02
  0
VERTEX
  8
0
 62
4
 10
-6.84013838E+01
 20
-1.91956570E+02
  0
VERTEX
  8
0
 62
4
 10
-6.80554130E+01
 20
-1.91911722E+02
  0
VERTEX
  8
0
 62
4
 10
-6.77147278E+01
 20
-1.91837350E+02
  0
VERTEX
  8
0
 62
4
 10
-6.73819211E+01
 20
-1.91734019E+02
  0
VERTEX
  8
0
 62
4
 10
-6.70595256E+01
 20
-1.91602516E+02
  0
VERTEX
  8
0
 62
4
 10
-6.67499950E+01
 20
-1.91443841E+02
  0
VERTEX
  8
0
 62
4
 10
-6.64556850E+01
 20
-1.91259203E+02
  0
VERTEX
  8
0
 62
4
 10
-6.61788355E+01
 20
-1.91050006E+02
  0
VERTEX
  8
0
 62
4
 10
-6.59215535E+01
 20
-1.90817843E+02
  0
VERTEX
  8
0
 62
4
 10
-6.56857970E+01
 20
-1.90564480E+02
  0
VERTEX
  8
0
 62
4
 10
-6.54733603E+01
 20
-1.90291846E+02
  0
VERTEX
  8
0
 62
4
 10
-6.52858602E+01
 20
-1.90002016E+02
  0
VERTEX
  8
0
 62
4
 10
-6.51247237E+01
 20
-1.89697195E+02
  0
VERTEX
  8
0
 62
4
 10
-6.49911771E+01
 20
-1.89379704E+02
  0
VERTEX
  8
0
 62
4
 10
-6.48862367E+01
 20
-1.89051958E+02
  0
VERTEX
  8
0
 62
4
 10
-6.48107013E+01
 20
-1.88716452E+02
  0
VERTEX
  8
0
 62
4
 10
-6.47651457E+01
 20
-1.88375739E+02
  0
VERTEX
  8
0
 62
4
 10
-6.47499166E+01
 20
-1.88032413E+02
  0
VERTEX
  8
0
 62
4
 10
-6.47651299E+01
 20
-1.87689086E+02
  0
VERTEX
  8
0
 62
4
 10
-6.48106699E+01
 20
-1.87348371E+02
  0
VERTEX
  8
0
 62
4
 10
-6.48861899E+01
 20
-1.87012862E+02
  0
VERTEX
  8
0
 62
4
 10
-6.49911152E+01
 20
-1.86685111E+02
  0
VERTEX
  8
0
 62
4
 10
-6.51246472E+01
 20
-1.86367613E+02
  0
VERTEX
  8
0
 62
4
 10
-6.52857697E+01
 20
-1.86062785E+02
  0
VERTEX
  8
0
 62
4
 10
-6.54732565E+01
 20
-1.85772946E+02
  0
VERTEX
  8
0
 62
4
 10
-6.56856807E+01
 20
-1.85500303E+02
  0
VERTEX
  8
0
 62
4
 10
-6.59214255E+01
 20
-1.85246929E+02
  0
VERTEX
  8
0
 62
4
 10
-6.61786968E+01
 20
-1.85014754E+02
  0
VERTEX
  8
0
 62
4
 10
-6.64555367E+01
 20
-1.84805545E+02
  0
VERTEX
  8
0
 62
4
 10
-6.67498382E+01
 20
-1.84620893E+02
  0
VERTEX
  8
0
 62
4
 10
-6.70593615E+01
 20
-1.84462204E+02
  0
VERTEX
  8
0
 62
4
 10
-6.73817510E+01
 20
-1.84330686E+02
  0
VERTEX
  8
0
 62
4
 10
-6.77145530E+01
 20
-1.84227340E+02
  0
VERTEX
  8
0
 62
4
 10
-6.80552348E+01
 20
-1.84152952E+02
  0
VERTEX
  8
0
 62
4
 10
-6.84012035E+01
 20
-1.84108088E+02
  0
VERTEX
  8
0
 62
4
 10
-6.87498261E+01
 20
-1.84093090E+02
  0
VERTEX
  8
0
 62
4
 10
-6.90984494E+01
 20
-1.84108072E+02
  0
VERTEX
  8
0
 62
4
 10
-6.94444202E+01
 20
-1.84152920E+02
  0
VERTEX
  8
0
 62
4
 10
-6.97851054E+01
 20
-1.84227292E+02
  0
VERTEX
  8
0
 62
4
 10
-7.01179121E+01
 20
-1.84330623E+02
  0
VERTEX
  8
0
 62
4
 10
-7.04403076E+01
 20
-1.84462126E+02
  0
VERTEX
  8
0
 62
4
 10
-7.07498382E+01
 20
-1.84620801E+02
  0
VERTEX
  8
0
 62
4
 10
-7.10441482E+01
 20
-1.84805439E+02
  0
VERTEX
  8
0
 62
4
 10
-7.13209977E+01
 20
-1.85014636E+02
  0
VERTEX
  8
0
 62
4
 10
-7.15782797E+01
 20
-1.85246799E+02
  0
VERTEX
  8
0
 62
4
 10
-7.18140362E+01
 20
-1.85500162E+02
  0
VERTEX
  8
0
 62
4
 10
-7.20264729E+01
 20
-1.85772796E+02
  0
VERTEX
  8
0
 62
4
 10
-7.22139730E+01
 20
-1.86062626E+02
  0
VERTEX
  8
0
 62
4
 10
-7.23751095E+01
 20
-1.86367447E+02
  0
VERTEX
  8
0
 62
4
 10
-7.25086561E+01
 20
-1.86684938E+02
  0
VERTEX
  8
0
 62
4
 10
-7.26135965E+01
 20
-1.87012684E+02
  0
VERTEX
  8
0
 62
4
 10
-7.26891319E+01
 20
-1.87348190E+02
  0
VERTEX
  8
0
 62
4
 10
-7.27346875E+01
 20
-1.87688903E+02
  0
VERTEX
  8
0
 62
4
 10
-7.27499166E+01
 20
-1.88032229E+02
  0
SEQEND
  8
0
  0
POLYLINE
  8
0
 62
4
 66
1
  0
VERTEX
  8
0
 62
4
 10
-7.21464940E+01
 20
-1.87882114E+02
  0
VERTEX
  8
0
 62
4
 10
-7.21468526E+01
 20
-1.88174444E+02
  0
VERTEX
  8
0
 62
4
 10
-7.21213188E+01
 20
-1.88465691E+02
  0
VERTEX
  8
0
 62
4
 10
-7.20700871E+01
 20
-1.88753634E+02
  0
VERTEX
  8
0
 62
4
 10
-7.19935481E+01
 20
-1.89036079E+02
  0
VERTEX
  8
0
 62
4
 10
-7.18922851E+01
 20
-1.89310874E+02
  0
VERTEX
  8
0
 62
4
 10
-7.17670701E+01
 20
-1.89575922E+02
  0
VERTEX
  8
0
 62
4
 10
-7.16188573E+01
 20
-1.89829205E+02
  0
VERTEX
  8
0
 62
4
 10
-7.14487766E+01
 20
-1.90068792E+02
  0
VERTEX
  8
0
 62
4
 10
-7.12581244E+01
 20
-1.90292856E+02
  0
VERTEX
  8
0
 62
4
 10
-7.10483539E+01
 20
-1.90499689E+02
  0
VERTEX
  8
0
 62
4
 10
-7.08210640E+01
 20
-1.90687716E+02
  0
VERTEX
  8
0
 62
4
 10
-7.05779871E+01
 20
-1.90855502E+02
  0
VERTEX
  8
0
 62
4
 10
-7.03209761E+01
 20
-1.91001769E+02
  0
VERTEX
  8
0
 62
4
 10
-7.00519901E+01
 20
-1.91125402E+02
  0
VERTEX
  8
0
 62
4
 10
-6.97730792E+01
 20
-1.91225459E+02
  0
VERTEX
  8
0
 62
4
 10
-6.94863695E+01
 20
-1.91301176E+02
  0
VERTEX
  8
0
 62
4
 10
-6.91940464E+01
 20
-1.91351978E+02
  0
VERTEX
  8
0
 62
4
 10
-6.88983379E+01
 20
-1.91377476E+02
  0
VERTEX
  8
0
 62
4
 10
-6.86014981E+01
 20
-1.91377476E+02
  0
VERTEX
  8
0
 62
4
 10
-6.83057896E+01
 20
-1.91351978E+02
  0
VERTEX
  8
0
 62
4
 10
-6.80134664E+01
 20
-1.91301177E+02
  0
VERTEX
  8
0
 62
4
 10
-6.77267566E+01
 20
-1.91225459E+02
  0
VERTEX
  8
0
 62
4
 10
-6.74478457E+01
 20
-1.91125403E+02
  0
VERTEX
  8
0
 62
4
 10
-6.71788596E+01
 20
-1.91001770E+02
  0
VERTEX
  8
0
 62
4
 10
-6.69218485E+01
 20
-1.90855503E+02
  0
VERTEX
  8
0
 62
4
 10
-6.66787715E+01
 20
-1.90687717E+02
  0
VERTEX
  8
0
 62
4
 10
-6.64514815E+01
 20
-1.90499691E+02
  0
VERTEX
  8
0
 62
4
 10
-6.62417108E+01
 20
-1.90292858E+02
  0
VERTEX
  8
0
 62
4
 10
-6.60510584E+01
 20
-1.90068794E+02
  0
VERTEX
  8
0
 62
4
 10
-6.58809776E+01
 20
-1.89829207E+02
  0
VERTEX
  8
0
 62
4
 10
-6.57327646E+01
 20
-1.89575924E+02
  0
VERTEX
  8
0
 62
4
 10
-6.56075494E+01
 20
-1.89310876E+02
  0
VERTEX
  8
0
 62
4
 10
-6.55062862E+01
 20
-1.89036081E+02
  0
VERTEX
  8
0
 62
4
 10
-6.54297470E+01
 20
-1.88753636E+02
  0
VERTEX
  8
0
 62
4
 10
-6.53785151E+01
 20
-1.88465693E+02
  0
VERTEX
  8
0
 62
4
 10
-6.53529811E+01
 20
-1.88174446E+02
  0
VERTEX
  8
0
 62
4
 10
-6.53533395E+01
 20
-1.87882117E+02
  0
SEQEND
  8
0
  0
ARC
  8
0
 62
4
 10
-2.99564259E+02
 20
-1.60165012E+02
 40
7.00000000E+00
 50
1.08107706E+02
 51
1.31018409E+02
  0
ARC
  8
0
 62
4
 10
-2.99564259E+02
 20
-1.60165012E+02
 40
7.00000000E+00
 50
6.89816880E+01
 51
9.19143318E+01
  0
ARC
  8
0
 62
4
 10
-2.80674750E+02
 20
-1.85364807E+02
 40
9.96112687E-01
 50
2.25301901E+01
 51
9.98627329E+01
  0
ARC
  8
0
 62
4
 10
-2.79839903E+02
 20
-1.90097143E+02
 40
9.98481423E-01
 50
2.80114174E+02
 51
3.56772030E+02
  0
CIRCLE
  8
0
 62
4
 10
-2.99564259E+02
 20
-1.60165012E+02
 40
3.75000000E+00
  0
ARC
  8
0
 62
4
 10
-2.85780553E+02
 20
-1.83627943E+02
 40
2.49901570E+00
 50
9.97747622E+00
 51
1.00022620E+02
  0
ARC
  8
0
 62
4
 10
-3.04492674E+02
 20
-1.86928430E+02
 40
2.50001831E+00
 50
1.00000468E+02
 51
1.89999628E+02
  0
ARC
  8
0
 62
4
 10
-2.90634848E+02
 20
-1.89540375E+02
 40
1.18077645E+01
 50
3.57024193E+02
 51
2.27267438E+01
  0
ARC
  8
0
 62
4
 10
-3.05797452E+02
 20
-1.96805034E+02
 40
5.00000533E-01
 50
1.00000109E+02
 51
1.89999987E+02
  0
LINE
  8
0
 62
4
 10
-2.82653279E+02
 20
-1.84092944E+02
 11
-2.81264087E+02
 21
-1.91971405E+02
  0
LINE
  8
0
  6
CENTER
 62
6
 10
-3.13403590E+02
 20
-1.93576787E+02
 11
-2.76049838E+02
 21
-1.86990281E+02
  0
LINE
  8
0
 62
4
 10
-2.79664560E+02
 20
-1.91080108E+02
 11
-2.81368277E+02
 21
-1.91380521E+02
  0
LINE
  8
0
 62
4
 10
-2.82549090E+02
 20
-1.84683829E+02
 11
-2.80845373E+02
 21
-1.84383416E+02
  0
LINE
  8
0
 62
4
 10
-2.81756491E+02
 20
-1.92058230E+02
 11
-2.81264087E+02
 21
-1.91971405E+02
  0
LINE
  8
0
 62
4
 10
-2.83145683E+02
 20
-1.84179769E+02
 11
-2.82653279E+02
 21
-1.84092944E+02
  0
LINE
  8
0
 62
4
 10
-2.98046467E+02
 20
-1.53805822E+02
 11
-2.93220910E+02
 21
-1.52954942E+02
  0
LINE
  8
0
 62
4
 10
-3.00867441E+02
 20
-1.52780098E+02
 11
-2.93815007E+02
 21
-1.55344408E+02
  0
LINE
  8
0
 62
4
 10
-3.05313402E+02
 20
-1.64997750E+02
 11
-2.98260969E+02
 21
-1.67562060E+02
  0
LINE
  8
0
 62
4
 10
-2.93815007E+02
 20
-1.55344408E+02
 11
-2.92510903E+02
 21
-1.62740313E+02
  0
LINE
  8
0
 62
4
 10
-3.06617506E+02
 20
-1.57601845E+02
 11
-3.05313402E+02
 21
-1.64997750E+02
  0
LINE
  8
0
 62
4
 10
-3.06617506E+02
 20
-1.57601845E+02
 11
-3.00867441E+02
 21
-1.52780098E+02
  0
LINE
  8
0
 62
4
 10
-2.98260969E+02
 20
-1.67562060E+02
 11
-2.92510903E+02
 21
-1.62740313E+02
  0
LINE
  8
0
 62
4
 10
-2.92212339E+02
 20
-1.90347893E+02
 11
-2.91778216E+02
 21
-1.92809912E+02
  0
LINE
  8
0
 62
4
 10
-2.96151569E+02
 20
-1.91042489E+02
 11
-2.95717447E+02
 21
-1.93504508E+02
  0
LINE
  8
0
 62
4
 10
-2.95717447E+02
 20
-1.93504508E+02
 11
-2.91778216E+02
 21
-1.92809912E+02
  0
LINE
  8
0
 62
4
 10
-2.96151569E+02
 20
-1.91042489E+02
 11
-2.92212339E+02
 21
-1.90347893E+02
  0
LINE
  8
0
 62
4
 10
-3.05044576E+02
 20
-1.98195421E+02
 11
-2.81409193E+02
 21
-1.94027845E+02
  0
LINE
  8
0
 62
4
 10
-2.81148720E+02
 20
-1.95505056E+02
 11
-2.83201991E+02
 21
-1.99557560E+02
  0
LINE
  8
0
 62
4
 10
-3.06954715E+02
 20
-1.87362537E+02
 11
-3.04804389E+02
 21
-1.99557578E+02
  0
LINE
  8
0
 62
4
 10
-2.83319332E+02
 20
-1.83194961E+02
 11
-2.81148720E+02
 21
-1.95505056E+02
  0
LINE
  8
0
 62
4
 10
-3.04131597E+02
 20
-1.99557578E+02
 11
-2.81148720E+02
 21
-1.95505056E+02
  0
LINE
  8
0
 62
4
 10
-3.04926818E+02
 20
-1.84466396E+02
 11
-2.86215474E+02
 21
-1.81167065E+02
  0
LINE
  8
0
 62
4
 10
-3.05621414E+02
 20
-1.80527165E+02
 11
-3.04926818E+02
 21
-1.84466396E+02
  0
LINE
  8
0
 62
4
 10
-2.86910070E+02
 20
-1.77227834E+02
 11
-2.86215474E+02
 21
-1.81167065E+02
  0
LINE
  8
0
 62
4
 10
-3.03825448E+02
 20
-1.79195060E+02
 11
-2.89053334E+02
 21
-1.76590325E+02
  0
LINE
  8
0
 62
4
 10
-3.05621414E+02
 20
-1.80527165E+02
 11
-2.86910070E+02
 21
-1.77227834E+02
  0
LINE
  8
0
 62
4
 10
-3.07993024E+02
 20
-1.55559677E+02
 11
-3.03651799E+02
 21
-1.80179867E+02
  0
LINE
  8
0
 62
4
 10
-2.93220910E+02
 20
-1.52954942E+02
 11
-2.88879685E+02
 21
-1.77575132E+02
  0
LINE
  8
0
 62
4
 10
-3.07993024E+02
 20
-1.55559677E+02
 11
-3.03177315E+02
 21
-1.54710533E+02
  0
LINE
  8
0
 62
6
 10
-3.21036369E+02
 20
-2.09128479E+02
 11
-3.18911790E+02
 21
-2.08753857E+02
  0
LINE
  8
0
 62
4
 10
-3.19443790E+02
 20
-2.12401657E+02
 11
-3.20473746E+02
 21
-2.12319256E+02
  0
LINE
  8
0
 62
4
 10
-3.20136649E+02
 20
-2.08472275E+02
 11
-3.21076308E+02
 21
-2.08901974E+02
  0
LINE
  8
0
 62
4
 10
-3.21076308E+02
 20
-2.08901974E+02
 11
-3.20473746E+02
 21
-2.12319256E+02
  0
LINE
  8
0
 62
4
 10
-3.19443790E+02
 20
-2.12401657E+02
 11
-3.18749935E+02
 21
-2.12279311E+02
  0
LINE
  8
0
 62
4
 10
-3.20136649E+02
 20
-2.08472275E+02
 11
-3.18996878E+02
 21
-2.08271301E+02
  0
LINE
  8
0
 62
6
 10
-3.20515422E+02
 20
-2.12082902E+02
 11
-3.18749935E+02
 21
-2.11771598E+02
  0
LINE
  8
0
  6
CENTER
 62
6
 10
-3.21989814E+02
 20
-2.10819738E+02
 11
-3.18749936E+02
 21
-2.10248458E+02
  0
LINE
  8
0
 62
4
 10
-3.13763003E+02
 20
-1.89070742E+02
 11
-3.18123122E+02
 21
-2.01058923E+02
  0
LINE
  8
0
 62
4
 10
-3.19568083E+02
 20
-2.05031855E+02
 11
-3.18749937E+02
 21
-2.09671767E+02
  0
LINE
  8
0
 62
4
 10
-3.06289857E+02
 20
-1.96891859E+02
 11
-3.05819816E+02
 21
-1.99557579E+02
  0
LINE
  8
0
 62
4
 10
-3.05884277E+02
 20
-1.96312630E+02
 11
-3.05391874E+02
 21
-1.96225806E+02
  0
LINE
  8
0
 62
4
 10
-3.13763003E+02
 20
-1.89070742E+02
 11
-3.06867890E+02
 21
-1.87854941E+02
  0
LINE
  8
0
 62
4
 10
-3.18749943E+02
 20
-2.02782372E+02
 11
-3.19568083E+02
 21
-2.05031855E+02
  0
LINE
  8
0
 62
4
 10
9.28732403E+01
 20
-2.02743537E+02
 11
9.37055041E+01
 21
-2.05031848E+02
  0
LINE
  8
0
 62
4
 10
9.52137331E+01
 20
-2.08901965E+02
 11
9.46111739E+01
 21
-2.12319248E+02
  0
LINE
  8
0
 62
4
 10
9.42740738E+01
 20
-2.08472267E+02
 11
9.52137331E+01
 21
-2.08901965E+02
  0
LINE
  8
0
 62
4
 10
9.35812176E+01
 20
-2.12401650E+02
 11
9.46111739E+01
 21
-2.12319248E+02
  0
LINE
  8
0
 62
6
 10
9.51737940E+01
 20
-2.09128471E+02
 11
9.30492145E+01
 21
-2.08753850E+02
  0
LINE
  8
0
 62
4
 10
9.35812176E+01
 20
-2.12401650E+02
 11
9.28873621E+01
 21
-2.12279305E+02
  0
LINE
  8
0
 62
4
 10
9.42740738E+01
 20
-2.08472267E+02
 11
9.31343022E+01
 21
-2.08271295E+02
  0
LINE
  8
0
 62
6
 10
9.46528495E+01
 20
-2.12082894E+02
 11
9.28873621E+01
 21
-2.11771591E+02
  0
LINE
  8
0
  6
CENTER
 62
6
 10
9.61272406E+01
 20
-2.10819729E+02
 11
9.28873621E+01
 21
-2.10248451E+02
  0
LINE
  8
0
 62
4
 10
9.37055041E+01
 20
-2.05031848E+02
 11
9.28873621E+01
 21
-2.09671761E+02
  0
LINE
  8
0
 62
4
 10
5.52861330E+01
 20
-1.95505081E+02
 11
5.73394082E+01
 21
-1.99557583E+02
  0
LINE
  8
0
 62
4
 10
8.00216916E+01
 20
-1.96312635E+02
 11
7.95292877E+01
 21
-1.96225811E+02
  0
ARC
  8
0
 62
4
 10
7.99348669E+01
 20
-1.96805039E+02
 40
5.00000533E-01
 50
3.50000061E+02
 51
7.99999392E+01
  0
LINE
  8
0
 62
4
 10
7.91819914E+01
 20
-1.98195426E+02
 11
5.55466053E+01
 21
-1.94027870E+02
  0
LINE
  8
0
 62
4
 10
7.82690139E+01
 20
-1.99557583E+02
 11
5.52861330E+01
 21
-1.95505081E+02
  0
LINE
  8
0
 62
4
 10
8.04272714E+01
 20
-1.96891863E+02
 11
7.99572329E+01
 21
-1.99557583E+02
  0
LINE
  8
0
 62
4
 10
8.79004116E+01
 20
-1.89070739E+02
 11
8.10052973E+01
 21
-1.87854945E+02
  0
LINE
  8
0
 62
4
 10
7.97588151E+01
 20
-1.80527170E+02
 11
7.90642224E+01
 21
-1.84466401E+02
  0
ARC
  8
0
 62
4
 10
7.86300807E+01
 20
-1.86928435E+02
 40
2.50001831E+00
 50
3.50000420E+02
 51
7.99995805E+01
  0
LINE
  8
0
 62
4
 10
8.10921213E+01
 20
-1.87362541E+02
 11
7.89418063E+01
 21
-1.99557583E+02
  0
LINE
  8
0
 62
4
 10
8.79004116E+01
 20
-1.89070739E+02
 11
9.22605401E+01
 21
-2.01058918E+02
  0
LINE
  8
0
 62
4
 10
6.10474678E+01
 20
-1.77227855E+02
 11
6.03528751E+01
 21
-1.81167086E+02
  0
LINE
  8
0
 62
4
 10
7.02889788E+01
 20
-1.91042502E+02
 11
6.63497478E+01
 21
-1.90347909E+02
  0
LINE
  8
0
 62
4
 10
6.63497478E+01
 20
-1.90347909E+02
 11
6.59156274E+01
 21
-1.92809928E+02
  0
LINE
  8
0
 62
4
 10
5.72830871E+01
 20
-1.84179792E+02
 11
5.67906832E+01
 21
-1.84092968E+02
  0
LINE
  8
0
 62
4
 10
5.58939017E+01
 20
-1.92058254E+02
 11
5.54014978E+01
 21
-1.91971430E+02
  0
LINE
  8
0
 62
4
 10
5.66864943E+01
 20
-1.84683853E+02
 11
5.49827769E+01
 21
-1.84383442E+02
  0
LINE
  8
0
 62
4
 10
5.38019693E+01
 20
-1.91080134E+02
 11
5.55056867E+01
 21
-1.91380546E+02
  0
LINE
  8
0
 62
4
 10
5.67906832E+01
 20
-1.84092968E+02
 11
5.54014978E+01
 21
-1.91971430E+02
  0
ARC
  8
0
 62
4
 10
6.47722566E+01
 20
-1.89540392E+02
 40
1.18077645E+01
 50
1.57273305E+02
 51
1.82975855E+02
  0
ARC
  8
0
 62
4
 10
5.99179561E+01
 20
-1.83627965E+02
 40
2.49901570E+00
 50
7.99774282E+01
 51
1.70022572E+02
  0
ARC
  8
0
 62
4
 10
5.39773120E+01
 20
-1.90097169E+02
 40
9.98481423E-01
 50
1.83228018E+02
 51
2.59885875E+02
  0
ARC
  8
0
 62
4
 10
5.48121553E+01
 20
-1.85364833E+02
 40
9.96112687E-01
 50
8.01373150E+01
 51
1.57469858E+02
  0
LINE
  8
0
  6
CENTER
 62
6
 10
7.02705977E+01
 20
-1.79629207E+02
 11
6.94498133E+01
 21
-1.84284107E+02
  0
LINE
  8
0
 62
4
 10
6.62617220E+01
 20
-1.82208975E+02
 11
6.67899009E+01
 21
-1.81286680E+02
  0
LINE
  8
0
 62
4
 10
7.29744936E+01
 20
-1.82377191E+02
 11
7.31553762E+01
 21
-1.83424512E+02
  0
LINE
  8
0
 62
4
 10
6.67899009E+01
 20
-1.81286680E+02
 11
7.29744936E+01
 21
-1.82377191E+02
  0
LINE
  8
0
  6
CENTER
 62
6
 10
8.75410021E+01
 20
-1.93576786E+02
 11
5.01872440E+01
 21
-1.86990310E+02
  0
LINE
  8
0
 62
4
 10
7.02889788E+01
 20
-1.91042502E+02
 11
6.98548584E+01
 21
-1.93504521E+02
  0
LINE
  8
0
 62
4
 10
6.98548584E+01
 20
-1.93504521E+02
 11
6.59156274E+01
 21
-1.92809928E+02
  0
LINE
  8
0
 62
4
 10
5.74567353E+01
 20
-1.83194985E+02
 11
5.52861330E+01
 21
-1.95505081E+02
  0
LINE
  8
0
 62
4
 10
7.90642224E+01
 20
-1.84466401E+02
 11
6.03528751E+01
 21
-1.81167086E+02
  0
LINE
  8
0
 62
4
 10
7.79628478E+01
 20
-1.79195066E+02
 11
6.31907315E+01
 21
-1.76590343E+02
  0
LINE
  8
0
 62
4
 10
7.97588151E+01
 20
-1.80527170E+02
 11
6.10474678E+01
 21
-1.77227855E+02
  0
ARC
  8
0
 62
4
 10
7.37025904E+01
 20
-1.60165044E+02
 40
7.00000000E+00
 50
4.89793705E+01
 51
1.11020629E+02
  0
LINE
  8
0
 62
4
 10
6.73582878E+01
 20
-1.52954957E+02
 11
8.21304041E+01
 21
-1.55559680E+02
  0
LINE
  8
0
 62
4
 10
7.58767053E+01
 20
-1.53511231E+02
 11
7.50048182E+01
 21
-1.52780107E+02
  0
LINE
  8
0
 62
4
 10
7.50048182E+01
 20
-1.52780107E+02
 11
7.39354979E+01
 21
-1.53168920E+02
  0
LINE
  8
0
 62
4
 10
8.21304041E+01
 20
-1.55559680E+02
 11
7.77891996E+01
 21
-1.80179874E+02
  0
LINE
  8
0
 62
4
 10
6.73582878E+01
 20
-1.52954957E+02
 11
6.30170833E+01
 21
-1.77575151E+02
  0
LINE
  8
0
 62
4
 10
-6.53499945E+01
 20
-9.21589346E+01
 11
-4.32499945E+01
 21
-9.21589346E+01
  0
POLYLINE
  8
0
 62
4
 66
1
  0
VERTEX
  8
0
 62
4
 10
-6.53499945E+01
 20
-9.13489772E+01
  0
VERTEX
  8
0
 62
4
 10
-6.53636819E+01
 20
-9.12960538E+01
  0
VERTEX
  8
0
 62
4
 10
-6.54046339E+01
 20
-9.12435565E+01
  0
VERTEX
  8
0
 62
4
 10
-6.54725208E+01
 20
-9.11919080E+01
  0
VERTEX
  8
0
 62
4
 10
-6.55667959E+01
 20
-9.11415242E+01
  0
VERTEX
  8
0
 62
4
 10
-6.56867003E+01
 20
-9.10928106E+01
  0
VERTEX
  8
0
 62
4
 10
-6.58312686E+01
 20
-9.10461595E+01
  0
VERTEX
  8
0
 62
4
 10
-6.59993367E+01
 20
-9.10019466E+01
  0
VERTEX
  8
0
 62
4
 10
-6.61895515E+01
 20
-9.09605277E+01
  0
VERTEX
  8
0
 62
4
 10
-6.64003815E+01
 20
-9.09222364E+01
  0
VERTEX
  8
0
 62
4
 10
-6.66301292E+01
 20
-9.08873809E+01
  0
VERTEX
  8
0
 62
4
 10
-6.68769448E+01
 20
-9.08562420E+01
  0
VERTEX
  8
0
 62
4
 10
-6.71388410E+01
 20
-9.08290702E+01
  0
VERTEX
  8
0
 62
4
 10
-6.74137094E+01
 20
-9.08060845E+01
  0
VERTEX
  8
0
 62
4
 10
-6.76993367E+01
 20
-9.07874698E+01
  0
VERTEX
  8
0
 62
4
 10
-6.79934233E+01
 20
-9.07733761E+01
  0
VERTEX
  8
0
 62
4
 10
-6.82936014E+01
 20
-9.07639167E+01
  0
VERTEX
  8
0
 62
4
 10
-6.85974541E+01
 20
-9.07591679E+01
  0
VERTEX
  8
0
 62
4
 10
-6.89025349E+01
 20
-9.07591679E+01
  0
VERTEX
  8
0
 62
4
 10
-6.92063876E+01
 20
-9.07639167E+01
  0
VERTEX
  8
0
 62
4
 10
-6.95065657E+01
 20
-9.07733761E+01
  0
VERTEX
  8
0
 62
4
 10
-6.98006523E+01
 20
-9.07874698E+01
  0
VERTEX
  8
0
 62
4
 10
-7.00862796E+01
 20
-9.08060845E+01
  0
VERTEX
  8
0
 62
4
 10
-7.03611479E+01
 20
-9.08290702E+01
  0
VERTEX
  8
0
 62
4
 10
-7.06230442E+01
 20
-9.08562420E+01
  0
VERTEX
  8
0
 62
4
 10
-7.08698598E+01
 20
-9.08873809E+01
  0
VERTEX
  8
0
 62
4
 10
-7.10996075E+01
 20
-9.09222364E+01
  0
VERTEX
  8
0
 62
4
 10
-7.13104375E+01
 20
-9.09605277E+01
  0
VERTEX
  8
0
 62
4
 10
-7.15006523E+01
 20
-9.10019465E+01
  0
VERTEX
  8
0
 62
4
 10
-7.16687204E+01
 20
-9.10461595E+01
  0
VERTEX
  8
0
 62
4
 10
-7.18132886E+01
 20
-9.10928106E+01
  0
VERTEX
  8
0
 62
4
 10
-7.19331931E+01
 20
-9.11415242E+01
  0
VERTEX
  8
0
 62
4
 10
-7.20274682E+01
 20
-9.11919080E+01
  0
VERTEX
  8
0
 62
4
 10
-7.20953551E+01
 20
-9.12435565E+01
  0
VERTEX
  8
0
 62
4
 10
-7.21363071E+01
 20
-9.12960538E+01
  0
VERTEX
  8
0
 62
4
 10
-7.21499945E+01
 20
-9.13489772E+01
  0
SEQEND
  8
0
  0
POLYLINE
  8
0
 62
4
 66
1
  0
VERTEX
  8
0
 62
4
 10
-6.53499945E+01
 20
-9.17148766E+01
  0
VERTEX
  8
0
 62
4
 10
-6.51769425E+01
 20
-9.16612205E+01
  0
VERTEX
  8
0
 62
4
 10
-6.50318995E+01
 20
-9.16051168E+01
  0
VERTEX
  8
0
 62
4
 10
-6.49160027E+01
 20
-9.15470052E+01
  0
VERTEX
  8
0
 62
4
 10
-6.48301604E+01
 20
-9.14873412E+01
  0
VERTEX
  8
0
 62
4
 10
-6.47750456E+01
 20
-9.14265926E+01
  0
VERTEX
  8
0
 62
4
 10
-6.47510904E+01
 20
-9.13652356E+01
  0
VERTEX
  8
0
 62
4
 10
-6.47584826E+01
 20
-9.13037511E+01
  0
VERTEX
  8
0
 62
4
 10
-6.47971641E+01
 20
-9.12426212E+01
  0
VERTEX
  8
0
 62
4
 10
-6.48668318E+01
 20
-9.11823249E+01
  0
VERTEX
  8
0
 62
4
 10
-6.49669395E+01
 20
-9.11233351E+01
  0
VERTEX
  8
0
 62
4
 10
-6.50967026E+01
 20
-9.10661141E+01
  0
VERTEX
  8
0
 62
4
 10
-6.52551037E+01
 20
-9.10111104E+01
  0
VERTEX
  8
0
 62
4
 10
-6.54409012E+01
 20
-9.09587552E+01
  0
VERTEX
  8
0
 62
4
 10
-6.56526387E+01
 20
-9.09094590E+01
  0
VERTEX
  8
0
 62
4
 10
-6.58886563E+01
 20
-9.08636082E+01
  0
VERTEX
  8
0
 62
4
 10
-6.61471038E+01
 20
-9.08215622E+01
  0
VERTEX
  8
0
 62
4
 10
-6.64259554E+01
 20
-9.07836506E+01
  0
VERTEX
  8
0
 62
4
 10
-6.67230250E+01
 20
-9.07501705E+01
  0
VERTEX
  8
0
 62
4
 10
-6.70359841E+01
 20
-9.07213845E+01
  0
VERTEX
  8
0
 62
4
 10
-6.73623792E+01
 20
-9.06975182E+01
  0
VERTEX
  8
0
 62
4
 10
-6.76996519E+01
 20
-9.06787587E+01
  0
VERTEX
  8
0
 62
4
 10
-6.80451581E+01
 20
-9.06652529E+01
  0
VERTEX
  8
0
 62
4
 10
-6.83961896E+01
 20
-9.06571069E+01
  0
VERTEX
  8
0
 62
4
 10
-6.87499945E+01
 20
-9.06543845E+01
  0
VERTEX
  8
0
 62
4
 10
-6.91037994E+01
 20
-9.06571069E+01
  0
VERTEX
  8
0
 62
4
 10
-6.94548309E+01
 20
-9.06652529E+01
  0
VERTEX
  8
0
 62
4
 10
-6.98003371E+01
 20
-9.06787587E+01
  0
VERTEX
  8
0
 62
4
 10
-7.01376097E+01
 20
-9.06975182E+01
  0
VERTEX
  8
0
 62
4
 10
-7.04640049E+01
 20
-9.07213845E+01
  0
VERTEX
  8
0
 62
4
 10
-7.07769639E+01
 20
-9.07501705E+01
  0
VERTEX
  8
0
 62
4
 10
-7.10740336E+01
 20
-9.07836506E+01
  0
VERTEX
  8
0
 62
4
 10
-7.13528852E+01
 20
-9.08215622E+01
  0
VERTEX
  8
0
 62
4
 10
-7.16113327E+01
 20
-9.08636082E+01
  0
VERTEX
  8
0
 62
4
 10
-7.18473503E+01
 20
-9.09094590E+01
  0
VERTEX
  8
0
 62
4
 10
-7.20590877E+01
 20
-9.09587552E+01
  0
VERTEX
  8
0
 62
4
 10
-7.22448853E+01
 20
-9.10111104E+01
  0
VERTEX
  8
0
 62
4
 10
-7.24032864E+01
 20
-9.10661141E+01
  0
VERTEX
  8
0
 62
4
 10
-7.25330495E+01
 20
-9.11233351E+01
  0
VERTEX
  8
0
 62
4
 10
-7.26331572E+01
 20
-9.11823249E+01
  0
VERTEX
  8
0
 62
4
 10
-7.27028249E+01
 20
-9.12426212E+01
  0
VERTEX
  8
0
 62
4
 10
-7.27415064E+01
 20
-9.13037511E+01
  0
VERTEX
  8
0
 62
4
 10
-7.27488986E+01
 20
-9.13652356E+01
  0
VERTEX
  8
0
 62
4
 10
-7.27249434E+01
 20
-9.14265926E+01
  0
VERTEX
  8
0
 62
4
 10
-7.26698286E+01
 20
-9.14873412E+01
  0
VERTEX
  8
0
 62
4
 10
-7.25839863E+01
 20
-9.15470052E+01
  0
VERTEX
  8
0
 62
4
 10
-7.24680895E+01
 20
-9.16051168E+01
  0
VERTEX
  8
0
 62
4
 10
-7.23230465E+01
 20
-9.16612205E+01
  0
VERTEX
  8
0
 62
4
 10
-7.21499945E+01
 20
-9.17148766E+01
  0
SEQEND
  8
0
  0
POLYLINE
  8
0
 62
4
 66
1
  0
VERTEX
  8
0
 62
4
 10
-6.47499945E+01
 20
-9.08565733E+01
  0
VERTEX
  8
0
 62
4
 10
-6.47660973E+01
 20
-9.07943105E+01
  0
VERTEX
  8
0
 62
4
 10
-6.48142761E+01
 20
-9.07325490E+01
  0
VERTEX
  8
0
 62
4
 10
-6.48941431E+01
 20
-9.06717860E+01
  0
VERTEX
  8
0
 62
4
 10
-6.50050550E+01
 20
-9.06125109E+01
  0
VERTEX
  8
0
 62
4
 10
-6.51461190E+01
 20
-9.05552008E+01
  0
VERTEX
  8
0
 62
4
 10
-6.53161993E+01
 20
-9.05003172E+01
  0
VERTEX
  8
0
 62
4
 10
-6.55139265E+01
 20
-9.04483019E+01
  0
VERTEX
  8
0
 62
4
 10
-6.57377086E+01
 20
-9.03995739E+01
  0
VERTEX
  8
0
 62
4
 10
-6.59857439E+01
 20
-9.03545253E+01
  0
VERTEX
  8
0
 62
4
 10
-6.62560353E+01
 20
-9.03135189E+01
  0
VERTEX
  8
0
 62
4
 10
-6.65464066E+01
 20
-9.02768848E+01
  0
VERTEX
  8
0
 62
4
 10
-6.68545198E+01
 20
-9.02449181E+01
  0
VERTEX
  8
0
 62
4
 10
-6.71778944E+01
 20
-9.02178760E+01
  0
VERTEX
  8
0
 62
4
 10
-6.75139265E+01
 20
-9.01959764E+01
  0
VERTEX
  8
0
 62
4
 10
-6.78599108E+01
 20
-9.01793955E+01
  0
VERTEX
  8
0
 62
4
 10
-6.82130614E+01
 20
-9.01682668E+01
  0
VERTEX
  8
0
 62
4
 10
-6.85705352E+01
 20
-9.01626800E+01
  0
VERTEX
  8
0
 62
4
 10
-6.89294538E+01
 20
-9.01626800E+01
  0
VERTEX
  8
0
 62
4
 10
-6.92869276E+01
 20
-9.01682668E+01
  0
VERTEX
  8
0
 62
4
 10
-6.96400782E+01
 20
-9.01793955E+01
  0
VERTEX
  8
0
 62
4
 10
-6.99860625E+01
 20
-9.01959764E+01
  0
VERTEX
  8
0
 62
4
 10
-7.03220946E+01
 20
-9.02178760E+01
  0
VERTEX
  8
0
 62
4
 10
-7.06454691E+01
 20
-9.02449181E+01
  0
VERTEX
  8
0
 62
4
 10
-7.09535824E+01
 20
-9.02768848E+01
  0
VERTEX
  8
0
 62
4
 10
-7.12439537E+01
 20
-9.03135188E+01
  0
VERTEX
  8
0
 62
4
 10
-7.15142451E+01
 20
-9.03545253E+01
  0
VERTEX
  8
0
 62
4
 10
-7.17622804E+01
 20
-9.03995739E+01
  0
VERTEX
  8
0
 62
4
 10
-7.19860625E+01
 20
-9.04483019E+01
  0
VERTEX
  8
0
 62
4
 10
-7.21837897E+01
 20
-9.05003172E+01
  0
VERTEX
  8
0
 62
4
 10
-7.23538700E+01
 20
-9.05552008E+01
  0
VERTEX
  8
0
 62
4
 10
-7.24949340E+01
 20
-9.06125109E+01
  0
VERTEX
  8
0
 62
4
 10
-7.26058459E+01
 20
-9.06717860E+01
  0
VERTEX
  8
0
 62
4
 10
-7.26857129E+01
 20
-9.07325490E+01
  0
VERTEX
  8
0
 62
4
 10
-7.27338917E+01
 20
-9.07943105E+01
  0
VERTEX
  8
0
 62
4
 10
-7.27499945E+01
 20
-9.08565733E+01
  0
SEQEND
  8
0
  0
LINE
  8
0
  6
CENTER
 62
6
 10
-5.82720464E+01
 20
-7.75628704E+01
 11
-4.72279427E+01
 21
-7.75628704E+01
  0
LINE
  8
0
  6
CENTER
 62
6
 10
-5.27499945E+01
 20
-7.20408186E+01
 11
-5.27499945E+01
 21
-8.30849222E+01
  0
LINE
  8
0
  6
CENTER
 62
6
 10
-7.42365603E+01
 20
-7.27007218E+01
 11
-6.32634286E+01
 21
-7.27007218E+01
  0
POLYLINE
  8
0
 62
4
 66
1
  0
VERTEX
  8
0
 62
4
 10
-6.57499945E+01
 20
-7.27007218E+01
  0
VERTEX
  8
0
 62
4
 10
-6.57614104E+01
 20
-7.24432268E+01
  0
VERTEX
  8
0
 62
4
 10
-6.57955712E+01
 20
-7.21876916E+01
  0
VERTEX
  8
0
 62
4
 10
-6.58522170E+01
 20
-7.19360608E+01
  0
VERTEX
  8
0
 62
4
 10
-6.59309166E+01
 20
-7.16902495E+01
  0
VERTEX
  8
0
 62
4
 10
-6.60310711E+01
 20
-7.14521286E+01
  0
VERTEX
  8
0
 62
4
 10
-6.61519183E+01
 20
-7.12235102E+01
  0
VERTEX
  8
0
 62
4
 10
-6.62925384E+01
 20
-7.10061342E+01
  0
VERTEX
  8
0
 62
4
 10
-6.64518612E+01
 20
-7.08016551E+01
  0
VERTEX
  8
0
 62
4
 10
-6.66286742E+01
 20
-7.06116291E+01
  0
VERTEX
  8
0
 62
4
 10
-6.68216317E+01
 20
-7.04375023E+01
  0
VERTEX
  8
0
 62
4
 10
-6.70292652E+01
 20
-7.02805999E+01
  0
VERTEX
  8
0
 62
4
 10
-6.72499945E+01
 20
-7.01421162E+01
  0
VERTEX
  8
0
 62
4
 10
-6.74821397E+01
 20
-7.00231050E+01
  0
VERTEX
  8
0
 62
4
 10
-6.77239341E+01
 20
-6.99244721E+01
  0
VERTEX
  8
0
 62
4
 10
-6.79735374E+01
 20
-6.98469681E+01
  0
VERTEX
  8
0
 62
4
 10
-6.82290500E+01
 20
-6.97911829E+01
  0
VERTEX
  8
0
 62
4
 10
-6.84885273E+01
 20
-6.97575410E+01
  0
VERTEX
  8
0
 62
4
 10
-6.87499945E+01
 20
-6.97462985E+01
  0
VERTEX
  8
0
 62
4
 10
-6.90114617E+01
 20
-6.97575410E+01
  0
VERTEX
  8
0
 62
4
 10
-6.92709390E+01
 20
-6.97911829E+01
  0
VERTEX
  8
0
 62
4
 10
-6.95264516E+01
 20
-6.98469681E+01
  0
VERTEX
  8
0
 62
4
 10
-6.97760549E+01
 20
-6.99244721E+01
  0
VERTEX
  8
0
 62
4
 10
-7.00178493E+01
 20
-7.00231050E+01
  0
VERTEX
  8
0
 62
4
 10
-7.02499945E+01
 20
-7.01421162E+01
  0
VERTEX
  8
0
 62
4
 10
-7.04707238E+01
 20
-7.02805999E+01
  0
VERTEX
  8
0
 62
4
 10
-7.06783573E+01
 20
-7.04375023E+01
  0
VERTEX
  8
0
 62
4
 10
-7.08713148E+01
 20
-7.06116291E+01
  0
VERTEX
  8
0
 62
4
 10
-7.10481278E+01
 20
-7.08016551E+01
  0
VERTEX
  8
0
 62
4
 10
-7.12074506E+01
 20
-7.10061342E+01
  0
VERTEX
  8
0
 62
4
 10
-7.13480707E+01
 20
-7.12235102E+01
  0
VERTEX
  8
0
 62
4
 10
-7.14689179E+01
 20
-7.14521286E+01
  0
VERTEX
  8
0
 62
4
 10
-7.15690724E+01
 20
-7.16902495E+01
  0
VERTEX
  8
0
 62
4
 10
-7.16477720E+01
 20
-7.19360608E+01
  0
VERTEX
  8
0
 62
4
 10
-7.17044178E+01
 20
-7.21876916E+01
  0
VERTEX
  8
0
 62
4
 10
-7.17385786E+01
 20
-7.24432269E+01
  0
VERTEX
  8
0
 62
4
 10
-7.17499945E+01
 20
-7.27007218E+01
  0
VERTEX
  8
0
 62
4
 10
-7.17385786E+01
 20
-7.29582168E+01
  0
VERTEX
  8
0
 62
4
 10
-7.17044178E+01
 20
-7.32137520E+01
  0
VERTEX
  8
0
 62
4
 10
-7.16477720E+01
 20
-7.34653828E+01
  0
VERTEX
  8
0
 62
4
 10
-7.15690724E+01
 20
-7.37111941E+01
  0
VERTEX
  8
0
 62
4
 10
-7.14689179E+01
 20
-7.39493150E+01
  0
VERTEX
  8
0
 62
4
 10
-7.13480707E+01
 20
-7.41779334E+01
  0
VERTEX
  8
0
 62
4
 10
-7.12074506E+01
 20
-7.43953094E+01
  0
VERTEX
  8
0
 62
4
 10
-7.10481278E+01
 20
-7.45997885E+01
  0
VERTEX
  8
0
 62
4
 10
-7.08713148E+01
 20
-7.47898145E+01
  0
VERTEX
  8
0
 62
4
 10
-7.06783573E+01
 20
-7.49639413E+01
  0
VERTEX
  8
0
 62
4
 10
-7.04707238E+01
 20
-7.51208437E+01
  0
VERTEX
  8
0
 62
4
 10
-7.02499945E+01
 20
-7.52593274E+01
  0
VERTEX
  8
0
 62
4
 10
-7.00178493E+01
 20
-7.53783386E+01
  0
VERTEX
  8
0
 62
4
 10
-6.97760549E+01
 20
-7.54769715E+01
  0
VERTEX
  8
0
 62
4
 10
-6.95264516E+01
 20
-7.55544755E+01
  0
VERTEX
  8
0
 62
4
 10
-6.92709390E+01
 20
-7.56102607E+01
  0
VERTEX
  8
0
 62
4
 10
-6.90114617E+01
 20
-7.56439026E+01
  0
VERTEX
  8
0
 62
4
 10
-6.87499945E+01
 20
-7.56551451E+01
  0
VERTEX
  8
0
 62
4
 10
-6.84885273E+01
 20
-7.56439026E+01
  0
VERTEX
  8
0
 62
4
 10
-6.82290500E+01
 20
-7.56102607E+01
  0
VERTEX
  8
0
 62
4
 10
-6.79735374E+01
 20
-7.55544755E+01
  0
VERTEX
  8
0
 62
4
 10
-6.77239341E+01
 20
-7.54769715E+01
  0
VERTEX
  8
0
 62
4
 10
-6.74821397E+01
 20
-7.53783386E+01
  0
VERTEX
  8
0
 62
4
 10
-6.72499945E+01
 20
-7.52593274E+01
  0
VERTEX
  8
0
 62
4
 10
-6.70292652E+01
 20
-7.51208436E+01
  0
VERTEX
  8
0
 62
4
 10
-6.68216317E+01
 20
-7.49639413E+01
  0
VERTEX
  8
0
 62
4
 10
-6.66286742E+01
 20
-7.47898145E+01
  0
VERTEX
  8
0
 62
4
 10
-6.64518612E+01
 20
-7.45997885E+01
  0
VERTEX
  8
0
 62
4
 10
-6.62925384E+01
 20
-7.43953094E+01
  0
VERTEX
  8
0
 62
4
 10
-6.61519183E+01
 20
-7.41779334E+01
  0
VERTEX
  8
0
 62
4
 10
-6.60310711E+01
 20
-7.39493150E+01
  0
VERTEX
  8
0
 62
4
 10
-6.59309166E+01
 20
-7.37111941E+01
  0
VERTEX
  8
0
 62
4
 10
-6.58522170E+01
 20
-7.34653828E+01
  0
VERTEX
  8
0
 62
4
 10
-6.57955712E+01
 20
-7.32137520E+01
  0
VERTEX
  8
0
 62
4
 10
-6.57614104E+01
 20
-7.29582167E+01
  0
VERTEX
  8
0
 62
4
 10
-6.57499945E+01
 20
-7.27007218E+01
  0
SEQEND
  8
0
  0
LINE
  8
0
 62
4
 10
-9.57499945E+01
 20
-7.94926806E+01
 11
-9.07499945E+01
 21
-7.94926806E+01
  0
ARC
  8
0
 62
4
 10
-7.92504981E+01
 20
-9.06594383E+01
 40
1.49949647E+00
 50
1.79980757E+02
 51
2.70019243E+02
  0
LINE
  8
0
 62
4
 10
-7.92499945E+01
 20
-9.21589346E+01
 11
-7.21499945E+01
 21
-9.21589346E+01
  0
ARC
  8
0
 62
4
 10
-4.32494947E+01
 20
-9.06594344E+01
 40
1.49950029E+00
 50
2.69980903E+02
 51
1.90971113E-02
  0
LINE
  8
0
 62
4
 10
-6.12499945E+01
 20
-6.63149686E+01
 11
-4.32499945E+01
 21
-6.63149686E+01
  0
LINE
  8
0
 62
4
 10
-9.57499945E+01
 20
-8.07967784E+01
 11
-9.07499945E+01
 21
-8.07967784E+01
  0
LINE
  8
0
 62
4
 10
-9.57499945E+01
 20
-7.24402495E+01
 11
-9.07499945E+01
 21
-7.24402495E+01
  0
LINE
  8
0
  6
CENTER
 62
6
 10
-6.47499945E+01
 20
-5.09713346E+01
 11
-6.47499945E+01
 21
-6.14713346E+01
  0
LINE
  8
0
 62
4
 10
-6.27499945E+01
 20
-5.32313346E+01
 11
-6.27499945E+01
 21
-5.37395636E+01
  0
LINE
  8
0
 62
4
 10
-6.67499945E+01
 20
-5.32313346E+01
 11
-6.67499945E+01
 21
-5.37395636E+01
  0
LINE
  8
0
 62
4
 10
-6.30199945E+01
 20
-5.22313346E+01
 11
-6.64899945E+01
 21
-5.22313346E+01
  0
LINE
  8
0
 62
4
 10
-6.27499945E+01
 20
-5.32313346E+01
 11
-6.30199945E+01
 21
-5.22313346E+01
  0
LINE
  8
0
 62
4
 10
-6.67499945E+01
 20
-5.32313346E+01
 11
-6.64899945E+01
 21
-5.22313346E+01
  0
LINE
  8
0
 62
6
 10
-6.32499945E+01
 20
-5.22313346E+01
 11
-6.32499945E+01
 21
-5.37395636E+01
  0
LINE
  8
0
 62
6
 10
-6.62499945E+01
 20
-5.22313346E+01
 11
-6.62499945E+01
 21
-5.37395636E+01
  0
LINE
  8
0
 62
4
 10
-7.62499945E+01
 20
-5.37395636E+01
 11
-7.62499945E+01
 21
-8.44279844E+01
  0
LINE
  8
0
 62
4
 10
-6.22499945E+01
 20
-5.95446561E+01
 11
-7.52499945E+01
 21
-5.95446561E+01
  0
LINE
  8
0
 62
4
 10
-6.12499945E+01
 20
-5.37395636E+01
 11
-7.62499945E+01
 21
-5.37395636E+01
  0
LINE
  8
0
  6
CENTER
 62
6
 10
-7.27499945E+01
 20
-5.09713346E+01
 11
-7.27499945E+01
 21
-6.14713346E+01
  0
LINE
  8
0
 62
6
 10
-7.42499945E+01
 20
-5.22313346E+01
 11
-7.42499945E+01
 21
-5.37395636E+01
  0
LINE
  8
0
 62
4
 10
-7.07499945E+01
 20
-5.32313346E+01
 11
-7.07499945E+01
 21
-5.37395636E+01
  0
LINE
  8
0
 62
4
 10
-7.47499945E+01
 20
-5.32313346E+01
 11
-7.47499945E+01
 21
-5.37395636E+01
  0
LINE
  8
0
 62
4
 10
-7.10199945E+01
 20
-5.22313346E+01
 11
-7.44899945E+01
 21
-5.22313346E+01
  0
LINE
  8
0
 62
4
 10
-7.07499945E+01
 20
-5.32313346E+01
 11
-7.10199945E+01
 21
-5.22313346E+01
  0
LINE
  8
0
 62
4
 10
-7.47499945E+01
 20
-5.32313346E+01
 11
-7.44899945E+01
 21
-5.22313346E+01
  0
LINE
  8
0
 62
6
 10
-7.12499945E+01
 20
-5.22313346E+01
 11
-7.12499945E+01
 21
-5.37395636E+01
  0
LINE
  8
0
 62
4
 10
-6.47499945E+01
 20
-9.13489772E+01
 11
-6.47499945E+01
 21
-9.08565733E+01
  0
LINE
  8
0
 62
4
 10
-7.27499945E+01
 20
-9.08565733E+01
 11
-7.27499945E+01
 21
-9.13489772E+01
  0
LINE
  8
0
 62
4
 10
-6.53499945E+01
 20
-9.13489772E+01
 11
-6.53499945E+01
 21
-9.34714332E+01
  0
LINE
  8
0
 62
4
 10
-7.21499945E+01
 20
-9.34714332E+01
 11
-7.21499945E+01
 21
-9.13489772E+01
  0
LINE
  8
0
  6
CENTER
 62
6
 10
-6.87499945E+01
 20
-5.20899052E+01
 11
-6.87499945E+01
 21
-9.56647212E+01
  0
LINE
  8
0
 62
4
 10
-8.52499945E+01
 20
-8.07434245E+01
 11
-7.62499945E+01
 21
-8.07434245E+01
  0
LINE
  8
0
 62
4
 10
-7.62499945E+01
 20
-6.67434245E+01
 11
-8.52499945E+01
 21
-6.67434245E+01
  0
LINE
  8
0
 62
4
 10
-8.57499945E+01
 20
-6.72277765E+01
 11
-8.57499945E+01
 21
-8.02277765E+01
  0
LINE
  8
0
 62
4
 10
-9.57499945E+01
 20
-6.66901798E+01
 11
-9.57499945E+01
 21
-8.07967784E+01
  0
LINE
  8
0
 62
4
 10
-9.07499945E+01
 20
-6.66901798E+01
 11
-9.07499945E+01
 21
-8.07967784E+01
  0
LINE
  8
0
 62
4
 10
-9.07499945E+01
 20
-6.74934245E+01
 11
-8.57499945E+01
 21
-6.74934245E+01
  0
LINE
  8
0
 62
4
 10
-9.07499945E+01
 20
-7.99934245E+01
 11
-8.57499945E+01
 21
-7.99934245E+01
  0
LINE
  8
0
 62
4
 10
-8.92499945E+01
 20
-6.74934245E+01
 11
-8.92499945E+01
 21
-7.99934245E+01
  0
LINE
  8
0
 62
4
 10
-8.92499945E+01
 20
-6.79934245E+01
 11
-8.57499945E+01
 21
-6.79934245E+01
  0
LINE
  8
0
 62
4
 10
-8.92499945E+01
 20
-7.94934245E+01
 11
-8.57499945E+01
 21
-7.94934245E+01
  0
LINE
  8
0
 62
4
 10
-6.12499945E+01
 20
-5.37395636E+01
 11
-6.12499945E+01
 21
-8.44279844E+01
  0
LINE
  8
0
 62
4
 10
-7.62499945E+01
 20
-6.53146636E+01
 11
-6.12499945E+01
 21
-6.53146636E+01
  0
LINE
  8
0
 62
4
 10
-7.62499945E+01
 20
-8.00867799E+01
 11
-6.12499945E+01
 21
-8.00867799E+01
  0
LINE
  8
0
 62
4
 10
-9.57499945E+01
 20
-6.66901798E+01
 11
-9.07499945E+01
 21
-6.66901798E+01
  0
LINE
  8
0
 62
4
 10
-4.17499945E+01
 20
-6.78149686E+01
 11
-4.17499945E+01
 21
-9.06594344E+01
  0
LINE
  8
0
 62
4
 10
-5.92499945E+01
 20
-6.76862526E+01
 11
-5.92499945E+01
 21
-8.70921926E+01
  0
LINE
  8
0
 62
4
 10
-8.07499945E+01
 20
-8.07277765E+01
 11
-8.07499945E+01
 21
-9.06589346E+01
  0
LINE
  8
0
 62
4
 10
-7.82499945E+01
 20
-8.07277765E+01
 11
-7.82499945E+01
 21
-8.70921926E+01
  0
LINE
  8
0
 62
4
 10
-7.82499945E+01
 20
-8.63975999E+01
 11
-5.92499945E+01
 21
-8.63975999E+01
  0
LINE
  8
0
 62
4
 10
-7.92499945E+01
 20
-6.63149686E+01
 11
-7.62499945E+01
 21
-6.63149686E+01
  0
LINE
  8
0
 62
4
 10
-7.92499945E+01
 20
-8.95542120E+01
 11
-4.32499945E+01
 21
-8.95542120E+01
  0
LINE
  8
0
 62
4
 10
-5.92499945E+01
 20
-6.76862526E+01
 11
-6.12499945E+01
 21
-6.76862526E+01
  0
ARC
  8
0
 62
4
 10
-4.32504983E+01
 20
-6.78154724E+01
 40
1.50050386E+00
 50
1.92364101E-02
 51
8.99807637E+01
  0
ARC
  8
0
 62
4
 10
-8.52504941E+01
 20
-8.02439241E+01
 40
4.99500622E-01
 50
1.79942690E+02
 51
2.70057311E+02
  0
ARC
  8
0
 62
4
 10
-8.52494944E+01
 20
-6.72439246E+01
 40
5.00500378E-01
 50
9.00572530E+01
 51
1.79942747E+02
  0
ARC
  8
0
 62
4
 10
-7.92494946E+01
 20
-6.78154686E+01
 40
1.50050004E+00
 50
9.00190906E+01
 51
1.34401209E+02
  0
POLYLINE
  8
0
 62
4
 66
1
  0
VERTEX
  8
0
 62
4
 10
-6.53499945E+01
 20
-9.34714332E+01
  0
VERTEX
  8
0
 62
4
 10
-6.53629325E+01
 20
-9.33834806E+01
  0
VERTEX
  8
0
 62
4
 10
-6.54016481E+01
 20
-9.32961975E+01
  0
VERTEX
  8
0
 62
4
 10
-6.54658467E+01
 20
-9.32102479E+01
  0
VERTEX
  8
0
 62
4
 10
-6.55550396E+01
 20
-9.31262862E+01
  0
VERTEX
  8
0
 62
4
 10
-6.56685480E+01
 20
-9.30449512E+01
  0
VERTEX
  8
0
 62
4
 10
-6.58055081E+01
 20
-9.29668620E+01
  0
VERTEX
  8
0
 62
4
 10
-6.59648775E+01
 20
-9.28926129E+01
  0
VERTEX
  8
0
 62
4
 10
-6.61454434E+01
 20
-9.28227690E+01
  0
VERTEX
  8
0
 62
4
 10
-6.63458314E+01
 20
-9.27578618E+01
  0
VERTEX
  8
0
 62
4
 10
-6.65645166E+01
 20
-9.26983853E+01
  0
VERTEX
  8
0
 62
4
 10
-6.67998346E+01
 20
-9.26447921E+01
  0
VERTEX
  8
0
 62
4
 10
-6.70499945E+01
 20
-9.25974902E+01
  0
VERTEX
  8
0
 62
4
 10
-6.73130924E+01
 20
-9.25568396E+01
  0
VERTEX
  8
0
 62
4
 10
-6.75871260E+01
 20
-9.25231495E+01
  0
VERTEX
  8
0
 62
4
 10
-6.78700097E+01
 20
-9.24966765E+01
  0
VERTEX
  8
0
 62
4
 10
-6.81595907E+01
 20
-9.24776219E+01
  0
VERTEX
  8
0
 62
4
 10
-6.84536650E+01
 20
-9.24661309E+01
  0
VERTEX
  8
0
 62
4
 10
-6.87499945E+01
 20
-9.24622908E+01
  0
VERTEX
  8
0
 62
4
 10
-6.90463240E+01
 20
-9.24661309E+01
  0
VERTEX
  8
0
 62
4
 10
-6.93403983E+01
 20
-9.24776219E+01
  0
VERTEX
  8
0
 62
4
 10
-6.96299793E+01
 20
-9.24966765E+01
  0
VERTEX
  8
0
 62
4
 10
-6.99128630E+01
 20
-9.25231495E+01
  0
VERTEX
  8
0
 62
4
 10
-7.01868966E+01
 20
-9.25568396E+01
  0
VERTEX
  8
0
 62
4
 10
-7.04499945E+01
 20
-9.25974902E+01
  0
VERTEX
  8
0
 62
4
 10
-7.07001544E+01
 20
-9.26447921E+01
  0
VERTEX
  8
0
 62
4
 10
-7.09354724E+01
 20
-9.26983853E+01
  0
VERTEX
  8
0
 62
4
 10
-7.11541576E+01
 20
-9.27578618E+01
  0
VERTEX
  8
0
 62
4
 10
-7.13545456E+01
 20
-9.28227690E+01
  0
VERTEX
  8
0
 62
4
 10
-7.15351115E+01
 20
-9.28926129E+01
  0
VERTEX
  8
0
 62
4
 10
-7.16944809E+01
 20
-9.29668620E+01
  0
VERTEX
  8
0
 62
4
 10
-7.18314410E+01
 20
-9.30449512E+01
  0
VERTEX
  8
0
 62
4
 10
-7.19449494E+01
 20
-9.31262862E+01
  0
VERTEX
  8
0
 62
4
 10
-7.20341423E+01
 20
-9.32102479E+01
  0
VERTEX
  8
0
 62
4
 10
-7.20983409E+01
 20
-9.32961975E+01
  0
VERTEX
  8
0
 62
4
 10
-7.21370565E+01
 20
-9.33834806E+01
  0
VERTEX
  8
0
 62
4
 10
-7.21499945E+01
 20
-9.34714332E+01
  0
VERTEX
  8
0
 62
4
 10
-7.21370565E+01
 20
-9.35593858E+01
  0
VERTEX
  8
0
 62
4
 10
-7.20983409E+01
 20
-9.36466689E+01
  0
VERTEX
  8
0
 62
4
 10
-7.20341423E+01
 20
-9.37326185E+01
  0
VERTEX
  8
0
 62
4
 10
-7.19449494E+01
 20
-9.38165802E+01
  0
VERTEX
  8
0
 62
4
 10
-7.18314410E+01
 20
-9.38979152E+01
  0
VERTEX
  8
0
 62
4
 10
-7.16944809E+01
 20
-9.39760044E+01
  0
VERTEX
  8
0
 62
4
 10
-7.15351114E+01
 20
-9.40502535E+01
  0
VERTEX
  8
0
 62
4
 10
-7.13545456E+01
 20
-9.41200974E+01
  0
VERTEX
  8
0
 62
4
 10
-7.11541576E+01
 20
-9.41850046E+01
  0
VERTEX
  8
0
 62
4
 10
-7.09354724E+01
 20
-9.42444811E+01
  0
VERTEX
  8
0
 62
4
 10
-7.07001544E+01
 20
-9.42980743E+01
  0
VERTEX
  8
0
 62
4
 10
-7.04499945E+01
 20
-9.43453762E+01
  0
VERTEX
  8
0
 62
4
 10
-7.01868966E+01
 20
-9.43860268E+01
  0
VERTEX
  8
0
 62
4
 10
-6.99128630E+01
 20
-9.44197169E+01
  0
VERTEX
  8
0
 62
4
 10
-6.96299792E+01
 20
-9.44461899E+01
  0
VERTEX
  8
0
 62
4
 10
-6.93403983E+01
 20
-9.44652445E+01
  0
VERTEX
  8
0
 62
4
 10
-6.90463240E+01
 20
-9.44767355E+01
  0
VERTEX
  8
0
 62
4
 10
-6.87499945E+01
 20
-9.44805756E+01
  0
VERTEX
  8
0
 62
4
 10
-6.84536650E+01
 20
-9.44767355E+01
  0
VERTEX
  8
0
 62
4
 10
-6.81595907E+01
 20
-9.44652445E+01
  0
VERTEX
  8
0
 62
4
 10
-6.78700097E+01
 20
-9.44461899E+01
  0
VERTEX
  8
0
 62
4
 10
-6.75871260E+01
 20
-9.44197169E+01
  0
VERTEX
  8
0
 62
4
 10
-6.73130924E+01
 20
-9.43860268E+01
  0
VERTEX
  8
0
 62
4
 10
-6.70499945E+01
 20
-9.43453762E+01
  0
VERTEX
  8
0
 62
4
 10
-6.67998346E+01
 20
-9.42980743E+01
  0
VERTEX
  8
0
 62
4
 10
-6.65645166E+01
 20
-9.42444811E+01
  0
VERTEX
  8
0
 62
4
 10
-6.63458314E+01
 20
-9.41850046E+01
  0
VERTEX
  8
0
 62
4
 10
-6.61454434E+01
 20
-9.41200974E+01
  0
VERTEX
  8
0
 62
4
 10
-6.59648775E+01
 20
-9.40502535E+01
  0
VERTEX
  8
0
 62
4
 10
-6.58055081E+01
 20
-9.39760044E+01
  0
VERTEX
  8
0
 62
4
 10
-6.56685480E+01
 20
-9.38979152E+01
  0
VERTEX
  8
0
 62
4
 10
-6.55550396E+01
 20
-9.38165802E+01
  0
VERTEX
  8
0
 62
4
 10
-6.54658467E+01
 20
-9.37326185E+01
  0
VERTEX
  8
0
 62
4
 10
-6.54016481E+01
 20
-9.36466689E+01
  0
VERTEX
  8
0
 62
4
 10
-6.53629325E+01
 20
-9.35593858E+01
  0
VERTEX
  8
0
 62
4
 10
-6.53499945E+01
 20
-9.34714332E+01
  0
SEQEND
  8
0
  0
ARC
  8
0
 62
4
 10
-7.29855895E+01
 20
-8.28882866E+01
 40
1.21769740E+01
 50
2.87979786E+02
 51
2.99537899E+02
  0
ARC
  8
0
 62
4
 10
-6.45143995E+01
 20
-8.28882866E+01
 40
1.21769740E+01
 50
2.40462101E+02
 51
2.52020214E+02
  0
POLYLINE
  8
0
 62
4
 66
1
  0
VERTEX
  8
0
 62
4
 10
-4.96099945E+01
 20
-7.75628704E+01
  0
VERTEX
  8
0
 62
4
 10
-4.96219431E+01
 20
-7.72933590E+01
  0
VERTEX
  8
0
 62
4
 10
-4.96576982E+01
 20
-7.70258988E+01
  0
VERTEX
  8
0
 62
4
 10
-4.97169874E+01
 20
-7.67625252E+01
  0
VERTEX
  8
0
 62
4
 10
-4.97993597E+01
 20
-7.65052428E+01
  0
VERTEX
  8
0
 62
4
 10
-4.99041880E+01
 20
-7.62560095E+01
  0
VERTEX
  8
0
 62
4
 10
-5.00306747E+01
 20
-7.60167222E+01
  0
VERTEX
  8
0
 62
4
 10
-5.01778571E+01
 20
-7.57892021E+01
  0
VERTEX
  8
0
 62
4
 10
-5.03446149E+01
 20
-7.55751806E+01
  0
VERTEX
  8
0
 62
4
 10
-5.05296792E+01
 20
-7.53762867E+01
  0
VERTEX
  8
0
 62
4
 10
-5.07316414E+01
 20
-7.51940340E+01
  0
VERTEX
  8
0
 62
4
 10
-5.09489645E+01
 20
-7.50298095E+01
  0
VERTEX
  8
0
 62
4
 10
-5.11799945E+01
 20
-7.48848632E+01
  0
VERTEX
  8
0
 62
4
 10
-5.14229732E+01
 20
-7.47602981E+01
  0
VERTEX
  8
0
 62
4
 10
-5.16760513E+01
 20
-7.46570623E+01
  0
VERTEX
  8
0
 62
4
 10
-5.19373027E+01
 20
-7.45759415E+01
  0
VERTEX
  8
0
 62
4
 10
-5.22047392E+01
 20
-7.45175530E+01
  0
VERTEX
  8
0
 62
4
 10
-5.24763255E+01
 20
-7.44823412E+01
  0
VERTEX
  8
0
 62
4
 10
-5.27499945E+01
 20
-7.44705741E+01
  0
VERTEX
  8
0
 62
4
 10
-5.30236635E+01
 20
-7.44823412E+01
  0
VERTEX
  8
0
 62
4
 10
-5.32952498E+01
 20
-7.45175530E+01
  0
VERTEX
  8
0
 62
4
 10
-5.35626863E+01
 20
-7.45759415E+01
  0
VERTEX
  8
0
 62
4
 10
-5.38239378E+01
 20
-7.46570623E+01
  0
VERTEX
  8
0
 62
4
 10
-5.40770158E+01
 20
-7.47602981E+01
  0
VERTEX
  8
0
 62
4
 10
-5.43199945E+01
 20
-7.48848632E+01
  0
VERTEX
  8
0
 62
4
 10
-5.45510245E+01
 20
-7.50298095E+01
  0
VERTEX
  8
0
 62
4
 10
-5.47683476E+01
 20
-7.51940340E+01
  0
VERTEX
  8
0
 62
4
 10
-5.49703098E+01
 20
-7.53762867E+01
  0
VERTEX
  8
0
 62
4
 10
-5.51553741E+01
 20
-7.55751806E+01
  0
VERTEX
  8
0
 62
4
 10
-5.53221319E+01
 20
-7.57892021E+01
  0
VERTEX
  8
0
 62
4
 10
-5.54693143E+01
 20
-7.60167222E+01
  0
VERTEX
  8
0
 62
4
 10
-5.55958010E+01
 20
-7.62560095E+01
  0
VERTEX
  8
0
 62
4
 10
-5.57006293E+01
 20
-7.65052428E+01
  0
VERTEX
  8
0
 62
4
 10
-5.57830016E+01
 20
-7.67625252E+01
  0
VERTEX
  8
0
 62
4
 10
-5.58422908E+01
 20
-7.70258988E+01
  0
VERTEX
  8
0
 62
4
 10
-5.58780459E+01
 20
-7.72933590E+01
  0
VERTEX
  8
0
 62
4
 10
-5.58899945E+01
 20
-7.75628704E+01
  0
VERTEX
  8
0
 62
4
 10
-5.58780459E+01
 20
-7.78323818E+01
  0
VERTEX
  8
0
 62
4
 10
-5.58422908E+01
 20
-7.80998420E+01
  0
VERTEX
  8
0
 62
4
 10
-5.57830016E+01
 20
-7.83632156E+01
  0
VERTEX
  8
0
 62
4
 10
-5.57006293E+01
 20
-7.86204980E+01
  0
VERTEX
  8
0
 62
4
 10
-5.55958009E+01
 20
-7.88697313E+01
  0
VERTEX
  8
0
 62
4
 10
-5.54693143E+01
 20
-7.91090186E+01
  0
VERTEX
  8
0
 62
4
 10
-5.53221319E+01
 20
-7.93365387E+01
  0
VERTEX
  8
0
 62
4
 10
-5.51553740E+01
 20
-7.95505602E+01
  0
VERTEX
  8
0
 62
4
 10
-5.49703098E+01
 20
-7.97494541E+01
  0
VERTEX
  8
0
 62
4
 10
-5.47683476E+01
 20
-7.99317068E+01
  0
VERTEX
  8
0
 62
4
 10
-5.45510245E+01
 20
-8.00959313E+01
  0
VERTEX
  8
0
 62
4
 10
-5.43199945E+01
 20
-8.02408776E+01
  0
VERTEX
  8
0
 62
4
 10
-5.40770158E+01
 20
-8.03654427E+01
  0
VERTEX
  8
0
 62
4
 10
-5.38239377E+01
 20
-8.04686785E+01
  0
VERTEX
  8
0
 62
4
 10
-5.35626863E+01
 20
-8.05497993E+01
  0
VERTEX
  8
0
 62
4
 10
-5.32952498E+01
 20
-8.06081878E+01
  0
VERTEX
  8
0
 62
4
 10
-5.30236635E+01
 20
-8.06433996E+01
  0
VERTEX
  8
0
 62
4
 10
-5.27499945E+01
 20
-8.06551667E+01
  0
VERTEX
  8
0
 62
4
 10
-5.24763255E+01
 20
-8.06433996E+01
  0
VERTEX
  8
0
 62
4
 10
-5.22047392E+01
 20
-8.06081878E+01
  0
VERTEX
  8
0
 62
4
 10
-5.19373027E+01
 20
-8.05497993E+01
  0
VERTEX
  8
0
 62
4
 10
-5.16760512E+01
 20
-8.04686784E+01
  0
VERTEX
  8
0
 62
4
 10
-5.14229732E+01
 20
-8.03654426E+01
  0
VERTEX
  8
0
 62
4
 10
-5.11799945E+01
 20
-8.02408776E+01
  0
VERTEX
  8
0
 62
4
 10
-5.09489645E+01
 20
-8.00959313E+01
  0
VERTEX
  8
0
 62
4
 10
-5.07316414E+01
 20
-7.99317068E+01
  0
VERTEX
  8
0
 62
4
 10
-5.05296792E+01
 20
-7.97494541E+01
  0
VERTEX
  8
0
 62
4
 10
-5.03446149E+01
 20
-7.95505602E+01
  0
VERTEX
  8
0
 62
4
 10
-5.01778571E+01
 20
-7.93365387E+01
  0
VERTEX
  8
0
 62
4
 10
-5.00306747E+01
 20
-7.91090186E+01
  0
VERTEX
  8
0
 62
4
 10
-4.99041880E+01
 20
-7.88697313E+01
  0
VERTEX
  8
0
 62
4
 10
-4.97993597E+01
 20
-7.86204980E+01
  0
VERTEX
  8
0
 62
4
 10
-4.97169874E+01
 20
-7.83632156E+01
  0
VERTEX
  8
0
 62
4
 10
-4.96576982E+01
 20
-7.80998420E+01
  0
VERTEX
  8
0
 62
4
 10
-4.96219431E+01
 20
-7.78323818E+01
  0
VERTEX
  8
0
 62
4
 10
-4.96099945E+01
 20
-7.75628704E+01
  0
SEQEND
  8
0
  0
POLYLINE
  8
0
 62
4
 66
1
  0
VERTEX
  8
0
 62
4
 10
-4.92499945E+01
 20
-7.77365186E+01
  0
VERTEX
  8
0
 62
4
 10
-4.92633131E+01
 20
-7.74361078E+01
  0
VERTEX
  8
0
 62
4
 10
-4.93031674E+01
 20
-7.71379833E+01
  0
VERTEX
  8
0
 62
4
 10
-4.93692541E+01
 20
-7.68444141E+01
  0
VERTEX
  8
0
 62
4
 10
-4.94610703E+01
 20
-7.65576343E+01
  0
VERTEX
  8
0
 62
4
 10
-4.95779172E+01
 20
-7.62798265E+01
  0
VERTEX
  8
0
 62
4
 10
-4.97189056E+01
 20
-7.60131050E+01
  0
VERTEX
  8
0
 62
4
 10
-4.98829623E+01
 20
-7.57594998E+01
  0
VERTEX
  8
0
 62
4
 10
-5.00688389E+01
 20
-7.55209408E+01
  0
VERTEX
  8
0
 62
4
 10
-5.02751208E+01
 20
-7.52992438E+01
  0
VERTEX
  8
0
 62
4
 10
-5.05002379E+01
 20
-7.50960958E+01
  0
VERTEX
  8
0
 62
4
 10
-5.07424770E+01
 20
-7.49130431E+01
  0
VERTEX
  8
0
 62
4
 10
-5.09999945E+01
 20
-7.47514787E+01
  0
VERTEX
  8
0
 62
4
 10
-5.12708306E+01
 20
-7.46126323E+01
  0
VERTEX
  8
0
 62
4
 10
-5.15529240E+01
 20
-7.44975606E+01
  0
VERTEX
  8
0
 62
4
 10
-5.18441278E+01
 20
-7.44071392E+01
  0
VERTEX
  8
0
 62
4
 10
-5.21422259E+01
 20
-7.43420565E+01
  0
VERTEX
  8
0
 62
4
 10
-5.24449494E+01
 20
-7.43028077E+01
  0
VERTEX
  8
0
 62
4
 10
-5.27499945E+01
 20
-7.42896915E+01
  0
VERTEX
  8
0
 62
4
 10
-5.30550396E+01
 20
-7.43028077E+01
  0
VERTEX
  8
0
 62
4
 10
-5.33577631E+01
 20
-7.43420565E+01
  0
VERTEX
  8
0
 62
4
 10
-5.36558612E+01
 20
-7.44071392E+01
  0
VERTEX
  8
0
 62
4
 10
-5.39470650E+01
 20
-7.44975606E+01
  0
VERTEX
  8
0
 62
4
 10
-5.42291584E+01
 20
-7.46126323E+01
  0
VERTEX
  8
0
 62
4
 10
-5.44999945E+01
 20
-7.47514787E+01
  0
VERTEX
  8
0
 62
4
 10
-5.47575120E+01
 20
-7.49130431E+01
  0
VERTEX
  8
0
 62
4
 10
-5.49997511E+01
 20
-7.50960958E+01
  0
VERTEX
  8
0
 62
4
 10
-5.52248682E+01
 20
-7.52992438E+01
  0
VERTEX
  8
0
 62
4
 10
-5.54311501E+01
 20
-7.55209408E+01
  0
VERTEX
  8
0
 62
4
 10
-5.56170267E+01
 20
-7.57594998E+01
  0
VERTEX
  8
0
 62
4
 10
-5.57810834E+01
 20
-7.60131050E+01
  0
VERTEX
  8
0
 62
4
 10
-5.59220718E+01
 20
-7.62798265E+01
  0
VERTEX
  8
0
 62
4
 10
-5.60389187E+01
 20
-7.65576343E+01
  0
VERTEX
  8
0
 62
4
 10
-5.61307349E+01
 20
-7.68444141E+01
  0
VERTEX
  8
0
 62
4
 10
-5.61968216E+01
 20
-7.71379834E+01
  0
VERTEX
  8
0
 62
4
 10
-5.62366759E+01
 20
-7.74361078E+01
  0
VERTEX
  8
0
 62
4
 10
-5.62499945E+01
 20
-7.77365186E+01
  0
VERTEX
  8
0
 62
4
 10
-5.62366759E+01
 20
-7.80369294E+01
  0
VERTEX
  8
0
 62
4
 10
-5.61968216E+01
 20
-7.83350539E+01
  0
VERTEX
  8
0
 62
4
 10
-5.61307349E+01
 20
-7.86286231E+01
  0
VERTEX
  8
0
 62
4
 10
-5.60389187E+01
 20
-7.89154029E+01
  0
VERTEX
  8
0
 62
4
 10
-5.59220718E+01
 20
-7.91932107E+01
  0
VERTEX
  8
0
 62
4
 10
-5.57810834E+01
 20
-7.94599322E+01
  0
VERTEX
  8
0
 62
4
 10
-5.56170267E+01
 20
-7.97135374E+01
  0
VERTEX
  8
0
 62
4
 10
-5.54311500E+01
 20
-7.99520964E+01
  0
VERTEX
  8
0
 62
4
 10
-5.52248682E+01
 20
-8.01737934E+01
  0
VERTEX
  8
0
 62
4
 10
-5.49997511E+01
 20
-8.03769414E+01
  0
VERTEX
  8
0
 62
4
 10
-5.47575120E+01
 20
-8.05599941E+01
  0
VERTEX
  8
0
 62
4
 10
-5.44999945E+01
 20
-8.07215585E+01
  0
VERTEX
  8
0
 62
4
 10
-5.42291584E+01
 20
-8.08604049E+01
  0
VERTEX
  8
0
 62
4
 10
-5.39470650E+01
 20
-8.09754766E+01
  0
VERTEX
  8
0
 62
4
 10
-5.36558612E+01
 20
-8.10658980E+01
  0
VERTEX
  8
0
 62
4
 10
-5.33577631E+01
 20
-8.11309807E+01
  0
VERTEX
  8
0
 62
4
 10
-5.30550396E+01
 20
-8.11702295E+01
  0
VERTEX
  8
0
 62
4
 10
-5.27499945E+01
 20
-8.11833457E+01
  0
VERTEX
  8
0
 62
4
 10
-5.24449494E+01
 20
-8.11702295E+01
  0
VERTEX
  8
0
 62
4
 10
-5.21422259E+01
 20
-8.11309807E+01
  0
VERTEX
  8
0
 62
4
 10
-5.18441278E+01
 20
-8.10658980E+01
  0
VERTEX
  8
0
 62
4
 10
-5.15529240E+01
 20
-8.09754766E+01
  0
VERTEX
  8
0
 62
4
 10
-5.12708306E+01
 20
-8.08604049E+01
  0
VERTEX
  8
0
 62
4
 10
-5.09999945E+01
 20
-8.07215585E+01
  0
VERTEX
  8
0
 62
4
 10
-5.07424770E+01
 20
-8.05599941E+01
  0
VERTEX
  8
0
 62
4
 10
-5.05002379E+01
 20
-8.03769414E+01
  0
VERTEX
  8
0
 62
4
 10
-5.02751208E+01
 20
-8.01737934E+01
  0
VERTEX
  8
0
 62
4
 10
-5.00688389E+01
 20
-7.99520964E+01
  0
VERTEX
  8
0
 62
4
 10
-4.98829623E+01
 20
-7.97135374E+01
  0
VERTEX
  8
0
 62
4
 10
-4.97189056E+01
 20
-7.94599322E+01
  0
VERTEX
  8
0
 62
4
 10
-4.95779172E+01
 20
-7.91932107E+01
  0
VERTEX
  8
0
 62
4
 10
-4.94610703E+01
 20
-7.89154029E+01
  0
VERTEX
  8
0
 62
4
 10
-4.93692541E+01
 20
-7.86286231E+01
  0
VERTEX
  8
0
 62
4
 10
-4.93031674E+01
 20
-7.83350538E+01
  0
VERTEX
  8
0
 62
4
 10
-4.92633131E+01
 20
-7.80369294E+01
  0
VERTEX
  8
0
 62
4
 10
-4.92499945E+01
 20
-7.77365186E+01
  0
SEQEND
  8
0
  0
LINE
  8
0
 62
4
 10
-7.82499945E+01
 20
-8.70921926E+01
 11
-5.92499945E+01
 21
-8.70921926E+01
  0
LINE
  8
0
 62
4
 10
-7.62499945E+01
 20
-8.44279844E+01
 11
-6.12499945E+01
 21
-8.44279844E+01
  0
ARC
  8
0
 62
4
 10
-7.92504981E+01
 20
-8.80547156E+01
 40
1.49949647E+00
 50
1.79980757E+02
 51
2.70019243E+02
  0
ARC
  8
0
 62
4
 10
-4.32494947E+01
 20
-8.80547118E+01
 40
1.49950029E+00
 50
2.69980903E+02
 51
1.90971113E-02
  0
ARC
  8
0
 62
4
 10
2.33598902E+02
 20
-1.85966023E+02
 40
1.49950029E+00
 50
3.59980903E+02
 51
9.00190969E+01
  0
ARC
  8
0
 62
4
 10
2.39597902E+02
 20
-1.66664666E+02
 40
5.00500378E-01
 50
2.70057253E+02
 51
3.59942747E+02
  0
ARC
  8
0
 62
4
 10
1.97597903E+02
 20
-1.85966023E+02
 40
1.49950029E+00
 50
8.99809029E+01
 51
1.80019097E+02
  0
ARC
  8
0
 62
4
 10
2.31097903E+02
 20
-1.67664666E+02
 40
4.99500622E-01
 50
8.99426895E+01
 51
1.80057310E+02
  0
ARC
  8
0
 62
4
 10
2.39598902E+02
 20
-1.53664666E+02
 40
4.99500622E-01
 50
3.59942689E+02
 51
9.00573103E+01
  0
LINE
  8
0
 62
4
 10
2.32098402E+02
 20
-2.03091046E+02
 11
2.30598402E+02
 21
-2.03091046E+02
  0
LINE
  8
0
 62
4
 10
1.96098402E+02
 20
-1.82629071E+02
 11
1.96098402E+02
 21
-1.99672760E+02
  0
LINE
  8
0
 62
4
 10
2.13598402E+02
 20
-1.80527292E+02
 11
2.13598402E+02
 21
-1.84466523E+02
  0
LINE
  8
0
 62
4
 10
2.30598402E+02
 20
-1.52955079E+02
 11
2.30598402E+02
 21
-1.80527292E+02
  0
LINE
  8
0
 62
4
 10
2.15598402E+02
 20
-1.52955079E+02
 11
2.15598402E+02
 21
-1.80527292E+02
  0
LINE
  8
0
 62
4
 10
2.32598402E+02
 20
-1.80527292E+02
 11
2.32598402E+02
 21
-1.84466523E+02
  0
LINE
  8
0
 62
4
 10
2.35098402E+02
 20
-1.98195548E+02
 11
2.30598402E+02
 21
-1.98195548E+02
  0
LINE
  8
0
 62
4
 10
2.35098402E+02
 20
-1.99672760E+02
 11
2.30598402E+02
 21
-1.99672760E+02
  0
LINE
  8
0
 62
4
 10
2.35098402E+02
 20
-1.82629071E+02
 11
2.35098402E+02
 21
-1.99672760E+02
  0
LINE
  8
0
 62
4
 10
2.32598402E+02
 20
-1.80527292E+02
 11
2.13598402E+02
 21
-1.80527292E+02
  0
LINE
  8
0
 62
4
 10
2.30598402E+02
 20
-1.55559802E+02
 11
2.15598402E+02
 21
-1.55559802E+02
  0
LINE
  8
0
 62
4
 10
2.15598402E+02
 20
-1.98195548E+02
 11
1.96098402E+02
 21
-1.98195548E+02
  0
LINE
  8
0
 62
4
 10
2.15598402E+02
 20
-1.99672760E+02
 11
1.96098402E+02
 21
-1.99672760E+02
  0
LINE
  8
0
 62
4
 10
2.50098402E+02
 20
-1.67562193E+02
 11
2.45098402E+02
 21
-1.67562193E+02
  0
LINE
  8
0
 62
4
 10
2.15598402E+02
 20
-2.03091046E+02
 11
1.99098402E+02
 21
-2.03091046E+02
  0
LINE
  8
0
 62
4
 10
2.39598402E+02
 20
-1.67165166E+02
 11
2.31098402E+02
 21
-1.67165166E+02
  0
LINE
  8
0
 62
4
 10
2.43598402E+02
 20
-1.65915166E+02
 11
2.40098402E+02
 21
-1.65915166E+02
  0
LINE
  8
0
 62
4
 10
2.43598402E+02
 20
-1.53915166E+02
 11
2.43598402E+02
 21
-1.66415166E+02
  0
LINE
  8
0
 62
4
 10
2.45098402E+02
 20
-1.66415166E+02
 11
2.40098402E+02
 21
-1.66415166E+02
  0
LINE
  8
0
 62
4
 10
2.45098402E+02
 20
-1.53915166E+02
 11
2.40098402E+02
 21
-1.53915166E+02
  0
LINE
  8
0
 62
4
 10
2.45098402E+02
 20
-1.52780229E+02
 11
2.45098402E+02
 21
-1.67562193E+02
  0
LINE
  8
0
 62
4
 10
2.50098402E+02
 20
-1.52780229E+02
 11
2.50098402E+02
 21
-1.67562193E+02
  0
LINE
  8
0
 62
4
 10
2.40098402E+02
 20
-1.53668308E+02
 11
2.40098402E+02
 21
-1.66668308E+02
  0
LINE
  8
0
 62
4
 10
2.30598402E+02
 20
-1.53165166E+02
 11
2.39598402E+02
 21
-1.53165166E+02
  0
LINE
  8
0
 62
4
 10
2.50098402E+02
 20
-1.64997877E+02
 11
2.45098402E+02
 21
-1.64997877E+02
  0
LINE
  8
0
 62
4
 10
2.50098402E+02
 20
-1.57601971E+02
 11
2.45098402E+02
 21
-1.57601971E+02
  0
LINE
  8
0
 62
4
 10
2.33598402E+02
 20
-1.84466523E+02
 11
1.97598402E+02
 21
-1.84466523E+02
  0
LINE
  8
0
 62
4
 10
2.43598402E+02
 20
-1.54415166E+02
 11
2.40098402E+02
 21
-1.54415166E+02
  0
LINE
  8
0
  6
CENTER
 62
6
 10
2.14098402E+02
 20
-2.10605805E+02
 11
2.32098402E+02
 21
-2.10605805E+02
  0
LINE
  8
0
  6
CENTER
 62
6
 10
2.19098402E+02
 20
-2.05612482E+02
 11
2.19098402E+02
 21
-2.15602482E+02
  0
LINE
  8
0
 62
4
 10
2.15598402E+02
 20
-1.89070861E+02
 11
2.15598402E+02
 21
-2.15411395E+02
  0
LINE
  8
0
 62
4
 10
2.30598402E+02
 20
-1.89070861E+02
 11
2.30598402E+02
 21
-2.15411395E+02
  0
LINE
  8
0
 62
4
 10
2.15598402E+02
 20
-2.15411395E+02
 11
2.30598402E+02
 21
-2.15411395E+02
  0
LINE
  8
0
 62
4
 10
2.15598402E+02
 20
-1.89070861E+02
 11
2.30598402E+02
 21
-1.89070861E+02
  0
LINE
  8
0
 62
4
 10
2.30598402E+02
 20
-1.52955079E+02
 11
2.15598402E+02
 21
-1.52955079E+02
  0
LINE
  8
0
 62
4
 10
2.29624015E+02
 20
-2.05035134E+02
 11
2.16815524E+02
 21
-2.05035134E+02
  0
LINE
  8
0
 62
4
 10
2.30598402E+02
 20
-1.79195188E+02
 11
2.15598402E+02
 21
-1.79195188E+02
  0
LINE
  8
0
  6
CENTER
 62
6
 10
2.27098402E+02
 20
-2.05612482E+02
 11
2.27098402E+02
 21
-2.15602482E+02
  0
LINE
  8
0
 62
4
 10
1.99098402E+02
 20
-2.03094210E+02
 11
1.96098402E+02
 21
-1.99675924E+02
  0
LINE
  8
0
 62
4
 10
2.32098402E+02
 20
-2.03094210E+02
 11
2.35098402E+02
 21
-1.99675924E+02
  0
LINE
  8
0
 62
4
 10
2.32098402E+02
 20
-2.03091046E+02
 11
2.32098402E+02
 21
-2.04407727E+02
  0
LINE
  8
0
 62
4
 10
1.99098402E+02
 20
-2.03091046E+02
 11
1.99098402E+02
 21
-2.04407727E+02
  0
POLYLINE
  8
0
 62
6
 66
1
  0
VERTEX
  8
0
 62
6
 10
2.20598402E+02
 20
-2.10605805E+02
  0
VERTEX
  8
0
 62
6
 10
2.20592694E+02
 20
-2.10477058E+02
  0
VERTEX
  8
0
 62
6
 10
2.20575614E+02
 20
-2.10349290E+02
  0
VERTEX
  8
0
 62
6
 10
2.20547291E+02
 20
-2.10223474E+02
  0
VERTEX
  8
0
 62
6
 10
2.20507941E+02
 20
-2.10100569E+02
  0
VERTEX
  8
0
 62
6
 10
2.20457864E+02
 20
-2.09981508E+02
  0
VERTEX
  8
0
 62
6
 10
2.20397440E+02
 20
-2.09867199E+02
  0
VERTEX
  8
0
 62
6
 10
2.20327130E+02
 20
-2.09758511E+02
  0
VERTEX
  8
0
 62
6
 10
2.20247469E+02
 20
-2.09656272E+02
  0
VERTEX
  8
0
 62
6
 10
2.20159062E+02
 20
-2.09561259E+02
  0
VERTEX
  8
0
 62
6
 10
2.20062583E+02
 20
-2.09474195E+02
  0
VERTEX
  8
0
 62
6
 10
2.19958767E+02
 20
-2.09395744E+02
  0
VERTEX
  8
0
 62
6
 10
2.19848402E+02
 20
-2.09326502E+02
  0
VERTEX
  8
0
 62
6
 10
2.19732329E+02
 20
-2.09266997E+02
  0
VERTEX
  8
0
 62
6
 10
2.19611432E+02
 20
-2.09217680E+02
  0
VERTEX
  8
0
 62
6
 10
2.19486631E+02
 20
-2.09178928E+02
  0
VERTEX
  8
0
 62
6
 10
2.19358874E+02
 20
-2.09151036E+02
  0
VERTEX
  8
0
 62
6
 10
2.19229136E+02
 20
-2.09134215E+02
  0
VERTEX
  8
0
 62
6
 10
2.19098402E+02
 20
-2.09128593E+02
  0
VERTEX
  8
0
 62
6
 10
2.18967668E+02
 20
-2.09134215E+02
  0
VERTEX
  8
0
 62
6
 10
2.18837930E+02
 20
-2.09151036E+02
  0
VERTEX
  8
0
 62
6
 10
2.18710173E+02
 20
-2.09178928E+02
  0
VERTEX
  8
0
 62
6
 10
2.18585372E+02
 20
-2.09217680E+02
  0
VERTEX
  8
0
 62
6
 10
2.18464475E+02
 20
-2.09266997E+02
  0
VERTEX
  8
0
 62
6
 10
2.18348402E+02
 20
-2.09326502E+02
  0
VERTEX
  8
0
 62
6
 10
2.18238037E+02
 20
-2.09395744E+02
  0
VERTEX
  8
0
 62
6
 10
2.18134221E+02
 20
-2.09474195E+02
  0
VERTEX
  8
0
 62
6
 10
2.18037742E+02
 20
-2.09561259E+02
  0
VERTEX
  8
0
 62
6
 10
2.17949335E+02
 20
-2.09656272E+02
  0
VERTEX
  8
0
 62
6
 10
2.17869674E+02
 20
-2.09758511E+02
  0
VERTEX
  8
0
 62
6
 10
2.17799364E+02
 20
-2.09867199E+02
  0
VERTEX
  8
0
 62
6
 10
2.17738940E+02
 20
-2.09981508E+02
  0
VERTEX
  8
0
 62
6
 10
2.17688863E+02
 20
-2.10100569E+02
  0
VERTEX
  8
0
 62
6
 10
2.17649513E+02
 20
-2.10223474E+02
  0
VERTEX
  8
0
 62
6
 10
2.17621190E+02
 20
-2.10349290E+02
  0
VERTEX
  8
0
 62
6
 10
2.17604110E+02
 20
-2.10477058E+02
  0
VERTEX
  8
0
 62
6
 10
2.17598402E+02
 20
-2.10605805E+02
  0
VERTEX
  8
0
 62
6
 10
2.17604110E+02
 20
-2.10734552E+02
  0
VERTEX
  8
0
 62
6
 10
2.17621190E+02
 20
-2.10862320E+02
  0
VERTEX
  8
0
 62
6
 10
2.17649513E+02
 20
-2.10988136E+02
  0
VERTEX
  8
0
 62
6
 10
2.17688863E+02
 20
-2.11111041E+02
  0
VERTEX
  8
0
 62
6
 10
2.17738940E+02
 20
-2.11230102E+02
  0
VERTEX
  8
0
 62
6
 10
2.17799364E+02
 20
-2.11344411E+02
  0
VERTEX
  8
0
 62
6
 10
2.17869674E+02
 20
-2.11453099E+02
  0
VERTEX
  8
0
 62
6
 10
2.17949335E+02
 20
-2.11555338E+02
  0
VERTEX
  8
0
 62
6
 10
2.18037742E+02
 20
-2.11650351E+02
  0
VERTEX
  8
0
 62
6
 10
2.18134221E+02
 20
-2.11737415E+02
  0
VERTEX
  8
0
 62
6
 10
2.18238037E+02
 20
-2.11815866E+02
  0
VERTEX
  8
0
 62
6
 10
2.18348402E+02
 20
-2.11885108E+02
  0
VERTEX
  8
0
 62
6
 10
2.18464475E+02
 20
-2.11944613E+02
  0
VERTEX
  8
0
 62
6
 10
2.18585372E+02
 20
-2.11993930E+02
  0
VERTEX
  8
0
 62
6
 10
2.18710173E+02
 20
-2.12032682E+02
  0
VERTEX
  8
0
 62
6
 10
2.18837930E+02
 20
-2.12060574E+02
  0
VERTEX
  8
0
 62
6
 10
2.18967668E+02
 20
-2.12077395E+02
  0
VERTEX
  8
0
 62
6
 10
2.19098402E+02
 20
-2.12083017E+02
  0
VERTEX
  8
0
 62
6
 10
2.19229136E+02
 20
-2.12077395E+02
  0
VERTEX
  8
0
 62
6
 10
2.19358874E+02
 20
-2.12060574E+02
  0
VERTEX
  8
0
 62
6
 10
2.19486631E+02
 20
-2.12032682E+02
  0
VERTEX
  8
0
 62
6
 10
2.19611432E+02
 20
-2.11993930E+02
  0
VERTEX
  8
0
 62
6
 10
2.19732329E+02
 20
-2.11944613E+02
  0
VERTEX
  8
0
 62
6
 10
2.19848402E+02
 20
-2.11885108E+02
  0
VERTEX
  8
0
 62
6
 10
2.19958767E+02
 20
-2.11815866E+02
  0
VERTEX
  8
0
 62
6
 10
2.20062583E+02
 20
-2.11737415E+02
  0
VERTEX
  8
0
 62
6
 10
2.20159062E+02
 20
-2.11650351E+02
  0
VERTEX
  8
0
 62
6
 10
2.20247469E+02
 20
-2.11555338E+02
  0
VERTEX
  8
0
 62
6
 10
2.20327130E+02
 20
-2.11453099E+02
  0
VERTEX
  8
0
 62
6
 10
2.20397440E+02
 20
-2.11344411E+02
  0
VERTEX
  8
0
 62
6
 10
2.20457864E+02
 20
-2.11230102E+02
  0
VERTEX
  8
0
 62
6
 10
2.20507941E+02
 20
-2.11111041E+02
  0
VERTEX
  8
0
 62
6
 10
2.20547291E+02
 20
-2.10988135E+02
  0
VERTEX
  8
0
 62
6
 10
2.20575614E+02
 20
-2.10862320E+02
  0
VERTEX
  8
0
 62
6
 10
2.20592694E+02
 20
-2.10734552E+02
  0
VERTEX
  8
0
 62
6
 10
2.20598402E+02
 20
-2.10605805E+02
  0
SEQEND
  8
0
  0
POLYLINE
  8
0
 62
4
 66
1
  0
VERTEX
  8
0
 62
4
 10
2.21098402E+02
 20
-2.10437081E+02
  0
VERTEX
  8
0
 62
4
 10
2.21090791E+02
 20
-2.10265847E+02
  0
VERTEX
  8
0
 62
4
 10
2.21068018E+02
 20
-2.10095916E+02
  0
VERTEX
  8
0
 62
4
 10
2.21030254E+02
 20
-2.09928581E+02
  0
VERTEX
  8
0
 62
4
 10
2.20977787E+02
 20
-2.09765117E+02
  0
VERTEX
  8
0
 62
4
 10
2.20911018E+02
 20
-2.09606767E+02
  0
VERTEX
  8
0
 62
4
 10
2.20830453E+02
 20
-2.09454735E+02
  0
VERTEX
  8
0
 62
4
 10
2.20736706E+02
 20
-2.09310180E+02
  0
VERTEX
  8
0
 62
4
 10
2.20630491E+02
 20
-2.09174202E+02
  0
VERTEX
  8
0
 62
4
 10
2.20512616E+02
 20
-2.09047834E+02
  0
VERTEX
  8
0
 62
4
 10
2.20383977E+02
 20
-2.08932040E+02
  0
VERTEX
  8
0
 62
4
 10
2.20245555E+02
 20
-2.08827700E+02
  0
VERTEX
  8
0
 62
4
 10
2.20098402E+02
 20
-2.08735608E+02
  0
VERTEX
  8
0
 62
4
 10
2.19943639E+02
 20
-2.08656466E+02
  0
VERTEX
  8
0
 62
4
 10
2.19782442E+02
 20
-2.08590875E+02
  0
VERTEX
  8
0
 62
4
 10
2.19616040E+02
 20
-2.08539335E+02
  0
VERTEX
  8
0
 62
4
 10
2.19445698E+02
 20
-2.08502238E+02
  0
VERTEX
  8
0
 62
4
 10
2.19272713E+02
 20
-2.08479866E+02
  0
VERTEX
  8
0
 62
4
 10
2.19098402E+02
 20
-2.08472390E+02
  0
VERTEX
  8
0
 62
4
 10
2.18924091E+02
 20
-2.08479866E+02
  0
VERTEX
  8
0
 62
4
 10
2.18751106E+02
 20
-2.08502238E+02
  0
VERTEX
  8
0
 62
4
 10
2.18580764E+02
 20
-2.08539335E+02
  0
VERTEX
  8
0
 62
4
 10
2.18414362E+02
 20
-2.08590875E+02
  0
VERTEX
  8
0
 62
4
 10
2.18253165E+02
 20
-2.08656466E+02
  0
VERTEX
  8
0
 62
4
 10
2.18098402E+02
 20
-2.08735608E+02
  0
VERTEX
  8
0
 62
4
 10
2.17951249E+02
 20
-2.08827700E+02
  0
VERTEX
  8
0
 62
4
 10
2.17812827E+02
 20
-2.08932040E+02
  0
VERTEX
  8
0
 62
4
 10
2.17684188E+02
 20
-2.09047834E+02
  0
VERTEX
  8
0
 62
4
 10
2.17566313E+02
 20
-2.09174202E+02
  0
VERTEX
  8
0
 62
4
 10
2.17460098E+02
 20
-2.09310180E+02
  0
VERTEX
  8
0
 62
4
 10
2.17366351E+02
 20
-2.09454735E+02
  0
VERTEX
  8
0
 62
4
 10
2.17285786E+02
 20
-2.09606767E+02
  0
VERTEX
  8
0
 62
4
 10
2.17219017E+02
 20
-2.09765117E+02
  0
VERTEX
  8
0
 62
4
 10
2.17166550E+02
 20
-2.09928581E+02
  0
VERTEX
  8
0
 62
4
 10
2.17128786E+02
 20
-2.10095916E+02
  0
VERTEX
  8
0
 62
4
 10
2.17106013E+02
 20
-2.10265847E+02
  0
VERTEX
  8
0
 62
4
 10
2.17098402E+02
 20
-2.10437081E+02
  0
VERTEX
  8
0
 62
4
 10
2.17106013E+02
 20
-2.10608315E+02
  0
VERTEX
  8
0
 62
4
 10
2.17128786E+02
 20
-2.10778246E+02
  0
VERTEX
  8
0
 62
4
 10
2.17166550E+02
 20
-2.10945581E+02
  0
VERTEX
  8
0
 62
4
 10
2.17219017E+02
 20
-2.11109045E+02
  0
VERTEX
  8
0
 62
4
 10
2.17285786E+02
 20
-2.11267395E+02
  0
VERTEX
  8
0
 62
4
 10
2.17366351E+02
 20
-2.11419427E+02
  0
VERTEX
  8
0
 62
4
 10
2.17460098E+02
 20
-2.11563982E+02
  0
VERTEX
  8
0
 62
4
 10
2.17566313E+02
 20
-2.11699960E+02
  0
VERTEX
  8
0
 62
4
 10
2.17684188E+02
 20
-2.11826328E+02
  0
VERTEX
  8
0
 62
4
 10
2.17812827E+02
 20
-2.11942122E+02
  0
VERTEX
  8
0
 62
4
 10
2.17951249E+02
 20
-2.12046462E+02
  0
VERTEX
  8
0
 62
4
 10
2.18098402E+02
 20
-2.12138554E+02
  0
VERTEX
  8
0
 62
4
 10
2.18253165E+02
 20
-2.12217696E+02
  0
VERTEX
  8
0
 62
4
 10
2.18414362E+02
 20
-2.12283287E+02
  0
VERTEX
  8
0
 62
4
 10
2.18580764E+02
 20
-2.12334827E+02
  0
VERTEX
  8
0
 62
4
 10
2.18751106E+02
 20
-2.12371924E+02
  0
VERTEX
  8
0
 62
4
 10
2.18924091E+02
 20
-2.12394296E+02
  0
VERTEX
  8
0
 62
4
 10
2.19098402E+02
 20
-2.12401772E+02
  0
VERTEX
  8
0
 62
4
 10
2.19272713E+02
 20
-2.12394296E+02
  0
VERTEX
  8
0
 62
4
 10
2.19445698E+02
 20
-2.12371924E+02
  0
VERTEX
  8
0
 62
4
 10
2.19616040E+02
 20
-2.12334827E+02
  0
VERTEX
  8
0
 62
4
 10
2.19782442E+02
 20
-2.12283287E+02
  0
VERTEX
  8
0
 62
4
 10
2.19943639E+02
 20
-2.12217696E+02
  0
VERTEX
  8
0
 62
4
 10
2.20098402E+02
 20
-2.12138554E+02
  0
VERTEX
  8
0
 62
4
 10
2.20245555E+02
 20
-2.12046462E+02
  0
VERTEX
  8
0
 62
4
 10
2.20383977E+02
 20
-2.11942122E+02
  0
VERTEX
  8
0
 62
4
 10
2.20512616E+02
 20
-2.11826328E+02
  0
VERTEX
  8
0
 62
4
 10
2.20630491E+02
 20
-2.11699960E+02
  0
VERTEX
  8
0
 62
4
 10
2.20736706E+02
 20
-2.11563982E+02
  0
VERTEX
  8
0
 62
4
 10
2.20830453E+02
 20
-2.11419427E+02
  0
VERTEX
  8
0
 62
4
 10
2.20911018E+02
 20
-2.11267395E+02
  0
VERTEX
  8
0
 62
4
 10
2.20977787E+02
 20
-2.11109045E+02
  0
VERTEX
  8
0
 62
4
 10
2.21030254E+02
 20
-2.10945581E+02
  0
VERTEX
  8
0
 62
4
 10
2.21068018E+02
 20
-2.10778246E+02
  0
VERTEX
  8
0
 62
4
 10
2.21090791E+02
 20
-2.10608315E+02
  0
VERTEX
  8
0
 62
4
 10
2.21098402E+02
 20
-2.10437081E+02
  0
SEQEND
  8
0
  0
POLYLINE
  8
0
 62
4
 66
1
  0
VERTEX
  8
0
 62
4
 10
2.20833402E+02
 20
-2.10610729E+02
  0
VERTEX
  8
0
 62
4
 10
2.20826800E+02
 20
-2.10461811E+02
  0
VERTEX
  8
0
 62
4
 10
2.20807043E+02
 20
-2.10314027E+02
  0
VERTEX
  8
0
 62
4
 10
2.20774283E+02
 20
-2.10168500E+02
  0
VERTEX
  8
0
 62
4
 10
2.20728769E+02
 20
-2.10026339E+02
  0
VERTEX
  8
0
 62
4
 10
2.20670846E+02
 20
-2.09888626E+02
  0
VERTEX
  8
0
 62
4
 10
2.20600956E+02
 20
-2.09756408E+02
  0
VERTEX
  8
0
 62
4
 10
2.20519631E+02
 20
-2.09630693E+02
  0
VERTEX
  8
0
 62
4
 10
2.20427489E+02
 20
-2.09512435E+02
  0
VERTEX
  8
0
 62
4
 10
2.20325232E+02
 20
-2.09402537E+02
  0
VERTEX
  8
0
 62
4
 10
2.20213639E+02
 20
-2.09301834E+02
  0
VERTEX
  8
0
 62
4
 10
2.20093557E+02
 20
-2.09211092E+02
  0
VERTEX
  8
0
 62
4
 10
2.19965902E+02
 20
-2.09131002E+02
  0
VERTEX
  8
0
 62
4
 10
2.19831645E+02
 20
-2.09062174E+02
  0
VERTEX
  8
0
 62
4
 10
2.19691807E+02
 20
-2.09005131E+02
  0
VERTEX
  8
0
 62
4
 10
2.19547453E+02
 20
-2.08960308E+02
  0
VERTEX
  8
0
 62
4
 10
2.19399682E+02
 20
-2.08928046E+02
  0
VERTEX
  8
0
 62
4
 10
2.19249617E+02
 20
-2.08908589E+02
  0
VERTEX
  8
0
 62
4
 10
2.19098402E+02
 20
-2.08902088E+02
  0
VERTEX
  8
0
 62
4
 10
2.18947187E+02
 20
-2.08908589E+02
  0
VERTEX
  8
0
 62
4
 10
2.18797122E+02
 20
-2.08928046E+02
  0
VERTEX
  8
0
 62
4
 10
2.18649351E+02
 20
-2.08960308E+02
  0
VERTEX
  8
0
 62
4
 10
2.18504997E+02
 20
-2.09005131E+02
  0
VERTEX
  8
0
 62
4
 10
2.18365159E+02
 20
-2.09062174E+02
  0
VERTEX
  8
0
 62
4
 10
2.18230902E+02
 20
-2.09131002E+02
  0
VERTEX
  8
0
 62
4
 10
2.18103247E+02
 20
-2.09211092E+02
  0
VERTEX
  8
0
 62
4
 10
2.17983165E+02
 20
-2.09301834E+02
  0
VERTEX
  8
0
 62
4
 10
2.17871572E+02
 20
-2.09402537E+02
  0
VERTEX
  8
0
 62
4
 10
2.17769315E+02
 20
-2.09512435E+02
  0
VERTEX
  8
0
 62
4
 10
2.17677173E+02
 20
-2.09630693E+02
  0
VERTEX
  8
0
 62
4
 10
2.17595848E+02
 20
-2.09756408E+02
  0
VERTEX
  8
0
 62
4
 10
2.17525958E+02
 20
-2.09888626E+02
  0
VERTEX
  8
0
 62
4
 10
2.17468035E+02
 20
-2.10026339E+02
  0
VERTEX
  8
0
 62
4
 10
2.17422521E+02
 20
-2.10168500E+02
  0
VERTEX
  8
0
 62
4
 10
2.17389761E+02
 20
-2.10314027E+02
  0
VERTEX
  8
0
 62
4
 10
2.17370004E+02
 20
-2.10461811E+02
  0
VERTEX
  8
0
 62
4
 10
2.17363402E+02
 20
-2.10610729E+02
  0
VERTEX
  8
0
 62
4
 10
2.17370004E+02
 20
-2.10759647E+02
  0
VERTEX
  8
0
 62
4
 10
2.17389761E+02
 20
-2.10907431E+02
  0
VERTEX
  8
0
 62
4
 10
2.17422521E+02
 20
-2.11052958E+02
  0
VERTEX
  8
0
 62
4
 10
2.17468035E+02
 20
-2.11195119E+02
  0
VERTEX
  8
0
 62
4
 10
2.17525958E+02
 20
-2.11332832E+02
  0
VERTEX
  8
0
 62
4
 10
2.17595848E+02
 20
-2.11465050E+02
  0
VERTEX
  8
0
 62
4
 10
2.17677173E+02
 20
-2.11590765E+02
  0
VERTEX
  8
0
 62
4
 10
2.17769315E+02
 20
-2.11709023E+02
  0
VERTEX
  8
0
 62
4
 10
2.17871572E+02
 20
-2.11818921E+02
  0
VERTEX
  8
0
 62
4
 10
2.17983165E+02
 20
-2.11919624E+02
  0
VERTEX
  8
0
 62
4
 10
2.18103247E+02
 20
-2.12010366E+02
  0
VERTEX
  8
0
 62
4
 10
2.18230902E+02
 20
-2.12090456E+02
  0
VERTEX
  8
0
 62
4
 10
2.18365159E+02
 20
-2.12159284E+02
  0
VERTEX
  8
0
 62
4
 10
2.18504997E+02
 20
-2.12216327E+02
  0
VERTEX
  8
0
 62
4
 10
2.18649351E+02
 20
-2.12261150E+02
  0
VERTEX
  8
0
 62
4
 10
2.18797122E+02
 20
-2.12293412E+02
  0
VERTEX
  8
0
 62
4
 10
2.18947187E+02
 20
-2.12312869E+02
  0
VERTEX
  8
0
 62
4
 10
2.19098402E+02
 20
-2.12319370E+02
  0
VERTEX
  8
0
 62
4
 10
2.19249617E+02
 20
-2.12312869E+02
  0
VERTEX
  8
0
 62
4
 10
2.19399682E+02
 20
-2.12293412E+02
  0
VERTEX
  8
0
 62
4
 10
2.19547453E+02
 20
-2.12261150E+02
  0
VERTEX
  8
0
 62
4
 10
2.19691807E+02
 20
-2.12216327E+02
  0
VERTEX
  8
0
 62
4
 10
2.19831645E+02
 20
-2.12159284E+02
  0
VERTEX
  8
0
 62
4
 10
2.19965902E+02
 20
-2.12090456E+02
  0
VERTEX
  8
0
 62
4
 10
2.20093557E+02
 20
-2.12010366E+02
  0
VERTEX
  8
0
 62
4
 10
2.20213639E+02
 20
-2.11919624E+02
  0
VERTEX
  8
0
 62
4
 10
2.20325232E+02
 20
-2.11818921E+02
  0
VERTEX
  8
0
 62
4
 10
2.20427489E+02
 20
-2.11709023E+02
  0
VERTEX
  8
0
 62
4
 10
2.20519631E+02
 20
-2.11590765E+02
  0
VERTEX
  8
0
 62
4
 10
2.20600956E+02
 20
-2.11465050E+02
  0
VERTEX
  8
0
 62
4
 10
2.20670846E+02
 20
-2.11332832E+02
  0
VERTEX
  8
0
 62
4
 10
2.20728769E+02
 20
-2.11195119E+02
  0
VERTEX
  8
0
 62
4
 10
2.20774283E+02
 20
-2.11052958E+02
  0
VERTEX
  8
0
 62
4
 10
2.20807043E+02
 20
-2.10907431E+02
  0
VERTEX
  8
0
 62
4
 10
2.20826800E+02
 20
-2.10759647E+02
  0
VERTEX
  8
0
 62
4
 10
2.20833402E+02
 20
-2.10610729E+02
  0
SEQEND
  8
0
  0
POLYLINE
  8
0
 62
4
 66
1
  0
VERTEX
  8
0
 62
4
 10
2.21098402E+02
 20
-2.10236108E+02
  0
VERTEX
  8
0
 62
4
 10
2.21090542E+02
 20
-2.10062092E+02
  0
VERTEX
  8
0
 62
4
 10
2.21067022E+02
 20
-2.09889444E+02
  0
VERTEX
  8
0
 62
4
 10
2.21028029E+02
 20
-2.09719521E+02
  0
VERTEX
  8
0
 62
4
 10
2.20973868E+02
 20
-2.09553658E+02
  0
VERTEX
  8
0
 62
4
 10
2.20904965E+02
 20
-2.09393160E+02
  0
VERTEX
  8
0
 62
4
 10
2.20821862E+02
 20
-2.09239288E+02
  0
VERTEX
  8
0
 62
4
 10
2.20725212E+02
 20
-2.09093251E+02
  0
VERTEX
  8
0
 62
4
 10
2.20615774E+02
 20
-2.08956197E+02
  0
VERTEX
  8
0
 62
4
 10
2.20494410E+02
 20
-2.08829204E+02
  0
VERTEX
  8
0
 62
4
 10
2.20362072E+02
 20
-2.08713270E+02
  0
VERTEX
  8
0
 62
4
 10
2.20219801E+02
 20
-2.08609306E+02
  0
VERTEX
  8
0
 62
4
 10
2.20068716E+02
 20
-2.08518129E+02
  0
VERTEX
  8
0
 62
4
 10
2.19910004E+02
 20
-2.08440456E+02
  0
VERTEX
  8
0
 62
4
 10
2.19744912E+02
 20
-2.08376897E+02
  0
VERTEX
  8
0
 62
4
 10
2.19574738E+02
 20
-2.08327953E+02
  0
VERTEX
  8
0
 62
4
 10
2.19400820E+02
 20
-2.08294007E+02
  0
VERTEX
  8
0
 62
4
 10
2.19224525E+02
 20
-2.08275327E+02
  0
VERTEX
  8
0
 62
4
 10
2.19047239E+02
 20
-2.08272059E+02
  0
VERTEX
  8
0
 62
4
 10
2.18870355E+02
 20
-2.08284230E+02
  0
VERTEX
  8
0
 62
4
 10
2.18695263E+02
 20
-2.08311743E+02
  0
VERTEX
  8
0
 62
4
 10
2.18523341E+02
 20
-2.08354383E+02
  0
VERTEX
  8
0
 62
4
 10
2.18355938E+02
 20
-2.08411813E+02
  0
VERTEX
  8
0
 62
4
 10
2.18194372E+02
 20
-2.08483583E+02
  0
VERTEX
  8
0
 62
4
 10
2.18039911E+02
 20
-2.08569129E+02
  0
VERTEX
  8
0
 62
4
 10
2.17893771E+02
 20
-2.08667777E+02
  0
VERTEX
  8
0
 62
4
 10
2.17757099E+02
 20
-2.08778754E+02
  0
VERTEX
  8
0
 62
4
 10
2.17630971E+02
 20
-2.08901185E+02
  0
VERTEX
  8
0
 62
4
 10
2.17516377E+02
 20
-2.09034110E+02
  0
VERTEX
  8
0
 62
4
 10
2.17414218E+02
 20
-2.09176483E+02
  0
VERTEX
  8
0
 62
4
 10
2.17325298E+02
 20
-2.09327185E+02
  0
VERTEX
  8
0
 62
4
 10
2.17250315E+02
 20
-2.09485031E+02
  0
VERTEX
  8
0
 62
4
 10
2.17189859E+02
 20
-2.09648781E+02
  0
VERTEX
  8
0
 62
4
 10
2.17144404E+02
 20
-2.09817148E+02
  0
VERTEX
  8
0
 62
4
 10
2.17114309E+02
 20
-2.09988807E+02
  0
VERTEX
  8
0
 62
4
 10
2.17099810E+02
 20
-2.10162411E+02
  0
VERTEX
  8
0
 62
4
 10
2.17101020E+02
 20
-2.10336594E+02
  0
SEQEND
  8
0
  0
POLYLINE
  8
0
 62
6
 66
1
  0
VERTEX
  8
0
 62
6
 10
2.28598402E+02
 20
-2.10605805E+02
  0
VERTEX
  8
0
 62
6
 10
2.28592694E+02
 20
-2.10477058E+02
  0
VERTEX
  8
0
 62
6
 10
2.28575614E+02
 20
-2.10349290E+02
  0
VERTEX
  8
0
 62
6
 10
2.28547291E+02
 20
-2.10223474E+02
  0
VERTEX
  8
0
 62
6
 10
2.28507941E+02
 20
-2.10100569E+02
  0
VERTEX
  8
0
 62
6
 10
2.28457864E+02
 20
-2.09981508E+02
  0
VERTEX
  8
0
 62
6
 10
2.28397440E+02
 20
-2.09867199E+02
  0
VERTEX
  8
0
 62
6
 10
2.28327130E+02
 20
-2.09758511E+02
  0
VERTEX
  8
0
 62
6
 10
2.28247469E+02
 20
-2.09656272E+02
  0
VERTEX
  8
0
 62
6
 10
2.28159062E+02
 20
-2.09561259E+02
  0
VERTEX
  8
0
 62
6
 10
2.28062583E+02
 20
-2.09474195E+02
  0
VERTEX
  8
0
 62
6
 10
2.27958767E+02
 20
-2.09395744E+02
  0
VERTEX
  8
0
 62
6
 10
2.27848402E+02
 20
-2.09326502E+02
  0
VERTEX
  8
0
 62
6
 10
2.27732329E+02
 20
-2.09266997E+02
  0
VERTEX
  8
0
 62
6
 10
2.27611432E+02
 20
-2.09217680E+02
  0
VERTEX
  8
0
 62
6
 10
2.27486631E+02
 20
-2.09178928E+02
  0
VERTEX
  8
0
 62
6
 10
2.27358874E+02
 20
-2.09151036E+02
  0
VERTEX
  8
0
 62
6
 10
2.27229136E+02
 20
-2.09134215E+02
  0
VERTEX
  8
0
 62
6
 10
2.27098402E+02
 20
-2.09128593E+02
  0
VERTEX
  8
0
 62
6
 10
2.26967668E+02
 20
-2.09134215E+02
  0
VERTEX
  8
0
 62
6
 10
2.26837930E+02
 20
-2.09151036E+02
  0
VERTEX
  8
0
 62
6
 10
2.26710173E+02
 20
-2.09178928E+02
  0
VERTEX
  8
0
 62
6
 10
2.26585372E+02
 20
-2.09217680E+02
  0
VERTEX
  8
0
 62
6
 10
2.26464475E+02
 20
-2.09266997E+02
  0
VERTEX
  8
0
 62
6
 10
2.26348402E+02
 20
-2.09326502E+02
  0
VERTEX
  8
0
 62
6
 10
2.26238037E+02
 20
-2.09395744E+02
  0
VERTEX
  8
0
 62
6
 10
2.26134221E+02
 20
-2.09474195E+02
  0
VERTEX
  8
0
 62
6
 10
2.26037742E+02
 20
-2.09561259E+02
  0
VERTEX
  8
0
 62
6
 10
2.25949335E+02
 20
-2.09656272E+02
  0
VERTEX
  8
0
 62
6
 10
2.25869674E+02
 20
-2.09758511E+02
  0
VERTEX
  8
0
 62
6
 10
2.25799364E+02
 20
-2.09867199E+02
  0
VERTEX
  8
0
 62
6
 10
2.25738940E+02
 20
-2.09981508E+02
  0
VERTEX
  8
0
 62
6
 10
2.25688863E+02
 20
-2.10100569E+02
  0
VERTEX
  8
0
 62
6
 10
2.25649513E+02
 20
-2.10223474E+02
  0
VERTEX
  8
0
 62
6
 10
2.25621190E+02
 20
-2.10349290E+02
  0
VERTEX
  8
0
 62
6
 10
2.25604110E+02
 20
-2.10477058E+02
  0
VERTEX
  8
0
 62
6
 10
2.25598402E+02
 20
-2.10605805E+02
  0
VERTEX
  8
0
 62
6
 10
2.25604110E+02
 20
-2.10734552E+02
  0
VERTEX
  8
0
 62
6
 10
2.25621190E+02
 20
-2.10862320E+02
  0
VERTEX
  8
0
 62
6
 10
2.25649513E+02
 20
-2.10988136E+02
  0
VERTEX
  8
0
 62
6
 10
2.25688863E+02
 20
-2.11111041E+02
  0
VERTEX
  8
0
 62
6
 10
2.25738940E+02
 20
-2.11230102E+02
  0
VERTEX
  8
0
 62
6
 10
2.25799364E+02
 20
-2.11344411E+02
  0
VERTEX
  8
0
 62
6
 10
2.25869674E+02
 20
-2.11453099E+02
  0
VERTEX
  8
0
 62
6
 10
2.25949335E+02
 20
-2.11555338E+02
  0
VERTEX
  8
0
 62
6
 10
2.26037742E+02
 20
-2.11650351E+02
  0
VERTEX
  8
0
 62
6
 10
2.26134221E+02
 20
-2.11737415E+02
  0
VERTEX
  8
0
 62
6
 10
2.26238037E+02
 20
-2.11815866E+02
  0
VERTEX
  8
0
 62
6
 10
2.26348402E+02
 20
-2.11885108E+02
  0
VERTEX
  8
0
 62
6
 10
2.26464475E+02
 20
-2.11944613E+02
  0
VERTEX
  8
0
 62
6
 10
2.26585372E+02
 20
-2.11993930E+02
  0
VERTEX
  8
0
 62
6
 10
2.26710173E+02
 20
-2.12032682E+02
  0
VERTEX
  8
0
 62
6
 10
2.26837930E+02
 20
-2.12060574E+02
  0
VERTEX
  8
0
 62
6
 10
2.26967668E+02
 20
-2.12077395E+02
  0
VERTEX
  8
0
 62
6
 10
2.27098402E+02
 20
-2.12083017E+02
  0
VERTEX
  8
0
 62
6
 10
2.27229136E+02
 20
-2.12077395E+02
  0
VERTEX
  8
0
 62
6
 10
2.27358874E+02
 20
-2.12060574E+02
  0
VERTEX
  8
0
 62
6
 10
2.27486631E+02
 20
-2.12032682E+02
  0
VERTEX
  8
0
 62
6
 10
2.27611432E+02
 20
-2.11993930E+02
  0
VERTEX
  8
0
 62
6
 10
2.27732329E+02
 20
-2.11944613E+02
  0
VERTEX
  8
0
 62
6
 10
2.27848402E+02
 20
-2.11885108E+02
  0
VERTEX
  8
0
 62
6
 10
2.27958767E+02
 20
-2.11815866E+02
  0
VERTEX
  8
0
 62
6
 10
2.28062583E+02
 20
-2.11737415E+02
  0
VERTEX
  8
0
 62
6
 10
2.28159062E+02
 20
-2.11650351E+02
  0
VERTEX
  8
0
 62
6
 10
2.28247469E+02
 20
-2.11555338E+02
  0
VERTEX
  8
0
 62
6
 10
2.28327130E+02
 20
-2.11453099E+02
  0
VERTEX
  8
0
 62
6
 10
2.28397440E+02
 20
-2.11344411E+02
  0
VERTEX
  8
0
 62
6
 10
2.28457864E+02
 20
-2.11230102E+02
  0
VERTEX
  8
0
 62
6
 10
2.28507941E+02
 20
-2.11111041E+02
  0
VERTEX
  8
0
 62
6
 10
2.28547291E+02
 20
-2.10988135E+02
  0
VERTEX
  8
0
 62
6
 10
2.28575614E+02
 20
-2.10862320E+02
  0
VERTEX
  8
0
 62
6
 10
2.28592694E+02
 20
-2.10734552E+02
  0
VERTEX
  8
0
 62
6
 10
2.28598402E+02
 20
-2.10605805E+02
  0
SEQEND
  8
0
  0
POLYLINE
  8
0
 62
4
 66
1
  0
VERTEX
  8
0
 62
4
 10
2.29098402E+02
 20
-2.10437081E+02
  0
VERTEX
  8
0
 62
4
 10
2.29090791E+02
 20
-2.10265847E+02
  0
VERTEX
  8
0
 62
4
 10
2.29068018E+02
 20
-2.10095916E+02
  0
VERTEX
  8
0
 62
4
 10
2.29030254E+02
 20
-2.09928581E+02
  0
VERTEX
  8
0
 62
4
 10
2.28977787E+02
 20
-2.09765117E+02
  0
VERTEX
  8
0
 62
4
 10
2.28911018E+02
 20
-2.09606767E+02
  0
VERTEX
  8
0
 62
4
 10
2.28830453E+02
 20
-2.09454735E+02
  0
VERTEX
  8
0
 62
4
 10
2.28736706E+02
 20
-2.09310180E+02
  0
VERTEX
  8
0
 62
4
 10
2.28630491E+02
 20
-2.09174202E+02
  0
VERTEX
  8
0
 62
4
 10
2.28512616E+02
 20
-2.09047834E+02
  0
VERTEX
  8
0
 62
4
 10
2.28383977E+02
 20
-2.08932040E+02
  0
VERTEX
  8
0
 62
4
 10
2.28245555E+02
 20
-2.08827700E+02
  0
VERTEX
  8
0
 62
4
 10
2.28098402E+02
 20
-2.08735608E+02
  0
VERTEX
  8
0
 62
4
 10
2.27943639E+02
 20
-2.08656466E+02
  0
VERTEX
  8
0
 62
4
 10
2.27782442E+02
 20
-2.08590875E+02
  0
VERTEX
  8
0
 62
4
 10
2.27616040E+02
 20
-2.08539335E+02
  0
VERTEX
  8
0
 62
4
 10
2.27445698E+02
 20
-2.08502238E+02
  0
VERTEX
  8
0
 62
4
 10
2.27272713E+02
 20
-2.08479866E+02
  0
VERTEX
  8
0
 62
4
 10
2.27098402E+02
 20
-2.08472390E+02
  0
VERTEX
  8
0
 62
4
 10
2.26924091E+02
 20
-2.08479866E+02
  0
VERTEX
  8
0
 62
4
 10
2.26751106E+02
 20
-2.08502238E+02
  0
VERTEX
  8
0
 62
4
 10
2.26580764E+02
 20
-2.08539335E+02
  0
VERTEX
  8
0
 62
4
 10
2.26414362E+02
 20
-2.08590875E+02
  0
VERTEX
  8
0
 62
4
 10
2.26253165E+02
 20
-2.08656466E+02
  0
VERTEX
  8
0
 62
4
 10
2.26098402E+02
 20
-2.08735608E+02
  0
VERTEX
  8
0
 62
4
 10
2.25951249E+02
 20
-2.08827700E+02
  0
VERTEX
  8
0
 62
4
 10
2.25812827E+02
 20
-2.08932040E+02
  0
VERTEX
  8
0
 62
4
 10
2.25684188E+02
 20
-2.09047834E+02
  0
VERTEX
  8
0
 62
4
 10
2.25566313E+02
 20
-2.09174202E+02
  0
VERTEX
  8
0
 62
4
 10
2.25460098E+02
 20
-2.09310180E+02
  0
VERTEX
  8
0
 62
4
 10
2.25366351E+02
 20
-2.09454735E+02
  0
VERTEX
  8
0
 62
4
 10
2.25285786E+02
 20
-2.09606767E+02
  0
VERTEX
  8
0
 62
4
 10
2.25219017E+02
 20
-2.09765117E+02
  0
VERTEX
  8
0
 62
4
 10
2.25166550E+02
 20
-2.09928581E+02
  0
VERTEX
  8
0
 62
4
 10
2.25128786E+02
 20
-2.10095916E+02
  0
VERTEX
  8
0
 62
4
 10
2.25106013E+02
 20
-2.10265847E+02
  0
VERTEX
  8
0
 62
4
 10
2.25098402E+02
 20
-2.10437081E+02
  0
VERTEX
  8
0
 62
4
 10
2.25106013E+02
 20
-2.10608315E+02
  0
VERTEX
  8
0
 62
4
 10
2.25128786E+02
 20
-2.10778246E+02
  0
VERTEX
  8
0
 62
4
 10
2.25166550E+02
 20
-2.10945581E+02
  0
VERTEX
  8
0
 62
4
 10
2.25219017E+02
 20
-2.11109045E+02
  0
VERTEX
  8
0
 62
4
 10
2.25285786E+02
 20
-2.11267395E+02
  0
VERTEX
  8
0
 62
4
 10
2.25366351E+02
 20
-2.11419427E+02
  0
VERTEX
  8
0
 62
4
 10
2.25460098E+02
 20
-2.11563982E+02
  0
VERTEX
  8
0
 62
4
 10
2.25566313E+02
 20
-2.11699960E+02
  0
VERTEX
  8
0
 62
4
 10
2.25684188E+02
 20
-2.11826328E+02
  0
VERTEX
  8
0
 62
4
 10
2.25812827E+02
 20
-2.11942122E+02
  0
VERTEX
  8
0
 62
4
 10
2.25951249E+02
 20
-2.12046462E+02
  0
VERTEX
  8
0
 62
4
 10
2.26098402E+02
 20
-2.12138554E+02
  0
VERTEX
  8
0
 62
4
 10
2.26253165E+02
 20
-2.12217696E+02
  0
VERTEX
  8
0
 62
4
 10
2.26414362E+02
 20
-2.12283287E+02
  0
VERTEX
  8
0
 62
4
 10
2.26580764E+02
 20
-2.12334827E+02
  0
VERTEX
  8
0
 62
4
 10
2.26751106E+02
 20
-2.12371924E+02
  0
VERTEX
  8
0
 62
4
 10
2.26924091E+02
 20
-2.12394296E+02
  0
VERTEX
  8
0
 62
4
 10
2.27098402E+02
 20
-2.12401772E+02
  0
VERTEX
  8
0
 62
4
 10
2.27272713E+02
 20
-2.12394296E+02
  0
VERTEX
  8
0
 62
4
 10
2.27445698E+02
 20
-2.12371924E+02
  0
VERTEX
  8
0
 62
4
 10
2.27616040E+02
 20
-2.12334827E+02
  0
VERTEX
  8
0
 62
4
 10
2.27782442E+02
 20
-2.12283287E+02
  0
VERTEX
  8
0
 62
4
 10
2.27943639E+02
 20
-2.12217696E+02
  0
VERTEX
  8
0
 62
4
 10
2.28098402E+02
 20
-2.12138554E+02
  0
VERTEX
  8
0
 62
4
 10
2.28245555E+02
 20
-2.12046462E+02
  0
VERTEX
  8
0
 62
4
 10
2.28383977E+02
 20
-2.11942122E+02
  0
VERTEX
  8
0
 62
4
 10
2.28512616E+02
 20
-2.11826328E+02
  0
VERTEX
  8
0
 62
4
 10
2.28630491E+02
 20
-2.11699960E+02
  0
VERTEX
  8
0
 62
4
 10
2.28736706E+02
 20
-2.11563982E+02
  0
VERTEX
  8
0
 62
4
 10
2.28830453E+02
 20
-2.11419427E+02
  0
VERTEX
  8
0
 62
4
 10
2.28911018E+02
 20
-2.11267395E+02
  0
VERTEX
  8
0
 62
4
 10
2.28977787E+02
 20
-2.11109045E+02
  0
VERTEX
  8
0
 62
4
 10
2.29030254E+02
 20
-2.10945581E+02
  0
VERTEX
  8
0
 62
4
 10
2.29068018E+02
 20
-2.10778246E+02
  0
VERTEX
  8
0
 62
4
 10
2.29090791E+02
 20
-2.10608315E+02
  0
VERTEX
  8
0
 62
4
 10
2.29098402E+02
 20
-2.10437081E+02
  0
SEQEND
  8
0
  0
POLYLINE
  8
0
 62
4
 66
1
  0
VERTEX
  8
0
 62
4
 10
2.28833402E+02
 20
-2.10610729E+02
  0
VERTEX
  8
0
 62
4
 10
2.28826800E+02
 20
-2.10461811E+02
  0
VERTEX
  8
0
 62
4
 10
2.28807043E+02
 20
-2.10314027E+02
  0
VERTEX
  8
0
 62
4
 10
2.28774283E+02
 20
-2.10168500E+02
  0
VERTEX
  8
0
 62
4
 10
2.28728769E+02
 20
-2.10026339E+02
  0
VERTEX
  8
0
 62
4
 10
2.28670846E+02
 20
-2.09888626E+02
  0
VERTEX
  8
0
 62
4
 10
2.28600956E+02
 20
-2.09756408E+02
  0
VERTEX
  8
0
 62
4
 10
2.28519631E+02
 20
-2.09630693E+02
  0
VERTEX
  8
0
 62
4
 10
2.28427489E+02
 20
-2.09512435E+02
  0
VERTEX
  8
0
 62
4
 10
2.28325232E+02
 20
-2.09402537E+02
  0
VERTEX
  8
0
 62
4
 10
2.28213639E+02
 20
-2.09301834E+02
  0
VERTEX
  8
0
 62
4
 10
2.28093557E+02
 20
-2.09211092E+02
  0
VERTEX
  8
0
 62
4
 10
2.27965902E+02
 20
-2.09131002E+02
  0
VERTEX
  8
0
 62
4
 10
2.27831645E+02
 20
-2.09062174E+02
  0
VERTEX
  8
0
 62
4
 10
2.27691807E+02
 20
-2.09005131E+02
  0
VERTEX
  8
0
 62
4
 10
2.27547453E+02
 20
-2.08960308E+02
  0
VERTEX
  8
0
 62
4
 10
2.27399682E+02
 20
-2.08928046E+02
  0
VERTEX
  8
0
 62
4
 10
2.27249617E+02
 20
-2.08908589E+02
  0
VERTEX
  8
0
 62
4
 10
2.27098402E+02
 20
-2.08902088E+02
  0
VERTEX
  8
0
 62
4
 10
2.26947187E+02
 20
-2.08908589E+02
  0
VERTEX
  8
0
 62
4
 10
2.26797122E+02
 20
-2.08928046E+02
  0
VERTEX
  8
0
 62
4
 10
2.26649351E+02
 20
-2.08960308E+02
  0
VERTEX
  8
0
 62
4
 10
2.26504997E+02
 20
-2.09005131E+02
  0
VERTEX
  8
0
 62
4
 10
2.26365159E+02
 20
-2.09062174E+02
  0
VERTEX
  8
0
 62
4
 10
2.26230902E+02
 20
-2.09131002E+02
  0
VERTEX
  8
0
 62
4
 10
2.26103247E+02
 20
-2.09211092E+02
  0
VERTEX
  8
0
 62
4
 10
2.25983165E+02
 20
-2.09301834E+02
  0
VERTEX
  8
0
 62
4
 10
2.25871572E+02
 20
-2.09402537E+02
  0
VERTEX
  8
0
 62
4
 10
2.25769315E+02
 20
-2.09512435E+02
  0
VERTEX
  8
0
 62
4
 10
2.25677173E+02
 20
-2.09630693E+02
  0
VERTEX
  8
0
 62
4
 10
2.25595848E+02
 20
-2.09756408E+02
  0
VERTEX
  8
0
 62
4
 10
2.25525958E+02
 20
-2.09888626E+02
  0
VERTEX
  8
0
 62
4
 10
2.25468035E+02
 20
-2.10026339E+02
  0
VERTEX
  8
0
 62
4
 10
2.25422521E+02
 20
-2.10168500E+02
  0
VERTEX
  8
0
 62
4
 10
2.25389761E+02
 20
-2.10314027E+02
  0
VERTEX
  8
0
 62
4
 10
2.25370004E+02
 20
-2.10461811E+02
  0
VERTEX
  8
0
 62
4
 10
2.25363402E+02
 20
-2.10610729E+02
  0
VERTEX
  8
0
 62
4
 10
2.25370004E+02
 20
-2.10759647E+02
  0
VERTEX
  8
0
 62
4
 10
2.25389761E+02
 20
-2.10907431E+02
  0
VERTEX
  8
0
 62
4
 10
2.25422521E+02
 20
-2.11052958E+02
  0
VERTEX
  8
0
 62
4
 10
2.25468035E+02
 20
-2.11195119E+02
  0
VERTEX
  8
0
 62
4
 10
2.25525958E+02
 20
-2.11332832E+02
  0
VERTEX
  8
0
 62
4
 10
2.25595848E+02
 20
-2.11465050E+02
  0
VERTEX
  8
0
 62
4
 10
2.25677173E+02
 20
-2.11590765E+02
  0
VERTEX
  8
0
 62
4
 10
2.25769315E+02
 20
-2.11709023E+02
  0
VERTEX
  8
0
 62
4
 10
2.25871572E+02
 20
-2.11818921E+02
  0
VERTEX
  8
0
 62
4
 10
2.25983165E+02
 20
-2.11919624E+02
  0
VERTEX
  8
0
 62
4
 10
2.26103247E+02
 20
-2.12010366E+02
  0
VERTEX
  8
0
 62
4
 10
2.26230902E+02
 20
-2.12090456E+02
  0
VERTEX
  8
0
 62
4
 10
2.26365159E+02
 20
-2.12159284E+02
  0
VERTEX
  8
0
 62
4
 10
2.26504997E+02
 20
-2.12216327E+02
  0
VERTEX
  8
0
 62
4
 10
2.26649351E+02
 20
-2.12261150E+02
  0
VERTEX
  8
0
 62
4
 10
2.26797122E+02
 20
-2.12293412E+02
  0
VERTEX
  8
0
 62
4
 10
2.26947187E+02
 20
-2.12312869E+02
  0
VERTEX
  8
0
 62
4
 10
2.27098402E+02
 20
-2.12319370E+02
  0
VERTEX
  8
0
 62
4
 10
2.27249617E+02
 20
-2.12312869E+02
  0
VERTEX
  8
0
 62
4
 10
2.27399682E+02
 20
-2.12293412E+02
  0
VERTEX
  8
0
 62
4
 10
2.27547453E+02
 20
-2.12261150E+02
  0
VERTEX
  8
0
 62
4
 10
2.27691807E+02
 20
-2.12216327E+02
  0
VERTEX
  8
0
 62
4
 10
2.27831645E+02
 20
-2.12159284E+02
  0
VERTEX
  8
0
 62
4
 10
2.27965902E+02
 20
-2.12090456E+02
  0
VERTEX
  8
0
 62
4
 10
2.28093557E+02
 20
-2.12010366E+02
  0
VERTEX
  8
0
 62
4
 10
2.28213639E+02
 20
-2.11919624E+02
  0
VERTEX
  8
0
 62
4
 10
2.28325232E+02
 20
-2.11818921E+02
  0
VERTEX
  8
0
 62
4
 10
2.28427489E+02
 20
-2.11709023E+02
  0
VERTEX
  8
0
 62
4
 10
2.28519631E+02
 20
-2.11590765E+02
  0
VERTEX
  8
0
 62
4
 10
2.28600956E+02
 20
-2.11465050E+02
  0
VERTEX
  8
0
 62
4
 10
2.28670846E+02
 20
-2.11332832E+02
  0
VERTEX
  8
0
 62
4
 10
2.28728769E+02
 20
-2.11195119E+02
  0
VERTEX
  8
0
 62
4
 10
2.28774283E+02
 20
-2.11052958E+02
  0
VERTEX
  8
0
 62
4
 10
2.28807043E+02
 20
-2.10907431E+02
  0
VERTEX
  8
0
 62
4
 10
2.28826800E+02
 20
-2.10759647E+02
  0
VERTEX
  8
0
 62
4
 10
2.28833402E+02
 20
-2.10610729E+02
  0
SEQEND
  8
0
  0
POLYLINE
  8
0
 62
4
 66
1
  0
VERTEX
  8
0
 62
4
 10
2.29098402E+02
 20
-2.10236108E+02
  0
VERTEX
  8
0
 62
4
 10
2.29090542E+02
 20
-2.10062092E+02
  0
VERTEX
  8
0
 62
4
 10
2.29067022E+02
 20
-2.09889444E+02
  0
VERTEX
  8
0
 62
4
 10
2.29028029E+02
 20
-2.09719521E+02
  0
VERTEX
  8
0
 62
4
 10
2.28973868E+02
 20
-2.09553658E+02
  0
VERTEX
  8
0
 62
4
 10
2.28904965E+02
 20
-2.09393160E+02
  0
VERTEX
  8
0
 62
4
 10
2.28821862E+02
 20
-2.09239288E+02
  0
VERTEX
  8
0
 62
4
 10
2.28725212E+02
 20
-2.09093251E+02
  0
VERTEX
  8
0
 62
4
 10
2.28615774E+02
 20
-2.08956197E+02
  0
VERTEX
  8
0
 62
4
 10
2.28494410E+02
 20
-2.08829204E+02
  0
VERTEX
  8
0
 62
4
 10
2.28362072E+02
 20
-2.08713270E+02
  0
VERTEX
  8
0
 62
4
 10
2.28219801E+02
 20
-2.08609306E+02
  0
VERTEX
  8
0
 62
4
 10
2.28068716E+02
 20
-2.08518129E+02
  0
VERTEX
  8
0
 62
4
 10
2.27910004E+02
 20
-2.08440456E+02
  0
VERTEX
  8
0
 62
4
 10
2.27744912E+02
 20
-2.08376897E+02
  0
VERTEX
  8
0
 62
4
 10
2.27574738E+02
 20
-2.08327953E+02
  0
VERTEX
  8
0
 62
4
 10
2.27400820E+02
 20
-2.08294007E+02
  0
VERTEX
  8
0
 62
4
 10
2.27224525E+02
 20
-2.08275327E+02
  0
VERTEX
  8
0
 62
4
 10
2.27047239E+02
 20
-2.08272059E+02
  0
VERTEX
  8
0
 62
4
 10
2.26870355E+02
 20
-2.08284230E+02
  0
VERTEX
  8
0
 62
4
 10
2.26695263E+02
 20
-2.08311743E+02
  0
VERTEX
  8
0
 62
4
 10
2.26523341E+02
 20
-2.08354383E+02
  0
VERTEX
  8
0
 62
4
 10
2.26355938E+02
 20
-2.08411813E+02
  0
VERTEX
  8
0
 62
4
 10
2.26194372E+02
 20
-2.08483583E+02
  0
VERTEX
  8
0
 62
4
 10
2.26039911E+02
 20
-2.08569129E+02
  0
VERTEX
  8
0
 62
4
 10
2.25893771E+02
 20
-2.08667777E+02
  0
VERTEX
  8
0
 62
4
 10
2.25757099E+02
 20
-2.08778754E+02
  0
VERTEX
  8
0
 62
4
 10
2.25630971E+02
 20
-2.08901185E+02
  0
VERTEX
  8
0
 62
4
 10
2.25516377E+02
 20
-2.09034110E+02
  0
VERTEX
  8
0
 62
4
 10
2.25414218E+02
 20
-2.09176483E+02
  0
VERTEX
  8
0
 62
4
 10
2.25325298E+02
 20
-2.09327185E+02
  0
VERTEX
  8
0
 62
4
 10
2.25250315E+02
 20
-2.09485031E+02
  0
VERTEX
  8
0
 62
4
 10
2.25189859E+02
 20
-2.09648781E+02
  0
VERTEX
  8
0
 62
4
 10
2.25144404E+02
 20
-2.09817148E+02
  0
VERTEX
  8
0
 62
4
 10
2.25114309E+02
 20
-2.09988807E+02
  0
VERTEX
  8
0
 62
4
 10
2.25099810E+02
 20
-2.10162411E+02
  0
VERTEX
  8
0
 62
4
 10
2.25101020E+02
 20
-2.10336594E+02
  0
SEQEND
  8
0
  0
ARC
  8
0
 62
4
 10
1.97597903E+02
 20
-1.82628571E+02
 40
1.49950029E+00
 50
8.99809029E+01
 51
1.80019097E+02
  0
LINE
  8
0
 62
4
 10
2.33598402E+02
 20
-1.81129071E+02
 11
2.32598402E+02
 21
-1.81129071E+02
  0
ARC
  8
0
 62
4
 10
2.33598902E+02
 20
-1.82628571E+02
 40
1.49950029E+00
 50
3.59980903E+02
 51
9.00190969E+01
  0
LINE
  8
0
 62
4
 10
2.13598402E+02
 20
-1.81129071E+02
 11
1.97598402E+02
 21
-1.81129071E+02
  0
LINE
  8
0
 62
4
 10
1.97598402E+02
 20
-1.83914042E+02
 11
1.97598402E+02
 21
-1.81809944E+02
  0
LINE
  8
0
 62
4
 10
2.33598402E+02
 20
-1.83914042E+02
 11
2.33598402E+02
 21
-1.81809944E+02
  0
LINE
  8
0
 62
4
 10
2.50098402E+02
 20
-1.52780229E+02
 11
2.45098402E+02
 21
-1.52780229E+02
  0
LINE
  8
0
  6
CENTER
 62
6
 10
2.07098402E+02
 20
-1.79677926E+02
 11
2.07098402E+02
 21
-1.81832058E+02
  0
POLYLINE
  8
0
 62
4
 66
1
  0
VERTEX
  8
0
 62
4
 10
2.10238402E+02
 20
-1.81832058E+02
  0
VERTEX
  8
0
 62
4
 10
2.10226453E+02
 20
-1.81784536E+02
  0
VERTEX
  8
0
 62
4
 10
2.10190698E+02
 20
-1.81737375E+02
  0
VERTEX
  8
0
 62
4
 10
2.10131409E+02
 20
-1.81690936E+02
  0
VERTEX
  8
0
 62
4
 10
2.10049037E+02
 20
-1.81645570E+02
  0
VERTEX
  8
0
 62
4
 10
2.09944208E+02
 20
-1.81601623E+02
  0
VERTEX
  8
0
 62
4
 10
2.09817722E+02
 20
-1.81559430E+02
  0
VERTEX
  8
0
 62
4
 10
2.09670539E+02
 20
-1.81519312E+02
  0
VERTEX
  8
0
 62
4
 10
2.09503782E+02
 20
-1.81481575E+02
  0
VERTEX
  8
0
 62
4
 10
2.09318717E+02
 20
-1.81446504E+02
  0
VERTEX
  8
0
 62
4
 10
2.09116755E+02
 20
-1.81414368E+02
  0
VERTEX
  8
0
 62
4
 10
2.08899432E+02
 20
-1.81385411E+02
  0
VERTEX
  8
0
 62
4
 10
2.08668402E+02
 20
-1.81359853E+02
  0
VERTEX
  8
0
 62
4
 10
2.08425423E+02
 20
-1.81337889E+02
  0
VERTEX
  8
0
 62
4
 10
2.08172345E+02
 20
-1.81319686E+02
  0
VERTEX
  8
0
 62
4
 10
2.07911094E+02
 20
-1.81305382E+02
  0
VERTEX
  8
0
 62
4
 10
2.07643657E+02
 20
-1.81295086E+02
  0
VERTEX
  8
0
 62
4
 10
2.07372071E+02
 20
-1.81288878E+02
  0
VERTEX
  8
0
 62
4
 10
2.07098402E+02
 20
-1.81286803E+02
  0
VERTEX
  8
0
 62
4
 10
2.06824733E+02
 20
-1.81288878E+02
  0
VERTEX
  8
0
 62
4
 10
2.06553147E+02
 20
-1.81295086E+02
  0
VERTEX
  8
0
 62
4
 10
2.06285710E+02
 20
-1.81305382E+02
  0
VERTEX
  8
0
 62
4
 10
2.06024459E+02
 20
-1.81319686E+02
  0
VERTEX
  8
0
 62
4
 10
2.05771381E+02
 20
-1.81337889E+02
  0
VERTEX
  8
0
 62
4
 10
2.05528402E+02
 20
-1.81359853E+02
  0
VERTEX
  8
0
 62
4
 10
2.05297372E+02
 20
-1.81385411E+02
  0
VERTEX
  8
0
 62
4
 10
2.05080049E+02
 20
-1.81414368E+02
  0
VERTEX
  8
0
 62
4
 10
2.04878087E+02
 20
-1.81446504E+02
  0
VERTEX
  8
0
 62
4
 10
2.04693022E+02
 20
-1.81481575E+02
  0
VERTEX
  8
0
 62
4
 10
2.04526265E+02
 20
-1.81519312E+02
  0
VERTEX
  8
0
 62
4
 10
2.04379082E+02
 20
-1.81559430E+02
  0
VERTEX
  8
0
 62
4
 10
2.04252596E+02
 20
-1.81601623E+02
  0
VERTEX
  8
0
 62
4
 10
2.04147767E+02
 20
-1.81645570E+02
  0
VERTEX
  8
0
 62
4
 10
2.04065395E+02
 20
-1.81690936E+02
  0
VERTEX
  8
0
 62
4
 10
2.04006106E+02
 20
-1.81737375E+02
  0
VERTEX
  8
0
 62
4
 10
2.03970351E+02
 20
-1.81784536E+02
  0
VERTEX
  8
0
 62
4
 10
2.03958402E+02
 20
-1.81832058E+02
  0
VERTEX
  8
0
 62
4
 10
2.03970351E+02
 20
-1.81879580E+02
  0
VERTEX
  8
0
 62
4
 10
2.04006106E+02
 20
-1.81926741E+02
  0
VERTEX
  8
0
 62
4
 10
2.04065395E+02
 20
-1.81973180E+02
  0
VERTEX
  8
0
 62
4
 10
2.04147767E+02
 20
-1.82018546E+02
  0
VERTEX
  8
0
 62
4
 10
2.04252596E+02
 20
-1.82062493E+02
  0
VERTEX
  8
0
 62
4
 10
2.04379082E+02
 20
-1.82104686E+02
  0
VERTEX
  8
0
 62
4
 10
2.04526265E+02
 20
-1.82144804E+02
  0
VERTEX
  8
0
 62
4
 10
2.04693022E+02
 20
-1.82182541E+02
  0
VERTEX
  8
0
 62
4
 10
2.04878087E+02
 20
-1.82217612E+02
  0
VERTEX
  8
0
 62
4
 10
2.05080049E+02
 20
-1.82249748E+02
  0
VERTEX
  8
0
 62
4
 10
2.05297372E+02
 20
-1.82278705E+02
  0
VERTEX
  8
0
 62
4
 10
2.05528402E+02
 20
-1.82304263E+02
  0
VERTEX
  8
0
 62
4
 10
2.05771381E+02
 20
-1.82326227E+02
  0
VERTEX
  8
0
 62
4
 10
2.06024459E+02
 20
-1.82344430E+02
  0
VERTEX
  8
0
 62
4
 10
2.06285710E+02
 20
-1.82358734E+02
  0
VERTEX
  8
0
 62
4
 10
2.06553147E+02
 20
-1.82369030E+02
  0
VERTEX
  8
0
 62
4
 10
2.06824733E+02
 20
-1.82375238E+02
  0
VERTEX
  8
0
 62
4
 10
2.07098402E+02
 20
-1.82377313E+02
  0
VERTEX
  8
0
 62
4
 10
2.07372071E+02
 20
-1.82375238E+02
  0
VERTEX
  8
0
 62
4
 10
2.07643657E+02
 20
-1.82369030E+02
  0
VERTEX
  8
0
 62
4
 10
2.07911094E+02
 20
-1.82358734E+02
  0
VERTEX
  8
0
 62
4
 10
2.08172345E+02
 20
-1.82344430E+02
  0
VERTEX
  8
0
 62
4
 10
2.08425423E+02
 20
-1.82326227E+02
  0
VERTEX
  8
0
 62
4
 10
2.08668402E+02
 20
-1.82304263E+02
  0
VERTEX
  8
0
 62
4
 10
2.08899432E+02
 20
-1.82278705E+02
  0
VERTEX
  8
0
 62
4
 10
2.09116755E+02
 20
-1.82249748E+02
  0
VERTEX
  8
0
 62
4
 10
2.09318717E+02
 20
-1.82217612E+02
  0
VERTEX
  8
0
 62
4
 10
2.09503782E+02
 20
-1.82182541E+02
  0
VERTEX
  8
0
 62
4
 10
2.09670539E+02
 20
-1.82144804E+02
  0
VERTEX
  8
0
 62
4
 10
2.09817722E+02
 20
-1.82104686E+02
  0
VERTEX
  8
0
 62
4
 10
2.09944208E+02
 20
-1.82062493E+02
  0
VERTEX
  8
0
 62
4
 10
2.10049037E+02
 20
-1.82018546E+02
  0
VERTEX
  8
0
 62
4
 10
2.10131409E+02
 20
-1.81973180E+02
  0
VERTEX
  8
0
 62
4
 10
2.10190698E+02
 20
-1.81926741E+02
  0
VERTEX
  8
0
 62
4
 10
2.10226453E+02
 20
-1.81879580E+02
  0
VERTEX
  8
0
 62
4
 10
2.10238402E+02
 20
-1.81832058E+02
  0
SEQEND
  8
0
  0
POLYLINE
  8
0
 62
4
 66
1
  0
VERTEX
  8
0
 62
4
 10
2.03605721E+02
 20
-1.82777582E+02
  0
VERTEX
  8
0
 62
4
 10
2.03599387E+02
 20
-1.82831282E+02
  0
VERTEX
  8
0
 62
4
 10
2.03620381E+02
 20
-1.82884870E+02
  0
VERTEX
  8
0
 62
4
 10
2.03668539E+02
 20
-1.82937927E+02
  0
VERTEX
  8
0
 62
4
 10
2.03743486E+02
 20
-1.82990038E+02
  0
VERTEX
  8
0
 62
4
 10
2.03844634E+02
 20
-1.83040797E+02
  0
VERTEX
  8
0
 62
4
 10
2.03971196E+02
 20
-1.83089807E+02
  0
VERTEX
  8
0
 62
4
 10
2.04122181E+02
 20
-1.83136685E+02
  0
VERTEX
  8
0
 62
4
 10
2.04296412E+02
 20
-1.83181065E+02
  0
VERTEX
  8
0
 62
4
 10
2.04492526E+02
 20
-1.83222601E+02
  0
VERTEX
  8
0
 62
4
 10
2.04708993E+02
 20
-1.83260967E+02
  0
VERTEX
  8
0
 62
4
 10
2.04944122E+02
 20
-1.83295866E+02
  0
VERTEX
  8
0
 62
4
 10
2.05196076E+02
 20
-1.83327023E+02
  0
VERTEX
  8
0
 62
4
 10
2.05462888E+02
 20
-1.83354196E+02
  0
VERTEX
  8
0
 62
4
 10
2.05742473E+02
 20
-1.83377172E+02
  0
VERTEX
  8
0
 62
4
 10
2.06032648E+02
 20
-1.83395772E+02
  0
VERTEX
  8
0
 62
4
 10
2.06331148E+02
 20
-1.83409851E+02
  0
VERTEX
  8
0
 62
4
 10
2.06635639E+02
 20
-1.83419298E+02
  0
VERTEX
  8
0
 62
4
 10
2.06943745E+02
 20
-1.83424040E+02
  0
VERTEX
  8
0
 62
4
 10
2.07253059E+02
 20
-1.83424040E+02
  0
VERTEX
  8
0
 62
4
 10
2.07561165E+02
 20
-1.83419298E+02
  0
VERTEX
  8
0
 62
4
 10
2.07865656E+02
 20
-1.83409851E+02
  0
VERTEX
  8
0
 62
4
 10
2.08164156E+02
 20
-1.83395772E+02
  0
VERTEX
  8
0
 62
4
 10
2.08454331E+02
 20
-1.83377172E+02
  0
VERTEX
  8
0
 62
4
 10
2.08733916E+02
 20
-1.83354196E+02
  0
VERTEX
  8
0
 62
4
 10
2.09000728E+02
 20
-1.83327023E+02
  0
VERTEX
  8
0
 62
4
 10
2.09252682E+02
 20
-1.83295866E+02
  0
VERTEX
  8
0
 62
4
 10
2.09487811E+02
 20
-1.83260967E+02
  0
VERTEX
  8
0
 62
4
 10
2.09704278E+02
 20
-1.83222601E+02
  0
VERTEX
  8
0
 62
4
 10
2.09900392E+02
 20
-1.83181065E+02
  0
VERTEX
  8
0
 62
4
 10
2.10074623E+02
 20
-1.83136685E+02
  0
VERTEX
  8
0
 62
4
 10
2.10225608E+02
 20
-1.83089807E+02
  0
VERTEX
  8
0
 62
4
 10
2.10352170E+02
 20
-1.83040797E+02
  0
VERTEX
  8
0
 62
4
 10
2.10453318E+02
 20
-1.82990038E+02
  0
VERTEX
  8
0
 62
4
 10
2.10528265E+02
 20
-1.82937927E+02
  0
VERTEX
  8
0
 62
4
 10
2.10576423E+02
 20
-1.82884870E+02
  0
VERTEX
  8
0
 62
4
 10
2.10597417E+02
 20
-1.82831282E+02
  0
VERTEX
  8
0
 62
4
 10
2.10591083E+02
 20
-1.82777582E+02
  0
SEQEND
  8
0
  0
LINE
  8
0
 62
4
 10
2.03958402E+02
 20
-1.81832058E+02
 11
2.03605721E+02
 21
-1.82777582E+02
  0
LINE
  8
0
 62
4
 10
2.10238402E+02
 20
-1.81832058E+02
 11
2.10591084E+02
 21
-1.82777582E+02
  0
CIRCLE
  8
0
 62
7
 10
-2.64249969E+02
 20
-2.07057660E+02
 40
2.45850000E+00
  0
CIRCLE
  8
0
 62
7
 10
-3.11249939E+02
 20
-2.07057614E+02
 40
2.45850000E+00
  0
CIRCLE
  8
0
 62
7
 10
8.53873621E+01
 20
-2.07057614E+02
 40
2.45850000E+00
  0
CIRCLE
  8
0
 62
7
 10
3.83873927E+01
 20
-2.07057660E+02
 40
2.45850000E+00
  0
LINE
  8
0
  6
CENTER
 62
2
 10
6.88873316E+01
 20
-1.97805310E+02
 11
6.88873316E+01
 21
-2.17057706E+02
  0
LINE
  8
0
  6
CENTER
 62
2
 10
6.18873011E+01
 20
-1.96519833E+02
 11
6.18873011E+01
 21
-2.30557706E+02
  0
LINE
  8
0
  6
CENTER
 62
2
 10
8.53873621E+01
 20
-1.98655057E+02
 11
8.53873621E+01
 21
-2.14942044E+02
  0
LINE
  8
0
  6
CENTER
 62
2
 10
3.83873927E+01
 20
-1.98669629E+02
 11
3.83873927E+01
 21
-2.14634045E+02
  0
LINE
  8
0
  6
CENTER
 62
2
 10
4.98873011E+01
 20
-1.97083417E+02
 11
4.98873011E+01
 21
-2.22895260E+02
  0
ARC
  8
0
 62
7
 10
3.43873316E+01
 20
-2.03057690E+02
 40
3.50000000E+00
 50
9.00000179E+01
 51
1.80000000E+02
  0
ARC
  8
0
 62
7
 10
8.93873621E+01
 20
-2.03057690E+02
 40
3.50000000E+00
 50
3.59721787E-05
 51
9.00000179E+01
  0
ARC
  8
0
 62
7
 10
6.18873316E+01
 20
-2.30557698E+02
 40
1.90000000E+01
 50
0.00000000E+00
 51
1.80000023E+02
  0
ARC
  8
0
 62
7
 10
9.70098292E+01
 20
-2.20823163E+02
 40
2.50000000E+00
 50
2.76372839E+02
 51
7.69143002E+00
  0
ARC
  8
0
 62
7
 10
9.70098292E+01
 20
-2.18292264E+02
 40
2.50000000E+00
 50
7.69143002E+00
 51
9.00000042E+01
  0
CIRCLE
  8
0
 62
2
 10
3.83872706E+01
 20
-2.07057614E+02
 40
3.00000000E+00
  0
CIRCLE
  8
0
 62
7
 10
8.53873621E+01
 20
-2.07057629E+02
 40
5.00000000E+00
  0
CIRCLE
  8
0
 62
7
 10
8.53873621E+01
 20
-2.07057629E+02
 40
4.50000000E+00
  0
CIRCLE
  8
0
 62
7
 10
3.83872706E+01
 20
-2.07057690E+02
 40
4.50000000E+00
  0
CIRCLE
  8
0
 62
7
 10
3.83872706E+01
 20
-2.07057690E+02
 40
5.00000000E+00
  0
CIRCLE
  8
0
 62
2
 10
8.53873621E+01
 20
-2.07057614E+02
 40
3.00000000E+00
  0
LINE
  8
0
 62
7
 10
8.53873630E+01
 20
-2.03593543E+02
 11
8.23873765E+01
 21
-2.05325575E+02
  0
LINE
  8
0
 62
7
 10
8.23873316E+01
 20
-2.05325574E+02
 11
8.23873316E+01
 21
-2.08789685E+02
  0
LINE
  8
0
 62
7
 10
8.23874280E+01
 20
-2.08789554E+02
 11
8.53874409E+01
 21
-2.10521602E+02
  0
LINE
  8
0
 62
7
 10
8.53873591E+01
 20
-2.10521729E+02
 11
8.83873720E+01
 21
-2.08789681E+02
  0
LINE
  8
0
 62
7
 10
8.83873621E+01
 20
-2.05325574E+02
 11
8.83873621E+01
 21
-2.08789685E+02
  0
LINE
  8
0
 62
7
 10
8.53874256E+01
 20
-2.03593436E+02
 11
8.83874385E+01
 21
-2.05325484E+02
  0
LINE
  8
0
 62
7
 10
3.83873919E+01
 20
-2.03593576E+02
 11
3.53874054E+01
 21
-2.05325608E+02
  0
LINE
  8
0
 62
7
 10
3.53873927E+01
 20
-2.05325589E+02
 11
3.53873927E+01
 21
-2.08789715E+02
  0
LINE
  8
0
 62
7
 10
3.53874944E+01
 20
-2.08789609E+02
 11
3.83874941E+01
 21
-2.10521650E+02
  0
LINE
  8
0
 62
7
 10
3.83874052E+01
 20
-2.10521791E+02
 11
4.13874445E+01
 21
-2.08789728E+02
  0
LINE
  8
0
 62
7
 10
4.13874232E+01
 20
-2.05325589E+02
 11
4.13874232E+01
 21
-2.08789715E+02
  0
LINE
  8
0
 62
7
 10
3.83874655E+01
 20
-2.03593476E+02
 11
4.13874652E+01
 21
-2.05325516E+02
  0
LINE
  8
0
 62
7
 10
3.08873621E+01
 20
-2.03057690E+02
 11
3.08873621E+01
 21
-2.30557706E+02
  0
LINE
  8
0
  6
CENTER
 62
2
 10
2.98807093E+01
 20
-2.07057660E+02
 11
4.48018519E+01
 21
-2.07057660E+02
  0
LINE
  8
0
  6
CENTER
 62
2
 10
9.39772669E+01
 20
-2.07057614E+02
 11
7.93103663E+01
 21
-2.07057614E+02
  0
LINE
  8
0
  6
CENTER
 62
2
 10
9.86559779E+01
 20
-2.30557706E+02
 11
2.78950221E+01
 21
-2.30557706E+02
  0
LINE
  8
0
 62
7
 10
9.28873621E+01
 20
-2.03057690E+02
 11
9.28873621E+01
 21
-2.30557706E+02
  0
LINE
  8
0
 62
7
 10
9.68873316E+01
 20
-2.11057706E+02
 11
9.48336179E+01
 21
-2.11057706E+02
  0
LINE
  8
0
 62
7
 10
9.68873011E+01
 20
-2.30557706E+02
 11
9.68873011E+01
 21
-2.11057690E+02
  0
LINE
  8
0
 62
7
 10
9.72872645E+01
 20
-2.23307736E+02
 11
9.68873316E+01
 21
-2.23307736E+02
  0
LINE
  8
0
 62
7
 10
9.72872645E+01
 20
-2.15807736E+02
 11
9.68873316E+01
 21
-2.15807736E+02
  0
LINE
  8
0
 62
7
 10
9.94873072E+01
 20
-2.17957669E+02
 11
9.94873072E+01
 21
-2.21157712E+02
  0
LINE
  8
0
  6
CENTER
 62
2
 10
1.00351382E+02
 20
-2.19557736E+02
 11
9.68873316E+01
 21
-2.19557736E+02
  0
LINE
  8
0
 62
7
 10
3.43873316E+01
 20
-1.99557690E+02
 11
8.93873316E+01
 21
-1.99557690E+02
  0
TEXT
  8
0
 62
7
 10
2.57990460E+02
 20
-8.40000009E+00
 40
6.30000019E+00
  1
925
 41
1.00000000E+00
  7
MONOTXT
  0
TEXT
  8
0
 62
7
 10
2.26490460E+02
 20
-8.40000009E+00
 40
6.30000019E+00
  1
825
 41
1.00000000E+00
  7
MONOTXT
  0
TEXT
  8
0
 62
7
 10
1.94990460E+02
 20
-8.40000009E+00
 40
6.30000019E+00
  1
725
 41
1.00000000E+00
  7
MONOTXT
  0
TEXT
  8
0
 62
7
 10
1.63490460E+02
 20
-8.40000009E+00
 40
6.30000019E+00
  1
625
 41
1.00000000E+00
  7
MONOTXT
  0
TEXT
  8
0
 62
7
 10
1.31990460E+02
 20
-8.40000009E+00
 40
6.30000019E+00
  1
525
 41
1.00000000E+00
  7
MONOTXT
  0
TEXT
  8
0
 62
7
 10
1.00490459E+02
 20
-8.40000009E+00
 40
6.30000019E+00
  1
425
 41
1.00000000E+00
  7
MONOTXT
  0
TEXT
  8
0
 62
7
 10
6.89904595E+01
 20
-8.40000009E+00
 40
6.30000019E+00
  1
375
 41
1.00000000E+00
  7
MONOTXT
  0
TEXT
  8
0
 62
7
 10
3.74904595E+01
 20
-8.40000009E+00
 40
6.30000019E+00
  1
325
 41
1.00000000E+00
  7
MONOTXT
  0
TEXT
  8
0
 62
7
 10
5.99045949E+00
 20
-8.40000009E+00
 40
6.30000019E+00
  1
275
 41
1.00000000E+00
  7
MONOTXT
  0
TEXT
  8
0
 62
7
 10
-2.55095405E+01
 20
-8.40000009E+00
 40
6.30000019E+00
  1
225
 41
1.00000000E+00
  7
MONOTXT
  0
TEXT
  8
0
 62
7
 10
-5.70095405E+01
 20
-8.40000009E+00
 40
6.30000019E+00
  1
175
 41
1.00000000E+00
  7
MONOTXT
  0
TEXT
  8
0
 62
7
 10
-8.85095405E+01
 20
-8.40000009E+00
 40
6.30000019E+00
  1
125
 41
1.00000000E+00
  7
MONOTXT
  0
TEXT
  8
0
 62
7
 10
-1.16859540E+02
 20
-8.40000009E+00
 40
6.30000019E+00
  1
75
 41
1.00000000E+00
  7
MONOTXT
  0
TEXT
  8
0
 62
7
 10
-1.48359540E+02
 20
-8.40000009E+00
 40
6.30000019E+00
  1
25
 41
1.00000000E+00
  7
MONOTXT
  0
TEXT
  8
0
 62
7
 10
-1.76709540E+02
 20
-8.40000009E+00
 40
6.30000019E+00
  1
0
 41
1.00000000E+00
  7
MONOTXT
  0
TEXT
  8
0
 62
7
 10
-2.14509540E+02
 20
-8.40000009E+00
 40
6.30000019E+00
  1
-25
 41
1.00000000E+00
  7
MONOTXT
  0
TEXT
  8
0
 62
7
 10
2.54840460E+02
 20
1.59999990E+00
 40
6.30000019E+00
  1
1000
 41
1.00000000E+00
  7
MONOTXT
  0
TEXT
  8
0
 62
7
 10
2.26490460E+02
 20
1.59999990E+00
 40
6.30000019E+00
  1
900
 41
1.00000000E+00
  7
MONOTXT
  0
TEXT
  8
0
 62
7
 10
1.94990460E+02
 20
1.59999990E+00
 40
6.30000019E+00
  1
800
 41
1.00000000E+00
  7
MONOTXT
  0
TEXT
  8
0
 62
7
 10
1.63490460E+02
 20
1.59999990E+00
 40
6.30000019E+00
  1
700
 41
1.00000000E+00
  7
MONOTXT
  0
TEXT
  8
0
 62
7
 10
1.31990460E+02
 20
1.59999990E+00
 40
6.30000019E+00
  1
600
 41
1.00000000E+00
  7
MONOTXT
  0
TEXT
  8
0
 62
7
 10
1.00490459E+02
 20
1.59999990E+00
 40
6.30000019E+00
  1
500
 41
1.00000000E+00
  7
MONOTXT
  0
TEXT
  8
0
 62
7
 10
6.89904595E+01
 20
1.59999990E+00
 40
6.30000019E+00
  1
450
 41
1.00000000E+00
  7
MONOTXT
  0
TEXT
  8
0
 62
7
 10
3.74904595E+01
 20
1.59999990E+00
 40
6.30000019E+00
  1
400
 41
1.00000000E+00
  7
MONOTXT
  0
TEXT
  8
0
 62
7
 10
5.99045949E+00
 20
1.59999990E+00
 40
6.30000019E+00
  1
350
 41
1.00000000E+00
  7
MONOTXT
  0
TEXT
  8
0
 62
7
 10
-2.55095405E+01
 20
1.59999990E+00
 40
6.30000019E+00
  1
300
 41
1.00000000E+00
  7
MONOTXT
  0
TEXT
  8
0
 62
7
 10
-5.70095405E+01
 20
1.59999990E+00
 40
6.30000019E+00
  1
250
 41
1.00000000E+00
  7
MONOTXT
  0
TEXT
  8
0
 62
7
 10
-8.85095405E+01
 20
1.59999990E+00
 40
6.30000019E+00
  1
200
 41
1.00000000E+00
  7
MONOTXT
  0
TEXT
  8
0
 62
7
 10
-1.20009540E+02
 20
1.59999990E+00
 40
6.30000019E+00
  1
150
 41
1.00000000E+00
  7
MONOTXT
  0
TEXT
  8
0
 62
7
 10
-1.51509540E+02
 20
1.59999990E+00
 40
6.30000019E+00
  1
100
 41
1.00000000E+00
  7
MONOTXT
  0
TEXT
  8
0
 62
7
 10
-1.79859540E+02
 20
1.59999990E+00
 40
6.30000019E+00
  1
75
 41
1.00000000E+00
  7
MONOTXT
  0
TEXT
  8
0
 62
7
 10
-2.11359540E+02
 20
1.59999990E+00
 40
6.30000019E+00
  1
50
 41
1.00000000E+00
  7
MONOTXT
  0
LINE
  8
0
 62
7
 10
2.82501397E+02
 20
-1.02500000E+01
 11
2.82501397E+02
 21
9.74999999E+00
  0
LINE
  8
0
 62
7
 10
2.51001397E+02
 20
-1.02500000E+01
 11
2.51001397E+02
 21
9.74999999E+00
  0
LINE
  8
0
 62
7
 10
2.19501397E+02
 20
-1.02500000E+01
 11
2.19501397E+02
 21
9.74999999E+00
  0
LINE
  8
0
 62
7
 10
1.88001397E+02
 20
-1.02500000E+01
 11
1.88001397E+02
 21
9.74999999E+00
  0
LINE
  8
0
 62
7
 10
1.56501397E+02
 20
-1.02500000E+01
 11
1.56501397E+02
 21
9.74999999E+00
  0
LINE
  8
0
 62
7
 10
1.25001397E+02
 20
-1.02500000E+01
 11
1.25001397E+02
 21
9.74999999E+00
  0
LINE
  8
0
 62
7
 10
9.35013972E+01
 20
-1.02500000E+01
 11
9.35013972E+01
 21
9.74999999E+00
  0
LINE
  8
0
 62
7
 10
6.20013972E+01
 20
-1.02500000E+01
 11
6.20013972E+01
 21
9.74999999E+00
  0
LINE
  8
0
 62
7
 10
3.05013972E+01
 20
-1.02500000E+01
 11
3.05013972E+01
 21
9.74999999E+00
  0
LINE
  8
0
 62
7
 10
-9.98602826E-01
 20
-1.02500000E+01
 11
-9.98602826E-01
 21
9.74999999E+00
  0
LINE
  8
0
 62
7
 10
-3.24986028E+01
 20
-1.02500000E+01
 11
-3.24986028E+01
 21
9.74999999E+00
  0
LINE
  8
0
 62
7
 10
-6.39986028E+01
 20
-1.02500000E+01
 11
-6.39986028E+01
 21
9.74999999E+00
  0
LINE
  8
0
 62
7
 10
-9.54986028E+01
 20
-1.02500000E+01
 11
-9.54986028E+01
 21
9.74999999E+00
  0
LINE
  8
0
 62
7
 10
-1.26998603E+02
 20
-1.02500000E+01
 11
-1.26998603E+02
 21
9.74999999E+00
  0
LINE
  8
0
 62
7
 10
-1.58498603E+02
 20
-1.02500000E+01
 11
-1.58498603E+02
 21
9.74999999E+00
  0
LINE
  8
0
 62
7
 10
-1.89998603E+02
 20
-1.02500000E+01
 11
-1.89998603E+02
 21
9.74999999E+00
  0
LINE
  8
0
 62
7
 10
-2.71898603E+02
 20
-2.50000000E-01
 11
2.82501397E+02
 21
-2.50000000E-01
  0
LINE
  8
0
 62
7
 10
-2.71898603E+02
 20
-1.02500000E+01
 11
-2.71898603E+02
 21
9.74999999E+00
  0
LINE
  8
0
 62
7
 10
-2.71898603E+02
 20
9.75000000E+00
 11
2.82501397E+02
 21
9.75000000E+00
  0
LINE
  8
0
 62
7
 10
-2.71898603E+02
 20
-1.02500000E+01
 11
2.82501397E+02
 21
-1.02500000E+01
  0
LINE
  8
0
 62
7
 10
-2.21498603E+02
 20
-1.02500000E+01
 11
-2.21498603E+02
 21
9.74999999E+00
  0
TEXT
  8
0
 62
7
 10
-2.64909540E+02
 20
1.59999990E+00
 40
6.30000019E+00
  1
STROKE
 41
1.00000000E+00
  7
MONOTXT
  0
TEXT
  8
0
 62
7
 10
-2.68059540E+02
 20
-8.40000009E+00
 40
6.30000019E+00
  1
STRETCH
 41
1.00000000E+00
  7
MONOTXT
  0
TEXT
  8
0
 62
7
 10
-3.18095414E+01
 20
1.45999999E+01
 40
6.30000019E+00
  1
STRETCH LIST
 41
1.05263158E+00
  7
MONOTXT
  0
TEXT
  8
0
 62
7
 10
2.57790460E+02
 20
1.45999999E+01
 40
6.30000019E+00
  1
(mm)
 41
1.00000000E+00
  7
MONOTXT
  0
LINE
  8
0
 62
2
 10
1.55414242E+02
 20
-2.32957509E+02
 11
1.76843914E+02
 21
-1.95840228E+02
  0
LINE
  8
0
  6
CENTER
 62
2
 10
2.30598402E+02
 20
-2.07057721E+02
 11
2.91385649E+02
 21
-2.07057721E+02
  0
LINE
  8
0
 62
7
 10
2.30598402E+02
 20
-2.04407727E+02
 11
2.38598402E+02
 21
-2.04407727E+02
  0
LINE
  8
0
 62
7
 10
2.30598402E+02
 20
-2.09707715E+02
 11
2.38598402E+02
 21
-2.09707715E+02
  0
LINE
  8
0
 62
7
 10
2.32098402E+02
 20
-2.03557736E+02
 11
2.38598402E+02
 21
-2.03557736E+02
  0
LINE
  8
0
 62
2
 10
3.26598402E+02
 20
-2.22377713E+02
 11
3.17598402E+02
 21
-2.22377713E+02
  0
LINE
  8
0
 62
7
 10
3.26598402E+02
 20
-2.21557706E+02
 11
3.17598402E+02
 21
-2.21557706E+02
  0
LINE
  8
0
 62
4
 10
3.26598402E+02
 20
-2.30557706E+02
 11
3.26598402E+02
 21
-2.17057706E+02
  0
LINE
  8
0
 62
4
 10
3.37598402E+02
 20
-2.30557706E+02
 11
3.37598402E+02
 21
-2.17057706E+02
  0
ARC
  8
0
 62
4
 10
3.11804174E+02
 20
-2.30557706E+02
 40
2.57942282E+01
 50
2.54444375E-13
 51
1.75879541E+01
  0
ARC
  8
0
 62
4
 10
3.52392631E+02
 20
-2.30557706E+02
 40
2.57942282E+01
 50
1.62412046E+02
 51
1.80000000E+02
  0
ARC
  8
0
 62
4
 10
3.33499124E+02
 20
-2.18866363E+02
 40
6.90072132E+00
 50
1.45615752E+02
 51
2.14384248E+02
  0
ARC
  8
0
 62
4
 10
3.30697681E+02
 20
-2.18866363E+02
 40
6.90072132E+00
 50
3.25615752E+02
 51
3.43842480E+01
  0
LINE
  8
0
 62
4
 10
3.27804174E+02
 20
-2.14969248E+02
 11
3.26598402E+02
 21
-2.17057706E+02
  0
LINE
  8
0
 62
4
 10
3.36392631E+02
 20
-2.14969248E+02
 11
3.37598402E+02
 21
-2.17057706E+02
  0
LINE
  8
0
 62
4
 10
3.36392631E+02
 20
-2.22763477E+02
 11
3.27804174E+02
 21
-2.22763477E+02
  0
LINE
  8
0
 62
4
 10
3.36392631E+02
 20
-2.14969248E+02
 11
3.27804174E+02
 21
-2.14969248E+02
  0
ARC
  8
0
 62
7
 10
3.16098402E+02
 20
-2.30557706E+02
 40
9.99998474E+00
 50
1.48211648E+02
 51
1.80000000E+02
  0
ARC
  8
0
 62
7
 10
2.98598433E+02
 20
-2.13057706E+02
 40
1.00000000E+00
 50
3.59721787E-05
 51
9.00000724E+01
  0
ARC
  8
0
 62
7
 10
2.68598402E+02
 20
-2.30557706E+02
 40
2.00000000E+00
 50
0.00000000E+00
 51
1.80000000E+02
  0
CIRCLE
  8
0
 62
7
 10
2.57598402E+02
 20
-2.19557706E+02
 40
3.75000000E+00
  0
CIRCLE
  8
0
 62
7
 10
2.79598387E+02
 20
-2.19557706E+02
 40
3.75000000E+00
  0
ARC
  8
0
 62
2
 10
2.68598402E+02
 20
-2.30557706E+02
 40
2.50000000E+00
 50
0.00000000E+00
 51
1.80000000E+02
  0
ARC
  8
0
 62
7
 10
2.68598402E+02
 20
-2.30557706E+02
 40
1.95000000E+01
 50
0.00000000E+00
 51
1.80000000E+02
  0
LINE
  8
0
 62
7
 10
3.17598402E+02
 20
-2.22377713E+02
 11
3.14598402E+02
 21
-2.22377713E+02
  0
LINE
  8
0
 62
7
 10
3.14598392E+02
 20
-2.27435263E+02
 11
3.11598400E+02
 21
-2.25289857E+02
  0
LINE
  8
0
 62
7
 10
3.14598409E+02
 20
-2.21557705E+02
 11
3.11598421E+02
 21
-2.20557719E+02
  0
LINE
  8
0
 62
7
 10
3.11598494E+02
 20
-2.20557721E+02
 11
3.04598494E+02
 21
-2.20557721E+02
  0
LINE
  8
0
 62
7
 10
3.46598344E+02
 20
-2.23057839E+02
 11
3.45098298E+02
 21
-2.21557838E+02
  0
LINE
  8
0
 62
2
 10
3.45918349E+02
 20
-2.22377713E+02
 11
3.37598402E+02
 21
-2.22377713E+02
  0
LINE
  8
0
 62
7
 10
3.45098341E+02
 20
-2.21557706E+02
 11
3.37598402E+02
 21
-2.21557706E+02
  0
LINE
  8
0
 62
7
 10
3.45098402E+02
 20
-2.30557706E+02
 11
3.45098402E+02
 21
-2.21557706E+02
  0
LINE
  8
0
 62
7
 10
3.46598402E+02
 20
-2.30557706E+02
 11
3.46598402E+02
 21
-2.23057858E+02
  0
LINE
  8
0
 62
7
 10
3.17598402E+02
 20
-2.30557706E+02
 11
3.17598402E+02
 21
-2.21557706E+02
  0
LINE
  8
0
 62
7
 10
3.07598433E+02
 20
-2.25289853E+02
 11
3.07598433E+02
 21
-2.30557706E+02
  0
LINE
  8
0
 62
7
 10
3.11598433E+02
 20
-2.20557675E+02
 11
3.11598433E+02
 21
-2.25289853E+02
  0
LINE
  8
0
 62
2
 10
3.11098399E+02
 20
-2.30557706E+02
 11
3.07598412E+02
 21
-2.25289860E+02
  0
LINE
  8
0
 62
2
 10
3.13632081E+02
 20
-2.26744220E+02
 11
3.11098379E+02
 21
-2.30557706E+02
  0
LINE
  8
0
 62
7
 10
3.11598494E+02
 20
-2.25289853E+02
 11
3.07598433E+02
 21
-2.25289853E+02
  0
LINE
  8
0
 62
7
 10
3.14598402E+02
 20
-2.21557706E+02
 11
3.14598402E+02
 21
-2.30557706E+02
  0
LINE
  8
0
  6
CENTER
 62
2
 10
2.68598402E+02
 20
-1.97500012E+02
 11
2.68598402E+02
 21
-2.30557706E+02
  0
LINE
  8
0
 62
7
 10
2.92098448E+02
 20
-2.12057706E+02
 11
2.92098448E+02
 21
-2.30557706E+02
  0
LINE
  8
0
 62
7
 10
2.92098539E+02
 20
-2.12057620E+02
 11
2.91598534E+02
 21
-2.11557614E+02
  0
LINE
  8
0
 62
7
 10
2.98598433E+02
 20
-2.12057706E+02
 11
2.92098418E+02
 21
-2.12057706E+02
  0
LINE
  8
0
 62
7
 10
3.04598416E+02
 20
-2.14057713E+02
 11
3.04098434E+02
 21
-2.13557716E+02
  0
LINE
  8
0
 62
7
 10
2.91598448E+02
 20
-2.11557706E+02
 11
2.89598418E+02
 21
-2.11557706E+02
  0
LINE
  8
0
 62
7
 10
3.04098463E+02
 20
-2.13557706E+02
 11
2.99589888E+02
 21
-2.13557706E+02
  0
LINE
  8
0
 62
7
 10
2.91598433E+02
 20
-2.11557706E+02
 11
2.91598433E+02
 21
-2.30557706E+02
  0
LINE
  8
0
 62
7
 10
2.57598379E+02
 20
-2.18114348E+02
 11
2.58848375E+02
 21
-2.18836026E+02
  0
LINE
  8
0
 62
7
 10
2.58848402E+02
 20
-2.18835995E+02
 11
2.58848402E+02
 21
-2.20279385E+02
  0
LINE
  8
0
 62
7
 10
2.58848276E+02
 20
-2.20279310E+02
 11
2.57598300E+02
 21
-2.21000976E+02
  0
LINE
  8
0
 62
7
 10
2.57598341E+02
 20
-2.21001035E+02
 11
2.56348385E+02
 21
-2.20279380E+02
  0
LINE
  8
0
 62
7
 10
2.56348402E+02
 20
-2.18835995E+02
 11
2.56348402E+02
 21
-2.20279385E+02
  0
LINE
  8
0
 62
7
 10
2.57598337E+02
 20
-2.18114236E+02
 11
2.56348322E+02
 21
-2.18835925E+02
  0
LINE
  8
0
  6
CENTER
 62
2
 10
2.57598402E+02
 20
-2.12980572E+02
 11
2.57598402E+02
 21
-2.25706898E+02
  0
LINE
  8
0
  6
CENTER
 62
2
 10
2.50686293E+02
 20
-2.19557706E+02
 11
2.63412642E+02
 21
-2.19557706E+02
  0
LINE
  8
0
 62
7
 10
2.79598324E+02
 20
-2.18114246E+02
 11
2.78348282E+02
 21
-2.18835950E+02
  0
LINE
  8
0
 62
7
 10
2.78348387E+02
 20
-2.18835995E+02
 11
2.78348387E+02
 21
-2.20279385E+02
  0
LINE
  8
0
 62
7
 10
2.78348363E+02
 20
-2.20279401E+02
 11
2.79598366E+02
 21
-2.21001082E+02
  0
LINE
  8
0
 62
7
 10
2.79598326E+02
 20
-2.21000993E+02
 11
2.80848289E+02
 21
-2.20279335E+02
  0
LINE
  8
0
 62
7
 10
2.80848387E+02
 20
-2.18835995E+02
 11
2.80848387E+02
 21
-2.20279385E+02
  0
LINE
  8
0
 62
7
 10
2.79598402E+02
 20
-2.18114307E+02
 11
2.80848418E+02
 21
-2.18835996E+02
  0
LINE
  8
0
  6
CENTER
 62
2
 10
2.79598387E+02
 20
-2.12980572E+02
 11
2.79598387E+02
 21
-2.25706898E+02
  0
LINE
  8
0
  6
CENTER
 62
2
 10
2.86510481E+02
 20
-2.19557706E+02
 11
2.73784132E+02
 21
-2.19557706E+02
  0
LINE
  8
0
 62
7
 10
3.04098433E+02
 20
-2.30557706E+02
 11
3.04098433E+02
 21
-2.13557706E+02
  0
LINE
  8
0
 62
7
 10
2.89598387E+02
 20
-1.99557706E+02
 11
2.38598433E+02
 21
-1.99557706E+02
  0
LINE
  8
0
 62
7
 10
2.89598448E+02
 20
-1.99557706E+02
 11
2.89598448E+02
 21
-2.30557706E+02
  0
LINE
  8
0
 62
7
 10
2.99598433E+02
 20
-2.30557706E+02
 11
2.99598433E+02
 21
-2.13057706E+02
  0
LINE
  8
0
 62
7
 10
3.04598433E+02
 20
-2.30557706E+02
 11
3.04598433E+02
 21
-2.14057690E+02
  0
LINE
  8
0
 62
7
 10
2.38598402E+02
 20
-1.99557706E+02
 11
2.38598402E+02
 21
-2.30557706E+02
  0
LINE
  8
0
  6
CENTER
 62
2
 10
3.50632704E+02
 20
-2.30557706E+02
 11
1.56799769E+02
 21
-2.30557706E+02
  0
LINE
  8
0
  6
CENTER
 62
2
 10
1.70367491E+02
 20
-2.07057721E+02
 11
2.15598402E+02
 21
-2.07057721E+02
  0
LINE
  8
0
 62
7
 10
1.71897466E+02
 20
-2.04407727E+02
 11
2.15598402E+02
 21
-2.04407727E+02
  0
LINE
  8
0
 62
7
 10
1.72388208E+02
 20
-2.03557736E+02
 11
1.99098402E+02
 21
-2.03557736E+02
  0
LINE
  8
0
 62
7
 10
1.68837517E+02
 20
-2.09707715E+02
 11
2.15598402E+02
 21
-2.09707715E+02
  0
LINE
  8
0
 62
2
 10
-3.75715581E+01
 20
-2.37387882E+02
 11
-1.68327145E+01
 21
-2.01467151E+02
  0
LINE
  8
0
 62
2
 10
-5.08515256E+01
 20
-1.15389460E+02
 11
-1.68327145E+01
 21
-5.64671507E+01
  0
LINE
  8
0
  6
CENTER
 62
2
 10
-7.62499945E+01
 20
-6.20577208E+01
 11
-1.36227188E+02
 21
-6.20577208E+01
  0
LINE
  8
0
  6
CENTER
 62
2
 10
-4.17499945E+01
 20
-8.55577056E+01
 11
-3.36281542E+01
 21
-8.55577056E+01
  0
LINE
  8
0
 62
7
 10
-8.42500000E+01
 20
-8.07434245E+01
 11
-8.42500000E+01
 21
-1.16557706E+02
  0
LINE
  8
0
  6
CENTER
 62
2
 10
-1.95306152E+02
 20
-8.55577056E+01
 11
-8.07499945E+01
 21
-8.55577056E+01
  0
LINE
  8
0
  6
CENTER
 62
2
 10
-1.96284210E+02
 20
-2.30557706E+02
 11
-3.36281542E+01
 21
-2.30557706E+02
  0
LINE
  8
0
 62
7
 10
-8.42500000E+01
 20
-5.45314452E+01
 11
-8.42500000E+01
 21
-6.67434245E+01
  0
LINE
  8
0
 62
7
 10
-8.42499084E+01
 20
-1.99557706E+02
 11
-8.42499084E+01
 21
-2.30557706E+02
  0
LINE
  8
0
  6
CENTER
 62
2
 10
-4.71958767E+01
 20
-1.09057690E+02
 11
-1.37896088E+02
 21
-1.09057690E+02
  0
LINE
  8
0
 62
7
 10
-1.80397145E+01
 20
-5.85577361E+01
 11
-6.12499945E+01
 21
-5.85577361E+01
  0
LINE
  8
0
  6
CENTER
 62
2
 10
-2.00604317E+01
 20
-6.20577208E+01
 11
-6.12499945E+01
 21
-6.20577208E+01
  0
LINE
  8
0
 62
7
 10
-2.15904064E+01
 20
-6.47077147E+01
 11
-6.12499945E+01
 21
-6.47077147E+01
  0
LINE
  8
0
 62
7
 10
-1.85304570E+01
 20
-5.94077269E+01
 11
-6.12499945E+01
 21
-5.94077269E+01
  0
LINE
  8
0
  6
CENTER
 62
2
 10
-2.00604317E+01
 20
-2.07057721E+02
 11
-1.37037155E+02
 21
-2.07057721E+02
  0
LINE
  8
0
 62
7
 10
-1.49749939E+02
 20
-6.85577208E+01
 11
-1.45249939E+02
 21
-6.85577208E+01
  0
LINE
  8
0
 62
7
 10
-1.50249939E+02
 20
-1.02057721E+02
 11
-1.50249939E+02
 21
-6.90577056E+01
  0
LINE
  8
0
 62
7
 10
-1.35249939E+02
 20
-1.16557706E+02
 11
-1.35249939E+02
 21
-5.45577208E+01
  0
LINE
  8
0
 62
7
 10
-1.45249939E+02
 20
-6.80577208E+01
 11
-1.45249939E+02
 21
-1.03057721E+02
  0
LINE
  8
0
 62
7
 10
-1.49749939E+02
 20
-1.02557706E+02
 11
-1.45249939E+02
 21
-1.02557706E+02
  0
LINE
  8
0
 62
7
 10
-1.50249834E+02
 20
-6.90578215E+01
 11
-1.49749832E+02
 21
-6.85578197E+01
  0
LINE
  8
0
 62
7
 10
-1.50249939E+02
 20
-2.30557706E+02
 11
-1.50249939E+02
 21
-2.14057690E+02
  0
LINE
  8
0
 62
7
 10
-1.50249962E+02
 20
-1.02057704E+02
 11
-1.49749951E+02
 21
-1.02557715E+02
  0
LINE
  8
0
 62
7
 10
-1.45249939E+02
 20
-2.30557706E+02
 11
-1.45249939E+02
 21
-2.13057706E+02
  0
LINE
  8
0
 62
7
 10
-1.49749939E+02
 20
-1.02557706E+02
 11
-1.49749939E+02
 21
-6.85577208E+01
  0
LINE
  8
0
 62
7
 10
-1.35249954E+02
 20
-1.99557706E+02
 11
-1.35249954E+02
 21
-2.30557706E+02
  0
LINE
  8
0
 62
7
 10
-1.35249985E+02
 20
-1.16557706E+02
 11
-8.42500000E+01
 21
-1.16557706E+02
  0
LINE
  8
0
 62
7
 10
-1.35249893E+02
 20
-1.99557706E+02
 11
-8.42499390E+01
 21
-1.99557706E+02
  0
LINE
  8
0
 62
7
 10
-1.49749939E+02
 20
-2.30557706E+02
 11
-1.49749939E+02
 21
-2.13557706E+02
  0
LINE
  8
0
  6
CENTER
 62
2
 10
-3.26213959E+02
 20
-2.19557736E+02
 11
-3.22749908E+02
 21
-2.19557736E+02
  0
LINE
  8
0
 62
7
 10
-3.25349884E+02
 20
-2.17957669E+02
 11
-3.25349884E+02
 21
-2.21157712E+02
  0
LINE
  8
0
  6
CENTER
 62
2
 10
-1.14250000E+02
 20
-4.80225035E+01
 11
-1.14250000E+02
 21
-9.08543364E+01
  0
LINE
  8
0
 62
7
 10
-3.23149872E+02
 20
-2.15807736E+02
 11
-3.22749908E+02
 21
-2.15807736E+02
  0
LINE
  8
0
 62
7
 10
-3.23149841E+02
 20
-2.23307736E+02
 11
-3.22749908E+02
 21
-2.23307736E+02
  0
LINE
  8
0
 62
7
 10
-3.22749878E+02
 20
-2.30557706E+02
 11
-3.22749878E+02
 21
-2.11057690E+02
  0
LINE
  8
0
 62
7
 10
-3.22749908E+02
 20
-2.11057706E+02
 11
-3.18749939E+02
 21
-2.11057706E+02
  0
LINE
  8
0
 62
7
 10
-1.07000000E+02
 20
-5.01577727E+01
 11
-1.07000000E+02
 21
-5.05577056E+01
  0
LINE
  8
0
  6
CENTER
 62
2
 10
-1.32161987E+02
 20
-2.19557706E+02
 11
-1.19435638E+02
 21
-2.19557706E+02
  0
LINE
  8
0
  6
CENTER
 62
2
 10
-1.25249893E+02
 20
-2.12980572E+02
 11
-1.25249893E+02
 21
-2.25706898E+02
  0
LINE
  8
0
  6
DASHED
 62
7
 10
-1.25249908E+02
 20
-2.18114307E+02
 11
-1.26499924E+02
 21
-2.18835996E+02
  0
LINE
  8
0
  6
DASHED
 62
7
 10
-1.26499893E+02
 20
-2.18835995E+02
 11
-1.26499893E+02
 21
-2.20279385E+02
  0
LINE
  8
0
  6
DASHED
 62
7
 10
-1.25249832E+02
 20
-2.21000993E+02
 11
-1.26499795E+02
 21
-2.20279335E+02
  0
LINE
  8
0
  6
DASHED
 62
7
 10
-1.23999869E+02
 20
-2.20279401E+02
 11
-1.25249872E+02
 21
-2.21001082E+02
  0
LINE
  8
0
  6
DASHED
 62
7
 10
-1.23999893E+02
 20
-2.18835995E+02
 11
-1.23999893E+02
 21
-2.20279385E+02
  0
LINE
  8
0
  6
DASHED
 62
7
 10
-1.25249830E+02
 20
-2.18114246E+02
 11
-1.23999788E+02
 21
-2.18835950E+02
  0
LINE
  8
0
  6
CENTER
 62
2
 10
-9.63377991E+01
 20
-2.19557706E+02
 11
-1.09064148E+02
 21
-2.19557706E+02
  0
LINE
  8
0
  6
CENTER
 62
2
 10
-1.03249908E+02
 20
-2.12980572E+02
 11
-1.03249908E+02
 21
-2.25706898E+02
  0
LINE
  8
0
  6
DASHED
 62
7
 10
-1.03249843E+02
 20
-2.18114236E+02
 11
-1.01999828E+02
 21
-2.18835925E+02
  0
LINE
  8
0
  6
DASHED
 62
7
 10
-1.01999908E+02
 20
-2.18835995E+02
 11
-1.01999908E+02
 21
-2.20279385E+02
  0
LINE
  8
0
  6
DASHED
 62
7
 10
-1.03249848E+02
 20
-2.21001035E+02
 11
-1.01999891E+02
 21
-2.20279380E+02
  0
LINE
  8
0
  6
DASHED
 62
7
 10
-1.04499782E+02
 20
-2.20279310E+02
 11
-1.03249806E+02
 21
-2.21000976E+02
  0
LINE
  8
0
  6
DASHED
 62
7
 10
-1.04499908E+02
 20
-2.18835995E+02
 11
-1.04499908E+02
 21
-2.20279385E+02
  0
LINE
  8
0
  6
DASHED
 62
7
 10
-1.03249885E+02
 20
-2.18114348E+02
 11
-1.04499881E+02
 21
-2.18836026E+02
  0
LINE
  8
0
 62
7
 10
-9.95000000E+01
 20
-5.01577727E+01
 11
-9.95000000E+01
 21
-5.05577056E+01
  0
LINE
  8
0
  6
CENTER
 62
2
 10
-2.94749908E+02
 20
-1.97805310E+02
 11
-2.94749908E+02
 21
-2.17057706E+02
  0
LINE
  8
0
 62
7
 10
-1.01649979E+02
 20
-4.79576995E+01
 11
-1.04849991E+02
 21
-4.79576995E+01
  0
LINE
  8
0
  6
CENTER
 62
2
 10
-1.03250000E+02
 20
-4.70936553E+01
 11
-1.03250000E+02
 21
-5.05577056E+01
  0
LINE
  8
0
 62
7
 10
-1.33749985E+02
 20
-5.05577056E+01
 11
-9.47499847E+01
 21
-5.05577056E+01
  0
LINE
  8
0
  6
CENTER
 62
2
 10
-1.25250000E+02
 20
-4.70936553E+01
 11
-1.25250000E+02
 21
-5.05577056E+01
  0
LINE
  8
0
 62
7
 10
-1.29000000E+02
 20
-5.01577117E+01
 11
-1.29000000E+02
 21
-5.05577056E+01
  0
LINE
  8
0
 62
7
 10
-1.26850006E+02
 20
-4.79576995E+01
 11
-1.23649979E+02
 21
-4.79576995E+01
  0
LINE
  8
0
 62
7
 10
-1.21500000E+02
 20
-5.01577727E+01
 11
-1.21500000E+02
 21
-5.05577056E+01
  0
LINE
  8
0
 62
7
 10
-1.33750000E+02
 20
-5.05577056E+01
 11
-1.33750000E+02
 21
-5.45577056E+01
  0
LINE
  8
0
 62
7
 10
-9.47499847E+01
 20
-5.05577056E+01
 11
-9.47499847E+01
 21
-5.45577056E+01
  0
LINE
  8
0
 62
7
 10
-3.18749939E+02
 20
-2.03057690E+02
 11
-3.18749939E+02
 21
-2.30557706E+02
  0
LINE
  8
0
  6
CENTER
 62
2
 10
-2.87749878E+02
 20
-1.96519833E+02
 11
-2.87749878E+02
 21
-2.30557706E+02
  0
LINE
  8
0
  6
CENTER
 62
2
 10
-3.24518555E+02
 20
-2.30557706E+02
 11
-2.53757599E+02
 21
-2.30557706E+02
  0
LINE
  8
0
  6
CENTER
 62
2
 10
-3.11249939E+02
 20
-1.98655057E+02
 11
-3.11249939E+02
 21
-2.14942044E+02
  0
LINE
  8
0
  6
CENTER
 62
2
 10
-3.19839844E+02
 20
-2.07057614E+02
 11
-3.05172943E+02
 21
-2.07057614E+02
  0
LINE
  8
0
  6
CENTER
 62
2
 10
-2.64249969E+02
 20
-1.98669629E+02
 11
-2.64249969E+02
 21
-2.14634045E+02
  0
LINE
  8
0
  6
CENTER
 62
2
 10
-2.55743286E+02
 20
-2.07057660E+02
 11
-2.70664429E+02
 21
-2.07057660E+02
  0
LINE
  8
0
 62
7
 10
-2.56749939E+02
 20
-2.03057690E+02
 11
-2.56749939E+02
 21
-2.30557706E+02
  0
LINE
  8
0
 62
7
 10
-2.60249908E+02
 20
-1.99557690E+02
 11
-3.15249908E+02
 21
-1.99557690E+02
  0
LINE
  8
0
  6
CENTER
 62
2
 10
-9.12500305E+01
 20
-1.05028836E+02
 11
-9.12500305E+01
 21
-8.84398162E+01
  0
LINE
  8
0
  6
CENTER
 62
2
 10
-1.00095276E+02
 20
-9.75577056E+01
 11
-8.26207581E+01
 21
-9.75577056E+01
  0
LINE
  8
0
  6
CENTER
 62
2
 10
-1.23660110E+02
 20
-7.85577818E+01
 11
-1.04301498E+02
 21
-7.85577818E+01
  0
LINE
  8
0
 62
7
 10
-1.37249954E+02
 20
-1.04557721E+02
 11
-1.35249939E+02
 21
-1.04557721E+02
  0
LINE
  8
0
 62
7
 10
-1.37249939E+02
 20
-2.11557706E+02
 11
-1.37249939E+02
 21
-2.30557706E+02
  0
LINE
  8
0
 62
7
 10
-1.49749969E+02
 20
-2.13557706E+02
 11
-1.45241394E+02
 21
-2.13557706E+02
  0
LINE
  8
0
 62
7
 10
-1.37249954E+02
 20
-2.11557706E+02
 11
-1.35249924E+02
 21
-2.11557706E+02
  0
LINE
  8
0
 62
7
 10
-8.95179004E+01
 20
-9.75576495E+01
 11
-9.03839395E+01
 21
-9.60576166E+01
  0
LINE
  8
0
 62
7
 10
-9.03839874E+01
 20
-9.60576903E+01
 11
-9.21159821E+01
 21
-9.60576903E+01
  0
LINE
  8
0
 62
7
 10
-9.29819690E+01
 20
-9.75577811E+01
 11
-9.21159604E+01
 21
-9.60578011E+01
  0
LINE
  8
0
 62
7
 10
-9.21159677E+01
 20
-9.90577411E+01
 11
-9.29819916E+01
 21
-9.75577346E+01
  0
LINE
  8
0
 62
7
 10
-9.03839874E+01
 20
-9.90577208E+01
 11
-9.21159821E+01
 21
-9.90577208E+01
  0
LINE
  8
0
 62
7
 10
-8.95178991E+01
 20
-9.75577658E+01
 11
-9.03839344E+01
 21
-9.90577921E+01
  0
LINE
  8
0
  6
CENTER
 62
2
 10
-2.75749878E+02
 20
-1.97083417E+02
 11
-2.75749878E+02
 21
-2.22895260E+02
  0
LINE
  8
0
 62
7
 10
-1.35250000E+02
 20
-5.45577056E+01
 11
-8.42500000E+01
 21
-5.45577056E+01
  0
LINE
  8
0
 62
7
 10
-1.44249939E+02
 20
-1.04057706E+02
 11
-1.37749939E+02
 21
-1.04057706E+02
  0
LINE
  8
0
 62
7
 10
-1.50249922E+02
 20
-2.14057713E+02
 11
-1.49749940E+02
 21
-2.13557716E+02
  0
LINE
  8
0
 62
7
 10
-1.37249954E+02
 20
-6.65577056E+01
 11
-1.37249954E+02
 21
-1.04557721E+02
  0
LINE
  8
0
 62
7
 10
-1.44249939E+02
 20
-2.12057706E+02
 11
-1.37749924E+02
 21
-2.12057706E+02
  0
LINE
  8
0
 62
7
 10
-1.37749984E+02
 20
-1.04057714E+02
 11
-1.37249994E+02
 21
-1.04557704E+02
  0
LINE
  8
0
 62
7
 10
-1.37749939E+02
 20
-6.70577208E+01
 11
-1.37749939E+02
 21
-1.04057706E+02
  0
LINE
  8
0
 62
7
 10
-1.37750046E+02
 20
-2.12057620E+02
 11
-1.37250040E+02
 21
-2.11557614E+02
  0
LINE
  8
0
 62
7
 10
-1.37749954E+02
 20
-2.12057706E+02
 11
-1.37749954E+02
 21
-2.30557706E+02
  0
LINE
  8
0
 62
7
 10
-1.44249939E+02
 20
-6.70577208E+01
 11
-1.37749939E+02
 21
-6.70577208E+01
  0
LINE
  8
0
 62
7
 10
-1.37750049E+02
 20
-6.70576270E+01
 11
-1.37250049E+02
 21
-6.65576272E+01
  0
LINE
  8
0
 62
7
 10
-1.37249954E+02
 20
-6.65577056E+01
 11
-1.35249939E+02
 21
-6.65577056E+01
  0
LINE
  8
0
 62
7
 10
-2.64250042E+02
 20
-2.03593476E+02
 11
-2.67250042E+02
 21
-2.05325516E+02
  0
LINE
  8
0
 62
7
 10
-2.67250000E+02
 20
-2.05325589E+02
 11
-2.67250000E+02
 21
-2.08789715E+02
  0
LINE
  8
0
 62
7
 10
-2.64249982E+02
 20
-2.10521791E+02
 11
-2.67250021E+02
 21
-2.08789728E+02
  0
LINE
  8
0
 62
7
 10
-2.61250071E+02
 20
-2.08789609E+02
 11
-2.64250071E+02
 21
-2.10521650E+02
  0
LINE
  8
0
 62
7
 10
-2.61249969E+02
 20
-2.05325589E+02
 11
-2.61249969E+02
 21
-2.08789715E+02
  0
LINE
  8
0
 62
7
 10
-2.64249969E+02
 20
-2.03593576E+02
 11
-2.61249982E+02
 21
-2.05325608E+02
  0
LINE
  8
0
 62
7
 10
-3.11250002E+02
 20
-2.03593436E+02
 11
-3.14250015E+02
 21
-2.05325484E+02
  0
LINE
  8
0
 62
7
 10
-3.14249939E+02
 20
-2.05325574E+02
 11
-3.14249939E+02
 21
-2.08789685E+02
  0
LINE
  8
0
 62
7
 10
-3.11249936E+02
 20
-2.10521729E+02
 11
-3.14249949E+02
 21
-2.08789681E+02
  0
LINE
  8
0
 62
7
 10
-3.08250005E+02
 20
-2.08789554E+02
 11
-3.11250018E+02
 21
-2.10521602E+02
  0
LINE
  8
0
 62
7
 10
-3.08249908E+02
 20
-2.05325574E+02
 11
-3.08249908E+02
 21
-2.08789685E+02
  0
LINE
  8
0
 62
7
 10
-3.11249940E+02
 20
-2.03593543E+02
 11
-3.08249953E+02
 21
-2.05325575E+02
  0
LINE
  8
0
  6
CENTER
 62
2
 10
-1.14249908E+02
 20
-1.97500012E+02
 11
-1.14249908E+02
 21
-2.30557706E+02
  0
LINE
  8
0
 62
7
 10
-1.60249908E+02
 20
-2.21557706E+02
 11
-1.60249908E+02
 21
-2.30557706E+02
  0
LINE
  8
0
 62
7
 10
-1.57250000E+02
 20
-2.25289853E+02
 11
-1.53249939E+02
 21
-2.25289853E+02
  0
LINE
  8
0
 62
2
 10
-1.59283587E+02
 20
-2.26744220E+02
 11
-1.56749885E+02
 21
-2.30557706E+02
  0
LINE
  8
0
 62
2
 10
-1.56749906E+02
 20
-2.30557706E+02
 11
-1.53249918E+02
 21
-2.25289860E+02
  0
LINE
  8
0
 62
7
 10
-1.57249939E+02
 20
-2.20557675E+02
 11
-1.57249939E+02
 21
-2.25289853E+02
  0
LINE
  8
0
 62
7
 10
-1.53249939E+02
 20
-2.25289853E+02
 11
-1.53249939E+02
 21
-2.30557706E+02
  0
LINE
  8
0
 62
7
 10
-1.63249908E+02
 20
-2.30557706E+02
 11
-1.63249908E+02
 21
-2.21557706E+02
  0
LINE
  8
0
 62
7
 10
-1.92249908E+02
 20
-2.30557706E+02
 11
-1.92249908E+02
 21
-2.23057858E+02
  0
LINE
  8
0
 62
7
 10
-1.90749908E+02
 20
-2.30557706E+02
 11
-1.90749908E+02
 21
-2.21557706E+02
  0
LINE
  8
0
 62
7
 10
-1.90749847E+02
 20
-2.21557706E+02
 11
-1.83249908E+02
 21
-2.21557706E+02
  0
LINE
  8
0
 62
2
 10
-1.91569855E+02
 20
-2.22377713E+02
 11
-1.83249908E+02
 21
-2.22377713E+02
  0
LINE
  8
0
 62
7
 10
-1.92249850E+02
 20
-2.23057839E+02
 11
-1.90749804E+02
 21
-2.21557838E+02
  0
LINE
  8
0
 62
7
 10
-1.57250000E+02
 20
-2.20557721E+02
 11
-1.50250000E+02
 21
-2.20557721E+02
  0
LINE
  8
0
 62
7
 10
-1.60249915E+02
 20
-2.21557705E+02
 11
-1.57249927E+02
 21
-2.20557719E+02
  0
LINE
  8
0
 62
7
 10
-1.60249898E+02
 20
-2.27435263E+02
 11
-1.57249906E+02
 21
-2.25289857E+02
  0
LINE
  8
0
 62
7
 10
-1.63249908E+02
 20
-2.22377713E+02
 11
-1.60249908E+02
 21
-2.22377713E+02
  0
LINE
  8
0
 62
7
 10
-1.57249908E+02
 20
-7.70577056E+01
 11
-1.57249908E+02
 21
-9.40577056E+01
  0
LINE
  8
0
 62
7
 10
-1.51749969E+02
 20
-9.55576903E+01
 11
-1.50249969E+02
 21
-9.55576903E+01
  0
LINE
  8
0
 62
7
 10
-1.51749908E+02
 20
-7.55576750E+01
 11
-1.50249939E+02
 21
-7.55576750E+01
  0
LINE
  8
0
 62
7
 10
-1.63249908E+02
 20
-9.45577056E+01
 11
-1.63249908E+02
 21
-7.65577056E+01
  0
LINE
  8
0
 62
7
 10
-1.92249908E+02
 20
-9.30576750E+01
 11
-1.92249908E+02
 21
-7.80578581E+01
  0
LINE
  8
0
 62
7
 10
-1.90749908E+02
 20
-9.45577056E+01
 11
-1.90749908E+02
 21
-7.65577056E+01
  0
LINE
  8
0
 62
7
 10
-1.90749847E+02
 20
-7.65577056E+01
 11
-1.83250000E+02
 21
-7.65577056E+01
  0
LINE
  8
0
 62
2
 10
-1.91569855E+02
 20
-7.73777129E+01
 11
-1.83250000E+02
 21
-7.73777129E+01
  0
LINE
  8
0
 62
7
 10
-1.92249861E+02
 20
-7.80578478E+01
 11
-1.90749815E+02
 21
-7.65578475E+01
  0
LINE
  8
0
 62
7
 10
-1.90749847E+02
 20
-9.45577056E+01
 11
-1.83250000E+02
 21
-9.45577056E+01
  0
LINE
  8
0
 62
2
 10
-1.91569855E+02
 20
-9.37376982E+01
 11
-1.83250000E+02
 21
-9.37376982E+01
  0
LINE
  8
0
 62
7
 10
-1.92249930E+02
 20
-9.30576387E+01
 11
-1.90749894E+02
 21
-9.45576282E+01
  0
LINE
  8
0
 62
7
 10
-1.60249908E+02
 20
-9.40577056E+01
 11
-1.60249908E+02
 21
-7.70577056E+01
  0
LINE
  8
0
 62
7
 10
-1.60249908E+02
 20
-9.40577056E+01
 11
-1.53249969E+02
 21
-9.40577056E+01
  0
LINE
  8
0
 62
7
 10
-1.60249908E+02
 20
-7.70577056E+01
 11
-1.53249969E+02
 21
-7.70577056E+01
  0
LINE
  8
0
 62
7
 10
-1.53249967E+02
 20
-9.40577008E+01
 11
-1.51749997E+02
 21
-9.55576700E+01
  0
LINE
  8
0
 62
7
 10
-1.53250001E+02
 20
-7.70576475E+01
 11
-1.51749971E+02
 21
-7.55576176E+01
  0
LINE
  8
0
 62
7
 10
-1.63249908E+02
 20
-7.73777129E+01
 11
-1.60249908E+02
 21
-7.73777129E+01
  0
LINE
  8
0
 62
7
 10
-1.63249908E+02
 20
-9.37376982E+01
 11
-1.60249908E+02
 21
-9.37376982E+01
  0
CIRCLE
  8
0
 62
2
 10
-3.11249939E+02
 20
-2.07057614E+02
 40
3.00000000E+00
  0
CIRCLE
  8
0
 62
7
 10
-2.64249847E+02
 20
-2.07057690E+02
 40
5.00000000E+00
  0
CIRCLE
  8
0
 62
7
 10
-2.64249847E+02
 20
-2.07057690E+02
 40
4.50000000E+00
  0
CIRCLE
  8
0
 62
7
 10
-3.11249939E+02
 20
-2.07057629E+02
 40
4.50000000E+00
  0
CIRCLE
  8
0
 62
7
 10
-3.11249939E+02
 20
-2.07057629E+02
 40
5.00000000E+00
  0
CIRCLE
  8
0
 62
2
 10
-2.64249847E+02
 20
-2.07057614E+02
 40
3.00000000E+00
  0
ARC
  8
0
 62
7
 10
-3.22872406E+02
 20
-2.18292264E+02
 40
2.50000000E+00
 50
8.99999956E+01
 51
1.72308570E+02
  0
ARC
  8
0
  6
DASHED
 62
7
 10
-1.14249908E+02
 20
-2.30557706E+02
 40
1.95000000E+01
 50
0.00000000E+00
 51
1.80000000E+02
  0
ARC
  8
0
  6
DASHED
 62
2
 10
-1.14249908E+02
 20
-2.30557706E+02
 40
2.50000000E+00
 50
0.00000000E+00
 51
1.80000000E+02
  0
CIRCLE
  8
0
  6
DASHED
 62
7
 10
-1.25249893E+02
 20
-2.19557706E+02
 40
3.75000000E+00
  0
CIRCLE
  8
0
  6
DASHED
 62
7
 10
-1.03249908E+02
 20
-2.19557706E+02
 40
3.75000000E+00
  0
ARC
  8
0
 62
7
 10
-3.22872406E+02
 20
-2.20823163E+02
 40
2.50000000E+00
 50
1.72308570E+02
 51
2.63627161E+02
  0
ARC
  8
0
  6
DASHED
 62
7
 10
-1.14249908E+02
 20
-2.30557706E+02
 40
2.00000000E+00
 50
0.00000000E+00
 51
1.80000000E+02
  0
ARC
  8
0
 62
7
 10
-2.87749908E+02
 20
-2.30557698E+02
 40
1.90000000E+01
 50
0.00000000E+00
 51
1.80000023E+02
  0
ARC
  8
0
 62
7
 10
-2.87749908E+02
 20
-2.30557698E+02
 40
1.70000000E+01
 50
0.00000000E+00
 51
1.80000026E+02
  0
ARC
  8
0
 62
7
 10
-2.87749908E+02
 20
-2.30557698E+02
 40
1.65000000E+01
 50
0.00000000E+00
 51
1.80000027E+02
  0
ARC
  8
0
 62
7
 10
-1.04515442E+02
 20
-5.04352233E+01
 40
2.50000000E+00
 50
8.23085878E+01
 51
1.73627166E+02
  0
ARC
  8
0
 62
7
 10
-1.23984558E+02
 20
-5.04352233E+01
 40
2.50000000E+00
 50
6.37281240E+00
 51
9.76913896E+01
  0
ARC
  8
0
 62
7
 10
-1.01984558E+02
 20
-5.04352233E+01
 40
2.50000000E+00
 50
0.00000000E+00
 51
8.23085741E+01
  0
ARC
  8
0
 62
7
 10
-1.26515427E+02
 20
-5.04352233E+01
 40
2.50000000E+00
 50
9.76913759E+01
 51
1.79999951E+02
  0
ARC
  8
0
 62
7
 10
-2.60249908E+02
 20
-2.03057690E+02
 40
3.50000000E+00
 50
0.00000000E+00
 51
8.99999818E+01
  0
ARC
  8
0
 62
7
 10
-3.15249939E+02
 20
-2.03057690E+02
 40
3.50000000E+00
 50
8.99999818E+01
 51
1.79999964E+02
  0
ARC
  8
0
 62
7
 10
-9.12500305E+01
 20
-9.75577056E+01
 40
5.00000000E+00
 50
0.00000000E+00
 51
1.79999964E+02
  0
ARC
  8
0
 62
7
 10
-9.12500305E+01
 20
-9.75577056E+01
 40
5.00000000E+00
 50
1.79999977E+02
 51
1.00179127E-05
  0
CIRCLE
  8
0
 62
7
 10
-9.12500305E+01
 20
-9.75577056E+01
 40
2.59999990E+00
  0
ARC
  8
0
 62
7
 10
-1.44249939E+02
 20
-2.13057706E+02
 40
1.00000000E+00
 50
8.99999274E+01
 51
1.79999964E+02
  0
ARC
  8
0
 62
7
 10
-1.44249969E+02
 20
-1.03057706E+02
 40
1.00000000E+00
 50
1.79999977E+02
 51
2.70000028E+02
  0
ARC
  8
0
 62
7
 10
-1.44249969E+02
 20
-6.80577056E+01
 40
1.00000000E+00
 50
8.99999274E+01
 51
1.79999964E+02
  0
ARC
  8
0
 62
7
 10
-1.61749908E+02
 20
-2.30557706E+02
 40
9.99998474E+00
 50
0.00000000E+00
 51
3.17883527E+01
  0
ARC
  8
0
 62
7
 10
-2.87749878E+02
 20
-2.30557706E+02
 40
8.99999237E+00
 50
0.00000000E+00
 51
1.80000000E+02
  0
ARC
  8
0
 62
2
 10
-2.87749878E+02
 20
-2.30557706E+02
 40
8.18000031E+00
 50
0.00000000E+00
 51
1.80000000E+02
  0
CIRCLE
  8
0
 62
2
 10
-1.14250000E+02
 20
-7.85577818E+01
 40
8.33099937E+00
  0
CIRCLE
  8
0
 62
7
 10
-1.14250000E+02
 20
-7.85577818E+01
 40
7.45249987E+00
  0
LINE
  8
0
 62
4
 10
-1.72250000E+02
 20
-7.20577056E+01
 11
-1.72250000E+02
 21
-9.90577056E+01
  0
LINE
  8
0
 62
4
 10
-1.83250000E+02
 20
-7.20577056E+01
 11
-1.83250000E+02
 21
-9.90577056E+01
  0
LINE
  8
0
 62
4
 10
-1.72250000E+02
 20
-7.20577056E+01
 11
-1.83250000E+02
 21
-7.20577056E+01
  0
LINE
  8
0
 62
4
 10
-1.72250000E+02
 20
-9.90577056E+01
 11
-1.83250000E+02
 21
-9.90577056E+01
  0
LINE
  8
0
 62
4
 10
-1.73455771E+02
 20
-8.55577056E+01
 11
-1.82044229E+02
 21
-8.55577056E+01
  0
ARC
  8
0
 62
4
 10
-1.63753607E+02
 20
-9.23077056E+01
 40
1.94963929E+01
 50
1.59743842E+02
 51
2.00256158E+02
  0
ARC
  8
0
 62
4
 10
-1.63753607E+02
 20
-7.88077056E+01
 40
1.94963929E+01
 50
1.59743842E+02
 51
2.00256158E+02
  0
ARC
  8
0
 62
4
 10
-1.91746393E+02
 20
-7.88077056E+01
 40
1.94963929E+01
 50
3.39743842E+02
 51
2.02561580E+01
  0
ARC
  8
0
 62
4
 10
-1.91746393E+02
 20
-9.23077056E+01
 40
1.94963929E+01
 50
3.39743842E+02
 51
2.02561580E+01
  0
LINE
  8
0
 62
4
 10
-1.82044137E+02
 20
-2.14969248E+02
 11
-1.73455680E+02
 21
-2.14969248E+02
  0
LINE
  8
0
 62
4
 10
-1.82044137E+02
 20
-2.22763477E+02
 11
-1.73455680E+02
 21
-2.22763477E+02
  0
LINE
  8
0
 62
4
 10
-1.82044137E+02
 20
-2.14969248E+02
 11
-1.83249908E+02
 21
-2.17057706E+02
  0
LINE
  8
0
 62
4
 10
-1.73455680E+02
 20
-2.14969248E+02
 11
-1.72249908E+02
 21
-2.17057706E+02
  0
ARC
  8
0
 62
4
 10
-1.76349187E+02
 20
-2.18866363E+02
 40
6.90072132E+00
 50
1.45615752E+02
 51
2.14384248E+02
  0
ARC
  8
0
 62
4
 10
-1.79150630E+02
 20
-2.18866363E+02
 40
6.90072132E+00
 50
3.25615752E+02
 51
3.43842480E+01
  0
ARC
  8
0
 62
4
 10
-1.98044137E+02
 20
-2.30557706E+02
 40
2.57942282E+01
 50
2.54444375E-13
 51
1.75879541E+01
  0
ARC
  8
0
 62
4
 10
-1.57455680E+02
 20
-2.30557706E+02
 40
2.57942282E+01
 50
1.62412046E+02
 51
1.80000000E+02
  0
LINE
  8
0
 62
4
 10
-1.83249908E+02
 20
-2.30557706E+02
 11
-1.83249908E+02
 21
-2.17057706E+02
  0
LINE
  8
0
 62
4
 10
-1.72249908E+02
 20
-2.30557706E+02
 11
-1.72249908E+02
 21
-2.17057706E+02
  0
ARC
  8
0
 62
4
 10
-2.87749878E+02
 20
-2.30557706E+02
 40
1.35000000E+01
 50
0.00000000E+00
 51
1.80000000E+02
  0
LINE
  8
0
 62
4
 10
-2.87749878E+02
 20
-2.14969248E+02
 11
-3.01249878E+02
 21
-2.22763477E+02
  0
LINE
  8
0
 62
4
 10
-3.01249878E+02
 20
-2.22763477E+02
 11
-3.01249878E+02
 21
-2.30557706E+02
  0
LINE
  8
0
 62
4
 10
-2.74249878E+02
 20
-2.30557706E+02
 11
-2.74249878E+02
 21
-2.22763477E+02
  0
LINE
  8
0
 62
4
 10
-2.74249878E+02
 20
-2.22763477E+02
 11
-2.87749878E+02
 21
-2.14969248E+02
  0
LINE
  8
0
 62
7
 10
-1.72249908E+02
 20
-2.21557706E+02
 11
-1.63249908E+02
 21
-2.21557706E+02
  0
LINE
  8
0
 62
2
 10
-1.72249908E+02
 20
-2.22377713E+02
 11
-1.63249908E+02
 21
-2.22377713E+02
  0
LINE
  8
0
 62
7
 10
-1.72250000E+02
 20
-9.45577056E+01
 11
-1.63249908E+02
 21
-9.45577056E+01
  0
LINE
  8
0
 62
2
 10
-1.72250000E+02
 20
-9.37376982E+01
 11
-1.63249908E+02
 21
-9.37376982E+01
  0
LINE
  8
0
 62
7
 10
-1.72250000E+02
 20
-7.65577056E+01
 11
-1.63249908E+02
 21
-7.65577056E+01
  0
LINE
  8
0
 62
2
 10
-1.72250000E+02
 20
-7.73777129E+01
 11
-1.63249908E+02
 21
-7.73777129E+01
  0
LINE
  8
0
 62
7
 10
-7.62499945E+01
 20
-5.85577361E+01
 11
-8.42500000E+01
 21
-5.85577361E+01
  0
LINE
  8
0
 62
7
 10
-7.62499945E+01
 20
-5.94077269E+01
 11
-8.42500000E+01
 21
-5.94077269E+01
  0
LINE
  8
0
 62
7
 10
-7.62499945E+01
 20
-6.47077147E+01
 11
-8.42500000E+01
 21
-6.47077147E+01
  0
LINE
  8
0
 62
7
 10
-4.56659020E+01
 20
-1.06407696E+02
 11
-8.42500000E+01
 21
-1.06407696E+02
  0
LINE
  8
0
 62
7
 10
-4.87258514E+01
 20
-1.11707684E+02
 11
-8.42500000E+01
 21
-1.11707684E+02
  0
LINE
  8
0
 62
7
 10
-4.92165939E+01
 20
-1.12557675E+02
 11
-8.42500000E+01
 21
-1.12557675E+02
  0
LINE
  8
0
 62
7
 10
-1.85304570E+01
 20
-2.04407727E+02
 11
-8.42499084E+01
 21
-2.04407727E+02
  0
LINE
  8
0
 62
7
 10
-1.80397145E+01
 20
-2.03557736E+02
 11
-8.42499084E+01
 21
-2.03557736E+02
  0
LINE
  8
0
 62
7
 10
-2.15904064E+01
 20
-2.09707715E+02
 11
-8.42499084E+01
 21
-2.09707715E+02
  0
TEXT
  8
0
 10
-6.61502877E+01
 20
2.39478397E+02
 40
6.30000019E+00
  1
STRETCH LINE
 41
1.05263174E+00
  7
MONOTXT
  0
LINE
  8
0
 62
7
 10
2.79799927E+02
 20
-2.56750000E+02
 11
3.99799805E+02
 21
-2.56750000E+02
  0
LINE
  8
0
 62
7
 10
2.79799927E+02
 20
-2.56750000E+02
 11
2.79799927E+02
 21
-2.76750000E+02
  0
TEXT
  8
0
 62
7
 10
2.87585240E+02
 20
-2.71250000E+02
 40
9.00000000E+00
  1
KOGANEI CORP.
 41
1.04838710E+00
  7
MONOTXT
  0
TEXT
  8
0
 62
7
 10
3.15499641E+02
 20
2.63100000E+02
 40
6.30000019E+00
  1
Ver. 1.0
 41
1.08108124E+00
  7
MONOTXT
  0
LINE
  8
0
 62
7
 10
2.79799927E+02
 20
2.56250000E+02
 11
3.99799805E+02
 21
2.56250000E+02
  0
LINE
  8
0
 62
7
 10
2.79799927E+02
 20
2.76250000E+02
 11
2.79799927E+02
 21
2.56250000E+02
  0
TEXT
  8
0
 62
7
 10
-3.85600562E+02
 20
2.38100000E+02
 40
6.30000019E+00
  1
MODEL:DDAK-RL50*75
 41
1.00000015E+00
  7
MONOTXT
  0
LINE
  8
0
 62
7
 10
-3.99250000E+02
 20
2.56250000E+02
 11
-2.79250000E+02
 21
2.56250000E+02
  0
LINE
  8
0
 62
7
 10
-2.79250000E+02
 20
2.76250000E+02
 11
-2.79250000E+02
 21
2.56250000E+02
  0
TEXT
  8
0
 62
7
 10
-3.91900291E+02
 20
2.63100000E+02
 40
6.30000019E+00
  1
NEW DYNA CYLINDER
 41
1.07594953E+00
  7
MONOTXT
  0
LINE
  8
0
 62
7
 10
-3.99250000E+02
 20
-2.76750000E+02
 11
3.99799805E+02
 21
-2.76750000E+02
  0
LINE
  8
0
 62
7
 10
-3.99250000E+02
 20
2.76250000E+02
 11
3.99799805E+02
 21
2.76250000E+02
  0
LINE
  8
0
 62
7
 10
-3.99250000E+02
 20
2.76250000E+02
 11
-3.99250000E+02
 21
-2.76750000E+02
  0
LINE
  8
0
 62
7
 10
3.99799805E+02
 20
2.76250000E+02
 11
3.99799805E+02
 21
-2.76750000E+02
  0
ENDSEC
  0
EOF
