  0
SECTION
  2
HEADER
  9
$ACADVER
  1
AC1003
  9
$EXTMIN
 10
-5.64500000E+02
 20
-4.00500000E+02
  9
$EXTMAX
 10
5.74500000E+02
 20
4.00500000E+02
  9
$LIMMIN
 10
-5.64501000E+02
 20
-4.00501000E+02
  9
$LIMMAX
 10
5.74501000E+02
 20
4.00501000E+02
  9
$SNAPUNIT
 10
1
 20
1
  9
$SNAPBASE
 10
0
 20
0
  9
$GRIDMODE
 70
0
  9
$GRIDUNIT
 10
0
 20
0
  9
$LTSCALE
 40
1.89833333E+01
  9
$TEXTSIZE
 40
3.2
  9
$DIMTAD
 70
0
  9
$LUNITS
 70
2
  9
$LUPREC
 70
4
  9
$FILLETRAD
 40
0
  9
$AUNITS
 70
0
  9
$AUPREC
 70
0
  0
ENDSEC
  0
SECTION
  2
TABLES
  0
TABLE
  2
LTYPE
 70
2
  0
LTYPE
  2
CONTINUOUS
 70
64
  3
Solid-Line
 72
65
 73
0
 40
0
  0
LTYPE
  2
DASHED
 70
64
  3
DASHED
 72
65
 73
2
 40
.75
 49
.5
 49
-.25
  0
LTYPE
  2
HIDDEN
 70
64
  3
HIDDEN
 72
65
 73
2
 40
.375
 49
.25
 49
-.125
  0
LTYPE
  2
CENTER
 70
64
  3
CENTER
 72
65
 73
4
 40
2
 49
1.25
 49
-.25
 49
.25
 49
-.25
  0
LTYPE
  2
PHANTOM
 70
64
  3
PHANTOM
 72
65
 73
6
 40
2.5
 49
1.25
 49
-.25
 49
.25
 49
-.25
 49
.25
 49
-.25
  0
ENDTAB
  0
TABLE
  2
LAYER
 70
1
  0
LAYER
  2
1
 70
0
 62
7
  6
CONTINUOUS
 0
ENDTAB
  0
TABLE
  2
STYLE
 70
2
  0
STYLE
  2
MONOTXT
 70
0
 40
0
 41
1
 50
0
 71
0
 42
.2
  3
monotxt
  0
STYLE
  2
BIGFONT
 70
0
 40
0
 41
1
 50
0
 71
0
 42
.2
  3
txt
  4
bigfont
  0
ENDTAB
  0
ENDSEC
  0
SECTION
  2
ENTITIES
  0
LINE
  8
0
  6
PHANTOM
 10
-2.45000000E+01
 20
2.81313474E+01
 11
-2.45000000E+01
 21
1.88056721E+02
  0
LINE
  8
0
 62
7
 10
2.69999771E+01
 20
1.38000000E+02
 11
2.69999771E+01
 21
6.30000000E+01
  0
LINE
  8
0
 62
7
 10
-8.00000076E+01
 20
1.38000000E+02
 11
-8.00000076E+01
 21
6.30000000E+01
  0
LINE
  8
0
 62
7
 10
2.69999771E+01
 20
7.61000366E+01
 11
-8.00000076E+01
 21
7.61000366E+01
  0
LINE
  8
0
 62
7
 10
2.69999771E+01
 20
6.89000244E+01
 11
-8.00000076E+01
 21
6.89000244E+01
  0
LINE
  8
0
 62
7
 10
2.69999771E+01
 20
6.65000229E+01
 11
-8.00000076E+01
 21
6.65000229E+01
  0
LINE
  8
0
 62
7
 10
2.69999771E+01
 20
1.34499969E+02
 11
2.09193633E+01
 21
1.34499969E+02
  0
LINE
  8
0
 62
7
 10
2.69999771E+01
 20
1.24899963E+02
 11
4.99997711E+00
 21
1.24899963E+02
  0
LINE
  8
0
 62
7
 10
2.69999771E+01
 20
1.32099976E+02
 11
1.99999771E+01
 21
1.32099976E+02
  0
LINE
  8
0
 62
7
 10
7.90000420E+01
 20
1.38000000E+02
 11
7.90000420E+01
 21
6.30000000E+01
  0
LINE
  8
0
 62
7
 10
7.90000038E+01
 20
1.38000000E+02
 11
2.69999771E+01
 21
1.38000000E+02
  0
LINE
  8
0
  6
CENTER
 62
2
 10
-1.72713142E+02
 20
1.00500000E+02
 11
8.62211227E+01
 21
1.00500000E+02
  0
LINE
  8
0
  6
CENTER
 62
2
 10
5.80000000E+01
 20
1.40706894E+02
 11
5.80000000E+01
 21
7.91475983E+01
  0
LINE
  8
0
  6
CENTER
 62
2
 10
7.59120827E+01
 20
8.95000153E+01
 11
6.31857376E+01
 21
8.95000153E+01
  0
LINE
  8
0
  6
CENTER
 62
2
 10
6.89999847E+01
 20
8.29228897E+01
 11
6.89999847E+01
 21
9.56492157E+01
  0
LINE
  8
0
  6
DASHED
 62
7
 10
6.90000267E+01
 20
8.80566295E+01
 11
6.77499712E+01
 21
8.87783412E+01
  0
LINE
  8
0
  6
DASHED
 62
7
 10
6.89998971E+01
 20
8.80567560E+01
 11
7.02498956E+01
 21
8.87784347E+01
  0
LINE
  8
0
  6
DASHED
 62
7
 10
6.77498666E+01
 20
9.02218282E+01
 11
6.89998675E+01
 21
9.09435084E+01
  0
LINE
  8
0
  6
DASHED
 62
7
 10
6.90000096E+01
 20
9.09433736E+01
 11
7.02499858E+01
 21
9.02217077E+01
  0
LINE
  8
0
  6
DASHED
 62
7
 10
6.77499847E+01
 20
8.87783127E+01
 11
6.77499847E+01
 21
9.02217026E+01
  0
LINE
  8
0
  6
DASHED
 62
7
 10
7.02499847E+01
 20
8.87783127E+01
 11
7.02499847E+01
 21
9.02217026E+01
  0
LINE
  8
0
  6
CENTER
 62
2
 10
4.00878983E+01
 20
8.95000153E+01
 11
5.28142395E+01
 21
8.95000153E+01
  0
LINE
  8
0
  6
CENTER
 62
2
 10
4.69999924E+01
 20
8.29228897E+01
 11
4.69999924E+01
 21
9.56492157E+01
  0
LINE
  8
0
  6
DASHED
 62
7
 10
4.70000523E+01
 20
8.80566261E+01
 11
4.57500167E+01
 21
8.87783263E+01
  0
LINE
  8
0
  6
DASHED
 62
7
 10
4.57499924E+01
 20
8.87783127E+01
 11
4.57499924E+01
 21
9.02217026E+01
  0
LINE
  8
0
  6
DASHED
 62
7
 10
4.69999320E+01
 20
9.09434770E+01
 11
4.57499484E+01
 21
9.02218068E+01
  0
LINE
  8
0
  6
DASHED
 62
7
 10
4.82500408E+01
 20
9.02217094E+01
 11
4.70000448E+01
 21
9.09433867E+01
  0
LINE
  8
0
  6
DASHED
 62
7
 10
4.82499924E+01
 20
8.87783127E+01
 11
4.82499924E+01
 21
9.02217026E+01
  0
LINE
  8
0
  6
DASHED
 62
7
 10
4.69998984E+01
 20
8.80567673E+01
 11
4.82498861E+01
 21
8.87784399E+01
  0
LINE
  8
0
  6
CENTER
 62
2
 10
7.59120827E+01
 20
1.11500000E+02
 11
6.31857376E+01
 21
1.11500000E+02
  0
LINE
  8
0
  6
CENTER
 62
2
 10
6.89999847E+01
 20
1.18077133E+02
 11
6.89999847E+01
 21
1.05350807E+02
  0
LINE
  8
0
  6
DASHED
 62
7
 10
6.90000163E+01
 20
1.12943404E+02
 11
7.02500123E+01
 21
1.12221726E+02
  0
LINE
  8
0
  6
DASHED
 62
7
 10
7.02499847E+01
 20
1.12221710E+02
 11
7.02499847E+01
 21
1.10778320E+02
  0
LINE
  8
0
  6
DASHED
 62
7
 10
6.89998549E+01
 20
1.10056722E+02
 11
7.02498344E+01
 21
1.10778389E+02
  0
LINE
  8
0
  6
DASHED
 62
7
 10
6.77499693E+01
 20
1.10778341E+02
 11
6.89999785E+01
 21
1.10056656E+02
  0
LINE
  8
0
  6
DASHED
 62
7
 10
6.77499847E+01
 20
1.12221710E+02
 11
6.77499847E+01
 21
1.10778320E+02
  0
LINE
  8
0
  6
DASHED
 62
7
 10
6.89999225E+01
 20
1.12943451E+02
 11
6.77499066E+01
 21
1.12221762E+02
  0
LINE
  8
0
  6
CENTER
 62
2
 10
4.00878983E+01
 20
1.11500000E+02
 11
5.28142395E+01
 21
1.11500000E+02
  0
LINE
  8
0
  6
CENTER
 62
2
 10
4.69999924E+01
 20
1.18077133E+02
 11
4.69999924E+01
 21
1.05350807E+02
  0
LINE
  8
0
  6
DASHED
 62
7
 10
4.69998768E+01
 20
1.12943550E+02
 11
4.57498385E+01
 21
1.12221848E+02
  0
LINE
  8
0
  6
DASHED
 62
7
 10
4.57499924E+01
 20
1.12221710E+02
 11
4.57499924E+01
 21
1.10778320E+02
  0
LINE
  8
0
  6
DASHED
 62
7
 10
4.70000109E+01
 20
1.10056680E+02
 11
4.57500215E+01
 21
1.10778353E+02
  0
LINE
  8
0
  6
DASHED
 62
7
 10
4.82498587E+01
 20
1.10778440E+02
 11
4.69998798E+01
 21
1.10056773E+02
  0
LINE
  8
0
  6
DASHED
 62
7
 10
4.82499924E+01
 20
1.12221710E+02
 11
4.82499924E+01
 21
1.10778320E+02
  0
LINE
  8
0
  6
DASHED
 62
7
 10
4.69999801E+01
 20
1.12943308E+02
 11
4.82499695E+01
 21
1.12221635E+02
  0
LINE
  8
0
 62
7
 10
8.05000572E+01
 20
1.19500000E+02
 11
8.05000572E+01
 21
8.14999924E+01
  0
LINE
  8
0
 62
7
 10
-1.26499947E+02
 20
8.34999924E+01
 11
-1.21991356E+02
 21
8.34999924E+01
  0
LINE
  8
0
 62
7
 10
-1.21999916E+02
 20
8.34999924E+01
 11
-1.21999916E+02
 21
8.34914474E+01
  0
LINE
  8
0
 62
7
 10
-1.21758598E+02
 20
8.32415197E+01
 11
-1.13999915E+02
 21
8.29705805E+01
  0
LINE
  8
0
 62
7
 10
-1.26499947E+02
 20
1.17500000E+02
 11
-1.21991356E+02
 21
1.17500000E+02
  0
LINE
  8
0
 62
7
 10
8.10001405E+01
 20
1.19000096E+02
 11
8.05001508E+01
 21
1.19500086E+02
  0
LINE
  8
0
 62
7
 10
8.10000886E+01
 20
8.20000076E+01
 11
8.05000907E+01
 21
8.15000097E+01
  0
LINE
  8
0
 62
7
 10
8.10000496E+01
 20
1.19000000E+02
 11
8.10000496E+01
 21
8.20000000E+01
  0
LINE
  8
0
 62
7
 10
-1.21758561E+02
 20
1.17758500E+02
 11
-1.13999863E+02
 21
1.18029439E+02
  0
LINE
  8
0
 62
7
 10
-1.21999916E+02
 20
1.17500000E+02
 11
-1.21999916E+02
 21
1.17508545E+02
  0
LINE
  8
0
  6
CENTER
 62
2
 10
-9.40000839E+01
 20
1.40185287E+02
 11
-9.40000839E+01
 21
1.28300079E+02
  0
LINE
  8
0
 62
7
 10
-1.08000023E+02
 20
1.38000000E+02
 11
-8.00000229E+01
 21
1.38000000E+02
  0
LINE
  8
0
 62
7
 10
-1.08000023E+02
 20
1.37511215E+02
 11
-1.08000023E+02
 21
1.38000000E+02
  0
LINE
  8
0
 62
7
 10
-1.13500023E+02
 20
8.15000229E+01
 11
-1.12000038E+02
 21
8.15000229E+01
  0
LINE
  8
0
 62
7
 10
-1.11508810E+02
 20
6.35499812E+01
 11
-8.00001052E+01
 21
6.29999947E+01
  0
LINE
  8
0
 62
7
 10
-1.13500023E+02
 20
1.19500015E+02
 11
-1.12000038E+02
 21
1.19500015E+02
  0
LINE
  8
0
 62
7
 10
-1.12000038E+02
 20
6.40499191E+01
 11
-1.12000038E+02
 21
1.36950119E+02
  0
LINE
  8
0
 62
7
 10
-1.11508817E+02
 20
1.37449954E+02
 11
-8.00001279E+01
 21
1.37999941E+02
  0
LINE
  8
0
 62
7
 10
-1.14000038E+02
 20
8.20000153E+01
 11
-1.14000038E+02
 21
1.19000015E+02
  0
LINE
  8
0
 62
7
 10
-1.08000023E+02
 20
6.30000000E+01
 11
-8.00000229E+01
 21
6.30000000E+01
  0
LINE
  8
0
 62
7
 10
-1.08000023E+02
 20
6.34887390E+01
 11
-1.08000023E+02
 21
6.30000000E+01
  0
LINE
  8
0
  6
CENTER
 62
2
 10
-1.15651970E+02
 20
1.28500031E+02
 11
8.13622208E+01
 21
1.28500031E+02
  0
LINE
  8
0
  6
CENTER
 62
2
 10
-1.16202782E+02
 20
7.24999695E+01
 11
8.15633545E+01
 21
7.24999695E+01
  0
LINE
  8
0
 62
7
 10
8.05000381E+01
 20
8.15000076E+01
 11
7.90000420E+01
 21
8.15000076E+01
  0
LINE
  8
0
 62
7
 10
-1.21999916E+02
 20
8.34999924E+01
 11
-1.21999916E+02
 21
1.17500000E+02
  0
LINE
  8
0
 62
7
 10
-1.26999916E+02
 20
8.40000229E+01
 11
-1.26999916E+02
 21
1.16999969E+02
  0
LINE
  8
0
 62
7
 10
7.90000420E+01
 20
6.30000000E+01
 11
2.70000305E+01
 21
6.30000000E+01
  0
LINE
  8
0
 62
7
 10
8.05000572E+01
 20
1.19500000E+02
 11
7.90000420E+01
 21
1.19500000E+02
  0
LINE
  8
0
 62
7
 10
-1.36999886E+02
 20
1.09500000E+02
 11
-1.36999886E+02
 21
9.15000076E+01
  0
LINE
  8
0
 62
7
 10
-1.34000008E+02
 20
1.05767853E+02
 11
-1.29999947E+02
 21
1.05767853E+02
  0
LINE
  8
0
 62
7
 10
-1.34000008E+02
 20
9.52321930E+01
 11
-1.29999947E+02
 21
9.52321930E+01
  0
LINE
  8
0
 62
7
 10
-1.33999886E+02
 20
9.05000305E+01
 11
-1.33999886E+02
 21
9.52322006E+01
  0
LINE
  8
0
 62
2
 10
-1.36033501E+02
 20
1.04313414E+02
 11
-1.29999910E+02
 21
9.52322328E+01
  0
LINE
  8
0
 62
2
 10
-1.36033497E+02
 20
9.66863940E+01
 11
-1.29999755E+02
 21
1.05767804E+02
  0
LINE
  8
0
 62
7
 10
-1.34000008E+02
 20
9.05000229E+01
 11
-1.26999962E+02
 21
9.05000229E+01
  0
LINE
  8
0
 62
7
 10
-1.33999886E+02
 20
1.10500046E+02
 11
-1.33999886E+02
 21
1.05767868E+02
  0
LINE
  8
0
 62
7
 10
-1.29999947E+02
 20
9.52322006E+01
 11
-1.29999947E+02
 21
1.05767868E+02
  0
LINE
  8
0
 62
7
 10
-1.39999870E+02
 20
9.15000153E+01
 11
-1.39999870E+02
 21
1.09500015E+02
  0
LINE
  8
0
 62
7
 10
-1.68999916E+02
 20
9.30000381E+01
 11
-1.68999916E+02
 21
1.07999847E+02
  0
LINE
  8
0
 62
7
 10
-1.67499855E+02
 20
9.15000153E+01
 11
-1.67499855E+02
 21
1.09500015E+02
  0
LINE
  8
0
 62
7
 10
-1.67499855E+02
 20
1.09500000E+02
 11
-1.59999931E+02
 21
1.09500000E+02
  0
LINE
  8
0
 62
2
 10
-1.68319862E+02
 20
1.08679993E+02
 11
-1.59999931E+02
 21
1.08679993E+02
  0
LINE
  8
0
 62
7
 10
-1.68999786E+02
 20
1.07999803E+02
 11
-1.67499740E+02
 21
1.09499803E+02
  0
LINE
  8
0
 62
7
 10
-1.67499855E+02
 20
9.15000076E+01
 11
-1.59999931E+02
 21
9.15000076E+01
  0
LINE
  8
0
 62
2
 10
-1.68319862E+02
 20
9.23199997E+01
 11
-1.59999931E+02
 21
9.23199997E+01
  0
LINE
  8
0
 62
7
 10
-1.68999892E+02
 20
9.30001211E+01
 11
-1.67499835E+02
 21
9.15001100E+01
  0
LINE
  8
0
 62
7
 10
-1.34000008E+02
 20
1.10499985E+02
 11
-1.26999962E+02
 21
1.10499985E+02
  0
LINE
  8
0
 62
7
 10
-1.36999884E+02
 20
1.03622440E+02
 11
-1.33999896E+02
 21
1.05767536E+02
  0
LINE
  8
0
 62
7
 10
-1.36999887E+02
 20
9.73775637E+01
 11
-1.33999887E+02
 21
9.52319059E+01
  0
LINE
  8
0
 62
7
 10
-1.36999854E+02
 20
1.09499978E+02
 11
-1.33999865E+02
 21
1.10499961E+02
  0
LINE
  8
0
 62
7
 10
-1.36999898E+02
 20
9.15000099E+01
 11
-1.33999906E+02
 21
9.05000349E+01
  0
LINE
  8
0
 62
7
 10
-1.39999870E+02
 20
1.08679993E+02
 11
-1.36999886E+02
 21
1.08679993E+02
  0
LINE
  8
0
 62
7
 10
-1.39999870E+02
 20
9.23199997E+01
 11
-1.36999886E+02
 21
9.23199997E+01
  0
CIRCLE
  8
0
  6
DASHED
 62
7
 10
6.89999847E+01
 20
8.95000153E+01
 40
3.75000000E+00
  0
CIRCLE
  8
0
  6
DASHED
 62
2
 10
5.80000000E+01
 20
1.00500000E+02
 40
2.50000000E+00
  0
CIRCLE
  8
0
  6
DASHED
 62
7
 10
4.69999924E+01
 20
8.95000153E+01
 40
3.75000000E+00
  0
CIRCLE
  8
0
  6
DASHED
 62
7
 10
6.89999847E+01
 20
1.11500000E+02
 40
3.75000000E+00
  0
CIRCLE
  8
0
  6
DASHED
 62
7
 10
4.69999924E+01
 20
1.11500000E+02
 40
3.75000000E+00
  0
CIRCLE
  8
0
  6
DASHED
 62
7
 10
5.80000000E+01
 20
1.00500000E+02
 40
2.00000000E+00
  0
ARC
  8
0
 62
7
 10
-1.11500038E+02
 20
6.40499191E+01
 40
5.00000000E-01
 50
1.80000091E+02
 51
2.68999832E+02
  0
ARC
  8
0
 62
7
 10
-1.13500053E+02
 20
8.20000153E+01
 40
5.00000000E-01
 50
1.80000091E+02
 51
2.70000073E+02
  0
ARC
  8
0
 62
7
 10
-1.11500038E+02
 20
1.36950119E+02
 40
5.00000000E-01
 50
9.10003318E+01
 51
1.80000073E+02
  0
ARC
  8
0
 62
7
 10
-1.13500053E+02
 20
1.19000015E+02
 40
5.00000000E-01
 50
9.00000913E+01
 51
1.80000073E+02
  0
CIRCLE
  8
0
  6
DASHED
 62
7
 10
5.80000000E+01
 20
1.00500000E+02
 40
1.95000000E+01
  0
ARC
  8
0
 62
7
 10
-1.21749916E+02
 20
8.34914474E+01
 40
2.50000000E-01
 50
1.79999977E+02
 51
2.68001132E+02
  0
ARC
  8
0
 62
7
 10
-1.26499931E+02
 20
8.40000229E+01
 40
5.00000000E-01
 50
1.79999977E+02
 51
2.69999974E+02
  0
ARC
  8
0
 62
7
 10
-1.26499931E+02
 20
1.16999969E+02
 40
5.00000000E-01
 50
8.99999818E+01
 51
1.79999964E+02
  0
ARC
  8
0
 62
7
 10
-1.21749916E+02
 20
1.17508545E+02
 40
2.50000000E-01
 50
9.19988230E+01
 51
1.79999977E+02
  0
ARC
  8
0
 62
7
 10
-1.38499901E+02
 20
1.00500000E+02
 40
9.99998474E+00
 50
0.00000000E+00
 51
3.17883527E+01
  0
ARC
  8
0
 62
7
 10
-1.38499901E+02
 20
1.00500000E+02
 40
9.99998474E+00
 50
3.28211647E+02
 51
0.00000000E+00
  0
LINE
  8
0
 62
4
 10
-1.48999931E+02
 20
8.70000000E+01
 11
-1.48999931E+02
 21
1.14000000E+02
  0
LINE
  8
0
 62
4
 10
-1.59999931E+02
 20
8.70000000E+01
 11
-1.59999931E+02
 21
1.14000000E+02
  0
ARC
  8
0
 62
4
 10
-1.34205703E+02
 20
1.00500000E+02
 40
2.57942282E+01
 50
1.62412046E+02
 51
1.97587954E+02
  0
ARC
  8
0
 62
4
 10
-1.74794160E+02
 20
1.00500000E+02
 40
2.57942282E+01
 50
3.42412046E+02
 51
1.75879541E+01
  0
ARC
  8
0
 62
4
 10
-1.55900653E+02
 20
1.12191343E+02
 40
6.90072132E+00
 50
3.25615752E+02
 51
3.43842480E+01
  0
ARC
  8
0
 62
4
 10
-1.53099210E+02
 20
1.12191343E+02
 40
6.90072132E+00
 50
1.45615752E+02
 51
2.14384248E+02
  0
LINE
  8
0
 62
4
 10
-1.50205703E+02
 20
1.16088457E+02
 11
-1.48999931E+02
 21
1.14000000E+02
  0
LINE
  8
0
 62
4
 10
-1.58794160E+02
 20
1.16088457E+02
 11
-1.59999931E+02
 21
1.14000000E+02
  0
LINE
  8
0
 62
4
 10
-1.58794160E+02
 20
1.08294229E+02
 11
-1.50205703E+02
 21
1.08294229E+02
  0
LINE
  8
0
 62
4
 10
-1.58794160E+02
 20
1.16088457E+02
 11
-1.50205703E+02
 21
1.16088457E+02
  0
ARC
  8
0
 62
4
 10
-1.55900653E+02
 20
8.88086570E+01
 40
6.90072132E+00
 50
3.25615752E+02
 51
3.43842480E+01
  0
ARC
  8
0
 62
4
 10
-1.53099210E+02
 20
8.88086570E+01
 40
6.90072132E+00
 50
1.45615752E+02
 51
2.14384248E+02
  0
LINE
  8
0
 62
4
 10
-1.59999931E+02
 20
8.70000000E+01
 11
-1.58794160E+02
 21
8.49115427E+01
  0
LINE
  8
0
 62
4
 10
-1.48999931E+02
 20
8.70000000E+01
 11
-1.50205703E+02
 21
8.49115427E+01
  0
LINE
  8
0
 62
4
 10
-1.58794160E+02
 20
9.27057714E+01
 11
-1.50205703E+02
 21
9.27057714E+01
  0
LINE
  8
0
 62
4
 10
-1.58794160E+02
 20
8.49115427E+01
 11
-1.50205703E+02
 21
8.49115427E+01
  0
LINE
  8
0
 62
7
 10
-1.48999931E+02
 20
1.09500000E+02
 11
-1.39999870E+02
 21
1.09500000E+02
  0
LINE
  8
0
 62
2
 10
-1.48999931E+02
 20
1.08679993E+02
 11
-1.39999870E+02
 21
1.08679993E+02
  0
LINE
  8
0
 62
7
 10
-1.48999931E+02
 20
9.15000076E+01
 11
-1.39999870E+02
 21
9.15000076E+01
  0
LINE
  8
0
 62
2
 10
-1.48999931E+02
 20
9.23199997E+01
 11
-1.39999870E+02
 21
9.23199997E+01
  0
LINE
  8
0
 62
4
 10
-3.90000076E+01
 20
1.37852074E+02
 11
-3.90000076E+01
 21
1.49176933E+02
  0
LINE
  8
0
 62
6
 10
-1.82679110E+01
 20
1.39352074E+02
 11
-2.17320126E+01
 21
1.33352074E+02
  0
LINE
  8
0
 62
6
 10
-3.07320737E+01
 20
1.33352074E+02
 11
-2.72679721E+01
 21
1.39352074E+02
  0
LINE
  8
0
 62
4
 10
-9.99996185E+00
 20
1.37852074E+02
 11
-1.91339365E+01
 21
1.37852074E+02
  0
LINE
  8
0
  6
CENTER
 62
6
 10
2.50000381E+01
 20
1.36352074E+02
 11
-2.19999619E+01
 21
1.36352074E+02
  0
LINE
  8
0
 62
4
 10
-9.99996185E+00
 20
1.34852074E+02
 11
-2.08659873E+01
 21
1.34852074E+02
  0
LINE
  8
0
 62
4
 10
-3.90000076E+01
 20
1.34852074E+02
 11
-2.98660483E+01
 21
1.34852074E+02
  0
LINE
  8
0
  6
CENTER
 62
6
 10
-7.40000229E+01
 20
1.36352074E+02
 11
-2.70000229E+01
 21
1.36352074E+02
  0
LINE
  8
0
 62
4
 10
-4.55000229E+01
 20
1.37852074E+02
 11
-2.81339975E+01
 21
1.37852074E+02
  0
LINE
  8
0
 62
4
 10
-3.90000076E+01
 20
1.34499985E+02
 11
-3.90000076E+01
 21
1.34911086E+02
  0
LINE
  8
0
 62
4
 10
-4.55000076E+01
 20
1.38872221E+02
 11
-4.55000076E+01
 21
1.34911086E+02
  0
LINE
  8
0
 62
4
 10
-6.90000076E+01
 20
1.49176933E+02
 11
-6.90000076E+01
 21
1.38872221E+02
  0
LINE
  8
0
  6
CENTER
 62
6
 10
-4.93500076E+01
 20
1.41568481E+02
 11
-5.86500076E+01
 21
1.41568481E+02
  0
LINE
  8
0
  6
CENTER
 62
6
 10
-5.40000076E+01
 20
1.46218481E+02
 11
-5.40000076E+01
 21
1.36918481E+02
  0
LINE
  8
0
 62
4
 10
1.99999771E+01
 20
1.49176933E+02
 11
1.99999771E+01
 21
1.30653547E+02
  0
LINE
  8
0
  6
CENTER
 62
6
 10
-1.00000229E+01
 20
1.22516187E+02
 11
-3.00002289E+00
 21
1.22516187E+02
  0
LINE
  8
0
  6
CENTER
 62
6
 10
-2.00002289E+00
 20
1.22516187E+02
 11
4.99997711E+00
 21
1.22516187E+02
  0
LINE
  8
0
  6
CENTER
 62
6
 10
1.49997711E+00
 20
1.19016187E+02
 11
1.49997711E+00
 21
1.26016187E+02
  0
LINE
  8
0
  6
CENTER
 62
6
 10
-6.50002289E+00
 20
1.19016187E+02
 11
-6.50002289E+00
 21
1.26016187E+02
  0
LINE
  8
0
 62
4
 10
-1.00000229E+01
 20
1.17675487E+02
 11
-1.00000229E+01
 21
1.49176933E+02
  0
LINE
  8
0
 62
4
 10
4.99997711E+00
 20
1.45994058E+02
 11
4.99997711E+00
 21
1.17675487E+02
  0
LINE
  8
0
  6
CENTER
 62
6
 10
1.60745740E+01
 20
1.41714304E+02
 11
8.92538022E+00
 21
1.41714304E+02
  0
LINE
  8
0
  6
CENTER
 62
6
 10
1.24999771E+01
 20
1.45288901E+02
 11
1.24999771E+01
 21
1.38139707E+02
  0
LINE
  8
0
 62
4
 10
-6.90000076E+01
 20
1.49176933E+02
 11
-3.90000076E+01
 21
1.49176933E+02
  0
LINE
  8
0
 62
4
 10
-1.00000229E+01
 20
1.49176933E+02
 11
1.99999771E+01
 21
1.49176933E+02
  0
LINE
  8
0
 62
4
 10
-1.00000229E+01
 20
1.17675487E+02
 11
4.99997711E+00
 21
1.17675487E+02
  0
LINE
  8
0
 62
4
 10
-1.00000229E+01
 20
1.45994058E+02
 11
1.99999771E+01
 21
1.45994058E+02
  0
LINE
  8
0
 62
4
 10
-1.00000229E+01
 20
1.44603482E+02
 11
4.99997711E+00
 21
1.44603482E+02
  0
LINE
  8
0
 62
4
 10
-9.00002290E+00
 20
1.28222526E+02
 11
3.99997710E+00
 21
1.28222526E+02
  0
LINE
  8
0
 62
4
 10
4.99997711E+00
 20
1.37910078E+02
 11
1.99999771E+01
 21
1.37910078E+02
  0
LINE
  8
0
 62
4
 10
4.99997711E+00
 20
1.37786471E+02
 11
1.99999771E+01
 21
1.37786471E+02
  0
LINE
  8
0
 62
4
 10
4.99997710E+00
 20
1.30653547E+02
 11
1.99999771E+01
 21
1.30653547E+02
  0
POLYLINE
  8
0
 62
4
 66
1
  0
VERTEX
  8
0
 62
4
 10
1.02499771E+01
 20
1.41714304E+02
  0
VERTEX
  8
0
 62
4
 10
1.02585390E+01
 20
1.41527801E+02
  0
VERTEX
  8
0
 62
4
 10
1.02841597E+01
 20
1.41342718E+02
  0
VERTEX
  8
0
 62
4
 10
1.03266440E+01
 20
1.41160463E+02
  0
VERTEX
  8
0
 62
4
 10
1.03856687E+01
 20
1.40982423E+02
  0
VERTEX
  8
0
 62
4
 10
1.04607846E+01
 20
1.40809953E+02
  0
VERTEX
  8
0
 62
4
 10
1.05514199E+01
 20
1.40644365E+02
  0
VERTEX
  8
0
 62
4
 10
1.06568850E+01
 20
1.40486921E+02
  0
VERTEX
  8
0
 62
4
 10
1.07763771E+01
 20
1.40338817E+02
  0
VERTEX
  8
0
 62
4
 10
1.09089868E+01
 20
1.40201182E+02
  0
VERTEX
  8
0
 62
4
 10
1.10537050E+01
 20
1.40075063E+02
  0
VERTEX
  8
0
 62
4
 10
1.12094301E+01
 20
1.39961419E+02
  0
VERTEX
  8
0
 62
4
 10
1.13749771E+01
 20
1.39861116E+02
  0
VERTEX
  8
0
 62
4
 10
1.15490860E+01
 20
1.39774917E+02
  0
VERTEX
  8
0
 62
4
 10
1.17304318E+01
 20
1.39703477E+02
  0
VERTEX
  8
0
 62
4
 10
1.19176342E+01
 20
1.39647341E+02
  0
VERTEX
  8
0
 62
4
 10
1.21092687E+01
 20
1.39606936E+02
  0
VERTEX
  8
0
 62
4
 10
1.23038767E+01
 20
1.39582570E+02
  0
VERTEX
  8
0
 62
4
 10
1.24999771E+01
 20
1.39574427E+02
  0
VERTEX
  8
0
 62
4
 10
1.26960775E+01
 20
1.39582570E+02
  0
VERTEX
  8
0
 62
4
 10
1.28906855E+01
 20
1.39606936E+02
  0
VERTEX
  8
0
 62
4
 10
1.30823199E+01
 20
1.39647341E+02
  0
VERTEX
  8
0
 62
4
 10
1.32695224E+01
 20
1.39703477E+02
  0
VERTEX
  8
0
 62
4
 10
1.34508682E+01
 20
1.39774917E+02
  0
VERTEX
  8
0
 62
4
 10
1.36249771E+01
 20
1.39861116E+02
  0
VERTEX
  8
0
 62
4
 10
1.37905241E+01
 20
1.39961419E+02
  0
VERTEX
  8
0
 62
4
 10
1.39462492E+01
 20
1.40075063E+02
  0
VERTEX
  8
0
 62
4
 10
1.40909674E+01
 20
1.40201182E+02
  0
VERTEX
  8
0
 62
4
 10
1.42235771E+01
 20
1.40338817E+02
  0
VERTEX
  8
0
 62
4
 10
1.43430692E+01
 20
1.40486921E+02
  0
VERTEX
  8
0
 62
4
 10
1.44485343E+01
 20
1.40644365E+02
  0
VERTEX
  8
0
 62
4
 10
1.45391696E+01
 20
1.40809953E+02
  0
VERTEX
  8
0
 62
4
 10
1.46142855E+01
 20
1.40982423E+02
  0
VERTEX
  8
0
 62
4
 10
1.46733102E+01
 20
1.41160463E+02
  0
VERTEX
  8
0
 62
4
 10
1.47157945E+01
 20
1.41342718E+02
  0
VERTEX
  8
0
 62
4
 10
1.47414152E+01
 20
1.41527801E+02
  0
VERTEX
  8
0
 62
4
 10
1.47499771E+01
 20
1.41714304E+02
  0
VERTEX
  8
0
 62
4
 10
1.47414152E+01
 20
1.41900807E+02
  0
VERTEX
  8
0
 62
4
 10
1.47157945E+01
 20
1.42085890E+02
  0
VERTEX
  8
0
 62
4
 10
1.46733102E+01
 20
1.42268145E+02
  0
VERTEX
  8
0
 62
4
 10
1.46142855E+01
 20
1.42446185E+02
  0
VERTEX
  8
0
 62
4
 10
1.45391696E+01
 20
1.42618655E+02
  0
VERTEX
  8
0
 62
4
 10
1.44485343E+01
 20
1.42784243E+02
  0
VERTEX
  8
0
 62
4
 10
1.43430692E+01
 20
1.42941687E+02
  0
VERTEX
  8
0
 62
4
 10
1.42235771E+01
 20
1.43089791E+02
  0
VERTEX
  8
0
 62
4
 10
1.40909674E+01
 20
1.43227426E+02
  0
VERTEX
  8
0
 62
4
 10
1.39462492E+01
 20
1.43353545E+02
  0
VERTEX
  8
0
 62
4
 10
1.37905241E+01
 20
1.43467189E+02
  0
VERTEX
  8
0
 62
4
 10
1.36249771E+01
 20
1.43567492E+02
  0
VERTEX
  8
0
 62
4
 10
1.34508682E+01
 20
1.43653691E+02
  0
VERTEX
  8
0
 62
4
 10
1.32695224E+01
 20
1.43725131E+02
  0
VERTEX
  8
0
 62
4
 10
1.30823200E+01
 20
1.43781267E+02
  0
VERTEX
  8
0
 62
4
 10
1.28906855E+01
 20
1.43821672E+02
  0
VERTEX
  8
0
 62
4
 10
1.26960775E+01
 20
1.43846038E+02
  0
VERTEX
  8
0
 62
4
 10
1.24999771E+01
 20
1.43854181E+02
  0
VERTEX
  8
0
 62
4
 10
1.23038767E+01
 20
1.43846038E+02
  0
VERTEX
  8
0
 62
4
 10
1.21092687E+01
 20
1.43821672E+02
  0
VERTEX
  8
0
 62
4
 10
1.19176343E+01
 20
1.43781267E+02
  0
VERTEX
  8
0
 62
4
 10
1.17304318E+01
 20
1.43725131E+02
  0
VERTEX
  8
0
 62
4
 10
1.15490860E+01
 20
1.43653691E+02
  0
VERTEX
  8
0
 62
4
 10
1.13749771E+01
 20
1.43567492E+02
  0
VERTEX
  8
0
 62
4
 10
1.12094301E+01
 20
1.43467189E+02
  0
VERTEX
  8
0
 62
4
 10
1.10537050E+01
 20
1.43353545E+02
  0
VERTEX
  8
0
 62
4
 10
1.09089868E+01
 20
1.43227426E+02
  0
VERTEX
  8
0
 62
4
 10
1.07763771E+01
 20
1.43089791E+02
  0
VERTEX
  8
0
 62
4
 10
1.06568850E+01
 20
1.42941687E+02
  0
VERTEX
  8
0
 62
4
 10
1.05514199E+01
 20
1.42784243E+02
  0
VERTEX
  8
0
 62
4
 10
1.04607846E+01
 20
1.42618655E+02
  0
VERTEX
  8
0
 62
4
 10
1.03856687E+01
 20
1.42446185E+02
  0
VERTEX
  8
0
 62
4
 10
1.03266440E+01
 20
1.42268145E+02
  0
VERTEX
  8
0
 62
4
 10
1.02841597E+01
 20
1.42085890E+02
  0
VERTEX
  8
0
 62
4
 10
1.02585390E+01
 20
1.41900807E+02
  0
VERTEX
  8
0
 62
4
 10
1.02499771E+01
 20
1.41714304E+02
  0
SEQEND
  8
0
  0
POLYLINE
  8
0
 62
4
 66
1
  0
VERTEX
  8
0
 62
4
 10
3.49997711E+00
 20
1.22516187E+02
  0
VERTEX
  8
0
 62
4
 10
3.49192570E+00
 20
1.22686691E+02
  0
VERTEX
  8
0
 62
4
 10
3.46783629E+00
 20
1.22855822E+02
  0
VERTEX
  8
0
 62
4
 10
3.42790283E+00
 20
1.23022219E+02
  0
VERTEX
  8
0
 62
4
 10
3.37244685E+00
 20
1.23184542E+02
  0
VERTEX
  8
0
 62
4
 10
3.30191485E+00
 20
1.23341483E+02
  0
VERTEX
  8
0
 62
4
 10
3.21687470E+00
 20
1.23491779E+02
  0
VERTEX
  8
0
 62
4
 10
3.11801110E+00
 20
1.23634221E+02
  0
VERTEX
  8
0
 62
4
 10
3.00612004E+00
 20
1.23767661E+02
  0
VERTEX
  8
0
 62
4
 10
2.88210241E+00
 20
1.23891025E+02
  0
VERTEX
  8
0
 62
4
 10
2.74695672E+00
 20
1.24003319E+02
  0
VERTEX
  8
0
 62
4
 10
2.60177107E+00
 20
1.24103640E+02
  0
VERTEX
  8
0
 62
4
 10
2.44771444E+00
 20
1.24191179E+02
  0
VERTEX
  8
0
 62
4
 10
2.28602718E+00
 20
1.24265233E+02
  0
VERTEX
  8
0
 62
4
 10
2.11801110E+00
 20
1.24325204E+02
  0
VERTEX
  8
0
 62
4
 10
1.94501898E+00
 20
1.24370610E+02
  0
VERTEX
  8
0
 62
4
 10
1.76844364E+00
 20
1.24401085E+02
  0
VERTEX
  8
0
 62
4
 10
1.58970677E+00
 20
1.24416385E+02
  0
VERTEX
  8
0
 62
4
 10
1.41024745E+00
 20
1.24416385E+02
  0
VERTEX
  8
0
 62
4
 10
1.23151058E+00
 20
1.24401085E+02
  0
VERTEX
  8
0
 62
4
 10
1.05493525E+00
 20
1.24370610E+02
  0
VERTEX
  8
0
 62
4
 10
8.81943125E-01
 20
1.24325204E+02
  0
VERTEX
  8
0
 62
4
 10
7.13927051E-01
 20
1.24265233E+02
  0
VERTEX
  8
0
 62
4
 10
5.52239789E-01
 20
1.24191179E+02
  0
VERTEX
  8
0
 62
4
 10
3.98183151E-01
 20
1.24103640E+02
  0
VERTEX
  8
0
 62
4
 10
2.52997510E-01
 20
1.24003319E+02
  0
VERTEX
  8
0
 62
4
 10
1.17851816E-01
 20
1.23891025E+02
  0
VERTEX
  8
0
 62
4
 10
-6.16581836E-03
 20
1.23767661E+02
  0
VERTEX
  8
0
 62
4
 10
-1.18056875E-01
 20
1.23634221E+02
  0
VERTEX
  8
0
 62
4
 10
-2.16920474E-01
 20
1.23491779E+02
  0
VERTEX
  8
0
 62
4
 10
-3.01960623E-01
 20
1.23341483E+02
  0
VERTEX
  8
0
 62
4
 10
-3.72492629E-01
 20
1.23184542E+02
  0
VERTEX
  8
0
 62
4
 10
-4.27948610E-01
 20
1.23022219E+02
  0
VERTEX
  8
0
 62
4
 10
-4.67882066E-01
 20
1.22855822E+02
  0
VERTEX
  8
0
 62
4
 10
-4.91971477E-01
 20
1.22686691E+02
  0
VERTEX
  8
0
 62
4
 10
-5.00022890E-01
 20
1.22516187E+02
  0
SEQEND
  8
0
  0
POLYLINE
  8
0
 62
4
 66
1
  0
VERTEX
  8
0
 62
4
 10
3.49997711E+00
 20
1.21640847E+02
  0
VERTEX
  8
0
 62
4
 10
3.49236651E+00
 20
1.21806627E+02
  0
VERTEX
  8
0
 62
4
 10
3.46959262E+00
 20
1.21971145E+02
  0
VERTEX
  8
0
 62
4
 10
3.43182876E+00
 20
1.22133150E+02
  0
VERTEX
  8
0
 62
4
 10
3.37936235E+00
 20
1.22291408E+02
  0
VERTEX
  8
0
 62
4
 10
3.31259268E+00
 20
1.22444715E+02
  0
VERTEX
  8
0
 62
4
 10
3.23202792E+00
 20
1.22591904E+02
  0
VERTEX
  8
0
 62
4
 10
3.13828120E+00
 20
1.22731854E+02
  0
VERTEX
  8
0
 62
4
 10
3.03206600E+00
 20
1.22863502E+02
  0
VERTEX
  8
0
 62
4
 10
2.91419067E+00
 20
1.22985844E+02
  0
VERTEX
  8
0
 62
4
 10
2.78555233E+00
 20
1.23097950E+02
  0
VERTEX
  8
0
 62
4
 10
2.64712998E+00
 20
1.23198967E+02
  0
VERTEX
  8
0
 62
4
 10
2.49997711E+00
 20
1.23288125E+02
  0
VERTEX
  8
0
 62
4
 10
2.34521363E+00
 20
1.23364747E+02
  0
VERTEX
  8
0
 62
4
 10
2.18401740E+00
 20
1.23428249E+02
  0
VERTEX
  8
0
 62
4
 10
2.01761520E+00
 20
1.23478147E+02
  0
VERTEX
  8
0
 62
4
 10
1.84727346E+00
 20
1.23514063E+02
  0
VERTEX
  8
0
 62
4
 10
1.67428859E+00
 20
1.23535722E+02
  0
VERTEX
  8
0
 62
4
 10
1.49997711E+00
 20
1.23542960E+02
  0
VERTEX
  8
0
 62
4
 10
1.32566562E+00
 20
1.23535722E+02
  0
VERTEX
  8
0
 62
4
 10
1.15268075E+00
 20
1.23514063E+02
  0
VERTEX
  8
0
 62
4
 10
9.82339018E-01
 20
1.23478147E+02
  0
VERTEX
  8
0
 62
4
 10
8.15936822E-01
 20
1.23428249E+02
  0
VERTEX
  8
0
 62
4
 10
6.54740585E-01
 20
1.23364747E+02
  0
VERTEX
  8
0
 62
4
 10
4.99977108E-01
 20
1.23288125E+02
  0
VERTEX
  8
0
 62
4
 10
3.52824236E-01
 20
1.23198967E+02
  0
VERTEX
  8
0
 62
4
 10
2.14401889E-01
 20
1.23097950E+02
  0
VERTEX
  8
0
 62
4
 10
8.57635461E-02
 20
1.22985844E+02
  0
VERTEX
  8
0
 62
4
 10
-3.21117776E-02
 20
1.22863502E+02
  0
VERTEX
  8
0
 62
4
 10
-1.38326980E-01
 20
1.22731854E+02
  0
VERTEX
  8
0
 62
4
 10
-2.32073699E-01
 20
1.22591904E+02
  0
VERTEX
  8
0
 62
4
 10
-3.12638465E-01
 20
1.22444715E+02
  0
VERTEX
  8
0
 62
4
 10
-3.79408132E-01
 20
1.22291408E+02
  0
VERTEX
  8
0
 62
4
 10
-4.31874543E-01
 20
1.22133150E+02
  0
VERTEX
  8
0
 62
4
 10
-4.69638396E-01
 20
1.21971145E+02
  0
VERTEX
  8
0
 62
4
 10
-4.92412286E-01
 20
1.21806627E+02
  0
VERTEX
  8
0
 62
4
 10
-5.00022890E-01
 20
1.21640847E+02
  0
VERTEX
  8
0
 62
4
 10
-4.92412286E-01
 20
1.21475067E+02
  0
VERTEX
  8
0
 62
4
 10
-4.69638396E-01
 20
1.21310549E+02
  0
VERTEX
  8
0
 62
4
 10
-4.31874542E-01
 20
1.21148544E+02
  0
VERTEX
  8
0
 62
4
 10
-3.79408130E-01
 20
1.20990286E+02
  0
VERTEX
  8
0
 62
4
 10
-3.12638463E-01
 20
1.20836979E+02
  0
VERTEX
  8
0
 62
4
 10
-2.32073696E-01
 20
1.20689790E+02
  0
VERTEX
  8
0
 62
4
 10
-1.38326977E-01
 20
1.20549840E+02
  0
VERTEX
  8
0
 62
4
 10
-3.21117740E-02
 20
1.20418192E+02
  0
VERTEX
  8
0
 62
4
 10
8.57635501E-02
 20
1.20295850E+02
  0
VERTEX
  8
0
 62
4
 10
2.14401893E-01
 20
1.20183744E+02
  0
VERTEX
  8
0
 62
4
 10
3.52824240E-01
 20
1.20082727E+02
  0
VERTEX
  8
0
 62
4
 10
4.99977113E-01
 20
1.19993569E+02
  0
VERTEX
  8
0
 62
4
 10
6.54740590E-01
 20
1.19916947E+02
  0
VERTEX
  8
0
 62
4
 10
8.15936827E-01
 20
1.19853445E+02
  0
VERTEX
  8
0
 62
4
 10
9.82339024E-01
 20
1.19803547E+02
  0
VERTEX
  8
0
 62
4
 10
1.15268076E+00
 20
1.19767631E+02
  0
VERTEX
  8
0
 62
4
 10
1.32566563E+00
 20
1.19745972E+02
  0
VERTEX
  8
0
 62
4
 10
1.49997711E+00
 20
1.19738734E+02
  0
VERTEX
  8
0
 62
4
 10
1.67428860E+00
 20
1.19745972E+02
  0
VERTEX
  8
0
 62
4
 10
1.84727347E+00
 20
1.19767631E+02
  0
VERTEX
  8
0
 62
4
 10
2.01761520E+00
 20
1.19803547E+02
  0
VERTEX
  8
0
 62
4
 10
2.18401740E+00
 20
1.19853445E+02
  0
VERTEX
  8
0
 62
4
 10
2.34521364E+00
 20
1.19916947E+02
  0
VERTEX
  8
0
 62
4
 10
2.49997711E+00
 20
1.19993569E+02
  0
VERTEX
  8
0
 62
4
 10
2.64712999E+00
 20
1.20082727E+02
  0
VERTEX
  8
0
 62
4
 10
2.78555233E+00
 20
1.20183744E+02
  0
VERTEX
  8
0
 62
4
 10
2.91419068E+00
 20
1.20295850E+02
  0
VERTEX
  8
0
 62
4
 10
3.03206600E+00
 20
1.20418192E+02
  0
VERTEX
  8
0
 62
4
 10
3.13828120E+00
 20
1.20549840E+02
  0
VERTEX
  8
0
 62
4
 10
3.23202792E+00
 20
1.20689790E+02
  0
VERTEX
  8
0
 62
4
 10
3.31259269E+00
 20
1.20836979E+02
  0
VERTEX
  8
0
 62
4
 10
3.37936235E+00
 20
1.20990286E+02
  0
VERTEX
  8
0
 62
4
 10
3.43182876E+00
 20
1.21148544E+02
  0
VERTEX
  8
0
 62
4
 10
3.46959262E+00
 20
1.21310549E+02
  0
VERTEX
  8
0
 62
4
 10
3.49236651E+00
 20
1.21475067E+02
  0
VERTEX
  8
0
 62
4
 10
3.49997711E+00
 20
1.21640847E+02
  0
SEQEND
  8
0
  0
LINE
  8
0
 62
4
 10
-5.00022888E-01
 20
1.21640847E+02
 11
-5.00022888E-01
 21
1.22516187E+02
  0
LINE
  8
0
 62
4
 10
3.49997711E+00
 20
1.21640847E+02
 11
3.49997711E+00
 21
1.22516187E+02
  0
POLYLINE
  8
0
 62
6
 66
1
  0
VERTEX
  8
0
 62
6
 10
-2.28900000E-05
 20
1.21640847E+02
  0
VERTEX
  8
0
 62
6
 10
5.68506242E-03
 20
1.21516512E+02
  0
VERTEX
  8
0
 62
6
 10
2.27654796E-02
 20
1.21393123E+02
  0
VERTEX
  8
0
 62
6
 10
5.10883693E-02
 20
1.21271620E+02
  0
VERTEX
  8
0
 62
6
 10
9.04381771E-02
 20
1.21152926E+02
  0
VERTEX
  8
0
 62
6
 10
1.40515427E-01
 20
1.21037946E+02
  0
VERTEX
  8
0
 62
6
 10
2.00939002E-01
 20
1.20927555E+02
  0
VERTEX
  8
0
 62
6
 10
2.71249041E-01
 20
1.20822592E+02
  0
VERTEX
  8
0
 62
6
 10
3.50910442E-01
 20
1.20723856E+02
  0
VERTEX
  8
0
 62
6
 10
4.39316935E-01
 20
1.20632099E+02
  0
VERTEX
  8
0
 62
6
 10
5.35795692E-01
 20
1.20548020E+02
  0
VERTEX
  8
0
 62
6
 10
6.39612452E-01
 20
1.20472257E+02
  0
VERTEX
  8
0
 62
6
 10
7.49977106E-01
 20
1.20405388E+02
  0
VERTEX
  8
0
 62
6
 10
8.66049713E-01
 20
1.20347922E+02
  0
VERTEX
  8
0
 62
6
 10
9.86946891E-01
 20
1.20300296E+02
  0
VERTEX
  8
0
 62
6
 10
1.11174854E+00
 20
1.20262872E+02
  0
VERTEX
  8
0
 62
6
 10
1.23950484E+00
 20
1.20235935E+02
  0
VERTEX
  8
0
 62
6
 10
1.36924349E+00
 20
1.20219691E+02
  0
VERTEX
  8
0
 62
6
 10
1.49997711E+00
 20
1.20214262E+02
  0
VERTEX
  8
0
 62
6
 10
1.63071072E+00
 20
1.20219691E+02
  0
VERTEX
  8
0
 62
6
 10
1.76044937E+00
 20
1.20235935E+02
  0
VERTEX
  8
0
 62
6
 10
1.88820567E+00
 20
1.20262872E+02
  0
VERTEX
  8
0
 62
6
 10
2.01300732E+00
 20
1.20300296E+02
  0
VERTEX
  8
0
 62
6
 10
2.13390450E+00
 20
1.20347922E+02
  0
VERTEX
  8
0
 62
6
 10
2.24997711E+00
 20
1.20405388E+02
  0
VERTEX
  8
0
 62
6
 10
2.36034176E+00
 20
1.20472257E+02
  0
VERTEX
  8
0
 62
6
 10
2.46415852E+00
 20
1.20548020E+02
  0
VERTEX
  8
0
 62
6
 10
2.56063728E+00
 20
1.20632099E+02
  0
VERTEX
  8
0
 62
6
 10
2.64904377E+00
 20
1.20723856E+02
  0
VERTEX
  8
0
 62
6
 10
2.72870517E+00
 20
1.20822592E+02
  0
VERTEX
  8
0
 62
6
 10
2.79901521E+00
 20
1.20927555E+02
  0
VERTEX
  8
0
 62
6
 10
2.85943879E+00
 20
1.21037946E+02
  0
VERTEX
  8
0
 62
6
 10
2.90951604E+00
 20
1.21152926E+02
  0
VERTEX
  8
0
 62
6
 10
2.94886585E+00
 20
1.21271620E+02
  0
VERTEX
  8
0
 62
6
 10
2.97718874E+00
 20
1.21393123E+02
  0
VERTEX
  8
0
 62
6
 10
2.99426916E+00
 20
1.21516512E+02
  0
VERTEX
  8
0
 62
6
 10
2.99997711E+00
 20
1.21640847E+02
  0
VERTEX
  8
0
 62
6
 10
2.99426916E+00
 20
1.21765182E+02
  0
VERTEX
  8
0
 62
6
 10
2.97718874E+00
 20
1.21888571E+02
  0
VERTEX
  8
0
 62
6
 10
2.94886585E+00
 20
1.22010074E+02
  0
VERTEX
  8
0
 62
6
 10
2.90951604E+00
 20
1.22128768E+02
  0
VERTEX
  8
0
 62
6
 10
2.85943879E+00
 20
1.22243748E+02
  0
VERTEX
  8
0
 62
6
 10
2.79901522E+00
 20
1.22354139E+02
  0
VERTEX
  8
0
 62
6
 10
2.72870518E+00
 20
1.22459102E+02
  0
VERTEX
  8
0
 62
6
 10
2.64904378E+00
 20
1.22557838E+02
  0
VERTEX
  8
0
 62
6
 10
2.56063728E+00
 20
1.22649595E+02
  0
VERTEX
  8
0
 62
6
 10
2.46415853E+00
 20
1.22733674E+02
  0
VERTEX
  8
0
 62
6
 10
2.36034177E+00
 20
1.22809437E+02
  0
VERTEX
  8
0
 62
6
 10
2.24997711E+00
 20
1.22876306E+02
  0
VERTEX
  8
0
 62
6
 10
2.13390450E+00
 20
1.22933772E+02
  0
VERTEX
  8
0
 62
6
 10
2.01300733E+00
 20
1.22981398E+02
  0
VERTEX
  8
0
 62
6
 10
1.88820568E+00
 20
1.23018822E+02
  0
VERTEX
  8
0
 62
6
 10
1.76044938E+00
 20
1.23045759E+02
  0
VERTEX
  8
0
 62
6
 10
1.63071073E+00
 20
1.23062003E+02
  0
VERTEX
  8
0
 62
6
 10
1.49997711E+00
 20
1.23067432E+02
  0
VERTEX
  8
0
 62
6
 10
1.36924350E+00
 20
1.23062003E+02
  0
VERTEX
  8
0
 62
6
 10
1.23950485E+00
 20
1.23045759E+02
  0
VERTEX
  8
0
 62
6
 10
1.11174854E+00
 20
1.23018822E+02
  0
VERTEX
  8
0
 62
6
 10
9.86946897E-01
 20
1.22981398E+02
  0
VERTEX
  8
0
 62
6
 10
8.66049719E-01
 20
1.22933772E+02
  0
VERTEX
  8
0
 62
6
 10
7.49977111E-01
 20
1.22876306E+02
  0
VERTEX
  8
0
 62
6
 10
6.39612457E-01
 20
1.22809437E+02
  0
VERTEX
  8
0
 62
6
 10
5.35795697E-01
 20
1.22733674E+02
  0
VERTEX
  8
0
 62
6
 10
4.39316939E-01
 20
1.22649595E+02
  0
VERTEX
  8
0
 62
6
 10
3.50910446E-01
 20
1.22557838E+02
  0
VERTEX
  8
0
 62
6
 10
2.71249044E-01
 20
1.22459102E+02
  0
VERTEX
  8
0
 62
6
 10
2.00939005E-01
 20
1.22354139E+02
  0
VERTEX
  8
0
 62
6
 10
1.40515430E-01
 20
1.22243748E+02
  0
VERTEX
  8
0
 62
6
 10
9.04381792E-02
 20
1.22128768E+02
  0
VERTEX
  8
0
 62
6
 10
5.10883708E-02
 20
1.22010074E+02
  0
VERTEX
  8
0
 62
6
 10
2.27654807E-02
 20
1.21888571E+02
  0
VERTEX
  8
0
 62
6
 10
5.68506295E-03
 20
1.21765182E+02
  0
VERTEX
  8
0
 62
6
 10
-2.28900000E-05
 20
1.21640847E+02
  0
SEQEND
  8
0
  0
LINE
  8
0
 62
4
 10
4.99977112E-01
 20
1.21089234E+02
 11
4.99977112E-01
 21
1.22192459E+02
  0
LINE
  8
0
 62
4
 10
2.49997711E+00
 20
1.21089234E+02
 11
2.49997711E+00
 21
1.22192459E+02
  0
LINE
  8
0
 62
4
 10
1.49997711E+00
 20
1.22734562E+02
 11
4.99977112E-01
 21
1.22192459E+02
  0
LINE
  8
0
 62
4
 10
1.49997711E+00
 20
1.22734562E+02
 11
2.49997711E+00
 21
1.22192459E+02
  0
LINE
  8
0
 62
4
 10
2.49997711E+00
 20
1.21089234E+02
 11
1.49997711E+00
 21
1.20537621E+02
  0
LINE
  8
0
 62
4
 10
1.49997711E+00
 20
1.20537621E+02
 11
4.99977112E-01
 21
1.21089234E+02
  0
LINE
  8
0
 62
4
 10
-6.50002289E+00
 20
1.20537621E+02
 11
-7.50002289E+00
 21
1.21089234E+02
  0
LINE
  8
0
 62
4
 10
-5.50002289E+00
 20
1.21089234E+02
 11
-6.50002289E+00
 21
1.20537621E+02
  0
LINE
  8
0
 62
4
 10
-6.50002289E+00
 20
1.22734562E+02
 11
-5.50002289E+00
 21
1.22192459E+02
  0
LINE
  8
0
 62
4
 10
-6.50002289E+00
 20
1.22734562E+02
 11
-7.50002289E+00
 21
1.22192459E+02
  0
LINE
  8
0
 62
4
 10
-5.50002289E+00
 20
1.21089234E+02
 11
-5.50002289E+00
 21
1.22192459E+02
  0
LINE
  8
0
 62
4
 10
-7.50002289E+00
 20
1.21089234E+02
 11
-7.50002289E+00
 21
1.22192459E+02
  0
POLYLINE
  8
0
 62
6
 66
1
  0
VERTEX
  8
0
 62
6
 10
-8.00002289E+00
 20
1.21640847E+02
  0
VERTEX
  8
0
 62
6
 10
-7.99431494E+00
 20
1.21516512E+02
  0
VERTEX
  8
0
 62
6
 10
-7.97723452E+00
 20
1.21393123E+02
  0
VERTEX
  8
0
 62
6
 10
-7.94891163E+00
 20
1.21271620E+02
  0
VERTEX
  8
0
 62
6
 10
-7.90956182E+00
 20
1.21152926E+02
  0
VERTEX
  8
0
 62
6
 10
-7.85948457E+00
 20
1.21037946E+02
  0
VERTEX
  8
0
 62
6
 10
-7.79906100E+00
 20
1.20927555E+02
  0
VERTEX
  8
0
 62
6
 10
-7.72875096E+00
 20
1.20822592E+02
  0
VERTEX
  8
0
 62
6
 10
-7.64908956E+00
 20
1.20723856E+02
  0
VERTEX
  8
0
 62
6
 10
-7.56068307E+00
 20
1.20632099E+02
  0
VERTEX
  8
0
 62
6
 10
-7.46420431E+00
 20
1.20548020E+02
  0
VERTEX
  8
0
 62
6
 10
-7.36038755E+00
 20
1.20472257E+02
  0
VERTEX
  8
0
 62
6
 10
-7.25002289E+00
 20
1.20405388E+02
  0
VERTEX
  8
0
 62
6
 10
-7.13395029E+00
 20
1.20347922E+02
  0
VERTEX
  8
0
 62
6
 10
-7.01305311E+00
 20
1.20300296E+02
  0
VERTEX
  8
0
 62
6
 10
-6.88825146E+00
 20
1.20262872E+02
  0
VERTEX
  8
0
 62
6
 10
-6.76049516E+00
 20
1.20235935E+02
  0
VERTEX
  8
0
 62
6
 10
-6.63075651E+00
 20
1.20219691E+02
  0
VERTEX
  8
0
 62
6
 10
-6.50002289E+00
 20
1.20214262E+02
  0
VERTEX
  8
0
 62
6
 10
-6.36928928E+00
 20
1.20219691E+02
  0
VERTEX
  8
0
 62
6
 10
-6.23955063E+00
 20
1.20235935E+02
  0
VERTEX
  8
0
 62
6
 10
-6.11179433E+00
 20
1.20262872E+02
  0
VERTEX
  8
0
 62
6
 10
-5.98699268E+00
 20
1.20300296E+02
  0
VERTEX
  8
0
 62
6
 10
-5.86609550E+00
 20
1.20347922E+02
  0
VERTEX
  8
0
 62
6
 10
-5.75002289E+00
 20
1.20405388E+02
  0
VERTEX
  8
0
 62
6
 10
-5.63965824E+00
 20
1.20472257E+02
  0
VERTEX
  8
0
 62
6
 10
-5.53584148E+00
 20
1.20548020E+02
  0
VERTEX
  8
0
 62
6
 10
-5.43936272E+00
 20
1.20632099E+02
  0
VERTEX
  8
0
 62
6
 10
-5.35095623E+00
 20
1.20723856E+02
  0
VERTEX
  8
0
 62
6
 10
-5.27129483E+00
 20
1.20822592E+02
  0
VERTEX
  8
0
 62
6
 10
-5.20098479E+00
 20
1.20927555E+02
  0
VERTEX
  8
0
 62
6
 10
-5.14056121E+00
 20
1.21037946E+02
  0
VERTEX
  8
0
 62
6
 10
-5.09048396E+00
 20
1.21152926E+02
  0
VERTEX
  8
0
 62
6
 10
-5.05113415E+00
 20
1.21271620E+02
  0
VERTEX
  8
0
 62
6
 10
-5.02281126E+00
 20
1.21393123E+02
  0
VERTEX
  8
0
 62
6
 10
-5.00573084E+00
 20
1.21516512E+02
  0
VERTEX
  8
0
 62
6
 10
-5.00002289E+00
 20
1.21640847E+02
  0
VERTEX
  8
0
 62
6
 10
-5.00573084E+00
 20
1.21765182E+02
  0
VERTEX
  8
0
 62
6
 10
-5.02281126E+00
 20
1.21888571E+02
  0
VERTEX
  8
0
 62
6
 10
-5.05113415E+00
 20
1.22010074E+02
  0
VERTEX
  8
0
 62
6
 10
-5.09048396E+00
 20
1.22128768E+02
  0
VERTEX
  8
0
 62
6
 10
-5.14056121E+00
 20
1.22243748E+02
  0
VERTEX
  8
0
 62
6
 10
-5.20098478E+00
 20
1.22354139E+02
  0
VERTEX
  8
0
 62
6
 10
-5.27129482E+00
 20
1.22459102E+02
  0
VERTEX
  8
0
 62
6
 10
-5.35095622E+00
 20
1.22557838E+02
  0
VERTEX
  8
0
 62
6
 10
-5.43936272E+00
 20
1.22649595E+02
  0
VERTEX
  8
0
 62
6
 10
-5.53584147E+00
 20
1.22733674E+02
  0
VERTEX
  8
0
 62
6
 10
-5.63965823E+00
 20
1.22809437E+02
  0
VERTEX
  8
0
 62
6
 10
-5.75002289E+00
 20
1.22876306E+02
  0
VERTEX
  8
0
 62
6
 10
-5.86609550E+00
 20
1.22933772E+02
  0
VERTEX
  8
0
 62
6
 10
-5.98699267E+00
 20
1.22981398E+02
  0
VERTEX
  8
0
 62
6
 10
-6.11179432E+00
 20
1.23018822E+02
  0
VERTEX
  8
0
 62
6
 10
-6.23955062E+00
 20
1.23045759E+02
  0
VERTEX
  8
0
 62
6
 10
-6.36928927E+00
 20
1.23062003E+02
  0
VERTEX
  8
0
 62
6
 10
-6.50002289E+00
 20
1.23067432E+02
  0
VERTEX
  8
0
 62
6
 10
-6.63075650E+00
 20
1.23062003E+02
  0
VERTEX
  8
0
 62
6
 10
-6.76049515E+00
 20
1.23045759E+02
  0
VERTEX
  8
0
 62
6
 10
-6.88825146E+00
 20
1.23018822E+02
  0
VERTEX
  8
0
 62
6
 10
-7.01305310E+00
 20
1.22981398E+02
  0
VERTEX
  8
0
 62
6
 10
-7.13395028E+00
 20
1.22933772E+02
  0
VERTEX
  8
0
 62
6
 10
-7.25002289E+00
 20
1.22876306E+02
  0
VERTEX
  8
0
 62
6
 10
-7.36038754E+00
 20
1.22809437E+02
  0
VERTEX
  8
0
 62
6
 10
-7.46420430E+00
 20
1.22733674E+02
  0
VERTEX
  8
0
 62
6
 10
-7.56068306E+00
 20
1.22649595E+02
  0
VERTEX
  8
0
 62
6
 10
-7.64908955E+00
 20
1.22557838E+02
  0
VERTEX
  8
0
 62
6
 10
-7.72875096E+00
 20
1.22459102E+02
  0
VERTEX
  8
0
 62
6
 10
-7.79906100E+00
 20
1.22354139E+02
  0
VERTEX
  8
0
 62
6
 10
-7.85948457E+00
 20
1.22243748E+02
  0
VERTEX
  8
0
 62
6
 10
-7.90956182E+00
 20
1.22128768E+02
  0
VERTEX
  8
0
 62
6
 10
-7.94891163E+00
 20
1.22010074E+02
  0
VERTEX
  8
0
 62
6
 10
-7.97723452E+00
 20
1.21888571E+02
  0
VERTEX
  8
0
 62
6
 10
-7.99431494E+00
 20
1.21765182E+02
  0
VERTEX
  8
0
 62
6
 10
-8.00002289E+00
 20
1.21640847E+02
  0
SEQEND
  8
0
  0
LINE
  8
0
 62
4
 10
-4.50002289E+00
 20
1.21640847E+02
 11
-4.50002289E+00
 21
1.22516187E+02
  0
LINE
  8
0
 62
4
 10
-8.50002289E+00
 20
1.21640847E+02
 11
-8.50002289E+00
 21
1.22516187E+02
  0
POLYLINE
  8
0
 62
4
 66
1
  0
VERTEX
  8
0
 62
4
 10
-4.50002289E+00
 20
1.21640847E+02
  0
VERTEX
  8
0
 62
4
 10
-4.50763349E+00
 20
1.21806627E+02
  0
VERTEX
  8
0
 62
4
 10
-4.53040738E+00
 20
1.21971145E+02
  0
VERTEX
  8
0
 62
4
 10
-4.56817124E+00
 20
1.22133150E+02
  0
VERTEX
  8
0
 62
4
 10
-4.62063765E+00
 20
1.22291408E+02
  0
VERTEX
  8
0
 62
4
 10
-4.68740732E+00
 20
1.22444715E+02
  0
VERTEX
  8
0
 62
4
 10
-4.76797208E+00
 20
1.22591904E+02
  0
VERTEX
  8
0
 62
4
 10
-4.86171880E+00
 20
1.22731854E+02
  0
VERTEX
  8
0
 62
4
 10
-4.96793400E+00
 20
1.22863502E+02
  0
VERTEX
  8
0
 62
4
 10
-5.08580933E+00
 20
1.22985844E+02
  0
VERTEX
  8
0
 62
4
 10
-5.21444767E+00
 20
1.23097950E+02
  0
VERTEX
  8
0
 62
4
 10
-5.35287002E+00
 20
1.23198967E+02
  0
VERTEX
  8
0
 62
4
 10
-5.50002289E+00
 20
1.23288125E+02
  0
VERTEX
  8
0
 62
4
 10
-5.65478637E+00
 20
1.23364747E+02
  0
VERTEX
  8
0
 62
4
 10
-5.81598260E+00
 20
1.23428249E+02
  0
VERTEX
  8
0
 62
4
 10
-5.98238480E+00
 20
1.23478147E+02
  0
VERTEX
  8
0
 62
4
 10
-6.15272654E+00
 20
1.23514063E+02
  0
VERTEX
  8
0
 62
4
 10
-6.32571141E+00
 20
1.23535722E+02
  0
VERTEX
  8
0
 62
4
 10
-6.50002289E+00
 20
1.23542960E+02
  0
VERTEX
  8
0
 62
4
 10
-6.67433438E+00
 20
1.23535722E+02
  0
VERTEX
  8
0
 62
4
 10
-6.84731925E+00
 20
1.23514063E+02
  0
VERTEX
  8
0
 62
4
 10
-7.01766098E+00
 20
1.23478147E+02
  0
VERTEX
  8
0
 62
4
 10
-7.18406318E+00
 20
1.23428249E+02
  0
VERTEX
  8
0
 62
4
 10
-7.34525942E+00
 20
1.23364747E+02
  0
VERTEX
  8
0
 62
4
 10
-7.50002289E+00
 20
1.23288125E+02
  0
VERTEX
  8
0
 62
4
 10
-7.64717576E+00
 20
1.23198967E+02
  0
VERTEX
  8
0
 62
4
 10
-7.78559811E+00
 20
1.23097950E+02
  0
VERTEX
  8
0
 62
4
 10
-7.91423645E+00
 20
1.22985844E+02
  0
VERTEX
  8
0
 62
4
 10
-8.03211178E+00
 20
1.22863502E+02
  0
VERTEX
  8
0
 62
4
 10
-8.13832698E+00
 20
1.22731854E+02
  0
VERTEX
  8
0
 62
4
 10
-8.23207370E+00
 20
1.22591904E+02
  0
VERTEX
  8
0
 62
4
 10
-8.31263847E+00
 20
1.22444715E+02
  0
VERTEX
  8
0
 62
4
 10
-8.37940813E+00
 20
1.22291408E+02
  0
VERTEX
  8
0
 62
4
 10
-8.43187454E+00
 20
1.22133150E+02
  0
VERTEX
  8
0
 62
4
 10
-8.46963840E+00
 20
1.21971145E+02
  0
VERTEX
  8
0
 62
4
 10
-8.49241229E+00
 20
1.21806627E+02
  0
VERTEX
  8
0
 62
4
 10
-8.50002289E+00
 20
1.21640847E+02
  0
VERTEX
  8
0
 62
4
 10
-8.49241229E+00
 20
1.21475067E+02
  0
VERTEX
  8
0
 62
4
 10
-8.46963840E+00
 20
1.21310549E+02
  0
VERTEX
  8
0
 62
4
 10
-8.43187454E+00
 20
1.21148544E+02
  0
VERTEX
  8
0
 62
4
 10
-8.37940813E+00
 20
1.20990286E+02
  0
VERTEX
  8
0
 62
4
 10
-8.31263846E+00
 20
1.20836979E+02
  0
VERTEX
  8
0
 62
4
 10
-8.23207370E+00
 20
1.20689790E+02
  0
VERTEX
  8
0
 62
4
 10
-8.13832698E+00
 20
1.20549840E+02
  0
VERTEX
  8
0
 62
4
 10
-8.03211177E+00
 20
1.20418192E+02
  0
VERTEX
  8
0
 62
4
 10
-7.91423645E+00
 20
1.20295850E+02
  0
VERTEX
  8
0
 62
4
 10
-7.78559811E+00
 20
1.20183744E+02
  0
VERTEX
  8
0
 62
4
 10
-7.64717576E+00
 20
1.20082727E+02
  0
VERTEX
  8
0
 62
4
 10
-7.50002289E+00
 20
1.19993569E+02
  0
VERTEX
  8
0
 62
4
 10
-7.34525941E+00
 20
1.19916947E+02
  0
VERTEX
  8
0
 62
4
 10
-7.18406317E+00
 20
1.19853445E+02
  0
VERTEX
  8
0
 62
4
 10
-7.01766098E+00
 20
1.19803547E+02
  0
VERTEX
  8
0
 62
4
 10
-6.84731924E+00
 20
1.19767631E+02
  0
VERTEX
  8
0
 62
4
 10
-6.67433437E+00
 20
1.19745972E+02
  0
VERTEX
  8
0
 62
4
 10
-6.50002289E+00
 20
1.19738734E+02
  0
VERTEX
  8
0
 62
4
 10
-6.32571140E+00
 20
1.19745972E+02
  0
VERTEX
  8
0
 62
4
 10
-6.15272653E+00
 20
1.19767631E+02
  0
VERTEX
  8
0
 62
4
 10
-5.98238480E+00
 20
1.19803547E+02
  0
VERTEX
  8
0
 62
4
 10
-5.81598260E+00
 20
1.19853445E+02
  0
VERTEX
  8
0
 62
4
 10
-5.65478636E+00
 20
1.19916947E+02
  0
VERTEX
  8
0
 62
4
 10
-5.50002289E+00
 20
1.19993569E+02
  0
VERTEX
  8
0
 62
4
 10
-5.35287001E+00
 20
1.20082727E+02
  0
VERTEX
  8
0
 62
4
 10
-5.21444767E+00
 20
1.20183744E+02
  0
VERTEX
  8
0
 62
4
 10
-5.08580932E+00
 20
1.20295850E+02
  0
VERTEX
  8
0
 62
4
 10
-4.96793400E+00
 20
1.20418192E+02
  0
VERTEX
  8
0
 62
4
 10
-4.86171880E+00
 20
1.20549840E+02
  0
VERTEX
  8
0
 62
4
 10
-4.76797208E+00
 20
1.20689790E+02
  0
VERTEX
  8
0
 62
4
 10
-4.68740731E+00
 20
1.20836979E+02
  0
VERTEX
  8
0
 62
4
 10
-4.62063765E+00
 20
1.20990286E+02
  0
VERTEX
  8
0
 62
4
 10
-4.56817124E+00
 20
1.21148544E+02
  0
VERTEX
  8
0
 62
4
 10
-4.53040738E+00
 20
1.21310549E+02
  0
VERTEX
  8
0
 62
4
 10
-4.50763349E+00
 20
1.21475067E+02
  0
VERTEX
  8
0
 62
4
 10
-4.50002289E+00
 20
1.21640847E+02
  0
SEQEND
  8
0
  0
POLYLINE
  8
0
 62
4
 66
1
  0
VERTEX
  8
0
 62
4
 10
-4.50002289E+00
 20
1.22516187E+02
  0
VERTEX
  8
0
 62
4
 10
-4.50807430E+00
 20
1.22686691E+02
  0
VERTEX
  8
0
 62
4
 10
-4.53216371E+00
 20
1.22855822E+02
  0
VERTEX
  8
0
 62
4
 10
-4.57209717E+00
 20
1.23022219E+02
  0
VERTEX
  8
0
 62
4
 10
-4.62755315E+00
 20
1.23184542E+02
  0
VERTEX
  8
0
 62
4
 10
-4.69808515E+00
 20
1.23341483E+02
  0
VERTEX
  8
0
 62
4
 10
-4.78312530E+00
 20
1.23491779E+02
  0
VERTEX
  8
0
 62
4
 10
-4.88198890E+00
 20
1.23634221E+02
  0
VERTEX
  8
0
 62
4
 10
-4.99387996E+00
 20
1.23767661E+02
  0
VERTEX
  8
0
 62
4
 10
-5.11789759E+00
 20
1.23891025E+02
  0
VERTEX
  8
0
 62
4
 10
-5.25304328E+00
 20
1.24003319E+02
  0
VERTEX
  8
0
 62
4
 10
-5.39822893E+00
 20
1.24103640E+02
  0
VERTEX
  8
0
 62
4
 10
-5.55228556E+00
 20
1.24191179E+02
  0
VERTEX
  8
0
 62
4
 10
-5.71397282E+00
 20
1.24265233E+02
  0
VERTEX
  8
0
 62
4
 10
-5.88198890E+00
 20
1.24325204E+02
  0
VERTEX
  8
0
 62
4
 10
-6.05498102E+00
 20
1.24370610E+02
  0
VERTEX
  8
0
 62
4
 10
-6.23155636E+00
 20
1.24401085E+02
  0
VERTEX
  8
0
 62
4
 10
-6.41029323E+00
 20
1.24416385E+02
  0
VERTEX
  8
0
 62
4
 10
-6.58975255E+00
 20
1.24416385E+02
  0
VERTEX
  8
0
 62
4
 10
-6.76848942E+00
 20
1.24401085E+02
  0
VERTEX
  8
0
 62
4
 10
-6.94506475E+00
 20
1.24370610E+02
  0
VERTEX
  8
0
 62
4
 10
-7.11805687E+00
 20
1.24325204E+02
  0
VERTEX
  8
0
 62
4
 10
-7.28607295E+00
 20
1.24265233E+02
  0
VERTEX
  8
0
 62
4
 10
-7.44776021E+00
 20
1.24191179E+02
  0
VERTEX
  8
0
 62
4
 10
-7.60181685E+00
 20
1.24103640E+02
  0
VERTEX
  8
0
 62
4
 10
-7.74700249E+00
 20
1.24003319E+02
  0
VERTEX
  8
0
 62
4
 10
-7.88214818E+00
 20
1.23891025E+02
  0
VERTEX
  8
0
 62
4
 10
-8.00616582E+00
 20
1.23767661E+02
  0
VERTEX
  8
0
 62
4
 10
-8.11805688E+00
 20
1.23634221E+02
  0
VERTEX
  8
0
 62
4
 10
-8.21692047E+00
 20
1.23491779E+02
  0
VERTEX
  8
0
 62
4
 10
-8.30196062E+00
 20
1.23341483E+02
  0
VERTEX
  8
0
 62
4
 10
-8.37249263E+00
 20
1.23184542E+02
  0
VERTEX
  8
0
 62
4
 10
-8.42794861E+00
 20
1.23022219E+02
  0
VERTEX
  8
0
 62
4
 10
-8.46788207E+00
 20
1.22855822E+02
  0
VERTEX
  8
0
 62
4
 10
-8.49197148E+00
 20
1.22686691E+02
  0
VERTEX
  8
0
 62
4
 10
-8.50002289E+00
 20
1.22516187E+02
  0
SEQEND
  8
0
  0
LINE
  8
0
  6
CENTER
 62
6
 10
-4.17000077E+01
 20
1.44897179E+02
 11
-5.13000077E+01
 21
1.44897179E+02
  0
LINE
  8
0
  6
CENTER
 62
6
 10
-4.65000076E+01
 20
1.49697179E+02
 11
-4.65000076E+01
 21
1.40097179E+02
  0
LINE
  8
0
  6
CENTER
 62
6
 10
-5.79254107E+01
 20
1.44897179E+02
 11
-6.50746045E+01
 21
1.44897179E+02
  0
LINE
  8
0
  6
CENTER
 62
6
 10
-6.15000076E+01
 20
1.48471776E+02
 11
-6.15000076E+01
 21
1.41322582E+02
  0
LINE
  8
0
 62
4
 10
-6.90000076E+01
 20
1.38872221E+02
 11
-7.05000076E+01
 21
1.37775957E+02
  0
LINE
  8
0
 62
4
 10
-7.05000076E+01
 20
1.37775957E+02
 11
-7.05000076E+01
 21
1.34921890E+02
  0
LINE
  8
0
 62
4
 10
-7.05000076E+01
 20
1.35621814E+02
 11
-6.90000076E+01
 21
1.35067995E+02
  0
LINE
  8
0
 62
4
 10
-7.05000076E+01
 20
1.34921890E+02
 11
-6.99193843E+01
 21
1.34499985E+02
  0
LINE
  8
0
 62
4
 10
-6.90000076E+01
 20
1.35067995E+02
 11
-4.55000076E+01
 21
1.35067995E+02
  0
LINE
  8
0
 62
4
 10
-6.90000076E+01
 20
1.38872221E+02
 11
-5.69103106E+01
 21
1.38872221E+02
  0
LINE
  8
0
 62
4
 10
-6.90000076E+01
 20
1.39285946E+02
 11
-5.72946399E+01
 21
1.39285946E+02
  0
LINE
  8
0
 62
4
 10
-6.90000076E+01
 20
1.34911086E+02
 11
-3.90000076E+01
 21
1.34911086E+02
  0
LINE
  8
0
 62
4
 10
-6.90000076E+01
 20
1.38872221E+02
 11
-6.90000076E+01
 21
1.34911086E+02
  0
LINE
  8
0
 62
4
 10
-6.90000076E+01
 20
1.34911086E+02
 11
-6.90000076E+01
 21
1.34499985E+02
  0
POLYLINE
  8
0
 62
4
 66
1
  0
VERTEX
  8
0
 62
4
 10
-5.81500076E+01
 20
1.42229778E+02
  0
VERTEX
  8
0
 62
4
 10
-5.81342156E+01
 20
1.41885784E+02
  0
VERTEX
  8
0
 62
4
 10
-5.80869598E+01
 20
1.41544409E+02
  0
VERTEX
  8
0
 62
4
 10
-5.80085998E+01
 20
1.41208249E+02
  0
VERTEX
  8
0
 62
4
 10
-5.78997320E+01
 20
1.40879864E+02
  0
VERTEX
  8
0
 62
4
 10
-5.77611849E+01
 20
1.40561753E+02
  0
VERTEX
  8
0
 62
4
 10
-5.75940130E+01
 20
1.40256336E+02
  0
VERTEX
  8
0
 62
4
 10
-5.73994886E+01
 20
1.39965938E+02
  0
VERTEX
  8
0
 62
4
 10
-5.71790920E+01
 20
1.39692770E+02
  0
VERTEX
  8
0
 62
4
 10
-5.69345008E+01
 20
1.39438909E+02
  0
VERTEX
  8
0
 62
4
 10
-5.66675762E+01
 20
1.39206289E+02
  0
VERTEX
  8
0
 62
4
 10
-5.63803498E+01
 20
1.38996679E+02
  0
VERTEX
  8
0
 62
4
 10
-5.60750076E+01
 20
1.38811676E+02
  0
VERTEX
  8
0
 62
4
 10
-5.57538734E+01
 20
1.38652686E+02
  0
VERTEX
  8
0
 62
4
 10
-5.54193912E+01
 20
1.38520920E+02
  0
VERTEX
  8
0
 62
4
 10
-5.50741066E+01
 20
1.38417380E+02
  0
VERTEX
  8
0
 62
4
 10
-5.47206475E+01
 20
1.38342856E+02
  0
VERTEX
  8
0
 62
4
 10
-5.43617039E+01
 20
1.38297913E+02
  0
VERTEX
  8
0
 62
4
 10
-5.40000076E+01
 20
1.38282893E+02
  0
VERTEX
  8
0
 62
4
 10
-5.36383113E+01
 20
1.38297913E+02
  0
VERTEX
  8
0
 62
4
 10
-5.32793677E+01
 20
1.38342856E+02
  0
VERTEX
  8
0
 62
4
 10
-5.29259086E+01
 20
1.38417380E+02
  0
VERTEX
  8
0
 62
4
 10
-5.25806240E+01
 20
1.38520920E+02
  0
VERTEX
  8
0
 62
4
 10
-5.22461418E+01
 20
1.38652686E+02
  0
VERTEX
  8
0
 62
4
 10
-5.19250076E+01
 20
1.38811676E+02
  0
VERTEX
  8
0
 62
4
 10
-5.16196654E+01
 20
1.38996679E+02
  0
VERTEX
  8
0
 62
4
 10
-5.13324390E+01
 20
1.39206289E+02
  0
VERTEX
  8
0
 62
4
 10
-5.10655145E+01
 20
1.39438909E+02
  0
VERTEX
  8
0
 62
4
 10
-5.08209232E+01
 20
1.39692770E+02
  0
VERTEX
  8
0
 62
4
 10
-5.06005266E+01
 20
1.39965938E+02
  0
VERTEX
  8
0
 62
4
 10
-5.04060022E+01
 20
1.40256336E+02
  0
VERTEX
  8
0
 62
4
 10
-5.02388303E+01
 20
1.40561753E+02
  0
VERTEX
  8
0
 62
4
 10
-5.01002832E+01
 20
1.40879864E+02
  0
VERTEX
  8
0
 62
4
 10
-4.99914154E+01
 20
1.41208249E+02
  0
VERTEX
  8
0
 62
4
 10
-4.99130554E+01
 20
1.41544409E+02
  0
VERTEX
  8
0
 62
4
 10
-4.98657996E+01
 20
1.41885784E+02
  0
VERTEX
  8
0
 62
4
 10
-4.98500076E+01
 20
1.42229778E+02
  0
VERTEX
  8
0
 62
4
 10
-4.98657996E+01
 20
1.42573772E+02
  0
VERTEX
  8
0
 62
4
 10
-4.99130554E+01
 20
1.42915147E+02
  0
VERTEX
  8
0
 62
4
 10
-4.99914154E+01
 20
1.43251307E+02
  0
VERTEX
  8
0
 62
4
 10
-5.01002832E+01
 20
1.43579692E+02
  0
VERTEX
  8
0
 62
4
 10
-5.02388303E+01
 20
1.43897803E+02
  0
VERTEX
  8
0
 62
4
 10
-5.04060022E+01
 20
1.44203220E+02
  0
VERTEX
  8
0
 62
4
 10
-5.06005266E+01
 20
1.44493618E+02
  0
VERTEX
  8
0
 62
4
 10
-5.08209232E+01
 20
1.44766786E+02
  0
VERTEX
  8
0
 62
4
 10
-5.10655145E+01
 20
1.45020647E+02
  0
VERTEX
  8
0
 62
4
 10
-5.13324390E+01
 20
1.45253267E+02
  0
VERTEX
  8
0
 62
4
 10
-5.16196654E+01
 20
1.45462877E+02
  0
VERTEX
  8
0
 62
4
 10
-5.19250076E+01
 20
1.45647880E+02
  0
VERTEX
  8
0
 62
4
 10
-5.22461418E+01
 20
1.45806870E+02
  0
VERTEX
  8
0
 62
4
 10
-5.25806240E+01
 20
1.45938636E+02
  0
VERTEX
  8
0
 62
4
 10
-5.29259086E+01
 20
1.46042176E+02
  0
VERTEX
  8
0
 62
4
 10
-5.32793677E+01
 20
1.46116700E+02
  0
VERTEX
  8
0
 62
4
 10
-5.36383113E+01
 20
1.46161643E+02
  0
VERTEX
  8
0
 62
4
 10
-5.40000076E+01
 20
1.46176663E+02
  0
VERTEX
  8
0
 62
4
 10
-5.43617039E+01
 20
1.46161643E+02
  0
VERTEX
  8
0
 62
4
 10
-5.47206475E+01
 20
1.46116700E+02
  0
VERTEX
  8
0
 62
4
 10
-5.50741066E+01
 20
1.46042176E+02
  0
VERTEX
  8
0
 62
4
 10
-5.54193912E+01
 20
1.45938636E+02
  0
VERTEX
  8
0
 62
4
 10
-5.57538734E+01
 20
1.45806870E+02
  0
VERTEX
  8
0
 62
4
 10
-5.60750076E+01
 20
1.45647880E+02
  0
VERTEX
  8
0
 62
4
 10
-5.63803498E+01
 20
1.45462877E+02
  0
VERTEX
  8
0
 62
4
 10
-5.66675762E+01
 20
1.45253267E+02
  0
VERTEX
  8
0
 62
4
 10
-5.69345007E+01
 20
1.45020647E+02
  0
VERTEX
  8
0
 62
4
 10
-5.71790920E+01
 20
1.44766786E+02
  0
VERTEX
  8
0
 62
4
 10
-5.73994886E+01
 20
1.44493618E+02
  0
VERTEX
  8
0
 62
4
 10
-5.75940130E+01
 20
1.44203220E+02
  0
VERTEX
  8
0
 62
4
 10
-5.77611849E+01
 20
1.43897803E+02
  0
VERTEX
  8
0
 62
4
 10
-5.78997320E+01
 20
1.43579692E+02
  0
VERTEX
  8
0
 62
4
 10
-5.80085998E+01
 20
1.43251307E+02
  0
VERTEX
  8
0
 62
4
 10
-5.80869598E+01
 20
1.42915147E+02
  0
VERTEX
  8
0
 62
4
 10
-5.81342156E+01
 20
1.42573772E+02
  0
VERTEX
  8
0
 62
4
 10
-5.81500076E+01
 20
1.42229778E+02
  0
SEQEND
  8
0
  0
ARC
  8
0
 62
4
 10
1.79293589E+01
 20
6.67970145E+01
 40
1.04392782E+02
 50
1.32228766E+02
 51
1.34907157E+02
  0
ARC
  8
0
 62
4
 10
-1.25929150E+02
 20
6.67972498E+01
 40
1.04392457E+02
 50
4.50928385E+01
 51
4.77712376E+01
  0
POLYLINE
  8
0
 62
4
 66
1
  0
VERTEX
  8
0
 62
4
 10
-5.81500076E+01
 20
1.41685908E+02
  0
VERTEX
  8
0
 62
4
 10
-5.81333009E+01
 20
1.41332112E+02
  0
VERTEX
  8
0
 62
4
 10
-5.80833154E+01
 20
1.40981165E+02
  0
VERTEX
  8
0
 62
4
 10
-5.80004535E+01
 20
1.40635891E+02
  0
VERTEX
  8
0
 62
4
 10
-5.78853823E+01
 20
1.40299072E+02
  0
VERTEX
  8
0
 62
4
 10
-5.77390284E+01
 20
1.39973419E+02
  0
VERTEX
  8
0
 62
4
 10
-5.75625701E+01
 20
1.39661554E+02
  0
VERTEX
  8
0
 62
4
 10
-5.73574281E+01
 20
1.39365987E+02
  0
VERTEX
  8
0
 62
4
 10
-5.71252542E+01
 20
1.39089100E+02
  0
VERTEX
  8
0
 62
4
 10
-5.68679176E+01
 20
1.38833120E+02
  0
VERTEX
  8
0
 62
4
 10
-5.65874903E+01
 20
1.38600109E+02
  0
VERTEX
  8
0
 62
4
 10
-5.62862301E+01
 20
1.38391944E+02
  0
VERTEX
  8
0
 62
4
 10
-5.59665626E+01
 20
1.38210299E+02
  0
VERTEX
  8
0
 62
4
 10
-5.56310615E+01
 20
1.38056638E+02
  0
VERTEX
  8
0
 62
4
 10
-5.52824281E+01
 20
1.37932198E+02
  0
VERTEX
  8
0
 62
4
 10
-5.49234695E+01
 20
1.37837980E+02
  0
VERTEX
  8
0
 62
4
 10
-5.45570757E+01
 20
1.37774744E+02
  0
VERTEX
  8
0
 62
4
 10
-5.41861967E+01
 20
1.37742998E+02
  0
VERTEX
  8
0
 62
4
 10
-5.38138186E+01
 20
1.37742998E+02
  0
VERTEX
  8
0
 62
4
 10
-5.34429396E+01
 20
1.37774744E+02
  0
VERTEX
  8
0
 62
4
 10
-5.30765457E+01
 20
1.37837980E+02
  0
VERTEX
  8
0
 62
4
 10
-5.27175871E+01
 20
1.37932198E+02
  0
VERTEX
  8
0
 62
4
 10
-5.23689537E+01
 20
1.38056638E+02
  0
VERTEX
  8
0
 62
4
 10
-5.20334527E+01
 20
1.38210299E+02
  0
VERTEX
  8
0
 62
4
 10
-5.17137851E+01
 20
1.38391944E+02
  0
VERTEX
  8
0
 62
4
 10
-5.14125249E+01
 20
1.38600109E+02
  0
VERTEX
  8
0
 62
4
 10
-5.11320976E+01
 20
1.38833120E+02
  0
VERTEX
  8
0
 62
4
 10
-5.08747610E+01
 20
1.39089100E+02
  0
VERTEX
  8
0
 62
4
 10
-5.06425871E+01
 20
1.39365987E+02
  0
VERTEX
  8
0
 62
4
 10
-5.04374451E+01
 20
1.39661554E+02
  0
VERTEX
  8
0
 62
4
 10
-5.02609868E+01
 20
1.39973419E+02
  0
VERTEX
  8
0
 62
4
 10
-5.01146329E+01
 20
1.40299072E+02
  0
VERTEX
  8
0
 62
4
 10
-4.99995617E+01
 20
1.40635891E+02
  0
VERTEX
  8
0
 62
4
 10
-4.99166998E+01
 20
1.40981165E+02
  0
VERTEX
  8
0
 62
4
 10
-4.98667143E+01
 20
1.41332112E+02
  0
VERTEX
  8
0
 62
4
 10
-4.98500076E+01
 20
1.41685908E+02
  0
SEQEND
  8
0
  0
LINE
  8
0
 62
4
 10
-5.81500076E+01
 20
1.41685908E+02
 11
-5.81500076E+01
 21
1.42229778E+02
  0
LINE
  8
0
 62
4
 10
-4.98500076E+01
 20
1.41685908E+02
 11
-4.98500076E+01
 21
1.42229778E+02
  0
POLYLINE
  8
0
 62
4
 66
1
  0
VERTEX
  8
0
 62
4
 10
-5.03000076E+01
 20
1.44897179E+02
  0
VERTEX
  8
0
 62
4
 10
-5.02847099E+01
 20
1.44573221E+02
  0
VERTEX
  8
0
 62
4
 10
-5.02389401E+01
 20
1.44251872E+02
  0
VERTEX
  8
0
 62
4
 10
-5.01630665E+01
 20
1.43935718E+02
  0
VERTEX
  8
0
 62
4
 10
-5.00577001E+01
 20
1.43627305E+02
  0
VERTEX
  8
0
 62
4
 10
-4.99236893E+01
 20
1.43329117E+02
  0
VERTEX
  8
0
 62
4
 10
-4.97621130E+01
 20
1.43043553E+02
  0
VERTEX
  8
0
 62
4
 10
-4.95742722E+01
 20
1.42772914E+02
  0
VERTEX
  8
0
 62
4
 10
-4.93616792E+01
 20
1.42519379E+02
  0
VERTEX
  8
0
 62
4
 10
-4.91260457E+01
 20
1.42284988E+02
  0
VERTEX
  8
0
 62
4
 10
-4.88692689E+01
 20
1.42071628E+02
  0
VERTEX
  8
0
 62
4
 10
-4.85934162E+01
 20
1.41881019E+02
  0
VERTEX
  8
0
 62
4
 10
-4.83007085E+01
 20
1.41714694E+02
  0
VERTEX
  8
0
 62
4
 10
-4.79935027E+01
 20
1.41573992E+02
  0
VERTEX
  8
0
 62
4
 10
-4.76742722E+01
 20
1.41460047E+02
  0
VERTEX
  8
0
 62
4
 10
-4.73455872E+01
 20
1.41373775E+02
  0
VERTEX
  8
0
 62
4
 10
-4.70100940E+01
 20
1.41315872E+02
  0
VERTEX
  8
0
 62
4
 10
-4.66704940E+01
 20
1.41286803E+02
  0
VERTEX
  8
0
 62
4
 10
-4.63295213E+01
 20
1.41286803E+02
  0
VERTEX
  8
0
 62
4
 10
-4.59899212E+01
 20
1.41315872E+02
  0
VERTEX
  8
0
 62
4
 10
-4.56544281E+01
 20
1.41373775E+02
  0
VERTEX
  8
0
 62
4
 10
-4.53257430E+01
 20
1.41460047E+02
  0
VERTEX
  8
0
 62
4
 10
-4.50065125E+01
 20
1.41573992E+02
  0
VERTEX
  8
0
 62
4
 10
-4.46993067E+01
 20
1.41714694E+02
  0
VERTEX
  8
0
 62
4
 10
-4.44065991E+01
 20
1.41881019E+02
  0
VERTEX
  8
0
 62
4
 10
-4.41307464E+01
 20
1.42071628E+02
  0
VERTEX
  8
0
 62
4
 10
-4.38739695E+01
 20
1.42284988E+02
  0
VERTEX
  8
0
 62
4
 10
-4.36383360E+01
 20
1.42519379E+02
  0
VERTEX
  8
0
 62
4
 10
-4.34257430E+01
 20
1.42772914E+02
  0
VERTEX
  8
0
 62
4
 10
-4.32379022E+01
 20
1.43043553E+02
  0
VERTEX
  8
0
 62
4
 10
-4.30763259E+01
 20
1.43329117E+02
  0
VERTEX
  8
0
 62
4
 10
-4.29423151E+01
 20
1.43627305E+02
  0
VERTEX
  8
0
 62
4
 10
-4.28369487E+01
 20
1.43935718E+02
  0
VERTEX
  8
0
 62
4
 10
-4.27610751E+01
 20
1.44251872E+02
  0
VERTEX
  8
0
 62
4
 10
-4.27153053E+01
 20
1.44573221E+02
  0
VERTEX
  8
0
 62
4
 10
-4.27000076E+01
 20
1.44897179E+02
  0
SEQEND
  8
0
  0
POLYLINE
  8
0
 62
4
 66
1
  0
VERTEX
  8
0
 62
4
 10
-5.03000076E+01
 20
1.45206196E+02
  0
VERTEX
  8
0
 62
4
 10
-5.02855475E+01
 20
1.44891214E+02
  0
VERTEX
  8
0
 62
4
 10
-5.02422771E+01
 20
1.44578629E+02
  0
VERTEX
  8
0
 62
4
 10
-5.01705258E+01
 20
1.44270820E+02
  0
VERTEX
  8
0
 62
4
 10
-5.00708396E+01
 20
1.43970130E+02
  0
VERTEX
  8
0
 62
4
 10
-4.99439772E+01
 20
1.43678847E+02
  0
VERTEX
  8
0
 62
4
 10
-4.97909042E+01
 20
1.43399189E+02
  0
VERTEX
  8
0
 62
4
 10
-4.96127854E+01
 20
1.43133282E+02
  0
VERTEX
  8
0
 62
4
 10
-4.94109765E+01
 20
1.42883152E+02
  0
VERTEX
  8
0
 62
4
 10
-4.91870134E+01
 20
1.42650702E+02
  0
VERTEX
  8
0
 62
4
 10
-4.89426005E+01
 20
1.42437700E+02
  0
VERTEX
  8
0
 62
4
 10
-4.86795981E+01
 20
1.42245768E+02
  0
VERTEX
  8
0
 62
4
 10
-4.84000076E+01
 20
1.42076367E+02
  0
VERTEX
  8
0
 62
4
 10
-4.81059570E+01
 20
1.41930786E+02
  0
VERTEX
  8
0
 62
4
 10
-4.77996842E+01
 20
1.41810133E+02
  0
VERTEX
  8
0
 62
4
 10
-4.74835200E+01
 20
1.41715326E+02
  0
VERTEX
  8
0
 62
4
 10
-4.71598707E+01
 20
1.41647086E+02
  0
VERTEX
  8
0
 62
4
 10
-4.68311994E+01
 20
1.41605934E+02
  0
VERTEX
  8
0
 62
4
 10
-4.65000076E+01
 20
1.41592181E+02
  0
VERTEX
  8
0
 62
4
 10
-4.61688158E+01
 20
1.41605934E+02
  0
VERTEX
  8
0
 62
4
 10
-4.58401445E+01
 20
1.41647086E+02
  0
VERTEX
  8
0
 62
4
 10
-4.55164952E+01
 20
1.41715326E+02
  0
VERTEX
  8
0
 62
4
 10
-4.52003311E+01
 20
1.41810133E+02
  0
VERTEX
  8
0
 62
4
 10
-4.48940582E+01
 20
1.41930786E+02
  0
VERTEX
  8
0
 62
4
 10
-4.46000076E+01
 20
1.42076367E+02
  0
VERTEX
  8
0
 62
4
 10
-4.43204171E+01
 20
1.42245768E+02
  0
VERTEX
  8
0
 62
4
 10
-4.40574147E+01
 20
1.42437700E+02
  0
VERTEX
  8
0
 62
4
 10
-4.38130018E+01
 20
1.42650702E+02
  0
VERTEX
  8
0
 62
4
 10
-4.35890387E+01
 20
1.42883152E+02
  0
VERTEX
  8
0
 62
4
 10
-4.33872298E+01
 20
1.43133282E+02
  0
VERTEX
  8
0
 62
4
 10
-4.32091110E+01
 20
1.43399189E+02
  0
VERTEX
  8
0
 62
4
 10
-4.30560380E+01
 20
1.43678847E+02
  0
VERTEX
  8
0
 62
4
 10
-4.29291756E+01
 20
1.43970130E+02
  0
VERTEX
  8
0
 62
4
 10
-4.28294894E+01
 20
1.44270820E+02
  0
VERTEX
  8
0
 62
4
 10
-4.27577381E+01
 20
1.44578629E+02
  0
VERTEX
  8
0
 62
4
 10
-4.27144677E+01
 20
1.44891214E+02
  0
VERTEX
  8
0
 62
4
 10
-4.27000076E+01
 20
1.45206196E+02
  0
VERTEX
  8
0
 62
4
 10
-4.27144677E+01
 20
1.45521178E+02
  0
VERTEX
  8
0
 62
4
 10
-4.27577381E+01
 20
1.45833763E+02
  0
VERTEX
  8
0
 62
4
 10
-4.28294894E+01
 20
1.46141572E+02
  0
VERTEX
  8
0
 62
4
 10
-4.29291756E+01
 20
1.46442262E+02
  0
VERTEX
  8
0
 62
4
 10
-4.30560380E+01
 20
1.46733545E+02
  0
VERTEX
  8
0
 62
4
 10
-4.32091110E+01
 20
1.47013203E+02
  0
VERTEX
  8
0
 62
4
 10
-4.33872298E+01
 20
1.47279110E+02
  0
VERTEX
  8
0
 62
4
 10
-4.35890387E+01
 20
1.47529240E+02
  0
VERTEX
  8
0
 62
4
 10
-4.38130018E+01
 20
1.47761690E+02
  0
VERTEX
  8
0
 62
4
 10
-4.40574147E+01
 20
1.47974692E+02
  0
VERTEX
  8
0
 62
4
 10
-4.43204171E+01
 20
1.48166624E+02
  0
VERTEX
  8
0
 62
4
 10
-4.46000076E+01
 20
1.48336025E+02
  0
VERTEX
  8
0
 62
4
 10
-4.48940582E+01
 20
1.48481606E+02
  0
VERTEX
  8
0
 62
4
 10
-4.52003310E+01
 20
1.48602259E+02
  0
VERTEX
  8
0
 62
4
 10
-4.55164952E+01
 20
1.48697066E+02
  0
VERTEX
  8
0
 62
4
 10
-4.58401445E+01
 20
1.48765306E+02
  0
VERTEX
  8
0
 62
4
 10
-4.61688158E+01
 20
1.48806458E+02
  0
VERTEX
  8
0
 62
4
 10
-4.65000076E+01
 20
1.48820211E+02
  0
VERTEX
  8
0
 62
4
 10
-4.68311994E+01
 20
1.48806458E+02
  0
VERTEX
  8
0
 62
4
 10
-4.71598707E+01
 20
1.48765306E+02
  0
VERTEX
  8
0
 62
4
 10
-4.74835200E+01
 20
1.48697066E+02
  0
VERTEX
  8
0
 62
4
 10
-4.77996842E+01
 20
1.48602259E+02
  0
VERTEX
  8
0
 62
4
 10
-4.81059570E+01
 20
1.48481606E+02
  0
VERTEX
  8
0
 62
4
 10
-4.84000076E+01
 20
1.48336025E+02
  0
VERTEX
  8
0
 62
4
 10
-4.86795981E+01
 20
1.48166624E+02
  0
VERTEX
  8
0
 62
4
 10
-4.89426005E+01
 20
1.47974692E+02
  0
VERTEX
  8
0
 62
4
 10
-4.91870134E+01
 20
1.47761690E+02
  0
VERTEX
  8
0
 62
4
 10
-4.94109765E+01
 20
1.47529240E+02
  0
VERTEX
  8
0
 62
4
 10
-4.96127854E+01
 20
1.47279110E+02
  0
VERTEX
  8
0
 62
4
 10
-4.97909042E+01
 20
1.47013203E+02
  0
VERTEX
  8
0
 62
4
 10
-4.99439772E+01
 20
1.46733545E+02
  0
VERTEX
  8
0
 62
4
 10
-5.00708396E+01
 20
1.46442262E+02
  0
VERTEX
  8
0
 62
4
 10
-5.01705258E+01
 20
1.46141572E+02
  0
VERTEX
  8
0
 62
4
 10
-5.02422771E+01
 20
1.45833763E+02
  0
VERTEX
  8
0
 62
4
 10
-5.02855475E+01
 20
1.45521178E+02
  0
VERTEX
  8
0
 62
4
 10
-5.03000076E+01
 20
1.45206196E+02
  0
SEQEND
  8
0
  0
LINE
  8
0
 62
4
 10
-5.03000077E+01
 20
1.44897179E+02
 11
-5.03000077E+01
 21
1.45206196E+02
  0
LINE
  8
0
 62
4
 10
-4.27000077E+01
 20
1.44897179E+02
 11
-4.27000077E+01
 21
1.45206196E+02
  0
POLYLINE
  8
0
 62
4
 66
1
  0
VERTEX
  8
0
 62
4
 10
-4.99000076E+01
 20
1.45206196E+02
  0
VERTEX
  8
0
 62
4
 10
-4.98863202E+01
 20
1.44916339E+02
  0
VERTEX
  8
0
 62
4
 10
-4.98453682E+01
 20
1.44628816E+02
  0
VERTEX
  8
0
 62
4
 10
-4.97774814E+01
 20
1.44345941E+02
  0
VERTEX
  8
0
 62
4
 10
-4.96832062E+01
 20
1.44069993E+02
  0
VERTEX
  8
0
 62
4
 10
-4.95633018E+01
 20
1.43803193E+02
  0
VERTEX
  8
0
 62
4
 10
-4.94187335E+01
 20
1.43547689E+02
  0
VERTEX
  8
0
 62
4
 10
-4.92506654E+01
 20
1.43305538E+02
  0
VERTEX
  8
0
 62
4
 10
-4.90604506E+01
 20
1.43078691E+02
  0
VERTEX
  8
0
 62
4
 10
-4.88496206E+01
 20
1.42868972E+02
  0
VERTEX
  8
0
 62
4
 10
-4.86198730E+01
 20
1.42678072E+02
  0
VERTEX
  8
0
 62
4
 10
-4.83730574E+01
 20
1.42507526E+02
  0
VERTEX
  8
0
 62
4
 10
-4.81111611E+01
 20
1.42358709E+02
  0
VERTEX
  8
0
 62
4
 10
-4.78362927E+01
 20
1.42232818E+02
  0
VERTEX
  8
0
 62
4
 10
-4.75506654E+01
 20
1.42130867E+02
  0
VERTEX
  8
0
 62
4
 10
-4.72565788E+01
 20
1.42053677E+02
  0
VERTEX
  8
0
 62
4
 10
-4.69564007E+01
 20
1.42001869E+02
  0
VERTEX
  8
0
 62
4
 10
-4.66525480E+01
 20
1.41975860E+02
  0
VERTEX
  8
0
 62
4
 10
-4.63474672E+01
 20
1.41975860E+02
  0
VERTEX
  8
0
 62
4
 10
-4.60436145E+01
 20
1.42001869E+02
  0
VERTEX
  8
0
 62
4
 10
-4.57434364E+01
 20
1.42053677E+02
  0
VERTEX
  8
0
 62
4
 10
-4.54493498E+01
 20
1.42130867E+02
  0
VERTEX
  8
0
 62
4
 10
-4.51637225E+01
 20
1.42232818E+02
  0
VERTEX
  8
0
 62
4
 10
-4.48888542E+01
 20
1.42358709E+02
  0
VERTEX
  8
0
 62
4
 10
-4.46269579E+01
 20
1.42507526E+02
  0
VERTEX
  8
0
 62
4
 10
-4.43801423E+01
 20
1.42678072E+02
  0
VERTEX
  8
0
 62
4
 10
-4.41503946E+01
 20
1.42868972E+02
  0
VERTEX
  8
0
 62
4
 10
-4.39395646E+01
 20
1.43078690E+02
  0
VERTEX
  8
0
 62
4
 10
-4.37493498E+01
 20
1.43305538E+02
  0
VERTEX
  8
0
 62
4
 10
-4.35812817E+01
 20
1.43547689E+02
  0
VERTEX
  8
0
 62
4
 10
-4.34367134E+01
 20
1.43803193E+02
  0
VERTEX
  8
0
 62
4
 10
-4.33168090E+01
 20
1.44069993E+02
  0
VERTEX
  8
0
 62
4
 10
-4.32225339E+01
 20
1.44345941E+02
  0
VERTEX
  8
0
 62
4
 10
-4.31546470E+01
 20
1.44628816E+02
  0
VERTEX
  8
0
 62
4
 10
-4.31136950E+01
 20
1.44916339E+02
  0
VERTEX
  8
0
 62
4
 10
-4.31000076E+01
 20
1.45206196E+02
  0
SEQEND
  8
0
  0
LINE
  8
0
 62
4
 10
-4.31000076E+01
 20
1.45604577E+02
 11
-4.31000076E+01
 21
1.45206196E+02
  0
LINE
  8
0
 62
4
 10
-4.99000076E+01
 20
1.45206196E+02
 11
-4.99000076E+01
 21
1.45604577E+02
  0
POLYLINE
  8
0
 62
4
 66
1
  0
VERTEX
  8
0
 62
4
 10
-4.99000076E+01
 20
1.45604577E+02
  0
VERTEX
  8
0
 62
4
 10
-4.98870696E+01
 20
1.45322751E+02
  0
VERTEX
  8
0
 62
4
 10
-4.98483540E+01
 20
1.45043070E+02
  0
VERTEX
  8
0
 62
4
 10
-4.97841554E+01
 20
1.44767662E+02
  0
VERTEX
  8
0
 62
4
 10
-4.96949625E+01
 20
1.44498623E+02
  0
VERTEX
  8
0
 62
4
 10
-4.95814541E+01
 20
1.44238002E+02
  0
VERTEX
  8
0
 62
4
 10
-4.94444940E+01
 20
1.43987781E+02
  0
VERTEX
  8
0
 62
4
 10
-4.92851246E+01
 20
1.43749865E+02
  0
VERTEX
  8
0
 62
4
 10
-4.91045587E+01
 20
1.43526064E+02
  0
VERTEX
  8
0
 62
4
 10
-4.89041707E+01
 20
1.43318082E+02
  0
VERTEX
  8
0
 62
4
 10
-4.86854855E+01
 20
1.43127502E+02
  0
VERTEX
  8
0
 62
4
 10
-4.84501675E+01
 20
1.42955773E+02
  0
VERTEX
  8
0
 62
4
 10
-4.82000076E+01
 20
1.42804204E+02
  0
VERTEX
  8
0
 62
4
 10
-4.79369097E+01
 20
1.42673947E+02
  0
VERTEX
  8
0
 62
4
 10
-4.76628761E+01
 20
1.42565994E+02
  0
VERTEX
  8
0
 62
4
 10
-4.73799924E+01
 20
1.42481167E+02
  0
VERTEX
  8
0
 62
4
 10
-4.70904114E+01
 20
1.42420110E+02
  0
VERTEX
  8
0
 62
4
 10
-4.67963371E+01
 20
1.42383290E+02
  0
VERTEX
  8
0
 62
4
 10
-4.65000076E+01
 20
1.42370985E+02
  0
VERTEX
  8
0
 62
4
 10
-4.62036781E+01
 20
1.42383290E+02
  0
VERTEX
  8
0
 62
4
 10
-4.59096038E+01
 20
1.42420110E+02
  0
VERTEX
  8
0
 62
4
 10
-4.56200228E+01
 20
1.42481167E+02
  0
VERTEX
  8
0
 62
4
 10
-4.53371391E+01
 20
1.42565994E+02
  0
VERTEX
  8
0
 62
4
 10
-4.50631055E+01
 20
1.42673947E+02
  0
VERTEX
  8
0
 62
4
 10
-4.48000076E+01
 20
1.42804204E+02
  0
VERTEX
  8
0
 62
4
 10
-4.45498477E+01
 20
1.42955773E+02
  0
VERTEX
  8
0
 62
4
 10
-4.43145297E+01
 20
1.43127502E+02
  0
VERTEX
  8
0
 62
4
 10
-4.40958445E+01
 20
1.43318082E+02
  0
VERTEX
  8
0
 62
4
 10
-4.38954565E+01
 20
1.43526064E+02
  0
VERTEX
  8
0
 62
4
 10
-4.37148906E+01
 20
1.43749865E+02
  0
VERTEX
  8
0
 62
4
 10
-4.35555212E+01
 20
1.43987781E+02
  0
VERTEX
  8
0
 62
4
 10
-4.34185611E+01
 20
1.44238002E+02
  0
VERTEX
  8
0
 62
4
 10
-4.33050527E+01
 20
1.44498623E+02
  0
VERTEX
  8
0
 62
4
 10
-4.32158598E+01
 20
1.44767662E+02
  0
VERTEX
  8
0
 62
4
 10
-4.31516612E+01
 20
1.45043070E+02
  0
VERTEX
  8
0
 62
4
 10
-4.31129456E+01
 20
1.45322751E+02
  0
VERTEX
  8
0
 62
4
 10
-4.31000076E+01
 20
1.45604577E+02
  0
VERTEX
  8
0
 62
4
 10
-4.31129456E+01
 20
1.45886403E+02
  0
VERTEX
  8
0
 62
4
 10
-4.31516612E+01
 20
1.46166084E+02
  0
VERTEX
  8
0
 62
4
 10
-4.32158598E+01
 20
1.46441492E+02
  0
VERTEX
  8
0
 62
4
 10
-4.33050527E+01
 20
1.46710531E+02
  0
VERTEX
  8
0
 62
4
 10
-4.34185611E+01
 20
1.46971152E+02
  0
VERTEX
  8
0
 62
4
 10
-4.35555212E+01
 20
1.47221373E+02
  0
VERTEX
  8
0
 62
4
 10
-4.37148906E+01
 20
1.47459289E+02
  0
VERTEX
  8
0
 62
4
 10
-4.38954565E+01
 20
1.47683090E+02
  0
VERTEX
  8
0
 62
4
 10
-4.40958445E+01
 20
1.47891072E+02
  0
VERTEX
  8
0
 62
4
 10
-4.43145297E+01
 20
1.48081652E+02
  0
VERTEX
  8
0
 62
4
 10
-4.45498477E+01
 20
1.48253381E+02
  0
VERTEX
  8
0
 62
4
 10
-4.48000076E+01
 20
1.48404950E+02
  0
VERTEX
  8
0
 62
4
 10
-4.50631055E+01
 20
1.48535207E+02
  0
VERTEX
  8
0
 62
4
 10
-4.53371391E+01
 20
1.48643160E+02
  0
VERTEX
  8
0
 62
4
 10
-4.56200228E+01
 20
1.48727987E+02
  0
VERTEX
  8
0
 62
4
 10
-4.59096038E+01
 20
1.48789044E+02
  0
VERTEX
  8
0
 62
4
 10
-4.62036781E+01
 20
1.48825864E+02
  0
VERTEX
  8
0
 62
4
 10
-4.65000076E+01
 20
1.48838169E+02
  0
VERTEX
  8
0
 62
4
 10
-4.67963371E+01
 20
1.48825864E+02
  0
VERTEX
  8
0
 62
4
 10
-4.70904114E+01
 20
1.48789044E+02
  0
VERTEX
  8
0
 62
4
 10
-4.73799924E+01
 20
1.48727987E+02
  0
VERTEX
  8
0
 62
4
 10
-4.76628761E+01
 20
1.48643160E+02
  0
VERTEX
  8
0
 62
4
 10
-4.79369097E+01
 20
1.48535207E+02
  0
VERTEX
  8
0
 62
4
 10
-4.82000076E+01
 20
1.48404950E+02
  0
VERTEX
  8
0
 62
4
 10
-4.84501675E+01
 20
1.48253381E+02
  0
VERTEX
  8
0
 62
4
 10
-4.86854855E+01
 20
1.48081652E+02
  0
VERTEX
  8
0
 62
4
 10
-4.89041707E+01
 20
1.47891072E+02
  0
VERTEX
  8
0
 62
4
 10
-4.91045587E+01
 20
1.47683090E+02
  0
VERTEX
  8
0
 62
4
 10
-4.92851246E+01
 20
1.47459289E+02
  0
VERTEX
  8
0
 62
4
 10
-4.94444940E+01
 20
1.47221373E+02
  0
VERTEX
  8
0
 62
4
 10
-4.95814541E+01
 20
1.46971152E+02
  0
VERTEX
  8
0
 62
4
 10
-4.96949625E+01
 20
1.46710531E+02
  0
VERTEX
  8
0
 62
4
 10
-4.97841554E+01
 20
1.46441492E+02
  0
VERTEX
  8
0
 62
4
 10
-4.98483540E+01
 20
1.46166084E+02
  0
VERTEX
  8
0
 62
4
 10
-4.98870696E+01
 20
1.45886403E+02
  0
VERTEX
  8
0
 62
4
 10
-4.99000076E+01
 20
1.45604577E+02
  0
SEQEND
  8
0
  0
ARC
  8
0
 62
4
 10
2.23145117E+01
 20
7.35510357E+01
 40
9.98837386E+01
 50
1.32163454E+02
 51
1.34962547E+02
  0
ARC
  8
0
 62
4
 10
-1.15314527E+02
 20
7.35510357E+01
 40
9.98837386E+01
 50
4.50374523E+01
 51
4.78365464E+01
  0
LINE
  8
0
 62
4
 10
-5.07053754E+01
 20
1.39285946E+02
 11
-3.90000076E+01
 21
1.39285946E+02
  0
LINE
  8
0
 62
4
 10
-5.10897047E+01
 20
1.38872221E+02
 11
-4.55000076E+01
 21
1.38872221E+02
  0
LINE
  8
0
 62
7
 10
-1.00000229E+01
 20
1.34499969E+02
 11
-8.00000076E+01
 21
1.34499969E+02
  0
LINE
  8
0
 62
7
 10
-1.00000229E+01
 20
1.32099976E+02
 11
-8.00000076E+01
 21
1.32099976E+02
  0
LINE
  8
0
 62
7
 10
-1.00000229E+01
 20
1.24899963E+02
 11
-8.00000076E+01
 21
1.24899963E+02
  0
LINE
  8
0
 62
4
 10
2.15000076E+01
 20
1.37775957E+02
 11
2.15000076E+01
 21
1.34921890E+02
  0
LINE
  8
0
 62
4
 10
2.00000076E+01
 20
1.38872221E+02
 11
2.15000076E+01
 21
1.37775957E+02
  0
LINE
  8
0
 62
4
 10
1.99999771E+01
 20
1.37636153E+02
 11
2.15000076E+01
 21
1.37076033E+02
  0
LINE
  8
0
 62
4
 10
2.15000076E+01
 20
1.34921890E+02
 11
1.99999771E+01
 21
1.33831905E+02
  0
LINE
  8
0
 62
7
 10
-3.89900002E+02
 20
1.07749992E+02
 11
-3.89500069E+02
 21
1.07749992E+02
  0
LINE
  8
0
 62
7
 10
-3.65000130E+02
 20
1.35000061E+02
 11
-3.38999977E+02
 21
1.35000061E+02
  0
LINE
  8
0
  6
CENTER
 62
2
 10
-3.92045174E+02
 20
1.28500122E+02
 11
-3.69894081E+02
 21
1.28500122E+02
  0
LINE
  8
0
  6
CENTER
 62
2
 10
-3.92964119E+02
 20
8.94999771E+01
 11
-3.89500069E+02
 21
8.94999771E+01
  0
LINE
  8
0
 62
7
 10
-3.92100044E+02
 20
8.78999863E+01
 11
-3.92100044E+02
 21
9.11000214E+01
  0
LINE
  8
0
  6
CENTER
 62
2
 10
-3.92964119E+02
 20
1.11500000E+02
 11
-3.89500069E+02
 21
1.11500000E+02
  0
LINE
  8
0
 62
7
 10
-3.92100044E+02
 20
1.13100037E+02
 11
-3.92100044E+02
 21
1.09899994E+02
  0
LINE
  8
0
 62
7
 10
-3.89900002E+02
 20
1.15250000E+02
 11
-3.89500069E+02
 21
1.15250000E+02
  0
LINE
  8
0
 62
7
 10
-3.18500099E+02
 20
9.95000153E+01
 11
-3.32100380E+02
 21
9.95000153E+01
  0
LINE
  8
0
 62
7
 10
-3.89900002E+02
 20
8.57499771E+01
 11
-3.89500069E+02
 21
8.57499771E+01
  0
LINE
  8
0
 62
7
 10
-3.89900002E+02
 20
9.32499771E+01
 11
-3.89500069E+02
 21
9.32499771E+01
  0
LINE
  8
0
  6
CENTER
 62
2
 10
-3.60000038E+02
 20
1.40185303E+02
 11
-3.60000038E+02
 21
1.14218918E+02
  0
LINE
  8
0
 62
7
 10
-3.51000099E+02
 20
6.70000229E+01
 11
-3.51000099E+02
 21
8.06002579E+01
  0
LINE
  8
0
 62
7
 10
-3.37221774E+02
 20
8.71357046E+01
 11
-3.29859949E+02
 21
7.97738777E+01
  0
LINE
  8
0
 62
7
 10
-3.38636149E+02
 20
8.57215019E+01
 11
-3.31274303E+02
 21
7.83596535E+01
  0
LINE
  8
0
  6
CENTER
 62
2
 10
-3.11970375E+02
 20
7.25000076E+01
 11
-3.34503334E+02
 21
7.25000076E+01
  0
LINE
  8
0
 62
7
 10
-3.77000038E+02
 20
1.38000046E+02
 11
-3.77000038E+02
 21
1.37500061E+02
  0
LINE
  8
0
 62
7
 10
-3.27000038E+02
 20
1.38000046E+02
 11
-3.27000038E+02
 21
1.37500061E+02
  0
LINE
  8
0
 62
7
 10
-3.77000038E+02
 20
6.35000000E+01
 11
-3.77000038E+02
 21
6.30000076E+01
  0
LINE
  8
0
 62
7
 10
-3.27000038E+02
 20
6.35000000E+01
 11
-3.27000038E+02
 21
6.30000076E+01
  0
LINE
  8
0
  6
CENTER
 62
2
 10
-3.92842323E+02
 20
1.00500000E+02
 11
-3.11171913E+02
 21
1.00500000E+02
  0
LINE
  8
0
  6
CENTER
 62
2
 10
-3.52000038E+02
 20
1.41129669E+02
 11
-3.52000038E+02
 21
5.96689758E+01
  0
LINE
  8
0
 62
7
 10
-3.69500160E+02
 20
1.30500244E+02
 11
-3.70763680E+02
 21
1.30500244E+02
  0
LINE
  8
0
 62
7
 10
-3.82000313E+02
 20
1.18000092E+02
 11
-3.82000313E+02
 21
1.19263672E+02
  0
LINE
  8
0
 62
7
 10
-3.34499977E+02
 20
1.30500275E+02
 11
-3.33236549E+02
 21
1.30500275E+02
  0
LINE
  8
0
 62
7
 10
-3.21999855E+02
 20
1.18000092E+02
 11
-3.21999855E+02
 21
1.19263824E+02
  0
LINE
  8
0
 62
7
 10
-3.34500008E+02
 20
7.04998474E+01
 11
-3.33236275E+02
 21
7.04998474E+01
  0
LINE
  8
0
 62
7
 10
-3.21999855E+02
 20
8.29998932E+01
 11
-3.21999855E+02
 21
8.17363129E+01
  0
LINE
  8
0
 62
7
 10
-3.82000313E+02
 20
8.29998932E+01
 11
-3.82000313E+02
 21
8.17364655E+01
  0
LINE
  8
0
 62
7
 10
-3.69500191E+02
 20
7.04998093E+01
 11
-3.70763741E+02
 21
7.04998093E+01
  0
LINE
  8
0
  6
CENTER
 62
2
 10
-3.69766762E+02
 20
7.25000076E+01
 11
-3.92045174E+02
 21
7.25000076E+01
  0
LINE
  8
0
  6
CENTER
 62
2
 10
-3.34630623E+02
 20
1.28500122E+02
 11
-3.12097664E+02
 21
1.28500122E+02
  0
LINE
  8
0
 62
7
 10
-3.65364365E+02
 20
1.15278109E+02
 11
-3.72726213E+02
 21
1.22639957E+02
  0
LINE
  8
0
  6
CENTER
 62
2
 10
-3.40000038E+02
 20
1.40214218E+02
 11
-3.40000038E+02
 21
1.10494476E+02
  0
LINE
  8
0
 62
7
 10
-3.66778612E+02
 20
8.71360759E+01
 11
-3.74140460E+02
 21
7.97742287E+01
  0
LINE
  8
0
 62
7
 10
-3.89000130E+02
 20
6.69999847E+01
 11
-3.89000130E+02
 21
1.34000000E+02
  0
LINE
  8
0
  6
CENTER
 62
2
 10
-3.24000038E+02
 20
8.25604782E+01
 11
-3.24000038E+02
 21
6.10041199E+01
  0
LINE
  8
0
 62
7
 10
-3.53000069E+02
 20
1.34000000E+02
 11
-3.53000069E+02
 21
1.20399765E+02
  0
LINE
  8
0
 62
7
 10
-3.85500130E+02
 20
9.95000153E+01
 11
-3.71899849E+02
 21
9.95000153E+01
  0
LINE
  8
0
 62
7
 10
-3.65364409E+02
 20
8.57217220E+01
 11
-3.72726257E+02
 21
7.83598748E+01
  0
LINE
  8
0
 62
7
 10
-3.66778590E+02
 20
1.13863885E+02
 11
-3.74140437E+02
 21
1.21225732E+02
  0
LINE
  8
0
 62
7
 10
-3.51000069E+02
 20
1.34000031E+02
 11
-3.51000069E+02
 21
1.20399765E+02
  0
LINE
  8
0
 62
7
 10
-3.85500069E+02
 20
6.35000305E+01
 11
-3.18500099E+02
 21
6.35000305E+01
  0
LINE
  8
0
 62
7
 10
-3.65000191E+02
 20
6.60000305E+01
 11
-3.39000008E+02
 21
6.60000305E+01
  0
LINE
  8
0
 62
7
 10
-3.86500130E+02
 20
8.74999008E+01
 11
-3.86500130E+02
 21
1.13500076E+02
  0
LINE
  8
0
 62
7
 10
-3.85500069E+02
 20
1.01499992E+02
 11
-3.71899849E+02
 21
1.01499992E+02
  0
LINE
  8
0
 62
7
 10
-3.53000099E+02
 20
6.69999847E+01
 11
-3.53000099E+02
 21
8.06002579E+01
  0
LINE
  8
0
 62
7
 10
-3.85500130E+02
 20
1.38000092E+02
 11
-3.18500099E+02
 21
1.38000092E+02
  0
LINE
  8
0
 62
7
 10
-3.85500069E+02
 20
6.30000381E+01
 11
-3.18500099E+02
 21
6.30000381E+01
  0
LINE
  8
0
  6
CENTER
 62
2
 10
-3.80000191E+02
 20
6.10016403E+01
 11
-3.80000191E+02
 21
8.35345993E+01
  0
LINE
  8
0
  6
CENTER
 62
2
 10
-3.80000099E+02
 20
1.17270416E+02
 11
-3.80000099E+02
 21
1.40057999E+02
  0
LINE
  8
0
 62
7
 10
-3.38636231E+02
 20
1.15278619E+02
 11
-3.31274382E+02
 21
1.22640465E+02
  0
LINE
  8
0
 62
7
 10
-3.37221953E+02
 20
1.13864340E+02
 11
-3.29860104E+02
 21
1.21226186E+02
  0
LINE
  8
0
 62
7
 10
-3.85500130E+02
 20
1.37500061E+02
 11
-3.18500099E+02
 21
1.37500061E+02
  0
LINE
  8
0
 62
7
 10
-3.17500038E+02
 20
8.74999008E+01
 11
-3.17500038E+02
 21
1.13500076E+02
  0
LINE
  8
0
 62
7
 10
-3.18500099E+02
 20
1.01500031E+02
 11
-3.32100380E+02
 21
1.01500031E+02
  0
LINE
  8
0
 62
7
 10
-3.14500038E+02
 20
6.70000229E+01
 11
-3.14500038E+02
 21
1.34000031E+02
  0
LINE
  8
0
  6
CENTER
 62
2
 10
-3.23999977E+02
 20
1.40185303E+02
 11
-3.23999977E+02
 21
1.17270416E+02
  0
LINE
  8
0
 62
7
 10
-3.15000038E+02
 20
6.70000229E+01
 11
-3.15000038E+02
 21
1.34000031E+02
  0
ARC
  8
0
 62
7
 10
-3.89622566E+02
 20
1.10234543E+02
 40
2.50000000E+00
 50
1.72308570E+02
 51
2.63627161E+02
  0
ARC
  8
0
 62
7
 10
-3.89622566E+02
 20
9.07654343E+01
 40
2.50000000E+00
 50
9.63728081E+01
 51
1.87691385E+02
  0
ARC
  8
0
 62
7
 10
-3.89622566E+02
 20
1.12765442E+02
 40
2.50000000E+00
 50
8.99999956E+01
 51
1.72308570E+02
  0
ARC
  8
0
 62
7
 10
-3.89622566E+02
 20
8.82345734E+01
 40
2.50000000E+00
 50
1.87691403E+02
 51
2.69999963E+02
  0
CIRCLE
  8
0
 62
7
 10
-3.80000130E+02
 20
1.28500076E+02
 40
6.50000048E+00
  0
ARC
  8
0
 62
7
 10
-3.74847359E+02
 20
1.20518860E+02
 40
1.00000000E+00
 50
4.49999910E+01
 51
1.22846171E+02
  0
ARC
  8
0
 62
7
 10
-3.72018959E+02
 20
1.23347305E+02
 40
1.00000000E+00
 50
1.47153243E+02
 51
2.24999955E+02
  0
CIRCLE
  8
0
 62
7
 10
-3.80000130E+02
 20
7.24999771E+01
 40
6.50000048E+00
  0
ARC
  8
0
 62
7
 10
-3.67485573E+02
 20
1.13157028E+02
 40
1.00000000E+00
 50
3.20738994E+02
 51
4.49999910E+01
  0
ARC
  8
0
 62
7
 10
-3.64657112E+02
 20
1.15985474E+02
 40
1.00000000E+00
 50
2.24999972E+02
 51
3.09260983E+02
  0
ARC
  8
0
 62
7
 10
-3.54000069E+02
 20
1.20399765E+02
 40
1.00000000E+00
 50
2.75739453E+02
 51
3.59999959E+02
  0
ARC
  8
0
 62
7
 10
-3.71899849E+02
 20
9.85000000E+01
 40
1.00000000E+00
 50
5.73948995E+00
 51
9.00000369E+01
  0
ARC
  8
0
 62
7
 10
-3.85500130E+02
 20
9.85000000E+01
 40
1.00000000E+00
 50
9.00000369E+01
 51
1.80000019E+02
  0
ARC
  8
0
 62
7
 10
-3.24000008E+02
 20
1.28500046E+02
 40
8.50000000E+00
 50
1.73823315E+02
 51
2.76176459E+02
  0
ARC
  8
0
 62
7
 10
-3.67485573E+02
 20
8.78429565E+01
 40
1.00000000E+00
 50
3.14999968E+02
 51
3.92609655E+01
  0
ARC
  8
0
 62
7
 10
-3.64657112E+02
 20
8.50145111E+01
 40
1.00000000E+00
 50
5.07389892E+01
 51
1.34999987E+02
  0
ARC
  8
0
 62
7
 10
-3.72018959E+02
 20
7.76526794E+01
 40
1.00000000E+00
 50
1.34999987E+02
 51
2.12846166E+02
  0
ARC
  8
0
 62
7
 10
-3.74847359E+02
 20
8.04811249E+01
 40
1.00000000E+00
 50
2.37153256E+02
 51
3.14999981E+02
  0
ARC
  8
0
 62
7
 10
-3.85500130E+02
 20
1.34000000E+02
 40
3.50000000E+00
 50
9.00000231E+01
 51
1.79999977E+02
  0
ARC
  8
0
 62
7
 10
-3.54000069E+02
 20
1.34000000E+02
 40
1.00000000E+00
 50
3.59999959E+02
 51
8.99999956E+01
  0
ARC
  8
0
 62
7
 10
-3.50000069E+02
 20
1.20399765E+02
 40
1.00000000E+00
 50
1.79999964E+02
 51
2.64260484E+02
  0
ARC
  8
0
 62
7
 10
-3.50000069E+02
 20
1.34000031E+02
 40
1.00000000E+00
 50
8.99999818E+01
 51
1.79999964E+02
  0
ARC
  8
0
 62
7
 10
-3.85500099E+02
 20
6.69999847E+01
 40
3.50000000E+00
 50
1.80000050E+02
 51
2.69999991E+02
  0
ARC
  8
0
 62
7
 10
-3.85500099E+02
 20
1.02500015E+02
 40
1.00000000E+00
 50
1.79999977E+02
 51
2.70000028E+02
  0
ARC
  8
0
 62
7
 10
-3.71899849E+02
 20
1.02500015E+02
 40
1.00000000E+00
 50
2.70000045E+02
 51
3.54260551E+02
  0
ARC
  8
0
 62
7
 10
-3.54000069E+02
 20
8.06002579E+01
 40
1.00000000E+00
 50
3.59999973E+02
 51
8.42604992E+01
  0
ARC
  8
0
 62
7
 10
-3.54000069E+02
 20
6.69999847E+01
 40
1.00000000E+00
 50
2.69999991E+02
 51
3.59999973E+02
  0
ARC
  8
0
 62
7
 10
-3.85500130E+02
 20
1.34000000E+02
 40
4.00000000E+00
 50
9.00000231E+01
 51
1.79999977E+02
  0
ARC
  8
0
 62
7
 10
-3.85500099E+02
 20
6.69999847E+01
 40
4.00000000E+00
 50
1.80000050E+02
 51
2.69999991E+02
  0
CIRCLE
  8
0
 62
7
 10
-3.80000130E+02
 20
7.24999771E+01
 40
6.00000000E+00
  0
CIRCLE
  8
0
 62
7
 10
-3.80000130E+02
 20
1.28500076E+02
 40
6.00000000E+00
  0
CIRCLE
  8
0
 62
7
 10
-3.24000008E+02
 20
1.28500046E+02
 40
6.50000048E+00
  0
ARC
  8
0
 62
7
 10
-3.36514626E+02
 20
1.13157059E+02
 40
1.00000000E+00
 50
1.34999959E+02
 51
2.19260957E+02
  0
ARC
  8
0
 62
7
 10
-3.39343025E+02
 20
1.15985504E+02
 40
1.00000000E+00
 50
2.30738998E+02
 51
3.14999981E+02
  0
ARC
  8
0
 62
7
 10
-3.31981239E+02
 20
1.23347336E+02
 40
1.00000000E+00
 50
3.14999995E+02
 51
3.28461612E+01
  0
ARC
  8
0
 62
7
 10
-3.29152779E+02
 20
1.20518890E+02
 40
1.00000000E+00
 50
5.71532472E+01
 51
1.34999959E+02
  0
ARC
  8
0
 62
7
 10
-3.18500099E+02
 20
1.34000031E+02
 40
3.50000000E+00
 50
0.00000000E+00
 51
8.99999818E+01
  0
ARC
  8
0
 62
7
 10
-3.18500099E+02
 20
1.02500015E+02
 40
1.00000000E+00
 50
2.69999963E+02
 51
0.00000000E+00
  0
ARC
  8
0
 62
7
 10
-3.32100380E+02
 20
1.02500015E+02
 40
1.00000000E+00
 50
1.85739458E+02
 51
2.69999963E+02
  0
ARC
  8
0
 62
7
 10
-3.18500099E+02
 20
1.34000031E+02
 40
4.00000000E+00
 50
0.00000000E+00
 51
8.99999818E+01
  0
CIRCLE
  8
0
 62
7
 10
-3.24000008E+02
 20
1.28500046E+02
 40
6.00000000E+00
  0
ARC
  8
0
 62
7
 10
-3.34499977E+02
 20
1.34000183E+02
 40
3.50000000E+00
 50
1.80001525E+02
 51
2.70000018E+02
  0
ARC
  8
0
 62
7
 10
-3.38999977E+02
 20
1.34000031E+02
 40
1.00000000E+00
 50
1.77584919E-03
 51
8.99999549E+01
  0
ARC
  8
0
 62
7
 10
-3.33444893E+02
 20
1.29522186E+02
 40
1.00000000E+00
 50
3.53822790E+02
 51
8.43256382E+01
  0
ARC
  8
0
 62
7
 10
-3.18499947E+02
 20
1.18000092E+02
 40
3.50000000E+00
 50
1.79999977E+02
 51
2.69998990E+02
  0
ARC
  8
0
 62
7
 10
-3.22977943E+02
 20
1.19055191E+02
 40
1.00000000E+00
 50
5.67452116E+00
 51
9.61763036E+01
  0
ARC
  8
0
 62
7
 10
-3.18500099E+02
 20
1.13500076E+02
 40
1.00000000E+00
 50
3.59999986E+02
 51
8.99982469E+01
  0
ARC
  8
0
 62
7
 10
-3.85500130E+02
 20
8.74998627E+01
 40
1.00000000E+00
 50
1.80000050E+02
 51
2.69998215E+02
  0
ARC
  8
0
 62
7
 10
-3.85500252E+02
 20
8.29998550E+01
 40
3.50000000E+00
 50
0.00000000E+00
 51
8.99984996E+01
  0
ARC
  8
0
 62
7
 10
-3.81022285E+02
 20
8.19447861E+01
 40
1.00000000E+00
 50
1.85674380E+02
 51
2.76177241E+02
  0
ARC
  8
0
 62
7
 10
-3.80000130E+02
 20
7.24999390E+01
 40
8.50000000E+00
 50
3.53823549E+02
 51
9.61766726E+01
  0
ARC
  8
0
 62
7
 10
-3.70555244E+02
 20
1.29522186E+02
 40
1.00000000E+00
 50
9.56745100E+01
 51
1.86176313E+02
  0
ARC
  8
0
 62
7
 10
-3.69500160E+02
 20
1.34000107E+02
 40
3.50000000E+00
 50
2.70000018E+02
 51
3.59999003E+02
  0
ARC
  8
0
 62
7
 10
-3.65000130E+02
 20
1.34000031E+02
 40
1.00000000E+00
 50
8.99999818E+01
 51
1.79998270E+02
  0
ARC
  8
0
 62
7
 10
-3.65000221E+02
 20
6.69999847E+01
 40
1.00000000E+00
 50
1.80001798E+02
 51
2.69999963E+02
  0
ARC
  8
0
 62
7
 10
-3.69500191E+02
 20
6.69998322E+01
 40
3.50000000E+00
 50
1.49581143E-03
 51
8.99999818E+01
  0
ARC
  8
0
 62
7
 10
-3.70555336E+02
 20
7.14778290E+01
 40
1.00000000E+00
 50
1.73822768E+02
 51
2.64325616E+02
  0
ARC
  8
0
 62
7
 10
-3.80000130E+02
 20
1.28500046E+02
 40
8.50000000E+00
 50
2.63823560E+02
 51
6.17667669E+00
  0
ARC
  8
0
 62
7
 10
-3.81022285E+02
 20
1.19055191E+02
 40
1.00000000E+00
 50
8.38236876E+01
 51
1.74325470E+02
  0
ARC
  8
0
 62
7
 10
-3.85500221E+02
 20
1.18000046E+02
 40
3.50000000E+00
 50
2.70001002E+02
 51
0.00000000E+00
  0
ARC
  8
0
 62
7
 10
-3.85500130E+02
 20
1.13500076E+02
 40
1.00000000E+00
 50
9.00017305E+01
 51
1.80000005E+02
  0
ARC
  8
0
 62
7
 10
-3.34500038E+02
 20
6.69999084E+01
 40
3.50000000E+00
 50
8.99999818E+01
 51
1.79998994E+02
  0
ARC
  8
0
 62
7
 10
-3.39000008E+02
 20
6.69999847E+01
 40
1.00000000E+00
 50
2.70000018E+02
 51
3.59998251E+02
  0
ARC
  8
0
 62
7
 10
-3.50000069E+02
 20
6.70000229E+01
 40
1.00000000E+00
 50
1.79999951E+02
 51
2.70000001E+02
  0
ARC
  8
0
 62
7
 10
-3.50000069E+02
 20
8.06002579E+01
 40
1.00000000E+00
 50
9.57394445E+01
 51
1.79999951E+02
  0
CIRCLE
  8
0
 62
7
 10
-3.52000069E+02
 20
1.00500008E+02
 40
1.75294495E+01
  0
CIRCLE
  8
0
 62
7
 10
-3.52000069E+02
 20
1.00500008E+02
 40
1.90000000E+01
  0
CIRCLE
  8
0
 62
7
 10
-3.24000099E+02
 20
7.24999390E+01
 40
6.50000048E+00
  0
ARC
  8
0
 62
7
 10
-3.39343025E+02
 20
8.50145493E+01
 40
1.00000000E+00
 50
4.49999637E+01
 51
1.29260961E+02
  0
ARC
  8
0
 62
7
 10
-3.36514626E+02
 20
8.78429947E+01
 40
1.00000000E+00
 50
1.40738985E+02
 51
2.24999982E+02
  0
ARC
  8
0
 62
7
 10
-3.29152779E+02
 20
8.04811630E+01
 40
1.00000000E+00
 50
2.25000000E+02
 51
3.02846179E+02
  0
ARC
  8
0
 62
7
 10
-3.31981239E+02
 20
7.76527176E+01
 40
1.00000000E+00
 50
3.27153252E+02
 51
4.49999637E+01
  0
ARC
  8
0
 62
7
 10
-3.18500099E+02
 20
6.70000229E+01
 40
3.50000000E+00
 50
2.70000018E+02
 51
3.59999986E+02
  0
ARC
  8
0
 62
7
 10
-3.32100380E+02
 20
9.85000000E+01
 40
1.00000000E+00
 50
8.99999681E+01
 51
1.74260502E+02
  0
ARC
  8
0
 62
7
 10
-3.18500099E+02
 20
9.85000000E+01
 40
1.00000000E+00
 50
3.59999986E+02
 51
8.99999681E+01
  0
ARC
  8
0
 62
7
 10
-3.18500099E+02
 20
6.70000229E+01
 40
4.00000000E+00
 50
2.70000018E+02
 51
3.59999986E+02
  0
CIRCLE
  8
0
 62
7
 10
-3.24000099E+02
 20
7.24999390E+01
 40
6.00000000E+00
  0
CIRCLE
  8
0
 62
7
 10
-3.52000069E+02
 20
1.00500008E+02
 40
1.70000000E+01
  0
ARC
  8
0
 62
7
 10
-3.18500099E+02
 20
8.74999008E+01
 40
1.00000000E+00
 50
2.70001780E+02
 51
3.59999959E+02
  0
ARC
  8
0
 62
7
 10
-3.18499947E+02
 20
8.29998932E+01
 40
3.50000000E+00
 50
9.00014916E+01
 51
1.79999964E+02
  0
ARC
  8
0
 62
7
 10
-3.22977943E+02
 20
8.19448242E+01
 40
1.00000000E+00
 50
2.63822795E+02
 51
3.54325643E+02
  0
ARC
  8
0
 62
7
 10
-3.24000099E+02
 20
7.24999390E+01
 40
8.50000000E+00
 50
8.38233192E+01
 51
1.86176449E+02
  0
ARC
  8
0
 62
7
 10
-3.33444893E+02
 20
7.14778290E+01
 40
1.00000000E+00
 50
2.75674525E+02
 51
6.17630782E+00
  0
CIRCLE
  8
0
 62
2
 10
-3.80000130E+02
 20
1.28500076E+02
 40
4.00000000E+00
  0
CIRCLE
  8
0
 62
2
 10
-3.24000008E+02
 20
1.28500076E+02
 40
4.00000000E+00
  0
CIRCLE
  8
0
 62
2
 10
-3.24000099E+02
 20
7.24999771E+01
 40
4.00000000E+00
  0
CIRCLE
  8
0
 62
2
 10
-3.80000221E+02
 20
7.24999771E+01
 40
4.00000000E+00
  0
CIRCLE
  8
0
 62
7
 10
-3.80000221E+02
 20
7.24999771E+01
 40
3.32000017E+00
  0
CIRCLE
  8
0
 62
7
 10
-3.80000130E+02
 20
1.28500076E+02
 40
3.32000017E+00
  0
CIRCLE
  8
0
 62
7
 10
-3.24000008E+02
 20
1.28500076E+02
 40
3.32000017E+00
  0
CIRCLE
  8
0
 62
7
 10
-3.24000099E+02
 20
7.24999771E+01
 40
3.32000017E+00
  0
CIRCLE
  8
0
 62
7
 10
-3.52000038E+02
 20
1.00500000E+02
 40
8.99999237E+00
  0
CIRCLE
  8
0
 62
2
 10
-3.52000038E+02
 20
1.00500000E+02
 40
8.18000031E+00
  0
CIRCLE
  8
0
 62
7
 10
-3.52000038E+02
 20
1.00500000E+02
 40
7.49999237E+00
  0
LINE
  8
0
 62
7
 10
-3.89500099E+02
 20
6.69999847E+01
 11
-3.89500099E+02
 21
1.34000000E+02
  0
LINE
  8
0
 62
4
 10
-3.38500038E+02
 20
1.08294229E+02
 11
-3.52000038E+02
 21
1.16088457E+02
  0
LINE
  8
0
 62
4
 10
-3.38500038E+02
 20
9.27057714E+01
 11
-3.38500038E+02
 21
1.08294229E+02
  0
LINE
  8
0
 62
4
 10
-3.52000038E+02
 20
8.49115427E+01
 11
-3.38500038E+02
 21
9.27057714E+01
  0
LINE
  8
0
 62
4
 10
-3.65500038E+02
 20
9.27057714E+01
 11
-3.52000038E+02
 21
8.49115427E+01
  0
LINE
  8
0
 62
4
 10
-3.65500038E+02
 20
1.08294229E+02
 11
-3.65500038E+02
 21
9.27057714E+01
  0
LINE
  8
0
 62
4
 10
-3.52000038E+02
 20
1.16088457E+02
 11
-3.65500038E+02
 21
1.08294229E+02
  0
CIRCLE
  8
0
 62
4
 10
-3.52000038E+02
 20
1.00500000E+02
 40
1.35000000E+01
  0
LINE
  8
0
 62
4
 10
-3.90725930E+02
 20
1.23542990E+02
 11
-3.89500130E+02
 21
1.23941277E+02
  0
LINE
  8
0
 62
4
 10
-3.89500130E+02
 20
1.19770366E+02
 11
-3.90725930E+02
 21
1.23542990E+02
  0
LINE
  8
0
 62
6
 10
-3.90571421E+02
 20
1.23067462E+02
 11
-3.89500130E+02
 21
1.23415546E+02
  0
LINE
  8
0
 62
6
 10
-3.89644370E+02
 20
1.20214292E+02
 11
-3.89500130E+02
 21
1.20261159E+02
  0
LINE
  8
0
  6
CENTER
 62
6
 10
-3.67424579E+02
 20
1.35425053E+02
 11
-3.61718240E+02
 21
1.37279155E+02
  0
LINE
  8
0
  6
CENTER
 62
6
 10
-3.65498460E+02
 20
1.39205274E+02
 11
-3.63644358E+02
 21
1.33498935E+02
  0
LINE
  8
0
 62
4
 10
-3.63287330E+02
 20
1.38872251E+02
 11
-3.63003928E+02
 21
1.38000031E+02
  0
LINE
  8
0
 62
4
 10
-3.65971750E+02
 20
1.38000031E+02
 11
-3.63287330E+02
 21
1.38872251E+02
  0
LINE
  8
0
 62
4
 10
-3.63287330E+02
 20
1.38872251E+02
 11
-3.63731749E+02
 21
1.38000031E+02
  0
LINE
  8
0
 62
4
 10
-3.66845827E+02
 20
1.49176964E+02
 11
-3.76641709E+02
 21
1.45994089E+02
  0
LINE
  8
0
 62
4
 10
-3.66390114E+02
 20
1.38389827E+02
 11
-3.63632050E+02
 21
1.39285976E+02
  0
LINE
  8
0
 62
4
 10
-3.66588725E+02
 20
1.38000031E+02
 11
-3.66390114E+02
 21
1.38389827E+02
  0
LINE
  8
0
  6
CENTER
 62
6
 10
-3.85654251E+02
 20
1.38334156E+02
 11
-3.60259196E+02
 21
1.46585510E+02
  0
LINE
  8
0
  6
CENTER
 62
6
 10
-3.75655287E+02
 20
1.37902899E+02
 11
-3.59177636E+02
 21
1.43256812E+02
  0
LINE
  8
0
 62
4
 10
-3.80921463E+02
 20
1.44603512E+02
 11
-3.76641709E+02
 21
1.45994089E+02
  0
LINE
  8
0
 62
4
 10
-3.74044282E+02
 20
1.38000031E+02
 11
-3.76641709E+02
 21
1.45994089E+02
  0
LINE
  8
0
 62
4
 10
-3.84286105E+02
 20
1.38000031E+02
 11
-3.80921463E+02
 21
1.44603512E+02
  0
LINE
  8
0
 62
4
 10
-3.66629515E+02
 20
1.48511224E+02
 11
-3.65678458E+02
 21
1.48820241E+02
  0
ARC
  8
0
 62
4
 10
-3.62687096E+02
 20
1.43273128E+02
 40
1.00000000E+00
 50
3.36723662E+02
 51
5.17248996E+00
  0
ARC
  8
0
 62
4
 10
-3.64170378E+02
 20
1.47838200E+02
 40
1.00000000E+00
 50
3.08275100E+01
 51
1.08000000E+02
  0
ARC
  8
0
 62
4
 10
-3.73453075E+02
 20
1.42298559E+02
 40
1.18100000E+01
 50
5.17248996E+00
 51
3.08275100E+01
  0
LINE
  8
0
 62
4
 10
-3.65554851E+02
 20
1.48439819E+02
 11
-3.64480158E+02
 21
1.48789008E+02
  0
LINE
  8
0
 62
4
 10
-3.64705055E+02
 20
1.45824413E+02
 11
-3.65678458E+02
 21
1.48820241E+02
  0
LINE
  8
0
 62
4
 10
-3.62814665E+02
 20
1.38000031E+02
 11
-3.65294710E+02
 21
1.45632823E+02
  0
LINE
  8
0
 62
4
 10
-3.65609759E+02
 20
1.45372738E+02
 11
-3.65248357E+02
 21
1.45490164E+02
  0
LINE
  8
0
 62
4
 10
-3.65294710E+02
 20
1.45632823E+02
 11
-3.63620850E+02
 21
1.46176693E+02
  0
LINE
  8
0
 62
4
 10
-3.61926665E+02
 20
1.38000031E+02
 11
-3.61056009E+02
 21
1.38282924E+02
  0
ARC
  8
0
 62
4
 10
-3.72859255E+02
 20
1.38819521E+02
 40
1.18100000E+01
 50
1.80000000E+01
 51
3.85326990E+01
  0
ARC
  8
0
 62
4
 10
-3.72854473E+02
 20
1.38804802E+02
 40
1.18100000E+01
 50
3.57467301E+02
 51
1.80000000E+01
  0
LINE
  8
0
 62
4
 10
-3.63214221E+02
 20
1.38000031E+02
 11
-3.66845827E+02
 21
1.49176964E+02
  0
LINE
  8
0
 62
4
 10
-3.14500038E+02
 20
1.19770178E+02
 11
-3.13274177E+02
 21
1.23542990E+02
  0
LINE
  8
0
 62
4
 10
-3.13274177E+02
 20
1.23542990E+02
 11
-3.14500038E+02
 21
1.23941297E+02
  0
LINE
  8
0
 62
6
 10
-3.13428686E+02
 20
1.23067462E+02
 11
-3.14500038E+02
 21
1.23415566E+02
  0
LINE
  8
0
 62
6
 10
-3.14355737E+02
 20
1.20214292E+02
 11
-3.14500038E+02
 21
1.20261179E+02
  0
LINE
  8
0
  6
CENTER
 62
6
 10
-3.28344820E+02
 20
1.37902899E+02
 11
-3.44463853E+02
 21
1.43140290E+02
  0
LINE
  8
0
  6
CENTER
 62
6
 10
-3.18345856E+02
 20
1.38334156E+02
 11
-3.43382293E+02
 21
1.46468988E+02
  0
LINE
  8
0
 62
4
 10
-3.37411382E+02
 20
1.38000031E+02
 11
-3.37609993E+02
 21
1.38389827E+02
  0
LINE
  8
0
 62
4
 10
-3.37609993E+02
 20
1.38389827E+02
 11
-3.40368057E+02
 21
1.39285976E+02
  0
LINE
  8
0
 62
4
 10
-3.37154280E+02
 20
1.49176964E+02
 11
-3.27358398E+02
 21
1.45994089E+02
  0
LINE
  8
0
 62
4
 10
-3.38028357E+02
 20
1.38000031E+02
 11
-3.40712777E+02
 21
1.38872251E+02
  0
LINE
  8
0
 62
4
 10
-3.40712777E+02
 20
1.38872251E+02
 11
-3.40996178E+02
 21
1.38000031E+02
  0
LINE
  8
0
  6
CENTER
 62
6
 10
-3.38501647E+02
 20
1.39205274E+02
 11
-3.40355749E+02
 21
1.33498935E+02
  0
LINE
  8
0
  6
CENTER
 62
6
 10
-3.36575528E+02
 20
1.35425053E+02
 11
-3.42281867E+02
 21
1.37279155E+02
  0
LINE
  8
0
 62
4
 10
-3.19714002E+02
 20
1.38000031E+02
 11
-3.23078644E+02
 21
1.44603512E+02
  0
LINE
  8
0
 62
4
 10
-3.23078644E+02
 20
1.44603512E+02
 11
-3.27358398E+02
 21
1.45994089E+02
  0
LINE
  8
0
 62
4
 10
-3.27358398E+02
 20
1.45994089E+02
 11
-3.29955825E+02
 21
1.38000031E+02
  0
LINE
  8
0
 62
4
 10
-3.39719121E+02
 20
1.41283195E+02
 11
-3.40670178E+02
 21
1.41592212E+02
  0
LINE
  8
0
 62
4
 10
-3.37370592E+02
 20
1.48511224E+02
 11
-3.38321649E+02
 21
1.48820241E+02
  0
ARC
  8
0
 62
4
 10
-3.41313011E+02
 20
1.43273128E+02
 40
1.00000000E+00
 50
1.74827510E+02
 51
2.52000000E+02
  0
ARC
  8
0
 62
4
 10
-3.39829729E+02
 20
1.47838200E+02
 40
1.00000000E+00
 50
7.19999999E+01
 51
1.49172490E+02
  0
LINE
  8
0
 62
4
 10
-3.40546571E+02
 20
1.41972634E+02
 11
-3.41621265E+02
 21
1.42321824E+02
  0
LINE
  8
0
 62
4
 10
-3.38445255E+02
 20
1.48439819E+02
 11
-3.39519949E+02
 21
1.48789008E+02
  0
LINE
  8
0
 62
4
 10
-3.40670178E+02
 20
1.41592212E+02
 11
-3.38321649E+02
 21
1.48820241E+02
  0
ARC
  8
0
 62
4
 10
-3.30547032E+02
 20
1.42298559E+02
 40
1.18100000E+01
 50
1.49172490E+02
 51
1.74827510E+02
  0
LINE
  8
0
 62
4
 10
-3.41185442E+02
 20
1.38000031E+02
 11
-3.40080523E+02
 21
1.41400621E+02
  0
LINE
  8
0
 62
4
 10
-3.42073442E+02
 20
1.38000031E+02
 11
-3.42944098E+02
 21
1.38282924E+02
  0
ARC
  8
0
 62
4
 10
-3.31140851E+02
 20
1.38819521E+02
 40
1.18100000E+01
 50
1.59900933E+02
 51
1.62000000E+02
  0
ARC
  8
0
 62
4
 10
-3.31145634E+02
 20
1.38804802E+02
 40
1.18100000E+01
 50
1.62000000E+02
 51
1.82532699E+02
  0
LINE
  8
0
 62
4
 10
-3.40785886E+02
 20
1.38000031E+02
 11
-3.37154280E+02
 21
1.49176964E+02
  0
CIRCLE
  8
0
 62
7
 10
3.07999962E+02
 20
1.00500000E+02
 40
1.85000963E+01
  0
LINE
  8
0
 62
6
 10
3.45644263E+02
 20
1.20214292E+02
 11
3.45499962E+02
 21
1.20261179E+02
  0
LINE
  8
0
 62
6
 10
3.46571314E+02
 20
1.23067462E+02
 11
3.45499962E+02
 21
1.23415566E+02
  0
LINE
  8
0
 62
4
 10
3.46725823E+02
 20
1.23542990E+02
 11
3.45499962E+02
 21
1.23941297E+02
  0
LINE
  8
0
 62
4
 10
3.45499962E+02
 20
1.19770178E+02
 11
3.46725823E+02
 21
1.23542990E+02
  0
LINE
  8
0
 62
4
 10
3.19214114E+02
 20
1.38000031E+02
 11
3.22845720E+02
 21
1.49176964E+02
  0
ARC
  8
0
 62
4
 10
3.28854366E+02
 20
1.38804802E+02
 40
1.18100000E+01
 50
1.62000000E+02
 51
1.82532699E+02
  0
ARC
  8
0
 62
4
 10
3.28859149E+02
 20
1.38819521E+02
 40
1.18100000E+01
 50
1.59900933E+02
 51
1.62000000E+02
  0
LINE
  8
0
 62
4
 10
3.17926558E+02
 20
1.38000031E+02
 11
3.17055902E+02
 21
1.38282924E+02
  0
LINE
  8
0
 62
4
 10
3.18814558E+02
 20
1.38000031E+02
 11
3.19919477E+02
 21
1.41400621E+02
  0
ARC
  8
0
 62
4
 10
3.29452968E+02
 20
1.42298559E+02
 40
1.18100000E+01
 50
1.49172490E+02
 51
1.74827510E+02
  0
LINE
  8
0
 62
4
 10
3.19329822E+02
 20
1.41592212E+02
 11
3.21678351E+02
 21
1.48820241E+02
  0
LINE
  8
0
 62
4
 10
3.21554745E+02
 20
1.48439819E+02
 11
3.20480051E+02
 21
1.48789008E+02
  0
LINE
  8
0
 62
4
 10
3.19453429E+02
 20
1.41972634E+02
 11
3.18378735E+02
 21
1.42321824E+02
  0
ARC
  8
0
 62
4
 10
3.20170271E+02
 20
1.47838200E+02
 40
1.00000000E+00
 50
7.19999999E+01
 51
1.49172490E+02
  0
ARC
  8
0
 62
4
 10
3.18686989E+02
 20
1.43273128E+02
 40
1.00000000E+00
 50
1.74827510E+02
 51
2.52000000E+02
  0
LINE
  8
0
 62
4
 10
3.22629408E+02
 20
1.48511224E+02
 11
3.21678351E+02
 21
1.48820241E+02
  0
LINE
  8
0
 62
4
 10
3.20280879E+02
 20
1.41283195E+02
 11
3.19329822E+02
 21
1.41592212E+02
  0
LINE
  8
0
 62
4
 10
3.32641602E+02
 20
1.45994089E+02
 11
3.30044175E+02
 21
1.38000031E+02
  0
LINE
  8
0
 62
4
 10
3.36921356E+02
 20
1.44603512E+02
 11
3.32641602E+02
 21
1.45994089E+02
  0
LINE
  8
0
 62
4
 10
3.40285998E+02
 20
1.38000031E+02
 11
3.36921356E+02
 21
1.44603512E+02
  0
LINE
  8
0
  6
CENTER
 62
6
 10
3.23424472E+02
 20
1.35425053E+02
 11
3.17718133E+02
 21
1.37279155E+02
  0
LINE
  8
0
  6
CENTER
 62
6
 10
3.21498353E+02
 20
1.39205274E+02
 11
3.19644251E+02
 21
1.33498935E+02
  0
LINE
  8
0
 62
4
 10
3.19287223E+02
 20
1.38872251E+02
 11
3.19003822E+02
 21
1.38000031E+02
  0
LINE
  8
0
 62
4
 10
3.21971643E+02
 20
1.38000031E+02
 11
3.19287223E+02
 21
1.38872251E+02
  0
LINE
  8
0
 62
4
 10
3.22845720E+02
 20
1.49176964E+02
 11
3.32641602E+02
 21
1.45994089E+02
  0
LINE
  8
0
 62
4
 10
3.22390007E+02
 20
1.38389827E+02
 11
3.19631943E+02
 21
1.39285976E+02
  0
LINE
  8
0
 62
4
 10
3.22588618E+02
 20
1.38000031E+02
 11
3.22390007E+02
 21
1.38389827E+02
  0
LINE
  8
0
  6
CENTER
 62
6
 10
3.41654144E+02
 20
1.38334156E+02
 11
3.16617707E+02
 21
1.46468988E+02
  0
LINE
  8
0
  6
CENTER
 62
6
 10
3.31655180E+02
 20
1.37902899E+02
 11
3.15536147E+02
 21
1.43140290E+02
  0
LINE
  8
0
 62
6
 10
2.70355630E+02
 20
1.20214292E+02
 11
2.70499870E+02
 21
1.20261159E+02
  0
LINE
  8
0
 62
6
 10
2.69428579E+02
 20
1.23067462E+02
 11
2.70499870E+02
 21
1.23415546E+02
  0
LINE
  8
0
 62
4
 10
2.70499870E+02
 20
1.19770366E+02
 11
2.69274070E+02
 21
1.23542990E+02
  0
LINE
  8
0
 62
4
 10
2.69274070E+02
 20
1.23542990E+02
 11
2.70499870E+02
 21
1.23941277E+02
  0
LINE
  8
0
 62
4
 10
2.96785779E+02
 20
1.38000031E+02
 11
2.93154173E+02
 21
1.49176964E+02
  0
ARC
  8
0
 62
4
 10
2.87145527E+02
 20
1.38804802E+02
 40
1.18100000E+01
 50
3.57467301E+02
 51
1.80000000E+01
  0
ARC
  8
0
 62
4
 10
2.87140745E+02
 20
1.38819521E+02
 40
1.18100000E+01
 50
1.80000000E+01
 51
3.85326990E+01
  0
LINE
  8
0
 62
4
 10
2.98073335E+02
 20
1.38000031E+02
 11
2.98943991E+02
 21
1.38282924E+02
  0
LINE
  8
0
 62
4
 10
2.94705290E+02
 20
1.45632823E+02
 11
2.96379150E+02
 21
1.46176693E+02
  0
LINE
  8
0
 62
4
 10
2.94390241E+02
 20
1.45372738E+02
 11
2.94751643E+02
 21
1.45490164E+02
  0
LINE
  8
0
 62
4
 10
2.97185335E+02
 20
1.38000031E+02
 11
2.94705290E+02
 21
1.45632823E+02
  0
LINE
  8
0
 62
4
 10
2.95294945E+02
 20
1.45824413E+02
 11
2.94321542E+02
 21
1.48820241E+02
  0
LINE
  8
0
 62
4
 10
2.94445149E+02
 20
1.48439819E+02
 11
2.95519842E+02
 21
1.48789008E+02
  0
ARC
  8
0
 62
4
 10
2.86546925E+02
 20
1.42298559E+02
 40
1.18100000E+01
 50
5.17248996E+00
 51
3.08275100E+01
  0
ARC
  8
0
 62
4
 10
2.95829622E+02
 20
1.47838200E+02
 40
1.00000000E+00
 50
3.08275100E+01
 51
1.08000000E+02
  0
ARC
  8
0
 62
4
 10
2.97312904E+02
 20
1.43273128E+02
 40
1.00000000E+00
 50
3.36723662E+02
 51
5.17248996E+00
  0
LINE
  8
0
 62
4
 10
2.93370485E+02
 20
1.48511224E+02
 11
2.94321542E+02
 21
1.48820241E+02
  0
LINE
  8
0
 62
4
 10
2.75713895E+02
 20
1.38000031E+02
 11
2.79078537E+02
 21
1.44603512E+02
  0
LINE
  8
0
 62
4
 10
2.85955718E+02
 20
1.38000031E+02
 11
2.83358291E+02
 21
1.45994089E+02
  0
LINE
  8
0
 62
4
 10
2.79078537E+02
 20
1.44603512E+02
 11
2.83358291E+02
 21
1.45994089E+02
  0
LINE
  8
0
  6
CENTER
 62
6
 10
2.84344713E+02
 20
1.37902899E+02
 11
3.00822364E+02
 21
1.43256812E+02
  0
LINE
  8
0
  6
CENTER
 62
6
 10
2.74345749E+02
 20
1.38334156E+02
 11
2.99740804E+02
 21
1.46585510E+02
  0
LINE
  8
0
 62
4
 10
2.93411275E+02
 20
1.38000031E+02
 11
2.93609886E+02
 21
1.38389827E+02
  0
LINE
  8
0
 62
4
 10
2.93609886E+02
 20
1.38389827E+02
 11
2.96367950E+02
 21
1.39285976E+02
  0
LINE
  8
0
 62
4
 10
2.93154173E+02
 20
1.49176964E+02
 11
2.83358291E+02
 21
1.45994089E+02
  0
LINE
  8
0
 62
4
 10
2.96712670E+02
 20
1.38872251E+02
 11
2.96268251E+02
 21
1.38000031E+02
  0
LINE
  8
0
 62
4
 10
2.94028250E+02
 20
1.38000031E+02
 11
2.96712670E+02
 21
1.38872251E+02
  0
LINE
  8
0
 62
4
 10
2.96712670E+02
 20
1.38872251E+02
 11
2.96996072E+02
 21
1.38000031E+02
  0
LINE
  8
0
  6
CENTER
 62
6
 10
2.94501540E+02
 20
1.39205274E+02
 11
2.96355642E+02
 21
1.33498935E+02
  0
LINE
  8
0
  6
CENTER
 62
6
 10
2.92575421E+02
 20
1.35425053E+02
 11
2.98281760E+02
 21
1.37279155E+02
  0
LINE
  8
0
 62
7
 10
3.45500023E+02
 20
6.69999847E+01
 11
3.45500023E+02
 21
1.34000000E+02
  0
CIRCLE
  8
0
 62
7
 10
2.80000023E+02
 20
7.24999771E+01
 40
3.32000017E+00
  0
CIRCLE
  8
0
 62
7
 10
2.79999931E+02
 20
1.28500076E+02
 40
3.32000017E+00
  0
CIRCLE
  8
0
 62
7
 10
3.36000053E+02
 20
1.28500076E+02
 40
3.32000017E+00
  0
CIRCLE
  8
0
 62
7
 10
3.36000145E+02
 20
7.24999771E+01
 40
3.32000017E+00
  0
CIRCLE
  8
0
 62
2
 10
3.36000145E+02
 20
7.24999771E+01
 40
4.00000000E+00
  0
CIRCLE
  8
0
 62
2
 10
2.80000023E+02
 20
7.24999771E+01
 40
4.00000000E+00
  0
CIRCLE
  8
0
 62
2
 10
2.79999931E+02
 20
1.28500076E+02
 40
4.00000000E+00
  0
CIRCLE
  8
0
 62
2
 10
3.36000053E+02
 20
1.28500076E+02
 40
4.00000000E+00
  0
ARC
  8
0
 62
7
 10
2.89444817E+02
 20
7.14778290E+01
 40
1.00000000E+00
 50
1.73823692E+02
 51
2.64325475E+02
  0
ARC
  8
0
 62
7
 10
2.80000023E+02
 20
7.24999390E+01
 40
8.50000000E+00
 50
3.53823551E+02
 51
9.61766812E+01
  0
ARC
  8
0
 62
7
 10
2.78977867E+02
 20
8.19448242E+01
 40
1.00000000E+00
 50
1.85674357E+02
 51
2.76177205E+02
  0
ARC
  8
0
 62
7
 10
2.74499870E+02
 20
8.29998932E+01
 40
3.50000000E+00
 50
3.59721787E-05
 51
8.99985088E+01
  0
ARC
  8
0
 62
7
 10
2.74500023E+02
 20
8.74999008E+01
 40
1.00000000E+00
 50
1.80000041E+02
 51
2.69998220E+02
  0
CIRCLE
  8
0
 62
7
 10
2.80000023E+02
 20
7.24999390E+01
 40
6.00000000E+00
  0
ARC
  8
0
 62
7
 10
2.74500023E+02
 20
6.70000229E+01
 40
4.00000000E+00
 50
1.80000014E+02
 51
2.69999982E+02
  0
ARC
  8
0
 62
7
 10
2.74500023E+02
 20
9.85000000E+01
 40
1.00000000E+00
 50
9.00000317E+01
 51
1.80000014E+02
  0
ARC
  8
0
 62
7
 10
2.88100304E+02
 20
9.85000000E+01
 40
1.00000000E+00
 50
5.73949860E+00
 51
9.00000317E+01
  0
ARC
  8
0
 62
7
 10
2.74500023E+02
 20
6.70000229E+01
 40
3.50000000E+00
 50
1.80000014E+02
 51
2.69999982E+02
  0
ARC
  8
0
 62
7
 10
2.87981163E+02
 20
7.76527176E+01
 40
1.00000000E+00
 50
1.35000036E+02
 51
2.12846748E+02
  0
ARC
  8
0
 62
7
 10
2.85152702E+02
 20
8.04811630E+01
 40
1.00000000E+00
 50
2.37153821E+02
 51
3.15000000E+02
  0
ARC
  8
0
 62
7
 10
2.92514549E+02
 20
8.78429947E+01
 40
1.00000000E+00
 50
3.15000018E+02
 51
3.92610151E+01
  0
ARC
  8
0
 62
7
 10
2.95342949E+02
 20
8.50145493E+01
 40
1.00000000E+00
 50
5.07390388E+01
 51
1.35000036E+02
  0
CIRCLE
  8
0
 62
7
 10
2.80000023E+02
 20
7.24999390E+01
 40
6.50000048E+00
  0
CIRCLE
  8
0
 62
7
 10
3.07999992E+02
 20
1.00500008E+02
 40
1.90000000E+01
  0
ARC
  8
0
 62
7
 10
3.05999992E+02
 20
8.06002579E+01
 40
1.00000000E+00
 50
4.96325570E-05
 51
8.42605553E+01
  0
ARC
  8
0
 62
7
 10
3.05999992E+02
 20
6.70000229E+01
 40
1.00000000E+00
 50
2.69999999E+02
 51
4.96325570E-05
  0
ARC
  8
0
 62
7
 10
2.94999931E+02
 20
6.69999847E+01
 40
1.00000000E+00
 50
1.80001748E+02
 51
2.69999982E+02
  0
ARC
  8
0
 62
7
 10
2.90499962E+02
 20
6.69999084E+01
 40
3.50000000E+00
 50
1.00585904E-03
 51
9.00000179E+01
  0
ARC
  8
0
 62
7
 10
3.41500053E+02
 20
1.13500076E+02
 40
1.00000000E+00
 50
3.59999995E+02
 51
8.99982693E+01
  0
ARC
  8
0
 62
7
 10
3.41500145E+02
 20
1.18000046E+02
 40
3.50000000E+00
 50
1.80000000E+02
 51
2.69998998E+02
  0
ARC
  8
0
 62
7
 10
3.37022209E+02
 20
1.19055191E+02
 40
1.00000000E+00
 50
5.67452982E+00
 51
9.61763122E+01
  0
ARC
  8
0
 62
7
 10
3.36000053E+02
 20
1.28500046E+02
 40
8.50000000E+00
 50
1.73823323E+02
 51
2.76176440E+02
  0
ARC
  8
0
 62
7
 10
3.26555260E+02
 20
7.14778290E+01
 40
1.00000000E+00
 50
2.75674384E+02
 51
6.17723171E+00
  0
ARC
  8
0
 62
7
 10
3.25500114E+02
 20
6.69998322E+01
 40
3.50000000E+00
 50
9.00000179E+01
 51
1.79998504E+02
  0
ARC
  8
0
 62
7
 10
3.21000145E+02
 20
6.69999847E+01
 40
1.00000000E+00
 50
2.70000037E+02
 51
3.59998202E+02
  0
ARC
  8
0
 62
7
 10
3.21000053E+02
 20
1.34000031E+02
 40
1.00000000E+00
 50
1.72985909E-03
 51
9.00000179E+01
  0
ARC
  8
0
 62
7
 10
3.25500084E+02
 20
1.34000107E+02
 40
3.50000000E+00
 50
1.80000997E+02
 51
2.69999982E+02
  0
ARC
  8
0
 62
7
 10
3.26555168E+02
 20
1.29522186E+02
 40
1.00000000E+00
 50
3.53823687E+02
 51
8.43254898E+01
  0
ARC
  8
0
 62
7
 10
3.36000053E+02
 20
7.24999390E+01
 40
8.50000000E+00
 50
8.38233278E+01
 51
1.86176451E+02
  0
ARC
  8
0
 62
7
 10
3.37022209E+02
 20
8.19447861E+01
 40
1.00000000E+00
 50
2.63822759E+02
 51
3.54325620E+02
  0
ARC
  8
0
 62
7
 10
3.41500175E+02
 20
8.29998550E+01
 40
3.50000000E+00
 50
9.00015002E+01
 51
1.80000000E+02
  0
ARC
  8
0
 62
7
 10
3.41500053E+02
 20
8.74998627E+01
 40
1.00000000E+00
 50
2.70001785E+02
 51
3.59999950E+02
  0
ARC
  8
0
 62
7
 10
2.74500023E+02
 20
1.13500076E+02
 40
1.00000000E+00
 50
9.00017529E+01
 51
1.80000014E+02
  0
ARC
  8
0
 62
7
 10
2.78977867E+02
 20
1.19055191E+02
 40
1.00000000E+00
 50
8.38236962E+01
 51
1.74325479E+02
  0
ARC
  8
0
 62
7
 10
2.74499870E+02
 20
1.18000092E+02
 40
3.50000000E+00
 50
2.70001010E+02
 51
2.23118003E-05
  0
ARC
  8
0
 62
7
 10
2.89444817E+02
 20
1.29522186E+02
 40
1.00000000E+00
 50
9.56743616E+01
 51
1.86177210E+02
  0
ARC
  8
0
 62
7
 10
2.94999901E+02
 20
1.34000031E+02
 40
1.00000000E+00
 50
9.00000454E+01
 51
1.79998224E+02
  0
ARC
  8
0
 62
7
 10
2.90499901E+02
 20
1.34000183E+02
 40
3.50000000E+00
 50
2.69999982E+02
 51
3.59998475E+02
  0
CIRCLE
  8
0
 62
7
 10
2.79999931E+02
 20
1.28500046E+02
 40
6.00000000E+00
  0
ARC
  8
0
 62
7
 10
2.74500023E+02
 20
1.34000031E+02
 40
4.00000000E+00
 50
9.00000179E+01
 51
1.80000000E+02
  0
ARC
  8
0
 62
7
 10
2.88100304E+02
 20
1.02500015E+02
 40
1.00000000E+00
 50
2.70000037E+02
 51
3.54260542E+02
  0
ARC
  8
0
 62
7
 10
2.74500023E+02
 20
1.02500015E+02
 40
1.00000000E+00
 50
1.80000000E+02
 51
2.70000037E+02
  0
ARC
  8
0
 62
7
 10
2.74500023E+02
 20
1.34000031E+02
 40
3.50000000E+00
 50
9.00000179E+01
 51
1.80000000E+02
  0
ARC
  8
0
 62
7
 10
2.85152702E+02
 20
1.20518890E+02
 40
1.00000000E+00
 50
4.50000407E+01
 51
1.22846753E+02
  0
ARC
  8
0
 62
7
 10
2.87981163E+02
 20
1.23347336E+02
 40
1.00000000E+00
 50
1.47153839E+02
 51
2.25000005E+02
  0
ARC
  8
0
 62
7
 10
2.95342949E+02
 20
1.15985504E+02
 40
1.00000000E+00
 50
2.25000019E+02
 51
3.09261002E+02
  0
ARC
  8
0
 62
7
 10
2.92514549E+02
 20
1.13157059E+02
 40
1.00000000E+00
 50
3.20739043E+02
 51
4.50000407E+01
  0
CIRCLE
  8
0
 62
7
 10
2.79999931E+02
 20
1.28500046E+02
 40
6.50000048E+00
  0
CIRCLE
  8
0
 62
7
 10
3.36000053E+02
 20
1.28500076E+02
 40
6.00000000E+00
  0
CIRCLE
  8
0
 62
7
 10
3.36000053E+02
 20
7.24999771E+01
 40
6.00000000E+00
  0
ARC
  8
0
 62
7
 10
3.41500023E+02
 20
6.69999847E+01
 40
4.00000000E+00
 50
2.70000009E+02
 51
3.59999950E+02
  0
ARC
  8
0
 62
7
 10
3.41500053E+02
 20
1.34000000E+02
 40
4.00000000E+00
 50
2.23118003E-05
 51
8.99999773E+01
  0
ARC
  8
0
 62
7
 10
3.09999992E+02
 20
6.69999847E+01
 40
1.00000000E+00
 50
1.80000027E+02
 51
2.70000009E+02
  0
ARC
  8
0
 62
7
 10
3.09999992E+02
 20
8.06002579E+01
 40
1.00000000E+00
 50
9.57395012E+01
 51
1.80000027E+02
  0
ARC
  8
0
 62
7
 10
3.27899773E+02
 20
1.02500015E+02
 40
1.00000000E+00
 50
1.85739449E+02
 51
2.69999955E+02
  0
ARC
  8
0
 62
7
 10
3.41500023E+02
 20
1.02500015E+02
 40
1.00000000E+00
 50
2.69999972E+02
 51
2.23118003E-05
  0
ARC
  8
0
 62
7
 10
3.41500023E+02
 20
6.69999847E+01
 40
3.50000000E+00
 50
2.70000009E+02
 51
3.59999950E+02
  0
ARC
  8
0
 62
7
 10
3.05999992E+02
 20
1.34000031E+02
 40
1.00000000E+00
 50
3.59721787E-05
 51
9.00000179E+01
  0
ARC
  8
0
 62
7
 10
3.05999992E+02
 20
1.20399765E+02
 40
1.00000000E+00
 50
2.75739516E+02
 51
3.59721787E-05
  0
ARC
  8
0
 62
7
 10
3.09999992E+02
 20
1.34000000E+02
 40
1.00000000E+00
 50
9.00000042E+01
 51
1.80000041E+02
  0
ARC
  8
0
 62
7
 10
3.41500053E+02
 20
1.34000000E+02
 40
3.50000000E+00
 50
2.23118003E-05
 51
8.99999773E+01
  0
ARC
  8
0
 62
7
 10
3.30847282E+02
 20
8.04811249E+01
 40
1.00000000E+00
 50
2.25000019E+02
 51
3.02846744E+02
  0
ARC
  8
0
 62
7
 10
3.28018883E+02
 20
7.76526794E+01
 40
1.00000000E+00
 50
3.27153834E+02
 51
4.50000133E+01
  0
ARC
  8
0
 62
7
 10
3.20657036E+02
 20
8.50145111E+01
 40
1.00000000E+00
 50
4.50000133E+01
 51
1.29261011E+02
  0
ARC
  8
0
 62
7
 10
3.23485497E+02
 20
8.78429565E+01
 40
1.00000000E+00
 50
1.40739035E+02
 51
2.25000032E+02
  0
ARC
  8
0
 62
7
 10
2.79999931E+02
 20
1.28500046E+02
 40
8.50000000E+00
 50
2.63823541E+02
 51
6.17668534E+00
  0
ARC
  8
0
 62
7
 10
3.41500053E+02
 20
9.85000000E+01
 40
1.00000000E+00
 50
3.59999981E+02
 51
8.99999635E+01
  0
ARC
  8
0
 62
7
 10
3.27899773E+02
 20
9.85000000E+01
 40
1.00000000E+00
 50
8.99999635E+01
 51
1.74260510E+02
  0
ARC
  8
0
 62
7
 10
3.09999992E+02
 20
1.20399765E+02
 40
1.00000000E+00
 50
1.80000041E+02
 51
2.64260547E+02
  0
ARC
  8
0
 62
7
 10
3.20657036E+02
 20
1.15985474E+02
 40
1.00000000E+00
 50
2.30739016E+02
 51
3.15000028E+02
  0
ARC
  8
0
 62
7
 10
3.23485497E+02
 20
1.13157028E+02
 40
1.00000000E+00
 50
1.35000009E+02
 51
2.19261006E+02
  0
CIRCLE
  8
0
 62
7
 10
3.36000053E+02
 20
7.24999771E+01
 40
6.50000048E+00
  0
ARC
  8
0
 62
7
 10
3.28018883E+02
 20
1.23347305E+02
 40
1.00000000E+00
 50
3.15000045E+02
 51
3.28467572E+01
  0
ARC
  8
0
 62
7
 10
3.30847282E+02
 20
1.20518860E+02
 40
1.00000000E+00
 50
5.71538295E+01
 51
1.35000009E+02
  0
CIRCLE
  8
0
 62
7
 10
3.36000053E+02
 20
1.28500076E+02
 40
6.50000048E+00
  0
ARC
  8
0
 62
7
 10
3.45622490E+02
 20
8.82345734E+01
 40
2.50000000E+00
 50
2.70000037E+02
 51
3.52308598E+02
  0
ARC
  8
0
 62
7
 10
3.45622490E+02
 20
1.12765442E+02
 40
2.50000000E+00
 50
7.69143002E+00
 51
9.00000042E+01
  0
ARC
  8
0
 62
7
 10
3.45622490E+02
 20
9.07654343E+01
 40
2.50000000E+00
 50
3.52308615E+02
 51
8.36271917E+01
  0
ARC
  8
0
 62
7
 10
3.45622490E+02
 20
1.10234543E+02
 40
2.50000000E+00
 50
2.76372839E+02
 51
7.69143002E+00
  0
LINE
  8
0
 62
7
 10
2.70999962E+02
 20
6.70000229E+01
 11
2.70999962E+02
 21
1.34000031E+02
  0
LINE
  8
0
  6
CENTER
 62
2
 10
2.79999901E+02
 20
1.40185303E+02
 11
2.79999901E+02
 21
1.17270416E+02
  0
LINE
  8
0
 62
7
 10
2.70499962E+02
 20
6.70000229E+01
 11
2.70499962E+02
 21
1.34000031E+02
  0
LINE
  8
0
 62
7
 10
2.74500023E+02
 20
1.01500031E+02
 11
2.88100304E+02
 21
1.01500031E+02
  0
LINE
  8
0
 62
7
 10
2.73499962E+02
 20
8.74999008E+01
 11
2.73499962E+02
 21
1.13500076E+02
  0
LINE
  8
0
 62
7
 10
3.41500053E+02
 20
1.37500061E+02
 11
2.74500023E+02
 21
1.37500061E+02
  0
LINE
  8
0
 62
7
 10
2.93221877E+02
 20
1.13864340E+02
 11
2.85860028E+02
 21
1.21226186E+02
  0
LINE
  8
0
 62
7
 10
2.94636155E+02
 20
1.15278619E+02
 11
2.87274306E+02
 21
1.22640465E+02
  0
LINE
  8
0
  6
CENTER
 62
2
 10
3.36000023E+02
 20
1.17270416E+02
 11
3.36000023E+02
 21
1.40057999E+02
  0
LINE
  8
0
  6
CENTER
 62
2
 10
3.36000114E+02
 20
6.10016403E+01
 11
3.36000114E+02
 21
8.35345993E+01
  0
LINE
  8
0
 62
7
 10
3.41499992E+02
 20
6.30000381E+01
 11
2.74500023E+02
 21
6.30000381E+01
  0
LINE
  8
0
 62
7
 10
3.41500053E+02
 20
1.38000092E+02
 11
2.74500023E+02
 21
1.38000092E+02
  0
LINE
  8
0
 62
7
 10
3.09000023E+02
 20
6.69999847E+01
 11
3.09000023E+02
 21
8.06002579E+01
  0
LINE
  8
0
 62
7
 10
3.41499992E+02
 20
1.01499992E+02
 11
3.27899773E+02
 21
1.01499992E+02
  0
LINE
  8
0
 62
7
 10
3.42500053E+02
 20
8.74999008E+01
 11
3.42500053E+02
 21
1.13500076E+02
  0
LINE
  8
0
 62
7
 10
3.21000114E+02
 20
6.60000305E+01
 11
2.94999931E+02
 21
6.60000305E+01
  0
LINE
  8
0
 62
7
 10
3.41499992E+02
 20
6.35000305E+01
 11
2.74500023E+02
 21
6.35000305E+01
  0
LINE
  8
0
 62
7
 10
3.06999992E+02
 20
1.34000031E+02
 11
3.06999992E+02
 21
1.20399765E+02
  0
LINE
  8
0
 62
7
 10
3.22778513E+02
 20
1.13863885E+02
 11
3.30140361E+02
 21
1.21225732E+02
  0
LINE
  8
0
 62
7
 10
3.21364333E+02
 20
8.57217220E+01
 11
3.28726181E+02
 21
7.83598748E+01
  0
LINE
  8
0
 62
7
 10
3.41500053E+02
 20
9.95000153E+01
 11
3.27899773E+02
 21
9.95000153E+01
  0
LINE
  8
0
 62
7
 10
3.08999992E+02
 20
1.34000000E+02
 11
3.08999992E+02
 21
1.20399765E+02
  0
LINE
  8
0
  6
CENTER
 62
2
 10
2.79999962E+02
 20
8.25604782E+01
 11
2.79999962E+02
 21
6.10041199E+01
  0
LINE
  8
0
 62
7
 10
3.45000053E+02
 20
6.69999847E+01
 11
3.45000053E+02
 21
1.34000000E+02
  0
LINE
  8
0
 62
7
 10
3.22778536E+02
 20
8.71360759E+01
 11
3.30140383E+02
 21
7.97742287E+01
  0
LINE
  8
0
  6
CENTER
 62
2
 10
2.95999962E+02
 20
1.40214218E+02
 11
2.95999962E+02
 21
1.10494476E+02
  0
LINE
  8
0
 62
7
 10
3.21364289E+02
 20
1.15278109E+02
 11
3.28726137E+02
 21
1.22639957E+02
  0
LINE
  8
0
  6
CENTER
 62
2
 10
2.90630547E+02
 20
1.28500122E+02
 11
2.68097588E+02
 21
1.28500122E+02
  0
LINE
  8
0
  6
CENTER
 62
2
 10
3.25766685E+02
 20
7.25000076E+01
 11
3.48045097E+02
 21
7.25000076E+01
  0
LINE
  8
0
 62
7
 10
3.25500114E+02
 20
7.04998093E+01
 11
3.26763664E+02
 21
7.04998093E+01
  0
LINE
  8
0
 62
7
 10
3.38000237E+02
 20
8.29998932E+01
 11
3.38000237E+02
 21
8.17364655E+01
  0
LINE
  8
0
 62
7
 10
2.77999779E+02
 20
8.29998932E+01
 11
2.77999779E+02
 21
8.17363129E+01
  0
LINE
  8
0
 62
7
 10
2.90499931E+02
 20
7.04998474E+01
 11
2.89236198E+02
 21
7.04998474E+01
  0
LINE
  8
0
 62
7
 10
2.77999779E+02
 20
1.18000092E+02
 11
2.77999779E+02
 21
1.19263824E+02
  0
LINE
  8
0
 62
7
 10
2.90499901E+02
 20
1.30500275E+02
 11
2.89236473E+02
 21
1.30500275E+02
  0
LINE
  8
0
 62
7
 10
3.38000237E+02
 20
1.18000092E+02
 11
3.38000237E+02
 21
1.19263672E+02
  0
LINE
  8
0
 62
7
 10
3.25500084E+02
 20
1.30500244E+02
 11
3.26763603E+02
 21
1.30500244E+02
  0
LINE
  8
0
  6
CENTER
 62
2
 10
3.07999962E+02
 20
1.41129669E+02
 11
3.07999962E+02
 21
5.96689758E+01
  0
LINE
  8
0
  6
CENTER
 62
2
 10
3.48842247E+02
 20
1.00500000E+02
 11
2.67171837E+02
 21
1.00500000E+02
  0
LINE
  8
0
 62
7
 10
2.82999962E+02
 20
6.35000000E+01
 11
2.82999962E+02
 21
6.30000076E+01
  0
LINE
  8
0
 62
7
 10
3.32999962E+02
 20
6.35000000E+01
 11
3.32999962E+02
 21
6.30000076E+01
  0
LINE
  8
0
 62
7
 10
2.82999962E+02
 20
1.38000046E+02
 11
2.82999962E+02
 21
1.37500061E+02
  0
LINE
  8
0
 62
7
 10
3.32999962E+02
 20
1.38000046E+02
 11
3.32999962E+02
 21
1.37500061E+02
  0
LINE
  8
0
  6
CENTER
 62
2
 10
2.67970299E+02
 20
7.25000076E+01
 11
2.90503258E+02
 21
7.25000076E+01
  0
LINE
  8
0
 62
7
 10
2.94636073E+02
 20
8.57215019E+01
 11
2.87274227E+02
 21
7.83596535E+01
  0
LINE
  8
0
 62
7
 10
2.93221698E+02
 20
8.71357046E+01
 11
2.85859873E+02
 21
7.97738777E+01
  0
LINE
  8
0
 62
7
 10
3.07000023E+02
 20
6.70000229E+01
 11
3.07000023E+02
 21
8.06002579E+01
  0
LINE
  8
0
  6
CENTER
 62
2
 10
3.15999962E+02
 20
1.40185303E+02
 11
3.15999962E+02
 21
1.14218918E+02
  0
LINE
  8
0
 62
7
 10
3.45899925E+02
 20
9.32499771E+01
 11
3.45499992E+02
 21
9.32499771E+01
  0
LINE
  8
0
 62
7
 10
3.45899925E+02
 20
8.57499771E+01
 11
3.45499992E+02
 21
8.57499771E+01
  0
LINE
  8
0
 62
7
 10
2.74500023E+02
 20
9.95000153E+01
 11
2.88100304E+02
 21
9.95000153E+01
  0
LINE
  8
0
 62
7
 10
3.45899925E+02
 20
1.15250000E+02
 11
3.45499992E+02
 21
1.15250000E+02
  0
LINE
  8
0
 62
7
 10
3.48099968E+02
 20
1.13100037E+02
 11
3.48099968E+02
 21
1.09899994E+02
  0
LINE
  8
0
  6
CENTER
 62
2
 10
3.48964043E+02
 20
1.11500000E+02
 11
3.45499992E+02
 21
1.11500000E+02
  0
LINE
  8
0
 62
7
 10
3.48099968E+02
 20
8.78999863E+01
 11
3.48099968E+02
 21
9.11000214E+01
  0
LINE
  8
0
  6
CENTER
 62
2
 10
3.48964043E+02
 20
8.94999771E+01
 11
3.45499992E+02
 21
8.94999771E+01
  0
LINE
  8
0
  6
CENTER
 62
2
 10
3.48045097E+02
 20
1.28500122E+02
 11
3.25894005E+02
 21
1.28500122E+02
  0
LINE
  8
0
 62
7
 10
3.21000053E+02
 20
1.35000061E+02
 11
2.94999901E+02
 21
1.35000061E+02
  0
LINE
  8
0
 62
7
 10
3.45899925E+02
 20
1.07749992E+02
 11
3.45499992E+02
 21
1.07749992E+02
  0
LINE
  8
0
  6
PHANTOM
 10
-2.45000000E+01
 20
1.88056721E+02
 11
-2.45000000E+01
 21
3.53816712E+02
  0
ARC
  8
0
 62
7
 10
-1.06000023E+02
 20
2.57500000E+02
 40
2.00000000E+00
 50
1.80000000E+02
 51
2.70000000E+02
  0
ARC
  8
0
 62
7
 10
-1.06000023E+02
 20
3.03500000E+02
 40
2.00000000E+00
 50
9.00000002E+01
 51
1.80000000E+02
  0
LINE
  8
0
 62
7
 10
-1.06000023E+02
 20
2.55500000E+02
 11
-7.99999924E+01
 21
2.55500000E+02
  0
LINE
  8
0
 62
7
 10
-1.06000023E+02
 20
3.05500000E+02
 11
-7.99999924E+01
 21
3.05500000E+02
  0
LINE
  8
0
 62
7
 10
-1.08000023E+02
 20
2.57500000E+02
 11
-1.08000023E+02
 21
3.03500000E+02
  0
LINE
  8
0
 62
7
 10
-7.99999924E+01
 20
2.43000031E+02
 11
-7.99999924E+01
 21
3.18000000E+02
  0
LINE
  8
0
 62
7
 10
2.69999924E+01
 20
3.17999939E+02
 11
2.69999924E+01
 21
2.42999969E+02
  0
LINE
  8
0
 62
7
 10
2.69999924E+01
 20
2.56100021E+02
 11
1.99999924E+01
 21
2.56100021E+02
  0
LINE
  8
0
 62
7
 10
2.69999924E+01
 20
2.48900009E+02
 11
4.99999237E+00
 21
2.48900009E+02
  0
LINE
  8
0
 62
7
 10
2.69999924E+01
 20
2.46500031E+02
 11
4.99999237E+00
 21
2.46500031E+02
  0
LINE
  8
0
 62
7
 10
2.69999924E+01
 20
3.04899994E+02
 11
-3.89999924E+01
 21
3.04899994E+02
  0
LINE
  8
0
 62
7
 10
2.69999924E+01
 20
3.12100006E+02
 11
-3.89999924E+01
 21
3.12100006E+02
  0
LINE
  8
0
 62
7
 10
2.69999924E+01
 20
3.14499969E+02
 11
-3.89999924E+01
 21
3.14499969E+02
  0
LINE
  8
0
 62
7
 10
7.89999619E+01
 20
2.42999985E+02
 11
7.89999619E+01
 21
3.18000000E+02
  0
LINE
  8
0
 62
7
 10
7.90000000E+01
 20
2.42999985E+02
 11
2.69999924E+01
 21
2.42999985E+02
  0
LINE
  8
0
 62
7
 10
5.07499924E+01
 20
3.18399933E+02
 11
5.07499924E+01
 21
3.18000000E+02
  0
LINE
  8
0
 62
7
 10
4.53999710E+01
 20
3.20600006E+02
 11
4.85999908E+01
 21
3.20600006E+02
  0
LINE
  8
0
 62
7
 10
4.32499924E+01
 20
3.18399994E+02
 11
4.32499924E+01
 21
3.18000000E+02
  0
LINE
  8
0
  6
CENTER
 62
2
 10
4.69999924E+01
 20
3.21464050E+02
 11
4.69999924E+01
 21
3.18000000E+02
  0
LINE
  8
0
  6
CENTER
 62
2
 10
6.90000000E+01
 20
3.21464050E+02
 11
6.90000000E+01
 21
3.18000000E+02
  0
LINE
  8
0
 62
7
 10
7.05999985E+01
 20
3.20600006E+02
 11
6.73999825E+01
 21
3.20600006E+02
  0
LINE
  8
0
 62
7
 10
7.27500000E+01
 20
3.18399933E+02
 11
7.27500000E+01
 21
3.18000000E+02
  0
LINE
  8
0
 62
7
 10
6.52500000E+01
 20
3.18399933E+02
 11
6.52500000E+01
 21
3.18000000E+02
  0
LINE
  8
0
  6
CENTER
 62
2
 10
3.40000153E+01
 20
2.61028854E+02
 11
3.40000153E+01
 21
2.77617874E+02
  0
LINE
  8
0
  6
CENTER
 62
2
 10
4.28452682E+01
 20
2.68499985E+02
 11
2.53707581E+01
 21
2.68499985E+02
  0
LINE
  8
0
 62
7
 10
8.04999771E+01
 20
2.99499985E+02
 11
7.90000000E+01
 21
2.99499985E+02
  0
LINE
  8
0
 62
7
 10
8.04999580E+01
 20
2.61500000E+02
 11
7.90000000E+01
 21
2.61500000E+02
  0
LINE
  8
0
 62
7
 10
3.22679256E+01
 20
2.68500012E+02
 11
3.31339266E+01
 21
2.69999979E+02
  0
LINE
  8
0
 62
7
 10
3.31339874E+01
 20
2.70000000E+02
 11
3.48659744E+01
 21
2.70000000E+02
  0
LINE
  8
0
 62
7
 10
3.57319232E+01
 20
2.68499944E+02
 11
3.48659222E+01
 21
2.69999911E+02
  0
LINE
  8
0
 62
7
 10
3.48659238E+01
 20
2.66999907E+02
 11
3.57319630E+01
 21
2.68499940E+02
  0
LINE
  8
0
 62
7
 10
3.31339874E+01
 20
2.66999969E+02
 11
3.48659744E+01
 21
2.66999969E+02
  0
LINE
  8
0
 62
7
 10
3.22679046E+01
 20
2.68499901E+02
 11
3.31339209E+01
 21
2.66999908E+02
  0
LINE
  8
0
 62
7
 10
8.04999580E+01
 20
2.99499985E+02
 11
8.04999580E+01
 21
2.61499969E+02
  0
LINE
  8
0
 62
7
 10
8.09999667E+01
 20
2.61999961E+02
 11
8.04999823E+01
 21
2.61499977E+02
  0
LINE
  8
0
 62
7
 10
8.09999695E+01
 20
2.98999969E+02
 11
8.09999695E+01
 21
2.61999985E+02
  0
LINE
  8
0
 62
7
 10
8.10000655E+01
 20
2.99000074E+02
 11
8.05000649E+01
 21
2.99500075E+02
  0
LINE
  8
0
  6
CENTER
 62
2
 10
6.83648338E+01
 20
2.88499985E+02
 11
4.67606583E+01
 21
2.88499985E+02
  0
LINE
  8
0
  6
CENTER
 62
2
 10
5.80000534E+01
 20
2.78499939E+02
 11
5.80000534E+01
 21
3.20757263E+02
  0
LINE
  8
0
 62
7
 10
7.90000000E+01
 20
3.18000000E+02
 11
2.69999390E+01
 21
3.18000000E+02
  0
LINE
  8
0
  6
CENTER
 62
2
 10
-1.73263954E+02
 20
2.80500000E+02
 11
8.30368652E+01
 21
2.80500000E+02
  0
LINE
  8
0
 62
7
 10
-1.21999962E+02
 20
2.64499985E+02
 11
-1.21999962E+02
 21
2.64491440E+02
  0
LINE
  8
0
 62
7
 10
-1.26499947E+02
 20
2.98499954E+02
 11
-1.21991432E+02
 21
2.98499954E+02
  0
LINE
  8
0
 62
7
 10
-1.21999962E+02
 20
2.98499985E+02
 11
-1.21999962E+02
 21
2.98508530E+02
  0
LINE
  8
0
 62
7
 10
-1.21758739E+02
 20
2.98758647E+02
 11
-1.14000040E+02
 21
2.99029587E+02
  0
LINE
  8
0
 62
7
 10
-1.21999962E+02
 20
2.98499985E+02
 11
-1.21999962E+02
 21
2.64499985E+02
  0
LINE
  8
0
 62
7
 10
-1.21758671E+02
 20
2.64241500E+02
 11
-1.13999972E+02
 21
2.63970561E+02
  0
LINE
  8
0
 62
7
 10
-1.26499947E+02
 20
2.64499985E+02
 11
-1.21991432E+02
 21
2.64499985E+02
  0
LINE
  8
0
 62
7
 10
-1.26999962E+02
 20
2.65000015E+02
 11
-1.26999962E+02
 21
2.97999954E+02
  0
LINE
  8
0
 62
7
 10
-1.11999992E+02
 20
3.16950073E+02
 11
-1.11999992E+02
 21
2.44049927E+02
  0
LINE
  8
0
 62
7
 10
-1.11508774E+02
 20
2.43550041E+02
 11
-8.00000694E+01
 21
2.43000055E+02
  0
LINE
  8
0
  6
CENTER
 62
2
 10
-1.04364861E+02
 20
2.88499985E+02
 11
-8.27606888E+01
 21
2.88499985E+02
  0
LINE
  8
0
  6
CENTER
 62
2
 10
-9.40000381E+01
 20
2.78499954E+02
 11
-9.40000381E+01
 21
2.99046249E+02
  0
LINE
  8
0
 62
7
 10
-1.13499992E+02
 20
2.99500000E+02
 11
-1.11999992E+02
 21
2.99500000E+02
  0
LINE
  8
0
 62
7
 10
-1.11508794E+02
 20
3.17450091E+02
 11
-7.99999972E+01
 21
3.18000080E+02
  0
LINE
  8
0
 62
7
 10
-1.13499992E+02
 20
2.61499985E+02
 11
-1.11999992E+02
 21
2.61499985E+02
  0
LINE
  8
0
 62
7
 10
-1.14000008E+02
 20
2.99000000E+02
 11
-1.14000008E+02
 21
2.62000000E+02
  0
LINE
  8
0
  6
CENTER
 62
2
 10
-1.15651985E+02
 20
3.08500000E+02
 11
8.16773643E+01
 21
3.08500000E+02
  0
LINE
  8
0
  6
CENTER
 62
2
 10
-8.70000687E+01
 20
2.74911133E+02
 11
-8.70000687E+01
 21
2.61434372E+02
  0
LINE
  8
0
  6
CENTER
 62
2
 10
-8.03343124E+01
 20
2.68500000E+02
 11
-9.31630783E+01
 21
2.68500000E+02
  0
LINE
  8
0
 62
7
 10
-8.87320898E+01
 20
2.68499894E+02
 11
-8.78660582E+01
 21
2.69999914E+02
  0
LINE
  8
0
 62
7
 10
-8.78660507E+01
 20
2.70000015E+02
 11
-8.61339645E+01
 21
2.70000015E+02
  0
LINE
  8
0
 62
7
 10
-8.52681843E+01
 20
2.68499832E+02
 11
-8.61341930E+01
 21
2.69999812E+02
  0
LINE
  8
0
 62
7
 10
-8.61340434E+01
 20
2.66999964E+02
 11
-8.52680081E+01
 21
2.68499991E+02
  0
LINE
  8
0
 62
7
 10
-8.78660507E+01
 20
2.66999985E+02
 11
-8.61339645E+01
 21
2.66999985E+02
  0
LINE
  8
0
 62
7
 10
-8.87322045E+01
 20
2.68499929E+02
 11
-8.78661653E+01
 21
2.66999896E+02
  0
LINE
  8
0
  6
CENTER
 62
2
 10
-1.15651985E+02
 20
2.52499985E+02
 11
8.21871758E+01
 21
2.52499985E+02
  0
LINE
  8
0
 62
7
 10
-1.33999931E+02
 20
2.89000015E+02
 11
-1.33999931E+02
 21
2.72000015E+02
  0
LINE
  8
0
 62
7
 10
-1.28499977E+02
 20
2.70500046E+02
 11
-1.27000008E+02
 21
2.70500046E+02
  0
LINE
  8
0
 62
7
 10
-1.28499947E+02
 20
2.90500046E+02
 11
-1.26999962E+02
 21
2.90500046E+02
  0
LINE
  8
0
 62
7
 10
-1.39999916E+02
 20
2.71500015E+02
 11
-1.39999916E+02
 21
2.89500015E+02
  0
LINE
  8
0
 62
7
 10
-1.68999947E+02
 20
2.73000046E+02
 11
-1.68999947E+02
 21
2.87999847E+02
  0
LINE
  8
0
 62
7
 10
-1.67499916E+02
 20
2.71500015E+02
 11
-1.67499916E+02
 21
2.89500015E+02
  0
LINE
  8
0
 62
7
 10
-1.67499886E+02
 20
2.89500015E+02
 11
-1.59999931E+02
 21
2.89500015E+02
  0
LINE
  8
0
 62
2
 10
-1.68319893E+02
 20
2.88680008E+02
 11
-1.59999931E+02
 21
2.88680008E+02
  0
LINE
  8
0
 62
7
 10
-1.68999780E+02
 20
2.87999830E+02
 11
-1.67499747E+02
 21
2.89499817E+02
  0
LINE
  8
0
 62
7
 10
-1.67499886E+02
 20
2.71500031E+02
 11
-1.59999931E+02
 21
2.71500031E+02
  0
LINE
  8
0
 62
2
 10
-1.68319893E+02
 20
2.72320038E+02
 11
-1.59999931E+02
 21
2.72320038E+02
  0
LINE
  8
0
 62
7
 10
-1.68999976E+02
 20
2.73000145E+02
 11
-1.67499941E+02
 21
2.71500156E+02
  0
LINE
  8
0
 62
7
 10
-1.36999931E+02
 20
2.72000015E+02
 11
-1.36999931E+02
 21
2.89000015E+02
  0
LINE
  8
0
 62
7
 10
-1.36999931E+02
 20
2.72000015E+02
 11
-1.29999992E+02
 21
2.72000015E+02
  0
LINE
  8
0
 62
7
 10
-1.36999931E+02
 20
2.89000031E+02
 11
-1.29999992E+02
 21
2.89000031E+02
  0
LINE
  8
0
 62
7
 10
-1.30000047E+02
 20
2.72000086E+02
 11
-1.28500077E+02
 21
2.70500116E+02
  0
LINE
  8
0
 62
7
 10
-1.30000103E+02
 20
2.89000155E+02
 11
-1.28500080E+02
 21
2.90500178E+02
  0
LINE
  8
0
 62
7
 10
-1.39999916E+02
 20
2.88680008E+02
 11
-1.36999931E+02
 21
2.88680008E+02
  0
LINE
  8
0
 62
7
 10
-1.39999916E+02
 20
2.72320038E+02
 11
-1.36999931E+02
 21
2.72320038E+02
  0
ARC
  8
0
 62
7
 10
4.82654419E+01
 20
3.18122467E+02
 40
2.50000000E+00
 50
6.37279871E+00
 51
9.76913759E+01
  0
ARC
  8
0
 62
7
 10
6.77345505E+01
 20
3.18122467E+02
 40
2.50000000E+00
 50
8.23085741E+01
 51
1.73627152E+02
  0
ARC
  8
0
 62
7
 10
4.57345581E+01
 20
3.18122467E+02
 40
2.50000000E+00
 50
9.76913896E+01
 51
1.79999964E+02
  0
ARC
  8
0
 62
7
 10
7.02654305E+01
 20
3.18122467E+02
 40
2.50000000E+00
 50
1.36603783E-05
 51
8.23085878E+01
  0
ARC
  8
0
 62
7
 10
3.40000153E+01
 20
2.68499985E+02
 40
5.00000000E+00
 50
0.00000000E+00
 51
1.79999964E+02
  0
ARC
  8
0
 62
7
 10
3.40000153E+01
 20
2.68499985E+02
 40
5.00000000E+00
 50
1.79999964E+02
 51
1.00179127E-05
  0
CIRCLE
  8
0
 62
7
 10
3.40000153E+01
 20
2.68499985E+02
 40
2.59999990E+00
  0
CIRCLE
  8
0
 62
7
 10
5.80000534E+01
 20
2.88499985E+02
 40
7.44000006E+00
  0
CIRCLE
  8
0
 62
2
 10
5.80000534E+01
 20
2.88499985E+02
 40
8.32999992E+00
  0
ARC
  8
0
 62
7
 10
-1.11500008E+02
 20
2.44049927E+02
 40
5.00000000E-01
 50
1.79999964E+02
 51
2.68999706E+02
  0
CIRCLE
  8
0
 62
7
 10
-9.40000381E+01
 20
2.88499985E+02
 40
7.44000006E+00
  0
ARC
  8
0
 62
7
 10
-1.11500008E+02
 20
3.16950073E+02
 40
5.00000000E-01
 50
9.10001742E+01
 51
1.79999909E+02
  0
ARC
  8
0
 62
7
 10
-1.13500008E+02
 20
2.99000000E+02
 40
5.00000000E-01
 50
8.99999274E+01
 51
1.79999909E+02
  0
ARC
  8
0
 62
7
 10
-1.13500008E+02
 20
2.62000000E+02
 40
5.00000000E-01
 50
1.79999909E+02
 51
2.69999891E+02
  0
CIRCLE
  8
0
 62
2
 10
-9.40000381E+01
 20
2.88499985E+02
 40
8.32999992E+00
  0
ARC
  8
0
 62
7
 10
-8.70000687E+01
 20
2.68500000E+02
 40
5.00000000E+00
 50
0.00000000E+00
 51
1.79999964E+02
  0
ARC
  8
0
 62
7
 10
-8.70000687E+01
 20
2.68500000E+02
 40
5.00000000E+00
 50
1.79999964E+02
 51
1.00179127E-05
  0
CIRCLE
  8
0
 62
7
 10
-8.70000687E+01
 20
2.68500000E+02
 40
2.59999990E+00
  0
ARC
  8
0
 62
7
 10
-1.26499962E+02
 20
2.65000015E+02
 40
5.00000000E-01
 50
1.79999977E+02
 51
2.69999974E+02
  0
ARC
  8
0
 62
7
 10
-1.21749947E+02
 20
2.64491440E+02
 40
2.50000000E-01
 50
1.79999977E+02
 51
2.68001132E+02
  0
ARC
  8
0
 62
7
 10
-1.26499962E+02
 20
2.97999924E+02
 40
5.00000000E-01
 50
8.99999818E+01
 51
1.79999964E+02
  0
ARC
  8
0
 62
7
 10
-1.21749947E+02
 20
2.98508499E+02
 40
2.50000000E-01
 50
9.19988230E+01
 51
1.79999977E+02
  0
ARC
  8
0
 62
4
 10
-1.68496324E+02
 20
2.73750000E+02
 40
1.94963929E+01
 50
3.39743842E+02
 51
2.02561580E+01
  0
ARC
  8
0
 62
4
 10
-1.68496324E+02
 20
2.87250000E+02
 40
1.94963929E+01
 50
3.39743842E+02
 51
2.02561580E+01
  0
ARC
  8
0
 62
4
 10
-1.40503538E+02
 20
2.87250000E+02
 40
1.94963929E+01
 50
1.59743842E+02
 51
2.00256158E+02
  0
ARC
  8
0
 62
4
 10
-1.40503538E+02
 20
2.73750000E+02
 40
1.94963929E+01
 50
1.59743842E+02
 51
2.00256158E+02
  0
LINE
  8
0
 62
4
 10
-1.50205703E+02
 20
2.80500000E+02
 11
-1.58794160E+02
 21
2.80500000E+02
  0
LINE
  8
0
 62
4
 10
-1.48999931E+02
 20
2.67000000E+02
 11
-1.59999931E+02
 21
2.67000000E+02
  0
LINE
  8
0
 62
4
 10
-1.48999931E+02
 20
2.94000000E+02
 11
-1.59999931E+02
 21
2.94000000E+02
  0
LINE
  8
0
 62
4
 10
-1.59999931E+02
 20
2.94000000E+02
 11
-1.59999931E+02
 21
2.67000000E+02
  0
LINE
  8
0
 62
4
 10
-1.48999931E+02
 20
2.94000000E+02
 11
-1.48999931E+02
 21
2.67000000E+02
  0
LINE
  8
0
 62
7
 10
-1.48999931E+02
 20
2.89500015E+02
 11
-1.39999916E+02
 21
2.89500015E+02
  0
LINE
  8
0
 62
2
 10
-1.48999931E+02
 20
2.88680008E+02
 11
-1.39999916E+02
 21
2.88680008E+02
  0
LINE
  8
0
 62
7
 10
-1.48999931E+02
 20
2.71500031E+02
 11
-1.39999916E+02
 21
2.71500031E+02
  0
LINE
  8
0
 62
2
 10
-1.48999931E+02
 20
2.72320038E+02
 11
-1.39999916E+02
 21
2.72320038E+02
  0
LINE
  8
0
 62
6
 10
-1.82679568E+01
 20
2.70928660E+02
 11
-2.17320584E+01
 21
2.64928660E+02
  0
LINE
  8
0
 62
4
 10
-1.00000076E+01
 20
2.69428660E+02
 11
-1.91339822E+01
 21
2.69428660E+02
  0
LINE
  8
0
  6
CENTER
 62
6
 10
2.49999924E+01
 20
2.67928660E+02
 11
-2.20000076E+01
 21
2.67928660E+02
  0
LINE
  8
0
 62
4
 10
-1.00000076E+01
 20
2.66428660E+02
 11
-2.08660330E+01
 21
2.66428660E+02
  0
LINE
  8
0
 62
6
 10
-3.07320432E+01
 20
2.90071279E+02
 11
-2.72679416E+01
 21
2.96071279E+02
  0
LINE
  8
0
 62
4
 10
-3.89999924E+01
 20
2.91571279E+02
 11
-2.98660178E+01
 21
2.91571279E+02
  0
LINE
  8
0
  6
CENTER
 62
6
 10
-7.39999924E+01
 20
2.93071279E+02
 11
-2.69999924E+01
 21
2.93071279E+02
  0
LINE
  8
0
 62
4
 10
-3.89999924E+01
 20
2.94571279E+02
 11
-2.81339670E+01
 21
2.94571279E+02
  0
LINE
  8
0
 62
4
 10
-5.00007659E-01
 20
2.42392173E+02
 11
-5.00007659E-01
 21
2.43232092E+02
  0
LINE
  8
0
 62
4
 10
3.49999234E+00
 20
2.42392173E+02
 11
3.49999234E+00
 21
2.43232092E+02
  0
LINE
  8
0
 62
6
 10
-7.65877661E-06
 20
2.41983382E+02
 11
-7.65877661E-06
 21
2.43232092E+02
  0
LINE
  8
0
 62
6
 10
2.99999234E+00
 20
2.41983382E+02
 11
2.99999234E+00
 21
2.43232092E+02
  0
LINE
  8
0
  6
CENTER
 62
6
 10
1.24999924E+01
 20
2.64544818E+02
 11
1.24999924E+01
 21
2.69544818E+02
  0
LINE
  8
0
  6
CENTER
 62
6
 10
1.49999234E+00
 20
2.37834360E+02
 11
1.49999234E+00
 21
2.48099939E+02
  0
LINE
  8
0
  6
CENTER
 62
6
 10
-6.50000766E+00
 20
2.37834360E+02
 11
-6.50000766E+00
 21
2.48099939E+02
  0
LINE
  8
0
 62
4
 10
1.99999924E+01
 20
2.55858360E+02
 11
1.99999924E+01
 21
2.68868019E+02
  0
LINE
  8
0
 62
4
 10
-1.00000076E+01
 20
2.43232092E+02
 11
-1.00000076E+01
 21
2.70598514E+02
  0
LINE
  8
0
 62
4
 10
4.99999237E+00
 20
2.43232092E+02
 11
4.99999237E+00
 21
2.55858360E+02
  0
LINE
  8
0
 62
4
 10
2.14999924E+01
 20
2.66500021E+02
 11
2.14999924E+01
 21
2.69354088E+02
  0
LINE
  8
0
 62
4
 10
4.99999237E+00
 20
2.43232092E+02
 11
-1.00000076E+01
 21
2.43232092E+02
  0
LINE
  8
0
 62
4
 10
4.99999237E+00
 20
2.51578606E+02
 11
-1.00000076E+01
 21
2.51578606E+02
  0
LINE
  8
0
 62
4
 10
1.99999924E+01
 20
2.55858360E+02
 11
-1.00000076E+01
 21
2.55858360E+02
  0
LINE
  8
0
 62
4
 10
1.99999924E+01
 20
2.65654242E+02
 11
-1.00000076E+01
 21
2.65654242E+02
  0
LINE
  8
0
 62
4
 10
1.99999924E+01
 20
2.70598514E+02
 11
8.90175995E+00
 21
2.70598514E+02
  0
POLYLINE
  8
0
 62
4
 66
1
  0
VERTEX
  8
0
 62
4
 10
-5.00007660E-01
 20
2.42392173E+02
  0
VERTEX
  8
0
 62
4
 10
-4.91956249E-01
 20
2.42336773E+02
  0
VERTEX
  8
0
 62
4
 10
-4.67866839E-01
 20
2.42281819E+02
  0
VERTEX
  8
0
 62
4
 10
-4.27933383E-01
 20
2.42227753E+02
  0
VERTEX
  8
0
 62
4
 10
-3.72477404E-01
 20
2.42175011E+02
  0
VERTEX
  8
0
 62
4
 10
-3.01945399E-01
 20
2.42124018E+02
  0
VERTEX
  8
0
 62
4
 10
-2.16905252E-01
 20
2.42075184E+02
  0
VERTEX
  8
0
 62
4
 10
-1.18041654E-01
 20
2.42028902E+02
  0
VERTEX
  8
0
 62
4
 10
-6.15059781E-03
 20
2.41985545E+02
  0
VERTEX
  8
0
 62
4
 10
1.17867036E-01
 20
2.41945461E+02
  0
VERTEX
  8
0
 62
4
 10
2.53012729E-01
 20
2.41908975E+02
  0
VERTEX
  8
0
 62
4
 10
3.98198369E-01
 20
2.41876378E+02
  0
VERTEX
  8
0
 62
4
 10
5.52255007E-01
 20
2.41847935E+02
  0
VERTEX
  8
0
 62
4
 10
7.13942268E-01
 20
2.41823874E+02
  0
VERTEX
  8
0
 62
4
 10
8.81958342E-01
 20
2.41804388E+02
  0
VERTEX
  8
0
 62
4
 10
1.05495046E+00
 20
2.41789634E+02
  0
VERTEX
  8
0
 62
4
 10
1.23152580E+00
 20
2.41779732E+02
  0
VERTEX
  8
0
 62
4
 10
1.41026267E+00
 20
2.41774761E+02
  0
VERTEX
  8
0
 62
4
 10
1.58972199E+00
 20
2.41774761E+02
  0
VERTEX
  8
0
 62
4
 10
1.76845886E+00
 20
2.41779732E+02
  0
VERTEX
  8
0
 62
4
 10
1.94503420E+00
 20
2.41789634E+02
  0
VERTEX
  8
0
 62
4
 10
2.11802632E+00
 20
2.41804388E+02
  0
VERTEX
  8
0
 62
4
 10
2.28604239E+00
 20
2.41823874E+02
  0
VERTEX
  8
0
 62
4
 10
2.44772965E+00
 20
2.41847935E+02
  0
VERTEX
  8
0
 62
4
 10
2.60178629E+00
 20
2.41876378E+02
  0
VERTEX
  8
0
 62
4
 10
2.74697193E+00
 20
2.41908975E+02
  0
VERTEX
  8
0
 62
4
 10
2.88211763E+00
 20
2.41945461E+02
  0
VERTEX
  8
0
 62
4
 10
3.00613526E+00
 20
2.41985545E+02
  0
VERTEX
  8
0
 62
4
 10
3.11802632E+00
 20
2.42028902E+02
  0
VERTEX
  8
0
 62
4
 10
3.21688992E+00
 20
2.42075184E+02
  0
VERTEX
  8
0
 62
4
 10
3.30193007E+00
 20
2.42124018E+02
  0
VERTEX
  8
0
 62
4
 10
3.37246208E+00
 20
2.42175011E+02
  0
VERTEX
  8
0
 62
4
 10
3.42791806E+00
 20
2.42227753E+02
  0
VERTEX
  8
0
 62
4
 10
3.46785151E+00
 20
2.42281819E+02
  0
VERTEX
  8
0
 62
4
 10
3.49194093E+00
 20
2.42336773E+02
  0
VERTEX
  8
0
 62
4
 10
3.49999234E+00
 20
2.42392173E+02
  0
SEQEND
  8
0
  0
LINE
  8
0
 62
4
 10
-8.50000766E+00
 20
2.42392173E+02
 11
-8.50000766E+00
 21
2.43232092E+02
  0
LINE
  8
0
 62
6
 10
-8.00000766E+00
 20
2.41983382E+02
 11
-8.00000766E+00
 21
2.43232092E+02
  0
POLYLINE
  8
0
 62
4
 66
1
  0
VERTEX
  8
0
 62
4
 10
-8.50000766E+00
 20
2.42392173E+02
  0
VERTEX
  8
0
 62
4
 10
-8.49195625E+00
 20
2.42336773E+02
  0
VERTEX
  8
0
 62
4
 10
-8.46786684E+00
 20
2.42281819E+02
  0
VERTEX
  8
0
 62
4
 10
-8.42793338E+00
 20
2.42227753E+02
  0
VERTEX
  8
0
 62
4
 10
-8.37247740E+00
 20
2.42175011E+02
  0
VERTEX
  8
0
 62
4
 10
-8.30194540E+00
 20
2.42124018E+02
  0
VERTEX
  8
0
 62
4
 10
-8.21690525E+00
 20
2.42075184E+02
  0
VERTEX
  8
0
 62
4
 10
-8.11804165E+00
 20
2.42028902E+02
  0
VERTEX
  8
0
 62
4
 10
-8.00615060E+00
 20
2.41985545E+02
  0
VERTEX
  8
0
 62
4
 10
-7.88213296E+00
 20
2.41945461E+02
  0
VERTEX
  8
0
 62
4
 10
-7.74698727E+00
 20
2.41908975E+02
  0
VERTEX
  8
0
 62
4
 10
-7.60180163E+00
 20
2.41876378E+02
  0
VERTEX
  8
0
 62
4
 10
-7.44774499E+00
 20
2.41847935E+02
  0
VERTEX
  8
0
 62
4
 10
-7.28605773E+00
 20
2.41823874E+02
  0
VERTEX
  8
0
 62
4
 10
-7.11804166E+00
 20
2.41804388E+02
  0
VERTEX
  8
0
 62
4
 10
-6.94504954E+00
 20
2.41789634E+02
  0
VERTEX
  8
0
 62
4
 10
-6.76847420E+00
 20
2.41779732E+02
  0
VERTEX
  8
0
 62
4
 10
-6.58973733E+00
 20
2.41774761E+02
  0
VERTEX
  8
0
 62
4
 10
-6.41027801E+00
 20
2.41774761E+02
  0
VERTEX
  8
0
 62
4
 10
-6.23154114E+00
 20
2.41779732E+02
  0
VERTEX
  8
0
 62
4
 10
-6.05496580E+00
 20
2.41789634E+02
  0
VERTEX
  8
0
 62
4
 10
-5.88197368E+00
 20
2.41804388E+02
  0
VERTEX
  8
0
 62
4
 10
-5.71395761E+00
 20
2.41823874E+02
  0
VERTEX
  8
0
 62
4
 10
-5.55227035E+00
 20
2.41847935E+02
  0
VERTEX
  8
0
 62
4
 10
-5.39821371E+00
 20
2.41876378E+02
  0
VERTEX
  8
0
 62
4
 10
-5.25302807E+00
 20
2.41908975E+02
  0
VERTEX
  8
0
 62
4
 10
-5.11788237E+00
 20
2.41945461E+02
  0
VERTEX
  8
0
 62
4
 10
-4.99386474E+00
 20
2.41985545E+02
  0
VERTEX
  8
0
 62
4
 10
-4.88197368E+00
 20
2.42028902E+02
  0
VERTEX
  8
0
 62
4
 10
-4.78311008E+00
 20
2.42075184E+02
  0
VERTEX
  8
0
 62
4
 10
-4.69806993E+00
 20
2.42124018E+02
  0
VERTEX
  8
0
 62
4
 10
-4.62753792E+00
 20
2.42175011E+02
  0
VERTEX
  8
0
 62
4
 10
-4.57208194E+00
 20
2.42227753E+02
  0
VERTEX
  8
0
 62
4
 10
-4.53214849E+00
 20
2.42281819E+02
  0
VERTEX
  8
0
 62
4
 10
-4.50805907E+00
 20
2.42336773E+02
  0
VERTEX
  8
0
 62
4
 10
-4.50000766E+00
 20
2.42392173E+02
  0
SEQEND
  8
0
  0
LINE
  8
0
 62
4
 10
-4.50000766E+00
 20
2.42392173E+02
 11
-4.50000766E+00
 21
2.43232092E+02
  0
LINE
  8
0
 62
6
 10
-5.00000766E+00
 20
2.41983382E+02
 11
-5.00000766E+00
 21
2.43232092E+02
  0
LINE
  8
0
 62
4
 10
1.99999924E+01
 20
2.65408512E+02
 11
2.14999924E+01
 21
2.66500021E+02
  0
LINE
  8
0
 62
4
 10
2.14999924E+01
 20
2.68654164E+02
 11
1.99999924E+01
 21
2.69212739E+02
  0
LINE
  8
0
 62
4
 10
1.99999924E+01
 20
2.70448807E+02
 11
2.14999924E+01
 21
2.69354088E+02
  0
LINE
  8
0
 62
4
 10
1.99999924E+01
 20
2.68868019E+02
 11
9.14999239E+00
 21
2.68868019E+02
  0
LINE
  8
0
 62
4
 10
-5.56560573E+00
 20
2.70289497E+02
 11
-1.00000076E+01
 21
2.70289497E+02
  0
LINE
  8
0
 62
4
 10
1.99999924E+01
 20
2.69212739E+02
 11
9.14999239E+00
 21
2.69212739E+02
  0
LINE
  8
0
 62
4
 10
1.99999924E+01
 20
2.70448807E+02
 11
9.04460764E+00
 21
2.70448807E+02
  0
LINE
  8
0
 62
4
 10
1.99999924E+01
 20
2.68868019E+02
 11
1.99999924E+01
 21
2.70448807E+02
  0
LINE
  8
0
 62
4
 10
1.99999924E+01
 20
2.70448807E+02
 11
1.99999924E+01
 21
2.70598514E+02
  0
ARC
  8
0
 62
4
 10
-1.00007307E-01
 20
2.69543186E+02
 40
1.00000000E+00
 50
3.60000000E+02
 51
7.71724899E+01
  0
ARC
  8
0
 62
4
 10
-4.90000795E+00
 20
2.69543186E+02
 40
1.00000000E+00
 50
1.02827510E+02
 51
1.80000000E+02
  0
ARC
  8
0
 62
4
 10
-2.50000763E+00
 20
2.59002973E+02
 40
1.18100000E+01
 50
7.71724899E+01
 51
1.02827510E+02
  0
LINE
  8
0
 62
4
 10
9.14999239E+00
 20
2.70161639E+02
 11
9.14999239E+00
 21
2.68487779E+02
  0
LINE
  8
0
 62
4
 10
8.49992385E-01
 20
2.70161639E+02
 11
8.49992385E-01
 21
2.69855437E+02
  0
POLYLINE
  8
0
 62
4
 66
1
  0
VERTEX
  8
0
 62
4
 10
1.29999238E+00
 20
2.67906983E+02
  0
VERTEX
  8
0
 62
4
 10
1.48180736E+00
 20
2.67807599E+02
  0
VERTEX
  8
0
 62
4
 10
1.69150461E+00
 20
2.67713606E+02
  0
VERTEX
  8
0
 62
4
 10
1.92742225E+00
 20
2.67625748E+02
  0
VERTEX
  8
0
 62
4
 10
2.18769057E+00
 20
2.67544722E+02
  0
VERTEX
  8
0
 62
4
 10
2.47024691E+00
 20
2.67471170E+02
  0
VERTEX
  8
0
 62
4
 10
2.77285196E+00
 20
2.67405675E+02
  0
VERTEX
  8
0
 62
4
 10
3.09310751E+00
 20
2.67348755E+02
  0
VERTEX
  8
0
 62
4
 10
3.42847548E+00
 20
2.67300863E+02
  0
VERTEX
  8
0
 62
4
 10
3.77629801E+00
 20
2.67262377E+02
  0
VERTEX
  8
0
 62
4
 10
4.13381855E+00
 20
2.67233602E+02
  0
VERTEX
  8
0
 62
4
 10
4.49820367E+00
 20
2.67214767E+02
  0
VERTEX
  8
0
 62
4
 10
4.86656557E+00
 20
2.67206021E+02
  0
VERTEX
  8
0
 62
4
 10
5.23598489E+00
 20
2.67207434E+02
  0
VERTEX
  8
0
 62
4
 10
5.60353394E+00
 20
2.67218993E+02
  0
VERTEX
  8
0
 62
4
 10
5.96629980E+00
 20
2.67240607E+02
  0
VERTEX
  8
0
 62
4
 10
6.32140750E+00
 20
2.67272106E+02
  0
VERTEX
  8
0
 62
4
 10
6.66604273E+00
 20
2.67313239E+02
  0
VERTEX
  8
0
 62
4
 10
6.99747421E+00
 20
2.67363680E+02
  0
VERTEX
  8
0
 62
4
 10
7.31307527E+00
 20
2.67423031E+02
  0
VERTEX
  8
0
 62
4
 10
7.61034472E+00
 20
2.67490819E+02
  0
VERTEX
  8
0
 62
4
 10
7.88692663E+00
 20
2.67566509E+02
  0
VERTEX
  8
0
 62
4
 10
8.14062906E+00
 20
2.67649500E+02
  0
VERTEX
  8
0
 62
4
 10
8.36944135E+00
 20
2.67739134E+02
  0
VERTEX
  8
0
 62
4
 10
8.57155014E+00
 20
2.67834701E+02
  0
VERTEX
  8
0
 62
4
 10
8.74535366E+00
 20
2.67935445E+02
  0
VERTEX
  8
0
 62
4
 10
8.88947450E+00
 20
2.68040565E+02
  0
VERTEX
  8
0
 62
4
 10
9.00277046E+00
 20
2.68149230E+02
  0
VERTEX
  8
0
 62
4
 10
9.08434366E+00
 20
2.68260578E+02
  0
VERTEX
  8
0
 62
4
 10
9.13354762E+00
 20
2.68373727E+02
  0
VERTEX
  8
0
 62
4
 10
9.14999238E+00
 20
2.68487779E+02
  0
SEQEND
  8
0
  0
POLYLINE
  8
0
 62
4
 66
1
  0
VERTEX
  8
0
 62
4
 10
9.14999238E+00
 20
2.70161639E+02
  0
VERTEX
  8
0
 62
4
 10
9.13420038E+00
 20
2.70273409E+02
  0
VERTEX
  8
0
 62
4
 10
9.08694455E+00
 20
2.70384329E+02
  0
VERTEX
  8
0
 62
4
 10
9.00858456E+00
 20
2.70493554E+02
  0
VERTEX
  8
0
 62
4
 10
8.89971676E+00
 20
2.70600253E+02
  0
VERTEX
  8
0
 62
4
 10
8.76116969E+00
 20
2.70703613E+02
  0
VERTEX
  8
0
 62
4
 10
8.59399780E+00
 20
2.70802849E+02
  0
VERTEX
  8
0
 62
4
 10
8.39947336E+00
 20
2.70897205E+02
  0
VERTEX
  8
0
 62
4
 10
8.17907682E+00
 20
2.70985963E+02
  0
VERTEX
  8
0
 62
4
 10
7.93448552E+00
 20
2.71068447E+02
  0
VERTEX
  8
0
 62
4
 10
7.66756096E+00
 20
2.71144030E+02
  0
VERTEX
  8
0
 62
4
 10
7.38033459E+00
 20
2.71212136E+02
  0
VERTEX
  8
0
 62
4
 10
7.07499237E+00
 20
2.71272248E+02
  0
VERTEX
  8
0
 62
4
 10
6.75385816E+00
 20
2.71323907E+02
  0
VERTEX
  8
0
 62
4
 10
6.41937597E+00
 20
2.71366720E+02
  0
VERTEX
  8
0
 62
4
 10
6.07409141E+00
 20
2.71400362E+02
  0
VERTEX
  8
0
 62
4
 10
5.72063231E+00
 20
2.71424577E+02
  0
VERTEX
  8
0
 62
4
 10
5.36168870E+00
 20
2.71439180E+02
  0
VERTEX
  8
0
 62
4
 10
4.99999237E+00
 20
2.71444059E+02
  0
VERTEX
  8
0
 62
4
 10
4.63829603E+00
 20
2.71439180E+02
  0
VERTEX
  8
0
 62
4
 10
4.27935243E+00
 20
2.71424577E+02
  0
VERTEX
  8
0
 62
4
 10
3.92589333E+00
 20
2.71400362E+02
  0
VERTEX
  8
0
 62
4
 10
3.58060877E+00
 20
2.71366720E+02
  0
VERTEX
  8
0
 62
4
 10
3.24612658E+00
 20
2.71323907E+02
  0
VERTEX
  8
0
 62
4
 10
2.92499236E+00
 20
2.71272248E+02
  0
VERTEX
  8
0
 62
4
 10
2.61965015E+00
 20
2.71212136E+02
  0
VERTEX
  8
0
 62
4
 10
2.33242378E+00
 20
2.71144030E+02
  0
VERTEX
  8
0
 62
4
 10
2.06549922E+00
 20
2.71068447E+02
  0
VERTEX
  8
0
 62
4
 10
1.82090792E+00
 20
2.70985963E+02
  0
VERTEX
  8
0
 62
4
 10
1.60051138E+00
 20
2.70897205E+02
  0
VERTEX
  8
0
 62
4
 10
1.40598693E+00
 20
2.70802849E+02
  0
VERTEX
  8
0
 62
4
 10
1.23881504E+00
 20
2.70703613E+02
  0
VERTEX
  8
0
 62
4
 10
1.10026798E+00
 20
2.70600253E+02
  0
VERTEX
  8
0
 62
4
 10
9.91400180E-01
 20
2.70493554E+02
  0
VERTEX
  8
0
 62
4
 10
9.13040184E-01
 20
2.70384329E+02
  0
VERTEX
  8
0
 62
4
 10
8.65784362E-01
 20
2.70273409E+02
  0
VERTEX
  8
0
 62
4
 10
8.49992360E-01
 20
2.70161639E+02
  0
VERTEX
  8
0
 62
4
 10
8.65784363E-01
 20
2.70049869E+02
  0
VERTEX
  8
0
 62
4
 10
9.13040186E-01
 20
2.69938949E+02
  0
VERTEX
  8
0
 62
4
 10
9.91400183E-01
 20
2.69829724E+02
  0
VERTEX
  8
0
 62
4
 10
1.10026799E+00
 20
2.69723025E+02
  0
VERTEX
  8
0
 62
4
 10
1.23881505E+00
 20
2.69619665E+02
  0
VERTEX
  8
0
 62
4
 10
1.40598694E+00
 20
2.69520429E+02
  0
VERTEX
  8
0
 62
4
 10
1.60051138E+00
 20
2.69426073E+02
  0
VERTEX
  8
0
 62
4
 10
1.82090793E+00
 20
2.69337315E+02
  0
VERTEX
  8
0
 62
4
 10
2.06549923E+00
 20
2.69254831E+02
  0
VERTEX
  8
0
 62
4
 10
2.33242379E+00
 20
2.69179248E+02
  0
VERTEX
  8
0
 62
4
 10
2.61965016E+00
 20
2.69111142E+02
  0
VERTEX
  8
0
 62
4
 10
2.92499237E+00
 20
2.69051030E+02
  0
VERTEX
  8
0
 62
4
 10
3.24612659E+00
 20
2.68999371E+02
  0
VERTEX
  8
0
 62
4
 10
3.58060878E+00
 20
2.68956558E+02
  0
VERTEX
  8
0
 62
4
 10
3.92589334E+00
 20
2.68922916E+02
  0
VERTEX
  8
0
 62
4
 10
4.27935244E+00
 20
2.68898701E+02
  0
VERTEX
  8
0
 62
4
 10
4.63829605E+00
 20
2.68884098E+02
  0
VERTEX
  8
0
 62
4
 10
4.99999238E+00
 20
2.68879218E+02
  0
VERTEX
  8
0
 62
4
 10
5.36168871E+00
 20
2.68884098E+02
  0
VERTEX
  8
0
 62
4
 10
5.72063232E+00
 20
2.68898701E+02
  0
VERTEX
  8
0
 62
4
 10
6.07409142E+00
 20
2.68922916E+02
  0
VERTEX
  8
0
 62
4
 10
6.41937598E+00
 20
2.68956558E+02
  0
VERTEX
  8
0
 62
4
 10
6.75385817E+00
 20
2.68999371E+02
  0
VERTEX
  8
0
 62
4
 10
7.07499238E+00
 20
2.69051030E+02
  0
VERTEX
  8
0
 62
4
 10
7.38033459E+00
 20
2.69111142E+02
  0
VERTEX
  8
0
 62
4
 10
7.66756096E+00
 20
2.69179248E+02
  0
VERTEX
  8
0
 62
4
 10
7.93448553E+00
 20
2.69254831E+02
  0
VERTEX
  8
0
 62
4
 10
8.17907682E+00
 20
2.69337315E+02
  0
VERTEX
  8
0
 62
4
 10
8.39947337E+00
 20
2.69426073E+02
  0
VERTEX
  8
0
 62
4
 10
8.59399781E+00
 20
2.69520429E+02
  0
VERTEX
  8
0
 62
4
 10
8.76116970E+00
 20
2.69619665E+02
  0
VERTEX
  8
0
 62
4
 10
8.89971676E+00
 20
2.69723025E+02
  0
VERTEX
  8
0
 62
4
 10
9.00858456E+00
 20
2.69829724E+02
  0
VERTEX
  8
0
 62
4
 10
9.08694456E+00
 20
2.69938949E+02
  0
VERTEX
  8
0
 62
4
 10
9.13420038E+00
 20
2.70049869E+02
  0
VERTEX
  8
0
 62
4
 10
9.14999238E+00
 20
2.70161639E+02
  0
SEQEND
  8
0
  0
LINE
  8
0
 62
4
 10
8.99999237E+00
 20
2.68146109E+02
 11
8.99999237E+00
 21
2.68126378E+02
  0
POLYLINE
  8
0
 62
4
 66
1
  0
VERTEX
  8
0
 62
4
 10
1.29999238E+00
 20
2.67656713E+02
  0
VERTEX
  8
0
 62
4
 10
1.44930035E+00
 20
2.67557200E+02
  0
VERTEX
  8
0
 62
4
 10
1.62656903E+00
 20
2.67462170E+02
  0
VERTEX
  8
0
 62
4
 10
1.83040248E+00
 20
2.67372370E+02
  0
VERTEX
  8
0
 62
4
 10
2.05919557E+00
 20
2.67288508E+02
  0
VERTEX
  8
0
 62
4
 10
2.31114662E+00
 20
2.67211244E+02
  0
VERTEX
  8
0
 62
4
 10
2.58427158E+00
 20
2.67141186E+02
  0
VERTEX
  8
0
 62
4
 10
2.87641967E+00
 20
2.67078886E+02
  0
VERTEX
  8
0
 62
4
 10
3.18529030E+00
 20
2.67024835E+02
  0
VERTEX
  8
0
 62
4
 10
3.50845121E+00
 20
2.66979458E+02
  0
VERTEX
  8
0
 62
4
 10
3.84335758E+00
 20
2.66943113E+02
  0
VERTEX
  8
0
 62
4
 10
4.18737214E+00
 20
2.66916086E+02
  0
VERTEX
  8
0
 62
4
 10
4.53778585E+00
 20
2.66898590E+02
  0
VERTEX
  8
0
 62
4
 10
4.89183931E+00
 20
2.66890762E+02
  0
VERTEX
  8
0
 62
4
 10
5.24674445E+00
 20
2.66892664E+02
  0
VERTEX
  8
0
 62
4
 10
5.59970648E+00
 20
2.66904281E+02
  0
VERTEX
  8
0
 62
4
 10
5.94794594E+00
 20
2.66925523E+02
  0
VERTEX
  8
0
 62
4
 10
6.28872052E+00
 20
2.66956220E+02
  0
VERTEX
  8
0
 62
4
 10
6.61934672E+00
 20
2.66996132E+02
  0
VERTEX
  8
0
 62
4
 10
6.93722096E+00
 20
2.67044945E+02
  0
VERTEX
  8
0
 62
4
 10
7.23984006E+00
 20
2.67102273E+02
  0
VERTEX
  8
0
 62
4
 10
7.52482099E+00
 20
2.67167666E+02
  0
VERTEX
  8
0
 62
4
 10
7.78991959E+00
 20
2.67240609E+02
  0
VERTEX
  8
0
 62
4
 10
8.03304830E+00
 20
2.67320526E+02
  0
VERTEX
  8
0
 62
4
 10
8.25229253E+00
 20
2.67406790E+02
  0
VERTEX
  8
0
 62
4
 10
8.44592580E+00
 20
2.67498720E+02
  0
VERTEX
  8
0
 62
4
 10
8.61242330E+00
 20
2.67595593E+02
  0
VERTEX
  8
0
 62
4
 10
8.75047392E+00
 20
2.67696646E+02
  0
VERTEX
  8
0
 62
4
 10
8.85899054E+00
 20
2.67801082E+02
  0
VERTEX
  8
0
 62
4
 10
8.93711862E+00
 20
2.67908081E+02
  0
VERTEX
  8
0
 62
4
 10
8.98424293E+00
 20
2.68016798E+02
  0
VERTEX
  8
0
 62
4
 10
8.99999237E+00
 20
2.68126378E+02
  0
SEQEND
  8
0
  0
ARC
  8
0
 62
4
 10
9.18761442E+00
 20
2.57173141E+02
 40
1.43299558E+01
 50
9.97219440E+01
 51
1.14556488E+02
  0
ARC
  8
0
 62
4
 10
8.12368852E-01
 20
2.57173136E+02
 40
1.43299613E+01
 50
6.54435144E+01
 51
8.02780535E+01
  0
LINE
  8
0
 62
4
 10
1.29999237E+00
 20
2.67995875E+02
 11
1.29999237E+00
 21
2.67044818E+02
  0
POLYLINE
  8
0
 62
4
 66
1
  0
VERTEX
  8
0
 62
4
 10
-6.30000763E+00
 20
2.67044818E+02
  0
VERTEX
  8
0
 62
4
 10
-6.28470995E+00
 20
2.66939558E+02
  0
VERTEX
  8
0
 62
4
 10
-6.23894007E+00
 20
2.66835145E+02
  0
VERTEX
  8
0
 62
4
 10
-6.16306650E+00
 20
2.66732420E+02
  0
VERTEX
  8
0
 62
4
 10
-6.05770014E+00
 20
2.66632211E+02
  0
VERTEX
  8
0
 62
4
 10
-5.92368933E+00
 20
2.66535324E+02
  0
VERTEX
  8
0
 62
4
 10
-5.76211305E+00
 20
2.66442539E+02
  0
VERTEX
  8
0
 62
4
 10
-5.57427222E+00
 20
2.66354603E+02
  0
VERTEX
  8
0
 62
4
 10
-5.36167921E+00
 20
2.66272224E+02
  0
VERTEX
  8
0
 62
4
 10
-5.12604571E+00
 20
2.66196066E+02
  0
VERTEX
  8
0
 62
4
 10
-4.86926889E+00
 20
2.66126741E+02
  0
VERTEX
  8
0
 62
4
 10
-4.59341617E+00
 20
2.66064808E+02
  0
VERTEX
  8
0
 62
4
 10
-4.30070856E+00
 20
2.66010766E+02
  0
VERTEX
  8
0
 62
4
 10
-3.99350277E+00
 20
2.65965049E+02
  0
VERTEX
  8
0
 62
4
 10
-3.67427223E+00
 20
2.65928026E+02
  0
VERTEX
  8
0
 62
4
 10
-3.34558720E+00
 20
2.65899995E+02
  0
VERTEX
  8
0
 62
4
 10
-3.01009406E+00
 20
2.65881181E+02
  0
VERTEX
  8
0
 62
4
 10
-2.67049401E+00
 20
2.65871736E+02
  0
VERTEX
  8
0
 62
4
 10
-2.32952130E+00
 20
2.65871736E+02
  0
VERTEX
  8
0
 62
4
 10
-1.98992124E+00
 20
2.65881181E+02
  0
VERTEX
  8
0
 62
4
 10
-1.65442810E+00
 20
2.65899995E+02
  0
VERTEX
  8
0
 62
4
 10
-1.32574307E+00
 20
2.65928026E+02
  0
VERTEX
  8
0
 62
4
 10
-1.00651253E+00
 20
2.65965049E+02
  0
VERTEX
  8
0
 62
4
 10
-6.99306733E-01
 20
2.66010766E+02
  0
VERTEX
  8
0
 62
4
 10
-4.06599120E-01
 20
2.66064808E+02
  0
VERTEX
  8
0
 62
4
 10
-1.30746401E-01
 20
2.66126741E+02
  0
VERTEX
  8
0
 62
4
 10
1.26030419E-01
 20
2.66196066E+02
  0
VERTEX
  8
0
 62
4
 10
3.61663925E-01
 20
2.66272224E+02
  0
VERTEX
  8
0
 62
4
 10
5.74256934E-01
 20
2.66354603E+02
  0
VERTEX
  8
0
 62
4
 10
7.62097773E-01
 20
2.66442539E+02
  0
VERTEX
  8
0
 62
4
 10
9.23674057E-01
 20
2.66535324E+02
  0
VERTEX
  8
0
 62
4
 10
1.05768487E+00
 20
2.66632211E+02
  0
VERTEX
  8
0
 62
4
 10
1.16305123E+00
 20
2.66732420E+02
  0
VERTEX
  8
0
 62
4
 10
1.23892480E+00
 20
2.66835145E+02
  0
VERTEX
  8
0
 62
4
 10
1.28469468E+00
 20
2.66939558E+02
  0
VERTEX
  8
0
 62
4
 10
1.29999237E+00
 20
2.67044818E+02
  0
SEQEND
  8
0
  0
POLYLINE
  8
0
 62
4
 66
1
  0
VERTEX
  8
0
 62
4
 10
-5.90000764E+00
 20
2.68520294E+02
  0
VERTEX
  8
0
 62
4
 10
-6.03658930E+00
 20
2.68425463E+02
  0
VERTEX
  8
0
 62
4
 10
-6.14553717E+00
 20
2.68327275E+02
  0
VERTEX
  8
0
 62
4
 10
-6.22599995E+00
 20
2.68226498E+02
  0
VERTEX
  8
0
 62
4
 10
-6.27734893E+00
 20
2.68123919E+02
  0
VERTEX
  8
0
 62
4
 10
-6.29918288E+00
 20
2.68020339E+02
  0
VERTEX
  8
0
 62
4
 10
-6.29133121E+00
 20
2.67916568E+02
  0
VERTEX
  8
0
 62
4
 10
-6.25385526E+00
 20
2.67813417E+02
  0
VERTEX
  8
0
 62
4
 10
-6.18704785E+00
 20
2.67711691E+02
  0
VERTEX
  8
0
 62
4
 10
-6.09143101E+00
 20
2.67612186E+02
  0
VERTEX
  8
0
 62
4
 10
-5.96775185E+00
 20
2.67515679E+02
  0
VERTEX
  8
0
 62
4
 10
-5.81697677E+00
 20
2.67422924E+02
  0
VERTEX
  8
0
 62
4
 10
-5.64028387E+00
 20
2.67334646E+02
  0
VERTEX
  8
0
 62
4
 10
-5.43905379E+00
 20
2.67251535E+02
  0
VERTEX
  8
0
 62
4
 10
-5.21485887E+00
 20
2.67174239E+02
  0
VERTEX
  8
0
 62
4
 10
-4.96945091E+00
 20
2.67103364E+02
  0
VERTEX
  8
0
 62
4
 10
-4.70474745E+00
 20
2.67039463E+02
  0
VERTEX
  8
0
 62
4
 10
-4.42281681E+00
 20
2.66983034E+02
  0
VERTEX
  8
0
 62
4
 10
-4.12586191E+00
 20
2.66934520E+02
  0
VERTEX
  8
0
 62
4
 10
-3.81620307E+00
 20
2.66894299E+02
  0
VERTEX
  8
0
 62
4
 10
-3.49625986E+00
 20
2.66862685E+02
  0
VERTEX
  8
0
 62
4
 10
-3.16853224E+00
 20
2.66839925E+02
  0
VERTEX
  8
0
 62
4
 10
-2.83558096E+00
 20
2.66826198E+02
  0
VERTEX
  8
0
 62
4
 10
-2.50000761E+00
 20
2.66821610E+02
  0
VERTEX
  8
0
 62
4
 10
-2.16443426E+00
 20
2.66826198E+02
  0
VERTEX
  8
0
 62
4
 10
-1.83148299E+00
 20
2.66839925E+02
  0
VERTEX
  8
0
 62
4
 10
-1.50375536E+00
 20
2.66862685E+02
  0
VERTEX
  8
0
 62
4
 10
-1.18381216E+00
 20
2.66894299E+02
  0
VERTEX
  8
0
 62
4
 10
-8.74153316E-01
 20
2.66934520E+02
  0
VERTEX
  8
0
 62
4
 10
-5.77198416E-01
 20
2.66983034E+02
  0
VERTEX
  8
0
 62
4
 10
-2.95267777E-01
 20
2.67039463E+02
  0
VERTEX
  8
0
 62
4
 10
-3.05643209E-02
 20
2.67103364E+02
  0
VERTEX
  8
0
 62
4
 10
2.14843637E-01
 20
2.67174239E+02
  0
VERTEX
  8
0
 62
4
 10
4.39038553E-01
 20
2.67251535E+02
  0
VERTEX
  8
0
 62
4
 10
6.40268634E-01
 20
2.67334646E+02
  0
VERTEX
  8
0
 62
4
 10
8.16961528E-01
 20
2.67422924E+02
  0
VERTEX
  8
0
 62
4
 10
9.67736608E-01
 20
2.67515679E+02
  0
VERTEX
  8
0
 62
4
 10
1.09141576E+00
 20
2.67612186E+02
  0
VERTEX
  8
0
 62
4
 10
1.18703260E+00
 20
2.67711691E+02
  0
VERTEX
  8
0
 62
4
 10
1.25384000E+00
 20
2.67813417E+02
  0
VERTEX
  8
0
 62
4
 10
1.29131595E+00
 20
2.67916568E+02
  0
VERTEX
  8
0
 62
4
 10
1.29916762E+00
 20
2.68020339E+02
  0
VERTEX
  8
0
 62
4
 10
1.27733366E+00
 20
2.68123919E+02
  0
VERTEX
  8
0
 62
4
 10
1.22598468E+00
 20
2.68226498E+02
  0
VERTEX
  8
0
 62
4
 10
1.14552190E+00
 20
2.68327275E+02
  0
VERTEX
  8
0
 62
4
 10
1.03657403E+00
 20
2.68425463E+02
  0
VERTEX
  8
0
 62
4
 10
8.99992362E-01
 20
2.68520294E+02
  0
SEQEND
  8
0
  0
LINE
  8
0
 62
4
 10
-6.30000763E+00
 20
2.67995875E+02
 11
-6.30000763E+00
 21
2.67044818E+02
  0
LINE
  8
0
 62
4
 10
8.99992371E-01
 20
2.69543186E+02
 11
8.99992371E-01
 21
2.67995875E+02
  0
POLYLINE
  8
0
 62
4
 66
1
  0
VERTEX
  8
0
 62
4
 10
-5.90000763E+00
 20
2.67995875E+02
  0
VERTEX
  8
0
 62
4
 10
-5.88632023E+00
 20
2.67901695E+02
  0
VERTEX
  8
0
 62
4
 10
-5.84536823E+00
 20
2.67808273E+02
  0
VERTEX
  8
0
 62
4
 10
-5.77748136E+00
 20
2.67716361E+02
  0
VERTEX
  8
0
 62
4
 10
-5.68320619E+00
 20
2.67626700E+02
  0
VERTEX
  8
0
 62
4
 10
-5.56330179E+00
 20
2.67540012E+02
  0
VERTEX
  8
0
 62
4
 10
-5.41873354E+00
 20
2.67456993E+02
  0
VERTEX
  8
0
 62
4
 10
-5.25066542E+00
 20
2.67378314E+02
  0
VERTEX
  8
0
 62
4
 10
-5.06045062E+00
 20
2.67304607E+02
  0
VERTEX
  8
0
 62
4
 10
-4.84962065E+00
 20
2.67236465E+02
  0
VERTEX
  8
0
 62
4
 10
-4.61987297E+00
 20
2.67174438E+02
  0
VERTEX
  8
0
 62
4
 10
-4.37305738E+00
 20
2.67119024E+02
  0
VERTEX
  8
0
 62
4
 10
-4.11116110E+00
 20
2.67070670E+02
  0
VERTEX
  8
0
 62
4
 10
-3.83629275E+00
 20
2.67029766E+02
  0
VERTEX
  8
0
 62
4
 10
-3.55066543E+00
 20
2.66996640E+02
  0
VERTEX
  8
0
 62
4
 10
-3.25657882E+00
 20
2.66971559E+02
  0
VERTEX
  8
0
 62
4
 10
-2.95640075E+00
 20
2.66954726E+02
  0
VERTEX
  8
0
 62
4
 10
-2.65254807E+00
 20
2.66946275E+02
  0
VERTEX
  8
0
 62
4
 10
-2.34746723E+00
 20
2.66946275E+02
  0
VERTEX
  8
0
 62
4
 10
-2.04361454E+00
 20
2.66954726E+02
  0
VERTEX
  8
0
 62
4
 10
-1.74343647E+00
 20
2.66971559E+02
  0
VERTEX
  8
0
 62
4
 10
-1.44934987E+00
 20
2.66996640E+02
  0
VERTEX
  8
0
 62
4
 10
-1.16372254E+00
 20
2.67029766E+02
  0
VERTEX
  8
0
 62
4
 10
-8.88854195E-01
 20
2.67070670E+02
  0
VERTEX
  8
0
 62
4
 10
-6.26957910E-01
 20
2.67119024E+02
  0
VERTEX
  8
0
 62
4
 10
-3.80142320E-01
 20
2.67174438E+02
  0
VERTEX
  8
0
 62
4
 10
-1.50394639E-01
 20
2.67236465E+02
  0
VERTEX
  8
0
 62
4
 10
6.04353402E-02
 20
2.67304607E+02
  0
VERTEX
  8
0
 62
4
 10
2.50650138E-01
 20
2.67378314E+02
  0
VERTEX
  8
0
 62
4
 10
4.18718257E-01
 20
2.67456993E+02
  0
VERTEX
  8
0
 62
4
 10
5.63286511E-01
 20
2.67540012E+02
  0
VERTEX
  8
0
 62
4
 10
6.83190922E-01
 20
2.67626700E+02
  0
VERTEX
  8
0
 62
4
 10
7.77466090E-01
 20
2.67716361E+02
  0
VERTEX
  8
0
 62
4
 10
8.45352967E-01
 20
2.67808273E+02
  0
VERTEX
  8
0
 62
4
 10
8.86304967E-01
 20
2.67901695E+02
  0
VERTEX
  8
0
 62
4
 10
8.99992370E-01
 20
2.67995875E+02
  0
SEQEND
  8
0
  0
LINE
  8
0
 62
4
 10
-5.90000763E+00
 20
2.69543186E+02
 11
-5.90000763E+00
 21
2.67995875E+02
  0
POLYLINE
  8
0
 62
4
 66
1
  0
VERTEX
  8
0
 62
4
 10
-5.90000763E+00
 20
2.69543180E+02
  0
VERTEX
  8
0
 62
4
 10
-5.88631840E+00
 20
2.69448999E+02
  0
VERTEX
  8
0
 62
4
 10
-5.84536459E+00
 20
2.69355578E+02
  0
VERTEX
  8
0
 62
4
 10
-5.77747593E+00
 20
2.69263666E+02
  0
VERTEX
  8
0
 62
4
 10
-5.68319903E+00
 20
2.69174005E+02
  0
VERTEX
  8
0
 62
4
 10
-5.56329294E+00
 20
2.69087317E+02
  0
VERTEX
  8
0
 62
4
 10
-5.41872307E+00
 20
2.69004299E+02
  0
VERTEX
  8
0
 62
4
 10
-5.25065343E+00
 20
2.68925620E+02
  0
VERTEX
  8
0
 62
4
 10
-5.06043720E+00
 20
2.68851913E+02
  0
VERTEX
  8
0
 62
4
 10
-4.84960590E+00
 20
2.68783772E+02
  0
VERTEX
  8
0
 62
4
 10
-4.61985702E+00
 20
2.68721745E+02
  0
VERTEX
  8
0
 62
4
 10
-4.37304035E+00
 20
2.68666332E+02
  0
VERTEX
  8
0
 62
4
 10
-4.11114313E+00
 20
2.68617978E+02
  0
VERTEX
  8
0
 62
4
 10
-3.83627399E+00
 20
2.68577075E+02
  0
VERTEX
  8
0
 62
4
 10
-3.55064603E+00
 20
2.68543949E+02
  0
VERTEX
  8
0
 62
4
 10
-3.25655893E+00
 20
2.68518869E+02
  0
VERTEX
  8
0
 62
4
 10
-2.95638054E+00
 20
2.68502036E+02
  0
VERTEX
  8
0
 62
4
 10
-2.65252769E+00
 20
2.68493586E+02
  0
VERTEX
  8
0
 62
4
 10
-2.34744685E+00
 20
2.68493586E+02
  0
VERTEX
  8
0
 62
4
 10
-2.04359433E+00
 20
2.68502038E+02
  0
VERTEX
  8
0
 62
4
 10
-1.74341658E+00
 20
2.68518872E+02
  0
VERTEX
  8
0
 62
4
 10
-1.44933047E+00
 20
2.68543953E+02
  0
VERTEX
  8
0
 62
4
 10
-1.16370378E+00
 20
2.68577079E+02
  0
VERTEX
  8
0
 62
4
 10
-8.88836231E-01
 20
2.68617984E+02
  0
VERTEX
  8
0
 62
4
 10
-6.26940885E-01
 20
2.68666339E+02
  0
VERTEX
  8
0
 62
4
 10
-3.80126371E-01
 20
2.68721753E+02
  0
VERTEX
  8
0
 62
4
 10
-1.50379894E-01
 20
2.68783780E+02
  0
VERTEX
  8
0
 62
4
 10
6.04487621E-02
 20
2.68851922E+02
  0
VERTEX
  8
0
 62
4
 10
2.50662129E-01
 20
2.68925630E+02
  0
VERTEX
  8
0
 62
4
 10
4.18728720E-01
 20
2.69004310E+02
  0
VERTEX
  8
0
 62
4
 10
5.63295362E-01
 20
2.69087328E+02
  0
VERTEX
  8
0
 62
4
 10
6.83198090E-01
 20
2.69174017E+02
  0
VERTEX
  8
0
 62
4
 10
7.77471517E-01
 20
2.69263678E+02
  0
VERTEX
  8
0
 62
4
 10
8.45356610E-01
 20
2.69355590E+02
  0
VERTEX
  8
0
 62
4
 10
8.86306796E-01
 20
2.69449012E+02
  0
VERTEX
  8
0
 62
4
 10
8.99992370E-01
 20
2.69543192E+02
  0
SEQEND
  8
0
  0
ARC
  8
0
 62
4
 10
1.66049226E+00
 20
2.56688770E+02
 40
1.42127873E+01
 50
9.99307184E+01
 51
1.14652136E+02
  0
ARC
  8
0
 62
4
 10
-6.66050779E+00
 20
2.56688769E+02
 40
1.42127883E+01
 50
6.53478648E+01
 51
8.00692808E+01
  0
LINE
  8
0
  6
CENTER
 62
6
 10
1.49999924E+01
 20
2.67044818E+02
 11
9.99999237E+00
 21
2.67044818E+02
  0
LINE
  8
0
  6
CENTER
 62
6
 10
4.99999237E+00
 20
2.65626378E+02
 11
4.99999237E+00
 21
2.70626378E+02
  0
LINE
  8
0
  6
CENTER
 62
6
 10
7.49999237E+00
 20
2.68126378E+02
 11
2.49999237E+00
 21
2.68126378E+02
  0
LINE
  8
0
  6
CENTER
 62
6
 10
-2.50000763E+00
 20
2.64544818E+02
 11
-2.50000763E+00
 21
2.69544818E+02
  0
LINE
  8
0
  6
CENTER
 62
6
 10
-7.62939453E-06
 20
2.67044818E+02
 11
-5.00000763E+00
 21
2.67044818E+02
  0
LINE
  8
0
 62
4
 10
1.09822479E+00
 20
2.70598514E+02
 11
-2.59577351E-01
 21
2.70598514E+02
  0
LINE
  8
0
 62
4
 10
9.55377099E-01
 20
2.70448807E+02
 11
3.24082242E-01
 21
2.70448807E+02
  0
LINE
  8
0
 62
4
 10
-5.90000763E+00
 20
2.68868019E+02
 11
-1.00000076E+01
 21
2.68868019E+02
  0
LINE
  8
0
 62
4
 10
-4.74043791E+00
 20
2.70598514E+02
 11
-1.00000076E+01
 21
2.70598514E+02
  0
LINE
  8
0
 62
4
 10
-4.84999923E+01
 20
3.18607766E+02
 11
-4.84999923E+01
 21
3.17767847E+02
  0
LINE
  8
0
 62
4
 10
-5.24999923E+01
 20
3.18607766E+02
 11
-5.24999923E+01
 21
3.17767847E+02
  0
LINE
  8
0
 62
6
 10
-4.89999923E+01
 20
3.19016557E+02
 11
-4.89999923E+01
 21
3.17767847E+02
  0
LINE
  8
0
 62
6
 10
-5.19999923E+01
 20
3.19016557E+02
 11
-5.19999923E+01
 21
3.17767847E+02
  0
LINE
  8
0
  6
CENTER
 62
6
 10
-6.14999924E+01
 20
2.96455120E+02
 11
-6.14999924E+01
 21
2.91455120E+02
  0
LINE
  8
0
  6
CENTER
 62
6
 10
-5.04999923E+01
 20
3.23165579E+02
 11
-5.04999923E+01
 21
3.12900000E+02
  0
LINE
  8
0
  6
CENTER
 62
6
 10
-4.24999923E+01
 20
3.23165579E+02
 11
-4.24999923E+01
 21
3.12900000E+02
  0
LINE
  8
0
 62
4
 10
-6.89999924E+01
 20
3.05141579E+02
 11
-6.89999924E+01
 21
2.92131920E+02
  0
LINE
  8
0
 62
4
 10
-3.89999924E+01
 20
3.17767847E+02
 11
-3.89999924E+01
 21
2.90401425E+02
  0
LINE
  8
0
 62
4
 10
-5.39999924E+01
 20
3.17767847E+02
 11
-5.39999924E+01
 21
3.05141579E+02
  0
LINE
  8
0
 62
4
 10
-7.04999924E+01
 20
2.94499918E+02
 11
-7.04999924E+01
 21
2.91645851E+02
  0
LINE
  8
0
 62
4
 10
-5.39999924E+01
 20
3.17767847E+02
 11
-3.89999924E+01
 21
3.17767847E+02
  0
LINE
  8
0
 62
4
 10
-5.39999924E+01
 20
3.09421333E+02
 11
-3.89999924E+01
 21
3.09421333E+02
  0
LINE
  8
0
 62
4
 10
-6.89999924E+01
 20
3.05141579E+02
 11
-3.89999924E+01
 21
3.05141579E+02
  0
LINE
  8
0
 62
4
 10
-6.89999924E+01
 20
2.95345697E+02
 11
-3.89999924E+01
 21
2.95345697E+02
  0
LINE
  8
0
 62
4
 10
-6.89999924E+01
 20
2.90401425E+02
 11
-5.79017600E+01
 21
2.90401425E+02
  0
POLYLINE
  8
0
 62
4
 66
1
  0
VERTEX
  8
0
 62
4
 10
-4.84999923E+01
 20
3.18607766E+02
  0
VERTEX
  8
0
 62
4
 10
-4.85080437E+01
 20
3.18663166E+02
  0
VERTEX
  8
0
 62
4
 10
-4.85321331E+01
 20
3.18718120E+02
  0
VERTEX
  8
0
 62
4
 10
-4.85720666E+01
 20
3.18772186E+02
  0
VERTEX
  8
0
 62
4
 10
-4.86275226E+01
 20
3.18824928E+02
  0
VERTEX
  8
0
 62
4
 10
-4.86980546E+01
 20
3.18875921E+02
  0
VERTEX
  8
0
 62
4
 10
-4.87830947E+01
 20
3.18924755E+02
  0
VERTEX
  8
0
 62
4
 10
-4.88819583E+01
 20
3.18971037E+02
  0
VERTEX
  8
0
 62
4
 10
-4.89938494E+01
 20
3.19014394E+02
  0
VERTEX
  8
0
 62
4
 10
-4.91178670E+01
 20
3.19054478E+02
  0
VERTEX
  8
0
 62
4
 10
-4.92530127E+01
 20
3.19090964E+02
  0
VERTEX
  8
0
 62
4
 10
-4.93981983E+01
 20
3.19123561E+02
  0
VERTEX
  8
0
 62
4
 10
-4.95522550E+01
 20
3.19152004E+02
  0
VERTEX
  8
0
 62
4
 10
-4.97139422E+01
 20
3.19176065E+02
  0
VERTEX
  8
0
 62
4
 10
-4.98819583E+01
 20
3.19195551E+02
  0
VERTEX
  8
0
 62
4
 10
-5.00549504E+01
 20
3.19210305E+02
  0
VERTEX
  8
0
 62
4
 10
-5.02315258E+01
 20
3.19220207E+02
  0
VERTEX
  8
0
 62
4
 10
-5.04102626E+01
 20
3.19225178E+02
  0
VERTEX
  8
0
 62
4
 10
-5.05897219E+01
 20
3.19225178E+02
  0
VERTEX
  8
0
 62
4
 10
-5.07684588E+01
 20
3.19220207E+02
  0
VERTEX
  8
0
 62
4
 10
-5.09450342E+01
 20
3.19210305E+02
  0
VERTEX
  8
0
 62
4
 10
-5.11180263E+01
 20
3.19195551E+02
  0
VERTEX
  8
0
 62
4
 10
-5.12860424E+01
 20
3.19176065E+02
  0
VERTEX
  8
0
 62
4
 10
-5.14477296E+01
 20
3.19152004E+02
  0
VERTEX
  8
0
 62
4
 10
-5.16017863E+01
 20
3.19123561E+02
  0
VERTEX
  8
0
 62
4
 10
-5.17469719E+01
 20
3.19090964E+02
  0
VERTEX
  8
0
 62
4
 10
-5.18821176E+01
 20
3.19054478E+02
  0
VERTEX
  8
0
 62
4
 10
-5.20061352E+01
 20
3.19014395E+02
  0
VERTEX
  8
0
 62
4
 10
-5.21180263E+01
 20
3.18971037E+02
  0
VERTEX
  8
0
 62
4
 10
-5.22168899E+01
 20
3.18924755E+02
  0
VERTEX
  8
0
 62
4
 10
-5.23019300E+01
 20
3.18875921E+02
  0
VERTEX
  8
0
 62
4
 10
-5.23724620E+01
 20
3.18824928E+02
  0
VERTEX
  8
0
 62
4
 10
-5.24279180E+01
 20
3.18772186E+02
  0
VERTEX
  8
0
 62
4
 10
-5.24678515E+01
 20
3.18718120E+02
  0
VERTEX
  8
0
 62
4
 10
-5.24919409E+01
 20
3.18663166E+02
  0
VERTEX
  8
0
 62
4
 10
-5.24999923E+01
 20
3.18607766E+02
  0
SEQEND
  8
0
  0
LINE
  8
0
 62
4
 10
-4.04999923E+01
 20
3.18607766E+02
 11
-4.04999923E+01
 21
3.17767847E+02
  0
LINE
  8
0
 62
6
 10
-4.09999923E+01
 20
3.19016557E+02
 11
-4.09999923E+01
 21
3.17767847E+02
  0
POLYLINE
  8
0
 62
4
 66
1
  0
VERTEX
  8
0
 62
4
 10
-4.04999923E+01
 20
3.18607766E+02
  0
VERTEX
  8
0
 62
4
 10
-4.05080437E+01
 20
3.18663166E+02
  0
VERTEX
  8
0
 62
4
 10
-4.05321331E+01
 20
3.18718120E+02
  0
VERTEX
  8
0
 62
4
 10
-4.05720666E+01
 20
3.18772186E+02
  0
VERTEX
  8
0
 62
4
 10
-4.06275226E+01
 20
3.18824928E+02
  0
VERTEX
  8
0
 62
4
 10
-4.06980546E+01
 20
3.18875921E+02
  0
VERTEX
  8
0
 62
4
 10
-4.07830947E+01
 20
3.18924755E+02
  0
VERTEX
  8
0
 62
4
 10
-4.08819583E+01
 20
3.18971037E+02
  0
VERTEX
  8
0
 62
4
 10
-4.09938494E+01
 20
3.19014394E+02
  0
VERTEX
  8
0
 62
4
 10
-4.11178670E+01
 20
3.19054478E+02
  0
VERTEX
  8
0
 62
4
 10
-4.12530127E+01
 20
3.19090964E+02
  0
VERTEX
  8
0
 62
4
 10
-4.13981983E+01
 20
3.19123561E+02
  0
VERTEX
  8
0
 62
4
 10
-4.15522550E+01
 20
3.19152004E+02
  0
VERTEX
  8
0
 62
4
 10
-4.17139422E+01
 20
3.19176065E+02
  0
VERTEX
  8
0
 62
4
 10
-4.18819583E+01
 20
3.19195551E+02
  0
VERTEX
  8
0
 62
4
 10
-4.20549504E+01
 20
3.19210305E+02
  0
VERTEX
  8
0
 62
4
 10
-4.22315258E+01
 20
3.19220207E+02
  0
VERTEX
  8
0
 62
4
 10
-4.24102626E+01
 20
3.19225178E+02
  0
VERTEX
  8
0
 62
4
 10
-4.25897219E+01
 20
3.19225178E+02
  0
VERTEX
  8
0
 62
4
 10
-4.27684588E+01
 20
3.19220207E+02
  0
VERTEX
  8
0
 62
4
 10
-4.29450342E+01
 20
3.19210305E+02
  0
VERTEX
  8
0
 62
4
 10
-4.31180263E+01
 20
3.19195551E+02
  0
VERTEX
  8
0
 62
4
 10
-4.32860424E+01
 20
3.19176065E+02
  0
VERTEX
  8
0
 62
4
 10
-4.34477296E+01
 20
3.19152004E+02
  0
VERTEX
  8
0
 62
4
 10
-4.36017863E+01
 20
3.19123561E+02
  0
VERTEX
  8
0
 62
4
 10
-4.37469719E+01
 20
3.19090964E+02
  0
VERTEX
  8
0
 62
4
 10
-4.38821176E+01
 20
3.19054478E+02
  0
VERTEX
  8
0
 62
4
 10
-4.40061352E+01
 20
3.19014395E+02
  0
VERTEX
  8
0
 62
4
 10
-4.41180263E+01
 20
3.18971037E+02
  0
VERTEX
  8
0
 62
4
 10
-4.42168899E+01
 20
3.18924755E+02
  0
VERTEX
  8
0
 62
4
 10
-4.43019300E+01
 20
3.18875921E+02
  0
VERTEX
  8
0
 62
4
 10
-4.43724620E+01
 20
3.18824928E+02
  0
VERTEX
  8
0
 62
4
 10
-4.44279180E+01
 20
3.18772186E+02
  0
VERTEX
  8
0
 62
4
 10
-4.44678515E+01
 20
3.18718120E+02
  0
VERTEX
  8
0
 62
4
 10
-4.44919409E+01
 20
3.18663166E+02
  0
VERTEX
  8
0
 62
4
 10
-4.44999923E+01
 20
3.18607766E+02
  0
SEQEND
  8
0
  0
LINE
  8
0
 62
4
 10
-4.44999923E+01
 20
3.18607766E+02
 11
-4.44999923E+01
 21
3.17767847E+02
  0
LINE
  8
0
 62
6
 10
-4.39999923E+01
 20
3.19016557E+02
 11
-4.39999923E+01
 21
3.17767847E+02
  0
LINE
  8
0
 62
4
 10
-6.89999924E+01
 20
2.95591426E+02
 11
-7.04999924E+01
 21
2.94499918E+02
  0
LINE
  8
0
 62
4
 10
-7.04999924E+01
 20
2.92345775E+02
 11
-6.89999924E+01
 21
2.91787200E+02
  0
LINE
  8
0
 62
4
 10
-6.89999924E+01
 20
2.90551132E+02
 11
-7.04999924E+01
 21
2.91645851E+02
  0
LINE
  8
0
 62
4
 10
-6.89999924E+01
 20
2.92131920E+02
 11
-5.81499924E+01
 21
2.92131920E+02
  0
LINE
  8
0
 62
4
 10
-4.34343943E+01
 20
2.90710442E+02
 11
-3.89999924E+01
 21
2.90710442E+02
  0
LINE
  8
0
 62
4
 10
-6.89999924E+01
 20
2.91787200E+02
 11
-5.81499924E+01
 21
2.91787200E+02
  0
LINE
  8
0
 62
4
 10
-6.89999924E+01
 20
2.90551132E+02
 11
-5.80446076E+01
 21
2.90551132E+02
  0
LINE
  8
0
 62
4
 10
-6.89999924E+01
 20
2.92131920E+02
 11
-6.89999924E+01
 21
2.90551132E+02
  0
LINE
  8
0
 62
4
 10
-6.89999924E+01
 20
2.90551132E+02
 11
-6.89999924E+01
 21
2.90401425E+02
  0
ARC
  8
0
 62
4
 10
-4.88999927E+01
 20
2.91456753E+02
 40
1.00000000E+00
 50
1.80000000E+02
 51
2.57172490E+02
  0
ARC
  8
0
 62
4
 10
-4.40999920E+01
 20
2.91456753E+02
 40
1.00000000E+00
 50
2.82827510E+02
 51
0.00000000E+00
  0
ARC
  8
0
 62
4
 10
-4.64999924E+01
 20
3.01996966E+02
 40
1.18100000E+01
 50
2.57172490E+02
 51
2.82827510E+02
  0
LINE
  8
0
 62
4
 10
-5.81499924E+01
 20
2.90838300E+02
 11
-5.81499924E+01
 21
2.92512160E+02
  0
LINE
  8
0
 62
4
 10
-4.98499924E+01
 20
2.90838300E+02
 11
-4.98499924E+01
 21
2.91144502E+02
  0
POLYLINE
  8
0
 62
4
 66
1
  0
VERTEX
  8
0
 62
4
 10
-5.02999924E+01
 20
2.93092956E+02
  0
VERTEX
  8
0
 62
4
 10
-5.04818074E+01
 20
2.93192340E+02
  0
VERTEX
  8
0
 62
4
 10
-5.06915046E+01
 20
2.93286333E+02
  0
VERTEX
  8
0
 62
4
 10
-5.09274223E+01
 20
2.93374191E+02
  0
VERTEX
  8
0
 62
4
 10
-5.11876906E+01
 20
2.93455217E+02
  0
VERTEX
  8
0
 62
4
 10
-5.14702469E+01
 20
2.93528769E+02
  0
VERTEX
  8
0
 62
4
 10
-5.17728520E+01
 20
2.93594264E+02
  0
VERTEX
  8
0
 62
4
 10
-5.20931075E+01
 20
2.93651184E+02
  0
VERTEX
  8
0
 62
4
 10
-5.24284755E+01
 20
2.93699076E+02
  0
VERTEX
  8
0
 62
4
 10
-5.27762980E+01
 20
2.93737562E+02
  0
VERTEX
  8
0
 62
4
 10
-5.31338186E+01
 20
2.93766337E+02
  0
VERTEX
  8
0
 62
4
 10
-5.34982037E+01
 20
2.93785172E+02
  0
VERTEX
  8
0
 62
4
 10
-5.38665656E+01
 20
2.93793918E+02
  0
VERTEX
  8
0
 62
4
 10
-5.42359849E+01
 20
2.93792505E+02
  0
VERTEX
  8
0
 62
4
 10
-5.46035340E+01
 20
2.93780946E+02
  0
VERTEX
  8
0
 62
4
 10
-5.49662998E+01
 20
2.93759332E+02
  0
VERTEX
  8
0
 62
4
 10
-5.53214075E+01
 20
2.93727833E+02
  0
VERTEX
  8
0
 62
4
 10
-5.56660428E+01
 20
2.93686700E+02
  0
VERTEX
  8
0
 62
4
 10
-5.59974742E+01
 20
2.93636259E+02
  0
VERTEX
  8
0
 62
4
 10
-5.63130753E+01
 20
2.93576908E+02
  0
VERTEX
  8
0
 62
4
 10
-5.66103447E+01
 20
2.93509120E+02
  0
VERTEX
  8
0
 62
4
 10
-5.68869267E+01
 20
2.93433430E+02
  0
VERTEX
  8
0
 62
4
 10
-5.71406291E+01
 20
2.93350440E+02
  0
VERTEX
  8
0
 62
4
 10
-5.73694414E+01
 20
2.93260805E+02
  0
VERTEX
  8
0
 62
4
 10
-5.75715502E+01
 20
2.93165238E+02
  0
VERTEX
  8
0
 62
4
 10
-5.77453537E+01
 20
2.93064494E+02
  0
VERTEX
  8
0
 62
4
 10
-5.78894745E+01
 20
2.92959374E+02
  0
VERTEX
  8
0
 62
4
 10
-5.80027705E+01
 20
2.92850709E+02
  0
VERTEX
  8
0
 62
4
 10
-5.80843437E+01
 20
2.92739361E+02
  0
VERTEX
  8
0
 62
4
 10
-5.81335476E+01
 20
2.92626212E+02
  0
VERTEX
  8
0
 62
4
 10
-5.81499924E+01
 20
2.92512160E+02
  0
SEQEND
  8
0
  0
POLYLINE
  8
0
 62
4
 66
1
  0
VERTEX
  8
0
 62
4
 10
-5.81499924E+01
 20
2.90838300E+02
  0
VERTEX
  8
0
 62
4
 10
-5.81342004E+01
 20
2.90726530E+02
  0
VERTEX
  8
0
 62
4
 10
-5.80869446E+01
 20
2.90615610E+02
  0
VERTEX
  8
0
 62
4
 10
-5.80085846E+01
 20
2.90506385E+02
  0
VERTEX
  8
0
 62
4
 10
-5.78997168E+01
 20
2.90399686E+02
  0
VERTEX
  8
0
 62
4
 10
-5.77611697E+01
 20
2.90296326E+02
  0
VERTEX
  8
0
 62
4
 10
-5.75939978E+01
 20
2.90197090E+02
  0
VERTEX
  8
0
 62
4
 10
-5.73994734E+01
 20
2.90102734E+02
  0
VERTEX
  8
0
 62
4
 10
-5.71790768E+01
 20
2.90013976E+02
  0
VERTEX
  8
0
 62
4
 10
-5.69344856E+01
 20
2.89931492E+02
  0
VERTEX
  8
0
 62
4
 10
-5.66675610E+01
 20
2.89855909E+02
  0
VERTEX
  8
0
 62
4
 10
-5.63803346E+01
 20
2.89787803E+02
  0
VERTEX
  8
0
 62
4
 10
-5.60749924E+01
 20
2.89727691E+02
  0
VERTEX
  8
0
 62
4
 10
-5.57538582E+01
 20
2.89676032E+02
  0
VERTEX
  8
0
 62
4
 10
-5.54193760E+01
 20
2.89633219E+02
  0
VERTEX
  8
0
 62
4
 10
-5.50740914E+01
 20
2.89599577E+02
  0
VERTEX
  8
0
 62
4
 10
-5.47206323E+01
 20
2.89575362E+02
  0
VERTEX
  8
0
 62
4
 10
-5.43616887E+01
 20
2.89560759E+02
  0
VERTEX
  8
0
 62
4
 10
-5.39999924E+01
 20
2.89555880E+02
  0
VERTEX
  8
0
 62
4
 10
-5.36382961E+01
 20
2.89560759E+02
  0
VERTEX
  8
0
 62
4
 10
-5.32793525E+01
 20
2.89575362E+02
  0
VERTEX
  8
0
 62
4
 10
-5.29258934E+01
 20
2.89599577E+02
  0
VERTEX
  8
0
 62
4
 10
-5.25806088E+01
 20
2.89633219E+02
  0
VERTEX
  8
0
 62
4
 10
-5.22461266E+01
 20
2.89676032E+02
  0
VERTEX
  8
0
 62
4
 10
-5.19249924E+01
 20
2.89727691E+02
  0
VERTEX
  8
0
 62
4
 10
-5.16196502E+01
 20
2.89787803E+02
  0
VERTEX
  8
0
 62
4
 10
-5.13324238E+01
 20
2.89855909E+02
  0
VERTEX
  8
0
 62
4
 10
-5.10654993E+01
 20
2.89931492E+02
  0
VERTEX
  8
0
 62
4
 10
-5.08209080E+01
 20
2.90013976E+02
  0
VERTEX
  8
0
 62
4
 10
-5.06005114E+01
 20
2.90102734E+02
  0
VERTEX
  8
0
 62
4
 10
-5.04059870E+01
 20
2.90197090E+02
  0
VERTEX
  8
0
 62
4
 10
-5.02388151E+01
 20
2.90296326E+02
  0
VERTEX
  8
0
 62
4
 10
-5.01002680E+01
 20
2.90399686E+02
  0
VERTEX
  8
0
 62
4
 10
-4.99914002E+01
 20
2.90506385E+02
  0
VERTEX
  8
0
 62
4
 10
-4.99130402E+01
 20
2.90615610E+02
  0
VERTEX
  8
0
 62
4
 10
-4.98657844E+01
 20
2.90726530E+02
  0
VERTEX
  8
0
 62
4
 10
-4.98499924E+01
 20
2.90838300E+02
  0
VERTEX
  8
0
 62
4
 10
-4.98657844E+01
 20
2.90950070E+02
  0
VERTEX
  8
0
 62
4
 10
-4.99130402E+01
 20
2.91060990E+02
  0
VERTEX
  8
0
 62
4
 10
-4.99914002E+01
 20
2.91170215E+02
  0
VERTEX
  8
0
 62
4
 10
-5.01002680E+01
 20
2.91276914E+02
  0
VERTEX
  8
0
 62
4
 10
-5.02388151E+01
 20
2.91380274E+02
  0
VERTEX
  8
0
 62
4
 10
-5.04059870E+01
 20
2.91479510E+02
  0
VERTEX
  8
0
 62
4
 10
-5.06005114E+01
 20
2.91573866E+02
  0
VERTEX
  8
0
 62
4
 10
-5.08209080E+01
 20
2.91662624E+02
  0
VERTEX
  8
0
 62
4
 10
-5.10654993E+01
 20
2.91745108E+02
  0
VERTEX
  8
0
 62
4
 10
-5.13324238E+01
 20
2.91820691E+02
  0
VERTEX
  8
0
 62
4
 10
-5.16196502E+01
 20
2.91888797E+02
  0
VERTEX
  8
0
 62
4
 10
-5.19249924E+01
 20
2.91948909E+02
  0
VERTEX
  8
0
 62
4
 10
-5.22461266E+01
 20
2.92000568E+02
  0
VERTEX
  8
0
 62
4
 10
-5.25806088E+01
 20
2.92043381E+02
  0
VERTEX
  8
0
 62
4
 10
-5.29258934E+01
 20
2.92077023E+02
  0
VERTEX
  8
0
 62
4
 10
-5.32793525E+01
 20
2.92101238E+02
  0
VERTEX
  8
0
 62
4
 10
-5.36382961E+01
 20
2.92115841E+02
  0
VERTEX
  8
0
 62
4
 10
-5.39999924E+01
 20
2.92120721E+02
  0
VERTEX
  8
0
 62
4
 10
-5.43616887E+01
 20
2.92115841E+02
  0
VERTEX
  8
0
 62
4
 10
-5.47206323E+01
 20
2.92101238E+02
  0
VERTEX
  8
0
 62
4
 10
-5.50740914E+01
 20
2.92077023E+02
  0
VERTEX
  8
0
 62
4
 10
-5.54193760E+01
 20
2.92043381E+02
  0
VERTEX
  8
0
 62
4
 10
-5.57538582E+01
 20
2.92000568E+02
  0
VERTEX
  8
0
 62
4
 10
-5.60749924E+01
 20
2.91948909E+02
  0
VERTEX
  8
0
 62
4
 10
-5.63803346E+01
 20
2.91888797E+02
  0
VERTEX
  8
0
 62
4
 10
-5.66675610E+01
 20
2.91820691E+02
  0
VERTEX
  8
0
 62
4
 10
-5.69344856E+01
 20
2.91745108E+02
  0
VERTEX
  8
0
 62
4
 10
-5.71790769E+01
 20
2.91662624E+02
  0
VERTEX
  8
0
 62
4
 10
-5.73994734E+01
 20
2.91573866E+02
  0
VERTEX
  8
0
 62
4
 10
-5.75939978E+01
 20
2.91479510E+02
  0
VERTEX
  8
0
 62
4
 10
-5.77611697E+01
 20
2.91380274E+02
  0
VERTEX
  8
0
 62
4
 10
-5.78997168E+01
 20
2.91276914E+02
  0
VERTEX
  8
0
 62
4
 10
-5.80085846E+01
 20
2.91170215E+02
  0
VERTEX
  8
0
 62
4
 10
-5.80869446E+01
 20
2.91060990E+02
  0
VERTEX
  8
0
 62
4
 10
-5.81342004E+01
 20
2.90950070E+02
  0
VERTEX
  8
0
 62
4
 10
-5.81499924E+01
 20
2.90838300E+02
  0
SEQEND
  8
0
  0
LINE
  8
0
 62
4
 10
-5.79999924E+01
 20
2.92853829E+02
 11
-5.79999924E+01
 21
2.92873561E+02
  0
POLYLINE
  8
0
 62
4
 66
1
  0
VERTEX
  8
0
 62
4
 10
-5.02999924E+01
 20
2.93343226E+02
  0
VERTEX
  8
0
 62
4
 10
-5.04493004E+01
 20
2.93442739E+02
  0
VERTEX
  8
0
 62
4
 10
-5.06265691E+01
 20
2.93537769E+02
  0
VERTEX
  8
0
 62
4
 10
-5.08304025E+01
 20
2.93627569E+02
  0
VERTEX
  8
0
 62
4
 10
-5.10591956E+01
 20
2.93711431E+02
  0
VERTEX
  8
0
 62
4
 10
-5.13111466E+01
 20
2.93788695E+02
  0
VERTEX
  8
0
 62
4
 10
-5.15842716E+01
 20
2.93858753E+02
  0
VERTEX
  8
0
 62
4
 10
-5.18764197E+01
 20
2.93921053E+02
  0
VERTEX
  8
0
 62
4
 10
-5.21852903E+01
 20
2.93975104E+02
  0
VERTEX
  8
0
 62
4
 10
-5.25084512E+01
 20
2.94020481E+02
  0
VERTEX
  8
0
 62
4
 10
-5.28433576E+01
 20
2.94056826E+02
  0
VERTEX
  8
0
 62
4
 10
-5.31873722E+01
 20
2.94083853E+02
  0
VERTEX
  8
0
 62
4
 10
-5.35377859E+01
 20
2.94101349E+02
  0
VERTEX
  8
0
 62
4
 10
-5.38918393E+01
 20
2.94109177E+02
  0
VERTEX
  8
0
 62
4
 10
-5.42467445E+01
 20
2.94107275E+02
  0
VERTEX
  8
0
 62
4
 10
-5.45997065E+01
 20
2.94095658E+02
  0
VERTEX
  8
0
 62
4
 10
-5.49479460E+01
 20
2.94074416E+02
  0
VERTEX
  8
0
 62
4
 10
-5.52887205E+01
 20
2.94043719E+02
  0
VERTEX
  8
0
 62
4
 10
-5.56193467E+01
 20
2.94003807E+02
  0
VERTEX
  8
0
 62
4
 10
-5.59372210E+01
 20
2.93954994E+02
  0
VERTEX
  8
0
 62
4
 10
-5.62398401E+01
 20
2.93897666E+02
  0
VERTEX
  8
0
 62
4
 10
-5.65248210E+01
 20
2.93832273E+02
  0
VERTEX
  8
0
 62
4
 10
-5.67899196E+01
 20
2.93759330E+02
  0
VERTEX
  8
0
 62
4
 10
-5.70330483E+01
 20
2.93679413E+02
  0
VERTEX
  8
0
 62
4
 10
-5.72522926E+01
 20
2.93593149E+02
  0
VERTEX
  8
0
 62
4
 10
-5.74459258E+01
 20
2.93501219E+02
  0
VERTEX
  8
0
 62
4
 10
-5.76124233E+01
 20
2.93404346E+02
  0
VERTEX
  8
0
 62
4
 10
-5.77504739E+01
 20
2.93303293E+02
  0
VERTEX
  8
0
 62
4
 10
-5.78589906E+01
 20
2.93198857E+02
  0
VERTEX
  8
0
 62
4
 10
-5.79371186E+01
 20
2.93091858E+02
  0
VERTEX
  8
0
 62
4
 10
-5.79842430E+01
 20
2.92983141E+02
  0
VERTEX
  8
0
 62
4
 10
-5.79999924E+01
 20
2.92873561E+02
  0
SEQEND
  8
0
  0
ARC
  8
0
 62
4
 10
-5.81876144E+01
 20
3.03826798E+02
 40
1.43299558E+01
 50
2.79721944E+02
 51
2.94556489E+02
  0
ARC
  8
0
 62
4
 10
-4.98123689E+01
 20
3.03826803E+02
 40
1.43299613E+01
 50
2.45443514E+02
 51
2.60278053E+02
  0
LINE
  8
0
 62
4
 10
-5.02999924E+01
 20
2.93004064E+02
 11
-5.02999924E+01
 21
2.93955120E+02
  0
POLYLINE
  8
0
 62
4
 66
1
  0
VERTEX
  8
0
 62
4
 10
-4.26999924E+01
 20
2.93955120E+02
  0
VERTEX
  8
0
 62
4
 10
-4.27152901E+01
 20
2.94060380E+02
  0
VERTEX
  8
0
 62
4
 10
-4.27610600E+01
 20
2.94164793E+02
  0
VERTEX
  8
0
 62
4
 10
-4.28369335E+01
 20
2.94267518E+02
  0
VERTEX
  8
0
 62
4
 10
-4.29422999E+01
 20
2.94367727E+02
  0
VERTEX
  8
0
 62
4
 10
-4.30763107E+01
 20
2.94464614E+02
  0
VERTEX
  8
0
 62
4
 10
-4.32378870E+01
 20
2.94557399E+02
  0
VERTEX
  8
0
 62
4
 10
-4.34257278E+01
 20
2.94645335E+02
  0
VERTEX
  8
0
 62
4
 10
-4.36383208E+01
 20
2.94727714E+02
  0
VERTEX
  8
0
 62
4
 10
-4.38739543E+01
 20
2.94803872E+02
  0
VERTEX
  8
0
 62
4
 10
-4.41307311E+01
 20
2.94873197E+02
  0
VERTEX
  8
0
 62
4
 10
-4.44065839E+01
 20
2.94935130E+02
  0
VERTEX
  8
0
 62
4
 10
-4.46992915E+01
 20
2.94989172E+02
  0
VERTEX
  8
0
 62
4
 10
-4.50064973E+01
 20
2.95034889E+02
  0
VERTEX
  8
0
 62
4
 10
-4.53257278E+01
 20
2.95071912E+02
  0
VERTEX
  8
0
 62
4
 10
-4.56544128E+01
 20
2.95099943E+02
  0
VERTEX
  8
0
 62
4
 10
-4.59899060E+01
 20
2.95118757E+02
  0
VERTEX
  8
0
 62
4
 10
-4.63295060E+01
 20
2.95128202E+02
  0
VERTEX
  8
0
 62
4
 10
-4.66704787E+01
 20
2.95128202E+02
  0
VERTEX
  8
0
 62
4
 10
-4.70100788E+01
 20
2.95118757E+02
  0
VERTEX
  8
0
 62
4
 10
-4.73455719E+01
 20
2.95099943E+02
  0
VERTEX
  8
0
 62
4
 10
-4.76742570E+01
 20
2.95071912E+02
  0
VERTEX
  8
0
 62
4
 10
-4.79934875E+01
 20
2.95034889E+02
  0
VERTEX
  8
0
 62
4
 10
-4.83006933E+01
 20
2.94989172E+02
  0
VERTEX
  8
0
 62
4
 10
-4.85934009E+01
 20
2.94935130E+02
  0
VERTEX
  8
0
 62
4
 10
-4.88692536E+01
 20
2.94873197E+02
  0
VERTEX
  8
0
 62
4
 10
-4.91260304E+01
 20
2.94803872E+02
  0
VERTEX
  8
0
 62
4
 10
-4.93616640E+01
 20
2.94727714E+02
  0
VERTEX
  8
0
 62
4
 10
-4.95742570E+01
 20
2.94645335E+02
  0
VERTEX
  8
0
 62
4
 10
-4.97620978E+01
 20
2.94557399E+02
  0
VERTEX
  8
0
 62
4
 10
-4.99236741E+01
 20
2.94464614E+02
  0
VERTEX
  8
0
 62
4
 10
-5.00576849E+01
 20
2.94367727E+02
  0
VERTEX
  8
0
 62
4
 10
-5.01630513E+01
 20
2.94267518E+02
  0
VERTEX
  8
0
 62
4
 10
-5.02389248E+01
 20
2.94164793E+02
  0
VERTEX
  8
0
 62
4
 10
-5.02846947E+01
 20
2.94060380E+02
  0
VERTEX
  8
0
 62
4
 10
-5.02999924E+01
 20
2.93955120E+02
  0
SEQEND
  8
0
  0
POLYLINE
  8
0
 62
4
 66
1
  0
VERTEX
  8
0
 62
4
 10
-4.30999924E+01
 20
2.92479645E+02
  0
VERTEX
  8
0
 62
4
 10
-4.29634107E+01
 20
2.92574476E+02
  0
VERTEX
  8
0
 62
4
 10
-4.28544629E+01
 20
2.92672664E+02
  0
VERTEX
  8
0
 62
4
 10
-4.27740001E+01
 20
2.92773441E+02
  0
VERTEX
  8
0
 62
4
 10
-4.27226511E+01
 20
2.92876020E+02
  0
VERTEX
  8
0
 62
4
 10
-4.27008171E+01
 20
2.92979600E+02
  0
VERTEX
  8
0
 62
4
 10
-4.27086688E+01
 20
2.93083371E+02
  0
VERTEX
  8
0
 62
4
 10
-4.27461448E+01
 20
2.93186522E+02
  0
VERTEX
  8
0
 62
4
 10
-4.28129522E+01
 20
2.93288248E+02
  0
VERTEX
  8
0
 62
4
 10
-4.29085690E+01
 20
2.93387753E+02
  0
VERTEX
  8
0
 62
4
 10
-4.30322482E+01
 20
2.93484260E+02
  0
VERTEX
  8
0
 62
4
 10
-4.31830233E+01
 20
2.93577015E+02
  0
VERTEX
  8
0
 62
4
 10
-4.33597162E+01
 20
2.93665293E+02
  0
VERTEX
  8
0
 62
4
 10
-4.35609462E+01
 20
2.93748404E+02
  0
VERTEX
  8
0
 62
4
 10
-4.37851412E+01
 20
2.93825700E+02
  0
VERTEX
  8
0
 62
4
 10
-4.40305491E+01
 20
2.93896575E+02
  0
VERTEX
  8
0
 62
4
 10
-4.42952526E+01
 20
2.93960476E+02
  0
VERTEX
  8
0
 62
4
 10
-4.45771832E+01
 20
2.94016905E+02
  0
VERTEX
  8
0
 62
4
 10
-4.48741381E+01
 20
2.94065419E+02
  0
VERTEX
  8
0
 62
4
 10
-4.51837970E+01
 20
2.94105640E+02
  0
VERTEX
  8
0
 62
4
 10
-4.55037402E+01
 20
2.94137254E+02
  0
VERTEX
  8
0
 62
4
 10
-4.58314678E+01
 20
2.94160014E+02
  0
VERTEX
  8
0
 62
4
 10
-4.61644191E+01
 20
2.94173741E+02
  0
VERTEX
  8
0
 62
4
 10
-4.64999924E+01
 20
2.94178329E+02
  0
VERTEX
  8
0
 62
4
 10
-4.68355658E+01
 20
2.94173741E+02
  0
VERTEX
  8
0
 62
4
 10
-4.71685170E+01
 20
2.94160014E+02
  0
VERTEX
  8
0
 62
4
 10
-4.74962447E+01
 20
2.94137254E+02
  0
VERTEX
  8
0
 62
4
 10
-4.78161879E+01
 20
2.94105640E+02
  0
VERTEX
  8
0
 62
4
 10
-4.81258467E+01
 20
2.94065419E+02
  0
VERTEX
  8
0
 62
4
 10
-4.84228016E+01
 20
2.94016905E+02
  0
VERTEX
  8
0
 62
4
 10
-4.87047322E+01
 20
2.93960476E+02
  0
VERTEX
  8
0
 62
4
 10
-4.89694357E+01
 20
2.93896575E+02
  0
VERTEX
  8
0
 62
4
 10
-4.92148437E+01
 20
2.93825700E+02
  0
VERTEX
  8
0
 62
4
 10
-4.94390386E+01
 20
2.93748404E+02
  0
VERTEX
  8
0
 62
4
 10
-4.96402687E+01
 20
2.93665293E+02
  0
VERTEX
  8
0
 62
4
 10
-4.98169616E+01
 20
2.93577015E+02
  0
VERTEX
  8
0
 62
4
 10
-4.99677366E+01
 20
2.93484260E+02
  0
VERTEX
  8
0
 62
4
 10
-5.00914158E+01
 20
2.93387753E+02
  0
VERTEX
  8
0
 62
4
 10
-5.01870326E+01
 20
2.93288248E+02
  0
VERTEX
  8
0
 62
4
 10
-5.02538400E+01
 20
2.93186522E+02
  0
VERTEX
  8
0
 62
4
 10
-5.02913160E+01
 20
2.93083371E+02
  0
VERTEX
  8
0
 62
4
 10
-5.02991677E+01
 20
2.92979600E+02
  0
VERTEX
  8
0
 62
4
 10
-5.02773337E+01
 20
2.92876020E+02
  0
VERTEX
  8
0
 62
4
 10
-5.02259847E+01
 20
2.92773441E+02
  0
VERTEX
  8
0
 62
4
 10
-5.01455219E+01
 20
2.92672664E+02
  0
VERTEX
  8
0
 62
4
 10
-5.00365741E+01
 20
2.92574476E+02
  0
VERTEX
  8
0
 62
4
 10
-4.98999924E+01
 20
2.92479645E+02
  0
SEQEND
  8
0
  0
LINE
  8
0
 62
4
 10
-4.26999924E+01
 20
2.93004064E+02
 11
-4.26999924E+01
 21
2.93955120E+02
  0
LINE
  8
0
 62
4
 10
-4.98999924E+01
 20
2.91456753E+02
 11
-4.98999924E+01
 21
2.93004064E+02
  0
POLYLINE
  8
0
 62
4
 66
1
  0
VERTEX
  8
0
 62
4
 10
-4.30999924E+01
 20
2.93004064E+02
  0
VERTEX
  8
0
 62
4
 10
-4.31136798E+01
 20
2.93098244E+02
  0
VERTEX
  8
0
 62
4
 10
-4.31546318E+01
 20
2.93191666E+02
  0
VERTEX
  8
0
 62
4
 10
-4.32225187E+01
 20
2.93283578E+02
  0
VERTEX
  8
0
 62
4
 10
-4.33167938E+01
 20
2.93373239E+02
  0
VERTEX
  8
0
 62
4
 10
-4.34366982E+01
 20
2.93459927E+02
  0
VERTEX
  8
0
 62
4
 10
-4.35812665E+01
 20
2.93542946E+02
  0
VERTEX
  8
0
 62
4
 10
-4.37493346E+01
 20
2.93621625E+02
  0
VERTEX
  8
0
 62
4
 10
-4.39395494E+01
 20
2.93695332E+02
  0
VERTEX
  8
0
 62
4
 10
-4.41503794E+01
 20
2.93763474E+02
  0
VERTEX
  8
0
 62
4
 10
-4.43801271E+01
 20
2.93825501E+02
  0
VERTEX
  8
0
 62
4
 10
-4.46269426E+01
 20
2.93880915E+02
  0
VERTEX
  8
0
 62
4
 10
-4.48888389E+01
 20
2.93929269E+02
  0
VERTEX
  8
0
 62
4
 10
-4.51637073E+01
 20
2.93970173E+02
  0
VERTEX
  8
0
 62
4
 10
-4.54493346E+01
 20
2.94003299E+02
  0
VERTEX
  8
0
 62
4
 10
-4.57434212E+01
 20
2.94028380E+02
  0
VERTEX
  8
0
 62
4
 10
-4.60435993E+01
 20
2.94045213E+02
  0
VERTEX
  8
0
 62
4
 10
-4.63474520E+01
 20
2.94053664E+02
  0
VERTEX
  8
0
 62
4
 10
-4.66525328E+01
 20
2.94053664E+02
  0
VERTEX
  8
0
 62
4
 10
-4.69563855E+01
 20
2.94045213E+02
  0
VERTEX
  8
0
 62
4
 10
-4.72565636E+01
 20
2.94028380E+02
  0
VERTEX
  8
0
 62
4
 10
-4.75506502E+01
 20
2.94003299E+02
  0
VERTEX
  8
0
 62
4
 10
-4.78362775E+01
 20
2.93970173E+02
  0
VERTEX
  8
0
 62
4
 10
-4.81111458E+01
 20
2.93929269E+02
  0
VERTEX
  8
0
 62
4
 10
-4.83730421E+01
 20
2.93880915E+02
  0
VERTEX
  8
0
 62
4
 10
-4.86198577E+01
 20
2.93825501E+02
  0
VERTEX
  8
0
 62
4
 10
-4.88496054E+01
 20
2.93763474E+02
  0
VERTEX
  8
0
 62
4
 10
-4.90604354E+01
 20
2.93695332E+02
  0
VERTEX
  8
0
 62
4
 10
-4.92506502E+01
 20
2.93621625E+02
  0
VERTEX
  8
0
 62
4
 10
-4.94187183E+01
 20
2.93542946E+02
  0
VERTEX
  8
0
 62
4
 10
-4.95632865E+01
 20
2.93459927E+02
  0
VERTEX
  8
0
 62
4
 10
-4.96831910E+01
 20
2.93373239E+02
  0
VERTEX
  8
0
 62
4
 10
-4.97774661E+01
 20
2.93283578E+02
  0
VERTEX
  8
0
 62
4
 10
-4.98453530E+01
 20
2.93191666E+02
  0
VERTEX
  8
0
 62
4
 10
-4.98863050E+01
 20
2.93098244E+02
  0
VERTEX
  8
0
 62
4
 10
-4.98999924E+01
 20
2.93004064E+02
  0
SEQEND
  8
0
  0
LINE
  8
0
 62
4
 10
-4.30999924E+01
 20
2.91456753E+02
 11
-4.30999924E+01
 21
2.93004064E+02
  0
POLYLINE
  8
0
 62
4
 66
1
  0
VERTEX
  8
0
 62
4
 10
-4.30999924E+01
 20
2.91456759E+02
  0
VERTEX
  8
0
 62
4
 10
-4.31136816E+01
 20
2.91550939E+02
  0
VERTEX
  8
0
 62
4
 10
-4.31546354E+01
 20
2.91644361E+02
  0
VERTEX
  8
0
 62
4
 10
-4.32225241E+01
 20
2.91736273E+02
  0
VERTEX
  8
0
 62
4
 10
-4.33168010E+01
 20
2.91825934E+02
  0
VERTEX
  8
0
 62
4
 10
-4.34367071E+01
 20
2.91912622E+02
  0
VERTEX
  8
0
 62
4
 10
-4.35812770E+01
 20
2.91995640E+02
  0
VERTEX
  8
0
 62
4
 10
-4.37493466E+01
 20
2.92074319E+02
  0
VERTEX
  8
0
 62
4
 10
-4.39395628E+01
 20
2.92148026E+02
  0
VERTEX
  8
0
 62
4
 10
-4.41503941E+01
 20
2.92216167E+02
  0
VERTEX
  8
0
 62
4
 10
-4.43801430E+01
 20
2.92278194E+02
  0
VERTEX
  8
0
 62
4
 10
-4.46269597E+01
 20
2.92333607E+02
  0
VERTEX
  8
0
 62
4
 10
-4.48888569E+01
 20
2.92381961E+02
  0
VERTEX
  8
0
 62
4
 10
-4.51637260E+01
 20
2.92422864E+02
  0
VERTEX
  8
0
 62
4
 10
-4.54493540E+01
 20
2.92455990E+02
  0
VERTEX
  8
0
 62
4
 10
-4.57434411E+01
 20
2.92481070E+02
  0
VERTEX
  8
0
 62
4
 10
-4.60436195E+01
 20
2.92497903E+02
  0
VERTEX
  8
0
 62
4
 10
-4.63474723E+01
 20
2.92506353E+02
  0
VERTEX
  8
0
 62
4
 10
-4.66525532E+01
 20
2.92506353E+02
  0
VERTEX
  8
0
 62
4
 10
-4.69564057E+01
 20
2.92497901E+02
  0
VERTEX
  8
0
 62
4
 10
-4.72565834E+01
 20
2.92481067E+02
  0
VERTEX
  8
0
 62
4
 10
-4.75506696E+01
 20
2.92455986E+02
  0
VERTEX
  8
0
 62
4
 10
-4.78362962E+01
 20
2.92422860E+02
  0
VERTEX
  8
0
 62
4
 10
-4.81111638E+01
 20
2.92381955E+02
  0
VERTEX
  8
0
 62
4
 10
-4.83730591E+01
 20
2.92333600E+02
  0
VERTEX
  8
0
 62
4
 10
-4.86198737E+01
 20
2.92278186E+02
  0
VERTEX
  8
0
 62
4
 10
-4.88496201E+01
 20
2.92216159E+02
  0
VERTEX
  8
0
 62
4
 10
-4.90604488E+01
 20
2.92148017E+02
  0
VERTEX
  8
0
 62
4
 10
-4.92506622E+01
 20
2.92074309E+02
  0
VERTEX
  8
0
 62
4
 10
-4.94187287E+01
 20
2.91995629E+02
  0
VERTEX
  8
0
 62
4
 10
-4.95632954E+01
 20
2.91912611E+02
  0
VERTEX
  8
0
 62
4
 10
-4.96831981E+01
 20
2.91825922E+02
  0
VERTEX
  8
0
 62
4
 10
-4.97774715E+01
 20
2.91736261E+02
  0
VERTEX
  8
0
 62
4
 10
-4.98453566E+01
 20
2.91644349E+02
  0
VERTEX
  8
0
 62
4
 10
-4.98863068E+01
 20
2.91550927E+02
  0
VERTEX
  8
0
 62
4
 10
-4.98999924E+01
 20
2.91456747E+02
  0
SEQEND
  8
0
  0
ARC
  8
0
 62
4
 10
-5.06604923E+01
 20
3.04311169E+02
 40
1.42127873E+01
 50
2.79930719E+02
 51
2.94652135E+02
  0
ARC
  8
0
 62
4
 10
-4.23394922E+01
 20
3.04311170E+02
 40
1.42127883E+01
 50
2.45347865E+02
 51
2.60069281E+02
  0
LINE
  8
0
  6
CENTER
 62
6
 10
-6.39999924E+01
 20
2.93955120E+02
 11
-5.89999924E+01
 21
2.93955120E+02
  0
LINE
  8
0
  6
CENTER
 62
6
 10
-5.39999924E+01
 20
2.95373561E+02
 11
-5.39999924E+01
 21
2.90373561E+02
  0
LINE
  8
0
  6
CENTER
 62
6
 10
-5.64999924E+01
 20
2.92873561E+02
 11
-5.14999924E+01
 21
2.92873561E+02
  0
LINE
  8
0
  6
CENTER
 62
6
 10
-4.64999924E+01
 20
2.96455120E+02
 11
-4.64999924E+01
 21
2.91455120E+02
  0
LINE
  8
0
  6
CENTER
 62
6
 10
-4.89999924E+01
 20
2.93955120E+02
 11
-4.39999924E+01
 21
2.93955120E+02
  0
LINE
  8
0
 62
4
 10
-5.00982248E+01
 20
2.90401425E+02
 11
-4.87404226E+01
 21
2.90401425E+02
  0
LINE
  8
0
 62
4
 10
-4.99553771E+01
 20
2.90551132E+02
 11
-4.93240822E+01
 21
2.90551132E+02
  0
LINE
  8
0
 62
4
 10
-4.30999924E+01
 20
2.92131920E+02
 11
-3.89999924E+01
 21
2.92131920E+02
  0
LINE
  8
0
 62
4
 10
-4.42595621E+01
 20
2.90401425E+02
 11
-3.89999924E+01
 21
2.90401425E+02
  0
LINE
  8
0
 62
7
 10
-5.39999924E+01
 20
3.12100006E+02
 11
-7.99999924E+01
 21
3.12100006E+02
  0
LINE
  8
0
 62
7
 10
-5.39999924E+01
 20
3.14499969E+02
 11
-7.99999924E+01
 21
3.14499969E+02
  0
LINE
  8
0
 62
7
 10
-6.89999924E+01
 20
3.04899994E+02
 11
-7.99999924E+01
 21
3.04899994E+02
  0
LINE
  8
0
 62
7
 10
-1.00000076E+01
 20
2.56100021E+02
 11
-7.99999924E+01
 21
2.56100021E+02
  0
LINE
  8
0
 62
7
 10
-1.00000076E+01
 20
2.48900009E+02
 11
-7.99999924E+01
 21
2.48900009E+02
  0
LINE
  8
0
 62
7
 10
-1.00000076E+01
 20
2.46500031E+02
 11
-7.99999924E+01
 21
2.46500031E+02
  0
LINE
  8
0
 62
4
 10
-9.10001271E+01
 20
-2.48358802E+02
 11
-8.60001271E+01
 21
-2.48358794E+02
  0
LINE
  8
0
 62
4
 10
-7.30000310E+01
 20
-2.93696975E+02
 11
-4.00000310E+01
 21
-2.93696915E+02
  0
LINE
  8
0
 62
4
 10
-4.00000310E+01
 20
-2.95500015E+02
 11
-4.00000310E+01
 21
-2.92231799E+02
  0
LINE
  8
0
 62
4
 10
-7.30000310E+01
 20
-2.95500015E+02
 11
-7.30000310E+01
 21
-2.92231859E+02
  0
LINE
  8
0
 62
4
 10
-3.70000408E+01
 20
-2.87482465E+02
 11
-4.00000310E+01
 21
-2.92231799E+02
  0
LINE
  8
0
 62
4
 10
-7.60000408E+01
 20
-2.87482535E+02
 11
-7.30000310E+01
 21
-2.92231859E+02
  0
POLYLINE
  8
0
 62
4
 66
1
  0
VERTEX
  8
0
 62
4
 10
-6.80000499E+01
 20
-2.80228301E+02
  0
VERTEX
  8
0
 62
4
 10
-6.79848337E+01
 20
-2.80557931E+02
  0
VERTEX
  8
0
 62
4
 10
-6.79392909E+01
 20
-2.80885053E+02
  0
VERTEX
  8
0
 62
4
 10
-6.78637680E+01
 20
-2.81207176E+02
  0
VERTEX
  8
0
 62
4
 10
-6.77588400E+01
 20
-2.81521851E+02
  0
VERTEX
  8
0
 62
4
 10
-6.76253053E+01
 20
-2.81826681E+02
  0
VERTEX
  8
0
 62
4
 10
-6.74641802E+01
 20
-2.82119347E+02
  0
VERTEX
  8
0
 62
4
 10
-6.72766909E+01
 20
-2.82397621E+02
  0
VERTEX
  8
0
 62
4
 10
-6.70642645E+01
 20
-2.82659386E+02
  0
VERTEX
  8
0
 62
4
 10
-6.68285175E+01
 20
-2.82902650E+02
  0
VERTEX
  8
0
 62
4
 10
-6.65712442E+01
 20
-2.83125560E+02
  0
VERTEX
  8
0
 62
4
 10
-6.62944026E+01
 20
-2.83326421E+02
  0
VERTEX
  8
0
 62
4
 10
-6.60000995E+01
 20
-2.83503704E+02
  0
VERTEX
  8
0
 62
4
 10
-6.56905749E+01
 20
-2.83656060E+02
  0
VERTEX
  8
0
 62
4
 10
-6.53681843E+01
 20
-2.83782329E+02
  0
VERTEX
  8
0
 62
4
 10
-6.50353814E+01
 20
-2.83881550E+02
  0
VERTEX
  8
0
 62
4
 10
-6.46946990E+01
 20
-2.83952968E+02
  0
VERTEX
  8
0
 62
4
 10
-6.43487299E+01
 20
-2.83996039E+02
  0
VERTEX
  8
0
 62
4
 10
-6.40001072E+01
 20
-2.84010436E+02
  0
VERTEX
  8
0
 62
4
 10
-6.36514840E+01
 20
-2.83996050E+02
  0
VERTEX
  8
0
 62
4
 10
-6.33055136E+01
 20
-2.83952989E+02
  0
VERTEX
  8
0
 62
4
 10
-6.29648290E+01
 20
-2.83881581E+02
  0
VERTEX
  8
0
 62
4
 10
-6.26320231E+01
 20
-2.83782370E+02
  0
VERTEX
  8
0
 62
4
 10
-6.23096288E+01
 20
-2.83656111E+02
  0
VERTEX
  8
0
 62
4
 10
-6.20000995E+01
 20
-2.83503765E+02
  0
VERTEX
  8
0
 62
4
 10
-6.17057911E+01
 20
-2.83326491E+02
  0
VERTEX
  8
0
 62
4
 10
-6.14289433E+01
 20
-2.83125638E+02
  0
VERTEX
  8
0
 62
4
 10
-6.11716633E+01
 20
-2.82902735E+02
  0
VERTEX
  8
0
 62
4
 10
-6.09359089E+01
 20
-2.82659479E+02
  0
VERTEX
  8
0
 62
4
 10
-6.07234746E+01
 20
-2.82397720E+02
  0
VERTEX
  8
0
 62
4
 10
-6.05359769E+01
 20
-2.82119452E+02
  0
VERTEX
  8
0
 62
4
 10
-6.03748430E+01
 20
-2.81826791E+02
  0
VERTEX
  8
0
 62
4
 10
-6.02412990E+01
 20
-2.81521965E+02
  0
VERTEX
  8
0
 62
4
 10
-6.01363614E+01
 20
-2.81207293E+02
  0
VERTEX
  8
0
 62
4
 10
-6.00608288E+01
 20
-2.80885172E+02
  0
VERTEX
  8
0
 62
4
 10
-6.00152761E+01
 20
-2.80558052E+02
  0
VERTEX
  8
0
 62
4
 10
-6.00000499E+01
 20
-2.80228423E+02
  0
VERTEX
  8
0
 62
4
 10
-6.00152661E+01
 20
-2.79898793E+02
  0
VERTEX
  8
0
 62
4
 10
-6.00608089E+01
 20
-2.79571671E+02
  0
VERTEX
  8
0
 62
4
 10
-6.01363318E+01
 20
-2.79249548E+02
  0
VERTEX
  8
0
 62
4
 10
-6.02412598E+01
 20
-2.78934873E+02
  0
VERTEX
  8
0
 62
4
 10
-6.03747945E+01
 20
-2.78630043E+02
  0
VERTEX
  8
0
 62
4
 10
-6.05359197E+01
 20
-2.78337377E+02
  0
VERTEX
  8
0
 62
4
 10
-6.07234089E+01
 20
-2.78059103E+02
  0
VERTEX
  8
0
 62
4
 10
-6.09358353E+01
 20
-2.77797338E+02
  0
VERTEX
  8
0
 62
4
 10
-6.11715823E+01
 20
-2.77554074E+02
  0
VERTEX
  8
0
 62
4
 10
-6.14288556E+01
 20
-2.77331164E+02
  0
VERTEX
  8
0
 62
4
 10
-6.17056972E+01
 20
-2.77130303E+02
  0
VERTEX
  8
0
 62
4
 10
-6.20000003E+01
 20
-2.76953020E+02
  0
VERTEX
  8
0
 62
4
 10
-6.23095250E+01
 20
-2.76800664E+02
  0
VERTEX
  8
0
 62
4
 10
-6.26319155E+01
 20
-2.76674395E+02
  0
VERTEX
  8
0
 62
4
 10
-6.29647184E+01
 20
-2.76575174E+02
  0
VERTEX
  8
0
 62
4
 10
-6.33054008E+01
 20
-2.76503756E+02
  0
VERTEX
  8
0
 62
4
 10
-6.36513699E+01
 20
-2.76460685E+02
  0
VERTEX
  8
0
 62
4
 10
-6.39999926E+01
 20
-2.76446288E+02
  0
VERTEX
  8
0
 62
4
 10
-6.43486158E+01
 20
-2.76460674E+02
  0
VERTEX
  8
0
 62
4
 10
-6.46945862E+01
 20
-2.76503735E+02
  0
VERTEX
  8
0
 62
4
 10
-6.50352708E+01
 20
-2.76575143E+02
  0
VERTEX
  8
0
 62
4
 10
-6.53680767E+01
 20
-2.76674354E+02
  0
VERTEX
  8
0
 62
4
 10
-6.56904710E+01
 20
-2.76800613E+02
  0
VERTEX
  8
0
 62
4
 10
-6.60000003E+01
 20
-2.76952959E+02
  0
VERTEX
  8
0
 62
4
 10
-6.62943087E+01
 20
-2.77130233E+02
  0
VERTEX
  8
0
 62
4
 10
-6.65711565E+01
 20
-2.77331086E+02
  0
VERTEX
  8
0
 62
4
 10
-6.68284365E+01
 20
-2.77553989E+02
  0
VERTEX
  8
0
 62
4
 10
-6.70641909E+01
 20
-2.77797245E+02
  0
VERTEX
  8
0
 62
4
 10
-6.72766252E+01
 20
-2.78059004E+02
  0
VERTEX
  8
0
 62
4
 10
-6.74641229E+01
 20
-2.78337272E+02
  0
VERTEX
  8
0
 62
4
 10
-6.76252568E+01
 20
-2.78629933E+02
  0
VERTEX
  8
0
 62
4
 10
-6.77588008E+01
 20
-2.78934759E+02
  0
VERTEX
  8
0
 62
4
 10
-6.78637384E+01
 20
-2.79249431E+02
  0
VERTEX
  8
0
 62
4
 10
-6.79392710E+01
 20
-2.79571552E+02
  0
VERTEX
  8
0
 62
4
 10
-6.79848237E+01
 20
-2.79898672E+02
  0
VERTEX
  8
0
 62
4
 10
-6.80000499E+01
 20
-2.80228301E+02
  0
SEQEND
  8
0
  0
POLYLINE
  8
0
 62
4
 66
1
  0
VERTEX
  8
0
 62
4
 10
-6.74000509E+01
 20
-2.79636732E+02
  0
VERTEX
  8
0
 62
4
 10
-6.73871180E+01
 20
-2.79919387E+02
  0
VERTEX
  8
0
 62
4
 10
-6.73484075E+01
 20
-2.80199891E+02
  0
VERTEX
  8
0
 62
4
 10
-6.72842139E+01
 20
-2.80476110E+02
  0
VERTEX
  8
0
 62
4
 10
-6.71950259E+01
 20
-2.80745941E+02
  0
VERTEX
  8
0
 62
4
 10
-6.70815222E+01
 20
-2.81007330E+02
  0
VERTEX
  8
0
 62
4
 10
-6.69445666E+01
 20
-2.81258289E+02
  0
VERTEX
  8
0
 62
4
 10
-6.67852015E+01
 20
-2.81496908E+02
  0
VERTEX
  8
0
 62
4
 10
-6.66046398E+01
 20
-2.81721370E+02
  0
VERTEX
  8
0
 62
4
 10
-6.64042555E+01
 20
-2.81929967E+02
  0
VERTEX
  8
0
 62
4
 10
-6.61855738E+01
 20
-2.82121111E+02
  0
VERTEX
  8
0
 62
4
 10
-6.59502589E+01
 20
-2.82293349E+02
  0
VERTEX
  8
0
 62
4
 10
-6.57001018E+01
 20
-2.82445368E+02
  0
VERTEX
  8
0
 62
4
 10
-6.54370062E+01
 20
-2.82576012E+02
  0
VERTEX
  8
0
 62
4
 10
-6.51629746E+01
 20
-2.82684288E+02
  0
VERTEX
  8
0
 62
4
 10
-6.48800924E+01
 20
-2.82769370E+02
  0
VERTEX
  8
0
 62
4
 10
-6.45905126E+01
 20
-2.82830611E+02
  0
VERTEX
  8
0
 62
4
 10
-6.42964389E+01
 20
-2.82867545E+02
  0
VERTEX
  8
0
 62
4
 10
-6.40001096E+01
 20
-2.82879891E+02
  0
VERTEX
  8
0
 62
4
 10
-6.37037799E+01
 20
-2.82867556E+02
  0
VERTEX
  8
0
 62
4
 10
-6.34097049E+01
 20
-2.82830632E+02
  0
VERTEX
  8
0
 62
4
 10
-6.31201229E+01
 20
-2.82769401E+02
  0
VERTEX
  8
0
 62
4
 10
-6.28372376E+01
 20
-2.82684330E+02
  0
VERTEX
  8
0
 62
4
 10
-6.25632020E+01
 20
-2.82576064E+02
  0
VERTEX
  8
0
 62
4
 10
-6.23001018E+01
 20
-2.82445430E+02
  0
VERTEX
  8
0
 62
4
 10
-6.20499391E+01
 20
-2.82293419E+02
  0
VERTEX
  8
0
 62
4
 10
-6.18146180E+01
 20
-2.82121190E+02
  0
VERTEX
  8
0
 62
4
 10
-6.15959294E+01
 20
-2.81930054E+02
  0
VERTEX
  8
0
 62
4
 10
-6.13955376E+01
 20
-2.81721464E+02
  0
VERTEX
  8
0
 62
4
 10
-6.12149676E+01
 20
-2.81497009E+02
  0
VERTEX
  8
0
 62
4
 10
-6.10555939E+01
 20
-2.81258396E+02
  0
VERTEX
  8
0
 62
4
 10
-6.09186292E+01
 20
-2.81007442E+02
  0
VERTEX
  8
0
 62
4
 10
-6.08051161E+01
 20
-2.80746057E+02
  0
VERTEX
  8
0
 62
4
 10
-6.07159183E+01
 20
-2.80476229E+02
  0
VERTEX
  8
0
 62
4
 10
-6.06517147E+01
 20
-2.80200013E+02
  0
VERTEX
  8
0
 62
4
 10
-6.06129940E+01
 20
-2.79919510E+02
  0
VERTEX
  8
0
 62
4
 10
-6.06000509E+01
 20
-2.79636856E+02
  0
VERTEX
  8
0
 62
4
 10
-6.06129838E+01
 20
-2.79354201E+02
  0
VERTEX
  8
0
 62
4
 10
-6.06516943E+01
 20
-2.79073697E+02
  0
VERTEX
  8
0
 62
4
 10
-6.07158879E+01
 20
-2.78797478E+02
  0
VERTEX
  8
0
 62
4
 10
-6.08050759E+01
 20
-2.78527647E+02
  0
VERTEX
  8
0
 62
4
 10
-6.09185796E+01
 20
-2.78266258E+02
  0
VERTEX
  8
0
 62
4
 10
-6.10555352E+01
 20
-2.78015299E+02
  0
VERTEX
  8
0
 62
4
 10
-6.12149003E+01
 20
-2.77776680E+02
  0
VERTEX
  8
0
 62
4
 10
-6.13954620E+01
 20
-2.77552218E+02
  0
VERTEX
  8
0
 62
4
 10
-6.15958463E+01
 20
-2.77343621E+02
  0
VERTEX
  8
0
 62
4
 10
-6.18145280E+01
 20
-2.77152477E+02
  0
VERTEX
  8
0
 62
4
 10
-6.20498429E+01
 20
-2.76980239E+02
  0
VERTEX
  8
0
 62
4
 10
-6.23000000E+01
 20
-2.76828220E+02
  0
VERTEX
  8
0
 62
4
 10
-6.25630956E+01
 20
-2.76697576E+02
  0
VERTEX
  8
0
 62
4
 10
-6.28371272E+01
 20
-2.76589300E+02
  0
VERTEX
  8
0
 62
4
 10
-6.31200094E+01
 20
-2.76504218E+02
  0
VERTEX
  8
0
 62
4
 10
-6.34095893E+01
 20
-2.76442977E+02
  0
VERTEX
  8
0
 62
4
 10
-6.37036629E+01
 20
-2.76406043E+02
  0
VERTEX
  8
0
 62
4
 10
-6.39999922E+01
 20
-2.76393697E+02
  0
VERTEX
  8
0
 62
4
 10
-6.42963219E+01
 20
-2.76406032E+02
  0
VERTEX
  8
0
 62
4
 10
-6.45903969E+01
 20
-2.76442956E+02
  0
VERTEX
  8
0
 62
4
 10
-6.48799789E+01
 20
-2.76504187E+02
  0
VERTEX
  8
0
 62
4
 10
-6.51628642E+01
 20
-2.76589258E+02
  0
VERTEX
  8
0
 62
4
 10
-6.54368998E+01
 20
-2.76697524E+02
  0
VERTEX
  8
0
 62
4
 10
-6.57000000E+01
 20
-2.76828158E+02
  0
VERTEX
  8
0
 62
4
 10
-6.59501627E+01
 20
-2.76980169E+02
  0
VERTEX
  8
0
 62
4
 10
-6.61854838E+01
 20
-2.77152398E+02
  0
VERTEX
  8
0
 62
4
 10
-6.64041724E+01
 20
-2.77343534E+02
  0
VERTEX
  8
0
 62
4
 10
-6.66045643E+01
 20
-2.77552124E+02
  0
VERTEX
  8
0
 62
4
 10
-6.67851342E+01
 20
-2.77776579E+02
  0
VERTEX
  8
0
 62
4
 10
-6.69445079E+01
 20
-2.78015192E+02
  0
VERTEX
  8
0
 62
4
 10
-6.70814726E+01
 20
-2.78266146E+02
  0
VERTEX
  8
0
 62
4
 10
-6.71949857E+01
 20
-2.78527531E+02
  0
VERTEX
  8
0
 62
4
 10
-6.72841835E+01
 20
-2.78797359E+02
  0
VERTEX
  8
0
 62
4
 10
-6.73483871E+01
 20
-2.79073575E+02
  0
VERTEX
  8
0
 62
4
 10
-6.73871078E+01
 20
-2.79354078E+02
  0
VERTEX
  8
0
 62
4
 10
-6.74000509E+01
 20
-2.79636732E+02
  0
SEQEND
  8
0
  0
POLYLINE
  8
0
 62
4
 66
1
  0
VERTEX
  8
0
 62
4
 10
-6.74000499E+01
 20
-2.80228311E+02
  0
VERTEX
  8
0
 62
4
 10
-6.73870802E+01
 20
-2.80508884E+02
  0
VERTEX
  8
0
 62
4
 10
-6.73482616E+01
 20
-2.80787316E+02
  0
VERTEX
  8
0
 62
4
 10
-6.72838903E+01
 20
-2.81061483E+02
  0
VERTEX
  8
0
 62
4
 10
-6.71944576E+01
 20
-2.81329291E+02
  0
VERTEX
  8
0
 62
4
 10
-6.70806460E+01
 20
-2.81588698E+02
  0
VERTEX
  8
0
 62
4
 10
-6.69433242E+01
 20
-2.81837722E+02
  0
VERTEX
  8
0
 62
4
 10
-6.67835400E+01
 20
-2.82074465E+02
  0
VERTEX
  8
0
 62
4
 10
-6.66025130E+01
 20
-2.82297118E+02
  0
VERTEX
  8
0
 62
4
 10
-6.64016247E+01
 20
-2.82503984E+02
  0
VERTEX
  8
0
 62
4
 10
-6.61824082E+01
 20
-2.82693482E+02
  0
VERTEX
  8
0
 62
4
 10
-6.59465365E+01
 20
-2.82864167E+02
  0
VERTEX
  8
0
 62
4
 10
-6.56958098E+01
 20
-2.83014737E+02
  0
VERTEX
  8
0
 62
4
 10
-6.54321415E+01
 20
-2.83144041E+02
  0
VERTEX
  8
0
 62
4
 10
-6.51575438E+01
 20
-2.83251094E+02
  0
VERTEX
  8
0
 62
4
 10
-6.48741124E+01
 20
-2.83335078E+02
  0
VERTEX
  8
0
 62
4
 10
-6.45840104E+01
 20
-2.83395353E+02
  0
VERTEX
  8
0
 62
4
 10
-6.42894518E+01
 20
-2.83431458E+02
  0
VERTEX
  8
0
 62
4
 10
-6.39926845E+01
 20
-2.83443118E+02
  0
VERTEX
  8
0
 62
4
 10
-6.36959735E+01
 20
-2.83430243E+02
  0
VERTEX
  8
0
 62
4
 10
-6.34015831E+01
 20
-2.83392933E+02
  0
VERTEX
  8
0
 62
4
 10
-6.31117600E+01
 20
-2.83331471E+02
  0
VERTEX
  8
0
 62
4
 10
-6.28287161E+01
 20
-2.83246328E+02
  0
VERTEX
  8
0
 62
4
 10
-6.25546115E+01
 20
-2.83138152E+02
  0
VERTEX
  8
0
 62
4
 10
-6.22915382E+01
 20
-2.83007769E+02
  0
VERTEX
  8
0
 62
4
 10
-6.20415037E+01
 20
-2.82856175E+02
  0
VERTEX
  8
0
 62
4
 10
-6.18064164E+01
 20
-2.82684526E+02
  0
VERTEX
  8
0
 62
4
 10
-6.15880702E+01
 20
-2.82494132E+02
  0
VERTEX
  8
0
 62
4
 10
-6.13881317E+01
 20
-2.82286446E+02
  0
VERTEX
  8
0
 62
4
 10
-6.12081266E+01
 20
-2.82063054E+02
  0
VERTEX
  8
0
 62
4
 10
-6.10494288E+01
 20
-2.81825659E+02
  0
VERTEX
  8
0
 62
4
 10
-6.09132493E+01
 20
-2.81576075E+02
  0
VERTEX
  8
0
 62
4
 10
-6.08006275E+01
 20
-2.81316205E+02
  0
VERTEX
  8
0
 62
4
 10
-6.07124228E+01
 20
-2.81048033E+02
  0
VERTEX
  8
0
 62
4
 10
-6.06493084E+01
 20
-2.80773606E+02
  0
VERTEX
  8
0
 62
4
 10
-6.06117660E+01
 20
-2.80495017E+02
  0
VERTEX
  8
0
 62
4
 10
-6.06000820E+01
 20
-2.80214393E+02
  0
VERTEX
  8
0
 62
4
 10
-6.06143457E+01
 20
-2.79933876E+02
  0
SEQEND
  8
0
  0
LINE
  8
0
  6
CENTER
 62
6
 10
-6.40000401E+01
 20
-2.85651746E+02
 11
-6.40000631E+01
 21
-2.72851746E+02
  0
LINE
  8
0
  6
CENTER
 62
6
 10
-7.04000516E+01
 20
-2.79251757E+02
 11
-5.76000516E+01
 21
-2.79251734E+02
  0
LINE
  8
0
 62
4
 10
-7.15001289E+01
 20
-2.47344801E+02
 11
-5.65001289E+01
 21
-2.47344774E+02
  0
LINE
  8
0
 62
4
 10
-7.35000876E+01
 20
-2.70331633E+02
 11
-5.45000876E+01
 21
-2.70331599E+02
  0
LINE
  8
0
 62
4
 10
-7.60000624E+01
 20
-2.75476141E+02
 11
-7.60000408E+01
 21
-2.87482535E+02
  0
LINE
  8
0
 62
4
 10
-7.35000876E+01
 20
-2.70331633E+02
 11
-7.35000811E+01
 21
-2.73976117E+02
  0
LINE
  8
0
 62
4
 10
-5.65001289E+01
 20
-2.47344774E+02
 11
-5.65000876E+01
 21
-2.70331602E+02
  0
LINE
  8
0
 62
4
 10
-7.15001289E+01
 20
-2.47344774E+02
 11
-7.15000876E+01
 21
-2.70331629E+02
  0
LINE
  8
0
 62
4
 10
-5.45000876E+01
 20
-2.70331599E+02
 11
-5.45000811E+01
 21
-2.73976103E+02
  0
LINE
  8
0
 62
4
 10
-7.15000882E+01
 20
-2.70037247E+02
 11
-5.65000882E+01
 21
-2.70037220E+02
  0
LINE
  8
0
 62
4
 10
-3.70000624E+01
 20
-2.75476071E+02
 11
-3.70000408E+01
 21
-2.87482465E+02
  0
LINE
  8
0
 62
4
 10
-7.30000310E+01
 20
-2.92231859E+02
 11
-4.00000310E+01
 21
-2.92231799E+02
  0
LINE
  8
0
 62
4
 10
-7.60000408E+01
 20
-2.87482535E+02
 11
-3.70000408E+01
 21
-2.87482465E+02
  0
LINE
  8
0
 62
4
 10
-7.60000434E+01
 20
-2.86064257E+02
 11
-3.70000434E+01
 21
-2.86064187E+02
  0
LINE
  8
0
 62
4
 10
-7.45000651E+01
 20
-2.73976139E+02
 11
-3.85000651E+01
 21
-2.73976074E+02
  0
LINE
  8
0
 62
4
 10
-9.10001245E+01
 20
-2.49797759E+02
 11
-8.60001245E+01
 21
-2.49797750E+02
  0
LINE
  8
0
 62
4
 10
-9.10001118E+01
 20
-2.56889149E+02
 11
-8.60001118E+01
 21
-2.56889140E+02
  0
LINE
  8
0
 62
4
 10
-9.10001016E+01
 20
-2.62560491E+02
 11
-8.60001016E+01
 21
-2.62560483E+02
  0
LINE
  8
0
 62
4
 10
-8.05000938E+01
 20
-2.62453325E+02
 11
-7.20000938E+01
 21
-2.62453310E+02
  0
LINE
  8
0
 62
4
 10
-7.15001269E+01
 20
-2.48453315E+02
 11
-8.05001269E+01
 21
-2.48453331E+02
  0
LINE
  8
0
 62
4
 10
-8.10001260E+01
 20
-2.48953332E+02
 11
-8.10001027E+01
 21
-2.61953332E+02
  0
LINE
  8
0
 62
4
 10
-9.10001271E+01
 20
-2.48358802E+02
 11
-9.10001016E+01
 21
-2.62560491E+02
  0
LINE
  8
0
 62
4
 10
-8.60001271E+01
 20
-2.48358802E+02
 11
-8.60001016E+01
 21
-2.62560491E+02
  0
LINE
  8
0
 62
4
 10
-8.60001256E+01
 20
-2.49203324E+02
 11
-8.10001256E+01
 21
-2.49203315E+02
  0
LINE
  8
0
 62
4
 10
-8.60001031E+01
 20
-2.61703324E+02
 11
-8.10001031E+01
 21
-2.61703315E+02
  0
LINE
  8
0
 62
4
 10
-8.45001256E+01
 20
-2.49203322E+02
 11
-8.45001031E+01
 21
-2.61703322E+02
  0
LINE
  8
0
 62
4
 10
-8.45001247E+01
 20
-2.49703322E+02
 11
-8.10001247E+01
 21
-2.49703315E+02
  0
LINE
  8
0
 62
4
 10
-8.45001040E+01
 20
-2.61203322E+02
 11
-8.10001040E+01
 21
-2.61203315E+02
  0
ARC
  8
0
 62
4
 10
-8.05026009E+01
 20
-2.48950857E+02
 40
4.97531232E-01
 50
8.97150889E+01
 51
1.80285117E+02
  0
ARC
  8
0
 62
4
 10
-7.19976180E+01
 20
-2.62950835E+02
 40
4.97531232E-01
 50
3.59715089E+02
 51
9.02851166E+01
  0
ARC
  8
0
 62
4
 10
-3.84975834E+01
 20
-2.75473595E+02
 40
1.49752302E+00
 50
3.59905254E+02
 51
9.00949513E+01
  0
ARC
  8
0
 62
4
 10
-8.04976075E+01
 20
-2.61950838E+02
 40
5.02493390E-01
 50
1.80283706E+02
 51
2.69716500E+02
  0
ARC
  8
0
 62
4
 10
-7.45025414E+01
 20
-2.75473660E+02
 40
1.49752302E+00
 50
8.99052542E+01
 51
1.80094952E+02
  0
LINE
  8
0
 62
6
 10
-6.22851143E+01
 20
-2.80966681E+02
 11
-6.57149889E+01
 21
-2.77536811E+02
  0
LINE
  8
0
 62
6
 10
-6.57149865E+01
 20
-2.80966683E+02
 11
-6.22851168E+01
 21
-2.77536809E+02
  0
ARC
  8
0
 62
4
 10
-3.74062982E+02
 20
-2.55453270E+02
 40
7.00000000E+00
 50
7.79182752E+01
 51
1.00872928E+02
  0
ARC
  8
0
 62
4
 10
-3.74062982E+02
 20
-2.55453270E+02
 40
7.00000000E+00
 50
1.17236957E+02
 51
1.40081725E+02
  0
ARC
  8
0
 62
4
 10
-3.56778577E+02
 20
-2.76471091E+02
 40
2.49501993E+00
 50
1.88855230E+01
 51
1.09114477E+02
  0
ARC
  8
0
 62
4
 10
-3.74746500E+02
 20
-2.82663233E+02
 40
2.50001642E+00
 50
1.09000376E+02
 51
1.98999623E+02
  0
CIRCLE
  8
0
 62
4
 10
-3.74062982E+02
 20
-2.55453270E+02
 40
3.75000000E+00
  0
ARC
  8
0
 62
4
 10
-3.51457184E+02
 20
-2.77390260E+02
 40
9.96609194E-01
 50
3.15516728E+01
 51
1.09414475E+02
  0
ARC
  8
0
 62
4
 10
-3.60651136E+02
 20
-2.83076331E+02
 40
1.18067922E+01
 50
6.08754926E+00
 51
3.17195580E+01
  0
ARC
  8
0
 62
4
 10
-3.49898841E+02
 20
-2.81931003E+02
 40
1.00271607E+00
 50
2.88866852E+02
 51
6.16700057E+00
  0
LINE
  8
0
 62
4
 10
-3.53619544E+02
 20
-2.76446242E+02
 11
-3.51014999E+02
 21
-2.84010390E+02
  0
LINE
  8
0
  6
CENTER
 62
6
 10
-3.82507679E+02
 20
-2.90623707E+02
 11
-3.46644160E+02
 21
-2.78274907E+02
  0
LINE
  8
0
 62
4
 10
-3.49574593E+02
 20
-2.82879846E+02
 11
-3.51210340E+02
 21
-2.83443079E+02
  0
LINE
  8
0
 62
4
 10
-3.53424203E+02
 20
-2.77013553E+02
 11
-3.51788456E+02
 21
-2.76450320E+02
  0
LINE
  8
0
 62
4
 10
-3.51487758E+02
 20
-2.84173174E+02
 11
-3.51014999E+02
 21
-2.84010390E+02
  0
LINE
  8
0
 62
4
 10
-3.54092303E+02
 20
-2.76609026E+02
 11
-3.53619544E+02
 21
-2.76446242E+02
  0
LINE
  8
0
 62
4
 10
-3.73551688E+02
 20
-2.48936757E+02
 11
-3.68928102E+02
 21
-2.47344729E+02
  0
LINE
  8
0
 62
4
 10
-3.76511099E+02
 20
-2.48358757E+02
 11
-3.69141092E+02
 21
-2.49797714E+02
  0
LINE
  8
0
 62
4
 10
-3.78991072E+02
 20
-2.61121489E+02
 11
-3.71621065E+02
 21
-2.62560446E+02
  0
LINE
  8
0
 62
4
 10
-3.69141092E+02
 20
-2.49797714E+02
 11
-3.66699331E+02
 21
-2.56889103E+02
  0
LINE
  8
0
 62
4
 10
-3.81432834E+02
 20
-2.54030100E+02
 11
-3.78991072E+02
 21
-2.61121489E+02
  0
LINE
  8
0
 62
4
 10
-3.81432834E+02
 20
-2.54030100E+02
 11
-3.76511099E+02
 21
-2.48358757E+02
  0
LINE
  8
0
 62
4
 10
-3.71621065E+02
 20
-2.62560446E+02
 11
-3.66699331E+02
 21
-2.56889103E+02
  0
LINE
  8
0
 62
4
 10
-3.62082432E+02
 20
-2.84119541E+02
 11
-3.61268512E+02
 21
-2.86483337E+02
  0
LINE
  8
0
 62
4
 10
-3.65864507E+02
 20
-2.85421813E+02
 11
-3.65050586E+02
 21
-2.87785610E+02
  0
LINE
  8
0
 62
4
 10
-3.65050586E+02
 20
-2.87785610E+02
 11
-3.61268512E+02
 21
-2.86483337E+02
  0
LINE
  8
0
 62
4
 10
-3.65864507E+02
 20
-2.85421813E+02
 11
-3.62082432E+02
 21
-2.84119541E+02
  0
LINE
  8
0
 62
4
 10
-3.68075138E+02
 20
-2.91999908E+02
 11
-3.50836622E+02
 21
-2.86064211E+02
  0
LINE
  8
0
 62
4
 10
-3.50348269E+02
 20
-2.87482489E+02
 11
-3.51810732E+02
 21
-2.91999908E+02
  0
LINE
  8
0
 62
4
 10
-3.77110317E+02
 20
-2.83477143E+02
 11
-3.74175694E+02
 21
-2.91999908E+02
  0
LINE
  8
0
 62
4
 10
-3.54417871E+02
 20
-2.75663507E+02
 11
-3.50348269E+02
 21
-2.87482489E+02
  0
LINE
  8
0
 62
4
 10
-3.63467808E+02
 20
-2.91999908E+02
 11
-3.50348269E+02
 21
-2.87482489E+02
  0
LINE
  8
0
 62
4
 10
-3.75560441E+02
 20
-2.80299426E+02
 11
-3.57595588E+02
 21
-2.74113631E+02
  0
LINE
  8
0
 62
4
 10
-3.76862714E+02
 20
-2.76517352E+02
 11
-3.75560441E+02
 21
-2.80299426E+02
  0
LINE
  8
0
 62
4
 10
-3.58897861E+02
 20
-2.70331557E+02
 11
-3.57595588E+02
 21
-2.74113631E+02
  0
LINE
  8
0
 62
4
 10
-3.75297245E+02
 20
-2.74920697E+02
 11
-3.61114466E+02
 21
-2.70037174E+02
  0
LINE
  8
0
 62
4
 10
-3.76862714E+02
 20
-2.76517352E+02
 11
-3.58897861E+02
 21
-2.70331557E+02
  0
LINE
  8
0
 62
4
 10
-3.83110881E+02
 20
-2.52228251E+02
 11
-3.74971677E+02
 21
-2.75866215E+02
  0
LINE
  8
0
 62
4
 10
-3.68928102E+02
 20
-2.47344729E+02
 11
-3.60788898E+02
 21
-2.70982693E+02
  0
LINE
  8
0
 62
4
 10
-3.83110881E+02
 20
-2.52228251E+02
 11
-3.78487295E+02
 21
-2.50636223E+02
  0
LINE
  8
0
 62
4
 10
-3.82148132E+02
 20
-2.85740612E+02
 11
-3.85197510E+02
 21
-2.91999908E+02
  0
LINE
  8
0
 62
4
 10
-3.74218245E+02
 20
-2.91999908E+02
 11
-3.74180204E+02
 21
-2.91986810E+02
  0
LINE
  8
0
 62
4
 10
-3.82148132E+02
 20
-2.85740612E+02
 11
-3.76947533E+02
 21
-2.83949902E+02
  0
LINE
  8
0
 62
6
 10
-3.89644401E+02
 20
-3.09785708E+02
 11
-3.89500160E+02
 21
-3.09738841E+02
  0
LINE
  8
0
 62
4
 10
1.26348132E+02
 20
-2.87482489E+02
 11
1.27810595E+02
 21
-2.91999908E+02
  0
LINE
  8
0
 62
4
 10
1.27487621E+02
 20
-2.84173174E+02
 11
1.27014861E+02
 21
-2.84010390E+02
  0
LINE
  8
0
 62
4
 10
1.39467670E+02
 20
-2.91999908E+02
 11
1.26348132E+02
 21
-2.87482489E+02
  0
LINE
  8
0
 62
4
 10
1.44075000E+02
 20
-2.91999908E+02
 11
1.26836484E+02
 21
-2.86064211E+02
  0
ARC
  8
0
 62
4
 10
1.50746363E+02
 20
-2.82663233E+02
 40
2.50001642E+00
 50
3.41000376E+02
 51
7.09996236E+01
  0
ARC
  8
0
 62
4
 10
1.57432313E+02
 20
-2.86549179E+02
 40
9.97523260E-01
 50
2.61759467E+01
 51
7.08169962E+01
  0
LINE
  8
0
 62
4
 10
1.38082295E+02
 20
-2.84119541E+02
 11
1.37268375E+02
 21
-2.86483337E+02
  0
LINE
  8
0
 62
4
 10
1.41864369E+02
 20
-2.85421813E+02
 11
1.38082295E+02
 21
-2.84119541E+02
  0
LINE
  8
0
 62
4
 10
1.57760085E+02
 20
-2.85607044E+02
 11
1.52947396E+02
 21
-2.83949902E+02
  0
LINE
  8
0
 62
4
 10
1.58327534E+02
 20
-2.86109142E+02
 11
1.61197373E+02
 21
-2.91999908E+02
  0
LINE
  8
0
 62
4
 10
1.52862576E+02
 20
-2.76517352E+02
 11
1.51560304E+02
 21
-2.80299426E+02
  0
LINE
  8
0
 62
4
 10
1.53110180E+02
 20
-2.83477143E+02
 11
1.50175556E+02
 21
-2.91999908E+02
  0
LINE
  8
0
 62
4
 10
1.41050449E+02
 20
-2.87785610E+02
 11
1.37268375E+02
 21
-2.86483337E+02
  0
LINE
  8
0
 62
4
 10
1.41864369E+02
 20
-2.85421813E+02
 11
1.41050449E+02
 21
-2.87785610E+02
  0
ARC
  8
0
 62
4
 10
1.32778440E+02
 20
-2.76471091E+02
 40
2.49501993E+00
 50
7.08855231E+01
 51
1.61114477E+02
  0
ARC
  8
0
 62
4
 10
1.36639024E+02
 20
-2.83115153E+02
 40
1.18081149E+01
 50
1.48089798E+02
 51
1.73718975E+02
  0
ARC
  8
0
 62
4
 10
1.27457046E+02
 20
-2.77390260E+02
 40
9.96609194E-01
 50
7.05855253E+01
 51
1.48448327E+02
  0
ARC
  8
0
 62
4
 10
1.25898703E+02
 20
-2.81931003E+02
 40
1.00271607E+00
 50
1.73833000E+02
 51
2.51133148E+02
  0
LINE
  8
0
 62
4
 10
1.29424066E+02
 20
-2.77013553E+02
 11
1.27788319E+02
 21
-2.76450320E+02
  0
LINE
  8
0
 62
4
 10
1.30092166E+02
 20
-2.76609026E+02
 11
1.29619407E+02
 21
-2.76446242E+02
  0
LINE
  8
0
 62
4
 10
1.34897724E+02
 20
-2.70331557E+02
 11
1.33595451E+02
 21
-2.74113631E+02
  0
LINE
  8
0
  6
CENTER
 62
6
 10
1.43600318E+02
 20
-2.74237146E+02
 11
1.42092781E+02
 21
-2.78615351E+02
  0
LINE
  8
0
 62
4
 10
1.39268562E+02
 20
-2.76067040E+02
 11
1.39934517E+02
 21
-2.75238726E+02
  0
LINE
  8
0
 62
4
 10
1.45872374E+02
 20
-2.77283294E+02
 11
1.45887192E+02
 21
-2.78346017E+02
  0
LINE
  8
0
 62
4
 10
1.39934517E+02
 20
-2.75238726E+02
 11
1.45872374E+02
 21
-2.77283294E+02
  0
LINE
  8
0
 62
4
 10
1.52862576E+02
 20
-2.76517352E+02
 11
1.34897724E+02
 21
-2.70331557E+02
  0
LINE
  8
0
 62
4
 10
1.51297107E+02
 20
-2.74920697E+02
 11
1.37114329E+02
 21
-2.70037174E+02
  0
LINE
  8
0
 62
4
 10
1.51560304E+02
 20
-2.80299426E+02
 11
1.33595451E+02
 21
-2.74113631E+02
  0
LINE
  8
0
 62
4
 10
1.30417734E+02
 20
-2.75663507E+02
 11
1.26348132E+02
 21
-2.87482489E+02
  0
LINE
  8
0
 62
4
 10
1.25574455E+02
 20
-2.82879846E+02
 11
1.27210202E+02
 21
-2.83443079E+02
  0
LINE
  8
0
  6
CENTER
 62
6
 10
1.58507542E+02
 20
-2.90623707E+02
 11
1.22644023E+02
 21
-2.78274907E+02
  0
LINE
  8
0
 62
4
 10
1.29619407E+02
 20
-2.76446242E+02
 11
1.27014861E+02
 21
-2.84010390E+02
  0
LINE
  8
0
 62
4
 10
1.52510962E+02
 20
-2.48358757E+02
 11
1.51381401E+02
 21
-2.48579298E+02
  0
LINE
  8
0
 62
4
 10
1.53265289E+02
 20
-2.49227973E+02
 11
1.52510962E+02
 21
-2.48358757E+02
  0
LINE
  8
0
 62
4
 10
1.44927965E+02
 20
-2.47344729E+02
 11
1.59110743E+02
 21
-2.52228251E+02
  0
ARC
  8
0
 62
4
 10
1.50067565E+02
 20
-2.55454895E+02
 40
7.00000000E+00
 50
3.99182754E+01
 51
1.02081725E+02
  0
LINE
  8
0
 62
4
 10
1.44927965E+02
 20
-2.47344729E+02
 11
1.36788761E+02
 21
-2.70982693E+02
  0
LINE
  8
0
 62
4
 10
1.59110743E+02
 20
-2.52228251E+02
 11
1.50971539E+02
 21
-2.75866215E+02
  0
LINE
  8
0
 62
6
 10
1.65644233E+02
 20
-3.09785708E+02
 11
1.65499931E+02
 21
-3.09738821E+02
  0
POLYLINE
  8
0
 62
4
 66
1
  0
VERTEX
  8
0
 62
4
 10
-6.05999860E+01
 20
-1.51157778E+02
  0
VERTEX
  8
0
 62
4
 10
-6.06129240E+01
 20
-1.51031736E+02
  0
VERTEX
  8
0
 62
4
 10
-6.06516396E+01
 20
-1.50906654E+02
  0
VERTEX
  8
0
 62
4
 10
-6.07158382E+01
 20
-1.50783483E+02
  0
VERTEX
  8
0
 62
4
 10
-6.08050311E+01
 20
-1.50663160E+02
  0
VERTEX
  8
0
 62
4
 10
-6.09185395E+01
 20
-1.50546602E+02
  0
VERTEX
  8
0
 62
4
 10
-6.10554996E+01
 20
-1.50434695E+02
  0
VERTEX
  8
0
 62
4
 10
-6.12148690E+01
 20
-1.50328291E+02
  0
VERTEX
  8
0
 62
4
 10
-6.13954349E+01
 20
-1.50228201E+02
  0
VERTEX
  8
0
 62
4
 10
-6.15958229E+01
 20
-1.50135184E+02
  0
VERTEX
  8
0
 62
4
 10
-6.18145081E+01
 20
-1.50049951E+02
  0
VERTEX
  8
0
 62
4
 10
-6.20498261E+01
 20
-1.49973148E+02
  0
VERTEX
  8
0
 62
4
 10
-6.22999860E+01
 20
-1.49905362E+02
  0
VERTEX
  8
0
 62
4
 10
-6.25630839E+01
 20
-1.49847107E+02
  0
VERTEX
  8
0
 62
4
 10
-6.28371175E+01
 20
-1.49798827E+02
  0
VERTEX
  8
0
 62
4
 10
-6.31200012E+01
 20
-1.49760889E+02
  0
VERTEX
  8
0
 62
4
 10
-6.34095822E+01
 20
-1.49733583E+02
  0
VERTEX
  8
0
 62
4
 10
-6.37036565E+01
 20
-1.49717115E+02
  0
VERTEX
  8
0
 62
4
 10
-6.39999860E+01
 20
-1.49711612E+02
  0
VERTEX
  8
0
 62
4
 10
-6.42963155E+01
 20
-1.49717115E+02
  0
VERTEX
  8
0
 62
4
 10
-6.45903898E+01
 20
-1.49733583E+02
  0
VERTEX
  8
0
 62
4
 10
-6.48799708E+01
 20
-1.49760889E+02
  0
VERTEX
  8
0
 62
4
 10
-6.51628545E+01
 20
-1.49798827E+02
  0
VERTEX
  8
0
 62
4
 10
-6.54368881E+01
 20
-1.49847107E+02
  0
VERTEX
  8
0
 62
4
 10
-6.56999860E+01
 20
-1.49905362E+02
  0
VERTEX
  8
0
 62
4
 10
-6.59501459E+01
 20
-1.49973148E+02
  0
VERTEX
  8
0
 62
4
 10
-6.61854639E+01
 20
-1.50049951E+02
  0
VERTEX
  8
0
 62
4
 10
-6.64041491E+01
 20
-1.50135184E+02
  0
VERTEX
  8
0
 62
4
 10
-6.66045371E+01
 20
-1.50228201E+02
  0
VERTEX
  8
0
 62
4
 10
-6.67851030E+01
 20
-1.50328291E+02
  0
VERTEX
  8
0
 62
4
 10
-6.69444724E+01
 20
-1.50434695E+02
  0
VERTEX
  8
0
 62
4
 10
-6.70814325E+01
 20
-1.50546602E+02
  0
VERTEX
  8
0
 62
4
 10
-6.71949409E+01
 20
-1.50663160E+02
  0
VERTEX
  8
0
 62
4
 10
-6.72841338E+01
 20
-1.50783483E+02
  0
VERTEX
  8
0
 62
4
 10
-6.73483324E+01
 20
-1.50906654E+02
  0
VERTEX
  8
0
 62
4
 10
-6.73870480E+01
 20
-1.51031736E+02
  0
VERTEX
  8
0
 62
4
 10
-6.73999860E+01
 20
-1.51157778E+02
  0
VERTEX
  8
0
 62
4
 10
-6.73870480E+01
 20
-1.51283820E+02
  0
VERTEX
  8
0
 62
4
 10
-6.73483324E+01
 20
-1.51408902E+02
  0
VERTEX
  8
0
 62
4
 10
-6.72841338E+01
 20
-1.51532073E+02
  0
VERTEX
  8
0
 62
4
 10
-6.71949409E+01
 20
-1.51652396E+02
  0
VERTEX
  8
0
 62
4
 10
-6.70814325E+01
 20
-1.51768954E+02
  0
VERTEX
  8
0
 62
4
 10
-6.69444724E+01
 20
-1.51880861E+02
  0
VERTEX
  8
0
 62
4
 10
-6.67851029E+01
 20
-1.51987265E+02
  0
VERTEX
  8
0
 62
4
 10
-6.66045371E+01
 20
-1.52087355E+02
  0
VERTEX
  8
0
 62
4
 10
-6.64041491E+01
 20
-1.52180372E+02
  0
VERTEX
  8
0
 62
4
 10
-6.61854639E+01
 20
-1.52265605E+02
  0
VERTEX
  8
0
 62
4
 10
-6.59501459E+01
 20
-1.52342408E+02
  0
VERTEX
  8
0
 62
4
 10
-6.56999860E+01
 20
-1.52410194E+02
  0
VERTEX
  8
0
 62
4
 10
-6.54368881E+01
 20
-1.52468449E+02
  0
VERTEX
  8
0
 62
4
 10
-6.51628545E+01
 20
-1.52516729E+02
  0
VERTEX
  8
0
 62
4
 10
-6.48799707E+01
 20
-1.52554667E+02
  0
VERTEX
  8
0
 62
4
 10
-6.45903898E+01
 20
-1.52581973E+02
  0
VERTEX
  8
0
 62
4
 10
-6.42963155E+01
 20
-1.52598441E+02
  0
VERTEX
  8
0
 62
4
 10
-6.39999860E+01
 20
-1.52603944E+02
  0
VERTEX
  8
0
 62
4
 10
-6.37036565E+01
 20
-1.52598441E+02
  0
VERTEX
  8
0
 62
4
 10
-6.34095822E+01
 20
-1.52581973E+02
  0
VERTEX
  8
0
 62
4
 10
-6.31200012E+01
 20
-1.52554667E+02
  0
VERTEX
  8
0
 62
4
 10
-6.28371175E+01
 20
-1.52516729E+02
  0
VERTEX
  8
0
 62
4
 10
-6.25630839E+01
 20
-1.52468449E+02
  0
VERTEX
  8
0
 62
4
 10
-6.22999860E+01
 20
-1.52410194E+02
  0
VERTEX
  8
0
 62
4
 10
-6.20498261E+01
 20
-1.52342408E+02
  0
VERTEX
  8
0
 62
4
 10
-6.18145081E+01
 20
-1.52265605E+02
  0
VERTEX
  8
0
 62
4
 10
-6.15958229E+01
 20
-1.52180372E+02
  0
VERTEX
  8
0
 62
4
 10
-6.13954349E+01
 20
-1.52087355E+02
  0
VERTEX
  8
0
 62
4
 10
-6.12148690E+01
 20
-1.51987265E+02
  0
VERTEX
  8
0
 62
4
 10
-6.10554996E+01
 20
-1.51880861E+02
  0
VERTEX
  8
0
 62
4
 10
-6.09185395E+01
 20
-1.51768954E+02
  0
VERTEX
  8
0
 62
4
 10
-6.08050311E+01
 20
-1.51652396E+02
  0
VERTEX
  8
0
 62
4
 10
-6.07158382E+01
 20
-1.51532073E+02
  0
VERTEX
  8
0
 62
4
 10
-6.06516396E+01
 20
-1.51408902E+02
  0
VERTEX
  8
0
 62
4
 10
-6.06129240E+01
 20
-1.51283820E+02
  0
VERTEX
  8
0
 62
4
 10
-6.05999860E+01
 20
-1.51157778E+02
  0
SEQEND
  8
0
  0
ARC
  8
0
 62
4
 10
-7.45024841E+01
 20
-1.44770775E+02
 40
1.49750400E+00
 50
1.79904421E+02
 51
2.70095579E+02
  0
ARC
  8
0
 62
4
 10
-3.84974841E+01
 20
-1.44770779E+02
 40
1.49750021E+00
 50
2.69904276E+02
 51
9.57242462E-02
  0
LINE
  8
0
 62
4
 10
-7.34999860E+01
 20
-1.43904480E+02
 11
-5.44999860E+01
 21
-1.43904480E+02
  0
POLYLINE
  8
0
 62
4
 66
1
  0
VERTEX
  8
0
 62
4
 10
-4.48599860E+01
 20
-1.34596511E+02
  0
VERTEX
  8
0
 62
4
 10
-4.48719346E+01
 20
-1.34337752E+02
  0
VERTEX
  8
0
 62
4
 10
-4.49076897E+01
 20
-1.34080962E+02
  0
VERTEX
  8
0
 62
4
 10
-4.49669789E+01
 20
-1.33828096E+02
  0
VERTEX
  8
0
 62
4
 10
-4.50493512E+01
 20
-1.33581078E+02
  0
VERTEX
  8
0
 62
4
 10
-4.51541795E+01
 20
-1.33341788E+02
  0
VERTEX
  8
0
 62
4
 10
-4.52806662E+01
 20
-1.33112047E+02
  0
VERTEX
  8
0
 62
4
 10
-4.54278486E+01
 20
-1.32893604E+02
  0
VERTEX
  8
0
 62
4
 10
-4.55946064E+01
 20
-1.32688121E+02
  0
VERTEX
  8
0
 62
4
 10
-4.57796707E+01
 20
-1.32497162E+02
  0
VERTEX
  8
0
 62
4
 10
-4.59816329E+01
 20
-1.32322180E+02
  0
VERTEX
  8
0
 62
4
 10
-4.61989560E+01
 20
-1.32164507E+02
  0
VERTEX
  8
0
 62
4
 10
-4.64299860E+01
 20
-1.32025344E+02
  0
VERTEX
  8
0
 62
4
 10
-4.66729647E+01
 20
-1.31905748E+02
  0
VERTEX
  8
0
 62
4
 10
-4.69260428E+01
 20
-1.31806631E+02
  0
VERTEX
  8
0
 62
4
 10
-4.71872942E+01
 20
-1.31728746E+02
  0
VERTEX
  8
0
 62
4
 10
-4.74547307E+01
 20
-1.31672687E+02
  0
VERTEX
  8
0
 62
4
 10
-4.77263170E+01
 20
-1.31638880E+02
  0
VERTEX
  8
0
 62
4
 10
-4.79999860E+01
 20
-1.31627583E+02
  0
VERTEX
  8
0
 62
4
 10
-4.82736550E+01
 20
-1.31638880E+02
  0
VERTEX
  8
0
 62
4
 10
-4.85452413E+01
 20
-1.31672687E+02
  0
VERTEX
  8
0
 62
4
 10
-4.88126778E+01
 20
-1.31728746E+02
  0
VERTEX
  8
0
 62
4
 10
-4.90739293E+01
 20
-1.31806631E+02
  0
VERTEX
  8
0
 62
4
 10
-4.93270073E+01
 20
-1.31905748E+02
  0
VERTEX
  8
0
 62
4
 10
-4.95699860E+01
 20
-1.32025344E+02
  0
VERTEX
  8
0
 62
4
 10
-4.98010160E+01
 20
-1.32164507E+02
  0
VERTEX
  8
0
 62
4
 10
-5.00183391E+01
 20
-1.32322180E+02
  0
VERTEX
  8
0
 62
4
 10
-5.02203013E+01
 20
-1.32497162E+02
  0
VERTEX
  8
0
 62
4
 10
-5.04053656E+01
 20
-1.32688121E+02
  0
VERTEX
  8
0
 62
4
 10
-5.05721234E+01
 20
-1.32893604E+02
  0
VERTEX
  8
0
 62
4
 10
-5.07193058E+01
 20
-1.33112047E+02
  0
VERTEX
  8
0
 62
4
 10
-5.08457925E+01
 20
-1.33341788E+02
  0
VERTEX
  8
0
 62
4
 10
-5.09506208E+01
 20
-1.33581078E+02
  0
VERTEX
  8
0
 62
4
 10
-5.10329931E+01
 20
-1.33828096E+02
  0
VERTEX
  8
0
 62
4
 10
-5.10922823E+01
 20
-1.34080962E+02
  0
VERTEX
  8
0
 62
4
 10
-5.11280374E+01
 20
-1.34337752E+02
  0
VERTEX
  8
0
 62
4
 10
-5.11399860E+01
 20
-1.34596511E+02
  0
VERTEX
  8
0
 62
4
 10
-5.11280374E+01
 20
-1.34855270E+02
  0
VERTEX
  8
0
 62
4
 10
-5.10922823E+01
 20
-1.35112060E+02
  0
VERTEX
  8
0
 62
4
 10
-5.10329931E+01
 20
-1.35364926E+02
  0
VERTEX
  8
0
 62
4
 10
-5.09506208E+01
 20
-1.35611944E+02
  0
VERTEX
  8
0
 62
4
 10
-5.08457924E+01
 20
-1.35851234E+02
  0
VERTEX
  8
0
 62
4
 10
-5.07193058E+01
 20
-1.36080975E+02
  0
VERTEX
  8
0
 62
4
 10
-5.05721234E+01
 20
-1.36299418E+02
  0
VERTEX
  8
0
 62
4
 10
-5.04053655E+01
 20
-1.36504901E+02
  0
VERTEX
  8
0
 62
4
 10
-5.02203013E+01
 20
-1.36695860E+02
  0
VERTEX
  8
0
 62
4
 10
-5.00183391E+01
 20
-1.36870842E+02
  0
VERTEX
  8
0
 62
4
 10
-4.98010160E+01
 20
-1.37028515E+02
  0
VERTEX
  8
0
 62
4
 10
-4.95699860E+01
 20
-1.37167678E+02
  0
VERTEX
  8
0
 62
4
 10
-4.93270073E+01
 20
-1.37287274E+02
  0
VERTEX
  8
0
 62
4
 10
-4.90739292E+01
 20
-1.37386391E+02
  0
VERTEX
  8
0
 62
4
 10
-4.88126778E+01
 20
-1.37464276E+02
  0
VERTEX
  8
0
 62
4
 10
-4.85452413E+01
 20
-1.37520335E+02
  0
VERTEX
  8
0
 62
4
 10
-4.82736550E+01
 20
-1.37554142E+02
  0
VERTEX
  8
0
 62
4
 10
-4.79999860E+01
 20
-1.37565439E+02
  0
VERTEX
  8
0
 62
4
 10
-4.77263170E+01
 20
-1.37554142E+02
  0
VERTEX
  8
0
 62
4
 10
-4.74547307E+01
 20
-1.37520335E+02
  0
VERTEX
  8
0
 62
4
 10
-4.71872942E+01
 20
-1.37464276E+02
  0
VERTEX
  8
0
 62
4
 10
-4.69260427E+01
 20
-1.37386391E+02
  0
VERTEX
  8
0
 62
4
 10
-4.66729647E+01
 20
-1.37287274E+02
  0
VERTEX
  8
0
 62
4
 10
-4.64299860E+01
 20
-1.37167678E+02
  0
VERTEX
  8
0
 62
4
 10
-4.61989560E+01
 20
-1.37028515E+02
  0
VERTEX
  8
0
 62
4
 10
-4.59816329E+01
 20
-1.36870842E+02
  0
VERTEX
  8
0
 62
4
 10
-4.57796707E+01
 20
-1.36695860E+02
  0
VERTEX
  8
0
 62
4
 10
-4.55946064E+01
 20
-1.36504901E+02
  0
VERTEX
  8
0
 62
4
 10
-4.54278486E+01
 20
-1.36299418E+02
  0
VERTEX
  8
0
 62
4
 10
-4.52806662E+01
 20
-1.36080975E+02
  0
VERTEX
  8
0
 62
4
 10
-4.51541795E+01
 20
-1.35851234E+02
  0
VERTEX
  8
0
 62
4
 10
-4.50493512E+01
 20
-1.35611944E+02
  0
VERTEX
  8
0
 62
4
 10
-4.49669789E+01
 20
-1.35364926E+02
  0
VERTEX
  8
0
 62
4
 10
-4.49076897E+01
 20
-1.35112060E+02
  0
VERTEX
  8
0
 62
4
 10
-4.48719346E+01
 20
-1.34855270E+02
  0
VERTEX
  8
0
 62
4
 10
-4.48599860E+01
 20
-1.34596511E+02
  0
SEQEND
  8
0
  0
POLYLINE
  8
0
 62
4
 66
1
  0
VERTEX
  8
0
 62
4
 10
-4.44999860E+01
 20
-1.34922079E+02
  0
VERTEX
  8
0
 62
4
 10
-4.45133046E+01
 20
-1.34633653E+02
  0
VERTEX
  8
0
 62
4
 10
-4.45531589E+01
 20
-1.34347422E+02
  0
VERTEX
  8
0
 62
4
 10
-4.46192456E+01
 20
-1.34065565E+02
  0
VERTEX
  8
0
 62
4
 10
-4.47110618E+01
 20
-1.33790227E+02
  0
VERTEX
  8
0
 62
4
 10
-4.48279087E+01
 20
-1.33523502E+02
  0
VERTEX
  8
0
 62
4
 10
-4.49688971E+01
 20
-1.33267421E+02
  0
VERTEX
  8
0
 62
4
 10
-4.51329538E+01
 20
-1.33023934E+02
  0
VERTEX
  8
0
 62
4
 10
-4.53188304E+01
 20
-1.32794892E+02
  0
VERTEX
  8
0
 62
4
 10
-4.55251123E+01
 20
-1.32582040E+02
  0
VERTEX
  8
0
 62
4
 10
-4.57502294E+01
 20
-1.32386997E+02
  0
VERTEX
  8
0
 62
4
 10
-4.59924685E+01
 20
-1.32211247E+02
  0
VERTEX
  8
0
 62
4
 10
-4.62499860E+01
 20
-1.32056128E+02
  0
VERTEX
  8
0
 62
4
 10
-4.65208221E+01
 20
-1.31922821E+02
  0
VERTEX
  8
0
 62
4
 10
-4.68029155E+01
 20
-1.31812340E+02
  0
VERTEX
  8
0
 62
4
 10
-4.70941193E+01
 20
-1.31725526E+02
  0
VERTEX
  8
0
 62
4
 10
-4.73922174E+01
 20
-1.31663040E+02
  0
VERTEX
  8
0
 62
4
 10
-4.76949409E+01
 20
-1.31625357E+02
  0
VERTEX
  8
0
 62
4
 10
-4.79999860E+01
 20
-1.31612764E+02
  0
VERTEX
  8
0
 62
4
 10
-4.83050311E+01
 20
-1.31625357E+02
  0
VERTEX
  8
0
 62
4
 10
-4.86077546E+01
 20
-1.31663040E+02
  0
VERTEX
  8
0
 62
4
 10
-4.89058527E+01
 20
-1.31725526E+02
  0
VERTEX
  8
0
 62
4
 10
-4.91970565E+01
 20
-1.31812340E+02
  0
VERTEX
  8
0
 62
4
 10
-4.94791499E+01
 20
-1.31922821E+02
  0
VERTEX
  8
0
 62
4
 10
-4.97499860E+01
 20
-1.32056128E+02
  0
VERTEX
  8
0
 62
4
 10
-5.00075035E+01
 20
-1.32211247E+02
  0
VERTEX
  8
0
 62
4
 10
-5.02497426E+01
 20
-1.32386997E+02
  0
VERTEX
  8
0
 62
4
 10
-5.04748597E+01
 20
-1.32582040E+02
  0
VERTEX
  8
0
 62
4
 10
-5.06811416E+01
 20
-1.32794892E+02
  0
VERTEX
  8
0
 62
4
 10
-5.08670182E+01
 20
-1.33023934E+02
  0
VERTEX
  8
0
 62
4
 10
-5.10310749E+01
 20
-1.33267421E+02
  0
VERTEX
  8
0
 62
4
 10
-5.11720633E+01
 20
-1.33523502E+02
  0
VERTEX
  8
0
 62
4
 10
-5.12889102E+01
 20
-1.33790227E+02
  0
VERTEX
  8
0
 62
4
 10
-5.13807264E+01
 20
-1.34065565E+02
  0
VERTEX
  8
0
 62
4
 10
-5.14468131E+01
 20
-1.34347422E+02
  0
VERTEX
  8
0
 62
4
 10
-5.14866674E+01
 20
-1.34633653E+02
  0
VERTEX
  8
0
 62
4
 10
-5.14999860E+01
 20
-1.34922079E+02
  0
VERTEX
  8
0
 62
4
 10
-5.14866674E+01
 20
-1.35210505E+02
  0
VERTEX
  8
0
 62
4
 10
-5.14468131E+01
 20
-1.35496736E+02
  0
VERTEX
  8
0
 62
4
 10
-5.13807264E+01
 20
-1.35778593E+02
  0
VERTEX
  8
0
 62
4
 10
-5.12889102E+01
 20
-1.36053931E+02
  0
VERTEX
  8
0
 62
4
 10
-5.11720633E+01
 20
-1.36320656E+02
  0
VERTEX
  8
0
 62
4
 10
-5.10310749E+01
 20
-1.36576737E+02
  0
VERTEX
  8
0
 62
4
 10
-5.08670182E+01
 20
-1.36820224E+02
  0
VERTEX
  8
0
 62
4
 10
-5.06811415E+01
 20
-1.37049266E+02
  0
VERTEX
  8
0
 62
4
 10
-5.04748597E+01
 20
-1.37262118E+02
  0
VERTEX
  8
0
 62
4
 10
-5.02497426E+01
 20
-1.37457161E+02
  0
VERTEX
  8
0
 62
4
 10
-5.00075035E+01
 20
-1.37632911E+02
  0
VERTEX
  8
0
 62
4
 10
-4.97499860E+01
 20
-1.37788030E+02
  0
VERTEX
  8
0
 62
4
 10
-4.94791499E+01
 20
-1.37921337E+02
  0
VERTEX
  8
0
 62
4
 10
-4.91970565E+01
 20
-1.38031818E+02
  0
VERTEX
  8
0
 62
4
 10
-4.89058527E+01
 20
-1.38118632E+02
  0
VERTEX
  8
0
 62
4
 10
-4.86077546E+01
 20
-1.38181118E+02
  0
VERTEX
  8
0
 62
4
 10
-4.83050311E+01
 20
-1.38218801E+02
  0
VERTEX
  8
0
 62
4
 10
-4.79999860E+01
 20
-1.38231394E+02
  0
VERTEX
  8
0
 62
4
 10
-4.76949409E+01
 20
-1.38218801E+02
  0
VERTEX
  8
0
 62
4
 10
-4.73922174E+01
 20
-1.38181118E+02
  0
VERTEX
  8
0
 62
4
 10
-4.70941193E+01
 20
-1.38118632E+02
  0
VERTEX
  8
0
 62
4
 10
-4.68029155E+01
 20
-1.38031818E+02
  0
VERTEX
  8
0
 62
4
 10
-4.65208221E+01
 20
-1.37921337E+02
  0
VERTEX
  8
0
 62
4
 10
-4.62499860E+01
 20
-1.37788030E+02
  0
VERTEX
  8
0
 62
4
 10
-4.59924685E+01
 20
-1.37632911E+02
  0
VERTEX
  8
0
 62
4
 10
-4.57502294E+01
 20
-1.37457161E+02
  0
VERTEX
  8
0
 62
4
 10
-4.55251123E+01
 20
-1.37262118E+02
  0
VERTEX
  8
0
 62
4
 10
-4.53188304E+01
 20
-1.37049266E+02
  0
VERTEX
  8
0
 62
4
 10
-4.51329538E+01
 20
-1.36820224E+02
  0
VERTEX
  8
0
 62
4
 10
-4.49688971E+01
 20
-1.36576736E+02
  0
VERTEX
  8
0
 62
4
 10
-4.48279087E+01
 20
-1.36320656E+02
  0
VERTEX
  8
0
 62
4
 10
-4.47110618E+01
 20
-1.36053931E+02
  0
VERTEX
  8
0
 62
4
 10
-4.46192456E+01
 20
-1.35778593E+02
  0
VERTEX
  8
0
 62
4
 10
-4.45531589E+01
 20
-1.35496736E+02
  0
VERTEX
  8
0
 62
4
 10
-4.45133046E+01
 20
-1.35210505E+02
  0
VERTEX
  8
0
 62
4
 10
-4.44999860E+01
 20
-1.34922079E+02
  0
SEQEND
  8
0
  0
ARC
  8
0
 62
4
 10
-5.97643910E+01
 20
-1.40602510E+02
 40
1.21769740E+01
 50
2.40462101E+02
 51
2.56878396E+02
  0
ARC
  8
0
 62
4
 10
-6.82355810E+01
 20
-1.40602510E+02
 40
1.21769740E+01
 50
2.83121604E+02
 51
2.99537899E+02
  0
LINE
  8
0
 62
4
 10
-7.14999860E+01
 20
-1.40711171E+02
 11
-5.64999860E+01
 21
-1.40711171E+02
  0
LINE
  8
0
  6
CENTER
 62
6
 10
-6.86760838E+01
 20
-1.25480577E+02
 11
-5.93238882E+01
 21
-1.25480577E+02
  0
LINE
  8
0
 62
4
 10
-6.05999860E+01
 20
-1.51151799E+02
 11
-3.84999860E+01
 21
-1.51151799E+02
  0
POLYLINE
  8
0
 62
4
 66
1
  0
VERTEX
  8
0
 62
4
 10
-6.05999860E+01
 20
-1.49182797E+02
  0
VERTEX
  8
0
 62
4
 10
-6.06136734E+01
 20
-1.49083572E+02
  0
VERTEX
  8
0
 62
4
 10
-6.06546254E+01
 20
-1.48985147E+02
  0
VERTEX
  8
0
 62
4
 10
-6.07225123E+01
 20
-1.48888312E+02
  0
VERTEX
  8
0
 62
4
 10
-6.08167874E+01
 20
-1.48793849E+02
  0
VERTEX
  8
0
 62
4
 10
-6.09366918E+01
 20
-1.48702517E+02
  0
VERTEX
  8
0
 62
4
 10
-6.10812601E+01
 20
-1.48615053E+02
  0
VERTEX
  8
0
 62
4
 10
-6.12493282E+01
 20
-1.48532159E+02
  0
VERTEX
  8
0
 62
4
 10
-6.14395430E+01
 20
-1.48454504E+02
  0
VERTEX
  8
0
 62
4
 10
-6.16503730E+01
 20
-1.48382712E+02
  0
VERTEX
  8
0
 62
4
 10
-6.18801207E+01
 20
-1.48317363E+02
  0
VERTEX
  8
0
 62
4
 10
-6.21269363E+01
 20
-1.48258981E+02
  0
VERTEX
  8
0
 62
4
 10
-6.23888325E+01
 20
-1.48208038E+02
  0
VERTEX
  8
0
 62
4
 10
-6.26637009E+01
 20
-1.48164943E+02
  0
VERTEX
  8
0
 62
4
 10
-6.29493282E+01
 20
-1.48130042E+02
  0
VERTEX
  8
0
 62
4
 10
-6.32434148E+01
 20
-1.48103618E+02
  0
VERTEX
  8
0
 62
4
 10
-6.35435929E+01
 20
-1.48085883E+02
  0
VERTEX
  8
0
 62
4
 10
-6.38474456E+01
 20
-1.48076980E+02
  0
VERTEX
  8
0
 62
4
 10
-6.41525264E+01
 20
-1.48076980E+02
  0
VERTEX
  8
0
 62
4
 10
-6.44563791E+01
 20
-1.48085883E+02
  0
VERTEX
  8
0
 62
4
 10
-6.47565572E+01
 20
-1.48103618E+02
  0
VERTEX
  8
0
 62
4
 10
-6.50506438E+01
 20
-1.48130042E+02
  0
VERTEX
  8
0
 62
4
 10
-6.53362711E+01
 20
-1.48164943E+02
  0
VERTEX
  8
0
 62
4
 10
-6.56111394E+01
 20
-1.48208038E+02
  0
VERTEX
  8
0
 62
4
 10
-6.58730357E+01
 20
-1.48258981E+02
  0
VERTEX
  8
0
 62
4
 10
-6.61198513E+01
 20
-1.48317363E+02
  0
VERTEX
  8
0
 62
4
 10
-6.63495990E+01
 20
-1.48382712E+02
  0
VERTEX
  8
0
 62
4
 10
-6.65604290E+01
 20
-1.48454504E+02
  0
VERTEX
  8
0
 62
4
 10
-6.67506438E+01
 20
-1.48532159E+02
  0
VERTEX
  8
0
 62
4
 10
-6.69187119E+01
 20
-1.48615053E+02
  0
VERTEX
  8
0
 62
4
 10
-6.70632801E+01
 20
-1.48702517E+02
  0
VERTEX
  8
0
 62
4
 10
-6.71831846E+01
 20
-1.48793849E+02
  0
VERTEX
  8
0
 62
4
 10
-6.72774597E+01
 20
-1.48888312E+02
  0
VERTEX
  8
0
 62
4
 10
-6.73453466E+01
 20
-1.48985147E+02
  0
VERTEX
  8
0
 62
4
 10
-6.73862986E+01
 20
-1.49083572E+02
  0
VERTEX
  8
0
 62
4
 10
-6.73999860E+01
 20
-1.49182797E+02
  0
SEQEND
  8
0
  0
LINE
  8
0
 62
4
 10
-6.79999860E+01
 20
-1.48710038E+02
 11
-6.79999860E+01
 21
-1.49182797E+02
  0
LINE
  8
0
 62
4
 10
-5.99999860E+01
 20
-1.48710038E+02
 11
-5.99999860E+01
 21
-1.49182797E+02
  0
POLYLINE
  8
0
 62
4
 66
1
  0
VERTEX
  8
0
 62
4
 10
-6.05999860E+01
 20
-1.49868812E+02
  0
VERTEX
  8
0
 62
4
 10
-6.04269340E+01
 20
-1.49768213E+02
  0
VERTEX
  8
0
 62
4
 10
-6.02818910E+01
 20
-1.49663026E+02
  0
VERTEX
  8
0
 62
4
 10
-6.01659942E+01
 20
-1.49554074E+02
  0
VERTEX
  8
0
 62
4
 10
-6.00801519E+01
 20
-1.49442212E+02
  0
VERTEX
  8
0
 62
4
 10
-6.00250371E+01
 20
-1.49328316E+02
  0
VERTEX
  8
0
 62
4
 10
-6.00010819E+01
 20
-1.49213279E+02
  0
VERTEX
  8
0
 62
4
 10
-6.00084741E+01
 20
-1.49098004E+02
  0
VERTEX
  8
0
 62
4
 10
-6.00471556E+01
 20
-1.48983393E+02
  0
VERTEX
  8
0
 62
4
 10
-6.01168233E+01
 20
-1.48870345E+02
  0
VERTEX
  8
0
 62
4
 10
-6.02169310E+01
 20
-1.48759747E+02
  0
VERTEX
  8
0
 62
4
 10
-6.03466941E+01
 20
-1.48652465E+02
  0
VERTEX
  8
0
 62
4
 10
-6.05050952E+01
 20
-1.48549340E+02
  0
VERTEX
  8
0
 62
4
 10
-6.06908927E+01
 20
-1.48451181E+02
  0
VERTEX
  8
0
 62
4
 10
-6.09026302E+01
 20
-1.48358757E+02
  0
VERTEX
  8
0
 62
4
 10
-6.11386478E+01
 20
-1.48272792E+02
  0
VERTEX
  8
0
 62
4
 10
-6.13970953E+01
 20
-1.48193961E+02
  0
VERTEX
  8
0
 62
4
 10
-6.16759469E+01
 20
-1.48122882E+02
  0
VERTEX
  8
0
 62
4
 10
-6.19730165E+01
 20
-1.48060111E+02
  0
VERTEX
  8
0
 62
4
 10
-6.22859756E+01
 20
-1.48006141E+02
  0
VERTEX
  8
0
 62
4
 10
-6.26123707E+01
 20
-1.47961395E+02
  0
VERTEX
  8
0
 62
4
 10
-6.29496434E+01
 20
-1.47926223E+02
  0
VERTEX
  8
0
 62
4
 10
-6.32951496E+01
 20
-1.47900901E+02
  0
VERTEX
  8
0
 62
4
 10
-6.36461811E+01
 20
-1.47885629E+02
  0
VERTEX
  8
0
 62
4
 10
-6.39999860E+01
 20
-1.47880524E+02
  0
VERTEX
  8
0
 62
4
 10
-6.43537909E+01
 20
-1.47885629E+02
  0
VERTEX
  8
0
 62
4
 10
-6.47048224E+01
 20
-1.47900901E+02
  0
VERTEX
  8
0
 62
4
 10
-6.50503286E+01
 20
-1.47926223E+02
  0
VERTEX
  8
0
 62
4
 10
-6.53876012E+01
 20
-1.47961395E+02
  0
VERTEX
  8
0
 62
4
 10
-6.57139964E+01
 20
-1.48006141E+02
  0
VERTEX
  8
0
 62
4
 10
-6.60269554E+01
 20
-1.48060111E+02
  0
VERTEX
  8
0
 62
4
 10
-6.63240251E+01
 20
-1.48122882E+02
  0
VERTEX
  8
0
 62
4
 10
-6.66028767E+01
 20
-1.48193961E+02
  0
VERTEX
  8
0
 62
4
 10
-6.68613242E+01
 20
-1.48272792E+02
  0
VERTEX
  8
0
 62
4
 10
-6.70973418E+01
 20
-1.48358757E+02
  0
VERTEX
  8
0
 62
4
 10
-6.73090792E+01
 20
-1.48451181E+02
  0
VERTEX
  8
0
 62
4
 10
-6.74948768E+01
 20
-1.48549340E+02
  0
VERTEX
  8
0
 62
4
 10
-6.76532779E+01
 20
-1.48652465E+02
  0
VERTEX
  8
0
 62
4
 10
-6.77830410E+01
 20
-1.48759747E+02
  0
VERTEX
  8
0
 62
4
 10
-6.78831487E+01
 20
-1.48870345E+02
  0
VERTEX
  8
0
 62
4
 10
-6.79528164E+01
 20
-1.48983393E+02
  0
VERTEX
  8
0
 62
4
 10
-6.79914979E+01
 20
-1.49098004E+02
  0
VERTEX
  8
0
 62
4
 10
-6.79988901E+01
 20
-1.49213279E+02
  0
VERTEX
  8
0
 62
4
 10
-6.79749349E+01
 20
-1.49328316E+02
  0
VERTEX
  8
0
 62
4
 10
-6.79198201E+01
 20
-1.49442212E+02
  0
VERTEX
  8
0
 62
4
 10
-6.78339778E+01
 20
-1.49554074E+02
  0
VERTEX
  8
0
 62
4
 10
-6.77180810E+01
 20
-1.49663026E+02
  0
VERTEX
  8
0
 62
4
 10
-6.75730380E+01
 20
-1.49768213E+02
  0
VERTEX
  8
0
 62
4
 10
-6.73999860E+01
 20
-1.49868812E+02
  0
SEQEND
  8
0
  0
POLYLINE
  8
0
 62
4
 66
1
  0
VERTEX
  8
0
 62
4
 10
-5.99999860E+01
 20
-1.48710038E+02
  0
VERTEX
  8
0
 62
4
 10
-6.00160888E+01
 20
-1.48593303E+02
  0
VERTEX
  8
0
 62
4
 10
-6.00642676E+01
 20
-1.48477508E+02
  0
VERTEX
  8
0
 62
4
 10
-6.01441346E+01
 20
-1.48363586E+02
  0
VERTEX
  8
0
 62
4
 10
-6.02550465E+01
 20
-1.48252452E+02
  0
VERTEX
  8
0
 62
4
 10
-6.03961105E+01
 20
-1.48145003E+02
  0
VERTEX
  8
0
 62
4
 10
-6.05661908E+01
 20
-1.48042103E+02
  0
VERTEX
  8
0
 62
4
 10
-6.07639180E+01
 20
-1.47944581E+02
  0
VERTEX
  8
0
 62
4
 10
-6.09877001E+01
 20
-1.47853222E+02
  0
VERTEX
  8
0
 62
4
 10
-6.12357354E+01
 20
-1.47768762E+02
  0
VERTEX
  8
0
 62
4
 10
-6.15060268E+01
 20
-1.47691880E+02
  0
VERTEX
  8
0
 62
4
 10
-6.17963981E+01
 20
-1.47623196E+02
  0
VERTEX
  8
0
 62
4
 10
-6.21045113E+01
 20
-1.47563263E+02
  0
VERTEX
  8
0
 62
4
 10
-6.24278859E+01
 20
-1.47512562E+02
  0
VERTEX
  8
0
 62
4
 10
-6.27639180E+01
 20
-1.47471503E+02
  0
VERTEX
  8
0
 62
4
 10
-6.31099023E+01
 20
-1.47440416E+02
  0
VERTEX
  8
0
 62
4
 10
-6.34630529E+01
 20
-1.47419551E+02
  0
VERTEX
  8
0
 62
4
 10
-6.38205267E+01
 20
-1.47409077E+02
  0
VERTEX
  8
0
 62
4
 10
-6.41794453E+01
 20
-1.47409077E+02
  0
VERTEX
  8
0
 62
4
 10
-6.45369191E+01
 20
-1.47419551E+02
  0
VERTEX
  8
0
 62
4
 10
-6.48900697E+01
 20
-1.47440416E+02
  0
VERTEX
  8
0
 62
4
 10
-6.52360540E+01
 20
-1.47471503E+02
  0
VERTEX
  8
0
 62
4
 10
-6.55720861E+01
 20
-1.47512562E+02
  0
VERTEX
  8
0
 62
4
 10
-6.58954606E+01
 20
-1.47563263E+02
  0
VERTEX
  8
0
 62
4
 10
-6.62035739E+01
 20
-1.47623196E+02
  0
VERTEX
  8
0
 62
4
 10
-6.64939452E+01
 20
-1.47691880E+02
  0
VERTEX
  8
0
 62
4
 10
-6.67642366E+01
 20
-1.47768762E+02
  0
VERTEX
  8
0
 62
4
 10
-6.70122719E+01
 20
-1.47853222E+02
  0
VERTEX
  8
0
 62
4
 10
-6.72360540E+01
 20
-1.47944581E+02
  0
VERTEX
  8
0
 62
4
 10
-6.74337812E+01
 20
-1.48042103E+02
  0
VERTEX
  8
0
 62
4
 10
-6.76038615E+01
 20
-1.48145003E+02
  0
VERTEX
  8
0
 62
4
 10
-6.77449255E+01
 20
-1.48252452E+02
  0
VERTEX
  8
0
 62
4
 10
-6.78558374E+01
 20
-1.48363585E+02
  0
VERTEX
  8
0
 62
4
 10
-6.79357044E+01
 20
-1.48477508E+02
  0
VERTEX
  8
0
 62
4
 10
-6.79838832E+01
 20
-1.48593303E+02
  0
VERTEX
  8
0
 62
4
 10
-6.79999860E+01
 20
-1.48710038E+02
  0
SEQEND
  8
0
  0
LINE
  8
0
  6
CENTER
 62
6
 10
-4.79999860E+01
 20
-1.28852260E+02
 11
-4.79999860E+01
 21
-1.40340762E+02
  0
LINE
  8
0
  6
CENTER
 62
6
 10
-5.37442369E+01
 20
-1.34596511E+02
 11
-4.22557350E+01
 21
-1.34596511E+02
  0
LINE
  8
0
 62
4
 10
-8.09999860E+01
 20
-1.20937087E+02
 11
-8.09999860E+01
 21
-1.33937087E+02
  0
ARC
  8
0
 62
4
 10
-8.04974834E+01
 20
-1.20939589E+02
 40
5.02508801E-01
 50
9.02853429E+01
 51
1.79714657E+02
  0
LINE
  8
0
 62
4
 10
-7.14999860E+01
 20
-1.20437087E+02
 11
-8.04999860E+01
 21
-1.20437087E+02
  0
LINE
  8
0
 62
4
 10
-9.09999860E+01
 20
-1.34800738E+02
 11
-8.59999860E+01
 21
-1.34800738E+02
  0
LINE
  8
0
 62
4
 10
-9.09999860E+01
 20
-1.32358977E+02
 11
-8.59999860E+01
 21
-1.32358977E+02
  0
LINE
  8
0
 62
4
 10
-9.09999860E+01
 20
-1.24988970E+02
 11
-8.59999860E+01
 21
-1.24988970E+02
  0
ARC
  8
0
 62
4
 10
-7.45024841E+01
 20
-1.49654297E+02
 40
1.49750400E+00
 50
1.79904421E+02
 51
2.70095579E+02
  0
LINE
  8
0
 62
4
 10
-7.44999860E+01
 20
-1.51151799E+02
 11
-6.73999860E+01
 21
-1.51151799E+02
  0
ARC
  8
0
 62
4
 10
-3.84974841E+01
 20
-1.49654301E+02
 40
1.49750021E+00
 50
2.69904276E+02
 51
9.57242462E-02
  0
POLYLINE
  8
0
 62
4
 66
1
  0
VERTEX
  8
0
 62
4
 10
-6.09999860E+01
 20
-1.25480577E+02
  0
VERTEX
  8
0
 62
4
 10
-6.10114019E+01
 20
-1.25233355E+02
  0
VERTEX
  8
0
 62
4
 10
-6.10455627E+01
 20
-1.24988014E+02
  0
VERTEX
  8
0
 62
4
 10
-6.11022085E+01
 20
-1.24746422E+02
  0
VERTEX
  8
0
 62
4
 10
-6.11809081E+01
 20
-1.24510418E+02
  0
VERTEX
  8
0
 62
4
 10
-6.12810626E+01
 20
-1.24281797E+02
  0
VERTEX
  8
0
 62
4
 10
-6.14019098E+01
 20
-1.24062299E+02
  0
VERTEX
  8
0
 62
4
 10
-6.15425299E+01
 20
-1.23853595E+02
  0
VERTEX
  8
0
 62
4
 10
-6.17018527E+01
 20
-1.23657274E+02
  0
VERTEX
  8
0
 62
4
 10
-6.18786657E+01
 20
-1.23474829E+02
  0
VERTEX
  8
0
 62
4
 10
-6.20716232E+01
 20
-1.23307649E+02
  0
VERTEX
  8
0
 62
4
 10
-6.22792567E+01
 20
-1.23157007E+02
  0
VERTEX
  8
0
 62
4
 10
-6.24999860E+01
 20
-1.23024048E+02
  0
VERTEX
  8
0
 62
4
 10
-6.27321312E+01
 20
-1.22909784E+02
  0
VERTEX
  8
0
 62
4
 10
-6.29739256E+01
 20
-1.22815087E+02
  0
VERTEX
  8
0
 62
4
 10
-6.32235289E+01
 20
-1.22740675E+02
  0
VERTEX
  8
0
 62
4
 10
-6.34790415E+01
 20
-1.22687115E+02
  0
VERTEX
  8
0
 62
4
 10
-6.37385188E+01
 20
-1.22654815E+02
  0
VERTEX
  8
0
 62
4
 10
-6.39999860E+01
 20
-1.22644021E+02
  0
VERTEX
  8
0
 62
4
 10
-6.42614532E+01
 20
-1.22654815E+02
  0
VERTEX
  8
0
 62
4
 10
-6.45209305E+01
 20
-1.22687115E+02
  0
VERTEX
  8
0
 62
4
 10
-6.47764431E+01
 20
-1.22740675E+02
  0
VERTEX
  8
0
 62
4
 10
-6.50260464E+01
 20
-1.22815087E+02
  0
VERTEX
  8
0
 62
4
 10
-6.52678408E+01
 20
-1.22909784E+02
  0
VERTEX
  8
0
 62
4
 10
-6.54999860E+01
 20
-1.23024048E+02
  0
VERTEX
  8
0
 62
4
 10
-6.57207153E+01
 20
-1.23157007E+02
  0
VERTEX
  8
0
 62
4
 10
-6.59283488E+01
 20
-1.23307649E+02
  0
VERTEX
  8
0
 62
4
 10
-6.61213063E+01
 20
-1.23474829E+02
  0
VERTEX
  8
0
 62
4
 10
-6.62981193E+01
 20
-1.23657274E+02
  0
VERTEX
  8
0
 62
4
 10
-6.64574421E+01
 20
-1.23853595E+02
  0
VERTEX
  8
0
 62
4
 10
-6.65980622E+01
 20
-1.24062299E+02
  0
VERTEX
  8
0
 62
4
 10
-6.67189094E+01
 20
-1.24281797E+02
  0
VERTEX
  8
0
 62
4
 10
-6.68190639E+01
 20
-1.24510418E+02
  0
VERTEX
  8
0
 62
4
 10
-6.68977635E+01
 20
-1.24746422E+02
  0
VERTEX
  8
0
 62
4
 10
-6.69544093E+01
 20
-1.24988014E+02
  0
VERTEX
  8
0
 62
4
 10
-6.69885701E+01
 20
-1.25233355E+02
  0
VERTEX
  8
0
 62
4
 10
-6.69999860E+01
 20
-1.25480577E+02
  0
VERTEX
  8
0
 62
4
 10
-6.69885701E+01
 20
-1.25727799E+02
  0
VERTEX
  8
0
 62
4
 10
-6.69544093E+01
 20
-1.25973140E+02
  0
VERTEX
  8
0
 62
4
 10
-6.68977635E+01
 20
-1.26214732E+02
  0
VERTEX
  8
0
 62
4
 10
-6.68190639E+01
 20
-1.26450736E+02
  0
VERTEX
  8
0
 62
4
 10
-6.67189094E+01
 20
-1.26679357E+02
  0
VERTEX
  8
0
 62
4
 10
-6.65980622E+01
 20
-1.26898855E+02
  0
VERTEX
  8
0
 62
4
 10
-6.64574421E+01
 20
-1.27107559E+02
  0
VERTEX
  8
0
 62
4
 10
-6.62981193E+01
 20
-1.27303880E+02
  0
VERTEX
  8
0
 62
4
 10
-6.61213063E+01
 20
-1.27486325E+02
  0
VERTEX
  8
0
 62
4
 10
-6.59283488E+01
 20
-1.27653505E+02
  0
VERTEX
  8
0
 62
4
 10
-6.57207153E+01
 20
-1.27804147E+02
  0
VERTEX
  8
0
 62
4
 10
-6.54999860E+01
 20
-1.27937106E+02
  0
VERTEX
  8
0
 62
4
 10
-6.52678408E+01
 20
-1.28051370E+02
  0
VERTEX
  8
0
 62
4
 10
-6.50260464E+01
 20
-1.28146067E+02
  0
VERTEX
  8
0
 62
4
 10
-6.47764431E+01
 20
-1.28220479E+02
  0
VERTEX
  8
0
 62
4
 10
-6.45209305E+01
 20
-1.28274039E+02
  0
VERTEX
  8
0
 62
4
 10
-6.42614532E+01
 20
-1.28306339E+02
  0
VERTEX
  8
0
 62
4
 10
-6.39999860E+01
 20
-1.28317133E+02
  0
VERTEX
  8
0
 62
4
 10
-6.37385188E+01
 20
-1.28306339E+02
  0
VERTEX
  8
0
 62
4
 10
-6.34790415E+01
 20
-1.28274039E+02
  0
VERTEX
  8
0
 62
4
 10
-6.32235289E+01
 20
-1.28220479E+02
  0
VERTEX
  8
0
 62
4
 10
-6.29739256E+01
 20
-1.28146067E+02
  0
VERTEX
  8
0
 62
4
 10
-6.27321312E+01
 20
-1.28051370E+02
  0
VERTEX
  8
0
 62
4
 10
-6.24999860E+01
 20
-1.27937106E+02
  0
VERTEX
  8
0
 62
4
 10
-6.22792567E+01
 20
-1.27804147E+02
  0
VERTEX
  8
0
 62
4
 10
-6.20716232E+01
 20
-1.27653505E+02
  0
VERTEX
  8
0
 62
4
 10
-6.18786657E+01
 20
-1.27486325E+02
  0
VERTEX
  8
0
 62
4
 10
-6.17018527E+01
 20
-1.27303880E+02
  0
VERTEX
  8
0
 62
4
 10
-6.15425299E+01
 20
-1.27107559E+02
  0
VERTEX
  8
0
 62
4
 10
-6.14019098E+01
 20
-1.26898855E+02
  0
VERTEX
  8
0
 62
4
 10
-6.12810626E+01
 20
-1.26679357E+02
  0
VERTEX
  8
0
 62
4
 10
-6.11809081E+01
 20
-1.26450736E+02
  0
VERTEX
  8
0
 62
4
 10
-6.11022085E+01
 20
-1.26214732E+02
  0
VERTEX
  8
0
 62
4
 10
-6.10455627E+01
 20
-1.25973140E+02
  0
VERTEX
  8
0
 62
4
 10
-6.10114019E+01
 20
-1.25727799E+02
  0
VERTEX
  8
0
 62
4
 10
-6.09999860E+01
 20
-1.25480577E+02
  0
SEQEND
  8
0
  0
LINE
  8
0
 62
4
 10
-5.64999860E+01
 20
-1.24637355E+02
 11
-5.44999860E+01
 21
-1.24637355E+02
  0
LINE
  8
0
 62
4
 10
-7.34999860E+01
 20
-1.42602208E+02
 11
-5.44999860E+01
 21
-1.42602208E+02
  0
LINE
  8
0
 62
4
 10
-7.14999860E+01
 20
-1.18389188E+02
 11
-5.64999860E+01
 21
-1.18389188E+02
  0
ARC
  8
0
 62
4
 10
-8.05024761E+01
 20
-1.33939577E+02
 40
4.97516125E-01
 50
1.79713229E+02
 51
2.70286771E+02
  0
ARC
  8
0
 62
4
 10
-3.85024921E+01
 20
-1.25756058E+02
 40
1.50250815E+00
 50
9.55645858E-02
 51
8.99044354E+01
  0
LINE
  8
0
 62
4
 10
-7.44999860E+01
 20
-1.46268277E+02
 11
-3.84999860E+01
 21
-1.46268277E+02
  0
LINE
  8
0
 62
4
 10
-5.64999860E+01
 20
-1.24253552E+02
 11
-3.84999860E+01
 21
-1.24253552E+02
  0
LINE
  8
0
 62
4
 10
-7.59999860E+01
 20
-1.34437087E+02
 11
-7.59999860E+01
 21
-1.49500031E+02
  0
LINE
  8
0
 62
4
 10
-5.44999860E+01
 20
-1.24637355E+02
 11
-5.44999860E+01
 21
-1.43904480E+02
  0
LINE
  8
0
 62
4
 10
-7.34999860E+01
 20
-1.43904480E+02
 11
-7.34999860E+01
 21
-1.34437087E+02
  0
LINE
  8
0
 62
4
 10
-3.69999860E+01
 20
-1.25753552E+02
 11
-3.69999860E+01
 21
-1.49651799E+02
  0
LINE
  8
0
 62
4
 10
-9.09999860E+01
 20
-1.20067235E+02
 11
-8.59999860E+01
 21
-1.20067235E+02
  0
LINE
  8
0
 62
4
 10
-7.14999860E+01
 20
-1.32571967E+02
 11
-5.64999860E+01
 21
-1.32571967E+02
  0
LINE
  8
0
 62
4
 10
-8.44999860E+01
 20
-1.33187087E+02
 11
-8.09999860E+01
 21
-1.33187087E+02
  0
LINE
  8
0
 62
4
 10
-8.44999860E+01
 20
-1.21687087E+02
 11
-8.09999860E+01
 21
-1.21687087E+02
  0
LINE
  8
0
 62
4
 10
-8.44999860E+01
 20
-1.21187087E+02
 11
-8.44999860E+01
 21
-1.33687087E+02
  0
LINE
  8
0
 62
4
 10
-8.59999860E+01
 20
-1.33687087E+02
 11
-8.09999860E+01
 21
-1.33687087E+02
  0
LINE
  8
0
 62
4
 10
-8.59999860E+01
 20
-1.21187087E+02
 11
-8.09999860E+01
 21
-1.21187087E+02
  0
LINE
  8
0
 62
4
 10
-8.59999860E+01
 20
-1.20067235E+02
 11
-8.59999860E+01
 21
-1.34800738E+02
  0
LINE
  8
0
 62
4
 10
-9.09999860E+01
 20
-1.34800738E+02
 11
-9.09999860E+01
 21
-1.20067235E+02
  0
LINE
  8
0
 62
4
 10
-8.04999860E+01
 20
-1.34437087E+02
 11
-7.14999860E+01
 21
-1.34437087E+02
  0
LINE
  8
0
  6
CENTER
 62
6
 10
-6.39999860E+01
 20
-1.10612901E+02
 11
-6.39999860E+01
 21
-1.60600000E+02
  0
LINE
  8
0
 62
4
 10
-6.73999860E+01
 20
-1.51151799E+02
 11
-6.73999860E+01
 21
-1.49182797E+02
  0
LINE
  8
0
 62
4
 10
-6.05999860E+01
 20
-1.49182797E+02
 11
-6.05999860E+01
 21
-1.51157778E+02
  0
LINE
  8
0
 62
6
 10
-6.64999860E+01
 20
-1.10752406E+02
 11
-6.64999860E+01
 21
-1.11922406E+02
  0
LINE
  8
0
 62
4
 10
-6.99999860E+01
 20
-1.11752406E+02
 11
-6.97399860E+01
 21
-1.10752406E+02
  0
LINE
  8
0
 62
4
 10
-6.59999860E+01
 20
-1.11752406E+02
 11
-6.62699860E+01
 21
-1.10752406E+02
  0
LINE
  8
0
 62
4
 10
-6.62699860E+01
 20
-1.10752406E+02
 11
-6.97399860E+01
 21
-1.10752406E+02
  0
LINE
  8
0
 62
4
 10
-6.99999860E+01
 20
-1.11752406E+02
 11
-6.99999860E+01
 21
-1.11922406E+02
  0
LINE
  8
0
 62
4
 10
-6.59999860E+01
 20
-1.11752406E+02
 11
-6.59999860E+01
 21
-1.11922406E+02
  0
LINE
  8
0
 62
6
 10
-6.94999860E+01
 20
-1.10752406E+02
 11
-6.94999860E+01
 21
-1.11922406E+02
  0
LINE
  8
0
  6
CENTER
 62
6
 10
-6.79999860E+01
 20
-1.08922406E+02
 11
-6.79999860E+01
 21
-1.19422406E+02
  0
LINE
  8
0
 62
4
 10
-5.64999860E+01
 20
-1.11922406E+02
 11
-7.14999860E+01
 21
-1.11922406E+02
  0
LINE
  8
0
 62
4
 10
-5.64999860E+01
 20
-1.11922406E+02
 11
-5.64999860E+01
 21
-1.40711171E+02
  0
LINE
  8
0
 62
4
 10
-7.14999860E+01
 20
-1.11922406E+02
 11
-7.14999860E+01
 21
-1.40711171E+02
  0
LINE
  8
0
 62
6
 10
-6.14999860E+01
 20
-1.10752406E+02
 11
-6.14999860E+01
 21
-1.11922406E+02
  0
LINE
  8
0
 62
6
 10
-5.84999860E+01
 20
-1.10752406E+02
 11
-5.84999860E+01
 21
-1.11922406E+02
  0
LINE
  8
0
 62
4
 10
-6.19999860E+01
 20
-1.11752406E+02
 11
-6.17399860E+01
 21
-1.10752406E+02
  0
LINE
  8
0
 62
4
 10
-5.79999860E+01
 20
-1.11752406E+02
 11
-5.82699860E+01
 21
-1.10752406E+02
  0
LINE
  8
0
 62
4
 10
-5.82699860E+01
 20
-1.10752406E+02
 11
-6.17399860E+01
 21
-1.10752406E+02
  0
LINE
  8
0
 62
4
 10
-6.19999860E+01
 20
-1.11752406E+02
 11
-6.19999860E+01
 21
-1.11922406E+02
  0
LINE
  8
0
 62
4
 10
-5.79999860E+01
 20
-1.11752406E+02
 11
-5.79999860E+01
 21
-1.11922406E+02
  0
LINE
  8
0
  6
CENTER
 62
6
 10
-5.99999860E+01
 20
-1.08922406E+02
 11
-5.99999860E+01
 21
-1.19422406E+02
  0
LINE
  8
0
 62
4
 10
3.30859901E+02
 20
-2.76261056E+02
 11
3.30531305E+02
 21
-2.77054271E+02
  0
LINE
  8
0
 62
4
 10
3.37139901E+02
 20
-2.76261056E+02
 11
3.37499901E+02
 21
-2.77206574E+02
  0
POLYLINE
  8
0
 62
4
 66
1
  0
VERTEX
  8
0
 62
4
 10
3.30531305E+02
 20
-2.77054271E+02
  0
VERTEX
  8
0
 62
4
 10
3.30503528E+02
 20
-2.77154712E+02
  0
VERTEX
  8
0
 62
4
 10
3.30503137E+02
 20
-2.77255559E+02
  0
VERTEX
  8
0
 62
4
 10
3.30530134E+02
 20
-2.77356023E+02
  0
VERTEX
  8
0
 62
4
 10
3.30584309E+02
 20
-2.77455316E+02
  0
VERTEX
  8
0
 62
4
 10
3.30665237E+02
 20
-2.77552660E+02
  0
VERTEX
  8
0
 62
4
 10
3.30772285E+02
 20
-2.77647294E+02
  0
VERTEX
  8
0
 62
4
 10
3.30904613E+02
 20
-2.77738476E+02
  0
VERTEX
  8
0
 62
4
 10
3.31061185E+02
 20
-2.77825492E+02
  0
VERTEX
  8
0
 62
4
 10
3.31240776E+02
 20
-2.77907660E+02
  0
VERTEX
  8
0
 62
4
 10
3.31441977E+02
 20
-2.77984336E+02
  0
VERTEX
  8
0
 62
4
 10
3.31663214E+02
 20
-2.78054921E+02
  0
VERTEX
  8
0
 62
4
 10
3.31902754E+02
 20
-2.78118861E+02
  0
VERTEX
  8
0
 62
4
 10
3.32158719E+02
 20
-2.78175655E+02
  0
VERTEX
  8
0
 62
4
 10
3.32429106E+02
 20
-2.78224859E+02
  0
VERTEX
  8
0
 62
4
 10
3.32711797E+02
 20
-2.78266086E+02
  0
VERTEX
  8
0
 62
4
 10
3.33004577E+02
 20
-2.78299015E+02
  0
VERTEX
  8
0
 62
4
 10
3.33305152E+02
 20
-2.78323388E+02
  0
VERTEX
  8
0
 62
4
 10
3.33611170E+02
 20
-2.78339013E+02
  0
VERTEX
  8
0
 62
4
 10
3.33920232E+02
 20
-2.78345767E+02
  0
VERTEX
  8
0
 62
4
 10
3.34229918E+02
 20
-2.78343599E+02
  0
VERTEX
  8
0
 62
4
 10
3.34537803E+02
 20
-2.78332525E+02
  0
VERTEX
  8
0
 62
4
 10
3.34841474E+02
 20
-2.78312632E+02
  0
VERTEX
  8
0
 62
4
 10
3.35138554E+02
 20
-2.78284075E+02
  0
VERTEX
  8
0
 62
4
 10
3.35426715E+02
 20
-2.78247079E+02
  0
VERTEX
  8
0
 62
4
 10
3.35703700E+02
 20
-2.78201933E+02
  0
VERTEX
  8
0
 62
4
 10
3.35967340E+02
 20
-2.78148990E+02
  0
VERTEX
  8
0
 62
4
 10
3.36215570E+02
 20
-2.78088666E+02
  0
VERTEX
  8
0
 62
4
 10
3.36446445E+02
 20
-2.78021433E+02
  0
VERTEX
  8
0
 62
4
 10
3.36658158E+02
 20
-2.77947817E+02
  0
VERTEX
  8
0
 62
4
 10
3.36849049E+02
 20
-2.77868395E+02
  0
VERTEX
  8
0
 62
4
 10
3.37017623E+02
 20
-2.77783790E+02
  0
VERTEX
  8
0
 62
4
 10
3.37162561E+02
 20
-2.77694663E+02
  0
VERTEX
  8
0
 62
4
 10
3.37282727E+02
 20
-2.77601714E+02
  0
VERTEX
  8
0
 62
4
 10
3.37377180E+02
 20
-2.77505669E+02
  0
VERTEX
  8
0
 62
4
 10
3.37445180E+02
 20
-2.77407282E+02
  0
VERTEX
  8
0
 62
4
 10
3.37486194E+02
 20
-2.77307323E+02
  0
VERTEX
  8
0
 62
4
 10
3.37499901E+02
 20
-2.77206574E+02
  0
SEQEND
  8
0
  0
POLYLINE
  8
0
 62
4
 66
1
  0
VERTEX
  8
0
 62
4
 10
3.37139901E+02
 20
-2.76261056E+02
  0
VERTEX
  8
0
 62
4
 10
3.37127952E+02
 20
-2.76171958E+02
  0
VERTEX
  8
0
 62
4
 10
3.37092197E+02
 20
-2.76083538E+02
  0
VERTEX
  8
0
 62
4
 10
3.37032908E+02
 20
-2.75996469E+02
  0
VERTEX
  8
0
 62
4
 10
3.36950536E+02
 20
-2.75911414E+02
  0
VERTEX
  8
0
 62
4
 10
3.36845707E+02
 20
-2.75829020E+02
  0
VERTEX
  8
0
 62
4
 10
3.36719221E+02
 20
-2.75749914E+02
  0
VERTEX
  8
0
 62
4
 10
3.36572038E+02
 20
-2.75674698E+02
  0
VERTEX
  8
0
 62
4
 10
3.36405281E+02
 20
-2.75603945E+02
  0
VERTEX
  8
0
 62
4
 10
3.36220216E+02
 20
-2.75538192E+02
  0
VERTEX
  8
0
 62
4
 10
3.36018254E+02
 20
-2.75477941E+02
  0
VERTEX
  8
0
 62
4
 10
3.35800931E+02
 20
-2.75423650E+02
  0
VERTEX
  8
0
 62
4
 10
3.35569901E+02
 20
-2.75375732E+02
  0
VERTEX
  8
0
 62
4
 10
3.35326922E+02
 20
-2.75334552E+02
  0
VERTEX
  8
0
 62
4
 10
3.35073844E+02
 20
-2.75300423E+02
  0
VERTEX
  8
0
 62
4
 10
3.34812593E+02
 20
-2.75273605E+02
  0
VERTEX
  8
0
 62
4
 10
3.34545156E+02
 20
-2.75254303E+02
  0
VERTEX
  8
0
 62
4
 10
3.34273570E+02
 20
-2.75242662E+02
  0
VERTEX
  8
0
 62
4
 10
3.33999901E+02
 20
-2.75238772E+02
  0
VERTEX
  8
0
 62
4
 10
3.33726232E+02
 20
-2.75242662E+02
  0
VERTEX
  8
0
 62
4
 10
3.33454646E+02
 20
-2.75254303E+02
  0
VERTEX
  8
0
 62
4
 10
3.33187209E+02
 20
-2.75273605E+02
  0
VERTEX
  8
0
 62
4
 10
3.32925958E+02
 20
-2.75300423E+02
  0
VERTEX
  8
0
 62
4
 10
3.32672880E+02
 20
-2.75334552E+02
  0
VERTEX
  8
0
 62
4
 10
3.32429901E+02
 20
-2.75375732E+02
  0
VERTEX
  8
0
 62
4
 10
3.32198871E+02
 20
-2.75423650E+02
  0
VERTEX
  8
0
 62
4
 10
3.31981548E+02
 20
-2.75477941E+02
  0
VERTEX
  8
0
 62
4
 10
3.31779586E+02
 20
-2.75538192E+02
  0
VERTEX
  8
0
 62
4
 10
3.31594521E+02
 20
-2.75603945E+02
  0
VERTEX
  8
0
 62
4
 10
3.31427764E+02
 20
-2.75674698E+02
  0
VERTEX
  8
0
 62
4
 10
3.31280581E+02
 20
-2.75749914E+02
  0
VERTEX
  8
0
 62
4
 10
3.31154095E+02
 20
-2.75829020E+02
  0
VERTEX
  8
0
 62
4
 10
3.31049266E+02
 20
-2.75911414E+02
  0
VERTEX
  8
0
 62
4
 10
3.30966894E+02
 20
-2.75996469E+02
  0
VERTEX
  8
0
 62
4
 10
3.30907605E+02
 20
-2.76083538E+02
  0
VERTEX
  8
0
 62
4
 10
3.30871850E+02
 20
-2.76171958E+02
  0
VERTEX
  8
0
 62
4
 10
3.30859901E+02
 20
-2.76261056E+02
  0
VERTEX
  8
0
 62
4
 10
3.30871850E+02
 20
-2.76350154E+02
  0
VERTEX
  8
0
 62
4
 10
3.30907605E+02
 20
-2.76438574E+02
  0
VERTEX
  8
0
 62
4
 10
3.30966894E+02
 20
-2.76525643E+02
  0
VERTEX
  8
0
 62
4
 10
3.31049266E+02
 20
-2.76610698E+02
  0
VERTEX
  8
0
 62
4
 10
3.31154095E+02
 20
-2.76693092E+02
  0
VERTEX
  8
0
 62
4
 10
3.31280581E+02
 20
-2.76772198E+02
  0
VERTEX
  8
0
 62
4
 10
3.31427764E+02
 20
-2.76847414E+02
  0
VERTEX
  8
0
 62
4
 10
3.31594521E+02
 20
-2.76918167E+02
  0
VERTEX
  8
0
 62
4
 10
3.31779586E+02
 20
-2.76983920E+02
  0
VERTEX
  8
0
 62
4
 10
3.31981548E+02
 20
-2.77044171E+02
  0
VERTEX
  8
0
 62
4
 10
3.32198871E+02
 20
-2.77098462E+02
  0
VERTEX
  8
0
 62
4
 10
3.32429901E+02
 20
-2.77146380E+02
  0
VERTEX
  8
0
 62
4
 10
3.32672880E+02
 20
-2.77187560E+02
  0
VERTEX
  8
0
 62
4
 10
3.32925958E+02
 20
-2.77221689E+02
  0
VERTEX
  8
0
 62
4
 10
3.33187209E+02
 20
-2.77248507E+02
  0
VERTEX
  8
0
 62
4
 10
3.33454646E+02
 20
-2.77267809E+02
  0
VERTEX
  8
0
 62
4
 10
3.33726232E+02
 20
-2.77279450E+02
  0
VERTEX
  8
0
 62
4
 10
3.33999901E+02
 20
-2.77283340E+02
  0
VERTEX
  8
0
 62
4
 10
3.34273570E+02
 20
-2.77279450E+02
  0
VERTEX
  8
0
 62
4
 10
3.34545156E+02
 20
-2.77267809E+02
  0
VERTEX
  8
0
 62
4
 10
3.34812593E+02
 20
-2.77248507E+02
  0
VERTEX
  8
0
 62
4
 10
3.35073844E+02
 20
-2.77221689E+02
  0
VERTEX
  8
0
 62
4
 10
3.35326922E+02
 20
-2.77187560E+02
  0
VERTEX
  8
0
 62
4
 10
3.35569901E+02
 20
-2.77146380E+02
  0
VERTEX
  8
0
 62
4
 10
3.35800931E+02
 20
-2.77098462E+02
  0
VERTEX
  8
0
 62
4
 10
3.36018254E+02
 20
-2.77044171E+02
  0
VERTEX
  8
0
 62
4
 10
3.36220216E+02
 20
-2.76983920E+02
  0
VERTEX
  8
0
 62
4
 10
3.36405281E+02
 20
-2.76918167E+02
  0
VERTEX
  8
0
 62
4
 10
3.36572038E+02
 20
-2.76847414E+02
  0
VERTEX
  8
0
 62
4
 10
3.36719221E+02
 20
-2.76772198E+02
  0
VERTEX
  8
0
 62
4
 10
3.36845707E+02
 20
-2.76693092E+02
  0
VERTEX
  8
0
 62
4
 10
3.36950536E+02
 20
-2.76610698E+02
  0
VERTEX
  8
0
 62
4
 10
3.37032908E+02
 20
-2.76525643E+02
  0
VERTEX
  8
0
 62
4
 10
3.37092197E+02
 20
-2.76438574E+02
  0
VERTEX
  8
0
 62
4
 10
3.37127952E+02
 20
-2.76350154E+02
  0
VERTEX
  8
0
 62
4
 10
3.37139901E+02
 20
-2.76261056E+02
  0
SEQEND
  8
0
  0
LINE
  8
0
  6
CENTER
 62
6
 10
3.33999901E+02
 20
-2.73601531E+02
 11
3.33999901E+02
 21
-2.76261056E+02
  0
LINE
  8
0
 62
4
 10
3.60499901E+02
 20
-2.78702735E+02
 11
3.60499901E+02
 21
-2.75075950E+02
  0
LINE
  8
0
 62
4
 10
3.42499901E+02
 20
-2.73976117E+02
 11
3.24499901E+02
 21
-2.73976117E+02
  0
LINE
  8
0
 62
4
 10
3.24499901E+02
 20
-2.78702735E+02
 11
3.24499901E+02
 21
-2.75075950E+02
  0
ARC
  8
0
 62
4
 10
3.60502387E+02
 20
-2.75473630E+02
 40
1.49751542E+00
 50
3.59904859E+02
 51
9.00951404E+01
  0
LINE
  8
0
 62
4
 10
3.60499901E+02
 20
-2.73976117E+02
 11
3.57499901E+02
 21
-2.73976117E+02
  0
ARC
  8
0
 62
4
 10
3.24497414E+02
 20
-2.75473630E+02
 40
1.49751542E+00
 50
8.99048594E+01
 51
1.80095141E+02
  0
POLYLINE
  8
0
 62
6
 66
1
  0
VERTEX
  8
0
 62
6
 10
3.55499901E+02
 20
-3.08024562E+02
  0
VERTEX
  8
0
 62
6
 10
3.55494193E+02
 20
-3.07900951E+02
  0
VERTEX
  8
0
 62
6
 10
3.55477113E+02
 20
-3.07778281E+02
  0
VERTEX
  8
0
 62
6
 10
3.55448790E+02
 20
-3.07657485E+02
  0
VERTEX
  8
0
 62
6
 10
3.55409440E+02
 20
-3.07539482E+02
  0
VERTEX
  8
0
 62
6
 10
3.55359363E+02
 20
-3.07425172E+02
  0
VERTEX
  8
0
 62
6
 10
3.55298939E+02
 20
-3.07315423E+02
  0
VERTEX
  8
0
 62
6
 10
3.55228629E+02
 20
-3.07211071E+02
  0
VERTEX
  8
0
 62
6
 10
3.55148968E+02
 20
-3.07112911E+02
  0
VERTEX
  8
0
 62
6
 10
3.55060561E+02
 20
-3.07021688E+02
  0
VERTEX
  8
0
 62
6
 10
3.54964082E+02
 20
-3.06938098E+02
  0
VERTEX
  8
0
 62
6
 10
3.54860266E+02
 20
-3.06862777E+02
  0
VERTEX
  8
0
 62
6
 10
3.54749901E+02
 20
-3.06796297E+02
  0
VERTEX
  8
0
 62
6
 10
3.54633828E+02
 20
-3.06739166E+02
  0
VERTEX
  8
0
 62
6
 10
3.54512931E+02
 20
-3.06691817E+02
  0
VERTEX
  8
0
 62
6
 10
3.54388130E+02
 20
-3.06654611E+02
  0
VERTEX
  8
0
 62
6
 10
3.54260373E+02
 20
-3.06627831E+02
  0
VERTEX
  8
0
 62
6
 10
3.54130635E+02
 20
-3.06611681E+02
  0
VERTEX
  8
0
 62
6
 10
3.53999901E+02
 20
-3.06606284E+02
  0
VERTEX
  8
0
 62
6
 10
3.53869167E+02
 20
-3.06611681E+02
  0
VERTEX
  8
0
 62
6
 10
3.53739429E+02
 20
-3.06627831E+02
  0
VERTEX
  8
0
 62
6
 10
3.53611672E+02
 20
-3.06654611E+02
  0
VERTEX
  8
0
 62
6
 10
3.53486871E+02
 20
-3.06691817E+02
  0
VERTEX
  8
0
 62
6
 10
3.53365974E+02
 20
-3.06739166E+02
  0
VERTEX
  8
0
 62
6
 10
3.53249901E+02
 20
-3.06796297E+02
  0
VERTEX
  8
0
 62
6
 10
3.53139536E+02
 20
-3.06862777E+02
  0
VERTEX
  8
0
 62
6
 10
3.53035720E+02
 20
-3.06938098E+02
  0
VERTEX
  8
0
 62
6
 10
3.52939241E+02
 20
-3.07021688E+02
  0
VERTEX
  8
0
 62
6
 10
3.52850834E+02
 20
-3.07112911E+02
  0
VERTEX
  8
0
 62
6
 10
3.52771173E+02
 20
-3.07211071E+02
  0
VERTEX
  8
0
 62
6
 10
3.52700863E+02
 20
-3.07315423E+02
  0
VERTEX
  8
0
 62
6
 10
3.52640439E+02
 20
-3.07425172E+02
  0
VERTEX
  8
0
 62
6
 10
3.52590362E+02
 20
-3.07539482E+02
  0
VERTEX
  8
0
 62
6
 10
3.52551012E+02
 20
-3.07657485E+02
  0
VERTEX
  8
0
 62
6
 10
3.52522689E+02
 20
-3.07778281E+02
  0
VERTEX
  8
0
 62
6
 10
3.52505609E+02
 20
-3.07900951E+02
  0
VERTEX
  8
0
 62
6
 10
3.52499901E+02
 20
-3.08024562E+02
  0
VERTEX
  8
0
 62
6
 10
3.52505609E+02
 20
-3.08148173E+02
  0
VERTEX
  8
0
 62
6
 10
3.52522689E+02
 20
-3.08270843E+02
  0
VERTEX
  8
0
 62
6
 10
3.52551012E+02
 20
-3.08391639E+02
  0
VERTEX
  8
0
 62
6
 10
3.52590362E+02
 20
-3.08509642E+02
  0
VERTEX
  8
0
 62
6
 10
3.52640439E+02
 20
-3.08623952E+02
  0
VERTEX
  8
0
 62
6
 10
3.52700863E+02
 20
-3.08733701E+02
  0
VERTEX
  8
0
 62
6
 10
3.52771173E+02
 20
-3.08838053E+02
  0
VERTEX
  8
0
 62
6
 10
3.52850834E+02
 20
-3.08936213E+02
  0
VERTEX
  8
0
 62
6
 10
3.52939241E+02
 20
-3.09027436E+02
  0
VERTEX
  8
0
 62
6
 10
3.53035720E+02
 20
-3.09111026E+02
  0
VERTEX
  8
0
 62
6
 10
3.53139536E+02
 20
-3.09186347E+02
  0
VERTEX
  8
0
 62
6
 10
3.53249901E+02
 20
-3.09252827E+02
  0
VERTEX
  8
0
 62
6
 10
3.53365974E+02
 20
-3.09309958E+02
  0
VERTEX
  8
0
 62
6
 10
3.53486871E+02
 20
-3.09357307E+02
  0
VERTEX
  8
0
 62
6
 10
3.53611672E+02
 20
-3.09394513E+02
  0
VERTEX
  8
0
 62
6
 10
3.53739429E+02
 20
-3.09421293E+02
  0
VERTEX
  8
0
 62
6
 10
3.53869167E+02
 20
-3.09437443E+02
  0
VERTEX
  8
0
 62
6
 10
3.53999901E+02
 20
-3.09442840E+02
  0
VERTEX
  8
0
 62
6
 10
3.54130635E+02
 20
-3.09437443E+02
  0
VERTEX
  8
0
 62
6
 10
3.54260373E+02
 20
-3.09421293E+02
  0
VERTEX
  8
0
 62
6
 10
3.54388130E+02
 20
-3.09394513E+02
  0
VERTEX
  8
0
 62
6
 10
3.54512931E+02
 20
-3.09357307E+02
  0
VERTEX
  8
0
 62
6
 10
3.54633828E+02
 20
-3.09309958E+02
  0
VERTEX
  8
0
 62
6
 10
3.54749901E+02
 20
-3.09252827E+02
  0
VERTEX
  8
0
 62
6
 10
3.54860266E+02
 20
-3.09186347E+02
  0
VERTEX
  8
0
 62
6
 10
3.54964082E+02
 20
-3.09111026E+02
  0
VERTEX
  8
0
 62
6
 10
3.55060561E+02
 20
-3.09027436E+02
  0
VERTEX
  8
0
 62
6
 10
3.55148968E+02
 20
-3.08936213E+02
  0
VERTEX
  8
0
 62
6
 10
3.55228629E+02
 20
-3.08838053E+02
  0
VERTEX
  8
0
 62
6
 10
3.55298939E+02
 20
-3.08733701E+02
  0
VERTEX
  8
0
 62
6
 10
3.55359363E+02
 20
-3.08623952E+02
  0
VERTEX
  8
0
 62
6
 10
3.55409440E+02
 20
-3.08509642E+02
  0
VERTEX
  8
0
 62
6
 10
3.55448790E+02
 20
-3.08391639E+02
  0
VERTEX
  8
0
 62
6
 10
3.55477113E+02
 20
-3.08270843E+02
  0
VERTEX
  8
0
 62
6
 10
3.55494193E+02
 20
-3.08148173E+02
  0
VERTEX
  8
0
 62
6
 10
3.55499901E+02
 20
-3.08024562E+02
  0
SEQEND
  8
0
  0
POLYLINE
  8
0
 62
4
 66
1
  0
VERTEX
  8
0
 62
4
 10
3.55734901E+02
 20
-3.08024562E+02
  0
VERTEX
  8
0
 62
4
 10
3.55728299E+02
 20
-3.07881997E+02
  0
VERTEX
  8
0
 62
4
 10
3.55708542E+02
 20
-3.07740517E+02
  0
VERTEX
  8
0
 62
4
 10
3.55675782E+02
 20
-3.07601199E+02
  0
VERTEX
  8
0
 62
4
 10
3.55630268E+02
 20
-3.07465104E+02
  0
VERTEX
  8
0
 62
4
 10
3.55572345E+02
 20
-3.07333265E+02
  0
VERTEX
  8
0
 62
4
 10
3.55502455E+02
 20
-3.07206688E+02
  0
VERTEX
  8
0
 62
4
 10
3.55421130E+02
 20
-3.07086336E+02
  0
VERTEX
  8
0
 62
4
 10
3.55328988E+02
 20
-3.06973124E+02
  0
VERTEX
  8
0
 62
4
 10
3.55226731E+02
 20
-3.06867914E+02
  0
VERTEX
  8
0
 62
4
 10
3.55115138E+02
 20
-3.06771507E+02
  0
VERTEX
  8
0
 62
4
 10
3.54995056E+02
 20
-3.06684636E+02
  0
VERTEX
  8
0
 62
4
 10
3.54867401E+02
 20
-3.06607963E+02
  0
VERTEX
  8
0
 62
4
 10
3.54733144E+02
 20
-3.06542072E+02
  0
VERTEX
  8
0
 62
4
 10
3.54593306E+02
 20
-3.06487462E+02
  0
VERTEX
  8
0
 62
4
 10
3.54448952E+02
 20
-3.06444552E+02
  0
VERTEX
  8
0
 62
4
 10
3.54301181E+02
 20
-3.06413666E+02
  0
VERTEX
  8
0
 62
4
 10
3.54151116E+02
 20
-3.06395039E+02
  0
VERTEX
  8
0
 62
4
 10
3.53999901E+02
 20
-3.06388815E+02
  0
VERTEX
  8
0
 62
4
 10
3.53848686E+02
 20
-3.06395039E+02
  0
VERTEX
  8
0
 62
4
 10
3.53698621E+02
 20
-3.06413666E+02
  0
VERTEX
  8
0
 62
4
 10
3.53550850E+02
 20
-3.06444552E+02
  0
VERTEX
  8
0
 62
4
 10
3.53406496E+02
 20
-3.06487462E+02
  0
VERTEX
  8
0
 62
4
 10
3.53266658E+02
 20
-3.06542072E+02
  0
VERTEX
  8
0
 62
4
 10
3.53132401E+02
 20
-3.06607963E+02
  0
VERTEX
  8
0
 62
4
 10
3.53004746E+02
 20
-3.06684636E+02
  0
VERTEX
  8
0
 62
4
 10
3.52884664E+02
 20
-3.06771507E+02
  0
VERTEX
  8
0
 62
4
 10
3.52773071E+02
 20
-3.06867914E+02
  0
VERTEX
  8
0
 62
4
 10
3.52670814E+02
 20
-3.06973124E+02
  0
VERTEX
  8
0
 62
4
 10
3.52578672E+02
 20
-3.07086336E+02
  0
VERTEX
  8
0
 62
4
 10
3.52497347E+02
 20
-3.07206688E+02
  0
VERTEX
  8
0
 62
4
 10
3.52427457E+02
 20
-3.07333265E+02
  0
VERTEX
  8
0
 62
4
 10
3.52369534E+02
 20
-3.07465104E+02
  0
VERTEX
  8
0
 62
4
 10
3.52324020E+02
 20
-3.07601199E+02
  0
VERTEX
  8
0
 62
4
 10
3.52291260E+02
 20
-3.07740517E+02
  0
VERTEX
  8
0
 62
4
 10
3.52271503E+02
 20
-3.07881997E+02
  0
VERTEX
  8
0
 62
4
 10
3.52264901E+02
 20
-3.08024562E+02
  0
VERTEX
  8
0
 62
4
 10
3.52271503E+02
 20
-3.08167127E+02
  0
VERTEX
  8
0
 62
4
 10
3.52291260E+02
 20
-3.08308607E+02
  0
VERTEX
  8
0
 62
4
 10
3.52324020E+02
 20
-3.08447925E+02
  0
VERTEX
  8
0
 62
4
 10
3.52369534E+02
 20
-3.08584020E+02
  0
VERTEX
  8
0
 62
4
 10
3.52427457E+02
 20
-3.08715859E+02
  0
VERTEX
  8
0
 62
4
 10
3.52497347E+02
 20
-3.08842436E+02
  0
VERTEX
  8
0
 62
4
 10
3.52578672E+02
 20
-3.08962788E+02
  0
VERTEX
  8
0
 62
4
 10
3.52670814E+02
 20
-3.09076000E+02
  0
VERTEX
  8
0
 62
4
 10
3.52773071E+02
 20
-3.09181210E+02
  0
VERTEX
  8
0
 62
4
 10
3.52884664E+02
 20
-3.09277617E+02
  0
VERTEX
  8
0
 62
4
 10
3.53004746E+02
 20
-3.09364488E+02
  0
VERTEX
  8
0
 62
4
 10
3.53132401E+02
 20
-3.09441161E+02
  0
VERTEX
  8
0
 62
4
 10
3.53266658E+02
 20
-3.09507052E+02
  0
VERTEX
  8
0
 62
4
 10
3.53406496E+02
 20
-3.09561662E+02
  0
VERTEX
  8
0
 62
4
 10
3.53550850E+02
 20
-3.09604572E+02
  0
VERTEX
  8
0
 62
4
 10
3.53698621E+02
 20
-3.09635458E+02
  0
VERTEX
  8
0
 62
4
 10
3.53848686E+02
 20
-3.09654085E+02
  0
VERTEX
  8
0
 62
4
 10
3.53999901E+02
 20
-3.09660309E+02
  0
VERTEX
  8
0
 62
4
 10
3.54151116E+02
 20
-3.09654085E+02
  0
VERTEX
  8
0
 62
4
 10
3.54301181E+02
 20
-3.09635458E+02
  0
VERTEX
  8
0
 62
4
 10
3.54448952E+02
 20
-3.09604572E+02
  0
VERTEX
  8
0
 62
4
 10
3.54593306E+02
 20
-3.09561662E+02
  0
VERTEX
  8
0
 62
4
 10
3.54733144E+02
 20
-3.09507052E+02
  0
VERTEX
  8
0
 62
4
 10
3.54867401E+02
 20
-3.09441161E+02
  0
VERTEX
  8
0
 62
4
 10
3.54995056E+02
 20
-3.09364488E+02
  0
VERTEX
  8
0
 62
4
 10
3.55115138E+02
 20
-3.09277617E+02
  0
VERTEX
  8
0
 62
4
 10
3.55226731E+02
 20
-3.09181210E+02
  0
VERTEX
  8
0
 62
4
 10
3.55328988E+02
 20
-3.09076000E+02
  0
VERTEX
  8
0
 62
4
 10
3.55421130E+02
 20
-3.08962788E+02
  0
VERTEX
  8
0
 62
4
 10
3.55502455E+02
 20
-3.08842436E+02
  0
VERTEX
  8
0
 62
4
 10
3.55572345E+02
 20
-3.08715859E+02
  0
VERTEX
  8
0
 62
4
 10
3.55630268E+02
 20
-3.08584020E+02
  0
VERTEX
  8
0
 62
4
 10
3.55675782E+02
 20
-3.08447925E+02
  0
VERTEX
  8
0
 62
4
 10
3.55708542E+02
 20
-3.08308607E+02
  0
VERTEX
  8
0
 62
4
 10
3.55728299E+02
 20
-3.08167127E+02
  0
VERTEX
  8
0
 62
4
 10
3.55734901E+02
 20
-3.08024562E+02
  0
SEQEND
  8
0
  0
POLYLINE
  8
0
 62
4
 66
1
  0
VERTEX
  8
0
 62
4
 10
3.55492978E+02
 20
-3.08857720E+02
  0
VERTEX
  8
0
 62
4
 10
3.55604643E+02
 20
-3.08728152E+02
  0
VERTEX
  8
0
 62
4
 10
3.55703773E+02
 20
-3.08589768E+02
  0
VERTEX
  8
0
 62
4
 10
3.55789591E+02
 20
-3.08443648E+02
  0
VERTEX
  8
0
 62
4
 10
3.55861430E+02
 20
-3.08290934E+02
  0
VERTEX
  8
0
 62
4
 10
3.55918726E+02
 20
-3.08132818E+02
  0
VERTEX
  8
0
 62
4
 10
3.55961032E+02
 20
-3.07970537E+02
  0
VERTEX
  8
0
 62
4
 10
3.55988019E+02
 20
-3.07805358E+02
  0
VERTEX
  8
0
 62
4
 10
3.55999475E+02
 20
-3.07638571E+02
  0
VERTEX
  8
0
 62
4
 10
3.55995310E+02
 20
-3.07471478E+02
  0
VERTEX
  8
0
 62
4
 10
3.55975558E+02
 20
-3.07305387E+02
  0
VERTEX
  8
0
 62
4
 10
3.55940372E+02
 20
-3.07141593E+02
  0
VERTEX
  8
0
 62
4
 10
3.55890027E+02
 20
-3.06981376E+02
  0
VERTEX
  8
0
 62
4
 10
3.55824917E+02
 20
-3.06825988E+02
  0
VERTEX
  8
0
 62
4
 10
3.55745551E+02
 20
-3.06676643E+02
  0
VERTEX
  8
0
 62
4
 10
3.55652547E+02
 20
-3.06534508E+02
  0
VERTEX
  8
0
 62
4
 10
3.55546634E+02
 20
-3.06400692E+02
  0
VERTEX
  8
0
 62
4
 10
3.55428637E+02
 20
-3.06276242E+02
  0
VERTEX
  8
0
 62
4
 10
3.55299480E+02
 20
-3.06162129E+02
  0
VERTEX
  8
0
 62
4
 10
3.55160170E+02
 20
-3.06059244E+02
  0
VERTEX
  8
0
 62
4
 10
3.55011797E+02
 20
-3.05968392E+02
  0
VERTEX
  8
0
 62
4
 10
3.54855518E+02
 20
-3.05890283E+02
  0
VERTEX
  8
0
 62
4
 10
3.54692556E+02
 20
-3.05825525E+02
  0
VERTEX
  8
0
 62
4
 10
3.54524183E+02
 20
-3.05774626E+02
  0
VERTEX
  8
0
 62
4
 10
3.54351714E+02
 20
-3.05737983E+02
  0
VERTEX
  8
0
 62
4
 10
3.54176498E+02
 20
-3.05715882E+02
  0
VERTEX
  8
0
 62
4
 10
3.53999901E+02
 20
-3.05708496E+02
  0
VERTEX
  8
0
 62
4
 10
3.53823304E+02
 20
-3.05715882E+02
  0
VERTEX
  8
0
 62
4
 10
3.53648087E+02
 20
-3.05737983E+02
  0
VERTEX
  8
0
 62
4
 10
3.53475619E+02
 20
-3.05774626E+02
  0
VERTEX
  8
0
 62
4
 10
3.53307246E+02
 20
-3.05825525E+02
  0
VERTEX
  8
0
 62
4
 10
3.53144284E+02
 20
-3.05890283E+02
  0
VERTEX
  8
0
 62
4
 10
3.52988005E+02
 20
-3.05968392E+02
  0
VERTEX
  8
0
 62
4
 10
3.52839632E+02
 20
-3.06059244E+02
  0
VERTEX
  8
0
 62
4
 10
3.52700322E+02
 20
-3.06162129E+02
  0
VERTEX
  8
0
 62
4
 10
3.52571165E+02
 20
-3.06276242E+02
  0
VERTEX
  8
0
 62
4
 10
3.52453168E+02
 20
-3.06400692E+02
  0
VERTEX
  8
0
 62
4
 10
3.52347255E+02
 20
-3.06534508E+02
  0
VERTEX
  8
0
 62
4
 10
3.52254251E+02
 20
-3.06676643E+02
  0
VERTEX
  8
0
 62
4
 10
3.52174885E+02
 20
-3.06825988E+02
  0
VERTEX
  8
0
 62
4
 10
3.52109775E+02
 20
-3.06981376E+02
  0
VERTEX
  8
0
 62
4
 10
3.52059430E+02
 20
-3.07141593E+02
  0
VERTEX
  8
0
 62
4
 10
3.52024244E+02
 20
-3.07305387E+02
  0
VERTEX
  8
0
 62
4
 10
3.52004492E+02
 20
-3.07471478E+02
  0
VERTEX
  8
0
 62
4
 10
3.52000327E+02
 20
-3.07638571E+02
  0
VERTEX
  8
0
 62
4
 10
3.52011783E+02
 20
-3.07805358E+02
  0
VERTEX
  8
0
 62
4
 10
3.52038770E+02
 20
-3.07970537E+02
  0
VERTEX
  8
0
 62
4
 10
3.52081076E+02
 20
-3.08132818E+02
  0
VERTEX
  8
0
 62
4
 10
3.52138372E+02
 20
-3.08290934E+02
  0
VERTEX
  8
0
 62
4
 10
3.52210211E+02
 20
-3.08443648E+02
  0
VERTEX
  8
0
 62
4
 10
3.52296029E+02
 20
-3.08589768E+02
  0
VERTEX
  8
0
 62
4
 10
3.52395159E+02
 20
-3.08728152E+02
  0
VERTEX
  8
0
 62
4
 10
3.52506824E+02
 20
-3.08857720E+02
  0
SEQEND
  8
0
  0
POLYLINE
  8
0
 62
6
 66
1
  0
VERTEX
  8
0
 62
6
 10
3.47499901E+02
 20
-3.08024562E+02
  0
VERTEX
  8
0
 62
6
 10
3.47494193E+02
 20
-3.07900951E+02
  0
VERTEX
  8
0
 62
6
 10
3.47477113E+02
 20
-3.07778281E+02
  0
VERTEX
  8
0
 62
6
 10
3.47448790E+02
 20
-3.07657485E+02
  0
VERTEX
  8
0
 62
6
 10
3.47409440E+02
 20
-3.07539482E+02
  0
VERTEX
  8
0
 62
6
 10
3.47359363E+02
 20
-3.07425172E+02
  0
VERTEX
  8
0
 62
6
 10
3.47298939E+02
 20
-3.07315423E+02
  0
VERTEX
  8
0
 62
6
 10
3.47228629E+02
 20
-3.07211071E+02
  0
VERTEX
  8
0
 62
6
 10
3.47148968E+02
 20
-3.07112911E+02
  0
VERTEX
  8
0
 62
6
 10
3.47060561E+02
 20
-3.07021688E+02
  0
VERTEX
  8
0
 62
6
 10
3.46964082E+02
 20
-3.06938098E+02
  0
VERTEX
  8
0
 62
6
 10
3.46860266E+02
 20
-3.06862777E+02
  0
VERTEX
  8
0
 62
6
 10
3.46749901E+02
 20
-3.06796297E+02
  0
VERTEX
  8
0
 62
6
 10
3.46633828E+02
 20
-3.06739166E+02
  0
VERTEX
  8
0
 62
6
 10
3.46512931E+02
 20
-3.06691817E+02
  0
VERTEX
  8
0
 62
6
 10
3.46388130E+02
 20
-3.06654611E+02
  0
VERTEX
  8
0
 62
6
 10
3.46260373E+02
 20
-3.06627831E+02
  0
VERTEX
  8
0
 62
6
 10
3.46130635E+02
 20
-3.06611681E+02
  0
VERTEX
  8
0
 62
6
 10
3.45999901E+02
 20
-3.06606284E+02
  0
VERTEX
  8
0
 62
6
 10
3.45869167E+02
 20
-3.06611681E+02
  0
VERTEX
  8
0
 62
6
 10
3.45739429E+02
 20
-3.06627831E+02
  0
VERTEX
  8
0
 62
6
 10
3.45611672E+02
 20
-3.06654611E+02
  0
VERTEX
  8
0
 62
6
 10
3.45486871E+02
 20
-3.06691817E+02
  0
VERTEX
  8
0
 62
6
 10
3.45365974E+02
 20
-3.06739166E+02
  0
VERTEX
  8
0
 62
6
 10
3.45249901E+02
 20
-3.06796297E+02
  0
VERTEX
  8
0
 62
6
 10
3.45139536E+02
 20
-3.06862777E+02
  0
VERTEX
  8
0
 62
6
 10
3.45035720E+02
 20
-3.06938098E+02
  0
VERTEX
  8
0
 62
6
 10
3.44939241E+02
 20
-3.07021688E+02
  0
VERTEX
  8
0
 62
6
 10
3.44850834E+02
 20
-3.07112911E+02
  0
VERTEX
  8
0
 62
6
 10
3.44771173E+02
 20
-3.07211071E+02
  0
VERTEX
  8
0
 62
6
 10
3.44700863E+02
 20
-3.07315423E+02
  0
VERTEX
  8
0
 62
6
 10
3.44640439E+02
 20
-3.07425172E+02
  0
VERTEX
  8
0
 62
6
 10
3.44590362E+02
 20
-3.07539482E+02
  0
VERTEX
  8
0
 62
6
 10
3.44551012E+02
 20
-3.07657485E+02
  0
VERTEX
  8
0
 62
6
 10
3.44522689E+02
 20
-3.07778281E+02
  0
VERTEX
  8
0
 62
6
 10
3.44505609E+02
 20
-3.07900951E+02
  0
VERTEX
  8
0
 62
6
 10
3.44499901E+02
 20
-3.08024562E+02
  0
VERTEX
  8
0
 62
6
 10
3.44505609E+02
 20
-3.08148173E+02
  0
VERTEX
  8
0
 62
6
 10
3.44522689E+02
 20
-3.08270843E+02
  0
VERTEX
  8
0
 62
6
 10
3.44551012E+02
 20
-3.08391639E+02
  0
VERTEX
  8
0
 62
6
 10
3.44590362E+02
 20
-3.08509642E+02
  0
VERTEX
  8
0
 62
6
 10
3.44640439E+02
 20
-3.08623952E+02
  0
VERTEX
  8
0
 62
6
 10
3.44700863E+02
 20
-3.08733701E+02
  0
VERTEX
  8
0
 62
6
 10
3.44771173E+02
 20
-3.08838053E+02
  0
VERTEX
  8
0
 62
6
 10
3.44850834E+02
 20
-3.08936213E+02
  0
VERTEX
  8
0
 62
6
 10
3.44939241E+02
 20
-3.09027436E+02
  0
VERTEX
  8
0
 62
6
 10
3.45035720E+02
 20
-3.09111026E+02
  0
VERTEX
  8
0
 62
6
 10
3.45139536E+02
 20
-3.09186347E+02
  0
VERTEX
  8
0
 62
6
 10
3.45249901E+02
 20
-3.09252827E+02
  0
VERTEX
  8
0
 62
6
 10
3.45365974E+02
 20
-3.09309958E+02
  0
VERTEX
  8
0
 62
6
 10
3.45486871E+02
 20
-3.09357307E+02
  0
VERTEX
  8
0
 62
6
 10
3.45611672E+02
 20
-3.09394513E+02
  0
VERTEX
  8
0
 62
6
 10
3.45739429E+02
 20
-3.09421293E+02
  0
VERTEX
  8
0
 62
6
 10
3.45869167E+02
 20
-3.09437443E+02
  0
VERTEX
  8
0
 62
6
 10
3.45999901E+02
 20
-3.09442840E+02
  0
VERTEX
  8
0
 62
6
 10
3.46130635E+02
 20
-3.09437443E+02
  0
VERTEX
  8
0
 62
6
 10
3.46260373E+02
 20
-3.09421293E+02
  0
VERTEX
  8
0
 62
6
 10
3.46388130E+02
 20
-3.09394513E+02
  0
VERTEX
  8
0
 62
6
 10
3.46512931E+02
 20
-3.09357307E+02
  0
VERTEX
  8
0
 62
6
 10
3.46633828E+02
 20
-3.09309958E+02
  0
VERTEX
  8
0
 62
6
 10
3.46749901E+02
 20
-3.09252827E+02
  0
VERTEX
  8
0
 62
6
 10
3.46860266E+02
 20
-3.09186347E+02
  0
VERTEX
  8
0
 62
6
 10
3.46964082E+02
 20
-3.09111026E+02
  0
VERTEX
  8
0
 62
6
 10
3.47060561E+02
 20
-3.09027436E+02
  0
VERTEX
  8
0
 62
6
 10
3.47148968E+02
 20
-3.08936213E+02
  0
VERTEX
  8
0
 62
6
 10
3.47228629E+02
 20
-3.08838053E+02
  0
VERTEX
  8
0
 62
6
 10
3.47298939E+02
 20
-3.08733701E+02
  0
VERTEX
  8
0
 62
6
 10
3.47359363E+02
 20
-3.08623952E+02
  0
VERTEX
  8
0
 62
6
 10
3.47409440E+02
 20
-3.08509642E+02
  0
VERTEX
  8
0
 62
6
 10
3.47448790E+02
 20
-3.08391639E+02
  0
VERTEX
  8
0
 62
6
 10
3.47477113E+02
 20
-3.08270843E+02
  0
VERTEX
  8
0
 62
6
 10
3.47494193E+02
 20
-3.08148173E+02
  0
VERTEX
  8
0
 62
6
 10
3.47499901E+02
 20
-3.08024562E+02
  0
SEQEND
  8
0
  0
POLYLINE
  8
0
 62
4
 66
1
  0
VERTEX
  8
0
 62
4
 10
3.47734901E+02
 20
-3.08024562E+02
  0
VERTEX
  8
0
 62
4
 10
3.47728299E+02
 20
-3.07881997E+02
  0
VERTEX
  8
0
 62
4
 10
3.47708542E+02
 20
-3.07740517E+02
  0
VERTEX
  8
0
 62
4
 10
3.47675782E+02
 20
-3.07601199E+02
  0
VERTEX
  8
0
 62
4
 10
3.47630268E+02
 20
-3.07465104E+02
  0
VERTEX
  8
0
 62
4
 10
3.47572345E+02
 20
-3.07333265E+02
  0
VERTEX
  8
0
 62
4
 10
3.47502455E+02
 20
-3.07206688E+02
  0
VERTEX
  8
0
 62
4
 10
3.47421130E+02
 20
-3.07086336E+02
  0
VERTEX
  8
0
 62
4
 10
3.47328988E+02
 20
-3.06973124E+02
  0
VERTEX
  8
0
 62
4
 10
3.47226731E+02
 20
-3.06867914E+02
  0
VERTEX
  8
0
 62
4
 10
3.47115138E+02
 20
-3.06771507E+02
  0
VERTEX
  8
0
 62
4
 10
3.46995056E+02
 20
-3.06684636E+02
  0
VERTEX
  8
0
 62
4
 10
3.46867401E+02
 20
-3.06607963E+02
  0
VERTEX
  8
0
 62
4
 10
3.46733144E+02
 20
-3.06542072E+02
  0
VERTEX
  8
0
 62
4
 10
3.46593306E+02
 20
-3.06487462E+02
  0
VERTEX
  8
0
 62
4
 10
3.46448952E+02
 20
-3.06444552E+02
  0
VERTEX
  8
0
 62
4
 10
3.46301181E+02
 20
-3.06413666E+02
  0
VERTEX
  8
0
 62
4
 10
3.46151116E+02
 20
-3.06395039E+02
  0
VERTEX
  8
0
 62
4
 10
3.45999901E+02
 20
-3.06388815E+02
  0
VERTEX
  8
0
 62
4
 10
3.45848686E+02
 20
-3.06395039E+02
  0
VERTEX
  8
0
 62
4
 10
3.45698621E+02
 20
-3.06413666E+02
  0
VERTEX
  8
0
 62
4
 10
3.45550850E+02
 20
-3.06444552E+02
  0
VERTEX
  8
0
 62
4
 10
3.45406496E+02
 20
-3.06487462E+02
  0
VERTEX
  8
0
 62
4
 10
3.45266658E+02
 20
-3.06542072E+02
  0
VERTEX
  8
0
 62
4
 10
3.45132401E+02
 20
-3.06607963E+02
  0
VERTEX
  8
0
 62
4
 10
3.45004746E+02
 20
-3.06684636E+02
  0
VERTEX
  8
0
 62
4
 10
3.44884664E+02
 20
-3.06771507E+02
  0
VERTEX
  8
0
 62
4
 10
3.44773071E+02
 20
-3.06867914E+02
  0
VERTEX
  8
0
 62
4
 10
3.44670814E+02
 20
-3.06973124E+02
  0
VERTEX
  8
0
 62
4
 10
3.44578672E+02
 20
-3.07086336E+02
  0
VERTEX
  8
0
 62
4
 10
3.44497347E+02
 20
-3.07206688E+02
  0
VERTEX
  8
0
 62
4
 10
3.44427457E+02
 20
-3.07333265E+02
  0
VERTEX
  8
0
 62
4
 10
3.44369534E+02
 20
-3.07465104E+02
  0
VERTEX
  8
0
 62
4
 10
3.44324020E+02
 20
-3.07601199E+02
  0
VERTEX
  8
0
 62
4
 10
3.44291260E+02
 20
-3.07740517E+02
  0
VERTEX
  8
0
 62
4
 10
3.44271503E+02
 20
-3.07881997E+02
  0
VERTEX
  8
0
 62
4
 10
3.44264901E+02
 20
-3.08024562E+02
  0
VERTEX
  8
0
 62
4
 10
3.44271503E+02
 20
-3.08167127E+02
  0
VERTEX
  8
0
 62
4
 10
3.44291260E+02
 20
-3.08308607E+02
  0
VERTEX
  8
0
 62
4
 10
3.44324020E+02
 20
-3.08447925E+02
  0
VERTEX
  8
0
 62
4
 10
3.44369534E+02
 20
-3.08584020E+02
  0
VERTEX
  8
0
 62
4
 10
3.44427457E+02
 20
-3.08715859E+02
  0
VERTEX
  8
0
 62
4
 10
3.44497347E+02
 20
-3.08842436E+02
  0
VERTEX
  8
0
 62
4
 10
3.44578672E+02
 20
-3.08962788E+02
  0
VERTEX
  8
0
 62
4
 10
3.44670814E+02
 20
-3.09076000E+02
  0
VERTEX
  8
0
 62
4
 10
3.44773071E+02
 20
-3.09181210E+02
  0
VERTEX
  8
0
 62
4
 10
3.44884664E+02
 20
-3.09277617E+02
  0
VERTEX
  8
0
 62
4
 10
3.45004746E+02
 20
-3.09364488E+02
  0
VERTEX
  8
0
 62
4
 10
3.45132401E+02
 20
-3.09441161E+02
  0
VERTEX
  8
0
 62
4
 10
3.45266658E+02
 20
-3.09507052E+02
  0
VERTEX
  8
0
 62
4
 10
3.45406496E+02
 20
-3.09561662E+02
  0
VERTEX
  8
0
 62
4
 10
3.45550850E+02
 20
-3.09604572E+02
  0
VERTEX
  8
0
 62
4
 10
3.45698621E+02
 20
-3.09635458E+02
  0
VERTEX
  8
0
 62
4
 10
3.45848686E+02
 20
-3.09654085E+02
  0
VERTEX
  8
0
 62
4
 10
3.45999901E+02
 20
-3.09660309E+02
  0
VERTEX
  8
0
 62
4
 10
3.46151116E+02
 20
-3.09654085E+02
  0
VERTEX
  8
0
 62
4
 10
3.46301181E+02
 20
-3.09635458E+02
  0
VERTEX
  8
0
 62
4
 10
3.46448952E+02
 20
-3.09604572E+02
  0
VERTEX
  8
0
 62
4
 10
3.46593306E+02
 20
-3.09561662E+02
  0
VERTEX
  8
0
 62
4
 10
3.46733144E+02
 20
-3.09507052E+02
  0
VERTEX
  8
0
 62
4
 10
3.46867401E+02
 20
-3.09441161E+02
  0
VERTEX
  8
0
 62
4
 10
3.46995056E+02
 20
-3.09364488E+02
  0
VERTEX
  8
0
 62
4
 10
3.47115138E+02
 20
-3.09277617E+02
  0
VERTEX
  8
0
 62
4
 10
3.47226731E+02
 20
-3.09181210E+02
  0
VERTEX
  8
0
 62
4
 10
3.47328988E+02
 20
-3.09076000E+02
  0
VERTEX
  8
0
 62
4
 10
3.47421130E+02
 20
-3.08962788E+02
  0
VERTEX
  8
0
 62
4
 10
3.47502455E+02
 20
-3.08842436E+02
  0
VERTEX
  8
0
 62
4
 10
3.47572345E+02
 20
-3.08715859E+02
  0
VERTEX
  8
0
 62
4
 10
3.47630268E+02
 20
-3.08584020E+02
  0
VERTEX
  8
0
 62
4
 10
3.47675782E+02
 20
-3.08447925E+02
  0
VERTEX
  8
0
 62
4
 10
3.47708542E+02
 20
-3.08308607E+02
  0
VERTEX
  8
0
 62
4
 10
3.47728299E+02
 20
-3.08167127E+02
  0
VERTEX
  8
0
 62
4
 10
3.47734901E+02
 20
-3.08024562E+02
  0
SEQEND
  8
0
  0
POLYLINE
  8
0
 62
4
 66
1
  0
VERTEX
  8
0
 62
4
 10
3.47492978E+02
 20
-3.08857720E+02
  0
VERTEX
  8
0
 62
4
 10
3.47604643E+02
 20
-3.08728152E+02
  0
VERTEX
  8
0
 62
4
 10
3.47703773E+02
 20
-3.08589768E+02
  0
VERTEX
  8
0
 62
4
 10
3.47789591E+02
 20
-3.08443648E+02
  0
VERTEX
  8
0
 62
4
 10
3.47861430E+02
 20
-3.08290934E+02
  0
VERTEX
  8
0
 62
4
 10
3.47918726E+02
 20
-3.08132818E+02
  0
VERTEX
  8
0
 62
4
 10
3.47961032E+02
 20
-3.07970537E+02
  0
VERTEX
  8
0
 62
4
 10
3.47988019E+02
 20
-3.07805358E+02
  0
VERTEX
  8
0
 62
4
 10
3.47999475E+02
 20
-3.07638571E+02
  0
VERTEX
  8
0
 62
4
 10
3.47995310E+02
 20
-3.07471478E+02
  0
VERTEX
  8
0
 62
4
 10
3.47975558E+02
 20
-3.07305387E+02
  0
VERTEX
  8
0
 62
4
 10
3.47940372E+02
 20
-3.07141593E+02
  0
VERTEX
  8
0
 62
4
 10
3.47890027E+02
 20
-3.06981376E+02
  0
VERTEX
  8
0
 62
4
 10
3.47824917E+02
 20
-3.06825988E+02
  0
VERTEX
  8
0
 62
4
 10
3.47745551E+02
 20
-3.06676643E+02
  0
VERTEX
  8
0
 62
4
 10
3.47652547E+02
 20
-3.06534508E+02
  0
VERTEX
  8
0
 62
4
 10
3.47546634E+02
 20
-3.06400692E+02
  0
VERTEX
  8
0
 62
4
 10
3.47428637E+02
 20
-3.06276242E+02
  0
VERTEX
  8
0
 62
4
 10
3.47299480E+02
 20
-3.06162129E+02
  0
VERTEX
  8
0
 62
4
 10
3.47160170E+02
 20
-3.06059244E+02
  0
VERTEX
  8
0
 62
4
 10
3.47011797E+02
 20
-3.05968392E+02
  0
VERTEX
  8
0
 62
4
 10
3.46855518E+02
 20
-3.05890283E+02
  0
VERTEX
  8
0
 62
4
 10
3.46692556E+02
 20
-3.05825525E+02
  0
VERTEX
  8
0
 62
4
 10
3.46524183E+02
 20
-3.05774626E+02
  0
VERTEX
  8
0
 62
4
 10
3.46351714E+02
 20
-3.05737983E+02
  0
VERTEX
  8
0
 62
4
 10
3.46176498E+02
 20
-3.05715882E+02
  0
VERTEX
  8
0
 62
4
 10
3.45999901E+02
 20
-3.05708496E+02
  0
VERTEX
  8
0
 62
4
 10
3.45823304E+02
 20
-3.05715882E+02
  0
VERTEX
  8
0
 62
4
 10
3.45648087E+02
 20
-3.05737983E+02
  0
VERTEX
  8
0
 62
4
 10
3.45475619E+02
 20
-3.05774626E+02
  0
VERTEX
  8
0
 62
4
 10
3.45307246E+02
 20
-3.05825525E+02
  0
VERTEX
  8
0
 62
4
 10
3.45144284E+02
 20
-3.05890283E+02
  0
VERTEX
  8
0
 62
4
 10
3.44988005E+02
 20
-3.05968392E+02
  0
VERTEX
  8
0
 62
4
 10
3.44839632E+02
 20
-3.06059244E+02
  0
VERTEX
  8
0
 62
4
 10
3.44700322E+02
 20
-3.06162129E+02
  0
VERTEX
  8
0
 62
4
 10
3.44571165E+02
 20
-3.06276242E+02
  0
VERTEX
  8
0
 62
4
 10
3.44453168E+02
 20
-3.06400692E+02
  0
VERTEX
  8
0
 62
4
 10
3.44347255E+02
 20
-3.06534508E+02
  0
VERTEX
  8
0
 62
4
 10
3.44254251E+02
 20
-3.06676643E+02
  0
VERTEX
  8
0
 62
4
 10
3.44174885E+02
 20
-3.06825988E+02
  0
VERTEX
  8
0
 62
4
 10
3.44109775E+02
 20
-3.06981376E+02
  0
VERTEX
  8
0
 62
4
 10
3.44059430E+02
 20
-3.07141593E+02
  0
VERTEX
  8
0
 62
4
 10
3.44024244E+02
 20
-3.07305387E+02
  0
VERTEX
  8
0
 62
4
 10
3.44004492E+02
 20
-3.07471478E+02
  0
VERTEX
  8
0
 62
4
 10
3.44000327E+02
 20
-3.07638571E+02
  0
VERTEX
  8
0
 62
4
 10
3.44011783E+02
 20
-3.07805358E+02
  0
VERTEX
  8
0
 62
4
 10
3.44038770E+02
 20
-3.07970537E+02
  0
VERTEX
  8
0
 62
4
 10
3.44081076E+02
 20
-3.08132818E+02
  0
VERTEX
  8
0
 62
4
 10
3.44138372E+02
 20
-3.08290934E+02
  0
VERTEX
  8
0
 62
4
 10
3.44210211E+02
 20
-3.08443648E+02
  0
VERTEX
  8
0
 62
4
 10
3.44296029E+02
 20
-3.08589768E+02
  0
VERTEX
  8
0
 62
4
 10
3.44395159E+02
 20
-3.08728152E+02
  0
VERTEX
  8
0
 62
4
 10
3.44506824E+02
 20
-3.08857720E+02
  0
SEQEND
  8
0
  0
LINE
  8
0
 62
4
 10
3.25793804E+02
 20
-2.97900009E+02
 11
3.22999901E+02
 21
-2.95296171E+02
  0
LINE
  8
0
 62
4
 10
3.59205997E+02
 20
-2.97900009E+02
 11
3.61999901E+02
 21
-2.95296171E+02
  0
LINE
  8
0
 62
4
 10
3.57499901E+02
 20
-2.74920742E+02
 11
3.42499901E+02
 21
-2.74920742E+02
  0
LINE
  8
0
 62
4
 10
3.57499901E+02
 20
-2.47344774E+02
 11
3.42499901E+02
 21
-2.47344774E+02
  0
ARC
  8
0
 62
4
 10
3.24497414E+02
 20
-2.81796985E+02
 40
1.49751542E+00
 50
8.99048594E+01
 51
1.80095141E+02
  0
ARC
  8
0
 62
4
 10
3.57997418E+02
 20
-2.62952458E+02
 40
4.97523679E-01
 50
8.97141074E+01
 51
1.80285893E+02
  0
ARC
  8
0
 62
4
 10
3.66502383E+02
 20
-2.48952458E+02
 40
4.97523679E-01
 50
3.59714107E+02
 51
9.02858924E+01
  0
ARC
  8
0
 62
4
 10
3.66497406E+02
 20
-2.61952446E+02
 40
5.02501096E-01
 50
2.70284473E+02
 51
3.59715527E+02
  0
ARC
  8
0
 62
4
 10
3.60502387E+02
 20
-2.81796985E+02
 40
1.49751542E+00
 50
3.59904859E+02
 51
9.00951404E+01
  0
LINE
  8
0
 62
4
 10
3.22999901E+02
 20
-2.75476117E+02
 11
3.22999901E+02
 21
-2.95296171E+02
  0
LINE
  8
0
 62
4
 10
3.40499901E+02
 20
-2.76517397E+02
 11
3.40499901E+02
 21
-2.80517397E+02
  0
LINE
  8
0
 62
4
 10
3.57499901E+02
 20
-2.47344774E+02
 11
3.57499901E+02
 21
-2.76517397E+02
  0
LINE
  8
0
 62
4
 10
3.42499901E+02
 20
-2.47344774E+02
 11
3.42499901E+02
 21
-2.76517397E+02
  0
LINE
  8
0
 62
4
 10
3.59499901E+02
 20
-2.76517397E+02
 11
3.59499901E+02
 21
-2.80517397E+02
  0
LINE
  8
0
 62
4
 10
3.61999901E+02
 20
-2.93877893E+02
 11
3.57499901E+02
 21
-2.93877893E+02
  0
LINE
  8
0
 62
4
 10
3.61999901E+02
 20
-2.95296171E+02
 11
3.57499901E+02
 21
-2.95296171E+02
  0
LINE
  8
0
 62
4
 10
3.61999901E+02
 20
-2.75476117E+02
 11
3.61999901E+02
 21
-2.95296171E+02
  0
LINE
  8
0
 62
4
 10
3.59499901E+02
 20
-2.76517397E+02
 11
3.40499901E+02
 21
-2.76517397E+02
  0
LINE
  8
0
 62
4
 10
3.57499901E+02
 20
-2.52228297E+02
 11
3.42499901E+02
 21
-2.52228297E+02
  0
LINE
  8
0
 62
4
 10
3.42499901E+02
 20
-2.93877893E+02
 11
3.22999901E+02
 21
-2.93877893E+02
  0
LINE
  8
0
 62
4
 10
3.42499901E+02
 20
-2.95296171E+02
 11
3.22999901E+02
 21
-2.95296171E+02
  0
LINE
  8
0
 62
4
 10
3.76999901E+02
 20
-2.62560491E+02
 11
3.71999901E+02
 21
-2.62560491E+02
  0
LINE
  8
0
 62
4
 10
3.66499901E+02
 20
-2.62454941E+02
 11
3.57999901E+02
 21
-2.62454941E+02
  0
LINE
  8
0
 62
4
 10
3.70499901E+02
 20
-2.61204941E+02
 11
3.66999901E+02
 21
-2.61204941E+02
  0
LINE
  8
0
 62
4
 10
3.70499901E+02
 20
-2.49204941E+02
 11
3.70499901E+02
 21
-2.61704941E+02
  0
LINE
  8
0
 62
4
 10
3.71999901E+02
 20
-2.61704941E+02
 11
3.66999901E+02
 21
-2.61704941E+02
  0
LINE
  8
0
 62
4
 10
3.71999901E+02
 20
-2.49204941E+02
 11
3.66999901E+02
 21
-2.49204941E+02
  0
LINE
  8
0
 62
4
 10
3.71999901E+02
 20
-2.48358802E+02
 11
3.71999901E+02
 21
-2.62560491E+02
  0
LINE
  8
0
 62
4
 10
3.76999901E+02
 20
-2.48358802E+02
 11
3.76999901E+02
 21
-2.62560491E+02
  0
LINE
  8
0
 62
4
 10
3.66999901E+02
 20
-2.48954941E+02
 11
3.66999901E+02
 21
-2.61954941E+02
  0
LINE
  8
0
 62
4
 10
3.57499901E+02
 20
-2.48454941E+02
 11
3.66499901E+02
 21
-2.48454941E+02
  0
LINE
  8
0
 62
4
 10
3.76999901E+02
 20
-2.61121535E+02
 11
3.71999901E+02
 21
-2.61121535E+02
  0
LINE
  8
0
 62
4
 10
3.76999901E+02
 20
-2.54030145E+02
 11
3.71999901E+02
 21
-2.54030145E+02
  0
LINE
  8
0
 62
4
 10
3.76999901E+02
 20
-2.48358802E+02
 11
3.71999901E+02
 21
-2.48358802E+02
  0
LINE
  8
0
 62
4
 10
3.60499901E+02
 20
-2.80299472E+02
 11
3.24499901E+02
 21
-2.80299472E+02
  0
LINE
  8
0
 62
4
 10
3.70499901E+02
 20
-2.49704941E+02
 11
3.66999901E+02
 21
-2.49704941E+02
  0
LINE
  8
0
  6
CENTER
 62
6
 10
3.40999901E+02
 20
-3.08024562E+02
 11
3.58999901E+02
 21
-3.08024562E+02
  0
LINE
  8
0
  6
CENTER
 62
6
 10
3.45999901E+02
 20
-3.03034562E+02
 11
3.45999901E+02
 21
-3.13024562E+02
  0
LINE
  8
0
  6
CENTER
 62
6
 10
3.53999901E+02
 20
-3.03034562E+02
 11
3.53999901E+02
 21
-3.13024562E+02
  0
LINE
  8
0
 62
4
 10
3.42499901E+02
 20
-2.86109188E+02
 11
3.42499901E+02
 21
-3.12394618E+02
  0
LINE
  8
0
 62
4
 10
3.57499901E+02
 20
-2.86109188E+02
 11
3.57499901E+02
 21
-3.12394618E+02
  0
LINE
  8
0
 62
4
 10
3.43499901E+02
 20
-3.00990820E+02
 11
3.56499901E+02
 21
-3.00990820E+02
  0
LINE
  8
0
 62
4
 10
3.42499901E+02
 20
-3.12394618E+02
 11
3.57499901E+02
 21
-3.12394618E+02
  0
LINE
  8
0
 62
4
 10
3.42499901E+02
 20
-2.86109188E+02
 11
3.57499901E+02
 21
-2.86109188E+02
  0
LINE
  8
0
 62
7
 10
1.65899895E+02
 20
-3.22250008E+02
 11
1.65499962E+02
 21
-3.22250008E+02
  0
LINE
  8
0
 62
7
 10
1.41000023E+02
 20
-2.94999939E+02
 11
1.14999870E+02
 21
-2.94999939E+02
  0
LINE
  8
0
  6
CENTER
 62
2
 10
1.68045067E+02
 20
-3.01499878E+02
 11
1.45893974E+02
 21
-3.01499878E+02
  0
LINE
  8
0
  6
CENTER
 62
2
 10
1.68964012E+02
 20
-3.18500000E+02
 11
1.65499962E+02
 21
-3.18500000E+02
  0
LINE
  8
0
 62
7
 10
1.68099937E+02
 20
-3.16899963E+02
 11
1.68099937E+02
 21
-3.20100006E+02
  0
LINE
  8
0
 62
7
 10
1.65899895E+02
 20
-3.14750000E+02
 11
1.65499962E+02
 21
-3.14750000E+02
  0
LINE
  8
0
  6
CENTER
 62
2
 10
1.35999931E+02
 20
-2.89814697E+02
 11
1.35999931E+02
 21
-3.15781082E+02
  0
LINE
  8
0
 62
7
 10
1.52999931E+02
 20
-2.91999954E+02
 11
1.52999931E+02
 21
-2.92499939E+02
  0
LINE
  8
0
 62
7
 10
1.02999931E+02
 20
-2.91999954E+02
 11
1.02999931E+02
 21
-2.92499939E+02
  0
LINE
  8
0
  6
CENTER
 62
2
 10
1.68842216E+02
 20
-3.29500000E+02
 11
8.71718063E+01
 21
-3.29500000E+02
  0
LINE
  8
0
  6
CENTER
 62
2
 10
1.27999931E+02
 20
-2.88870331E+02
 11
1.27999931E+02
 21
-3.29500000E+02
  0
LINE
  8
0
 62
7
 10
1.45500053E+02
 20
-2.99499756E+02
 11
1.46763573E+02
 21
-2.99499756E+02
  0
LINE
  8
0
 62
7
 10
1.58000206E+02
 20
-3.11999908E+02
 11
1.58000206E+02
 21
-3.10736328E+02
  0
LINE
  8
0
 62
7
 10
1.10499870E+02
 20
-2.99499725E+02
 11
1.09236443E+02
 21
-2.99499725E+02
  0
LINE
  8
0
 62
7
 10
9.79997482E+01
 20
-3.11999908E+02
 11
9.79997482E+01
 21
-3.10736176E+02
  0
LINE
  8
0
  6
CENTER
 62
2
 10
1.10630516E+02
 20
-3.01499878E+02
 11
8.80975571E+01
 21
-3.01499878E+02
  0
LINE
  8
0
 62
7
 10
1.41364258E+02
 20
-3.14721891E+02
 11
1.48726106E+02
 21
-3.07360043E+02
  0
LINE
  8
0
  6
CENTER
 62
2
 10
1.15999931E+02
 20
-2.89785782E+02
 11
1.15999931E+02
 21
-3.19505524E+02
  0
LINE
  8
0
 62
7
 10
1.65000023E+02
 20
-3.29500000E+02
 11
1.65000023E+02
 21
-2.96000000E+02
  0
LINE
  8
0
 62
7
 10
1.28999962E+02
 20
-2.96000000E+02
 11
1.28999962E+02
 21
-3.09600235E+02
  0
LINE
  8
0
 62
7
 10
1.42778483E+02
 20
-3.16136115E+02
 11
1.50140331E+02
 21
-3.08774268E+02
  0
LINE
  8
0
 62
7
 10
1.26999962E+02
 20
-2.95999969E+02
 11
1.26999962E+02
 21
-3.09600235E+02
  0
LINE
  8
0
 62
7
 10
1.62500023E+02
 20
-3.29500000E+02
 11
1.62500023E+02
 21
-3.16499924E+02
  0
LINE
  8
0
 62
7
 10
1.61499962E+02
 20
-3.28500008E+02
 11
1.47899742E+02
 21
-3.28500008E+02
  0
LINE
  8
0
 62
7
 10
1.61500023E+02
 20
-2.91999908E+02
 11
9.44999924E+01
 21
-2.91999908E+02
  0
LINE
  8
0
  6
CENTER
 62
2
 10
1.55999992E+02
 20
-3.12729584E+02
 11
1.55999992E+02
 21
-2.89942001E+02
  0
LINE
  8
0
 62
7
 10
1.14636125E+02
 20
-3.14721381E+02
 11
1.07274276E+02
 21
-3.07359535E+02
  0
LINE
  8
0
 62
7
 10
1.13221847E+02
 20
-3.16135660E+02
 11
1.05859998E+02
 21
-3.08773814E+02
  0
LINE
  8
0
 62
7
 10
1.61500023E+02
 20
-2.92499939E+02
 11
9.44999924E+01
 21
-2.92499939E+02
  0
LINE
  8
0
 62
7
 10
9.34999313E+01
 20
-3.29500000E+02
 11
9.34999313E+01
 21
-3.16499924E+02
  0
LINE
  8
0
 62
7
 10
9.44999924E+01
 20
-3.28499969E+02
 11
1.08100273E+02
 21
-3.28499969E+02
  0
LINE
  8
0
 62
7
 10
9.04999313E+01
 20
-3.29500000E+02
 11
9.04999313E+01
 21
-2.95999969E+02
  0
LINE
  8
0
  6
CENTER
 62
2
 10
9.99998703E+01
 20
-2.89814697E+02
 11
9.99998703E+01
 21
-3.12729584E+02
  0
LINE
  8
0
 62
7
 10
9.09999313E+01
 20
-3.29500000E+02
 11
9.09999313E+01
 21
-2.95999969E+02
  0
ARC
  8
0
 62
7
 10
1.65622459E+02
 20
-3.19765457E+02
 40
2.50000000E+00
 50
2.76372839E+02
 51
7.69143002E+00
  0
ARC
  8
0
 62
7
 10
1.65622459E+02
 20
-3.17234558E+02
 40
2.50000000E+00
 50
7.69143002E+00
 51
9.00000042E+01
  0
CIRCLE
  8
0
 62
7
 10
1.56000023E+02
 20
-3.01499924E+02
 40
6.50000048E+00
  0
ARC
  8
0
 62
7
 10
1.50847252E+02
 20
-3.09481140E+02
 40
1.00000000E+00
 50
5.71538295E+01
 51
1.35000009E+02
  0
ARC
  8
0
 62
7
 10
1.48018852E+02
 20
-3.06652695E+02
 40
1.00000000E+00
 50
3.15000045E+02
 51
3.28467572E+01
  0
ARC
  8
0
 62
7
 10
1.43485466E+02
 20
-3.16842972E+02
 40
1.00000000E+00
 50
1.35000009E+02
 51
2.19261006E+02
  0
ARC
  8
0
 62
7
 10
1.40657005E+02
 20
-3.14014526E+02
 40
1.00000000E+00
 50
2.30739016E+02
 51
3.15000028E+02
  0
ARC
  8
0
 62
7
 10
1.29999962E+02
 20
-3.09600235E+02
 40
1.00000000E+00
 50
1.80000041E+02
 51
2.64260547E+02
  0
ARC
  8
0
 62
7
 10
9.99999008E+01
 20
-3.01499954E+02
 40
8.50000000E+00
 50
2.63823541E+02
 51
6.17668534E+00
  0
ARC
  8
0
 62
7
 10
1.61500023E+02
 20
-2.96000000E+02
 40
3.50000000E+00
 50
2.23118003E-05
 51
8.99999773E+01
  0
ARC
  8
0
 62
7
 10
1.29999962E+02
 20
-2.96000000E+02
 40
1.00000000E+00
 50
9.00000042E+01
 51
1.80000041E+02
  0
ARC
  8
0
 62
7
 10
1.25999962E+02
 20
-3.09600235E+02
 40
1.00000000E+00
 50
2.75739516E+02
 51
3.59721787E-05
  0
ARC
  8
0
 62
7
 10
1.25999962E+02
 20
-2.95999969E+02
 40
1.00000000E+00
 50
3.59721787E-05
 51
9.00000179E+01
  0
ARC
  8
0
 62
7
 10
1.61499992E+02
 20
-3.27499985E+02
 40
1.00000000E+00
 50
2.69999972E+02
 51
2.23118003E-05
  0
ARC
  8
0
 62
7
 10
1.47899742E+02
 20
-3.27499985E+02
 40
1.00000000E+00
 50
1.85739449E+02
 51
2.69999955E+02
  0
ARC
  8
0
 62
7
 10
1.61500023E+02
 20
-2.96000000E+02
 40
4.00000000E+00
 50
2.23118003E-05
 51
8.99999773E+01
  0
CIRCLE
  8
0
 62
7
 10
1.56000023E+02
 20
-3.01499924E+02
 40
6.00000000E+00
  0
CIRCLE
  8
0
 62
7
 10
9.99999008E+01
 20
-3.01499954E+02
 40
6.50000048E+00
  0
ARC
  8
0
 62
7
 10
1.12514519E+02
 20
-3.16842941E+02
 40
1.00000000E+00
 50
3.20739043E+02
 51
4.50000407E+01
  0
ARC
  8
0
 62
7
 10
1.15342918E+02
 20
-3.14014496E+02
 40
1.00000000E+00
 50
2.25000019E+02
 51
3.09261002E+02
  0
ARC
  8
0
 62
7
 10
1.07981133E+02
 20
-3.06652664E+02
 40
1.00000000E+00
 50
1.47153839E+02
 51
2.25000005E+02
  0
ARC
  8
0
 62
7
 10
1.05152672E+02
 20
-3.09481110E+02
 40
1.00000000E+00
 50
4.50000407E+01
 51
1.22846753E+02
  0
ARC
  8
0
 62
7
 10
9.44999924E+01
 20
-2.95999969E+02
 40
3.50000000E+00
 50
9.00000179E+01
 51
1.80000000E+02
  0
ARC
  8
0
 62
7
 10
9.44999924E+01
 20
-3.27499985E+02
 40
1.00000000E+00
 50
1.80000000E+02
 51
2.70000037E+02
  0
ARC
  8
0
 62
7
 10
1.08100273E+02
 20
-3.27499985E+02
 40
1.00000000E+00
 50
2.70000037E+02
 51
3.54260542E+02
  0
ARC
  8
0
 62
7
 10
9.44999924E+01
 20
-2.95999969E+02
 40
4.00000000E+00
 50
9.00000179E+01
 51
1.80000000E+02
  0
CIRCLE
  8
0
 62
7
 10
9.99999008E+01
 20
-3.01499954E+02
 40
6.00000000E+00
  0
ARC
  8
0
 62
7
 10
1.10499870E+02
 20
-2.95999817E+02
 40
3.50000000E+00
 50
2.69999982E+02
 51
3.59998475E+02
  0
ARC
  8
0
 62
7
 10
1.14999870E+02
 20
-2.95999969E+02
 40
1.00000000E+00
 50
9.00000454E+01
 51
1.79998224E+02
  0
ARC
  8
0
 62
7
 10
1.09444786E+02
 20
-3.00477814E+02
 40
1.00000000E+00
 50
9.56743616E+01
 51
1.86177210E+02
  0
ARC
  8
0
 62
7
 10
9.44998398E+01
 20
-3.11999908E+02
 40
3.50000000E+00
 50
2.70001010E+02
 51
2.23118003E-05
  0
ARC
  8
0
 62
7
 10
9.89778366E+01
 20
-3.10944809E+02
 40
1.00000000E+00
 50
8.38236962E+01
 51
1.74325479E+02
  0
ARC
  8
0
 62
7
 10
9.44999924E+01
 20
-3.16499924E+02
 40
1.00000000E+00
 50
9.00017529E+01
 51
1.80000014E+02
  0
ARC
  8
0
 62
7
 10
1.46555138E+02
 20
-3.00477814E+02
 40
1.00000000E+00
 50
3.53823687E+02
 51
8.43254898E+01
  0
ARC
  8
0
 62
7
 10
1.45500053E+02
 20
-2.95999893E+02
 40
3.50000000E+00
 50
1.80000997E+02
 51
2.69999982E+02
  0
ARC
  8
0
 62
7
 10
1.41000023E+02
 20
-2.95999969E+02
 40
1.00000000E+00
 50
1.72985909E-03
 51
9.00000179E+01
  0
ARC
  8
0
 62
7
 10
1.56000023E+02
 20
-3.01499954E+02
 40
8.50000000E+00
 50
1.73823323E+02
 51
2.76176440E+02
  0
ARC
  8
0
 62
7
 10
1.57022179E+02
 20
-3.10944809E+02
 40
1.00000000E+00
 50
5.67452982E+00
 51
9.61763122E+01
  0
ARC
  8
0
 62
7
 10
1.61500114E+02
 20
-3.11999954E+02
 40
3.50000000E+00
 50
1.80000000E+02
 51
2.69998998E+02
  0
ARC
  8
0
 62
7
 10
1.61500023E+02
 20
-3.16499924E+02
 40
1.00000000E+00
 50
3.59999995E+02
 51
8.99982693E+01
  0
ARC
  8
0
 62
7
 10
1.27999962E+02
 20
-3.29499992E+02
 40
1.90000000E+01
 50
0.00000000E+00
 51
1.80000023E+02
  0
CIRCLE
  8
0
 62
2
 10
1.56000023E+02
 20
-3.01499924E+02
 40
4.00000000E+00
  0
CIRCLE
  8
0
 62
2
 10
9.99999008E+01
 20
-3.01499924E+02
 40
4.00000000E+00
  0
CIRCLE
  8
0
 62
7
 10
1.56000023E+02
 20
-3.01499924E+02
 40
3.32000017E+00
  0
CIRCLE
  8
0
 62
7
 10
9.99999008E+01
 20
-3.01499924E+02
 40
3.32000017E+00
  0
LINE
  8
0
 62
7
 10
1.65499992E+02
 20
-3.29500000E+02
 11
1.65499992E+02
 21
-2.96000000E+02
  0
ARC
  8
0
 62
7
 10
1.27999931E+02
 20
-3.29500000E+02
 40
1.85000963E+01
 50
0.00000000E+00
 51
1.80000000E+02
  0
LINE
  8
0
 62
7
 10
-3.98921639E+02
 20
-3.04937705E+01
 11
3.93078361E+02
 21
-3.04937705E+01
  0
LINE
  8
0
 62
7
 10
-3.98921639E+02
 20
-6.04937705E+01
 11
3.93078361E+02
 21
-6.04937705E+01
  0
LINE
  8
0
 62
7
 10
-3.98921639E+02
 20
-6.04937705E+01
 11
-3.98921639E+02
 21
-3.04937705E+01
  0
TEXT
  8
0
 62
7
 10
-3.88636326E+02
 20
-4.24937705E+01
 40
9.00000000E+00
  1
STROKE
 41
1.00000000E+00
  7
MONOTXT
  0
TEXT
  8
0
 62
7
 10
-3.93136326E+02
 20
-5.74937705E+01
 40
9.00000000E+00
  1
STRETCH
 41
1.00000000E+00
  7
MONOTXT
  0
LINE
  8
0
 62
7
 10
-3.98921639E+02
 20
-4.54937705E+01
 11
3.93078361E+02
 21
-4.54937705E+01
  0
LINE
  8
0
 62
7
 10
-3.26921639E+02
 20
-6.04937705E+01
 11
-3.26921639E+02
 21
-3.04937705E+01
  0
LINE
  8
0
 62
7
 10
-2.81921639E+02
 20
-6.04937705E+01
 11
-2.81921639E+02
 21
-3.04937705E+01
  0
LINE
  8
0
 62
7
 10
-2.36921639E+02
 20
-6.04937705E+01
 11
-2.36921639E+02
 21
-3.04937705E+01
  0
LINE
  8
0
 62
7
 10
-1.91921639E+02
 20
-6.04937705E+01
 11
-1.91921639E+02
 21
-3.04937705E+01
  0
LINE
  8
0
 62
7
 10
-1.46921639E+02
 20
-6.04937705E+01
 11
-1.46921639E+02
 21
-3.04937705E+01
  0
LINE
  8
0
 62
7
 10
-1.01921639E+02
 20
-6.04937705E+01
 11
-1.01921639E+02
 21
-3.04937705E+01
  0
LINE
  8
0
 62
7
 10
-5.69216393E+01
 20
-6.04937705E+01
 11
-5.69216393E+01
 21
-3.04937705E+01
  0
LINE
  8
0
 62
7
 10
-1.19216393E+01
 20
-6.04937705E+01
 11
-1.19216393E+01
 21
-3.04937705E+01
  0
LINE
  8
0
 62
7
 10
3.30783607E+01
 20
-6.04937705E+01
 11
3.30783607E+01
 21
-3.04937705E+01
  0
LINE
  8
0
 62
7
 10
7.80783607E+01
 20
-6.04937705E+01
 11
7.80783607E+01
 21
-3.04937705E+01
  0
LINE
  8
0
 62
7
 10
1.23078361E+02
 20
-6.04937705E+01
 11
1.23078361E+02
 21
-3.04937705E+01
  0
LINE
  8
0
 62
7
 10
1.68078361E+02
 20
-6.04937705E+01
 11
1.68078361E+02
 21
-3.04937705E+01
  0
LINE
  8
0
 62
7
 10
2.13078361E+02
 20
-6.04937705E+01
 11
2.13078361E+02
 21
-3.04937705E+01
  0
LINE
  8
0
 62
7
 10
2.58078361E+02
 20
-6.04937705E+01
 11
2.58078361E+02
 21
-3.04937705E+01
  0
LINE
  8
0
 62
7
 10
3.03078361E+02
 20
-6.04937705E+01
 11
3.03078361E+02
 21
-3.04937705E+01
  0
LINE
  8
0
 62
7
 10
3.48078361E+02
 20
-6.04937705E+01
 11
3.48078361E+02
 21
-3.04937705E+01
  0
LINE
  8
0
 62
7
 10
3.93078361E+02
 20
-6.04937705E+01
 11
3.93078361E+02
 21
-3.04937705E+01
  0
TEXT
  8
0
 62
7
 10
-3.12437264E+02
 20
-4.24937705E+01
 40
9.00000000E+00
  1
50
 41
1.00000000E+00
  7
MONOTXT
  0
TEXT
  8
0
 62
7
 10
-2.67437264E+02
 20
-4.24937705E+01
 40
9.00000000E+00
  1
75
 41
1.00000000E+00
  7
MONOTXT
  0
TEXT
  8
0
 62
7
 10
-2.26937264E+02
 20
-4.24937705E+01
 40
9.00000000E+00
  1
100
 41
1.00000000E+00
  7
MONOTXT
  0
TEXT
  8
0
 62
7
 10
-1.81937264E+02
 20
-4.24937705E+01
 40
9.00000000E+00
  1
150
 41
1.00000000E+00
  7
MONOTXT
  0
TEXT
  8
0
 62
7
 10
-1.36937264E+02
 20
-4.24937705E+01
 40
9.00000000E+00
  1
200
 41
1.00000000E+00
  7
MONOTXT
  0
TEXT
  8
0
 62
7
 10
-9.19372643E+01
 20
-4.24937705E+01
 40
9.00000000E+00
  1
250
 41
1.00000000E+00
  7
MONOTXT
  0
TEXT
  8
0
 62
7
 10
-4.69372643E+01
 20
-4.24937705E+01
 40
9.00000000E+00
  1
300
 41
1.00000000E+00
  7
MONOTXT
  0
TEXT
  8
0
 62
7
 10
-1.93726434E+00
 20
-4.24937705E+01
 40
9.00000000E+00
  1
350
 41
1.00000000E+00
  7
MONOTXT
  0
TEXT
  8
0
 62
7
 10
4.30627357E+01
 20
-4.24937705E+01
 40
9.00000000E+00
  1
400
 41
1.00000000E+00
  7
MONOTXT
  0
TEXT
  8
0
 62
7
 10
8.80627357E+01
 20
-4.24937705E+01
 40
9.00000000E+00
  1
450
 41
1.00000000E+00
  7
MONOTXT
  0
TEXT
  8
0
 62
7
 10
1.33062736E+02
 20
-4.24937705E+01
 40
9.00000000E+00
  1
500
 41
1.00000000E+00
  7
MONOTXT
  0
TEXT
  8
0
 62
7
 10
1.78062736E+02
 20
-4.24937705E+01
 40
9.00000000E+00
  1
600
 41
1.00000000E+00
  7
MONOTXT
  0
TEXT
  8
0
 62
7
 10
2.23062736E+02
 20
-4.24937705E+01
 40
9.00000000E+00
  1
700
 41
1.00000000E+00
  7
MONOTXT
  0
TEXT
  8
0
 62
7
 10
2.68062736E+02
 20
-4.24937705E+01
 40
9.00000000E+00
  1
800
 41
1.00000000E+00
  7
MONOTXT
  0
TEXT
  8
0
 62
7
 10
3.13062736E+02
 20
-4.24937705E+01
 40
9.00000000E+00
  1
900
 41
1.00000000E+00
  7
MONOTXT
  0
TEXT
  8
0
 62
7
 10
3.53562736E+02
 20
-4.24937705E+01
 40
9.00000000E+00
  1
1000
 41
1.00000000E+00
  7
MONOTXT
  0
TEXT
  8
0
 62
7
 10
-3.16937264E+02
 20
-5.74937705E+01
 40
9.00000000E+00
  1
-25
 41
1.00000000E+00
  7
MONOTXT
  0
TEXT
  8
0
 62
7
 10
-2.62937264E+02
 20
-5.74937705E+01
 40
9.00000000E+00
  1
0
 41
1.00000000E+00
  7
MONOTXT
  0
TEXT
  8
0
 62
7
 10
-2.22437264E+02
 20
-5.74937705E+01
 40
9.00000000E+00
  1
25
 41
1.00000000E+00
  7
MONOTXT
  0
TEXT
  8
0
 62
7
 10
-1.77437264E+02
 20
-5.74937705E+01
 40
9.00000000E+00
  1
75
 41
1.00000000E+00
  7
MONOTXT
  0
TEXT
  8
0
 62
7
 10
-1.36937264E+02
 20
-5.74937705E+01
 40
9.00000000E+00
  1
125
 41
1.00000000E+00
  7
MONOTXT
  0
TEXT
  8
0
 62
7
 10
-9.19372643E+01
 20
-5.74937705E+01
 40
9.00000000E+00
  1
175
 41
1.00000000E+00
  7
MONOTXT
  0
TEXT
  8
0
 62
7
 10
-4.69372643E+01
 20
-5.74937705E+01
 40
9.00000000E+00
  1
225
 41
1.00000000E+00
  7
MONOTXT
  0
TEXT
  8
0
 62
7
 10
-1.93726434E+00
 20
-5.74937705E+01
 40
9.00000000E+00
  1
275
 41
1.00000000E+00
  7
MONOTXT
  0
TEXT
  8
0
 62
7
 10
4.30627357E+01
 20
-5.74937705E+01
 40
9.00000000E+00
  1
325
 41
1.00000000E+00
  7
MONOTXT
  0
TEXT
  8
0
 62
7
 10
8.80627357E+01
 20
-5.74937705E+01
 40
9.00000000E+00
  1
375
 41
1.00000000E+00
  7
MONOTXT
  0
TEXT
  8
0
 62
7
 10
1.33062736E+02
 20
-5.74937705E+01
 40
9.00000000E+00
  1
425
 41
1.00000000E+00
  7
MONOTXT
  0
TEXT
  8
0
 62
7
 10
1.78062736E+02
 20
-5.74937705E+01
 40
9.00000000E+00
  1
525
 41
1.00000000E+00
  7
MONOTXT
  0
TEXT
  8
0
 62
7
 10
2.23062736E+02
 20
-5.74937705E+01
 40
9.00000000E+00
  1
625
 41
1.00000000E+00
  7
MONOTXT
  0
TEXT
  8
0
 62
7
 10
2.68062736E+02
 20
-5.74937705E+01
 40
9.00000000E+00
  1
725
 41
1.00000000E+00
  7
MONOTXT
  0
TEXT
  8
0
 62
7
 10
3.13062736E+02
 20
-5.74937705E+01
 40
9.00000000E+00
  1
825
 41
1.00000000E+00
  7
MONOTXT
  0
TEXT
  8
0
 62
7
 10
3.58062736E+02
 20
-5.74937705E+01
 40
9.00000000E+00
  1
925
 41
1.00000000E+00
  7
MONOTXT
  0
TEXT
  8
0
 62
7
 10
3.50062736E+02
 20
-2.49937705E+01
 40
9.00000000E+00
  1
(mm)
 41
1.00000000E+00
  7
MONOTXT
  0
TEXT
  8
0
 62
7
 10
-5.59372644E+01
 20
-2.49937705E+01
 40
9.00000000E+00
  1
STRETCH LIST
 41
1.05263158E+00
  7
MONOTXT
  0
ARC
  8
0
 62
7
 10
-1.06000023E+02
 20
-1.72500000E+02
 40
2.00000000E+00
 50
1.80000000E+02
 51
2.70000000E+02
  0
LINE
  8
0
 62
7
 10
-1.06000023E+02
 20
-1.74500000E+02
 11
-7.99999924E+01
 21
-1.74500000E+02
  0
LINE
  8
0
 62
7
 10
-1.08000023E+02
 20
-1.72500000E+02
 11
-1.08000023E+02
 21
-1.26500000E+02
  0
ARC
  8
0
 62
7
 10
-1.06000023E+02
 20
-1.26500000E+02
 40
2.00000000E+00
 50
9.00000002E+01
 51
1.80000000E+02
  0
LINE
  8
0
 62
7
 10
-1.06000023E+02
 20
-1.24500000E+02
 11
-9.09999860E+01
 21
-1.24500000E+02
  0
LINE
  8
0
 62
7
 10
-1.70255001E+01
 20
-3.05100037E+02
 11
-8.00000381E+01
 21
-3.05100037E+02
  0
LINE
  8
0
 62
7
 10
-1.28685711E+01
 20
-2.97900024E+02
 11
-8.00000381E+01
 21
-2.97900024E+02
  0
LINE
  8
0
 62
7
 10
-1.14829340E+01
 20
-2.95500031E+02
 11
-8.00000381E+01
 21
-2.95500031E+02
  0
LINE
  8
0
 62
7
 10
-5.07427323E+01
 20
-1.83499969E+02
 11
-7.99999924E+01
 21
-1.83499969E+02
  0
LINE
  8
0
 62
7
 10
-4.93571040E+01
 20
-1.81099991E+02
 11
-7.99999924E+01
 21
-1.81099991E+02
  0
LINE
  8
0
 62
7
 10
-4.52001750E+01
 20
-1.73899979E+02
 11
-7.99999924E+01
 21
-1.73899979E+02
  0
LINE
  8
0
 62
7
 10
-7.14999860E+01
 20
-1.15500031E+02
 11
-7.99999924E+01
 21
-1.15500031E+02
  0
LINE
  8
0
 62
7
 10
-7.14999860E+01
 20
-1.17899994E+02
 11
-7.99999924E+01
 21
-1.17899994E+02
  0
LINE
  8
0
 62
6
 10
-3.89644401E+02
 20
-3.09785708E+02
 11
-3.89500160E+02
 21
-3.09738841E+02
  0
LINE
  8
0
 62
2
 10
-1.48999962E+02
 20
-3.21320007E+02
 11
-1.39999901E+02
 21
-3.21320007E+02
  0
LINE
  8
0
 62
7
 10
-1.48999962E+02
 20
-3.20500000E+02
 11
-1.39999901E+02
 21
-3.20500000E+02
  0
LINE
  8
0
 62
2
 10
-1.48999931E+02
 20
-1.57679962E+02
 11
-1.39999916E+02
 21
-1.57679962E+02
  0
LINE
  8
0
 62
7
 10
-1.48999931E+02
 20
-1.58499969E+02
 11
-1.39999916E+02
 21
-1.58499969E+02
  0
LINE
  8
0
 62
2
 10
-1.48999931E+02
 20
-1.41319992E+02
 11
-1.39999916E+02
 21
-1.41319992E+02
  0
LINE
  8
0
 62
7
 10
-1.48999931E+02
 20
-1.40499985E+02
 11
-1.39999916E+02
 21
-1.40499985E+02
  0
LINE
  8
0
 62
4
 10
-1.48999931E+02
 20
-1.36000000E+02
 11
-1.48999931E+02
 21
-1.63000000E+02
  0
LINE
  8
0
 62
4
 10
-1.59999931E+02
 20
-1.36000000E+02
 11
-1.59999931E+02
 21
-1.63000000E+02
  0
LINE
  8
0
 62
4
 10
-1.48999931E+02
 20
-1.36000000E+02
 11
-1.59999931E+02
 21
-1.36000000E+02
  0
LINE
  8
0
 62
4
 10
-1.48999931E+02
 20
-1.63000000E+02
 11
-1.59999931E+02
 21
-1.63000000E+02
  0
LINE
  8
0
 62
4
 10
-1.50205703E+02
 20
-1.49500000E+02
 11
-1.58794160E+02
 21
-1.49500000E+02
  0
ARC
  8
0
 62
4
 10
-1.40503538E+02
 20
-1.56250000E+02
 40
1.94963929E+01
 50
1.59743842E+02
 51
2.00256158E+02
  0
ARC
  8
0
 62
4
 10
-1.40503538E+02
 20
-1.42750000E+02
 40
1.94963929E+01
 50
1.59743842E+02
 51
2.00256158E+02
  0
ARC
  8
0
 62
4
 10
-1.68496324E+02
 20
-1.42750000E+02
 40
1.94963929E+01
 50
3.39743842E+02
 51
2.02561580E+01
  0
ARC
  8
0
 62
4
 10
-1.68496324E+02
 20
-1.56250000E+02
 40
1.94963929E+01
 50
3.39743842E+02
 51
2.02561580E+01
  0
LINE
  8
0
 62
4
 10
-1.58794190E+02
 20
-3.13911543E+02
 11
-1.50205733E+02
 21
-3.13911543E+02
  0
LINE
  8
0
 62
4
 10
-1.58794190E+02
 20
-3.21705771E+02
 11
-1.50205733E+02
 21
-3.21705771E+02
  0
LINE
  8
0
 62
4
 10
-1.58794190E+02
 20
-3.13911543E+02
 11
-1.59999962E+02
 21
-3.16000000E+02
  0
LINE
  8
0
 62
4
 10
-1.50205733E+02
 20
-3.13911543E+02
 11
-1.48999962E+02
 21
-3.16000000E+02
  0
ARC
  8
0
 62
4
 10
-1.53099241E+02
 20
-3.17808657E+02
 40
6.90072132E+00
 50
1.45615752E+02
 51
2.14384248E+02
  0
ARC
  8
0
 62
4
 10
-1.55900683E+02
 20
-3.17808657E+02
 40
6.90072132E+00
 50
3.25615752E+02
 51
3.43842480E+01
  0
ARC
  8
0
 62
4
 10
-1.74794190E+02
 20
-3.29500000E+02
 40
2.57942282E+01
 50
2.54444375E-13
 51
1.75879541E+01
  0
ARC
  8
0
 62
4
 10
-1.34205734E+02
 20
-3.29500000E+02
 40
2.57942282E+01
 50
1.62412046E+02
 51
1.80000000E+02
  0
LINE
  8
0
 62
4
 10
-1.59999962E+02
 20
-3.29500000E+02
 11
-1.59999962E+02
 21
-3.16000000E+02
  0
LINE
  8
0
 62
4
 10
-1.48999962E+02
 20
-3.29500000E+02
 11
-1.48999962E+02
 21
-3.16000000E+02
  0
ARC
  8
0
 62
4
 10
-3.52000069E+02
 20
-3.29500000E+02
 40
1.35000000E+01
 50
0.00000000E+00
 51
1.80000000E+02
  0
LINE
  8
0
 62
4
 10
-3.52000069E+02
 20
-3.13911543E+02
 11
-3.65500069E+02
 21
-3.21705771E+02
  0
LINE
  8
0
 62
4
 10
-3.65500069E+02
 20
-3.21705771E+02
 11
-3.65500069E+02
 21
-3.29500000E+02
  0
LINE
  8
0
 62
4
 10
-3.38500069E+02
 20
-3.29500000E+02
 11
-3.38500069E+02
 21
-3.21705771E+02
  0
LINE
  8
0
 62
4
 10
-3.38500069E+02
 20
-3.21705771E+02
 11
-3.52000069E+02
 21
-3.13911543E+02
  0
LINE
  8
0
 62
7
 10
-3.89500130E+02
 20
-3.29500000E+02
 11
-3.89500130E+02
 21
-2.96000000E+02
  0
ARC
  8
0
 62
7
 10
-3.52000069E+02
 20
-3.29500000E+02
 40
7.49999237E+00
 50
0.00000000E+00
 51
1.80000000E+02
  0
ARC
  8
0
 62
2
 10
-3.52000069E+02
 20
-3.29500000E+02
 40
8.18000031E+00
 50
0.00000000E+00
 51
1.80000000E+02
  0
ARC
  8
0
 62
7
 10
-3.52000069E+02
 20
-3.29500000E+02
 40
8.99999237E+00
 50
0.00000000E+00
 51
1.80000000E+02
  0
ARC
  8
0
 62
7
 10
-1.38499931E+02
 20
-3.29500000E+02
 40
9.99998474E+00
 50
0.00000000E+00
 51
3.17883527E+01
  0
ARC
  8
0
 62
7
 10
-1.21749947E+02
 20
-1.31491501E+02
 40
2.50000000E-01
 50
9.19988230E+01
 51
1.79999977E+02
  0
ARC
  8
0
 62
7
 10
-1.26499962E+02
 20
-1.32000076E+02
 40
5.00000000E-01
 50
8.99999818E+01
 51
1.79999964E+02
  0
ARC
  8
0
 62
7
 10
-1.21749947E+02
 20
-1.65508560E+02
 40
2.50000000E-01
 50
1.79999977E+02
 51
2.68001132E+02
  0
ARC
  8
0
 62
7
 10
-1.26499962E+02
 20
-1.64999985E+02
 40
5.00000000E-01
 50
1.79999977E+02
 51
2.69999974E+02
  0
CIRCLE
  8
0
 62
7
 10
-8.70000687E+01
 20
-1.61500000E+02
 40
2.59999990E+00
  0
ARC
  8
0
 62
7
 10
-8.70000687E+01
 20
-1.61500000E+02
 40
5.00000000E+00
 50
1.79999964E+02
 51
1.00179127E-05
  0
ARC
  8
0
 62
7
 10
-8.70000687E+01
 20
-1.61500000E+02
 40
5.00000000E+00
 50
0.00000000E+00
 51
1.79999964E+02
  0
ARC
  8
0
 62
2
 10
-9.40000381E+01
 20
-1.41500015E+02
 40
8.32999992E+00
 50
6.88905717E+01
 51
5.35364402E+01
  0
ARC
  8
0
 62
7
 10
-1.13500008E+02
 20
-1.68000000E+02
 40
5.00000000E-01
 50
1.79999909E+02
 51
2.69999891E+02
  0
ARC
  8
0
 62
7
 10
-1.13500008E+02
 20
-1.31000000E+02
 40
5.00000000E-01
 50
8.99999274E+01
 51
1.79999909E+02
  0
ARC
  8
0
 62
7
 10
-1.11500008E+02
 20
-1.13049927E+02
 40
5.00000000E-01
 50
9.10001742E+01
 51
1.79999909E+02
  0
ARC
  8
0
 62
7
 10
-9.40000381E+01
 20
-1.41500015E+02
 40
7.44000006E+00
 50
6.62195668E+01
 51
6.42160325E+01
  0
ARC
  8
0
 62
7
 10
-1.11500008E+02
 20
-1.85950073E+02
 40
5.00000000E-01
 50
1.79999964E+02
 51
2.68999706E+02
  0
ARC
  8
0
 62
7
 10
-1.21749947E+02
 20
-3.12491455E+02
 40
2.50000000E-01
 50
9.19988230E+01
 51
1.79999977E+02
  0
ARC
  8
0
 62
7
 10
-1.26499962E+02
 20
-3.13000031E+02
 40
5.00000000E-01
 50
8.99999818E+01
 51
1.79999964E+02
  0
CIRCLE
  8
0
 62
7
 10
-3.24000038E+02
 20
-3.01499924E+02
 40
3.32000017E+00
  0
CIRCLE
  8
0
 62
7
 10
-3.80000160E+02
 20
-3.01499924E+02
 40
3.32000017E+00
  0
CIRCLE
  8
0
 62
2
 10
-3.24000038E+02
 20
-3.01499924E+02
 40
4.00000000E+00
  0
CIRCLE
  8
0
 62
2
 10
-3.80000160E+02
 20
-3.01499924E+02
 40
4.00000000E+00
  0
ARC
  8
0
 62
7
 10
-3.52000099E+02
 20
-3.29499992E+02
 40
1.70000000E+01
 50
0.00000000E+00
 51
1.80000026E+02
  0
ARC
  8
0
 62
7
 10
-3.52000099E+02
 20
-3.29499992E+02
 40
1.90000000E+01
 50
0.00000000E+00
 51
1.80000023E+02
  0
ARC
  8
0
 62
7
 10
-3.52000099E+02
 20
-3.29499992E+02
 40
1.75294495E+01
 50
0.00000000E+00
 51
1.80000025E+02
  0
ARC
  8
0
 62
7
 10
-3.85500160E+02
 20
-3.16499924E+02
 40
1.00000000E+00
 50
9.00017305E+01
 51
1.80000005E+02
  0
ARC
  8
0
 62
7
 10
-3.85500252E+02
 20
-3.11999954E+02
 40
3.50000000E+00
 50
2.70001002E+02
 51
0.00000000E+00
  0
ARC
  8
0
 62
7
 10
-3.81022316E+02
 20
-3.10944809E+02
 40
1.00000000E+00
 50
8.38236876E+01
 51
1.74325470E+02
  0
ARC
  8
0
 62
7
 10
-3.80000160E+02
 20
-3.01499954E+02
 40
8.50000000E+00
 50
2.63823560E+02
 51
6.17667669E+00
  0
ARC
  8
0
 62
7
 10
-3.65000160E+02
 20
-2.95999969E+02
 40
1.00000000E+00
 50
8.99999818E+01
 51
1.79998270E+02
  0
ARC
  8
0
 62
7
 10
-3.69500191E+02
 20
-2.95999893E+02
 40
3.50000000E+00
 50
2.70000018E+02
 51
3.59999003E+02
  0
ARC
  8
0
 62
7
 10
-3.70555275E+02
 20
-3.00477814E+02
 40
1.00000000E+00
 50
9.56745100E+01
 51
1.86176313E+02
  0
ARC
  8
0
 62
7
 10
-3.18500130E+02
 20
-3.16499924E+02
 40
1.00000000E+00
 50
3.59999986E+02
 51
8.99982469E+01
  0
ARC
  8
0
 62
7
 10
-3.22977974E+02
 20
-3.10944809E+02
 40
1.00000000E+00
 50
5.67452116E+00
 51
9.61763036E+01
  0
ARC
  8
0
 62
7
 10
-3.18499977E+02
 20
-3.11999908E+02
 40
3.50000000E+00
 50
1.79999977E+02
 51
2.69998990E+02
  0
ARC
  8
0
 62
7
 10
-3.33444923E+02
 20
-3.00477814E+02
 40
1.00000000E+00
 50
3.53822790E+02
 51
8.43256382E+01
  0
ARC
  8
0
 62
7
 10
-3.39000008E+02
 20
-2.95999969E+02
 40
1.00000000E+00
 50
1.77584919E-03
 51
8.99999549E+01
  0
ARC
  8
0
 62
7
 10
-3.34500008E+02
 20
-2.95999817E+02
 40
3.50000000E+00
 50
1.80001525E+02
 51
2.70000018E+02
  0
CIRCLE
  8
0
 62
7
 10
-3.24000038E+02
 20
-3.01499954E+02
 40
6.00000000E+00
  0
ARC
  8
0
 62
7
 10
-3.18500130E+02
 20
-2.95999969E+02
 40
4.00000000E+00
 50
0.00000000E+00
 51
8.99999818E+01
  0
ARC
  8
0
 62
7
 10
-3.32100410E+02
 20
-3.27499985E+02
 40
1.00000000E+00
 50
1.85739458E+02
 51
2.69999963E+02
  0
ARC
  8
0
 62
7
 10
-3.18500130E+02
 20
-3.27499985E+02
 40
1.00000000E+00
 50
2.69999963E+02
 51
0.00000000E+00
  0
ARC
  8
0
 62
7
 10
-3.18500130E+02
 20
-2.95999969E+02
 40
3.50000000E+00
 50
0.00000000E+00
 51
8.99999818E+01
  0
ARC
  8
0
 62
7
 10
-3.29152809E+02
 20
-3.09481110E+02
 40
1.00000000E+00
 50
5.71532472E+01
 51
1.34999959E+02
  0
ARC
  8
0
 62
7
 10
-3.31981270E+02
 20
-3.06652664E+02
 40
1.00000000E+00
 50
3.14999995E+02
 51
3.28461612E+01
  0
ARC
  8
0
 62
7
 10
-3.39343056E+02
 20
-3.14014496E+02
 40
1.00000000E+00
 50
2.30738998E+02
 51
3.14999981E+02
  0
ARC
  8
0
 62
7
 10
-3.36514656E+02
 20
-3.16842941E+02
 40
1.00000000E+00
 50
1.34999959E+02
 51
2.19260957E+02
  0
CIRCLE
  8
0
 62
7
 10
-3.24000038E+02
 20
-3.01499954E+02
 40
6.50000048E+00
  0
CIRCLE
  8
0
 62
7
 10
-3.80000160E+02
 20
-3.01499924E+02
 40
6.00000000E+00
  0
ARC
  8
0
 62
7
 10
-3.85500160E+02
 20
-2.96000000E+02
 40
4.00000000E+00
 50
9.00000231E+01
 51
1.79999977E+02
  0
ARC
  8
0
 62
7
 10
-3.71899879E+02
 20
-3.27499985E+02
 40
1.00000000E+00
 50
2.70000045E+02
 51
3.54260551E+02
  0
ARC
  8
0
 62
7
 10
-3.85500130E+02
 20
-3.27499985E+02
 40
1.00000000E+00
 50
1.79999977E+02
 51
2.70000028E+02
  0
ARC
  8
0
 62
7
 10
-3.50000099E+02
 20
-2.95999969E+02
 40
1.00000000E+00
 50
8.99999818E+01
 51
1.79999964E+02
  0
ARC
  8
0
 62
7
 10
-3.50000099E+02
 20
-3.09600235E+02
 40
1.00000000E+00
 50
1.79999964E+02
 51
2.64260484E+02
  0
ARC
  8
0
 62
7
 10
-3.54000099E+02
 20
-2.96000000E+02
 40
1.00000000E+00
 50
3.59999959E+02
 51
8.99999956E+01
  0
ARC
  8
0
 62
7
 10
-3.85500160E+02
 20
-2.96000000E+02
 40
3.50000000E+00
 50
9.00000231E+01
 51
1.79999977E+02
  0
ARC
  8
0
 62
7
 10
-3.24000038E+02
 20
-3.01499954E+02
 40
8.50000000E+00
 50
1.73823315E+02
 51
2.76176459E+02
  0
ARC
  8
0
 62
7
 10
-3.54000099E+02
 20
-3.09600235E+02
 40
1.00000000E+00
 50
2.75739453E+02
 51
3.59999959E+02
  0
ARC
  8
0
 62
7
 10
-3.64657143E+02
 20
-3.14014526E+02
 40
1.00000000E+00
 50
2.24999972E+02
 51
3.09260983E+02
  0
ARC
  8
0
 62
7
 10
-3.67485603E+02
 20
-3.16842972E+02
 40
1.00000000E+00
 50
3.20738994E+02
 51
4.49999910E+01
  0
ARC
  8
0
 62
7
 10
-3.72018990E+02
 20
-3.06652695E+02
 40
1.00000000E+00
 50
1.47153243E+02
 51
2.24999955E+02
  0
ARC
  8
0
 62
7
 10
-3.74847389E+02
 20
-3.09481140E+02
 40
1.00000000E+00
 50
4.49999910E+01
 51
1.22846171E+02
  0
CIRCLE
  8
0
 62
7
 10
-3.80000160E+02
 20
-3.01499924E+02
 40
6.50000048E+00
  0
ARC
  8
0
 62
7
 10
-1.13500084E+02
 20
-3.10999985E+02
 40
5.00000000E-01
 50
9.00000913E+01
 51
1.80000073E+02
  0
ARC
  8
0
 62
7
 10
-1.11500069E+02
 20
-2.93049881E+02
 40
5.00000000E-01
 50
9.10003318E+01
 51
1.80000073E+02
  0
ARC
  8
0
 62
7
 10
-3.89622597E+02
 20
-3.17234558E+02
 40
2.50000000E+00
 50
8.99999956E+01
 51
1.72308570E+02
  0
ARC
  8
0
 62
7
 10
-3.89622597E+02
 20
-3.19765457E+02
 40
2.50000000E+00
 50
1.72308570E+02
 51
2.63627161E+02
  0
LINE
  8
0
 62
7
 10
-1.39999901E+02
 20
-3.21320007E+02
 11
-1.36999916E+02
 21
-3.21320007E+02
  0
LINE
  8
0
 62
7
 10
-1.36999884E+02
 20
-3.20500022E+02
 11
-1.33999896E+02
 21
-3.19500039E+02
  0
LINE
  8
0
 62
7
 10
-1.36999915E+02
 20
-3.26377560E+02
 11
-1.33999927E+02
 21
-3.24232464E+02
  0
LINE
  8
0
 62
7
 10
-1.34000038E+02
 20
-3.19500015E+02
 11
-1.26999992E+02
 21
-3.19500015E+02
  0
LINE
  8
0
 62
7
 10
-1.68999816E+02
 20
-3.22000197E+02
 11
-1.67499770E+02
 21
-3.20500197E+02
  0
LINE
  8
0
 62
2
 10
-1.68319893E+02
 20
-3.21320007E+02
 11
-1.59999962E+02
 21
-3.21320007E+02
  0
LINE
  8
0
 62
7
 10
-1.67499886E+02
 20
-3.20500000E+02
 11
-1.59999962E+02
 21
-3.20500000E+02
  0
LINE
  8
0
 62
7
 10
-1.67499886E+02
 20
-3.29500000E+02
 11
-1.67499886E+02
 21
-3.20499985E+02
  0
LINE
  8
0
 62
7
 10
-1.68999947E+02
 20
-3.29500000E+02
 11
-1.68999947E+02
 21
-3.22000153E+02
  0
LINE
  8
0
 62
7
 10
-1.39999901E+02
 20
-3.29500000E+02
 11
-1.39999901E+02
 21
-3.20499985E+02
  0
LINE
  8
0
 62
7
 10
-1.29999977E+02
 20
-3.29500000E+02
 11
-1.29999977E+02
 21
-3.24232132E+02
  0
LINE
  8
0
 62
7
 10
-1.33999916E+02
 20
-3.19499954E+02
 11
-1.33999916E+02
 21
-3.24232132E+02
  0
LINE
  8
0
 62
2
 10
-1.33499745E+02
 20
-3.29500000E+02
 11
-1.29999785E+02
 21
-3.24232196E+02
  0
LINE
  8
0
 62
2
 10
-1.36033531E+02
 20
-3.25686586E+02
 11
-1.33499876E+02
 21
-3.29500000E+02
  0
LINE
  8
0
 62
7
 10
-1.34000038E+02
 20
-3.24232147E+02
 11
-1.29999977E+02
 21
-3.24232147E+02
  0
LINE
  8
0
 62
7
 10
-1.36999916E+02
 20
-3.20500000E+02
 11
-1.36999916E+02
 21
-3.29500000E+02
  0
LINE
  8
0
 62
7
 10
-1.39999916E+02
 20
-1.57679962E+02
 11
-1.36999931E+02
 21
-1.57679962E+02
  0
LINE
  8
0
 62
7
 10
-1.39999916E+02
 20
-1.41319992E+02
 11
-1.36999931E+02
 21
-1.41319992E+02
  0
LINE
  8
0
 62
7
 10
-1.30000103E+02
 20
-1.40999845E+02
 11
-1.28500080E+02
 21
-1.39499822E+02
  0
LINE
  8
0
 62
7
 10
-1.30000047E+02
 20
-1.57999914E+02
 11
-1.28500077E+02
 21
-1.59499884E+02
  0
LINE
  8
0
 62
7
 10
-1.36999931E+02
 20
-1.40999969E+02
 11
-1.29999992E+02
 21
-1.40999969E+02
  0
LINE
  8
0
 62
7
 10
-1.36999931E+02
 20
-1.57999985E+02
 11
-1.29999992E+02
 21
-1.57999985E+02
  0
LINE
  8
0
 62
7
 10
-1.36999931E+02
 20
-1.57999985E+02
 11
-1.36999931E+02
 21
-1.40999985E+02
  0
LINE
  8
0
 62
7
 10
-1.68999976E+02
 20
-1.56999855E+02
 11
-1.67499941E+02
 21
-1.58499844E+02
  0
LINE
  8
0
 62
2
 10
-1.68319893E+02
 20
-1.57679962E+02
 11
-1.59999931E+02
 21
-1.57679962E+02
  0
LINE
  8
0
 62
7
 10
-1.67499886E+02
 20
-1.58499969E+02
 11
-1.59999931E+02
 21
-1.58499969E+02
  0
LINE
  8
0
 62
7
 10
-1.68999780E+02
 20
-1.42000170E+02
 11
-1.67499747E+02
 21
-1.40500183E+02
  0
LINE
  8
0
 62
2
 10
-1.68319893E+02
 20
-1.41319992E+02
 11
-1.59999931E+02
 21
-1.41319992E+02
  0
LINE
  8
0
 62
7
 10
-1.67499886E+02
 20
-1.40499985E+02
 11
-1.59999931E+02
 21
-1.40499985E+02
  0
LINE
  8
0
 62
7
 10
-1.67499916E+02
 20
-1.58499985E+02
 11
-1.67499916E+02
 21
-1.40499985E+02
  0
LINE
  8
0
 62
7
 10
-1.68999947E+02
 20
-1.56999954E+02
 11
-1.68999947E+02
 21
-1.42000153E+02
  0
LINE
  8
0
 62
7
 10
-1.39999916E+02
 20
-1.58499985E+02
 11
-1.39999916E+02
 21
-1.40499985E+02
  0
LINE
  8
0
 62
7
 10
-1.28499947E+02
 20
-1.39499954E+02
 11
-1.26999962E+02
 21
-1.39499954E+02
  0
LINE
  8
0
 62
7
 10
-1.28499977E+02
 20
-1.59499954E+02
 11
-1.27000008E+02
 21
-1.59499954E+02
  0
LINE
  8
0
 62
7
 10
-1.33999931E+02
 20
-1.40999985E+02
 11
-1.33999931E+02
 21
-1.57999985E+02
  0
LINE
  8
0
  6
CENTER
 62
2
 10
-1.15651985E+02
 20
-1.77500015E+02
 11
-4.72786571E+01
 21
-1.77500015E+02
  0
LINE
  8
0
 62
7
 10
-8.87322045E+01
 20
-1.61500071E+02
 11
-8.78661653E+01
 21
-1.63000104E+02
  0
LINE
  8
0
 62
7
 10
-8.78660507E+01
 20
-1.63000015E+02
 11
-8.61339645E+01
 21
-1.63000015E+02
  0
LINE
  8
0
 62
7
 10
-8.61340434E+01
 20
-1.63000036E+02
 11
-8.52680081E+01
 21
-1.61500009E+02
  0
LINE
  8
0
 62
7
 10
-8.52681843E+01
 20
-1.61500168E+02
 11
-8.61341930E+01
 21
-1.60000188E+02
  0
LINE
  8
0
 62
7
 10
-8.78660507E+01
 20
-1.59999985E+02
 11
-8.61339645E+01
 21
-1.59999985E+02
  0
LINE
  8
0
 62
7
 10
-8.87320898E+01
 20
-1.61500106E+02
 11
-8.78660582E+01
 21
-1.60000086E+02
  0
LINE
  8
0
  6
CENTER
 62
2
 10
-8.03343124E+01
 20
-1.61500000E+02
 11
-9.31630783E+01
 21
-1.61500000E+02
  0
LINE
  8
0
  6
CENTER
 62
2
 10
-8.70000687E+01
 20
-1.55088867E+02
 11
-8.70000687E+01
 21
-1.68565628E+02
  0
LINE
  8
0
  6
CENTER
 62
2
 10
-1.15651985E+02
 20
-1.21500000E+02
 11
-9.09999860E+01
 21
-1.21500000E+02
  0
LINE
  8
0
 62
7
 10
-1.14000008E+02
 20
-1.31000000E+02
 11
-1.14000008E+02
 21
-1.68000000E+02
  0
LINE
  8
0
 62
7
 10
-1.13499992E+02
 20
-1.68500015E+02
 11
-1.11999992E+02
 21
-1.68500015E+02
  0
LINE
  8
0
 62
7
 10
-1.11508794E+02
 20
-1.12549909E+02
 11
-7.99999972E+01
 21
-1.11999920E+02
  0
LINE
  8
0
 62
7
 10
-1.13499992E+02
 20
-1.30500000E+02
 11
-1.11999992E+02
 21
-1.30500000E+02
  0
LINE
  8
0
  6
CENTER
 62
2
 10
-9.40000381E+01
 20
-1.51500046E+02
 11
-9.40000381E+01
 21
-1.30953751E+02
  0
LINE
  8
0
  6
CENTER
 62
2
 10
-1.04364861E+02
 20
-1.41500015E+02
 11
-8.27606888E+01
 21
-1.41500015E+02
  0
LINE
  8
0
 62
7
 10
-1.11508774E+02
 20
-1.86449959E+02
 11
-8.00000694E+01
 21
-1.86999945E+02
  0
LINE
  8
0
 62
7
 10
-1.11999992E+02
 20
-1.13049927E+02
 11
-1.11999992E+02
 21
-1.85950073E+02
  0
LINE
  8
0
 62
7
 10
-1.26999962E+02
 20
-1.64999985E+02
 11
-1.26999962E+02
 21
-1.32000046E+02
  0
LINE
  8
0
 62
7
 10
-1.26499947E+02
 20
-1.65500015E+02
 11
-1.21991432E+02
 21
-1.65500015E+02
  0
LINE
  8
0
 62
7
 10
-1.21758671E+02
 20
-1.65758500E+02
 11
-1.13999972E+02
 21
-1.66029439E+02
  0
LINE
  8
0
 62
7
 10
-1.21999962E+02
 20
-1.31500015E+02
 11
-1.21999962E+02
 21
-1.65500015E+02
  0
LINE
  8
0
 62
7
 10
-1.21758739E+02
 20
-1.31241353E+02
 11
-1.14000040E+02
 21
-1.30970413E+02
  0
LINE
  8
0
 62
7
 10
-1.21999962E+02
 20
-1.31500015E+02
 11
-1.21999962E+02
 21
-1.31491470E+02
  0
LINE
  8
0
 62
7
 10
-1.26499947E+02
 20
-1.31500046E+02
 11
-1.21991432E+02
 21
-1.31500046E+02
  0
LINE
  8
0
 62
7
 10
-1.21999962E+02
 20
-1.65500015E+02
 11
-1.21999962E+02
 21
-1.65508560E+02
  0
LINE
  8
0
  6
CENTER
 62
2
 10
-1.73263954E+02
 20
-1.49500000E+02
 11
-7.59999860E+01
 21
-1.49500000E+02
  0
LINE
  8
0
 62
7
 10
-3.15000069E+02
 20
-3.29500000E+02
 11
-3.15000069E+02
 21
-2.95999969E+02
  0
LINE
  8
0
  6
CENTER
 62
2
 10
-3.24000008E+02
 20
-2.89814697E+02
 11
-3.24000008E+02
 21
-3.12729584E+02
  0
LINE
  8
0
 62
7
 10
-3.14500069E+02
 20
-3.29500000E+02
 11
-3.14500069E+02
 21
-2.95999969E+02
  0
LINE
  8
0
 62
7
 10
-3.18500130E+02
 20
-3.28499969E+02
 11
-3.32100410E+02
 21
-3.28499969E+02
  0
LINE
  8
0
 62
7
 10
-3.17500069E+02
 20
-3.29500000E+02
 11
-3.17500069E+02
 21
-3.16499924E+02
  0
LINE
  8
0
 62
7
 10
-3.85500160E+02
 20
-2.92499939E+02
 11
-3.18500130E+02
 21
-2.92499939E+02
  0
LINE
  8
0
 62
7
 10
-3.37221984E+02
 20
-3.16135660E+02
 11
-3.29860135E+02
 21
-3.08773814E+02
  0
LINE
  8
0
 62
7
 10
-3.38636262E+02
 20
-3.14721381E+02
 11
-3.31274413E+02
 21
-3.07359535E+02
  0
LINE
  8
0
 62
7
 10
-1.26999947E+02
 20
-3.29500000E+02
 11
-1.26999947E+02
 21
-3.13000031E+02
  0
LINE
  8
0
  6
CENTER
 62
2
 10
-3.80000130E+02
 20
-3.12729584E+02
 11
-3.80000130E+02
 21
-2.89942001E+02
  0
LINE
  8
0
 62
7
 10
-3.85500160E+02
 20
-2.91999908E+02
 11
-3.18500130E+02
 21
-2.91999908E+02
  0
LINE
  8
0
 62
7
 10
-3.85500099E+02
 20
-3.28500008E+02
 11
-3.71899879E+02
 21
-3.28500008E+02
  0
LINE
  8
0
 62
7
 10
-3.86500160E+02
 20
-3.29500000E+02
 11
-3.86500160E+02
 21
-3.16499924E+02
  0
LINE
  8
0
 62
7
 10
-3.51000099E+02
 20
-2.95999969E+02
 11
-3.51000099E+02
 21
-3.09600235E+02
  0
LINE
  8
0
 62
7
 10
-3.66778620E+02
 20
-3.16136115E+02
 11
-3.74140468E+02
 21
-3.08774268E+02
  0
LINE
  8
0
 62
7
 10
-3.53000099E+02
 20
-2.96000000E+02
 11
-3.53000099E+02
 21
-3.09600235E+02
  0
LINE
  8
0
 62
7
 10
-3.89000160E+02
 20
-3.29500000E+02
 11
-3.89000160E+02
 21
-2.96000000E+02
  0
LINE
  8
0
  6
CENTER
 62
2
 10
-3.40000069E+02
 20
-2.89785782E+02
 11
-3.40000069E+02
 21
-3.19505524E+02
  0
LINE
  8
0
 62
7
 10
-3.65364396E+02
 20
-3.14721891E+02
 11
-3.72726244E+02
 21
-3.07360043E+02
  0
LINE
  8
0
 62
7
 10
-1.21999947E+02
 20
-3.29500000E+02
 11
-1.21999947E+02
 21
-3.12500000E+02
  0
LINE
  8
0
  6
CENTER
 62
2
 10
-3.34630653E+02
 20
-3.01499878E+02
 11
-3.12097694E+02
 21
-3.01499878E+02
  0
LINE
  8
0
 62
7
 10
-3.21999886E+02
 20
-3.11999908E+02
 11
-3.21999886E+02
 21
-3.10736176E+02
  0
LINE
  8
0
  6
CENTER
 62
2
 10
-1.15652000E+02
 20
-3.01499969E+02
 11
-1.49470004E+01
 21
-3.01499969E+02
  0
LINE
  8
0
 62
7
 10
-1.14000069E+02
 20
-3.29500000E+02
 11
-1.14000069E+02
 21
-3.10999985E+02
  0
LINE
  8
0
 62
7
 10
-1.11508848E+02
 20
-2.92550046E+02
 11
-8.00001584E+01
 21
-2.92000059E+02
  0
LINE
  8
0
 62
7
 10
-1.12000069E+02
 20
-3.29500000E+02
 11
-1.12000069E+02
 21
-2.93049881E+02
  0
LINE
  8
0
 62
7
 10
-1.13500053E+02
 20
-3.10499985E+02
 11
-1.12000069E+02
 21
-3.10499985E+02
  0
LINE
  8
0
 62
7
 10
-1.08000053E+02
 20
-2.92488785E+02
 11
-1.08000053E+02
 21
-2.92000000E+02
  0
LINE
  8
0
 62
7
 10
-1.08000053E+02
 20
-2.92000000E+02
 11
-8.00000534E+01
 21
-2.92000000E+02
  0
LINE
  8
0
  6
CENTER
 62
2
 10
-9.40001144E+01
 20
-2.89814713E+02
 11
-9.40001144E+01
 21
-3.01699921E+02
  0
LINE
  8
0
 62
7
 10
-1.21999947E+02
 20
-3.12500000E+02
 11
-1.21999947E+02
 21
-3.12491455E+02
  0
LINE
  8
0
 62
7
 10
-1.21758592E+02
 20
-3.12241500E+02
 11
-1.13999893E+02
 21
-3.11970561E+02
  0
LINE
  8
0
 62
7
 10
-3.34500008E+02
 20
-2.99499725E+02
 11
-3.33236580E+02
 21
-2.99499725E+02
  0
LINE
  8
0
 62
7
 10
-3.82000343E+02
 20
-3.11999908E+02
 11
-3.82000343E+02
 21
-3.10736328E+02
  0
LINE
  8
0
 62
7
 10
-3.69500191E+02
 20
-2.99499756E+02
 11
-3.70763710E+02
 21
-2.99499756E+02
  0
LINE
  8
0
  6
CENTER
 62
2
 10
-3.52000069E+02
 20
-2.88870331E+02
 11
-3.52000069E+02
 21
-3.29500000E+02
  0
LINE
  8
0
  6
CENTER
 62
2
 10
-3.92842354E+02
 20
-3.29500000E+02
 11
-3.11171944E+02
 21
-3.29500000E+02
  0
LINE
  8
0
 62
7
 10
-1.26499977E+02
 20
-3.12500000E+02
 11
-1.21991386E+02
 21
-3.12500000E+02
  0
LINE
  8
0
 62
7
 10
-3.27000069E+02
 20
-2.91999954E+02
 11
-3.27000069E+02
 21
-2.92499939E+02
  0
LINE
  8
0
 62
7
 10
-3.77000069E+02
 20
-2.91999954E+02
 11
-3.77000069E+02
 21
-2.92499939E+02
  0
LINE
  8
0
  6
CENTER
 62
2
 10
-3.60000069E+02
 20
-2.89814697E+02
 11
-3.60000069E+02
 21
-3.15781082E+02
  0
LINE
  8
0
 62
7
 10
-3.89900032E+02
 20
-3.14750000E+02
 11
-3.89500099E+02
 21
-3.14750000E+02
  0
LINE
  8
0
 62
7
 10
-3.92100075E+02
 20
-3.16899963E+02
 11
-3.92100075E+02
 21
-3.20100006E+02
  0
LINE
  8
0
  6
CENTER
 62
2
 10
-3.92964149E+02
 20
-3.18500000E+02
 11
-3.89500099E+02
 21
-3.18500000E+02
  0
LINE
  8
0
  6
CENTER
 62
2
 10
-3.92045204E+02
 20
-3.01499878E+02
 11
-3.69894112E+02
 21
-3.01499878E+02
  0
LINE
  8
0
 62
7
 10
-3.65000160E+02
 20
-2.94999939E+02
 11
-3.39000008E+02
 21
-2.94999939E+02
  0
LINE
  8
0
 62
7
 10
-3.89900032E+02
 20
-3.22250008E+02
 11
-3.89500099E+02
 21
-3.22250008E+02
  0
LINE
  8
0
  6
CENTER
 62
2
 10
-1.72713173E+02
 20
-3.29500000E+02
 11
-3.11128255E+01
 21
-3.29500000E+02
  0
LINE
  8
0
 62
7
 10
-1.14829493E+01
 20
-1.15500031E+02
 11
-5.64999860E+01
 21
-1.15500031E+02
  0
LINE
  8
0
 62
7
 10
-1.28685688E+01
 20
-1.17899994E+02
 11
-5.64999860E+01
 21
-1.17899994E+02
  0
LINE
  8
0
 62
7
 10
-1.70254978E+01
 20
-1.25100006E+02
 11
-3.71507798E+01
 21
-1.25100006E+02
  0
LINE
  8
0
 62
7
 10
-8.00000381E+01
 20
-2.92000000E+02
 11
-8.00000381E+01
 21
-3.29500000E+02
  0
LINE
  8
0
 62
7
 10
-7.99999924E+01
 20
-1.86999969E+02
 11
-7.99999924E+01
 21
-1.34437087E+02
  0
LINE
  8
0
  6
CENTER
 62
2
 10
-5.64999860E+01
 20
-1.21500000E+02
 11
-1.49470333E+01
 21
-1.21500000E+02
  0
LINE
  8
0
 62
7
 10
-7.99999924E+01
 20
-1.20437087E+02
 11
-7.99999924E+01
 21
-1.12000000E+02
  0
LINE
  8
0
  6
CENTER
 62
2
 10
-3.69999860E+01
 20
-1.49500000E+02
 11
-3.11128408E+01
 21
-1.49500000E+02
  0
LINE
  8
0
 62
2
 10
-3.52756831E+01
 20
-3.36710281E+02
 11
-9.57862939E+00
 21
-2.92201678E+02
  0
LINE
  8
0
 62
2
 10
-5.27944399E+01
 20
-1.87053631E+02
 11
-9.57864464E+00
 21
-1.12201678E+02
  0
LINE
  8
0
 62
7
 10
2.91940231E+02
 20
-3.05100037E+02
 11
3.42499901E+02
 21
-3.05100037E+02
  0
LINE
  8
0
 62
7
 10
2.96097160E+02
 20
-2.97900024E+02
 11
3.42499901E+02
 21
-2.97900024E+02
  0
LINE
  8
0
 62
7
 10
2.97482797E+02
 20
-2.95500031E+02
 11
3.23218641E+02
 21
-2.95500031E+02
  0
LINE
  8
0
  6
CENTER
 62
2
 10
4.01651863E+02
 20
-3.01499969E+02
 11
3.57499901E+02
 21
-3.01499969E+02
  0
LINE
  8
0
  6
CENTER
 62
2
 10
4.58713036E+02
 20
-3.29500000E+02
 11
2.77852905E+02
 21
-3.29500000E+02
  0
LINE
  8
0
 62
7
 10
3.65999901E+02
 20
-2.92000000E+02
 11
3.65999901E+02
 21
-3.29500000E+02
  0
LINE
  8
0
 62
7
 10
4.12499840E+02
 20
-3.12500000E+02
 11
4.07991249E+02
 21
-3.12500000E+02
  0
LINE
  8
0
 62
7
 10
4.07758454E+02
 20
-3.12241500E+02
 11
3.99999756E+02
 21
-3.11970561E+02
  0
LINE
  8
0
 62
7
 10
4.07999809E+02
 20
-3.12500000E+02
 11
4.07999809E+02
 21
-3.12491455E+02
  0
LINE
  8
0
  6
CENTER
 62
2
 10
3.79999977E+02
 20
-2.89814713E+02
 11
3.79999977E+02
 21
-3.01699921E+02
  0
LINE
  8
0
 62
7
 10
3.93999916E+02
 20
-2.92000000E+02
 11
3.65999916E+02
 21
-2.92000000E+02
  0
LINE
  8
0
 62
7
 10
3.93999916E+02
 20
-2.92488785E+02
 11
3.93999916E+02
 21
-2.92000000E+02
  0
LINE
  8
0
 62
7
 10
3.99499916E+02
 20
-3.10499985E+02
 11
3.97999931E+02
 21
-3.10499985E+02
  0
LINE
  8
0
 62
7
 10
3.97999931E+02
 20
-3.29500000E+02
 11
3.97999931E+02
 21
-2.93049881E+02
  0
LINE
  8
0
 62
7
 10
3.97508711E+02
 20
-2.92550046E+02
 11
3.66000021E+02
 21
-2.92000059E+02
  0
LINE
  8
0
 62
7
 10
3.99999931E+02
 20
-3.29500000E+02
 11
3.99999931E+02
 21
-3.10999985E+02
  0
LINE
  8
0
 62
7
 10
4.07999809E+02
 20
-3.29500000E+02
 11
4.07999809E+02
 21
-3.12500000E+02
  0
LINE
  8
0
 62
7
 10
4.12999809E+02
 20
-3.29500000E+02
 11
4.12999809E+02
 21
-3.13000031E+02
  0
LINE
  8
0
 62
7
 10
4.22999779E+02
 20
-3.20500000E+02
 11
4.22999779E+02
 21
-3.29500000E+02
  0
LINE
  8
0
 62
7
 10
4.19999901E+02
 20
-3.24232147E+02
 11
4.15999840E+02
 21
-3.24232147E+02
  0
LINE
  8
0
 62
2
 10
4.22033394E+02
 20
-3.25686586E+02
 11
4.19499739E+02
 21
-3.29500000E+02
  0
LINE
  8
0
 62
2
 10
4.19499608E+02
 20
-3.29500000E+02
 11
4.15999648E+02
 21
-3.24232196E+02
  0
LINE
  8
0
 62
7
 10
4.19999779E+02
 20
-3.19499954E+02
 11
4.19999779E+02
 21
-3.24232132E+02
  0
LINE
  8
0
 62
7
 10
4.15999840E+02
 20
-3.29500000E+02
 11
4.15999840E+02
 21
-3.24232132E+02
  0
LINE
  8
0
 62
7
 10
4.25999763E+02
 20
-3.29500000E+02
 11
4.25999763E+02
 21
-3.20499985E+02
  0
LINE
  8
0
 62
7
 10
4.54999809E+02
 20
-3.29500000E+02
 11
4.54999809E+02
 21
-3.22000153E+02
  0
LINE
  8
0
 62
7
 10
4.53499748E+02
 20
-3.29500000E+02
 11
4.53499748E+02
 21
-3.20499985E+02
  0
LINE
  8
0
 62
7
 10
4.53499748E+02
 20
-3.20500000E+02
 11
4.45999825E+02
 21
-3.20500000E+02
  0
LINE
  8
0
 62
2
 10
4.54319756E+02
 20
-3.21320007E+02
 11
4.45999825E+02
 21
-3.21320007E+02
  0
LINE
  8
0
 62
7
 10
4.54999679E+02
 20
-3.22000197E+02
 11
4.53499633E+02
 21
-3.20500197E+02
  0
LINE
  8
0
 62
7
 10
4.19999901E+02
 20
-3.19500015E+02
 11
4.12999855E+02
 21
-3.19500015E+02
  0
LINE
  8
0
 62
7
 10
4.22999778E+02
 20
-3.26377560E+02
 11
4.19999789E+02
 21
-3.24232464E+02
  0
LINE
  8
0
 62
7
 10
4.22999747E+02
 20
-3.20500022E+02
 11
4.19999758E+02
 21
-3.19500039E+02
  0
LINE
  8
0
 62
7
 10
4.25999763E+02
 20
-3.21320007E+02
 11
4.22999779E+02
 21
-3.21320007E+02
  0
ARC
  8
0
 62
7
 10
3.97499931E+02
 20
-2.93049881E+02
 40
5.00000000E-01
 50
3.59999927E+02
 51
8.89996686E+01
  0
ARC
  8
0
 62
7
 10
3.99499947E+02
 20
-3.10999985E+02
 40
5.00000000E-01
 50
3.59999927E+02
 51
8.99999085E+01
  0
ARC
  8
0
 62
7
 10
4.12499825E+02
 20
-3.13000031E+02
 40
5.00000000E-01
 50
3.59721787E-05
 51
9.00000179E+01
  0
ARC
  8
0
 62
7
 10
4.07749809E+02
 20
-3.12491455E+02
 40
2.50000000E-01
 50
2.23118003E-05
 51
8.80011768E+01
  0
ARC
  8
0
 62
7
 10
4.24499794E+02
 20
-3.29500000E+02
 40
9.99998474E+00
 50
1.48211648E+02
 51
1.80000000E+02
  0
LINE
  8
0
 62
4
 10
4.34999825E+02
 20
-3.29500000E+02
 11
4.34999825E+02
 21
-3.16000000E+02
  0
LINE
  8
0
 62
4
 10
4.45999825E+02
 20
-3.29500000E+02
 11
4.45999825E+02
 21
-3.16000000E+02
  0
ARC
  8
0
 62
4
 10
4.20205596E+02
 20
-3.29500000E+02
 40
2.57942282E+01
 50
2.54444375E-13
 51
1.75879541E+01
  0
ARC
  8
0
 62
4
 10
4.60794053E+02
 20
-3.29500000E+02
 40
2.57942282E+01
 50
1.62412046E+02
 51
1.80000000E+02
  0
ARC
  8
0
 62
4
 10
4.41900546E+02
 20
-3.17808657E+02
 40
6.90072132E+00
 50
1.45615752E+02
 51
2.14384248E+02
  0
ARC
  8
0
 62
4
 10
4.39099103E+02
 20
-3.17808657E+02
 40
6.90072132E+00
 50
3.25615752E+02
 51
3.43842480E+01
  0
LINE
  8
0
 62
4
 10
4.36205596E+02
 20
-3.13911543E+02
 11
4.34999825E+02
 21
-3.16000000E+02
  0
LINE
  8
0
 62
4
 10
4.44794053E+02
 20
-3.13911543E+02
 11
4.45999825E+02
 21
-3.16000000E+02
  0
LINE
  8
0
 62
4
 10
4.44794053E+02
 20
-3.21705771E+02
 11
4.36205596E+02
 21
-3.21705771E+02
  0
LINE
  8
0
 62
4
 10
4.44794053E+02
 20
-3.13911543E+02
 11
4.36205596E+02
 21
-3.13911543E+02
  0
LINE
  8
0
 62
7
 10
4.34999825E+02
 20
-3.20500000E+02
 11
4.25999763E+02
 21
-3.20500000E+02
  0
LINE
  8
0
 62
2
 10
4.34999825E+02
 20
-3.21320007E+02
 11
4.25999763E+02
 21
-3.21320007E+02
  0
LINE
  8
0
 62
2
 10
2.74619827E+02
 20
-3.35099856E+02
 11
3.01291080E+02
 21
-2.88903890E+02
  0
LINE
  8
0
 62
7
 10
3.61781160E+02
 20
-2.95500031E+02
 11
3.65999901E+02
 21
-2.95500031E+02
  0
LINE
  8
0
 62
7
 10
3.57499901E+02
 20
-3.05100037E+02
 11
3.65999901E+02
 21
-3.05100037E+02
  0
LINE
  8
0
 62
7
 10
3.57499901E+02
 20
-2.97900024E+02
 11
3.65999901E+02
 21
-2.97900024E+02
  0
LINE
  8
0
  6
CENTER
 62
2
 10
3.42499901E+02
 20
-3.01499969E+02
 11
2.94018730E+02
 21
-3.01499969E+02
  0
TEXT
  8
0
 10
-7.72146873E+01
 20
3.54316712E+02
 40
9.00000000E+00
  1
STRETCH LINE
 41
1.05263158E+00
  7
MONOTXT
  0
LINE
  8
0
 62
7
 10
5.74500000E+02
 20
4.00500000E+02
 11
5.74500000E+02
 21
-4.00500000E+02
  0
LINE
  8
0
 62
7
 10
-5.64500000E+02
 20
4.00500000E+02
 11
5.74500000E+02
 21
4.00500000E+02
  0
LINE
  8
0
 62
7
 10
-5.64500000E+02
 20
-4.00500000E+02
 11
5.74500000E+02
 21
-4.00500000E+02
  0
LINE
  8
0
 62
7
 10
-5.64500000E+02
 20
4.00500000E+02
 11
-5.64500000E+02
 21
-4.00500000E+02
  0
LINE
  8
0
 62
7
 10
-5.64500000E+02
 20
3.70500000E+02
 11
-3.34500000E+02
 21
3.70500000E+02
  0
LINE
  8
0
 62
7
 10
3.44500000E+02
 20
3.70500000E+02
 11
5.74500000E+02
 21
3.70500000E+02
  0
LINE
  8
0
 62
7
 10
3.44500000E+02
 20
-3.70500000E+02
 11
5.74500000E+02
 21
-3.70500000E+02
  0
LINE
  8
0
 62
7
 10
3.44500000E+02
 20
-3.70500000E+02
 11
3.44500000E+02
 21
-4.00500000E+02
  0
LINE
  8
0
 62
7
 10
3.44500000E+02
 20
4.00500000E+02
 11
3.44500000E+02
 21
3.70500000E+02
  0
LINE
  8
0
 62
7
 10
-3.34500000E+02
 20
4.00500000E+02
 11
-3.34500000E+02
 21
3.70500000E+02
  0
TEXT
  8
0
 62
7
 10
-5.37179687E+02
 20
3.34250000E+02
 40
1.25000000E+01
  1
MODEL:DDAK-HL63*75
 41
1.00000015E+00
  7
MONOTXT
  0
TEXT
  8
0
 62
7
 10
4.11285149E+02
 20
3.79250000E+02
 40
1.25000000E+01
  1
Ver. 1.0
 41
1.08108125E+00
  7
MONOTXT
  0
TEXT
  8
0
 62
7
 10
3.50070624E+02
 20
-3.94500000E+02
 40
1.80000000E+01
  1
KOGANEI CORP.
 41
1.04838710E+00
  7
MONOTXT
  0
TEXT
  8
0
 62
7
 10
-5.53964859E+02
 20
3.79250000E+02
 40
1.25000000E+01
  1
NEW DYNA CYLINDER
 41
1.07594953E+00
  7
MONOTXT
  0
ENDSEC
  0
EOF
