  0
SECTION
  2
HEADER
  9
$ACADVER
  1
AC1003
  9
$EXTMIN
 10
-5.64500000E+02
 20
-4.00500000E+02
  9
$EXTMAX
 10
5.74500000E+02
 20
4.00500000E+02
  9
$LIMMIN
 10
-5.64501000E+02
 20
-4.00501000E+02
  9
$LIMMAX
 10
5.74501000E+02
 20
4.00501000E+02
  9
$SNAPUNIT
 10
1
 20
1
  9
$SNAPBASE
 10
0
 20
0
  9
$GRIDMODE
 70
0
  9
$GRIDUNIT
 10
0
 20
0
  9
$LTSCALE
 40
1.89833333E+01
  9
$TEXTSIZE
 40
3.2
  9
$DIMTAD
 70
0
  9
$LUNITS
 70
2
  9
$LUPREC
 70
4
  9
$FILLETRAD
 40
0
  9
$AUNITS
 70
0
  9
$AUPREC
 70
0
  0
ENDSEC
  0
SECTION
  2
TABLES
  0
TABLE
  2
LTYPE
 70
2
  0
LTYPE
  2
CONTINUOUS
 70
64
  3
Solid-Line
 72
65
 73
0
 40
0
  0
LTYPE
  2
DASHED
 70
64
  3
DASHED
 72
65
 73
2
 40
.75
 49
.5
 49
-.25
  0
LTYPE
  2
HIDDEN
 70
64
  3
HIDDEN
 72
65
 73
2
 40
.375
 49
.25
 49
-.125
  0
LTYPE
  2
CENTER
 70
64
  3
CENTER
 72
65
 73
4
 40
2
 49
1.25
 49
-.25
 49
.25
 49
-.25
  0
LTYPE
  2
PHANTOM
 70
64
  3
PHANTOM
 72
65
 73
6
 40
2.5
 49
1.25
 49
-.25
 49
.25
 49
-.25
 49
.25
 49
-.25
  0
ENDTAB
  0
TABLE
  2
LAYER
 70
1
  0
LAYER
  2
1
 70
0
 62
7
  6
CONTINUOUS
 0
ENDTAB
  0
TABLE
  2
STYLE
 70
2
  0
STYLE
  2
MONOTXT
 70
0
 40
0
 41
1
 50
0
 71
0
 42
.2
  3
monotxt
  0
STYLE
  2
BIGFONT
 70
0
 40
0
 41
1
 50
0
 71
0
 42
.2
  3
txt
  4
bigfont
  0
ENDTAB
  0
ENDSEC
  0
SECTION
  2
ENTITIES
  0
LINE
  8
0
  6
PHANTOM
 10
4.99954224E-01
 20
2.81313474E+01
 11
4.99954224E-01
 21
1.96111431E+02
  0
LINE
  8
0
  6
CENTER
 62
2
 10
-1.66561821E+02
 20
1.00500000E+02
 11
9.02532158E+01
 21
1.00500000E+02
  0
LINE
  8
0
 62
7
 10
5.19999313E+01
 20
1.38000000E+02
 11
5.19999313E+01
 21
6.30000000E+01
  0
LINE
  8
0
 62
7
 10
-5.50000534E+01
 20
1.38000000E+02
 11
-5.50000534E+01
 21
6.30000000E+01
  0
LINE
  8
0
  6
CENTER
 62
2
 10
8.82291756E+01
 20
1.28500008E+02
 11
-1.10423790E+02
 21
1.28500008E+02
  0
LINE
  8
0
 62
7
 10
5.19999313E+01
 20
7.61000366E+01
 11
-5.50000534E+01
 21
7.61000366E+01
  0
LINE
  8
0
 62
7
 10
5.19999313E+01
 20
6.89000244E+01
 11
-5.50000534E+01
 21
6.89000244E+01
  0
LINE
  8
0
 62
7
 10
5.19999313E+01
 20
6.65000229E+01
 11
-5.50000534E+01
 21
6.65000229E+01
  0
LINE
  8
0
 62
7
 10
5.19999313E+01
 20
1.34499969E+02
 11
4.59193490E+01
 21
1.34499969E+02
  0
LINE
  8
0
 62
7
 10
5.19999313E+01
 20
1.24899963E+02
 11
2.99999313E+01
 21
1.24899963E+02
  0
LINE
  8
0
 62
7
 10
5.19999313E+01
 20
1.32099976E+02
 11
4.49999313E+01
 21
1.32099976E+02
  0
LINE
  8
0
 62
7
 10
-1.22000114E+02
 20
8.39999924E+01
 11
-1.22000114E+02
 21
1.16999924E+02
  0
LINE
  8
0
 62
7
 10
-1.17000114E+02
 20
8.30000000E+01
 11
-1.17000114E+02
 21
1.18000000E+02
  0
LINE
  8
0
 62
7
 10
-1.07000114E+02
 20
1.38000000E+02
 11
-1.07000114E+02
 21
6.30000000E+01
  0
LINE
  8
0
 62
7
 10
-1.07000084E+02
 20
1.38000000E+02
 11
-5.50000534E+01
 21
1.38000000E+02
  0
LINE
  8
0
 62
7
 10
-1.21500130E+02
 20
8.34999924E+01
 11
-1.21500130E+02
 21
1.17500000E+02
  0
LINE
  8
0
  6
CENTER
 62
2
 10
-1.03912163E+02
 20
8.95000153E+01
 11
-9.11858139E+01
 21
8.95000153E+01
  0
LINE
  8
0
  6
CENTER
 62
2
 10
-9.70000534E+01
 20
8.29228897E+01
 11
-9.70000534E+01
 21
9.56492157E+01
  0
LINE
  8
0
  6
DASHED
 62
7
 10
-9.70000889E+01
 20
8.80566418E+01
 11
-9.57500466E+01
 21
8.87783458E+01
  0
LINE
  8
0
  6
DASHED
 62
7
 10
-9.69999722E+01
 20
8.80567710E+01
 11
-9.82499748E+01
 21
8.87784521E+01
  0
LINE
  8
0
  6
DASHED
 62
7
 10
-9.57499536E+01
 20
9.02218302E+01
 11
-9.69999430E+01
 21
9.09435038E+01
  0
LINE
  8
0
  6
DASHED
 62
7
 10
-9.70000888E+01
 20
9.09433849E+01
 11
-9.82500650E+01
 21
9.02217190E+01
  0
LINE
  8
0
  6
DASHED
 62
7
 10
-9.57500534E+01
 20
8.87783127E+01
 11
-9.57500534E+01
 21
9.02217026E+01
  0
LINE
  8
0
  6
DASHED
 62
7
 10
-9.82500534E+01
 20
8.87783127E+01
 11
-9.82500534E+01
 21
9.02217026E+01
  0
LINE
  8
0
  6
CENTER
 62
2
 10
-6.80879745E+01
 20
8.95000153E+01
 11
-8.08143234E+01
 21
8.95000153E+01
  0
LINE
  8
0
  6
CENTER
 62
2
 10
-7.50000687E+01
 20
8.29228897E+01
 11
-7.50000687E+01
 21
9.56492157E+01
  0
LINE
  8
0
  6
DASHED
 62
7
 10
-7.50001307E+01
 20
8.80566510E+01
 11
-7.37500884E+01
 21
8.87783551E+01
  0
LINE
  8
0
  6
DASHED
 62
7
 10
-7.37500687E+01
 20
8.87783127E+01
 11
-7.37500687E+01
 21
9.02217026E+01
  0
LINE
  8
0
  6
DASHED
 62
7
 10
-7.49999860E+01
 20
9.09434925E+01
 11
-7.37500098E+01
 21
9.02218265E+01
  0
LINE
  8
0
  6
DASHED
 62
7
 10
-7.62501068E+01
 20
9.02217282E+01
 11
-7.50001108E+01
 21
9.09434056E+01
  0
LINE
  8
0
  6
DASHED
 62
7
 10
-7.62500687E+01
 20
8.87783127E+01
 11
-7.62500687E+01
 21
9.02217026E+01
  0
LINE
  8
0
  6
DASHED
 62
7
 10
-7.49999754E+01
 20
8.80567675E+01
 11
-7.62499648E+01
 21
8.87784410E+01
  0
LINE
  8
0
  6
CENTER
 62
2
 10
-1.03912163E+02
 20
1.11500000E+02
 11
-9.11858139E+01
 21
1.11500000E+02
  0
LINE
  8
0
  6
CENTER
 62
2
 10
-9.70000534E+01
 20
1.18077133E+02
 11
-9.70000534E+01
 21
1.05350807E+02
  0
LINE
  8
0
  6
DASHED
 62
7
 10
-9.70000879E+01
 20
1.12943402E+02
 11
-9.82500839E+01
 21
1.12221724E+02
  0
LINE
  8
0
  6
DASHED
 62
7
 10
-9.82500534E+01
 20
1.12221710E+02
 11
-9.82500534E+01
 21
1.10778320E+02
  0
LINE
  8
0
  6
DASHED
 62
7
 10
-9.69999281E+01
 20
1.10056729E+02
 11
-9.82499175E+01
 21
1.10778402E+02
  0
LINE
  8
0
  6
DASHED
 62
7
 10
-9.57500447E+01
 20
1.10778346E+02
 11
-9.70000539E+01
 21
1.10056661E+02
  0
LINE
  8
0
  6
DASHED
 62
7
 10
-9.57500534E+01
 20
1.12221710E+02
 11
-9.57500534E+01
 21
1.10778320E+02
  0
LINE
  8
0
  6
DASHED
 62
7
 10
-9.69999917E+01
 20
1.12943453E+02
 11
-9.57499891E+01
 21
1.12221772E+02
  0
LINE
  8
0
  6
CENTER
 62
2
 10
-6.80879745E+01
 20
1.11500000E+02
 11
-8.08143234E+01
 21
1.11500000E+02
  0
LINE
  8
0
  6
CENTER
 62
2
 10
-7.50000687E+01
 20
1.18077133E+02
 11
-7.50000687E+01
 21
1.05350807E+02
  0
LINE
  8
0
  6
DASHED
 62
7
 10
-7.49999619E+01
 20
1.12943537E+02
 11
-7.37499197E+01
 21
1.12221833E+02
  0
LINE
  8
0
  6
DASHED
 62
7
 10
-7.37500687E+01
 20
1.12221710E+02
 11
-7.37500687E+01
 21
1.10778320E+02
  0
LINE
  8
0
  6
DASHED
 62
7
 10
-7.50000627E+01
 20
1.10056689E+02
 11
-7.37500998E+01
 21
1.10778347E+02
  0
LINE
  8
0
  6
DASHED
 62
7
 10
-7.62499358E+01
 20
1.10778434E+02
 11
-7.49999596E+01
 21
1.10056768E+02
  0
LINE
  8
0
  6
DASHED
 62
7
 10
-7.62500687E+01
 20
1.12221710E+02
 11
-7.62500687E+01
 21
1.10778320E+02
  0
LINE
  8
0
  6
DASHED
 62
7
 10
-7.50000499E+01
 20
1.12943334E+02
 11
-7.62500459E+01
 21
1.12221656E+02
  0
LINE
  8
0
 62
7
 10
-1.07000084E+02
 20
6.30000000E+01
 11
-5.50000534E+01
 21
6.30000000E+01
  0
LINE
  8
0
 62
7
 10
-1.21500099E+02
 20
8.34999924E+01
 11
-1.16991570E+02
 21
8.34999924E+01
  0
LINE
  8
0
 62
7
 10
-1.09000130E+02
 20
1.19500000E+02
 11
-1.09000130E+02
 21
8.14999924E+01
  0
LINE
  8
0
 62
7
 10
-1.21500130E+02
 20
1.17500000E+02
 11
-1.16991570E+02
 21
1.17500000E+02
  0
LINE
  8
0
 62
7
 10
-1.22000081E+02
 20
1.16999948E+02
 11
-1.21500099E+02
 21
1.17499946E+02
  0
LINE
  8
0
 62
7
 10
-1.22000075E+02
 20
8.39999849E+01
 11
-1.21500086E+02
 21
8.34999951E+01
  0
LINE
  8
0
 62
7
 10
-1.16000114E+02
 20
1.19000000E+02
 11
-1.09500114E+02
 21
1.19000000E+02
  0
LINE
  8
0
 62
7
 10
-1.09500206E+02
 20
1.19000081E+02
 11
-1.09000211E+02
 21
1.19500076E+02
  0
LINE
  8
0
 62
7
 10
-1.16000114E+02
 20
8.20000000E+01
 11
-1.09500114E+02
 21
8.20000000E+01
  0
LINE
  8
0
 62
7
 10
-1.09500179E+02
 20
8.19999935E+01
 11
-1.09000178E+02
 21
8.14999930E+01
  0
LINE
  8
0
 62
7
 10
-1.09500114E+02
 20
1.19000000E+02
 11
-1.09500114E+02
 21
8.20000000E+01
  0
LINE
  8
0
  6
CENTER
 62
2
 10
6.60000000E+01
 20
1.40185287E+02
 11
6.60000000E+01
 21
1.28300079E+02
  0
LINE
  8
0
 62
7
 10
7.99999542E+01
 20
1.38000000E+02
 11
5.19999466E+01
 21
1.38000000E+02
  0
LINE
  8
0
 62
7
 10
7.99999390E+01
 20
1.37511215E+02
 11
7.99999390E+01
 21
1.38000000E+02
  0
LINE
  8
0
 62
7
 10
8.54999542E+01
 20
8.15000229E+01
 11
8.39999542E+01
 21
8.15000229E+01
  0
LINE
  8
0
 62
7
 10
8.35087229E+01
 20
6.35499792E+01
 11
5.20000257E+01
 21
6.29999929E+01
  0
LINE
  8
0
 62
7
 10
8.54999542E+01
 20
1.19500015E+02
 11
8.39999542E+01
 21
1.19500015E+02
  0
LINE
  8
0
 62
7
 10
8.39999580E+01
 20
6.40499191E+01
 11
8.39999580E+01
 21
1.36950119E+02
  0
LINE
  8
0
 62
7
 10
8.35087452E+01
 20
1.37449933E+02
 11
5.20000480E+01
 21
1.37999919E+02
  0
LINE
  8
0
 62
7
 10
8.59999657E+01
 20
8.20000153E+01
 11
8.59999657E+01
 21
1.19000015E+02
  0
LINE
  8
0
 62
7
 10
7.99999542E+01
 20
6.30000000E+01
 11
5.19999466E+01
 21
6.30000000E+01
  0
LINE
  8
0
 62
7
 10
7.99999390E+01
 20
6.34887390E+01
 11
7.99999390E+01
 21
6.30000000E+01
  0
LINE
  8
0
 62
7
 10
-1.09000099E+02
 20
8.15000076E+01
 11
-1.07000114E+02
 21
8.15000076E+01
  0
LINE
  8
0
 62
7
 10
-1.09000130E+02
 20
1.19500000E+02
 11
-1.07000114E+02
 21
1.19500000E+02
  0
LINE
  8
0
 62
7
 10
-1.32000084E+02
 20
1.09500000E+02
 11
-1.32000084E+02
 21
9.15000076E+01
  0
LINE
  8
0
 62
7
 10
-1.29000206E+02
 20
1.05767853E+02
 11
-1.25000145E+02
 21
1.05767853E+02
  0
LINE
  8
0
 62
7
 10
-1.25000145E+02
 20
9.52322006E+01
 11
-1.25000145E+02
 21
1.00500008E+02
  0
LINE
  8
0
 62
7
 10
-1.29000206E+02
 20
9.52321930E+01
 11
-1.25000145E+02
 21
9.52321930E+01
  0
LINE
  8
0
 62
7
 10
-1.29000084E+02
 20
9.05000305E+01
 11
-1.29000084E+02
 21
9.52322006E+01
  0
LINE
  8
0
 62
2
 10
-1.31033695E+02
 20
1.04313425E+02
 11
-1.25000104E+02
 21
9.52322431E+01
  0
LINE
  8
0
 62
2
 10
-1.31033682E+02
 20
9.66863842E+01
 11
-1.24999939E+02
 21
1.05767795E+02
  0
LINE
  8
0
 62
7
 10
-1.29000206E+02
 20
9.05000229E+01
 11
-1.22000160E+02
 21
9.05000229E+01
  0
LINE
  8
0
 62
7
 10
-1.29000084E+02
 20
1.10500046E+02
 11
-1.29000084E+02
 21
1.05767868E+02
  0
LINE
  8
0
 62
7
 10
-1.25000145E+02
 20
1.05767868E+02
 11
-1.25000145E+02
 21
1.00500008E+02
  0
LINE
  8
0
 62
7
 10
-1.35000069E+02
 20
9.15000153E+01
 11
-1.35000069E+02
 21
1.09500015E+02
  0
LINE
  8
0
 62
7
 10
-1.64000084E+02
 20
9.30000381E+01
 11
-1.64000084E+02
 21
1.07999847E+02
  0
LINE
  8
0
 62
7
 10
-1.62500084E+02
 20
9.15000153E+01
 11
-1.62500084E+02
 21
1.09500015E+02
  0
LINE
  8
0
 62
7
 10
-1.62500023E+02
 20
1.09500000E+02
 11
-1.55000084E+02
 21
1.09500000E+02
  0
LINE
  8
0
 62
2
 10
-1.63320030E+02
 20
1.08679993E+02
 11
-1.55000084E+02
 21
1.08679993E+02
  0
LINE
  8
0
 62
7
 10
-1.63999982E+02
 20
1.07999806E+02
 11
-1.62499936E+02
 21
1.09499806E+02
  0
LINE
  8
0
 62
7
 10
-1.62500023E+02
 20
9.15000076E+01
 11
-1.55000084E+02
 21
9.15000076E+01
  0
LINE
  8
0
 62
2
 10
-1.63320030E+02
 20
9.23199997E+01
 11
-1.55000084E+02
 21
9.23199997E+01
  0
LINE
  8
0
 62
7
 10
-1.64000089E+02
 20
9.30001181E+01
 11
-1.62500032E+02
 21
9.15001070E+01
  0
LINE
  8
0
 62
7
 10
-1.29000206E+02
 20
1.10499985E+02
 11
-1.22000160E+02
 21
1.10499985E+02
  0
LINE
  8
0
 62
7
 10
-1.32000076E+02
 20
1.03622440E+02
 11
-1.29000088E+02
 21
1.05767536E+02
  0
LINE
  8
0
 62
7
 10
-1.32000086E+02
 20
9.73775647E+01
 11
-1.29000074E+02
 21
9.52318980E+01
  0
LINE
  8
0
 62
7
 10
-1.32000052E+02
 20
1.09499986E+02
 11
-1.29000063E+02
 21
1.10499970E+02
  0
LINE
  8
0
 62
7
 10
-1.32000105E+02
 20
9.15000129E+01
 11
-1.29000113E+02
 21
9.05000380E+01
  0
LINE
  8
0
 62
7
 10
-1.35000069E+02
 20
1.08679993E+02
 11
-1.32000084E+02
 21
1.08679993E+02
  0
LINE
  8
0
 62
7
 10
-1.35000069E+02
 20
9.23199997E+01
 11
-1.32000084E+02
 21
9.23199997E+01
  0
CIRCLE
  8
0
  6
DASHED
 62
7
 10
-9.70000534E+01
 20
8.95000153E+01
 40
3.75000000E+00
  0
CIRCLE
  8
0
  6
DASHED
 62
2
 10
-8.60000687E+01
 20
1.00500000E+02
 40
2.50000000E+00
  0
CIRCLE
  8
0
  6
DASHED
 62
7
 10
-7.50000687E+01
 20
8.95000153E+01
 40
3.75000000E+00
  0
CIRCLE
  8
0
  6
DASHED
 62
7
 10
-9.70000534E+01
 20
1.11500000E+02
 40
3.75000000E+00
  0
CIRCLE
  8
0
  6
DASHED
 62
7
 10
-7.50000687E+01
 20
1.11500000E+02
 40
3.75000000E+00
  0
CIRCLE
  8
0
  6
DASHED
 62
7
 10
-8.60000687E+01
 20
1.00500000E+02
 40
2.00000000E+00
  0
ARC
  8
0
 62
7
 10
-1.16000114E+02
 20
1.18000000E+02
 40
1.00000000E+00
 50
8.99999274E+01
 51
1.79999964E+02
  0
ARC
  8
0
 62
7
 10
-1.16000114E+02
 20
8.30000000E+01
 40
1.00000000E+00
 50
1.79999977E+02
 51
2.70000028E+02
  0
ARC
  8
0
 62
7
 10
8.34999657E+01
 20
6.40499191E+01
 40
5.00000000E-01
 50
2.71000149E+02
 51
3.59999891E+02
  0
ARC
  8
0
 62
7
 10
8.54999733E+01
 20
8.20000153E+01
 40
5.00000000E-01
 50
2.69999909E+02
 51
3.59999891E+02
  0
ARC
  8
0
 62
7
 10
8.34999657E+01
 20
1.36950119E+02
 40
5.00000000E-01
 50
3.59999891E+02
 51
8.89996325E+01
  0
ARC
  8
0
 62
7
 10
8.54999733E+01
 20
1.19000015E+02
 40
5.00000000E-01
 50
3.59999891E+02
 51
8.99998730E+01
  0
CIRCLE
  8
0
  6
DASHED
 62
7
 10
-8.60000687E+01
 20
1.00500000E+02
 40
1.95000000E+01
  0
ARC
  8
0
 62
7
 10
-1.33500099E+02
 20
1.00500000E+02
 40
9.99998474E+00
 50
0.00000000E+00
 51
3.17883527E+01
  0
ARC
  8
0
 62
7
 10
-1.33500099E+02
 20
1.00500000E+02
 40
9.99998474E+00
 50
3.28211647E+02
 51
0.00000000E+00
  0
LINE
  8
0
  6
CENTER
 62
2
 10
-8.60000992E+01
 20
1.40185287E+02
 11
-8.60000992E+01
 21
1.28300079E+02
  0
LINE
  8
0
  6
CENTER
 62
2
 10
8.82291756E+01
 20
7.24999924E+01
 11
-1.10423790E+02
 21
7.24999924E+01
  0
LINE
  8
0
 62
4
 10
-1.44000084E+02
 20
8.70000000E+01
 11
-1.44000084E+02
 21
1.14000000E+02
  0
LINE
  8
0
 62
4
 10
-1.55000084E+02
 20
8.70000000E+01
 11
-1.55000084E+02
 21
1.14000000E+02
  0
ARC
  8
0
 62
4
 10
-1.29205856E+02
 20
1.00500000E+02
 40
2.57942282E+01
 50
1.62412046E+02
 51
1.97587954E+02
  0
ARC
  8
0
 62
4
 10
-1.69794312E+02
 20
1.00500000E+02
 40
2.57942282E+01
 50
3.42412046E+02
 51
1.75879541E+01
  0
ARC
  8
0
 62
4
 10
-1.50900805E+02
 20
1.12191343E+02
 40
6.90072132E+00
 50
3.25615752E+02
 51
3.43842480E+01
  0
ARC
  8
0
 62
4
 10
-1.48099363E+02
 20
1.12191343E+02
 40
6.90072132E+00
 50
1.45615752E+02
 51
2.14384248E+02
  0
LINE
  8
0
 62
4
 10
-1.45205855E+02
 20
1.16088457E+02
 11
-1.44000084E+02
 21
1.14000000E+02
  0
LINE
  8
0
 62
4
 10
-1.53794313E+02
 20
1.16088457E+02
 11
-1.55000084E+02
 21
1.14000000E+02
  0
LINE
  8
0
 62
4
 10
-1.53794313E+02
 20
1.08294229E+02
 11
-1.45205855E+02
 21
1.08294229E+02
  0
LINE
  8
0
 62
4
 10
-1.53794313E+02
 20
1.16088457E+02
 11
-1.45205855E+02
 21
1.16088457E+02
  0
ARC
  8
0
 62
4
 10
-1.50900805E+02
 20
8.88086570E+01
 40
6.90072132E+00
 50
3.25615752E+02
 51
3.43842480E+01
  0
ARC
  8
0
 62
4
 10
-1.48099363E+02
 20
8.88086570E+01
 40
6.90072132E+00
 50
1.45615752E+02
 51
2.14384248E+02
  0
LINE
  8
0
 62
4
 10
-1.55000084E+02
 20
8.70000000E+01
 11
-1.53794313E+02
 21
8.49115427E+01
  0
LINE
  8
0
 62
4
 10
-1.44000084E+02
 20
8.70000000E+01
 11
-1.45205855E+02
 21
8.49115427E+01
  0
LINE
  8
0
 62
4
 10
-1.53794313E+02
 20
9.27057714E+01
 11
-1.45205855E+02
 21
9.27057714E+01
  0
LINE
  8
0
 62
4
 10
-1.53794313E+02
 20
8.49115427E+01
 11
-1.45205855E+02
 21
8.49115427E+01
  0
LINE
  8
0
 62
7
 10
-1.44000084E+02
 20
1.09500000E+02
 11
-1.35000069E+02
 21
1.09500000E+02
  0
LINE
  8
0
 62
2
 10
-1.44000084E+02
 20
1.08679993E+02
 11
-1.35000069E+02
 21
1.08679993E+02
  0
LINE
  8
0
 62
7
 10
-1.44000084E+02
 20
9.15000076E+01
 11
-1.35000069E+02
 21
9.15000076E+01
  0
LINE
  8
0
 62
2
 10
-1.44000084E+02
 20
9.23199997E+01
 11
-1.35000069E+02
 21
9.23199997E+01
  0
LINE
  8
0
 62
4
 10
-1.40000534E+01
 20
1.37852051E+02
 11
-1.40000534E+01
 21
1.49176910E+02
  0
LINE
  8
0
 62
6
 10
6.73204320E+00
 20
1.39352051E+02
 11
3.26794159E+00
 21
1.33352051E+02
  0
LINE
  8
0
 62
6
 10
-5.73211950E+00
 20
1.33352051E+02
 11
-2.26801788E+00
 21
1.39352051E+02
  0
LINE
  8
0
 62
4
 10
1.49999924E+01
 20
1.37852051E+02
 11
5.86601776E+00
 21
1.37852051E+02
  0
LINE
  8
0
  6
CENTER
 62
6
 10
4.99999924E+01
 20
1.36352051E+02
 11
2.99999237E+00
 21
1.36352051E+02
  0
LINE
  8
0
 62
4
 10
1.49999924E+01
 20
1.34852051E+02
 11
4.13396697E+00
 21
1.34852051E+02
  0
LINE
  8
0
 62
4
 10
-1.40000534E+01
 20
1.34852051E+02
 11
-4.86609406E+00
 21
1.34852051E+02
  0
LINE
  8
0
  6
CENTER
 62
6
 10
-4.90000687E+01
 20
1.36352051E+02
 11
-2.00006866E+00
 21
1.36352051E+02
  0
LINE
  8
0
 62
4
 10
-2.05000687E+01
 20
1.37852051E+02
 11
-3.13404326E+00
 21
1.37852051E+02
  0
LINE
  8
0
 62
4
 10
-1.40000534E+01
 20
1.34499962E+02
 11
-1.40000534E+01
 21
1.34911063E+02
  0
LINE
  8
0
 62
4
 10
-2.05000534E+01
 20
1.38872198E+02
 11
-2.05000534E+01
 21
1.34911063E+02
  0
LINE
  8
0
 62
4
 10
-4.40000534E+01
 20
1.49176910E+02
 11
-4.40000534E+01
 21
1.38872198E+02
  0
LINE
  8
0
  6
CENTER
 62
6
 10
-2.43500534E+01
 20
1.41568458E+02
 11
-3.36500534E+01
 21
1.41568458E+02
  0
LINE
  8
0
  6
CENTER
 62
6
 10
-2.90000534E+01
 20
1.46218458E+02
 11
-2.90000534E+01
 21
1.36918458E+02
  0
LINE
  8
0
 62
4
 10
4.49999313E+01
 20
1.49176910E+02
 11
4.49999313E+01
 21
1.30653524E+02
  0
LINE
  8
0
  6
CENTER
 62
6
 10
1.49999313E+01
 20
1.22516164E+02
 11
2.19999313E+01
 21
1.22516164E+02
  0
LINE
  8
0
  6
CENTER
 62
6
 10
2.29999313E+01
 20
1.22516164E+02
 11
2.99999313E+01
 21
1.22516164E+02
  0
LINE
  8
0
  6
CENTER
 62
6
 10
2.64999313E+01
 20
1.19016164E+02
 11
2.64999313E+01
 21
1.26016164E+02
  0
LINE
  8
0
  6
CENTER
 62
6
 10
1.84999313E+01
 20
1.19016164E+02
 11
1.84999313E+01
 21
1.26016164E+02
  0
LINE
  8
0
 62
4
 10
1.49999313E+01
 20
1.17675464E+02
 11
1.49999313E+01
 21
1.49176910E+02
  0
LINE
  8
0
 62
4
 10
2.99999313E+01
 20
1.45994035E+02
 11
2.99999313E+01
 21
1.17675464E+02
  0
LINE
  8
0
  6
CENTER
 62
6
 10
4.10745282E+01
 20
1.41714281E+02
 11
3.39253344E+01
 21
1.41714281E+02
  0
LINE
  8
0
  6
CENTER
 62
6
 10
3.74999313E+01
 20
1.45288878E+02
 11
3.74999313E+01
 21
1.38139684E+02
  0
LINE
  8
0
 62
4
 10
-4.40000534E+01
 20
1.49176910E+02
 11
-1.40000534E+01
 21
1.49176910E+02
  0
LINE
  8
0
 62
4
 10
1.49999313E+01
 20
1.49176910E+02
 11
4.49999313E+01
 21
1.49176910E+02
  0
LINE
  8
0
 62
4
 10
1.49999313E+01
 20
1.17675464E+02
 11
2.99999313E+01
 21
1.17675464E+02
  0
LINE
  8
0
 62
4
 10
1.49999313E+01
 20
1.45994035E+02
 11
4.49999313E+01
 21
1.45994035E+02
  0
LINE
  8
0
 62
4
 10
1.49999313E+01
 20
1.44603459E+02
 11
2.99999313E+01
 21
1.44603459E+02
  0
LINE
  8
0
 62
4
 10
1.59999313E+01
 20
1.28222503E+02
 11
2.89999313E+01
 21
1.28222503E+02
  0
LINE
  8
0
 62
4
 10
2.99999313E+01
 20
1.37910055E+02
 11
4.49999313E+01
 21
1.37910055E+02
  0
LINE
  8
0
 62
4
 10
2.99999313E+01
 20
1.37786448E+02
 11
4.49999313E+01
 21
1.37786448E+02
  0
LINE
  8
0
 62
4
 10
2.99999313E+01
 20
1.30653524E+02
 11
4.49999313E+01
 21
1.30653524E+02
  0
POLYLINE
  8
0
 62
4
 66
1
  0
VERTEX
  8
0
 62
4
 10
3.52499313E+01
 20
1.41714281E+02
  0
VERTEX
  8
0
 62
4
 10
3.52584932E+01
 20
1.41527778E+02
  0
VERTEX
  8
0
 62
4
 10
3.52841139E+01
 20
1.41342695E+02
  0
VERTEX
  8
0
 62
4
 10
3.53265982E+01
 20
1.41160440E+02
  0
VERTEX
  8
0
 62
4
 10
3.53856229E+01
 20
1.40982400E+02
  0
VERTEX
  8
0
 62
4
 10
3.54607388E+01
 20
1.40809930E+02
  0
VERTEX
  8
0
 62
4
 10
3.55513741E+01
 20
1.40644342E+02
  0
VERTEX
  8
0
 62
4
 10
3.56568392E+01
 20
1.40486898E+02
  0
VERTEX
  8
0
 62
4
 10
3.57763313E+01
 20
1.40338794E+02
  0
VERTEX
  8
0
 62
4
 10
3.59089410E+01
 20
1.40201159E+02
  0
VERTEX
  8
0
 62
4
 10
3.60536592E+01
 20
1.40075040E+02
  0
VERTEX
  8
0
 62
4
 10
3.62093843E+01
 20
1.39961396E+02
  0
VERTEX
  8
0
 62
4
 10
3.63749313E+01
 20
1.39861093E+02
  0
VERTEX
  8
0
 62
4
 10
3.65490402E+01
 20
1.39774894E+02
  0
VERTEX
  8
0
 62
4
 10
3.67303860E+01
 20
1.39703454E+02
  0
VERTEX
  8
0
 62
4
 10
3.69175884E+01
 20
1.39647318E+02
  0
VERTEX
  8
0
 62
4
 10
3.71092229E+01
 20
1.39606913E+02
  0
VERTEX
  8
0
 62
4
 10
3.73038309E+01
 20
1.39582547E+02
  0
VERTEX
  8
0
 62
4
 10
3.74999313E+01
 20
1.39574404E+02
  0
VERTEX
  8
0
 62
4
 10
3.76960317E+01
 20
1.39582547E+02
  0
VERTEX
  8
0
 62
4
 10
3.78906397E+01
 20
1.39606913E+02
  0
VERTEX
  8
0
 62
4
 10
3.80822741E+01
 20
1.39647318E+02
  0
VERTEX
  8
0
 62
4
 10
3.82694766E+01
 20
1.39703454E+02
  0
VERTEX
  8
0
 62
4
 10
3.84508224E+01
 20
1.39774894E+02
  0
VERTEX
  8
0
 62
4
 10
3.86249313E+01
 20
1.39861093E+02
  0
VERTEX
  8
0
 62
4
 10
3.87904783E+01
 20
1.39961396E+02
  0
VERTEX
  8
0
 62
4
 10
3.89462034E+01
 20
1.40075040E+02
  0
VERTEX
  8
0
 62
4
 10
3.90909216E+01
 20
1.40201159E+02
  0
VERTEX
  8
0
 62
4
 10
3.92235313E+01
 20
1.40338794E+02
  0
VERTEX
  8
0
 62
4
 10
3.93430234E+01
 20
1.40486898E+02
  0
VERTEX
  8
0
 62
4
 10
3.94484885E+01
 20
1.40644342E+02
  0
VERTEX
  8
0
 62
4
 10
3.95391238E+01
 20
1.40809930E+02
  0
VERTEX
  8
0
 62
4
 10
3.96142397E+01
 20
1.40982400E+02
  0
VERTEX
  8
0
 62
4
 10
3.96732644E+01
 20
1.41160440E+02
  0
VERTEX
  8
0
 62
4
 10
3.97157487E+01
 20
1.41342695E+02
  0
VERTEX
  8
0
 62
4
 10
3.97413694E+01
 20
1.41527778E+02
  0
VERTEX
  8
0
 62
4
 10
3.97499313E+01
 20
1.41714281E+02
  0
VERTEX
  8
0
 62
4
 10
3.97413694E+01
 20
1.41900784E+02
  0
VERTEX
  8
0
 62
4
 10
3.97157487E+01
 20
1.42085867E+02
  0
VERTEX
  8
0
 62
4
 10
3.96732644E+01
 20
1.42268122E+02
  0
VERTEX
  8
0
 62
4
 10
3.96142397E+01
 20
1.42446162E+02
  0
VERTEX
  8
0
 62
4
 10
3.95391238E+01
 20
1.42618632E+02
  0
VERTEX
  8
0
 62
4
 10
3.94484885E+01
 20
1.42784220E+02
  0
VERTEX
  8
0
 62
4
 10
3.93430234E+01
 20
1.42941664E+02
  0
VERTEX
  8
0
 62
4
 10
3.92235313E+01
 20
1.43089768E+02
  0
VERTEX
  8
0
 62
4
 10
3.90909216E+01
 20
1.43227403E+02
  0
VERTEX
  8
0
 62
4
 10
3.89462034E+01
 20
1.43353522E+02
  0
VERTEX
  8
0
 62
4
 10
3.87904783E+01
 20
1.43467166E+02
  0
VERTEX
  8
0
 62
4
 10
3.86249313E+01
 20
1.43567469E+02
  0
VERTEX
  8
0
 62
4
 10
3.84508224E+01
 20
1.43653668E+02
  0
VERTEX
  8
0
 62
4
 10
3.82694766E+01
 20
1.43725108E+02
  0
VERTEX
  8
0
 62
4
 10
3.80822742E+01
 20
1.43781244E+02
  0
VERTEX
  8
0
 62
4
 10
3.78906397E+01
 20
1.43821649E+02
  0
VERTEX
  8
0
 62
4
 10
3.76960317E+01
 20
1.43846015E+02
  0
VERTEX
  8
0
 62
4
 10
3.74999313E+01
 20
1.43854158E+02
  0
VERTEX
  8
0
 62
4
 10
3.73038309E+01
 20
1.43846015E+02
  0
VERTEX
  8
0
 62
4
 10
3.71092229E+01
 20
1.43821649E+02
  0
VERTEX
  8
0
 62
4
 10
3.69175885E+01
 20
1.43781244E+02
  0
VERTEX
  8
0
 62
4
 10
3.67303860E+01
 20
1.43725108E+02
  0
VERTEX
  8
0
 62
4
 10
3.65490402E+01
 20
1.43653668E+02
  0
VERTEX
  8
0
 62
4
 10
3.63749313E+01
 20
1.43567469E+02
  0
VERTEX
  8
0
 62
4
 10
3.62093843E+01
 20
1.43467166E+02
  0
VERTEX
  8
0
 62
4
 10
3.60536592E+01
 20
1.43353522E+02
  0
VERTEX
  8
0
 62
4
 10
3.59089410E+01
 20
1.43227403E+02
  0
VERTEX
  8
0
 62
4
 10
3.57763313E+01
 20
1.43089768E+02
  0
VERTEX
  8
0
 62
4
 10
3.56568392E+01
 20
1.42941664E+02
  0
VERTEX
  8
0
 62
4
 10
3.55513741E+01
 20
1.42784220E+02
  0
VERTEX
  8
0
 62
4
 10
3.54607388E+01
 20
1.42618632E+02
  0
VERTEX
  8
0
 62
4
 10
3.53856229E+01
 20
1.42446162E+02
  0
VERTEX
  8
0
 62
4
 10
3.53265982E+01
 20
1.42268122E+02
  0
VERTEX
  8
0
 62
4
 10
3.52841139E+01
 20
1.42085867E+02
  0
VERTEX
  8
0
 62
4
 10
3.52584932E+01
 20
1.41900784E+02
  0
VERTEX
  8
0
 62
4
 10
3.52499313E+01
 20
1.41714281E+02
  0
SEQEND
  8
0
  0
POLYLINE
  8
0
 62
4
 66
1
  0
VERTEX
  8
0
 62
4
 10
2.84999313E+01
 20
1.22516164E+02
  0
VERTEX
  8
0
 62
4
 10
2.84918799E+01
 20
1.22686668E+02
  0
VERTEX
  8
0
 62
4
 10
2.84677905E+01
 20
1.22855799E+02
  0
VERTEX
  8
0
 62
4
 10
2.84278570E+01
 20
1.23022196E+02
  0
VERTEX
  8
0
 62
4
 10
2.83724010E+01
 20
1.23184519E+02
  0
VERTEX
  8
0
 62
4
 10
2.83018690E+01
 20
1.23341460E+02
  0
VERTEX
  8
0
 62
4
 10
2.82168289E+01
 20
1.23491756E+02
  0
VERTEX
  8
0
 62
4
 10
2.81179653E+01
 20
1.23634198E+02
  0
VERTEX
  8
0
 62
4
 10
2.80060742E+01
 20
1.23767638E+02
  0
VERTEX
  8
0
 62
4
 10
2.78820566E+01
 20
1.23891002E+02
  0
VERTEX
  8
0
 62
4
 10
2.77469109E+01
 20
1.24003296E+02
  0
VERTEX
  8
0
 62
4
 10
2.76017253E+01
 20
1.24103617E+02
  0
VERTEX
  8
0
 62
4
 10
2.74476686E+01
 20
1.24191156E+02
  0
VERTEX
  8
0
 62
4
 10
2.72859814E+01
 20
1.24265210E+02
  0
VERTEX
  8
0
 62
4
 10
2.71179653E+01
 20
1.24325181E+02
  0
VERTEX
  8
0
 62
4
 10
2.69449732E+01
 20
1.24370587E+02
  0
VERTEX
  8
0
 62
4
 10
2.67683978E+01
 20
1.24401062E+02
  0
VERTEX
  8
0
 62
4
 10
2.65896610E+01
 20
1.24416362E+02
  0
VERTEX
  8
0
 62
4
 10
2.64102016E+01
 20
1.24416362E+02
  0
VERTEX
  8
0
 62
4
 10
2.62314648E+01
 20
1.24401062E+02
  0
VERTEX
  8
0
 62
4
 10
2.60548894E+01
 20
1.24370587E+02
  0
VERTEX
  8
0
 62
4
 10
2.58818973E+01
 20
1.24325181E+02
  0
VERTEX
  8
0
 62
4
 10
2.57138812E+01
 20
1.24265210E+02
  0
VERTEX
  8
0
 62
4
 10
2.55521940E+01
 20
1.24191156E+02
  0
VERTEX
  8
0
 62
4
 10
2.53981373E+01
 20
1.24103617E+02
  0
VERTEX
  8
0
 62
4
 10
2.52529517E+01
 20
1.24003296E+02
  0
VERTEX
  8
0
 62
4
 10
2.51178060E+01
 20
1.23891002E+02
  0
VERTEX
  8
0
 62
4
 10
2.49937884E+01
 20
1.23767638E+02
  0
VERTEX
  8
0
 62
4
 10
2.48818973E+01
 20
1.23634198E+02
  0
VERTEX
  8
0
 62
4
 10
2.47830337E+01
 20
1.23491756E+02
  0
VERTEX
  8
0
 62
4
 10
2.46979936E+01
 20
1.23341460E+02
  0
VERTEX
  8
0
 62
4
 10
2.46274616E+01
 20
1.23184519E+02
  0
VERTEX
  8
0
 62
4
 10
2.45720056E+01
 20
1.23022196E+02
  0
VERTEX
  8
0
 62
4
 10
2.45320721E+01
 20
1.22855799E+02
  0
VERTEX
  8
0
 62
4
 10
2.45079827E+01
 20
1.22686668E+02
  0
VERTEX
  8
0
 62
4
 10
2.44999313E+01
 20
1.22516164E+02
  0
SEQEND
  8
0
  0
POLYLINE
  8
0
 62
4
 66
1
  0
VERTEX
  8
0
 62
4
 10
2.84999313E+01
 20
1.21640824E+02
  0
VERTEX
  8
0
 62
4
 10
2.84923207E+01
 20
1.21806604E+02
  0
VERTEX
  8
0
 62
4
 10
2.84695468E+01
 20
1.21971122E+02
  0
VERTEX
  8
0
 62
4
 10
2.84317830E+01
 20
1.22133127E+02
  0
VERTEX
  8
0
 62
4
 10
2.83793165E+01
 20
1.22291385E+02
  0
VERTEX
  8
0
 62
4
 10
2.83125469E+01
 20
1.22444692E+02
  0
VERTEX
  8
0
 62
4
 10
2.82319821E+01
 20
1.22591881E+02
  0
VERTEX
  8
0
 62
4
 10
2.81382354E+01
 20
1.22731831E+02
  0
VERTEX
  8
0
 62
4
 10
2.80320202E+01
 20
1.22863479E+02
  0
VERTEX
  8
0
 62
4
 10
2.79141449E+01
 20
1.22985821E+02
  0
VERTEX
  8
0
 62
4
 10
2.77855065E+01
 20
1.23097927E+02
  0
VERTEX
  8
0
 62
4
 10
2.76470842E+01
 20
1.23198944E+02
  0
VERTEX
  8
0
 62
4
 10
2.74999313E+01
 20
1.23288102E+02
  0
VERTEX
  8
0
 62
4
 10
2.73451678E+01
 20
1.23364724E+02
  0
VERTEX
  8
0
 62
4
 10
2.71839716E+01
 20
1.23428226E+02
  0
VERTEX
  8
0
 62
4
 10
2.70175694E+01
 20
1.23478124E+02
  0
VERTEX
  8
0
 62
4
 10
2.68472277E+01
 20
1.23514040E+02
  0
VERTEX
  8
0
 62
4
 10
2.66742428E+01
 20
1.23535699E+02
  0
VERTEX
  8
0
 62
4
 10
2.64999313E+01
 20
1.23542937E+02
  0
VERTEX
  8
0
 62
4
 10
2.63256198E+01
 20
1.23535699E+02
  0
VERTEX
  8
0
 62
4
 10
2.61526349E+01
 20
1.23514040E+02
  0
VERTEX
  8
0
 62
4
 10
2.59822932E+01
 20
1.23478124E+02
  0
VERTEX
  8
0
 62
4
 10
2.58158910E+01
 20
1.23428226E+02
  0
VERTEX
  8
0
 62
4
 10
2.56546948E+01
 20
1.23364724E+02
  0
VERTEX
  8
0
 62
4
 10
2.54999313E+01
 20
1.23288102E+02
  0
VERTEX
  8
0
 62
4
 10
2.53527784E+01
 20
1.23198944E+02
  0
VERTEX
  8
0
 62
4
 10
2.52143561E+01
 20
1.23097927E+02
  0
VERTEX
  8
0
 62
4
 10
2.50857177E+01
 20
1.22985821E+02
  0
VERTEX
  8
0
 62
4
 10
2.49678424E+01
 20
1.22863479E+02
  0
VERTEX
  8
0
 62
4
 10
2.48616272E+01
 20
1.22731831E+02
  0
VERTEX
  8
0
 62
4
 10
2.47678805E+01
 20
1.22591881E+02
  0
VERTEX
  8
0
 62
4
 10
2.46873157E+01
 20
1.22444692E+02
  0
VERTEX
  8
0
 62
4
 10
2.46205461E+01
 20
1.22291385E+02
  0
VERTEX
  8
0
 62
4
 10
2.45680796E+01
 20
1.22133127E+02
  0
VERTEX
  8
0
 62
4
 10
2.45303158E+01
 20
1.21971122E+02
  0
VERTEX
  8
0
 62
4
 10
2.45075419E+01
 20
1.21806604E+02
  0
VERTEX
  8
0
 62
4
 10
2.44999313E+01
 20
1.21640824E+02
  0
VERTEX
  8
0
 62
4
 10
2.45075419E+01
 20
1.21475044E+02
  0
VERTEX
  8
0
 62
4
 10
2.45303158E+01
 20
1.21310526E+02
  0
VERTEX
  8
0
 62
4
 10
2.45680796E+01
 20
1.21148521E+02
  0
VERTEX
  8
0
 62
4
 10
2.46205461E+01
 20
1.20990263E+02
  0
VERTEX
  8
0
 62
4
 10
2.46873157E+01
 20
1.20836956E+02
  0
VERTEX
  8
0
 62
4
 10
2.47678805E+01
 20
1.20689767E+02
  0
VERTEX
  8
0
 62
4
 10
2.48616272E+01
 20
1.20549817E+02
  0
VERTEX
  8
0
 62
4
 10
2.49678424E+01
 20
1.20418169E+02
  0
VERTEX
  8
0
 62
4
 10
2.50857177E+01
 20
1.20295827E+02
  0
VERTEX
  8
0
 62
4
 10
2.52143561E+01
 20
1.20183721E+02
  0
VERTEX
  8
0
 62
4
 10
2.53527784E+01
 20
1.20082704E+02
  0
VERTEX
  8
0
 62
4
 10
2.54999313E+01
 20
1.19993546E+02
  0
VERTEX
  8
0
 62
4
 10
2.56546948E+01
 20
1.19916924E+02
  0
VERTEX
  8
0
 62
4
 10
2.58158910E+01
 20
1.19853422E+02
  0
VERTEX
  8
0
 62
4
 10
2.59822932E+01
 20
1.19803524E+02
  0
VERTEX
  8
0
 62
4
 10
2.61526349E+01
 20
1.19767608E+02
  0
VERTEX
  8
0
 62
4
 10
2.63256198E+01
 20
1.19745949E+02
  0
VERTEX
  8
0
 62
4
 10
2.64999313E+01
 20
1.19738711E+02
  0
VERTEX
  8
0
 62
4
 10
2.66742428E+01
 20
1.19745949E+02
  0
VERTEX
  8
0
 62
4
 10
2.68472277E+01
 20
1.19767608E+02
  0
VERTEX
  8
0
 62
4
 10
2.70175694E+01
 20
1.19803524E+02
  0
VERTEX
  8
0
 62
4
 10
2.71839716E+01
 20
1.19853422E+02
  0
VERTEX
  8
0
 62
4
 10
2.73451678E+01
 20
1.19916924E+02
  0
VERTEX
  8
0
 62
4
 10
2.74999313E+01
 20
1.19993546E+02
  0
VERTEX
  8
0
 62
4
 10
2.76470842E+01
 20
1.20082704E+02
  0
VERTEX
  8
0
 62
4
 10
2.77855065E+01
 20
1.20183721E+02
  0
VERTEX
  8
0
 62
4
 10
2.79141449E+01
 20
1.20295827E+02
  0
VERTEX
  8
0
 62
4
 10
2.80320202E+01
 20
1.20418169E+02
  0
VERTEX
  8
0
 62
4
 10
2.81382354E+01
 20
1.20549817E+02
  0
VERTEX
  8
0
 62
4
 10
2.82319821E+01
 20
1.20689767E+02
  0
VERTEX
  8
0
 62
4
 10
2.83125469E+01
 20
1.20836956E+02
  0
VERTEX
  8
0
 62
4
 10
2.83793165E+01
 20
1.20990263E+02
  0
VERTEX
  8
0
 62
4
 10
2.84317830E+01
 20
1.21148521E+02
  0
VERTEX
  8
0
 62
4
 10
2.84695468E+01
 20
1.21310526E+02
  0
VERTEX
  8
0
 62
4
 10
2.84923207E+01
 20
1.21475044E+02
  0
VERTEX
  8
0
 62
4
 10
2.84999313E+01
 20
1.21640824E+02
  0
SEQEND
  8
0
  0
LINE
  8
0
 62
4
 10
2.44999313E+01
 20
1.21640824E+02
 11
2.44999313E+01
 21
1.22516164E+02
  0
LINE
  8
0
 62
4
 10
2.84999313E+01
 20
1.21640824E+02
 11
2.84999313E+01
 21
1.22516164E+02
  0
POLYLINE
  8
0
 62
6
 66
1
  0
VERTEX
  8
0
 62
6
 10
2.49999313E+01
 20
1.21640824E+02
  0
VERTEX
  8
0
 62
6
 10
2.50056393E+01
 20
1.21516489E+02
  0
VERTEX
  8
0
 62
6
 10
2.50227197E+01
 20
1.21393100E+02
  0
VERTEX
  8
0
 62
6
 10
2.50510426E+01
 20
1.21271597E+02
  0
VERTEX
  8
0
 62
6
 10
2.50903924E+01
 20
1.21152903E+02
  0
VERTEX
  8
0
 62
6
 10
2.51404696E+01
 20
1.21037923E+02
  0
VERTEX
  8
0
 62
6
 10
2.52008932E+01
 20
1.20927532E+02
  0
VERTEX
  8
0
 62
6
 10
2.52712032E+01
 20
1.20822569E+02
  0
VERTEX
  8
0
 62
6
 10
2.53508646E+01
 20
1.20723833E+02
  0
VERTEX
  8
0
 62
6
 10
2.54392711E+01
 20
1.20632076E+02
  0
VERTEX
  8
0
 62
6
 10
2.55357499E+01
 20
1.20547997E+02
  0
VERTEX
  8
0
 62
6
 10
2.56395666E+01
 20
1.20472234E+02
  0
VERTEX
  8
0
 62
6
 10
2.57499313E+01
 20
1.20405365E+02
  0
VERTEX
  8
0
 62
6
 10
2.58660039E+01
 20
1.20347899E+02
  0
VERTEX
  8
0
 62
6
 10
2.59869011E+01
 20
1.20300273E+02
  0
VERTEX
  8
0
 62
6
 10
2.61117027E+01
 20
1.20262849E+02
  0
VERTEX
  8
0
 62
6
 10
2.62394590E+01
 20
1.20235912E+02
  0
VERTEX
  8
0
 62
6
 10
2.63691977E+01
 20
1.20219668E+02
  0
VERTEX
  8
0
 62
6
 10
2.64999313E+01
 20
1.20214239E+02
  0
VERTEX
  8
0
 62
6
 10
2.66306649E+01
 20
1.20219668E+02
  0
VERTEX
  8
0
 62
6
 10
2.67604036E+01
 20
1.20235912E+02
  0
VERTEX
  8
0
 62
6
 10
2.68881599E+01
 20
1.20262849E+02
  0
VERTEX
  8
0
 62
6
 10
2.70129615E+01
 20
1.20300273E+02
  0
VERTEX
  8
0
 62
6
 10
2.71338587E+01
 20
1.20347899E+02
  0
VERTEX
  8
0
 62
6
 10
2.72499313E+01
 20
1.20405365E+02
  0
VERTEX
  8
0
 62
6
 10
2.73602960E+01
 20
1.20472234E+02
  0
VERTEX
  8
0
 62
6
 10
2.74641127E+01
 20
1.20547997E+02
  0
VERTEX
  8
0
 62
6
 10
2.75605915E+01
 20
1.20632076E+02
  0
VERTEX
  8
0
 62
6
 10
2.76489980E+01
 20
1.20723833E+02
  0
VERTEX
  8
0
 62
6
 10
2.77286594E+01
 20
1.20822569E+02
  0
VERTEX
  8
0
 62
6
 10
2.77989694E+01
 20
1.20927532E+02
  0
VERTEX
  8
0
 62
6
 10
2.78593930E+01
 20
1.21037923E+02
  0
VERTEX
  8
0
 62
6
 10
2.79094702E+01
 20
1.21152903E+02
  0
VERTEX
  8
0
 62
6
 10
2.79488200E+01
 20
1.21271597E+02
  0
VERTEX
  8
0
 62
6
 10
2.79771429E+01
 20
1.21393100E+02
  0
VERTEX
  8
0
 62
6
 10
2.79942233E+01
 20
1.21516489E+02
  0
VERTEX
  8
0
 62
6
 10
2.79999313E+01
 20
1.21640824E+02
  0
VERTEX
  8
0
 62
6
 10
2.79942233E+01
 20
1.21765159E+02
  0
VERTEX
  8
0
 62
6
 10
2.79771429E+01
 20
1.21888548E+02
  0
VERTEX
  8
0
 62
6
 10
2.79488200E+01
 20
1.22010051E+02
  0
VERTEX
  8
0
 62
6
 10
2.79094702E+01
 20
1.22128745E+02
  0
VERTEX
  8
0
 62
6
 10
2.78593930E+01
 20
1.22243725E+02
  0
VERTEX
  8
0
 62
6
 10
2.77989694E+01
 20
1.22354116E+02
  0
VERTEX
  8
0
 62
6
 10
2.77286594E+01
 20
1.22459079E+02
  0
VERTEX
  8
0
 62
6
 10
2.76489980E+01
 20
1.22557815E+02
  0
VERTEX
  8
0
 62
6
 10
2.75605915E+01
 20
1.22649572E+02
  0
VERTEX
  8
0
 62
6
 10
2.74641127E+01
 20
1.22733651E+02
  0
VERTEX
  8
0
 62
6
 10
2.73602960E+01
 20
1.22809414E+02
  0
VERTEX
  8
0
 62
6
 10
2.72499313E+01
 20
1.22876283E+02
  0
VERTEX
  8
0
 62
6
 10
2.71338587E+01
 20
1.22933749E+02
  0
VERTEX
  8
0
 62
6
 10
2.70129615E+01
 20
1.22981375E+02
  0
VERTEX
  8
0
 62
6
 10
2.68881599E+01
 20
1.23018799E+02
  0
VERTEX
  8
0
 62
6
 10
2.67604036E+01
 20
1.23045736E+02
  0
VERTEX
  8
0
 62
6
 10
2.66306649E+01
 20
1.23061980E+02
  0
VERTEX
  8
0
 62
6
 10
2.64999313E+01
 20
1.23067409E+02
  0
VERTEX
  8
0
 62
6
 10
2.63691977E+01
 20
1.23061980E+02
  0
VERTEX
  8
0
 62
6
 10
2.62394590E+01
 20
1.23045736E+02
  0
VERTEX
  8
0
 62
6
 10
2.61117027E+01
 20
1.23018799E+02
  0
VERTEX
  8
0
 62
6
 10
2.59869011E+01
 20
1.22981375E+02
  0
VERTEX
  8
0
 62
6
 10
2.58660039E+01
 20
1.22933749E+02
  0
VERTEX
  8
0
 62
6
 10
2.57499313E+01
 20
1.22876283E+02
  0
VERTEX
  8
0
 62
6
 10
2.56395666E+01
 20
1.22809414E+02
  0
VERTEX
  8
0
 62
6
 10
2.55357499E+01
 20
1.22733651E+02
  0
VERTEX
  8
0
 62
6
 10
2.54392711E+01
 20
1.22649572E+02
  0
VERTEX
  8
0
 62
6
 10
2.53508646E+01
 20
1.22557815E+02
  0
VERTEX
  8
0
 62
6
 10
2.52712032E+01
 20
1.22459079E+02
  0
VERTEX
  8
0
 62
6
 10
2.52008932E+01
 20
1.22354116E+02
  0
VERTEX
  8
0
 62
6
 10
2.51404696E+01
 20
1.22243725E+02
  0
VERTEX
  8
0
 62
6
 10
2.50903924E+01
 20
1.22128745E+02
  0
VERTEX
  8
0
 62
6
 10
2.50510426E+01
 20
1.22010051E+02
  0
VERTEX
  8
0
 62
6
 10
2.50227197E+01
 20
1.21888548E+02
  0
VERTEX
  8
0
 62
6
 10
2.50056393E+01
 20
1.21765159E+02
  0
VERTEX
  8
0
 62
6
 10
2.49999313E+01
 20
1.21640824E+02
  0
SEQEND
  8
0
  0
LINE
  8
0
 62
4
 10
2.54999313E+01
 20
1.21089211E+02
 11
2.54999313E+01
 21
1.22192437E+02
  0
LINE
  8
0
 62
4
 10
2.74999313E+01
 20
1.21089211E+02
 11
2.74999313E+01
 21
1.22192437E+02
  0
LINE
  8
0
 62
4
 10
2.64999313E+01
 20
1.22734539E+02
 11
2.54999313E+01
 21
1.22192437E+02
  0
LINE
  8
0
 62
4
 10
2.64999313E+01
 20
1.22734539E+02
 11
2.74999313E+01
 21
1.22192437E+02
  0
LINE
  8
0
 62
4
 10
2.74999313E+01
 20
1.21089211E+02
 11
2.64999313E+01
 21
1.20537598E+02
  0
LINE
  8
0
 62
4
 10
2.64999313E+01
 20
1.20537598E+02
 11
2.54999313E+01
 21
1.21089211E+02
  0
LINE
  8
0
 62
4
 10
1.84999313E+01
 20
1.20537598E+02
 11
1.74999313E+01
 21
1.21089211E+02
  0
LINE
  8
0
 62
4
 10
1.94999313E+01
 20
1.21089211E+02
 11
1.84999313E+01
 21
1.20537598E+02
  0
LINE
  8
0
 62
4
 10
1.84999313E+01
 20
1.22734539E+02
 11
1.94999313E+01
 21
1.22192437E+02
  0
LINE
  8
0
 62
4
 10
1.84999313E+01
 20
1.22734539E+02
 11
1.74999313E+01
 21
1.22192437E+02
  0
LINE
  8
0
 62
4
 10
1.94999313E+01
 20
1.21089211E+02
 11
1.94999313E+01
 21
1.22192437E+02
  0
LINE
  8
0
 62
4
 10
1.74999313E+01
 20
1.21089211E+02
 11
1.74999313E+01
 21
1.22192437E+02
  0
POLYLINE
  8
0
 62
6
 66
1
  0
VERTEX
  8
0
 62
6
 10
1.69999313E+01
 20
1.21640824E+02
  0
VERTEX
  8
0
 62
6
 10
1.70056393E+01
 20
1.21516489E+02
  0
VERTEX
  8
0
 62
6
 10
1.70227197E+01
 20
1.21393100E+02
  0
VERTEX
  8
0
 62
6
 10
1.70510426E+01
 20
1.21271597E+02
  0
VERTEX
  8
0
 62
6
 10
1.70903924E+01
 20
1.21152903E+02
  0
VERTEX
  8
0
 62
6
 10
1.71404696E+01
 20
1.21037923E+02
  0
VERTEX
  8
0
 62
6
 10
1.72008932E+01
 20
1.20927532E+02
  0
VERTEX
  8
0
 62
6
 10
1.72712032E+01
 20
1.20822569E+02
  0
VERTEX
  8
0
 62
6
 10
1.73508646E+01
 20
1.20723833E+02
  0
VERTEX
  8
0
 62
6
 10
1.74392711E+01
 20
1.20632076E+02
  0
VERTEX
  8
0
 62
6
 10
1.75357499E+01
 20
1.20547997E+02
  0
VERTEX
  8
0
 62
6
 10
1.76395666E+01
 20
1.20472234E+02
  0
VERTEX
  8
0
 62
6
 10
1.77499313E+01
 20
1.20405365E+02
  0
VERTEX
  8
0
 62
6
 10
1.78660039E+01
 20
1.20347899E+02
  0
VERTEX
  8
0
 62
6
 10
1.79869011E+01
 20
1.20300273E+02
  0
VERTEX
  8
0
 62
6
 10
1.81117027E+01
 20
1.20262849E+02
  0
VERTEX
  8
0
 62
6
 10
1.82394590E+01
 20
1.20235912E+02
  0
VERTEX
  8
0
 62
6
 10
1.83691977E+01
 20
1.20219668E+02
  0
VERTEX
  8
0
 62
6
 10
1.84999313E+01
 20
1.20214239E+02
  0
VERTEX
  8
0
 62
6
 10
1.86306649E+01
 20
1.20219668E+02
  0
VERTEX
  8
0
 62
6
 10
1.87604036E+01
 20
1.20235912E+02
  0
VERTEX
  8
0
 62
6
 10
1.88881599E+01
 20
1.20262849E+02
  0
VERTEX
  8
0
 62
6
 10
1.90129615E+01
 20
1.20300273E+02
  0
VERTEX
  8
0
 62
6
 10
1.91338587E+01
 20
1.20347899E+02
  0
VERTEX
  8
0
 62
6
 10
1.92499313E+01
 20
1.20405365E+02
  0
VERTEX
  8
0
 62
6
 10
1.93602960E+01
 20
1.20472234E+02
  0
VERTEX
  8
0
 62
6
 10
1.94641127E+01
 20
1.20547997E+02
  0
VERTEX
  8
0
 62
6
 10
1.95605915E+01
 20
1.20632076E+02
  0
VERTEX
  8
0
 62
6
 10
1.96489980E+01
 20
1.20723833E+02
  0
VERTEX
  8
0
 62
6
 10
1.97286594E+01
 20
1.20822569E+02
  0
VERTEX
  8
0
 62
6
 10
1.97989694E+01
 20
1.20927532E+02
  0
VERTEX
  8
0
 62
6
 10
1.98593930E+01
 20
1.21037923E+02
  0
VERTEX
  8
0
 62
6
 10
1.99094702E+01
 20
1.21152903E+02
  0
VERTEX
  8
0
 62
6
 10
1.99488200E+01
 20
1.21271597E+02
  0
VERTEX
  8
0
 62
6
 10
1.99771429E+01
 20
1.21393100E+02
  0
VERTEX
  8
0
 62
6
 10
1.99942233E+01
 20
1.21516489E+02
  0
VERTEX
  8
0
 62
6
 10
1.99999313E+01
 20
1.21640824E+02
  0
VERTEX
  8
0
 62
6
 10
1.99942233E+01
 20
1.21765159E+02
  0
VERTEX
  8
0
 62
6
 10
1.99771429E+01
 20
1.21888548E+02
  0
VERTEX
  8
0
 62
6
 10
1.99488200E+01
 20
1.22010051E+02
  0
VERTEX
  8
0
 62
6
 10
1.99094702E+01
 20
1.22128745E+02
  0
VERTEX
  8
0
 62
6
 10
1.98593930E+01
 20
1.22243725E+02
  0
VERTEX
  8
0
 62
6
 10
1.97989694E+01
 20
1.22354116E+02
  0
VERTEX
  8
0
 62
6
 10
1.97286594E+01
 20
1.22459079E+02
  0
VERTEX
  8
0
 62
6
 10
1.96489980E+01
 20
1.22557815E+02
  0
VERTEX
  8
0
 62
6
 10
1.95605915E+01
 20
1.22649572E+02
  0
VERTEX
  8
0
 62
6
 10
1.94641127E+01
 20
1.22733651E+02
  0
VERTEX
  8
0
 62
6
 10
1.93602960E+01
 20
1.22809414E+02
  0
VERTEX
  8
0
 62
6
 10
1.92499313E+01
 20
1.22876283E+02
  0
VERTEX
  8
0
 62
6
 10
1.91338587E+01
 20
1.22933749E+02
  0
VERTEX
  8
0
 62
6
 10
1.90129615E+01
 20
1.22981375E+02
  0
VERTEX
  8
0
 62
6
 10
1.88881599E+01
 20
1.23018799E+02
  0
VERTEX
  8
0
 62
6
 10
1.87604036E+01
 20
1.23045736E+02
  0
VERTEX
  8
0
 62
6
 10
1.86306649E+01
 20
1.23061980E+02
  0
VERTEX
  8
0
 62
6
 10
1.84999313E+01
 20
1.23067409E+02
  0
VERTEX
  8
0
 62
6
 10
1.83691977E+01
 20
1.23061980E+02
  0
VERTEX
  8
0
 62
6
 10
1.82394590E+01
 20
1.23045736E+02
  0
VERTEX
  8
0
 62
6
 10
1.81117027E+01
 20
1.23018799E+02
  0
VERTEX
  8
0
 62
6
 10
1.79869011E+01
 20
1.22981375E+02
  0
VERTEX
  8
0
 62
6
 10
1.78660039E+01
 20
1.22933749E+02
  0
VERTEX
  8
0
 62
6
 10
1.77499313E+01
 20
1.22876283E+02
  0
VERTEX
  8
0
 62
6
 10
1.76395666E+01
 20
1.22809414E+02
  0
VERTEX
  8
0
 62
6
 10
1.75357499E+01
 20
1.22733651E+02
  0
VERTEX
  8
0
 62
6
 10
1.74392711E+01
 20
1.22649572E+02
  0
VERTEX
  8
0
 62
6
 10
1.73508646E+01
 20
1.22557815E+02
  0
VERTEX
  8
0
 62
6
 10
1.72712032E+01
 20
1.22459079E+02
  0
VERTEX
  8
0
 62
6
 10
1.72008932E+01
 20
1.22354116E+02
  0
VERTEX
  8
0
 62
6
 10
1.71404696E+01
 20
1.22243725E+02
  0
VERTEX
  8
0
 62
6
 10
1.70903924E+01
 20
1.22128745E+02
  0
VERTEX
  8
0
 62
6
 10
1.70510426E+01
 20
1.22010051E+02
  0
VERTEX
  8
0
 62
6
 10
1.70227197E+01
 20
1.21888548E+02
  0
VERTEX
  8
0
 62
6
 10
1.70056393E+01
 20
1.21765159E+02
  0
VERTEX
  8
0
 62
6
 10
1.69999313E+01
 20
1.21640824E+02
  0
SEQEND
  8
0
  0
LINE
  8
0
 62
4
 10
2.04999313E+01
 20
1.21640824E+02
 11
2.04999313E+01
 21
1.22516164E+02
  0
LINE
  8
0
 62
4
 10
1.64999313E+01
 20
1.21640824E+02
 11
1.64999313E+01
 21
1.22516164E+02
  0
POLYLINE
  8
0
 62
4
 66
1
  0
VERTEX
  8
0
 62
4
 10
2.04999313E+01
 20
1.21640824E+02
  0
VERTEX
  8
0
 62
4
 10
2.04923207E+01
 20
1.21806604E+02
  0
VERTEX
  8
0
 62
4
 10
2.04695468E+01
 20
1.21971122E+02
  0
VERTEX
  8
0
 62
4
 10
2.04317830E+01
 20
1.22133127E+02
  0
VERTEX
  8
0
 62
4
 10
2.03793165E+01
 20
1.22291385E+02
  0
VERTEX
  8
0
 62
4
 10
2.03125469E+01
 20
1.22444692E+02
  0
VERTEX
  8
0
 62
4
 10
2.02319821E+01
 20
1.22591881E+02
  0
VERTEX
  8
0
 62
4
 10
2.01382354E+01
 20
1.22731831E+02
  0
VERTEX
  8
0
 62
4
 10
2.00320202E+01
 20
1.22863479E+02
  0
VERTEX
  8
0
 62
4
 10
1.99141449E+01
 20
1.22985821E+02
  0
VERTEX
  8
0
 62
4
 10
1.97855065E+01
 20
1.23097927E+02
  0
VERTEX
  8
0
 62
4
 10
1.96470842E+01
 20
1.23198944E+02
  0
VERTEX
  8
0
 62
4
 10
1.94999313E+01
 20
1.23288102E+02
  0
VERTEX
  8
0
 62
4
 10
1.93451678E+01
 20
1.23364724E+02
  0
VERTEX
  8
0
 62
4
 10
1.91839716E+01
 20
1.23428226E+02
  0
VERTEX
  8
0
 62
4
 10
1.90175694E+01
 20
1.23478124E+02
  0
VERTEX
  8
0
 62
4
 10
1.88472277E+01
 20
1.23514040E+02
  0
VERTEX
  8
0
 62
4
 10
1.86742428E+01
 20
1.23535699E+02
  0
VERTEX
  8
0
 62
4
 10
1.84999313E+01
 20
1.23542937E+02
  0
VERTEX
  8
0
 62
4
 10
1.83256198E+01
 20
1.23535699E+02
  0
VERTEX
  8
0
 62
4
 10
1.81526349E+01
 20
1.23514040E+02
  0
VERTEX
  8
0
 62
4
 10
1.79822932E+01
 20
1.23478124E+02
  0
VERTEX
  8
0
 62
4
 10
1.78158910E+01
 20
1.23428226E+02
  0
VERTEX
  8
0
 62
4
 10
1.76546948E+01
 20
1.23364724E+02
  0
VERTEX
  8
0
 62
4
 10
1.74999313E+01
 20
1.23288102E+02
  0
VERTEX
  8
0
 62
4
 10
1.73527784E+01
 20
1.23198944E+02
  0
VERTEX
  8
0
 62
4
 10
1.72143561E+01
 20
1.23097927E+02
  0
VERTEX
  8
0
 62
4
 10
1.70857177E+01
 20
1.22985821E+02
  0
VERTEX
  8
0
 62
4
 10
1.69678424E+01
 20
1.22863479E+02
  0
VERTEX
  8
0
 62
4
 10
1.68616272E+01
 20
1.22731831E+02
  0
VERTEX
  8
0
 62
4
 10
1.67678805E+01
 20
1.22591881E+02
  0
VERTEX
  8
0
 62
4
 10
1.66873157E+01
 20
1.22444692E+02
  0
VERTEX
  8
0
 62
4
 10
1.66205461E+01
 20
1.22291385E+02
  0
VERTEX
  8
0
 62
4
 10
1.65680796E+01
 20
1.22133127E+02
  0
VERTEX
  8
0
 62
4
 10
1.65303158E+01
 20
1.21971122E+02
  0
VERTEX
  8
0
 62
4
 10
1.65075419E+01
 20
1.21806604E+02
  0
VERTEX
  8
0
 62
4
 10
1.64999313E+01
 20
1.21640824E+02
  0
VERTEX
  8
0
 62
4
 10
1.65075419E+01
 20
1.21475044E+02
  0
VERTEX
  8
0
 62
4
 10
1.65303158E+01
 20
1.21310526E+02
  0
VERTEX
  8
0
 62
4
 10
1.65680796E+01
 20
1.21148521E+02
  0
VERTEX
  8
0
 62
4
 10
1.66205461E+01
 20
1.20990263E+02
  0
VERTEX
  8
0
 62
4
 10
1.66873157E+01
 20
1.20836956E+02
  0
VERTEX
  8
0
 62
4
 10
1.67678805E+01
 20
1.20689767E+02
  0
VERTEX
  8
0
 62
4
 10
1.68616272E+01
 20
1.20549817E+02
  0
VERTEX
  8
0
 62
4
 10
1.69678424E+01
 20
1.20418169E+02
  0
VERTEX
  8
0
 62
4
 10
1.70857177E+01
 20
1.20295827E+02
  0
VERTEX
  8
0
 62
4
 10
1.72143561E+01
 20
1.20183721E+02
  0
VERTEX
  8
0
 62
4
 10
1.73527784E+01
 20
1.20082704E+02
  0
VERTEX
  8
0
 62
4
 10
1.74999313E+01
 20
1.19993546E+02
  0
VERTEX
  8
0
 62
4
 10
1.76546948E+01
 20
1.19916924E+02
  0
VERTEX
  8
0
 62
4
 10
1.78158910E+01
 20
1.19853422E+02
  0
VERTEX
  8
0
 62
4
 10
1.79822932E+01
 20
1.19803524E+02
  0
VERTEX
  8
0
 62
4
 10
1.81526349E+01
 20
1.19767608E+02
  0
VERTEX
  8
0
 62
4
 10
1.83256198E+01
 20
1.19745949E+02
  0
VERTEX
  8
0
 62
4
 10
1.84999313E+01
 20
1.19738711E+02
  0
VERTEX
  8
0
 62
4
 10
1.86742428E+01
 20
1.19745949E+02
  0
VERTEX
  8
0
 62
4
 10
1.88472277E+01
 20
1.19767608E+02
  0
VERTEX
  8
0
 62
4
 10
1.90175694E+01
 20
1.19803524E+02
  0
VERTEX
  8
0
 62
4
 10
1.91839716E+01
 20
1.19853422E+02
  0
VERTEX
  8
0
 62
4
 10
1.93451678E+01
 20
1.19916924E+02
  0
VERTEX
  8
0
 62
4
 10
1.94999313E+01
 20
1.19993546E+02
  0
VERTEX
  8
0
 62
4
 10
1.96470842E+01
 20
1.20082704E+02
  0
VERTEX
  8
0
 62
4
 10
1.97855065E+01
 20
1.20183721E+02
  0
VERTEX
  8
0
 62
4
 10
1.99141449E+01
 20
1.20295827E+02
  0
VERTEX
  8
0
 62
4
 10
2.00320202E+01
 20
1.20418169E+02
  0
VERTEX
  8
0
 62
4
 10
2.01382354E+01
 20
1.20549817E+02
  0
VERTEX
  8
0
 62
4
 10
2.02319821E+01
 20
1.20689767E+02
  0
VERTEX
  8
0
 62
4
 10
2.03125469E+01
 20
1.20836956E+02
  0
VERTEX
  8
0
 62
4
 10
2.03793165E+01
 20
1.20990263E+02
  0
VERTEX
  8
0
 62
4
 10
2.04317830E+01
 20
1.21148521E+02
  0
VERTEX
  8
0
 62
4
 10
2.04695468E+01
 20
1.21310526E+02
  0
VERTEX
  8
0
 62
4
 10
2.04923207E+01
 20
1.21475044E+02
  0
VERTEX
  8
0
 62
4
 10
2.04999313E+01
 20
1.21640824E+02
  0
SEQEND
  8
0
  0
POLYLINE
  8
0
 62
4
 66
1
  0
VERTEX
  8
0
 62
4
 10
2.04999313E+01
 20
1.22516164E+02
  0
VERTEX
  8
0
 62
4
 10
2.04918799E+01
 20
1.22686668E+02
  0
VERTEX
  8
0
 62
4
 10
2.04677905E+01
 20
1.22855799E+02
  0
VERTEX
  8
0
 62
4
 10
2.04278570E+01
 20
1.23022196E+02
  0
VERTEX
  8
0
 62
4
 10
2.03724010E+01
 20
1.23184519E+02
  0
VERTEX
  8
0
 62
4
 10
2.03018690E+01
 20
1.23341460E+02
  0
VERTEX
  8
0
 62
4
 10
2.02168289E+01
 20
1.23491756E+02
  0
VERTEX
  8
0
 62
4
 10
2.01179653E+01
 20
1.23634198E+02
  0
VERTEX
  8
0
 62
4
 10
2.00060742E+01
 20
1.23767638E+02
  0
VERTEX
  8
0
 62
4
 10
1.98820566E+01
 20
1.23891002E+02
  0
VERTEX
  8
0
 62
4
 10
1.97469109E+01
 20
1.24003296E+02
  0
VERTEX
  8
0
 62
4
 10
1.96017253E+01
 20
1.24103617E+02
  0
VERTEX
  8
0
 62
4
 10
1.94476686E+01
 20
1.24191156E+02
  0
VERTEX
  8
0
 62
4
 10
1.92859814E+01
 20
1.24265210E+02
  0
VERTEX
  8
0
 62
4
 10
1.91179653E+01
 20
1.24325181E+02
  0
VERTEX
  8
0
 62
4
 10
1.89449732E+01
 20
1.24370587E+02
  0
VERTEX
  8
0
 62
4
 10
1.87683978E+01
 20
1.24401062E+02
  0
VERTEX
  8
0
 62
4
 10
1.85896610E+01
 20
1.24416362E+02
  0
VERTEX
  8
0
 62
4
 10
1.84102016E+01
 20
1.24416362E+02
  0
VERTEX
  8
0
 62
4
 10
1.82314648E+01
 20
1.24401062E+02
  0
VERTEX
  8
0
 62
4
 10
1.80548894E+01
 20
1.24370587E+02
  0
VERTEX
  8
0
 62
4
 10
1.78818973E+01
 20
1.24325181E+02
  0
VERTEX
  8
0
 62
4
 10
1.77138812E+01
 20
1.24265210E+02
  0
VERTEX
  8
0
 62
4
 10
1.75521940E+01
 20
1.24191156E+02
  0
VERTEX
  8
0
 62
4
 10
1.73981373E+01
 20
1.24103617E+02
  0
VERTEX
  8
0
 62
4
 10
1.72529517E+01
 20
1.24003296E+02
  0
VERTEX
  8
0
 62
4
 10
1.71178060E+01
 20
1.23891002E+02
  0
VERTEX
  8
0
 62
4
 10
1.69937884E+01
 20
1.23767638E+02
  0
VERTEX
  8
0
 62
4
 10
1.68818973E+01
 20
1.23634198E+02
  0
VERTEX
  8
0
 62
4
 10
1.67830337E+01
 20
1.23491756E+02
  0
VERTEX
  8
0
 62
4
 10
1.66979936E+01
 20
1.23341460E+02
  0
VERTEX
  8
0
 62
4
 10
1.66274616E+01
 20
1.23184519E+02
  0
VERTEX
  8
0
 62
4
 10
1.65720056E+01
 20
1.23022196E+02
  0
VERTEX
  8
0
 62
4
 10
1.65320721E+01
 20
1.22855799E+02
  0
VERTEX
  8
0
 62
4
 10
1.65079827E+01
 20
1.22686668E+02
  0
VERTEX
  8
0
 62
4
 10
1.64999313E+01
 20
1.22516164E+02
  0
SEQEND
  8
0
  0
LINE
  8
0
  6
CENTER
 62
6
 10
-1.67000534E+01
 20
1.44897156E+02
 11
-2.63000534E+01
 21
1.44897156E+02
  0
LINE
  8
0
  6
CENTER
 62
6
 10
-2.15000534E+01
 20
1.49697156E+02
 11
-2.15000534E+01
 21
1.40097156E+02
  0
LINE
  8
0
  6
CENTER
 62
6
 10
-3.29254565E+01
 20
1.44897156E+02
 11
-4.00746503E+01
 21
1.44897156E+02
  0
LINE
  8
0
  6
CENTER
 62
6
 10
-3.65000534E+01
 20
1.48471753E+02
 11
-3.65000534E+01
 21
1.41322559E+02
  0
LINE
  8
0
 62
4
 10
-4.40000534E+01
 20
1.38872198E+02
 11
-4.55000534E+01
 21
1.37775934E+02
  0
LINE
  8
0
 62
4
 10
-4.55000534E+01
 20
1.37775934E+02
 11
-4.55000534E+01
 21
1.34921867E+02
  0
LINE
  8
0
 62
4
 10
-4.55000534E+01
 20
1.35621791E+02
 11
-4.40000534E+01
 21
1.35067972E+02
  0
LINE
  8
0
 62
4
 10
-4.55000534E+01
 20
1.34921867E+02
 11
-4.49194301E+01
 21
1.34499962E+02
  0
LINE
  8
0
 62
4
 10
-4.40000534E+01
 20
1.35067972E+02
 11
-2.05000534E+01
 21
1.35067972E+02
  0
LINE
  8
0
 62
4
 10
-4.40000534E+01
 20
1.38872198E+02
 11
-3.19103563E+01
 21
1.38872198E+02
  0
LINE
  8
0
 62
4
 10
-4.40000534E+01
 20
1.39285923E+02
 11
-3.22946857E+01
 21
1.39285923E+02
  0
LINE
  8
0
 62
4
 10
-4.40000534E+01
 20
1.34911063E+02
 11
-1.40000534E+01
 21
1.34911063E+02
  0
LINE
  8
0
 62
4
 10
-4.40000534E+01
 20
1.38872198E+02
 11
-4.40000534E+01
 21
1.34911063E+02
  0
LINE
  8
0
 62
4
 10
-4.40000534E+01
 20
1.34911063E+02
 11
-4.40000534E+01
 21
1.34499962E+02
  0
POLYLINE
  8
0
 62
4
 66
1
  0
VERTEX
  8
0
 62
4
 10
-3.31500534E+01
 20
1.42229755E+02
  0
VERTEX
  8
0
 62
4
 10
-3.31342614E+01
 20
1.41885761E+02
  0
VERTEX
  8
0
 62
4
 10
-3.30870056E+01
 20
1.41544386E+02
  0
VERTEX
  8
0
 62
4
 10
-3.30086456E+01
 20
1.41208226E+02
  0
VERTEX
  8
0
 62
4
 10
-3.28997778E+01
 20
1.40879841E+02
  0
VERTEX
  8
0
 62
4
 10
-3.27612307E+01
 20
1.40561730E+02
  0
VERTEX
  8
0
 62
4
 10
-3.25940588E+01
 20
1.40256313E+02
  0
VERTEX
  8
0
 62
4
 10
-3.23995344E+01
 20
1.39965915E+02
  0
VERTEX
  8
0
 62
4
 10
-3.21791378E+01
 20
1.39692747E+02
  0
VERTEX
  8
0
 62
4
 10
-3.19345466E+01
 20
1.39438886E+02
  0
VERTEX
  8
0
 62
4
 10
-3.16676220E+01
 20
1.39206266E+02
  0
VERTEX
  8
0
 62
4
 10
-3.13803956E+01
 20
1.38996656E+02
  0
VERTEX
  8
0
 62
4
 10
-3.10750534E+01
 20
1.38811653E+02
  0
VERTEX
  8
0
 62
4
 10
-3.07539192E+01
 20
1.38652663E+02
  0
VERTEX
  8
0
 62
4
 10
-3.04194370E+01
 20
1.38520897E+02
  0
VERTEX
  8
0
 62
4
 10
-3.00741524E+01
 20
1.38417357E+02
  0
VERTEX
  8
0
 62
4
 10
-2.97206933E+01
 20
1.38342833E+02
  0
VERTEX
  8
0
 62
4
 10
-2.93617497E+01
 20
1.38297890E+02
  0
VERTEX
  8
0
 62
4
 10
-2.90000534E+01
 20
1.38282870E+02
  0
VERTEX
  8
0
 62
4
 10
-2.86383571E+01
 20
1.38297890E+02
  0
VERTEX
  8
0
 62
4
 10
-2.82794135E+01
 20
1.38342833E+02
  0
VERTEX
  8
0
 62
4
 10
-2.79259544E+01
 20
1.38417357E+02
  0
VERTEX
  8
0
 62
4
 10
-2.75806698E+01
 20
1.38520897E+02
  0
VERTEX
  8
0
 62
4
 10
-2.72461876E+01
 20
1.38652663E+02
  0
VERTEX
  8
0
 62
4
 10
-2.69250534E+01
 20
1.38811653E+02
  0
VERTEX
  8
0
 62
4
 10
-2.66197112E+01
 20
1.38996656E+02
  0
VERTEX
  8
0
 62
4
 10
-2.63324848E+01
 20
1.39206266E+02
  0
VERTEX
  8
0
 62
4
 10
-2.60655603E+01
 20
1.39438886E+02
  0
VERTEX
  8
0
 62
4
 10
-2.58209690E+01
 20
1.39692747E+02
  0
VERTEX
  8
0
 62
4
 10
-2.56005724E+01
 20
1.39965915E+02
  0
VERTEX
  8
0
 62
4
 10
-2.54060480E+01
 20
1.40256313E+02
  0
VERTEX
  8
0
 62
4
 10
-2.52388761E+01
 20
1.40561730E+02
  0
VERTEX
  8
0
 62
4
 10
-2.51003290E+01
 20
1.40879841E+02
  0
VERTEX
  8
0
 62
4
 10
-2.49914612E+01
 20
1.41208226E+02
  0
VERTEX
  8
0
 62
4
 10
-2.49131012E+01
 20
1.41544386E+02
  0
VERTEX
  8
0
 62
4
 10
-2.48658454E+01
 20
1.41885761E+02
  0
VERTEX
  8
0
 62
4
 10
-2.48500534E+01
 20
1.42229755E+02
  0
VERTEX
  8
0
 62
4
 10
-2.48658454E+01
 20
1.42573749E+02
  0
VERTEX
  8
0
 62
4
 10
-2.49131012E+01
 20
1.42915124E+02
  0
VERTEX
  8
0
 62
4
 10
-2.49914612E+01
 20
1.43251284E+02
  0
VERTEX
  8
0
 62
4
 10
-2.51003290E+01
 20
1.43579669E+02
  0
VERTEX
  8
0
 62
4
 10
-2.52388761E+01
 20
1.43897780E+02
  0
VERTEX
  8
0
 62
4
 10
-2.54060480E+01
 20
1.44203197E+02
  0
VERTEX
  8
0
 62
4
 10
-2.56005724E+01
 20
1.44493595E+02
  0
VERTEX
  8
0
 62
4
 10
-2.58209690E+01
 20
1.44766763E+02
  0
VERTEX
  8
0
 62
4
 10
-2.60655603E+01
 20
1.45020624E+02
  0
VERTEX
  8
0
 62
4
 10
-2.63324848E+01
 20
1.45253244E+02
  0
VERTEX
  8
0
 62
4
 10
-2.66197112E+01
 20
1.45462854E+02
  0
VERTEX
  8
0
 62
4
 10
-2.69250534E+01
 20
1.45647857E+02
  0
VERTEX
  8
0
 62
4
 10
-2.72461876E+01
 20
1.45806847E+02
  0
VERTEX
  8
0
 62
4
 10
-2.75806698E+01
 20
1.45938613E+02
  0
VERTEX
  8
0
 62
4
 10
-2.79259544E+01
 20
1.46042153E+02
  0
VERTEX
  8
0
 62
4
 10
-2.82794135E+01
 20
1.46116677E+02
  0
VERTEX
  8
0
 62
4
 10
-2.86383571E+01
 20
1.46161620E+02
  0
VERTEX
  8
0
 62
4
 10
-2.90000534E+01
 20
1.46176640E+02
  0
VERTEX
  8
0
 62
4
 10
-2.93617497E+01
 20
1.46161620E+02
  0
VERTEX
  8
0
 62
4
 10
-2.97206933E+01
 20
1.46116677E+02
  0
VERTEX
  8
0
 62
4
 10
-3.00741524E+01
 20
1.46042153E+02
  0
VERTEX
  8
0
 62
4
 10
-3.04194370E+01
 20
1.45938613E+02
  0
VERTEX
  8
0
 62
4
 10
-3.07539192E+01
 20
1.45806847E+02
  0
VERTEX
  8
0
 62
4
 10
-3.10750534E+01
 20
1.45647857E+02
  0
VERTEX
  8
0
 62
4
 10
-3.13803956E+01
 20
1.45462854E+02
  0
VERTEX
  8
0
 62
4
 10
-3.16676220E+01
 20
1.45253244E+02
  0
VERTEX
  8
0
 62
4
 10
-3.19345465E+01
 20
1.45020624E+02
  0
VERTEX
  8
0
 62
4
 10
-3.21791378E+01
 20
1.44766763E+02
  0
VERTEX
  8
0
 62
4
 10
-3.23995344E+01
 20
1.44493595E+02
  0
VERTEX
  8
0
 62
4
 10
-3.25940588E+01
 20
1.44203197E+02
  0
VERTEX
  8
0
 62
4
 10
-3.27612307E+01
 20
1.43897780E+02
  0
VERTEX
  8
0
 62
4
 10
-3.28997778E+01
 20
1.43579669E+02
  0
VERTEX
  8
0
 62
4
 10
-3.30086456E+01
 20
1.43251284E+02
  0
VERTEX
  8
0
 62
4
 10
-3.30870056E+01
 20
1.42915124E+02
  0
VERTEX
  8
0
 62
4
 10
-3.31342614E+01
 20
1.42573749E+02
  0
VERTEX
  8
0
 62
4
 10
-3.31500534E+01
 20
1.42229755E+02
  0
SEQEND
  8
0
  0
ARC
  8
0
 62
4
 10
4.29293131E+01
 20
6.67969916E+01
 40
1.04392782E+02
 50
1.32228766E+02
 51
1.34907157E+02
  0
ARC
  8
0
 62
4
 10
-1.00929196E+02
 20
6.67972269E+01
 40
1.04392457E+02
 50
4.50928385E+01
 51
4.77712376E+01
  0
POLYLINE
  8
0
 62
4
 66
1
  0
VERTEX
  8
0
 62
4
 10
-3.31500534E+01
 20
1.41685885E+02
  0
VERTEX
  8
0
 62
4
 10
-3.31333467E+01
 20
1.41332089E+02
  0
VERTEX
  8
0
 62
4
 10
-3.30833612E+01
 20
1.40981142E+02
  0
VERTEX
  8
0
 62
4
 10
-3.30004993E+01
 20
1.40635868E+02
  0
VERTEX
  8
0
 62
4
 10
-3.28854281E+01
 20
1.40299049E+02
  0
VERTEX
  8
0
 62
4
 10
-3.27390742E+01
 20
1.39973396E+02
  0
VERTEX
  8
0
 62
4
 10
-3.25626159E+01
 20
1.39661531E+02
  0
VERTEX
  8
0
 62
4
 10
-3.23574739E+01
 20
1.39365964E+02
  0
VERTEX
  8
0
 62
4
 10
-3.21253000E+01
 20
1.39089077E+02
  0
VERTEX
  8
0
 62
4
 10
-3.18679634E+01
 20
1.38833097E+02
  0
VERTEX
  8
0
 62
4
 10
-3.15875361E+01
 20
1.38600086E+02
  0
VERTEX
  8
0
 62
4
 10
-3.12862759E+01
 20
1.38391921E+02
  0
VERTEX
  8
0
 62
4
 10
-3.09666084E+01
 20
1.38210276E+02
  0
VERTEX
  8
0
 62
4
 10
-3.06311073E+01
 20
1.38056615E+02
  0
VERTEX
  8
0
 62
4
 10
-3.02824739E+01
 20
1.37932175E+02
  0
VERTEX
  8
0
 62
4
 10
-2.99235153E+01
 20
1.37837957E+02
  0
VERTEX
  8
0
 62
4
 10
-2.95571215E+01
 20
1.37774721E+02
  0
VERTEX
  8
0
 62
4
 10
-2.91862425E+01
 20
1.37742975E+02
  0
VERTEX
  8
0
 62
4
 10
-2.88138644E+01
 20
1.37742975E+02
  0
VERTEX
  8
0
 62
4
 10
-2.84429854E+01
 20
1.37774721E+02
  0
VERTEX
  8
0
 62
4
 10
-2.80765915E+01
 20
1.37837957E+02
  0
VERTEX
  8
0
 62
4
 10
-2.77176329E+01
 20
1.37932175E+02
  0
VERTEX
  8
0
 62
4
 10
-2.73689995E+01
 20
1.38056615E+02
  0
VERTEX
  8
0
 62
4
 10
-2.70334985E+01
 20
1.38210276E+02
  0
VERTEX
  8
0
 62
4
 10
-2.67138309E+01
 20
1.38391921E+02
  0
VERTEX
  8
0
 62
4
 10
-2.64125707E+01
 20
1.38600086E+02
  0
VERTEX
  8
0
 62
4
 10
-2.61321434E+01
 20
1.38833097E+02
  0
VERTEX
  8
0
 62
4
 10
-2.58748068E+01
 20
1.39089077E+02
  0
VERTEX
  8
0
 62
4
 10
-2.56426329E+01
 20
1.39365964E+02
  0
VERTEX
  8
0
 62
4
 10
-2.54374909E+01
 20
1.39661531E+02
  0
VERTEX
  8
0
 62
4
 10
-2.52610326E+01
 20
1.39973396E+02
  0
VERTEX
  8
0
 62
4
 10
-2.51146787E+01
 20
1.40299049E+02
  0
VERTEX
  8
0
 62
4
 10
-2.49996075E+01
 20
1.40635868E+02
  0
VERTEX
  8
0
 62
4
 10
-2.49167456E+01
 20
1.40981142E+02
  0
VERTEX
  8
0
 62
4
 10
-2.48667601E+01
 20
1.41332089E+02
  0
VERTEX
  8
0
 62
4
 10
-2.48500534E+01
 20
1.41685885E+02
  0
SEQEND
  8
0
  0
LINE
  8
0
 62
4
 10
-3.31500534E+01
 20
1.41685885E+02
 11
-3.31500534E+01
 21
1.42229755E+02
  0
LINE
  8
0
 62
4
 10
-2.48500534E+01
 20
1.41685885E+02
 11
-2.48500534E+01
 21
1.42229755E+02
  0
POLYLINE
  8
0
 62
4
 66
1
  0
VERTEX
  8
0
 62
4
 10
-2.53000534E+01
 20
1.44897156E+02
  0
VERTEX
  8
0
 62
4
 10
-2.52847557E+01
 20
1.44573198E+02
  0
VERTEX
  8
0
 62
4
 10
-2.52389859E+01
 20
1.44251849E+02
  0
VERTEX
  8
0
 62
4
 10
-2.51631123E+01
 20
1.43935695E+02
  0
VERTEX
  8
0
 62
4
 10
-2.50577459E+01
 20
1.43627282E+02
  0
VERTEX
  8
0
 62
4
 10
-2.49237351E+01
 20
1.43329094E+02
  0
VERTEX
  8
0
 62
4
 10
-2.47621588E+01
 20
1.43043530E+02
  0
VERTEX
  8
0
 62
4
 10
-2.45743180E+01
 20
1.42772891E+02
  0
VERTEX
  8
0
 62
4
 10
-2.43617250E+01
 20
1.42519356E+02
  0
VERTEX
  8
0
 62
4
 10
-2.41260915E+01
 20
1.42284965E+02
  0
VERTEX
  8
0
 62
4
 10
-2.38693147E+01
 20
1.42071605E+02
  0
VERTEX
  8
0
 62
4
 10
-2.35934620E+01
 20
1.41880996E+02
  0
VERTEX
  8
0
 62
4
 10
-2.33007543E+01
 20
1.41714671E+02
  0
VERTEX
  8
0
 62
4
 10
-2.29935485E+01
 20
1.41573969E+02
  0
VERTEX
  8
0
 62
4
 10
-2.26743180E+01
 20
1.41460024E+02
  0
VERTEX
  8
0
 62
4
 10
-2.23456330E+01
 20
1.41373752E+02
  0
VERTEX
  8
0
 62
4
 10
-2.20101398E+01
 20
1.41315849E+02
  0
VERTEX
  8
0
 62
4
 10
-2.16705398E+01
 20
1.41286780E+02
  0
VERTEX
  8
0
 62
4
 10
-2.13295671E+01
 20
1.41286780E+02
  0
VERTEX
  8
0
 62
4
 10
-2.09899670E+01
 20
1.41315849E+02
  0
VERTEX
  8
0
 62
4
 10
-2.06544739E+01
 20
1.41373752E+02
  0
VERTEX
  8
0
 62
4
 10
-2.03257888E+01
 20
1.41460024E+02
  0
VERTEX
  8
0
 62
4
 10
-2.00065583E+01
 20
1.41573969E+02
  0
VERTEX
  8
0
 62
4
 10
-1.96993525E+01
 20
1.41714671E+02
  0
VERTEX
  8
0
 62
4
 10
-1.94066449E+01
 20
1.41880996E+02
  0
VERTEX
  8
0
 62
4
 10
-1.91307922E+01
 20
1.42071605E+02
  0
VERTEX
  8
0
 62
4
 10
-1.88740153E+01
 20
1.42284965E+02
  0
VERTEX
  8
0
 62
4
 10
-1.86383818E+01
 20
1.42519356E+02
  0
VERTEX
  8
0
 62
4
 10
-1.84257888E+01
 20
1.42772891E+02
  0
VERTEX
  8
0
 62
4
 10
-1.82379480E+01
 20
1.43043530E+02
  0
VERTEX
  8
0
 62
4
 10
-1.80763717E+01
 20
1.43329094E+02
  0
VERTEX
  8
0
 62
4
 10
-1.79423609E+01
 20
1.43627282E+02
  0
VERTEX
  8
0
 62
4
 10
-1.78369945E+01
 20
1.43935695E+02
  0
VERTEX
  8
0
 62
4
 10
-1.77611209E+01
 20
1.44251849E+02
  0
VERTEX
  8
0
 62
4
 10
-1.77153511E+01
 20
1.44573198E+02
  0
VERTEX
  8
0
 62
4
 10
-1.77000534E+01
 20
1.44897156E+02
  0
SEQEND
  8
0
  0
POLYLINE
  8
0
 62
4
 66
1
  0
VERTEX
  8
0
 62
4
 10
-2.53000534E+01
 20
1.45206173E+02
  0
VERTEX
  8
0
 62
4
 10
-2.52855933E+01
 20
1.44891191E+02
  0
VERTEX
  8
0
 62
4
 10
-2.52423229E+01
 20
1.44578606E+02
  0
VERTEX
  8
0
 62
4
 10
-2.51705716E+01
 20
1.44270797E+02
  0
VERTEX
  8
0
 62
4
 10
-2.50708854E+01
 20
1.43970107E+02
  0
VERTEX
  8
0
 62
4
 10
-2.49440230E+01
 20
1.43678824E+02
  0
VERTEX
  8
0
 62
4
 10
-2.47909500E+01
 20
1.43399166E+02
  0
VERTEX
  8
0
 62
4
 10
-2.46128312E+01
 20
1.43133259E+02
  0
VERTEX
  8
0
 62
4
 10
-2.44110223E+01
 20
1.42883129E+02
  0
VERTEX
  8
0
 62
4
 10
-2.41870592E+01
 20
1.42650679E+02
  0
VERTEX
  8
0
 62
4
 10
-2.39426463E+01
 20
1.42437677E+02
  0
VERTEX
  8
0
 62
4
 10
-2.36796439E+01
 20
1.42245745E+02
  0
VERTEX
  8
0
 62
4
 10
-2.34000534E+01
 20
1.42076344E+02
  0
VERTEX
  8
0
 62
4
 10
-2.31060028E+01
 20
1.41930763E+02
  0
VERTEX
  8
0
 62
4
 10
-2.27997300E+01
 20
1.41810110E+02
  0
VERTEX
  8
0
 62
4
 10
-2.24835658E+01
 20
1.41715303E+02
  0
VERTEX
  8
0
 62
4
 10
-2.21599165E+01
 20
1.41647063E+02
  0
VERTEX
  8
0
 62
4
 10
-2.18312452E+01
 20
1.41605911E+02
  0
VERTEX
  8
0
 62
4
 10
-2.15000534E+01
 20
1.41592158E+02
  0
VERTEX
  8
0
 62
4
 10
-2.11688616E+01
 20
1.41605911E+02
  0
VERTEX
  8
0
 62
4
 10
-2.08401903E+01
 20
1.41647063E+02
  0
VERTEX
  8
0
 62
4
 10
-2.05165410E+01
 20
1.41715303E+02
  0
VERTEX
  8
0
 62
4
 10
-2.02003769E+01
 20
1.41810110E+02
  0
VERTEX
  8
0
 62
4
 10
-1.98941040E+01
 20
1.41930763E+02
  0
VERTEX
  8
0
 62
4
 10
-1.96000534E+01
 20
1.42076344E+02
  0
VERTEX
  8
0
 62
4
 10
-1.93204629E+01
 20
1.42245745E+02
  0
VERTEX
  8
0
 62
4
 10
-1.90574605E+01
 20
1.42437677E+02
  0
VERTEX
  8
0
 62
4
 10
-1.88130476E+01
 20
1.42650679E+02
  0
VERTEX
  8
0
 62
4
 10
-1.85890845E+01
 20
1.42883129E+02
  0
VERTEX
  8
0
 62
4
 10
-1.83872756E+01
 20
1.43133259E+02
  0
VERTEX
  8
0
 62
4
 10
-1.82091568E+01
 20
1.43399166E+02
  0
VERTEX
  8
0
 62
4
 10
-1.80560838E+01
 20
1.43678824E+02
  0
VERTEX
  8
0
 62
4
 10
-1.79292214E+01
 20
1.43970107E+02
  0
VERTEX
  8
0
 62
4
 10
-1.78295352E+01
 20
1.44270797E+02
  0
VERTEX
  8
0
 62
4
 10
-1.77577839E+01
 20
1.44578606E+02
  0
VERTEX
  8
0
 62
4
 10
-1.77145135E+01
 20
1.44891191E+02
  0
VERTEX
  8
0
 62
4
 10
-1.77000534E+01
 20
1.45206173E+02
  0
VERTEX
  8
0
 62
4
 10
-1.77145135E+01
 20
1.45521155E+02
  0
VERTEX
  8
0
 62
4
 10
-1.77577839E+01
 20
1.45833740E+02
  0
VERTEX
  8
0
 62
4
 10
-1.78295352E+01
 20
1.46141549E+02
  0
VERTEX
  8
0
 62
4
 10
-1.79292214E+01
 20
1.46442239E+02
  0
VERTEX
  8
0
 62
4
 10
-1.80560838E+01
 20
1.46733522E+02
  0
VERTEX
  8
0
 62
4
 10
-1.82091568E+01
 20
1.47013180E+02
  0
VERTEX
  8
0
 62
4
 10
-1.83872756E+01
 20
1.47279087E+02
  0
VERTEX
  8
0
 62
4
 10
-1.85890845E+01
 20
1.47529217E+02
  0
VERTEX
  8
0
 62
4
 10
-1.88130476E+01
 20
1.47761667E+02
  0
VERTEX
  8
0
 62
4
 10
-1.90574605E+01
 20
1.47974669E+02
  0
VERTEX
  8
0
 62
4
 10
-1.93204629E+01
 20
1.48166601E+02
  0
VERTEX
  8
0
 62
4
 10
-1.96000534E+01
 20
1.48336002E+02
  0
VERTEX
  8
0
 62
4
 10
-1.98941040E+01
 20
1.48481583E+02
  0
VERTEX
  8
0
 62
4
 10
-2.02003768E+01
 20
1.48602236E+02
  0
VERTEX
  8
0
 62
4
 10
-2.05165410E+01
 20
1.48697043E+02
  0
VERTEX
  8
0
 62
4
 10
-2.08401903E+01
 20
1.48765283E+02
  0
VERTEX
  8
0
 62
4
 10
-2.11688616E+01
 20
1.48806435E+02
  0
VERTEX
  8
0
 62
4
 10
-2.15000534E+01
 20
1.48820188E+02
  0
VERTEX
  8
0
 62
4
 10
-2.18312452E+01
 20
1.48806435E+02
  0
VERTEX
  8
0
 62
4
 10
-2.21599165E+01
 20
1.48765283E+02
  0
VERTEX
  8
0
 62
4
 10
-2.24835658E+01
 20
1.48697043E+02
  0
VERTEX
  8
0
 62
4
 10
-2.27997300E+01
 20
1.48602236E+02
  0
VERTEX
  8
0
 62
4
 10
-2.31060028E+01
 20
1.48481583E+02
  0
VERTEX
  8
0
 62
4
 10
-2.34000534E+01
 20
1.48336002E+02
  0
VERTEX
  8
0
 62
4
 10
-2.36796439E+01
 20
1.48166601E+02
  0
VERTEX
  8
0
 62
4
 10
-2.39426463E+01
 20
1.47974669E+02
  0
VERTEX
  8
0
 62
4
 10
-2.41870592E+01
 20
1.47761667E+02
  0
VERTEX
  8
0
 62
4
 10
-2.44110223E+01
 20
1.47529217E+02
  0
VERTEX
  8
0
 62
4
 10
-2.46128312E+01
 20
1.47279087E+02
  0
VERTEX
  8
0
 62
4
 10
-2.47909500E+01
 20
1.47013180E+02
  0
VERTEX
  8
0
 62
4
 10
-2.49440230E+01
 20
1.46733522E+02
  0
VERTEX
  8
0
 62
4
 10
-2.50708854E+01
 20
1.46442239E+02
  0
VERTEX
  8
0
 62
4
 10
-2.51705716E+01
 20
1.46141549E+02
  0
VERTEX
  8
0
 62
4
 10
-2.52423229E+01
 20
1.45833740E+02
  0
VERTEX
  8
0
 62
4
 10
-2.52855933E+01
 20
1.45521155E+02
  0
VERTEX
  8
0
 62
4
 10
-2.53000534E+01
 20
1.45206173E+02
  0
SEQEND
  8
0
  0
LINE
  8
0
 62
4
 10
-2.53000534E+01
 20
1.44897156E+02
 11
-2.53000534E+01
 21
1.45206173E+02
  0
LINE
  8
0
 62
4
 10
-1.77000534E+01
 20
1.44897156E+02
 11
-1.77000534E+01
 21
1.45206173E+02
  0
POLYLINE
  8
0
 62
4
 66
1
  0
VERTEX
  8
0
 62
4
 10
-2.49000534E+01
 20
1.45206173E+02
  0
VERTEX
  8
0
 62
4
 10
-2.48863660E+01
 20
1.44916316E+02
  0
VERTEX
  8
0
 62
4
 10
-2.48454140E+01
 20
1.44628793E+02
  0
VERTEX
  8
0
 62
4
 10
-2.47775272E+01
 20
1.44345918E+02
  0
VERTEX
  8
0
 62
4
 10
-2.46832520E+01
 20
1.44069970E+02
  0
VERTEX
  8
0
 62
4
 10
-2.45633476E+01
 20
1.43803170E+02
  0
VERTEX
  8
0
 62
4
 10
-2.44187793E+01
 20
1.43547666E+02
  0
VERTEX
  8
0
 62
4
 10
-2.42507112E+01
 20
1.43305515E+02
  0
VERTEX
  8
0
 62
4
 10
-2.40604964E+01
 20
1.43078668E+02
  0
VERTEX
  8
0
 62
4
 10
-2.38496664E+01
 20
1.42868949E+02
  0
VERTEX
  8
0
 62
4
 10
-2.36199188E+01
 20
1.42678049E+02
  0
VERTEX
  8
0
 62
4
 10
-2.33731032E+01
 20
1.42507503E+02
  0
VERTEX
  8
0
 62
4
 10
-2.31112069E+01
 20
1.42358686E+02
  0
VERTEX
  8
0
 62
4
 10
-2.28363385E+01
 20
1.42232795E+02
  0
VERTEX
  8
0
 62
4
 10
-2.25507112E+01
 20
1.42130844E+02
  0
VERTEX
  8
0
 62
4
 10
-2.22566246E+01
 20
1.42053654E+02
  0
VERTEX
  8
0
 62
4
 10
-2.19564465E+01
 20
1.42001846E+02
  0
VERTEX
  8
0
 62
4
 10
-2.16525938E+01
 20
1.41975837E+02
  0
VERTEX
  8
0
 62
4
 10
-2.13475130E+01
 20
1.41975837E+02
  0
VERTEX
  8
0
 62
4
 10
-2.10436603E+01
 20
1.42001846E+02
  0
VERTEX
  8
0
 62
4
 10
-2.07434822E+01
 20
1.42053654E+02
  0
VERTEX
  8
0
 62
4
 10
-2.04493956E+01
 20
1.42130844E+02
  0
VERTEX
  8
0
 62
4
 10
-2.01637683E+01
 20
1.42232795E+02
  0
VERTEX
  8
0
 62
4
 10
-1.98889000E+01
 20
1.42358686E+02
  0
VERTEX
  8
0
 62
4
 10
-1.96270037E+01
 20
1.42507503E+02
  0
VERTEX
  8
0
 62
4
 10
-1.93801881E+01
 20
1.42678049E+02
  0
VERTEX
  8
0
 62
4
 10
-1.91504404E+01
 20
1.42868949E+02
  0
VERTEX
  8
0
 62
4
 10
-1.89396104E+01
 20
1.43078667E+02
  0
VERTEX
  8
0
 62
4
 10
-1.87493956E+01
 20
1.43305515E+02
  0
VERTEX
  8
0
 62
4
 10
-1.85813275E+01
 20
1.43547666E+02
  0
VERTEX
  8
0
 62
4
 10
-1.84367592E+01
 20
1.43803170E+02
  0
VERTEX
  8
0
 62
4
 10
-1.83168548E+01
 20
1.44069970E+02
  0
VERTEX
  8
0
 62
4
 10
-1.82225797E+01
 20
1.44345918E+02
  0
VERTEX
  8
0
 62
4
 10
-1.81546928E+01
 20
1.44628793E+02
  0
VERTEX
  8
0
 62
4
 10
-1.81137408E+01
 20
1.44916316E+02
  0
VERTEX
  8
0
 62
4
 10
-1.81000534E+01
 20
1.45206173E+02
  0
SEQEND
  8
0
  0
LINE
  8
0
 62
4
 10
-1.81000534E+01
 20
1.45604554E+02
 11
-1.81000534E+01
 21
1.45206173E+02
  0
LINE
  8
0
 62
4
 10
-2.49000534E+01
 20
1.45206173E+02
 11
-2.49000534E+01
 21
1.45604554E+02
  0
POLYLINE
  8
0
 62
4
 66
1
  0
VERTEX
  8
0
 62
4
 10
-2.49000534E+01
 20
1.45604554E+02
  0
VERTEX
  8
0
 62
4
 10
-2.48871154E+01
 20
1.45322728E+02
  0
VERTEX
  8
0
 62
4
 10
-2.48483998E+01
 20
1.45043047E+02
  0
VERTEX
  8
0
 62
4
 10
-2.47842012E+01
 20
1.44767639E+02
  0
VERTEX
  8
0
 62
4
 10
-2.46950083E+01
 20
1.44498600E+02
  0
VERTEX
  8
0
 62
4
 10
-2.45814999E+01
 20
1.44237979E+02
  0
VERTEX
  8
0
 62
4
 10
-2.44445398E+01
 20
1.43987758E+02
  0
VERTEX
  8
0
 62
4
 10
-2.42851704E+01
 20
1.43749842E+02
  0
VERTEX
  8
0
 62
4
 10
-2.41046045E+01
 20
1.43526041E+02
  0
VERTEX
  8
0
 62
4
 10
-2.39042165E+01
 20
1.43318059E+02
  0
VERTEX
  8
0
 62
4
 10
-2.36855313E+01
 20
1.43127479E+02
  0
VERTEX
  8
0
 62
4
 10
-2.34502133E+01
 20
1.42955750E+02
  0
VERTEX
  8
0
 62
4
 10
-2.32000534E+01
 20
1.42804181E+02
  0
VERTEX
  8
0
 62
4
 10
-2.29369555E+01
 20
1.42673924E+02
  0
VERTEX
  8
0
 62
4
 10
-2.26629219E+01
 20
1.42565971E+02
  0
VERTEX
  8
0
 62
4
 10
-2.23800382E+01
 20
1.42481144E+02
  0
VERTEX
  8
0
 62
4
 10
-2.20904572E+01
 20
1.42420087E+02
  0
VERTEX
  8
0
 62
4
 10
-2.17963829E+01
 20
1.42383267E+02
  0
VERTEX
  8
0
 62
4
 10
-2.15000534E+01
 20
1.42370962E+02
  0
VERTEX
  8
0
 62
4
 10
-2.12037239E+01
 20
1.42383267E+02
  0
VERTEX
  8
0
 62
4
 10
-2.09096496E+01
 20
1.42420087E+02
  0
VERTEX
  8
0
 62
4
 10
-2.06200686E+01
 20
1.42481144E+02
  0
VERTEX
  8
0
 62
4
 10
-2.03371849E+01
 20
1.42565971E+02
  0
VERTEX
  8
0
 62
4
 10
-2.00631513E+01
 20
1.42673924E+02
  0
VERTEX
  8
0
 62
4
 10
-1.98000534E+01
 20
1.42804181E+02
  0
VERTEX
  8
0
 62
4
 10
-1.95498935E+01
 20
1.42955750E+02
  0
VERTEX
  8
0
 62
4
 10
-1.93145755E+01
 20
1.43127479E+02
  0
VERTEX
  8
0
 62
4
 10
-1.90958903E+01
 20
1.43318059E+02
  0
VERTEX
  8
0
 62
4
 10
-1.88955023E+01
 20
1.43526041E+02
  0
VERTEX
  8
0
 62
4
 10
-1.87149364E+01
 20
1.43749842E+02
  0
VERTEX
  8
0
 62
4
 10
-1.85555670E+01
 20
1.43987758E+02
  0
VERTEX
  8
0
 62
4
 10
-1.84186069E+01
 20
1.44237979E+02
  0
VERTEX
  8
0
 62
4
 10
-1.83050985E+01
 20
1.44498600E+02
  0
VERTEX
  8
0
 62
4
 10
-1.82159056E+01
 20
1.44767639E+02
  0
VERTEX
  8
0
 62
4
 10
-1.81517070E+01
 20
1.45043047E+02
  0
VERTEX
  8
0
 62
4
 10
-1.81129914E+01
 20
1.45322728E+02
  0
VERTEX
  8
0
 62
4
 10
-1.81000534E+01
 20
1.45604554E+02
  0
VERTEX
  8
0
 62
4
 10
-1.81129914E+01
 20
1.45886380E+02
  0
VERTEX
  8
0
 62
4
 10
-1.81517070E+01
 20
1.46166061E+02
  0
VERTEX
  8
0
 62
4
 10
-1.82159056E+01
 20
1.46441469E+02
  0
VERTEX
  8
0
 62
4
 10
-1.83050985E+01
 20
1.46710508E+02
  0
VERTEX
  8
0
 62
4
 10
-1.84186069E+01
 20
1.46971129E+02
  0
VERTEX
  8
0
 62
4
 10
-1.85555670E+01
 20
1.47221350E+02
  0
VERTEX
  8
0
 62
4
 10
-1.87149364E+01
 20
1.47459266E+02
  0
VERTEX
  8
0
 62
4
 10
-1.88955023E+01
 20
1.47683067E+02
  0
VERTEX
  8
0
 62
4
 10
-1.90958903E+01
 20
1.47891049E+02
  0
VERTEX
  8
0
 62
4
 10
-1.93145755E+01
 20
1.48081629E+02
  0
VERTEX
  8
0
 62
4
 10
-1.95498935E+01
 20
1.48253358E+02
  0
VERTEX
  8
0
 62
4
 10
-1.98000534E+01
 20
1.48404927E+02
  0
VERTEX
  8
0
 62
4
 10
-2.00631513E+01
 20
1.48535184E+02
  0
VERTEX
  8
0
 62
4
 10
-2.03371849E+01
 20
1.48643137E+02
  0
VERTEX
  8
0
 62
4
 10
-2.06200686E+01
 20
1.48727964E+02
  0
VERTEX
  8
0
 62
4
 10
-2.09096496E+01
 20
1.48789021E+02
  0
VERTEX
  8
0
 62
4
 10
-2.12037239E+01
 20
1.48825841E+02
  0
VERTEX
  8
0
 62
4
 10
-2.15000534E+01
 20
1.48838146E+02
  0
VERTEX
  8
0
 62
4
 10
-2.17963829E+01
 20
1.48825841E+02
  0
VERTEX
  8
0
 62
4
 10
-2.20904572E+01
 20
1.48789021E+02
  0
VERTEX
  8
0
 62
4
 10
-2.23800382E+01
 20
1.48727964E+02
  0
VERTEX
  8
0
 62
4
 10
-2.26629219E+01
 20
1.48643137E+02
  0
VERTEX
  8
0
 62
4
 10
-2.29369555E+01
 20
1.48535184E+02
  0
VERTEX
  8
0
 62
4
 10
-2.32000534E+01
 20
1.48404927E+02
  0
VERTEX
  8
0
 62
4
 10
-2.34502133E+01
 20
1.48253358E+02
  0
VERTEX
  8
0
 62
4
 10
-2.36855313E+01
 20
1.48081629E+02
  0
VERTEX
  8
0
 62
4
 10
-2.39042165E+01
 20
1.47891049E+02
  0
VERTEX
  8
0
 62
4
 10
-2.41046045E+01
 20
1.47683067E+02
  0
VERTEX
  8
0
 62
4
 10
-2.42851704E+01
 20
1.47459266E+02
  0
VERTEX
  8
0
 62
4
 10
-2.44445398E+01
 20
1.47221350E+02
  0
VERTEX
  8
0
 62
4
 10
-2.45814999E+01
 20
1.46971129E+02
  0
VERTEX
  8
0
 62
4
 10
-2.46950083E+01
 20
1.46710508E+02
  0
VERTEX
  8
0
 62
4
 10
-2.47842012E+01
 20
1.46441469E+02
  0
VERTEX
  8
0
 62
4
 10
-2.48483998E+01
 20
1.46166061E+02
  0
VERTEX
  8
0
 62
4
 10
-2.48871154E+01
 20
1.45886380E+02
  0
VERTEX
  8
0
 62
4
 10
-2.49000534E+01
 20
1.45604554E+02
  0
SEQEND
  8
0
  0
ARC
  8
0
 62
4
 10
4.73144660E+01
 20
7.35510128E+01
 40
9.98837386E+01
 50
1.32163454E+02
 51
1.34962547E+02
  0
ARC
  8
0
 62
4
 10
-9.03145728E+01
 20
7.35510128E+01
 40
9.98837386E+01
 50
4.50374523E+01
 51
4.78365464E+01
  0
LINE
  8
0
 62
4
 10
-2.57054211E+01
 20
1.39285923E+02
 11
-1.40000534E+01
 21
1.39285923E+02
  0
LINE
  8
0
 62
4
 10
-2.60897505E+01
 20
1.38872198E+02
 11
-2.05000534E+01
 21
1.38872198E+02
  0
LINE
  8
0
 62
7
 10
1.49999313E+01
 20
1.34499969E+02
 11
-5.50000534E+01
 21
1.34499969E+02
  0
LINE
  8
0
 62
7
 10
1.49999313E+01
 20
1.32099976E+02
 11
-5.50000534E+01
 21
1.32099976E+02
  0
LINE
  8
0
 62
7
 10
1.49999313E+01
 20
1.24899963E+02
 11
-5.50000534E+01
 21
1.24899963E+02
  0
LINE
  8
0
 62
4
 10
4.64999619E+01
 20
1.37775934E+02
 11
4.64999619E+01
 21
1.34921867E+02
  0
LINE
  8
0
 62
4
 10
4.49999619E+01
 20
1.38872198E+02
 11
4.64999619E+01
 21
1.37775934E+02
  0
LINE
  8
0
 62
4
 10
4.49999313E+01
 20
1.37636130E+02
 11
4.64999619E+01
 21
1.37076010E+02
  0
LINE
  8
0
 62
4
 10
4.64999619E+01
 20
1.34921867E+02
 11
4.49999313E+01
 21
1.33831882E+02
  0
LINE
  8
0
 62
7
 10
-3.84900047E+02
 20
8.57499695E+01
 11
-3.84500114E+02
 21
8.57499695E+01
  0
LINE
  8
0
  6
CENTER
 62
2
 10
-3.87964165E+02
 20
1.11499969E+02
 11
-3.84500114E+02
 21
1.11499969E+02
  0
LINE
  8
0
 62
7
 10
-3.87100090E+02
 20
1.13100021E+02
 11
-3.87100090E+02
 21
1.09899979E+02
  0
LINE
  8
0
 62
7
 10
-3.87100090E+02
 20
8.78999786E+01
 11
-3.87100090E+02
 21
9.11000137E+01
  0
LINE
  8
0
 62
7
 10
-3.19000100E+02
 20
7.71187536E+01
 11
-3.23000120E+02
 21
7.48093520E+01
  0
LINE
  8
0
  6
CENTER
 62
2
 10
-3.06370476E+02
 20
1.00500000E+02
 11
-3.87831139E+02
 21
1.00500000E+02
  0
LINE
  8
0
 62
7
 10
-3.84900078E+02
 20
1.15249969E+02
 11
-3.84500114E+02
 21
1.15249969E+02
  0
LINE
  8
0
 62
7
 10
-3.84900047E+02
 20
9.32499695E+01
 11
-3.84500114E+02
 21
9.32499695E+01
  0
LINE
  8
0
 62
7
 10
-3.84900047E+02
 20
1.07749985E+02
 11
-3.84500114E+02
 21
1.07749985E+02
  0
LINE
  8
0
  6
CENTER
 62
2
 10
-3.87964165E+02
 20
8.94999695E+01
 11
-3.84500114E+02
 21
8.94999695E+01
  0
LINE
  8
0
 62
7
 10
-3.84500175E+02
 20
6.69999695E+01
 11
-3.84500175E+02
 21
1.34000000E+02
  0
LINE
  8
0
  6
CENTER
 62
2
 10
-3.47000114E+02
 20
1.41342270E+02
 11
-3.47000114E+02
 21
5.96718216E+01
  0
LINE
  8
0
  6
CENTER
 62
2
 10
-3.35000084E+02
 20
1.40474243E+02
 11
-3.35000084E+02
 21
1.14662399E+02
  0
LINE
  8
0
 62
7
 10
-3.80500084E+02
 20
6.30000000E+01
 11
-3.13500145E+02
 21
6.30000000E+01
  0
LINE
  8
0
 62
7
 10
-3.09500114E+02
 20
1.34000015E+02
 11
-3.09500114E+02
 21
6.70000000E+01
  0
LINE
  8
0
 62
7
 10
-3.80500175E+02
 20
1.38000000E+02
 11
-3.13500145E+02
 21
1.38000000E+02
  0
LINE
  8
0
  6
CENTER
 62
2
 10
-3.75000175E+02
 20
1.17270401E+02
 11
-3.75000175E+02
 21
1.40057983E+02
  0
LINE
  8
0
  6
CENTER
 62
2
 10
-3.87045189E+02
 20
1.28500061E+02
 11
-3.64894127E+02
 21
1.28500061E+02
  0
LINE
  8
0
  6
CENTER
 62
2
 10
-3.29630669E+02
 20
1.28500061E+02
 11
-3.07097710E+02
 21
1.28500061E+02
  0
LINE
  8
0
  6
CENTER
 62
2
 10
-3.06970390E+02
 20
7.24999695E+01
 11
-3.29503349E+02
 21
7.24999695E+01
  0
LINE
  8
0
  6
CENTER
 62
2
 10
-3.19000114E+02
 20
8.25604706E+01
 11
-3.19000114E+02
 21
6.10041046E+01
  0
LINE
  8
0
  6
CENTER
 62
2
 10
-3.75000267E+02
 20
6.10016174E+01
 11
-3.75000267E+02
 21
8.35345917E+01
  0
LINE
  8
0
  6
CENTER
 62
2
 10
-3.64766808E+02
 20
7.24999695E+01
 11
-3.87045189E+02
 21
7.24999695E+01
  0
LINE
  8
0
 62
7
 10
-3.23000145E+02
 20
7.48093719E+01
 11
-3.23000145E+02
 21
7.01905746E+01
  0
LINE
  8
0
 62
7
 10
-3.19000110E+02
 20
6.78811743E+01
 11
-3.23000117E+02
 21
7.01905683E+01
  0
LINE
  8
0
 62
7
 10
-3.15000088E+02
 20
7.01905571E+01
 11
-3.19000109E+02
 21
6.78811556E+01
  0
LINE
  8
0
 62
7
 10
-3.15000114E+02
 20
7.48093719E+01
 11
-3.15000114E+02
 21
7.01905746E+01
  0
LINE
  8
0
 62
7
 10
-3.19000075E+02
 20
7.71187560E+01
 11
-3.15000094E+02
 21
7.48093774E+01
  0
LINE
  8
0
 62
7
 10
-3.75000208E+02
 20
7.71187575E+01
 11
-3.79000241E+02
 21
7.48093483E+01
  0
LINE
  8
0
 62
7
 10
-3.79000267E+02
 20
7.48093719E+01
 11
-3.79000267E+02
 21
7.01905746E+01
  0
LINE
  8
0
 62
7
 10
-3.75000249E+02
 20
6.78812065E+01
 11
-3.79000283E+02
 21
7.01906157E+01
  0
LINE
  8
0
 62
7
 10
-3.71000211E+02
 20
7.01905875E+01
 11
-3.75000245E+02
 21
6.78811783E+01
  0
LINE
  8
0
 62
7
 10
-3.71000237E+02
 20
7.48093719E+01
 11
-3.71000237E+02
 21
7.01905746E+01
  0
LINE
  8
0
 62
7
 10
-3.75000287E+02
 20
7.71187857E+01
 11
-3.71000253E+02
 21
7.48093765E+01
  0
LINE
  8
0
 62
7
 10
-3.75000198E+02
 20
1.33118886E+02
 11
-3.79000205E+02
 21
1.30809492E+02
  0
LINE
  8
0
 62
7
 10
-3.79000206E+02
 20
1.30809464E+02
 11
-3.79000206E+02
 21
1.26190674E+02
  0
LINE
  8
0
 62
7
 10
-3.75000191E+02
 20
1.23881269E+02
 11
-3.79000225E+02
 21
1.26190679E+02
  0
LINE
  8
0
 62
7
 10
-3.71000114E+02
 20
1.26190626E+02
 11
-3.75000148E+02
 21
1.23881216E+02
  0
LINE
  8
0
 62
7
 10
-3.71000175E+02
 20
1.30809464E+02
 11
-3.71000175E+02
 21
1.26190674E+02
  0
LINE
  8
0
 62
7
 10
-3.75000154E+02
 20
1.33118854E+02
 11
-3.71000121E+02
 21
1.30809445E+02
  0
LINE
  8
0
 62
7
 10
-3.19000026E+02
 20
1.33118831E+02
 11
-3.23000033E+02
 21
1.30809437E+02
  0
LINE
  8
0
 62
7
 10
-3.23000053E+02
 20
1.30809464E+02
 11
-3.23000053E+02
 21
1.26190674E+02
  0
LINE
  8
0
 62
7
 10
-3.19000036E+02
 20
1.23881264E+02
 11
-3.23000043E+02
 21
1.26190658E+02
  0
LINE
  8
0
 62
7
 10
-3.15000016E+02
 20
1.26190669E+02
 11
-3.19000037E+02
 21
1.23881267E+02
  0
LINE
  8
0
 62
7
 10
-3.15000023E+02
 20
1.30809464E+02
 11
-3.15000023E+02
 21
1.26190674E+02
  0
LINE
  8
0
 62
7
 10
-3.19000058E+02
 20
1.33118869E+02
 11
-3.15000051E+02
 21
1.30809475E+02
  0
LINE
  8
0
  6
CENTER
 62
2
 10
-3.19000053E+02
 20
1.40185287E+02
 11
-3.19000053E+02
 21
1.17270401E+02
  0
LINE
  8
0
  6
CENTER
 62
2
 10
-3.55000053E+02
 20
1.40185287E+02
 11
-3.55000053E+02
 21
1.21050690E+02
  0
ARC
  8
0
 62
7
 10
-3.84622612E+02
 20
1.12765427E+02
 40
2.50000000E+00
 50
8.99999956E+01
 51
1.72308570E+02
  0
ARC
  8
0
 62
7
 10
-3.84622612E+02
 20
9.07654266E+01
 40
2.50000000E+00
 50
9.63728081E+01
 51
1.87691385E+02
  0
ARC
  8
0
 62
7
 10
-3.84622612E+02
 20
8.82345657E+01
 40
2.50000000E+00
 50
1.87691403E+02
 51
2.69999963E+02
  0
ARC
  8
0
 62
7
 10
-3.84622612E+02
 20
1.10234528E+02
 40
2.50000000E+00
 50
1.72308570E+02
 51
2.63627161E+02
  0
CIRCLE
  8
0
 62
7
 10
-3.47000114E+02
 20
1.00500000E+02
 40
1.90000000E+01
  0
CIRCLE
  8
0
 62
7
 10
-3.47000114E+02
 20
1.00500000E+02
 40
1.70000000E+01
  0
CIRCLE
  8
0
 62
7
 10
-3.47000114E+02
 20
1.00500000E+02
 40
1.65000000E+01
  0
ARC
  8
0
 62
7
 10
-3.80500145E+02
 20
6.69999695E+01
 40
4.00000000E+00
 50
1.80000036E+02
 51
2.69999991E+02
  0
ARC
  8
0
 62
7
 10
-3.13500145E+02
 20
6.70000000E+01
 40
4.00000000E+00
 50
2.70000018E+02
 51
3.59999986E+02
  0
ARC
  8
0
 62
7
 10
-3.13500145E+02
 20
1.34000015E+02
 40
4.00000000E+00
 50
0.00000000E+00
 51
8.99999818E+01
  0
ARC
  8
0
 62
7
 10
-3.80500175E+02
 20
1.34000000E+02
 40
4.00000000E+00
 50
9.00000231E+01
 51
1.79999977E+02
  0
CIRCLE
  8
0
 62
7
 10
-3.75000175E+02
 20
1.28500061E+02
 40
6.50000048E+00
  0
CIRCLE
  8
0
 62
7
 10
-3.75000175E+02
 20
1.28500061E+02
 40
6.00000000E+00
  0
CIRCLE
  8
0
 62
2
 10
-3.75000175E+02
 20
1.28500061E+02
 40
4.00000000E+00
  0
CIRCLE
  8
0
 62
7
 10
-3.75000175E+02
 20
1.28500061E+02
 40
3.32000017E+00
  0
CIRCLE
  8
0
 62
7
 10
-3.19000053E+02
 20
1.28500031E+02
 40
6.50000048E+00
  0
CIRCLE
  8
0
 62
7
 10
-3.19000053E+02
 20
1.28500031E+02
 40
6.00000000E+00
  0
CIRCLE
  8
0
 62
2
 10
-3.19000053E+02
 20
1.28500061E+02
 40
4.00000000E+00
  0
CIRCLE
  8
0
 62
7
 10
-3.19000053E+02
 20
1.28500061E+02
 40
3.32000017E+00
  0
CIRCLE
  8
0
 62
7
 10
-3.19000114E+02
 20
7.24999313E+01
 40
6.50000048E+00
  0
CIRCLE
  8
0
 62
7
 10
-3.19000114E+02
 20
7.24999313E+01
 40
6.00000000E+00
  0
CIRCLE
  8
0
 62
2
 10
-3.19000114E+02
 20
7.24999695E+01
 40
4.00000000E+00
  0
CIRCLE
  8
0
 62
7
 10
-3.19000114E+02
 20
7.24999695E+01
 40
3.32000017E+00
  0
CIRCLE
  8
0
 62
7
 10
-3.75000175E+02
 20
7.24999695E+01
 40
6.50000048E+00
  0
CIRCLE
  8
0
 62
7
 10
-3.75000175E+02
 20
7.24999695E+01
 40
6.00000000E+00
  0
CIRCLE
  8
0
 62
2
 10
-3.75000267E+02
 20
7.24999695E+01
 40
4.00000000E+00
  0
CIRCLE
  8
0
 62
7
 10
-3.75000267E+02
 20
7.24999695E+01
 40
3.32000017E+00
  0
CIRCLE
  8
0
 62
7
 10
-3.47000114E+02
 20
1.00500000E+02
 40
8.99999237E+00
  0
CIRCLE
  8
0
 62
2
 10
-3.47000114E+02
 20
1.00500000E+02
 40
8.18000031E+00
  0
LINE
  8
0
 62
4
 10
-3.33500114E+02
 20
1.08294229E+02
 11
-3.47000114E+02
 21
1.16088457E+02
  0
LINE
  8
0
 62
4
 10
-3.33500114E+02
 20
9.27057714E+01
 11
-3.33500114E+02
 21
1.08294229E+02
  0
LINE
  8
0
 62
4
 10
-3.47000114E+02
 20
8.49115427E+01
 11
-3.33500114E+02
 21
9.27057714E+01
  0
LINE
  8
0
 62
4
 10
-3.60500114E+02
 20
9.27057714E+01
 11
-3.47000114E+02
 21
8.49115427E+01
  0
LINE
  8
0
 62
4
 10
-3.60500114E+02
 20
1.08294229E+02
 11
-3.60500114E+02
 21
9.27057714E+01
  0
LINE
  8
0
 62
4
 10
-3.47000114E+02
 20
1.16088457E+02
 11
-3.60500114E+02
 21
1.08294229E+02
  0
CIRCLE
  8
0
 62
4
 10
-3.47000114E+02
 20
1.00500000E+02
 40
1.35000000E+01
  0
LINE
  8
0
 62
4
 10
-3.85726006E+02
 20
1.23542990E+02
 11
-3.84500206E+02
 21
1.23941277E+02
  0
LINE
  8
0
 62
4
 10
-3.84500206E+02
 20
1.19770366E+02
 11
-3.85726006E+02
 21
1.23542990E+02
  0
LINE
  8
0
 62
6
 10
-3.85571497E+02
 20
1.23067462E+02
 11
-3.84500206E+02
 21
1.23415546E+02
  0
LINE
  8
0
 62
6
 10
-3.84644447E+02
 20
1.20214292E+02
 11
-3.84500206E+02
 21
1.20261159E+02
  0
LINE
  8
0
  6
CENTER
 62
6
 10
-3.62424655E+02
 20
1.35425053E+02
 11
-3.56718316E+02
 21
1.37279155E+02
  0
LINE
  8
0
  6
CENTER
 62
6
 10
-3.60498536E+02
 20
1.39205274E+02
 11
-3.58644434E+02
 21
1.33498935E+02
  0
LINE
  8
0
 62
4
 10
-3.58287406E+02
 20
1.38872251E+02
 11
-3.58004005E+02
 21
1.38000031E+02
  0
LINE
  8
0
 62
4
 10
-3.60971826E+02
 20
1.38000031E+02
 11
-3.58287406E+02
 21
1.38872251E+02
  0
LINE
  8
0
 62
4
 10
-3.58287406E+02
 20
1.38872251E+02
 11
-3.58731825E+02
 21
1.38000031E+02
  0
LINE
  8
0
 62
4
 10
-3.61845903E+02
 20
1.49176964E+02
 11
-3.71641785E+02
 21
1.45994089E+02
  0
LINE
  8
0
 62
4
 10
-3.61390190E+02
 20
1.38389827E+02
 11
-3.58632126E+02
 21
1.39285976E+02
  0
LINE
  8
0
 62
4
 10
-3.61588801E+02
 20
1.38000031E+02
 11
-3.61390190E+02
 21
1.38389827E+02
  0
LINE
  8
0
  6
CENTER
 62
6
 10
-3.80654327E+02
 20
1.38334156E+02
 11
-3.55259272E+02
 21
1.46585510E+02
  0
LINE
  8
0
  6
CENTER
 62
6
 10
-3.70655363E+02
 20
1.37902899E+02
 11
-3.54177712E+02
 21
1.43256812E+02
  0
LINE
  8
0
 62
4
 10
-3.75921539E+02
 20
1.44603512E+02
 11
-3.71641785E+02
 21
1.45994089E+02
  0
LINE
  8
0
 62
4
 10
-3.69044358E+02
 20
1.38000031E+02
 11
-3.71641785E+02
 21
1.45994089E+02
  0
LINE
  8
0
 62
4
 10
-3.79286181E+02
 20
1.38000031E+02
 11
-3.75921539E+02
 21
1.44603512E+02
  0
LINE
  8
0
 62
4
 10
-3.61629591E+02
 20
1.48511224E+02
 11
-3.60678535E+02
 21
1.48820241E+02
  0
ARC
  8
0
 62
4
 10
-3.57687172E+02
 20
1.43273128E+02
 40
1.00000000E+00
 50
3.36723662E+02
 51
5.17248996E+00
  0
ARC
  8
0
 62
4
 10
-3.59170454E+02
 20
1.47838200E+02
 40
1.00000000E+00
 50
3.08275100E+01
 51
1.08000000E+02
  0
ARC
  8
0
 62
4
 10
-3.68453152E+02
 20
1.42298559E+02
 40
1.18100000E+01
 50
5.17248996E+00
 51
3.08275100E+01
  0
LINE
  8
0
 62
4
 10
-3.60554928E+02
 20
1.48439819E+02
 11
-3.59480234E+02
 21
1.48789008E+02
  0
LINE
  8
0
 62
4
 10
-3.59705131E+02
 20
1.45824413E+02
 11
-3.60678535E+02
 21
1.48820241E+02
  0
LINE
  8
0
 62
4
 10
-3.57814742E+02
 20
1.38000031E+02
 11
-3.60294786E+02
 21
1.45632823E+02
  0
LINE
  8
0
 62
4
 10
-3.60609835E+02
 20
1.45372738E+02
 11
-3.60248433E+02
 21
1.45490164E+02
  0
LINE
  8
0
 62
4
 10
-3.60294786E+02
 20
1.45632823E+02
 11
-3.58620927E+02
 21
1.46176693E+02
  0
LINE
  8
0
 62
4
 10
-3.56926741E+02
 20
1.38000031E+02
 11
-3.56056086E+02
 21
1.38282924E+02
  0
ARC
  8
0
 62
4
 10
-3.67859332E+02
 20
1.38819521E+02
 40
1.18100000E+01
 50
1.80000000E+01
 51
3.85326990E+01
  0
ARC
  8
0
 62
4
 10
-3.67854549E+02
 20
1.38804802E+02
 40
1.18100000E+01
 50
3.57467301E+02
 51
1.80000000E+01
  0
LINE
  8
0
 62
4
 10
-3.58214297E+02
 20
1.38000031E+02
 11
-3.61845903E+02
 21
1.49176964E+02
  0
LINE
  8
0
 62
4
 10
-3.09500114E+02
 20
1.19770178E+02
 11
-3.08274253E+02
 21
1.23542990E+02
  0
LINE
  8
0
 62
4
 10
-3.08274253E+02
 20
1.23542990E+02
 11
-3.09500114E+02
 21
1.23941297E+02
  0
LINE
  8
0
 62
6
 10
-3.08428762E+02
 20
1.23067462E+02
 11
-3.09500114E+02
 21
1.23415566E+02
  0
LINE
  8
0
 62
6
 10
-3.09355813E+02
 20
1.20214292E+02
 11
-3.09500114E+02
 21
1.20261179E+02
  0
LINE
  8
0
  6
CENTER
 62
6
 10
-3.23344896E+02
 20
1.37902899E+02
 11
-3.39463929E+02
 21
1.43140290E+02
  0
LINE
  8
0
  6
CENTER
 62
6
 10
-3.13345932E+02
 20
1.38334156E+02
 11
-3.38382370E+02
 21
1.46468988E+02
  0
LINE
  8
0
 62
4
 10
-3.32411458E+02
 20
1.38000031E+02
 11
-3.32610069E+02
 21
1.38389827E+02
  0
LINE
  8
0
 62
4
 10
-3.32610069E+02
 20
1.38389827E+02
 11
-3.35368133E+02
 21
1.39285976E+02
  0
LINE
  8
0
 62
4
 10
-3.32154356E+02
 20
1.49176964E+02
 11
-3.22358474E+02
 21
1.45994089E+02
  0
LINE
  8
0
 62
4
 10
-3.33028434E+02
 20
1.38000031E+02
 11
-3.35712853E+02
 21
1.38872251E+02
  0
LINE
  8
0
 62
4
 10
-3.35712853E+02
 20
1.38872251E+02
 11
-3.35996255E+02
 21
1.38000031E+02
  0
LINE
  8
0
  6
CENTER
 62
6
 10
-3.33501723E+02
 20
1.39205274E+02
 11
-3.35355825E+02
 21
1.33498935E+02
  0
LINE
  8
0
  6
CENTER
 62
6
 10
-3.31575604E+02
 20
1.35425053E+02
 11
-3.37281943E+02
 21
1.37279155E+02
  0
LINE
  8
0
 62
4
 10
-3.14714078E+02
 20
1.38000031E+02
 11
-3.18078720E+02
 21
1.44603512E+02
  0
LINE
  8
0
 62
4
 10
-3.18078720E+02
 20
1.44603512E+02
 11
-3.22358474E+02
 21
1.45994089E+02
  0
LINE
  8
0
 62
4
 10
-3.22358474E+02
 20
1.45994089E+02
 11
-3.24955901E+02
 21
1.38000031E+02
  0
LINE
  8
0
 62
4
 10
-3.34719198E+02
 20
1.41283195E+02
 11
-3.35670254E+02
 21
1.41592212E+02
  0
LINE
  8
0
 62
4
 10
-3.32370668E+02
 20
1.48511224E+02
 11
-3.33321725E+02
 21
1.48820241E+02
  0
ARC
  8
0
 62
4
 10
-3.36313087E+02
 20
1.43273128E+02
 40
1.00000000E+00
 50
1.74827510E+02
 51
2.52000000E+02
  0
ARC
  8
0
 62
4
 10
-3.34829806E+02
 20
1.47838200E+02
 40
1.00000000E+00
 50
7.19999999E+01
 51
1.49172490E+02
  0
LINE
  8
0
 62
4
 10
-3.35546647E+02
 20
1.41972634E+02
 11
-3.36621341E+02
 21
1.42321824E+02
  0
LINE
  8
0
 62
4
 10
-3.33445332E+02
 20
1.48439819E+02
 11
-3.34520026E+02
 21
1.48789008E+02
  0
LINE
  8
0
 62
4
 10
-3.35670254E+02
 20
1.41592212E+02
 11
-3.33321725E+02
 21
1.48820241E+02
  0
ARC
  8
0
 62
4
 10
-3.25547108E+02
 20
1.42298559E+02
 40
1.18100000E+01
 50
1.49172490E+02
 51
1.74827510E+02
  0
LINE
  8
0
 62
4
 10
-3.36185518E+02
 20
1.38000031E+02
 11
-3.35080599E+02
 21
1.41400621E+02
  0
LINE
  8
0
 62
4
 10
-3.37073519E+02
 20
1.38000031E+02
 11
-3.37944174E+02
 21
1.38282924E+02
  0
ARC
  8
0
 62
4
 10
-3.26140928E+02
 20
1.38819521E+02
 40
1.18100000E+01
 50
1.59900933E+02
 51
1.62000000E+02
  0
ARC
  8
0
 62
4
 10
-3.26145710E+02
 20
1.38804802E+02
 40
1.18100000E+01
 50
1.62000000E+02
 51
1.82532699E+02
  0
LINE
  8
0
 62
4
 10
-3.35785962E+02
 20
1.38000031E+02
 11
-3.32154356E+02
 21
1.49176964E+02
  0
LINE
  8
0
 62
4
 10
2.14273994E+02
 20
1.23542990E+02
 11
2.15499794E+02
 21
1.23941277E+02
  0
LINE
  8
0
 62
4
 10
2.15499794E+02
 20
1.19770366E+02
 11
2.14273994E+02
 21
1.23542990E+02
  0
LINE
  8
0
 62
6
 10
2.14428503E+02
 20
1.23067462E+02
 11
2.15499794E+02
 21
1.23415546E+02
  0
LINE
  8
0
 62
4
 10
2.39445072E+02
 20
1.48439819E+02
 11
2.40519766E+02
 21
1.48789008E+02
  0
ARC
  8
0
 62
4
 10
2.40829546E+02
 20
1.47838200E+02
 40
1.00000000E+00
 50
3.08275100E+01
 51
1.08000000E+02
  0
LINE
  8
0
 62
4
 10
2.38370409E+02
 20
1.48511224E+02
 11
2.39321465E+02
 21
1.48820241E+02
  0
LINE
  8
0
 62
4
 10
2.24078461E+02
 20
1.44603512E+02
 11
2.28358215E+02
 21
1.45994089E+02
  0
LINE
  8
0
 62
4
 10
2.38154097E+02
 20
1.49176964E+02
 11
2.28358215E+02
 21
1.45994089E+02
  0
LINE
  8
0
 62
4
 10
2.30955642E+02
 20
1.38000031E+02
 11
2.28358215E+02
 21
1.45994089E+02
  0
LINE
  8
0
 62
4
 10
2.20713819E+02
 20
1.38000031E+02
 11
2.24078461E+02
 21
1.44603512E+02
  0
ARC
  8
0
 62
4
 10
2.32140668E+02
 20
1.38819521E+02
 40
1.18100000E+01
 50
1.80000000E+01
 51
3.85326990E+01
  0
LINE
  8
0
 62
4
 10
2.39705214E+02
 20
1.45632823E+02
 11
2.41379073E+02
 21
1.46176693E+02
  0
LINE
  8
0
 62
4
 10
2.39390165E+02
 20
1.45372738E+02
 11
2.39751567E+02
 21
1.45490164E+02
  0
ARC
  8
0
 62
4
 10
2.42312828E+02
 20
1.43273128E+02
 40
1.00000000E+00
 50
3.36723662E+02
 51
5.17248996E+00
  0
LINE
  8
0
  6
CENTER
 62
6
 10
2.19345673E+02
 20
1.38334156E+02
 11
2.44740728E+02
 21
1.46585510E+02
  0
ARC
  8
0
 62
4
 10
2.31546848E+02
 20
1.42298559E+02
 40
1.18100000E+01
 50
5.17248996E+00
 51
3.08275100E+01
  0
LINE
  8
0
 62
4
 10
2.40294869E+02
 20
1.45824413E+02
 11
2.39321465E+02
 21
1.48820241E+02
  0
LINE
  8
0
  6
CENTER
 62
6
 10
2.37575345E+02
 20
1.35425053E+02
 11
2.43281684E+02
 21
1.37279155E+02
  0
LINE
  8
0
 62
4
 10
2.38609810E+02
 20
1.38389827E+02
 11
2.41367874E+02
 21
1.39285976E+02
  0
LINE
  8
0
  6
CENTER
 62
6
 10
2.39501464E+02
 20
1.39205274E+02
 11
2.41355566E+02
 21
1.33498935E+02
  0
LINE
  8
0
 62
4
 10
2.41712594E+02
 20
1.38872251E+02
 11
2.41995995E+02
 21
1.38000031E+02
  0
LINE
  8
0
 62
4
 10
2.39028174E+02
 20
1.38000031E+02
 11
2.41712594E+02
 21
1.38872251E+02
  0
LINE
  8
0
 62
4
 10
2.41712594E+02
 20
1.38872251E+02
 11
2.41268175E+02
 21
1.38000031E+02
  0
LINE
  8
0
 62
4
 10
2.38411199E+02
 20
1.38000031E+02
 11
2.38609810E+02
 21
1.38389827E+02
  0
LINE
  8
0
  6
CENTER
 62
6
 10
2.29344637E+02
 20
1.37902899E+02
 11
2.45822288E+02
 21
1.43256812E+02
  0
LINE
  8
0
 62
4
 10
2.42185258E+02
 20
1.38000031E+02
 11
2.39705214E+02
 21
1.45632823E+02
  0
LINE
  8
0
 62
4
 10
2.43073259E+02
 20
1.38000031E+02
 11
2.43943914E+02
 21
1.38282924E+02
  0
ARC
  8
0
 62
4
 10
2.32145451E+02
 20
1.38804802E+02
 40
1.18100000E+01
 50
3.57467301E+02
 51
1.80000000E+01
  0
LINE
  8
0
 62
4
 10
2.41785703E+02
 20
1.38000031E+02
 11
2.38154097E+02
 21
1.49176964E+02
  0
LINE
  8
0
  6
CENTER
 62
6
 10
2.68424396E+02
 20
1.35425053E+02
 11
2.62718057E+02
 21
1.37279155E+02
  0
LINE
  8
0
 62
4
 10
2.64287147E+02
 20
1.38872251E+02
 11
2.64003745E+02
 21
1.38000031E+02
  0
LINE
  8
0
 62
4
 10
2.62926481E+02
 20
1.38000031E+02
 11
2.62055826E+02
 21
1.38282924E+02
  0
LINE
  8
0
 62
4
 10
2.90499886E+02
 20
1.19770178E+02
 11
2.91725747E+02
 21
1.23542990E+02
  0
LINE
  8
0
 62
4
 10
2.91725747E+02
 20
1.23542990E+02
 11
2.90499886E+02
 21
1.23941297E+02
  0
LINE
  8
0
 62
6
 10
2.91571238E+02
 20
1.23067462E+02
 11
2.90499886E+02
 21
1.23415566E+02
  0
LINE
  8
0
 62
4
 10
2.85285922E+02
 20
1.38000031E+02
 11
2.81921280E+02
 21
1.44603512E+02
  0
LINE
  8
0
 62
4
 10
2.81921280E+02
 20
1.44603512E+02
 11
2.77641526E+02
 21
1.45994089E+02
  0
LINE
  8
0
 62
4
 10
2.77641526E+02
 20
1.45994089E+02
 11
2.75044099E+02
 21
1.38000031E+02
  0
LINE
  8
0
 62
4
 10
2.67588542E+02
 20
1.38000031E+02
 11
2.67389931E+02
 21
1.38389827E+02
  0
LINE
  8
0
 62
4
 10
2.67389931E+02
 20
1.38389827E+02
 11
2.64631867E+02
 21
1.39285976E+02
  0
LINE
  8
0
 62
4
 10
2.66971566E+02
 20
1.38000031E+02
 11
2.64287147E+02
 21
1.38872251E+02
  0
LINE
  8
0
  6
CENTER
 62
6
 10
2.66498277E+02
 20
1.39205274E+02
 11
2.64644175E+02
 21
1.33498935E+02
  0
LINE
  8
0
 62
4
 10
2.65280802E+02
 20
1.41283195E+02
 11
2.64329746E+02
 21
1.41592212E+02
  0
LINE
  8
0
 62
4
 10
2.63814482E+02
 20
1.38000031E+02
 11
2.64919401E+02
 21
1.41400621E+02
  0
ARC
  8
0
 62
4
 10
2.73859072E+02
 20
1.38819521E+02
 40
1.18100000E+01
 50
1.59900933E+02
 51
1.62000000E+02
  0
ARC
  8
0
 62
4
 10
2.63686913E+02
 20
1.43273128E+02
 40
1.00000000E+00
 50
1.74827510E+02
 51
2.52000000E+02
  0
LINE
  8
0
  6
CENTER
 62
6
 10
2.76655104E+02
 20
1.37902899E+02
 11
2.60536071E+02
 21
1.43140290E+02
  0
LINE
  8
0
 62
4
 10
2.64453353E+02
 20
1.41972634E+02
 11
2.63378659E+02
 21
1.42321824E+02
  0
ARC
  8
0
 62
4
 10
2.73854290E+02
 20
1.38804802E+02
 40
1.18100000E+01
 50
1.62000000E+02
 51
1.82532699E+02
  0
LINE
  8
0
 62
4
 10
2.66554668E+02
 20
1.48439819E+02
 11
2.65479974E+02
 21
1.48789008E+02
  0
ARC
  8
0
 62
4
 10
2.65170194E+02
 20
1.47838200E+02
 40
1.00000000E+00
 50
7.19999999E+01
 51
1.49172490E+02
  0
LINE
  8
0
 62
4
 10
2.67629332E+02
 20
1.48511224E+02
 11
2.66678275E+02
 21
1.48820241E+02
  0
LINE
  8
0
  6
CENTER
 62
6
 10
2.86654068E+02
 20
1.38334156E+02
 11
2.61617630E+02
 21
1.46468988E+02
  0
LINE
  8
0
 62
4
 10
2.67845644E+02
 20
1.49176964E+02
 11
2.77641526E+02
 21
1.45994089E+02
  0
LINE
  8
0
 62
4
 10
2.64329746E+02
 20
1.41592212E+02
 11
2.66678275E+02
 21
1.48820241E+02
  0
ARC
  8
0
 62
4
 10
2.74452892E+02
 20
1.42298559E+02
 40
1.18100000E+01
 50
1.49172490E+02
 51
1.74827510E+02
  0
LINE
  8
0
 62
4
 10
2.64214038E+02
 20
1.38000031E+02
 11
2.67845644E+02
 21
1.49176964E+02
  0
LINE
  8
0
 62
7
 10
2.86499947E+02
 20
1.38000000E+02
 11
2.19499916E+02
 21
1.38000000E+02
  0
LINE
  8
0
  6
CENTER
 62
2
 10
2.60999825E+02
 20
1.40185287E+02
 11
2.60999825E+02
 21
1.21050690E+02
  0
LINE
  8
0
  6
CENTER
 62
2
 10
2.52999886E+02
 20
1.41342270E+02
 11
2.52999886E+02
 21
5.96718216E+01
  0
LINE
  8
0
 62
6
 10
2.15355584E+02
 20
1.20214292E+02
 11
2.15499886E+02
 21
1.20261179E+02
  0
LINE
  8
0
 62
6
 10
2.90644218E+02
 20
1.20214292E+02
 11
2.90499977E+02
 21
1.20261159E+02
  0
CIRCLE
  8
0
 62
7
 10
2.81000038E+02
 20
7.24999695E+01
 40
3.32000017E+00
  0
CIRCLE
  8
0
 62
2
 10
2.81000038E+02
 20
7.24999695E+01
 40
4.00000000E+00
  0
CIRCLE
  8
0
 62
7
 10
2.80999947E+02
 20
7.24999695E+01
 40
6.00000000E+00
  0
CIRCLE
  8
0
 62
7
 10
2.80999947E+02
 20
7.24999695E+01
 40
6.50000048E+00
  0
CIRCLE
  8
0
 62
7
 10
2.24999886E+02
 20
7.24999695E+01
 40
3.32000017E+00
  0
CIRCLE
  8
0
 62
2
 10
2.24999886E+02
 20
7.24999695E+01
 40
4.00000000E+00
  0
CIRCLE
  8
0
 62
7
 10
2.24999886E+02
 20
7.24999313E+01
 40
6.00000000E+00
  0
CIRCLE
  8
0
 62
7
 10
2.24999886E+02
 20
7.24999313E+01
 40
6.50000048E+00
  0
CIRCLE
  8
0
 62
7
 10
2.24999825E+02
 20
1.28500061E+02
 40
3.32000017E+00
  0
CIRCLE
  8
0
 62
2
 10
2.24999825E+02
 20
1.28500061E+02
 40
4.00000000E+00
  0
CIRCLE
  8
0
 62
7
 10
2.80999947E+02
 20
1.28500061E+02
 40
3.32000017E+00
  0
CIRCLE
  8
0
 62
2
 10
2.80999947E+02
 20
1.28500061E+02
 40
4.00000000E+00
  0
ARC
  8
0
 62
7
 10
2.19499916E+02
 20
6.70000000E+01
 40
4.00000000E+00
 50
1.80000014E+02
 51
2.69999982E+02
  0
ARC
  8
0
 62
7
 10
2.86499916E+02
 20
6.69999695E+01
 40
4.00000000E+00
 50
2.70000009E+02
 51
3.59999964E+02
  0
CIRCLE
  8
0
 62
7
 10
2.52999886E+02
 20
1.00500000E+02
 40
1.90000000E+01
  0
ARC
  8
0
 62
7
 10
2.90622383E+02
 20
1.10234528E+02
 40
2.50000000E+00
 50
2.76372839E+02
 51
7.69143002E+00
  0
ARC
  8
0
 62
7
 10
2.90622383E+02
 20
8.82345657E+01
 40
2.50000000E+00
 50
2.70000037E+02
 51
3.52308598E+02
  0
ARC
  8
0
 62
7
 10
2.90622383E+02
 20
9.07654266E+01
 40
2.50000000E+00
 50
3.52308615E+02
 51
8.36271917E+01
  0
ARC
  8
0
 62
7
 10
2.90622383E+02
 20
1.12765427E+02
 40
2.50000000E+00
 50
7.69143002E+00
 51
9.00000042E+01
  0
LINE
  8
0
 62
7
 10
2.24999829E+02
 20
1.33118869E+02
 11
2.20999822E+02
 21
1.30809475E+02
  0
LINE
  8
0
 62
7
 10
2.20999794E+02
 20
1.30809464E+02
 11
2.20999794E+02
 21
1.26190674E+02
  0
LINE
  8
0
 62
7
 10
2.20999787E+02
 20
1.26190669E+02
 11
2.24999808E+02
 21
1.23881267E+02
  0
LINE
  8
0
 62
7
 10
2.24999807E+02
 20
1.23881264E+02
 11
2.28999814E+02
 21
1.26190658E+02
  0
LINE
  8
0
 62
7
 10
2.28999825E+02
 20
1.30809464E+02
 11
2.28999825E+02
 21
1.26190674E+02
  0
LINE
  8
0
 62
7
 10
2.24999797E+02
 20
1.33118831E+02
 11
2.28999804E+02
 21
1.30809437E+02
  0
LINE
  8
0
 62
7
 10
2.80999926E+02
 20
1.33118854E+02
 11
2.76999892E+02
 21
1.30809445E+02
  0
LINE
  8
0
 62
7
 10
2.76999947E+02
 20
1.30809464E+02
 11
2.76999947E+02
 21
1.26190674E+02
  0
LINE
  8
0
 62
7
 10
2.76999885E+02
 20
1.26190626E+02
 11
2.80999919E+02
 21
1.23881216E+02
  0
LINE
  8
0
 62
7
 10
2.80999962E+02
 20
1.23881269E+02
 11
2.84999996E+02
 21
1.26190679E+02
  0
LINE
  8
0
 62
7
 10
2.84999977E+02
 20
1.30809464E+02
 11
2.84999977E+02
 21
1.26190674E+02
  0
LINE
  8
0
 62
7
 10
2.80999969E+02
 20
1.33118886E+02
 11
2.84999976E+02
 21
1.30809492E+02
  0
LINE
  8
0
 62
7
 10
2.81000058E+02
 20
7.71187857E+01
 11
2.77000024E+02
 21
7.48093765E+01
  0
LINE
  8
0
 62
7
 10
2.77000008E+02
 20
7.48093719E+01
 11
2.77000008E+02
 21
7.01905746E+01
  0
LINE
  8
0
 62
7
 10
2.76999982E+02
 20
7.01905875E+01
 11
2.81000016E+02
 21
6.78811783E+01
  0
LINE
  8
0
 62
7
 10
2.81000020E+02
 20
6.78812065E+01
 11
2.85000054E+02
 21
7.01906157E+01
  0
LINE
  8
0
 62
7
 10
2.85000038E+02
 20
7.48093719E+01
 11
2.85000038E+02
 21
7.01905746E+01
  0
LINE
  8
0
 62
7
 10
2.80999979E+02
 20
7.71187575E+01
 11
2.85000012E+02
 21
7.48093483E+01
  0
LINE
  8
0
 62
7
 10
2.24999846E+02
 20
7.71187560E+01
 11
2.20999865E+02
 21
7.48093774E+01
  0
LINE
  8
0
 62
7
 10
2.20999886E+02
 20
7.48093719E+01
 11
2.20999886E+02
 21
7.01905746E+01
  0
LINE
  8
0
 62
7
 10
2.20999859E+02
 20
7.01905571E+01
 11
2.24999880E+02
 21
6.78811556E+01
  0
LINE
  8
0
 62
7
 10
2.24999881E+02
 20
6.78811743E+01
 11
2.28999888E+02
 21
7.01905683E+01
  0
LINE
  8
0
 62
7
 10
2.28999916E+02
 20
7.48093719E+01
 11
2.28999916E+02
 21
7.01905746E+01
  0
LINE
  8
0
  6
CENTER
 62
2
 10
2.70766579E+02
 20
7.24999695E+01
 11
2.93044960E+02
 21
7.24999695E+01
  0
LINE
  8
0
  6
CENTER
 62
2
 10
2.81000038E+02
 20
6.10016174E+01
 11
2.81000038E+02
 21
8.35345917E+01
  0
LINE
  8
0
  6
CENTER
 62
2
 10
2.24999886E+02
 20
8.25604706E+01
 11
2.24999886E+02
 21
6.10041046E+01
  0
LINE
  8
0
  6
CENTER
 62
2
 10
2.12970161E+02
 20
7.24999695E+01
 11
2.35503120E+02
 21
7.24999695E+01
  0
LINE
  8
0
  6
CENTER
 62
2
 10
2.35630440E+02
 20
1.28500061E+02
 11
2.13097481E+02
 21
1.28500061E+02
  0
LINE
  8
0
  6
CENTER
 62
2
 10
2.93044960E+02
 20
1.28500061E+02
 11
2.70893898E+02
 21
1.28500061E+02
  0
LINE
  8
0
 62
7
 10
2.15499886E+02
 20
1.34000015E+02
 11
2.15499886E+02
 21
6.70000000E+01
  0
LINE
  8
0
 62
7
 10
2.86499855E+02
 20
6.30000000E+01
 11
2.19499916E+02
 21
6.30000000E+01
  0
LINE
  8
0
 62
7
 10
2.90499947E+02
 20
6.69999695E+01
 11
2.90499947E+02
 21
1.34000000E+02
  0
LINE
  8
0
  6
CENTER
 62
2
 10
2.93963936E+02
 20
8.94999695E+01
 11
2.90499886E+02
 21
8.94999695E+01
  0
LINE
  8
0
 62
7
 10
2.90899818E+02
 20
1.07749985E+02
 11
2.90499886E+02
 21
1.07749985E+02
  0
LINE
  8
0
 62
7
 10
2.90899818E+02
 20
9.32499695E+01
 11
2.90499886E+02
 21
9.32499695E+01
  0
LINE
  8
0
 62
7
 10
2.90899849E+02
 20
1.15249969E+02
 11
2.90499886E+02
 21
1.15249969E+02
  0
LINE
  8
0
  6
CENTER
 62
2
 10
2.12370247E+02
 20
1.00500000E+02
 11
2.93830910E+02
 21
1.00500000E+02
  0
LINE
  8
0
 62
7
 10
2.24999871E+02
 20
7.71187536E+01
 11
2.28999892E+02
 21
7.48093520E+01
  0
LINE
  8
0
 62
7
 10
2.93099861E+02
 20
8.78999786E+01
 11
2.93099861E+02
 21
9.11000137E+01
  0
LINE
  8
0
 62
7
 10
2.93099861E+02
 20
1.13100021E+02
 11
2.93099861E+02
 21
1.09899979E+02
  0
LINE
  8
0
  6
CENTER
 62
2
 10
2.93963936E+02
 20
1.11499969E+02
 11
2.90499886E+02
 21
1.11499969E+02
  0
LINE
  8
0
 62
7
 10
2.90899818E+02
 20
8.57499695E+01
 11
2.90499886E+02
 21
8.57499695E+01
  0
LINE
  8
0
  6
CENTER
 62
2
 10
2.40999855E+02
 20
1.40474243E+02
 11
2.40999855E+02
 21
1.14662399E+02
  0
LINE
  8
0
  6
CENTER
 62
2
 10
2.80999947E+02
 20
1.17270401E+02
 11
2.80999947E+02
 21
1.40057983E+02
  0
LINE
  8
0
  6
CENTER
 62
2
 10
2.24999825E+02
 20
1.40185287E+02
 11
2.24999825E+02
 21
1.17270401E+02
  0
ARC
  8
0
 62
7
 10
2.19499916E+02
 20
1.34000015E+02
 40
4.00000000E+00
 50
9.00000179E+01
 51
1.80000000E+02
  0
ARC
  8
0
 62
7
 10
2.86499947E+02
 20
1.34000000E+02
 40
4.00000000E+00
 50
2.23118003E-05
 51
8.99999773E+01
  0
CIRCLE
  8
0
 62
7
 10
2.80999947E+02
 20
1.28500061E+02
 40
6.50000048E+00
  0
CIRCLE
  8
0
 62
7
 10
2.80999947E+02
 20
1.28500061E+02
 40
6.00000000E+00
  0
CIRCLE
  8
0
 62
7
 10
2.24999825E+02
 20
1.28500031E+02
 40
6.50000048E+00
  0
CIRCLE
  8
0
 62
7
 10
2.24999825E+02
 20
1.28500031E+02
 40
6.00000000E+00
  0
LINE
  8
0
  6
PHANTOM
 10
4.99954224E-01
 20
1.96111431E+02
 11
4.99954224E-01
 21
3.53816712E+02
  0
LINE
  8
0
 62
7
 10
7.79999771E+01
 20
2.55500000E+02
 11
5.19999466E+01
 21
2.55500000E+02
  0
ARC
  8
0
 62
7
 10
7.79999771E+01
 20
2.57500000E+02
 40
2.00000000E+00
 50
2.70000000E+02
 51
0.00000000E+00
  0
LINE
  8
0
 62
7
 10
7.99999771E+01
 20
2.57500000E+02
 11
7.99999771E+01
 21
3.03500000E+02
  0
ARC
  8
0
 62
7
 10
7.79999771E+01
 20
3.03500000E+02
 40
2.00000000E+00
 50
0.00000000E+00
 51
9.00000002E+01
  0
LINE
  8
0
 62
7
 10
7.79999771E+01
 20
3.05500000E+02
 11
5.19999466E+01
 21
3.05500000E+02
  0
LINE
  8
0
  6
CENTER
 62
2
 10
-1.65374840E+02
 20
2.80500000E+02
 11
8.97907600E+01
 21
2.80500000E+02
  0
LINE
  8
0
 62
7
 10
-5.50000381E+01
 20
2.43000031E+02
 11
-5.50000381E+01
 21
3.18000000E+02
  0
LINE
  8
0
 62
7
 10
5.19999466E+01
 20
3.17999939E+02
 11
5.19999466E+01
 21
2.42999969E+02
  0
LINE
  8
0
  6
CENTER
 62
2
 10
8.82291946E+01
 20
2.52499969E+02
 11
-1.10064003E+02
 21
2.52499969E+02
  0
LINE
  8
0
 62
7
 10
5.19999466E+01
 20
2.56100021E+02
 11
4.49999466E+01
 21
2.56100021E+02
  0
LINE
  8
0
 62
7
 10
5.19999466E+01
 20
2.48900009E+02
 11
2.99999466E+01
 21
2.48900009E+02
  0
LINE
  8
0
 62
7
 10
5.19999466E+01
 20
2.46500031E+02
 11
2.99999466E+01
 21
2.46500031E+02
  0
LINE
  8
0
  6
CENTER
 62
2
 10
8.82291946E+01
 20
3.08500031E+02
 11
-1.09462791E+02
 21
3.08500031E+02
  0
LINE
  8
0
 62
7
 10
5.19999466E+01
 20
3.04899994E+02
 11
-1.40000381E+01
 21
3.04899994E+02
  0
LINE
  8
0
 62
7
 10
5.19999466E+01
 20
3.12100006E+02
 11
-1.40000381E+01
 21
3.12100006E+02
  0
LINE
  8
0
 62
7
 10
5.19999466E+01
 20
3.14499969E+02
 11
-1.40000381E+01
 21
3.14499969E+02
  0
LINE
  8
0
 62
7
 10
-1.21499992E+02
 20
2.97499985E+02
 11
-1.16999992E+02
 21
2.97499985E+02
  0
LINE
  8
0
 62
7
 10
-1.22000008E+02
 20
2.63999985E+02
 11
-1.22000008E+02
 21
2.97000000E+02
  0
LINE
  8
0
 62
7
 10
-1.07000008E+02
 20
2.43000000E+02
 11
-1.07000008E+02
 21
3.18000000E+02
  0
LINE
  8
0
 62
7
 10
-1.17000008E+02
 20
2.97999985E+02
 11
-1.17000008E+02
 21
2.62999985E+02
  0
LINE
  8
0
 62
7
 10
-1.21499992E+02
 20
2.63500000E+02
 11
-1.16999992E+02
 21
2.63500000E+02
  0
LINE
  8
0
 62
7
 10
-1.21999870E+02
 20
2.96999859E+02
 11
-1.21499868E+02
 21
2.97499860E+02
  0
LINE
  8
0
 62
7
 10
-1.22000009E+02
 20
2.64000008E+02
 11
-1.21499998E+02
 21
2.63499996E+02
  0
LINE
  8
0
 62
7
 10
-1.21499992E+02
 20
2.63500000E+02
 11
-1.21499992E+02
 21
2.97499985E+02
  0
LINE
  8
0
 62
7
 10
-1.07000038E+02
 20
2.43000000E+02
 11
-5.50000381E+01
 21
2.43000000E+02
  0
LINE
  8
0
 62
7
 10
-7.87500381E+01
 20
3.18399933E+02
 11
-7.87500381E+01
 21
3.18000000E+02
  0
LINE
  8
0
 62
7
 10
-7.12500381E+01
 20
3.18399933E+02
 11
-7.12500381E+01
 21
3.18000000E+02
  0
LINE
  8
0
 62
7
 10
-7.34000168E+01
 20
3.20600006E+02
 11
-7.66000290E+01
 21
3.20600006E+02
  0
LINE
  8
0
  6
CENTER
 62
2
 10
-7.50000381E+01
 20
3.21464050E+02
 11
-7.50000381E+01
 21
3.18000000E+02
  0
LINE
  8
0
  6
CENTER
 62
2
 10
-9.70000381E+01
 20
3.21464050E+02
 11
-9.70000381E+01
 21
3.18000000E+02
  0
LINE
  8
0
 62
7
 10
-1.00750038E+02
 20
3.18399994E+02
 11
-1.00750038E+02
 21
3.18000000E+02
  0
LINE
  8
0
 62
7
 10
-9.86000443E+01
 20
3.20600006E+02
 11
-9.54000320E+01
 21
3.20600006E+02
  0
LINE
  8
0
 62
7
 10
-9.32500381E+01
 20
3.18399933E+02
 11
-9.32500381E+01
 21
3.18000000E+02
  0
LINE
  8
0
  6
CENTER
 62
2
 10
-6.20000687E+01
 20
2.61028870E+02
 11
-6.20000687E+01
 21
2.77617889E+02
  0
LINE
  8
0
  6
CENTER
 62
2
 10
-7.08453140E+01
 20
2.68500000E+02
 11
-5.33707962E+01
 21
2.68500000E+02
  0
LINE
  8
0
 62
7
 10
-1.09000008E+02
 20
2.99500000E+02
 11
-1.07000008E+02
 21
2.99500000E+02
  0
LINE
  8
0
 62
7
 10
-1.08999992E+02
 20
2.61500000E+02
 11
-1.07000008E+02
 21
2.61500000E+02
  0
LINE
  8
0
 62
7
 10
-6.02679546E+01
 20
2.68500027E+02
 11
-6.11339633E+01
 21
2.70000007E+02
  0
LINE
  8
0
 62
7
 10
-6.11340256E+01
 20
2.70000015E+02
 11
-6.28660202E+01
 21
2.70000015E+02
  0
LINE
  8
0
 62
7
 10
-6.37319952E+01
 20
2.68499954E+02
 11
-6.28659866E+01
 21
2.69999934E+02
  0
LINE
  8
0
 62
7
 10
-6.28659671E+01
 20
2.66999932E+02
 11
-6.37320062E+01
 21
2.68499964E+02
  0
LINE
  8
0
 62
7
 10
-6.11340256E+01
 20
2.66999985E+02
 11
-6.28660202E+01
 21
2.66999985E+02
  0
LINE
  8
0
 62
7
 10
-6.02679520E+01
 20
2.68499923E+02
 11
-6.11339759E+01
 21
2.66999916E+02
  0
LINE
  8
0
 62
7
 10
-1.15999977E+02
 20
2.62000000E+02
 11
-1.09499992E+02
 21
2.62000000E+02
  0
LINE
  8
0
 62
7
 10
-1.08999992E+02
 20
2.99500000E+02
 11
-1.08999992E+02
 21
2.61499985E+02
  0
LINE
  8
0
 62
7
 10
-1.09500029E+02
 20
2.61999959E+02
 11
-1.09000039E+02
 21
2.61499969E+02
  0
LINE
  8
0
 62
7
 10
-1.09500008E+02
 20
2.98999985E+02
 11
-1.09500008E+02
 21
2.62000000E+02
  0
LINE
  8
0
 62
7
 10
-1.15999977E+02
 20
2.98999985E+02
 11
-1.09499992E+02
 21
2.98999985E+02
  0
LINE
  8
0
 62
7
 10
-1.09500098E+02
 20
2.99000082E+02
 11
-1.09000098E+02
 21
2.99500081E+02
  0
LINE
  8
0
  6
CENTER
 62
2
 10
-9.63648758E+01
 20
2.88499985E+02
 11
-7.47607040E+01
 21
2.88499985E+02
  0
LINE
  8
0
  6
CENTER
 62
2
 10
-8.60000992E+01
 20
2.78499954E+02
 11
-8.60000992E+01
 21
3.20757263E+02
  0
LINE
  8
0
 62
7
 10
8.39999542E+01
 20
3.16950073E+02
 11
8.39999542E+01
 21
2.44049927E+02
  0
LINE
  8
0
 62
7
 10
8.35087101E+01
 20
2.43550032E+02
 11
5.20000282E+01
 21
2.43000046E+02
  0
LINE
  8
0
  6
CENTER
 62
2
 10
7.63648148E+01
 20
2.88499985E+02
 11
5.47606354E+01
 21
2.88499985E+02
  0
LINE
  8
0
  6
CENTER
 62
2
 10
6.60000000E+01
 20
2.78499954E+02
 11
6.60000000E+01
 21
2.99046249E+02
  0
LINE
  8
0
 62
7
 10
8.54999504E+01
 20
2.99500000E+02
 11
8.39999542E+01
 21
2.99500000E+02
  0
LINE
  8
0
 62
7
 10
8.35087292E+01
 20
3.17450085E+02
 11
5.19999404E+01
 21
3.18000073E+02
  0
LINE
  8
0
 62
7
 10
8.54999504E+01
 20
2.61499985E+02
 11
8.39999504E+01
 21
2.61499985E+02
  0
LINE
  8
0
 62
7
 10
8.59999619E+01
 20
2.99000000E+02
 11
8.59999619E+01
 21
2.62000000E+02
  0
LINE
  8
0
  6
CENTER
 62
2
 10
5.90000305E+01
 20
2.74911133E+02
 11
5.90000305E+01
 21
2.61434372E+02
  0
LINE
  8
0
  6
CENTER
 62
2
 10
5.23342667E+01
 20
2.68500000E+02
 11
6.51630325E+01
 21
2.68500000E+02
  0
LINE
  8
0
 62
7
 10
6.07320442E+01
 20
2.68499899E+02
 11
5.98660127E+01
 21
2.69999919E+02
  0
LINE
  8
0
 62
7
 10
5.98660126E+01
 20
2.70000015E+02
 11
5.81339188E+01
 21
2.70000015E+02
  0
LINE
  8
0
 62
7
 10
5.72681497E+01
 20
2.68499838E+02
 11
5.81341583E+01
 21
2.69999818E+02
  0
LINE
  8
0
 62
7
 10
5.81339809E+01
 20
2.66999969E+02
 11
5.72679493E+01
 21
2.68499988E+02
  0
LINE
  8
0
 62
7
 10
5.98660126E+01
 20
2.66999985E+02
 11
5.81339188E+01
 21
2.66999985E+02
  0
LINE
  8
0
 62
7
 10
6.07321556E+01
 20
2.68499926E+02
 11
5.98661164E+01
 21
2.66999893E+02
  0
LINE
  8
0
 62
7
 10
-1.07000038E+02
 20
3.18000000E+02
 11
-5.49999771E+01
 21
3.18000000E+02
  0
LINE
  8
0
 62
7
 10
-1.28999977E+02
 20
2.89000015E+02
 11
-1.28999977E+02
 21
2.72000015E+02
  0
LINE
  8
0
 62
7
 10
-1.23500023E+02
 20
2.70500046E+02
 11
-1.22000053E+02
 21
2.70500046E+02
  0
LINE
  8
0
 62
7
 10
-1.23499992E+02
 20
2.90500046E+02
 11
-1.22000008E+02
 21
2.90500046E+02
  0
LINE
  8
0
 62
7
 10
-1.34999962E+02
 20
2.71500015E+02
 11
-1.34999962E+02
 21
2.89500015E+02
  0
LINE
  8
0
 62
7
 10
-1.63999992E+02
 20
2.73000046E+02
 11
-1.63999992E+02
 21
2.87999847E+02
  0
LINE
  8
0
 62
7
 10
-1.62499962E+02
 20
2.71500015E+02
 11
-1.62499962E+02
 21
2.89500015E+02
  0
LINE
  8
0
 62
7
 10
-1.62499931E+02
 20
2.89500015E+02
 11
-1.55000084E+02
 21
2.89500015E+02
  0
LINE
  8
0
 62
2
 10
-1.63319939E+02
 20
2.88680008E+02
 11
-1.55000084E+02
 21
2.88680008E+02
  0
LINE
  8
0
 62
7
 10
-1.63999837E+02
 20
2.87999842E+02
 11
-1.62499805E+02
 21
2.89499829E+02
  0
LINE
  8
0
 62
7
 10
-1.62499931E+02
 20
2.71500031E+02
 11
-1.55000084E+02
 21
2.71500031E+02
  0
LINE
  8
0
 62
2
 10
-1.63319939E+02
 20
2.72320038E+02
 11
-1.55000084E+02
 21
2.72320038E+02
  0
LINE
  8
0
 62
7
 10
-1.64000032E+02
 20
2.73000153E+02
 11
-1.62499997E+02
 21
2.71500164E+02
  0
LINE
  8
0
 62
7
 10
-1.31999977E+02
 20
2.72000015E+02
 11
-1.31999977E+02
 21
2.89000015E+02
  0
LINE
  8
0
 62
7
 10
-1.31999977E+02
 20
2.72000015E+02
 11
-1.25000038E+02
 21
2.72000015E+02
  0
LINE
  8
0
 62
7
 10
-1.31999977E+02
 20
2.89000031E+02
 11
-1.25000038E+02
 21
2.89000031E+02
  0
LINE
  8
0
 62
7
 10
-1.25000103E+02
 20
2.72000096E+02
 11
-1.23500134E+02
 21
2.70500127E+02
  0
LINE
  8
0
 62
7
 10
-1.25000161E+02
 20
2.89000166E+02
 11
-1.23500137E+02
 21
2.90500189E+02
  0
LINE
  8
0
 62
7
 10
-1.34999962E+02
 20
2.88680008E+02
 11
-1.31999977E+02
 21
2.88680008E+02
  0
LINE
  8
0
 62
7
 10
-1.34999962E+02
 20
2.72320038E+02
 11
-1.31999977E+02
 21
2.72320038E+02
  0
ARC
  8
0
 62
7
 10
-7.62654800E+01
 20
3.18122498E+02
 40
2.50000000E+00
 50
8.23085878E+01
 51
1.73627166E+02
  0
ARC
  8
0
 62
7
 10
-9.57345963E+01
 20
3.18122498E+02
 40
2.50000000E+00
 50
6.37281240E+00
 51
9.76913896E+01
  0
ARC
  8
0
 62
7
 10
-7.37346115E+01
 20
3.18122498E+02
 40
2.50000000E+00
 50
0.00000000E+00
 51
8.23085741E+01
  0
ARC
  8
0
 62
7
 10
-9.82654800E+01
 20
3.18122498E+02
 40
2.50000000E+00
 50
9.76913759E+01
 51
1.79999951E+02
  0
ARC
  8
0
 62
7
 10
-6.20000687E+01
 20
2.68500000E+02
 40
5.00000000E+00
 50
0.00000000E+00
 51
1.79999964E+02
  0
ARC
  8
0
 62
7
 10
-6.20000687E+01
 20
2.68500000E+02
 40
5.00000000E+00
 50
1.79999977E+02
 51
1.00179127E-05
  0
CIRCLE
  8
0
 62
7
 10
-6.20000687E+01
 20
2.68500000E+02
 40
2.59999990E+00
  0
ARC
  8
0
 62
7
 10
-1.16000008E+02
 20
2.63000000E+02
 40
1.00000000E+00
 50
1.79999977E+02
 51
2.70000028E+02
  0
ARC
  8
0
 62
7
 10
-1.16000008E+02
 20
2.98000000E+02
 40
1.00000000E+00
 50
8.99999274E+01
 51
1.79999964E+02
  0
CIRCLE
  8
0
 62
7
 10
-8.60000992E+01
 20
2.88499985E+02
 40
7.44000006E+00
  0
ARC
  8
0
 62
7
 10
8.34999619E+01
 20
2.44049927E+02
 40
5.00000000E-01
 50
2.71000258E+02
 51
3.59999993E+02
  0
CIRCLE
  8
0
 62
2
 10
-8.60000992E+01
 20
2.88499985E+02
 40
8.32999992E+00
  0
CIRCLE
  8
0
 62
7
 10
6.60000000E+01
 20
2.88499985E+02
 40
7.44000006E+00
  0
ARC
  8
0
 62
7
 10
8.34999619E+01
 20
3.16950073E+02
 40
5.00000000E-01
 50
5.46415133E-05
 51
8.89997895E+01
  0
ARC
  8
0
 62
7
 10
8.54999695E+01
 20
2.99000000E+02
 40
5.00000000E-01
 50
5.46415133E-05
 51
9.00000369E+01
  0
ARC
  8
0
 62
7
 10
8.54999695E+01
 20
2.62000000E+02
 40
5.00000000E-01
 50
2.70000073E+02
 51
5.46415133E-05
  0
CIRCLE
  8
0
 62
2
 10
6.60000000E+01
 20
2.88499985E+02
 40
8.32999992E+00
  0
ARC
  8
0
 62
7
 10
5.90000305E+01
 20
2.68500000E+02
 40
5.00000000E+00
 50
0.00000000E+00
 51
1.79999964E+02
  0
ARC
  8
0
 62
7
 10
5.90000305E+01
 20
2.68500000E+02
 40
5.00000000E+00
 50
1.79999977E+02
 51
1.00179127E-05
  0
CIRCLE
  8
0
 62
7
 10
5.90000305E+01
 20
2.68500000E+02
 40
2.59999990E+00
  0
ARC
  8
0
 62
4
 10
-1.63496477E+02
 20
2.73750000E+02
 40
1.94963929E+01
 50
3.39743842E+02
 51
2.02561580E+01
  0
ARC
  8
0
 62
4
 10
-1.63496477E+02
 20
2.87250000E+02
 40
1.94963929E+01
 50
3.39743842E+02
 51
2.02561580E+01
  0
ARC
  8
0
 62
4
 10
-1.35503691E+02
 20
2.87250000E+02
 40
1.94963929E+01
 50
1.59743842E+02
 51
2.00256158E+02
  0
ARC
  8
0
 62
4
 10
-1.35503691E+02
 20
2.73750000E+02
 40
1.94963929E+01
 50
1.59743842E+02
 51
2.00256158E+02
  0
LINE
  8
0
 62
4
 10
-1.45205855E+02
 20
2.80500000E+02
 11
-1.53794313E+02
 21
2.80500000E+02
  0
LINE
  8
0
 62
4
 10
-1.44000084E+02
 20
2.67000000E+02
 11
-1.55000084E+02
 21
2.67000000E+02
  0
LINE
  8
0
 62
4
 10
-1.44000084E+02
 20
2.94000000E+02
 11
-1.55000084E+02
 21
2.94000000E+02
  0
LINE
  8
0
 62
4
 10
-1.55000084E+02
 20
2.94000000E+02
 11
-1.55000084E+02
 21
2.67000000E+02
  0
LINE
  8
0
 62
4
 10
-1.44000084E+02
 20
2.94000000E+02
 11
-1.44000084E+02
 21
2.67000000E+02
  0
LINE
  8
0
 62
7
 10
-1.44000084E+02
 20
2.89500015E+02
 11
-1.34999962E+02
 21
2.89500015E+02
  0
LINE
  8
0
 62
2
 10
-1.44000084E+02
 20
2.88680008E+02
 11
-1.34999962E+02
 21
2.88680008E+02
  0
LINE
  8
0
 62
7
 10
-1.44000084E+02
 20
2.71500031E+02
 11
-1.34999962E+02
 21
2.71500031E+02
  0
LINE
  8
0
 62
2
 10
-1.44000084E+02
 20
2.72320038E+02
 11
-1.34999962E+02
 21
2.72320038E+02
  0
LINE
  8
0
 62
6
 10
6.73199743E+00
 20
2.70928690E+02
 11
3.26789581E+00
 21
2.64928690E+02
  0
LINE
  8
0
 62
4
 10
1.49999466E+01
 20
2.69428690E+02
 11
5.86597199E+00
 21
2.69428690E+02
  0
LINE
  8
0
  6
CENTER
 62
6
 10
4.99999466E+01
 20
2.67928690E+02
 11
2.99994659E+00
 21
2.67928690E+02
  0
LINE
  8
0
 62
4
 10
1.49999466E+01
 20
2.66428690E+02
 11
4.13392119E+00
 21
2.66428690E+02
  0
LINE
  8
0
 62
6
 10
-5.73208898E+00
 20
2.90071310E+02
 11
-2.26798737E+00
 21
2.96071310E+02
  0
LINE
  8
0
 62
4
 10
-1.40000381E+01
 20
2.91571310E+02
 11
-4.86606354E+00
 21
2.91571310E+02
  0
LINE
  8
0
  6
CENTER
 62
6
 10
-4.90000381E+01
 20
2.93071310E+02
 11
-2.00003815E+00
 21
2.93071310E+02
  0
LINE
  8
0
 62
4
 10
-1.40000381E+01
 20
2.94571310E+02
 11
-3.13401274E+00
 21
2.94571310E+02
  0
LINE
  8
0
 62
4
 10
2.44999466E+01
 20
2.42392203E+02
 11
2.44999466E+01
 21
2.43232122E+02
  0
LINE
  8
0
 62
4
 10
2.84999466E+01
 20
2.42392203E+02
 11
2.84999466E+01
 21
2.43232122E+02
  0
LINE
  8
0
 62
6
 10
2.49999466E+01
 20
2.41983412E+02
 11
2.49999466E+01
 21
2.43232122E+02
  0
LINE
  8
0
 62
6
 10
2.79999466E+01
 20
2.41983412E+02
 11
2.79999466E+01
 21
2.43232122E+02
  0
LINE
  8
0
  6
CENTER
 62
6
 10
3.74999466E+01
 20
2.64544849E+02
 11
3.74999466E+01
 21
2.69544849E+02
  0
LINE
  8
0
  6
CENTER
 62
6
 10
2.64999466E+01
 20
2.37834391E+02
 11
2.64999466E+01
 21
2.48099969E+02
  0
LINE
  8
0
  6
CENTER
 62
6
 10
1.84999466E+01
 20
2.37834391E+02
 11
1.84999466E+01
 21
2.48099969E+02
  0
LINE
  8
0
 62
4
 10
4.49999466E+01
 20
2.55858390E+02
 11
4.49999466E+01
 21
2.68868049E+02
  0
LINE
  8
0
 62
4
 10
1.49999466E+01
 20
2.43232122E+02
 11
1.49999466E+01
 21
2.70598544E+02
  0
LINE
  8
0
 62
4
 10
2.99999466E+01
 20
2.43232122E+02
 11
2.99999466E+01
 21
2.55858390E+02
  0
LINE
  8
0
 62
4
 10
4.64999466E+01
 20
2.66500052E+02
 11
4.64999466E+01
 21
2.69354118E+02
  0
LINE
  8
0
 62
4
 10
2.99999466E+01
 20
2.43232122E+02
 11
1.49999466E+01
 21
2.43232122E+02
  0
LINE
  8
0
 62
4
 10
2.99999466E+01
 20
2.51578636E+02
 11
1.49999466E+01
 21
2.51578636E+02
  0
LINE
  8
0
 62
4
 10
4.49999466E+01
 20
2.55858390E+02
 11
1.49999466E+01
 21
2.55858390E+02
  0
LINE
  8
0
 62
4
 10
4.49999466E+01
 20
2.65654273E+02
 11
1.49999466E+01
 21
2.65654273E+02
  0
LINE
  8
0
 62
4
 10
4.49999466E+01
 20
2.70598544E+02
 11
3.39017142E+01
 21
2.70598544E+02
  0
POLYLINE
  8
0
 62
4
 66
1
  0
VERTEX
  8
0
 62
4
 10
2.44999466E+01
 20
2.42392203E+02
  0
VERTEX
  8
0
 62
4
 10
2.45079980E+01
 20
2.42336803E+02
  0
VERTEX
  8
0
 62
4
 10
2.45320874E+01
 20
2.42281849E+02
  0
VERTEX
  8
0
 62
4
 10
2.45720209E+01
 20
2.42227783E+02
  0
VERTEX
  8
0
 62
4
 10
2.46274769E+01
 20
2.42175041E+02
  0
VERTEX
  8
0
 62
4
 10
2.46980089E+01
 20
2.42124048E+02
  0
VERTEX
  8
0
 62
4
 10
2.47830490E+01
 20
2.42075214E+02
  0
VERTEX
  8
0
 62
4
 10
2.48819126E+01
 20
2.42028932E+02
  0
VERTEX
  8
0
 62
4
 10
2.49938037E+01
 20
2.41985575E+02
  0
VERTEX
  8
0
 62
4
 10
2.51178213E+01
 20
2.41945491E+02
  0
VERTEX
  8
0
 62
4
 10
2.52529670E+01
 20
2.41909005E+02
  0
VERTEX
  8
0
 62
4
 10
2.53981526E+01
 20
2.41876408E+02
  0
VERTEX
  8
0
 62
4
 10
2.55522093E+01
 20
2.41847965E+02
  0
VERTEX
  8
0
 62
4
 10
2.57138965E+01
 20
2.41823904E+02
  0
VERTEX
  8
0
 62
4
 10
2.58819126E+01
 20
2.41804418E+02
  0
VERTEX
  8
0
 62
4
 10
2.60549047E+01
 20
2.41789664E+02
  0
VERTEX
  8
0
 62
4
 10
2.62314801E+01
 20
2.41779762E+02
  0
VERTEX
  8
0
 62
4
 10
2.64102169E+01
 20
2.41774791E+02
  0
VERTEX
  8
0
 62
4
 10
2.65896762E+01
 20
2.41774791E+02
  0
VERTEX
  8
0
 62
4
 10
2.67684131E+01
 20
2.41779762E+02
  0
VERTEX
  8
0
 62
4
 10
2.69449885E+01
 20
2.41789664E+02
  0
VERTEX
  8
0
 62
4
 10
2.71179806E+01
 20
2.41804418E+02
  0
VERTEX
  8
0
 62
4
 10
2.72859967E+01
 20
2.41823904E+02
  0
VERTEX
  8
0
 62
4
 10
2.74476839E+01
 20
2.41847965E+02
  0
VERTEX
  8
0
 62
4
 10
2.76017406E+01
 20
2.41876408E+02
  0
VERTEX
  8
0
 62
4
 10
2.77469262E+01
 20
2.41909005E+02
  0
VERTEX
  8
0
 62
4
 10
2.78820719E+01
 20
2.41945491E+02
  0
VERTEX
  8
0
 62
4
 10
2.80060895E+01
 20
2.41985575E+02
  0
VERTEX
  8
0
 62
4
 10
2.81179806E+01
 20
2.42028932E+02
  0
VERTEX
  8
0
 62
4
 10
2.82168442E+01
 20
2.42075214E+02
  0
VERTEX
  8
0
 62
4
 10
2.83018843E+01
 20
2.42124048E+02
  0
VERTEX
  8
0
 62
4
 10
2.83724163E+01
 20
2.42175041E+02
  0
VERTEX
  8
0
 62
4
 10
2.84278723E+01
 20
2.42227783E+02
  0
VERTEX
  8
0
 62
4
 10
2.84678058E+01
 20
2.42281849E+02
  0
VERTEX
  8
0
 62
4
 10
2.84918952E+01
 20
2.42336803E+02
  0
VERTEX
  8
0
 62
4
 10
2.84999466E+01
 20
2.42392203E+02
  0
SEQEND
  8
0
  0
LINE
  8
0
 62
4
 10
1.64999466E+01
 20
2.42392203E+02
 11
1.64999466E+01
 21
2.43232122E+02
  0
LINE
  8
0
 62
6
 10
1.69999466E+01
 20
2.41983412E+02
 11
1.69999466E+01
 21
2.43232122E+02
  0
POLYLINE
  8
0
 62
4
 66
1
  0
VERTEX
  8
0
 62
4
 10
1.64999466E+01
 20
2.42392203E+02
  0
VERTEX
  8
0
 62
4
 10
1.65079980E+01
 20
2.42336803E+02
  0
VERTEX
  8
0
 62
4
 10
1.65320874E+01
 20
2.42281849E+02
  0
VERTEX
  8
0
 62
4
 10
1.65720209E+01
 20
2.42227783E+02
  0
VERTEX
  8
0
 62
4
 10
1.66274769E+01
 20
2.42175041E+02
  0
VERTEX
  8
0
 62
4
 10
1.66980089E+01
 20
2.42124048E+02
  0
VERTEX
  8
0
 62
4
 10
1.67830490E+01
 20
2.42075214E+02
  0
VERTEX
  8
0
 62
4
 10
1.68819126E+01
 20
2.42028932E+02
  0
VERTEX
  8
0
 62
4
 10
1.69938037E+01
 20
2.41985575E+02
  0
VERTEX
  8
0
 62
4
 10
1.71178213E+01
 20
2.41945491E+02
  0
VERTEX
  8
0
 62
4
 10
1.72529670E+01
 20
2.41909005E+02
  0
VERTEX
  8
0
 62
4
 10
1.73981526E+01
 20
2.41876408E+02
  0
VERTEX
  8
0
 62
4
 10
1.75522093E+01
 20
2.41847965E+02
  0
VERTEX
  8
0
 62
4
 10
1.77138965E+01
 20
2.41823904E+02
  0
VERTEX
  8
0
 62
4
 10
1.78819126E+01
 20
2.41804418E+02
  0
VERTEX
  8
0
 62
4
 10
1.80549047E+01
 20
2.41789664E+02
  0
VERTEX
  8
0
 62
4
 10
1.82314801E+01
 20
2.41779762E+02
  0
VERTEX
  8
0
 62
4
 10
1.84102169E+01
 20
2.41774791E+02
  0
VERTEX
  8
0
 62
4
 10
1.85896762E+01
 20
2.41774791E+02
  0
VERTEX
  8
0
 62
4
 10
1.87684131E+01
 20
2.41779762E+02
  0
VERTEX
  8
0
 62
4
 10
1.89449885E+01
 20
2.41789664E+02
  0
VERTEX
  8
0
 62
4
 10
1.91179806E+01
 20
2.41804418E+02
  0
VERTEX
  8
0
 62
4
 10
1.92859967E+01
 20
2.41823904E+02
  0
VERTEX
  8
0
 62
4
 10
1.94476839E+01
 20
2.41847965E+02
  0
VERTEX
  8
0
 62
4
 10
1.96017406E+01
 20
2.41876408E+02
  0
VERTEX
  8
0
 62
4
 10
1.97469262E+01
 20
2.41909005E+02
  0
VERTEX
  8
0
 62
4
 10
1.98820719E+01
 20
2.41945491E+02
  0
VERTEX
  8
0
 62
4
 10
2.00060895E+01
 20
2.41985575E+02
  0
VERTEX
  8
0
 62
4
 10
2.01179806E+01
 20
2.42028932E+02
  0
VERTEX
  8
0
 62
4
 10
2.02168442E+01
 20
2.42075214E+02
  0
VERTEX
  8
0
 62
4
 10
2.03018843E+01
 20
2.42124048E+02
  0
VERTEX
  8
0
 62
4
 10
2.03724163E+01
 20
2.42175041E+02
  0
VERTEX
  8
0
 62
4
 10
2.04278723E+01
 20
2.42227783E+02
  0
VERTEX
  8
0
 62
4
 10
2.04678058E+01
 20
2.42281849E+02
  0
VERTEX
  8
0
 62
4
 10
2.04918952E+01
 20
2.42336803E+02
  0
VERTEX
  8
0
 62
4
 10
2.04999466E+01
 20
2.42392203E+02
  0
SEQEND
  8
0
  0
LINE
  8
0
 62
4
 10
2.04999466E+01
 20
2.42392203E+02
 11
2.04999466E+01
 21
2.43232122E+02
  0
LINE
  8
0
 62
6
 10
1.99999466E+01
 20
2.41983412E+02
 11
1.99999466E+01
 21
2.43232122E+02
  0
LINE
  8
0
 62
4
 10
4.49999466E+01
 20
2.65408543E+02
 11
4.64999466E+01
 21
2.66500052E+02
  0
LINE
  8
0
 62
4
 10
4.64999466E+01
 20
2.68654195E+02
 11
4.49999466E+01
 21
2.69212769E+02
  0
LINE
  8
0
 62
4
 10
4.49999466E+01
 20
2.70448837E+02
 11
4.64999466E+01
 21
2.69354118E+02
  0
LINE
  8
0
 62
4
 10
4.49999466E+01
 20
2.68868049E+02
 11
3.41499466E+01
 21
2.68868049E+02
  0
LINE
  8
0
 62
4
 10
1.94343485E+01
 20
2.70289527E+02
 11
1.49999466E+01
 21
2.70289527E+02
  0
LINE
  8
0
 62
4
 10
4.49999466E+01
 20
2.69212769E+02
 11
3.41499466E+01
 21
2.69212769E+02
  0
LINE
  8
0
 62
4
 10
4.49999466E+01
 20
2.70448837E+02
 11
3.40445619E+01
 21
2.70448837E+02
  0
LINE
  8
0
 62
4
 10
4.49999466E+01
 20
2.68868049E+02
 11
4.49999466E+01
 21
2.70448837E+02
  0
LINE
  8
0
 62
4
 10
4.49999466E+01
 20
2.70448837E+02
 11
4.49999466E+01
 21
2.70598544E+02
  0
ARC
  8
0
 62
4
 10
2.48999469E+01
 20
2.69543217E+02
 40
1.00000000E+00
 50
3.60000000E+02
 51
7.71724899E+01
  0
ARC
  8
0
 62
4
 10
2.00999463E+01
 20
2.69543217E+02
 40
1.00000000E+00
 50
1.02827510E+02
 51
1.80000000E+02
  0
ARC
  8
0
 62
4
 10
2.24999466E+01
 20
2.59003003E+02
 40
1.18100000E+01
 50
7.71724899E+01
 51
1.02827510E+02
  0
LINE
  8
0
 62
4
 10
3.41499466E+01
 20
2.70161669E+02
 11
3.41499466E+01
 21
2.68487810E+02
  0
LINE
  8
0
 62
4
 10
2.58499466E+01
 20
2.70161669E+02
 11
2.58499466E+01
 21
2.69855468E+02
  0
POLYLINE
  8
0
 62
4
 66
1
  0
VERTEX
  8
0
 62
4
 10
2.62999466E+01
 20
2.67907014E+02
  0
VERTEX
  8
0
 62
4
 10
2.64817616E+01
 20
2.67807630E+02
  0
VERTEX
  8
0
 62
4
 10
2.66914588E+01
 20
2.67713637E+02
  0
VERTEX
  8
0
 62
4
 10
2.69273765E+01
 20
2.67625779E+02
  0
VERTEX
  8
0
 62
4
 10
2.71876448E+01
 20
2.67544753E+02
  0
VERTEX
  8
0
 62
4
 10
2.74702011E+01
 20
2.67471201E+02
  0
VERTEX
  8
0
 62
4
 10
2.77728062E+01
 20
2.67405706E+02
  0
VERTEX
  8
0
 62
4
 10
2.80930617E+01
 20
2.67348786E+02
  0
VERTEX
  8
0
 62
4
 10
2.84284297E+01
 20
2.67300894E+02
  0
VERTEX
  8
0
 62
4
 10
2.87762522E+01
 20
2.67262408E+02
  0
VERTEX
  8
0
 62
4
 10
2.91337728E+01
 20
2.67233633E+02
  0
VERTEX
  8
0
 62
4
 10
2.94981579E+01
 20
2.67214798E+02
  0
VERTEX
  8
0
 62
4
 10
2.98665198E+01
 20
2.67206052E+02
  0
VERTEX
  8
0
 62
4
 10
3.02359391E+01
 20
2.67207465E+02
  0
VERTEX
  8
0
 62
4
 10
3.06034882E+01
 20
2.67219024E+02
  0
VERTEX
  8
0
 62
4
 10
3.09662540E+01
 20
2.67240638E+02
  0
VERTEX
  8
0
 62
4
 10
3.13213617E+01
 20
2.67272137E+02
  0
VERTEX
  8
0
 62
4
 10
3.16659970E+01
 20
2.67313270E+02
  0
VERTEX
  8
0
 62
4
 10
3.19974284E+01
 20
2.67363711E+02
  0
VERTEX
  8
0
 62
4
 10
3.23130295E+01
 20
2.67423062E+02
  0
VERTEX
  8
0
 62
4
 10
3.26102989E+01
 20
2.67490850E+02
  0
VERTEX
  8
0
 62
4
 10
3.28868809E+01
 20
2.67566540E+02
  0
VERTEX
  8
0
 62
4
 10
3.31405833E+01
 20
2.67649531E+02
  0
VERTEX
  8
0
 62
4
 10
3.33693956E+01
 20
2.67739165E+02
  0
VERTEX
  8
0
 62
4
 10
3.35715044E+01
 20
2.67834732E+02
  0
VERTEX
  8
0
 62
4
 10
3.37453079E+01
 20
2.67935476E+02
  0
VERTEX
  8
0
 62
4
 10
3.38894287E+01
 20
2.68040596E+02
  0
VERTEX
  8
0
 62
4
 10
3.40027247E+01
 20
2.68149261E+02
  0
VERTEX
  8
0
 62
4
 10
3.40842979E+01
 20
2.68260609E+02
  0
VERTEX
  8
0
 62
4
 10
3.41335018E+01
 20
2.68373758E+02
  0
VERTEX
  8
0
 62
4
 10
3.41499466E+01
 20
2.68487810E+02
  0
SEQEND
  8
0
  0
POLYLINE
  8
0
 62
4
 66
1
  0
VERTEX
  8
0
 62
4
 10
3.41499466E+01
 20
2.70161669E+02
  0
VERTEX
  8
0
 62
4
 10
3.41341546E+01
 20
2.70273439E+02
  0
VERTEX
  8
0
 62
4
 10
3.40868988E+01
 20
2.70384359E+02
  0
VERTEX
  8
0
 62
4
 10
3.40085388E+01
 20
2.70493584E+02
  0
VERTEX
  8
0
 62
4
 10
3.38996710E+01
 20
2.70600283E+02
  0
VERTEX
  8
0
 62
4
 10
3.37611239E+01
 20
2.70703643E+02
  0
VERTEX
  8
0
 62
4
 10
3.35939520E+01
 20
2.70802879E+02
  0
VERTEX
  8
0
 62
4
 10
3.33994276E+01
 20
2.70897235E+02
  0
VERTEX
  8
0
 62
4
 10
3.31790310E+01
 20
2.70985993E+02
  0
VERTEX
  8
0
 62
4
 10
3.29344397E+01
 20
2.71068477E+02
  0
VERTEX
  8
0
 62
4
 10
3.26675152E+01
 20
2.71144060E+02
  0
VERTEX
  8
0
 62
4
 10
3.23802888E+01
 20
2.71212166E+02
  0
VERTEX
  8
0
 62
4
 10
3.20749466E+01
 20
2.71272278E+02
  0
VERTEX
  8
0
 62
4
 10
3.17538124E+01
 20
2.71323937E+02
  0
VERTEX
  8
0
 62
4
 10
3.14193302E+01
 20
2.71366750E+02
  0
VERTEX
  8
0
 62
4
 10
3.10740456E+01
 20
2.71400392E+02
  0
VERTEX
  8
0
 62
4
 10
3.07205865E+01
 20
2.71424607E+02
  0
VERTEX
  8
0
 62
4
 10
3.03616429E+01
 20
2.71439210E+02
  0
VERTEX
  8
0
 62
4
 10
2.99999466E+01
 20
2.71444090E+02
  0
VERTEX
  8
0
 62
4
 10
2.96382503E+01
 20
2.71439210E+02
  0
VERTEX
  8
0
 62
4
 10
2.92793067E+01
 20
2.71424607E+02
  0
VERTEX
  8
0
 62
4
 10
2.89258476E+01
 20
2.71400392E+02
  0
VERTEX
  8
0
 62
4
 10
2.85805630E+01
 20
2.71366750E+02
  0
VERTEX
  8
0
 62
4
 10
2.82460808E+01
 20
2.71323937E+02
  0
VERTEX
  8
0
 62
4
 10
2.79249466E+01
 20
2.71272278E+02
  0
VERTEX
  8
0
 62
4
 10
2.76196044E+01
 20
2.71212166E+02
  0
VERTEX
  8
0
 62
4
 10
2.73323780E+01
 20
2.71144060E+02
  0
VERTEX
  8
0
 62
4
 10
2.70654534E+01
 20
2.71068477E+02
  0
VERTEX
  8
0
 62
4
 10
2.68208622E+01
 20
2.70985993E+02
  0
VERTEX
  8
0
 62
4
 10
2.66004656E+01
 20
2.70897235E+02
  0
VERTEX
  8
0
 62
4
 10
2.64059412E+01
 20
2.70802879E+02
  0
VERTEX
  8
0
 62
4
 10
2.62387693E+01
 20
2.70703643E+02
  0
VERTEX
  8
0
 62
4
 10
2.61002222E+01
 20
2.70600283E+02
  0
VERTEX
  8
0
 62
4
 10
2.59913544E+01
 20
2.70493584E+02
  0
VERTEX
  8
0
 62
4
 10
2.59129944E+01
 20
2.70384359E+02
  0
VERTEX
  8
0
 62
4
 10
2.58657386E+01
 20
2.70273439E+02
  0
VERTEX
  8
0
 62
4
 10
2.58499466E+01
 20
2.70161669E+02
  0
VERTEX
  8
0
 62
4
 10
2.58657386E+01
 20
2.70049899E+02
  0
VERTEX
  8
0
 62
4
 10
2.59129944E+01
 20
2.69938979E+02
  0
VERTEX
  8
0
 62
4
 10
2.59913544E+01
 20
2.69829754E+02
  0
VERTEX
  8
0
 62
4
 10
2.61002222E+01
 20
2.69723055E+02
  0
VERTEX
  8
0
 62
4
 10
2.62387693E+01
 20
2.69619695E+02
  0
VERTEX
  8
0
 62
4
 10
2.64059412E+01
 20
2.69520459E+02
  0
VERTEX
  8
0
 62
4
 10
2.66004656E+01
 20
2.69426103E+02
  0
VERTEX
  8
0
 62
4
 10
2.68208622E+01
 20
2.69337345E+02
  0
VERTEX
  8
0
 62
4
 10
2.70654535E+01
 20
2.69254861E+02
  0
VERTEX
  8
0
 62
4
 10
2.73323780E+01
 20
2.69179278E+02
  0
VERTEX
  8
0
 62
4
 10
2.76196044E+01
 20
2.69111172E+02
  0
VERTEX
  8
0
 62
4
 10
2.79249466E+01
 20
2.69051060E+02
  0
VERTEX
  8
0
 62
4
 10
2.82460808E+01
 20
2.68999401E+02
  0
VERTEX
  8
0
 62
4
 10
2.85805630E+01
 20
2.68956588E+02
  0
VERTEX
  8
0
 62
4
 10
2.89258476E+01
 20
2.68922946E+02
  0
VERTEX
  8
0
 62
4
 10
2.92793067E+01
 20
2.68898731E+02
  0
VERTEX
  8
0
 62
4
 10
2.96382503E+01
 20
2.68884128E+02
  0
VERTEX
  8
0
 62
4
 10
2.99999466E+01
 20
2.68879249E+02
  0
VERTEX
  8
0
 62
4
 10
3.03616429E+01
 20
2.68884128E+02
  0
VERTEX
  8
0
 62
4
 10
3.07205865E+01
 20
2.68898731E+02
  0
VERTEX
  8
0
 62
4
 10
3.10740456E+01
 20
2.68922946E+02
  0
VERTEX
  8
0
 62
4
 10
3.14193302E+01
 20
2.68956588E+02
  0
VERTEX
  8
0
 62
4
 10
3.17538124E+01
 20
2.68999401E+02
  0
VERTEX
  8
0
 62
4
 10
3.20749466E+01
 20
2.69051060E+02
  0
VERTEX
  8
0
 62
4
 10
3.23802888E+01
 20
2.69111172E+02
  0
VERTEX
  8
0
 62
4
 10
3.26675152E+01
 20
2.69179278E+02
  0
VERTEX
  8
0
 62
4
 10
3.29344398E+01
 20
2.69254861E+02
  0
VERTEX
  8
0
 62
4
 10
3.31790311E+01
 20
2.69337345E+02
  0
VERTEX
  8
0
 62
4
 10
3.33994276E+01
 20
2.69426103E+02
  0
VERTEX
  8
0
 62
4
 10
3.35939520E+01
 20
2.69520459E+02
  0
VERTEX
  8
0
 62
4
 10
3.37611239E+01
 20
2.69619695E+02
  0
VERTEX
  8
0
 62
4
 10
3.38996710E+01
 20
2.69723055E+02
  0
VERTEX
  8
0
 62
4
 10
3.40085388E+01
 20
2.69829754E+02
  0
VERTEX
  8
0
 62
4
 10
3.40868988E+01
 20
2.69938979E+02
  0
VERTEX
  8
0
 62
4
 10
3.41341546E+01
 20
2.70049899E+02
  0
VERTEX
  8
0
 62
4
 10
3.41499466E+01
 20
2.70161669E+02
  0
SEQEND
  8
0
  0
LINE
  8
0
 62
4
 10
3.39999466E+01
 20
2.68146140E+02
 11
3.39999466E+01
 21
2.68126408E+02
  0
POLYLINE
  8
0
 62
4
 66
1
  0
VERTEX
  8
0
 62
4
 10
2.62999466E+01
 20
2.67656743E+02
  0
VERTEX
  8
0
 62
4
 10
2.64492546E+01
 20
2.67557230E+02
  0
VERTEX
  8
0
 62
4
 10
2.66265233E+01
 20
2.67462200E+02
  0
VERTEX
  8
0
 62
4
 10
2.68303567E+01
 20
2.67372400E+02
  0
VERTEX
  8
0
 62
4
 10
2.70591498E+01
 20
2.67288538E+02
  0
VERTEX
  8
0
 62
4
 10
2.73111008E+01
 20
2.67211274E+02
  0
VERTEX
  8
0
 62
4
 10
2.75842258E+01
 20
2.67141216E+02
  0
VERTEX
  8
0
 62
4
 10
2.78763739E+01
 20
2.67078916E+02
  0
VERTEX
  8
0
 62
4
 10
2.81852445E+01
 20
2.67024865E+02
  0
VERTEX
  8
0
 62
4
 10
2.85084054E+01
 20
2.66979488E+02
  0
VERTEX
  8
0
 62
4
 10
2.88433118E+01
 20
2.66943143E+02
  0
VERTEX
  8
0
 62
4
 10
2.91873264E+01
 20
2.66916116E+02
  0
VERTEX
  8
0
 62
4
 10
2.95377401E+01
 20
2.66898620E+02
  0
VERTEX
  8
0
 62
4
 10
2.98917935E+01
 20
2.66890792E+02
  0
VERTEX
  8
0
 62
4
 10
3.02466987E+01
 20
2.66892694E+02
  0
VERTEX
  8
0
 62
4
 10
3.05996607E+01
 20
2.66904311E+02
  0
VERTEX
  8
0
 62
4
 10
3.09479002E+01
 20
2.66925553E+02
  0
VERTEX
  8
0
 62
4
 10
3.12886747E+01
 20
2.66956250E+02
  0
VERTEX
  8
0
 62
4
 10
3.16193010E+01
 20
2.66996162E+02
  0
VERTEX
  8
0
 62
4
 10
3.19371752E+01
 20
2.67044975E+02
  0
VERTEX
  8
0
 62
4
 10
3.22397943E+01
 20
2.67102303E+02
  0
VERTEX
  8
0
 62
4
 10
3.25247752E+01
 20
2.67167696E+02
  0
VERTEX
  8
0
 62
4
 10
3.27898738E+01
 20
2.67240639E+02
  0
VERTEX
  8
0
 62
4
 10
3.30330025E+01
 20
2.67320556E+02
  0
VERTEX
  8
0
 62
4
 10
3.32522468E+01
 20
2.67406820E+02
  0
VERTEX
  8
0
 62
4
 10
3.34458800E+01
 20
2.67498750E+02
  0
VERTEX
  8
0
 62
4
 10
3.36123775E+01
 20
2.67595623E+02
  0
VERTEX
  8
0
 62
4
 10
3.37504282E+01
 20
2.67696676E+02
  0
VERTEX
  8
0
 62
4
 10
3.38589448E+01
 20
2.67801112E+02
  0
VERTEX
  8
0
 62
4
 10
3.39370729E+01
 20
2.67908111E+02
  0
VERTEX
  8
0
 62
4
 10
3.39841972E+01
 20
2.68016828E+02
  0
VERTEX
  8
0
 62
4
 10
3.39999466E+01
 20
2.68126408E+02
  0
SEQEND
  8
0
  0
ARC
  8
0
 62
4
 10
3.41875686E+01
 20
2.57173172E+02
 40
1.43299558E+01
 50
9.97219440E+01
 51
1.14556488E+02
  0
ARC
  8
0
 62
4
 10
2.58123231E+01
 20
2.57173167E+02
 40
1.43299613E+01
 50
6.54435144E+01
 51
8.02780535E+01
  0
LINE
  8
0
 62
4
 10
2.62999466E+01
 20
2.67995906E+02
 11
2.62999466E+01
 21
2.67044849E+02
  0
POLYLINE
  8
0
 62
4
 66
1
  0
VERTEX
  8
0
 62
4
 10
1.86999466E+01
 20
2.67044849E+02
  0
VERTEX
  8
0
 62
4
 10
1.87152443E+01
 20
2.66939589E+02
  0
VERTEX
  8
0
 62
4
 10
1.87610142E+01
 20
2.66835176E+02
  0
VERTEX
  8
0
 62
4
 10
1.88368877E+01
 20
2.66732451E+02
  0
VERTEX
  8
0
 62
4
 10
1.89422541E+01
 20
2.66632242E+02
  0
VERTEX
  8
0
 62
4
 10
1.90762649E+01
 20
2.66535355E+02
  0
VERTEX
  8
0
 62
4
 10
1.92378412E+01
 20
2.66442570E+02
  0
VERTEX
  8
0
 62
4
 10
1.94256820E+01
 20
2.66354634E+02
  0
VERTEX
  8
0
 62
4
 10
1.96382750E+01
 20
2.66272255E+02
  0
VERTEX
  8
0
 62
4
 10
1.98739085E+01
 20
2.66196097E+02
  0
VERTEX
  8
0
 62
4
 10
2.01306853E+01
 20
2.66126772E+02
  0
VERTEX
  8
0
 62
4
 10
2.04065381E+01
 20
2.66064839E+02
  0
VERTEX
  8
0
 62
4
 10
2.06992457E+01
 20
2.66010797E+02
  0
VERTEX
  8
0
 62
4
 10
2.10064515E+01
 20
2.65965080E+02
  0
VERTEX
  8
0
 62
4
 10
2.13256820E+01
 20
2.65928057E+02
  0
VERTEX
  8
0
 62
4
 10
2.16543670E+01
 20
2.65900026E+02
  0
VERTEX
  8
0
 62
4
 10
2.19898602E+01
 20
2.65881212E+02
  0
VERTEX
  8
0
 62
4
 10
2.23294602E+01
 20
2.65871767E+02
  0
VERTEX
  8
0
 62
4
 10
2.26704329E+01
 20
2.65871767E+02
  0
VERTEX
  8
0
 62
4
 10
2.30100330E+01
 20
2.65881212E+02
  0
VERTEX
  8
0
 62
4
 10
2.33455261E+01
 20
2.65900026E+02
  0
VERTEX
  8
0
 62
4
 10
2.36742112E+01
 20
2.65928057E+02
  0
VERTEX
  8
0
 62
4
 10
2.39934417E+01
 20
2.65965080E+02
  0
VERTEX
  8
0
 62
4
 10
2.43006475E+01
 20
2.66010797E+02
  0
VERTEX
  8
0
 62
4
 10
2.45933551E+01
 20
2.66064839E+02
  0
VERTEX
  8
0
 62
4
 10
2.48692078E+01
 20
2.66126772E+02
  0
VERTEX
  8
0
 62
4
 10
2.51259846E+01
 20
2.66196097E+02
  0
VERTEX
  8
0
 62
4
 10
2.53616182E+01
 20
2.66272255E+02
  0
VERTEX
  8
0
 62
4
 10
2.55742112E+01
 20
2.66354634E+02
  0
VERTEX
  8
0
 62
4
 10
2.57620520E+01
 20
2.66442570E+02
  0
VERTEX
  8
0
 62
4
 10
2.59236283E+01
 20
2.66535355E+02
  0
VERTEX
  8
0
 62
4
 10
2.60576391E+01
 20
2.66632242E+02
  0
VERTEX
  8
0
 62
4
 10
2.61630055E+01
 20
2.66732451E+02
  0
VERTEX
  8
0
 62
4
 10
2.62388790E+01
 20
2.66835176E+02
  0
VERTEX
  8
0
 62
4
 10
2.62846489E+01
 20
2.66939589E+02
  0
VERTEX
  8
0
 62
4
 10
2.62999466E+01
 20
2.67044849E+02
  0
SEQEND
  8
0
  0
POLYLINE
  8
0
 62
4
 66
1
  0
VERTEX
  8
0
 62
4
 10
1.90999466E+01
 20
2.68520325E+02
  0
VERTEX
  8
0
 62
4
 10
1.89633649E+01
 20
2.68425494E+02
  0
VERTEX
  8
0
 62
4
 10
1.88544171E+01
 20
2.68327306E+02
  0
VERTEX
  8
0
 62
4
 10
1.87739543E+01
 20
2.68226529E+02
  0
VERTEX
  8
0
 62
4
 10
1.87226053E+01
 20
2.68123950E+02
  0
VERTEX
  8
0
 62
4
 10
1.87007713E+01
 20
2.68020370E+02
  0
VERTEX
  8
0
 62
4
 10
1.87086230E+01
 20
2.67916599E+02
  0
VERTEX
  8
0
 62
4
 10
1.87460990E+01
 20
2.67813448E+02
  0
VERTEX
  8
0
 62
4
 10
1.88129064E+01
 20
2.67711722E+02
  0
VERTEX
  8
0
 62
4
 10
1.89085232E+01
 20
2.67612217E+02
  0
VERTEX
  8
0
 62
4
 10
1.90322024E+01
 20
2.67515710E+02
  0
VERTEX
  8
0
 62
4
 10
1.91829775E+01
 20
2.67422955E+02
  0
VERTEX
  8
0
 62
4
 10
1.93596704E+01
 20
2.67334677E+02
  0
VERTEX
  8
0
 62
4
 10
1.95609004E+01
 20
2.67251566E+02
  0
VERTEX
  8
0
 62
4
 10
1.97850954E+01
 20
2.67174270E+02
  0
VERTEX
  8
0
 62
4
 10
2.00305033E+01
 20
2.67103395E+02
  0
VERTEX
  8
0
 62
4
 10
2.02952068E+01
 20
2.67039494E+02
  0
VERTEX
  8
0
 62
4
 10
2.05771374E+01
 20
2.66983065E+02
  0
VERTEX
  8
0
 62
4
 10
2.08740923E+01
 20
2.66934551E+02
  0
VERTEX
  8
0
 62
4
 10
2.11837512E+01
 20
2.66894330E+02
  0
VERTEX
  8
0
 62
4
 10
2.15036944E+01
 20
2.66862716E+02
  0
VERTEX
  8
0
 62
4
 10
2.18314220E+01
 20
2.66839956E+02
  0
VERTEX
  8
0
 62
4
 10
2.21643733E+01
 20
2.66826229E+02
  0
VERTEX
  8
0
 62
4
 10
2.24999466E+01
 20
2.66821641E+02
  0
VERTEX
  8
0
 62
4
 10
2.28355200E+01
 20
2.66826229E+02
  0
VERTEX
  8
0
 62
4
 10
2.31684712E+01
 20
2.66839956E+02
  0
VERTEX
  8
0
 62
4
 10
2.34961989E+01
 20
2.66862716E+02
  0
VERTEX
  8
0
 62
4
 10
2.38161421E+01
 20
2.66894330E+02
  0
VERTEX
  8
0
 62
4
 10
2.41258009E+01
 20
2.66934551E+02
  0
VERTEX
  8
0
 62
4
 10
2.44227558E+01
 20
2.66983065E+02
  0
VERTEX
  8
0
 62
4
 10
2.47046865E+01
 20
2.67039494E+02
  0
VERTEX
  8
0
 62
4
 10
2.49693899E+01
 20
2.67103395E+02
  0
VERTEX
  8
0
 62
4
 10
2.52147979E+01
 20
2.67174270E+02
  0
VERTEX
  8
0
 62
4
 10
2.54389928E+01
 20
2.67251566E+02
  0
VERTEX
  8
0
 62
4
 10
2.56402229E+01
 20
2.67334677E+02
  0
VERTEX
  8
0
 62
4
 10
2.58169158E+01
 20
2.67422955E+02
  0
VERTEX
  8
0
 62
4
 10
2.59676908E+01
 20
2.67515710E+02
  0
VERTEX
  8
0
 62
4
 10
2.60913700E+01
 20
2.67612217E+02
  0
VERTEX
  8
0
 62
4
 10
2.61869868E+01
 20
2.67711722E+02
  0
VERTEX
  8
0
 62
4
 10
2.62537942E+01
 20
2.67813448E+02
  0
VERTEX
  8
0
 62
4
 10
2.62912702E+01
 20
2.67916599E+02
  0
VERTEX
  8
0
 62
4
 10
2.62991218E+01
 20
2.68020370E+02
  0
VERTEX
  8
0
 62
4
 10
2.62772879E+01
 20
2.68123950E+02
  0
VERTEX
  8
0
 62
4
 10
2.62259389E+01
 20
2.68226529E+02
  0
VERTEX
  8
0
 62
4
 10
2.61454761E+01
 20
2.68327306E+02
  0
VERTEX
  8
0
 62
4
 10
2.60365283E+01
 20
2.68425494E+02
  0
VERTEX
  8
0
 62
4
 10
2.58999466E+01
 20
2.68520325E+02
  0
SEQEND
  8
0
  0
LINE
  8
0
 62
4
 10
1.86999466E+01
 20
2.67995906E+02
 11
1.86999466E+01
 21
2.67044849E+02
  0
LINE
  8
0
 62
4
 10
2.58999466E+01
 20
2.69543217E+02
 11
2.58999466E+01
 21
2.67995906E+02
  0
POLYLINE
  8
0
 62
4
 66
1
  0
VERTEX
  8
0
 62
4
 10
1.90999466E+01
 20
2.67995906E+02
  0
VERTEX
  8
0
 62
4
 10
1.91136340E+01
 20
2.67901726E+02
  0
VERTEX
  8
0
 62
4
 10
1.91545860E+01
 20
2.67808304E+02
  0
VERTEX
  8
0
 62
4
 10
1.92224729E+01
 20
2.67716392E+02
  0
VERTEX
  8
0
 62
4
 10
1.93167480E+01
 20
2.67626731E+02
  0
VERTEX
  8
0
 62
4
 10
1.94366524E+01
 20
2.67540043E+02
  0
VERTEX
  8
0
 62
4
 10
1.95812207E+01
 20
2.67457024E+02
  0
VERTEX
  8
0
 62
4
 10
1.97492888E+01
 20
2.67378345E+02
  0
VERTEX
  8
0
 62
4
 10
1.99395036E+01
 20
2.67304638E+02
  0
VERTEX
  8
0
 62
4
 10
2.01503336E+01
 20
2.67236496E+02
  0
VERTEX
  8
0
 62
4
 10
2.03800813E+01
 20
2.67174469E+02
  0
VERTEX
  8
0
 62
4
 10
2.06268968E+01
 20
2.67119055E+02
  0
VERTEX
  8
0
 62
4
 10
2.08887931E+01
 20
2.67070701E+02
  0
VERTEX
  8
0
 62
4
 10
2.11636615E+01
 20
2.67029797E+02
  0
VERTEX
  8
0
 62
4
 10
2.14492888E+01
 20
2.66996671E+02
  0
VERTEX
  8
0
 62
4
 10
2.17433754E+01
 20
2.66971590E+02
  0
VERTEX
  8
0
 62
4
 10
2.20435535E+01
 20
2.66954757E+02
  0
VERTEX
  8
0
 62
4
 10
2.23474062E+01
 20
2.66946306E+02
  0
VERTEX
  8
0
 62
4
 10
2.26524870E+01
 20
2.66946306E+02
  0
VERTEX
  8
0
 62
4
 10
2.29563397E+01
 20
2.66954757E+02
  0
VERTEX
  8
0
 62
4
 10
2.32565178E+01
 20
2.66971590E+02
  0
VERTEX
  8
0
 62
4
 10
2.35506044E+01
 20
2.66996671E+02
  0
VERTEX
  8
0
 62
4
 10
2.38362317E+01
 20
2.67029797E+02
  0
VERTEX
  8
0
 62
4
 10
2.41111000E+01
 20
2.67070701E+02
  0
VERTEX
  8
0
 62
4
 10
2.43729963E+01
 20
2.67119055E+02
  0
VERTEX
  8
0
 62
4
 10
2.46198119E+01
 20
2.67174469E+02
  0
VERTEX
  8
0
 62
4
 10
2.48495596E+01
 20
2.67236496E+02
  0
VERTEX
  8
0
 62
4
 10
2.50603896E+01
 20
2.67304638E+02
  0
VERTEX
  8
0
 62
4
 10
2.52506044E+01
 20
2.67378345E+02
  0
VERTEX
  8
0
 62
4
 10
2.54186725E+01
 20
2.67457024E+02
  0
VERTEX
  8
0
 62
4
 10
2.55632407E+01
 20
2.67540043E+02
  0
VERTEX
  8
0
 62
4
 10
2.56831452E+01
 20
2.67626731E+02
  0
VERTEX
  8
0
 62
4
 10
2.57774203E+01
 20
2.67716392E+02
  0
VERTEX
  8
0
 62
4
 10
2.58453072E+01
 20
2.67808304E+02
  0
VERTEX
  8
0
 62
4
 10
2.58862592E+01
 20
2.67901726E+02
  0
VERTEX
  8
0
 62
4
 10
2.58999466E+01
 20
2.67995906E+02
  0
SEQEND
  8
0
  0
LINE
  8
0
 62
4
 10
1.90999466E+01
 20
2.69543217E+02
 11
1.90999466E+01
 21
2.67995906E+02
  0
POLYLINE
  8
0
 62
4
 66
1
  0
VERTEX
  8
0
 62
4
 10
1.90999466E+01
 20
2.69543211E+02
  0
VERTEX
  8
0
 62
4
 10
1.91136358E+01
 20
2.69449030E+02
  0
VERTEX
  8
0
 62
4
 10
1.91545896E+01
 20
2.69355609E+02
  0
VERTEX
  8
0
 62
4
 10
1.92224783E+01
 20
2.69263697E+02
  0
VERTEX
  8
0
 62
4
 10
1.93167552E+01
 20
2.69174036E+02
  0
VERTEX
  8
0
 62
4
 10
1.94366613E+01
 20
2.69087348E+02
  0
VERTEX
  8
0
 62
4
 10
1.95812312E+01
 20
2.69004330E+02
  0
VERTEX
  8
0
 62
4
 10
1.97493008E+01
 20
2.68925651E+02
  0
VERTEX
  8
0
 62
4
 10
1.99395170E+01
 20
2.68851944E+02
  0
VERTEX
  8
0
 62
4
 10
2.01503483E+01
 20
2.68783803E+02
  0
VERTEX
  8
0
 62
4
 10
2.03800972E+01
 20
2.68721776E+02
  0
VERTEX
  8
0
 62
4
 10
2.06269139E+01
 20
2.68666363E+02
  0
VERTEX
  8
0
 62
4
 10
2.08888111E+01
 20
2.68618009E+02
  0
VERTEX
  8
0
 62
4
 10
2.11636802E+01
 20
2.68577106E+02
  0
VERTEX
  8
0
 62
4
 10
2.14493082E+01
 20
2.68543980E+02
  0
VERTEX
  8
0
 62
4
 10
2.17433953E+01
 20
2.68518900E+02
  0
VERTEX
  8
0
 62
4
 10
2.20435737E+01
 20
2.68502067E+02
  0
VERTEX
  8
0
 62
4
 10
2.23474265E+01
 20
2.68493617E+02
  0
VERTEX
  8
0
 62
4
 10
2.26525074E+01
 20
2.68493617E+02
  0
VERTEX
  8
0
 62
4
 10
2.29563599E+01
 20
2.68502069E+02
  0
VERTEX
  8
0
 62
4
 10
2.32565376E+01
 20
2.68518903E+02
  0
VERTEX
  8
0
 62
4
 10
2.35506238E+01
 20
2.68543984E+02
  0
VERTEX
  8
0
 62
4
 10
2.38362504E+01
 20
2.68577110E+02
  0
VERTEX
  8
0
 62
4
 10
2.41111180E+01
 20
2.68618015E+02
  0
VERTEX
  8
0
 62
4
 10
2.43730133E+01
 20
2.68666370E+02
  0
VERTEX
  8
0
 62
4
 10
2.46198279E+01
 20
2.68721784E+02
  0
VERTEX
  8
0
 62
4
 10
2.48495743E+01
 20
2.68783811E+02
  0
VERTEX
  8
0
 62
4
 10
2.50604030E+01
 20
2.68851953E+02
  0
VERTEX
  8
0
 62
4
 10
2.52506164E+01
 20
2.68925661E+02
  0
VERTEX
  8
0
 62
4
 10
2.54186829E+01
 20
2.69004341E+02
  0
VERTEX
  8
0
 62
4
 10
2.55632496E+01
 20
2.69087359E+02
  0
VERTEX
  8
0
 62
4
 10
2.56831523E+01
 20
2.69174048E+02
  0
VERTEX
  8
0
 62
4
 10
2.57774257E+01
 20
2.69263709E+02
  0
VERTEX
  8
0
 62
4
 10
2.58453108E+01
 20
2.69355621E+02
  0
VERTEX
  8
0
 62
4
 10
2.58862610E+01
 20
2.69449043E+02
  0
VERTEX
  8
0
 62
4
 10
2.58999466E+01
 20
2.69543223E+02
  0
SEQEND
  8
0
  0
ARC
  8
0
 62
4
 10
2.66604465E+01
 20
2.56688800E+02
 40
1.42127873E+01
 50
9.99307184E+01
 51
1.14652136E+02
  0
ARC
  8
0
 62
4
 10
1.83394464E+01
 20
2.56688799E+02
 40
1.42127883E+01
 50
6.53478648E+01
 51
8.00692808E+01
  0
LINE
  8
0
  6
CENTER
 62
6
 10
3.99999466E+01
 20
2.67044849E+02
 11
3.49999466E+01
 21
2.67044849E+02
  0
LINE
  8
0
  6
CENTER
 62
6
 10
2.99999466E+01
 20
2.65626408E+02
 11
2.99999466E+01
 21
2.70626408E+02
  0
LINE
  8
0
  6
CENTER
 62
6
 10
3.24999466E+01
 20
2.68126408E+02
 11
2.74999466E+01
 21
2.68126408E+02
  0
LINE
  8
0
  6
CENTER
 62
6
 10
2.24999466E+01
 20
2.64544849E+02
 11
2.24999466E+01
 21
2.69544849E+02
  0
LINE
  8
0
  6
CENTER
 62
6
 10
2.49999466E+01
 20
2.67044849E+02
 11
1.99999466E+01
 21
2.67044849E+02
  0
LINE
  8
0
 62
4
 10
2.60981790E+01
 20
2.70598544E+02
 11
2.47403769E+01
 21
2.70598544E+02
  0
LINE
  8
0
 62
4
 10
2.59553313E+01
 20
2.70448837E+02
 11
2.53240365E+01
 21
2.70448837E+02
  0
LINE
  8
0
 62
4
 10
1.90999466E+01
 20
2.68868049E+02
 11
1.49999466E+01
 21
2.68868049E+02
  0
LINE
  8
0
 62
4
 10
2.02595163E+01
 20
2.70598544E+02
 11
1.49999466E+01
 21
2.70598544E+02
  0
LINE
  8
0
 62
4
 10
-2.35000381E+01
 20
3.18607797E+02
 11
-2.35000381E+01
 21
3.17767878E+02
  0
LINE
  8
0
 62
4
 10
-2.75000381E+01
 20
3.18607797E+02
 11
-2.75000381E+01
 21
3.17767878E+02
  0
LINE
  8
0
 62
6
 10
-2.40000381E+01
 20
3.19016588E+02
 11
-2.40000381E+01
 21
3.17767878E+02
  0
LINE
  8
0
 62
6
 10
-2.70000381E+01
 20
3.19016588E+02
 11
-2.70000381E+01
 21
3.17767878E+02
  0
LINE
  8
0
  6
CENTER
 62
6
 10
-3.65000381E+01
 20
2.96455151E+02
 11
-3.65000381E+01
 21
2.91455151E+02
  0
LINE
  8
0
  6
CENTER
 62
6
 10
-2.55000381E+01
 20
3.23165609E+02
 11
-2.55000381E+01
 21
3.12900031E+02
  0
LINE
  8
0
  6
CENTER
 62
6
 10
-1.75000381E+01
 20
3.23165609E+02
 11
-1.75000381E+01
 21
3.12900031E+02
  0
LINE
  8
0
 62
4
 10
-4.40000381E+01
 20
3.05141610E+02
 11
-4.40000381E+01
 21
2.92131951E+02
  0
LINE
  8
0
 62
4
 10
-1.40000381E+01
 20
3.17767878E+02
 11
-1.40000381E+01
 21
2.90401456E+02
  0
LINE
  8
0
 62
4
 10
-2.90000381E+01
 20
3.17767878E+02
 11
-2.90000381E+01
 21
3.05141610E+02
  0
LINE
  8
0
 62
4
 10
-4.55000381E+01
 20
2.94499948E+02
 11
-4.55000381E+01
 21
2.91645882E+02
  0
LINE
  8
0
 62
4
 10
-2.90000381E+01
 20
3.17767878E+02
 11
-1.40000381E+01
 21
3.17767878E+02
  0
LINE
  8
0
 62
4
 10
-2.90000381E+01
 20
3.09421364E+02
 11
-1.40000381E+01
 21
3.09421364E+02
  0
LINE
  8
0
 62
4
 10
-4.40000382E+01
 20
3.05141610E+02
 11
-1.40000381E+01
 21
3.05141610E+02
  0
LINE
  8
0
 62
4
 10
-4.40000382E+01
 20
2.95345727E+02
 11
-1.40000381E+01
 21
2.95345727E+02
  0
LINE
  8
0
 62
4
 10
-4.40000382E+01
 20
2.90401456E+02
 11
-3.29018057E+01
 21
2.90401456E+02
  0
POLYLINE
  8
0
 62
4
 66
1
  0
VERTEX
  8
0
 62
4
 10
-2.35000381E+01
 20
3.18607797E+02
  0
VERTEX
  8
0
 62
4
 10
-2.35080895E+01
 20
3.18663197E+02
  0
VERTEX
  8
0
 62
4
 10
-2.35321789E+01
 20
3.18718151E+02
  0
VERTEX
  8
0
 62
4
 10
-2.35721124E+01
 20
3.18772217E+02
  0
VERTEX
  8
0
 62
4
 10
-2.36275684E+01
 20
3.18824959E+02
  0
VERTEX
  8
0
 62
4
 10
-2.36981004E+01
 20
3.18875952E+02
  0
VERTEX
  8
0
 62
4
 10
-2.37831405E+01
 20
3.18924786E+02
  0
VERTEX
  8
0
 62
4
 10
-2.38820041E+01
 20
3.18971068E+02
  0
VERTEX
  8
0
 62
4
 10
-2.39938952E+01
 20
3.19014425E+02
  0
VERTEX
  8
0
 62
4
 10
-2.41179128E+01
 20
3.19054509E+02
  0
VERTEX
  8
0
 62
4
 10
-2.42530585E+01
 20
3.19090995E+02
  0
VERTEX
  8
0
 62
4
 10
-2.43982441E+01
 20
3.19123592E+02
  0
VERTEX
  8
0
 62
4
 10
-2.45523008E+01
 20
3.19152035E+02
  0
VERTEX
  8
0
 62
4
 10
-2.47139880E+01
 20
3.19176096E+02
  0
VERTEX
  8
0
 62
4
 10
-2.48820041E+01
 20
3.19195582E+02
  0
VERTEX
  8
0
 62
4
 10
-2.50549962E+01
 20
3.19210336E+02
  0
VERTEX
  8
0
 62
4
 10
-2.52315716E+01
 20
3.19220238E+02
  0
VERTEX
  8
0
 62
4
 10
-2.54103084E+01
 20
3.19225209E+02
  0
VERTEX
  8
0
 62
4
 10
-2.55897677E+01
 20
3.19225209E+02
  0
VERTEX
  8
0
 62
4
 10
-2.57685046E+01
 20
3.19220238E+02
  0
VERTEX
  8
0
 62
4
 10
-2.59450800E+01
 20
3.19210336E+02
  0
VERTEX
  8
0
 62
4
 10
-2.61180721E+01
 20
3.19195582E+02
  0
VERTEX
  8
0
 62
4
 10
-2.62860882E+01
 20
3.19176096E+02
  0
VERTEX
  8
0
 62
4
 10
-2.64477754E+01
 20
3.19152035E+02
  0
VERTEX
  8
0
 62
4
 10
-2.66018321E+01
 20
3.19123592E+02
  0
VERTEX
  8
0
 62
4
 10
-2.67470177E+01
 20
3.19090995E+02
  0
VERTEX
  8
0
 62
4
 10
-2.68821634E+01
 20
3.19054509E+02
  0
VERTEX
  8
0
 62
4
 10
-2.70061810E+01
 20
3.19014426E+02
  0
VERTEX
  8
0
 62
4
 10
-2.71180721E+01
 20
3.18971068E+02
  0
VERTEX
  8
0
 62
4
 10
-2.72169357E+01
 20
3.18924786E+02
  0
VERTEX
  8
0
 62
4
 10
-2.73019758E+01
 20
3.18875952E+02
  0
VERTEX
  8
0
 62
4
 10
-2.73725078E+01
 20
3.18824959E+02
  0
VERTEX
  8
0
 62
4
 10
-2.74279638E+01
 20
3.18772217E+02
  0
VERTEX
  8
0
 62
4
 10
-2.74678973E+01
 20
3.18718151E+02
  0
VERTEX
  8
0
 62
4
 10
-2.74919867E+01
 20
3.18663197E+02
  0
VERTEX
  8
0
 62
4
 10
-2.75000381E+01
 20
3.18607797E+02
  0
SEQEND
  8
0
  0
LINE
  8
0
 62
4
 10
-1.55000381E+01
 20
3.18607797E+02
 11
-1.55000381E+01
 21
3.17767878E+02
  0
LINE
  8
0
 62
6
 10
-1.60000381E+01
 20
3.19016588E+02
 11
-1.60000381E+01
 21
3.17767878E+02
  0
POLYLINE
  8
0
 62
4
 66
1
  0
VERTEX
  8
0
 62
4
 10
-1.55000381E+01
 20
3.18607797E+02
  0
VERTEX
  8
0
 62
4
 10
-1.55080895E+01
 20
3.18663197E+02
  0
VERTEX
  8
0
 62
4
 10
-1.55321789E+01
 20
3.18718151E+02
  0
VERTEX
  8
0
 62
4
 10
-1.55721124E+01
 20
3.18772217E+02
  0
VERTEX
  8
0
 62
4
 10
-1.56275684E+01
 20
3.18824959E+02
  0
VERTEX
  8
0
 62
4
 10
-1.56981004E+01
 20
3.18875952E+02
  0
VERTEX
  8
0
 62
4
 10
-1.57831405E+01
 20
3.18924786E+02
  0
VERTEX
  8
0
 62
4
 10
-1.58820041E+01
 20
3.18971068E+02
  0
VERTEX
  8
0
 62
4
 10
-1.59938952E+01
 20
3.19014425E+02
  0
VERTEX
  8
0
 62
4
 10
-1.61179128E+01
 20
3.19054509E+02
  0
VERTEX
  8
0
 62
4
 10
-1.62530585E+01
 20
3.19090995E+02
  0
VERTEX
  8
0
 62
4
 10
-1.63982441E+01
 20
3.19123592E+02
  0
VERTEX
  8
0
 62
4
 10
-1.65523008E+01
 20
3.19152035E+02
  0
VERTEX
  8
0
 62
4
 10
-1.67139880E+01
 20
3.19176096E+02
  0
VERTEX
  8
0
 62
4
 10
-1.68820041E+01
 20
3.19195582E+02
  0
VERTEX
  8
0
 62
4
 10
-1.70549962E+01
 20
3.19210336E+02
  0
VERTEX
  8
0
 62
4
 10
-1.72315716E+01
 20
3.19220238E+02
  0
VERTEX
  8
0
 62
4
 10
-1.74103084E+01
 20
3.19225209E+02
  0
VERTEX
  8
0
 62
4
 10
-1.75897677E+01
 20
3.19225209E+02
  0
VERTEX
  8
0
 62
4
 10
-1.77685046E+01
 20
3.19220238E+02
  0
VERTEX
  8
0
 62
4
 10
-1.79450800E+01
 20
3.19210336E+02
  0
VERTEX
  8
0
 62
4
 10
-1.81180721E+01
 20
3.19195582E+02
  0
VERTEX
  8
0
 62
4
 10
-1.82860882E+01
 20
3.19176096E+02
  0
VERTEX
  8
0
 62
4
 10
-1.84477754E+01
 20
3.19152035E+02
  0
VERTEX
  8
0
 62
4
 10
-1.86018321E+01
 20
3.19123592E+02
  0
VERTEX
  8
0
 62
4
 10
-1.87470177E+01
 20
3.19090995E+02
  0
VERTEX
  8
0
 62
4
 10
-1.88821634E+01
 20
3.19054509E+02
  0
VERTEX
  8
0
 62
4
 10
-1.90061810E+01
 20
3.19014426E+02
  0
VERTEX
  8
0
 62
4
 10
-1.91180721E+01
 20
3.18971068E+02
  0
VERTEX
  8
0
 62
4
 10
-1.92169357E+01
 20
3.18924786E+02
  0
VERTEX
  8
0
 62
4
 10
-1.93019758E+01
 20
3.18875952E+02
  0
VERTEX
  8
0
 62
4
 10
-1.93725078E+01
 20
3.18824959E+02
  0
VERTEX
  8
0
 62
4
 10
-1.94279638E+01
 20
3.18772217E+02
  0
VERTEX
  8
0
 62
4
 10
-1.94678973E+01
 20
3.18718151E+02
  0
VERTEX
  8
0
 62
4
 10
-1.94919867E+01
 20
3.18663197E+02
  0
VERTEX
  8
0
 62
4
 10
-1.95000381E+01
 20
3.18607797E+02
  0
SEQEND
  8
0
  0
LINE
  8
0
 62
4
 10
-1.95000381E+01
 20
3.18607797E+02
 11
-1.95000381E+01
 21
3.17767878E+02
  0
LINE
  8
0
 62
6
 10
-1.90000381E+01
 20
3.19016588E+02
 11
-1.90000381E+01
 21
3.17767878E+02
  0
LINE
  8
0
 62
4
 10
-4.40000381E+01
 20
2.95591457E+02
 11
-4.55000381E+01
 21
2.94499948E+02
  0
LINE
  8
0
 62
4
 10
-4.55000381E+01
 20
2.92345805E+02
 11
-4.40000381E+01
 21
2.91787231E+02
  0
LINE
  8
0
 62
4
 10
-4.40000381E+01
 20
2.90551163E+02
 11
-4.55000381E+01
 21
2.91645882E+02
  0
LINE
  8
0
 62
4
 10
-4.40000382E+01
 20
2.92131951E+02
 11
-3.31500382E+01
 21
2.92131951E+02
  0
LINE
  8
0
 62
4
 10
-1.84344400E+01
 20
2.90710473E+02
 11
-1.40000382E+01
 21
2.90710473E+02
  0
LINE
  8
0
 62
4
 10
-4.40000382E+01
 20
2.91787231E+02
 11
-3.31500382E+01
 21
2.91787231E+02
  0
LINE
  8
0
 62
4
 10
-4.40000382E+01
 20
2.90551163E+02
 11
-3.30446534E+01
 21
2.90551163E+02
  0
LINE
  8
0
 62
4
 10
-4.40000381E+01
 20
2.92131951E+02
 11
-4.40000381E+01
 21
2.90551163E+02
  0
LINE
  8
0
 62
4
 10
-4.40000381E+01
 20
2.90551163E+02
 11
-4.40000381E+01
 21
2.90401456E+02
  0
ARC
  8
0
 62
4
 10
-2.39000385E+01
 20
2.91456783E+02
 40
1.00000000E+00
 50
1.80000000E+02
 51
2.57172490E+02
  0
ARC
  8
0
 62
4
 10
-1.91000378E+01
 20
2.91456783E+02
 40
1.00000000E+00
 50
2.82827510E+02
 51
0.00000000E+00
  0
ARC
  8
0
 62
4
 10
-2.15000381E+01
 20
3.01996997E+02
 40
1.18100000E+01
 50
2.57172490E+02
 51
2.82827510E+02
  0
LINE
  8
0
 62
4
 10
-3.31500382E+01
 20
2.90838331E+02
 11
-3.31500382E+01
 21
2.92512190E+02
  0
LINE
  8
0
 62
4
 10
-2.48500382E+01
 20
2.90838331E+02
 11
-2.48500382E+01
 21
2.91144532E+02
  0
POLYLINE
  8
0
 62
4
 66
1
  0
VERTEX
  8
0
 62
4
 10
-2.53000381E+01
 20
2.93092986E+02
  0
VERTEX
  8
0
 62
4
 10
-2.54818531E+01
 20
2.93192370E+02
  0
VERTEX
  8
0
 62
4
 10
-2.56915503E+01
 20
2.93286363E+02
  0
VERTEX
  8
0
 62
4
 10
-2.59274680E+01
 20
2.93374221E+02
  0
VERTEX
  8
0
 62
4
 10
-2.61877363E+01
 20
2.93455247E+02
  0
VERTEX
  8
0
 62
4
 10
-2.64702926E+01
 20
2.93528799E+02
  0
VERTEX
  8
0
 62
4
 10
-2.67728977E+01
 20
2.93594294E+02
  0
VERTEX
  8
0
 62
4
 10
-2.70931532E+01
 20
2.93651214E+02
  0
VERTEX
  8
0
 62
4
 10
-2.74285212E+01
 20
2.93699106E+02
  0
VERTEX
  8
0
 62
4
 10
-2.77763437E+01
 20
2.93737592E+02
  0
VERTEX
  8
0
 62
4
 10
-2.81338643E+01
 20
2.93766367E+02
  0
VERTEX
  8
0
 62
4
 10
-2.84982494E+01
 20
2.93785202E+02
  0
VERTEX
  8
0
 62
4
 10
-2.88666113E+01
 20
2.93793948E+02
  0
VERTEX
  8
0
 62
4
 10
-2.92360306E+01
 20
2.93792535E+02
  0
VERTEX
  8
0
 62
4
 10
-2.96035797E+01
 20
2.93780976E+02
  0
VERTEX
  8
0
 62
4
 10
-2.99663455E+01
 20
2.93759362E+02
  0
VERTEX
  8
0
 62
4
 10
-3.03214532E+01
 20
2.93727863E+02
  0
VERTEX
  8
0
 62
4
 10
-3.06660885E+01
 20
2.93686730E+02
  0
VERTEX
  8
0
 62
4
 10
-3.09975199E+01
 20
2.93636289E+02
  0
VERTEX
  8
0
 62
4
 10
-3.13131210E+01
 20
2.93576938E+02
  0
VERTEX
  8
0
 62
4
 10
-3.16103904E+01
 20
2.93509150E+02
  0
VERTEX
  8
0
 62
4
 10
-3.18869724E+01
 20
2.93433460E+02
  0
VERTEX
  8
0
 62
4
 10
-3.21406748E+01
 20
2.93350470E+02
  0
VERTEX
  8
0
 62
4
 10
-3.23694871E+01
 20
2.93260835E+02
  0
VERTEX
  8
0
 62
4
 10
-3.25715959E+01
 20
2.93165268E+02
  0
VERTEX
  8
0
 62
4
 10
-3.27453994E+01
 20
2.93064524E+02
  0
VERTEX
  8
0
 62
4
 10
-3.28895202E+01
 20
2.92959404E+02
  0
VERTEX
  8
0
 62
4
 10
-3.30028162E+01
 20
2.92850739E+02
  0
VERTEX
  8
0
 62
4
 10
-3.30843894E+01
 20
2.92739391E+02
  0
VERTEX
  8
0
 62
4
 10
-3.31335933E+01
 20
2.92626242E+02
  0
VERTEX
  8
0
 62
4
 10
-3.31500381E+01
 20
2.92512190E+02
  0
SEQEND
  8
0
  0
POLYLINE
  8
0
 62
4
 66
1
  0
VERTEX
  8
0
 62
4
 10
-3.31500381E+01
 20
2.90838331E+02
  0
VERTEX
  8
0
 62
4
 10
-3.31342461E+01
 20
2.90726561E+02
  0
VERTEX
  8
0
 62
4
 10
-3.30869903E+01
 20
2.90615641E+02
  0
VERTEX
  8
0
 62
4
 10
-3.30086303E+01
 20
2.90506416E+02
  0
VERTEX
  8
0
 62
4
 10
-3.28997625E+01
 20
2.90399717E+02
  0
VERTEX
  8
0
 62
4
 10
-3.27612154E+01
 20
2.90296357E+02
  0
VERTEX
  8
0
 62
4
 10
-3.25940435E+01
 20
2.90197121E+02
  0
VERTEX
  8
0
 62
4
 10
-3.23995191E+01
 20
2.90102765E+02
  0
VERTEX
  8
0
 62
4
 10
-3.21791225E+01
 20
2.90014007E+02
  0
VERTEX
  8
0
 62
4
 10
-3.19345313E+01
 20
2.89931523E+02
  0
VERTEX
  8
0
 62
4
 10
-3.16676067E+01
 20
2.89855940E+02
  0
VERTEX
  8
0
 62
4
 10
-3.13803803E+01
 20
2.89787834E+02
  0
VERTEX
  8
0
 62
4
 10
-3.10750381E+01
 20
2.89727722E+02
  0
VERTEX
  8
0
 62
4
 10
-3.07539039E+01
 20
2.89676063E+02
  0
VERTEX
  8
0
 62
4
 10
-3.04194217E+01
 20
2.89633250E+02
  0
VERTEX
  8
0
 62
4
 10
-3.00741371E+01
 20
2.89599608E+02
  0
VERTEX
  8
0
 62
4
 10
-2.97206780E+01
 20
2.89575393E+02
  0
VERTEX
  8
0
 62
4
 10
-2.93617344E+01
 20
2.89560790E+02
  0
VERTEX
  8
0
 62
4
 10
-2.90000381E+01
 20
2.89555910E+02
  0
VERTEX
  8
0
 62
4
 10
-2.86383418E+01
 20
2.89560790E+02
  0
VERTEX
  8
0
 62
4
 10
-2.82793982E+01
 20
2.89575393E+02
  0
VERTEX
  8
0
 62
4
 10
-2.79259391E+01
 20
2.89599608E+02
  0
VERTEX
  8
0
 62
4
 10
-2.75806545E+01
 20
2.89633250E+02
  0
VERTEX
  8
0
 62
4
 10
-2.72461723E+01
 20
2.89676063E+02
  0
VERTEX
  8
0
 62
4
 10
-2.69250381E+01
 20
2.89727722E+02
  0
VERTEX
  8
0
 62
4
 10
-2.66196959E+01
 20
2.89787834E+02
  0
VERTEX
  8
0
 62
4
 10
-2.63324695E+01
 20
2.89855940E+02
  0
VERTEX
  8
0
 62
4
 10
-2.60655450E+01
 20
2.89931523E+02
  0
VERTEX
  8
0
 62
4
 10
-2.58209537E+01
 20
2.90014007E+02
  0
VERTEX
  8
0
 62
4
 10
-2.56005571E+01
 20
2.90102765E+02
  0
VERTEX
  8
0
 62
4
 10
-2.54060327E+01
 20
2.90197121E+02
  0
VERTEX
  8
0
 62
4
 10
-2.52388608E+01
 20
2.90296357E+02
  0
VERTEX
  8
0
 62
4
 10
-2.51003137E+01
 20
2.90399717E+02
  0
VERTEX
  8
0
 62
4
 10
-2.49914459E+01
 20
2.90506416E+02
  0
VERTEX
  8
0
 62
4
 10
-2.49130859E+01
 20
2.90615641E+02
  0
VERTEX
  8
0
 62
4
 10
-2.48658301E+01
 20
2.90726561E+02
  0
VERTEX
  8
0
 62
4
 10
-2.48500381E+01
 20
2.90838331E+02
  0
VERTEX
  8
0
 62
4
 10
-2.48658301E+01
 20
2.90950101E+02
  0
VERTEX
  8
0
 62
4
 10
-2.49130859E+01
 20
2.91061021E+02
  0
VERTEX
  8
0
 62
4
 10
-2.49914459E+01
 20
2.91170246E+02
  0
VERTEX
  8
0
 62
4
 10
-2.51003137E+01
 20
2.91276945E+02
  0
VERTEX
  8
0
 62
4
 10
-2.52388608E+01
 20
2.91380305E+02
  0
VERTEX
  8
0
 62
4
 10
-2.54060327E+01
 20
2.91479541E+02
  0
VERTEX
  8
0
 62
4
 10
-2.56005571E+01
 20
2.91573897E+02
  0
VERTEX
  8
0
 62
4
 10
-2.58209537E+01
 20
2.91662655E+02
  0
VERTEX
  8
0
 62
4
 10
-2.60655450E+01
 20
2.91745139E+02
  0
VERTEX
  8
0
 62
4
 10
-2.63324695E+01
 20
2.91820722E+02
  0
VERTEX
  8
0
 62
4
 10
-2.66196959E+01
 20
2.91888828E+02
  0
VERTEX
  8
0
 62
4
 10
-2.69250381E+01
 20
2.91948940E+02
  0
VERTEX
  8
0
 62
4
 10
-2.72461723E+01
 20
2.92000599E+02
  0
VERTEX
  8
0
 62
4
 10
-2.75806545E+01
 20
2.92043412E+02
  0
VERTEX
  8
0
 62
4
 10
-2.79259391E+01
 20
2.92077054E+02
  0
VERTEX
  8
0
 62
4
 10
-2.82793982E+01
 20
2.92101269E+02
  0
VERTEX
  8
0
 62
4
 10
-2.86383418E+01
 20
2.92115872E+02
  0
VERTEX
  8
0
 62
4
 10
-2.90000381E+01
 20
2.92120751E+02
  0
VERTEX
  8
0
 62
4
 10
-2.93617344E+01
 20
2.92115872E+02
  0
VERTEX
  8
0
 62
4
 10
-2.97206780E+01
 20
2.92101269E+02
  0
VERTEX
  8
0
 62
4
 10
-3.00741371E+01
 20
2.92077054E+02
  0
VERTEX
  8
0
 62
4
 10
-3.04194217E+01
 20
2.92043412E+02
  0
VERTEX
  8
0
 62
4
 10
-3.07539039E+01
 20
2.92000599E+02
  0
VERTEX
  8
0
 62
4
 10
-3.10750381E+01
 20
2.91948940E+02
  0
VERTEX
  8
0
 62
4
 10
-3.13803803E+01
 20
2.91888828E+02
  0
VERTEX
  8
0
 62
4
 10
-3.16676067E+01
 20
2.91820722E+02
  0
VERTEX
  8
0
 62
4
 10
-3.19345313E+01
 20
2.91745139E+02
  0
VERTEX
  8
0
 62
4
 10
-3.21791226E+01
 20
2.91662655E+02
  0
VERTEX
  8
0
 62
4
 10
-3.23995191E+01
 20
2.91573897E+02
  0
VERTEX
  8
0
 62
4
 10
-3.25940435E+01
 20
2.91479541E+02
  0
VERTEX
  8
0
 62
4
 10
-3.27612154E+01
 20
2.91380305E+02
  0
VERTEX
  8
0
 62
4
 10
-3.28997625E+01
 20
2.91276945E+02
  0
VERTEX
  8
0
 62
4
 10
-3.30086303E+01
 20
2.91170246E+02
  0
VERTEX
  8
0
 62
4
 10
-3.30869903E+01
 20
2.91061021E+02
  0
VERTEX
  8
0
 62
4
 10
-3.31342461E+01
 20
2.90950101E+02
  0
VERTEX
  8
0
 62
4
 10
-3.31500381E+01
 20
2.90838331E+02
  0
SEQEND
  8
0
  0
LINE
  8
0
 62
4
 10
-3.30000381E+01
 20
2.92853860E+02
 11
-3.30000381E+01
 21
2.92873592E+02
  0
POLYLINE
  8
0
 62
4
 66
1
  0
VERTEX
  8
0
 62
4
 10
-2.53000381E+01
 20
2.93343257E+02
  0
VERTEX
  8
0
 62
4
 10
-2.54493461E+01
 20
2.93442770E+02
  0
VERTEX
  8
0
 62
4
 10
-2.56266148E+01
 20
2.93537800E+02
  0
VERTEX
  8
0
 62
4
 10
-2.58304482E+01
 20
2.93627600E+02
  0
VERTEX
  8
0
 62
4
 10
-2.60592413E+01
 20
2.93711462E+02
  0
VERTEX
  8
0
 62
4
 10
-2.63111923E+01
 20
2.93788726E+02
  0
VERTEX
  8
0
 62
4
 10
-2.65843173E+01
 20
2.93858784E+02
  0
VERTEX
  8
0
 62
4
 10
-2.68764654E+01
 20
2.93921084E+02
  0
VERTEX
  8
0
 62
4
 10
-2.71853360E+01
 20
2.93975135E+02
  0
VERTEX
  8
0
 62
4
 10
-2.75084969E+01
 20
2.94020512E+02
  0
VERTEX
  8
0
 62
4
 10
-2.78434033E+01
 20
2.94056857E+02
  0
VERTEX
  8
0
 62
4
 10
-2.81874179E+01
 20
2.94083884E+02
  0
VERTEX
  8
0
 62
4
 10
-2.85378316E+01
 20
2.94101380E+02
  0
VERTEX
  8
0
 62
4
 10
-2.88918850E+01
 20
2.94109208E+02
  0
VERTEX
  8
0
 62
4
 10
-2.92467902E+01
 20
2.94107306E+02
  0
VERTEX
  8
0
 62
4
 10
-2.95997522E+01
 20
2.94095689E+02
  0
VERTEX
  8
0
 62
4
 10
-2.99479917E+01
 20
2.94074447E+02
  0
VERTEX
  8
0
 62
4
 10
-3.02887662E+01
 20
2.94043750E+02
  0
VERTEX
  8
0
 62
4
 10
-3.06193924E+01
 20
2.94003838E+02
  0
VERTEX
  8
0
 62
4
 10
-3.09372667E+01
 20
2.93955025E+02
  0
VERTEX
  8
0
 62
4
 10
-3.12398858E+01
 20
2.93897697E+02
  0
VERTEX
  8
0
 62
4
 10
-3.15248667E+01
 20
2.93832304E+02
  0
VERTEX
  8
0
 62
4
 10
-3.17899653E+01
 20
2.93759361E+02
  0
VERTEX
  8
0
 62
4
 10
-3.20330940E+01
 20
2.93679444E+02
  0
VERTEX
  8
0
 62
4
 10
-3.22523383E+01
 20
2.93593180E+02
  0
VERTEX
  8
0
 62
4
 10
-3.24459715E+01
 20
2.93501250E+02
  0
VERTEX
  8
0
 62
4
 10
-3.26124690E+01
 20
2.93404377E+02
  0
VERTEX
  8
0
 62
4
 10
-3.27505196E+01
 20
2.93303324E+02
  0
VERTEX
  8
0
 62
4
 10
-3.28590363E+01
 20
2.93198888E+02
  0
VERTEX
  8
0
 62
4
 10
-3.29371643E+01
 20
2.93091889E+02
  0
VERTEX
  8
0
 62
4
 10
-3.29842887E+01
 20
2.92983172E+02
  0
VERTEX
  8
0
 62
4
 10
-3.30000381E+01
 20
2.92873592E+02
  0
SEQEND
  8
0
  0
ARC
  8
0
 62
4
 10
-3.31876602E+01
 20
3.03826828E+02
 40
1.43299558E+01
 50
2.79721944E+02
 51
2.94556489E+02
  0
ARC
  8
0
 62
4
 10
-2.48124146E+01
 20
3.03826833E+02
 40
1.43299613E+01
 50
2.45443514E+02
 51
2.60278053E+02
  0
LINE
  8
0
 62
4
 10
-2.53000381E+01
 20
2.93004094E+02
 11
-2.53000381E+01
 21
2.93955151E+02
  0
POLYLINE
  8
0
 62
4
 66
1
  0
VERTEX
  8
0
 62
4
 10
-1.77000381E+01
 20
2.93955151E+02
  0
VERTEX
  8
0
 62
4
 10
-1.77153358E+01
 20
2.94060411E+02
  0
VERTEX
  8
0
 62
4
 10
-1.77611057E+01
 20
2.94164824E+02
  0
VERTEX
  8
0
 62
4
 10
-1.78369792E+01
 20
2.94267549E+02
  0
VERTEX
  8
0
 62
4
 10
-1.79423456E+01
 20
2.94367758E+02
  0
VERTEX
  8
0
 62
4
 10
-1.80763564E+01
 20
2.94464645E+02
  0
VERTEX
  8
0
 62
4
 10
-1.82379327E+01
 20
2.94557430E+02
  0
VERTEX
  8
0
 62
4
 10
-1.84257735E+01
 20
2.94645366E+02
  0
VERTEX
  8
0
 62
4
 10
-1.86383665E+01
 20
2.94727745E+02
  0
VERTEX
  8
0
 62
4
 10
-1.88740000E+01
 20
2.94803903E+02
  0
VERTEX
  8
0
 62
4
 10
-1.91307768E+01
 20
2.94873228E+02
  0
VERTEX
  8
0
 62
4
 10
-1.94066296E+01
 20
2.94935161E+02
  0
VERTEX
  8
0
 62
4
 10
-1.96993372E+01
 20
2.94989203E+02
  0
VERTEX
  8
0
 62
4
 10
-2.00065430E+01
 20
2.95034920E+02
  0
VERTEX
  8
0
 62
4
 10
-2.03257735E+01
 20
2.95071943E+02
  0
VERTEX
  8
0
 62
4
 10
-2.06544585E+01
 20
2.95099974E+02
  0
VERTEX
  8
0
 62
4
 10
-2.09899517E+01
 20
2.95118788E+02
  0
VERTEX
  8
0
 62
4
 10
-2.13295517E+01
 20
2.95128233E+02
  0
VERTEX
  8
0
 62
4
 10
-2.16705244E+01
 20
2.95128233E+02
  0
VERTEX
  8
0
 62
4
 10
-2.20101245E+01
 20
2.95118788E+02
  0
VERTEX
  8
0
 62
4
 10
-2.23456176E+01
 20
2.95099974E+02
  0
VERTEX
  8
0
 62
4
 10
-2.26743027E+01
 20
2.95071943E+02
  0
VERTEX
  8
0
 62
4
 10
-2.29935332E+01
 20
2.95034920E+02
  0
VERTEX
  8
0
 62
4
 10
-2.33007390E+01
 20
2.94989203E+02
  0
VERTEX
  8
0
 62
4
 10
-2.35934466E+01
 20
2.94935161E+02
  0
VERTEX
  8
0
 62
4
 10
-2.38692993E+01
 20
2.94873228E+02
  0
VERTEX
  8
0
 62
4
 10
-2.41260761E+01
 20
2.94803903E+02
  0
VERTEX
  8
0
 62
4
 10
-2.43617097E+01
 20
2.94727745E+02
  0
VERTEX
  8
0
 62
4
 10
-2.45743027E+01
 20
2.94645366E+02
  0
VERTEX
  8
0
 62
4
 10
-2.47621435E+01
 20
2.94557430E+02
  0
VERTEX
  8
0
 62
4
 10
-2.49237198E+01
 20
2.94464645E+02
  0
VERTEX
  8
0
 62
4
 10
-2.50577306E+01
 20
2.94367758E+02
  0
VERTEX
  8
0
 62
4
 10
-2.51630970E+01
 20
2.94267549E+02
  0
VERTEX
  8
0
 62
4
 10
-2.52389705E+01
 20
2.94164824E+02
  0
VERTEX
  8
0
 62
4
 10
-2.52847404E+01
 20
2.94060411E+02
  0
VERTEX
  8
0
 62
4
 10
-2.53000381E+01
 20
2.93955151E+02
  0
SEQEND
  8
0
  0
POLYLINE
  8
0
 62
4
 66
1
  0
VERTEX
  8
0
 62
4
 10
-1.81000381E+01
 20
2.92479675E+02
  0
VERTEX
  8
0
 62
4
 10
-1.79634564E+01
 20
2.92574506E+02
  0
VERTEX
  8
0
 62
4
 10
-1.78545086E+01
 20
2.92672694E+02
  0
VERTEX
  8
0
 62
4
 10
-1.77740458E+01
 20
2.92773471E+02
  0
VERTEX
  8
0
 62
4
 10
-1.77226968E+01
 20
2.92876050E+02
  0
VERTEX
  8
0
 62
4
 10
-1.77008628E+01
 20
2.92979630E+02
  0
VERTEX
  8
0
 62
4
 10
-1.77087145E+01
 20
2.93083401E+02
  0
VERTEX
  8
0
 62
4
 10
-1.77461905E+01
 20
2.93186552E+02
  0
VERTEX
  8
0
 62
4
 10
-1.78129979E+01
 20
2.93288278E+02
  0
VERTEX
  8
0
 62
4
 10
-1.79086147E+01
 20
2.93387783E+02
  0
VERTEX
  8
0
 62
4
 10
-1.80322939E+01
 20
2.93484290E+02
  0
VERTEX
  8
0
 62
4
 10
-1.81830690E+01
 20
2.93577045E+02
  0
VERTEX
  8
0
 62
4
 10
-1.83597619E+01
 20
2.93665323E+02
  0
VERTEX
  8
0
 62
4
 10
-1.85609919E+01
 20
2.93748434E+02
  0
VERTEX
  8
0
 62
4
 10
-1.87851869E+01
 20
2.93825730E+02
  0
VERTEX
  8
0
 62
4
 10
-1.90305948E+01
 20
2.93896605E+02
  0
VERTEX
  8
0
 62
4
 10
-1.92952983E+01
 20
2.93960506E+02
  0
VERTEX
  8
0
 62
4
 10
-1.95772289E+01
 20
2.94016935E+02
  0
VERTEX
  8
0
 62
4
 10
-1.98741838E+01
 20
2.94065449E+02
  0
VERTEX
  8
0
 62
4
 10
-2.01838427E+01
 20
2.94105670E+02
  0
VERTEX
  8
0
 62
4
 10
-2.05037859E+01
 20
2.94137284E+02
  0
VERTEX
  8
0
 62
4
 10
-2.08315135E+01
 20
2.94160044E+02
  0
VERTEX
  8
0
 62
4
 10
-2.11644648E+01
 20
2.94173771E+02
  0
VERTEX
  8
0
 62
4
 10
-2.15000381E+01
 20
2.94178359E+02
  0
VERTEX
  8
0
 62
4
 10
-2.18356115E+01
 20
2.94173771E+02
  0
VERTEX
  8
0
 62
4
 10
-2.21685627E+01
 20
2.94160044E+02
  0
VERTEX
  8
0
 62
4
 10
-2.24962904E+01
 20
2.94137284E+02
  0
VERTEX
  8
0
 62
4
 10
-2.28162336E+01
 20
2.94105670E+02
  0
VERTEX
  8
0
 62
4
 10
-2.31258924E+01
 20
2.94065449E+02
  0
VERTEX
  8
0
 62
4
 10
-2.34228473E+01
 20
2.94016935E+02
  0
VERTEX
  8
0
 62
4
 10
-2.37047779E+01
 20
2.93960506E+02
  0
VERTEX
  8
0
 62
4
 10
-2.39694814E+01
 20
2.93896605E+02
  0
VERTEX
  8
0
 62
4
 10
-2.42148894E+01
 20
2.93825730E+02
  0
VERTEX
  8
0
 62
4
 10
-2.44390843E+01
 20
2.93748434E+02
  0
VERTEX
  8
0
 62
4
 10
-2.46403144E+01
 20
2.93665323E+02
  0
VERTEX
  8
0
 62
4
 10
-2.48170073E+01
 20
2.93577045E+02
  0
VERTEX
  8
0
 62
4
 10
-2.49677823E+01
 20
2.93484290E+02
  0
VERTEX
  8
0
 62
4
 10
-2.50914615E+01
 20
2.93387783E+02
  0
VERTEX
  8
0
 62
4
 10
-2.51870783E+01
 20
2.93288278E+02
  0
VERTEX
  8
0
 62
4
 10
-2.52538857E+01
 20
2.93186552E+02
  0
VERTEX
  8
0
 62
4
 10
-2.52913617E+01
 20
2.93083401E+02
  0
VERTEX
  8
0
 62
4
 10
-2.52992134E+01
 20
2.92979630E+02
  0
VERTEX
  8
0
 62
4
 10
-2.52773794E+01
 20
2.92876050E+02
  0
VERTEX
  8
0
 62
4
 10
-2.52260304E+01
 20
2.92773471E+02
  0
VERTEX
  8
0
 62
4
 10
-2.51455676E+01
 20
2.92672694E+02
  0
VERTEX
  8
0
 62
4
 10
-2.50366198E+01
 20
2.92574506E+02
  0
VERTEX
  8
0
 62
4
 10
-2.49000381E+01
 20
2.92479675E+02
  0
SEQEND
  8
0
  0
LINE
  8
0
 62
4
 10
-1.77000381E+01
 20
2.93004094E+02
 11
-1.77000381E+01
 21
2.93955151E+02
  0
LINE
  8
0
 62
4
 10
-2.49000381E+01
 20
2.91456783E+02
 11
-2.49000381E+01
 21
2.93004094E+02
  0
POLYLINE
  8
0
 62
4
 66
1
  0
VERTEX
  8
0
 62
4
 10
-1.81000381E+01
 20
2.93004094E+02
  0
VERTEX
  8
0
 62
4
 10
-1.81137255E+01
 20
2.93098274E+02
  0
VERTEX
  8
0
 62
4
 10
-1.81546775E+01
 20
2.93191696E+02
  0
VERTEX
  8
0
 62
4
 10
-1.82225644E+01
 20
2.93283608E+02
  0
VERTEX
  8
0
 62
4
 10
-1.83168395E+01
 20
2.93373269E+02
  0
VERTEX
  8
0
 62
4
 10
-1.84367439E+01
 20
2.93459957E+02
  0
VERTEX
  8
0
 62
4
 10
-1.85813122E+01
 20
2.93542976E+02
  0
VERTEX
  8
0
 62
4
 10
-1.87493803E+01
 20
2.93621655E+02
  0
VERTEX
  8
0
 62
4
 10
-1.89395951E+01
 20
2.93695362E+02
  0
VERTEX
  8
0
 62
4
 10
-1.91504251E+01
 20
2.93763504E+02
  0
VERTEX
  8
0
 62
4
 10
-1.93801728E+01
 20
2.93825531E+02
  0
VERTEX
  8
0
 62
4
 10
-1.96269883E+01
 20
2.93880945E+02
  0
VERTEX
  8
0
 62
4
 10
-1.98888846E+01
 20
2.93929299E+02
  0
VERTEX
  8
0
 62
4
 10
-2.01637530E+01
 20
2.93970203E+02
  0
VERTEX
  8
0
 62
4
 10
-2.04493803E+01
 20
2.94003329E+02
  0
VERTEX
  8
0
 62
4
 10
-2.07434669E+01
 20
2.94028410E+02
  0
VERTEX
  8
0
 62
4
 10
-2.10436450E+01
 20
2.94045243E+02
  0
VERTEX
  8
0
 62
4
 10
-2.13474977E+01
 20
2.94053694E+02
  0
VERTEX
  8
0
 62
4
 10
-2.16525785E+01
 20
2.94053694E+02
  0
VERTEX
  8
0
 62
4
 10
-2.19564312E+01
 20
2.94045243E+02
  0
VERTEX
  8
0
 62
4
 10
-2.22566093E+01
 20
2.94028410E+02
  0
VERTEX
  8
0
 62
4
 10
-2.25506959E+01
 20
2.94003329E+02
  0
VERTEX
  8
0
 62
4
 10
-2.28363232E+01
 20
2.93970203E+02
  0
VERTEX
  8
0
 62
4
 10
-2.31111915E+01
 20
2.93929299E+02
  0
VERTEX
  8
0
 62
4
 10
-2.33730878E+01
 20
2.93880945E+02
  0
VERTEX
  8
0
 62
4
 10
-2.36199034E+01
 20
2.93825531E+02
  0
VERTEX
  8
0
 62
4
 10
-2.38496511E+01
 20
2.93763504E+02
  0
VERTEX
  8
0
 62
4
 10
-2.40604811E+01
 20
2.93695362E+02
  0
VERTEX
  8
0
 62
4
 10
-2.42506959E+01
 20
2.93621655E+02
  0
VERTEX
  8
0
 62
4
 10
-2.44187640E+01
 20
2.93542976E+02
  0
VERTEX
  8
0
 62
4
 10
-2.45633322E+01
 20
2.93459957E+02
  0
VERTEX
  8
0
 62
4
 10
-2.46832367E+01
 20
2.93373269E+02
  0
VERTEX
  8
0
 62
4
 10
-2.47775118E+01
 20
2.93283608E+02
  0
VERTEX
  8
0
 62
4
 10
-2.48453987E+01
 20
2.93191696E+02
  0
VERTEX
  8
0
 62
4
 10
-2.48863507E+01
 20
2.93098274E+02
  0
VERTEX
  8
0
 62
4
 10
-2.49000381E+01
 20
2.93004094E+02
  0
SEQEND
  8
0
  0
LINE
  8
0
 62
4
 10
-1.81000381E+01
 20
2.91456783E+02
 11
-1.81000381E+01
 21
2.93004094E+02
  0
POLYLINE
  8
0
 62
4
 66
1
  0
VERTEX
  8
0
 62
4
 10
-1.81000381E+01
 20
2.91456789E+02
  0
VERTEX
  8
0
 62
4
 10
-1.81137273E+01
 20
2.91550969E+02
  0
VERTEX
  8
0
 62
4
 10
-1.81546811E+01
 20
2.91644391E+02
  0
VERTEX
  8
0
 62
4
 10
-1.82225698E+01
 20
2.91736303E+02
  0
VERTEX
  8
0
 62
4
 10
-1.83168467E+01
 20
2.91825964E+02
  0
VERTEX
  8
0
 62
4
 10
-1.84367528E+01
 20
2.91912652E+02
  0
VERTEX
  8
0
 62
4
 10
-1.85813227E+01
 20
2.91995670E+02
  0
VERTEX
  8
0
 62
4
 10
-1.87493923E+01
 20
2.92074349E+02
  0
VERTEX
  8
0
 62
4
 10
-1.89396085E+01
 20
2.92148056E+02
  0
VERTEX
  8
0
 62
4
 10
-1.91504398E+01
 20
2.92216197E+02
  0
VERTEX
  8
0
 62
4
 10
-1.93801887E+01
 20
2.92278224E+02
  0
VERTEX
  8
0
 62
4
 10
-1.96270054E+01
 20
2.92333637E+02
  0
VERTEX
  8
0
 62
4
 10
-1.98889026E+01
 20
2.92381991E+02
  0
VERTEX
  8
0
 62
4
 10
-2.01637717E+01
 20
2.92422894E+02
  0
VERTEX
  8
0
 62
4
 10
-2.04493997E+01
 20
2.92456020E+02
  0
VERTEX
  8
0
 62
4
 10
-2.07434868E+01
 20
2.92481100E+02
  0
VERTEX
  8
0
 62
4
 10
-2.10436652E+01
 20
2.92497933E+02
  0
VERTEX
  8
0
 62
4
 10
-2.13475180E+01
 20
2.92506383E+02
  0
VERTEX
  8
0
 62
4
 10
-2.16525989E+01
 20
2.92506383E+02
  0
VERTEX
  8
0
 62
4
 10
-2.19564514E+01
 20
2.92497931E+02
  0
VERTEX
  8
0
 62
4
 10
-2.22566291E+01
 20
2.92481097E+02
  0
VERTEX
  8
0
 62
4
 10
-2.25507153E+01
 20
2.92456016E+02
  0
VERTEX
  8
0
 62
4
 10
-2.28363419E+01
 20
2.92422890E+02
  0
VERTEX
  8
0
 62
4
 10
-2.31112095E+01
 20
2.92381985E+02
  0
VERTEX
  8
0
 62
4
 10
-2.33731048E+01
 20
2.92333630E+02
  0
VERTEX
  8
0
 62
4
 10
-2.36199194E+01
 20
2.92278216E+02
  0
VERTEX
  8
0
 62
4
 10
-2.38496658E+01
 20
2.92216189E+02
  0
VERTEX
  8
0
 62
4
 10
-2.40604945E+01
 20
2.92148047E+02
  0
VERTEX
  8
0
 62
4
 10
-2.42507079E+01
 20
2.92074339E+02
  0
VERTEX
  8
0
 62
4
 10
-2.44187744E+01
 20
2.91995659E+02
  0
VERTEX
  8
0
 62
4
 10
-2.45633411E+01
 20
2.91912641E+02
  0
VERTEX
  8
0
 62
4
 10
-2.46832438E+01
 20
2.91825952E+02
  0
VERTEX
  8
0
 62
4
 10
-2.47775172E+01
 20
2.91736291E+02
  0
VERTEX
  8
0
 62
4
 10
-2.48454023E+01
 20
2.91644379E+02
  0
VERTEX
  8
0
 62
4
 10
-2.48863525E+01
 20
2.91550957E+02
  0
VERTEX
  8
0
 62
4
 10
-2.49000381E+01
 20
2.91456777E+02
  0
SEQEND
  8
0
  0
ARC
  8
0
 62
4
 10
-2.56605380E+01
 20
3.04311200E+02
 40
1.42127873E+01
 50
2.79930719E+02
 51
2.94652135E+02
  0
ARC
  8
0
 62
4
 10
-1.73395380E+01
 20
3.04311201E+02
 40
1.42127883E+01
 50
2.45347865E+02
 51
2.60069281E+02
  0
LINE
  8
0
  6
CENTER
 62
6
 10
-3.90000381E+01
 20
2.93955151E+02
 11
-3.40000381E+01
 21
2.93955151E+02
  0
LINE
  8
0
  6
CENTER
 62
6
 10
-2.90000381E+01
 20
2.95373592E+02
 11
-2.90000381E+01
 21
2.90373592E+02
  0
LINE
  8
0
  6
CENTER
 62
6
 10
-3.15000381E+01
 20
2.92873592E+02
 11
-2.65000381E+01
 21
2.92873592E+02
  0
LINE
  8
0
  6
CENTER
 62
6
 10
-2.15000381E+01
 20
2.96455151E+02
 11
-2.15000381E+01
 21
2.91455151E+02
  0
LINE
  8
0
  6
CENTER
 62
6
 10
-2.40000381E+01
 20
2.93955151E+02
 11
-1.90000381E+01
 21
2.93955151E+02
  0
LINE
  8
0
 62
4
 10
-2.50982706E+01
 20
2.90401456E+02
 11
-2.37404684E+01
 21
2.90401456E+02
  0
LINE
  8
0
 62
4
 10
-2.49554229E+01
 20
2.90551163E+02
 11
-2.43241280E+01
 21
2.90551163E+02
  0
LINE
  8
0
 62
4
 10
-1.81000381E+01
 20
2.92131951E+02
 11
-1.40000382E+01
 21
2.92131951E+02
  0
LINE
  8
0
 62
4
 10
-1.92596079E+01
 20
2.90401456E+02
 11
-1.40000381E+01
 21
2.90401456E+02
  0
LINE
  8
0
 62
7
 10
-2.90000381E+01
 20
3.12100006E+02
 11
-5.50000381E+01
 21
3.12100006E+02
  0
LINE
  8
0
 62
7
 10
-2.90000381E+01
 20
3.14499969E+02
 11
-5.50000381E+01
 21
3.14499969E+02
  0
LINE
  8
0
 62
7
 10
-4.40000381E+01
 20
3.04899994E+02
 11
-5.50000381E+01
 21
3.04899994E+02
  0
LINE
  8
0
 62
7
 10
1.49999466E+01
 20
2.56100021E+02
 11
-5.50000381E+01
 21
2.56100021E+02
  0
LINE
  8
0
 62
7
 10
1.49999466E+01
 20
2.48900009E+02
 11
-5.50000381E+01
 21
2.48900009E+02
  0
LINE
  8
0
 62
7
 10
1.49999466E+01
 20
2.46500031E+02
 11
-5.50000381E+01
 21
2.46500031E+02
  0
LINE
  8
0
 62
4
 10
-6.60001423E+01
 20
-2.38358825E+02
 11
-6.10001423E+01
 21
-2.38358816E+02
  0
LINE
  8
0
 62
4
 10
-4.80000462E+01
 20
-2.83696997E+02
 11
-1.50000462E+01
 21
-2.83696938E+02
  0
LINE
  8
0
 62
4
 10
-1.50000462E+01
 20
-2.85500038E+02
 11
-1.50000462E+01
 21
-2.82231822E+02
  0
LINE
  8
0
 62
4
 10
-4.80000462E+01
 20
-2.85500038E+02
 11
-4.80000462E+01
 21
-2.82231881E+02
  0
LINE
  8
0
 62
4
 10
-1.20000561E+01
 20
-2.77482488E+02
 11
-1.50000462E+01
 21
-2.82231822E+02
  0
LINE
  8
0
 62
4
 10
-5.10000561E+01
 20
-2.77482558E+02
 11
-4.80000462E+01
 21
-2.82231881E+02
  0
POLYLINE
  8
0
 62
4
 66
1
  0
VERTEX
  8
0
 62
4
 10
-4.30000651E+01
 20
-2.70228323E+02
  0
VERTEX
  8
0
 62
4
 10
-4.29848489E+01
 20
-2.70557953E+02
  0
VERTEX
  8
0
 62
4
 10
-4.29393061E+01
 20
-2.70885075E+02
  0
VERTEX
  8
0
 62
4
 10
-4.28637832E+01
 20
-2.71207198E+02
  0
VERTEX
  8
0
 62
4
 10
-4.27588552E+01
 20
-2.71521873E+02
  0
VERTEX
  8
0
 62
4
 10
-4.26253205E+01
 20
-2.71826703E+02
  0
VERTEX
  8
0
 62
4
 10
-4.24641954E+01
 20
-2.72119369E+02
  0
VERTEX
  8
0
 62
4
 10
-4.22767061E+01
 20
-2.72397643E+02
  0
VERTEX
  8
0
 62
4
 10
-4.20642797E+01
 20
-2.72659408E+02
  0
VERTEX
  8
0
 62
4
 10
-4.18285327E+01
 20
-2.72902672E+02
  0
VERTEX
  8
0
 62
4
 10
-4.15712594E+01
 20
-2.73125582E+02
  0
VERTEX
  8
0
 62
4
 10
-4.12944178E+01
 20
-2.73326443E+02
  0
VERTEX
  8
0
 62
4
 10
-4.10001147E+01
 20
-2.73503726E+02
  0
VERTEX
  8
0
 62
4
 10
-4.06905901E+01
 20
-2.73656082E+02
  0
VERTEX
  8
0
 62
4
 10
-4.03681995E+01
 20
-2.73782351E+02
  0
VERTEX
  8
0
 62
4
 10
-4.00353966E+01
 20
-2.73881572E+02
  0
VERTEX
  8
0
 62
4
 10
-3.96947142E+01
 20
-2.73952990E+02
  0
VERTEX
  8
0
 62
4
 10
-3.93487451E+01
 20
-2.73996061E+02
  0
VERTEX
  8
0
 62
4
 10
-3.90001224E+01
 20
-2.74010458E+02
  0
VERTEX
  8
0
 62
4
 10
-3.86514992E+01
 20
-2.73996072E+02
  0
VERTEX
  8
0
 62
4
 10
-3.83055288E+01
 20
-2.73953011E+02
  0
VERTEX
  8
0
 62
4
 10
-3.79648442E+01
 20
-2.73881603E+02
  0
VERTEX
  8
0
 62
4
 10
-3.76320383E+01
 20
-2.73782392E+02
  0
VERTEX
  8
0
 62
4
 10
-3.73096440E+01
 20
-2.73656133E+02
  0
VERTEX
  8
0
 62
4
 10
-3.70001147E+01
 20
-2.73503787E+02
  0
VERTEX
  8
0
 62
4
 10
-3.67058063E+01
 20
-2.73326513E+02
  0
VERTEX
  8
0
 62
4
 10
-3.64289585E+01
 20
-2.73125660E+02
  0
VERTEX
  8
0
 62
4
 10
-3.61716785E+01
 20
-2.72902757E+02
  0
VERTEX
  8
0
 62
4
 10
-3.59359241E+01
 20
-2.72659501E+02
  0
VERTEX
  8
0
 62
4
 10
-3.57234898E+01
 20
-2.72397742E+02
  0
VERTEX
  8
0
 62
4
 10
-3.55359921E+01
 20
-2.72119474E+02
  0
VERTEX
  8
0
 62
4
 10
-3.53748582E+01
 20
-2.71826813E+02
  0
VERTEX
  8
0
 62
4
 10
-3.52413142E+01
 20
-2.71521987E+02
  0
VERTEX
  8
0
 62
4
 10
-3.51363766E+01
 20
-2.71207315E+02
  0
VERTEX
  8
0
 62
4
 10
-3.50608440E+01
 20
-2.70885194E+02
  0
VERTEX
  8
0
 62
4
 10
-3.50152913E+01
 20
-2.70558074E+02
  0
VERTEX
  8
0
 62
4
 10
-3.50000651E+01
 20
-2.70228445E+02
  0
VERTEX
  8
0
 62
4
 10
-3.50152813E+01
 20
-2.69898815E+02
  0
VERTEX
  8
0
 62
4
 10
-3.50608241E+01
 20
-2.69571693E+02
  0
VERTEX
  8
0
 62
4
 10
-3.51363470E+01
 20
-2.69249570E+02
  0
VERTEX
  8
0
 62
4
 10
-3.52412750E+01
 20
-2.68934895E+02
  0
VERTEX
  8
0
 62
4
 10
-3.53748097E+01
 20
-2.68630065E+02
  0
VERTEX
  8
0
 62
4
 10
-3.55359349E+01
 20
-2.68337399E+02
  0
VERTEX
  8
0
 62
4
 10
-3.57234241E+01
 20
-2.68059125E+02
  0
VERTEX
  8
0
 62
4
 10
-3.59358505E+01
 20
-2.67797360E+02
  0
VERTEX
  8
0
 62
4
 10
-3.61715975E+01
 20
-2.67554096E+02
  0
VERTEX
  8
0
 62
4
 10
-3.64288708E+01
 20
-2.67331186E+02
  0
VERTEX
  8
0
 62
4
 10
-3.67057124E+01
 20
-2.67130325E+02
  0
VERTEX
  8
0
 62
4
 10
-3.70000155E+01
 20
-2.66953042E+02
  0
VERTEX
  8
0
 62
4
 10
-3.73095402E+01
 20
-2.66800686E+02
  0
VERTEX
  8
0
 62
4
 10
-3.76319307E+01
 20
-2.66674417E+02
  0
VERTEX
  8
0
 62
4
 10
-3.79647336E+01
 20
-2.66575196E+02
  0
VERTEX
  8
0
 62
4
 10
-3.83054160E+01
 20
-2.66503778E+02
  0
VERTEX
  8
0
 62
4
 10
-3.86513851E+01
 20
-2.66460707E+02
  0
VERTEX
  8
0
 62
4
 10
-3.90000078E+01
 20
-2.66446310E+02
  0
VERTEX
  8
0
 62
4
 10
-3.93486310E+01
 20
-2.66460696E+02
  0
VERTEX
  8
0
 62
4
 10
-3.96946014E+01
 20
-2.66503757E+02
  0
VERTEX
  8
0
 62
4
 10
-4.00352860E+01
 20
-2.66575165E+02
  0
VERTEX
  8
0
 62
4
 10
-4.03680919E+01
 20
-2.66674376E+02
  0
VERTEX
  8
0
 62
4
 10
-4.06904862E+01
 20
-2.66800635E+02
  0
VERTEX
  8
0
 62
4
 10
-4.10000155E+01
 20
-2.66952981E+02
  0
VERTEX
  8
0
 62
4
 10
-4.12943239E+01
 20
-2.67130255E+02
  0
VERTEX
  8
0
 62
4
 10
-4.15711717E+01
 20
-2.67331108E+02
  0
VERTEX
  8
0
 62
4
 10
-4.18284517E+01
 20
-2.67554011E+02
  0
VERTEX
  8
0
 62
4
 10
-4.20642061E+01
 20
-2.67797267E+02
  0
VERTEX
  8
0
 62
4
 10
-4.22766404E+01
 20
-2.68059026E+02
  0
VERTEX
  8
0
 62
4
 10
-4.24641381E+01
 20
-2.68337294E+02
  0
VERTEX
  8
0
 62
4
 10
-4.26252720E+01
 20
-2.68629955E+02
  0
VERTEX
  8
0
 62
4
 10
-4.27588160E+01
 20
-2.68934781E+02
  0
VERTEX
  8
0
 62
4
 10
-4.28637536E+01
 20
-2.69249453E+02
  0
VERTEX
  8
0
 62
4
 10
-4.29392862E+01
 20
-2.69571574E+02
  0
VERTEX
  8
0
 62
4
 10
-4.29848389E+01
 20
-2.69898694E+02
  0
VERTEX
  8
0
 62
4
 10
-4.30000651E+01
 20
-2.70228323E+02
  0
SEQEND
  8
0
  0
POLYLINE
  8
0
 62
4
 66
1
  0
VERTEX
  8
0
 62
4
 10
-4.24000662E+01
 20
-2.69636755E+02
  0
VERTEX
  8
0
 62
4
 10
-4.23871333E+01
 20
-2.69919410E+02
  0
VERTEX
  8
0
 62
4
 10
-4.23484228E+01
 20
-2.70199914E+02
  0
VERTEX
  8
0
 62
4
 10
-4.22842292E+01
 20
-2.70476133E+02
  0
VERTEX
  8
0
 62
4
 10
-4.21950412E+01
 20
-2.70745964E+02
  0
VERTEX
  8
0
 62
4
 10
-4.20815375E+01
 20
-2.71007353E+02
  0
VERTEX
  8
0
 62
4
 10
-4.19445819E+01
 20
-2.71258312E+02
  0
VERTEX
  8
0
 62
4
 10
-4.17852168E+01
 20
-2.71496931E+02
  0
VERTEX
  8
0
 62
4
 10
-4.16046551E+01
 20
-2.71721393E+02
  0
VERTEX
  8
0
 62
4
 10
-4.14042708E+01
 20
-2.71929990E+02
  0
VERTEX
  8
0
 62
4
 10
-4.11855891E+01
 20
-2.72121134E+02
  0
VERTEX
  8
0
 62
4
 10
-4.09502742E+01
 20
-2.72293372E+02
  0
VERTEX
  8
0
 62
4
 10
-4.07001171E+01
 20
-2.72445391E+02
  0
VERTEX
  8
0
 62
4
 10
-4.04370215E+01
 20
-2.72576035E+02
  0
VERTEX
  8
0
 62
4
 10
-4.01629899E+01
 20
-2.72684311E+02
  0
VERTEX
  8
0
 62
4
 10
-3.98801077E+01
 20
-2.72769393E+02
  0
VERTEX
  8
0
 62
4
 10
-3.95905279E+01
 20
-2.72830634E+02
  0
VERTEX
  8
0
 62
4
 10
-3.92964542E+01
 20
-2.72867568E+02
  0
VERTEX
  8
0
 62
4
 10
-3.90001249E+01
 20
-2.72879914E+02
  0
VERTEX
  8
0
 62
4
 10
-3.87037952E+01
 20
-2.72867579E+02
  0
VERTEX
  8
0
 62
4
 10
-3.84097202E+01
 20
-2.72830655E+02
  0
VERTEX
  8
0
 62
4
 10
-3.81201382E+01
 20
-2.72769424E+02
  0
VERTEX
  8
0
 62
4
 10
-3.78372529E+01
 20
-2.72684353E+02
  0
VERTEX
  8
0
 62
4
 10
-3.75632173E+01
 20
-2.72576087E+02
  0
VERTEX
  8
0
 62
4
 10
-3.73001171E+01
 20
-2.72445453E+02
  0
VERTEX
  8
0
 62
4
 10
-3.70499544E+01
 20
-2.72293442E+02
  0
VERTEX
  8
0
 62
4
 10
-3.68146333E+01
 20
-2.72121213E+02
  0
VERTEX
  8
0
 62
4
 10
-3.65959447E+01
 20
-2.71930077E+02
  0
VERTEX
  8
0
 62
4
 10
-3.63955529E+01
 20
-2.71721487E+02
  0
VERTEX
  8
0
 62
4
 10
-3.62149829E+01
 20
-2.71497032E+02
  0
VERTEX
  8
0
 62
4
 10
-3.60556092E+01
 20
-2.71258419E+02
  0
VERTEX
  8
0
 62
4
 10
-3.59186445E+01
 20
-2.71007465E+02
  0
VERTEX
  8
0
 62
4
 10
-3.58051314E+01
 20
-2.70746080E+02
  0
VERTEX
  8
0
 62
4
 10
-3.57159336E+01
 20
-2.70476252E+02
  0
VERTEX
  8
0
 62
4
 10
-3.56517300E+01
 20
-2.70200036E+02
  0
VERTEX
  8
0
 62
4
 10
-3.56130093E+01
 20
-2.69919533E+02
  0
VERTEX
  8
0
 62
4
 10
-3.56000662E+01
 20
-2.69636879E+02
  0
VERTEX
  8
0
 62
4
 10
-3.56129991E+01
 20
-2.69354224E+02
  0
VERTEX
  8
0
 62
4
 10
-3.56517096E+01
 20
-2.69073720E+02
  0
VERTEX
  8
0
 62
4
 10
-3.57159032E+01
 20
-2.68797501E+02
  0
VERTEX
  8
0
 62
4
 10
-3.58050912E+01
 20
-2.68527670E+02
  0
VERTEX
  8
0
 62
4
 10
-3.59185949E+01
 20
-2.68266281E+02
  0
VERTEX
  8
0
 62
4
 10
-3.60555505E+01
 20
-2.68015322E+02
  0
VERTEX
  8
0
 62
4
 10
-3.62149156E+01
 20
-2.67776703E+02
  0
VERTEX
  8
0
 62
4
 10
-3.63954773E+01
 20
-2.67552241E+02
  0
VERTEX
  8
0
 62
4
 10
-3.65958616E+01
 20
-2.67343644E+02
  0
VERTEX
  8
0
 62
4
 10
-3.68145433E+01
 20
-2.67152500E+02
  0
VERTEX
  8
0
 62
4
 10
-3.70498582E+01
 20
-2.66980262E+02
  0
VERTEX
  8
0
 62
4
 10
-3.73000153E+01
 20
-2.66828243E+02
  0
VERTEX
  8
0
 62
4
 10
-3.75631109E+01
 20
-2.66697599E+02
  0
VERTEX
  8
0
 62
4
 10
-3.78371425E+01
 20
-2.66589323E+02
  0
VERTEX
  8
0
 62
4
 10
-3.81200247E+01
 20
-2.66504241E+02
  0
VERTEX
  8
0
 62
4
 10
-3.84096046E+01
 20
-2.66443000E+02
  0
VERTEX
  8
0
 62
4
 10
-3.87036782E+01
 20
-2.66406066E+02
  0
VERTEX
  8
0
 62
4
 10
-3.90000075E+01
 20
-2.66393720E+02
  0
VERTEX
  8
0
 62
4
 10
-3.92963372E+01
 20
-2.66406055E+02
  0
VERTEX
  8
0
 62
4
 10
-3.95904122E+01
 20
-2.66442979E+02
  0
VERTEX
  8
0
 62
4
 10
-3.98799942E+01
 20
-2.66504210E+02
  0
VERTEX
  8
0
 62
4
 10
-4.01628795E+01
 20
-2.66589281E+02
  0
VERTEX
  8
0
 62
4
 10
-4.04369151E+01
 20
-2.66697547E+02
  0
VERTEX
  8
0
 62
4
 10
-4.07000153E+01
 20
-2.66828181E+02
  0
VERTEX
  8
0
 62
4
 10
-4.09501780E+01
 20
-2.66980192E+02
  0
VERTEX
  8
0
 62
4
 10
-4.11854991E+01
 20
-2.67152421E+02
  0
VERTEX
  8
0
 62
4
 10
-4.14041877E+01
 20
-2.67343557E+02
  0
VERTEX
  8
0
 62
4
 10
-4.16045796E+01
 20
-2.67552147E+02
  0
VERTEX
  8
0
 62
4
 10
-4.17851495E+01
 20
-2.67776602E+02
  0
VERTEX
  8
0
 62
4
 10
-4.19445232E+01
 20
-2.68015215E+02
  0
VERTEX
  8
0
 62
4
 10
-4.20814879E+01
 20
-2.68266169E+02
  0
VERTEX
  8
0
 62
4
 10
-4.21950010E+01
 20
-2.68527554E+02
  0
VERTEX
  8
0
 62
4
 10
-4.22841988E+01
 20
-2.68797382E+02
  0
VERTEX
  8
0
 62
4
 10
-4.23484024E+01
 20
-2.69073598E+02
  0
VERTEX
  8
0
 62
4
 10
-4.23871231E+01
 20
-2.69354101E+02
  0
VERTEX
  8
0
 62
4
 10
-4.24000662E+01
 20
-2.69636755E+02
  0
SEQEND
  8
0
  0
POLYLINE
  8
0
 62
4
 66
1
  0
VERTEX
  8
0
 62
4
 10
-4.24000651E+01
 20
-2.70228333E+02
  0
VERTEX
  8
0
 62
4
 10
-4.23870954E+01
 20
-2.70508906E+02
  0
VERTEX
  8
0
 62
4
 10
-4.23482768E+01
 20
-2.70787338E+02
  0
VERTEX
  8
0
 62
4
 10
-4.22839055E+01
 20
-2.71061505E+02
  0
VERTEX
  8
0
 62
4
 10
-4.21944728E+01
 20
-2.71329313E+02
  0
VERTEX
  8
0
 62
4
 10
-4.20806612E+01
 20
-2.71588720E+02
  0
VERTEX
  8
0
 62
4
 10
-4.19433394E+01
 20
-2.71837744E+02
  0
VERTEX
  8
0
 62
4
 10
-4.17835552E+01
 20
-2.72074487E+02
  0
VERTEX
  8
0
 62
4
 10
-4.16025282E+01
 20
-2.72297140E+02
  0
VERTEX
  8
0
 62
4
 10
-4.14016399E+01
 20
-2.72504006E+02
  0
VERTEX
  8
0
 62
4
 10
-4.11824234E+01
 20
-2.72693504E+02
  0
VERTEX
  8
0
 62
4
 10
-4.09465517E+01
 20
-2.72864189E+02
  0
VERTEX
  8
0
 62
4
 10
-4.06958250E+01
 20
-2.73014759E+02
  0
VERTEX
  8
0
 62
4
 10
-4.04321567E+01
 20
-2.73144063E+02
  0
VERTEX
  8
0
 62
4
 10
-4.01575590E+01
 20
-2.73251116E+02
  0
VERTEX
  8
0
 62
4
 10
-3.98741276E+01
 20
-2.73335100E+02
  0
VERTEX
  8
0
 62
4
 10
-3.95840256E+01
 20
-2.73395375E+02
  0
VERTEX
  8
0
 62
4
 10
-3.92894670E+01
 20
-2.73431480E+02
  0
VERTEX
  8
0
 62
4
 10
-3.89926997E+01
 20
-2.73443140E+02
  0
VERTEX
  8
0
 62
4
 10
-3.86959887E+01
 20
-2.73430265E+02
  0
VERTEX
  8
0
 62
4
 10
-3.84015983E+01
 20
-2.73392955E+02
  0
VERTEX
  8
0
 62
4
 10
-3.81117752E+01
 20
-2.73331493E+02
  0
VERTEX
  8
0
 62
4
 10
-3.78287313E+01
 20
-2.73246350E+02
  0
VERTEX
  8
0
 62
4
 10
-3.75546267E+01
 20
-2.73138174E+02
  0
VERTEX
  8
0
 62
4
 10
-3.72915534E+01
 20
-2.73007791E+02
  0
VERTEX
  8
0
 62
4
 10
-3.70415189E+01
 20
-2.72856197E+02
  0
VERTEX
  8
0
 62
4
 10
-3.68064316E+01
 20
-2.72684548E+02
  0
VERTEX
  8
0
 62
4
 10
-3.65880854E+01
 20
-2.72494154E+02
  0
VERTEX
  8
0
 62
4
 10
-3.63881469E+01
 20
-2.72286468E+02
  0
VERTEX
  8
0
 62
4
 10
-3.62081418E+01
 20
-2.72063076E+02
  0
VERTEX
  8
0
 62
4
 10
-3.60494440E+01
 20
-2.71825681E+02
  0
VERTEX
  8
0
 62
4
 10
-3.59132645E+01
 20
-2.71576097E+02
  0
VERTEX
  8
0
 62
4
 10
-3.58006427E+01
 20
-2.71316227E+02
  0
VERTEX
  8
0
 62
4
 10
-3.57124380E+01
 20
-2.71048055E+02
  0
VERTEX
  8
0
 62
4
 10
-3.56493236E+01
 20
-2.70773628E+02
  0
VERTEX
  8
0
 62
4
 10
-3.56117812E+01
 20
-2.70495039E+02
  0
VERTEX
  8
0
 62
4
 10
-3.56000972E+01
 20
-2.70214415E+02
  0
VERTEX
  8
0
 62
4
 10
-3.56143609E+01
 20
-2.69933898E+02
  0
SEQEND
  8
0
  0
LINE
  8
0
  6
CENTER
 62
6
 10
-3.90000554E+01
 20
-2.75651769E+02
 11
-3.90000784E+01
 21
-2.62851769E+02
  0
LINE
  8
0
  6
CENTER
 62
6
 10
-4.54000669E+01
 20
-2.69251780E+02
 11
-3.26000669E+01
 21
-2.69251757E+02
  0
LINE
  8
0
 62
4
 10
-4.65001442E+01
 20
-2.37344824E+02
 11
-3.15001442E+01
 21
-2.37344797E+02
  0
LINE
  8
0
 62
4
 10
-4.85001029E+01
 20
-2.60331656E+02
 11
-2.95001029E+01
 21
-2.60331622E+02
  0
LINE
  8
0
 62
4
 10
-5.10000776E+01
 20
-2.65476164E+02
 11
-5.10000561E+01
 21
-2.77482558E+02
  0
LINE
  8
0
 62
4
 10
-4.85001029E+01
 20
-2.60331656E+02
 11
-4.85000964E+01
 21
-2.63976140E+02
  0
LINE
  8
0
 62
4
 10
-3.15001442E+01
 20
-2.37344797E+02
 11
-3.15001029E+01
 21
-2.60331625E+02
  0
LINE
  8
0
 62
4
 10
-4.65001442E+01
 20
-2.37344797E+02
 11
-4.65001029E+01
 21
-2.60331652E+02
  0
LINE
  8
0
 62
4
 10
-2.95001029E+01
 20
-2.60331622E+02
 11
-2.95000964E+01
 21
-2.63976126E+02
  0
LINE
  8
0
 62
4
 10
-4.65001034E+01
 20
-2.60037270E+02
 11
-3.15001034E+01
 21
-2.60037243E+02
  0
LINE
  8
0
 62
4
 10
-1.20000776E+01
 20
-2.65476094E+02
 11
-1.20000561E+01
 21
-2.77482488E+02
  0
LINE
  8
0
 62
4
 10
-4.80000462E+01
 20
-2.82231881E+02
 11
-1.50000462E+01
 21
-2.82231822E+02
  0
LINE
  8
0
 62
4
 10
-5.10000561E+01
 20
-2.77482558E+02
 11
-1.20000561E+01
 21
-2.77482488E+02
  0
LINE
  8
0
 62
4
 10
-5.10000586E+01
 20
-2.76064280E+02
 11
-1.20000586E+01
 21
-2.76064210E+02
  0
LINE
  8
0
 62
4
 10
-4.95000803E+01
 20
-2.63976162E+02
 11
-1.35000803E+01
 21
-2.63976097E+02
  0
LINE
  8
0
 62
4
 10
-6.60001398E+01
 20
-2.39797782E+02
 11
-6.10001398E+01
 21
-2.39797773E+02
  0
LINE
  8
0
 62
4
 10
-6.60001270E+01
 20
-2.46889172E+02
 11
-6.10001270E+01
 21
-2.46889163E+02
  0
LINE
  8
0
 62
4
 10
-6.60001168E+01
 20
-2.52560514E+02
 11
-6.10001168E+01
 21
-2.52560505E+02
  0
LINE
  8
0
 62
4
 10
-5.55001091E+01
 20
-2.52453348E+02
 11
-4.70001091E+01
 21
-2.52453333E+02
  0
LINE
  8
0
 62
4
 10
-4.65001422E+01
 20
-2.38453338E+02
 11
-5.55001422E+01
 21
-2.38453354E+02
  0
LINE
  8
0
 62
4
 10
-5.60001413E+01
 20
-2.38953355E+02
 11
-5.60001179E+01
 21
-2.51953355E+02
  0
LINE
  8
0
 62
4
 10
-6.60001423E+01
 20
-2.38358825E+02
 11
-6.60001168E+01
 21
-2.52560514E+02
  0
LINE
  8
0
 62
4
 10
-6.10001423E+01
 20
-2.38358825E+02
 11
-6.10001168E+01
 21
-2.52560514E+02
  0
LINE
  8
0
 62
4
 10
-6.10001408E+01
 20
-2.39203347E+02
 11
-5.60001408E+01
 21
-2.39203338E+02
  0
LINE
  8
0
 62
4
 10
-6.10001184E+01
 20
-2.51703347E+02
 11
-5.60001184E+01
 21
-2.51703338E+02
  0
LINE
  8
0
 62
4
 10
-5.95001408E+01
 20
-2.39203344E+02
 11
-5.95001184E+01
 21
-2.51703344E+02
  0
LINE
  8
0
 62
4
 10
-5.95001399E+01
 20
-2.39703344E+02
 11
-5.60001399E+01
 21
-2.39703338E+02
  0
LINE
  8
0
 62
4
 10
-5.95001193E+01
 20
-2.51203344E+02
 11
-5.60001193E+01
 21
-2.51203338E+02
  0
ARC
  8
0
 62
4
 10
-5.55026162E+01
 20
-2.38950879E+02
 40
4.97531232E-01
 50
8.97150889E+01
 51
1.80285117E+02
  0
ARC
  8
0
 62
4
 10
-4.69976332E+01
 20
-2.52950858E+02
 40
4.97531232E-01
 50
3.59715089E+02
 51
9.02851166E+01
  0
ARC
  8
0
 62
4
 10
-1.34975986E+01
 20
-2.65473618E+02
 40
1.49752302E+00
 50
3.59905254E+02
 51
9.00949513E+01
  0
ARC
  8
0
 62
4
 10
-5.54976227E+01
 20
-2.51950861E+02
 40
5.02493390E-01
 50
1.80283706E+02
 51
2.69716500E+02
  0
ARC
  8
0
 62
4
 10
-4.95025567E+01
 20
-2.65473683E+02
 40
1.49752302E+00
 50
8.99052542E+01
 51
1.80094952E+02
  0
LINE
  8
0
 62
6
 10
-3.72851289E+01
 20
-2.71351752E+02
 11
-4.07150035E+01
 21
-2.67921882E+02
  0
LINE
  8
0
 62
6
 10
-4.07150010E+01
 20
-2.71351755E+02
 11
-3.72851313E+01
 21
-2.67921880E+02
  0
ARC
  8
0
 62
4
 10
-3.69063028E+02
 20
-2.45453331E+02
 40
7.00000000E+00
 50
7.79182752E+01
 51
1.00872928E+02
  0
ARC
  8
0
 62
4
 10
-3.69063028E+02
 20
-2.45453331E+02
 40
7.00000000E+00
 50
1.17236957E+02
 51
1.40081725E+02
  0
ARC
  8
0
 62
4
 10
-3.51778623E+02
 20
-2.66471152E+02
 40
2.49501993E+00
 50
1.88855230E+01
 51
1.09114477E+02
  0
ARC
  8
0
 62
4
 10
-3.69746546E+02
 20
-2.72663294E+02
 40
2.50001642E+00
 50
1.09000376E+02
 51
1.98999623E+02
  0
CIRCLE
  8
0
 62
4
 10
-3.69063028E+02
 20
-2.45453331E+02
 40
3.75000000E+00
  0
ARC
  8
0
 62
4
 10
-3.46457229E+02
 20
-2.67390322E+02
 40
9.96609194E-01
 50
3.15516728E+01
 51
1.09414475E+02
  0
ARC
  8
0
 62
4
 10
-3.55651182E+02
 20
-2.73076392E+02
 40
1.18067922E+01
 50
6.08754926E+00
 51
3.17195580E+01
  0
ARC
  8
0
 62
4
 10
-3.44898887E+02
 20
-2.71931064E+02
 40
1.00271607E+00
 50
2.88866852E+02
 51
6.16700057E+00
  0
LINE
  8
0
 62
4
 10
-3.48619590E+02
 20
-2.66446303E+02
 11
-3.46015045E+02
 21
-2.74010451E+02
  0
LINE
  8
0
  6
CENTER
 62
6
 10
-3.77507725E+02
 20
-2.80623768E+02
 11
-3.41644206E+02
 21
-2.68274968E+02
  0
LINE
  8
0
 62
4
 10
-3.44574638E+02
 20
-2.72879907E+02
 11
-3.46210385E+02
 21
-2.73443140E+02
  0
LINE
  8
0
 62
4
 10
-3.48424249E+02
 20
-2.67013614E+02
 11
-3.46788502E+02
 21
-2.66450381E+02
  0
LINE
  8
0
 62
4
 10
-3.46487804E+02
 20
-2.74173235E+02
 11
-3.46015045E+02
 21
-2.74010451E+02
  0
LINE
  8
0
 62
4
 10
-3.49092349E+02
 20
-2.66609087E+02
 11
-3.48619590E+02
 21
-2.66446303E+02
  0
LINE
  8
0
 62
4
 10
-3.68551733E+02
 20
-2.38936818E+02
 11
-3.63928148E+02
 21
-2.37344790E+02
  0
LINE
  8
0
 62
4
 10
-3.71511145E+02
 20
-2.38358818E+02
 11
-3.64141138E+02
 21
-2.39797775E+02
  0
LINE
  8
0
 62
4
 10
-3.73991118E+02
 20
-2.51121550E+02
 11
-3.66621111E+02
 21
-2.52560507E+02
  0
LINE
  8
0
 62
4
 10
-3.64141138E+02
 20
-2.39797775E+02
 11
-3.61699377E+02
 21
-2.46889164E+02
  0
LINE
  8
0
 62
4
 10
-3.76432879E+02
 20
-2.44030161E+02
 11
-3.73991118E+02
 21
-2.51121550E+02
  0
LINE
  8
0
 62
4
 10
-3.76432879E+02
 20
-2.44030161E+02
 11
-3.71511145E+02
 21
-2.38358818E+02
  0
LINE
  8
0
 62
4
 10
-3.66621111E+02
 20
-2.52560507E+02
 11
-3.61699377E+02
 21
-2.46889164E+02
  0
LINE
  8
0
 62
4
 10
-3.57082478E+02
 20
-2.74119602E+02
 11
-3.56268558E+02
 21
-2.76483398E+02
  0
LINE
  8
0
 62
4
 10
-3.60864552E+02
 20
-2.75421874E+02
 11
-3.60050632E+02
 21
-2.77785671E+02
  0
LINE
  8
0
 62
4
 10
-3.60050632E+02
 20
-2.77785671E+02
 11
-3.56268558E+02
 21
-2.76483398E+02
  0
LINE
  8
0
 62
4
 10
-3.60864552E+02
 20
-2.75421874E+02
 11
-3.57082478E+02
 21
-2.74119602E+02
  0
LINE
  8
0
 62
4
 10
-3.63075184E+02
 20
-2.81999969E+02
 11
-3.45836667E+02
 21
-2.76064272E+02
  0
LINE
  8
0
 62
4
 10
-3.45348315E+02
 20
-2.77482550E+02
 11
-3.46810778E+02
 21
-2.81999969E+02
  0
LINE
  8
0
 62
4
 10
-3.72110363E+02
 20
-2.73477204E+02
 11
-3.69175739E+02
 21
-2.81999969E+02
  0
LINE
  8
0
 62
4
 10
-3.49417917E+02
 20
-2.65663568E+02
 11
-3.45348315E+02
 21
-2.77482550E+02
  0
LINE
  8
0
 62
4
 10
-3.58467853E+02
 20
-2.81999969E+02
 11
-3.45348315E+02
 21
-2.77482550E+02
  0
LINE
  8
0
 62
4
 10
-3.70560487E+02
 20
-2.70299487E+02
 11
-3.52595634E+02
 21
-2.64113692E+02
  0
LINE
  8
0
 62
4
 10
-3.71862760E+02
 20
-2.66517413E+02
 11
-3.70560487E+02
 21
-2.70299487E+02
  0
LINE
  8
0
 62
4
 10
-3.53897907E+02
 20
-2.60331618E+02
 11
-3.52595634E+02
 21
-2.64113692E+02
  0
LINE
  8
0
 62
4
 10
-3.70297291E+02
 20
-2.64920758E+02
 11
-3.56114512E+02
 21
-2.60037235E+02
  0
LINE
  8
0
 62
4
 10
-3.71862760E+02
 20
-2.66517413E+02
 11
-3.53897907E+02
 21
-2.60331618E+02
  0
LINE
  8
0
 62
4
 10
-3.78110926E+02
 20
-2.42228312E+02
 11
-3.69971722E+02
 21
-2.65866276E+02
  0
LINE
  8
0
 62
4
 10
-3.63928148E+02
 20
-2.37344790E+02
 11
-3.55788944E+02
 21
-2.60982754E+02
  0
LINE
  8
0
 62
4
 10
-3.78110926E+02
 20
-2.42228312E+02
 11
-3.73487340E+02
 21
-2.40636284E+02
  0
LINE
  8
0
 62
4
 10
-3.77148178E+02
 20
-2.75740673E+02
 11
-3.80197556E+02
 21
-2.81999969E+02
  0
LINE
  8
0
 62
4
 10
-3.69218291E+02
 20
-2.81999969E+02
 11
-3.69180250E+02
 21
-2.81986871E+02
  0
LINE
  8
0
 62
4
 10
-3.77148178E+02
 20
-2.75740673E+02
 11
-3.71947579E+02
 21
-2.73949963E+02
  0
ARC
  8
0
 62
4
 10
1.62432267E+02
 20
-2.76549240E+02
 40
9.97523260E-01
 50
2.61759467E+01
 51
7.08169962E+01
  0
LINE
  8
0
 62
4
 10
1.63327488E+02
 20
-2.76109203E+02
 11
1.66197327E+02
 21
-2.81999969E+02
  0
ARC
  8
0
 62
4
 10
1.55746317E+02
 20
-2.72663294E+02
 40
2.50001642E+00
 50
3.41000376E+02
 51
7.09996236E+01
  0
LINE
  8
0
 62
4
 10
1.57862531E+02
 20
-2.66517413E+02
 11
1.56560258E+02
 21
-2.70299487E+02
  0
LINE
  8
0
 62
4
 10
1.50872328E+02
 20
-2.67283355E+02
 11
1.50887147E+02
 21
-2.68346078E+02
  0
LINE
  8
0
 62
4
 10
1.62760040E+02
 20
-2.75607105E+02
 11
1.57947350E+02
 21
-2.73949963E+02
  0
LINE
  8
0
 62
4
 10
1.58110134E+02
 20
-2.73477204E+02
 11
1.55175511E+02
 21
-2.81999969E+02
  0
LINE
  8
0
 62
4
 10
1.43082249E+02
 20
-2.74119602E+02
 11
1.42268329E+02
 21
-2.76483398E+02
  0
LINE
  8
0
 62
4
 10
1.46864324E+02
 20
-2.75421874E+02
 11
1.43082249E+02
 21
-2.74119602E+02
  0
LINE
  8
0
 62
4
 10
1.46050403E+02
 20
-2.77785671E+02
 11
1.42268329E+02
 21
-2.76483398E+02
  0
LINE
  8
0
 62
4
 10
1.46864324E+02
 20
-2.75421874E+02
 11
1.46050403E+02
 21
-2.77785671E+02
  0
LINE
  8
0
 62
4
 10
1.44467624E+02
 20
-2.81999969E+02
 11
1.31348086E+02
 21
-2.77482550E+02
  0
LINE
  8
0
 62
4
 10
1.31348086E+02
 20
-2.77482550E+02
 11
1.32810549E+02
 21
-2.81999969E+02
  0
LINE
  8
0
 62
4
 10
1.49074955E+02
 20
-2.81999969E+02
 11
1.31836439E+02
 21
-2.76064272E+02
  0
LINE
  8
0
 62
4
 10
1.32487575E+02
 20
-2.74173235E+02
 11
1.32014816E+02
 21
-2.74010451E+02
  0
ARC
  8
0
 62
4
 10
1.30898658E+02
 20
-2.71931064E+02
 40
1.00271607E+00
 50
1.73833000E+02
 51
2.51133148E+02
  0
LINE
  8
0
 62
4
 10
1.30574409E+02
 20
-2.72879907E+02
 11
1.32210157E+02
 21
-2.73443140E+02
  0
ARC
  8
0
 62
4
 10
1.37778394E+02
 20
-2.66471152E+02
 40
2.49501993E+00
 50
7.08855231E+01
 51
1.61114477E+02
  0
ARC
  8
0
 62
4
 10
1.32457001E+02
 20
-2.67390322E+02
 40
9.96609194E-01
 50
7.05855253E+01
 51
1.48448327E+02
  0
LINE
  8
0
 62
4
 10
1.34424020E+02
 20
-2.67013614E+02
 11
1.32788273E+02
 21
-2.66450381E+02
  0
LINE
  8
0
 62
4
 10
1.35092120E+02
 20
-2.66609087E+02
 11
1.34619361E+02
 21
-2.66446303E+02
  0
LINE
  8
0
 62
4
 10
1.39897678E+02
 20
-2.60331618E+02
 11
1.38595405E+02
 21
-2.64113692E+02
  0
LINE
  8
0
 62
4
 10
1.44268517E+02
 20
-2.66067101E+02
 11
1.44934471E+02
 21
-2.65238787E+02
  0
LINE
  8
0
 62
4
 10
1.44934471E+02
 20
-2.65238787E+02
 11
1.50872328E+02
 21
-2.67283355E+02
  0
LINE
  8
0
  6
CENTER
 62
6
 10
1.48600272E+02
 20
-2.64237207E+02
 11
1.47092735E+02
 21
-2.68615412E+02
  0
LINE
  8
0
 62
4
 10
1.57862531E+02
 20
-2.66517413E+02
 11
1.39897678E+02
 21
-2.60331618E+02
  0
LINE
  8
0
 62
4
 10
1.56297062E+02
 20
-2.64920758E+02
 11
1.42114283E+02
 21
-2.60037235E+02
  0
LINE
  8
0
 62
4
 10
1.56560258E+02
 20
-2.70299487E+02
 11
1.38595405E+02
 21
-2.64113692E+02
  0
LINE
  8
0
 62
4
 10
1.35417688E+02
 20
-2.65663568E+02
 11
1.31348086E+02
 21
-2.77482550E+02
  0
LINE
  8
0
  6
CENTER
 62
6
 10
1.63507496E+02
 20
-2.80623768E+02
 11
1.27643977E+02
 21
-2.68274968E+02
  0
LINE
  8
0
 62
4
 10
1.34619361E+02
 20
-2.66446303E+02
 11
1.32014816E+02
 21
-2.74010451E+02
  0
ARC
  8
0
 62
4
 10
1.41638978E+02
 20
-2.73115214E+02
 40
1.18081149E+01
 50
1.48089798E+02
 51
1.73718975E+02
  0
LINE
  8
0
 62
4
 10
1.57510916E+02
 20
-2.38358818E+02
 11
1.56381355E+02
 21
-2.38579359E+02
  0
LINE
  8
0
 62
4
 10
1.58265243E+02
 20
-2.39228034E+02
 11
1.57510916E+02
 21
-2.38358818E+02
  0
LINE
  8
0
 62
4
 10
1.49927919E+02
 20
-2.37344790E+02
 11
1.64110697E+02
 21
-2.42228312E+02
  0
ARC
  8
0
 62
4
 10
1.55067520E+02
 20
-2.45454956E+02
 40
7.00000000E+00
 50
3.99182754E+01
 51
1.02081725E+02
  0
LINE
  8
0
 62
4
 10
1.49927919E+02
 20
-2.37344790E+02
 11
1.41788715E+02
 21
-2.60982754E+02
  0
LINE
  8
0
 62
4
 10
1.64110697E+02
 20
-2.42228312E+02
 11
1.55971494E+02
 21
-2.65866276E+02
  0
LINE
  8
0
 62
6
 10
1.70644218E+02
 20
-2.99785708E+02
 11
1.70499977E+02
 21
-2.99738841E+02
  0
LINE
  8
0
 62
4
 10
1.47588542E+02
 20
-2.81999969E+02
 11
1.47389931E+02
 21
-2.81610173E+02
  0
LINE
  8
0
  6
CENTER
 62
6
 10
-3.90001233E+01
 20
-1.00612871E+02
 11
-3.90001233E+01
 21
-1.50599969E+02
  0
POLYLINE
  8
0
 62
4
 66
1
  0
VERTEX
  8
0
 62
4
 10
-3.56001233E+01
 20
-1.41157748E+02
  0
VERTEX
  8
0
 62
4
 10
-3.56130613E+01
 20
-1.41031706E+02
  0
VERTEX
  8
0
 62
4
 10
-3.56517769E+01
 20
-1.40906624E+02
  0
VERTEX
  8
0
 62
4
 10
-3.57159755E+01
 20
-1.40783453E+02
  0
VERTEX
  8
0
 62
4
 10
-3.58051684E+01
 20
-1.40663130E+02
  0
VERTEX
  8
0
 62
4
 10
-3.59186768E+01
 20
-1.40546572E+02
  0
VERTEX
  8
0
 62
4
 10
-3.60556369E+01
 20
-1.40434665E+02
  0
VERTEX
  8
0
 62
4
 10
-3.62150063E+01
 20
-1.40328261E+02
  0
VERTEX
  8
0
 62
4
 10
-3.63955722E+01
 20
-1.40228171E+02
  0
VERTEX
  8
0
 62
4
 10
-3.65959602E+01
 20
-1.40135154E+02
  0
VERTEX
  8
0
 62
4
 10
-3.68146454E+01
 20
-1.40049921E+02
  0
VERTEX
  8
0
 62
4
 10
-3.70499634E+01
 20
-1.39973118E+02
  0
VERTEX
  8
0
 62
4
 10
-3.73001233E+01
 20
-1.39905332E+02
  0
VERTEX
  8
0
 62
4
 10
-3.75632212E+01
 20
-1.39847077E+02
  0
VERTEX
  8
0
 62
4
 10
-3.78372548E+01
 20
-1.39798797E+02
  0
VERTEX
  8
0
 62
4
 10
-3.81201385E+01
 20
-1.39760859E+02
  0
VERTEX
  8
0
 62
4
 10
-3.84097195E+01
 20
-1.39733553E+02
  0
VERTEX
  8
0
 62
4
 10
-3.87037938E+01
 20
-1.39717085E+02
  0
VERTEX
  8
0
 62
4
 10
-3.90001233E+01
 20
-1.39711582E+02
  0
VERTEX
  8
0
 62
4
 10
-3.92964528E+01
 20
-1.39717085E+02
  0
VERTEX
  8
0
 62
4
 10
-3.95905271E+01
 20
-1.39733553E+02
  0
VERTEX
  8
0
 62
4
 10
-3.98801081E+01
 20
-1.39760859E+02
  0
VERTEX
  8
0
 62
4
 10
-4.01629918E+01
 20
-1.39798797E+02
  0
VERTEX
  8
0
 62
4
 10
-4.04370254E+01
 20
-1.39847077E+02
  0
VERTEX
  8
0
 62
4
 10
-4.07001233E+01
 20
-1.39905332E+02
  0
VERTEX
  8
0
 62
4
 10
-4.09502832E+01
 20
-1.39973118E+02
  0
VERTEX
  8
0
 62
4
 10
-4.11856012E+01
 20
-1.40049921E+02
  0
VERTEX
  8
0
 62
4
 10
-4.14042864E+01
 20
-1.40135154E+02
  0
VERTEX
  8
0
 62
4
 10
-4.16046744E+01
 20
-1.40228171E+02
  0
VERTEX
  8
0
 62
4
 10
-4.17852403E+01
 20
-1.40328261E+02
  0
VERTEX
  8
0
 62
4
 10
-4.19446097E+01
 20
-1.40434665E+02
  0
VERTEX
  8
0
 62
4
 10
-4.20815698E+01
 20
-1.40546572E+02
  0
VERTEX
  8
0
 62
4
 10
-4.21950782E+01
 20
-1.40663130E+02
  0
VERTEX
  8
0
 62
4
 10
-4.22842711E+01
 20
-1.40783453E+02
  0
VERTEX
  8
0
 62
4
 10
-4.23484697E+01
 20
-1.40906624E+02
  0
VERTEX
  8
0
 62
4
 10
-4.23871853E+01
 20
-1.41031706E+02
  0
VERTEX
  8
0
 62
4
 10
-4.24001233E+01
 20
-1.41157748E+02
  0
VERTEX
  8
0
 62
4
 10
-4.23871853E+01
 20
-1.41283790E+02
  0
VERTEX
  8
0
 62
4
 10
-4.23484697E+01
 20
-1.41408872E+02
  0
VERTEX
  8
0
 62
4
 10
-4.22842711E+01
 20
-1.41532043E+02
  0
VERTEX
  8
0
 62
4
 10
-4.21950782E+01
 20
-1.41652366E+02
  0
VERTEX
  8
0
 62
4
 10
-4.20815698E+01
 20
-1.41768924E+02
  0
VERTEX
  8
0
 62
4
 10
-4.19446097E+01
 20
-1.41880831E+02
  0
VERTEX
  8
0
 62
4
 10
-4.17852402E+01
 20
-1.41987235E+02
  0
VERTEX
  8
0
 62
4
 10
-4.16046744E+01
 20
-1.42087325E+02
  0
VERTEX
  8
0
 62
4
 10
-4.14042864E+01
 20
-1.42180342E+02
  0
VERTEX
  8
0
 62
4
 10
-4.11856012E+01
 20
-1.42265575E+02
  0
VERTEX
  8
0
 62
4
 10
-4.09502832E+01
 20
-1.42342378E+02
  0
VERTEX
  8
0
 62
4
 10
-4.07001233E+01
 20
-1.42410164E+02
  0
VERTEX
  8
0
 62
4
 10
-4.04370254E+01
 20
-1.42468419E+02
  0
VERTEX
  8
0
 62
4
 10
-4.01629918E+01
 20
-1.42516699E+02
  0
VERTEX
  8
0
 62
4
 10
-3.98801080E+01
 20
-1.42554637E+02
  0
VERTEX
  8
0
 62
4
 10
-3.95905271E+01
 20
-1.42581943E+02
  0
VERTEX
  8
0
 62
4
 10
-3.92964528E+01
 20
-1.42598411E+02
  0
VERTEX
  8
0
 62
4
 10
-3.90001233E+01
 20
-1.42603914E+02
  0
VERTEX
  8
0
 62
4
 10
-3.87037938E+01
 20
-1.42598411E+02
  0
VERTEX
  8
0
 62
4
 10
-3.84097195E+01
 20
-1.42581943E+02
  0
VERTEX
  8
0
 62
4
 10
-3.81201385E+01
 20
-1.42554637E+02
  0
VERTEX
  8
0
 62
4
 10
-3.78372548E+01
 20
-1.42516699E+02
  0
VERTEX
  8
0
 62
4
 10
-3.75632212E+01
 20
-1.42468419E+02
  0
VERTEX
  8
0
 62
4
 10
-3.73001233E+01
 20
-1.42410164E+02
  0
VERTEX
  8
0
 62
4
 10
-3.70499634E+01
 20
-1.42342378E+02
  0
VERTEX
  8
0
 62
4
 10
-3.68146454E+01
 20
-1.42265575E+02
  0
VERTEX
  8
0
 62
4
 10
-3.65959602E+01
 20
-1.42180342E+02
  0
VERTEX
  8
0
 62
4
 10
-3.63955722E+01
 20
-1.42087325E+02
  0
VERTEX
  8
0
 62
4
 10
-3.62150063E+01
 20
-1.41987235E+02
  0
VERTEX
  8
0
 62
4
 10
-3.60556369E+01
 20
-1.41880831E+02
  0
VERTEX
  8
0
 62
4
 10
-3.59186768E+01
 20
-1.41768924E+02
  0
VERTEX
  8
0
 62
4
 10
-3.58051684E+01
 20
-1.41652366E+02
  0
VERTEX
  8
0
 62
4
 10
-3.57159755E+01
 20
-1.41532043E+02
  0
VERTEX
  8
0
 62
4
 10
-3.56517769E+01
 20
-1.41408872E+02
  0
VERTEX
  8
0
 62
4
 10
-3.56130613E+01
 20
-1.41283790E+02
  0
VERTEX
  8
0
 62
4
 10
-3.56001233E+01
 20
-1.41157748E+02
  0
SEQEND
  8
0
  0
ARC
  8
0
 62
4
 10
-4.95026214E+01
 20
-1.34770744E+02
 40
1.49750400E+00
 50
1.79904421E+02
 51
2.70095579E+02
  0
ARC
  8
0
 62
4
 10
-1.34976214E+01
 20
-1.34770748E+02
 40
1.49750021E+00
 50
2.69904276E+02
 51
9.57242462E-02
  0
LINE
  8
0
 62
4
 10
-4.85001233E+01
 20
-1.33904450E+02
 11
-2.95001233E+01
 21
-1.33904450E+02
  0
POLYLINE
  8
0
 62
4
 66
1
  0
VERTEX
  8
0
 62
4
 10
-1.98601233E+01
 20
-1.24596480E+02
  0
VERTEX
  8
0
 62
4
 10
-1.98720719E+01
 20
-1.24337721E+02
  0
VERTEX
  8
0
 62
4
 10
-1.99078270E+01
 20
-1.24080931E+02
  0
VERTEX
  8
0
 62
4
 10
-1.99671162E+01
 20
-1.23828065E+02
  0
VERTEX
  8
0
 62
4
 10
-2.00494885E+01
 20
-1.23581047E+02
  0
VERTEX
  8
0
 62
4
 10
-2.01543168E+01
 20
-1.23341757E+02
  0
VERTEX
  8
0
 62
4
 10
-2.02808035E+01
 20
-1.23112016E+02
  0
VERTEX
  8
0
 62
4
 10
-2.04279859E+01
 20
-1.22893573E+02
  0
VERTEX
  8
0
 62
4
 10
-2.05947437E+01
 20
-1.22688090E+02
  0
VERTEX
  8
0
 62
4
 10
-2.07798080E+01
 20
-1.22497131E+02
  0
VERTEX
  8
0
 62
4
 10
-2.09817702E+01
 20
-1.22322149E+02
  0
VERTEX
  8
0
 62
4
 10
-2.11990933E+01
 20
-1.22164476E+02
  0
VERTEX
  8
0
 62
4
 10
-2.14301233E+01
 20
-1.22025313E+02
  0
VERTEX
  8
0
 62
4
 10
-2.16731020E+01
 20
-1.21905717E+02
  0
VERTEX
  8
0
 62
4
 10
-2.19261801E+01
 20
-1.21806600E+02
  0
VERTEX
  8
0
 62
4
 10
-2.21874315E+01
 20
-1.21728715E+02
  0
VERTEX
  8
0
 62
4
 10
-2.24548680E+01
 20
-1.21672656E+02
  0
VERTEX
  8
0
 62
4
 10
-2.27264543E+01
 20
-1.21638849E+02
  0
VERTEX
  8
0
 62
4
 10
-2.30001233E+01
 20
-1.21627552E+02
  0
VERTEX
  8
0
 62
4
 10
-2.32737923E+01
 20
-1.21638849E+02
  0
VERTEX
  8
0
 62
4
 10
-2.35453786E+01
 20
-1.21672656E+02
  0
VERTEX
  8
0
 62
4
 10
-2.38128151E+01
 20
-1.21728715E+02
  0
VERTEX
  8
0
 62
4
 10
-2.40740666E+01
 20
-1.21806600E+02
  0
VERTEX
  8
0
 62
4
 10
-2.43271446E+01
 20
-1.21905717E+02
  0
VERTEX
  8
0
 62
4
 10
-2.45701233E+01
 20
-1.22025313E+02
  0
VERTEX
  8
0
 62
4
 10
-2.48011533E+01
 20
-1.22164476E+02
  0
VERTEX
  8
0
 62
4
 10
-2.50184764E+01
 20
-1.22322149E+02
  0
VERTEX
  8
0
 62
4
 10
-2.52204386E+01
 20
-1.22497131E+02
  0
VERTEX
  8
0
 62
4
 10
-2.54055029E+01
 20
-1.22688090E+02
  0
VERTEX
  8
0
 62
4
 10
-2.55722607E+01
 20
-1.22893573E+02
  0
VERTEX
  8
0
 62
4
 10
-2.57194431E+01
 20
-1.23112016E+02
  0
VERTEX
  8
0
 62
4
 10
-2.58459298E+01
 20
-1.23341757E+02
  0
VERTEX
  8
0
 62
4
 10
-2.59507581E+01
 20
-1.23581047E+02
  0
VERTEX
  8
0
 62
4
 10
-2.60331304E+01
 20
-1.23828065E+02
  0
VERTEX
  8
0
 62
4
 10
-2.60924196E+01
 20
-1.24080931E+02
  0
VERTEX
  8
0
 62
4
 10
-2.61281747E+01
 20
-1.24337721E+02
  0
VERTEX
  8
0
 62
4
 10
-2.61401233E+01
 20
-1.24596480E+02
  0
VERTEX
  8
0
 62
4
 10
-2.61281747E+01
 20
-1.24855239E+02
  0
VERTEX
  8
0
 62
4
 10
-2.60924196E+01
 20
-1.25112029E+02
  0
VERTEX
  8
0
 62
4
 10
-2.60331304E+01
 20
-1.25364895E+02
  0
VERTEX
  8
0
 62
4
 10
-2.59507581E+01
 20
-1.25611913E+02
  0
VERTEX
  8
0
 62
4
 10
-2.58459297E+01
 20
-1.25851203E+02
  0
VERTEX
  8
0
 62
4
 10
-2.57194431E+01
 20
-1.26080944E+02
  0
VERTEX
  8
0
 62
4
 10
-2.55722607E+01
 20
-1.26299387E+02
  0
VERTEX
  8
0
 62
4
 10
-2.54055028E+01
 20
-1.26504870E+02
  0
VERTEX
  8
0
 62
4
 10
-2.52204386E+01
 20
-1.26695829E+02
  0
VERTEX
  8
0
 62
4
 10
-2.50184764E+01
 20
-1.26870811E+02
  0
VERTEX
  8
0
 62
4
 10
-2.48011533E+01
 20
-1.27028484E+02
  0
VERTEX
  8
0
 62
4
 10
-2.45701233E+01
 20
-1.27167647E+02
  0
VERTEX
  8
0
 62
4
 10
-2.43271446E+01
 20
-1.27287243E+02
  0
VERTEX
  8
0
 62
4
 10
-2.40740665E+01
 20
-1.27386360E+02
  0
VERTEX
  8
0
 62
4
 10
-2.38128151E+01
 20
-1.27464245E+02
  0
VERTEX
  8
0
 62
4
 10
-2.35453786E+01
 20
-1.27520304E+02
  0
VERTEX
  8
0
 62
4
 10
-2.32737923E+01
 20
-1.27554111E+02
  0
VERTEX
  8
0
 62
4
 10
-2.30001233E+01
 20
-1.27565408E+02
  0
VERTEX
  8
0
 62
4
 10
-2.27264543E+01
 20
-1.27554111E+02
  0
VERTEX
  8
0
 62
4
 10
-2.24548680E+01
 20
-1.27520304E+02
  0
VERTEX
  8
0
 62
4
 10
-2.21874315E+01
 20
-1.27464245E+02
  0
VERTEX
  8
0
 62
4
 10
-2.19261800E+01
 20
-1.27386360E+02
  0
VERTEX
  8
0
 62
4
 10
-2.16731020E+01
 20
-1.27287243E+02
  0
VERTEX
  8
0
 62
4
 10
-2.14301233E+01
 20
-1.27167647E+02
  0
VERTEX
  8
0
 62
4
 10
-2.11990933E+01
 20
-1.27028484E+02
  0
VERTEX
  8
0
 62
4
 10
-2.09817702E+01
 20
-1.26870811E+02
  0
VERTEX
  8
0
 62
4
 10
-2.07798080E+01
 20
-1.26695829E+02
  0
VERTEX
  8
0
 62
4
 10
-2.05947437E+01
 20
-1.26504870E+02
  0
VERTEX
  8
0
 62
4
 10
-2.04279859E+01
 20
-1.26299387E+02
  0
VERTEX
  8
0
 62
4
 10
-2.02808035E+01
 20
-1.26080944E+02
  0
VERTEX
  8
0
 62
4
 10
-2.01543168E+01
 20
-1.25851203E+02
  0
VERTEX
  8
0
 62
4
 10
-2.00494885E+01
 20
-1.25611913E+02
  0
VERTEX
  8
0
 62
4
 10
-1.99671162E+01
 20
-1.25364895E+02
  0
VERTEX
  8
0
 62
4
 10
-1.99078270E+01
 20
-1.25112029E+02
  0
VERTEX
  8
0
 62
4
 10
-1.98720719E+01
 20
-1.24855239E+02
  0
VERTEX
  8
0
 62
4
 10
-1.98601233E+01
 20
-1.24596480E+02
  0
SEQEND
  8
0
  0
POLYLINE
  8
0
 62
4
 66
1
  0
VERTEX
  8
0
 62
4
 10
-1.95001233E+01
 20
-1.24922048E+02
  0
VERTEX
  8
0
 62
4
 10
-1.95134419E+01
 20
-1.24633622E+02
  0
VERTEX
  8
0
 62
4
 10
-1.95532962E+01
 20
-1.24347391E+02
  0
VERTEX
  8
0
 62
4
 10
-1.96193829E+01
 20
-1.24065534E+02
  0
VERTEX
  8
0
 62
4
 10
-1.97111991E+01
 20
-1.23790196E+02
  0
VERTEX
  8
0
 62
4
 10
-1.98280460E+01
 20
-1.23523471E+02
  0
VERTEX
  8
0
 62
4
 10
-1.99690344E+01
 20
-1.23267390E+02
  0
VERTEX
  8
0
 62
4
 10
-2.01330911E+01
 20
-1.23023903E+02
  0
VERTEX
  8
0
 62
4
 10
-2.03189677E+01
 20
-1.22794861E+02
  0
VERTEX
  8
0
 62
4
 10
-2.05252496E+01
 20
-1.22582009E+02
  0
VERTEX
  8
0
 62
4
 10
-2.07503667E+01
 20
-1.22386966E+02
  0
VERTEX
  8
0
 62
4
 10
-2.09926058E+01
 20
-1.22211216E+02
  0
VERTEX
  8
0
 62
4
 10
-2.12501233E+01
 20
-1.22056097E+02
  0
VERTEX
  8
0
 62
4
 10
-2.15209594E+01
 20
-1.21922790E+02
  0
VERTEX
  8
0
 62
4
 10
-2.18030528E+01
 20
-1.21812309E+02
  0
VERTEX
  8
0
 62
4
 10
-2.20942566E+01
 20
-1.21725495E+02
  0
VERTEX
  8
0
 62
4
 10
-2.23923547E+01
 20
-1.21663009E+02
  0
VERTEX
  8
0
 62
4
 10
-2.26950782E+01
 20
-1.21625326E+02
  0
VERTEX
  8
0
 62
4
 10
-2.30001233E+01
 20
-1.21612733E+02
  0
VERTEX
  8
0
 62
4
 10
-2.33051684E+01
 20
-1.21625326E+02
  0
VERTEX
  8
0
 62
4
 10
-2.36078919E+01
 20
-1.21663009E+02
  0
VERTEX
  8
0
 62
4
 10
-2.39059900E+01
 20
-1.21725495E+02
  0
VERTEX
  8
0
 62
4
 10
-2.41971938E+01
 20
-1.21812309E+02
  0
VERTEX
  8
0
 62
4
 10
-2.44792872E+01
 20
-1.21922790E+02
  0
VERTEX
  8
0
 62
4
 10
-2.47501233E+01
 20
-1.22056097E+02
  0
VERTEX
  8
0
 62
4
 10
-2.50076408E+01
 20
-1.22211216E+02
  0
VERTEX
  8
0
 62
4
 10
-2.52498799E+01
 20
-1.22386966E+02
  0
VERTEX
  8
0
 62
4
 10
-2.54749970E+01
 20
-1.22582009E+02
  0
VERTEX
  8
0
 62
4
 10
-2.56812789E+01
 20
-1.22794861E+02
  0
VERTEX
  8
0
 62
4
 10
-2.58671555E+01
 20
-1.23023903E+02
  0
VERTEX
  8
0
 62
4
 10
-2.60312122E+01
 20
-1.23267390E+02
  0
VERTEX
  8
0
 62
4
 10
-2.61722006E+01
 20
-1.23523471E+02
  0
VERTEX
  8
0
 62
4
 10
-2.62890475E+01
 20
-1.23790196E+02
  0
VERTEX
  8
0
 62
4
 10
-2.63808637E+01
 20
-1.24065534E+02
  0
VERTEX
  8
0
 62
4
 10
-2.64469504E+01
 20
-1.24347391E+02
  0
VERTEX
  8
0
 62
4
 10
-2.64868047E+01
 20
-1.24633622E+02
  0
VERTEX
  8
0
 62
4
 10
-2.65001233E+01
 20
-1.24922048E+02
  0
VERTEX
  8
0
 62
4
 10
-2.64868047E+01
 20
-1.25210474E+02
  0
VERTEX
  8
0
 62
4
 10
-2.64469504E+01
 20
-1.25496705E+02
  0
VERTEX
  8
0
 62
4
 10
-2.63808637E+01
 20
-1.25778562E+02
  0
VERTEX
  8
0
 62
4
 10
-2.62890475E+01
 20
-1.26053900E+02
  0
VERTEX
  8
0
 62
4
 10
-2.61722006E+01
 20
-1.26320625E+02
  0
VERTEX
  8
0
 62
4
 10
-2.60312122E+01
 20
-1.26576706E+02
  0
VERTEX
  8
0
 62
4
 10
-2.58671555E+01
 20
-1.26820193E+02
  0
VERTEX
  8
0
 62
4
 10
-2.56812788E+01
 20
-1.27049235E+02
  0
VERTEX
  8
0
 62
4
 10
-2.54749970E+01
 20
-1.27262087E+02
  0
VERTEX
  8
0
 62
4
 10
-2.52498799E+01
 20
-1.27457130E+02
  0
VERTEX
  8
0
 62
4
 10
-2.50076408E+01
 20
-1.27632880E+02
  0
VERTEX
  8
0
 62
4
 10
-2.47501233E+01
 20
-1.27787999E+02
  0
VERTEX
  8
0
 62
4
 10
-2.44792872E+01
 20
-1.27921306E+02
  0
VERTEX
  8
0
 62
4
 10
-2.41971938E+01
 20
-1.28031787E+02
  0
VERTEX
  8
0
 62
4
 10
-2.39059900E+01
 20
-1.28118601E+02
  0
VERTEX
  8
0
 62
4
 10
-2.36078919E+01
 20
-1.28181087E+02
  0
VERTEX
  8
0
 62
4
 10
-2.33051684E+01
 20
-1.28218770E+02
  0
VERTEX
  8
0
 62
4
 10
-2.30001233E+01
 20
-1.28231363E+02
  0
VERTEX
  8
0
 62
4
 10
-2.26950782E+01
 20
-1.28218770E+02
  0
VERTEX
  8
0
 62
4
 10
-2.23923547E+01
 20
-1.28181087E+02
  0
VERTEX
  8
0
 62
4
 10
-2.20942566E+01
 20
-1.28118601E+02
  0
VERTEX
  8
0
 62
4
 10
-2.18030528E+01
 20
-1.28031787E+02
  0
VERTEX
  8
0
 62
4
 10
-2.15209594E+01
 20
-1.27921306E+02
  0
VERTEX
  8
0
 62
4
 10
-2.12501233E+01
 20
-1.27787999E+02
  0
VERTEX
  8
0
 62
4
 10
-2.09926058E+01
 20
-1.27632880E+02
  0
VERTEX
  8
0
 62
4
 10
-2.07503667E+01
 20
-1.27457130E+02
  0
VERTEX
  8
0
 62
4
 10
-2.05252496E+01
 20
-1.27262087E+02
  0
VERTEX
  8
0
 62
4
 10
-2.03189677E+01
 20
-1.27049235E+02
  0
VERTEX
  8
0
 62
4
 10
-2.01330911E+01
 20
-1.26820193E+02
  0
VERTEX
  8
0
 62
4
 10
-1.99690344E+01
 20
-1.26576705E+02
  0
VERTEX
  8
0
 62
4
 10
-1.98280460E+01
 20
-1.26320625E+02
  0
VERTEX
  8
0
 62
4
 10
-1.97111991E+01
 20
-1.26053900E+02
  0
VERTEX
  8
0
 62
4
 10
-1.96193829E+01
 20
-1.25778562E+02
  0
VERTEX
  8
0
 62
4
 10
-1.95532962E+01
 20
-1.25496705E+02
  0
VERTEX
  8
0
 62
4
 10
-1.95134419E+01
 20
-1.25210474E+02
  0
VERTEX
  8
0
 62
4
 10
-1.95001233E+01
 20
-1.24922048E+02
  0
SEQEND
  8
0
  0
ARC
  8
0
 62
4
 10
-3.47645283E+01
 20
-1.30602479E+02
 40
1.21769740E+01
 50
2.40462101E+02
 51
2.56878396E+02
  0
ARC
  8
0
 62
4
 10
-4.32357183E+01
 20
-1.30602479E+02
 40
1.21769740E+01
 50
2.83121604E+02
 51
2.99537899E+02
  0
LINE
  8
0
 62
4
 10
-4.65001233E+01
 20
-1.30711140E+02
 11
-3.15001233E+01
 21
-1.30711140E+02
  0
LINE
  8
0
  6
CENTER
 62
6
 10
-4.36762211E+01
 20
-1.15480547E+02
 11
-3.43240256E+01
 21
-1.15480547E+02
  0
LINE
  8
0
 62
4
 10
-3.56001233E+01
 20
-1.41151769E+02
 11
-1.35001233E+01
 21
-1.41151769E+02
  0
POLYLINE
  8
0
 62
4
 66
1
  0
VERTEX
  8
0
 62
4
 10
-3.56001233E+01
 20
-1.39182767E+02
  0
VERTEX
  8
0
 62
4
 10
-3.56138107E+01
 20
-1.39083542E+02
  0
VERTEX
  8
0
 62
4
 10
-3.56547627E+01
 20
-1.38985117E+02
  0
VERTEX
  8
0
 62
4
 10
-3.57226496E+01
 20
-1.38888282E+02
  0
VERTEX
  8
0
 62
4
 10
-3.58169247E+01
 20
-1.38793819E+02
  0
VERTEX
  8
0
 62
4
 10
-3.59368291E+01
 20
-1.38702487E+02
  0
VERTEX
  8
0
 62
4
 10
-3.60813974E+01
 20
-1.38615023E+02
  0
VERTEX
  8
0
 62
4
 10
-3.62494655E+01
 20
-1.38532129E+02
  0
VERTEX
  8
0
 62
4
 10
-3.64396803E+01
 20
-1.38454474E+02
  0
VERTEX
  8
0
 62
4
 10
-3.66505103E+01
 20
-1.38382682E+02
  0
VERTEX
  8
0
 62
4
 10
-3.68802580E+01
 20
-1.38317333E+02
  0
VERTEX
  8
0
 62
4
 10
-3.71270736E+01
 20
-1.38258951E+02
  0
VERTEX
  8
0
 62
4
 10
-3.73889698E+01
 20
-1.38208008E+02
  0
VERTEX
  8
0
 62
4
 10
-3.76638382E+01
 20
-1.38164913E+02
  0
VERTEX
  8
0
 62
4
 10
-3.79494655E+01
 20
-1.38130012E+02
  0
VERTEX
  8
0
 62
4
 10
-3.82435521E+01
 20
-1.38103588E+02
  0
VERTEX
  8
0
 62
4
 10
-3.85437302E+01
 20
-1.38085853E+02
  0
VERTEX
  8
0
 62
4
 10
-3.88475829E+01
 20
-1.38076950E+02
  0
VERTEX
  8
0
 62
4
 10
-3.91526637E+01
 20
-1.38076950E+02
  0
VERTEX
  8
0
 62
4
 10
-3.94565164E+01
 20
-1.38085853E+02
  0
VERTEX
  8
0
 62
4
 10
-3.97566945E+01
 20
-1.38103588E+02
  0
VERTEX
  8
0
 62
4
 10
-4.00507811E+01
 20
-1.38130012E+02
  0
VERTEX
  8
0
 62
4
 10
-4.03364084E+01
 20
-1.38164913E+02
  0
VERTEX
  8
0
 62
4
 10
-4.06112767E+01
 20
-1.38208008E+02
  0
VERTEX
  8
0
 62
4
 10
-4.08731730E+01
 20
-1.38258951E+02
  0
VERTEX
  8
0
 62
4
 10
-4.11199886E+01
 20
-1.38317333E+02
  0
VERTEX
  8
0
 62
4
 10
-4.13497363E+01
 20
-1.38382682E+02
  0
VERTEX
  8
0
 62
4
 10
-4.15605663E+01
 20
-1.38454474E+02
  0
VERTEX
  8
0
 62
4
 10
-4.17507811E+01
 20
-1.38532129E+02
  0
VERTEX
  8
0
 62
4
 10
-4.19188492E+01
 20
-1.38615023E+02
  0
VERTEX
  8
0
 62
4
 10
-4.20634174E+01
 20
-1.38702487E+02
  0
VERTEX
  8
0
 62
4
 10
-4.21833219E+01
 20
-1.38793819E+02
  0
VERTEX
  8
0
 62
4
 10
-4.22775970E+01
 20
-1.38888282E+02
  0
VERTEX
  8
0
 62
4
 10
-4.23454839E+01
 20
-1.38985117E+02
  0
VERTEX
  8
0
 62
4
 10
-4.23864359E+01
 20
-1.39083542E+02
  0
VERTEX
  8
0
 62
4
 10
-4.24001233E+01
 20
-1.39182767E+02
  0
SEQEND
  8
0
  0
LINE
  8
0
 62
4
 10
-4.30001233E+01
 20
-1.38710007E+02
 11
-4.30001233E+01
 21
-1.39182767E+02
  0
LINE
  8
0
 62
4
 10
-3.50001233E+01
 20
-1.38710007E+02
 11
-3.50001233E+01
 21
-1.39182767E+02
  0
POLYLINE
  8
0
 62
4
 66
1
  0
VERTEX
  8
0
 62
4
 10
-3.56001233E+01
 20
-1.39868782E+02
  0
VERTEX
  8
0
 62
4
 10
-3.54270713E+01
 20
-1.39768183E+02
  0
VERTEX
  8
0
 62
4
 10
-3.52820283E+01
 20
-1.39662996E+02
  0
VERTEX
  8
0
 62
4
 10
-3.51661315E+01
 20
-1.39554044E+02
  0
VERTEX
  8
0
 62
4
 10
-3.50802892E+01
 20
-1.39442182E+02
  0
VERTEX
  8
0
 62
4
 10
-3.50251744E+01
 20
-1.39328286E+02
  0
VERTEX
  8
0
 62
4
 10
-3.50012192E+01
 20
-1.39213249E+02
  0
VERTEX
  8
0
 62
4
 10
-3.50086114E+01
 20
-1.39097974E+02
  0
VERTEX
  8
0
 62
4
 10
-3.50472929E+01
 20
-1.38983363E+02
  0
VERTEX
  8
0
 62
4
 10
-3.51169606E+01
 20
-1.38870315E+02
  0
VERTEX
  8
0
 62
4
 10
-3.52170683E+01
 20
-1.38759717E+02
  0
VERTEX
  8
0
 62
4
 10
-3.53468314E+01
 20
-1.38652435E+02
  0
VERTEX
  8
0
 62
4
 10
-3.55052325E+01
 20
-1.38549310E+02
  0
VERTEX
  8
0
 62
4
 10
-3.56910300E+01
 20
-1.38451151E+02
  0
VERTEX
  8
0
 62
4
 10
-3.59027675E+01
 20
-1.38358727E+02
  0
VERTEX
  8
0
 62
4
 10
-3.61387851E+01
 20
-1.38272762E+02
  0
VERTEX
  8
0
 62
4
 10
-3.63972326E+01
 20
-1.38193931E+02
  0
VERTEX
  8
0
 62
4
 10
-3.66760842E+01
 20
-1.38122852E+02
  0
VERTEX
  8
0
 62
4
 10
-3.69731538E+01
 20
-1.38060081E+02
  0
VERTEX
  8
0
 62
4
 10
-3.72861129E+01
 20
-1.38006111E+02
  0
VERTEX
  8
0
 62
4
 10
-3.76125080E+01
 20
-1.37961365E+02
  0
VERTEX
  8
0
 62
4
 10
-3.79497807E+01
 20
-1.37926193E+02
  0
VERTEX
  8
0
 62
4
 10
-3.82952869E+01
 20
-1.37900871E+02
  0
VERTEX
  8
0
 62
4
 10
-3.86463184E+01
 20
-1.37885599E+02
  0
VERTEX
  8
0
 62
4
 10
-3.90001233E+01
 20
-1.37880494E+02
  0
VERTEX
  8
0
 62
4
 10
-3.93539282E+01
 20
-1.37885599E+02
  0
VERTEX
  8
0
 62
4
 10
-3.97049597E+01
 20
-1.37900871E+02
  0
VERTEX
  8
0
 62
4
 10
-4.00504659E+01
 20
-1.37926193E+02
  0
VERTEX
  8
0
 62
4
 10
-4.03877385E+01
 20
-1.37961365E+02
  0
VERTEX
  8
0
 62
4
 10
-4.07141337E+01
 20
-1.38006111E+02
  0
VERTEX
  8
0
 62
4
 10
-4.10270927E+01
 20
-1.38060081E+02
  0
VERTEX
  8
0
 62
4
 10
-4.13241624E+01
 20
-1.38122852E+02
  0
VERTEX
  8
0
 62
4
 10
-4.16030140E+01
 20
-1.38193931E+02
  0
VERTEX
  8
0
 62
4
 10
-4.18614615E+01
 20
-1.38272762E+02
  0
VERTEX
  8
0
 62
4
 10
-4.20974791E+01
 20
-1.38358727E+02
  0
VERTEX
  8
0
 62
4
 10
-4.23092165E+01
 20
-1.38451151E+02
  0
VERTEX
  8
0
 62
4
 10
-4.24950141E+01
 20
-1.38549310E+02
  0
VERTEX
  8
0
 62
4
 10
-4.26534152E+01
 20
-1.38652435E+02
  0
VERTEX
  8
0
 62
4
 10
-4.27831783E+01
 20
-1.38759717E+02
  0
VERTEX
  8
0
 62
4
 10
-4.28832860E+01
 20
-1.38870315E+02
  0
VERTEX
  8
0
 62
4
 10
-4.29529537E+01
 20
-1.38983363E+02
  0
VERTEX
  8
0
 62
4
 10
-4.29916352E+01
 20
-1.39097974E+02
  0
VERTEX
  8
0
 62
4
 10
-4.29990274E+01
 20
-1.39213249E+02
  0
VERTEX
  8
0
 62
4
 10
-4.29750722E+01
 20
-1.39328286E+02
  0
VERTEX
  8
0
 62
4
 10
-4.29199574E+01
 20
-1.39442182E+02
  0
VERTEX
  8
0
 62
4
 10
-4.28341151E+01
 20
-1.39554044E+02
  0
VERTEX
  8
0
 62
4
 10
-4.27182183E+01
 20
-1.39662996E+02
  0
VERTEX
  8
0
 62
4
 10
-4.25731753E+01
 20
-1.39768183E+02
  0
VERTEX
  8
0
 62
4
 10
-4.24001233E+01
 20
-1.39868782E+02
  0
SEQEND
  8
0
  0
POLYLINE
  8
0
 62
4
 66
1
  0
VERTEX
  8
0
 62
4
 10
-3.50001233E+01
 20
-1.38710007E+02
  0
VERTEX
  8
0
 62
4
 10
-3.50162261E+01
 20
-1.38593272E+02
  0
VERTEX
  8
0
 62
4
 10
-3.50644049E+01
 20
-1.38477477E+02
  0
VERTEX
  8
0
 62
4
 10
-3.51442719E+01
 20
-1.38363555E+02
  0
VERTEX
  8
0
 62
4
 10
-3.52551838E+01
 20
-1.38252421E+02
  0
VERTEX
  8
0
 62
4
 10
-3.53962478E+01
 20
-1.38144972E+02
  0
VERTEX
  8
0
 62
4
 10
-3.55663281E+01
 20
-1.38042072E+02
  0
VERTEX
  8
0
 62
4
 10
-3.57640553E+01
 20
-1.37944550E+02
  0
VERTEX
  8
0
 62
4
 10
-3.59878374E+01
 20
-1.37853191E+02
  0
VERTEX
  8
0
 62
4
 10
-3.62358727E+01
 20
-1.37768731E+02
  0
VERTEX
  8
0
 62
4
 10
-3.65061641E+01
 20
-1.37691849E+02
  0
VERTEX
  8
0
 62
4
 10
-3.67965354E+01
 20
-1.37623165E+02
  0
VERTEX
  8
0
 62
4
 10
-3.71046486E+01
 20
-1.37563232E+02
  0
VERTEX
  8
0
 62
4
 10
-3.74280232E+01
 20
-1.37512531E+02
  0
VERTEX
  8
0
 62
4
 10
-3.77640553E+01
 20
-1.37471472E+02
  0
VERTEX
  8
0
 62
4
 10
-3.81100396E+01
 20
-1.37440385E+02
  0
VERTEX
  8
0
 62
4
 10
-3.84631902E+01
 20
-1.37419520E+02
  0
VERTEX
  8
0
 62
4
 10
-3.88206640E+01
 20
-1.37409046E+02
  0
VERTEX
  8
0
 62
4
 10
-3.91795826E+01
 20
-1.37409046E+02
  0
VERTEX
  8
0
 62
4
 10
-3.95370564E+01
 20
-1.37419520E+02
  0
VERTEX
  8
0
 62
4
 10
-3.98902070E+01
 20
-1.37440385E+02
  0
VERTEX
  8
0
 62
4
 10
-4.02361913E+01
 20
-1.37471472E+02
  0
VERTEX
  8
0
 62
4
 10
-4.05722234E+01
 20
-1.37512531E+02
  0
VERTEX
  8
0
 62
4
 10
-4.08955979E+01
 20
-1.37563232E+02
  0
VERTEX
  8
0
 62
4
 10
-4.12037112E+01
 20
-1.37623165E+02
  0
VERTEX
  8
0
 62
4
 10
-4.14940825E+01
 20
-1.37691849E+02
  0
VERTEX
  8
0
 62
4
 10
-4.17643739E+01
 20
-1.37768731E+02
  0
VERTEX
  8
0
 62
4
 10
-4.20124092E+01
 20
-1.37853191E+02
  0
VERTEX
  8
0
 62
4
 10
-4.22361913E+01
 20
-1.37944550E+02
  0
VERTEX
  8
0
 62
4
 10
-4.24339185E+01
 20
-1.38042072E+02
  0
VERTEX
  8
0
 62
4
 10
-4.26039988E+01
 20
-1.38144972E+02
  0
VERTEX
  8
0
 62
4
 10
-4.27450628E+01
 20
-1.38252421E+02
  0
VERTEX
  8
0
 62
4
 10
-4.28559747E+01
 20
-1.38363554E+02
  0
VERTEX
  8
0
 62
4
 10
-4.29358417E+01
 20
-1.38477477E+02
  0
VERTEX
  8
0
 62
4
 10
-4.29840205E+01
 20
-1.38593272E+02
  0
VERTEX
  8
0
 62
4
 10
-4.30001233E+01
 20
-1.38710007E+02
  0
SEQEND
  8
0
  0
LINE
  8
0
  6
CENTER
 62
6
 10
-2.30001233E+01
 20
-1.18852229E+02
 11
-2.30001233E+01
 21
-1.30340731E+02
  0
LINE
  8
0
  6
CENTER
 62
6
 10
-2.87443743E+01
 20
-1.24596480E+02
 11
-1.72558724E+01
 21
-1.24596480E+02
  0
LINE
  8
0
 62
4
 10
-5.60001233E+01
 20
-1.10937056E+02
 11
-5.60001233E+01
 21
-1.23937056E+02
  0
ARC
  8
0
 62
4
 10
-5.54976208E+01
 20
-1.10939559E+02
 40
5.02508801E-01
 50
9.02853429E+01
 51
1.79714657E+02
  0
LINE
  8
0
 62
4
 10
-4.65001233E+01
 20
-1.10437056E+02
 11
-5.55001233E+01
 21
-1.10437056E+02
  0
LINE
  8
0
 62
4
 10
-6.60001233E+01
 20
-1.24800707E+02
 11
-6.10001233E+01
 21
-1.24800707E+02
  0
LINE
  8
0
 62
4
 10
-6.60001233E+01
 20
-1.22358946E+02
 11
-6.10001233E+01
 21
-1.22358946E+02
  0
LINE
  8
0
 62
4
 10
-6.60001233E+01
 20
-1.14988939E+02
 11
-6.10001233E+01
 21
-1.14988939E+02
  0
ARC
  8
0
 62
4
 10
-4.95026214E+01
 20
-1.39654267E+02
 40
1.49750400E+00
 50
1.79904421E+02
 51
2.70095579E+02
  0
LINE
  8
0
 62
4
 10
-4.95001233E+01
 20
-1.41151769E+02
 11
-4.24001233E+01
 21
-1.41151769E+02
  0
ARC
  8
0
 62
4
 10
-1.34976214E+01
 20
-1.39654271E+02
 40
1.49750021E+00
 50
2.69904276E+02
 51
9.57242462E-02
  0
POLYLINE
  8
0
 62
4
 66
1
  0
VERTEX
  8
0
 62
4
 10
-3.60001233E+01
 20
-1.15480547E+02
  0
VERTEX
  8
0
 62
4
 10
-3.60115392E+01
 20
-1.15233325E+02
  0
VERTEX
  8
0
 62
4
 10
-3.60457000E+01
 20
-1.14987984E+02
  0
VERTEX
  8
0
 62
4
 10
-3.61023458E+01
 20
-1.14746392E+02
  0
VERTEX
  8
0
 62
4
 10
-3.61810454E+01
 20
-1.14510388E+02
  0
VERTEX
  8
0
 62
4
 10
-3.62811999E+01
 20
-1.14281767E+02
  0
VERTEX
  8
0
 62
4
 10
-3.64020471E+01
 20
-1.14062269E+02
  0
VERTEX
  8
0
 62
4
 10
-3.65426672E+01
 20
-1.13853565E+02
  0
VERTEX
  8
0
 62
4
 10
-3.67019900E+01
 20
-1.13657244E+02
  0
VERTEX
  8
0
 62
4
 10
-3.68788030E+01
 20
-1.13474799E+02
  0
VERTEX
  8
0
 62
4
 10
-3.70717605E+01
 20
-1.13307619E+02
  0
VERTEX
  8
0
 62
4
 10
-3.72793940E+01
 20
-1.13156977E+02
  0
VERTEX
  8
0
 62
4
 10
-3.75001233E+01
 20
-1.13024018E+02
  0
VERTEX
  8
0
 62
4
 10
-3.77322685E+01
 20
-1.12909754E+02
  0
VERTEX
  8
0
 62
4
 10
-3.79740629E+01
 20
-1.12815057E+02
  0
VERTEX
  8
0
 62
4
 10
-3.82236662E+01
 20
-1.12740645E+02
  0
VERTEX
  8
0
 62
4
 10
-3.84791788E+01
 20
-1.12687085E+02
  0
VERTEX
  8
0
 62
4
 10
-3.87386561E+01
 20
-1.12654785E+02
  0
VERTEX
  8
0
 62
4
 10
-3.90001233E+01
 20
-1.12643991E+02
  0
VERTEX
  8
0
 62
4
 10
-3.92615905E+01
 20
-1.12654785E+02
  0
VERTEX
  8
0
 62
4
 10
-3.95210678E+01
 20
-1.12687085E+02
  0
VERTEX
  8
0
 62
4
 10
-3.97765804E+01
 20
-1.12740645E+02
  0
VERTEX
  8
0
 62
4
 10
-4.00261837E+01
 20
-1.12815057E+02
  0
VERTEX
  8
0
 62
4
 10
-4.02679781E+01
 20
-1.12909754E+02
  0
VERTEX
  8
0
 62
4
 10
-4.05001233E+01
 20
-1.13024018E+02
  0
VERTEX
  8
0
 62
4
 10
-4.07208526E+01
 20
-1.13156977E+02
  0
VERTEX
  8
0
 62
4
 10
-4.09284861E+01
 20
-1.13307619E+02
  0
VERTEX
  8
0
 62
4
 10
-4.11214436E+01
 20
-1.13474799E+02
  0
VERTEX
  8
0
 62
4
 10
-4.12982566E+01
 20
-1.13657244E+02
  0
VERTEX
  8
0
 62
4
 10
-4.14575794E+01
 20
-1.13853565E+02
  0
VERTEX
  8
0
 62
4
 10
-4.15981995E+01
 20
-1.14062269E+02
  0
VERTEX
  8
0
 62
4
 10
-4.17190467E+01
 20
-1.14281767E+02
  0
VERTEX
  8
0
 62
4
 10
-4.18192012E+01
 20
-1.14510388E+02
  0
VERTEX
  8
0
 62
4
 10
-4.18979008E+01
 20
-1.14746392E+02
  0
VERTEX
  8
0
 62
4
 10
-4.19545466E+01
 20
-1.14987984E+02
  0
VERTEX
  8
0
 62
4
 10
-4.19887074E+01
 20
-1.15233325E+02
  0
VERTEX
  8
0
 62
4
 10
-4.20001233E+01
 20
-1.15480547E+02
  0
VERTEX
  8
0
 62
4
 10
-4.19887074E+01
 20
-1.15727769E+02
  0
VERTEX
  8
0
 62
4
 10
-4.19545466E+01
 20
-1.15973110E+02
  0
VERTEX
  8
0
 62
4
 10
-4.18979008E+01
 20
-1.16214702E+02
  0
VERTEX
  8
0
 62
4
 10
-4.18192012E+01
 20
-1.16450706E+02
  0
VERTEX
  8
0
 62
4
 10
-4.17190467E+01
 20
-1.16679327E+02
  0
VERTEX
  8
0
 62
4
 10
-4.15981995E+01
 20
-1.16898825E+02
  0
VERTEX
  8
0
 62
4
 10
-4.14575794E+01
 20
-1.17107529E+02
  0
VERTEX
  8
0
 62
4
 10
-4.12982566E+01
 20
-1.17303850E+02
  0
VERTEX
  8
0
 62
4
 10
-4.11214436E+01
 20
-1.17486295E+02
  0
VERTEX
  8
0
 62
4
 10
-4.09284861E+01
 20
-1.17653475E+02
  0
VERTEX
  8
0
 62
4
 10
-4.07208526E+01
 20
-1.17804117E+02
  0
VERTEX
  8
0
 62
4
 10
-4.05001233E+01
 20
-1.17937076E+02
  0
VERTEX
  8
0
 62
4
 10
-4.02679781E+01
 20
-1.18051340E+02
  0
VERTEX
  8
0
 62
4
 10
-4.00261837E+01
 20
-1.18146037E+02
  0
VERTEX
  8
0
 62
4
 10
-3.97765804E+01
 20
-1.18220449E+02
  0
VERTEX
  8
0
 62
4
 10
-3.95210678E+01
 20
-1.18274009E+02
  0
VERTEX
  8
0
 62
4
 10
-3.92615905E+01
 20
-1.18306309E+02
  0
VERTEX
  8
0
 62
4
 10
-3.90001233E+01
 20
-1.18317103E+02
  0
VERTEX
  8
0
 62
4
 10
-3.87386561E+01
 20
-1.18306309E+02
  0
VERTEX
  8
0
 62
4
 10
-3.84791788E+01
 20
-1.18274009E+02
  0
VERTEX
  8
0
 62
4
 10
-3.82236662E+01
 20
-1.18220449E+02
  0
VERTEX
  8
0
 62
4
 10
-3.79740629E+01
 20
-1.18146037E+02
  0
VERTEX
  8
0
 62
4
 10
-3.77322685E+01
 20
-1.18051340E+02
  0
VERTEX
  8
0
 62
4
 10
-3.75001233E+01
 20
-1.17937076E+02
  0
VERTEX
  8
0
 62
4
 10
-3.72793940E+01
 20
-1.17804117E+02
  0
VERTEX
  8
0
 62
4
 10
-3.70717605E+01
 20
-1.17653475E+02
  0
VERTEX
  8
0
 62
4
 10
-3.68788030E+01
 20
-1.17486295E+02
  0
VERTEX
  8
0
 62
4
 10
-3.67019900E+01
 20
-1.17303850E+02
  0
VERTEX
  8
0
 62
4
 10
-3.65426672E+01
 20
-1.17107529E+02
  0
VERTEX
  8
0
 62
4
 10
-3.64020471E+01
 20
-1.16898825E+02
  0
VERTEX
  8
0
 62
4
 10
-3.62811999E+01
 20
-1.16679327E+02
  0
VERTEX
  8
0
 62
4
 10
-3.61810454E+01
 20
-1.16450706E+02
  0
VERTEX
  8
0
 62
4
 10
-3.61023458E+01
 20
-1.16214702E+02
  0
VERTEX
  8
0
 62
4
 10
-3.60457000E+01
 20
-1.15973110E+02
  0
VERTEX
  8
0
 62
4
 10
-3.60115392E+01
 20
-1.15727769E+02
  0
VERTEX
  8
0
 62
4
 10
-3.60001233E+01
 20
-1.15480547E+02
  0
SEQEND
  8
0
  0
LINE
  8
0
 62
4
 10
-3.15001233E+01
 20
-1.14637324E+02
 11
-2.95001233E+01
 21
-1.14637324E+02
  0
LINE
  8
0
 62
4
 10
-4.85001233E+01
 20
-1.32602177E+02
 11
-2.95001233E+01
 21
-1.32602177E+02
  0
LINE
  8
0
 62
4
 10
-4.65001233E+01
 20
-1.08389158E+02
 11
-3.15001233E+01
 21
-1.08389158E+02
  0
ARC
  8
0
 62
4
 10
-5.55026134E+01
 20
-1.23939546E+02
 40
4.97516125E-01
 50
1.79713229E+02
 51
2.70286771E+02
  0
ARC
  8
0
 62
4
 10
-1.35026294E+01
 20
-1.15756028E+02
 40
1.50250815E+00
 50
9.55645858E-02
 51
8.99044354E+01
  0
LINE
  8
0
 62
4
 10
-4.95001233E+01
 20
-1.36268246E+02
 11
-1.35001233E+01
 21
-1.36268246E+02
  0
LINE
  8
0
 62
4
 10
-3.15001233E+01
 20
-1.14253522E+02
 11
-1.35001233E+01
 21
-1.14253522E+02
  0
LINE
  8
0
 62
4
 10
-5.10001233E+01
 20
-1.24437056E+02
 11
-5.10001233E+01
 21
-1.39500000E+02
  0
LINE
  8
0
 62
4
 10
-2.95001233E+01
 20
-1.14637324E+02
 11
-2.95001233E+01
 21
-1.33904450E+02
  0
LINE
  8
0
 62
4
 10
-4.85001233E+01
 20
-1.33904450E+02
 11
-4.85001233E+01
 21
-1.24437056E+02
  0
LINE
  8
0
 62
4
 10
-1.20001233E+01
 20
-1.15753522E+02
 11
-1.20001233E+01
 21
-1.39651769E+02
  0
LINE
  8
0
 62
4
 10
-6.60001233E+01
 20
-1.10067205E+02
 11
-6.10001233E+01
 21
-1.10067205E+02
  0
LINE
  8
0
 62
4
 10
-4.65001233E+01
 20
-1.22571936E+02
 11
-3.15001233E+01
 21
-1.22571936E+02
  0
LINE
  8
0
 62
4
 10
-5.95001233E+01
 20
-1.23187056E+02
 11
-5.60001233E+01
 21
-1.23187056E+02
  0
LINE
  8
0
 62
4
 10
-5.95001233E+01
 20
-1.11687056E+02
 11
-5.60001233E+01
 21
-1.11687056E+02
  0
LINE
  8
0
 62
4
 10
-5.95001233E+01
 20
-1.11187056E+02
 11
-5.95001233E+01
 21
-1.23687056E+02
  0
LINE
  8
0
 62
4
 10
-6.10001233E+01
 20
-1.23687056E+02
 11
-5.60001233E+01
 21
-1.23687056E+02
  0
LINE
  8
0
 62
4
 10
-6.10001233E+01
 20
-1.11187056E+02
 11
-5.60001233E+01
 21
-1.11187056E+02
  0
LINE
  8
0
 62
4
 10
-6.10001233E+01
 20
-1.10067205E+02
 11
-6.10001233E+01
 21
-1.24800707E+02
  0
LINE
  8
0
 62
4
 10
-6.60001233E+01
 20
-1.24800707E+02
 11
-6.60001233E+01
 21
-1.10067205E+02
  0
LINE
  8
0
 62
4
 10
-5.55001233E+01
 20
-1.24437056E+02
 11
-4.65001233E+01
 21
-1.24437056E+02
  0
LINE
  8
0
 62
4
 10
-4.24001233E+01
 20
-1.41151769E+02
 11
-4.24001233E+01
 21
-1.39182767E+02
  0
LINE
  8
0
 62
4
 10
-3.56001233E+01
 20
-1.39182767E+02
 11
-3.56001233E+01
 21
-1.41157748E+02
  0
LINE
  8
0
 62
6
 10
-4.15001233E+01
 20
-1.00752376E+02
 11
-4.15001233E+01
 21
-1.01922376E+02
  0
LINE
  8
0
 62
4
 10
-4.50001233E+01
 20
-1.01752376E+02
 11
-4.47401233E+01
 21
-1.00752376E+02
  0
LINE
  8
0
 62
4
 10
-4.10001233E+01
 20
-1.01752376E+02
 11
-4.12701233E+01
 21
-1.00752376E+02
  0
LINE
  8
0
 62
4
 10
-4.12701233E+01
 20
-1.00752376E+02
 11
-4.47401233E+01
 21
-1.00752376E+02
  0
LINE
  8
0
 62
4
 10
-4.50001233E+01
 20
-1.01752376E+02
 11
-4.50001233E+01
 21
-1.01922376E+02
  0
LINE
  8
0
 62
4
 10
-4.10001233E+01
 20
-1.01752376E+02
 11
-4.10001233E+01
 21
-1.01922376E+02
  0
LINE
  8
0
 62
6
 10
-4.45001233E+01
 20
-1.00752376E+02
 11
-4.45001233E+01
 21
-1.01922376E+02
  0
LINE
  8
0
  6
CENTER
 62
6
 10
-4.30001233E+01
 20
-9.89223758E+01
 11
-4.30001233E+01
 21
-1.09422376E+02
  0
LINE
  8
0
 62
4
 10
-3.15001233E+01
 20
-1.01922376E+02
 11
-4.65001233E+01
 21
-1.01922376E+02
  0
LINE
  8
0
 62
4
 10
-3.15001233E+01
 20
-1.01922376E+02
 11
-3.15001233E+01
 21
-1.30711140E+02
  0
LINE
  8
0
 62
4
 10
-4.65001233E+01
 20
-1.01922376E+02
 11
-4.65001233E+01
 21
-1.30711140E+02
  0
LINE
  8
0
 62
6
 10
-3.65001233E+01
 20
-1.00752376E+02
 11
-3.65001233E+01
 21
-1.01922376E+02
  0
LINE
  8
0
 62
6
 10
-3.35001233E+01
 20
-1.00752376E+02
 11
-3.35001233E+01
 21
-1.01922376E+02
  0
LINE
  8
0
 62
4
 10
-3.70001233E+01
 20
-1.01752376E+02
 11
-3.67401233E+01
 21
-1.00752376E+02
  0
LINE
  8
0
 62
4
 10
-3.30001233E+01
 20
-1.01752376E+02
 11
-3.32701233E+01
 21
-1.00752376E+02
  0
LINE
  8
0
 62
4
 10
-3.32701233E+01
 20
-1.00752376E+02
 11
-3.67401233E+01
 21
-1.00752376E+02
  0
LINE
  8
0
 62
4
 10
-3.70001233E+01
 20
-1.01752376E+02
 11
-3.70001233E+01
 21
-1.01922376E+02
  0
LINE
  8
0
 62
4
 10
-3.30001233E+01
 20
-1.01752376E+02
 11
-3.30001233E+01
 21
-1.01922376E+02
  0
LINE
  8
0
  6
CENTER
 62
6
 10
-3.50001233E+01
 20
-9.89223758E+01
 11
-3.50001233E+01
 21
-1.09422376E+02
  0
LINE
  8
0
 62
4
 10
3.15859825E+02
 20
-2.66261079E+02
 11
3.15531229E+02
 21
-2.67054294E+02
  0
LINE
  8
0
 62
4
 10
3.22139825E+02
 20
-2.66261079E+02
 11
3.22499825E+02
 21
-2.67206597E+02
  0
POLYLINE
  8
0
 62
4
 66
1
  0
VERTEX
  8
0
 62
4
 10
3.15531229E+02
 20
-2.67054294E+02
  0
VERTEX
  8
0
 62
4
 10
3.15503452E+02
 20
-2.67154735E+02
  0
VERTEX
  8
0
 62
4
 10
3.15503061E+02
 20
-2.67255582E+02
  0
VERTEX
  8
0
 62
4
 10
3.15530058E+02
 20
-2.67356046E+02
  0
VERTEX
  8
0
 62
4
 10
3.15584233E+02
 20
-2.67455339E+02
  0
VERTEX
  8
0
 62
4
 10
3.15665161E+02
 20
-2.67552683E+02
  0
VERTEX
  8
0
 62
4
 10
3.15772209E+02
 20
-2.67647317E+02
  0
VERTEX
  8
0
 62
4
 10
3.15904537E+02
 20
-2.67738499E+02
  0
VERTEX
  8
0
 62
4
 10
3.16061109E+02
 20
-2.67825515E+02
  0
VERTEX
  8
0
 62
4
 10
3.16240700E+02
 20
-2.67907683E+02
  0
VERTEX
  8
0
 62
4
 10
3.16441901E+02
 20
-2.67984359E+02
  0
VERTEX
  8
0
 62
4
 10
3.16663138E+02
 20
-2.68054944E+02
  0
VERTEX
  8
0
 62
4
 10
3.16902678E+02
 20
-2.68118884E+02
  0
VERTEX
  8
0
 62
4
 10
3.17158643E+02
 20
-2.68175678E+02
  0
VERTEX
  8
0
 62
4
 10
3.17429030E+02
 20
-2.68224882E+02
  0
VERTEX
  8
0
 62
4
 10
3.17711721E+02
 20
-2.68266109E+02
  0
VERTEX
  8
0
 62
4
 10
3.18004501E+02
 20
-2.68299038E+02
  0
VERTEX
  8
0
 62
4
 10
3.18305076E+02
 20
-2.68323411E+02
  0
VERTEX
  8
0
 62
4
 10
3.18611094E+02
 20
-2.68339036E+02
  0
VERTEX
  8
0
 62
4
 10
3.18920156E+02
 20
-2.68345790E+02
  0
VERTEX
  8
0
 62
4
 10
3.19229842E+02
 20
-2.68343622E+02
  0
VERTEX
  8
0
 62
4
 10
3.19537727E+02
 20
-2.68332548E+02
  0
VERTEX
  8
0
 62
4
 10
3.19841398E+02
 20
-2.68312655E+02
  0
VERTEX
  8
0
 62
4
 10
3.20138478E+02
 20
-2.68284098E+02
  0
VERTEX
  8
0
 62
4
 10
3.20426639E+02
 20
-2.68247102E+02
  0
VERTEX
  8
0
 62
4
 10
3.20703624E+02
 20
-2.68201956E+02
  0
VERTEX
  8
0
 62
4
 10
3.20967264E+02
 20
-2.68149013E+02
  0
VERTEX
  8
0
 62
4
 10
3.21215494E+02
 20
-2.68088689E+02
  0
VERTEX
  8
0
 62
4
 10
3.21446369E+02
 20
-2.68021456E+02
  0
VERTEX
  8
0
 62
4
 10
3.21658082E+02
 20
-2.67947840E+02
  0
VERTEX
  8
0
 62
4
 10
3.21848973E+02
 20
-2.67868418E+02
  0
VERTEX
  8
0
 62
4
 10
3.22017547E+02
 20
-2.67783813E+02
  0
VERTEX
  8
0
 62
4
 10
3.22162485E+02
 20
-2.67694686E+02
  0
VERTEX
  8
0
 62
4
 10
3.22282651E+02
 20
-2.67601737E+02
  0
VERTEX
  8
0
 62
4
 10
3.22377104E+02
 20
-2.67505692E+02
  0
VERTEX
  8
0
 62
4
 10
3.22445104E+02
 20
-2.67407305E+02
  0
VERTEX
  8
0
 62
4
 10
3.22486118E+02
 20
-2.67307346E+02
  0
VERTEX
  8
0
 62
4
 10
3.22499825E+02
 20
-2.67206597E+02
  0
SEQEND
  8
0
  0
POLYLINE
  8
0
 62
4
 66
1
  0
VERTEX
  8
0
 62
4
 10
3.22139825E+02
 20
-2.66261079E+02
  0
VERTEX
  8
0
 62
4
 10
3.22127876E+02
 20
-2.66171981E+02
  0
VERTEX
  8
0
 62
4
 10
3.22092121E+02
 20
-2.66083561E+02
  0
VERTEX
  8
0
 62
4
 10
3.22032832E+02
 20
-2.65996492E+02
  0
VERTEX
  8
0
 62
4
 10
3.21950460E+02
 20
-2.65911437E+02
  0
VERTEX
  8
0
 62
4
 10
3.21845631E+02
 20
-2.65829043E+02
  0
VERTEX
  8
0
 62
4
 10
3.21719145E+02
 20
-2.65749937E+02
  0
VERTEX
  8
0
 62
4
 10
3.21571962E+02
 20
-2.65674721E+02
  0
VERTEX
  8
0
 62
4
 10
3.21405205E+02
 20
-2.65603968E+02
  0
VERTEX
  8
0
 62
4
 10
3.21220140E+02
 20
-2.65538215E+02
  0
VERTEX
  8
0
 62
4
 10
3.21018178E+02
 20
-2.65477964E+02
  0
VERTEX
  8
0
 62
4
 10
3.20800855E+02
 20
-2.65423673E+02
  0
VERTEX
  8
0
 62
4
 10
3.20569825E+02
 20
-2.65375755E+02
  0
VERTEX
  8
0
 62
4
 10
3.20326846E+02
 20
-2.65334575E+02
  0
VERTEX
  8
0
 62
4
 10
3.20073768E+02
 20
-2.65300446E+02
  0
VERTEX
  8
0
 62
4
 10
3.19812517E+02
 20
-2.65273628E+02
  0
VERTEX
  8
0
 62
4
 10
3.19545080E+02
 20
-2.65254326E+02
  0
VERTEX
  8
0
 62
4
 10
3.19273494E+02
 20
-2.65242685E+02
  0
VERTEX
  8
0
 62
4
 10
3.18999825E+02
 20
-2.65238795E+02
  0
VERTEX
  8
0
 62
4
 10
3.18726156E+02
 20
-2.65242685E+02
  0
VERTEX
  8
0
 62
4
 10
3.18454570E+02
 20
-2.65254326E+02
  0
VERTEX
  8
0
 62
4
 10
3.18187133E+02
 20
-2.65273628E+02
  0
VERTEX
  8
0
 62
4
 10
3.17925882E+02
 20
-2.65300446E+02
  0
VERTEX
  8
0
 62
4
 10
3.17672804E+02
 20
-2.65334575E+02
  0
VERTEX
  8
0
 62
4
 10
3.17429825E+02
 20
-2.65375755E+02
  0
VERTEX
  8
0
 62
4
 10
3.17198795E+02
 20
-2.65423673E+02
  0
VERTEX
  8
0
 62
4
 10
3.16981472E+02
 20
-2.65477964E+02
  0
VERTEX
  8
0
 62
4
 10
3.16779510E+02
 20
-2.65538215E+02
  0
VERTEX
  8
0
 62
4
 10
3.16594445E+02
 20
-2.65603968E+02
  0
VERTEX
  8
0
 62
4
 10
3.16427688E+02
 20
-2.65674721E+02
  0
VERTEX
  8
0
 62
4
 10
3.16280505E+02
 20
-2.65749937E+02
  0
VERTEX
  8
0
 62
4
 10
3.16154019E+02
 20
-2.65829043E+02
  0
VERTEX
  8
0
 62
4
 10
3.16049190E+02
 20
-2.65911437E+02
  0
VERTEX
  8
0
 62
4
 10
3.15966818E+02
 20
-2.65996492E+02
  0
VERTEX
  8
0
 62
4
 10
3.15907529E+02
 20
-2.66083561E+02
  0
VERTEX
  8
0
 62
4
 10
3.15871774E+02
 20
-2.66171981E+02
  0
VERTEX
  8
0
 62
4
 10
3.15859825E+02
 20
-2.66261079E+02
  0
VERTEX
  8
0
 62
4
 10
3.15871774E+02
 20
-2.66350177E+02
  0
VERTEX
  8
0
 62
4
 10
3.15907529E+02
 20
-2.66438597E+02
  0
VERTEX
  8
0
 62
4
 10
3.15966818E+02
 20
-2.66525666E+02
  0
VERTEX
  8
0
 62
4
 10
3.16049190E+02
 20
-2.66610721E+02
  0
VERTEX
  8
0
 62
4
 10
3.16154019E+02
 20
-2.66693115E+02
  0
VERTEX
  8
0
 62
4
 10
3.16280505E+02
 20
-2.66772221E+02
  0
VERTEX
  8
0
 62
4
 10
3.16427688E+02
 20
-2.66847437E+02
  0
VERTEX
  8
0
 62
4
 10
3.16594445E+02
 20
-2.66918190E+02
  0
VERTEX
  8
0
 62
4
 10
3.16779510E+02
 20
-2.66983943E+02
  0
VERTEX
  8
0
 62
4
 10
3.16981472E+02
 20
-2.67044194E+02
  0
VERTEX
  8
0
 62
4
 10
3.17198795E+02
 20
-2.67098485E+02
  0
VERTEX
  8
0
 62
4
 10
3.17429825E+02
 20
-2.67146403E+02
  0
VERTEX
  8
0
 62
4
 10
3.17672804E+02
 20
-2.67187583E+02
  0
VERTEX
  8
0
 62
4
 10
3.17925882E+02
 20
-2.67221712E+02
  0
VERTEX
  8
0
 62
4
 10
3.18187133E+02
 20
-2.67248530E+02
  0
VERTEX
  8
0
 62
4
 10
3.18454570E+02
 20
-2.67267832E+02
  0
VERTEX
  8
0
 62
4
 10
3.18726156E+02
 20
-2.67279473E+02
  0
VERTEX
  8
0
 62
4
 10
3.18999825E+02
 20
-2.67283363E+02
  0
VERTEX
  8
0
 62
4
 10
3.19273494E+02
 20
-2.67279473E+02
  0
VERTEX
  8
0
 62
4
 10
3.19545080E+02
 20
-2.67267832E+02
  0
VERTEX
  8
0
 62
4
 10
3.19812517E+02
 20
-2.67248530E+02
  0
VERTEX
  8
0
 62
4
 10
3.20073768E+02
 20
-2.67221712E+02
  0
VERTEX
  8
0
 62
4
 10
3.20326846E+02
 20
-2.67187583E+02
  0
VERTEX
  8
0
 62
4
 10
3.20569825E+02
 20
-2.67146403E+02
  0
VERTEX
  8
0
 62
4
 10
3.20800855E+02
 20
-2.67098485E+02
  0
VERTEX
  8
0
 62
4
 10
3.21018178E+02
 20
-2.67044194E+02
  0
VERTEX
  8
0
 62
4
 10
3.21220140E+02
 20
-2.66983943E+02
  0
VERTEX
  8
0
 62
4
 10
3.21405205E+02
 20
-2.66918190E+02
  0
VERTEX
  8
0
 62
4
 10
3.21571962E+02
 20
-2.66847437E+02
  0
VERTEX
  8
0
 62
4
 10
3.21719145E+02
 20
-2.66772221E+02
  0
VERTEX
  8
0
 62
4
 10
3.21845631E+02
 20
-2.66693115E+02
  0
VERTEX
  8
0
 62
4
 10
3.21950460E+02
 20
-2.66610721E+02
  0
VERTEX
  8
0
 62
4
 10
3.22032832E+02
 20
-2.66525666E+02
  0
VERTEX
  8
0
 62
4
 10
3.22092121E+02
 20
-2.66438597E+02
  0
VERTEX
  8
0
 62
4
 10
3.22127876E+02
 20
-2.66350177E+02
  0
VERTEX
  8
0
 62
4
 10
3.22139825E+02
 20
-2.66261079E+02
  0
SEQEND
  8
0
  0
LINE
  8
0
  6
CENTER
 62
6
 10
3.18999825E+02
 20
-2.63601553E+02
 11
3.18999825E+02
 21
-2.66261079E+02
  0
LINE
  8
0
 62
4
 10
3.45499825E+02
 20
-2.68702758E+02
 11
3.45499825E+02
 21
-2.65075972E+02
  0
LINE
  8
0
 62
4
 10
3.27499825E+02
 20
-2.63976140E+02
 11
3.09499825E+02
 21
-2.63976140E+02
  0
LINE
  8
0
 62
4
 10
3.09499825E+02
 20
-2.68702758E+02
 11
3.09499825E+02
 21
-2.65075972E+02
  0
ARC
  8
0
 62
4
 10
3.45502311E+02
 20
-2.65473653E+02
 40
1.49751542E+00
 50
3.59904859E+02
 51
9.00951404E+01
  0
LINE
  8
0
 62
4
 10
3.45499825E+02
 20
-2.63976140E+02
 11
3.42499825E+02
 21
-2.63976140E+02
  0
ARC
  8
0
 62
4
 10
3.09497338E+02
 20
-2.65473653E+02
 40
1.49751542E+00
 50
8.99048594E+01
 51
1.80095141E+02
  0
POLYLINE
  8
0
 62
6
 66
1
  0
VERTEX
  8
0
 62
6
 10
3.40499825E+02
 20
-2.98024585E+02
  0
VERTEX
  8
0
 62
6
 10
3.40494117E+02
 20
-2.97900974E+02
  0
VERTEX
  8
0
 62
6
 10
3.40477037E+02
 20
-2.97778304E+02
  0
VERTEX
  8
0
 62
6
 10
3.40448714E+02
 20
-2.97657508E+02
  0
VERTEX
  8
0
 62
6
 10
3.40409364E+02
 20
-2.97539505E+02
  0
VERTEX
  8
0
 62
6
 10
3.40359287E+02
 20
-2.97425195E+02
  0
VERTEX
  8
0
 62
6
 10
3.40298863E+02
 20
-2.97315446E+02
  0
VERTEX
  8
0
 62
6
 10
3.40228553E+02
 20
-2.97211094E+02
  0
VERTEX
  8
0
 62
6
 10
3.40148892E+02
 20
-2.97112934E+02
  0
VERTEX
  8
0
 62
6
 10
3.40060485E+02
 20
-2.97021711E+02
  0
VERTEX
  8
0
 62
6
 10
3.39964006E+02
 20
-2.96938121E+02
  0
VERTEX
  8
0
 62
6
 10
3.39860190E+02
 20
-2.96862800E+02
  0
VERTEX
  8
0
 62
6
 10
3.39749825E+02
 20
-2.96796320E+02
  0
VERTEX
  8
0
 62
6
 10
3.39633752E+02
 20
-2.96739189E+02
  0
VERTEX
  8
0
 62
6
 10
3.39512855E+02
 20
-2.96691840E+02
  0
VERTEX
  8
0
 62
6
 10
3.39388054E+02
 20
-2.96654634E+02
  0
VERTEX
  8
0
 62
6
 10
3.39260297E+02
 20
-2.96627854E+02
  0
VERTEX
  8
0
 62
6
 10
3.39130559E+02
 20
-2.96611704E+02
  0
VERTEX
  8
0
 62
6
 10
3.38999825E+02
 20
-2.96606307E+02
  0
VERTEX
  8
0
 62
6
 10
3.38869091E+02
 20
-2.96611704E+02
  0
VERTEX
  8
0
 62
6
 10
3.38739353E+02
 20
-2.96627854E+02
  0
VERTEX
  8
0
 62
6
 10
3.38611596E+02
 20
-2.96654634E+02
  0
VERTEX
  8
0
 62
6
 10
3.38486795E+02
 20
-2.96691840E+02
  0
VERTEX
  8
0
 62
6
 10
3.38365898E+02
 20
-2.96739189E+02
  0
VERTEX
  8
0
 62
6
 10
3.38249825E+02
 20
-2.96796320E+02
  0
VERTEX
  8
0
 62
6
 10
3.38139460E+02
 20
-2.96862800E+02
  0
VERTEX
  8
0
 62
6
 10
3.38035644E+02
 20
-2.96938121E+02
  0
VERTEX
  8
0
 62
6
 10
3.37939165E+02
 20
-2.97021711E+02
  0
VERTEX
  8
0
 62
6
 10
3.37850758E+02
 20
-2.97112934E+02
  0
VERTEX
  8
0
 62
6
 10
3.37771097E+02
 20
-2.97211094E+02
  0
VERTEX
  8
0
 62
6
 10
3.37700787E+02
 20
-2.97315446E+02
  0
VERTEX
  8
0
 62
6
 10
3.37640363E+02
 20
-2.97425195E+02
  0
VERTEX
  8
0
 62
6
 10
3.37590286E+02
 20
-2.97539505E+02
  0
VERTEX
  8
0
 62
6
 10
3.37550936E+02
 20
-2.97657508E+02
  0
VERTEX
  8
0
 62
6
 10
3.37522613E+02
 20
-2.97778304E+02
  0
VERTEX
  8
0
 62
6
 10
3.37505533E+02
 20
-2.97900974E+02
  0
VERTEX
  8
0
 62
6
 10
3.37499825E+02
 20
-2.98024585E+02
  0
VERTEX
  8
0
 62
6
 10
3.37505533E+02
 20
-2.98148196E+02
  0
VERTEX
  8
0
 62
6
 10
3.37522613E+02
 20
-2.98270866E+02
  0
VERTEX
  8
0
 62
6
 10
3.37550936E+02
 20
-2.98391662E+02
  0
VERTEX
  8
0
 62
6
 10
3.37590286E+02
 20
-2.98509665E+02
  0
VERTEX
  8
0
 62
6
 10
3.37640363E+02
 20
-2.98623975E+02
  0
VERTEX
  8
0
 62
6
 10
3.37700787E+02
 20
-2.98733724E+02
  0
VERTEX
  8
0
 62
6
 10
3.37771097E+02
 20
-2.98838076E+02
  0
VERTEX
  8
0
 62
6
 10
3.37850758E+02
 20
-2.98936236E+02
  0
VERTEX
  8
0
 62
6
 10
3.37939165E+02
 20
-2.99027459E+02
  0
VERTEX
  8
0
 62
6
 10
3.38035644E+02
 20
-2.99111049E+02
  0
VERTEX
  8
0
 62
6
 10
3.38139460E+02
 20
-2.99186370E+02
  0
VERTEX
  8
0
 62
6
 10
3.38249825E+02
 20
-2.99252850E+02
  0
VERTEX
  8
0
 62
6
 10
3.38365898E+02
 20
-2.99309981E+02
  0
VERTEX
  8
0
 62
6
 10
3.38486795E+02
 20
-2.99357330E+02
  0
VERTEX
  8
0
 62
6
 10
3.38611596E+02
 20
-2.99394536E+02
  0
VERTEX
  8
0
 62
6
 10
3.38739353E+02
 20
-2.99421316E+02
  0
VERTEX
  8
0
 62
6
 10
3.38869091E+02
 20
-2.99437466E+02
  0
VERTEX
  8
0
 62
6
 10
3.38999825E+02
 20
-2.99442863E+02
  0
VERTEX
  8
0
 62
6
 10
3.39130559E+02
 20
-2.99437466E+02
  0
VERTEX
  8
0
 62
6
 10
3.39260297E+02
 20
-2.99421316E+02
  0
VERTEX
  8
0
 62
6
 10
3.39388054E+02
 20
-2.99394536E+02
  0
VERTEX
  8
0
 62
6
 10
3.39512855E+02
 20
-2.99357330E+02
  0
VERTEX
  8
0
 62
6
 10
3.39633752E+02
 20
-2.99309981E+02
  0
VERTEX
  8
0
 62
6
 10
3.39749825E+02
 20
-2.99252850E+02
  0
VERTEX
  8
0
 62
6
 10
3.39860190E+02
 20
-2.99186370E+02
  0
VERTEX
  8
0
 62
6
 10
3.39964006E+02
 20
-2.99111049E+02
  0
VERTEX
  8
0
 62
6
 10
3.40060485E+02
 20
-2.99027459E+02
  0
VERTEX
  8
0
 62
6
 10
3.40148892E+02
 20
-2.98936236E+02
  0
VERTEX
  8
0
 62
6
 10
3.40228553E+02
 20
-2.98838076E+02
  0
VERTEX
  8
0
 62
6
 10
3.40298863E+02
 20
-2.98733724E+02
  0
VERTEX
  8
0
 62
6
 10
3.40359287E+02
 20
-2.98623975E+02
  0
VERTEX
  8
0
 62
6
 10
3.40409364E+02
 20
-2.98509665E+02
  0
VERTEX
  8
0
 62
6
 10
3.40448714E+02
 20
-2.98391662E+02
  0
VERTEX
  8
0
 62
6
 10
3.40477037E+02
 20
-2.98270866E+02
  0
VERTEX
  8
0
 62
6
 10
3.40494117E+02
 20
-2.98148196E+02
  0
VERTEX
  8
0
 62
6
 10
3.40499825E+02
 20
-2.98024585E+02
  0
SEQEND
  8
0
  0
POLYLINE
  8
0
 62
4
 66
1
  0
VERTEX
  8
0
 62
4
 10
3.40734825E+02
 20
-2.98024585E+02
  0
VERTEX
  8
0
 62
4
 10
3.40728223E+02
 20
-2.97882020E+02
  0
VERTEX
  8
0
 62
4
 10
3.40708466E+02
 20
-2.97740540E+02
  0
VERTEX
  8
0
 62
4
 10
3.40675706E+02
 20
-2.97601222E+02
  0
VERTEX
  8
0
 62
4
 10
3.40630192E+02
 20
-2.97465127E+02
  0
VERTEX
  8
0
 62
4
 10
3.40572269E+02
 20
-2.97333288E+02
  0
VERTEX
  8
0
 62
4
 10
3.40502379E+02
 20
-2.97206711E+02
  0
VERTEX
  8
0
 62
4
 10
3.40421054E+02
 20
-2.97086359E+02
  0
VERTEX
  8
0
 62
4
 10
3.40328912E+02
 20
-2.96973147E+02
  0
VERTEX
  8
0
 62
4
 10
3.40226655E+02
 20
-2.96867937E+02
  0
VERTEX
  8
0
 62
4
 10
3.40115062E+02
 20
-2.96771530E+02
  0
VERTEX
  8
0
 62
4
 10
3.39994980E+02
 20
-2.96684659E+02
  0
VERTEX
  8
0
 62
4
 10
3.39867325E+02
 20
-2.96607986E+02
  0
VERTEX
  8
0
 62
4
 10
3.39733068E+02
 20
-2.96542095E+02
  0
VERTEX
  8
0
 62
4
 10
3.39593230E+02
 20
-2.96487485E+02
  0
VERTEX
  8
0
 62
4
 10
3.39448876E+02
 20
-2.96444575E+02
  0
VERTEX
  8
0
 62
4
 10
3.39301105E+02
 20
-2.96413689E+02
  0
VERTEX
  8
0
 62
4
 10
3.39151040E+02
 20
-2.96395062E+02
  0
VERTEX
  8
0
 62
4
 10
3.38999825E+02
 20
-2.96388838E+02
  0
VERTEX
  8
0
 62
4
 10
3.38848610E+02
 20
-2.96395062E+02
  0
VERTEX
  8
0
 62
4
 10
3.38698545E+02
 20
-2.96413689E+02
  0
VERTEX
  8
0
 62
4
 10
3.38550774E+02
 20
-2.96444575E+02
  0
VERTEX
  8
0
 62
4
 10
3.38406420E+02
 20
-2.96487485E+02
  0
VERTEX
  8
0
 62
4
 10
3.38266582E+02
 20
-2.96542095E+02
  0
VERTEX
  8
0
 62
4
 10
3.38132325E+02
 20
-2.96607986E+02
  0
VERTEX
  8
0
 62
4
 10
3.38004670E+02
 20
-2.96684659E+02
  0
VERTEX
  8
0
 62
4
 10
3.37884588E+02
 20
-2.96771530E+02
  0
VERTEX
  8
0
 62
4
 10
3.37772995E+02
 20
-2.96867937E+02
  0
VERTEX
  8
0
 62
4
 10
3.37670738E+02
 20
-2.96973147E+02
  0
VERTEX
  8
0
 62
4
 10
3.37578596E+02
 20
-2.97086359E+02
  0
VERTEX
  8
0
 62
4
 10
3.37497271E+02
 20
-2.97206711E+02
  0
VERTEX
  8
0
 62
4
 10
3.37427381E+02
 20
-2.97333288E+02
  0
VERTEX
  8
0
 62
4
 10
3.37369458E+02
 20
-2.97465127E+02
  0
VERTEX
  8
0
 62
4
 10
3.37323944E+02
 20
-2.97601222E+02
  0
VERTEX
  8
0
 62
4
 10
3.37291184E+02
 20
-2.97740540E+02
  0
VERTEX
  8
0
 62
4
 10
3.37271427E+02
 20
-2.97882020E+02
  0
VERTEX
  8
0
 62
4
 10
3.37264825E+02
 20
-2.98024585E+02
  0
VERTEX
  8
0
 62
4
 10
3.37271427E+02
 20
-2.98167150E+02
  0
VERTEX
  8
0
 62
4
 10
3.37291184E+02
 20
-2.98308630E+02
  0
VERTEX
  8
0
 62
4
 10
3.37323944E+02
 20
-2.98447948E+02
  0
VERTEX
  8
0
 62
4
 10
3.37369458E+02
 20
-2.98584043E+02
  0
VERTEX
  8
0
 62
4
 10
3.37427381E+02
 20
-2.98715882E+02
  0
VERTEX
  8
0
 62
4
 10
3.37497271E+02
 20
-2.98842459E+02
  0
VERTEX
  8
0
 62
4
 10
3.37578596E+02
 20
-2.98962811E+02
  0
VERTEX
  8
0
 62
4
 10
3.37670738E+02
 20
-2.99076023E+02
  0
VERTEX
  8
0
 62
4
 10
3.37772995E+02
 20
-2.99181233E+02
  0
VERTEX
  8
0
 62
4
 10
3.37884588E+02
 20
-2.99277640E+02
  0
VERTEX
  8
0
 62
4
 10
3.38004670E+02
 20
-2.99364511E+02
  0
VERTEX
  8
0
 62
4
 10
3.38132325E+02
 20
-2.99441184E+02
  0
VERTEX
  8
0
 62
4
 10
3.38266582E+02
 20
-2.99507075E+02
  0
VERTEX
  8
0
 62
4
 10
3.38406420E+02
 20
-2.99561685E+02
  0
VERTEX
  8
0
 62
4
 10
3.38550774E+02
 20
-2.99604595E+02
  0
VERTEX
  8
0
 62
4
 10
3.38698545E+02
 20
-2.99635481E+02
  0
VERTEX
  8
0
 62
4
 10
3.38848610E+02
 20
-2.99654108E+02
  0
VERTEX
  8
0
 62
4
 10
3.38999825E+02
 20
-2.99660332E+02
  0
VERTEX
  8
0
 62
4
 10
3.39151040E+02
 20
-2.99654108E+02
  0
VERTEX
  8
0
 62
4
 10
3.39301105E+02
 20
-2.99635481E+02
  0
VERTEX
  8
0
 62
4
 10
3.39448876E+02
 20
-2.99604595E+02
  0
VERTEX
  8
0
 62
4
 10
3.39593230E+02
 20
-2.99561685E+02
  0
VERTEX
  8
0
 62
4
 10
3.39733068E+02
 20
-2.99507075E+02
  0
VERTEX
  8
0
 62
4
 10
3.39867325E+02
 20
-2.99441184E+02
  0
VERTEX
  8
0
 62
4
 10
3.39994980E+02
 20
-2.99364511E+02
  0
VERTEX
  8
0
 62
4
 10
3.40115062E+02
 20
-2.99277640E+02
  0
VERTEX
  8
0
 62
4
 10
3.40226655E+02
 20
-2.99181233E+02
  0
VERTEX
  8
0
 62
4
 10
3.40328912E+02
 20
-2.99076023E+02
  0
VERTEX
  8
0
 62
4
 10
3.40421054E+02
 20
-2.98962811E+02
  0
VERTEX
  8
0
 62
4
 10
3.40502379E+02
 20
-2.98842459E+02
  0
VERTEX
  8
0
 62
4
 10
3.40572269E+02
 20
-2.98715882E+02
  0
VERTEX
  8
0
 62
4
 10
3.40630192E+02
 20
-2.98584043E+02
  0
VERTEX
  8
0
 62
4
 10
3.40675706E+02
 20
-2.98447948E+02
  0
VERTEX
  8
0
 62
4
 10
3.40708466E+02
 20
-2.98308630E+02
  0
VERTEX
  8
0
 62
4
 10
3.40728223E+02
 20
-2.98167150E+02
  0
VERTEX
  8
0
 62
4
 10
3.40734825E+02
 20
-2.98024585E+02
  0
SEQEND
  8
0
  0
POLYLINE
  8
0
 62
4
 66
1
  0
VERTEX
  8
0
 62
4
 10
3.40492902E+02
 20
-2.98857742E+02
  0
VERTEX
  8
0
 62
4
 10
3.40604567E+02
 20
-2.98728174E+02
  0
VERTEX
  8
0
 62
4
 10
3.40703697E+02
 20
-2.98589790E+02
  0
VERTEX
  8
0
 62
4
 10
3.40789515E+02
 20
-2.98443670E+02
  0
VERTEX
  8
0
 62
4
 10
3.40861354E+02
 20
-2.98290956E+02
  0
VERTEX
  8
0
 62
4
 10
3.40918650E+02
 20
-2.98132840E+02
  0
VERTEX
  8
0
 62
4
 10
3.40960956E+02
 20
-2.97970559E+02
  0
VERTEX
  8
0
 62
4
 10
3.40987943E+02
 20
-2.97805380E+02
  0
VERTEX
  8
0
 62
4
 10
3.40999399E+02
 20
-2.97638593E+02
  0
VERTEX
  8
0
 62
4
 10
3.40995234E+02
 20
-2.97471500E+02
  0
VERTEX
  8
0
 62
4
 10
3.40975482E+02
 20
-2.97305409E+02
  0
VERTEX
  8
0
 62
4
 10
3.40940296E+02
 20
-2.97141615E+02
  0
VERTEX
  8
0
 62
4
 10
3.40889951E+02
 20
-2.96981398E+02
  0
VERTEX
  8
0
 62
4
 10
3.40824841E+02
 20
-2.96826010E+02
  0
VERTEX
  8
0
 62
4
 10
3.40745475E+02
 20
-2.96676665E+02
  0
VERTEX
  8
0
 62
4
 10
3.40652471E+02
 20
-2.96534530E+02
  0
VERTEX
  8
0
 62
4
 10
3.40546558E+02
 20
-2.96400714E+02
  0
VERTEX
  8
0
 62
4
 10
3.40428561E+02
 20
-2.96276264E+02
  0
VERTEX
  8
0
 62
4
 10
3.40299404E+02
 20
-2.96162151E+02
  0
VERTEX
  8
0
 62
4
 10
3.40160094E+02
 20
-2.96059266E+02
  0
VERTEX
  8
0
 62
4
 10
3.40011721E+02
 20
-2.95968414E+02
  0
VERTEX
  8
0
 62
4
 10
3.39855442E+02
 20
-2.95890305E+02
  0
VERTEX
  8
0
 62
4
 10
3.39692480E+02
 20
-2.95825547E+02
  0
VERTEX
  8
0
 62
4
 10
3.39524107E+02
 20
-2.95774648E+02
  0
VERTEX
  8
0
 62
4
 10
3.39351638E+02
 20
-2.95738005E+02
  0
VERTEX
  8
0
 62
4
 10
3.39176422E+02
 20
-2.95715904E+02
  0
VERTEX
  8
0
 62
4
 10
3.38999825E+02
 20
-2.95708518E+02
  0
VERTEX
  8
0
 62
4
 10
3.38823228E+02
 20
-2.95715904E+02
  0
VERTEX
  8
0
 62
4
 10
3.38648011E+02
 20
-2.95738005E+02
  0
VERTEX
  8
0
 62
4
 10
3.38475543E+02
 20
-2.95774648E+02
  0
VERTEX
  8
0
 62
4
 10
3.38307170E+02
 20
-2.95825547E+02
  0
VERTEX
  8
0
 62
4
 10
3.38144208E+02
 20
-2.95890305E+02
  0
VERTEX
  8
0
 62
4
 10
3.37987929E+02
 20
-2.95968414E+02
  0
VERTEX
  8
0
 62
4
 10
3.37839556E+02
 20
-2.96059266E+02
  0
VERTEX
  8
0
 62
4
 10
3.37700246E+02
 20
-2.96162151E+02
  0
VERTEX
  8
0
 62
4
 10
3.37571089E+02
 20
-2.96276264E+02
  0
VERTEX
  8
0
 62
4
 10
3.37453092E+02
 20
-2.96400714E+02
  0
VERTEX
  8
0
 62
4
 10
3.37347179E+02
 20
-2.96534530E+02
  0
VERTEX
  8
0
 62
4
 10
3.37254175E+02
 20
-2.96676665E+02
  0
VERTEX
  8
0
 62
4
 10
3.37174809E+02
 20
-2.96826010E+02
  0
VERTEX
  8
0
 62
4
 10
3.37109699E+02
 20
-2.96981398E+02
  0
VERTEX
  8
0
 62
4
 10
3.37059354E+02
 20
-2.97141615E+02
  0
VERTEX
  8
0
 62
4
 10
3.37024168E+02
 20
-2.97305409E+02
  0
VERTEX
  8
0
 62
4
 10
3.37004416E+02
 20
-2.97471500E+02
  0
VERTEX
  8
0
 62
4
 10
3.37000251E+02
 20
-2.97638593E+02
  0
VERTEX
  8
0
 62
4
 10
3.37011707E+02
 20
-2.97805380E+02
  0
VERTEX
  8
0
 62
4
 10
3.37038694E+02
 20
-2.97970559E+02
  0
VERTEX
  8
0
 62
4
 10
3.37081000E+02
 20
-2.98132840E+02
  0
VERTEX
  8
0
 62
4
 10
3.37138296E+02
 20
-2.98290956E+02
  0
VERTEX
  8
0
 62
4
 10
3.37210135E+02
 20
-2.98443670E+02
  0
VERTEX
  8
0
 62
4
 10
3.37295953E+02
 20
-2.98589790E+02
  0
VERTEX
  8
0
 62
4
 10
3.37395083E+02
 20
-2.98728174E+02
  0
VERTEX
  8
0
 62
4
 10
3.37506748E+02
 20
-2.98857742E+02
  0
SEQEND
  8
0
  0
POLYLINE
  8
0
 62
6
 66
1
  0
VERTEX
  8
0
 62
6
 10
3.32499825E+02
 20
-2.98024585E+02
  0
VERTEX
  8
0
 62
6
 10
3.32494117E+02
 20
-2.97900974E+02
  0
VERTEX
  8
0
 62
6
 10
3.32477037E+02
 20
-2.97778304E+02
  0
VERTEX
  8
0
 62
6
 10
3.32448714E+02
 20
-2.97657508E+02
  0
VERTEX
  8
0
 62
6
 10
3.32409364E+02
 20
-2.97539505E+02
  0
VERTEX
  8
0
 62
6
 10
3.32359287E+02
 20
-2.97425195E+02
  0
VERTEX
  8
0
 62
6
 10
3.32298863E+02
 20
-2.97315446E+02
  0
VERTEX
  8
0
 62
6
 10
3.32228553E+02
 20
-2.97211094E+02
  0
VERTEX
  8
0
 62
6
 10
3.32148892E+02
 20
-2.97112934E+02
  0
VERTEX
  8
0
 62
6
 10
3.32060485E+02
 20
-2.97021711E+02
  0
VERTEX
  8
0
 62
6
 10
3.31964006E+02
 20
-2.96938121E+02
  0
VERTEX
  8
0
 62
6
 10
3.31860190E+02
 20
-2.96862800E+02
  0
VERTEX
  8
0
 62
6
 10
3.31749825E+02
 20
-2.96796320E+02
  0
VERTEX
  8
0
 62
6
 10
3.31633752E+02
 20
-2.96739189E+02
  0
VERTEX
  8
0
 62
6
 10
3.31512855E+02
 20
-2.96691840E+02
  0
VERTEX
  8
0
 62
6
 10
3.31388054E+02
 20
-2.96654634E+02
  0
VERTEX
  8
0
 62
6
 10
3.31260297E+02
 20
-2.96627854E+02
  0
VERTEX
  8
0
 62
6
 10
3.31130559E+02
 20
-2.96611704E+02
  0
VERTEX
  8
0
 62
6
 10
3.30999825E+02
 20
-2.96606307E+02
  0
VERTEX
  8
0
 62
6
 10
3.30869091E+02
 20
-2.96611704E+02
  0
VERTEX
  8
0
 62
6
 10
3.30739353E+02
 20
-2.96627854E+02
  0
VERTEX
  8
0
 62
6
 10
3.30611596E+02
 20
-2.96654634E+02
  0
VERTEX
  8
0
 62
6
 10
3.30486795E+02
 20
-2.96691840E+02
  0
VERTEX
  8
0
 62
6
 10
3.30365898E+02
 20
-2.96739189E+02
  0
VERTEX
  8
0
 62
6
 10
3.30249825E+02
 20
-2.96796320E+02
  0
VERTEX
  8
0
 62
6
 10
3.30139460E+02
 20
-2.96862800E+02
  0
VERTEX
  8
0
 62
6
 10
3.30035644E+02
 20
-2.96938121E+02
  0
VERTEX
  8
0
 62
6
 10
3.29939165E+02
 20
-2.97021711E+02
  0
VERTEX
  8
0
 62
6
 10
3.29850758E+02
 20
-2.97112934E+02
  0
VERTEX
  8
0
 62
6
 10
3.29771097E+02
 20
-2.97211094E+02
  0
VERTEX
  8
0
 62
6
 10
3.29700787E+02
 20
-2.97315446E+02
  0
VERTEX
  8
0
 62
6
 10
3.29640363E+02
 20
-2.97425195E+02
  0
VERTEX
  8
0
 62
6
 10
3.29590286E+02
 20
-2.97539505E+02
  0
VERTEX
  8
0
 62
6
 10
3.29550936E+02
 20
-2.97657508E+02
  0
VERTEX
  8
0
 62
6
 10
3.29522613E+02
 20
-2.97778304E+02
  0
VERTEX
  8
0
 62
6
 10
3.29505533E+02
 20
-2.97900974E+02
  0
VERTEX
  8
0
 62
6
 10
3.29499825E+02
 20
-2.98024585E+02
  0
VERTEX
  8
0
 62
6
 10
3.29505533E+02
 20
-2.98148196E+02
  0
VERTEX
  8
0
 62
6
 10
3.29522613E+02
 20
-2.98270866E+02
  0
VERTEX
  8
0
 62
6
 10
3.29550936E+02
 20
-2.98391662E+02
  0
VERTEX
  8
0
 62
6
 10
3.29590286E+02
 20
-2.98509665E+02
  0
VERTEX
  8
0
 62
6
 10
3.29640363E+02
 20
-2.98623975E+02
  0
VERTEX
  8
0
 62
6
 10
3.29700787E+02
 20
-2.98733724E+02
  0
VERTEX
  8
0
 62
6
 10
3.29771097E+02
 20
-2.98838076E+02
  0
VERTEX
  8
0
 62
6
 10
3.29850758E+02
 20
-2.98936236E+02
  0
VERTEX
  8
0
 62
6
 10
3.29939165E+02
 20
-2.99027459E+02
  0
VERTEX
  8
0
 62
6
 10
3.30035644E+02
 20
-2.99111049E+02
  0
VERTEX
  8
0
 62
6
 10
3.30139460E+02
 20
-2.99186370E+02
  0
VERTEX
  8
0
 62
6
 10
3.30249825E+02
 20
-2.99252850E+02
  0
VERTEX
  8
0
 62
6
 10
3.30365898E+02
 20
-2.99309981E+02
  0
VERTEX
  8
0
 62
6
 10
3.30486795E+02
 20
-2.99357330E+02
  0
VERTEX
  8
0
 62
6
 10
3.30611596E+02
 20
-2.99394536E+02
  0
VERTEX
  8
0
 62
6
 10
3.30739353E+02
 20
-2.99421316E+02
  0
VERTEX
  8
0
 62
6
 10
3.30869091E+02
 20
-2.99437466E+02
  0
VERTEX
  8
0
 62
6
 10
3.30999825E+02
 20
-2.99442863E+02
  0
VERTEX
  8
0
 62
6
 10
3.31130559E+02
 20
-2.99437466E+02
  0
VERTEX
  8
0
 62
6
 10
3.31260297E+02
 20
-2.99421316E+02
  0
VERTEX
  8
0
 62
6
 10
3.31388054E+02
 20
-2.99394536E+02
  0
VERTEX
  8
0
 62
6
 10
3.31512855E+02
 20
-2.99357330E+02
  0
VERTEX
  8
0
 62
6
 10
3.31633752E+02
 20
-2.99309981E+02
  0
VERTEX
  8
0
 62
6
 10
3.31749825E+02
 20
-2.99252850E+02
  0
VERTEX
  8
0
 62
6
 10
3.31860190E+02
 20
-2.99186370E+02
  0
VERTEX
  8
0
 62
6
 10
3.31964006E+02
 20
-2.99111049E+02
  0
VERTEX
  8
0
 62
6
 10
3.32060485E+02
 20
-2.99027459E+02
  0
VERTEX
  8
0
 62
6
 10
3.32148892E+02
 20
-2.98936236E+02
  0
VERTEX
  8
0
 62
6
 10
3.32228553E+02
 20
-2.98838076E+02
  0
VERTEX
  8
0
 62
6
 10
3.32298863E+02
 20
-2.98733724E+02
  0
VERTEX
  8
0
 62
6
 10
3.32359287E+02
 20
-2.98623975E+02
  0
VERTEX
  8
0
 62
6
 10
3.32409364E+02
 20
-2.98509665E+02
  0
VERTEX
  8
0
 62
6
 10
3.32448714E+02
 20
-2.98391662E+02
  0
VERTEX
  8
0
 62
6
 10
3.32477037E+02
 20
-2.98270866E+02
  0
VERTEX
  8
0
 62
6
 10
3.32494117E+02
 20
-2.98148196E+02
  0
VERTEX
  8
0
 62
6
 10
3.32499825E+02
 20
-2.98024585E+02
  0
SEQEND
  8
0
  0
POLYLINE
  8
0
 62
4
 66
1
  0
VERTEX
  8
0
 62
4
 10
3.32734825E+02
 20
-2.98024585E+02
  0
VERTEX
  8
0
 62
4
 10
3.32728223E+02
 20
-2.97882020E+02
  0
VERTEX
  8
0
 62
4
 10
3.32708466E+02
 20
-2.97740540E+02
  0
VERTEX
  8
0
 62
4
 10
3.32675706E+02
 20
-2.97601222E+02
  0
VERTEX
  8
0
 62
4
 10
3.32630192E+02
 20
-2.97465127E+02
  0
VERTEX
  8
0
 62
4
 10
3.32572269E+02
 20
-2.97333288E+02
  0
VERTEX
  8
0
 62
4
 10
3.32502379E+02
 20
-2.97206711E+02
  0
VERTEX
  8
0
 62
4
 10
3.32421054E+02
 20
-2.97086359E+02
  0
VERTEX
  8
0
 62
4
 10
3.32328912E+02
 20
-2.96973147E+02
  0
VERTEX
  8
0
 62
4
 10
3.32226655E+02
 20
-2.96867937E+02
  0
VERTEX
  8
0
 62
4
 10
3.32115062E+02
 20
-2.96771530E+02
  0
VERTEX
  8
0
 62
4
 10
3.31994980E+02
 20
-2.96684659E+02
  0
VERTEX
  8
0
 62
4
 10
3.31867325E+02
 20
-2.96607986E+02
  0
VERTEX
  8
0
 62
4
 10
3.31733068E+02
 20
-2.96542095E+02
  0
VERTEX
  8
0
 62
4
 10
3.31593230E+02
 20
-2.96487485E+02
  0
VERTEX
  8
0
 62
4
 10
3.31448876E+02
 20
-2.96444575E+02
  0
VERTEX
  8
0
 62
4
 10
3.31301105E+02
 20
-2.96413689E+02
  0
VERTEX
  8
0
 62
4
 10
3.31151040E+02
 20
-2.96395062E+02
  0
VERTEX
  8
0
 62
4
 10
3.30999825E+02
 20
-2.96388838E+02
  0
VERTEX
  8
0
 62
4
 10
3.30848610E+02
 20
-2.96395062E+02
  0
VERTEX
  8
0
 62
4
 10
3.30698545E+02
 20
-2.96413689E+02
  0
VERTEX
  8
0
 62
4
 10
3.30550774E+02
 20
-2.96444575E+02
  0
VERTEX
  8
0
 62
4
 10
3.30406420E+02
 20
-2.96487485E+02
  0
VERTEX
  8
0
 62
4
 10
3.30266582E+02
 20
-2.96542095E+02
  0
VERTEX
  8
0
 62
4
 10
3.30132325E+02
 20
-2.96607986E+02
  0
VERTEX
  8
0
 62
4
 10
3.30004670E+02
 20
-2.96684659E+02
  0
VERTEX
  8
0
 62
4
 10
3.29884588E+02
 20
-2.96771530E+02
  0
VERTEX
  8
0
 62
4
 10
3.29772995E+02
 20
-2.96867937E+02
  0
VERTEX
  8
0
 62
4
 10
3.29670738E+02
 20
-2.96973147E+02
  0
VERTEX
  8
0
 62
4
 10
3.29578596E+02
 20
-2.97086359E+02
  0
VERTEX
  8
0
 62
4
 10
3.29497271E+02
 20
-2.97206711E+02
  0
VERTEX
  8
0
 62
4
 10
3.29427381E+02
 20
-2.97333288E+02
  0
VERTEX
  8
0
 62
4
 10
3.29369458E+02
 20
-2.97465127E+02
  0
VERTEX
  8
0
 62
4
 10
3.29323944E+02
 20
-2.97601222E+02
  0
VERTEX
  8
0
 62
4
 10
3.29291184E+02
 20
-2.97740540E+02
  0
VERTEX
  8
0
 62
4
 10
3.29271427E+02
 20
-2.97882020E+02
  0
VERTEX
  8
0
 62
4
 10
3.29264825E+02
 20
-2.98024585E+02
  0
VERTEX
  8
0
 62
4
 10
3.29271427E+02
 20
-2.98167150E+02
  0
VERTEX
  8
0
 62
4
 10
3.29291184E+02
 20
-2.98308630E+02
  0
VERTEX
  8
0
 62
4
 10
3.29323944E+02
 20
-2.98447948E+02
  0
VERTEX
  8
0
 62
4
 10
3.29369458E+02
 20
-2.98584043E+02
  0
VERTEX
  8
0
 62
4
 10
3.29427381E+02
 20
-2.98715882E+02
  0
VERTEX
  8
0
 62
4
 10
3.29497271E+02
 20
-2.98842459E+02
  0
VERTEX
  8
0
 62
4
 10
3.29578596E+02
 20
-2.98962811E+02
  0
VERTEX
  8
0
 62
4
 10
3.29670738E+02
 20
-2.99076023E+02
  0
VERTEX
  8
0
 62
4
 10
3.29772995E+02
 20
-2.99181233E+02
  0
VERTEX
  8
0
 62
4
 10
3.29884588E+02
 20
-2.99277640E+02
  0
VERTEX
  8
0
 62
4
 10
3.30004670E+02
 20
-2.99364511E+02
  0
VERTEX
  8
0
 62
4
 10
3.30132325E+02
 20
-2.99441184E+02
  0
VERTEX
  8
0
 62
4
 10
3.30266582E+02
 20
-2.99507075E+02
  0
VERTEX
  8
0
 62
4
 10
3.30406420E+02
 20
-2.99561685E+02
  0
VERTEX
  8
0
 62
4
 10
3.30550774E+02
 20
-2.99604595E+02
  0
VERTEX
  8
0
 62
4
 10
3.30698545E+02
 20
-2.99635481E+02
  0
VERTEX
  8
0
 62
4
 10
3.30848610E+02
 20
-2.99654108E+02
  0
VERTEX
  8
0
 62
4
 10
3.30999825E+02
 20
-2.99660332E+02
  0
VERTEX
  8
0
 62
4
 10
3.31151040E+02
 20
-2.99654108E+02
  0
VERTEX
  8
0
 62
4
 10
3.31301105E+02
 20
-2.99635481E+02
  0
VERTEX
  8
0
 62
4
 10
3.31448876E+02
 20
-2.99604595E+02
  0
VERTEX
  8
0
 62
4
 10
3.31593230E+02
 20
-2.99561685E+02
  0
VERTEX
  8
0
 62
4
 10
3.31733068E+02
 20
-2.99507075E+02
  0
VERTEX
  8
0
 62
4
 10
3.31867325E+02
 20
-2.99441184E+02
  0
VERTEX
  8
0
 62
4
 10
3.31994980E+02
 20
-2.99364511E+02
  0
VERTEX
  8
0
 62
4
 10
3.32115062E+02
 20
-2.99277640E+02
  0
VERTEX
  8
0
 62
4
 10
3.32226655E+02
 20
-2.99181233E+02
  0
VERTEX
  8
0
 62
4
 10
3.32328912E+02
 20
-2.99076023E+02
  0
VERTEX
  8
0
 62
4
 10
3.32421054E+02
 20
-2.98962811E+02
  0
VERTEX
  8
0
 62
4
 10
3.32502379E+02
 20
-2.98842459E+02
  0
VERTEX
  8
0
 62
4
 10
3.32572269E+02
 20
-2.98715882E+02
  0
VERTEX
  8
0
 62
4
 10
3.32630192E+02
 20
-2.98584043E+02
  0
VERTEX
  8
0
 62
4
 10
3.32675706E+02
 20
-2.98447948E+02
  0
VERTEX
  8
0
 62
4
 10
3.32708466E+02
 20
-2.98308630E+02
  0
VERTEX
  8
0
 62
4
 10
3.32728223E+02
 20
-2.98167150E+02
  0
VERTEX
  8
0
 62
4
 10
3.32734825E+02
 20
-2.98024585E+02
  0
SEQEND
  8
0
  0
POLYLINE
  8
0
 62
4
 66
1
  0
VERTEX
  8
0
 62
4
 10
3.32492902E+02
 20
-2.98857742E+02
  0
VERTEX
  8
0
 62
4
 10
3.32604567E+02
 20
-2.98728174E+02
  0
VERTEX
  8
0
 62
4
 10
3.32703697E+02
 20
-2.98589790E+02
  0
VERTEX
  8
0
 62
4
 10
3.32789515E+02
 20
-2.98443670E+02
  0
VERTEX
  8
0
 62
4
 10
3.32861354E+02
 20
-2.98290956E+02
  0
VERTEX
  8
0
 62
4
 10
3.32918650E+02
 20
-2.98132840E+02
  0
VERTEX
  8
0
 62
4
 10
3.32960956E+02
 20
-2.97970559E+02
  0
VERTEX
  8
0
 62
4
 10
3.32987943E+02
 20
-2.97805380E+02
  0
VERTEX
  8
0
 62
4
 10
3.32999399E+02
 20
-2.97638593E+02
  0
VERTEX
  8
0
 62
4
 10
3.32995234E+02
 20
-2.97471500E+02
  0
VERTEX
  8
0
 62
4
 10
3.32975482E+02
 20
-2.97305409E+02
  0
VERTEX
  8
0
 62
4
 10
3.32940296E+02
 20
-2.97141615E+02
  0
VERTEX
  8
0
 62
4
 10
3.32889951E+02
 20
-2.96981398E+02
  0
VERTEX
  8
0
 62
4
 10
3.32824841E+02
 20
-2.96826010E+02
  0
VERTEX
  8
0
 62
4
 10
3.32745475E+02
 20
-2.96676665E+02
  0
VERTEX
  8
0
 62
4
 10
3.32652471E+02
 20
-2.96534530E+02
  0
VERTEX
  8
0
 62
4
 10
3.32546558E+02
 20
-2.96400714E+02
  0
VERTEX
  8
0
 62
4
 10
3.32428561E+02
 20
-2.96276264E+02
  0
VERTEX
  8
0
 62
4
 10
3.32299404E+02
 20
-2.96162151E+02
  0
VERTEX
  8
0
 62
4
 10
3.32160094E+02
 20
-2.96059266E+02
  0
VERTEX
  8
0
 62
4
 10
3.32011721E+02
 20
-2.95968414E+02
  0
VERTEX
  8
0
 62
4
 10
3.31855442E+02
 20
-2.95890305E+02
  0
VERTEX
  8
0
 62
4
 10
3.31692480E+02
 20
-2.95825547E+02
  0
VERTEX
  8
0
 62
4
 10
3.31524107E+02
 20
-2.95774648E+02
  0
VERTEX
  8
0
 62
4
 10
3.31351638E+02
 20
-2.95738005E+02
  0
VERTEX
  8
0
 62
4
 10
3.31176422E+02
 20
-2.95715904E+02
  0
VERTEX
  8
0
 62
4
 10
3.30999825E+02
 20
-2.95708518E+02
  0
VERTEX
  8
0
 62
4
 10
3.30823228E+02
 20
-2.95715904E+02
  0
VERTEX
  8
0
 62
4
 10
3.30648011E+02
 20
-2.95738005E+02
  0
VERTEX
  8
0
 62
4
 10
3.30475543E+02
 20
-2.95774648E+02
  0
VERTEX
  8
0
 62
4
 10
3.30307170E+02
 20
-2.95825547E+02
  0
VERTEX
  8
0
 62
4
 10
3.30144208E+02
 20
-2.95890305E+02
  0
VERTEX
  8
0
 62
4
 10
3.29987929E+02
 20
-2.95968414E+02
  0
VERTEX
  8
0
 62
4
 10
3.29839556E+02
 20
-2.96059266E+02
  0
VERTEX
  8
0
 62
4
 10
3.29700246E+02
 20
-2.96162151E+02
  0
VERTEX
  8
0
 62
4
 10
3.29571089E+02
 20
-2.96276264E+02
  0
VERTEX
  8
0
 62
4
 10
3.29453092E+02
 20
-2.96400714E+02
  0
VERTEX
  8
0
 62
4
 10
3.29347179E+02
 20
-2.96534530E+02
  0
VERTEX
  8
0
 62
4
 10
3.29254175E+02
 20
-2.96676665E+02
  0
VERTEX
  8
0
 62
4
 10
3.29174809E+02
 20
-2.96826010E+02
  0
VERTEX
  8
0
 62
4
 10
3.29109699E+02
 20
-2.96981398E+02
  0
VERTEX
  8
0
 62
4
 10
3.29059354E+02
 20
-2.97141615E+02
  0
VERTEX
  8
0
 62
4
 10
3.29024168E+02
 20
-2.97305409E+02
  0
VERTEX
  8
0
 62
4
 10
3.29004416E+02
 20
-2.97471500E+02
  0
VERTEX
  8
0
 62
4
 10
3.29000251E+02
 20
-2.97638593E+02
  0
VERTEX
  8
0
 62
4
 10
3.29011707E+02
 20
-2.97805380E+02
  0
VERTEX
  8
0
 62
4
 10
3.29038694E+02
 20
-2.97970559E+02
  0
VERTEX
  8
0
 62
4
 10
3.29081000E+02
 20
-2.98132840E+02
  0
VERTEX
  8
0
 62
4
 10
3.29138296E+02
 20
-2.98290956E+02
  0
VERTEX
  8
0
 62
4
 10
3.29210135E+02
 20
-2.98443670E+02
  0
VERTEX
  8
0
 62
4
 10
3.29295953E+02
 20
-2.98589790E+02
  0
VERTEX
  8
0
 62
4
 10
3.29395083E+02
 20
-2.98728174E+02
  0
VERTEX
  8
0
 62
4
 10
3.29506748E+02
 20
-2.98857742E+02
  0
SEQEND
  8
0
  0
LINE
  8
0
 62
4
 10
3.10793728E+02
 20
-2.87900032E+02
 11
3.07999825E+02
 21
-2.85296194E+02
  0
LINE
  8
0
 62
4
 10
3.44205921E+02
 20
-2.87900032E+02
 11
3.46999825E+02
 21
-2.85296194E+02
  0
LINE
  8
0
 62
4
 10
3.42499825E+02
 20
-2.64920765E+02
 11
3.27499825E+02
 21
-2.64920765E+02
  0
LINE
  8
0
 62
4
 10
3.42499825E+02
 20
-2.37344797E+02
 11
3.27499825E+02
 21
-2.37344797E+02
  0
ARC
  8
0
 62
4
 10
3.09497338E+02
 20
-2.71797008E+02
 40
1.49751542E+00
 50
8.99048594E+01
 51
1.80095141E+02
  0
ARC
  8
0
 62
4
 10
3.42997342E+02
 20
-2.52952481E+02
 40
4.97523679E-01
 50
8.97141074E+01
 51
1.80285893E+02
  0
ARC
  8
0
 62
4
 10
3.51502307E+02
 20
-2.38952481E+02
 40
4.97523679E-01
 50
3.59714107E+02
 51
9.02858924E+01
  0
ARC
  8
0
 62
4
 10
3.51497330E+02
 20
-2.51952469E+02
 40
5.02501096E-01
 50
2.70284473E+02
 51
3.59715527E+02
  0
ARC
  8
0
 62
4
 10
3.45502311E+02
 20
-2.71797008E+02
 40
1.49751542E+00
 50
3.59904859E+02
 51
9.00951404E+01
  0
LINE
  8
0
 62
4
 10
3.07999825E+02
 20
-2.65476140E+02
 11
3.07999825E+02
 21
-2.85296194E+02
  0
LINE
  8
0
 62
4
 10
3.25499825E+02
 20
-2.66517420E+02
 11
3.25499825E+02
 21
-2.70517420E+02
  0
LINE
  8
0
 62
4
 10
3.42499825E+02
 20
-2.37344797E+02
 11
3.42499825E+02
 21
-2.66517420E+02
  0
LINE
  8
0
 62
4
 10
3.27499825E+02
 20
-2.37344797E+02
 11
3.27499825E+02
 21
-2.66517420E+02
  0
LINE
  8
0
 62
4
 10
3.44499825E+02
 20
-2.66517420E+02
 11
3.44499825E+02
 21
-2.70517420E+02
  0
LINE
  8
0
 62
4
 10
3.46999825E+02
 20
-2.83877916E+02
 11
3.42499825E+02
 21
-2.83877916E+02
  0
LINE
  8
0
 62
4
 10
3.46999825E+02
 20
-2.85296194E+02
 11
3.42499825E+02
 21
-2.85296194E+02
  0
LINE
  8
0
 62
4
 10
3.46999825E+02
 20
-2.65476140E+02
 11
3.46999825E+02
 21
-2.85296194E+02
  0
LINE
  8
0
 62
4
 10
3.44499825E+02
 20
-2.66517420E+02
 11
3.25499825E+02
 21
-2.66517420E+02
  0
LINE
  8
0
 62
4
 10
3.42499825E+02
 20
-2.42228320E+02
 11
3.27499825E+02
 21
-2.42228320E+02
  0
LINE
  8
0
 62
4
 10
3.27499825E+02
 20
-2.83877916E+02
 11
3.07999825E+02
 21
-2.83877916E+02
  0
LINE
  8
0
 62
4
 10
3.27499825E+02
 20
-2.85296194E+02
 11
3.07999825E+02
 21
-2.85296194E+02
  0
LINE
  8
0
 62
4
 10
3.61999825E+02
 20
-2.52560514E+02
 11
3.56999825E+02
 21
-2.52560514E+02
  0
LINE
  8
0
 62
4
 10
3.51499825E+02
 20
-2.52454964E+02
 11
3.42999825E+02
 21
-2.52454964E+02
  0
LINE
  8
0
 62
4
 10
3.55499825E+02
 20
-2.51204964E+02
 11
3.51999825E+02
 21
-2.51204964E+02
  0
LINE
  8
0
 62
4
 10
3.55499825E+02
 20
-2.39204964E+02
 11
3.55499825E+02
 21
-2.51704964E+02
  0
LINE
  8
0
 62
4
 10
3.56999825E+02
 20
-2.51704964E+02
 11
3.51999825E+02
 21
-2.51704964E+02
  0
LINE
  8
0
 62
4
 10
3.56999825E+02
 20
-2.39204964E+02
 11
3.51999825E+02
 21
-2.39204964E+02
  0
LINE
  8
0
 62
4
 10
3.56999825E+02
 20
-2.38358825E+02
 11
3.56999825E+02
 21
-2.52560514E+02
  0
LINE
  8
0
 62
4
 10
3.61999825E+02
 20
-2.38358825E+02
 11
3.61999825E+02
 21
-2.52560514E+02
  0
LINE
  8
0
 62
4
 10
3.51999825E+02
 20
-2.38954964E+02
 11
3.51999825E+02
 21
-2.51954964E+02
  0
LINE
  8
0
 62
4
 10
3.42499825E+02
 20
-2.38454964E+02
 11
3.51499825E+02
 21
-2.38454964E+02
  0
LINE
  8
0
 62
4
 10
3.61999825E+02
 20
-2.51121558E+02
 11
3.56999825E+02
 21
-2.51121558E+02
  0
LINE
  8
0
 62
4
 10
3.61999825E+02
 20
-2.44030168E+02
 11
3.56999825E+02
 21
-2.44030168E+02
  0
LINE
  8
0
 62
4
 10
3.61999825E+02
 20
-2.38358825E+02
 11
3.56999825E+02
 21
-2.38358825E+02
  0
LINE
  8
0
 62
4
 10
3.45499825E+02
 20
-2.70299495E+02
 11
3.09499825E+02
 21
-2.70299495E+02
  0
LINE
  8
0
 62
4
 10
3.55499825E+02
 20
-2.39704964E+02
 11
3.51999825E+02
 21
-2.39704964E+02
  0
LINE
  8
0
  6
CENTER
 62
6
 10
3.25999825E+02
 20
-2.98024585E+02
 11
3.43999825E+02
 21
-2.98024585E+02
  0
LINE
  8
0
  6
CENTER
 62
6
 10
3.30999825E+02
 20
-2.93034585E+02
 11
3.30999825E+02
 21
-3.03024585E+02
  0
LINE
  8
0
  6
CENTER
 62
6
 10
3.38999825E+02
 20
-2.93034585E+02
 11
3.38999825E+02
 21
-3.03024585E+02
  0
LINE
  8
0
 62
4
 10
3.27499825E+02
 20
-2.76109211E+02
 11
3.27499825E+02
 21
-3.02394641E+02
  0
LINE
  8
0
 62
4
 10
3.42499825E+02
 20
-2.76109211E+02
 11
3.42499825E+02
 21
-3.02394641E+02
  0
LINE
  8
0
 62
4
 10
3.28499825E+02
 20
-2.90990843E+02
 11
3.41499825E+02
 21
-2.90990843E+02
  0
LINE
  8
0
 62
4
 10
3.27499825E+02
 20
-3.02394641E+02
 11
3.42499825E+02
 21
-3.02394641E+02
  0
LINE
  8
0
 62
4
 10
3.27499825E+02
 20
-2.76109211E+02
 11
3.42499825E+02
 21
-2.76109211E+02
  0
LINE
  8
0
 62
7
 10
1.70499886E+02
 20
-2.85999985E+02
 11
1.70499886E+02
 21
-3.19500000E+02
  0
CIRCLE
  8
0
 62
7
 10
1.04999825E+02
 20
-2.91499969E+02
 40
6.00000000E+00
  0
CIRCLE
  8
0
 62
7
 10
1.04999825E+02
 20
-2.91499969E+02
 40
6.50000048E+00
  0
CIRCLE
  8
0
 62
7
 10
1.60999947E+02
 20
-2.91499939E+02
 40
6.00000000E+00
  0
CIRCLE
  8
0
 62
7
 10
1.60999947E+02
 20
-2.91499939E+02
 40
6.50000048E+00
  0
ARC
  8
0
 62
7
 10
1.66499947E+02
 20
-2.86000000E+02
 40
4.00000000E+00
 50
2.23118003E-05
 51
8.99999773E+01
  0
ARC
  8
0
 62
7
 10
9.94999161E+01
 20
-2.85999985E+02
 40
4.00000000E+00
 50
9.00000179E+01
 51
1.80000000E+02
  0
LINE
  8
0
  6
CENTER
 62
2
 10
1.04999825E+02
 20
-2.79814713E+02
 11
1.04999825E+02
 21
-3.02729599E+02
  0
LINE
  8
0
  6
CENTER
 62
2
 10
1.60999947E+02
 20
-3.02729599E+02
 11
1.60999947E+02
 21
-2.79942017E+02
  0
LINE
  8
0
  6
CENTER
 62
2
 10
1.20999855E+02
 20
-2.79525757E+02
 11
1.20999855E+02
 21
-3.05337601E+02
  0
LINE
  8
0
  6
CENTER
 62
2
 10
1.73963936E+02
 20
-3.08500031E+02
 11
1.70499886E+02
 21
-3.08500031E+02
  0
LINE
  8
0
 62
7
 10
1.73099861E+02
 20
-3.06899979E+02
 11
1.73099861E+02
 21
-3.10100021E+02
  0
LINE
  8
0
  6
CENTER
 62
2
 10
9.23702469E+01
 20
-3.19500000E+02
 11
1.73830910E+02
 21
-3.19500000E+02
  0
LINE
  8
0
 62
7
 10
1.70899849E+02
 20
-3.04750031E+02
 11
1.70499886E+02
 21
-3.04750031E+02
  0
LINE
  8
0
 62
7
 10
1.70899818E+02
 20
-3.12250015E+02
 11
1.70499886E+02
 21
-3.12250015E+02
  0
LINE
  8
0
 62
7
 10
9.54998856E+01
 20
-2.85999985E+02
 11
9.54998856E+01
 21
-3.19500000E+02
  0
LINE
  8
0
  6
CENTER
 62
2
 10
1.73044960E+02
 20
-2.91499939E+02
 11
1.50893898E+02
 21
-2.91499939E+02
  0
LINE
  8
0
  6
CENTER
 62
2
 10
1.15630440E+02
 20
-2.91499939E+02
 11
9.30974808E+01
 21
-2.91499939E+02
  0
LINE
  8
0
 62
7
 10
1.60999969E+02
 20
-2.86881114E+02
 11
1.64999976E+02
 21
-2.89190508E+02
  0
LINE
  8
0
 62
7
 10
1.64999977E+02
 20
-2.89190536E+02
 11
1.64999977E+02
 21
-2.93809326E+02
  0
LINE
  8
0
 62
7
 10
1.60999962E+02
 20
-2.96118731E+02
 11
1.64999996E+02
 21
-2.93809321E+02
  0
LINE
  8
0
 62
7
 10
1.56999885E+02
 20
-2.93809374E+02
 11
1.60999919E+02
 21
-2.96118784E+02
  0
LINE
  8
0
 62
7
 10
1.56999947E+02
 20
-2.89190536E+02
 11
1.56999947E+02
 21
-2.93809326E+02
  0
LINE
  8
0
 62
7
 10
1.60999926E+02
 20
-2.86881146E+02
 11
1.56999892E+02
 21
-2.89190555E+02
  0
LINE
  8
0
 62
7
 10
1.04999797E+02
 20
-2.86881169E+02
 11
1.08999804E+02
 21
-2.89190563E+02
  0
LINE
  8
0
 62
7
 10
1.08999825E+02
 20
-2.89190536E+02
 11
1.08999825E+02
 21
-2.93809326E+02
  0
LINE
  8
0
 62
7
 10
1.04999807E+02
 20
-2.96118736E+02
 11
1.08999814E+02
 21
-2.93809342E+02
  0
LINE
  8
0
 62
7
 10
1.00999787E+02
 20
-2.93809331E+02
 11
1.04999808E+02
 21
-2.96118733E+02
  0
LINE
  8
0
 62
7
 10
1.00999794E+02
 20
-2.89190536E+02
 11
1.00999794E+02
 21
-2.93809326E+02
  0
LINE
  8
0
 62
7
 10
1.04999829E+02
 20
-2.86881131E+02
 11
1.00999822E+02
 21
-2.89190525E+02
  0
ARC
  8
0
 62
7
 10
1.70622383E+02
 20
-3.07234573E+02
 40
2.50000000E+00
 50
7.69143002E+00
 51
9.00000042E+01
  0
ARC
  8
0
 62
7
 10
1.70622383E+02
 20
-3.09765472E+02
 40
2.50000000E+00
 50
2.76372839E+02
 51
7.69143002E+00
  0
ARC
  8
0
 62
7
 10
1.32999886E+02
 20
-3.19500000E+02
 40
1.90000000E+01
 50
0.00000000E+00
 51
1.80000000E+02
  0
CIRCLE
  8
0
 62
2
 10
1.60999947E+02
 20
-2.91499939E+02
 40
4.00000000E+00
  0
CIRCLE
  8
0
 62
7
 10
1.60999947E+02
 20
-2.91499939E+02
 40
3.32000017E+00
  0
CIRCLE
  8
0
 62
2
 10
1.04999825E+02
 20
-2.91499939E+02
 40
4.00000000E+00
  0
CIRCLE
  8
0
 62
7
 10
1.04999825E+02
 20
-2.91499939E+02
 40
3.32000017E+00
  0
LINE
  8
0
  6
CENTER
 62
2
 10
1.32999886E+02
 20
-2.78657730E+02
 11
1.32999886E+02
 21
-3.19500000E+02
  0
LINE
  8
0
  6
CENTER
 62
2
 10
1.40999825E+02
 20
-2.79814713E+02
 11
1.40999825E+02
 21
-2.98949310E+02
  0
LINE
  8
0
 62
7
 10
1.66499947E+02
 20
-2.82000000E+02
 11
9.94999161E+01
 21
-2.82000000E+02
  0
TEXT
  8
0
 62
7
 10
-4.99162807E+01
 20
4.18491803E+00
 40
9.00000000E+00
  1
STRETCH LIST
 41
1.05263158E+00
  7
MONOTXT
  0
TEXT
  8
0
 62
7
 10
3.56083719E+02
 20
4.18491803E+00
 40
9.00000000E+00
  1
(mm)
 41
1.00000000E+00
  7
MONOTXT
  0
TEXT
  8
0
 62
7
 10
3.64083719E+02
 20
-2.83150820E+01
 40
9.00000000E+00
  1
925
 41
1.00000000E+00
  7
MONOTXT
  0
TEXT
  8
0
 62
7
 10
3.19083719E+02
 20
-2.83150820E+01
 40
9.00000000E+00
  1
825
 41
1.00000000E+00
  7
MONOTXT
  0
TEXT
  8
0
 62
7
 10
2.74083719E+02
 20
-2.83150820E+01
 40
9.00000000E+00
  1
725
 41
1.00000000E+00
  7
MONOTXT
  0
TEXT
  8
0
 62
7
 10
2.29083719E+02
 20
-2.83150820E+01
 40
9.00000000E+00
  1
625
 41
1.00000000E+00
  7
MONOTXT
  0
TEXT
  8
0
 62
7
 10
1.84083719E+02
 20
-2.83150820E+01
 40
9.00000000E+00
  1
525
 41
1.00000000E+00
  7
MONOTXT
  0
TEXT
  8
0
 62
7
 10
1.39083719E+02
 20
-2.83150820E+01
 40
9.00000000E+00
  1
425
 41
1.00000000E+00
  7
MONOTXT
  0
TEXT
  8
0
 62
7
 10
9.40837193E+01
 20
-2.83150820E+01
 40
9.00000000E+00
  1
375
 41
1.00000000E+00
  7
MONOTXT
  0
TEXT
  8
0
 62
7
 10
4.90837193E+01
 20
-2.83150820E+01
 40
9.00000000E+00
  1
325
 41
1.00000000E+00
  7
MONOTXT
  0
TEXT
  8
0
 62
7
 10
4.08371926E+00
 20
-2.83150820E+01
 40
9.00000000E+00
  1
275
 41
1.00000000E+00
  7
MONOTXT
  0
TEXT
  8
0
 62
7
 10
-4.09162807E+01
 20
-2.83150820E+01
 40
9.00000000E+00
  1
225
 41
1.00000000E+00
  7
MONOTXT
  0
TEXT
  8
0
 62
7
 10
-8.59162807E+01
 20
-2.83150820E+01
 40
9.00000000E+00
  1
175
 41
1.00000000E+00
  7
MONOTXT
  0
TEXT
  8
0
 62
7
 10
-1.30916281E+02
 20
-2.83150820E+01
 40
9.00000000E+00
  1
125
 41
1.00000000E+00
  7
MONOTXT
  0
TEXT
  8
0
 62
7
 10
-1.71416281E+02
 20
-2.83150820E+01
 40
9.00000000E+00
  1
75
 41
1.00000000E+00
  7
MONOTXT
  0
TEXT
  8
0
 62
7
 10
-2.16416281E+02
 20
-2.83150820E+01
 40
9.00000000E+00
  1
25
 41
1.00000000E+00
  7
MONOTXT
  0
TEXT
  8
0
 62
7
 10
-2.56916281E+02
 20
-2.83150820E+01
 40
9.00000000E+00
  1
0
 41
1.00000000E+00
  7
MONOTXT
  0
TEXT
  8
0
 62
7
 10
-3.10916281E+02
 20
-2.83150820E+01
 40
9.00000000E+00
  1
-25
 41
1.00000000E+00
  7
MONOTXT
  0
TEXT
  8
0
 62
7
 10
3.59583719E+02
 20
-1.33150820E+01
 40
9.00000000E+00
  1
1000
 41
1.00000000E+00
  7
MONOTXT
  0
TEXT
  8
0
 62
7
 10
3.19083719E+02
 20
-1.33150820E+01
 40
9.00000000E+00
  1
900
 41
1.00000000E+00
  7
MONOTXT
  0
TEXT
  8
0
 62
7
 10
2.74083719E+02
 20
-1.33150820E+01
 40
9.00000000E+00
  1
800
 41
1.00000000E+00
  7
MONOTXT
  0
TEXT
  8
0
 62
7
 10
2.29083719E+02
 20
-1.33150820E+01
 40
9.00000000E+00
  1
700
 41
1.00000000E+00
  7
MONOTXT
  0
TEXT
  8
0
 62
7
 10
1.84083719E+02
 20
-1.33150820E+01
 40
9.00000000E+00
  1
600
 41
1.00000000E+00
  7
MONOTXT
  0
TEXT
  8
0
 62
7
 10
1.39083719E+02
 20
-1.33150820E+01
 40
9.00000000E+00
  1
500
 41
1.00000000E+00
  7
MONOTXT
  0
TEXT
  8
0
 62
7
 10
9.40837193E+01
 20
-1.33150820E+01
 40
9.00000000E+00
  1
450
 41
1.00000000E+00
  7
MONOTXT
  0
TEXT
  8
0
 62
7
 10
4.90837193E+01
 20
-1.33150820E+01
 40
9.00000000E+00
  1
400
 41
1.00000000E+00
  7
MONOTXT
  0
TEXT
  8
0
 62
7
 10
4.08371926E+00
 20
-1.33150820E+01
 40
9.00000000E+00
  1
350
 41
1.00000000E+00
  7
MONOTXT
  0
TEXT
  8
0
 62
7
 10
-4.09162807E+01
 20
-1.33150820E+01
 40
9.00000000E+00
  1
300
 41
1.00000000E+00
  7
MONOTXT
  0
TEXT
  8
0
 62
7
 10
-8.59162807E+01
 20
-1.33150820E+01
 40
9.00000000E+00
  1
250
 41
1.00000000E+00
  7
MONOTXT
  0
TEXT
  8
0
 62
7
 10
-1.30916281E+02
 20
-1.33150820E+01
 40
9.00000000E+00
  1
200
 41
1.00000000E+00
  7
MONOTXT
  0
TEXT
  8
0
 62
7
 10
-1.75916281E+02
 20
-1.33150820E+01
 40
9.00000000E+00
  1
150
 41
1.00000000E+00
  7
MONOTXT
  0
TEXT
  8
0
 62
7
 10
-2.20916281E+02
 20
-1.33150820E+01
 40
9.00000000E+00
  1
100
 41
1.00000000E+00
  7
MONOTXT
  0
TEXT
  8
0
 62
7
 10
-2.61416281E+02
 20
-1.33150820E+01
 40
9.00000000E+00
  1
75
 41
1.00000000E+00
  7
MONOTXT
  0
TEXT
  8
0
 62
7
 10
-3.06416281E+02
 20
-1.33150820E+01
 40
9.00000000E+00
  1
50
 41
1.00000000E+00
  7
MONOTXT
  0
LINE
  8
0
 62
7
 10
3.99099344E+02
 20
-3.13150820E+01
 11
3.99099344E+02
 21
-1.31508197E+00
  0
LINE
  8
0
 62
7
 10
3.54099344E+02
 20
-3.13150820E+01
 11
3.54099344E+02
 21
-1.31508197E+00
  0
LINE
  8
0
 62
7
 10
3.09099344E+02
 20
-3.13150820E+01
 11
3.09099344E+02
 21
-1.31508197E+00
  0
LINE
  8
0
 62
7
 10
2.64099344E+02
 20
-3.13150820E+01
 11
2.64099344E+02
 21
-1.31508197E+00
  0
LINE
  8
0
 62
7
 10
2.19099344E+02
 20
-3.13150820E+01
 11
2.19099344E+02
 21
-1.31508197E+00
  0
LINE
  8
0
 62
7
 10
1.74099344E+02
 20
-3.13150820E+01
 11
1.74099344E+02
 21
-1.31508197E+00
  0
LINE
  8
0
 62
7
 10
1.29099344E+02
 20
-3.13150820E+01
 11
1.29099344E+02
 21
-1.31508197E+00
  0
LINE
  8
0
 62
7
 10
8.40993443E+01
 20
-3.13150820E+01
 11
8.40993443E+01
 21
-1.31508197E+00
  0
LINE
  8
0
 62
7
 10
3.90993443E+01
 20
-3.13150820E+01
 11
3.90993443E+01
 21
-1.31508197E+00
  0
LINE
  8
0
 62
7
 10
-5.90065574E+00
 20
-3.13150820E+01
 11
-5.90065574E+00
 21
-1.31508197E+00
  0
LINE
  8
0
 62
7
 10
-5.09006557E+01
 20
-3.13150820E+01
 11
-5.09006557E+01
 21
-1.31508197E+00
  0
LINE
  8
0
 62
7
 10
-9.59006557E+01
 20
-3.13150820E+01
 11
-9.59006557E+01
 21
-1.31508197E+00
  0
LINE
  8
0
 62
7
 10
-1.40900656E+02
 20
-3.13150820E+01
 11
-1.40900656E+02
 21
-1.31508197E+00
  0
LINE
  8
0
 62
7
 10
-1.85900656E+02
 20
-3.13150820E+01
 11
-1.85900656E+02
 21
-1.31508197E+00
  0
LINE
  8
0
 62
7
 10
-2.30900656E+02
 20
-3.13150820E+01
 11
-2.30900656E+02
 21
-1.31508197E+00
  0
LINE
  8
0
 62
7
 10
-2.75900656E+02
 20
-3.13150820E+01
 11
-2.75900656E+02
 21
-1.31508197E+00
  0
LINE
  8
0
 62
7
 10
-3.20900656E+02
 20
-3.13150820E+01
 11
-3.20900656E+02
 21
-1.31508197E+00
  0
LINE
  8
0
 62
7
 10
-3.92900656E+02
 20
-1.63150820E+01
 11
3.99099344E+02
 21
-1.63150820E+01
  0
TEXT
  8
0
 62
7
 10
-3.87115343E+02
 20
-2.83150820E+01
 40
9.00000000E+00
  1
STRETCH
 41
1.00000000E+00
  7
MONOTXT
  0
TEXT
  8
0
 62
7
 10
-3.82615343E+02
 20
-1.33150820E+01
 40
9.00000000E+00
  1
STROKE
 41
1.00000000E+00
  7
MONOTXT
  0
LINE
  8
0
 62
7
 10
-3.92900656E+02
 20
-3.13150820E+01
 11
-3.92900656E+02
 21
-1.31508197E+00
  0
LINE
  8
0
 62
7
 10
-3.92900656E+02
 20
-3.13150820E+01
 11
3.99099344E+02
 21
-3.13150820E+01
  0
LINE
  8
0
 62
7
 10
-3.92900656E+02
 20
-1.31508197E+00
 11
3.99099344E+02
 21
-1.31508197E+00
  0
LINE
  8
0
 62
7
 10
7.27378233E+00
 20
-2.95100037E+02
 11
-5.50000534E+01
 21
-2.95100037E+02
  0
LINE
  8
0
 62
7
 10
1.14307113E+01
 20
-2.87900024E+02
 11
-5.50000534E+01
 21
-2.87900024E+02
  0
LINE
  8
0
 62
7
 10
1.28163484E+01
 20
-2.85500031E+02
 11
-5.50000534E+01
 21
-2.85500031E+02
  0
LINE
  8
0
 62
7
 10
-2.64434194E+01
 20
-1.73499969E+02
 11
-5.50001297E+01
 21
-1.73499969E+02
  0
LINE
  8
0
 62
7
 10
-2.50577910E+01
 20
-1.71099991E+02
 11
-5.50001297E+01
 21
-1.71099991E+02
  0
LINE
  8
0
 62
7
 10
-2.09008621E+01
 20
-1.63899979E+02
 11
-5.50001297E+01
 21
-1.63899979E+02
  0
LINE
  8
0
 62
7
 10
-4.65001233E+01
 20
-1.05500031E+02
 11
-5.50001297E+01
 21
-1.05500031E+02
  0
LINE
  8
0
 62
7
 10
-4.65001233E+01
 20
-1.07899994E+02
 11
-5.50001297E+01
 21
-1.07899994E+02
  0
LINE
  8
0
 62
2
 10
-1.44000175E+02
 20
-1.47679962E+02
 11
-1.35000053E+02
 21
-1.47679962E+02
  0
LINE
  8
0
 62
7
 10
-1.44000175E+02
 20
-1.48499969E+02
 11
-1.35000053E+02
 21
-1.48499969E+02
  0
LINE
  8
0
 62
2
 10
-1.44000175E+02
 20
-1.31319992E+02
 11
-1.35000053E+02
 21
-1.31319992E+02
  0
LINE
  8
0
 62
7
 10
-1.44000175E+02
 20
-1.30499985E+02
 11
-1.35000053E+02
 21
-1.30499985E+02
  0
LINE
  8
0
 62
2
 10
-1.44000084E+02
 20
-3.11320007E+02
 11
-1.35000069E+02
 21
-3.11320007E+02
  0
LINE
  8
0
 62
7
 10
-1.44000084E+02
 20
-3.10500000E+02
 11
-1.35000069E+02
 21
-3.10500000E+02
  0
ARC
  8
0
 62
4
 10
-3.47000114E+02
 20
-3.19500000E+02
 40
1.35000000E+01
 50
0.00000000E+00
 51
1.80000000E+02
  0
LINE
  8
0
 62
4
 10
-3.47000114E+02
 20
-3.03911543E+02
 11
-3.60500114E+02
 21
-3.11705771E+02
  0
LINE
  8
0
 62
4
 10
-3.60500114E+02
 20
-3.11705771E+02
 11
-3.60500114E+02
 21
-3.19500000E+02
  0
LINE
  8
0
 62
4
 10
-3.33500114E+02
 20
-3.19500000E+02
 11
-3.33500114E+02
 21
-3.11705771E+02
  0
LINE
  8
0
 62
4
 10
-3.33500114E+02
 20
-3.11705771E+02
 11
-3.47000114E+02
 21
-3.03911543E+02
  0
LINE
  8
0
 62
4
 10
-1.53794313E+02
 20
-3.03911543E+02
 11
-1.45205855E+02
 21
-3.03911543E+02
  0
LINE
  8
0
 62
4
 10
-1.53794313E+02
 20
-3.11705771E+02
 11
-1.45205855E+02
 21
-3.11705771E+02
  0
LINE
  8
0
 62
4
 10
-1.53794313E+02
 20
-3.03911543E+02
 11
-1.55000084E+02
 21
-3.06000000E+02
  0
LINE
  8
0
 62
4
 10
-1.45205855E+02
 20
-3.03911543E+02
 11
-1.44000084E+02
 21
-3.06000000E+02
  0
ARC
  8
0
 62
4
 10
-1.48099363E+02
 20
-3.07808657E+02
 40
6.90072132E+00
 50
1.45615752E+02
 51
2.14384248E+02
  0
ARC
  8
0
 62
4
 10
-1.50900805E+02
 20
-3.07808657E+02
 40
6.90072132E+00
 50
3.25615752E+02
 51
3.43842480E+01
  0
ARC
  8
0
 62
4
 10
-1.69794312E+02
 20
-3.19500000E+02
 40
2.57942282E+01
 50
2.54444375E-13
 51
1.75879541E+01
  0
ARC
  8
0
 62
4
 10
-1.29205856E+02
 20
-3.19500000E+02
 40
2.57942282E+01
 50
1.62412046E+02
 51
1.80000000E+02
  0
LINE
  8
0
 62
4
 10
-1.55000084E+02
 20
-3.19500000E+02
 11
-1.55000084E+02
 21
-3.06000000E+02
  0
LINE
  8
0
 62
4
 10
-1.44000084E+02
 20
-3.19500000E+02
 11
-1.44000084E+02
 21
-3.06000000E+02
  0
LINE
  8
0
 62
4
 10
-1.44000175E+02
 20
-1.26000000E+02
 11
-1.44000175E+02
 21
-1.53000000E+02
  0
LINE
  8
0
 62
4
 10
-1.55000175E+02
 20
-1.26000000E+02
 11
-1.55000175E+02
 21
-1.53000000E+02
  0
LINE
  8
0
 62
4
 10
-1.44000175E+02
 20
-1.26000000E+02
 11
-1.55000175E+02
 21
-1.26000000E+02
  0
LINE
  8
0
 62
4
 10
-1.44000175E+02
 20
-1.53000000E+02
 11
-1.55000175E+02
 21
-1.53000000E+02
  0
LINE
  8
0
 62
4
 10
-1.45205947E+02
 20
-1.39500000E+02
 11
-1.53794404E+02
 21
-1.39500000E+02
  0
ARC
  8
0
 62
4
 10
-1.35503783E+02
 20
-1.46250000E+02
 40
1.94963929E+01
 50
1.59743842E+02
 51
2.00256158E+02
  0
ARC
  8
0
 62
4
 10
-1.35503783E+02
 20
-1.32750000E+02
 40
1.94963929E+01
 50
1.59743842E+02
 51
2.00256158E+02
  0
ARC
  8
0
 62
4
 10
-1.63496568E+02
 20
-1.32750000E+02
 40
1.94963929E+01
 50
3.39743842E+02
 51
2.02561580E+01
  0
ARC
  8
0
 62
4
 10
-1.63496568E+02
 20
-1.46250000E+02
 40
1.94963929E+01
 50
3.39743842E+02
 51
2.02561580E+01
  0
LINE
  8
0
  6
CENTER
 62
2
 10
-8.60000992E+01
 20
-2.79814713E+02
 11
-8.60000992E+01
 21
-2.91699921E+02
  0
ARC
  8
0
 62
7
 10
-1.33500099E+02
 20
-3.19500000E+02
 40
9.99998474E+00
 50
0.00000000E+00
 51
3.17883527E+01
  0
ARC
  8
0
 62
2
 10
-3.47000114E+02
 20
-3.19500000E+02
 40
8.18000031E+00
 50
0.00000000E+00
 51
1.80000000E+02
  0
ARC
  8
0
 62
7
 10
-3.47000114E+02
 20
-3.19500000E+02
 40
8.99999237E+00
 50
0.00000000E+00
 51
1.80000000E+02
  0
ARC
  8
0
  6
DASHED
 62
7
 10
-8.60000687E+01
 20
-3.19500000E+02
 40
1.95000000E+01
 50
0.00000000E+00
 51
1.80000000E+02
  0
CIRCLE
  8
0
 62
7
 10
-3.19000053E+02
 20
-2.91499939E+02
 40
3.32000017E+00
  0
CIRCLE
  8
0
 62
2
 10
-3.19000053E+02
 20
-2.91499939E+02
 40
4.00000000E+00
  0
CIRCLE
  8
0
 62
7
 10
-3.19000053E+02
 20
-2.91499969E+02
 40
6.00000000E+00
  0
CIRCLE
  8
0
 62
7
 10
-3.19000053E+02
 20
-2.91499969E+02
 40
6.50000048E+00
  0
CIRCLE
  8
0
 62
7
 10
-3.75000175E+02
 20
-2.91499939E+02
 40
3.32000017E+00
  0
CIRCLE
  8
0
 62
2
 10
-3.75000175E+02
 20
-2.91499939E+02
 40
4.00000000E+00
  0
CIRCLE
  8
0
 62
7
 10
-3.75000175E+02
 20
-2.91499939E+02
 40
6.00000000E+00
  0
CIRCLE
  8
0
 62
7
 10
-3.75000175E+02
 20
-2.91499939E+02
 40
6.50000048E+00
  0
ARC
  8
0
 62
7
 10
-3.80500175E+02
 20
-2.86000000E+02
 40
4.00000000E+00
 50
9.00000231E+01
 51
1.79999977E+02
  0
ARC
  8
0
 62
7
 10
-3.13500145E+02
 20
-2.85999985E+02
 40
4.00000000E+00
 50
0.00000000E+00
 51
8.99999818E+01
  0
CIRCLE
  8
0
 62
2
 10
-8.60001907E+01
 20
-1.31500015E+02
 40
8.32999992E+00
  0
CIRCLE
  8
0
 62
7
 10
-8.60001907E+01
 20
-1.31500015E+02
 40
7.44000006E+00
  0
ARC
  8
0
 62
7
 10
-1.16000099E+02
 20
-1.22000000E+02
 40
1.00000000E+00
 50
8.99999274E+01
 51
1.79999964E+02
  0
ARC
  8
0
 62
7
 10
-1.16000099E+02
 20
-1.57000000E+02
 40
1.00000000E+00
 50
1.79999977E+02
 51
2.70000028E+02
  0
ARC
  8
0
 62
7
 10
-1.16000114E+02
 20
-3.02000000E+02
 40
1.00000000E+00
 50
8.99999274E+01
 51
1.79999964E+02
  0
CIRCLE
  8
0
 62
7
 10
-6.20001602E+01
 20
-1.51500000E+02
 40
2.59999990E+00
  0
ARC
  8
0
 62
7
 10
-6.20001602E+01
 20
-1.51500000E+02
 40
5.00000000E+00
 50
1.79999977E+02
 51
1.00179127E-05
  0
ARC
  8
0
 62
7
 10
-6.20001602E+01
 20
-1.51500000E+02
 40
5.00000000E+00
 50
0.00000000E+00
 51
1.79999964E+02
  0
ARC
  8
0
 62
7
 10
-9.82655716E+01
 20
-1.01877502E+02
 40
2.50000000E+00
 50
9.76913759E+01
 51
1.79999951E+02
  0
ARC
  8
0
 62
7
 10
-7.37347031E+01
 20
-1.01877502E+02
 40
2.50000000E+00
 50
0.00000000E+00
 51
8.23085741E+01
  0
ARC
  8
0
 62
7
 10
-9.57346878E+01
 20
-1.01877502E+02
 40
2.50000000E+00
 50
6.37281240E+00
 51
9.76913896E+01
  0
ARC
  8
0
 62
7
 10
-7.62655716E+01
 20
-1.01877502E+02
 40
2.50000000E+00
 50
8.23085878E+01
 51
1.73627166E+02
  0
ARC
  8
0
 62
7
 10
-3.47000114E+02
 20
-3.19500000E+02
 40
1.65000000E+01
 50
0.00000000E+00
 51
1.80000000E+02
  0
ARC
  8
0
 62
7
 10
-3.47000114E+02
 20
-3.19500000E+02
 40
1.70000000E+01
 50
0.00000000E+00
 51
1.80000000E+02
  0
ARC
  8
0
 62
7
 10
-3.47000114E+02
 20
-3.19500000E+02
 40
1.90000000E+01
 50
0.00000000E+00
 51
1.80000000E+02
  0
ARC
  8
0
  6
DASHED
 62
7
 10
-8.60000687E+01
 20
-3.19500000E+02
 40
2.00000000E+00
 50
0.00000000E+00
 51
1.80000000E+02
  0
ARC
  8
0
 62
7
 10
-3.84622612E+02
 20
-3.09765472E+02
 40
2.50000000E+00
 50
1.72308570E+02
 51
2.63627161E+02
  0
CIRCLE
  8
0
  6
DASHED
 62
7
 10
-7.50000687E+01
 20
-3.08500000E+02
 40
3.75000000E+00
  0
CIRCLE
  8
0
  6
DASHED
 62
7
 10
-9.70000534E+01
 20
-3.08500000E+02
 40
3.75000000E+00
  0
ARC
  8
0
  6
DASHED
 62
2
 10
-8.60000687E+01
 20
-3.19500000E+02
 40
2.50000000E+00
 50
0.00000000E+00
 51
1.80000000E+02
  0
ARC
  8
0
 62
7
 10
-3.84622612E+02
 20
-3.07234573E+02
 40
2.50000000E+00
 50
8.99999956E+01
 51
1.72308570E+02
  0
LINE
  8
0
 62
7
 10
-1.35000053E+02
 20
-1.47679962E+02
 11
-1.32000069E+02
 21
-1.47679962E+02
  0
LINE
  8
0
 62
7
 10
-1.35000053E+02
 20
-1.31319992E+02
 11
-1.32000069E+02
 21
-1.31319992E+02
  0
LINE
  8
0
 62
7
 10
-1.25000252E+02
 20
-1.30999834E+02
 11
-1.23500229E+02
 21
-1.29499811E+02
  0
LINE
  8
0
 62
7
 10
-1.25000195E+02
 20
-1.47999904E+02
 11
-1.23500226E+02
 21
-1.49499873E+02
  0
LINE
  8
0
 62
7
 10
-1.32000069E+02
 20
-1.30999969E+02
 11
-1.25000130E+02
 21
-1.30999969E+02
  0
LINE
  8
0
 62
7
 10
-1.32000069E+02
 20
-1.47999985E+02
 11
-1.25000130E+02
 21
-1.47999985E+02
  0
LINE
  8
0
 62
7
 10
-1.32000069E+02
 20
-1.47999985E+02
 11
-1.32000069E+02
 21
-1.30999985E+02
  0
LINE
  8
0
 62
7
 10
-1.64000124E+02
 20
-1.46999847E+02
 11
-1.62500089E+02
 21
-1.48499836E+02
  0
LINE
  8
0
 62
2
 10
-1.63320030E+02
 20
-1.47679962E+02
 11
-1.55000175E+02
 21
-1.47679962E+02
  0
LINE
  8
0
 62
7
 10
-1.62500023E+02
 20
-1.48499969E+02
 11
-1.55000175E+02
 21
-1.48499969E+02
  0
LINE
  8
0
 62
7
 10
-1.63999929E+02
 20
-1.32000158E+02
 11
-1.62499896E+02
 21
-1.30500171E+02
  0
LINE
  8
0
 62
2
 10
-1.63320030E+02
 20
-1.31319992E+02
 11
-1.55000175E+02
 21
-1.31319992E+02
  0
LINE
  8
0
 62
7
 10
-1.62500023E+02
 20
-1.30499985E+02
 11
-1.55000175E+02
 21
-1.30499985E+02
  0
LINE
  8
0
 62
7
 10
-1.62500053E+02
 20
-1.48499985E+02
 11
-1.62500053E+02
 21
-1.30499985E+02
  0
LINE
  8
0
 62
7
 10
-1.64000084E+02
 20
-1.46999954E+02
 11
-1.64000084E+02
 21
-1.32000153E+02
  0
LINE
  8
0
 62
7
 10
-1.35000053E+02
 20
-1.48499985E+02
 11
-1.35000053E+02
 21
-1.30499985E+02
  0
LINE
  8
0
 62
7
 10
-1.23500084E+02
 20
-1.29499954E+02
 11
-1.22000099E+02
 21
-1.29499954E+02
  0
LINE
  8
0
 62
7
 10
-1.23500114E+02
 20
-1.49499954E+02
 11
-1.22000145E+02
 21
-1.49499954E+02
  0
LINE
  8
0
 62
7
 10
-1.29000069E+02
 20
-1.30999985E+02
 11
-1.29000069E+02
 21
-1.47999985E+02
  0
LINE
  8
0
 62
7
 10
-1.35000069E+02
 20
-3.11320007E+02
 11
-1.32000084E+02
 21
-3.11320007E+02
  0
LINE
  8
0
 62
7
 10
-1.32000052E+02
 20
-3.10500014E+02
 11
-1.29000063E+02
 21
-3.09500030E+02
  0
LINE
  8
0
 62
7
 10
-1.32000076E+02
 20
-3.16377560E+02
 11
-1.29000088E+02
 21
-3.14232464E+02
  0
LINE
  8
0
 62
7
 10
-1.29000206E+02
 20
-3.09500015E+02
 11
-1.22000160E+02
 21
-3.09500015E+02
  0
LINE
  8
0
 62
7
 10
-1.63999982E+02
 20
-3.12000194E+02
 11
-1.62499936E+02
 21
-3.10500194E+02
  0
LINE
  8
0
 62
2
 10
-1.63320030E+02
 20
-3.11320007E+02
 11
-1.55000084E+02
 21
-3.11320007E+02
  0
LINE
  8
0
 62
7
 10
-1.62500023E+02
 20
-3.10500000E+02
 11
-1.55000084E+02
 21
-3.10500000E+02
  0
LINE
  8
0
 62
7
 10
-1.62500084E+02
 20
-3.19500000E+02
 11
-1.62500084E+02
 21
-3.10499985E+02
  0
LINE
  8
0
 62
7
 10
-1.64000084E+02
 20
-3.19500000E+02
 11
-1.64000084E+02
 21
-3.12000153E+02
  0
LINE
  8
0
 62
7
 10
-1.35000069E+02
 20
-3.19500000E+02
 11
-1.35000069E+02
 21
-3.10499985E+02
  0
LINE
  8
0
 62
7
 10
-1.25000145E+02
 20
-3.14232132E+02
 11
-1.25000145E+02
 21
-3.19499992E+02
  0
LINE
  8
0
 62
7
 10
-1.29000084E+02
 20
-3.09499954E+02
 11
-1.29000084E+02
 21
-3.14232132E+02
  0
LINE
  8
0
 62
2
 10
-1.28499893E+02
 20
-3.19500000E+02
 11
-1.24999939E+02
 21
-3.14232205E+02
  0
LINE
  8
0
 62
2
 10
-1.31033695E+02
 20
-3.15686575E+02
 11
-1.28500033E+02
 21
-3.19500000E+02
  0
LINE
  8
0
 62
7
 10
-1.29000206E+02
 20
-3.14232147E+02
 11
-1.25000145E+02
 21
-3.14232147E+02
  0
LINE
  8
0
 62
7
 10
-1.32000084E+02
 20
-3.10500000E+02
 11
-1.32000084E+02
 21
-3.19500000E+02
  0
LINE
  8
0
 62
7
 10
-1.09000130E+02
 20
-3.00500000E+02
 11
-1.07000114E+02
 21
-3.00500000E+02
  0
LINE
  8
0
 62
7
 10
-1.07000130E+02
 20
-1.02000000E+02
 11
-5.50000687E+01
 21
-1.02000000E+02
  0
LINE
  8
0
  6
CENTER
 62
2
 10
-3.55000053E+02
 20
-2.79814713E+02
 11
-3.55000053E+02
 21
-2.98949310E+02
  0
LINE
  8
0
  6
CENTER
 62
2
 10
-3.19000053E+02
 20
-2.79814713E+02
 11
-3.19000053E+02
 21
-3.02729599E+02
  0
LINE
  8
0
 62
7
 10
-3.19000058E+02
 20
-2.86881131E+02
 11
-3.15000051E+02
 21
-2.89190525E+02
  0
LINE
  8
0
 62
7
 10
-3.15000023E+02
 20
-2.89190536E+02
 11
-3.15000023E+02
 21
-2.93809326E+02
  0
LINE
  8
0
 62
7
 10
-3.15000016E+02
 20
-2.93809331E+02
 11
-3.19000037E+02
 21
-2.96118733E+02
  0
LINE
  8
0
 62
7
 10
-3.19000036E+02
 20
-2.96118736E+02
 11
-3.23000043E+02
 21
-2.93809342E+02
  0
LINE
  8
0
 62
7
 10
-3.23000053E+02
 20
-2.89190536E+02
 11
-3.23000053E+02
 21
-2.93809326E+02
  0
LINE
  8
0
 62
7
 10
-3.19000026E+02
 20
-2.86881169E+02
 11
-3.23000033E+02
 21
-2.89190563E+02
  0
LINE
  8
0
 62
7
 10
-3.75000154E+02
 20
-2.86881146E+02
 11
-3.71000121E+02
 21
-2.89190555E+02
  0
LINE
  8
0
 62
7
 10
-3.71000175E+02
 20
-2.89190536E+02
 11
-3.71000175E+02
 21
-2.93809326E+02
  0
LINE
  8
0
 62
7
 10
-3.71000114E+02
 20
-2.93809374E+02
 11
-3.75000148E+02
 21
-2.96118784E+02
  0
LINE
  8
0
 62
7
 10
-3.75000191E+02
 20
-2.96118731E+02
 11
-3.79000225E+02
 21
-2.93809321E+02
  0
LINE
  8
0
 62
7
 10
-3.79000206E+02
 20
-2.89190536E+02
 11
-3.79000206E+02
 21
-2.93809326E+02
  0
LINE
  8
0
 62
7
 10
-3.75000198E+02
 20
-2.86881114E+02
 11
-3.79000205E+02
 21
-2.89190508E+02
  0
LINE
  8
0
  6
CENTER
 62
2
 10
-3.29630669E+02
 20
-2.91499939E+02
 11
-3.07097710E+02
 21
-2.91499939E+02
  0
LINE
  8
0
  6
CENTER
 62
2
 10
-3.87045189E+02
 20
-2.91499939E+02
 11
-3.64894127E+02
 21
-2.91499939E+02
  0
LINE
  8
0
  6
CENTER
 62
2
 10
-3.75000175E+02
 20
-3.02729599E+02
 11
-3.75000175E+02
 21
-2.79942017E+02
  0
LINE
  8
0
 62
7
 10
-3.80500175E+02
 20
-2.82000000E+02
 11
-3.13500145E+02
 21
-2.82000000E+02
  0
LINE
  8
0
 62
7
 10
-3.09500114E+02
 20
-2.85999985E+02
 11
-3.09500114E+02
 21
-3.19500000E+02
  0
LINE
  8
0
  6
CENTER
 62
2
 10
-8.60001907E+01
 20
-1.41500046E+02
 11
-8.60001907E+01
 21
-9.92427368E+01
  0
LINE
  8
0
  6
CENTER
 62
2
 10
-9.63649673E+01
 20
-1.31500015E+02
 11
-7.47607956E+01
 21
-1.31500015E+02
  0
LINE
  8
0
 62
7
 10
-1.09500189E+02
 20
-1.20999918E+02
 11
-1.09000190E+02
 21
-1.20499919E+02
  0
LINE
  8
0
 62
7
 10
-1.16000069E+02
 20
-1.21000015E+02
 11
-1.09500084E+02
 21
-1.21000015E+02
  0
LINE
  8
0
 62
7
 10
-1.09500114E+02
 20
-3.01000000E+02
 11
-1.09500114E+02
 21
-3.19500000E+02
  0
LINE
  8
0
 62
7
 10
-1.09500206E+02
 20
-3.00999919E+02
 11
-1.09000211E+02
 21
-3.00499924E+02
  0
LINE
  8
0
 62
7
 10
-1.09500099E+02
 20
-1.21000015E+02
 11
-1.09500099E+02
 21
-1.58000000E+02
  0
LINE
  8
0
 62
7
 10
-1.09500121E+02
 20
-1.58000041E+02
 11
-1.09000131E+02
 21
-1.58500031E+02
  0
LINE
  8
0
 62
7
 10
-1.16000114E+02
 20
-3.01000000E+02
 11
-1.09500114E+02
 21
-3.01000000E+02
  0
LINE
  8
0
 62
7
 10
-1.09000084E+02
 20
-1.20500000E+02
 11
-1.09000084E+02
 21
-1.58500015E+02
  0
LINE
  8
0
 62
7
 10
-1.22000081E+02
 20
-3.03000052E+02
 11
-1.21500099E+02
 21
-3.02500054E+02
  0
LINE
  8
0
 62
7
 10
-1.16000069E+02
 20
-1.58000000E+02
 11
-1.09500084E+02
 21
-1.58000000E+02
  0
LINE
  8
0
  6
CENTER
 62
2
 10
-3.35000084E+02
 20
-2.79525757E+02
 11
-3.35000084E+02
 21
-3.05337601E+02
  0
LINE
  8
0
  6
CENTER
 62
2
 10
-3.47000114E+02
 20
-2.78657730E+02
 11
-3.47000114E+02
 21
-3.19500000E+02
  0
LINE
  8
0
 62
7
 10
-6.02680435E+01
 20
-1.51500077E+02
 11
-6.11340674E+01
 21
-1.53000084E+02
  0
LINE
  8
0
 62
7
 10
-6.11341171E+01
 20
-1.53000015E+02
 11
-6.28661118E+01
 21
-1.53000015E+02
  0
LINE
  8
0
 62
7
 10
-6.28660586E+01
 20
-1.53000068E+02
 11
-6.37320978E+01
 21
-1.51500036E+02
  0
LINE
  8
0
 62
7
 10
-6.37320868E+01
 20
-1.51500046E+02
 11
-6.28660781E+01
 21
-1.50000066E+02
  0
LINE
  8
0
 62
7
 10
-6.11341171E+01
 20
-1.49999985E+02
 11
-6.28661118E+01
 21
-1.49999985E+02
  0
LINE
  8
0
 62
7
 10
-6.02680462E+01
 20
-1.51499973E+02
 11
-6.11340548E+01
 21
-1.49999993E+02
  0
LINE
  8
0
 62
7
 10
-1.09000084E+02
 20
-1.58500000E+02
 11
-1.07000099E+02
 21
-1.58500000E+02
  0
LINE
  8
0
 62
7
 10
-1.09000099E+02
 20
-1.20500000E+02
 11
-1.07000099E+02
 21
-1.20500000E+02
  0
LINE
  8
0
 62
7
 10
-1.21500130E+02
 20
-3.02500000E+02
 11
-1.16991570E+02
 21
-3.02500000E+02
  0
LINE
  8
0
 62
7
 10
-1.09000130E+02
 20
-3.00500000E+02
 11
-1.09000130E+02
 21
-3.19500000E+02
  0
LINE
  8
0
  6
CENTER
 62
2
 10
-7.08454056E+01
 20
-1.51500000E+02
 11
-5.33708878E+01
 21
-1.51500000E+02
  0
LINE
  8
0
  6
CENTER
 62
2
 10
-6.20001602E+01
 20
-1.58971130E+02
 11
-6.20001602E+01
 21
-1.42382111E+02
  0
LINE
  8
0
 62
7
 10
-3.84500175E+02
 20
-3.19500000E+02
 11
-3.84500175E+02
 21
-2.86000000E+02
  0
LINE
  8
0
 62
7
 10
-9.32501297E+01
 20
-1.01600067E+02
 11
-9.32501297E+01
 21
-1.02000000E+02
  0
LINE
  8
0
 62
7
 10
-1.00750130E+02
 20
-1.01600067E+02
 11
-1.00750130E+02
 21
-1.02000000E+02
  0
LINE
  8
0
 62
7
 10
-9.86001358E+01
 20
-9.93999939E+01
 11
-9.54001236E+01
 21
-9.93999939E+01
  0
LINE
  8
0
  6
CENTER
 62
2
 10
-9.70001297E+01
 20
-9.85359497E+01
 11
-9.70001297E+01
 21
-1.02000000E+02
  0
LINE
  8
0
  6
CENTER
 62
2
 10
-7.50001297E+01
 20
-9.85359497E+01
 11
-7.50001297E+01
 21
-1.02000000E+02
  0
LINE
  8
0
 62
7
 10
-7.12501297E+01
 20
-1.01600006E+02
 11
-7.12501297E+01
 21
-1.02000000E+02
  0
LINE
  8
0
 62
7
 10
-7.34001083E+01
 20
-9.93999939E+01
 11
-7.66001205E+01
 21
-9.93999939E+01
  0
LINE
  8
0
  6
DASHED
 62
7
 10
-7.50000499E+01
 20
-3.07056666E+02
 11
-7.62500459E+01
 21
-3.07778344E+02
  0
LINE
  8
0
  6
DASHED
 62
7
 10
-7.62500687E+01
 20
-3.07778290E+02
 11
-7.62500687E+01
 21
-3.09221680E+02
  0
LINE
  8
0
  6
DASHED
 62
7
 10
-7.62499358E+01
 20
-3.09221566E+02
 11
-7.49999596E+01
 21
-3.09943232E+02
  0
LINE
  8
0
  6
DASHED
 62
7
 10
-7.50000627E+01
 20
-3.09943311E+02
 11
-7.37500998E+01
 21
-3.09221653E+02
  0
LINE
  8
0
  6
DASHED
 62
7
 10
-7.37500687E+01
 20
-3.07778290E+02
 11
-7.37500687E+01
 21
-3.09221680E+02
  0
LINE
  8
0
  6
DASHED
 62
7
 10
-7.49999619E+01
 20
-3.07056463E+02
 11
-7.37499197E+01
 21
-3.07778167E+02
  0
LINE
  8
0
  6
CENTER
 62
2
 10
-7.50000687E+01
 20
-3.01922867E+02
 11
-7.50000687E+01
 21
-3.14649193E+02
  0
LINE
  8
0
  6
CENTER
 62
2
 10
-6.80879745E+01
 20
-3.08500000E+02
 11
-8.08143234E+01
 21
-3.08500000E+02
  0
LINE
  8
0
  6
DASHED
 62
7
 10
-9.69999917E+01
 20
-3.07056547E+02
 11
-9.57499891E+01
 21
-3.07778228E+02
  0
LINE
  8
0
  6
DASHED
 62
7
 10
-9.57500534E+01
 20
-3.07778290E+02
 11
-9.57500534E+01
 21
-3.09221680E+02
  0
LINE
  8
0
  6
DASHED
 62
7
 10
-9.57500447E+01
 20
-3.09221654E+02
 11
-9.70000539E+01
 21
-3.09943339E+02
  0
LINE
  8
0
  6
DASHED
 62
7
 10
-9.69999281E+01
 20
-3.09943271E+02
 11
-9.82499175E+01
 21
-3.09221598E+02
  0
LINE
  8
0
  6
DASHED
 62
7
 10
-9.82500534E+01
 20
-3.07778290E+02
 11
-9.82500534E+01
 21
-3.09221680E+02
  0
LINE
  8
0
  6
DASHED
 62
7
 10
-9.70000879E+01
 20
-3.07056598E+02
 11
-9.82500839E+01
 21
-3.07778276E+02
  0
LINE
  8
0
  6
CENTER
 62
2
 10
-9.70000534E+01
 20
-3.01922867E+02
 11
-9.70000534E+01
 21
-3.14649193E+02
  0
LINE
  8
0
  6
CENTER
 62
2
 10
-1.03912163E+02
 20
-3.08500000E+02
 11
-9.11858139E+01
 21
-3.08500000E+02
  0
LINE
  8
0
 62
7
 10
-7.87501297E+01
 20
-1.01600067E+02
 11
-7.87501297E+01
 21
-1.02000000E+02
  0
LINE
  8
0
 62
7
 10
-1.07000130E+02
 20
-1.77000000E+02
 11
-5.50001297E+01
 21
-1.77000000E+02
  0
LINE
  8
0
 62
7
 10
-3.84900047E+02
 20
-3.12250015E+02
 11
-3.84500114E+02
 21
-3.12250015E+02
  0
LINE
  8
0
 62
7
 10
-3.84900047E+02
 20
-3.04750031E+02
 11
-3.84500114E+02
 21
-3.04750031E+02
  0
LINE
  8
0
  6
CENTER
 62
2
 10
-3.06370476E+02
 20
-3.19500000E+02
 11
-3.87831139E+02
 21
-3.19500000E+02
  0
LINE
  8
0
 62
7
 10
-3.87100090E+02
 20
-3.06899979E+02
 11
-3.87100090E+02
 21
-3.10100021E+02
  0
LINE
  8
0
  6
CENTER
 62
2
 10
-3.87964165E+02
 20
-3.08500031E+02
 11
-3.84500114E+02
 21
-3.08500031E+02
  0
LINE
  8
0
 62
7
 10
-1.21500130E+02
 20
-3.19500000E+02
 11
-1.21500130E+02
 21
-3.02500000E+02
  0
LINE
  8
0
 62
7
 10
-1.07000084E+02
 20
-2.82000000E+02
 11
-5.50000534E+01
 21
-2.82000000E+02
  0
LINE
  8
0
 62
7
 10
-1.07000114E+02
 20
-2.82000000E+02
 11
-1.07000114E+02
 21
-3.19500000E+02
  0
LINE
  8
0
 62
7
 10
-1.21500084E+02
 20
-1.56500000E+02
 11
-1.21500084E+02
 21
-1.22500015E+02
  0
LINE
  8
0
 62
7
 10
-1.17000114E+02
 20
-3.19500000E+02
 11
-1.17000114E+02
 21
-3.02000000E+02
  0
LINE
  8
0
 62
7
 10
-1.22000101E+02
 20
-1.55999992E+02
 11
-1.21500090E+02
 21
-1.56500004E+02
  0
LINE
  8
0
 62
7
 10
-1.22000114E+02
 20
-3.19500000E+02
 11
-1.22000114E+02
 21
-3.03000076E+02
  0
LINE
  8
0
 62
7
 10
-1.21999961E+02
 20
-1.23000141E+02
 11
-1.21499960E+02
 21
-1.22500140E+02
  0
LINE
  8
0
 62
7
 10
-1.21500084E+02
 20
-1.56500000E+02
 11
-1.17000084E+02
 21
-1.56500000E+02
  0
LINE
  8
0
 62
7
 10
-1.17000099E+02
 20
-1.22000015E+02
 11
-1.17000099E+02
 21
-1.57000015E+02
  0
LINE
  8
0
 62
7
 10
-1.07000099E+02
 20
-1.77000000E+02
 11
-1.07000099E+02
 21
-1.02000000E+02
  0
LINE
  8
0
 62
7
 10
-1.22000099E+02
 20
-1.56000015E+02
 11
-1.22000099E+02
 21
-1.23000000E+02
  0
LINE
  8
0
 62
7
 10
-1.21500084E+02
 20
-1.22500015E+02
 11
-1.17000084E+02
 21
-1.22500015E+02
  0
LINE
  8
0
 62
7
 10
1.28163637E+01
 20
-1.05500031E+02
 11
-3.15001233E+01
 21
-1.05500031E+02
  0
LINE
  8
0
 62
7
 10
1.14307442E+01
 20
-1.07899994E+02
 11
-3.15001233E+01
 21
-1.07899994E+02
  0
LINE
  8
0
 62
7
 10
7.27381522E+00
 20
-1.15100006E+02
 11
-1.21509023E+01
 21
-1.15100006E+02
  0
LINE
  8
0
  6
CENTER
 62
2
 10
9.35229733E+00
 20
-1.11499969E+02
 11
-3.15001233E+01
 21
-1.11499969E+02
  0
LINE
  8
0
  6
CENTER
 62
2
 10
9.35226885E+00
 20
-2.91499992E+02
 11
-1.10423790E+02
 21
-2.91499992E+02
  0
LINE
  8
0
  6
CENTER
 62
2
 10
-2.29793530E+01
 20
-1.67500031E+02
 11
-1.10064095E+02
 21
-1.67500031E+02
  0
LINE
  8
0
 62
7
 10
-5.50000534E+01
 20
-2.82000000E+02
 11
-5.50000534E+01
 21
-3.19500000E+02
  0
LINE
  8
0
 62
7
 10
-5.50001297E+01
 20
-1.76999969E+02
 11
-5.50001297E+01
 21
-1.24437056E+02
  0
LINE
  8
0
  6
CENTER
 62
2
 10
-1.66561821E+02
 20
-3.19500000E+02
 11
-6.81354310E+00
 21
-3.19500000E+02
  0
LINE
  8
0
  6
CENTER
 62
2
 10
-1.65374931E+02
 20
-1.39500000E+02
 11
-5.10001233E+01
 21
-1.39500000E+02
  0
LINE
  8
0
 62
7
 10
-5.50001297E+01
 20
-1.10437056E+02
 11
-5.50001297E+01
 21
-1.02000000E+02
  0
LINE
  8
0
  6
CENTER
 62
2
 10
-6.60001233E+01
 20
-1.11499969E+02
 11
-1.09462883E+02
 21
-1.11499969E+02
  0
LINE
  8
0
  6
CENTER
 62
2
 10
-1.20001233E+01
 20
-1.39500000E+02
 11
-6.81352783E+00
 21
-1.39500000E+02
  0
LINE
  8
0
 62
2
 10
-3.06735594E+01
 20
-1.80826787E+02
 11
1.76506179E+01
 21
-9.71268566E+01
  0
LINE
  8
0
 62
2
 10
-1.27299440E+01
 20
-3.29747507E+02
 11
1.76506027E+01
 21
-2.77126857E+02
  0
LINE
  8
0
 62
7
 10
2.77640857E+02
 20
-2.95100037E+02
 11
3.27499825E+02
 21
-2.95100037E+02
  0
LINE
  8
0
 62
7
 10
2.81797786E+02
 20
-2.87900024E+02
 11
3.27499825E+02
 21
-2.87900024E+02
  0
LINE
  8
0
 62
7
 10
2.83183423E+02
 20
-2.85500031E+02
 11
3.08218540E+02
 21
-2.85500031E+02
  0
LINE
  8
0
  6
CENTER
 62
2
 10
2.79719343E+02
 20
-2.91499992E+02
 11
3.27499825E+02
 21
-2.91499992E+02
  0
LINE
  8
0
  6
CENTER
 62
2
 10
4.62561592E+02
 20
-3.19500000E+02
 11
2.63553531E+02
 21
-3.19500000E+02
  0
LINE
  8
0
 62
7
 10
3.50999825E+02
 20
-2.82000000E+02
 11
3.50999825E+02
 21
-3.19500000E+02
  0
LINE
  8
0
 62
7
 10
4.17999886E+02
 20
-3.19500000E+02
 11
4.17999886E+02
 21
-3.03000076E+02
  0
LINE
  8
0
 62
7
 10
4.12999886E+02
 20
-3.19500000E+02
 11
4.12999886E+02
 21
-3.02000000E+02
  0
LINE
  8
0
 62
7
 10
4.02999886E+02
 20
-2.82000000E+02
 11
4.02999886E+02
 21
-3.19500000E+02
  0
LINE
  8
0
 62
7
 10
4.02999855E+02
 20
-2.82000000E+02
 11
3.50999825E+02
 21
-2.82000000E+02
  0
LINE
  8
0
 62
7
 10
4.17499901E+02
 20
-3.19500000E+02
 11
4.17499901E+02
 21
-3.02500000E+02
  0
LINE
  8
0
  6
CENTER
 62
2
 10
3.99911934E+02
 20
-3.08500000E+02
 11
3.87185585E+02
 21
-3.08500000E+02
  0
LINE
  8
0
  6
CENTER
 62
2
 10
3.92999825E+02
 20
-3.01922867E+02
 11
3.92999825E+02
 21
-3.14649193E+02
  0
LINE
  8
0
 62
7
 10
3.92999859E+02
 20
-3.07056598E+02
 11
3.94249855E+02
 21
-3.07778276E+02
  0
LINE
  8
0
 62
7
 10
3.94249825E+02
 20
-3.07778290E+02
 11
3.94249825E+02
 21
-3.09221680E+02
  0
LINE
  8
0
 62
7
 10
3.92999699E+02
 20
-3.09943271E+02
 11
3.94249689E+02
 21
-3.09221598E+02
  0
LINE
  8
0
 62
7
 10
3.91749816E+02
 20
-3.09221654E+02
 11
3.92999825E+02
 21
-3.09943339E+02
  0
LINE
  8
0
 62
7
 10
3.91749825E+02
 20
-3.07778290E+02
 11
3.91749825E+02
 21
-3.09221680E+02
  0
LINE
  8
0
 62
7
 10
3.92999763E+02
 20
-3.07056547E+02
 11
3.91749760E+02
 21
-3.07778228E+02
  0
LINE
  8
0
  6
CENTER
 62
2
 10
3.64087746E+02
 20
-3.08500000E+02
 11
3.76814095E+02
 21
-3.08500000E+02
  0
LINE
  8
0
  6
CENTER
 62
2
 10
3.70999840E+02
 20
-3.01922867E+02
 11
3.70999840E+02
 21
-3.14649193E+02
  0
LINE
  8
0
 62
7
 10
3.70999733E+02
 20
-3.07056463E+02
 11
3.69749691E+02
 21
-3.07778167E+02
  0
LINE
  8
0
 62
7
 10
3.69749840E+02
 20
-3.07778290E+02
 11
3.69749840E+02
 21
-3.09221680E+02
  0
LINE
  8
0
 62
7
 10
3.70999834E+02
 20
-3.09943311E+02
 11
3.69749871E+02
 21
-3.09221653E+02
  0
LINE
  8
0
 62
7
 10
3.72249707E+02
 20
-3.09221566E+02
 11
3.70999731E+02
 21
-3.09943232E+02
  0
LINE
  8
0
 62
7
 10
3.72249840E+02
 20
-3.07778290E+02
 11
3.72249840E+02
 21
-3.09221680E+02
  0
LINE
  8
0
 62
7
 10
3.70999821E+02
 20
-3.07056666E+02
 11
3.72249817E+02
 21
-3.07778344E+02
  0
LINE
  8
0
 62
7
 10
4.04999901E+02
 20
-3.00500000E+02
 11
4.04999901E+02
 21
-3.19500000E+02
  0
LINE
  8
0
 62
7
 10
4.17499901E+02
 20
-3.02500000E+02
 11
4.12991341E+02
 21
-3.02500000E+02
  0
LINE
  8
0
 62
7
 10
4.17999852E+02
 20
-3.03000052E+02
 11
4.17499870E+02
 21
-3.02500054E+02
  0
LINE
  8
0
 62
7
 10
4.11999886E+02
 20
-3.01000000E+02
 11
4.05499886E+02
 21
-3.01000000E+02
  0
LINE
  8
0
 62
7
 10
4.05499977E+02
 20
-3.00999919E+02
 11
4.04999982E+02
 21
-3.00499924E+02
  0
LINE
  8
0
 62
7
 10
4.05499886E+02
 20
-3.01000000E+02
 11
4.05499886E+02
 21
-3.19500000E+02
  0
LINE
  8
0
 62
7
 10
4.04999901E+02
 20
-3.00500000E+02
 11
4.02999886E+02
 21
-3.00500000E+02
  0
LINE
  8
0
 62
7
 10
4.27999855E+02
 20
-3.10500000E+02
 11
4.27999855E+02
 21
-3.19500000E+02
  0
LINE
  8
0
 62
7
 10
4.24999977E+02
 20
-3.14232147E+02
 11
4.20999916E+02
 21
-3.14232147E+02
  0
LINE
  8
0
 62
2
 10
4.27033466E+02
 20
-3.15686575E+02
 11
4.24499804E+02
 21
-3.19500000E+02
  0
LINE
  8
0
 62
2
 10
4.24499664E+02
 20
-3.19500000E+02
 11
4.20999710E+02
 21
-3.14232205E+02
  0
LINE
  8
0
 62
7
 10
4.24999855E+02
 20
-3.09499954E+02
 11
4.24999855E+02
 21
-3.14232132E+02
  0
LINE
  8
0
 62
7
 10
4.20999916E+02
 20
-3.14232132E+02
 11
4.20999916E+02
 21
-3.19499992E+02
  0
LINE
  8
0
 62
7
 10
4.30999840E+02
 20
-3.19500000E+02
 11
4.30999840E+02
 21
-3.10499985E+02
  0
LINE
  8
0
 62
7
 10
4.59999855E+02
 20
-3.19500000E+02
 11
4.59999855E+02
 21
-3.12000153E+02
  0
LINE
  8
0
 62
7
 10
4.58499855E+02
 20
-3.19500000E+02
 11
4.58499855E+02
 21
-3.10499985E+02
  0
LINE
  8
0
 62
7
 10
4.58499794E+02
 20
-3.10500000E+02
 11
4.50999855E+02
 21
-3.10500000E+02
  0
LINE
  8
0
 62
2
 10
4.59319801E+02
 20
-3.11320007E+02
 11
4.50999855E+02
 21
-3.11320007E+02
  0
LINE
  8
0
 62
7
 10
4.59999753E+02
 20
-3.12000194E+02
 11
4.58499707E+02
 21
-3.10500194E+02
  0
LINE
  8
0
 62
7
 10
4.24999977E+02
 20
-3.09500015E+02
 11
4.17999931E+02
 21
-3.09500015E+02
  0
LINE
  8
0
 62
7
 10
4.27999847E+02
 20
-3.16377560E+02
 11
4.24999859E+02
 21
-3.14232464E+02
  0
LINE
  8
0
 62
7
 10
4.27999823E+02
 20
-3.10500014E+02
 11
4.24999834E+02
 21
-3.09500030E+02
  0
LINE
  8
0
 62
7
 10
4.30999840E+02
 20
-3.11320007E+02
 11
4.27999855E+02
 21
-3.11320007E+02
  0
ARC
  8
0
 62
2
 10
3.81999840E+02
 20
-3.19500000E+02
 40
2.50000000E+00
 50
0.00000000E+00
 51
1.80000000E+02
  0
CIRCLE
  8
0
 62
7
 10
3.92999825E+02
 20
-3.08500000E+02
 40
3.75000000E+00
  0
CIRCLE
  8
0
 62
7
 10
3.70999840E+02
 20
-3.08500000E+02
 40
3.75000000E+00
  0
ARC
  8
0
 62
7
 10
3.81999840E+02
 20
-3.19500000E+02
 40
2.00000000E+00
 50
0.00000000E+00
 51
1.80000000E+02
  0
ARC
  8
0
 62
7
 10
4.11999886E+02
 20
-3.02000000E+02
 40
1.00000000E+00
 50
3.59721787E-05
 51
9.00000724E+01
  0
ARC
  8
0
 62
7
 10
3.81999840E+02
 20
-3.19500000E+02
 40
1.95000000E+01
 50
0.00000000E+00
 51
1.80000000E+02
  0
ARC
  8
0
 62
7
 10
4.29499870E+02
 20
-3.19500000E+02
 40
9.99998474E+00
 50
1.48211648E+02
 51
1.80000000E+02
  0
LINE
  8
0
  6
CENTER
 62
2
 10
3.81999870E+02
 20
-2.79814713E+02
 11
3.81999870E+02
 21
-2.91699921E+02
  0
LINE
  8
0
 62
4
 10
4.39999855E+02
 20
-3.19500000E+02
 11
4.39999855E+02
 21
-3.06000000E+02
  0
LINE
  8
0
 62
4
 10
4.50999855E+02
 20
-3.19500000E+02
 11
4.50999855E+02
 21
-3.06000000E+02
  0
ARC
  8
0
 62
4
 10
4.25205627E+02
 20
-3.19500000E+02
 40
2.57942282E+01
 50
2.54444375E-13
 51
1.75879541E+01
  0
ARC
  8
0
 62
4
 10
4.65794083E+02
 20
-3.19500000E+02
 40
2.57942282E+01
 50
1.62412046E+02
 51
1.80000000E+02
  0
ARC
  8
0
 62
4
 10
4.46900576E+02
 20
-3.07808657E+02
 40
6.90072132E+00
 50
1.45615752E+02
 51
2.14384248E+02
  0
ARC
  8
0
 62
4
 10
4.44099134E+02
 20
-3.07808657E+02
 40
6.90072132E+00
 50
3.25615752E+02
 51
3.43842480E+01
  0
LINE
  8
0
 62
4
 10
4.41205626E+02
 20
-3.03911543E+02
 11
4.39999855E+02
 21
-3.06000000E+02
  0
LINE
  8
0
 62
4
 10
4.49794084E+02
 20
-3.03911543E+02
 11
4.50999855E+02
 21
-3.06000000E+02
  0
LINE
  8
0
 62
4
 10
4.49794084E+02
 20
-3.11705771E+02
 11
4.41205626E+02
 21
-3.11705771E+02
  0
LINE
  8
0
 62
4
 10
4.49794084E+02
 20
-3.03911543E+02
 11
4.41205626E+02
 21
-3.03911543E+02
  0
LINE
  8
0
 62
7
 10
4.39999855E+02
 20
-3.10500000E+02
 11
4.30999840E+02
 21
-3.10500000E+02
  0
LINE
  8
0
 62
2
 10
4.39999855E+02
 20
-3.11320007E+02
 11
4.30999840E+02
 21
-3.11320007E+02
  0
LINE
  8
0
 62
2
 10
2.57579030E+02
 20
-3.29848140E+02
 11
2.88237497E+02
 21
-2.76746118E+02
  0
LINE
  8
0
 62
7
 10
3.46781109E+02
 20
-2.85500031E+02
 11
3.50999825E+02
 21
-2.85500031E+02
  0
LINE
  8
0
 62
7
 10
3.42499825E+02
 20
-2.95100037E+02
 11
3.50999825E+02
 21
-2.95100037E+02
  0
LINE
  8
0
 62
7
 10
3.42499825E+02
 20
-2.87900024E+02
 11
3.50999825E+02
 21
-2.87900024E+02
  0
LINE
  8
0
  6
CENTER
 62
2
 10
3.42499825E+02
 20
-2.91499992E+02
 11
4.06423561E+02
 21
-2.91499992E+02
  0
TEXT
  8
0
 10
-5.22147331E+01
 20
3.54316712E+02
 40
9.00000000E+00
  1
STRETCH LINE
 41
1.05263158E+00
  7
MONOTXT
  0
LINE
  8
0
 62
7
 10
5.74500000E+02
 20
4.00500000E+02
 11
5.74500000E+02
 21
-4.00500000E+02
  0
LINE
  8
0
 62
7
 10
-5.64500000E+02
 20
4.00500000E+02
 11
5.74500000E+02
 21
4.00500000E+02
  0
LINE
  8
0
 62
7
 10
-5.64500000E+02
 20
-4.00500000E+02
 11
5.74500000E+02
 21
-4.00500000E+02
  0
LINE
  8
0
 62
7
 10
-5.64500000E+02
 20
4.00500000E+02
 11
-5.64500000E+02
 21
-4.00500000E+02
  0
LINE
  8
0
 62
7
 10
-5.64500000E+02
 20
3.70500000E+02
 11
-3.34500000E+02
 21
3.70500000E+02
  0
LINE
  8
0
 62
7
 10
3.44500000E+02
 20
3.70500000E+02
 11
5.74500000E+02
 21
3.70500000E+02
  0
LINE
  8
0
 62
7
 10
3.44500000E+02
 20
-3.70500000E+02
 11
5.74500000E+02
 21
-3.70500000E+02
  0
LINE
  8
0
 62
7
 10
3.44500000E+02
 20
-3.70500000E+02
 11
3.44500000E+02
 21
-4.00500000E+02
  0
LINE
  8
0
 62
7
 10
3.44500000E+02
 20
4.00500000E+02
 11
3.44500000E+02
 21
3.70500000E+02
  0
LINE
  8
0
 62
7
 10
-3.34500000E+02
 20
4.00500000E+02
 11
-3.34500000E+02
 21
3.70500000E+02
  0
TEXT
  8
0
 62
7
 10
-5.37179687E+02
 20
3.34250000E+02
 40
1.25000000E+01
  1
MODEL:DDAK-RL63*75
 41
1.00000015E+00
  7
MONOTXT
  0
TEXT
  8
0
 62
7
 10
4.11285149E+02
 20
3.79250000E+02
 40
1.25000000E+01
  1
Ver. 1.0
 41
1.08108125E+00
  7
MONOTXT
  0
TEXT
  8
0
 62
7
 10
3.50070624E+02
 20
-3.94500000E+02
 40
1.80000000E+01
  1
KOGANEI CORP.
 41
1.04838710E+00
  7
MONOTXT
  0
TEXT
  8
0
 62
7
 10
-5.53964859E+02
 20
3.79250000E+02
 40
1.25000000E+01
  1
NEW DYNA CYLINDER
 41
1.07594953E+00
  7
MONOTXT
  0
ENDSEC
  0
EOF
