  0
SECTION
  2
HEADER
  9
$ACADVER
  1
AC1003
  9
$EXTMIN
 10
-5.64500000E+02
 20
-4.00500000E+02
  9
$EXTMAX
 10
5.74500000E+02
 20
4.00500000E+02
  9
$LIMMIN
 10
-5.64501000E+02
 20
-4.00501000E+02
  9
$LIMMAX
 10
5.74501000E+02
 20
4.00501000E+02
  9
$SNAPUNIT
 10
1
 20
1
  9
$SNAPBASE
 10
0
 20
0
  9
$GRIDMODE
 70
0
  9
$GRIDUNIT
 10
0
 20
0
  9
$LTSCALE
 40
1.89833333E+01
  9
$TEXTSIZE
 40
3.2
  9
$DIMTAD
 70
0
  9
$LUNITS
 70
2
  9
$LUPREC
 70
4
  9
$FILLETRAD
 40
0
  9
$AUNITS
 70
0
  9
$AUPREC
 70
0
  0
ENDSEC
  0
SECTION
  2
TABLES
  0
TABLE
  2
LTYPE
 70
2
  0
LTYPE
  2
CONTINUOUS
 70
64
  3
Solid-Line
 72
65
 73
0
 40
0
  0
LTYPE
  2
DASHED
 70
64
  3
DASHED
 72
65
 73
2
 40
.75
 49
.5
 49
-.25
  0
LTYPE
  2
HIDDEN
 70
64
  3
HIDDEN
 72
65
 73
2
 40
.375
 49
.25
 49
-.125
  0
LTYPE
  2
CENTER
 70
64
  3
CENTER
 72
65
 73
4
 40
2
 49
1.25
 49
-.25
 49
.25
 49
-.25
  0
LTYPE
  2
PHANTOM
 70
64
  3
PHANTOM
 72
65
 73
6
 40
2.5
 49
1.25
 49
-.25
 49
.25
 49
-.25
 49
.25
 49
-.25
  0
ENDTAB
  0
TABLE
  2
LAYER
 70
1
  0
LAYER
  2
1
 70
0
 62
7
  6
CONTINUOUS
 0
ENDTAB
  0
TABLE
  2
STYLE
 70
2
  0
STYLE
  2
MONOTXT
 70
0
 40
0
 41
1
 50
0
 71
0
 42
.2
  3
monotxt
  0
STYLE
  2
BIGFONT
 70
0
 40
0
 41
1
 50
0
 71
0
 42
.2
  3
txt
  4
bigfont
  0
ENDTAB
  0
ENDSEC
  0
SECTION
  2
ENTITIES
  0
LINE
  8
0
  6
PHANTOM
 10
-2.45000000E+01
 20
2.81313474E+01
 11
-2.45000000E+01
 21
1.90899168E+02
  0
LINE
  8
0
 62
7
 10
2.79999886E+01
 20
5.34999924E+01
 11
2.79999886E+01
 21
1.47500000E+02
  0
LINE
  8
0
 62
7
 10
2.79999886E+01
 20
5.69999847E+01
 11
-8.30000191E+01
 21
5.69999847E+01
  0
LINE
  8
0
 62
7
 10
2.79999886E+01
 20
6.99999847E+01
 11
-8.30000191E+01
 21
6.99999847E+01
  0
LINE
  8
0
 62
7
 10
2.79999886E+01
 20
6.09999847E+01
 11
-8.30000191E+01
 21
6.09999847E+01
  0
LINE
  8
0
 62
7
 10
-8.30000191E+01
 20
5.34999924E+01
 11
-8.30000191E+01
 21
1.47500000E+02
  0
LINE
  8
0
 62
7
 10
2.79999886E+01
 20
1.44000000E+02
 11
2.14999886E+01
 21
1.44000000E+02
  0
LINE
  8
0
 62
7
 10
2.79999886E+01
 20
1.31000000E+02
 11
4.99998856E+00
 21
1.31000000E+02
  0
LINE
  8
0
 62
7
 10
2.79999886E+01
 20
1.40000015E+02
 11
1.99999886E+01
 21
1.40000015E+02
  0
LINE
  8
0
  6
CENTER
 62
2
 10
8.59121723E+01
 20
8.64999847E+01
 11
7.31857929E+01
 21
8.64999847E+01
  0
LINE
  8
0
  6
CENTER
 62
2
 10
7.89999866E+01
 20
7.99228592E+01
 11
7.89999866E+01
 21
9.26491928E+01
  0
LINE
  8
0
  6
DASHED
 62
7
 10
7.90000808E+01
 20
8.50566432E+01
 11
7.77500716E+01
 21
8.57783282E+01
  0
LINE
  8
0
  6
DASHED
 62
7
 10
7.89996973E+01
 20
8.50569616E+01
 11
8.02497115E+01
 21
8.57786495E+01
  0
LINE
  8
0
  6
DASHED
 62
7
 10
7.77497425E+01
 20
8.72221392E+01
 11
7.89997336E+01
 21
8.79438137E+01
  0
LINE
  8
0
  6
DASHED
 62
7
 10
7.90000838E+01
 20
8.79434374E+01
 11
8.02501261E+01
 21
8.72217333E+01
  0
LINE
  8
0
  6
DASHED
 62
7
 10
7.77499256E+01
 20
8.57782745E+01
 11
7.77499256E+01
 21
8.72216721E+01
  0
LINE
  8
0
  6
DASHED
 62
7
 10
8.02499561E+01
 20
8.57782745E+01
 11
8.02499561E+01
 21
8.72216721E+01
  0
LINE
  8
0
  6
CENTER
 62
2
 10
-1.98158665E+02
 20
1.00500000E+02
 11
9.26334095E+01
 21
1.00500000E+02
  0
LINE
  8
0
 62
7
 10
8.89999714E+01
 20
1.47499985E+02
 11
8.89999714E+01
 21
5.34999847E+01
  0
LINE
  8
0
 62
7
 10
8.89999714E+01
 20
1.47499985E+02
 11
2.79999886E+01
 21
1.47499985E+02
  0
LINE
  8
0
 62
7
 10
8.89999714E+01
 20
5.35000076E+01
 11
2.79999886E+01
 21
5.35000076E+01
  0
LINE
  8
0
 62
7
 10
-1.14999958E+02
 20
5.34999847E+01
 11
-8.29999733E+01
 21
5.34999847E+01
  0
LINE
  8
0
 62
7
 10
-1.14999958E+02
 20
1.47500015E+02
 11
-8.29999733E+01
 21
1.47500015E+02
  0
LINE
  8
0
 62
7
 10
-1.15000034E+02
 20
5.40585480E+01
 11
-1.15000034E+02
 21
5.34999847E+01
  0
LINE
  8
0
 62
7
 10
-1.15000034E+02
 20
1.46941452E+02
 11
-1.15000034E+02
 21
1.47500015E+02
  0
LINE
  8
0
 62
7
 10
-1.18508632E+02
 20
1.46880315E+02
 11
-8.29998646E+01
 21
1.47500118E+02
  0
LINE
  8
0
 62
7
 10
-1.19000019E+02
 20
1.46380295E+02
 11
-1.19000019E+02
 21
5.46197433E+01
  0
LINE
  8
0
 62
7
 10
-1.18508661E+02
 20
5.41198323E+01
 11
-8.29999855E+01
 21
5.35000207E+01
  0
LINE
  8
0
 62
7
 10
-1.20499973E+02
 20
7.85000153E+01
 11
-1.18999973E+02
 21
7.85000153E+01
  0
LINE
  8
0
 62
7
 10
-1.20499973E+02
 20
1.22500000E+02
 11
-1.18999973E+02
 21
1.22500000E+02
  0
LINE
  8
0
 62
7
 10
-1.21000034E+02
 20
7.90000534E+01
 11
-1.21000034E+02
 21
1.22000061E+02
  0
LINE
  8
0
  6
CENTER
 62
2
 10
-1.24256947E+02
 20
1.35500015E+02
 11
9.10597639E+01
 21
1.35500015E+02
  0
LINE
  8
0
  6
CENTER
 62
2
 10
-1.24256947E+02
 20
6.54999847E+01
 11
9.21837964E+01
 21
6.54999847E+01
  0
LINE
  8
0
 62
7
 10
-1.40000019E+02
 20
8.15000076E+01
 11
-1.40000019E+02
 21
1.19499985E+02
  0
LINE
  8
0
 62
7
 10
-1.39500050E+02
 20
8.10000153E+01
 11
-1.35000050E+02
 21
8.10000153E+01
  0
LINE
  8
0
 62
7
 10
-1.35000050E+02
 20
7.99717407E+01
 11
-1.35000050E+02
 21
1.21028244E+02
  0
LINE
  8
0
 62
7
 10
-1.34517610E+02
 20
7.94720899E+01
 11
-1.21000138E+02
 21
7.90000494E+01
  0
LINE
  8
0
 62
7
 10
-1.39500050E+02
 20
1.20000000E+02
 11
-1.35000050E+02
 21
1.20000000E+02
  0
LINE
  8
0
  6
CENTER
 62
2
 10
4.40877724E+01
 20
8.64999847E+01
 11
5.68141518E+01
 21
8.64999847E+01
  0
LINE
  8
0
  6
CENTER
 62
2
 10
5.09999580E+01
 20
7.99228592E+01
 11
5.09999580E+01
 21
9.26491928E+01
  0
LINE
  8
0
  6
DASHED
 62
7
 10
5.10001974E+01
 20
8.50568883E+01
 11
4.97501816E+01
 21
8.57785771E+01
  0
LINE
  8
0
  6
DASHED
 62
7
 10
4.97499886E+01
 20
8.57782745E+01
 11
4.97499886E+01
 21
8.72216721E+01
  0
LINE
  8
0
  6
DASHED
 62
7
 10
5.09997594E+01
 20
8.79435162E+01
 11
4.97497179E+01
 21
8.72218126E+01
  0
LINE
  8
0
  6
DASHED
 62
7
 10
5.22501201E+01
 20
8.72220712E+01
 11
5.10001439E+01
 21
8.79437371E+01
  0
LINE
  8
0
  6
DASHED
 62
7
 10
5.22500191E+01
 20
8.57782745E+01
 11
5.22500191E+01
 21
8.72216721E+01
  0
LINE
  8
0
  6
DASHED
 62
7
 10
5.09998034E+01
 20
8.50567368E+01
 11
5.22497738E+01
 21
8.57783994E+01
  0
LINE
  8
0
  6
CENTER
 62
2
 10
8.59121723E+01
 20
1.14500015E+02
 11
7.31857929E+01
 21
1.14500015E+02
  0
LINE
  8
0
  6
CENTER
 62
2
 10
7.89999866E+01
 20
1.21077133E+02
 11
7.89999866E+01
 21
1.08350807E+02
  0
LINE
  8
0
  6
DASHED
 62
7
 10
7.89997793E+01
 20
1.15943162E+02
 11
8.02497753E+01
 21
1.15221485E+02
  0
LINE
  8
0
  6
DASHED
 62
7
 10
8.02499561E+01
 20
1.15221725E+02
 11
8.02499561E+01
 21
1.13778328E+02
  0
LINE
  8
0
  6
DASHED
 62
7
 10
7.90000182E+01
 20
1.13056670E+02
 11
8.02500572E+01
 21
1.13778372E+02
  0
LINE
  8
0
  6
DASHED
 62
7
 10
7.77497602E+01
 20
1.13777995E+02
 11
7.89997760E+01
 21
1.13056307E+02
  0
LINE
  8
0
  6
DASHED
 62
7
 10
7.77499256E+01
 20
1.15221725E+02
 11
7.77499256E+01
 21
1.13778328E+02
  0
LINE
  8
0
  6
DASHED
 62
7
 10
7.89999949E+01
 20
1.15943461E+02
 11
7.77499989E+01
 21
1.15221784E+02
  0
LINE
  8
0
  6
CENTER
 62
2
 10
4.40877724E+01
 20
1.14500015E+02
 11
5.68141518E+01
 21
1.14500015E+02
  0
LINE
  8
0
  6
CENTER
 62
2
 10
5.09999580E+01
 20
1.21077133E+02
 11
5.09999580E+01
 21
1.08350807E+02
  0
LINE
  8
0
  6
DASHED
 62
7
 10
5.10001086E+01
 20
1.15943179E+02
 11
4.97501291E+01
 21
1.15221511E+02
  0
LINE
  8
0
  6
DASHED
 62
7
 10
4.97499886E+01
 20
1.15221725E+02
 11
4.97499886E+01
 21
1.13778328E+02
  0
LINE
  8
0
  6
DASHED
 62
7
 10
5.09998617E+01
 20
1.13056605E+02
 11
4.97498326E+01
 21
1.13778301E+02
  0
LINE
  8
0
  6
DASHED
 62
7
 10
5.22500585E+01
 20
1.13777998E+02
 11
5.10000773E+01
 21
1.13056330E+02
  0
LINE
  8
0
  6
DASHED
 62
7
 10
5.22500191E+01
 20
1.15221725E+02
 11
5.22500191E+01
 21
1.13778328E+02
  0
LINE
  8
0
  6
DASHED
 62
7
 10
5.09998667E+01
 20
1.15943433E+02
 11
5.22498825E+01
 21
1.15221744E+02
  0
LINE
  8
0
 62
7
 10
-1.34517643E+02
 20
1.21527954E+02
 11
-1.21000156E+02
 21
1.21999995E+02
  0
LINE
  8
0
 62
7
 10
9.09999638E+01
 20
1.21999985E+02
 11
9.09999638E+01
 21
7.89999847E+01
  0
LINE
  8
0
 62
7
 10
9.04999478E+01
 20
7.84999918E+01
 11
9.09999402E+01
 21
7.89999842E+01
  0
LINE
  8
0
 62
7
 10
9.04999714E+01
 20
1.22499985E+02
 11
9.04999714E+01
 21
7.84999924E+01
  0
LINE
  8
0
 62
7
 10
9.04999714E+01
 20
7.84999924E+01
 11
8.89999714E+01
 21
7.84999924E+01
  0
LINE
  8
0
 62
7
 10
9.04999943E+01
 20
1.22499985E+02
 11
8.89999714E+01
 21
1.22499985E+02
  0
LINE
  8
0
 62
7
 10
9.04999424E+01
 20
1.22499979E+02
 11
9.09999429E+01
 21
1.21999979E+02
  0
LINE
  8
0
 62
7
 10
-1.51000019E+02
 20
1.07282280E+02
 11
-1.51000019E+02
 21
1.13000000E+02
  0
LINE
  8
0
 62
7
 10
-1.54000019E+02
 20
8.94999695E+01
 11
-1.54000019E+02
 21
1.11500023E+02
  0
LINE
  8
0
 62
7
 10
-1.94000004E+02
 20
1.10000046E+02
 11
-1.94000004E+02
 21
9.09999466E+01
  0
LINE
  8
0
 62
7
 10
-1.57000019E+02
 20
1.11500023E+02
 11
-1.57000019E+02
 21
8.94999847E+01
  0
LINE
  8
0
 62
7
 10
-1.92500065E+02
 20
8.94999695E+01
 11
-1.82000019E+02
 21
8.94999695E+01
  0
LINE
  8
0
 62
7
 10
-1.92500004E+02
 20
1.11500023E+02
 11
-1.92500004E+02
 21
8.94999847E+01
  0
LINE
  8
0
 62
7
 10
-1.94000096E+02
 20
9.09999996E+01
 11
-1.92500083E+02
 21
8.94999873E+01
  0
LINE
  8
0
 62
2
 10
-1.93320072E+02
 20
9.03199844E+01
 11
-1.82000019E+02
 21
9.03199844E+01
  0
LINE
  8
0
 62
7
 10
-1.51000065E+02
 20
8.79999466E+01
 11
-1.40000050E+02
 21
8.79999466E+01
  0
LINE
  8
0
 62
7
 10
-1.51000019E+02
 20
9.37176895E+01
 11
-1.51000019E+02
 21
8.79999619E+01
  0
LINE
  8
0
 62
7
 10
-1.94000080E+02
 20
1.09999971E+02
 11
-1.92500062E+02
 21
1.11499989E+02
  0
LINE
  8
0
 62
7
 10
-1.92500065E+02
 20
1.11500023E+02
 11
-1.82000019E+02
 21
1.11500023E+02
  0
LINE
  8
0
 62
2
 10
-1.93320072E+02
 20
1.10680008E+02
 11
-1.82000019E+02
 21
1.10680008E+02
  0
LINE
  8
0
 62
7
 10
-1.51000065E+02
 20
1.13000046E+02
 11
-1.40000050E+02
 21
1.13000046E+02
  0
LINE
  8
0
 62
7
 10
-1.44000034E+02
 20
9.37176895E+01
 11
-1.44000034E+02
 21
1.07282280E+02
  0
LINE
  8
0
 62
7
 10
-1.51000019E+02
 20
9.37176895E+01
 11
-1.44000034E+02
 21
9.37176895E+01
  0
LINE
  8
0
 62
7
 10
-1.51000019E+02
 20
1.07282280E+02
 11
-1.44000034E+02
 21
1.07282280E+02
  0
LINE
  8
0
 62
7
 10
-1.51000008E+02
 20
9.37176924E+01
 11
-1.54000015E+02
 21
9.70001403E+01
  0
LINE
  8
0
 62
7
 10
-1.54000012E+02
 20
1.03999864E+02
 11
-1.51000017E+02
 21
1.07282276E+02
  0
LINE
  8
0
 62
7
 10
-1.54000038E+02
 20
1.11500025E+02
 11
-1.51000026E+02
 21
1.13000054E+02
  0
LINE
  8
0
 62
7
 10
-1.54000040E+02
 20
8.94999835E+01
 11
-1.51000027E+02
 21
8.79999544E+01
  0
LINE
  8
0
 62
2
 10
-1.44000043E+02
 20
1.07282288E+02
 11
-1.52660587E+02
 21
9.55345967E+01
  0
LINE
  8
0
 62
2
 10
-1.44000018E+02
 20
9.37176837E+01
 11
-1.52660578E+02
 21
1.05465397E+02
  0
LINE
  8
0
 62
7
 10
-1.57000019E+02
 20
1.10680008E+02
 11
-1.54000019E+02
 21
1.10680008E+02
  0
LINE
  8
0
 62
7
 10
-1.57000019E+02
 20
9.03199844E+01
 11
-1.54000019E+02
 21
9.03199844E+01
  0
LINE
  8
0
  6
CENTER
 62
2
 10
-9.90000496E+01
 20
1.34800064E+02
 11
-9.90000496E+01
 21
1.49952667E+02
  0
CIRCLE
  8
0
  6
DASHED
 62
7
 10
7.89999866E+01
 20
8.64999847E+01
 40
3.75000000E+00
  0
CIRCLE
  8
0
  6
DASHED
 62
7
 10
6.49999733E+01
 20
1.00500000E+02
 40
2.00000000E+00
  0
CIRCLE
  8
0
  6
DASHED
 62
2
 10
6.49999733E+01
 20
1.00500000E+02
 40
2.50000000E+00
  0
ARC
  8
0
 62
7
 10
-1.34500004E+02
 20
7.99717484E+01
 40
5.00000000E-01
 50
1.79999977E+02
 51
2.67999192E+02
  0
ARC
  8
0
 62
7
 10
-1.18499958E+02
 20
1.46380295E+02
 40
5.00000000E-01
 50
9.10002905E+01
 51
1.79999977E+02
  0
ARC
  8
0
 62
7
 10
-1.18500050E+02
 20
5.46197433E+01
 40
5.00000000E-01
 50
1.79999991E+02
 51
2.68999706E+02
  0
ARC
  8
0
 62
7
 10
-1.20500019E+02
 20
1.22000061E+02
 40
5.00000000E-01
 50
9.00000094E+01
 51
1.79999964E+02
  0
ARC
  8
0
 62
7
 10
-1.20500019E+02
 20
7.90000534E+01
 40
5.00000000E-01
 50
1.79999991E+02
 51
2.69999974E+02
  0
ARC
  8
0
  6
DASHED
 62
7
 10
6.49999733E+01
 20
1.00500000E+02
 40
2.30000000E+01
 50
5.02468877E+01
 51
1.29753131E+02
  0
CIRCLE
  8
0
  6
DASHED
 62
7
 10
5.09999580E+01
 20
8.64999847E+01
 40
3.75000000E+00
  0
CIRCLE
  8
0
  6
DASHED
 62
7
 10
7.89999866E+01
 20
1.14500015E+02
 40
3.75000000E+00
  0
CIRCLE
  8
0
  6
DASHED
 62
7
 10
5.09999580E+01
 20
1.14500015E+02
 40
3.75000000E+00
  0
ARC
  8
0
  6
DASHED
 62
7
 10
6.49999733E+01
 20
1.00500000E+02
 40
2.30000000E+01
 50
1.40246897E+02
 51
2.19753140E+02
  0
ARC
  8
0
  6
DASHED
 62
7
 10
6.49999733E+01
 20
1.00500000E+02
 40
2.30000000E+01
 50
2.30246924E+02
 51
3.09753174E+02
  0
ARC
  8
0
  6
DASHED
 62
7
 10
6.49999733E+01
 20
1.00500000E+02
 40
2.30000000E+01
 50
3.20246933E+02
 51
3.97531217E+01
  0
ARC
  8
0
 62
7
 10
-1.39500050E+02
 20
1.19499985E+02
 40
5.00000000E-01
 50
8.99999818E+01
 51
1.79999964E+02
  0
ARC
  8
0
 62
7
 10
-1.34500004E+02
 20
1.21028244E+02
 40
5.00000000E-01
 50
9.20007356E+01
 51
1.79999964E+02
  0
ARC
  8
0
 62
7
 10
-1.39500050E+02
 20
8.15000153E+01
 40
5.00000000E-01
 50
1.79999977E+02
 51
2.69999974E+02
  0
ARC
  8
0
 62
7
 10
-1.54500050E+02
 20
1.00499985E+02
 40
1.25000010E+01
 50
3.27140311E+02
 51
3.28596884E+01
  0
ARC
  8
0
 62
4
 10
-1.73437416E+02
 20
1.14237610E+02
 40
8.56342793E+00
 50
1.46410665E+02
 51
2.13589318E+02
  0
ARC
  8
0
 62
4
 10
-1.52945219E+02
 20
1.00500000E+02
 40
2.90548000E+01
 50
1.61955287E+02
 51
1.98044695E+02
  0
ARC
  8
0
 62
4
 10
-1.73437416E+02
 20
8.67623901E+01
 40
8.56342793E+00
 50
1.46410624E+02
 51
2.13589277E+02
  0
ARC
  8
0
 62
4
 10
-1.77562622E+02
 20
1.14237610E+02
 40
8.56342793E+00
 50
3.26410605E+02
 51
3.35892584E+01
  0
ARC
  8
0
 62
4
 10
-1.98054814E+02
 20
1.00500000E+02
 40
2.90548000E+01
 50
3.41955269E+02
 51
1.80446768E+01
  0
ARC
  8
0
 62
4
 10
-1.77562622E+02
 20
8.67623901E+01
 40
8.56342793E+00
 50
3.26410646E+02
 51
3.35892994E+01
  0
LINE
  8
0
 62
4
 10
-1.80570957E+02
 20
1.09500000E+02
 11
-1.70429081E+02
 21
1.09500000E+02
  0
LINE
  8
0
 62
4
 10
-1.80570957E+02
 20
9.15000000E+01
 11
-1.70429081E+02
 21
9.15000000E+01
  0
LINE
  8
0
 62
4
 10
-1.70429099E+02
 20
1.18975176E+02
 11
-1.69000026E+02
 21
1.16499988E+02
  0
LINE
  8
0
 62
4
 10
-1.81999982E+02
 20
8.45000463E+01
 11
-1.80570928E+02
 21
8.20248564E+01
  0
LINE
  8
0
 62
4
 10
-1.70429055E+02
 20
8.20248431E+01
 11
-1.69000008E+02
 21
8.44999715E+01
  0
LINE
  8
0
 62
4
 10
-1.82000036E+02
 20
1.16500003E+02
 11
-1.80570952E+02
 21
1.18975220E+02
  0
LINE
  8
0
 62
4
 10
-1.69000019E+02
 20
1.16500004E+02
 11
-1.69000019E+02
 21
8.45000000E+01
  0
LINE
  8
0
 62
4
 10
-1.82000019E+02
 20
1.16500004E+02
 11
-1.82000019E+02
 21
8.45000000E+01
  0
LINE
  8
0
 62
4
 10
-1.80570957E+02
 20
1.18975224E+02
 11
-1.70429081E+02
 21
1.18975224E+02
  0
LINE
  8
0
 62
4
 10
-1.80570957E+02
 20
8.20247822E+01
 11
-1.70429081E+02
 21
8.20247822E+01
  0
LINE
  8
0
 62
7
 10
-1.69000019E+02
 20
1.11500023E+02
 11
-1.57000019E+02
 21
1.11500023E+02
  0
LINE
  8
0
 62
2
 10
-1.69000019E+02
 20
1.10680008E+02
 11
-1.57000019E+02
 21
1.10680008E+02
  0
LINE
  8
0
 62
7
 10
-1.69000019E+02
 20
8.94999695E+01
 11
-1.57000019E+02
 21
8.94999695E+01
  0
LINE
  8
0
 62
2
 10
-1.69000019E+02
 20
9.03199844E+01
 11
-1.57000019E+02
 21
9.03199844E+01
  0
LINE
  8
0
  6
CENTER
 62
2
 10
6.49999733E+01
 20
7.41030350E+01
 11
6.49999733E+01
 21
1.49952637E+02
  0
LINE
  8
0
 62
6
 10
-3.07320394E+01
 20
1.40726428E+02
 11
-2.72679378E+01
 21
1.46726428E+02
  0
LINE
  8
0
 62
6
 10
-1.82678767E+01
 20
1.46726428E+02
 11
-2.17319783E+01
 21
1.40726428E+02
  0
LINE
  8
0
 62
4
 10
-9.99992751E+00
 20
1.45226428E+02
 11
-1.91339021E+01
 21
1.45226428E+02
  0
LINE
  8
0
  6
CENTER
 62
6
 10
2.50000725E+01
 20
1.43726428E+02
 11
-2.19999275E+01
 21
1.43726428E+02
  0
LINE
  8
0
 62
4
 10
-9.99992751E+00
 20
1.42226428E+02
 11
-2.08659529E+01
 21
1.42226428E+02
  0
LINE
  8
0
 62
4
 10
-4.54999885E+01
 20
1.45226428E+02
 11
-2.81339631E+01
 21
1.45226428E+02
  0
LINE
  8
0
 62
4
 10
2.14999886E+01
 20
1.42248896E+02
 11
1.99999886E+01
 21
1.41122847E+02
  0
LINE
  8
0
 62
4
 10
2.14999886E+01
 20
1.43097380E+02
 11
1.99999886E+01
 21
1.42621274E+02
  0
LINE
  8
0
 62
4
 10
2.14999886E+01
 20
1.45197451E+02
 11
2.14999886E+01
 21
1.42248896E+02
  0
LINE
  8
0
 62
4
 10
1.99999886E+01
 20
1.46330009E+02
 11
2.14999886E+01
 21
1.45197451E+02
  0
LINE
  8
0
 62
4
 10
-6.89999886E+01
 20
1.44000000E+02
 11
-6.89999886E+01
 21
1.56361392E+02
  0
LINE
  8
0
 62
4
 10
-3.89999886E+01
 20
1.45226428E+02
 11
-3.89999886E+01
 21
1.56361392E+02
  0
LINE
  8
0
 62
4
 10
-1.00000114E+01
 20
1.24976467E+02
 11
-1.00000114E+01
 21
1.56361392E+02
  0
LINE
  8
0
  6
CENTER
 62
6
 10
1.60745854E+01
 20
1.48330616E+02
 11
8.92539167E+00
 21
1.48330616E+02
  0
LINE
  8
0
  6
CENTER
 62
6
 10
1.24999886E+01
 20
1.51905213E+02
 11
1.24999886E+01
 21
1.44756020E+02
  0
LINE
  8
0
 62
4
 10
1.99999886E+01
 20
1.56361392E+02
 11
1.99999886E+01
 21
1.37518159E+02
  0
LINE
  8
0
 62
4
 10
4.99998856E+00
 20
1.24976467E+02
 11
4.99998856E+00
 21
1.56361392E+02
  0
LINE
  8
0
  6
CENTER
 62
6
 10
-1.00000114E+01
 20
1.29159701E+02
 11
-3.00001144E+00
 21
1.29159701E+02
  0
LINE
  8
0
  6
CENTER
 62
6
 10
-6.50001144E+00
 20
1.25659701E+02
 11
-6.50001144E+00
 21
1.32659701E+02
  0
LINE
  8
0
  6
CENTER
 62
6
 10
-2.00001144E+00
 20
1.29159701E+02
 11
4.99998856E+00
 21
1.29159701E+02
  0
LINE
  8
0
  6
CENTER
 62
6
 10
1.49998856E+00
 20
1.25659701E+02
 11
1.49998856E+00
 21
1.32659701E+02
  0
LINE
  8
0
 62
4
 10
-1.00000114E+01
 20
1.56361392E+02
 11
1.99999885E+01
 21
1.56361392E+02
  0
LINE
  8
0
 62
4
 10
-1.00000114E+01
 20
1.24976467E+02
 11
4.99998856E+00
 21
1.24976467E+02
  0
LINE
  8
0
 62
4
 10
-1.00000115E+01
 20
1.52502944E+02
 11
1.99999885E+01
 21
1.52502944E+02
  0
LINE
  8
0
 62
4
 10
-1.00000115E+01
 20
1.49880698E+02
 11
4.99998855E+00
 21
1.49880698E+02
  0
LINE
  8
0
 62
4
 10
-9.00001145E+00
 20
1.36049423E+02
 11
3.99998855E+00
 21
1.36049423E+02
  0
LINE
  8
0
 62
4
 10
4.99998855E+00
 20
1.37518159E+02
 11
1.99999885E+01
 21
1.37518159E+02
  0
LINE
  8
0
 62
4
 10
4.99998855E+00
 20
1.44621881E+02
 11
1.99999885E+01
 21
1.44621881E+02
  0
LINE
  8
0
 62
4
 10
4.99998855E+00
 20
1.44472038E+02
 11
1.99999885E+01
 21
1.44472038E+02
  0
POLYLINE
  8
0
 62
4
 66
1
  0
VERTEX
  8
0
 62
4
 10
1.02499886E+01
 20
1.48330616E+02
  0
VERTEX
  8
0
 62
4
 10
1.02585505E+01
 20
1.48148795E+02
  0
VERTEX
  8
0
 62
4
 10
1.02841712E+01
 20
1.47968357E+02
  0
VERTEX
  8
0
 62
4
 10
1.03266555E+01
 20
1.47790677E+02
  0
VERTEX
  8
0
 62
4
 10
1.03856802E+01
 20
1.47617106E+02
  0
VERTEX
  8
0
 62
4
 10
1.04607961E+01
 20
1.47448965E+02
  0
VERTEX
  8
0
 62
4
 10
1.05514314E+01
 20
1.47287534E+02
  0
VERTEX
  8
0
 62
4
 10
1.06568965E+01
 20
1.47134042E+02
  0
VERTEX
  8
0
 62
4
 10
1.07763886E+01
 20
1.46989656E+02
  0
VERTEX
  8
0
 62
4
 10
1.09089983E+01
 20
1.46855476E+02
  0
VERTEX
  8
0
 62
4
 10
1.10537165E+01
 20
1.46732522E+02
  0
VERTEX
  8
0
 62
4
 10
1.12094416E+01
 20
1.46621731E+02
  0
VERTEX
  8
0
 62
4
 10
1.13749886E+01
 20
1.46523945E+02
  0
VERTEX
  8
0
 62
4
 10
1.15490975E+01
 20
1.46439910E+02
  0
VERTEX
  8
0
 62
4
 10
1.17304433E+01
 20
1.46370263E+02
  0
VERTEX
  8
0
 62
4
 10
1.19176457E+01
 20
1.46315537E+02
  0
VERTEX
  8
0
 62
4
 10
1.21092802E+01
 20
1.46276146E+02
  0
VERTEX
  8
0
 62
4
 10
1.23038882E+01
 20
1.46252391E+02
  0
VERTEX
  8
0
 62
4
 10
1.24999886E+01
 20
1.46244452E+02
  0
VERTEX
  8
0
 62
4
 10
1.26960890E+01
 20
1.46252391E+02
  0
VERTEX
  8
0
 62
4
 10
1.28906970E+01
 20
1.46276146E+02
  0
VERTEX
  8
0
 62
4
 10
1.30823314E+01
 20
1.46315537E+02
  0
VERTEX
  8
0
 62
4
 10
1.32695339E+01
 20
1.46370263E+02
  0
VERTEX
  8
0
 62
4
 10
1.34508797E+01
 20
1.46439910E+02
  0
VERTEX
  8
0
 62
4
 10
1.36249886E+01
 20
1.46523945E+02
  0
VERTEX
  8
0
 62
4
 10
1.37905356E+01
 20
1.46621731E+02
  0
VERTEX
  8
0
 62
4
 10
1.39462607E+01
 20
1.46732522E+02
  0
VERTEX
  8
0
 62
4
 10
1.40909789E+01
 20
1.46855476E+02
  0
VERTEX
  8
0
 62
4
 10
1.42235886E+01
 20
1.46989656E+02
  0
VERTEX
  8
0
 62
4
 10
1.43430807E+01
 20
1.47134042E+02
  0
VERTEX
  8
0
 62
4
 10
1.44485458E+01
 20
1.47287534E+02
  0
VERTEX
  8
0
 62
4
 10
1.45391811E+01
 20
1.47448965E+02
  0
VERTEX
  8
0
 62
4
 10
1.46142970E+01
 20
1.47617106E+02
  0
VERTEX
  8
0
 62
4
 10
1.46733217E+01
 20
1.47790677E+02
  0
VERTEX
  8
0
 62
4
 10
1.47158060E+01
 20
1.47968357E+02
  0
VERTEX
  8
0
 62
4
 10
1.47414267E+01
 20
1.48148795E+02
  0
VERTEX
  8
0
 62
4
 10
1.47499886E+01
 20
1.48330616E+02
  0
VERTEX
  8
0
 62
4
 10
1.47414267E+01
 20
1.48512437E+02
  0
VERTEX
  8
0
 62
4
 10
1.47158060E+01
 20
1.48692875E+02
  0
VERTEX
  8
0
 62
4
 10
1.46733217E+01
 20
1.48870555E+02
  0
VERTEX
  8
0
 62
4
 10
1.46142970E+01
 20
1.49044126E+02
  0
VERTEX
  8
0
 62
4
 10
1.45391811E+01
 20
1.49212267E+02
  0
VERTEX
  8
0
 62
4
 10
1.44485458E+01
 20
1.49373698E+02
  0
VERTEX
  8
0
 62
4
 10
1.43430807E+01
 20
1.49527190E+02
  0
VERTEX
  8
0
 62
4
 10
1.42235886E+01
 20
1.49671576E+02
  0
VERTEX
  8
0
 62
4
 10
1.40909789E+01
 20
1.49805756E+02
  0
VERTEX
  8
0
 62
4
 10
1.39462607E+01
 20
1.49928710E+02
  0
VERTEX
  8
0
 62
4
 10
1.37905356E+01
 20
1.50039501E+02
  0
VERTEX
  8
0
 62
4
 10
1.36249886E+01
 20
1.50137287E+02
  0
VERTEX
  8
0
 62
4
 10
1.34508797E+01
 20
1.50221322E+02
  0
VERTEX
  8
0
 62
4
 10
1.32695339E+01
 20
1.50290969E+02
  0
VERTEX
  8
0
 62
4
 10
1.30823315E+01
 20
1.50345695E+02
  0
VERTEX
  8
0
 62
4
 10
1.28906970E+01
 20
1.50385086E+02
  0
VERTEX
  8
0
 62
4
 10
1.26960890E+01
 20
1.50408841E+02
  0
VERTEX
  8
0
 62
4
 10
1.24999886E+01
 20
1.50416780E+02
  0
VERTEX
  8
0
 62
4
 10
1.23038882E+01
 20
1.50408841E+02
  0
VERTEX
  8
0
 62
4
 10
1.21092802E+01
 20
1.50385086E+02
  0
VERTEX
  8
0
 62
4
 10
1.19176458E+01
 20
1.50345695E+02
  0
VERTEX
  8
0
 62
4
 10
1.17304433E+01
 20
1.50290969E+02
  0
VERTEX
  8
0
 62
4
 10
1.15490975E+01
 20
1.50221322E+02
  0
VERTEX
  8
0
 62
4
 10
1.13749886E+01
 20
1.50137287E+02
  0
VERTEX
  8
0
 62
4
 10
1.12094416E+01
 20
1.50039501E+02
  0
VERTEX
  8
0
 62
4
 10
1.10537165E+01
 20
1.49928710E+02
  0
VERTEX
  8
0
 62
4
 10
1.09089983E+01
 20
1.49805756E+02
  0
VERTEX
  8
0
 62
4
 10
1.07763886E+01
 20
1.49671576E+02
  0
VERTEX
  8
0
 62
4
 10
1.06568965E+01
 20
1.49527190E+02
  0
VERTEX
  8
0
 62
4
 10
1.05514314E+01
 20
1.49373698E+02
  0
VERTEX
  8
0
 62
4
 10
1.04607961E+01
 20
1.49212267E+02
  0
VERTEX
  8
0
 62
4
 10
1.03856802E+01
 20
1.49044126E+02
  0
VERTEX
  8
0
 62
4
 10
1.03266555E+01
 20
1.48870555E+02
  0
VERTEX
  8
0
 62
4
 10
1.02841712E+01
 20
1.48692875E+02
  0
VERTEX
  8
0
 62
4
 10
1.02585505E+01
 20
1.48512437E+02
  0
VERTEX
  8
0
 62
4
 10
1.02499886E+01
 20
1.48330616E+02
  0
SEQEND
  8
0
  0
POLYLINE
  8
0
 62
4
 66
1
  0
VERTEX
  8
0
 62
4
 10
3.49998856E+00
 20
1.29159701E+02
  0
VERTEX
  8
0
 62
4
 10
3.49193715E+00
 20
1.29325925E+02
  0
VERTEX
  8
0
 62
4
 10
3.46784774E+00
 20
1.29490811E+02
  0
VERTEX
  8
0
 62
4
 10
3.42791429E+00
 20
1.29653031E+02
  0
VERTEX
  8
0
 62
4
 10
3.37245831E+00
 20
1.29811279E+02
  0
VERTEX
  8
0
 62
4
 10
3.30192630E+00
 20
1.29964281E+02
  0
VERTEX
  8
0
 62
4
 10
3.21688615E+00
 20
1.30110805E+02
  0
VERTEX
  8
0
 62
4
 10
3.11802256E+00
 20
1.30249671E+02
  0
VERTEX
  8
0
 62
4
 10
3.00613150E+00
 20
1.30379761E+02
  0
VERTEX
  8
0
 62
4
 10
2.88211387E+00
 20
1.30500028E+02
  0
VERTEX
  8
0
 62
4
 10
2.74696818E+00
 20
1.30609504E+02
  0
VERTEX
  8
0
 62
4
 10
2.60178254E+00
 20
1.30707307E+02
  0
VERTEX
  8
0
 62
4
 10
2.44772590E+00
 20
1.30792649E+02
  0
VERTEX
  8
0
 62
4
 10
2.28603864E+00
 20
1.30864844E+02
  0
VERTEX
  8
0
 62
4
 10
2.11802256E+00
 20
1.30923309E+02
  0
VERTEX
  8
0
 62
4
 10
1.94503044E+00
 20
1.30967576E+02
  0
VERTEX
  8
0
 62
4
 10
1.76845511E+00
 20
1.30997286E+02
  0
VERTEX
  8
0
 62
4
 10
1.58971824E+00
 20
1.31012201E+02
  0
VERTEX
  8
0
 62
4
 10
1.41025892E+00
 20
1.31012201E+02
  0
VERTEX
  8
0
 62
4
 10
1.23152205E+00
 20
1.30997286E+02
  0
VERTEX
  8
0
 62
4
 10
1.05494671E+00
 20
1.30967576E+02
  0
VERTEX
  8
0
 62
4
 10
8.81954589E-01
 20
1.30923309E+02
  0
VERTEX
  8
0
 62
4
 10
7.13938514E-01
 20
1.30864844E+02
  0
VERTEX
  8
0
 62
4
 10
5.52251251E-01
 20
1.30792649E+02
  0
VERTEX
  8
0
 62
4
 10
3.98194613E-01
 20
1.30707307E+02
  0
VERTEX
  8
0
 62
4
 10
2.53008971E-01
 20
1.30609504E+02
  0
VERTEX
  8
0
 62
4
 10
1.17863276E-01
 20
1.30500028E+02
  0
VERTEX
  8
0
 62
4
 10
-6.15435926E-03
 20
1.30379761E+02
  0
VERTEX
  8
0
 62
4
 10
-1.18045417E-01
 20
1.30249671E+02
  0
VERTEX
  8
0
 62
4
 10
-2.16909017E-01
 20
1.30110805E+02
  0
VERTEX
  8
0
 62
4
 10
-3.01949167E-01
 20
1.29964281E+02
  0
VERTEX
  8
0
 62
4
 10
-3.72481174E-01
 20
1.29811279E+02
  0
VERTEX
  8
0
 62
4
 10
-4.27937156E-01
 20
1.29653031E+02
  0
VERTEX
  8
0
 62
4
 10
-4.67870614E-01
 20
1.29490811E+02
  0
VERTEX
  8
0
 62
4
 10
-4.91960026E-01
 20
1.29325925E+02
  0
VERTEX
  8
0
 62
4
 10
-5.00011440E-01
 20
1.29159701E+02
  0
SEQEND
  8
0
  0
LINE
  8
0
 62
4
 10
-5.00011444E-01
 20
1.27682824E+02
 11
-5.00011444E-01
 21
1.29159701E+02
  0
LINE
  8
0
 62
4
 10
3.49998856E+00
 20
1.27682824E+02
 11
3.49998856E+00
 21
1.29159701E+02
  0
POLYLINE
  8
0
 62
4
 66
1
  0
VERTEX
  8
0
 62
4
 10
-5.00011440E-01
 20
1.27682824E+02
  0
VERTEX
  8
0
 62
4
 10
-4.92400837E-01
 20
1.27521205E+02
  0
VERTEX
  8
0
 62
4
 10
-4.69626947E-01
 20
1.27360816E+02
  0
VERTEX
  8
0
 62
4
 10
-4.31863094E-01
 20
1.27202878E+02
  0
VERTEX
  8
0
 62
4
 10
-3.79396684E-01
 20
1.27048593E+02
  0
VERTEX
  8
0
 62
4
 10
-3.12627017E-01
 20
1.26899134E+02
  0
VERTEX
  8
0
 62
4
 10
-2.32062251E-01
 20
1.26755640E+02
  0
VERTEX
  8
0
 62
4
 10
-1.38315532E-01
 20
1.26619202E+02
  0
VERTEX
  8
0
 62
4
 10
-3.21003301E-02
 20
1.26490859E+02
  0
VERTEX
  8
0
 62
4
 10
8.57749934E-02
 20
1.26371588E+02
  0
VERTEX
  8
0
 62
4
 10
2.14413336E-01
 20
1.26262296E+02
  0
VERTEX
  8
0
 62
4
 10
3.52835683E-01
 20
1.26163815E+02
  0
VERTEX
  8
0
 62
4
 10
4.99988555E-01
 20
1.26076894E+02
  0
VERTEX
  8
0
 62
4
 10
6.54752031E-01
 20
1.26002196E+02
  0
VERTEX
  8
0
 62
4
 10
8.15948268E-01
 20
1.25940288E+02
  0
VERTEX
  8
0
 62
4
 10
9.82350465E-01
 20
1.25891642E+02
  0
VERTEX
  8
0
 62
4
 10
1.15269220E+00
 20
1.25856628E+02
  0
VERTEX
  8
0
 62
4
 10
1.32567707E+00
 20
1.25835513E+02
  0
VERTEX
  8
0
 62
4
 10
1.49998855E+00
 20
1.25828456E+02
  0
VERTEX
  8
0
 62
4
 10
1.67430004E+00
 20
1.25835513E+02
  0
VERTEX
  8
0
 62
4
 10
1.84728491E+00
 20
1.25856628E+02
  0
VERTEX
  8
0
 62
4
 10
2.01762665E+00
 20
1.25891642E+02
  0
VERTEX
  8
0
 62
4
 10
2.18402884E+00
 20
1.25940288E+02
  0
VERTEX
  8
0
 62
4
 10
2.34522508E+00
 20
1.26002196E+02
  0
VERTEX
  8
0
 62
4
 10
2.49998856E+00
 20
1.26076894E+02
  0
VERTEX
  8
0
 62
4
 10
2.64714143E+00
 20
1.26163815E+02
  0
VERTEX
  8
0
 62
4
 10
2.78556378E+00
 20
1.26262296E+02
  0
VERTEX
  8
0
 62
4
 10
2.91420212E+00
 20
1.26371588E+02
  0
VERTEX
  8
0
 62
4
 10
3.03207744E+00
 20
1.26490859E+02
  0
VERTEX
  8
0
 62
4
 10
3.13829265E+00
 20
1.26619202E+02
  0
VERTEX
  8
0
 62
4
 10
3.23203937E+00
 20
1.26755640E+02
  0
VERTEX
  8
0
 62
4
 10
3.31260413E+00
 20
1.26899134E+02
  0
VERTEX
  8
0
 62
4
 10
3.37937380E+00
 20
1.27048593E+02
  0
VERTEX
  8
0
 62
4
 10
3.43184021E+00
 20
1.27202878E+02
  0
VERTEX
  8
0
 62
4
 10
3.46960407E+00
 20
1.27360816E+02
  0
VERTEX
  8
0
 62
4
 10
3.49237796E+00
 20
1.27521205E+02
  0
VERTEX
  8
0
 62
4
 10
3.49998856E+00
 20
1.27682824E+02
  0
VERTEX
  8
0
 62
4
 10
3.49237796E+00
 20
1.27844443E+02
  0
VERTEX
  8
0
 62
4
 10
3.46960407E+00
 20
1.28004832E+02
  0
VERTEX
  8
0
 62
4
 10
3.43184021E+00
 20
1.28162770E+02
  0
VERTEX
  8
0
 62
4
 10
3.37937380E+00
 20
1.28317055E+02
  0
VERTEX
  8
0
 62
4
 10
3.31260414E+00
 20
1.28466514E+02
  0
VERTEX
  8
0
 62
4
 10
3.23203937E+00
 20
1.28610008E+02
  0
VERTEX
  8
0
 62
4
 10
3.13829265E+00
 20
1.28746446E+02
  0
VERTEX
  8
0
 62
4
 10
3.03207745E+00
 20
1.28874789E+02
  0
VERTEX
  8
0
 62
4
 10
2.91420212E+00
 20
1.28994060E+02
  0
VERTEX
  8
0
 62
4
 10
2.78556378E+00
 20
1.29103352E+02
  0
VERTEX
  8
0
 62
4
 10
2.64714144E+00
 20
1.29201833E+02
  0
VERTEX
  8
0
 62
4
 10
2.49998856E+00
 20
1.29288754E+02
  0
VERTEX
  8
0
 62
4
 10
2.34522509E+00
 20
1.29363452E+02
  0
VERTEX
  8
0
 62
4
 10
2.18402885E+00
 20
1.29425360E+02
  0
VERTEX
  8
0
 62
4
 10
2.01762665E+00
 20
1.29474006E+02
  0
VERTEX
  8
0
 62
4
 10
1.84728492E+00
 20
1.29509020E+02
  0
VERTEX
  8
0
 62
4
 10
1.67430005E+00
 20
1.29530135E+02
  0
VERTEX
  8
0
 62
4
 10
1.49998856E+00
 20
1.29537192E+02
  0
VERTEX
  8
0
 62
4
 10
1.32567708E+00
 20
1.29530135E+02
  0
VERTEX
  8
0
 62
4
 10
1.15269221E+00
 20
1.29509020E+02
  0
VERTEX
  8
0
 62
4
 10
9.82350472E-01
 20
1.29474006E+02
  0
VERTEX
  8
0
 62
4
 10
8.15948275E-01
 20
1.29425360E+02
  0
VERTEX
  8
0
 62
4
 10
6.54752038E-01
 20
1.29363452E+02
  0
VERTEX
  8
0
 62
4
 10
4.99988562E-01
 20
1.29288754E+02
  0
VERTEX
  8
0
 62
4
 10
3.52835689E-01
 20
1.29201833E+02
  0
VERTEX
  8
0
 62
4
 10
2.14413342E-01
 20
1.29103352E+02
  0
VERTEX
  8
0
 62
4
 10
8.57749988E-02
 20
1.28994060E+02
  0
VERTEX
  8
0
 62
4
 10
-3.21003252E-02
 20
1.28874789E+02
  0
VERTEX
  8
0
 62
4
 10
-1.38315528E-01
 20
1.28746446E+02
  0
VERTEX
  8
0
 62
4
 10
-2.32062247E-01
 20
1.28610008E+02
  0
VERTEX
  8
0
 62
4
 10
-3.12627013E-01
 20
1.28466514E+02
  0
VERTEX
  8
0
 62
4
 10
-3.79396681E-01
 20
1.28317055E+02
  0
VERTEX
  8
0
 62
4
 10
-4.31863092E-01
 20
1.28162770E+02
  0
VERTEX
  8
0
 62
4
 10
-4.69626946E-01
 20
1.28004832E+02
  0
VERTEX
  8
0
 62
4
 10
-4.92400836E-01
 20
1.27844443E+02
  0
VERTEX
  8
0
 62
4
 10
-5.00011440E-01
 20
1.27682824E+02
  0
SEQEND
  8
0
  0
POLYLINE
  8
0
 62
6
 66
1
  0
VERTEX
  8
0
 62
6
 10
-1.14400000E-05
 20
1.27682824E+02
  0
VERTEX
  8
0
 62
6
 10
5.69651243E-03
 20
1.27561610E+02
  0
VERTEX
  8
0
 62
6
 10
2.27769296E-02
 20
1.27441318E+02
  0
VERTEX
  8
0
 62
6
 10
5.10998193E-02
 20
1.27322865E+02
  0
VERTEX
  8
0
 62
6
 10
9.04496272E-02
 20
1.27207151E+02
  0
VERTEX
  8
0
 62
6
 10
1.40526877E-01
 20
1.27095057E+02
  0
VERTEX
  8
0
 62
6
 10
2.00950452E-01
 20
1.26987436E+02
  0
VERTEX
  8
0
 62
6
 10
2.71260491E-01
 20
1.26885108E+02
  0
VERTEX
  8
0
 62
6
 10
3.50921892E-01
 20
1.26788851E+02
  0
VERTEX
  8
0
 62
6
 10
4.39328385E-01
 20
1.26699397E+02
  0
VERTEX
  8
0
 62
6
 10
5.35807142E-01
 20
1.26617428E+02
  0
VERTEX
  8
0
 62
6
 10
6.39623902E-01
 20
1.26543567E+02
  0
VERTEX
  8
0
 62
6
 10
7.49988556E-01
 20
1.26478377E+02
  0
VERTEX
  8
0
 62
6
 10
8.66061164E-01
 20
1.26422353E+02
  0
VERTEX
  8
0
 62
6
 10
9.86958341E-01
 20
1.26375922E+02
  0
VERTEX
  8
0
 62
6
 10
1.11175999E+00
 20
1.26339438E+02
  0
VERTEX
  8
0
 62
6
 10
1.23951629E+00
 20
1.26313177E+02
  0
VERTEX
  8
0
 62
6
 10
1.36925494E+00
 20
1.26297341E+02
  0
VERTEX
  8
0
 62
6
 10
1.49998856E+00
 20
1.26292048E+02
  0
VERTEX
  8
0
 62
6
 10
1.63072217E+00
 20
1.26297341E+02
  0
VERTEX
  8
0
 62
6
 10
1.76046082E+00
 20
1.26313177E+02
  0
VERTEX
  8
0
 62
6
 10
1.88821712E+00
 20
1.26339438E+02
  0
VERTEX
  8
0
 62
6
 10
2.01301877E+00
 20
1.26375922E+02
  0
VERTEX
  8
0
 62
6
 10
2.13391595E+00
 20
1.26422353E+02
  0
VERTEX
  8
0
 62
6
 10
2.24998856E+00
 20
1.26478377E+02
  0
VERTEX
  8
0
 62
6
 10
2.36035321E+00
 20
1.26543567E+02
  0
VERTEX
  8
0
 62
6
 10
2.46416997E+00
 20
1.26617428E+02
  0
VERTEX
  8
0
 62
6
 10
2.56064873E+00
 20
1.26699397E+02
  0
VERTEX
  8
0
 62
6
 10
2.64905522E+00
 20
1.26788851E+02
  0
VERTEX
  8
0
 62
6
 10
2.72871662E+00
 20
1.26885108E+02
  0
VERTEX
  8
0
 62
6
 10
2.79902666E+00
 20
1.26987436E+02
  0
VERTEX
  8
0
 62
6
 10
2.85945024E+00
 20
1.27095057E+02
  0
VERTEX
  8
0
 62
6
 10
2.90952749E+00
 20
1.27207151E+02
  0
VERTEX
  8
0
 62
6
 10
2.94887730E+00
 20
1.27322865E+02
  0
VERTEX
  8
0
 62
6
 10
2.97720019E+00
 20
1.27441318E+02
  0
VERTEX
  8
0
 62
6
 10
2.99428061E+00
 20
1.27561610E+02
  0
VERTEX
  8
0
 62
6
 10
2.99998856E+00
 20
1.27682824E+02
  0
VERTEX
  8
0
 62
6
 10
2.99428061E+00
 20
1.27804038E+02
  0
VERTEX
  8
0
 62
6
 10
2.97720019E+00
 20
1.27924330E+02
  0
VERTEX
  8
0
 62
6
 10
2.94887730E+00
 20
1.28042783E+02
  0
VERTEX
  8
0
 62
6
 10
2.90952749E+00
 20
1.28158497E+02
  0
VERTEX
  8
0
 62
6
 10
2.85945024E+00
 20
1.28270591E+02
  0
VERTEX
  8
0
 62
6
 10
2.79902667E+00
 20
1.28378212E+02
  0
VERTEX
  8
0
 62
6
 10
2.72871663E+00
 20
1.28480540E+02
  0
VERTEX
  8
0
 62
6
 10
2.64905523E+00
 20
1.28576797E+02
  0
VERTEX
  8
0
 62
6
 10
2.56064873E+00
 20
1.28666251E+02
  0
VERTEX
  8
0
 62
6
 10
2.46416998E+00
 20
1.28748220E+02
  0
VERTEX
  8
0
 62
6
 10
2.36035322E+00
 20
1.28822081E+02
  0
VERTEX
  8
0
 62
6
 10
2.24998856E+00
 20
1.28887271E+02
  0
VERTEX
  8
0
 62
6
 10
2.13391595E+00
 20
1.28943295E+02
  0
VERTEX
  8
0
 62
6
 10
2.01301878E+00
 20
1.28989726E+02
  0
VERTEX
  8
0
 62
6
 10
1.88821713E+00
 20
1.29026210E+02
  0
VERTEX
  8
0
 62
6
 10
1.76046083E+00
 20
1.29052471E+02
  0
VERTEX
  8
0
 62
6
 10
1.63072218E+00
 20
1.29068307E+02
  0
VERTEX
  8
0
 62
6
 10
1.49998856E+00
 20
1.29073600E+02
  0
VERTEX
  8
0
 62
6
 10
1.36925495E+00
 20
1.29068307E+02
  0
VERTEX
  8
0
 62
6
 10
1.23951630E+00
 20
1.29052471E+02
  0
VERTEX
  8
0
 62
6
 10
1.11175999E+00
 20
1.29026210E+02
  0
VERTEX
  8
0
 62
6
 10
9.86958347E-01
 20
1.28989726E+02
  0
VERTEX
  8
0
 62
6
 10
8.66061169E-01
 20
1.28943295E+02
  0
VERTEX
  8
0
 62
6
 10
7.49988561E-01
 20
1.28887271E+02
  0
VERTEX
  8
0
 62
6
 10
6.39623907E-01
 20
1.28822081E+02
  0
VERTEX
  8
0
 62
6
 10
5.35807147E-01
 20
1.28748220E+02
  0
VERTEX
  8
0
 62
6
 10
4.39328389E-01
 20
1.28666251E+02
  0
VERTEX
  8
0
 62
6
 10
3.50921896E-01
 20
1.28576797E+02
  0
VERTEX
  8
0
 62
6
 10
2.71260494E-01
 20
1.28480540E+02
  0
VERTEX
  8
0
 62
6
 10
2.00950455E-01
 20
1.28378212E+02
  0
VERTEX
  8
0
 62
6
 10
1.40526880E-01
 20
1.28270591E+02
  0
VERTEX
  8
0
 62
6
 10
9.04496292E-02
 20
1.28158497E+02
  0
VERTEX
  8
0
 62
6
 10
5.10998208E-02
 20
1.28042783E+02
  0
VERTEX
  8
0
 62
6
 10
2.27769306E-02
 20
1.27924330E+02
  0
VERTEX
  8
0
 62
6
 10
5.69651293E-03
 20
1.27804038E+02
  0
VERTEX
  8
0
 62
6
 10
-1.14400000E-05
 20
1.27682824E+02
  0
SEQEND
  8
0
  0
LINE
  8
0
 62
4
 10
1.49998856E+00
 20
1.28749086E+02
 11
4.99988556E-01
 21
1.28220591E+02
  0
LINE
  8
0
 62
4
 10
4.99988556E-01
 20
1.28220591E+02
 11
4.99988556E-01
 21
1.27145058E+02
  0
LINE
  8
0
 62
4
 10
4.99988556E-01
 20
1.27145058E+02
 11
1.49998856E+00
 21
1.26607291E+02
  0
LINE
  8
0
 62
4
 10
1.49998856E+00
 20
1.26607291E+02
 11
2.49998856E+00
 21
1.27145058E+02
  0
LINE
  8
0
 62
4
 10
2.49998856E+00
 20
1.27145058E+02
 11
2.49998856E+00
 21
1.28220591E+02
  0
LINE
  8
0
 62
4
 10
2.49998856E+00
 20
1.28220591E+02
 11
1.49998856E+00
 21
1.28749086E+02
  0
LINE
  8
0
 62
4
 10
-5.50001144E+00
 20
1.28220591E+02
 11
-6.50001144E+00
 21
1.28749086E+02
  0
LINE
  8
0
 62
4
 10
-5.50001144E+00
 20
1.27145058E+02
 11
-5.50001144E+00
 21
1.28220591E+02
  0
LINE
  8
0
 62
4
 10
-6.50001144E+00
 20
1.26607291E+02
 11
-5.50001144E+00
 21
1.27145058E+02
  0
LINE
  8
0
 62
4
 10
-7.50001144E+00
 20
1.27145058E+02
 11
-6.50001144E+00
 21
1.26607291E+02
  0
LINE
  8
0
 62
4
 10
-7.50001144E+00
 20
1.28220591E+02
 11
-7.50001144E+00
 21
1.27145058E+02
  0
LINE
  8
0
 62
4
 10
-6.50001144E+00
 20
1.28749086E+02
 11
-7.50001144E+00
 21
1.28220591E+02
  0
POLYLINE
  8
0
 62
6
 66
1
  0
VERTEX
  8
0
 62
6
 10
-8.00001144E+00
 20
1.27682824E+02
  0
VERTEX
  8
0
 62
6
 10
-7.99430349E+00
 20
1.27561610E+02
  0
VERTEX
  8
0
 62
6
 10
-7.97722307E+00
 20
1.27441318E+02
  0
VERTEX
  8
0
 62
6
 10
-7.94890018E+00
 20
1.27322865E+02
  0
VERTEX
  8
0
 62
6
 10
-7.90955037E+00
 20
1.27207151E+02
  0
VERTEX
  8
0
 62
6
 10
-7.85947312E+00
 20
1.27095057E+02
  0
VERTEX
  8
0
 62
6
 10
-7.79904955E+00
 20
1.26987436E+02
  0
VERTEX
  8
0
 62
6
 10
-7.72873951E+00
 20
1.26885108E+02
  0
VERTEX
  8
0
 62
6
 10
-7.64907811E+00
 20
1.26788851E+02
  0
VERTEX
  8
0
 62
6
 10
-7.56067161E+00
 20
1.26699397E+02
  0
VERTEX
  8
0
 62
6
 10
-7.46419286E+00
 20
1.26617428E+02
  0
VERTEX
  8
0
 62
6
 10
-7.36037610E+00
 20
1.26543567E+02
  0
VERTEX
  8
0
 62
6
 10
-7.25001144E+00
 20
1.26478377E+02
  0
VERTEX
  8
0
 62
6
 10
-7.13393884E+00
 20
1.26422353E+02
  0
VERTEX
  8
0
 62
6
 10
-7.01304166E+00
 20
1.26375922E+02
  0
VERTEX
  8
0
 62
6
 10
-6.88824001E+00
 20
1.26339438E+02
  0
VERTEX
  8
0
 62
6
 10
-6.76048371E+00
 20
1.26313177E+02
  0
VERTEX
  8
0
 62
6
 10
-6.63074506E+00
 20
1.26297341E+02
  0
VERTEX
  8
0
 62
6
 10
-6.50001144E+00
 20
1.26292048E+02
  0
VERTEX
  8
0
 62
6
 10
-6.36927783E+00
 20
1.26297341E+02
  0
VERTEX
  8
0
 62
6
 10
-6.23953918E+00
 20
1.26313177E+02
  0
VERTEX
  8
0
 62
6
 10
-6.11178288E+00
 20
1.26339438E+02
  0
VERTEX
  8
0
 62
6
 10
-5.98698123E+00
 20
1.26375922E+02
  0
VERTEX
  8
0
 62
6
 10
-5.86608405E+00
 20
1.26422353E+02
  0
VERTEX
  8
0
 62
6
 10
-5.75001144E+00
 20
1.26478377E+02
  0
VERTEX
  8
0
 62
6
 10
-5.63964679E+00
 20
1.26543567E+02
  0
VERTEX
  8
0
 62
6
 10
-5.53583003E+00
 20
1.26617428E+02
  0
VERTEX
  8
0
 62
6
 10
-5.43935127E+00
 20
1.26699397E+02
  0
VERTEX
  8
0
 62
6
 10
-5.35094478E+00
 20
1.26788851E+02
  0
VERTEX
  8
0
 62
6
 10
-5.27128338E+00
 20
1.26885108E+02
  0
VERTEX
  8
0
 62
6
 10
-5.20097334E+00
 20
1.26987436E+02
  0
VERTEX
  8
0
 62
6
 10
-5.14054976E+00
 20
1.27095057E+02
  0
VERTEX
  8
0
 62
6
 10
-5.09047251E+00
 20
1.27207151E+02
  0
VERTEX
  8
0
 62
6
 10
-5.05112270E+00
 20
1.27322865E+02
  0
VERTEX
  8
0
 62
6
 10
-5.02279981E+00
 20
1.27441318E+02
  0
VERTEX
  8
0
 62
6
 10
-5.00571939E+00
 20
1.27561610E+02
  0
VERTEX
  8
0
 62
6
 10
-5.00001144E+00
 20
1.27682824E+02
  0
VERTEX
  8
0
 62
6
 10
-5.00571939E+00
 20
1.27804038E+02
  0
VERTEX
  8
0
 62
6
 10
-5.02279981E+00
 20
1.27924330E+02
  0
VERTEX
  8
0
 62
6
 10
-5.05112270E+00
 20
1.28042783E+02
  0
VERTEX
  8
0
 62
6
 10
-5.09047251E+00
 20
1.28158497E+02
  0
VERTEX
  8
0
 62
6
 10
-5.14054976E+00
 20
1.28270591E+02
  0
VERTEX
  8
0
 62
6
 10
-5.20097333E+00
 20
1.28378212E+02
  0
VERTEX
  8
0
 62
6
 10
-5.27128337E+00
 20
1.28480540E+02
  0
VERTEX
  8
0
 62
6
 10
-5.35094477E+00
 20
1.28576797E+02
  0
VERTEX
  8
0
 62
6
 10
-5.43935127E+00
 20
1.28666251E+02
  0
VERTEX
  8
0
 62
6
 10
-5.53583002E+00
 20
1.28748220E+02
  0
VERTEX
  8
0
 62
6
 10
-5.63964678E+00
 20
1.28822081E+02
  0
VERTEX
  8
0
 62
6
 10
-5.75001144E+00
 20
1.28887271E+02
  0
VERTEX
  8
0
 62
6
 10
-5.86608405E+00
 20
1.28943295E+02
  0
VERTEX
  8
0
 62
6
 10
-5.98698122E+00
 20
1.28989726E+02
  0
VERTEX
  8
0
 62
6
 10
-6.11178287E+00
 20
1.29026210E+02
  0
VERTEX
  8
0
 62
6
 10
-6.23953917E+00
 20
1.29052471E+02
  0
VERTEX
  8
0
 62
6
 10
-6.36927782E+00
 20
1.29068307E+02
  0
VERTEX
  8
0
 62
6
 10
-6.50001144E+00
 20
1.29073600E+02
  0
VERTEX
  8
0
 62
6
 10
-6.63074505E+00
 20
1.29068307E+02
  0
VERTEX
  8
0
 62
6
 10
-6.76048370E+00
 20
1.29052471E+02
  0
VERTEX
  8
0
 62
6
 10
-6.88824001E+00
 20
1.29026210E+02
  0
VERTEX
  8
0
 62
6
 10
-7.01304165E+00
 20
1.28989726E+02
  0
VERTEX
  8
0
 62
6
 10
-7.13393883E+00
 20
1.28943295E+02
  0
VERTEX
  8
0
 62
6
 10
-7.25001144E+00
 20
1.28887271E+02
  0
VERTEX
  8
0
 62
6
 10
-7.36037609E+00
 20
1.28822081E+02
  0
VERTEX
  8
0
 62
6
 10
-7.46419285E+00
 20
1.28748220E+02
  0
VERTEX
  8
0
 62
6
 10
-7.56067161E+00
 20
1.28666251E+02
  0
VERTEX
  8
0
 62
6
 10
-7.64907810E+00
 20
1.28576797E+02
  0
VERTEX
  8
0
 62
6
 10
-7.72873951E+00
 20
1.28480540E+02
  0
VERTEX
  8
0
 62
6
 10
-7.79904955E+00
 20
1.28378212E+02
  0
VERTEX
  8
0
 62
6
 10
-7.85947312E+00
 20
1.28270591E+02
  0
VERTEX
  8
0
 62
6
 10
-7.90955037E+00
 20
1.28158497E+02
  0
VERTEX
  8
0
 62
6
 10
-7.94890018E+00
 20
1.28042783E+02
  0
VERTEX
  8
0
 62
6
 10
-7.97722307E+00
 20
1.27924330E+02
  0
VERTEX
  8
0
 62
6
 10
-7.99430349E+00
 20
1.27804038E+02
  0
VERTEX
  8
0
 62
6
 10
-8.00001144E+00
 20
1.27682824E+02
  0
SEQEND
  8
0
  0
POLYLINE
  8
0
 62
4
 66
1
  0
VERTEX
  8
0
 62
4
 10
-8.50001144E+00
 20
1.27682824E+02
  0
VERTEX
  8
0
 62
4
 10
-8.49240084E+00
 20
1.27521205E+02
  0
VERTEX
  8
0
 62
4
 10
-8.46962695E+00
 20
1.27360816E+02
  0
VERTEX
  8
0
 62
4
 10
-8.43186309E+00
 20
1.27202878E+02
  0
VERTEX
  8
0
 62
4
 10
-8.37939668E+00
 20
1.27048593E+02
  0
VERTEX
  8
0
 62
4
 10
-8.31262702E+00
 20
1.26899134E+02
  0
VERTEX
  8
0
 62
4
 10
-8.23206225E+00
 20
1.26755640E+02
  0
VERTEX
  8
0
 62
4
 10
-8.13831553E+00
 20
1.26619202E+02
  0
VERTEX
  8
0
 62
4
 10
-8.03210033E+00
 20
1.26490859E+02
  0
VERTEX
  8
0
 62
4
 10
-7.91422501E+00
 20
1.26371588E+02
  0
VERTEX
  8
0
 62
4
 10
-7.78558666E+00
 20
1.26262296E+02
  0
VERTEX
  8
0
 62
4
 10
-7.64716432E+00
 20
1.26163815E+02
  0
VERTEX
  8
0
 62
4
 10
-7.50001144E+00
 20
1.26076894E+02
  0
VERTEX
  8
0
 62
4
 10
-7.34524797E+00
 20
1.26002196E+02
  0
VERTEX
  8
0
 62
4
 10
-7.18405173E+00
 20
1.25940288E+02
  0
VERTEX
  8
0
 62
4
 10
-7.01764954E+00
 20
1.25891642E+02
  0
VERTEX
  8
0
 62
4
 10
-6.84730780E+00
 20
1.25856628E+02
  0
VERTEX
  8
0
 62
4
 10
-6.67432293E+00
 20
1.25835513E+02
  0
VERTEX
  8
0
 62
4
 10
-6.50001145E+00
 20
1.25828456E+02
  0
VERTEX
  8
0
 62
4
 10
-6.32569996E+00
 20
1.25835513E+02
  0
VERTEX
  8
0
 62
4
 10
-6.15271509E+00
 20
1.25856628E+02
  0
VERTEX
  8
0
 62
4
 10
-5.98237335E+00
 20
1.25891642E+02
  0
VERTEX
  8
0
 62
4
 10
-5.81597116E+00
 20
1.25940288E+02
  0
VERTEX
  8
0
 62
4
 10
-5.65477492E+00
 20
1.26002196E+02
  0
VERTEX
  8
0
 62
4
 10
-5.50001144E+00
 20
1.26076894E+02
  0
VERTEX
  8
0
 62
4
 10
-5.35285857E+00
 20
1.26163815E+02
  0
VERTEX
  8
0
 62
4
 10
-5.21443622E+00
 20
1.26262296E+02
  0
VERTEX
  8
0
 62
4
 10
-5.08579788E+00
 20
1.26371588E+02
  0
VERTEX
  8
0
 62
4
 10
-4.96792256E+00
 20
1.26490859E+02
  0
VERTEX
  8
0
 62
4
 10
-4.86170735E+00
 20
1.26619202E+02
  0
VERTEX
  8
0
 62
4
 10
-4.76796063E+00
 20
1.26755640E+02
  0
VERTEX
  8
0
 62
4
 10
-4.68739587E+00
 20
1.26899134E+02
  0
VERTEX
  8
0
 62
4
 10
-4.62062620E+00
 20
1.27048593E+02
  0
VERTEX
  8
0
 62
4
 10
-4.56815979E+00
 20
1.27202878E+02
  0
VERTEX
  8
0
 62
4
 10
-4.53039593E+00
 20
1.27360816E+02
  0
VERTEX
  8
0
 62
4
 10
-4.50762204E+00
 20
1.27521205E+02
  0
VERTEX
  8
0
 62
4
 10
-4.50001144E+00
 20
1.27682824E+02
  0
VERTEX
  8
0
 62
4
 10
-4.50762204E+00
 20
1.27844443E+02
  0
VERTEX
  8
0
 62
4
 10
-4.53039593E+00
 20
1.28004832E+02
  0
VERTEX
  8
0
 62
4
 10
-4.56815979E+00
 20
1.28162770E+02
  0
VERTEX
  8
0
 62
4
 10
-4.62062620E+00
 20
1.28317055E+02
  0
VERTEX
  8
0
 62
4
 10
-4.68739586E+00
 20
1.28466514E+02
  0
VERTEX
  8
0
 62
4
 10
-4.76796063E+00
 20
1.28610008E+02
  0
VERTEX
  8
0
 62
4
 10
-4.86170735E+00
 20
1.28746446E+02
  0
VERTEX
  8
0
 62
4
 10
-4.96792255E+00
 20
1.28874789E+02
  0
VERTEX
  8
0
 62
4
 10
-5.08579788E+00
 20
1.28994060E+02
  0
VERTEX
  8
0
 62
4
 10
-5.21443622E+00
 20
1.29103352E+02
  0
VERTEX
  8
0
 62
4
 10
-5.35285856E+00
 20
1.29201833E+02
  0
VERTEX
  8
0
 62
4
 10
-5.50001144E+00
 20
1.29288754E+02
  0
VERTEX
  8
0
 62
4
 10
-5.65477491E+00
 20
1.29363452E+02
  0
VERTEX
  8
0
 62
4
 10
-5.81597115E+00
 20
1.29425360E+02
  0
VERTEX
  8
0
 62
4
 10
-5.98237335E+00
 20
1.29474006E+02
  0
VERTEX
  8
0
 62
4
 10
-6.15271508E+00
 20
1.29509020E+02
  0
VERTEX
  8
0
 62
4
 10
-6.32569995E+00
 20
1.29530135E+02
  0
VERTEX
  8
0
 62
4
 10
-6.50001144E+00
 20
1.29537192E+02
  0
VERTEX
  8
0
 62
4
 10
-6.67432292E+00
 20
1.29530135E+02
  0
VERTEX
  8
0
 62
4
 10
-6.84730779E+00
 20
1.29509020E+02
  0
VERTEX
  8
0
 62
4
 10
-7.01764953E+00
 20
1.29474006E+02
  0
VERTEX
  8
0
 62
4
 10
-7.18405172E+00
 20
1.29425360E+02
  0
VERTEX
  8
0
 62
4
 10
-7.34524796E+00
 20
1.29363452E+02
  0
VERTEX
  8
0
 62
4
 10
-7.50001144E+00
 20
1.29288754E+02
  0
VERTEX
  8
0
 62
4
 10
-7.64716431E+00
 20
1.29201833E+02
  0
VERTEX
  8
0
 62
4
 10
-7.78558666E+00
 20
1.29103352E+02
  0
VERTEX
  8
0
 62
4
 10
-7.91422500E+00
 20
1.28994060E+02
  0
VERTEX
  8
0
 62
4
 10
-8.03210033E+00
 20
1.28874789E+02
  0
VERTEX
  8
0
 62
4
 10
-8.13831553E+00
 20
1.28746446E+02
  0
VERTEX
  8
0
 62
4
 10
-8.23206225E+00
 20
1.28610008E+02
  0
VERTEX
  8
0
 62
4
 10
-8.31262701E+00
 20
1.28466514E+02
  0
VERTEX
  8
0
 62
4
 10
-8.37939668E+00
 20
1.28317055E+02
  0
VERTEX
  8
0
 62
4
 10
-8.43186309E+00
 20
1.28162770E+02
  0
VERTEX
  8
0
 62
4
 10
-8.46962695E+00
 20
1.28004832E+02
  0
VERTEX
  8
0
 62
4
 10
-8.49240084E+00
 20
1.27844443E+02
  0
VERTEX
  8
0
 62
4
 10
-8.50001144E+00
 20
1.27682824E+02
  0
SEQEND
  8
0
  0
LINE
  8
0
 62
4
 10
-4.50001144E+00
 20
1.27682824E+02
 11
-4.50001144E+00
 21
1.29159701E+02
  0
LINE
  8
0
 62
4
 10
-8.50001144E+00
 20
1.27682824E+02
 11
-8.50001144E+00
 21
1.29159701E+02
  0
POLYLINE
  8
0
 62
4
 66
1
  0
VERTEX
  8
0
 62
4
 10
-4.50001144E+00
 20
1.29159701E+02
  0
VERTEX
  8
0
 62
4
 10
-4.50806285E+00
 20
1.29325925E+02
  0
VERTEX
  8
0
 62
4
 10
-4.53215226E+00
 20
1.29490811E+02
  0
VERTEX
  8
0
 62
4
 10
-4.57208571E+00
 20
1.29653031E+02
  0
VERTEX
  8
0
 62
4
 10
-4.62754169E+00
 20
1.29811279E+02
  0
VERTEX
  8
0
 62
4
 10
-4.69807370E+00
 20
1.29964281E+02
  0
VERTEX
  8
0
 62
4
 10
-4.78311385E+00
 20
1.30110805E+02
  0
VERTEX
  8
0
 62
4
 10
-4.88197744E+00
 20
1.30249671E+02
  0
VERTEX
  8
0
 62
4
 10
-4.99386850E+00
 20
1.30379761E+02
  0
VERTEX
  8
0
 62
4
 10
-5.11788613E+00
 20
1.30500028E+02
  0
VERTEX
  8
0
 62
4
 10
-5.25303182E+00
 20
1.30609504E+02
  0
VERTEX
  8
0
 62
4
 10
-5.39821746E+00
 20
1.30707307E+02
  0
VERTEX
  8
0
 62
4
 10
-5.55227410E+00
 20
1.30792649E+02
  0
VERTEX
  8
0
 62
4
 10
-5.71396136E+00
 20
1.30864844E+02
  0
VERTEX
  8
0
 62
4
 10
-5.88197744E+00
 20
1.30923309E+02
  0
VERTEX
  8
0
 62
4
 10
-6.05496956E+00
 20
1.30967576E+02
  0
VERTEX
  8
0
 62
4
 10
-6.23154489E+00
 20
1.30997286E+02
  0
VERTEX
  8
0
 62
4
 10
-6.41028176E+00
 20
1.31012201E+02
  0
VERTEX
  8
0
 62
4
 10
-6.58974108E+00
 20
1.31012201E+02
  0
VERTEX
  8
0
 62
4
 10
-6.76847795E+00
 20
1.30997286E+02
  0
VERTEX
  8
0
 62
4
 10
-6.94505329E+00
 20
1.30967576E+02
  0
VERTEX
  8
0
 62
4
 10
-7.11804541E+00
 20
1.30923309E+02
  0
VERTEX
  8
0
 62
4
 10
-7.28606149E+00
 20
1.30864844E+02
  0
VERTEX
  8
0
 62
4
 10
-7.44774875E+00
 20
1.30792649E+02
  0
VERTEX
  8
0
 62
4
 10
-7.60180539E+00
 20
1.30707307E+02
  0
VERTEX
  8
0
 62
4
 10
-7.74699103E+00
 20
1.30609504E+02
  0
VERTEX
  8
0
 62
4
 10
-7.88213672E+00
 20
1.30500028E+02
  0
VERTEX
  8
0
 62
4
 10
-8.00615436E+00
 20
1.30379761E+02
  0
VERTEX
  8
0
 62
4
 10
-8.11804542E+00
 20
1.30249671E+02
  0
VERTEX
  8
0
 62
4
 10
-8.21690902E+00
 20
1.30110805E+02
  0
VERTEX
  8
0
 62
4
 10
-8.30194917E+00
 20
1.29964281E+02
  0
VERTEX
  8
0
 62
4
 10
-8.37248117E+00
 20
1.29811279E+02
  0
VERTEX
  8
0
 62
4
 10
-8.42793716E+00
 20
1.29653031E+02
  0
VERTEX
  8
0
 62
4
 10
-8.46787061E+00
 20
1.29490811E+02
  0
VERTEX
  8
0
 62
4
 10
-8.49196003E+00
 20
1.29325925E+02
  0
VERTEX
  8
0
 62
4
 10
-8.50001144E+00
 20
1.29159701E+02
  0
SEQEND
  8
0
  0
LINE
  8
0
 62
4
 10
-7.04999886E+01
 20
1.45197451E+02
 11
-7.04999886E+01
 21
1.44000000E+02
  0
LINE
  8
0
 62
4
 10
-4.54999886E+01
 20
1.46330009E+02
 11
-4.54999886E+01
 21
1.44000000E+02
  0
LINE
  8
0
  6
CENTER
 62
6
 10
-4.93499886E+01
 20
1.48943921E+02
 11
-5.86499886E+01
 21
1.48943921E+02
  0
LINE
  8
0
  6
CENTER
 62
6
 10
-5.39999886E+01
 20
1.53593921E+02
 11
-5.39999886E+01
 21
1.44293921E+02
  0
LINE
  8
0
  6
CENTER
 62
6
 10
-5.79253917E+01
 20
1.52189064E+02
 11
-6.50745854E+01
 21
1.52189064E+02
  0
LINE
  8
0
  6
CENTER
 62
6
 10
-6.14999886E+01
 20
1.55763661E+02
 11
-6.14999886E+01
 21
1.48614467E+02
  0
LINE
  8
0
  6
CENTER
 62
6
 10
-4.16999886E+01
 20
1.52189064E+02
 11
-5.12999886E+01
 21
1.52189064E+02
  0
LINE
  8
0
  6
CENTER
 62
6
 10
-4.64999886E+01
 20
1.56989064E+02
 11
-4.64999886E+01
 21
1.47389064E+02
  0
LINE
  8
0
 62
4
 10
-6.89999886E+01
 20
1.56361392E+02
 11
-3.89999886E+01
 21
1.56361392E+02
  0
LINE
  8
0
 62
4
 10
-6.89999886E+01
 20
1.46718680E+02
 11
-5.72713774E+01
 21
1.46718680E+02
  0
LINE
  8
0
 62
4
 10
-6.89999886E+01
 20
1.46330009E+02
 11
-5.68957454E+01
 21
1.46330009E+02
  0
LINE
  8
0
 62
4
 10
-6.89999886E+01
 20
1.46330009E+02
 11
-7.04999886E+01
 21
1.45197451E+02
  0
LINE
  8
0
 62
4
 10
-5.81499886E+01
 20
1.49086271E+02
 11
-5.81499886E+01
 21
1.49745579E+02
  0
POLYLINE
  8
0
 62
4
 66
1
  0
VERTEX
  8
0
 62
4
 10
-5.81499886E+01
 20
1.49086271E+02
  0
VERTEX
  8
0
 62
4
 10
-5.81332819E+01
 20
1.48741356E+02
  0
VERTEX
  8
0
 62
4
 10
-5.80832964E+01
 20
1.48399217E+02
  0
VERTEX
  8
0
 62
4
 10
-5.80004345E+01
 20
1.48062611E+02
  0
VERTEX
  8
0
 62
4
 10
-5.78853633E+01
 20
1.47734246E+02
  0
VERTEX
  8
0
 62
4
 10
-5.77390094E+01
 20
1.47416768E+02
  0
VERTEX
  8
0
 62
4
 10
-5.75625511E+01
 20
1.47112731E+02
  0
VERTEX
  8
0
 62
4
 10
-5.73574091E+01
 20
1.46824583E+02
  0
VERTEX
  8
0
 62
4
 10
-5.71252352E+01
 20
1.46554646E+02
  0
VERTEX
  8
0
 62
4
 10
-5.68678986E+01
 20
1.46305092E+02
  0
VERTEX
  8
0
 62
4
 10
-5.65874713E+01
 20
1.46077930E+02
  0
VERTEX
  8
0
 62
4
 10
-5.62862111E+01
 20
1.45874989E+02
  0
VERTEX
  8
0
 62
4
 10
-5.59665436E+01
 20
1.45697904E+02
  0
VERTEX
  8
0
 62
4
 10
-5.56310425E+01
 20
1.45548100E+02
  0
VERTEX
  8
0
 62
4
 10
-5.52824091E+01
 20
1.45426783E+02
  0
VERTEX
  8
0
 62
4
 10
-5.49234505E+01
 20
1.45334931E+02
  0
VERTEX
  8
0
 62
4
 10
-5.45570567E+01
 20
1.45273282E+02
  0
VERTEX
  8
0
 62
4
 10
-5.41861777E+01
 20
1.45242332E+02
  0
VERTEX
  8
0
 62
4
 10
-5.38137996E+01
 20
1.45242332E+02
  0
VERTEX
  8
0
 62
4
 10
-5.34429206E+01
 20
1.45273282E+02
  0
VERTEX
  8
0
 62
4
 10
-5.30765267E+01
 20
1.45334931E+02
  0
VERTEX
  8
0
 62
4
 10
-5.27175681E+01
 20
1.45426783E+02
  0
VERTEX
  8
0
 62
4
 10
-5.23689347E+01
 20
1.45548100E+02
  0
VERTEX
  8
0
 62
4
 10
-5.20334337E+01
 20
1.45697904E+02
  0
VERTEX
  8
0
 62
4
 10
-5.17137661E+01
 20
1.45874989E+02
  0
VERTEX
  8
0
 62
4
 10
-5.14125059E+01
 20
1.46077930E+02
  0
VERTEX
  8
0
 62
4
 10
-5.11320786E+01
 20
1.46305092E+02
  0
VERTEX
  8
0
 62
4
 10
-5.08747420E+01
 20
1.46554646E+02
  0
VERTEX
  8
0
 62
4
 10
-5.06425681E+01
 20
1.46824583E+02
  0
VERTEX
  8
0
 62
4
 10
-5.04374261E+01
 20
1.47112730E+02
  0
VERTEX
  8
0
 62
4
 10
-5.02609678E+01
 20
1.47416767E+02
  0
VERTEX
  8
0
 62
4
 10
-5.01146139E+01
 20
1.47734246E+02
  0
VERTEX
  8
0
 62
4
 10
-4.99995427E+01
 20
1.48062611E+02
  0
VERTEX
  8
0
 62
4
 10
-4.99166808E+01
 20
1.48399217E+02
  0
VERTEX
  8
0
 62
4
 10
-4.98666953E+01
 20
1.48741356E+02
  0
VERTEX
  8
0
 62
4
 10
-4.98499886E+01
 20
1.49086271E+02
  0
SEQEND
  8
0
  0
POLYLINE
  8
0
 62
4
 66
1
  0
VERTEX
  8
0
 62
4
 10
-5.81499886E+01
 20
1.49745579E+02
  0
VERTEX
  8
0
 62
4
 10
-5.81341966E+01
 20
1.49410220E+02
  0
VERTEX
  8
0
 62
4
 10
-5.80869408E+01
 20
1.49077413E+02
  0
VERTEX
  8
0
 62
4
 10
-5.80085808E+01
 20
1.48749692E+02
  0
VERTEX
  8
0
 62
4
 10
-5.78997130E+01
 20
1.48429549E+02
  0
VERTEX
  8
0
 62
4
 10
-5.77611659E+01
 20
1.48119423E+02
  0
VERTEX
  8
0
 62
4
 10
-5.75939940E+01
 20
1.47821673E+02
  0
VERTEX
  8
0
 62
4
 10
-5.73994696E+01
 20
1.47538564E+02
  0
VERTEX
  8
0
 62
4
 10
-5.71790730E+01
 20
1.47272252E+02
  0
VERTEX
  8
0
 62
4
 10
-5.69344818E+01
 20
1.47024764E+02
  0
VERTEX
  8
0
 62
4
 10
-5.66675572E+01
 20
1.46797983E+02
  0
VERTEX
  8
0
 62
4
 10
-5.63803308E+01
 20
1.46593635E+02
  0
VERTEX
  8
0
 62
4
 10
-5.60749886E+01
 20
1.46413275E+02
  0
VERTEX
  8
0
 62
4
 10
-5.57538544E+01
 20
1.46258276E+02
  0
VERTEX
  8
0
 62
4
 10
-5.54193722E+01
 20
1.46129818E+02
  0
VERTEX
  8
0
 62
4
 10
-5.50740876E+01
 20
1.46028877E+02
  0
VERTEX
  8
0
 62
4
 10
-5.47206285E+01
 20
1.45956223E+02
  0
VERTEX
  8
0
 62
4
 10
-5.43616849E+01
 20
1.45912408E+02
  0
VERTEX
  8
0
 62
4
 10
-5.39999886E+01
 20
1.45897766E+02
  0
VERTEX
  8
0
 62
4
 10
-5.36382923E+01
 20
1.45912408E+02
  0
VERTEX
  8
0
 62
4
 10
-5.32793487E+01
 20
1.45956223E+02
  0
VERTEX
  8
0
 62
4
 10
-5.29258896E+01
 20
1.46028877E+02
  0
VERTEX
  8
0
 62
4
 10
-5.25806050E+01
 20
1.46129818E+02
  0
VERTEX
  8
0
 62
4
 10
-5.22461228E+01
 20
1.46258276E+02
  0
VERTEX
  8
0
 62
4
 10
-5.19249886E+01
 20
1.46413275E+02
  0
VERTEX
  8
0
 62
4
 10
-5.16196464E+01
 20
1.46593635E+02
  0
VERTEX
  8
0
 62
4
 10
-5.13324200E+01
 20
1.46797983E+02
  0
VERTEX
  8
0
 62
4
 10
-5.10654955E+01
 20
1.47024764E+02
  0
VERTEX
  8
0
 62
4
 10
-5.08209042E+01
 20
1.47272252E+02
  0
VERTEX
  8
0
 62
4
 10
-5.06005076E+01
 20
1.47538564E+02
  0
VERTEX
  8
0
 62
4
 10
-5.04059832E+01
 20
1.47821672E+02
  0
VERTEX
  8
0
 62
4
 10
-5.02388113E+01
 20
1.48119423E+02
  0
VERTEX
  8
0
 62
4
 10
-5.01002642E+01
 20
1.48429549E+02
  0
VERTEX
  8
0
 62
4
 10
-4.99913964E+01
 20
1.48749692E+02
  0
VERTEX
  8
0
 62
4
 10
-4.99130364E+01
 20
1.49077413E+02
  0
VERTEX
  8
0
 62
4
 10
-4.98657806E+01
 20
1.49410220E+02
  0
VERTEX
  8
0
 62
4
 10
-4.98499886E+01
 20
1.49745579E+02
  0
VERTEX
  8
0
 62
4
 10
-4.98657806E+01
 20
1.50080938E+02
  0
VERTEX
  8
0
 62
4
 10
-4.99130364E+01
 20
1.50413745E+02
  0
VERTEX
  8
0
 62
4
 10
-4.99913964E+01
 20
1.50741466E+02
  0
VERTEX
  8
0
 62
4
 10
-5.01002642E+01
 20
1.51061609E+02
  0
VERTEX
  8
0
 62
4
 10
-5.02388113E+01
 20
1.51371735E+02
  0
VERTEX
  8
0
 62
4
 10
-5.04059832E+01
 20
1.51669485E+02
  0
VERTEX
  8
0
 62
4
 10
-5.06005076E+01
 20
1.51952594E+02
  0
VERTEX
  8
0
 62
4
 10
-5.08209042E+01
 20
1.52218906E+02
  0
VERTEX
  8
0
 62
4
 10
-5.10654955E+01
 20
1.52466394E+02
  0
VERTEX
  8
0
 62
4
 10
-5.13324200E+01
 20
1.52693175E+02
  0
VERTEX
  8
0
 62
4
 10
-5.16196464E+01
 20
1.52897523E+02
  0
VERTEX
  8
0
 62
4
 10
-5.19249886E+01
 20
1.53077883E+02
  0
VERTEX
  8
0
 62
4
 10
-5.22461228E+01
 20
1.53232882E+02
  0
VERTEX
  8
0
 62
4
 10
-5.25806050E+01
 20
1.53361340E+02
  0
VERTEX
  8
0
 62
4
 10
-5.29258896E+01
 20
1.53462281E+02
  0
VERTEX
  8
0
 62
4
 10
-5.32793487E+01
 20
1.53534935E+02
  0
VERTEX
  8
0
 62
4
 10
-5.36382923E+01
 20
1.53578750E+02
  0
VERTEX
  8
0
 62
4
 10
-5.39999886E+01
 20
1.53593392E+02
  0
VERTEX
  8
0
 62
4
 10
-5.43616849E+01
 20
1.53578750E+02
  0
VERTEX
  8
0
 62
4
 10
-5.47206285E+01
 20
1.53534935E+02
  0
VERTEX
  8
0
 62
4
 10
-5.50740876E+01
 20
1.53462281E+02
  0
VERTEX
  8
0
 62
4
 10
-5.54193722E+01
 20
1.53361340E+02
  0
VERTEX
  8
0
 62
4
 10
-5.57538544E+01
 20
1.53232882E+02
  0
VERTEX
  8
0
 62
4
 10
-5.60749886E+01
 20
1.53077883E+02
  0
VERTEX
  8
0
 62
4
 10
-5.63803308E+01
 20
1.52897523E+02
  0
VERTEX
  8
0
 62
4
 10
-5.66675572E+01
 20
1.52693175E+02
  0
VERTEX
  8
0
 62
4
 10
-5.69344817E+01
 20
1.52466394E+02
  0
VERTEX
  8
0
 62
4
 10
-5.71790730E+01
 20
1.52218906E+02
  0
VERTEX
  8
0
 62
4
 10
-5.73994696E+01
 20
1.51952594E+02
  0
VERTEX
  8
0
 62
4
 10
-5.75939940E+01
 20
1.51669486E+02
  0
VERTEX
  8
0
 62
4
 10
-5.77611659E+01
 20
1.51371735E+02
  0
VERTEX
  8
0
 62
4
 10
-5.78997130E+01
 20
1.51061609E+02
  0
VERTEX
  8
0
 62
4
 10
-5.80085808E+01
 20
1.50741466E+02
  0
VERTEX
  8
0
 62
4
 10
-5.80869408E+01
 20
1.50413745E+02
  0
VERTEX
  8
0
 62
4
 10
-5.81341966E+01
 20
1.50080938E+02
  0
VERTEX
  8
0
 62
4
 10
-5.81499886E+01
 20
1.49745579E+02
  0
SEQEND
  8
0
  0
LINE
  8
0
 62
4
 10
-4.98499886E+01
 20
1.49086271E+02
 11
-4.98499886E+01
 21
1.49745579E+02
  0
ARC
  8
0
 62
4
 10
5.36593596E-01
 20
9.11661273E+01
 40
8.02368575E+01
 50
1.31121885E+02
 51
1.34565706E+02
  0
ARC
  8
0
 62
4
 10
-1.08536439E+02
 20
9.11662695E+01
 40
8.02366638E+01
 50
4.54342898E+01
 51
4.88781190E+01
  0
POLYLINE
  8
0
 62
4
 66
1
  0
VERTEX
  8
0
 62
4
 10
-5.02999886E+01
 20
1.52189064E+02
  0
VERTEX
  8
0
 62
4
 10
-5.02846909E+01
 20
1.51873238E+02
  0
VERTEX
  8
0
 62
4
 10
-5.02389211E+01
 20
1.51559955E+02
  0
VERTEX
  8
0
 62
4
 10
-5.01630475E+01
 20
1.51251737E+02
  0
VERTEX
  8
0
 62
4
 10
-5.00576811E+01
 20
1.50951066E+02
  0
VERTEX
  8
0
 62
4
 10
-4.99236703E+01
 20
1.50660362E+02
  0
VERTEX
  8
0
 62
4
 10
-4.97620940E+01
 20
1.50381967E+02
  0
VERTEX
  8
0
 62
4
 10
-4.95742532E+01
 20
1.50118121E+02
  0
VERTEX
  8
0
 62
4
 10
-4.93616602E+01
 20
1.49870949E+02
  0
VERTEX
  8
0
 62
4
 10
-4.91260267E+01
 20
1.49642442E+02
  0
VERTEX
  8
0
 62
4
 10
-4.88692499E+01
 20
1.49434438E+02
  0
VERTEX
  8
0
 62
4
 10
-4.85933972E+01
 20
1.49248613E+02
  0
VERTEX
  8
0
 62
4
 10
-4.83006895E+01
 20
1.49086463E+02
  0
VERTEX
  8
0
 62
4
 10
-4.79934837E+01
 20
1.48949293E+02
  0
VERTEX
  8
0
 62
4
 10
-4.76742532E+01
 20
1.48838208E+02
  0
VERTEX
  8
0
 62
4
 10
-4.73455682E+01
 20
1.48754102E+02
  0
VERTEX
  8
0
 62
4
 10
-4.70100750E+01
 20
1.48697652E+02
  0
VERTEX
  8
0
 62
4
 10
-4.66704750E+01
 20
1.48669313E+02
  0
VERTEX
  8
0
 62
4
 10
-4.63295023E+01
 20
1.48669313E+02
  0
VERTEX
  8
0
 62
4
 10
-4.59899022E+01
 20
1.48697652E+02
  0
VERTEX
  8
0
 62
4
 10
-4.56544091E+01
 20
1.48754102E+02
  0
VERTEX
  8
0
 62
4
 10
-4.53257240E+01
 20
1.48838208E+02
  0
VERTEX
  8
0
 62
4
 10
-4.50064935E+01
 20
1.48949293E+02
  0
VERTEX
  8
0
 62
4
 10
-4.46992877E+01
 20
1.49086463E+02
  0
VERTEX
  8
0
 62
4
 10
-4.44065801E+01
 20
1.49248613E+02
  0
VERTEX
  8
0
 62
4
 10
-4.41307274E+01
 20
1.49434438E+02
  0
VERTEX
  8
0
 62
4
 10
-4.38739505E+01
 20
1.49642442E+02
  0
VERTEX
  8
0
 62
4
 10
-4.36383170E+01
 20
1.49870949E+02
  0
VERTEX
  8
0
 62
4
 10
-4.34257240E+01
 20
1.50118121E+02
  0
VERTEX
  8
0
 62
4
 10
-4.32378832E+01
 20
1.50381967E+02
  0
VERTEX
  8
0
 62
4
 10
-4.30763069E+01
 20
1.50660362E+02
  0
VERTEX
  8
0
 62
4
 10
-4.29422961E+01
 20
1.50951066E+02
  0
VERTEX
  8
0
 62
4
 10
-4.28369297E+01
 20
1.51251737E+02
  0
VERTEX
  8
0
 62
4
 10
-4.27610561E+01
 20
1.51559955E+02
  0
VERTEX
  8
0
 62
4
 10
-4.27152863E+01
 20
1.51873238E+02
  0
VERTEX
  8
0
 62
4
 10
-4.26999886E+01
 20
1.52189064E+02
  0
SEQEND
  8
0
  0
POLYLINE
  8
0
 62
4
 66
1
  0
VERTEX
  8
0
 62
4
 10
-4.88863552E+01
 20
1.55305574E+02
  0
VERTEX
  8
0
 62
4
 10
-4.91368878E+01
 20
1.55100627E+02
  0
VERTEX
  8
0
 62
4
 10
-4.93670362E+01
 20
1.54876068E+02
  0
VERTEX
  8
0
 62
4
 10
-4.95750213E+01
 20
1.54633633E+02
  0
VERTEX
  8
0
 62
4
 10
-4.97592352E+01
 20
1.54375197E+02
  0
VERTEX
  8
0
 62
4
 10
-4.99182540E+01
 20
1.54102758E+02
  0
VERTEX
  8
0
 62
4
 10
-5.00508484E+01
 20
1.53818420E+02
  0
VERTEX
  8
0
 62
4
 10
-5.01559933E+01
 20
1.53524383E+02
  0
VERTEX
  8
0
 62
4
 10
-5.02328760E+01
 20
1.53222919E+02
  0
VERTEX
  8
0
 62
4
 10
-5.02809021E+01
 20
1.52916359E+02
  0
VERTEX
  8
0
 62
4
 10
-5.02997003E+01
 20
1.52607072E+02
  0
VERTEX
  8
0
 62
4
 10
-5.02891254E+01
 20
1.52297450E+02
  0
VERTEX
  8
0
 62
4
 10
-5.02492591E+01
 20
1.51989886E+02
  0
VERTEX
  8
0
 62
4
 10
-5.01804095E+01
 20
1.51686758E+02
  0
VERTEX
  8
0
 62
4
 10
-5.00831090E+01
 20
1.51390408E+02
  0
VERTEX
  8
0
 62
4
 10
-4.99581096E+01
 20
1.51103129E+02
  0
VERTEX
  8
0
 62
4
 10
-4.98063777E+01
 20
1.50827139E+02
  0
VERTEX
  8
0
 62
4
 10
-4.96290862E+01
 20
1.50564574E+02
  0
VERTEX
  8
0
 62
4
 10
-4.94276057E+01
 20
1.50317462E+02
  0
VERTEX
  8
0
 62
4
 10
-4.92034936E+01
 20
1.50087715E+02
  0
VERTEX
  8
0
 62
4
 10
-4.89584824E+01
 20
1.49877107E+02
  0
VERTEX
  8
0
 62
4
 10
-4.86944661E+01
 20
1.49687268E+02
  0
VERTEX
  8
0
 62
4
 10
-4.84134858E+01
 20
1.49519664E+02
  0
VERTEX
  8
0
 62
4
 10
-4.81177134E+01
 20
1.49375592E+02
  0
VERTEX
  8
0
 62
4
 10
-4.78094354E+01
 20
1.49256164E+02
  0
VERTEX
  8
0
 62
4
 10
-4.74910349E+01
 20
1.49162305E+02
  0
VERTEX
  8
0
 62
4
 10
-4.71649733E+01
 20
1.49094740E+02
  0
VERTEX
  8
0
 62
4
 10
-4.68337711E+01
 20
1.49053991E+02
  0
VERTEX
  8
0
 62
4
 10
-4.64999886E+01
 20
1.49040372E+02
  0
VERTEX
  8
0
 62
4
 10
-4.61662061E+01
 20
1.49053991E+02
  0
VERTEX
  8
0
 62
4
 10
-4.58350039E+01
 20
1.49094740E+02
  0
VERTEX
  8
0
 62
4
 10
-4.55089423E+01
 20
1.49162305E+02
  0
VERTEX
  8
0
 62
4
 10
-4.51905418E+01
 20
1.49256164E+02
  0
VERTEX
  8
0
 62
4
 10
-4.48822638E+01
 20
1.49375592E+02
  0
VERTEX
  8
0
 62
4
 10
-4.45864914E+01
 20
1.49519664E+02
  0
VERTEX
  8
0
 62
4
 10
-4.43055111E+01
 20
1.49687268E+02
  0
VERTEX
  8
0
 62
4
 10
-4.40414948E+01
 20
1.49877107E+02
  0
VERTEX
  8
0
 62
4
 10
-4.37964836E+01
 20
1.50087715E+02
  0
VERTEX
  8
0
 62
4
 10
-4.35723715E+01
 20
1.50317462E+02
  0
VERTEX
  8
0
 62
4
 10
-4.33708910E+01
 20
1.50564574E+02
  0
VERTEX
  8
0
 62
4
 10
-4.31935995E+01
 20
1.50827139E+02
  0
VERTEX
  8
0
 62
4
 10
-4.30418676E+01
 20
1.51103129E+02
  0
VERTEX
  8
0
 62
4
 10
-4.29168682E+01
 20
1.51390408E+02
  0
VERTEX
  8
0
 62
4
 10
-4.28195677E+01
 20
1.51686758E+02
  0
VERTEX
  8
0
 62
4
 10
-4.27507181E+01
 20
1.51989886E+02
  0
VERTEX
  8
0
 62
4
 10
-4.27108518E+01
 20
1.52297450E+02
  0
VERTEX
  8
0
 62
4
 10
-4.27002769E+01
 20
1.52607072E+02
  0
VERTEX
  8
0
 62
4
 10
-4.27190751E+01
 20
1.52916359E+02
  0
VERTEX
  8
0
 62
4
 10
-4.27671012E+01
 20
1.53222919E+02
  0
VERTEX
  8
0
 62
4
 10
-4.28439839E+01
 20
1.53524383E+02
  0
VERTEX
  8
0
 62
4
 10
-4.29491288E+01
 20
1.53818420E+02
  0
VERTEX
  8
0
 62
4
 10
-4.30817232E+01
 20
1.54102758E+02
  0
VERTEX
  8
0
 62
4
 10
-4.32407420E+01
 20
1.54375197E+02
  0
VERTEX
  8
0
 62
4
 10
-4.34249559E+01
 20
1.54633633E+02
  0
VERTEX
  8
0
 62
4
 10
-4.36329410E+01
 20
1.54876068E+02
  0
VERTEX
  8
0
 62
4
 10
-4.38630894E+01
 20
1.55100627E+02
  0
VERTEX
  8
0
 62
4
 10
-4.41136220E+01
 20
1.55305574E+02
  0
SEQEND
  8
0
  0
LINE
  8
0
 62
4
 10
-5.02999886E+01
 20
1.52189064E+02
 11
-5.02999886E+01
 21
1.52563671E+02
  0
LINE
  8
0
 62
4
 10
-4.26999886E+01
 20
1.52563671E+02
 11
-4.26999886E+01
 21
1.52189064E+02
  0
LINE
  8
0
 62
4
 10
-4.98999886E+01
 20
1.52563671E+02
 11
-4.98999886E+01
 21
1.53060093E+02
  0
POLYLINE
  8
0
 62
4
 66
1
  0
VERTEX
  8
0
 62
4
 10
-4.98999886E+01
 20
1.52563671E+02
  0
VERTEX
  8
0
 62
4
 10
-4.98863012E+01
 20
1.52281090E+02
  0
VERTEX
  8
0
 62
4
 10
-4.98453492E+01
 20
1.52000784E+02
  0
VERTEX
  8
0
 62
4
 10
-4.97774624E+01
 20
1.51725010E+02
  0
VERTEX
  8
0
 62
4
 10
-4.96831872E+01
 20
1.51455988E+02
  0
VERTEX
  8
0
 62
4
 10
-4.95632828E+01
 20
1.51195885E+02
  0
VERTEX
  8
0
 62
4
 10
-4.94187145E+01
 20
1.50946794E+02
  0
VERTEX
  8
0
 62
4
 10
-4.92506464E+01
 20
1.50710722E+02
  0
VERTEX
  8
0
 62
4
 10
-4.90604316E+01
 20
1.50489568E+02
  0
VERTEX
  8
0
 62
4
 10
-4.88496016E+01
 20
1.50285114E+02
  0
VERTEX
  8
0
 62
4
 10
-4.86198540E+01
 20
1.50099006E+02
  0
VERTEX
  8
0
 62
4
 10
-4.83730384E+01
 20
1.49932741E+02
  0
VERTEX
  8
0
 62
4
 10
-4.81111421E+01
 20
1.49787660E+02
  0
VERTEX
  8
0
 62
4
 10
-4.78362737E+01
 20
1.49664929E+02
  0
VERTEX
  8
0
 62
4
 10
-4.75506464E+01
 20
1.49565537E+02
  0
VERTEX
  8
0
 62
4
 10
-4.72565598E+01
 20
1.49490284E+02
  0
VERTEX
  8
0
 62
4
 10
-4.69563817E+01
 20
1.49439776E+02
  0
VERTEX
  8
0
 62
4
 10
-4.66525290E+01
 20
1.49414420E+02
  0
VERTEX
  8
0
 62
4
 10
-4.63474482E+01
 20
1.49414420E+02
  0
VERTEX
  8
0
 62
4
 10
-4.60435955E+01
 20
1.49439776E+02
  0
VERTEX
  8
0
 62
4
 10
-4.57434174E+01
 20
1.49490284E+02
  0
VERTEX
  8
0
 62
4
 10
-4.54493308E+01
 20
1.49565537E+02
  0
VERTEX
  8
0
 62
4
 10
-4.51637035E+01
 20
1.49664929E+02
  0
VERTEX
  8
0
 62
4
 10
-4.48888352E+01
 20
1.49787660E+02
  0
VERTEX
  8
0
 62
4
 10
-4.46269389E+01
 20
1.49932741E+02
  0
VERTEX
  8
0
 62
4
 10
-4.43801233E+01
 20
1.50099006E+02
  0
VERTEX
  8
0
 62
4
 10
-4.41503756E+01
 20
1.50285114E+02
  0
VERTEX
  8
0
 62
4
 10
-4.39395456E+01
 20
1.50489568E+02
  0
VERTEX
  8
0
 62
4
 10
-4.37493308E+01
 20
1.50710722E+02
  0
VERTEX
  8
0
 62
4
 10
-4.35812627E+01
 20
1.50946794E+02
  0
VERTEX
  8
0
 62
4
 10
-4.34366944E+01
 20
1.51195885E+02
  0
VERTEX
  8
0
 62
4
 10
-4.33167900E+01
 20
1.51455988E+02
  0
VERTEX
  8
0
 62
4
 10
-4.32225149E+01
 20
1.51725010E+02
  0
VERTEX
  8
0
 62
4
 10
-4.31546280E+01
 20
1.52000784E+02
  0
VERTEX
  8
0
 62
4
 10
-4.31136760E+01
 20
1.52281090E+02
  0
VERTEX
  8
0
 62
4
 10
-4.30999886E+01
 20
1.52563671E+02
  0
SEQEND
  8
0
  0
LINE
  8
0
 62
4
 10
-4.30999885E+01
 20
1.52563671E+02
 11
-4.30999885E+01
 21
1.53060093E+02
  0
POLYLINE
  8
0
 62
4
 66
1
  0
VERTEX
  8
0
 62
4
 10
-4.98999886E+01
 20
1.53060093E+02
  0
VERTEX
  8
0
 62
4
 10
-4.98870506E+01
 20
1.52785341E+02
  0
VERTEX
  8
0
 62
4
 10
-4.98483350E+01
 20
1.52512680E+02
  0
VERTEX
  8
0
 62
4
 10
-4.97841364E+01
 20
1.52244185E+02
  0
VERTEX
  8
0
 62
4
 10
-4.96949435E+01
 20
1.51981900E+02
  0
VERTEX
  8
0
 62
4
 10
-4.95814351E+01
 20
1.51727821E+02
  0
VERTEX
  8
0
 62
4
 10
-4.94444750E+01
 20
1.51483880E+02
  0
VERTEX
  8
0
 62
4
 10
-4.92851056E+01
 20
1.51251936E+02
  0
VERTEX
  8
0
 62
4
 10
-4.91045397E+01
 20
1.51033753E+02
  0
VERTEX
  8
0
 62
4
 10
-4.89041517E+01
 20
1.50830992E+02
  0
VERTEX
  8
0
 62
4
 10
-4.86854665E+01
 20
1.50645195E+02
  0
VERTEX
  8
0
 62
4
 10
-4.84501485E+01
 20
1.50477778E+02
  0
VERTEX
  8
0
 62
4
 10
-4.81999886E+01
 20
1.50330013E+02
  0
VERTEX
  8
0
 62
4
 10
-4.79368907E+01
 20
1.50203026E+02
  0
VERTEX
  8
0
 62
4
 10
-4.76628571E+01
 20
1.50097782E+02
  0
VERTEX
  8
0
 62
4
 10
-4.73799734E+01
 20
1.50015084E+02
  0
VERTEX
  8
0
 62
4
 10
-4.70903924E+01
 20
1.49955560E+02
  0
VERTEX
  8
0
 62
4
 10
-4.67963181E+01
 20
1.49919664E+02
  0
VERTEX
  8
0
 62
4
 10
-4.64999886E+01
 20
1.49907668E+02
  0
VERTEX
  8
0
 62
4
 10
-4.62036591E+01
 20
1.49919664E+02
  0
VERTEX
  8
0
 62
4
 10
-4.59095848E+01
 20
1.49955560E+02
  0
VERTEX
  8
0
 62
4
 10
-4.56200038E+01
 20
1.50015084E+02
  0
VERTEX
  8
0
 62
4
 10
-4.53371201E+01
 20
1.50097782E+02
  0
VERTEX
  8
0
 62
4
 10
-4.50630865E+01
 20
1.50203026E+02
  0
VERTEX
  8
0
 62
4
 10
-4.47999886E+01
 20
1.50330013E+02
  0
VERTEX
  8
0
 62
4
 10
-4.45498287E+01
 20
1.50477778E+02
  0
VERTEX
  8
0
 62
4
 10
-4.43145107E+01
 20
1.50645195E+02
  0
VERTEX
  8
0
 62
4
 10
-4.40958255E+01
 20
1.50830992E+02
  0
VERTEX
  8
0
 62
4
 10
-4.38954375E+01
 20
1.51033753E+02
  0
VERTEX
  8
0
 62
4
 10
-4.37148716E+01
 20
1.51251936E+02
  0
VERTEX
  8
0
 62
4
 10
-4.35555022E+01
 20
1.51483880E+02
  0
VERTEX
  8
0
 62
4
 10
-4.34185421E+01
 20
1.51727821E+02
  0
VERTEX
  8
0
 62
4
 10
-4.33050337E+01
 20
1.51981900E+02
  0
VERTEX
  8
0
 62
4
 10
-4.32158408E+01
 20
1.52244185E+02
  0
VERTEX
  8
0
 62
4
 10
-4.31516422E+01
 20
1.52512680E+02
  0
VERTEX
  8
0
 62
4
 10
-4.31129266E+01
 20
1.52785341E+02
  0
VERTEX
  8
0
 62
4
 10
-4.30999886E+01
 20
1.53060093E+02
  0
VERTEX
  8
0
 62
4
 10
-4.31129266E+01
 20
1.53334845E+02
  0
VERTEX
  8
0
 62
4
 10
-4.31516422E+01
 20
1.53607506E+02
  0
VERTEX
  8
0
 62
4
 10
-4.32158408E+01
 20
1.53876001E+02
  0
VERTEX
  8
0
 62
4
 10
-4.33050337E+01
 20
1.54138286E+02
  0
VERTEX
  8
0
 62
4
 10
-4.34185421E+01
 20
1.54392365E+02
  0
VERTEX
  8
0
 62
4
 10
-4.35555022E+01
 20
1.54636306E+02
  0
VERTEX
  8
0
 62
4
 10
-4.37148716E+01
 20
1.54868250E+02
  0
VERTEX
  8
0
 62
4
 10
-4.38954375E+01
 20
1.55086433E+02
  0
VERTEX
  8
0
 62
4
 10
-4.40958255E+01
 20
1.55289194E+02
  0
VERTEX
  8
0
 62
4
 10
-4.43145107E+01
 20
1.55474991E+02
  0
VERTEX
  8
0
 62
4
 10
-4.45498287E+01
 20
1.55642408E+02
  0
VERTEX
  8
0
 62
4
 10
-4.47999886E+01
 20
1.55790173E+02
  0
VERTEX
  8
0
 62
4
 10
-4.50630865E+01
 20
1.55917160E+02
  0
VERTEX
  8
0
 62
4
 10
-4.53371201E+01
 20
1.56022404E+02
  0
VERTEX
  8
0
 62
4
 10
-4.56200038E+01
 20
1.56105102E+02
  0
VERTEX
  8
0
 62
4
 10
-4.59095848E+01
 20
1.56164626E+02
  0
VERTEX
  8
0
 62
4
 10
-4.62036591E+01
 20
1.56200522E+02
  0
VERTEX
  8
0
 62
4
 10
-4.64999886E+01
 20
1.56212518E+02
  0
VERTEX
  8
0
 62
4
 10
-4.67963181E+01
 20
1.56200522E+02
  0
VERTEX
  8
0
 62
4
 10
-4.70903924E+01
 20
1.56164626E+02
  0
VERTEX
  8
0
 62
4
 10
-4.73799734E+01
 20
1.56105102E+02
  0
VERTEX
  8
0
 62
4
 10
-4.76628571E+01
 20
1.56022404E+02
  0
VERTEX
  8
0
 62
4
 10
-4.79368907E+01
 20
1.55917160E+02
  0
VERTEX
  8
0
 62
4
 10
-4.81999886E+01
 20
1.55790173E+02
  0
VERTEX
  8
0
 62
4
 10
-4.84501485E+01
 20
1.55642408E+02
  0
VERTEX
  8
0
 62
4
 10
-4.86854665E+01
 20
1.55474991E+02
  0
VERTEX
  8
0
 62
4
 10
-4.89041517E+01
 20
1.55289194E+02
  0
VERTEX
  8
0
 62
4
 10
-4.91045397E+01
 20
1.55086433E+02
  0
VERTEX
  8
0
 62
4
 10
-4.92851056E+01
 20
1.54868250E+02
  0
VERTEX
  8
0
 62
4
 10
-4.94444750E+01
 20
1.54636306E+02
  0
VERTEX
  8
0
 62
4
 10
-4.95814351E+01
 20
1.54392365E+02
  0
VERTEX
  8
0
 62
4
 10
-4.96949435E+01
 20
1.54138286E+02
  0
VERTEX
  8
0
 62
4
 10
-4.97841364E+01
 20
1.53876001E+02
  0
VERTEX
  8
0
 62
4
 10
-4.98483350E+01
 20
1.53607506E+02
  0
VERTEX
  8
0
 62
4
 10
-4.98870506E+01
 20
1.53334845E+02
  0
VERTEX
  8
0
 62
4
 10
-4.98999886E+01
 20
1.53060093E+02
  0
SEQEND
  8
0
  0
ARC
  8
0
 62
4
 10
7.53028844E+00
 20
9.51395741E+01
 40
7.95040043E+01
 50
1.31098609E+02
 51
1.34573756E+02
  0
ARC
  8
0
 62
4
 10
-1.00530266E+02
 20
9.51395741E+01
 40
7.95040043E+01
 50
4.54262442E+01
 51
4.89013908E+01
  0
LINE
  8
0
 62
4
 10
-5.07285997E+01
 20
1.46718680E+02
 11
-3.89999886E+01
 21
1.46718680E+02
  0
LINE
  8
0
 62
4
 10
-5.11042317E+01
 20
1.46330009E+02
 11
-4.54999886E+01
 21
1.46330009E+02
  0
LINE
  8
0
 62
7
 10
-1.98419807E+01
 20
1.44000000E+02
 11
-8.30000191E+01
 21
1.44000000E+02
  0
LINE
  8
0
 62
7
 10
-1.00000114E+01
 20
1.40000015E+02
 11
-8.30000191E+01
 21
1.40000015E+02
  0
LINE
  8
0
 62
7
 10
-1.00000114E+01
 20
1.31000000E+02
 11
-8.30000191E+01
 21
1.31000000E+02
  0
LINE
  8
0
  6
CENTER
 62
2
 10
-3.38222218E+02
 20
1.35500076E+02
 11
-3.09012318E+02
 21
1.35500076E+02
  0
LINE
  8
0
  6
CENTER
 62
2
 10
-3.37809223E+02
 20
6.55000763E+01
 11
-3.09012318E+02
 21
6.55000763E+01
  0
LINE
  8
0
  6
CENTER
 62
2
 10
-3.70000019E+02
 20
1.12496483E+02
 11
-3.70000019E+02
 21
1.50073441E+02
  0
LINE
  8
0
 62
7
 10
-3.43698592E+02
 20
1.17569489E+02
 11
-3.33578555E+02
 21
1.27689522E+02
  0
LINE
  8
0
 62
7
 10
-3.57750019E+02
 20
1.42899963E+02
 11
-3.57750019E+02
 21
1.23389755E+02
  0
LINE
  8
0
 62
7
 10
-3.81865406E+02
 20
6.15000916E+01
 11
-3.81500111E+02
 21
6.15000916E+01
  0
LINE
  8
0
 62
7
 10
-3.36134724E+02
 20
6.15000000E+01
 11
-3.36500019E+02
 21
6.15000000E+01
  0
LINE
  8
0
 62
7
 10
-3.20000019E+02
 20
7.76346588E+01
 11
-3.20000019E+02
 21
7.80000000E+01
  0
LINE
  8
0
  6
CENTER
 62
2
 10
-4.09464161E+02
 20
8.65000305E+01
 11
-4.06000111E+02
 21
8.65000305E+01
  0
LINE
  8
0
  6
CENTER
 62
2
 10
-3.43000050E+02
 20
1.50076965E+02
 11
-3.43000050E+02
 21
1.09871849E+02
  0
LINE
  8
0
 62
7
 10
-3.40999012E+02
 20
1.43900040E+02
 11
-3.77001209E+02
 21
1.43900040E+02
  0
LINE
  8
0
 62
7
 10
-3.29000019E+02
 20
1.47499985E+02
 11
-3.29000019E+02
 21
1.46899948E+02
  0
LINE
  8
0
 62
7
 10
-3.89000019E+02
 20
1.47499985E+02
 11
-3.89000019E+02
 21
1.46900040E+02
  0
LINE
  8
0
 62
7
 10
-3.89000019E+02
 20
5.41000214E+01
 11
-3.89000019E+02
 21
5.35000305E+01
  0
LINE
  8
0
 62
7
 10
-3.29000019E+02
 20
5.40999756E+01
 11
-3.29000019E+02
 21
5.34999847E+01
  0
LINE
  8
0
 62
7
 10
-3.98000019E+02
 20
1.23365311E+02
 11
-3.98000019E+02
 21
1.22999969E+02
  0
LINE
  8
0
 62
7
 10
-3.81865437E+02
 20
1.39500107E+02
 11
-3.81500141E+02
 21
1.39500107E+02
  0
LINE
  8
0
 62
7
 10
-3.36134724E+02
 20
1.39500015E+02
 11
-3.36500111E+02
 21
1.39500015E+02
  0
LINE
  8
0
 62
7
 10
-3.41930717E+02
 20
1.15801657E+02
 11
-3.31810659E+02
 21
1.25921711E+02
  0
LINE
  8
0
 62
7
 10
-3.19999928E+02
 20
1.23365311E+02
 11
-3.19999928E+02
 21
1.23000061E+02
  0
LINE
  8
0
  6
CENTER
 62
2
 10
-4.09464161E+02
 20
1.14500069E+02
 11
-4.06000111E+02
 21
1.14500069E+02
  0
LINE
  8
0
 62
7
 10
-4.08600025E+02
 20
1.12899956E+02
 11
-4.08600025E+02
 21
1.16099998E+02
  0
LINE
  8
0
 62
7
 10
-4.06400074E+02
 20
1.10750069E+02
 11
-4.06000111E+02
 21
1.10750069E+02
  0
LINE
  8
0
 62
7
 10
-4.06400074E+02
 20
1.18250076E+02
 11
-4.06000111E+02
 21
1.18250076E+02
  0
LINE
  8
0
 62
7
 10
-3.98000050E+02
 20
7.76346130E+01
 11
-3.98000050E+02
 21
7.79999084E+01
  0
LINE
  8
0
 62
7
 10
-4.08600025E+02
 20
8.48999176E+01
 11
-4.08600025E+02
 21
8.80999603E+01
  0
LINE
  8
0
 62
7
 10
-4.06400074E+02
 20
8.27500305E+01
 11
-4.06000111E+02
 21
8.27500305E+01
  0
LINE
  8
0
 62
7
 10
-4.06400074E+02
 20
9.02500305E+01
 11
-4.06000111E+02
 21
9.02500305E+01
  0
LINE
  8
0
  6
CENTER
 62
2
 10
-3.59000019E+02
 20
1.52034729E+02
 11
-3.59000019E+02
 21
5.00345306E+01
  0
LINE
  8
0
  6
CENTER
 62
2
 10
-3.07169361E+02
 20
1.00500000E+02
 11
-4.10946125E+02
 21
1.00500000E+02
  0
LINE
  8
0
 62
7
 10
-4.02000050E+02
 20
1.46900085E+02
 11
-3.16000080E+02
 21
1.46900040E+02
  0
LINE
  8
0
 62
7
 10
-4.05400043E+02
 20
5.75000153E+01
 11
-4.05400043E+02
 21
1.43500000E+02
  0
LINE
  8
0
 62
7
 10
-4.02000050E+02
 20
5.41000671E+01
 11
-3.16000080E+02
 21
5.41000214E+01
  0
LINE
  8
0
 62
7
 10
-4.02400043E+02
 20
8.24988098E+01
 11
-4.02400043E+02
 21
1.18501114E+02
  0
LINE
  8
0
  6
CENTER
 62
2
 10
-3.24000019E+02
 20
5.08976440E+01
 11
-3.24000019E+02
 21
7.95789185E+01
  0
LINE
  8
0
 62
7
 10
-3.74301677E+02
 20
1.17569339E+02
 11
-3.84421712E+02
 21
1.27689373E+02
  0
LINE
  8
0
 62
7
 10
-3.76069627E+02
 20
1.15801518E+02
 11
-3.86189705E+02
 21
1.25921595E+02
  0
LINE
  8
0
 62
7
 10
-4.02000050E+02
 20
1.47500076E+02
 11
-3.16000080E+02
 21
1.47500031E+02
  0
LINE
  8
0
  6
CENTER
 62
2
 10
-3.94000019E+02
 20
1.49685349E+02
 11
-3.94000019E+02
 21
1.20961639E+02
  0
LINE
  8
0
  6
CENTER
 62
2
 10
-3.94000019E+02
 20
5.07628784E+01
 11
-3.94000019E+02
 21
8.09070282E+01
  0
LINE
  8
0
 62
7
 10
-4.06000019E+02
 20
5.75000153E+01
 11
-4.06000019E+02
 21
1.43500000E+02
  0
LINE
  8
0
 62
7
 10
-3.60250019E+02
 20
1.42900009E+02
 11
-3.60250019E+02
 21
1.23389664E+02
  0
LINE
  8
0
 62
7
 10
-4.01400013E+02
 20
1.01750061E+02
 11
-3.81889790E+02
 21
1.01750061E+02
  0
LINE
  8
0
 62
7
 10
-3.76069553E+02
 20
8.51986185E+01
 11
-3.86189588E+02
 21
7.50785845E+01
  0
LINE
  8
0
 62
7
 10
-3.74301743E+02
 20
8.34306788E+01
 11
-3.84421778E+02
 21
7.33106448E+01
  0
LINE
  8
0
 62
7
 10
-3.16600025E+02
 20
1.01750015E+02
 11
-3.36110371E+02
 21
1.01750015E+02
  0
LINE
  8
0
 62
7
 10
-3.60250019E+02
 20
5.81000061E+01
 11
-3.60250019E+02
 21
7.76102600E+01
  0
LINE
  8
0
 62
7
 10
-4.01400013E+02
 20
9.92500763E+01
 11
-3.81889759E+02
 21
9.92500763E+01
  0
LINE
  8
0
 62
7
 10
-3.12600056E+02
 20
5.74999695E+01
 11
-3.12600056E+02
 21
1.43499954E+02
  0
LINE
  8
0
 62
7
 10
-3.15600056E+02
 20
8.24989014E+01
 11
-3.15600056E+02
 21
1.18501205E+02
  0
LINE
  8
0
 62
7
 10
-3.40998920E+02
 20
5.71000214E+01
 11
-3.77001209E+02
 21
5.71000214E+01
  0
LINE
  8
0
 62
7
 10
-3.12000019E+02
 20
5.74999695E+01
 11
-3.12000019E+02
 21
1.43499954E+02
  0
LINE
  8
0
  6
CENTER
 62
2
 10
-4.08555592E+02
 20
6.55000763E+01
 11
-3.80134968E+02
 21
6.55000763E+01
  0
LINE
  8
0
 62
7
 10
-4.02000050E+02
 20
5.35000763E+01
 11
-3.16000080E+02
 21
5.35000305E+01
  0
LINE
  8
0
 62
7
 10
-3.43698456E+02
 20
8.34306012E+01
 11
-3.33578423E+02
 21
7.33105655E+01
  0
LINE
  8
0
 62
7
 10
-3.41930818E+02
 20
8.51982817E+01
 11
-3.31810785E+02
 21
7.50782459E+01
  0
LINE
  8
0
 62
7
 10
-3.16600117E+02
 20
9.92500305E+01
 11
-3.36110279E+02
 21
9.92500305E+01
  0
LINE
  8
0
 62
7
 10
-3.57750019E+02
 20
5.81000061E+01
 11
-3.57750019E+02
 21
7.76103058E+01
  0
LINE
  8
0
  6
CENTER
 62
2
 10
-3.24000019E+02
 20
1.49872665E+02
 11
-3.24000019E+02
 21
1.20135788E+02
  0
LINE
  8
0
  6
CENTER
 62
2
 10
-4.08555592E+02
 20
1.35500076E+02
 11
-3.79309071E+02
 21
1.35500076E+02
  0
ARC
  8
0
 62
7
 10
-4.06122578E+02
 20
1.15765511E+02
 40
2.50000000E+00
 50
9.63728081E+01
 51
1.87691385E+02
  0
ARC
  8
0
 62
7
 10
-4.06122578E+02
 20
1.13234627E+02
 40
2.50000000E+00
 50
1.87691403E+02
 51
2.69999963E+02
  0
ARC
  8
0
 62
7
 10
-4.06122578E+02
 20
8.52346039E+01
 40
2.50000000E+00
 50
1.87691403E+02
 51
2.69999963E+02
  0
ARC
  8
0
 62
7
 10
-4.06122578E+02
 20
8.77654877E+01
 40
2.50000000E+00
 50
9.63728081E+01
 51
1.87691385E+02
  0
CIRCLE
  8
0
 62
7
 10
-3.94000111E+02
 20
1.35499985E+02
 40
8.70000076E+00
  0
CIRCLE
  8
0
 62
7
 10
-3.94000080E+02
 20
6.55000000E+01
 40
8.70000076E+00
  0
ARC
  8
0
 62
7
 10
-3.83714588E+02
 20
1.28396545E+02
 40
1.00000000E+00
 50
1.45369634E+02
 51
2.24999955E+02
  0
ARC
  8
0
 62
7
 10
-3.86896595E+02
 20
1.25214539E+02
 40
1.00000000E+00
 50
4.49999910E+01
 51
1.24630380E+02
  0
ARC
  8
0
 62
7
 10
-3.61250050E+02
 20
1.42900009E+02
 40
1.00000000E+00
 50
3.59999959E+02
 51
8.99999956E+01
  0
ARC
  8
0
 62
7
 10
-3.94000111E+02
 20
1.35499985E+02
 40
1.15000000E+01
 50
2.56113424E+02
 51
1.38868674E+01
  0
ARC
  8
0
 62
7
 10
-4.01400043E+02
 20
1.02750008E+02
 40
1.00000000E+00
 50
1.79999964E+02
 51
2.69999946E+02
  0
ARC
  8
0
 62
7
 10
-3.86896595E+02
 20
7.57854919E+01
 40
1.00000000E+00
 50
2.35369648E+02
 51
3.14999981E+02
  0
ARC
  8
0
 62
7
 10
-3.83714588E+02
 20
7.26034851E+01
 40
1.00000000E+00
 50
1.34999987E+02
 51
2.14630376E+02
  0
ARC
  8
0
 62
7
 10
-4.02000080E+02
 20
1.43500000E+02
 40
3.40000033E+00
 50
9.00000231E+01
 51
1.79999977E+02
  0
ARC
  8
0
 62
7
 10
-3.61250050E+02
 20
5.81000671E+01
 40
1.00000000E+00
 50
2.69999991E+02
 51
3.59999973E+02
  0
ARC
  8
0
 62
7
 10
-4.01400135E+02
 20
9.82500153E+01
 40
1.00000000E+00
 50
8.99999549E+01
 51
1.79999991E+02
  0
ARC
  8
0
 62
7
 10
-4.02000050E+02
 20
5.75000305E+01
 40
3.40000033E+00
 50
1.80000050E+02
 51
2.69999991E+02
  0
ARC
  8
0
 62
7
 10
-3.94000080E+02
 20
6.55000000E+01
 40
1.15000000E+01
 50
3.46113659E+02
 51
1.03886911E+02
  0
ARC
  8
0
 62
7
 10
-4.02000080E+02
 20
1.43500000E+02
 40
4.00000000E+00
 50
9.00000231E+01
 51
1.79999977E+02
  0
CIRCLE
  8
0
 62
7
 10
-3.94000111E+02
 20
1.35499985E+02
 40
8.00000000E+00
  0
CIRCLE
  8
0
 62
7
 10
-3.94000080E+02
 20
6.55000000E+01
 40
8.00000000E+00
  0
ARC
  8
0
 62
7
 10
-4.02000050E+02
 20
5.75000305E+01
 40
4.00000000E+00
 50
1.80000050E+02
 51
2.69999991E+02
  0
ARC
  8
0
 62
7
 10
-3.81500111E+02
 20
1.43000031E+02
 40
3.50000024E+00
 50
2.70000018E+02
 51
3.58726969E+02
  0
ARC
  8
0
 62
7
 10
-4.01500172E+02
 20
1.22999969E+02
 40
3.50000024E+00
 50
2.71274531E+02
 51
4.98603810E-04
  0
ARC
  8
0
 62
7
 10
-4.01400043E+02
 20
1.18501114E+02
 40
1.00000000E+00
 50
9.12747958E+01
 51
1.79999964E+02
  0
ARC
  8
0
 62
7
 10
-3.77001209E+02
 20
1.42900055E+02
 40
1.00000000E+00
 50
8.99999818E+01
 51
1.78726994E+02
  0
ARC
  8
0
 62
7
 10
-4.01500080E+02
 20
7.79999237E+01
 40
3.50000024E+00
 50
0.00000000E+00
 51
8.87269647E+01
  0
ARC
  8
0
 62
7
 10
-3.81500050E+02
 20
5.79999542E+01
 40
3.50000024E+00
 50
1.27452696E+00
 51
8.99999818E+01
  0
ARC
  8
0
 62
7
 10
-4.01400135E+02
 20
8.24988251E+01
 40
1.00000000E+00
 50
1.79999977E+02
 51
2.68726935E+02
  0
ARC
  8
0
 62
7
 10
-3.77001148E+02
 20
5.81000671E+01
 40
1.00000000E+00
 50
1.81274754E+02
 51
2.70000018E+02
  0
ARC
  8
0
 62
7
 10
-3.73594532E+02
 20
1.18276489E+02
 40
1.00000000E+00
 50
2.24999972E+02
 51
3.09385511E+02
  0
ARC
  8
0
 62
7
 10
-3.76776539E+02
 20
1.15094475E+02
 40
1.00000000E+00
 50
3.20613837E+02
 51
4.49999910E+01
  0
ARC
  8
0
 62
7
 10
-3.61250050E+02
 20
1.23389709E+02
 40
1.00000000E+00
 50
2.75613832E+02
 51
3.59999959E+02
  0
ARC
  8
0
 62
7
 10
-3.81889759E+02
 20
1.02750008E+02
 40
1.00000000E+00
 50
2.69999963E+02
 51
3.54386131E+02
  0
ARC
  8
0
 62
7
 10
-3.76776539E+02
 20
8.59055481E+01
 40
1.00000000E+00
 50
3.14999968E+02
 51
3.93854936E+01
  0
ARC
  8
0
 62
7
 10
-3.73594532E+02
 20
8.27235413E+01
 40
1.00000000E+00
 50
5.06138328E+01
 51
1.34999987E+02
  0
ARC
  8
0
 62
7
 10
-3.81889698E+02
 20
9.82500153E+01
 40
1.00000000E+00
 50
5.61382810E+00
 51
8.99999549E+01
  0
ARC
  8
0
 62
7
 10
-3.61250050E+02
 20
7.76102753E+01
 40
1.00000000E+00
 50
3.59999973E+02
 51
8.43861127E+01
  0
CIRCLE
  8
0
 62
7
 10
-3.24000050E+02
 20
6.55000000E+01
 40
8.70000076E+00
  0
ARC
  8
0
 62
7
 10
-3.34285542E+02
 20
7.26034851E+01
 40
1.00000000E+00
 50
3.25369629E+02
 51
4.49999637E+01
  0
ARC
  8
0
 62
7
 10
-3.31103535E+02
 20
7.57854919E+01
 40
1.00000000E+00
 50
2.25000000E+02
 51
3.04630388E+02
  0
ARC
  8
0
 62
7
 10
-3.16600086E+02
 20
9.82500153E+01
 40
1.00000000E+00
 50
3.59999986E+02
 51
8.99999681E+01
  0
ARC
  8
0
 62
7
 10
-3.56750080E+02
 20
5.81000214E+01
 40
1.00000000E+00
 50
1.79999951E+02
 51
2.70000001E+02
  0
ARC
  8
0
 62
7
 10
-3.16000050E+02
 20
5.75000305E+01
 40
3.40000033E+00
 50
2.70000018E+02
 51
3.59999986E+02
  0
ARC
  8
0
 62
7
 10
-3.24000050E+02
 20
6.55000000E+01
 40
1.15000000E+01
 50
7.61135653E+01
 51
1.93886777E+02
  0
ARC
  8
0
 62
7
 10
-3.16000050E+02
 20
5.75000305E+01
 40
4.00000000E+00
 50
2.70000018E+02
 51
3.59999986E+02
  0
CIRCLE
  8
0
 62
7
 10
-3.24000050E+02
 20
6.55000000E+01
 40
8.00000000E+00
  0
ARC
  8
0
 62
7
 10
-3.16500019E+02
 20
7.80000153E+01
 40
3.50000024E+00
 50
9.12745500E+01
 51
1.79999964E+02
  0
ARC
  8
0
 62
7
 10
-3.36500019E+02
 20
5.80000000E+01
 40
3.50000024E+00
 50
8.99999818E+01
 51
1.78726994E+02
  0
ARC
  8
0
 62
7
 10
-3.16600086E+02
 20
8.24989166E+01
 40
1.00000000E+00
 50
2.71274777E+02
 51
0.00000000E+00
  0
ARC
  8
0
 62
7
 10
-3.44405598E+02
 20
8.27235413E+01
 40
1.00000000E+00
 50
4.49999637E+01
 51
1.29385489E+02
  0
ARC
  8
0
 62
7
 10
-3.41223591E+02
 20
8.59055481E+01
 40
1.00000000E+00
 50
1.40613828E+02
 51
2.24999982E+02
  0
ARC
  8
0
 62
7
 10
-3.56750080E+02
 20
7.76103210E+01
 40
1.00000000E+00
 50
9.56138240E+01
 51
1.79999951E+02
  0
ARC
  8
0
 62
7
 10
-3.36110279E+02
 20
9.82500153E+01
 40
1.00000000E+00
 50
8.99999681E+01
 51
1.74386108E+02
  0
ARC
  8
0
 62
7
 10
-3.40998920E+02
 20
5.80999756E+01
 40
1.00000000E+00
 50
2.70000018E+02
 51
3.58726969E+02
  0
CIRCLE
  8
0
 62
7
 10
-3.24000050E+02
 20
1.35499985E+02
 40
8.70000076E+00
  0
ARC
  8
0
 62
7
 10
-3.31103535E+02
 20
1.25214539E+02
 40
1.00000000E+00
 50
5.53696252E+01
 51
1.34999959E+02
  0
ARC
  8
0
 62
7
 10
-3.34285542E+02
 20
1.28396545E+02
 40
1.00000000E+00
 50
3.14999995E+02
 51
3.46303842E+01
  0
ARC
  8
0
 62
7
 10
-3.56750080E+02
 20
1.42899963E+02
 40
1.00000000E+00
 50
8.99999818E+01
 51
1.79999964E+02
  0
ARC
  8
0
 62
7
 10
-3.16600025E+02
 20
1.02750008E+02
 40
1.00000000E+00
 50
2.69999963E+02
 51
0.00000000E+00
  0
ARC
  8
0
 62
7
 10
-3.16000050E+02
 20
1.43500000E+02
 40
3.40000033E+00
 50
0.00000000E+00
 51
8.99999818E+01
  0
ARC
  8
0
 62
7
 10
-3.24000050E+02
 20
1.35499985E+02
 40
1.15000000E+01
 50
1.66113425E+02
 51
2.83886868E+02
  0
ARC
  8
0
 62
7
 10
-3.16000050E+02
 20
1.43500000E+02
 40
4.00000000E+00
 50
0.00000000E+00
 51
8.99999818E+01
  0
CIRCLE
  8
0
 62
7
 10
-3.24000050E+02
 20
1.35499985E+02
 40
8.00000000E+00
  0
ARC
  8
0
 62
7
 10
-3.16500050E+02
 20
1.23000061E+02
 40
3.50000024E+00
 50
1.79999977E+02
 51
2.68726935E+02
  0
ARC
  8
0
 62
7
 10
-3.36500080E+02
 20
1.43000076E+02
 40
3.50000024E+00
 50
1.81274508E+02
 51
2.70000018E+02
  0
ARC
  8
0
 62
7
 10
-3.16600025E+02
 20
1.18501205E+02
 40
1.00000000E+00
 50
0.00000000E+00
 51
8.87269716E+01
  0
ARC
  8
0
 62
7
 10
-3.40998981E+02
 20
1.42899963E+02
 40
1.00000000E+00
 50
1.27477968E+00
 51
8.99999818E+01
  0
ARC
  8
0
 62
7
 10
-3.41223591E+02
 20
1.15094475E+02
 40
1.00000000E+00
 50
1.34999959E+02
 51
2.19385485E+02
  0
ARC
  8
0
 62
7
 10
-3.44405598E+02
 20
1.18276489E+02
 40
1.00000000E+00
 50
2.30613841E+02
 51
3.14999981E+02
  0
ARC
  8
0
 62
7
 10
-3.36110371E+02
 20
1.02750008E+02
 40
1.00000000E+00
 50
1.85613837E+02
 51
2.69999963E+02
  0
ARC
  8
0
 62
7
 10
-3.56750080E+02
 20
1.23389755E+02
 40
1.00000000E+00
 50
1.79999964E+02
 51
2.64386104E+02
  0
CIRCLE
  8
0
 62
7
 10
-3.59000050E+02
 20
1.00500099E+02
 40
2.20000000E+01
  0
CIRCLE
  8
0
 62
7
 10
-3.59000050E+02
 20
1.00500099E+02
 40
1.95000000E+01
  0
CIRCLE
  8
0
 62
7
 10
-3.59000050E+02
 20
1.00500008E+02
 40
2.10111084E+01
  0
ARC
  8
0
 62
7
 10
-3.21000019E+02
 20
1.23365356E+02
 40
1.00000000E+00
 50
0.00000000E+00
 51
1.03886139E+02
  0
ARC
  8
0
 62
7
 10
-3.36134724E+02
 20
1.38499985E+02
 40
1.00000000E+00
 50
3.46114300E+02
 51
8.99999818E+01
  0
ARC
  8
0
 62
7
 10
-3.81865406E+02
 20
1.38500076E+02
 40
1.00000000E+00
 50
8.99999818E+01
 51
1.93887774E+02
  0
ARC
  8
0
 62
7
 10
-3.97000111E+02
 20
1.23365311E+02
 40
1.00000000E+00
 50
7.61138799E+01
 51
1.79999964E+02
  0
ARC
  8
0
 62
7
 10
-3.97000111E+02
 20
7.76346741E+01
 40
1.00000000E+00
 50
1.79999977E+02
 51
2.83886103E+02
  0
ARC
  8
0
 62
7
 10
-3.81865345E+02
 20
6.25000458E+01
 40
1.00000000E+00
 50
1.66113056E+02
 51
2.70000001E+02
  0
ARC
  8
0
 62
7
 10
-3.36134724E+02
 20
6.24999542E+01
 40
1.00000000E+00
 50
2.70000018E+02
 51
1.38869630E+01
  0
ARC
  8
0
 62
7
 10
-3.21000050E+02
 20
7.76346741E+01
 40
1.00000000E+00
 50
2.56114080E+02
 51
0.00000000E+00
  0
CIRCLE
  8
0
 62
2
 10
-3.94000111E+02
 20
1.35500031E+02
 40
5.00000000E+00
  0
CIRCLE
  8
0
 62
2
 10
-3.24000050E+02
 20
1.35500031E+02
 40
5.00000000E+00
  0
CIRCLE
  8
0
 62
2
 10
-3.24000050E+02
 20
6.55000458E+01
 40
5.00000000E+00
  0
CIRCLE
  8
0
 62
2
 10
-3.94000080E+02
 20
6.55000458E+01
 40
5.00000000E+00
  0
CIRCLE
  8
0
 62
7
 10
-3.94000080E+02
 20
6.55000458E+01
 40
4.18000031E+00
  0
CIRCLE
  8
0
 62
7
 10
-3.94000111E+02
 20
1.35500031E+02
 40
4.18000031E+00
  0
CIRCLE
  8
0
 62
7
 10
-3.24000050E+02
 20
1.35500031E+02
 40
4.18000031E+00
  0
CIRCLE
  8
0
 62
7
 10
-3.24000050E+02
 20
6.55000458E+01
 40
4.18000031E+00
  0
CIRCLE
  8
0
 62
7
 10
-3.59000019E+02
 20
1.00500000E+02
 40
1.10000267E+01
  0
CIRCLE
  8
0
 62
2
 10
-3.59000019E+02
 20
1.00500000E+02
 40
1.01800117E+01
  0
CIRCLE
  8
0
 62
7
 10
-3.59000019E+02
 20
1.00500000E+02
 40
9.50002670E+00
  0
CIRCLE
  8
0
 62
4
 10
-3.59000019E+02
 20
1.00500000E+02
 40
1.60000000E+01
  0
LINE
  8
0
 62
4
 10
-3.43000019E+02
 20
1.09737610E+02
 11
-3.43000019E+02
 21
9.12623901E+01
  0
LINE
  8
0
 62
4
 10
-3.75000019E+02
 20
1.09737610E+02
 11
-3.75000019E+02
 21
9.12623901E+01
  0
LINE
  8
0
 62
4
 10
-3.58999958E+02
 20
1.18975222E+02
 11
-3.42999985E+02
 21
1.09737641E+02
  0
LINE
  8
0
 62
4
 10
-3.74999862E+02
 20
9.12624957E+01
 11
-3.58999834E+02
 21
8.20249178E+01
  0
LINE
  8
0
 62
4
 10
-3.58999899E+02
 20
8.20248469E+01
 11
-3.43000020E+02
 21
9.12623953E+01
  0
LINE
  8
0
 62
4
 10
-3.75000053E+02
 20
1.09737581E+02
 11
-3.58999991E+02
 21
1.18975223E+02
  0
LINE
  8
0
 62
4
 10
-4.06000019E+02
 20
1.29316799E+02
 11
-4.06089057E+02
 21
1.29537177E+02
  0
LINE
  8
0
 62
4
 10
-4.06089057E+02
 20
1.29537177E+02
 11
-4.06000019E+02
 21
1.29573151E+02
  0
LINE
  8
0
 62
4
 10
-3.81073574E+02
 20
1.56361376E+02
 11
-3.90623568E+02
 21
1.52502929E+02
  0
LINE
  8
0
  6
CENTER
 62
6
 10
-3.99079826E+02
 20
1.44232972E+02
 11
-3.78287673E+02
 21
1.52633547E+02
  0
LINE
  8
0
  6
CENTER
 62
6
 10
-3.89075136E+02
 20
1.44500258E+02
 11
-3.76976550E+02
 21
1.49388404E+02
  0
LINE
  8
0
 62
4
 10
-3.97113855E+02
 20
1.49880682E+02
 11
-3.90623568E+02
 21
1.52502929E+02
  0
LINE
  8
0
 62
4
 10
-3.88602252E+02
 20
1.47499995E+02
 11
-3.90623568E+02
 21
1.52502929E+02
  0
LINE
  8
0
 62
4
 10
-3.98379687E+02
 20
1.47499999E+02
 11
-3.97113855E+02
 21
1.49880682E+02
  0
LINE
  8
0
 62
4
 10
-3.80811350E+02
 20
1.55712348E+02
 11
-3.79884166E+02
 21
1.56086954E+02
  0
ARC
  8
0
 62
4
 10
-3.76513143E+02
 20
1.50762020E+02
 40
1.00000000E+00
 50
3.40723662E+02
 51
9.17248994E+00
  0
ARC
  8
0
 62
4
 10
-3.78311255E+02
 20
1.55212503E+02
 40
1.00000000E+00
 50
3.48275100E+01
 51
1.12000000E+02
  0
ARC
  8
0
 62
4
 10
-3.87184915E+02
 20
1.49038828E+02
 40
1.18100000E+01
 50
9.17248994E+00
 51
3.48275100E+01
  0
LINE
  8
0
 62
4
 10
-3.79734323E+02
 20
1.55716081E+02
 11
-3.78686605E+02
 21
1.56139386E+02
  0
LINE
  8
0
 62
4
 10
-3.78704155E+02
 20
1.53166325E+02
 11
-3.79884166E+02
 21
1.56086954E+02
  0
LINE
  8
0
 62
4
 10
-3.77083499E+02
 20
1.47499991E+02
 11
-3.79279009E+02
 21
1.52934069E+02
  0
LINE
  8
0
 62
4
 10
-3.79575148E+02
 20
1.52652641E+02
 11
-3.79222818E+02
 21
1.52794992E+02
  0
LINE
  8
0
 62
4
 10
-3.79279009E+02
 20
1.52934069E+02
 11
-3.77647166E+02
 21
1.53593377E+02
  0
ARC
  8
0
 62
4
 10
-3.86349856E+02
 20
1.45609688E+02
 40
1.18100000E+01
 50
2.20000000E+01
 51
4.25326990E+01
  0
ARC
  8
0
 62
4
 10
-3.86344058E+02
 20
1.45595339E+02
 40
1.18100000E+01
 50
9.28087917E+00
 51
2.20000000E+01
  0
LINE
  8
0
 62
4
 10
-3.77493342E+02
 20
1.47499991E+02
 11
-3.81073574E+02
 21
1.56361376E+02
  0
LINE
  8
0
 62
4
 10
-3.11910950E+02
 20
1.29537177E+02
 11
-3.11999989E+02
 21
1.29573151E+02
  0
LINE
  8
0
  6
CENTER
 62
6
 10
-3.28924872E+02
 20
1.44500258E+02
 11
-3.41023458E+02
 21
1.49388404E+02
  0
LINE
  8
0
  6
CENTER
 62
6
 10
-3.18920181E+02
 20
1.44232972E+02
 11
-3.39712334E+02
 21
1.52633547E+02
  0
LINE
  8
0
 62
4
 10
-3.36926433E+02
 20
1.56361376E+02
 11
-3.27376440E+02
 21
1.52502929E+02
  0
LINE
  8
0
 62
4
 10
-3.20886153E+02
 20
1.49880682E+02
 11
-3.27376440E+02
 21
1.52502929E+02
  0
LINE
  8
0
 62
4
 10
-3.29397764E+02
 20
1.47499974E+02
 11
-3.27376440E+02
 21
1.52502929E+02
  0
LINE
  8
0
 62
4
 10
-3.19620306E+02
 20
1.47499971E+02
 11
-3.20886153E+02
 21
1.49880682E+02
  0
LINE
  8
0
 62
4
 10
-3.40035668E+02
 20
1.48665750E+02
 11
-3.40962852E+02
 21
1.49040357E+02
  0
LINE
  8
0
 62
4
 10
-3.37188658E+02
 20
1.55712348E+02
 11
-3.38115842E+02
 21
1.56086954E+02
  0
ARC
  8
0
 62
4
 10
-3.41486864E+02
 20
1.50762020E+02
 40
1.00000000E+00
 50
1.70827510E+02
 51
2.48000000E+02
  0
ARC
  8
0
 62
4
 10
-3.39688753E+02
 20
1.55212503E+02
 40
1.00000000E+00
 50
6.79999999E+01
 51
1.45172490E+02
  0
LINE
  8
0
 62
4
 10
-3.40813009E+02
 20
1.49411231E+02
 11
-3.41860727E+02
 21
1.49834536E+02
  0
LINE
  8
0
 62
4
 10
-3.38265684E+02
 20
1.55716081E+02
 11
-3.39313402E+02
 21
1.56139386E+02
  0
LINE
  8
0
 62
4
 10
-3.40962852E+02
 20
1.49040357E+02
 11
-3.38115842E+02
 21
1.56086954E+02
  0
ARC
  8
0
 62
4
 10
-3.30815093E+02
 20
1.49038828E+02
 40
1.18100000E+01
 50
1.45172490E+02
 51
1.70827510E+02
  0
LINE
  8
0
 62
4
 10
-3.40916514E+02
 20
1.47499978E+02
 11
-3.40387998E+02
 21
1.48808101E+02
  0
ARC
  8
0
 62
4
 10
-3.31650152E+02
 20
1.45609688E+02
 40
1.18100000E+01
 50
1.55900933E+02
 51
1.58000000E+02
  0
ARC
  8
0
 62
4
 10
-3.31655949E+02
 20
1.45595339E+02
 40
1.18100000E+01
 50
1.58000000E+02
 51
1.70719176E+02
  0
LINE
  8
0
 62
4
 10
-3.40506671E+02
 20
1.47499978E+02
 11
-3.36926433E+02
 21
1.56361376E+02
  0
LINE
  8
0
 62
4
 10
-3.11999989E+02
 20
1.29316799E+02
 11
-3.11910950E+02
 21
1.29537177E+02
  0
CIRCLE
  8
0
 62
7
 10
3.30999981E+02
 20
1.00500000E+02
 40
2.14999847E+01
  0
LINE
  8
0
 62
4
 10
2.91620313E+02
 20
1.47499999E+02
 11
2.92886145E+02
 21
1.49880682E+02
  0
LINE
  8
0
 62
4
 10
2.92886145E+02
 20
1.49880682E+02
 11
2.99376432E+02
 21
1.52502929E+02
  0
LINE
  8
0
 62
4
 10
3.01397748E+02
 20
1.47499995E+02
 11
2.99376432E+02
 21
1.52502929E+02
  0
LINE
  8
0
  6
CENTER
 62
6
 10
3.00924864E+02
 20
1.44500258E+02
 11
3.13023450E+02
 21
1.49388404E+02
  0
ARC
  8
0
 62
4
 10
3.03655942E+02
 20
1.45595339E+02
 40
1.18100000E+01
 50
9.28087917E+00
 51
2.20000000E+01
  0
LINE
  8
0
 62
4
 10
3.10720991E+02
 20
1.52934069E+02
 11
3.12352834E+02
 21
1.53593377E+02
  0
LINE
  8
0
 62
4
 10
3.10424852E+02
 20
1.52652641E+02
 11
3.10777182E+02
 21
1.52794992E+02
  0
LINE
  8
0
 62
4
 10
3.11295845E+02
 20
1.53166325E+02
 11
3.10115834E+02
 21
1.56086954E+02
  0
LINE
  8
0
 62
4
 10
3.10265677E+02
 20
1.55716081E+02
 11
3.11313395E+02
 21
1.56139386E+02
  0
ARC
  8
0
 62
4
 10
3.02815085E+02
 20
1.49038828E+02
 40
1.18100000E+01
 50
9.17248994E+00
 51
3.48275100E+01
  0
ARC
  8
0
 62
4
 10
3.11688745E+02
 20
1.55212503E+02
 40
1.00000000E+00
 50
3.48275100E+01
 51
1.12000000E+02
  0
ARC
  8
0
 62
4
 10
3.13486857E+02
 20
1.50762020E+02
 40
1.00000000E+00
 50
3.40723662E+02
 51
9.17248994E+00
  0
LINE
  8
0
 62
4
 10
3.09188650E+02
 20
1.55712348E+02
 11
3.10115834E+02
 21
1.56086954E+02
  0
LINE
  8
0
 62
4
 10
3.08926426E+02
 20
1.56361376E+02
 11
2.99376432E+02
 21
1.52502929E+02
  0
LINE
  8
0
  6
CENTER
 62
6
 10
2.90920174E+02
 20
1.44232972E+02
 11
3.11712327E+02
 21
1.52633547E+02
  0
LINE
  8
0
 62
4
 10
3.12916501E+02
 20
1.47499991E+02
 11
3.10720991E+02
 21
1.52934069E+02
  0
ARC
  8
0
 62
4
 10
3.03650144E+02
 20
1.45609688E+02
 40
1.18100000E+01
 50
2.20000000E+01
 51
4.25326990E+01
  0
LINE
  8
0
 62
4
 10
3.12506658E+02
 20
1.47499991E+02
 11
3.08926426E+02
 21
1.56361376E+02
  0
ARC
  8
0
 62
4
 10
3.58344051E+02
 20
1.45595339E+02
 40
1.18100000E+01
 50
1.58000000E+02
 51
1.70719176E+02
  0
ARC
  8
0
 62
4
 10
3.48513136E+02
 20
1.50762020E+02
 40
1.00000000E+00
 50
1.70827510E+02
 51
2.48000000E+02
  0
ARC
  8
0
 62
4
 10
3.58349848E+02
 20
1.45609688E+02
 40
1.18100000E+01
 50
1.55900933E+02
 51
1.58000000E+02
  0
LINE
  8
0
 62
4
 10
3.49964332E+02
 20
1.48665750E+02
 11
3.49037148E+02
 21
1.49040357E+02
  0
LINE
  8
0
 62
4
 10
3.49186991E+02
 20
1.49411231E+02
 11
3.48139273E+02
 21
1.49834536E+02
  0
LINE
  8
0
 62
4
 10
3.49083486E+02
 20
1.47499978E+02
 11
3.49612002E+02
 21
1.48808101E+02
  0
LINE
  8
0
  6
CENTER
 62
6
 10
3.61075128E+02
 20
1.44500258E+02
 11
3.48976542E+02
 21
1.49388404E+02
  0
LINE
  8
0
 62
4
 10
3.70379694E+02
 20
1.47499971E+02
 11
3.69113847E+02
 21
1.49880682E+02
  0
LINE
  8
0
 62
4
 10
3.69113847E+02
 20
1.49880682E+02
 11
3.62623560E+02
 21
1.52502929E+02
  0
LINE
  8
0
 62
4
 10
3.60602236E+02
 20
1.47499974E+02
 11
3.62623560E+02
 21
1.52502929E+02
  0
LINE
  8
0
 62
4
 10
3.51734316E+02
 20
1.55716081E+02
 11
3.50686598E+02
 21
1.56139386E+02
  0
ARC
  8
0
 62
4
 10
3.50311247E+02
 20
1.55212503E+02
 40
1.00000000E+00
 50
6.79999999E+01
 51
1.45172490E+02
  0
LINE
  8
0
 62
4
 10
3.52811342E+02
 20
1.55712348E+02
 11
3.51884158E+02
 21
1.56086954E+02
  0
LINE
  8
0
  6
CENTER
 62
6
 10
3.71079819E+02
 20
1.44232972E+02
 11
3.50287666E+02
 21
1.52633547E+02
  0
LINE
  8
0
 62
4
 10
3.53073567E+02
 20
1.56361376E+02
 11
3.62623560E+02
 21
1.52502929E+02
  0
LINE
  8
0
 62
4
 10
3.49037148E+02
 20
1.49040357E+02
 11
3.51884158E+02
 21
1.56086954E+02
  0
ARC
  8
0
 62
4
 10
3.59184907E+02
 20
1.49038828E+02
 40
1.18100000E+01
 50
1.45172490E+02
 51
1.70827510E+02
  0
LINE
  8
0
 62
4
 10
3.49493329E+02
 20
1.47499978E+02
 11
3.53073567E+02
 21
1.56361376E+02
  0
LINE
  8
0
 62
4
 10
2.83999950E+02
 20
1.29316799E+02
 11
2.83910912E+02
 21
1.29537177E+02
  0
LINE
  8
0
 62
4
 10
2.83910912E+02
 20
1.29537177E+02
 11
2.83999950E+02
 21
1.29573151E+02
  0
LINE
  8
0
 62
4
 10
3.78089019E+02
 20
1.29537177E+02
 11
3.77999981E+02
 21
1.29573151E+02
  0
LINE
  8
0
 62
4
 10
3.77999981E+02
 20
1.29316799E+02
 11
3.78089019E+02
 21
1.29537177E+02
  0
CIRCLE
  8
0
 62
7
 10
2.96000011E+02
 20
6.55000458E+01
 40
4.18000031E+00
  0
CIRCLE
  8
0
 62
7
 10
2.96000011E+02
 20
1.35500031E+02
 40
4.18000031E+00
  0
CIRCLE
  8
0
 62
7
 10
3.66000072E+02
 20
1.35500031E+02
 40
4.18000031E+00
  0
CIRCLE
  8
0
 62
7
 10
3.66000042E+02
 20
6.55000458E+01
 40
4.18000031E+00
  0
CIRCLE
  8
0
 62
2
 10
3.66000042E+02
 20
6.55000458E+01
 40
5.00000000E+00
  0
CIRCLE
  8
0
 62
2
 10
2.96000011E+02
 20
6.55000458E+01
 40
5.00000000E+00
  0
CIRCLE
  8
0
 62
2
 10
2.96000011E+02
 20
1.35500031E+02
 40
5.00000000E+00
  0
CIRCLE
  8
0
 62
2
 10
3.66000072E+02
 20
1.35500031E+02
 40
5.00000000E+00
  0
ARC
  8
0
 62
7
 10
2.93000011E+02
 20
7.76346741E+01
 40
1.00000000E+00
 50
1.80000000E+02
 51
2.83885920E+02
  0
ARC
  8
0
 62
7
 10
3.08134686E+02
 20
6.24999542E+01
 40
1.00000000E+00
 50
1.66113037E+02
 51
2.69999982E+02
  0
ARC
  8
0
 62
7
 10
3.53865307E+02
 20
6.25000458E+01
 40
1.00000000E+00
 50
2.69999999E+02
 51
1.38869444E+01
  0
ARC
  8
0
 62
7
 10
3.69000072E+02
 20
7.76346741E+01
 40
1.00000000E+00
 50
2.56113897E+02
 51
2.23118003E-05
  0
ARC
  8
0
 62
7
 10
3.69000072E+02
 20
1.23365311E+02
 40
1.00000000E+00
 50
3.59721787E-05
 51
1.03886121E+02
  0
ARC
  8
0
 62
7
 10
3.53865368E+02
 20
1.38500076E+02
 40
1.00000000E+00
 50
3.46112226E+02
 51
9.00000179E+01
  0
ARC
  8
0
 62
7
 10
3.08134686E+02
 20
1.38499985E+02
 40
1.00000000E+00
 50
9.00000179E+01
 51
1.93885700E+02
  0
ARC
  8
0
 62
7
 10
2.92999981E+02
 20
1.23365356E+02
 40
1.00000000E+00
 50
7.61138610E+01
 51
1.80000000E+02
  0
CIRCLE
  8
0
 62
7
 10
3.31000011E+02
 20
1.00500099E+02
 40
2.20000000E+01
  0
ARC
  8
0
 62
7
 10
3.28750042E+02
 20
1.23389755E+02
 40
1.00000000E+00
 50
2.75613895E+02
 51
3.59721787E-05
  0
ARC
  8
0
 62
7
 10
3.08110332E+02
 20
1.02750008E+02
 40
1.00000000E+00
 50
2.70000037E+02
 51
3.54386163E+02
  0
ARC
  8
0
 62
7
 10
3.16405560E+02
 20
1.18276489E+02
 40
1.00000000E+00
 50
2.25000019E+02
 51
3.09386159E+02
  0
ARC
  8
0
 62
7
 10
3.13223553E+02
 20
1.15094475E+02
 40
1.00000000E+00
 50
3.20614515E+02
 51
4.50000407E+01
  0
ARC
  8
0
 62
7
 10
3.12998943E+02
 20
1.42899963E+02
 40
1.00000000E+00
 50
9.00000179E+01
 51
1.78725220E+02
  0
ARC
  8
0
 62
7
 10
2.88599987E+02
 20
1.18501205E+02
 40
1.00000000E+00
 50
9.12730288E+01
 51
1.80000000E+02
  0
ARC
  8
0
 62
7
 10
3.08500042E+02
 20
1.43000076E+02
 40
3.50000024E+00
 50
2.69999982E+02
 51
3.58725492E+02
  0
ARC
  8
0
 62
7
 10
2.88500011E+02
 20
1.23000061E+02
 40
3.50000024E+00
 50
2.71273065E+02
 51
2.23118003E-05
  0
CIRCLE
  8
0
 62
7
 10
2.96000011E+02
 20
1.35499985E+02
 40
8.00000000E+00
  0
ARC
  8
0
 62
7
 10
2.88000011E+02
 20
1.43500000E+02
 40
4.00000000E+00
 50
9.00000179E+01
 51
1.80000000E+02
  0
ARC
  8
0
 62
7
 10
2.96000011E+02
 20
1.35499985E+02
 40
1.15000000E+01
 50
2.56113132E+02
 51
1.38865755E+01
  0
ARC
  8
0
 62
7
 10
2.88000011E+02
 20
1.43500000E+02
 40
3.40000033E+00
 50
9.00000179E+01
 51
1.80000000E+02
  0
ARC
  8
0
 62
7
 10
2.88599987E+02
 20
1.02750008E+02
 40
1.00000000E+00
 50
1.80000000E+02
 51
2.70000037E+02
  0
ARC
  8
0
 62
7
 10
3.28750042E+02
 20
1.42899963E+02
 40
1.00000000E+00
 50
3.59721787E-05
 51
9.00000179E+01
  0
ARC
  8
0
 62
7
 10
3.06285503E+02
 20
1.28396545E+02
 40
1.00000000E+00
 50
1.45369616E+02
 51
2.25000005E+02
  0
ARC
  8
0
 62
7
 10
3.03103497E+02
 20
1.25214539E+02
 40
1.00000000E+00
 50
4.50000407E+01
 51
1.24630375E+02
  0
CIRCLE
  8
0
 62
7
 10
2.96000011E+02
 20
1.35499985E+02
 40
8.70000076E+00
  0
ARC
  8
0
 62
7
 10
3.12998882E+02
 20
5.80999756E+01
 40
1.00000000E+00
 50
1.81273031E+02
 51
2.69999982E+02
  0
ARC
  8
0
 62
7
 10
3.08110241E+02
 20
9.82500153E+01
 40
1.00000000E+00
 50
5.61389140E+00
 51
9.00000317E+01
  0
ARC
  8
0
 62
7
 10
3.28750042E+02
 20
7.76103210E+01
 40
1.00000000E+00
 50
4.96325570E-05
 51
8.43861763E+01
  0
ARC
  8
0
 62
7
 10
3.13223553E+02
 20
8.59055481E+01
 40
1.00000000E+00
 50
3.15000018E+02
 51
3.93861715E+01
  0
ARC
  8
0
 62
7
 10
3.16405560E+02
 20
8.27235413E+01
 40
1.00000000E+00
 50
5.06145108E+01
 51
1.35000036E+02
  0
ARC
  8
0
 62
7
 10
2.88600048E+02
 20
8.24989166E+01
 40
1.00000000E+00
 50
1.80000000E+02
 51
2.68725223E+02
  0
ARC
  8
0
 62
7
 10
3.08499981E+02
 20
5.80000000E+01
 40
3.50000024E+00
 50
1.27300565E+00
 51
9.00000179E+01
  0
ARC
  8
0
 62
7
 10
2.88499981E+02
 20
7.80000153E+01
 40
3.50000024E+00
 50
3.59721787E-05
 51
8.87254498E+01
  0
CIRCLE
  8
0
 62
7
 10
2.96000011E+02
 20
6.55000000E+01
 40
8.00000000E+00
  0
ARC
  8
0
 62
7
 10
2.88000011E+02
 20
5.75000305E+01
 40
4.00000000E+00
 50
1.80000014E+02
 51
2.69999982E+02
  0
ARC
  8
0
 62
7
 10
2.96000011E+02
 20
6.55000000E+01
 40
1.15000000E+01
 50
3.46113223E+02
 51
1.03886434E+02
  0
ARC
  8
0
 62
7
 10
2.88000011E+02
 20
5.75000305E+01
 40
3.40000033E+00
 50
1.80000014E+02
 51
2.69999982E+02
  0
ARC
  8
0
 62
7
 10
3.28750042E+02
 20
5.81000214E+01
 40
1.00000000E+00
 50
2.69999999E+02
 51
4.96325570E-05
  0
ARC
  8
0
 62
7
 10
2.88600048E+02
 20
9.82500153E+01
 40
1.00000000E+00
 50
9.00000317E+01
 51
1.80000014E+02
  0
ARC
  8
0
 62
7
 10
3.03103497E+02
 20
7.57854919E+01
 40
1.00000000E+00
 50
2.35369612E+02
 51
3.15000000E+02
  0
ARC
  8
0
 62
7
 10
3.06285503E+02
 20
7.26034851E+01
 40
1.00000000E+00
 50
1.35000036E+02
 51
2.14630370E+02
  0
CIRCLE
  8
0
 62
7
 10
2.96000011E+02
 20
6.55000000E+01
 40
8.70000076E+00
  0
ARC
  8
0
 62
7
 10
3.33250011E+02
 20
7.76102753E+01
 40
1.00000000E+00
 50
9.56138871E+01
 51
1.80000027E+02
  0
ARC
  8
0
 62
7
 10
3.53889660E+02
 20
9.82500153E+01
 40
1.00000000E+00
 50
9.00000454E+01
 51
1.74386172E+02
  0
ARC
  8
0
 62
7
 10
3.45594494E+02
 20
8.27235413E+01
 40
1.00000000E+00
 50
4.50000133E+01
 51
1.29386167E+02
  0
ARC
  8
0
 62
7
 10
3.48776501E+02
 20
8.59055481E+01
 40
1.00000000E+00
 50
1.40614506E+02
 51
2.25000032E+02
  0
ARC
  8
0
 62
7
 10
3.53889721E+02
 20
1.02750008E+02
 40
1.00000000E+00
 50
1.85613869E+02
 51
2.70000037E+02
  0
ARC
  8
0
 62
7
 10
3.33250011E+02
 20
1.23389709E+02
 40
1.00000000E+00
 50
1.80000041E+02
 51
2.64386168E+02
  0
ARC
  8
0
 62
7
 10
3.48776501E+02
 20
1.15094475E+02
 40
1.00000000E+00
 50
1.35000009E+02
 51
2.19386163E+02
  0
ARC
  8
0
 62
7
 10
3.45594494E+02
 20
1.18276489E+02
 40
1.00000000E+00
 50
2.30614489E+02
 51
3.15000028E+02
  0
ARC
  8
0
 62
7
 10
3.49001110E+02
 20
5.81000671E+01
 40
1.00000000E+00
 50
2.69999982E+02
 51
3.58725246E+02
  0
ARC
  8
0
 62
7
 10
3.73400097E+02
 20
8.24988251E+01
 40
1.00000000E+00
 50
2.71273065E+02
 51
2.23118003E-05
  0
ARC
  8
0
 62
7
 10
3.53500011E+02
 20
5.79999542E+01
 40
3.50000024E+00
 50
9.00000179E+01
 51
1.78725473E+02
  0
ARC
  8
0
 62
7
 10
3.73500042E+02
 20
7.79999237E+01
 40
3.50000024E+00
 50
9.12730356E+01
 51
1.80000000E+02
  0
ARC
  8
0
 62
7
 10
3.49001171E+02
 20
1.42900055E+02
 40
1.00000000E+00
 50
1.27300565E+00
 51
9.00000179E+01
  0
ARC
  8
0
 62
7
 10
3.73400005E+02
 20
1.18501114E+02
 40
1.00000000E+00
 50
3.59721787E-05
 51
8.87252040E+01
  0
ARC
  8
0
 62
7
 10
3.73500134E+02
 20
1.22999969E+02
 40
3.50000024E+00
 50
1.79999501E+02
 51
2.68725469E+02
  0
ARC
  8
0
 62
7
 10
3.53500072E+02
 20
1.43000031E+02
 40
3.50000024E+00
 50
1.81273031E+02
 51
2.69999982E+02
  0
ARC
  8
0
 62
7
 10
3.74000011E+02
 20
5.75000305E+01
 40
4.00000000E+00
 50
2.70000009E+02
 51
3.59999950E+02
  0
CIRCLE
  8
0
 62
7
 10
3.66000042E+02
 20
6.55000000E+01
 40
8.00000000E+00
  0
CIRCLE
  8
0
 62
7
 10
3.66000072E+02
 20
1.35499985E+02
 40
8.00000000E+00
  0
ARC
  8
0
 62
7
 10
3.74000042E+02
 20
1.43500000E+02
 40
4.00000000E+00
 50
2.23118003E-05
 51
8.99999773E+01
  0
ARC
  8
0
 62
7
 10
3.66000042E+02
 20
6.55000000E+01
 40
1.15000000E+01
 50
7.61130892E+01
 51
1.93886341E+02
  0
ARC
  8
0
 62
7
 10
3.74000011E+02
 20
5.75000305E+01
 40
3.40000033E+00
 50
2.70000009E+02
 51
3.59999950E+02
  0
ARC
  8
0
 62
7
 10
3.73400097E+02
 20
9.82500153E+01
 40
1.00000000E+00
 50
8.65142201E-06
 51
9.00000454E+01
  0
ARC
  8
0
 62
7
 10
3.33250011E+02
 20
5.81000671E+01
 40
1.00000000E+00
 50
1.80000027E+02
 51
2.70000009E+02
  0
ARC
  8
0
 62
7
 10
3.74000042E+02
 20
1.43500000E+02
 40
3.40000033E+00
 50
2.23118003E-05
 51
8.99999773E+01
  0
ARC
  8
0
 62
7
 10
3.55714550E+02
 20
7.26034851E+01
 40
1.00000000E+00
 50
3.25369624E+02
 51
4.50000133E+01
  0
ARC
  8
0
 62
7
 10
3.58896557E+02
 20
7.57854919E+01
 40
1.00000000E+00
 50
2.25000019E+02
 51
3.04630352E+02
  0
ARC
  8
0
 62
7
 10
3.73400005E+02
 20
1.02750008E+02
 40
1.00000000E+00
 50
2.70000054E+02
 51
3.59721787E-05
  0
ARC
  8
0
 62
7
 10
3.66000072E+02
 20
1.35499985E+02
 40
1.15000000E+01
 50
1.66113132E+02
 51
2.83886576E+02
  0
ARC
  8
0
 62
7
 10
3.33250011E+02
 20
1.42900009E+02
 40
1.00000000E+00
 50
9.00000042E+01
 51
1.80000041E+02
  0
ARC
  8
0
 62
7
 10
3.58896557E+02
 20
1.25214539E+02
 40
1.00000000E+00
 50
5.53696202E+01
 51
1.35000009E+02
  0
ARC
  8
0
 62
7
 10
3.55714550E+02
 20
1.28396545E+02
 40
1.00000000E+00
 50
3.15000045E+02
 51
3.46303655E+01
  0
CIRCLE
  8
0
 62
7
 10
3.66000042E+02
 20
6.55000000E+01
 40
8.70000076E+00
  0
CIRCLE
  8
0
 62
7
 10
3.66000072E+02
 20
1.35499985E+02
 40
8.70000076E+00
  0
ARC
  8
0
 62
7
 10
3.78122540E+02
 20
8.77654877E+01
 40
2.50000000E+00
 50
3.52308615E+02
 51
8.36271917E+01
  0
ARC
  8
0
 62
7
 10
3.78122540E+02
 20
8.52346039E+01
 40
2.50000000E+00
 50
2.70000037E+02
 51
3.52308598E+02
  0
ARC
  8
0
 62
7
 10
3.78122540E+02
 20
1.13234627E+02
 40
2.50000000E+00
 50
2.70000037E+02
 51
3.52308598E+02
  0
ARC
  8
0
 62
7
 10
3.78122540E+02
 20
1.15765511E+02
 40
2.50000000E+00
 50
3.52308615E+02
 51
8.36271917E+01
  0
LINE
  8
0
  6
CENTER
 62
2
 10
3.80555553E+02
 20
1.35500076E+02
 11
3.51309032E+02
 21
1.35500076E+02
  0
LINE
  8
0
  6
CENTER
 62
2
 10
2.95999981E+02
 20
1.49872665E+02
 11
2.95999981E+02
 21
1.20135788E+02
  0
LINE
  8
0
 62
7
 10
3.29749981E+02
 20
5.81000061E+01
 11
3.29749981E+02
 21
7.76103058E+01
  0
LINE
  8
0
 62
7
 10
2.88600079E+02
 20
9.92500305E+01
 11
3.08110241E+02
 21
9.92500305E+01
  0
LINE
  8
0
 62
7
 10
3.13930780E+02
 20
8.51982817E+01
 11
3.03810747E+02
 21
7.50782459E+01
  0
LINE
  8
0
 62
7
 10
3.15698418E+02
 20
8.34306012E+01
 11
3.05578385E+02
 21
7.33105655E+01
  0
LINE
  8
0
 62
7
 10
3.74000011E+02
 20
5.35000763E+01
 11
2.88000042E+02
 21
5.35000305E+01
  0
LINE
  8
0
  6
CENTER
 62
2
 10
3.80555553E+02
 20
6.55000763E+01
 11
3.52134930E+02
 21
6.55000763E+01
  0
LINE
  8
0
 62
7
 10
2.83999981E+02
 20
5.74999695E+01
 11
2.83999981E+02
 21
1.43499954E+02
  0
LINE
  8
0
 62
7
 10
3.12998882E+02
 20
5.71000214E+01
 11
3.49001171E+02
 21
5.71000214E+01
  0
LINE
  8
0
 62
7
 10
2.87600018E+02
 20
8.24989014E+01
 11
2.87600018E+02
 21
1.18501205E+02
  0
LINE
  8
0
 62
7
 10
2.84600018E+02
 20
5.74999695E+01
 11
2.84600018E+02
 21
1.43499954E+02
  0
LINE
  8
0
 62
7
 10
3.73399975E+02
 20
9.92500763E+01
 11
3.53889721E+02
 21
9.92500763E+01
  0
LINE
  8
0
 62
7
 10
3.32249981E+02
 20
5.81000061E+01
 11
3.32249981E+02
 21
7.76102600E+01
  0
LINE
  8
0
 62
7
 10
2.88599987E+02
 20
1.01750015E+02
 11
3.08110332E+02
 21
1.01750015E+02
  0
LINE
  8
0
 62
7
 10
3.46301705E+02
 20
8.34306788E+01
 11
3.56421740E+02
 21
7.33106448E+01
  0
LINE
  8
0
 62
7
 10
3.48069515E+02
 20
8.51986185E+01
 11
3.58189550E+02
 21
7.50785845E+01
  0
LINE
  8
0
 62
7
 10
3.73399975E+02
 20
1.01750061E+02
 11
3.53889751E+02
 21
1.01750061E+02
  0
LINE
  8
0
 62
7
 10
3.32249981E+02
 20
1.42900009E+02
 11
3.32249981E+02
 21
1.23389664E+02
  0
LINE
  8
0
 62
7
 10
3.77999981E+02
 20
5.75000153E+01
 11
3.77999981E+02
 21
1.43500000E+02
  0
LINE
  8
0
  6
CENTER
 62
2
 10
3.65999981E+02
 20
5.07628784E+01
 11
3.65999981E+02
 21
8.09070282E+01
  0
LINE
  8
0
  6
CENTER
 62
2
 10
3.65999981E+02
 20
1.49685349E+02
 11
3.65999981E+02
 21
1.20961639E+02
  0
LINE
  8
0
 62
7
 10
3.74000011E+02
 20
1.47500076E+02
 11
2.88000042E+02
 21
1.47500031E+02
  0
LINE
  8
0
 62
7
 10
3.48069589E+02
 20
1.15801518E+02
 11
3.58189667E+02
 21
1.25921595E+02
  0
LINE
  8
0
 62
7
 10
3.46301639E+02
 20
1.17569339E+02
 11
3.56421674E+02
 21
1.27689373E+02
  0
LINE
  8
0
  6
CENTER
 62
2
 10
2.95999981E+02
 20
5.08976440E+01
 11
2.95999981E+02
 21
7.95789185E+01
  0
LINE
  8
0
 62
7
 10
3.74400005E+02
 20
8.24988098E+01
 11
3.74400005E+02
 21
1.18501114E+02
  0
LINE
  8
0
 62
7
 10
3.74000011E+02
 20
5.41000671E+01
 11
2.88000042E+02
 21
5.41000214E+01
  0
LINE
  8
0
 62
7
 10
3.77400005E+02
 20
5.75000153E+01
 11
3.77400005E+02
 21
1.43500000E+02
  0
LINE
  8
0
 62
7
 10
3.74000011E+02
 20
1.46900085E+02
 11
2.88000042E+02
 21
1.46900040E+02
  0
LINE
  8
0
  6
CENTER
 62
2
 10
2.79169323E+02
 20
1.00500000E+02
 11
3.82946087E+02
 21
1.00500000E+02
  0
LINE
  8
0
  6
CENTER
 62
2
 10
3.30999981E+02
 20
1.52034729E+02
 11
3.30999981E+02
 21
5.00345306E+01
  0
LINE
  8
0
 62
7
 10
3.78400036E+02
 20
9.02500305E+01
 11
3.78000072E+02
 21
9.02500305E+01
  0
LINE
  8
0
 62
7
 10
3.78400036E+02
 20
8.27500305E+01
 11
3.78000072E+02
 21
8.27500305E+01
  0
LINE
  8
0
 62
7
 10
3.80599987E+02
 20
8.48999176E+01
 11
3.80599987E+02
 21
8.80999603E+01
  0
LINE
  8
0
 62
7
 10
3.70000011E+02
 20
7.76346130E+01
 11
3.70000011E+02
 21
7.79999084E+01
  0
LINE
  8
0
 62
7
 10
3.78400036E+02
 20
1.18250076E+02
 11
3.78000072E+02
 21
1.18250076E+02
  0
LINE
  8
0
 62
7
 10
3.78400036E+02
 20
1.10750069E+02
 11
3.78000072E+02
 21
1.10750069E+02
  0
LINE
  8
0
 62
7
 10
3.80599987E+02
 20
1.12899956E+02
 11
3.80599987E+02
 21
1.16099998E+02
  0
LINE
  8
0
  6
CENTER
 62
2
 10
3.81464123E+02
 20
1.14500069E+02
 11
3.78000072E+02
 21
1.14500069E+02
  0
LINE
  8
0
 62
7
 10
2.91999889E+02
 20
1.23365311E+02
 11
2.91999889E+02
 21
1.23000061E+02
  0
LINE
  8
0
 62
7
 10
3.13930679E+02
 20
1.15801657E+02
 11
3.03810621E+02
 21
1.25921711E+02
  0
LINE
  8
0
 62
7
 10
3.08134686E+02
 20
1.39500015E+02
 11
3.08500072E+02
 21
1.39500015E+02
  0
LINE
  8
0
 62
7
 10
3.53865398E+02
 20
1.39500107E+02
 11
3.53500103E+02
 21
1.39500107E+02
  0
LINE
  8
0
 62
7
 10
3.69999981E+02
 20
1.23365311E+02
 11
3.69999981E+02
 21
1.22999969E+02
  0
LINE
  8
0
 62
7
 10
3.00999981E+02
 20
5.40999756E+01
 11
3.00999981E+02
 21
5.34999847E+01
  0
LINE
  8
0
 62
7
 10
3.60999981E+02
 20
5.41000214E+01
 11
3.60999981E+02
 21
5.35000305E+01
  0
LINE
  8
0
 62
7
 10
3.60999981E+02
 20
1.47499985E+02
 11
3.60999981E+02
 21
1.46900040E+02
  0
LINE
  8
0
 62
7
 10
3.00999981E+02
 20
1.47499985E+02
 11
3.00999981E+02
 21
1.46899948E+02
  0
LINE
  8
0
 62
7
 10
3.12998974E+02
 20
1.43900040E+02
 11
3.49001171E+02
 21
1.43900040E+02
  0
LINE
  8
0
  6
CENTER
 62
2
 10
3.15000011E+02
 20
1.50076965E+02
 11
3.15000011E+02
 21
1.09871849E+02
  0
LINE
  8
0
  6
CENTER
 62
2
 10
3.81464123E+02
 20
8.65000305E+01
 11
3.78000072E+02
 21
8.65000305E+01
  0
LINE
  8
0
 62
7
 10
2.91999981E+02
 20
7.76346588E+01
 11
2.91999981E+02
 21
7.80000000E+01
  0
LINE
  8
0
 62
7
 10
3.08134686E+02
 20
6.15000000E+01
 11
3.08499981E+02
 21
6.15000000E+01
  0
LINE
  8
0
 62
7
 10
3.53865368E+02
 20
6.15000916E+01
 11
3.53500072E+02
 21
6.15000916E+01
  0
LINE
  8
0
 62
7
 10
3.29749981E+02
 20
1.42899963E+02
 11
3.29749981E+02
 21
1.23389755E+02
  0
LINE
  8
0
 62
7
 10
3.15698554E+02
 20
1.17569489E+02
 11
3.05578517E+02
 21
1.27689522E+02
  0
LINE
  8
0
  6
CENTER
 62
2
 10
3.41999981E+02
 20
1.12496483E+02
 11
3.41999981E+02
 21
1.50073441E+02
  0
LINE
  8
0
  6
CENTER
 62
2
 10
3.09809185E+02
 20
6.55000763E+01
 11
2.81012280E+02
 21
6.55000763E+01
  0
LINE
  8
0
  6
CENTER
 62
2
 10
3.10222179E+02
 20
1.35500076E+02
 11
2.81012280E+02
 21
1.35500076E+02
  0
LINE
  8
0
  6
CENTER
 62
6
 10
1.49998853E+00
 20
2.30234406E+02
 11
1.49998853E+00
 21
2.40499985E+02
  0
LINE
  8
0
  6
CENTER
 62
6
 10
-6.50001147E+00
 20
2.30234406E+02
 11
-6.50001147E+00
 21
2.40499985E+02
  0
LINE
  8
0
  6
PHANTOM
 10
-2.45000000E+01
 20
1.90899168E+02
 11
-2.45000000E+01
 21
3.53816712E+02
  0
ARC
  8
0
 62
7
 10
-1.13000034E+02
 20
2.52500000E+02
 40
2.00000000E+00
 50
1.80000000E+02
 51
2.70000000E+02
  0
ARC
  8
0
 62
7
 10
-1.13000034E+02
 20
3.08500000E+02
 40
2.00000000E+00
 50
9.00000002E+01
 51
1.80000000E+02
  0
LINE
  8
0
 62
7
 10
-1.13000034E+02
 20
2.50500000E+02
 11
-8.29999886E+01
 21
2.50500000E+02
  0
LINE
  8
0
 62
7
 10
-1.13000034E+02
 20
3.10500000E+02
 11
-8.29999886E+01
 21
3.10500000E+02
  0
LINE
  8
0
 62
7
 10
-1.15000034E+02
 20
2.52500000E+02
 11
-1.15000034E+02
 21
3.08500000E+02
  0
LINE
  8
0
 62
7
 10
-8.29999886E+01
 20
3.27500000E+02
 11
-8.29999886E+01
 21
2.33500031E+02
  0
LINE
  8
0
 62
7
 10
2.79999886E+01
 20
2.33499939E+02
 11
2.79999886E+01
 21
3.27499939E+02
  0
LINE
  8
0
 62
7
 10
2.79999886E+01
 20
2.36999969E+02
 11
4.99998856E+00
 21
2.36999969E+02
  0
LINE
  8
0
 62
7
 10
2.79999886E+01
 20
2.49999985E+02
 11
1.99999886E+01
 21
2.49999985E+02
  0
LINE
  8
0
 62
7
 10
2.79999886E+01
 20
2.40999985E+02
 11
4.99998856E+00
 21
2.40999985E+02
  0
LINE
  8
0
 62
7
 10
2.79999886E+01
 20
3.11000000E+02
 11
-3.89999886E+01
 21
3.11000000E+02
  0
LINE
  8
0
 62
7
 10
2.79999886E+01
 20
3.20000000E+02
 11
-3.89999886E+01
 21
3.20000000E+02
  0
LINE
  8
0
 62
7
 10
2.79999886E+01
 20
3.24000031E+02
 11
-3.89999886E+01
 21
3.24000031E+02
  0
LINE
  8
0
 62
7
 10
-1.39999989E+02
 20
2.99500061E+02
 11
-1.39999989E+02
 21
2.61500046E+02
  0
LINE
  8
0
 62
7
 10
-1.39499943E+02
 20
2.99999969E+02
 11
-1.34999943E+02
 21
2.99999969E+02
  0
LINE
  8
0
 62
7
 10
-1.34999989E+02
 20
3.01063293E+02
 11
-1.34999989E+02
 21
2.59971802E+02
  0
LINE
  8
0
 62
7
 10
-1.39499943E+02
 20
2.60999985E+02
 11
-1.34999943E+02
 21
2.60999985E+02
  0
LINE
  8
0
 62
7
 10
-1.34517479E+02
 20
2.59472243E+02
 11
-1.21000037E+02
 21
2.59000203E+02
  0
LINE
  8
0
  6
CENTER
 62
2
 10
-1.99144291E+02
 20
2.80500000E+02
 11
9.66405878E+01
 21
2.80500000E+02
  0
LINE
  8
0
 62
7
 10
8.89999714E+01
 20
3.27500000E+02
 11
2.79999886E+01
 21
3.27500000E+02
  0
LINE
  8
0
 62
7
 10
8.89999714E+01
 20
2.33500015E+02
 11
2.80000572E+01
 21
2.33500015E+02
  0
LINE
  8
0
 62
7
 10
8.89999714E+01
 20
3.27499969E+02
 11
8.89999714E+01
 21
2.33499985E+02
  0
LINE
  8
0
  6
CENTER
 62
2
 10
6.49999962E+01
 20
2.78242996E+02
 11
6.49999962E+01
 21
3.29460083E+02
  0
LINE
  8
0
 62
7
 10
9.05000172E+01
 20
3.02499969E+02
 11
8.89999714E+01
 21
3.02499969E+02
  0
LINE
  8
0
 62
7
 10
9.04999943E+01
 20
2.58500000E+02
 11
8.89999714E+01
 21
2.58500000E+02
  0
LINE
  8
0
 62
7
 10
-1.18508726E+02
 20
3.26880354E+02
 11
-8.29999899E+01
 21
3.27500162E+02
  0
LINE
  8
0
 62
7
 10
-1.18999989E+02
 20
3.26380310E+02
 11
-1.18999989E+02
 21
2.34619720E+02
  0
LINE
  8
0
 62
7
 10
-1.18508647E+02
 20
2.34119826E+02
 11
-8.29999714E+01
 21
2.33500020E+02
  0
LINE
  8
0
 62
7
 10
-1.20499943E+02
 20
2.58500015E+02
 11
-1.18999943E+02
 21
2.58500015E+02
  0
LINE
  8
0
 62
7
 10
-1.21000004E+02
 20
3.02000000E+02
 11
-1.21000004E+02
 21
2.59000031E+02
  0
LINE
  8
0
 62
7
 10
-1.20499943E+02
 20
3.02500000E+02
 11
-1.18999989E+02
 21
3.02500000E+02
  0
LINE
  8
0
  6
CENTER
 62
2
 10
9.15030580E+01
 20
3.15500000E+02
 11
-1.21524525E+02
 21
3.15500000E+02
  0
LINE
  8
0
  6
CENTER
 62
2
 10
-9.00000191E+01
 20
2.72047806E+02
 11
-9.00000191E+01
 21
2.57434433E+02
  0
LINE
  8
0
  6
CENTER
 62
2
 10
-8.18053627E+01
 20
2.64500015E+02
 11
-9.80743752E+01
 21
2.64500015E+02
  0
LINE
  8
0
 62
7
 10
-9.17321107E+01
 20
2.64499864E+02
 11
-9.08660486E+01
 21
2.65999936E+02
  0
LINE
  8
0
 62
7
 10
-9.08659706E+01
 20
2.66000015E+02
 11
-8.91338844E+01
 21
2.66000015E+02
  0
LINE
  8
0
 62
7
 10
-8.82681949E+01
 20
2.64499783E+02
 11
-8.91342341E+01
 21
2.65999816E+02
  0
LINE
  8
0
 62
7
 10
-8.91339657E+01
 20
2.62999983E+02
 11
-8.82678884E+01
 21
2.64500082E+02
  0
LINE
  8
0
 62
7
 10
-9.08659706E+01
 20
2.62999969E+02
 11
-8.91338844E+01
 21
2.62999969E+02
  0
LINE
  8
0
 62
7
 10
-9.17322860E+01
 20
2.64499980E+02
 11
-9.08662316E+01
 21
2.62999921E+02
  0
LINE
  8
0
  6
CENTER
 62
2
 10
3.49999962E+01
 20
2.72047760E+02
 11
3.49999962E+01
 21
2.57434387E+02
  0
LINE
  8
0
  6
CENTER
 62
2
 10
4.31946297E+01
 20
2.64499969E+02
 11
2.69256172E+01
 21
2.64499969E+02
  0
LINE
  8
0
 62
7
 10
3.32678444E+01
 20
2.64499868E+02
 11
3.41338912E+01
 21
2.65999914E+02
  0
LINE
  8
0
 62
7
 10
3.41340218E+01
 20
2.65999969E+02
 11
3.58661079E+01
 21
2.65999969E+02
  0
LINE
  8
0
 62
7
 10
3.67318161E+01
 20
2.64499758E+02
 11
3.58658227E+01
 21
2.65999712E+02
  0
LINE
  8
0
 62
7
 10
3.58659606E+01
 20
2.62999907E+02
 11
3.67320226E+01
 21
2.64499979E+02
  0
LINE
  8
0
 62
7
 10
3.41340218E+01
 20
2.62999924E+02
 11
3.58661079E+01
 21
2.62999924E+02
  0
LINE
  8
0
 62
7
 10
3.32677245E+01
 20
2.64499849E+02
 11
3.41337637E+01
 21
2.62999816E+02
  0
LINE
  8
0
  6
CENTER
 62
2
 10
9.19311857E+01
 20
2.45499985E+02
 11
-1.21524525E+02
 21
2.45499985E+02
  0
LINE
  8
0
 62
7
 10
-1.34517532E+02
 20
3.01528176E+02
 11
-1.21000046E+02
 21
3.02000217E+02
  0
LINE
  8
0
  6
CENTER
 62
2
 10
5.09999580E+01
 20
3.30964081E+02
 11
5.09999580E+01
 21
3.27500031E+02
  0
LINE
  8
0
 62
7
 10
5.26000710E+01
 20
3.30100006E+02
 11
4.94000282E+01
 21
3.30100006E+02
  0
LINE
  8
0
 62
7
 10
5.47499580E+01
 20
3.27899963E+02
 11
5.47499580E+01
 21
3.27500031E+02
  0
LINE
  8
0
 62
7
 10
4.72499580E+01
 20
3.27899963E+02
 11
4.72499580E+01
 21
3.27500031E+02
  0
LINE
  8
0
  6
CENTER
 62
2
 10
7.89999866E+01
 20
3.30964081E+02
 11
7.89999866E+01
 21
3.27500031E+02
  0
LINE
  8
0
 62
7
 10
8.06000996E+01
 20
3.30100006E+02
 11
7.74000568E+01
 21
3.30100006E+02
  0
LINE
  8
0
 62
7
 10
8.27499866E+01
 20
3.27899963E+02
 11
8.27499866E+01
 21
3.27500031E+02
  0
LINE
  8
0
 62
7
 10
7.52499866E+01
 20
3.27899963E+02
 11
7.52499866E+01
 21
3.27500031E+02
  0
LINE
  8
0
 62
7
 10
9.04999714E+01
 20
3.02499969E+02
 11
9.04999714E+01
 21
2.58500000E+02
  0
LINE
  8
0
 62
7
 10
9.09999638E+01
 20
3.01999969E+02
 11
9.09999638E+01
 21
2.58999969E+02
  0
LINE
  8
0
 62
7
 10
9.04999640E+01
 20
2.58499962E+02
 11
9.09999753E+01
 21
2.58999974E+02
  0
LINE
  8
0
 62
7
 10
9.04999640E+01
 20
3.02499923E+02
 11
9.09999429E+01
 21
3.01999944E+02
  0
LINE
  8
0
 62
7
 10
-1.42000156E+02
 20
2.93000000E+02
 11
-1.40000004E+02
 21
2.93000000E+02
  0
LINE
  8
0
 62
7
 10
-1.42000019E+02
 20
2.67999954E+02
 11
-1.40000034E+02
 21
2.67999954E+02
  0
LINE
  8
0
 62
7
 10
-1.51000004E+02
 20
2.91000000E+02
 11
-1.51000004E+02
 21
2.70000000E+02
  0
LINE
  8
0
 62
7
 10
-1.54000004E+02
 20
2.69999969E+02
 11
-1.54000004E+02
 21
2.91000000E+02
  0
LINE
  8
0
 62
7
 10
-1.94000034E+02
 20
2.71000122E+02
 11
-1.94000034E+02
 21
2.89999939E+02
  0
LINE
  8
0
 62
7
 10
-1.57000004E+02
 20
2.69500000E+02
 11
-1.57000004E+02
 21
2.91500031E+02
  0
LINE
  8
0
 62
7
 10
-1.92500065E+02
 20
2.91500031E+02
 11
-1.82000019E+02
 21
2.91500031E+02
  0
LINE
  8
0
 62
7
 10
-1.92500034E+02
 20
2.69500000E+02
 11
-1.92500034E+02
 21
2.91500031E+02
  0
LINE
  8
0
 62
7
 10
-1.93999991E+02
 20
2.89999906E+02
 11
-1.92499957E+02
 21
2.91499940E+02
  0
LINE
  8
0
 62
2
 10
-1.93320042E+02
 20
2.90680023E+02
 11
-1.82000019E+02
 21
2.90680023E+02
  0
LINE
  8
0
 62
7
 10
-1.92500065E+02
 20
2.69500000E+02
 11
-1.82000019E+02
 21
2.69500000E+02
  0
LINE
  8
0
 62
7
 10
-1.94000003E+02
 20
2.71000069E+02
 11
-1.92500012E+02
 21
2.69500078E+02
  0
LINE
  8
0
 62
2
 10
-1.93320042E+02
 20
2.70320023E+02
 11
-1.82000019E+02
 21
2.70320023E+02
  0
LINE
  8
0
 62
7
 10
-1.54000019E+02
 20
2.91000000E+02
 11
-1.44000172E+02
 21
2.91000000E+02
  0
LINE
  8
0
 62
7
 10
-1.54000019E+02
 20
2.70000000E+02
 11
-1.44000065E+02
 21
2.70000000E+02
  0
LINE
  8
0
 62
7
 10
-1.44000066E+02
 20
2.69999993E+02
 11
-1.42000021E+02
 21
2.67999948E+02
  0
LINE
  8
0
 62
7
 10
-1.44000130E+02
 20
2.91000101E+02
 11
-1.42000171E+02
 21
2.93000060E+02
  0
LINE
  8
0
 62
7
 10
-1.57000004E+02
 20
2.90680023E+02
 11
-1.54000004E+02
 21
2.90680023E+02
  0
LINE
  8
0
 62
7
 10
-1.57000004E+02
 20
2.70320023E+02
 11
-1.54000004E+02
 21
2.70320023E+02
  0
LINE
  8
0
  6
CENTER
 62
2
 10
-9.90000191E+01
 20
2.77394196E+02
 11
-9.90000191E+01
 21
3.05323303E+02
  0
LINE
  8
0
  6
CENTER
 62
2
 10
-8.52976875E+01
 20
2.91500000E+02
 11
-1.13094944E+02
 21
2.91500000E+02
  0
LINE
  8
0
  6
CENTER
 62
2
 10
7.87023277E+01
 20
2.91499969E+02
 11
5.09050713E+01
 21
2.91499969E+02
  0
ARC
  8
0
 62
7
 10
-1.34499958E+02
 20
3.01028320E+02
 40
5.00000000E-01
 50
9.20007356E+01
 51
1.79999951E+02
  0
ARC
  8
0
 62
7
 10
-1.18500019E+02
 20
3.26380310E+02
 40
5.00000000E-01
 50
9.10002017E+01
 51
1.79999909E+02
  0
ARC
  8
0
 62
7
 10
-1.18500019E+02
 20
2.34619720E+02
 40
5.00000000E-01
 50
1.79999909E+02
 51
2.68999624E+02
  0
ARC
  8
0
 62
7
 10
-1.20499989E+02
 20
2.59000015E+02
 40
5.00000000E-01
 50
1.79999909E+02
 51
2.69999891E+02
  0
ARC
  8
0
 62
7
 10
-1.20499989E+02
 20
3.02000000E+02
 40
5.00000000E-01
 50
8.99999274E+01
 51
1.79999909E+02
  0
ARC
  8
0
 62
7
 10
-9.00000191E+01
 20
2.64500015E+02
 40
5.00000000E+00
 50
0.00000000E+00
 51
1.79999964E+02
  0
ARC
  8
0
 62
7
 10
-9.00000191E+01
 20
2.64500015E+02
 40
5.00000000E+00
 50
1.79999964E+02
 51
1.00179127E-05
  0
ARC
  8
0
 62
7
 10
3.49999962E+01
 20
2.64499969E+02
 40
5.00000000E+00
 50
0.00000000E+00
 51
1.79999964E+02
  0
ARC
  8
0
 62
7
 10
3.49999962E+01
 20
2.64499969E+02
 40
5.00000000E+00
 50
1.79999964E+02
 51
1.00179127E-05
  0
CIRCLE
  8
0
 62
7
 10
3.49999962E+01
 20
2.64499969E+02
 40
2.59999990E+00
  0
CIRCLE
  8
0
 62
7
 10
-9.00000191E+01
 20
2.64500015E+02
 40
2.59999990E+00
  0
ARC
  8
0
 62
7
 10
-1.39499943E+02
 20
2.99500031E+02
 40
5.00000000E-01
 50
8.99999818E+01
 51
1.79999951E+02
  0
ARC
  8
0
 62
7
 10
-1.39499943E+02
 20
2.61500061E+02
 40
5.00000000E-01
 50
1.79999977E+02
 51
2.69999974E+02
  0
ARC
  8
0
 62
7
 10
-1.34499958E+02
 20
2.59971771E+02
 40
5.00000000E-01
 50
1.79999977E+02
 51
2.67999192E+02
  0
ARC
  8
0
 62
7
 10
5.22653999E+01
 20
3.27622498E+02
 40
2.50000000E+00
 50
1.36603783E-05
 51
8.23085878E+01
  0
ARC
  8
0
 62
7
 10
4.97345161E+01
 20
3.27622498E+02
 40
2.50000000E+00
 50
8.23085741E+01
 51
1.73627152E+02
  0
ARC
  8
0
 62
7
 10
8.02654285E+01
 20
3.27622498E+02
 40
2.50000000E+00
 50
1.36603783E-05
 51
8.23085878E+01
  0
ARC
  8
0
 62
7
 10
7.77345448E+01
 20
3.27622498E+02
 40
2.50000000E+00
 50
8.23085741E+01
 51
1.73627152E+02
  0
CIRCLE
  8
0
 62
7
 10
-9.89999886E+01
 20
2.91500092E+02
 40
9.25000000E+00
  0
CIRCLE
  8
0
 62
2
 10
-9.90000191E+01
 20
2.91500031E+02
 40
1.04775009E+01
  0
CIRCLE
  8
0
 62
7
 10
-9.89999886E+01
 20
2.91500031E+02
 40
1.10000000E+01
  0
CIRCLE
  8
0
 62
7
 10
6.50000267E+01
 20
2.91500061E+02
 40
9.25000000E+00
  0
CIRCLE
  8
0
 62
2
 10
6.49999962E+01
 20
2.91500000E+02
 40
1.04775009E+01
  0
CIRCLE
  8
0
 62
7
 10
6.50000267E+01
 20
2.91500000E+02
 40
1.10000000E+01
  0
LINE
  8
0
 62
4
 10
-1.80570953E+02
 20
2.80500000E+02
 11
-1.70429085E+02
 21
2.80500000E+02
  0
ARC
  8
0
 62
4
 10
-1.92106806E+02
 20
2.72500000E+02
 40
2.31067870E+01
 50
3.39743797E+02
 51
2.02562028E+01
  0
ARC
  8
0
 62
4
 10
-1.92106806E+02
 20
2.88500000E+02
 40
2.31067870E+01
 50
3.39743797E+02
 51
2.02562028E+01
  0
ARC
  8
0
 62
4
 10
-1.58893232E+02
 20
2.72500000E+02
 40
2.31067870E+01
 50
1.59743797E+02
 51
2.00256203E+02
  0
ARC
  8
0
 62
4
 10
-1.58893232E+02
 20
2.88500000E+02
 40
2.31067870E+01
 50
1.59743797E+02
 51
2.00256203E+02
  0
LINE
  8
0
 62
4
 10
-1.69000019E+02
 20
2.96500000E+02
 11
-1.69000019E+02
 21
2.64500000E+02
  0
LINE
  8
0
 62
4
 10
-1.82000019E+02
 20
2.96500000E+02
 11
-1.82000019E+02
 21
2.64500000E+02
  0
LINE
  8
0
 62
4
 10
-1.82000019E+02
 20
2.96500000E+02
 11
-1.69000019E+02
 21
2.96500000E+02
  0
LINE
  8
0
 62
4
 10
-1.82000019E+02
 20
2.64500000E+02
 11
-1.69000019E+02
 21
2.64500000E+02
  0
LINE
  8
0
 62
7
 10
-1.69000019E+02
 20
2.91500031E+02
 11
-1.57000004E+02
 21
2.91500031E+02
  0
LINE
  8
0
 62
2
 10
-1.69000019E+02
 20
2.90680023E+02
 11
-1.57000004E+02
 21
2.90680023E+02
  0
LINE
  8
0
 62
7
 10
-1.69000019E+02
 20
2.69500000E+02
 11
-1.57000004E+02
 21
2.69500000E+02
  0
LINE
  8
0
 62
2
 10
-1.69000019E+02
 20
2.70320023E+02
 11
-1.57000004E+02
 21
2.70320023E+02
  0
LINE
  8
0
 62
6
 10
-1.82679606E+01
 20
2.64589924E+02
 11
-2.17320622E+01
 21
2.58589924E+02
  0
LINE
  8
0
 62
4
 10
-1.00000115E+01
 20
2.63089924E+02
 11
-1.91339861E+01
 21
2.63089924E+02
  0
LINE
  8
0
  6
CENTER
 62
6
 10
2.49999885E+01
 20
2.61589924E+02
 11
-2.20000115E+01
 21
2.61589924E+02
  0
LINE
  8
0
 62
4
 10
-1.00000115E+01
 20
2.60089924E+02
 11
-2.08660369E+01
 21
2.60089924E+02
  0
LINE
  8
0
 62
6
 10
-3.07320394E+01
 20
2.96410061E+02
 11
-2.72679378E+01
 21
3.02410061E+02
  0
LINE
  8
0
 62
4
 10
-3.89999885E+01
 20
2.97910061E+02
 11
-2.98660139E+01
 21
2.97910061E+02
  0
LINE
  8
0
  6
CENTER
 62
6
 10
-7.39999885E+01
 20
2.99410061E+02
 11
-2.69999885E+01
 21
2.99410061E+02
  0
LINE
  8
0
 62
4
 10
-3.89999885E+01
 20
3.00910061E+02
 11
-2.81339631E+01
 21
3.00910061E+02
  0
LINE
  8
0
 62
6
 10
2.99998853E+00
 20
2.33664602E+02
 11
2.99998853E+00
 21
2.35031930E+02
  0
LINE
  8
0
 62
6
 10
-1.14734739E-05
 20
2.33664602E+02
 11
-1.14734739E-05
 21
2.35031930E+02
  0
LINE
  8
0
 62
4
 10
3.49998853E+00
 20
2.34160160E+02
 11
3.49998853E+00
 21
2.35031930E+02
  0
LINE
  8
0
 62
4
 10
-5.00011473E-01
 20
2.34160160E+02
 11
-5.00011473E-01
 21
2.35031930E+02
  0
LINE
  8
0
 62
4
 10
4.99998856E+00
 20
2.35031930E+02
 11
4.99998856E+00
 21
2.48876436E+02
  0
LINE
  8
0
 62
4
 10
-1.00000114E+01
 20
2.35031930E+02
 11
-1.00000114E+01
 21
2.64420135E+02
  0
LINE
  8
0
  6
CENTER
 62
6
 10
1.24999886E+01
 20
2.57612159E+02
 11
1.24999886E+01
 21
2.62612159E+02
  0
LINE
  8
0
 62
4
 10
-5.00001144E+00
 20
2.64193504E+02
 11
-5.00001144E+00
 21
2.63549596E+02
  0
LINE
  8
0
 62
4
 10
1.99999886E+01
 20
2.48876436E+02
 11
1.99999886E+01
 21
2.62322338E+02
  0
LINE
  8
0
 62
4
 10
-3.50001144E+00
 20
2.64193504E+02
 11
-3.50001144E+00
 21
2.63918659E+02
  0
LINE
  8
0
 62
4
 10
2.14999886E+01
 20
2.60114264E+02
 11
2.14999886E+01
 21
2.63062820E+02
  0
LINE
  8
0
 62
4
 10
4.99998856E+00
 20
2.35031930E+02
 11
-1.00000114E+01
 21
2.35031930E+02
  0
LINE
  8
0
 62
4
 10
4.99998856E+00
 20
2.42386149E+02
 11
-1.00000114E+01
 21
2.42386149E+02
  0
LINE
  8
0
 62
4
 10
1.99999886E+01
 20
2.48876436E+02
 11
-1.00000114E+01
 21
2.48876436E+02
  0
LINE
  8
0
 62
4
 10
1.99999886E+01
 20
2.58426429E+02
 11
-1.00000114E+01
 21
2.58426429E+02
  0
LINE
  8
0
 62
4
 10
1.99999886E+01
 20
2.64420135E+02
 11
8.14873318E+00
 21
2.64420135E+02
  0
POLYLINE
  8
0
 62
4
 66
1
  0
VERTEX
  8
0
 62
4
 10
-5.00011470E-01
 20
2.34160160E+02
  0
VERTEX
  8
0
 62
4
 10
-4.91960059E-01
 20
2.34093001E+02
  0
VERTEX
  8
0
 62
4
 10
-4.67870649E-01
 20
2.34026383E+02
  0
VERTEX
  8
0
 62
4
 10
-4.27937193E-01
 20
2.33960842E+02
  0
VERTEX
  8
0
 62
4
 10
-3.72481214E-01
 20
2.33896905E+02
  0
VERTEX
  8
0
 62
4
 10
-3.01949209E-01
 20
2.33835089E+02
  0
VERTEX
  8
0
 62
4
 10
-2.16909062E-01
 20
2.33775889E+02
  0
VERTEX
  8
0
 62
4
 10
-1.18045464E-01
 20
2.33719784E+02
  0
VERTEX
  8
0
 62
4
 10
-6.15440781E-03
 20
2.33667224E+02
  0
VERTEX
  8
0
 62
4
 10
1.17863226E-01
 20
2.33618633E+02
  0
VERTEX
  8
0
 62
4
 10
2.53008919E-01
 20
2.33574402E+02
  0
VERTEX
  8
0
 62
4
 10
3.98194559E-01
 20
2.33534887E+02
  0
VERTEX
  8
0
 62
4
 10
5.52251197E-01
 20
2.33500406E+02
  0
VERTEX
  8
0
 62
4
 10
7.13938458E-01
 20
2.33471238E+02
  0
VERTEX
  8
0
 62
4
 10
8.81954532E-01
 20
2.33447616E+02
  0
VERTEX
  8
0
 62
4
 10
1.05494665E+00
 20
2.33429731E+02
  0
VERTEX
  8
0
 62
4
 10
1.23152199E+00
 20
2.33417727E+02
  0
VERTEX
  8
0
 62
4
 10
1.41025886E+00
 20
2.33411701E+02
  0
VERTEX
  8
0
 62
4
 10
1.58971818E+00
 20
2.33411701E+02
  0
VERTEX
  8
0
 62
4
 10
1.76845505E+00
 20
2.33417727E+02
  0
VERTEX
  8
0
 62
4
 10
1.94503039E+00
 20
2.33429731E+02
  0
VERTEX
  8
0
 62
4
 10
2.11802251E+00
 20
2.33447616E+02
  0
VERTEX
  8
0
 62
4
 10
2.28603858E+00
 20
2.33471238E+02
  0
VERTEX
  8
0
 62
4
 10
2.44772584E+00
 20
2.33500406E+02
  0
VERTEX
  8
0
 62
4
 10
2.60178248E+00
 20
2.33534887E+02
  0
VERTEX
  8
0
 62
4
 10
2.74696812E+00
 20
2.33574402E+02
  0
VERTEX
  8
0
 62
4
 10
2.88211382E+00
 20
2.33618633E+02
  0
VERTEX
  8
0
 62
4
 10
3.00613145E+00
 20
2.33667224E+02
  0
VERTEX
  8
0
 62
4
 10
3.11802251E+00
 20
2.33719784E+02
  0
VERTEX
  8
0
 62
4
 10
3.21688611E+00
 20
2.33775889E+02
  0
VERTEX
  8
0
 62
4
 10
3.30192626E+00
 20
2.33835089E+02
  0
VERTEX
  8
0
 62
4
 10
3.37245827E+00
 20
2.33896905E+02
  0
VERTEX
  8
0
 62
4
 10
3.42791425E+00
 20
2.33960842E+02
  0
VERTEX
  8
0
 62
4
 10
3.46784770E+00
 20
2.34026383E+02
  0
VERTEX
  8
0
 62
4
 10
3.49193712E+00
 20
2.34093001E+02
  0
VERTEX
  8
0
 62
4
 10
3.49998853E+00
 20
2.34160160E+02
  0
SEQEND
  8
0
  0
LINE
  8
0
 62
6
 10
-8.00001147E+00
 20
2.33664602E+02
 11
-8.00001147E+00
 21
2.35031930E+02
  0
LINE
  8
0
 62
4
 10
-8.50001147E+00
 20
2.34160160E+02
 11
-8.50001147E+00
 21
2.35031930E+02
  0
POLYLINE
  8
0
 62
4
 66
1
  0
VERTEX
  8
0
 62
4
 10
-8.50001147E+00
 20
2.34160160E+02
  0
VERTEX
  8
0
 62
4
 10
-8.49196006E+00
 20
2.34093001E+02
  0
VERTEX
  8
0
 62
4
 10
-8.46787065E+00
 20
2.34026383E+02
  0
VERTEX
  8
0
 62
4
 10
-8.42793719E+00
 20
2.33960842E+02
  0
VERTEX
  8
0
 62
4
 10
-8.37248121E+00
 20
2.33896905E+02
  0
VERTEX
  8
0
 62
4
 10
-8.30194921E+00
 20
2.33835089E+02
  0
VERTEX
  8
0
 62
4
 10
-8.21690906E+00
 20
2.33775889E+02
  0
VERTEX
  8
0
 62
4
 10
-8.11804546E+00
 20
2.33719784E+02
  0
VERTEX
  8
0
 62
4
 10
-8.00615441E+00
 20
2.33667224E+02
  0
VERTEX
  8
0
 62
4
 10
-7.88213677E+00
 20
2.33618633E+02
  0
VERTEX
  8
0
 62
4
 10
-7.74699108E+00
 20
2.33574402E+02
  0
VERTEX
  8
0
 62
4
 10
-7.60180544E+00
 20
2.33534887E+02
  0
VERTEX
  8
0
 62
4
 10
-7.44774880E+00
 20
2.33500406E+02
  0
VERTEX
  8
0
 62
4
 10
-7.28606154E+00
 20
2.33471238E+02
  0
VERTEX
  8
0
 62
4
 10
-7.11804547E+00
 20
2.33447616E+02
  0
VERTEX
  8
0
 62
4
 10
-6.94505335E+00
 20
2.33429731E+02
  0
VERTEX
  8
0
 62
4
 10
-6.76847801E+00
 20
2.33417727E+02
  0
VERTEX
  8
0
 62
4
 10
-6.58974114E+00
 20
2.33411701E+02
  0
VERTEX
  8
0
 62
4
 10
-6.41028182E+00
 20
2.33411701E+02
  0
VERTEX
  8
0
 62
4
 10
-6.23154495E+00
 20
2.33417727E+02
  0
VERTEX
  8
0
 62
4
 10
-6.05496961E+00
 20
2.33429731E+02
  0
VERTEX
  8
0
 62
4
 10
-5.88197749E+00
 20
2.33447616E+02
  0
VERTEX
  8
0
 62
4
 10
-5.71396142E+00
 20
2.33471238E+02
  0
VERTEX
  8
0
 62
4
 10
-5.55227416E+00
 20
2.33500406E+02
  0
VERTEX
  8
0
 62
4
 10
-5.39821752E+00
 20
2.33534887E+02
  0
VERTEX
  8
0
 62
4
 10
-5.25303188E+00
 20
2.33574402E+02
  0
VERTEX
  8
0
 62
4
 10
-5.11788618E+00
 20
2.33618633E+02
  0
VERTEX
  8
0
 62
4
 10
-4.99386855E+00
 20
2.33667224E+02
  0
VERTEX
  8
0
 62
4
 10
-4.88197749E+00
 20
2.33719784E+02
  0
VERTEX
  8
0
 62
4
 10
-4.78311389E+00
 20
2.33775889E+02
  0
VERTEX
  8
0
 62
4
 10
-4.69807374E+00
 20
2.33835089E+02
  0
VERTEX
  8
0
 62
4
 10
-4.62754173E+00
 20
2.33896905E+02
  0
VERTEX
  8
0
 62
4
 10
-4.57208575E+00
 20
2.33960842E+02
  0
VERTEX
  8
0
 62
4
 10
-4.53215230E+00
 20
2.34026383E+02
  0
VERTEX
  8
0
 62
4
 10
-4.50806288E+00
 20
2.34093001E+02
  0
VERTEX
  8
0
 62
4
 10
-4.50001147E+00
 20
2.34160160E+02
  0
SEQEND
  8
0
  0
LINE
  8
0
 62
6
 10
-5.00001147E+00
 20
2.33664602E+02
 11
-5.00001147E+00
 21
2.35031930E+02
  0
LINE
  8
0
 62
4
 10
-4.50001147E+00
 20
2.34160160E+02
 11
-4.50001147E+00
 21
2.35031930E+02
  0
LINE
  8
0
 62
4
 10
8.49988556E-01
 20
2.62829325E+02
 11
8.49988556E-01
 21
2.63407456E+02
  0
LINE
  8
0
 62
4
 10
9.14998856E+00
 20
2.61775612E+02
 11
9.14998856E+00
 21
2.63407456E+02
  0
POLYLINE
  8
0
 62
4
 66
1
  0
VERTEX
  8
0
 62
4
 10
1.29897047E+00
 20
2.61072292E+02
  0
VERTEX
  8
0
 62
4
 10
1.48065085E+00
 20
2.60951753E+02
  0
VERTEX
  8
0
 62
4
 10
1.69023394E+00
 20
2.60837746E+02
  0
VERTEX
  8
0
 62
4
 10
1.92605810E+00
 20
2.60731175E+02
  0
VERTEX
  8
0
 62
4
 10
2.18625360E+00
 20
2.60632884E+02
  0
VERTEX
  8
0
 62
4
 10
2.46875752E+00
 20
2.60543653E+02
  0
VERTEX
  8
0
 62
4
 10
2.77133006E+00
 20
2.60464190E+02
  0
VERTEX
  8
0
 62
4
 10
3.09157229E+00
 20
2.60395125E+02
  0
VERTEX
  8
0
 62
4
 10
3.42694520E+00
 20
2.60337004E+02
  0
VERTEX
  8
0
 62
4
 10
3.77478984E+00
 20
2.60290289E+02
  0
VERTEX
  8
0
 62
4
 10
4.13234834E+00
 20
2.60255351E+02
  0
VERTEX
  8
0
 62
4
 10
4.49678584E+00
 20
2.60232465E+02
  0
VERTEX
  8
0
 62
4
 10
4.86521293E+00
 20
2.60221815E+02
  0
VERTEX
  8
0
 62
4
 10
5.23470858E+00
 20
2.60223483E+02
  0
VERTEX
  8
0
 62
4
 10
5.60234327E+00
 20
2.60237458E+02
  0
VERTEX
  8
0
 62
4
 10
5.96520226E+00
 20
2.60263627E+02
  0
VERTEX
  8
0
 62
4
 10
6.32040864E+00
 20
2.60301784E+02
  0
VERTEX
  8
0
 62
4
 10
6.66514620E+00
 20
2.60351626E+02
  0
VERTEX
  8
0
 62
4
 10
6.99668173E+00
 20
2.60412759E+02
  0
VERTEX
  8
0
 62
4
 10
7.31238668E+00
 20
2.60484696E+02
  0
VERTEX
  8
0
 62
4
 10
7.60975801E+00
 20
2.60566868E+02
  0
VERTEX
  8
0
 62
4
 10
7.88643804E+00
 20
2.60658624E+02
  0
VERTEX
  8
0
 62
4
 10
8.14023314E+00
 20
2.60759236E+02
  0
VERTEX
  8
0
 62
4
 10
8.36913113E+00
 20
2.60867905E+02
  0
VERTEX
  8
0
 62
4
 10
8.57131721E+00
 20
2.60983772E+02
  0
VERTEX
  8
0
 62
4
 10
8.74518837E+00
 20
2.61105917E+02
  0
VERTEX
  8
0
 62
4
 10
8.88936608E+00
 20
2.61233371E+02
  0
VERTEX
  8
0
 62
4
 10
9.00270726E+00
 20
2.61365124E+02
  0
VERTEX
  8
0
 62
4
 10
9.08431327E+00
 20
2.61500132E+02
  0
VERTEX
  8
0
 62
4
 10
9.13353713E+00
 20
2.61637324E+02
  0
VERTEX
  8
0
 62
4
 10
9.14998856E+00
 20
2.61775612E+02
  0
SEQEND
  8
0
  0
POLYLINE
  8
0
 62
4
 66
1
  0
VERTEX
  8
0
 62
4
 10
9.14998856E+00
 20
2.63407456E+02
  0
VERTEX
  8
0
 62
4
 10
9.13419656E+00
 20
2.63542950E+02
  0
VERTEX
  8
0
 62
4
 10
9.08694073E+00
 20
2.63677412E+02
  0
VERTEX
  8
0
 62
4
 10
9.00858074E+00
 20
2.63809821E+02
  0
VERTEX
  8
0
 62
4
 10
8.89971294E+00
 20
2.63939166E+02
  0
VERTEX
  8
0
 62
4
 10
8.76116588E+00
 20
2.64064466E+02
  0
VERTEX
  8
0
 62
4
 10
8.59399399E+00
 20
2.64184765E+02
  0
VERTEX
  8
0
 62
4
 10
8.39946954E+00
 20
2.64299148E+02
  0
VERTEX
  8
0
 62
4
 10
8.17907300E+00
 20
2.64406745E+02
  0
VERTEX
  8
0
 62
4
 10
7.93448170E+00
 20
2.64506736E+02
  0
VERTEX
  8
0
 62
4
 10
7.66755714E+00
 20
2.64598362E+02
  0
VERTEX
  8
0
 62
4
 10
7.38033077E+00
 20
2.64680924E+02
  0
VERTEX
  8
0
 62
4
 10
7.07498856E+00
 20
2.64753794E+02
  0
VERTEX
  8
0
 62
4
 10
6.75385434E+00
 20
2.64816418E+02
  0
VERTEX
  8
0
 62
4
 10
6.41937215E+00
 20
2.64868318E+02
  0
VERTEX
  8
0
 62
4
 10
6.07408759E+00
 20
2.64909101E+02
  0
VERTEX
  8
0
 62
4
 10
5.72062849E+00
 20
2.64938455E+02
  0
VERTEX
  8
0
 62
4
 10
5.36168489E+00
 20
2.64956158E+02
  0
VERTEX
  8
0
 62
4
 10
4.99998856E+00
 20
2.64962073E+02
  0
VERTEX
  8
0
 62
4
 10
4.63829222E+00
 20
2.64956158E+02
  0
VERTEX
  8
0
 62
4
 10
4.27934862E+00
 20
2.64938455E+02
  0
VERTEX
  8
0
 62
4
 10
3.92588952E+00
 20
2.64909101E+02
  0
VERTEX
  8
0
 62
4
 10
3.58060496E+00
 20
2.64868318E+02
  0
VERTEX
  8
0
 62
4
 10
3.24612277E+00
 20
2.64816418E+02
  0
VERTEX
  8
0
 62
4
 10
2.92498856E+00
 20
2.64753794E+02
  0
VERTEX
  8
0
 62
4
 10
2.61964635E+00
 20
2.64680924E+02
  0
VERTEX
  8
0
 62
4
 10
2.33241998E+00
 20
2.64598362E+02
  0
VERTEX
  8
0
 62
4
 10
2.06549541E+00
 20
2.64506736E+02
  0
VERTEX
  8
0
 62
4
 10
1.82090412E+00
 20
2.64406745E+02
  0
VERTEX
  8
0
 62
4
 10
1.60050757E+00
 20
2.64299148E+02
  0
VERTEX
  8
0
 62
4
 10
1.40598313E+00
 20
2.64184765E+02
  0
VERTEX
  8
0
 62
4
 10
1.23881124E+00
 20
2.64064466E+02
  0
VERTEX
  8
0
 62
4
 10
1.10026418E+00
 20
2.63939166E+02
  0
VERTEX
  8
0
 62
4
 10
9.91396380E-01
 20
2.63809821E+02
  0
VERTEX
  8
0
 62
4
 10
9.13036384E-01
 20
2.63677412E+02
  0
VERTEX
  8
0
 62
4
 10
8.65780562E-01
 20
2.63542950E+02
  0
VERTEX
  8
0
 62
4
 10
8.49988560E-01
 20
2.63407456E+02
  0
VERTEX
  8
0
 62
4
 10
8.65780563E-01
 20
2.63271962E+02
  0
VERTEX
  8
0
 62
4
 10
9.13036386E-01
 20
2.63137500E+02
  0
VERTEX
  8
0
 62
4
 10
9.91396383E-01
 20
2.63005091E+02
  0
VERTEX
  8
0
 62
4
 10
1.10026419E+00
 20
2.62875746E+02
  0
VERTEX
  8
0
 62
4
 10
1.23881125E+00
 20
2.62750446E+02
  0
VERTEX
  8
0
 62
4
 10
1.40598314E+00
 20
2.62630147E+02
  0
VERTEX
  8
0
 62
4
 10
1.60050758E+00
 20
2.62515764E+02
  0
VERTEX
  8
0
 62
4
 10
1.82090413E+00
 20
2.62408167E+02
  0
VERTEX
  8
0
 62
4
 10
2.06549542E+00
 20
2.62308176E+02
  0
VERTEX
  8
0
 62
4
 10
2.33241999E+00
 20
2.62216550E+02
  0
VERTEX
  8
0
 62
4
 10
2.61964636E+00
 20
2.62133988E+02
  0
VERTEX
  8
0
 62
4
 10
2.92498857E+00
 20
2.62061118E+02
  0
VERTEX
  8
0
 62
4
 10
3.24612278E+00
 20
2.61998494E+02
  0
VERTEX
  8
0
 62
4
 10
3.58060497E+00
 20
2.61946594E+02
  0
VERTEX
  8
0
 62
4
 10
3.92588953E+00
 20
2.61905811E+02
  0
VERTEX
  8
0
 62
4
 10
4.27934863E+00
 20
2.61876457E+02
  0
VERTEX
  8
0
 62
4
 10
4.63829224E+00
 20
2.61858754E+02
  0
VERTEX
  8
0
 62
4
 10
4.99998857E+00
 20
2.61852839E+02
  0
VERTEX
  8
0
 62
4
 10
5.36168490E+00
 20
2.61858754E+02
  0
VERTEX
  8
0
 62
4
 10
5.72062851E+00
 20
2.61876457E+02
  0
VERTEX
  8
0
 62
4
 10
6.07408761E+00
 20
2.61905811E+02
  0
VERTEX
  8
0
 62
4
 10
6.41937216E+00
 20
2.61946594E+02
  0
VERTEX
  8
0
 62
4
 10
6.75385435E+00
 20
2.61998494E+02
  0
VERTEX
  8
0
 62
4
 10
7.07498857E+00
 20
2.62061118E+02
  0
VERTEX
  8
0
 62
4
 10
7.38033078E+00
 20
2.62133988E+02
  0
VERTEX
  8
0
 62
4
 10
7.66755715E+00
 20
2.62216550E+02
  0
VERTEX
  8
0
 62
4
 10
7.93448171E+00
 20
2.62308176E+02
  0
VERTEX
  8
0
 62
4
 10
8.17907301E+00
 20
2.62408167E+02
  0
VERTEX
  8
0
 62
4
 10
8.39946955E+00
 20
2.62515764E+02
  0
VERTEX
  8
0
 62
4
 10
8.59399399E+00
 20
2.62630147E+02
  0
VERTEX
  8
0
 62
4
 10
8.76116588E+00
 20
2.62750446E+02
  0
VERTEX
  8
0
 62
4
 10
8.89971294E+00
 20
2.62875746E+02
  0
VERTEX
  8
0
 62
4
 10
9.00858074E+00
 20
2.63005091E+02
  0
VERTEX
  8
0
 62
4
 10
9.08694074E+00
 20
2.63137500E+02
  0
VERTEX
  8
0
 62
4
 10
9.13419656E+00
 20
2.63271962E+02
  0
VERTEX
  8
0
 62
4
 10
9.14998856E+00
 20
2.63407456E+02
  0
SEQEND
  8
0
  0
ARC
  8
0
 62
4
 10
1.06166958E+01
 20
2.48987314E+02
 40
1.61228529E+01
 50
1.03811346E+02
 51
1.17258955E+02
  0
ARC
  8
0
 62
4
 10
-6.16721300E-01
 20
2.48987307E+02
 40
1.61228609E+01
 50
6.27410478E+01
 51
7.61886514E+01
  0
POLYLINE
  8
0
 62
4
 66
1
  0
VERTEX
  8
0
 62
4
 10
1.29998857E+00
 20
2.60853929E+02
  0
VERTEX
  8
0
 62
4
 10
1.44663113E+00
 20
2.60735223E+02
  0
VERTEX
  8
0
 62
4
 10
1.62034984E+00
 20
2.60621760E+02
  0
VERTEX
  8
0
 62
4
 10
1.81982098E+00
 20
2.60514405E+02
  0
VERTEX
  8
0
 62
4
 10
2.04352461E+00
 20
2.60413975E+02
  0
VERTEX
  8
0
 62
4
 10
2.28975613E+00
 20
2.60321235E+02
  0
VERTEX
  8
0
 62
4
 10
2.55663929E+00
 20
2.60236894E+02
  0
VERTEX
  8
0
 62
4
 10
2.84214048E+00
 20
2.60161592E+02
  0
VERTEX
  8
0
 62
4
 10
3.14408420E+00
 20
2.60095904E+02
  0
VERTEX
  8
0
 62
4
 10
3.46016968E+00
 20
2.60040331E+02
  0
VERTEX
  8
0
 62
4
 10
3.78798840E+00
 20
2.59995296E+02
  0
VERTEX
  8
0
 62
4
 10
4.12504241E+00
 20
2.59961142E+02
  0
VERTEX
  8
0
 62
4
 10
4.46876340E+00
 20
2.59938129E+02
  0
VERTEX
  8
0
 62
4
 10
4.81653226E+00
 20
2.59926432E+02
  0
VERTEX
  8
0
 62
4
 10
5.16569904E+00
 20
2.59926142E+02
  0
VERTEX
  8
0
 62
4
 10
5.51360312E+00
 20
2.59937260E+02
  0
VERTEX
  8
0
 62
4
 10
5.85759352E+00
 20
2.59959701E+02
  0
VERTEX
  8
0
 62
4
 10
6.19504908E+00
 20
2.59993294E+02
  0
VERTEX
  8
0
 62
4
 10
6.52339842E+00
 20
2.60037783E+02
  0
VERTEX
  8
0
 62
4
 10
6.84013957E+00
 20
2.60092830E+02
  0
VERTEX
  8
0
 62
4
 10
7.14285899E+00
 20
2.60158015E+02
  0
VERTEX
  8
0
 62
4
 10
7.42925000E+00
 20
2.60232841E+02
  0
VERTEX
  8
0
 62
4
 10
7.69713034E+00
 20
2.60316738E+02
  0
VERTEX
  8
0
 62
4
 10
7.94445879E+00
 20
2.60409067E+02
  0
VERTEX
  8
0
 62
4
 10
8.16935073E+00
 20
2.60509123E+02
  0
VERTEX
  8
0
 62
4
 10
8.37009253E+00
 20
2.60616146E+02
  0
VERTEX
  8
0
 62
4
 10
8.54515454E+00
 20
2.60729319E+02
  0
VERTEX
  8
0
 62
4
 10
8.69320283E+00
 20
2.60847780E+02
  0
VERTEX
  8
0
 62
4
 10
8.81310927E+00
 20
2.60970626E+02
  0
VERTEX
  8
0
 62
4
 10
8.90396021E+00
 20
2.61096921E+02
  0
VERTEX
  8
0
 62
4
 10
8.96506335E+00
 20
2.61225703E+02
  0
VERTEX
  8
0
 62
4
 10
8.99595312E+00
 20
2.61355991E+02
  0
SEQEND
  8
0
  0
LINE
  8
0
 62
4
 10
8.99988556E-01
 20
2.61039343E+02
 11
8.99988556E-01
 21
2.62517074E+02
  0
POLYLINE
  8
0
 62
4
 66
1
  0
VERTEX
  8
0
 62
4
 10
-5.90001144E+00
 20
2.61039343E+02
  0
VERTEX
  8
0
 62
4
 10
-5.88632404E+00
 20
2.60925173E+02
  0
VERTEX
  8
0
 62
4
 10
-5.84537204E+00
 20
2.60811922E+02
  0
VERTEX
  8
0
 62
4
 10
-5.77748517E+00
 20
2.60700502E+02
  0
VERTEX
  8
0
 62
4
 10
-5.68321000E+00
 20
2.60591810E+02
  0
VERTEX
  8
0
 62
4
 10
-5.56330560E+00
 20
2.60486722E+02
  0
VERTEX
  8
0
 62
4
 10
-5.41873735E+00
 20
2.60386082E+02
  0
VERTEX
  8
0
 62
4
 10
-5.25066923E+00
 20
2.60290703E+02
  0
VERTEX
  8
0
 62
4
 10
-5.06045443E+00
 20
2.60201351E+02
  0
VERTEX
  8
0
 62
4
 10
-4.84962446E+00
 20
2.60118746E+02
  0
VERTEX
  8
0
 62
4
 10
-4.61987678E+00
 20
2.60043554E+02
  0
VERTEX
  8
0
 62
4
 10
-4.37306119E+00
 20
2.59976378E+02
  0
VERTEX
  8
0
 62
4
 10
-4.11116491E+00
 20
2.59917762E+02
  0
VERTEX
  8
0
 62
4
 10
-3.83629656E+00
 20
2.59868175E+02
  0
VERTEX
  8
0
 62
4
 10
-3.55066924E+00
 20
2.59828018E+02
  0
VERTEX
  8
0
 62
4
 10
-3.25658263E+00
 20
2.59797614E+02
  0
VERTEX
  8
0
 62
4
 10
-2.95640456E+00
 20
2.59777208E+02
  0
VERTEX
  8
0
 62
4
 10
-2.65255188E+00
 20
2.59766963E+02
  0
VERTEX
  8
0
 62
4
 10
-2.34747104E+00
 20
2.59766963E+02
  0
VERTEX
  8
0
 62
4
 10
-2.04361835E+00
 20
2.59777208E+02
  0
VERTEX
  8
0
 62
4
 10
-1.74344028E+00
 20
2.59797614E+02
  0
VERTEX
  8
0
 62
4
 10
-1.44935368E+00
 20
2.59828018E+02
  0
VERTEX
  8
0
 62
4
 10
-1.16372635E+00
 20
2.59868175E+02
  0
VERTEX
  8
0
 62
4
 10
-8.88858005E-01
 20
2.59917762E+02
  0
VERTEX
  8
0
 62
4
 10
-6.26961720E-01
 20
2.59976378E+02
  0
VERTEX
  8
0
 62
4
 10
-3.80146130E-01
 20
2.60043554E+02
  0
VERTEX
  8
0
 62
4
 10
-1.50398449E-01
 20
2.60118746E+02
  0
VERTEX
  8
0
 62
4
 10
6.04315302E-02
 20
2.60201351E+02
  0
VERTEX
  8
0
 62
4
 10
2.50646328E-01
 20
2.60290703E+02
  0
VERTEX
  8
0
 62
4
 10
4.18714447E-01
 20
2.60386082E+02
  0
VERTEX
  8
0
 62
4
 10
5.63282701E-01
 20
2.60486722E+02
  0
VERTEX
  8
0
 62
4
 10
6.83187112E-01
 20
2.60591810E+02
  0
VERTEX
  8
0
 62
4
 10
7.77462280E-01
 20
2.60700502E+02
  0
VERTEX
  8
0
 62
4
 10
8.45349157E-01
 20
2.60811922E+02
  0
VERTEX
  8
0
 62
4
 10
8.86301157E-01
 20
2.60925173E+02
  0
VERTEX
  8
0
 62
4
 10
8.99988560E-01
 20
2.61039343E+02
  0
SEQEND
  8
0
  0
POLYLINE
  8
0
 62
4
 66
1
  0
VERTEX
  8
0
 62
4
 10
-5.90001144E+00
 20
2.62087061E+02
  0
VERTEX
  8
0
 62
4
 10
-5.88632404E+00
 20
2.61972891E+02
  0
VERTEX
  8
0
 62
4
 10
-5.84537204E+00
 20
2.61859640E+02
  0
VERTEX
  8
0
 62
4
 10
-5.77748517E+00
 20
2.61748220E+02
  0
VERTEX
  8
0
 62
4
 10
-5.68321000E+00
 20
2.61639528E+02
  0
VERTEX
  8
0
 62
4
 10
-5.56330560E+00
 20
2.61534440E+02
  0
VERTEX
  8
0
 62
4
 10
-5.41873735E+00
 20
2.61433800E+02
  0
VERTEX
  8
0
 62
4
 10
-5.25066923E+00
 20
2.61338421E+02
  0
VERTEX
  8
0
 62
4
 10
-5.06045443E+00
 20
2.61249069E+02
  0
VERTEX
  8
0
 62
4
 10
-4.84962446E+00
 20
2.61166464E+02
  0
VERTEX
  8
0
 62
4
 10
-4.61987678E+00
 20
2.61091272E+02
  0
VERTEX
  8
0
 62
4
 10
-4.37306119E+00
 20
2.61024096E+02
  0
VERTEX
  8
0
 62
4
 10
-4.11116491E+00
 20
2.60965480E+02
  0
VERTEX
  8
0
 62
4
 10
-3.83629656E+00
 20
2.60915893E+02
  0
VERTEX
  8
0
 62
4
 10
-3.55066924E+00
 20
2.60875736E+02
  0
VERTEX
  8
0
 62
4
 10
-3.25658263E+00
 20
2.60845332E+02
  0
VERTEX
  8
0
 62
4
 10
-2.95640456E+00
 20
2.60824926E+02
  0
VERTEX
  8
0
 62
4
 10
-2.65255188E+00
 20
2.60814681E+02
  0
VERTEX
  8
0
 62
4
 10
-2.34747104E+00
 20
2.60814681E+02
  0
VERTEX
  8
0
 62
4
 10
-2.04361835E+00
 20
2.60824926E+02
  0
VERTEX
  8
0
 62
4
 10
-1.74344028E+00
 20
2.60845332E+02
  0
VERTEX
  8
0
 62
4
 10
-1.44935368E+00
 20
2.60875736E+02
  0
VERTEX
  8
0
 62
4
 10
-1.16372635E+00
 20
2.60915893E+02
  0
VERTEX
  8
0
 62
4
 10
-8.88858005E-01
 20
2.60965480E+02
  0
VERTEX
  8
0
 62
4
 10
-6.26961720E-01
 20
2.61024096E+02
  0
VERTEX
  8
0
 62
4
 10
-3.80146130E-01
 20
2.61091272E+02
  0
VERTEX
  8
0
 62
4
 10
-1.50398449E-01
 20
2.61166464E+02
  0
VERTEX
  8
0
 62
4
 10
6.04315302E-02
 20
2.61249069E+02
  0
VERTEX
  8
0
 62
4
 10
2.50646328E-01
 20
2.61338421E+02
  0
VERTEX
  8
0
 62
4
 10
4.18714447E-01
 20
2.61433800E+02
  0
VERTEX
  8
0
 62
4
 10
5.63282701E-01
 20
2.61534440E+02
  0
VERTEX
  8
0
 62
4
 10
6.83187112E-01
 20
2.61639528E+02
  0
VERTEX
  8
0
 62
4
 10
7.77462280E-01
 20
2.61748220E+02
  0
VERTEX
  8
0
 62
4
 10
8.45349157E-01
 20
2.61859640E+02
  0
VERTEX
  8
0
 62
4
 10
8.86301157E-01
 20
2.61972891E+02
  0
VERTEX
  8
0
 62
4
 10
8.99988560E-01
 20
2.62087061E+02
  0
SEQEND
  8
0
  0
LINE
  8
0
 62
4
 10
-5.90001144E+00
 20
2.62517074E+02
 11
-5.90001144E+00
 21
2.61039343E+02
  0
ARC
  8
0
 62
4
 10
-4.90001177E+00
 20
2.62517074E+02
 40
1.00000000E+00
 50
1.02827510E+02
 51
1.80000000E+02
  0
ARC
  8
0
 62
4
 10
-1.00011122E-01
 20
2.62517074E+02
 40
1.00000000E+00
 50
3.60000000E+02
 51
7.71724899E+01
  0
ARC
  8
0
 62
4
 10
2.88737336E+00
 20
2.48760319E+02
 40
1.54729912E+01
 50
1.03783165E+02
 51
1.17543924E+02
  0
ARC
  8
0
 62
4
 10
-7.88739670E+00
 20
2.48760318E+02
 40
1.54729926E+01
 50
6.24560769E+01
 51
7.62168346E+01
  0
LINE
  8
0
 62
4
 10
-6.30001144E+00
 20
2.60112159E+02
 11
-6.30001144E+00
 21
2.61039343E+02
  0
LINE
  8
0
 62
4
 10
1.29998856E+00
 20
2.60112159E+02
 11
1.29998856E+00
 21
2.61039343E+02
  0
POLYLINE
  8
0
 62
4
 66
1
  0
VERTEX
  8
0
 62
4
 10
-6.30001144E+00
 20
2.60112159E+02
  0
VERTEX
  8
0
 62
4
 10
-6.28471376E+00
 20
2.59984557E+02
  0
VERTEX
  8
0
 62
4
 10
-6.23894388E+00
 20
2.59857982E+02
  0
VERTEX
  8
0
 62
4
 10
-6.16307031E+00
 20
2.59733454E+02
  0
VERTEX
  8
0
 62
4
 10
-6.05770395E+00
 20
2.59611975E+02
  0
VERTEX
  8
0
 62
4
 10
-5.92369314E+00
 20
2.59494523E+02
  0
VERTEX
  8
0
 62
4
 10
-5.76211686E+00
 20
2.59382044E+02
  0
VERTEX
  8
0
 62
4
 10
-5.57427603E+00
 20
2.59275444E+02
  0
VERTEX
  8
0
 62
4
 10
-5.36168302E+00
 20
2.59175580E+02
  0
VERTEX
  8
0
 62
4
 10
-5.12604952E+00
 20
2.59083257E+02
  0
VERTEX
  8
0
 62
4
 10
-4.86927270E+00
 20
2.58999218E+02
  0
VERTEX
  8
0
 62
4
 10
-4.59341998E+00
 20
2.58924140E+02
  0
VERTEX
  8
0
 62
4
 10
-4.30071237E+00
 20
2.58858627E+02
  0
VERTEX
  8
0
 62
4
 10
-3.99350658E+00
 20
2.58803207E+02
  0
VERTEX
  8
0
 62
4
 10
-3.67427604E+00
 20
2.58758325E+02
  0
VERTEX
  8
0
 62
4
 10
-3.34559101E+00
 20
2.58724344E+02
  0
VERTEX
  8
0
 62
4
 10
-3.01009787E+00
 20
2.58701537E+02
  0
VERTEX
  8
0
 62
4
 10
-2.67049782E+00
 20
2.58690087E+02
  0
VERTEX
  8
0
 62
4
 10
-2.32952511E+00
 20
2.58690087E+02
  0
VERTEX
  8
0
 62
4
 10
-1.98992505E+00
 20
2.58701537E+02
  0
VERTEX
  8
0
 62
4
 10
-1.65443191E+00
 20
2.58724344E+02
  0
VERTEX
  8
0
 62
4
 10
-1.32574688E+00
 20
2.58758325E+02
  0
VERTEX
  8
0
 62
4
 10
-1.00651634E+00
 20
2.58803207E+02
  0
VERTEX
  8
0
 62
4
 10
-6.99310543E-01
 20
2.58858627E+02
  0
VERTEX
  8
0
 62
4
 10
-4.06602930E-01
 20
2.58924140E+02
  0
VERTEX
  8
0
 62
4
 10
-1.30750211E-01
 20
2.58999218E+02
  0
VERTEX
  8
0
 62
4
 10
1.26026609E-01
 20
2.59083257E+02
  0
VERTEX
  8
0
 62
4
 10
3.61660115E-01
 20
2.59175580E+02
  0
VERTEX
  8
0
 62
4
 10
5.74253124E-01
 20
2.59275444E+02
  0
VERTEX
  8
0
 62
4
 10
7.62093963E-01
 20
2.59382044E+02
  0
VERTEX
  8
0
 62
4
 10
9.23670247E-01
 20
2.59494523E+02
  0
VERTEX
  8
0
 62
4
 10
1.05768106E+00
 20
2.59611975E+02
  0
VERTEX
  8
0
 62
4
 10
1.16304742E+00
 20
2.59733454E+02
  0
VERTEX
  8
0
 62
4
 10
1.23892099E+00
 20
2.59857982E+02
  0
VERTEX
  8
0
 62
4
 10
1.28469087E+00
 20
2.59984557E+02
  0
VERTEX
  8
0
 62
4
 10
1.29998856E+00
 20
2.60112159E+02
  0
SEQEND
  8
0
  0
POLYLINE
  8
0
 62
4
 66
1
  0
VERTEX
  8
0
 62
4
 10
-5.90001145E+00
 20
2.61675071E+02
  0
VERTEX
  8
0
 62
4
 10
-6.03659311E+00
 20
2.61560112E+02
  0
VERTEX
  8
0
 62
4
 10
-6.14554098E+00
 20
2.61441084E+02
  0
VERTEX
  8
0
 62
4
 10
-6.22600376E+00
 20
2.61318916E+02
  0
VERTEX
  8
0
 62
4
 10
-6.27735274E+00
 20
2.61194564E+02
  0
VERTEX
  8
0
 62
4
 10
-6.29918669E+00
 20
2.61068999E+02
  0
VERTEX
  8
0
 62
4
 10
-6.29133502E+00
 20
2.60943203E+02
  0
VERTEX
  8
0
 62
4
 10
-6.25385907E+00
 20
2.60818158E+02
  0
VERTEX
  8
0
 62
4
 10
-6.18705166E+00
 20
2.60694840E+02
  0
VERTEX
  8
0
 62
4
 10
-6.09143482E+00
 20
2.60574215E+02
  0
VERTEX
  8
0
 62
4
 10
-5.96775566E+00
 20
2.60457224E+02
  0
VERTEX
  8
0
 62
4
 10
-5.81698058E+00
 20
2.60344782E+02
  0
VERTEX
  8
0
 62
4
 10
-5.64028768E+00
 20
2.60237767E+02
  0
VERTEX
  8
0
 62
4
 10
-5.43905760E+00
 20
2.60137015E+02
  0
VERTEX
  8
0
 62
4
 10
-5.21486268E+00
 20
2.60043313E+02
  0
VERTEX
  8
0
 62
4
 10
-4.96945472E+00
 20
2.59957394E+02
  0
VERTEX
  8
0
 62
4
 10
-4.70475126E+00
 20
2.59879930E+02
  0
VERTEX
  8
0
 62
4
 10
-4.42282062E+00
 20
2.59811524E+02
  0
VERTEX
  8
0
 62
4
 10
-4.12586572E+00
 20
2.59752713E+02
  0
VERTEX
  8
0
 62
4
 10
-3.81620688E+00
 20
2.59703954E+02
  0
VERTEX
  8
0
 62
4
 10
-3.49626367E+00
 20
2.59665630E+02
  0
VERTEX
  8
0
 62
4
 10
-3.16853605E+00
 20
2.59638040E+02
  0
VERTEX
  8
0
 62
4
 10
-2.83558477E+00
 20
2.59621399E+02
  0
VERTEX
  8
0
 62
4
 10
-2.50001142E+00
 20
2.59615838E+02
  0
VERTEX
  8
0
 62
4
 10
-2.16443807E+00
 20
2.59621399E+02
  0
VERTEX
  8
0
 62
4
 10
-1.83148680E+00
 20
2.59638040E+02
  0
VERTEX
  8
0
 62
4
 10
-1.50375917E+00
 20
2.59665630E+02
  0
VERTEX
  8
0
 62
4
 10
-1.18381597E+00
 20
2.59703954E+02
  0
VERTEX
  8
0
 62
4
 10
-8.74157126E-01
 20
2.59752713E+02
  0
VERTEX
  8
0
 62
4
 10
-5.77202226E-01
 20
2.59811524E+02
  0
VERTEX
  8
0
 62
4
 10
-2.95271587E-01
 20
2.59879930E+02
  0
VERTEX
  8
0
 62
4
 10
-3.05681309E-02
 20
2.59957394E+02
  0
VERTEX
  8
0
 62
4
 10
2.14839827E-01
 20
2.60043313E+02
  0
VERTEX
  8
0
 62
4
 10
4.39034743E-01
 20
2.60137015E+02
  0
VERTEX
  8
0
 62
4
 10
6.40264824E-01
 20
2.60237767E+02
  0
VERTEX
  8
0
 62
4
 10
8.16957718E-01
 20
2.60344782E+02
  0
VERTEX
  8
0
 62
4
 10
9.67732798E-01
 20
2.60457224E+02
  0
VERTEX
  8
0
 62
4
 10
1.09141195E+00
 20
2.60574215E+02
  0
VERTEX
  8
0
 62
4
 10
1.18702879E+00
 20
2.60694840E+02
  0
VERTEX
  8
0
 62
4
 10
1.25383619E+00
 20
2.60818158E+02
  0
VERTEX
  8
0
 62
4
 10
1.29131214E+00
 20
2.60943203E+02
  0
VERTEX
  8
0
 62
4
 10
1.29916381E+00
 20
2.61068999E+02
  0
VERTEX
  8
0
 62
4
 10
1.27732985E+00
 20
2.61194564E+02
  0
VERTEX
  8
0
 62
4
 10
1.22598087E+00
 20
2.61318916E+02
  0
VERTEX
  8
0
 62
4
 10
1.14551809E+00
 20
2.61441084E+02
  0
VERTEX
  8
0
 62
4
 10
1.03657022E+00
 20
2.61560112E+02
  0
VERTEX
  8
0
 62
4
 10
8.99988552E-01
 20
2.61675071E+02
  0
SEQEND
  8
0
  0
ARC
  8
0
 62
4
 10
-2.50001144E+00
 20
2.56621523E+02
 40
7.36533796E+00
 50
6.78494174E+01
 51
1.12150583E+02
  0
LINE
  8
0
  6
CENTER
 62
6
 10
1.49999886E+01
 20
2.60112159E+02
 11
9.99998856E+00
 21
2.60112159E+02
  0
LINE
  8
0
  6
CENTER
 62
6
 10
4.99998856E+00
 20
2.58923282E+02
 11
4.99998856E+00
 21
2.63923282E+02
  0
LINE
  8
0
  6
CENTER
 62
6
 10
7.49998856E+00
 20
2.61423282E+02
 11
2.49998856E+00
 21
2.61423282E+02
  0
LINE
  8
0
  6
CENTER
 62
6
 10
-2.50001144E+00
 20
2.57612159E+02
 11
-2.50001144E+00
 21
2.62612159E+02
  0
LINE
  8
0
  6
CENTER
 62
6
 10
-1.14370515E-05
 20
2.60112159E+02
 11
-5.00001144E+00
 21
2.60112159E+02
  0
LINE
  8
0
 62
4
 10
1.85124393E+00
 20
2.64420135E+02
 11
-1.00000114E+01
 21
2.64420135E+02
  0
LINE
  8
0
 62
4
 10
1.99999886E+01
 20
2.58986343E+02
 11
2.14999886E+01
 21
2.60114264E+02
  0
LINE
  8
0
 62
4
 10
2.14999886E+01
 20
2.62214336E+02
 11
1.99999886E+01
 21
2.62695078E+02
  0
LINE
  8
0
 62
4
 10
2.14999886E+01
 20
2.63062820E+02
 11
1.99999886E+01
 21
2.64193504E+02
  0
LINE
  8
0
 62
4
 10
1.99999886E+01
 20
2.62695078E+02
 11
9.14998856E+00
 21
2.62695078E+02
  0
LINE
  8
0
 62
4
 10
1.99999886E+01
 20
2.64193504E+02
 11
8.58042217E+00
 21
2.64193504E+02
  0
LINE
  8
0
 62
4
 10
1.99999886E+01
 20
2.62322338E+02
 11
9.14998856E+00
 21
2.62322338E+02
  0
LINE
  8
0
 62
4
 10
-5.00001144E+00
 20
2.64045528E+02
 11
-1.00000114E+01
 21
2.64045528E+02
  0
LINE
  8
0
 62
4
 10
-5.90001144E+00
 20
2.62322338E+02
 11
-1.00000114E+01
 21
2.62322338E+02
  0
LINE
  8
0
 62
4
 10
1.41955494E+00
 20
2.64193504E+02
 11
-5.00001144E+00
 21
2.64193504E+02
  0
LINE
  8
0
 62
4
 10
1.99999886E+01
 20
2.64193504E+02
 11
1.99999886E+01
 21
2.64420135E+02
  0
LINE
  8
0
 62
4
 10
1.99999886E+01
 20
2.62322338E+02
 11
1.99999886E+01
 21
2.64193504E+02
  0
LINE
  8
0
 62
6
 10
-5.19999885E+01
 20
3.27335383E+02
 11
-5.19999885E+01
 21
3.25968055E+02
  0
LINE
  8
0
 62
6
 10
-4.89999885E+01
 20
3.27335383E+02
 11
-4.89999885E+01
 21
3.25968055E+02
  0
LINE
  8
0
 62
4
 10
-5.24999885E+01
 20
3.26839825E+02
 11
-5.24999885E+01
 21
3.25968055E+02
  0
LINE
  8
0
 62
4
 10
-4.84999885E+01
 20
3.26839825E+02
 11
-4.84999885E+01
 21
3.25968055E+02
  0
LINE
  8
0
 62
4
 10
-5.39999886E+01
 20
3.25968055E+02
 11
-5.39999886E+01
 21
3.12123549E+02
  0
LINE
  8
0
 62
4
 10
-3.89999886E+01
 20
3.25968055E+02
 11
-3.89999886E+01
 21
2.96579850E+02
  0
LINE
  8
0
  6
CENTER
 62
6
 10
-4.24999885E+01
 20
3.30765579E+02
 11
-4.24999885E+01
 21
3.20500000E+02
  0
LINE
  8
0
  6
CENTER
 62
6
 10
-5.04999885E+01
 20
3.30765579E+02
 11
-5.04999885E+01
 21
3.20500000E+02
  0
LINE
  8
0
  6
CENTER
 62
6
 10
-6.14999886E+01
 20
3.03387826E+02
 11
-6.14999886E+01
 21
2.98387826E+02
  0
LINE
  8
0
 62
4
 10
-4.39999886E+01
 20
2.96806480E+02
 11
-4.39999886E+01
 21
2.97450388E+02
  0
LINE
  8
0
 62
4
 10
-6.89999886E+01
 20
3.12123549E+02
 11
-6.89999886E+01
 21
2.98677647E+02
  0
LINE
  8
0
 62
4
 10
-4.54999886E+01
 20
2.96806480E+02
 11
-4.54999886E+01
 21
2.97081325E+02
  0
LINE
  8
0
 62
4
 10
-7.04999886E+01
 20
3.00885720E+02
 11
-7.04999886E+01
 21
2.97937165E+02
  0
LINE
  8
0
 62
4
 10
-5.39999886E+01
 20
3.25968055E+02
 11
-3.89999886E+01
 21
3.25968055E+02
  0
LINE
  8
0
 62
4
 10
-5.39999886E+01
 20
3.18613836E+02
 11
-3.89999886E+01
 21
3.18613836E+02
  0
LINE
  8
0
 62
4
 10
-6.89999886E+01
 20
3.12123549E+02
 11
-3.89999886E+01
 21
3.12123549E+02
  0
LINE
  8
0
 62
4
 10
-6.89999886E+01
 20
3.02573555E+02
 11
-3.89999886E+01
 21
3.02573555E+02
  0
LINE
  8
0
 62
4
 10
-6.89999886E+01
 20
2.96579850E+02
 11
-5.71487332E+01
 21
2.96579850E+02
  0
POLYLINE
  8
0
 62
4
 66
1
  0
VERTEX
  8
0
 62
4
 10
-4.84999885E+01
 20
3.26839825E+02
  0
VERTEX
  8
0
 62
4
 10
-4.85080399E+01
 20
3.26906984E+02
  0
VERTEX
  8
0
 62
4
 10
-4.85321293E+01
 20
3.26973602E+02
  0
VERTEX
  8
0
 62
4
 10
-4.85720628E+01
 20
3.27039143E+02
  0
VERTEX
  8
0
 62
4
 10
-4.86275188E+01
 20
3.27103080E+02
  0
VERTEX
  8
0
 62
4
 10
-4.86980508E+01
 20
3.27164896E+02
  0
VERTEX
  8
0
 62
4
 10
-4.87830909E+01
 20
3.27224096E+02
  0
VERTEX
  8
0
 62
4
 10
-4.88819545E+01
 20
3.27280201E+02
  0
VERTEX
  8
0
 62
4
 10
-4.89938456E+01
 20
3.27332761E+02
  0
VERTEX
  8
0
 62
4
 10
-4.91178632E+01
 20
3.27381352E+02
  0
VERTEX
  8
0
 62
4
 10
-4.92530089E+01
 20
3.27425583E+02
  0
VERTEX
  8
0
 62
4
 10
-4.93981945E+01
 20
3.27465098E+02
  0
VERTEX
  8
0
 62
4
 10
-4.95522512E+01
 20
3.27499579E+02
  0
VERTEX
  8
0
 62
4
 10
-4.97139384E+01
 20
3.27528747E+02
  0
VERTEX
  8
0
 62
4
 10
-4.98819545E+01
 20
3.27552369E+02
  0
VERTEX
  8
0
 62
4
 10
-5.00549466E+01
 20
3.27570254E+02
  0
VERTEX
  8
0
 62
4
 10
-5.02315220E+01
 20
3.27582258E+02
  0
VERTEX
  8
0
 62
4
 10
-5.04102588E+01
 20
3.27588284E+02
  0
VERTEX
  8
0
 62
4
 10
-5.05897181E+01
 20
3.27588284E+02
  0
VERTEX
  8
0
 62
4
 10
-5.07684550E+01
 20
3.27582258E+02
  0
VERTEX
  8
0
 62
4
 10
-5.09450304E+01
 20
3.27570254E+02
  0
VERTEX
  8
0
 62
4
 10
-5.11180225E+01
 20
3.27552369E+02
  0
VERTEX
  8
0
 62
4
 10
-5.12860386E+01
 20
3.27528747E+02
  0
VERTEX
  8
0
 62
4
 10
-5.14477258E+01
 20
3.27499579E+02
  0
VERTEX
  8
0
 62
4
 10
-5.16017825E+01
 20
3.27465098E+02
  0
VERTEX
  8
0
 62
4
 10
-5.17469681E+01
 20
3.27425583E+02
  0
VERTEX
  8
0
 62
4
 10
-5.18821138E+01
 20
3.27381352E+02
  0
VERTEX
  8
0
 62
4
 10
-5.20061314E+01
 20
3.27332761E+02
  0
VERTEX
  8
0
 62
4
 10
-5.21180225E+01
 20
3.27280201E+02
  0
VERTEX
  8
0
 62
4
 10
-5.22168861E+01
 20
3.27224096E+02
  0
VERTEX
  8
0
 62
4
 10
-5.23019262E+01
 20
3.27164896E+02
  0
VERTEX
  8
0
 62
4
 10
-5.23724582E+01
 20
3.27103080E+02
  0
VERTEX
  8
0
 62
4
 10
-5.24279142E+01
 20
3.27039143E+02
  0
VERTEX
  8
0
 62
4
 10
-5.24678477E+01
 20
3.26973602E+02
  0
VERTEX
  8
0
 62
4
 10
-5.24919371E+01
 20
3.26906984E+02
  0
VERTEX
  8
0
 62
4
 10
-5.24999885E+01
 20
3.26839825E+02
  0
SEQEND
  8
0
  0
LINE
  8
0
 62
6
 10
-4.09999885E+01
 20
3.27335383E+02
 11
-4.09999885E+01
 21
3.25968055E+02
  0
LINE
  8
0
 62
4
 10
-4.04999885E+01
 20
3.26839825E+02
 11
-4.04999885E+01
 21
3.25968055E+02
  0
POLYLINE
  8
0
 62
4
 66
1
  0
VERTEX
  8
0
 62
4
 10
-4.04999885E+01
 20
3.26839825E+02
  0
VERTEX
  8
0
 62
4
 10
-4.05080399E+01
 20
3.26906984E+02
  0
VERTEX
  8
0
 62
4
 10
-4.05321293E+01
 20
3.26973602E+02
  0
VERTEX
  8
0
 62
4
 10
-4.05720628E+01
 20
3.27039143E+02
  0
VERTEX
  8
0
 62
4
 10
-4.06275188E+01
 20
3.27103080E+02
  0
VERTEX
  8
0
 62
4
 10
-4.06980508E+01
 20
3.27164896E+02
  0
VERTEX
  8
0
 62
4
 10
-4.07830909E+01
 20
3.27224096E+02
  0
VERTEX
  8
0
 62
4
 10
-4.08819545E+01
 20
3.27280201E+02
  0
VERTEX
  8
0
 62
4
 10
-4.09938456E+01
 20
3.27332761E+02
  0
VERTEX
  8
0
 62
4
 10
-4.11178632E+01
 20
3.27381352E+02
  0
VERTEX
  8
0
 62
4
 10
-4.12530089E+01
 20
3.27425583E+02
  0
VERTEX
  8
0
 62
4
 10
-4.13981945E+01
 20
3.27465098E+02
  0
VERTEX
  8
0
 62
4
 10
-4.15522512E+01
 20
3.27499579E+02
  0
VERTEX
  8
0
 62
4
 10
-4.17139384E+01
 20
3.27528747E+02
  0
VERTEX
  8
0
 62
4
 10
-4.18819545E+01
 20
3.27552369E+02
  0
VERTEX
  8
0
 62
4
 10
-4.20549466E+01
 20
3.27570254E+02
  0
VERTEX
  8
0
 62
4
 10
-4.22315220E+01
 20
3.27582258E+02
  0
VERTEX
  8
0
 62
4
 10
-4.24102588E+01
 20
3.27588284E+02
  0
VERTEX
  8
0
 62
4
 10
-4.25897181E+01
 20
3.27588284E+02
  0
VERTEX
  8
0
 62
4
 10
-4.27684550E+01
 20
3.27582258E+02
  0
VERTEX
  8
0
 62
4
 10
-4.29450304E+01
 20
3.27570254E+02
  0
VERTEX
  8
0
 62
4
 10
-4.31180225E+01
 20
3.27552369E+02
  0
VERTEX
  8
0
 62
4
 10
-4.32860386E+01
 20
3.27528747E+02
  0
VERTEX
  8
0
 62
4
 10
-4.34477258E+01
 20
3.27499579E+02
  0
VERTEX
  8
0
 62
4
 10
-4.36017825E+01
 20
3.27465098E+02
  0
VERTEX
  8
0
 62
4
 10
-4.37469681E+01
 20
3.27425583E+02
  0
VERTEX
  8
0
 62
4
 10
-4.38821138E+01
 20
3.27381352E+02
  0
VERTEX
  8
0
 62
4
 10
-4.40061314E+01
 20
3.27332761E+02
  0
VERTEX
  8
0
 62
4
 10
-4.41180225E+01
 20
3.27280201E+02
  0
VERTEX
  8
0
 62
4
 10
-4.42168861E+01
 20
3.27224096E+02
  0
VERTEX
  8
0
 62
4
 10
-4.43019262E+01
 20
3.27164896E+02
  0
VERTEX
  8
0
 62
4
 10
-4.43724582E+01
 20
3.27103080E+02
  0
VERTEX
  8
0
 62
4
 10
-4.44279142E+01
 20
3.27039143E+02
  0
VERTEX
  8
0
 62
4
 10
-4.44678477E+01
 20
3.26973602E+02
  0
VERTEX
  8
0
 62
4
 10
-4.44919371E+01
 20
3.26906984E+02
  0
VERTEX
  8
0
 62
4
 10
-4.44999885E+01
 20
3.26839825E+02
  0
SEQEND
  8
0
  0
LINE
  8
0
 62
6
 10
-4.39999885E+01
 20
3.27335383E+02
 11
-4.39999885E+01
 21
3.25968055E+02
  0
LINE
  8
0
 62
4
 10
-4.44999885E+01
 20
3.26839825E+02
 11
-4.44999885E+01
 21
3.25968055E+02
  0
LINE
  8
0
 62
4
 10
-4.98499886E+01
 20
2.98170660E+02
 11
-4.98499886E+01
 21
2.97592529E+02
  0
LINE
  8
0
 62
4
 10
-5.81499886E+01
 20
2.99224373E+02
 11
-5.81499886E+01
 21
2.97592529E+02
  0
POLYLINE
  8
0
 62
4
 66
1
  0
VERTEX
  8
0
 62
4
 10
-5.02989705E+01
 20
2.99927693E+02
  0
VERTEX
  8
0
 62
4
 10
-5.04806509E+01
 20
3.00048232E+02
  0
VERTEX
  8
0
 62
4
 10
-5.06902340E+01
 20
3.00162239E+02
  0
VERTEX
  8
0
 62
4
 10
-5.09260581E+01
 20
3.00268810E+02
  0
VERTEX
  8
0
 62
4
 10
-5.11862536E+01
 20
3.00367101E+02
  0
VERTEX
  8
0
 62
4
 10
-5.14687576E+01
 20
3.00456332E+02
  0
VERTEX
  8
0
 62
4
 10
-5.17713301E+01
 20
3.00535795E+02
  0
VERTEX
  8
0
 62
4
 10
-5.20915723E+01
 20
3.00604860E+02
  0
VERTEX
  8
0
 62
4
 10
-5.24269452E+01
 20
3.00662981E+02
  0
VERTEX
  8
0
 62
4
 10
-5.27747899E+01
 20
3.00709696E+02
  0
VERTEX
  8
0
 62
4
 10
-5.31323484E+01
 20
3.00744634E+02
  0
VERTEX
  8
0
 62
4
 10
-5.34967859E+01
 20
3.00767520E+02
  0
VERTEX
  8
0
 62
4
 10
-5.38652130E+01
 20
3.00778170E+02
  0
VERTEX
  8
0
 62
4
 10
-5.42347086E+01
 20
3.00776502E+02
  0
VERTEX
  8
0
 62
4
 10
-5.46023433E+01
 20
3.00762527E+02
  0
VERTEX
  8
0
 62
4
 10
-5.49652023E+01
 20
3.00736358E+02
  0
VERTEX
  8
0
 62
4
 10
-5.53204087E+01
 20
3.00698201E+02
  0
VERTEX
  8
0
 62
4
 10
-5.56651462E+01
 20
3.00648359E+02
  0
VERTEX
  8
0
 62
4
 10
-5.59966818E+01
 20
3.00587226E+02
  0
VERTEX
  8
0
 62
4
 10
-5.63123867E+01
 20
3.00515289E+02
  0
VERTEX
  8
0
 62
4
 10
-5.66097580E+01
 20
3.00433117E+02
  0
VERTEX
  8
0
 62
4
 10
-5.68864381E+01
 20
3.00341361E+02
  0
VERTEX
  8
0
 62
4
 10
-5.71402332E+01
 20
3.00240749E+02
  0
VERTEX
  8
0
 62
4
 10
-5.73691312E+01
 20
3.00132080E+02
  0
VERTEX
  8
0
 62
4
 10
-5.75713173E+01
 20
3.00016213E+02
  0
VERTEX
  8
0
 62
4
 10
-5.77451884E+01
 20
2.99894068E+02
  0
VERTEX
  8
0
 62
4
 10
-5.78893661E+01
 20
2.99766614E+02
  0
VERTEX
  8
0
 62
4
 10
-5.80027073E+01
 20
2.99634861E+02
  0
VERTEX
  8
0
 62
4
 10
-5.80843133E+01
 20
2.99499853E+02
  0
VERTEX
  8
0
 62
4
 10
-5.81335372E+01
 20
2.99362661E+02
  0
VERTEX
  8
0
 62
4
 10
-5.81499886E+01
 20
2.99224373E+02
  0
SEQEND
  8
0
  0
POLYLINE
  8
0
 62
4
 66
1
  0
VERTEX
  8
0
 62
4
 10
-5.81499886E+01
 20
2.97592529E+02
  0
VERTEX
  8
0
 62
4
 10
-5.81341966E+01
 20
2.97457035E+02
  0
VERTEX
  8
0
 62
4
 10
-5.80869408E+01
 20
2.97322573E+02
  0
VERTEX
  8
0
 62
4
 10
-5.80085808E+01
 20
2.97190164E+02
  0
VERTEX
  8
0
 62
4
 10
-5.78997130E+01
 20
2.97060819E+02
  0
VERTEX
  8
0
 62
4
 10
-5.77611659E+01
 20
2.96935519E+02
  0
VERTEX
  8
0
 62
4
 10
-5.75939940E+01
 20
2.96815220E+02
  0
VERTEX
  8
0
 62
4
 10
-5.73994696E+01
 20
2.96700837E+02
  0
VERTEX
  8
0
 62
4
 10
-5.71790730E+01
 20
2.96593240E+02
  0
VERTEX
  8
0
 62
4
 10
-5.69344817E+01
 20
2.96493249E+02
  0
VERTEX
  8
0
 62
4
 10
-5.66675572E+01
 20
2.96401623E+02
  0
VERTEX
  8
0
 62
4
 10
-5.63803308E+01
 20
2.96319061E+02
  0
VERTEX
  8
0
 62
4
 10
-5.60749886E+01
 20
2.96246191E+02
  0
VERTEX
  8
0
 62
4
 10
-5.57538544E+01
 20
2.96183567E+02
  0
VERTEX
  8
0
 62
4
 10
-5.54193722E+01
 20
2.96131667E+02
  0
VERTEX
  8
0
 62
4
 10
-5.50740876E+01
 20
2.96090884E+02
  0
VERTEX
  8
0
 62
4
 10
-5.47206285E+01
 20
2.96061530E+02
  0
VERTEX
  8
0
 62
4
 10
-5.43616849E+01
 20
2.96043827E+02
  0
VERTEX
  8
0
 62
4
 10
-5.39999886E+01
 20
2.96037912E+02
  0
VERTEX
  8
0
 62
4
 10
-5.36382923E+01
 20
2.96043827E+02
  0
VERTEX
  8
0
 62
4
 10
-5.32793487E+01
 20
2.96061530E+02
  0
VERTEX
  8
0
 62
4
 10
-5.29258896E+01
 20
2.96090884E+02
  0
VERTEX
  8
0
 62
4
 10
-5.25806050E+01
 20
2.96131667E+02
  0
VERTEX
  8
0
 62
4
 10
-5.22461228E+01
 20
2.96183567E+02
  0
VERTEX
  8
0
 62
4
 10
-5.19249886E+01
 20
2.96246191E+02
  0
VERTEX
  8
0
 62
4
 10
-5.16196464E+01
 20
2.96319061E+02
  0
VERTEX
  8
0
 62
4
 10
-5.13324200E+01
 20
2.96401623E+02
  0
VERTEX
  8
0
 62
4
 10
-5.10654955E+01
 20
2.96493249E+02
  0
VERTEX
  8
0
 62
4
 10
-5.08209042E+01
 20
2.96593240E+02
  0
VERTEX
  8
0
 62
4
 10
-5.06005076E+01
 20
2.96700837E+02
  0
VERTEX
  8
0
 62
4
 10
-5.04059832E+01
 20
2.96815220E+02
  0
VERTEX
  8
0
 62
4
 10
-5.02388113E+01
 20
2.96935519E+02
  0
VERTEX
  8
0
 62
4
 10
-5.01002642E+01
 20
2.97060819E+02
  0
VERTEX
  8
0
 62
4
 10
-4.99913964E+01
 20
2.97190164E+02
  0
VERTEX
  8
0
 62
4
 10
-4.99130364E+01
 20
2.97322573E+02
  0
VERTEX
  8
0
 62
4
 10
-4.98657806E+01
 20
2.97457035E+02
  0
VERTEX
  8
0
 62
4
 10
-4.98499886E+01
 20
2.97592529E+02
  0
VERTEX
  8
0
 62
4
 10
-4.98657806E+01
 20
2.97728023E+02
  0
VERTEX
  8
0
 62
4
 10
-4.99130364E+01
 20
2.97862485E+02
  0
VERTEX
  8
0
 62
4
 10
-4.99913964E+01
 20
2.97994894E+02
  0
VERTEX
  8
0
 62
4
 10
-5.01002642E+01
 20
2.98124239E+02
  0
VERTEX
  8
0
 62
4
 10
-5.02388113E+01
 20
2.98249539E+02
  0
VERTEX
  8
0
 62
4
 10
-5.04059832E+01
 20
2.98369838E+02
  0
VERTEX
  8
0
 62
4
 10
-5.06005076E+01
 20
2.98484221E+02
  0
VERTEX
  8
0
 62
4
 10
-5.08209042E+01
 20
2.98591818E+02
  0
VERTEX
  8
0
 62
4
 10
-5.10654955E+01
 20
2.98691809E+02
  0
VERTEX
  8
0
 62
4
 10
-5.13324200E+01
 20
2.98783435E+02
  0
VERTEX
  8
0
 62
4
 10
-5.16196464E+01
 20
2.98865997E+02
  0
VERTEX
  8
0
 62
4
 10
-5.19249886E+01
 20
2.98938867E+02
  0
VERTEX
  8
0
 62
4
 10
-5.22461228E+01
 20
2.99001491E+02
  0
VERTEX
  8
0
 62
4
 10
-5.25806050E+01
 20
2.99053391E+02
  0
VERTEX
  8
0
 62
4
 10
-5.29258896E+01
 20
2.99094174E+02
  0
VERTEX
  8
0
 62
4
 10
-5.32793487E+01
 20
2.99123528E+02
  0
VERTEX
  8
0
 62
4
 10
-5.36382923E+01
 20
2.99141231E+02
  0
VERTEX
  8
0
 62
4
 10
-5.39999886E+01
 20
2.99147146E+02
  0
VERTEX
  8
0
 62
4
 10
-5.43616849E+01
 20
2.99141231E+02
  0
VERTEX
  8
0
 62
4
 10
-5.47206285E+01
 20
2.99123528E+02
  0
VERTEX
  8
0
 62
4
 10
-5.50740876E+01
 20
2.99094174E+02
  0
VERTEX
  8
0
 62
4
 10
-5.54193722E+01
 20
2.99053391E+02
  0
VERTEX
  8
0
 62
4
 10
-5.57538544E+01
 20
2.99001491E+02
  0
VERTEX
  8
0
 62
4
 10
-5.60749886E+01
 20
2.98938867E+02
  0
VERTEX
  8
0
 62
4
 10
-5.63803308E+01
 20
2.98865997E+02
  0
VERTEX
  8
0
 62
4
 10
-5.66675572E+01
 20
2.98783435E+02
  0
VERTEX
  8
0
 62
4
 10
-5.69344817E+01
 20
2.98691809E+02
  0
VERTEX
  8
0
 62
4
 10
-5.71790730E+01
 20
2.98591818E+02
  0
VERTEX
  8
0
 62
4
 10
-5.73994696E+01
 20
2.98484221E+02
  0
VERTEX
  8
0
 62
4
 10
-5.75939940E+01
 20
2.98369838E+02
  0
VERTEX
  8
0
 62
4
 10
-5.77611659E+01
 20
2.98249539E+02
  0
VERTEX
  8
0
 62
4
 10
-5.78997130E+01
 20
2.98124239E+02
  0
VERTEX
  8
0
 62
4
 10
-5.80085808E+01
 20
2.97994894E+02
  0
VERTEX
  8
0
 62
4
 10
-5.80869408E+01
 20
2.97862485E+02
  0
VERTEX
  8
0
 62
4
 10
-5.81341966E+01
 20
2.97728023E+02
  0
VERTEX
  8
0
 62
4
 10
-5.81499886E+01
 20
2.97592529E+02
  0
SEQEND
  8
0
  0
ARC
  8
0
 62
4
 10
-5.96166958E+01
 20
3.12012670E+02
 40
1.61228529E+01
 50
2.83811345E+02
 51
2.97258956E+02
  0
ARC
  8
0
 62
4
 10
-4.83832787E+01
 20
3.12012678E+02
 40
1.61228609E+01
 50
2.42741048E+02
 51
2.56188651E+02
  0
POLYLINE
  8
0
 62
4
 66
1
  0
VERTEX
  8
0
 62
4
 10
-5.02999886E+01
 20
3.00146056E+02
  0
VERTEX
  8
0
 62
4
 10
-5.04466312E+01
 20
3.00264762E+02
  0
VERTEX
  8
0
 62
4
 10
-5.06203499E+01
 20
3.00378225E+02
  0
VERTEX
  8
0
 62
4
 10
-5.08198210E+01
 20
3.00485580E+02
  0
VERTEX
  8
0
 62
4
 10
-5.10435246E+01
 20
3.00586010E+02
  0
VERTEX
  8
0
 62
4
 10
-5.12897562E+01
 20
3.00678750E+02
  0
VERTEX
  8
0
 62
4
 10
-5.15566393E+01
 20
3.00763091E+02
  0
VERTEX
  8
0
 62
4
 10
-5.18421405E+01
 20
3.00838393E+02
  0
VERTEX
  8
0
 62
4
 10
-5.21440842E+01
 20
3.00904081E+02
  0
VERTEX
  8
0
 62
4
 10
-5.24601697E+01
 20
3.00959654E+02
  0
VERTEX
  8
0
 62
4
 10
-5.27879884E+01
 20
3.01004689E+02
  0
VERTEX
  8
0
 62
4
 10
-5.31250424E+01
 20
3.01038843E+02
  0
VERTEX
  8
0
 62
4
 10
-5.34687634E+01
 20
3.01061856E+02
  0
VERTEX
  8
0
 62
4
 10
-5.38165323E+01
 20
3.01073553E+02
  0
VERTEX
  8
0
 62
4
 10
-5.41656991E+01
 20
3.01073843E+02
  0
VERTEX
  8
0
 62
4
 10
-5.45136032E+01
 20
3.01062725E+02
  0
VERTEX
  8
0
 62
4
 10
-5.48575936E+01
 20
3.01040284E+02
  0
VERTEX
  8
0
 62
4
 10
-5.51950491E+01
 20
3.01006691E+02
  0
VERTEX
  8
0
 62
4
 10
-5.55233985E+01
 20
3.00962202E+02
  0
VERTEX
  8
0
 62
4
 10
-5.58401396E+01
 20
3.00907155E+02
  0
VERTEX
  8
0
 62
4
 10
-5.61428590E+01
 20
3.00841970E+02
  0
VERTEX
  8
0
 62
4
 10
-5.64292500E+01
 20
3.00767144E+02
  0
VERTEX
  8
0
 62
4
 10
-5.66971304E+01
 20
3.00683247E+02
  0
VERTEX
  8
0
 62
4
 10
-5.69444588E+01
 20
3.00590918E+02
  0
VERTEX
  8
0
 62
4
 10
-5.71693508E+01
 20
3.00490862E+02
  0
VERTEX
  8
0
 62
4
 10
-5.73700926E+01
 20
3.00383839E+02
  0
VERTEX
  8
0
 62
4
 10
-5.75451546E+01
 20
3.00270666E+02
  0
VERTEX
  8
0
 62
4
 10
-5.76932029E+01
 20
3.00152205E+02
  0
VERTEX
  8
0
 62
4
 10
-5.78131093E+01
 20
3.00029359E+02
  0
VERTEX
  8
0
 62
4
 10
-5.79039602E+01
 20
2.99903064E+02
  0
VERTEX
  8
0
 62
4
 10
-5.79650634E+01
 20
2.99774282E+02
  0
VERTEX
  8
0
 62
4
 10
-5.79959532E+01
 20
2.99643994E+02
  0
SEQEND
  8
0
  0
LINE
  8
0
 62
4
 10
-4.98999886E+01
 20
2.99960642E+02
 11
-4.98999886E+01
 21
2.98482911E+02
  0
POLYLINE
  8
0
 62
4
 66
1
  0
VERTEX
  8
0
 62
4
 10
-4.30999886E+01
 20
2.99960642E+02
  0
VERTEX
  8
0
 62
4
 10
-4.31136760E+01
 20
3.00074812E+02
  0
VERTEX
  8
0
 62
4
 10
-4.31546280E+01
 20
3.00188063E+02
  0
VERTEX
  8
0
 62
4
 10
-4.32225149E+01
 20
3.00299483E+02
  0
VERTEX
  8
0
 62
4
 10
-4.33167900E+01
 20
3.00408175E+02
  0
VERTEX
  8
0
 62
4
 10
-4.34366944E+01
 20
3.00513263E+02
  0
VERTEX
  8
0
 62
4
 10
-4.35812627E+01
 20
3.00613903E+02
  0
VERTEX
  8
0
 62
4
 10
-4.37493308E+01
 20
3.00709282E+02
  0
VERTEX
  8
0
 62
4
 10
-4.39395456E+01
 20
3.00798634E+02
  0
VERTEX
  8
0
 62
4
 10
-4.41503756E+01
 20
3.00881239E+02
  0
VERTEX
  8
0
 62
4
 10
-4.43801233E+01
 20
3.00956431E+02
  0
VERTEX
  8
0
 62
4
 10
-4.46269388E+01
 20
3.01023607E+02
  0
VERTEX
  8
0
 62
4
 10
-4.48888351E+01
 20
3.01082223E+02
  0
VERTEX
  8
0
 62
4
 10
-4.51637035E+01
 20
3.01131810E+02
  0
VERTEX
  8
0
 62
4
 10
-4.54493308E+01
 20
3.01171967E+02
  0
VERTEX
  8
0
 62
4
 10
-4.57434174E+01
 20
3.01202371E+02
  0
VERTEX
  8
0
 62
4
 10
-4.60435955E+01
 20
3.01222777E+02
  0
VERTEX
  8
0
 62
4
 10
-4.63474482E+01
 20
3.01233022E+02
  0
VERTEX
  8
0
 62
4
 10
-4.66525290E+01
 20
3.01233022E+02
  0
VERTEX
  8
0
 62
4
 10
-4.69563817E+01
 20
3.01222777E+02
  0
VERTEX
  8
0
 62
4
 10
-4.72565598E+01
 20
3.01202371E+02
  0
VERTEX
  8
0
 62
4
 10
-4.75506464E+01
 20
3.01171967E+02
  0
VERTEX
  8
0
 62
4
 10
-4.78362737E+01
 20
3.01131810E+02
  0
VERTEX
  8
0
 62
4
 10
-4.81111420E+01
 20
3.01082223E+02
  0
VERTEX
  8
0
 62
4
 10
-4.83730383E+01
 20
3.01023607E+02
  0
VERTEX
  8
0
 62
4
 10
-4.86198539E+01
 20
3.00956431E+02
  0
VERTEX
  8
0
 62
4
 10
-4.88496016E+01
 20
3.00881239E+02
  0
VERTEX
  8
0
 62
4
 10
-4.90604316E+01
 20
3.00798634E+02
  0
VERTEX
  8
0
 62
4
 10
-4.92506464E+01
 20
3.00709282E+02
  0
VERTEX
  8
0
 62
4
 10
-4.94187145E+01
 20
3.00613903E+02
  0
VERTEX
  8
0
 62
4
 10
-4.95632827E+01
 20
3.00513263E+02
  0
VERTEX
  8
0
 62
4
 10
-4.96831872E+01
 20
3.00408175E+02
  0
VERTEX
  8
0
 62
4
 10
-4.97774623E+01
 20
3.00299483E+02
  0
VERTEX
  8
0
 62
4
 10
-4.98453492E+01
 20
3.00188063E+02
  0
VERTEX
  8
0
 62
4
 10
-4.98863012E+01
 20
3.00074812E+02
  0
VERTEX
  8
0
 62
4
 10
-4.98999886E+01
 20
2.99960642E+02
  0
SEQEND
  8
0
  0
POLYLINE
  8
0
 62
4
 66
1
  0
VERTEX
  8
0
 62
4
 10
-4.30999886E+01
 20
2.98912924E+02
  0
VERTEX
  8
0
 62
4
 10
-4.31136760E+01
 20
2.99027094E+02
  0
VERTEX
  8
0
 62
4
 10
-4.31546280E+01
 20
2.99140345E+02
  0
VERTEX
  8
0
 62
4
 10
-4.32225149E+01
 20
2.99251765E+02
  0
VERTEX
  8
0
 62
4
 10
-4.33167900E+01
 20
2.99360457E+02
  0
VERTEX
  8
0
 62
4
 10
-4.34366944E+01
 20
2.99465545E+02
  0
VERTEX
  8
0
 62
4
 10
-4.35812627E+01
 20
2.99566185E+02
  0
VERTEX
  8
0
 62
4
 10
-4.37493308E+01
 20
2.99661564E+02
  0
VERTEX
  8
0
 62
4
 10
-4.39395456E+01
 20
2.99750916E+02
  0
VERTEX
  8
0
 62
4
 10
-4.41503756E+01
 20
2.99833521E+02
  0
VERTEX
  8
0
 62
4
 10
-4.43801233E+01
 20
2.99908713E+02
  0
VERTEX
  8
0
 62
4
 10
-4.46269388E+01
 20
2.99975889E+02
  0
VERTEX
  8
0
 62
4
 10
-4.48888351E+01
 20
3.00034505E+02
  0
VERTEX
  8
0
 62
4
 10
-4.51637035E+01
 20
3.00084092E+02
  0
VERTEX
  8
0
 62
4
 10
-4.54493308E+01
 20
3.00124249E+02
  0
VERTEX
  8
0
 62
4
 10
-4.57434174E+01
 20
3.00154653E+02
  0
VERTEX
  8
0
 62
4
 10
-4.60435955E+01
 20
3.00175059E+02
  0
VERTEX
  8
0
 62
4
 10
-4.63474482E+01
 20
3.00185304E+02
  0
VERTEX
  8
0
 62
4
 10
-4.66525290E+01
 20
3.00185304E+02
  0
VERTEX
  8
0
 62
4
 10
-4.69563817E+01
 20
3.00175059E+02
  0
VERTEX
  8
0
 62
4
 10
-4.72565598E+01
 20
3.00154653E+02
  0
VERTEX
  8
0
 62
4
 10
-4.75506464E+01
 20
3.00124249E+02
  0
VERTEX
  8
0
 62
4
 10
-4.78362737E+01
 20
3.00084092E+02
  0
VERTEX
  8
0
 62
4
 10
-4.81111420E+01
 20
3.00034505E+02
  0
VERTEX
  8
0
 62
4
 10
-4.83730383E+01
 20
2.99975889E+02
  0
VERTEX
  8
0
 62
4
 10
-4.86198539E+01
 20
2.99908713E+02
  0
VERTEX
  8
0
 62
4
 10
-4.88496016E+01
 20
2.99833521E+02
  0
VERTEX
  8
0
 62
4
 10
-4.90604316E+01
 20
2.99750916E+02
  0
VERTEX
  8
0
 62
4
 10
-4.92506464E+01
 20
2.99661564E+02
  0
VERTEX
  8
0
 62
4
 10
-4.94187145E+01
 20
2.99566185E+02
  0
VERTEX
  8
0
 62
4
 10
-4.95632827E+01
 20
2.99465545E+02
  0
VERTEX
  8
0
 62
4
 10
-4.96831872E+01
 20
2.99360457E+02
  0
VERTEX
  8
0
 62
4
 10
-4.97774623E+01
 20
2.99251765E+02
  0
VERTEX
  8
0
 62
4
 10
-4.98453492E+01
 20
2.99140345E+02
  0
VERTEX
  8
0
 62
4
 10
-4.98863012E+01
 20
2.99027094E+02
  0
VERTEX
  8
0
 62
4
 10
-4.98999886E+01
 20
2.98912924E+02
  0
SEQEND
  8
0
  0
LINE
  8
0
 62
4
 10
-4.30999886E+01
 20
2.98482911E+02
 11
-4.30999886E+01
 21
2.99960642E+02
  0
ARC
  8
0
 62
4
 10
-4.40999882E+01
 20
2.98482911E+02
 40
1.00000000E+00
 50
2.82827510E+02
 51
0.00000000E+00
  0
ARC
  8
0
 62
4
 10
-4.88999889E+01
 20
2.98482911E+02
 40
1.00000000E+00
 50
1.80000000E+02
 51
2.57172490E+02
  0
ARC
  8
0
 62
4
 10
-5.18873734E+01
 20
3.12239665E+02
 40
1.54729912E+01
 50
2.83783165E+02
 51
2.97543924E+02
  0
ARC
  8
0
 62
4
 10
-4.11126033E+01
 20
3.12239667E+02
 40
1.54729926E+01
 50
2.42456077E+02
 51
2.56216834E+02
  0
LINE
  8
0
 62
4
 10
-4.26999886E+01
 20
3.00887826E+02
 11
-4.26999886E+01
 21
2.99960642E+02
  0
LINE
  8
0
 62
4
 10
-5.02999886E+01
 20
3.00887826E+02
 11
-5.02999886E+01
 21
2.99960642E+02
  0
POLYLINE
  8
0
 62
4
 66
1
  0
VERTEX
  8
0
 62
4
 10
-4.26999886E+01
 20
3.00887826E+02
  0
VERTEX
  8
0
 62
4
 10
-4.27152863E+01
 20
3.01015428E+02
  0
VERTEX
  8
0
 62
4
 10
-4.27610562E+01
 20
3.01142003E+02
  0
VERTEX
  8
0
 62
4
 10
-4.28369297E+01
 20
3.01266531E+02
  0
VERTEX
  8
0
 62
4
 10
-4.29422961E+01
 20
3.01388010E+02
  0
VERTEX
  8
0
 62
4
 10
-4.30763069E+01
 20
3.01505462E+02
  0
VERTEX
  8
0
 62
4
 10
-4.32378832E+01
 20
3.01617941E+02
  0
VERTEX
  8
0
 62
4
 10
-4.34257240E+01
 20
3.01724541E+02
  0
VERTEX
  8
0
 62
4
 10
-4.36383170E+01
 20
3.01824405E+02
  0
VERTEX
  8
0
 62
4
 10
-4.38739505E+01
 20
3.01916728E+02
  0
VERTEX
  8
0
 62
4
 10
-4.41307273E+01
 20
3.02000767E+02
  0
VERTEX
  8
0
 62
4
 10
-4.44065801E+01
 20
3.02075845E+02
  0
VERTEX
  8
0
 62
4
 10
-4.46992877E+01
 20
3.02141358E+02
  0
VERTEX
  8
0
 62
4
 10
-4.50064935E+01
 20
3.02196778E+02
  0
VERTEX
  8
0
 62
4
 10
-4.53257240E+01
 20
3.02241660E+02
  0
VERTEX
  8
0
 62
4
 10
-4.56544090E+01
 20
3.02275641E+02
  0
VERTEX
  8
0
 62
4
 10
-4.59899022E+01
 20
3.02298448E+02
  0
VERTEX
  8
0
 62
4
 10
-4.63295022E+01
 20
3.02309898E+02
  0
VERTEX
  8
0
 62
4
 10
-4.66704749E+01
 20
3.02309898E+02
  0
VERTEX
  8
0
 62
4
 10
-4.70100750E+01
 20
3.02298448E+02
  0
VERTEX
  8
0
 62
4
 10
-4.73455681E+01
 20
3.02275641E+02
  0
VERTEX
  8
0
 62
4
 10
-4.76742532E+01
 20
3.02241660E+02
  0
VERTEX
  8
0
 62
4
 10
-4.79934837E+01
 20
3.02196778E+02
  0
VERTEX
  8
0
 62
4
 10
-4.83006895E+01
 20
3.02141358E+02
  0
VERTEX
  8
0
 62
4
 10
-4.85933971E+01
 20
3.02075845E+02
  0
VERTEX
  8
0
 62
4
 10
-4.88692498E+01
 20
3.02000767E+02
  0
VERTEX
  8
0
 62
4
 10
-4.91260266E+01
 20
3.01916728E+02
  0
VERTEX
  8
0
 62
4
 10
-4.93616602E+01
 20
3.01824405E+02
  0
VERTEX
  8
0
 62
4
 10
-4.95742532E+01
 20
3.01724541E+02
  0
VERTEX
  8
0
 62
4
 10
-4.97620940E+01
 20
3.01617941E+02
  0
VERTEX
  8
0
 62
4
 10
-4.99236703E+01
 20
3.01505462E+02
  0
VERTEX
  8
0
 62
4
 10
-5.00576811E+01
 20
3.01388010E+02
  0
VERTEX
  8
0
 62
4
 10
-5.01630475E+01
 20
3.01266531E+02
  0
VERTEX
  8
0
 62
4
 10
-5.02389210E+01
 20
3.01142003E+02
  0
VERTEX
  8
0
 62
4
 10
-5.02846909E+01
 20
3.01015428E+02
  0
VERTEX
  8
0
 62
4
 10
-5.02999886E+01
 20
3.00887826E+02
  0
SEQEND
  8
0
  0
POLYLINE
  8
0
 62
4
 66
1
  0
VERTEX
  8
0
 62
4
 10
-4.30999886E+01
 20
2.99324914E+02
  0
VERTEX
  8
0
 62
4
 10
-4.29634069E+01
 20
2.99439873E+02
  0
VERTEX
  8
0
 62
4
 10
-4.28544591E+01
 20
2.99558901E+02
  0
VERTEX
  8
0
 62
4
 10
-4.27739963E+01
 20
2.99681069E+02
  0
VERTEX
  8
0
 62
4
 10
-4.27226473E+01
 20
2.99805421E+02
  0
VERTEX
  8
0
 62
4
 10
-4.27008133E+01
 20
2.99930986E+02
  0
VERTEX
  8
0
 62
4
 10
-4.27086650E+01
 20
3.00056782E+02
  0
VERTEX
  8
0
 62
4
 10
-4.27461410E+01
 20
3.00181827E+02
  0
VERTEX
  8
0
 62
4
 10
-4.28129484E+01
 20
3.00305145E+02
  0
VERTEX
  8
0
 62
4
 10
-4.29085652E+01
 20
3.00425770E+02
  0
VERTEX
  8
0
 62
4
 10
-4.30322444E+01
 20
3.00542761E+02
  0
VERTEX
  8
0
 62
4
 10
-4.31830195E+01
 20
3.00655203E+02
  0
VERTEX
  8
0
 62
4
 10
-4.33597124E+01
 20
3.00762218E+02
  0
VERTEX
  8
0
 62
4
 10
-4.35609424E+01
 20
3.00862970E+02
  0
VERTEX
  8
0
 62
4
 10
-4.37851374E+01
 20
3.00956672E+02
  0
VERTEX
  8
0
 62
4
 10
-4.40305453E+01
 20
3.01042591E+02
  0
VERTEX
  8
0
 62
4
 10
-4.42952488E+01
 20
3.01120055E+02
  0
VERTEX
  8
0
 62
4
 10
-4.45771794E+01
 20
3.01188461E+02
  0
VERTEX
  8
0
 62
4
 10
-4.48741343E+01
 20
3.01247272E+02
  0
VERTEX
  8
0
 62
4
 10
-4.51837932E+01
 20
3.01296031E+02
  0
VERTEX
  8
0
 62
4
 10
-4.55037364E+01
 20
3.01334355E+02
  0
VERTEX
  8
0
 62
4
 10
-4.58314640E+01
 20
3.01361945E+02
  0
VERTEX
  8
0
 62
4
 10
-4.61644153E+01
 20
3.01378586E+02
  0
VERTEX
  8
0
 62
4
 10
-4.64999886E+01
 20
3.01384147E+02
  0
VERTEX
  8
0
 62
4
 10
-4.68355620E+01
 20
3.01378586E+02
  0
VERTEX
  8
0
 62
4
 10
-4.71685132E+01
 20
3.01361945E+02
  0
VERTEX
  8
0
 62
4
 10
-4.74962409E+01
 20
3.01334355E+02
  0
VERTEX
  8
0
 62
4
 10
-4.78161841E+01
 20
3.01296031E+02
  0
VERTEX
  8
0
 62
4
 10
-4.81258429E+01
 20
3.01247272E+02
  0
VERTEX
  8
0
 62
4
 10
-4.84227978E+01
 20
3.01188461E+02
  0
VERTEX
  8
0
 62
4
 10
-4.87047284E+01
 20
3.01120055E+02
  0
VERTEX
  8
0
 62
4
 10
-4.89694319E+01
 20
3.01042591E+02
  0
VERTEX
  8
0
 62
4
 10
-4.92148399E+01
 20
3.00956672E+02
  0
VERTEX
  8
0
 62
4
 10
-4.94390348E+01
 20
3.00862970E+02
  0
VERTEX
  8
0
 62
4
 10
-4.96402649E+01
 20
3.00762218E+02
  0
VERTEX
  8
0
 62
4
 10
-4.98169578E+01
 20
3.00655203E+02
  0
VERTEX
  8
0
 62
4
 10
-4.99677328E+01
 20
3.00542761E+02
  0
VERTEX
  8
0
 62
4
 10
-5.00914120E+01
 20
3.00425770E+02
  0
VERTEX
  8
0
 62
4
 10
-5.01870288E+01
 20
3.00305145E+02
  0
VERTEX
  8
0
 62
4
 10
-5.02538362E+01
 20
3.00181827E+02
  0
VERTEX
  8
0
 62
4
 10
-5.02913122E+01
 20
3.00056782E+02
  0
VERTEX
  8
0
 62
4
 10
-5.02991639E+01
 20
2.99930986E+02
  0
VERTEX
  8
0
 62
4
 10
-5.02773299E+01
 20
2.99805421E+02
  0
VERTEX
  8
0
 62
4
 10
-5.02259809E+01
 20
2.99681069E+02
  0
VERTEX
  8
0
 62
4
 10
-5.01455181E+01
 20
2.99558901E+02
  0
VERTEX
  8
0
 62
4
 10
-5.00365703E+01
 20
2.99439873E+02
  0
VERTEX
  8
0
 62
4
 10
-4.98999886E+01
 20
2.99324914E+02
  0
SEQEND
  8
0
  0
ARC
  8
0
 62
4
 10
-4.64999886E+01
 20
3.04378462E+02
 40
7.36533796E+00
 50
2.47849417E+02
 51
2.92150583E+02
  0
LINE
  8
0
  6
CENTER
 62
6
 10
-6.39999886E+01
 20
3.00887826E+02
 11
-5.89999886E+01
 21
3.00887826E+02
  0
LINE
  8
0
  6
CENTER
 62
6
 10
-5.39999886E+01
 20
3.02076703E+02
 11
-5.39999886E+01
 21
2.97076703E+02
  0
LINE
  8
0
  6
CENTER
 62
6
 10
-5.64999886E+01
 20
2.99576703E+02
 11
-5.14999886E+01
 21
2.99576703E+02
  0
LINE
  8
0
  6
CENTER
 62
6
 10
-4.64999886E+01
 20
3.03387826E+02
 11
-4.64999886E+01
 21
2.98387826E+02
  0
LINE
  8
0
  6
CENTER
 62
6
 10
-4.89999886E+01
 20
3.00887826E+02
 11
-4.39999886E+01
 21
3.00887826E+02
  0
LINE
  8
0
 62
4
 10
-5.08512439E+01
 20
2.96579850E+02
 11
-3.89999886E+01
 21
2.96579850E+02
  0
LINE
  8
0
 62
4
 10
-6.89999886E+01
 20
3.02013642E+02
 11
-7.04999886E+01
 21
3.00885720E+02
  0
LINE
  8
0
 62
4
 10
-7.04999886E+01
 20
2.98785649E+02
 11
-6.89999886E+01
 21
2.98304907E+02
  0
LINE
  8
0
 62
4
 10
-7.04999886E+01
 20
2.97937165E+02
 11
-6.89999886E+01
 21
2.96806480E+02
  0
LINE
  8
0
 62
4
 10
-6.89999886E+01
 20
2.98304907E+02
 11
-5.81499886E+01
 21
2.98304907E+02
  0
LINE
  8
0
 62
4
 10
-6.89999886E+01
 20
2.96806480E+02
 11
-5.75804222E+01
 21
2.96806480E+02
  0
LINE
  8
0
 62
4
 10
-6.89999886E+01
 20
2.98677647E+02
 11
-5.81499886E+01
 21
2.98677647E+02
  0
LINE
  8
0
 62
4
 10
-4.39999886E+01
 20
2.96954456E+02
 11
-3.89999886E+01
 21
2.96954456E+02
  0
LINE
  8
0
 62
4
 10
-4.30999886E+01
 20
2.98677647E+02
 11
-3.89999886E+01
 21
2.98677647E+02
  0
LINE
  8
0
 62
4
 10
-5.04195549E+01
 20
2.96806480E+02
 11
-4.39999886E+01
 21
2.96806480E+02
  0
LINE
  8
0
 62
4
 10
-6.89999886E+01
 20
2.96806480E+02
 11
-6.89999886E+01
 21
2.96579850E+02
  0
LINE
  8
0
 62
4
 10
-6.89999886E+01
 20
2.98677647E+02
 11
-6.89999886E+01
 21
2.96806480E+02
  0
LINE
  8
0
 62
7
 10
-5.39999886E+01
 20
3.20000000E+02
 11
-8.29999886E+01
 21
3.20000000E+02
  0
LINE
  8
0
 62
7
 10
-5.39999886E+01
 20
3.24000031E+02
 11
-8.29999886E+01
 21
3.24000031E+02
  0
LINE
  8
0
 62
7
 10
-6.89999886E+01
 20
3.11000000E+02
 11
-8.29999886E+01
 21
3.11000000E+02
  0
LINE
  8
0
 62
7
 10
-1.00000114E+01
 20
2.49999985E+02
 11
-8.29999886E+01
 21
2.49999985E+02
  0
LINE
  8
0
 62
7
 10
-1.00000114E+01
 20
2.36999969E+02
 11
-8.29999886E+01
 21
2.36999969E+02
  0
LINE
  8
0
 62
7
 10
-1.00000114E+01
 20
2.40999985E+02
 11
-8.29999886E+01
 21
2.40999985E+02
  0
LINE
  8
0
 62
4
 10
-8.09999886E+01
 20
-2.32318859E+02
 11
-8.09999886E+01
 21
-2.45318859E+02
  0
ARC
  8
0
 62
4
 10
-8.04999843E+01
 20
-2.32318864E+02
 40
5.00004272E-01
 50
9.00004895E+01
 51
1.79999510E+02
  0
LINE
  8
0
 62
4
 10
-7.14999886E+01
 20
-2.31818859E+02
 11
-8.04999886E+01
 21
-2.31818859E+02
  0
LINE
  8
0
 62
4
 10
-9.09999886E+01
 20
-2.45731826E+02
 11
-8.59999886E+01
 21
-2.45731826E+02
  0
LINE
  8
0
 62
4
 10
-9.09999886E+01
 20
-2.32827189E+02
 11
-8.59999886E+01
 21
-2.32827189E+02
  0
LINE
  8
0
 62
4
 10
-9.09999886E+01
 20
-2.39740180E+02
 11
-8.59999886E+01
 21
-2.39740180E+02
  0
POLYLINE
  8
0
 62
4
 66
1
  0
VERTEX
  8
0
 62
4
 10
-6.05999886E+01
 20
-2.61335177E+02
  0
VERTEX
  8
0
 62
4
 10
-6.06129266E+01
 20
-2.61055514E+02
  0
VERTEX
  8
0
 62
4
 10
-6.06516422E+01
 20
-2.60777980E+02
  0
VERTEX
  8
0
 62
4
 10
-6.07158408E+01
 20
-2.60504687E+02
  0
VERTEX
  8
0
 62
4
 10
-6.08050337E+01
 20
-2.60237714E+02
  0
VERTEX
  8
0
 62
4
 10
-6.09185421E+01
 20
-2.59979093E+02
  0
VERTEX
  8
0
 62
4
 10
-6.10555022E+01
 20
-2.59730793E+02
  0
VERTEX
  8
0
 62
4
 10
-6.12148716E+01
 20
-2.59494704E+02
  0
VERTEX
  8
0
 62
4
 10
-6.13954375E+01
 20
-2.59272621E+02
  0
VERTEX
  8
0
 62
4
 10
-6.15958255E+01
 20
-2.59066236E+02
  0
VERTEX
  8
0
 62
4
 10
-6.18145107E+01
 20
-2.58877119E+02
  0
VERTEX
  8
0
 62
4
 10
-6.20498287E+01
 20
-2.58706709E+02
  0
VERTEX
  8
0
 62
4
 10
-6.22999886E+01
 20
-2.58556303E+02
  0
VERTEX
  8
0
 62
4
 10
-6.25630865E+01
 20
-2.58427046E+02
  0
VERTEX
  8
0
 62
4
 10
-6.28371201E+01
 20
-2.58319922E+02
  0
VERTEX
  8
0
 62
4
 10
-6.31200038E+01
 20
-2.58235746E+02
  0
VERTEX
  8
0
 62
4
 10
-6.34095848E+01
 20
-2.58175158E+02
  0
VERTEX
  8
0
 62
4
 10
-6.37036591E+01
 20
-2.58138620E+02
  0
VERTEX
  8
0
 62
4
 10
-6.39999886E+01
 20
-2.58126410E+02
  0
VERTEX
  8
0
 62
4
 10
-6.42963181E+01
 20
-2.58138620E+02
  0
VERTEX
  8
0
 62
4
 10
-6.45903924E+01
 20
-2.58175158E+02
  0
VERTEX
  8
0
 62
4
 10
-6.48799734E+01
 20
-2.58235746E+02
  0
VERTEX
  8
0
 62
4
 10
-6.51628571E+01
 20
-2.58319922E+02
  0
VERTEX
  8
0
 62
4
 10
-6.54368907E+01
 20
-2.58427046E+02
  0
VERTEX
  8
0
 62
4
 10
-6.56999886E+01
 20
-2.58556303E+02
  0
VERTEX
  8
0
 62
4
 10
-6.59501485E+01
 20
-2.58706709E+02
  0
VERTEX
  8
0
 62
4
 10
-6.61854665E+01
 20
-2.58877119E+02
  0
VERTEX
  8
0
 62
4
 10
-6.64041517E+01
 20
-2.59066236E+02
  0
VERTEX
  8
0
 62
4
 10
-6.66045397E+01
 20
-2.59272621E+02
  0
VERTEX
  8
0
 62
4
 10
-6.67851056E+01
 20
-2.59494704E+02
  0
VERTEX
  8
0
 62
4
 10
-6.69444750E+01
 20
-2.59730793E+02
  0
VERTEX
  8
0
 62
4
 10
-6.70814351E+01
 20
-2.59979093E+02
  0
VERTEX
  8
0
 62
4
 10
-6.71949435E+01
 20
-2.60237714E+02
  0
VERTEX
  8
0
 62
4
 10
-6.72841364E+01
 20
-2.60504687E+02
  0
VERTEX
  8
0
 62
4
 10
-6.73483350E+01
 20
-2.60777980E+02
  0
VERTEX
  8
0
 62
4
 10
-6.73870506E+01
 20
-2.61055514E+02
  0
VERTEX
  8
0
 62
4
 10
-6.73999886E+01
 20
-2.61335177E+02
  0
VERTEX
  8
0
 62
4
 10
-6.73870506E+01
 20
-2.61614840E+02
  0
VERTEX
  8
0
 62
4
 10
-6.73483350E+01
 20
-2.61892374E+02
  0
VERTEX
  8
0
 62
4
 10
-6.72841364E+01
 20
-2.62165667E+02
  0
VERTEX
  8
0
 62
4
 10
-6.71949435E+01
 20
-2.62432640E+02
  0
VERTEX
  8
0
 62
4
 10
-6.70814351E+01
 20
-2.62691261E+02
  0
VERTEX
  8
0
 62
4
 10
-6.69444750E+01
 20
-2.62939561E+02
  0
VERTEX
  8
0
 62
4
 10
-6.67851055E+01
 20
-2.63175650E+02
  0
VERTEX
  8
0
 62
4
 10
-6.66045397E+01
 20
-2.63397733E+02
  0
VERTEX
  8
0
 62
4
 10
-6.64041517E+01
 20
-2.63604118E+02
  0
VERTEX
  8
0
 62
4
 10
-6.61854665E+01
 20
-2.63793235E+02
  0
VERTEX
  8
0
 62
4
 10
-6.59501485E+01
 20
-2.63963645E+02
  0
VERTEX
  8
0
 62
4
 10
-6.56999886E+01
 20
-2.64114051E+02
  0
VERTEX
  8
0
 62
4
 10
-6.54368907E+01
 20
-2.64243308E+02
  0
VERTEX
  8
0
 62
4
 10
-6.51628571E+01
 20
-2.64350432E+02
  0
VERTEX
  8
0
 62
4
 10
-6.48799733E+01
 20
-2.64434608E+02
  0
VERTEX
  8
0
 62
4
 10
-6.45903924E+01
 20
-2.64495196E+02
  0
VERTEX
  8
0
 62
4
 10
-6.42963181E+01
 20
-2.64531734E+02
  0
VERTEX
  8
0
 62
4
 10
-6.39999886E+01
 20
-2.64543944E+02
  0
VERTEX
  8
0
 62
4
 10
-6.37036591E+01
 20
-2.64531734E+02
  0
VERTEX
  8
0
 62
4
 10
-6.34095848E+01
 20
-2.64495196E+02
  0
VERTEX
  8
0
 62
4
 10
-6.31200038E+01
 20
-2.64434608E+02
  0
VERTEX
  8
0
 62
4
 10
-6.28371201E+01
 20
-2.64350432E+02
  0
VERTEX
  8
0
 62
4
 10
-6.25630865E+01
 20
-2.64243308E+02
  0
VERTEX
  8
0
 62
4
 10
-6.22999886E+01
 20
-2.64114051E+02
  0
VERTEX
  8
0
 62
4
 10
-6.20498287E+01
 20
-2.63963645E+02
  0
VERTEX
  8
0
 62
4
 10
-6.18145107E+01
 20
-2.63793235E+02
  0
VERTEX
  8
0
 62
4
 10
-6.15958255E+01
 20
-2.63604118E+02
  0
VERTEX
  8
0
 62
4
 10
-6.13954375E+01
 20
-2.63397733E+02
  0
VERTEX
  8
0
 62
4
 10
-6.12148716E+01
 20
-2.63175650E+02
  0
VERTEX
  8
0
 62
4
 10
-6.10555022E+01
 20
-2.62939561E+02
  0
VERTEX
  8
0
 62
4
 10
-6.09185421E+01
 20
-2.62691261E+02
  0
VERTEX
  8
0
 62
4
 10
-6.08050337E+01
 20
-2.62432640E+02
  0
VERTEX
  8
0
 62
4
 10
-6.07158408E+01
 20
-2.62165667E+02
  0
VERTEX
  8
0
 62
4
 10
-6.06516422E+01
 20
-2.61892374E+02
  0
VERTEX
  8
0
 62
4
 10
-6.06129266E+01
 20
-2.61614839E+02
  0
VERTEX
  8
0
 62
4
 10
-6.05999886E+01
 20
-2.61335177E+02
  0
SEQEND
  8
0
  0
POLYLINE
  8
0
 62
4
 66
1
  0
VERTEX
  8
0
 62
4
 10
-6.73806586E+01
 20
-2.61676837E+02
  0
VERTEX
  8
0
 62
4
 10
-6.73994134E+01
 20
-2.61952525E+02
  0
VERTEX
  8
0
 62
4
 10
-6.73916874E+01
 20
-2.62228661E+02
  0
VERTEX
  8
0
 62
4
 10
-6.73575408E+01
 20
-2.62503095E+02
  0
VERTEX
  8
0
 62
4
 10
-6.72972396E+01
 20
-2.62773688E+02
  0
VERTEX
  8
0
 62
4
 10
-6.72112535E+01
 20
-2.63038333E+02
  0
VERTEX
  8
0
 62
4
 10
-6.71002524E+01
 20
-2.63294969E+02
  0
VERTEX
  8
0
 62
4
 10
-6.69651009E+01
 20
-2.63541595E+02
  0
VERTEX
  8
0
 62
4
 10
-6.68068518E+01
 20
-2.63776292E+02
  0
VERTEX
  8
0
 62
4
 10
-6.66267379E+01
 20
-2.63997230E+02
  0
VERTEX
  8
0
 62
4
 10
-6.64261621E+01
 20
-2.64202689E+02
  0
VERTEX
  8
0
 62
4
 10
-6.62066870E+01
 20
-2.64391068E+02
  0
VERTEX
  8
0
 62
4
 10
-6.59700222E+01
 20
-2.64560899E+02
  0
VERTEX
  8
0
 62
4
 10
-6.57180113E+01
 20
-2.64710861E+02
  0
VERTEX
  8
0
 62
4
 10
-6.54526173E+01
 20
-2.64839784E+02
  0
VERTEX
  8
0
 62
4
 10
-6.51759077E+01
 20
-2.64946664E+02
  0
VERTEX
  8
0
 62
4
 10
-6.48900380E+01
 20
-2.65030669E+02
  0
VERTEX
  8
0
 62
4
 10
-6.45972349E+01
 20
-2.65091145E+02
  0
VERTEX
  8
0
 62
4
 10
-6.42997794E+01
 20
-2.65127620E+02
  0
VERTEX
  8
0
 62
4
 10
-6.39999886E+01
 20
-2.65139809E+02
  0
VERTEX
  8
0
 62
4
 10
-6.37001978E+01
 20
-2.65127620E+02
  0
VERTEX
  8
0
 62
4
 10
-6.34027423E+01
 20
-2.65091145E+02
  0
VERTEX
  8
0
 62
4
 10
-6.31099393E+01
 20
-2.65030669E+02
  0
VERTEX
  8
0
 62
4
 10
-6.28240695E+01
 20
-2.64946664E+02
  0
VERTEX
  8
0
 62
4
 10
-6.25473599E+01
 20
-2.64839784E+02
  0
VERTEX
  8
0
 62
4
 10
-6.22819659E+01
 20
-2.64710861E+02
  0
VERTEX
  8
0
 62
4
 10
-6.20299550E+01
 20
-2.64560899E+02
  0
VERTEX
  8
0
 62
4
 10
-6.17932902E+01
 20
-2.64391068E+02
  0
VERTEX
  8
0
 62
4
 10
-6.15738151E+01
 20
-2.64202689E+02
  0
VERTEX
  8
0
 62
4
 10
-6.13732393E+01
 20
-2.63997230E+02
  0
VERTEX
  8
0
 62
4
 10
-6.11931254E+01
 20
-2.63776292E+02
  0
VERTEX
  8
0
 62
4
 10
-6.10348763E+01
 20
-2.63541595E+02
  0
VERTEX
  8
0
 62
4
 10
-6.08997248E+01
 20
-2.63294969E+02
  0
VERTEX
  8
0
 62
4
 10
-6.07887237E+01
 20
-2.63038333E+02
  0
VERTEX
  8
0
 62
4
 10
-6.07027376E+01
 20
-2.62773688E+02
  0
VERTEX
  8
0
 62
4
 10
-6.06424364E+01
 20
-2.62503095E+02
  0
VERTEX
  8
0
 62
4
 10
-6.06082898E+01
 20
-2.62228661E+02
  0
VERTEX
  8
0
 62
4
 10
-6.06005638E+01
 20
-2.61952525E+02
  0
VERTEX
  8
0
 62
4
 10
-6.06193186E+01
 20
-2.61676837E+02
  0
SEQEND
  8
0
  0
POLYLINE
  8
0
 62
4
 66
1
  0
VERTEX
  8
0
 62
4
 10
-6.79985807E+01
 20
-2.62107775E+02
  0
VERTEX
  8
0
 62
4
 10
-6.79922516E+01
 20
-2.62434360E+02
  0
VERTEX
  8
0
 62
4
 10
-6.79545045E+01
 20
-2.62759144E+02
  0
VERTEX
  8
0
 62
4
 10
-6.78856365E+01
 20
-2.63079571E+02
  0
VERTEX
  8
0
 62
4
 10
-6.77861896E+01
 20
-2.63393118E+02
  0
VERTEX
  8
0
 62
4
 10
-6.76569463E+01
 20
-2.63697319E+02
  0
VERTEX
  8
0
 62
4
 10
-6.74989239E+01
 20
-2.63989779E+02
  0
VERTEX
  8
0
 62
4
 10
-6.73133658E+01
 20
-2.64268198E+02
  0
VERTEX
  8
0
 62
4
 10
-6.71017324E+01
 20
-2.64530383E+02
  0
VERTEX
  8
0
 62
4
 10
-6.68656892E+01
 20
-2.64774271E+02
  0
VERTEX
  8
0
 62
4
 10
-6.66070937E+01
 20
-2.64997944E+02
  0
VERTEX
  8
0
 62
4
 10
-6.63279810E+01
 20
-2.65199641E+02
  0
VERTEX
  8
0
 62
4
 10
-6.60305477E+01
 20
-2.65377774E+02
  0
VERTEX
  8
0
 62
4
 10
-6.57171345E+01
 20
-2.65530942E+02
  0
VERTEX
  8
0
 62
4
 10
-6.53902079E+01
 20
-2.65657940E+02
  0
VERTEX
  8
0
 62
4
 10
-6.50523406E+01
 20
-2.65757768E+02
  0
VERTEX
  8
0
 62
4
 10
-6.47061916E+01
 20
-2.65829640E+02
  0
VERTEX
  8
0
 62
4
 10
-6.43544850E+01
 20
-2.65872990E+02
  0
VERTEX
  8
0
 62
4
 10
-6.39999886E+01
 20
-2.65887478E+02
  0
VERTEX
  8
0
 62
4
 10
-6.36454922E+01
 20
-2.65872990E+02
  0
VERTEX
  8
0
 62
4
 10
-6.32937856E+01
 20
-2.65829640E+02
  0
VERTEX
  8
0
 62
4
 10
-6.29476366E+01
 20
-2.65757768E+02
  0
VERTEX
  8
0
 62
4
 10
-6.26097693E+01
 20
-2.65657940E+02
  0
VERTEX
  8
0
 62
4
 10
-6.22828427E+01
 20
-2.65530942E+02
  0
VERTEX
  8
0
 62
4
 10
-6.19694295E+01
 20
-2.65377774E+02
  0
VERTEX
  8
0
 62
4
 10
-6.16719962E+01
 20
-2.65199641E+02
  0
VERTEX
  8
0
 62
4
 10
-6.13928835E+01
 20
-2.64997944E+02
  0
VERTEX
  8
0
 62
4
 10
-6.11342880E+01
 20
-2.64774271E+02
  0
VERTEX
  8
0
 62
4
 10
-6.08982448E+01
 20
-2.64530383E+02
  0
VERTEX
  8
0
 62
4
 10
-6.06866114E+01
 20
-2.64268198E+02
  0
VERTEX
  8
0
 62
4
 10
-6.05010533E+01
 20
-2.63989779E+02
  0
VERTEX
  8
0
 62
4
 10
-6.03430309E+01
 20
-2.63697319E+02
  0
VERTEX
  8
0
 62
4
 10
-6.02137876E+01
 20
-2.63393118E+02
  0
VERTEX
  8
0
 62
4
 10
-6.01143407E+01
 20
-2.63079571E+02
  0
VERTEX
  8
0
 62
4
 10
-6.00454727E+01
 20
-2.62759144E+02
  0
VERTEX
  8
0
 62
4
 10
-6.00077256E+01
 20
-2.62434360E+02
  0
VERTEX
  8
0
 62
4
 10
-6.00013965E+01
 20
-2.62107775E+02
  0
SEQEND
  8
0
  0
POLYLINE
  8
0
 62
4
 66
1
  0
VERTEX
  8
0
 62
4
 10
-6.64085825E+01
 20
-2.59070427E+02
  0
VERTEX
  8
0
 62
4
 10
-6.66786183E+01
 20
-2.59275567E+02
  0
VERTEX
  8
0
 62
4
 10
-6.69281318E+01
 20
-2.59501658E+02
  0
VERTEX
  8
0
 62
4
 10
-6.71552113E+01
 20
-2.59746967E+02
  0
VERTEX
  8
0
 62
4
 10
-6.73581170E+01
 20
-2.60009615E+02
  0
VERTEX
  8
0
 62
4
 10
-6.75352944E+01
 20
-2.60287589E+02
  0
VERTEX
  8
0
 62
4
 10
-6.76853860E+01
 20
-2.60578761E+02
  0
VERTEX
  8
0
 62
4
 10
-6.78072419E+01
 20
-2.60880899E+02
  0
VERTEX
  8
0
 62
4
 10
-6.78999285E+01
 20
-2.61191688E+02
  0
VERTEX
  8
0
 62
4
 10
-6.79627357E+01
 20
-2.61508747E+02
  0
VERTEX
  8
0
 62
4
 10
-6.79951823E+01
 20
-2.61829648E+02
  0
VERTEX
  8
0
 62
4
 10
-6.79970197E+01
 20
-2.62151930E+02
  0
VERTEX
  8
0
 62
4
 10
-6.79682337E+01
 20
-2.62473127E+02
  0
VERTEX
  8
0
 62
4
 10
-6.79090451E+01
 20
-2.62790775E+02
  0
VERTEX
  8
0
 62
4
 10
-6.78199071E+01
 20
-2.63102443E+02
  0
VERTEX
  8
0
 62
4
 10
-6.77015029E+01
 20
-2.63405741E+02
  0
VERTEX
  8
0
 62
4
 10
-6.75547394E+01
 20
-2.63698347E+02
  0
VERTEX
  8
0
 62
4
 10
-6.73807412E+01
 20
-2.63978018E+02
  0
VERTEX
  8
0
 62
4
 10
-6.71808413E+01
 20
-2.64242612E+02
  0
VERTEX
  8
0
 62
4
 10
-6.69565713E+01
 20
-2.64490101E+02
  0
VERTEX
  8
0
 62
4
 10
-6.67096494E+01
 20
-2.64718590E+02
  0
VERTEX
  8
0
 62
4
 10
-6.64419675E+01
 20
-2.64926327E+02
  0
VERTEX
  8
0
 62
4
 10
-6.61555763E+01
 20
-2.65111722E+02
  0
VERTEX
  8
0
 62
4
 10
-6.58526700E+01
 20
-2.65273354E+02
  0
VERTEX
  8
0
 62
4
 10
-6.55355694E+01
 20
-2.65409984E+02
  0
VERTEX
  8
0
 62
4
 10
-6.52067039E+01
 20
-2.65520566E+02
  0
VERTEX
  8
0
 62
4
 10
-6.48685932E+01
 20
-2.65604252E+02
  0
VERTEX
  8
0
 62
4
 10
-6.45238277E+01
 20
-2.65660402E+02
  0
VERTEX
  8
0
 62
4
 10
-6.41750487E+01
 20
-2.65688584E+02
  0
VERTEX
  8
0
 62
4
 10
-6.38249285E+01
 20
-2.65688584E+02
  0
VERTEX
  8
0
 62
4
 10
-6.34761496E+01
 20
-2.65660402E+02
  0
VERTEX
  8
0
 62
4
 10
-6.31313840E+01
 20
-2.65604252E+02
  0
VERTEX
  8
0
 62
4
 10
-6.27932733E+01
 20
-2.65520566E+02
  0
VERTEX
  8
0
 62
4
 10
-6.24644078E+01
 20
-2.65409984E+02
  0
VERTEX
  8
0
 62
4
 10
-6.21473072E+01
 20
-2.65273354E+02
  0
VERTEX
  8
0
 62
4
 10
-6.18444010E+01
 20
-2.65111722E+02
  0
VERTEX
  8
0
 62
4
 10
-6.15580098E+01
 20
-2.64926327E+02
  0
VERTEX
  8
0
 62
4
 10
-6.12903278E+01
 20
-2.64718590E+02
  0
VERTEX
  8
0
 62
4
 10
-6.10434059E+01
 20
-2.64490101E+02
  0
VERTEX
  8
0
 62
4
 10
-6.08191359E+01
 20
-2.64242612E+02
  0
VERTEX
  8
0
 62
4
 10
-6.06192360E+01
 20
-2.63978018E+02
  0
VERTEX
  8
0
 62
4
 10
-6.04452378E+01
 20
-2.63698347E+02
  0
VERTEX
  8
0
 62
4
 10
-6.02984743E+01
 20
-2.63405741E+02
  0
VERTEX
  8
0
 62
4
 10
-6.01800701E+01
 20
-2.63102443E+02
  0
VERTEX
  8
0
 62
4
 10
-6.00909321E+01
 20
-2.62790775E+02
  0
VERTEX
  8
0
 62
4
 10
-6.00317435E+01
 20
-2.62473127E+02
  0
VERTEX
  8
0
 62
4
 10
-6.00029575E+01
 20
-2.62151930E+02
  0
VERTEX
  8
0
 62
4
 10
-6.00047949E+01
 20
-2.61829648E+02
  0
VERTEX
  8
0
 62
4
 10
-6.00372415E+01
 20
-2.61508747E+02
  0
VERTEX
  8
0
 62
4
 10
-6.01000487E+01
 20
-2.61191688E+02
  0
VERTEX
  8
0
 62
4
 10
-6.01927353E+01
 20
-2.60880899E+02
  0
VERTEX
  8
0
 62
4
 10
-6.03145912E+01
 20
-2.60578761E+02
  0
VERTEX
  8
0
 62
4
 10
-6.04646828E+01
 20
-2.60287589E+02
  0
VERTEX
  8
0
 62
4
 10
-6.06418602E+01
 20
-2.60009615E+02
  0
VERTEX
  8
0
 62
4
 10
-6.08447659E+01
 20
-2.59746967E+02
  0
VERTEX
  8
0
 62
4
 10
-6.10718454E+01
 20
-2.59501658E+02
  0
VERTEX
  8
0
 62
4
 10
-6.13213589E+01
 20
-2.59275567E+02
  0
VERTEX
  8
0
 62
4
 10
-6.15913947E+01
 20
-2.59070427E+02
  0
SEQEND
  8
0
  0
LINE
  8
0
 62
4
 10
-3.99999886E+01
 20
-2.76000000E+02
 11
-3.99999886E+01
 21
-2.73963458E+02
  0
LINE
  8
0
 62
4
 10
-7.29999886E+01
 20
-2.76000000E+02
 11
-7.29999886E+01
 21
-2.73963458E+02
  0
LINE
  8
0
 62
4
 10
-3.99999886E+01
 20
-2.73963458E+02
 11
-3.69999886E+01
 21
-2.69109245E+02
  0
LINE
  8
0
 62
4
 10
-7.59999886E+01
 20
-2.69109245E+02
 11
-7.29999886E+01
 21
-2.73963458E+02
  0
LINE
  8
0
 62
4
 10
-7.14999886E+01
 20
-2.52457438E+02
 11
-5.64999886E+01
 21
-2.52457438E+02
  0
LINE
  8
0
 62
4
 10
-7.14999886E+01
 20
-2.30365322E+02
 11
-5.64999886E+01
 21
-2.30365322E+02
  0
LINE
  8
0
 62
6
 10
-6.57149234E+01
 20
-2.62557058E+02
 11
-6.22850537E+01
 21
-2.59127183E+02
  0
LINE
  8
0
 62
6
 10
-6.22850513E+01
 20
-2.62557056E+02
 11
-6.57149259E+01
 21
-2.59127186E+02
  0
ARC
  8
0
 62
4
 10
-7.44999857E+01
 20
-2.57579770E+02
 40
1.50000284E+00
 50
9.00001085E+01
 51
1.79999892E+02
  0
ARC
  8
0
 62
4
 10
-8.04999928E+01
 20
-2.45318864E+02
 40
4.99995728E-01
 50
1.79999510E+02
 51
2.70000490E+02
  0
ARC
  8
0
 62
4
 10
-3.84999914E+01
 20
-2.57579770E+02
 40
1.50000284E+00
 50
1.08554370E-04
 51
8.99998913E+01
  0
ARC
  8
0
 62
4
 10
-7.19999928E+01
 20
-2.46318864E+02
 40
5.00004272E-01
 50
4.89585868E-04
 51
8.99995103E+01
  0
LINE
  8
0
 62
4
 10
-8.44999886E+01
 20
-2.44568859E+02
 11
-8.09999886E+01
 21
-2.44568859E+02
  0
LINE
  8
0
 62
4
 10
-8.44999886E+01
 20
-2.33068859E+02
 11
-8.09999886E+01
 21
-2.33068859E+02
  0
LINE
  8
0
 62
4
 10
-8.44999886E+01
 20
-2.32568859E+02
 11
-8.44999886E+01
 21
-2.45068859E+02
  0
LINE
  8
0
 62
4
 10
-8.59999886E+01
 20
-2.45068859E+02
 11
-8.09999886E+01
 21
-2.45068859E+02
  0
LINE
  8
0
 62
4
 10
-8.59999886E+01
 20
-2.32568859E+02
 11
-8.09999886E+01
 21
-2.32568859E+02
  0
LINE
  8
0
 62
4
 10
-8.59999886E+01
 20
-2.31915048E+02
 11
-8.59999886E+01
 21
-2.45731826E+02
  0
LINE
  8
0
 62
4
 10
-9.09999886E+01
 20
-2.31915048E+02
 11
-9.09999886E+01
 21
-2.45731826E+02
  0
LINE
  8
0
 62
4
 10
-8.04999886E+01
 20
-2.45818859E+02
 11
-7.19999886E+01
 21
-2.45818859E+02
  0
LINE
  8
0
 62
4
 10
-9.09999886E+01
 20
-2.31915048E+02
 11
-8.59999886E+01
 21
-2.31915048E+02
  0
LINE
  8
0
 62
4
 10
-7.44999886E+01
 20
-2.56079767E+02
 11
-3.84999886E+01
 21
-2.56079767E+02
  0
LINE
  8
0
 62
4
 10
-7.59999886E+01
 20
-2.67728488E+02
 11
-3.69999886E+01
 21
-2.67728488E+02
  0
LINE
  8
0
 62
4
 10
-7.59999886E+01
 20
-2.69109245E+02
 11
-3.69999886E+01
 21
-2.69109245E+02
  0
LINE
  8
0
 62
4
 10
-7.29999886E+01
 20
-2.73963458E+02
 11
-3.99999886E+01
 21
-2.73963458E+02
  0
LINE
  8
0
 62
4
 10
-3.69999886E+01
 20
-2.57579767E+02
 11
-3.69999886E+01
 21
-2.69109245E+02
  0
LINE
  8
0
 62
4
 10
-5.44999886E+01
 20
-2.52596481E+02
 11
-5.44999886E+01
 21
-2.56079767E+02
  0
LINE
  8
0
 62
4
 10
-7.14999886E+01
 20
-2.30365322E+02
 11
-7.14999886E+01
 21
-2.52596481E+02
  0
LINE
  8
0
 62
4
 10
-5.64999886E+01
 20
-2.30365322E+02
 11
-5.64999886E+01
 21
-2.52596481E+02
  0
LINE
  8
0
 62
4
 10
-7.34999886E+01
 20
-2.52596481E+02
 11
-7.34999886E+01
 21
-2.56079767E+02
  0
LINE
  8
0
 62
4
 10
-7.59999886E+01
 20
-2.57579767E+02
 11
-7.59999886E+01
 21
-2.69109245E+02
  0
LINE
  8
0
 62
4
 10
-7.34999886E+01
 20
-2.52596481E+02
 11
-5.44999886E+01
 21
-2.52596481E+02
  0
LINE
  8
0
  6
CENTER
 62
6
 10
-7.03999886E+01
 20
-2.60842121E+02
 11
-5.75999886E+01
 21
-2.60842121E+02
  0
LINE
  8
0
  6
CENTER
 62
6
 10
-6.39999886E+01
 20
-2.67242121E+02
 11
-6.39999886E+01
 21
-2.54442121E+02
  0
LINE
  8
0
 62
4
 10
-3.97358813E+02
 20
-2.70173422E+02
 11
-3.90920824E+02
 21
-2.67440658E+02
  0
LINE
  8
0
 62
4
 10
-3.97358813E+02
 20
-2.70173422E+02
 11
-3.98544241E+02
 21
-2.72499925E+02
  0
LINE
  8
0
 62
4
 10
-3.99281949E+02
 20
-2.36226212E+02
 11
-3.94780680E+02
 21
-2.34315537E+02
  0
LINE
  8
0
 62
4
 10
-3.85474376E+02
 20
-2.30365245E+02
 11
-3.75706098E+02
 21
-2.53377867E+02
  0
LINE
  8
0
 62
4
 10
-3.99281949E+02
 20
-2.36226212E+02
 11
-3.89513670E+02
 21
-2.59238834E+02
  0
LINE
  8
0
 62
4
 10
-3.91354680E+02
 20
-2.60020296E+02
 11
-3.73865088E+02
 21
-2.52596404E+02
  0
LINE
  8
0
 62
4
 10
-3.89904402E+02
 20
-2.58318329E+02
 11
-3.76096829E+02
 21
-2.52457362E+02
  0
LINE
  8
0
 62
4
 10
-3.73865088E+02
 20
-2.52596404E+02
 11
-3.72302163E+02
 21
-2.56278424E+02
  0
LINE
  8
0
 62
4
 10
-3.91354680E+02
 20
-2.60020296E+02
 11
-3.89791756E+02
 21
-2.63702315E+02
  0
LINE
  8
0
 62
4
 10
-3.89791756E+02
 20
-2.63702315E+02
 11
-3.72302163E+02
 21
-2.56278424E+02
  0
LINE
  8
0
 62
4
 10
-3.72128077E+02
 20
-2.72499934E+02
 11
-3.64139934E+02
 21
-2.69109169E+02
  0
LINE
  8
0
 62
4
 10
-3.69024073E+02
 20
-2.57602858E+02
 11
-3.64139934E+02
 21
-2.69109169E+02
  0
LINE
  8
0
 62
4
 10
-3.91116190E+02
 20
-2.66980405E+02
 11
-3.88773291E+02
 21
-2.72499928E+02
  0
LINE
  8
0
 62
4
 10
-3.64139934E+02
 20
-2.69109169E+02
 11
-3.64977174E+02
 21
-2.72499937E+02
  0
LINE
  8
0
 62
4
 10
-3.75967031E+02
 20
-2.72499933E+02
 11
-3.64726031E+02
 21
-2.67728411E+02
  0
LINE
  8
0
 62
4
 10
-3.79762120E+02
 20
-2.68135871E+02
 11
-3.76080101E+02
 21
-2.66572946E+02
  0
LINE
  8
0
 62
4
 10
-3.78785292E+02
 20
-2.70437133E+02
 11
-3.75103273E+02
 21
-2.68874208E+02
  0
LINE
  8
0
 62
4
 10
-3.79762120E+02
 20
-2.68135871E+02
 11
-3.78785292E+02
 21
-2.70437133E+02
  0
LINE
  8
0
 62
4
 10
-3.76080101E+02
 20
-2.66572946E+02
 11
-3.75103273E+02
 21
-2.68874208E+02
  0
LINE
  8
0
 62
4
 10
-3.87099385E+02
 20
-2.45731749E+02
 11
-3.82581345E+02
 21
-2.39740104E+02
  0
LINE
  8
0
 62
4
 10
-3.97482299E+02
 20
-2.37906617E+02
 11
-3.92964259E+02
 21
-2.31914971E+02
  0
LINE
  8
0
 62
4
 10
-3.97482299E+02
 20
-2.37906617E+02
 11
-3.94547908E+02
 21
-2.44819608E+02
  0
LINE
  8
0
 62
4
 10
-3.85515736E+02
 20
-2.32827112E+02
 11
-3.82581345E+02
 21
-2.39740104E+02
  0
LINE
  8
0
 62
4
 10
-3.94547908E+02
 20
-2.44819608E+02
 11
-3.87099385E+02
 21
-2.45731749E+02
  0
LINE
  8
0
 62
4
 10
-3.92964259E+02
 20
-2.31914971E+02
 11
-3.85515736E+02
 21
-2.32827112E+02
  0
LINE
  8
0
 62
4
 10
-3.89984850E+02
 20
-2.32279828E+02
 11
-3.85474376E+02
 21
-2.30365245E+02
  0
LINE
  8
0
 62
4
 10
-3.68633342E+02
 20
-2.58523363E+02
 11
-3.68173090E+02
 21
-2.58327997E+02
  0
LINE
  8
0
 62
4
 10
-3.65507493E+02
 20
-2.65887402E+02
 11
-3.65047241E+02
 21
-2.65692036E+02
  0
LINE
  8
0
 62
4
 10
-3.67938651E+02
 20
-2.58880300E+02
 11
-3.66346178E+02
 21
-2.58204335E+02
  0
LINE
  8
0
 62
4
 10
-3.63689206E+02
 20
-2.64463768E+02
 11
-3.65281680E+02
 21
-2.65139733E+02
  0
LINE
  8
0
  6
CENTER
 62
6
 10
-3.91322846E+02
 20
-2.72499927E+02
 11
-3.61087136E+02
 21
-2.59665630E+02
  0
LINE
  8
0
 62
4
 10
-3.68173090E+02
 20
-2.58327997E+02
 11
-3.65047241E+02
 21
-2.65692036E+02
  0
ARC
  8
0
 62
4
 10
-3.64081021E+02
 20
-2.63545523E+02
 40
9.98345090E-01
 50
2.93107940E+02
 51
9.77816763E+00
  0
ARC
  8
0
 62
4
 10
-3.65959546E+02
 20
-2.59123543E+02
 40
9.97209177E-01
 50
3.55805360E+01
 51
1.12812291E+02
  0
CIRCLE
  8
0
 62
4
 10
-3.90033774E+02
 20
-2.38818783E+02
 40
3.75000000E+00
  0
ARC
  8
0
 62
4
 10
-3.74710970E+02
 20
-2.65484419E+02
 40
1.18036308E+01
 50
1.02898056E+01
 51
3.59747793E+01
  0
ARC
  8
0
 62
4
 10
-3.88814912E+02
 20
-2.66003584E+02
 40
2.50001192E+00
 50
1.13000273E+02
 51
2.02999727E+02
  0
ARC
  8
0
 62
4
 10
-3.71325344E+02
 20
-2.58579707E+02
 40
2.50001570E+00
 50
2.30003598E+01
 51
1.12999640E+02
  0
ARC
  8
0
 62
4
 10
-3.90033774E+02
 20
-2.38818783E+02
 40
7.00000000E+00
 50
8.19976591E+01
 51
1.04884035E+02
  0
ARC
  8
0
 62
4
 10
-3.90033774E+02
 20
-2.38818783E+02
 40
7.00000000E+00
 50
1.21115777E+02
 51
1.44002341E+02
  0
LINE
  8
0
 62
4
 10
1.95358775E+02
 20
-2.70173422E+02
 11
1.96544203E+02
 21
-2.72499925E+02
  0
ARC
  8
0
 62
4
 10
1.86814874E+02
 20
-2.66003584E+02
 40
2.50001192E+00
 50
3.37000273E+02
 51
6.69997268E+01
  0
LINE
  8
0
 62
4
 10
1.89354642E+02
 20
-2.60020296E+02
 11
1.87791717E+02
 21
-2.63702315E+02
  0
LINE
  8
0
 62
4
 10
1.82328038E+02
 20
-2.60296760E+02
 11
1.82268688E+02
 21
-2.61357928E+02
  0
LINE
  8
0
 62
4
 10
1.95358775E+02
 20
-2.70173422E+02
 11
1.88920786E+02
 21
-2.67440658E+02
  0
LINE
  8
0
 62
4
 10
1.89116152E+02
 20
-2.66980405E+02
 11
1.86773253E+02
 21
-2.72499928E+02
  0
ARC
  8
0
 62
4
 10
1.69325306E+02
 20
-2.58579707E+02
 40
2.50001570E+00
 50
6.70003599E+01
 51
1.56999640E+02
  0
ARC
  8
0
 62
4
 10
1.72710932E+02
 20
-2.65484419E+02
 40
1.18036308E+01
 50
1.44025221E+02
 51
1.69710195E+02
  0
ARC
  8
0
 62
4
 10
1.63959508E+02
 20
-2.59123543E+02
 40
9.97209177E-01
 50
6.71877091E+01
 51
1.44419464E+02
  0
ARC
  8
0
 62
4
 10
1.62080983E+02
 20
-2.63545523E+02
 40
9.98345090E-01
 50
1.70221832E+02
 51
2.46892060E+02
  0
LINE
  8
0
 62
4
 10
1.66173052E+02
 20
-2.58327997E+02
 11
1.63047203E+02
 21
-2.65692036E+02
  0
LINE
  8
0
 62
4
 10
1.61689168E+02
 20
-2.64463768E+02
 11
1.63281641E+02
 21
-2.65139733E+02
  0
LINE
  8
0
 62
4
 10
1.65938613E+02
 20
-2.58880300E+02
 11
1.64346140E+02
 21
-2.58204335E+02
  0
LINE
  8
0
 62
4
 10
1.63507455E+02
 20
-2.65887402E+02
 11
1.63047203E+02
 21
-2.65692036E+02
  0
LINE
  8
0
 62
4
 10
1.66633304E+02
 20
-2.58523363E+02
 11
1.66173052E+02
 21
-2.58327997E+02
  0
LINE
  8
0
 62
4
 10
1.74080063E+02
 20
-2.66572946E+02
 11
1.73103235E+02
 21
-2.68874208E+02
  0
LINE
  8
0
 62
4
 10
1.77762082E+02
 20
-2.68135871E+02
 11
1.74080063E+02
 21
-2.66572946E+02
  0
LINE
  8
0
 62
4
 10
1.67024035E+02
 20
-2.57602858E+02
 11
1.62139896E+02
 21
-2.69109169E+02
  0
LINE
  8
0
  6
CENTER
 62
6
 10
1.80288223E+02
 20
-2.57066046E+02
 11
1.78464732E+02
 21
-2.61361922E+02
  0
LINE
  8
0
 62
4
 10
1.75825154E+02
 20
-2.58622811E+02
 11
1.76547267E+02
 21
-2.57842969E+02
  0
LINE
  8
0
 62
4
 10
1.76547267E+02
 20
-2.57842969E+02
 11
1.82328038E+02
 21
-2.60296760E+02
  0
LINE
  8
0
 62
4
 10
1.87791717E+02
 20
-2.63702315E+02
 11
1.70302125E+02
 21
-2.56278424E+02
  0
LINE
  8
0
 62
4
 10
1.70128039E+02
 20
-2.72499934E+02
 11
1.62139896E+02
 21
-2.69109169E+02
  0
LINE
  8
0
 62
4
 10
1.62139896E+02
 20
-2.69109169E+02
 11
1.62977136E+02
 21
-2.72499937E+02
  0
LINE
  8
0
 62
4
 10
1.73966993E+02
 20
-2.72499933E+02
 11
1.62725993E+02
 21
-2.67728411E+02
  0
LINE
  8
0
 62
4
 10
1.76785254E+02
 20
-2.70437133E+02
 11
1.73103235E+02
 21
-2.68874208E+02
  0
LINE
  8
0
 62
4
 10
1.77762082E+02
 20
-2.68135871E+02
 11
1.76785254E+02
 21
-2.70437133E+02
  0
LINE
  8
0
  6
CENTER
 62
6
 10
1.89322808E+02
 20
-2.72499927E+02
 11
1.59087098E+02
 21
-2.59665630E+02
  0
LINE
  8
0
 62
4
 10
1.90964221E+02
 20
-2.31914971E+02
 11
1.89831784E+02
 21
-2.32053649E+02
  0
LINE
  8
0
 62
4
 10
1.91651121E+02
 20
-2.32825912E+02
 11
1.90964221E+02
 21
-2.31914971E+02
  0
LINE
  8
0
 62
4
 10
1.83474338E+02
 20
-2.30365245E+02
 11
1.73706059E+02
 21
-2.53377867E+02
  0
LINE
  8
0
 62
4
 10
1.83474338E+02
 20
-2.30365245E+02
 11
1.97281910E+02
 21
-2.36226212E+02
  0
ARC
  8
0
 62
4
 10
1.88033728E+02
 20
-2.38818780E+02
 40
7.00000000E+00
 50
3.59976591E+01
 51
9.80023407E+01
  0
LINE
  8
0
 62
4
 10
1.97281910E+02
 20
-2.36226212E+02
 11
1.87513632E+02
 21
-2.59238834E+02
  0
LINE
  8
0
 62
4
 10
1.89354642E+02
 20
-2.60020296E+02
 11
1.71865050E+02
 21
-2.52596404E+02
  0
LINE
  8
0
 62
4
 10
1.87904363E+02
 20
-2.58318329E+02
 11
1.74096791E+02
 21
-2.52457362E+02
  0
LINE
  8
0
 62
4
 10
1.71865050E+02
 20
-2.52596404E+02
 11
1.70302125E+02
 21
-2.56278424E+02
  0
LINE
  8
0
  6
CENTER
 62
6
 10
-5.99999580E+01
 20
-9.03458848E+01
 11
-5.99999580E+01
 21
-1.00845885E+02
  0
LINE
  8
0
 62
4
 10
-7.14999580E+01
 20
-9.40258848E+01
 11
-7.14999580E+01
 21
-1.22793921E+02
  0
LINE
  8
0
 62
4
 10
-5.64999580E+01
 20
-9.40258848E+01
 11
-5.64999580E+01
 21
-1.22793921E+02
  0
LINE
  8
0
 62
4
 10
-5.64999580E+01
 20
-9.40258848E+01
 11
-7.14999580E+01
 21
-9.40258848E+01
  0
LINE
  8
0
  6
CENTER
 62
6
 10
-6.79999580E+01
 20
-9.03458848E+01
 11
-6.79999580E+01
 21
-1.00845885E+02
  0
LINE
  8
0
 62
4
 10
-6.05999580E+01
 20
-1.31889854E+02
 11
-6.05999580E+01
 21
-1.33785592E+02
  0
LINE
  8
0
 62
4
 10
-6.73999580E+01
 20
-1.33785592E+02
 11
-6.73999580E+01
 21
-1.31889854E+02
  0
LINE
  8
0
  6
CENTER
 62
6
 10
-6.39999580E+01
 20
-9.21051662E+01
 11
-6.39999580E+01
 21
-1.44500000E+02
  0
LINE
  8
0
 62
4
 10
-8.04999580E+01
 20
-1.15466245E+02
 11
-7.14999580E+01
 21
-1.15466245E+02
  0
LINE
  8
0
 62
4
 10
-9.09999580E+01
 20
-1.01017720E+02
 11
-9.09999580E+01
 21
-1.15918674E+02
  0
LINE
  8
0
 62
4
 10
-8.59999580E+01
 20
-1.15918674E+02
 11
-8.59999580E+01
 21
-1.01017720E+02
  0
LINE
  8
0
 62
4
 10
-8.59999580E+01
 20
-1.02216245E+02
 11
-8.09999580E+01
 21
-1.02216245E+02
  0
LINE
  8
0
 62
4
 10
-8.59999580E+01
 20
-1.14716245E+02
 11
-8.09999580E+01
 21
-1.14716245E+02
  0
LINE
  8
0
 62
4
 10
-8.44999580E+01
 20
-1.02216245E+02
 11
-8.44999580E+01
 21
-1.14716245E+02
  0
LINE
  8
0
 62
4
 10
-8.44999580E+01
 20
-1.02716245E+02
 11
-8.09999580E+01
 21
-1.02716245E+02
  0
LINE
  8
0
 62
4
 10
-8.44999580E+01
 20
-1.14216245E+02
 11
-8.09999580E+01
 21
-1.14216245E+02
  0
LINE
  8
0
 62
4
 10
-7.14999580E+01
 20
-9.92180705E+01
 11
-5.64999580E+01
 21
-9.92180705E+01
  0
LINE
  8
0
 62
4
 10
-9.09999580E+01
 20
-1.01017720E+02
 11
-8.59999580E+01
 21
-1.01017720E+02
  0
LINE
  8
0
 62
4
 10
-3.69999580E+01
 20
-1.08685095E+02
 11
-3.69999580E+01
 21
-1.32860085E+02
  0
LINE
  8
0
 62
4
 10
-7.34999580E+01
 20
-1.15466245E+02
 11
-7.34999580E+01
 21
-1.26197841E+02
  0
LINE
  8
0
 62
4
 10
-7.59999580E+01
 20
-1.15466245E+02
 11
-7.59999580E+01
 21
-1.32860085E+02
  0
LINE
  8
0
 62
4
 10
-7.34999580E+01
 20
-1.24634931E+02
 11
-5.44999580E+01
 21
-1.24634931E+02
  0
LINE
  8
0
 62
4
 10
-7.44999580E+01
 20
-1.28499118E+02
 11
-3.84999580E+01
 21
-1.28499118E+02
  0
ARC
  8
0
 62
4
 10
-3.84999614E+01
 20
-1.08685098E+02
 40
1.50000336E+00
 50
1.28225275E-04
 51
8.99998718E+01
  0
ARC
  8
0
 62
4
 10
-8.04999538E+01
 20
-1.14966241E+02
 40
5.00004272E-01
 50
1.80000490E+02
 51
2.69999511E+02
  0
LINE
  8
0
 62
4
 10
-7.14999580E+01
 20
-1.13025643E+02
 11
-5.64999580E+01
 21
-1.13025643E+02
  0
LINE
  8
0
 62
4
 10
-7.14999580E+01
 20
-1.22793921E+02
 11
-5.64999580E+01
 21
-1.22793921E+02
  0
LINE
  8
0
 62
4
 10
-5.44999580E+01
 20
-1.07145339E+02
 11
-5.44999580E+01
 21
-1.26197841E+02
  0
LINE
  8
0
 62
4
 10
-5.64999580E+01
 20
-1.07145339E+02
 11
-5.44999580E+01
 21
-1.07145339E+02
  0
LINE
  8
0
 62
4
 10
-5.44999580E+01
 20
-1.07185095E+02
 11
-3.84999580E+01
 21
-1.07185095E+02
  0
ARC
  8
0
 62
4
 10
-3.84999547E+01
 20
-1.32860088E+02
 40
1.49999664E+00
 50
2.69999872E+02
 51
1.28225561E-04
  0
ARC
  8
0
 62
4
 10
-7.44999576E+01
 20
-1.32860084E+02
 40
1.50000046E+00
 50
1.80000018E+02
 51
2.69999983E+02
  0
LINE
  8
0
 62
4
 10
-9.09999580E+01
 20
-1.05535760E+02
 11
-8.59999580E+01
 21
-1.05535760E+02
  0
LINE
  8
0
 62
4
 10
-9.09999580E+01
 20
-1.12984283E+02
 11
-8.59999580E+01
 21
-1.12984283E+02
  0
LINE
  8
0
 62
4
 10
-9.09999580E+01
 20
-1.15918674E+02
 11
-8.59999580E+01
 21
-1.15918674E+02
  0
LINE
  8
0
 62
4
 10
-7.14999580E+01
 20
-1.01466245E+02
 11
-8.04999580E+01
 21
-1.01466245E+02
  0
ARC
  8
0
 62
4
 10
-8.04999585E+01
 20
-1.01966245E+02
 40
4.99999542E-01
 50
8.99999475E+01
 51
1.80000053E+02
  0
LINE
  8
0
 62
4
 10
-8.09999580E+01
 20
-1.01966245E+02
 11
-8.09999580E+01
 21
-1.14966245E+02
  0
LINE
  8
0
  6
CENTER
 62
6
 10
-6.84684369E+01
 20
-1.06121857E+02
 11
-5.95314792E+01
 21
-1.06121857E+02
  0
POLYLINE
  8
0
 62
4
 66
1
  0
VERTEX
  8
0
 62
4
 10
-6.09999580E+01
 20
-1.06121857E+02
  0
VERTEX
  8
0
 62
4
 10
-6.10113739E+01
 20
-1.05881175E+02
  0
VERTEX
  8
0
 62
4
 10
-6.10455347E+01
 20
-1.05642325E+02
  0
VERTEX
  8
0
 62
4
 10
-6.11021805E+01
 20
-1.05407124E+02
  0
VERTEX
  8
0
 62
4
 10
-6.11808801E+01
 20
-1.05177363E+02
  0
VERTEX
  8
0
 62
4
 10
-6.12810346E+01
 20
-1.04954791E+02
  0
VERTEX
  8
0
 62
4
 10
-6.14018818E+01
 20
-1.04741100E+02
  0
VERTEX
  8
0
 62
4
 10
-6.15425019E+01
 20
-1.04537917E+02
  0
VERTEX
  8
0
 62
4
 10
-6.17018247E+01
 20
-1.04346790E+02
  0
VERTEX
  8
0
 62
4
 10
-6.18786377E+01
 20
-1.04169171E+02
  0
VERTEX
  8
0
 62
4
 10
-6.20715952E+01
 20
-1.04006414E+02
  0
VERTEX
  8
0
 62
4
 10
-6.22792287E+01
 20
-1.03859757E+02
  0
VERTEX
  8
0
 62
4
 10
-6.24999580E+01
 20
-1.03730315E+02
  0
VERTEX
  8
0
 62
4
 10
-6.27321032E+01
 20
-1.03619075E+02
  0
VERTEX
  8
0
 62
4
 10
-6.29738976E+01
 20
-1.03526882E+02
  0
VERTEX
  8
0
 62
4
 10
-6.32235009E+01
 20
-1.03454439E+02
  0
VERTEX
  8
0
 62
4
 10
-6.34790135E+01
 20
-1.03402296E+02
  0
VERTEX
  8
0
 62
4
 10
-6.37384908E+01
 20
-1.03370851E+02
  0
VERTEX
  8
0
 62
4
 10
-6.39999580E+01
 20
-1.03360342E+02
  0
VERTEX
  8
0
 62
4
 10
-6.42614252E+01
 20
-1.03370851E+02
  0
VERTEX
  8
0
 62
4
 10
-6.45209025E+01
 20
-1.03402296E+02
  0
VERTEX
  8
0
 62
4
 10
-6.47764151E+01
 20
-1.03454439E+02
  0
VERTEX
  8
0
 62
4
 10
-6.50260184E+01
 20
-1.03526882E+02
  0
VERTEX
  8
0
 62
4
 10
-6.52678128E+01
 20
-1.03619075E+02
  0
VERTEX
  8
0
 62
4
 10
-6.54999580E+01
 20
-1.03730315E+02
  0
VERTEX
  8
0
 62
4
 10
-6.57206873E+01
 20
-1.03859757E+02
  0
VERTEX
  8
0
 62
4
 10
-6.59283208E+01
 20
-1.04006414E+02
  0
VERTEX
  8
0
 62
4
 10
-6.61212783E+01
 20
-1.04169171E+02
  0
VERTEX
  8
0
 62
4
 10
-6.62980913E+01
 20
-1.04346790E+02
  0
VERTEX
  8
0
 62
4
 10
-6.64574141E+01
 20
-1.04537917E+02
  0
VERTEX
  8
0
 62
4
 10
-6.65980342E+01
 20
-1.04741100E+02
  0
VERTEX
  8
0
 62
4
 10
-6.67188814E+01
 20
-1.04954791E+02
  0
VERTEX
  8
0
 62
4
 10
-6.68190359E+01
 20
-1.05177363E+02
  0
VERTEX
  8
0
 62
4
 10
-6.68977355E+01
 20
-1.05407124E+02
  0
VERTEX
  8
0
 62
4
 10
-6.69543813E+01
 20
-1.05642325E+02
  0
VERTEX
  8
0
 62
4
 10
-6.69885421E+01
 20
-1.05881175E+02
  0
VERTEX
  8
0
 62
4
 10
-6.69999580E+01
 20
-1.06121857E+02
  0
VERTEX
  8
0
 62
4
 10
-6.69885421E+01
 20
-1.06362539E+02
  0
VERTEX
  8
0
 62
4
 10
-6.69543813E+01
 20
-1.06601389E+02
  0
VERTEX
  8
0
 62
4
 10
-6.68977355E+01
 20
-1.06836590E+02
  0
VERTEX
  8
0
 62
4
 10
-6.68190359E+01
 20
-1.07066351E+02
  0
VERTEX
  8
0
 62
4
 10
-6.67188814E+01
 20
-1.07288923E+02
  0
VERTEX
  8
0
 62
4
 10
-6.65980342E+01
 20
-1.07502614E+02
  0
VERTEX
  8
0
 62
4
 10
-6.64574141E+01
 20
-1.07705797E+02
  0
VERTEX
  8
0
 62
4
 10
-6.62980913E+01
 20
-1.07896924E+02
  0
VERTEX
  8
0
 62
4
 10
-6.61212783E+01
 20
-1.08074543E+02
  0
VERTEX
  8
0
 62
4
 10
-6.59283208E+01
 20
-1.08237300E+02
  0
VERTEX
  8
0
 62
4
 10
-6.57206873E+01
 20
-1.08383957E+02
  0
VERTEX
  8
0
 62
4
 10
-6.54999580E+01
 20
-1.08513399E+02
  0
VERTEX
  8
0
 62
4
 10
-6.52678128E+01
 20
-1.08624639E+02
  0
VERTEX
  8
0
 62
4
 10
-6.50260184E+01
 20
-1.08716832E+02
  0
VERTEX
  8
0
 62
4
 10
-6.47764151E+01
 20
-1.08789275E+02
  0
VERTEX
  8
0
 62
4
 10
-6.45209025E+01
 20
-1.08841418E+02
  0
VERTEX
  8
0
 62
4
 10
-6.42614252E+01
 20
-1.08872863E+02
  0
VERTEX
  8
0
 62
4
 10
-6.39999580E+01
 20
-1.08883372E+02
  0
VERTEX
  8
0
 62
4
 10
-6.37384908E+01
 20
-1.08872863E+02
  0
VERTEX
  8
0
 62
4
 10
-6.34790135E+01
 20
-1.08841418E+02
  0
VERTEX
  8
0
 62
4
 10
-6.32235009E+01
 20
-1.08789275E+02
  0
VERTEX
  8
0
 62
4
 10
-6.29738976E+01
 20
-1.08716832E+02
  0
VERTEX
  8
0
 62
4
 10
-6.27321032E+01
 20
-1.08624639E+02
  0
VERTEX
  8
0
 62
4
 10
-6.24999580E+01
 20
-1.08513399E+02
  0
VERTEX
  8
0
 62
4
 10
-6.22792287E+01
 20
-1.08383957E+02
  0
VERTEX
  8
0
 62
4
 10
-6.20715952E+01
 20
-1.08237300E+02
  0
VERTEX
  8
0
 62
4
 10
-6.18786377E+01
 20
-1.08074543E+02
  0
VERTEX
  8
0
 62
4
 10
-6.17018247E+01
 20
-1.07896924E+02
  0
VERTEX
  8
0
 62
4
 10
-6.15425019E+01
 20
-1.07705797E+02
  0
VERTEX
  8
0
 62
4
 10
-6.14018818E+01
 20
-1.07502614E+02
  0
VERTEX
  8
0
 62
4
 10
-6.12810346E+01
 20
-1.07288923E+02
  0
VERTEX
  8
0
 62
4
 10
-6.11808801E+01
 20
-1.07066351E+02
  0
VERTEX
  8
0
 62
4
 10
-6.11021805E+01
 20
-1.06836590E+02
  0
VERTEX
  8
0
 62
4
 10
-6.10455347E+01
 20
-1.06601389E+02
  0
VERTEX
  8
0
 62
4
 10
-6.10113739E+01
 20
-1.06362539E+02
  0
VERTEX
  8
0
 62
4
 10
-6.09999580E+01
 20
-1.06121857E+02
  0
SEQEND
  8
0
  0
POLYLINE
  8
0
 62
4
 66
1
  0
VERTEX
  8
0
 62
4
 10
-5.99999580E+01
 20
-1.31429601E+02
  0
VERTEX
  8
0
 62
4
 10
-6.00160608E+01
 20
-1.31289502E+02
  0
VERTEX
  8
0
 62
4
 10
-6.00642396E+01
 20
-1.31150530E+02
  0
VERTEX
  8
0
 62
4
 10
-6.01441066E+01
 20
-1.31013805E+02
  0
VERTEX
  8
0
 62
4
 10
-6.02550185E+01
 20
-1.30880429E+02
  0
VERTEX
  8
0
 62
4
 10
-6.03960825E+01
 20
-1.30751473E+02
  0
VERTEX
  8
0
 62
4
 10
-6.05661628E+01
 20
-1.30627978E+02
  0
VERTEX
  8
0
 62
4
 10
-6.07638900E+01
 20
-1.30510937E+02
  0
VERTEX
  8
0
 62
4
 10
-6.09876721E+01
 20
-1.30401292E+02
  0
VERTEX
  8
0
 62
4
 10
-6.12357074E+01
 20
-1.30299927E+02
  0
VERTEX
  8
0
 62
4
 10
-6.15059988E+01
 20
-1.30207657E+02
  0
VERTEX
  8
0
 62
4
 10
-6.17963701E+01
 20
-1.30125226E+02
  0
VERTEX
  8
0
 62
4
 10
-6.21044833E+01
 20
-1.30053297E+02
  0
VERTEX
  8
0
 62
4
 10
-6.24278579E+01
 20
-1.29992449E+02
  0
VERTEX
  8
0
 62
4
 10
-6.27638900E+01
 20
-1.29943171E+02
  0
VERTEX
  8
0
 62
4
 10
-6.31098743E+01
 20
-1.29905862E+02
  0
VERTEX
  8
0
 62
4
 10
-6.34630249E+01
 20
-1.29880821E+02
  0
VERTEX
  8
0
 62
4
 10
-6.38204987E+01
 20
-1.29868250E+02
  0
VERTEX
  8
0
 62
4
 10
-6.41794173E+01
 20
-1.29868250E+02
  0
VERTEX
  8
0
 62
4
 10
-6.45368911E+01
 20
-1.29880821E+02
  0
VERTEX
  8
0
 62
4
 10
-6.48900417E+01
 20
-1.29905862E+02
  0
VERTEX
  8
0
 62
4
 10
-6.52360260E+01
 20
-1.29943171E+02
  0
VERTEX
  8
0
 62
4
 10
-6.55720581E+01
 20
-1.29992449E+02
  0
VERTEX
  8
0
 62
4
 10
-6.58954326E+01
 20
-1.30053297E+02
  0
VERTEX
  8
0
 62
4
 10
-6.62035459E+01
 20
-1.30125226E+02
  0
VERTEX
  8
0
 62
4
 10
-6.64939172E+01
 20
-1.30207657E+02
  0
VERTEX
  8
0
 62
4
 10
-6.67642086E+01
 20
-1.30299927E+02
  0
VERTEX
  8
0
 62
4
 10
-6.70122439E+01
 20
-1.30401292E+02
  0
VERTEX
  8
0
 62
4
 10
-6.72360260E+01
 20
-1.30510937E+02
  0
VERTEX
  8
0
 62
4
 10
-6.74337532E+01
 20
-1.30627978E+02
  0
VERTEX
  8
0
 62
4
 10
-6.76038335E+01
 20
-1.30751473E+02
  0
VERTEX
  8
0
 62
4
 10
-6.77448975E+01
 20
-1.30880429E+02
  0
VERTEX
  8
0
 62
4
 10
-6.78558094E+01
 20
-1.31013805E+02
  0
VERTEX
  8
0
 62
4
 10
-6.79356764E+01
 20
-1.31150530E+02
  0
VERTEX
  8
0
 62
4
 10
-6.79838552E+01
 20
-1.31289502E+02
  0
VERTEX
  8
0
 62
4
 10
-6.79999580E+01
 20
-1.31429601E+02
  0
SEQEND
  8
0
  0
POLYLINE
  8
0
 62
4
 66
1
  0
VERTEX
  8
0
 62
4
 10
-6.05999580E+01
 20
-1.32713176E+02
  0
VERTEX
  8
0
 62
4
 10
-6.04269060E+01
 20
-1.32592442E+02
  0
VERTEX
  8
0
 62
4
 10
-6.02818630E+01
 20
-1.32466202E+02
  0
VERTEX
  8
0
 62
4
 10
-6.01659662E+01
 20
-1.32335443E+02
  0
VERTEX
  8
0
 62
4
 10
-6.00801239E+01
 20
-1.32201191E+02
  0
VERTEX
  8
0
 62
4
 10
-6.00250091E+01
 20
-1.32064499E+02
  0
VERTEX
  8
0
 62
4
 10
-6.00010539E+01
 20
-1.31926437E+02
  0
VERTEX
  8
0
 62
4
 10
-6.00084461E+01
 20
-1.31788089E+02
  0
VERTEX
  8
0
 62
4
 10
-6.00471276E+01
 20
-1.31650539E+02
  0
VERTEX
  8
0
 62
4
 10
-6.01167953E+01
 20
-1.31514865E+02
  0
VERTEX
  8
0
 62
4
 10
-6.02169030E+01
 20
-1.31382130E+02
  0
VERTEX
  8
0
 62
4
 10
-6.03466661E+01
 20
-1.31253375E+02
  0
VERTEX
  8
0
 62
4
 10
-6.05050672E+01
 20
-1.31129609E+02
  0
VERTEX
  8
0
 62
4
 10
-6.06908647E+01
 20
-1.31011804E+02
  0
VERTEX
  8
0
 62
4
 10
-6.09026022E+01
 20
-1.30900881E+02
  0
VERTEX
  8
0
 62
4
 10
-6.11386198E+01
 20
-1.30797710E+02
  0
VERTEX
  8
0
 62
4
 10
-6.13970673E+01
 20
-1.30703101E+02
  0
VERTEX
  8
0
 62
4
 10
-6.16759189E+01
 20
-1.30617795E+02
  0
VERTEX
  8
0
 62
4
 10
-6.19729885E+01
 20
-1.30542461E+02
  0
VERTEX
  8
0
 62
4
 10
-6.22859476E+01
 20
-1.30477688E+02
  0
VERTEX
  8
0
 62
4
 10
-6.26123427E+01
 20
-1.30423986E+02
  0
VERTEX
  8
0
 62
4
 10
-6.29496154E+01
 20
-1.30381775E+02
  0
VERTEX
  8
0
 62
4
 10
-6.32951216E+01
 20
-1.30351385E+02
  0
VERTEX
  8
0
 62
4
 10
-6.36461531E+01
 20
-1.30333055E+02
  0
VERTEX
  8
0
 62
4
 10
-6.39999580E+01
 20
-1.30326929E+02
  0
VERTEX
  8
0
 62
4
 10
-6.43537629E+01
 20
-1.30333055E+02
  0
VERTEX
  8
0
 62
4
 10
-6.47047944E+01
 20
-1.30351385E+02
  0
VERTEX
  8
0
 62
4
 10
-6.50503006E+01
 20
-1.30381775E+02
  0
VERTEX
  8
0
 62
4
 10
-6.53875732E+01
 20
-1.30423986E+02
  0
VERTEX
  8
0
 62
4
 10
-6.57139684E+01
 20
-1.30477688E+02
  0
VERTEX
  8
0
 62
4
 10
-6.60269274E+01
 20
-1.30542461E+02
  0
VERTEX
  8
0
 62
4
 10
-6.63239971E+01
 20
-1.30617795E+02
  0
VERTEX
  8
0
 62
4
 10
-6.66028487E+01
 20
-1.30703101E+02
  0
VERTEX
  8
0
 62
4
 10
-6.68612962E+01
 20
-1.30797710E+02
  0
VERTEX
  8
0
 62
4
 10
-6.70973138E+01
 20
-1.30900881E+02
  0
VERTEX
  8
0
 62
4
 10
-6.73090512E+01
 20
-1.31011804E+02
  0
VERTEX
  8
0
 62
4
 10
-6.74948488E+01
 20
-1.31129609E+02
  0
VERTEX
  8
0
 62
4
 10
-6.76532499E+01
 20
-1.31253375E+02
  0
VERTEX
  8
0
 62
4
 10
-6.77830130E+01
 20
-1.31382130E+02
  0
VERTEX
  8
0
 62
4
 10
-6.78831207E+01
 20
-1.31514865E+02
  0
VERTEX
  8
0
 62
4
 10
-6.79527884E+01
 20
-1.31650539E+02
  0
VERTEX
  8
0
 62
4
 10
-6.79914699E+01
 20
-1.31788089E+02
  0
VERTEX
  8
0
 62
4
 10
-6.79988621E+01
 20
-1.31926437E+02
  0
VERTEX
  8
0
 62
4
 10
-6.79749069E+01
 20
-1.32064499E+02
  0
VERTEX
  8
0
 62
4
 10
-6.79197921E+01
 20
-1.32201191E+02
  0
VERTEX
  8
0
 62
4
 10
-6.78339498E+01
 20
-1.32335443E+02
  0
VERTEX
  8
0
 62
4
 10
-6.77180530E+01
 20
-1.32466202E+02
  0
VERTEX
  8
0
 62
4
 10
-6.75730100E+01
 20
-1.32592442E+02
  0
VERTEX
  8
0
 62
4
 10
-6.73999580E+01
 20
-1.32713176E+02
  0
SEQEND
  8
0
  0
LINE
  8
0
 62
4
 10
-5.99999580E+01
 20
-1.31429601E+02
 11
-5.99999580E+01
 21
-1.31889854E+02
  0
LINE
  8
0
 62
4
 10
-6.79999580E+01
 20
-1.31429601E+02
 11
-6.79999580E+01
 21
-1.31889854E+02
  0
POLYLINE
  8
0
 62
4
 66
1
  0
VERTEX
  8
0
 62
4
 10
-6.05999580E+01
 20
-1.31889854E+02
  0
VERTEX
  8
0
 62
4
 10
-6.06136454E+01
 20
-1.31770769E+02
  0
VERTEX
  8
0
 62
4
 10
-6.06545974E+01
 20
-1.31652644E+02
  0
VERTEX
  8
0
 62
4
 10
-6.07224843E+01
 20
-1.31536428E+02
  0
VERTEX
  8
0
 62
4
 10
-6.08167594E+01
 20
-1.31423058E+02
  0
VERTEX
  8
0
 62
4
 10
-6.09366638E+01
 20
-1.31313446E+02
  0
VERTEX
  8
0
 62
4
 10
-6.10812321E+01
 20
-1.31208475E+02
  0
VERTEX
  8
0
 62
4
 10
-6.12493002E+01
 20
-1.31108990E+02
  0
VERTEX
  8
0
 62
4
 10
-6.14395150E+01
 20
-1.31015792E+02
  0
VERTEX
  8
0
 62
4
 10
-6.16503450E+01
 20
-1.30929631E+02
  0
VERTEX
  8
0
 62
4
 10
-6.18800927E+01
 20
-1.30851202E+02
  0
VERTEX
  8
0
 62
4
 10
-6.21269083E+01
 20
-1.30781135E+02
  0
VERTEX
  8
0
 62
4
 10
-6.23888045E+01
 20
-1.30719995E+02
  0
VERTEX
  8
0
 62
4
 10
-6.26636729E+01
 20
-1.30668274E+02
  0
VERTEX
  8
0
 62
4
 10
-6.29493002E+01
 20
-1.30626389E+02
  0
VERTEX
  8
0
 62
4
 10
-6.32433868E+01
 20
-1.30594676E+02
  0
VERTEX
  8
0
 62
4
 10
-6.35435649E+01
 20
-1.30573391E+02
  0
VERTEX
  8
0
 62
4
 10
-6.38474176E+01
 20
-1.30562706E+02
  0
VERTEX
  8
0
 62
4
 10
-6.41524984E+01
 20
-1.30562706E+02
  0
VERTEX
  8
0
 62
4
 10
-6.44563511E+01
 20
-1.30573391E+02
  0
VERTEX
  8
0
 62
4
 10
-6.47565292E+01
 20
-1.30594676E+02
  0
VERTEX
  8
0
 62
4
 10
-6.50506158E+01
 20
-1.30626389E+02
  0
VERTEX
  8
0
 62
4
 10
-6.53362431E+01
 20
-1.30668274E+02
  0
VERTEX
  8
0
 62
4
 10
-6.56111114E+01
 20
-1.30719995E+02
  0
VERTEX
  8
0
 62
4
 10
-6.58730077E+01
 20
-1.30781135E+02
  0
VERTEX
  8
0
 62
4
 10
-6.61198233E+01
 20
-1.30851202E+02
  0
VERTEX
  8
0
 62
4
 10
-6.63495710E+01
 20
-1.30929631E+02
  0
VERTEX
  8
0
 62
4
 10
-6.65604010E+01
 20
-1.31015792E+02
  0
VERTEX
  8
0
 62
4
 10
-6.67506158E+01
 20
-1.31108990E+02
  0
VERTEX
  8
0
 62
4
 10
-6.69186839E+01
 20
-1.31208475E+02
  0
VERTEX
  8
0
 62
4
 10
-6.70632521E+01
 20
-1.31313446E+02
  0
VERTEX
  8
0
 62
4
 10
-6.71831566E+01
 20
-1.31423058E+02
  0
VERTEX
  8
0
 62
4
 10
-6.72774317E+01
 20
-1.31536428E+02
  0
VERTEX
  8
0
 62
4
 10
-6.73453186E+01
 20
-1.31652644E+02
  0
VERTEX
  8
0
 62
4
 10
-6.73862706E+01
 20
-1.31770769E+02
  0
VERTEX
  8
0
 62
4
 10
-6.73999580E+01
 20
-1.31889854E+02
  0
SEQEND
  8
0
  0
ARC
  8
0
 62
4
 10
-6.82355530E+01
 20
-1.23224838E+02
 40
1.21769740E+01
 50
2.81737853E+02
 51
2.99537899E+02
  0
ARC
  8
0
 62
4
 10
-5.97643630E+01
 20
-1.23224838E+02
 40
1.21769740E+01
 50
2.40462101E+02
 51
2.58262147E+02
  0
LINE
  8
0
 62
4
 10
-7.44999576E+01
 20
-1.34360085E+02
 11
-6.71822669E+01
 21
-1.34360085E+02
  0
LINE
  8
0
 62
4
 10
-6.08176492E+01
 20
-1.34360085E+02
 11
-3.84999547E+01
 21
-1.34360085E+02
  0
LINE
  8
0
  6
CENTER
 62
6
 10
-4.79999580E+01
 20
-1.10895938E+02
 11
-4.79999580E+01
 21
-1.23228727E+02
  0
LINE
  8
0
  6
CENTER
 62
6
 10
-5.41663523E+01
 20
-1.17062332E+02
 11
-4.18335638E+01
 21
-1.17062332E+02
  0
POLYLINE
  8
0
 62
4
 66
1
  0
VERTEX
  8
0
 62
4
 10
-6.05999580E+01
 20
-1.33785592E+02
  0
VERTEX
  8
0
 62
4
 10
-6.06128960E+01
 20
-1.33643376E+02
  0
VERTEX
  8
0
 62
4
 10
-6.06516116E+01
 20
-1.33502241E+02
  0
VERTEX
  8
0
 62
4
 10
-6.07158102E+01
 20
-1.33363264E+02
  0
VERTEX
  8
0
 62
4
 10
-6.08050031E+01
 20
-1.33227500E+02
  0
VERTEX
  8
0
 62
4
 10
-6.09185115E+01
 20
-1.33095984E+02
  0
VERTEX
  8
0
 62
4
 10
-6.10554716E+01
 20
-1.32969717E+02
  0
VERTEX
  8
0
 62
4
 10
-6.12148410E+01
 20
-1.32849658E+02
  0
VERTEX
  8
0
 62
4
 10
-6.13954069E+01
 20
-1.32736723E+02
  0
VERTEX
  8
0
 62
4
 10
-6.15957949E+01
 20
-1.32631770E+02
  0
VERTEX
  8
0
 62
4
 10
-6.18144801E+01
 20
-1.32535598E+02
  0
VERTEX
  8
0
 62
4
 10
-6.20497981E+01
 20
-1.32448940E+02
  0
VERTEX
  8
0
 62
4
 10
-6.22999580E+01
 20
-1.32372454E+02
  0
VERTEX
  8
0
 62
4
 10
-6.25630559E+01
 20
-1.32306724E+02
  0
VERTEX
  8
0
 62
4
 10
-6.28370895E+01
 20
-1.32252248E+02
  0
VERTEX
  8
0
 62
4
 10
-6.31199732E+01
 20
-1.32209442E+02
  0
VERTEX
  8
0
 62
4
 10
-6.34095542E+01
 20
-1.32178631E+02
  0
VERTEX
  8
0
 62
4
 10
-6.37036285E+01
 20
-1.32160050E+02
  0
VERTEX
  8
0
 62
4
 10
-6.39999580E+01
 20
-1.32153841E+02
  0
VERTEX
  8
0
 62
4
 10
-6.42962875E+01
 20
-1.32160050E+02
  0
VERTEX
  8
0
 62
4
 10
-6.45903618E+01
 20
-1.32178631E+02
  0
VERTEX
  8
0
 62
4
 10
-6.48799428E+01
 20
-1.32209442E+02
  0
VERTEX
  8
0
 62
4
 10
-6.51628265E+01
 20
-1.32252248E+02
  0
VERTEX
  8
0
 62
4
 10
-6.54368601E+01
 20
-1.32306724E+02
  0
VERTEX
  8
0
 62
4
 10
-6.56999580E+01
 20
-1.32372454E+02
  0
VERTEX
  8
0
 62
4
 10
-6.59501179E+01
 20
-1.32448940E+02
  0
VERTEX
  8
0
 62
4
 10
-6.61854359E+01
 20
-1.32535598E+02
  0
VERTEX
  8
0
 62
4
 10
-6.64041211E+01
 20
-1.32631770E+02
  0
VERTEX
  8
0
 62
4
 10
-6.66045091E+01
 20
-1.32736723E+02
  0
VERTEX
  8
0
 62
4
 10
-6.67850750E+01
 20
-1.32849658E+02
  0
VERTEX
  8
0
 62
4
 10
-6.69444444E+01
 20
-1.32969717E+02
  0
VERTEX
  8
0
 62
4
 10
-6.70814045E+01
 20
-1.33095984E+02
  0
VERTEX
  8
0
 62
4
 10
-6.71949129E+01
 20
-1.33227500E+02
  0
VERTEX
  8
0
 62
4
 10
-6.72841058E+01
 20
-1.33363264E+02
  0
VERTEX
  8
0
 62
4
 10
-6.73483044E+01
 20
-1.33502241E+02
  0
VERTEX
  8
0
 62
4
 10
-6.73870200E+01
 20
-1.33643376E+02
  0
VERTEX
  8
0
 62
4
 10
-6.73999580E+01
 20
-1.33785592E+02
  0
VERTEX
  8
0
 62
4
 10
-6.73870200E+01
 20
-1.33927808E+02
  0
VERTEX
  8
0
 62
4
 10
-6.73483044E+01
 20
-1.34068943E+02
  0
VERTEX
  8
0
 62
4
 10
-6.72841058E+01
 20
-1.34207920E+02
  0
VERTEX
  8
0
 62
4
 10
-6.71949129E+01
 20
-1.34343684E+02
  0
VERTEX
  8
0
 62
4
 10
-6.70814045E+01
 20
-1.34475200E+02
  0
VERTEX
  8
0
 62
4
 10
-6.69444444E+01
 20
-1.34601467E+02
  0
VERTEX
  8
0
 62
4
 10
-6.67850749E+01
 20
-1.34721526E+02
  0
VERTEX
  8
0
 62
4
 10
-6.66045091E+01
 20
-1.34834461E+02
  0
VERTEX
  8
0
 62
4
 10
-6.64041211E+01
 20
-1.34939414E+02
  0
VERTEX
  8
0
 62
4
 10
-6.61854359E+01
 20
-1.35035586E+02
  0
VERTEX
  8
0
 62
4
 10
-6.59501179E+01
 20
-1.35122244E+02
  0
VERTEX
  8
0
 62
4
 10
-6.56999580E+01
 20
-1.35198730E+02
  0
VERTEX
  8
0
 62
4
 10
-6.54368601E+01
 20
-1.35264460E+02
  0
VERTEX
  8
0
 62
4
 10
-6.51628265E+01
 20
-1.35318936E+02
  0
VERTEX
  8
0
 62
4
 10
-6.48799427E+01
 20
-1.35361742E+02
  0
VERTEX
  8
0
 62
4
 10
-6.45903618E+01
 20
-1.35392553E+02
  0
VERTEX
  8
0
 62
4
 10
-6.42962875E+01
 20
-1.35411134E+02
  0
VERTEX
  8
0
 62
4
 10
-6.39999580E+01
 20
-1.35417343E+02
  0
VERTEX
  8
0
 62
4
 10
-6.37036285E+01
 20
-1.35411134E+02
  0
VERTEX
  8
0
 62
4
 10
-6.34095542E+01
 20
-1.35392553E+02
  0
VERTEX
  8
0
 62
4
 10
-6.31199732E+01
 20
-1.35361742E+02
  0
VERTEX
  8
0
 62
4
 10
-6.28370895E+01
 20
-1.35318936E+02
  0
VERTEX
  8
0
 62
4
 10
-6.25630559E+01
 20
-1.35264460E+02
  0
VERTEX
  8
0
 62
4
 10
-6.22999580E+01
 20
-1.35198730E+02
  0
VERTEX
  8
0
 62
4
 10
-6.20497981E+01
 20
-1.35122244E+02
  0
VERTEX
  8
0
 62
4
 10
-6.18144801E+01
 20
-1.35035586E+02
  0
VERTEX
  8
0
 62
4
 10
-6.15957949E+01
 20
-1.34939414E+02
  0
VERTEX
  8
0
 62
4
 10
-6.13954069E+01
 20
-1.34834461E+02
  0
VERTEX
  8
0
 62
4
 10
-6.12148410E+01
 20
-1.34721526E+02
  0
VERTEX
  8
0
 62
4
 10
-6.10554716E+01
 20
-1.34601467E+02
  0
VERTEX
  8
0
 62
4
 10
-6.09185115E+01
 20
-1.34475200E+02
  0
VERTEX
  8
0
 62
4
 10
-6.08050031E+01
 20
-1.34343684E+02
  0
VERTEX
  8
0
 62
4
 10
-6.07158102E+01
 20
-1.34207920E+02
  0
VERTEX
  8
0
 62
4
 10
-6.06516116E+01
 20
-1.34068943E+02
  0
VERTEX
  8
0
 62
4
 10
-6.06128960E+01
 20
-1.33927808E+02
  0
VERTEX
  8
0
 62
4
 10
-6.05999580E+01
 20
-1.33785592E+02
  0
SEQEND
  8
0
  0
POLYLINE
  8
0
 62
4
 66
1
  0
VERTEX
  8
0
 62
4
 10
-4.97553789E+01
 20
-1.14665818E+02
  0
VERTEX
  8
0
 62
4
 10
-5.00166620E+01
 20
-1.14819887E+02
  0
VERTEX
  8
0
 62
4
 10
-5.02620941E+01
 20
-1.14994653E+02
  0
VERTEX
  8
0
 62
4
 10
-5.04897462E+01
 20
-1.15188742E+02
  0
VERTEX
  8
0
 62
4
 10
-5.06978289E+01
 20
-1.15400628E+02
  0
VERTEX
  8
0
 62
4
 10
-5.08847067E+01
 20
-1.15628645E+02
  0
VERTEX
  8
0
 62
4
 10
-5.10489108E+01
 20
-1.15871003E+02
  0
VERTEX
  8
0
 62
4
 10
-5.11891505E+01
 20
-1.16125795E+02
  0
VERTEX
  8
0
 62
4
 10
-5.13043237E+01
 20
-1.16391019E+02
  0
VERTEX
  8
0
 62
4
 10
-5.13935250E+01
 20
-1.16664591E+02
  0
VERTEX
  8
0
 62
4
 10
-5.14560533E+01
 20
-1.16944360E+02
  0
VERTEX
  8
0
 62
4
 10
-5.14914172E+01
 20
-1.17228127E+02
  0
VERTEX
  8
0
 62
4
 10
-5.14993388E+01
 20
-1.17513663E+02
  0
VERTEX
  8
0
 62
4
 10
-5.14797557E+01
 20
-1.17798722E+02
  0
VERTEX
  8
0
 62
4
 10
-5.14328219E+01
 20
-1.18081064E+02
  0
VERTEX
  8
0
 62
4
 10
-5.13589063E+01
 20
-1.18358470E+02
  0
VERTEX
  8
0
 62
4
 10
-5.12585898E+01
 20
-1.18628760E+02
  0
VERTEX
  8
0
 62
4
 10
-5.11326610E+01
 20
-1.18889809E+02
  0
VERTEX
  8
0
 62
4
 10
-5.09821095E+01
 20
-1.19139566E+02
  0
VERTEX
  8
0
 62
4
 10
-5.08081188E+01
 20
-1.19376066E+02
  0
VERTEX
  8
0
 62
4
 10
-5.06120563E+01
 20
-1.19597453E+02
  0
VERTEX
  8
0
 62
4
 10
-5.03954631E+01
 20
-1.19801984E+02
  0
VERTEX
  8
0
 62
4
 10
-5.01600416E+01
 20
-1.19988054E+02
  0
VERTEX
  8
0
 62
4
 10
-4.99076421E+01
 20
-1.20154198E+02
  0
VERTEX
  8
0
 62
4
 10
-4.96402485E+01
 20
-1.20299113E+02
  0
VERTEX
  8
0
 62
4
 10
-4.93599624E+01
 20
-1.20421657E+02
  0
VERTEX
  8
0
 62
4
 10
-4.90689869E+01
 20
-1.20520869E+02
  0
VERTEX
  8
0
 62
4
 10
-4.87696090E+01
 20
-1.20595969E+02
  0
VERTEX
  8
0
 62
4
 10
-4.84641817E+01
 20
-1.20646365E+02
  0
VERTEX
  8
0
 62
4
 10
-4.81551057E+01
 20
-1.20671663E+02
  0
VERTEX
  8
0
 62
4
 10
-4.78448103E+01
 20
-1.20671663E+02
  0
VERTEX
  8
0
 62
4
 10
-4.75357343E+01
 20
-1.20646365E+02
  0
VERTEX
  8
0
 62
4
 10
-4.72303070E+01
 20
-1.20595969E+02
  0
VERTEX
  8
0
 62
4
 10
-4.69309291E+01
 20
-1.20520869E+02
  0
VERTEX
  8
0
 62
4
 10
-4.66399536E+01
 20
-1.20421657E+02
  0
VERTEX
  8
0
 62
4
 10
-4.63596675E+01
 20
-1.20299113E+02
  0
VERTEX
  8
0
 62
4
 10
-4.60922739E+01
 20
-1.20154198E+02
  0
VERTEX
  8
0
 62
4
 10
-4.58398744E+01
 20
-1.19988054E+02
  0
VERTEX
  8
0
 62
4
 10
-4.56044529E+01
 20
-1.19801984E+02
  0
VERTEX
  8
0
 62
4
 10
-4.53878597E+01
 20
-1.19597453E+02
  0
VERTEX
  8
0
 62
4
 10
-4.51917972E+01
 20
-1.19376066E+02
  0
VERTEX
  8
0
 62
4
 10
-4.50178065E+01
 20
-1.19139566E+02
  0
VERTEX
  8
0
 62
4
 10
-4.48672550E+01
 20
-1.18889809E+02
  0
VERTEX
  8
0
 62
4
 10
-4.47413262E+01
 20
-1.18628760E+02
  0
VERTEX
  8
0
 62
4
 10
-4.46410097E+01
 20
-1.18358470E+02
  0
VERTEX
  8
0
 62
4
 10
-4.45670941E+01
 20
-1.18081064E+02
  0
VERTEX
  8
0
 62
4
 10
-4.45201603E+01
 20
-1.17798722E+02
  0
VERTEX
  8
0
 62
4
 10
-4.45005772E+01
 20
-1.17513663E+02
  0
VERTEX
  8
0
 62
4
 10
-4.45084988E+01
 20
-1.17228127E+02
  0
VERTEX
  8
0
 62
4
 10
-4.45438627E+01
 20
-1.16944360E+02
  0
VERTEX
  8
0
 62
4
 10
-4.46063910E+01
 20
-1.16664591E+02
  0
VERTEX
  8
0
 62
4
 10
-4.46955923E+01
 20
-1.16391019E+02
  0
VERTEX
  8
0
 62
4
 10
-4.48107655E+01
 20
-1.16125795E+02
  0
VERTEX
  8
0
 62
4
 10
-4.49510052E+01
 20
-1.15871003E+02
  0
VERTEX
  8
0
 62
4
 10
-4.51152093E+01
 20
-1.15628645E+02
  0
VERTEX
  8
0
 62
4
 10
-4.53020871E+01
 20
-1.15400628E+02
  0
VERTEX
  8
0
 62
4
 10
-4.55101698E+01
 20
-1.15188742E+02
  0
VERTEX
  8
0
 62
4
 10
-4.57378219E+01
 20
-1.14994653E+02
  0
VERTEX
  8
0
 62
4
 10
-4.59832540E+01
 20
-1.14819887E+02
  0
VERTEX
  8
0
 62
4
 10
-4.62445371E+01
 20
-1.14665818E+02
  0
SEQEND
  8
0
  0
POLYLINE
  8
0
 62
4
 66
1
  0
VERTEX
  8
0
 62
4
 10
-4.48599580E+01
 20
-1.17062332E+02
  0
VERTEX
  8
0
 62
4
 10
-4.48719066E+01
 20
-1.16810418E+02
  0
VERTEX
  8
0
 62
4
 10
-4.49076617E+01
 20
-1.16560422E+02
  0
VERTEX
  8
0
 62
4
 10
-4.49669509E+01
 20
-1.16314245E+02
  0
VERTEX
  8
0
 62
4
 10
-4.50493232E+01
 20
-1.16073762E+02
  0
VERTEX
  8
0
 62
4
 10
-4.51541515E+01
 20
-1.15840802E+02
  0
VERTEX
  8
0
 62
4
 10
-4.52806382E+01
 20
-1.15617139E+02
  0
VERTEX
  8
0
 62
4
 10
-4.54278206E+01
 20
-1.15404475E+02
  0
VERTEX
  8
0
 62
4
 10
-4.55945784E+01
 20
-1.15204428E+02
  0
VERTEX
  8
0
 62
4
 10
-4.57796427E+01
 20
-1.15018521E+02
  0
VERTEX
  8
0
 62
4
 10
-4.59816049E+01
 20
-1.14848168E+02
  0
VERTEX
  8
0
 62
4
 10
-4.61989280E+01
 20
-1.14694667E+02
  0
VERTEX
  8
0
 62
4
 10
-4.64299580E+01
 20
-1.14559185E+02
  0
VERTEX
  8
0
 62
4
 10
-4.66729367E+01
 20
-1.14442753E+02
  0
VERTEX
  8
0
 62
4
 10
-4.69260148E+01
 20
-1.14346258E+02
  0
VERTEX
  8
0
 62
4
 10
-4.71872662E+01
 20
-1.14270434E+02
  0
VERTEX
  8
0
 62
4
 10
-4.74547027E+01
 20
-1.14215858E+02
  0
VERTEX
  8
0
 62
4
 10
-4.77262890E+01
 20
-1.14182946E+02
  0
VERTEX
  8
0
 62
4
 10
-4.79999580E+01
 20
-1.14171947E+02
  0
VERTEX
  8
0
 62
4
 10
-4.82736270E+01
 20
-1.14182946E+02
  0
VERTEX
  8
0
 62
4
 10
-4.85452133E+01
 20
-1.14215858E+02
  0
VERTEX
  8
0
 62
4
 10
-4.88126498E+01
 20
-1.14270434E+02
  0
VERTEX
  8
0
 62
4
 10
-4.90739013E+01
 20
-1.14346258E+02
  0
VERTEX
  8
0
 62
4
 10
-4.93269793E+01
 20
-1.14442753E+02
  0
VERTEX
  8
0
 62
4
 10
-4.95699580E+01
 20
-1.14559185E+02
  0
VERTEX
  8
0
 62
4
 10
-4.98009880E+01
 20
-1.14694667E+02
  0
VERTEX
  8
0
 62
4
 10
-5.00183111E+01
 20
-1.14848168E+02
  0
VERTEX
  8
0
 62
4
 10
-5.02202733E+01
 20
-1.15018521E+02
  0
VERTEX
  8
0
 62
4
 10
-5.04053376E+01
 20
-1.15204428E+02
  0
VERTEX
  8
0
 62
4
 10
-5.05720954E+01
 20
-1.15404475E+02
  0
VERTEX
  8
0
 62
4
 10
-5.07192778E+01
 20
-1.15617139E+02
  0
VERTEX
  8
0
 62
4
 10
-5.08457645E+01
 20
-1.15840802E+02
  0
VERTEX
  8
0
 62
4
 10
-5.09505928E+01
 20
-1.16073762E+02
  0
VERTEX
  8
0
 62
4
 10
-5.10329651E+01
 20
-1.16314245E+02
  0
VERTEX
  8
0
 62
4
 10
-5.10922543E+01
 20
-1.16560422E+02
  0
VERTEX
  8
0
 62
4
 10
-5.11280094E+01
 20
-1.16810418E+02
  0
VERTEX
  8
0
 62
4
 10
-5.11399580E+01
 20
-1.17062332E+02
  0
VERTEX
  8
0
 62
4
 10
-5.11280094E+01
 20
-1.17314246E+02
  0
VERTEX
  8
0
 62
4
 10
-5.10922543E+01
 20
-1.17564242E+02
  0
VERTEX
  8
0
 62
4
 10
-5.10329651E+01
 20
-1.17810419E+02
  0
VERTEX
  8
0
 62
4
 10
-5.09505928E+01
 20
-1.18050902E+02
  0
VERTEX
  8
0
 62
4
 10
-5.08457644E+01
 20
-1.18283862E+02
  0
VERTEX
  8
0
 62
4
 10
-5.07192778E+01
 20
-1.18507525E+02
  0
VERTEX
  8
0
 62
4
 10
-5.05720954E+01
 20
-1.18720189E+02
  0
VERTEX
  8
0
 62
4
 10
-5.04053375E+01
 20
-1.18920236E+02
  0
VERTEX
  8
0
 62
4
 10
-5.02202733E+01
 20
-1.19106143E+02
  0
VERTEX
  8
0
 62
4
 10
-5.00183111E+01
 20
-1.19276496E+02
  0
VERTEX
  8
0
 62
4
 10
-4.98009880E+01
 20
-1.19429997E+02
  0
VERTEX
  8
0
 62
4
 10
-4.95699580E+01
 20
-1.19565479E+02
  0
VERTEX
  8
0
 62
4
 10
-4.93269793E+01
 20
-1.19681911E+02
  0
VERTEX
  8
0
 62
4
 10
-4.90739012E+01
 20
-1.19778406E+02
  0
VERTEX
  8
0
 62
4
 10
-4.88126498E+01
 20
-1.19854230E+02
  0
VERTEX
  8
0
 62
4
 10
-4.85452133E+01
 20
-1.19908806E+02
  0
VERTEX
  8
0
 62
4
 10
-4.82736270E+01
 20
-1.19941718E+02
  0
VERTEX
  8
0
 62
4
 10
-4.79999580E+01
 20
-1.19952717E+02
  0
VERTEX
  8
0
 62
4
 10
-4.77262890E+01
 20
-1.19941718E+02
  0
VERTEX
  8
0
 62
4
 10
-4.74547027E+01
 20
-1.19908806E+02
  0
VERTEX
  8
0
 62
4
 10
-4.71872662E+01
 20
-1.19854230E+02
  0
VERTEX
  8
0
 62
4
 10
-4.69260147E+01
 20
-1.19778406E+02
  0
VERTEX
  8
0
 62
4
 10
-4.66729367E+01
 20
-1.19681911E+02
  0
VERTEX
  8
0
 62
4
 10
-4.64299580E+01
 20
-1.19565479E+02
  0
VERTEX
  8
0
 62
4
 10
-4.61989280E+01
 20
-1.19429997E+02
  0
VERTEX
  8
0
 62
4
 10
-4.59816049E+01
 20
-1.19276496E+02
  0
VERTEX
  8
0
 62
4
 10
-4.57796427E+01
 20
-1.19106143E+02
  0
VERTEX
  8
0
 62
4
 10
-4.55945784E+01
 20
-1.18920236E+02
  0
VERTEX
  8
0
 62
4
 10
-4.54278206E+01
 20
-1.18720189E+02
  0
VERTEX
  8
0
 62
4
 10
-4.52806382E+01
 20
-1.18507525E+02
  0
VERTEX
  8
0
 62
4
 10
-4.51541515E+01
 20
-1.18283862E+02
  0
VERTEX
  8
0
 62
4
 10
-4.50493232E+01
 20
-1.18050902E+02
  0
VERTEX
  8
0
 62
4
 10
-4.49669509E+01
 20
-1.17810419E+02
  0
VERTEX
  8
0
 62
4
 10
-4.49076617E+01
 20
-1.17564242E+02
  0
VERTEX
  8
0
 62
4
 10
-4.48719066E+01
 20
-1.17314246E+02
  0
VERTEX
  8
0
 62
4
 10
-4.48599580E+01
 20
-1.17062332E+02
  0
SEQEND
  8
0
  0
LINE
  8
0
 62
4
 10
-7.34999580E+01
 20
-1.26197841E+02
 11
-5.44999580E+01
 21
-1.26197841E+02
  0
ARC
  8
0
 62
4
 10
-3.84999547E+01
 20
-1.26999121E+02
 40
1.49999664E+00
 50
2.69999872E+02
 51
1.28225561E-04
  0
ARC
  8
0
 62
4
 10
-7.44999576E+01
 20
-1.26999117E+02
 40
1.50000046E+00
 50
1.80000018E+02
 51
2.69999983E+02
  0
LINE
  8
0
 62
4
 10
3.59139950E+02
 20
-2.59069941E+02
 11
3.59447251E+02
 21
-2.59754023E+02
  0
LINE
  8
0
 62
4
 10
3.52859950E+02
 20
-2.59069941E+02
 11
3.52552650E+02
 21
-2.59754023E+02
  0
POLYLINE
  8
0
 62
4
 66
1
  0
VERTEX
  8
0
 62
4
 10
3.52552650E+02
 20
-2.59754023E+02
  0
VERTEX
  8
0
 62
4
 10
3.52512376E+02
 20
-2.59875313E+02
  0
VERTEX
  8
0
 62
4
 10
3.52499997E+02
 20
-2.59997524E+02
  0
VERTEX
  8
0
 62
4
 10
3.52515612E+02
 20
-2.60119678E+02
  0
VERTEX
  8
0
 62
4
 10
3.52559097E+02
 20
-2.60240799E+02
  0
VERTEX
  8
0
 62
4
 10
3.52630104E+02
 20
-2.60359917E+02
  0
VERTEX
  8
0
 62
4
 10
3.52728064E+02
 20
-2.60476080E+02
  0
VERTEX
  8
0
 62
4
 10
3.52852194E+02
 20
-2.60588358E+02
  0
VERTEX
  8
0
 62
4
 10
3.53001502E+02
 20
-2.60695855E+02
  0
VERTEX
  8
0
 62
4
 10
3.53174792E+02
 20
-2.60797709E+02
  0
VERTEX
  8
0
 62
4
 10
3.53370680E+02
 20
-2.60893106E+02
  0
VERTEX
  8
0
 62
4
 10
3.53587598E+02
 20
-2.60981283E+02
  0
VERTEX
  8
0
 62
4
 10
3.53823810E+02
 20
-2.61061535E+02
  0
VERTEX
  8
0
 62
4
 10
3.54077429E+02
 20
-2.61133220E+02
  0
VERTEX
  8
0
 62
4
 10
3.54346425E+02
 20
-2.61195765E+02
  0
VERTEX
  8
0
 62
4
 10
3.54628647E+02
 20
-2.61248669E+02
  0
VERTEX
  8
0
 62
4
 10
3.54921837E+02
 20
-2.61291509E+02
  0
VERTEX
  8
0
 62
4
 10
3.55223650E+02
 20
-2.61323942E+02
  0
VERTEX
  8
0
 62
4
 10
3.55531672E+02
 20
-2.61345710E+02
  0
VERTEX
  8
0
 62
4
 10
3.55843440E+02
 20
-2.61356637E+02
  0
VERTEX
  8
0
 62
4
 10
3.56156460E+02
 20
-2.61356637E+02
  0
VERTEX
  8
0
 62
4
 10
3.56468228E+02
 20
-2.61345710E+02
  0
VERTEX
  8
0
 62
4
 10
3.56776250E+02
 20
-2.61323942E+02
  0
VERTEX
  8
0
 62
4
 10
3.57078063E+02
 20
-2.61291509E+02
  0
VERTEX
  8
0
 62
4
 10
3.57371253E+02
 20
-2.61248669E+02
  0
VERTEX
  8
0
 62
4
 10
3.57653475E+02
 20
-2.61195765E+02
  0
VERTEX
  8
0
 62
4
 10
3.57922471E+02
 20
-2.61133220E+02
  0
VERTEX
  8
0
 62
4
 10
3.58176089E+02
 20
-2.61061535E+02
  0
VERTEX
  8
0
 62
4
 10
3.58412302E+02
 20
-2.60981283E+02
  0
VERTEX
  8
0
 62
4
 10
3.58629220E+02
 20
-2.60893106E+02
  0
VERTEX
  8
0
 62
4
 10
3.58825108E+02
 20
-2.60797709E+02
  0
VERTEX
  8
0
 62
4
 10
3.58998398E+02
 20
-2.60695855E+02
  0
VERTEX
  8
0
 62
4
 10
3.59147706E+02
 20
-2.60588358E+02
  0
VERTEX
  8
0
 62
4
 10
3.59271836E+02
 20
-2.60476080E+02
  0
VERTEX
  8
0
 62
4
 10
3.59369796E+02
 20
-2.60359917E+02
  0
VERTEX
  8
0
 62
4
 10
3.59440803E+02
 20
-2.60240799E+02
  0
VERTEX
  8
0
 62
4
 10
3.59484288E+02
 20
-2.60119678E+02
  0
VERTEX
  8
0
 62
4
 10
3.59499903E+02
 20
-2.59997524E+02
  0
VERTEX
  8
0
 62
4
 10
3.59487524E+02
 20
-2.59875313E+02
  0
VERTEX
  8
0
 62
4
 10
3.59447250E+02
 20
-2.59754023E+02
  0
SEQEND
  8
0
  0
POLYLINE
  8
0
 62
4
 66
1
  0
VERTEX
  8
0
 62
4
 10
3.59139950E+02
 20
-2.59069941E+02
  0
VERTEX
  8
0
 62
4
 10
3.59128001E+02
 20
-2.58963010E+02
  0
VERTEX
  8
0
 62
4
 10
3.59092246E+02
 20
-2.58856893E+02
  0
VERTEX
  8
0
 62
4
 10
3.59032957E+02
 20
-2.58752397E+02
  0
VERTEX
  8
0
 62
4
 10
3.58950585E+02
 20
-2.58650318E+02
  0
VERTEX
  8
0
 62
4
 10
3.58845756E+02
 20
-2.58551432E+02
  0
VERTEX
  8
0
 62
4
 10
3.58719270E+02
 20
-2.58456493E+02
  0
VERTEX
  8
0
 62
4
 10
3.58572087E+02
 20
-2.58366223E+02
  0
VERTEX
  8
0
 62
4
 10
3.58405330E+02
 20
-2.58281308E+02
  0
VERTEX
  8
0
 62
4
 10
3.58220265E+02
 20
-2.58202395E+02
  0
VERTEX
  8
0
 62
4
 10
3.58018303E+02
 20
-2.58130084E+02
  0
VERTEX
  8
0
 62
4
 10
3.57800980E+02
 20
-2.58064927E+02
  0
VERTEX
  8
0
 62
4
 10
3.57569950E+02
 20
-2.58007418E+02
  0
VERTEX
  8
0
 62
4
 10
3.57326971E+02
 20
-2.57957996E+02
  0
VERTEX
  8
0
 62
4
 10
3.57073893E+02
 20
-2.57917036E+02
  0
VERTEX
  8
0
 62
4
 10
3.56812642E+02
 20
-2.57884851E+02
  0
VERTEX
  8
0
 62
4
 10
3.56545205E+02
 20
-2.57861685E+02
  0
VERTEX
  8
0
 62
4
 10
3.56273619E+02
 20
-2.57847714E+02
  0
VERTEX
  8
0
 62
4
 10
3.55999950E+02
 20
-2.57843045E+02
  0
VERTEX
  8
0
 62
4
 10
3.55726281E+02
 20
-2.57847714E+02
  0
VERTEX
  8
0
 62
4
 10
3.55454695E+02
 20
-2.57861685E+02
  0
VERTEX
  8
0
 62
4
 10
3.55187258E+02
 20
-2.57884851E+02
  0
VERTEX
  8
0
 62
4
 10
3.54926007E+02
 20
-2.57917036E+02
  0
VERTEX
  8
0
 62
4
 10
3.54672929E+02
 20
-2.57957996E+02
  0
VERTEX
  8
0
 62
4
 10
3.54429950E+02
 20
-2.58007418E+02
  0
VERTEX
  8
0
 62
4
 10
3.54198920E+02
 20
-2.58064927E+02
  0
VERTEX
  8
0
 62
4
 10
3.53981597E+02
 20
-2.58130084E+02
  0
VERTEX
  8
0
 62
4
 10
3.53779635E+02
 20
-2.58202395E+02
  0
VERTEX
  8
0
 62
4
 10
3.53594570E+02
 20
-2.58281308E+02
  0
VERTEX
  8
0
 62
4
 10
3.53427813E+02
 20
-2.58366223E+02
  0
VERTEX
  8
0
 62
4
 10
3.53280630E+02
 20
-2.58456493E+02
  0
VERTEX
  8
0
 62
4
 10
3.53154144E+02
 20
-2.58551432E+02
  0
VERTEX
  8
0
 62
4
 10
3.53049315E+02
 20
-2.58650318E+02
  0
VERTEX
  8
0
 62
4
 10
3.52966943E+02
 20
-2.58752397E+02
  0
VERTEX
  8
0
 62
4
 10
3.52907654E+02
 20
-2.58856893E+02
  0
VERTEX
  8
0
 62
4
 10
3.52871899E+02
 20
-2.58963010E+02
  0
VERTEX
  8
0
 62
4
 10
3.52859950E+02
 20
-2.59069941E+02
  0
VERTEX
  8
0
 62
4
 10
3.52871899E+02
 20
-2.59176872E+02
  0
VERTEX
  8
0
 62
4
 10
3.52907654E+02
 20
-2.59282989E+02
  0
VERTEX
  8
0
 62
4
 10
3.52966943E+02
 20
-2.59387485E+02
  0
VERTEX
  8
0
 62
4
 10
3.53049315E+02
 20
-2.59489564E+02
  0
VERTEX
  8
0
 62
4
 10
3.53154144E+02
 20
-2.59588450E+02
  0
VERTEX
  8
0
 62
4
 10
3.53280630E+02
 20
-2.59683389E+02
  0
VERTEX
  8
0
 62
4
 10
3.53427813E+02
 20
-2.59773659E+02
  0
VERTEX
  8
0
 62
4
 10
3.53594570E+02
 20
-2.59858574E+02
  0
VERTEX
  8
0
 62
4
 10
3.53779635E+02
 20
-2.59937487E+02
  0
VERTEX
  8
0
 62
4
 10
3.53981597E+02
 20
-2.60009798E+02
  0
VERTEX
  8
0
 62
4
 10
3.54198920E+02
 20
-2.60074955E+02
  0
VERTEX
  8
0
 62
4
 10
3.54429950E+02
 20
-2.60132464E+02
  0
VERTEX
  8
0
 62
4
 10
3.54672929E+02
 20
-2.60181886E+02
  0
VERTEX
  8
0
 62
4
 10
3.54926007E+02
 20
-2.60222846E+02
  0
VERTEX
  8
0
 62
4
 10
3.55187258E+02
 20
-2.60255031E+02
  0
VERTEX
  8
0
 62
4
 10
3.55454695E+02
 20
-2.60278197E+02
  0
VERTEX
  8
0
 62
4
 10
3.55726281E+02
 20
-2.60292168E+02
  0
VERTEX
  8
0
 62
4
 10
3.55999950E+02
 20
-2.60296837E+02
  0
VERTEX
  8
0
 62
4
 10
3.56273619E+02
 20
-2.60292168E+02
  0
VERTEX
  8
0
 62
4
 10
3.56545205E+02
 20
-2.60278197E+02
  0
VERTEX
  8
0
 62
4
 10
3.56812642E+02
 20
-2.60255031E+02
  0
VERTEX
  8
0
 62
4
 10
3.57073893E+02
 20
-2.60222846E+02
  0
VERTEX
  8
0
 62
4
 10
3.57326971E+02
 20
-2.60181886E+02
  0
VERTEX
  8
0
 62
4
 10
3.57569950E+02
 20
-2.60132464E+02
  0
VERTEX
  8
0
 62
4
 10
3.57800980E+02
 20
-2.60074955E+02
  0
VERTEX
  8
0
 62
4
 10
3.58018303E+02
 20
-2.60009798E+02
  0
VERTEX
  8
0
 62
4
 10
3.58220265E+02
 20
-2.59937487E+02
  0
VERTEX
  8
0
 62
4
 10
3.58405330E+02
 20
-2.59858574E+02
  0
VERTEX
  8
0
 62
4
 10
3.58572087E+02
 20
-2.59773659E+02
  0
VERTEX
  8
0
 62
4
 10
3.58719270E+02
 20
-2.59683389E+02
  0
VERTEX
  8
0
 62
4
 10
3.58845756E+02
 20
-2.59588450E+02
  0
VERTEX
  8
0
 62
4
 10
3.58950585E+02
 20
-2.59489564E+02
  0
VERTEX
  8
0
 62
4
 10
3.59032957E+02
 20
-2.59387485E+02
  0
VERTEX
  8
0
 62
4
 10
3.59092246E+02
 20
-2.59282989E+02
  0
VERTEX
  8
0
 62
4
 10
3.59128001E+02
 20
-2.59176872E+02
  0
VERTEX
  8
0
 62
4
 10
3.59139950E+02
 20
-2.59069941E+02
  0
SEQEND
  8
0
  0
LINE
  8
0
  6
CENTER
 62
6
 10
3.55999950E+02
 20
-2.55236745E+02
 11
3.55999950E+02
 21
-2.59069941E+02
  0
LINE
  8
0
 62
4
 10
3.98999950E+02
 20
-2.45731826E+02
 11
3.93999950E+02
 21
-2.45731826E+02
  0
LINE
  8
0
 62
4
 10
3.98999950E+02
 20
-2.44819685E+02
 11
3.93999950E+02
 21
-2.44819685E+02
  0
LINE
  8
0
 62
4
 10
3.98999950E+02
 20
-2.37906693E+02
 11
3.93999950E+02
 21
-2.37906693E+02
  0
LINE
  8
0
 62
4
 10
3.82499950E+02
 20
-2.62422316E+02
 11
3.82499950E+02
 21
-2.57381862E+02
  0
LINE
  8
0
 62
4
 10
3.46499959E+02
 20
-2.62422316E+02
 11
3.46499959E+02
 21
-2.57381862E+02
  0
POLYLINE
  8
0
 62
4
 66
1
  0
VERTEX
  8
0
 62
4
 10
3.77734950E+02
 20
-2.91735521E+02
  0
VERTEX
  8
0
 62
4
 10
3.77728348E+02
 20
-2.91596327E+02
  0
VERTEX
  8
0
 62
4
 10
3.77708591E+02
 20
-2.91458192E+02
  0
VERTEX
  8
0
 62
4
 10
3.77675831E+02
 20
-2.91322167E+02
  0
VERTEX
  8
0
 62
4
 10
3.77630317E+02
 20
-2.91189289E+02
  0
VERTEX
  8
0
 62
4
 10
3.77572394E+02
 20
-2.91060568E+02
  0
VERTEX
  8
0
 62
4
 10
3.77502504E+02
 20
-2.90936983E+02
  0
VERTEX
  8
0
 62
4
 10
3.77421179E+02
 20
-2.90819476E+02
  0
VERTEX
  8
0
 62
4
 10
3.77329037E+02
 20
-2.90708940E+02
  0
VERTEX
  8
0
 62
4
 10
3.77226780E+02
 20
-2.90606218E+02
  0
VERTEX
  8
0
 62
4
 10
3.77115187E+02
 20
-2.90512090E+02
  0
VERTEX
  8
0
 62
4
 10
3.76995105E+02
 20
-2.90427273E+02
  0
VERTEX
  8
0
 62
4
 10
3.76867450E+02
 20
-2.90352413E+02
  0
VERTEX
  8
0
 62
4
 10
3.76733193E+02
 20
-2.90288079E+02
  0
VERTEX
  8
0
 62
4
 10
3.76593355E+02
 20
-2.90234761E+02
  0
VERTEX
  8
0
 62
4
 10
3.76449001E+02
 20
-2.90192864E+02
  0
VERTEX
  8
0
 62
4
 10
3.76301230E+02
 20
-2.90162708E+02
  0
VERTEX
  8
0
 62
4
 10
3.76151165E+02
 20
-2.90144522E+02
  0
VERTEX
  8
0
 62
4
 10
3.75999950E+02
 20
-2.90138445E+02
  0
VERTEX
  8
0
 62
4
 10
3.75848735E+02
 20
-2.90144522E+02
  0
VERTEX
  8
0
 62
4
 10
3.75698670E+02
 20
-2.90162708E+02
  0
VERTEX
  8
0
 62
4
 10
3.75550899E+02
 20
-2.90192864E+02
  0
VERTEX
  8
0
 62
4
 10
3.75406545E+02
 20
-2.90234761E+02
  0
VERTEX
  8
0
 62
4
 10
3.75266707E+02
 20
-2.90288079E+02
  0
VERTEX
  8
0
 62
4
 10
3.75132450E+02
 20
-2.90352413E+02
  0
VERTEX
  8
0
 62
4
 10
3.75004795E+02
 20
-2.90427273E+02
  0
VERTEX
  8
0
 62
4
 10
3.74884713E+02
 20
-2.90512090E+02
  0
VERTEX
  8
0
 62
4
 10
3.74773120E+02
 20
-2.90606218E+02
  0
VERTEX
  8
0
 62
4
 10
3.74670863E+02
 20
-2.90708940E+02
  0
VERTEX
  8
0
 62
4
 10
3.74578721E+02
 20
-2.90819476E+02
  0
VERTEX
  8
0
 62
4
 10
3.74497396E+02
 20
-2.90936983E+02
  0
VERTEX
  8
0
 62
4
 10
3.74427506E+02
 20
-2.91060568E+02
  0
VERTEX
  8
0
 62
4
 10
3.74369583E+02
 20
-2.91189289E+02
  0
VERTEX
  8
0
 62
4
 10
3.74324069E+02
 20
-2.91322167E+02
  0
VERTEX
  8
0
 62
4
 10
3.74291309E+02
 20
-2.91458192E+02
  0
VERTEX
  8
0
 62
4
 10
3.74271552E+02
 20
-2.91596327E+02
  0
VERTEX
  8
0
 62
4
 10
3.74264950E+02
 20
-2.91735521E+02
  0
VERTEX
  8
0
 62
4
 10
3.74271552E+02
 20
-2.91874715E+02
  0
VERTEX
  8
0
 62
4
 10
3.74291309E+02
 20
-2.92012850E+02
  0
VERTEX
  8
0
 62
4
 10
3.74324069E+02
 20
-2.92148875E+02
  0
VERTEX
  8
0
 62
4
 10
3.74369583E+02
 20
-2.92281753E+02
  0
VERTEX
  8
0
 62
4
 10
3.74427506E+02
 20
-2.92410474E+02
  0
VERTEX
  8
0
 62
4
 10
3.74497396E+02
 20
-2.92534059E+02
  0
VERTEX
  8
0
 62
4
 10
3.74578721E+02
 20
-2.92651566E+02
  0
VERTEX
  8
0
 62
4
 10
3.74670863E+02
 20
-2.92762102E+02
  0
VERTEX
  8
0
 62
4
 10
3.74773120E+02
 20
-2.92864824E+02
  0
VERTEX
  8
0
 62
4
 10
3.74884713E+02
 20
-2.92958952E+02
  0
VERTEX
  8
0
 62
4
 10
3.75004795E+02
 20
-2.93043769E+02
  0
VERTEX
  8
0
 62
4
 10
3.75132450E+02
 20
-2.93118629E+02
  0
VERTEX
  8
0
 62
4
 10
3.75266707E+02
 20
-2.93182963E+02
  0
VERTEX
  8
0
 62
4
 10
3.75406545E+02
 20
-2.93236281E+02
  0
VERTEX
  8
0
 62
4
 10
3.75550899E+02
 20
-2.93278178E+02
  0
VERTEX
  8
0
 62
4
 10
3.75698670E+02
 20
-2.93308334E+02
  0
VERTEX
  8
0
 62
4
 10
3.75848735E+02
 20
-2.93326520E+02
  0
VERTEX
  8
0
 62
4
 10
3.75999950E+02
 20
-2.93332597E+02
  0
VERTEX
  8
0
 62
4
 10
3.76151165E+02
 20
-2.93326520E+02
  0
VERTEX
  8
0
 62
4
 10
3.76301230E+02
 20
-2.93308334E+02
  0
VERTEX
  8
0
 62
4
 10
3.76449001E+02
 20
-2.93278178E+02
  0
VERTEX
  8
0
 62
4
 10
3.76593355E+02
 20
-2.93236281E+02
  0
VERTEX
  8
0
 62
4
 10
3.76733193E+02
 20
-2.93182963E+02
  0
VERTEX
  8
0
 62
4
 10
3.76867450E+02
 20
-2.93118629E+02
  0
VERTEX
  8
0
 62
4
 10
3.76995105E+02
 20
-2.93043769E+02
  0
VERTEX
  8
0
 62
4
 10
3.77115187E+02
 20
-2.92958952E+02
  0
VERTEX
  8
0
 62
4
 10
3.77226780E+02
 20
-2.92864824E+02
  0
VERTEX
  8
0
 62
4
 10
3.77329037E+02
 20
-2.92762102E+02
  0
VERTEX
  8
0
 62
4
 10
3.77421179E+02
 20
-2.92651566E+02
  0
VERTEX
  8
0
 62
4
 10
3.77502504E+02
 20
-2.92534059E+02
  0
VERTEX
  8
0
 62
4
 10
3.77572394E+02
 20
-2.92410474E+02
  0
VERTEX
  8
0
 62
4
 10
3.77630317E+02
 20
-2.92281753E+02
  0
VERTEX
  8
0
 62
4
 10
3.77675831E+02
 20
-2.92148875E+02
  0
VERTEX
  8
0
 62
4
 10
3.77708591E+02
 20
-2.92012850E+02
  0
VERTEX
  8
0
 62
4
 10
3.77728348E+02
 20
-2.91874715E+02
  0
VERTEX
  8
0
 62
4
 10
3.77734950E+02
 20
-2.91735521E+02
  0
SEQEND
  8
0
  0
POLYLINE
  8
0
 62
6
 66
1
  0
VERTEX
  8
0
 62
6
 10
3.77499950E+02
 20
-2.91740123E+02
  0
VERTEX
  8
0
 62
6
 10
3.77494242E+02
 20
-2.91619782E+02
  0
VERTEX
  8
0
 62
6
 10
3.77477162E+02
 20
-2.91500357E+02
  0
VERTEX
  8
0
 62
6
 10
3.77448839E+02
 20
-2.91382757E+02
  0
VERTEX
  8
0
 62
6
 10
3.77409489E+02
 20
-2.91267876E+02
  0
VERTEX
  8
0
 62
6
 10
3.77359412E+02
 20
-2.91156590E+02
  0
VERTEX
  8
0
 62
6
 10
3.77298988E+02
 20
-2.91049744E+02
  0
VERTEX
  8
0
 62
6
 10
3.77228678E+02
 20
-2.90948153E+02
  0
VERTEX
  8
0
 62
6
 10
3.77149017E+02
 20
-2.90852589E+02
  0
VERTEX
  8
0
 62
6
 10
3.77060610E+02
 20
-2.90763780E+02
  0
VERTEX
  8
0
 62
6
 10
3.76964131E+02
 20
-2.90682402E+02
  0
VERTEX
  8
0
 62
6
 10
3.76860315E+02
 20
-2.90609073E+02
  0
VERTEX
  8
0
 62
6
 10
3.76749950E+02
 20
-2.90544352E+02
  0
VERTEX
  8
0
 62
6
 10
3.76633877E+02
 20
-2.90488732E+02
  0
VERTEX
  8
0
 62
6
 10
3.76512980E+02
 20
-2.90442636E+02
  0
VERTEX
  8
0
 62
6
 10
3.76388179E+02
 20
-2.90406414E+02
  0
VERTEX
  8
0
 62
6
 10
3.76260422E+02
 20
-2.90380343E+02
  0
VERTEX
  8
0
 62
6
 10
3.76130684E+02
 20
-2.90364620E+02
  0
VERTEX
  8
0
 62
6
 10
3.75999950E+02
 20
-2.90359366E+02
  0
VERTEX
  8
0
 62
6
 10
3.75869216E+02
 20
-2.90364620E+02
  0
VERTEX
  8
0
 62
6
 10
3.75739478E+02
 20
-2.90380343E+02
  0
VERTEX
  8
0
 62
6
 10
3.75611721E+02
 20
-2.90406414E+02
  0
VERTEX
  8
0
 62
6
 10
3.75486920E+02
 20
-2.90442636E+02
  0
VERTEX
  8
0
 62
6
 10
3.75366023E+02
 20
-2.90488732E+02
  0
VERTEX
  8
0
 62
6
 10
3.75249950E+02
 20
-2.90544352E+02
  0
VERTEX
  8
0
 62
6
 10
3.75139585E+02
 20
-2.90609073E+02
  0
VERTEX
  8
0
 62
6
 10
3.75035769E+02
 20
-2.90682402E+02
  0
VERTEX
  8
0
 62
6
 10
3.74939290E+02
 20
-2.90763780E+02
  0
VERTEX
  8
0
 62
6
 10
3.74850883E+02
 20
-2.90852589E+02
  0
VERTEX
  8
0
 62
6
 10
3.74771222E+02
 20
-2.90948153E+02
  0
VERTEX
  8
0
 62
6
 10
3.74700912E+02
 20
-2.91049744E+02
  0
VERTEX
  8
0
 62
6
 10
3.74640488E+02
 20
-2.91156590E+02
  0
VERTEX
  8
0
 62
6
 10
3.74590411E+02
 20
-2.91267876E+02
  0
VERTEX
  8
0
 62
6
 10
3.74551061E+02
 20
-2.91382757E+02
  0
VERTEX
  8
0
 62
6
 10
3.74522738E+02
 20
-2.91500357E+02
  0
VERTEX
  8
0
 62
6
 10
3.74505658E+02
 20
-2.91619782E+02
  0
VERTEX
  8
0
 62
6
 10
3.74499950E+02
 20
-2.91740123E+02
  0
VERTEX
  8
0
 62
6
 10
3.74505658E+02
 20
-2.91860464E+02
  0
VERTEX
  8
0
 62
6
 10
3.74522738E+02
 20
-2.91979889E+02
  0
VERTEX
  8
0
 62
6
 10
3.74551061E+02
 20
-2.92097489E+02
  0
VERTEX
  8
0
 62
6
 10
3.74590411E+02
 20
-2.92212370E+02
  0
VERTEX
  8
0
 62
6
 10
3.74640488E+02
 20
-2.92323656E+02
  0
VERTEX
  8
0
 62
6
 10
3.74700912E+02
 20
-2.92430502E+02
  0
VERTEX
  8
0
 62
6
 10
3.74771222E+02
 20
-2.92532093E+02
  0
VERTEX
  8
0
 62
6
 10
3.74850883E+02
 20
-2.92627657E+02
  0
VERTEX
  8
0
 62
6
 10
3.74939290E+02
 20
-2.92716466E+02
  0
VERTEX
  8
0
 62
6
 10
3.75035769E+02
 20
-2.92797844E+02
  0
VERTEX
  8
0
 62
6
 10
3.75139585E+02
 20
-2.92871173E+02
  0
VERTEX
  8
0
 62
6
 10
3.75249950E+02
 20
-2.92935894E+02
  0
VERTEX
  8
0
 62
6
 10
3.75366023E+02
 20
-2.92991514E+02
  0
VERTEX
  8
0
 62
6
 10
3.75486920E+02
 20
-2.93037610E+02
  0
VERTEX
  8
0
 62
6
 10
3.75611721E+02
 20
-2.93073832E+02
  0
VERTEX
  8
0
 62
6
 10
3.75739478E+02
 20
-2.93099903E+02
  0
VERTEX
  8
0
 62
6
 10
3.75869216E+02
 20
-2.93115626E+02
  0
VERTEX
  8
0
 62
6
 10
3.75999950E+02
 20
-2.93120880E+02
  0
VERTEX
  8
0
 62
6
 10
3.76130684E+02
 20
-2.93115626E+02
  0
VERTEX
  8
0
 62
6
 10
3.76260422E+02
 20
-2.93099903E+02
  0
VERTEX
  8
0
 62
6
 10
3.76388179E+02
 20
-2.93073832E+02
  0
VERTEX
  8
0
 62
6
 10
3.76512980E+02
 20
-2.93037610E+02
  0
VERTEX
  8
0
 62
6
 10
3.76633877E+02
 20
-2.92991514E+02
  0
VERTEX
  8
0
 62
6
 10
3.76749950E+02
 20
-2.92935894E+02
  0
VERTEX
  8
0
 62
6
 10
3.76860315E+02
 20
-2.92871173E+02
  0
VERTEX
  8
0
 62
6
 10
3.76964131E+02
 20
-2.92797844E+02
  0
VERTEX
  8
0
 62
6
 10
3.77060610E+02
 20
-2.92716466E+02
  0
VERTEX
  8
0
 62
6
 10
3.77149017E+02
 20
-2.92627657E+02
  0
VERTEX
  8
0
 62
6
 10
3.77228678E+02
 20
-2.92532093E+02
  0
VERTEX
  8
0
 62
6
 10
3.77298988E+02
 20
-2.92430502E+02
  0
VERTEX
  8
0
 62
6
 10
3.77359412E+02
 20
-2.92323656E+02
  0
VERTEX
  8
0
 62
6
 10
3.77409489E+02
 20
-2.92212370E+02
  0
VERTEX
  8
0
 62
6
 10
3.77448839E+02
 20
-2.92097489E+02
  0
VERTEX
  8
0
 62
6
 10
3.77477162E+02
 20
-2.91979889E+02
  0
VERTEX
  8
0
 62
6
 10
3.77494242E+02
 20
-2.91860464E+02
  0
VERTEX
  8
0
 62
6
 10
3.77499950E+02
 20
-2.91740123E+02
  0
SEQEND
  8
0
  0
POLYLINE
  8
0
 62
4
 66
1
  0
VERTEX
  8
0
 62
4
 10
3.77725182E+02
 20
-2.91904752E+02
  0
VERTEX
  8
0
 62
4
 10
3.77807036E+02
 20
-2.91762327E+02
  0
VERTEX
  8
0
 62
4
 10
3.77875048E+02
 20
-2.91613860E+02
  0
VERTEX
  8
0
 62
4
 10
3.77928697E+02
 20
-2.91460488E+02
  0
VERTEX
  8
0
 62
4
 10
3.77967572E+02
 20
-2.91303385E+02
  0
VERTEX
  8
0
 62
4
 10
3.77991375E+02
 20
-2.91143755E+02
  0
VERTEX
  8
0
 62
4
 10
3.77999924E+02
 20
-2.90982820E+02
  0
VERTEX
  8
0
 62
4
 10
3.77993153E+02
 20
-2.90821814E+02
  0
VERTEX
  8
0
 62
4
 10
3.77971115E+02
 20
-2.90661969E+02
  0
VERTEX
  8
0
 62
4
 10
3.77933977E+02
 20
-2.90504510E+02
  0
VERTEX
  8
0
 62
4
 10
3.77882026E+02
 20
-2.90350644E+02
  0
VERTEX
  8
0
 62
4
 10
3.77815657E+02
 20
-2.90201548E+02
  0
VERTEX
  8
0
 62
4
 10
3.77735380E+02
 20
-2.90058365E+02
  0
VERTEX
  8
0
 62
4
 10
3.77641810E+02
 20
-2.89922191E+02
  0
VERTEX
  8
0
 62
4
 10
3.77535664E+02
 20
-2.89794070E+02
  0
VERTEX
  8
0
 62
4
 10
3.77417754E+02
 20
-2.89674983E+02
  0
VERTEX
  8
0
 62
4
 10
3.77288984E+02
 20
-2.89565842E+02
  0
VERTEX
  8
0
 62
4
 10
3.77150340E+02
 20
-2.89467484E+02
  0
VERTEX
  8
0
 62
4
 10
3.77002884E+02
 20
-2.89380661E+02
  0
VERTEX
  8
0
 62
4
 10
3.76847746E+02
 20
-2.89306039E+02
  0
VERTEX
  8
0
 62
4
 10
3.76686113E+02
 20
-2.89244189E+02
  0
VERTEX
  8
0
 62
4
 10
3.76519225E+02
 20
-2.89195586E+02
  0
VERTEX
  8
0
 62
4
 10
3.76348359E+02
 20
-2.89160600E+02
  0
VERTEX
  8
0
 62
4
 10
3.76174824E+02
 20
-2.89139501E+02
  0
VERTEX
  8
0
 62
4
 10
3.75999950E+02
 20
-2.89132450E+02
  0
VERTEX
  8
0
 62
4
 10
3.75825076E+02
 20
-2.89139501E+02
  0
VERTEX
  8
0
 62
4
 10
3.75651541E+02
 20
-2.89160600E+02
  0
VERTEX
  8
0
 62
4
 10
3.75480675E+02
 20
-2.89195586E+02
  0
VERTEX
  8
0
 62
4
 10
3.75313787E+02
 20
-2.89244189E+02
  0
VERTEX
  8
0
 62
4
 10
3.75152154E+02
 20
-2.89306039E+02
  0
VERTEX
  8
0
 62
4
 10
3.74997016E+02
 20
-2.89380661E+02
  0
VERTEX
  8
0
 62
4
 10
3.74849560E+02
 20
-2.89467484E+02
  0
VERTEX
  8
0
 62
4
 10
3.74710916E+02
 20
-2.89565842E+02
  0
VERTEX
  8
0
 62
4
 10
3.74582146E+02
 20
-2.89674983E+02
  0
VERTEX
  8
0
 62
4
 10
3.74464236E+02
 20
-2.89794070E+02
  0
VERTEX
  8
0
 62
4
 10
3.74358090E+02
 20
-2.89922191E+02
  0
VERTEX
  8
0
 62
4
 10
3.74264520E+02
 20
-2.90058365E+02
  0
VERTEX
  8
0
 62
4
 10
3.74184243E+02
 20
-2.90201548E+02
  0
VERTEX
  8
0
 62
4
 10
3.74117874E+02
 20
-2.90350644E+02
  0
VERTEX
  8
0
 62
4
 10
3.74065923E+02
 20
-2.90504510E+02
  0
VERTEX
  8
0
 62
4
 10
3.74028785E+02
 20
-2.90661969E+02
  0
VERTEX
  8
0
 62
4
 10
3.74006747E+02
 20
-2.90821814E+02
  0
VERTEX
  8
0
 62
4
 10
3.73999976E+02
 20
-2.90982820E+02
  0
VERTEX
  8
0
 62
4
 10
3.74008525E+02
 20
-2.91143755E+02
  0
VERTEX
  8
0
 62
4
 10
3.74032328E+02
 20
-2.91303385E+02
  0
VERTEX
  8
0
 62
4
 10
3.74071203E+02
 20
-2.91460488E+02
  0
VERTEX
  8
0
 62
4
 10
3.74124852E+02
 20
-2.91613860E+02
  0
VERTEX
  8
0
 62
4
 10
3.74192864E+02
 20
-2.91762327E+02
  0
VERTEX
  8
0
 62
4
 10
3.74274718E+02
 20
-2.91904752E+02
  0
SEQEND
  8
0
  0
POLYLINE
  8
0
 62
4
 66
1
  0
VERTEX
  8
0
 62
4
 10
3.69734950E+02
 20
-2.91735521E+02
  0
VERTEX
  8
0
 62
4
 10
3.69728348E+02
 20
-2.91596327E+02
  0
VERTEX
  8
0
 62
4
 10
3.69708591E+02
 20
-2.91458192E+02
  0
VERTEX
  8
0
 62
4
 10
3.69675831E+02
 20
-2.91322167E+02
  0
VERTEX
  8
0
 62
4
 10
3.69630317E+02
 20
-2.91189289E+02
  0
VERTEX
  8
0
 62
4
 10
3.69572394E+02
 20
-2.91060568E+02
  0
VERTEX
  8
0
 62
4
 10
3.69502504E+02
 20
-2.90936983E+02
  0
VERTEX
  8
0
 62
4
 10
3.69421179E+02
 20
-2.90819476E+02
  0
VERTEX
  8
0
 62
4
 10
3.69329037E+02
 20
-2.90708940E+02
  0
VERTEX
  8
0
 62
4
 10
3.69226780E+02
 20
-2.90606218E+02
  0
VERTEX
  8
0
 62
4
 10
3.69115187E+02
 20
-2.90512090E+02
  0
VERTEX
  8
0
 62
4
 10
3.68995105E+02
 20
-2.90427273E+02
  0
VERTEX
  8
0
 62
4
 10
3.68867450E+02
 20
-2.90352413E+02
  0
VERTEX
  8
0
 62
4
 10
3.68733193E+02
 20
-2.90288079E+02
  0
VERTEX
  8
0
 62
4
 10
3.68593355E+02
 20
-2.90234761E+02
  0
VERTEX
  8
0
 62
4
 10
3.68449001E+02
 20
-2.90192864E+02
  0
VERTEX
  8
0
 62
4
 10
3.68301230E+02
 20
-2.90162708E+02
  0
VERTEX
  8
0
 62
4
 10
3.68151165E+02
 20
-2.90144522E+02
  0
VERTEX
  8
0
 62
4
 10
3.67999950E+02
 20
-2.90138445E+02
  0
VERTEX
  8
0
 62
4
 10
3.67848735E+02
 20
-2.90144522E+02
  0
VERTEX
  8
0
 62
4
 10
3.67698670E+02
 20
-2.90162708E+02
  0
VERTEX
  8
0
 62
4
 10
3.67550899E+02
 20
-2.90192864E+02
  0
VERTEX
  8
0
 62
4
 10
3.67406545E+02
 20
-2.90234761E+02
  0
VERTEX
  8
0
 62
4
 10
3.67266707E+02
 20
-2.90288079E+02
  0
VERTEX
  8
0
 62
4
 10
3.67132450E+02
 20
-2.90352413E+02
  0
VERTEX
  8
0
 62
4
 10
3.67004795E+02
 20
-2.90427273E+02
  0
VERTEX
  8
0
 62
4
 10
3.66884713E+02
 20
-2.90512090E+02
  0
VERTEX
  8
0
 62
4
 10
3.66773120E+02
 20
-2.90606218E+02
  0
VERTEX
  8
0
 62
4
 10
3.66670863E+02
 20
-2.90708940E+02
  0
VERTEX
  8
0
 62
4
 10
3.66578721E+02
 20
-2.90819476E+02
  0
VERTEX
  8
0
 62
4
 10
3.66497396E+02
 20
-2.90936983E+02
  0
VERTEX
  8
0
 62
4
 10
3.66427506E+02
 20
-2.91060568E+02
  0
VERTEX
  8
0
 62
4
 10
3.66369583E+02
 20
-2.91189289E+02
  0
VERTEX
  8
0
 62
4
 10
3.66324069E+02
 20
-2.91322167E+02
  0
VERTEX
  8
0
 62
4
 10
3.66291309E+02
 20
-2.91458192E+02
  0
VERTEX
  8
0
 62
4
 10
3.66271552E+02
 20
-2.91596327E+02
  0
VERTEX
  8
0
 62
4
 10
3.66264950E+02
 20
-2.91735521E+02
  0
VERTEX
  8
0
 62
4
 10
3.66271552E+02
 20
-2.91874715E+02
  0
VERTEX
  8
0
 62
4
 10
3.66291309E+02
 20
-2.92012850E+02
  0
VERTEX
  8
0
 62
4
 10
3.66324069E+02
 20
-2.92148875E+02
  0
VERTEX
  8
0
 62
4
 10
3.66369583E+02
 20
-2.92281753E+02
  0
VERTEX
  8
0
 62
4
 10
3.66427506E+02
 20
-2.92410474E+02
  0
VERTEX
  8
0
 62
4
 10
3.66497396E+02
 20
-2.92534059E+02
  0
VERTEX
  8
0
 62
4
 10
3.66578721E+02
 20
-2.92651566E+02
  0
VERTEX
  8
0
 62
4
 10
3.66670863E+02
 20
-2.92762102E+02
  0
VERTEX
  8
0
 62
4
 10
3.66773120E+02
 20
-2.92864824E+02
  0
VERTEX
  8
0
 62
4
 10
3.66884713E+02
 20
-2.92958952E+02
  0
VERTEX
  8
0
 62
4
 10
3.67004795E+02
 20
-2.93043769E+02
  0
VERTEX
  8
0
 62
4
 10
3.67132450E+02
 20
-2.93118629E+02
  0
VERTEX
  8
0
 62
4
 10
3.67266707E+02
 20
-2.93182963E+02
  0
VERTEX
  8
0
 62
4
 10
3.67406545E+02
 20
-2.93236281E+02
  0
VERTEX
  8
0
 62
4
 10
3.67550899E+02
 20
-2.93278178E+02
  0
VERTEX
  8
0
 62
4
 10
3.67698670E+02
 20
-2.93308334E+02
  0
VERTEX
  8
0
 62
4
 10
3.67848735E+02
 20
-2.93326520E+02
  0
VERTEX
  8
0
 62
4
 10
3.67999950E+02
 20
-2.93332597E+02
  0
VERTEX
  8
0
 62
4
 10
3.68151165E+02
 20
-2.93326520E+02
  0
VERTEX
  8
0
 62
4
 10
3.68301230E+02
 20
-2.93308334E+02
  0
VERTEX
  8
0
 62
4
 10
3.68449001E+02
 20
-2.93278178E+02
  0
VERTEX
  8
0
 62
4
 10
3.68593355E+02
 20
-2.93236281E+02
  0
VERTEX
  8
0
 62
4
 10
3.68733193E+02
 20
-2.93182963E+02
  0
VERTEX
  8
0
 62
4
 10
3.68867450E+02
 20
-2.93118629E+02
  0
VERTEX
  8
0
 62
4
 10
3.68995105E+02
 20
-2.93043769E+02
  0
VERTEX
  8
0
 62
4
 10
3.69115187E+02
 20
-2.92958952E+02
  0
VERTEX
  8
0
 62
4
 10
3.69226780E+02
 20
-2.92864824E+02
  0
VERTEX
  8
0
 62
4
 10
3.69329037E+02
 20
-2.92762102E+02
  0
VERTEX
  8
0
 62
4
 10
3.69421179E+02
 20
-2.92651566E+02
  0
VERTEX
  8
0
 62
4
 10
3.69502504E+02
 20
-2.92534059E+02
  0
VERTEX
  8
0
 62
4
 10
3.69572394E+02
 20
-2.92410474E+02
  0
VERTEX
  8
0
 62
4
 10
3.69630317E+02
 20
-2.92281753E+02
  0
VERTEX
  8
0
 62
4
 10
3.69675831E+02
 20
-2.92148875E+02
  0
VERTEX
  8
0
 62
4
 10
3.69708591E+02
 20
-2.92012850E+02
  0
VERTEX
  8
0
 62
4
 10
3.69728348E+02
 20
-2.91874715E+02
  0
VERTEX
  8
0
 62
4
 10
3.69734950E+02
 20
-2.91735521E+02
  0
SEQEND
  8
0
  0
POLYLINE
  8
0
 62
6
 66
1
  0
VERTEX
  8
0
 62
6
 10
3.69499950E+02
 20
-2.91740123E+02
  0
VERTEX
  8
0
 62
6
 10
3.69494242E+02
 20
-2.91619782E+02
  0
VERTEX
  8
0
 62
6
 10
3.69477162E+02
 20
-2.91500357E+02
  0
VERTEX
  8
0
 62
6
 10
3.69448839E+02
 20
-2.91382757E+02
  0
VERTEX
  8
0
 62
6
 10
3.69409489E+02
 20
-2.91267876E+02
  0
VERTEX
  8
0
 62
6
 10
3.69359412E+02
 20
-2.91156590E+02
  0
VERTEX
  8
0
 62
6
 10
3.69298988E+02
 20
-2.91049744E+02
  0
VERTEX
  8
0
 62
6
 10
3.69228678E+02
 20
-2.90948153E+02
  0
VERTEX
  8
0
 62
6
 10
3.69149017E+02
 20
-2.90852589E+02
  0
VERTEX
  8
0
 62
6
 10
3.69060610E+02
 20
-2.90763780E+02
  0
VERTEX
  8
0
 62
6
 10
3.68964131E+02
 20
-2.90682402E+02
  0
VERTEX
  8
0
 62
6
 10
3.68860315E+02
 20
-2.90609073E+02
  0
VERTEX
  8
0
 62
6
 10
3.68749950E+02
 20
-2.90544352E+02
  0
VERTEX
  8
0
 62
6
 10
3.68633877E+02
 20
-2.90488732E+02
  0
VERTEX
  8
0
 62
6
 10
3.68512980E+02
 20
-2.90442636E+02
  0
VERTEX
  8
0
 62
6
 10
3.68388179E+02
 20
-2.90406414E+02
  0
VERTEX
  8
0
 62
6
 10
3.68260422E+02
 20
-2.90380343E+02
  0
VERTEX
  8
0
 62
6
 10
3.68130684E+02
 20
-2.90364620E+02
  0
VERTEX
  8
0
 62
6
 10
3.67999950E+02
 20
-2.90359366E+02
  0
VERTEX
  8
0
 62
6
 10
3.67869216E+02
 20
-2.90364620E+02
  0
VERTEX
  8
0
 62
6
 10
3.67739478E+02
 20
-2.90380343E+02
  0
VERTEX
  8
0
 62
6
 10
3.67611721E+02
 20
-2.90406414E+02
  0
VERTEX
  8
0
 62
6
 10
3.67486920E+02
 20
-2.90442636E+02
  0
VERTEX
  8
0
 62
6
 10
3.67366023E+02
 20
-2.90488732E+02
  0
VERTEX
  8
0
 62
6
 10
3.67249950E+02
 20
-2.90544352E+02
  0
VERTEX
  8
0
 62
6
 10
3.67139585E+02
 20
-2.90609073E+02
  0
VERTEX
  8
0
 62
6
 10
3.67035769E+02
 20
-2.90682402E+02
  0
VERTEX
  8
0
 62
6
 10
3.66939290E+02
 20
-2.90763780E+02
  0
VERTEX
  8
0
 62
6
 10
3.66850883E+02
 20
-2.90852589E+02
  0
VERTEX
  8
0
 62
6
 10
3.66771222E+02
 20
-2.90948153E+02
  0
VERTEX
  8
0
 62
6
 10
3.66700912E+02
 20
-2.91049744E+02
  0
VERTEX
  8
0
 62
6
 10
3.66640488E+02
 20
-2.91156590E+02
  0
VERTEX
  8
0
 62
6
 10
3.66590411E+02
 20
-2.91267876E+02
  0
VERTEX
  8
0
 62
6
 10
3.66551061E+02
 20
-2.91382757E+02
  0
VERTEX
  8
0
 62
6
 10
3.66522738E+02
 20
-2.91500357E+02
  0
VERTEX
  8
0
 62
6
 10
3.66505658E+02
 20
-2.91619782E+02
  0
VERTEX
  8
0
 62
6
 10
3.66499950E+02
 20
-2.91740123E+02
  0
VERTEX
  8
0
 62
6
 10
3.66505658E+02
 20
-2.91860464E+02
  0
VERTEX
  8
0
 62
6
 10
3.66522738E+02
 20
-2.91979889E+02
  0
VERTEX
  8
0
 62
6
 10
3.66551061E+02
 20
-2.92097489E+02
  0
VERTEX
  8
0
 62
6
 10
3.66590411E+02
 20
-2.92212370E+02
  0
VERTEX
  8
0
 62
6
 10
3.66640488E+02
 20
-2.92323656E+02
  0
VERTEX
  8
0
 62
6
 10
3.66700912E+02
 20
-2.92430502E+02
  0
VERTEX
  8
0
 62
6
 10
3.66771222E+02
 20
-2.92532093E+02
  0
VERTEX
  8
0
 62
6
 10
3.66850883E+02
 20
-2.92627657E+02
  0
VERTEX
  8
0
 62
6
 10
3.66939290E+02
 20
-2.92716466E+02
  0
VERTEX
  8
0
 62
6
 10
3.67035769E+02
 20
-2.92797844E+02
  0
VERTEX
  8
0
 62
6
 10
3.67139585E+02
 20
-2.92871173E+02
  0
VERTEX
  8
0
 62
6
 10
3.67249950E+02
 20
-2.92935894E+02
  0
VERTEX
  8
0
 62
6
 10
3.67366023E+02
 20
-2.92991514E+02
  0
VERTEX
  8
0
 62
6
 10
3.67486920E+02
 20
-2.93037610E+02
  0
VERTEX
  8
0
 62
6
 10
3.67611721E+02
 20
-2.93073832E+02
  0
VERTEX
  8
0
 62
6
 10
3.67739478E+02
 20
-2.93099903E+02
  0
VERTEX
  8
0
 62
6
 10
3.67869216E+02
 20
-2.93115626E+02
  0
VERTEX
  8
0
 62
6
 10
3.67999950E+02
 20
-2.93120880E+02
  0
VERTEX
  8
0
 62
6
 10
3.68130684E+02
 20
-2.93115626E+02
  0
VERTEX
  8
0
 62
6
 10
3.68260422E+02
 20
-2.93099903E+02
  0
VERTEX
  8
0
 62
6
 10
3.68388179E+02
 20
-2.93073832E+02
  0
VERTEX
  8
0
 62
6
 10
3.68512980E+02
 20
-2.93037610E+02
  0
VERTEX
  8
0
 62
6
 10
3.68633877E+02
 20
-2.92991514E+02
  0
VERTEX
  8
0
 62
6
 10
3.68749950E+02
 20
-2.92935894E+02
  0
VERTEX
  8
0
 62
6
 10
3.68860315E+02
 20
-2.92871173E+02
  0
VERTEX
  8
0
 62
6
 10
3.68964131E+02
 20
-2.92797844E+02
  0
VERTEX
  8
0
 62
6
 10
3.69060610E+02
 20
-2.92716466E+02
  0
VERTEX
  8
0
 62
6
 10
3.69149017E+02
 20
-2.92627657E+02
  0
VERTEX
  8
0
 62
6
 10
3.69228678E+02
 20
-2.92532093E+02
  0
VERTEX
  8
0
 62
6
 10
3.69298988E+02
 20
-2.92430502E+02
  0
VERTEX
  8
0
 62
6
 10
3.69359412E+02
 20
-2.92323656E+02
  0
VERTEX
  8
0
 62
6
 10
3.69409489E+02
 20
-2.92212370E+02
  0
VERTEX
  8
0
 62
6
 10
3.69448839E+02
 20
-2.92097489E+02
  0
VERTEX
  8
0
 62
6
 10
3.69477162E+02
 20
-2.91979889E+02
  0
VERTEX
  8
0
 62
6
 10
3.69494242E+02
 20
-2.91860464E+02
  0
VERTEX
  8
0
 62
6
 10
3.69499950E+02
 20
-2.91740123E+02
  0
SEQEND
  8
0
  0
POLYLINE
  8
0
 62
4
 66
1
  0
VERTEX
  8
0
 62
4
 10
3.69725182E+02
 20
-2.91904752E+02
  0
VERTEX
  8
0
 62
4
 10
3.69807036E+02
 20
-2.91762327E+02
  0
VERTEX
  8
0
 62
4
 10
3.69875048E+02
 20
-2.91613860E+02
  0
VERTEX
  8
0
 62
4
 10
3.69928697E+02
 20
-2.91460488E+02
  0
VERTEX
  8
0
 62
4
 10
3.69967572E+02
 20
-2.91303385E+02
  0
VERTEX
  8
0
 62
4
 10
3.69991375E+02
 20
-2.91143755E+02
  0
VERTEX
  8
0
 62
4
 10
3.69999924E+02
 20
-2.90982820E+02
  0
VERTEX
  8
0
 62
4
 10
3.69993153E+02
 20
-2.90821814E+02
  0
VERTEX
  8
0
 62
4
 10
3.69971115E+02
 20
-2.90661969E+02
  0
VERTEX
  8
0
 62
4
 10
3.69933977E+02
 20
-2.90504510E+02
  0
VERTEX
  8
0
 62
4
 10
3.69882026E+02
 20
-2.90350644E+02
  0
VERTEX
  8
0
 62
4
 10
3.69815657E+02
 20
-2.90201548E+02
  0
VERTEX
  8
0
 62
4
 10
3.69735380E+02
 20
-2.90058365E+02
  0
VERTEX
  8
0
 62
4
 10
3.69641810E+02
 20
-2.89922191E+02
  0
VERTEX
  8
0
 62
4
 10
3.69535664E+02
 20
-2.89794070E+02
  0
VERTEX
  8
0
 62
4
 10
3.69417754E+02
 20
-2.89674983E+02
  0
VERTEX
  8
0
 62
4
 10
3.69288984E+02
 20
-2.89565842E+02
  0
VERTEX
  8
0
 62
4
 10
3.69150340E+02
 20
-2.89467484E+02
  0
VERTEX
  8
0
 62
4
 10
3.69002884E+02
 20
-2.89380661E+02
  0
VERTEX
  8
0
 62
4
 10
3.68847746E+02
 20
-2.89306039E+02
  0
VERTEX
  8
0
 62
4
 10
3.68686113E+02
 20
-2.89244189E+02
  0
VERTEX
  8
0
 62
4
 10
3.68519225E+02
 20
-2.89195586E+02
  0
VERTEX
  8
0
 62
4
 10
3.68348359E+02
 20
-2.89160600E+02
  0
VERTEX
  8
0
 62
4
 10
3.68174824E+02
 20
-2.89139501E+02
  0
VERTEX
  8
0
 62
4
 10
3.67999950E+02
 20
-2.89132450E+02
  0
VERTEX
  8
0
 62
4
 10
3.67825076E+02
 20
-2.89139501E+02
  0
VERTEX
  8
0
 62
4
 10
3.67651541E+02
 20
-2.89160600E+02
  0
VERTEX
  8
0
 62
4
 10
3.67480675E+02
 20
-2.89195586E+02
  0
VERTEX
  8
0
 62
4
 10
3.67313787E+02
 20
-2.89244189E+02
  0
VERTEX
  8
0
 62
4
 10
3.67152154E+02
 20
-2.89306039E+02
  0
VERTEX
  8
0
 62
4
 10
3.66997016E+02
 20
-2.89380661E+02
  0
VERTEX
  8
0
 62
4
 10
3.66849560E+02
 20
-2.89467484E+02
  0
VERTEX
  8
0
 62
4
 10
3.66710916E+02
 20
-2.89565842E+02
  0
VERTEX
  8
0
 62
4
 10
3.66582146E+02
 20
-2.89674983E+02
  0
VERTEX
  8
0
 62
4
 10
3.66464236E+02
 20
-2.89794070E+02
  0
VERTEX
  8
0
 62
4
 10
3.66358090E+02
 20
-2.89922191E+02
  0
VERTEX
  8
0
 62
4
 10
3.66264520E+02
 20
-2.90058365E+02
  0
VERTEX
  8
0
 62
4
 10
3.66184243E+02
 20
-2.90201548E+02
  0
VERTEX
  8
0
 62
4
 10
3.66117874E+02
 20
-2.90350644E+02
  0
VERTEX
  8
0
 62
4
 10
3.66065923E+02
 20
-2.90504510E+02
  0
VERTEX
  8
0
 62
4
 10
3.66028785E+02
 20
-2.90661969E+02
  0
VERTEX
  8
0
 62
4
 10
3.66006747E+02
 20
-2.90821814E+02
  0
VERTEX
  8
0
 62
4
 10
3.65999976E+02
 20
-2.90982820E+02
  0
VERTEX
  8
0
 62
4
 10
3.66008525E+02
 20
-2.91143755E+02
  0
VERTEX
  8
0
 62
4
 10
3.66032328E+02
 20
-2.91303385E+02
  0
VERTEX
  8
0
 62
4
 10
3.66071203E+02
 20
-2.91460488E+02
  0
VERTEX
  8
0
 62
4
 10
3.66124852E+02
 20
-2.91613860E+02
  0
VERTEX
  8
0
 62
4
 10
3.66192864E+02
 20
-2.91762327E+02
  0
VERTEX
  8
0
 62
4
 10
3.66274718E+02
 20
-2.91904752E+02
  0
SEQEND
  8
0
  0
LINE
  8
0
 62
4
 10
3.64499950E+02
 20
-2.67440734E+02
 11
3.79499950E+02
 21
-2.67440734E+02
  0
LINE
  8
0
 62
4
 10
3.82191228E+02
 20
-2.79999985E+02
 11
3.83999950E+02
 21
-2.78486792E+02
  0
LINE
  8
0
 62
4
 10
3.44999950E+02
 20
-2.78486792E+02
 11
3.46808673E+02
 21
-2.79999985E+02
  0
LINE
  8
0
 62
4
 10
3.83999950E+02
 20
-2.77106035E+02
 11
3.79499950E+02
 21
-2.77106035E+02
  0
LINE
  8
0
 62
4
 10
3.64499950E+02
 20
-2.77106035E+02
 11
3.44999950E+02
 21
-2.77106035E+02
  0
LINE
  8
0
 62
4
 10
3.64499950E+02
 20
-2.56079767E+02
 11
3.46499950E+02
 21
-2.56079767E+02
  0
ARC
  8
0
 62
4
 10
3.46499959E+02
 20
-2.57579776E+02
 40
1.50000856E+00
 50
9.00003273E+01
 51
1.79999673E+02
  0
LINE
  8
0
 62
4
 10
3.82499950E+02
 20
-2.56079767E+02
 11
3.79499950E+02
 21
-2.56079767E+02
  0
ARC
  8
0
 62
4
 10
3.82499942E+02
 20
-2.57579776E+02
 40
1.50000856E+00
 50
3.27119593E-04
 51
8.99996730E+01
  0
LINE
  8
0
 62
4
 10
3.79499950E+02
 20
-2.30365322E+02
 11
3.64499950E+02
 21
-2.30365322E+02
  0
ARC
  8
0
 62
4
 10
3.46499959E+02
 20
-2.65003657E+02
 40
1.50000856E+00
 50
9.00003273E+01
 51
1.79999673E+02
  0
ARC
  8
0
 62
4
 10
3.79999964E+02
 20
-2.46318870E+02
 40
5.00013809E-01
 50
9.00015821E+01
 51
1.79998418E+02
  0
ARC
  8
0
 62
4
 10
3.88499939E+02
 20
-2.32318868E+02
 40
5.00011902E-01
 50
1.36383594E-03
 51
8.99986360E+01
  0
ARC
  8
0
 62
4
 10
3.88499962E+02
 20
-2.45318868E+02
 40
4.99988098E-01
 50
2.69998636E+02
 51
1.36386840E-03
  0
ARC
  8
0
 62
4
 10
3.82499942E+02
 20
-2.65003657E+02
 40
1.50000856E+00
 50
3.27119593E-04
 51
8.99996730E+01
  0
LINE
  8
0
 62
4
 10
3.44999950E+02
 20
-2.57579767E+02
 11
3.44999950E+02
 21
-2.78503648E+02
  0
LINE
  8
0
 62
4
 10
3.79499950E+02
 20
-2.58318405E+02
 11
3.64499950E+02
 21
-2.58318405E+02
  0
LINE
  8
0
 62
4
 10
3.62499950E+02
 20
-2.60020372E+02
 11
3.62499950E+02
 21
-2.63503648E+02
  0
LINE
  8
0
 62
4
 10
3.79499950E+02
 20
-2.30365322E+02
 11
3.79499950E+02
 21
-2.60020372E+02
  0
LINE
  8
0
 62
4
 10
3.64499950E+02
 20
-2.30365322E+02
 11
3.64499950E+02
 21
-2.60020372E+02
  0
LINE
  8
0
 62
4
 10
3.81499950E+02
 20
-2.60020372E+02
 11
3.81499950E+02
 21
-2.63503648E+02
  0
LINE
  8
0
 62
4
 10
3.83999950E+02
 20
-2.78486792E+02
 11
3.79499950E+02
 21
-2.78486792E+02
  0
LINE
  8
0
 62
4
 10
3.83999950E+02
 20
-2.57579767E+02
 11
3.83999950E+02
 21
-2.78503648E+02
  0
LINE
  8
0
 62
4
 10
3.81499950E+02
 20
-2.60020372E+02
 11
3.62499950E+02
 21
-2.60020372E+02
  0
LINE
  8
0
 62
4
 10
3.79499950E+02
 20
-2.36226289E+02
 11
3.64499950E+02
 21
-2.36226289E+02
  0
LINE
  8
0
 62
4
 10
3.64499950E+02
 20
-2.78486792E+02
 11
3.44999950E+02
 21
-2.78486792E+02
  0
LINE
  8
0
 62
4
 10
3.88499950E+02
 20
-2.45818856E+02
 11
3.79999950E+02
 21
-2.45818856E+02
  0
LINE
  8
0
 62
4
 10
3.92499950E+02
 20
-2.44568856E+02
 11
3.88999950E+02
 21
-2.44568856E+02
  0
LINE
  8
0
 62
4
 10
3.92499950E+02
 20
-2.32568856E+02
 11
3.92499950E+02
 21
-2.45068856E+02
  0
LINE
  8
0
 62
4
 10
3.93999950E+02
 20
-2.45068856E+02
 11
3.88999950E+02
 21
-2.45068856E+02
  0
LINE
  8
0
 62
4
 10
3.93999950E+02
 20
-2.32568856E+02
 11
3.88999950E+02
 21
-2.32568856E+02
  0
LINE
  8
0
 62
4
 10
3.93999950E+02
 20
-2.31915048E+02
 11
3.93999950E+02
 21
-2.45731826E+02
  0
LINE
  8
0
 62
4
 10
3.98999950E+02
 20
-2.31915048E+02
 11
3.98999950E+02
 21
-2.45731826E+02
  0
LINE
  8
0
 62
4
 10
3.88999950E+02
 20
-2.32318856E+02
 11
3.88999950E+02
 21
-2.45318856E+02
  0
LINE
  8
0
 62
4
 10
3.79499950E+02
 20
-2.31818856E+02
 11
3.88499950E+02
 21
-2.31818856E+02
  0
LINE
  8
0
 62
4
 10
3.98999950E+02
 20
-2.31915048E+02
 11
3.93999950E+02
 21
-2.31915048E+02
  0
LINE
  8
0
 62
4
 10
3.82499950E+02
 20
-2.63503648E+02
 11
3.46499950E+02
 21
-2.63503648E+02
  0
LINE
  8
0
 62
4
 10
3.92499950E+02
 20
-2.33068856E+02
 11
3.88999950E+02
 21
-2.33068856E+02
  0
LINE
  8
0
  6
CENTER
 62
6
 10
3.62999950E+02
 20
-2.91740123E+02
 11
3.80999950E+02
 21
-2.91740123E+02
  0
LINE
  8
0
  6
CENTER
 62
6
 10
3.67999950E+02
 20
-2.86740123E+02
 11
3.67999950E+02
 21
-2.96740123E+02
  0
LINE
  8
0
  6
CENTER
 62
6
 10
3.75999950E+02
 20
-2.86740123E+02
 11
3.75999950E+02
 21
-2.96740123E+02
  0
LINE
  8
0
 62
4
 10
3.64499950E+02
 20
-2.67440734E+02
 11
3.64499950E+02
 21
-2.95109131E+02
  0
LINE
  8
0
 62
4
 10
3.79499950E+02
 20
-2.67440734E+02
 11
3.79499950E+02
 21
-2.95109131E+02
  0
LINE
  8
0
 62
4
 10
3.65499950E+02
 20
-2.84137925E+02
 11
3.78499950E+02
 21
-2.84137925E+02
  0
LINE
  8
0
 62
4
 10
3.64499950E+02
 20
-2.95109131E+02
 11
3.79499950E+02
 21
-2.95109131E+02
  0
LINE
  8
0
 62
4
 10
3.64499950E+02
 20
-2.70173498E+02
 11
3.79499950E+02
 21
-2.70173498E+02
  0
ARC
  8
0
 62
7
 10
1.56999981E+02
 20
-3.19500000E+02
 40
2.14999847E+01
 50
0.00000000E+00
 51
1.80000000E+02
  0
LINE
  8
0
  6
CENTER
 62
2
 10
1.36222179E+02
 20
-2.84499924E+02
 11
1.07012280E+02
 21
-2.84499924E+02
  0
LINE
  8
0
  6
CENTER
 62
2
 10
1.67999981E+02
 20
-3.07503517E+02
 11
1.67999981E+02
 21
-2.69926559E+02
  0
LINE
  8
0
 62
7
 10
1.41698554E+02
 20
-3.02430511E+02
 11
1.31578517E+02
 21
-2.92310478E+02
  0
LINE
  8
0
 62
7
 10
1.55749981E+02
 20
-2.77100037E+02
 11
1.55749981E+02
 21
-2.96610245E+02
  0
LINE
  8
0
  6
CENTER
 62
2
 10
1.41000011E+02
 20
-2.69923035E+02
 11
1.41000011E+02
 21
-3.10128151E+02
  0
LINE
  8
0
 62
7
 10
1.38998974E+02
 20
-2.76099960E+02
 11
1.75001171E+02
 21
-2.76099960E+02
  0
LINE
  8
0
 62
7
 10
1.26999981E+02
 20
-2.72500015E+02
 11
1.26999981E+02
 21
-2.73100052E+02
  0
LINE
  8
0
 62
7
 10
1.86999981E+02
 20
-2.72500015E+02
 11
1.86999981E+02
 21
-2.73099960E+02
  0
LINE
  8
0
 62
7
 10
1.95999981E+02
 20
-2.96634689E+02
 11
1.95999981E+02
 21
-2.97000031E+02
  0
LINE
  8
0
 62
7
 10
1.79865398E+02
 20
-2.80499893E+02
 11
1.79500103E+02
 21
-2.80499893E+02
  0
LINE
  8
0
 62
7
 10
1.34134686E+02
 20
-2.80499985E+02
 11
1.34500072E+02
 21
-2.80499985E+02
  0
LINE
  8
0
 62
7
 10
1.39930679E+02
 20
-3.04198343E+02
 11
1.29810621E+02
 21
-2.94078289E+02
  0
LINE
  8
0
 62
7
 10
1.17999889E+02
 20
-2.96634689E+02
 11
1.17999889E+02
 21
-2.96999939E+02
  0
LINE
  8
0
  6
CENTER
 62
2
 10
2.07464123E+02
 20
-3.05499931E+02
 11
2.04000072E+02
 21
-3.05499931E+02
  0
LINE
  8
0
 62
7
 10
2.06599987E+02
 20
-3.07100044E+02
 11
2.06599987E+02
 21
-3.03900002E+02
  0
LINE
  8
0
 62
7
 10
2.04400036E+02
 20
-3.09249931E+02
 11
2.04000072E+02
 21
-3.09249931E+02
  0
LINE
  8
0
 62
7
 10
2.04400036E+02
 20
-3.01749924E+02
 11
2.04000072E+02
 21
-3.01749924E+02
  0
LINE
  8
0
  6
CENTER
 62
2
 10
1.56999981E+02
 20
-2.67965271E+02
 11
1.56999981E+02
 21
-3.19500000E+02
  0
LINE
  8
0
  6
CENTER
 62
2
 10
1.05169323E+02
 20
-3.19500000E+02
 11
2.08946087E+02
 21
-3.19500000E+02
  0
LINE
  8
0
 62
7
 10
2.00000011E+02
 20
-2.73099915E+02
 11
1.14000042E+02
 21
-2.73099960E+02
  0
LINE
  8
0
 62
7
 10
2.03400005E+02
 20
-3.19500000E+02
 11
2.03400005E+02
 21
-2.76500000E+02
  0
LINE
  8
0
 62
7
 10
2.00400005E+02
 20
-3.19500000E+02
 11
2.00400005E+02
 21
-3.01498886E+02
  0
LINE
  8
0
 62
7
 10
1.72301639E+02
 20
-3.02430661E+02
 11
1.82421674E+02
 21
-2.92310627E+02
  0
LINE
  8
0
 62
7
 10
1.74069589E+02
 20
-3.04198482E+02
 11
1.84189667E+02
 21
-2.94078405E+02
  0
LINE
  8
0
 62
7
 10
2.00000011E+02
 20
-2.72499924E+02
 11
1.14000042E+02
 21
-2.72499969E+02
  0
LINE
  8
0
  6
CENTER
 62
2
 10
1.91999981E+02
 20
-2.70314651E+02
 11
1.91999981E+02
 21
-2.99038361E+02
  0
LINE
  8
0
 62
7
 10
2.03999981E+02
 20
-3.19500000E+02
 11
2.03999981E+02
 21
-2.76500000E+02
  0
LINE
  8
0
 62
7
 10
1.58249981E+02
 20
-2.77099991E+02
 11
1.58249981E+02
 21
-2.96610336E+02
  0
LINE
  8
0
 62
7
 10
1.99399975E+02
 20
-3.18249939E+02
 11
1.79889751E+02
 21
-3.18249939E+02
  0
LINE
  8
0
 62
7
 10
1.14599987E+02
 20
-3.18249985E+02
 11
1.34110332E+02
 21
-3.18249985E+02
  0
LINE
  8
0
 62
7
 10
1.10600018E+02
 20
-3.19500000E+02
 11
1.10600018E+02
 21
-2.76500046E+02
  0
LINE
  8
0
 62
7
 10
1.13600018E+02
 20
-3.19500000E+02
 11
1.13600018E+02
 21
-3.01498795E+02
  0
LINE
  8
0
 62
7
 10
1.09999981E+02
 20
-3.19500000E+02
 11
1.09999981E+02
 21
-2.76500046E+02
  0
LINE
  8
0
  6
CENTER
 62
2
 10
1.21999981E+02
 20
-2.70127335E+02
 11
1.21999981E+02
 21
-2.99864212E+02
  0
LINE
  8
0
  6
CENTER
 62
2
 10
2.06555553E+02
 20
-2.84499924E+02
 11
1.77309032E+02
 21
-2.84499924E+02
  0
ARC
  8
0
 62
7
 10
2.04122540E+02
 20
-3.04234489E+02
 40
2.50000000E+00
 50
3.52308615E+02
 51
8.36271917E+01
  0
ARC
  8
0
 62
7
 10
2.04122540E+02
 20
-3.06765373E+02
 40
2.50000000E+00
 50
2.70000037E+02
 51
3.52308598E+02
  0
CIRCLE
  8
0
 62
7
 10
1.92000072E+02
 20
-2.84500015E+02
 40
8.70000076E+00
  0
ARC
  8
0
 62
7
 10
1.81714550E+02
 20
-2.91603455E+02
 40
1.00000000E+00
 50
3.15000045E+02
 51
3.46303655E+01
  0
ARC
  8
0
 62
7
 10
1.84896557E+02
 20
-2.94785461E+02
 40
1.00000000E+00
 50
5.53696202E+01
 51
1.35000009E+02
  0
ARC
  8
0
 62
7
 10
1.59250011E+02
 20
-2.77099991E+02
 40
1.00000000E+00
 50
9.00000042E+01
 51
1.80000041E+02
  0
ARC
  8
0
 62
7
 10
1.92000072E+02
 20
-2.84500015E+02
 40
1.15000000E+01
 50
1.66113132E+02
 51
2.83886576E+02
  0
ARC
  8
0
 62
7
 10
1.99400005E+02
 20
-3.17249992E+02
 40
1.00000000E+00
 50
2.70000054E+02
 51
3.59721787E-05
  0
ARC
  8
0
 62
7
 10
2.00000042E+02
 20
-2.76500000E+02
 40
3.40000033E+00
 50
2.23118003E-05
 51
8.99999773E+01
  0
ARC
  8
0
 62
7
 10
2.00000042E+02
 20
-2.76500000E+02
 40
4.00000000E+00
 50
2.23118003E-05
 51
8.99999773E+01
  0
CIRCLE
  8
0
 62
7
 10
1.92000072E+02
 20
-2.84500015E+02
 40
8.00000000E+00
  0
ARC
  8
0
 62
7
 10
1.79500072E+02
 20
-2.76999969E+02
 40
3.50000024E+00
 50
1.81273031E+02
 51
2.69999982E+02
  0
ARC
  8
0
 62
7
 10
1.99500134E+02
 20
-2.97000031E+02
 40
3.50000024E+00
 50
1.79999501E+02
 51
2.68725469E+02
  0
ARC
  8
0
 62
7
 10
1.99400005E+02
 20
-3.01498886E+02
 40
1.00000000E+00
 50
3.59721787E-05
 51
8.87252040E+01
  0
ARC
  8
0
 62
7
 10
1.75001171E+02
 20
-2.77099945E+02
 40
1.00000000E+00
 50
1.27300565E+00
 51
9.00000179E+01
  0
ARC
  8
0
 62
7
 10
1.71594494E+02
 20
-3.01723511E+02
 40
1.00000000E+00
 50
2.30614489E+02
 51
3.15000028E+02
  0
ARC
  8
0
 62
7
 10
1.74776501E+02
 20
-3.04905525E+02
 40
1.00000000E+00
 50
1.35000009E+02
 51
2.19386163E+02
  0
ARC
  8
0
 62
7
 10
1.59250011E+02
 20
-2.96610291E+02
 40
1.00000000E+00
 50
1.80000041E+02
 51
2.64386168E+02
  0
ARC
  8
0
 62
7
 10
1.79889721E+02
 20
-3.17249992E+02
 40
1.00000000E+00
 50
1.85613869E+02
 51
2.70000037E+02
  0
CIRCLE
  8
0
 62
7
 10
1.22000011E+02
 20
-2.84500015E+02
 40
8.70000076E+00
  0
ARC
  8
0
 62
7
 10
1.29103497E+02
 20
-2.94785461E+02
 40
1.00000000E+00
 50
4.50000407E+01
 51
1.24630375E+02
  0
ARC
  8
0
 62
7
 10
1.32285503E+02
 20
-2.91603455E+02
 40
1.00000000E+00
 50
1.45369616E+02
 51
2.25000005E+02
  0
ARC
  8
0
 62
7
 10
1.54750042E+02
 20
-2.77100037E+02
 40
1.00000000E+00
 50
3.59721787E-05
 51
9.00000179E+01
  0
ARC
  8
0
 62
7
 10
1.14599987E+02
 20
-3.17249992E+02
 40
1.00000000E+00
 50
1.80000000E+02
 51
2.70000037E+02
  0
ARC
  8
0
 62
7
 10
1.14000011E+02
 20
-2.76500000E+02
 40
3.40000033E+00
 50
9.00000179E+01
 51
1.80000000E+02
  0
ARC
  8
0
 62
7
 10
1.22000011E+02
 20
-2.84500015E+02
 40
1.15000000E+01
 50
2.56113132E+02
 51
1.38865755E+01
  0
ARC
  8
0
 62
7
 10
1.14000011E+02
 20
-2.76500000E+02
 40
4.00000000E+00
 50
9.00000179E+01
 51
1.80000000E+02
  0
CIRCLE
  8
0
 62
7
 10
1.22000011E+02
 20
-2.84500015E+02
 40
8.00000000E+00
  0
ARC
  8
0
 62
7
 10
1.14500011E+02
 20
-2.96999939E+02
 40
3.50000024E+00
 50
2.71273065E+02
 51
2.23118003E-05
  0
ARC
  8
0
 62
7
 10
1.34500042E+02
 20
-2.76999924E+02
 40
3.50000024E+00
 50
2.69999982E+02
 51
3.58725492E+02
  0
ARC
  8
0
 62
7
 10
1.14599987E+02
 20
-3.01498795E+02
 40
1.00000000E+00
 50
9.12730288E+01
 51
1.80000000E+02
  0
ARC
  8
0
 62
7
 10
1.38998943E+02
 20
-2.77100037E+02
 40
1.00000000E+00
 50
9.00000179E+01
 51
1.78725220E+02
  0
ARC
  8
0
 62
7
 10
1.39223553E+02
 20
-3.04905525E+02
 40
1.00000000E+00
 50
3.20614515E+02
 51
4.50000407E+01
  0
ARC
  8
0
 62
7
 10
1.42405560E+02
 20
-3.01723511E+02
 40
1.00000000E+00
 50
2.25000019E+02
 51
3.09386159E+02
  0
ARC
  8
0
 62
7
 10
1.34110332E+02
 20
-3.17249992E+02
 40
1.00000000E+00
 50
2.70000037E+02
 51
3.54386163E+02
  0
ARC
  8
0
 62
7
 10
1.54750042E+02
 20
-2.96610245E+02
 40
1.00000000E+00
 50
2.75613895E+02
 51
3.59721787E-05
  0
ARC
  8
0
 62
7
 10
1.57000011E+02
 20
-3.19499901E+02
 40
2.20000000E+01
 50
0.00000000E+00
 51
1.80000258E+02
  0
ARC
  8
0
 62
7
 10
1.18999981E+02
 20
-2.96634644E+02
 40
1.00000000E+00
 50
7.61138610E+01
 51
1.80000000E+02
  0
ARC
  8
0
 62
7
 10
1.34134686E+02
 20
-2.81500015E+02
 40
1.00000000E+00
 50
9.00000179E+01
 51
1.93885700E+02
  0
ARC
  8
0
 62
7
 10
1.79865368E+02
 20
-2.81499924E+02
 40
1.00000000E+00
 50
3.46112226E+02
 51
9.00000179E+01
  0
ARC
  8
0
 62
7
 10
1.95000072E+02
 20
-2.96634689E+02
 40
1.00000000E+00
 50
3.59721787E-05
 51
1.03886121E+02
  0
CIRCLE
  8
0
 62
2
 10
1.92000072E+02
 20
-2.84499969E+02
 40
5.00000000E+00
  0
CIRCLE
  8
0
 62
2
 10
1.22000011E+02
 20
-2.84499969E+02
 40
5.00000000E+00
  0
CIRCLE
  8
0
 62
7
 10
1.92000072E+02
 20
-2.84499969E+02
 40
4.18000031E+00
  0
CIRCLE
  8
0
 62
7
 10
1.22000011E+02
 20
-2.84499969E+02
 40
4.18000031E+00
  0
TEXT
  8
0
 62
7
 10
3.66906674E+02
 20
-4.15267527E+01
 40
9.00000000E+00
  1
925
 41
1.00000000E+00
  7
MONOTXT
  0
TEXT
  8
0
 62
7
 10
3.21906674E+02
 20
-4.15267527E+01
 40
9.00000000E+00
  1
825
 41
1.00000000E+00
  7
MONOTXT
  0
TEXT
  8
0
 62
7
 10
2.76906674E+02
 20
-4.15267527E+01
 40
9.00000000E+00
  1
725
 41
1.00000000E+00
  7
MONOTXT
  0
TEXT
  8
0
 62
7
 10
2.31906674E+02
 20
-4.15267527E+01
 40
9.00000000E+00
  1
625
 41
1.00000000E+00
  7
MONOTXT
  0
TEXT
  8
0
 62
7
 10
1.86906674E+02
 20
-4.15267527E+01
 40
9.00000000E+00
  1
525
 41
1.00000000E+00
  7
MONOTXT
  0
TEXT
  8
0
 62
7
 10
1.41906674E+02
 20
-4.15267527E+01
 40
9.00000000E+00
  1
425
 41
1.00000000E+00
  7
MONOTXT
  0
TEXT
  8
0
 62
7
 10
9.69066739E+01
 20
-4.15267527E+01
 40
9.00000000E+00
  1
375
 41
1.00000000E+00
  7
MONOTXT
  0
TEXT
  8
0
 62
7
 10
5.19066739E+01
 20
-4.15267527E+01
 40
9.00000000E+00
  1
325
 41
1.00000000E+00
  7
MONOTXT
  0
TEXT
  8
0
 62
7
 10
6.90667392E+00
 20
-4.15267527E+01
 40
9.00000000E+00
  1
275
 41
1.00000000E+00
  7
MONOTXT
  0
TEXT
  8
0
 62
7
 10
-3.80933261E+01
 20
-4.15267527E+01
 40
9.00000000E+00
  1
225
 41
1.00000000E+00
  7
MONOTXT
  0
TEXT
  8
0
 62
7
 10
-8.30933261E+01
 20
-4.15267527E+01
 40
9.00000000E+00
  1
175
 41
1.00000000E+00
  7
MONOTXT
  0
TEXT
  8
0
 62
7
 10
-1.28093326E+02
 20
-4.15267527E+01
 40
9.00000000E+00
  1
125
 41
1.00000000E+00
  7
MONOTXT
  0
TEXT
  8
0
 62
7
 10
-1.68593326E+02
 20
-4.15267527E+01
 40
9.00000000E+00
  1
75
 41
1.00000000E+00
  7
MONOTXT
  0
TEXT
  8
0
 62
7
 10
-2.13593326E+02
 20
-4.15267527E+01
 40
9.00000000E+00
  1
25
 41
1.00000000E+00
  7
MONOTXT
  0
TEXT
  8
0
 62
7
 10
-2.54093326E+02
 20
-4.15267527E+01
 40
9.00000000E+00
  1
0
 41
1.00000000E+00
  7
MONOTXT
  0
TEXT
  8
0
 62
7
 10
-3.08093326E+02
 20
-4.15267527E+01
 40
9.00000000E+00
  1
-25
 41
1.00000000E+00
  7
MONOTXT
  0
TEXT
  8
0
 62
7
 10
3.62406674E+02
 20
-2.65267527E+01
 40
9.00000000E+00
  1
1000
 41
1.00000000E+00
  7
MONOTXT
  0
TEXT
  8
0
 62
7
 10
3.21906674E+02
 20
-2.65267527E+01
 40
9.00000000E+00
  1
900
 41
1.00000000E+00
  7
MONOTXT
  0
TEXT
  8
0
 62
7
 10
2.76906674E+02
 20
-2.65267527E+01
 40
9.00000000E+00
  1
800
 41
1.00000000E+00
  7
MONOTXT
  0
TEXT
  8
0
 62
7
 10
2.31906674E+02
 20
-2.65267527E+01
 40
9.00000000E+00
  1
700
 41
1.00000000E+00
  7
MONOTXT
  0
TEXT
  8
0
 62
7
 10
1.86906674E+02
 20
-2.65267527E+01
 40
9.00000000E+00
  1
600
 41
1.00000000E+00
  7
MONOTXT
  0
TEXT
  8
0
 62
7
 10
1.41906674E+02
 20
-2.65267527E+01
 40
9.00000000E+00
  1
500
 41
1.00000000E+00
  7
MONOTXT
  0
TEXT
  8
0
 62
7
 10
9.69066739E+01
 20
-2.65267527E+01
 40
9.00000000E+00
  1
450
 41
1.00000000E+00
  7
MONOTXT
  0
TEXT
  8
0
 62
7
 10
5.19066739E+01
 20
-2.65267527E+01
 40
9.00000000E+00
  1
400
 41
1.00000000E+00
  7
MONOTXT
  0
TEXT
  8
0
 62
7
 10
6.90667392E+00
 20
-2.65267527E+01
 40
9.00000000E+00
  1
350
 41
1.00000000E+00
  7
MONOTXT
  0
TEXT
  8
0
 62
7
 10
-3.80933261E+01
 20
-2.65267527E+01
 40
9.00000000E+00
  1
300
 41
1.00000000E+00
  7
MONOTXT
  0
TEXT
  8
0
 62
7
 10
-8.30933261E+01
 20
-2.65267527E+01
 40
9.00000000E+00
  1
250
 41
1.00000000E+00
  7
MONOTXT
  0
TEXT
  8
0
 62
7
 10
-1.28093326E+02
 20
-2.65267527E+01
 40
9.00000000E+00
  1
200
 41
1.00000000E+00
  7
MONOTXT
  0
TEXT
  8
0
 62
7
 10
-1.73093326E+02
 20
-2.65267527E+01
 40
9.00000000E+00
  1
150
 41
1.00000000E+00
  7
MONOTXT
  0
TEXT
  8
0
 62
7
 10
-2.18093326E+02
 20
-2.65267527E+01
 40
9.00000000E+00
  1
100
 41
1.00000000E+00
  7
MONOTXT
  0
TEXT
  8
0
 62
7
 10
-2.58593326E+02
 20
-2.65267527E+01
 40
9.00000000E+00
  1
75
 41
1.00000000E+00
  7
MONOTXT
  0
TEXT
  8
0
 62
7
 10
-3.03593326E+02
 20
-2.65267527E+01
 40
9.00000000E+00
  1
50
 41
1.00000000E+00
  7
MONOTXT
  0
LINE
  8
0
 62
7
 10
4.01922299E+02
 20
-4.45267527E+01
 11
4.01922299E+02
 21
-1.45267527E+01
  0
LINE
  8
0
 62
7
 10
3.56922299E+02
 20
-4.45267527E+01
 11
3.56922299E+02
 21
-1.45267527E+01
  0
LINE
  8
0
 62
7
 10
3.11922299E+02
 20
-4.45267527E+01
 11
3.11922299E+02
 21
-1.45267527E+01
  0
LINE
  8
0
 62
7
 10
2.66922299E+02
 20
-4.45267527E+01
 11
2.66922299E+02
 21
-1.45267527E+01
  0
LINE
  8
0
 62
7
 10
2.21922299E+02
 20
-4.45267527E+01
 11
2.21922299E+02
 21
-1.45267527E+01
  0
LINE
  8
0
 62
7
 10
1.76922299E+02
 20
-4.45267527E+01
 11
1.76922299E+02
 21
-1.45267527E+01
  0
LINE
  8
0
 62
7
 10
1.31922299E+02
 20
-4.45267527E+01
 11
1.31922299E+02
 21
-1.45267527E+01
  0
LINE
  8
0
 62
7
 10
8.69222989E+01
 20
-4.45267527E+01
 11
8.69222989E+01
 21
-1.45267527E+01
  0
LINE
  8
0
 62
7
 10
4.19222989E+01
 20
-4.45267527E+01
 11
4.19222989E+01
 21
-1.45267527E+01
  0
LINE
  8
0
 62
7
 10
-3.07770108E+00
 20
-4.45267527E+01
 11
-3.07770108E+00
 21
-1.45267527E+01
  0
LINE
  8
0
 62
7
 10
-4.80777011E+01
 20
-4.45267527E+01
 11
-4.80777011E+01
 21
-1.45267527E+01
  0
LINE
  8
0
 62
7
 10
-9.30777011E+01
 20
-4.45267527E+01
 11
-9.30777011E+01
 21
-1.45267527E+01
  0
LINE
  8
0
 62
7
 10
-1.38077701E+02
 20
-4.45267527E+01
 11
-1.38077701E+02
 21
-1.45267527E+01
  0
LINE
  8
0
 62
7
 10
-1.83077701E+02
 20
-4.45267527E+01
 11
-1.83077701E+02
 21
-1.45267527E+01
  0
LINE
  8
0
 62
7
 10
-2.28077701E+02
 20
-4.45267527E+01
 11
-2.28077701E+02
 21
-1.45267527E+01
  0
LINE
  8
0
 62
7
 10
-2.73077701E+02
 20
-4.45267527E+01
 11
-2.73077701E+02
 21
-1.45267527E+01
  0
LINE
  8
0
 62
7
 10
-3.18077701E+02
 20
-4.45267527E+01
 11
-3.18077701E+02
 21
-1.45267527E+01
  0
LINE
  8
0
 62
7
 10
-3.90077701E+02
 20
-2.95267527E+01
 11
4.01922299E+02
 21
-2.95267527E+01
  0
TEXT
  8
0
 62
7
 10
-3.84292388E+02
 20
-4.15267527E+01
 40
9.00000000E+00
  1
STRETCH
 41
1.00000000E+00
  7
MONOTXT
  0
TEXT
  8
0
 62
7
 10
-3.79792388E+02
 20
-2.65267527E+01
 40
9.00000000E+00
  1
STROKE
 41
1.00000000E+00
  7
MONOTXT
  0
LINE
  8
0
 62
7
 10
-3.90077701E+02
 20
-4.45267527E+01
 11
-3.90077701E+02
 21
-1.45267527E+01
  0
LINE
  8
0
 62
7
 10
-3.90077701E+02
 20
-4.45267527E+01
 11
4.01922299E+02
 21
-4.45267527E+01
  0
LINE
  8
0
 62
7
 10
-3.90077701E+02
 20
-1.45267527E+01
 11
4.01922299E+02
 21
-1.45267527E+01
  0
TEXT
  8
0
 62
7
 10
3.58906674E+02
 20
-9.02675269E+00
 40
9.00000000E+00
  1
(mm)
 41
1.00000000E+00
  7
MONOTXT
  0
TEXT
  8
0
 62
7
 10
-4.70933261E+01
 20
-9.02675269E+00
 40
9.00000000E+00
  1
STRETCH LIST
 41
1.05263158E+00
  7
MONOTXT
  0
ARC
  8
0
 62
7
 10
-1.13000004E+02
 20
-1.67500000E+02
 40
2.00000000E+00
 50
1.80000000E+02
 51
2.70000000E+02
  0
LINE
  8
0
 62
7
 10
-1.13000004E+02
 20
-1.69500000E+02
 11
-8.29999580E+01
 21
-1.69500000E+02
  0
ARC
  8
0
 62
7
 10
-1.13000004E+02
 20
-1.11500000E+02
 40
2.00000000E+00
 50
9.00000002E+01
 51
1.80000000E+02
  0
LINE
  8
0
 62
7
 10
-1.15000004E+02
 20
-1.67500000E+02
 11
-1.15000004E+02
 21
-1.11500000E+02
  0
LINE
  8
0
 62
7
 10
-1.13000004E+02
 20
-1.09500000E+02
 11
-9.09999580E+01
 21
-1.09500000E+02
  0
LINE
  8
0
 62
7
 10
-1.76560709E+01
 20
-2.89000000E+02
 11
-8.30000191E+01
 21
-2.89000000E+02
  0
LINE
  8
0
 62
7
 10
-1.24599097E+01
 20
-2.79999985E+02
 11
-8.30000191E+01
 21
-2.79999985E+02
  0
LINE
  8
0
 62
7
 10
-1.01505174E+01
 20
-2.76000000E+02
 11
-8.30000191E+01
 21
-2.76000000E+02
  0
LINE
  8
0
 62
7
 10
-5.80705528E+01
 20
-1.79000015E+02
 11
-8.29999580E+01
 21
-1.79000015E+02
  0
LINE
  8
0
 62
7
 10
-6.03799627E+01
 20
-1.83000031E+02
 11
-8.29999580E+01
 21
-1.83000031E+02
  0
LINE
  8
0
 62
7
 10
-5.28744004E+01
 20
-1.70000015E+02
 11
-8.29999580E+01
 21
-1.70000015E+02
  0
LINE
  8
0
 62
7
 10
-7.14999580E+01
 20
-9.59999695E+01
 11
-8.29999580E+01
 21
-9.59999695E+01
  0
LINE
  8
0
 62
7
 10
-7.14999580E+01
 20
-1.00000000E+02
 11
-8.29999580E+01
 21
-1.00000000E+02
  0
LINE
  8
0
 62
2
 10
-1.69000019E+02
 20
-3.09319992E+02
 11
-1.57000019E+02
 21
-3.09319992E+02
  0
LINE
  8
0
 62
7
 10
-1.69000019E+02
 20
-3.08499977E+02
 11
-1.57000019E+02
 21
-3.08499977E+02
  0
LINE
  8
0
 62
2
 10
-1.68999989E+02
 20
-1.49679977E+02
 11
-1.56999973E+02
 21
-1.49679977E+02
  0
LINE
  8
0
 62
7
 10
-1.68999989E+02
 20
-1.50500000E+02
 11
-1.56999973E+02
 21
-1.50500000E+02
  0
LINE
  8
0
 62
2
 10
-1.68999989E+02
 20
-1.29319977E+02
 11
-1.56999973E+02
 21
-1.29319977E+02
  0
LINE
  8
0
 62
7
 10
-1.68999989E+02
 20
-1.28499969E+02
 11
-1.56999973E+02
 21
-1.28499969E+02
  0
LINE
  8
0
 62
4
 10
-1.81999989E+02
 20
-1.55500000E+02
 11
-1.68999989E+02
 21
-1.55500000E+02
  0
LINE
  8
0
 62
4
 10
-1.81999989E+02
 20
-1.23500000E+02
 11
-1.68999989E+02
 21
-1.23500000E+02
  0
LINE
  8
0
 62
4
 10
-1.81999989E+02
 20
-1.23500000E+02
 11
-1.81999989E+02
 21
-1.55500000E+02
  0
LINE
  8
0
 62
4
 10
-1.68999989E+02
 20
-1.23500000E+02
 11
-1.68999989E+02
 21
-1.55500000E+02
  0
ARC
  8
0
 62
4
 10
-1.58893202E+02
 20
-1.31500000E+02
 40
2.31067870E+01
 50
1.59743797E+02
 51
2.00256203E+02
  0
ARC
  8
0
 62
4
 10
-1.58893202E+02
 20
-1.47500000E+02
 40
2.31067870E+01
 50
1.59743797E+02
 51
2.00256203E+02
  0
ARC
  8
0
 62
4
 10
-1.92106776E+02
 20
-1.31500000E+02
 40
2.31067870E+01
 50
3.39743797E+02
 51
2.02562028E+01
  0
ARC
  8
0
 62
4
 10
-1.92106776E+02
 20
-1.47500000E+02
 40
2.31067870E+01
 50
3.39743797E+02
 51
2.02562028E+01
  0
LINE
  8
0
 62
4
 10
-1.80570923E+02
 20
-1.39500000E+02
 11
-1.70429054E+02
 21
-1.39500000E+02
  0
LINE
  8
0
 62
4
 10
-1.80570957E+02
 20
-3.01024776E+02
 11
-1.70429081E+02
 21
-3.01024776E+02
  0
LINE
  8
0
 62
4
 10
-1.82000019E+02
 20
-3.03499996E+02
 11
-1.82000019E+02
 21
-3.19500000E+02
  0
LINE
  8
0
 62
4
 10
-1.69000019E+02
 20
-3.03499996E+02
 11
-1.69000019E+02
 21
-3.19500000E+02
  0
LINE
  8
0
 62
4
 10
-1.82000036E+02
 20
-3.03499997E+02
 11
-1.80570952E+02
 21
-3.01024780E+02
  0
LINE
  8
0
 62
4
 10
-1.70429099E+02
 20
-3.01024824E+02
 11
-1.69000026E+02
 21
-3.03500012E+02
  0
LINE
  8
0
 62
4
 10
-1.80570957E+02
 20
-3.10500000E+02
 11
-1.70429081E+02
 21
-3.10500000E+02
  0
ARC
  8
0
 62
4
 10
-1.98054814E+02
 20
-3.19500000E+02
 40
2.90548000E+01
 50
0.00000000E+00
 51
1.80446768E+01
  0
ARC
  8
0
 62
4
 10
-1.77562622E+02
 20
-3.05762390E+02
 40
8.56342793E+00
 50
3.26410605E+02
 51
3.35892584E+01
  0
ARC
  8
0
 62
4
 10
-1.52945219E+02
 20
-3.19500000E+02
 40
2.90548000E+01
 50
1.61955287E+02
 51
1.80000000E+02
  0
ARC
  8
0
 62
4
 10
-1.73437416E+02
 20
-3.05762390E+02
 40
8.56342793E+00
 50
1.46410665E+02
 51
2.13589318E+02
  0
LINE
  8
0
 62
4
 10
-3.75000053E+02
 20
-3.10262419E+02
 11
-3.58999991E+02
 21
-3.01024777E+02
  0
LINE
  8
0
 62
4
 10
-3.58999958E+02
 20
-3.01024778E+02
 11
-3.42999985E+02
 21
-3.10262359E+02
  0
LINE
  8
0
 62
4
 10
-3.75000019E+02
 20
-3.10262390E+02
 11
-3.75000019E+02
 21
-3.19500000E+02
  0
LINE
  8
0
 62
4
 10
-3.43000019E+02
 20
-3.10262390E+02
 11
-3.43000019E+02
 21
-3.19500000E+02
  0
ARC
  8
0
 62
4
 10
-3.59000019E+02
 20
-3.19500000E+02
 40
1.60000000E+01
 50
0.00000000E+00
 51
1.80000000E+02
  0
CIRCLE
  8
0
 62
7
 10
-9.89999580E+01
 20
-1.28499969E+02
 40
1.10000000E+01
  0
CIRCLE
  8
0
 62
2
 10
-9.89999886E+01
 20
-1.28499969E+02
 40
1.04775009E+01
  0
CIRCLE
  8
0
 62
7
 10
-9.89999580E+01
 20
-1.28499908E+02
 40
9.25000000E+00
  0
ARC
  8
0
 62
7
 10
-3.59000019E+02
 20
-3.19500000E+02
 40
9.50002670E+00
 50
0.00000000E+00
 51
1.80000000E+02
  0
ARC
  8
0
 62
2
 10
-3.59000019E+02
 20
-3.19500000E+02
 40
1.01800117E+01
 50
0.00000000E+00
 51
1.80000000E+02
  0
ARC
  8
0
 62
7
 10
-3.59000019E+02
 20
-3.19500000E+02
 40
1.10000267E+01
 50
0.00000000E+00
 51
1.80000000E+02
  0
ARC
  8
0
 62
7
 10
-1.54500050E+02
 20
-3.19500015E+02
 40
1.25000010E+01
 50
6.99411317E-05
 51
3.28596884E+01
  0
CIRCLE
  8
0
 62
7
 10
-3.24000050E+02
 20
-2.84499969E+02
 40
4.18000031E+00
  0
CIRCLE
  8
0
 62
7
 10
-3.94000111E+02
 20
-2.84499969E+02
 40
4.18000031E+00
  0
CIRCLE
  8
0
 62
2
 10
-3.24000050E+02
 20
-2.84499969E+02
 40
5.00000000E+00
  0
CIRCLE
  8
0
 62
2
 10
-3.94000111E+02
 20
-2.84499969E+02
 40
5.00000000E+00
  0
ARC
  8
0
 62
7
 10
-3.97000111E+02
 20
-2.96634689E+02
 40
1.00000000E+00
 50
7.61138799E+01
 51
1.79999964E+02
  0
ARC
  8
0
 62
7
 10
-3.81865406E+02
 20
-2.81499924E+02
 40
1.00000000E+00
 50
8.99999818E+01
 51
1.93887774E+02
  0
ARC
  8
0
 62
7
 10
-3.36134724E+02
 20
-2.81500015E+02
 40
1.00000000E+00
 50
3.46114300E+02
 51
8.99999818E+01
  0
ARC
  8
0
 62
7
 10
-3.21000019E+02
 20
-2.96634644E+02
 40
1.00000000E+00
 50
0.00000000E+00
 51
1.03886139E+02
  0
ARC
  8
0
 62
7
 10
-3.59000050E+02
 20
-3.19499992E+02
 40
2.10111084E+01
 50
0.00000000E+00
 51
1.80000021E+02
  0
ARC
  8
0
 62
7
 10
-3.59000050E+02
 20
-3.19499901E+02
 40
1.95000000E+01
 50
0.00000000E+00
 51
1.80000291E+02
  0
ARC
  8
0
 62
7
 10
-3.59000050E+02
 20
-3.19499901E+02
 40
2.20000000E+01
 50
0.00000000E+00
 51
1.80000258E+02
  0
ARC
  8
0
 62
7
 10
-3.56750080E+02
 20
-2.96610245E+02
 40
1.00000000E+00
 50
1.79999964E+02
 51
2.64386104E+02
  0
ARC
  8
0
 62
7
 10
-3.36110371E+02
 20
-3.17249992E+02
 40
1.00000000E+00
 50
1.85613837E+02
 51
2.69999963E+02
  0
ARC
  8
0
 62
7
 10
-3.44405598E+02
 20
-3.01723511E+02
 40
1.00000000E+00
 50
2.30613841E+02
 51
3.14999981E+02
  0
ARC
  8
0
 62
7
 10
-3.41223591E+02
 20
-3.04905525E+02
 40
1.00000000E+00
 50
1.34999959E+02
 51
2.19385485E+02
  0
ARC
  8
0
 62
7
 10
-3.40998981E+02
 20
-2.77100037E+02
 40
1.00000000E+00
 50
1.27477968E+00
 51
8.99999818E+01
  0
ARC
  8
0
 62
7
 10
-3.16600025E+02
 20
-3.01498795E+02
 40
1.00000000E+00
 50
0.00000000E+00
 51
8.87269716E+01
  0
ARC
  8
0
 62
7
 10
-3.36500080E+02
 20
-2.76999924E+02
 40
3.50000024E+00
 50
1.81274508E+02
 51
2.70000018E+02
  0
ARC
  8
0
 62
7
 10
-3.16500050E+02
 20
-2.96999939E+02
 40
3.50000024E+00
 50
1.79999977E+02
 51
2.68726935E+02
  0
CIRCLE
  8
0
 62
7
 10
-3.24000050E+02
 20
-2.84500015E+02
 40
8.00000000E+00
  0
ARC
  8
0
 62
7
 10
-3.16000050E+02
 20
-2.76500000E+02
 40
4.00000000E+00
 50
0.00000000E+00
 51
8.99999818E+01
  0
ARC
  8
0
 62
7
 10
-3.24000050E+02
 20
-2.84500015E+02
 40
1.15000000E+01
 50
1.66113425E+02
 51
2.83886868E+02
  0
ARC
  8
0
 62
7
 10
-3.16000050E+02
 20
-2.76500000E+02
 40
3.40000033E+00
 50
0.00000000E+00
 51
8.99999818E+01
  0
ARC
  8
0
 62
7
 10
-3.16600025E+02
 20
-3.17249992E+02
 40
1.00000000E+00
 50
2.69999963E+02
 51
0.00000000E+00
  0
ARC
  8
0
 62
7
 10
-3.56750080E+02
 20
-2.77100037E+02
 40
1.00000000E+00
 50
8.99999818E+01
 51
1.79999964E+02
  0
ARC
  8
0
 62
7
 10
-3.34285542E+02
 20
-2.91603455E+02
 40
1.00000000E+00
 50
3.14999995E+02
 51
3.46303842E+01
  0
ARC
  8
0
 62
7
 10
-3.31103535E+02
 20
-2.94785461E+02
 40
1.00000000E+00
 50
5.53696252E+01
 51
1.34999959E+02
  0
CIRCLE
  8
0
 62
7
 10
-3.24000050E+02
 20
-2.84500015E+02
 40
8.70000076E+00
  0
ARC
  8
0
 62
7
 10
-3.81889759E+02
 20
-3.17249992E+02
 40
1.00000000E+00
 50
2.69999963E+02
 51
3.54386131E+02
  0
ARC
  8
0
 62
7
 10
-3.61250050E+02
 20
-2.96610291E+02
 40
1.00000000E+00
 50
2.75613832E+02
 51
3.59999959E+02
  0
ARC
  8
0
 62
7
 10
-3.76776539E+02
 20
-3.04905525E+02
 40
1.00000000E+00
 50
3.20613837E+02
 51
4.49999910E+01
  0
ARC
  8
0
 62
7
 10
-3.73594532E+02
 20
-3.01723511E+02
 40
1.00000000E+00
 50
2.24999972E+02
 51
3.09385511E+02
  0
ARC
  8
0
 62
7
 10
-3.77001209E+02
 20
-2.77099945E+02
 40
1.00000000E+00
 50
8.99999818E+01
 51
1.78726994E+02
  0
ARC
  8
0
 62
7
 10
-4.01400043E+02
 20
-3.01498886E+02
 40
1.00000000E+00
 50
9.12747958E+01
 51
1.79999964E+02
  0
ARC
  8
0
 62
7
 10
-4.01500172E+02
 20
-2.97000031E+02
 40
3.50000024E+00
 50
2.71274531E+02
 51
4.98603810E-04
  0
ARC
  8
0
 62
7
 10
-3.81500111E+02
 20
-2.76999969E+02
 40
3.50000024E+00
 50
2.70000018E+02
 51
3.58726969E+02
  0
CIRCLE
  8
0
 62
7
 10
-3.94000111E+02
 20
-2.84500015E+02
 40
8.00000000E+00
  0
ARC
  8
0
 62
7
 10
-4.02000080E+02
 20
-2.76500000E+02
 40
4.00000000E+00
 50
9.00000231E+01
 51
1.79999977E+02
  0
ARC
  8
0
 62
7
 10
-4.02000080E+02
 20
-2.76500000E+02
 40
3.40000033E+00
 50
9.00000231E+01
 51
1.79999977E+02
  0
ARC
  8
0
 62
7
 10
-4.01400043E+02
 20
-3.17249992E+02
 40
1.00000000E+00
 50
1.79999964E+02
 51
2.69999946E+02
  0
ARC
  8
0
 62
7
 10
-3.94000111E+02
 20
-2.84500015E+02
 40
1.15000000E+01
 50
2.56113424E+02
 51
1.38868674E+01
  0
ARC
  8
0
 62
7
 10
-3.61250050E+02
 20
-2.77099991E+02
 40
1.00000000E+00
 50
3.59999959E+02
 51
8.99999956E+01
  0
ARC
  8
0
 62
7
 10
-3.86896595E+02
 20
-2.94785461E+02
 40
1.00000000E+00
 50
4.49999910E+01
 51
1.24630380E+02
  0
ARC
  8
0
 62
7
 10
-3.83714588E+02
 20
-2.91603455E+02
 40
1.00000000E+00
 50
1.45369634E+02
 51
2.24999955E+02
  0
CIRCLE
  8
0
 62
7
 10
-3.94000111E+02
 20
-2.84500015E+02
 40
8.70000076E+00
  0
ARC
  8
0
 62
7
 10
-1.34499928E+02
 20
-1.60028229E+02
 40
5.00000000E-01
 50
1.79999977E+02
 51
2.67999192E+02
  0
ARC
  8
0
 62
7
 10
-1.39499912E+02
 20
-1.58499939E+02
 40
5.00000000E-01
 50
1.79999977E+02
 51
2.69999974E+02
  0
ARC
  8
0
 62
7
 10
-1.39499912E+02
 20
-1.20499969E+02
 40
5.00000000E-01
 50
8.99999818E+01
 51
1.79999951E+02
  0
ARC
  8
0
 62
7
 10
-1.34500004E+02
 20
-2.98971756E+02
 40
5.00000000E-01
 50
9.20007356E+01
 51
1.79999964E+02
  0
ARC
  8
0
 62
7
 10
-1.39500050E+02
 20
-3.00500015E+02
 40
5.00000000E-01
 50
8.99999818E+01
 51
1.79999964E+02
  0
ARC
  8
0
 62
7
 10
-4.06122578E+02
 20
-3.06765373E+02
 40
2.50000000E+00
 50
1.87691403E+02
 51
2.69999963E+02
  0
CIRCLE
  8
0
 62
7
 10
-8.99999886E+01
 20
-1.55499985E+02
 40
2.59999990E+00
  0
ARC
  8
0
 62
7
 10
-8.99999886E+01
 20
-1.55499985E+02
 40
5.00000000E+00
 50
1.79999964E+02
 51
1.00179127E-05
  0
ARC
  8
0
 62
7
 10
-8.99999886E+01
 20
-1.55499985E+02
 40
5.00000000E+00
 50
0.00000000E+00
 51
1.79999964E+02
  0
ARC
  8
0
 62
7
 10
-1.20499958E+02
 20
-1.18000000E+02
 40
5.00000000E-01
 50
8.99999274E+01
 51
1.79999909E+02
  0
ARC
  8
0
 62
7
 10
-1.20500019E+02
 20
-2.97999939E+02
 40
5.00000000E-01
 50
9.00000094E+01
 51
1.79999964E+02
  0
ARC
  8
0
 62
7
 10
-1.20499958E+02
 20
-1.60999985E+02
 40
5.00000000E-01
 50
1.79999909E+02
 51
2.69999891E+02
  0
ARC
  8
0
 62
7
 10
-1.18499958E+02
 20
-2.73619705E+02
 40
5.00000000E-01
 50
9.10002905E+01
 51
1.79999977E+02
  0
ARC
  8
0
 62
7
 10
-1.18499989E+02
 20
-1.85380280E+02
 40
5.00000000E-01
 50
1.79999909E+02
 51
2.68999624E+02
  0
ARC
  8
0
 62
7
 10
-1.18499989E+02
 20
-9.36196899E+01
 40
5.00000000E-01
 50
9.10002017E+01
 51
1.79999909E+02
  0
ARC
  8
0
 62
7
 10
-1.34499928E+02
 20
-1.18971680E+02
 40
5.00000000E-01
 50
9.20007356E+01
 51
1.79999951E+02
  0
ARC
  8
0
 62
7
 10
-4.06122578E+02
 20
-3.04234489E+02
 40
2.50000000E+00
 50
9.63728081E+01
 51
1.87691385E+02
  0
LINE
  8
0
  6
CENTER
 62
2
 10
-9.90000496E+01
 20
-2.85199936E+02
 11
-9.90000496E+01
 21
-2.70047333E+02
  0
LINE
  8
0
  6
CENTER
 62
2
 10
-8.52976570E+01
 20
-1.28500000E+02
 11
-1.13094913E+02
 21
-1.28500000E+02
  0
LINE
  8
0
  6
CENTER
 62
2
 10
-9.89999886E+01
 20
-1.42605804E+02
 11
-9.89999886E+01
 21
-1.14676697E+02
  0
LINE
  8
0
 62
7
 10
-1.56999973E+02
 20
-1.49679977E+02
 11
-1.53999973E+02
 21
-1.49679977E+02
  0
LINE
  8
0
 62
7
 10
-1.56999973E+02
 20
-1.29319977E+02
 11
-1.53999973E+02
 21
-1.29319977E+02
  0
LINE
  8
0
 62
7
 10
-1.44000099E+02
 20
-1.28999899E+02
 11
-1.42000140E+02
 21
-1.26999940E+02
  0
LINE
  8
0
 62
7
 10
-1.44000035E+02
 20
-1.50000007E+02
 11
-1.41999990E+02
 21
-1.52000052E+02
  0
LINE
  8
0
 62
7
 10
-1.53999989E+02
 20
-1.50000000E+02
 11
-1.44000034E+02
 21
-1.50000000E+02
  0
LINE
  8
0
 62
7
 10
-1.53999989E+02
 20
-1.29000000E+02
 11
-1.44000141E+02
 21
-1.29000000E+02
  0
LINE
  8
0
 62
2
 10
-1.93320011E+02
 20
-1.49679977E+02
 11
-1.81999989E+02
 21
-1.49679977E+02
  0
LINE
  8
0
 62
7
 10
-1.93999972E+02
 20
-1.48999931E+02
 11
-1.92499981E+02
 21
-1.50499922E+02
  0
LINE
  8
0
 62
7
 10
-1.92500034E+02
 20
-1.50500000E+02
 11
-1.81999989E+02
 21
-1.50500000E+02
  0
LINE
  8
0
 62
2
 10
-1.93320011E+02
 20
-1.29319977E+02
 11
-1.81999989E+02
 21
-1.29319977E+02
  0
LINE
  8
0
 62
7
 10
-1.93999961E+02
 20
-1.30000094E+02
 11
-1.92499927E+02
 21
-1.28500060E+02
  0
LINE
  8
0
 62
7
 10
-1.92500004E+02
 20
-1.50500000E+02
 11
-1.92500004E+02
 21
-1.28499969E+02
  0
LINE
  8
0
 62
7
 10
-1.92500034E+02
 20
-1.28499969E+02
 11
-1.81999989E+02
 21
-1.28499969E+02
  0
LINE
  8
0
 62
7
 10
-1.56999973E+02
 20
-1.50500000E+02
 11
-1.56999973E+02
 21
-1.28499969E+02
  0
LINE
  8
0
 62
7
 10
-1.94000004E+02
 20
-1.48999878E+02
 11
-1.94000004E+02
 21
-1.30000061E+02
  0
LINE
  8
0
 62
7
 10
-1.53999973E+02
 20
-1.50000031E+02
 11
-1.53999973E+02
 21
-1.29000000E+02
  0
LINE
  8
0
 62
7
 10
-1.50999973E+02
 20
-1.29000000E+02
 11
-1.50999973E+02
 21
-1.50000000E+02
  0
LINE
  8
0
 62
7
 10
-1.41999989E+02
 20
-1.52000046E+02
 11
-1.40000004E+02
 21
-1.52000046E+02
  0
LINE
  8
0
 62
7
 10
-1.42000126E+02
 20
-1.27000000E+02
 11
-1.39999973E+02
 21
-1.27000000E+02
  0
LINE
  8
0
 62
7
 10
-1.57000019E+02
 20
-3.09319992E+02
 11
-1.54000019E+02
 21
-3.09319992E+02
  0
LINE
  8
0
 62
2
 10
-1.49000026E+02
 20
-3.19500000E+02
 11
-1.52660578E+02
 21
-3.14534603E+02
  0
LINE
  8
0
 62
2
 10
-1.44000043E+02
 20
-3.12717712E+02
 11
-1.49000030E+02
 21
-3.19500000E+02
  0
LINE
  8
0
 62
7
 10
-1.54000038E+02
 20
-3.08499975E+02
 11
-1.51000026E+02
 21
-3.06999946E+02
  0
LINE
  8
0
 62
7
 10
-1.54000012E+02
 20
-3.16000136E+02
 11
-1.51000017E+02
 21
-3.12717724E+02
  0
LINE
  8
0
 62
7
 10
-1.51000019E+02
 20
-3.12717720E+02
 11
-1.44000034E+02
 21
-3.12717720E+02
  0
LINE
  8
0
 62
7
 10
-1.44000034E+02
 20
-3.19500000E+02
 11
-1.44000034E+02
 21
-3.12717720E+02
  0
LINE
  8
0
 62
7
 10
-1.51000065E+02
 20
-3.06999954E+02
 11
-1.40000050E+02
 21
-3.06999954E+02
  0
LINE
  8
0
 62
2
 10
-1.93320072E+02
 20
-3.09319992E+02
 11
-1.82000019E+02
 21
-3.09319992E+02
  0
LINE
  8
0
 62
7
 10
-1.92500065E+02
 20
-3.08499977E+02
 11
-1.82000019E+02
 21
-3.08499977E+02
  0
LINE
  8
0
 62
7
 10
-1.94000080E+02
 20
-3.10000029E+02
 11
-1.92500062E+02
 21
-3.08500011E+02
  0
LINE
  8
0
 62
7
 10
-1.92500004E+02
 20
-3.08499977E+02
 11
-1.92500004E+02
 21
-3.19500000E+02
  0
LINE
  8
0
 62
7
 10
-1.57000019E+02
 20
-3.08499977E+02
 11
-1.57000019E+02
 21
-3.19500000E+02
  0
LINE
  8
0
 62
7
 10
-1.94000004E+02
 20
-3.09999954E+02
 11
-1.94000004E+02
 21
-3.19500000E+02
  0
LINE
  8
0
 62
7
 10
-1.54000019E+02
 20
-3.19500000E+02
 11
-1.54000019E+02
 21
-3.08499977E+02
  0
LINE
  8
0
 62
7
 10
-1.51000019E+02
 20
-3.12717720E+02
 11
-1.51000019E+02
 21
-3.07000000E+02
  0
LINE
  8
0
  6
CENTER
 62
2
 10
-4.08555592E+02
 20
-2.84499924E+02
 11
-3.79309071E+02
 21
-2.84499924E+02
  0
LINE
  8
0
  6
CENTER
 62
2
 10
-3.24000019E+02
 20
-2.70127335E+02
 11
-3.24000019E+02
 21
-2.99864212E+02
  0
LINE
  8
0
 62
7
 10
-3.12000019E+02
 20
-3.19500000E+02
 11
-3.12000019E+02
 21
-2.76500046E+02
  0
LINE
  8
0
 62
7
 10
-3.15600056E+02
 20
-3.19500000E+02
 11
-3.15600056E+02
 21
-3.01498795E+02
  0
LINE
  8
0
 62
7
 10
-3.12600056E+02
 20
-3.19500000E+02
 11
-3.12600056E+02
 21
-2.76500046E+02
  0
LINE
  8
0
 62
7
 10
-3.16600025E+02
 20
-3.18249985E+02
 11
-3.36110371E+02
 21
-3.18249985E+02
  0
LINE
  8
0
 62
7
 10
-4.01400013E+02
 20
-3.18249939E+02
 11
-3.81889790E+02
 21
-3.18249939E+02
  0
LINE
  8
0
 62
7
 10
-3.60250019E+02
 20
-2.77099991E+02
 11
-3.60250019E+02
 21
-2.96610336E+02
  0
LINE
  8
0
 62
7
 10
-4.06000019E+02
 20
-3.19500000E+02
 11
-4.06000019E+02
 21
-2.76500000E+02
  0
LINE
  8
0
  6
CENTER
 62
2
 10
-3.94000019E+02
 20
-2.70314651E+02
 11
-3.94000019E+02
 21
-2.99038361E+02
  0
LINE
  8
0
 62
7
 10
-4.02000050E+02
 20
-2.72499924E+02
 11
-3.16000080E+02
 21
-2.72499969E+02
  0
LINE
  8
0
 62
7
 10
-3.76069627E+02
 20
-3.04198482E+02
 11
-3.86189705E+02
 21
-2.94078405E+02
  0
LINE
  8
0
 62
7
 10
-3.74301677E+02
 20
-3.02430661E+02
 11
-3.84421712E+02
 21
-2.92310627E+02
  0
LINE
  8
0
 62
7
 10
-4.02400043E+02
 20
-3.19500000E+02
 11
-4.02400043E+02
 21
-3.01498886E+02
  0
LINE
  8
0
 62
7
 10
-4.05400043E+02
 20
-3.19500000E+02
 11
-4.05400043E+02
 21
-2.76500000E+02
  0
LINE
  8
0
 62
7
 10
-4.02000050E+02
 20
-2.73099915E+02
 11
-3.16000080E+02
 21
-2.73099960E+02
  0
LINE
  8
0
  6
CENTER
 62
2
 10
-3.07169361E+02
 20
-3.19500000E+02
 11
-4.10946125E+02
 21
-3.19500000E+02
  0
LINE
  8
0
  6
CENTER
 62
2
 10
-3.59000019E+02
 20
-2.67965271E+02
 11
-3.59000019E+02
 21
-3.19500000E+02
  0
LINE
  8
0
 62
7
 10
-4.06400074E+02
 20
-3.01749924E+02
 11
-4.06000111E+02
 21
-3.01749924E+02
  0
LINE
  8
0
 62
7
 10
-4.06400074E+02
 20
-3.09249931E+02
 11
-4.06000111E+02
 21
-3.09249931E+02
  0
LINE
  8
0
 62
7
 10
-4.08600025E+02
 20
-3.07100044E+02
 11
-4.08600025E+02
 21
-3.03900002E+02
  0
LINE
  8
0
  6
CENTER
 62
2
 10
-4.09464161E+02
 20
-3.05499931E+02
 11
-4.06000111E+02
 21
-3.05499931E+02
  0
LINE
  8
0
 62
7
 10
-1.34517643E+02
 20
-2.98472046E+02
 11
-1.21000156E+02
 21
-2.98000005E+02
  0
LINE
  8
0
 62
7
 10
-3.19999928E+02
 20
-2.96634689E+02
 11
-3.19999928E+02
 21
-2.96999939E+02
  0
LINE
  8
0
 62
7
 10
-3.41930717E+02
 20
-3.04198343E+02
 11
-3.31810659E+02
 21
-2.94078289E+02
  0
LINE
  8
0
 62
7
 10
-3.36134724E+02
 20
-2.80499985E+02
 11
-3.36500111E+02
 21
-2.80499985E+02
  0
LINE
  8
0
 62
7
 10
-3.81865437E+02
 20
-2.80499893E+02
 11
-3.81500141E+02
 21
-2.80499893E+02
  0
LINE
  8
0
 62
7
 10
-3.98000019E+02
 20
-2.96634689E+02
 11
-3.98000019E+02
 21
-2.97000031E+02
  0
LINE
  8
0
 62
7
 10
-3.89000019E+02
 20
-2.72500015E+02
 11
-3.89000019E+02
 21
-2.73099960E+02
  0
LINE
  8
0
 62
7
 10
-3.29000019E+02
 20
-2.72500015E+02
 11
-3.29000019E+02
 21
-2.73100052E+02
  0
LINE
  8
0
 62
7
 10
-3.40999012E+02
 20
-2.76099960E+02
 11
-3.77001209E+02
 21
-2.76099960E+02
  0
LINE
  8
0
  6
CENTER
 62
2
 10
-3.43000050E+02
 20
-2.69923035E+02
 11
-3.43000050E+02
 21
-3.10128151E+02
  0
LINE
  8
0
 62
7
 10
-1.39500050E+02
 20
-3.00000000E+02
 11
-1.35000050E+02
 21
-3.00000000E+02
  0
LINE
  8
0
 62
7
 10
-1.35000050E+02
 20
-3.19500000E+02
 11
-1.35000050E+02
 21
-2.98971756E+02
  0
LINE
  8
0
 62
7
 10
-1.40000019E+02
 20
-3.19500000E+02
 11
-1.40000019E+02
 21
-3.00500015E+02
  0
LINE
  8
0
 62
7
 10
-1.34517502E+02
 20
-1.18471824E+02
 11
-1.21000015E+02
 21
-1.17999783E+02
  0
LINE
  8
0
  6
CENTER
 62
2
 10
-5.54724766E+01
 20
-1.74500015E+02
 11
-1.21524494E+02
 21
-1.74500015E+02
  0
LINE
  8
0
 62
7
 10
-9.17322555E+01
 20
-1.55500020E+02
 11
-9.08662011E+01
 21
-1.57000079E+02
  0
LINE
  8
0
 62
7
 10
-9.08659401E+01
 20
-1.57000031E+02
 11
-8.91338539E+01
 21
-1.57000031E+02
  0
LINE
  8
0
 62
7
 10
-8.91339352E+01
 20
-1.57000017E+02
 11
-8.82678579E+01
 21
-1.55499918E+02
  0
LINE
  8
0
 62
7
 10
-8.82681644E+01
 20
-1.55500217E+02
 11
-8.91342035E+01
 21
-1.54000184E+02
  0
LINE
  8
0
 62
7
 10
-9.08659401E+01
 20
-1.53999985E+02
 11
-8.91338539E+01
 21
-1.53999985E+02
  0
LINE
  8
0
 62
7
 10
-9.17320802E+01
 20
-1.55500136E+02
 11
-9.08660181E+01
 21
-1.54000064E+02
  0
LINE
  8
0
  6
CENTER
 62
2
 10
-8.18053322E+01
 20
-1.55499985E+02
 11
-9.80743446E+01
 21
-1.55499985E+02
  0
LINE
  8
0
  6
CENTER
 62
2
 10
-8.99999886E+01
 20
-1.47952194E+02
 11
-8.99999886E+01
 21
-1.62565567E+02
  0
LINE
  8
0
  6
CENTER
 62
2
 10
-1.50579490E+01
 20
-1.04500000E+02
 11
-5.64999580E+01
 21
-1.04500000E+02
  0
LINE
  8
0
  6
CENTER
 62
2
 10
-1.24256947E+02
 20
-2.84499985E+02
 11
-1.50579859E+01
 21
-2.84499985E+02
  0
LINE
  8
0
 62
7
 10
-1.20499912E+02
 20
-1.17500000E+02
 11
-1.18999958E+02
 21
-1.17500000E+02
  0
LINE
  8
0
 62
7
 10
-1.20999973E+02
 20
-1.18000000E+02
 11
-1.20999973E+02
 21
-1.60999969E+02
  0
LINE
  8
0
 62
7
 10
-1.21000034E+02
 20
-3.19500000E+02
 11
-1.21000034E+02
 21
-2.97999939E+02
  0
LINE
  8
0
 62
7
 10
-1.20499973E+02
 20
-2.97500000E+02
 11
-1.18999973E+02
 21
-2.97500000E+02
  0
LINE
  8
0
 62
7
 10
-1.20499912E+02
 20
-1.61499985E+02
 11
-1.18999912E+02
 21
-1.61499985E+02
  0
LINE
  8
0
 62
7
 10
-1.19000019E+02
 20
-2.73619705E+02
 11
-1.19000019E+02
 21
-3.19500000E+02
  0
LINE
  8
0
 62
7
 10
-1.18508632E+02
 20
-2.73119685E+02
 11
-8.29998646E+01
 21
-2.72499882E+02
  0
LINE
  8
0
 62
7
 10
-1.15000034E+02
 20
-2.73058548E+02
 11
-1.15000034E+02
 21
-2.72499985E+02
  0
LINE
  8
0
 62
7
 10
-1.18508616E+02
 20
-1.85880174E+02
 11
-8.29999409E+01
 21
-1.86499980E+02
  0
LINE
  8
0
 62
7
 10
-1.14999958E+02
 20
-2.72499985E+02
 11
-8.29999733E+01
 21
-2.72499985E+02
  0
LINE
  8
0
 62
7
 10
-1.18999958E+02
 20
-9.36196899E+01
 11
-1.18999958E+02
 21
-1.85380280E+02
  0
LINE
  8
0
 62
7
 10
-1.18508696E+02
 20
-9.31196456E+01
 11
-8.29999594E+01
 21
-9.24998384E+01
  0
LINE
  8
0
  6
CENTER
 62
2
 10
-1.98158665E+02
 20
-3.19500000E+02
 11
-3.52652541E+01
 21
-3.19500000E+02
  0
LINE
  8
0
  6
CENTER
 62
2
 10
-1.99144260E+02
 20
-1.39500000E+02
 11
-3.52652084E+01
 21
-1.39500000E+02
  0
LINE
  8
0
 62
7
 10
-1.34517448E+02
 20
-1.60527757E+02
 11
-1.21000007E+02
 21
-1.60999797E+02
  0
LINE
  8
0
 62
7
 10
-3.57750019E+02
 20
-2.77100037E+02
 11
-3.57750019E+02
 21
-2.96610245E+02
  0
LINE
  8
0
 62
7
 10
-3.43698592E+02
 20
-3.02430511E+02
 11
-3.33578555E+02
 21
-2.92310478E+02
  0
LINE
  8
0
 62
7
 10
-1.39499912E+02
 20
-1.59000015E+02
 11
-1.34999912E+02
 21
-1.59000015E+02
  0
LINE
  8
0
  6
CENTER
 62
2
 10
-3.70000019E+02
 20
-3.07503517E+02
 11
-3.70000019E+02
 21
-2.69926559E+02
  0
LINE
  8
0
 62
7
 10
-1.34999958E+02
 20
-1.18936707E+02
 11
-1.34999958E+02
 21
-1.60028198E+02
  0
LINE
  8
0
 62
7
 10
-1.39499912E+02
 20
-1.20000031E+02
 11
-1.34999912E+02
 21
-1.20000031E+02
  0
LINE
  8
0
 62
7
 10
-1.39999958E+02
 20
-1.20499939E+02
 11
-1.39999958E+02
 21
-1.58499954E+02
  0
LINE
  8
0
  6
CENTER
 62
2
 10
-3.38222218E+02
 20
-2.84499924E+02
 11
-3.09012318E+02
 21
-2.84499924E+02
  0
LINE
  8
0
 62
7
 10
-8.30000191E+01
 20
-3.19500000E+02
 11
-8.30000191E+01
 21
-2.72500000E+02
  0
LINE
  8
0
 62
7
 10
-1.01504541E+01
 20
-9.59999695E+01
 11
-5.64999580E+01
 21
-9.59999695E+01
  0
LINE
  8
0
 62
7
 10
-1.24598728E+01
 20
-1.00000000E+02
 11
-5.64999580E+01
 21
-1.00000000E+02
  0
LINE
  8
0
 62
7
 10
-1.76560252E+01
 20
-1.09000000E+02
 11
-3.69999580E+01
 21
-1.09000000E+02
  0
LINE
  8
0
 62
7
 10
-8.29999580E+01
 20
-9.25000000E+01
 11
-8.29999580E+01
 21
-1.02216245E+02
  0
LINE
  8
0
 62
7
 10
-8.29999580E+01
 20
-1.14716245E+02
 11
-8.29999580E+01
 21
-1.86499969E+02
  0
LINE
  8
0
  6
CENTER
 62
2
 10
-9.09999580E+01
 20
-1.04500000E+02
 11
-1.21524494E+02
 21
-1.04500000E+02
  0
LINE
  8
0
 62
2
 10
-6.38892226E+01
 20
-1.89078247E+02
 11
-4.53372933E+00
 21
-8.62715169E+01
  0
LINE
  8
0
 62
2
 10
-4.07249879E+01
 20
-3.28956536E+02
 11
-4.53377511E+00
 21
-2.66271517E+02
  0
LINE
  8
0
 62
7
 10
3.10644926E+02
 20
-2.89000000E+02
 11
3.64499950E+02
 21
-2.89000000E+02
  0
LINE
  8
0
 62
7
 10
3.15841087E+02
 20
-2.79999985E+02
 11
3.64499950E+02
 21
-2.79999985E+02
  0
LINE
  8
0
 62
7
 10
3.18150479E+02
 20
-2.76000000E+02
 11
3.44999950E+02
 21
-2.76000000E+02
  0
LINE
  8
0
  6
CENTER
 62
2
 10
4.07000011E+02
 20
-2.85199936E+02
 11
4.07000011E+02
 21
-2.70047333E+02
  0
LINE
  8
0
  6
CENTER
 62
2
 10
4.32256908E+02
 20
-2.84499985E+02
 11
3.79499950E+02
 21
-2.84499985E+02
  0
LINE
  8
0
  6
CENTER
 62
2
 10
5.06158627E+02
 20
-3.19500000E+02
 11
2.93035743E+02
 21
-3.19500000E+02
  0
LINE
  8
0
 62
7
 10
3.90999981E+02
 20
-3.19500000E+02
 11
3.90999981E+02
 21
-2.72500000E+02
  0
LINE
  8
0
 62
7
 10
4.22999920E+02
 20
-2.72499985E+02
 11
3.90999935E+02
 21
-2.72499985E+02
  0
LINE
  8
0
 62
7
 10
4.22999996E+02
 20
-2.73058548E+02
 11
4.22999996E+02
 21
-2.72499985E+02
  0
LINE
  8
0
 62
7
 10
4.26508593E+02
 20
-2.73119685E+02
 11
3.90999826E+02
 21
-2.72499882E+02
  0
LINE
  8
0
 62
7
 10
4.26999981E+02
 20
-2.73619705E+02
 11
4.26999981E+02
 21
-3.19500000E+02
  0
LINE
  8
0
 62
7
 10
4.28499935E+02
 20
-2.97500000E+02
 11
4.26999935E+02
 21
-2.97500000E+02
  0
LINE
  8
0
 62
7
 10
4.28999996E+02
 20
-3.19500000E+02
 11
4.28999996E+02
 21
-2.97999939E+02
  0
LINE
  8
0
 62
7
 10
4.47999981E+02
 20
-3.19500000E+02
 11
4.47999981E+02
 21
-3.00500015E+02
  0
LINE
  8
0
 62
7
 10
4.43000011E+02
 20
-3.19500000E+02
 11
4.43000011E+02
 21
-2.98971756E+02
  0
LINE
  8
0
 62
7
 10
4.47500011E+02
 20
-3.00000000E+02
 11
4.43000011E+02
 21
-3.00000000E+02
  0
LINE
  8
0
 62
7
 10
4.42517605E+02
 20
-2.98472046E+02
 11
4.29000118E+02
 21
-2.98000005E+02
  0
LINE
  8
0
 62
7
 10
4.58999981E+02
 20
-3.12717720E+02
 11
4.58999981E+02
 21
-3.07000000E+02
  0
LINE
  8
0
 62
7
 10
4.61999981E+02
 20
-3.19500000E+02
 11
4.61999981E+02
 21
-3.08499977E+02
  0
LINE
  8
0
 62
7
 10
5.01999966E+02
 20
-3.09999954E+02
 11
5.01999966E+02
 21
-3.19500000E+02
  0
LINE
  8
0
 62
7
 10
4.64999981E+02
 20
-3.08499977E+02
 11
4.64999981E+02
 21
-3.19500000E+02
  0
LINE
  8
0
 62
7
 10
5.00499966E+02
 20
-3.08499977E+02
 11
5.00499966E+02
 21
-3.19500000E+02
  0
LINE
  8
0
 62
7
 10
5.02000041E+02
 20
-3.10000029E+02
 11
5.00500024E+02
 21
-3.08500011E+02
  0
LINE
  8
0
 62
7
 10
5.00500027E+02
 20
-3.08499977E+02
 11
4.89999981E+02
 21
-3.08499977E+02
  0
LINE
  8
0
 62
2
 10
5.01320034E+02
 20
-3.09319992E+02
 11
4.89999981E+02
 21
-3.09319992E+02
  0
LINE
  8
0
 62
7
 10
4.59000027E+02
 20
-3.06999954E+02
 11
4.48000011E+02
 21
-3.06999954E+02
  0
LINE
  8
0
 62
7
 10
4.51999996E+02
 20
-3.19500000E+02
 11
4.51999996E+02
 21
-3.12717720E+02
  0
LINE
  8
0
 62
7
 10
4.58999981E+02
 20
-3.12717720E+02
 11
4.51999996E+02
 21
-3.12717720E+02
  0
LINE
  8
0
 62
7
 10
4.61999974E+02
 20
-3.16000136E+02
 11
4.58999979E+02
 21
-3.12717724E+02
  0
LINE
  8
0
 62
7
 10
4.62000000E+02
 20
-3.08499975E+02
 11
4.58999988E+02
 21
-3.06999946E+02
  0
LINE
  8
0
 62
2
 10
4.52000005E+02
 20
-3.12717712E+02
 11
4.56999992E+02
 21
-3.19500000E+02
  0
LINE
  8
0
 62
2
 10
4.56999988E+02
 20
-3.19500000E+02
 11
4.60660540E+02
 21
-3.14534603E+02
  0
LINE
  8
0
 62
7
 10
4.64999981E+02
 20
-3.09319992E+02
 11
4.61999981E+02
 21
-3.09319992E+02
  0
ARC
  8
0
 62
7
 10
4.26499920E+02
 20
-2.73619705E+02
 40
5.00000000E-01
 50
2.23118003E-05
 51
8.89997093E+01
  0
ARC
  8
0
 62
7
 10
4.28499981E+02
 20
-2.97999939E+02
 40
5.00000000E-01
 50
3.59721787E-05
 51
8.99999904E+01
  0
ARC
  8
0
 62
7
 10
4.47500011E+02
 20
-3.00500015E+02
 40
5.00000000E-01
 50
3.59721787E-05
 51
9.00000179E+01
  0
ARC
  8
0
 62
7
 10
4.42499966E+02
 20
-2.98971756E+02
 40
5.00000000E-01
 50
3.59721787E-05
 51
8.79992642E+01
  0
ARC
  8
0
 62
7
 10
4.62500011E+02
 20
-3.19500015E+02
 40
1.25000010E+01
 50
1.47140312E+02
 51
1.79999930E+02
  0
ARC
  8
0
 62
4
 10
4.81437378E+02
 20
-3.05762390E+02
 40
8.56342793E+00
 50
3.26410682E+02
 51
3.35893354E+01
  0
ARC
  8
0
 62
4
 10
4.60945181E+02
 20
-3.19500000E+02
 40
2.90548000E+01
 50
0.00000000E+00
 51
1.80447127E+01
  0
ARC
  8
0
 62
4
 10
4.85562584E+02
 20
-3.05762390E+02
 40
8.56342793E+00
 50
1.46410742E+02
 51
2.13589395E+02
  0
ARC
  8
0
 62
4
 10
5.06054776E+02
 20
-3.19500000E+02
 40
2.90548000E+01
 50
1.61955323E+02
 51
1.80000000E+02
  0
LINE
  8
0
 62
4
 10
4.88570919E+02
 20
-3.10500000E+02
 11
4.78429043E+02
 21
-3.10500000E+02
  0
LINE
  8
0
 62
4
 10
4.78429061E+02
 20
-3.01024824E+02
 11
4.76999988E+02
 21
-3.03500012E+02
  0
LINE
  8
0
 62
4
 10
4.89999998E+02
 20
-3.03499997E+02
 11
4.88570914E+02
 21
-3.01024780E+02
  0
LINE
  8
0
 62
4
 10
4.76999981E+02
 20
-3.03499996E+02
 11
4.76999981E+02
 21
-3.19500000E+02
  0
LINE
  8
0
 62
4
 10
4.89999981E+02
 20
-3.03499996E+02
 11
4.89999981E+02
 21
-3.19500000E+02
  0
LINE
  8
0
 62
4
 10
4.88570919E+02
 20
-3.01024776E+02
 11
4.78429043E+02
 21
-3.01024776E+02
  0
LINE
  8
0
 62
7
 10
4.76999981E+02
 20
-3.08499977E+02
 11
4.64999981E+02
 21
-3.08499977E+02
  0
LINE
  8
0
 62
2
 10
4.76999981E+02
 20
-3.09319992E+02
 11
4.64999981E+02
 21
-3.09319992E+02
  0
LINE
  8
0
 62
7
 10
3.83999950E+02
 20
-2.76000000E+02
 11
3.90999981E+02
 21
-2.76000000E+02
  0
LINE
  8
0
 62
7
 10
3.79499950E+02
 20
-2.79999985E+02
 11
3.90999981E+02
 21
-2.79999985E+02
  0
LINE
  8
0
  6
CENTER
 62
2
 10
3.64499950E+02
 20
-2.84499985E+02
 11
3.13243011E+02
 21
-2.84499985E+02
  0
LINE
  8
0
 62
7
 10
3.79499950E+02
 20
-2.89000000E+02
 11
3.90999981E+02
 21
-2.89000000E+02
  0
LINE
  8
0
 62
2
 10
2.89446127E+02
 20
-3.25717397E+02
 11
3.22674021E+02
 21
-2.68164997E+02
  0
TEXT
  8
0
 10
-7.72146873E+01
 20
3.54316712E+02
 40
9.00000000E+00
  1
STRETCH LINE
 41
1.05263158E+00
  7
MONOTXT
  0
LINE
  8
0
 62
7
 10
5.74500000E+02
 20
4.00500000E+02
 11
5.74500000E+02
 21
-4.00500000E+02
  0
LINE
  8
0
 62
7
 10
-5.64500000E+02
 20
4.00500000E+02
 11
5.74500000E+02
 21
4.00500000E+02
  0
LINE
  8
0
 62
7
 10
-5.64500000E+02
 20
-4.00500000E+02
 11
5.74500000E+02
 21
-4.00500000E+02
  0
LINE
  8
0
 62
7
 10
-5.64500000E+02
 20
4.00500000E+02
 11
-5.64500000E+02
 21
-4.00500000E+02
  0
LINE
  8
0
 62
7
 10
-5.64500000E+02
 20
3.70500000E+02
 11
-3.34500000E+02
 21
3.70500000E+02
  0
LINE
  8
0
 62
7
 10
3.44500000E+02
 20
3.70500000E+02
 11
5.74500000E+02
 21
3.70500000E+02
  0
LINE
  8
0
 62
7
 10
3.44500000E+02
 20
-3.70500000E+02
 11
5.74500000E+02
 21
-3.70500000E+02
  0
LINE
  8
0
 62
7
 10
3.44500000E+02
 20
-3.70500000E+02
 11
3.44500000E+02
 21
-4.00500000E+02
  0
LINE
  8
0
 62
7
 10
3.44500000E+02
 20
4.00500000E+02
 11
3.44500000E+02
 21
3.70500000E+02
  0
LINE
  8
0
 62
7
 10
-3.34500000E+02
 20
4.00500000E+02
 11
-3.34500000E+02
 21
3.70500000E+02
  0
TEXT
  8
0
 62
7
 10
-5.37179687E+02
 20
3.34250000E+02
 40
1.25000000E+01
  1
MODEL:DDAK-HL80*75
 41
1.00000015E+00
  7
MONOTXT
  0
TEXT
  8
0
 62
7
 10
4.11285149E+02
 20
3.79250000E+02
 40
1.25000000E+01
  1
Ver. 1.0
 41
1.08108125E+00
  7
MONOTXT
  0
TEXT
  8
0
 62
7
 10
3.50070624E+02
 20
-3.94500000E+02
 40
1.80000000E+01
  1
KOGANEI CORP.
 41
1.04838710E+00
  7
MONOTXT
  0
TEXT
  8
0
 62
7
 10
-5.53964859E+02
 20
3.79250000E+02
 40
1.25000000E+01
  1
NEW DYNA CYLINDER
 41
1.07594953E+00
  7
MONOTXT
  0
ENDSEC
  0
EOF
