  0
SECTION
  2
HEADER
  9
$ACADVER
  1
AC1003
  9
$EXTMIN
 10
-5.64500000E+02
 20
-4.00500000E+02
  9
$EXTMAX
 10
5.74500000E+02
 20
4.00500000E+02
  9
$LIMMIN
 10
-5.64501000E+02
 20
-4.00501000E+02
  9
$LIMMAX
 10
5.74501000E+02
 20
4.00501000E+02
  9
$SNAPUNIT
 10
1
 20
1
  9
$SNAPBASE
 10
0
 20
0
  9
$GRIDMODE
 70
0
  9
$GRIDUNIT
 10
0
 20
0
  9
$LTSCALE
 40
1.89833333E+01
  9
$TEXTSIZE
 40
3.2
  9
$DIMTAD
 70
0
  9
$LUNITS
 70
2
  9
$LUPREC
 70
4
  9
$FILLETRAD
 40
0
  9
$AUNITS
 70
0
  9
$AUPREC
 70
0
  0
ENDSEC
  0
SECTION
  2
TABLES
  0
TABLE
  2
LTYPE
 70
2
  0
LTYPE
  2
CONTINUOUS
 70
64
  3
Solid-Line
 72
65
 73
0
 40
0
  0
LTYPE
  2
DASHED
 70
64
  3
DASHED
 72
65
 73
2
 40
.75
 49
.5
 49
-.25
  0
LTYPE
  2
HIDDEN
 70
64
  3
HIDDEN
 72
65
 73
2
 40
.375
 49
.25
 49
-.125
  0
LTYPE
  2
CENTER
 70
64
  3
CENTER
 72
65
 73
4
 40
2
 49
1.25
 49
-.25
 49
.25
 49
-.25
  0
LTYPE
  2
PHANTOM
 70
64
  3
PHANTOM
 72
65
 73
6
 40
2.5
 49
1.25
 49
-.25
 49
.25
 49
-.25
 49
.25
 49
-.25
  0
ENDTAB
  0
TABLE
  2
LAYER
 70
1
  0
LAYER
  2
1
 70
0
 62
7
  6
CONTINUOUS
 0
ENDTAB
  0
TABLE
  2
STYLE
 70
2
  0
STYLE
  2
MONOTXT
 70
0
 40
0
 41
1
 50
0
 71
0
 42
.2
  3
monotxt
  0
STYLE
  2
BIGFONT
 70
0
 40
0
 41
1
 50
0
 71
0
 42
.2
  3
txt
  4
bigfont
  0
ENDTAB
  0
ENDSEC
  0
SECTION
  2
ENTITIES
  0
LINE
  8
0
  6
PHANTOM
 10
4.99954224E-01
 20
2.81313474E+01
 11
4.99954224E-01
 21
1.96111431E+02
  0
LINE
  8
0
  6
CENTER
 62
2
 10
-2.00183247E+02
 20
1.00500000E+02
 11
9.74326363E+01
 21
1.00500000E+02
  0
LINE
  8
0
 62
7
 10
5.29999428E+01
 20
5.69999847E+01
 11
-5.80000648E+01
 21
5.69999847E+01
  0
LINE
  8
0
  6
CENTER
 62
2
 10
9.17791195E+01
 20
6.54999847E+01
 11
-9.65245552E+01
 21
6.54999847E+01
  0
LINE
  8
0
 62
7
 10
5.29999428E+01
 20
6.99999847E+01
 11
-5.80000648E+01
 21
6.99999847E+01
  0
LINE
  8
0
 62
7
 10
5.29999428E+01
 20
6.09999847E+01
 11
-5.80000648E+01
 21
6.09999847E+01
  0
LINE
  8
0
 62
7
 10
-5.80000648E+01
 20
5.34999924E+01
 11
-5.80000648E+01
 21
1.47500000E+02
  0
LINE
  8
0
 62
7
 10
5.29999428E+01
 20
5.34999924E+01
 11
5.29999428E+01
 21
1.47500000E+02
  0
LINE
  8
0
 62
7
 10
5.29999428E+01
 20
1.44000000E+02
 11
4.64999428E+01
 21
1.44000000E+02
  0
LINE
  8
0
  6
CENTER
 62
2
 10
9.17791195E+01
 20
1.35500015E+02
 11
-9.65245552E+01
 21
1.35500015E+02
  0
LINE
  8
0
 62
7
 10
5.29999428E+01
 20
1.31000000E+02
 11
2.99999428E+01
 21
1.31000000E+02
  0
LINE
  8
0
 62
7
 10
5.29999428E+01
 20
1.40000015E+02
 11
4.49999428E+01
 21
1.40000015E+02
  0
LINE
  8
0
  6
CENTER
 62
2
 10
-1.15912251E+02
 20
8.64999847E+01
 11
-1.03185871E+02
 21
8.64999847E+01
  0
LINE
  8
0
  6
CENTER
 62
2
 10
-1.09000065E+02
 20
7.99228592E+01
 11
-1.09000065E+02
 21
9.26491928E+01
  0
LINE
  8
0
  6
DASHED
 62
7
 10
-1.09000144E+02
 20
8.50566598E+01
 11
-1.07750141E+02
 21
8.57783409E+01
  0
LINE
  8
0
  6
DASHED
 62
7
 10
-1.08999770E+02
 20
8.50569773E+01
 11
-1.10249773E+02
 21
8.57786584E+01
  0
LINE
  8
0
  6
DASHED
 62
7
 10
-1.07749814E+02
 20
8.72221428E+01
 11
-1.08999816E+02
 21
8.79438240E+01
  0
LINE
  8
0
  6
DASHED
 62
7
 10
-1.09000153E+02
 20
8.79434502E+01
 11
-1.10250196E+02
 21
8.72217461E+01
  0
LINE
  8
0
  6
DASHED
 62
7
 10
-1.07750004E+02
 20
8.57782745E+01
 11
-1.07750004E+02
 21
8.72216721E+01
  0
LINE
  8
0
  6
DASHED
 62
7
 10
-1.10250034E+02
 20
8.57782745E+01
 11
-1.10250034E+02
 21
8.72216721E+01
  0
LINE
  8
0
 62
7
 10
-1.19000050E+02
 20
1.47499985E+02
 11
-1.19000050E+02
 21
5.34999847E+01
  0
LINE
  8
0
 62
7
 10
-1.19000050E+02
 20
1.47499985E+02
 11
-5.80000648E+01
 21
1.47499985E+02
  0
LINE
  8
0
 62
7
 10
-1.19000050E+02
 20
5.35000076E+01
 11
-5.80000648E+01
 21
5.35000076E+01
  0
LINE
  8
0
 62
7
 10
-1.35000050E+02
 20
7.99999924E+01
 11
-1.35000050E+02
 21
8.09999924E+01
  0
LINE
  8
0
 62
7
 10
-1.39999988E+02
 20
8.15000115E+01
 11
-1.39499960E+02
 21
8.09999951E+01
  0
LINE
  8
0
 62
7
 10
-1.39500034E+02
 20
8.09999924E+01
 11
-1.35000126E+02
 21
8.09999924E+01
  0
LINE
  8
0
 62
7
 10
-1.40000050E+02
 20
8.14999924E+01
 11
-1.40000050E+02
 21
1.19499908E+02
  0
LINE
  8
0
 62
7
 10
-1.39500050E+02
 20
8.09999924E+01
 11
-1.39500050E+02
 21
1.19999969E+02
  0
LINE
  8
0
  6
CENTER
 62
2
 10
-9.50000496E+01
 20
7.41030350E+01
 11
-9.50000496E+01
 21
1.49747971E+02
  0
LINE
  8
0
 62
7
 10
8.49998932E+01
 20
5.34999847E+01
 11
5.29998970E+01
 21
5.34999847E+01
  0
LINE
  8
0
 62
7
 10
8.49998932E+01
 20
1.47500015E+02
 11
5.29998970E+01
 21
1.47500015E+02
  0
LINE
  8
0
 62
7
 10
8.49999580E+01
 20
5.40585480E+01
 11
8.49999580E+01
 21
5.34999847E+01
  0
LINE
  8
0
 62
7
 10
8.49999580E+01
 20
1.46941452E+02
 11
8.49999580E+01
 21
1.47500015E+02
  0
LINE
  8
0
 62
7
 10
8.85085521E+01
 20
1.46880322E+02
 11
5.29997851E+01
 21
1.47500124E+02
  0
LINE
  8
0
 62
7
 10
8.89999428E+01
 20
1.46380295E+02
 11
8.89999428E+01
 21
5.46197433E+01
  0
LINE
  8
0
 62
7
 10
8.85085828E+01
 20
5.41198252E+01
 11
5.29998959E+01
 21
5.35000134E+01
  0
LINE
  8
0
 62
7
 10
9.04998970E+01
 20
7.85000153E+01
 11
8.89998970E+01
 21
7.85000153E+01
  0
LINE
  8
0
 62
7
 10
9.04998970E+01
 20
1.22500000E+02
 11
8.89998970E+01
 21
1.22500000E+02
  0
LINE
  8
0
 62
7
 10
9.09999580E+01
 20
7.90000534E+01
 11
9.09999580E+01
 21
1.22000061E+02
  0
LINE
  8
0
 62
7
 10
-1.39999992E+02
 20
1.19499965E+02
 11
-1.39499975E+02
 21
1.19999970E+02
  0
LINE
  8
0
 62
7
 10
-1.39500034E+02
 20
1.19999969E+02
 11
-1.35000126E+02
 21
1.19999969E+02
  0
LINE
  8
0
 62
7
 10
-1.34000050E+02
 20
7.90000000E+01
 11
-1.21500034E+02
 21
7.90000000E+01
  0
LINE
  8
0
  6
CENTER
 62
2
 10
6.89999733E+01
 20
1.37698380E+02
 11
6.89999733E+01
 21
1.49747971E+02
  0
LINE
  8
0
  6
CENTER
 62
2
 10
-7.40878487E+01
 20
8.64999847E+01
 11
-8.68142281E+01
 21
8.64999847E+01
  0
LINE
  8
0
  6
CENTER
 62
2
 10
-8.10000343E+01
 20
7.99228592E+01
 11
-8.10000343E+01
 21
9.26491928E+01
  0
LINE
  8
0
  6
DASHED
 62
7
 10
-8.10002622E+01
 20
8.50568774E+01
 11
-7.97502464E+01
 21
8.57785662E+01
  0
LINE
  8
0
  6
DASHED
 62
7
 10
-7.97500648E+01
 20
8.57782745E+01
 11
-7.97500648E+01
 21
8.72216721E+01
  0
LINE
  8
0
  6
DASHED
 62
7
 10
-8.09998313E+01
 20
8.79435262E+01
 11
-7.97497890E+01
 21
8.72218222E+01
  0
LINE
  8
0
  6
DASHED
 62
7
 10
-8.22501906E+01
 20
8.72220703E+01
 11
-8.10002078E+01
 21
8.79437400E+01
  0
LINE
  8
0
  6
DASHED
 62
7
 10
-8.22500954E+01
 20
8.57782745E+01
 11
-8.22500954E+01
 21
8.72216721E+01
  0
LINE
  8
0
  6
DASHED
 62
7
 10
-8.09998676E+01
 20
8.50567507E+01
 11
-8.22498437E+01
 21
8.57784166E+01
  0
LINE
  8
0
  6
CENTER
 62
2
 10
-1.15912251E+02
 20
1.14500015E+02
 11
-1.03185871E+02
 21
1.14500015E+02
  0
LINE
  8
0
  6
CENTER
 62
2
 10
-1.09000065E+02
 20
1.21077133E+02
 11
-1.09000065E+02
 21
1.08350807E+02
  0
LINE
  8
0
  6
DASHED
 62
7
 10
-1.08999845E+02
 20
1.15943168E+02
 11
-1.10249835E+02
 21
1.15221495E+02
  0
LINE
  8
0
  6
DASHED
 62
7
 10
-1.10250034E+02
 20
1.15221725E+02
 11
-1.10250034E+02
 21
1.13778328E+02
  0
LINE
  8
0
  6
DASHED
 62
7
 10
-1.09000090E+02
 20
1.13056691E+02
 11
-1.10250133E+02
 21
1.13778395E+02
  0
LINE
  8
0
  6
DASHED
 62
7
 10
-1.07749844E+02
 20
1.13778018E+02
 11
-1.08999860E+02
 21
1.13056329E+02
  0
LINE
  8
0
  6
DASHED
 62
7
 10
-1.07750004E+02
 20
1.15221725E+02
 11
-1.07750004E+02
 21
1.13778328E+02
  0
LINE
  8
0
  6
DASHED
 62
7
 10
-1.09000068E+02
 20
1.15943473E+02
 11
-1.07750065E+02
 21
1.15221792E+02
  0
LINE
  8
0
  6
CENTER
 62
2
 10
-7.40878487E+01
 20
1.14500015E+02
 11
-8.68142281E+01
 21
1.14500015E+02
  0
LINE
  8
0
  6
CENTER
 62
2
 10
-8.10000343E+01
 20
1.21077133E+02
 11
-8.10000343E+01
 21
1.08350807E+02
  0
LINE
  8
0
  6
DASHED
 62
7
 10
-8.10001774E+01
 20
1.15943194E+02
 11
-7.97502012E+01
 21
1.15221528E+02
  0
LINE
  8
0
  6
DASHED
 62
7
 10
-7.97500648E+01
 20
1.15221725E+02
 11
-7.97500648E+01
 21
1.13778328E+02
  0
LINE
  8
0
  6
DASHED
 62
7
 10
-8.09999473E+01
 20
1.13056600E+02
 11
-7.97499051E+01
 21
1.13778304E+02
  0
LINE
  8
0
  6
DASHED
 62
7
 10
-8.22501199E+01
 20
1.13778023E+02
 11
-8.10001437E+01
 21
1.13056357E+02
  0
LINE
  8
0
  6
DASHED
 62
7
 10
-8.22500954E+01
 20
1.15221725E+02
 11
-8.22500954E+01
 21
1.13778328E+02
  0
LINE
  8
0
  6
DASHED
 62
7
 10
-8.09999326E+01
 20
1.15943439E+02
 11
-8.22499550E+01
 21
1.15221747E+02
  0
LINE
  8
0
 62
7
 10
-1.21500034E+02
 20
1.21999985E+02
 11
-1.21500034E+02
 21
7.89999847E+01
  0
LINE
  8
0
 62
7
 10
-1.35000050E+02
 20
7.99999924E+01
 11
-1.35000050E+02
 21
1.20999985E+02
  0
LINE
  8
0
 62
7
 10
-1.21000010E+02
 20
7.84999918E+01
 11
-1.21500010E+02
 21
7.89999923E+01
  0
LINE
  8
0
 62
7
 10
-1.21000034E+02
 20
1.22499985E+02
 11
-1.21000034E+02
 21
7.84999924E+01
  0
LINE
  8
0
 62
7
 10
-1.21000034E+02
 20
7.84999924E+01
 11
-1.19000111E+02
 21
7.84999924E+01
  0
LINE
  8
0
 62
7
 10
-1.21000065E+02
 20
1.22499985E+02
 11
-1.19000050E+02
 21
1.22499985E+02
  0
LINE
  8
0
 62
7
 10
-1.21000026E+02
 20
1.22500001E+02
 11
-1.21500034E+02
 21
1.21999992E+02
  0
LINE
  8
0
 62
7
 10
-1.34000050E+02
 20
1.21999985E+02
 11
-1.21500034E+02
 21
1.21999985E+02
  0
LINE
  8
0
 62
7
 10
-1.51000050E+02
 20
1.07282280E+02
 11
-1.51000050E+02
 21
1.13000000E+02
  0
LINE
  8
0
 62
7
 10
-1.54000050E+02
 20
8.94999695E+01
 11
-1.54000050E+02
 21
1.11500023E+02
  0
LINE
  8
0
 62
7
 10
-1.94000050E+02
 20
1.10000046E+02
 11
-1.94000050E+02
 21
9.09999466E+01
  0
LINE
  8
0
 62
7
 10
-1.57000050E+02
 20
1.11500023E+02
 11
-1.57000050E+02
 21
8.94999847E+01
  0
LINE
  8
0
 62
7
 10
-1.92500111E+02
 20
8.94999695E+01
 11
-1.82000049E+02
 21
8.94999695E+01
  0
LINE
  8
0
 62
7
 10
-1.92500050E+02
 20
1.11500023E+02
 11
-1.92500050E+02
 21
8.94999847E+01
  0
LINE
  8
0
 62
7
 10
-1.94000136E+02
 20
9.10000104E+01
 11
-1.92500123E+02
 21
8.94999981E+01
  0
LINE
  8
0
 62
2
 10
-1.93320118E+02
 20
9.03199844E+01
 11
-1.82000049E+02
 21
9.03199844E+01
  0
LINE
  8
0
 62
7
 10
-1.51000095E+02
 20
8.79999466E+01
 11
-1.40000080E+02
 21
8.79999466E+01
  0
LINE
  8
0
 62
7
 10
-1.51000050E+02
 20
9.37176895E+01
 11
-1.51000050E+02
 21
8.79999619E+01
  0
LINE
  8
0
 62
7
 10
-1.94000119E+02
 20
1.09999982E+02
 11
-1.92500102E+02
 21
1.11500000E+02
  0
LINE
  8
0
 62
7
 10
-1.92500111E+02
 20
1.11500023E+02
 11
-1.82000049E+02
 21
1.11500023E+02
  0
LINE
  8
0
 62
2
 10
-1.93320118E+02
 20
1.10680008E+02
 11
-1.82000049E+02
 21
1.10680008E+02
  0
LINE
  8
0
 62
7
 10
-1.51000095E+02
 20
1.13000046E+02
 11
-1.40000080E+02
 21
1.13000046E+02
  0
LINE
  8
0
 62
7
 10
-1.44000065E+02
 20
9.37176895E+01
 11
-1.44000065E+02
 21
1.07282280E+02
  0
LINE
  8
0
 62
7
 10
-1.51000050E+02
 20
9.37176895E+01
 11
-1.44000065E+02
 21
9.37176895E+01
  0
LINE
  8
0
 62
7
 10
-1.51000050E+02
 20
1.07282280E+02
 11
-1.44000065E+02
 21
1.07282280E+02
  0
LINE
  8
0
 62
7
 10
-1.51000032E+02
 20
9.37176817E+01
 11
-1.54000039E+02
 21
9.70001296E+01
  0
LINE
  8
0
 62
7
 10
-1.54000038E+02
 20
1.03999858E+02
 11
-1.51000040E+02
 21
1.07282273E+02
  0
LINE
  8
0
 62
7
 10
-1.54000071E+02
 20
1.11500036E+02
 11
-1.51000059E+02
 21
1.13000065E+02
  0
LINE
  8
0
 62
7
 10
-1.54000067E+02
 20
8.94999834E+01
 11
-1.51000055E+02
 21
8.79999544E+01
  0
LINE
  8
0
 62
2
 10
-1.44000068E+02
 20
1.07282284E+02
 11
-1.52660612E+02
 21
9.55345921E+01
  0
LINE
  8
0
 62
2
 10
-1.44000054E+02
 20
9.37176762E+01
 11
-1.52660613E+02
 21
1.05465389E+02
  0
LINE
  8
0
 62
7
 10
-1.57000050E+02
 20
1.10680008E+02
 11
-1.54000050E+02
 21
1.10680008E+02
  0
LINE
  8
0
 62
7
 10
-1.57000050E+02
 20
9.03199844E+01
 11
-1.54000050E+02
 21
9.03199844E+01
  0
LINE
  8
0
  6
CENTER
 62
2
 10
-9.50000496E+01
 20
1.34800034E+02
 11
-9.50000496E+01
 21
1.49952637E+02
  0
LINE
  8
0
  6
CENTER
 62
2
 10
6.89999733E+01
 20
1.34520889E+02
 11
6.89999733E+01
 21
1.49673492E+02
  0
CIRCLE
  8
0
  6
DASHED
 62
7
 10
-1.09000065E+02
 20
8.64999847E+01
 40
3.75000000E+00
  0
CIRCLE
  8
0
  6
DASHED
 62
7
 10
-9.50000496E+01
 20
1.00500000E+02
 40
2.00000000E+00
  0
CIRCLE
  8
0
  6
DASHED
 62
2
 10
-9.50000496E+01
 20
1.00500000E+02
 40
2.50000000E+00
  0
ARC
  8
0
 62
7
 10
-1.34000050E+02
 20
7.99999924E+01
 40
1.00000000E+00
 50
1.79999977E+02
 51
2.70000028E+02
  0
ARC
  8
0
 62
7
 10
8.84998817E+01
 20
1.46380295E+02
 40
5.00000000E-01
 50
3.59999986E+02
 51
8.89996737E+01
  0
ARC
  8
0
 62
7
 10
8.84999733E+01
 20
5.46197433E+01
 40
5.00000000E-01
 50
2.71000265E+02
 51
3.59999973E+02
  0
ARC
  8
0
 62
7
 10
9.04999428E+01
 20
1.22000061E+02
 40
5.00000000E-01
 50
0.00000000E+00
 51
8.99999549E+01
  0
ARC
  8
0
 62
7
 10
9.04999428E+01
 20
7.90000534E+01
 40
5.00000000E-01
 50
2.69999991E+02
 51
3.59999973E+02
  0
ARC
  8
0
  6
DASHED
 62
7
 10
-9.50000496E+01
 20
1.00500000E+02
 40
2.30000000E+01
 50
5.02468330E+01
 51
1.29753077E+02
  0
CIRCLE
  8
0
  6
DASHED
 62
7
 10
-8.10000343E+01
 20
8.64999847E+01
 40
3.75000000E+00
  0
CIRCLE
  8
0
  6
DASHED
 62
7
 10
-1.09000065E+02
 20
1.14500015E+02
 40
3.75000000E+00
  0
CIRCLE
  8
0
  6
DASHED
 62
7
 10
-8.10000343E+01
 20
1.14500015E+02
 40
3.75000000E+00
  0
ARC
  8
0
  6
DASHED
 62
7
 10
-9.50000496E+01
 20
1.00500000E+02
 40
2.30000000E+01
 50
3.20246827E+02
 51
3.97530636E+01
  0
ARC
  8
0
  6
DASHED
 62
7
 10
-9.50000496E+01
 20
1.00500000E+02
 40
2.30000000E+01
 50
2.30246814E+02
 51
3.09753064E+02
  0
ARC
  8
0
  6
DASHED
 62
7
 10
-9.50000496E+01
 20
1.00500000E+02
 40
2.30000000E+01
 50
1.40246843E+02
 51
2.19753031E+02
  0
ARC
  8
0
 62
7
 10
-1.34000050E+02
 20
1.20999985E+02
 40
1.00000000E+00
 50
8.99999274E+01
 51
1.79999964E+02
  0
ARC
  8
0
 62
7
 10
-1.54500080E+02
 20
1.00499985E+02
 40
1.25000010E+01
 50
3.27140311E+02
 51
3.28596884E+01
  0
ARC
  8
0
 62
4
 10
-1.73437447E+02
 20
1.14220553E+02
 40
8.56342793E+00
 50
1.46410665E+02
 51
2.13589318E+02
  0
ARC
  8
0
 62
4
 10
-1.52945249E+02
 20
1.00482943E+02
 40
2.90548000E+01
 50
1.61955287E+02
 51
1.98044695E+02
  0
ARC
  8
0
 62
4
 10
-1.73437447E+02
 20
8.67453331E+01
 40
8.56342793E+00
 50
1.46410624E+02
 51
2.13589277E+02
  0
ARC
  8
0
 62
4
 10
-1.77562652E+02
 20
1.14220553E+02
 40
8.56342793E+00
 50
3.26410605E+02
 51
3.35892584E+01
  0
ARC
  8
0
 62
4
 10
-1.98054845E+02
 20
1.00482943E+02
 40
2.90548000E+01
 50
3.41955269E+02
 51
1.80446768E+01
  0
ARC
  8
0
 62
4
 10
-1.77562652E+02
 20
8.67453331E+01
 40
8.56342793E+00
 50
3.26410646E+02
 51
3.35892994E+01
  0
LINE
  8
0
 62
4
 10
-1.80570987E+02
 20
1.09482943E+02
 11
-1.70429111E+02
 21
1.09482943E+02
  0
LINE
  8
0
 62
4
 10
-1.80570987E+02
 20
9.14829430E+01
 11
-1.70429111E+02
 21
9.14829430E+01
  0
LINE
  8
0
 62
4
 10
-1.70429130E+02
 20
1.18958119E+02
 11
-1.69000057E+02
 21
1.16482931E+02
  0
LINE
  8
0
 62
4
 10
-1.82000013E+02
 20
8.44829893E+01
 11
-1.80570958E+02
 21
8.20077994E+01
  0
LINE
  8
0
 62
4
 10
-1.70429085E+02
 20
8.20077861E+01
 11
-1.69000039E+02
 21
8.44829145E+01
  0
LINE
  8
0
 62
4
 10
-1.82000066E+02
 20
1.16482946E+02
 11
-1.80570983E+02
 21
1.18958163E+02
  0
LINE
  8
0
 62
4
 10
-1.69000050E+02
 20
1.16482947E+02
 11
-1.69000050E+02
 21
8.44829430E+01
  0
LINE
  8
0
 62
4
 10
-1.82000049E+02
 20
1.16482947E+02
 11
-1.82000049E+02
 21
8.44829430E+01
  0
LINE
  8
0
 62
4
 10
-1.80570987E+02
 20
1.18958167E+02
 11
-1.70429111E+02
 21
1.18958167E+02
  0
LINE
  8
0
 62
4
 10
-1.80570987E+02
 20
8.20077251E+01
 11
-1.70429111E+02
 21
8.20077251E+01
  0
LINE
  8
0
 62
7
 10
-1.69000050E+02
 20
8.94999695E+01
 11
-1.57000050E+02
 21
8.94999695E+01
  0
LINE
  8
0
 62
2
 10
-1.69000050E+02
 20
9.03199844E+01
 11
-1.57000050E+02
 21
9.03199844E+01
  0
LINE
  8
0
 62
7
 10
-1.69000050E+02
 20
1.11500023E+02
 11
-1.57000050E+02
 21
1.11500023E+02
  0
LINE
  8
0
 62
2
 10
-1.69000050E+02
 20
1.10680008E+02
 11
-1.57000050E+02
 21
1.10680008E+02
  0
LINE
  8
0
 62
6
 10
-5.73208516E+00
 20
1.40726428E+02
 11
-2.26798354E+00
 21
1.46726428E+02
  0
LINE
  8
0
 62
6
 10
6.73207754E+00
 20
1.46726428E+02
 11
3.26797593E+00
 21
1.40726428E+02
  0
LINE
  8
0
 62
4
 10
1.50000267E+01
 20
1.45226428E+02
 11
5.86605210E+00
 21
1.45226428E+02
  0
LINE
  8
0
  6
CENTER
 62
6
 10
5.00000267E+01
 20
1.43726428E+02
 11
3.00002671E+00
 21
1.43726428E+02
  0
LINE
  8
0
 62
4
 10
1.50000267E+01
 20
1.42226428E+02
 11
4.13400131E+00
 21
1.42226428E+02
  0
LINE
  8
0
 62
4
 10
-2.05000343E+01
 20
1.45226428E+02
 11
-3.13400892E+00
 21
1.45226428E+02
  0
LINE
  8
0
 62
4
 10
4.64999428E+01
 20
1.42248896E+02
 11
4.49999428E+01
 21
1.41122847E+02
  0
LINE
  8
0
 62
4
 10
4.64999428E+01
 20
1.43097380E+02
 11
4.49999428E+01
 21
1.42621274E+02
  0
LINE
  8
0
 62
4
 10
4.64999428E+01
 20
1.45197451E+02
 11
4.64999428E+01
 21
1.42248896E+02
  0
LINE
  8
0
 62
4
 10
4.49999428E+01
 20
1.46330009E+02
 11
4.64999428E+01
 21
1.45197451E+02
  0
LINE
  8
0
 62
4
 10
-4.40000343E+01
 20
1.44000000E+02
 11
-4.40000343E+01
 21
1.56361392E+02
  0
LINE
  8
0
 62
4
 10
-1.40000343E+01
 20
1.45226428E+02
 11
-1.40000343E+01
 21
1.56361392E+02
  0
LINE
  8
0
 62
4
 10
1.49999428E+01
 20
1.24976467E+02
 11
1.49999428E+01
 21
1.56361392E+02
  0
LINE
  8
0
  6
CENTER
 62
6
 10
4.10745397E+01
 20
1.48330616E+02
 11
3.39253459E+01
 21
1.48330616E+02
  0
LINE
  8
0
  6
CENTER
 62
6
 10
3.74999428E+01
 20
1.51905213E+02
 11
3.74999428E+01
 21
1.44756020E+02
  0
LINE
  8
0
 62
4
 10
4.49999428E+01
 20
1.56361392E+02
 11
4.49999428E+01
 21
1.37518159E+02
  0
LINE
  8
0
 62
4
 10
2.99999428E+01
 20
1.24976467E+02
 11
2.99999428E+01
 21
1.56361392E+02
  0
LINE
  8
0
  6
CENTER
 62
6
 10
1.49999428E+01
 20
1.29159701E+02
 11
2.19999428E+01
 21
1.29159701E+02
  0
LINE
  8
0
  6
CENTER
 62
6
 10
1.84999428E+01
 20
1.25659701E+02
 11
1.84999428E+01
 21
1.32659701E+02
  0
LINE
  8
0
  6
CENTER
 62
6
 10
2.29999428E+01
 20
1.29159701E+02
 11
2.99999428E+01
 21
1.29159701E+02
  0
LINE
  8
0
  6
CENTER
 62
6
 10
2.64999428E+01
 20
1.25659701E+02
 11
2.64999428E+01
 21
1.32659701E+02
  0
LINE
  8
0
 62
4
 10
1.49999428E+01
 20
1.56361392E+02
 11
4.49999428E+01
 21
1.56361392E+02
  0
LINE
  8
0
 62
4
 10
1.49999428E+01
 20
1.24976467E+02
 11
2.99999428E+01
 21
1.24976467E+02
  0
LINE
  8
0
 62
4
 10
1.49999428E+01
 20
1.52502944E+02
 11
4.49999428E+01
 21
1.52502944E+02
  0
LINE
  8
0
 62
4
 10
1.49999428E+01
 20
1.49880698E+02
 11
2.99999428E+01
 21
1.49880698E+02
  0
LINE
  8
0
 62
4
 10
1.59999428E+01
 20
1.36049423E+02
 11
2.89999428E+01
 21
1.36049423E+02
  0
LINE
  8
0
 62
4
 10
2.99999428E+01
 20
1.37518159E+02
 11
4.49999428E+01
 21
1.37518159E+02
  0
LINE
  8
0
 62
4
 10
2.99999428E+01
 20
1.44621881E+02
 11
4.49999428E+01
 21
1.44621881E+02
  0
LINE
  8
0
 62
4
 10
2.99999428E+01
 20
1.44472038E+02
 11
4.49999428E+01
 21
1.44472038E+02
  0
POLYLINE
  8
0
 62
4
 66
1
  0
VERTEX
  8
0
 62
4
 10
3.52499428E+01
 20
1.48330616E+02
  0
VERTEX
  8
0
 62
4
 10
3.52585047E+01
 20
1.48148795E+02
  0
VERTEX
  8
0
 62
4
 10
3.52841254E+01
 20
1.47968357E+02
  0
VERTEX
  8
0
 62
4
 10
3.53266097E+01
 20
1.47790677E+02
  0
VERTEX
  8
0
 62
4
 10
3.53856344E+01
 20
1.47617106E+02
  0
VERTEX
  8
0
 62
4
 10
3.54607503E+01
 20
1.47448965E+02
  0
VERTEX
  8
0
 62
4
 10
3.55513856E+01
 20
1.47287534E+02
  0
VERTEX
  8
0
 62
4
 10
3.56568507E+01
 20
1.47134042E+02
  0
VERTEX
  8
0
 62
4
 10
3.57763428E+01
 20
1.46989656E+02
  0
VERTEX
  8
0
 62
4
 10
3.59089525E+01
 20
1.46855476E+02
  0
VERTEX
  8
0
 62
4
 10
3.60536707E+01
 20
1.46732522E+02
  0
VERTEX
  8
0
 62
4
 10
3.62093958E+01
 20
1.46621731E+02
  0
VERTEX
  8
0
 62
4
 10
3.63749428E+01
 20
1.46523945E+02
  0
VERTEX
  8
0
 62
4
 10
3.65490517E+01
 20
1.46439910E+02
  0
VERTEX
  8
0
 62
4
 10
3.67303975E+01
 20
1.46370263E+02
  0
VERTEX
  8
0
 62
4
 10
3.69175999E+01
 20
1.46315537E+02
  0
VERTEX
  8
0
 62
4
 10
3.71092344E+01
 20
1.46276146E+02
  0
VERTEX
  8
0
 62
4
 10
3.73038424E+01
 20
1.46252391E+02
  0
VERTEX
  8
0
 62
4
 10
3.74999428E+01
 20
1.46244452E+02
  0
VERTEX
  8
0
 62
4
 10
3.76960432E+01
 20
1.46252391E+02
  0
VERTEX
  8
0
 62
4
 10
3.78906512E+01
 20
1.46276146E+02
  0
VERTEX
  8
0
 62
4
 10
3.80822856E+01
 20
1.46315537E+02
  0
VERTEX
  8
0
 62
4
 10
3.82694881E+01
 20
1.46370263E+02
  0
VERTEX
  8
0
 62
4
 10
3.84508339E+01
 20
1.46439910E+02
  0
VERTEX
  8
0
 62
4
 10
3.86249428E+01
 20
1.46523945E+02
  0
VERTEX
  8
0
 62
4
 10
3.87904898E+01
 20
1.46621731E+02
  0
VERTEX
  8
0
 62
4
 10
3.89462149E+01
 20
1.46732522E+02
  0
VERTEX
  8
0
 62
4
 10
3.90909331E+01
 20
1.46855476E+02
  0
VERTEX
  8
0
 62
4
 10
3.92235428E+01
 20
1.46989656E+02
  0
VERTEX
  8
0
 62
4
 10
3.93430349E+01
 20
1.47134042E+02
  0
VERTEX
  8
0
 62
4
 10
3.94485000E+01
 20
1.47287534E+02
  0
VERTEX
  8
0
 62
4
 10
3.95391353E+01
 20
1.47448965E+02
  0
VERTEX
  8
0
 62
4
 10
3.96142512E+01
 20
1.47617106E+02
  0
VERTEX
  8
0
 62
4
 10
3.96732759E+01
 20
1.47790677E+02
  0
VERTEX
  8
0
 62
4
 10
3.97157602E+01
 20
1.47968357E+02
  0
VERTEX
  8
0
 62
4
 10
3.97413809E+01
 20
1.48148795E+02
  0
VERTEX
  8
0
 62
4
 10
3.97499428E+01
 20
1.48330616E+02
  0
VERTEX
  8
0
 62
4
 10
3.97413809E+01
 20
1.48512437E+02
  0
VERTEX
  8
0
 62
4
 10
3.97157602E+01
 20
1.48692875E+02
  0
VERTEX
  8
0
 62
4
 10
3.96732759E+01
 20
1.48870555E+02
  0
VERTEX
  8
0
 62
4
 10
3.96142512E+01
 20
1.49044126E+02
  0
VERTEX
  8
0
 62
4
 10
3.95391353E+01
 20
1.49212267E+02
  0
VERTEX
  8
0
 62
4
 10
3.94485000E+01
 20
1.49373698E+02
  0
VERTEX
  8
0
 62
4
 10
3.93430349E+01
 20
1.49527190E+02
  0
VERTEX
  8
0
 62
4
 10
3.92235428E+01
 20
1.49671576E+02
  0
VERTEX
  8
0
 62
4
 10
3.90909331E+01
 20
1.49805756E+02
  0
VERTEX
  8
0
 62
4
 10
3.89462149E+01
 20
1.49928710E+02
  0
VERTEX
  8
0
 62
4
 10
3.87904898E+01
 20
1.50039501E+02
  0
VERTEX
  8
0
 62
4
 10
3.86249428E+01
 20
1.50137287E+02
  0
VERTEX
  8
0
 62
4
 10
3.84508339E+01
 20
1.50221322E+02
  0
VERTEX
  8
0
 62
4
 10
3.82694881E+01
 20
1.50290969E+02
  0
VERTEX
  8
0
 62
4
 10
3.80822857E+01
 20
1.50345695E+02
  0
VERTEX
  8
0
 62
4
 10
3.78906512E+01
 20
1.50385086E+02
  0
VERTEX
  8
0
 62
4
 10
3.76960432E+01
 20
1.50408841E+02
  0
VERTEX
  8
0
 62
4
 10
3.74999428E+01
 20
1.50416780E+02
  0
VERTEX
  8
0
 62
4
 10
3.73038424E+01
 20
1.50408841E+02
  0
VERTEX
  8
0
 62
4
 10
3.71092344E+01
 20
1.50385086E+02
  0
VERTEX
  8
0
 62
4
 10
3.69176000E+01
 20
1.50345695E+02
  0
VERTEX
  8
0
 62
4
 10
3.67303975E+01
 20
1.50290969E+02
  0
VERTEX
  8
0
 62
4
 10
3.65490517E+01
 20
1.50221322E+02
  0
VERTEX
  8
0
 62
4
 10
3.63749428E+01
 20
1.50137287E+02
  0
VERTEX
  8
0
 62
4
 10
3.62093958E+01
 20
1.50039501E+02
  0
VERTEX
  8
0
 62
4
 10
3.60536707E+01
 20
1.49928710E+02
  0
VERTEX
  8
0
 62
4
 10
3.59089525E+01
 20
1.49805756E+02
  0
VERTEX
  8
0
 62
4
 10
3.57763428E+01
 20
1.49671576E+02
  0
VERTEX
  8
0
 62
4
 10
3.56568507E+01
 20
1.49527190E+02
  0
VERTEX
  8
0
 62
4
 10
3.55513856E+01
 20
1.49373698E+02
  0
VERTEX
  8
0
 62
4
 10
3.54607503E+01
 20
1.49212267E+02
  0
VERTEX
  8
0
 62
4
 10
3.53856344E+01
 20
1.49044126E+02
  0
VERTEX
  8
0
 62
4
 10
3.53266097E+01
 20
1.48870555E+02
  0
VERTEX
  8
0
 62
4
 10
3.52841254E+01
 20
1.48692875E+02
  0
VERTEX
  8
0
 62
4
 10
3.52585047E+01
 20
1.48512437E+02
  0
VERTEX
  8
0
 62
4
 10
3.52499428E+01
 20
1.48330616E+02
  0
SEQEND
  8
0
  0
POLYLINE
  8
0
 62
4
 66
1
  0
VERTEX
  8
0
 62
4
 10
2.84999428E+01
 20
1.29159701E+02
  0
VERTEX
  8
0
 62
4
 10
2.84918914E+01
 20
1.29325925E+02
  0
VERTEX
  8
0
 62
4
 10
2.84678020E+01
 20
1.29490811E+02
  0
VERTEX
  8
0
 62
4
 10
2.84278685E+01
 20
1.29653031E+02
  0
VERTEX
  8
0
 62
4
 10
2.83724125E+01
 20
1.29811279E+02
  0
VERTEX
  8
0
 62
4
 10
2.83018805E+01
 20
1.29964281E+02
  0
VERTEX
  8
0
 62
4
 10
2.82168404E+01
 20
1.30110805E+02
  0
VERTEX
  8
0
 62
4
 10
2.81179768E+01
 20
1.30249671E+02
  0
VERTEX
  8
0
 62
4
 10
2.80060857E+01
 20
1.30379761E+02
  0
VERTEX
  8
0
 62
4
 10
2.78820681E+01
 20
1.30500028E+02
  0
VERTEX
  8
0
 62
4
 10
2.77469224E+01
 20
1.30609504E+02
  0
VERTEX
  8
0
 62
4
 10
2.76017368E+01
 20
1.30707307E+02
  0
VERTEX
  8
0
 62
4
 10
2.74476801E+01
 20
1.30792649E+02
  0
VERTEX
  8
0
 62
4
 10
2.72859929E+01
 20
1.30864844E+02
  0
VERTEX
  8
0
 62
4
 10
2.71179768E+01
 20
1.30923309E+02
  0
VERTEX
  8
0
 62
4
 10
2.69449847E+01
 20
1.30967576E+02
  0
VERTEX
  8
0
 62
4
 10
2.67684093E+01
 20
1.30997286E+02
  0
VERTEX
  8
0
 62
4
 10
2.65896725E+01
 20
1.31012201E+02
  0
VERTEX
  8
0
 62
4
 10
2.64102132E+01
 20
1.31012201E+02
  0
VERTEX
  8
0
 62
4
 10
2.62314763E+01
 20
1.30997286E+02
  0
VERTEX
  8
0
 62
4
 10
2.60549009E+01
 20
1.30967576E+02
  0
VERTEX
  8
0
 62
4
 10
2.58819088E+01
 20
1.30923309E+02
  0
VERTEX
  8
0
 62
4
 10
2.57138928E+01
 20
1.30864844E+02
  0
VERTEX
  8
0
 62
4
 10
2.55522055E+01
 20
1.30792649E+02
  0
VERTEX
  8
0
 62
4
 10
2.53981489E+01
 20
1.30707307E+02
  0
VERTEX
  8
0
 62
4
 10
2.52529632E+01
 20
1.30609504E+02
  0
VERTEX
  8
0
 62
4
 10
2.51178175E+01
 20
1.30500028E+02
  0
VERTEX
  8
0
 62
4
 10
2.49937999E+01
 20
1.30379761E+02
  0
VERTEX
  8
0
 62
4
 10
2.48819088E+01
 20
1.30249671E+02
  0
VERTEX
  8
0
 62
4
 10
2.47830452E+01
 20
1.30110805E+02
  0
VERTEX
  8
0
 62
4
 10
2.46980051E+01
 20
1.29964281E+02
  0
VERTEX
  8
0
 62
4
 10
2.46274731E+01
 20
1.29811279E+02
  0
VERTEX
  8
0
 62
4
 10
2.45720171E+01
 20
1.29653031E+02
  0
VERTEX
  8
0
 62
4
 10
2.45320836E+01
 20
1.29490811E+02
  0
VERTEX
  8
0
 62
4
 10
2.45079942E+01
 20
1.29325925E+02
  0
VERTEX
  8
0
 62
4
 10
2.44999428E+01
 20
1.29159701E+02
  0
SEQEND
  8
0
  0
LINE
  8
0
 62
4
 10
2.44999428E+01
 20
1.27682824E+02
 11
2.44999428E+01
 21
1.29159701E+02
  0
LINE
  8
0
 62
4
 10
2.84999428E+01
 20
1.27682824E+02
 11
2.84999428E+01
 21
1.29159701E+02
  0
POLYLINE
  8
0
 62
4
 66
1
  0
VERTEX
  8
0
 62
4
 10
2.44999428E+01
 20
1.27682824E+02
  0
VERTEX
  8
0
 62
4
 10
2.45075534E+01
 20
1.27521205E+02
  0
VERTEX
  8
0
 62
4
 10
2.45303273E+01
 20
1.27360816E+02
  0
VERTEX
  8
0
 62
4
 10
2.45680911E+01
 20
1.27202878E+02
  0
VERTEX
  8
0
 62
4
 10
2.46205576E+01
 20
1.27048593E+02
  0
VERTEX
  8
0
 62
4
 10
2.46873272E+01
 20
1.26899134E+02
  0
VERTEX
  8
0
 62
4
 10
2.47678920E+01
 20
1.26755640E+02
  0
VERTEX
  8
0
 62
4
 10
2.48616387E+01
 20
1.26619202E+02
  0
VERTEX
  8
0
 62
4
 10
2.49678539E+01
 20
1.26490859E+02
  0
VERTEX
  8
0
 62
4
 10
2.50857292E+01
 20
1.26371588E+02
  0
VERTEX
  8
0
 62
4
 10
2.52143676E+01
 20
1.26262296E+02
  0
VERTEX
  8
0
 62
4
 10
2.53527899E+01
 20
1.26163815E+02
  0
VERTEX
  8
0
 62
4
 10
2.54999428E+01
 20
1.26076894E+02
  0
VERTEX
  8
0
 62
4
 10
2.56547063E+01
 20
1.26002196E+02
  0
VERTEX
  8
0
 62
4
 10
2.58159025E+01
 20
1.25940288E+02
  0
VERTEX
  8
0
 62
4
 10
2.59823047E+01
 20
1.25891642E+02
  0
VERTEX
  8
0
 62
4
 10
2.61526464E+01
 20
1.25856628E+02
  0
VERTEX
  8
0
 62
4
 10
2.63256313E+01
 20
1.25835513E+02
  0
VERTEX
  8
0
 62
4
 10
2.64999428E+01
 20
1.25828456E+02
  0
VERTEX
  8
0
 62
4
 10
2.66742543E+01
 20
1.25835513E+02
  0
VERTEX
  8
0
 62
4
 10
2.68472392E+01
 20
1.25856628E+02
  0
VERTEX
  8
0
 62
4
 10
2.70175809E+01
 20
1.25891642E+02
  0
VERTEX
  8
0
 62
4
 10
2.71839831E+01
 20
1.25940288E+02
  0
VERTEX
  8
0
 62
4
 10
2.73451793E+01
 20
1.26002196E+02
  0
VERTEX
  8
0
 62
4
 10
2.74999428E+01
 20
1.26076894E+02
  0
VERTEX
  8
0
 62
4
 10
2.76470957E+01
 20
1.26163815E+02
  0
VERTEX
  8
0
 62
4
 10
2.77855180E+01
 20
1.26262296E+02
  0
VERTEX
  8
0
 62
4
 10
2.79141564E+01
 20
1.26371588E+02
  0
VERTEX
  8
0
 62
4
 10
2.80320317E+01
 20
1.26490859E+02
  0
VERTEX
  8
0
 62
4
 10
2.81382469E+01
 20
1.26619202E+02
  0
VERTEX
  8
0
 62
4
 10
2.82319936E+01
 20
1.26755640E+02
  0
VERTEX
  8
0
 62
4
 10
2.83125584E+01
 20
1.26899134E+02
  0
VERTEX
  8
0
 62
4
 10
2.83793280E+01
 20
1.27048593E+02
  0
VERTEX
  8
0
 62
4
 10
2.84317945E+01
 20
1.27202878E+02
  0
VERTEX
  8
0
 62
4
 10
2.84695583E+01
 20
1.27360816E+02
  0
VERTEX
  8
0
 62
4
 10
2.84923322E+01
 20
1.27521205E+02
  0
VERTEX
  8
0
 62
4
 10
2.84999428E+01
 20
1.27682824E+02
  0
VERTEX
  8
0
 62
4
 10
2.84923322E+01
 20
1.27844443E+02
  0
VERTEX
  8
0
 62
4
 10
2.84695583E+01
 20
1.28004832E+02
  0
VERTEX
  8
0
 62
4
 10
2.84317945E+01
 20
1.28162770E+02
  0
VERTEX
  8
0
 62
4
 10
2.83793280E+01
 20
1.28317055E+02
  0
VERTEX
  8
0
 62
4
 10
2.83125584E+01
 20
1.28466514E+02
  0
VERTEX
  8
0
 62
4
 10
2.82319936E+01
 20
1.28610008E+02
  0
VERTEX
  8
0
 62
4
 10
2.81382469E+01
 20
1.28746446E+02
  0
VERTEX
  8
0
 62
4
 10
2.80320317E+01
 20
1.28874789E+02
  0
VERTEX
  8
0
 62
4
 10
2.79141564E+01
 20
1.28994060E+02
  0
VERTEX
  8
0
 62
4
 10
2.77855180E+01
 20
1.29103352E+02
  0
VERTEX
  8
0
 62
4
 10
2.76470957E+01
 20
1.29201833E+02
  0
VERTEX
  8
0
 62
4
 10
2.74999428E+01
 20
1.29288754E+02
  0
VERTEX
  8
0
 62
4
 10
2.73451793E+01
 20
1.29363452E+02
  0
VERTEX
  8
0
 62
4
 10
2.71839831E+01
 20
1.29425360E+02
  0
VERTEX
  8
0
 62
4
 10
2.70175809E+01
 20
1.29474006E+02
  0
VERTEX
  8
0
 62
4
 10
2.68472392E+01
 20
1.29509020E+02
  0
VERTEX
  8
0
 62
4
 10
2.66742543E+01
 20
1.29530135E+02
  0
VERTEX
  8
0
 62
4
 10
2.64999428E+01
 20
1.29537192E+02
  0
VERTEX
  8
0
 62
4
 10
2.63256313E+01
 20
1.29530135E+02
  0
VERTEX
  8
0
 62
4
 10
2.61526464E+01
 20
1.29509020E+02
  0
VERTEX
  8
0
 62
4
 10
2.59823047E+01
 20
1.29474006E+02
  0
VERTEX
  8
0
 62
4
 10
2.58159025E+01
 20
1.29425360E+02
  0
VERTEX
  8
0
 62
4
 10
2.56547063E+01
 20
1.29363452E+02
  0
VERTEX
  8
0
 62
4
 10
2.54999428E+01
 20
1.29288754E+02
  0
VERTEX
  8
0
 62
4
 10
2.53527899E+01
 20
1.29201833E+02
  0
VERTEX
  8
0
 62
4
 10
2.52143676E+01
 20
1.29103352E+02
  0
VERTEX
  8
0
 62
4
 10
2.50857292E+01
 20
1.28994060E+02
  0
VERTEX
  8
0
 62
4
 10
2.49678539E+01
 20
1.28874789E+02
  0
VERTEX
  8
0
 62
4
 10
2.48616387E+01
 20
1.28746446E+02
  0
VERTEX
  8
0
 62
4
 10
2.47678920E+01
 20
1.28610008E+02
  0
VERTEX
  8
0
 62
4
 10
2.46873272E+01
 20
1.28466514E+02
  0
VERTEX
  8
0
 62
4
 10
2.46205576E+01
 20
1.28317055E+02
  0
VERTEX
  8
0
 62
4
 10
2.45680911E+01
 20
1.28162770E+02
  0
VERTEX
  8
0
 62
4
 10
2.45303273E+01
 20
1.28004832E+02
  0
VERTEX
  8
0
 62
4
 10
2.45075534E+01
 20
1.27844443E+02
  0
VERTEX
  8
0
 62
4
 10
2.44999428E+01
 20
1.27682824E+02
  0
SEQEND
  8
0
  0
POLYLINE
  8
0
 62
6
 66
1
  0
VERTEX
  8
0
 62
6
 10
2.49999428E+01
 20
1.27682824E+02
  0
VERTEX
  8
0
 62
6
 10
2.50056508E+01
 20
1.27561610E+02
  0
VERTEX
  8
0
 62
6
 10
2.50227312E+01
 20
1.27441318E+02
  0
VERTEX
  8
0
 62
6
 10
2.50510541E+01
 20
1.27322865E+02
  0
VERTEX
  8
0
 62
6
 10
2.50904039E+01
 20
1.27207151E+02
  0
VERTEX
  8
0
 62
6
 10
2.51404811E+01
 20
1.27095057E+02
  0
VERTEX
  8
0
 62
6
 10
2.52009047E+01
 20
1.26987436E+02
  0
VERTEX
  8
0
 62
6
 10
2.52712147E+01
 20
1.26885108E+02
  0
VERTEX
  8
0
 62
6
 10
2.53508761E+01
 20
1.26788851E+02
  0
VERTEX
  8
0
 62
6
 10
2.54392826E+01
 20
1.26699397E+02
  0
VERTEX
  8
0
 62
6
 10
2.55357614E+01
 20
1.26617428E+02
  0
VERTEX
  8
0
 62
6
 10
2.56395781E+01
 20
1.26543567E+02
  0
VERTEX
  8
0
 62
6
 10
2.57499428E+01
 20
1.26478377E+02
  0
VERTEX
  8
0
 62
6
 10
2.58660154E+01
 20
1.26422353E+02
  0
VERTEX
  8
0
 62
6
 10
2.59869126E+01
 20
1.26375922E+02
  0
VERTEX
  8
0
 62
6
 10
2.61117142E+01
 20
1.26339438E+02
  0
VERTEX
  8
0
 62
6
 10
2.62394705E+01
 20
1.26313177E+02
  0
VERTEX
  8
0
 62
6
 10
2.63692092E+01
 20
1.26297341E+02
  0
VERTEX
  8
0
 62
6
 10
2.64999428E+01
 20
1.26292048E+02
  0
VERTEX
  8
0
 62
6
 10
2.66306764E+01
 20
1.26297341E+02
  0
VERTEX
  8
0
 62
6
 10
2.67604151E+01
 20
1.26313177E+02
  0
VERTEX
  8
0
 62
6
 10
2.68881714E+01
 20
1.26339438E+02
  0
VERTEX
  8
0
 62
6
 10
2.70129730E+01
 20
1.26375922E+02
  0
VERTEX
  8
0
 62
6
 10
2.71338702E+01
 20
1.26422353E+02
  0
VERTEX
  8
0
 62
6
 10
2.72499428E+01
 20
1.26478377E+02
  0
VERTEX
  8
0
 62
6
 10
2.73603075E+01
 20
1.26543567E+02
  0
VERTEX
  8
0
 62
6
 10
2.74641242E+01
 20
1.26617428E+02
  0
VERTEX
  8
0
 62
6
 10
2.75606030E+01
 20
1.26699397E+02
  0
VERTEX
  8
0
 62
6
 10
2.76490095E+01
 20
1.26788851E+02
  0
VERTEX
  8
0
 62
6
 10
2.77286709E+01
 20
1.26885108E+02
  0
VERTEX
  8
0
 62
6
 10
2.77989809E+01
 20
1.26987436E+02
  0
VERTEX
  8
0
 62
6
 10
2.78594045E+01
 20
1.27095057E+02
  0
VERTEX
  8
0
 62
6
 10
2.79094817E+01
 20
1.27207151E+02
  0
VERTEX
  8
0
 62
6
 10
2.79488315E+01
 20
1.27322865E+02
  0
VERTEX
  8
0
 62
6
 10
2.79771544E+01
 20
1.27441318E+02
  0
VERTEX
  8
0
 62
6
 10
2.79942348E+01
 20
1.27561610E+02
  0
VERTEX
  8
0
 62
6
 10
2.79999428E+01
 20
1.27682824E+02
  0
VERTEX
  8
0
 62
6
 10
2.79942348E+01
 20
1.27804038E+02
  0
VERTEX
  8
0
 62
6
 10
2.79771544E+01
 20
1.27924330E+02
  0
VERTEX
  8
0
 62
6
 10
2.79488315E+01
 20
1.28042783E+02
  0
VERTEX
  8
0
 62
6
 10
2.79094817E+01
 20
1.28158497E+02
  0
VERTEX
  8
0
 62
6
 10
2.78594045E+01
 20
1.28270591E+02
  0
VERTEX
  8
0
 62
6
 10
2.77989809E+01
 20
1.28378212E+02
  0
VERTEX
  8
0
 62
6
 10
2.77286709E+01
 20
1.28480540E+02
  0
VERTEX
  8
0
 62
6
 10
2.76490095E+01
 20
1.28576797E+02
  0
VERTEX
  8
0
 62
6
 10
2.75606030E+01
 20
1.28666251E+02
  0
VERTEX
  8
0
 62
6
 10
2.74641242E+01
 20
1.28748220E+02
  0
VERTEX
  8
0
 62
6
 10
2.73603075E+01
 20
1.28822081E+02
  0
VERTEX
  8
0
 62
6
 10
2.72499428E+01
 20
1.28887271E+02
  0
VERTEX
  8
0
 62
6
 10
2.71338702E+01
 20
1.28943295E+02
  0
VERTEX
  8
0
 62
6
 10
2.70129730E+01
 20
1.28989726E+02
  0
VERTEX
  8
0
 62
6
 10
2.68881714E+01
 20
1.29026210E+02
  0
VERTEX
  8
0
 62
6
 10
2.67604151E+01
 20
1.29052471E+02
  0
VERTEX
  8
0
 62
6
 10
2.66306764E+01
 20
1.29068307E+02
  0
VERTEX
  8
0
 62
6
 10
2.64999428E+01
 20
1.29073600E+02
  0
VERTEX
  8
0
 62
6
 10
2.63692092E+01
 20
1.29068307E+02
  0
VERTEX
  8
0
 62
6
 10
2.62394705E+01
 20
1.29052471E+02
  0
VERTEX
  8
0
 62
6
 10
2.61117142E+01
 20
1.29026210E+02
  0
VERTEX
  8
0
 62
6
 10
2.59869126E+01
 20
1.28989726E+02
  0
VERTEX
  8
0
 62
6
 10
2.58660154E+01
 20
1.28943295E+02
  0
VERTEX
  8
0
 62
6
 10
2.57499428E+01
 20
1.28887271E+02
  0
VERTEX
  8
0
 62
6
 10
2.56395781E+01
 20
1.28822081E+02
  0
VERTEX
  8
0
 62
6
 10
2.55357614E+01
 20
1.28748220E+02
  0
VERTEX
  8
0
 62
6
 10
2.54392826E+01
 20
1.28666251E+02
  0
VERTEX
  8
0
 62
6
 10
2.53508761E+01
 20
1.28576797E+02
  0
VERTEX
  8
0
 62
6
 10
2.52712147E+01
 20
1.28480540E+02
  0
VERTEX
  8
0
 62
6
 10
2.52009047E+01
 20
1.28378212E+02
  0
VERTEX
  8
0
 62
6
 10
2.51404811E+01
 20
1.28270591E+02
  0
VERTEX
  8
0
 62
6
 10
2.50904039E+01
 20
1.28158497E+02
  0
VERTEX
  8
0
 62
6
 10
2.50510541E+01
 20
1.28042783E+02
  0
VERTEX
  8
0
 62
6
 10
2.50227312E+01
 20
1.27924330E+02
  0
VERTEX
  8
0
 62
6
 10
2.50056508E+01
 20
1.27804038E+02
  0
VERTEX
  8
0
 62
6
 10
2.49999428E+01
 20
1.27682824E+02
  0
SEQEND
  8
0
  0
LINE
  8
0
 62
4
 10
2.64999428E+01
 20
1.28749086E+02
 11
2.54999428E+01
 21
1.28220591E+02
  0
LINE
  8
0
 62
4
 10
2.54999428E+01
 20
1.28220591E+02
 11
2.54999428E+01
 21
1.27145058E+02
  0
LINE
  8
0
 62
4
 10
2.54999428E+01
 20
1.27145058E+02
 11
2.64999428E+01
 21
1.26607291E+02
  0
LINE
  8
0
 62
4
 10
2.64999428E+01
 20
1.26607291E+02
 11
2.74999428E+01
 21
1.27145058E+02
  0
LINE
  8
0
 62
4
 10
2.74999428E+01
 20
1.27145058E+02
 11
2.74999428E+01
 21
1.28220591E+02
  0
LINE
  8
0
 62
4
 10
2.74999428E+01
 20
1.28220591E+02
 11
2.64999428E+01
 21
1.28749086E+02
  0
LINE
  8
0
 62
4
 10
1.94999428E+01
 20
1.28220591E+02
 11
1.84999428E+01
 21
1.28749086E+02
  0
LINE
  8
0
 62
4
 10
1.94999428E+01
 20
1.27145058E+02
 11
1.94999428E+01
 21
1.28220591E+02
  0
LINE
  8
0
 62
4
 10
1.84999428E+01
 20
1.26607291E+02
 11
1.94999428E+01
 21
1.27145058E+02
  0
LINE
  8
0
 62
4
 10
1.74999428E+01
 20
1.27145058E+02
 11
1.84999428E+01
 21
1.26607291E+02
  0
LINE
  8
0
 62
4
 10
1.74999428E+01
 20
1.28220591E+02
 11
1.74999428E+01
 21
1.27145058E+02
  0
LINE
  8
0
 62
4
 10
1.84999428E+01
 20
1.28749086E+02
 11
1.74999428E+01
 21
1.28220591E+02
  0
POLYLINE
  8
0
 62
6
 66
1
  0
VERTEX
  8
0
 62
6
 10
1.69999428E+01
 20
1.27682824E+02
  0
VERTEX
  8
0
 62
6
 10
1.70056508E+01
 20
1.27561610E+02
  0
VERTEX
  8
0
 62
6
 10
1.70227312E+01
 20
1.27441318E+02
  0
VERTEX
  8
0
 62
6
 10
1.70510541E+01
 20
1.27322865E+02
  0
VERTEX
  8
0
 62
6
 10
1.70904039E+01
 20
1.27207151E+02
  0
VERTEX
  8
0
 62
6
 10
1.71404811E+01
 20
1.27095057E+02
  0
VERTEX
  8
0
 62
6
 10
1.72009047E+01
 20
1.26987436E+02
  0
VERTEX
  8
0
 62
6
 10
1.72712147E+01
 20
1.26885108E+02
  0
VERTEX
  8
0
 62
6
 10
1.73508761E+01
 20
1.26788851E+02
  0
VERTEX
  8
0
 62
6
 10
1.74392826E+01
 20
1.26699397E+02
  0
VERTEX
  8
0
 62
6
 10
1.75357614E+01
 20
1.26617428E+02
  0
VERTEX
  8
0
 62
6
 10
1.76395781E+01
 20
1.26543567E+02
  0
VERTEX
  8
0
 62
6
 10
1.77499428E+01
 20
1.26478377E+02
  0
VERTEX
  8
0
 62
6
 10
1.78660154E+01
 20
1.26422353E+02
  0
VERTEX
  8
0
 62
6
 10
1.79869126E+01
 20
1.26375922E+02
  0
VERTEX
  8
0
 62
6
 10
1.81117142E+01
 20
1.26339438E+02
  0
VERTEX
  8
0
 62
6
 10
1.82394705E+01
 20
1.26313177E+02
  0
VERTEX
  8
0
 62
6
 10
1.83692092E+01
 20
1.26297341E+02
  0
VERTEX
  8
0
 62
6
 10
1.84999428E+01
 20
1.26292048E+02
  0
VERTEX
  8
0
 62
6
 10
1.86306764E+01
 20
1.26297341E+02
  0
VERTEX
  8
0
 62
6
 10
1.87604151E+01
 20
1.26313177E+02
  0
VERTEX
  8
0
 62
6
 10
1.88881714E+01
 20
1.26339438E+02
  0
VERTEX
  8
0
 62
6
 10
1.90129730E+01
 20
1.26375922E+02
  0
VERTEX
  8
0
 62
6
 10
1.91338702E+01
 20
1.26422353E+02
  0
VERTEX
  8
0
 62
6
 10
1.92499428E+01
 20
1.26478377E+02
  0
VERTEX
  8
0
 62
6
 10
1.93603075E+01
 20
1.26543567E+02
  0
VERTEX
  8
0
 62
6
 10
1.94641242E+01
 20
1.26617428E+02
  0
VERTEX
  8
0
 62
6
 10
1.95606030E+01
 20
1.26699397E+02
  0
VERTEX
  8
0
 62
6
 10
1.96490095E+01
 20
1.26788851E+02
  0
VERTEX
  8
0
 62
6
 10
1.97286709E+01
 20
1.26885108E+02
  0
VERTEX
  8
0
 62
6
 10
1.97989809E+01
 20
1.26987436E+02
  0
VERTEX
  8
0
 62
6
 10
1.98594045E+01
 20
1.27095057E+02
  0
VERTEX
  8
0
 62
6
 10
1.99094817E+01
 20
1.27207151E+02
  0
VERTEX
  8
0
 62
6
 10
1.99488315E+01
 20
1.27322865E+02
  0
VERTEX
  8
0
 62
6
 10
1.99771544E+01
 20
1.27441318E+02
  0
VERTEX
  8
0
 62
6
 10
1.99942348E+01
 20
1.27561610E+02
  0
VERTEX
  8
0
 62
6
 10
1.99999428E+01
 20
1.27682824E+02
  0
VERTEX
  8
0
 62
6
 10
1.99942348E+01
 20
1.27804038E+02
  0
VERTEX
  8
0
 62
6
 10
1.99771544E+01
 20
1.27924330E+02
  0
VERTEX
  8
0
 62
6
 10
1.99488315E+01
 20
1.28042783E+02
  0
VERTEX
  8
0
 62
6
 10
1.99094817E+01
 20
1.28158497E+02
  0
VERTEX
  8
0
 62
6
 10
1.98594045E+01
 20
1.28270591E+02
  0
VERTEX
  8
0
 62
6
 10
1.97989809E+01
 20
1.28378212E+02
  0
VERTEX
  8
0
 62
6
 10
1.97286709E+01
 20
1.28480540E+02
  0
VERTEX
  8
0
 62
6
 10
1.96490095E+01
 20
1.28576797E+02
  0
VERTEX
  8
0
 62
6
 10
1.95606030E+01
 20
1.28666251E+02
  0
VERTEX
  8
0
 62
6
 10
1.94641242E+01
 20
1.28748220E+02
  0
VERTEX
  8
0
 62
6
 10
1.93603075E+01
 20
1.28822081E+02
  0
VERTEX
  8
0
 62
6
 10
1.92499428E+01
 20
1.28887271E+02
  0
VERTEX
  8
0
 62
6
 10
1.91338702E+01
 20
1.28943295E+02
  0
VERTEX
  8
0
 62
6
 10
1.90129730E+01
 20
1.28989726E+02
  0
VERTEX
  8
0
 62
6
 10
1.88881714E+01
 20
1.29026210E+02
  0
VERTEX
  8
0
 62
6
 10
1.87604151E+01
 20
1.29052471E+02
  0
VERTEX
  8
0
 62
6
 10
1.86306764E+01
 20
1.29068307E+02
  0
VERTEX
  8
0
 62
6
 10
1.84999428E+01
 20
1.29073600E+02
  0
VERTEX
  8
0
 62
6
 10
1.83692092E+01
 20
1.29068307E+02
  0
VERTEX
  8
0
 62
6
 10
1.82394705E+01
 20
1.29052471E+02
  0
VERTEX
  8
0
 62
6
 10
1.81117142E+01
 20
1.29026210E+02
  0
VERTEX
  8
0
 62
6
 10
1.79869126E+01
 20
1.28989726E+02
  0
VERTEX
  8
0
 62
6
 10
1.78660154E+01
 20
1.28943295E+02
  0
VERTEX
  8
0
 62
6
 10
1.77499428E+01
 20
1.28887271E+02
  0
VERTEX
  8
0
 62
6
 10
1.76395781E+01
 20
1.28822081E+02
  0
VERTEX
  8
0
 62
6
 10
1.75357614E+01
 20
1.28748220E+02
  0
VERTEX
  8
0
 62
6
 10
1.74392826E+01
 20
1.28666251E+02
  0
VERTEX
  8
0
 62
6
 10
1.73508761E+01
 20
1.28576797E+02
  0
VERTEX
  8
0
 62
6
 10
1.72712147E+01
 20
1.28480540E+02
  0
VERTEX
  8
0
 62
6
 10
1.72009047E+01
 20
1.28378212E+02
  0
VERTEX
  8
0
 62
6
 10
1.71404811E+01
 20
1.28270591E+02
  0
VERTEX
  8
0
 62
6
 10
1.70904039E+01
 20
1.28158497E+02
  0
VERTEX
  8
0
 62
6
 10
1.70510541E+01
 20
1.28042783E+02
  0
VERTEX
  8
0
 62
6
 10
1.70227312E+01
 20
1.27924330E+02
  0
VERTEX
  8
0
 62
6
 10
1.70056508E+01
 20
1.27804038E+02
  0
VERTEX
  8
0
 62
6
 10
1.69999428E+01
 20
1.27682824E+02
  0
SEQEND
  8
0
  0
POLYLINE
  8
0
 62
4
 66
1
  0
VERTEX
  8
0
 62
4
 10
1.64999428E+01
 20
1.27682824E+02
  0
VERTEX
  8
0
 62
4
 10
1.65075534E+01
 20
1.27521205E+02
  0
VERTEX
  8
0
 62
4
 10
1.65303273E+01
 20
1.27360816E+02
  0
VERTEX
  8
0
 62
4
 10
1.65680911E+01
 20
1.27202878E+02
  0
VERTEX
  8
0
 62
4
 10
1.66205576E+01
 20
1.27048593E+02
  0
VERTEX
  8
0
 62
4
 10
1.66873272E+01
 20
1.26899134E+02
  0
VERTEX
  8
0
 62
4
 10
1.67678920E+01
 20
1.26755640E+02
  0
VERTEX
  8
0
 62
4
 10
1.68616387E+01
 20
1.26619202E+02
  0
VERTEX
  8
0
 62
4
 10
1.69678539E+01
 20
1.26490859E+02
  0
VERTEX
  8
0
 62
4
 10
1.70857292E+01
 20
1.26371588E+02
  0
VERTEX
  8
0
 62
4
 10
1.72143676E+01
 20
1.26262296E+02
  0
VERTEX
  8
0
 62
4
 10
1.73527899E+01
 20
1.26163815E+02
  0
VERTEX
  8
0
 62
4
 10
1.74999428E+01
 20
1.26076894E+02
  0
VERTEX
  8
0
 62
4
 10
1.76547063E+01
 20
1.26002196E+02
  0
VERTEX
  8
0
 62
4
 10
1.78159025E+01
 20
1.25940288E+02
  0
VERTEX
  8
0
 62
4
 10
1.79823047E+01
 20
1.25891642E+02
  0
VERTEX
  8
0
 62
4
 10
1.81526464E+01
 20
1.25856628E+02
  0
VERTEX
  8
0
 62
4
 10
1.83256313E+01
 20
1.25835513E+02
  0
VERTEX
  8
0
 62
4
 10
1.84999428E+01
 20
1.25828456E+02
  0
VERTEX
  8
0
 62
4
 10
1.86742543E+01
 20
1.25835513E+02
  0
VERTEX
  8
0
 62
4
 10
1.88472392E+01
 20
1.25856628E+02
  0
VERTEX
  8
0
 62
4
 10
1.90175809E+01
 20
1.25891642E+02
  0
VERTEX
  8
0
 62
4
 10
1.91839831E+01
 20
1.25940288E+02
  0
VERTEX
  8
0
 62
4
 10
1.93451793E+01
 20
1.26002196E+02
  0
VERTEX
  8
0
 62
4
 10
1.94999428E+01
 20
1.26076894E+02
  0
VERTEX
  8
0
 62
4
 10
1.96470957E+01
 20
1.26163815E+02
  0
VERTEX
  8
0
 62
4
 10
1.97855180E+01
 20
1.26262296E+02
  0
VERTEX
  8
0
 62
4
 10
1.99141564E+01
 20
1.26371588E+02
  0
VERTEX
  8
0
 62
4
 10
2.00320317E+01
 20
1.26490859E+02
  0
VERTEX
  8
0
 62
4
 10
2.01382469E+01
 20
1.26619202E+02
  0
VERTEX
  8
0
 62
4
 10
2.02319936E+01
 20
1.26755640E+02
  0
VERTEX
  8
0
 62
4
 10
2.03125584E+01
 20
1.26899134E+02
  0
VERTEX
  8
0
 62
4
 10
2.03793280E+01
 20
1.27048593E+02
  0
VERTEX
  8
0
 62
4
 10
2.04317945E+01
 20
1.27202878E+02
  0
VERTEX
  8
0
 62
4
 10
2.04695583E+01
 20
1.27360816E+02
  0
VERTEX
  8
0
 62
4
 10
2.04923322E+01
 20
1.27521205E+02
  0
VERTEX
  8
0
 62
4
 10
2.04999428E+01
 20
1.27682824E+02
  0
VERTEX
  8
0
 62
4
 10
2.04923322E+01
 20
1.27844443E+02
  0
VERTEX
  8
0
 62
4
 10
2.04695583E+01
 20
1.28004832E+02
  0
VERTEX
  8
0
 62
4
 10
2.04317945E+01
 20
1.28162770E+02
  0
VERTEX
  8
0
 62
4
 10
2.03793280E+01
 20
1.28317055E+02
  0
VERTEX
  8
0
 62
4
 10
2.03125584E+01
 20
1.28466514E+02
  0
VERTEX
  8
0
 62
4
 10
2.02319936E+01
 20
1.28610008E+02
  0
VERTEX
  8
0
 62
4
 10
2.01382469E+01
 20
1.28746446E+02
  0
VERTEX
  8
0
 62
4
 10
2.00320317E+01
 20
1.28874789E+02
  0
VERTEX
  8
0
 62
4
 10
1.99141564E+01
 20
1.28994060E+02
  0
VERTEX
  8
0
 62
4
 10
1.97855180E+01
 20
1.29103352E+02
  0
VERTEX
  8
0
 62
4
 10
1.96470957E+01
 20
1.29201833E+02
  0
VERTEX
  8
0
 62
4
 10
1.94999428E+01
 20
1.29288754E+02
  0
VERTEX
  8
0
 62
4
 10
1.93451793E+01
 20
1.29363452E+02
  0
VERTEX
  8
0
 62
4
 10
1.91839831E+01
 20
1.29425360E+02
  0
VERTEX
  8
0
 62
4
 10
1.90175809E+01
 20
1.29474006E+02
  0
VERTEX
  8
0
 62
4
 10
1.88472392E+01
 20
1.29509020E+02
  0
VERTEX
  8
0
 62
4
 10
1.86742543E+01
 20
1.29530135E+02
  0
VERTEX
  8
0
 62
4
 10
1.84999428E+01
 20
1.29537192E+02
  0
VERTEX
  8
0
 62
4
 10
1.83256313E+01
 20
1.29530135E+02
  0
VERTEX
  8
0
 62
4
 10
1.81526464E+01
 20
1.29509020E+02
  0
VERTEX
  8
0
 62
4
 10
1.79823047E+01
 20
1.29474006E+02
  0
VERTEX
  8
0
 62
4
 10
1.78159025E+01
 20
1.29425360E+02
  0
VERTEX
  8
0
 62
4
 10
1.76547063E+01
 20
1.29363452E+02
  0
VERTEX
  8
0
 62
4
 10
1.74999428E+01
 20
1.29288754E+02
  0
VERTEX
  8
0
 62
4
 10
1.73527899E+01
 20
1.29201833E+02
  0
VERTEX
  8
0
 62
4
 10
1.72143676E+01
 20
1.29103352E+02
  0
VERTEX
  8
0
 62
4
 10
1.70857292E+01
 20
1.28994060E+02
  0
VERTEX
  8
0
 62
4
 10
1.69678539E+01
 20
1.28874789E+02
  0
VERTEX
  8
0
 62
4
 10
1.68616387E+01
 20
1.28746446E+02
  0
VERTEX
  8
0
 62
4
 10
1.67678920E+01
 20
1.28610008E+02
  0
VERTEX
  8
0
 62
4
 10
1.66873272E+01
 20
1.28466514E+02
  0
VERTEX
  8
0
 62
4
 10
1.66205576E+01
 20
1.28317055E+02
  0
VERTEX
  8
0
 62
4
 10
1.65680911E+01
 20
1.28162770E+02
  0
VERTEX
  8
0
 62
4
 10
1.65303273E+01
 20
1.28004832E+02
  0
VERTEX
  8
0
 62
4
 10
1.65075534E+01
 20
1.27844443E+02
  0
VERTEX
  8
0
 62
4
 10
1.64999428E+01
 20
1.27682824E+02
  0
SEQEND
  8
0
  0
LINE
  8
0
 62
4
 10
2.04999428E+01
 20
1.27682824E+02
 11
2.04999428E+01
 21
1.29159701E+02
  0
LINE
  8
0
 62
4
 10
1.64999428E+01
 20
1.27682824E+02
 11
1.64999428E+01
 21
1.29159701E+02
  0
POLYLINE
  8
0
 62
4
 66
1
  0
VERTEX
  8
0
 62
4
 10
2.04999428E+01
 20
1.29159701E+02
  0
VERTEX
  8
0
 62
4
 10
2.04918914E+01
 20
1.29325925E+02
  0
VERTEX
  8
0
 62
4
 10
2.04678020E+01
 20
1.29490811E+02
  0
VERTEX
  8
0
 62
4
 10
2.04278685E+01
 20
1.29653031E+02
  0
VERTEX
  8
0
 62
4
 10
2.03724125E+01
 20
1.29811279E+02
  0
VERTEX
  8
0
 62
4
 10
2.03018805E+01
 20
1.29964281E+02
  0
VERTEX
  8
0
 62
4
 10
2.02168404E+01
 20
1.30110805E+02
  0
VERTEX
  8
0
 62
4
 10
2.01179768E+01
 20
1.30249671E+02
  0
VERTEX
  8
0
 62
4
 10
2.00060857E+01
 20
1.30379761E+02
  0
VERTEX
  8
0
 62
4
 10
1.98820681E+01
 20
1.30500028E+02
  0
VERTEX
  8
0
 62
4
 10
1.97469224E+01
 20
1.30609504E+02
  0
VERTEX
  8
0
 62
4
 10
1.96017368E+01
 20
1.30707307E+02
  0
VERTEX
  8
0
 62
4
 10
1.94476801E+01
 20
1.30792649E+02
  0
VERTEX
  8
0
 62
4
 10
1.92859929E+01
 20
1.30864844E+02
  0
VERTEX
  8
0
 62
4
 10
1.91179768E+01
 20
1.30923309E+02
  0
VERTEX
  8
0
 62
4
 10
1.89449847E+01
 20
1.30967576E+02
  0
VERTEX
  8
0
 62
4
 10
1.87684093E+01
 20
1.30997286E+02
  0
VERTEX
  8
0
 62
4
 10
1.85896725E+01
 20
1.31012201E+02
  0
VERTEX
  8
0
 62
4
 10
1.84102132E+01
 20
1.31012201E+02
  0
VERTEX
  8
0
 62
4
 10
1.82314763E+01
 20
1.30997286E+02
  0
VERTEX
  8
0
 62
4
 10
1.80549009E+01
 20
1.30967576E+02
  0
VERTEX
  8
0
 62
4
 10
1.78819088E+01
 20
1.30923309E+02
  0
VERTEX
  8
0
 62
4
 10
1.77138928E+01
 20
1.30864844E+02
  0
VERTEX
  8
0
 62
4
 10
1.75522055E+01
 20
1.30792649E+02
  0
VERTEX
  8
0
 62
4
 10
1.73981489E+01
 20
1.30707307E+02
  0
VERTEX
  8
0
 62
4
 10
1.72529632E+01
 20
1.30609504E+02
  0
VERTEX
  8
0
 62
4
 10
1.71178175E+01
 20
1.30500028E+02
  0
VERTEX
  8
0
 62
4
 10
1.69937999E+01
 20
1.30379761E+02
  0
VERTEX
  8
0
 62
4
 10
1.68819088E+01
 20
1.30249671E+02
  0
VERTEX
  8
0
 62
4
 10
1.67830452E+01
 20
1.30110805E+02
  0
VERTEX
  8
0
 62
4
 10
1.66980051E+01
 20
1.29964281E+02
  0
VERTEX
  8
0
 62
4
 10
1.66274731E+01
 20
1.29811279E+02
  0
VERTEX
  8
0
 62
4
 10
1.65720171E+01
 20
1.29653031E+02
  0
VERTEX
  8
0
 62
4
 10
1.65320836E+01
 20
1.29490811E+02
  0
VERTEX
  8
0
 62
4
 10
1.65079942E+01
 20
1.29325925E+02
  0
VERTEX
  8
0
 62
4
 10
1.64999428E+01
 20
1.29159701E+02
  0
SEQEND
  8
0
  0
LINE
  8
0
 62
4
 10
-4.55000343E+01
 20
1.45197451E+02
 11
-4.55000343E+01
 21
1.44000000E+02
  0
LINE
  8
0
 62
4
 10
-2.05000343E+01
 20
1.46330009E+02
 11
-2.05000343E+01
 21
1.44000000E+02
  0
LINE
  8
0
  6
CENTER
 62
6
 10
-2.43500343E+01
 20
1.48943921E+02
 11
-3.36500343E+01
 21
1.48943921E+02
  0
LINE
  8
0
  6
CENTER
 62
6
 10
-2.90000343E+01
 20
1.53593921E+02
 11
-2.90000343E+01
 21
1.44293921E+02
  0
LINE
  8
0
  6
CENTER
 62
6
 10
-3.29254374E+01
 20
1.52189064E+02
 11
-4.00746312E+01
 21
1.52189064E+02
  0
LINE
  8
0
  6
CENTER
 62
6
 10
-3.65000343E+01
 20
1.55763661E+02
 11
-3.65000343E+01
 21
1.48614467E+02
  0
LINE
  8
0
  6
CENTER
 62
6
 10
-1.67000344E+01
 20
1.52189064E+02
 11
-2.63000344E+01
 21
1.52189064E+02
  0
LINE
  8
0
  6
CENTER
 62
6
 10
-2.15000343E+01
 20
1.56989064E+02
 11
-2.15000343E+01
 21
1.47389064E+02
  0
LINE
  8
0
 62
4
 10
-4.40000343E+01
 20
1.56361392E+02
 11
-1.40000343E+01
 21
1.56361392E+02
  0
LINE
  8
0
 62
4
 10
-4.40000343E+01
 20
1.46718680E+02
 11
-3.22714231E+01
 21
1.46718680E+02
  0
LINE
  8
0
 62
4
 10
-4.40000343E+01
 20
1.46330009E+02
 11
-3.18957912E+01
 21
1.46330009E+02
  0
LINE
  8
0
 62
4
 10
-4.40000343E+01
 20
1.46330009E+02
 11
-4.55000343E+01
 21
1.45197451E+02
  0
LINE
  8
0
 62
4
 10
-3.31500343E+01
 20
1.49086271E+02
 11
-3.31500343E+01
 21
1.49745579E+02
  0
POLYLINE
  8
0
 62
4
 66
1
  0
VERTEX
  8
0
 62
4
 10
-3.31500343E+01
 20
1.49086271E+02
  0
VERTEX
  8
0
 62
4
 10
-3.31333276E+01
 20
1.48741356E+02
  0
VERTEX
  8
0
 62
4
 10
-3.30833421E+01
 20
1.48399217E+02
  0
VERTEX
  8
0
 62
4
 10
-3.30004802E+01
 20
1.48062611E+02
  0
VERTEX
  8
0
 62
4
 10
-3.28854090E+01
 20
1.47734246E+02
  0
VERTEX
  8
0
 62
4
 10
-3.27390551E+01
 20
1.47416768E+02
  0
VERTEX
  8
0
 62
4
 10
-3.25625968E+01
 20
1.47112731E+02
  0
VERTEX
  8
0
 62
4
 10
-3.23574548E+01
 20
1.46824583E+02
  0
VERTEX
  8
0
 62
4
 10
-3.21252809E+01
 20
1.46554646E+02
  0
VERTEX
  8
0
 62
4
 10
-3.18679443E+01
 20
1.46305092E+02
  0
VERTEX
  8
0
 62
4
 10
-3.15875170E+01
 20
1.46077930E+02
  0
VERTEX
  8
0
 62
4
 10
-3.12862568E+01
 20
1.45874989E+02
  0
VERTEX
  8
0
 62
4
 10
-3.09665893E+01
 20
1.45697904E+02
  0
VERTEX
  8
0
 62
4
 10
-3.06310882E+01
 20
1.45548100E+02
  0
VERTEX
  8
0
 62
4
 10
-3.02824548E+01
 20
1.45426783E+02
  0
VERTEX
  8
0
 62
4
 10
-2.99234962E+01
 20
1.45334931E+02
  0
VERTEX
  8
0
 62
4
 10
-2.95571024E+01
 20
1.45273282E+02
  0
VERTEX
  8
0
 62
4
 10
-2.91862234E+01
 20
1.45242332E+02
  0
VERTEX
  8
0
 62
4
 10
-2.88138453E+01
 20
1.45242332E+02
  0
VERTEX
  8
0
 62
4
 10
-2.84429663E+01
 20
1.45273282E+02
  0
VERTEX
  8
0
 62
4
 10
-2.80765724E+01
 20
1.45334931E+02
  0
VERTEX
  8
0
 62
4
 10
-2.77176138E+01
 20
1.45426783E+02
  0
VERTEX
  8
0
 62
4
 10
-2.73689804E+01
 20
1.45548100E+02
  0
VERTEX
  8
0
 62
4
 10
-2.70334794E+01
 20
1.45697904E+02
  0
VERTEX
  8
0
 62
4
 10
-2.67138118E+01
 20
1.45874989E+02
  0
VERTEX
  8
0
 62
4
 10
-2.64125516E+01
 20
1.46077930E+02
  0
VERTEX
  8
0
 62
4
 10
-2.61321243E+01
 20
1.46305092E+02
  0
VERTEX
  8
0
 62
4
 10
-2.58747877E+01
 20
1.46554646E+02
  0
VERTEX
  8
0
 62
4
 10
-2.56426138E+01
 20
1.46824583E+02
  0
VERTEX
  8
0
 62
4
 10
-2.54374718E+01
 20
1.47112730E+02
  0
VERTEX
  8
0
 62
4
 10
-2.52610135E+01
 20
1.47416767E+02
  0
VERTEX
  8
0
 62
4
 10
-2.51146596E+01
 20
1.47734246E+02
  0
VERTEX
  8
0
 62
4
 10
-2.49995884E+01
 20
1.48062611E+02
  0
VERTEX
  8
0
 62
4
 10
-2.49167265E+01
 20
1.48399217E+02
  0
VERTEX
  8
0
 62
4
 10
-2.48667410E+01
 20
1.48741356E+02
  0
VERTEX
  8
0
 62
4
 10
-2.48500343E+01
 20
1.49086271E+02
  0
SEQEND
  8
0
  0
POLYLINE
  8
0
 62
4
 66
1
  0
VERTEX
  8
0
 62
4
 10
-3.31500343E+01
 20
1.49745579E+02
  0
VERTEX
  8
0
 62
4
 10
-3.31342423E+01
 20
1.49410220E+02
  0
VERTEX
  8
0
 62
4
 10
-3.30869865E+01
 20
1.49077413E+02
  0
VERTEX
  8
0
 62
4
 10
-3.30086265E+01
 20
1.48749692E+02
  0
VERTEX
  8
0
 62
4
 10
-3.28997587E+01
 20
1.48429549E+02
  0
VERTEX
  8
0
 62
4
 10
-3.27612116E+01
 20
1.48119423E+02
  0
VERTEX
  8
0
 62
4
 10
-3.25940397E+01
 20
1.47821673E+02
  0
VERTEX
  8
0
 62
4
 10
-3.23995153E+01
 20
1.47538564E+02
  0
VERTEX
  8
0
 62
4
 10
-3.21791187E+01
 20
1.47272252E+02
  0
VERTEX
  8
0
 62
4
 10
-3.19345275E+01
 20
1.47024764E+02
  0
VERTEX
  8
0
 62
4
 10
-3.16676029E+01
 20
1.46797983E+02
  0
VERTEX
  8
0
 62
4
 10
-3.13803765E+01
 20
1.46593635E+02
  0
VERTEX
  8
0
 62
4
 10
-3.10750343E+01
 20
1.46413275E+02
  0
VERTEX
  8
0
 62
4
 10
-3.07539001E+01
 20
1.46258276E+02
  0
VERTEX
  8
0
 62
4
 10
-3.04194179E+01
 20
1.46129818E+02
  0
VERTEX
  8
0
 62
4
 10
-3.00741333E+01
 20
1.46028877E+02
  0
VERTEX
  8
0
 62
4
 10
-2.97206742E+01
 20
1.45956223E+02
  0
VERTEX
  8
0
 62
4
 10
-2.93617306E+01
 20
1.45912408E+02
  0
VERTEX
  8
0
 62
4
 10
-2.90000343E+01
 20
1.45897766E+02
  0
VERTEX
  8
0
 62
4
 10
-2.86383380E+01
 20
1.45912408E+02
  0
VERTEX
  8
0
 62
4
 10
-2.82793944E+01
 20
1.45956223E+02
  0
VERTEX
  8
0
 62
4
 10
-2.79259353E+01
 20
1.46028877E+02
  0
VERTEX
  8
0
 62
4
 10
-2.75806507E+01
 20
1.46129818E+02
  0
VERTEX
  8
0
 62
4
 10
-2.72461685E+01
 20
1.46258276E+02
  0
VERTEX
  8
0
 62
4
 10
-2.69250343E+01
 20
1.46413275E+02
  0
VERTEX
  8
0
 62
4
 10
-2.66196921E+01
 20
1.46593635E+02
  0
VERTEX
  8
0
 62
4
 10
-2.63324657E+01
 20
1.46797983E+02
  0
VERTEX
  8
0
 62
4
 10
-2.60655412E+01
 20
1.47024764E+02
  0
VERTEX
  8
0
 62
4
 10
-2.58209499E+01
 20
1.47272252E+02
  0
VERTEX
  8
0
 62
4
 10
-2.56005533E+01
 20
1.47538564E+02
  0
VERTEX
  8
0
 62
4
 10
-2.54060289E+01
 20
1.47821672E+02
  0
VERTEX
  8
0
 62
4
 10
-2.52388570E+01
 20
1.48119423E+02
  0
VERTEX
  8
0
 62
4
 10
-2.51003099E+01
 20
1.48429549E+02
  0
VERTEX
  8
0
 62
4
 10
-2.49914421E+01
 20
1.48749692E+02
  0
VERTEX
  8
0
 62
4
 10
-2.49130821E+01
 20
1.49077413E+02
  0
VERTEX
  8
0
 62
4
 10
-2.48658263E+01
 20
1.49410220E+02
  0
VERTEX
  8
0
 62
4
 10
-2.48500343E+01
 20
1.49745579E+02
  0
VERTEX
  8
0
 62
4
 10
-2.48658263E+01
 20
1.50080938E+02
  0
VERTEX
  8
0
 62
4
 10
-2.49130821E+01
 20
1.50413745E+02
  0
VERTEX
  8
0
 62
4
 10
-2.49914421E+01
 20
1.50741466E+02
  0
VERTEX
  8
0
 62
4
 10
-2.51003099E+01
 20
1.51061609E+02
  0
VERTEX
  8
0
 62
4
 10
-2.52388570E+01
 20
1.51371735E+02
  0
VERTEX
  8
0
 62
4
 10
-2.54060289E+01
 20
1.51669485E+02
  0
VERTEX
  8
0
 62
4
 10
-2.56005533E+01
 20
1.51952594E+02
  0
VERTEX
  8
0
 62
4
 10
-2.58209499E+01
 20
1.52218906E+02
  0
VERTEX
  8
0
 62
4
 10
-2.60655412E+01
 20
1.52466394E+02
  0
VERTEX
  8
0
 62
4
 10
-2.63324657E+01
 20
1.52693175E+02
  0
VERTEX
  8
0
 62
4
 10
-2.66196921E+01
 20
1.52897523E+02
  0
VERTEX
  8
0
 62
4
 10
-2.69250343E+01
 20
1.53077883E+02
  0
VERTEX
  8
0
 62
4
 10
-2.72461685E+01
 20
1.53232882E+02
  0
VERTEX
  8
0
 62
4
 10
-2.75806507E+01
 20
1.53361340E+02
  0
VERTEX
  8
0
 62
4
 10
-2.79259353E+01
 20
1.53462281E+02
  0
VERTEX
  8
0
 62
4
 10
-2.82793944E+01
 20
1.53534935E+02
  0
VERTEX
  8
0
 62
4
 10
-2.86383380E+01
 20
1.53578750E+02
  0
VERTEX
  8
0
 62
4
 10
-2.90000343E+01
 20
1.53593392E+02
  0
VERTEX
  8
0
 62
4
 10
-2.93617306E+01
 20
1.53578750E+02
  0
VERTEX
  8
0
 62
4
 10
-2.97206742E+01
 20
1.53534935E+02
  0
VERTEX
  8
0
 62
4
 10
-3.00741333E+01
 20
1.53462281E+02
  0
VERTEX
  8
0
 62
4
 10
-3.04194179E+01
 20
1.53361340E+02
  0
VERTEX
  8
0
 62
4
 10
-3.07539001E+01
 20
1.53232882E+02
  0
VERTEX
  8
0
 62
4
 10
-3.10750343E+01
 20
1.53077883E+02
  0
VERTEX
  8
0
 62
4
 10
-3.13803765E+01
 20
1.52897523E+02
  0
VERTEX
  8
0
 62
4
 10
-3.16676029E+01
 20
1.52693175E+02
  0
VERTEX
  8
0
 62
4
 10
-3.19345274E+01
 20
1.52466394E+02
  0
VERTEX
  8
0
 62
4
 10
-3.21791187E+01
 20
1.52218906E+02
  0
VERTEX
  8
0
 62
4
 10
-3.23995153E+01
 20
1.51952594E+02
  0
VERTEX
  8
0
 62
4
 10
-3.25940397E+01
 20
1.51669486E+02
  0
VERTEX
  8
0
 62
4
 10
-3.27612116E+01
 20
1.51371735E+02
  0
VERTEX
  8
0
 62
4
 10
-3.28997587E+01
 20
1.51061609E+02
  0
VERTEX
  8
0
 62
4
 10
-3.30086265E+01
 20
1.50741466E+02
  0
VERTEX
  8
0
 62
4
 10
-3.30869865E+01
 20
1.50413745E+02
  0
VERTEX
  8
0
 62
4
 10
-3.31342423E+01
 20
1.50080938E+02
  0
VERTEX
  8
0
 62
4
 10
-3.31500343E+01
 20
1.49745579E+02
  0
SEQEND
  8
0
  0
LINE
  8
0
 62
4
 10
-2.48500343E+01
 20
1.49086271E+02
 11
-2.48500343E+01
 21
1.49745579E+02
  0
ARC
  8
0
 62
4
 10
2.55365478E+01
 20
9.11661273E+01
 40
8.02368575E+01
 50
1.31121885E+02
 51
1.34565706E+02
  0
ARC
  8
0
 62
4
 10
-8.35364848E+01
 20
9.11662695E+01
 40
8.02366638E+01
 50
4.54342898E+01
 51
4.88781190E+01
  0
POLYLINE
  8
0
 62
4
 66
1
  0
VERTEX
  8
0
 62
4
 10
-2.53000343E+01
 20
1.52189064E+02
  0
VERTEX
  8
0
 62
4
 10
-2.52847366E+01
 20
1.51873238E+02
  0
VERTEX
  8
0
 62
4
 10
-2.52389668E+01
 20
1.51559955E+02
  0
VERTEX
  8
0
 62
4
 10
-2.51630932E+01
 20
1.51251737E+02
  0
VERTEX
  8
0
 62
4
 10
-2.50577268E+01
 20
1.50951066E+02
  0
VERTEX
  8
0
 62
4
 10
-2.49237160E+01
 20
1.50660362E+02
  0
VERTEX
  8
0
 62
4
 10
-2.47621397E+01
 20
1.50381967E+02
  0
VERTEX
  8
0
 62
4
 10
-2.45742989E+01
 20
1.50118121E+02
  0
VERTEX
  8
0
 62
4
 10
-2.43617059E+01
 20
1.49870949E+02
  0
VERTEX
  8
0
 62
4
 10
-2.41260724E+01
 20
1.49642442E+02
  0
VERTEX
  8
0
 62
4
 10
-2.38692956E+01
 20
1.49434438E+02
  0
VERTEX
  8
0
 62
4
 10
-2.35934429E+01
 20
1.49248613E+02
  0
VERTEX
  8
0
 62
4
 10
-2.33007352E+01
 20
1.49086463E+02
  0
VERTEX
  8
0
 62
4
 10
-2.29935294E+01
 20
1.48949293E+02
  0
VERTEX
  8
0
 62
4
 10
-2.26742989E+01
 20
1.48838208E+02
  0
VERTEX
  8
0
 62
4
 10
-2.23456139E+01
 20
1.48754102E+02
  0
VERTEX
  8
0
 62
4
 10
-2.20101207E+01
 20
1.48697652E+02
  0
VERTEX
  8
0
 62
4
 10
-2.16705207E+01
 20
1.48669313E+02
  0
VERTEX
  8
0
 62
4
 10
-2.13295480E+01
 20
1.48669313E+02
  0
VERTEX
  8
0
 62
4
 10
-2.09899479E+01
 20
1.48697652E+02
  0
VERTEX
  8
0
 62
4
 10
-2.06544548E+01
 20
1.48754102E+02
  0
VERTEX
  8
0
 62
4
 10
-2.03257697E+01
 20
1.48838208E+02
  0
VERTEX
  8
0
 62
4
 10
-2.00065392E+01
 20
1.48949293E+02
  0
VERTEX
  8
0
 62
4
 10
-1.96993334E+01
 20
1.49086463E+02
  0
VERTEX
  8
0
 62
4
 10
-1.94066258E+01
 20
1.49248613E+02
  0
VERTEX
  8
0
 62
4
 10
-1.91307731E+01
 20
1.49434438E+02
  0
VERTEX
  8
0
 62
4
 10
-1.88739962E+01
 20
1.49642442E+02
  0
VERTEX
  8
0
 62
4
 10
-1.86383627E+01
 20
1.49870949E+02
  0
VERTEX
  8
0
 62
4
 10
-1.84257697E+01
 20
1.50118121E+02
  0
VERTEX
  8
0
 62
4
 10
-1.82379289E+01
 20
1.50381967E+02
  0
VERTEX
  8
0
 62
4
 10
-1.80763526E+01
 20
1.50660362E+02
  0
VERTEX
  8
0
 62
4
 10
-1.79423418E+01
 20
1.50951066E+02
  0
VERTEX
  8
0
 62
4
 10
-1.78369754E+01
 20
1.51251737E+02
  0
VERTEX
  8
0
 62
4
 10
-1.77611018E+01
 20
1.51559955E+02
  0
VERTEX
  8
0
 62
4
 10
-1.77153320E+01
 20
1.51873238E+02
  0
VERTEX
  8
0
 62
4
 10
-1.77000343E+01
 20
1.52189064E+02
  0
SEQEND
  8
0
  0
POLYLINE
  8
0
 62
4
 66
1
  0
VERTEX
  8
0
 62
4
 10
-2.38864009E+01
 20
1.55305574E+02
  0
VERTEX
  8
0
 62
4
 10
-2.41369335E+01
 20
1.55100627E+02
  0
VERTEX
  8
0
 62
4
 10
-2.43670819E+01
 20
1.54876068E+02
  0
VERTEX
  8
0
 62
4
 10
-2.45750670E+01
 20
1.54633633E+02
  0
VERTEX
  8
0
 62
4
 10
-2.47592809E+01
 20
1.54375197E+02
  0
VERTEX
  8
0
 62
4
 10
-2.49182997E+01
 20
1.54102758E+02
  0
VERTEX
  8
0
 62
4
 10
-2.50508941E+01
 20
1.53818420E+02
  0
VERTEX
  8
0
 62
4
 10
-2.51560390E+01
 20
1.53524383E+02
  0
VERTEX
  8
0
 62
4
 10
-2.52329217E+01
 20
1.53222919E+02
  0
VERTEX
  8
0
 62
4
 10
-2.52809478E+01
 20
1.52916359E+02
  0
VERTEX
  8
0
 62
4
 10
-2.52997460E+01
 20
1.52607072E+02
  0
VERTEX
  8
0
 62
4
 10
-2.52891711E+01
 20
1.52297450E+02
  0
VERTEX
  8
0
 62
4
 10
-2.52493048E+01
 20
1.51989886E+02
  0
VERTEX
  8
0
 62
4
 10
-2.51804552E+01
 20
1.51686758E+02
  0
VERTEX
  8
0
 62
4
 10
-2.50831547E+01
 20
1.51390408E+02
  0
VERTEX
  8
0
 62
4
 10
-2.49581553E+01
 20
1.51103129E+02
  0
VERTEX
  8
0
 62
4
 10
-2.48064234E+01
 20
1.50827139E+02
  0
VERTEX
  8
0
 62
4
 10
-2.46291319E+01
 20
1.50564574E+02
  0
VERTEX
  8
0
 62
4
 10
-2.44276514E+01
 20
1.50317462E+02
  0
VERTEX
  8
0
 62
4
 10
-2.42035393E+01
 20
1.50087715E+02
  0
VERTEX
  8
0
 62
4
 10
-2.39585281E+01
 20
1.49877107E+02
  0
VERTEX
  8
0
 62
4
 10
-2.36945118E+01
 20
1.49687268E+02
  0
VERTEX
  8
0
 62
4
 10
-2.34135315E+01
 20
1.49519664E+02
  0
VERTEX
  8
0
 62
4
 10
-2.31177591E+01
 20
1.49375592E+02
  0
VERTEX
  8
0
 62
4
 10
-2.28094811E+01
 20
1.49256164E+02
  0
VERTEX
  8
0
 62
4
 10
-2.24910806E+01
 20
1.49162305E+02
  0
VERTEX
  8
0
 62
4
 10
-2.21650190E+01
 20
1.49094740E+02
  0
VERTEX
  8
0
 62
4
 10
-2.18338168E+01
 20
1.49053991E+02
  0
VERTEX
  8
0
 62
4
 10
-2.15000343E+01
 20
1.49040372E+02
  0
VERTEX
  8
0
 62
4
 10
-2.11662518E+01
 20
1.49053991E+02
  0
VERTEX
  8
0
 62
4
 10
-2.08350496E+01
 20
1.49094740E+02
  0
VERTEX
  8
0
 62
4
 10
-2.05089880E+01
 20
1.49162305E+02
  0
VERTEX
  8
0
 62
4
 10
-2.01905875E+01
 20
1.49256164E+02
  0
VERTEX
  8
0
 62
4
 10
-1.98823095E+01
 20
1.49375592E+02
  0
VERTEX
  8
0
 62
4
 10
-1.95865371E+01
 20
1.49519664E+02
  0
VERTEX
  8
0
 62
4
 10
-1.93055568E+01
 20
1.49687268E+02
  0
VERTEX
  8
0
 62
4
 10
-1.90415405E+01
 20
1.49877107E+02
  0
VERTEX
  8
0
 62
4
 10
-1.87965293E+01
 20
1.50087715E+02
  0
VERTEX
  8
0
 62
4
 10
-1.85724172E+01
 20
1.50317462E+02
  0
VERTEX
  8
0
 62
4
 10
-1.83709367E+01
 20
1.50564574E+02
  0
VERTEX
  8
0
 62
4
 10
-1.81936452E+01
 20
1.50827139E+02
  0
VERTEX
  8
0
 62
4
 10
-1.80419133E+01
 20
1.51103129E+02
  0
VERTEX
  8
0
 62
4
 10
-1.79169139E+01
 20
1.51390408E+02
  0
VERTEX
  8
0
 62
4
 10
-1.78196134E+01
 20
1.51686758E+02
  0
VERTEX
  8
0
 62
4
 10
-1.77507638E+01
 20
1.51989886E+02
  0
VERTEX
  8
0
 62
4
 10
-1.77108975E+01
 20
1.52297450E+02
  0
VERTEX
  8
0
 62
4
 10
-1.77003226E+01
 20
1.52607072E+02
  0
VERTEX
  8
0
 62
4
 10
-1.77191208E+01
 20
1.52916359E+02
  0
VERTEX
  8
0
 62
4
 10
-1.77671469E+01
 20
1.53222919E+02
  0
VERTEX
  8
0
 62
4
 10
-1.78440296E+01
 20
1.53524383E+02
  0
VERTEX
  8
0
 62
4
 10
-1.79491745E+01
 20
1.53818420E+02
  0
VERTEX
  8
0
 62
4
 10
-1.80817689E+01
 20
1.54102758E+02
  0
VERTEX
  8
0
 62
4
 10
-1.82407877E+01
 20
1.54375197E+02
  0
VERTEX
  8
0
 62
4
 10
-1.84250016E+01
 20
1.54633633E+02
  0
VERTEX
  8
0
 62
4
 10
-1.86329867E+01
 20
1.54876068E+02
  0
VERTEX
  8
0
 62
4
 10
-1.88631351E+01
 20
1.55100627E+02
  0
VERTEX
  8
0
 62
4
 10
-1.91136677E+01
 20
1.55305574E+02
  0
SEQEND
  8
0
  0
LINE
  8
0
 62
4
 10
-2.53000344E+01
 20
1.52189064E+02
 11
-2.53000344E+01
 21
1.52563671E+02
  0
LINE
  8
0
 62
4
 10
-1.77000344E+01
 20
1.52563671E+02
 11
-1.77000344E+01
 21
1.52189064E+02
  0
LINE
  8
0
 62
4
 10
-2.49000344E+01
 20
1.52563671E+02
 11
-2.49000344E+01
 21
1.53060093E+02
  0
POLYLINE
  8
0
 62
4
 66
1
  0
VERTEX
  8
0
 62
4
 10
-2.49000343E+01
 20
1.52563671E+02
  0
VERTEX
  8
0
 62
4
 10
-2.48863469E+01
 20
1.52281090E+02
  0
VERTEX
  8
0
 62
4
 10
-2.48453949E+01
 20
1.52000784E+02
  0
VERTEX
  8
0
 62
4
 10
-2.47775081E+01
 20
1.51725010E+02
  0
VERTEX
  8
0
 62
4
 10
-2.46832329E+01
 20
1.51455988E+02
  0
VERTEX
  8
0
 62
4
 10
-2.45633285E+01
 20
1.51195885E+02
  0
VERTEX
  8
0
 62
4
 10
-2.44187602E+01
 20
1.50946794E+02
  0
VERTEX
  8
0
 62
4
 10
-2.42506921E+01
 20
1.50710722E+02
  0
VERTEX
  8
0
 62
4
 10
-2.40604773E+01
 20
1.50489568E+02
  0
VERTEX
  8
0
 62
4
 10
-2.38496473E+01
 20
1.50285114E+02
  0
VERTEX
  8
0
 62
4
 10
-2.36198997E+01
 20
1.50099006E+02
  0
VERTEX
  8
0
 62
4
 10
-2.33730841E+01
 20
1.49932741E+02
  0
VERTEX
  8
0
 62
4
 10
-2.31111878E+01
 20
1.49787660E+02
  0
VERTEX
  8
0
 62
4
 10
-2.28363194E+01
 20
1.49664929E+02
  0
VERTEX
  8
0
 62
4
 10
-2.25506921E+01
 20
1.49565537E+02
  0
VERTEX
  8
0
 62
4
 10
-2.22566055E+01
 20
1.49490284E+02
  0
VERTEX
  8
0
 62
4
 10
-2.19564274E+01
 20
1.49439776E+02
  0
VERTEX
  8
0
 62
4
 10
-2.16525747E+01
 20
1.49414420E+02
  0
VERTEX
  8
0
 62
4
 10
-2.13474939E+01
 20
1.49414420E+02
  0
VERTEX
  8
0
 62
4
 10
-2.10436412E+01
 20
1.49439776E+02
  0
VERTEX
  8
0
 62
4
 10
-2.07434631E+01
 20
1.49490284E+02
  0
VERTEX
  8
0
 62
4
 10
-2.04493765E+01
 20
1.49565537E+02
  0
VERTEX
  8
0
 62
4
 10
-2.01637492E+01
 20
1.49664929E+02
  0
VERTEX
  8
0
 62
4
 10
-1.98888809E+01
 20
1.49787660E+02
  0
VERTEX
  8
0
 62
4
 10
-1.96269846E+01
 20
1.49932741E+02
  0
VERTEX
  8
0
 62
4
 10
-1.93801690E+01
 20
1.50099006E+02
  0
VERTEX
  8
0
 62
4
 10
-1.91504213E+01
 20
1.50285114E+02
  0
VERTEX
  8
0
 62
4
 10
-1.89395913E+01
 20
1.50489568E+02
  0
VERTEX
  8
0
 62
4
 10
-1.87493765E+01
 20
1.50710722E+02
  0
VERTEX
  8
0
 62
4
 10
-1.85813084E+01
 20
1.50946794E+02
  0
VERTEX
  8
0
 62
4
 10
-1.84367401E+01
 20
1.51195885E+02
  0
VERTEX
  8
0
 62
4
 10
-1.83168357E+01
 20
1.51455988E+02
  0
VERTEX
  8
0
 62
4
 10
-1.82225606E+01
 20
1.51725010E+02
  0
VERTEX
  8
0
 62
4
 10
-1.81546737E+01
 20
1.52000784E+02
  0
VERTEX
  8
0
 62
4
 10
-1.81137217E+01
 20
1.52281090E+02
  0
VERTEX
  8
0
 62
4
 10
-1.81000343E+01
 20
1.52563671E+02
  0
SEQEND
  8
0
  0
LINE
  8
0
 62
4
 10
-1.81000343E+01
 20
1.52563671E+02
 11
-1.81000343E+01
 21
1.53060093E+02
  0
POLYLINE
  8
0
 62
4
 66
1
  0
VERTEX
  8
0
 62
4
 10
-2.49000343E+01
 20
1.53060093E+02
  0
VERTEX
  8
0
 62
4
 10
-2.48870963E+01
 20
1.52785341E+02
  0
VERTEX
  8
0
 62
4
 10
-2.48483807E+01
 20
1.52512680E+02
  0
VERTEX
  8
0
 62
4
 10
-2.47841821E+01
 20
1.52244185E+02
  0
VERTEX
  8
0
 62
4
 10
-2.46949892E+01
 20
1.51981900E+02
  0
VERTEX
  8
0
 62
4
 10
-2.45814808E+01
 20
1.51727821E+02
  0
VERTEX
  8
0
 62
4
 10
-2.44445207E+01
 20
1.51483880E+02
  0
VERTEX
  8
0
 62
4
 10
-2.42851513E+01
 20
1.51251936E+02
  0
VERTEX
  8
0
 62
4
 10
-2.41045854E+01
 20
1.51033753E+02
  0
VERTEX
  8
0
 62
4
 10
-2.39041974E+01
 20
1.50830992E+02
  0
VERTEX
  8
0
 62
4
 10
-2.36855122E+01
 20
1.50645195E+02
  0
VERTEX
  8
0
 62
4
 10
-2.34501942E+01
 20
1.50477778E+02
  0
VERTEX
  8
0
 62
4
 10
-2.32000343E+01
 20
1.50330013E+02
  0
VERTEX
  8
0
 62
4
 10
-2.29369364E+01
 20
1.50203026E+02
  0
VERTEX
  8
0
 62
4
 10
-2.26629028E+01
 20
1.50097782E+02
  0
VERTEX
  8
0
 62
4
 10
-2.23800191E+01
 20
1.50015084E+02
  0
VERTEX
  8
0
 62
4
 10
-2.20904381E+01
 20
1.49955560E+02
  0
VERTEX
  8
0
 62
4
 10
-2.17963638E+01
 20
1.49919664E+02
  0
VERTEX
  8
0
 62
4
 10
-2.15000343E+01
 20
1.49907668E+02
  0
VERTEX
  8
0
 62
4
 10
-2.12037048E+01
 20
1.49919664E+02
  0
VERTEX
  8
0
 62
4
 10
-2.09096305E+01
 20
1.49955560E+02
  0
VERTEX
  8
0
 62
4
 10
-2.06200495E+01
 20
1.50015084E+02
  0
VERTEX
  8
0
 62
4
 10
-2.03371658E+01
 20
1.50097782E+02
  0
VERTEX
  8
0
 62
4
 10
-2.00631322E+01
 20
1.50203026E+02
  0
VERTEX
  8
0
 62
4
 10
-1.98000343E+01
 20
1.50330013E+02
  0
VERTEX
  8
0
 62
4
 10
-1.95498744E+01
 20
1.50477778E+02
  0
VERTEX
  8
0
 62
4
 10
-1.93145564E+01
 20
1.50645195E+02
  0
VERTEX
  8
0
 62
4
 10
-1.90958712E+01
 20
1.50830992E+02
  0
VERTEX
  8
0
 62
4
 10
-1.88954832E+01
 20
1.51033753E+02
  0
VERTEX
  8
0
 62
4
 10
-1.87149173E+01
 20
1.51251936E+02
  0
VERTEX
  8
0
 62
4
 10
-1.85555479E+01
 20
1.51483880E+02
  0
VERTEX
  8
0
 62
4
 10
-1.84185878E+01
 20
1.51727821E+02
  0
VERTEX
  8
0
 62
4
 10
-1.83050794E+01
 20
1.51981900E+02
  0
VERTEX
  8
0
 62
4
 10
-1.82158865E+01
 20
1.52244185E+02
  0
VERTEX
  8
0
 62
4
 10
-1.81516879E+01
 20
1.52512680E+02
  0
VERTEX
  8
0
 62
4
 10
-1.81129723E+01
 20
1.52785341E+02
  0
VERTEX
  8
0
 62
4
 10
-1.81000343E+01
 20
1.53060093E+02
  0
VERTEX
  8
0
 62
4
 10
-1.81129723E+01
 20
1.53334845E+02
  0
VERTEX
  8
0
 62
4
 10
-1.81516879E+01
 20
1.53607506E+02
  0
VERTEX
  8
0
 62
4
 10
-1.82158865E+01
 20
1.53876001E+02
  0
VERTEX
  8
0
 62
4
 10
-1.83050794E+01
 20
1.54138286E+02
  0
VERTEX
  8
0
 62
4
 10
-1.84185878E+01
 20
1.54392365E+02
  0
VERTEX
  8
0
 62
4
 10
-1.85555479E+01
 20
1.54636306E+02
  0
VERTEX
  8
0
 62
4
 10
-1.87149173E+01
 20
1.54868250E+02
  0
VERTEX
  8
0
 62
4
 10
-1.88954832E+01
 20
1.55086433E+02
  0
VERTEX
  8
0
 62
4
 10
-1.90958712E+01
 20
1.55289194E+02
  0
VERTEX
  8
0
 62
4
 10
-1.93145564E+01
 20
1.55474991E+02
  0
VERTEX
  8
0
 62
4
 10
-1.95498744E+01
 20
1.55642408E+02
  0
VERTEX
  8
0
 62
4
 10
-1.98000343E+01
 20
1.55790173E+02
  0
VERTEX
  8
0
 62
4
 10
-2.00631322E+01
 20
1.55917160E+02
  0
VERTEX
  8
0
 62
4
 10
-2.03371658E+01
 20
1.56022404E+02
  0
VERTEX
  8
0
 62
4
 10
-2.06200495E+01
 20
1.56105102E+02
  0
VERTEX
  8
0
 62
4
 10
-2.09096305E+01
 20
1.56164626E+02
  0
VERTEX
  8
0
 62
4
 10
-2.12037048E+01
 20
1.56200522E+02
  0
VERTEX
  8
0
 62
4
 10
-2.15000343E+01
 20
1.56212518E+02
  0
VERTEX
  8
0
 62
4
 10
-2.17963638E+01
 20
1.56200522E+02
  0
VERTEX
  8
0
 62
4
 10
-2.20904381E+01
 20
1.56164626E+02
  0
VERTEX
  8
0
 62
4
 10
-2.23800191E+01
 20
1.56105102E+02
  0
VERTEX
  8
0
 62
4
 10
-2.26629028E+01
 20
1.56022404E+02
  0
VERTEX
  8
0
 62
4
 10
-2.29369364E+01
 20
1.55917160E+02
  0
VERTEX
  8
0
 62
4
 10
-2.32000343E+01
 20
1.55790173E+02
  0
VERTEX
  8
0
 62
4
 10
-2.34501942E+01
 20
1.55642408E+02
  0
VERTEX
  8
0
 62
4
 10
-2.36855122E+01
 20
1.55474991E+02
  0
VERTEX
  8
0
 62
4
 10
-2.39041974E+01
 20
1.55289194E+02
  0
VERTEX
  8
0
 62
4
 10
-2.41045854E+01
 20
1.55086433E+02
  0
VERTEX
  8
0
 62
4
 10
-2.42851513E+01
 20
1.54868250E+02
  0
VERTEX
  8
0
 62
4
 10
-2.44445207E+01
 20
1.54636306E+02
  0
VERTEX
  8
0
 62
4
 10
-2.45814808E+01
 20
1.54392365E+02
  0
VERTEX
  8
0
 62
4
 10
-2.46949892E+01
 20
1.54138286E+02
  0
VERTEX
  8
0
 62
4
 10
-2.47841821E+01
 20
1.53876001E+02
  0
VERTEX
  8
0
 62
4
 10
-2.48483807E+01
 20
1.53607506E+02
  0
VERTEX
  8
0
 62
4
 10
-2.48870963E+01
 20
1.53334845E+02
  0
VERTEX
  8
0
 62
4
 10
-2.49000343E+01
 20
1.53060093E+02
  0
SEQEND
  8
0
  0
ARC
  8
0
 62
4
 10
3.25302427E+01
 20
9.51395741E+01
 40
7.95040043E+01
 50
1.31098609E+02
 51
1.34573756E+02
  0
ARC
  8
0
 62
4
 10
-7.55303113E+01
 20
9.51395741E+01
 40
7.95040043E+01
 50
4.54262442E+01
 51
4.89013908E+01
  0
LINE
  8
0
 62
4
 10
-2.57286455E+01
 20
1.46718680E+02
 11
-1.40000343E+01
 21
1.46718680E+02
  0
LINE
  8
0
 62
4
 10
-2.61042775E+01
 20
1.46330009E+02
 11
-2.05000343E+01
 21
1.46330009E+02
  0
LINE
  8
0
 62
7
 10
5.15797352E+00
 20
1.44000000E+02
 11
-5.80000648E+01
 21
1.44000000E+02
  0
LINE
  8
0
 62
7
 10
1.49999428E+01
 20
1.40000015E+02
 11
-5.80000648E+01
 21
1.40000015E+02
  0
LINE
  8
0
 62
7
 10
1.49999428E+01
 20
1.31000000E+02
 11
-5.80000648E+01
 21
1.31000000E+02
  0
LINE
  8
0
 62
4
 10
-3.19620336E+02
 20
1.47499971E+02
 11
-3.20886183E+02
 21
1.49880682E+02
  0
ARC
  8
0
 62
4
 10
-3.31650182E+02
 20
1.45609688E+02
 40
1.18100000E+01
 50
1.55900933E+02
 51
1.58000000E+02
  0
ARC
  8
0
 62
4
 10
-3.30815123E+02
 20
1.49038828E+02
 40
1.18100000E+01
 50
1.45172490E+02
 51
1.70827510E+02
  0
LINE
  8
0
 62
4
 10
-3.40962882E+02
 20
1.49040357E+02
 11
-3.38115872E+02
 21
1.56086954E+02
  0
LINE
  8
0
 62
4
 10
-3.38265715E+02
 20
1.55716081E+02
 11
-3.39313433E+02
 21
1.56139386E+02
  0
LINE
  8
0
 62
4
 10
-3.40813040E+02
 20
1.49411231E+02
 11
-3.41860757E+02
 21
1.49834536E+02
  0
ARC
  8
0
 62
4
 10
-3.39688783E+02
 20
1.55212503E+02
 40
1.00000000E+00
 50
6.79999999E+01
 51
1.45172490E+02
  0
ARC
  8
0
 62
4
 10
-3.41486895E+02
 20
1.50762020E+02
 40
1.00000000E+00
 50
1.70827510E+02
 51
2.48000000E+02
  0
LINE
  8
0
 62
4
 10
-3.37188688E+02
 20
1.55712348E+02
 11
-3.38115872E+02
 21
1.56086954E+02
  0
LINE
  8
0
 62
4
 10
-3.40035699E+02
 20
1.48665750E+02
 11
-3.40962882E+02
 21
1.49040357E+02
  0
LINE
  8
0
 62
4
 10
-3.36926464E+02
 20
1.56361376E+02
 11
-3.27376470E+02
 21
1.52502929E+02
  0
LINE
  8
0
  6
CENTER
 62
6
 10
-3.28924902E+02
 20
1.44500258E+02
 11
-3.41023488E+02
 21
1.49388404E+02
  0
LINE
  8
0
  6
CENTER
 62
6
 10
-3.18920212E+02
 20
1.44232972E+02
 11
-3.39712365E+02
 21
1.52633547E+02
  0
LINE
  8
0
 62
4
 10
-3.20886183E+02
 20
1.49880682E+02
 11
-3.27376470E+02
 21
1.52502929E+02
  0
LINE
  8
0
 62
4
 10
-3.29397795E+02
 20
1.47499974E+02
 11
-3.27376470E+02
 21
1.52502929E+02
  0
LINE
  8
0
 62
4
 10
-3.40916544E+02
 20
1.47499978E+02
 11
-3.40388028E+02
 21
1.48808101E+02
  0
ARC
  8
0
 62
4
 10
-3.31655980E+02
 20
1.45595339E+02
 40
1.18100000E+01
 50
1.58000000E+02
 51
1.70719176E+02
  0
LINE
  8
0
 62
4
 10
-3.40506701E+02
 20
1.47499978E+02
 11
-3.36926464E+02
 21
1.56361376E+02
  0
LINE
  8
0
  6
CENTER
 62
6
 10
-3.89075166E+02
 20
1.44500258E+02
 11
-3.76976581E+02
 21
1.49388404E+02
  0
ARC
  8
0
 62
4
 10
-3.87184945E+02
 20
1.49038828E+02
 40
1.18100000E+01
 50
9.17248994E+00
 51
3.48275100E+01
  0
ARC
  8
0
 62
4
 10
-3.76513174E+02
 20
1.50762020E+02
 40
1.00000000E+00
 50
3.40723662E+02
 51
9.17248994E+00
  0
ARC
  8
0
 62
4
 10
-3.86344089E+02
 20
1.45595339E+02
 40
1.18100000E+01
 50
9.28087917E+00
 51
2.20000000E+01
  0
LINE
  8
0
 62
4
 10
-3.88602282E+02
 20
1.47499995E+02
 11
-3.90623599E+02
 21
1.52502929E+02
  0
LINE
  8
0
 62
4
 10
-3.97113886E+02
 20
1.49880682E+02
 11
-3.90623599E+02
 21
1.52502929E+02
  0
LINE
  8
0
 62
4
 10
-3.98379718E+02
 20
1.47499999E+02
 11
-3.97113886E+02
 21
1.49880682E+02
  0
LINE
  8
0
 62
4
 10
-3.79279040E+02
 20
1.52934069E+02
 11
-3.77647196E+02
 21
1.53593377E+02
  0
LINE
  8
0
 62
4
 10
-3.79575179E+02
 20
1.52652641E+02
 11
-3.79222849E+02
 21
1.52794992E+02
  0
LINE
  8
0
 62
4
 10
-3.78704186E+02
 20
1.53166325E+02
 11
-3.79884196E+02
 21
1.56086954E+02
  0
LINE
  8
0
 62
4
 10
-3.79734354E+02
 20
1.55716081E+02
 11
-3.78686636E+02
 21
1.56139386E+02
  0
ARC
  8
0
 62
4
 10
-3.78311286E+02
 20
1.55212503E+02
 40
1.00000000E+00
 50
3.48275100E+01
 51
1.12000000E+02
  0
LINE
  8
0
 62
4
 10
-3.80811380E+02
 20
1.55712348E+02
 11
-3.79884196E+02
 21
1.56086954E+02
  0
LINE
  8
0
 62
4
 10
-3.81073605E+02
 20
1.56361376E+02
 11
-3.90623599E+02
 21
1.52502929E+02
  0
LINE
  8
0
  6
CENTER
 62
6
 10
-3.99079857E+02
 20
1.44232972E+02
 11
-3.78287704E+02
 21
1.52633547E+02
  0
LINE
  8
0
 62
4
 10
-3.77083530E+02
 20
1.47499991E+02
 11
-3.79279040E+02
 21
1.52934069E+02
  0
ARC
  8
0
 62
4
 10
-3.86349886E+02
 20
1.45609688E+02
 40
1.18100000E+01
 50
2.20000000E+01
 51
4.25326990E+01
  0
LINE
  8
0
 62
4
 10
-3.77493373E+02
 20
1.47499991E+02
 11
-3.81073605E+02
 21
1.56361376E+02
  0
LINE
  8
0
  6
CENTER
 62
2
 10
-4.09464191E+02
 20
1.14500061E+02
 11
-4.06000141E+02
 21
1.14500061E+02
  0
LINE
  8
0
 62
7
 10
-4.06400043E+02
 20
1.10750061E+02
 11
-4.06000141E+02
 21
1.10750061E+02
  0
LINE
  8
0
 62
7
 10
-4.06400043E+02
 20
1.18250061E+02
 11
-4.06000141E+02
 21
1.18250061E+02
  0
LINE
  8
0
 62
7
 10
-4.06400135E+02
 20
1.10750061E+02
 11
-4.06000141E+02
 21
1.10750061E+02
  0
LINE
  8
0
 62
7
 10
-4.08600056E+02
 20
1.12899994E+02
 11
-4.08600056E+02
 21
1.16100037E+02
  0
LINE
  8
0
  6
CENTER
 62
2
 10
-3.59000050E+02
 20
1.52034760E+02
 11
-3.59000050E+02
 21
5.00345764E+01
  0
LINE
  8
0
  6
CENTER
 62
2
 10
-4.08555561E+02
 20
1.35500015E+02
 11
-3.79309132E+02
 21
1.35500015E+02
  0
LINE
  8
0
  6
CENTER
 62
2
 10
-4.08555561E+02
 20
6.55000305E+01
 11
-3.80134937E+02
 21
6.55000305E+01
  0
LINE
  8
0
 62
7
 10
-4.06000141E+02
 20
5.75000381E+01
 11
-4.06000141E+02
 21
1.43500000E+02
  0
LINE
  8
0
  6
CENTER
 62
2
 10
-3.94000141E+02
 20
5.07628784E+01
 11
-3.94000141E+02
 21
8.09070511E+01
  0
LINE
  8
0
  6
CENTER
 62
2
 10
-3.94000141E+02
 20
1.49685349E+02
 11
-3.94000141E+02
 21
1.20961639E+02
  0
LINE
  8
0
  6
CENTER
 62
2
 10
-4.09464191E+02
 20
8.65000305E+01
 11
-4.06000141E+02
 21
8.65000305E+01
  0
LINE
  8
0
 62
7
 10
-4.06400135E+02
 20
8.27500305E+01
 11
-4.06000141E+02
 21
8.27500305E+01
  0
LINE
  8
0
 62
7
 10
-4.08600056E+02
 20
8.48999634E+01
 11
-4.08600056E+02
 21
8.81000061E+01
  0
LINE
  8
0
 62
7
 10
-4.06400043E+02
 20
8.27500305E+01
 11
-4.06000141E+02
 21
8.27500305E+01
  0
LINE
  8
0
 62
7
 10
-4.06400043E+02
 20
9.02500305E+01
 11
-4.06000141E+02
 21
9.02500305E+01
  0
LINE
  8
0
 62
7
 10
-3.12000141E+02
 20
5.75000153E+01
 11
-3.12000141E+02
 21
1.43499985E+02
  0
LINE
  8
0
 62
7
 10
-4.02000111E+02
 20
5.35000458E+01
 11
-3.16000080E+02
 21
5.35000076E+01
  0
LINE
  8
0
  6
CENTER
 62
2
 10
-3.24000141E+02
 20
1.49872696E+02
 11
-3.24000141E+02
 21
1.20135773E+02
  0
LINE
  8
0
  6
CENTER
 62
2
 10
-3.43000080E+02
 20
1.50076904E+02
 11
-3.43000080E+02
 21
1.17645721E+02
  0
LINE
  8
0
 62
7
 10
-4.02000019E+02
 20
1.47500015E+02
 11
-3.16000080E+02
 21
1.47499985E+02
  0
LINE
  8
0
  6
CENTER
 62
2
 10
-3.37809223E+02
 20
6.55000305E+01
 11
-3.09012409E+02
 21
6.55000305E+01
  0
LINE
  8
0
  6
CENTER
 62
2
 10
-3.38222218E+02
 20
1.35500015E+02
 11
-3.09012409E+02
 21
1.35500015E+02
  0
LINE
  8
0
  6
CENTER
 62
2
 10
-3.70000050E+02
 20
1.22499985E+02
 11
-3.70000050E+02
 21
1.50073425E+02
  0
LINE
  8
0
  6
CENTER
 62
2
 10
-3.24000141E+02
 20
5.08976669E+01
 11
-3.24000141E+02
 21
7.95789413E+01
  0
LINE
  8
0
  6
CENTER
 62
2
 10
-3.07169392E+02
 20
1.00500000E+02
 11
-4.10946095E+02
 21
1.00500000E+02
  0
LINE
  8
0
 62
7
 10
-3.24000123E+02
 20
7.12735060E+01
 11
-3.29000124E+02
 21
6.83867650E+01
  0
LINE
  8
0
 62
7
 10
-3.29000141E+02
 20
6.83867798E+01
 11
-3.29000141E+02
 21
6.26132812E+01
  0
LINE
  8
0
 62
7
 10
-3.24000108E+02
 20
5.97265299E+01
 11
-3.29000135E+02
 21
6.26132862E+01
  0
LINE
  8
0
 62
7
 10
-3.19000144E+02
 20
6.26132570E+01
 11
-3.24000146E+02
 21
5.97265160E+01
  0
LINE
  8
0
 62
7
 10
-3.19000111E+02
 20
6.83867798E+01
 11
-3.19000111E+02
 21
6.26132812E+01
  0
LINE
  8
0
 62
7
 10
-3.24000127E+02
 20
7.12735265E+01
 11
-3.19000126E+02
 21
6.83867855E+01
  0
LINE
  8
0
 62
7
 10
-3.94000159E+02
 20
7.12735293E+01
 11
-3.99000161E+02
 21
6.83867883E+01
  0
LINE
  8
0
 62
7
 10
-3.99000172E+02
 20
6.83867798E+01
 11
-3.99000172E+02
 21
6.26132812E+01
  0
LINE
  8
0
 62
7
 10
-3.94000137E+02
 20
5.97265198E+01
 11
-3.99000191E+02
 21
6.26132913E+01
  0
LINE
  8
0
 62
7
 10
-3.89000106E+02
 20
6.26132712E+01
 11
-3.94000107E+02
 21
5.97265302E+01
  0
LINE
  8
0
 62
7
 10
-3.89000141E+02
 20
6.83867798E+01
 11
-3.89000141E+02
 21
6.26132812E+01
  0
LINE
  8
0
 62
7
 10
-3.94000145E+02
 20
7.12735362E+01
 11
-3.89000117E+02
 21
6.83867800E+01
  0
LINE
  8
0
 62
7
 10
-3.94000147E+02
 20
1.41273525E+02
 11
-3.99000175E+02
 21
1.38386768E+02
  0
LINE
  8
0
 62
7
 10
-3.99000172E+02
 20
1.38386765E+02
 11
-3.99000172E+02
 21
1.32613266E+02
  0
LINE
  8
0
 62
7
 10
-3.94000179E+02
 20
1.29726524E+02
 11
-3.99000181E+02
 21
1.32613265E+02
  0
LINE
  8
0
 62
7
 10
-3.89000146E+02
 20
1.32613236E+02
 11
-3.94000148E+02
 21
1.29726495E+02
  0
LINE
  8
0
 62
7
 10
-3.89000141E+02
 20
1.38386765E+02
 11
-3.89000141E+02
 21
1.32613266E+02
  0
LINE
  8
0
 62
7
 10
-3.94000134E+02
 20
1.41273510E+02
 11
-3.89000133E+02
 21
1.38386769E+02
  0
LINE
  8
0
 62
7
 10
-3.24000126E+02
 20
1.41273528E+02
 11
-3.29000140E+02
 21
1.38386779E+02
  0
LINE
  8
0
 62
7
 10
-3.29000141E+02
 20
1.38386765E+02
 11
-3.29000141E+02
 21
1.32613266E+02
  0
LINE
  8
0
 62
7
 10
-3.24000190E+02
 20
1.29726526E+02
 11
-3.29000191E+02
 21
1.32613267E+02
  0
LINE
  8
0
 62
7
 10
-3.19000098E+02
 20
1.32613254E+02
 11
-3.24000126E+02
 21
1.29726498E+02
  0
LINE
  8
0
 62
7
 10
-3.19000111E+02
 20
1.38386765E+02
 11
-3.19000111E+02
 21
1.32613266E+02
  0
LINE
  8
0
 62
7
 10
-3.24000115E+02
 20
1.41273503E+02
 11
-3.19000113E+02
 21
1.38386762E+02
  0
CIRCLE
  8
0
 62
7
 10
-3.94000141E+02
 20
6.55000305E+01
 40
4.18000031E+00
  0
CIRCLE
  8
0
 62
2
 10
-3.94000141E+02
 20
1.35500015E+02
 40
5.00000000E+00
  0
ARC
  8
0
 62
7
 10
-4.02000111E+02
 20
5.75000153E+01
 40
4.00000000E+00
 50
1.80000036E+02
 51
2.69999991E+02
  0
CIRCLE
  8
0
 62
2
 10
-3.94000141E+02
 20
6.55000305E+01
 40
5.00000000E+00
  0
ARC
  8
0
 62
7
 10
-4.06122608E+02
 20
1.15765526E+02
 40
2.50000000E+00
 50
9.63728081E+01
 51
1.87691385E+02
  0
ARC
  8
0
 62
7
 10
-4.06122608E+02
 20
1.13234642E+02
 40
2.50000000E+00
 50
1.87691403E+02
 51
2.69999963E+02
  0
CIRCLE
  8
0
 62
7
 10
-3.94000141E+02
 20
1.35500015E+02
 40
4.18000031E+00
  0
CIRCLE
  8
0
 62
7
 10
-3.94000141E+02
 20
6.55000076E+01
 40
8.00000000E+00
  0
CIRCLE
  8
0
 62
7
 10
-3.94000141E+02
 20
1.35499985E+02
 40
8.00000000E+00
  0
ARC
  8
0
 62
7
 10
-4.02000111E+02
 20
1.43500000E+02
 40
4.00000000E+00
 50
9.00000231E+01
 51
1.79999977E+02
  0
CIRCLE
  8
0
 62
7
 10
-3.94000141E+02
 20
6.55000076E+01
 40
8.50000000E+00
  0
CIRCLE
  8
0
 62
7
 10
-3.24000141E+02
 20
6.55000076E+01
 40
8.50000000E+00
  0
CIRCLE
  8
0
 62
7
 10
-3.59000080E+02
 20
1.00500092E+02
 40
2.20000000E+01
  0
CIRCLE
  8
0
 62
7
 10
-3.59000080E+02
 20
1.00500092E+02
 40
1.95000000E+01
  0
CIRCLE
  8
0
 62
7
 10
-3.59000080E+02
 20
1.00500092E+02
 40
2.15000000E+01
  0
ARC
  8
0
 62
7
 10
-4.06122608E+02
 20
8.52346039E+01
 40
2.50000000E+00
 50
1.87691403E+02
 51
2.69999963E+02
  0
ARC
  8
0
 62
7
 10
-4.06122608E+02
 20
8.77654877E+01
 40
2.50000000E+00
 50
9.63728081E+01
 51
1.87691385E+02
  0
CIRCLE
  8
0
 62
7
 10
-3.94000141E+02
 20
1.35499985E+02
 40
8.50000000E+00
  0
ARC
  8
0
 62
7
 10
-3.16000080E+02
 20
5.75000153E+01
 40
4.00000000E+00
 50
2.70000018E+02
 51
3.59999986E+02
  0
CIRCLE
  8
0
 62
7
 10
-3.24000141E+02
 20
6.55000076E+01
 40
8.00000000E+00
  0
CIRCLE
  8
0
 62
7
 10
-3.24000141E+02
 20
1.35499985E+02
 40
8.50000000E+00
  0
ARC
  8
0
 62
7
 10
-3.16000080E+02
 20
1.43499985E+02
 40
4.00000000E+00
 50
0.00000000E+00
 51
8.99999818E+01
  0
CIRCLE
  8
0
 62
7
 10
-3.24000141E+02
 20
1.35499985E+02
 40
8.00000000E+00
  0
CIRCLE
  8
0
 62
2
 10
-3.24000141E+02
 20
1.35500015E+02
 40
5.00000000E+00
  0
CIRCLE
  8
0
 62
2
 10
-3.24000141E+02
 20
6.55000305E+01
 40
5.00000000E+00
  0
CIRCLE
  8
0
 62
7
 10
-3.24000141E+02
 20
1.35500015E+02
 40
4.18000031E+00
  0
CIRCLE
  8
0
 62
7
 10
-3.24000141E+02
 20
6.55000305E+01
 40
4.18000031E+00
  0
CIRCLE
  8
0
 62
7
 10
-3.59000080E+02
 20
1.00500092E+02
 40
1.90000000E+01
  0
CIRCLE
  8
0
 62
2
 10
-3.59000050E+02
 20
1.00500000E+02
 40
1.01800117E+01
  0
CIRCLE
  8
0
 62
4
 10
-3.59000050E+02
 20
1.00500000E+02
 40
1.60000000E+01
  0
CIRCLE
  8
0
 62
7
 10
-3.59000050E+02
 20
1.00500000E+02
 40
1.10000000E+01
  0
LINE
  8
0
 62
4
 10
-3.43000050E+02
 20
1.09737610E+02
 11
-3.43000050E+02
 21
9.12623901E+01
  0
LINE
  8
0
 62
4
 10
-3.75000050E+02
 20
1.09737610E+02
 11
-3.75000050E+02
 21
9.12623901E+01
  0
LINE
  8
0
 62
4
 10
-3.58999989E+02
 20
1.18975222E+02
 11
-3.43000016E+02
 21
1.09737641E+02
  0
LINE
  8
0
 62
4
 10
-3.74999892E+02
 20
9.12624957E+01
 11
-3.58999864E+02
 21
8.20249178E+01
  0
LINE
  8
0
 62
4
 10
-3.58999929E+02
 20
8.20248469E+01
 11
-3.43000051E+02
 21
9.12623953E+01
  0
LINE
  8
0
 62
4
 10
-3.75000084E+02
 20
1.09737581E+02
 11
-3.59000022E+02
 21
1.18975223E+02
  0
LINE
  8
0
 62
4
 10
-4.06000050E+02
 20
1.29316799E+02
 11
-4.06089088E+02
 21
1.29537177E+02
  0
LINE
  8
0
 62
4
 10
-4.06089088E+02
 20
1.29537177E+02
 11
-4.06000050E+02
 21
1.29573151E+02
  0
LINE
  8
0
 62
4
 10
-3.11910981E+02
 20
1.29537177E+02
 11
-3.12000019E+02
 21
1.29573151E+02
  0
LINE
  8
0
 62
4
 10
-3.12000019E+02
 20
1.29316799E+02
 11
-3.11910981E+02
 21
1.29537177E+02
  0
LINE
  8
0
 62
7
 10
3.73999920E+02
 20
1.47500015E+02
 11
2.87999981E+02
 21
1.47499985E+02
  0
CIRCLE
  8
0
 62
7
 10
2.96000042E+02
 20
6.55000305E+01
 40
4.18000031E+00
  0
CIRCLE
  8
0
 62
7
 10
2.96000042E+02
 20
1.35500015E+02
 40
4.18000031E+00
  0
CIRCLE
  8
0
 62
2
 10
2.96000042E+02
 20
6.55000305E+01
 40
5.00000000E+00
  0
CIRCLE
  8
0
 62
2
 10
2.96000042E+02
 20
1.35500015E+02
 40
5.00000000E+00
  0
CIRCLE
  8
0
 62
7
 10
2.96000042E+02
 20
1.35499985E+02
 40
8.00000000E+00
  0
CIRCLE
  8
0
 62
7
 10
2.96000042E+02
 20
1.35499985E+02
 40
8.50000000E+00
  0
CIRCLE
  8
0
 62
7
 10
2.96000042E+02
 20
6.55000076E+01
 40
8.00000000E+00
  0
ARC
  8
0
 62
7
 10
2.87999981E+02
 20
5.75000153E+01
 40
4.00000000E+00
 50
1.80000014E+02
 51
2.69999982E+02
  0
CIRCLE
  8
0
 62
7
 10
3.66000042E+02
 20
1.35499985E+02
 40
8.50000000E+00
  0
ARC
  8
0
 62
7
 10
3.78122509E+02
 20
8.77654877E+01
 40
2.50000000E+00
 50
3.52308615E+02
 51
8.36271917E+01
  0
ARC
  8
0
 62
7
 10
3.78122509E+02
 20
8.52346039E+01
 40
2.50000000E+00
 50
2.70000037E+02
 51
3.52308598E+02
  0
CIRCLE
  8
0
 62
7
 10
3.30999981E+02
 20
1.00500092E+02
 40
2.20000000E+01
  0
CIRCLE
  8
0
 62
7
 10
2.96000042E+02
 20
6.55000076E+01
 40
8.50000000E+00
  0
CIRCLE
  8
0
 62
7
 10
3.66000042E+02
 20
6.55000076E+01
 40
8.50000000E+00
  0
CIRCLE
  8
0
 62
7
 10
3.66000042E+02
 20
1.35499985E+02
 40
8.00000000E+00
  0
CIRCLE
  8
0
 62
7
 10
3.66000042E+02
 20
6.55000076E+01
 40
8.00000000E+00
  0
CIRCLE
  8
0
 62
7
 10
3.66000042E+02
 20
1.35500015E+02
 40
4.18000031E+00
  0
ARC
  8
0
 62
7
 10
3.78122509E+02
 20
1.13234642E+02
 40
2.50000000E+00
 50
2.70000037E+02
 51
3.52308598E+02
  0
ARC
  8
0
 62
7
 10
3.78122509E+02
 20
1.15765526E+02
 40
2.50000000E+00
 50
3.52308615E+02
 51
8.36271917E+01
  0
CIRCLE
  8
0
 62
2
 10
3.66000042E+02
 20
6.55000305E+01
 40
5.00000000E+00
  0
ARC
  8
0
 62
7
 10
3.74000011E+02
 20
5.75000153E+01
 40
4.00000000E+00
 50
2.70000009E+02
 51
3.59999964E+02
  0
CIRCLE
  8
0
 62
2
 10
3.66000042E+02
 20
1.35500015E+02
 40
5.00000000E+00
  0
CIRCLE
  8
0
 62
7
 10
3.66000042E+02
 20
6.55000305E+01
 40
4.18000031E+00
  0
LINE
  8
0
 62
7
 10
2.96000015E+02
 20
1.41273503E+02
 11
2.91000014E+02
 21
1.38386762E+02
  0
LINE
  8
0
 62
7
 10
2.91000011E+02
 20
1.38386765E+02
 11
2.91000011E+02
 21
1.32613266E+02
  0
LINE
  8
0
 62
7
 10
2.90999999E+02
 20
1.32613254E+02
 11
2.96000027E+02
 21
1.29726498E+02
  0
LINE
  8
0
 62
7
 10
2.96000091E+02
 20
1.29726526E+02
 11
3.01000092E+02
 21
1.32613267E+02
  0
LINE
  8
0
 62
7
 10
3.01000042E+02
 20
1.38386765E+02
 11
3.01000042E+02
 21
1.32613266E+02
  0
LINE
  8
0
 62
7
 10
2.96000026E+02
 20
1.41273528E+02
 11
3.01000041E+02
 21
1.38386779E+02
  0
LINE
  8
0
 62
7
 10
3.66000035E+02
 20
1.41273510E+02
 11
3.61000034E+02
 21
1.38386769E+02
  0
LINE
  8
0
 62
7
 10
3.61000042E+02
 20
1.38386765E+02
 11
3.61000042E+02
 21
1.32613266E+02
  0
LINE
  8
0
 62
7
 10
3.61000047E+02
 20
1.32613236E+02
 11
3.66000048E+02
 21
1.29726495E+02
  0
LINE
  8
0
 62
7
 10
3.66000080E+02
 20
1.29726524E+02
 11
3.71000081E+02
 21
1.32613265E+02
  0
LINE
  8
0
 62
7
 10
3.71000072E+02
 20
1.38386765E+02
 11
3.71000072E+02
 21
1.32613266E+02
  0
LINE
  8
0
 62
7
 10
3.66000048E+02
 20
1.41273525E+02
 11
3.71000076E+02
 21
1.38386768E+02
  0
LINE
  8
0
 62
7
 10
3.66000046E+02
 20
7.12735362E+01
 11
3.61000018E+02
 21
6.83867800E+01
  0
LINE
  8
0
 62
7
 10
3.61000042E+02
 20
6.83867798E+01
 11
3.61000042E+02
 21
6.26132812E+01
  0
LINE
  8
0
 62
7
 10
3.61000006E+02
 20
6.26132712E+01
 11
3.66000008E+02
 21
5.97265302E+01
  0
LINE
  8
0
 62
7
 10
3.66000038E+02
 20
5.97265198E+01
 11
3.71000092E+02
 21
6.26132913E+01
  0
LINE
  8
0
 62
7
 10
3.71000072E+02
 20
6.83867798E+01
 11
3.71000072E+02
 21
6.26132812E+01
  0
LINE
  8
0
 62
7
 10
3.66000060E+02
 20
7.12735293E+01
 11
3.71000061E+02
 21
6.83867883E+01
  0
LINE
  8
0
 62
7
 10
2.96000028E+02
 20
7.12735265E+01
 11
2.91000027E+02
 21
6.83867855E+01
  0
LINE
  8
0
 62
7
 10
2.91000011E+02
 20
6.83867798E+01
 11
2.91000011E+02
 21
6.26132812E+01
  0
LINE
  8
0
 62
7
 10
2.91000045E+02
 20
6.26132570E+01
 11
2.96000046E+02
 21
5.97265160E+01
  0
LINE
  8
0
 62
7
 10
2.96000009E+02
 20
5.97265299E+01
 11
3.01000036E+02
 21
6.26132862E+01
  0
LINE
  8
0
 62
7
 10
3.01000042E+02
 20
6.83867798E+01
 11
3.01000042E+02
 21
6.26132812E+01
  0
LINE
  8
0
 62
7
 10
2.96000023E+02
 20
7.12735060E+01
 11
3.01000024E+02
 21
6.83867650E+01
  0
LINE
  8
0
  6
CENTER
 62
2
 10
2.79169292E+02
 20
1.00500000E+02
 11
3.82945995E+02
 21
1.00500000E+02
  0
LINE
  8
0
  6
CENTER
 62
2
 10
2.96000042E+02
 20
5.08976669E+01
 11
2.96000042E+02
 21
7.95789413E+01
  0
LINE
  8
0
  6
CENTER
 62
2
 10
3.10222118E+02
 20
1.35500015E+02
 11
2.81012310E+02
 21
1.35500015E+02
  0
LINE
  8
0
  6
CENTER
 62
2
 10
3.09809124E+02
 20
6.55000305E+01
 11
2.81012310E+02
 21
6.55000305E+01
  0
LINE
  8
0
 62
7
 10
3.74000011E+02
 20
5.35000458E+01
 11
2.87999981E+02
 21
5.35000076E+01
  0
LINE
  8
0
 62
7
 10
2.84000042E+02
 20
5.75000153E+01
 11
2.84000042E+02
 21
1.43499985E+02
  0
LINE
  8
0
 62
7
 10
3.78399944E+02
 20
9.02500305E+01
 11
3.78000042E+02
 21
9.02500305E+01
  0
LINE
  8
0
 62
7
 10
3.78399944E+02
 20
8.27500305E+01
 11
3.78000042E+02
 21
8.27500305E+01
  0
LINE
  8
0
 62
7
 10
3.80599957E+02
 20
8.48999634E+01
 11
3.80599957E+02
 21
8.81000061E+01
  0
LINE
  8
0
 62
7
 10
3.78400036E+02
 20
8.27500305E+01
 11
3.78000042E+02
 21
8.27500305E+01
  0
LINE
  8
0
  6
CENTER
 62
2
 10
3.81464092E+02
 20
8.65000305E+01
 11
3.78000042E+02
 21
8.65000305E+01
  0
LINE
  8
0
  6
CENTER
 62
2
 10
3.66000042E+02
 20
5.07628784E+01
 11
3.66000042E+02
 21
8.09070511E+01
  0
LINE
  8
0
 62
7
 10
3.78000042E+02
 20
5.75000381E+01
 11
3.78000042E+02
 21
1.43500000E+02
  0
LINE
  8
0
  6
CENTER
 62
2
 10
3.80555462E+02
 20
6.55000305E+01
 11
3.52134838E+02
 21
6.55000305E+01
  0
LINE
  8
0
  6
CENTER
 62
2
 10
3.80555462E+02
 20
1.35500015E+02
 11
3.51309032E+02
 21
1.35500015E+02
  0
LINE
  8
0
 62
7
 10
3.80599957E+02
 20
1.12899994E+02
 11
3.80599957E+02
 21
1.16100037E+02
  0
LINE
  8
0
 62
7
 10
3.78400036E+02
 20
1.10750061E+02
 11
3.78000042E+02
 21
1.10750061E+02
  0
LINE
  8
0
 62
7
 10
3.78399944E+02
 20
1.18250061E+02
 11
3.78000042E+02
 21
1.18250061E+02
  0
LINE
  8
0
 62
7
 10
3.78399944E+02
 20
1.10750061E+02
 11
3.78000042E+02
 21
1.10750061E+02
  0
LINE
  8
0
  6
CENTER
 62
2
 10
3.81464092E+02
 20
1.14500061E+02
 11
3.78000042E+02
 21
1.14500061E+02
  0
LINE
  8
0
  6
CENTER
 62
2
 10
3.30999950E+02
 20
1.52034760E+02
 11
3.30999950E+02
 21
5.00345764E+01
  0
LINE
  8
0
  6
CENTER
 62
2
 10
3.66000042E+02
 20
1.49685349E+02
 11
3.66000042E+02
 21
1.20961639E+02
  0
LINE
  8
0
  6
CENTER
 62
2
 10
2.96000042E+02
 20
1.49872696E+02
 11
2.96000042E+02
 21
1.20135773E+02
  0
LINE
  8
0
  6
CENTER
 62
2
 10
3.14999981E+02
 20
1.50076904E+02
 11
3.14999981E+02
 21
1.17645721E+02
  0
LINE
  8
0
  6
CENTER
 62
2
 10
3.41999950E+02
 20
1.22499985E+02
 11
3.41999950E+02
 21
1.50073425E+02
  0
ARC
  8
0
 62
7
 10
3.74000011E+02
 20
1.43500000E+02
 40
4.00000000E+00
 50
2.23118003E-05
 51
8.99999773E+01
  0
ARC
  8
0
 62
7
 10
2.87999981E+02
 20
1.43499985E+02
 40
4.00000000E+00
 50
9.00000179E+01
 51
1.80000000E+02
  0
LINE
  8
0
 62
4
 10
3.08926578E+02
 20
1.56361376E+02
 11
2.99376585E+02
 21
1.52502929E+02
  0
LINE
  8
0
  6
CENTER
 62
6
 10
2.90920326E+02
 20
1.44232972E+02
 11
3.11712479E+02
 21
1.52633547E+02
  0
LINE
  8
0
  6
CENTER
 62
6
 10
3.00925017E+02
 20
1.44500258E+02
 11
3.13023602E+02
 21
1.49388404E+02
  0
LINE
  8
0
 62
4
 10
2.92886298E+02
 20
1.49880682E+02
 11
2.99376585E+02
 21
1.52502929E+02
  0
LINE
  8
0
 62
4
 10
3.01397901E+02
 20
1.47499995E+02
 11
2.99376585E+02
 21
1.52502929E+02
  0
LINE
  8
0
 62
4
 10
2.91620466E+02
 20
1.47499999E+02
 11
2.92886298E+02
 21
1.49880682E+02
  0
LINE
  8
0
 62
4
 10
3.09188803E+02
 20
1.55712348E+02
 11
3.10115987E+02
 21
1.56086954E+02
  0
ARC
  8
0
 62
4
 10
3.13487009E+02
 20
1.50762020E+02
 40
1.00000000E+00
 50
3.40723662E+02
 51
9.17248994E+00
  0
ARC
  8
0
 62
4
 10
3.11688898E+02
 20
1.55212503E+02
 40
1.00000000E+00
 50
3.48275100E+01
 51
1.12000000E+02
  0
ARC
  8
0
 62
4
 10
3.02815238E+02
 20
1.49038828E+02
 40
1.18100000E+01
 50
9.17248994E+00
 51
3.48275100E+01
  0
LINE
  8
0
 62
4
 10
3.10265829E+02
 20
1.55716081E+02
 11
3.11313547E+02
 21
1.56139386E+02
  0
LINE
  8
0
 62
4
 10
3.11295997E+02
 20
1.53166325E+02
 11
3.10115987E+02
 21
1.56086954E+02
  0
LINE
  8
0
 62
4
 10
3.12916653E+02
 20
1.47499991E+02
 11
3.10721143E+02
 21
1.52934069E+02
  0
LINE
  8
0
 62
4
 10
3.10425005E+02
 20
1.52652641E+02
 11
3.10777334E+02
 21
1.52794992E+02
  0
LINE
  8
0
 62
4
 10
3.10721144E+02
 20
1.52934069E+02
 11
3.12352987E+02
 21
1.53593377E+02
  0
ARC
  8
0
 62
4
 10
3.03650297E+02
 20
1.45609688E+02
 40
1.18100000E+01
 50
2.20000000E+01
 51
4.25326990E+01
  0
ARC
  8
0
 62
4
 10
3.03656094E+02
 20
1.45595339E+02
 40
1.18100000E+01
 50
9.28087917E+00
 51
2.20000000E+01
  0
LINE
  8
0
 62
4
 10
3.12506810E+02
 20
1.47499991E+02
 11
3.08926578E+02
 21
1.56361376E+02
  0
LINE
  8
0
  6
CENTER
 62
6
 10
3.61075281E+02
 20
1.44500258E+02
 11
3.48976695E+02
 21
1.49388404E+02
  0
LINE
  8
0
  6
CENTER
 62
6
 10
3.71079971E+02
 20
1.44232972E+02
 11
3.50287818E+02
 21
1.52633547E+02
  0
LINE
  8
0
 62
4
 10
3.53073719E+02
 20
1.56361376E+02
 11
3.62623713E+02
 21
1.52502929E+02
  0
LINE
  8
0
 62
4
 10
3.69114000E+02
 20
1.49880682E+02
 11
3.62623713E+02
 21
1.52502929E+02
  0
LINE
  8
0
 62
4
 10
3.60602388E+02
 20
1.47499974E+02
 11
3.62623713E+02
 21
1.52502929E+02
  0
LINE
  8
0
 62
4
 10
3.70379847E+02
 20
1.47499971E+02
 11
3.69114000E+02
 21
1.49880682E+02
  0
LINE
  8
0
 62
4
 10
3.49964485E+02
 20
1.48665750E+02
 11
3.49037301E+02
 21
1.49040357E+02
  0
LINE
  8
0
 62
4
 10
3.52811495E+02
 20
1.55712348E+02
 11
3.51884311E+02
 21
1.56086954E+02
  0
ARC
  8
0
 62
4
 10
3.48513288E+02
 20
1.50762020E+02
 40
1.00000000E+00
 50
1.70827510E+02
 51
2.48000000E+02
  0
ARC
  8
0
 62
4
 10
3.50311400E+02
 20
1.55212503E+02
 40
1.00000000E+00
 50
6.79999999E+01
 51
1.45172490E+02
  0
LINE
  8
0
 62
4
 10
3.49187143E+02
 20
1.49411231E+02
 11
3.48139426E+02
 21
1.49834536E+02
  0
LINE
  8
0
 62
4
 10
3.51734468E+02
 20
1.55716081E+02
 11
3.50686750E+02
 21
1.56139386E+02
  0
LINE
  8
0
 62
4
 10
3.49037301E+02
 20
1.49040357E+02
 11
3.51884311E+02
 21
1.56086954E+02
  0
ARC
  8
0
 62
4
 10
3.59185060E+02
 20
1.49038828E+02
 40
1.18100000E+01
 50
1.45172490E+02
 51
1.70827510E+02
  0
LINE
  8
0
 62
4
 10
3.49083639E+02
 20
1.47499978E+02
 11
3.49612155E+02
 21
1.48808101E+02
  0
ARC
  8
0
 62
4
 10
3.58350001E+02
 20
1.45609688E+02
 40
1.18100000E+01
 50
1.55900933E+02
 51
1.58000000E+02
  0
ARC
  8
0
 62
4
 10
3.58344203E+02
 20
1.45595339E+02
 40
1.18100000E+01
 50
1.58000000E+02
 51
1.70719176E+02
  0
LINE
  8
0
 62
4
 10
3.49493482E+02
 20
1.47499978E+02
 11
3.53073719E+02
 21
1.56361376E+02
  0
LINE
  8
0
  6
PHANTOM
 10
4.99954224E-01
 20
1.96111431E+02
 11
4.99954224E-01
 21
3.53816712E+02
  0
LINE
  8
0
 62
7
 10
8.29999886E+01
 20
2.50500000E+02
 11
5.29999428E+01
 21
2.50500000E+02
  0
ARC
  8
0
 62
7
 10
8.29999886E+01
 20
2.52500000E+02
 40
2.00000000E+00
 50
2.70000000E+02
 51
0.00000000E+00
  0
LINE
  8
0
 62
7
 10
8.49999886E+01
 20
2.52500000E+02
 11
8.49999886E+01
 21
3.08500000E+02
  0
ARC
  8
0
 62
7
 10
8.29999886E+01
 20
3.08500000E+02
 40
2.00000000E+00
 50
0.00000000E+00
 51
9.00000002E+01
  0
LINE
  8
0
 62
7
 10
8.29999886E+01
 20
3.10500000E+02
 11
5.29999428E+01
 21
3.10500000E+02
  0
LINE
  8
0
  6
CENTER
 62
2
 10
-1.99921162E+02
 20
2.80500000E+02
 11
9.68776894E+01
 21
2.80500000E+02
  0
LINE
  8
0
 62
7
 10
-5.80000343E+01
 20
3.27500000E+02
 11
-5.80000343E+01
 21
2.33500031E+02
  0
LINE
  8
0
 62
7
 10
5.29999428E+01
 20
2.33499939E+02
 11
5.29999428E+01
 21
3.27499939E+02
  0
LINE
  8
0
 62
7
 10
5.29999428E+01
 20
2.36999969E+02
 11
2.99999428E+01
 21
2.36999969E+02
  0
LINE
  8
0
  6
CENTER
 62
2
 10
9.17791195E+01
 20
2.45499985E+02
 11
-1.22856419E+02
 21
2.45499985E+02
  0
LINE
  8
0
 62
7
 10
5.29999428E+01
 20
2.49999985E+02
 11
4.49999428E+01
 21
2.49999985E+02
  0
LINE
  8
0
 62
7
 10
5.29999428E+01
 20
2.40999985E+02
 11
2.99999428E+01
 21
2.40999985E+02
  0
LINE
  8
0
 62
7
 10
5.29999428E+01
 20
3.11000000E+02
 11
-1.40000343E+01
 21
3.11000000E+02
  0
LINE
  8
0
  6
CENTER
 62
2
 10
9.17791195E+01
 20
3.15500000E+02
 11
-1.20922001E+02
 21
3.15500000E+02
  0
LINE
  8
0
 62
7
 10
5.29999428E+01
 20
3.20000000E+02
 11
-1.40000343E+01
 21
3.20000000E+02
  0
LINE
  8
0
 62
7
 10
5.29999428E+01
 20
3.24000031E+02
 11
-1.40000343E+01
 21
3.24000031E+02
  0
LINE
  8
0
 62
7
 10
-1.40000019E+02
 20
2.61500000E+02
 11
-1.40000019E+02
 21
2.99499878E+02
  0
LINE
  8
0
 62
7
 10
-1.19000019E+02
 20
3.27500000E+02
 11
-5.80000343E+01
 21
3.27500000E+02
  0
LINE
  8
0
 62
7
 10
-1.19000019E+02
 20
2.33500015E+02
 11
-5.80000954E+01
 21
2.33500015E+02
  0
LINE
  8
0
 62
7
 10
-1.19000019E+02
 20
3.27499969E+02
 11
-1.19000019E+02
 21
2.33499985E+02
  0
LINE
  8
0
  6
CENTER
 62
2
 10
-9.50000343E+01
 20
2.78242996E+02
 11
-9.50000343E+01
 21
3.29460083E+02
  0
LINE
  8
0
 62
7
 10
-1.21000050E+02
 20
3.02499969E+02
 11
-1.19000034E+02
 21
3.02499969E+02
  0
LINE
  8
0
 62
7
 10
-1.21000034E+02
 20
2.58500000E+02
 11
-1.19000111E+02
 21
2.58500000E+02
  0
LINE
  8
0
 62
7
 10
-1.39500019E+02
 20
2.99999969E+02
 11
-1.35000111E+02
 21
2.99999969E+02
  0
LINE
  8
0
 62
7
 10
8.85086762E+01
 20
3.26880365E+02
 11
5.29999245E+01
 21
3.27500172E+02
  0
LINE
  8
0
 62
7
 10
8.89999428E+01
 20
3.26380310E+02
 11
8.89999428E+01
 21
2.34619720E+02
  0
LINE
  8
0
 62
7
 10
8.85085981E+01
 20
2.34119846E+02
 11
5.29999055E+01
 21
2.33500040E+02
  0
LINE
  8
0
 62
7
 10
9.04998970E+01
 20
2.58500015E+02
 11
8.89998970E+01
 21
2.58500015E+02
  0
LINE
  8
0
 62
7
 10
9.09999580E+01
 20
3.02000000E+02
 11
9.09999580E+01
 21
2.59000031E+02
  0
LINE
  8
0
 62
7
 10
9.04998970E+01
 20
3.02500000E+02
 11
8.89999428E+01
 21
3.02500000E+02
  0
LINE
  8
0
  6
CENTER
 62
2
 10
5.99999733E+01
 20
2.72047806E+02
 11
5.99999733E+01
 21
2.57434433E+02
  0
LINE
  8
0
  6
CENTER
 62
2
 10
5.18053169E+01
 20
2.64500015E+02
 11
6.80743332E+01
 21
2.64500015E+02
  0
LINE
  8
0
 62
7
 10
6.17320783E+01
 20
2.64499866E+02
 11
6.08660163E+01
 21
2.65999938E+02
  0
LINE
  8
0
 62
7
 10
6.08659286E+01
 20
2.66000015E+02
 11
5.91338425E+01
 21
2.66000015E+02
  0
LINE
  8
0
 62
7
 10
5.82681559E+01
 20
2.64499785E+02
 11
5.91341951E+01
 21
2.65999818E+02
  0
LINE
  8
0
 62
7
 10
5.91339263E+01
 20
2.62999989E+02
 11
5.82678489E+01
 21
2.64500088E+02
  0
LINE
  8
0
 62
7
 10
6.08659286E+01
 20
2.62999969E+02
 11
5.91338425E+01
 21
2.62999969E+02
  0
LINE
  8
0
 62
7
 10
6.17322493E+01
 20
2.64499963E+02
 11
6.08662025E+01
 21
2.62999917E+02
  0
LINE
  8
0
  6
CENTER
 62
2
 10
-6.50000343E+01
 20
2.72047760E+02
 11
-6.50000343E+01
 21
2.57434387E+02
  0
LINE
  8
0
  6
CENTER
 62
2
 10
-7.31946754E+01
 20
2.64499969E+02
 11
-5.69256630E+01
 21
2.64499969E+02
  0
LINE
  8
0
 62
7
 10
-6.32678827E+01
 20
2.64499884E+02
 11
-6.41339219E+01
 21
2.65999917E+02
  0
LINE
  8
0
 62
7
 10
-6.41340675E+01
 20
2.65999969E+02
 11
-6.58661537E+01
 21
2.65999969E+02
  0
LINE
  8
0
 62
7
 10
-6.67318617E+01
 20
2.64499764E+02
 11
-6.58658644E+01
 21
2.65999724E+02
  0
LINE
  8
0
 62
7
 10
-6.58659830E+01
 20
2.62999915E+02
 11
-6.67320527E+01
 21
2.64500000E+02
  0
LINE
  8
0
 62
7
 10
-6.41340675E+01
 20
2.62999924E+02
 11
-6.58661537E+01
 21
2.62999924E+02
  0
LINE
  8
0
 62
7
 10
-6.32677459E+01
 20
2.64499859E+02
 11
-6.41337927E+01
 21
2.62999812E+02
  0
LINE
  8
0
 62
7
 10
-1.35000019E+02
 20
2.60000000E+02
 11
-1.35000019E+02
 21
3.00999969E+02
  0
LINE
  8
0
 62
7
 10
-1.39999953E+02
 20
2.99499929E+02
 11
-1.39499939E+02
 21
2.99999932E+02
  0
LINE
  8
0
 62
7
 10
-1.40000001E+02
 20
2.61500026E+02
 11
-1.39499962E+02
 21
2.60999998E+02
  0
LINE
  8
0
 62
7
 10
-1.39500019E+02
 20
2.60999985E+02
 11
-1.35000111E+02
 21
2.60999985E+02
  0
LINE
  8
0
 62
7
 10
-1.39500019E+02
 20
2.60999985E+02
 11
-1.39500019E+02
 21
2.99999969E+02
  0
LINE
  8
0
  6
CENTER
 62
2
 10
-8.10000038E+01
 20
3.30964081E+02
 11
-8.10000038E+01
 21
3.27500031E+02
  0
LINE
  8
0
 62
7
 10
-8.47500038E+01
 20
3.27900024E+02
 11
-8.47500038E+01
 21
3.27500031E+02
  0
LINE
  8
0
 62
7
 10
-8.26001167E+01
 20
3.30100006E+02
 11
-7.94000740E+01
 21
3.30100006E+02
  0
LINE
  8
0
 62
7
 10
-8.47500038E+01
 20
3.27899963E+02
 11
-8.47500038E+01
 21
3.27500031E+02
  0
LINE
  8
0
 62
7
 10
-7.72500038E+01
 20
3.27899963E+02
 11
-7.72500038E+01
 21
3.27500031E+02
  0
LINE
  8
0
  6
CENTER
 62
2
 10
-1.09000034E+02
 20
3.30964081E+02
 11
-1.09000034E+02
 21
3.27500031E+02
  0
LINE
  8
0
 62
7
 10
-1.12750034E+02
 20
3.27900024E+02
 11
-1.12750034E+02
 21
3.27500031E+02
  0
LINE
  8
0
 62
7
 10
-1.10600147E+02
 20
3.30100006E+02
 11
-1.07400105E+02
 21
3.30100006E+02
  0
LINE
  8
0
 62
7
 10
-1.12750034E+02
 20
3.27899963E+02
 11
-1.12750034E+02
 21
3.27500031E+02
  0
LINE
  8
0
 62
7
 10
-1.05250034E+02
 20
3.27899963E+02
 11
-1.05250034E+02
 21
3.27500031E+02
  0
LINE
  8
0
 62
7
 10
-1.21000004E+02
 20
3.02499969E+02
 11
-1.21000004E+02
 21
2.58500000E+02
  0
LINE
  8
0
 62
7
 10
-1.21500004E+02
 20
3.01999969E+02
 11
-1.21500004E+02
 21
2.58999969E+02
  0
LINE
  8
0
 62
7
 10
-1.34000034E+02
 20
2.58999985E+02
 11
-1.21500019E+02
 21
2.58999985E+02
  0
LINE
  8
0
 62
7
 10
-1.20999997E+02
 20
2.58499980E+02
 11
-1.21499987E+02
 21
2.58999970E+02
  0
LINE
  8
0
 62
7
 10
-1.34000034E+02
 20
3.01999969E+02
 11
-1.21500019E+02
 21
3.01999969E+02
  0
LINE
  8
0
 62
7
 10
-1.20999956E+02
 20
3.02499939E+02
 11
-1.21499962E+02
 21
3.01999933E+02
  0
LINE
  8
0
 62
7
 10
-1.42000187E+02
 20
2.93000000E+02
 11
-1.40000034E+02
 21
2.93000000E+02
  0
LINE
  8
0
 62
7
 10
-1.42000050E+02
 20
2.67999954E+02
 11
-1.40000065E+02
 21
2.67999954E+02
  0
LINE
  8
0
 62
7
 10
-1.51000034E+02
 20
2.91000000E+02
 11
-1.51000034E+02
 21
2.70000000E+02
  0
LINE
  8
0
 62
7
 10
-1.54000034E+02
 20
2.69999969E+02
 11
-1.54000034E+02
 21
2.91000000E+02
  0
LINE
  8
0
 62
7
 10
-1.94000050E+02
 20
2.71000122E+02
 11
-1.94000050E+02
 21
2.89999939E+02
  0
LINE
  8
0
 62
7
 10
-1.57000034E+02
 20
2.69500000E+02
 11
-1.57000034E+02
 21
2.91500031E+02
  0
LINE
  8
0
 62
7
 10
-1.92500111E+02
 20
2.91500031E+02
 11
-1.82000050E+02
 21
2.91500031E+02
  0
LINE
  8
0
 62
7
 10
-1.92500050E+02
 20
2.69500000E+02
 11
-1.92500050E+02
 21
2.91500031E+02
  0
LINE
  8
0
 62
7
 10
-1.94000010E+02
 20
2.89999895E+02
 11
-1.92499976E+02
 21
2.91499929E+02
  0
LINE
  8
0
 62
2
 10
-1.93320057E+02
 20
2.90680023E+02
 11
-1.82000050E+02
 21
2.90680023E+02
  0
LINE
  8
0
 62
7
 10
-1.92500111E+02
 20
2.69500000E+02
 11
-1.82000050E+02
 21
2.69500000E+02
  0
LINE
  8
0
 62
7
 10
-1.94000044E+02
 20
2.71000078E+02
 11
-1.92500053E+02
 21
2.69500087E+02
  0
LINE
  8
0
 62
2
 10
-1.93320057E+02
 20
2.70320023E+02
 11
-1.82000050E+02
 21
2.70320023E+02
  0
LINE
  8
0
 62
7
 10
-1.54000050E+02
 20
2.91000000E+02
 11
-1.44000202E+02
 21
2.91000000E+02
  0
LINE
  8
0
 62
7
 10
-1.54000050E+02
 20
2.70000000E+02
 11
-1.44000095E+02
 21
2.70000000E+02
  0
LINE
  8
0
 62
7
 10
-1.44000085E+02
 20
2.69999981E+02
 11
-1.42000040E+02
 21
2.67999936E+02
  0
LINE
  8
0
 62
7
 10
-1.44000171E+02
 20
2.91000112E+02
 11
-1.42000213E+02
 21
2.93000070E+02
  0
LINE
  8
0
 62
7
 10
-1.57000034E+02
 20
2.90680023E+02
 11
-1.54000034E+02
 21
2.90680023E+02
  0
LINE
  8
0
 62
7
 10
-1.57000034E+02
 20
2.70320023E+02
 11
-1.54000034E+02
 21
2.70320023E+02
  0
LINE
  8
0
  6
CENTER
 62
2
 10
-9.50000343E+01
 20
2.77394165E+02
 11
-9.50000343E+01
 21
3.05323273E+02
  0
LINE
  8
0
  6
CENTER
 62
2
 10
-8.12977028E+01
 20
2.91499969E+02
 11
-1.09094959E+02
 21
2.91499969E+02
  0
LINE
  8
0
  6
CENTER
 62
2
 10
6.89999733E+01
 20
2.77394196E+02
 11
6.89999733E+01
 21
3.05323303E+02
  0
LINE
  8
0
  6
CENTER
 62
2
 10
8.27023048E+01
 20
2.91500000E+02
 11
5.49050484E+01
 21
2.91500000E+02
  0
ARC
  8
0
 62
7
 10
8.84999733E+01
 20
3.26380310E+02
 40
5.00000000E-01
 50
5.46415133E-05
 51
8.89997626E+01
  0
ARC
  8
0
 62
7
 10
8.84999733E+01
 20
2.34619720E+02
 40
5.00000000E-01
 50
2.71000347E+02
 51
5.46415133E-05
  0
ARC
  8
0
 62
7
 10
9.04999428E+01
 20
2.59000015E+02
 40
5.00000000E-01
 50
2.70000073E+02
 51
5.46415133E-05
  0
ARC
  8
0
 62
7
 10
9.04999428E+01
 20
3.02000000E+02
 40
5.00000000E-01
 50
5.46415133E-05
 51
9.00000369E+01
  0
ARC
  8
0
 62
7
 10
5.99999733E+01
 20
2.64500015E+02
 40
5.00000000E+00
 50
0.00000000E+00
 51
1.79999964E+02
  0
ARC
  8
0
 62
7
 10
5.99999733E+01
 20
2.64500015E+02
 40
5.00000000E+00
 50
1.79999977E+02
 51
1.00179127E-05
  0
ARC
  8
0
 62
7
 10
-6.50000343E+01
 20
2.64499969E+02
 40
5.00000000E+00
 50
0.00000000E+00
 51
1.79999964E+02
  0
ARC
  8
0
 62
7
 10
-6.50000343E+01
 20
2.64499969E+02
 40
5.00000000E+00
 50
1.79999977E+02
 51
1.00179127E-05
  0
CIRCLE
  8
0
 62
7
 10
-6.50000343E+01
 20
2.64499969E+02
 40
2.59999990E+00
  0
CIRCLE
  8
0
 62
7
 10
5.99999733E+01
 20
2.64500015E+02
 40
2.59999990E+00
  0
ARC
  8
0
 62
7
 10
-8.22654457E+01
 20
3.27622498E+02
 40
2.50000000E+00
 50
9.76913759E+01
 51
1.79999951E+02
  0
ARC
  8
0
 62
7
 10
-7.97345619E+01
 20
3.27622498E+02
 40
2.50000000E+00
 50
6.37281240E+00
 51
9.76913896E+01
  0
ARC
  8
0
 62
7
 10
-1.10265476E+02
 20
3.27622498E+02
 40
2.50000000E+00
 50
9.76913759E+01
 51
1.79999951E+02
  0
ARC
  8
0
 62
7
 10
-1.07734592E+02
 20
3.27622498E+02
 40
2.50000000E+00
 50
6.37281240E+00
 51
9.76913896E+01
  0
ARC
  8
0
 62
7
 10
-1.34000019E+02
 20
2.60000000E+02
 40
1.00000000E+00
 50
1.79999977E+02
 51
2.70000028E+02
  0
ARC
  8
0
 62
7
 10
-1.34000019E+02
 20
3.00999969E+02
 40
1.00000000E+00
 50
8.99999274E+01
 51
1.79999964E+02
  0
CIRCLE
  8
0
 62
7
 10
-9.50000038E+01
 20
2.91500061E+02
 40
9.25000000E+00
  0
CIRCLE
  8
0
 62
2
 10
-9.50000343E+01
 20
2.91500000E+02
 40
1.04775009E+01
  0
CIRCLE
  8
0
 62
7
 10
-9.50000038E+01
 20
2.91500000E+02
 40
1.10000000E+01
  0
CIRCLE
  8
0
 62
7
 10
6.90000038E+01
 20
2.91500092E+02
 40
9.25000000E+00
  0
CIRCLE
  8
0
 62
2
 10
6.89999733E+01
 20
2.91500031E+02
 40
1.04775009E+01
  0
CIRCLE
  8
0
 62
7
 10
6.90000038E+01
 20
2.91500031E+02
 40
1.10000000E+01
  0
LINE
  8
0
 62
4
 10
-1.80570984E+02
 20
2.80500000E+02
 11
-1.70429115E+02
 21
2.80500000E+02
  0
ARC
  8
0
 62
4
 10
-1.92106837E+02
 20
2.72500000E+02
 40
2.31067870E+01
 50
3.39743797E+02
 51
2.02562028E+01
  0
ARC
  8
0
 62
4
 10
-1.92106837E+02
 20
2.88500000E+02
 40
2.31067870E+01
 50
3.39743797E+02
 51
2.02562028E+01
  0
ARC
  8
0
 62
4
 10
-1.58893263E+02
 20
2.72500000E+02
 40
2.31067870E+01
 50
1.59743797E+02
 51
2.00256203E+02
  0
ARC
  8
0
 62
4
 10
-1.58893263E+02
 20
2.88500000E+02
 40
2.31067870E+01
 50
1.59743797E+02
 51
2.00256203E+02
  0
LINE
  8
0
 62
4
 10
-1.69000050E+02
 20
2.96500000E+02
 11
-1.69000050E+02
 21
2.64500000E+02
  0
LINE
  8
0
 62
4
 10
-1.82000050E+02
 20
2.96500000E+02
 11
-1.82000050E+02
 21
2.64500000E+02
  0
LINE
  8
0
 62
4
 10
-1.82000050E+02
 20
2.96500000E+02
 11
-1.69000050E+02
 21
2.96500000E+02
  0
LINE
  8
0
 62
4
 10
-1.82000050E+02
 20
2.64500000E+02
 11
-1.69000050E+02
 21
2.64500000E+02
  0
LINE
  8
0
 62
7
 10
-1.69000050E+02
 20
2.91500031E+02
 11
-1.57000034E+02
 21
2.91500031E+02
  0
LINE
  8
0
 62
2
 10
-1.69000050E+02
 20
2.90680023E+02
 11
-1.57000034E+02
 21
2.90680023E+02
  0
LINE
  8
0
 62
7
 10
-1.69000050E+02
 20
2.69500000E+02
 11
-1.57000034E+02
 21
2.69500000E+02
  0
LINE
  8
0
 62
2
 10
-1.69000050E+02
 20
2.70320023E+02
 11
-1.57000034E+02
 21
2.70320023E+02
  0
LINE
  8
0
 62
6
 10
6.73199360E+00
 20
2.64589924E+02
 11
3.26789199E+00
 21
2.58589924E+02
  0
LINE
  8
0
 62
4
 10
1.49999428E+01
 20
2.63089924E+02
 11
5.86596816E+00
 21
2.63089924E+02
  0
LINE
  8
0
  6
CENTER
 62
6
 10
4.99999428E+01
 20
2.61589924E+02
 11
2.99994277E+00
 21
2.61589924E+02
  0
LINE
  8
0
 62
4
 10
1.49999428E+01
 20
2.60089924E+02
 11
4.13391737E+00
 21
2.60089924E+02
  0
LINE
  8
0
 62
6
 10
-5.73208516E+00
 20
2.96410061E+02
 11
-2.26798354E+00
 21
3.02410061E+02
  0
LINE
  8
0
 62
4
 10
-1.40000343E+01
 20
2.97910061E+02
 11
-4.86605972E+00
 21
2.97910061E+02
  0
LINE
  8
0
  6
CENTER
 62
6
 10
-4.90000343E+01
 20
2.99410061E+02
 11
-2.00003433E+00
 21
2.99410061E+02
  0
LINE
  8
0
 62
4
 10
-1.40000343E+01
 20
3.00910061E+02
 11
-3.13400892E+00
 21
3.00910061E+02
  0
LINE
  8
0
 62
6
 10
2.79999428E+01
 20
2.33664602E+02
 11
2.79999428E+01
 21
2.35031930E+02
  0
LINE
  8
0
 62
6
 10
2.49999428E+01
 20
2.33664602E+02
 11
2.49999428E+01
 21
2.35031930E+02
  0
LINE
  8
0
 62
4
 10
2.84999428E+01
 20
2.34160160E+02
 11
2.84999428E+01
 21
2.35031930E+02
  0
LINE
  8
0
 62
4
 10
2.44999428E+01
 20
2.34160160E+02
 11
2.44999428E+01
 21
2.35031930E+02
  0
LINE
  8
0
 62
4
 10
2.99999428E+01
 20
2.35031930E+02
 11
2.99999428E+01
 21
2.48876436E+02
  0
LINE
  8
0
 62
4
 10
1.49999428E+01
 20
2.35031930E+02
 11
1.49999428E+01
 21
2.64420135E+02
  0
LINE
  8
0
  6
CENTER
 62
6
 10
1.84999428E+01
 20
2.30234406E+02
 11
1.84999428E+01
 21
2.40499985E+02
  0
LINE
  8
0
  6
CENTER
 62
6
 10
2.64999428E+01
 20
2.30234406E+02
 11
2.64999428E+01
 21
2.40499985E+02
  0
LINE
  8
0
  6
CENTER
 62
6
 10
3.74999428E+01
 20
2.57612159E+02
 11
3.74999428E+01
 21
2.62612159E+02
  0
LINE
  8
0
 62
4
 10
1.99999428E+01
 20
2.64193504E+02
 11
1.99999428E+01
 21
2.63549596E+02
  0
LINE
  8
0
 62
4
 10
4.49999428E+01
 20
2.48876436E+02
 11
4.49999428E+01
 21
2.62322338E+02
  0
LINE
  8
0
 62
4
 10
2.14999428E+01
 20
2.64193504E+02
 11
2.14999428E+01
 21
2.63918659E+02
  0
LINE
  8
0
 62
4
 10
4.64999428E+01
 20
2.60114264E+02
 11
4.64999428E+01
 21
2.63062820E+02
  0
LINE
  8
0
 62
4
 10
2.99999428E+01
 20
2.35031930E+02
 11
1.49999428E+01
 21
2.35031930E+02
  0
LINE
  8
0
 62
4
 10
2.99999428E+01
 20
2.42386149E+02
 11
1.49999428E+01
 21
2.42386149E+02
  0
LINE
  8
0
 62
4
 10
4.49999428E+01
 20
2.48876436E+02
 11
1.49999428E+01
 21
2.48876436E+02
  0
LINE
  8
0
 62
4
 10
4.49999428E+01
 20
2.58426429E+02
 11
1.49999428E+01
 21
2.58426429E+02
  0
LINE
  8
0
 62
4
 10
4.49999428E+01
 20
2.64420135E+02
 11
3.31486874E+01
 21
2.64420135E+02
  0
POLYLINE
  8
0
 62
4
 66
1
  0
VERTEX
  8
0
 62
4
 10
2.44999428E+01
 20
2.34160160E+02
  0
VERTEX
  8
0
 62
4
 10
2.45079942E+01
 20
2.34093001E+02
  0
VERTEX
  8
0
 62
4
 10
2.45320836E+01
 20
2.34026383E+02
  0
VERTEX
  8
0
 62
4
 10
2.45720171E+01
 20
2.33960842E+02
  0
VERTEX
  8
0
 62
4
 10
2.46274731E+01
 20
2.33896905E+02
  0
VERTEX
  8
0
 62
4
 10
2.46980051E+01
 20
2.33835089E+02
  0
VERTEX
  8
0
 62
4
 10
2.47830452E+01
 20
2.33775889E+02
  0
VERTEX
  8
0
 62
4
 10
2.48819088E+01
 20
2.33719784E+02
  0
VERTEX
  8
0
 62
4
 10
2.49937999E+01
 20
2.33667224E+02
  0
VERTEX
  8
0
 62
4
 10
2.51178175E+01
 20
2.33618633E+02
  0
VERTEX
  8
0
 62
4
 10
2.52529632E+01
 20
2.33574402E+02
  0
VERTEX
  8
0
 62
4
 10
2.53981488E+01
 20
2.33534887E+02
  0
VERTEX
  8
0
 62
4
 10
2.55522055E+01
 20
2.33500406E+02
  0
VERTEX
  8
0
 62
4
 10
2.57138927E+01
 20
2.33471238E+02
  0
VERTEX
  8
0
 62
4
 10
2.58819088E+01
 20
2.33447616E+02
  0
VERTEX
  8
0
 62
4
 10
2.60549009E+01
 20
2.33429731E+02
  0
VERTEX
  8
0
 62
4
 10
2.62314763E+01
 20
2.33417727E+02
  0
VERTEX
  8
0
 62
4
 10
2.64102131E+01
 20
2.33411701E+02
  0
VERTEX
  8
0
 62
4
 10
2.65896724E+01
 20
2.33411701E+02
  0
VERTEX
  8
0
 62
4
 10
2.67684093E+01
 20
2.33417727E+02
  0
VERTEX
  8
0
 62
4
 10
2.69449847E+01
 20
2.33429731E+02
  0
VERTEX
  8
0
 62
4
 10
2.71179768E+01
 20
2.33447616E+02
  0
VERTEX
  8
0
 62
4
 10
2.72859929E+01
 20
2.33471238E+02
  0
VERTEX
  8
0
 62
4
 10
2.74476801E+01
 20
2.33500406E+02
  0
VERTEX
  8
0
 62
4
 10
2.76017368E+01
 20
2.33534887E+02
  0
VERTEX
  8
0
 62
4
 10
2.77469224E+01
 20
2.33574402E+02
  0
VERTEX
  8
0
 62
4
 10
2.78820681E+01
 20
2.33618633E+02
  0
VERTEX
  8
0
 62
4
 10
2.80060857E+01
 20
2.33667224E+02
  0
VERTEX
  8
0
 62
4
 10
2.81179768E+01
 20
2.33719784E+02
  0
VERTEX
  8
0
 62
4
 10
2.82168404E+01
 20
2.33775889E+02
  0
VERTEX
  8
0
 62
4
 10
2.83018805E+01
 20
2.33835089E+02
  0
VERTEX
  8
0
 62
4
 10
2.83724125E+01
 20
2.33896905E+02
  0
VERTEX
  8
0
 62
4
 10
2.84278685E+01
 20
2.33960842E+02
  0
VERTEX
  8
0
 62
4
 10
2.84678020E+01
 20
2.34026383E+02
  0
VERTEX
  8
0
 62
4
 10
2.84918914E+01
 20
2.34093001E+02
  0
VERTEX
  8
0
 62
4
 10
2.84999428E+01
 20
2.34160160E+02
  0
SEQEND
  8
0
  0
LINE
  8
0
 62
6
 10
1.69999428E+01
 20
2.33664602E+02
 11
1.69999428E+01
 21
2.35031930E+02
  0
LINE
  8
0
 62
4
 10
1.64999428E+01
 20
2.34160160E+02
 11
1.64999428E+01
 21
2.35031930E+02
  0
POLYLINE
  8
0
 62
4
 66
1
  0
VERTEX
  8
0
 62
4
 10
1.64999428E+01
 20
2.34160160E+02
  0
VERTEX
  8
0
 62
4
 10
1.65079942E+01
 20
2.34093001E+02
  0
VERTEX
  8
0
 62
4
 10
1.65320836E+01
 20
2.34026383E+02
  0
VERTEX
  8
0
 62
4
 10
1.65720171E+01
 20
2.33960842E+02
  0
VERTEX
  8
0
 62
4
 10
1.66274731E+01
 20
2.33896905E+02
  0
VERTEX
  8
0
 62
4
 10
1.66980051E+01
 20
2.33835089E+02
  0
VERTEX
  8
0
 62
4
 10
1.67830452E+01
 20
2.33775889E+02
  0
VERTEX
  8
0
 62
4
 10
1.68819088E+01
 20
2.33719784E+02
  0
VERTEX
  8
0
 62
4
 10
1.69937999E+01
 20
2.33667224E+02
  0
VERTEX
  8
0
 62
4
 10
1.71178175E+01
 20
2.33618633E+02
  0
VERTEX
  8
0
 62
4
 10
1.72529632E+01
 20
2.33574402E+02
  0
VERTEX
  8
0
 62
4
 10
1.73981488E+01
 20
2.33534887E+02
  0
VERTEX
  8
0
 62
4
 10
1.75522055E+01
 20
2.33500406E+02
  0
VERTEX
  8
0
 62
4
 10
1.77138927E+01
 20
2.33471238E+02
  0
VERTEX
  8
0
 62
4
 10
1.78819088E+01
 20
2.33447616E+02
  0
VERTEX
  8
0
 62
4
 10
1.80549009E+01
 20
2.33429731E+02
  0
VERTEX
  8
0
 62
4
 10
1.82314763E+01
 20
2.33417727E+02
  0
VERTEX
  8
0
 62
4
 10
1.84102131E+01
 20
2.33411701E+02
  0
VERTEX
  8
0
 62
4
 10
1.85896724E+01
 20
2.33411701E+02
  0
VERTEX
  8
0
 62
4
 10
1.87684093E+01
 20
2.33417727E+02
  0
VERTEX
  8
0
 62
4
 10
1.89449847E+01
 20
2.33429731E+02
  0
VERTEX
  8
0
 62
4
 10
1.91179768E+01
 20
2.33447616E+02
  0
VERTEX
  8
0
 62
4
 10
1.92859929E+01
 20
2.33471238E+02
  0
VERTEX
  8
0
 62
4
 10
1.94476801E+01
 20
2.33500406E+02
  0
VERTEX
  8
0
 62
4
 10
1.96017368E+01
 20
2.33534887E+02
  0
VERTEX
  8
0
 62
4
 10
1.97469224E+01
 20
2.33574402E+02
  0
VERTEX
  8
0
 62
4
 10
1.98820681E+01
 20
2.33618633E+02
  0
VERTEX
  8
0
 62
4
 10
2.00060857E+01
 20
2.33667224E+02
  0
VERTEX
  8
0
 62
4
 10
2.01179768E+01
 20
2.33719784E+02
  0
VERTEX
  8
0
 62
4
 10
2.02168404E+01
 20
2.33775889E+02
  0
VERTEX
  8
0
 62
4
 10
2.03018805E+01
 20
2.33835089E+02
  0
VERTEX
  8
0
 62
4
 10
2.03724125E+01
 20
2.33896905E+02
  0
VERTEX
  8
0
 62
4
 10
2.04278685E+01
 20
2.33960842E+02
  0
VERTEX
  8
0
 62
4
 10
2.04678020E+01
 20
2.34026383E+02
  0
VERTEX
  8
0
 62
4
 10
2.04918914E+01
 20
2.34093001E+02
  0
VERTEX
  8
0
 62
4
 10
2.04999428E+01
 20
2.34160160E+02
  0
SEQEND
  8
0
  0
LINE
  8
0
 62
6
 10
1.99999428E+01
 20
2.33664602E+02
 11
1.99999428E+01
 21
2.35031930E+02
  0
LINE
  8
0
 62
4
 10
2.04999428E+01
 20
2.34160160E+02
 11
2.04999428E+01
 21
2.35031930E+02
  0
LINE
  8
0
 62
4
 10
2.58499428E+01
 20
2.62829325E+02
 11
2.58499428E+01
 21
2.63407456E+02
  0
LINE
  8
0
 62
4
 10
3.41499428E+01
 20
2.61775612E+02
 11
3.41499428E+01
 21
2.63407456E+02
  0
POLYLINE
  8
0
 62
4
 66
1
  0
VERTEX
  8
0
 62
4
 10
2.62989247E+01
 20
2.61072292E+02
  0
VERTEX
  8
0
 62
4
 10
2.64806051E+01
 20
2.60951753E+02
  0
VERTEX
  8
0
 62
4
 10
2.66901882E+01
 20
2.60837746E+02
  0
VERTEX
  8
0
 62
4
 10
2.69260123E+01
 20
2.60731175E+02
  0
VERTEX
  8
0
 62
4
 10
2.71862078E+01
 20
2.60632884E+02
  0
VERTEX
  8
0
 62
4
 10
2.74687118E+01
 20
2.60543653E+02
  0
VERTEX
  8
0
 62
4
 10
2.77712843E+01
 20
2.60464190E+02
  0
VERTEX
  8
0
 62
4
 10
2.80915265E+01
 20
2.60395125E+02
  0
VERTEX
  8
0
 62
4
 10
2.84268994E+01
 20
2.60337004E+02
  0
VERTEX
  8
0
 62
4
 10
2.87747441E+01
 20
2.60290289E+02
  0
VERTEX
  8
0
 62
4
 10
2.91323026E+01
 20
2.60255351E+02
  0
VERTEX
  8
0
 62
4
 10
2.94967401E+01
 20
2.60232465E+02
  0
VERTEX
  8
0
 62
4
 10
2.98651672E+01
 20
2.60221815E+02
  0
VERTEX
  8
0
 62
4
 10
3.02346628E+01
 20
2.60223483E+02
  0
VERTEX
  8
0
 62
4
 10
3.06022975E+01
 20
2.60237458E+02
  0
VERTEX
  8
0
 62
4
 10
3.09651565E+01
 20
2.60263627E+02
  0
VERTEX
  8
0
 62
4
 10
3.13203629E+01
 20
2.60301784E+02
  0
VERTEX
  8
0
 62
4
 10
3.16651004E+01
 20
2.60351626E+02
  0
VERTEX
  8
0
 62
4
 10
3.19966360E+01
 20
2.60412759E+02
  0
VERTEX
  8
0
 62
4
 10
3.23123409E+01
 20
2.60484696E+02
  0
VERTEX
  8
0
 62
4
 10
3.26097122E+01
 20
2.60566868E+02
  0
VERTEX
  8
0
 62
4
 10
3.28863923E+01
 20
2.60658624E+02
  0
VERTEX
  8
0
 62
4
 10
3.31401874E+01
 20
2.60759236E+02
  0
VERTEX
  8
0
 62
4
 10
3.33690854E+01
 20
2.60867905E+02
  0
VERTEX
  8
0
 62
4
 10
3.35712715E+01
 20
2.60983772E+02
  0
VERTEX
  8
0
 62
4
 10
3.37451426E+01
 20
2.61105917E+02
  0
VERTEX
  8
0
 62
4
 10
3.38893203E+01
 20
2.61233371E+02
  0
VERTEX
  8
0
 62
4
 10
3.40026615E+01
 20
2.61365124E+02
  0
VERTEX
  8
0
 62
4
 10
3.40842675E+01
 20
2.61500132E+02
  0
VERTEX
  8
0
 62
4
 10
3.41334914E+01
 20
2.61637324E+02
  0
VERTEX
  8
0
 62
4
 10
3.41499428E+01
 20
2.61775612E+02
  0
SEQEND
  8
0
  0
POLYLINE
  8
0
 62
4
 66
1
  0
VERTEX
  8
0
 62
4
 10
3.41499428E+01
 20
2.63407456E+02
  0
VERTEX
  8
0
 62
4
 10
3.41341508E+01
 20
2.63542950E+02
  0
VERTEX
  8
0
 62
4
 10
3.40868950E+01
 20
2.63677412E+02
  0
VERTEX
  8
0
 62
4
 10
3.40085350E+01
 20
2.63809821E+02
  0
VERTEX
  8
0
 62
4
 10
3.38996672E+01
 20
2.63939166E+02
  0
VERTEX
  8
0
 62
4
 10
3.37611201E+01
 20
2.64064466E+02
  0
VERTEX
  8
0
 62
4
 10
3.35939482E+01
 20
2.64184765E+02
  0
VERTEX
  8
0
 62
4
 10
3.33994238E+01
 20
2.64299148E+02
  0
VERTEX
  8
0
 62
4
 10
3.31790272E+01
 20
2.64406745E+02
  0
VERTEX
  8
0
 62
4
 10
3.29344359E+01
 20
2.64506736E+02
  0
VERTEX
  8
0
 62
4
 10
3.26675114E+01
 20
2.64598362E+02
  0
VERTEX
  8
0
 62
4
 10
3.23802850E+01
 20
2.64680924E+02
  0
VERTEX
  8
0
 62
4
 10
3.20749428E+01
 20
2.64753794E+02
  0
VERTEX
  8
0
 62
4
 10
3.17538086E+01
 20
2.64816418E+02
  0
VERTEX
  8
0
 62
4
 10
3.14193264E+01
 20
2.64868318E+02
  0
VERTEX
  8
0
 62
4
 10
3.10740418E+01
 20
2.64909101E+02
  0
VERTEX
  8
0
 62
4
 10
3.07205827E+01
 20
2.64938455E+02
  0
VERTEX
  8
0
 62
4
 10
3.03616391E+01
 20
2.64956158E+02
  0
VERTEX
  8
0
 62
4
 10
2.99999428E+01
 20
2.64962073E+02
  0
VERTEX
  8
0
 62
4
 10
2.96382465E+01
 20
2.64956158E+02
  0
VERTEX
  8
0
 62
4
 10
2.92793029E+01
 20
2.64938455E+02
  0
VERTEX
  8
0
 62
4
 10
2.89258438E+01
 20
2.64909101E+02
  0
VERTEX
  8
0
 62
4
 10
2.85805592E+01
 20
2.64868318E+02
  0
VERTEX
  8
0
 62
4
 10
2.82460770E+01
 20
2.64816418E+02
  0
VERTEX
  8
0
 62
4
 10
2.79249428E+01
 20
2.64753794E+02
  0
VERTEX
  8
0
 62
4
 10
2.76196006E+01
 20
2.64680924E+02
  0
VERTEX
  8
0
 62
4
 10
2.73323742E+01
 20
2.64598362E+02
  0
VERTEX
  8
0
 62
4
 10
2.70654497E+01
 20
2.64506736E+02
  0
VERTEX
  8
0
 62
4
 10
2.68208584E+01
 20
2.64406745E+02
  0
VERTEX
  8
0
 62
4
 10
2.66004618E+01
 20
2.64299148E+02
  0
VERTEX
  8
0
 62
4
 10
2.64059374E+01
 20
2.64184765E+02
  0
VERTEX
  8
0
 62
4
 10
2.62387655E+01
 20
2.64064466E+02
  0
VERTEX
  8
0
 62
4
 10
2.61002184E+01
 20
2.63939166E+02
  0
VERTEX
  8
0
 62
4
 10
2.59913506E+01
 20
2.63809821E+02
  0
VERTEX
  8
0
 62
4
 10
2.59129906E+01
 20
2.63677412E+02
  0
VERTEX
  8
0
 62
4
 10
2.58657348E+01
 20
2.63542950E+02
  0
VERTEX
  8
0
 62
4
 10
2.58499428E+01
 20
2.63407456E+02
  0
VERTEX
  8
0
 62
4
 10
2.58657348E+01
 20
2.63271962E+02
  0
VERTEX
  8
0
 62
4
 10
2.59129906E+01
 20
2.63137500E+02
  0
VERTEX
  8
0
 62
4
 10
2.59913506E+01
 20
2.63005091E+02
  0
VERTEX
  8
0
 62
4
 10
2.61002184E+01
 20
2.62875746E+02
  0
VERTEX
  8
0
 62
4
 10
2.62387655E+01
 20
2.62750446E+02
  0
VERTEX
  8
0
 62
4
 10
2.64059374E+01
 20
2.62630147E+02
  0
VERTEX
  8
0
 62
4
 10
2.66004618E+01
 20
2.62515764E+02
  0
VERTEX
  8
0
 62
4
 10
2.68208584E+01
 20
2.62408167E+02
  0
VERTEX
  8
0
 62
4
 10
2.70654497E+01
 20
2.62308176E+02
  0
VERTEX
  8
0
 62
4
 10
2.73323742E+01
 20
2.62216550E+02
  0
VERTEX
  8
0
 62
4
 10
2.76196006E+01
 20
2.62133988E+02
  0
VERTEX
  8
0
 62
4
 10
2.79249428E+01
 20
2.62061118E+02
  0
VERTEX
  8
0
 62
4
 10
2.82460770E+01
 20
2.61998494E+02
  0
VERTEX
  8
0
 62
4
 10
2.85805592E+01
 20
2.61946594E+02
  0
VERTEX
  8
0
 62
4
 10
2.89258438E+01
 20
2.61905811E+02
  0
VERTEX
  8
0
 62
4
 10
2.92793029E+01
 20
2.61876457E+02
  0
VERTEX
  8
0
 62
4
 10
2.96382465E+01
 20
2.61858754E+02
  0
VERTEX
  8
0
 62
4
 10
2.99999428E+01
 20
2.61852839E+02
  0
VERTEX
  8
0
 62
4
 10
3.03616391E+01
 20
2.61858754E+02
  0
VERTEX
  8
0
 62
4
 10
3.07205827E+01
 20
2.61876457E+02
  0
VERTEX
  8
0
 62
4
 10
3.10740418E+01
 20
2.61905811E+02
  0
VERTEX
  8
0
 62
4
 10
3.14193264E+01
 20
2.61946594E+02
  0
VERTEX
  8
0
 62
4
 10
3.17538086E+01
 20
2.61998494E+02
  0
VERTEX
  8
0
 62
4
 10
3.20749428E+01
 20
2.62061118E+02
  0
VERTEX
  8
0
 62
4
 10
3.23802850E+01
 20
2.62133988E+02
  0
VERTEX
  8
0
 62
4
 10
3.26675114E+01
 20
2.62216550E+02
  0
VERTEX
  8
0
 62
4
 10
3.29344359E+01
 20
2.62308176E+02
  0
VERTEX
  8
0
 62
4
 10
3.31790272E+01
 20
2.62408167E+02
  0
VERTEX
  8
0
 62
4
 10
3.33994238E+01
 20
2.62515764E+02
  0
VERTEX
  8
0
 62
4
 10
3.35939482E+01
 20
2.62630147E+02
  0
VERTEX
  8
0
 62
4
 10
3.37611201E+01
 20
2.62750446E+02
  0
VERTEX
  8
0
 62
4
 10
3.38996672E+01
 20
2.62875746E+02
  0
VERTEX
  8
0
 62
4
 10
3.40085350E+01
 20
2.63005091E+02
  0
VERTEX
  8
0
 62
4
 10
3.40868950E+01
 20
2.63137500E+02
  0
VERTEX
  8
0
 62
4
 10
3.41341508E+01
 20
2.63271962E+02
  0
VERTEX
  8
0
 62
4
 10
3.41499428E+01
 20
2.63407456E+02
  0
SEQEND
  8
0
  0
ARC
  8
0
 62
4
 10
3.56166500E+01
 20
2.48987314E+02
 40
1.61228529E+01
 50
1.03811346E+02
 51
1.17258955E+02
  0
ARC
  8
0
 62
4
 10
2.43832329E+01
 20
2.48987307E+02
 40
1.61228609E+01
 50
6.27410478E+01
 51
7.61886514E+01
  0
POLYLINE
  8
0
 62
4
 66
1
  0
VERTEX
  8
0
 62
4
 10
2.62999428E+01
 20
2.60853929E+02
  0
VERTEX
  8
0
 62
4
 10
2.64465854E+01
 20
2.60735223E+02
  0
VERTEX
  8
0
 62
4
 10
2.66203041E+01
 20
2.60621760E+02
  0
VERTEX
  8
0
 62
4
 10
2.68197752E+01
 20
2.60514405E+02
  0
VERTEX
  8
0
 62
4
 10
2.70434788E+01
 20
2.60413975E+02
  0
VERTEX
  8
0
 62
4
 10
2.72897104E+01
 20
2.60321235E+02
  0
VERTEX
  8
0
 62
4
 10
2.75565935E+01
 20
2.60236894E+02
  0
VERTEX
  8
0
 62
4
 10
2.78420947E+01
 20
2.60161592E+02
  0
VERTEX
  8
0
 62
4
 10
2.81440384E+01
 20
2.60095904E+02
  0
VERTEX
  8
0
 62
4
 10
2.84601239E+01
 20
2.60040331E+02
  0
VERTEX
  8
0
 62
4
 10
2.87879426E+01
 20
2.59995296E+02
  0
VERTEX
  8
0
 62
4
 10
2.91249966E+01
 20
2.59961142E+02
  0
VERTEX
  8
0
 62
4
 10
2.94687176E+01
 20
2.59938129E+02
  0
VERTEX
  8
0
 62
4
 10
2.98164865E+01
 20
2.59926432E+02
  0
VERTEX
  8
0
 62
4
 10
3.01656533E+01
 20
2.59926142E+02
  0
VERTEX
  8
0
 62
4
 10
3.05135574E+01
 20
2.59937260E+02
  0
VERTEX
  8
0
 62
4
 10
3.08575478E+01
 20
2.59959701E+02
  0
VERTEX
  8
0
 62
4
 10
3.11950033E+01
 20
2.59993294E+02
  0
VERTEX
  8
0
 62
4
 10
3.15233527E+01
 20
2.60037783E+02
  0
VERTEX
  8
0
 62
4
 10
3.18400938E+01
 20
2.60092830E+02
  0
VERTEX
  8
0
 62
4
 10
3.21428132E+01
 20
2.60158015E+02
  0
VERTEX
  8
0
 62
4
 10
3.24292042E+01
 20
2.60232841E+02
  0
VERTEX
  8
0
 62
4
 10
3.26970846E+01
 20
2.60316738E+02
  0
VERTEX
  8
0
 62
4
 10
3.29444130E+01
 20
2.60409067E+02
  0
VERTEX
  8
0
 62
4
 10
3.31693050E+01
 20
2.60509123E+02
  0
VERTEX
  8
0
 62
4
 10
3.33700468E+01
 20
2.60616146E+02
  0
VERTEX
  8
0
 62
4
 10
3.35451088E+01
 20
2.60729319E+02
  0
VERTEX
  8
0
 62
4
 10
3.36931571E+01
 20
2.60847780E+02
  0
VERTEX
  8
0
 62
4
 10
3.38130635E+01
 20
2.60970626E+02
  0
VERTEX
  8
0
 62
4
 10
3.39039144E+01
 20
2.61096921E+02
  0
VERTEX
  8
0
 62
4
 10
3.39650176E+01
 20
2.61225703E+02
  0
VERTEX
  8
0
 62
4
 10
3.39959074E+01
 20
2.61355991E+02
  0
SEQEND
  8
0
  0
LINE
  8
0
 62
4
 10
2.58999428E+01
 20
2.61039343E+02
 11
2.58999428E+01
 21
2.62517074E+02
  0
POLYLINE
  8
0
 62
4
 66
1
  0
VERTEX
  8
0
 62
4
 10
1.90999428E+01
 20
2.61039343E+02
  0
VERTEX
  8
0
 62
4
 10
1.91136302E+01
 20
2.60925173E+02
  0
VERTEX
  8
0
 62
4
 10
1.91545822E+01
 20
2.60811922E+02
  0
VERTEX
  8
0
 62
4
 10
1.92224691E+01
 20
2.60700502E+02
  0
VERTEX
  8
0
 62
4
 10
1.93167442E+01
 20
2.60591810E+02
  0
VERTEX
  8
0
 62
4
 10
1.94366486E+01
 20
2.60486722E+02
  0
VERTEX
  8
0
 62
4
 10
1.95812169E+01
 20
2.60386082E+02
  0
VERTEX
  8
0
 62
4
 10
1.97492850E+01
 20
2.60290703E+02
  0
VERTEX
  8
0
 62
4
 10
1.99394998E+01
 20
2.60201351E+02
  0
VERTEX
  8
0
 62
4
 10
2.01503298E+01
 20
2.60118746E+02
  0
VERTEX
  8
0
 62
4
 10
2.03800775E+01
 20
2.60043554E+02
  0
VERTEX
  8
0
 62
4
 10
2.06268930E+01
 20
2.59976378E+02
  0
VERTEX
  8
0
 62
4
 10
2.08887893E+01
 20
2.59917762E+02
  0
VERTEX
  8
0
 62
4
 10
2.11636577E+01
 20
2.59868175E+02
  0
VERTEX
  8
0
 62
4
 10
2.14492850E+01
 20
2.59828018E+02
  0
VERTEX
  8
0
 62
4
 10
2.17433716E+01
 20
2.59797614E+02
  0
VERTEX
  8
0
 62
4
 10
2.20435497E+01
 20
2.59777208E+02
  0
VERTEX
  8
0
 62
4
 10
2.23474024E+01
 20
2.59766963E+02
  0
VERTEX
  8
0
 62
4
 10
2.26524832E+01
 20
2.59766963E+02
  0
VERTEX
  8
0
 62
4
 10
2.29563359E+01
 20
2.59777208E+02
  0
VERTEX
  8
0
 62
4
 10
2.32565140E+01
 20
2.59797614E+02
  0
VERTEX
  8
0
 62
4
 10
2.35506006E+01
 20
2.59828018E+02
  0
VERTEX
  8
0
 62
4
 10
2.38362279E+01
 20
2.59868175E+02
  0
VERTEX
  8
0
 62
4
 10
2.41110962E+01
 20
2.59917762E+02
  0
VERTEX
  8
0
 62
4
 10
2.43729925E+01
 20
2.59976378E+02
  0
VERTEX
  8
0
 62
4
 10
2.46198081E+01
 20
2.60043554E+02
  0
VERTEX
  8
0
 62
4
 10
2.48495558E+01
 20
2.60118746E+02
  0
VERTEX
  8
0
 62
4
 10
2.50603858E+01
 20
2.60201351E+02
  0
VERTEX
  8
0
 62
4
 10
2.52506006E+01
 20
2.60290703E+02
  0
VERTEX
  8
0
 62
4
 10
2.54186687E+01
 20
2.60386082E+02
  0
VERTEX
  8
0
 62
4
 10
2.55632369E+01
 20
2.60486722E+02
  0
VERTEX
  8
0
 62
4
 10
2.56831414E+01
 20
2.60591810E+02
  0
VERTEX
  8
0
 62
4
 10
2.57774165E+01
 20
2.60700502E+02
  0
VERTEX
  8
0
 62
4
 10
2.58453034E+01
 20
2.60811922E+02
  0
VERTEX
  8
0
 62
4
 10
2.58862554E+01
 20
2.60925173E+02
  0
VERTEX
  8
0
 62
4
 10
2.58999428E+01
 20
2.61039343E+02
  0
SEQEND
  8
0
  0
POLYLINE
  8
0
 62
4
 66
1
  0
VERTEX
  8
0
 62
4
 10
1.90999428E+01
 20
2.62087061E+02
  0
VERTEX
  8
0
 62
4
 10
1.91136302E+01
 20
2.61972891E+02
  0
VERTEX
  8
0
 62
4
 10
1.91545822E+01
 20
2.61859640E+02
  0
VERTEX
  8
0
 62
4
 10
1.92224691E+01
 20
2.61748220E+02
  0
VERTEX
  8
0
 62
4
 10
1.93167442E+01
 20
2.61639528E+02
  0
VERTEX
  8
0
 62
4
 10
1.94366486E+01
 20
2.61534440E+02
  0
VERTEX
  8
0
 62
4
 10
1.95812169E+01
 20
2.61433800E+02
  0
VERTEX
  8
0
 62
4
 10
1.97492850E+01
 20
2.61338421E+02
  0
VERTEX
  8
0
 62
4
 10
1.99394998E+01
 20
2.61249069E+02
  0
VERTEX
  8
0
 62
4
 10
2.01503298E+01
 20
2.61166464E+02
  0
VERTEX
  8
0
 62
4
 10
2.03800775E+01
 20
2.61091272E+02
  0
VERTEX
  8
0
 62
4
 10
2.06268930E+01
 20
2.61024096E+02
  0
VERTEX
  8
0
 62
4
 10
2.08887893E+01
 20
2.60965480E+02
  0
VERTEX
  8
0
 62
4
 10
2.11636577E+01
 20
2.60915893E+02
  0
VERTEX
  8
0
 62
4
 10
2.14492850E+01
 20
2.60875736E+02
  0
VERTEX
  8
0
 62
4
 10
2.17433716E+01
 20
2.60845332E+02
  0
VERTEX
  8
0
 62
4
 10
2.20435497E+01
 20
2.60824926E+02
  0
VERTEX
  8
0
 62
4
 10
2.23474024E+01
 20
2.60814681E+02
  0
VERTEX
  8
0
 62
4
 10
2.26524832E+01
 20
2.60814681E+02
  0
VERTEX
  8
0
 62
4
 10
2.29563359E+01
 20
2.60824926E+02
  0
VERTEX
  8
0
 62
4
 10
2.32565140E+01
 20
2.60845332E+02
  0
VERTEX
  8
0
 62
4
 10
2.35506006E+01
 20
2.60875736E+02
  0
VERTEX
  8
0
 62
4
 10
2.38362279E+01
 20
2.60915893E+02
  0
VERTEX
  8
0
 62
4
 10
2.41110962E+01
 20
2.60965480E+02
  0
VERTEX
  8
0
 62
4
 10
2.43729925E+01
 20
2.61024096E+02
  0
VERTEX
  8
0
 62
4
 10
2.46198081E+01
 20
2.61091272E+02
  0
VERTEX
  8
0
 62
4
 10
2.48495558E+01
 20
2.61166464E+02
  0
VERTEX
  8
0
 62
4
 10
2.50603858E+01
 20
2.61249069E+02
  0
VERTEX
  8
0
 62
4
 10
2.52506006E+01
 20
2.61338421E+02
  0
VERTEX
  8
0
 62
4
 10
2.54186687E+01
 20
2.61433800E+02
  0
VERTEX
  8
0
 62
4
 10
2.55632369E+01
 20
2.61534440E+02
  0
VERTEX
  8
0
 62
4
 10
2.56831414E+01
 20
2.61639528E+02
  0
VERTEX
  8
0
 62
4
 10
2.57774165E+01
 20
2.61748220E+02
  0
VERTEX
  8
0
 62
4
 10
2.58453034E+01
 20
2.61859640E+02
  0
VERTEX
  8
0
 62
4
 10
2.58862554E+01
 20
2.61972891E+02
  0
VERTEX
  8
0
 62
4
 10
2.58999428E+01
 20
2.62087061E+02
  0
SEQEND
  8
0
  0
LINE
  8
0
 62
4
 10
1.90999428E+01
 20
2.62517074E+02
 11
1.90999428E+01
 21
2.61039343E+02
  0
ARC
  8
0
 62
4
 10
2.00999425E+01
 20
2.62517074E+02
 40
1.00000000E+00
 50
1.02827510E+02
 51
1.80000000E+02
  0
ARC
  8
0
 62
4
 10
2.48999431E+01
 20
2.62517074E+02
 40
1.00000000E+00
 50
3.60000000E+02
 51
7.71724899E+01
  0
ARC
  8
0
 62
4
 10
2.78873276E+01
 20
2.48760319E+02
 40
1.54729912E+01
 50
1.03783165E+02
 51
1.17543924E+02
  0
ARC
  8
0
 62
4
 10
1.71125575E+01
 20
2.48760318E+02
 40
1.54729926E+01
 50
6.24560769E+01
 51
7.62168346E+01
  0
LINE
  8
0
 62
4
 10
1.86999428E+01
 20
2.60112159E+02
 11
1.86999428E+01
 21
2.61039343E+02
  0
LINE
  8
0
 62
4
 10
2.62999428E+01
 20
2.60112159E+02
 11
2.62999428E+01
 21
2.61039343E+02
  0
POLYLINE
  8
0
 62
4
 66
1
  0
VERTEX
  8
0
 62
4
 10
1.86999428E+01
 20
2.60112159E+02
  0
VERTEX
  8
0
 62
4
 10
1.87152405E+01
 20
2.59984557E+02
  0
VERTEX
  8
0
 62
4
 10
1.87610104E+01
 20
2.59857982E+02
  0
VERTEX
  8
0
 62
4
 10
1.88368839E+01
 20
2.59733454E+02
  0
VERTEX
  8
0
 62
4
 10
1.89422503E+01
 20
2.59611975E+02
  0
VERTEX
  8
0
 62
4
 10
1.90762611E+01
 20
2.59494523E+02
  0
VERTEX
  8
0
 62
4
 10
1.92378374E+01
 20
2.59382044E+02
  0
VERTEX
  8
0
 62
4
 10
1.94256782E+01
 20
2.59275444E+02
  0
VERTEX
  8
0
 62
4
 10
1.96382712E+01
 20
2.59175580E+02
  0
VERTEX
  8
0
 62
4
 10
1.98739047E+01
 20
2.59083257E+02
  0
VERTEX
  8
0
 62
4
 10
2.01306815E+01
 20
2.58999218E+02
  0
VERTEX
  8
0
 62
4
 10
2.04065343E+01
 20
2.58924140E+02
  0
VERTEX
  8
0
 62
4
 10
2.06992419E+01
 20
2.58858627E+02
  0
VERTEX
  8
0
 62
4
 10
2.10064477E+01
 20
2.58803207E+02
  0
VERTEX
  8
0
 62
4
 10
2.13256782E+01
 20
2.58758325E+02
  0
VERTEX
  8
0
 62
4
 10
2.16543632E+01
 20
2.58724344E+02
  0
VERTEX
  8
0
 62
4
 10
2.19898564E+01
 20
2.58701537E+02
  0
VERTEX
  8
0
 62
4
 10
2.23294564E+01
 20
2.58690087E+02
  0
VERTEX
  8
0
 62
4
 10
2.26704291E+01
 20
2.58690087E+02
  0
VERTEX
  8
0
 62
4
 10
2.30100292E+01
 20
2.58701537E+02
  0
VERTEX
  8
0
 62
4
 10
2.33455223E+01
 20
2.58724344E+02
  0
VERTEX
  8
0
 62
4
 10
2.36742074E+01
 20
2.58758325E+02
  0
VERTEX
  8
0
 62
4
 10
2.39934379E+01
 20
2.58803207E+02
  0
VERTEX
  8
0
 62
4
 10
2.43006437E+01
 20
2.58858627E+02
  0
VERTEX
  8
0
 62
4
 10
2.45933513E+01
 20
2.58924140E+02
  0
VERTEX
  8
0
 62
4
 10
2.48692040E+01
 20
2.58999218E+02
  0
VERTEX
  8
0
 62
4
 10
2.51259808E+01
 20
2.59083257E+02
  0
VERTEX
  8
0
 62
4
 10
2.53616144E+01
 20
2.59175580E+02
  0
VERTEX
  8
0
 62
4
 10
2.55742074E+01
 20
2.59275444E+02
  0
VERTEX
  8
0
 62
4
 10
2.57620482E+01
 20
2.59382044E+02
  0
VERTEX
  8
0
 62
4
 10
2.59236245E+01
 20
2.59494523E+02
  0
VERTEX
  8
0
 62
4
 10
2.60576353E+01
 20
2.59611975E+02
  0
VERTEX
  8
0
 62
4
 10
2.61630017E+01
 20
2.59733454E+02
  0
VERTEX
  8
0
 62
4
 10
2.62388752E+01
 20
2.59857982E+02
  0
VERTEX
  8
0
 62
4
 10
2.62846451E+01
 20
2.59984557E+02
  0
VERTEX
  8
0
 62
4
 10
2.62999428E+01
 20
2.60112159E+02
  0
SEQEND
  8
0
  0
POLYLINE
  8
0
 62
4
 66
1
  0
VERTEX
  8
0
 62
4
 10
1.90999428E+01
 20
2.61675071E+02
  0
VERTEX
  8
0
 62
4
 10
1.89633611E+01
 20
2.61560112E+02
  0
VERTEX
  8
0
 62
4
 10
1.88544133E+01
 20
2.61441084E+02
  0
VERTEX
  8
0
 62
4
 10
1.87739505E+01
 20
2.61318916E+02
  0
VERTEX
  8
0
 62
4
 10
1.87226015E+01
 20
2.61194564E+02
  0
VERTEX
  8
0
 62
4
 10
1.87007675E+01
 20
2.61068999E+02
  0
VERTEX
  8
0
 62
4
 10
1.87086192E+01
 20
2.60943203E+02
  0
VERTEX
  8
0
 62
4
 10
1.87460952E+01
 20
2.60818158E+02
  0
VERTEX
  8
0
 62
4
 10
1.88129026E+01
 20
2.60694840E+02
  0
VERTEX
  8
0
 62
4
 10
1.89085194E+01
 20
2.60574215E+02
  0
VERTEX
  8
0
 62
4
 10
1.90321986E+01
 20
2.60457224E+02
  0
VERTEX
  8
0
 62
4
 10
1.91829737E+01
 20
2.60344782E+02
  0
VERTEX
  8
0
 62
4
 10
1.93596666E+01
 20
2.60237767E+02
  0
VERTEX
  8
0
 62
4
 10
1.95608966E+01
 20
2.60137015E+02
  0
VERTEX
  8
0
 62
4
 10
1.97850916E+01
 20
2.60043313E+02
  0
VERTEX
  8
0
 62
4
 10
2.00304995E+01
 20
2.59957394E+02
  0
VERTEX
  8
0
 62
4
 10
2.02952030E+01
 20
2.59879930E+02
  0
VERTEX
  8
0
 62
4
 10
2.05771336E+01
 20
2.59811524E+02
  0
VERTEX
  8
0
 62
4
 10
2.08740885E+01
 20
2.59752713E+02
  0
VERTEX
  8
0
 62
4
 10
2.11837474E+01
 20
2.59703954E+02
  0
VERTEX
  8
0
 62
4
 10
2.15036906E+01
 20
2.59665630E+02
  0
VERTEX
  8
0
 62
4
 10
2.18314182E+01
 20
2.59638040E+02
  0
VERTEX
  8
0
 62
4
 10
2.21643695E+01
 20
2.59621399E+02
  0
VERTEX
  8
0
 62
4
 10
2.24999428E+01
 20
2.59615838E+02
  0
VERTEX
  8
0
 62
4
 10
2.28355162E+01
 20
2.59621399E+02
  0
VERTEX
  8
0
 62
4
 10
2.31684674E+01
 20
2.59638040E+02
  0
VERTEX
  8
0
 62
4
 10
2.34961951E+01
 20
2.59665630E+02
  0
VERTEX
  8
0
 62
4
 10
2.38161383E+01
 20
2.59703954E+02
  0
VERTEX
  8
0
 62
4
 10
2.41257971E+01
 20
2.59752713E+02
  0
VERTEX
  8
0
 62
4
 10
2.44227520E+01
 20
2.59811524E+02
  0
VERTEX
  8
0
 62
4
 10
2.47046827E+01
 20
2.59879930E+02
  0
VERTEX
  8
0
 62
4
 10
2.49693861E+01
 20
2.59957394E+02
  0
VERTEX
  8
0
 62
4
 10
2.52147941E+01
 20
2.60043313E+02
  0
VERTEX
  8
0
 62
4
 10
2.54389890E+01
 20
2.60137015E+02
  0
VERTEX
  8
0
 62
4
 10
2.56402191E+01
 20
2.60237767E+02
  0
VERTEX
  8
0
 62
4
 10
2.58169120E+01
 20
2.60344782E+02
  0
VERTEX
  8
0
 62
4
 10
2.59676870E+01
 20
2.60457224E+02
  0
VERTEX
  8
0
 62
4
 10
2.60913662E+01
 20
2.60574215E+02
  0
VERTEX
  8
0
 62
4
 10
2.61869830E+01
 20
2.60694840E+02
  0
VERTEX
  8
0
 62
4
 10
2.62537904E+01
 20
2.60818158E+02
  0
VERTEX
  8
0
 62
4
 10
2.62912664E+01
 20
2.60943203E+02
  0
VERTEX
  8
0
 62
4
 10
2.62991180E+01
 20
2.61068999E+02
  0
VERTEX
  8
0
 62
4
 10
2.62772841E+01
 20
2.61194564E+02
  0
VERTEX
  8
0
 62
4
 10
2.62259351E+01
 20
2.61318916E+02
  0
VERTEX
  8
0
 62
4
 10
2.61454723E+01
 20
2.61441084E+02
  0
VERTEX
  8
0
 62
4
 10
2.60365245E+01
 20
2.61560112E+02
  0
VERTEX
  8
0
 62
4
 10
2.58999428E+01
 20
2.61675071E+02
  0
SEQEND
  8
0
  0
ARC
  8
0
 62
4
 10
2.24999428E+01
 20
2.56621523E+02
 40
7.36533796E+00
 50
6.78494174E+01
 51
1.12150583E+02
  0
LINE
  8
0
  6
CENTER
 62
6
 10
3.99999428E+01
 20
2.60112159E+02
 11
3.49999428E+01
 21
2.60112159E+02
  0
LINE
  8
0
  6
CENTER
 62
6
 10
2.99999428E+01
 20
2.58923282E+02
 11
2.99999428E+01
 21
2.63923282E+02
  0
LINE
  8
0
  6
CENTER
 62
6
 10
3.24999428E+01
 20
2.61423282E+02
 11
2.74999428E+01
 21
2.61423282E+02
  0
LINE
  8
0
  6
CENTER
 62
6
 10
2.24999428E+01
 20
2.57612159E+02
 11
2.24999428E+01
 21
2.62612159E+02
  0
LINE
  8
0
  6
CENTER
 62
6
 10
2.49999428E+01
 20
2.60112159E+02
 11
1.99999428E+01
 21
2.60112159E+02
  0
LINE
  8
0
 62
4
 10
2.68511982E+01
 20
2.64420135E+02
 11
1.49999428E+01
 21
2.64420135E+02
  0
LINE
  8
0
 62
4
 10
4.49999428E+01
 20
2.58986343E+02
 11
4.64999428E+01
 21
2.60114264E+02
  0
LINE
  8
0
 62
4
 10
4.64999428E+01
 20
2.62214336E+02
 11
4.49999428E+01
 21
2.62695078E+02
  0
LINE
  8
0
 62
4
 10
4.64999428E+01
 20
2.63062820E+02
 11
4.49999428E+01
 21
2.64193504E+02
  0
LINE
  8
0
 62
4
 10
4.49999428E+01
 20
2.62695078E+02
 11
3.41499428E+01
 21
2.62695078E+02
  0
LINE
  8
0
 62
4
 10
4.49999428E+01
 20
2.64193504E+02
 11
3.35803764E+01
 21
2.64193504E+02
  0
LINE
  8
0
 62
4
 10
4.49999428E+01
 20
2.62322338E+02
 11
3.41499428E+01
 21
2.62322338E+02
  0
LINE
  8
0
 62
4
 10
1.99999428E+01
 20
2.64045528E+02
 11
1.49999428E+01
 21
2.64045528E+02
  0
LINE
  8
0
 62
4
 10
1.90999428E+01
 20
2.62322338E+02
 11
1.49999428E+01
 21
2.62322338E+02
  0
LINE
  8
0
 62
4
 10
2.64195092E+01
 20
2.64193504E+02
 11
1.99999428E+01
 21
2.64193504E+02
  0
LINE
  8
0
 62
4
 10
4.49999428E+01
 20
2.64193504E+02
 11
4.49999428E+01
 21
2.64420135E+02
  0
LINE
  8
0
 62
4
 10
4.49999428E+01
 20
2.62322338E+02
 11
4.49999428E+01
 21
2.64193504E+02
  0
LINE
  8
0
 62
6
 10
-2.70000343E+01
 20
3.27335383E+02
 11
-2.70000343E+01
 21
3.25968055E+02
  0
LINE
  8
0
 62
6
 10
-2.40000343E+01
 20
3.27335383E+02
 11
-2.40000343E+01
 21
3.25968055E+02
  0
LINE
  8
0
 62
4
 10
-2.75000343E+01
 20
3.26839825E+02
 11
-2.75000343E+01
 21
3.25968055E+02
  0
LINE
  8
0
 62
4
 10
-2.35000343E+01
 20
3.26839825E+02
 11
-2.35000343E+01
 21
3.25968055E+02
  0
LINE
  8
0
 62
4
 10
-2.90000343E+01
 20
3.25968055E+02
 11
-2.90000343E+01
 21
3.12123549E+02
  0
LINE
  8
0
 62
4
 10
-1.40000343E+01
 20
3.25968055E+02
 11
-1.40000343E+01
 21
2.96579850E+02
  0
LINE
  8
0
  6
CENTER
 62
6
 10
-1.75000343E+01
 20
3.30765579E+02
 11
-1.75000343E+01
 21
3.20500000E+02
  0
LINE
  8
0
  6
CENTER
 62
6
 10
-2.55000343E+01
 20
3.30765579E+02
 11
-2.55000343E+01
 21
3.20500000E+02
  0
LINE
  8
0
  6
CENTER
 62
6
 10
-3.65000343E+01
 20
3.03387826E+02
 11
-3.65000343E+01
 21
2.98387826E+02
  0
LINE
  8
0
 62
4
 10
-1.90000343E+01
 20
2.96806480E+02
 11
-1.90000343E+01
 21
2.97450388E+02
  0
LINE
  8
0
 62
4
 10
-4.40000343E+01
 20
3.12123549E+02
 11
-4.40000343E+01
 21
2.98677647E+02
  0
LINE
  8
0
 62
4
 10
-2.05000343E+01
 20
2.96806480E+02
 11
-2.05000343E+01
 21
2.97081325E+02
  0
LINE
  8
0
 62
4
 10
-4.55000343E+01
 20
3.00885720E+02
 11
-4.55000343E+01
 21
2.97937165E+02
  0
LINE
  8
0
 62
4
 10
-2.90000343E+01
 20
3.25968055E+02
 11
-1.40000343E+01
 21
3.25968055E+02
  0
LINE
  8
0
 62
4
 10
-2.90000343E+01
 20
3.18613836E+02
 11
-1.40000343E+01
 21
3.18613836E+02
  0
LINE
  8
0
 62
4
 10
-4.40000343E+01
 20
3.12123549E+02
 11
-1.40000343E+01
 21
3.12123549E+02
  0
LINE
  8
0
 62
4
 10
-4.40000343E+01
 20
3.02573555E+02
 11
-1.40000343E+01
 21
3.02573555E+02
  0
LINE
  8
0
 62
4
 10
-4.40000343E+01
 20
2.96579850E+02
 11
-3.21487790E+01
 21
2.96579850E+02
  0
POLYLINE
  8
0
 62
4
 66
1
  0
VERTEX
  8
0
 62
4
 10
-2.35000343E+01
 20
3.26839825E+02
  0
VERTEX
  8
0
 62
4
 10
-2.35080857E+01
 20
3.26906984E+02
  0
VERTEX
  8
0
 62
4
 10
-2.35321751E+01
 20
3.26973602E+02
  0
VERTEX
  8
0
 62
4
 10
-2.35721086E+01
 20
3.27039143E+02
  0
VERTEX
  8
0
 62
4
 10
-2.36275646E+01
 20
3.27103080E+02
  0
VERTEX
  8
0
 62
4
 10
-2.36980966E+01
 20
3.27164896E+02
  0
VERTEX
  8
0
 62
4
 10
-2.37831367E+01
 20
3.27224096E+02
  0
VERTEX
  8
0
 62
4
 10
-2.38820003E+01
 20
3.27280201E+02
  0
VERTEX
  8
0
 62
4
 10
-2.39938914E+01
 20
3.27332761E+02
  0
VERTEX
  8
0
 62
4
 10
-2.41179090E+01
 20
3.27381352E+02
  0
VERTEX
  8
0
 62
4
 10
-2.42530547E+01
 20
3.27425583E+02
  0
VERTEX
  8
0
 62
4
 10
-2.43982403E+01
 20
3.27465098E+02
  0
VERTEX
  8
0
 62
4
 10
-2.45522970E+01
 20
3.27499579E+02
  0
VERTEX
  8
0
 62
4
 10
-2.47139842E+01
 20
3.27528747E+02
  0
VERTEX
  8
0
 62
4
 10
-2.48820003E+01
 20
3.27552369E+02
  0
VERTEX
  8
0
 62
4
 10
-2.50549924E+01
 20
3.27570254E+02
  0
VERTEX
  8
0
 62
4
 10
-2.52315678E+01
 20
3.27582258E+02
  0
VERTEX
  8
0
 62
4
 10
-2.54103046E+01
 20
3.27588284E+02
  0
VERTEX
  8
0
 62
4
 10
-2.55897639E+01
 20
3.27588284E+02
  0
VERTEX
  8
0
 62
4
 10
-2.57685008E+01
 20
3.27582258E+02
  0
VERTEX
  8
0
 62
4
 10
-2.59450762E+01
 20
3.27570254E+02
  0
VERTEX
  8
0
 62
4
 10
-2.61180683E+01
 20
3.27552369E+02
  0
VERTEX
  8
0
 62
4
 10
-2.62860844E+01
 20
3.27528747E+02
  0
VERTEX
  8
0
 62
4
 10
-2.64477716E+01
 20
3.27499579E+02
  0
VERTEX
  8
0
 62
4
 10
-2.66018283E+01
 20
3.27465098E+02
  0
VERTEX
  8
0
 62
4
 10
-2.67470139E+01
 20
3.27425583E+02
  0
VERTEX
  8
0
 62
4
 10
-2.68821596E+01
 20
3.27381352E+02
  0
VERTEX
  8
0
 62
4
 10
-2.70061772E+01
 20
3.27332761E+02
  0
VERTEX
  8
0
 62
4
 10
-2.71180683E+01
 20
3.27280201E+02
  0
VERTEX
  8
0
 62
4
 10
-2.72169319E+01
 20
3.27224096E+02
  0
VERTEX
  8
0
 62
4
 10
-2.73019720E+01
 20
3.27164896E+02
  0
VERTEX
  8
0
 62
4
 10
-2.73725040E+01
 20
3.27103080E+02
  0
VERTEX
  8
0
 62
4
 10
-2.74279600E+01
 20
3.27039143E+02
  0
VERTEX
  8
0
 62
4
 10
-2.74678935E+01
 20
3.26973602E+02
  0
VERTEX
  8
0
 62
4
 10
-2.74919829E+01
 20
3.26906984E+02
  0
VERTEX
  8
0
 62
4
 10
-2.75000343E+01
 20
3.26839825E+02
  0
SEQEND
  8
0
  0
LINE
  8
0
 62
6
 10
-1.60000343E+01
 20
3.27335383E+02
 11
-1.60000343E+01
 21
3.25968055E+02
  0
LINE
  8
0
 62
4
 10
-1.55000343E+01
 20
3.26839825E+02
 11
-1.55000343E+01
 21
3.25968055E+02
  0
POLYLINE
  8
0
 62
4
 66
1
  0
VERTEX
  8
0
 62
4
 10
-1.55000343E+01
 20
3.26839825E+02
  0
VERTEX
  8
0
 62
4
 10
-1.55080857E+01
 20
3.26906984E+02
  0
VERTEX
  8
0
 62
4
 10
-1.55321751E+01
 20
3.26973602E+02
  0
VERTEX
  8
0
 62
4
 10
-1.55721086E+01
 20
3.27039143E+02
  0
VERTEX
  8
0
 62
4
 10
-1.56275646E+01
 20
3.27103080E+02
  0
VERTEX
  8
0
 62
4
 10
-1.56980966E+01
 20
3.27164896E+02
  0
VERTEX
  8
0
 62
4
 10
-1.57831367E+01
 20
3.27224096E+02
  0
VERTEX
  8
0
 62
4
 10
-1.58820003E+01
 20
3.27280201E+02
  0
VERTEX
  8
0
 62
4
 10
-1.59938914E+01
 20
3.27332761E+02
  0
VERTEX
  8
0
 62
4
 10
-1.61179090E+01
 20
3.27381352E+02
  0
VERTEX
  8
0
 62
4
 10
-1.62530547E+01
 20
3.27425583E+02
  0
VERTEX
  8
0
 62
4
 10
-1.63982403E+01
 20
3.27465098E+02
  0
VERTEX
  8
0
 62
4
 10
-1.65522970E+01
 20
3.27499579E+02
  0
VERTEX
  8
0
 62
4
 10
-1.67139842E+01
 20
3.27528747E+02
  0
VERTEX
  8
0
 62
4
 10
-1.68820003E+01
 20
3.27552369E+02
  0
VERTEX
  8
0
 62
4
 10
-1.70549924E+01
 20
3.27570254E+02
  0
VERTEX
  8
0
 62
4
 10
-1.72315678E+01
 20
3.27582258E+02
  0
VERTEX
  8
0
 62
4
 10
-1.74103046E+01
 20
3.27588284E+02
  0
VERTEX
  8
0
 62
4
 10
-1.75897639E+01
 20
3.27588284E+02
  0
VERTEX
  8
0
 62
4
 10
-1.77685008E+01
 20
3.27582258E+02
  0
VERTEX
  8
0
 62
4
 10
-1.79450762E+01
 20
3.27570254E+02
  0
VERTEX
  8
0
 62
4
 10
-1.81180683E+01
 20
3.27552369E+02
  0
VERTEX
  8
0
 62
4
 10
-1.82860844E+01
 20
3.27528747E+02
  0
VERTEX
  8
0
 62
4
 10
-1.84477716E+01
 20
3.27499579E+02
  0
VERTEX
  8
0
 62
4
 10
-1.86018283E+01
 20
3.27465098E+02
  0
VERTEX
  8
0
 62
4
 10
-1.87470139E+01
 20
3.27425583E+02
  0
VERTEX
  8
0
 62
4
 10
-1.88821596E+01
 20
3.27381352E+02
  0
VERTEX
  8
0
 62
4
 10
-1.90061772E+01
 20
3.27332761E+02
  0
VERTEX
  8
0
 62
4
 10
-1.91180683E+01
 20
3.27280201E+02
  0
VERTEX
  8
0
 62
4
 10
-1.92169319E+01
 20
3.27224096E+02
  0
VERTEX
  8
0
 62
4
 10
-1.93019720E+01
 20
3.27164896E+02
  0
VERTEX
  8
0
 62
4
 10
-1.93725040E+01
 20
3.27103080E+02
  0
VERTEX
  8
0
 62
4
 10
-1.94279600E+01
 20
3.27039143E+02
  0
VERTEX
  8
0
 62
4
 10
-1.94678935E+01
 20
3.26973602E+02
  0
VERTEX
  8
0
 62
4
 10
-1.94919829E+01
 20
3.26906984E+02
  0
VERTEX
  8
0
 62
4
 10
-1.95000343E+01
 20
3.26839825E+02
  0
SEQEND
  8
0
  0
LINE
  8
0
 62
6
 10
-1.90000343E+01
 20
3.27335383E+02
 11
-1.90000343E+01
 21
3.25968055E+02
  0
LINE
  8
0
 62
4
 10
-1.95000343E+01
 20
3.26839825E+02
 11
-1.95000343E+01
 21
3.25968055E+02
  0
LINE
  8
0
 62
4
 10
-2.48500343E+01
 20
2.98170660E+02
 11
-2.48500343E+01
 21
2.97592529E+02
  0
LINE
  8
0
 62
4
 10
-3.31500343E+01
 20
2.99224373E+02
 11
-3.31500343E+01
 21
2.97592529E+02
  0
POLYLINE
  8
0
 62
4
 66
1
  0
VERTEX
  8
0
 62
4
 10
-2.52990162E+01
 20
2.99927693E+02
  0
VERTEX
  8
0
 62
4
 10
-2.54806966E+01
 20
3.00048232E+02
  0
VERTEX
  8
0
 62
4
 10
-2.56902797E+01
 20
3.00162239E+02
  0
VERTEX
  8
0
 62
4
 10
-2.59261038E+01
 20
3.00268810E+02
  0
VERTEX
  8
0
 62
4
 10
-2.61862993E+01
 20
3.00367101E+02
  0
VERTEX
  8
0
 62
4
 10
-2.64688033E+01
 20
3.00456332E+02
  0
VERTEX
  8
0
 62
4
 10
-2.67713758E+01
 20
3.00535795E+02
  0
VERTEX
  8
0
 62
4
 10
-2.70916180E+01
 20
3.00604860E+02
  0
VERTEX
  8
0
 62
4
 10
-2.74269909E+01
 20
3.00662981E+02
  0
VERTEX
  8
0
 62
4
 10
-2.77748356E+01
 20
3.00709696E+02
  0
VERTEX
  8
0
 62
4
 10
-2.81323941E+01
 20
3.00744634E+02
  0
VERTEX
  8
0
 62
4
 10
-2.84968316E+01
 20
3.00767520E+02
  0
VERTEX
  8
0
 62
4
 10
-2.88652587E+01
 20
3.00778170E+02
  0
VERTEX
  8
0
 62
4
 10
-2.92347543E+01
 20
3.00776502E+02
  0
VERTEX
  8
0
 62
4
 10
-2.96023890E+01
 20
3.00762527E+02
  0
VERTEX
  8
0
 62
4
 10
-2.99652480E+01
 20
3.00736358E+02
  0
VERTEX
  8
0
 62
4
 10
-3.03204544E+01
 20
3.00698201E+02
  0
VERTEX
  8
0
 62
4
 10
-3.06651919E+01
 20
3.00648359E+02
  0
VERTEX
  8
0
 62
4
 10
-3.09967275E+01
 20
3.00587226E+02
  0
VERTEX
  8
0
 62
4
 10
-3.13124324E+01
 20
3.00515289E+02
  0
VERTEX
  8
0
 62
4
 10
-3.16098037E+01
 20
3.00433117E+02
  0
VERTEX
  8
0
 62
4
 10
-3.18864838E+01
 20
3.00341361E+02
  0
VERTEX
  8
0
 62
4
 10
-3.21402789E+01
 20
3.00240749E+02
  0
VERTEX
  8
0
 62
4
 10
-3.23691769E+01
 20
3.00132080E+02
  0
VERTEX
  8
0
 62
4
 10
-3.25713630E+01
 20
3.00016213E+02
  0
VERTEX
  8
0
 62
4
 10
-3.27452341E+01
 20
2.99894068E+02
  0
VERTEX
  8
0
 62
4
 10
-3.28894118E+01
 20
2.99766614E+02
  0
VERTEX
  8
0
 62
4
 10
-3.30027530E+01
 20
2.99634861E+02
  0
VERTEX
  8
0
 62
4
 10
-3.30843590E+01
 20
2.99499853E+02
  0
VERTEX
  8
0
 62
4
 10
-3.31335829E+01
 20
2.99362661E+02
  0
VERTEX
  8
0
 62
4
 10
-3.31500343E+01
 20
2.99224373E+02
  0
SEQEND
  8
0
  0
POLYLINE
  8
0
 62
4
 66
1
  0
VERTEX
  8
0
 62
4
 10
-3.31500343E+01
 20
2.97592529E+02
  0
VERTEX
  8
0
 62
4
 10
-3.31342423E+01
 20
2.97457035E+02
  0
VERTEX
  8
0
 62
4
 10
-3.30869865E+01
 20
2.97322573E+02
  0
VERTEX
  8
0
 62
4
 10
-3.30086265E+01
 20
2.97190164E+02
  0
VERTEX
  8
0
 62
4
 10
-3.28997587E+01
 20
2.97060819E+02
  0
VERTEX
  8
0
 62
4
 10
-3.27612116E+01
 20
2.96935519E+02
  0
VERTEX
  8
0
 62
4
 10
-3.25940397E+01
 20
2.96815220E+02
  0
VERTEX
  8
0
 62
4
 10
-3.23995153E+01
 20
2.96700837E+02
  0
VERTEX
  8
0
 62
4
 10
-3.21791187E+01
 20
2.96593240E+02
  0
VERTEX
  8
0
 62
4
 10
-3.19345274E+01
 20
2.96493249E+02
  0
VERTEX
  8
0
 62
4
 10
-3.16676029E+01
 20
2.96401623E+02
  0
VERTEX
  8
0
 62
4
 10
-3.13803765E+01
 20
2.96319061E+02
  0
VERTEX
  8
0
 62
4
 10
-3.10750343E+01
 20
2.96246191E+02
  0
VERTEX
  8
0
 62
4
 10
-3.07539001E+01
 20
2.96183567E+02
  0
VERTEX
  8
0
 62
4
 10
-3.04194179E+01
 20
2.96131667E+02
  0
VERTEX
  8
0
 62
4
 10
-3.00741333E+01
 20
2.96090884E+02
  0
VERTEX
  8
0
 62
4
 10
-2.97206742E+01
 20
2.96061530E+02
  0
VERTEX
  8
0
 62
4
 10
-2.93617306E+01
 20
2.96043827E+02
  0
VERTEX
  8
0
 62
4
 10
-2.90000343E+01
 20
2.96037912E+02
  0
VERTEX
  8
0
 62
4
 10
-2.86383380E+01
 20
2.96043827E+02
  0
VERTEX
  8
0
 62
4
 10
-2.82793944E+01
 20
2.96061530E+02
  0
VERTEX
  8
0
 62
4
 10
-2.79259353E+01
 20
2.96090884E+02
  0
VERTEX
  8
0
 62
4
 10
-2.75806507E+01
 20
2.96131667E+02
  0
VERTEX
  8
0
 62
4
 10
-2.72461685E+01
 20
2.96183567E+02
  0
VERTEX
  8
0
 62
4
 10
-2.69250343E+01
 20
2.96246191E+02
  0
VERTEX
  8
0
 62
4
 10
-2.66196921E+01
 20
2.96319061E+02
  0
VERTEX
  8
0
 62
4
 10
-2.63324657E+01
 20
2.96401623E+02
  0
VERTEX
  8
0
 62
4
 10
-2.60655412E+01
 20
2.96493249E+02
  0
VERTEX
  8
0
 62
4
 10
-2.58209499E+01
 20
2.96593240E+02
  0
VERTEX
  8
0
 62
4
 10
-2.56005533E+01
 20
2.96700837E+02
  0
VERTEX
  8
0
 62
4
 10
-2.54060289E+01
 20
2.96815220E+02
  0
VERTEX
  8
0
 62
4
 10
-2.52388570E+01
 20
2.96935519E+02
  0
VERTEX
  8
0
 62
4
 10
-2.51003099E+01
 20
2.97060819E+02
  0
VERTEX
  8
0
 62
4
 10
-2.49914421E+01
 20
2.97190164E+02
  0
VERTEX
  8
0
 62
4
 10
-2.49130821E+01
 20
2.97322573E+02
  0
VERTEX
  8
0
 62
4
 10
-2.48658263E+01
 20
2.97457035E+02
  0
VERTEX
  8
0
 62
4
 10
-2.48500343E+01
 20
2.97592529E+02
  0
VERTEX
  8
0
 62
4
 10
-2.48658263E+01
 20
2.97728023E+02
  0
VERTEX
  8
0
 62
4
 10
-2.49130821E+01
 20
2.97862485E+02
  0
VERTEX
  8
0
 62
4
 10
-2.49914421E+01
 20
2.97994894E+02
  0
VERTEX
  8
0
 62
4
 10
-2.51003099E+01
 20
2.98124239E+02
  0
VERTEX
  8
0
 62
4
 10
-2.52388570E+01
 20
2.98249539E+02
  0
VERTEX
  8
0
 62
4
 10
-2.54060289E+01
 20
2.98369838E+02
  0
VERTEX
  8
0
 62
4
 10
-2.56005533E+01
 20
2.98484221E+02
  0
VERTEX
  8
0
 62
4
 10
-2.58209499E+01
 20
2.98591818E+02
  0
VERTEX
  8
0
 62
4
 10
-2.60655412E+01
 20
2.98691809E+02
  0
VERTEX
  8
0
 62
4
 10
-2.63324657E+01
 20
2.98783435E+02
  0
VERTEX
  8
0
 62
4
 10
-2.66196921E+01
 20
2.98865997E+02
  0
VERTEX
  8
0
 62
4
 10
-2.69250343E+01
 20
2.98938867E+02
  0
VERTEX
  8
0
 62
4
 10
-2.72461685E+01
 20
2.99001491E+02
  0
VERTEX
  8
0
 62
4
 10
-2.75806507E+01
 20
2.99053391E+02
  0
VERTEX
  8
0
 62
4
 10
-2.79259353E+01
 20
2.99094174E+02
  0
VERTEX
  8
0
 62
4
 10
-2.82793944E+01
 20
2.99123528E+02
  0
VERTEX
  8
0
 62
4
 10
-2.86383380E+01
 20
2.99141231E+02
  0
VERTEX
  8
0
 62
4
 10
-2.90000343E+01
 20
2.99147146E+02
  0
VERTEX
  8
0
 62
4
 10
-2.93617306E+01
 20
2.99141231E+02
  0
VERTEX
  8
0
 62
4
 10
-2.97206742E+01
 20
2.99123528E+02
  0
VERTEX
  8
0
 62
4
 10
-3.00741333E+01
 20
2.99094174E+02
  0
VERTEX
  8
0
 62
4
 10
-3.04194179E+01
 20
2.99053391E+02
  0
VERTEX
  8
0
 62
4
 10
-3.07539001E+01
 20
2.99001491E+02
  0
VERTEX
  8
0
 62
4
 10
-3.10750343E+01
 20
2.98938867E+02
  0
VERTEX
  8
0
 62
4
 10
-3.13803765E+01
 20
2.98865997E+02
  0
VERTEX
  8
0
 62
4
 10
-3.16676029E+01
 20
2.98783435E+02
  0
VERTEX
  8
0
 62
4
 10
-3.19345274E+01
 20
2.98691809E+02
  0
VERTEX
  8
0
 62
4
 10
-3.21791187E+01
 20
2.98591818E+02
  0
VERTEX
  8
0
 62
4
 10
-3.23995153E+01
 20
2.98484221E+02
  0
VERTEX
  8
0
 62
4
 10
-3.25940397E+01
 20
2.98369838E+02
  0
VERTEX
  8
0
 62
4
 10
-3.27612116E+01
 20
2.98249539E+02
  0
VERTEX
  8
0
 62
4
 10
-3.28997587E+01
 20
2.98124239E+02
  0
VERTEX
  8
0
 62
4
 10
-3.30086265E+01
 20
2.97994894E+02
  0
VERTEX
  8
0
 62
4
 10
-3.30869865E+01
 20
2.97862485E+02
  0
VERTEX
  8
0
 62
4
 10
-3.31342423E+01
 20
2.97728023E+02
  0
VERTEX
  8
0
 62
4
 10
-3.31500343E+01
 20
2.97592529E+02
  0
SEQEND
  8
0
  0
ARC
  8
0
 62
4
 10
-3.46167415E+01
 20
3.12012670E+02
 40
1.61228529E+01
 50
2.83811345E+02
 51
2.97258956E+02
  0
ARC
  8
0
 62
4
 10
-2.33833245E+01
 20
3.12012678E+02
 40
1.61228609E+01
 50
2.42741048E+02
 51
2.56188651E+02
  0
POLYLINE
  8
0
 62
4
 66
1
  0
VERTEX
  8
0
 62
4
 10
-2.53000343E+01
 20
3.00146056E+02
  0
VERTEX
  8
0
 62
4
 10
-2.54466769E+01
 20
3.00264762E+02
  0
VERTEX
  8
0
 62
4
 10
-2.56203956E+01
 20
3.00378225E+02
  0
VERTEX
  8
0
 62
4
 10
-2.58198667E+01
 20
3.00485580E+02
  0
VERTEX
  8
0
 62
4
 10
-2.60435703E+01
 20
3.00586010E+02
  0
VERTEX
  8
0
 62
4
 10
-2.62898019E+01
 20
3.00678750E+02
  0
VERTEX
  8
0
 62
4
 10
-2.65566850E+01
 20
3.00763091E+02
  0
VERTEX
  8
0
 62
4
 10
-2.68421862E+01
 20
3.00838393E+02
  0
VERTEX
  8
0
 62
4
 10
-2.71441299E+01
 20
3.00904081E+02
  0
VERTEX
  8
0
 62
4
 10
-2.74602154E+01
 20
3.00959654E+02
  0
VERTEX
  8
0
 62
4
 10
-2.77880341E+01
 20
3.01004689E+02
  0
VERTEX
  8
0
 62
4
 10
-2.81250881E+01
 20
3.01038843E+02
  0
VERTEX
  8
0
 62
4
 10
-2.84688091E+01
 20
3.01061856E+02
  0
VERTEX
  8
0
 62
4
 10
-2.88165780E+01
 20
3.01073553E+02
  0
VERTEX
  8
0
 62
4
 10
-2.91657448E+01
 20
3.01073843E+02
  0
VERTEX
  8
0
 62
4
 10
-2.95136489E+01
 20
3.01062725E+02
  0
VERTEX
  8
0
 62
4
 10
-2.98576393E+01
 20
3.01040284E+02
  0
VERTEX
  8
0
 62
4
 10
-3.01950948E+01
 20
3.01006691E+02
  0
VERTEX
  8
0
 62
4
 10
-3.05234442E+01
 20
3.00962202E+02
  0
VERTEX
  8
0
 62
4
 10
-3.08401853E+01
 20
3.00907155E+02
  0
VERTEX
  8
0
 62
4
 10
-3.11429047E+01
 20
3.00841970E+02
  0
VERTEX
  8
0
 62
4
 10
-3.14292957E+01
 20
3.00767144E+02
  0
VERTEX
  8
0
 62
4
 10
-3.16971761E+01
 20
3.00683247E+02
  0
VERTEX
  8
0
 62
4
 10
-3.19445045E+01
 20
3.00590918E+02
  0
VERTEX
  8
0
 62
4
 10
-3.21693965E+01
 20
3.00490862E+02
  0
VERTEX
  8
0
 62
4
 10
-3.23701383E+01
 20
3.00383839E+02
  0
VERTEX
  8
0
 62
4
 10
-3.25452003E+01
 20
3.00270666E+02
  0
VERTEX
  8
0
 62
4
 10
-3.26932486E+01
 20
3.00152205E+02
  0
VERTEX
  8
0
 62
4
 10
-3.28131550E+01
 20
3.00029359E+02
  0
VERTEX
  8
0
 62
4
 10
-3.29040059E+01
 20
2.99903064E+02
  0
VERTEX
  8
0
 62
4
 10
-3.29651091E+01
 20
2.99774282E+02
  0
VERTEX
  8
0
 62
4
 10
-3.29959989E+01
 20
2.99643994E+02
  0
SEQEND
  8
0
  0
LINE
  8
0
 62
4
 10
-2.49000343E+01
 20
2.99960642E+02
 11
-2.49000343E+01
 21
2.98482911E+02
  0
POLYLINE
  8
0
 62
4
 66
1
  0
VERTEX
  8
0
 62
4
 10
-1.81000343E+01
 20
2.99960642E+02
  0
VERTEX
  8
0
 62
4
 10
-1.81137217E+01
 20
3.00074812E+02
  0
VERTEX
  8
0
 62
4
 10
-1.81546737E+01
 20
3.00188063E+02
  0
VERTEX
  8
0
 62
4
 10
-1.82225606E+01
 20
3.00299483E+02
  0
VERTEX
  8
0
 62
4
 10
-1.83168357E+01
 20
3.00408175E+02
  0
VERTEX
  8
0
 62
4
 10
-1.84367401E+01
 20
3.00513263E+02
  0
VERTEX
  8
0
 62
4
 10
-1.85813084E+01
 20
3.00613903E+02
  0
VERTEX
  8
0
 62
4
 10
-1.87493765E+01
 20
3.00709282E+02
  0
VERTEX
  8
0
 62
4
 10
-1.89395913E+01
 20
3.00798634E+02
  0
VERTEX
  8
0
 62
4
 10
-1.91504213E+01
 20
3.00881239E+02
  0
VERTEX
  8
0
 62
4
 10
-1.93801690E+01
 20
3.00956431E+02
  0
VERTEX
  8
0
 62
4
 10
-1.96269845E+01
 20
3.01023607E+02
  0
VERTEX
  8
0
 62
4
 10
-1.98888808E+01
 20
3.01082223E+02
  0
VERTEX
  8
0
 62
4
 10
-2.01637492E+01
 20
3.01131810E+02
  0
VERTEX
  8
0
 62
4
 10
-2.04493765E+01
 20
3.01171967E+02
  0
VERTEX
  8
0
 62
4
 10
-2.07434631E+01
 20
3.01202371E+02
  0
VERTEX
  8
0
 62
4
 10
-2.10436412E+01
 20
3.01222777E+02
  0
VERTEX
  8
0
 62
4
 10
-2.13474939E+01
 20
3.01233022E+02
  0
VERTEX
  8
0
 62
4
 10
-2.16525747E+01
 20
3.01233022E+02
  0
VERTEX
  8
0
 62
4
 10
-2.19564274E+01
 20
3.01222777E+02
  0
VERTEX
  8
0
 62
4
 10
-2.22566055E+01
 20
3.01202371E+02
  0
VERTEX
  8
0
 62
4
 10
-2.25506921E+01
 20
3.01171967E+02
  0
VERTEX
  8
0
 62
4
 10
-2.28363194E+01
 20
3.01131810E+02
  0
VERTEX
  8
0
 62
4
 10
-2.31111877E+01
 20
3.01082223E+02
  0
VERTEX
  8
0
 62
4
 10
-2.33730840E+01
 20
3.01023607E+02
  0
VERTEX
  8
0
 62
4
 10
-2.36198996E+01
 20
3.00956431E+02
  0
VERTEX
  8
0
 62
4
 10
-2.38496473E+01
 20
3.00881239E+02
  0
VERTEX
  8
0
 62
4
 10
-2.40604773E+01
 20
3.00798634E+02
  0
VERTEX
  8
0
 62
4
 10
-2.42506921E+01
 20
3.00709282E+02
  0
VERTEX
  8
0
 62
4
 10
-2.44187602E+01
 20
3.00613903E+02
  0
VERTEX
  8
0
 62
4
 10
-2.45633284E+01
 20
3.00513263E+02
  0
VERTEX
  8
0
 62
4
 10
-2.46832329E+01
 20
3.00408175E+02
  0
VERTEX
  8
0
 62
4
 10
-2.47775080E+01
 20
3.00299483E+02
  0
VERTEX
  8
0
 62
4
 10
-2.48453949E+01
 20
3.00188063E+02
  0
VERTEX
  8
0
 62
4
 10
-2.48863469E+01
 20
3.00074812E+02
  0
VERTEX
  8
0
 62
4
 10
-2.49000343E+01
 20
2.99960642E+02
  0
SEQEND
  8
0
  0
POLYLINE
  8
0
 62
4
 66
1
  0
VERTEX
  8
0
 62
4
 10
-1.81000343E+01
 20
2.98912924E+02
  0
VERTEX
  8
0
 62
4
 10
-1.81137217E+01
 20
2.99027094E+02
  0
VERTEX
  8
0
 62
4
 10
-1.81546737E+01
 20
2.99140345E+02
  0
VERTEX
  8
0
 62
4
 10
-1.82225606E+01
 20
2.99251765E+02
  0
VERTEX
  8
0
 62
4
 10
-1.83168357E+01
 20
2.99360457E+02
  0
VERTEX
  8
0
 62
4
 10
-1.84367401E+01
 20
2.99465545E+02
  0
VERTEX
  8
0
 62
4
 10
-1.85813084E+01
 20
2.99566185E+02
  0
VERTEX
  8
0
 62
4
 10
-1.87493765E+01
 20
2.99661564E+02
  0
VERTEX
  8
0
 62
4
 10
-1.89395913E+01
 20
2.99750916E+02
  0
VERTEX
  8
0
 62
4
 10
-1.91504213E+01
 20
2.99833521E+02
  0
VERTEX
  8
0
 62
4
 10
-1.93801690E+01
 20
2.99908713E+02
  0
VERTEX
  8
0
 62
4
 10
-1.96269845E+01
 20
2.99975889E+02
  0
VERTEX
  8
0
 62
4
 10
-1.98888808E+01
 20
3.00034505E+02
  0
VERTEX
  8
0
 62
4
 10
-2.01637492E+01
 20
3.00084092E+02
  0
VERTEX
  8
0
 62
4
 10
-2.04493765E+01
 20
3.00124249E+02
  0
VERTEX
  8
0
 62
4
 10
-2.07434631E+01
 20
3.00154653E+02
  0
VERTEX
  8
0
 62
4
 10
-2.10436412E+01
 20
3.00175059E+02
  0
VERTEX
  8
0
 62
4
 10
-2.13474939E+01
 20
3.00185304E+02
  0
VERTEX
  8
0
 62
4
 10
-2.16525747E+01
 20
3.00185304E+02
  0
VERTEX
  8
0
 62
4
 10
-2.19564274E+01
 20
3.00175059E+02
  0
VERTEX
  8
0
 62
4
 10
-2.22566055E+01
 20
3.00154653E+02
  0
VERTEX
  8
0
 62
4
 10
-2.25506921E+01
 20
3.00124249E+02
  0
VERTEX
  8
0
 62
4
 10
-2.28363194E+01
 20
3.00084092E+02
  0
VERTEX
  8
0
 62
4
 10
-2.31111877E+01
 20
3.00034505E+02
  0
VERTEX
  8
0
 62
4
 10
-2.33730840E+01
 20
2.99975889E+02
  0
VERTEX
  8
0
 62
4
 10
-2.36198996E+01
 20
2.99908713E+02
  0
VERTEX
  8
0
 62
4
 10
-2.38496473E+01
 20
2.99833521E+02
  0
VERTEX
  8
0
 62
4
 10
-2.40604773E+01
 20
2.99750916E+02
  0
VERTEX
  8
0
 62
4
 10
-2.42506921E+01
 20
2.99661564E+02
  0
VERTEX
  8
0
 62
4
 10
-2.44187602E+01
 20
2.99566185E+02
  0
VERTEX
  8
0
 62
4
 10
-2.45633284E+01
 20
2.99465545E+02
  0
VERTEX
  8
0
 62
4
 10
-2.46832329E+01
 20
2.99360457E+02
  0
VERTEX
  8
0
 62
4
 10
-2.47775080E+01
 20
2.99251765E+02
  0
VERTEX
  8
0
 62
4
 10
-2.48453949E+01
 20
2.99140345E+02
  0
VERTEX
  8
0
 62
4
 10
-2.48863469E+01
 20
2.99027094E+02
  0
VERTEX
  8
0
 62
4
 10
-2.49000343E+01
 20
2.98912924E+02
  0
SEQEND
  8
0
  0
LINE
  8
0
 62
4
 10
-1.81000343E+01
 20
2.98482911E+02
 11
-1.81000343E+01
 21
2.99960642E+02
  0
ARC
  8
0
 62
4
 10
-1.91000340E+01
 20
2.98482911E+02
 40
1.00000000E+00
 50
2.82827510E+02
 51
0.00000000E+00
  0
ARC
  8
0
 62
4
 10
-2.39000347E+01
 20
2.98482911E+02
 40
1.00000000E+00
 50
1.80000000E+02
 51
2.57172490E+02
  0
ARC
  8
0
 62
4
 10
-2.68874191E+01
 20
3.12239665E+02
 40
1.54729912E+01
 50
2.83783165E+02
 51
2.97543924E+02
  0
ARC
  8
0
 62
4
 10
-1.61126491E+01
 20
3.12239667E+02
 40
1.54729926E+01
 50
2.42456077E+02
 51
2.56216834E+02
  0
LINE
  8
0
 62
4
 10
-1.77000343E+01
 20
3.00887826E+02
 11
-1.77000343E+01
 21
2.99960642E+02
  0
LINE
  8
0
 62
4
 10
-2.53000343E+01
 20
3.00887826E+02
 11
-2.53000343E+01
 21
2.99960642E+02
  0
POLYLINE
  8
0
 62
4
 66
1
  0
VERTEX
  8
0
 62
4
 10
-1.77000343E+01
 20
3.00887826E+02
  0
VERTEX
  8
0
 62
4
 10
-1.77153320E+01
 20
3.01015428E+02
  0
VERTEX
  8
0
 62
4
 10
-1.77611019E+01
 20
3.01142003E+02
  0
VERTEX
  8
0
 62
4
 10
-1.78369754E+01
 20
3.01266531E+02
  0
VERTEX
  8
0
 62
4
 10
-1.79423418E+01
 20
3.01388010E+02
  0
VERTEX
  8
0
 62
4
 10
-1.80763526E+01
 20
3.01505462E+02
  0
VERTEX
  8
0
 62
4
 10
-1.82379289E+01
 20
3.01617941E+02
  0
VERTEX
  8
0
 62
4
 10
-1.84257697E+01
 20
3.01724541E+02
  0
VERTEX
  8
0
 62
4
 10
-1.86383627E+01
 20
3.01824405E+02
  0
VERTEX
  8
0
 62
4
 10
-1.88739962E+01
 20
3.01916728E+02
  0
VERTEX
  8
0
 62
4
 10
-1.91307730E+01
 20
3.02000767E+02
  0
VERTEX
  8
0
 62
4
 10
-1.94066258E+01
 20
3.02075845E+02
  0
VERTEX
  8
0
 62
4
 10
-1.96993334E+01
 20
3.02141358E+02
  0
VERTEX
  8
0
 62
4
 10
-2.00065392E+01
 20
3.02196778E+02
  0
VERTEX
  8
0
 62
4
 10
-2.03257697E+01
 20
3.02241660E+02
  0
VERTEX
  8
0
 62
4
 10
-2.06544547E+01
 20
3.02275641E+02
  0
VERTEX
  8
0
 62
4
 10
-2.09899479E+01
 20
3.02298448E+02
  0
VERTEX
  8
0
 62
4
 10
-2.13295479E+01
 20
3.02309898E+02
  0
VERTEX
  8
0
 62
4
 10
-2.16705206E+01
 20
3.02309898E+02
  0
VERTEX
  8
0
 62
4
 10
-2.20101207E+01
 20
3.02298448E+02
  0
VERTEX
  8
0
 62
4
 10
-2.23456138E+01
 20
3.02275641E+02
  0
VERTEX
  8
0
 62
4
 10
-2.26742989E+01
 20
3.02241660E+02
  0
VERTEX
  8
0
 62
4
 10
-2.29935294E+01
 20
3.02196778E+02
  0
VERTEX
  8
0
 62
4
 10
-2.33007352E+01
 20
3.02141358E+02
  0
VERTEX
  8
0
 62
4
 10
-2.35934428E+01
 20
3.02075845E+02
  0
VERTEX
  8
0
 62
4
 10
-2.38692955E+01
 20
3.02000767E+02
  0
VERTEX
  8
0
 62
4
 10
-2.41260723E+01
 20
3.01916728E+02
  0
VERTEX
  8
0
 62
4
 10
-2.43617059E+01
 20
3.01824405E+02
  0
VERTEX
  8
0
 62
4
 10
-2.45742989E+01
 20
3.01724541E+02
  0
VERTEX
  8
0
 62
4
 10
-2.47621397E+01
 20
3.01617941E+02
  0
VERTEX
  8
0
 62
4
 10
-2.49237160E+01
 20
3.01505462E+02
  0
VERTEX
  8
0
 62
4
 10
-2.50577268E+01
 20
3.01388010E+02
  0
VERTEX
  8
0
 62
4
 10
-2.51630932E+01
 20
3.01266531E+02
  0
VERTEX
  8
0
 62
4
 10
-2.52389667E+01
 20
3.01142003E+02
  0
VERTEX
  8
0
 62
4
 10
-2.52847366E+01
 20
3.01015428E+02
  0
VERTEX
  8
0
 62
4
 10
-2.53000343E+01
 20
3.00887826E+02
  0
SEQEND
  8
0
  0
POLYLINE
  8
0
 62
4
 66
1
  0
VERTEX
  8
0
 62
4
 10
-1.81000343E+01
 20
2.99324914E+02
  0
VERTEX
  8
0
 62
4
 10
-1.79634526E+01
 20
2.99439873E+02
  0
VERTEX
  8
0
 62
4
 10
-1.78545048E+01
 20
2.99558901E+02
  0
VERTEX
  8
0
 62
4
 10
-1.77740420E+01
 20
2.99681069E+02
  0
VERTEX
  8
0
 62
4
 10
-1.77226930E+01
 20
2.99805421E+02
  0
VERTEX
  8
0
 62
4
 10
-1.77008590E+01
 20
2.99930986E+02
  0
VERTEX
  8
0
 62
4
 10
-1.77087107E+01
 20
3.00056782E+02
  0
VERTEX
  8
0
 62
4
 10
-1.77461867E+01
 20
3.00181827E+02
  0
VERTEX
  8
0
 62
4
 10
-1.78129941E+01
 20
3.00305145E+02
  0
VERTEX
  8
0
 62
4
 10
-1.79086109E+01
 20
3.00425770E+02
  0
VERTEX
  8
0
 62
4
 10
-1.80322901E+01
 20
3.00542761E+02
  0
VERTEX
  8
0
 62
4
 10
-1.81830652E+01
 20
3.00655203E+02
  0
VERTEX
  8
0
 62
4
 10
-1.83597581E+01
 20
3.00762218E+02
  0
VERTEX
  8
0
 62
4
 10
-1.85609881E+01
 20
3.00862970E+02
  0
VERTEX
  8
0
 62
4
 10
-1.87851831E+01
 20
3.00956672E+02
  0
VERTEX
  8
0
 62
4
 10
-1.90305910E+01
 20
3.01042591E+02
  0
VERTEX
  8
0
 62
4
 10
-1.92952945E+01
 20
3.01120055E+02
  0
VERTEX
  8
0
 62
4
 10
-1.95772251E+01
 20
3.01188461E+02
  0
VERTEX
  8
0
 62
4
 10
-1.98741800E+01
 20
3.01247272E+02
  0
VERTEX
  8
0
 62
4
 10
-2.01838389E+01
 20
3.01296031E+02
  0
VERTEX
  8
0
 62
4
 10
-2.05037821E+01
 20
3.01334355E+02
  0
VERTEX
  8
0
 62
4
 10
-2.08315097E+01
 20
3.01361945E+02
  0
VERTEX
  8
0
 62
4
 10
-2.11644610E+01
 20
3.01378586E+02
  0
VERTEX
  8
0
 62
4
 10
-2.15000343E+01
 20
3.01384147E+02
  0
VERTEX
  8
0
 62
4
 10
-2.18356077E+01
 20
3.01378586E+02
  0
VERTEX
  8
0
 62
4
 10
-2.21685589E+01
 20
3.01361945E+02
  0
VERTEX
  8
0
 62
4
 10
-2.24962866E+01
 20
3.01334355E+02
  0
VERTEX
  8
0
 62
4
 10
-2.28162298E+01
 20
3.01296031E+02
  0
VERTEX
  8
0
 62
4
 10
-2.31258886E+01
 20
3.01247272E+02
  0
VERTEX
  8
0
 62
4
 10
-2.34228435E+01
 20
3.01188461E+02
  0
VERTEX
  8
0
 62
4
 10
-2.37047741E+01
 20
3.01120055E+02
  0
VERTEX
  8
0
 62
4
 10
-2.39694776E+01
 20
3.01042591E+02
  0
VERTEX
  8
0
 62
4
 10
-2.42148856E+01
 20
3.00956672E+02
  0
VERTEX
  8
0
 62
4
 10
-2.44390805E+01
 20
3.00862970E+02
  0
VERTEX
  8
0
 62
4
 10
-2.46403106E+01
 20
3.00762218E+02
  0
VERTEX
  8
0
 62
4
 10
-2.48170035E+01
 20
3.00655203E+02
  0
VERTEX
  8
0
 62
4
 10
-2.49677785E+01
 20
3.00542761E+02
  0
VERTEX
  8
0
 62
4
 10
-2.50914577E+01
 20
3.00425770E+02
  0
VERTEX
  8
0
 62
4
 10
-2.51870745E+01
 20
3.00305145E+02
  0
VERTEX
  8
0
 62
4
 10
-2.52538819E+01
 20
3.00181827E+02
  0
VERTEX
  8
0
 62
4
 10
-2.52913579E+01
 20
3.00056782E+02
  0
VERTEX
  8
0
 62
4
 10
-2.52992096E+01
 20
2.99930986E+02
  0
VERTEX
  8
0
 62
4
 10
-2.52773756E+01
 20
2.99805421E+02
  0
VERTEX
  8
0
 62
4
 10
-2.52260266E+01
 20
2.99681069E+02
  0
VERTEX
  8
0
 62
4
 10
-2.51455638E+01
 20
2.99558901E+02
  0
VERTEX
  8
0
 62
4
 10
-2.50366160E+01
 20
2.99439873E+02
  0
VERTEX
  8
0
 62
4
 10
-2.49000343E+01
 20
2.99324914E+02
  0
SEQEND
  8
0
  0
ARC
  8
0
 62
4
 10
-2.15000343E+01
 20
3.04378462E+02
 40
7.36533796E+00
 50
2.47849417E+02
 51
2.92150583E+02
  0
LINE
  8
0
  6
CENTER
 62
6
 10
-3.90000343E+01
 20
3.00887826E+02
 11
-3.40000343E+01
 21
3.00887826E+02
  0
LINE
  8
0
  6
CENTER
 62
6
 10
-2.90000343E+01
 20
3.02076703E+02
 11
-2.90000343E+01
 21
2.97076703E+02
  0
LINE
  8
0
  6
CENTER
 62
6
 10
-3.15000343E+01
 20
2.99576703E+02
 11
-2.65000343E+01
 21
2.99576703E+02
  0
LINE
  8
0
  6
CENTER
 62
6
 10
-2.15000343E+01
 20
3.03387826E+02
 11
-2.15000343E+01
 21
2.98387826E+02
  0
LINE
  8
0
  6
CENTER
 62
6
 10
-2.40000343E+01
 20
3.00887826E+02
 11
-1.90000343E+01
 21
3.00887826E+02
  0
LINE
  8
0
 62
4
 10
-2.58512897E+01
 20
2.96579850E+02
 11
-1.40000343E+01
 21
2.96579850E+02
  0
LINE
  8
0
 62
4
 10
-4.40000343E+01
 20
3.02013642E+02
 11
-4.55000343E+01
 21
3.00885720E+02
  0
LINE
  8
0
 62
4
 10
-4.55000343E+01
 20
2.98785649E+02
 11
-4.40000343E+01
 21
2.98304907E+02
  0
LINE
  8
0
 62
4
 10
-4.55000343E+01
 20
2.97937165E+02
 11
-4.40000343E+01
 21
2.96806480E+02
  0
LINE
  8
0
 62
4
 10
-4.40000343E+01
 20
2.98304907E+02
 11
-3.31500343E+01
 21
2.98304907E+02
  0
LINE
  8
0
 62
4
 10
-4.40000343E+01
 20
2.96806480E+02
 11
-3.25804680E+01
 21
2.96806480E+02
  0
LINE
  8
0
 62
4
 10
-4.40000343E+01
 20
2.98677647E+02
 11
-3.31500343E+01
 21
2.98677647E+02
  0
LINE
  8
0
 62
4
 10
-1.90000343E+01
 20
2.96954456E+02
 11
-1.40000343E+01
 21
2.96954456E+02
  0
LINE
  8
0
 62
4
 10
-1.81000343E+01
 20
2.98677647E+02
 11
-1.40000343E+01
 21
2.98677647E+02
  0
LINE
  8
0
 62
4
 10
-2.54196007E+01
 20
2.96806480E+02
 11
-1.90000343E+01
 21
2.96806480E+02
  0
LINE
  8
0
 62
4
 10
-4.40000343E+01
 20
2.96806480E+02
 11
-4.40000343E+01
 21
2.96579850E+02
  0
LINE
  8
0
 62
4
 10
-4.40000343E+01
 20
2.98677647E+02
 11
-4.40000343E+01
 21
2.96806480E+02
  0
LINE
  8
0
 62
7
 10
-2.90000343E+01
 20
3.20000000E+02
 11
-5.80000343E+01
 21
3.20000000E+02
  0
LINE
  8
0
 62
7
 10
-2.90000343E+01
 20
3.24000031E+02
 11
-5.80000343E+01
 21
3.24000031E+02
  0
LINE
  8
0
 62
7
 10
-4.40000343E+01
 20
3.11000000E+02
 11
-5.80000343E+01
 21
3.11000000E+02
  0
LINE
  8
0
 62
7
 10
1.49999428E+01
 20
2.49999985E+02
 11
-5.80000343E+01
 21
2.49999985E+02
  0
LINE
  8
0
 62
7
 10
1.49999428E+01
 20
2.36999969E+02
 11
-5.80000343E+01
 21
2.36999969E+02
  0
LINE
  8
0
 62
7
 10
1.49999428E+01
 20
2.40999985E+02
 11
-5.80000343E+01
 21
2.40999985E+02
  0
LINE
  8
0
 62
4
 10
-5.60000343E+01
 20
-2.32318859E+02
 11
-5.60000343E+01
 21
-2.45318859E+02
  0
ARC
  8
0
 62
4
 10
-5.55000301E+01
 20
-2.32318864E+02
 40
5.00004272E-01
 50
9.00004895E+01
 51
1.79999510E+02
  0
LINE
  8
0
 62
4
 10
-4.65000343E+01
 20
-2.31818859E+02
 11
-5.55000343E+01
 21
-2.31818859E+02
  0
LINE
  8
0
 62
4
 10
-6.60000343E+01
 20
-2.45731826E+02
 11
-6.10000343E+01
 21
-2.45731826E+02
  0
LINE
  8
0
 62
4
 10
-6.60000343E+01
 20
-2.32827189E+02
 11
-6.10000343E+01
 21
-2.32827189E+02
  0
LINE
  8
0
 62
4
 10
-6.60000343E+01
 20
-2.39740180E+02
 11
-6.10000343E+01
 21
-2.39740180E+02
  0
POLYLINE
  8
0
 62
4
 66
1
  0
VERTEX
  8
0
 62
4
 10
-3.56000343E+01
 20
-2.61335177E+02
  0
VERTEX
  8
0
 62
4
 10
-3.56129723E+01
 20
-2.61055514E+02
  0
VERTEX
  8
0
 62
4
 10
-3.56516879E+01
 20
-2.60777980E+02
  0
VERTEX
  8
0
 62
4
 10
-3.57158865E+01
 20
-2.60504687E+02
  0
VERTEX
  8
0
 62
4
 10
-3.58050794E+01
 20
-2.60237714E+02
  0
VERTEX
  8
0
 62
4
 10
-3.59185878E+01
 20
-2.59979093E+02
  0
VERTEX
  8
0
 62
4
 10
-3.60555479E+01
 20
-2.59730793E+02
  0
VERTEX
  8
0
 62
4
 10
-3.62149173E+01
 20
-2.59494704E+02
  0
VERTEX
  8
0
 62
4
 10
-3.63954832E+01
 20
-2.59272621E+02
  0
VERTEX
  8
0
 62
4
 10
-3.65958712E+01
 20
-2.59066236E+02
  0
VERTEX
  8
0
 62
4
 10
-3.68145564E+01
 20
-2.58877119E+02
  0
VERTEX
  8
0
 62
4
 10
-3.70498744E+01
 20
-2.58706709E+02
  0
VERTEX
  8
0
 62
4
 10
-3.73000343E+01
 20
-2.58556303E+02
  0
VERTEX
  8
0
 62
4
 10
-3.75631322E+01
 20
-2.58427046E+02
  0
VERTEX
  8
0
 62
4
 10
-3.78371658E+01
 20
-2.58319922E+02
  0
VERTEX
  8
0
 62
4
 10
-3.81200495E+01
 20
-2.58235746E+02
  0
VERTEX
  8
0
 62
4
 10
-3.84096305E+01
 20
-2.58175158E+02
  0
VERTEX
  8
0
 62
4
 10
-3.87037048E+01
 20
-2.58138620E+02
  0
VERTEX
  8
0
 62
4
 10
-3.90000343E+01
 20
-2.58126410E+02
  0
VERTEX
  8
0
 62
4
 10
-3.92963638E+01
 20
-2.58138620E+02
  0
VERTEX
  8
0
 62
4
 10
-3.95904381E+01
 20
-2.58175158E+02
  0
VERTEX
  8
0
 62
4
 10
-3.98800191E+01
 20
-2.58235746E+02
  0
VERTEX
  8
0
 62
4
 10
-4.01629028E+01
 20
-2.58319922E+02
  0
VERTEX
  8
0
 62
4
 10
-4.04369364E+01
 20
-2.58427046E+02
  0
VERTEX
  8
0
 62
4
 10
-4.07000343E+01
 20
-2.58556303E+02
  0
VERTEX
  8
0
 62
4
 10
-4.09501942E+01
 20
-2.58706709E+02
  0
VERTEX
  8
0
 62
4
 10
-4.11855122E+01
 20
-2.58877119E+02
  0
VERTEX
  8
0
 62
4
 10
-4.14041974E+01
 20
-2.59066236E+02
  0
VERTEX
  8
0
 62
4
 10
-4.16045854E+01
 20
-2.59272621E+02
  0
VERTEX
  8
0
 62
4
 10
-4.17851513E+01
 20
-2.59494704E+02
  0
VERTEX
  8
0
 62
4
 10
-4.19445207E+01
 20
-2.59730793E+02
  0
VERTEX
  8
0
 62
4
 10
-4.20814808E+01
 20
-2.59979093E+02
  0
VERTEX
  8
0
 62
4
 10
-4.21949892E+01
 20
-2.60237714E+02
  0
VERTEX
  8
0
 62
4
 10
-4.22841821E+01
 20
-2.60504687E+02
  0
VERTEX
  8
0
 62
4
 10
-4.23483807E+01
 20
-2.60777980E+02
  0
VERTEX
  8
0
 62
4
 10
-4.23870963E+01
 20
-2.61055514E+02
  0
VERTEX
  8
0
 62
4
 10
-4.24000343E+01
 20
-2.61335177E+02
  0
VERTEX
  8
0
 62
4
 10
-4.23870963E+01
 20
-2.61614840E+02
  0
VERTEX
  8
0
 62
4
 10
-4.23483807E+01
 20
-2.61892374E+02
  0
VERTEX
  8
0
 62
4
 10
-4.22841821E+01
 20
-2.62165667E+02
  0
VERTEX
  8
0
 62
4
 10
-4.21949892E+01
 20
-2.62432640E+02
  0
VERTEX
  8
0
 62
4
 10
-4.20814808E+01
 20
-2.62691261E+02
  0
VERTEX
  8
0
 62
4
 10
-4.19445207E+01
 20
-2.62939561E+02
  0
VERTEX
  8
0
 62
4
 10
-4.17851512E+01
 20
-2.63175650E+02
  0
VERTEX
  8
0
 62
4
 10
-4.16045854E+01
 20
-2.63397733E+02
  0
VERTEX
  8
0
 62
4
 10
-4.14041974E+01
 20
-2.63604118E+02
  0
VERTEX
  8
0
 62
4
 10
-4.11855122E+01
 20
-2.63793235E+02
  0
VERTEX
  8
0
 62
4
 10
-4.09501942E+01
 20
-2.63963645E+02
  0
VERTEX
  8
0
 62
4
 10
-4.07000343E+01
 20
-2.64114051E+02
  0
VERTEX
  8
0
 62
4
 10
-4.04369364E+01
 20
-2.64243308E+02
  0
VERTEX
  8
0
 62
4
 10
-4.01629028E+01
 20
-2.64350432E+02
  0
VERTEX
  8
0
 62
4
 10
-3.98800190E+01
 20
-2.64434608E+02
  0
VERTEX
  8
0
 62
4
 10
-3.95904381E+01
 20
-2.64495196E+02
  0
VERTEX
  8
0
 62
4
 10
-3.92963638E+01
 20
-2.64531734E+02
  0
VERTEX
  8
0
 62
4
 10
-3.90000343E+01
 20
-2.64543944E+02
  0
VERTEX
  8
0
 62
4
 10
-3.87037048E+01
 20
-2.64531734E+02
  0
VERTEX
  8
0
 62
4
 10
-3.84096305E+01
 20
-2.64495196E+02
  0
VERTEX
  8
0
 62
4
 10
-3.81200495E+01
 20
-2.64434608E+02
  0
VERTEX
  8
0
 62
4
 10
-3.78371658E+01
 20
-2.64350432E+02
  0
VERTEX
  8
0
 62
4
 10
-3.75631322E+01
 20
-2.64243308E+02
  0
VERTEX
  8
0
 62
4
 10
-3.73000343E+01
 20
-2.64114051E+02
  0
VERTEX
  8
0
 62
4
 10
-3.70498744E+01
 20
-2.63963645E+02
  0
VERTEX
  8
0
 62
4
 10
-3.68145564E+01
 20
-2.63793235E+02
  0
VERTEX
  8
0
 62
4
 10
-3.65958712E+01
 20
-2.63604118E+02
  0
VERTEX
  8
0
 62
4
 10
-3.63954832E+01
 20
-2.63397733E+02
  0
VERTEX
  8
0
 62
4
 10
-3.62149173E+01
 20
-2.63175650E+02
  0
VERTEX
  8
0
 62
4
 10
-3.60555479E+01
 20
-2.62939561E+02
  0
VERTEX
  8
0
 62
4
 10
-3.59185878E+01
 20
-2.62691261E+02
  0
VERTEX
  8
0
 62
4
 10
-3.58050794E+01
 20
-2.62432640E+02
  0
VERTEX
  8
0
 62
4
 10
-3.57158865E+01
 20
-2.62165667E+02
  0
VERTEX
  8
0
 62
4
 10
-3.56516879E+01
 20
-2.61892374E+02
  0
VERTEX
  8
0
 62
4
 10
-3.56129723E+01
 20
-2.61614839E+02
  0
VERTEX
  8
0
 62
4
 10
-3.56000343E+01
 20
-2.61335177E+02
  0
SEQEND
  8
0
  0
POLYLINE
  8
0
 62
4
 66
1
  0
VERTEX
  8
0
 62
4
 10
-4.23807043E+01
 20
-2.61676837E+02
  0
VERTEX
  8
0
 62
4
 10
-4.23994591E+01
 20
-2.61952525E+02
  0
VERTEX
  8
0
 62
4
 10
-4.23917331E+01
 20
-2.62228661E+02
  0
VERTEX
  8
0
 62
4
 10
-4.23575865E+01
 20
-2.62503095E+02
  0
VERTEX
  8
0
 62
4
 10
-4.22972853E+01
 20
-2.62773688E+02
  0
VERTEX
  8
0
 62
4
 10
-4.22112992E+01
 20
-2.63038333E+02
  0
VERTEX
  8
0
 62
4
 10
-4.21002981E+01
 20
-2.63294969E+02
  0
VERTEX
  8
0
 62
4
 10
-4.19651466E+01
 20
-2.63541595E+02
  0
VERTEX
  8
0
 62
4
 10
-4.18068975E+01
 20
-2.63776292E+02
  0
VERTEX
  8
0
 62
4
 10
-4.16267836E+01
 20
-2.63997230E+02
  0
VERTEX
  8
0
 62
4
 10
-4.14262078E+01
 20
-2.64202689E+02
  0
VERTEX
  8
0
 62
4
 10
-4.12067327E+01
 20
-2.64391068E+02
  0
VERTEX
  8
0
 62
4
 10
-4.09700679E+01
 20
-2.64560899E+02
  0
VERTEX
  8
0
 62
4
 10
-4.07180570E+01
 20
-2.64710861E+02
  0
VERTEX
  8
0
 62
4
 10
-4.04526630E+01
 20
-2.64839784E+02
  0
VERTEX
  8
0
 62
4
 10
-4.01759534E+01
 20
-2.64946664E+02
  0
VERTEX
  8
0
 62
4
 10
-3.98900837E+01
 20
-2.65030669E+02
  0
VERTEX
  8
0
 62
4
 10
-3.95972806E+01
 20
-2.65091145E+02
  0
VERTEX
  8
0
 62
4
 10
-3.92998251E+01
 20
-2.65127620E+02
  0
VERTEX
  8
0
 62
4
 10
-3.90000343E+01
 20
-2.65139809E+02
  0
VERTEX
  8
0
 62
4
 10
-3.87002435E+01
 20
-2.65127620E+02
  0
VERTEX
  8
0
 62
4
 10
-3.84027880E+01
 20
-2.65091145E+02
  0
VERTEX
  8
0
 62
4
 10
-3.81099850E+01
 20
-2.65030669E+02
  0
VERTEX
  8
0
 62
4
 10
-3.78241152E+01
 20
-2.64946664E+02
  0
VERTEX
  8
0
 62
4
 10
-3.75474056E+01
 20
-2.64839784E+02
  0
VERTEX
  8
0
 62
4
 10
-3.72820116E+01
 20
-2.64710861E+02
  0
VERTEX
  8
0
 62
4
 10
-3.70300007E+01
 20
-2.64560899E+02
  0
VERTEX
  8
0
 62
4
 10
-3.67933359E+01
 20
-2.64391068E+02
  0
VERTEX
  8
0
 62
4
 10
-3.65738608E+01
 20
-2.64202689E+02
  0
VERTEX
  8
0
 62
4
 10
-3.63732850E+01
 20
-2.63997230E+02
  0
VERTEX
  8
0
 62
4
 10
-3.61931711E+01
 20
-2.63776292E+02
  0
VERTEX
  8
0
 62
4
 10
-3.60349220E+01
 20
-2.63541595E+02
  0
VERTEX
  8
0
 62
4
 10
-3.58997705E+01
 20
-2.63294969E+02
  0
VERTEX
  8
0
 62
4
 10
-3.57887694E+01
 20
-2.63038333E+02
  0
VERTEX
  8
0
 62
4
 10
-3.57027833E+01
 20
-2.62773688E+02
  0
VERTEX
  8
0
 62
4
 10
-3.56424821E+01
 20
-2.62503095E+02
  0
VERTEX
  8
0
 62
4
 10
-3.56083355E+01
 20
-2.62228661E+02
  0
VERTEX
  8
0
 62
4
 10
-3.56006095E+01
 20
-2.61952525E+02
  0
VERTEX
  8
0
 62
4
 10
-3.56193643E+01
 20
-2.61676837E+02
  0
SEQEND
  8
0
  0
POLYLINE
  8
0
 62
4
 66
1
  0
VERTEX
  8
0
 62
4
 10
-4.29986264E+01
 20
-2.62107775E+02
  0
VERTEX
  8
0
 62
4
 10
-4.29922973E+01
 20
-2.62434360E+02
  0
VERTEX
  8
0
 62
4
 10
-4.29545502E+01
 20
-2.62759144E+02
  0
VERTEX
  8
0
 62
4
 10
-4.28856822E+01
 20
-2.63079571E+02
  0
VERTEX
  8
0
 62
4
 10
-4.27862353E+01
 20
-2.63393118E+02
  0
VERTEX
  8
0
 62
4
 10
-4.26569920E+01
 20
-2.63697319E+02
  0
VERTEX
  8
0
 62
4
 10
-4.24989696E+01
 20
-2.63989779E+02
  0
VERTEX
  8
0
 62
4
 10
-4.23134115E+01
 20
-2.64268198E+02
  0
VERTEX
  8
0
 62
4
 10
-4.21017781E+01
 20
-2.64530383E+02
  0
VERTEX
  8
0
 62
4
 10
-4.18657349E+01
 20
-2.64774271E+02
  0
VERTEX
  8
0
 62
4
 10
-4.16071394E+01
 20
-2.64997944E+02
  0
VERTEX
  8
0
 62
4
 10
-4.13280267E+01
 20
-2.65199641E+02
  0
VERTEX
  8
0
 62
4
 10
-4.10305934E+01
 20
-2.65377774E+02
  0
VERTEX
  8
0
 62
4
 10
-4.07171802E+01
 20
-2.65530942E+02
  0
VERTEX
  8
0
 62
4
 10
-4.03902536E+01
 20
-2.65657940E+02
  0
VERTEX
  8
0
 62
4
 10
-4.00523863E+01
 20
-2.65757768E+02
  0
VERTEX
  8
0
 62
4
 10
-3.97062373E+01
 20
-2.65829640E+02
  0
VERTEX
  8
0
 62
4
 10
-3.93545307E+01
 20
-2.65872990E+02
  0
VERTEX
  8
0
 62
4
 10
-3.90000343E+01
 20
-2.65887478E+02
  0
VERTEX
  8
0
 62
4
 10
-3.86455379E+01
 20
-2.65872990E+02
  0
VERTEX
  8
0
 62
4
 10
-3.82938313E+01
 20
-2.65829640E+02
  0
VERTEX
  8
0
 62
4
 10
-3.79476823E+01
 20
-2.65757768E+02
  0
VERTEX
  8
0
 62
4
 10
-3.76098150E+01
 20
-2.65657940E+02
  0
VERTEX
  8
0
 62
4
 10
-3.72828884E+01
 20
-2.65530942E+02
  0
VERTEX
  8
0
 62
4
 10
-3.69694752E+01
 20
-2.65377774E+02
  0
VERTEX
  8
0
 62
4
 10
-3.66720419E+01
 20
-2.65199641E+02
  0
VERTEX
  8
0
 62
4
 10
-3.63929292E+01
 20
-2.64997944E+02
  0
VERTEX
  8
0
 62
4
 10
-3.61343337E+01
 20
-2.64774271E+02
  0
VERTEX
  8
0
 62
4
 10
-3.58982905E+01
 20
-2.64530383E+02
  0
VERTEX
  8
0
 62
4
 10
-3.56866571E+01
 20
-2.64268198E+02
  0
VERTEX
  8
0
 62
4
 10
-3.55010990E+01
 20
-2.63989779E+02
  0
VERTEX
  8
0
 62
4
 10
-3.53430766E+01
 20
-2.63697319E+02
  0
VERTEX
  8
0
 62
4
 10
-3.52138333E+01
 20
-2.63393118E+02
  0
VERTEX
  8
0
 62
4
 10
-3.51143864E+01
 20
-2.63079571E+02
  0
VERTEX
  8
0
 62
4
 10
-3.50455184E+01
 20
-2.62759144E+02
  0
VERTEX
  8
0
 62
4
 10
-3.50077713E+01
 20
-2.62434360E+02
  0
VERTEX
  8
0
 62
4
 10
-3.50014422E+01
 20
-2.62107775E+02
  0
SEQEND
  8
0
  0
POLYLINE
  8
0
 62
4
 66
1
  0
VERTEX
  8
0
 62
4
 10
-4.14086282E+01
 20
-2.59070427E+02
  0
VERTEX
  8
0
 62
4
 10
-4.16786640E+01
 20
-2.59275567E+02
  0
VERTEX
  8
0
 62
4
 10
-4.19281775E+01
 20
-2.59501658E+02
  0
VERTEX
  8
0
 62
4
 10
-4.21552570E+01
 20
-2.59746967E+02
  0
VERTEX
  8
0
 62
4
 10
-4.23581627E+01
 20
-2.60009615E+02
  0
VERTEX
  8
0
 62
4
 10
-4.25353401E+01
 20
-2.60287589E+02
  0
VERTEX
  8
0
 62
4
 10
-4.26854317E+01
 20
-2.60578761E+02
  0
VERTEX
  8
0
 62
4
 10
-4.28072876E+01
 20
-2.60880899E+02
  0
VERTEX
  8
0
 62
4
 10
-4.28999742E+01
 20
-2.61191688E+02
  0
VERTEX
  8
0
 62
4
 10
-4.29627814E+01
 20
-2.61508747E+02
  0
VERTEX
  8
0
 62
4
 10
-4.29952280E+01
 20
-2.61829648E+02
  0
VERTEX
  8
0
 62
4
 10
-4.29970654E+01
 20
-2.62151930E+02
  0
VERTEX
  8
0
 62
4
 10
-4.29682794E+01
 20
-2.62473127E+02
  0
VERTEX
  8
0
 62
4
 10
-4.29090908E+01
 20
-2.62790775E+02
  0
VERTEX
  8
0
 62
4
 10
-4.28199528E+01
 20
-2.63102443E+02
  0
VERTEX
  8
0
 62
4
 10
-4.27015486E+01
 20
-2.63405741E+02
  0
VERTEX
  8
0
 62
4
 10
-4.25547851E+01
 20
-2.63698347E+02
  0
VERTEX
  8
0
 62
4
 10
-4.23807869E+01
 20
-2.63978018E+02
  0
VERTEX
  8
0
 62
4
 10
-4.21808870E+01
 20
-2.64242612E+02
  0
VERTEX
  8
0
 62
4
 10
-4.19566170E+01
 20
-2.64490101E+02
  0
VERTEX
  8
0
 62
4
 10
-4.17096951E+01
 20
-2.64718590E+02
  0
VERTEX
  8
0
 62
4
 10
-4.14420132E+01
 20
-2.64926327E+02
  0
VERTEX
  8
0
 62
4
 10
-4.11556220E+01
 20
-2.65111722E+02
  0
VERTEX
  8
0
 62
4
 10
-4.08527157E+01
 20
-2.65273354E+02
  0
VERTEX
  8
0
 62
4
 10
-4.05356151E+01
 20
-2.65409984E+02
  0
VERTEX
  8
0
 62
4
 10
-4.02067496E+01
 20
-2.65520566E+02
  0
VERTEX
  8
0
 62
4
 10
-3.98686389E+01
 20
-2.65604252E+02
  0
VERTEX
  8
0
 62
4
 10
-3.95238734E+01
 20
-2.65660402E+02
  0
VERTEX
  8
0
 62
4
 10
-3.91750944E+01
 20
-2.65688584E+02
  0
VERTEX
  8
0
 62
4
 10
-3.88249742E+01
 20
-2.65688584E+02
  0
VERTEX
  8
0
 62
4
 10
-3.84761953E+01
 20
-2.65660402E+02
  0
VERTEX
  8
0
 62
4
 10
-3.81314297E+01
 20
-2.65604252E+02
  0
VERTEX
  8
0
 62
4
 10
-3.77933190E+01
 20
-2.65520566E+02
  0
VERTEX
  8
0
 62
4
 10
-3.74644535E+01
 20
-2.65409984E+02
  0
VERTEX
  8
0
 62
4
 10
-3.71473529E+01
 20
-2.65273354E+02
  0
VERTEX
  8
0
 62
4
 10
-3.68444467E+01
 20
-2.65111722E+02
  0
VERTEX
  8
0
 62
4
 10
-3.65580555E+01
 20
-2.64926327E+02
  0
VERTEX
  8
0
 62
4
 10
-3.62903735E+01
 20
-2.64718590E+02
  0
VERTEX
  8
0
 62
4
 10
-3.60434516E+01
 20
-2.64490101E+02
  0
VERTEX
  8
0
 62
4
 10
-3.58191816E+01
 20
-2.64242612E+02
  0
VERTEX
  8
0
 62
4
 10
-3.56192817E+01
 20
-2.63978018E+02
  0
VERTEX
  8
0
 62
4
 10
-3.54452835E+01
 20
-2.63698347E+02
  0
VERTEX
  8
0
 62
4
 10
-3.52985200E+01
 20
-2.63405741E+02
  0
VERTEX
  8
0
 62
4
 10
-3.51801158E+01
 20
-2.63102443E+02
  0
VERTEX
  8
0
 62
4
 10
-3.50909778E+01
 20
-2.62790775E+02
  0
VERTEX
  8
0
 62
4
 10
-3.50317892E+01
 20
-2.62473127E+02
  0
VERTEX
  8
0
 62
4
 10
-3.50030032E+01
 20
-2.62151930E+02
  0
VERTEX
  8
0
 62
4
 10
-3.50048406E+01
 20
-2.61829648E+02
  0
VERTEX
  8
0
 62
4
 10
-3.50372872E+01
 20
-2.61508747E+02
  0
VERTEX
  8
0
 62
4
 10
-3.51000944E+01
 20
-2.61191688E+02
  0
VERTEX
  8
0
 62
4
 10
-3.51927810E+01
 20
-2.60880899E+02
  0
VERTEX
  8
0
 62
4
 10
-3.53146369E+01
 20
-2.60578761E+02
  0
VERTEX
  8
0
 62
4
 10
-3.54647285E+01
 20
-2.60287589E+02
  0
VERTEX
  8
0
 62
4
 10
-3.56419059E+01
 20
-2.60009615E+02
  0
VERTEX
  8
0
 62
4
 10
-3.58448116E+01
 20
-2.59746967E+02
  0
VERTEX
  8
0
 62
4
 10
-3.60718911E+01
 20
-2.59501658E+02
  0
VERTEX
  8
0
 62
4
 10
-3.63214046E+01
 20
-2.59275567E+02
  0
VERTEX
  8
0
 62
4
 10
-3.65914404E+01
 20
-2.59070427E+02
  0
SEQEND
  8
0
  0
LINE
  8
0
 62
4
 10
-1.50000343E+01
 20
-2.76000000E+02
 11
-1.50000343E+01
 21
-2.73963458E+02
  0
LINE
  8
0
 62
4
 10
-4.80000343E+01
 20
-2.76000000E+02
 11
-4.80000343E+01
 21
-2.73963458E+02
  0
LINE
  8
0
 62
4
 10
-1.50000343E+01
 20
-2.73963458E+02
 11
-1.20000343E+01
 21
-2.69109245E+02
  0
LINE
  8
0
 62
4
 10
-5.10000343E+01
 20
-2.69109245E+02
 11
-4.80000343E+01
 21
-2.73963458E+02
  0
LINE
  8
0
 62
4
 10
-4.65000343E+01
 20
-2.52457438E+02
 11
-3.15000343E+01
 21
-2.52457438E+02
  0
LINE
  8
0
 62
4
 10
-4.65000343E+01
 20
-2.30365322E+02
 11
-3.15000343E+01
 21
-2.30365322E+02
  0
LINE
  8
0
 62
6
 10
-4.07149692E+01
 20
-2.62557058E+02
 11
-3.72850995E+01
 21
-2.59127183E+02
  0
LINE
  8
0
 62
6
 10
-3.72850970E+01
 20
-2.62557056E+02
 11
-4.07149716E+01
 21
-2.59127186E+02
  0
ARC
  8
0
 62
4
 10
-4.95000315E+01
 20
-2.57579770E+02
 40
1.50000284E+00
 50
9.00001085E+01
 51
1.79999892E+02
  0
ARC
  8
0
 62
4
 10
-5.55000386E+01
 20
-2.45318864E+02
 40
4.99995728E-01
 50
1.79999510E+02
 51
2.70000490E+02
  0
ARC
  8
0
 62
4
 10
-1.35000372E+01
 20
-2.57579770E+02
 40
1.50000284E+00
 50
1.08554370E-04
 51
8.99998913E+01
  0
ARC
  8
0
 62
4
 10
-4.70000386E+01
 20
-2.46318864E+02
 40
5.00004272E-01
 50
4.89585868E-04
 51
8.99995103E+01
  0
LINE
  8
0
 62
4
 10
-5.95000343E+01
 20
-2.44568859E+02
 11
-5.60000343E+01
 21
-2.44568859E+02
  0
LINE
  8
0
 62
4
 10
-5.95000343E+01
 20
-2.33068859E+02
 11
-5.60000343E+01
 21
-2.33068859E+02
  0
LINE
  8
0
 62
4
 10
-5.95000343E+01
 20
-2.32568859E+02
 11
-5.95000343E+01
 21
-2.45068859E+02
  0
LINE
  8
0
 62
4
 10
-6.10000343E+01
 20
-2.45068859E+02
 11
-5.60000343E+01
 21
-2.45068859E+02
  0
LINE
  8
0
 62
4
 10
-6.10000343E+01
 20
-2.32568859E+02
 11
-5.60000343E+01
 21
-2.32568859E+02
  0
LINE
  8
0
 62
4
 10
-6.10000343E+01
 20
-2.31915048E+02
 11
-6.10000343E+01
 21
-2.45731826E+02
  0
LINE
  8
0
 62
4
 10
-6.60000343E+01
 20
-2.31915048E+02
 11
-6.60000343E+01
 21
-2.45731826E+02
  0
LINE
  8
0
 62
4
 10
-5.55000343E+01
 20
-2.45818859E+02
 11
-4.70000343E+01
 21
-2.45818859E+02
  0
LINE
  8
0
 62
4
 10
-6.60000343E+01
 20
-2.31915048E+02
 11
-6.10000343E+01
 21
-2.31915048E+02
  0
LINE
  8
0
 62
4
 10
-4.95000343E+01
 20
-2.56079767E+02
 11
-1.35000343E+01
 21
-2.56079767E+02
  0
LINE
  8
0
 62
4
 10
-5.10000343E+01
 20
-2.67728488E+02
 11
-1.20000343E+01
 21
-2.67728488E+02
  0
LINE
  8
0
 62
4
 10
-5.10000343E+01
 20
-2.69109245E+02
 11
-1.20000343E+01
 21
-2.69109245E+02
  0
LINE
  8
0
 62
4
 10
-4.80000343E+01
 20
-2.73963458E+02
 11
-1.50000343E+01
 21
-2.73963458E+02
  0
LINE
  8
0
 62
4
 10
-1.20000343E+01
 20
-2.57579767E+02
 11
-1.20000343E+01
 21
-2.69109245E+02
  0
LINE
  8
0
 62
4
 10
-2.95000343E+01
 20
-2.52596481E+02
 11
-2.95000343E+01
 21
-2.56079767E+02
  0
LINE
  8
0
 62
4
 10
-4.65000343E+01
 20
-2.30365322E+02
 11
-4.65000343E+01
 21
-2.52596481E+02
  0
LINE
  8
0
 62
4
 10
-3.15000343E+01
 20
-2.30365322E+02
 11
-3.15000343E+01
 21
-2.52596481E+02
  0
LINE
  8
0
 62
4
 10
-4.85000343E+01
 20
-2.52596481E+02
 11
-4.85000343E+01
 21
-2.56079767E+02
  0
LINE
  8
0
 62
4
 10
-5.10000343E+01
 20
-2.57579767E+02
 11
-5.10000343E+01
 21
-2.69109245E+02
  0
LINE
  8
0
 62
4
 10
-4.85000343E+01
 20
-2.52596481E+02
 11
-2.95000343E+01
 21
-2.52596481E+02
  0
LINE
  8
0
  6
CENTER
 62
6
 10
-4.54000343E+01
 20
-2.60842121E+02
 11
-3.26000343E+01
 21
-2.60842121E+02
  0
LINE
  8
0
  6
CENTER
 62
6
 10
-3.90000343E+01
 20
-2.67242121E+02
 11
-3.90000343E+01
 21
-2.54442121E+02
  0
ARC
  8
0
 62
4
 10
-3.90033896E+02
 20
-2.38818844E+02
 40
7.00000000E+00
 50
1.21115777E+02
 51
1.44002341E+02
  0
ARC
  8
0
 62
4
 10
-3.90033896E+02
 20
-2.38818844E+02
 40
7.00000000E+00
 50
8.19976591E+01
 51
1.04884035E+02
  0
ARC
  8
0
 62
4
 10
-3.71325466E+02
 20
-2.58579768E+02
 40
2.50001570E+00
 50
2.30003598E+01
 51
1.12999640E+02
  0
ARC
  8
0
 62
4
 10
-3.88815034E+02
 20
-2.66003645E+02
 40
2.50001192E+00
 50
1.13000273E+02
 51
2.02999727E+02
  0
ARC
  8
0
 62
4
 10
-3.74711093E+02
 20
-2.65484481E+02
 40
1.18036308E+01
 50
1.02898056E+01
 51
3.59747793E+01
  0
CIRCLE
  8
0
 62
4
 10
-3.90033896E+02
 20
-2.38818844E+02
 40
3.75000000E+00
  0
ARC
  8
0
 62
4
 10
-3.65959669E+02
 20
-2.59123604E+02
 40
9.97209177E-01
 50
3.55805360E+01
 51
1.12812291E+02
  0
ARC
  8
0
 62
4
 10
-3.64081143E+02
 20
-2.63545584E+02
 40
9.98345090E-01
 50
2.93107940E+02
 51
9.77816763E+00
  0
LINE
  8
0
 62
4
 10
-3.68173212E+02
 20
-2.58328058E+02
 11
-3.65047363E+02
 21
-2.65692097E+02
  0
LINE
  8
0
  6
CENTER
 62
6
 10
-3.91322968E+02
 20
-2.72499989E+02
 11
-3.61087258E+02
 21
-2.59665691E+02
  0
LINE
  8
0
 62
4
 10
-3.63689328E+02
 20
-2.64463829E+02
 11
-3.65281802E+02
 21
-2.65139794E+02
  0
LINE
  8
0
 62
4
 10
-3.67938773E+02
 20
-2.58880361E+02
 11
-3.66346300E+02
 21
-2.58204396E+02
  0
LINE
  8
0
 62
4
 10
-3.65507615E+02
 20
-2.65887463E+02
 11
-3.65047363E+02
 21
-2.65692097E+02
  0
LINE
  8
0
 62
4
 10
-3.68633464E+02
 20
-2.58523424E+02
 11
-3.68173212E+02
 21
-2.58328058E+02
  0
LINE
  8
0
 62
4
 10
-3.89984972E+02
 20
-2.32279889E+02
 11
-3.85474498E+02
 21
-2.30365306E+02
  0
LINE
  8
0
 62
4
 10
-3.92964381E+02
 20
-2.31915033E+02
 11
-3.85515858E+02
 21
-2.32827173E+02
  0
LINE
  8
0
 62
4
 10
-3.94548030E+02
 20
-2.44819669E+02
 11
-3.87099507E+02
 21
-2.45731810E+02
  0
LINE
  8
0
 62
4
 10
-3.85515858E+02
 20
-2.32827173E+02
 11
-3.82581467E+02
 21
-2.39740165E+02
  0
LINE
  8
0
 62
4
 10
-3.97482421E+02
 20
-2.37906678E+02
 11
-3.94548030E+02
 21
-2.44819669E+02
  0
LINE
  8
0
 62
4
 10
-3.97482421E+02
 20
-2.37906678E+02
 11
-3.92964381E+02
 21
-2.31915033E+02
  0
LINE
  8
0
 62
4
 10
-3.87099507E+02
 20
-2.45731810E+02
 11
-3.82581467E+02
 21
-2.39740165E+02
  0
LINE
  8
0
 62
4
 10
-3.76080223E+02
 20
-2.66573007E+02
 11
-3.75103395E+02
 21
-2.68874269E+02
  0
LINE
  8
0
 62
4
 10
-3.79762242E+02
 20
-2.68135932E+02
 11
-3.78785414E+02
 21
-2.70437194E+02
  0
LINE
  8
0
 62
4
 10
-3.78785414E+02
 20
-2.70437194E+02
 11
-3.75103395E+02
 21
-2.68874269E+02
  0
LINE
  8
0
 62
4
 10
-3.79762242E+02
 20
-2.68135932E+02
 11
-3.76080223E+02
 21
-2.66573007E+02
  0
LINE
  8
0
 62
4
 10
-3.75967153E+02
 20
-2.72499994E+02
 11
-3.64726153E+02
 21
-2.67728473E+02
  0
LINE
  8
0
 62
4
 10
-3.64140056E+02
 20
-2.69109230E+02
 11
-3.64977296E+02
 21
-2.72499998E+02
  0
LINE
  8
0
 62
4
 10
-3.91116312E+02
 20
-2.66980466E+02
 11
-3.88773413E+02
 21
-2.72499989E+02
  0
LINE
  8
0
 62
4
 10
-3.69024195E+02
 20
-2.57602919E+02
 11
-3.64140056E+02
 21
-2.69109230E+02
  0
LINE
  8
0
 62
4
 10
-3.72128199E+02
 20
-2.72499995E+02
 11
-3.64140056E+02
 21
-2.69109230E+02
  0
LINE
  8
0
 62
4
 10
-3.89791878E+02
 20
-2.63702376E+02
 11
-3.72302285E+02
 21
-2.56278485E+02
  0
LINE
  8
0
 62
4
 10
-3.91354802E+02
 20
-2.60020357E+02
 11
-3.89791878E+02
 21
-2.63702376E+02
  0
LINE
  8
0
 62
4
 10
-3.73865210E+02
 20
-2.52596465E+02
 11
-3.72302285E+02
 21
-2.56278485E+02
  0
LINE
  8
0
 62
4
 10
-3.89904524E+02
 20
-2.58318390E+02
 11
-3.76096951E+02
 21
-2.52457423E+02
  0
LINE
  8
0
 62
4
 10
-3.91354802E+02
 20
-2.60020357E+02
 11
-3.73865210E+02
 21
-2.52596465E+02
  0
LINE
  8
0
 62
4
 10
-3.99282071E+02
 20
-2.36226273E+02
 11
-3.89513792E+02
 21
-2.59238895E+02
  0
LINE
  8
0
 62
4
 10
-3.85474498E+02
 20
-2.30365306E+02
 11
-3.75706220E+02
 21
-2.53377928E+02
  0
LINE
  8
0
 62
4
 10
-3.99282071E+02
 20
-2.36226273E+02
 11
-3.94780802E+02
 21
-2.34315598E+02
  0
LINE
  8
0
 62
4
 10
-3.97358935E+02
 20
-2.70173483E+02
 11
-3.98544363E+02
 21
-2.72499986E+02
  0
LINE
  8
0
 62
4
 10
-3.97358935E+02
 20
-2.70173483E+02
 11
-3.90920946E+02
 21
-2.67440719E+02
  0
LINE
  8
0
 62
4
 10
1.59358836E+02
 20
-2.70173483E+02
 11
1.60544264E+02
 21
-2.72499986E+02
  0
ARC
  8
0
 62
4
 10
1.50814935E+02
 20
-2.66003645E+02
 40
2.50001192E+00
 50
3.37000273E+02
 51
6.69997268E+01
  0
LINE
  8
0
 62
4
 10
1.59358836E+02
 20
-2.70173483E+02
 11
1.52920847E+02
 21
-2.67440719E+02
  0
LINE
  8
0
 62
4
 10
1.53116213E+02
 20
-2.66980466E+02
 11
1.50773314E+02
 21
-2.72499989E+02
  0
LINE
  8
0
 62
4
 10
1.41762143E+02
 20
-2.68135932E+02
 11
1.40785315E+02
 21
-2.70437194E+02
  0
LINE
  8
0
 62
4
 10
1.40785315E+02
 20
-2.70437194E+02
 11
1.37103296E+02
 21
-2.68874269E+02
  0
LINE
  8
0
 62
4
 10
1.41762143E+02
 20
-2.68135932E+02
 11
1.38080124E+02
 21
-2.66573007E+02
  0
LINE
  8
0
 62
4
 10
1.34128100E+02
 20
-2.72499995E+02
 11
1.26139957E+02
 21
-2.69109230E+02
  0
LINE
  8
0
 62
4
 10
1.26139957E+02
 20
-2.69109230E+02
 11
1.26977197E+02
 21
-2.72499998E+02
  0
ARC
  8
0
 62
4
 10
1.26081044E+02
 20
-2.63545584E+02
 40
9.98345090E-01
 50
1.70221832E+02
 51
2.46892060E+02
  0
LINE
  8
0
 62
4
 10
1.25689229E+02
 20
-2.64463829E+02
 11
1.27281702E+02
 21
-2.65139794E+02
  0
LINE
  8
0
 62
4
 10
1.27507516E+02
 20
-2.65887463E+02
 11
1.27047264E+02
 21
-2.65692097E+02
  0
LINE
  8
0
 62
4
 10
1.37967054E+02
 20
-2.72499994E+02
 11
1.26726054E+02
 21
-2.67728473E+02
  0
LINE
  8
0
 62
4
 10
1.38080124E+02
 20
-2.66573007E+02
 11
1.37103296E+02
 21
-2.68874269E+02
  0
ARC
  8
0
 62
4
 10
1.33325367E+02
 20
-2.58579768E+02
 40
2.50001570E+00
 50
6.70003599E+01
 51
1.56999640E+02
  0
ARC
  8
0
 62
4
 10
1.27959569E+02
 20
-2.59123604E+02
 40
9.97209177E-01
 50
6.71877091E+01
 51
1.44419464E+02
  0
LINE
  8
0
 62
4
 10
1.29938674E+02
 20
-2.58880361E+02
 11
1.28346201E+02
 21
-2.58204396E+02
  0
LINE
  8
0
 62
4
 10
1.30633365E+02
 20
-2.58523424E+02
 11
1.30173113E+02
 21
-2.58328058E+02
  0
LINE
  8
0
 62
4
 10
1.54964282E+02
 20
-2.31915033E+02
 11
1.53831845E+02
 21
-2.32053710E+02
  0
LINE
  8
0
 62
4
 10
1.55651182E+02
 20
-2.32825973E+02
 11
1.54964282E+02
 21
-2.31915033E+02
  0
LINE
  8
0
 62
4
 10
1.35865111E+02
 20
-2.52596465E+02
 11
1.34302186E+02
 21
-2.56278485E+02
  0
LINE
  8
0
 62
4
 10
1.51904424E+02
 20
-2.58318390E+02
 11
1.38096852E+02
 21
-2.52457423E+02
  0
LINE
  8
0
 62
4
 10
1.53354703E+02
 20
-2.60020357E+02
 11
1.35865111E+02
 21
-2.52596465E+02
  0
LINE
  8
0
 62
4
 10
1.61281971E+02
 20
-2.36226273E+02
 11
1.51513693E+02
 21
-2.59238895E+02
  0
LINE
  8
0
 62
4
 10
1.47474399E+02
 20
-2.30365306E+02
 11
1.37706120E+02
 21
-2.53377928E+02
  0
LINE
  8
0
 62
4
 10
1.47474399E+02
 20
-2.30365306E+02
 11
1.61281971E+02
 21
-2.36226273E+02
  0
ARC
  8
0
 62
4
 10
1.52033789E+02
 20
-2.38818841E+02
 40
7.00000000E+00
 50
3.59976591E+01
 51
9.80023407E+01
  0
LINE
  8
0
  6
CENTER
 62
6
 10
1.44288284E+02
 20
-2.57066107E+02
 11
1.42464793E+02
 21
-2.61361983E+02
  0
LINE
  8
0
 62
4
 10
1.39825215E+02
 20
-2.58622872E+02
 11
1.40547328E+02
 21
-2.57843030E+02
  0
LINE
  8
0
 62
4
 10
1.46328099E+02
 20
-2.60296821E+02
 11
1.46268749E+02
 21
-2.61357989E+02
  0
LINE
  8
0
 62
4
 10
1.40547328E+02
 20
-2.57843030E+02
 11
1.46328099E+02
 21
-2.60296821E+02
  0
LINE
  8
0
 62
4
 10
1.53354703E+02
 20
-2.60020357E+02
 11
1.51791778E+02
 21
-2.63702376E+02
  0
LINE
  8
0
 62
4
 10
1.51791778E+02
 20
-2.63702376E+02
 11
1.34302186E+02
 21
-2.56278485E+02
  0
LINE
  8
0
 62
4
 10
1.31024096E+02
 20
-2.57602919E+02
 11
1.26139957E+02
 21
-2.69109230E+02
  0
LINE
  8
0
  6
CENTER
 62
6
 10
1.53322869E+02
 20
-2.72499989E+02
 11
1.23087159E+02
 21
-2.59665691E+02
  0
LINE
  8
0
 62
4
 10
1.30173113E+02
 20
-2.58328058E+02
 11
1.27047264E+02
 21
-2.65692097E+02
  0
ARC
  8
0
 62
4
 10
1.36710993E+02
 20
-2.65484481E+02
 40
1.18036308E+01
 50
1.44025221E+02
 51
1.69710195E+02
  0
ARC
  8
0
 62
4
 10
-4.95000339E+01
 20
-1.26999117E+02
 40
1.50000046E+00
 50
1.80000018E+02
 51
2.69999983E+02
  0
ARC
  8
0
 62
4
 10
-1.35000310E+01
 20
-1.26999121E+02
 40
1.49999664E+00
 50
2.69999872E+02
 51
1.28225561E-04
  0
LINE
  8
0
 62
4
 10
-4.85000343E+01
 20
-1.26197841E+02
 11
-2.95000343E+01
 21
-1.26197841E+02
  0
POLYLINE
  8
0
 62
4
 66
1
  0
VERTEX
  8
0
 62
4
 10
-1.98600343E+01
 20
-1.17062332E+02
  0
VERTEX
  8
0
 62
4
 10
-1.98719829E+01
 20
-1.16810418E+02
  0
VERTEX
  8
0
 62
4
 10
-1.99077380E+01
 20
-1.16560422E+02
  0
VERTEX
  8
0
 62
4
 10
-1.99670272E+01
 20
-1.16314245E+02
  0
VERTEX
  8
0
 62
4
 10
-2.00493995E+01
 20
-1.16073762E+02
  0
VERTEX
  8
0
 62
4
 10
-2.01542278E+01
 20
-1.15840802E+02
  0
VERTEX
  8
0
 62
4
 10
-2.02807145E+01
 20
-1.15617139E+02
  0
VERTEX
  8
0
 62
4
 10
-2.04278969E+01
 20
-1.15404475E+02
  0
VERTEX
  8
0
 62
4
 10
-2.05946547E+01
 20
-1.15204428E+02
  0
VERTEX
  8
0
 62
4
 10
-2.07797190E+01
 20
-1.15018521E+02
  0
VERTEX
  8
0
 62
4
 10
-2.09816812E+01
 20
-1.14848168E+02
  0
VERTEX
  8
0
 62
4
 10
-2.11990043E+01
 20
-1.14694667E+02
  0
VERTEX
  8
0
 62
4
 10
-2.14300343E+01
 20
-1.14559185E+02
  0
VERTEX
  8
0
 62
4
 10
-2.16730130E+01
 20
-1.14442753E+02
  0
VERTEX
  8
0
 62
4
 10
-2.19260911E+01
 20
-1.14346258E+02
  0
VERTEX
  8
0
 62
4
 10
-2.21873425E+01
 20
-1.14270434E+02
  0
VERTEX
  8
0
 62
4
 10
-2.24547790E+01
 20
-1.14215858E+02
  0
VERTEX
  8
0
 62
4
 10
-2.27263653E+01
 20
-1.14182946E+02
  0
VERTEX
  8
0
 62
4
 10
-2.30000343E+01
 20
-1.14171947E+02
  0
VERTEX
  8
0
 62
4
 10
-2.32737033E+01
 20
-1.14182946E+02
  0
VERTEX
  8
0
 62
4
 10
-2.35452896E+01
 20
-1.14215858E+02
  0
VERTEX
  8
0
 62
4
 10
-2.38127261E+01
 20
-1.14270434E+02
  0
VERTEX
  8
0
 62
4
 10
-2.40739776E+01
 20
-1.14346258E+02
  0
VERTEX
  8
0
 62
4
 10
-2.43270556E+01
 20
-1.14442753E+02
  0
VERTEX
  8
0
 62
4
 10
-2.45700343E+01
 20
-1.14559185E+02
  0
VERTEX
  8
0
 62
4
 10
-2.48010643E+01
 20
-1.14694667E+02
  0
VERTEX
  8
0
 62
4
 10
-2.50183874E+01
 20
-1.14848168E+02
  0
VERTEX
  8
0
 62
4
 10
-2.52203496E+01
 20
-1.15018521E+02
  0
VERTEX
  8
0
 62
4
 10
-2.54054139E+01
 20
-1.15204428E+02
  0
VERTEX
  8
0
 62
4
 10
-2.55721717E+01
 20
-1.15404475E+02
  0
VERTEX
  8
0
 62
4
 10
-2.57193541E+01
 20
-1.15617139E+02
  0
VERTEX
  8
0
 62
4
 10
-2.58458408E+01
 20
-1.15840802E+02
  0
VERTEX
  8
0
 62
4
 10
-2.59506691E+01
 20
-1.16073762E+02
  0
VERTEX
  8
0
 62
4
 10
-2.60330414E+01
 20
-1.16314245E+02
  0
VERTEX
  8
0
 62
4
 10
-2.60923306E+01
 20
-1.16560422E+02
  0
VERTEX
  8
0
 62
4
 10
-2.61280857E+01
 20
-1.16810418E+02
  0
VERTEX
  8
0
 62
4
 10
-2.61400343E+01
 20
-1.17062332E+02
  0
VERTEX
  8
0
 62
4
 10
-2.61280857E+01
 20
-1.17314246E+02
  0
VERTEX
  8
0
 62
4
 10
-2.60923306E+01
 20
-1.17564242E+02
  0
VERTEX
  8
0
 62
4
 10
-2.60330414E+01
 20
-1.17810419E+02
  0
VERTEX
  8
0
 62
4
 10
-2.59506691E+01
 20
-1.18050902E+02
  0
VERTEX
  8
0
 62
4
 10
-2.58458407E+01
 20
-1.18283862E+02
  0
VERTEX
  8
0
 62
4
 10
-2.57193541E+01
 20
-1.18507525E+02
  0
VERTEX
  8
0
 62
4
 10
-2.55721717E+01
 20
-1.18720189E+02
  0
VERTEX
  8
0
 62
4
 10
-2.54054138E+01
 20
-1.18920236E+02
  0
VERTEX
  8
0
 62
4
 10
-2.52203496E+01
 20
-1.19106143E+02
  0
VERTEX
  8
0
 62
4
 10
-2.50183874E+01
 20
-1.19276496E+02
  0
VERTEX
  8
0
 62
4
 10
-2.48010643E+01
 20
-1.19429997E+02
  0
VERTEX
  8
0
 62
4
 10
-2.45700343E+01
 20
-1.19565479E+02
  0
VERTEX
  8
0
 62
4
 10
-2.43270556E+01
 20
-1.19681911E+02
  0
VERTEX
  8
0
 62
4
 10
-2.40739775E+01
 20
-1.19778406E+02
  0
VERTEX
  8
0
 62
4
 10
-2.38127261E+01
 20
-1.19854230E+02
  0
VERTEX
  8
0
 62
4
 10
-2.35452896E+01
 20
-1.19908806E+02
  0
VERTEX
  8
0
 62
4
 10
-2.32737033E+01
 20
-1.19941718E+02
  0
VERTEX
  8
0
 62
4
 10
-2.30000343E+01
 20
-1.19952717E+02
  0
VERTEX
  8
0
 62
4
 10
-2.27263653E+01
 20
-1.19941718E+02
  0
VERTEX
  8
0
 62
4
 10
-2.24547790E+01
 20
-1.19908806E+02
  0
VERTEX
  8
0
 62
4
 10
-2.21873425E+01
 20
-1.19854230E+02
  0
VERTEX
  8
0
 62
4
 10
-2.19260910E+01
 20
-1.19778406E+02
  0
VERTEX
  8
0
 62
4
 10
-2.16730130E+01
 20
-1.19681911E+02
  0
VERTEX
  8
0
 62
4
 10
-2.14300343E+01
 20
-1.19565479E+02
  0
VERTEX
  8
0
 62
4
 10
-2.11990043E+01
 20
-1.19429997E+02
  0
VERTEX
  8
0
 62
4
 10
-2.09816812E+01
 20
-1.19276496E+02
  0
VERTEX
  8
0
 62
4
 10
-2.07797190E+01
 20
-1.19106143E+02
  0
VERTEX
  8
0
 62
4
 10
-2.05946547E+01
 20
-1.18920236E+02
  0
VERTEX
  8
0
 62
4
 10
-2.04278969E+01
 20
-1.18720189E+02
  0
VERTEX
  8
0
 62
4
 10
-2.02807145E+01
 20
-1.18507525E+02
  0
VERTEX
  8
0
 62
4
 10
-2.01542278E+01
 20
-1.18283862E+02
  0
VERTEX
  8
0
 62
4
 10
-2.00493995E+01
 20
-1.18050902E+02
  0
VERTEX
  8
0
 62
4
 10
-1.99670272E+01
 20
-1.17810419E+02
  0
VERTEX
  8
0
 62
4
 10
-1.99077380E+01
 20
-1.17564242E+02
  0
VERTEX
  8
0
 62
4
 10
-1.98719829E+01
 20
-1.17314246E+02
  0
VERTEX
  8
0
 62
4
 10
-1.98600343E+01
 20
-1.17062332E+02
  0
SEQEND
  8
0
  0
POLYLINE
  8
0
 62
4
 66
1
  0
VERTEX
  8
0
 62
4
 10
-2.47554552E+01
 20
-1.14665818E+02
  0
VERTEX
  8
0
 62
4
 10
-2.50167383E+01
 20
-1.14819887E+02
  0
VERTEX
  8
0
 62
4
 10
-2.52621704E+01
 20
-1.14994653E+02
  0
VERTEX
  8
0
 62
4
 10
-2.54898225E+01
 20
-1.15188742E+02
  0
VERTEX
  8
0
 62
4
 10
-2.56979052E+01
 20
-1.15400628E+02
  0
VERTEX
  8
0
 62
4
 10
-2.58847830E+01
 20
-1.15628645E+02
  0
VERTEX
  8
0
 62
4
 10
-2.60489871E+01
 20
-1.15871003E+02
  0
VERTEX
  8
0
 62
4
 10
-2.61892268E+01
 20
-1.16125795E+02
  0
VERTEX
  8
0
 62
4
 10
-2.63044000E+01
 20
-1.16391019E+02
  0
VERTEX
  8
0
 62
4
 10
-2.63936013E+01
 20
-1.16664591E+02
  0
VERTEX
  8
0
 62
4
 10
-2.64561296E+01
 20
-1.16944360E+02
  0
VERTEX
  8
0
 62
4
 10
-2.64914935E+01
 20
-1.17228127E+02
  0
VERTEX
  8
0
 62
4
 10
-2.64994151E+01
 20
-1.17513663E+02
  0
VERTEX
  8
0
 62
4
 10
-2.64798320E+01
 20
-1.17798722E+02
  0
VERTEX
  8
0
 62
4
 10
-2.64328982E+01
 20
-1.18081064E+02
  0
VERTEX
  8
0
 62
4
 10
-2.63589826E+01
 20
-1.18358470E+02
  0
VERTEX
  8
0
 62
4
 10
-2.62586661E+01
 20
-1.18628760E+02
  0
VERTEX
  8
0
 62
4
 10
-2.61327373E+01
 20
-1.18889809E+02
  0
VERTEX
  8
0
 62
4
 10
-2.59821858E+01
 20
-1.19139566E+02
  0
VERTEX
  8
0
 62
4
 10
-2.58081951E+01
 20
-1.19376066E+02
  0
VERTEX
  8
0
 62
4
 10
-2.56121326E+01
 20
-1.19597453E+02
  0
VERTEX
  8
0
 62
4
 10
-2.53955394E+01
 20
-1.19801984E+02
  0
VERTEX
  8
0
 62
4
 10
-2.51601179E+01
 20
-1.19988054E+02
  0
VERTEX
  8
0
 62
4
 10
-2.49077184E+01
 20
-1.20154198E+02
  0
VERTEX
  8
0
 62
4
 10
-2.46403248E+01
 20
-1.20299113E+02
  0
VERTEX
  8
0
 62
4
 10
-2.43600387E+01
 20
-1.20421657E+02
  0
VERTEX
  8
0
 62
4
 10
-2.40690632E+01
 20
-1.20520869E+02
  0
VERTEX
  8
0
 62
4
 10
-2.37696853E+01
 20
-1.20595969E+02
  0
VERTEX
  8
0
 62
4
 10
-2.34642580E+01
 20
-1.20646365E+02
  0
VERTEX
  8
0
 62
4
 10
-2.31551820E+01
 20
-1.20671663E+02
  0
VERTEX
  8
0
 62
4
 10
-2.28448866E+01
 20
-1.20671663E+02
  0
VERTEX
  8
0
 62
4
 10
-2.25358106E+01
 20
-1.20646365E+02
  0
VERTEX
  8
0
 62
4
 10
-2.22303833E+01
 20
-1.20595969E+02
  0
VERTEX
  8
0
 62
4
 10
-2.19310054E+01
 20
-1.20520869E+02
  0
VERTEX
  8
0
 62
4
 10
-2.16400299E+01
 20
-1.20421657E+02
  0
VERTEX
  8
0
 62
4
 10
-2.13597438E+01
 20
-1.20299113E+02
  0
VERTEX
  8
0
 62
4
 10
-2.10923502E+01
 20
-1.20154198E+02
  0
VERTEX
  8
0
 62
4
 10
-2.08399507E+01
 20
-1.19988054E+02
  0
VERTEX
  8
0
 62
4
 10
-2.06045292E+01
 20
-1.19801984E+02
  0
VERTEX
  8
0
 62
4
 10
-2.03879360E+01
 20
-1.19597453E+02
  0
VERTEX
  8
0
 62
4
 10
-2.01918735E+01
 20
-1.19376066E+02
  0
VERTEX
  8
0
 62
4
 10
-2.00178828E+01
 20
-1.19139566E+02
  0
VERTEX
  8
0
 62
4
 10
-1.98673313E+01
 20
-1.18889809E+02
  0
VERTEX
  8
0
 62
4
 10
-1.97414025E+01
 20
-1.18628760E+02
  0
VERTEX
  8
0
 62
4
 10
-1.96410860E+01
 20
-1.18358470E+02
  0
VERTEX
  8
0
 62
4
 10
-1.95671704E+01
 20
-1.18081064E+02
  0
VERTEX
  8
0
 62
4
 10
-1.95202366E+01
 20
-1.17798722E+02
  0
VERTEX
  8
0
 62
4
 10
-1.95006535E+01
 20
-1.17513663E+02
  0
VERTEX
  8
0
 62
4
 10
-1.95085751E+01
 20
-1.17228127E+02
  0
VERTEX
  8
0
 62
4
 10
-1.95439390E+01
 20
-1.16944360E+02
  0
VERTEX
  8
0
 62
4
 10
-1.96064673E+01
 20
-1.16664591E+02
  0
VERTEX
  8
0
 62
4
 10
-1.96956686E+01
 20
-1.16391019E+02
  0
VERTEX
  8
0
 62
4
 10
-1.98108418E+01
 20
-1.16125795E+02
  0
VERTEX
  8
0
 62
4
 10
-1.99510815E+01
 20
-1.15871003E+02
  0
VERTEX
  8
0
 62
4
 10
-2.01152856E+01
 20
-1.15628645E+02
  0
VERTEX
  8
0
 62
4
 10
-2.03021634E+01
 20
-1.15400628E+02
  0
VERTEX
  8
0
 62
4
 10
-2.05102461E+01
 20
-1.15188742E+02
  0
VERTEX
  8
0
 62
4
 10
-2.07378982E+01
 20
-1.14994653E+02
  0
VERTEX
  8
0
 62
4
 10
-2.09833303E+01
 20
-1.14819887E+02
  0
VERTEX
  8
0
 62
4
 10
-2.12446134E+01
 20
-1.14665818E+02
  0
SEQEND
  8
0
  0
POLYLINE
  8
0
 62
4
 66
1
  0
VERTEX
  8
0
 62
4
 10
-3.56000343E+01
 20
-1.33785592E+02
  0
VERTEX
  8
0
 62
4
 10
-3.56129723E+01
 20
-1.33643376E+02
  0
VERTEX
  8
0
 62
4
 10
-3.56516879E+01
 20
-1.33502241E+02
  0
VERTEX
  8
0
 62
4
 10
-3.57158865E+01
 20
-1.33363264E+02
  0
VERTEX
  8
0
 62
4
 10
-3.58050794E+01
 20
-1.33227500E+02
  0
VERTEX
  8
0
 62
4
 10
-3.59185878E+01
 20
-1.33095984E+02
  0
VERTEX
  8
0
 62
4
 10
-3.60555479E+01
 20
-1.32969717E+02
  0
VERTEX
  8
0
 62
4
 10
-3.62149173E+01
 20
-1.32849658E+02
  0
VERTEX
  8
0
 62
4
 10
-3.63954832E+01
 20
-1.32736723E+02
  0
VERTEX
  8
0
 62
4
 10
-3.65958712E+01
 20
-1.32631770E+02
  0
VERTEX
  8
0
 62
4
 10
-3.68145564E+01
 20
-1.32535598E+02
  0
VERTEX
  8
0
 62
4
 10
-3.70498744E+01
 20
-1.32448940E+02
  0
VERTEX
  8
0
 62
4
 10
-3.73000343E+01
 20
-1.32372454E+02
  0
VERTEX
  8
0
 62
4
 10
-3.75631322E+01
 20
-1.32306724E+02
  0
VERTEX
  8
0
 62
4
 10
-3.78371658E+01
 20
-1.32252248E+02
  0
VERTEX
  8
0
 62
4
 10
-3.81200495E+01
 20
-1.32209442E+02
  0
VERTEX
  8
0
 62
4
 10
-3.84096305E+01
 20
-1.32178631E+02
  0
VERTEX
  8
0
 62
4
 10
-3.87037048E+01
 20
-1.32160050E+02
  0
VERTEX
  8
0
 62
4
 10
-3.90000343E+01
 20
-1.32153841E+02
  0
VERTEX
  8
0
 62
4
 10
-3.92963638E+01
 20
-1.32160050E+02
  0
VERTEX
  8
0
 62
4
 10
-3.95904381E+01
 20
-1.32178631E+02
  0
VERTEX
  8
0
 62
4
 10
-3.98800191E+01
 20
-1.32209442E+02
  0
VERTEX
  8
0
 62
4
 10
-4.01629028E+01
 20
-1.32252248E+02
  0
VERTEX
  8
0
 62
4
 10
-4.04369364E+01
 20
-1.32306724E+02
  0
VERTEX
  8
0
 62
4
 10
-4.07000343E+01
 20
-1.32372454E+02
  0
VERTEX
  8
0
 62
4
 10
-4.09501942E+01
 20
-1.32448940E+02
  0
VERTEX
  8
0
 62
4
 10
-4.11855122E+01
 20
-1.32535598E+02
  0
VERTEX
  8
0
 62
4
 10
-4.14041974E+01
 20
-1.32631770E+02
  0
VERTEX
  8
0
 62
4
 10
-4.16045854E+01
 20
-1.32736723E+02
  0
VERTEX
  8
0
 62
4
 10
-4.17851513E+01
 20
-1.32849658E+02
  0
VERTEX
  8
0
 62
4
 10
-4.19445207E+01
 20
-1.32969717E+02
  0
VERTEX
  8
0
 62
4
 10
-4.20814808E+01
 20
-1.33095984E+02
  0
VERTEX
  8
0
 62
4
 10
-4.21949892E+01
 20
-1.33227500E+02
  0
VERTEX
  8
0
 62
4
 10
-4.22841821E+01
 20
-1.33363264E+02
  0
VERTEX
  8
0
 62
4
 10
-4.23483807E+01
 20
-1.33502241E+02
  0
VERTEX
  8
0
 62
4
 10
-4.23870963E+01
 20
-1.33643376E+02
  0
VERTEX
  8
0
 62
4
 10
-4.24000343E+01
 20
-1.33785592E+02
  0
VERTEX
  8
0
 62
4
 10
-4.23870963E+01
 20
-1.33927808E+02
  0
VERTEX
  8
0
 62
4
 10
-4.23483807E+01
 20
-1.34068943E+02
  0
VERTEX
  8
0
 62
4
 10
-4.22841821E+01
 20
-1.34207920E+02
  0
VERTEX
  8
0
 62
4
 10
-4.21949892E+01
 20
-1.34343684E+02
  0
VERTEX
  8
0
 62
4
 10
-4.20814808E+01
 20
-1.34475200E+02
  0
VERTEX
  8
0
 62
4
 10
-4.19445207E+01
 20
-1.34601467E+02
  0
VERTEX
  8
0
 62
4
 10
-4.17851512E+01
 20
-1.34721526E+02
  0
VERTEX
  8
0
 62
4
 10
-4.16045854E+01
 20
-1.34834461E+02
  0
VERTEX
  8
0
 62
4
 10
-4.14041974E+01
 20
-1.34939414E+02
  0
VERTEX
  8
0
 62
4
 10
-4.11855122E+01
 20
-1.35035586E+02
  0
VERTEX
  8
0
 62
4
 10
-4.09501942E+01
 20
-1.35122244E+02
  0
VERTEX
  8
0
 62
4
 10
-4.07000343E+01
 20
-1.35198730E+02
  0
VERTEX
  8
0
 62
4
 10
-4.04369364E+01
 20
-1.35264460E+02
  0
VERTEX
  8
0
 62
4
 10
-4.01629028E+01
 20
-1.35318936E+02
  0
VERTEX
  8
0
 62
4
 10
-3.98800190E+01
 20
-1.35361742E+02
  0
VERTEX
  8
0
 62
4
 10
-3.95904381E+01
 20
-1.35392553E+02
  0
VERTEX
  8
0
 62
4
 10
-3.92963638E+01
 20
-1.35411134E+02
  0
VERTEX
  8
0
 62
4
 10
-3.90000343E+01
 20
-1.35417343E+02
  0
VERTEX
  8
0
 62
4
 10
-3.87037048E+01
 20
-1.35411134E+02
  0
VERTEX
  8
0
 62
4
 10
-3.84096305E+01
 20
-1.35392553E+02
  0
VERTEX
  8
0
 62
4
 10
-3.81200495E+01
 20
-1.35361742E+02
  0
VERTEX
  8
0
 62
4
 10
-3.78371658E+01
 20
-1.35318936E+02
  0
VERTEX
  8
0
 62
4
 10
-3.75631322E+01
 20
-1.35264460E+02
  0
VERTEX
  8
0
 62
4
 10
-3.73000343E+01
 20
-1.35198730E+02
  0
VERTEX
  8
0
 62
4
 10
-3.70498744E+01
 20
-1.35122244E+02
  0
VERTEX
  8
0
 62
4
 10
-3.68145564E+01
 20
-1.35035586E+02
  0
VERTEX
  8
0
 62
4
 10
-3.65958712E+01
 20
-1.34939414E+02
  0
VERTEX
  8
0
 62
4
 10
-3.63954832E+01
 20
-1.34834461E+02
  0
VERTEX
  8
0
 62
4
 10
-3.62149173E+01
 20
-1.34721526E+02
  0
VERTEX
  8
0
 62
4
 10
-3.60555479E+01
 20
-1.34601467E+02
  0
VERTEX
  8
0
 62
4
 10
-3.59185878E+01
 20
-1.34475200E+02
  0
VERTEX
  8
0
 62
4
 10
-3.58050794E+01
 20
-1.34343684E+02
  0
VERTEX
  8
0
 62
4
 10
-3.57158865E+01
 20
-1.34207920E+02
  0
VERTEX
  8
0
 62
4
 10
-3.56516879E+01
 20
-1.34068943E+02
  0
VERTEX
  8
0
 62
4
 10
-3.56129723E+01
 20
-1.33927808E+02
  0
VERTEX
  8
0
 62
4
 10
-3.56000343E+01
 20
-1.33785592E+02
  0
SEQEND
  8
0
  0
LINE
  8
0
  6
CENTER
 62
6
 10
-2.91664286E+01
 20
-1.17062332E+02
 11
-1.68336401E+01
 21
-1.17062332E+02
  0
LINE
  8
0
  6
CENTER
 62
6
 10
-2.30000343E+01
 20
-1.10895938E+02
 11
-2.30000343E+01
 21
-1.23228727E+02
  0
LINE
  8
0
 62
4
 10
-3.58177255E+01
 20
-1.34360085E+02
 11
-1.35000310E+01
 21
-1.34360085E+02
  0
LINE
  8
0
 62
4
 10
-4.95000339E+01
 20
-1.34360085E+02
 11
-4.21823432E+01
 21
-1.34360085E+02
  0
ARC
  8
0
 62
4
 10
-3.47644393E+01
 20
-1.23224838E+02
 40
1.21769740E+01
 50
2.40462101E+02
 51
2.58262147E+02
  0
ARC
  8
0
 62
4
 10
-4.32356293E+01
 20
-1.23224838E+02
 40
1.21769740E+01
 50
2.81737853E+02
 51
2.99537899E+02
  0
POLYLINE
  8
0
 62
4
 66
1
  0
VERTEX
  8
0
 62
4
 10
-3.56000343E+01
 20
-1.31889854E+02
  0
VERTEX
  8
0
 62
4
 10
-3.56137217E+01
 20
-1.31770769E+02
  0
VERTEX
  8
0
 62
4
 10
-3.56546737E+01
 20
-1.31652644E+02
  0
VERTEX
  8
0
 62
4
 10
-3.57225606E+01
 20
-1.31536428E+02
  0
VERTEX
  8
0
 62
4
 10
-3.58168357E+01
 20
-1.31423058E+02
  0
VERTEX
  8
0
 62
4
 10
-3.59367401E+01
 20
-1.31313446E+02
  0
VERTEX
  8
0
 62
4
 10
-3.60813084E+01
 20
-1.31208475E+02
  0
VERTEX
  8
0
 62
4
 10
-3.62493765E+01
 20
-1.31108990E+02
  0
VERTEX
  8
0
 62
4
 10
-3.64395913E+01
 20
-1.31015792E+02
  0
VERTEX
  8
0
 62
4
 10
-3.66504213E+01
 20
-1.30929631E+02
  0
VERTEX
  8
0
 62
4
 10
-3.68801690E+01
 20
-1.30851202E+02
  0
VERTEX
  8
0
 62
4
 10
-3.71269846E+01
 20
-1.30781135E+02
  0
VERTEX
  8
0
 62
4
 10
-3.73888808E+01
 20
-1.30719995E+02
  0
VERTEX
  8
0
 62
4
 10
-3.76637492E+01
 20
-1.30668274E+02
  0
VERTEX
  8
0
 62
4
 10
-3.79493765E+01
 20
-1.30626389E+02
  0
VERTEX
  8
0
 62
4
 10
-3.82434631E+01
 20
-1.30594676E+02
  0
VERTEX
  8
0
 62
4
 10
-3.85436412E+01
 20
-1.30573391E+02
  0
VERTEX
  8
0
 62
4
 10
-3.88474939E+01
 20
-1.30562706E+02
  0
VERTEX
  8
0
 62
4
 10
-3.91525747E+01
 20
-1.30562706E+02
  0
VERTEX
  8
0
 62
4
 10
-3.94564274E+01
 20
-1.30573391E+02
  0
VERTEX
  8
0
 62
4
 10
-3.97566055E+01
 20
-1.30594676E+02
  0
VERTEX
  8
0
 62
4
 10
-4.00506921E+01
 20
-1.30626389E+02
  0
VERTEX
  8
0
 62
4
 10
-4.03363194E+01
 20
-1.30668274E+02
  0
VERTEX
  8
0
 62
4
 10
-4.06111877E+01
 20
-1.30719995E+02
  0
VERTEX
  8
0
 62
4
 10
-4.08730840E+01
 20
-1.30781135E+02
  0
VERTEX
  8
0
 62
4
 10
-4.11198996E+01
 20
-1.30851202E+02
  0
VERTEX
  8
0
 62
4
 10
-4.13496473E+01
 20
-1.30929631E+02
  0
VERTEX
  8
0
 62
4
 10
-4.15604773E+01
 20
-1.31015792E+02
  0
VERTEX
  8
0
 62
4
 10
-4.17506921E+01
 20
-1.31108990E+02
  0
VERTEX
  8
0
 62
4
 10
-4.19187602E+01
 20
-1.31208475E+02
  0
VERTEX
  8
0
 62
4
 10
-4.20633284E+01
 20
-1.31313446E+02
  0
VERTEX
  8
0
 62
4
 10
-4.21832329E+01
 20
-1.31423058E+02
  0
VERTEX
  8
0
 62
4
 10
-4.22775080E+01
 20
-1.31536428E+02
  0
VERTEX
  8
0
 62
4
 10
-4.23453949E+01
 20
-1.31652644E+02
  0
VERTEX
  8
0
 62
4
 10
-4.23863469E+01
 20
-1.31770769E+02
  0
VERTEX
  8
0
 62
4
 10
-4.24000343E+01
 20
-1.31889854E+02
  0
SEQEND
  8
0
  0
LINE
  8
0
 62
4
 10
-4.30000343E+01
 20
-1.31429601E+02
 11
-4.30000343E+01
 21
-1.31889854E+02
  0
LINE
  8
0
 62
4
 10
-3.50000343E+01
 20
-1.31429601E+02
 11
-3.50000343E+01
 21
-1.31889854E+02
  0
POLYLINE
  8
0
 62
4
 66
1
  0
VERTEX
  8
0
 62
4
 10
-3.56000343E+01
 20
-1.32713176E+02
  0
VERTEX
  8
0
 62
4
 10
-3.54269823E+01
 20
-1.32592442E+02
  0
VERTEX
  8
0
 62
4
 10
-3.52819393E+01
 20
-1.32466202E+02
  0
VERTEX
  8
0
 62
4
 10
-3.51660425E+01
 20
-1.32335443E+02
  0
VERTEX
  8
0
 62
4
 10
-3.50802002E+01
 20
-1.32201191E+02
  0
VERTEX
  8
0
 62
4
 10
-3.50250854E+01
 20
-1.32064499E+02
  0
VERTEX
  8
0
 62
4
 10
-3.50011302E+01
 20
-1.31926437E+02
  0
VERTEX
  8
0
 62
4
 10
-3.50085224E+01
 20
-1.31788089E+02
  0
VERTEX
  8
0
 62
4
 10
-3.50472039E+01
 20
-1.31650539E+02
  0
VERTEX
  8
0
 62
4
 10
-3.51168716E+01
 20
-1.31514865E+02
  0
VERTEX
  8
0
 62
4
 10
-3.52169793E+01
 20
-1.31382130E+02
  0
VERTEX
  8
0
 62
4
 10
-3.53467424E+01
 20
-1.31253375E+02
  0
VERTEX
  8
0
 62
4
 10
-3.55051435E+01
 20
-1.31129609E+02
  0
VERTEX
  8
0
 62
4
 10
-3.56909410E+01
 20
-1.31011804E+02
  0
VERTEX
  8
0
 62
4
 10
-3.59026785E+01
 20
-1.30900881E+02
  0
VERTEX
  8
0
 62
4
 10
-3.61386961E+01
 20
-1.30797710E+02
  0
VERTEX
  8
0
 62
4
 10
-3.63971436E+01
 20
-1.30703101E+02
  0
VERTEX
  8
0
 62
4
 10
-3.66759952E+01
 20
-1.30617795E+02
  0
VERTEX
  8
0
 62
4
 10
-3.69730648E+01
 20
-1.30542461E+02
  0
VERTEX
  8
0
 62
4
 10
-3.72860239E+01
 20
-1.30477688E+02
  0
VERTEX
  8
0
 62
4
 10
-3.76124190E+01
 20
-1.30423986E+02
  0
VERTEX
  8
0
 62
4
 10
-3.79496917E+01
 20
-1.30381775E+02
  0
VERTEX
  8
0
 62
4
 10
-3.82951979E+01
 20
-1.30351385E+02
  0
VERTEX
  8
0
 62
4
 10
-3.86462294E+01
 20
-1.30333055E+02
  0
VERTEX
  8
0
 62
4
 10
-3.90000343E+01
 20
-1.30326929E+02
  0
VERTEX
  8
0
 62
4
 10
-3.93538392E+01
 20
-1.30333055E+02
  0
VERTEX
  8
0
 62
4
 10
-3.97048707E+01
 20
-1.30351385E+02
  0
VERTEX
  8
0
 62
4
 10
-4.00503769E+01
 20
-1.30381775E+02
  0
VERTEX
  8
0
 62
4
 10
-4.03876495E+01
 20
-1.30423986E+02
  0
VERTEX
  8
0
 62
4
 10
-4.07140447E+01
 20
-1.30477688E+02
  0
VERTEX
  8
0
 62
4
 10
-4.10270037E+01
 20
-1.30542461E+02
  0
VERTEX
  8
0
 62
4
 10
-4.13240734E+01
 20
-1.30617795E+02
  0
VERTEX
  8
0
 62
4
 10
-4.16029250E+01
 20
-1.30703101E+02
  0
VERTEX
  8
0
 62
4
 10
-4.18613725E+01
 20
-1.30797710E+02
  0
VERTEX
  8
0
 62
4
 10
-4.20973901E+01
 20
-1.30900881E+02
  0
VERTEX
  8
0
 62
4
 10
-4.23091275E+01
 20
-1.31011804E+02
  0
VERTEX
  8
0
 62
4
 10
-4.24949251E+01
 20
-1.31129609E+02
  0
VERTEX
  8
0
 62
4
 10
-4.26533262E+01
 20
-1.31253375E+02
  0
VERTEX
  8
0
 62
4
 10
-4.27830893E+01
 20
-1.31382130E+02
  0
VERTEX
  8
0
 62
4
 10
-4.28831970E+01
 20
-1.31514865E+02
  0
VERTEX
  8
0
 62
4
 10
-4.29528647E+01
 20
-1.31650539E+02
  0
VERTEX
  8
0
 62
4
 10
-4.29915462E+01
 20
-1.31788089E+02
  0
VERTEX
  8
0
 62
4
 10
-4.29989384E+01
 20
-1.31926437E+02
  0
VERTEX
  8
0
 62
4
 10
-4.29749832E+01
 20
-1.32064499E+02
  0
VERTEX
  8
0
 62
4
 10
-4.29198684E+01
 20
-1.32201191E+02
  0
VERTEX
  8
0
 62
4
 10
-4.28340261E+01
 20
-1.32335443E+02
  0
VERTEX
  8
0
 62
4
 10
-4.27181293E+01
 20
-1.32466202E+02
  0
VERTEX
  8
0
 62
4
 10
-4.25730863E+01
 20
-1.32592442E+02
  0
VERTEX
  8
0
 62
4
 10
-4.24000343E+01
 20
-1.32713176E+02
  0
SEQEND
  8
0
  0
POLYLINE
  8
0
 62
4
 66
1
  0
VERTEX
  8
0
 62
4
 10
-3.50000343E+01
 20
-1.31429601E+02
  0
VERTEX
  8
0
 62
4
 10
-3.50161371E+01
 20
-1.31289502E+02
  0
VERTEX
  8
0
 62
4
 10
-3.50643159E+01
 20
-1.31150530E+02
  0
VERTEX
  8
0
 62
4
 10
-3.51441829E+01
 20
-1.31013805E+02
  0
VERTEX
  8
0
 62
4
 10
-3.52550948E+01
 20
-1.30880429E+02
  0
VERTEX
  8
0
 62
4
 10
-3.53961588E+01
 20
-1.30751473E+02
  0
VERTEX
  8
0
 62
4
 10
-3.55662391E+01
 20
-1.30627978E+02
  0
VERTEX
  8
0
 62
4
 10
-3.57639663E+01
 20
-1.30510937E+02
  0
VERTEX
  8
0
 62
4
 10
-3.59877484E+01
 20
-1.30401292E+02
  0
VERTEX
  8
0
 62
4
 10
-3.62357837E+01
 20
-1.30299927E+02
  0
VERTEX
  8
0
 62
4
 10
-3.65060751E+01
 20
-1.30207657E+02
  0
VERTEX
  8
0
 62
4
 10
-3.67964464E+01
 20
-1.30125226E+02
  0
VERTEX
  8
0
 62
4
 10
-3.71045596E+01
 20
-1.30053297E+02
  0
VERTEX
  8
0
 62
4
 10
-3.74279342E+01
 20
-1.29992449E+02
  0
VERTEX
  8
0
 62
4
 10
-3.77639663E+01
 20
-1.29943171E+02
  0
VERTEX
  8
0
 62
4
 10
-3.81099506E+01
 20
-1.29905862E+02
  0
VERTEX
  8
0
 62
4
 10
-3.84631012E+01
 20
-1.29880821E+02
  0
VERTEX
  8
0
 62
4
 10
-3.88205750E+01
 20
-1.29868250E+02
  0
VERTEX
  8
0
 62
4
 10
-3.91794936E+01
 20
-1.29868250E+02
  0
VERTEX
  8
0
 62
4
 10
-3.95369674E+01
 20
-1.29880821E+02
  0
VERTEX
  8
0
 62
4
 10
-3.98901180E+01
 20
-1.29905862E+02
  0
VERTEX
  8
0
 62
4
 10
-4.02361023E+01
 20
-1.29943171E+02
  0
VERTEX
  8
0
 62
4
 10
-4.05721344E+01
 20
-1.29992449E+02
  0
VERTEX
  8
0
 62
4
 10
-4.08955089E+01
 20
-1.30053297E+02
  0
VERTEX
  8
0
 62
4
 10
-4.12036222E+01
 20
-1.30125226E+02
  0
VERTEX
  8
0
 62
4
 10
-4.14939935E+01
 20
-1.30207657E+02
  0
VERTEX
  8
0
 62
4
 10
-4.17642849E+01
 20
-1.30299927E+02
  0
VERTEX
  8
0
 62
4
 10
-4.20123202E+01
 20
-1.30401292E+02
  0
VERTEX
  8
0
 62
4
 10
-4.22361023E+01
 20
-1.30510937E+02
  0
VERTEX
  8
0
 62
4
 10
-4.24338295E+01
 20
-1.30627978E+02
  0
VERTEX
  8
0
 62
4
 10
-4.26039098E+01
 20
-1.30751473E+02
  0
VERTEX
  8
0
 62
4
 10
-4.27449738E+01
 20
-1.30880429E+02
  0
VERTEX
  8
0
 62
4
 10
-4.28558857E+01
 20
-1.31013805E+02
  0
VERTEX
  8
0
 62
4
 10
-4.29357527E+01
 20
-1.31150530E+02
  0
VERTEX
  8
0
 62
4
 10
-4.29839315E+01
 20
-1.31289502E+02
  0
VERTEX
  8
0
 62
4
 10
-4.30000343E+01
 20
-1.31429601E+02
  0
SEQEND
  8
0
  0
POLYLINE
  8
0
 62
4
 66
1
  0
VERTEX
  8
0
 62
4
 10
-3.60000343E+01
 20
-1.06121857E+02
  0
VERTEX
  8
0
 62
4
 10
-3.60114502E+01
 20
-1.05881175E+02
  0
VERTEX
  8
0
 62
4
 10
-3.60456110E+01
 20
-1.05642325E+02
  0
VERTEX
  8
0
 62
4
 10
-3.61022568E+01
 20
-1.05407124E+02
  0
VERTEX
  8
0
 62
4
 10
-3.61809564E+01
 20
-1.05177363E+02
  0
VERTEX
  8
0
 62
4
 10
-3.62811109E+01
 20
-1.04954791E+02
  0
VERTEX
  8
0
 62
4
 10
-3.64019581E+01
 20
-1.04741100E+02
  0
VERTEX
  8
0
 62
4
 10
-3.65425782E+01
 20
-1.04537917E+02
  0
VERTEX
  8
0
 62
4
 10
-3.67019010E+01
 20
-1.04346790E+02
  0
VERTEX
  8
0
 62
4
 10
-3.68787140E+01
 20
-1.04169171E+02
  0
VERTEX
  8
0
 62
4
 10
-3.70716715E+01
 20
-1.04006414E+02
  0
VERTEX
  8
0
 62
4
 10
-3.72793050E+01
 20
-1.03859757E+02
  0
VERTEX
  8
0
 62
4
 10
-3.75000343E+01
 20
-1.03730315E+02
  0
VERTEX
  8
0
 62
4
 10
-3.77321795E+01
 20
-1.03619075E+02
  0
VERTEX
  8
0
 62
4
 10
-3.79739739E+01
 20
-1.03526882E+02
  0
VERTEX
  8
0
 62
4
 10
-3.82235772E+01
 20
-1.03454439E+02
  0
VERTEX
  8
0
 62
4
 10
-3.84790898E+01
 20
-1.03402296E+02
  0
VERTEX
  8
0
 62
4
 10
-3.87385671E+01
 20
-1.03370851E+02
  0
VERTEX
  8
0
 62
4
 10
-3.90000343E+01
 20
-1.03360342E+02
  0
VERTEX
  8
0
 62
4
 10
-3.92615015E+01
 20
-1.03370851E+02
  0
VERTEX
  8
0
 62
4
 10
-3.95209788E+01
 20
-1.03402296E+02
  0
VERTEX
  8
0
 62
4
 10
-3.97764914E+01
 20
-1.03454439E+02
  0
VERTEX
  8
0
 62
4
 10
-4.00260947E+01
 20
-1.03526882E+02
  0
VERTEX
  8
0
 62
4
 10
-4.02678891E+01
 20
-1.03619075E+02
  0
VERTEX
  8
0
 62
4
 10
-4.05000343E+01
 20
-1.03730315E+02
  0
VERTEX
  8
0
 62
4
 10
-4.07207636E+01
 20
-1.03859757E+02
  0
VERTEX
  8
0
 62
4
 10
-4.09283971E+01
 20
-1.04006414E+02
  0
VERTEX
  8
0
 62
4
 10
-4.11213546E+01
 20
-1.04169171E+02
  0
VERTEX
  8
0
 62
4
 10
-4.12981676E+01
 20
-1.04346790E+02
  0
VERTEX
  8
0
 62
4
 10
-4.14574904E+01
 20
-1.04537917E+02
  0
VERTEX
  8
0
 62
4
 10
-4.15981105E+01
 20
-1.04741100E+02
  0
VERTEX
  8
0
 62
4
 10
-4.17189577E+01
 20
-1.04954791E+02
  0
VERTEX
  8
0
 62
4
 10
-4.18191122E+01
 20
-1.05177363E+02
  0
VERTEX
  8
0
 62
4
 10
-4.18978118E+01
 20
-1.05407124E+02
  0
VERTEX
  8
0
 62
4
 10
-4.19544576E+01
 20
-1.05642325E+02
  0
VERTEX
  8
0
 62
4
 10
-4.19886184E+01
 20
-1.05881175E+02
  0
VERTEX
  8
0
 62
4
 10
-4.20000343E+01
 20
-1.06121857E+02
  0
VERTEX
  8
0
 62
4
 10
-4.19886184E+01
 20
-1.06362539E+02
  0
VERTEX
  8
0
 62
4
 10
-4.19544576E+01
 20
-1.06601389E+02
  0
VERTEX
  8
0
 62
4
 10
-4.18978118E+01
 20
-1.06836590E+02
  0
VERTEX
  8
0
 62
4
 10
-4.18191122E+01
 20
-1.07066351E+02
  0
VERTEX
  8
0
 62
4
 10
-4.17189577E+01
 20
-1.07288923E+02
  0
VERTEX
  8
0
 62
4
 10
-4.15981105E+01
 20
-1.07502614E+02
  0
VERTEX
  8
0
 62
4
 10
-4.14574904E+01
 20
-1.07705797E+02
  0
VERTEX
  8
0
 62
4
 10
-4.12981676E+01
 20
-1.07896924E+02
  0
VERTEX
  8
0
 62
4
 10
-4.11213546E+01
 20
-1.08074543E+02
  0
VERTEX
  8
0
 62
4
 10
-4.09283971E+01
 20
-1.08237300E+02
  0
VERTEX
  8
0
 62
4
 10
-4.07207636E+01
 20
-1.08383957E+02
  0
VERTEX
  8
0
 62
4
 10
-4.05000343E+01
 20
-1.08513399E+02
  0
VERTEX
  8
0
 62
4
 10
-4.02678891E+01
 20
-1.08624639E+02
  0
VERTEX
  8
0
 62
4
 10
-4.00260947E+01
 20
-1.08716832E+02
  0
VERTEX
  8
0
 62
4
 10
-3.97764914E+01
 20
-1.08789275E+02
  0
VERTEX
  8
0
 62
4
 10
-3.95209788E+01
 20
-1.08841418E+02
  0
VERTEX
  8
0
 62
4
 10
-3.92615015E+01
 20
-1.08872863E+02
  0
VERTEX
  8
0
 62
4
 10
-3.90000343E+01
 20
-1.08883372E+02
  0
VERTEX
  8
0
 62
4
 10
-3.87385671E+01
 20
-1.08872863E+02
  0
VERTEX
  8
0
 62
4
 10
-3.84790898E+01
 20
-1.08841418E+02
  0
VERTEX
  8
0
 62
4
 10
-3.82235772E+01
 20
-1.08789275E+02
  0
VERTEX
  8
0
 62
4
 10
-3.79739739E+01
 20
-1.08716832E+02
  0
VERTEX
  8
0
 62
4
 10
-3.77321795E+01
 20
-1.08624639E+02
  0
VERTEX
  8
0
 62
4
 10
-3.75000343E+01
 20
-1.08513399E+02
  0
VERTEX
  8
0
 62
4
 10
-3.72793050E+01
 20
-1.08383957E+02
  0
VERTEX
  8
0
 62
4
 10
-3.70716715E+01
 20
-1.08237300E+02
  0
VERTEX
  8
0
 62
4
 10
-3.68787140E+01
 20
-1.08074543E+02
  0
VERTEX
  8
0
 62
4
 10
-3.67019010E+01
 20
-1.07896924E+02
  0
VERTEX
  8
0
 62
4
 10
-3.65425782E+01
 20
-1.07705797E+02
  0
VERTEX
  8
0
 62
4
 10
-3.64019581E+01
 20
-1.07502614E+02
  0
VERTEX
  8
0
 62
4
 10
-3.62811109E+01
 20
-1.07288923E+02
  0
VERTEX
  8
0
 62
4
 10
-3.61809564E+01
 20
-1.07066351E+02
  0
VERTEX
  8
0
 62
4
 10
-3.61022568E+01
 20
-1.06836590E+02
  0
VERTEX
  8
0
 62
4
 10
-3.60456110E+01
 20
-1.06601389E+02
  0
VERTEX
  8
0
 62
4
 10
-3.60114502E+01
 20
-1.06362539E+02
  0
VERTEX
  8
0
 62
4
 10
-3.60000343E+01
 20
-1.06121857E+02
  0
SEQEND
  8
0
  0
LINE
  8
0
  6
CENTER
 62
6
 10
-4.34685132E+01
 20
-1.06121857E+02
 11
-3.45315555E+01
 21
-1.06121857E+02
  0
LINE
  8
0
 62
4
 10
-5.60000343E+01
 20
-1.01966245E+02
 11
-5.60000343E+01
 21
-1.14966245E+02
  0
ARC
  8
0
 62
4
 10
-5.55000348E+01
 20
-1.01966245E+02
 40
4.99999542E-01
 50
8.99999475E+01
 51
1.80000053E+02
  0
LINE
  8
0
 62
4
 10
-4.65000343E+01
 20
-1.01466245E+02
 11
-5.55000343E+01
 21
-1.01466245E+02
  0
LINE
  8
0
 62
4
 10
-6.60000343E+01
 20
-1.15918674E+02
 11
-6.10000343E+01
 21
-1.15918674E+02
  0
LINE
  8
0
 62
4
 10
-6.60000343E+01
 20
-1.12984283E+02
 11
-6.10000343E+01
 21
-1.12984283E+02
  0
LINE
  8
0
 62
4
 10
-6.60000343E+01
 20
-1.05535760E+02
 11
-6.10000343E+01
 21
-1.05535760E+02
  0
ARC
  8
0
 62
4
 10
-4.95000339E+01
 20
-1.32860084E+02
 40
1.50000046E+00
 50
1.80000018E+02
 51
2.69999983E+02
  0
ARC
  8
0
 62
4
 10
-1.35000310E+01
 20
-1.32860088E+02
 40
1.49999664E+00
 50
2.69999872E+02
 51
1.28225561E-04
  0
LINE
  8
0
 62
4
 10
-2.95000343E+01
 20
-1.07185095E+02
 11
-1.35000343E+01
 21
-1.07185095E+02
  0
LINE
  8
0
 62
4
 10
-3.15000343E+01
 20
-1.07145339E+02
 11
-2.95000343E+01
 21
-1.07145339E+02
  0
LINE
  8
0
 62
4
 10
-2.95000343E+01
 20
-1.07145339E+02
 11
-2.95000343E+01
 21
-1.26197841E+02
  0
LINE
  8
0
 62
4
 10
-4.65000343E+01
 20
-1.22793921E+02
 11
-3.15000343E+01
 21
-1.22793921E+02
  0
LINE
  8
0
 62
4
 10
-4.65000343E+01
 20
-1.13025643E+02
 11
-3.15000343E+01
 21
-1.13025643E+02
  0
ARC
  8
0
 62
4
 10
-5.55000301E+01
 20
-1.14966241E+02
 40
5.00004272E-01
 50
1.80000490E+02
 51
2.69999511E+02
  0
ARC
  8
0
 62
4
 10
-1.35000377E+01
 20
-1.08685098E+02
 40
1.50000336E+00
 50
1.28225275E-04
 51
8.99998718E+01
  0
LINE
  8
0
 62
4
 10
-4.95000343E+01
 20
-1.28499118E+02
 11
-1.35000343E+01
 21
-1.28499118E+02
  0
LINE
  8
0
 62
4
 10
-4.85000343E+01
 20
-1.24634931E+02
 11
-2.95000343E+01
 21
-1.24634931E+02
  0
LINE
  8
0
 62
4
 10
-5.10000343E+01
 20
-1.15466245E+02
 11
-5.10000343E+01
 21
-1.32860085E+02
  0
LINE
  8
0
 62
4
 10
-4.85000343E+01
 20
-1.15466245E+02
 11
-4.85000343E+01
 21
-1.26197841E+02
  0
LINE
  8
0
 62
4
 10
-1.20000343E+01
 20
-1.08685095E+02
 11
-1.20000343E+01
 21
-1.32860085E+02
  0
LINE
  8
0
 62
4
 10
-6.60000343E+01
 20
-1.01017720E+02
 11
-6.10000343E+01
 21
-1.01017720E+02
  0
LINE
  8
0
 62
4
 10
-4.65000343E+01
 20
-9.92180705E+01
 11
-3.15000343E+01
 21
-9.92180705E+01
  0
LINE
  8
0
 62
4
 10
-5.95000343E+01
 20
-1.14216245E+02
 11
-5.60000343E+01
 21
-1.14216245E+02
  0
LINE
  8
0
 62
4
 10
-5.95000343E+01
 20
-1.02716245E+02
 11
-5.60000343E+01
 21
-1.02716245E+02
  0
LINE
  8
0
 62
4
 10
-5.95000343E+01
 20
-1.02216245E+02
 11
-5.95000343E+01
 21
-1.14716245E+02
  0
LINE
  8
0
 62
4
 10
-6.10000343E+01
 20
-1.14716245E+02
 11
-5.60000343E+01
 21
-1.14716245E+02
  0
LINE
  8
0
 62
4
 10
-6.10000343E+01
 20
-1.02216245E+02
 11
-5.60000343E+01
 21
-1.02216245E+02
  0
LINE
  8
0
 62
4
 10
-6.10000343E+01
 20
-1.15918674E+02
 11
-6.10000343E+01
 21
-1.01017720E+02
  0
LINE
  8
0
 62
4
 10
-6.60000343E+01
 20
-1.01017720E+02
 11
-6.60000343E+01
 21
-1.15918674E+02
  0
LINE
  8
0
 62
4
 10
-5.55000343E+01
 20
-1.15466245E+02
 11
-4.65000343E+01
 21
-1.15466245E+02
  0
LINE
  8
0
  6
CENTER
 62
6
 10
-3.90000343E+01
 20
-9.21051662E+01
 11
-3.90000343E+01
 21
-1.44500000E+02
  0
LINE
  8
0
 62
4
 10
-4.24000343E+01
 20
-1.33785592E+02
 11
-4.24000343E+01
 21
-1.31889854E+02
  0
LINE
  8
0
 62
4
 10
-3.56000343E+01
 20
-1.31889854E+02
 11
-3.56000343E+01
 21
-1.33785592E+02
  0
LINE
  8
0
  6
CENTER
 62
6
 10
-4.30000343E+01
 20
-9.03458848E+01
 11
-4.30000343E+01
 21
-1.00845885E+02
  0
LINE
  8
0
 62
4
 10
-3.15000343E+01
 20
-9.40258848E+01
 11
-4.65000343E+01
 21
-9.40258848E+01
  0
LINE
  8
0
 62
4
 10
-3.15000343E+01
 20
-9.40258848E+01
 11
-3.15000343E+01
 21
-1.22793921E+02
  0
LINE
  8
0
 62
4
 10
-4.65000343E+01
 20
-9.40258848E+01
 11
-4.65000343E+01
 21
-1.22793921E+02
  0
LINE
  8
0
  6
CENTER
 62
6
 10
-3.50000343E+01
 20
-9.03458848E+01
 11
-3.50000343E+01
 21
-1.00845885E+02
  0
LINE
  8
0
 62
4
 10
3.28139935E+02
 20
-2.59069941E+02
 11
3.28447235E+02
 21
-2.59754023E+02
  0
LINE
  8
0
 62
4
 10
3.21859935E+02
 20
-2.59069941E+02
 11
3.21552635E+02
 21
-2.59754023E+02
  0
POLYLINE
  8
0
 62
4
 66
1
  0
VERTEX
  8
0
 62
4
 10
3.21552635E+02
 20
-2.59754023E+02
  0
VERTEX
  8
0
 62
4
 10
3.21512361E+02
 20
-2.59875313E+02
  0
VERTEX
  8
0
 62
4
 10
3.21499982E+02
 20
-2.59997524E+02
  0
VERTEX
  8
0
 62
4
 10
3.21515597E+02
 20
-2.60119678E+02
  0
VERTEX
  8
0
 62
4
 10
3.21559082E+02
 20
-2.60240799E+02
  0
VERTEX
  8
0
 62
4
 10
3.21630089E+02
 20
-2.60359917E+02
  0
VERTEX
  8
0
 62
4
 10
3.21728049E+02
 20
-2.60476080E+02
  0
VERTEX
  8
0
 62
4
 10
3.21852179E+02
 20
-2.60588358E+02
  0
VERTEX
  8
0
 62
4
 10
3.22001487E+02
 20
-2.60695855E+02
  0
VERTEX
  8
0
 62
4
 10
3.22174777E+02
 20
-2.60797709E+02
  0
VERTEX
  8
0
 62
4
 10
3.22370665E+02
 20
-2.60893106E+02
  0
VERTEX
  8
0
 62
4
 10
3.22587583E+02
 20
-2.60981283E+02
  0
VERTEX
  8
0
 62
4
 10
3.22823795E+02
 20
-2.61061535E+02
  0
VERTEX
  8
0
 62
4
 10
3.23077414E+02
 20
-2.61133220E+02
  0
VERTEX
  8
0
 62
4
 10
3.23346410E+02
 20
-2.61195765E+02
  0
VERTEX
  8
0
 62
4
 10
3.23628632E+02
 20
-2.61248669E+02
  0
VERTEX
  8
0
 62
4
 10
3.23921822E+02
 20
-2.61291509E+02
  0
VERTEX
  8
0
 62
4
 10
3.24223635E+02
 20
-2.61323942E+02
  0
VERTEX
  8
0
 62
4
 10
3.24531657E+02
 20
-2.61345710E+02
  0
VERTEX
  8
0
 62
4
 10
3.24843425E+02
 20
-2.61356637E+02
  0
VERTEX
  8
0
 62
4
 10
3.25156445E+02
 20
-2.61356637E+02
  0
VERTEX
  8
0
 62
4
 10
3.25468213E+02
 20
-2.61345710E+02
  0
VERTEX
  8
0
 62
4
 10
3.25776235E+02
 20
-2.61323942E+02
  0
VERTEX
  8
0
 62
4
 10
3.26078048E+02
 20
-2.61291509E+02
  0
VERTEX
  8
0
 62
4
 10
3.26371238E+02
 20
-2.61248669E+02
  0
VERTEX
  8
0
 62
4
 10
3.26653460E+02
 20
-2.61195765E+02
  0
VERTEX
  8
0
 62
4
 10
3.26922456E+02
 20
-2.61133220E+02
  0
VERTEX
  8
0
 62
4
 10
3.27176074E+02
 20
-2.61061535E+02
  0
VERTEX
  8
0
 62
4
 10
3.27412287E+02
 20
-2.60981283E+02
  0
VERTEX
  8
0
 62
4
 10
3.27629205E+02
 20
-2.60893106E+02
  0
VERTEX
  8
0
 62
4
 10
3.27825093E+02
 20
-2.60797709E+02
  0
VERTEX
  8
0
 62
4
 10
3.27998383E+02
 20
-2.60695855E+02
  0
VERTEX
  8
0
 62
4
 10
3.28147691E+02
 20
-2.60588358E+02
  0
VERTEX
  8
0
 62
4
 10
3.28271821E+02
 20
-2.60476080E+02
  0
VERTEX
  8
0
 62
4
 10
3.28369781E+02
 20
-2.60359917E+02
  0
VERTEX
  8
0
 62
4
 10
3.28440788E+02
 20
-2.60240799E+02
  0
VERTEX
  8
0
 62
4
 10
3.28484273E+02
 20
-2.60119678E+02
  0
VERTEX
  8
0
 62
4
 10
3.28499888E+02
 20
-2.59997524E+02
  0
VERTEX
  8
0
 62
4
 10
3.28487509E+02
 20
-2.59875313E+02
  0
VERTEX
  8
0
 62
4
 10
3.28447235E+02
 20
-2.59754023E+02
  0
SEQEND
  8
0
  0
POLYLINE
  8
0
 62
4
 66
1
  0
VERTEX
  8
0
 62
4
 10
3.28139935E+02
 20
-2.59069941E+02
  0
VERTEX
  8
0
 62
4
 10
3.28127986E+02
 20
-2.58963010E+02
  0
VERTEX
  8
0
 62
4
 10
3.28092231E+02
 20
-2.58856893E+02
  0
VERTEX
  8
0
 62
4
 10
3.28032942E+02
 20
-2.58752397E+02
  0
VERTEX
  8
0
 62
4
 10
3.27950570E+02
 20
-2.58650318E+02
  0
VERTEX
  8
0
 62
4
 10
3.27845741E+02
 20
-2.58551432E+02
  0
VERTEX
  8
0
 62
4
 10
3.27719255E+02
 20
-2.58456493E+02
  0
VERTEX
  8
0
 62
4
 10
3.27572072E+02
 20
-2.58366223E+02
  0
VERTEX
  8
0
 62
4
 10
3.27405315E+02
 20
-2.58281308E+02
  0
VERTEX
  8
0
 62
4
 10
3.27220250E+02
 20
-2.58202395E+02
  0
VERTEX
  8
0
 62
4
 10
3.27018288E+02
 20
-2.58130084E+02
  0
VERTEX
  8
0
 62
4
 10
3.26800965E+02
 20
-2.58064927E+02
  0
VERTEX
  8
0
 62
4
 10
3.26569935E+02
 20
-2.58007418E+02
  0
VERTEX
  8
0
 62
4
 10
3.26326956E+02
 20
-2.57957996E+02
  0
VERTEX
  8
0
 62
4
 10
3.26073878E+02
 20
-2.57917036E+02
  0
VERTEX
  8
0
 62
4
 10
3.25812627E+02
 20
-2.57884851E+02
  0
VERTEX
  8
0
 62
4
 10
3.25545190E+02
 20
-2.57861685E+02
  0
VERTEX
  8
0
 62
4
 10
3.25273604E+02
 20
-2.57847714E+02
  0
VERTEX
  8
0
 62
4
 10
3.24999935E+02
 20
-2.57843045E+02
  0
VERTEX
  8
0
 62
4
 10
3.24726266E+02
 20
-2.57847714E+02
  0
VERTEX
  8
0
 62
4
 10
3.24454680E+02
 20
-2.57861685E+02
  0
VERTEX
  8
0
 62
4
 10
3.24187243E+02
 20
-2.57884851E+02
  0
VERTEX
  8
0
 62
4
 10
3.23925992E+02
 20
-2.57917036E+02
  0
VERTEX
  8
0
 62
4
 10
3.23672914E+02
 20
-2.57957996E+02
  0
VERTEX
  8
0
 62
4
 10
3.23429935E+02
 20
-2.58007418E+02
  0
VERTEX
  8
0
 62
4
 10
3.23198905E+02
 20
-2.58064927E+02
  0
VERTEX
  8
0
 62
4
 10
3.22981582E+02
 20
-2.58130084E+02
  0
VERTEX
  8
0
 62
4
 10
3.22779620E+02
 20
-2.58202395E+02
  0
VERTEX
  8
0
 62
4
 10
3.22594555E+02
 20
-2.58281308E+02
  0
VERTEX
  8
0
 62
4
 10
3.22427798E+02
 20
-2.58366223E+02
  0
VERTEX
  8
0
 62
4
 10
3.22280615E+02
 20
-2.58456493E+02
  0
VERTEX
  8
0
 62
4
 10
3.22154129E+02
 20
-2.58551432E+02
  0
VERTEX
  8
0
 62
4
 10
3.22049300E+02
 20
-2.58650318E+02
  0
VERTEX
  8
0
 62
4
 10
3.21966928E+02
 20
-2.58752397E+02
  0
VERTEX
  8
0
 62
4
 10
3.21907639E+02
 20
-2.58856893E+02
  0
VERTEX
  8
0
 62
4
 10
3.21871884E+02
 20
-2.58963010E+02
  0
VERTEX
  8
0
 62
4
 10
3.21859935E+02
 20
-2.59069941E+02
  0
VERTEX
  8
0
 62
4
 10
3.21871884E+02
 20
-2.59176872E+02
  0
VERTEX
  8
0
 62
4
 10
3.21907639E+02
 20
-2.59282989E+02
  0
VERTEX
  8
0
 62
4
 10
3.21966928E+02
 20
-2.59387485E+02
  0
VERTEX
  8
0
 62
4
 10
3.22049300E+02
 20
-2.59489564E+02
  0
VERTEX
  8
0
 62
4
 10
3.22154129E+02
 20
-2.59588450E+02
  0
VERTEX
  8
0
 62
4
 10
3.22280615E+02
 20
-2.59683389E+02
  0
VERTEX
  8
0
 62
4
 10
3.22427798E+02
 20
-2.59773659E+02
  0
VERTEX
  8
0
 62
4
 10
3.22594555E+02
 20
-2.59858574E+02
  0
VERTEX
  8
0
 62
4
 10
3.22779620E+02
 20
-2.59937487E+02
  0
VERTEX
  8
0
 62
4
 10
3.22981582E+02
 20
-2.60009798E+02
  0
VERTEX
  8
0
 62
4
 10
3.23198905E+02
 20
-2.60074955E+02
  0
VERTEX
  8
0
 62
4
 10
3.23429935E+02
 20
-2.60132464E+02
  0
VERTEX
  8
0
 62
4
 10
3.23672914E+02
 20
-2.60181886E+02
  0
VERTEX
  8
0
 62
4
 10
3.23925992E+02
 20
-2.60222846E+02
  0
VERTEX
  8
0
 62
4
 10
3.24187243E+02
 20
-2.60255031E+02
  0
VERTEX
  8
0
 62
4
 10
3.24454680E+02
 20
-2.60278197E+02
  0
VERTEX
  8
0
 62
4
 10
3.24726266E+02
 20
-2.60292168E+02
  0
VERTEX
  8
0
 62
4
 10
3.24999935E+02
 20
-2.60296837E+02
  0
VERTEX
  8
0
 62
4
 10
3.25273604E+02
 20
-2.60292168E+02
  0
VERTEX
  8
0
 62
4
 10
3.25545190E+02
 20
-2.60278197E+02
  0
VERTEX
  8
0
 62
4
 10
3.25812627E+02
 20
-2.60255031E+02
  0
VERTEX
  8
0
 62
4
 10
3.26073878E+02
 20
-2.60222846E+02
  0
VERTEX
  8
0
 62
4
 10
3.26326956E+02
 20
-2.60181886E+02
  0
VERTEX
  8
0
 62
4
 10
3.26569935E+02
 20
-2.60132464E+02
  0
VERTEX
  8
0
 62
4
 10
3.26800965E+02
 20
-2.60074955E+02
  0
VERTEX
  8
0
 62
4
 10
3.27018288E+02
 20
-2.60009798E+02
  0
VERTEX
  8
0
 62
4
 10
3.27220250E+02
 20
-2.59937487E+02
  0
VERTEX
  8
0
 62
4
 10
3.27405315E+02
 20
-2.59858574E+02
  0
VERTEX
  8
0
 62
4
 10
3.27572072E+02
 20
-2.59773659E+02
  0
VERTEX
  8
0
 62
4
 10
3.27719255E+02
 20
-2.59683389E+02
  0
VERTEX
  8
0
 62
4
 10
3.27845741E+02
 20
-2.59588450E+02
  0
VERTEX
  8
0
 62
4
 10
3.27950570E+02
 20
-2.59489564E+02
  0
VERTEX
  8
0
 62
4
 10
3.28032942E+02
 20
-2.59387485E+02
  0
VERTEX
  8
0
 62
4
 10
3.28092231E+02
 20
-2.59282989E+02
  0
VERTEX
  8
0
 62
4
 10
3.28127986E+02
 20
-2.59176872E+02
  0
VERTEX
  8
0
 62
4
 10
3.28139935E+02
 20
-2.59069941E+02
  0
SEQEND
  8
0
  0
LINE
  8
0
  6
CENTER
 62
6
 10
3.24999935E+02
 20
-2.55236745E+02
 11
3.24999935E+02
 21
-2.59069941E+02
  0
LINE
  8
0
 62
4
 10
3.67999935E+02
 20
-2.45731826E+02
 11
3.62999935E+02
 21
-2.45731826E+02
  0
LINE
  8
0
 62
4
 10
3.67999935E+02
 20
-2.44819685E+02
 11
3.62999935E+02
 21
-2.44819685E+02
  0
LINE
  8
0
 62
4
 10
3.67999935E+02
 20
-2.37906693E+02
 11
3.62999935E+02
 21
-2.37906693E+02
  0
LINE
  8
0
 62
4
 10
3.51499935E+02
 20
-2.62422316E+02
 11
3.51499935E+02
 21
-2.57381862E+02
  0
LINE
  8
0
 62
4
 10
3.15499944E+02
 20
-2.62422316E+02
 11
3.15499944E+02
 21
-2.57381862E+02
  0
POLYLINE
  8
0
 62
4
 66
1
  0
VERTEX
  8
0
 62
4
 10
3.46734935E+02
 20
-2.91735521E+02
  0
VERTEX
  8
0
 62
4
 10
3.46728333E+02
 20
-2.91596327E+02
  0
VERTEX
  8
0
 62
4
 10
3.46708576E+02
 20
-2.91458192E+02
  0
VERTEX
  8
0
 62
4
 10
3.46675816E+02
 20
-2.91322167E+02
  0
VERTEX
  8
0
 62
4
 10
3.46630302E+02
 20
-2.91189289E+02
  0
VERTEX
  8
0
 62
4
 10
3.46572379E+02
 20
-2.91060568E+02
  0
VERTEX
  8
0
 62
4
 10
3.46502489E+02
 20
-2.90936983E+02
  0
VERTEX
  8
0
 62
4
 10
3.46421164E+02
 20
-2.90819476E+02
  0
VERTEX
  8
0
 62
4
 10
3.46329022E+02
 20
-2.90708940E+02
  0
VERTEX
  8
0
 62
4
 10
3.46226765E+02
 20
-2.90606218E+02
  0
VERTEX
  8
0
 62
4
 10
3.46115172E+02
 20
-2.90512090E+02
  0
VERTEX
  8
0
 62
4
 10
3.45995090E+02
 20
-2.90427273E+02
  0
VERTEX
  8
0
 62
4
 10
3.45867435E+02
 20
-2.90352413E+02
  0
VERTEX
  8
0
 62
4
 10
3.45733178E+02
 20
-2.90288079E+02
  0
VERTEX
  8
0
 62
4
 10
3.45593340E+02
 20
-2.90234761E+02
  0
VERTEX
  8
0
 62
4
 10
3.45448986E+02
 20
-2.90192864E+02
  0
VERTEX
  8
0
 62
4
 10
3.45301215E+02
 20
-2.90162708E+02
  0
VERTEX
  8
0
 62
4
 10
3.45151150E+02
 20
-2.90144522E+02
  0
VERTEX
  8
0
 62
4
 10
3.44999935E+02
 20
-2.90138445E+02
  0
VERTEX
  8
0
 62
4
 10
3.44848720E+02
 20
-2.90144522E+02
  0
VERTEX
  8
0
 62
4
 10
3.44698655E+02
 20
-2.90162708E+02
  0
VERTEX
  8
0
 62
4
 10
3.44550884E+02
 20
-2.90192864E+02
  0
VERTEX
  8
0
 62
4
 10
3.44406530E+02
 20
-2.90234761E+02
  0
VERTEX
  8
0
 62
4
 10
3.44266692E+02
 20
-2.90288079E+02
  0
VERTEX
  8
0
 62
4
 10
3.44132435E+02
 20
-2.90352413E+02
  0
VERTEX
  8
0
 62
4
 10
3.44004780E+02
 20
-2.90427273E+02
  0
VERTEX
  8
0
 62
4
 10
3.43884698E+02
 20
-2.90512090E+02
  0
VERTEX
  8
0
 62
4
 10
3.43773105E+02
 20
-2.90606218E+02
  0
VERTEX
  8
0
 62
4
 10
3.43670848E+02
 20
-2.90708940E+02
  0
VERTEX
  8
0
 62
4
 10
3.43578706E+02
 20
-2.90819476E+02
  0
VERTEX
  8
0
 62
4
 10
3.43497381E+02
 20
-2.90936983E+02
  0
VERTEX
  8
0
 62
4
 10
3.43427491E+02
 20
-2.91060568E+02
  0
VERTEX
  8
0
 62
4
 10
3.43369568E+02
 20
-2.91189289E+02
  0
VERTEX
  8
0
 62
4
 10
3.43324054E+02
 20
-2.91322167E+02
  0
VERTEX
  8
0
 62
4
 10
3.43291294E+02
 20
-2.91458192E+02
  0
VERTEX
  8
0
 62
4
 10
3.43271537E+02
 20
-2.91596327E+02
  0
VERTEX
  8
0
 62
4
 10
3.43264935E+02
 20
-2.91735521E+02
  0
VERTEX
  8
0
 62
4
 10
3.43271537E+02
 20
-2.91874715E+02
  0
VERTEX
  8
0
 62
4
 10
3.43291294E+02
 20
-2.92012850E+02
  0
VERTEX
  8
0
 62
4
 10
3.43324054E+02
 20
-2.92148875E+02
  0
VERTEX
  8
0
 62
4
 10
3.43369568E+02
 20
-2.92281753E+02
  0
VERTEX
  8
0
 62
4
 10
3.43427491E+02
 20
-2.92410474E+02
  0
VERTEX
  8
0
 62
4
 10
3.43497381E+02
 20
-2.92534059E+02
  0
VERTEX
  8
0
 62
4
 10
3.43578706E+02
 20
-2.92651566E+02
  0
VERTEX
  8
0
 62
4
 10
3.43670848E+02
 20
-2.92762102E+02
  0
VERTEX
  8
0
 62
4
 10
3.43773105E+02
 20
-2.92864824E+02
  0
VERTEX
  8
0
 62
4
 10
3.43884698E+02
 20
-2.92958952E+02
  0
VERTEX
  8
0
 62
4
 10
3.44004780E+02
 20
-2.93043769E+02
  0
VERTEX
  8
0
 62
4
 10
3.44132435E+02
 20
-2.93118629E+02
  0
VERTEX
  8
0
 62
4
 10
3.44266692E+02
 20
-2.93182963E+02
  0
VERTEX
  8
0
 62
4
 10
3.44406530E+02
 20
-2.93236281E+02
  0
VERTEX
  8
0
 62
4
 10
3.44550884E+02
 20
-2.93278178E+02
  0
VERTEX
  8
0
 62
4
 10
3.44698655E+02
 20
-2.93308334E+02
  0
VERTEX
  8
0
 62
4
 10
3.44848720E+02
 20
-2.93326520E+02
  0
VERTEX
  8
0
 62
4
 10
3.44999935E+02
 20
-2.93332597E+02
  0
VERTEX
  8
0
 62
4
 10
3.45151150E+02
 20
-2.93326520E+02
  0
VERTEX
  8
0
 62
4
 10
3.45301215E+02
 20
-2.93308334E+02
  0
VERTEX
  8
0
 62
4
 10
3.45448986E+02
 20
-2.93278178E+02
  0
VERTEX
  8
0
 62
4
 10
3.45593340E+02
 20
-2.93236281E+02
  0
VERTEX
  8
0
 62
4
 10
3.45733178E+02
 20
-2.93182963E+02
  0
VERTEX
  8
0
 62
4
 10
3.45867435E+02
 20
-2.93118629E+02
  0
VERTEX
  8
0
 62
4
 10
3.45995090E+02
 20
-2.93043769E+02
  0
VERTEX
  8
0
 62
4
 10
3.46115172E+02
 20
-2.92958952E+02
  0
VERTEX
  8
0
 62
4
 10
3.46226765E+02
 20
-2.92864824E+02
  0
VERTEX
  8
0
 62
4
 10
3.46329022E+02
 20
-2.92762102E+02
  0
VERTEX
  8
0
 62
4
 10
3.46421164E+02
 20
-2.92651566E+02
  0
VERTEX
  8
0
 62
4
 10
3.46502489E+02
 20
-2.92534059E+02
  0
VERTEX
  8
0
 62
4
 10
3.46572379E+02
 20
-2.92410474E+02
  0
VERTEX
  8
0
 62
4
 10
3.46630302E+02
 20
-2.92281753E+02
  0
VERTEX
  8
0
 62
4
 10
3.46675816E+02
 20
-2.92148875E+02
  0
VERTEX
  8
0
 62
4
 10
3.46708576E+02
 20
-2.92012850E+02
  0
VERTEX
  8
0
 62
4
 10
3.46728333E+02
 20
-2.91874715E+02
  0
VERTEX
  8
0
 62
4
 10
3.46734935E+02
 20
-2.91735521E+02
  0
SEQEND
  8
0
  0
POLYLINE
  8
0
 62
6
 66
1
  0
VERTEX
  8
0
 62
6
 10
3.46499935E+02
 20
-2.91740123E+02
  0
VERTEX
  8
0
 62
6
 10
3.46494227E+02
 20
-2.91619782E+02
  0
VERTEX
  8
0
 62
6
 10
3.46477147E+02
 20
-2.91500357E+02
  0
VERTEX
  8
0
 62
6
 10
3.46448824E+02
 20
-2.91382757E+02
  0
VERTEX
  8
0
 62
6
 10
3.46409474E+02
 20
-2.91267876E+02
  0
VERTEX
  8
0
 62
6
 10
3.46359397E+02
 20
-2.91156590E+02
  0
VERTEX
  8
0
 62
6
 10
3.46298973E+02
 20
-2.91049744E+02
  0
VERTEX
  8
0
 62
6
 10
3.46228663E+02
 20
-2.90948153E+02
  0
VERTEX
  8
0
 62
6
 10
3.46149002E+02
 20
-2.90852589E+02
  0
VERTEX
  8
0
 62
6
 10
3.46060595E+02
 20
-2.90763780E+02
  0
VERTEX
  8
0
 62
6
 10
3.45964116E+02
 20
-2.90682402E+02
  0
VERTEX
  8
0
 62
6
 10
3.45860300E+02
 20
-2.90609073E+02
  0
VERTEX
  8
0
 62
6
 10
3.45749935E+02
 20
-2.90544352E+02
  0
VERTEX
  8
0
 62
6
 10
3.45633862E+02
 20
-2.90488732E+02
  0
VERTEX
  8
0
 62
6
 10
3.45512965E+02
 20
-2.90442636E+02
  0
VERTEX
  8
0
 62
6
 10
3.45388164E+02
 20
-2.90406414E+02
  0
VERTEX
  8
0
 62
6
 10
3.45260407E+02
 20
-2.90380343E+02
  0
VERTEX
  8
0
 62
6
 10
3.45130669E+02
 20
-2.90364620E+02
  0
VERTEX
  8
0
 62
6
 10
3.44999935E+02
 20
-2.90359366E+02
  0
VERTEX
  8
0
 62
6
 10
3.44869201E+02
 20
-2.90364620E+02
  0
VERTEX
  8
0
 62
6
 10
3.44739463E+02
 20
-2.90380343E+02
  0
VERTEX
  8
0
 62
6
 10
3.44611706E+02
 20
-2.90406414E+02
  0
VERTEX
  8
0
 62
6
 10
3.44486905E+02
 20
-2.90442636E+02
  0
VERTEX
  8
0
 62
6
 10
3.44366008E+02
 20
-2.90488732E+02
  0
VERTEX
  8
0
 62
6
 10
3.44249935E+02
 20
-2.90544352E+02
  0
VERTEX
  8
0
 62
6
 10
3.44139570E+02
 20
-2.90609073E+02
  0
VERTEX
  8
0
 62
6
 10
3.44035754E+02
 20
-2.90682402E+02
  0
VERTEX
  8
0
 62
6
 10
3.43939275E+02
 20
-2.90763780E+02
  0
VERTEX
  8
0
 62
6
 10
3.43850868E+02
 20
-2.90852589E+02
  0
VERTEX
  8
0
 62
6
 10
3.43771207E+02
 20
-2.90948153E+02
  0
VERTEX
  8
0
 62
6
 10
3.43700897E+02
 20
-2.91049744E+02
  0
VERTEX
  8
0
 62
6
 10
3.43640473E+02
 20
-2.91156590E+02
  0
VERTEX
  8
0
 62
6
 10
3.43590396E+02
 20
-2.91267876E+02
  0
VERTEX
  8
0
 62
6
 10
3.43551046E+02
 20
-2.91382757E+02
  0
VERTEX
  8
0
 62
6
 10
3.43522723E+02
 20
-2.91500357E+02
  0
VERTEX
  8
0
 62
6
 10
3.43505643E+02
 20
-2.91619782E+02
  0
VERTEX
  8
0
 62
6
 10
3.43499935E+02
 20
-2.91740123E+02
  0
VERTEX
  8
0
 62
6
 10
3.43505643E+02
 20
-2.91860464E+02
  0
VERTEX
  8
0
 62
6
 10
3.43522723E+02
 20
-2.91979889E+02
  0
VERTEX
  8
0
 62
6
 10
3.43551046E+02
 20
-2.92097489E+02
  0
VERTEX
  8
0
 62
6
 10
3.43590396E+02
 20
-2.92212370E+02
  0
VERTEX
  8
0
 62
6
 10
3.43640473E+02
 20
-2.92323656E+02
  0
VERTEX
  8
0
 62
6
 10
3.43700897E+02
 20
-2.92430502E+02
  0
VERTEX
  8
0
 62
6
 10
3.43771207E+02
 20
-2.92532093E+02
  0
VERTEX
  8
0
 62
6
 10
3.43850868E+02
 20
-2.92627657E+02
  0
VERTEX
  8
0
 62
6
 10
3.43939275E+02
 20
-2.92716466E+02
  0
VERTEX
  8
0
 62
6
 10
3.44035754E+02
 20
-2.92797844E+02
  0
VERTEX
  8
0
 62
6
 10
3.44139570E+02
 20
-2.92871173E+02
  0
VERTEX
  8
0
 62
6
 10
3.44249935E+02
 20
-2.92935894E+02
  0
VERTEX
  8
0
 62
6
 10
3.44366008E+02
 20
-2.92991514E+02
  0
VERTEX
  8
0
 62
6
 10
3.44486905E+02
 20
-2.93037610E+02
  0
VERTEX
  8
0
 62
6
 10
3.44611706E+02
 20
-2.93073832E+02
  0
VERTEX
  8
0
 62
6
 10
3.44739463E+02
 20
-2.93099903E+02
  0
VERTEX
  8
0
 62
6
 10
3.44869201E+02
 20
-2.93115626E+02
  0
VERTEX
  8
0
 62
6
 10
3.44999935E+02
 20
-2.93120880E+02
  0
VERTEX
  8
0
 62
6
 10
3.45130669E+02
 20
-2.93115626E+02
  0
VERTEX
  8
0
 62
6
 10
3.45260407E+02
 20
-2.93099903E+02
  0
VERTEX
  8
0
 62
6
 10
3.45388164E+02
 20
-2.93073832E+02
  0
VERTEX
  8
0
 62
6
 10
3.45512965E+02
 20
-2.93037610E+02
  0
VERTEX
  8
0
 62
6
 10
3.45633862E+02
 20
-2.92991514E+02
  0
VERTEX
  8
0
 62
6
 10
3.45749935E+02
 20
-2.92935894E+02
  0
VERTEX
  8
0
 62
6
 10
3.45860300E+02
 20
-2.92871173E+02
  0
VERTEX
  8
0
 62
6
 10
3.45964116E+02
 20
-2.92797844E+02
  0
VERTEX
  8
0
 62
6
 10
3.46060595E+02
 20
-2.92716466E+02
  0
VERTEX
  8
0
 62
6
 10
3.46149002E+02
 20
-2.92627657E+02
  0
VERTEX
  8
0
 62
6
 10
3.46228663E+02
 20
-2.92532093E+02
  0
VERTEX
  8
0
 62
6
 10
3.46298973E+02
 20
-2.92430502E+02
  0
VERTEX
  8
0
 62
6
 10
3.46359397E+02
 20
-2.92323656E+02
  0
VERTEX
  8
0
 62
6
 10
3.46409474E+02
 20
-2.92212370E+02
  0
VERTEX
  8
0
 62
6
 10
3.46448824E+02
 20
-2.92097489E+02
  0
VERTEX
  8
0
 62
6
 10
3.46477147E+02
 20
-2.91979889E+02
  0
VERTEX
  8
0
 62
6
 10
3.46494227E+02
 20
-2.91860464E+02
  0
VERTEX
  8
0
 62
6
 10
3.46499935E+02
 20
-2.91740123E+02
  0
SEQEND
  8
0
  0
POLYLINE
  8
0
 62
4
 66
1
  0
VERTEX
  8
0
 62
4
 10
3.46725167E+02
 20
-2.91904752E+02
  0
VERTEX
  8
0
 62
4
 10
3.46807021E+02
 20
-2.91762327E+02
  0
VERTEX
  8
0
 62
4
 10
3.46875033E+02
 20
-2.91613860E+02
  0
VERTEX
  8
0
 62
4
 10
3.46928682E+02
 20
-2.91460488E+02
  0
VERTEX
  8
0
 62
4
 10
3.46967557E+02
 20
-2.91303385E+02
  0
VERTEX
  8
0
 62
4
 10
3.46991360E+02
 20
-2.91143755E+02
  0
VERTEX
  8
0
 62
4
 10
3.46999909E+02
 20
-2.90982820E+02
  0
VERTEX
  8
0
 62
4
 10
3.46993138E+02
 20
-2.90821814E+02
  0
VERTEX
  8
0
 62
4
 10
3.46971100E+02
 20
-2.90661969E+02
  0
VERTEX
  8
0
 62
4
 10
3.46933962E+02
 20
-2.90504510E+02
  0
VERTEX
  8
0
 62
4
 10
3.46882011E+02
 20
-2.90350644E+02
  0
VERTEX
  8
0
 62
4
 10
3.46815642E+02
 20
-2.90201548E+02
  0
VERTEX
  8
0
 62
4
 10
3.46735365E+02
 20
-2.90058365E+02
  0
VERTEX
  8
0
 62
4
 10
3.46641795E+02
 20
-2.89922191E+02
  0
VERTEX
  8
0
 62
4
 10
3.46535649E+02
 20
-2.89794070E+02
  0
VERTEX
  8
0
 62
4
 10
3.46417739E+02
 20
-2.89674983E+02
  0
VERTEX
  8
0
 62
4
 10
3.46288969E+02
 20
-2.89565842E+02
  0
VERTEX
  8
0
 62
4
 10
3.46150325E+02
 20
-2.89467484E+02
  0
VERTEX
  8
0
 62
4
 10
3.46002869E+02
 20
-2.89380661E+02
  0
VERTEX
  8
0
 62
4
 10
3.45847731E+02
 20
-2.89306039E+02
  0
VERTEX
  8
0
 62
4
 10
3.45686098E+02
 20
-2.89244189E+02
  0
VERTEX
  8
0
 62
4
 10
3.45519210E+02
 20
-2.89195586E+02
  0
VERTEX
  8
0
 62
4
 10
3.45348344E+02
 20
-2.89160600E+02
  0
VERTEX
  8
0
 62
4
 10
3.45174809E+02
 20
-2.89139501E+02
  0
VERTEX
  8
0
 62
4
 10
3.44999935E+02
 20
-2.89132450E+02
  0
VERTEX
  8
0
 62
4
 10
3.44825061E+02
 20
-2.89139501E+02
  0
VERTEX
  8
0
 62
4
 10
3.44651526E+02
 20
-2.89160600E+02
  0
VERTEX
  8
0
 62
4
 10
3.44480660E+02
 20
-2.89195586E+02
  0
VERTEX
  8
0
 62
4
 10
3.44313772E+02
 20
-2.89244189E+02
  0
VERTEX
  8
0
 62
4
 10
3.44152139E+02
 20
-2.89306039E+02
  0
VERTEX
  8
0
 62
4
 10
3.43997001E+02
 20
-2.89380661E+02
  0
VERTEX
  8
0
 62
4
 10
3.43849545E+02
 20
-2.89467484E+02
  0
VERTEX
  8
0
 62
4
 10
3.43710901E+02
 20
-2.89565842E+02
  0
VERTEX
  8
0
 62
4
 10
3.43582131E+02
 20
-2.89674983E+02
  0
VERTEX
  8
0
 62
4
 10
3.43464221E+02
 20
-2.89794070E+02
  0
VERTEX
  8
0
 62
4
 10
3.43358075E+02
 20
-2.89922191E+02
  0
VERTEX
  8
0
 62
4
 10
3.43264505E+02
 20
-2.90058365E+02
  0
VERTEX
  8
0
 62
4
 10
3.43184228E+02
 20
-2.90201548E+02
  0
VERTEX
  8
0
 62
4
 10
3.43117859E+02
 20
-2.90350644E+02
  0
VERTEX
  8
0
 62
4
 10
3.43065908E+02
 20
-2.90504510E+02
  0
VERTEX
  8
0
 62
4
 10
3.43028770E+02
 20
-2.90661969E+02
  0
VERTEX
  8
0
 62
4
 10
3.43006732E+02
 20
-2.90821814E+02
  0
VERTEX
  8
0
 62
4
 10
3.42999961E+02
 20
-2.90982820E+02
  0
VERTEX
  8
0
 62
4
 10
3.43008510E+02
 20
-2.91143755E+02
  0
VERTEX
  8
0
 62
4
 10
3.43032313E+02
 20
-2.91303385E+02
  0
VERTEX
  8
0
 62
4
 10
3.43071188E+02
 20
-2.91460488E+02
  0
VERTEX
  8
0
 62
4
 10
3.43124837E+02
 20
-2.91613860E+02
  0
VERTEX
  8
0
 62
4
 10
3.43192849E+02
 20
-2.91762327E+02
  0
VERTEX
  8
0
 62
4
 10
3.43274703E+02
 20
-2.91904752E+02
  0
SEQEND
  8
0
  0
POLYLINE
  8
0
 62
4
 66
1
  0
VERTEX
  8
0
 62
4
 10
3.38734935E+02
 20
-2.91735521E+02
  0
VERTEX
  8
0
 62
4
 10
3.38728333E+02
 20
-2.91596327E+02
  0
VERTEX
  8
0
 62
4
 10
3.38708576E+02
 20
-2.91458192E+02
  0
VERTEX
  8
0
 62
4
 10
3.38675816E+02
 20
-2.91322167E+02
  0
VERTEX
  8
0
 62
4
 10
3.38630302E+02
 20
-2.91189289E+02
  0
VERTEX
  8
0
 62
4
 10
3.38572379E+02
 20
-2.91060568E+02
  0
VERTEX
  8
0
 62
4
 10
3.38502489E+02
 20
-2.90936983E+02
  0
VERTEX
  8
0
 62
4
 10
3.38421164E+02
 20
-2.90819476E+02
  0
VERTEX
  8
0
 62
4
 10
3.38329022E+02
 20
-2.90708940E+02
  0
VERTEX
  8
0
 62
4
 10
3.38226765E+02
 20
-2.90606218E+02
  0
VERTEX
  8
0
 62
4
 10
3.38115172E+02
 20
-2.90512090E+02
  0
VERTEX
  8
0
 62
4
 10
3.37995090E+02
 20
-2.90427273E+02
  0
VERTEX
  8
0
 62
4
 10
3.37867435E+02
 20
-2.90352413E+02
  0
VERTEX
  8
0
 62
4
 10
3.37733178E+02
 20
-2.90288079E+02
  0
VERTEX
  8
0
 62
4
 10
3.37593340E+02
 20
-2.90234761E+02
  0
VERTEX
  8
0
 62
4
 10
3.37448986E+02
 20
-2.90192864E+02
  0
VERTEX
  8
0
 62
4
 10
3.37301215E+02
 20
-2.90162708E+02
  0
VERTEX
  8
0
 62
4
 10
3.37151150E+02
 20
-2.90144522E+02
  0
VERTEX
  8
0
 62
4
 10
3.36999935E+02
 20
-2.90138445E+02
  0
VERTEX
  8
0
 62
4
 10
3.36848720E+02
 20
-2.90144522E+02
  0
VERTEX
  8
0
 62
4
 10
3.36698655E+02
 20
-2.90162708E+02
  0
VERTEX
  8
0
 62
4
 10
3.36550884E+02
 20
-2.90192864E+02
  0
VERTEX
  8
0
 62
4
 10
3.36406530E+02
 20
-2.90234761E+02
  0
VERTEX
  8
0
 62
4
 10
3.36266692E+02
 20
-2.90288079E+02
  0
VERTEX
  8
0
 62
4
 10
3.36132435E+02
 20
-2.90352413E+02
  0
VERTEX
  8
0
 62
4
 10
3.36004780E+02
 20
-2.90427273E+02
  0
VERTEX
  8
0
 62
4
 10
3.35884698E+02
 20
-2.90512090E+02
  0
VERTEX
  8
0
 62
4
 10
3.35773105E+02
 20
-2.90606218E+02
  0
VERTEX
  8
0
 62
4
 10
3.35670848E+02
 20
-2.90708940E+02
  0
VERTEX
  8
0
 62
4
 10
3.35578706E+02
 20
-2.90819476E+02
  0
VERTEX
  8
0
 62
4
 10
3.35497381E+02
 20
-2.90936983E+02
  0
VERTEX
  8
0
 62
4
 10
3.35427491E+02
 20
-2.91060568E+02
  0
VERTEX
  8
0
 62
4
 10
3.35369568E+02
 20
-2.91189289E+02
  0
VERTEX
  8
0
 62
4
 10
3.35324054E+02
 20
-2.91322167E+02
  0
VERTEX
  8
0
 62
4
 10
3.35291294E+02
 20
-2.91458192E+02
  0
VERTEX
  8
0
 62
4
 10
3.35271537E+02
 20
-2.91596327E+02
  0
VERTEX
  8
0
 62
4
 10
3.35264935E+02
 20
-2.91735521E+02
  0
VERTEX
  8
0
 62
4
 10
3.35271537E+02
 20
-2.91874715E+02
  0
VERTEX
  8
0
 62
4
 10
3.35291294E+02
 20
-2.92012850E+02
  0
VERTEX
  8
0
 62
4
 10
3.35324054E+02
 20
-2.92148875E+02
  0
VERTEX
  8
0
 62
4
 10
3.35369568E+02
 20
-2.92281753E+02
  0
VERTEX
  8
0
 62
4
 10
3.35427491E+02
 20
-2.92410474E+02
  0
VERTEX
  8
0
 62
4
 10
3.35497381E+02
 20
-2.92534059E+02
  0
VERTEX
  8
0
 62
4
 10
3.35578706E+02
 20
-2.92651566E+02
  0
VERTEX
  8
0
 62
4
 10
3.35670848E+02
 20
-2.92762102E+02
  0
VERTEX
  8
0
 62
4
 10
3.35773105E+02
 20
-2.92864824E+02
  0
VERTEX
  8
0
 62
4
 10
3.35884698E+02
 20
-2.92958952E+02
  0
VERTEX
  8
0
 62
4
 10
3.36004780E+02
 20
-2.93043769E+02
  0
VERTEX
  8
0
 62
4
 10
3.36132435E+02
 20
-2.93118629E+02
  0
VERTEX
  8
0
 62
4
 10
3.36266692E+02
 20
-2.93182963E+02
  0
VERTEX
  8
0
 62
4
 10
3.36406530E+02
 20
-2.93236281E+02
  0
VERTEX
  8
0
 62
4
 10
3.36550884E+02
 20
-2.93278178E+02
  0
VERTEX
  8
0
 62
4
 10
3.36698655E+02
 20
-2.93308334E+02
  0
VERTEX
  8
0
 62
4
 10
3.36848720E+02
 20
-2.93326520E+02
  0
VERTEX
  8
0
 62
4
 10
3.36999935E+02
 20
-2.93332597E+02
  0
VERTEX
  8
0
 62
4
 10
3.37151150E+02
 20
-2.93326520E+02
  0
VERTEX
  8
0
 62
4
 10
3.37301215E+02
 20
-2.93308334E+02
  0
VERTEX
  8
0
 62
4
 10
3.37448986E+02
 20
-2.93278178E+02
  0
VERTEX
  8
0
 62
4
 10
3.37593340E+02
 20
-2.93236281E+02
  0
VERTEX
  8
0
 62
4
 10
3.37733178E+02
 20
-2.93182963E+02
  0
VERTEX
  8
0
 62
4
 10
3.37867435E+02
 20
-2.93118629E+02
  0
VERTEX
  8
0
 62
4
 10
3.37995090E+02
 20
-2.93043769E+02
  0
VERTEX
  8
0
 62
4
 10
3.38115172E+02
 20
-2.92958952E+02
  0
VERTEX
  8
0
 62
4
 10
3.38226765E+02
 20
-2.92864824E+02
  0
VERTEX
  8
0
 62
4
 10
3.38329022E+02
 20
-2.92762102E+02
  0
VERTEX
  8
0
 62
4
 10
3.38421164E+02
 20
-2.92651566E+02
  0
VERTEX
  8
0
 62
4
 10
3.38502489E+02
 20
-2.92534059E+02
  0
VERTEX
  8
0
 62
4
 10
3.38572379E+02
 20
-2.92410474E+02
  0
VERTEX
  8
0
 62
4
 10
3.38630302E+02
 20
-2.92281753E+02
  0
VERTEX
  8
0
 62
4
 10
3.38675816E+02
 20
-2.92148875E+02
  0
VERTEX
  8
0
 62
4
 10
3.38708576E+02
 20
-2.92012850E+02
  0
VERTEX
  8
0
 62
4
 10
3.38728333E+02
 20
-2.91874715E+02
  0
VERTEX
  8
0
 62
4
 10
3.38734935E+02
 20
-2.91735521E+02
  0
SEQEND
  8
0
  0
POLYLINE
  8
0
 62
6
 66
1
  0
VERTEX
  8
0
 62
6
 10
3.38499935E+02
 20
-2.91740123E+02
  0
VERTEX
  8
0
 62
6
 10
3.38494227E+02
 20
-2.91619782E+02
  0
VERTEX
  8
0
 62
6
 10
3.38477147E+02
 20
-2.91500357E+02
  0
VERTEX
  8
0
 62
6
 10
3.38448824E+02
 20
-2.91382757E+02
  0
VERTEX
  8
0
 62
6
 10
3.38409474E+02
 20
-2.91267876E+02
  0
VERTEX
  8
0
 62
6
 10
3.38359397E+02
 20
-2.91156590E+02
  0
VERTEX
  8
0
 62
6
 10
3.38298973E+02
 20
-2.91049744E+02
  0
VERTEX
  8
0
 62
6
 10
3.38228663E+02
 20
-2.90948153E+02
  0
VERTEX
  8
0
 62
6
 10
3.38149002E+02
 20
-2.90852589E+02
  0
VERTEX
  8
0
 62
6
 10
3.38060595E+02
 20
-2.90763780E+02
  0
VERTEX
  8
0
 62
6
 10
3.37964116E+02
 20
-2.90682402E+02
  0
VERTEX
  8
0
 62
6
 10
3.37860300E+02
 20
-2.90609073E+02
  0
VERTEX
  8
0
 62
6
 10
3.37749935E+02
 20
-2.90544352E+02
  0
VERTEX
  8
0
 62
6
 10
3.37633862E+02
 20
-2.90488732E+02
  0
VERTEX
  8
0
 62
6
 10
3.37512965E+02
 20
-2.90442636E+02
  0
VERTEX
  8
0
 62
6
 10
3.37388164E+02
 20
-2.90406414E+02
  0
VERTEX
  8
0
 62
6
 10
3.37260407E+02
 20
-2.90380343E+02
  0
VERTEX
  8
0
 62
6
 10
3.37130669E+02
 20
-2.90364620E+02
  0
VERTEX
  8
0
 62
6
 10
3.36999935E+02
 20
-2.90359366E+02
  0
VERTEX
  8
0
 62
6
 10
3.36869201E+02
 20
-2.90364620E+02
  0
VERTEX
  8
0
 62
6
 10
3.36739463E+02
 20
-2.90380343E+02
  0
VERTEX
  8
0
 62
6
 10
3.36611706E+02
 20
-2.90406414E+02
  0
VERTEX
  8
0
 62
6
 10
3.36486905E+02
 20
-2.90442636E+02
  0
VERTEX
  8
0
 62
6
 10
3.36366008E+02
 20
-2.90488732E+02
  0
VERTEX
  8
0
 62
6
 10
3.36249935E+02
 20
-2.90544352E+02
  0
VERTEX
  8
0
 62
6
 10
3.36139570E+02
 20
-2.90609073E+02
  0
VERTEX
  8
0
 62
6
 10
3.36035754E+02
 20
-2.90682402E+02
  0
VERTEX
  8
0
 62
6
 10
3.35939275E+02
 20
-2.90763780E+02
  0
VERTEX
  8
0
 62
6
 10
3.35850868E+02
 20
-2.90852589E+02
  0
VERTEX
  8
0
 62
6
 10
3.35771207E+02
 20
-2.90948153E+02
  0
VERTEX
  8
0
 62
6
 10
3.35700897E+02
 20
-2.91049744E+02
  0
VERTEX
  8
0
 62
6
 10
3.35640473E+02
 20
-2.91156590E+02
  0
VERTEX
  8
0
 62
6
 10
3.35590396E+02
 20
-2.91267876E+02
  0
VERTEX
  8
0
 62
6
 10
3.35551046E+02
 20
-2.91382757E+02
  0
VERTEX
  8
0
 62
6
 10
3.35522723E+02
 20
-2.91500357E+02
  0
VERTEX
  8
0
 62
6
 10
3.35505643E+02
 20
-2.91619782E+02
  0
VERTEX
  8
0
 62
6
 10
3.35499935E+02
 20
-2.91740123E+02
  0
VERTEX
  8
0
 62
6
 10
3.35505643E+02
 20
-2.91860464E+02
  0
VERTEX
  8
0
 62
6
 10
3.35522723E+02
 20
-2.91979889E+02
  0
VERTEX
  8
0
 62
6
 10
3.35551046E+02
 20
-2.92097489E+02
  0
VERTEX
  8
0
 62
6
 10
3.35590396E+02
 20
-2.92212370E+02
  0
VERTEX
  8
0
 62
6
 10
3.35640473E+02
 20
-2.92323656E+02
  0
VERTEX
  8
0
 62
6
 10
3.35700897E+02
 20
-2.92430502E+02
  0
VERTEX
  8
0
 62
6
 10
3.35771207E+02
 20
-2.92532093E+02
  0
VERTEX
  8
0
 62
6
 10
3.35850868E+02
 20
-2.92627657E+02
  0
VERTEX
  8
0
 62
6
 10
3.35939275E+02
 20
-2.92716466E+02
  0
VERTEX
  8
0
 62
6
 10
3.36035754E+02
 20
-2.92797844E+02
  0
VERTEX
  8
0
 62
6
 10
3.36139570E+02
 20
-2.92871173E+02
  0
VERTEX
  8
0
 62
6
 10
3.36249935E+02
 20
-2.92935894E+02
  0
VERTEX
  8
0
 62
6
 10
3.36366008E+02
 20
-2.92991514E+02
  0
VERTEX
  8
0
 62
6
 10
3.36486905E+02
 20
-2.93037610E+02
  0
VERTEX
  8
0
 62
6
 10
3.36611706E+02
 20
-2.93073832E+02
  0
VERTEX
  8
0
 62
6
 10
3.36739463E+02
 20
-2.93099903E+02
  0
VERTEX
  8
0
 62
6
 10
3.36869201E+02
 20
-2.93115626E+02
  0
VERTEX
  8
0
 62
6
 10
3.36999935E+02
 20
-2.93120880E+02
  0
VERTEX
  8
0
 62
6
 10
3.37130669E+02
 20
-2.93115626E+02
  0
VERTEX
  8
0
 62
6
 10
3.37260407E+02
 20
-2.93099903E+02
  0
VERTEX
  8
0
 62
6
 10
3.37388164E+02
 20
-2.93073832E+02
  0
VERTEX
  8
0
 62
6
 10
3.37512965E+02
 20
-2.93037610E+02
  0
VERTEX
  8
0
 62
6
 10
3.37633862E+02
 20
-2.92991514E+02
  0
VERTEX
  8
0
 62
6
 10
3.37749935E+02
 20
-2.92935894E+02
  0
VERTEX
  8
0
 62
6
 10
3.37860300E+02
 20
-2.92871173E+02
  0
VERTEX
  8
0
 62
6
 10
3.37964116E+02
 20
-2.92797844E+02
  0
VERTEX
  8
0
 62
6
 10
3.38060595E+02
 20
-2.92716466E+02
  0
VERTEX
  8
0
 62
6
 10
3.38149002E+02
 20
-2.92627657E+02
  0
VERTEX
  8
0
 62
6
 10
3.38228663E+02
 20
-2.92532093E+02
  0
VERTEX
  8
0
 62
6
 10
3.38298973E+02
 20
-2.92430502E+02
  0
VERTEX
  8
0
 62
6
 10
3.38359397E+02
 20
-2.92323656E+02
  0
VERTEX
  8
0
 62
6
 10
3.38409474E+02
 20
-2.92212370E+02
  0
VERTEX
  8
0
 62
6
 10
3.38448824E+02
 20
-2.92097489E+02
  0
VERTEX
  8
0
 62
6
 10
3.38477147E+02
 20
-2.91979889E+02
  0
VERTEX
  8
0
 62
6
 10
3.38494227E+02
 20
-2.91860464E+02
  0
VERTEX
  8
0
 62
6
 10
3.38499935E+02
 20
-2.91740123E+02
  0
SEQEND
  8
0
  0
POLYLINE
  8
0
 62
4
 66
1
  0
VERTEX
  8
0
 62
4
 10
3.38725167E+02
 20
-2.91904752E+02
  0
VERTEX
  8
0
 62
4
 10
3.38807021E+02
 20
-2.91762327E+02
  0
VERTEX
  8
0
 62
4
 10
3.38875033E+02
 20
-2.91613860E+02
  0
VERTEX
  8
0
 62
4
 10
3.38928682E+02
 20
-2.91460488E+02
  0
VERTEX
  8
0
 62
4
 10
3.38967557E+02
 20
-2.91303385E+02
  0
VERTEX
  8
0
 62
4
 10
3.38991360E+02
 20
-2.91143755E+02
  0
VERTEX
  8
0
 62
4
 10
3.38999909E+02
 20
-2.90982820E+02
  0
VERTEX
  8
0
 62
4
 10
3.38993138E+02
 20
-2.90821814E+02
  0
VERTEX
  8
0
 62
4
 10
3.38971100E+02
 20
-2.90661969E+02
  0
VERTEX
  8
0
 62
4
 10
3.38933962E+02
 20
-2.90504510E+02
  0
VERTEX
  8
0
 62
4
 10
3.38882011E+02
 20
-2.90350644E+02
  0
VERTEX
  8
0
 62
4
 10
3.38815642E+02
 20
-2.90201548E+02
  0
VERTEX
  8
0
 62
4
 10
3.38735365E+02
 20
-2.90058365E+02
  0
VERTEX
  8
0
 62
4
 10
3.38641795E+02
 20
-2.89922191E+02
  0
VERTEX
  8
0
 62
4
 10
3.38535649E+02
 20
-2.89794070E+02
  0
VERTEX
  8
0
 62
4
 10
3.38417739E+02
 20
-2.89674983E+02
  0
VERTEX
  8
0
 62
4
 10
3.38288969E+02
 20
-2.89565842E+02
  0
VERTEX
  8
0
 62
4
 10
3.38150325E+02
 20
-2.89467484E+02
  0
VERTEX
  8
0
 62
4
 10
3.38002869E+02
 20
-2.89380661E+02
  0
VERTEX
  8
0
 62
4
 10
3.37847731E+02
 20
-2.89306039E+02
  0
VERTEX
  8
0
 62
4
 10
3.37686098E+02
 20
-2.89244189E+02
  0
VERTEX
  8
0
 62
4
 10
3.37519210E+02
 20
-2.89195586E+02
  0
VERTEX
  8
0
 62
4
 10
3.37348344E+02
 20
-2.89160600E+02
  0
VERTEX
  8
0
 62
4
 10
3.37174809E+02
 20
-2.89139501E+02
  0
VERTEX
  8
0
 62
4
 10
3.36999935E+02
 20
-2.89132450E+02
  0
VERTEX
  8
0
 62
4
 10
3.36825061E+02
 20
-2.89139501E+02
  0
VERTEX
  8
0
 62
4
 10
3.36651526E+02
 20
-2.89160600E+02
  0
VERTEX
  8
0
 62
4
 10
3.36480660E+02
 20
-2.89195586E+02
  0
VERTEX
  8
0
 62
4
 10
3.36313772E+02
 20
-2.89244189E+02
  0
VERTEX
  8
0
 62
4
 10
3.36152139E+02
 20
-2.89306039E+02
  0
VERTEX
  8
0
 62
4
 10
3.35997001E+02
 20
-2.89380661E+02
  0
VERTEX
  8
0
 62
4
 10
3.35849545E+02
 20
-2.89467484E+02
  0
VERTEX
  8
0
 62
4
 10
3.35710901E+02
 20
-2.89565842E+02
  0
VERTEX
  8
0
 62
4
 10
3.35582131E+02
 20
-2.89674983E+02
  0
VERTEX
  8
0
 62
4
 10
3.35464221E+02
 20
-2.89794070E+02
  0
VERTEX
  8
0
 62
4
 10
3.35358075E+02
 20
-2.89922191E+02
  0
VERTEX
  8
0
 62
4
 10
3.35264505E+02
 20
-2.90058365E+02
  0
VERTEX
  8
0
 62
4
 10
3.35184228E+02
 20
-2.90201548E+02
  0
VERTEX
  8
0
 62
4
 10
3.35117859E+02
 20
-2.90350644E+02
  0
VERTEX
  8
0
 62
4
 10
3.35065908E+02
 20
-2.90504510E+02
  0
VERTEX
  8
0
 62
4
 10
3.35028770E+02
 20
-2.90661969E+02
  0
VERTEX
  8
0
 62
4
 10
3.35006732E+02
 20
-2.90821814E+02
  0
VERTEX
  8
0
 62
4
 10
3.34999961E+02
 20
-2.90982820E+02
  0
VERTEX
  8
0
 62
4
 10
3.35008510E+02
 20
-2.91143755E+02
  0
VERTEX
  8
0
 62
4
 10
3.35032313E+02
 20
-2.91303385E+02
  0
VERTEX
  8
0
 62
4
 10
3.35071188E+02
 20
-2.91460488E+02
  0
VERTEX
  8
0
 62
4
 10
3.35124837E+02
 20
-2.91613860E+02
  0
VERTEX
  8
0
 62
4
 10
3.35192849E+02
 20
-2.91762327E+02
  0
VERTEX
  8
0
 62
4
 10
3.35274703E+02
 20
-2.91904752E+02
  0
SEQEND
  8
0
  0
LINE
  8
0
 62
4
 10
3.33499935E+02
 20
-2.67440734E+02
 11
3.48499935E+02
 21
-2.67440734E+02
  0
LINE
  8
0
 62
4
 10
3.51191213E+02
 20
-2.79999985E+02
 11
3.52999935E+02
 21
-2.78486792E+02
  0
LINE
  8
0
 62
4
 10
3.13999935E+02
 20
-2.78486792E+02
 11
3.15808657E+02
 21
-2.79999985E+02
  0
LINE
  8
0
 62
4
 10
3.52999935E+02
 20
-2.77106035E+02
 11
3.48499935E+02
 21
-2.77106035E+02
  0
LINE
  8
0
 62
4
 10
3.33499935E+02
 20
-2.77106035E+02
 11
3.13999935E+02
 21
-2.77106035E+02
  0
LINE
  8
0
 62
4
 10
3.33499935E+02
 20
-2.56079767E+02
 11
3.15499935E+02
 21
-2.56079767E+02
  0
ARC
  8
0
 62
4
 10
3.15499944E+02
 20
-2.57579776E+02
 40
1.50000856E+00
 50
9.00003273E+01
 51
1.79999673E+02
  0
LINE
  8
0
 62
4
 10
3.51499935E+02
 20
-2.56079767E+02
 11
3.48499935E+02
 21
-2.56079767E+02
  0
ARC
  8
0
 62
4
 10
3.51499927E+02
 20
-2.57579776E+02
 40
1.50000856E+00
 50
3.27119593E-04
 51
8.99996730E+01
  0
LINE
  8
0
 62
4
 10
3.48499935E+02
 20
-2.30365322E+02
 11
3.33499935E+02
 21
-2.30365322E+02
  0
ARC
  8
0
 62
4
 10
3.15499944E+02
 20
-2.65003657E+02
 40
1.50000856E+00
 50
9.00003273E+01
 51
1.79999673E+02
  0
ARC
  8
0
 62
4
 10
3.48999949E+02
 20
-2.46318870E+02
 40
5.00013809E-01
 50
9.00015821E+01
 51
1.79998418E+02
  0
ARC
  8
0
 62
4
 10
3.57499923E+02
 20
-2.32318868E+02
 40
5.00011902E-01
 50
1.36383594E-03
 51
8.99986360E+01
  0
ARC
  8
0
 62
4
 10
3.57499947E+02
 20
-2.45318868E+02
 40
4.99988098E-01
 50
2.69998636E+02
 51
1.36386840E-03
  0
ARC
  8
0
 62
4
 10
3.51499927E+02
 20
-2.65003657E+02
 40
1.50000856E+00
 50
3.27119593E-04
 51
8.99996730E+01
  0
LINE
  8
0
 62
4
 10
3.13999935E+02
 20
-2.57579767E+02
 11
3.13999935E+02
 21
-2.78503648E+02
  0
LINE
  8
0
 62
4
 10
3.48499935E+02
 20
-2.58318405E+02
 11
3.33499935E+02
 21
-2.58318405E+02
  0
LINE
  8
0
 62
4
 10
3.31499935E+02
 20
-2.60020372E+02
 11
3.31499935E+02
 21
-2.63503648E+02
  0
LINE
  8
0
 62
4
 10
3.48499935E+02
 20
-2.30365322E+02
 11
3.48499935E+02
 21
-2.60020372E+02
  0
LINE
  8
0
 62
4
 10
3.33499935E+02
 20
-2.30365322E+02
 11
3.33499935E+02
 21
-2.60020372E+02
  0
LINE
  8
0
 62
4
 10
3.50499935E+02
 20
-2.60020372E+02
 11
3.50499935E+02
 21
-2.63503648E+02
  0
LINE
  8
0
 62
4
 10
3.52999935E+02
 20
-2.78486792E+02
 11
3.48499935E+02
 21
-2.78486792E+02
  0
LINE
  8
0
 62
4
 10
3.52999935E+02
 20
-2.57579767E+02
 11
3.52999935E+02
 21
-2.78503648E+02
  0
LINE
  8
0
 62
4
 10
3.50499935E+02
 20
-2.60020372E+02
 11
3.31499935E+02
 21
-2.60020372E+02
  0
LINE
  8
0
 62
4
 10
3.48499935E+02
 20
-2.36226289E+02
 11
3.33499935E+02
 21
-2.36226289E+02
  0
LINE
  8
0
 62
4
 10
3.33499935E+02
 20
-2.78486792E+02
 11
3.13999935E+02
 21
-2.78486792E+02
  0
LINE
  8
0
 62
4
 10
3.57499935E+02
 20
-2.45818856E+02
 11
3.48999935E+02
 21
-2.45818856E+02
  0
LINE
  8
0
 62
4
 10
3.61499935E+02
 20
-2.44568856E+02
 11
3.57999935E+02
 21
-2.44568856E+02
  0
LINE
  8
0
 62
4
 10
3.61499935E+02
 20
-2.32568856E+02
 11
3.61499935E+02
 21
-2.45068856E+02
  0
LINE
  8
0
 62
4
 10
3.62999935E+02
 20
-2.45068856E+02
 11
3.57999935E+02
 21
-2.45068856E+02
  0
LINE
  8
0
 62
4
 10
3.62999935E+02
 20
-2.32568856E+02
 11
3.57999935E+02
 21
-2.32568856E+02
  0
LINE
  8
0
 62
4
 10
3.62999935E+02
 20
-2.31915048E+02
 11
3.62999935E+02
 21
-2.45731826E+02
  0
LINE
  8
0
 62
4
 10
3.67999935E+02
 20
-2.31915048E+02
 11
3.67999935E+02
 21
-2.45731826E+02
  0
LINE
  8
0
 62
4
 10
3.57999935E+02
 20
-2.32318856E+02
 11
3.57999935E+02
 21
-2.45318856E+02
  0
LINE
  8
0
 62
4
 10
3.48499935E+02
 20
-2.31818856E+02
 11
3.57499935E+02
 21
-2.31818856E+02
  0
LINE
  8
0
 62
4
 10
3.67999935E+02
 20
-2.31915048E+02
 11
3.62999935E+02
 21
-2.31915048E+02
  0
LINE
  8
0
 62
4
 10
3.51499935E+02
 20
-2.63503648E+02
 11
3.15499935E+02
 21
-2.63503648E+02
  0
LINE
  8
0
 62
4
 10
3.61499935E+02
 20
-2.33068856E+02
 11
3.57999935E+02
 21
-2.33068856E+02
  0
LINE
  8
0
  6
CENTER
 62
6
 10
3.31999935E+02
 20
-2.91740123E+02
 11
3.49999935E+02
 21
-2.91740123E+02
  0
LINE
  8
0
  6
CENTER
 62
6
 10
3.36999935E+02
 20
-2.86740123E+02
 11
3.36999935E+02
 21
-2.96740123E+02
  0
LINE
  8
0
  6
CENTER
 62
6
 10
3.44999935E+02
 20
-2.86740123E+02
 11
3.44999935E+02
 21
-2.96740123E+02
  0
LINE
  8
0
 62
4
 10
3.33499935E+02
 20
-2.67440734E+02
 11
3.33499935E+02
 21
-2.95109131E+02
  0
LINE
  8
0
 62
4
 10
3.48499935E+02
 20
-2.67440734E+02
 11
3.48499935E+02
 21
-2.95109131E+02
  0
LINE
  8
0
 62
4
 10
3.34499935E+02
 20
-2.84137925E+02
 11
3.47499935E+02
 21
-2.84137925E+02
  0
LINE
  8
0
 62
4
 10
3.33499935E+02
 20
-2.95109131E+02
 11
3.48499935E+02
 21
-2.95109131E+02
  0
LINE
  8
0
 62
4
 10
3.33499935E+02
 20
-2.70173498E+02
 11
3.48499935E+02
 21
-2.70173498E+02
  0
ARC
  8
0
 62
7
 10
7.79999809E+01
 20
-2.76500015E+02
 40
4.00000000E+00
 50
9.00000179E+01
 51
1.80000000E+02
  0
ARC
  8
0
 62
7
 10
1.64000011E+02
 20
-2.76500000E+02
 40
4.00000000E+00
 50
2.23118003E-05
 51
8.99999773E+01
  0
LINE
  8
0
  6
CENTER
 62
2
 10
1.31999950E+02
 20
-2.97500015E+02
 11
1.31999950E+02
 21
-2.69926575E+02
  0
LINE
  8
0
  6
CENTER
 62
2
 10
1.04999981E+02
 20
-2.69923096E+02
 11
1.04999981E+02
 21
-3.02354279E+02
  0
LINE
  8
0
  6
CENTER
 62
2
 10
8.60000420E+01
 20
-2.70127304E+02
 11
8.60000420E+01
 21
-2.99864227E+02
  0
LINE
  8
0
  6
CENTER
 62
2
 10
1.56000042E+02
 20
-2.70314651E+02
 11
1.56000042E+02
 21
-2.99038361E+02
  0
LINE
  8
0
  6
CENTER
 62
2
 10
1.20999950E+02
 20
-2.67965240E+02
 11
1.20999950E+02
 21
-3.19500000E+02
  0
LINE
  8
0
  6
CENTER
 62
2
 10
1.71464092E+02
 20
-3.05499939E+02
 11
1.68000042E+02
 21
-3.05499939E+02
  0
LINE
  8
0
 62
7
 10
1.68399944E+02
 20
-3.09249939E+02
 11
1.68000042E+02
 21
-3.09249939E+02
  0
LINE
  8
0
 62
7
 10
1.68399944E+02
 20
-3.01749939E+02
 11
1.68000042E+02
 21
-3.01749939E+02
  0
LINE
  8
0
 62
7
 10
1.68400036E+02
 20
-3.09249939E+02
 11
1.68000042E+02
 21
-3.09249939E+02
  0
LINE
  8
0
 62
7
 10
1.70599957E+02
 20
-3.07100006E+02
 11
1.70599957E+02
 21
-3.03899963E+02
  0
LINE
  8
0
  6
CENTER
 62
2
 10
1.70555462E+02
 20
-2.84499985E+02
 11
1.41309032E+02
 21
-2.84499985E+02
  0
LINE
  8
0
 62
7
 10
1.68000042E+02
 20
-3.19500000E+02
 11
1.68000042E+02
 21
-2.76500000E+02
  0
LINE
  8
0
 62
7
 10
7.40000420E+01
 20
-3.19500000E+02
 11
7.40000420E+01
 21
-2.76500015E+02
  0
LINE
  8
0
  6
CENTER
 62
2
 10
1.00222118E+02
 20
-2.84499985E+02
 11
7.10123100E+01
 21
-2.84499985E+02
  0
LINE
  8
0
  6
CENTER
 62
2
 10
6.91692924E+01
 20
-3.19500000E+02
 11
1.72945995E+02
 21
-3.19500000E+02
  0
LINE
  8
0
 62
7
 10
1.56000048E+02
 20
-2.78726475E+02
 11
1.61000076E+02
 21
-2.81613232E+02
  0
LINE
  8
0
 62
7
 10
1.61000072E+02
 20
-2.81613235E+02
 11
1.61000072E+02
 21
-2.87386734E+02
  0
LINE
  8
0
 62
7
 10
1.56000080E+02
 20
-2.90273476E+02
 11
1.61000081E+02
 21
-2.87386735E+02
  0
LINE
  8
0
 62
7
 10
1.51000047E+02
 20
-2.87386764E+02
 11
1.56000048E+02
 21
-2.90273505E+02
  0
LINE
  8
0
 62
7
 10
1.51000042E+02
 20
-2.81613235E+02
 11
1.51000042E+02
 21
-2.87386734E+02
  0
LINE
  8
0
 62
7
 10
1.56000035E+02
 20
-2.78726490E+02
 11
1.51000034E+02
 21
-2.81613231E+02
  0
LINE
  8
0
 62
7
 10
8.60000264E+01
 20
-2.78726472E+02
 11
9.10000408E+01
 21
-2.81613221E+02
  0
LINE
  8
0
 62
7
 10
9.10000420E+01
 20
-2.81613235E+02
 11
9.10000420E+01
 21
-2.87386734E+02
  0
LINE
  8
0
 62
7
 10
8.60000907E+01
 20
-2.90273474E+02
 11
9.10000918E+01
 21
-2.87386733E+02
  0
LINE
  8
0
 62
7
 10
8.09999991E+01
 20
-2.87386746E+02
 11
8.60000266E+01
 21
-2.90273502E+02
  0
LINE
  8
0
 62
7
 10
8.10000114E+01
 20
-2.81613235E+02
 11
8.10000114E+01
 21
-2.87386734E+02
  0
LINE
  8
0
 62
7
 10
8.60000154E+01
 20
-2.78726497E+02
 11
8.10000143E+01
 21
-2.81613238E+02
  0
CIRCLE
  8
0
 62
2
 10
1.56000042E+02
 20
-2.84499985E+02
 40
5.00000000E+00
  0
ARC
  8
0
 62
7
 10
1.68122509E+02
 20
-3.04234474E+02
 40
2.50000000E+00
 50
3.52308615E+02
 51
8.36271917E+01
  0
ARC
  8
0
 62
7
 10
1.68122509E+02
 20
-3.06765358E+02
 40
2.50000000E+00
 50
2.70000037E+02
 51
3.52308598E+02
  0
CIRCLE
  8
0
 62
7
 10
1.56000042E+02
 20
-2.84499985E+02
 40
4.18000031E+00
  0
CIRCLE
  8
0
 62
7
 10
1.56000042E+02
 20
-2.84500015E+02
 40
8.00000000E+00
  0
ARC
  8
0
 62
7
 10
1.20999981E+02
 20
-3.19499908E+02
 40
2.20000000E+01
 50
0.00000000E+00
 51
1.80000239E+02
  0
CIRCLE
  8
0
 62
7
 10
1.56000042E+02
 20
-2.84500015E+02
 40
8.50000000E+00
  0
CIRCLE
  8
0
 62
7
 10
8.60000420E+01
 20
-2.84500015E+02
 40
8.50000000E+00
  0
CIRCLE
  8
0
 62
7
 10
8.60000420E+01
 20
-2.84500015E+02
 40
8.00000000E+00
  0
CIRCLE
  8
0
 62
2
 10
8.60000420E+01
 20
-2.84499985E+02
 40
5.00000000E+00
  0
CIRCLE
  8
0
 62
7
 10
8.60000420E+01
 20
-2.84499985E+02
 40
4.18000031E+00
  0
LINE
  8
0
 62
7
 10
1.63999920E+02
 20
-2.72499985E+02
 11
7.79999809E+01
 21
-2.72500015E+02
  0
LINE
  8
0
 62
7
 10
-3.71568434E+02
 20
-1.23231798E+01
 11
4.20431566E+02
 21
-1.23231798E+01
  0
LINE
  8
0
 62
7
 10
-3.71568434E+02
 20
-4.23231798E+01
 11
4.20431566E+02
 21
-4.23231798E+01
  0
LINE
  8
0
 62
7
 10
-3.71568434E+02
 20
-4.23231798E+01
 11
-3.71568434E+02
 21
-1.23231798E+01
  0
TEXT
  8
0
 62
7
 10
-3.61283121E+02
 20
-2.43231798E+01
 40
9.00000000E+00
  1
STROKE
 41
1.00000000E+00
  7
MONOTXT
  0
TEXT
  8
0
 62
7
 10
-3.65783121E+02
 20
-3.93231798E+01
 40
9.00000000E+00
  1
STRETCH
 41
1.00000000E+00
  7
MONOTXT
  0
LINE
  8
0
 62
7
 10
-3.71568434E+02
 20
-2.73231798E+01
 11
4.20431566E+02
 21
-2.73231798E+01
  0
LINE
  8
0
 62
7
 10
-2.99568434E+02
 20
-4.23231798E+01
 11
-2.99568434E+02
 21
-1.23231798E+01
  0
LINE
  8
0
 62
7
 10
-2.54568434E+02
 20
-4.23231798E+01
 11
-2.54568434E+02
 21
-1.23231798E+01
  0
LINE
  8
0
 62
7
 10
-2.09568434E+02
 20
-4.23231798E+01
 11
-2.09568434E+02
 21
-1.23231798E+01
  0
LINE
  8
0
 62
7
 10
-1.64568434E+02
 20
-4.23231798E+01
 11
-1.64568434E+02
 21
-1.23231798E+01
  0
LINE
  8
0
 62
7
 10
-1.19568434E+02
 20
-4.23231798E+01
 11
-1.19568434E+02
 21
-1.23231798E+01
  0
LINE
  8
0
 62
7
 10
-7.45684344E+01
 20
-4.23231798E+01
 11
-7.45684344E+01
 21
-1.23231798E+01
  0
LINE
  8
0
 62
7
 10
-2.95684344E+01
 20
-4.23231798E+01
 11
-2.95684344E+01
 21
-1.23231798E+01
  0
LINE
  8
0
 62
7
 10
1.54315656E+01
 20
-4.23231798E+01
 11
1.54315656E+01
 21
-1.23231798E+01
  0
LINE
  8
0
 62
7
 10
6.04315656E+01
 20
-4.23231798E+01
 11
6.04315656E+01
 21
-1.23231798E+01
  0
LINE
  8
0
 62
7
 10
1.05431566E+02
 20
-4.23231798E+01
 11
1.05431566E+02
 21
-1.23231798E+01
  0
LINE
  8
0
 62
7
 10
1.50431566E+02
 20
-4.23231798E+01
 11
1.50431566E+02
 21
-1.23231798E+01
  0
LINE
  8
0
 62
7
 10
1.95431566E+02
 20
-4.23231798E+01
 11
1.95431566E+02
 21
-1.23231798E+01
  0
LINE
  8
0
 62
7
 10
2.40431566E+02
 20
-4.23231798E+01
 11
2.40431566E+02
 21
-1.23231798E+01
  0
LINE
  8
0
 62
7
 10
2.85431566E+02
 20
-4.23231798E+01
 11
2.85431566E+02
 21
-1.23231798E+01
  0
LINE
  8
0
 62
7
 10
3.30431566E+02
 20
-4.23231798E+01
 11
3.30431566E+02
 21
-1.23231798E+01
  0
LINE
  8
0
 62
7
 10
3.75431566E+02
 20
-4.23231798E+01
 11
3.75431566E+02
 21
-1.23231798E+01
  0
LINE
  8
0
 62
7
 10
4.20431566E+02
 20
-4.23231798E+01
 11
4.20431566E+02
 21
-1.23231798E+01
  0
TEXT
  8
0
 62
7
 10
-2.85084059E+02
 20
-2.43231798E+01
 40
9.00000000E+00
  1
50
 41
1.00000000E+00
  7
MONOTXT
  0
TEXT
  8
0
 62
7
 10
-2.40084059E+02
 20
-2.43231798E+01
 40
9.00000000E+00
  1
75
 41
1.00000000E+00
  7
MONOTXT
  0
TEXT
  8
0
 62
7
 10
-1.99584059E+02
 20
-2.43231798E+01
 40
9.00000000E+00
  1
100
 41
1.00000000E+00
  7
MONOTXT
  0
TEXT
  8
0
 62
7
 10
-1.54584059E+02
 20
-2.43231798E+01
 40
9.00000000E+00
  1
150
 41
1.00000000E+00
  7
MONOTXT
  0
TEXT
  8
0
 62
7
 10
-1.09584059E+02
 20
-2.43231798E+01
 40
9.00000000E+00
  1
200
 41
1.00000000E+00
  7
MONOTXT
  0
TEXT
  8
0
 62
7
 10
-6.45840594E+01
 20
-2.43231798E+01
 40
9.00000000E+00
  1
250
 41
1.00000000E+00
  7
MONOTXT
  0
TEXT
  8
0
 62
7
 10
-1.95840594E+01
 20
-2.43231798E+01
 40
9.00000000E+00
  1
300
 41
1.00000000E+00
  7
MONOTXT
  0
TEXT
  8
0
 62
7
 10
2.54159406E+01
 20
-2.43231798E+01
 40
9.00000000E+00
  1
350
 41
1.00000000E+00
  7
MONOTXT
  0
TEXT
  8
0
 62
7
 10
7.04159406E+01
 20
-2.43231798E+01
 40
9.00000000E+00
  1
400
 41
1.00000000E+00
  7
MONOTXT
  0
TEXT
  8
0
 62
7
 10
1.15415941E+02
 20
-2.43231798E+01
 40
9.00000000E+00
  1
450
 41
1.00000000E+00
  7
MONOTXT
  0
TEXT
  8
0
 62
7
 10
1.60415941E+02
 20
-2.43231798E+01
 40
9.00000000E+00
  1
500
 41
1.00000000E+00
  7
MONOTXT
  0
TEXT
  8
0
 62
7
 10
2.05415941E+02
 20
-2.43231798E+01
 40
9.00000000E+00
  1
600
 41
1.00000000E+00
  7
MONOTXT
  0
TEXT
  8
0
 62
7
 10
2.50415941E+02
 20
-2.43231798E+01
 40
9.00000000E+00
  1
700
 41
1.00000000E+00
  7
MONOTXT
  0
TEXT
  8
0
 62
7
 10
2.95415941E+02
 20
-2.43231798E+01
 40
9.00000000E+00
  1
800
 41
1.00000000E+00
  7
MONOTXT
  0
TEXT
  8
0
 62
7
 10
3.40415941E+02
 20
-2.43231798E+01
 40
9.00000000E+00
  1
900
 41
1.00000000E+00
  7
MONOTXT
  0
TEXT
  8
0
 62
7
 10
3.80915941E+02
 20
-2.43231798E+01
 40
9.00000000E+00
  1
1000
 41
1.00000000E+00
  7
MONOTXT
  0
TEXT
  8
0
 62
7
 10
-2.89584059E+02
 20
-3.93231798E+01
 40
9.00000000E+00
  1
-25
 41
1.00000000E+00
  7
MONOTXT
  0
TEXT
  8
0
 62
7
 10
-2.35584059E+02
 20
-3.93231798E+01
 40
9.00000000E+00
  1
0
 41
1.00000000E+00
  7
MONOTXT
  0
TEXT
  8
0
 62
7
 10
-1.95084059E+02
 20
-3.93231798E+01
 40
9.00000000E+00
  1
25
 41
1.00000000E+00
  7
MONOTXT
  0
TEXT
  8
0
 62
7
 10
-1.50084059E+02
 20
-3.93231798E+01
 40
9.00000000E+00
  1
75
 41
1.00000000E+00
  7
MONOTXT
  0
TEXT
  8
0
 62
7
 10
-1.09584059E+02
 20
-3.93231798E+01
 40
9.00000000E+00
  1
125
 41
1.00000000E+00
  7
MONOTXT
  0
TEXT
  8
0
 62
7
 10
-6.45840594E+01
 20
-3.93231798E+01
 40
9.00000000E+00
  1
175
 41
1.00000000E+00
  7
MONOTXT
  0
TEXT
  8
0
 62
7
 10
-1.95840594E+01
 20
-3.93231798E+01
 40
9.00000000E+00
  1
225
 41
1.00000000E+00
  7
MONOTXT
  0
TEXT
  8
0
 62
7
 10
2.54159406E+01
 20
-3.93231798E+01
 40
9.00000000E+00
  1
275
 41
1.00000000E+00
  7
MONOTXT
  0
TEXT
  8
0
 62
7
 10
7.04159406E+01
 20
-3.93231798E+01
 40
9.00000000E+00
  1
325
 41
1.00000000E+00
  7
MONOTXT
  0
TEXT
  8
0
 62
7
 10
1.15415941E+02
 20
-3.93231798E+01
 40
9.00000000E+00
  1
375
 41
1.00000000E+00
  7
MONOTXT
  0
TEXT
  8
0
 62
7
 10
1.60415941E+02
 20
-3.93231798E+01
 40
9.00000000E+00
  1
425
 41
1.00000000E+00
  7
MONOTXT
  0
TEXT
  8
0
 62
7
 10
2.05415941E+02
 20
-3.93231798E+01
 40
9.00000000E+00
  1
525
 41
1.00000000E+00
  7
MONOTXT
  0
TEXT
  8
0
 62
7
 10
2.50415941E+02
 20
-3.93231798E+01
 40
9.00000000E+00
  1
625
 41
1.00000000E+00
  7
MONOTXT
  0
TEXT
  8
0
 62
7
 10
2.95415941E+02
 20
-3.93231798E+01
 40
9.00000000E+00
  1
725
 41
1.00000000E+00
  7
MONOTXT
  0
TEXT
  8
0
 62
7
 10
3.40415941E+02
 20
-3.93231798E+01
 40
9.00000000E+00
  1
825
 41
1.00000000E+00
  7
MONOTXT
  0
TEXT
  8
0
 62
7
 10
3.85415941E+02
 20
-3.93231798E+01
 40
9.00000000E+00
  1
925
 41
1.00000000E+00
  7
MONOTXT
  0
TEXT
  8
0
 62
7
 10
-2.85840594E+01
 20
-6.82317980E+00
 40
9.00000000E+00
  1
STRETCH LIST
 41
1.05263158E+00
  7
MONOTXT
  0
TEXT
  8
0
 62
7
 10
3.77415941E+02
 20
-6.82317980E+00
 40
9.00000000E+00
  1
(mm)
 41
1.00000000E+00
  7
MONOTXT
  0
LINE
  8
0
 62
7
 10
7.04599703E+00
 20
-2.89000000E+02
 11
-5.80000648E+01
 21
-2.89000000E+02
  0
LINE
  8
0
 62
7
 10
1.22421583E+01
 20
-2.79999985E+02
 11
-5.80000648E+01
 21
-2.79999985E+02
  0
LINE
  8
0
 62
7
 10
1.45515505E+01
 20
-2.76000000E+02
 11
-5.80000648E+01
 21
-2.76000000E+02
  0
LINE
  8
0
 62
7
 10
-3.33685154E+01
 20
-1.79000015E+02
 11
-5.80000343E+01
 21
-1.79000015E+02
  0
LINE
  8
0
 62
7
 10
-3.56779253E+01
 20
-1.83000031E+02
 11
-5.80000343E+01
 21
-1.83000031E+02
  0
LINE
  8
0
 62
7
 10
-2.81723629E+01
 20
-1.70000015E+02
 11
-5.80000343E+01
 21
-1.70000015E+02
  0
LINE
  8
0
 62
7
 10
-4.65000343E+01
 20
-9.59999695E+01
 11
-5.80000343E+01
 21
-9.59999695E+01
  0
LINE
  8
0
 62
7
 10
-4.65000343E+01
 20
-1.00000000E+02
 11
-5.80000343E+01
 21
-1.00000000E+02
  0
LINE
  8
0
 62
2
 10
-1.69000050E+02
 20
-3.09319992E+02
 11
-1.57000050E+02
 21
-3.09319992E+02
  0
LINE
  8
0
 62
7
 10
-1.69000050E+02
 20
-3.08499977E+02
 11
-1.57000050E+02
 21
-3.08499977E+02
  0
LINE
  8
0
 62
2
 10
-1.69000050E+02
 20
-1.49679977E+02
 11
-1.57000034E+02
 21
-1.49679977E+02
  0
LINE
  8
0
 62
7
 10
-1.69000050E+02
 20
-1.50500000E+02
 11
-1.57000034E+02
 21
-1.50500000E+02
  0
LINE
  8
0
 62
2
 10
-1.69000050E+02
 20
-1.29319977E+02
 11
-1.57000034E+02
 21
-1.29319977E+02
  0
LINE
  8
0
 62
7
 10
-1.69000050E+02
 20
-1.28499969E+02
 11
-1.57000034E+02
 21
-1.28499969E+02
  0
LINE
  8
0
 62
4
 10
-3.75000084E+02
 20
-3.10262419E+02
 11
-3.59000022E+02
 21
-3.01024777E+02
  0
LINE
  8
0
 62
4
 10
-3.58999989E+02
 20
-3.01024778E+02
 11
-3.43000016E+02
 21
-3.10262359E+02
  0
LINE
  8
0
 62
4
 10
-3.75000050E+02
 20
-3.10262390E+02
 11
-3.75000050E+02
 21
-3.19500000E+02
  0
LINE
  8
0
 62
4
 10
-3.43000050E+02
 20
-3.10262390E+02
 11
-3.43000050E+02
 21
-3.19500000E+02
  0
ARC
  8
0
 62
7
 10
-3.59000050E+02
 20
-3.19500000E+02
 40
1.10000000E+01
 50
0.00000000E+00
 51
1.80000000E+02
  0
ARC
  8
0
 62
4
 10
-3.59000050E+02
 20
-3.19500000E+02
 40
1.60000000E+01
 50
0.00000000E+00
 51
1.80000000E+02
  0
LINE
  8
0
 62
4
 10
-1.80570987E+02
 20
-3.01041833E+02
 11
-1.70429111E+02
 21
-3.01041833E+02
  0
LINE
  8
0
 62
4
 10
-1.82000049E+02
 20
-3.03517053E+02
 11
-1.82000049E+02
 21
-3.19500000E+02
  0
LINE
  8
0
 62
4
 10
-1.69000050E+02
 20
-3.03517053E+02
 11
-1.69000050E+02
 21
-3.19500000E+02
  0
LINE
  8
0
 62
4
 10
-1.82000066E+02
 20
-3.03517054E+02
 11
-1.80570983E+02
 21
-3.01041837E+02
  0
LINE
  8
0
 62
4
 10
-1.70429130E+02
 20
-3.01041881E+02
 11
-1.69000057E+02
 21
-3.03517069E+02
  0
LINE
  8
0
 62
4
 10
-1.80570987E+02
 20
-3.10517057E+02
 11
-1.70429111E+02
 21
-3.10517057E+02
  0
ARC
  8
0
 62
4
 10
-1.98054845E+02
 20
-3.19517057E+02
 40
2.90548000E+01
 50
3.36363131E-02
 51
1.80446768E+01
  0
ARC
  8
0
 62
4
 10
-1.77562652E+02
 20
-3.05779447E+02
 40
8.56342793E+00
 50
3.26410605E+02
 51
3.35892584E+01
  0
ARC
  8
0
 62
4
 10
-1.52945249E+02
 20
-3.19517057E+02
 40
2.90548000E+01
 50
1.61955287E+02
 51
1.79966364E+02
  0
ARC
  8
0
 62
4
 10
-1.73437447E+02
 20
-3.05779447E+02
 40
8.56342793E+00
 50
1.46410665E+02
 51
2.13589318E+02
  0
LINE
  8
0
 62
4
 10
-1.82000050E+02
 20
-1.55500000E+02
 11
-1.69000050E+02
 21
-1.55500000E+02
  0
LINE
  8
0
 62
4
 10
-1.82000050E+02
 20
-1.23500000E+02
 11
-1.69000050E+02
 21
-1.23500000E+02
  0
LINE
  8
0
 62
4
 10
-1.82000050E+02
 20
-1.23500000E+02
 11
-1.82000050E+02
 21
-1.55500000E+02
  0
LINE
  8
0
 62
4
 10
-1.69000050E+02
 20
-1.23500000E+02
 11
-1.69000050E+02
 21
-1.55500000E+02
  0
ARC
  8
0
 62
4
 10
-1.58893263E+02
 20
-1.31500000E+02
 40
2.31067870E+01
 50
1.59743797E+02
 51
2.00256203E+02
  0
ARC
  8
0
 62
4
 10
-1.58893263E+02
 20
-1.47500000E+02
 40
2.31067870E+01
 50
1.59743797E+02
 51
2.00256203E+02
  0
ARC
  8
0
 62
4
 10
-1.92106837E+02
 20
-1.31500000E+02
 40
2.31067870E+01
 50
3.39743797E+02
 51
2.02562028E+01
  0
ARC
  8
0
 62
4
 10
-1.92106837E+02
 20
-1.47500000E+02
 40
2.31067870E+01
 50
3.39743797E+02
 51
2.02562028E+01
  0
LINE
  8
0
 62
4
 10
-1.80570984E+02
 20
-1.39500000E+02
 11
-1.70429115E+02
 21
-1.39500000E+02
  0
CIRCLE
  8
0
 62
7
 10
-9.50000038E+01
 20
-1.28500000E+02
 40
1.10000000E+01
  0
CIRCLE
  8
0
 62
2
 10
-9.50000343E+01
 20
-1.28500000E+02
 40
1.04775009E+01
  0
CIRCLE
  8
0
 62
7
 10
-9.50000038E+01
 20
-1.28499939E+02
 40
9.25000000E+00
  0
ARC
  8
0
 62
2
 10
-3.59000050E+02
 20
-3.19500000E+02
 40
1.01800117E+01
 50
0.00000000E+00
 51
1.80000000E+02
  0
ARC
  8
0
 62
7
 10
-1.54500080E+02
 20
-3.19500015E+02
 40
1.25000010E+01
 50
6.99411317E-05
 51
3.28596884E+01
  0
ARC
  8
0
 62
7
 10
-1.34000050E+02
 20
-2.99000015E+02
 40
1.00000000E+00
 50
8.99999274E+01
 51
1.79999964E+02
  0
ARC
  8
0
 62
7
 10
-1.34000019E+02
 20
-1.19000031E+02
 40
1.00000000E+00
 50
8.99999274E+01
 51
1.79999964E+02
  0
ARC
  8
0
 62
7
 10
-1.34000019E+02
 20
-1.60000000E+02
 40
1.00000000E+00
 50
1.79999977E+02
 51
2.70000028E+02
  0
ARC
  8
0
 62
7
 10
-3.59000080E+02
 20
-3.19499908E+02
 40
1.90000000E+01
 50
0.00000000E+00
 51
1.80000276E+02
  0
ARC
  8
0
 62
7
 10
-1.07734592E+02
 20
-9.23775024E+01
 40
2.50000000E+00
 50
6.37281240E+00
 51
9.76913896E+01
  0
ARC
  8
0
 62
7
 10
-1.10265476E+02
 20
-9.23775024E+01
 40
2.50000000E+00
 50
9.76913759E+01
 51
1.79999951E+02
  0
ARC
  8
0
 62
7
 10
-7.97345619E+01
 20
-9.23775024E+01
 40
2.50000000E+00
 50
6.37281240E+00
 51
9.76913896E+01
  0
ARC
  8
0
 62
7
 10
-8.22654457E+01
 20
-9.23775024E+01
 40
2.50000000E+00
 50
9.76913759E+01
 51
1.79999951E+02
  0
CIRCLE
  8
0
 62
7
 10
-3.24000141E+02
 20
-2.84499985E+02
 40
4.18000031E+00
  0
CIRCLE
  8
0
 62
2
 10
-3.24000141E+02
 20
-2.84499985E+02
 40
5.00000000E+00
  0
CIRCLE
  8
0
 62
7
 10
-3.24000141E+02
 20
-2.84500015E+02
 40
8.00000000E+00
  0
ARC
  8
0
 62
7
 10
-3.16000080E+02
 20
-2.76500015E+02
 40
4.00000000E+00
 50
0.00000000E+00
 51
8.99999818E+01
  0
CIRCLE
  8
0
 62
7
 10
-3.24000141E+02
 20
-2.84500015E+02
 40
8.50000000E+00
  0
CIRCLE
  8
0
 62
7
 10
-3.94000141E+02
 20
-2.84500015E+02
 40
8.50000000E+00
  0
ARC
  8
0
  6
DASHED
 62
7
 10
-9.50000496E+01
 20
-3.19500000E+02
 40
2.30000000E+01
 50
1.40246843E+02
 51
1.80000000E+02
  0
CIRCLE
  8
0
  6
DASHED
 62
7
 10
-8.10000343E+01
 20
-3.05499985E+02
 40
3.75000000E+00
  0
CIRCLE
  8
0
  6
DASHED
 62
7
 10
-1.09000065E+02
 20
-3.05499985E+02
 40
3.75000000E+00
  0
ARC
  8
0
  6
DASHED
 62
7
 10
-9.50000496E+01
 20
-3.19500000E+02
 40
2.30000000E+01
 50
5.02468330E+01
 51
1.29753077E+02
  0
CIRCLE
  8
0
 62
7
 10
-6.50000343E+01
 20
-1.55500031E+02
 40
2.59999990E+00
  0
ARC
  8
0
 62
7
 10
-6.50000343E+01
 20
-1.55500031E+02
 40
5.00000000E+00
 50
1.79999977E+02
 51
1.00179127E-05
  0
ARC
  8
0
 62
7
 10
-6.50000343E+01
 20
-1.55500031E+02
 40
5.00000000E+00
 50
0.00000000E+00
 51
1.79999964E+02
  0
ARC
  8
0
 62
7
 10
-3.59000080E+02
 20
-3.19499908E+02
 40
2.15000000E+01
 50
0.00000000E+00
 51
1.80000244E+02
  0
ARC
  8
0
 62
7
 10
-3.59000080E+02
 20
-3.19499908E+02
 40
1.95000000E+01
 50
0.00000000E+00
 51
1.80000269E+02
  0
ARC
  8
0
 62
7
 10
-3.59000080E+02
 20
-3.19499908E+02
 40
2.20000000E+01
 50
0.00000000E+00
 51
1.80000239E+02
  0
ARC
  8
0
 62
7
 10
-4.02000111E+02
 20
-2.76500000E+02
 40
4.00000000E+00
 50
9.00000231E+01
 51
1.79999977E+02
  0
CIRCLE
  8
0
 62
7
 10
-3.94000141E+02
 20
-2.84500015E+02
 40
8.00000000E+00
  0
CIRCLE
  8
0
 62
7
 10
-3.94000141E+02
 20
-2.84499985E+02
 40
4.18000031E+00
  0
ARC
  8
0
  6
DASHED
 62
2
 10
-9.50000496E+01
 20
-3.19500000E+02
 40
2.50000000E+00
 50
0.00000000E+00
 51
1.80000000E+02
  0
ARC
  8
0
  6
DASHED
 62
7
 10
-9.50000496E+01
 20
-3.19500000E+02
 40
2.00000000E+00
 50
0.00000000E+00
 51
1.80000000E+02
  0
ARC
  8
0
 62
7
 10
-4.06122608E+02
 20
-3.06765358E+02
 40
2.50000000E+00
 50
1.87691403E+02
 51
2.69999963E+02
  0
ARC
  8
0
 62
7
 10
-4.06122608E+02
 20
-3.04234474E+02
 40
2.50000000E+00
 50
9.63728081E+01
 51
1.87691385E+02
  0
CIRCLE
  8
0
 62
2
 10
-3.94000141E+02
 20
-2.84499985E+02
 40
5.00000000E+00
  0
LINE
  8
0
  6
CENTER
 62
2
 10
-8.12977028E+01
 20
-1.28500031E+02
 11
-1.09094959E+02
 21
-1.28500031E+02
  0
LINE
  8
0
  6
CENTER
 62
2
 10
-9.50000343E+01
 20
-1.42605835E+02
 11
-9.50000343E+01
 21
-1.14676727E+02
  0
LINE
  8
0
  6
CENTER
 62
2
 10
-9.50000496E+01
 20
-2.85199966E+02
 11
-9.50000496E+01
 21
-2.70047363E+02
  0
LINE
  8
0
 62
7
 10
-1.57000034E+02
 20
-1.49679977E+02
 11
-1.54000034E+02
 21
-1.49679977E+02
  0
LINE
  8
0
 62
7
 10
-1.57000034E+02
 20
-1.29319977E+02
 11
-1.54000034E+02
 21
-1.29319977E+02
  0
LINE
  8
0
 62
7
 10
-1.44000171E+02
 20
-1.28999888E+02
 11
-1.42000213E+02
 21
-1.26999930E+02
  0
LINE
  8
0
 62
7
 10
-1.44000085E+02
 20
-1.50000019E+02
 11
-1.42000040E+02
 21
-1.52000064E+02
  0
LINE
  8
0
 62
7
 10
-1.54000050E+02
 20
-1.50000000E+02
 11
-1.44000095E+02
 21
-1.50000000E+02
  0
LINE
  8
0
 62
7
 10
-1.54000050E+02
 20
-1.29000000E+02
 11
-1.44000202E+02
 21
-1.29000000E+02
  0
LINE
  8
0
 62
2
 10
-1.93320057E+02
 20
-1.49679977E+02
 11
-1.82000050E+02
 21
-1.49679977E+02
  0
LINE
  8
0
 62
7
 10
-1.94000044E+02
 20
-1.48999922E+02
 11
-1.92500053E+02
 21
-1.50499913E+02
  0
LINE
  8
0
 62
7
 10
-1.92500111E+02
 20
-1.50500000E+02
 11
-1.82000050E+02
 21
-1.50500000E+02
  0
LINE
  8
0
 62
2
 10
-1.93320057E+02
 20
-1.29319977E+02
 11
-1.82000050E+02
 21
-1.29319977E+02
  0
LINE
  8
0
 62
7
 10
-1.94000010E+02
 20
-1.30000105E+02
 11
-1.92499976E+02
 21
-1.28500071E+02
  0
LINE
  8
0
 62
7
 10
-1.92500050E+02
 20
-1.50500000E+02
 11
-1.92500050E+02
 21
-1.28499969E+02
  0
LINE
  8
0
 62
7
 10
-1.92500111E+02
 20
-1.28499969E+02
 11
-1.82000050E+02
 21
-1.28499969E+02
  0
LINE
  8
0
 62
7
 10
-1.57000034E+02
 20
-1.50500000E+02
 11
-1.57000034E+02
 21
-1.28499969E+02
  0
LINE
  8
0
 62
7
 10
-1.94000050E+02
 20
-1.48999878E+02
 11
-1.94000050E+02
 21
-1.30000061E+02
  0
LINE
  8
0
 62
7
 10
-1.54000034E+02
 20
-1.50000031E+02
 11
-1.54000034E+02
 21
-1.29000000E+02
  0
LINE
  8
0
 62
7
 10
-1.51000034E+02
 20
-1.29000000E+02
 11
-1.51000034E+02
 21
-1.50000000E+02
  0
LINE
  8
0
 62
7
 10
-1.42000050E+02
 20
-1.52000046E+02
 11
-1.40000065E+02
 21
-1.52000046E+02
  0
LINE
  8
0
 62
7
 10
-1.42000187E+02
 20
-1.27000000E+02
 11
-1.40000034E+02
 21
-1.27000000E+02
  0
LINE
  8
0
 62
7
 10
-1.57000050E+02
 20
-3.09319992E+02
 11
-1.54000050E+02
 21
-3.09319992E+02
  0
LINE
  8
0
 62
2
 10
-1.49000067E+02
 20
-3.19500000E+02
 11
-1.52660613E+02
 21
-3.14534611E+02
  0
LINE
  8
0
 62
2
 10
-1.44000068E+02
 20
-3.12717716E+02
 11
-1.49000052E+02
 21
-3.19500000E+02
  0
LINE
  8
0
 62
7
 10
-1.54000071E+02
 20
-3.08499964E+02
 11
-1.51000059E+02
 21
-3.06999935E+02
  0
LINE
  8
0
 62
7
 10
-1.54000038E+02
 20
-3.16000142E+02
 11
-1.51000040E+02
 21
-3.12717727E+02
  0
LINE
  8
0
 62
7
 10
-1.51000050E+02
 20
-3.12717720E+02
 11
-1.44000065E+02
 21
-3.12717720E+02
  0
LINE
  8
0
 62
7
 10
-1.44000065E+02
 20
-3.19500000E+02
 11
-1.44000065E+02
 21
-3.12717720E+02
  0
LINE
  8
0
 62
7
 10
-1.51000095E+02
 20
-3.06999954E+02
 11
-1.40000080E+02
 21
-3.06999954E+02
  0
LINE
  8
0
 62
2
 10
-1.93320118E+02
 20
-3.09319992E+02
 11
-1.82000049E+02
 21
-3.09319992E+02
  0
LINE
  8
0
 62
7
 10
-1.92500111E+02
 20
-3.08499977E+02
 11
-1.82000049E+02
 21
-3.08499977E+02
  0
LINE
  8
0
 62
7
 10
-1.94000119E+02
 20
-3.10000018E+02
 11
-1.92500102E+02
 21
-3.08500000E+02
  0
LINE
  8
0
 62
7
 10
-1.92500050E+02
 20
-3.08499977E+02
 11
-1.92500050E+02
 21
-3.19500000E+02
  0
LINE
  8
0
 62
7
 10
-1.57000050E+02
 20
-3.08499977E+02
 11
-1.57000050E+02
 21
-3.19500000E+02
  0
LINE
  8
0
 62
7
 10
-1.94000050E+02
 20
-3.09999954E+02
 11
-1.94000050E+02
 21
-3.19500000E+02
  0
LINE
  8
0
 62
7
 10
-1.54000050E+02
 20
-3.19500000E+02
 11
-1.54000050E+02
 21
-3.08499977E+02
  0
LINE
  8
0
 62
7
 10
-1.51000050E+02
 20
-3.12717720E+02
 11
-1.51000050E+02
 21
-3.07000000E+02
  0
LINE
  8
0
 62
7
 10
-1.34000050E+02
 20
-2.98000015E+02
 11
-1.21500034E+02
 21
-2.98000015E+02
  0
LINE
  8
0
 62
7
 10
-1.21000026E+02
 20
-2.97499999E+02
 11
-1.21500034E+02
 21
-2.98000008E+02
  0
LINE
  8
0
 62
7
 10
-1.21000065E+02
 20
-2.97500015E+02
 11
-1.19000050E+02
 21
-2.97500015E+02
  0
LINE
  8
0
 62
7
 10
-1.21000034E+02
 20
-2.97500015E+02
 11
-1.21000034E+02
 21
-3.19500000E+02
  0
LINE
  8
0
 62
7
 10
-1.20999956E+02
 20
-1.17500061E+02
 11
-1.21499962E+02
 21
-1.18000067E+02
  0
LINE
  8
0
 62
7
 10
-1.34000034E+02
 20
-1.18000031E+02
 11
-1.21500019E+02
 21
-1.18000031E+02
  0
LINE
  8
0
 62
7
 10
-1.20999997E+02
 20
-1.61500020E+02
 11
-1.21499987E+02
 21
-1.61000030E+02
  0
LINE
  8
0
 62
7
 10
-1.34000034E+02
 20
-1.61000015E+02
 11
-1.21500019E+02
 21
-1.61000015E+02
  0
LINE
  8
0
 62
7
 10
-1.21500004E+02
 20
-1.18000031E+02
 11
-1.21500004E+02
 21
-1.61000031E+02
  0
LINE
  8
0
 62
7
 10
-1.21000004E+02
 20
-1.17500031E+02
 11
-1.21000004E+02
 21
-1.61500000E+02
  0
LINE
  8
0
 62
7
 10
-3.24000115E+02
 20
-2.78726497E+02
 11
-3.19000113E+02
 21
-2.81613238E+02
  0
LINE
  8
0
 62
7
 10
-3.19000111E+02
 20
-2.81613235E+02
 11
-3.19000111E+02
 21
-2.87386734E+02
  0
LINE
  8
0
 62
7
 10
-3.19000098E+02
 20
-2.87386746E+02
 11
-3.24000126E+02
 21
-2.90273502E+02
  0
LINE
  8
0
 62
7
 10
-3.24000190E+02
 20
-2.90273474E+02
 11
-3.29000191E+02
 21
-2.87386733E+02
  0
LINE
  8
0
 62
7
 10
-3.29000141E+02
 20
-2.81613235E+02
 11
-3.29000141E+02
 21
-2.87386734E+02
  0
LINE
  8
0
 62
7
 10
-3.24000126E+02
 20
-2.78726472E+02
 11
-3.29000140E+02
 21
-2.81613221E+02
  0
LINE
  8
0
 62
7
 10
-3.94000134E+02
 20
-2.78726490E+02
 11
-3.89000133E+02
 21
-2.81613231E+02
  0
LINE
  8
0
 62
7
 10
-3.89000141E+02
 20
-2.81613235E+02
 11
-3.89000141E+02
 21
-2.87386734E+02
  0
LINE
  8
0
 62
7
 10
-3.89000146E+02
 20
-2.87386764E+02
 11
-3.94000148E+02
 21
-2.90273505E+02
  0
LINE
  8
0
 62
7
 10
-3.94000179E+02
 20
-2.90273476E+02
 11
-3.99000181E+02
 21
-2.87386735E+02
  0
LINE
  8
0
 62
7
 10
-3.99000172E+02
 20
-2.81613235E+02
 11
-3.99000172E+02
 21
-2.87386734E+02
  0
LINE
  8
0
 62
7
 10
-3.94000147E+02
 20
-2.78726475E+02
 11
-3.99000175E+02
 21
-2.81613232E+02
  0
LINE
  8
0
 62
7
 10
-1.05250034E+02
 20
-9.21000366E+01
 11
-1.05250034E+02
 21
-9.24999695E+01
  0
LINE
  8
0
 62
7
 10
-1.12750034E+02
 20
-9.21000366E+01
 11
-1.12750034E+02
 21
-9.24999695E+01
  0
LINE
  8
0
 62
7
 10
-1.10600147E+02
 20
-8.98999939E+01
 11
-1.07400105E+02
 21
-8.98999939E+01
  0
LINE
  8
0
 62
7
 10
-1.12750034E+02
 20
-9.20999756E+01
 11
-1.12750034E+02
 21
-9.24999695E+01
  0
LINE
  8
0
  6
CENTER
 62
2
 10
-1.09000034E+02
 20
-8.90359192E+01
 11
-1.09000034E+02
 21
-9.24999695E+01
  0
LINE
  8
0
 62
7
 10
-7.72500038E+01
 20
-9.21000366E+01
 11
-7.72500038E+01
 21
-9.24999695E+01
  0
LINE
  8
0
 62
7
 10
-8.47500038E+01
 20
-9.21000366E+01
 11
-8.47500038E+01
 21
-9.24999695E+01
  0
LINE
  8
0
 62
7
 10
-8.26001167E+01
 20
-8.98999939E+01
 11
-7.94000740E+01
 21
-8.98999939E+01
  0
LINE
  8
0
 62
7
 10
-8.47500038E+01
 20
-9.20999756E+01
 11
-8.47500038E+01
 21
-9.24999695E+01
  0
LINE
  8
0
  6
CENTER
 62
2
 10
-8.10000038E+01
 20
-8.90359192E+01
 11
-8.10000038E+01
 21
-9.24999695E+01
  0
LINE
  8
0
  6
CENTER
 62
2
 10
-3.07169392E+02
 20
-3.19500000E+02
 11
-4.10946095E+02
 21
-3.19500000E+02
  0
LINE
  8
0
  6
CENTER
 62
2
 10
-3.70000050E+02
 20
-2.97500015E+02
 11
-3.70000050E+02
 21
-2.69926575E+02
  0
LINE
  8
0
  6
CENTER
 62
2
 10
-3.38222218E+02
 20
-2.84499985E+02
 11
-3.09012409E+02
 21
-2.84499985E+02
  0
LINE
  8
0
 62
7
 10
-4.02000019E+02
 20
-2.72499985E+02
 11
-3.16000080E+02
 21
-2.72500015E+02
  0
LINE
  8
0
  6
CENTER
 62
2
 10
-3.43000080E+02
 20
-2.69923096E+02
 11
-3.43000080E+02
 21
-3.02354279E+02
  0
LINE
  8
0
  6
CENTER
 62
2
 10
-3.24000141E+02
 20
-2.70127304E+02
 11
-3.24000141E+02
 21
-2.99864227E+02
  0
LINE
  8
0
 62
7
 10
-3.12000141E+02
 20
-3.19500000E+02
 11
-3.12000141E+02
 21
-2.76500015E+02
  0
LINE
  8
0
 62
7
 10
-1.39500019E+02
 20
-1.59000015E+02
 11
-1.39500019E+02
 21
-1.20000031E+02
  0
LINE
  8
0
 62
7
 10
-1.35000050E+02
 20
-3.19500000E+02
 11
-1.35000050E+02
 21
-2.99000015E+02
  0
LINE
  8
0
 62
7
 10
-1.39500019E+02
 20
-1.59000015E+02
 11
-1.35000111E+02
 21
-1.59000015E+02
  0
LINE
  8
0
 62
7
 10
-1.40000001E+02
 20
-1.58499974E+02
 11
-1.39499962E+02
 21
-1.59000002E+02
  0
LINE
  8
0
 62
7
 10
-1.21500034E+02
 20
-2.98000015E+02
 11
-1.21500034E+02
 21
-3.19500000E+02
  0
LINE
  8
0
 62
7
 10
-1.39999953E+02
 20
-1.20500071E+02
 11
-1.39499939E+02
 21
-1.20000068E+02
  0
LINE
  8
0
  6
DASHED
 62
7
 10
-8.09999326E+01
 20
-3.04056561E+02
 11
-8.22499550E+01
 21
-3.04778253E+02
  0
LINE
  8
0
  6
DASHED
 62
7
 10
-8.22500954E+01
 20
-3.04778275E+02
 11
-8.22500954E+01
 21
-3.06221672E+02
  0
LINE
  8
0
  6
DASHED
 62
7
 10
-8.22501199E+01
 20
-3.06221977E+02
 11
-8.10001437E+01
 21
-3.06943643E+02
  0
LINE
  8
0
  6
DASHED
 62
7
 10
-8.09999473E+01
 20
-3.06943400E+02
 11
-7.97499051E+01
 21
-3.06221696E+02
  0
LINE
  8
0
  6
DASHED
 62
7
 10
-7.97500648E+01
 20
-3.04778275E+02
 11
-7.97500648E+01
 21
-3.06221672E+02
  0
LINE
  8
0
  6
DASHED
 62
7
 10
-8.10001774E+01
 20
-3.04056806E+02
 11
-7.97502012E+01
 21
-3.04778472E+02
  0
LINE
  8
0
  6
CENTER
 62
2
 10
-8.10000343E+01
 20
-2.98922867E+02
 11
-8.10000343E+01
 21
-3.11649193E+02
  0
LINE
  8
0
  6
CENTER
 62
2
 10
-7.40878487E+01
 20
-3.05499985E+02
 11
-8.68142281E+01
 21
-3.05499985E+02
  0
LINE
  8
0
  6
DASHED
 62
7
 10
-1.09000068E+02
 20
-3.04056527E+02
 11
-1.07750065E+02
 21
-3.04778208E+02
  0
LINE
  8
0
  6
DASHED
 62
7
 10
-1.07750004E+02
 20
-3.04778275E+02
 11
-1.07750004E+02
 21
-3.06221672E+02
  0
LINE
  8
0
  6
DASHED
 62
7
 10
-1.07749844E+02
 20
-3.06221982E+02
 11
-1.08999860E+02
 21
-3.06943671E+02
  0
LINE
  8
0
  6
DASHED
 62
7
 10
-1.09000090E+02
 20
-3.06943309E+02
 11
-1.10250133E+02
 21
-3.06221605E+02
  0
LINE
  8
0
  6
DASHED
 62
7
 10
-1.10250034E+02
 20
-3.04778275E+02
 11
-1.10250034E+02
 21
-3.06221672E+02
  0
LINE
  8
0
  6
DASHED
 62
7
 10
-1.08999845E+02
 20
-3.04056832E+02
 11
-1.10249835E+02
 21
-3.04778505E+02
  0
LINE
  8
0
  6
CENTER
 62
2
 10
-1.09000065E+02
 20
-2.98922867E+02
 11
-1.09000065E+02
 21
-3.11649193E+02
  0
LINE
  8
0
  6
CENTER
 62
2
 10
-1.15912251E+02
 20
-3.05499985E+02
 11
-1.03185871E+02
 21
-3.05499985E+02
  0
LINE
  8
0
  6
CENTER
 62
2
 10
-3.94000141E+02
 20
-2.70314651E+02
 11
-3.94000141E+02
 21
-2.99038361E+02
  0
LINE
  8
0
 62
7
 10
-4.06000141E+02
 20
-3.19500000E+02
 11
-4.06000141E+02
 21
-2.76500000E+02
  0
LINE
  8
0
  6
CENTER
 62
2
 10
-4.08555561E+02
 20
-2.84499985E+02
 11
-3.79309132E+02
 21
-2.84499985E+02
  0
LINE
  8
0
 62
7
 10
-1.39500034E+02
 20
-3.00000031E+02
 11
-1.35000126E+02
 21
-3.00000031E+02
  0
LINE
  8
0
 62
7
 10
-1.39999992E+02
 20
-3.00500035E+02
 11
-1.39499975E+02
 21
-3.00000030E+02
  0
LINE
  8
0
 62
7
 10
-1.35000019E+02
 20
-1.60000000E+02
 11
-1.35000019E+02
 21
-1.19000031E+02
  0
LINE
  8
0
 62
7
 10
-6.32677459E+01
 20
-1.55500141E+02
 11
-6.41337927E+01
 21
-1.57000188E+02
  0
LINE
  8
0
 62
7
 10
-6.41340675E+01
 20
-1.57000076E+02
 11
-6.58661537E+01
 21
-1.57000076E+02
  0
LINE
  8
0
 62
7
 10
-6.58659830E+01
 20
-1.57000085E+02
 11
-6.67320527E+01
 21
-1.55500000E+02
  0
LINE
  8
0
 62
7
 10
-6.67318617E+01
 20
-1.55500236E+02
 11
-6.58658644E+01
 21
-1.54000276E+02
  0
LINE
  8
0
 62
7
 10
-6.41340675E+01
 20
-1.54000031E+02
 11
-6.58661537E+01
 21
-1.54000031E+02
  0
LINE
  8
0
 62
7
 10
-6.32678827E+01
 20
-1.55500116E+02
 11
-6.41339219E+01
 21
-1.54000083E+02
  0
LINE
  8
0
  6
CENTER
 62
2
 10
-7.31946754E+01
 20
-1.55500031E+02
 11
-5.69256630E+01
 21
-1.55500031E+02
  0
LINE
  8
0
  6
CENTER
 62
2
 10
-6.50000343E+01
 20
-1.47952240E+02
 11
-6.50000343E+01
 21
-1.62565613E+02
  0
LINE
  8
0
  6
CENTER
 62
2
 10
-9.50000496E+01
 20
-3.19500000E+02
 11
-9.50000496E+01
 21
-2.70252029E+02
  0
LINE
  8
0
 62
7
 10
-1.39500019E+02
 20
-1.20000031E+02
 11
-1.35000111E+02
 21
-1.20000031E+02
  0
LINE
  8
0
 62
7
 10
-1.39500050E+02
 20
-3.19500000E+02
 11
-1.39500050E+02
 21
-3.00000031E+02
  0
LINE
  8
0
 62
7
 10
-1.21000034E+02
 20
-1.61500000E+02
 11
-1.19000111E+02
 21
-1.61500000E+02
  0
LINE
  8
0
 62
7
 10
-1.40000050E+02
 20
-3.19500000E+02
 11
-1.40000050E+02
 21
-3.00500092E+02
  0
LINE
  8
0
 62
7
 10
-1.21000050E+02
 20
-1.17500031E+02
 11
-1.19000034E+02
 21
-1.17500031E+02
  0
LINE
  8
0
  6
CENTER
 62
2
 10
-9.50000343E+01
 20
-1.41757004E+02
 11
-9.50000343E+01
 21
-9.05399170E+01
  0
LINE
  8
0
 62
7
 10
-1.19000019E+02
 20
-9.25000305E+01
 11
-1.19000019E+02
 21
-1.86500015E+02
  0
LINE
  8
0
 62
7
 10
-1.19000050E+02
 20
-2.72500015E+02
 11
-5.80000648E+01
 21
-2.72500015E+02
  0
LINE
  8
0
 62
7
 10
-1.19000019E+02
 20
-1.86499985E+02
 11
-5.80000954E+01
 21
-1.86499985E+02
  0
LINE
  8
0
 62
7
 10
-1.19000050E+02
 20
-2.72500015E+02
 11
-1.19000050E+02
 21
-3.19500000E+02
  0
LINE
  8
0
 62
7
 10
-1.19000019E+02
 20
-9.25000000E+01
 11
-5.80000343E+01
 21
-9.25000000E+01
  0
LINE
  8
0
 62
7
 10
-1.40000019E+02
 20
-1.58500000E+02
 11
-1.40000019E+02
 21
-1.20500122E+02
  0
LINE
  8
0
  6
CENTER
 62
2
 10
-3.59000050E+02
 20
-2.67965240E+02
 11
-3.59000050E+02
 21
-3.19500000E+02
  0
LINE
  8
0
 62
7
 10
-4.08600056E+02
 20
-3.07100006E+02
 11
-4.08600056E+02
 21
-3.03899963E+02
  0
LINE
  8
0
 62
7
 10
-4.06400135E+02
 20
-3.09249939E+02
 11
-4.06000141E+02
 21
-3.09249939E+02
  0
LINE
  8
0
 62
7
 10
-4.06400043E+02
 20
-3.01749939E+02
 11
-4.06000141E+02
 21
-3.01749939E+02
  0
LINE
  8
0
 62
7
 10
-4.06400043E+02
 20
-3.09249939E+02
 11
-4.06000141E+02
 21
-3.09249939E+02
  0
LINE
  8
0
  6
CENTER
 62
2
 10
-4.09464191E+02
 20
-3.05499939E+02
 11
-4.06000141E+02
 21
-3.05499939E+02
  0
LINE
  8
0
  6
CENTER
 62
2
 10
9.64408205E+00
 20
-2.84499985E+02
 11
-9.65245552E+01
 21
-2.84499985E+02
  0
LINE
  8
0
 62
7
 10
-5.80000648E+01
 20
-3.19500000E+02
 11
-5.80000648E+01
 21
-2.72500000E+02
  0
LINE
  8
0
 62
7
 10
1.45515834E+01
 20
-9.59999695E+01
 11
-3.15000343E+01
 21
-9.59999695E+01
  0
LINE
  8
0
 62
7
 10
1.22421647E+01
 20
-1.00000000E+02
 11
-3.15000343E+01
 21
-1.00000000E+02
  0
LINE
  8
0
  6
CENTER
 62
2
 10
9.64408850E+00
 20
-1.04500000E+02
 11
-3.15000343E+01
 21
-1.04500000E+02
  0
LINE
  8
0
 62
7
 10
7.04601229E+00
 20
-1.09000000E+02
 11
-1.20000343E+01
 21
-1.09000000E+02
  0
LINE
  8
0
  6
CENTER
 62
2
 10
-3.07704392E+01
 20
-1.74500015E+02
 11
-1.22856419E+02
 21
-1.74500015E+02
  0
LINE
  8
0
 62
7
 10
-5.80000343E+01
 20
-9.25000000E+01
 11
-5.80000343E+01
 21
-1.02216245E+02
  0
LINE
  8
0
  6
CENTER
 62
2
 10
-1.99921162E+02
 20
-1.39500000E+02
 11
-1.05631709E+01
 21
-1.39500000E+02
  0
LINE
  8
0
  6
CENTER
 62
2
 10
-2.00183247E+02
 20
-3.19500000E+02
 11
-1.05631862E+01
 21
-3.19500000E+02
  0
LINE
  8
0
  6
CENTER
 62
2
 10
-6.60000343E+01
 20
-1.04500000E+02
 11
-1.20922001E+02
 21
-1.04500000E+02
  0
LINE
  8
0
 62
7
 10
-5.80000343E+01
 20
-1.14716245E+02
 11
-5.80000343E+01
 21
-1.86499969E+02
  0
LINE
  8
0
 62
2
 10
-3.90731337E+01
 20
-1.88880704E+02
 11
1.70247537E+01
 21
-9.17163129E+01
  0
LINE
  8
0
 62
2
 10
-1.18144065E+01
 20
-3.21667177E+02
 11
1.70247384E+01
 21
-2.71716313E+02
  0
ARC
  8
0
  6
DASHED
 62
7
 10
-9.50000496E+01
 20
-3.19500000E+02
 40
2.30000000E+01
 50
0.00000000E+00
 51
3.97531009E+01
  0
LINE
  8
0
  6
CENTER
 62
2
 10
3.96999950E+02
 20
-2.85199966E+02
 11
3.96999950E+02
 21
-2.70047363E+02
  0
LINE
  8
0
  6
CENTER
 62
2
 10
3.96999950E+02
 20
-3.19500000E+02
 11
3.96999950E+02
 21
-2.70252029E+02
  0
LINE
  8
0
 62
7
 10
4.20999950E+02
 20
-2.72500015E+02
 11
4.20999950E+02
 21
-3.19500000E+02
  0
LINE
  8
0
  6
CENTER
 62
2
 10
2.82540882E+02
 20
-2.84499985E+02
 11
3.33499935E+02
 21
-2.84499985E+02
  0
LINE
  8
0
  6
CENTER
 62
2
 10
5.02183147E+02
 20
-3.19500000E+02
 11
2.62333614E+02
 21
-3.19500000E+02
  0
ARC
  8
0
 62
7
 10
3.96999950E+02
 20
-3.19500000E+02
 40
2.30000000E+01
 50
1.40246899E+02
 51
1.80000000E+02
  0
LINE
  8
0
 62
7
 10
4.41999950E+02
 20
-3.19500000E+02
 11
4.41999950E+02
 21
-3.00500092E+02
  0
LINE
  8
0
 62
7
 10
4.41499950E+02
 20
-3.19500000E+02
 11
4.41499950E+02
 21
-3.00000031E+02
  0
LINE
  8
0
 62
7
 10
4.41999893E+02
 20
-3.00500035E+02
 11
4.41499876E+02
 21
-3.00000030E+02
  0
LINE
  8
0
 62
7
 10
4.41499935E+02
 20
-3.00000031E+02
 11
4.37000027E+02
 21
-3.00000031E+02
  0
LINE
  8
0
  6
CENTER
 62
2
 10
4.17912151E+02
 20
-3.05499985E+02
 11
4.05185772E+02
 21
-3.05499985E+02
  0
LINE
  8
0
  6
CENTER
 62
2
 10
4.10999966E+02
 20
-2.98922867E+02
 11
4.10999966E+02
 21
-3.11649193E+02
  0
LINE
  8
0
 62
7
 10
4.10999746E+02
 20
-3.04056832E+02
 11
4.12249735E+02
 21
-3.04778505E+02
  0
LINE
  8
0
 62
7
 10
4.12249935E+02
 20
-3.04778275E+02
 11
4.12249935E+02
 21
-3.06221672E+02
  0
LINE
  8
0
 62
7
 10
4.10999991E+02
 20
-3.06943309E+02
 11
4.12250033E+02
 21
-3.06221605E+02
  0
LINE
  8
0
 62
7
 10
4.09749745E+02
 20
-3.06221982E+02
 11
4.10999761E+02
 21
-3.06943671E+02
  0
LINE
  8
0
 62
7
 10
4.09749905E+02
 20
-3.04778275E+02
 11
4.09749905E+02
 21
-3.06221672E+02
  0
LINE
  8
0
 62
7
 10
4.10999969E+02
 20
-3.04056527E+02
 11
4.09749966E+02
 21
-3.04778208E+02
  0
LINE
  8
0
  6
CENTER
 62
2
 10
3.76087749E+02
 20
-3.05499985E+02
 11
3.88814129E+02
 21
-3.05499985E+02
  0
LINE
  8
0
  6
CENTER
 62
2
 10
3.82999935E+02
 20
-2.98922867E+02
 11
3.82999935E+02
 21
-3.11649193E+02
  0
LINE
  8
0
 62
7
 10
3.83000078E+02
 20
-3.04056806E+02
 11
3.81750102E+02
 21
-3.04778472E+02
  0
LINE
  8
0
 62
7
 10
3.81749966E+02
 20
-3.04778275E+02
 11
3.81749966E+02
 21
-3.06221672E+02
  0
LINE
  8
0
 62
7
 10
3.82999848E+02
 20
-3.06943400E+02
 11
3.81749806E+02
 21
-3.06221696E+02
  0
LINE
  8
0
 62
7
 10
3.84250021E+02
 20
-3.06221977E+02
 11
3.83000045E+02
 21
-3.06943643E+02
  0
LINE
  8
0
 62
7
 10
3.84249996E+02
 20
-3.04778275E+02
 11
3.84249996E+02
 21
-3.06221672E+02
  0
LINE
  8
0
 62
7
 10
3.82999833E+02
 20
-3.04056561E+02
 11
3.84249856E+02
 21
-3.04778253E+02
  0
LINE
  8
0
 62
7
 10
4.23499935E+02
 20
-2.98000015E+02
 11
4.23499935E+02
 21
-3.19500000E+02
  0
LINE
  8
0
 62
7
 10
4.36999950E+02
 20
-3.19500000E+02
 11
4.36999950E+02
 21
-2.99000015E+02
  0
LINE
  8
0
 62
7
 10
4.22999935E+02
 20
-2.97500015E+02
 11
4.22999935E+02
 21
-3.19500000E+02
  0
LINE
  8
0
 62
7
 10
4.22999966E+02
 20
-2.97500015E+02
 11
4.20999950E+02
 21
-2.97500015E+02
  0
LINE
  8
0
 62
7
 10
4.22999927E+02
 20
-2.97499999E+02
 11
4.23499935E+02
 21
-2.98000008E+02
  0
LINE
  8
0
 62
7
 10
4.35999950E+02
 20
-2.98000015E+02
 11
4.23499935E+02
 21
-2.98000015E+02
  0
LINE
  8
0
 62
7
 10
4.52999950E+02
 20
-3.12717720E+02
 11
4.52999950E+02
 21
-3.07000000E+02
  0
LINE
  8
0
 62
7
 10
4.55999950E+02
 20
-3.19500000E+02
 11
4.55999950E+02
 21
-3.08499977E+02
  0
LINE
  8
0
 62
7
 10
4.95999950E+02
 20
-3.09999954E+02
 11
4.95999950E+02
 21
-3.19500000E+02
  0
LINE
  8
0
 62
7
 10
4.58999950E+02
 20
-3.08499977E+02
 11
4.58999950E+02
 21
-3.19500000E+02
  0
LINE
  8
0
 62
7
 10
4.94499950E+02
 20
-3.08499977E+02
 11
4.94499950E+02
 21
-3.19500000E+02
  0
LINE
  8
0
 62
7
 10
4.96000020E+02
 20
-3.10000018E+02
 11
4.94500003E+02
 21
-3.08500000E+02
  0
LINE
  8
0
 62
7
 10
4.94500011E+02
 20
-3.08499977E+02
 11
4.83999950E+02
 21
-3.08499977E+02
  0
LINE
  8
0
 62
2
 10
4.95320019E+02
 20
-3.09319992E+02
 11
4.83999950E+02
 21
-3.09319992E+02
  0
LINE
  8
0
 62
7
 10
4.52999996E+02
 20
-3.06999954E+02
 11
4.41999981E+02
 21
-3.06999954E+02
  0
LINE
  8
0
 62
7
 10
4.45999966E+02
 20
-3.19500000E+02
 11
4.45999966E+02
 21
-3.12717720E+02
  0
LINE
  8
0
 62
7
 10
4.52999950E+02
 20
-3.12717720E+02
 11
4.45999966E+02
 21
-3.12717720E+02
  0
LINE
  8
0
 62
7
 10
4.55999938E+02
 20
-3.16000142E+02
 11
4.52999940E+02
 21
-3.12717727E+02
  0
LINE
  8
0
 62
7
 10
4.55999972E+02
 20
-3.08499964E+02
 11
4.52999960E+02
 21
-3.06999935E+02
  0
LINE
  8
0
 62
2
 10
4.45999969E+02
 20
-3.12717716E+02
 11
4.50999953E+02
 21
-3.19500000E+02
  0
LINE
  8
0
 62
2
 10
4.50999968E+02
 20
-3.19500000E+02
 11
4.54660514E+02
 21
-3.14534611E+02
  0
LINE
  8
0
 62
7
 10
4.58999950E+02
 20
-3.09319992E+02
 11
4.55999950E+02
 21
-3.09319992E+02
  0
ARC
  8
0
 62
7
 10
3.96999950E+02
 20
-3.19500000E+02
 40
2.00000000E+00
 50
0.00000000E+00
 51
1.80000000E+02
  0
ARC
  8
0
 62
2
 10
3.96999950E+02
 20
-3.19500000E+02
 40
2.50000000E+00
 50
0.00000000E+00
 51
1.80000000E+02
  0
ARC
  8
0
 62
7
 10
3.96999950E+02
 20
-3.19500000E+02
 40
2.30000000E+01
 50
5.02469237E+01
 51
1.29753167E+02
  0
CIRCLE
  8
0
 62
7
 10
4.10999966E+02
 20
-3.05499985E+02
 40
3.75000000E+00
  0
CIRCLE
  8
0
 62
7
 10
3.82999935E+02
 20
-3.05499985E+02
 40
3.75000000E+00
  0
ARC
  8
0
 62
7
 10
3.96999950E+02
 20
-3.19500000E+02
 40
2.30000000E+01
 50
0.00000000E+00
 51
3.97531576E+01
  0
ARC
  8
0
 62
7
 10
4.35999950E+02
 20
-2.99000015E+02
 40
1.00000000E+00
 50
3.59721787E-05
 51
9.00000724E+01
  0
ARC
  8
0
 62
7
 10
4.56499981E+02
 20
-3.19500015E+02
 40
1.25000010E+01
 50
1.47140312E+02
 51
1.79999930E+02
  0
ARC
  8
0
 62
4
 10
4.75437348E+02
 20
-3.05779447E+02
 40
8.56342793E+00
 50
3.26410682E+02
 51
3.35893354E+01
  0
ARC
  8
0
 62
4
 10
4.54945150E+02
 20
-3.19517057E+02
 40
2.90548000E+01
 50
3.36363131E-02
 51
1.80447127E+01
  0
ARC
  8
0
 62
4
 10
4.79562553E+02
 20
-3.05779447E+02
 40
8.56342793E+00
 50
1.46410742E+02
 51
2.13589395E+02
  0
ARC
  8
0
 62
4
 10
5.00054745E+02
 20
-3.19517057E+02
 40
2.90548000E+01
 50
1.61955323E+02
 51
1.79966364E+02
  0
LINE
  8
0
 62
4
 10
4.82570888E+02
 20
-3.10517057E+02
 11
4.72429012E+02
 21
-3.10517057E+02
  0
LINE
  8
0
 62
4
 10
4.72429030E+02
 20
-3.01041881E+02
 11
4.70999958E+02
 21
-3.03517069E+02
  0
LINE
  8
0
 62
4
 10
4.83999967E+02
 20
-3.03517054E+02
 11
4.82570883E+02
 21
-3.01041837E+02
  0
LINE
  8
0
 62
4
 10
4.70999950E+02
 20
-3.03517053E+02
 11
4.70999950E+02
 21
-3.19500000E+02
  0
LINE
  8
0
 62
4
 10
4.83999950E+02
 20
-3.03517053E+02
 11
4.83999950E+02
 21
-3.19500000E+02
  0
LINE
  8
0
 62
4
 10
4.82570888E+02
 20
-3.01041833E+02
 11
4.72429012E+02
 21
-3.01041833E+02
  0
LINE
  8
0
 62
7
 10
4.70999950E+02
 20
-3.08499977E+02
 11
4.58999950E+02
 21
-3.08499977E+02
  0
LINE
  8
0
 62
2
 10
4.70999950E+02
 20
-3.09319992E+02
 11
4.58999950E+02
 21
-3.09319992E+02
  0
LINE
  8
0
 62
7
 10
2.79942797E+02
 20
-2.89000000E+02
 11
3.33499935E+02
 21
-2.89000000E+02
  0
LINE
  8
0
 62
7
 10
2.85138958E+02
 20
-2.79999985E+02
 11
3.33499935E+02
 21
-2.79999985E+02
  0
LINE
  8
0
 62
7
 10
2.87448350E+02
 20
-2.76000000E+02
 11
3.13999935E+02
 21
-2.76000000E+02
  0
LINE
  8
0
 62
7
 10
3.59999966E+02
 20
-3.19500000E+02
 11
3.59999966E+02
 21
-2.72500000E+02
  0
LINE
  8
0
 62
7
 10
4.20999950E+02
 20
-2.72500015E+02
 11
3.59999966E+02
 21
-2.72500015E+02
  0
LINE
  8
0
 62
2
 10
2.58447306E+02
 20
-3.26231282E+02
 11
2.93261886E+02
 21
-2.65930661E+02
  0
LINE
  8
0
 62
7
 10
3.52999935E+02
 20
-2.76000000E+02
 11
3.59999966E+02
 21
-2.76000000E+02
  0
LINE
  8
0
  6
CENTER
 62
2
 10
3.48499935E+02
 20
-2.84499985E+02
 11
3.98524456E+02
 21
-2.84499985E+02
  0
LINE
  8
0
 62
7
 10
3.48499935E+02
 20
-2.89000000E+02
 11
3.59999966E+02
 21
-2.89000000E+02
  0
LINE
  8
0
 62
7
 10
3.48499935E+02
 20
-2.79999985E+02
 11
3.59999966E+02
 21
-2.79999985E+02
  0
TEXT
  8
0
 10
-5.22147331E+01
 20
3.54316712E+02
 40
9.00000000E+00
  1
STRETCH LINE
 41
1.05263158E+00
  7
MONOTXT
  0
LINE
  8
0
 62
7
 10
5.74500000E+02
 20
4.00500000E+02
 11
5.74500000E+02
 21
-4.00500000E+02
  0
LINE
  8
0
 62
7
 10
-5.64500000E+02
 20
4.00500000E+02
 11
5.74500000E+02
 21
4.00500000E+02
  0
LINE
  8
0
 62
7
 10
-5.64500000E+02
 20
-4.00500000E+02
 11
5.74500000E+02
 21
-4.00500000E+02
  0
LINE
  8
0
 62
7
 10
-5.64500000E+02
 20
4.00500000E+02
 11
-5.64500000E+02
 21
-4.00500000E+02
  0
LINE
  8
0
 62
7
 10
-5.64500000E+02
 20
3.70500000E+02
 11
-3.34500000E+02
 21
3.70500000E+02
  0
LINE
  8
0
 62
7
 10
3.44500000E+02
 20
3.70500000E+02
 11
5.74500000E+02
 21
3.70500000E+02
  0
LINE
  8
0
 62
7
 10
3.44500000E+02
 20
-3.70500000E+02
 11
5.74500000E+02
 21
-3.70500000E+02
  0
LINE
  8
0
 62
7
 10
3.44500000E+02
 20
-3.70500000E+02
 11
3.44500000E+02
 21
-4.00500000E+02
  0
LINE
  8
0
 62
7
 10
3.44500000E+02
 20
4.00500000E+02
 11
3.44500000E+02
 21
3.70500000E+02
  0
LINE
  8
0
 62
7
 10
-3.34500000E+02
 20
4.00500000E+02
 11
-3.34500000E+02
 21
3.70500000E+02
  0
TEXT
  8
0
 62
7
 10
-5.37179687E+02
 20
3.34250000E+02
 40
1.25000000E+01
  1
MODEL:DDAK-RL80*75
 41
1.00000015E+00
  7
MONOTXT
  0
TEXT
  8
0
 62
7
 10
4.11285149E+02
 20
3.79250000E+02
 40
1.25000000E+01
  1
Ver. 1.0
 41
1.08108125E+00
  7
MONOTXT
  0
TEXT
  8
0
 62
7
 10
3.50070624E+02
 20
-3.94500000E+02
 40
1.80000000E+01
  1
KOGANEI CORP.
 41
1.04838710E+00
  7
MONOTXT
  0
TEXT
  8
0
 62
7
 10
-5.53964859E+02
 20
3.79250000E+02
 40
1.25000000E+01
  1
NEW DYNA CYLINDER
 41
1.07594953E+00
  7
MONOTXT
  0
ENDSEC
  0
EOF
