  0
SECTION
  2
HEADER
  9
$ACADVER
  1
AC1003
  9
$EXTMIN
 10
-5.64500000E+02
 20
-4.00500000E+02
  9
$EXTMAX
 10
5.74500000E+02
 20
4.00500000E+02
  9
$LIMMIN
 10
-5.64501000E+02
 20
-4.00501000E+02
  9
$LIMMAX
 10
5.74501000E+02
 20
4.00501000E+02
  9
$SNAPUNIT
 10
1
 20
1
  9
$SNAPBASE
 10
0
 20
0
  9
$GRIDMODE
 70
0
  9
$GRIDUNIT
 10
0
 20
0
  9
$LTSCALE
 40
1.89833333E+01
  9
$TEXTSIZE
 40
3.2
  9
$DIMTAD
 70
0
  9
$LUNITS
 70
2
  9
$LUPREC
 70
4
  9
$FILLETRAD
 40
0
  9
$AUNITS
 70
0
  9
$AUPREC
 70
0
  0
ENDSEC
  0
SECTION
  2
TABLES
  0
TABLE
  2
LTYPE
 70
2
  0
LTYPE
  2
CONTINUOUS
 70
64
  3
Solid-Line
 72
65
 73
0
 40
0
  0
LTYPE
  2
DASHED
 70
64
  3
DASHED
 72
65
 73
2
 40
.75
 49
.5
 49
-.25
  0
LTYPE
  2
HIDDEN
 70
64
  3
HIDDEN
 72
65
 73
2
 40
.375
 49
.25
 49
-.125
  0
LTYPE
  2
CENTER
 70
64
  3
CENTER
 72
65
 73
4
 40
2
 49
1.25
 49
-.25
 49
.25
 49
-.25
  0
LTYPE
  2
PHANTOM
 70
64
  3
PHANTOM
 72
65
 73
6
 40
2.5
 49
1.25
 49
-.25
 49
.25
 49
-.25
 49
.25
 49
-.25
  0
ENDTAB
  0
TABLE
  2
LAYER
 70
1
  0
LAYER
  2
1
 70
0
 62
7
  6
CONTINUOUS
 0
ENDTAB
  0
TABLE
  2
STYLE
 70
2
  0
STYLE
  2
MONOTXT
 70
0
 40
0
 41
1
 50
0
 71
0
 42
.2
  3
monotxt
  0
STYLE
  2
BIGFONT
 70
0
 40
0
 41
1
 50
0
 71
0
 42
.2
  3
txt
  4
bigfont
  0
ENDTAB
  0
ENDSEC
  0
SECTION
  2
ENTITIES
  0
LINE
  8
0
  6
PHANTOM
 10
-2.45000000E+01
 20
2.81313474E+01
 11
-2.45000000E+01
 21
1.94632131E+02
  0
LINE
  8
0
 62
7
 10
-9.99997817E+00
 20
1.38000015E+02
 11
-8.29999972E+01
 21
1.38000015E+02
  0
LINE
  8
0
 62
7
 10
-9.99997817E+00
 20
1.47000031E+02
 11
-8.29999972E+01
 21
1.47000031E+02
  0
LINE
  8
0
 62
7
 10
2.00907549E+01
 20
1.54000015E+02
 11
2.80000227E+01
 21
1.54000015E+02
  0
LINE
  8
0
  6
CENTER
 62
2
 10
-2.02243360E+02
 20
1.00500000E+02
 11
7.24327229E+01
 21
1.00500000E+02
  0
LINE
  8
0
 62
7
 10
-1.18999982E+02
 20
1.55380280E+02
 11
-1.18999982E+02
 21
4.56197205E+01
  0
LINE
  8
0
 62
7
 10
-8.29999972E+01
 20
1.56500000E+02
 11
-8.29999972E+01
 21
4.45000153E+01
  0
LINE
  8
0
 62
7
 10
6.40000180E+01
 20
1.55380249E+02
 11
6.40000180E+01
 21
4.56197433E+01
  0
LINE
  8
0
 62
7
 10
2.80000227E+01
 20
1.56500000E+02
 11
2.80000227E+01
 21
4.45000038E+01
  0
LINE
  8
0
 62
7
 10
-1.20499967E+02
 20
7.55000000E+01
 11
-1.18999982E+02
 21
7.55000000E+01
  0
LINE
  8
0
 62
7
 10
-1.14999982E+02
 20
4.45000038E+01
 11
-8.29999667E+01
 21
4.45000038E+01
  0
LINE
  8
0
 62
7
 10
-1.14999982E+02
 20
4.50585632E+01
 11
-1.14999982E+02
 21
4.45000038E+01
  0
LINE
  8
0
 62
7
 10
-1.18508675E+02
 20
4.51198309E+01
 11
-8.29999388E+01
 21
4.45000237E+01
  0
LINE
  8
0
 62
7
 10
-1.34517474E+02
 20
7.64720474E+01
 11
-1.21000017E+02
 21
7.60000075E+01
  0
LINE
  8
0
 62
7
 10
-1.39999982E+02
 20
7.80000000E+01
 11
-1.39999982E+02
 21
1.23000015E+02
  0
LINE
  8
0
 62
7
 10
-1.39499982E+02
 20
7.74999847E+01
 11
-1.34999982E+02
 21
7.74999847E+01
  0
LINE
  8
0
  6
CENTER
 62
2
 10
4.39999684E+01
 20
1.43800049E+02
 11
4.39999684E+01
 21
1.58763657E+02
  0
LINE
  8
0
 62
7
 10
-1.20999967E+02
 20
1.24999954E+02
 11
-1.20999967E+02
 21
7.60000076E+01
  0
LINE
  8
0
 62
7
 10
6.55000142E+01
 20
7.55000000E+01
 11
6.40000142E+01
 21
7.55000000E+01
  0
LINE
  8
0
 62
7
 10
6.00000161E+01
 20
4.45000038E+01
 11
2.80000100E+01
 21
4.45000038E+01
  0
LINE
  8
0
 62
7
 10
6.00000028E+01
 20
4.50585632E+01
 11
6.00000028E+01
 21
4.45000038E+01
  0
LINE
  8
0
 62
7
 10
6.35087578E+01
 20
4.51198250E+01
 11
2.80000180E+01
 21
4.45000177E+01
  0
LINE
  8
0
 62
7
 10
6.60000142E+01
 20
1.24999985E+02
 11
6.60000142E+01
 21
7.60000076E+01
  0
LINE
  8
0
  6
CENTER
 62
2
 10
6.67792043E+01
 20
5.84999924E+01
 11
-1.21524472E+02
 21
5.84999924E+01
  0
LINE
  8
0
 62
7
 10
2.80000227E+01
 20
6.29999847E+01
 11
-8.29999972E+01
 21
6.29999847E+01
  0
LINE
  8
0
 62
7
 10
2.80000227E+01
 20
5.39999733E+01
 11
-8.29999972E+01
 21
5.39999733E+01
  0
LINE
  8
0
 62
7
 10
-8.29999972E+01
 20
4.69999771E+01
 11
2.80000227E+01
 21
4.69999771E+01
  0
LINE
  8
0
 62
7
 10
-1.20499967E+02
 20
1.25500015E+02
 11
-1.18999982E+02
 21
1.25500015E+02
  0
LINE
  8
0
 62
7
 10
-1.14999982E+02
 20
1.56500000E+02
 11
-8.29999667E+01
 21
1.56500000E+02
  0
LINE
  8
0
 62
7
 10
-1.14999982E+02
 20
1.55941452E+02
 11
-1.14999982E+02
 21
1.56500000E+02
  0
LINE
  8
0
 62
7
 10
-1.18508695E+02
 20
1.55880189E+02
 11
-8.29999585E+01
 21
1.56499997E+02
  0
LINE
  8
0
 62
7
 10
-1.34517484E+02
 20
1.24527916E+02
 11
-1.21000028E+02
 21
1.24999956E+02
  0
LINE
  8
0
 62
7
 10
-1.39499982E+02
 20
1.23500015E+02
 11
-1.34999982E+02
 21
1.23500015E+02
  0
LINE
  8
0
 62
7
 10
6.55000142E+01
 20
1.25500015E+02
 11
6.40000142E+01
 21
1.25500015E+02
  0
LINE
  8
0
 62
7
 10
6.00000161E+01
 20
1.56500000E+02
 11
2.80000100E+01
 21
1.56500000E+02
  0
LINE
  8
0
 62
7
 10
6.00000028E+01
 20
1.55941452E+02
 11
6.00000028E+01
 21
1.56500000E+02
  0
LINE
  8
0
 62
7
 10
6.35087542E+01
 20
1.55880173E+02
 11
2.80000130E+01
 21
1.56499980E+02
  0
LINE
  8
0
  6
CENTER
 62
2
 10
6.67792043E+01
 20
1.42500000E+02
 11
-1.21524472E+02
 21
1.42500000E+02
  0
LINE
  8
0
 62
7
 10
2.80000227E+01
 20
1.38000015E+02
 11
5.00002183E+00
 21
1.38000015E+02
  0
LINE
  8
0
 62
7
 10
2.80000227E+01
 20
1.47000031E+02
 11
2.00000218E+01
 21
1.47000031E+02
  0
LINE
  8
0
 62
7
 10
-8.29999972E+01
 20
1.54000015E+02
 11
-9.99997817E+00
 21
1.54000015E+02
  0
LINE
  8
0
  6
CENTER
 62
2
 10
-9.89999820E+01
 20
1.43800034E+02
 11
-9.89999820E+01
 21
1.58763641E+02
  0
LINE
  8
0
 62
7
 10
-1.52626248E+02
 20
1.11999992E+02
 11
-1.39999982E+02
 21
1.11999992E+02
  0
LINE
  8
0
 62
7
 10
-1.52626248E+02
 20
8.90000076E+01
 11
-1.39999982E+02
 21
8.90000076E+01
  0
LINE
  8
0
 62
7
 10
-1.47738340E+02
 20
1.00500000E+02
 11
-1.39999982E+02
 21
1.00500000E+02
  0
LINE
  8
0
 62
7
 10
-1.53999967E+02
 20
1.11499986E+02
 11
-1.52626231E+02
 21
1.11999985E+02
  0
LINE
  8
0
 62
7
 10
-1.53999967E+02
 20
8.94999771E+01
 11
-1.53999967E+02
 21
1.11500023E+02
  0
LINE
  8
0
 62
7
 10
-1.93999982E+02
 20
1.10000046E+02
 11
-1.93999982E+02
 21
9.09999542E+01
  0
LINE
  8
0
 62
7
 10
-1.56999967E+02
 20
1.11500023E+02
 11
-1.56999967E+02
 21
8.94999847E+01
  0
LINE
  8
0
 62
7
 10
-1.92500028E+02
 20
8.94999771E+01
 11
-1.82499997E+02
 21
8.94999771E+01
  0
LINE
  8
0
 62
7
 10
-1.92499982E+02
 20
1.11500023E+02
 11
-1.92499982E+02
 21
8.94999847E+01
  0
LINE
  8
0
 62
7
 10
-1.94000056E+02
 20
9.10000168E+01
 11
-1.92500044E+02
 21
8.95000044E+01
  0
LINE
  8
0
 62
2
 10
-1.93320035E+02
 20
9.03199921E+01
 11
-1.82499997E+02
 21
9.03199921E+01
  0
LINE
  8
0
 62
2
 10
-1.93320035E+02
 20
1.10680008E+02
 11
-1.82499997E+02
 21
1.10680008E+02
  0
LINE
  8
0
 62
7
 10
-1.94000029E+02
 20
1.09999978E+02
 11
-1.92500012E+02
 21
1.11499995E+02
  0
LINE
  8
0
 62
7
 10
-1.92500028E+02
 20
1.11500023E+02
 11
-1.82499997E+02
 21
1.11500023E+02
  0
LINE
  8
0
 62
7
 10
-1.53999950E+02
 20
8.94999847E+01
 11
-1.52626243E+02
 21
8.89999963E+01
  0
LINE
  8
0
 62
7
 10
-1.56999967E+02
 20
1.10680008E+02
 11
-1.53999967E+02
 21
1.10680008E+02
  0
LINE
  8
0
 62
7
 10
-1.56999967E+02
 20
9.03199921E+01
 11
-1.53999967E+02
 21
9.03199921E+01
  0
ARC
  8
0
 62
7
 10
-1.20499967E+02
 20
7.59999924E+01
 40
5.00000000E-01
 50
1.79999977E+02
 51
2.69999974E+02
  0
ARC
  8
0
 62
7
 10
-1.18499967E+02
 20
4.56197205E+01
 40
5.00000000E-01
 50
1.79999977E+02
 51
2.68999679E+02
  0
ARC
  8
0
 62
7
 10
-1.34499982E+02
 20
7.69717255E+01
 40
5.00000000E-01
 50
1.79999977E+02
 51
2.67999192E+02
  0
ARC
  8
0
 62
7
 10
-1.39499982E+02
 20
7.80000000E+01
 40
5.00000000E-01
 50
1.79999977E+02
 51
2.69999974E+02
  0
ARC
  8
0
 62
7
 10
6.55000066E+01
 20
1.25000000E+02
 40
5.00000000E-01
 50
5.46415133E-05
 51
9.00000369E+01
  0
ARC
  8
0
 62
7
 10
6.55000066E+01
 20
7.59999924E+01
 40
5.00000000E-01
 50
2.70000073E+02
 51
5.46415133E-05
  0
ARC
  8
0
 62
7
 10
6.35000142E+01
 20
4.56197433E+01
 40
5.00000000E-01
 50
2.71000347E+02
 51
0.00000000E+00
  0
ARC
  8
0
 62
7
 10
-1.34499982E+02
 20
1.24028275E+02
 40
5.00000000E-01
 50
9.20007356E+01
 51
1.79999964E+02
  0
ARC
  8
0
 62
7
 10
6.35000142E+01
 20
1.55380249E+02
 40
5.00000000E-01
 50
3.59999945E+02
 51
8.89995981E+01
  0
ARC
  8
0
 62
7
 10
-1.20499967E+02
 20
1.25000000E+02
 40
5.00000000E-01
 50
8.99999818E+01
 51
1.79999964E+02
  0
ARC
  8
0
 62
7
 10
-1.18499967E+02
 20
1.55380280E+02
 40
5.00000000E-01
 50
9.10002493E+01
 51
1.79999964E+02
  0
ARC
  8
0
 62
7
 10
-1.39499982E+02
 20
1.23000015E+02
 40
5.00000000E-01
 50
8.99999818E+01
 51
1.79999964E+02
  0
POLYLINE
  8
0
 62
7
 66
1
  0
VERTEX
  8
0
 62
7
 10
-1.47738340E+02
 20
1.11999992E+02
  0
VERTEX
  8
0
 62
7
 10
-1.48176489E+02
 20
1.11976845E+02
  0
VERTEX
  8
0
 62
7
 10
-1.48611110E+02
 20
1.11907588E+02
  0
VERTEX
  8
0
 62
7
 10
-1.49038704E+02
 20
1.11792779E+02
  0
VERTEX
  8
0
 62
7
 10
-1.49455828E+02
 20
1.11633343E+02
  0
VERTEX
  8
0
 62
7
 10
-1.49859124E+02
 20
1.11430564E+02
  0
VERTEX
  8
0
 62
7
 10
-1.50245345E+02
 20
1.11186074E+02
  0
VERTEX
  8
0
 62
7
 10
-1.50611381E+02
 20
1.10901842E+02
  0
VERTEX
  8
0
 62
7
 10
-1.50954285E+02
 20
1.10580155E+02
  0
VERTEX
  8
0
 62
7
 10
-1.51271295E+02
 20
1.10223605E+02
  0
VERTEX
  8
0
 62
7
 10
-1.51559861E+02
 20
1.09835062E+02
  0
VERTEX
  8
0
 62
7
 10
-1.51817658E+02
 20
1.09417653E+02
  0
VERTEX
  8
0
 62
7
 10
-1.52042611E+02
 20
1.08974741E+02
  0
VERTEX
  8
0
 62
7
 10
-1.52232908E+02
 20
1.08509891E+02
  0
VERTEX
  8
0
 62
7
 10
-1.52387018E+02
 20
1.08026845E+02
  0
VERTEX
  8
0
 62
7
 10
-1.52503699E+02
 20
1.07529494E+02
  0
VERTEX
  8
0
 62
7
 10
-1.52582012E+02
 20
1.07021840E+02
  0
VERTEX
  8
0
 62
7
 10
-1.52621327E+02
 20
1.06507972E+02
  0
VERTEX
  8
0
 62
7
 10
-1.52621327E+02
 20
1.05992028E+02
  0
VERTEX
  8
0
 62
7
 10
-1.52582012E+02
 20
1.05478160E+02
  0
VERTEX
  8
0
 62
7
 10
-1.52503699E+02
 20
1.04970506E+02
  0
VERTEX
  8
0
 62
7
 10
-1.52387018E+02
 20
1.04473155E+02
  0
VERTEX
  8
0
 62
7
 10
-1.52232908E+02
 20
1.03990109E+02
  0
VERTEX
  8
0
 62
7
 10
-1.52042611E+02
 20
1.03525259E+02
  0
VERTEX
  8
0
 62
7
 10
-1.51817658E+02
 20
1.03082347E+02
  0
VERTEX
  8
0
 62
7
 10
-1.51559861E+02
 20
1.02664938E+02
  0
VERTEX
  8
0
 62
7
 10
-1.51271295E+02
 20
1.02276395E+02
  0
VERTEX
  8
0
 62
7
 10
-1.50954285E+02
 20
1.01919845E+02
  0
VERTEX
  8
0
 62
7
 10
-1.50611381E+02
 20
1.01598158E+02
  0
VERTEX
  8
0
 62
7
 10
-1.50245345E+02
 20
1.01313926E+02
  0
VERTEX
  8
0
 62
7
 10
-1.49859124E+02
 20
1.01069436E+02
  0
VERTEX
  8
0
 62
7
 10
-1.49455828E+02
 20
1.00866657E+02
  0
VERTEX
  8
0
 62
7
 10
-1.49038704E+02
 20
1.00707221E+02
  0
VERTEX
  8
0
 62
7
 10
-1.48611110E+02
 20
1.00592412E+02
  0
VERTEX
  8
0
 62
7
 10
-1.48176489E+02
 20
1.00523155E+02
  0
VERTEX
  8
0
 62
7
 10
-1.47738340E+02
 20
1.00500008E+02
  0
SEQEND
  8
0
  0
POLYLINE
  8
0
 62
7
 66
1
  0
VERTEX
  8
0
 62
7
 10
-1.47738340E+02
 20
1.00500004E+02
  0
VERTEX
  8
0
 62
7
 10
-1.48176489E+02
 20
1.00476856E+02
  0
VERTEX
  8
0
 62
7
 10
-1.48611110E+02
 20
1.00407599E+02
  0
VERTEX
  8
0
 62
7
 10
-1.49038704E+02
 20
1.00292790E+02
  0
VERTEX
  8
0
 62
7
 10
-1.49455828E+02
 20
1.00133354E+02
  0
VERTEX
  8
0
 62
7
 10
-1.49859124E+02
 20
9.99305744E+01
  0
VERTEX
  8
0
 62
7
 10
-1.50245345E+02
 20
9.96860838E+01
  0
VERTEX
  8
0
 62
7
 10
-1.50611381E+02
 20
9.94018508E+01
  0
VERTEX
  8
0
 62
7
 10
-1.50954285E+02
 20
9.90801638E+01
  0
VERTEX
  8
0
 62
7
 10
-1.51271295E+02
 20
9.87236129E+01
  0
VERTEX
  8
0
 62
7
 10
-1.51559861E+02
 20
9.83350687E+01
  0
VERTEX
  8
0
 62
7
 10
-1.51817658E+02
 20
9.79176597E+01
  0
VERTEX
  8
0
 62
7
 10
-1.52042611E+02
 20
9.74747466E+01
  0
VERTEX
  8
0
 62
7
 10
-1.52232908E+02
 20
9.70098954E+01
  0
VERTEX
  8
0
 62
7
 10
-1.52387018E+02
 20
9.65268489E+01
  0
VERTEX
  8
0
 62
7
 10
-1.52503699E+02
 20
9.60294962E+01
  0
VERTEX
  8
0
 62
7
 10
-1.52582012E+02
 20
9.55218418E+01
  0
VERTEX
  8
0
 62
7
 10
-1.52621327E+02
 20
9.50079729E+01
  0
VERTEX
  8
0
 62
7
 10
-1.52621327E+02
 20
9.44920270E+01
  0
VERTEX
  8
0
 62
7
 10
-1.52582012E+02
 20
9.39781582E+01
  0
VERTEX
  8
0
 62
7
 10
-1.52503699E+02
 20
9.34705038E+01
  0
VERTEX
  8
0
 62
7
 10
-1.52387018E+02
 20
9.29731511E+01
  0
VERTEX
  8
0
 62
7
 10
-1.52232908E+02
 20
9.24901046E+01
  0
VERTEX
  8
0
 62
7
 10
-1.52042611E+02
 20
9.20252534E+01
  0
VERTEX
  8
0
 62
7
 10
-1.51817658E+02
 20
9.15823403E+01
  0
VERTEX
  8
0
 62
7
 10
-1.51559861E+02
 20
9.11649313E+01
  0
VERTEX
  8
0
 62
7
 10
-1.51271295E+02
 20
9.07763871E+01
  0
VERTEX
  8
0
 62
7
 10
-1.50954285E+02
 20
9.04198362E+01
  0
VERTEX
  8
0
 62
7
 10
-1.50611381E+02
 20
9.00981492E+01
  0
VERTEX
  8
0
 62
7
 10
-1.50245345E+02
 20
8.98139162E+01
  0
VERTEX
  8
0
 62
7
 10
-1.49859124E+02
 20
8.95694256E+01
  0
VERTEX
  8
0
 62
7
 10
-1.49455828E+02
 20
8.93666459E+01
  0
VERTEX
  8
0
 62
7
 10
-1.49038704E+02
 20
8.92072099E+01
  0
VERTEX
  8
0
 62
7
 10
-1.48611110E+02
 20
8.90924011E+01
  0
VERTEX
  8
0
 62
7
 10
-1.48176489E+02
 20
8.90231440E+01
  0
VERTEX
  8
0
 62
7
 10
-1.47738340E+02
 20
8.89999962E+01
  0
SEQEND
  8
0
  0
LINE
  8
0
 62
7
 10
-1.34999982E+02
 20
7.69367447E+01
 11
-1.34999982E+02
 21
1.24063248E+02
  0
ARC
  8
0
 62
4
 10
-1.73299043E+02
 20
1.16088455E+02
 40
9.20095253E+00
 50
1.45615726E+02
 51
2.14384256E+02
  0
ARC
  8
0
 62
4
 10
-1.48107732E+02
 20
1.00500000E+02
 40
3.43922653E+01
 50
1.62412050E+02
 51
1.97587933E+02
  0
ARC
  8
0
 62
4
 10
-1.73299043E+02
 20
8.49115448E+01
 40
9.20095253E+00
 50
1.45615726E+02
 51
2.14384256E+02
  0
ARC
  8
0
 62
4
 10
-1.77700952E+02
 20
1.16088455E+02
 40
9.20095253E+00
 50
3.25615707E+02
 51
3.43842378E+01
  0
ARC
  8
0
 62
4
 10
-2.02892263E+02
 20
1.00500000E+02
 40
3.43922653E+01
 50
3.42412030E+02
 51
1.75879147E+01
  0
ARC
  8
0
 62
4
 10
-1.77700952E+02
 20
8.49115448E+01
 40
9.20095253E+00
 50
3.25615707E+02
 51
3.43842378E+01
  0
LINE
  8
0
 62
4
 10
-1.68500028E+02
 20
8.24999970E+01
 11
-1.70107720E+02
 21
7.97154066E+01
  0
LINE
  8
0
 62
4
 10
-1.68499997E+02
 20
1.18500000E+02
 11
-1.68499997E+02
 21
8.25000000E+01
  0
LINE
  8
0
 62
4
 10
-1.68499997E+02
 20
1.18500012E+02
 11
-1.70107677E+02
 21
1.21284634E+02
  0
LINE
  8
0
 62
4
 10
-1.82500020E+02
 20
8.25000896E+01
 11
-1.80892315E+02
 21
7.97154821E+01
  0
LINE
  8
0
 62
4
 10
-1.82500006E+02
 20
1.18499999E+02
 11
-1.80892328E+02
 21
1.21284608E+02
  0
LINE
  8
0
 62
4
 10
-1.80892301E+02
 20
1.21284607E+02
 11
-1.70107694E+02
 21
1.21284607E+02
  0
LINE
  8
0
 62
4
 10
-1.80892301E+02
 20
1.10892303E+02
 11
-1.70107694E+02
 21
1.10892303E+02
  0
LINE
  8
0
 62
4
 10
-1.80892301E+02
 20
9.01076965E+01
 11
-1.70107694E+02
 21
9.01076965E+01
  0
LINE
  8
0
 62
4
 10
-1.80892301E+02
 20
7.97153931E+01
 11
-1.70107694E+02
 21
7.97153931E+01
  0
LINE
  8
0
 62
4
 10
-1.82499997E+02
 20
1.18500000E+02
 11
-1.82499997E+02
 21
8.25000000E+01
  0
LINE
  8
0
 62
7
 10
-1.68499997E+02
 20
1.11500023E+02
 11
-1.56999967E+02
 21
1.11500023E+02
  0
LINE
  8
0
 62
2
 10
-1.68499997E+02
 20
1.10680008E+02
 11
-1.56999967E+02
 21
1.10680008E+02
  0
LINE
  8
0
 62
2
 10
-1.68499997E+02
 20
9.03199921E+01
 11
-1.56999967E+02
 21
9.03199921E+01
  0
LINE
  8
0
 62
7
 10
-1.68499997E+02
 20
8.94999771E+01
 11
-1.56999967E+02
 21
8.94999771E+01
  0
POLYLINE
  8
0
 62
4
 66
1
  0
VERTEX
  8
0
 62
4
 10
-5.24777167E+01
 20
1.54000012E+02
  0
VERTEX
  8
0
 62
4
 10
-5.21450081E+01
 20
1.54135027E+02
  0
VERTEX
  8
0
 62
4
 10
-5.18265933E+01
 20
1.54296071E+02
  0
VERTEX
  8
0
 62
4
 10
-5.15249260E+01
 20
1.54481906E+02
  0
VERTEX
  8
0
 62
4
 10
-5.12423306E+01
 20
1.54691097E+02
  0
VERTEX
  8
0
 62
4
 10
-5.09809847E+01
 20
1.54922034E+02
  0
VERTEX
  8
0
 62
4
 10
-5.07429021E+01
 20
1.55172937E+02
  0
VERTEX
  8
0
 62
4
 10
-5.05299174E+01
 20
1.55441872E+02
  0
VERTEX
  8
0
 62
4
 10
-5.03436718E+01
 20
1.55726768E+02
  0
VERTEX
  8
0
 62
4
 10
-5.01856004E+01
 20
1.56025428E+02
  0
VERTEX
  8
0
 62
4
 10
-5.00569213E+01
 20
1.56335552E+02
  0
VERTEX
  8
0
 62
4
 10
-4.99586259E+01
 20
1.56654750E+02
  0
VERTEX
  8
0
 62
4
 10
-4.98914718E+01
 20
1.56980562E+02
  0
VERTEX
  8
0
 62
4
 10
-4.98559764E+01
 20
1.57310478E+02
  0
VERTEX
  8
0
 62
4
 10
-4.98524131E+01
 20
1.57641955E+02
  0
VERTEX
  8
0
 62
4
 10
-4.98808096E+01
 20
1.57972440E+02
  0
VERTEX
  8
0
 62
4
 10
-4.99409468E+01
 20
1.58299385E+02
  0
VERTEX
  8
0
 62
4
 10
-5.00323616E+01
 20
1.58620271E+02
  0
VERTEX
  8
0
 62
4
 10
-5.01543494E+01
 20
1.58932626E+02
  0
VERTEX
  8
0
 62
4
 10
-5.03059702E+01
 20
1.59234043E+02
  0
VERTEX
  8
0
 62
4
 10
-5.04860558E+01
 20
1.59522199E+02
  0
VERTEX
  8
0
 62
4
 10
-5.06932184E+01
 20
1.59794874E+02
  0
VERTEX
  8
0
 62
4
 10
-5.09258618E+01
 20
1.60049967E+02
  0
VERTEX
  8
0
 62
4
 10
-5.11821932E+01
 20
1.60285512E+02
  0
VERTEX
  8
0
 62
4
 10
-5.14602376E+01
 20
1.60499694E+02
  0
VERTEX
  8
0
 62
4
 10
-5.17578523E+01
 20
1.60690862E+02
  0
VERTEX
  8
0
 62
4
 10
-5.20727441E+01
 20
1.60857544E+02
  0
VERTEX
  8
0
 62
4
 10
-5.24024866E+01
 20
1.60998455E+02
  0
VERTEX
  8
0
 62
4
 10
-5.27445389E+01
 20
1.61112509E+02
  0
VERTEX
  8
0
 62
4
 10
-5.30962652E+01
 20
1.61198828E+02
  0
VERTEX
  8
0
 62
4
 10
-5.34549554E+01
 20
1.61256747E+02
  0
VERTEX
  8
0
 62
4
 10
-5.38178454E+01
 20
1.61285818E+02
  0
VERTEX
  8
0
 62
4
 10
-5.41821391E+01
 20
1.61285818E+02
  0
VERTEX
  8
0
 62
4
 10
-5.45450292E+01
 20
1.61256748E+02
  0
VERTEX
  8
0
 62
4
 10
-5.49037195E+01
 20
1.61198830E+02
  0
VERTEX
  8
0
 62
4
 10
-5.52554461E+01
 20
1.61112512E+02
  0
VERTEX
  8
0
 62
4
 10
-5.55974986E+01
 20
1.60998458E+02
  0
VERTEX
  8
0
 62
4
 10
-5.59272415E+01
 20
1.60857548E+02
  0
VERTEX
  8
0
 62
4
 10
-5.62421338E+01
 20
1.60690867E+02
  0
VERTEX
  8
0
 62
4
 10
-5.65397490E+01
 20
1.60499699E+02
  0
VERTEX
  8
0
 62
4
 10
-5.68177939E+01
 20
1.60285518E+02
  0
VERTEX
  8
0
 62
4
 10
-5.70741260E+01
 20
1.60049974E+02
  0
VERTEX
  8
0
 62
4
 10
-5.73067700E+01
 20
1.59794882E+02
  0
VERTEX
  8
0
 62
4
 10
-5.75139334E+01
 20
1.59522207E+02
  0
VERTEX
  8
0
 62
4
 10
-5.76940197E+01
 20
1.59234051E+02
  0
VERTEX
  8
0
 62
4
 10
-5.78456413E+01
 20
1.58932635E+02
  0
VERTEX
  8
0
 62
4
 10
-5.79676299E+01
 20
1.58620280E+02
  0
VERTEX
  8
0
 62
4
 10
-5.80590455E+01
 20
1.58299393E+02
  0
VERTEX
  8
0
 62
4
 10
-5.81191836E+01
 20
1.57972449E+02
  0
VERTEX
  8
0
 62
4
 10
-5.81475809E+01
 20
1.57641964E+02
  0
VERTEX
  8
0
 62
4
 10
-5.81440186E+01
 20
1.57310487E+02
  0
VERTEX
  8
0
 62
4
 10
-5.81085240E+01
 20
1.56980571E+02
  0
VERTEX
  8
0
 62
4
 10
-5.80413707E+01
 20
1.56654759E+02
  0
VERTEX
  8
0
 62
4
 10
-5.79430762E+01
 20
1.56335561E+02
  0
VERTEX
  8
0
 62
4
 10
-5.78143979E+01
 20
1.56025436E+02
  0
VERTEX
  8
0
 62
4
 10
-5.76563273E+01
 20
1.55726776E+02
  0
VERTEX
  8
0
 62
4
 10
-5.74700824E+01
 20
1.55441880E+02
  0
VERTEX
  8
0
 62
4
 10
-5.72570985E+01
 20
1.55172944E+02
  0
VERTEX
  8
0
 62
4
 10
-5.70190165E+01
 20
1.54922041E+02
  0
VERTEX
  8
0
 62
4
 10
-5.67576712E+01
 20
1.54691103E+02
  0
VERTEX
  8
0
 62
4
 10
-5.64750764E+01
 20
1.54481911E+02
  0
VERTEX
  8
0
 62
4
 10
-5.61734095E+01
 20
1.54296076E+02
  0
VERTEX
  8
0
 62
4
 10
-5.58549952E+01
 20
1.54135031E+02
  0
VERTEX
  8
0
 62
4
 10
-5.55222870E+01
 20
1.54000015E+02
  0
SEQEND
  8
0
  0
POLYLINE
  8
0
 62
4
 66
1
  0
VERTEX
  8
0
 62
4
 10
-5.11951379E+01
 20
1.54000016E+02
  0
VERTEX
  8
0
 62
4
 10
-5.09257998E+01
 20
1.54246471E+02
  0
VERTEX
  8
0
 62
4
 10
-5.06825043E+01
 20
1.54514416E+02
  0
VERTEX
  8
0
 62
4
 10
-5.04673124E+01
 20
1.54801581E+02
  0
VERTEX
  8
0
 62
4
 10
-5.02820472E+01
 20
1.55105533E+02
  0
VERTEX
  8
0
 62
4
 10
-5.01282780E+01
 20
1.55423698E+02
  0
VERTEX
  8
0
 62
4
 10
-5.00073075E+01
 20
1.55753381E+02
  0
VERTEX
  8
0
 62
4
 10
-4.99201605E+01
 20
1.56091788E+02
  0
VERTEX
  8
0
 62
4
 10
-4.98675753E+01
 20
1.56436052E+02
  0
VERTEX
  8
0
 62
4
 10
-4.98499972E+01
 20
1.56783258E+02
  0
SEQEND
  8
0
  0
LINE
  8
0
 62
4
 10
-3.89999972E+01
 20
1.54000015E+02
 11
-3.89999972E+01
 21
1.63905365E+02
  0
LINE
  8
0
 62
4
 10
-4.54999972E+01
 20
1.54069725E+02
 11
-4.54999972E+01
 21
1.54000015E+02
  0
LINE
  8
0
 62
4
 10
-6.89999972E+01
 20
1.63905365E+02
 11
-6.89999972E+01
 21
1.54069725E+02
  0
LINE
  8
0
  6
CENTER
 62
6
 10
-4.93499972E+01
 20
1.56625674E+02
 11
-5.86499972E+01
 21
1.56625674E+02
  0
LINE
  8
0
  6
CENTER
 62
6
 10
-5.39999972E+01
 20
1.61275674E+02
 11
-5.39999972E+01
 21
1.51975674E+02
  0
LINE
  8
0
  6
CENTER
 62
6
 10
-5.79254004E+01
 20
1.59810539E+02
 11
-6.50745941E+01
 21
1.59810539E+02
  0
LINE
  8
0
  6
CENTER
 62
6
 10
-6.14999972E+01
 20
1.63385136E+02
 11
-6.14999972E+01
 21
1.56235942E+02
  0
LINE
  8
0
  6
CENTER
 62
6
 10
-4.16999973E+01
 20
1.59810539E+02
 11
-5.12999973E+01
 21
1.59810539E+02
  0
LINE
  8
0
  6
CENTER
 62
6
 10
-4.64999972E+01
 20
1.64610539E+02
 11
-4.64999972E+01
 21
1.55010539E+02
  0
LINE
  8
0
 62
4
 10
-6.89999973E+01
 20
1.63905365E+02
 11
-3.89999972E+01
 21
1.63905365E+02
  0
LINE
  8
0
 62
4
 10
-6.89999972E+01
 20
1.54069725E+02
 11
-6.90907303E+01
 21
1.54000015E+02
  0
LINE
  8
0
 62
4
 10
-6.89999973E+01
 20
1.54069725E+02
 11
-5.68861699E+01
 21
1.54069725E+02
  0
LINE
  8
0
 62
4
 10
-6.89999972E+01
 20
1.54069725E+02
 11
-6.89999972E+01
 21
1.54000015E+02
  0
POLYLINE
  8
0
 62
4
 66
1
  0
VERTEX
  8
0
 62
4
 10
-4.87639655E+01
 20
1.63002396E+02
  0
VERTEX
  8
0
 62
4
 10
-4.90229677E+01
 20
1.62810967E+02
  0
VERTEX
  8
0
 62
4
 10
-4.92625169E+01
 20
1.62599601E+02
  0
VERTEX
  8
0
 62
4
 10
-4.94807660E+01
 20
1.62369927E+02
  0
VERTEX
  8
0
 62
4
 10
-4.96760323E+01
 20
1.62123718E+02
  0
VERTEX
  8
0
 62
4
 10
-4.98468101E+01
 20
1.61862870E+02
  0
VERTEX
  8
0
 62
4
 10
-4.99917827E+01
 20
1.61589395E+02
  0
VERTEX
  8
0
 62
4
 10
-5.01098323E+01
 20
1.61305403E+02
  0
VERTEX
  8
0
 62
4
 10
-5.02000487E+01
 20
1.61013081E+02
  0
VERTEX
  8
0
 62
4
 10
-5.02617363E+01
 20
1.60714685E+02
  0
VERTEX
  8
0
 62
4
 10
-5.02944195E+01
 20
1.60412516E+02
  0
VERTEX
  8
0
 62
4
 10
-5.02978462E+01
 20
1.60108902E+02
  0
VERTEX
  8
0
 62
4
 10
-5.02719900E+01
 20
1.59806185E+02
  0
VERTEX
  8
0
 62
4
 10
-5.02170504E+01
 20
1.59506699E+02
  0
VERTEX
  8
0
 62
4
 10
-5.01334509E+01
 20
1.59212753E+02
  0
VERTEX
  8
0
 62
4
 10
-5.00218360E+01
 20
1.58926614E+02
  0
VERTEX
  8
0
 62
4
 10
-4.98830664E+01
 20
1.58650488E+02
  0
VERTEX
  8
0
 62
4
 10
-4.97182121E+01
 20
1.58386504E+02
  0
VERTEX
  8
0
 62
4
 10
-4.95285441E+01
 20
1.58136697E+02
  0
VERTEX
  8
0
 62
4
 10
-4.93155249E+01
 20
1.57902993E+02
  0
VERTEX
  8
0
 62
4
 10
-4.90807968E+01
 20
1.57687195E+02
  0
VERTEX
  8
0
 62
4
 10
-4.88261699E+01
 20
1.57490966E+02
  0
VERTEX
  8
0
 62
4
 10
-4.85536072E+01
 20
1.57315819E+02
  0
VERTEX
  8
0
 62
4
 10
-4.82652104E+01
 20
1.57163105E+02
  0
VERTEX
  8
0
 62
4
 10
-4.79632032E+01
 20
1.57034001E+02
  0
VERTEX
  8
0
 62
4
 10
-4.76499141E+01
 20
1.56929502E+02
  0
VERTEX
  8
0
 62
4
 10
-4.73277586E+01
 20
1.56850415E+02
  0
VERTEX
  8
0
 62
4
 10
-4.69992209E+01
 20
1.56797349E+02
  0
VERTEX
  8
0
 62
4
 10
-4.66668339E+01
 20
1.56770713E+02
  0
VERTEX
  8
0
 62
4
 10
-4.63331606E+01
 20
1.56770713E+02
  0
VERTEX
  8
0
 62
4
 10
-4.60007736E+01
 20
1.56797349E+02
  0
VERTEX
  8
0
 62
4
 10
-4.56722358E+01
 20
1.56850415E+02
  0
VERTEX
  8
0
 62
4
 10
-4.53500804E+01
 20
1.56929502E+02
  0
VERTEX
  8
0
 62
4
 10
-4.50367913E+01
 20
1.57034000E+02
  0
VERTEX
  8
0
 62
4
 10
-4.47347840E+01
 20
1.57163104E+02
  0
VERTEX
  8
0
 62
4
 10
-4.44463873E+01
 20
1.57315819E+02
  0
VERTEX
  8
0
 62
4
 10
-4.41738246E+01
 20
1.57490966E+02
  0
VERTEX
  8
0
 62
4
 10
-4.39191976E+01
 20
1.57687195E+02
  0
VERTEX
  8
0
 62
4
 10
-4.36844696E+01
 20
1.57902993E+02
  0
VERTEX
  8
0
 62
4
 10
-4.34714503E+01
 20
1.58136697E+02
  0
VERTEX
  8
0
 62
4
 10
-4.32817823E+01
 20
1.58386504E+02
  0
VERTEX
  8
0
 62
4
 10
-4.31169280E+01
 20
1.58650488E+02
  0
VERTEX
  8
0
 62
4
 10
-4.29781584E+01
 20
1.58926614E+02
  0
VERTEX
  8
0
 62
4
 10
-4.28665436E+01
 20
1.59212753E+02
  0
VERTEX
  8
0
 62
4
 10
-4.27829440E+01
 20
1.59506699E+02
  0
VERTEX
  8
0
 62
4
 10
-4.27280044E+01
 20
1.59806185E+02
  0
VERTEX
  8
0
 62
4
 10
-4.27021482E+01
 20
1.60108902E+02
  0
VERTEX
  8
0
 62
4
 10
-4.27055749E+01
 20
1.60412516E+02
  0
VERTEX
  8
0
 62
4
 10
-4.27382581E+01
 20
1.60714685E+02
  0
VERTEX
  8
0
 62
4
 10
-4.27999457E+01
 20
1.61013081E+02
  0
VERTEX
  8
0
 62
4
 10
-4.28901621E+01
 20
1.61305403E+02
  0
VERTEX
  8
0
 62
4
 10
-4.30082117E+01
 20
1.61589395E+02
  0
VERTEX
  8
0
 62
4
 10
-4.31531843E+01
 20
1.61862870E+02
  0
VERTEX
  8
0
 62
4
 10
-4.33239621E+01
 20
1.62123718E+02
  0
VERTEX
  8
0
 62
4
 10
-4.35192283E+01
 20
1.62369927E+02
  0
VERTEX
  8
0
 62
4
 10
-4.37374775E+01
 20
1.62599601E+02
  0
VERTEX
  8
0
 62
4
 10
-4.39770266E+01
 20
1.62810967E+02
  0
VERTEX
  8
0
 62
4
 10
-4.42360289E+01
 20
1.63002396E+02
  0
SEQEND
  8
0
  0
POLYLINE
  8
0
 62
4
 66
1
  0
VERTEX
  8
0
 62
4
 10
-4.98999972E+01
 20
1.60225232E+02
  0
VERTEX
  8
0
 62
4
 10
-4.98863098E+01
 20
1.59947900E+02
  0
VERTEX
  8
0
 62
4
 10
-4.98453578E+01
 20
1.59672800E+02
  0
VERTEX
  8
0
 62
4
 10
-4.97774710E+01
 20
1.59402149E+02
  0
VERTEX
  8
0
 62
4
 10
-4.96831958E+01
 20
1.59138125E+02
  0
VERTEX
  8
0
 62
4
 10
-4.95632914E+01
 20
1.58882853E+02
  0
VERTEX
  8
0
 62
4
 10
-4.94187231E+01
 20
1.58638389E+02
  0
VERTEX
  8
0
 62
4
 10
-4.92506550E+01
 20
1.58406702E+02
  0
VERTEX
  8
0
 62
4
 10
-4.90604402E+01
 20
1.58189656E+02
  0
VERTEX
  8
0
 62
4
 10
-4.88496102E+01
 20
1.57989000E+02
  0
VERTEX
  8
0
 62
4
 10
-4.86198626E+01
 20
1.57806348E+02
  0
VERTEX
  8
0
 62
4
 10
-4.83730470E+01
 20
1.57643172E+02
  0
VERTEX
  8
0
 62
4
 10
-4.81111507E+01
 20
1.57500785E+02
  0
VERTEX
  8
0
 62
4
 10
-4.78362823E+01
 20
1.57380334E+02
  0
VERTEX
  8
0
 62
4
 10
-4.75506550E+01
 20
1.57282788E+02
  0
VERTEX
  8
0
 62
4
 10
-4.72565684E+01
 20
1.57208933E+02
  0
VERTEX
  8
0
 62
4
 10
-4.69563903E+01
 20
1.57159364E+02
  0
VERTEX
  8
0
 62
4
 10
-4.66525376E+01
 20
1.57134479E+02
  0
VERTEX
  8
0
 62
4
 10
-4.63474568E+01
 20
1.57134479E+02
  0
VERTEX
  8
0
 62
4
 10
-4.60436041E+01
 20
1.57159364E+02
  0
VERTEX
  8
0
 62
4
 10
-4.57434260E+01
 20
1.57208933E+02
  0
VERTEX
  8
0
 62
4
 10
-4.54493394E+01
 20
1.57282788E+02
  0
VERTEX
  8
0
 62
4
 10
-4.51637121E+01
 20
1.57380334E+02
  0
VERTEX
  8
0
 62
4
 10
-4.48888438E+01
 20
1.57500785E+02
  0
VERTEX
  8
0
 62
4
 10
-4.46269475E+01
 20
1.57643172E+02
  0
VERTEX
  8
0
 62
4
 10
-4.43801319E+01
 20
1.57806348E+02
  0
VERTEX
  8
0
 62
4
 10
-4.41503842E+01
 20
1.57989000E+02
  0
VERTEX
  8
0
 62
4
 10
-4.39395542E+01
 20
1.58189656E+02
  0
VERTEX
  8
0
 62
4
 10
-4.37493394E+01
 20
1.58406702E+02
  0
VERTEX
  8
0
 62
4
 10
-4.35812713E+01
 20
1.58638389E+02
  0
VERTEX
  8
0
 62
4
 10
-4.34367030E+01
 20
1.58882853E+02
  0
VERTEX
  8
0
 62
4
 10
-4.33167986E+01
 20
1.59138125E+02
  0
VERTEX
  8
0
 62
4
 10
-4.32225235E+01
 20
1.59402149E+02
  0
VERTEX
  8
0
 62
4
 10
-4.31546366E+01
 20
1.59672800E+02
  0
VERTEX
  8
0
 62
4
 10
-4.31136846E+01
 20
1.59947900E+02
  0
VERTEX
  8
0
 62
4
 10
-4.30999972E+01
 20
1.60225232E+02
  0
SEQEND
  8
0
  0
POLYLINE
  8
0
 62
4
 66
1
  0
VERTEX
  8
0
 62
4
 10
-4.98999972E+01
 20
1.60694169E+02
  0
VERTEX
  8
0
 62
4
 10
-4.98870592E+01
 20
1.60424521E+02
  0
VERTEX
  8
0
 62
4
 10
-4.98483436E+01
 20
1.60156924E+02
  0
VERTEX
  8
0
 62
4
 10
-4.97841450E+01
 20
1.59893417E+02
  0
VERTEX
  8
0
 62
4
 10
-4.96949521E+01
 20
1.59636004E+02
  0
VERTEX
  8
0
 62
4
 10
-4.95814437E+01
 20
1.59386644E+02
  0
VERTEX
  8
0
 62
4
 10
-4.94444836E+01
 20
1.59147235E+02
  0
VERTEX
  8
0
 62
4
 10
-4.92851142E+01
 20
1.58919599E+02
  0
VERTEX
  8
0
 62
4
 10
-4.91045483E+01
 20
1.58705469E+02
  0
VERTEX
  8
0
 62
4
 10
-4.89041603E+01
 20
1.58506474E+02
  0
VERTEX
  8
0
 62
4
 10
-4.86854751E+01
 20
1.58324128E+02
  0
VERTEX
  8
0
 62
4
 10
-4.84501571E+01
 20
1.58159820E+02
  0
VERTEX
  8
0
 62
4
 10
-4.81999972E+01
 20
1.58014800E+02
  0
VERTEX
  8
0
 62
4
 10
-4.79368993E+01
 20
1.57890172E+02
  0
VERTEX
  8
0
 62
4
 10
-4.76628657E+01
 20
1.57786884E+02
  0
VERTEX
  8
0
 62
4
 10
-4.73799820E+01
 20
1.57705722E+02
  0
VERTEX
  8
0
 62
4
 10
-4.70904010E+01
 20
1.57647303E+02
  0
VERTEX
  8
0
 62
4
 10
-4.67963267E+01
 20
1.57612074E+02
  0
VERTEX
  8
0
 62
4
 10
-4.64999972E+01
 20
1.57600301E+02
  0
VERTEX
  8
0
 62
4
 10
-4.62036677E+01
 20
1.57612074E+02
  0
VERTEX
  8
0
 62
4
 10
-4.59095934E+01
 20
1.57647303E+02
  0
VERTEX
  8
0
 62
4
 10
-4.56200124E+01
 20
1.57705722E+02
  0
VERTEX
  8
0
 62
4
 10
-4.53371287E+01
 20
1.57786884E+02
  0
VERTEX
  8
0
 62
4
 10
-4.50630951E+01
 20
1.57890172E+02
  0
VERTEX
  8
0
 62
4
 10
-4.47999972E+01
 20
1.58014800E+02
  0
VERTEX
  8
0
 62
4
 10
-4.45498373E+01
 20
1.58159820E+02
  0
VERTEX
  8
0
 62
4
 10
-4.43145193E+01
 20
1.58324128E+02
  0
VERTEX
  8
0
 62
4
 10
-4.40958341E+01
 20
1.58506474E+02
  0
VERTEX
  8
0
 62
4
 10
-4.38954461E+01
 20
1.58705469E+02
  0
VERTEX
  8
0
 62
4
 10
-4.37148802E+01
 20
1.58919599E+02
  0
VERTEX
  8
0
 62
4
 10
-4.35555108E+01
 20
1.59147235E+02
  0
VERTEX
  8
0
 62
4
 10
-4.34185507E+01
 20
1.59386644E+02
  0
VERTEX
  8
0
 62
4
 10
-4.33050423E+01
 20
1.59636004E+02
  0
VERTEX
  8
0
 62
4
 10
-4.32158494E+01
 20
1.59893417E+02
  0
VERTEX
  8
0
 62
4
 10
-4.31516508E+01
 20
1.60156924E+02
  0
VERTEX
  8
0
 62
4
 10
-4.31129352E+01
 20
1.60424521E+02
  0
VERTEX
  8
0
 62
4
 10
-4.30999972E+01
 20
1.60694169E+02
  0
VERTEX
  8
0
 62
4
 10
-4.31129352E+01
 20
1.60963817E+02
  0
VERTEX
  8
0
 62
4
 10
-4.31516508E+01
 20
1.61231414E+02
  0
VERTEX
  8
0
 62
4
 10
-4.32158494E+01
 20
1.61494921E+02
  0
VERTEX
  8
0
 62
4
 10
-4.33050423E+01
 20
1.61752334E+02
  0
VERTEX
  8
0
 62
4
 10
-4.34185507E+01
 20
1.62001694E+02
  0
VERTEX
  8
0
 62
4
 10
-4.35555108E+01
 20
1.62241103E+02
  0
VERTEX
  8
0
 62
4
 10
-4.37148802E+01
 20
1.62468739E+02
  0
VERTEX
  8
0
 62
4
 10
-4.38954461E+01
 20
1.62682869E+02
  0
VERTEX
  8
0
 62
4
 10
-4.40958341E+01
 20
1.62881864E+02
  0
VERTEX
  8
0
 62
4
 10
-4.43145193E+01
 20
1.63064210E+02
  0
VERTEX
  8
0
 62
4
 10
-4.45498373E+01
 20
1.63228518E+02
  0
VERTEX
  8
0
 62
4
 10
-4.47999972E+01
 20
1.63373538E+02
  0
VERTEX
  8
0
 62
4
 10
-4.50630951E+01
 20
1.63498166E+02
  0
VERTEX
  8
0
 62
4
 10
-4.53371287E+01
 20
1.63601454E+02
  0
VERTEX
  8
0
 62
4
 10
-4.56200124E+01
 20
1.63682616E+02
  0
VERTEX
  8
0
 62
4
 10
-4.59095934E+01
 20
1.63741035E+02
  0
VERTEX
  8
0
 62
4
 10
-4.62036677E+01
 20
1.63776264E+02
  0
VERTEX
  8
0
 62
4
 10
-4.64999972E+01
 20
1.63788037E+02
  0
VERTEX
  8
0
 62
4
 10
-4.67963267E+01
 20
1.63776264E+02
  0
VERTEX
  8
0
 62
4
 10
-4.70904010E+01
 20
1.63741035E+02
  0
VERTEX
  8
0
 62
4
 10
-4.73799820E+01
 20
1.63682616E+02
  0
VERTEX
  8
0
 62
4
 10
-4.76628657E+01
 20
1.63601454E+02
  0
VERTEX
  8
0
 62
4
 10
-4.79368993E+01
 20
1.63498166E+02
  0
VERTEX
  8
0
 62
4
 10
-4.81999972E+01
 20
1.63373538E+02
  0
VERTEX
  8
0
 62
4
 10
-4.84501571E+01
 20
1.63228518E+02
  0
VERTEX
  8
0
 62
4
 10
-4.86854751E+01
 20
1.63064210E+02
  0
VERTEX
  8
0
 62
4
 10
-4.89041603E+01
 20
1.62881864E+02
  0
VERTEX
  8
0
 62
4
 10
-4.91045483E+01
 20
1.62682869E+02
  0
VERTEX
  8
0
 62
4
 10
-4.92851142E+01
 20
1.62468739E+02
  0
VERTEX
  8
0
 62
4
 10
-4.94444836E+01
 20
1.62241103E+02
  0
VERTEX
  8
0
 62
4
 10
-4.95814437E+01
 20
1.62001694E+02
  0
VERTEX
  8
0
 62
4
 10
-4.96949521E+01
 20
1.61752334E+02
  0
VERTEX
  8
0
 62
4
 10
-4.97841450E+01
 20
1.61494921E+02
  0
VERTEX
  8
0
 62
4
 10
-4.98483436E+01
 20
1.61231414E+02
  0
VERTEX
  8
0
 62
4
 10
-4.98870592E+01
 20
1.60963817E+02
  0
VERTEX
  8
0
 62
4
 10
-4.98999972E+01
 20
1.60694169E+02
  0
SEQEND
  8
0
  0
POLYLINE
  8
0
 62
4
 66
1
  0
VERTEX
  8
0
 62
4
 10
-4.99622032E+01
 20
1.58385315E+02
  0
VERTEX
  8
0
 62
4
 10
-4.98118302E+01
 20
1.58115039E+02
  0
VERTEX
  8
0
 62
4
 10
-4.96360376E+01
 20
1.57857776E+02
  0
VERTEX
  8
0
 62
4
 10
-4.94361747E+01
 20
1.57615502E+02
  0
VERTEX
  8
0
 62
4
 10
-4.92137754E+01
 20
1.57390075E+02
  0
VERTEX
  8
0
 62
4
 10
-4.89705469E+01
 20
1.57183226E+02
  0
VERTEX
  8
0
 62
4
 10
-4.87083559E+01
 20
1.56996543E+02
  0
VERTEX
  8
0
 62
4
 10
-4.84292149E+01
 20
1.56831459E+02
  0
VERTEX
  8
0
 62
4
 10
-4.81352664E+01
 20
1.56689240E+02
  0
VERTEX
  8
0
 62
4
 10
-4.78287665E+01
 20
1.56570978E+02
  0
VERTEX
  8
0
 62
4
 10
-4.75120679E+01
 20
1.56477581E+02
  0
VERTEX
  8
0
 62
4
 10
-4.71876012E+01
 20
1.56409766E+02
  0
VERTEX
  8
0
 62
4
 10
-4.68578568E+01
 20
1.56368054E+02
  0
VERTEX
  8
0
 62
4
 10
-4.65253658E+01
 20
1.56352763E+02
  0
VERTEX
  8
0
 62
4
 10
-4.61926800E+01
 20
1.56364013E+02
  0
VERTEX
  8
0
 62
4
 10
-4.58623530E+01
 20
1.56401716E+02
  0
VERTEX
  8
0
 62
4
 10
-4.55369202E+01
 20
1.56465582E+02
  0
VERTEX
  8
0
 62
4
 10
-4.52188794E+01
 20
1.56555123E+02
  0
VERTEX
  8
0
 62
4
 10
-4.49106717E+01
 20
1.56669651E+02
  0
VERTEX
  8
0
 62
4
 10
-4.46146626E+01
 20
1.56808285E+02
  0
VERTEX
  8
0
 62
4
 10
-4.43331243E+01
 20
1.56969964E+02
  0
VERTEX
  8
0
 62
4
 10
-4.40682175E+01
 20
1.57153445E+02
  0
VERTEX
  8
0
 62
4
 10
-4.38219756E+01
 20
1.57357320E+02
  0
VERTEX
  8
0
 62
4
 10
-4.35962885E+01
 20
1.57580024E+02
  0
VERTEX
  8
0
 62
4
 10
-4.33928886E+01
 20
1.57819849E+02
  0
VERTEX
  8
0
 62
4
 10
-4.32133369E+01
 20
1.58074953E+02
  0
VERTEX
  8
0
 62
4
 10
-4.30590116E+01
 20
1.58343378E+02
  0
VERTEX
  8
0
 62
4
 10
-4.29310973E+01
 20
1.58623064E+02
  0
VERTEX
  8
0
 62
4
 10
-4.28305756E+01
 20
1.58911865E+02
  0
VERTEX
  8
0
 62
4
 10
-4.27582182E+01
 20
1.59207563E+02
  0
VERTEX
  8
0
 62
4
 10
-4.27145804E+01
 20
1.59507890E+02
  0
VERTEX
  8
0
 62
4
 10
-4.26999972E+01
 20
1.59810539E+02
  0
SEQEND
  8
0
  0
ARC
  8
0
 62
4
 10
-9.35808395E+01
 20
1.09426173E+02
 40
6.99948777E+01
 50
4.57421700E+01
 51
4.96558689E+01
  0
ARC
  8
0
 62
4
 10
5.80845001E-01
 20
1.09426173E+02
 40
6.99948777E+01
 50
1.30344131E+02
 51
1.34257830E+02
  0
LINE
  8
0
 62
4
 10
-4.30999972E+01
 20
1.60225232E+02
 11
-4.30999972E+01
 21
1.60694169E+02
  0
LINE
  8
0
 62
4
 10
-4.26999973E+01
 20
1.59810539E+02
 11
-4.26999973E+01
 21
1.60225232E+02
  0
LINE
  8
0
 62
4
 10
-4.98999973E+01
 20
1.60225232E+02
 11
-4.98999973E+01
 21
1.60694169E+02
  0
LINE
  8
0
 62
4
 10
-5.02999973E+01
 20
1.59810539E+02
 11
-5.02999973E+01
 21
1.60225232E+02
  0
POLYLINE
  8
0
 62
4
 66
1
  0
VERTEX
  8
0
 62
4
 10
-5.02999972E+01
 20
1.59810539E+02
  0
VERTEX
  8
0
 62
4
 10
-5.02940085E+01
 20
1.59616483E+02
  0
VERTEX
  8
0
 62
4
 10
-5.02760611E+01
 20
1.59423039E+02
  0
VERTEX
  8
0
 62
4
 10
-5.02462116E+01
 20
1.59230816E+02
  0
VERTEX
  8
0
 62
4
 10
-5.02045542E+01
 20
1.59040421E+02
  0
SEQEND
  8
0
  0
ARC
  8
0
 62
4
 10
-9.17816876E+01
 20
1.16254885E+02
 40
5.61787639E+01
 50
4.52517517E+01
 51
5.01291401E+01
  0
ARC
  8
0
 62
4
 10
-1.62182427E+01
 20
1.16254814E+02
 40
5.61788594E+01
 50
1.29870864E+02
 51
1.34748244E+02
  0
LINE
  8
0
 62
4
 10
-4.98499972E+01
 20
1.56783258E+02
 11
-4.98499972E+01
 21
1.57513118E+02
  0
POLYLINE
  8
0
 62
4
 66
1
  0
VERTEX
  8
0
 62
4
 10
-5.81499972E+01
 20
1.56783258E+02
  0
VERTEX
  8
0
 62
4
 10
-5.81324191E+01
 20
1.56436052E+02
  0
VERTEX
  8
0
 62
4
 10
-5.80798339E+01
 20
1.56091788E+02
  0
VERTEX
  8
0
 62
4
 10
-5.79926869E+01
 20
1.55753381E+02
  0
VERTEX
  8
0
 62
4
 10
-5.78717164E+01
 20
1.55423698E+02
  0
VERTEX
  8
0
 62
4
 10
-5.77179472E+01
 20
1.55105533E+02
  0
VERTEX
  8
0
 62
4
 10
-5.75326820E+01
 20
1.54801581E+02
  0
VERTEX
  8
0
 62
4
 10
-5.73174901E+01
 20
1.54514416E+02
  0
VERTEX
  8
0
 62
4
 10
-5.70741946E+01
 20
1.54246471E+02
  0
VERTEX
  8
0
 62
4
 10
-5.68048565E+01
 20
1.54000016E+02
  0
SEQEND
  8
0
  0
LINE
  8
0
 62
4
 10
-5.81499972E+01
 20
1.56783258E+02
 11
-5.81499972E+01
 21
1.57513118E+02
  0
LINE
  8
0
 62
4
 10
-6.89999973E+01
 20
1.54441767E+02
 11
-5.72559557E+01
 21
1.54441767E+02
  0
LINE
  8
0
 62
4
 10
-5.07440388E+01
 20
1.54441767E+02
 11
-3.89999972E+01
 21
1.54441767E+02
  0
LINE
  8
0
 62
4
 10
-5.11138245E+01
 20
1.54069725E+02
 11
-4.54999972E+01
 21
1.54069725E+02
  0
LINE
  8
0
  6
CENTER
 62
6
 10
-2.44999991E+01
 20
1.51420416E+02
 11
2.50000219E+01
 21
1.51420416E+02
  0
LINE
  8
0
 62
4
 10
-9.99997815E+00
 20
1.52920416E+02
 11
-1.91339528E+01
 21
1.52920416E+02
  0
LINE
  8
0
 62
4
 10
-9.99997815E+00
 20
1.49920416E+02
 11
-2.08660036E+01
 21
1.49920416E+02
  0
LINE
  8
0
 62
6
 10
-1.82679273E+01
 20
1.54420416E+02
 11
-2.17320289E+01
 21
1.48420416E+02
  0
LINE
  8
0
 62
4
 10
5.00002183E+00
 20
1.31767706E+02
 11
5.00002183E+00
 21
1.59634024E+02
  0
LINE
  8
0
 62
4
 10
-9.99997817E+00
 20
1.31767706E+02
 11
-9.99997817E+00
 21
1.63905365E+02
  0
LINE
  8
0
 62
4
 10
2.00000218E+01
 20
1.63905365E+02
 11
2.00000218E+01
 21
1.44908767E+02
  0
LINE
  8
0
  6
CENTER
 62
6
 10
1.50002183E+00
 20
1.32330530E+02
 11
1.50002183E+00
 21
1.39330530E+02
  0
LINE
  8
0
  6
CENTER
 62
6
 10
-9.99997817E+00
 20
1.35830530E+02
 11
-2.99997817E+00
 21
1.35830530E+02
  0
LINE
  8
0
  6
CENTER
 62
6
 10
-6.49997817E+00
 20
1.32330530E+02
 11
-6.49997817E+00
 21
1.39330530E+02
  0
LINE
  8
0
  6
CENTER
 62
6
 10
-1.99997817E+00
 20
1.35830530E+02
 11
5.00002183E+00
 21
1.35830530E+02
  0
LINE
  8
0
 62
4
 10
-9.99997817E+00
 20
1.63905365E+02
 11
2.00000218E+01
 21
1.63905365E+02
  0
LINE
  8
0
 62
4
 10
-9.99997818E+00
 20
1.59634024E+02
 11
2.00000218E+01
 21
1.59634024E+02
  0
LINE
  8
0
 62
4
 10
-9.99997818E+00
 20
1.56731172E+02
 11
5.00002182E+00
 21
1.56731172E+02
  0
LINE
  8
0
 62
4
 10
-8.99997812E+00
 20
1.42592275E+02
 11
4.00002185E+00
 21
1.42592275E+02
  0
LINE
  8
0
 62
4
 10
5.00002182E+00
 20
1.44908767E+02
 11
2.00000218E+01
 21
1.44908767E+02
  0
LINE
  8
0
 62
4
 10
-9.99997818E+00
 20
1.31767706E+02
 11
5.00002182E+00
 21
1.31767706E+02
  0
LINE
  8
0
 62
4
 10
5.00002182E+00
 20
1.51899353E+02
 11
2.00000218E+01
 21
1.51899353E+02
  0
LINE
  8
0
 62
4
 10
5.00002182E+00
 20
1.51733476E+02
 11
2.00000218E+01
 21
1.51733476E+02
  0
LINE
  8
0
  6
CENTER
 62
6
 10
1.60746187E+01
 20
1.55539199E+02
 11
8.92542495E+00
 21
1.55539199E+02
  0
LINE
  8
0
  6
CENTER
 62
6
 10
1.25000218E+01
 20
1.59113795E+02
 11
1.25000218E+01
 21
1.51964602E+02
  0
POLYLINE
  8
0
 62
4
 66
1
  0
VERTEX
  8
0
 62
4
 10
1.47500218E+01
 20
1.55539199E+02
  0
VERTEX
  8
0
 62
4
 10
1.47414599E+01
 20
1.55717643E+02
  0
VERTEX
  8
0
 62
4
 10
1.47158392E+01
 20
1.55894729E+02
  0
VERTEX
  8
0
 62
4
 10
1.46733549E+01
 20
1.56069108E+02
  0
VERTEX
  8
0
 62
4
 10
1.46143302E+01
 20
1.56239455E+02
  0
VERTEX
  8
0
 62
4
 10
1.45392143E+01
 20
1.56404473E+02
  0
VERTEX
  8
0
 62
4
 10
1.44485790E+01
 20
1.56562905E+02
  0
VERTEX
  8
0
 62
4
 10
1.43431139E+01
 20
1.56713547E+02
  0
VERTEX
  8
0
 62
4
 10
1.42236218E+01
 20
1.56855251E+02
  0
VERTEX
  8
0
 62
4
 10
1.40910121E+01
 20
1.56986939E+02
  0
VERTEX
  8
0
 62
4
 10
1.39462939E+01
 20
1.57107608E+02
  0
VERTEX
  8
0
 62
4
 10
1.37905688E+01
 20
1.57216341E+02
  0
VERTEX
  8
0
 62
4
 10
1.36250218E+01
 20
1.57312311E+02
  0
VERTEX
  8
0
 62
4
 10
1.34509129E+01
 20
1.57394785E+02
  0
VERTEX
  8
0
 62
4
 10
1.32695671E+01
 20
1.57463138E+02
  0
VERTEX
  8
0
 62
4
 10
1.30823647E+01
 20
1.57516848E+02
  0
VERTEX
  8
0
 62
4
 10
1.28907302E+01
 20
1.57555507E+02
  0
VERTEX
  8
0
 62
4
 10
1.26961222E+01
 20
1.57578821E+02
  0
VERTEX
  8
0
 62
4
 10
1.25000218E+01
 20
1.57586612E+02
  0
VERTEX
  8
0
 62
4
 10
1.23039214E+01
 20
1.57578821E+02
  0
VERTEX
  8
0
 62
4
 10
1.21093134E+01
 20
1.57555507E+02
  0
VERTEX
  8
0
 62
4
 10
1.19176789E+01
 20
1.57516848E+02
  0
VERTEX
  8
0
 62
4
 10
1.17304765E+01
 20
1.57463138E+02
  0
VERTEX
  8
0
 62
4
 10
1.15491307E+01
 20
1.57394785E+02
  0
VERTEX
  8
0
 62
4
 10
1.13750218E+01
 20
1.57312311E+02
  0
VERTEX
  8
0
 62
4
 10
1.12094748E+01
 20
1.57216341E+02
  0
VERTEX
  8
0
 62
4
 10
1.10537497E+01
 20
1.57107608E+02
  0
VERTEX
  8
0
 62
4
 10
1.09090315E+01
 20
1.56986939E+02
  0
VERTEX
  8
0
 62
4
 10
1.07764218E+01
 20
1.56855251E+02
  0
VERTEX
  8
0
 62
4
 10
1.06569297E+01
 20
1.56713547E+02
  0
VERTEX
  8
0
 62
4
 10
1.05514646E+01
 20
1.56562905E+02
  0
VERTEX
  8
0
 62
4
 10
1.04608293E+01
 20
1.56404473E+02
  0
VERTEX
  8
0
 62
4
 10
1.03857134E+01
 20
1.56239455E+02
  0
VERTEX
  8
0
 62
4
 10
1.03266887E+01
 20
1.56069108E+02
  0
VERTEX
  8
0
 62
4
 10
1.02842044E+01
 20
1.55894729E+02
  0
VERTEX
  8
0
 62
4
 10
1.02585837E+01
 20
1.55717643E+02
  0
VERTEX
  8
0
 62
4
 10
1.02500218E+01
 20
1.55539199E+02
  0
VERTEX
  8
0
 62
4
 10
1.02585837E+01
 20
1.55360755E+02
  0
VERTEX
  8
0
 62
4
 10
1.02842044E+01
 20
1.55183669E+02
  0
VERTEX
  8
0
 62
4
 10
1.03266887E+01
 20
1.55009290E+02
  0
VERTEX
  8
0
 62
4
 10
1.03857134E+01
 20
1.54838943E+02
  0
VERTEX
  8
0
 62
4
 10
1.04608293E+01
 20
1.54673925E+02
  0
VERTEX
  8
0
 62
4
 10
1.05514646E+01
 20
1.54515493E+02
  0
VERTEX
  8
0
 62
4
 10
1.06569297E+01
 20
1.54364851E+02
  0
VERTEX
  8
0
 62
4
 10
1.07764218E+01
 20
1.54223147E+02
  0
VERTEX
  8
0
 62
4
 10
1.09090315E+01
 20
1.54091459E+02
  0
VERTEX
  8
0
 62
4
 10
1.10537497E+01
 20
1.53970790E+02
  0
VERTEX
  8
0
 62
4
 10
1.12094748E+01
 20
1.53862057E+02
  0
VERTEX
  8
0
 62
4
 10
1.13750218E+01
 20
1.53766087E+02
  0
VERTEX
  8
0
 62
4
 10
1.15491307E+01
 20
1.53683613E+02
  0
VERTEX
  8
0
 62
4
 10
1.17304765E+01
 20
1.53615260E+02
  0
VERTEX
  8
0
 62
4
 10
1.19176790E+01
 20
1.53561550E+02
  0
VERTEX
  8
0
 62
4
 10
1.21093134E+01
 20
1.53522891E+02
  0
VERTEX
  8
0
 62
4
 10
1.23039214E+01
 20
1.53499577E+02
  0
VERTEX
  8
0
 62
4
 10
1.25000218E+01
 20
1.53491786E+02
  0
VERTEX
  8
0
 62
4
 10
1.26961222E+01
 20
1.53499577E+02
  0
VERTEX
  8
0
 62
4
 10
1.28907302E+01
 20
1.53522891E+02
  0
VERTEX
  8
0
 62
4
 10
1.30823647E+01
 20
1.53561550E+02
  0
VERTEX
  8
0
 62
4
 10
1.32695671E+01
 20
1.53615260E+02
  0
VERTEX
  8
0
 62
4
 10
1.34509129E+01
 20
1.53683613E+02
  0
VERTEX
  8
0
 62
4
 10
1.36250218E+01
 20
1.53766087E+02
  0
VERTEX
  8
0
 62
4
 10
1.37905688E+01
 20
1.53862057E+02
  0
VERTEX
  8
0
 62
4
 10
1.39462939E+01
 20
1.53970790E+02
  0
VERTEX
  8
0
 62
4
 10
1.40910121E+01
 20
1.54091459E+02
  0
VERTEX
  8
0
 62
4
 10
1.42236218E+01
 20
1.54223147E+02
  0
VERTEX
  8
0
 62
4
 10
1.43431139E+01
 20
1.54364851E+02
  0
VERTEX
  8
0
 62
4
 10
1.44485790E+01
 20
1.54515493E+02
  0
VERTEX
  8
0
 62
4
 10
1.45392143E+01
 20
1.54673925E+02
  0
VERTEX
  8
0
 62
4
 10
1.46143302E+01
 20
1.54838943E+02
  0
VERTEX
  8
0
 62
4
 10
1.46733549E+01
 20
1.55009290E+02
  0
VERTEX
  8
0
 62
4
 10
1.47158392E+01
 20
1.55183669E+02
  0
VERTEX
  8
0
 62
4
 10
1.47414599E+01
 20
1.55360755E+02
  0
VERTEX
  8
0
 62
4
 10
1.47500218E+01
 20
1.55539199E+02
  0
SEQEND
  8
0
  0
POLYLINE
  8
0
 62
4
 66
1
  0
VERTEX
  8
0
 62
4
 10
3.50002183E+00
 20
1.35830530E+02
  0
VERTEX
  8
0
 62
4
 10
3.49197042E+00
 20
1.35993667E+02
  0
VERTEX
  8
0
 62
4
 10
3.46788101E+00
 20
1.36155490E+02
  0
VERTEX
  8
0
 62
4
 10
3.42794756E+00
 20
1.36314696E+02
  0
VERTEX
  8
0
 62
4
 10
3.37249158E+00
 20
1.36470005E+02
  0
VERTEX
  8
0
 62
4
 10
3.30195957E+00
 20
1.36620165E+02
  0
VERTEX
  8
0
 62
4
 10
3.21691942E+00
 20
1.36763967E+02
  0
VERTEX
  8
0
 62
4
 10
3.11805583E+00
 20
1.36900254E+02
  0
VERTEX
  8
0
 62
4
 10
3.00616477E+00
 20
1.37027927E+02
  0
VERTEX
  8
0
 62
4
 10
2.88214714E+00
 20
1.37145961E+02
  0
VERTEX
  8
0
 62
4
 10
2.74700145E+00
 20
1.37253403E+02
  0
VERTEX
  8
0
 62
4
 10
2.60181581E+00
 20
1.37349389E+02
  0
VERTEX
  8
0
 62
4
 10
2.44775917E+00
 20
1.37433146E+02
  0
VERTEX
  8
0
 62
4
 10
2.28607191E+00
 20
1.37503999E+02
  0
VERTEX
  8
0
 62
4
 10
2.11805583E+00
 20
1.37561379E+02
  0
VERTEX
  8
0
 62
4
 10
1.94506371E+00
 20
1.37604823E+02
  0
VERTEX
  8
0
 62
4
 10
1.76848838E+00
 20
1.37633982E+02
  0
VERTEX
  8
0
 62
4
 10
1.58975151E+00
 20
1.37648620E+02
  0
VERTEX
  8
0
 62
4
 10
1.41029219E+00
 20
1.37648620E+02
  0
VERTEX
  8
0
 62
4
 10
1.23155532E+00
 20
1.37633982E+02
  0
VERTEX
  8
0
 62
4
 10
1.05497998E+00
 20
1.37604823E+02
  0
VERTEX
  8
0
 62
4
 10
8.81987858E-01
 20
1.37561379E+02
  0
VERTEX
  8
0
 62
4
 10
7.13971783E-01
 20
1.37503999E+02
  0
VERTEX
  8
0
 62
4
 10
5.52284521E-01
 20
1.37433146E+02
  0
VERTEX
  8
0
 62
4
 10
3.98227883E-01
 20
1.37349389E+02
  0
VERTEX
  8
0
 62
4
 10
2.53042241E-01
 20
1.37253403E+02
  0
VERTEX
  8
0
 62
4
 10
1.17896546E-01
 20
1.37145961E+02
  0
VERTEX
  8
0
 62
4
 10
-6.12108934E-03
 20
1.37027927E+02
  0
VERTEX
  8
0
 62
4
 10
-1.18012147E-01
 20
1.36900254E+02
  0
VERTEX
  8
0
 62
4
 10
-2.16875747E-01
 20
1.36763967E+02
  0
VERTEX
  8
0
 62
4
 10
-3.01915897E-01
 20
1.36620165E+02
  0
VERTEX
  8
0
 62
4
 10
-3.72447904E-01
 20
1.36470005E+02
  0
VERTEX
  8
0
 62
4
 10
-4.27903886E-01
 20
1.36314696E+02
  0
VERTEX
  8
0
 62
4
 10
-4.67837344E-01
 20
1.36155490E+02
  0
VERTEX
  8
0
 62
4
 10
-4.91926756E-01
 20
1.35993667E+02
  0
VERTEX
  8
0
 62
4
 10
-4.99978170E-01
 20
1.35830530E+02
  0
SEQEND
  8
0
  0
LINE
  8
0
 62
4
 10
-4.99978165E-01
 20
1.34195613E+02
 11
-4.99978165E-01
 21
1.35830530E+02
  0
POLYLINE
  8
0
 62
4
 66
1
  0
VERTEX
  8
0
 62
4
 10
-4.99978170E-01
 20
1.34195613E+02
  0
VERTEX
  8
0
 62
4
 10
-4.92367567E-01
 20
1.34036996E+02
  0
VERTEX
  8
0
 62
4
 10
-4.69593677E-01
 20
1.33879587E+02
  0
VERTEX
  8
0
 62
4
 10
-4.31829824E-01
 20
1.33724582E+02
  0
VERTEX
  8
0
 62
4
 10
-3.79363414E-01
 20
1.33573163E+02
  0
VERTEX
  8
0
 62
4
 10
-3.12593747E-01
 20
1.33426481E+02
  0
VERTEX
  8
0
 62
4
 10
-2.32028981E-01
 20
1.33285652E+02
  0
VERTEX
  8
0
 62
4
 10
-1.38282262E-01
 20
1.33151748E+02
  0
VERTEX
  8
0
 62
4
 10
-3.20670600E-02
 20
1.33025789E+02
  0
VERTEX
  8
0
 62
4
 10
8.58082635E-02
 20
1.32908733E+02
  0
VERTEX
  8
0
 62
4
 10
2.14446606E-01
 20
1.32801472E+02
  0
VERTEX
  8
0
 62
4
 10
3.52868953E-01
 20
1.32704820E+02
  0
VERTEX
  8
0
 62
4
 10
5.00021825E-01
 20
1.32619514E+02
  0
VERTEX
  8
0
 62
4
 10
6.54785302E-01
 20
1.32546203E+02
  0
VERTEX
  8
0
 62
4
 10
8.15981538E-01
 20
1.32485445E+02
  0
VERTEX
  8
0
 62
4
 10
9.82383735E-01
 20
1.32437703E+02
  0
VERTEX
  8
0
 62
4
 10
1.15272547E+00
 20
1.32403339E+02
  0
VERTEX
  8
0
 62
4
 10
1.32571034E+00
 20
1.32382616E+02
  0
VERTEX
  8
0
 62
4
 10
1.50002182E+00
 20
1.32375691E+02
  0
VERTEX
  8
0
 62
4
 10
1.67433331E+00
 20
1.32382616E+02
  0
VERTEX
  8
0
 62
4
 10
1.84731818E+00
 20
1.32403339E+02
  0
VERTEX
  8
0
 62
4
 10
2.01765992E+00
 20
1.32437703E+02
  0
VERTEX
  8
0
 62
4
 10
2.18406211E+00
 20
1.32485445E+02
  0
VERTEX
  8
0
 62
4
 10
2.34525835E+00
 20
1.32546203E+02
  0
VERTEX
  8
0
 62
4
 10
2.50002183E+00
 20
1.32619514E+02
  0
VERTEX
  8
0
 62
4
 10
2.64717470E+00
 20
1.32704820E+02
  0
VERTEX
  8
0
 62
4
 10
2.78559705E+00
 20
1.32801471E+02
  0
VERTEX
  8
0
 62
4
 10
2.91423539E+00
 20
1.32908733E+02
  0
VERTEX
  8
0
 62
4
 10
3.03211071E+00
 20
1.33025789E+02
  0
VERTEX
  8
0
 62
4
 10
3.13832592E+00
 20
1.33151748E+02
  0
VERTEX
  8
0
 62
4
 10
3.23207264E+00
 20
1.33285652E+02
  0
VERTEX
  8
0
 62
4
 10
3.31263740E+00
 20
1.33426481E+02
  0
VERTEX
  8
0
 62
4
 10
3.37940707E+00
 20
1.33573163E+02
  0
VERTEX
  8
0
 62
4
 10
3.43187348E+00
 20
1.33724582E+02
  0
VERTEX
  8
0
 62
4
 10
3.46963734E+00
 20
1.33879587E+02
  0
VERTEX
  8
0
 62
4
 10
3.49241123E+00
 20
1.34036996E+02
  0
VERTEX
  8
0
 62
4
 10
3.50002183E+00
 20
1.34195613E+02
  0
VERTEX
  8
0
 62
4
 10
3.49241123E+00
 20
1.34354230E+02
  0
VERTEX
  8
0
 62
4
 10
3.46963734E+00
 20
1.34511639E+02
  0
VERTEX
  8
0
 62
4
 10
3.43187348E+00
 20
1.34666644E+02
  0
VERTEX
  8
0
 62
4
 10
3.37940707E+00
 20
1.34818063E+02
  0
VERTEX
  8
0
 62
4
 10
3.31263741E+00
 20
1.34964745E+02
  0
VERTEX
  8
0
 62
4
 10
3.23207264E+00
 20
1.35105574E+02
  0
VERTEX
  8
0
 62
4
 10
3.13832592E+00
 20
1.35239478E+02
  0
VERTEX
  8
0
 62
4
 10
3.03211072E+00
 20
1.35365437E+02
  0
VERTEX
  8
0
 62
4
 10
2.91423539E+00
 20
1.35482493E+02
  0
VERTEX
  8
0
 62
4
 10
2.78559705E+00
 20
1.35589755E+02
  0
VERTEX
  8
0
 62
4
 10
2.64717471E+00
 20
1.35686406E+02
  0
VERTEX
  8
0
 62
4
 10
2.50002183E+00
 20
1.35771712E+02
  0
VERTEX
  8
0
 62
4
 10
2.34525836E+00
 20
1.35845023E+02
  0
VERTEX
  8
0
 62
4
 10
2.18406212E+00
 20
1.35905781E+02
  0
VERTEX
  8
0
 62
4
 10
2.01765992E+00
 20
1.35953523E+02
  0
VERTEX
  8
0
 62
4
 10
1.84731819E+00
 20
1.35987887E+02
  0
VERTEX
  8
0
 62
4
 10
1.67433332E+00
 20
1.36008610E+02
  0
VERTEX
  8
0
 62
4
 10
1.50002183E+00
 20
1.36015535E+02
  0
VERTEX
  8
0
 62
4
 10
1.32571035E+00
 20
1.36008610E+02
  0
VERTEX
  8
0
 62
4
 10
1.15272548E+00
 20
1.35987887E+02
  0
VERTEX
  8
0
 62
4
 10
9.82383742E-01
 20
1.35953523E+02
  0
VERTEX
  8
0
 62
4
 10
8.15981545E-01
 20
1.35905781E+02
  0
VERTEX
  8
0
 62
4
 10
6.54785308E-01
 20
1.35845023E+02
  0
VERTEX
  8
0
 62
4
 10
5.00021832E-01
 20
1.35771712E+02
  0
VERTEX
  8
0
 62
4
 10
3.52868959E-01
 20
1.35686406E+02
  0
VERTEX
  8
0
 62
4
 10
2.14446612E-01
 20
1.35589755E+02
  0
VERTEX
  8
0
 62
4
 10
8.58082688E-02
 20
1.35482493E+02
  0
VERTEX
  8
0
 62
4
 10
-3.20670553E-02
 20
1.35365437E+02
  0
VERTEX
  8
0
 62
4
 10
-1.38282258E-01
 20
1.35239478E+02
  0
VERTEX
  8
0
 62
4
 10
-2.32028977E-01
 20
1.35105574E+02
  0
VERTEX
  8
0
 62
4
 10
-3.12593744E-01
 20
1.34964745E+02
  0
VERTEX
  8
0
 62
4
 10
-3.79363411E-01
 20
1.34818063E+02
  0
VERTEX
  8
0
 62
4
 10
-4.31829822E-01
 20
1.34666644E+02
  0
VERTEX
  8
0
 62
4
 10
-4.69593676E-01
 20
1.34511639E+02
  0
VERTEX
  8
0
 62
4
 10
-4.92367566E-01
 20
1.34354230E+02
  0
VERTEX
  8
0
 62
4
 10
-4.99978170E-01
 20
1.34195613E+02
  0
SEQEND
  8
0
  0
LINE
  8
0
 62
4
 10
3.50002183E+00
 20
1.34195613E+02
 11
3.50002183E+00
 21
1.35830530E+02
  0
POLYLINE
  8
0
 62
6
 66
1
  0
VERTEX
  8
0
 62
6
 10
2.18100000E-05
 20
1.34195613E+02
  0
VERTEX
  8
0
 62
6
 10
5.72976252E-03
 20
1.34076650E+02
  0
VERTEX
  8
0
 62
6
 10
2.28101800E-02
 20
1.33958593E+02
  0
VERTEX
  8
0
 62
6
 10
5.11330700E-02
 20
1.33842340E+02
  0
VERTEX
  8
0
 62
6
 10
9.04828784E-02
 20
1.33728775E+02
  0
VERTEX
  8
0
 62
6
 10
1.40560129E-01
 20
1.33618764E+02
  0
VERTEX
  8
0
 62
6
 10
2.00983705E-01
 20
1.33513142E+02
  0
VERTEX
  8
0
 62
6
 10
2.71293745E-01
 20
1.33412714E+02
  0
VERTEX
  8
0
 62
6
 10
3.50955147E-01
 20
1.33318245E+02
  0
VERTEX
  8
0
 62
6
 10
4.39361641E-01
 20
1.33230453E+02
  0
VERTEX
  8
0
 62
6
 10
5.35840399E-01
 20
1.33150007E+02
  0
VERTEX
  8
0
 62
6
 10
6.39657161E-01
 20
1.33077518E+02
  0
VERTEX
  8
0
 62
6
 10
7.50021816E-01
 20
1.33013539E+02
  0
VERTEX
  8
0
 62
6
 10
8.66094425E-01
 20
1.32958556E+02
  0
VERTEX
  8
0
 62
6
 10
9.86991604E-01
 20
1.32912987E+02
  0
VERTEX
  8
0
 62
6
 10
1.11179325E+00
 20
1.32877180E+02
  0
VERTEX
  8
0
 62
6
 10
1.23954956E+00
 20
1.32851408E+02
  0
VERTEX
  8
0
 62
6
 10
1.36928821E+00
 20
1.32835865E+02
  0
VERTEX
  8
0
 62
6
 10
1.50002183E+00
 20
1.32830671E+02
  0
VERTEX
  8
0
 62
6
 10
1.63075544E+00
 20
1.32835865E+02
  0
VERTEX
  8
0
 62
6
 10
1.76049410E+00
 20
1.32851408E+02
  0
VERTEX
  8
0
 62
6
 10
1.88825040E+00
 20
1.32877180E+02
  0
VERTEX
  8
0
 62
6
 10
2.01305205E+00
 20
1.32912987E+02
  0
VERTEX
  8
0
 62
6
 10
2.13394923E+00
 20
1.32958556E+02
  0
VERTEX
  8
0
 62
6
 10
2.25002184E+00
 20
1.33013539E+02
  0
VERTEX
  8
0
 62
6
 10
2.36038649E+00
 20
1.33077518E+02
  0
VERTEX
  8
0
 62
6
 10
2.46420325E+00
 20
1.33150007E+02
  0
VERTEX
  8
0
 62
6
 10
2.56068201E+00
 20
1.33230453E+02
  0
VERTEX
  8
0
 62
6
 10
2.64908851E+00
 20
1.33318245E+02
  0
VERTEX
  8
0
 62
6
 10
2.72874991E+00
 20
1.33412714E+02
  0
VERTEX
  8
0
 62
6
 10
2.79905995E+00
 20
1.33513142E+02
  0
VERTEX
  8
0
 62
6
 10
2.85948353E+00
 20
1.33618764E+02
  0
VERTEX
  8
0
 62
6
 10
2.90956078E+00
 20
1.33728775E+02
  0
VERTEX
  8
0
 62
6
 10
2.94891059E+00
 20
1.33842340E+02
  0
VERTEX
  8
0
 62
6
 10
2.97723348E+00
 20
1.33958593E+02
  0
VERTEX
  8
0
 62
6
 10
2.99431390E+00
 20
1.34076650E+02
  0
VERTEX
  8
0
 62
6
 10
3.00002185E+00
 20
1.34195613E+02
  0
VERTEX
  8
0
 62
6
 10
2.99431390E+00
 20
1.34314576E+02
  0
VERTEX
  8
0
 62
6
 10
2.97723348E+00
 20
1.34432633E+02
  0
VERTEX
  8
0
 62
6
 10
2.94891059E+00
 20
1.34548886E+02
  0
VERTEX
  8
0
 62
6
 10
2.90956078E+00
 20
1.34662451E+02
  0
VERTEX
  8
0
 62
6
 10
2.85948353E+00
 20
1.34772462E+02
  0
VERTEX
  8
0
 62
6
 10
2.79905995E+00
 20
1.34878084E+02
  0
VERTEX
  8
0
 62
6
 10
2.72874991E+00
 20
1.34978512E+02
  0
VERTEX
  8
0
 62
6
 10
2.64908851E+00
 20
1.35072981E+02
  0
VERTEX
  8
0
 62
6
 10
2.56068202E+00
 20
1.35160773E+02
  0
VERTEX
  8
0
 62
6
 10
2.46420326E+00
 20
1.35241219E+02
  0
VERTEX
  8
0
 62
6
 10
2.36038650E+00
 20
1.35313708E+02
  0
VERTEX
  8
0
 62
6
 10
2.25002184E+00
 20
1.35377687E+02
  0
VERTEX
  8
0
 62
6
 10
2.13394923E+00
 20
1.35432670E+02
  0
VERTEX
  8
0
 62
6
 10
2.01305205E+00
 20
1.35478239E+02
  0
VERTEX
  8
0
 62
6
 10
1.88825040E+00
 20
1.35514046E+02
  0
VERTEX
  8
0
 62
6
 10
1.76049410E+00
 20
1.35539818E+02
  0
VERTEX
  8
0
 62
6
 10
1.63075545E+00
 20
1.35555361E+02
  0
VERTEX
  8
0
 62
6
 10
1.50002183E+00
 20
1.35560555E+02
  0
VERTEX
  8
0
 62
6
 10
1.36928822E+00
 20
1.35555361E+02
  0
VERTEX
  8
0
 62
6
 10
1.23954956E+00
 20
1.35539818E+02
  0
VERTEX
  8
0
 62
6
 10
1.11179326E+00
 20
1.35514046E+02
  0
VERTEX
  8
0
 62
6
 10
9.86991610E-01
 20
1.35478239E+02
  0
VERTEX
  8
0
 62
6
 10
8.66094430E-01
 20
1.35432670E+02
  0
VERTEX
  8
0
 62
6
 10
7.50021821E-01
 20
1.35377687E+02
  0
VERTEX
  8
0
 62
6
 10
6.39657165E-01
 20
1.35313708E+02
  0
VERTEX
  8
0
 62
6
 10
5.35840404E-01
 20
1.35241219E+02
  0
VERTEX
  8
0
 62
6
 10
4.39361645E-01
 20
1.35160773E+02
  0
VERTEX
  8
0
 62
6
 10
3.50955151E-01
 20
1.35072981E+02
  0
VERTEX
  8
0
 62
6
 10
2.71293748E-01
 20
1.34978512E+02
  0
VERTEX
  8
0
 62
6
 10
2.00983708E-01
 20
1.34878084E+02
  0
VERTEX
  8
0
 62
6
 10
1.40560132E-01
 20
1.34772462E+02
  0
VERTEX
  8
0
 62
6
 10
9.04828803E-02
 20
1.34662451E+02
  0
VERTEX
  8
0
 62
6
 10
5.11330715E-02
 20
1.34548886E+02
  0
VERTEX
  8
0
 62
6
 10
2.28101809E-02
 20
1.34432633E+02
  0
VERTEX
  8
0
 62
6
 10
5.72976300E-03
 20
1.34314576E+02
  0
VERTEX
  8
0
 62
6
 10
2.18100000E-05
 20
1.34195613E+02
  0
SEQEND
  8
0
  0
LINE
  8
0
 62
4
 10
5.00021835E-01
 20
1.33667835E+02
 11
5.00021835E-01
 21
1.34723391E+02
  0
LINE
  8
0
 62
4
 10
1.50002183E+00
 20
1.35242068E+02
 11
5.00021835E-01
 21
1.34723391E+02
  0
LINE
  8
0
 62
4
 10
1.50002183E+00
 20
1.33140058E+02
 11
5.00021835E-01
 21
1.33667835E+02
  0
LINE
  8
0
 62
4
 10
1.50002183E+00
 20
1.35242068E+02
 11
2.50002183E+00
 21
1.34723391E+02
  0
LINE
  8
0
 62
4
 10
2.50002183E+00
 20
1.33667835E+02
 11
2.50002183E+00
 21
1.34723391E+02
  0
LINE
  8
0
 62
4
 10
1.50002183E+00
 20
1.33140058E+02
 11
2.50002183E+00
 21
1.33667835E+02
  0
LINE
  8
0
 62
4
 10
-6.49997817E+00
 20
1.33140058E+02
 11
-5.49997817E+00
 21
1.33667835E+02
  0
LINE
  8
0
 62
4
 10
-5.49997817E+00
 20
1.33667835E+02
 11
-5.49997817E+00
 21
1.34723391E+02
  0
LINE
  8
0
 62
4
 10
-6.49997817E+00
 20
1.35242068E+02
 11
-5.49997817E+00
 21
1.34723391E+02
  0
LINE
  8
0
 62
4
 10
-6.49997817E+00
 20
1.33140058E+02
 11
-7.49997817E+00
 21
1.33667835E+02
  0
LINE
  8
0
 62
4
 10
-6.49997817E+00
 20
1.35242068E+02
 11
-7.49997817E+00
 21
1.34723391E+02
  0
LINE
  8
0
 62
4
 10
-7.49997817E+00
 20
1.33667835E+02
 11
-7.49997817E+00
 21
1.34723391E+02
  0
POLYLINE
  8
0
 62
6
 66
1
  0
VERTEX
  8
0
 62
6
 10
-7.99997819E+00
 20
1.34195613E+02
  0
VERTEX
  8
0
 62
6
 10
-7.99427024E+00
 20
1.34076650E+02
  0
VERTEX
  8
0
 62
6
 10
-7.97718982E+00
 20
1.33958593E+02
  0
VERTEX
  8
0
 62
6
 10
-7.94886693E+00
 20
1.33842340E+02
  0
VERTEX
  8
0
 62
6
 10
-7.90951712E+00
 20
1.33728775E+02
  0
VERTEX
  8
0
 62
6
 10
-7.85943987E+00
 20
1.33618764E+02
  0
VERTEX
  8
0
 62
6
 10
-7.79901630E+00
 20
1.33513142E+02
  0
VERTEX
  8
0
 62
6
 10
-7.72870626E+00
 20
1.33412714E+02
  0
VERTEX
  8
0
 62
6
 10
-7.64904485E+00
 20
1.33318245E+02
  0
VERTEX
  8
0
 62
6
 10
-7.56063836E+00
 20
1.33230453E+02
  0
VERTEX
  8
0
 62
6
 10
-7.46415960E+00
 20
1.33150007E+02
  0
VERTEX
  8
0
 62
6
 10
-7.36034284E+00
 20
1.33077518E+02
  0
VERTEX
  8
0
 62
6
 10
-7.24997818E+00
 20
1.33013539E+02
  0
VERTEX
  8
0
 62
6
 10
-7.13390557E+00
 20
1.32958556E+02
  0
VERTEX
  8
0
 62
6
 10
-7.01300840E+00
 20
1.32912987E+02
  0
VERTEX
  8
0
 62
6
 10
-6.88820675E+00
 20
1.32877180E+02
  0
VERTEX
  8
0
 62
6
 10
-6.76045044E+00
 20
1.32851408E+02
  0
VERTEX
  8
0
 62
6
 10
-6.63071179E+00
 20
1.32835865E+02
  0
VERTEX
  8
0
 62
6
 10
-6.49997817E+00
 20
1.32830671E+02
  0
VERTEX
  8
0
 62
6
 10
-6.36924456E+00
 20
1.32835865E+02
  0
VERTEX
  8
0
 62
6
 10
-6.23950590E+00
 20
1.32851408E+02
  0
VERTEX
  8
0
 62
6
 10
-6.11174960E+00
 20
1.32877180E+02
  0
VERTEX
  8
0
 62
6
 10
-5.98694795E+00
 20
1.32912987E+02
  0
VERTEX
  8
0
 62
6
 10
-5.86605077E+00
 20
1.32958556E+02
  0
VERTEX
  8
0
 62
6
 10
-5.74997816E+00
 20
1.33013539E+02
  0
VERTEX
  8
0
 62
6
 10
-5.63961351E+00
 20
1.33077518E+02
  0
VERTEX
  8
0
 62
6
 10
-5.53579675E+00
 20
1.33150007E+02
  0
VERTEX
  8
0
 62
6
 10
-5.43931799E+00
 20
1.33230453E+02
  0
VERTEX
  8
0
 62
6
 10
-5.35091149E+00
 20
1.33318245E+02
  0
VERTEX
  8
0
 62
6
 10
-5.27125009E+00
 20
1.33412714E+02
  0
VERTEX
  8
0
 62
6
 10
-5.20094005E+00
 20
1.33513142E+02
  0
VERTEX
  8
0
 62
6
 10
-5.14051647E+00
 20
1.33618764E+02
  0
VERTEX
  8
0
 62
6
 10
-5.09043922E+00
 20
1.33728775E+02
  0
VERTEX
  8
0
 62
6
 10
-5.05108941E+00
 20
1.33842340E+02
  0
VERTEX
  8
0
 62
6
 10
-5.02276652E+00
 20
1.33958593E+02
  0
VERTEX
  8
0
 62
6
 10
-5.00568610E+00
 20
1.34076650E+02
  0
VERTEX
  8
0
 62
6
 10
-4.99997815E+00
 20
1.34195613E+02
  0
VERTEX
  8
0
 62
6
 10
-5.00568610E+00
 20
1.34314576E+02
  0
VERTEX
  8
0
 62
6
 10
-5.02276652E+00
 20
1.34432633E+02
  0
VERTEX
  8
0
 62
6
 10
-5.05108941E+00
 20
1.34548886E+02
  0
VERTEX
  8
0
 62
6
 10
-5.09043922E+00
 20
1.34662451E+02
  0
VERTEX
  8
0
 62
6
 10
-5.14051647E+00
 20
1.34772462E+02
  0
VERTEX
  8
0
 62
6
 10
-5.20094005E+00
 20
1.34878084E+02
  0
VERTEX
  8
0
 62
6
 10
-5.27125009E+00
 20
1.34978512E+02
  0
VERTEX
  8
0
 62
6
 10
-5.35091149E+00
 20
1.35072981E+02
  0
VERTEX
  8
0
 62
6
 10
-5.43931798E+00
 20
1.35160773E+02
  0
VERTEX
  8
0
 62
6
 10
-5.53579674E+00
 20
1.35241219E+02
  0
VERTEX
  8
0
 62
6
 10
-5.63961350E+00
 20
1.35313708E+02
  0
VERTEX
  8
0
 62
6
 10
-5.74997816E+00
 20
1.35377687E+02
  0
VERTEX
  8
0
 62
6
 10
-5.86605077E+00
 20
1.35432670E+02
  0
VERTEX
  8
0
 62
6
 10
-5.98694795E+00
 20
1.35478239E+02
  0
VERTEX
  8
0
 62
6
 10
-6.11174960E+00
 20
1.35514046E+02
  0
VERTEX
  8
0
 62
6
 10
-6.23950590E+00
 20
1.35539818E+02
  0
VERTEX
  8
0
 62
6
 10
-6.36924455E+00
 20
1.35555361E+02
  0
VERTEX
  8
0
 62
6
 10
-6.49997817E+00
 20
1.35560555E+02
  0
VERTEX
  8
0
 62
6
 10
-6.63071178E+00
 20
1.35555361E+02
  0
VERTEX
  8
0
 62
6
 10
-6.76045044E+00
 20
1.35539818E+02
  0
VERTEX
  8
0
 62
6
 10
-6.88820674E+00
 20
1.35514046E+02
  0
VERTEX
  8
0
 62
6
 10
-7.01300839E+00
 20
1.35478239E+02
  0
VERTEX
  8
0
 62
6
 10
-7.13390557E+00
 20
1.35432670E+02
  0
VERTEX
  8
0
 62
6
 10
-7.24997818E+00
 20
1.35377687E+02
  0
VERTEX
  8
0
 62
6
 10
-7.36034283E+00
 20
1.35313708E+02
  0
VERTEX
  8
0
 62
6
 10
-7.46415960E+00
 20
1.35241219E+02
  0
VERTEX
  8
0
 62
6
 10
-7.56063836E+00
 20
1.35160773E+02
  0
VERTEX
  8
0
 62
6
 10
-7.64904485E+00
 20
1.35072981E+02
  0
VERTEX
  8
0
 62
6
 10
-7.72870625E+00
 20
1.34978512E+02
  0
VERTEX
  8
0
 62
6
 10
-7.79901629E+00
 20
1.34878084E+02
  0
VERTEX
  8
0
 62
6
 10
-7.85943987E+00
 20
1.34772462E+02
  0
VERTEX
  8
0
 62
6
 10
-7.90951712E+00
 20
1.34662451E+02
  0
VERTEX
  8
0
 62
6
 10
-7.94886693E+00
 20
1.34548886E+02
  0
VERTEX
  8
0
 62
6
 10
-7.97718982E+00
 20
1.34432633E+02
  0
VERTEX
  8
0
 62
6
 10
-7.99427024E+00
 20
1.34314576E+02
  0
VERTEX
  8
0
 62
6
 10
-7.99997819E+00
 20
1.34195613E+02
  0
SEQEND
  8
0
  0
LINE
  8
0
 62
4
 10
-4.49997817E+00
 20
1.34195613E+02
 11
-4.49997817E+00
 21
1.35830530E+02
  0
POLYLINE
  8
0
 62
4
 66
1
  0
VERTEX
  8
0
 62
4
 10
-8.49997817E+00
 20
1.34195613E+02
  0
VERTEX
  8
0
 62
4
 10
-8.49236757E+00
 20
1.34036996E+02
  0
VERTEX
  8
0
 62
4
 10
-8.46959368E+00
 20
1.33879587E+02
  0
VERTEX
  8
0
 62
4
 10
-8.43182982E+00
 20
1.33724582E+02
  0
VERTEX
  8
0
 62
4
 10
-8.37936341E+00
 20
1.33573163E+02
  0
VERTEX
  8
0
 62
4
 10
-8.31259375E+00
 20
1.33426481E+02
  0
VERTEX
  8
0
 62
4
 10
-8.23202898E+00
 20
1.33285652E+02
  0
VERTEX
  8
0
 62
4
 10
-8.13828226E+00
 20
1.33151748E+02
  0
VERTEX
  8
0
 62
4
 10
-8.03206706E+00
 20
1.33025789E+02
  0
VERTEX
  8
0
 62
4
 10
-7.91419174E+00
 20
1.32908733E+02
  0
VERTEX
  8
0
 62
4
 10
-7.78555339E+00
 20
1.32801472E+02
  0
VERTEX
  8
0
 62
4
 10
-7.64713105E+00
 20
1.32704820E+02
  0
VERTEX
  8
0
 62
4
 10
-7.49997817E+00
 20
1.32619514E+02
  0
VERTEX
  8
0
 62
4
 10
-7.34521470E+00
 20
1.32546203E+02
  0
VERTEX
  8
0
 62
4
 10
-7.18401846E+00
 20
1.32485445E+02
  0
VERTEX
  8
0
 62
4
 10
-7.01761627E+00
 20
1.32437703E+02
  0
VERTEX
  8
0
 62
4
 10
-6.84727453E+00
 20
1.32403339E+02
  0
VERTEX
  8
0
 62
4
 10
-6.67428966E+00
 20
1.32382616E+02
  0
VERTEX
  8
0
 62
4
 10
-6.49997818E+00
 20
1.32375691E+02
  0
VERTEX
  8
0
 62
4
 10
-6.32566669E+00
 20
1.32382616E+02
  0
VERTEX
  8
0
 62
4
 10
-6.15268182E+00
 20
1.32403339E+02
  0
VERTEX
  8
0
 62
4
 10
-5.98234008E+00
 20
1.32437703E+02
  0
VERTEX
  8
0
 62
4
 10
-5.81593789E+00
 20
1.32485445E+02
  0
VERTEX
  8
0
 62
4
 10
-5.65474165E+00
 20
1.32546203E+02
  0
VERTEX
  8
0
 62
4
 10
-5.49997817E+00
 20
1.32619514E+02
  0
VERTEX
  8
0
 62
4
 10
-5.35282530E+00
 20
1.32704820E+02
  0
VERTEX
  8
0
 62
4
 10
-5.21440295E+00
 20
1.32801471E+02
  0
VERTEX
  8
0
 62
4
 10
-5.08576461E+00
 20
1.32908733E+02
  0
VERTEX
  8
0
 62
4
 10
-4.96788929E+00
 20
1.33025789E+02
  0
VERTEX
  8
0
 62
4
 10
-4.86167408E+00
 20
1.33151748E+02
  0
VERTEX
  8
0
 62
4
 10
-4.76792736E+00
 20
1.33285652E+02
  0
VERTEX
  8
0
 62
4
 10
-4.68736260E+00
 20
1.33426481E+02
  0
VERTEX
  8
0
 62
4
 10
-4.62059293E+00
 20
1.33573163E+02
  0
VERTEX
  8
0
 62
4
 10
-4.56812652E+00
 20
1.33724582E+02
  0
VERTEX
  8
0
 62
4
 10
-4.53036266E+00
 20
1.33879587E+02
  0
VERTEX
  8
0
 62
4
 10
-4.50758877E+00
 20
1.34036996E+02
  0
VERTEX
  8
0
 62
4
 10
-4.49997817E+00
 20
1.34195613E+02
  0
VERTEX
  8
0
 62
4
 10
-4.50758877E+00
 20
1.34354230E+02
  0
VERTEX
  8
0
 62
4
 10
-4.53036266E+00
 20
1.34511639E+02
  0
VERTEX
  8
0
 62
4
 10
-4.56812652E+00
 20
1.34666644E+02
  0
VERTEX
  8
0
 62
4
 10
-4.62059293E+00
 20
1.34818063E+02
  0
VERTEX
  8
0
 62
4
 10
-4.68736259E+00
 20
1.34964745E+02
  0
VERTEX
  8
0
 62
4
 10
-4.76792736E+00
 20
1.35105574E+02
  0
VERTEX
  8
0
 62
4
 10
-4.86167408E+00
 20
1.35239478E+02
  0
VERTEX
  8
0
 62
4
 10
-4.96788928E+00
 20
1.35365437E+02
  0
VERTEX
  8
0
 62
4
 10
-5.08576461E+00
 20
1.35482493E+02
  0
VERTEX
  8
0
 62
4
 10
-5.21440295E+00
 20
1.35589755E+02
  0
VERTEX
  8
0
 62
4
 10
-5.35282529E+00
 20
1.35686406E+02
  0
VERTEX
  8
0
 62
4
 10
-5.49997817E+00
 20
1.35771712E+02
  0
VERTEX
  8
0
 62
4
 10
-5.65474164E+00
 20
1.35845023E+02
  0
VERTEX
  8
0
 62
4
 10
-5.81593788E+00
 20
1.35905781E+02
  0
VERTEX
  8
0
 62
4
 10
-5.98234008E+00
 20
1.35953523E+02
  0
VERTEX
  8
0
 62
4
 10
-6.15268181E+00
 20
1.35987887E+02
  0
VERTEX
  8
0
 62
4
 10
-6.32566668E+00
 20
1.36008610E+02
  0
VERTEX
  8
0
 62
4
 10
-6.49997817E+00
 20
1.36015535E+02
  0
VERTEX
  8
0
 62
4
 10
-6.67428965E+00
 20
1.36008610E+02
  0
VERTEX
  8
0
 62
4
 10
-6.84727452E+00
 20
1.35987887E+02
  0
VERTEX
  8
0
 62
4
 10
-7.01761626E+00
 20
1.35953523E+02
  0
VERTEX
  8
0
 62
4
 10
-7.18401845E+00
 20
1.35905781E+02
  0
VERTEX
  8
0
 62
4
 10
-7.34521469E+00
 20
1.35845023E+02
  0
VERTEX
  8
0
 62
4
 10
-7.49997817E+00
 20
1.35771712E+02
  0
VERTEX
  8
0
 62
4
 10
-7.64713104E+00
 20
1.35686406E+02
  0
VERTEX
  8
0
 62
4
 10
-7.78555339E+00
 20
1.35589755E+02
  0
VERTEX
  8
0
 62
4
 10
-7.91419173E+00
 20
1.35482493E+02
  0
VERTEX
  8
0
 62
4
 10
-8.03206706E+00
 20
1.35365437E+02
  0
VERTEX
  8
0
 62
4
 10
-8.13828226E+00
 20
1.35239478E+02
  0
VERTEX
  8
0
 62
4
 10
-8.23202898E+00
 20
1.35105574E+02
  0
VERTEX
  8
0
 62
4
 10
-8.31259374E+00
 20
1.34964745E+02
  0
VERTEX
  8
0
 62
4
 10
-8.37936341E+00
 20
1.34818063E+02
  0
VERTEX
  8
0
 62
4
 10
-8.43182982E+00
 20
1.34666644E+02
  0
VERTEX
  8
0
 62
4
 10
-8.46959368E+00
 20
1.34511639E+02
  0
VERTEX
  8
0
 62
4
 10
-8.49236757E+00
 20
1.34354230E+02
  0
VERTEX
  8
0
 62
4
 10
-8.49997817E+00
 20
1.34195613E+02
  0
SEQEND
  8
0
  0
LINE
  8
0
 62
4
 10
-8.49997817E+00
 20
1.34195613E+02
 11
-8.49997817E+00
 21
1.35830530E+02
  0
POLYLINE
  8
0
 62
4
 66
1
  0
VERTEX
  8
0
 62
4
 10
-4.49997817E+00
 20
1.35830530E+02
  0
VERTEX
  8
0
 62
4
 10
-4.50802958E+00
 20
1.35993667E+02
  0
VERTEX
  8
0
 62
4
 10
-4.53211899E+00
 20
1.36155490E+02
  0
VERTEX
  8
0
 62
4
 10
-4.57205244E+00
 20
1.36314696E+02
  0
VERTEX
  8
0
 62
4
 10
-4.62750842E+00
 20
1.36470005E+02
  0
VERTEX
  8
0
 62
4
 10
-4.69804043E+00
 20
1.36620165E+02
  0
VERTEX
  8
0
 62
4
 10
-4.78308058E+00
 20
1.36763967E+02
  0
VERTEX
  8
0
 62
4
 10
-4.88194417E+00
 20
1.36900254E+02
  0
VERTEX
  8
0
 62
4
 10
-4.99383523E+00
 20
1.37027927E+02
  0
VERTEX
  8
0
 62
4
 10
-5.11785286E+00
 20
1.37145961E+02
  0
VERTEX
  8
0
 62
4
 10
-5.25299855E+00
 20
1.37253403E+02
  0
VERTEX
  8
0
 62
4
 10
-5.39818419E+00
 20
1.37349389E+02
  0
VERTEX
  8
0
 62
4
 10
-5.55224083E+00
 20
1.37433146E+02
  0
VERTEX
  8
0
 62
4
 10
-5.71392809E+00
 20
1.37503999E+02
  0
VERTEX
  8
0
 62
4
 10
-5.88194417E+00
 20
1.37561379E+02
  0
VERTEX
  8
0
 62
4
 10
-6.05493629E+00
 20
1.37604823E+02
  0
VERTEX
  8
0
 62
4
 10
-6.23151162E+00
 20
1.37633982E+02
  0
VERTEX
  8
0
 62
4
 10
-6.41024849E+00
 20
1.37648620E+02
  0
VERTEX
  8
0
 62
4
 10
-6.58970781E+00
 20
1.37648620E+02
  0
VERTEX
  8
0
 62
4
 10
-6.76844468E+00
 20
1.37633982E+02
  0
VERTEX
  8
0
 62
4
 10
-6.94502002E+00
 20
1.37604823E+02
  0
VERTEX
  8
0
 62
4
 10
-7.11801214E+00
 20
1.37561379E+02
  0
VERTEX
  8
0
 62
4
 10
-7.28602822E+00
 20
1.37503999E+02
  0
VERTEX
  8
0
 62
4
 10
-7.44771548E+00
 20
1.37433146E+02
  0
VERTEX
  8
0
 62
4
 10
-7.60177212E+00
 20
1.37349389E+02
  0
VERTEX
  8
0
 62
4
 10
-7.74695776E+00
 20
1.37253403E+02
  0
VERTEX
  8
0
 62
4
 10
-7.88210345E+00
 20
1.37145961E+02
  0
VERTEX
  8
0
 62
4
 10
-8.00612109E+00
 20
1.37027927E+02
  0
VERTEX
  8
0
 62
4
 10
-8.11801215E+00
 20
1.36900254E+02
  0
VERTEX
  8
0
 62
4
 10
-8.21687575E+00
 20
1.36763967E+02
  0
VERTEX
  8
0
 62
4
 10
-8.30191590E+00
 20
1.36620165E+02
  0
VERTEX
  8
0
 62
4
 10
-8.37244790E+00
 20
1.36470005E+02
  0
VERTEX
  8
0
 62
4
 10
-8.42790389E+00
 20
1.36314696E+02
  0
VERTEX
  8
0
 62
4
 10
-8.46783734E+00
 20
1.36155490E+02
  0
VERTEX
  8
0
 62
4
 10
-8.49192676E+00
 20
1.35993667E+02
  0
VERTEX
  8
0
 62
4
 10
-8.49997817E+00
 20
1.35830530E+02
  0
SEQEND
  8
0
  0
LINE
  8
0
 62
4
 10
2.00000218E+01
 20
1.54069725E+02
 11
2.15000218E+01
 21
1.52917276E+02
  0
LINE
  8
0
 62
4
 10
2.15000218E+01
 20
1.50856214E+02
 11
2.00000218E+01
 21
1.50429880E+02
  0
LINE
  8
0
 62
4
 10
2.15000218E+01
 20
1.49916934E+02
 11
2.00000218E+01
 21
1.48771107E+02
  0
LINE
  8
0
 62
4
 10
2.15000218E+01
 20
1.52917276E+02
 11
2.15000218E+01
 21
1.49916934E+02
  0
LINE
  8
0
 62
2
 10
-3.09916577E+02
 20
1.00464775E+02
 11
-3.09916577E+02
 21
1.00500061E+02
  0
LINE
  8
0
 62
7
 10
-3.03599927E+02
 20
1.51500000E+02
 11
-3.03599927E+02
 21
4.94999657E+01
  0
LINE
  8
0
 62
7
 10
-4.09999921E+02
 20
4.51000061E+01
 11
-3.07999951E+02
 21
4.51000061E+01
  0
LINE
  8
0
 62
7
 10
-3.06599927E+02
 20
1.25516159E+02
 11
-3.06599927E+02
 21
7.54840393E+01
  0
LINE
  8
0
 62
7
 10
-3.07599927E+02
 20
1.01750000E+02
 11
-3.33097425E+02
 21
1.01750000E+02
  0
LINE
  8
0
 62
7
 10
-3.39800145E+02
 20
8.30680976E+01
 11
-3.24810488E+02
 21
6.80784372E+01
  0
LINE
  8
0
 62
7
 10
-3.41568063E+02
 20
8.13002661E+01
 11
-3.26578407E+02
 21
6.63106056E+01
  0
LINE
  8
0
 62
7
 10
-3.07599927E+02
 20
9.92500000E+01
 11
-3.33097425E+02
 21
9.92500000E+01
  0
LINE
  8
0
 62
7
 10
-3.76432074E+02
 20
8.13003481E+01
 11
-3.91421744E+02
 21
6.63106794E+01
  0
LINE
  8
0
 62
7
 10
-3.78199798E+02
 20
8.30681583E+01
 11
-3.93189479E+02
 21
6.80784788E+01
  0
LINE
  8
0
 62
7
 10
-3.84015882E+02
 20
4.81000099E+01
 11
-3.33983747E+02
 21
4.81000099E+01
  0
LINE
  8
0
 62
7
 10
-3.60249982E+02
 20
4.90999680E+01
 11
-3.60249982E+02
 21
7.45974579E+01
  0
LINE
  8
0
 62
7
 10
-4.10399976E+02
 20
9.92500000E+01
 11
-3.84902478E+02
 21
9.92500000E+01
  0
LINE
  8
0
 62
7
 10
-3.02999951E+02
 20
1.51500000E+02
 11
-3.02999951E+02
 21
4.95000038E+01
  0
LINE
  8
0
  6
CENTER
 62
2
 10
-3.16999951E+02
 20
1.59392731E+02
 11
-3.16999951E+02
 21
1.27642197E+02
  0
LINE
  8
0
 62
7
 10
-4.09999921E+02
 20
4.45000038E+01
 11
-3.07999951E+02
 21
4.45000038E+01
  0
LINE
  8
0
  6
CENTER
 62
2
 10
-4.00999951E+02
 20
4.28217163E+01
 11
-4.00999951E+02
 21
7.28636475E+01
  0
LINE
  8
0
  6
CENTER
 62
2
 10
-4.17068524E+02
 20
5.84999924E+01
 11
-3.85503766E+02
 21
5.84999924E+01
  0
LINE
  8
0
 62
7
 10
-3.57749982E+02
 20
4.90999680E+01
 11
-3.57749982E+02
 21
7.45974579E+01
  0
LINE
  8
0
 62
7
 10
-3.14063336E+02
 20
7.49999847E+01
 11
-3.14472028E+02
 21
7.49999847E+01
  0
LINE
  8
0
 62
7
 10
-3.57749982E+02
 20
1.51900009E+02
 11
-3.57749982E+02
 21
1.26402573E+02
  0
LINE
  8
0
 62
7
 10
-3.41568037E+02
 20
1.19699863E+02
 11
-3.26578375E+02
 21
1.34689519E+02
  0
LINE
  8
0
 62
7
 10
-3.39800259E+02
 20
1.17932107E+02
 11
-3.24810587E+02
 21
1.32921773E+02
  0
LINE
  8
0
 62
7
 10
-3.23999982E+02
 20
1.56500000E+02
 11
-3.23999982E+02
 21
1.55900024E+02
  0
LINE
  8
0
 62
7
 10
-3.93999982E+02
 20
4.51000061E+01
 11
-3.93999982E+02
 21
4.45000038E+01
  0
LINE
  8
0
 62
7
 10
-3.23999982E+02
 20
4.51000061E+01
 11
-3.23999982E+02
 21
4.45000038E+01
  0
LINE
  8
0
 62
7
 10
-4.09999921E+02
 20
1.55900024E+02
 11
-3.07999951E+02
 21
1.55900024E+02
  0
LINE
  8
0
 62
7
 10
-4.14399945E+02
 20
1.51500015E+02
 11
-4.14399945E+02
 21
4.95000038E+01
  0
LINE
  8
0
 62
7
 10
-3.78199764E+02
 20
1.17932023E+02
 11
-3.93189423E+02
 21
1.32921681E+02
  0
LINE
  8
0
 62
7
 10
-3.76431976E+02
 20
1.19699726E+02
 11
-3.91421635E+02
 21
1.34689384E+02
  0
LINE
  8
0
 62
7
 10
-3.84016095E+02
 20
1.52900009E+02
 11
-3.33983960E+02
 21
1.52900009E+02
  0
LINE
  8
0
 62
7
 10
-4.11399976E+02
 20
1.25515961E+02
 11
-4.11399976E+02
 21
7.56844635E+01
  0
LINE
  8
0
 62
7
 10
-4.10399976E+02
 20
1.01750000E+02
 11
-3.84902478E+02
 21
1.01750000E+02
  0
LINE
  8
0
 62
7
 10
-3.60249982E+02
 20
1.51900009E+02
 11
-3.60249982E+02
 21
1.26402512E+02
  0
LINE
  8
0
 62
7
 10
-4.09999921E+02
 20
1.56500000E+02
 11
-3.07999951E+02
 21
1.56500000E+02
  0
LINE
  8
0
 62
7
 10
-4.14999921E+02
 20
1.51500000E+02
 11
-4.14999921E+02
 21
4.95000038E+01
  0
LINE
  8
0
  6
CENTER
 62
2
 10
-4.16963849E+02
 20
1.42500000E+02
 11
-3.85108930E+02
 21
1.42500000E+02
  0
LINE
  8
0
  6
CENTER
 62
2
 10
-4.00999951E+02
 20
1.58980774E+02
 11
-4.00999951E+02
 21
1.28073807E+02
  0
LINE
  8
0
 62
7
 10
-3.93999982E+02
 20
1.56500000E+02
 11
-3.93999982E+02
 21
1.55900024E+02
  0
LINE
  8
0
  6
CENTER
 62
2
 10
-3.58999982E+02
 20
1.59166321E+02
 11
-3.58999982E+02
 21
4.30072632E+01
  0
LINE
  8
0
  6
CENTER
 62
2
 10
-3.31806165E+02
 20
5.84999924E+01
 11
-3.00624280E+02
 21
5.84999924E+01
  0
LINE
  8
0
  6
CENTER
 62
2
 10
-3.31806165E+02
 20
1.42500000E+02
 11
-3.00716748E+02
 21
1.42500000E+02
  0
LINE
  8
0
  6
CENTER
 62
2
 10
-3.16999951E+02
 20
4.29277000E+01
 11
-3.16999951E+02
 21
7.34962006E+01
  0
LINE
  8
0
  6
CENTER
 62
2
 10
-3.01138990E+02
 20
1.00500000E+02
 11
-4.16904950E+02
 21
1.00500000E+02
  0
LINE
  8
0
  6
CENTER
 62
2
 10
-3.70999951E+02
 20
1.43800003E+02
 11
-3.70999951E+02
 21
1.58763611E+02
  0
CIRCLE
  8
0
 62
7
 10
-3.16999951E+02
 20
1.42500000E+02
 40
8.69999981E+00
  0
CIRCLE
  8
0
 62
7
 10
-3.16999951E+02
 20
5.84999924E+01
 40
8.69999981E+00
  0
CIRCLE
  8
0
 62
7
 10
-4.00999951E+02
 20
5.84999695E+01
 40
8.69999981E+00
  0
ARC
  8
0
 62
7
 10
-3.24103437E+02
 20
1.32214539E+02
 40
1.00000000E+00
 50
5.53696252E+01
 51
1.34999959E+02
  0
ARC
  8
0
 62
7
 10
-3.27285382E+02
 20
1.35396561E+02
 40
1.00000000E+00
 50
3.14999995E+02
 51
3.46303842E+01
  0
ARC
  8
0
 62
7
 10
-3.39093091E+02
 20
1.17224892E+02
 40
1.00000000E+00
 50
1.34999959E+02
 51
2.20035227E+02
  0
ARC
  8
0
 62
7
 10
-3.42275128E+02
 20
1.20406906E+02
 40
1.00000000E+00
 50
2.29964427E+02
 51
3.14999988E+02
  0
ARC
  8
0
 62
7
 10
-3.56749921E+02
 20
1.51900009E+02
 40
1.00000000E+00
 50
8.99999818E+01
 51
1.79999964E+02
  0
ARC
  8
0
 62
7
 10
-3.56749921E+02
 20
1.26402573E+02
 40
1.00000000E+00
 50
1.79999964E+02
 51
2.65035792E+02
  0
ARC
  8
0
 62
7
 10
-3.33097425E+02
 20
1.02749992E+02
 40
1.00000000E+00
 50
1.84964149E+02
 51
2.69999956E+02
  0
ARC
  8
0
 62
7
 10
-3.07599927E+02
 20
1.02749992E+02
 40
1.00000000E+00
 50
2.69999963E+02
 51
0.00000000E+00
  0
ARC
  8
0
 62
7
 10
-3.27285382E+02
 20
6.56034927E+01
 40
1.00000000E+00
 50
3.25369629E+02
 51
4.49999637E+01
  0
ARC
  8
0
 62
7
 10
-3.24103437E+02
 20
6.87854614E+01
 40
1.00000000E+00
 50
2.25000000E+02
 51
3.04630388E+02
  0
ARC
  8
0
 62
7
 10
-3.42275006E+02
 20
8.05931168E+01
 40
1.00000000E+00
 50
4.49999637E+01
 51
1.30035231E+02
  0
ARC
  8
0
 62
7
 10
-3.39093061E+02
 20
8.37751465E+01
 40
1.00000000E+00
 50
1.39964428E+02
 51
2.24999982E+02
  0
ARC
  8
0
 62
7
 10
-3.07599927E+02
 20
9.82500000E+01
 40
1.00000000E+00
 50
3.59999986E+02
 51
8.99999681E+01
  0
ARC
  8
0
 62
7
 10
-3.33097425E+02
 20
9.82500000E+01
 40
1.00000000E+00
 50
8.99999681E+01
 51
1.75035796E+02
  0
ARC
  8
0
 62
7
 10
-3.56749921E+02
 20
7.45974579E+01
 40
1.00000000E+00
 50
9.49641432E+01
 51
1.79999951E+02
  0
ARC
  8
0
 62
7
 10
-3.56749921E+02
 20
4.90999947E+01
 40
1.00000000E+00
 50
1.79999951E+02
 51
2.70000001E+02
  0
ARC
  8
0
 62
7
 10
-3.93896405E+02
 20
6.87854462E+01
 40
1.00000000E+00
 50
2.35369648E+02
 51
3.14999968E+02
  0
ARC
  8
0
 62
7
 10
-3.90714460E+02
 20
6.56034164E+01
 40
1.00000000E+00
 50
1.34999987E+02
 51
2.14630376E+02
  0
ARC
  8
0
 62
7
 10
-3.78906781E+02
 20
8.37750854E+01
 40
1.00000000E+00
 50
3.14999968E+02
 51
4.00352358E+01
  0
ARC
  8
0
 62
7
 10
-3.75724835E+02
 20
8.05930939E+01
 40
1.00000000E+00
 50
4.99644184E+01
 51
1.34999987E+02
  0
ARC
  8
0
 62
7
 10
-3.61249921E+02
 20
4.90999947E+01
 40
1.00000000E+00
 50
2.69999991E+02
 51
3.59999973E+02
  0
ARC
  8
0
 62
7
 10
-3.61249921E+02
 20
7.45974579E+01
 40
1.00000000E+00
 50
3.59999973E+02
 51
8.50358005E+01
  0
ARC
  8
0
 62
7
 10
-3.84902478E+02
 20
9.82500000E+01
 40
1.00000000E+00
 50
4.96415417E+00
 51
8.99999549E+01
  0
ARC
  8
0
 62
7
 10
-4.10399976E+02
 20
9.82500000E+01
 40
1.00000000E+00
 50
8.99999549E+01
 51
1.79999991E+02
  0
ARC
  8
0
 62
7
 10
-3.07999951E+02
 20
1.51500000E+02
 40
4.40000010E+00
 50
0.00000000E+00
 51
8.99999818E+01
  0
ARC
  8
0
 62
7
 10
-3.16999951E+02
 20
5.84999924E+01
 40
1.15000000E+01
 50
7.13249336E+01
 51
1.98674411E+02
  0
ARC
  8
0
 62
7
 10
-4.00999951E+02
 20
5.84999924E+01
 40
1.15000000E+01
 50
3.41325006E+02
 51
1.07701394E+02
  0
ARC
  8
0
 62
7
 10
-4.09999921E+02
 20
4.95000038E+01
 40
4.40000010E+00
 50
1.79999964E+02
 51
2.69999946E+02
  0
ARC
  8
0
 62
7
 10
-3.07999951E+02
 20
4.94999657E+01
 40
4.40000010E+00
 50
2.69999963E+02
 51
0.00000000E+00
  0
ARC
  8
0
 62
7
 10
-3.07999951E+02
 20
1.51500000E+02
 40
5.00000000E+00
 50
0.00000000E+00
 51
8.99999818E+01
  0
CIRCLE
  8
0
 62
7
 10
-3.16999951E+02
 20
1.42500000E+02
 40
8.00000000E+00
  0
ARC
  8
0
 62
7
 10
-4.09999921E+02
 20
4.95000038E+01
 40
5.00000000E+00
 50
1.79999964E+02
 51
2.69999946E+02
  0
CIRCLE
  8
0
 62
7
 10
-4.00999951E+02
 20
5.84999695E+01
 40
8.00000000E+00
  0
ARC
  8
0
 62
7
 10
-3.07999951E+02
 20
4.95000038E+01
 40
5.00000000E+00
 50
2.69999963E+02
 51
0.00000000E+00
  0
CIRCLE
  8
0
 62
7
 10
-3.16999951E+02
 20
5.84999924E+01
 40
8.00000000E+00
  0
ARC
  8
0
 62
7
 10
-3.07599927E+02
 20
1.25516159E+02
 40
1.00000000E+00
 50
0.00000000E+00
 51
9.45895548E+01
  0
ARC
  8
0
 62
7
 10
-3.33983960E+02
 20
1.51900009E+02
 40
1.00000000E+00
 50
3.55412204E+02
 51
8.99999818E+01
  0
ARC
  8
0
 62
7
 10
-4.09999829E+02
 20
7.04998627E+01
 40
4.19999981E+00
 50
3.58989755E+02
 51
9.44131721E+01
  0
ARC
  8
0
 62
7
 10
-3.88999860E+02
 20
4.95000038E+01
 40
4.00000000E+00
 50
3.55411551E+02
 51
9.18126662E+01
  0
ARC
  8
0
 62
7
 10
-3.28999829E+02
 20
4.95001183E+01
 40
4.00000000E+00
 50
8.81895309E+01
 51
1.84590151E+02
  0
ARC
  8
0
 62
7
 10
-3.07999951E+02
 20
7.05000610E+01
 40
4.00000000E+00
 50
8.54113313E+01
 51
1.81813065E+02
  0
ARC
  8
0
 62
7
 10
-4.10399976E+02
 20
7.56844635E+01
 40
1.00000000E+00
 50
1.79999977E+02
 51
2.74414133E+02
  0
ARC
  8
0
 62
7
 10
-3.84015851E+02
 20
4.91000061E+01
 40
1.00000000E+00
 50
1.75411348E+02
 51
2.70000001E+02
  0
ARC
  8
0
 62
7
 10
-3.33983808E+02
 20
4.90999680E+01
 40
1.00000000E+00
 50
2.70000018E+02
 51
4.59054965E+00
  0
ARC
  8
0
 62
7
 10
-3.07599927E+02
 20
7.54840393E+01
 40
1.00000000E+00
 50
2.65412187E+02
 51
0.00000000E+00
  0
ARC
  8
0
 62
7
 10
-3.28841779E+02
 20
1.46502518E+02
 40
1.00000000E+00
 50
3.41324803E+02
 51
9.18135474E+01
  0
ARC
  8
0
 62
7
 10
-3.12997571E+02
 20
1.30658096E+02
 40
1.00000000E+00
 50
3.58189936E+02
 51
1.08674388E+02
  0
ARC
  8
0
 62
7
 10
-4.04800611E+02
 20
7.04081802E+01
 40
1.00000000E+00
 50
1.78989315E+02
 51
2.87700627E+02
  0
ARC
  8
0
 62
7
 10
-3.89158063E+02
 20
5.44974976E+01
 40
1.00000000E+00
 50
1.61324820E+02
 51
2.71813498E+02
  0
ARC
  8
0
 62
7
 10
-3.28841901E+02
 20
5.44976120E+01
 40
1.00000000E+00
 50
2.68189943E+02
 51
1.86743690E+01
  0
ARC
  8
0
 62
7
 10
-3.12997480E+02
 20
7.03418579E+01
 40
1.00000000E+00
 50
2.51325332E+02
 51
1.81263018E+00
  0
ARC
  8
0
 62
7
 10
-3.16999951E+02
 20
1.42500000E+02
 40
1.15000000E+01
 50
1.61325025E+02
 51
2.88674421E+02
  0
ARC
  8
0
 62
7
 10
-3.29000012E+02
 20
1.51500000E+02
 40
4.00000000E+00
 50
1.75411348E+02
 51
2.71812624E+02
  0
ARC
  8
0
 62
7
 10
-3.08000074E+02
 20
1.30500107E+02
 40
4.00000000E+00
 50
1.78189554E+02
 51
2.74590407E+02
  0
CIRCLE
  8
0
 62
7
 10
-4.00999951E+02
 20
1.42499985E+02
 40
8.69999981E+00
  0
ARC
  8
0
 62
7
 10
-3.90714460E+02
 20
1.35396500E+02
 40
1.00000000E+00
 50
1.45369634E+02
 51
2.24999955E+02
  0
ARC
  8
0
 62
7
 10
-3.93896527E+02
 20
1.32214508E+02
 40
1.00000000E+00
 50
4.49999910E+01
 51
1.24630380E+02
  0
ARC
  8
0
 62
7
 10
-4.10399976E+02
 20
1.02749969E+02
 40
1.00000000E+00
 50
1.79999964E+02
 51
2.69999946E+02
  0
ARC
  8
0
 62
7
 10
-3.61249921E+02
 20
1.51900009E+02
 40
1.00000000E+00
 50
3.59999959E+02
 51
8.99999956E+01
  0
ARC
  8
0
 62
7
 10
-3.84902478E+02
 20
1.02749992E+02
 40
1.00000000E+00
 50
2.69999963E+02
 51
3.55035805E+02
  0
ARC
  8
0
 62
7
 10
-3.78906903E+02
 20
1.17224861E+02
 40
1.00000000E+00
 50
3.19964423E+02
 51
4.49999910E+01
  0
ARC
  8
0
 62
7
 10
-3.75724835E+02
 20
1.20406876E+02
 40
1.00000000E+00
 50
2.24999972E+02
 51
3.10035254E+02
  0
ARC
  8
0
 62
7
 10
-3.61249921E+02
 20
1.26402512E+02
 40
1.00000000E+00
 50
2.74964145E+02
 51
3.59999959E+02
  0
ARC
  8
0
 62
7
 10
-4.00999951E+02
 20
1.42500000E+02
 40
1.15000000E+01
 50
2.51324914E+02
 51
1.86744424E+01
  0
ARC
  8
0
 62
7
 10
-4.09999921E+02
 20
1.51500015E+02
 40
4.40000010E+00
 50
8.99999818E+01
 51
1.79999964E+02
  0
ARC
  8
0
 62
7
 10
-4.09999921E+02
 20
1.51500000E+02
 40
5.00000000E+00
 50
8.99999818E+01
 51
1.79999964E+02
  0
CIRCLE
  8
0
 62
7
 10
-4.00999951E+02
 20
1.42499985E+02
 40
8.00000000E+00
  0
ARC
  8
0
 62
7
 10
-4.09999921E+02
 20
1.30499939E+02
 40
4.00000000E+00
 50
2.65411312E+02
 51
1.81309463E+00
  0
ARC
  8
0
 62
7
 10
-3.89000074E+02
 20
1.51499863E+02
 40
4.00000000E+00
 50
2.68189512E+02
 51
4.59040963E+00
  0
ARC
  8
0
 62
7
 10
-4.10399976E+02
 20
1.25515961E+02
 40
1.00000000E+00
 50
8.54104639E+01
 51
1.79999964E+02
  0
ARC
  8
0
 62
7
 10
-3.84016156E+02
 20
1.51900024E+02
 40
1.00000000E+00
 50
8.99999818E+01
 51
1.84589646E+02
  0
ARC
  8
0
 62
7
 10
-4.05002423E+02
 20
1.30658142E+02
 40
1.00000000E+00
 50
7.13253501E+01
 51
1.81812600E+02
  0
ARC
  8
0
 62
7
 10
-3.89158063E+02
 20
1.46502380E+02
 40
1.00000000E+00
 50
8.81899612E+01
 51
1.98674330E+02
  0
CIRCLE
  8
0
 62
7
 10
-3.58999860E+02
 20
1.00500061E+02
 40
2.50000153E+01
  0
CIRCLE
  8
0
 62
7
 10
-3.58999860E+02
 20
1.00500061E+02
 40
2.35000153E+01
  0
CIRCLE
  8
0
 62
7
 10
-3.58999982E+02
 20
1.00500000E+02
 40
2.40000000E+01
  0
CIRCLE
  8
0
 62
2
 10
-4.00999951E+02
 20
5.84999924E+01
 40
5.00000000E+00
  0
CIRCLE
  8
0
 62
2
 10
-4.00999951E+02
 20
1.42500000E+02
 40
5.00000000E+00
  0
CIRCLE
  8
0
 62
2
 10
-3.16999951E+02
 20
1.42500000E+02
 40
5.00000000E+00
  0
CIRCLE
  8
0
 62
2
 10
-3.16999951E+02
 20
5.84999924E+01
 40
5.00000000E+00
  0
CIRCLE
  8
0
 62
7
 10
-4.00999951E+02
 20
5.84999924E+01
 40
4.17999983E+00
  0
CIRCLE
  8
0
 62
7
 10
-4.00999951E+02
 20
1.42500000E+02
 40
4.17999983E+00
  0
CIRCLE
  8
0
 62
7
 10
-3.16999951E+02
 20
1.42500000E+02
 40
4.17999983E+00
  0
CIRCLE
  8
0
 62
7
 10
-3.16999951E+02
 20
5.84999924E+01
 40
4.17999983E+00
  0
CIRCLE
  8
0
 62
4
 10
-3.58999982E+02
 20
1.00500000E+02
 40
1.80000000E+01
  0
CIRCLE
  8
0
 62
7
 10
-3.58999982E+02
 20
1.00500000E+02
 40
1.10000000E+01
  0
LINE
  8
0
 62
4
 10
-3.76999990E+02
 20
1.10892303E+02
 11
-3.76999990E+02
 21
9.01076965E+01
  0
LINE
  8
0
 62
4
 10
-3.40999982E+02
 20
1.10892303E+02
 11
-3.40999982E+02
 21
9.01076965E+01
  0
LINE
  8
0
 62
4
 10
-3.77000047E+02
 20
1.10892269E+02
 11
-3.59000045E+02
 21
1.21284573E+02
  0
LINE
  8
0
 62
4
 10
-3.59000060E+02
 20
7.97153727E+01
 11
-3.41000059E+02
 21
9.01076769E+01
  0
LINE
  8
0
 62
4
 10
-3.59000124E+02
 20
1.21284608E+02
 11
-3.41000119E+02
 21
1.10892302E+02
  0
LINE
  8
0
 62
4
 10
-3.77000070E+02
 20
9.01077224E+01
 11
-3.59000078E+02
 21
7.97154240E+01
  0
CIRCLE
  8
0
 62
2
 10
-3.58999982E+02
 20
1.00500000E+02
 40
1.01800079E+01
  0
LINE
  8
0
 62
4
 10
-3.85203351E+02
 20
1.56500000E+02
 11
-3.87053416E+02
 21
1.60559597E+02
  0
LINE
  8
0
 62
4
 10
-3.85620951E+02
 20
1.56500000E+02
 11
-3.88995770E+02
 21
1.63905365E+02
  0
ARC
  8
0
 62
4
 10
-3.93798048E+02
 20
1.52933762E+02
 40
1.18100000E+01
 50
2.45000000E+01
 51
4.50326991E+01
  0
LINE
  8
0
  6
CENTER
 62
6
 10
-3.90922151E+02
 20
1.54235880E+02
 11
-3.81693353E+02
 21
1.58441685E+02
  0
LINE
  8
0
  6
CENTER
 62
6
 10
-3.92373577E+02
 20
1.57420744E+02
 11
-3.83144779E+02
 21
1.61626550E+02
  0
LINE
  8
0
 62
4
 10
-3.88995770E+02
 20
1.63905365E+02
 11
-3.98368371E+02
 21
1.59634024E+02
  0
LINE
  8
0
 62
4
 10
-3.88705485E+02
 20
1.63268392E+02
 11
-3.87795524E+02
 21
1.63683085E+02
  0
ARC
  8
0
 62
4
 10
-3.84195439E+02
 20
1.58510261E+02
 40
1.00000000E+00
 50
3.43223662E+02
 51
1.16724900E+01
  0
ARC
  8
0
 62
4
 10
-3.86185967E+02
 20
1.62878076E+02
 40
1.00000000E+00
 50
3.73275101E+01
 51
1.14500000E+02
  0
ARC
  8
0
 62
4
 10
-3.94781889E+02
 20
1.56323213E+02
 40
1.18100000E+01
 50
1.16724900E+01
 51
3.73275101E+01
  0
LINE
  8
0
 62
4
 10
-3.87629646E+02
 20
1.63319100E+02
 11
-3.86601390E+02
 21
1.63787704E+02
  0
LINE
  8
0
 62
4
 10
-3.86489240E+02
 20
1.60816707E+02
 11
-3.87795524E+02
 21
1.63683085E+02
  0
LINE
  8
0
 62
4
 10
-3.87336997E+02
 20
1.60265520E+02
 11
-3.86991212E+02
 21
1.60423103E+02
  0
LINE
  8
0
 62
4
 10
-3.87053416E+02
 20
1.60559597E+02
 11
-3.85451884E+02
 21
1.61289457E+02
  0
LINE
  8
0
 62
4
 10
-4.04738100E+02
 20
1.56731172E+02
 11
-3.98368371E+02
 21
1.59634024E+02
  0
LINE
  8
0
 62
4
 10
-3.96940114E+02
 20
1.56500000E+02
 11
-3.98368371E+02
 21
1.59634024E+02
  0
ARC
  8
0
 62
4
 10
-3.93791630E+02
 20
1.52919679E+02
 40
1.18100000E+01
 50
1.76475088E+01
 51
2.45000000E+01
  0
LINE
  8
0
  6
CENTER
 62
6
 10
-3.27077813E+02
 20
1.54235880E+02
 11
-3.36306611E+02
 21
1.58441685E+02
  0
LINE
  8
0
 62
4
 10
-3.32378952E+02
 20
1.56500000E+02
 11
-3.29004133E+02
 21
1.63905365E+02
  0
ARC
  8
0
 62
4
 10
-3.24208273E+02
 20
1.52919679E+02
 40
1.18100000E+01
 50
1.55500000E+02
 51
1.62352491E+02
  0
LINE
  8
0
 62
4
 10
-3.33356048E+02
 20
1.56767379E+02
 11
-3.30204379E+02
 21
1.63683085E+02
  0
LINE
  8
0
 62
4
 10
-3.29004133E+02
 20
1.63905365E+02
 11
-3.19631532E+02
 21
1.59634024E+02
  0
LINE
  8
0
 62
4
 10
-3.29294418E+02
 20
1.63268392E+02
 11
-3.30204379E+02
 21
1.63683085E+02
  0
ARC
  8
0
 62
4
 10
-3.33804464E+02
 20
1.58510261E+02
 40
1.00000000E+00
 50
1.68327510E+02
 51
2.45500000E+02
  0
ARC
  8
0
 62
4
 10
-3.31813936E+02
 20
1.62878076E+02
 40
1.00000000E+00
 50
6.55000000E+01
 51
1.42672490E+02
  0
LINE
  8
0
 62
4
 10
-3.33190170E+02
 20
1.57131364E+02
 11
-3.34218427E+02
 21
1.57599967E+02
  0
LINE
  8
0
 62
4
 10
-3.30370256E+02
 20
1.63319100E+02
 11
-3.31398513E+02
 21
1.63787704E+02
  0
ARC
  8
0
 62
4
 10
-3.23218014E+02
 20
1.56323213E+02
 40
1.18100000E+01
 50
1.42672490E+02
 51
1.68327510E+02
  0
ARC
  8
0
 62
4
 10
-3.24201855E+02
 20
1.52933762E+02
 40
1.18100000E+01
 50
1.53400933E+02
 51
1.55500000E+02
  0
LINE
  8
0
  6
CENTER
 62
6
 10
-3.25626387E+02
 20
1.57420744E+02
 11
-3.34855185E+02
 21
1.61626550E+02
  0
LINE
  8
0
 62
4
 10
-3.21059789E+02
 20
1.56500000E+02
 11
-3.19631532E+02
 21
1.59634024E+02
  0
LINE
  8
0
 62
4
 10
-3.13261803E+02
 20
1.56731172E+02
 11
-3.19631532E+02
 21
1.59634024E+02
  0
LINE
  8
0
 62
4
 10
-3.32769337E+02
 20
1.56500000E+02
 11
-3.33356048E+02
 21
1.56767379E+02
  0
LINE
  8
0
  6
CENTER
 62
2
 10
2.82999972E+02
 20
1.43800003E+02
 11
2.82999972E+02
 21
1.58763611E+02
  0
LINE
  8
0
 62
2
 10
2.21916606E+02
 20
1.00464775E+02
 11
2.21916606E+02
 21
1.00500061E+02
  0
LINE
  8
0
 62
7
 10
2.15599978E+02
 20
1.51500000E+02
 11
2.15599978E+02
 21
4.94999657E+01
  0
LINE
  8
0
 62
7
 10
3.21999972E+02
 20
4.51000061E+01
 11
2.20000003E+02
 21
4.51000061E+01
  0
LINE
  8
0
 62
7
 10
2.18599955E+02
 20
1.25516159E+02
 11
2.18599955E+02
 21
7.54840393E+01
  0
LINE
  8
0
 62
7
 10
2.19599971E+02
 20
1.01750000E+02
 11
2.45097461E+02
 21
1.01750000E+02
  0
LINE
  8
0
 62
7
 10
2.51800189E+02
 20
8.30681104E+01
 11
2.36810532E+02
 21
6.80784500E+01
  0
LINE
  8
0
 62
7
 10
2.53568097E+02
 20
8.13002681E+01
 11
2.38578440E+02
 21
6.63106077E+01
  0
LINE
  8
0
 62
7
 10
2.19599971E+02
 20
9.92500000E+01
 11
2.45097461E+02
 21
9.92500000E+01
  0
LINE
  8
0
 62
7
 10
2.88432116E+02
 20
8.13003569E+01
 11
3.03421791E+02
 21
6.63106828E+01
  0
LINE
  8
0
 62
7
 10
2.90199845E+02
 20
8.30681617E+01
 11
3.05189526E+02
 21
6.80784822E+01
  0
LINE
  8
0
 62
7
 10
2.96015933E+02
 20
4.81000099E+01
 11
2.45983783E+02
 21
4.81000099E+01
  0
LINE
  8
0
 62
7
 10
2.72250018E+02
 20
4.90999680E+01
 11
2.72250018E+02
 21
7.45974579E+01
  0
LINE
  8
0
 62
7
 10
3.22399997E+02
 20
9.92500000E+01
 11
2.96902514E+02
 21
9.92500000E+01
  0
LINE
  8
0
 62
7
 10
2.15000003E+02
 20
1.51500000E+02
 11
2.15000003E+02
 21
4.95000038E+01
  0
LINE
  8
0
  6
CENTER
 62
2
 10
2.28999995E+02
 20
1.59392731E+02
 11
2.28999995E+02
 21
1.27642197E+02
  0
LINE
  8
0
 62
7
 10
3.21999972E+02
 20
4.45000038E+01
 11
2.20000003E+02
 21
4.45000038E+01
  0
LINE
  8
0
  6
CENTER
 62
2
 10
3.12999972E+02
 20
4.28217163E+01
 11
3.12999972E+02
 21
7.28636475E+01
  0
LINE
  8
0
  6
CENTER
 62
2
 10
3.29068545E+02
 20
5.84999924E+01
 11
2.97503817E+02
 21
5.84999924E+01
  0
LINE
  8
0
 62
7
 10
2.69750018E+02
 20
4.90999680E+01
 11
2.69750018E+02
 21
7.45974579E+01
  0
LINE
  8
0
 62
7
 10
2.26063388E+02
 20
7.49999847E+01
 11
2.26472072E+02
 21
7.49999847E+01
  0
LINE
  8
0
 62
7
 10
2.69750018E+02
 20
1.51900009E+02
 11
2.69750018E+02
 21
1.26402573E+02
  0
LINE
  8
0
 62
7
 10
2.53568088E+02
 20
1.19699875E+02
 11
2.38578418E+02
 21
1.34689539E+02
  0
LINE
  8
0
 62
7
 10
2.51800315E+02
 20
1.17932136E+02
 11
2.36810644E+02
 21
1.32921800E+02
  0
LINE
  8
0
 62
7
 10
2.36000018E+02
 20
1.56500000E+02
 11
2.36000018E+02
 21
1.55900024E+02
  0
LINE
  8
0
 62
7
 10
3.06000003E+02
 20
4.51000061E+01
 11
3.06000003E+02
 21
4.45000038E+01
  0
LINE
  8
0
 62
7
 10
2.36000018E+02
 20
4.51000061E+01
 11
2.36000018E+02
 21
4.45000038E+01
  0
LINE
  8
0
 62
7
 10
3.21999972E+02
 20
1.55900024E+02
 11
2.20000003E+02
 21
1.55900024E+02
  0
LINE
  8
0
 62
7
 10
3.26399997E+02
 20
1.51500015E+02
 11
3.26399997E+02
 21
4.95000038E+01
  0
LINE
  8
0
 62
7
 10
2.90199789E+02
 20
1.17932020E+02
 11
3.05189449E+02
 21
1.32921678E+02
  0
LINE
  8
0
 62
7
 10
2.88432009E+02
 20
1.19699736E+02
 11
3.03421668E+02
 21
1.34689394E+02
  0
LINE
  8
0
 62
7
 10
2.96016131E+02
 20
1.52900009E+02
 11
2.45983996E+02
 21
1.52900009E+02
  0
LINE
  8
0
 62
7
 10
3.23400012E+02
 20
1.25515961E+02
 11
3.23400012E+02
 21
7.56844635E+01
  0
LINE
  8
0
 62
7
 10
3.22399997E+02
 20
1.01750000E+02
 11
2.96902514E+02
 21
1.01750000E+02
  0
LINE
  8
0
 62
7
 10
2.72250018E+02
 20
1.51900009E+02
 11
2.72250018E+02
 21
1.26402512E+02
  0
LINE
  8
0
 62
7
 10
3.21999972E+02
 20
1.56500000E+02
 11
2.20000003E+02
 21
1.56500000E+02
  0
LINE
  8
0
 62
7
 10
3.26999972E+02
 20
1.51500000E+02
 11
3.26999972E+02
 21
4.95000038E+01
  0
LINE
  8
0
  6
CENTER
 62
2
 10
3.28963870E+02
 20
1.42500000E+02
 11
2.97108966E+02
 21
1.42500000E+02
  0
LINE
  8
0
  6
CENTER
 62
2
 10
3.12999972E+02
 20
1.58980774E+02
 11
3.12999972E+02
 21
1.28073807E+02
  0
LINE
  8
0
 62
7
 10
3.06000003E+02
 20
1.56500000E+02
 11
3.06000003E+02
 21
1.55900024E+02
  0
LINE
  8
0
  6
CENTER
 62
2
 10
2.71000018E+02
 20
1.59166321E+02
 11
2.71000018E+02
 21
4.30072632E+01
  0
LINE
  8
0
  6
CENTER
 62
2
 10
2.43806201E+02
 20
5.84999924E+01
 11
2.12624308E+02
 21
5.84999924E+01
  0
LINE
  8
0
  6
CENTER
 62
2
 10
2.43806201E+02
 20
1.42500000E+02
 11
2.12716777E+02
 21
1.42500000E+02
  0
LINE
  8
0
  6
CENTER
 62
2
 10
2.28999995E+02
 20
4.29277000E+01
 11
2.28999995E+02
 21
7.34962006E+01
  0
LINE
  8
0
  6
CENTER
 62
2
 10
2.13139041E+02
 20
1.00500000E+02
 11
3.28904971E+02
 21
1.00500000E+02
  0
LINE
  8
0
 62
7
 10
3.12999973E+02
 20
1.48273504E+02
 11
3.07999977E+02
 21
1.45386755E+02
  0
LINE
  8
0
 62
7
 10
3.07999972E+02
 20
1.45386749E+02
 11
3.07999972E+02
 21
1.39613251E+02
  0
LINE
  8
0
 62
7
 10
3.12999977E+02
 20
1.36726494E+02
 11
3.07999974E+02
 21
1.39613247E+02
  0
LINE
  8
0
 62
7
 10
3.17999972E+02
 20
1.39613252E+02
 11
3.12999976E+02
 21
1.36726503E+02
  0
LINE
  8
0
 62
7
 10
3.17999972E+02
 20
1.45386749E+02
 11
3.17999972E+02
 21
1.39613251E+02
  0
LINE
  8
0
 62
7
 10
3.12999974E+02
 20
1.48273501E+02
 11
3.17999977E+02
 21
1.45386748E+02
  0
LINE
  8
0
 62
7
 10
2.28999985E+02
 20
1.48273505E+02
 11
2.23999988E+02
 21
1.45386756E+02
  0
LINE
  8
0
 62
7
 10
2.23999995E+02
 20
1.45386749E+02
 11
2.23999995E+02
 21
1.39613251E+02
  0
LINE
  8
0
 62
7
 10
2.28999994E+02
 20
1.36726503E+02
 11
2.23999994E+02
 21
1.39613254E+02
  0
LINE
  8
0
 62
7
 10
2.33999985E+02
 20
1.39613251E+02
 11
2.28999988E+02
 21
1.36726502E+02
  0
LINE
  8
0
 62
7
 10
2.33999988E+02
 20
1.45386749E+02
 11
2.33999988E+02
 21
1.39613251E+02
  0
LINE
  8
0
 62
7
 10
2.28999994E+02
 20
1.48273508E+02
 11
2.33999994E+02
 21
1.45386757E+02
  0
LINE
  8
0
 62
7
 10
2.28999991E+02
 20
6.42734961E+01
 11
2.23999995E+02
 21
6.13867469E+01
  0
LINE
  8
0
 62
7
 10
2.23999995E+02
 20
6.13867416E+01
 11
2.23999995E+02
 21
5.56132431E+01
  0
LINE
  8
0
 62
7
 10
2.28999993E+02
 20
5.27264886E+01
 11
2.23999990E+02
 21
5.56132417E+01
  0
LINE
  8
0
 62
7
 10
2.33999991E+02
 20
5.56132425E+01
 11
2.28999995E+02
 21
5.27264932E+01
  0
LINE
  8
0
 62
7
 10
2.33999988E+02
 20
6.13867416E+01
 11
2.33999988E+02
 21
5.56132431E+01
  0
LINE
  8
0
 62
7
 10
2.28999990E+02
 20
6.42734955E+01
 11
2.33999993E+02
 21
6.13867425E+01
  0
LINE
  8
0
 62
7
 10
3.12999979E+02
 20
6.42734971E+01
 11
3.07999969E+02
 21
6.13867402E+01
  0
LINE
  8
0
 62
7
 10
3.07999972E+02
 20
6.13867416E+01
 11
3.07999972E+02
 21
5.56132431E+01
  0
LINE
  8
0
 62
7
 10
3.12999973E+02
 20
5.27264900E+01
 11
3.07999977E+02
 21
5.56132392E+01
  0
LINE
  8
0
 62
7
 10
3.17999979E+02
 20
5.56132432E+01
 11
3.12999969E+02
 21
5.27264863E+01
  0
LINE
  8
0
 62
7
 10
3.17999972E+02
 20
6.13867416E+01
 11
3.17999972E+02
 21
5.56132431E+01
  0
LINE
  8
0
 62
7
 10
3.12999977E+02
 20
6.42734931E+01
 11
3.17999973E+02
 21
6.13867438E+01
  0
CIRCLE
  8
0
 62
7
 10
2.28999995E+02
 20
1.42500000E+02
 40
8.69999981E+00
  0
CIRCLE
  8
0
 62
7
 10
2.28999995E+02
 20
5.84999924E+01
 40
8.69999981E+00
  0
CIRCLE
  8
0
 62
7
 10
3.12999972E+02
 20
5.84999695E+01
 40
8.69999981E+00
  0
ARC
  8
0
 62
7
 10
2.36103473E+02
 20
1.32214539E+02
 40
1.00000000E+00
 50
4.50000423E+01
 51
1.24630380E+02
  0
ARC
  8
0
 62
7
 10
2.39285434E+02
 20
1.35396561E+02
 40
1.00000000E+00
 50
1.45369621E+02
 51
2.25000010E+02
  0
ARC
  8
0
 62
7
 10
2.51093142E+02
 20
1.17224892E+02
 40
1.00000000E+00
 50
3.19964774E+02
 51
4.50000423E+01
  0
ARC
  8
0
 62
7
 10
2.54275165E+02
 20
1.20406906E+02
 40
1.00000000E+00
 50
2.25000013E+02
 51
3.10035571E+02
  0
ARC
  8
0
 62
7
 10
2.68749957E+02
 20
1.51900009E+02
 40
1.00000000E+00
 50
3.59721781E-05
 51
9.00000162E+01
  0
ARC
  8
0
 62
7
 10
2.68749957E+02
 20
1.26402573E+02
 40
1.00000000E+00
 50
2.74964207E+02
 51
3.59721781E-05
  0
ARC
  8
0
 62
7
 10
2.45097461E+02
 20
1.02749992E+02
 40
1.00000000E+00
 50
2.70000045E+02
 51
3.55035851E+02
  0
ARC
  8
0
 62
7
 10
2.19599971E+02
 20
1.02749992E+02
 40
1.00000000E+00
 50
1.79999995E+02
 51
2.70000038E+02
  0
ARC
  8
0
 62
7
 10
2.39285434E+02
 20
6.56034927E+01
 40
1.00000000E+00
 50
1.35000041E+02
 51
2.14630376E+02
  0
ARC
  8
0
 62
7
 10
2.36103473E+02
 20
6.87854614E+01
 40
1.00000000E+00
 50
2.35369606E+02
 51
3.14999999E+02
  0
ARC
  8
0
 62
7
 10
2.54275058E+02
 20
8.05931168E+01
 40
1.00000000E+00
 50
4.99647701E+01
 51
1.35000041E+02
  0
ARC
  8
0
 62
7
 10
2.51093097E+02
 20
8.37751465E+01
 40
1.00000000E+00
 50
3.15000019E+02
 51
4.00355739E+01
  0
ARC
  8
0
 62
7
 10
2.19599971E+02
 20
9.82500000E+01
 40
1.00000000E+00
 50
9.00000300E+01
 51
1.80000019E+02
  0
ARC
  8
0
 62
7
 10
2.45097461E+02
 20
9.82500000E+01
 40
1.00000000E+00
 50
4.96420369E+00
 51
9.00000300E+01
  0
ARC
  8
0
 62
7
 10
2.68749957E+02
 20
7.45974579E+01
 40
1.00000000E+00
 50
4.96325564E-05
 51
8.50358549E+01
  0
ARC
  8
0
 62
7
 10
2.68749957E+02
 20
4.90999947E+01
 40
1.00000000E+00
 50
2.69999998E+02
 51
4.96325564E-05
  0
ARC
  8
0
 62
7
 10
3.05896457E+02
 20
6.87854462E+01
 40
1.00000000E+00
 50
2.25000027E+02
 51
3.04630351E+02
  0
ARC
  8
0
 62
7
 10
3.02714480E+02
 20
6.56034164E+01
 40
1.00000000E+00
 50
3.25369626E+02
 51
4.50000149E+01
  0
ARC
  8
0
 62
7
 10
2.90906833E+02
 20
8.37750854E+01
 40
1.00000000E+00
 50
1.39964769E+02
 51
2.25000037E+02
  0
ARC
  8
0
 62
7
 10
2.87724856E+02
 20
8.05930939E+01
 40
1.00000000E+00
 50
4.50000149E+01
 51
1.30035587E+02
  0
ARC
  8
0
 62
7
 10
2.73249972E+02
 20
4.90999947E+01
 40
1.00000000E+00
 50
1.80000022E+02
 51
2.70000011E+02
  0
ARC
  8
0
 62
7
 10
2.73249972E+02
 20
7.45974579E+01
 40
1.00000000E+00
 50
9.49641976E+01
 51
1.80000032E+02
  0
ARC
  8
0
 62
7
 10
2.96902514E+02
 20
9.82500000E+01
 40
1.00000000E+00
 50
9.00000437E+01
 51
1.75035851E+02
  0
ARC
  8
0
 62
7
 10
3.22399997E+02
 20
9.82500000E+01
 40
1.00000000E+00
 50
8.65142224E-06
 51
9.00000437E+01
  0
ARC
  8
0
 62
7
 10
2.20000003E+02
 20
1.51500000E+02
 40
4.40000010E+00
 50
9.00000162E+01
 51
1.80000005E+02
  0
ARC
  8
0
 62
7
 10
2.28999995E+02
 20
5.84999924E+01
 40
1.15000000E+01
 50
3.41325588E+02
 51
1.08675064E+02
  0
ARC
  8
0
 62
7
 10
3.12999972E+02
 20
5.84999924E+01
 40
1.15000000E+01
 50
7.22986043E+01
 51
1.98674999E+02
  0
ARC
  8
0
 62
7
 10
3.21999972E+02
 20
4.95000038E+01
 40
4.40000010E+00
 50
2.70000052E+02
 51
3.59721781E-05
  0
ARC
  8
0
 62
7
 10
2.20000003E+02
 20
4.94999657E+01
 40
4.40000010E+00
 50
1.79999995E+02
 51
2.70000038E+02
  0
ARC
  8
0
 62
7
 10
2.20000003E+02
 20
1.51500000E+02
 40
5.00000000E+00
 50
9.00000162E+01
 51
1.80000005E+02
  0
CIRCLE
  8
0
 62
7
 10
2.28999995E+02
 20
1.42500000E+02
 40
8.00000000E+00
  0
CIRCLE
  8
0
 62
2
 10
3.12999972E+02
 20
5.84999924E+01
 40
5.00000000E+00
  0
ARC
  8
0
 62
7
 10
3.21999972E+02
 20
4.95000038E+01
 40
5.00000000E+00
 50
2.70000052E+02
 51
3.59721781E-05
  0
CIRCLE
  8
0
 62
7
 10
3.12999972E+02
 20
5.84999695E+01
 40
8.00000000E+00
  0
CIRCLE
  8
0
 62
2
 10
3.12999972E+02
 20
1.42500000E+02
 40
5.00000000E+00
  0
ARC
  8
0
 62
7
 10
2.20000003E+02
 20
4.95000038E+01
 40
5.00000000E+00
 50
1.79999995E+02
 51
2.70000038E+02
  0
CIRCLE
  8
0
 62
7
 10
2.28999995E+02
 20
5.84999924E+01
 40
8.00000000E+00
  0
ARC
  8
0
 62
7
 10
2.19599971E+02
 20
1.25516159E+02
 40
1.00000000E+00
 50
8.54104432E+01
 51
1.80000005E+02
  0
ARC
  8
0
 62
7
 10
2.45983996E+02
 20
1.51900009E+02
 40
1.00000000E+00
 50
9.00000162E+01
 51
1.84587802E+02
  0
ARC
  8
0
 62
7
 10
3.21999865E+02
 20
7.04998627E+01
 40
4.19999981E+00
 50
8.55868260E+01
 51
1.81010245E+02
  0
ARC
  8
0
 62
7
 10
3.00999911E+02
 20
4.95000038E+01
 40
4.00000000E+00
 50
8.81873319E+01
 51
1.84588444E+02
  0
ARC
  8
0
 62
7
 10
2.40999865E+02
 20
4.95001183E+01
 40
4.00000000E+00
 50
3.55409848E+02
 51
9.18104672E+01
  0
ARC
  8
0
 62
7
 10
2.20000003E+02
 20
7.05000610E+01
 40
4.00000000E+00
 50
3.58186935E+02
 51
9.45886668E+01
  0
ARC
  8
0
 62
7
 10
3.22399997E+02
 20
7.56844635E+01
 40
1.00000000E+00
 50
2.65585872E+02
 51
1.86693353E-05
  0
ARC
  8
0
 62
7
 10
2.96015872E+02
 20
4.91000061E+01
 40
1.00000000E+00
 50
2.69999998E+02
 51
4.58865257E+00
  0
ARC
  8
0
 62
7
 10
2.45983844E+02
 20
4.90999680E+01
 40
1.00000000E+00
 50
1.75409449E+02
 51
2.69999974E+02
  0
ARC
  8
0
 62
7
 10
2.19599971E+02
 20
7.54840393E+01
 40
1.00000000E+00
 50
1.79999995E+02
 51
2.74587815E+02
  0
ARC
  8
0
 62
7
 10
2.40841830E+02
 20
1.46502518E+02
 40
1.00000000E+00
 50
8.81864507E+01
 51
1.98675204E+02
  0
ARC
  8
0
 62
7
 10
2.24997615E+02
 20
1.30658096E+02
 40
1.00000000E+00
 50
7.13256097E+01
 51
1.81810060E+02
  0
ARC
  8
0
 62
7
 10
3.16800631E+02
 20
7.04081802E+01
 40
1.00000000E+00
 50
2.52299371E+02
 51
1.01068540E+00
  0
ARC
  8
0
 62
7
 10
3.01158084E+02
 20
5.44974976E+01
 40
1.00000000E+00
 50
2.68186500E+02
 51
1.86751801E+01
  0
ARC
  8
0
 62
7
 10
2.40841937E+02
 20
5.44976120E+01
 40
1.00000000E+00
 50
1.61325626E+02
 51
2.71810056E+02
  0
ARC
  8
0
 62
7
 10
2.24997508E+02
 20
7.03418579E+01
 40
1.00000000E+00
 50
1.78187368E+02
 51
2.88674667E+02
  0
ARC
  8
0
 62
7
 10
2.28999995E+02
 20
1.42500000E+02
 40
1.15000000E+01
 50
2.51325577E+02
 51
1.86749751E+01
  0
ARC
  8
0
 62
7
 10
2.41000064E+02
 20
1.51500000E+02
 40
4.00000000E+00
 50
2.68187375E+02
 51
4.58865257E+00
  0
ARC
  8
0
 62
7
 10
2.20000102E+02
 20
1.30500107E+02
 40
4.00000000E+00
 50
2.65409591E+02
 51
1.81044602E+00
  0
CIRCLE
  8
0
 62
7
 10
3.12999972E+02
 20
1.42499985E+02
 40
8.69999981E+00
  0
ARC
  8
0
 62
7
 10
3.02714480E+02
 20
1.35396500E+02
 40
1.00000000E+00
 50
3.15000047E+02
 51
3.46303671E+01
  0
ARC
  8
0
 62
7
 10
3.05896548E+02
 20
1.32214508E+02
 40
1.00000000E+00
 50
5.53696217E+01
 51
1.35000014E+02
  0
ARC
  8
0
 62
7
 10
3.22399997E+02
 20
1.02749969E+02
 40
1.00000000E+00
 50
2.70000052E+02
 51
3.59721781E-05
  0
ARC
  8
0
 62
7
 10
2.73249972E+02
 20
1.51900009E+02
 40
1.00000000E+00
 50
9.00000025E+01
 51
1.80000046E+02
  0
ARC
  8
0
 62
7
 10
2.96902514E+02
 20
1.02749992E+02
 40
1.00000000E+00
 50
1.84964190E+02
 51
2.70000038E+02
  0
ARC
  8
0
 62
7
 10
2.90906924E+02
 20
1.17224861E+02
 40
1.00000000E+00
 50
1.35000014E+02
 51
2.20035582E+02
  0
ARC
  8
0
 62
7
 10
2.87724856E+02
 20
1.20406876E+02
 40
1.00000000E+00
 50
2.29964741E+02
 51
3.15000026E+02
  0
ARC
  8
0
 62
7
 10
2.73249972E+02
 20
1.26402512E+02
 40
1.00000000E+00
 50
1.80000036E+02
 51
2.65035857E+02
  0
ARC
  8
0
 62
7
 10
3.12999972E+02
 20
1.42500000E+02
 40
1.15000000E+01
 50
1.61325558E+02
 51
2.88675076E+02
  0
ARC
  8
0
 62
7
 10
3.21999972E+02
 20
1.51500015E+02
 40
4.40000010E+00
 50
3.59721781E-05
 51
9.00000162E+01
  0
ARC
  8
0
 62
7
 10
3.21999972E+02
 20
1.51500000E+02
 40
5.00000000E+00
 50
3.59721781E-05
 51
9.00000162E+01
  0
CIRCLE
  8
0
 62
7
 10
3.12999972E+02
 20
1.42499985E+02
 40
8.00000000E+00
  0
ARC
  8
0
 62
7
 10
3.21999972E+02
 20
1.30499939E+02
 40
4.00000000E+00
 50
1.78186904E+02
 51
2.74588685E+02
  0
ARC
  8
0
 62
7
 10
3.01000110E+02
 20
1.51499863E+02
 40
4.00000000E+00
 50
1.75409585E+02
 51
2.71810493E+02
  0
ARC
  8
0
 62
7
 10
3.22399997E+02
 20
1.25515961E+02
 40
1.00000000E+00
 50
3.59721781E-05
 51
9.45895342E+01
  0
ARC
  8
0
 62
7
 10
2.96016177E+02
 20
1.51900024E+02
 40
1.00000000E+00
 50
3.55410354E+02
 51
9.00000162E+01
  0
ARC
  8
0
 62
7
 10
3.17002459E+02
 20
1.30658142E+02
 40
1.00000000E+00
 50
3.58187399E+02
 51
1.08674648E+02
  0
ARC
  8
0
 62
7
 10
3.01158084E+02
 20
1.46502380E+02
 40
1.00000000E+00
 50
3.41325670E+02
 51
9.18100369E+01
  0
CIRCLE
  8
0
 62
7
 10
2.70999911E+02
 20
1.00500061E+02
 40
2.50000153E+01
  0
CIRCLE
  8
0
 62
2
 10
2.28999995E+02
 20
1.42500000E+02
 40
5.00000000E+00
  0
CIRCLE
  8
0
 62
2
 10
2.28999995E+02
 20
5.84999924E+01
 40
5.00000000E+00
  0
CIRCLE
  8
0
 62
7
 10
3.12999972E+02
 20
5.84999924E+01
 40
4.17999983E+00
  0
CIRCLE
  8
0
 62
7
 10
3.12999972E+02
 20
1.42500000E+02
 40
4.17999983E+00
  0
CIRCLE
  8
0
 62
7
 10
2.28999995E+02
 20
1.42500000E+02
 40
4.17999983E+00
  0
CIRCLE
  8
0
 62
7
 10
2.28999995E+02
 20
5.84999924E+01
 40
4.17999983E+00
  0
LINE
  8
0
 62
4
 10
2.44796649E+02
 20
1.56500000E+02
 11
2.42946584E+02
 21
1.60559597E+02
  0
LINE
  8
0
 62
4
 10
2.44379049E+02
 20
1.56500000E+02
 11
2.41004230E+02
 21
1.63905365E+02
  0
ARC
  8
0
 62
4
 10
2.36208370E+02
 20
1.52919679E+02
 40
1.18100000E+01
 50
1.76475088E+01
 51
2.45000000E+01
  0
LINE
  8
0
  6
CENTER
 62
6
 10
2.39077849E+02
 20
1.54235880E+02
 11
2.48306647E+02
 21
1.58441685E+02
  0
LINE
  8
0
  6
CENTER
 62
6
 10
2.37626423E+02
 20
1.57420744E+02
 11
2.46855221E+02
 21
1.61626550E+02
  0
LINE
  8
0
 62
4
 10
2.41004230E+02
 20
1.63905365E+02
 11
2.31631629E+02
 21
1.59634024E+02
  0
LINE
  8
0
 62
4
 10
2.41294515E+02
 20
1.63268392E+02
 11
2.42204476E+02
 21
1.63683085E+02
  0
ARC
  8
0
 62
4
 10
2.45804561E+02
 20
1.58510261E+02
 40
1.00000000E+00
 50
3.43223662E+02
 51
1.16724900E+01
  0
ARC
  8
0
 62
4
 10
2.43814033E+02
 20
1.62878076E+02
 40
1.00000000E+00
 50
3.73275101E+01
 51
1.14500000E+02
  0
ARC
  8
0
 62
4
 10
2.35218111E+02
 20
1.56323213E+02
 40
1.18100000E+01
 50
1.16724900E+01
 51
3.73275101E+01
  0
LINE
  8
0
 62
4
 10
2.42370354E+02
 20
1.63319100E+02
 11
2.43398610E+02
 21
1.63787704E+02
  0
LINE
  8
0
 62
4
 10
2.43510760E+02
 20
1.60816707E+02
 11
2.42204476E+02
 21
1.63683085E+02
  0
LINE
  8
0
 62
4
 10
2.42663003E+02
 20
1.60265520E+02
 11
2.43008788E+02
 21
1.60423103E+02
  0
LINE
  8
0
 62
4
 10
2.42946584E+02
 20
1.60559597E+02
 11
2.44548116E+02
 21
1.61289457E+02
  0
ARC
  8
0
 62
4
 10
2.36201952E+02
 20
1.52933762E+02
 40
1.18100000E+01
 50
2.45000000E+01
 51
4.50326991E+01
  0
LINE
  8
0
 62
4
 10
2.33059886E+02
 20
1.56500000E+02
 11
2.31631629E+02
 21
1.59634024E+02
  0
LINE
  8
0
 62
4
 10
2.25261900E+02
 20
1.56731172E+02
 11
2.31631629E+02
 21
1.59634024E+02
  0
LINE
  8
0
  6
CENTER
 62
6
 10
3.02922187E+02
 20
1.54235880E+02
 11
2.93693389E+02
 21
1.58441685E+02
  0
LINE
  8
0
  6
CENTER
 62
6
 10
3.04373613E+02
 20
1.57420744E+02
 11
2.95144815E+02
 21
1.61626550E+02
  0
LINE
  8
0
 62
4
 10
2.97621048E+02
 20
1.56500000E+02
 11
3.00995867E+02
 21
1.63905365E+02
  0
ARC
  8
0
 62
4
 10
3.05791727E+02
 20
1.52919679E+02
 40
1.18100000E+01
 50
1.55500000E+02
 51
1.62352491E+02
  0
LINE
  8
0
 62
4
 10
2.96643952E+02
 20
1.56767379E+02
 11
2.99795621E+02
 21
1.63683085E+02
  0
LINE
  8
0
 62
4
 10
3.00995867E+02
 20
1.63905365E+02
 11
3.10368468E+02
 21
1.59634024E+02
  0
LINE
  8
0
 62
4
 10
3.00705582E+02
 20
1.63268392E+02
 11
2.99795621E+02
 21
1.63683085E+02
  0
ARC
  8
0
 62
4
 10
2.96195536E+02
 20
1.58510261E+02
 40
1.00000000E+00
 50
1.68327510E+02
 51
2.45500000E+02
  0
ARC
  8
0
 62
4
 10
2.98186064E+02
 20
1.62878076E+02
 40
1.00000000E+00
 50
6.55000000E+01
 51
1.42672490E+02
  0
LINE
  8
0
 62
4
 10
2.96809830E+02
 20
1.57131364E+02
 11
2.95781573E+02
 21
1.57599967E+02
  0
LINE
  8
0
 62
4
 10
2.99629744E+02
 20
1.63319100E+02
 11
2.98601487E+02
 21
1.63787704E+02
  0
ARC
  8
0
 62
4
 10
3.06781986E+02
 20
1.56323213E+02
 40
1.18100000E+01
 50
1.42672490E+02
 51
1.68327510E+02
  0
ARC
  8
0
 62
4
 10
3.05798145E+02
 20
1.52933762E+02
 40
1.18100000E+01
 50
1.53400933E+02
 51
1.55500000E+02
  0
LINE
  8
0
 62
4
 10
2.97230663E+02
 20
1.56500000E+02
 11
2.96643952E+02
 21
1.56767379E+02
  0
LINE
  8
0
 62
4
 10
3.16738197E+02
 20
1.56731172E+02
 11
3.10368468E+02
 21
1.59634024E+02
  0
LINE
  8
0
 62
4
 10
3.08940211E+02
 20
1.56500000E+02
 11
3.10368468E+02
 21
1.59634024E+02
  0
LINE
  8
0
 62
4
 10
3.16848461E+02
 20
1.56500000E+02
 11
3.16738197E+02
 21
1.56731172E+02
  0
LINE
  8
0
 62
4
 10
2.25151637E+02
 20
1.56500000E+02
 11
2.25261900E+02
 21
1.56731172E+02
  0
LINE
  8
0
  6
PHANTOM
 10
-2.45000000E+01
 20
1.94632131E+02
 11
-2.45000000E+01
 21
3.53816712E+02
  0
LINE
  8
0
  6
CENTER
 62
2
 10
-2.02798322E+02
 20
2.80500000E+02
 11
7.18777760E+01
 21
2.80500000E+02
  0
LINE
  8
0
  6
CENTER
 62
2
 10
3.49999665E+01
 20
2.70047729E+02
 11
3.49999665E+01
 21
2.55434341E+02
  0
LINE
  8
0
  6
CENTER
 62
2
 10
2.68053994E+01
 20
2.62500000E+02
 11
4.30744084E+01
 21
2.62500000E+02
  0
LINE
  8
0
 62
7
 10
3.67321313E+01
 20
2.62499855E+02
 11
3.58661074E+01
 21
2.63999862E+02
  0
LINE
  8
0
 62
7
 10
3.58660044E+01
 20
2.63999985E+02
 11
3.41339158E+01
 21
2.63999985E+02
  0
LINE
  8
0
 62
7
 10
3.32682660E+01
 20
2.62499771E+02
 11
3.41342747E+01
 21
2.63999751E+02
  0
LINE
  8
0
 62
7
 10
3.41339581E+01
 20
2.60999932E+02
 11
3.32678885E+01
 21
2.62500017E+02
  0
LINE
  8
0
 62
7
 10
3.58660044E+01
 20
2.60999954E+02
 11
3.41339158E+01
 21
2.60999954E+02
  0
LINE
  8
0
 62
7
 10
3.67322719E+01
 20
2.62499859E+02
 11
3.58662404E+01
 21
2.60999839E+02
  0
LINE
  8
0
  6
CENTER
 62
2
 10
-8.99999667E+01
 20
2.70047729E+02
 11
-8.99999667E+01
 21
2.55434341E+02
  0
LINE
  8
0
  6
CENTER
 62
2
 10
-9.81945468E+01
 20
2.62499969E+02
 11
-8.19255496E+01
 21
2.62499969E+02
  0
LINE
  8
0
 62
7
 10
-8.82678698E+01
 20
2.62499886E+02
 11
-8.91338937E+01
 21
2.63999892E+02
  0
LINE
  8
0
 62
7
 10
-8.91339541E+01
 20
2.63999954E+02
 11
-9.08660251E+01
 21
2.63999954E+02
  0
LINE
  8
0
 62
7
 10
-9.17317460E+01
 20
2.62499729E+02
 11
-9.08657373E+01
 21
2.63999709E+02
  0
LINE
  8
0
 62
7
 10
-9.08658990E+01
 20
2.60999957E+02
 11
-9.17319687E+01
 21
2.62500043E+02
  0
LINE
  8
0
 62
7
 10
-8.91339541E+01
 20
2.60999954E+02
 11
-9.08660251E+01
 21
2.60999954E+02
  0
LINE
  8
0
 62
7
 10
-8.82677096E+01
 20
2.62499869E+02
 11
-8.91337564E+01
 21
2.60999823E+02
  0
LINE
  8
0
  6
CENTER
 62
2
 10
6.67792043E+01
 20
2.38499985E+02
 11
-1.21524472E+02
 21
2.38499985E+02
  0
LINE
  8
0
 62
7
 10
2.79999972E+01
 20
2.43000000E+02
 11
1.99999972E+01
 21
2.43000000E+02
  0
LINE
  8
0
 62
7
 10
2.79999972E+01
 20
2.33999954E+02
 11
4.99999724E+00
 21
2.33999954E+02
  0
LINE
  8
0
 62
7
 10
-1.14999967E+02
 20
3.13500061E+02
 11
-1.14999967E+02
 21
2.47500046E+02
  0
LINE
  8
0
  6
CENTER
 62
2
 10
-8.52976352E+01
 20
2.92499969E+02
 11
-1.13094907E+02
 21
2.92499969E+02
  0
LINE
  8
0
 62
7
 10
-1.20499936E+02
 20
3.05499939E+02
 11
-1.18999921E+02
 21
3.05499939E+02
  0
LINE
  8
0
 62
7
 10
-1.18999982E+02
 20
2.25619736E+02
 11
-1.18999982E+02
 21
3.35380280E+02
  0
LINE
  8
0
 62
7
 10
-1.39999967E+02
 20
2.58000046E+02
 11
-1.39999967E+02
 21
3.03000061E+02
  0
LINE
  8
0
 62
7
 10
-1.18508646E+02
 20
3.35880469E+02
 11
-8.29999092E+01
 21
3.36500276E+02
  0
LINE
  8
0
 62
7
 10
-1.39499936E+02
 20
3.03499969E+02
 11
-1.34999936E+02
 21
3.03499969E+02
  0
LINE
  8
0
 62
7
 10
-1.34517421E+02
 20
3.04528208E+02
 11
-1.20999965E+02
 21
3.05000248E+02
  0
LINE
  8
0
 62
7
 10
-1.20499936E+02
 20
2.55499954E+02
 11
-1.18999921E+02
 21
2.55499954E+02
  0
LINE
  8
0
 62
7
 10
-1.18508635E+02
 20
2.25119979E+02
 11
-8.29999293E+01
 21
2.24500172E+02
  0
LINE
  8
0
 62
7
 10
-1.39499936E+02
 20
2.57499969E+02
 11
-1.34999936E+02
 21
2.57499969E+02
  0
LINE
  8
0
 62
7
 10
-1.34517399E+02
 20
2.56472358E+02
 11
-1.20999942E+02
 21
2.56000318E+02
  0
LINE
  8
0
 62
7
 10
-8.29999972E+01
 20
3.36500183E+02
 11
-8.29999972E+01
 21
2.24499985E+02
  0
LINE
  8
0
  6
CENTER
 62
2
 10
-9.89999820E+01
 20
2.78394165E+02
 11
-9.89999820E+01
 21
3.06323273E+02
  0
LINE
  8
0
 62
7
 10
-1.12999936E+02
 20
2.45499954E+02
 11
-8.29999515E+01
 21
2.45499954E+02
  0
LINE
  8
0
 62
7
 10
-1.12999936E+02
 20
3.15499939E+02
 11
-8.29999515E+01
 21
3.15499939E+02
  0
LINE
  8
0
 62
7
 10
-1.20999967E+02
 20
2.56000107E+02
 11
-1.20999967E+02
 21
3.05000031E+02
  0
LINE
  8
0
 62
7
 10
5.99999532E+01
 20
2.47499893E+02
 11
5.99999532E+01
 21
3.13499908E+02
  0
LINE
  8
0
  6
CENTER
 62
2
 10
3.02976655E+01
 20
2.92500000E+02
 11
5.80949124E+01
 21
2.92500000E+02
  0
LINE
  8
0
 62
7
 10
6.54999379E+01
 20
2.55500000E+02
 11
6.39999379E+01
 21
2.55500000E+02
  0
LINE
  8
0
 62
7
 10
6.39999684E+01
 20
3.35380219E+02
 11
6.39999684E+01
 21
2.25619629E+02
  0
LINE
  8
0
 62
7
 10
6.35086504E+01
 20
2.25119589E+02
 11
2.79999552E+01
 21
2.24499777E+02
  0
LINE
  8
0
 62
7
 10
6.54999379E+01
 20
3.05500000E+02
 11
6.39999379E+01
 21
3.05500000E+02
  0
LINE
  8
0
 62
7
 10
6.35087037E+01
 20
3.35880151E+02
 11
2.79999815E+01
 21
3.36499952E+02
  0
LINE
  8
0
 62
7
 10
2.79999972E+01
 20
2.24499756E+02
 11
2.79999972E+01
 21
3.36499969E+02
  0
LINE
  8
0
  6
CENTER
 62
2
 10
4.39999684E+01
 20
2.78394135E+02
 11
4.39999684E+01
 21
3.06323273E+02
  0
LINE
  8
0
 62
7
 10
5.79999379E+01
 20
3.15500000E+02
 11
2.79999337E+01
 21
3.15500000E+02
  0
LINE
  8
0
 62
7
 10
5.79999379E+01
 20
2.45500000E+02
 11
2.79999337E+01
 21
2.45500000E+02
  0
LINE
  8
0
 62
7
 10
6.59999608E+01
 20
3.04999847E+02
 11
6.59999608E+01
 21
2.55999908E+02
  0
LINE
  8
0
 62
7
 10
-8.29999972E+01
 20
2.26999985E+02
 11
-8.07351778E+00
 21
2.26999985E+02
  0
LINE
  8
0
  6
CENTER
 62
2
 10
6.67792043E+01
 20
3.22500031E+02
 11
-1.21524472E+02
 21
3.22500031E+02
  0
LINE
  8
0
 62
7
 10
2.79999972E+01
 20
3.18000000E+02
 11
-3.89999972E+01
 21
3.18000000E+02
  0
LINE
  8
0
 62
7
 10
2.79999972E+01
 20
3.27000031E+02
 11
-3.89999972E+01
 21
3.27000031E+02
  0
LINE
  8
0
 62
7
 10
-8.29999972E+01
 20
3.34000000E+02
 11
-5.20735699E+01
 21
3.34000000E+02
  0
LINE
  8
0
 62
7
 10
-1.47738340E+02
 20
2.73860474E+02
 11
-1.39999967E+02
 21
2.73860474E+02
  0
LINE
  8
0
 62
7
 10
-1.47738340E+02
 20
2.67220963E+02
 11
-1.39999967E+02
 21
2.67220963E+02
  0
LINE
  8
0
 62
7
 10
-1.47738294E+02
 20
2.93779022E+02
 11
-1.39999967E+02
 21
2.93779022E+02
  0
LINE
  8
0
 62
7
 10
-1.53999967E+02
 20
2.69500000E+02
 11
-1.53999967E+02
 21
2.91500000E+02
  0
LINE
  8
0
 62
7
 10
-1.93999997E+02
 20
2.71000122E+02
 11
-1.93999997E+02
 21
2.89999939E+02
  0
LINE
  8
0
 62
7
 10
-1.56999967E+02
 20
2.69500000E+02
 11
-1.56999967E+02
 21
2.91500031E+02
  0
LINE
  8
0
 62
7
 10
-1.92500028E+02
 20
2.91500031E+02
 11
-1.82499997E+02
 21
2.91500031E+02
  0
LINE
  8
0
 62
7
 10
-1.92499997E+02
 20
2.69500000E+02
 11
-1.92499997E+02
 21
2.91500031E+02
  0
LINE
  8
0
 62
7
 10
-1.93999973E+02
 20
2.89999920E+02
 11
-1.92499939E+02
 21
2.91499954E+02
  0
LINE
  8
0
 62
2
 10
-1.93320020E+02
 20
2.90680023E+02
 11
-1.82499997E+02
 21
2.90680023E+02
  0
LINE
  8
0
 62
7
 10
-1.92500028E+02
 20
2.69500000E+02
 11
-1.82499997E+02
 21
2.69500000E+02
  0
LINE
  8
0
 62
7
 10
-1.93999986E+02
 20
2.71000081E+02
 11
-1.92499974E+02
 21
2.69500069E+02
  0
LINE
  8
0
 62
2
 10
-1.93320020E+02
 20
2.70320007E+02
 11
-1.82499997E+02
 21
2.70320007E+02
  0
LINE
  8
0
 62
7
 10
-1.47738340E+02
 20
2.87139526E+02
 11
-1.39999967E+02
 21
2.87139526E+02
  0
LINE
  8
0
 62
7
 10
-1.53999970E+02
 20
2.91499979E+02
 11
-1.47738338E+02
 21
2.93779027E+02
  0
LINE
  8
0
 62
7
 10
-1.53999943E+02
 20
2.69499997E+02
 11
-1.47738318E+02
 21
2.67220952E+02
  0
LINE
  8
0
 62
7
 10
-1.56999967E+02
 20
2.90680023E+02
 11
-1.53999967E+02
 21
2.90680023E+02
  0
LINE
  8
0
 62
7
 10
-1.56999967E+02
 20
2.70320007E+02
 11
-1.53999967E+02
 21
2.70320007E+02
  0
CIRCLE
  8
0
 62
7
 10
3.49999665E+01
 20
2.62500000E+02
 40
5.00000000E+00
  0
CIRCLE
  8
0
 62
7
 10
-8.99999667E+01
 20
2.62499969E+02
 40
5.00000000E+00
  0
ARC
  8
0
 62
7
 10
-1.18499951E+02
 20
3.35380310E+02
 40
5.00000000E-01
 50
9.10002493E+01
 51
1.79999951E+02
  0
ARC
  8
0
 62
7
 10
-1.39499951E+02
 20
3.03000061E+02
 40
5.00000000E-01
 50
8.99999818E+01
 51
1.79999951E+02
  0
ARC
  8
0
 62
7
 10
-1.34499951E+02
 20
3.04028320E+02
 40
5.00000000E-01
 50
9.20007356E+01
 51
1.79999951E+02
  0
ARC
  8
0
 62
7
 10
-1.20499936E+02
 20
3.05000061E+02
 40
5.00000000E-01
 50
8.99999818E+01
 51
1.79999951E+02
  0
ARC
  8
0
 62
7
 10
-1.34499951E+02
 20
2.56971817E+02
 40
5.00000000E-01
 50
1.79999977E+02
 51
2.67999192E+02
  0
ARC
  8
0
 62
7
 10
-1.20499936E+02
 20
2.56000061E+02
 40
5.00000000E-01
 50
1.79999977E+02
 51
2.69999974E+02
  0
ARC
  8
0
 62
7
 10
-1.39499951E+02
 20
2.58000046E+02
 40
5.00000000E-01
 50
1.79999977E+02
 51
2.69999974E+02
  0
ARC
  8
0
 62
7
 10
-1.18499951E+02
 20
2.25619736E+02
 40
5.00000000E-01
 50
1.79999977E+02
 51
2.68999679E+02
  0
CIRCLE
  8
0
 62
7
 10
-9.89999515E+01
 20
2.92500061E+02
 40
9.25000000E+00
  0
ARC
  8
0
 62
7
 10
-1.12999936E+02
 20
3.13500061E+02
 40
2.00000000E+00
 50
8.99999818E+01
 51
1.79999951E+02
  0
ARC
  8
0
 62
7
 10
-1.12999936E+02
 20
2.47500076E+02
 40
2.00000000E+00
 50
1.79999977E+02
 51
2.70000028E+02
  0
CIRCLE
  8
0
 62
7
 10
-9.89999515E+01
 20
2.92500000E+02
 40
1.10000000E+01
  0
CIRCLE
  8
0
 62
2
 10
-9.89999820E+01
 20
2.92500000E+02
 40
1.04775000E+01
  0
ARC
  8
0
 62
7
 10
6.34999646E+01
 20
2.25619675E+02
 40
5.00000000E-01
 50
2.71000258E+02
 51
3.59999959E+02
  0
ARC
  8
0
 62
7
 10
6.54999570E+01
 20
2.55999924E+02
 40
5.00000000E-01
 50
2.69999991E+02
 51
3.59999959E+02
  0
ARC
  8
0
 62
7
 10
6.54999570E+01
 20
3.04999908E+02
 40
5.00000000E-01
 50
3.59999986E+02
 51
8.99999549E+01
  0
ARC
  8
0
 62
7
 10
6.34999646E+01
 20
3.35380280E+02
 40
5.00000000E-01
 50
3.59999986E+02
 51
8.89996737E+01
  0
CIRCLE
  8
0
 62
7
 10
4.39999436E+01
 20
2.92500061E+02
 40
9.25000000E+00
  0
ARC
  8
0
 62
7
 10
5.79999570E+01
 20
2.47499924E+02
 40
2.00000000E+00
 50
2.69999991E+02
 51
3.59999959E+02
  0
ARC
  8
0
 62
7
 10
5.79999570E+01
 20
3.13499939E+02
 40
2.00000000E+00
 50
3.59999986E+02
 51
9.00000094E+01
  0
CIRCLE
  8
0
 62
7
 10
4.39999436E+01
 20
2.92500000E+02
 40
1.10000000E+01
  0
CIRCLE
  8
0
 62
2
 10
4.39999942E+01
 20
2.92500000E+02
 40
1.04775000E+01
  0
CIRCLE
  8
0
 62
7
 10
-8.99999667E+01
 20
2.62499969E+02
 40
2.59999990E+00
  0
CIRCLE
  8
0
 62
7
 10
3.49999665E+01
 20
2.62500000E+02
 40
2.59999990E+00
  0
POLYLINE
  8
0
 62
7
 66
1
  0
VERTEX
  8
0
 62
7
 10
-1.50306787E+02
 20
2.92821084E+02
  0
VERTEX
  8
0
 62
7
 10
-1.50667245E+02
 20
2.92666909E+02
  0
VERTEX
  8
0
 62
7
 10
-1.51004387E+02
 20
2.92493169E+02
  0
VERTEX
  8
0
 62
7
 10
-1.51315528E+02
 20
2.92301248E+02
  0
VERTEX
  8
0
 62
7
 10
-1.51598193E+02
 20
2.92092674E+02
  0
VERTEX
  8
0
 62
7
 10
-1.51850131E+02
 20
2.91869106E+02
  0
VERTEX
  8
0
 62
7
 10
-1.52069335E+02
 20
2.91632325E+02
  0
VERTEX
  8
0
 62
7
 10
-1.52254062E+02
 20
2.91384215E+02
  0
VERTEX
  8
0
 62
7
 10
-1.52402840E+02
 20
2.91126752E+02
  0
VERTEX
  8
0
 62
7
 10
-1.52514485E+02
 20
2.90861986E+02
  0
VERTEX
  8
0
 62
7
 10
-1.52588109E+02
 20
2.90592024E+02
  0
VERTEX
  8
0
 62
7
 10
-1.52623125E+02
 20
2.90319014E+02
  0
VERTEX
  8
0
 62
7
 10
-1.52619254E+02
 20
2.90045132E+02
  0
VERTEX
  8
0
 62
7
 10
-1.52576528E+02
 20
2.89772556E+02
  0
VERTEX
  8
0
 62
7
 10
-1.52495287E+02
 20
2.89503456E+02
  0
VERTEX
  8
0
 62
7
 10
-1.52376176E+02
 20
2.89239976E+02
  0
VERTEX
  8
0
 62
7
 10
-1.52220145E+02
 20
2.88984212E+02
  0
VERTEX
  8
0
 62
7
 10
-1.52028435E+02
 20
2.88738201E+02
  0
VERTEX
  8
0
 62
7
 10
-1.51802574E+02
 20
2.88503901E+02
  0
VERTEX
  8
0
 62
7
 10
-1.51544357E+02
 20
2.88283177E+02
  0
VERTEX
  8
0
 62
7
 10
-1.51255843E+02
 20
2.88077786E+02
  0
VERTEX
  8
0
 62
7
 10
-1.50939326E+02
 20
2.87889364E+02
  0
VERTEX
  8
0
 62
7
 10
-1.50597327E+02
 20
2.87719410E+02
  0
VERTEX
  8
0
 62
7
 10
-1.50232568E+02
 20
2.87569277E+02
  0
VERTEX
  8
0
 62
7
 10
-1.49847954E+02
 20
2.87440160E+02
  0
VERTEX
  8
0
 62
7
 10
-1.49446546E+02
 20
2.87333088E+02
  0
VERTEX
  8
0
 62
7
 10
-1.49031539E+02
 20
2.87248913E+02
  0
VERTEX
  8
0
 62
7
 10
-1.48606237E+02
 20
2.87188305E+02
  0
VERTEX
  8
0
 62
7
 10
-1.48174026E+02
 20
2.87151746E+02
  0
VERTEX
  8
0
 62
7
 10
-1.47738347E+02
 20
2.87139527E+02
  0
SEQEND
  8
0
  0
POLYLINE
  8
0
 62
7
 66
1
  0
VERTEX
  8
0
 62
7
 10
-1.47738347E+02
 20
2.73860466E+02
  0
VERTEX
  8
0
 62
7
 10
-1.48174026E+02
 20
2.73848247E+02
  0
VERTEX
  8
0
 62
7
 10
-1.48606237E+02
 20
2.73811688E+02
  0
VERTEX
  8
0
 62
7
 10
-1.49031539E+02
 20
2.73751079E+02
  0
VERTEX
  8
0
 62
7
 10
-1.49446546E+02
 20
2.73666904E+02
  0
VERTEX
  8
0
 62
7
 10
-1.49847954E+02
 20
2.73559833E+02
  0
VERTEX
  8
0
 62
7
 10
-1.50232568E+02
 20
2.73430717E+02
  0
VERTEX
  8
0
 62
7
 10
-1.50597327E+02
 20
2.73280584E+02
  0
VERTEX
  8
0
 62
7
 10
-1.50939326E+02
 20
2.73110631E+02
  0
VERTEX
  8
0
 62
7
 10
-1.51255843E+02
 20
2.72922209E+02
  0
VERTEX
  8
0
 62
7
 10
-1.51544357E+02
 20
2.72716818E+02
  0
VERTEX
  8
0
 62
7
 10
-1.51802574E+02
 20
2.72496095E+02
  0
VERTEX
  8
0
 62
7
 10
-1.52028435E+02
 20
2.72261795E+02
  0
VERTEX
  8
0
 62
7
 10
-1.52220145E+02
 20
2.72015784E+02
  0
VERTEX
  8
0
 62
7
 10
-1.52376176E+02
 20
2.71760021E+02
  0
VERTEX
  8
0
 62
7
 10
-1.52495287E+02
 20
2.71496542E+02
  0
VERTEX
  8
0
 62
7
 10
-1.52576528E+02
 20
2.71227443E+02
  0
VERTEX
  8
0
 62
7
 10
-1.52619254E+02
 20
2.70954868E+02
  0
VERTEX
  8
0
 62
7
 10
-1.52623125E+02
 20
2.70680986E+02
  0
VERTEX
  8
0
 62
7
 10
-1.52588109E+02
 20
2.70407977E+02
  0
VERTEX
  8
0
 62
7
 10
-1.52514485E+02
 20
2.70138016E+02
  0
VERTEX
  8
0
 62
7
 10
-1.52402840E+02
 20
2.69873250E+02
  0
VERTEX
  8
0
 62
7
 10
-1.52254062E+02
 20
2.69615788E+02
  0
VERTEX
  8
0
 62
7
 10
-1.52069335E+02
 20
2.69367679E+02
  0
VERTEX
  8
0
 62
7
 10
-1.51850131E+02
 20
2.69130898E+02
  0
VERTEX
  8
0
 62
7
 10
-1.51598193E+02
 20
2.68907331E+02
  0
VERTEX
  8
0
 62
7
 10
-1.51315528E+02
 20
2.68698757E+02
  0
VERTEX
  8
0
 62
7
 10
-1.51004387E+02
 20
2.68506837E+02
  0
VERTEX
  8
0
 62
7
 10
-1.50667245E+02
 20
2.68333097E+02
  0
VERTEX
  8
0
 62
7
 10
-1.50306787E+02
 20
2.68178923E+02
  0
SEQEND
  8
0
  0
POLYLINE
  8
0
 62
7
 66
1
  0
VERTEX
  8
0
 62
7
 10
-1.47738340E+02
 20
2.87139526E+02
  0
VERTEX
  8
0
 62
7
 10
-1.48176488E+02
 20
2.87112798E+02
  0
VERTEX
  8
0
 62
7
 10
-1.48611108E+02
 20
2.87032826E+02
  0
VERTEX
  8
0
 62
7
 10
-1.49038702E+02
 20
2.86900257E+02
  0
VERTEX
  8
0
 62
7
 10
-1.49455825E+02
 20
2.86716156E+02
  0
VERTEX
  8
0
 62
7
 10
-1.49859121E+02
 20
2.86482007E+02
  0
VERTEX
  8
0
 62
7
 10
-1.50245341E+02
 20
2.86199693E+02
  0
VERTEX
  8
0
 62
7
 10
-1.50611376E+02
 20
2.85871490E+02
  0
VERTEX
  8
0
 62
7
 10
-1.50954280E+02
 20
2.85500038E+02
  0
VERTEX
  8
0
 62
7
 10
-1.51271290E+02
 20
2.85088329E+02
  0
VERTEX
  8
0
 62
7
 10
-1.51559855E+02
 20
2.84639677E+02
  0
VERTEX
  8
0
 62
7
 10
-1.51817652E+02
 20
2.84157695E+02
  0
VERTEX
  8
0
 62
7
 10
-1.52042604E+02
 20
2.83646264E+02
  0
VERTEX
  8
0
 62
7
 10
-1.52232901E+02
 20
2.83109500E+02
  0
VERTEX
  8
0
 62
7
 10
-1.52387010E+02
 20
2.82551727E+02
  0
VERTEX
  8
0
 62
7
 10
-1.52503691E+02
 20
2.81977434E+02
  0
VERTEX
  8
0
 62
7
 10
-1.52582005E+02
 20
2.81391245E+02
  0
VERTEX
  8
0
 62
7
 10
-1.52621320E+02
 20
2.80797881E+02
  0
VERTEX
  8
0
 62
7
 10
-1.52621320E+02
 20
2.80202119E+02
  0
VERTEX
  8
0
 62
7
 10
-1.52582005E+02
 20
2.79608755E+02
  0
VERTEX
  8
0
 62
7
 10
-1.52503691E+02
 20
2.79022566E+02
  0
VERTEX
  8
0
 62
7
 10
-1.52387010E+02
 20
2.78448274E+02
  0
VERTEX
  8
0
 62
7
 10
-1.52232901E+02
 20
2.77890500E+02
  0
VERTEX
  8
0
 62
7
 10
-1.52042604E+02
 20
2.77353737E+02
  0
VERTEX
  8
0
 62
7
 10
-1.51817652E+02
 20
2.76842305E+02
  0
VERTEX
  8
0
 62
7
 10
-1.51559855E+02
 20
2.76360323E+02
  0
VERTEX
  8
0
 62
7
 10
-1.51271290E+02
 20
2.75911671E+02
  0
VERTEX
  8
0
 62
7
 10
-1.50954280E+02
 20
2.75499962E+02
  0
VERTEX
  8
0
 62
7
 10
-1.50611376E+02
 20
2.75128510E+02
  0
VERTEX
  8
0
 62
7
 10
-1.50245341E+02
 20
2.74800307E+02
  0
VERTEX
  8
0
 62
7
 10
-1.49859121E+02
 20
2.74517993E+02
  0
VERTEX
  8
0
 62
7
 10
-1.49455825E+02
 20
2.74283844E+02
  0
VERTEX
  8
0
 62
7
 10
-1.49038702E+02
 20
2.74099743E+02
  0
VERTEX
  8
0
 62
7
 10
-1.48611109E+02
 20
2.73967174E+02
  0
VERTEX
  8
0
 62
7
 10
-1.48176488E+02
 20
2.73887202E+02
  0
VERTEX
  8
0
 62
7
 10
-1.47738340E+02
 20
2.73860474E+02
  0
SEQEND
  8
0
  0
LINE
  8
0
 62
7
 10
-1.34999967E+02
 20
3.04063293E+02
 11
-1.34999967E+02
 21
2.56936768E+02
  0
ARC
  8
0
 62
4
 10
-1.94498028E+02
 20
2.71499924E+02
 40
2.59980309E+01
 50
3.39746143E+02
 51
2.02538569E+01
  0
ARC
  8
0
 62
4
 10
-1.94498028E+02
 20
2.89499931E+02
 40
2.59980309E+01
 50
3.39746143E+02
 51
2.02538569E+01
  0
ARC
  8
0
 62
4
 10
-1.56501966E+02
 20
2.89499931E+02
 40
2.59980309E+01
 50
1.59746143E+02
 51
2.00253857E+02
  0
ARC
  8
0
 62
4
 10
-1.56501966E+02
 20
2.71499924E+02
 40
2.59980309E+01
 50
1.59746143E+02
 51
2.00253857E+02
  0
LINE
  8
0
 62
4
 10
-1.80892488E+02
 20
2.80499928E+02
 11
-1.70107507E+02
 21
2.80499928E+02
  0
LINE
  8
0
 62
4
 10
-1.68499997E+02
 20
2.98499935E+02
 11
-1.68499997E+02
 21
2.62500065E+02
  0
LINE
  8
0
 62
4
 10
-1.82499997E+02
 20
2.98499935E+02
 11
-1.82499997E+02
 21
2.62500065E+02
  0
LINE
  8
0
 62
4
 10
-1.82499997E+02
 20
2.98499935E+02
 11
-1.68499997E+02
 21
2.98499935E+02
  0
LINE
  8
0
 62
4
 10
-1.82499997E+02
 20
2.62500065E+02
 11
-1.68499997E+02
 21
2.62500065E+02
  0
LINE
  8
0
 62
7
 10
-1.68499997E+02
 20
2.91500031E+02
 11
-1.56999967E+02
 21
2.91500031E+02
  0
LINE
  8
0
 62
2
 10
-1.68499997E+02
 20
2.90680023E+02
 11
-1.56999967E+02
 21
2.90680023E+02
  0
LINE
  8
0
 62
7
 10
-1.68499997E+02
 20
2.69500000E+02
 11
-1.56999967E+02
 21
2.69500000E+02
  0
LINE
  8
0
 62
2
 10
-1.68499997E+02
 20
2.70320007E+02
 11
-1.56999967E+02
 21
2.70320007E+02
  0
LINE
  8
0
  6
CENTER
 62
6
 10
-7.39999972E+01
 20
3.06784237E+02
 11
-2.39999972E+01
 21
3.06784237E+02
  0
LINE
  8
0
 62
4
 10
-3.89999973E+01
 20
3.05284237E+02
 11
-2.98660226E+01
 21
3.05284237E+02
  0
LINE
  8
0
 62
4
 10
-3.89999973E+01
 20
3.08284237E+02
 11
-2.81339718E+01
 21
3.08284237E+02
  0
LINE
  8
0
 62
6
 10
-3.07320481E+01
 20
3.03784237E+02
 11
-2.72679465E+01
 21
3.09784237E+02
  0
LINE
  8
0
 62
6
 10
-5.19999973E+01
 20
3.34036669E+02
 11
-5.19999973E+01
 21
3.32982087E+02
  0
LINE
  8
0
 62
6
 10
-4.89999973E+01
 20
3.34036669E+02
 11
-4.89999973E+01
 21
3.32982087E+02
  0
LINE
  8
0
 62
4
 10
-5.24999973E+01
 20
3.33488082E+02
 11
-5.24999973E+01
 21
3.32982087E+02
  0
LINE
  8
0
 62
4
 10
-4.84999973E+01
 20
3.33488082E+02
 11
-4.84999973E+01
 21
3.32982087E+02
  0
LINE
  8
0
 62
4
 10
-5.39999972E+01
 20
3.32982087E+02
 11
-5.39999972E+01
 21
3.19868450E+02
  0
LINE
  8
0
 62
4
 10
-3.89999972E+01
 20
3.32982087E+02
 11
-3.89999972E+01
 21
3.03860757E+02
  0
LINE
  8
0
 62
4
 10
-6.89999972E+01
 20
3.19868450E+02
 11
-6.89999972E+01
 21
3.06183040E+02
  0
LINE
  8
0
  6
CENTER
 62
6
 10
-4.24999972E+01
 20
3.37765609E+02
 11
-4.24999972E+01
 21
3.27500031E+02
  0
LINE
  8
0
  6
CENTER
 62
6
 10
-5.04999972E+01
 20
3.37765609E+02
 11
-5.04999972E+01
 21
3.27500031E+02
  0
LINE
  8
0
  6
CENTER
 62
6
 10
-6.14999972E+01
 20
3.11129730E+02
 11
-6.14999972E+01
 21
3.06129730E+02
  0
LINE
  8
0
 62
4
 10
-4.39999972E+01
 20
3.05735186E+02
 11
-4.39999972E+01
 21
3.04134928E+02
  0
LINE
  8
0
 62
4
 10
-6.89999972E+01
 20
3.13000031E+02
 11
-6.89999972E+01
 21
3.13400031E+02
  0
LINE
  8
0
 62
4
 10
-4.54999972E+01
 20
3.05343189E+02
 11
-4.54999972E+01
 21
3.04134928E+02
  0
LINE
  8
0
 62
4
 10
-7.04999972E+01
 20
3.08285646E+02
 11
-7.04999972E+01
 21
3.05285304E+02
  0
POLYLINE
  8
0
 62
4
 66
1
  0
VERTEX
  8
0
 62
4
 10
-4.84999971E+01
 20
3.33488082E+02
  0
VERTEX
  8
0
 62
4
 10
-4.85080486E+01
 20
3.33562428E+02
  0
VERTEX
  8
0
 62
4
 10
-4.85321380E+01
 20
3.33636175E+02
  0
VERTEX
  8
0
 62
4
 10
-4.85720714E+01
 20
3.33708729E+02
  0
VERTEX
  8
0
 62
4
 10
-4.86275274E+01
 20
3.33779508E+02
  0
VERTEX
  8
0
 62
4
 10
-4.86980594E+01
 20
3.33847939E+02
  0
VERTEX
  8
0
 62
4
 10
-4.87830996E+01
 20
3.33913474E+02
  0
VERTEX
  8
0
 62
4
 10
-4.88819632E+01
 20
3.33975583E+02
  0
VERTEX
  8
0
 62
4
 10
-4.89938542E+01
 20
3.34033767E+02
  0
VERTEX
  8
0
 62
4
 10
-4.91178719E+01
 20
3.34087558E+02
  0
VERTEX
  8
0
 62
4
 10
-4.92530176E+01
 20
3.34136522E+02
  0
VERTEX
  8
0
 62
4
 10
-4.93982032E+01
 20
3.34180266E+02
  0
VERTEX
  8
0
 62
4
 10
-4.95522598E+01
 20
3.34218436E+02
  0
VERTEX
  8
0
 62
4
 10
-4.97139471E+01
 20
3.34250726E+02
  0
VERTEX
  8
0
 62
4
 10
-4.98819632E+01
 20
3.34276875E+02
  0
VERTEX
  8
0
 62
4
 10
-5.00549553E+01
 20
3.34296674E+02
  0
VERTEX
  8
0
 62
4
 10
-5.02315307E+01
 20
3.34309962E+02
  0
VERTEX
  8
0
 62
4
 10
-5.04102675E+01
 20
3.34316633E+02
  0
VERTEX
  8
0
 62
4
 10
-5.05897269E+01
 20
3.34316633E+02
  0
VERTEX
  8
0
 62
4
 10
-5.07684637E+01
 20
3.34309962E+02
  0
VERTEX
  8
0
 62
4
 10
-5.09450391E+01
 20
3.34296674E+02
  0
VERTEX
  8
0
 62
4
 10
-5.11180312E+01
 20
3.34276875E+02
  0
VERTEX
  8
0
 62
4
 10
-5.12860473E+01
 20
3.34250726E+02
  0
VERTEX
  8
0
 62
4
 10
-5.14477346E+01
 20
3.34218436E+02
  0
VERTEX
  8
0
 62
4
 10
-5.16017912E+01
 20
3.34180266E+02
  0
VERTEX
  8
0
 62
4
 10
-5.17469768E+01
 20
3.34136522E+02
  0
VERTEX
  8
0
 62
4
 10
-5.18821225E+01
 20
3.34087558E+02
  0
VERTEX
  8
0
 62
4
 10
-5.20061402E+01
 20
3.34033767E+02
  0
VERTEX
  8
0
 62
4
 10
-5.21180312E+01
 20
3.33975583E+02
  0
VERTEX
  8
0
 62
4
 10
-5.22168948E+01
 20
3.33913474E+02
  0
VERTEX
  8
0
 62
4
 10
-5.23019350E+01
 20
3.33847939E+02
  0
VERTEX
  8
0
 62
4
 10
-5.23724670E+01
 20
3.33779508E+02
  0
VERTEX
  8
0
 62
4
 10
-5.24279230E+01
 20
3.33708729E+02
  0
VERTEX
  8
0
 62
4
 10
-5.24678564E+01
 20
3.33636175E+02
  0
VERTEX
  8
0
 62
4
 10
-5.24919458E+01
 20
3.33562428E+02
  0
VERTEX
  8
0
 62
4
 10
-5.24999973E+01
 20
3.33488082E+02
  0
SEQEND
  8
0
  0
LINE
  8
0
 62
6
 10
-4.09999973E+01
 20
3.34036669E+02
 11
-4.09999973E+01
 21
3.32982087E+02
  0
LINE
  8
0
 62
4
 10
-4.04999973E+01
 20
3.33488082E+02
 11
-4.04999973E+01
 21
3.32982087E+02
  0
POLYLINE
  8
0
 62
4
 66
1
  0
VERTEX
  8
0
 62
4
 10
-4.04999971E+01
 20
3.33488082E+02
  0
VERTEX
  8
0
 62
4
 10
-4.05080486E+01
 20
3.33562428E+02
  0
VERTEX
  8
0
 62
4
 10
-4.05321380E+01
 20
3.33636175E+02
  0
VERTEX
  8
0
 62
4
 10
-4.05720714E+01
 20
3.33708729E+02
  0
VERTEX
  8
0
 62
4
 10
-4.06275274E+01
 20
3.33779508E+02
  0
VERTEX
  8
0
 62
4
 10
-4.06980594E+01
 20
3.33847939E+02
  0
VERTEX
  8
0
 62
4
 10
-4.07830996E+01
 20
3.33913474E+02
  0
VERTEX
  8
0
 62
4
 10
-4.08819632E+01
 20
3.33975583E+02
  0
VERTEX
  8
0
 62
4
 10
-4.09938542E+01
 20
3.34033767E+02
  0
VERTEX
  8
0
 62
4
 10
-4.11178719E+01
 20
3.34087558E+02
  0
VERTEX
  8
0
 62
4
 10
-4.12530176E+01
 20
3.34136522E+02
  0
VERTEX
  8
0
 62
4
 10
-4.13982032E+01
 20
3.34180266E+02
  0
VERTEX
  8
0
 62
4
 10
-4.15522598E+01
 20
3.34218436E+02
  0
VERTEX
  8
0
 62
4
 10
-4.17139471E+01
 20
3.34250726E+02
  0
VERTEX
  8
0
 62
4
 10
-4.18819632E+01
 20
3.34276875E+02
  0
VERTEX
  8
0
 62
4
 10
-4.20549553E+01
 20
3.34296674E+02
  0
VERTEX
  8
0
 62
4
 10
-4.22315307E+01
 20
3.34309962E+02
  0
VERTEX
  8
0
 62
4
 10
-4.24102675E+01
 20
3.34316633E+02
  0
VERTEX
  8
0
 62
4
 10
-4.25897269E+01
 20
3.34316633E+02
  0
VERTEX
  8
0
 62
4
 10
-4.27684637E+01
 20
3.34309962E+02
  0
VERTEX
  8
0
 62
4
 10
-4.29450391E+01
 20
3.34296674E+02
  0
VERTEX
  8
0
 62
4
 10
-4.31180312E+01
 20
3.34276875E+02
  0
VERTEX
  8
0
 62
4
 10
-4.32860473E+01
 20
3.34250726E+02
  0
VERTEX
  8
0
 62
4
 10
-4.34477346E+01
 20
3.34218436E+02
  0
VERTEX
  8
0
 62
4
 10
-4.36017912E+01
 20
3.34180266E+02
  0
VERTEX
  8
0
 62
4
 10
-4.37469768E+01
 20
3.34136522E+02
  0
VERTEX
  8
0
 62
4
 10
-4.38821225E+01
 20
3.34087558E+02
  0
VERTEX
  8
0
 62
4
 10
-4.40061402E+01
 20
3.34033767E+02
  0
VERTEX
  8
0
 62
4
 10
-4.41180312E+01
 20
3.33975583E+02
  0
VERTEX
  8
0
 62
4
 10
-4.42168948E+01
 20
3.33913474E+02
  0
VERTEX
  8
0
 62
4
 10
-4.43019350E+01
 20
3.33847939E+02
  0
VERTEX
  8
0
 62
4
 10
-4.43724670E+01
 20
3.33779508E+02
  0
VERTEX
  8
0
 62
4
 10
-4.44279230E+01
 20
3.33708729E+02
  0
VERTEX
  8
0
 62
4
 10
-4.44678564E+01
 20
3.33636175E+02
  0
VERTEX
  8
0
 62
4
 10
-4.44919458E+01
 20
3.33562428E+02
  0
VERTEX
  8
0
 62
4
 10
-4.44999973E+01
 20
3.33488082E+02
  0
SEQEND
  8
0
  0
LINE
  8
0
 62
6
 10
-4.39999973E+01
 20
3.34036669E+02
 11
-4.39999973E+01
 21
3.32982087E+02
  0
LINE
  8
0
 62
4
 10
-4.44999973E+01
 20
3.33488082E+02
 11
-4.44999973E+01
 21
3.32982087E+02
  0
LINE
  8
0
 62
4
 10
-5.39999973E+01
 20
3.32982087E+02
 11
-3.89999972E+01
 21
3.32982087E+02
  0
LINE
  8
0
 62
4
 10
-5.39999973E+01
 20
3.26238179E+02
 11
-3.89999973E+01
 21
3.26238179E+02
  0
LINE
  8
0
 62
4
 10
-6.89999973E+01
 20
3.19868450E+02
 11
-3.89999972E+01
 21
3.19868450E+02
  0
LINE
  8
0
 62
4
 10
-6.89999973E+01
 20
3.10495849E+02
 11
-3.89999973E+01
 21
3.10495849E+02
  0
LINE
  8
0
 62
4
 10
-6.89999973E+01
 20
3.03860757E+02
 11
-5.65109276E+01
 21
3.03860757E+02
  0
LINE
  8
0
 62
4
 10
-6.89999972E+01
 20
3.09433546E+02
 11
-7.04999972E+01
 21
3.08285646E+02
  0
LINE
  8
0
 62
4
 10
-6.89999973E+01
 20
3.05793701E+02
 11
-5.81499972E+01
 21
3.05793701E+02
  0
LINE
  8
0
 62
4
 10
-7.04999972E+01
 20
3.06224584E+02
 11
-6.89999972E+01
 21
3.05793701E+02
  0
LINE
  8
0
 62
4
 10
-6.89999973E+01
 20
3.04134928E+02
 11
-5.71994880E+01
 21
3.04134928E+02
  0
LINE
  8
0
 62
4
 10
-7.04999972E+01
 20
3.05285304E+02
 11
-6.89999972E+01
 21
3.04134928E+02
  0
LINE
  8
0
 62
4
 10
-6.89999973E+01
 20
3.06183040E+02
 11
-5.81499972E+01
 21
3.06183040E+02
  0
LINE
  8
0
 62
4
 10
-6.89999972E+01
 20
3.06183040E+02
 11
-6.89999972E+01
 21
3.04134928E+02
  0
LINE
  8
0
 62
4
 10
-6.89999972E+01
 20
3.04134928E+02
 11
-6.89999972E+01
 21
3.03860757E+02
  0
LINE
  8
0
 62
4
 10
-5.02999972E+01
 20
3.08629730E+02
 11
-5.02999972E+01
 21
3.07719769E+02
  0
LINE
  8
0
 62
4
 10
-4.26999972E+01
 20
3.07719769E+02
 11
-4.26999972E+01
 21
3.08629730E+02
  0
LINE
  8
0
 62
4
 10
-4.98999972E+01
 20
3.07719769E+02
 11
-4.98999972E+01
 21
3.06690782E+02
  0
LINE
  8
0
 62
4
 10
-4.30999972E+01
 20
3.07719769E+02
 11
-4.30999972E+01
 21
3.06690782E+02
  0
LINE
  8
0
 62
4
 10
-4.98499972E+01
 20
3.06449867E+02
 11
-4.98499972E+01
 21
3.05230986E+02
  0
LINE
  8
0
 62
4
 10
-5.81499972E+01
 20
3.05230986E+02
 11
-5.81499972E+01
 21
3.06832518E+02
  0
POLYLINE
  8
0
 62
4
 66
1
  0
VERTEX
  8
0
 62
4
 10
-5.02999972E+01
 20
3.07808582E+02
  0
VERTEX
  8
0
 62
4
 10
-5.04498979E+01
 20
3.07942599E+02
  0
VERTEX
  8
0
 62
4
 10
-5.06279574E+01
 20
3.08070554E+02
  0
VERTEX
  8
0
 62
4
 10
-5.08327635E+01
 20
3.08191431E+02
  0
VERTEX
  8
0
 62
4
 10
-5.10626917E+01
 20
3.08304272E+02
  0
VERTEX
  8
0
 62
4
 10
-5.13159182E+01
 20
3.08408183E+02
  0
VERTEX
  8
0
 62
4
 10
-5.15904344E+01
 20
3.08502338E+02
  0
VERTEX
  8
0
 62
4
 10
-5.18840629E+01
 20
3.08585991E+02
  0
VERTEX
  8
0
 62
4
 10
-5.21944748E+01
 20
3.08658478E+02
  0
VERTEX
  8
0
 62
4
 10
-5.25192077E+01
 20
3.08719225E+02
  0
VERTEX
  8
0
 62
4
 10
-5.28556861E+01
 20
3.08767750E+02
  0
VERTEX
  8
0
 62
4
 10
-5.32012410E+01
 20
3.08803667E+02
  0
VERTEX
  8
0
 62
4
 10
-5.35531316E+01
 20
3.08826692E+02
  0
VERTEX
  8
0
 62
4
 10
-5.39085666E+01
 20
3.08836643E+02
  0
VERTEX
  8
0
 62
4
 10
-5.42647268E+01
 20
3.08833439E+02
  0
VERTEX
  8
0
 62
4
 10
-5.46187873E+01
 20
3.08817107E+02
  0
VERTEX
  8
0
 62
4
 10
-5.49679395E+01
 20
3.08787777E+02
  0
VERTEX
  8
0
 62
4
 10
-5.53094142E+01
 20
3.08745680E+02
  0
VERTEX
  8
0
 62
4
 10
-5.56405028E+01
 20
3.08691152E+02
  0
VERTEX
  8
0
 62
4
 10
-5.59585791E+01
 20
3.08624623E+02
  0
VERTEX
  8
0
 62
4
 10
-5.62611202E+01
 20
3.08546622E+02
  0
VERTEX
  8
0
 62
4
 10
-5.65457264E+01
 20
3.08457769E+02
  0
VERTEX
  8
0
 62
4
 10
-5.68101402E+01
 20
3.08358766E+02
  0
VERTEX
  8
0
 62
4
 10
-5.70522644E+01
 20
3.08250401E+02
  0
VERTEX
  8
0
 62
4
 10
-5.72701784E+01
 20
3.08133531E+02
  0
VERTEX
  8
0
 62
4
 10
-5.74621538E+01
 20
3.08009085E+02
  0
VERTEX
  8
0
 62
4
 10
-5.76266678E+01
 20
3.07878049E+02
  0
VERTEX
  8
0
 62
4
 10
-5.77624156E+01
 20
3.07741463E+02
  0
VERTEX
  8
0
 62
4
 10
-5.78683204E+01
 20
3.07600410E+02
  0
VERTEX
  8
0
 62
4
 10
-5.79435422E+01
 20
3.07456009E+02
  0
VERTEX
  8
0
 62
4
 10
-5.79874844E+01
 20
3.07309405E+02
  0
SEQEND
  8
0
  0
POLYLINE
  8
0
 62
4
 66
1
  0
VERTEX
  8
0
 62
4
 10
-5.02896227E+01
 20
3.07603404E+02
  0
VERTEX
  8
0
 62
4
 10
-5.04700535E+01
 20
3.07737462E+02
  0
VERTEX
  8
0
 62
4
 10
-5.06785761E+01
 20
3.07864318E+02
  0
VERTEX
  8
0
 62
4
 10
-5.09135310E+01
 20
3.07982963E+02
  0
VERTEX
  8
0
 62
4
 10
-5.11730483E+01
 20
3.08092453E+02
  0
VERTEX
  8
0
 62
4
 10
-5.14550629E+01
 20
3.08191916E+02
  0
VERTEX
  8
0
 62
4
 10
-5.17573304E+01
 20
3.08280560E+02
  0
VERTEX
  8
0
 62
4
 10
-5.20774453E+01
 20
3.08357681E+02
  0
VERTEX
  8
0
 62
4
 10
-5.24128602E+01
 20
3.08422665E+02
  0
VERTEX
  8
0
 62
4
 10
-5.27609056E+01
 20
3.08474994E+02
  0
VERTEX
  8
0
 62
4
 10
-5.31188120E+01
 20
3.08514252E+02
  0
VERTEX
  8
0
 62
4
 10
-5.34837309E+01
 20
3.08540126E+02
  0
VERTEX
  8
0
 62
4
 10
-5.38527583E+01
 20
3.08552411E+02
  0
VERTEX
  8
0
 62
4
 10
-5.42229575E+01
 20
3.08551009E+02
  0
VERTEX
  8
0
 62
4
 10
-5.45913823E+01
 20
3.08535931E+02
  0
VERTEX
  8
0
 62
4
 10
-5.49551008E+01
 20
3.08507297E+02
  0
VERTEX
  8
0
 62
4
 10
-5.53112185E+01
 20
3.08465335E+02
  0
VERTEX
  8
0
 62
4
 10
-5.56569013E+01
 20
3.08410379E+02
  0
VERTEX
  8
0
 62
4
 10
-5.59893982E+01
 20
3.08342866E+02
  0
VERTEX
  8
0
 62
4
 10
-5.63060633E+01
 20
3.08263333E+02
  0
VERTEX
  8
0
 62
4
 10
-5.66043763E+01
 20
3.08172414E+02
  0
VERTEX
  8
0
 62
4
 10
-5.68819634E+01
 20
3.08070832E+02
  0
VERTEX
  8
0
 62
4
 10
-5.71366155E+01
 20
3.07959395E+02
  0
VERTEX
  8
0
 62
4
 10
-5.73663059E+01
 20
3.07838990E+02
  0
VERTEX
  8
0
 62
4
 10
-5.75692068E+01
 20
3.07710576E+02
  0
VERTEX
  8
0
 62
4
 10
-5.77437035E+01
 20
3.07575174E+02
  0
VERTEX
  8
0
 62
4
 10
-5.78884073E+01
 20
3.07433861E+02
  0
VERTEX
  8
0
 62
4
 10
-5.80021666E+01
 20
3.07287764E+02
  0
VERTEX
  8
0
 62
4
 10
-5.80840762E+01
 20
3.07138043E+02
  0
VERTEX
  8
0
 62
4
 10
-5.81334841E+01
 20
3.06985891E+02
  0
VERTEX
  8
0
 62
4
 10
-5.81499972E+01
 20
3.06832518E+02
  0
SEQEND
  8
0
  0
POLYLINE
  8
0
 62
4
 66
1
  0
VERTEX
  8
0
 62
4
 10
-5.81499972E+01
 20
3.05230986E+02
  0
VERTEX
  8
0
 62
4
 10
-5.81342052E+01
 20
3.05080993E+02
  0
VERTEX
  8
0
 62
4
 10
-5.80869494E+01
 20
3.04932142E+02
  0
VERTEX
  8
0
 62
4
 10
-5.80085894E+01
 20
3.04785564E+02
  0
VERTEX
  8
0
 62
4
 10
-5.78997216E+01
 20
3.04642377E+02
  0
VERTEX
  8
0
 62
4
 10
-5.77611745E+01
 20
3.04503670E+02
  0
VERTEX
  8
0
 62
4
 10
-5.75940026E+01
 20
3.04370498E+02
  0
VERTEX
  8
0
 62
4
 10
-5.73994782E+01
 20
3.04243874E+02
  0
VERTEX
  8
0
 62
4
 10
-5.71790816E+01
 20
3.04124763E+02
  0
VERTEX
  8
0
 62
4
 10
-5.69344903E+01
 20
3.04014072E+02
  0
VERTEX
  8
0
 62
4
 10
-5.66675658E+01
 20
3.03912641E+02
  0
VERTEX
  8
0
 62
4
 10
-5.63803394E+01
 20
3.03821244E+02
  0
VERTEX
  8
0
 62
4
 10
-5.60749972E+01
 20
3.03740576E+02
  0
VERTEX
  8
0
 62
4
 10
-5.57538630E+01
 20
3.03671251E+02
  0
VERTEX
  8
0
 62
4
 10
-5.54193808E+01
 20
3.03613797E+02
  0
VERTEX
  8
0
 62
4
 10
-5.50740962E+01
 20
3.03568650E+02
  0
VERTEX
  8
0
 62
4
 10
-5.47206371E+01
 20
3.03536155E+02
  0
VERTEX
  8
0
 62
4
 10
-5.43616935E+01
 20
3.03516558E+02
  0
VERTEX
  8
0
 62
4
 10
-5.39999972E+01
 20
3.03510009E+02
  0
VERTEX
  8
0
 62
4
 10
-5.36383009E+01
 20
3.03516558E+02
  0
VERTEX
  8
0
 62
4
 10
-5.32793573E+01
 20
3.03536155E+02
  0
VERTEX
  8
0
 62
4
 10
-5.29258982E+01
 20
3.03568650E+02
  0
VERTEX
  8
0
 62
4
 10
-5.25806136E+01
 20
3.03613797E+02
  0
VERTEX
  8
0
 62
4
 10
-5.22461314E+01
 20
3.03671251E+02
  0
VERTEX
  8
0
 62
4
 10
-5.19249972E+01
 20
3.03740576E+02
  0
VERTEX
  8
0
 62
4
 10
-5.16196550E+01
 20
3.03821244E+02
  0
VERTEX
  8
0
 62
4
 10
-5.13324286E+01
 20
3.03912641E+02
  0
VERTEX
  8
0
 62
4
 10
-5.10655041E+01
 20
3.04014072E+02
  0
VERTEX
  8
0
 62
4
 10
-5.08209128E+01
 20
3.04124763E+02
  0
VERTEX
  8
0
 62
4
 10
-5.06005162E+01
 20
3.04243874E+02
  0
VERTEX
  8
0
 62
4
 10
-5.04059918E+01
 20
3.04370498E+02
  0
VERTEX
  8
0
 62
4
 10
-5.02388199E+01
 20
3.04503670E+02
  0
VERTEX
  8
0
 62
4
 10
-5.01002728E+01
 20
3.04642377E+02
  0
VERTEX
  8
0
 62
4
 10
-4.99914050E+01
 20
3.04785564E+02
  0
VERTEX
  8
0
 62
4
 10
-4.99130450E+01
 20
3.04932141E+02
  0
VERTEX
  8
0
 62
4
 10
-4.98657892E+01
 20
3.05080993E+02
  0
VERTEX
  8
0
 62
4
 10
-4.98499972E+01
 20
3.05230986E+02
  0
VERTEX
  8
0
 62
4
 10
-4.98657892E+01
 20
3.05380979E+02
  0
VERTEX
  8
0
 62
4
 10
-4.99130450E+01
 20
3.05529830E+02
  0
VERTEX
  8
0
 62
4
 10
-4.99914050E+01
 20
3.05676408E+02
  0
VERTEX
  8
0
 62
4
 10
-5.01002728E+01
 20
3.05819595E+02
  0
VERTEX
  8
0
 62
4
 10
-5.02388199E+01
 20
3.05958302E+02
  0
VERTEX
  8
0
 62
4
 10
-5.04059918E+01
 20
3.06091474E+02
  0
VERTEX
  8
0
 62
4
 10
-5.06005162E+01
 20
3.06218098E+02
  0
VERTEX
  8
0
 62
4
 10
-5.08209128E+01
 20
3.06337209E+02
  0
VERTEX
  8
0
 62
4
 10
-5.10655041E+01
 20
3.06447900E+02
  0
VERTEX
  8
0
 62
4
 10
-5.13324286E+01
 20
3.06549331E+02
  0
VERTEX
  8
0
 62
4
 10
-5.16196550E+01
 20
3.06640728E+02
  0
VERTEX
  8
0
 62
4
 10
-5.19249972E+01
 20
3.06721396E+02
  0
VERTEX
  8
0
 62
4
 10
-5.22461314E+01
 20
3.06790721E+02
  0
VERTEX
  8
0
 62
4
 10
-5.25806136E+01
 20
3.06848175E+02
  0
VERTEX
  8
0
 62
4
 10
-5.29258982E+01
 20
3.06893322E+02
  0
VERTEX
  8
0
 62
4
 10
-5.32793573E+01
 20
3.06925817E+02
  0
VERTEX
  8
0
 62
4
 10
-5.36383009E+01
 20
3.06945414E+02
  0
VERTEX
  8
0
 62
4
 10
-5.39999972E+01
 20
3.06951963E+02
  0
VERTEX
  8
0
 62
4
 10
-5.43616935E+01
 20
3.06945414E+02
  0
VERTEX
  8
0
 62
4
 10
-5.47206371E+01
 20
3.06925817E+02
  0
VERTEX
  8
0
 62
4
 10
-5.50740962E+01
 20
3.06893322E+02
  0
VERTEX
  8
0
 62
4
 10
-5.54193808E+01
 20
3.06848175E+02
  0
VERTEX
  8
0
 62
4
 10
-5.57538630E+01
 20
3.06790721E+02
  0
VERTEX
  8
0
 62
4
 10
-5.60749972E+01
 20
3.06721396E+02
  0
VERTEX
  8
0
 62
4
 10
-5.63803394E+01
 20
3.06640728E+02
  0
VERTEX
  8
0
 62
4
 10
-5.66675658E+01
 20
3.06549331E+02
  0
VERTEX
  8
0
 62
4
 10
-5.69344903E+01
 20
3.06447900E+02
  0
VERTEX
  8
0
 62
4
 10
-5.71790816E+01
 20
3.06337209E+02
  0
VERTEX
  8
0
 62
4
 10
-5.73994782E+01
 20
3.06218098E+02
  0
VERTEX
  8
0
 62
4
 10
-5.75940026E+01
 20
3.06091474E+02
  0
VERTEX
  8
0
 62
4
 10
-5.77611745E+01
 20
3.05958302E+02
  0
VERTEX
  8
0
 62
4
 10
-5.78997216E+01
 20
3.05819595E+02
  0
VERTEX
  8
0
 62
4
 10
-5.80085894E+01
 20
3.05676408E+02
  0
VERTEX
  8
0
 62
4
 10
-5.80869494E+01
 20
3.05529831E+02
  0
VERTEX
  8
0
 62
4
 10
-5.81342052E+01
 20
3.05380979E+02
  0
VERTEX
  8
0
 62
4
 10
-5.81499972E+01
 20
3.05230986E+02
  0
SEQEND
  8
0
  0
ARC
  8
0
 62
4
 10
-6.03695979E+01
 20
3.20015606E+02
 40
1.67245585E+01
 50
2.85971208E+02
 51
2.99114206E+02
  0
ARC
  8
0
 62
4
 10
-4.76303932E+01
 20
3.20015614E+02
 40
1.67245676E+01
 50
2.40885798E+02
 51
2.54028789E+02
  0
POLYLINE
  8
0
 62
4
 66
1
  0
VERTEX
  8
0
 62
4
 10
-4.26999972E+01
 20
3.08629730E+02
  0
VERTEX
  8
0
 62
4
 10
-4.27152949E+01
 20
3.08770987E+02
  0
VERTEX
  8
0
 62
4
 10
-4.27610648E+01
 20
3.08911106E+02
  0
VERTEX
  8
0
 62
4
 10
-4.28369383E+01
 20
3.09048960E+02
  0
VERTEX
  8
0
 62
4
 10
-4.29423047E+01
 20
3.09183438E+02
  0
VERTEX
  8
0
 62
4
 10
-4.30763155E+01
 20
3.09313459E+02
  0
VERTEX
  8
0
 62
4
 10
-4.32378918E+01
 20
3.09437974E+02
  0
VERTEX
  8
0
 62
4
 10
-4.34257326E+01
 20
3.09555982E+02
  0
VERTEX
  8
0
 62
4
 10
-4.36383256E+01
 20
3.09666532E+02
  0
VERTEX
  8
0
 62
4
 10
-4.38739591E+01
 20
3.09768735E+02
  0
VERTEX
  8
0
 62
4
 10
-4.41307359E+01
 20
3.09861767E+02
  0
VERTEX
  8
0
 62
4
 10
-4.44065887E+01
 20
3.09944879E+02
  0
VERTEX
  8
0
 62
4
 10
-4.46992963E+01
 20
3.10017403E+02
  0
VERTEX
  8
0
 62
4
 10
-4.50065021E+01
 20
3.10078753E+02
  0
VERTEX
  8
0
 62
4
 10
-4.53257326E+01
 20
3.10128437E+02
  0
VERTEX
  8
0
 62
4
 10
-4.56544176E+01
 20
3.10166055E+02
  0
VERTEX
  8
0
 62
4
 10
-4.59899108E+01
 20
3.10191303E+02
  0
VERTEX
  8
0
 62
4
 10
-4.63295108E+01
 20
3.10203978E+02
  0
VERTEX
  8
0
 62
4
 10
-4.66704835E+01
 20
3.10203978E+02
  0
VERTEX
  8
0
 62
4
 10
-4.70100836E+01
 20
3.10191303E+02
  0
VERTEX
  8
0
 62
4
 10
-4.73455767E+01
 20
3.10166055E+02
  0
VERTEX
  8
0
 62
4
 10
-4.76742618E+01
 20
3.10128438E+02
  0
VERTEX
  8
0
 62
4
 10
-4.79934923E+01
 20
3.10078753E+02
  0
VERTEX
  8
0
 62
4
 10
-4.83006981E+01
 20
3.10017403E+02
  0
VERTEX
  8
0
 62
4
 10
-4.85934057E+01
 20
3.09944879E+02
  0
VERTEX
  8
0
 62
4
 10
-4.88692584E+01
 20
3.09861767E+02
  0
VERTEX
  8
0
 62
4
 10
-4.91260352E+01
 20
3.09768735E+02
  0
VERTEX
  8
0
 62
4
 10
-4.93616688E+01
 20
3.09666532E+02
  0
VERTEX
  8
0
 62
4
 10
-4.95742618E+01
 20
3.09555982E+02
  0
VERTEX
  8
0
 62
4
 10
-4.97621026E+01
 20
3.09437974E+02
  0
VERTEX
  8
0
 62
4
 10
-4.99236789E+01
 20
3.09313459E+02
  0
VERTEX
  8
0
 62
4
 10
-5.00576897E+01
 20
3.09183439E+02
  0
VERTEX
  8
0
 62
4
 10
-5.01630561E+01
 20
3.09048960E+02
  0
VERTEX
  8
0
 62
4
 10
-5.02389296E+01
 20
3.08911106E+02
  0
VERTEX
  8
0
 62
4
 10
-5.02846995E+01
 20
3.08770987E+02
  0
VERTEX
  8
0
 62
4
 10
-5.02999972E+01
 20
3.08629730E+02
  0
SEQEND
  8
0
  0
POLYLINE
  8
0
 62
4
 66
1
  0
VERTEX
  8
0
 62
4
 10
-4.30999972E+01
 20
3.07016011E+02
  0
VERTEX
  8
0
 62
4
 10
-4.29634155E+01
 20
3.07143272E+02
  0
VERTEX
  8
0
 62
4
 10
-4.28544677E+01
 20
3.07275038E+02
  0
VERTEX
  8
0
 62
4
 10
-4.27740049E+01
 20
3.07410279E+02
  0
VERTEX
  8
0
 62
4
 10
-4.27226559E+01
 20
3.07547937E+02
  0
VERTEX
  8
0
 62
4
 10
-4.27008219E+01
 20
3.07686939E+02
  0
VERTEX
  8
0
 62
4
 10
-4.27086736E+01
 20
3.07826197E+02
  0
VERTEX
  8
0
 62
4
 10
-4.27461496E+01
 20
3.07964623E+02
  0
VERTEX
  8
0
 62
4
 10
-4.28129570E+01
 20
3.08101137E+02
  0
VERTEX
  8
0
 62
4
 10
-4.29085738E+01
 20
3.08234670E+02
  0
VERTEX
  8
0
 62
4
 10
-4.30322530E+01
 20
3.08364180E+02
  0
VERTEX
  8
0
 62
4
 10
-4.31830281E+01
 20
3.08488655E+02
  0
VERTEX
  8
0
 62
4
 10
-4.33597210E+01
 20
3.08607122E+02
  0
VERTEX
  8
0
 62
4
 10
-4.35609510E+01
 20
3.08718655E+02
  0
VERTEX
  8
0
 62
4
 10
-4.37851460E+01
 20
3.08822384E+02
  0
VERTEX
  8
0
 62
4
 10
-4.40305539E+01
 20
3.08917497E+02
  0
VERTEX
  8
0
 62
4
 10
-4.42952574E+01
 20
3.09003251E+02
  0
VERTEX
  8
0
 62
4
 10
-4.45771880E+01
 20
3.09078977E+02
  0
VERTEX
  8
0
 62
4
 10
-4.48741429E+01
 20
3.09144082E+02
  0
VERTEX
  8
0
 62
4
 10
-4.51838018E+01
 20
3.09198058E+02
  0
VERTEX
  8
0
 62
4
 10
-4.55037450E+01
 20
3.09240483E+02
  0
VERTEX
  8
0
 62
4
 10
-4.58314726E+01
 20
3.09271025E+02
  0
VERTEX
  8
0
 62
4
 10
-4.61644239E+01
 20
3.09289447E+02
  0
VERTEX
  8
0
 62
4
 10
-4.64999972E+01
 20
3.09295603E+02
  0
VERTEX
  8
0
 62
4
 10
-4.68355706E+01
 20
3.09289447E+02
  0
VERTEX
  8
0
 62
4
 10
-4.71685218E+01
 20
3.09271025E+02
  0
VERTEX
  8
0
 62
4
 10
-4.74962495E+01
 20
3.09240483E+02
  0
VERTEX
  8
0
 62
4
 10
-4.78161927E+01
 20
3.09198058E+02
  0
VERTEX
  8
0
 62
4
 10
-4.81258515E+01
 20
3.09144082E+02
  0
VERTEX
  8
0
 62
4
 10
-4.84228064E+01
 20
3.09078977E+02
  0
VERTEX
  8
0
 62
4
 10
-4.87047370E+01
 20
3.09003251E+02
  0
VERTEX
  8
0
 62
4
 10
-4.89694405E+01
 20
3.08917497E+02
  0
VERTEX
  8
0
 62
4
 10
-4.92148485E+01
 20
3.08822384E+02
  0
VERTEX
  8
0
 62
4
 10
-4.94390434E+01
 20
3.08718655E+02
  0
VERTEX
  8
0
 62
4
 10
-4.96402735E+01
 20
3.08607122E+02
  0
VERTEX
  8
0
 62
4
 10
-4.98169664E+01
 20
3.08488655E+02
  0
VERTEX
  8
0
 62
4
 10
-4.99677414E+01
 20
3.08364180E+02
  0
VERTEX
  8
0
 62
4
 10
-5.00914206E+01
 20
3.08234670E+02
  0
VERTEX
  8
0
 62
4
 10
-5.01870374E+01
 20
3.08101137E+02
  0
VERTEX
  8
0
 62
4
 10
-5.02538448E+01
 20
3.07964623E+02
  0
VERTEX
  8
0
 62
4
 10
-5.02913208E+01
 20
3.07826197E+02
  0
VERTEX
  8
0
 62
4
 10
-5.02991725E+01
 20
3.07686939E+02
  0
VERTEX
  8
0
 62
4
 10
-5.02773385E+01
 20
3.07547937E+02
  0
VERTEX
  8
0
 62
4
 10
-5.02259895E+01
 20
3.07410279E+02
  0
VERTEX
  8
0
 62
4
 10
-5.01455267E+01
 20
3.07275038E+02
  0
VERTEX
  8
0
 62
4
 10
-5.00365789E+01
 20
3.07143272E+02
  0
VERTEX
  8
0
 62
4
 10
-4.98999972E+01
 20
3.07016011E+02
  0
SEQEND
  8
0
  0
POLYLINE
  8
0
 62
4
 66
1
  0
VERTEX
  8
0
 62
4
 10
-4.30999972E+01
 20
3.07719769E+02
  0
VERTEX
  8
0
 62
4
 10
-4.31136846E+01
 20
3.07846157E+02
  0
VERTEX
  8
0
 62
4
 10
-4.31546366E+01
 20
3.07971527E+02
  0
VERTEX
  8
0
 62
4
 10
-4.32225235E+01
 20
3.08094870E+02
  0
VERTEX
  8
0
 62
4
 10
-4.33167986E+01
 20
3.08215192E+02
  0
VERTEX
  8
0
 62
4
 10
-4.34367030E+01
 20
3.08331526E+02
  0
VERTEX
  8
0
 62
4
 10
-4.35812713E+01
 20
3.08442935E+02
  0
VERTEX
  8
0
 62
4
 10
-4.37493394E+01
 20
3.08548521E+02
  0
VERTEX
  8
0
 62
4
 10
-4.39395542E+01
 20
3.08647434E+02
  0
VERTEX
  8
0
 62
4
 10
-4.41503842E+01
 20
3.08738879E+02
  0
VERTEX
  8
0
 62
4
 10
-4.43801319E+01
 20
3.08822118E+02
  0
VERTEX
  8
0
 62
4
 10
-4.46269474E+01
 20
3.08896481E+02
  0
VERTEX
  8
0
 62
4
 10
-4.48888437E+01
 20
3.08961371E+02
  0
VERTEX
  8
0
 62
4
 10
-4.51637121E+01
 20
3.09016264E+02
  0
VERTEX
  8
0
 62
4
 10
-4.54493394E+01
 20
3.09060718E+02
  0
VERTEX
  8
0
 62
4
 10
-4.57434260E+01
 20
3.09094375E+02
  0
VERTEX
  8
0
 62
4
 10
-4.60436041E+01
 20
3.09116966E+02
  0
VERTEX
  8
0
 62
4
 10
-4.63474568E+01
 20
3.09128306E+02
  0
VERTEX
  8
0
 62
4
 10
-4.66525376E+01
 20
3.09128306E+02
  0
VERTEX
  8
0
 62
4
 10
-4.69563903E+01
 20
3.09116966E+02
  0
VERTEX
  8
0
 62
4
 10
-4.72565684E+01
 20
3.09094375E+02
  0
VERTEX
  8
0
 62
4
 10
-4.75506550E+01
 20
3.09060718E+02
  0
VERTEX
  8
0
 62
4
 10
-4.78362823E+01
 20
3.09016264E+02
  0
VERTEX
  8
0
 62
4
 10
-4.81111506E+01
 20
3.08961371E+02
  0
VERTEX
  8
0
 62
4
 10
-4.83730469E+01
 20
3.08896481E+02
  0
VERTEX
  8
0
 62
4
 10
-4.86198625E+01
 20
3.08822118E+02
  0
VERTEX
  8
0
 62
4
 10
-4.88496102E+01
 20
3.08738879E+02
  0
VERTEX
  8
0
 62
4
 10
-4.90604402E+01
 20
3.08647434E+02
  0
VERTEX
  8
0
 62
4
 10
-4.92506550E+01
 20
3.08548521E+02
  0
VERTEX
  8
0
 62
4
 10
-4.94187231E+01
 20
3.08442935E+02
  0
VERTEX
  8
0
 62
4
 10
-4.95632913E+01
 20
3.08331526E+02
  0
VERTEX
  8
0
 62
4
 10
-4.96831958E+01
 20
3.08215192E+02
  0
VERTEX
  8
0
 62
4
 10
-4.97774709E+01
 20
3.08094870E+02
  0
VERTEX
  8
0
 62
4
 10
-4.98453578E+01
 20
3.07971527E+02
  0
VERTEX
  8
0
 62
4
 10
-4.98863098E+01
 20
3.07846157E+02
  0
VERTEX
  8
0
 62
4
 10
-4.98999972E+01
 20
3.07719769E+02
  0
SEQEND
  8
0
  0
POLYLINE
  8
0
 62
4
 66
1
  0
VERTEX
  8
0
 62
4
 10
-4.98999972E+01
 20
3.06690782E+02
  0
VERTEX
  8
0
 62
4
 10
-4.98870592E+01
 20
3.06567896E+02
  0
VERTEX
  8
0
 62
4
 10
-4.98483436E+01
 20
3.06445946E+02
  0
VERTEX
  8
0
 62
4
 10
-4.97841450E+01
 20
3.06325858E+02
  0
VERTEX
  8
0
 62
4
 10
-4.96949521E+01
 20
3.06208548E+02
  0
VERTEX
  8
0
 62
4
 10
-4.95814437E+01
 20
3.06094908E+02
  0
VERTEX
  8
0
 62
4
 10
-4.94444836E+01
 20
3.05985803E+02
  0
VERTEX
  8
0
 62
4
 10
-4.92851142E+01
 20
3.05882064E+02
  0
VERTEX
  8
0
 62
4
 10
-4.91045483E+01
 20
3.05784479E+02
  0
VERTEX
  8
0
 62
4
 10
-4.89041603E+01
 20
3.05693792E+02
  0
VERTEX
  8
0
 62
4
 10
-4.86854751E+01
 20
3.05610692E+02
  0
VERTEX
  8
0
 62
4
 10
-4.84501571E+01
 20
3.05535813E+02
  0
VERTEX
  8
0
 62
4
 10
-4.81999972E+01
 20
3.05469723E+02
  0
VERTEX
  8
0
 62
4
 10
-4.79368993E+01
 20
3.05412927E+02
  0
VERTEX
  8
0
 62
4
 10
-4.76628657E+01
 20
3.05365856E+02
  0
VERTEX
  8
0
 62
4
 10
-4.73799820E+01
 20
3.05328868E+02
  0
VERTEX
  8
0
 62
4
 10
-4.70904010E+01
 20
3.05302245E+02
  0
VERTEX
  8
0
 62
4
 10
-4.67963267E+01
 20
3.05286190E+02
  0
VERTEX
  8
0
 62
4
 10
-4.64999972E+01
 20
3.05280825E+02
  0
VERTEX
  8
0
 62
4
 10
-4.62036677E+01
 20
3.05286190E+02
  0
VERTEX
  8
0
 62
4
 10
-4.59095934E+01
 20
3.05302245E+02
  0
VERTEX
  8
0
 62
4
 10
-4.56200124E+01
 20
3.05328868E+02
  0
VERTEX
  8
0
 62
4
 10
-4.53371287E+01
 20
3.05365856E+02
  0
VERTEX
  8
0
 62
4
 10
-4.50630951E+01
 20
3.05412927E+02
  0
VERTEX
  8
0
 62
4
 10
-4.47999972E+01
 20
3.05469723E+02
  0
VERTEX
  8
0
 62
4
 10
-4.45498373E+01
 20
3.05535813E+02
  0
VERTEX
  8
0
 62
4
 10
-4.43145193E+01
 20
3.05610692E+02
  0
VERTEX
  8
0
 62
4
 10
-4.40958341E+01
 20
3.05693792E+02
  0
VERTEX
  8
0
 62
4
 10
-4.38954461E+01
 20
3.05784479E+02
  0
VERTEX
  8
0
 62
4
 10
-4.37148803E+01
 20
3.05882064E+02
  0
VERTEX
  8
0
 62
4
 10
-4.35555108E+01
 20
3.05985803E+02
  0
VERTEX
  8
0
 62
4
 10
-4.34185507E+01
 20
3.06094908E+02
  0
VERTEX
  8
0
 62
4
 10
-4.33050423E+01
 20
3.06208548E+02
  0
VERTEX
  8
0
 62
4
 10
-4.32158494E+01
 20
3.06325858E+02
  0
VERTEX
  8
0
 62
4
 10
-4.31516508E+01
 20
3.06445946E+02
  0
VERTEX
  8
0
 62
4
 10
-4.31129352E+01
 20
3.06567896E+02
  0
VERTEX
  8
0
 62
4
 10
-4.30999972E+01
 20
3.06690782E+02
  0
VERTEX
  8
0
 62
4
 10
-4.31129352E+01
 20
3.06813668E+02
  0
VERTEX
  8
0
 62
4
 10
-4.31516508E+01
 20
3.06935618E+02
  0
VERTEX
  8
0
 62
4
 10
-4.32158494E+01
 20
3.07055706E+02
  0
VERTEX
  8
0
 62
4
 10
-4.33050423E+01
 20
3.07173016E+02
  0
VERTEX
  8
0
 62
4
 10
-4.34185507E+01
 20
3.07286656E+02
  0
VERTEX
  8
0
 62
4
 10
-4.35555108E+01
 20
3.07395761E+02
  0
VERTEX
  8
0
 62
4
 10
-4.37148802E+01
 20
3.07499500E+02
  0
VERTEX
  8
0
 62
4
 10
-4.38954461E+01
 20
3.07597085E+02
  0
VERTEX
  8
0
 62
4
 10
-4.40958341E+01
 20
3.07687772E+02
  0
VERTEX
  8
0
 62
4
 10
-4.43145193E+01
 20
3.07770872E+02
  0
VERTEX
  8
0
 62
4
 10
-4.45498373E+01
 20
3.07845751E+02
  0
VERTEX
  8
0
 62
4
 10
-4.47999972E+01
 20
3.07911841E+02
  0
VERTEX
  8
0
 62
4
 10
-4.50630951E+01
 20
3.07968637E+02
  0
VERTEX
  8
0
 62
4
 10
-4.53371287E+01
 20
3.08015708E+02
  0
VERTEX
  8
0
 62
4
 10
-4.56200124E+01
 20
3.08052696E+02
  0
VERTEX
  8
0
 62
4
 10
-4.59095934E+01
 20
3.08079319E+02
  0
VERTEX
  8
0
 62
4
 10
-4.62036677E+01
 20
3.08095374E+02
  0
VERTEX
  8
0
 62
4
 10
-4.64999972E+01
 20
3.08100739E+02
  0
VERTEX
  8
0
 62
4
 10
-4.67963267E+01
 20
3.08095374E+02
  0
VERTEX
  8
0
 62
4
 10
-4.70904010E+01
 20
3.08079319E+02
  0
VERTEX
  8
0
 62
4
 10
-4.73799820E+01
 20
3.08052696E+02
  0
VERTEX
  8
0
 62
4
 10
-4.76628657E+01
 20
3.08015708E+02
  0
VERTEX
  8
0
 62
4
 10
-4.79368993E+01
 20
3.07968637E+02
  0
VERTEX
  8
0
 62
4
 10
-4.81999972E+01
 20
3.07911841E+02
  0
VERTEX
  8
0
 62
4
 10
-4.84501571E+01
 20
3.07845751E+02
  0
VERTEX
  8
0
 62
4
 10
-4.86854751E+01
 20
3.07770872E+02
  0
VERTEX
  8
0
 62
4
 10
-4.89041603E+01
 20
3.07687772E+02
  0
VERTEX
  8
0
 62
4
 10
-4.91045483E+01
 20
3.07597085E+02
  0
VERTEX
  8
0
 62
4
 10
-4.92851142E+01
 20
3.07499500E+02
  0
VERTEX
  8
0
 62
4
 10
-4.94444836E+01
 20
3.07395761E+02
  0
VERTEX
  8
0
 62
4
 10
-4.95814437E+01
 20
3.07286656E+02
  0
VERTEX
  8
0
 62
4
 10
-4.96949521E+01
 20
3.07173016E+02
  0
VERTEX
  8
0
 62
4
 10
-4.97841450E+01
 20
3.07055706E+02
  0
VERTEX
  8
0
 62
4
 10
-4.98483436E+01
 20
3.06935618E+02
  0
VERTEX
  8
0
 62
4
 10
-4.98870592E+01
 20
3.06813668E+02
  0
VERTEX
  8
0
 62
4
 10
-4.98999972E+01
 20
3.06690782E+02
  0
SEQEND
  8
0
  0
ARC
  8
0
 62
4
 10
-5.27470554E+01
 20
3.20720686E+02
 40
1.64201370E+01
 50
2.90122188E+02
 51
2.99216401E+02
  0
ARC
  8
0
 62
4
 10
-4.02529384E+01
 20
3.20720687E+02
 40
1.64201386E+01
 50
2.40783600E+02
 51
2.49877812E+02
  0
LINE
  8
0
  6
CENTER
 62
6
 10
-6.39999972E+01
 20
3.08629730E+02
 11
-5.89999972E+01
 21
3.08629730E+02
  0
LINE
  8
0
 62
4
 10
-4.33281065E+01
 20
3.06183040E+02
 11
-3.89999972E+01
 21
3.06183040E+02
  0
LINE
  8
0
 62
4
 10
-4.98499972E+01
 20
3.06183040E+02
 11
-4.96718879E+01
 21
3.06183040E+02
  0
LINE
  8
0
 62
4
 10
-4.98499972E+01
 20
3.05793701E+02
 11
-4.91230466E+01
 21
3.05793701E+02
  0
LINE
  8
0
 62
4
 10
-5.08005064E+01
 20
3.04134928E+02
 11
-4.39999972E+01
 21
3.04134928E+02
  0
LINE
  8
0
 62
4
 10
-5.14890668E+01
 20
3.03860757E+02
 11
-3.89999973E+01
 21
3.03860757E+02
  0
LINE
  8
0
  6
CENTER
 62
6
 10
-5.39999972E+01
 20
3.09678303E+02
 11
-5.39999972E+01
 21
3.04678303E+02
  0
LINE
  8
0
  6
CENTER
 62
6
 10
-5.64999972E+01
 20
3.07178303E+02
 11
-5.14999972E+01
 21
3.07178303E+02
  0
LINE
  8
0
  6
CENTER
 62
6
 10
-4.64999972E+01
 20
3.11129730E+02
 11
-4.64999972E+01
 21
3.06129730E+02
  0
LINE
  8
0
  6
CENTER
 62
6
 10
-4.89999972E+01
 20
3.08629730E+02
 11
-4.39999972E+01
 21
3.08629730E+02
  0
LINE
  8
0
 62
4
 10
-4.39999973E+01
 20
3.05284237E+02
 11
-3.89999973E+01
 21
3.05284237E+02
  0
LINE
  8
0
  6
CENTER
 62
6
 10
2.49999973E+01
 20
2.54215778E+02
 11
-2.50000027E+01
 21
2.54215778E+02
  0
LINE
  8
0
 62
6
 10
-1.82679519E+01
 20
2.57215778E+02
 11
-2.17320535E+01
 21
2.51215778E+02
  0
LINE
  8
0
 62
4
 10
-1.00000027E+01
 20
2.55715778E+02
 11
-1.91339773E+01
 21
2.55715778E+02
  0
LINE
  8
0
 62
4
 10
-1.00000027E+01
 20
2.52715778E+02
 11
-2.08660281E+01
 21
2.52715778E+02
  0
LINE
  8
0
 62
6
 10
2.99999727E+00
 20
2.26963346E+02
 11
2.99999727E+00
 21
2.28017928E+02
  0
LINE
  8
0
 62
6
 10
-2.72823689E-06
 20
2.26963346E+02
 11
-2.72823689E-06
 21
2.28017928E+02
  0
LINE
  8
0
 62
4
 10
3.49999727E+00
 20
2.27511934E+02
 11
3.49999727E+00
 21
2.28017928E+02
  0
LINE
  8
0
 62
4
 10
-5.00002728E-01
 20
2.27511934E+02
 11
-5.00002728E-01
 21
2.28017928E+02
  0
LINE
  8
0
 62
4
 10
4.99999724E+00
 20
2.28017928E+02
 11
4.99999724E+00
 21
2.41131565E+02
  0
LINE
  8
0
 62
4
 10
-1.00000028E+01
 20
2.28017928E+02
 11
-1.00000028E+01
 21
2.57139258E+02
  0
LINE
  8
0
 62
4
 10
1.99999972E+01
 20
2.41131565E+02
 11
1.99999972E+01
 21
2.54816976E+02
  0
LINE
  8
0
  6
CENTER
 62
6
 10
-6.50000279E+00
 20
2.23234406E+02
 11
-6.50000279E+00
 21
2.33499985E+02
  0
LINE
  8
0
  6
CENTER
 62
6
 10
1.49999721E+00
 20
2.23234406E+02
 11
1.49999721E+00
 21
2.33499985E+02
  0
LINE
  8
0
  6
CENTER
 62
6
 10
1.24999972E+01
 20
2.49870285E+02
 11
1.24999972E+01
 21
2.54870285E+02
  0
LINE
  8
0
 62
4
 10
-5.00000276E+00
 20
2.55264829E+02
 11
-5.00000276E+00
 21
2.56865087E+02
  0
LINE
  8
0
 62
4
 10
1.99999972E+01
 20
2.47999985E+02
 11
1.99999972E+01
 21
2.47599985E+02
  0
LINE
  8
0
 62
4
 10
-3.50000276E+00
 20
2.55656827E+02
 11
-3.50000276E+00
 21
2.56865087E+02
  0
LINE
  8
0
 62
4
 10
2.14999972E+01
 20
2.52714369E+02
 11
2.14999972E+01
 21
2.55714711E+02
  0
POLYLINE
  8
0
 62
4
 66
1
  0
VERTEX
  8
0
 62
4
 10
-5.00002850E-01
 20
2.27511934E+02
  0
VERTEX
  8
0
 62
4
 10
-4.91951438E-01
 20
2.27437588E+02
  0
VERTEX
  8
0
 62
4
 10
-4.67862027E-01
 20
2.27363841E+02
  0
VERTEX
  8
0
 62
4
 10
-4.27928570E-01
 20
2.27291287E+02
  0
VERTEX
  8
0
 62
4
 10
-3.72472588E-01
 20
2.27220508E+02
  0
VERTEX
  8
0
 62
4
 10
-3.01940581E-01
 20
2.27152077E+02
  0
VERTEX
  8
0
 62
4
 10
-2.16900430E-01
 20
2.27086542E+02
  0
VERTEX
  8
0
 62
4
 10
-1.18036829E-01
 20
2.27024433E+02
  0
VERTEX
  8
0
 62
4
 10
-6.14576899E-03
 20
2.26966249E+02
  0
VERTEX
  8
0
 62
4
 10
1.17871868E-01
 20
2.26912458E+02
  0
VERTEX
  8
0
 62
4
 10
2.53017566E-01
 20
2.26863494E+02
  0
VERTEX
  8
0
 62
4
 10
3.98203211E-01
 20
2.26819750E+02
  0
VERTEX
  8
0
 62
4
 10
5.52259853E-01
 20
2.26781580E+02
  0
VERTEX
  8
0
 62
4
 10
7.13947120E-01
 20
2.26749290E+02
  0
VERTEX
  8
0
 62
4
 10
8.81963199E-01
 20
2.26723141E+02
  0
VERTEX
  8
0
 62
4
 10
1.05495532E+00
 20
2.26703342E+02
  0
VERTEX
  8
0
 62
4
 10
1.23153067E+00
 20
2.26690054E+02
  0
VERTEX
  8
0
 62
4
 10
1.41026754E+00
 20
2.26683383E+02
  0
VERTEX
  8
0
 62
4
 10
1.58972687E+00
 20
2.26683383E+02
  0
VERTEX
  8
0
 62
4
 10
1.76846374E+00
 20
2.26690054E+02
  0
VERTEX
  8
0
 62
4
 10
1.94503909E+00
 20
2.26703342E+02
  0
VERTEX
  8
0
 62
4
 10
2.11803121E+00
 20
2.26723141E+02
  0
VERTEX
  8
0
 62
4
 10
2.28604729E+00
 20
2.26749290E+02
  0
VERTEX
  8
0
 62
4
 10
2.44773456E+00
 20
2.26781580E+02
  0
VERTEX
  8
0
 62
4
 10
2.60179120E+00
 20
2.26819750E+02
  0
VERTEX
  8
0
 62
4
 10
2.74697685E+00
 20
2.26863494E+02
  0
VERTEX
  8
0
 62
4
 10
2.88212254E+00
 20
2.26912458E+02
  0
VERTEX
  8
0
 62
4
 10
3.00614018E+00
 20
2.26966249E+02
  0
VERTEX
  8
0
 62
4
 10
3.11803124E+00
 20
2.27024433E+02
  0
VERTEX
  8
0
 62
4
 10
3.21689485E+00
 20
2.27086542E+02
  0
VERTEX
  8
0
 62
4
 10
3.30193500E+00
 20
2.27152077E+02
  0
VERTEX
  8
0
 62
4
 10
3.37246700E+00
 20
2.27220508E+02
  0
VERTEX
  8
0
 62
4
 10
3.42792299E+00
 20
2.27291287E+02
  0
VERTEX
  8
0
 62
4
 10
3.46785644E+00
 20
2.27363841E+02
  0
VERTEX
  8
0
 62
4
 10
3.49194586E+00
 20
2.27437588E+02
  0
VERTEX
  8
0
 62
4
 10
3.49999727E+00
 20
2.27511934E+02
  0
SEQEND
  8
0
  0
LINE
  8
0
 62
6
 10
-8.00000273E+00
 20
2.26963346E+02
 11
-8.00000273E+00
 21
2.28017928E+02
  0
LINE
  8
0
 62
4
 10
-8.50000273E+00
 20
2.27511934E+02
 11
-8.50000273E+00
 21
2.28017928E+02
  0
POLYLINE
  8
0
 62
4
 66
1
  0
VERTEX
  8
0
 62
4
 10
-8.50000285E+00
 20
2.27511934E+02
  0
VERTEX
  8
0
 62
4
 10
-8.49195144E+00
 20
2.27437588E+02
  0
VERTEX
  8
0
 62
4
 10
-8.46786203E+00
 20
2.27363841E+02
  0
VERTEX
  8
0
 62
4
 10
-8.42792857E+00
 20
2.27291287E+02
  0
VERTEX
  8
0
 62
4
 10
-8.37247259E+00
 20
2.27220508E+02
  0
VERTEX
  8
0
 62
4
 10
-8.30194058E+00
 20
2.27152077E+02
  0
VERTEX
  8
0
 62
4
 10
-8.21690043E+00
 20
2.27086542E+02
  0
VERTEX
  8
0
 62
4
 10
-8.11803683E+00
 20
2.27024433E+02
  0
VERTEX
  8
0
 62
4
 10
-8.00614577E+00
 20
2.26966249E+02
  0
VERTEX
  8
0
 62
4
 10
-7.88212813E+00
 20
2.26912458E+02
  0
VERTEX
  8
0
 62
4
 10
-7.74698243E+00
 20
2.26863494E+02
  0
VERTEX
  8
0
 62
4
 10
-7.60179679E+00
 20
2.26819750E+02
  0
VERTEX
  8
0
 62
4
 10
-7.44774015E+00
 20
2.26781580E+02
  0
VERTEX
  8
0
 62
4
 10
-7.28605288E+00
 20
2.26749290E+02
  0
VERTEX
  8
0
 62
4
 10
-7.11803680E+00
 20
2.26723141E+02
  0
VERTEX
  8
0
 62
4
 10
-6.94504468E+00
 20
2.26703342E+02
  0
VERTEX
  8
0
 62
4
 10
-6.76846933E+00
 20
2.26690054E+02
  0
VERTEX
  8
0
 62
4
 10
-6.58973246E+00
 20
2.26683383E+02
  0
VERTEX
  8
0
 62
4
 10
-6.41027313E+00
 20
2.26683383E+02
  0
VERTEX
  8
0
 62
4
 10
-6.23153626E+00
 20
2.26690054E+02
  0
VERTEX
  8
0
 62
4
 10
-6.05496091E+00
 20
2.26703342E+02
  0
VERTEX
  8
0
 62
4
 10
-5.88196879E+00
 20
2.26723141E+02
  0
VERTEX
  8
0
 62
4
 10
-5.71395271E+00
 20
2.26749290E+02
  0
VERTEX
  8
0
 62
4
 10
-5.55226544E+00
 20
2.26781580E+02
  0
VERTEX
  8
0
 62
4
 10
-5.39820880E+00
 20
2.26819750E+02
  0
VERTEX
  8
0
 62
4
 10
-5.25302315E+00
 20
2.26863494E+02
  0
VERTEX
  8
0
 62
4
 10
-5.11787746E+00
 20
2.26912458E+02
  0
VERTEX
  8
0
 62
4
 10
-4.99385982E+00
 20
2.26966249E+02
  0
VERTEX
  8
0
 62
4
 10
-4.88196876E+00
 20
2.27024433E+02
  0
VERTEX
  8
0
 62
4
 10
-4.78310515E+00
 20
2.27086542E+02
  0
VERTEX
  8
0
 62
4
 10
-4.69806500E+00
 20
2.27152077E+02
  0
VERTEX
  8
0
 62
4
 10
-4.62753300E+00
 20
2.27220508E+02
  0
VERTEX
  8
0
 62
4
 10
-4.57207701E+00
 20
2.27291287E+02
  0
VERTEX
  8
0
 62
4
 10
-4.53214356E+00
 20
2.27363841E+02
  0
VERTEX
  8
0
 62
4
 10
-4.50805414E+00
 20
2.27437588E+02
  0
VERTEX
  8
0
 62
4
 10
-4.50000273E+00
 20
2.27511934E+02
  0
SEQEND
  8
0
  0
LINE
  8
0
 62
6
 10
-5.00000273E+00
 20
2.26963346E+02
 11
-5.00000273E+00
 21
2.28017928E+02
  0
LINE
  8
0
 62
4
 10
-4.50000273E+00
 20
2.27511934E+02
 11
-4.50000273E+00
 21
2.28017928E+02
  0
LINE
  8
0
 62
4
 10
4.99999726E+00
 20
2.28017928E+02
 11
-1.00000028E+01
 21
2.28017928E+02
  0
LINE
  8
0
 62
4
 10
4.99999726E+00
 20
2.34761836E+02
 11
-1.00000027E+01
 21
2.34761836E+02
  0
LINE
  8
0
 62
4
 10
1.99999973E+01
 20
2.41131565E+02
 11
-1.00000028E+01
 21
2.41131565E+02
  0
LINE
  8
0
 62
4
 10
1.99999973E+01
 20
2.50504166E+02
 11
-1.00000027E+01
 21
2.50504166E+02
  0
LINE
  8
0
 62
4
 10
1.99999973E+01
 20
2.57139258E+02
 11
7.51092763E+00
 21
2.57139258E+02
  0
LINE
  8
0
 62
4
 10
1.99999972E+01
 20
2.51566469E+02
 11
2.14999972E+01
 21
2.52714369E+02
  0
LINE
  8
0
 62
4
 10
1.99999973E+01
 20
2.55206314E+02
 11
9.14999724E+00
 21
2.55206314E+02
  0
LINE
  8
0
 62
4
 10
2.14999972E+01
 20
2.54775431E+02
 11
1.99999972E+01
 21
2.55206314E+02
  0
LINE
  8
0
 62
4
 10
1.99999973E+01
 20
2.56865087E+02
 11
8.19948805E+00
 21
2.56865087E+02
  0
LINE
  8
0
 62
4
 10
2.14999972E+01
 20
2.55714711E+02
 11
1.99999972E+01
 21
2.56865087E+02
  0
LINE
  8
0
 62
4
 10
1.99999973E+01
 20
2.54816976E+02
 11
9.14999724E+00
 21
2.54816976E+02
  0
LINE
  8
0
 62
4
 10
1.99999972E+01
 20
2.54816976E+02
 11
1.99999972E+01
 21
2.56865087E+02
  0
LINE
  8
0
 62
4
 10
1.99999972E+01
 20
2.56865087E+02
 11
1.99999972E+01
 21
2.57139258E+02
  0
LINE
  8
0
 62
4
 10
1.29999724E+00
 20
2.52370285E+02
 11
1.29999724E+00
 21
2.53280247E+02
  0
LINE
  8
0
 62
4
 10
-6.30000276E+00
 20
2.53280247E+02
 11
-6.30000276E+00
 21
2.52370285E+02
  0
LINE
  8
0
 62
4
 10
8.99997239E-01
 20
2.53280247E+02
 11
8.99997239E-01
 21
2.54309233E+02
  0
LINE
  8
0
 62
4
 10
-5.90000276E+00
 20
2.53280247E+02
 11
-5.90000276E+00
 21
2.54309233E+02
  0
LINE
  8
0
 62
4
 10
8.49997239E-01
 20
2.54550148E+02
 11
8.49997239E-01
 21
2.55769029E+02
  0
LINE
  8
0
 62
4
 10
9.14999724E+00
 20
2.55769029E+02
 11
9.14999724E+00
 21
2.54167497E+02
  0
POLYLINE
  8
0
 62
4
 66
1
  0
VERTEX
  8
0
 62
4
 10
1.29999725E+00
 20
2.53191433E+02
  0
VERTEX
  8
0
 62
4
 10
1.44989791E+00
 20
2.53057416E+02
  0
VERTEX
  8
0
 62
4
 10
1.62795747E+00
 20
2.52929461E+02
  0
VERTEX
  8
0
 62
4
 10
1.83276359E+00
 20
2.52808584E+02
  0
VERTEX
  8
0
 62
4
 10
2.06269176E+00
 20
2.52695743E+02
  0
VERTEX
  8
0
 62
4
 10
2.31591823E+00
 20
2.52591832E+02
  0
VERTEX
  8
0
 62
4
 10
2.59043444E+00
 20
2.52497677E+02
  0
VERTEX
  8
0
 62
4
 10
2.88406297E+00
 20
2.52414024E+02
  0
VERTEX
  8
0
 62
4
 10
3.19447480E+00
 20
2.52341537E+02
  0
VERTEX
  8
0
 62
4
 10
3.51920778E+00
 20
2.52280790E+02
  0
VERTEX
  8
0
 62
4
 10
3.85568618E+00
 20
2.52232265E+02
  0
VERTEX
  8
0
 62
4
 10
4.20124109E+00
 20
2.52196348E+02
  0
VERTEX
  8
0
 62
4
 10
4.55313163E+00
 20
2.52173323E+02
  0
VERTEX
  8
0
 62
4
 10
4.90856664E+00
 20
2.52163372E+02
  0
VERTEX
  8
0
 62
4
 10
5.26472687E+00
 20
2.52166576E+02
  0
VERTEX
  8
0
 62
4
 10
5.61878730E+00
 20
2.52182908E+02
  0
VERTEX
  8
0
 62
4
 10
5.96793957E+00
 20
2.52212238E+02
  0
VERTEX
  8
0
 62
4
 10
6.30941426E+00
 20
2.52254335E+02
  0
VERTEX
  8
0
 62
4
 10
6.64050283E+00
 20
2.52308863E+02
  0
VERTEX
  8
0
 62
4
 10
6.95857914E+00
 20
2.52375392E+02
  0
VERTEX
  8
0
 62
4
 10
7.26112025E+00
 20
2.52453393E+02
  0
VERTEX
  8
0
 62
4
 10
7.54572645E+00
 20
2.52542246E+02
  0
VERTEX
  8
0
 62
4
 10
7.81014028E+00
 20
2.52641249E+02
  0
VERTEX
  8
0
 62
4
 10
8.05226444E+00
 20
2.52749614E+02
  0
VERTEX
  8
0
 62
4
 10
8.27017844E+00
 20
2.52866484E+02
  0
VERTEX
  8
0
 62
4
 10
8.46215382E+00
 20
2.52990930E+02
  0
VERTEX
  8
0
 62
4
 10
8.62666785E+00
 20
2.53121966E+02
  0
VERTEX
  8
0
 62
4
 10
8.76241564E+00
 20
2.53258552E+02
  0
VERTEX
  8
0
 62
4
 10
8.86832044E+00
 20
2.53399605E+02
  0
VERTEX
  8
0
 62
4
 10
8.94354224E+00
 20
2.53544006E+02
  0
VERTEX
  8
0
 62
4
 10
8.98748439E+00
 20
2.53690610E+02
  0
SEQEND
  8
0
  0
POLYLINE
  8
0
 62
4
 66
1
  0
VERTEX
  8
0
 62
4
 10
1.28962273E+00
 20
2.53396611E+02
  0
VERTEX
  8
0
 62
4
 10
1.47005356E+00
 20
2.53262553E+02
  0
VERTEX
  8
0
 62
4
 10
1.67857614E+00
 20
2.53135697E+02
  0
VERTEX
  8
0
 62
4
 10
1.91353101E+00
 20
2.53017052E+02
  0
VERTEX
  8
0
 62
4
 10
2.17304837E+00
 20
2.52907562E+02
  0
VERTEX
  8
0
 62
4
 10
2.45506296E+00
 20
2.52808099E+02
  0
VERTEX
  8
0
 62
4
 10
2.75733045E+00
 20
2.52719455E+02
  0
VERTEX
  8
0
 62
4
 10
3.07744538E+00
 20
2.52642334E+02
  0
VERTEX
  8
0
 62
4
 10
3.41286021E+00
 20
2.52577350E+02
  0
VERTEX
  8
0
 62
4
 10
3.76090569E+00
 20
2.52525021E+02
  0
VERTEX
  8
0
 62
4
 10
4.11881202E+00
 20
2.52485763E+02
  0
VERTEX
  8
0
 62
4
 10
4.48373093E+00
 20
2.52459889E+02
  0
VERTEX
  8
0
 62
4
 10
4.85275835E+00
 20
2.52447604E+02
  0
VERTEX
  8
0
 62
4
 10
5.22295752E+00
 20
2.52449006E+02
  0
VERTEX
  8
0
 62
4
 10
5.59138234E+00
 20
2.52464084E+02
  0
VERTEX
  8
0
 62
4
 10
5.95510085E+00
 20
2.52492718E+02
  0
VERTEX
  8
0
 62
4
 10
6.31121851E+00
 20
2.52534680E+02
  0
VERTEX
  8
0
 62
4
 10
6.65690132E+00
 20
2.52589636E+02
  0
VERTEX
  8
0
 62
4
 10
6.98939826E+00
 20
2.52657149E+02
  0
VERTEX
  8
0
 62
4
 10
7.30606330E+00
 20
2.52736682E+02
  0
VERTEX
  8
0
 62
4
 10
7.60437638E+00
 20
2.52827601E+02
  0
VERTEX
  8
0
 62
4
 10
7.88196347E+00
 20
2.52929183E+02
  0
VERTEX
  8
0
 62
4
 10
8.13661550E+00
 20
2.53040620E+02
  0
VERTEX
  8
0
 62
4
 10
8.36630593E+00
 20
2.53161025E+02
  0
VERTEX
  8
0
 62
4
 10
8.56920684E+00
 20
2.53289439E+02
  0
VERTEX
  8
0
 62
4
 10
8.74370352E+00
 20
2.53424841E+02
  0
VERTEX
  8
0
 62
4
 10
8.88840731E+00
 20
2.53566154E+02
  0
VERTEX
  8
0
 62
4
 10
9.00216664E+00
 20
2.53712251E+02
  0
VERTEX
  8
0
 62
4
 10
9.08407620E+00
 20
2.53861972E+02
  0
VERTEX
  8
0
 62
4
 10
9.13348413E+00
 20
2.54014124E+02
  0
VERTEX
  8
0
 62
4
 10
9.14999724E+00
 20
2.54167497E+02
  0
SEQEND
  8
0
  0
POLYLINE
  8
0
 62
4
 66
1
  0
VERTEX
  8
0
 62
4
 10
9.14999724E+00
 20
2.55769029E+02
  0
VERTEX
  8
0
 62
4
 10
9.13420524E+00
 20
2.55919022E+02
  0
VERTEX
  8
0
 62
4
 10
9.08694941E+00
 20
2.56067874E+02
  0
VERTEX
  8
0
 62
4
 10
9.00858942E+00
 20
2.56214451E+02
  0
VERTEX
  8
0
 62
4
 10
8.89972162E+00
 20
2.56357638E+02
  0
VERTEX
  8
0
 62
4
 10
8.76117456E+00
 20
2.56496345E+02
  0
VERTEX
  8
0
 62
4
 10
8.59400267E+00
 20
2.56629517E+02
  0
VERTEX
  8
0
 62
4
 10
8.39947822E+00
 20
2.56756141E+02
  0
VERTEX
  8
0
 62
4
 10
8.17908168E+00
 20
2.56875252E+02
  0
VERTEX
  8
0
 62
4
 10
7.93449038E+00
 20
2.56985943E+02
  0
VERTEX
  8
0
 62
4
 10
7.66756582E+00
 20
2.57087374E+02
  0
VERTEX
  8
0
 62
4
 10
7.38033945E+00
 20
2.57178771E+02
  0
VERTEX
  8
0
 62
4
 10
7.07499724E+00
 20
2.57259439E+02
  0
VERTEX
  8
0
 62
4
 10
6.75386302E+00
 20
2.57328764E+02
  0
VERTEX
  8
0
 62
4
 10
6.41938083E+00
 20
2.57386218E+02
  0
VERTEX
  8
0
 62
4
 10
6.07409627E+00
 20
2.57431365E+02
  0
VERTEX
  8
0
 62
4
 10
5.72063717E+00
 20
2.57463860E+02
  0
VERTEX
  8
0
 62
4
 10
5.36169357E+00
 20
2.57483457E+02
  0
VERTEX
  8
0
 62
4
 10
4.99999724E+00
 20
2.57490006E+02
  0
VERTEX
  8
0
 62
4
 10
4.63830090E+00
 20
2.57483457E+02
  0
VERTEX
  8
0
 62
4
 10
4.27935730E+00
 20
2.57463860E+02
  0
VERTEX
  8
0
 62
4
 10
3.92589820E+00
 20
2.57431365E+02
  0
VERTEX
  8
0
 62
4
 10
3.58061364E+00
 20
2.57386218E+02
  0
VERTEX
  8
0
 62
4
 10
3.24613145E+00
 20
2.57328764E+02
  0
VERTEX
  8
0
 62
4
 10
2.92499724E+00
 20
2.57259439E+02
  0
VERTEX
  8
0
 62
4
 10
2.61965503E+00
 20
2.57178771E+02
  0
VERTEX
  8
0
 62
4
 10
2.33242866E+00
 20
2.57087374E+02
  0
VERTEX
  8
0
 62
4
 10
2.06550409E+00
 20
2.56985943E+02
  0
VERTEX
  8
0
 62
4
 10
1.82091280E+00
 20
2.56875252E+02
  0
VERTEX
  8
0
 62
4
 10
1.60051625E+00
 20
2.56756141E+02
  0
VERTEX
  8
0
 62
4
 10
1.40599181E+00
 20
2.56629517E+02
  0
VERTEX
  8
0
 62
4
 10
1.23881992E+00
 20
2.56496345E+02
  0
VERTEX
  8
0
 62
4
 10
1.10027286E+00
 20
2.56357638E+02
  0
VERTEX
  8
0
 62
4
 10
9.91405060E-01
 20
2.56214451E+02
  0
VERTEX
  8
0
 62
4
 10
9.13045064E-01
 20
2.56067874E+02
  0
VERTEX
  8
0
 62
4
 10
8.65789242E-01
 20
2.55919022E+02
  0
VERTEX
  8
0
 62
4
 10
8.49997240E-01
 20
2.55769029E+02
  0
VERTEX
  8
0
 62
4
 10
8.65789243E-01
 20
2.55619036E+02
  0
VERTEX
  8
0
 62
4
 10
9.13045066E-01
 20
2.55470184E+02
  0
VERTEX
  8
0
 62
4
 10
9.91405063E-01
 20
2.55323607E+02
  0
VERTEX
  8
0
 62
4
 10
1.10027287E+00
 20
2.55180420E+02
  0
VERTEX
  8
0
 62
4
 10
1.23881993E+00
 20
2.55041713E+02
  0
VERTEX
  8
0
 62
4
 10
1.40599182E+00
 20
2.54908541E+02
  0
VERTEX
  8
0
 62
4
 10
1.60051626E+00
 20
2.54781917E+02
  0
VERTEX
  8
0
 62
4
 10
1.82091281E+00
 20
2.54662806E+02
  0
VERTEX
  8
0
 62
4
 10
2.06550410E+00
 20
2.54552115E+02
  0
VERTEX
  8
0
 62
4
 10
2.33242867E+00
 20
2.54450684E+02
  0
VERTEX
  8
0
 62
4
 10
2.61965504E+00
 20
2.54359287E+02
  0
VERTEX
  8
0
 62
4
 10
2.92499725E+00
 20
2.54278619E+02
  0
VERTEX
  8
0
 62
4
 10
3.24613146E+00
 20
2.54209294E+02
  0
VERTEX
  8
0
 62
4
 10
3.58061365E+00
 20
2.54151840E+02
  0
VERTEX
  8
0
 62
4
 10
3.92589821E+00
 20
2.54106693E+02
  0
VERTEX
  8
0
 62
4
 10
4.27935731E+00
 20
2.54074198E+02
  0
VERTEX
  8
0
 62
4
 10
4.63830092E+00
 20
2.54054601E+02
  0
VERTEX
  8
0
 62
4
 10
4.99999725E+00
 20
2.54048052E+02
  0
VERTEX
  8
0
 62
4
 10
5.36169358E+00
 20
2.54054601E+02
  0
VERTEX
  8
0
 62
4
 10
5.72063719E+00
 20
2.54074198E+02
  0
VERTEX
  8
0
 62
4
 10
6.07409629E+00
 20
2.54106693E+02
  0
VERTEX
  8
0
 62
4
 10
6.41938084E+00
 20
2.54151840E+02
  0
VERTEX
  8
0
 62
4
 10
6.75386303E+00
 20
2.54209294E+02
  0
VERTEX
  8
0
 62
4
 10
7.07499725E+00
 20
2.54278619E+02
  0
VERTEX
  8
0
 62
4
 10
7.38033946E+00
 20
2.54359287E+02
  0
VERTEX
  8
0
 62
4
 10
7.66756583E+00
 20
2.54450684E+02
  0
VERTEX
  8
0
 62
4
 10
7.93449039E+00
 20
2.54552115E+02
  0
VERTEX
  8
0
 62
4
 10
8.17908169E+00
 20
2.54662806E+02
  0
VERTEX
  8
0
 62
4
 10
8.39947823E+00
 20
2.54781917E+02
  0
VERTEX
  8
0
 62
4
 10
8.59400267E+00
 20
2.54908541E+02
  0
VERTEX
  8
0
 62
4
 10
8.76117456E+00
 20
2.55041713E+02
  0
VERTEX
  8
0
 62
4
 10
8.89972162E+00
 20
2.55180420E+02
  0
VERTEX
  8
0
 62
4
 10
9.00858942E+00
 20
2.55323607E+02
  0
VERTEX
  8
0
 62
4
 10
9.08694942E+00
 20
2.55470184E+02
  0
VERTEX
  8
0
 62
4
 10
9.13420524E+00
 20
2.55619036E+02
  0
VERTEX
  8
0
 62
4
 10
9.14999724E+00
 20
2.55769029E+02
  0
SEQEND
  8
0
  0
ARC
  8
0
 62
4
 10
1.13695979E+01
 20
2.40984410E+02
 40
1.67245585E+01
 50
1.05971208E+02
 51
1.19114206E+02
  0
ARC
  8
0
 62
4
 10
-1.36960681E+00
 20
2.40984401E+02
 40
1.67245676E+01
 50
6.08857978E+01
 51
7.40287885E+01
  0
POLYLINE
  8
0
 62
4
 66
1
  0
VERTEX
  8
0
 62
4
 10
-6.30000276E+00
 20
2.52370285E+02
  0
VERTEX
  8
0
 62
4
 10
-6.28470508E+00
 20
2.52229028E+02
  0
VERTEX
  8
0
 62
4
 10
-6.23893520E+00
 20
2.52088909E+02
  0
VERTEX
  8
0
 62
4
 10
-6.16306163E+00
 20
2.51951055E+02
  0
VERTEX
  8
0
 62
4
 10
-6.05769527E+00
 20
2.51816576E+02
  0
VERTEX
  8
0
 62
4
 10
-5.92368446E+00
 20
2.51686556E+02
  0
VERTEX
  8
0
 62
4
 10
-5.76210818E+00
 20
2.51562041E+02
  0
VERTEX
  8
0
 62
4
 10
-5.57426735E+00
 20
2.51444033E+02
  0
VERTEX
  8
0
 62
4
 10
-5.36167434E+00
 20
2.51333483E+02
  0
VERTEX
  8
0
 62
4
 10
-5.12604084E+00
 20
2.51231280E+02
  0
VERTEX
  8
0
 62
4
 10
-4.86926402E+00
 20
2.51138248E+02
  0
VERTEX
  8
0
 62
4
 10
-4.59341130E+00
 20
2.51055136E+02
  0
VERTEX
  8
0
 62
4
 10
-4.30070369E+00
 20
2.50982612E+02
  0
VERTEX
  8
0
 62
4
 10
-3.99349790E+00
 20
2.50921262E+02
  0
VERTEX
  8
0
 62
4
 10
-3.67426736E+00
 20
2.50871578E+02
  0
VERTEX
  8
0
 62
4
 10
-3.34558233E+00
 20
2.50833960E+02
  0
VERTEX
  8
0
 62
4
 10
-3.01008919E+00
 20
2.50808712E+02
  0
VERTEX
  8
0
 62
4
 10
-2.67048914E+00
 20
2.50796037E+02
  0
VERTEX
  8
0
 62
4
 10
-2.32951643E+00
 20
2.50796037E+02
  0
VERTEX
  8
0
 62
4
 10
-1.98991637E+00
 20
2.50808712E+02
  0
VERTEX
  8
0
 62
4
 10
-1.65442323E+00
 20
2.50833960E+02
  0
VERTEX
  8
0
 62
4
 10
-1.32573820E+00
 20
2.50871577E+02
  0
VERTEX
  8
0
 62
4
 10
-1.00650766E+00
 20
2.50921262E+02
  0
VERTEX
  8
0
 62
4
 10
-6.99301863E-01
 20
2.50982612E+02
  0
VERTEX
  8
0
 62
4
 10
-4.06594250E-01
 20
2.51055136E+02
  0
VERTEX
  8
0
 62
4
 10
-1.30741531E-01
 20
2.51138248E+02
  0
VERTEX
  8
0
 62
4
 10
1.26035289E-01
 20
2.51231280E+02
  0
VERTEX
  8
0
 62
4
 10
3.61668795E-01
 20
2.51333483E+02
  0
VERTEX
  8
0
 62
4
 10
5.74261804E-01
 20
2.51444033E+02
  0
VERTEX
  8
0
 62
4
 10
7.62102643E-01
 20
2.51562041E+02
  0
VERTEX
  8
0
 62
4
 10
9.23678927E-01
 20
2.51686556E+02
  0
VERTEX
  8
0
 62
4
 10
1.05768974E+00
 20
2.51816576E+02
  0
VERTEX
  8
0
 62
4
 10
1.16305610E+00
 20
2.51951055E+02
  0
VERTEX
  8
0
 62
4
 10
1.23892967E+00
 20
2.52088909E+02
  0
VERTEX
  8
0
 62
4
 10
1.28469955E+00
 20
2.52229028E+02
  0
VERTEX
  8
0
 62
4
 10
1.29999724E+00
 20
2.52370285E+02
  0
SEQEND
  8
0
  0
POLYLINE
  8
0
 62
4
 66
1
  0
VERTEX
  8
0
 62
4
 10
-5.90000277E+00
 20
2.53984005E+02
  0
VERTEX
  8
0
 62
4
 10
-6.03658443E+00
 20
2.53856744E+02
  0
VERTEX
  8
0
 62
4
 10
-6.14553230E+00
 20
2.53724978E+02
  0
VERTEX
  8
0
 62
4
 10
-6.22599508E+00
 20
2.53589737E+02
  0
VERTEX
  8
0
 62
4
 10
-6.27734406E+00
 20
2.53452079E+02
  0
VERTEX
  8
0
 62
4
 10
-6.29917801E+00
 20
2.53313077E+02
  0
VERTEX
  8
0
 62
4
 10
-6.29132634E+00
 20
2.53173819E+02
  0
VERTEX
  8
0
 62
4
 10
-6.25385039E+00
 20
2.53035393E+02
  0
VERTEX
  8
0
 62
4
 10
-6.18704298E+00
 20
2.52898879E+02
  0
VERTEX
  8
0
 62
4
 10
-6.09142614E+00
 20
2.52765346E+02
  0
VERTEX
  8
0
 62
4
 10
-5.96774698E+00
 20
2.52635836E+02
  0
VERTEX
  8
0
 62
4
 10
-5.81697190E+00
 20
2.52511361E+02
  0
VERTEX
  8
0
 62
4
 10
-5.64027900E+00
 20
2.52392894E+02
  0
VERTEX
  8
0
 62
4
 10
-5.43904892E+00
 20
2.52281361E+02
  0
VERTEX
  8
0
 62
4
 10
-5.21485400E+00
 20
2.52177632E+02
  0
VERTEX
  8
0
 62
4
 10
-4.96944604E+00
 20
2.52082519E+02
  0
VERTEX
  8
0
 62
4
 10
-4.70474258E+00
 20
2.51996765E+02
  0
VERTEX
  8
0
 62
4
 10
-4.42281194E+00
 20
2.51921039E+02
  0
VERTEX
  8
0
 62
4
 10
-4.12585704E+00
 20
2.51855934E+02
  0
VERTEX
  8
0
 62
4
 10
-3.81619820E+00
 20
2.51801958E+02
  0
VERTEX
  8
0
 62
4
 10
-3.49625499E+00
 20
2.51759533E+02
  0
VERTEX
  8
0
 62
4
 10
-3.16852737E+00
 20
2.51728991E+02
  0
VERTEX
  8
0
 62
4
 10
-2.83557609E+00
 20
2.51710569E+02
  0
VERTEX
  8
0
 62
4
 10
-2.50000274E+00
 20
2.51704413E+02
  0
VERTEX
  8
0
 62
4
 10
-2.16442939E+00
 20
2.51710569E+02
  0
VERTEX
  8
0
 62
4
 10
-1.83147812E+00
 20
2.51728991E+02
  0
VERTEX
  8
0
 62
4
 10
-1.50375049E+00
 20
2.51759533E+02
  0
VERTEX
  8
0
 62
4
 10
-1.18380729E+00
 20
2.51801958E+02
  0
VERTEX
  8
0
 62
4
 10
-8.74148446E-01
 20
2.51855934E+02
  0
VERTEX
  8
0
 62
4
 10
-5.77193546E-01
 20
2.51921039E+02
  0
VERTEX
  8
0
 62
4
 10
-2.95262907E-01
 20
2.51996765E+02
  0
VERTEX
  8
0
 62
4
 10
-3.05594509E-02
 20
2.52082519E+02
  0
VERTEX
  8
0
 62
4
 10
2.14848507E-01
 20
2.52177632E+02
  0
VERTEX
  8
0
 62
4
 10
4.39043423E-01
 20
2.52281361E+02
  0
VERTEX
  8
0
 62
4
 10
6.40273504E-01
 20
2.52392894E+02
  0
VERTEX
  8
0
 62
4
 10
8.16966398E-01
 20
2.52511361E+02
  0
VERTEX
  8
0
 62
4
 10
9.67741478E-01
 20
2.52635836E+02
  0
VERTEX
  8
0
 62
4
 10
1.09142063E+00
 20
2.52765346E+02
  0
VERTEX
  8
0
 62
4
 10
1.18703747E+00
 20
2.52898879E+02
  0
VERTEX
  8
0
 62
4
 10
1.25384487E+00
 20
2.53035393E+02
  0
VERTEX
  8
0
 62
4
 10
1.29132082E+00
 20
2.53173819E+02
  0
VERTEX
  8
0
 62
4
 10
1.29917249E+00
 20
2.53313077E+02
  0
VERTEX
  8
0
 62
4
 10
1.27733853E+00
 20
2.53452079E+02
  0
VERTEX
  8
0
 62
4
 10
1.22598955E+00
 20
2.53589737E+02
  0
VERTEX
  8
0
 62
4
 10
1.14552677E+00
 20
2.53724978E+02
  0
VERTEX
  8
0
 62
4
 10
1.03657890E+00
 20
2.53856744E+02
  0
VERTEX
  8
0
 62
4
 10
8.99997232E-01
 20
2.53984005E+02
  0
SEQEND
  8
0
  0
POLYLINE
  8
0
 62
4
 66
1
  0
VERTEX
  8
0
 62
4
 10
-5.90000276E+00
 20
2.53280247E+02
  0
VERTEX
  8
0
 62
4
 10
-5.88631536E+00
 20
2.53153859E+02
  0
VERTEX
  8
0
 62
4
 10
-5.84536336E+00
 20
2.53028489E+02
  0
VERTEX
  8
0
 62
4
 10
-5.77747649E+00
 20
2.52905146E+02
  0
VERTEX
  8
0
 62
4
 10
-5.68320132E+00
 20
2.52784824E+02
  0
VERTEX
  8
0
 62
4
 10
-5.56329692E+00
 20
2.52668490E+02
  0
VERTEX
  8
0
 62
4
 10
-5.41872867E+00
 20
2.52557081E+02
  0
VERTEX
  8
0
 62
4
 10
-5.25066055E+00
 20
2.52451495E+02
  0
VERTEX
  8
0
 62
4
 10
-5.06044575E+00
 20
2.52352582E+02
  0
VERTEX
  8
0
 62
4
 10
-4.84961578E+00
 20
2.52261137E+02
  0
VERTEX
  8
0
 62
4
 10
-4.61986810E+00
 20
2.52177898E+02
  0
VERTEX
  8
0
 62
4
 10
-4.37305251E+00
 20
2.52103535E+02
  0
VERTEX
  8
0
 62
4
 10
-4.11115623E+00
 20
2.52038645E+02
  0
VERTEX
  8
0
 62
4
 10
-3.83628788E+00
 20
2.51983752E+02
  0
VERTEX
  8
0
 62
4
 10
-3.55066056E+00
 20
2.51939298E+02
  0
VERTEX
  8
0
 62
4
 10
-3.25657395E+00
 20
2.51905641E+02
  0
VERTEX
  8
0
 62
4
 10
-2.95639588E+00
 20
2.51883050E+02
  0
VERTEX
  8
0
 62
4
 10
-2.65254320E+00
 20
2.51871710E+02
  0
VERTEX
  8
0
 62
4
 10
-2.34746236E+00
 20
2.51871710E+02
  0
VERTEX
  8
0
 62
4
 10
-2.04360967E+00
 20
2.51883050E+02
  0
VERTEX
  8
0
 62
4
 10
-1.74343160E+00
 20
2.51905641E+02
  0
VERTEX
  8
0
 62
4
 10
-1.44934500E+00
 20
2.51939298E+02
  0
VERTEX
  8
0
 62
4
 10
-1.16371767E+00
 20
2.51983752E+02
  0
VERTEX
  8
0
 62
4
 10
-8.88849325E-01
 20
2.52038645E+02
  0
VERTEX
  8
0
 62
4
 10
-6.26953040E-01
 20
2.52103535E+02
  0
VERTEX
  8
0
 62
4
 10
-3.80137450E-01
 20
2.52177898E+02
  0
VERTEX
  8
0
 62
4
 10
-1.50389769E-01
 20
2.52261137E+02
  0
VERTEX
  8
0
 62
4
 10
6.04402102E-02
 20
2.52352582E+02
  0
VERTEX
  8
0
 62
4
 10
2.50655008E-01
 20
2.52451495E+02
  0
VERTEX
  8
0
 62
4
 10
4.18723127E-01
 20
2.52557081E+02
  0
VERTEX
  8
0
 62
4
 10
5.63291381E-01
 20
2.52668490E+02
  0
VERTEX
  8
0
 62
4
 10
6.83195792E-01
 20
2.52784824E+02
  0
VERTEX
  8
0
 62
4
 10
7.77470960E-01
 20
2.52905146E+02
  0
VERTEX
  8
0
 62
4
 10
8.45357837E-01
 20
2.53028489E+02
  0
VERTEX
  8
0
 62
4
 10
8.86309837E-01
 20
2.53153859E+02
  0
VERTEX
  8
0
 62
4
 10
8.99997240E-01
 20
2.53280247E+02
  0
SEQEND
  8
0
  0
POLYLINE
  8
0
 62
4
 66
1
  0
VERTEX
  8
0
 62
4
 10
8.99997240E-01
 20
2.54309233E+02
  0
VERTEX
  8
0
 62
4
 10
8.87059214E-01
 20
2.54432119E+02
  0
VERTEX
  8
0
 62
4
 10
8.48343600E-01
 20
2.54554069E+02
  0
VERTEX
  8
0
 62
4
 10
7.84145049E-01
 20
2.54674157E+02
  0
VERTEX
  8
0
 62
4
 10
6.94952150E-01
 20
2.54791467E+02
  0
VERTEX
  8
0
 62
4
 10
5.81443716E-01
 20
2.54905107E+02
  0
VERTEX
  8
0
 62
4
 10
4.44483612E-01
 20
2.55014212E+02
  0
VERTEX
  8
0
 62
4
 10
2.85114190E-01
 20
2.55117951E+02
  0
VERTEX
  8
0
 62
4
 10
1.04548346E-01
 20
2.55215536E+02
  0
VERTEX
  8
0
 62
4
 10
-9.58397048E-02
 20
2.55306223E+02
  0
VERTEX
  8
0
 62
4
 10
-3.14524888E-01
 20
2.55389323E+02
  0
VERTEX
  8
0
 62
4
 10
-5.49842878E-01
 20
2.55464202E+02
  0
VERTEX
  8
0
 62
4
 10
-8.00002761E-01
 20
2.55530292E+02
  0
VERTEX
  8
0
 62
4
 10
-1.06310067E+00
 20
2.55587088E+02
  0
VERTEX
  8
0
 62
4
 10
-1.33713427E+00
 20
2.55634159E+02
  0
VERTEX
  8
0
 62
4
 10
-1.62001801E+00
 20
2.55671147E+02
  0
VERTEX
  8
0
 62
4
 10
-1.90959896E+00
 20
2.55697770E+02
  0
VERTEX
  8
0
 62
4
 10
-2.20367324E+00
 20
2.55713825E+02
  0
VERTEX
  8
0
 62
4
 10
-2.50000276E+00
 20
2.55719190E+02
  0
VERTEX
  8
0
 62
4
 10
-2.79633229E+00
 20
2.55713825E+02
  0
VERTEX
  8
0
 62
4
 10
-3.09040657E+00
 20
2.55697770E+02
  0
VERTEX
  8
0
 62
4
 10
-3.37998752E+00
 20
2.55671147E+02
  0
VERTEX
  8
0
 62
4
 10
-3.66287125E+00
 20
2.55634159E+02
  0
VERTEX
  8
0
 62
4
 10
-3.93690485E+00
 20
2.55587088E+02
  0
VERTEX
  8
0
 62
4
 10
-4.20000276E+00
 20
2.55530292E+02
  0
VERTEX
  8
0
 62
4
 10
-4.45016265E+00
 20
2.55464202E+02
  0
VERTEX
  8
0
 62
4
 10
-4.68548064E+00
 20
2.55389323E+02
  0
VERTEX
  8
0
 62
4
 10
-4.90416582E+00
 20
2.55306223E+02
  0
VERTEX
  8
0
 62
4
 10
-5.10455387E+00
 20
2.55215536E+02
  0
VERTEX
  8
0
 62
4
 10
-5.28511971E+00
 20
2.55117951E+02
  0
VERTEX
  8
0
 62
4
 10
-5.44448913E+00
 20
2.55014212E+02
  0
VERTEX
  8
0
 62
4
 10
-5.58144924E+00
 20
2.54905107E+02
  0
VERTEX
  8
0
 62
4
 10
-5.69495767E+00
 20
2.54791467E+02
  0
VERTEX
  8
0
 62
4
 10
-5.78415057E+00
 20
2.54674157E+02
  0
VERTEX
  8
0
 62
4
 10
-5.84834912E+00
 20
2.54554069E+02
  0
VERTEX
  8
0
 62
4
 10
-5.88706473E+00
 20
2.54432119E+02
  0
VERTEX
  8
0
 62
4
 10
-5.90000276E+00
 20
2.54309233E+02
  0
VERTEX
  8
0
 62
4
 10
-5.88706473E+00
 20
2.54186347E+02
  0
VERTEX
  8
0
 62
4
 10
-5.84834912E+00
 20
2.54064397E+02
  0
VERTEX
  8
0
 62
4
 10
-5.78415057E+00
 20
2.53944309E+02
  0
VERTEX
  8
0
 62
4
 10
-5.69495767E+00
 20
2.53826999E+02
  0
VERTEX
  8
0
 62
4
 10
-5.58144923E+00
 20
2.53713359E+02
  0
VERTEX
  8
0
 62
4
 10
-5.44448913E+00
 20
2.53604254E+02
  0
VERTEX
  8
0
 62
4
 10
-5.28511971E+00
 20
2.53500515E+02
  0
VERTEX
  8
0
 62
4
 10
-5.10455386E+00
 20
2.53402930E+02
  0
VERTEX
  8
0
 62
4
 10
-4.90416581E+00
 20
2.53312243E+02
  0
VERTEX
  8
0
 62
4
 10
-4.68548063E+00
 20
2.53229143E+02
  0
VERTEX
  8
0
 62
4
 10
-4.45016264E+00
 20
2.53154264E+02
  0
VERTEX
  8
0
 62
4
 10
-4.20000275E+00
 20
2.53088174E+02
  0
VERTEX
  8
0
 62
4
 10
-3.93690484E+00
 20
2.53031378E+02
  0
VERTEX
  8
0
 62
4
 10
-3.66287124E+00
 20
2.52984307E+02
  0
VERTEX
  8
0
 62
4
 10
-3.37998751E+00
 20
2.52947319E+02
  0
VERTEX
  8
0
 62
4
 10
-3.09040656E+00
 20
2.52920696E+02
  0
VERTEX
  8
0
 62
4
 10
-2.79633228E+00
 20
2.52904641E+02
  0
VERTEX
  8
0
 62
4
 10
-2.50000275E+00
 20
2.52899276E+02
  0
VERTEX
  8
0
 62
4
 10
-2.20367323E+00
 20
2.52904641E+02
  0
VERTEX
  8
0
 62
4
 10
-1.90959895E+00
 20
2.52920696E+02
  0
VERTEX
  8
0
 62
4
 10
-1.62001800E+00
 20
2.52947319E+02
  0
VERTEX
  8
0
 62
4
 10
-1.33713427E+00
 20
2.52984307E+02
  0
VERTEX
  8
0
 62
4
 10
-1.06310066E+00
 20
2.53031378E+02
  0
VERTEX
  8
0
 62
4
 10
-8.00002753E-01
 20
2.53088174E+02
  0
VERTEX
  8
0
 62
4
 10
-5.49842870E-01
 20
2.53154264E+02
  0
VERTEX
  8
0
 62
4
 10
-3.14524881E-01
 20
2.53229143E+02
  0
VERTEX
  8
0
 62
4
 10
-9.58396980E-02
 20
2.53312243E+02
  0
VERTEX
  8
0
 62
4
 10
1.04548352E-01
 20
2.53402930E+02
  0
VERTEX
  8
0
 62
4
 10
2.85114196E-01
 20
2.53500515E+02
  0
VERTEX
  8
0
 62
4
 10
4.44483617E-01
 20
2.53604254E+02
  0
VERTEX
  8
0
 62
4
 10
5.81443720E-01
 20
2.53713359E+02
  0
VERTEX
  8
0
 62
4
 10
6.94952154E-01
 20
2.53826999E+02
  0
VERTEX
  8
0
 62
4
 10
7.84145052E-01
 20
2.53944309E+02
  0
VERTEX
  8
0
 62
4
 10
8.48343602E-01
 20
2.54064397E+02
  0
VERTEX
  8
0
 62
4
 10
8.87059214E-01
 20
2.54186347E+02
  0
VERTEX
  8
0
 62
4
 10
8.99997240E-01
 20
2.54309233E+02
  0
SEQEND
  8
0
  0
ARC
  8
0
 62
4
 10
3.74705545E+00
 20
2.40279330E+02
 40
1.64201370E+01
 50
1.10122188E+02
 51
1.19216401E+02
  0
ARC
  8
0
 62
4
 10
-8.74706157E+00
 20
2.40279328E+02
 40
1.64201386E+01
 50
6.07835994E+01
 51
6.98778124E+01
  0
LINE
  8
0
  6
CENTER
 62
6
 10
1.49999972E+01
 20
2.52370285E+02
 11
9.99999724E+00
 21
2.52370285E+02
  0
LINE
  8
0
 62
4
 10
-5.67189347E+00
 20
2.54816976E+02
 11
-1.00000028E+01
 21
2.54816976E+02
  0
LINE
  8
0
 62
4
 10
8.49997239E-01
 20
2.54816976E+02
 11
6.71887949E-01
 21
2.54816976E+02
  0
LINE
  8
0
 62
4
 10
8.49997239E-01
 20
2.55206314E+02
 11
1.23046560E-01
 21
2.55206314E+02
  0
LINE
  8
0
 62
4
 10
1.80050643E+00
 20
2.56865087E+02
 11
-5.00000276E+00
 21
2.56865087E+02
  0
LINE
  8
0
 62
4
 10
2.48906684E+00
 20
2.57139258E+02
 11
-1.00000027E+01
 21
2.57139258E+02
  0
LINE
  8
0
  6
CENTER
 62
6
 10
4.99999724E+00
 20
2.51321712E+02
 11
4.99999724E+00
 21
2.56321712E+02
  0
LINE
  8
0
  6
CENTER
 62
6
 10
7.49999724E+00
 20
2.53821712E+02
 11
2.49999724E+00
 21
2.53821712E+02
  0
LINE
  8
0
  6
CENTER
 62
6
 10
-2.50000276E+00
 20
2.49870285E+02
 11
-2.50000276E+00
 21
2.54870285E+02
  0
LINE
  8
0
  6
CENTER
 62
6
 10
-2.76137143E-06
 20
2.52370285E+02
 11
-5.00000276E+00
 21
2.52370285E+02
  0
LINE
  8
0
 62
4
 10
-5.00000274E+00
 20
2.55715778E+02
 11
-1.00000027E+01
 21
2.55715778E+02
  0
LINE
  8
0
 62
7
 10
-6.89999972E+01
 20
3.18000000E+02
 11
-8.29999972E+01
 21
3.18000000E+02
  0
LINE
  8
0
 62
7
 10
-5.39999972E+01
 20
3.27000031E+02
 11
-8.29999972E+01
 21
3.27000031E+02
  0
LINE
  8
0
 62
7
 10
-4.89264245E+01
 20
3.34000000E+02
 11
-4.40735699E+01
 21
3.34000000E+02
  0
LINE
  8
0
 62
7
 10
-4.09264245E+01
 20
3.34000000E+02
 11
2.79999972E+01
 21
3.34000000E+02
  0
LINE
  8
0
 62
7
 10
-1.00000028E+01
 20
2.43000000E+02
 11
-8.29999972E+01
 21
2.43000000E+02
  0
LINE
  8
0
 62
7
 10
-1.00000028E+01
 20
2.33999954E+02
 11
-8.29999972E+01
 21
2.33999954E+02
  0
LINE
  8
0
 62
7
 10
-4.92648780E+00
 20
2.26999985E+02
 11
-7.35177813E-02
 21
2.26999985E+02
  0
LINE
  8
0
 62
7
 10
3.07351220E+00
 20
2.26999985E+02
 11
2.79999972E+01
 21
2.26999985E+02
  0
LINE
  8
0
  6
CENTER
 62
6
 10
-4.79999972E+01
 20
-2.45639053E+02
 11
-4.79999972E+01
 21
-2.50212543E+02
  0
LINE
  8
0
 62
4
 10
-9.09999972E+01
 20
-2.38514613E+02
 11
-8.59999972E+01
 21
-2.38514613E+02
  0
LINE
  8
0
 62
4
 10
-9.09999972E+01
 20
-2.32368941E+02
 11
-8.59999972E+01
 21
-2.32368941E+02
  0
LINE
  8
0
 62
4
 10
-9.09999972E+01
 20
-2.25562569E+02
 11
-8.59999972E+01
 21
-2.25562569E+02
  0
LINE
  8
0
 62
6
 10
-6.57149321E+01
 20
-2.54519549E+02
 11
-6.22850624E+01
 21
-2.51089675E+02
  0
LINE
  8
0
 62
6
 10
-6.22850599E+01
 20
-2.54519547E+02
 11
-6.57149345E+01
 21
-2.51089677E+02
  0
POLYLINE
  8
0
 62
4
 66
1
  0
VERTEX
  8
0
 62
4
 10
-6.73767718E+01
 20
-2.53708343E+02
  0
VERTEX
  8
0
 62
4
 10
-6.73986528E+01
 20
-2.53981255E+02
  0
VERTEX
  8
0
 62
4
 10
-6.73937342E+01
 20
-2.54254850E+02
  0
VERTEX
  8
0
 62
4
 10
-6.73620546E+01
 20
-2.54526971E+02
  0
VERTEX
  8
0
 62
4
 10
-6.73038640E+01
 20
-2.54795471E+02
  0
VERTEX
  8
0
 62
4
 10
-6.72196212E+01
 20
-2.55058235E+02
  0
VERTEX
  8
0
 62
4
 10
-6.71099905E+01
 20
-2.55313190E+02
  0
VERTEX
  8
0
 62
4
 10
-6.69758363E+01
 20
-2.55558325E+02
  0
VERTEX
  8
0
 62
4
 10
-6.68182165E+01
 20
-2.55791707E+02
  0
VERTEX
  8
0
 62
4
 10
-6.66383740E+01
 20
-2.56011497E+02
  0
VERTEX
  8
0
 62
4
 10
-6.64377269E+01
 20
-2.56215960E+02
  0
VERTEX
  8
0
 62
4
 10
-6.62178574E+01
 20
-2.56403486E+02
  0
VERTEX
  8
0
 62
4
 10
-6.59804992E+01
 20
-2.56572594E+02
  0
VERTEX
  8
0
 62
4
 10
-6.57275241E+01
 20
-2.56721952E+02
  0
VERTEX
  8
0
 62
4
 10
-6.54609268E+01
 20
-2.56850382E+02
  0
VERTEX
  8
0
 62
4
 10
-6.51828095E+01
 20
-2.56956871E+02
  0
VERTEX
  8
0
 62
4
 10
-6.48953652E+01
 20
-2.57040579E+02
  0
VERTEX
  8
0
 62
4
 10
-6.46008607E+01
 20
-2.57100847E+02
  0
VERTEX
  8
0
 62
4
 10
-6.43016182E+01
 20
-2.57137198E+02
  0
VERTEX
  8
0
 62
4
 10
-6.39999972E+01
 20
-2.57149347E+02
  0
VERTEX
  8
0
 62
4
 10
-6.36983762E+01
 20
-2.57137198E+02
  0
VERTEX
  8
0
 62
4
 10
-6.33991337E+01
 20
-2.57100847E+02
  0
VERTEX
  8
0
 62
4
 10
-6.31046292E+01
 20
-2.57040579E+02
  0
VERTEX
  8
0
 62
4
 10
-6.28171849E+01
 20
-2.56956871E+02
  0
VERTEX
  8
0
 62
4
 10
-6.25390676E+01
 20
-2.56850382E+02
  0
VERTEX
  8
0
 62
4
 10
-6.22724703E+01
 20
-2.56721952E+02
  0
VERTEX
  8
0
 62
4
 10
-6.20194952E+01
 20
-2.56572594E+02
  0
VERTEX
  8
0
 62
4
 10
-6.17821370E+01
 20
-2.56403486E+02
  0
VERTEX
  8
0
 62
4
 10
-6.15622675E+01
 20
-2.56215960E+02
  0
VERTEX
  8
0
 62
4
 10
-6.13616204E+01
 20
-2.56011497E+02
  0
VERTEX
  8
0
 62
4
 10
-6.11817779E+01
 20
-2.55791707E+02
  0
VERTEX
  8
0
 62
4
 10
-6.10241581E+01
 20
-2.55558325E+02
  0
VERTEX
  8
0
 62
4
 10
-6.08900039E+01
 20
-2.55313190E+02
  0
VERTEX
  8
0
 62
4
 10
-6.07803732E+01
 20
-2.55058235E+02
  0
VERTEX
  8
0
 62
4
 10
-6.06961304E+01
 20
-2.54795471E+02
  0
VERTEX
  8
0
 62
4
 10
-6.06379398E+01
 20
-2.54526971E+02
  0
VERTEX
  8
0
 62
4
 10
-6.06062602E+01
 20
-2.54254850E+02
  0
VERTEX
  8
0
 62
4
 10
-6.06013416E+01
 20
-2.53981255E+02
  0
VERTEX
  8
0
 62
4
 10
-6.06232226E+01
 20
-2.53708343E+02
  0
SEQEND
  8
0
  0
POLYLINE
  8
0
 62
4
 66
1
  0
VERTEX
  8
0
 62
4
 10
-6.05999972E+01
 20
-2.53337911E+02
  0
VERTEX
  8
0
 62
4
 10
-6.06129352E+01
 20
-2.53061223E+02
  0
VERTEX
  8
0
 62
4
 10
-6.06516508E+01
 20
-2.52786640E+02
  0
VERTEX
  8
0
 62
4
 10
-6.07158494E+01
 20
-2.52516254E+02
  0
VERTEX
  8
0
 62
4
 10
-6.08050423E+01
 20
-2.52252120E+02
  0
VERTEX
  8
0
 62
4
 10
-6.09185507E+01
 20
-2.51996250E+02
  0
VERTEX
  8
0
 62
4
 10
-6.10555108E+01
 20
-2.51750591E+02
  0
VERTEX
  8
0
 62
4
 10
-6.12148802E+01
 20
-2.51517012E+02
  0
VERTEX
  8
0
 62
4
 10
-6.13954461E+01
 20
-2.51297291E+02
  0
VERTEX
  8
0
 62
4
 10
-6.15958341E+01
 20
-2.51093101E+02
  0
VERTEX
  8
0
 62
4
 10
-6.18145193E+01
 20
-2.50905995E+02
  0
VERTEX
  8
0
 62
4
 10
-6.20498373E+01
 20
-2.50737398E+02
  0
VERTEX
  8
0
 62
4
 10
-6.22999972E+01
 20
-2.50588591E+02
  0
VERTEX
  8
0
 62
4
 10
-6.25630951E+01
 20
-2.50460709E+02
  0
VERTEX
  8
0
 62
4
 10
-6.28371287E+01
 20
-2.50354725E+02
  0
VERTEX
  8
0
 62
4
 10
-6.31200124E+01
 20
-2.50271444E+02
  0
VERTEX
  8
0
 62
4
 10
-6.34095934E+01
 20
-2.50211500E+02
  0
VERTEX
  8
0
 62
4
 10
-6.37036677E+01
 20
-2.50175351E+02
  0
VERTEX
  8
0
 62
4
 10
-6.39999972E+01
 20
-2.50163270E+02
  0
VERTEX
  8
0
 62
4
 10
-6.42963267E+01
 20
-2.50175351E+02
  0
VERTEX
  8
0
 62
4
 10
-6.45904010E+01
 20
-2.50211500E+02
  0
VERTEX
  8
0
 62
4
 10
-6.48799820E+01
 20
-2.50271444E+02
  0
VERTEX
  8
0
 62
4
 10
-6.51628657E+01
 20
-2.50354725E+02
  0
VERTEX
  8
0
 62
4
 10
-6.54368993E+01
 20
-2.50460709E+02
  0
VERTEX
  8
0
 62
4
 10
-6.56999972E+01
 20
-2.50588591E+02
  0
VERTEX
  8
0
 62
4
 10
-6.59501571E+01
 20
-2.50737398E+02
  0
VERTEX
  8
0
 62
4
 10
-6.61854751E+01
 20
-2.50905995E+02
  0
VERTEX
  8
0
 62
4
 10
-6.64041603E+01
 20
-2.51093101E+02
  0
VERTEX
  8
0
 62
4
 10
-6.66045483E+01
 20
-2.51297291E+02
  0
VERTEX
  8
0
 62
4
 10
-6.67851142E+01
 20
-2.51517012E+02
  0
VERTEX
  8
0
 62
4
 10
-6.69444836E+01
 20
-2.51750591E+02
  0
VERTEX
  8
0
 62
4
 10
-6.70814437E+01
 20
-2.51996250E+02
  0
VERTEX
  8
0
 62
4
 10
-6.71949521E+01
 20
-2.52252120E+02
  0
VERTEX
  8
0
 62
4
 10
-6.72841450E+01
 20
-2.52516254E+02
  0
VERTEX
  8
0
 62
4
 10
-6.73483436E+01
 20
-2.52786640E+02
  0
VERTEX
  8
0
 62
4
 10
-6.73870592E+01
 20
-2.53061223E+02
  0
VERTEX
  8
0
 62
4
 10
-6.73999972E+01
 20
-2.53337911E+02
  0
VERTEX
  8
0
 62
4
 10
-6.73870592E+01
 20
-2.53614599E+02
  0
VERTEX
  8
0
 62
4
 10
-6.73483436E+01
 20
-2.53889182E+02
  0
VERTEX
  8
0
 62
4
 10
-6.72841450E+01
 20
-2.54159568E+02
  0
VERTEX
  8
0
 62
4
 10
-6.71949521E+01
 20
-2.54423702E+02
  0
VERTEX
  8
0
 62
4
 10
-6.70814437E+01
 20
-2.54679572E+02
  0
VERTEX
  8
0
 62
4
 10
-6.69444836E+01
 20
-2.54925231E+02
  0
VERTEX
  8
0
 62
4
 10
-6.67851141E+01
 20
-2.55158810E+02
  0
VERTEX
  8
0
 62
4
 10
-6.66045483E+01
 20
-2.55378531E+02
  0
VERTEX
  8
0
 62
4
 10
-6.64041603E+01
 20
-2.55582721E+02
  0
VERTEX
  8
0
 62
4
 10
-6.61854751E+01
 20
-2.55769827E+02
  0
VERTEX
  8
0
 62
4
 10
-6.59501571E+01
 20
-2.55938424E+02
  0
VERTEX
  8
0
 62
4
 10
-6.56999972E+01
 20
-2.56087231E+02
  0
VERTEX
  8
0
 62
4
 10
-6.54368993E+01
 20
-2.56215113E+02
  0
VERTEX
  8
0
 62
4
 10
-6.51628657E+01
 20
-2.56321097E+02
  0
VERTEX
  8
0
 62
4
 10
-6.48799819E+01
 20
-2.56404378E+02
  0
VERTEX
  8
0
 62
4
 10
-6.45904010E+01
 20
-2.56464322E+02
  0
VERTEX
  8
0
 62
4
 10
-6.42963267E+01
 20
-2.56500471E+02
  0
VERTEX
  8
0
 62
4
 10
-6.39999972E+01
 20
-2.56512552E+02
  0
VERTEX
  8
0
 62
4
 10
-6.37036677E+01
 20
-2.56500471E+02
  0
VERTEX
  8
0
 62
4
 10
-6.34095934E+01
 20
-2.56464322E+02
  0
VERTEX
  8
0
 62
4
 10
-6.31200124E+01
 20
-2.56404378E+02
  0
VERTEX
  8
0
 62
4
 10
-6.28371287E+01
 20
-2.56321097E+02
  0
VERTEX
  8
0
 62
4
 10
-6.25630951E+01
 20
-2.56215113E+02
  0
VERTEX
  8
0
 62
4
 10
-6.22999972E+01
 20
-2.56087231E+02
  0
VERTEX
  8
0
 62
4
 10
-6.20498373E+01
 20
-2.55938424E+02
  0
VERTEX
  8
0
 62
4
 10
-6.18145193E+01
 20
-2.55769827E+02
  0
VERTEX
  8
0
 62
4
 10
-6.15958341E+01
 20
-2.55582721E+02
  0
VERTEX
  8
0
 62
4
 10
-6.13954461E+01
 20
-2.55378531E+02
  0
VERTEX
  8
0
 62
4
 10
-6.12148802E+01
 20
-2.55158810E+02
  0
VERTEX
  8
0
 62
4
 10
-6.10555108E+01
 20
-2.54925231E+02
  0
VERTEX
  8
0
 62
4
 10
-6.09185507E+01
 20
-2.54679572E+02
  0
VERTEX
  8
0
 62
4
 10
-6.08050423E+01
 20
-2.54423702E+02
  0
VERTEX
  8
0
 62
4
 10
-6.07158494E+01
 20
-2.54159568E+02
  0
VERTEX
  8
0
 62
4
 10
-6.06516508E+01
 20
-2.53889182E+02
  0
VERTEX
  8
0
 62
4
 10
-6.06129352E+01
 20
-2.53614599E+02
  0
VERTEX
  8
0
 62
4
 10
-6.05999972E+01
 20
-2.53337911E+02
  0
SEQEND
  8
0
  0
POLYLINE
  8
0
 62
4
 66
1
  0
VERTEX
  8
0
 62
4
 10
-6.79999972E+01
 20
-2.54173556E+02
  0
VERTEX
  8
0
 62
4
 10
-6.79847760E+01
 20
-2.54480308E+02
  0
VERTEX
  8
0
 62
4
 10
-6.79392281E+01
 20
-2.54784725E+02
  0
VERTEX
  8
0
 62
4
 10
-6.78637003E+01
 20
-2.55084490E+02
  0
VERTEX
  8
0
 62
4
 10
-6.77587672E+01
 20
-2.55377323E+02
  0
VERTEX
  8
0
 62
4
 10
-6.76252277E+01
 20
-2.55660995E+02
  0
VERTEX
  8
0
 62
4
 10
-6.74640978E+01
 20
-2.55933346E+02
  0
VERTEX
  8
0
 62
4
 10
-6.72766040E+01
 20
-2.56192304E+02
  0
VERTEX
  8
0
 62
4
 10
-6.70641733E+01
 20
-2.56435898E+02
  0
VERTEX
  8
0
 62
4
 10
-6.68284222E+01
 20
-2.56662274E+02
  0
VERTEX
  8
0
 62
4
 10
-6.65711451E+01
 20
-2.56869710E+02
  0
VERTEX
  8
0
 62
4
 10
-6.62943000E+01
 20
-2.57056626E+02
  0
VERTEX
  8
0
 62
4
 10
-6.59999938E+01
 20
-2.57221600E+02
  0
VERTEX
  8
0
 62
4
 10
-6.56904663E+01
 20
-2.57363377E+02
  0
VERTEX
  8
0
 62
4
 10
-6.53680734E+01
 20
-2.57480878E+02
  0
VERTEX
  8
0
 62
4
 10
-6.50352686E+01
 20
-2.57573207E+02
  0
VERTEX
  8
0
 62
4
 10
-6.46945847E+01
 20
-2.57639663E+02
  0
VERTEX
  8
0
 62
4
 10
-6.43486145E+01
 20
-2.57679740E+02
  0
VERTEX
  8
0
 62
4
 10
-6.39999912E+01
 20
-2.57693133E+02
  0
VERTEX
  8
0
 62
4
 10
-6.36513679E+01
 20
-2.57679739E+02
  0
VERTEX
  8
0
 62
4
 10
-6.33053979E+01
 20
-2.57639661E+02
  0
VERTEX
  8
0
 62
4
 10
-6.29647143E+01
 20
-2.57573204E+02
  0
VERTEX
  8
0
 62
4
 10
-6.26319098E+01
 20
-2.57480874E+02
  0
VERTEX
  8
0
 62
4
 10
-6.23095172E+01
 20
-2.57363373E+02
  0
VERTEX
  8
0
 62
4
 10
-6.19999903E+01
 20
-2.57221595E+02
  0
VERTEX
  8
0
 62
4
 10
-6.17056846E+01
 20
-2.57056620E+02
  0
VERTEX
  8
0
 62
4
 10
-6.14288401E+01
 20
-2.56869703E+02
  0
VERTEX
  8
0
 62
4
 10
-6.11715637E+01
 20
-2.56662267E+02
  0
VERTEX
  8
0
 62
4
 10
-6.09358134E+01
 20
-2.56435890E+02
  0
VERTEX
  8
0
 62
4
 10
-6.07233835E+01
 20
-2.56192295E+02
  0
VERTEX
  8
0
 62
4
 10
-6.05358906E+01
 20
-2.55933337E+02
  0
VERTEX
  8
0
 62
4
 10
-6.03747617E+01
 20
-2.55660985E+02
  0
VERTEX
  8
0
 62
4
 10
-6.02412231E+01
 20
-2.55377313E+02
  0
VERTEX
  8
0
 62
4
 10
-6.01362911E+01
 20
-2.55084480E+02
  0
VERTEX
  8
0
 62
4
 10
-6.00607642E+01
 20
-2.54784714E+02
  0
VERTEX
  8
0
 62
4
 10
-6.00152174E+01
 20
-2.54480297E+02
  0
VERTEX
  8
0
 62
4
 10
-5.99999972E+01
 20
-2.54173545E+02
  0
SEQEND
  8
0
  0
POLYLINE
  8
0
 62
4
 66
1
  0
VERTEX
  8
0
 62
4
 10
-6.67327449E+01
 20
-2.51449101E+02
  0
VERTEX
  8
0
 62
4
 10
-6.69802165E+01
 20
-2.51685043E+02
  0
VERTEX
  8
0
 62
4
 10
-6.72043620E+01
 20
-2.51940463E+02
  0
VERTEX
  8
0
 62
4
 10
-6.74034270E+01
 20
-2.52213361E+02
  0
VERTEX
  8
0
 62
4
 10
-6.75758535E+01
 20
-2.52501602E+02
  0
VERTEX
  8
0
 62
4
 10
-6.77202918E+01
 20
-2.52802929E+02
  0
VERTEX
  8
0
 62
4
 10
-6.78356115E+01
 20
-2.53114984E+02
  0
VERTEX
  8
0
 62
4
 10
-6.79209099E+01
 20
-2.53435324E+02
  0
VERTEX
  8
0
 62
4
 10
-6.79755195E+01
 20
-2.53761442E+02
  0
VERTEX
  8
0
 62
4
 10
-6.79990127E+01
 20
-2.54090786E+02
  0
VERTEX
  8
0
 62
4
 10
-6.79912058E+01
 20
-2.54420778E+02
  0
VERTEX
  8
0
 62
4
 10
-6.79521598E+01
 20
-2.54748835E+02
  0
VERTEX
  8
0
 62
4
 10
-6.78821803E+01
 20
-2.55072389E+02
  0
VERTEX
  8
0
 62
4
 10
-6.77818150E+01
 20
-2.55388908E+02
  0
VERTEX
  8
0
 62
4
 10
-6.76518496E+01
 20
-2.55695915E+02
  0
VERTEX
  8
0
 62
4
 10
-6.74933012E+01
 20
-2.55991006E+02
  0
VERTEX
  8
0
 62
4
 10
-6.73074108E+01
 20
-2.56271871E+02
  0
VERTEX
  8
0
 62
4
 10
-6.70956334E+01
 20
-2.56536314E+02
  0
VERTEX
  8
0
 62
4
 10
-6.68596265E+01
 20
-2.56782263E+02
  0
VERTEX
  8
0
 62
4
 10
-6.66012374E+01
 20
-2.57007794E+02
  0
VERTEX
  8
0
 62
4
 10
-6.63224884E+01
 20
-2.57211141E+02
  0
VERTEX
  8
0
 62
4
 10
-6.60255614E+01
 20
-2.57390714E+02
  0
VERTEX
  8
0
 62
4
 10
-6.57127803E+01
 20
-2.57545105E+02
  0
VERTEX
  8
0
 62
4
 10
-6.53865933E+01
 20
-2.57673108E+02
  0
VERTEX
  8
0
 62
4
 10
-6.50495535E+01
 20
-2.57773720E+02
  0
VERTEX
  8
0
 62
4
 10
-6.47042988E+01
 20
-2.57846153E+02
  0
VERTEX
  8
0
 62
4
 10
-6.43535315E+01
 20
-2.57889841E+02
  0
VERTEX
  8
0
 62
4
 10
-6.39999972E+01
 20
-2.57904442E+02
  0
VERTEX
  8
0
 62
4
 10
-6.36464628E+01
 20
-2.57889841E+02
  0
VERTEX
  8
0
 62
4
 10
-6.32956956E+01
 20
-2.57846153E+02
  0
VERTEX
  8
0
 62
4
 10
-6.29504409E+01
 20
-2.57773720E+02
  0
VERTEX
  8
0
 62
4
 10
-6.26134011E+01
 20
-2.57673108E+02
  0
VERTEX
  8
0
 62
4
 10
-6.22872141E+01
 20
-2.57545105E+02
  0
VERTEX
  8
0
 62
4
 10
-6.19744330E+01
 20
-2.57390713E+02
  0
VERTEX
  8
0
 62
4
 10
-6.16775060E+01
 20
-2.57211141E+02
  0
VERTEX
  8
0
 62
4
 10
-6.13987570E+01
 20
-2.57007794E+02
  0
VERTEX
  8
0
 62
4
 10
-6.11403679E+01
 20
-2.56782263E+02
  0
VERTEX
  8
0
 62
4
 10
-6.09043610E+01
 20
-2.56536314E+02
  0
VERTEX
  8
0
 62
4
 10
-6.06925836E+01
 20
-2.56271871E+02
  0
VERTEX
  8
0
 62
4
 10
-6.05066932E+01
 20
-2.55991006E+02
  0
VERTEX
  8
0
 62
4
 10
-6.03481448E+01
 20
-2.55695915E+02
  0
VERTEX
  8
0
 62
4
 10
-6.02181794E+01
 20
-2.55388908E+02
  0
VERTEX
  8
0
 62
4
 10
-6.01178141E+01
 20
-2.55072389E+02
  0
VERTEX
  8
0
 62
4
 10
-6.00478346E+01
 20
-2.54748835E+02
  0
VERTEX
  8
0
 62
4
 10
-6.00087886E+01
 20
-2.54420778E+02
  0
VERTEX
  8
0
 62
4
 10
-6.00009817E+01
 20
-2.54090786E+02
  0
VERTEX
  8
0
 62
4
 10
-6.00244749E+01
 20
-2.53761442E+02
  0
VERTEX
  8
0
 62
4
 10
-6.00790845E+01
 20
-2.53435324E+02
  0
VERTEX
  8
0
 62
4
 10
-6.01643829E+01
 20
-2.53114984E+02
  0
VERTEX
  8
0
 62
4
 10
-6.02797026E+01
 20
-2.52802929E+02
  0
VERTEX
  8
0
 62
4
 10
-6.04241409E+01
 20
-2.52501602E+02
  0
VERTEX
  8
0
 62
4
 10
-6.05965674E+01
 20
-2.52213361E+02
  0
VERTEX
  8
0
 62
4
 10
-6.07956324E+01
 20
-2.51940463E+02
  0
VERTEX
  8
0
 62
4
 10
-6.10197779E+01
 20
-2.51685043E+02
  0
VERTEX
  8
0
 62
4
 10
-6.12672495E+01
 20
-2.51449101E+02
  0
SEQEND
  8
0
  0
LINE
  8
0
  6
CENTER
 62
6
 10
-6.39999972E+01
 20
-2.48201077E+02
 11
-6.39999972E+01
 21
-2.59168484E+02
  0
LINE
  8
0
  6
CENTER
 62
6
 10
-7.00640026E+01
 20
-2.52804612E+02
 11
-5.81177137E+01
 21
-2.52804612E+02
  0
LINE
  8
0
 62
4
 10
-7.59999972E+01
 20
-2.61076519E+02
 11
-7.29999972E+01
 21
-2.65969605E+02
  0
LINE
  8
0
 62
4
 10
-3.69999972E+01
 20
-2.61076519E+02
 11
-3.99999972E+01
 21
-2.65969605E+02
  0
ARC
  8
0
 62
4
 10
-7.44999944E+01
 20
-2.49804225E+02
 40
1.50000284E+00
 50
9.00001085E+01
 51
1.79999892E+02
  0
ARC
  8
0
 62
4
 10
-8.05000015E+01
 20
-2.38208271E+02
 40
4.99995728E-01
 50
1.79999510E+02
 51
2.70000490E+02
  0
ARC
  8
0
 62
4
 10
-3.85000001E+01
 20
-2.49804225E+02
 40
1.50000284E+00
 50
1.08554370E-04
 51
8.99998913E+01
  0
ARC
  8
0
 62
4
 10
-7.20000015E+01
 20
-2.39208271E+02
 40
5.00004272E-01
 50
4.89585868E-04
 51
8.99995103E+01
  0
ARC
  8
0
 62
4
 10
-8.04999930E+01
 20
-2.25208271E+02
 40
5.00004272E-01
 50
9.00004895E+01
 51
1.79999510E+02
  0
LINE
  8
0
 62
4
 10
-8.44999972E+01
 20
-2.37458267E+02
 11
-8.09999972E+01
 21
-2.37458267E+02
  0
LINE
  8
0
 62
4
 10
-8.44999972E+01
 20
-2.25958267E+02
 11
-8.09999972E+01
 21
-2.25958267E+02
  0
LINE
  8
0
 62
4
 10
-8.44999972E+01
 20
-2.25458267E+02
 11
-8.44999972E+01
 21
-2.37958267E+02
  0
LINE
  8
0
 62
4
 10
-8.59999972E+01
 20
-2.37958267E+02
 11
-8.09999972E+01
 21
-2.37958267E+02
  0
LINE
  8
0
 62
4
 10
-8.59999972E+01
 20
-2.25458267E+02
 11
-8.09999972E+01
 21
-2.25458267E+02
  0
LINE
  8
0
 62
4
 10
-8.59999972E+01
 20
-2.24910934E+02
 11
-8.59999972E+01
 21
-2.38514613E+02
  0
LINE
  8
0
 62
4
 10
-9.09999972E+01
 20
-2.24910934E+02
 11
-9.09999972E+01
 21
-2.38514613E+02
  0
LINE
  8
0
 62
4
 10
-8.09999972E+01
 20
-2.25208267E+02
 11
-8.09999972E+01
 21
-2.38208267E+02
  0
LINE
  8
0
 62
4
 10
-7.14999972E+01
 20
-2.24708267E+02
 11
-8.04999972E+01
 21
-2.24708267E+02
  0
LINE
  8
0
 62
4
 10
-8.04999972E+01
 20
-2.38708267E+02
 11
-7.19999972E+01
 21
-2.38708267E+02
  0
LINE
  8
0
 62
4
 10
-9.09999972E+01
 20
-2.24910934E+02
 11
-8.59999972E+01
 21
-2.24910934E+02
  0
LINE
  8
0
 62
4
 10
-7.44999972E+01
 20
-2.48304222E+02
 11
-3.84999972E+01
 21
-2.48304222E+02
  0
LINE
  8
0
 62
4
 10
-7.59999972E+01
 20
-2.59717057E+02
 11
-3.69999972E+01
 21
-2.59717057E+02
  0
LINE
  8
0
 62
4
 10
-7.59999972E+01
 20
-2.61076519E+02
 11
-3.69999972E+01
 21
-2.61076519E+02
  0
LINE
  8
0
 62
4
 10
-3.69999972E+01
 20
-2.49804222E+02
 11
-3.69999972E+01
 21
-2.61076519E+02
  0
LINE
  8
0
 62
4
 10
-7.14999972E+01
 20
-2.44852145E+02
 11
-5.64999972E+01
 21
-2.44852145E+02
  0
LINE
  8
0
 62
4
 10
-5.44999972E+01
 20
-2.44913216E+02
 11
-5.44999972E+01
 21
-2.48304222E+02
  0
LINE
  8
0
 62
4
 10
-7.14999972E+01
 20
-2.23100758E+02
 11
-7.14999972E+01
 21
-2.44913216E+02
  0
LINE
  8
0
 62
4
 10
-5.64999972E+01
 20
-2.23100758E+02
 11
-5.64999972E+01
 21
-2.44913216E+02
  0
LINE
  8
0
 62
4
 10
-7.34999972E+01
 20
-2.44913216E+02
 11
-7.34999972E+01
 21
-2.48304222E+02
  0
LINE
  8
0
 62
4
 10
-7.59999972E+01
 20
-2.49804222E+02
 11
-7.59999972E+01
 21
-2.61076519E+02
  0
LINE
  8
0
 62
4
 10
-7.34999972E+01
 20
-2.44913216E+02
 11
-5.44999972E+01
 21
-2.44913216E+02
  0
LINE
  8
0
 62
4
 10
-7.14999972E+01
 20
-2.23100758E+02
 11
-5.64999972E+01
 21
-2.23100758E+02
  0
ARC
  8
0
 62
4
 10
-3.98630371E+02
 20
-2.31708267E+02
 40
7.00000000E+00
 50
1.23115777E+02
 51
1.46002341E+02
  0
ARC
  8
0
 62
4
 10
-3.98630371E+02
 20
-2.31708267E+02
 40
7.00000000E+00
 50
8.39976594E+01
 51
1.06884035E+02
  0
ARC
  8
0
 62
4
 10
-3.79243692E+02
 20
-2.50804238E+02
 40
2.50001570E+00
 50
2.50003598E+01
 51
1.14999640E+02
  0
ARC
  8
0
 62
4
 10
-3.96463516E+02
 20
-2.58833970E+02
 40
2.50001192E+00
 50
1.15000273E+02
 51
2.04999727E+02
  0
ARC
  8
0
 62
4
 10
-3.82386285E+02
 20
-2.57822901E+02
 40
1.18036308E+01
 50
1.22898056E+01
 51
3.79747793E+01
  0
CIRCLE
  8
0
 62
4
 10
-3.98630371E+02
 20
-2.31708267E+02
 40
3.75000000E+00
  0
ARC
  8
0
 62
4
 10
-3.73862183E+02
 20
-2.51160479E+02
 40
9.97209177E-01
 50
3.75805360E+01
 51
1.14812291E+02
  0
ARC
  8
0
 62
4
 10
-3.71830477E+02
 20
-2.55514207E+02
 40
9.98345090E-01
 50
2.95107939E+02
 51
1.17781676E+01
  0
LINE
  8
0
 62
4
 10
-3.76102142E+02
 20
-2.50442670E+02
 11
-3.72721196E+02
 21
-2.57693132E+02
  0
LINE
  8
0
  6
CENTER
 62
6
 10
-3.94638870E+02
 20
-2.63500000E+02
 11
-3.68973823E+02
 21
-2.51532192E+02
  0
LINE
  8
0
 62
4
 10
-3.71406855E+02
 20
-2.56418218E+02
 11
-3.72974767E+02
 21
-2.57149348E+02
  0
LINE
  8
0
 62
4
 10
-3.75848571E+02
 20
-2.50986455E+02
 11
-3.74280659E+02
 21
-2.50255325E+02
  0
LINE
  8
0
 62
4
 10
-3.73174350E+02
 20
-2.57904442E+02
 11
-3.72721196E+02
 21
-2.57693132E+02
  0
LINE
  8
0
 62
4
 10
-3.76555296E+02
 20
-2.50653979E+02
 11
-3.76102142E+02
 21
-2.50442670E+02
  0
LINE
  8
0
 62
4
 10
-3.98809683E+02
 20
-2.25171588E+02
 11
-3.94368775E+02
 21
-2.23100758E+02
  0
LINE
  8
0
 62
4
 10
-4.01800011E+02
 20
-2.24910934E+02
 11
-3.94324192E+02
 21
-2.25562569E+02
  0
LINE
  8
0
 62
4
 10
-4.02932330E+02
 20
-2.37862978E+02
 11
-3.95456510E+02
 21
-2.38514613E+02
  0
LINE
  8
0
 62
4
 10
-3.94324192E+02
 20
-2.25562569E+02
 11
-3.91150328E+02
 21
-2.32368941E+02
  0
LINE
  8
0
 62
4
 10
-4.06106193E+02
 20
-2.31056606E+02
 11
-4.02932330E+02
 21
-2.37862978E+02
  0
LINE
  8
0
 62
4
 10
-4.06106193E+02
 20
-2.31056606E+02
 11
-4.01800011E+02
 21
-2.24910934E+02
  0
LINE
  8
0
 62
4
 10
-3.95456510E+02
 20
-2.38514613E+02
 11
-3.91150328E+02
 21
-2.32368941E+02
  0
LINE
  8
0
 62
4
 10
-3.83716592E+02
 20
-2.58958547E+02
 11
-3.82660046E+02
 21
-2.61224316E+02
  0
LINE
  8
0
 62
4
 10
-3.87341823E+02
 20
-2.60649020E+02
 11
-3.86285277E+02
 21
-2.62914789E+02
  0
LINE
  8
0
 62
4
 10
-3.86285277E+02
 20
-2.62914789E+02
 11
-3.82660046E+02
 21
-2.61224316E+02
  0
LINE
  8
0
 62
4
 10
-3.87341823E+02
 20
-2.60649020E+02
 11
-3.83716592E+02
 21
-2.58958547E+02
  0
LINE
  8
0
 62
4
 10
-3.80441661E+02
 20
-2.63500000E+02
 11
-3.72329114E+02
 21
-2.59717057E+02
  0
LINE
  8
0
 62
4
 10
-3.71695186E+02
 20
-2.61076519E+02
 11
-3.72204564E+02
 21
-2.63500000E+02
  0
LINE
  8
0
 62
4
 10
-3.98729301E+02
 20
-2.59890510E+02
 11
-3.97046168E+02
 21
-2.63500000E+02
  0
LINE
  8
0
 62
4
 10
-3.76977915E+02
 20
-2.49747671E+02
 11
-3.71695186E+02
 21
-2.61076519E+02
  0
LINE
  8
0
 62
4
 10
-3.76892359E+02
 20
-2.63500000E+02
 11
-3.71695186E+02
 21
-2.61076519E+02
  0
LINE
  8
0
 62
4
 10
-3.97520078E+02
 20
-2.56568195E+02
 11
-3.80300230E+02
 21
-2.48538448E+02
  0
LINE
  8
0
 62
4
 10
-3.99210551E+02
 20
-2.52942963E+02
 11
-3.97520078E+02
 21
-2.56568195E+02
  0
LINE
  8
0
 62
4
 10
-3.81990703E+02
 20
-2.44913216E+02
 11
-3.80300230E+02
 21
-2.48538448E+02
  0
LINE
  8
0
 62
4
 10
-3.97820553E+02
 20
-2.51191419E+02
 11
-3.84225937E+02
 21
-2.44852145E+02
  0
LINE
  8
0
 62
4
 10
-3.99210551E+02
 20
-2.52942963E+02
 11
-3.81990703E+02
 21
-2.44913216E+02
  0
LINE
  8
0
 62
4
 10
-4.07963392E+02
 20
-2.29440032E+02
 11
-3.97397935E+02
 21
-2.52097727E+02
  0
LINE
  8
0
 62
4
 10
-3.94368775E+02
 20
-2.23100758E+02
 11
-3.83803318E+02
 21
-2.45758453E+02
  0
LINE
  8
0
 62
4
 10
-4.07963392E+02
 20
-2.29440032E+02
 11
-4.03531547E+02
 21
-2.27373429E+02
  0
LINE
  8
0
 62
4
 10
-4.04856687E+02
 20
-2.63299446E+02
 11
-3.98517992E+02
 21
-2.60343664E+02
  0
LINE
  8
0
 62
4
 10
1.48486986E+02
 20
-2.50319992E+02
 11
1.54178599E+02
 21
-2.52974035E+02
  0
LINE
  8
0
 62
4
 10
1.54178599E+02
 20
-2.52974035E+02
 11
1.54082252E+02
 21
-2.54032485E+02
  0
LINE
  8
0
 62
4
 10
1.47738097E+02
 20
-2.51074157E+02
 11
1.48486986E+02
 21
-2.50319992E+02
  0
LINE
  8
0
  6
CENTER
 62
6
 10
1.52281873E+02
 20
-2.49611705E+02
 11
1.50280473E+02
 21
-2.53903720E+02
  0
ARC
  8
0
 62
4
 10
1.60630384E+02
 20
-2.31708264E+02
 40
7.00000000E+00
 50
3.39976591E+01
 51
9.60023410E+01
  0
LINE
  8
0
 62
4
 10
1.66856708E+02
 20
-2.63299446E+02
 11
1.60518013E+02
 21
-2.60343664E+02
  0
LINE
  8
0
 62
4
 10
1.56368796E+02
 20
-2.23100758E+02
 11
1.69963412E+02
 21
-2.29440032E+02
  0
LINE
  8
0
 62
4
 10
1.56368796E+02
 20
-2.23100758E+02
 11
1.45803339E+02
 21
-2.45758453E+02
  0
LINE
  8
0
 62
4
 10
1.69963412E+02
 20
-2.29440032E+02
 11
1.59397956E+02
 21
-2.52097727E+02
  0
LINE
  8
0
 62
4
 10
1.61210571E+02
 20
-2.52942963E+02
 11
1.43990723E+02
 21
-2.44913216E+02
  0
LINE
  8
0
 62
4
 10
1.59820574E+02
 20
-2.51191419E+02
 11
1.46225957E+02
 21
-2.44852145E+02
  0
LINE
  8
0
 62
4
 10
1.43990723E+02
 20
-2.44913216E+02
 11
1.42300250E+02
 21
-2.48538448E+02
  0
LINE
  8
0
 62
4
 10
1.61210571E+02
 20
-2.52942963E+02
 11
1.59520098E+02
 21
-2.56568195E+02
  0
LINE
  8
0
 62
4
 10
1.59520098E+02
 20
-2.56568195E+02
 11
1.42300250E+02
 21
-2.48538448E+02
  0
LINE
  8
0
 62
4
 10
1.38892379E+02
 20
-2.63500000E+02
 11
1.33695207E+02
 21
-2.61076519E+02
  0
LINE
  8
0
 62
4
 10
1.38977935E+02
 20
-2.49747671E+02
 11
1.33695207E+02
 21
-2.61076519E+02
  0
LINE
  8
0
 62
4
 10
1.60729322E+02
 20
-2.59890510E+02
 11
1.59046189E+02
 21
-2.63500000E+02
  0
LINE
  8
0
 62
4
 10
1.33695207E+02
 20
-2.61076519E+02
 11
1.34204585E+02
 21
-2.63500000E+02
  0
LINE
  8
0
 62
4
 10
1.42441682E+02
 20
-2.63500000E+02
 11
1.34329134E+02
 21
-2.59717057E+02
  0
LINE
  8
0
 62
4
 10
1.49341844E+02
 20
-2.60649020E+02
 11
1.45716613E+02
 21
-2.58958547E+02
  0
LINE
  8
0
 62
4
 10
1.48285298E+02
 20
-2.62914789E+02
 11
1.44660067E+02
 21
-2.61224316E+02
  0
LINE
  8
0
 62
4
 10
1.49341844E+02
 20
-2.60649020E+02
 11
1.48285298E+02
 21
-2.62914789E+02
  0
LINE
  8
0
 62
4
 10
1.45716613E+02
 20
-2.58958547E+02
 11
1.44660067E+02
 21
-2.61224316E+02
  0
LINE
  8
0
 62
4
 10
1.64454722E+02
 20
-2.25845292E+02
 11
1.63800031E+02
 21
-2.24910934E+02
  0
LINE
  8
0
 62
4
 10
1.63800031E+02
 20
-2.24910934E+02
 11
1.62663444E+02
 21
-2.25010005E+02
  0
LINE
  8
0
 62
4
 10
1.38555317E+02
 20
-2.50653979E+02
 11
1.38102163E+02
 21
-2.50442670E+02
  0
LINE
  8
0
 62
4
 10
1.35174371E+02
 20
-2.57904442E+02
 11
1.34721217E+02
 21
-2.57693132E+02
  0
LINE
  8
0
 62
4
 10
1.37848592E+02
 20
-2.50986455E+02
 11
1.36280680E+02
 21
-2.50255325E+02
  0
LINE
  8
0
 62
4
 10
1.33406876E+02
 20
-2.56418218E+02
 11
1.34974788E+02
 21
-2.57149348E+02
  0
LINE
  8
0
  6
CENTER
 62
6
 10
1.56638891E+02
 20
-2.63500000E+02
 11
1.30973843E+02
 21
-2.51532192E+02
  0
LINE
  8
0
 62
4
 10
1.38102163E+02
 20
-2.50442670E+02
 11
1.34721217E+02
 21
-2.57693132E+02
  0
ARC
  8
0
 62
4
 10
1.33830498E+02
 20
-2.55514207E+02
 40
9.98345090E-01
 50
1.68221832E+02
 51
2.44892061E+02
  0
ARC
  8
0
 62
4
 10
1.35862204E+02
 20
-2.51160479E+02
 40
9.97209177E-01
 50
6.51877094E+01
 51
1.42419464E+02
  0
ARC
  8
0
 62
4
 10
1.44386306E+02
 20
-2.57822901E+02
 40
1.18036308E+01
 50
1.42025221E+02
 51
1.67710194E+02
  0
ARC
  8
0
 62
4
 10
1.58463537E+02
 20
-2.58833970E+02
 40
2.50001192E+00
 50
3.35000273E+02
 51
6.49997271E+01
  0
ARC
  8
0
 62
4
 10
1.41243712E+02
 20
-2.50804238E+02
 40
2.50001570E+00
 50
6.50003596E+01
 51
1.54999640E+02
  0
LINE
  8
0
  6
CENTER
 62
6
 10
-6.39999820E+01
 20
-8.49318751E+01
 11
-6.39999820E+01
 21
-1.37499969E+02
  0
LINE
  8
0
 62
4
 10
-5.44999820E+01
 20
-9.95364540E+01
 11
-3.84999820E+01
 21
-9.95364540E+01
  0
LINE
  8
0
 62
4
 10
-7.44999820E+01
 20
-1.20465522E+02
 11
-3.84999820E+01
 21
-1.20465522E+02
  0
LINE
  8
0
  6
CENTER
 62
6
 10
-5.36089987E+01
 20
-1.09167241E+02
 11
-4.23909652E+01
 21
-1.09167241E+02
  0
LINE
  8
0
 62
4
 10
-6.09910215E+01
 20
-1.26804796E+02
 11
-3.84999820E+01
 21
-1.26804796E+02
  0
POLYLINE
  8
0
 62
4
 66
1
  0
VERTEX
  8
0
 62
4
 10
-5.01049399E+01
 20
-1.07055572E+02
  0
VERTEX
  8
0
 62
4
 10
-5.03414835E+01
 20
-1.07232173E+02
  0
VERTEX
  8
0
 62
4
 10
-5.05600745E+01
 20
-1.07426851E+02
  0
VERTEX
  8
0
 62
4
 10
-5.07590370E+01
 20
-1.07638113E+02
  0
VERTEX
  8
0
 62
4
 10
-5.09368454E+01
 20
-1.07864339E+02
  0
VERTEX
  8
0
 62
4
 10
-5.10921364E+01
 20
-1.08103795E+02
  0
VERTEX
  8
0
 62
4
 10
-5.12237195E+01
 20
-1.08354644E+02
  0
VERTEX
  8
0
 62
4
 10
-5.13305858E+01
 20
-1.08614964E+02
  0
VERTEX
  8
0
 62
4
 10
-5.14119159E+01
 20
-1.08882759E+02
  0
VERTEX
  8
0
 62
4
 10
-5.14670862E+01
 20
-1.09155976E+02
  0
VERTEX
  8
0
 62
4
 10
-5.14956738E+01
 20
-1.09432519E+02
  0
VERTEX
  8
0
 62
4
 10
-5.14974595E+01
 20
-1.09710268E+02
  0
VERTEX
  8
0
 62
4
 10
-5.14724295E+01
 20
-1.09987094E+02
  0
VERTEX
  8
0
 62
4
 10
-5.14207759E+01
 20
-1.10260875E+02
  0
VERTEX
  8
0
 62
4
 10
-5.13428945E+01
 20
-1.10529510E+02
  0
VERTEX
  8
0
 62
4
 10
-5.12393826E+01
 20
-1.10790941E+02
  0
VERTEX
  8
0
 62
4
 10
-5.11110337E+01
 20
-1.11043164E+02
  0
VERTEX
  8
0
 62
4
 10
-5.09588321E+01
 20
-1.11284243E+02
  0
VERTEX
  8
0
 62
4
 10
-5.07839445E+01
 20
-1.11512332E+02
  0
VERTEX
  8
0
 62
4
 10
-5.05877119E+01
 20
-1.11725681E+02
  0
VERTEX
  8
0
 62
4
 10
-5.03716388E+01
 20
-1.11922654E+02
  0
VERTEX
  8
0
 62
4
 10
-5.01373820E+01
 20
-1.12101741E+02
  0
VERTEX
  8
0
 62
4
 10
-4.98867374E+01
 20
-1.12261569E+02
  0
VERTEX
  8
0
 62
4
 10
-4.96216268E+01
 20
-1.12400913E+02
  0
VERTEX
  8
0
 62
4
 10
-4.93440828E+01
 20
-1.12518704E+02
  0
VERTEX
  8
0
 62
4
 10
-4.90562335E+01
 20
-1.12614040E+02
  0
VERTEX
  8
0
 62
4
 10
-4.87602857E+01
 20
-1.12686188E+02
  0
VERTEX
  8
0
 62
4
 10
-4.84585085E+01
 20
-1.12734597E+02
  0
VERTEX
  8
0
 62
4
 10
-4.81532158E+01
 20
-1.12758894E+02
  0
VERTEX
  8
0
 62
4
 10
-4.78467482E+01
 20
-1.12758894E+02
  0
VERTEX
  8
0
 62
4
 10
-4.75414555E+01
 20
-1.12734597E+02
  0
VERTEX
  8
0
 62
4
 10
-4.72396784E+01
 20
-1.12686188E+02
  0
VERTEX
  8
0
 62
4
 10
-4.69437306E+01
 20
-1.12614040E+02
  0
VERTEX
  8
0
 62
4
 10
-4.66558812E+01
 20
-1.12518704E+02
  0
VERTEX
  8
0
 62
4
 10
-4.63783373E+01
 20
-1.12400913E+02
  0
VERTEX
  8
0
 62
4
 10
-4.61132267E+01
 20
-1.12261569E+02
  0
VERTEX
  8
0
 62
4
 10
-4.58625821E+01
 20
-1.12101741E+02
  0
VERTEX
  8
0
 62
4
 10
-4.56283252E+01
 20
-1.11922654E+02
  0
VERTEX
  8
0
 62
4
 10
-4.54122521E+01
 20
-1.11725681E+02
  0
VERTEX
  8
0
 62
4
 10
-4.52160195E+01
 20
-1.11512332E+02
  0
VERTEX
  8
0
 62
4
 10
-4.50411320E+01
 20
-1.11284243E+02
  0
VERTEX
  8
0
 62
4
 10
-4.48889303E+01
 20
-1.11043164E+02
  0
VERTEX
  8
0
 62
4
 10
-4.47605814E+01
 20
-1.10790941E+02
  0
VERTEX
  8
0
 62
4
 10
-4.46570695E+01
 20
-1.10529510E+02
  0
VERTEX
  8
0
 62
4
 10
-4.45791882E+01
 20
-1.10260875E+02
  0
VERTEX
  8
0
 62
4
 10
-4.45275345E+01
 20
-1.09987094E+02
  0
VERTEX
  8
0
 62
4
 10
-4.45025045E+01
 20
-1.09710268E+02
  0
VERTEX
  8
0
 62
4
 10
-4.45042902E+01
 20
-1.09432519E+02
  0
VERTEX
  8
0
 62
4
 10
-4.45328778E+01
 20
-1.09155976E+02
  0
VERTEX
  8
0
 62
4
 10
-4.45880481E+01
 20
-1.08882759E+02
  0
VERTEX
  8
0
 62
4
 10
-4.46693782E+01
 20
-1.08614965E+02
  0
VERTEX
  8
0
 62
4
 10
-4.47762445E+01
 20
-1.08354644E+02
  0
VERTEX
  8
0
 62
4
 10
-4.49078276E+01
 20
-1.08103795E+02
  0
VERTEX
  8
0
 62
4
 10
-4.50631186E+01
 20
-1.07864339E+02
  0
VERTEX
  8
0
 62
4
 10
-4.52409270E+01
 20
-1.07638113E+02
  0
VERTEX
  8
0
 62
4
 10
-4.54398894E+01
 20
-1.07426851E+02
  0
VERTEX
  8
0
 62
4
 10
-4.56584804E+01
 20
-1.07232173E+02
  0
VERTEX
  8
0
 62
4
 10
-4.58950240E+01
 20
-1.07055572E+02
  0
SEQEND
  8
0
  0
POLYLINE
  8
0
 62
4
 66
1
  0
VERTEX
  8
0
 62
4
 10
-4.48599820E+01
 20
-1.09167241E+02
  0
VERTEX
  8
0
 62
4
 10
-4.48719306E+01
 20
-1.08919213E+02
  0
VERTEX
  8
0
 62
4
 10
-4.49076857E+01
 20
-1.08673072E+02
  0
VERTEX
  8
0
 62
4
 10
-4.49669749E+01
 20
-1.08430692E+02
  0
VERTEX
  8
0
 62
4
 10
-4.50493472E+01
 20
-1.08193918E+02
  0
VERTEX
  8
0
 62
4
 10
-4.51541755E+01
 20
-1.07964551E+02
  0
VERTEX
  8
0
 62
4
 10
-4.52806622E+01
 20
-1.07744338E+02
  0
VERTEX
  8
0
 62
4
 10
-4.54278446E+01
 20
-1.07534953E+02
  0
VERTEX
  8
0
 62
4
 10
-4.55946024E+01
 20
-1.07337992E+02
  0
VERTEX
  8
0
 62
4
 10
-4.57796667E+01
 20
-1.07154952E+02
  0
VERTEX
  8
0
 62
4
 10
-4.59816289E+01
 20
-1.06987227E+02
  0
VERTEX
  8
0
 62
4
 10
-4.61989520E+01
 20
-1.06836093E+02
  0
VERTEX
  8
0
 62
4
 10
-4.64299820E+01
 20
-1.06702700E+02
  0
VERTEX
  8
0
 62
4
 10
-4.66729607E+01
 20
-1.06588064E+02
  0
VERTEX
  8
0
 62
4
 10
-4.69260388E+01
 20
-1.06493058E+02
  0
VERTEX
  8
0
 62
4
 10
-4.71872902E+01
 20
-1.06418403E+02
  0
VERTEX
  8
0
 62
4
 10
-4.74547267E+01
 20
-1.06364669E+02
  0
VERTEX
  8
0
 62
4
 10
-4.77263130E+01
 20
-1.06332264E+02
  0
VERTEX
  8
0
 62
4
 10
-4.79999820E+01
 20
-1.06321435E+02
  0
VERTEX
  8
0
 62
4
 10
-4.82736510E+01
 20
-1.06332264E+02
  0
VERTEX
  8
0
 62
4
 10
-4.85452373E+01
 20
-1.06364669E+02
  0
VERTEX
  8
0
 62
4
 10
-4.88126738E+01
 20
-1.06418403E+02
  0
VERTEX
  8
0
 62
4
 10
-4.90739253E+01
 20
-1.06493058E+02
  0
VERTEX
  8
0
 62
4
 10
-4.93270033E+01
 20
-1.06588064E+02
  0
VERTEX
  8
0
 62
4
 10
-4.95699820E+01
 20
-1.06702700E+02
  0
VERTEX
  8
0
 62
4
 10
-4.98010120E+01
 20
-1.06836093E+02
  0
VERTEX
  8
0
 62
4
 10
-5.00183351E+01
 20
-1.06987227E+02
  0
VERTEX
  8
0
 62
4
 10
-5.02202973E+01
 20
-1.07154952E+02
  0
VERTEX
  8
0
 62
4
 10
-5.04053616E+01
 20
-1.07337992E+02
  0
VERTEX
  8
0
 62
4
 10
-5.05721194E+01
 20
-1.07534953E+02
  0
VERTEX
  8
0
 62
4
 10
-5.07193018E+01
 20
-1.07744338E+02
  0
VERTEX
  8
0
 62
4
 10
-5.08457885E+01
 20
-1.07964551E+02
  0
VERTEX
  8
0
 62
4
 10
-5.09506168E+01
 20
-1.08193918E+02
  0
VERTEX
  8
0
 62
4
 10
-5.10329891E+01
 20
-1.08430692E+02
  0
VERTEX
  8
0
 62
4
 10
-5.10922783E+01
 20
-1.08673072E+02
  0
VERTEX
  8
0
 62
4
 10
-5.11280334E+01
 20
-1.08919213E+02
  0
VERTEX
  8
0
 62
4
 10
-5.11399820E+01
 20
-1.09167241E+02
  0
VERTEX
  8
0
 62
4
 10
-5.11280334E+01
 20
-1.09415269E+02
  0
VERTEX
  8
0
 62
4
 10
-5.10922783E+01
 20
-1.09661410E+02
  0
VERTEX
  8
0
 62
4
 10
-5.10329891E+01
 20
-1.09903790E+02
  0
VERTEX
  8
0
 62
4
 10
-5.09506168E+01
 20
-1.10140564E+02
  0
VERTEX
  8
0
 62
4
 10
-5.08457884E+01
 20
-1.10369931E+02
  0
VERTEX
  8
0
 62
4
 10
-5.07193018E+01
 20
-1.10590144E+02
  0
VERTEX
  8
0
 62
4
 10
-5.05721194E+01
 20
-1.10799529E+02
  0
VERTEX
  8
0
 62
4
 10
-5.04053615E+01
 20
-1.10996490E+02
  0
VERTEX
  8
0
 62
4
 10
-5.02202973E+01
 20
-1.11179530E+02
  0
VERTEX
  8
0
 62
4
 10
-5.00183351E+01
 20
-1.11347255E+02
  0
VERTEX
  8
0
 62
4
 10
-4.98010120E+01
 20
-1.11498389E+02
  0
VERTEX
  8
0
 62
4
 10
-4.95699820E+01
 20
-1.11631782E+02
  0
VERTEX
  8
0
 62
4
 10
-4.93270033E+01
 20
-1.11746418E+02
  0
VERTEX
  8
0
 62
4
 10
-4.90739252E+01
 20
-1.11841424E+02
  0
VERTEX
  8
0
 62
4
 10
-4.88126738E+01
 20
-1.11916079E+02
  0
VERTEX
  8
0
 62
4
 10
-4.85452373E+01
 20
-1.11969813E+02
  0
VERTEX
  8
0
 62
4
 10
-4.82736510E+01
 20
-1.12002218E+02
  0
VERTEX
  8
0
 62
4
 10
-4.79999820E+01
 20
-1.12013047E+02
  0
VERTEX
  8
0
 62
4
 10
-4.77263130E+01
 20
-1.12002218E+02
  0
VERTEX
  8
0
 62
4
 10
-4.74547267E+01
 20
-1.11969813E+02
  0
VERTEX
  8
0
 62
4
 10
-4.71872902E+01
 20
-1.11916079E+02
  0
VERTEX
  8
0
 62
4
 10
-4.69260387E+01
 20
-1.11841424E+02
  0
VERTEX
  8
0
 62
4
 10
-4.66729607E+01
 20
-1.11746418E+02
  0
VERTEX
  8
0
 62
4
 10
-4.64299820E+01
 20
-1.11631782E+02
  0
VERTEX
  8
0
 62
4
 10
-4.61989520E+01
 20
-1.11498389E+02
  0
VERTEX
  8
0
 62
4
 10
-4.59816289E+01
 20
-1.11347255E+02
  0
VERTEX
  8
0
 62
4
 10
-4.57796667E+01
 20
-1.11179530E+02
  0
VERTEX
  8
0
 62
4
 10
-4.55946024E+01
 20
-1.10996490E+02
  0
VERTEX
  8
0
 62
4
 10
-4.54278446E+01
 20
-1.10799529E+02
  0
VERTEX
  8
0
 62
4
 10
-4.52806622E+01
 20
-1.10590144E+02
  0
VERTEX
  8
0
 62
4
 10
-4.51541755E+01
 20
-1.10369931E+02
  0
VERTEX
  8
0
 62
4
 10
-4.50493472E+01
 20
-1.10140564E+02
  0
VERTEX
  8
0
 62
4
 10
-4.49669749E+01
 20
-1.09903790E+02
  0
VERTEX
  8
0
 62
4
 10
-4.49076857E+01
 20
-1.09661410E+02
  0
VERTEX
  8
0
 62
4
 10
-4.48719306E+01
 20
-1.09415269E+02
  0
VERTEX
  8
0
 62
4
 10
-4.48599820E+01
 20
-1.09167241E+02
  0
SEQEND
  8
0
  0
LINE
  8
0
 62
4
 10
-7.34999820E+01
 20
-1.18199738E+02
 11
-5.44999820E+01
 21
-1.18199738E+02
  0
ARC
  8
0
 62
4
 10
-5.97643870E+01
 20
-1.15380859E+02
 40
1.21769740E+01
 50
2.40462101E+02
 51
2.58262147E+02
  0
ARC
  8
0
 62
4
 10
-6.82355770E+01
 20
-1.15380859E+02
 40
1.21769740E+01
 50
2.81737853E+02
 51
2.99537899E+02
  0
POLYLINE
  8
0
 62
4
 66
1
  0
VERTEX
  8
0
 62
4
 10
-6.05999820E+01
 20
-1.26052814E+02
  0
VERTEX
  8
0
 62
4
 10
-6.06129200E+01
 20
-1.25912054E+02
  0
VERTEX
  8
0
 62
4
 10
-6.06516356E+01
 20
-1.25772366E+02
  0
VERTEX
  8
0
 62
4
 10
-6.07158342E+01
 20
-1.25634812E+02
  0
VERTEX
  8
0
 62
4
 10
-6.08050271E+01
 20
-1.25500439E+02
  0
VERTEX
  8
0
 62
4
 10
-6.09185355E+01
 20
-1.25370270E+02
  0
VERTEX
  8
0
 62
4
 10
-6.10554956E+01
 20
-1.25245296E+02
  0
VERTEX
  8
0
 62
4
 10
-6.12148650E+01
 20
-1.25126468E+02
  0
VERTEX
  8
0
 62
4
 10
-6.13954309E+01
 20
-1.25014689E+02
  0
VERTEX
  8
0
 62
4
 10
-6.15958189E+01
 20
-1.24910811E+02
  0
VERTEX
  8
0
 62
4
 10
-6.18145041E+01
 20
-1.24815625E+02
  0
VERTEX
  8
0
 62
4
 10
-6.20498221E+01
 20
-1.24729854E+02
  0
VERTEX
  8
0
 62
4
 10
-6.22999820E+01
 20
-1.24654152E+02
  0
VERTEX
  8
0
 62
4
 10
-6.25630799E+01
 20
-1.24589095E+02
  0
VERTEX
  8
0
 62
4
 10
-6.28371135E+01
 20
-1.24535177E+02
  0
VERTEX
  8
0
 62
4
 10
-6.31199972E+01
 20
-1.24492809E+02
  0
VERTEX
  8
0
 62
4
 10
-6.34095782E+01
 20
-1.24462314E+02
  0
VERTEX
  8
0
 62
4
 10
-6.37036525E+01
 20
-1.24443924E+02
  0
VERTEX
  8
0
 62
4
 10
-6.39999820E+01
 20
-1.24437778E+02
  0
VERTEX
  8
0
 62
4
 10
-6.42963115E+01
 20
-1.24443924E+02
  0
VERTEX
  8
0
 62
4
 10
-6.45903858E+01
 20
-1.24462314E+02
  0
VERTEX
  8
0
 62
4
 10
-6.48799668E+01
 20
-1.24492809E+02
  0
VERTEX
  8
0
 62
4
 10
-6.51628505E+01
 20
-1.24535177E+02
  0
VERTEX
  8
0
 62
4
 10
-6.54368841E+01
 20
-1.24589095E+02
  0
VERTEX
  8
0
 62
4
 10
-6.56999820E+01
 20
-1.24654152E+02
  0
VERTEX
  8
0
 62
4
 10
-6.59501419E+01
 20
-1.24729854E+02
  0
VERTEX
  8
0
 62
4
 10
-6.61854599E+01
 20
-1.24815625E+02
  0
VERTEX
  8
0
 62
4
 10
-6.64041451E+01
 20
-1.24910811E+02
  0
VERTEX
  8
0
 62
4
 10
-6.66045331E+01
 20
-1.25014689E+02
  0
VERTEX
  8
0
 62
4
 10
-6.67850990E+01
 20
-1.25126468E+02
  0
VERTEX
  8
0
 62
4
 10
-6.69444684E+01
 20
-1.25245296E+02
  0
VERTEX
  8
0
 62
4
 10
-6.70814285E+01
 20
-1.25370270E+02
  0
VERTEX
  8
0
 62
4
 10
-6.71949369E+01
 20
-1.25500439E+02
  0
VERTEX
  8
0
 62
4
 10
-6.72841298E+01
 20
-1.25634812E+02
  0
VERTEX
  8
0
 62
4
 10
-6.73483284E+01
 20
-1.25772366E+02
  0
VERTEX
  8
0
 62
4
 10
-6.73870440E+01
 20
-1.25912054E+02
  0
VERTEX
  8
0
 62
4
 10
-6.73999820E+01
 20
-1.26052814E+02
  0
VERTEX
  8
0
 62
4
 10
-6.73870440E+01
 20
-1.26193574E+02
  0
VERTEX
  8
0
 62
4
 10
-6.73483284E+01
 20
-1.26333262E+02
  0
VERTEX
  8
0
 62
4
 10
-6.72841298E+01
 20
-1.26470816E+02
  0
VERTEX
  8
0
 62
4
 10
-6.71949369E+01
 20
-1.26605189E+02
  0
VERTEX
  8
0
 62
4
 10
-6.70814285E+01
 20
-1.26735358E+02
  0
VERTEX
  8
0
 62
4
 10
-6.69444684E+01
 20
-1.26860332E+02
  0
VERTEX
  8
0
 62
4
 10
-6.67850989E+01
 20
-1.26979160E+02
  0
VERTEX
  8
0
 62
4
 10
-6.66045331E+01
 20
-1.27090939E+02
  0
VERTEX
  8
0
 62
4
 10
-6.64041451E+01
 20
-1.27194817E+02
  0
VERTEX
  8
0
 62
4
 10
-6.61854599E+01
 20
-1.27290003E+02
  0
VERTEX
  8
0
 62
4
 10
-6.59501419E+01
 20
-1.27375774E+02
  0
VERTEX
  8
0
 62
4
 10
-6.56999820E+01
 20
-1.27451476E+02
  0
VERTEX
  8
0
 62
4
 10
-6.54368841E+01
 20
-1.27516533E+02
  0
VERTEX
  8
0
 62
4
 10
-6.51628505E+01
 20
-1.27570451E+02
  0
VERTEX
  8
0
 62
4
 10
-6.48799667E+01
 20
-1.27612819E+02
  0
VERTEX
  8
0
 62
4
 10
-6.45903858E+01
 20
-1.27643314E+02
  0
VERTEX
  8
0
 62
4
 10
-6.42963115E+01
 20
-1.27661704E+02
  0
VERTEX
  8
0
 62
4
 10
-6.39999820E+01
 20
-1.27667850E+02
  0
VERTEX
  8
0
 62
4
 10
-6.37036525E+01
 20
-1.27661704E+02
  0
VERTEX
  8
0
 62
4
 10
-6.34095782E+01
 20
-1.27643314E+02
  0
VERTEX
  8
0
 62
4
 10
-6.31199972E+01
 20
-1.27612819E+02
  0
VERTEX
  8
0
 62
4
 10
-6.28371135E+01
 20
-1.27570451E+02
  0
VERTEX
  8
0
 62
4
 10
-6.25630799E+01
 20
-1.27516533E+02
  0
VERTEX
  8
0
 62
4
 10
-6.22999820E+01
 20
-1.27451476E+02
  0
VERTEX
  8
0
 62
4
 10
-6.20498221E+01
 20
-1.27375774E+02
  0
VERTEX
  8
0
 62
4
 10
-6.18145041E+01
 20
-1.27290003E+02
  0
VERTEX
  8
0
 62
4
 10
-6.15958189E+01
 20
-1.27194817E+02
  0
VERTEX
  8
0
 62
4
 10
-6.13954309E+01
 20
-1.27090939E+02
  0
VERTEX
  8
0
 62
4
 10
-6.12148650E+01
 20
-1.26979160E+02
  0
VERTEX
  8
0
 62
4
 10
-6.10554956E+01
 20
-1.26860332E+02
  0
VERTEX
  8
0
 62
4
 10
-6.09185355E+01
 20
-1.26735358E+02
  0
VERTEX
  8
0
 62
4
 10
-6.08050271E+01
 20
-1.26605189E+02
  0
VERTEX
  8
0
 62
4
 10
-6.07158342E+01
 20
-1.26470816E+02
  0
VERTEX
  8
0
 62
4
 10
-6.06516356E+01
 20
-1.26333262E+02
  0
VERTEX
  8
0
 62
4
 10
-6.06129200E+01
 20
-1.26193574E+02
  0
VERTEX
  8
0
 62
4
 10
-6.05999820E+01
 20
-1.26052814E+02
  0
SEQEND
  8
0
  0
POLYLINE
  8
0
 62
4
 66
1
  0
VERTEX
  8
0
 62
4
 10
-6.05999820E+01
 20
-1.24088313E+02
  0
VERTEX
  8
0
 62
4
 10
-6.06136694E+01
 20
-1.23959510E+02
  0
VERTEX
  8
0
 62
4
 10
-6.06546214E+01
 20
-1.23831744E+02
  0
VERTEX
  8
0
 62
4
 10
-6.07225083E+01
 20
-1.23706044E+02
  0
VERTEX
  8
0
 62
4
 10
-6.08167834E+01
 20
-1.23583422E+02
  0
VERTEX
  8
0
 62
4
 10
-6.09366878E+01
 20
-1.23464865E+02
  0
VERTEX
  8
0
 62
4
 10
-6.10812561E+01
 20
-1.23351327E+02
  0
VERTEX
  8
0
 62
4
 10
-6.12493242E+01
 20
-1.23243723E+02
  0
VERTEX
  8
0
 62
4
 10
-6.14395390E+01
 20
-1.23142919E+02
  0
VERTEX
  8
0
 62
4
 10
-6.16503690E+01
 20
-1.23049728E+02
  0
VERTEX
  8
0
 62
4
 10
-6.18801167E+01
 20
-1.22964898E+02
  0
VERTEX
  8
0
 62
4
 10
-6.21269323E+01
 20
-1.22889113E+02
  0
VERTEX
  8
0
 62
4
 10
-6.23888285E+01
 20
-1.22822983E+02
  0
VERTEX
  8
0
 62
4
 10
-6.26636969E+01
 20
-1.22767042E+02
  0
VERTEX
  8
0
 62
4
 10
-6.29493242E+01
 20
-1.22721738E+02
  0
VERTEX
  8
0
 62
4
 10
-6.32434108E+01
 20
-1.22687437E+02
  0
VERTEX
  8
0
 62
4
 10
-6.35435889E+01
 20
-1.22664415E+02
  0
VERTEX
  8
0
 62
4
 10
-6.38474416E+01
 20
-1.22652858E+02
  0
VERTEX
  8
0
 62
4
 10
-6.41525224E+01
 20
-1.22652858E+02
  0
VERTEX
  8
0
 62
4
 10
-6.44563751E+01
 20
-1.22664415E+02
  0
VERTEX
  8
0
 62
4
 10
-6.47565532E+01
 20
-1.22687437E+02
  0
VERTEX
  8
0
 62
4
 10
-6.50506398E+01
 20
-1.22721738E+02
  0
VERTEX
  8
0
 62
4
 10
-6.53362671E+01
 20
-1.22767042E+02
  0
VERTEX
  8
0
 62
4
 10
-6.56111354E+01
 20
-1.22822983E+02
  0
VERTEX
  8
0
 62
4
 10
-6.58730317E+01
 20
-1.22889113E+02
  0
VERTEX
  8
0
 62
4
 10
-6.61198473E+01
 20
-1.22964898E+02
  0
VERTEX
  8
0
 62
4
 10
-6.63495950E+01
 20
-1.23049728E+02
  0
VERTEX
  8
0
 62
4
 10
-6.65604250E+01
 20
-1.23142919E+02
  0
VERTEX
  8
0
 62
4
 10
-6.67506398E+01
 20
-1.23243723E+02
  0
VERTEX
  8
0
 62
4
 10
-6.69187079E+01
 20
-1.23351327E+02
  0
VERTEX
  8
0
 62
4
 10
-6.70632761E+01
 20
-1.23464865E+02
  0
VERTEX
  8
0
 62
4
 10
-6.71831806E+01
 20
-1.23583422E+02
  0
VERTEX
  8
0
 62
4
 10
-6.72774557E+01
 20
-1.23706044E+02
  0
VERTEX
  8
0
 62
4
 10
-6.73453426E+01
 20
-1.23831744E+02
  0
VERTEX
  8
0
 62
4
 10
-6.73862946E+01
 20
-1.23959510E+02
  0
VERTEX
  8
0
 62
4
 10
-6.73999820E+01
 20
-1.24088313E+02
  0
SEQEND
  8
0
  0
LINE
  8
0
 62
4
 10
-6.73999820E+01
 20
-1.24088313E+02
 11
-6.73999820E+01
 21
-1.26052814E+02
  0
LINE
  8
0
 62
4
 10
-6.05999820E+01
 20
-1.24088313E+02
 11
-6.05999820E+01
 21
-1.26052814E+02
  0
LINE
  8
0
 62
4
 10
-6.79999820E+01
 20
-1.23635159E+02
 11
-6.79999820E+01
 21
-1.24088313E+02
  0
LINE
  8
0
 62
4
 10
-5.99999820E+01
 20
-1.23635159E+02
 11
-5.99999820E+01
 21
-1.24088313E+02
  0
POLYLINE
  8
0
 62
4
 66
1
  0
VERTEX
  8
0
 62
4
 10
-5.99999820E+01
 20
-1.23635159E+02
  0
VERTEX
  8
0
 62
4
 10
-6.00160848E+01
 20
-1.23483626E+02
  0
VERTEX
  8
0
 62
4
 10
-6.00642636E+01
 20
-1.23333313E+02
  0
VERTEX
  8
0
 62
4
 10
-6.01441306E+01
 20
-1.23185431E+02
  0
VERTEX
  8
0
 62
4
 10
-6.02550425E+01
 20
-1.23041169E+02
  0
VERTEX
  8
0
 62
4
 10
-6.03961065E+01
 20
-1.22901690E+02
  0
VERTEX
  8
0
 62
4
 10
-6.05661868E+01
 20
-1.22768117E+02
  0
VERTEX
  8
0
 62
4
 10
-6.07639140E+01
 20
-1.22641524E+02
  0
VERTEX
  8
0
 62
4
 10
-6.09876961E+01
 20
-1.22522931E+02
  0
VERTEX
  8
0
 62
4
 10
-6.12357314E+01
 20
-1.22413294E+02
  0
VERTEX
  8
0
 62
4
 10
-6.15060228E+01
 20
-1.22313494E+02
  0
VERTEX
  8
0
 62
4
 10
-6.17963941E+01
 20
-1.22224335E+02
  0
VERTEX
  8
0
 62
4
 10
-6.21045073E+01
 20
-1.22146536E+02
  0
VERTEX
  8
0
 62
4
 10
-6.24278819E+01
 20
-1.22080722E+02
  0
VERTEX
  8
0
 62
4
 10
-6.27639140E+01
 20
-1.22027424E+02
  0
VERTEX
  8
0
 62
4
 10
-6.31098983E+01
 20
-1.21987070E+02
  0
VERTEX
  8
0
 62
4
 10
-6.34630489E+01
 20
-1.21959985E+02
  0
VERTEX
  8
0
 62
4
 10
-6.38205227E+01
 20
-1.21946388E+02
  0
VERTEX
  8
0
 62
4
 10
-6.41794413E+01
 20
-1.21946388E+02
  0
VERTEX
  8
0
 62
4
 10
-6.45369151E+01
 20
-1.21959985E+02
  0
VERTEX
  8
0
 62
4
 10
-6.48900657E+01
 20
-1.21987070E+02
  0
VERTEX
  8
0
 62
4
 10
-6.52360500E+01
 20
-1.22027424E+02
  0
VERTEX
  8
0
 62
4
 10
-6.55720821E+01
 20
-1.22080722E+02
  0
VERTEX
  8
0
 62
4
 10
-6.58954566E+01
 20
-1.22146536E+02
  0
VERTEX
  8
0
 62
4
 10
-6.62035699E+01
 20
-1.22224335E+02
  0
VERTEX
  8
0
 62
4
 10
-6.64939412E+01
 20
-1.22313494E+02
  0
VERTEX
  8
0
 62
4
 10
-6.67642326E+01
 20
-1.22413294E+02
  0
VERTEX
  8
0
 62
4
 10
-6.70122679E+01
 20
-1.22522931E+02
  0
VERTEX
  8
0
 62
4
 10
-6.72360500E+01
 20
-1.22641524E+02
  0
VERTEX
  8
0
 62
4
 10
-6.74337772E+01
 20
-1.22768117E+02
  0
VERTEX
  8
0
 62
4
 10
-6.76038575E+01
 20
-1.22901690E+02
  0
VERTEX
  8
0
 62
4
 10
-6.77449215E+01
 20
-1.23041169E+02
  0
VERTEX
  8
0
 62
4
 10
-6.78558334E+01
 20
-1.23185431E+02
  0
VERTEX
  8
0
 62
4
 10
-6.79357004E+01
 20
-1.23333313E+02
  0
VERTEX
  8
0
 62
4
 10
-6.79838792E+01
 20
-1.23483626E+02
  0
VERTEX
  8
0
 62
4
 10
-6.79999820E+01
 20
-1.23635159E+02
  0
SEQEND
  8
0
  0
POLYLINE
  8
0
 62
4
 66
1
  0
VERTEX
  8
0
 62
4
 10
-6.05999820E+01
 20
-1.24978825E+02
  0
VERTEX
  8
0
 62
4
 10
-6.04269300E+01
 20
-1.24848239E+02
  0
VERTEX
  8
0
 62
4
 10
-6.02818870E+01
 20
-1.24711696E+02
  0
VERTEX
  8
0
 62
4
 10
-6.01659902E+01
 20
-1.24570266E+02
  0
VERTEX
  8
0
 62
4
 10
-6.00801479E+01
 20
-1.24425058E+02
  0
VERTEX
  8
0
 62
4
 10
-6.00250331E+01
 20
-1.24277210E+02
  0
VERTEX
  8
0
 62
4
 10
-6.00010779E+01
 20
-1.24127882E+02
  0
VERTEX
  8
0
 62
4
 10
-6.00084701E+01
 20
-1.23978243E+02
  0
VERTEX
  8
0
 62
4
 10
-6.00471516E+01
 20
-1.23829468E+02
  0
VERTEX
  8
0
 62
4
 10
-6.01168193E+01
 20
-1.23682721E+02
  0
VERTEX
  8
0
 62
4
 10
-6.02169270E+01
 20
-1.23539154E+02
  0
VERTEX
  8
0
 62
4
 10
-6.03466901E+01
 20
-1.23399892E+02
  0
VERTEX
  8
0
 62
4
 10
-6.05050912E+01
 20
-1.23266026E+02
  0
VERTEX
  8
0
 62
4
 10
-6.06908887E+01
 20
-1.23138606E+02
  0
VERTEX
  8
0
 62
4
 10
-6.09026262E+01
 20
-1.23018631E+02
  0
VERTEX
  8
0
 62
4
 10
-6.11386438E+01
 20
-1.22907041E+02
  0
VERTEX
  8
0
 62
4
 10
-6.13970913E+01
 20
-1.22804711E+02
  0
VERTEX
  8
0
 62
4
 10
-6.16759429E+01
 20
-1.22712443E+02
  0
VERTEX
  8
0
 62
4
 10
-6.19730125E+01
 20
-1.22630960E+02
  0
VERTEX
  8
0
 62
4
 10
-6.22859716E+01
 20
-1.22560902E+02
  0
VERTEX
  8
0
 62
4
 10
-6.26123667E+01
 20
-1.22502817E+02
  0
VERTEX
  8
0
 62
4
 10
-6.29496394E+01
 20
-1.22457161E+02
  0
VERTEX
  8
0
 62
4
 10
-6.32951456E+01
 20
-1.22424291E+02
  0
VERTEX
  8
0
 62
4
 10
-6.36461771E+01
 20
-1.22404466E+02
  0
VERTEX
  8
0
 62
4
 10
-6.39999820E+01
 20
-1.22397840E+02
  0
VERTEX
  8
0
 62
4
 10
-6.43537869E+01
 20
-1.22404466E+02
  0
VERTEX
  8
0
 62
4
 10
-6.47048184E+01
 20
-1.22424291E+02
  0
VERTEX
  8
0
 62
4
 10
-6.50503246E+01
 20
-1.22457161E+02
  0
VERTEX
  8
0
 62
4
 10
-6.53875972E+01
 20
-1.22502817E+02
  0
VERTEX
  8
0
 62
4
 10
-6.57139924E+01
 20
-1.22560902E+02
  0
VERTEX
  8
0
 62
4
 10
-6.60269514E+01
 20
-1.22630960E+02
  0
VERTEX
  8
0
 62
4
 10
-6.63240211E+01
 20
-1.22712443E+02
  0
VERTEX
  8
0
 62
4
 10
-6.66028727E+01
 20
-1.22804711E+02
  0
VERTEX
  8
0
 62
4
 10
-6.68613202E+01
 20
-1.22907041E+02
  0
VERTEX
  8
0
 62
4
 10
-6.70973378E+01
 20
-1.23018631E+02
  0
VERTEX
  8
0
 62
4
 10
-6.73090752E+01
 20
-1.23138606E+02
  0
VERTEX
  8
0
 62
4
 10
-6.74948728E+01
 20
-1.23266026E+02
  0
VERTEX
  8
0
 62
4
 10
-6.76532739E+01
 20
-1.23399892E+02
  0
VERTEX
  8
0
 62
4
 10
-6.77830370E+01
 20
-1.23539154E+02
  0
VERTEX
  8
0
 62
4
 10
-6.78831447E+01
 20
-1.23682721E+02
  0
VERTEX
  8
0
 62
4
 10
-6.79528124E+01
 20
-1.23829468E+02
  0
VERTEX
  8
0
 62
4
 10
-6.79914939E+01
 20
-1.23978243E+02
  0
VERTEX
  8
0
 62
4
 10
-6.79988861E+01
 20
-1.24127882E+02
  0
VERTEX
  8
0
 62
4
 10
-6.79749309E+01
 20
-1.24277210E+02
  0
VERTEX
  8
0
 62
4
 10
-6.79198161E+01
 20
-1.24425058E+02
  0
VERTEX
  8
0
 62
4
 10
-6.78339738E+01
 20
-1.24570266E+02
  0
VERTEX
  8
0
 62
4
 10
-6.77180770E+01
 20
-1.24711696E+02
  0
VERTEX
  8
0
 62
4
 10
-6.75730340E+01
 20
-1.24848239E+02
  0
VERTEX
  8
0
 62
4
 10
-6.73999820E+01
 20
-1.24978825E+02
  0
SEQEND
  8
0
  0
POLYLINE
  8
0
 62
4
 66
1
  0
VERTEX
  8
0
 62
4
 10
-6.09999820E+01
 20
-9.73338988E+01
  0
VERTEX
  8
0
 62
4
 10
-6.10113979E+01
 20
-9.70969290E+01
  0
VERTEX
  8
0
 62
4
 10
-6.10455587E+01
 20
-9.68617627E+01
  0
VERTEX
  8
0
 62
4
 10
-6.11022045E+01
 20
-9.66301897E+01
  0
VERTEX
  8
0
 62
4
 10
-6.11809041E+01
 20
-9.64039722E+01
  0
VERTEX
  8
0
 62
4
 10
-6.12810586E+01
 20
-9.61848321E+01
  0
VERTEX
  8
0
 62
4
 10
-6.14019058E+01
 20
-9.59744371E+01
  0
VERTEX
  8
0
 62
4
 10
-6.15425259E+01
 20
-9.57743884E+01
  0
VERTEX
  8
0
 62
4
 10
-6.17018487E+01
 20
-9.55862086E+01
  0
VERTEX
  8
0
 62
4
 10
-6.18786617E+01
 20
-9.54113297E+01
  0
VERTEX
  8
0
 62
4
 10
-6.20716192E+01
 20
-9.52510827E+01
  0
VERTEX
  8
0
 62
4
 10
-6.22792527E+01
 20
-9.51066872E+01
  0
VERTEX
  8
0
 62
4
 10
-6.24999820E+01
 20
-9.49792421E+01
  0
VERTEX
  8
0
 62
4
 10
-6.27321272E+01
 20
-9.48697174E+01
  0
VERTEX
  8
0
 62
4
 10
-6.29739216E+01
 20
-9.47789466E+01
  0
VERTEX
  8
0
 62
4
 10
-6.32235249E+01
 20
-9.47076205E+01
  0
VERTEX
  8
0
 62
4
 10
-6.34790375E+01
 20
-9.46562820E+01
  0
VERTEX
  8
0
 62
4
 10
-6.37385148E+01
 20
-9.46253218E+01
  0
VERTEX
  8
0
 62
4
 10
-6.39999820E+01
 20
-9.46149754E+01
  0
VERTEX
  8
0
 62
4
 10
-6.42614492E+01
 20
-9.46253218E+01
  0
VERTEX
  8
0
 62
4
 10
-6.45209265E+01
 20
-9.46562820E+01
  0
VERTEX
  8
0
 62
4
 10
-6.47764391E+01
 20
-9.47076205E+01
  0
VERTEX
  8
0
 62
4
 10
-6.50260424E+01
 20
-9.47789466E+01
  0
VERTEX
  8
0
 62
4
 10
-6.52678368E+01
 20
-9.48697174E+01
  0
VERTEX
  8
0
 62
4
 10
-6.54999820E+01
 20
-9.49792421E+01
  0
VERTEX
  8
0
 62
4
 10
-6.57207113E+01
 20
-9.51066872E+01
  0
VERTEX
  8
0
 62
4
 10
-6.59283448E+01
 20
-9.52510827E+01
  0
VERTEX
  8
0
 62
4
 10
-6.61213023E+01
 20
-9.54113297E+01
  0
VERTEX
  8
0
 62
4
 10
-6.62981153E+01
 20
-9.55862086E+01
  0
VERTEX
  8
0
 62
4
 10
-6.64574381E+01
 20
-9.57743884E+01
  0
VERTEX
  8
0
 62
4
 10
-6.65980582E+01
 20
-9.59744371E+01
  0
VERTEX
  8
0
 62
4
 10
-6.67189054E+01
 20
-9.61848321E+01
  0
VERTEX
  8
0
 62
4
 10
-6.68190599E+01
 20
-9.64039722E+01
  0
VERTEX
  8
0
 62
4
 10
-6.68977595E+01
 20
-9.66301897E+01
  0
VERTEX
  8
0
 62
4
 10
-6.69544053E+01
 20
-9.68617627E+01
  0
VERTEX
  8
0
 62
4
 10
-6.69885661E+01
 20
-9.70969290E+01
  0
VERTEX
  8
0
 62
4
 10
-6.69999820E+01
 20
-9.73338988E+01
  0
VERTEX
  8
0
 62
4
 10
-6.69885661E+01
 20
-9.75708686E+01
  0
VERTEX
  8
0
 62
4
 10
-6.69544053E+01
 20
-9.78060349E+01
  0
VERTEX
  8
0
 62
4
 10
-6.68977595E+01
 20
-9.80376080E+01
  0
VERTEX
  8
0
 62
4
 10
-6.68190599E+01
 20
-9.82638254E+01
  0
VERTEX
  8
0
 62
4
 10
-6.67189054E+01
 20
-9.84829655E+01
  0
VERTEX
  8
0
 62
4
 10
-6.65980582E+01
 20
-9.86933605E+01
  0
VERTEX
  8
0
 62
4
 10
-6.64574381E+01
 20
-9.88934092E+01
  0
VERTEX
  8
0
 62
4
 10
-6.62981153E+01
 20
-9.90815891E+01
  0
VERTEX
  8
0
 62
4
 10
-6.61213023E+01
 20
-9.92564679E+01
  0
VERTEX
  8
0
 62
4
 10
-6.59283448E+01
 20
-9.94167149E+01
  0
VERTEX
  8
0
 62
4
 10
-6.57207113E+01
 20
-9.95611104E+01
  0
VERTEX
  8
0
 62
4
 10
-6.54999820E+01
 20
-9.96885555E+01
  0
VERTEX
  8
0
 62
4
 10
-6.52678368E+01
 20
-9.97980802E+01
  0
VERTEX
  8
0
 62
4
 10
-6.50260424E+01
 20
-9.98888510E+01
  0
VERTEX
  8
0
 62
4
 10
-6.47764391E+01
 20
-9.99601771E+01
  0
VERTEX
  8
0
 62
4
 10
-6.45209265E+01
 20
-1.00011516E+02
  0
VERTEX
  8
0
 62
4
 10
-6.42614492E+01
 20
-1.00042476E+02
  0
VERTEX
  8
0
 62
4
 10
-6.39999820E+01
 20
-1.00052822E+02
  0
VERTEX
  8
0
 62
4
 10
-6.37385148E+01
 20
-1.00042476E+02
  0
VERTEX
  8
0
 62
4
 10
-6.34790375E+01
 20
-1.00011516E+02
  0
VERTEX
  8
0
 62
4
 10
-6.32235249E+01
 20
-9.99601771E+01
  0
VERTEX
  8
0
 62
4
 10
-6.29739216E+01
 20
-9.98888510E+01
  0
VERTEX
  8
0
 62
4
 10
-6.27321272E+01
 20
-9.97980802E+01
  0
VERTEX
  8
0
 62
4
 10
-6.24999820E+01
 20
-9.96885555E+01
  0
VERTEX
  8
0
 62
4
 10
-6.22792527E+01
 20
-9.95611104E+01
  0
VERTEX
  8
0
 62
4
 10
-6.20716192E+01
 20
-9.94167149E+01
  0
VERTEX
  8
0
 62
4
 10
-6.18786617E+01
 20
-9.92564679E+01
  0
VERTEX
  8
0
 62
4
 10
-6.17018487E+01
 20
-9.90815890E+01
  0
VERTEX
  8
0
 62
4
 10
-6.15425259E+01
 20
-9.88934092E+01
  0
VERTEX
  8
0
 62
4
 10
-6.14019058E+01
 20
-9.86933605E+01
  0
VERTEX
  8
0
 62
4
 10
-6.12810586E+01
 20
-9.84829655E+01
  0
VERTEX
  8
0
 62
4
 10
-6.11809041E+01
 20
-9.82638254E+01
  0
VERTEX
  8
0
 62
4
 10
-6.11022045E+01
 20
-9.80376079E+01
  0
VERTEX
  8
0
 62
4
 10
-6.10455587E+01
 20
-9.78060349E+01
  0
VERTEX
  8
0
 62
4
 10
-6.10113979E+01
 20
-9.75708686E+01
  0
VERTEX
  8
0
 62
4
 10
-6.09999820E+01
 20
-9.73338988E+01
  0
SEQEND
  8
0
  0
LINE
  8
0
  6
CENTER
 62
6
 10
-6.95009895E+01
 20
-9.73338988E+01
 11
-5.84989745E+01
 21
-9.73338988E+01
  0
LINE
  8
0
 62
4
 10
-9.09999820E+01
 20
-1.07349654E+02
 11
-8.59999820E+01
 21
-1.07349654E+02
  0
LINE
  8
0
 62
4
 10
-9.09999820E+01
 20
-1.04175790E+02
 11
-8.59999820E+01
 21
-1.04175790E+02
  0
LINE
  8
0
 62
4
 10
-9.09999820E+01
 20
-9.66999714E+01
 11
-8.59999820E+01
 21
-9.66999714E+01
  0
ARC
  8
0
 62
4
 10
-7.44999815E+01
 20
-1.25304795E+02
 40
1.50000046E+00
 50
1.80000018E+02
 51
2.69999983E+02
  0
ARC
  8
0
 62
4
 10
-8.04999824E+01
 20
-9.33696102E+01
 40
4.99999542E-01
 50
8.99999475E+01
 51
1.80000053E+02
  0
ARC
  8
0
 62
4
 10
-8.04999777E+01
 20
-1.06369606E+02
 40
5.00004272E-01
 50
1.80000490E+02
 51
2.69999511E+02
  0
LINE
  8
0
 62
4
 10
-5.44999820E+01
 20
-9.92894313E+01
 11
-5.64999820E+01
 21
-9.92894313E+01
  0
LINE
  8
0
 62
4
 10
-7.44999820E+01
 20
-1.26804796E+02
 11
-6.70089425E+01
 21
-1.26804796E+02
  0
LINE
  8
0
 62
4
 10
-7.34999820E+01
 20
-1.16509279E+02
 11
-5.44999820E+01
 21
-1.16509279E+02
  0
LINE
  8
0
 62
4
 10
-7.59999820E+01
 20
-1.06869611E+02
 11
-7.59999820E+01
 21
-1.25304796E+02
  0
LINE
  8
0
 62
4
 10
-5.44999820E+01
 20
-9.92894313E+01
 11
-5.44999820E+01
 21
-1.18199738E+02
  0
LINE
  8
0
 62
4
 10
-7.34999820E+01
 20
-1.06869611E+02
 11
-7.34999820E+01
 21
-1.18199738E+02
  0
LINE
  8
0
 62
4
 10
-9.09999820E+01
 20
-9.23937892E+01
 11
-8.59999820E+01
 21
-9.23937892E+01
  0
LINE
  8
0
 62
4
 10
-7.14999820E+01
 20
-1.14696664E+02
 11
-5.64999820E+01
 21
-1.14696664E+02
  0
LINE
  8
0
 62
4
 10
-7.14999820E+01
 20
-1.04131207E+02
 11
-5.64999820E+01
 21
-1.04131207E+02
  0
LINE
  8
0
 62
4
 10
-8.44999820E+01
 20
-1.05619611E+02
 11
-8.09999820E+01
 21
-1.05619611E+02
  0
LINE
  8
0
 62
4
 10
-8.44999820E+01
 20
-9.41196107E+01
 11
-8.09999820E+01
 21
-9.41196107E+01
  0
LINE
  8
0
 62
4
 10
-8.44999820E+01
 20
-9.36196107E+01
 11
-8.44999820E+01
 21
-1.06119611E+02
  0
LINE
  8
0
 62
4
 10
-8.59999820E+01
 20
-1.06119611E+02
 11
-8.09999820E+01
 21
-1.06119611E+02
  0
LINE
  8
0
 62
4
 10
-8.59999820E+01
 20
-9.36196107E+01
 11
-8.09999820E+01
 21
-9.36196107E+01
  0
LINE
  8
0
 62
4
 10
-8.59999820E+01
 20
-9.23937892E+01
 11
-8.59999820E+01
 21
-1.07349654E+02
  0
LINE
  8
0
 62
4
 10
-9.09999820E+01
 20
-9.23937892E+01
 11
-9.09999820E+01
 21
-1.07349654E+02
  0
LINE
  8
0
 62
4
 10
-8.09999820E+01
 20
-9.33696107E+01
 11
-8.09999820E+01
 21
-1.06369611E+02
  0
LINE
  8
0
 62
4
 10
-7.14999820E+01
 20
-9.28696107E+01
 11
-8.04999820E+01
 21
-9.28696107E+01
  0
LINE
  8
0
 62
4
 10
-8.04999820E+01
 20
-1.06869611E+02
 11
-7.14999820E+01
 21
-1.06869611E+02
  0
LINE
  8
0
  6
CENTER
 62
6
 10
-6.79999820E+01
 20
-8.43199695E+01
 11
-6.79999820E+01
 21
-9.48199695E+01
  0
LINE
  8
0
 62
4
 10
-5.64999820E+01
 20
-8.70196596E+01
 11
-7.14999820E+01
 21
-8.70196596E+01
  0
LINE
  8
0
 62
4
 10
-5.64999820E+01
 20
-9.05365904E+01
 11
-7.14999820E+01
 21
-9.05365904E+01
  0
LINE
  8
0
 62
4
 10
-5.64999820E+01
 20
-8.70196596E+01
 11
-5.64999820E+01
 21
-1.14696664E+02
  0
LINE
  8
0
 62
4
 10
-7.14999820E+01
 20
-8.70196596E+01
 11
-7.14999820E+01
 21
-1.14696664E+02
  0
LINE
  8
0
  6
CENTER
 62
6
 10
-5.99999820E+01
 20
-8.43199695E+01
 11
-5.99999820E+01
 21
-9.48199695E+01
  0
ARC
  8
0
 62
4
 10
-7.44999820E+01
 20
-1.18965521E+02
 40
1.50000046E+00
 50
1.80000018E+02
 51
2.69999983E+02
  0
LINE
  8
0
  6
CENTER
 62
6
 10
-4.79999820E+01
 20
-1.03558224E+02
 11
-4.79999820E+01
 21
-1.14776257E+02
  0
ARC
  8
0
 62
4
 10
-3.84999786E+01
 20
-1.25304799E+02
 40
1.49999664E+00
 50
2.69999872E+02
 51
1.28225561E-04
  0
ARC
  8
0
 62
4
 10
-3.84999853E+01
 20
-1.01036457E+02
 40
1.50000336E+00
 50
1.28225275E-04
 51
8.99998718E+01
  0
LINE
  8
0
 62
4
 10
-3.69999820E+01
 20
-1.01036454E+02
 11
-3.69999820E+01
 21
-1.25304796E+02
  0
ARC
  8
0
 62
4
 10
-3.84999791E+01
 20
-1.18965525E+02
 40
1.49999664E+00
 50
2.69999872E+02
 51
1.28225561E-04
  0
LINE
  8
0
 62
4
 10
3.33140033E+02
 20
-2.51647013E+02
 11
3.33431879E+02
 21
-2.52262839E+02
  0
LINE
  8
0
 62
4
 10
3.26860033E+02
 20
-2.51647013E+02
 11
3.26568188E+02
 21
-2.52262839E+02
  0
POLYLINE
  8
0
 62
4
 66
1
  0
VERTEX
  8
0
 62
4
 10
3.26568187E+02
 20
-2.52262839E+02
  0
VERTEX
  8
0
 62
4
 10
3.26520897E+02
 20
-2.52392052E+02
  0
VERTEX
  8
0
 62
4
 10
3.26500792E+02
 20
-2.52522525E+02
  0
VERTEX
  8
0
 62
4
 10
3.26508028E+02
 20
-2.52653239E+02
  0
VERTEX
  8
0
 62
4
 10
3.26542548E+02
 20
-2.52783173E+02
  0
VERTEX
  8
0
 62
4
 10
3.26604085E+02
 20
-2.52911310E+02
  0
VERTEX
  8
0
 62
4
 10
3.26692155E+02
 20
-2.53036650E+02
  0
VERTEX
  8
0
 62
4
 10
3.26806072E+02
 20
-2.53158214E+02
  0
VERTEX
  8
0
 62
4
 10
3.26944946E+02
 20
-2.53275051E+02
  0
VERTEX
  8
0
 62
4
 10
3.27107690E+02
 20
-2.53386249E+02
  0
VERTEX
  8
0
 62
4
 10
3.27293034E+02
 20
-2.53490939E+02
  0
VERTEX
  8
0
 62
4
 10
3.27499529E+02
 20
-2.53588303E+02
  0
VERTEX
  8
0
 62
4
 10
3.27725562E+02
 20
-2.53677579E+02
  0
VERTEX
  8
0
 62
4
 10
3.27969367E+02
 20
-2.53758072E+02
  0
VERTEX
  8
0
 62
4
 10
3.28229038E+02
 20
-2.53829151E+02
  0
VERTEX
  8
0
 62
4
 10
3.28502548E+02
 20
-2.53890261E+02
  0
VERTEX
  8
0
 62
4
 10
3.28787758E+02
 20
-2.53940925E+02
  0
VERTEX
  8
0
 62
4
 10
3.29082440E+02
 20
-2.53980747E+02
  0
VERTEX
  8
0
 62
4
 10
3.29384292E+02
 20
-2.54009415E+02
  0
VERTEX
  8
0
 62
4
 10
3.29690955E+02
 20
-2.54026706E+02
  0
VERTEX
  8
0
 62
4
 10
3.30000033E+02
 20
-2.54032485E+02
  0
VERTEX
  8
0
 62
4
 10
3.30309111E+02
 20
-2.54026706E+02
  0
VERTEX
  8
0
 62
4
 10
3.30615774E+02
 20
-2.54009415E+02
  0
VERTEX
  8
0
 62
4
 10
3.30917626E+02
 20
-2.53980747E+02
  0
VERTEX
  8
0
 62
4
 10
3.31212308E+02
 20
-2.53940925E+02
  0
VERTEX
  8
0
 62
4
 10
3.31497518E+02
 20
-2.53890261E+02
  0
VERTEX
  8
0
 62
4
 10
3.31771028E+02
 20
-2.53829151E+02
  0
VERTEX
  8
0
 62
4
 10
3.32030699E+02
 20
-2.53758072E+02
  0
VERTEX
  8
0
 62
4
 10
3.32274504E+02
 20
-2.53677579E+02
  0
VERTEX
  8
0
 62
4
 10
3.32500537E+02
 20
-2.53588303E+02
  0
VERTEX
  8
0
 62
4
 10
3.32707032E+02
 20
-2.53490939E+02
  0
VERTEX
  8
0
 62
4
 10
3.32892376E+02
 20
-2.53386249E+02
  0
VERTEX
  8
0
 62
4
 10
3.33055120E+02
 20
-2.53275051E+02
  0
VERTEX
  8
0
 62
4
 10
3.33193994E+02
 20
-2.53158214E+02
  0
VERTEX
  8
0
 62
4
 10
3.33307911E+02
 20
-2.53036650E+02
  0
VERTEX
  8
0
 62
4
 10
3.33395981E+02
 20
-2.52911310E+02
  0
VERTEX
  8
0
 62
4
 10
3.33457518E+02
 20
-2.52783173E+02
  0
VERTEX
  8
0
 62
4
 10
3.33492038E+02
 20
-2.52653239E+02
  0
VERTEX
  8
0
 62
4
 10
3.33499274E+02
 20
-2.52522525E+02
  0
VERTEX
  8
0
 62
4
 10
3.33479169E+02
 20
-2.52392052E+02
  0
VERTEX
  8
0
 62
4
 10
3.33431879E+02
 20
-2.52262839E+02
  0
SEQEND
  8
0
  0
POLYLINE
  8
0
 62
4
 66
1
  0
VERTEX
  8
0
 62
4
 10
3.33140033E+02
 20
-2.51647013E+02
  0
VERTEX
  8
0
 62
4
 10
3.33128084E+02
 20
-2.51531355E+02
  0
VERTEX
  8
0
 62
4
 10
3.33092329E+02
 20
-2.51416578E+02
  0
VERTEX
  8
0
 62
4
 10
3.33033040E+02
 20
-2.51303555E+02
  0
VERTEX
  8
0
 62
4
 10
3.32950668E+02
 20
-2.51193145E+02
  0
VERTEX
  8
0
 62
4
 10
3.32845839E+02
 20
-2.51086190E+02
  0
VERTEX
  8
0
 62
4
 10
3.32719353E+02
 20
-2.50983502E+02
  0
VERTEX
  8
0
 62
4
 10
3.32572170E+02
 20
-2.50885865E+02
  0
VERTEX
  8
0
 62
4
 10
3.32405413E+02
 20
-2.50794020E+02
  0
VERTEX
  8
0
 62
4
 10
3.32220348E+02
 20
-2.50708667E+02
  0
VERTEX
  8
0
 62
4
 10
3.32018386E+02
 20
-2.50630456E+02
  0
VERTEX
  8
0
 62
4
 10
3.31801063E+02
 20
-2.50559981E+02
  0
VERTEX
  8
0
 62
4
 10
3.31570033E+02
 20
-2.50497779E+02
  0
VERTEX
  8
0
 62
4
 10
3.31327054E+02
 20
-2.50444323E+02
  0
VERTEX
  8
0
 62
4
 10
3.31073976E+02
 20
-2.50400021E+02
  0
VERTEX
  8
0
 62
4
 10
3.30812725E+02
 20
-2.50365209E+02
  0
VERTEX
  8
0
 62
4
 10
3.30545288E+02
 20
-2.50340152E+02
  0
VERTEX
  8
0
 62
4
 10
3.30273702E+02
 20
-2.50325041E+02
  0
VERTEX
  8
0
 62
4
 10
3.30000033E+02
 20
-2.50319992E+02
  0
VERTEX
  8
0
 62
4
 10
3.29726364E+02
 20
-2.50325041E+02
  0
VERTEX
  8
0
 62
4
 10
3.29454778E+02
 20
-2.50340152E+02
  0
VERTEX
  8
0
 62
4
 10
3.29187341E+02
 20
-2.50365209E+02
  0
VERTEX
  8
0
 62
4
 10
3.28926090E+02
 20
-2.50400021E+02
  0
VERTEX
  8
0
 62
4
 10
3.28673012E+02
 20
-2.50444323E+02
  0
VERTEX
  8
0
 62
4
 10
3.28430033E+02
 20
-2.50497779E+02
  0
VERTEX
  8
0
 62
4
 10
3.28199003E+02
 20
-2.50559981E+02
  0
VERTEX
  8
0
 62
4
 10
3.27981680E+02
 20
-2.50630456E+02
  0
VERTEX
  8
0
 62
4
 10
3.27779718E+02
 20
-2.50708667E+02
  0
VERTEX
  8
0
 62
4
 10
3.27594653E+02
 20
-2.50794020E+02
  0
VERTEX
  8
0
 62
4
 10
3.27427896E+02
 20
-2.50885865E+02
  0
VERTEX
  8
0
 62
4
 10
3.27280713E+02
 20
-2.50983502E+02
  0
VERTEX
  8
0
 62
4
 10
3.27154227E+02
 20
-2.51086190E+02
  0
VERTEX
  8
0
 62
4
 10
3.27049398E+02
 20
-2.51193145E+02
  0
VERTEX
  8
0
 62
4
 10
3.26967026E+02
 20
-2.51303555E+02
  0
VERTEX
  8
0
 62
4
 10
3.26907737E+02
 20
-2.51416578E+02
  0
VERTEX
  8
0
 62
4
 10
3.26871982E+02
 20
-2.51531355E+02
  0
VERTEX
  8
0
 62
4
 10
3.26860033E+02
 20
-2.51647013E+02
  0
VERTEX
  8
0
 62
4
 10
3.26871982E+02
 20
-2.51762671E+02
  0
VERTEX
  8
0
 62
4
 10
3.26907737E+02
 20
-2.51877448E+02
  0
VERTEX
  8
0
 62
4
 10
3.26967026E+02
 20
-2.51990471E+02
  0
VERTEX
  8
0
 62
4
 10
3.27049398E+02
 20
-2.52100881E+02
  0
VERTEX
  8
0
 62
4
 10
3.27154227E+02
 20
-2.52207836E+02
  0
VERTEX
  8
0
 62
4
 10
3.27280713E+02
 20
-2.52310524E+02
  0
VERTEX
  8
0
 62
4
 10
3.27427896E+02
 20
-2.52408161E+02
  0
VERTEX
  8
0
 62
4
 10
3.27594653E+02
 20
-2.52500006E+02
  0
VERTEX
  8
0
 62
4
 10
3.27779718E+02
 20
-2.52585359E+02
  0
VERTEX
  8
0
 62
4
 10
3.27981680E+02
 20
-2.52663570E+02
  0
VERTEX
  8
0
 62
4
 10
3.28199003E+02
 20
-2.52734045E+02
  0
VERTEX
  8
0
 62
4
 10
3.28430033E+02
 20
-2.52796247E+02
  0
VERTEX
  8
0
 62
4
 10
3.28673012E+02
 20
-2.52849703E+02
  0
VERTEX
  8
0
 62
4
 10
3.28926090E+02
 20
-2.52894005E+02
  0
VERTEX
  8
0
 62
4
 10
3.29187341E+02
 20
-2.52928817E+02
  0
VERTEX
  8
0
 62
4
 10
3.29454778E+02
 20
-2.52953874E+02
  0
VERTEX
  8
0
 62
4
 10
3.29726364E+02
 20
-2.52968985E+02
  0
VERTEX
  8
0
 62
4
 10
3.30000033E+02
 20
-2.52974034E+02
  0
VERTEX
  8
0
 62
4
 10
3.30273702E+02
 20
-2.52968985E+02
  0
VERTEX
  8
0
 62
4
 10
3.30545288E+02
 20
-2.52953874E+02
  0
VERTEX
  8
0
 62
4
 10
3.30812725E+02
 20
-2.52928817E+02
  0
VERTEX
  8
0
 62
4
 10
3.31073976E+02
 20
-2.52894005E+02
  0
VERTEX
  8
0
 62
4
 10
3.31327054E+02
 20
-2.52849703E+02
  0
VERTEX
  8
0
 62
4
 10
3.31570033E+02
 20
-2.52796247E+02
  0
VERTEX
  8
0
 62
4
 10
3.31801063E+02
 20
-2.52734045E+02
  0
VERTEX
  8
0
 62
4
 10
3.32018386E+02
 20
-2.52663570E+02
  0
VERTEX
  8
0
 62
4
 10
3.32220348E+02
 20
-2.52585359E+02
  0
VERTEX
  8
0
 62
4
 10
3.32405413E+02
 20
-2.52500006E+02
  0
VERTEX
  8
0
 62
4
 10
3.32572170E+02
 20
-2.52408161E+02
  0
VERTEX
  8
0
 62
4
 10
3.32719353E+02
 20
-2.52310524E+02
  0
VERTEX
  8
0
 62
4
 10
3.32845839E+02
 20
-2.52207836E+02
  0
VERTEX
  8
0
 62
4
 10
3.32950668E+02
 20
-2.52100881E+02
  0
VERTEX
  8
0
 62
4
 10
3.33033040E+02
 20
-2.51990471E+02
  0
VERTEX
  8
0
 62
4
 10
3.33092329E+02
 20
-2.51877448E+02
  0
VERTEX
  8
0
 62
4
 10
3.33128084E+02
 20
-2.51762671E+02
  0
VERTEX
  8
0
 62
4
 10
3.33140033E+02
 20
-2.51647013E+02
  0
SEQEND
  8
0
  0
LINE
  8
0
  6
CENTER
 62
6
 10
3.30000033E+02
 20
-2.49804222E+02
 11
3.30000033E+02
 21
-2.51647013E+02
  0
LINE
  8
0
 62
4
 10
3.73000033E+02
 20
-2.38514613E+02
 11
3.68000033E+02
 21
-2.38514613E+02
  0
LINE
  8
0
 62
4
 10
3.73000033E+02
 20
-2.37862978E+02
 11
3.68000033E+02
 21
-2.37862978E+02
  0
LINE
  8
0
 62
4
 10
3.73000033E+02
 20
-2.31056606E+02
 11
3.68000033E+02
 21
-2.31056606E+02
  0
LINE
  8
0
 62
4
 10
3.56500025E+02
 20
-2.55148119E+02
 11
3.56500025E+02
 21
-2.49513089E+02
  0
LINE
  8
0
 62
4
 10
3.20500033E+02
 20
-2.55148119E+02
 11
3.20500033E+02
 21
-2.49513089E+02
  0
POLYLINE
  8
0
 62
4
 66
1
  0
VERTEX
  8
0
 62
4
 10
3.51732755E+02
 20
-2.85139051E+02
  0
VERTEX
  8
0
 62
4
 10
3.51814756E+02
 20
-2.84995733E+02
  0
VERTEX
  8
0
 62
4
 10
3.51882361E+02
 20
-2.84846371E+02
  0
VERTEX
  8
0
 62
4
 10
3.51935035E+02
 20
-2.84692150E+02
  0
VERTEX
  8
0
 62
4
 10
3.51972359E+02
 20
-2.84534292E+02
  0
VERTEX
  8
0
 62
4
 10
3.51994037E+02
 20
-2.84374051E+02
  0
VERTEX
  8
0
 62
4
 10
3.51999898E+02
 20
-2.84212698E+02
  0
VERTEX
  8
0
 62
4
 10
3.51989894E+02
 20
-2.84051512E+02
  0
VERTEX
  8
0
 62
4
 10
3.51964106E+02
 20
-2.83891772E+02
  0
VERTEX
  8
0
 62
4
 10
3.51922737E+02
 20
-2.83734745E+02
  0
VERTEX
  8
0
 62
4
 10
3.51866117E+02
 20
-2.83581677E+02
  0
VERTEX
  8
0
 62
4
 10
3.51794693E+02
 20
-2.83433781E+02
  0
VERTEX
  8
0
 62
4
 10
3.51709034E+02
 20
-2.83292232E+02
  0
VERTEX
  8
0
 62
4
 10
3.51609817E+02
 20
-2.83158152E+02
  0
VERTEX
  8
0
 62
4
 10
3.51497831E+02
 20
-2.83032605E+02
  0
VERTEX
  8
0
 62
4
 10
3.51373963E+02
 20
-2.82916587E+02
  0
VERTEX
  8
0
 62
4
 10
3.51239196E+02
 20
-2.82811017E+02
  0
VERTEX
  8
0
 62
4
 10
3.51094600E+02
 20
-2.82716733E+02
  0
VERTEX
  8
0
 62
4
 10
3.50941321E+02
 20
-2.82634484E+02
  0
VERTEX
  8
0
 62
4
 10
3.50780575E+02
 20
-2.82564922E+02
  0
VERTEX
  8
0
 62
4
 10
3.50613637E+02
 20
-2.82508598E+02
  0
VERTEX
  8
0
 62
4
 10
3.50441832E+02
 20
-2.82465959E+02
  0
VERTEX
  8
0
 62
4
 10
3.50266522E+02
 20
-2.82437344E+02
  0
VERTEX
  8
0
 62
4
 10
3.50089098E+02
 20
-2.82422980E+02
  0
VERTEX
  8
0
 62
4
 10
3.49910968E+02
 20
-2.82422980E+02
  0
VERTEX
  8
0
 62
4
 10
3.49733544E+02
 20
-2.82437344E+02
  0
VERTEX
  8
0
 62
4
 10
3.49558234E+02
 20
-2.82465959E+02
  0
VERTEX
  8
0
 62
4
 10
3.49386429E+02
 20
-2.82508598E+02
  0
VERTEX
  8
0
 62
4
 10
3.49219491E+02
 20
-2.82564922E+02
  0
VERTEX
  8
0
 62
4
 10
3.49058745E+02
 20
-2.82634484E+02
  0
VERTEX
  8
0
 62
4
 10
3.48905466E+02
 20
-2.82716733E+02
  0
VERTEX
  8
0
 62
4
 10
3.48760870E+02
 20
-2.82811017E+02
  0
VERTEX
  8
0
 62
4
 10
3.48626103E+02
 20
-2.82916587E+02
  0
VERTEX
  8
0
 62
4
 10
3.48502235E+02
 20
-2.83032605E+02
  0
VERTEX
  8
0
 62
4
 10
3.48390249E+02
 20
-2.83158152E+02
  0
VERTEX
  8
0
 62
4
 10
3.48291032E+02
 20
-2.83292232E+02
  0
VERTEX
  8
0
 62
4
 10
3.48205373E+02
 20
-2.83433781E+02
  0
VERTEX
  8
0
 62
4
 10
3.48133949E+02
 20
-2.83581677E+02
  0
VERTEX
  8
0
 62
4
 10
3.48077329E+02
 20
-2.83734745E+02
  0
VERTEX
  8
0
 62
4
 10
3.48035960E+02
 20
-2.83891772E+02
  0
VERTEX
  8
0
 62
4
 10
3.48010172E+02
 20
-2.84051512E+02
  0
VERTEX
  8
0
 62
4
 10
3.48000168E+02
 20
-2.84212698E+02
  0
VERTEX
  8
0
 62
4
 10
3.48006029E+02
 20
-2.84374052E+02
  0
VERTEX
  8
0
 62
4
 10
3.48027707E+02
 20
-2.84534292E+02
  0
VERTEX
  8
0
 62
4
 10
3.48065031E+02
 20
-2.84692150E+02
  0
VERTEX
  8
0
 62
4
 10
3.48117705E+02
 20
-2.84846371E+02
  0
VERTEX
  8
0
 62
4
 10
3.48185310E+02
 20
-2.84995733E+02
  0
VERTEX
  8
0
 62
4
 10
3.48267311E+02
 20
-2.85139051E+02
  0
SEQEND
  8
0
  0
POLYLINE
  8
0
 62
6
 66
1
  0
VERTEX
  8
0
 62
6
 10
3.51500033E+02
 20
-2.85063027E+02
  0
VERTEX
  8
0
 62
6
 10
3.51494325E+02
 20
-2.84944542E+02
  0
VERTEX
  8
0
 62
6
 10
3.51477245E+02
 20
-2.84826959E+02
  0
VERTEX
  8
0
 62
6
 10
3.51448922E+02
 20
-2.84711172E+02
  0
VERTEX
  8
0
 62
6
 10
3.51409572E+02
 20
-2.84598064E+02
  0
VERTEX
  8
0
 62
6
 10
3.51359495E+02
 20
-2.84488494E+02
  0
VERTEX
  8
0
 62
6
 10
3.51299071E+02
 20
-2.84383296E+02
  0
VERTEX
  8
0
 62
6
 10
3.51228761E+02
 20
-2.84283272E+02
  0
VERTEX
  8
0
 62
6
 10
3.51149100E+02
 20
-2.84189182E+02
  0
VERTEX
  8
0
 62
6
 10
3.51060693E+02
 20
-2.84101742E+02
  0
VERTEX
  8
0
 62
6
 10
3.50964214E+02
 20
-2.84021619E+02
  0
VERTEX
  8
0
 62
6
 10
3.50860398E+02
 20
-2.83949421E+02
  0
VERTEX
  8
0
 62
6
 10
3.50750033E+02
 20
-2.83885699E+02
  0
VERTEX
  8
0
 62
6
 10
3.50633960E+02
 20
-2.83830936E+02
  0
VERTEX
  8
0
 62
6
 10
3.50513063E+02
 20
-2.83785551E+02
  0
VERTEX
  8
0
 62
6
 10
3.50388262E+02
 20
-2.83749888E+02
  0
VERTEX
  8
0
 62
6
 10
3.50260505E+02
 20
-2.83724219E+02
  0
VERTEX
  8
0
 62
6
 10
3.50130767E+02
 20
-2.83708738E+02
  0
VERTEX
  8
0
 62
6
 10
3.50000033E+02
 20
-2.83703565E+02
  0
VERTEX
  8
0
 62
6
 10
3.49869299E+02
 20
-2.83708738E+02
  0
VERTEX
  8
0
 62
6
 10
3.49739561E+02
 20
-2.83724219E+02
  0
VERTEX
  8
0
 62
6
 10
3.49611804E+02
 20
-2.83749888E+02
  0
VERTEX
  8
0
 62
6
 10
3.49487003E+02
 20
-2.83785551E+02
  0
VERTEX
  8
0
 62
6
 10
3.49366106E+02
 20
-2.83830936E+02
  0
VERTEX
  8
0
 62
6
 10
3.49250033E+02
 20
-2.83885699E+02
  0
VERTEX
  8
0
 62
6
 10
3.49139668E+02
 20
-2.83949421E+02
  0
VERTEX
  8
0
 62
6
 10
3.49035852E+02
 20
-2.84021619E+02
  0
VERTEX
  8
0
 62
6
 10
3.48939373E+02
 20
-2.84101742E+02
  0
VERTEX
  8
0
 62
6
 10
3.48850966E+02
 20
-2.84189182E+02
  0
VERTEX
  8
0
 62
6
 10
3.48771305E+02
 20
-2.84283272E+02
  0
VERTEX
  8
0
 62
6
 10
3.48700995E+02
 20
-2.84383296E+02
  0
VERTEX
  8
0
 62
6
 10
3.48640571E+02
 20
-2.84488494E+02
  0
VERTEX
  8
0
 62
6
 10
3.48590494E+02
 20
-2.84598064E+02
  0
VERTEX
  8
0
 62
6
 10
3.48551144E+02
 20
-2.84711172E+02
  0
VERTEX
  8
0
 62
6
 10
3.48522821E+02
 20
-2.84826959E+02
  0
VERTEX
  8
0
 62
6
 10
3.48505741E+02
 20
-2.84944542E+02
  0
VERTEX
  8
0
 62
6
 10
3.48500033E+02
 20
-2.85063027E+02
  0
VERTEX
  8
0
 62
6
 10
3.48505741E+02
 20
-2.85181512E+02
  0
VERTEX
  8
0
 62
6
 10
3.48522821E+02
 20
-2.85299095E+02
  0
VERTEX
  8
0
 62
6
 10
3.48551144E+02
 20
-2.85414882E+02
  0
VERTEX
  8
0
 62
6
 10
3.48590494E+02
 20
-2.85527990E+02
  0
VERTEX
  8
0
 62
6
 10
3.48640571E+02
 20
-2.85637560E+02
  0
VERTEX
  8
0
 62
6
 10
3.48700995E+02
 20
-2.85742758E+02
  0
VERTEX
  8
0
 62
6
 10
3.48771305E+02
 20
-2.85842782E+02
  0
VERTEX
  8
0
 62
6
 10
3.48850966E+02
 20
-2.85936872E+02
  0
VERTEX
  8
0
 62
6
 10
3.48939373E+02
 20
-2.86024312E+02
  0
VERTEX
  8
0
 62
6
 10
3.49035852E+02
 20
-2.86104435E+02
  0
VERTEX
  8
0
 62
6
 10
3.49139668E+02
 20
-2.86176633E+02
  0
VERTEX
  8
0
 62
6
 10
3.49250033E+02
 20
-2.86240355E+02
  0
VERTEX
  8
0
 62
6
 10
3.49366106E+02
 20
-2.86295118E+02
  0
VERTEX
  8
0
 62
6
 10
3.49487003E+02
 20
-2.86340503E+02
  0
VERTEX
  8
0
 62
6
 10
3.49611804E+02
 20
-2.86376166E+02
  0
VERTEX
  8
0
 62
6
 10
3.49739561E+02
 20
-2.86401835E+02
  0
VERTEX
  8
0
 62
6
 10
3.49869299E+02
 20
-2.86417316E+02
  0
VERTEX
  8
0
 62
6
 10
3.50000033E+02
 20
-2.86422489E+02
  0
VERTEX
  8
0
 62
6
 10
3.50130767E+02
 20
-2.86417316E+02
  0
VERTEX
  8
0
 62
6
 10
3.50260505E+02
 20
-2.86401835E+02
  0
VERTEX
  8
0
 62
6
 10
3.50388262E+02
 20
-2.86376166E+02
  0
VERTEX
  8
0
 62
6
 10
3.50513063E+02
 20
-2.86340503E+02
  0
VERTEX
  8
0
 62
6
 10
3.50633960E+02
 20
-2.86295118E+02
  0
VERTEX
  8
0
 62
6
 10
3.50750033E+02
 20
-2.86240355E+02
  0
VERTEX
  8
0
 62
6
 10
3.50860398E+02
 20
-2.86176633E+02
  0
VERTEX
  8
0
 62
6
 10
3.50964214E+02
 20
-2.86104435E+02
  0
VERTEX
  8
0
 62
6
 10
3.51060693E+02
 20
-2.86024312E+02
  0
VERTEX
  8
0
 62
6
 10
3.51149100E+02
 20
-2.85936872E+02
  0
VERTEX
  8
0
 62
6
 10
3.51228761E+02
 20
-2.85842782E+02
  0
VERTEX
  8
0
 62
6
 10
3.51299071E+02
 20
-2.85742758E+02
  0
VERTEX
  8
0
 62
6
 10
3.51359495E+02
 20
-2.85637560E+02
  0
VERTEX
  8
0
 62
6
 10
3.51409572E+02
 20
-2.85527990E+02
  0
VERTEX
  8
0
 62
6
 10
3.51448922E+02
 20
-2.85414882E+02
  0
VERTEX
  8
0
 62
6
 10
3.51477245E+02
 20
-2.85299095E+02
  0
VERTEX
  8
0
 62
6
 10
3.51494325E+02
 20
-2.85181512E+02
  0
VERTEX
  8
0
 62
6
 10
3.51500033E+02
 20
-2.85063027E+02
  0
SEQEND
  8
0
  0
POLYLINE
  8
0
 62
4
 66
1
  0
VERTEX
  8
0
 62
4
 10
3.51735033E+02
 20
-2.85058495E+02
  0
VERTEX
  8
0
 62
4
 10
3.51728431E+02
 20
-2.84921447E+02
  0
VERTEX
  8
0
 62
4
 10
3.51708674E+02
 20
-2.84785443E+02
  0
VERTEX
  8
0
 62
4
 10
3.51675914E+02
 20
-2.84651517E+02
  0
VERTEX
  8
0
 62
4
 10
3.51630400E+02
 20
-2.84520687E+02
  0
VERTEX
  8
0
 62
4
 10
3.51572477E+02
 20
-2.84393951E+02
  0
VERTEX
  8
0
 62
4
 10
3.51502587E+02
 20
-2.84272273E+02
  0
VERTEX
  8
0
 62
4
 10
3.51421262E+02
 20
-2.84156578E+02
  0
VERTEX
  8
0
 62
4
 10
3.51329120E+02
 20
-2.84047747E+02
  0
VERTEX
  8
0
 62
4
 10
3.51226863E+02
 20
-2.83946609E+02
  0
VERTEX
  8
0
 62
4
 10
3.51115270E+02
 20
-2.83853933E+02
  0
VERTEX
  8
0
 62
4
 10
3.50995188E+02
 20
-2.83770424E+02
  0
VERTEX
  8
0
 62
4
 10
3.50867533E+02
 20
-2.83696719E+02
  0
VERTEX
  8
0
 62
4
 10
3.50733276E+02
 20
-2.83633377E+02
  0
VERTEX
  8
0
 62
4
 10
3.50593438E+02
 20
-2.83580881E+02
  0
VERTEX
  8
0
 62
4
 10
3.50449084E+02
 20
-2.83539631E+02
  0
VERTEX
  8
0
 62
4
 10
3.50301313E+02
 20
-2.83509940E+02
  0
VERTEX
  8
0
 62
4
 10
3.50151248E+02
 20
-2.83492035E+02
  0
VERTEX
  8
0
 62
4
 10
3.50000033E+02
 20
-2.83486051E+02
  0
VERTEX
  8
0
 62
4
 10
3.49848818E+02
 20
-2.83492035E+02
  0
VERTEX
  8
0
 62
4
 10
3.49698753E+02
 20
-2.83509940E+02
  0
VERTEX
  8
0
 62
4
 10
3.49550982E+02
 20
-2.83539631E+02
  0
VERTEX
  8
0
 62
4
 10
3.49406628E+02
 20
-2.83580881E+02
  0
VERTEX
  8
0
 62
4
 10
3.49266790E+02
 20
-2.83633377E+02
  0
VERTEX
  8
0
 62
4
 10
3.49132533E+02
 20
-2.83696719E+02
  0
VERTEX
  8
0
 62
4
 10
3.49004878E+02
 20
-2.83770424E+02
  0
VERTEX
  8
0
 62
4
 10
3.48884796E+02
 20
-2.83853933E+02
  0
VERTEX
  8
0
 62
4
 10
3.48773203E+02
 20
-2.83946609E+02
  0
VERTEX
  8
0
 62
4
 10
3.48670946E+02
 20
-2.84047747E+02
  0
VERTEX
  8
0
 62
4
 10
3.48578804E+02
 20
-2.84156578E+02
  0
VERTEX
  8
0
 62
4
 10
3.48497479E+02
 20
-2.84272273E+02
  0
VERTEX
  8
0
 62
4
 10
3.48427589E+02
 20
-2.84393951E+02
  0
VERTEX
  8
0
 62
4
 10
3.48369666E+02
 20
-2.84520687E+02
  0
VERTEX
  8
0
 62
4
 10
3.48324152E+02
 20
-2.84651517E+02
  0
VERTEX
  8
0
 62
4
 10
3.48291392E+02
 20
-2.84785443E+02
  0
VERTEX
  8
0
 62
4
 10
3.48271635E+02
 20
-2.84921447E+02
  0
VERTEX
  8
0
 62
4
 10
3.48265033E+02
 20
-2.85058495E+02
  0
VERTEX
  8
0
 62
4
 10
3.48271635E+02
 20
-2.85195543E+02
  0
VERTEX
  8
0
 62
4
 10
3.48291392E+02
 20
-2.85331547E+02
  0
VERTEX
  8
0
 62
4
 10
3.48324152E+02
 20
-2.85465473E+02
  0
VERTEX
  8
0
 62
4
 10
3.48369666E+02
 20
-2.85596303E+02
  0
VERTEX
  8
0
 62
4
 10
3.48427589E+02
 20
-2.85723039E+02
  0
VERTEX
  8
0
 62
4
 10
3.48497479E+02
 20
-2.85844717E+02
  0
VERTEX
  8
0
 62
4
 10
3.48578804E+02
 20
-2.85960412E+02
  0
VERTEX
  8
0
 62
4
 10
3.48670946E+02
 20
-2.86069243E+02
  0
VERTEX
  8
0
 62
4
 10
3.48773203E+02
 20
-2.86170381E+02
  0
VERTEX
  8
0
 62
4
 10
3.48884796E+02
 20
-2.86263057E+02
  0
VERTEX
  8
0
 62
4
 10
3.49004878E+02
 20
-2.86346566E+02
  0
VERTEX
  8
0
 62
4
 10
3.49132533E+02
 20
-2.86420271E+02
  0
VERTEX
  8
0
 62
4
 10
3.49266790E+02
 20
-2.86483613E+02
  0
VERTEX
  8
0
 62
4
 10
3.49406628E+02
 20
-2.86536109E+02
  0
VERTEX
  8
0
 62
4
 10
3.49550982E+02
 20
-2.86577359E+02
  0
VERTEX
  8
0
 62
4
 10
3.49698753E+02
 20
-2.86607050E+02
  0
VERTEX
  8
0
 62
4
 10
3.49848818E+02
 20
-2.86624955E+02
  0
VERTEX
  8
0
 62
4
 10
3.50000033E+02
 20
-2.86630939E+02
  0
VERTEX
  8
0
 62
4
 10
3.50151248E+02
 20
-2.86624955E+02
  0
VERTEX
  8
0
 62
4
 10
3.50301313E+02
 20
-2.86607050E+02
  0
VERTEX
  8
0
 62
4
 10
3.50449084E+02
 20
-2.86577359E+02
  0
VERTEX
  8
0
 62
4
 10
3.50593438E+02
 20
-2.86536109E+02
  0
VERTEX
  8
0
 62
4
 10
3.50733276E+02
 20
-2.86483613E+02
  0
VERTEX
  8
0
 62
4
 10
3.50867533E+02
 20
-2.86420271E+02
  0
VERTEX
  8
0
 62
4
 10
3.50995188E+02
 20
-2.86346566E+02
  0
VERTEX
  8
0
 62
4
 10
3.51115270E+02
 20
-2.86263057E+02
  0
VERTEX
  8
0
 62
4
 10
3.51226863E+02
 20
-2.86170381E+02
  0
VERTEX
  8
0
 62
4
 10
3.51329120E+02
 20
-2.86069243E+02
  0
VERTEX
  8
0
 62
4
 10
3.51421262E+02
 20
-2.85960412E+02
  0
VERTEX
  8
0
 62
4
 10
3.51502587E+02
 20
-2.85844717E+02
  0
VERTEX
  8
0
 62
4
 10
3.51572477E+02
 20
-2.85723039E+02
  0
VERTEX
  8
0
 62
4
 10
3.51630400E+02
 20
-2.85596303E+02
  0
VERTEX
  8
0
 62
4
 10
3.51675914E+02
 20
-2.85465473E+02
  0
VERTEX
  8
0
 62
4
 10
3.51708674E+02
 20
-2.85331547E+02
  0
VERTEX
  8
0
 62
4
 10
3.51728431E+02
 20
-2.85195543E+02
  0
VERTEX
  8
0
 62
4
 10
3.51735033E+02
 20
-2.85058495E+02
  0
SEQEND
  8
0
  0
POLYLINE
  8
0
 62
4
 66
1
  0
VERTEX
  8
0
 62
4
 10
3.43732755E+02
 20
-2.85139051E+02
  0
VERTEX
  8
0
 62
4
 10
3.43814756E+02
 20
-2.84995733E+02
  0
VERTEX
  8
0
 62
4
 10
3.43882361E+02
 20
-2.84846371E+02
  0
VERTEX
  8
0
 62
4
 10
3.43935035E+02
 20
-2.84692150E+02
  0
VERTEX
  8
0
 62
4
 10
3.43972359E+02
 20
-2.84534292E+02
  0
VERTEX
  8
0
 62
4
 10
3.43994037E+02
 20
-2.84374051E+02
  0
VERTEX
  8
0
 62
4
 10
3.43999898E+02
 20
-2.84212698E+02
  0
VERTEX
  8
0
 62
4
 10
3.43989894E+02
 20
-2.84051512E+02
  0
VERTEX
  8
0
 62
4
 10
3.43964106E+02
 20
-2.83891772E+02
  0
VERTEX
  8
0
 62
4
 10
3.43922737E+02
 20
-2.83734745E+02
  0
VERTEX
  8
0
 62
4
 10
3.43866117E+02
 20
-2.83581677E+02
  0
VERTEX
  8
0
 62
4
 10
3.43794693E+02
 20
-2.83433781E+02
  0
VERTEX
  8
0
 62
4
 10
3.43709034E+02
 20
-2.83292232E+02
  0
VERTEX
  8
0
 62
4
 10
3.43609817E+02
 20
-2.83158152E+02
  0
VERTEX
  8
0
 62
4
 10
3.43497831E+02
 20
-2.83032605E+02
  0
VERTEX
  8
0
 62
4
 10
3.43373963E+02
 20
-2.82916587E+02
  0
VERTEX
  8
0
 62
4
 10
3.43239196E+02
 20
-2.82811017E+02
  0
VERTEX
  8
0
 62
4
 10
3.43094600E+02
 20
-2.82716733E+02
  0
VERTEX
  8
0
 62
4
 10
3.42941321E+02
 20
-2.82634484E+02
  0
VERTEX
  8
0
 62
4
 10
3.42780575E+02
 20
-2.82564922E+02
  0
VERTEX
  8
0
 62
4
 10
3.42613637E+02
 20
-2.82508598E+02
  0
VERTEX
  8
0
 62
4
 10
3.42441832E+02
 20
-2.82465959E+02
  0
VERTEX
  8
0
 62
4
 10
3.42266522E+02
 20
-2.82437344E+02
  0
VERTEX
  8
0
 62
4
 10
3.42089098E+02
 20
-2.82422980E+02
  0
VERTEX
  8
0
 62
4
 10
3.41910968E+02
 20
-2.82422980E+02
  0
VERTEX
  8
0
 62
4
 10
3.41733544E+02
 20
-2.82437344E+02
  0
VERTEX
  8
0
 62
4
 10
3.41558234E+02
 20
-2.82465959E+02
  0
VERTEX
  8
0
 62
4
 10
3.41386429E+02
 20
-2.82508598E+02
  0
VERTEX
  8
0
 62
4
 10
3.41219491E+02
 20
-2.82564922E+02
  0
VERTEX
  8
0
 62
4
 10
3.41058745E+02
 20
-2.82634484E+02
  0
VERTEX
  8
0
 62
4
 10
3.40905466E+02
 20
-2.82716733E+02
  0
VERTEX
  8
0
 62
4
 10
3.40760870E+02
 20
-2.82811017E+02
  0
VERTEX
  8
0
 62
4
 10
3.40626103E+02
 20
-2.82916587E+02
  0
VERTEX
  8
0
 62
4
 10
3.40502235E+02
 20
-2.83032605E+02
  0
VERTEX
  8
0
 62
4
 10
3.40390249E+02
 20
-2.83158152E+02
  0
VERTEX
  8
0
 62
4
 10
3.40291032E+02
 20
-2.83292232E+02
  0
VERTEX
  8
0
 62
4
 10
3.40205373E+02
 20
-2.83433781E+02
  0
VERTEX
  8
0
 62
4
 10
3.40133949E+02
 20
-2.83581677E+02
  0
VERTEX
  8
0
 62
4
 10
3.40077329E+02
 20
-2.83734745E+02
  0
VERTEX
  8
0
 62
4
 10
3.40035960E+02
 20
-2.83891772E+02
  0
VERTEX
  8
0
 62
4
 10
3.40010172E+02
 20
-2.84051512E+02
  0
VERTEX
  8
0
 62
4
 10
3.40000168E+02
 20
-2.84212698E+02
  0
VERTEX
  8
0
 62
4
 10
3.40006029E+02
 20
-2.84374052E+02
  0
VERTEX
  8
0
 62
4
 10
3.40027707E+02
 20
-2.84534292E+02
  0
VERTEX
  8
0
 62
4
 10
3.40065031E+02
 20
-2.84692150E+02
  0
VERTEX
  8
0
 62
4
 10
3.40117705E+02
 20
-2.84846371E+02
  0
VERTEX
  8
0
 62
4
 10
3.40185310E+02
 20
-2.84995733E+02
  0
VERTEX
  8
0
 62
4
 10
3.40267311E+02
 20
-2.85139051E+02
  0
SEQEND
  8
0
  0
POLYLINE
  8
0
 62
6
 66
1
  0
VERTEX
  8
0
 62
6
 10
3.43500033E+02
 20
-2.85063027E+02
  0
VERTEX
  8
0
 62
6
 10
3.43494325E+02
 20
-2.84944542E+02
  0
VERTEX
  8
0
 62
6
 10
3.43477245E+02
 20
-2.84826959E+02
  0
VERTEX
  8
0
 62
6
 10
3.43448922E+02
 20
-2.84711172E+02
  0
VERTEX
  8
0
 62
6
 10
3.43409572E+02
 20
-2.84598064E+02
  0
VERTEX
  8
0
 62
6
 10
3.43359495E+02
 20
-2.84488494E+02
  0
VERTEX
  8
0
 62
6
 10
3.43299071E+02
 20
-2.84383296E+02
  0
VERTEX
  8
0
 62
6
 10
3.43228761E+02
 20
-2.84283272E+02
  0
VERTEX
  8
0
 62
6
 10
3.43149100E+02
 20
-2.84189182E+02
  0
VERTEX
  8
0
 62
6
 10
3.43060693E+02
 20
-2.84101742E+02
  0
VERTEX
  8
0
 62
6
 10
3.42964214E+02
 20
-2.84021619E+02
  0
VERTEX
  8
0
 62
6
 10
3.42860398E+02
 20
-2.83949421E+02
  0
VERTEX
  8
0
 62
6
 10
3.42750033E+02
 20
-2.83885699E+02
  0
VERTEX
  8
0
 62
6
 10
3.42633960E+02
 20
-2.83830936E+02
  0
VERTEX
  8
0
 62
6
 10
3.42513063E+02
 20
-2.83785551E+02
  0
VERTEX
  8
0
 62
6
 10
3.42388262E+02
 20
-2.83749888E+02
  0
VERTEX
  8
0
 62
6
 10
3.42260505E+02
 20
-2.83724219E+02
  0
VERTEX
  8
0
 62
6
 10
3.42130767E+02
 20
-2.83708738E+02
  0
VERTEX
  8
0
 62
6
 10
3.42000033E+02
 20
-2.83703565E+02
  0
VERTEX
  8
0
 62
6
 10
3.41869299E+02
 20
-2.83708738E+02
  0
VERTEX
  8
0
 62
6
 10
3.41739561E+02
 20
-2.83724219E+02
  0
VERTEX
  8
0
 62
6
 10
3.41611804E+02
 20
-2.83749888E+02
  0
VERTEX
  8
0
 62
6
 10
3.41487003E+02
 20
-2.83785551E+02
  0
VERTEX
  8
0
 62
6
 10
3.41366106E+02
 20
-2.83830936E+02
  0
VERTEX
  8
0
 62
6
 10
3.41250033E+02
 20
-2.83885699E+02
  0
VERTEX
  8
0
 62
6
 10
3.41139668E+02
 20
-2.83949421E+02
  0
VERTEX
  8
0
 62
6
 10
3.41035852E+02
 20
-2.84021619E+02
  0
VERTEX
  8
0
 62
6
 10
3.40939373E+02
 20
-2.84101742E+02
  0
VERTEX
  8
0
 62
6
 10
3.40850966E+02
 20
-2.84189182E+02
  0
VERTEX
  8
0
 62
6
 10
3.40771305E+02
 20
-2.84283272E+02
  0
VERTEX
  8
0
 62
6
 10
3.40700995E+02
 20
-2.84383296E+02
  0
VERTEX
  8
0
 62
6
 10
3.40640571E+02
 20
-2.84488494E+02
  0
VERTEX
  8
0
 62
6
 10
3.40590494E+02
 20
-2.84598064E+02
  0
VERTEX
  8
0
 62
6
 10
3.40551144E+02
 20
-2.84711172E+02
  0
VERTEX
  8
0
 62
6
 10
3.40522821E+02
 20
-2.84826959E+02
  0
VERTEX
  8
0
 62
6
 10
3.40505741E+02
 20
-2.84944542E+02
  0
VERTEX
  8
0
 62
6
 10
3.40500033E+02
 20
-2.85063027E+02
  0
VERTEX
  8
0
 62
6
 10
3.40505741E+02
 20
-2.85181512E+02
  0
VERTEX
  8
0
 62
6
 10
3.40522821E+02
 20
-2.85299095E+02
  0
VERTEX
  8
0
 62
6
 10
3.40551144E+02
 20
-2.85414882E+02
  0
VERTEX
  8
0
 62
6
 10
3.40590494E+02
 20
-2.85527990E+02
  0
VERTEX
  8
0
 62
6
 10
3.40640571E+02
 20
-2.85637560E+02
  0
VERTEX
  8
0
 62
6
 10
3.40700995E+02
 20
-2.85742758E+02
  0
VERTEX
  8
0
 62
6
 10
3.40771305E+02
 20
-2.85842782E+02
  0
VERTEX
  8
0
 62
6
 10
3.40850966E+02
 20
-2.85936872E+02
  0
VERTEX
  8
0
 62
6
 10
3.40939373E+02
 20
-2.86024312E+02
  0
VERTEX
  8
0
 62
6
 10
3.41035852E+02
 20
-2.86104435E+02
  0
VERTEX
  8
0
 62
6
 10
3.41139668E+02
 20
-2.86176633E+02
  0
VERTEX
  8
0
 62
6
 10
3.41250033E+02
 20
-2.86240355E+02
  0
VERTEX
  8
0
 62
6
 10
3.41366106E+02
 20
-2.86295118E+02
  0
VERTEX
  8
0
 62
6
 10
3.41487003E+02
 20
-2.86340503E+02
  0
VERTEX
  8
0
 62
6
 10
3.41611804E+02
 20
-2.86376166E+02
  0
VERTEX
  8
0
 62
6
 10
3.41739561E+02
 20
-2.86401835E+02
  0
VERTEX
  8
0
 62
6
 10
3.41869299E+02
 20
-2.86417316E+02
  0
VERTEX
  8
0
 62
6
 10
3.42000033E+02
 20
-2.86422489E+02
  0
VERTEX
  8
0
 62
6
 10
3.42130767E+02
 20
-2.86417316E+02
  0
VERTEX
  8
0
 62
6
 10
3.42260505E+02
 20
-2.86401835E+02
  0
VERTEX
  8
0
 62
6
 10
3.42388262E+02
 20
-2.86376166E+02
  0
VERTEX
  8
0
 62
6
 10
3.42513063E+02
 20
-2.86340503E+02
  0
VERTEX
  8
0
 62
6
 10
3.42633960E+02
 20
-2.86295118E+02
  0
VERTEX
  8
0
 62
6
 10
3.42750033E+02
 20
-2.86240355E+02
  0
VERTEX
  8
0
 62
6
 10
3.42860398E+02
 20
-2.86176633E+02
  0
VERTEX
  8
0
 62
6
 10
3.42964214E+02
 20
-2.86104435E+02
  0
VERTEX
  8
0
 62
6
 10
3.43060693E+02
 20
-2.86024312E+02
  0
VERTEX
  8
0
 62
6
 10
3.43149100E+02
 20
-2.85936872E+02
  0
VERTEX
  8
0
 62
6
 10
3.43228761E+02
 20
-2.85842782E+02
  0
VERTEX
  8
0
 62
6
 10
3.43299071E+02
 20
-2.85742758E+02
  0
VERTEX
  8
0
 62
6
 10
3.43359495E+02
 20
-2.85637560E+02
  0
VERTEX
  8
0
 62
6
 10
3.43409572E+02
 20
-2.85527990E+02
  0
VERTEX
  8
0
 62
6
 10
3.43448922E+02
 20
-2.85414882E+02
  0
VERTEX
  8
0
 62
6
 10
3.43477245E+02
 20
-2.85299095E+02
  0
VERTEX
  8
0
 62
6
 10
3.43494325E+02
 20
-2.85181512E+02
  0
VERTEX
  8
0
 62
6
 10
3.43500033E+02
 20
-2.85063027E+02
  0
SEQEND
  8
0
  0
POLYLINE
  8
0
 62
4
 66
1
  0
VERTEX
  8
0
 62
4
 10
3.43735033E+02
 20
-2.85058495E+02
  0
VERTEX
  8
0
 62
4
 10
3.43728431E+02
 20
-2.84921447E+02
  0
VERTEX
  8
0
 62
4
 10
3.43708674E+02
 20
-2.84785443E+02
  0
VERTEX
  8
0
 62
4
 10
3.43675914E+02
 20
-2.84651517E+02
  0
VERTEX
  8
0
 62
4
 10
3.43630400E+02
 20
-2.84520687E+02
  0
VERTEX
  8
0
 62
4
 10
3.43572477E+02
 20
-2.84393951E+02
  0
VERTEX
  8
0
 62
4
 10
3.43502587E+02
 20
-2.84272273E+02
  0
VERTEX
  8
0
 62
4
 10
3.43421262E+02
 20
-2.84156578E+02
  0
VERTEX
  8
0
 62
4
 10
3.43329120E+02
 20
-2.84047747E+02
  0
VERTEX
  8
0
 62
4
 10
3.43226863E+02
 20
-2.83946609E+02
  0
VERTEX
  8
0
 62
4
 10
3.43115270E+02
 20
-2.83853933E+02
  0
VERTEX
  8
0
 62
4
 10
3.42995188E+02
 20
-2.83770424E+02
  0
VERTEX
  8
0
 62
4
 10
3.42867533E+02
 20
-2.83696719E+02
  0
VERTEX
  8
0
 62
4
 10
3.42733276E+02
 20
-2.83633377E+02
  0
VERTEX
  8
0
 62
4
 10
3.42593438E+02
 20
-2.83580881E+02
  0
VERTEX
  8
0
 62
4
 10
3.42449084E+02
 20
-2.83539631E+02
  0
VERTEX
  8
0
 62
4
 10
3.42301313E+02
 20
-2.83509940E+02
  0
VERTEX
  8
0
 62
4
 10
3.42151248E+02
 20
-2.83492035E+02
  0
VERTEX
  8
0
 62
4
 10
3.42000033E+02
 20
-2.83486051E+02
  0
VERTEX
  8
0
 62
4
 10
3.41848818E+02
 20
-2.83492035E+02
  0
VERTEX
  8
0
 62
4
 10
3.41698753E+02
 20
-2.83509940E+02
  0
VERTEX
  8
0
 62
4
 10
3.41550982E+02
 20
-2.83539631E+02
  0
VERTEX
  8
0
 62
4
 10
3.41406628E+02
 20
-2.83580881E+02
  0
VERTEX
  8
0
 62
4
 10
3.41266790E+02
 20
-2.83633377E+02
  0
VERTEX
  8
0
 62
4
 10
3.41132533E+02
 20
-2.83696719E+02
  0
VERTEX
  8
0
 62
4
 10
3.41004878E+02
 20
-2.83770424E+02
  0
VERTEX
  8
0
 62
4
 10
3.40884796E+02
 20
-2.83853933E+02
  0
VERTEX
  8
0
 62
4
 10
3.40773203E+02
 20
-2.83946609E+02
  0
VERTEX
  8
0
 62
4
 10
3.40670946E+02
 20
-2.84047747E+02
  0
VERTEX
  8
0
 62
4
 10
3.40578804E+02
 20
-2.84156578E+02
  0
VERTEX
  8
0
 62
4
 10
3.40497479E+02
 20
-2.84272273E+02
  0
VERTEX
  8
0
 62
4
 10
3.40427589E+02
 20
-2.84393951E+02
  0
VERTEX
  8
0
 62
4
 10
3.40369666E+02
 20
-2.84520687E+02
  0
VERTEX
  8
0
 62
4
 10
3.40324152E+02
 20
-2.84651517E+02
  0
VERTEX
  8
0
 62
4
 10
3.40291392E+02
 20
-2.84785443E+02
  0
VERTEX
  8
0
 62
4
 10
3.40271635E+02
 20
-2.84921447E+02
  0
VERTEX
  8
0
 62
4
 10
3.40265033E+02
 20
-2.85058495E+02
  0
VERTEX
  8
0
 62
4
 10
3.40271635E+02
 20
-2.85195543E+02
  0
VERTEX
  8
0
 62
4
 10
3.40291392E+02
 20
-2.85331547E+02
  0
VERTEX
  8
0
 62
4
 10
3.40324152E+02
 20
-2.85465473E+02
  0
VERTEX
  8
0
 62
4
 10
3.40369666E+02
 20
-2.85596303E+02
  0
VERTEX
  8
0
 62
4
 10
3.40427589E+02
 20
-2.85723039E+02
  0
VERTEX
  8
0
 62
4
 10
3.40497479E+02
 20
-2.85844717E+02
  0
VERTEX
  8
0
 62
4
 10
3.40578804E+02
 20
-2.85960412E+02
  0
VERTEX
  8
0
 62
4
 10
3.40670946E+02
 20
-2.86069243E+02
  0
VERTEX
  8
0
 62
4
 10
3.40773203E+02
 20
-2.86170381E+02
  0
VERTEX
  8
0
 62
4
 10
3.40884796E+02
 20
-2.86263057E+02
  0
VERTEX
  8
0
 62
4
 10
3.41004878E+02
 20
-2.86346566E+02
  0
VERTEX
  8
0
 62
4
 10
3.41132533E+02
 20
-2.86420271E+02
  0
VERTEX
  8
0
 62
4
 10
3.41266790E+02
 20
-2.86483613E+02
  0
VERTEX
  8
0
 62
4
 10
3.41406628E+02
 20
-2.86536109E+02
  0
VERTEX
  8
0
 62
4
 10
3.41550982E+02
 20
-2.86577359E+02
  0
VERTEX
  8
0
 62
4
 10
3.41698753E+02
 20
-2.86607050E+02
  0
VERTEX
  8
0
 62
4
 10
3.41848818E+02
 20
-2.86624955E+02
  0
VERTEX
  8
0
 62
4
 10
3.42000033E+02
 20
-2.86630939E+02
  0
VERTEX
  8
0
 62
4
 10
3.42151248E+02
 20
-2.86624955E+02
  0
VERTEX
  8
0
 62
4
 10
3.42301313E+02
 20
-2.86607050E+02
  0
VERTEX
  8
0
 62
4
 10
3.42449084E+02
 20
-2.86577359E+02
  0
VERTEX
  8
0
 62
4
 10
3.42593438E+02
 20
-2.86536109E+02
  0
VERTEX
  8
0
 62
4
 10
3.42733276E+02
 20
-2.86483613E+02
  0
VERTEX
  8
0
 62
4
 10
3.42867533E+02
 20
-2.86420271E+02
  0
VERTEX
  8
0
 62
4
 10
3.42995188E+02
 20
-2.86346566E+02
  0
VERTEX
  8
0
 62
4
 10
3.43115270E+02
 20
-2.86263057E+02
  0
VERTEX
  8
0
 62
4
 10
3.43226863E+02
 20
-2.86170381E+02
  0
VERTEX
  8
0
 62
4
 10
3.43329120E+02
 20
-2.86069243E+02
  0
VERTEX
  8
0
 62
4
 10
3.43421262E+02
 20
-2.85960412E+02
  0
VERTEX
  8
0
 62
4
 10
3.43502587E+02
 20
-2.85844717E+02
  0
VERTEX
  8
0
 62
4
 10
3.43572477E+02
 20
-2.85723039E+02
  0
VERTEX
  8
0
 62
4
 10
3.43630400E+02
 20
-2.85596303E+02
  0
VERTEX
  8
0
 62
4
 10
3.43675914E+02
 20
-2.85465473E+02
  0
VERTEX
  8
0
 62
4
 10
3.43708674E+02
 20
-2.85331547E+02
  0
VERTEX
  8
0
 62
4
 10
3.43728431E+02
 20
-2.85195543E+02
  0
VERTEX
  8
0
 62
4
 10
3.43735033E+02
 20
-2.85058495E+02
  0
SEQEND
  8
0
  0
LINE
  8
0
  6
CENTER
 62
6
 10
3.50000033E+02
 20
-2.80063027E+02
 11
3.50000033E+02
 21
-2.90063027E+02
  0
LINE
  8
0
  6
CENTER
 62
6
 10
3.42000033E+02
 20
-2.80063027E+02
 11
3.42000033E+02
 21
-2.90063027E+02
  0
LINE
  8
0
  6
CENTER
 62
6
 10
3.37000033E+02
 20
-2.85063027E+02
 11
3.55000033E+02
 21
-2.85063027E+02
  0
LINE
  8
0
 62
4
 10
3.38500033E+02
 20
-2.60343664E+02
 11
3.53500033E+02
 21
-2.60343664E+02
  0
LINE
  8
0
 62
4
 10
3.38500033E+02
 20
-2.48304222E+02
 11
3.20500033E+02
 21
-2.48304222E+02
  0
ARC
  8
0
 62
4
 10
3.20500042E+02
 20
-2.49804231E+02
 40
1.50000856E+00
 50
9.00003273E+01
 51
1.79999673E+02
  0
LINE
  8
0
 62
4
 10
3.56500033E+02
 20
-2.48304222E+02
 11
3.53500033E+02
 21
-2.48304222E+02
  0
ARC
  8
0
 62
4
 10
3.56500025E+02
 20
-2.49804231E+02
 40
1.50000856E+00
 50
3.27119593E-04
 51
8.99996730E+01
  0
LINE
  8
0
 62
4
 10
3.53500033E+02
 20
-2.51191419E+02
 11
3.38500033E+02
 21
-2.51191419E+02
  0
LINE
  8
0
 62
4
 10
3.53500033E+02
 20
-2.23100758E+02
 11
3.38500033E+02
 21
-2.23100758E+02
  0
ARC
  8
0
 62
4
 10
3.20500042E+02
 20
-2.58068203E+02
 40
1.50000856E+00
 50
9.00003273E+01
 51
1.79999673E+02
  0
ARC
  8
0
 62
4
 10
3.54000047E+02
 20
-2.39208277E+02
 40
5.00013809E-01
 50
9.00015821E+01
 51
1.79998418E+02
  0
ARC
  8
0
 62
4
 10
3.62500021E+02
 20
-2.25208275E+02
 40
5.00011902E-01
 50
1.36383594E-03
 51
8.99986360E+01
  0
ARC
  8
0
 62
4
 10
3.62500045E+02
 20
-2.38208275E+02
 40
4.99988098E-01
 50
2.69998636E+02
 51
1.36386840E-03
  0
ARC
  8
0
 62
4
 10
3.56500025E+02
 20
-2.58068203E+02
 40
1.50000856E+00
 50
3.27119593E-04
 51
8.99996730E+01
  0
LINE
  8
0
 62
4
 10
3.19000033E+02
 20
-2.49804222E+02
 11
3.19000033E+02
 21
-2.72999969E+02
  0
LINE
  8
0
 62
4
 10
3.36500033E+02
 20
-2.52942963E+02
 11
3.36500033E+02
 21
-2.56568195E+02
  0
LINE
  8
0
 62
4
 10
3.53500033E+02
 20
-2.23100758E+02
 11
3.53500033E+02
 21
-2.52942963E+02
  0
LINE
  8
0
 62
4
 10
3.38500033E+02
 20
-2.23100758E+02
 11
3.38500033E+02
 21
-2.52942963E+02
  0
LINE
  8
0
 62
4
 10
3.55500033E+02
 20
-2.52942963E+02
 11
3.55500033E+02
 21
-2.56568195E+02
  0
LINE
  8
0
 62
4
 10
3.58000033E+02
 20
-2.49804222E+02
 11
3.58000033E+02
 21
-2.72999969E+02
  0
LINE
  8
0
 62
4
 10
3.55500033E+02
 20
-2.52942963E+02
 11
3.36500033E+02
 21
-2.52942963E+02
  0
LINE
  8
0
 62
4
 10
3.53500033E+02
 20
-2.29440032E+02
 11
3.38500033E+02
 21
-2.29440032E+02
  0
LINE
  8
0
 62
4
 10
3.62500033E+02
 20
-2.38708264E+02
 11
3.54000033E+02
 21
-2.38708264E+02
  0
LINE
  8
0
 62
4
 10
3.66500033E+02
 20
-2.37458264E+02
 11
3.63000033E+02
 21
-2.37458264E+02
  0
LINE
  8
0
 62
4
 10
3.66500033E+02
 20
-2.25458264E+02
 11
3.66500033E+02
 21
-2.37958264E+02
  0
LINE
  8
0
 62
4
 10
3.68000033E+02
 20
-2.37958264E+02
 11
3.63000033E+02
 21
-2.37958264E+02
  0
LINE
  8
0
 62
4
 10
3.68000033E+02
 20
-2.25458264E+02
 11
3.63000033E+02
 21
-2.25458264E+02
  0
LINE
  8
0
 62
4
 10
3.68000033E+02
 20
-2.24910934E+02
 11
3.68000033E+02
 21
-2.38514613E+02
  0
LINE
  8
0
 62
4
 10
3.73000033E+02
 20
-2.24910934E+02
 11
3.73000033E+02
 21
-2.38514613E+02
  0
LINE
  8
0
 62
4
 10
3.63000033E+02
 20
-2.25208264E+02
 11
3.63000033E+02
 21
-2.38208264E+02
  0
LINE
  8
0
 62
4
 10
3.53500033E+02
 20
-2.24708264E+02
 11
3.62500033E+02
 21
-2.24708264E+02
  0
LINE
  8
0
 62
4
 10
3.73000033E+02
 20
-2.24910934E+02
 11
3.68000033E+02
 21
-2.24910934E+02
  0
LINE
  8
0
 62
4
 10
3.56500033E+02
 20
-2.56568195E+02
 11
3.20500033E+02
 21
-2.56568195E+02
  0
LINE
  8
0
 62
4
 10
3.66500033E+02
 20
-2.25958264E+02
 11
3.63000033E+02
 21
-2.25958264E+02
  0
LINE
  8
0
 62
4
 10
3.38500033E+02
 20
-2.60343664E+02
 11
3.38500033E+02
 21
-2.88271947E+02
  0
LINE
  8
0
 62
4
 10
3.53500033E+02
 20
-2.60343664E+02
 11
3.53500033E+02
 21
-2.88271947E+02
  0
LINE
  8
0
 62
4
 10
3.39500033E+02
 20
-2.77503687E+02
 11
3.52500033E+02
 21
-2.77503687E+02
  0
LINE
  8
0
 62
4
 10
3.38500033E+02
 20
-2.88271947E+02
 11
3.53500033E+02
 21
-2.88271947E+02
  0
LINE
  8
0
 62
4
 10
3.38500033E+02
 20
-2.63299446E+02
 11
3.53500033E+02
 21
-2.63299446E+02
  0
LINE
  8
0
 62
2
 10
-5.09345471E+01
 20
-3.33968486E+02
 11
-6.38121695E+00
 21
-2.56799854E+02
  0
TEXT
  8
0
 62
7
 10
1.72447326E+02
 20
-3.09452459E+01
 40
9.00000000E+00
  1
425
 41
1.00000000E+00
  7
MONOTXT
  0
TEXT
  8
0
 62
7
 10
1.36447326E+02
 20
-3.09452459E+01
 40
9.00000000E+00
  1
375
 41
1.00000000E+00
  7
MONOTXT
  0
TEXT
  8
0
 62
7
 10
1.00447326E+02
 20
-3.09452459E+01
 40
9.00000000E+00
  1
325
 41
1.00000000E+00
  7
MONOTXT
  0
TEXT
  8
0
 62
7
 10
6.44473258E+01
 20
-3.09452459E+01
 40
9.00000000E+00
  1
275
 41
1.00000000E+00
  7
MONOTXT
  0
TEXT
  8
0
 62
7
 10
2.84473258E+01
 20
-3.09452459E+01
 40
9.00000000E+00
  1
225
 41
1.00000000E+00
  7
MONOTXT
  0
TEXT
  8
0
 62
7
 10
-7.55267416E+00
 20
-3.09452459E+01
 40
9.00000000E+00
  1
175
 41
1.00000000E+00
  7
MONOTXT
  0
TEXT
  8
0
 62
7
 10
-4.35526742E+01
 20
-3.09452459E+01
 40
9.00000000E+00
  1
125
 41
1.00000000E+00
  7
MONOTXT
  0
TEXT
  8
0
 62
7
 10
-7.50526742E+01
 20
-3.09452459E+01
 40
9.00000000E+00
  1
75
 41
1.00000000E+00
  7
MONOTXT
  0
TEXT
  8
0
 62
7
 10
-1.11052674E+02
 20
-3.09452459E+01
 40
9.00000000E+00
  1
25
 41
1.00000000E+00
  7
MONOTXT
  0
TEXT
  8
0
 62
7
 10
-1.42552674E+02
 20
-3.09452459E+01
 40
9.00000000E+00
  1
0
 41
1.00000000E+00
  7
MONOTXT
  0
TEXT
  8
0
 62
7
 10
-1.87552674E+02
 20
-3.09452459E+01
 40
9.00000000E+00
  1
-25
 41
1.00000000E+00
  7
MONOTXT
  0
TEXT
  8
0
 62
7
 10
1.72447326E+02
 20
-1.59452459E+01
 40
9.00000000E+00
  1
500
 41
1.00000000E+00
  7
MONOTXT
  0
TEXT
  8
0
 62
7
 10
1.36447326E+02
 20
-1.59452459E+01
 40
9.00000000E+00
  1
450
 41
1.00000000E+00
  7
MONOTXT
  0
TEXT
  8
0
 62
7
 10
1.00447326E+02
 20
-1.59452459E+01
 40
9.00000000E+00
  1
400
 41
1.00000000E+00
  7
MONOTXT
  0
TEXT
  8
0
 62
7
 10
6.44473258E+01
 20
-1.59452459E+01
 40
9.00000000E+00
  1
350
 41
1.00000000E+00
  7
MONOTXT
  0
TEXT
  8
0
 62
7
 10
2.84473258E+01
 20
-1.59452459E+01
 40
9.00000000E+00
  1
300
 41
1.00000000E+00
  7
MONOTXT
  0
TEXT
  8
0
 62
7
 10
-7.55267416E+00
 20
-1.59452459E+01
 40
9.00000000E+00
  1
250
 41
1.00000000E+00
  7
MONOTXT
  0
TEXT
  8
0
 62
7
 10
-4.35526742E+01
 20
-1.59452459E+01
 40
9.00000000E+00
  1
200
 41
1.00000000E+00
  7
MONOTXT
  0
TEXT
  8
0
 62
7
 10
-7.95526742E+01
 20
-1.59452459E+01
 40
9.00000000E+00
  1
150
 41
1.00000000E+00
  7
MONOTXT
  0
TEXT
  8
0
 62
7
 10
-1.15552674E+02
 20
-1.59452459E+01
 40
9.00000000E+00
  1
100
 41
1.00000000E+00
  7
MONOTXT
  0
TEXT
  8
0
 62
7
 10
-1.47052674E+02
 20
-1.59452459E+01
 40
9.00000000E+00
  1
75
 41
1.00000000E+00
  7
MONOTXT
  0
TEXT
  8
0
 62
7
 10
-1.83052674E+02
 20
-1.59452459E+01
 40
9.00000000E+00
  1
50
 41
1.00000000E+00
  7
MONOTXT
  0
LINE
  8
0
 62
7
 10
2.02962951E+02
 20
-3.39452459E+01
 11
2.02962951E+02
 21
-3.94524590E+00
  0
LINE
  8
0
 62
7
 10
1.66962951E+02
 20
-3.39452459E+01
 11
1.66962951E+02
 21
-3.94524590E+00
  0
LINE
  8
0
 62
7
 10
1.30962951E+02
 20
-3.39452459E+01
 11
1.30962951E+02
 21
-3.94524590E+00
  0
LINE
  8
0
 62
7
 10
9.49629508E+01
 20
-3.39452459E+01
 11
9.49629508E+01
 21
-3.94524590E+00
  0
LINE
  8
0
 62
7
 10
5.89629508E+01
 20
-3.39452459E+01
 11
5.89629508E+01
 21
-3.94524590E+00
  0
LINE
  8
0
 62
7
 10
2.29629508E+01
 20
-3.39452459E+01
 11
2.29629508E+01
 21
-3.94524590E+00
  0
LINE
  8
0
 62
7
 10
-1.30370492E+01
 20
-3.39452459E+01
 11
-1.30370492E+01
 21
-3.94524590E+00
  0
LINE
  8
0
 62
7
 10
-4.90370492E+01
 20
-3.39452459E+01
 11
-4.90370492E+01
 21
-3.94524590E+00
  0
LINE
  8
0
 62
7
 10
-8.50370492E+01
 20
-3.39452459E+01
 11
-8.50370492E+01
 21
-3.94524590E+00
  0
LINE
  8
0
 62
7
 10
-1.21037049E+02
 20
-3.39452459E+01
 11
-1.21037049E+02
 21
-3.94524590E+00
  0
LINE
  8
0
 62
7
 10
-1.57037049E+02
 20
-3.39452459E+01
 11
-1.57037049E+02
 21
-3.94524590E+00
  0
LINE
  8
0
 62
7
 10
-2.65037049E+02
 20
-3.94524590E+00
 11
2.02962951E+02
 21
-3.94524590E+00
  0
LINE
  8
0
 62
7
 10
-2.65037049E+02
 20
-3.39452459E+01
 11
2.02962951E+02
 21
-3.39452459E+01
  0
LINE
  8
0
 62
7
 10
-2.65037049E+02
 20
-3.39452459E+01
 11
-2.65037049E+02
 21
-3.94524590E+00
  0
TEXT
  8
0
 62
7
 10
-2.54751736E+02
 20
-1.59452459E+01
 40
9.00000000E+00
  1
STROKE
 41
1.00000000E+00
  7
MONOTXT
  0
TEXT
  8
0
 62
7
 10
-2.59251736E+02
 20
-3.09452459E+01
 40
9.00000000E+00
  1
STRETCH
 41
1.00000000E+00
  7
MONOTXT
  0
LINE
  8
0
 62
7
 10
-2.65037049E+02
 20
-1.89452459E+01
 11
2.02962951E+02
 21
-1.89452459E+01
  0
LINE
  8
0
 62
7
 10
-1.93037049E+02
 20
-3.39452459E+01
 11
-1.93037049E+02
 21
-3.94524590E+00
  0
TEXT
  8
0
 62
7
 10
1.68947326E+02
 20
1.55475410E+00
 40
9.00000000E+00
  1
(mm)
 41
1.00000000E+00
  7
MONOTXT
  0
TEXT
  8
0
 62
7
 10
-8.40526742E+01
 20
1.55475410E+00
 40
9.00000000E+00
  1
STRETCH LIST
 41
1.05263158E+00
  7
MONOTXT
  0
TEXT
  8
0
 10
-7.72146873E+01
 20
3.54316712E+02
 40
9.00000000E+00
  1
STRETCH LINE
 41
1.05263158E+00
  7
MONOTXT
  0
LINE
  8
0
 62
7
 10
-6.94279615E+01
 20
-1.86000046E+02
 11
-8.29999820E+01
 21
-1.86000046E+02
  0
LINE
  8
0
 62
7
 10
-6.42317827E+01
 20
-1.77000000E+02
 11
-8.29999820E+01
 21
-1.77000000E+02
  0
LINE
  8
0
 62
7
 10
-8.29999820E+01
 20
-8.60000000E+01
 11
-1.16929082E+01
 21
-8.60000000E+01
  0
LINE
  8
0
 62
7
 10
-8.09999820E+01
 20
-9.29999695E+01
 11
-8.29999820E+01
 21
-9.29999695E+01
  0
ARC
  8
0
 62
2
 10
-3.58999982E+02
 20
-3.19500000E+02
 40
1.01800079E+01
 50
0.00000000E+00
 51
1.80000000E+02
  0
LINE
  8
0
 62
2
 10
-1.68499997E+02
 20
-3.09319992E+02
 11
-1.56999967E+02
 21
-3.09319992E+02
  0
LINE
  8
0
 62
7
 10
-1.68499997E+02
 20
-3.08499977E+02
 11
-1.56999967E+02
 21
-3.08499977E+02
  0
LINE
  8
0
 62
2
 10
-1.68499982E+02
 20
-1.49679993E+02
 11
-1.56999951E+02
 21
-1.49679993E+02
  0
LINE
  8
0
 62
7
 10
-1.68499982E+02
 20
-1.50500000E+02
 11
-1.56999951E+02
 21
-1.50500000E+02
  0
LINE
  8
0
 62
2
 10
-1.68499982E+02
 20
-1.29319977E+02
 11
-1.56999951E+02
 21
-1.29319977E+02
  0
LINE
  8
0
 62
7
 10
-1.68499982E+02
 20
-1.28499969E+02
 11
-1.56999951E+02
 21
-1.28499969E+02
  0
LINE
  8
0
 62
4
 10
-3.59000124E+02
 20
-2.98715392E+02
 11
-3.41000119E+02
 21
-3.09107698E+02
  0
LINE
  8
0
 62
4
 10
-3.77000047E+02
 20
-3.09107731E+02
 11
-3.59000045E+02
 21
-2.98715427E+02
  0
LINE
  8
0
 62
4
 10
-3.40999982E+02
 20
-3.09107697E+02
 11
-3.40999982E+02
 21
-3.19500000E+02
  0
LINE
  8
0
 62
4
 10
-3.76999990E+02
 20
-3.09107697E+02
 11
-3.76999990E+02
 21
-3.19500000E+02
  0
ARC
  8
0
 62
7
 10
-3.58999982E+02
 20
-3.19500000E+02
 40
1.10000000E+01
 50
0.00000000E+00
 51
1.80000000E+02
  0
ARC
  8
0
 62
4
 10
-3.58999982E+02
 20
-3.19500000E+02
 40
1.80000000E+01
 50
0.00000000E+00
 51
1.80000000E+02
  0
LINE
  8
0
 62
4
 10
-1.82499997E+02
 20
-3.01500000E+02
 11
-1.82499997E+02
 21
-3.19500000E+02
  0
LINE
  8
0
 62
4
 10
-1.80892301E+02
 20
-3.09107697E+02
 11
-1.70107694E+02
 21
-3.09107697E+02
  0
LINE
  8
0
 62
4
 10
-1.80892301E+02
 20
-2.98715393E+02
 11
-1.70107694E+02
 21
-2.98715393E+02
  0
LINE
  8
0
 62
4
 10
-1.82500006E+02
 20
-3.01500001E+02
 11
-1.80892328E+02
 21
-2.98715392E+02
  0
LINE
  8
0
 62
4
 10
-1.68499997E+02
 20
-3.01499988E+02
 11
-1.70107677E+02
 21
-2.98715366E+02
  0
LINE
  8
0
 62
4
 10
-1.68499997E+02
 20
-3.01500000E+02
 11
-1.68499997E+02
 21
-3.19500000E+02
  0
ARC
  8
0
 62
4
 10
-2.02892263E+02
 20
-3.19500000E+02
 40
3.43922653E+01
 50
0.00000000E+00
 51
1.75879147E+01
  0
ARC
  8
0
 62
4
 10
-1.77700952E+02
 20
-3.03911545E+02
 40
9.20095253E+00
 50
3.25615707E+02
 51
3.43842378E+01
  0
ARC
  8
0
 62
4
 10
-1.48107732E+02
 20
-3.19500000E+02
 40
3.43922653E+01
 50
1.62412050E+02
 51
1.80000000E+02
  0
ARC
  8
0
 62
4
 10
-1.73299043E+02
 20
-3.03911545E+02
 40
9.20095253E+00
 50
1.45615726E+02
 51
2.14384256E+02
  0
LINE
  8
0
 62
4
 10
-1.82499982E+02
 20
-1.57499935E+02
 11
-1.68499982E+02
 21
-1.57499935E+02
  0
LINE
  8
0
 62
4
 10
-1.82499982E+02
 20
-1.21500065E+02
 11
-1.68499982E+02
 21
-1.21500065E+02
  0
LINE
  8
0
 62
4
 10
-1.82499982E+02
 20
-1.21500065E+02
 11
-1.82499982E+02
 21
-1.57499935E+02
  0
LINE
  8
0
 62
4
 10
-1.68499982E+02
 20
-1.21500065E+02
 11
-1.68499982E+02
 21
-1.57499935E+02
  0
LINE
  8
0
 62
4
 10
-1.80892473E+02
 20
-1.39500072E+02
 11
-1.70107491E+02
 21
-1.39500072E+02
  0
ARC
  8
0
 62
4
 10
-1.56501951E+02
 20
-1.48500076E+02
 40
2.59980309E+01
 50
1.59746143E+02
 51
2.00253857E+02
  0
ARC
  8
0
 62
4
 10
-1.56501951E+02
 20
-1.30500069E+02
 40
2.59980309E+01
 50
1.59746143E+02
 51
2.00253857E+02
  0
ARC
  8
0
 62
4
 10
-1.94498013E+02
 20
-1.30500069E+02
 40
2.59980309E+01
 50
3.39746143E+02
 51
2.02538569E+01
  0
ARC
  8
0
 62
4
 10
-1.94498013E+02
 20
-1.48500076E+02
 40
2.59980309E+01
 50
3.39746143E+02
 51
2.02538569E+01
  0
LINE
  8
0
 62
7
 10
-1.34999951E+02
 20
-1.15936707E+02
 11
-1.34999951E+02
 21
-1.63063232E+02
  0
LINE
  8
0
 62
7
 10
-1.34999982E+02
 20
-3.19500000E+02
 11
-1.34999982E+02
 21
-2.95936752E+02
  0
POLYLINE
  8
0
 62
7
 66
1
  0
VERTEX
  8
0
 62
7
 10
-1.47738324E+02
 20
-1.32860474E+02
  0
VERTEX
  8
0
 62
7
 10
-1.48176472E+02
 20
-1.32887202E+02
  0
VERTEX
  8
0
 62
7
 10
-1.48611092E+02
 20
-1.32967174E+02
  0
VERTEX
  8
0
 62
7
 10
-1.49038686E+02
 20
-1.33099743E+02
  0
VERTEX
  8
0
 62
7
 10
-1.49455809E+02
 20
-1.33283844E+02
  0
VERTEX
  8
0
 62
7
 10
-1.49859105E+02
 20
-1.33517993E+02
  0
VERTEX
  8
0
 62
7
 10
-1.50245325E+02
 20
-1.33800307E+02
  0
VERTEX
  8
0
 62
7
 10
-1.50611360E+02
 20
-1.34128510E+02
  0
VERTEX
  8
0
 62
7
 10
-1.50954264E+02
 20
-1.34499962E+02
  0
VERTEX
  8
0
 62
7
 10
-1.51271274E+02
 20
-1.34911671E+02
  0
VERTEX
  8
0
 62
7
 10
-1.51559839E+02
 20
-1.35360323E+02
  0
VERTEX
  8
0
 62
7
 10
-1.51817636E+02
 20
-1.35842305E+02
  0
VERTEX
  8
0
 62
7
 10
-1.52042588E+02
 20
-1.36353736E+02
  0
VERTEX
  8
0
 62
7
 10
-1.52232885E+02
 20
-1.36890500E+02
  0
VERTEX
  8
0
 62
7
 10
-1.52386994E+02
 20
-1.37448273E+02
  0
VERTEX
  8
0
 62
7
 10
-1.52503675E+02
 20
-1.38022566E+02
  0
VERTEX
  8
0
 62
7
 10
-1.52581989E+02
 20
-1.38608755E+02
  0
VERTEX
  8
0
 62
7
 10
-1.52621304E+02
 20
-1.39202119E+02
  0
VERTEX
  8
0
 62
7
 10
-1.52621304E+02
 20
-1.39797881E+02
  0
VERTEX
  8
0
 62
7
 10
-1.52581989E+02
 20
-1.40391245E+02
  0
VERTEX
  8
0
 62
7
 10
-1.52503675E+02
 20
-1.40977434E+02
  0
VERTEX
  8
0
 62
7
 10
-1.52386994E+02
 20
-1.41551726E+02
  0
VERTEX
  8
0
 62
7
 10
-1.52232885E+02
 20
-1.42109500E+02
  0
VERTEX
  8
0
 62
7
 10
-1.52042588E+02
 20
-1.42646263E+02
  0
VERTEX
  8
0
 62
7
 10
-1.51817636E+02
 20
-1.43157695E+02
  0
VERTEX
  8
0
 62
7
 10
-1.51559839E+02
 20
-1.43639677E+02
  0
VERTEX
  8
0
 62
7
 10
-1.51271274E+02
 20
-1.44088329E+02
  0
VERTEX
  8
0
 62
7
 10
-1.50954264E+02
 20
-1.44500038E+02
  0
VERTEX
  8
0
 62
7
 10
-1.50611360E+02
 20
-1.44871490E+02
  0
VERTEX
  8
0
 62
7
 10
-1.50245325E+02
 20
-1.45199693E+02
  0
VERTEX
  8
0
 62
7
 10
-1.49859105E+02
 20
-1.45482007E+02
  0
VERTEX
  8
0
 62
7
 10
-1.49455809E+02
 20
-1.45716156E+02
  0
VERTEX
  8
0
 62
7
 10
-1.49038686E+02
 20
-1.45900257E+02
  0
VERTEX
  8
0
 62
7
 10
-1.48611093E+02
 20
-1.46032826E+02
  0
VERTEX
  8
0
 62
7
 10
-1.48176472E+02
 20
-1.46112798E+02
  0
VERTEX
  8
0
 62
7
 10
-1.47738324E+02
 20
-1.46139526E+02
  0
SEQEND
  8
0
  0
POLYLINE
  8
0
 62
7
 66
1
  0
VERTEX
  8
0
 62
7
 10
-1.47738332E+02
 20
-1.46139534E+02
  0
VERTEX
  8
0
 62
7
 10
-1.48174011E+02
 20
-1.46151753E+02
  0
VERTEX
  8
0
 62
7
 10
-1.48606222E+02
 20
-1.46188312E+02
  0
VERTEX
  8
0
 62
7
 10
-1.49031524E+02
 20
-1.46248921E+02
  0
VERTEX
  8
0
 62
7
 10
-1.49446531E+02
 20
-1.46333096E+02
  0
VERTEX
  8
0
 62
7
 10
-1.49847939E+02
 20
-1.46440167E+02
  0
VERTEX
  8
0
 62
7
 10
-1.50232553E+02
 20
-1.46569283E+02
  0
VERTEX
  8
0
 62
7
 10
-1.50597312E+02
 20
-1.46719416E+02
  0
VERTEX
  8
0
 62
7
 10
-1.50939311E+02
 20
-1.46889369E+02
  0
VERTEX
  8
0
 62
7
 10
-1.51255828E+02
 20
-1.47077791E+02
  0
VERTEX
  8
0
 62
7
 10
-1.51544342E+02
 20
-1.47283182E+02
  0
VERTEX
  8
0
 62
7
 10
-1.51802559E+02
 20
-1.47503905E+02
  0
VERTEX
  8
0
 62
7
 10
-1.52028420E+02
 20
-1.47738205E+02
  0
VERTEX
  8
0
 62
7
 10
-1.52220130E+02
 20
-1.47984216E+02
  0
VERTEX
  8
0
 62
7
 10
-1.52376161E+02
 20
-1.48239979E+02
  0
VERTEX
  8
0
 62
7
 10
-1.52495272E+02
 20
-1.48503458E+02
  0
VERTEX
  8
0
 62
7
 10
-1.52576513E+02
 20
-1.48772557E+02
  0
VERTEX
  8
0
 62
7
 10
-1.52619239E+02
 20
-1.49045132E+02
  0
VERTEX
  8
0
 62
7
 10
-1.52623110E+02
 20
-1.49319014E+02
  0
VERTEX
  8
0
 62
7
 10
-1.52588094E+02
 20
-1.49592023E+02
  0
VERTEX
  8
0
 62
7
 10
-1.52514470E+02
 20
-1.49861984E+02
  0
VERTEX
  8
0
 62
7
 10
-1.52402825E+02
 20
-1.50126750E+02
  0
VERTEX
  8
0
 62
7
 10
-1.52254047E+02
 20
-1.50384212E+02
  0
VERTEX
  8
0
 62
7
 10
-1.52069320E+02
 20
-1.50632321E+02
  0
VERTEX
  8
0
 62
7
 10
-1.51850116E+02
 20
-1.50869102E+02
  0
VERTEX
  8
0
 62
7
 10
-1.51598178E+02
 20
-1.51092669E+02
  0
VERTEX
  8
0
 62
7
 10
-1.51315513E+02
 20
-1.51301243E+02
  0
VERTEX
  8
0
 62
7
 10
-1.51004372E+02
 20
-1.51493163E+02
  0
VERTEX
  8
0
 62
7
 10
-1.50667230E+02
 20
-1.51666903E+02
  0
VERTEX
  8
0
 62
7
 10
-1.50306772E+02
 20
-1.51821077E+02
  0
SEQEND
  8
0
  0
POLYLINE
  8
0
 62
7
 66
1
  0
VERTEX
  8
0
 62
7
 10
-1.50306772E+02
 20
-1.27178916E+02
  0
VERTEX
  8
0
 62
7
 10
-1.50667230E+02
 20
-1.27333091E+02
  0
VERTEX
  8
0
 62
7
 10
-1.51004372E+02
 20
-1.27506831E+02
  0
VERTEX
  8
0
 62
7
 10
-1.51315513E+02
 20
-1.27698752E+02
  0
VERTEX
  8
0
 62
7
 10
-1.51598178E+02
 20
-1.27907326E+02
  0
VERTEX
  8
0
 62
7
 10
-1.51850116E+02
 20
-1.28130894E+02
  0
VERTEX
  8
0
 62
7
 10
-1.52069320E+02
 20
-1.28367675E+02
  0
VERTEX
  8
0
 62
7
 10
-1.52254047E+02
 20
-1.28615785E+02
  0
VERTEX
  8
0
 62
7
 10
-1.52402825E+02
 20
-1.28873248E+02
  0
VERTEX
  8
0
 62
7
 10
-1.52514470E+02
 20
-1.29138014E+02
  0
VERTEX
  8
0
 62
7
 10
-1.52588094E+02
 20
-1.29407976E+02
  0
VERTEX
  8
0
 62
7
 10
-1.52623110E+02
 20
-1.29680986E+02
  0
VERTEX
  8
0
 62
7
 10
-1.52619239E+02
 20
-1.29954868E+02
  0
VERTEX
  8
0
 62
7
 10
-1.52576513E+02
 20
-1.30227444E+02
  0
VERTEX
  8
0
 62
7
 10
-1.52495272E+02
 20
-1.30496544E+02
  0
VERTEX
  8
0
 62
7
 10
-1.52376161E+02
 20
-1.30760024E+02
  0
VERTEX
  8
0
 62
7
 10
-1.52220130E+02
 20
-1.31015788E+02
  0
VERTEX
  8
0
 62
7
 10
-1.52028420E+02
 20
-1.31261799E+02
  0
VERTEX
  8
0
 62
7
 10
-1.51802559E+02
 20
-1.31496099E+02
  0
VERTEX
  8
0
 62
7
 10
-1.51544342E+02
 20
-1.31716823E+02
  0
VERTEX
  8
0
 62
7
 10
-1.51255828E+02
 20
-1.31922214E+02
  0
VERTEX
  8
0
 62
7
 10
-1.50939311E+02
 20
-1.32110636E+02
  0
VERTEX
  8
0
 62
7
 10
-1.50597312E+02
 20
-1.32280590E+02
  0
VERTEX
  8
0
 62
7
 10
-1.50232553E+02
 20
-1.32430723E+02
  0
VERTEX
  8
0
 62
7
 10
-1.49847939E+02
 20
-1.32559840E+02
  0
VERTEX
  8
0
 62
7
 10
-1.49446531E+02
 20
-1.32666912E+02
  0
VERTEX
  8
0
 62
7
 10
-1.49031524E+02
 20
-1.32751087E+02
  0
VERTEX
  8
0
 62
7
 10
-1.48606222E+02
 20
-1.32811695E+02
  0
VERTEX
  8
0
 62
7
 10
-1.48174011E+02
 20
-1.32848254E+02
  0
VERTEX
  8
0
 62
7
 10
-1.47738332E+02
 20
-1.32860473E+02
  0
SEQEND
  8
0
  0
POLYLINE
  8
0
 62
7
 66
1
  0
VERTEX
  8
0
 62
7
 10
-1.47738340E+02
 20
-3.08000008E+02
  0
VERTEX
  8
0
 62
7
 10
-1.48176489E+02
 20
-3.08023155E+02
  0
VERTEX
  8
0
 62
7
 10
-1.48611110E+02
 20
-3.08092412E+02
  0
VERTEX
  8
0
 62
7
 10
-1.49038704E+02
 20
-3.08207221E+02
  0
VERTEX
  8
0
 62
7
 10
-1.49455828E+02
 20
-3.08366657E+02
  0
VERTEX
  8
0
 62
7
 10
-1.49859124E+02
 20
-3.08569436E+02
  0
VERTEX
  8
0
 62
7
 10
-1.50245345E+02
 20
-3.08813926E+02
  0
VERTEX
  8
0
 62
7
 10
-1.50611381E+02
 20
-3.09098158E+02
  0
VERTEX
  8
0
 62
7
 10
-1.50954285E+02
 20
-3.09419845E+02
  0
VERTEX
  8
0
 62
7
 10
-1.51271295E+02
 20
-3.09776395E+02
  0
VERTEX
  8
0
 62
7
 10
-1.51559861E+02
 20
-3.10164938E+02
  0
VERTEX
  8
0
 62
7
 10
-1.51817658E+02
 20
-3.10582347E+02
  0
VERTEX
  8
0
 62
7
 10
-1.52042611E+02
 20
-3.11025259E+02
  0
VERTEX
  8
0
 62
7
 10
-1.52232908E+02
 20
-3.11490109E+02
  0
VERTEX
  8
0
 62
7
 10
-1.52387018E+02
 20
-3.11973155E+02
  0
VERTEX
  8
0
 62
7
 10
-1.52503699E+02
 20
-3.12470506E+02
  0
VERTEX
  8
0
 62
7
 10
-1.52582012E+02
 20
-3.12978160E+02
  0
VERTEX
  8
0
 62
7
 10
-1.52621327E+02
 20
-3.13492028E+02
  0
VERTEX
  8
0
 62
7
 10
-1.52621327E+02
 20
-3.14007972E+02
  0
VERTEX
  8
0
 62
7
 10
-1.52582012E+02
 20
-3.14521840E+02
  0
VERTEX
  8
0
 62
7
 10
-1.52503699E+02
 20
-3.15029494E+02
  0
VERTEX
  8
0
 62
7
 10
-1.52387018E+02
 20
-3.15526845E+02
  0
VERTEX
  8
0
 62
7
 10
-1.52232908E+02
 20
-3.16009891E+02
  0
VERTEX
  8
0
 62
7
 10
-1.52042611E+02
 20
-3.16474741E+02
  0
VERTEX
  8
0
 62
7
 10
-1.51817658E+02
 20
-3.16917653E+02
  0
VERTEX
  8
0
 62
7
 10
-1.51559861E+02
 20
-3.17335062E+02
  0
VERTEX
  8
0
 62
7
 10
-1.51271295E+02
 20
-3.17723605E+02
  0
VERTEX
  8
0
 62
7
 10
-1.50954285E+02
 20
-3.18080155E+02
  0
VERTEX
  8
0
 62
7
 10
-1.50611381E+02
 20
-3.18401842E+02
  0
VERTEX
  8
0
 62
7
 10
-1.50245345E+02
 20
-3.18686074E+02
  0
VERTEX
  8
0
 62
7
 10
-1.49859124E+02
 20
-3.18930564E+02
  0
VERTEX
  8
0
 62
7
 10
-1.49455828E+02
 20
-3.19133343E+02
  0
VERTEX
  8
0
 62
7
 10
-1.49038704E+02
 20
-3.19292779E+02
  0
VERTEX
  8
0
 62
7
 10
-1.48611110E+02
 20
-3.19407588E+02
  0
VERTEX
  8
0
 62
7
 10
-1.48176489E+02
 20
-3.19476845E+02
  0
VERTEX
  8
0
 62
7
 10
-1.47738340E+02
 20
-3.19499992E+02
  0
SEQEND
  8
0
  0
CIRCLE
  8
0
 62
7
 10
7.89999951E+01
 20
-2.77500000E+02
 40
4.17999983E+00
  0
CIRCLE
  8
0
 62
7
 10
1.62999972E+02
 20
-2.77500000E+02
 40
4.17999983E+00
  0
CIRCLE
  8
0
 62
2
 10
7.89999951E+01
 20
-2.77500000E+02
 40
5.00000000E+00
  0
ARC
  8
0
 62
7
 10
1.20999911E+02
 20
-3.19499939E+02
 40
2.50000153E+01
 50
0.00000000E+00
 51
1.80000140E+02
  0
ARC
  8
0
 62
7
 10
1.51158084E+02
 20
-2.73497620E+02
 40
1.00000000E+00
 50
3.41325670E+02
 51
9.18100369E+01
  0
ARC
  8
0
 62
7
 10
1.67002459E+02
 20
-2.89341858E+02
 40
1.00000000E+00
 50
3.58187399E+02
 51
1.08674648E+02
  0
ARC
  8
0
 62
7
 10
1.46016177E+02
 20
-2.68099976E+02
 40
1.00000000E+00
 50
3.55410354E+02
 51
9.00000162E+01
  0
ARC
  8
0
 62
7
 10
1.72399997E+02
 20
-2.94484039E+02
 40
1.00000000E+00
 50
3.59721781E-05
 51
9.45895342E+01
  0
ARC
  8
0
 62
7
 10
1.51000110E+02
 20
-2.68500137E+02
 40
4.00000000E+00
 50
1.75409585E+02
 51
2.71810493E+02
  0
ARC
  8
0
 62
7
 10
1.71999972E+02
 20
-2.89500061E+02
 40
4.00000000E+00
 50
1.78186904E+02
 51
2.74588685E+02
  0
CIRCLE
  8
0
 62
7
 10
1.62999972E+02
 20
-2.77500015E+02
 40
8.00000000E+00
  0
ARC
  8
0
 62
7
 10
1.71999972E+02
 20
-2.68500000E+02
 40
5.00000000E+00
 50
3.59721781E-05
 51
9.00000162E+01
  0
ARC
  8
0
 62
7
 10
1.71999972E+02
 20
-2.68499985E+02
 40
4.40000010E+00
 50
3.59721781E-05
 51
9.00000162E+01
  0
ARC
  8
0
 62
7
 10
1.62999972E+02
 20
-2.77500000E+02
 40
1.15000000E+01
 50
1.61325558E+02
 51
2.88675076E+02
  0
ARC
  8
0
 62
7
 10
1.23249972E+02
 20
-2.93597488E+02
 40
1.00000000E+00
 50
1.80000036E+02
 51
2.65035857E+02
  0
ARC
  8
0
 62
7
 10
1.37724856E+02
 20
-2.99593124E+02
 40
1.00000000E+00
 50
2.29964741E+02
 51
3.15000026E+02
  0
ARC
  8
0
 62
7
 10
1.40906924E+02
 20
-3.02775139E+02
 40
1.00000000E+00
 50
1.35000014E+02
 51
2.20035582E+02
  0
ARC
  8
0
 62
7
 10
1.46902514E+02
 20
-3.17250008E+02
 40
1.00000000E+00
 50
1.84964190E+02
 51
2.70000038E+02
  0
ARC
  8
0
 62
7
 10
1.23249972E+02
 20
-2.68099991E+02
 40
1.00000000E+00
 50
9.00000025E+01
 51
1.80000046E+02
  0
ARC
  8
0
 62
7
 10
1.72399997E+02
 20
-3.17250031E+02
 40
1.00000000E+00
 50
2.70000052E+02
 51
3.59721781E-05
  0
ARC
  8
0
 62
7
 10
1.55896548E+02
 20
-2.87785492E+02
 40
1.00000000E+00
 50
5.53696217E+01
 51
1.35000014E+02
  0
ARC
  8
0
 62
7
 10
1.52714480E+02
 20
-2.84603500E+02
 40
1.00000000E+00
 50
3.15000047E+02
 51
3.46303671E+01
  0
CIRCLE
  8
0
 62
7
 10
1.62999972E+02
 20
-2.77500015E+02
 40
8.69999981E+00
  0
ARC
  8
0
 62
7
 10
7.00001019E+01
 20
-2.89499893E+02
 40
4.00000000E+00
 50
2.65409591E+02
 51
1.81044602E+00
  0
ARC
  8
0
 62
7
 10
9.10000638E+01
 20
-2.68500000E+02
 40
4.00000000E+00
 50
2.68187375E+02
 51
4.58865257E+00
  0
ARC
  8
0
 62
7
 10
7.89999951E+01
 20
-2.77500000E+02
 40
1.15000000E+01
 50
2.51325577E+02
 51
1.86749751E+01
  0
ARC
  8
0
 62
7
 10
7.49976148E+01
 20
-2.89341904E+02
 40
1.00000000E+00
 50
7.13256097E+01
 51
1.81810060E+02
  0
ARC
  8
0
 62
7
 10
9.08418302E+01
 20
-2.73497482E+02
 40
1.00000000E+00
 50
8.81864507E+01
 51
1.98675204E+02
  0
ARC
  8
0
 62
7
 10
9.59839963E+01
 20
-2.68099991E+02
 40
1.00000000E+00
 50
9.00000162E+01
 51
1.84587802E+02
  0
ARC
  8
0
 62
7
 10
6.95999707E+01
 20
-2.94483841E+02
 40
1.00000000E+00
 50
8.54104432E+01
 51
1.80000005E+02
  0
CIRCLE
  8
0
 62
2
 10
1.62999972E+02
 20
-2.77500000E+02
 40
5.00000000E+00
  0
CIRCLE
  8
0
 62
7
 10
7.89999951E+01
 20
-2.77500000E+02
 40
8.00000000E+00
  0
ARC
  8
0
 62
7
 10
7.00000028E+01
 20
-2.68500000E+02
 40
5.00000000E+00
 50
9.00000162E+01
 51
1.80000005E+02
  0
ARC
  8
0
 62
7
 10
7.00000028E+01
 20
-2.68500000E+02
 40
4.40000010E+00
 50
9.00000162E+01
 51
1.80000005E+02
  0
ARC
  8
0
 62
7
 10
6.95999707E+01
 20
-3.17250008E+02
 40
1.00000000E+00
 50
1.79999995E+02
 51
2.70000038E+02
  0
ARC
  8
0
 62
7
 10
9.50974606E+01
 20
-3.17250008E+02
 40
1.00000000E+00
 50
2.70000045E+02
 51
3.55035851E+02
  0
ARC
  8
0
 62
7
 10
1.18749957E+02
 20
-2.93597427E+02
 40
1.00000000E+00
 50
2.74964207E+02
 51
3.59721781E-05
  0
ARC
  8
0
 62
7
 10
1.18749957E+02
 20
-2.68099991E+02
 40
1.00000000E+00
 50
3.59721781E-05
 51
9.00000162E+01
  0
ARC
  8
0
 62
7
 10
1.04275165E+02
 20
-2.99593094E+02
 40
1.00000000E+00
 50
2.25000013E+02
 51
3.10035571E+02
  0
ARC
  8
0
 62
7
 10
1.01093142E+02
 20
-3.02775108E+02
 40
1.00000000E+00
 50
3.19964774E+02
 51
4.50000423E+01
  0
ARC
  8
0
 62
7
 10
8.92854337E+01
 20
-2.84603439E+02
 40
1.00000000E+00
 50
1.45369621E+02
 51
2.25000010E+02
  0
ARC
  8
0
 62
7
 10
8.61034726E+01
 20
-2.87785461E+02
 40
1.00000000E+00
 50
4.50000423E+01
 51
1.24630380E+02
  0
CIRCLE
  8
0
 62
7
 10
7.89999951E+01
 20
-2.77500000E+02
 40
8.69999981E+00
  0
CIRCLE
  8
0
 62
7
 10
-8.99999515E+01
 20
-1.57500031E+02
 40
2.59999990E+00
  0
ARC
  8
0
 62
7
 10
-1.39499982E+02
 20
-2.96999985E+02
 40
5.00000000E-01
 50
8.99999818E+01
 51
1.79999964E+02
  0
ARC
  8
0
 62
7
 10
-1.18499967E+02
 20
-2.64619720E+02
 40
5.00000000E-01
 50
9.10002493E+01
 51
1.79999964E+02
  0
ARC
  8
0
 62
7
 10
-1.20499967E+02
 20
-2.95000000E+02
 40
5.00000000E-01
 50
8.99999818E+01
 51
1.79999964E+02
  0
ARC
  8
0
 62
7
 10
-1.34499982E+02
 20
-2.95971725E+02
 40
5.00000000E-01
 50
9.20007356E+01
 51
1.79999964E+02
  0
CIRCLE
  8
0
 62
7
 10
-3.16999951E+02
 20
-2.77500000E+02
 40
4.17999983E+00
  0
CIRCLE
  8
0
 62
7
 10
-4.00999951E+02
 20
-2.77500000E+02
 40
4.17999983E+00
  0
CIRCLE
  8
0
 62
2
 10
-3.16999951E+02
 20
-2.77500000E+02
 40
5.00000000E+00
  0
CIRCLE
  8
0
 62
2
 10
-4.00999951E+02
 20
-2.77500000E+02
 40
5.00000000E+00
  0
CIRCLE
  8
0
 62
2
 10
-9.89999667E+01
 20
-1.27500000E+02
 40
1.04775000E+01
  0
ARC
  8
0
 62
7
 10
-3.58999982E+02
 20
-3.19500000E+02
 40
2.40000000E+01
 50
0.00000000E+00
 51
1.80000000E+02
  0
ARC
  8
0
 62
7
 10
-3.58999860E+02
 20
-3.19499939E+02
 40
2.35000153E+01
 50
0.00000000E+00
 51
1.80000149E+02
  0
ARC
  8
0
 62
7
 10
-3.58999860E+02
 20
-3.19499939E+02
 40
2.50000153E+01
 50
0.00000000E+00
 51
1.80000140E+02
  0
ARC
  8
0
 62
7
 10
-3.89158063E+02
 20
-2.73497620E+02
 40
1.00000000E+00
 50
8.81899612E+01
 51
1.98674330E+02
  0
ARC
  8
0
 62
7
 10
-4.05002423E+02
 20
-2.89341858E+02
 40
1.00000000E+00
 50
7.13253501E+01
 51
1.81812600E+02
  0
ARC
  8
0
 62
7
 10
-3.84016156E+02
 20
-2.68099976E+02
 40
1.00000000E+00
 50
8.99999818E+01
 51
1.84589646E+02
  0
ARC
  8
0
 62
7
 10
-4.10399976E+02
 20
-2.94484039E+02
 40
1.00000000E+00
 50
8.54104639E+01
 51
1.79999964E+02
  0
ARC
  8
0
 62
7
 10
-3.89000074E+02
 20
-2.68500137E+02
 40
4.00000000E+00
 50
2.68189512E+02
 51
4.59040963E+00
  0
ARC
  8
0
 62
7
 10
-4.09999921E+02
 20
-2.89500061E+02
 40
4.00000000E+00
 50
2.65411312E+02
 51
1.81309463E+00
  0
CIRCLE
  8
0
 62
7
 10
-4.00999951E+02
 20
-2.77500015E+02
 40
8.00000000E+00
  0
ARC
  8
0
 62
7
 10
-4.09999921E+02
 20
-2.68500000E+02
 40
5.00000000E+00
 50
8.99999818E+01
 51
1.79999964E+02
  0
ARC
  8
0
 62
7
 10
-4.09999921E+02
 20
-2.68499985E+02
 40
4.40000010E+00
 50
8.99999818E+01
 51
1.79999964E+02
  0
ARC
  8
0
 62
7
 10
-4.00999951E+02
 20
-2.77500000E+02
 40
1.15000000E+01
 50
2.51324914E+02
 51
1.86744424E+01
  0
ARC
  8
0
 62
7
 10
-3.61249921E+02
 20
-2.93597488E+02
 40
1.00000000E+00
 50
2.74964145E+02
 51
3.59999959E+02
  0
ARC
  8
0
 62
7
 10
-3.75724835E+02
 20
-2.99593124E+02
 40
1.00000000E+00
 50
2.24999972E+02
 51
3.10035254E+02
  0
ARC
  8
0
 62
7
 10
-3.78906903E+02
 20
-3.02775139E+02
 40
1.00000000E+00
 50
3.19964423E+02
 51
4.49999910E+01
  0
ARC
  8
0
 62
7
 10
-3.84902478E+02
 20
-3.17250008E+02
 40
1.00000000E+00
 50
2.69999963E+02
 51
3.55035805E+02
  0
ARC
  8
0
 62
7
 10
-3.61249921E+02
 20
-2.68099991E+02
 40
1.00000000E+00
 50
3.59999959E+02
 51
8.99999956E+01
  0
ARC
  8
0
 62
7
 10
-4.10399976E+02
 20
-3.17250031E+02
 40
1.00000000E+00
 50
1.79999964E+02
 51
2.69999946E+02
  0
ARC
  8
0
 62
7
 10
-3.93896527E+02
 20
-2.87785492E+02
 40
1.00000000E+00
 50
4.49999910E+01
 51
1.24630380E+02
  0
ARC
  8
0
 62
7
 10
-3.90714460E+02
 20
-2.84603500E+02
 40
1.00000000E+00
 50
1.45369634E+02
 51
2.24999955E+02
  0
CIRCLE
  8
0
 62
7
 10
-4.00999951E+02
 20
-2.77500015E+02
 40
8.69999981E+00
  0
ARC
  8
0
 62
7
 10
-3.08000074E+02
 20
-2.89499893E+02
 40
4.00000000E+00
 50
1.78189554E+02
 51
2.74590407E+02
  0
ARC
  8
0
 62
7
 10
-3.29000012E+02
 20
-2.68500000E+02
 40
4.00000000E+00
 50
1.75411348E+02
 51
2.71812624E+02
  0
ARC
  8
0
 62
7
 10
-3.16999951E+02
 20
-2.77500000E+02
 40
1.15000000E+01
 50
1.61325025E+02
 51
2.88674421E+02
  0
CIRCLE
  8
0
 62
7
 10
-9.89999362E+01
 20
-1.27500000E+02
 40
1.10000000E+01
  0
ARC
  8
0
 62
7
 10
-1.12999921E+02
 20
-1.72499924E+02
 40
2.00000000E+00
 50
1.79999977E+02
 51
2.70000028E+02
  0
ARC
  8
0
 62
7
 10
-1.12999921E+02
 20
-1.06499939E+02
 40
2.00000000E+00
 50
8.99999818E+01
 51
1.79999951E+02
  0
ARC
  8
0
 62
7
 10
-3.12997571E+02
 20
-2.89341904E+02
 40
1.00000000E+00
 50
3.58189936E+02
 51
1.08674388E+02
  0
ARC
  8
0
 62
7
 10
-3.28841779E+02
 20
-2.73497482E+02
 40
1.00000000E+00
 50
3.41324803E+02
 51
9.18135474E+01
  0
CIRCLE
  8
0
 62
7
 10
-9.89999362E+01
 20
-1.27499939E+02
 40
9.25000000E+00
  0
ARC
  8
0
 62
7
 10
-3.33983960E+02
 20
-2.68099991E+02
 40
1.00000000E+00
 50
3.55412204E+02
 51
8.99999818E+01
  0
ARC
  8
0
 62
7
 10
-3.07599927E+02
 20
-2.94483841E+02
 40
1.00000000E+00
 50
0.00000000E+00
 51
9.45895548E+01
  0
ARC
  8
0
 62
7
 10
-1.18499936E+02
 20
-1.94380264E+02
 40
5.00000000E-01
 50
1.79999977E+02
 51
2.68999679E+02
  0
ARC
  8
0
 62
7
 10
-1.39499936E+02
 20
-1.61999954E+02
 40
5.00000000E-01
 50
1.79999977E+02
 51
2.69999974E+02
  0
ARC
  8
0
 62
7
 10
-1.20499921E+02
 20
-1.63999939E+02
 40
5.00000000E-01
 50
1.79999977E+02
 51
2.69999974E+02
  0
ARC
  8
0
 62
7
 10
-1.34499936E+02
 20
-1.63028183E+02
 40
5.00000000E-01
 50
1.79999977E+02
 51
2.67999192E+02
  0
ARC
  8
0
 62
7
 10
-1.20499921E+02
 20
-1.14999939E+02
 40
5.00000000E-01
 50
8.99999818E+01
 51
1.79999951E+02
  0
ARC
  8
0
 62
7
 10
-1.34499936E+02
 20
-1.15971680E+02
 40
5.00000000E-01
 50
9.20007356E+01
 51
1.79999951E+02
  0
ARC
  8
0
 62
7
 10
-1.39499936E+02
 20
-1.16999939E+02
 40
5.00000000E-01
 50
8.99999818E+01
 51
1.79999951E+02
  0
ARC
  8
0
 62
7
 10
-1.18499936E+02
 20
-8.46196899E+01
 40
5.00000000E-01
 50
9.10002493E+01
 51
1.79999951E+02
  0
CIRCLE
  8
0
 62
7
 10
-3.16999951E+02
 20
-2.77500000E+02
 40
8.00000000E+00
  0
ARC
  8
0
 62
7
 10
-3.07999951E+02
 20
-2.68500000E+02
 40
5.00000000E+00
 50
0.00000000E+00
 51
8.99999818E+01
  0
ARC
  8
0
 62
7
 10
-3.07999951E+02
 20
-2.68500000E+02
 40
4.40000010E+00
 50
0.00000000E+00
 51
8.99999818E+01
  0
ARC
  8
0
 62
7
 10
-3.07599927E+02
 20
-3.17250008E+02
 40
1.00000000E+00
 50
2.69999963E+02
 51
0.00000000E+00
  0
ARC
  8
0
 62
7
 10
-3.33097425E+02
 20
-3.17250008E+02
 40
1.00000000E+00
 50
1.84964149E+02
 51
2.69999956E+02
  0
ARC
  8
0
 62
7
 10
-3.56749921E+02
 20
-2.93597427E+02
 40
1.00000000E+00
 50
1.79999964E+02
 51
2.65035792E+02
  0
ARC
  8
0
 62
7
 10
-3.56749921E+02
 20
-2.68099991E+02
 40
1.00000000E+00
 50
8.99999818E+01
 51
1.79999964E+02
  0
ARC
  8
0
 62
7
 10
-3.42275128E+02
 20
-2.99593094E+02
 40
1.00000000E+00
 50
2.29964427E+02
 51
3.14999988E+02
  0
ARC
  8
0
 62
7
 10
-3.39093091E+02
 20
-3.02775108E+02
 40
1.00000000E+00
 50
1.34999959E+02
 51
2.20035227E+02
  0
ARC
  8
0
 62
7
 10
-3.27285382E+02
 20
-2.84603439E+02
 40
1.00000000E+00
 50
3.14999995E+02
 51
3.46303842E+01
  0
ARC
  8
0
 62
7
 10
-3.24103437E+02
 20
-2.87785461E+02
 40
1.00000000E+00
 50
5.53696252E+01
 51
1.34999959E+02
  0
CIRCLE
  8
0
 62
7
 10
-3.16999951E+02
 20
-2.77500000E+02
 40
8.69999981E+00
  0
CIRCLE
  8
0
 62
7
 10
-8.99999515E+01
 20
-1.57500031E+02
 40
5.00000000E+00
  0
LINE
  8
0
 62
7
 10
-1.56999967E+02
 20
-3.09319992E+02
 11
-1.53999967E+02
 21
-3.09319992E+02
  0
LINE
  8
0
 62
7
 10
-1.56999951E+02
 20
-1.49679993E+02
 11
-1.53999951E+02
 21
-1.49679993E+02
  0
LINE
  8
0
 62
7
 10
-1.56999951E+02
 20
-1.29319977E+02
 11
-1.53999951E+02
 21
-1.29319977E+02
  0
LINE
  8
0
 62
7
 10
-1.53999928E+02
 20
-1.50500003E+02
 11
-1.47738303E+02
 21
-1.52779048E+02
  0
LINE
  8
0
 62
7
 10
-1.53999955E+02
 20
-1.28500021E+02
 11
-1.47738322E+02
 21
-1.26220973E+02
  0
LINE
  8
0
 62
7
 10
-1.47738324E+02
 20
-1.32860474E+02
 11
-1.39999951E+02
 21
-1.32860474E+02
  0
LINE
  8
0
 62
7
 10
-1.92500028E+02
 20
-3.08499977E+02
 11
-1.82499997E+02
 21
-3.08499977E+02
  0
LINE
  8
0
 62
7
 10
-1.94000029E+02
 20
-3.10000022E+02
 11
-1.92500012E+02
 21
-3.08500005E+02
  0
LINE
  8
0
 62
2
 10
-1.93320005E+02
 20
-1.49679993E+02
 11
-1.82499982E+02
 21
-1.49679993E+02
  0
LINE
  8
0
 62
7
 10
-1.93999971E+02
 20
-1.48999919E+02
 11
-1.92499959E+02
 21
-1.50499931E+02
  0
LINE
  8
0
 62
7
 10
-1.92500012E+02
 20
-1.50500000E+02
 11
-1.82499982E+02
 21
-1.50500000E+02
  0
LINE
  8
0
 62
2
 10
-1.93320035E+02
 20
-3.09319992E+02
 11
-1.82499997E+02
 21
-3.09319992E+02
  0
LINE
  8
0
 62
2
 10
-1.93320005E+02
 20
-1.29319977E+02
 11
-1.82499982E+02
 21
-1.29319977E+02
  0
LINE
  8
0
 62
7
 10
-1.93999957E+02
 20
-1.30000080E+02
 11
-1.92499924E+02
 21
-1.28500046E+02
  0
LINE
  8
0
 62
7
 10
-1.92499982E+02
 20
-1.50500000E+02
 11
-1.92499982E+02
 21
-1.28499969E+02
  0
LINE
  8
0
 62
7
 10
-1.92500012E+02
 20
-1.28499969E+02
 11
-1.82499982E+02
 21
-1.28499969E+02
  0
LINE
  8
0
 62
7
 10
-1.56999951E+02
 20
-1.50500000E+02
 11
-1.56999951E+02
 21
-1.28499969E+02
  0
LINE
  8
0
 62
7
 10
-1.93999982E+02
 20
-1.48999878E+02
 11
-1.93999982E+02
 21
-1.30000061E+02
  0
LINE
  8
0
 62
7
 10
-1.53999951E+02
 20
-1.50500000E+02
 11
-1.53999951E+02
 21
-1.28500000E+02
  0
LINE
  8
0
 62
7
 10
-1.92499982E+02
 20
-3.08499977E+02
 11
-1.92499982E+02
 21
-3.19500000E+02
  0
LINE
  8
0
 62
7
 10
-1.56999967E+02
 20
-3.08499977E+02
 11
-1.56999967E+02
 21
-3.19500000E+02
  0
LINE
  8
0
 62
7
 10
-1.93999982E+02
 20
-3.09999954E+02
 11
-1.93999982E+02
 21
-3.19500000E+02
  0
LINE
  8
0
 62
7
 10
-1.53999967E+02
 20
-3.19500000E+02
 11
-1.53999967E+02
 21
-3.08499977E+02
  0
LINE
  8
0
 62
7
 10
-1.47738278E+02
 20
-1.26220978E+02
 11
-1.39999951E+02
 21
-1.26220978E+02
  0
LINE
  8
0
 62
7
 10
-1.53999967E+02
 20
-3.08500014E+02
 11
-1.52626231E+02
 21
-3.08000015E+02
  0
LINE
  8
0
 62
7
 10
-1.47738324E+02
 20
-1.52779037E+02
 11
-1.39999951E+02
 21
-1.52779037E+02
  0
LINE
  8
0
 62
7
 10
-1.47738324E+02
 20
-1.46139526E+02
 11
-1.39999951E+02
 21
-1.46139526E+02
  0
LINE
  8
0
 62
7
 10
-1.47738340E+02
 20
-3.19500000E+02
 11
-1.39999982E+02
 21
-3.19500000E+02
  0
LINE
  8
0
 62
7
 10
-1.52626248E+02
 20
-3.08000008E+02
 11
-1.39999982E+02
 21
-3.08000008E+02
  0
LINE
  8
0
 62
7
 10
7.89999942E+01
 20
-2.71726492E+02
 11
8.39999938E+01
 21
-2.74613243E+02
  0
LINE
  8
0
 62
7
 10
8.39999875E+01
 20
-2.74613251E+02
 11
8.39999875E+01
 21
-2.80386749E+02
  0
LINE
  8
0
 62
7
 10
8.39999846E+01
 20
-2.80386749E+02
 11
7.89999883E+01
 21
-2.83273498E+02
  0
LINE
  8
0
 62
7
 10
7.89999938E+01
 20
-2.83273497E+02
 11
7.39999942E+01
 21
-2.80386746E+02
  0
LINE
  8
0
 62
7
 10
7.39999951E+01
 20
-2.74613251E+02
 11
7.39999951E+01
 21
-2.80386749E+02
  0
LINE
  8
0
 62
7
 10
7.89999846E+01
 20
-2.71726495E+02
 11
7.39999883E+01
 21
-2.74613244E+02
  0
LINE
  8
0
 62
7
 10
1.62999974E+02
 20
-2.71726499E+02
 11
1.67999977E+02
 21
-2.74613252E+02
  0
LINE
  8
0
 62
7
 10
1.67999972E+02
 20
-2.74613251E+02
 11
1.67999972E+02
 21
-2.80386749E+02
  0
LINE
  8
0
 62
7
 10
1.67999972E+02
 20
-2.80386748E+02
 11
1.62999976E+02
 21
-2.83273497E+02
  0
LINE
  8
0
 62
7
 10
1.62999977E+02
 20
-2.83273506E+02
 11
1.57999974E+02
 21
-2.80386753E+02
  0
LINE
  8
0
 62
7
 10
1.57999972E+02
 20
-2.74613251E+02
 11
1.57999972E+02
 21
-2.80386749E+02
  0
LINE
  8
0
 62
7
 10
1.62999973E+02
 20
-2.71726496E+02
 11
1.57999977E+02
 21
-2.74613245E+02
  0
LINE
  8
0
  6
CENTER
 62
2
 10
6.31390408E+01
 20
-3.19500000E+02
 11
1.78904971E+02
 21
-3.19500000E+02
  0
LINE
  8
0
  6
CENTER
 62
2
 10
9.38062009E+01
 20
-2.77500000E+02
 11
6.27167767E+01
 21
-2.77500000E+02
  0
LINE
  8
0
  6
CENTER
 62
2
 10
1.21000018E+02
 20
-2.60833679E+02
 11
1.21000018E+02
 21
-3.19500000E+02
  0
LINE
  8
0
 62
7
 10
1.56000003E+02
 20
-2.63500000E+02
 11
1.56000003E+02
 21
-2.64099976E+02
  0
LINE
  8
0
  6
CENTER
 62
2
 10
1.62999972E+02
 20
-2.61019226E+02
 11
1.62999972E+02
 21
-2.91926193E+02
  0
LINE
  8
0
  6
CENTER
 62
2
 10
1.78963870E+02
 20
-2.77500000E+02
 11
1.47108966E+02
 21
-2.77500000E+02
  0
LINE
  8
0
 62
7
 10
1.76999972E+02
 20
-2.68500000E+02
 11
1.76999972E+02
 21
-3.19500000E+02
  0
LINE
  8
0
 62
7
 10
1.71999972E+02
 20
-2.63500000E+02
 11
7.00000028E+01
 21
-2.63500000E+02
  0
LINE
  8
0
 62
7
 10
1.22250018E+02
 20
-2.68099991E+02
 11
1.22250018E+02
 21
-2.93597488E+02
  0
LINE
  8
0
 62
7
 10
1.72399997E+02
 20
-3.18250000E+02
 11
1.46902514E+02
 21
-3.18250000E+02
  0
LINE
  8
0
 62
7
 10
1.73400012E+02
 20
-2.94484039E+02
 11
1.73400012E+02
 21
-3.19500000E+02
  0
LINE
  8
0
 62
7
 10
1.46016131E+02
 20
-2.67099991E+02
 11
9.59839963E+01
 21
-2.67099991E+02
  0
LINE
  8
0
 62
7
 10
1.38432009E+02
 20
-3.00300264E+02
 11
1.53421668E+02
 21
-2.85310606E+02
  0
LINE
  8
0
 62
7
 10
1.40199789E+02
 20
-3.02067980E+02
 11
1.55189449E+02
 21
-2.87078322E+02
  0
LINE
  8
0
 62
7
 10
1.76399997E+02
 20
-2.68499985E+02
 11
1.76399997E+02
 21
-3.19500000E+02
  0
LINE
  8
0
 62
7
 10
1.71999972E+02
 20
-2.64099976E+02
 11
7.00000028E+01
 21
-2.64099976E+02
  0
LINE
  8
0
 62
7
 10
8.60000180E+01
 20
-2.63500000E+02
 11
8.60000180E+01
 21
-2.64099976E+02
  0
LINE
  8
0
 62
7
 10
1.01800315E+02
 20
-3.02067864E+02
 11
8.68106443E+01
 21
-2.87078200E+02
  0
LINE
  8
0
 62
7
 10
1.03568088E+02
 20
-3.00300125E+02
 11
8.85784184E+01
 21
-2.85310461E+02
  0
LINE
  8
0
 62
7
 10
1.19750018E+02
 20
-2.68099991E+02
 11
1.19750018E+02
 21
-2.93597427E+02
  0
LINE
  8
0
  6
CENTER
 62
2
 10
7.89999951E+01
 20
-2.60607269E+02
 11
7.89999951E+01
 21
-2.92357803E+02
  0
LINE
  8
0
 62
7
 10
6.50000028E+01
 20
-2.68500000E+02
 11
6.50000028E+01
 21
-3.19500000E+02
  0
LINE
  8
0
 62
7
 10
6.95999707E+01
 20
-3.18250000E+02
 11
9.50974606E+01
 21
-3.18250000E+02
  0
LINE
  8
0
 62
7
 10
6.85999555E+01
 20
-2.94483841E+02
 11
6.85999555E+01
 21
-3.19500000E+02
  0
LINE
  8
0
 62
7
 10
6.55999783E+01
 20
-2.68500000E+02
 11
6.55999783E+01
 21
-3.19500000E+02
  0
LINE
  8
0
 62
2
 10
7.19166058E+01
 20
-3.19535225E+02
 11
7.19166058E+01
 21
-3.19499939E+02
  0
LINE
  8
0
  6
CENTER
 62
2
 10
1.32999972E+02
 20
-2.76199997E+02
 11
1.32999972E+02
 21
-2.61236389E+02
  0
LINE
  8
0
  6
CENTER
 62
2
 10
-9.89999820E+01
 20
-2.76199966E+02
 11
-9.89999820E+01
 21
-2.61236359E+02
  0
LINE
  8
0
  6
CENTER
 62
2
 10
-3.70999951E+02
 20
-2.76199997E+02
 11
-3.70999951E+02
 21
-2.61236389E+02
  0
LINE
  8
0
 62
7
 10
-8.29999972E+01
 20
-2.65999985E+02
 11
-1.16929146E+01
 21
-2.65999985E+02
  0
LINE
  8
0
 62
7
 10
-1.57343577E+01
 20
-2.72999969E+02
 11
-8.29999972E+01
 21
-2.72999969E+02
  0
LINE
  8
0
 62
7
 10
-2.09305189E+01
 20
-2.81999985E+02
 11
-8.29999972E+01
 21
-2.81999985E+02
  0
LINE
  8
0
  6
CENTER
 62
2
 10
-1.83324515E+01
 20
-2.77500000E+02
 11
-1.21524472E+02
 21
-2.77500000E+02
  0
LINE
  8
0
 62
7
 10
-1.39499982E+02
 20
-2.96499985E+02
 11
-1.34999982E+02
 21
-2.96499985E+02
  0
LINE
  8
0
 62
7
 10
-1.34517484E+02
 20
-2.95472084E+02
 11
-1.21000028E+02
 21
-2.95000044E+02
  0
LINE
  8
0
 62
7
 10
-1.18508695E+02
 20
-2.64119811E+02
 11
-8.29999585E+01
 21
-2.63500003E+02
  0
LINE
  8
0
 62
7
 10
-1.14999982E+02
 20
-2.64058548E+02
 11
-1.14999982E+02
 21
-2.63500000E+02
  0
LINE
  8
0
 62
7
 10
-1.14999982E+02
 20
-2.63500000E+02
 11
-8.29999667E+01
 21
-2.63500000E+02
  0
LINE
  8
0
 62
7
 10
-1.20499967E+02
 20
-2.94499985E+02
 11
-1.18999982E+02
 21
-2.94499985E+02
  0
LINE
  8
0
 62
7
 10
-1.57343424E+01
 20
-9.29999695E+01
 11
-5.64999820E+01
 21
-9.29999695E+01
  0
LINE
  8
0
 62
7
 10
-2.09305125E+01
 20
-1.02000000E+02
 11
-3.69999820E+01
 21
-1.02000000E+02
  0
LINE
  8
0
  6
CENTER
 62
2
 10
-1.83324186E+01
 20
-9.74999695E+01
 11
-5.64999820E+01
 21
-9.74999695E+01
  0
LINE
  8
0
 62
7
 10
-8.29999820E+01
 20
-1.93000015E+02
 11
-7.34693958E+01
 21
-1.93000015E+02
  0
LINE
  8
0
 62
7
 10
-1.20999967E+02
 20
-2.95000046E+02
 11
-1.20999967E+02
 21
-3.19500000E+02
  0
LINE
  8
0
  6
CENTER
 62
2
 10
-3.01138990E+02
 20
-3.19500000E+02
 11
-4.16904950E+02
 21
-3.19500000E+02
  0
LINE
  8
0
  6
CENTER
 62
2
 10
-3.31806165E+02
 20
-2.77500000E+02
 11
-3.00716748E+02
 21
-2.77500000E+02
  0
LINE
  8
0
  6
CENTER
 62
2
 10
-3.58999982E+02
 20
-2.60833679E+02
 11
-3.58999982E+02
 21
-3.19500000E+02
  0
LINE
  8
0
 62
7
 10
-3.93999982E+02
 20
-2.63500000E+02
 11
-3.93999982E+02
 21
-2.64099976E+02
  0
LINE
  8
0
  6
CENTER
 62
2
 10
-4.00999951E+02
 20
-2.61019226E+02
 11
-4.00999951E+02
 21
-2.91926193E+02
  0
LINE
  8
0
  6
CENTER
 62
2
 10
-4.16963849E+02
 20
-2.77500000E+02
 11
-3.85108930E+02
 21
-2.77500000E+02
  0
LINE
  8
0
 62
7
 10
-4.14999921E+02
 20
-2.68500000E+02
 11
-4.14999921E+02
 21
-3.19500000E+02
  0
LINE
  8
0
 62
7
 10
-4.09999921E+02
 20
-2.63500000E+02
 11
-3.07999951E+02
 21
-2.63500000E+02
  0
LINE
  8
0
 62
7
 10
-3.60249982E+02
 20
-2.68099991E+02
 11
-3.60249982E+02
 21
-2.93597488E+02
  0
LINE
  8
0
 62
7
 10
-4.10399976E+02
 20
-3.18250000E+02
 11
-3.84902478E+02
 21
-3.18250000E+02
  0
LINE
  8
0
 62
7
 10
-4.11399976E+02
 20
-2.94484039E+02
 11
-4.11399976E+02
 21
-3.19500000E+02
  0
LINE
  8
0
 62
7
 10
-3.84016095E+02
 20
-2.67099991E+02
 11
-3.33983960E+02
 21
-2.67099991E+02
  0
LINE
  8
0
 62
7
 10
-3.76431976E+02
 20
-3.00300274E+02
 11
-3.91421635E+02
 21
-2.85310616E+02
  0
LINE
  8
0
 62
7
 10
-3.78199764E+02
 20
-3.02067977E+02
 11
-3.93189423E+02
 21
-2.87078319E+02
  0
LINE
  8
0
 62
7
 10
-4.14399945E+02
 20
-2.68499985E+02
 11
-4.14399945E+02
 21
-3.19500000E+02
  0
LINE
  8
0
 62
7
 10
-4.09999921E+02
 20
-2.64099976E+02
 11
-3.07999951E+02
 21
-2.64099976E+02
  0
LINE
  8
0
 62
7
 10
-3.23999982E+02
 20
-2.63500000E+02
 11
-3.23999982E+02
 21
-2.64099976E+02
  0
LINE
  8
0
 62
7
 10
-3.39800259E+02
 20
-3.02067893E+02
 11
-3.24810587E+02
 21
-2.87078227E+02
  0
LINE
  8
0
 62
7
 10
-3.41568037E+02
 20
-3.00300137E+02
 11
-3.26578375E+02
 21
-2.85310481E+02
  0
LINE
  8
0
 62
7
 10
-1.20999951E+02
 20
-1.63999893E+02
 11
-1.20999951E+02
 21
-1.14999969E+02
  0
LINE
  8
0
 62
7
 10
-1.12999921E+02
 20
-1.04500061E+02
 11
-9.09999820E+01
 21
-1.04500061E+02
  0
LINE
  8
0
 62
7
 10
-1.12999921E+02
 20
-1.74500046E+02
 11
-8.29999362E+01
 21
-1.74500046E+02
  0
LINE
  8
0
  6
CENTER
 62
2
 10
-9.89999667E+01
 20
-1.41605835E+02
 11
-9.89999667E+01
 21
-1.13676727E+02
  0
LINE
  8
0
 62
7
 10
-1.39999982E+02
 20
-3.19500000E+02
 11
-1.39999982E+02
 21
-2.96999985E+02
  0
LINE
  8
0
 62
7
 10
-8.29999820E+01
 20
-8.34998169E+01
 11
-8.29999820E+01
 21
-9.36196107E+01
  0
LINE
  8
0
 62
7
 10
-1.34517383E+02
 20
-1.63527642E+02
 11
-1.20999927E+02
 21
-1.63999682E+02
  0
LINE
  8
0
 62
7
 10
-1.39499921E+02
 20
-1.62500031E+02
 11
-1.34999921E+02
 21
-1.62500031E+02
  0
LINE
  8
0
 62
7
 10
-1.18508620E+02
 20
-1.94880021E+02
 11
-8.29999140E+01
 21
-1.95499828E+02
  0
LINE
  8
0
 62
7
 10
-1.20499921E+02
 20
-1.64500046E+02
 11
-1.18999906E+02
 21
-1.64500046E+02
  0
LINE
  8
0
 62
7
 10
-1.34517406E+02
 20
-1.15471792E+02
 11
-1.20999949E+02
 21
-1.14999752E+02
  0
LINE
  8
0
 62
7
 10
-1.39499921E+02
 20
-1.16500031E+02
 11
-1.34999921E+02
 21
-1.16500031E+02
  0
LINE
  8
0
 62
7
 10
-1.18508630E+02
 20
-8.41195313E+01
 11
-8.29998939E+01
 21
-8.34997240E+01
  0
LINE
  8
0
 62
7
 10
-1.39999951E+02
 20
-1.61999954E+02
 11
-1.39999951E+02
 21
-1.16999939E+02
  0
LINE
  8
0
 62
7
 10
-1.18999967E+02
 20
-1.94380264E+02
 11
-1.18999967E+02
 21
-8.46197205E+01
  0
LINE
  8
0
 62
7
 10
-1.20499921E+02
 20
-1.14500061E+02
 11
-1.18999906E+02
 21
-1.14500061E+02
  0
LINE
  8
0
  6
CENTER
 62
2
 10
-8.52976199E+01
 20
-1.27500031E+02
 11
-1.13094892E+02
 21
-1.27500031E+02
  0
LINE
  8
0
 62
7
 10
-3.57749982E+02
 20
-2.68099991E+02
 11
-3.57749982E+02
 21
-2.93597427E+02
  0
LINE
  8
0
  6
CENTER
 62
2
 10
-3.16999951E+02
 20
-2.60607269E+02
 11
-3.16999951E+02
 21
-2.92357803E+02
  0
LINE
  8
0
 62
7
 10
-3.02999951E+02
 20
-2.68500000E+02
 11
-3.02999951E+02
 21
-3.19500000E+02
  0
LINE
  8
0
 62
7
 10
-3.07599927E+02
 20
-3.18250000E+02
 11
-3.33097425E+02
 21
-3.18250000E+02
  0
LINE
  8
0
 62
7
 10
-3.06599927E+02
 20
-2.94483841E+02
 11
-3.06599927E+02
 21
-3.19500000E+02
  0
LINE
  8
0
 62
7
 10
-3.03599927E+02
 20
-2.68500000E+02
 11
-3.03599927E+02
 21
-3.19500000E+02
  0
LINE
  8
0
 62
2
 10
-3.09916577E+02
 20
-3.19535225E+02
 11
-3.09916577E+02
 21
-3.19499939E+02
  0
LINE
  8
0
 62
7
 10
-1.14999951E+02
 20
-1.06499939E+02
 11
-1.14999951E+02
 21
-1.72499954E+02
  0
LINE
  8
0
  6
CENTER
 62
2
 10
-6.68298677E+01
 20
-1.81500015E+02
 11
-1.21524457E+02
 21
-1.81500015E+02
  0
LINE
  8
0
 62
7
 10
-8.82676943E+01
 20
-1.57500131E+02
 11
-8.91337411E+01
 21
-1.59000177E+02
  0
LINE
  8
0
 62
7
 10
-8.91339389E+01
 20
-1.59000046E+02
 11
-9.08660098E+01
 21
-1.59000046E+02
  0
LINE
  8
0
 62
7
 10
-9.08658838E+01
 20
-1.59000043E+02
 11
-9.17319535E+01
 21
-1.57499957E+02
  0
LINE
  8
0
 62
7
 10
-9.17317307E+01
 20
-1.57500271E+02
 11
-9.08657221E+01
 21
-1.56000291E+02
  0
LINE
  8
0
 62
7
 10
-8.91339389E+01
 20
-1.56000046E+02
 11
-9.08660098E+01
 21
-1.56000046E+02
  0
LINE
  8
0
 62
7
 10
-8.82678545E+01
 20
-1.57500114E+02
 11
-8.91338784E+01
 21
-1.56000108E+02
  0
LINE
  8
0
  6
CENTER
 62
2
 10
-9.81945315E+01
 20
-1.57500031E+02
 11
-8.19255343E+01
 21
-1.57500031E+02
  0
LINE
  8
0
  6
CENTER
 62
2
 10
-8.99999515E+01
 20
-1.49952271E+02
 11
-8.99999515E+01
 21
-1.64565659E+02
  0
LINE
  8
0
 62
7
 10
-8.29999972E+01
 20
-2.63500000E+02
 11
-8.29999972E+01
 21
-3.19500000E+02
  0
LINE
  8
0
 62
7
 10
-1.18999982E+02
 20
-2.64619720E+02
 11
-1.18999982E+02
 21
-3.19500000E+02
  0
LINE
  8
0
  6
CENTER
 62
2
 10
-2.02798307E+02
 20
-1.39500000E+02
 11
-4.25811476E+01
 21
-1.39500000E+02
  0
LINE
  8
0
  6
CENTER
 62
2
 10
-2.02243360E+02
 20
-3.19500000E+02
 11
-4.25811628E+01
 21
-3.19500000E+02
  0
LINE
  8
0
 62
7
 10
3.65000033E+02
 20
-2.65999985E+02
 11
3.58000033E+02
 21
-2.65999985E+02
  0
LINE
  8
0
 62
7
 10
2.89651508E+02
 20
-2.72999969E+02
 11
3.38500033E+02
 21
-2.72999969E+02
  0
LINE
  8
0
 62
7
 10
2.84455346E+02
 20
-2.81999985E+02
 11
3.38500033E+02
 21
-2.81999985E+02
  0
LINE
  8
0
  6
CENTER
 62
2
 10
2.87053414E+02
 20
-2.77500000E+02
 11
3.38500033E+02
 21
-2.77500000E+02
  0
LINE
  8
0
  6
CENTER
 62
2
 10
4.84243396E+02
 20
-3.19500000E+02
 11
2.62804702E+02
 21
-3.19500000E+02
  0
LINE
  8
0
 62
7
 10
4.01000018E+02
 20
-2.64619720E+02
 11
4.01000018E+02
 21
-3.19500000E+02
  0
LINE
  8
0
 62
7
 10
3.65000033E+02
 20
-2.63500000E+02
 11
3.65000033E+02
 21
-3.19500000E+02
  0
LINE
  8
0
 62
7
 10
4.22000018E+02
 20
-3.19500000E+02
 11
4.22000018E+02
 21
-2.96999985E+02
  0
LINE
  8
0
 62
7
 10
4.03000003E+02
 20
-2.95000046E+02
 11
4.03000003E+02
 21
-3.19500000E+02
  0
LINE
  8
0
 62
7
 10
4.02500003E+02
 20
-2.94499985E+02
 11
4.01000018E+02
 21
-2.94499985E+02
  0
LINE
  8
0
 62
7
 10
3.97000018E+02
 20
-2.63500000E+02
 11
3.65000003E+02
 21
-2.63500000E+02
  0
LINE
  8
0
 62
7
 10
3.97000018E+02
 20
-2.64058548E+02
 11
3.97000018E+02
 21
-2.63500000E+02
  0
LINE
  8
0
 62
7
 10
4.00508731E+02
 20
-2.64119811E+02
 11
3.64999995E+02
 21
-2.63500003E+02
  0
LINE
  8
0
 62
7
 10
4.16517520E+02
 20
-2.95472084E+02
 11
4.03000064E+02
 21
-2.95000044E+02
  0
LINE
  8
0
 62
7
 10
4.21500018E+02
 20
-2.96499985E+02
 11
4.17000018E+02
 21
-2.96499985E+02
  0
LINE
  8
0
  6
CENTER
 62
2
 10
3.81000018E+02
 20
-2.76199966E+02
 11
3.81000018E+02
 21
-2.61236359E+02
  0
LINE
  8
0
 62
7
 10
4.34626284E+02
 20
-3.08000008E+02
 11
4.22000018E+02
 21
-3.08000008E+02
  0
LINE
  8
0
 62
7
 10
4.29738376E+02
 20
-3.19500000E+02
 11
4.22000018E+02
 21
-3.19500000E+02
  0
LINE
  8
0
 62
7
 10
4.36000003E+02
 20
-3.08500014E+02
 11
4.34626268E+02
 21
-3.08000015E+02
  0
LINE
  8
0
 62
7
 10
4.36000003E+02
 20
-3.19500000E+02
 11
4.36000003E+02
 21
-3.08499977E+02
  0
LINE
  8
0
 62
7
 10
4.76000018E+02
 20
-3.09999954E+02
 11
4.76000018E+02
 21
-3.19500000E+02
  0
LINE
  8
0
 62
7
 10
4.39000003E+02
 20
-3.08499977E+02
 11
4.39000003E+02
 21
-3.19500000E+02
  0
LINE
  8
0
 62
7
 10
4.74500018E+02
 20
-3.08499977E+02
 11
4.74500018E+02
 21
-3.19500000E+02
  0
LINE
  8
0
 62
2
 10
4.75320071E+02
 20
-3.09319992E+02
 11
4.64500033E+02
 21
-3.09319992E+02
  0
LINE
  8
0
 62
7
 10
4.76000065E+02
 20
-3.10000022E+02
 11
4.74500048E+02
 21
-3.08500005E+02
  0
LINE
  8
0
 62
7
 10
4.74500064E+02
 20
-3.08499977E+02
 11
4.64500033E+02
 21
-3.08499977E+02
  0
LINE
  8
0
 62
7
 10
4.39000003E+02
 20
-3.09319992E+02
 11
4.36000003E+02
 21
-3.09319992E+02
  0
ARC
  8
0
 62
7
 10
4.16500018E+02
 20
-2.95971725E+02
 40
5.00000000E-01
 50
3.59721787E-05
 51
8.79992642E+01
  0
ARC
  8
0
 62
7
 10
4.02500003E+02
 20
-2.95000000E+02
 40
5.00000000E-01
 50
3.59721787E-05
 51
9.00000179E+01
  0
ARC
  8
0
 62
7
 10
4.00500003E+02
 20
-2.64619720E+02
 40
5.00000000E-01
 50
3.59721787E-05
 51
8.89997505E+01
  0
ARC
  8
0
 62
7
 10
4.21500018E+02
 20
-2.96999985E+02
 40
5.00000000E-01
 50
3.59721787E-05
 51
9.00000179E+01
  0
POLYLINE
  8
0
 62
7
 66
1
  0
VERTEX
  8
0
 62
7
 10
4.29738376E+02
 20
-3.19499992E+02
  0
VERTEX
  8
0
 62
7
 10
4.30176525E+02
 20
-3.19476845E+02
  0
VERTEX
  8
0
 62
7
 10
4.30611146E+02
 20
-3.19407588E+02
  0
VERTEX
  8
0
 62
7
 10
4.31038740E+02
 20
-3.19292779E+02
  0
VERTEX
  8
0
 62
7
 10
4.31455864E+02
 20
-3.19133343E+02
  0
VERTEX
  8
0
 62
7
 10
4.31859160E+02
 20
-3.18930564E+02
  0
VERTEX
  8
0
 62
7
 10
4.32245381E+02
 20
-3.18686074E+02
  0
VERTEX
  8
0
 62
7
 10
4.32611417E+02
 20
-3.18401842E+02
  0
VERTEX
  8
0
 62
7
 10
4.32954321E+02
 20
-3.18080155E+02
  0
VERTEX
  8
0
 62
7
 10
4.33271331E+02
 20
-3.17723605E+02
  0
VERTEX
  8
0
 62
7
 10
4.33559897E+02
 20
-3.17335062E+02
  0
VERTEX
  8
0
 62
7
 10
4.33817694E+02
 20
-3.16917653E+02
  0
VERTEX
  8
0
 62
7
 10
4.34042647E+02
 20
-3.16474741E+02
  0
VERTEX
  8
0
 62
7
 10
4.34232944E+02
 20
-3.16009891E+02
  0
VERTEX
  8
0
 62
7
 10
4.34387054E+02
 20
-3.15526845E+02
  0
VERTEX
  8
0
 62
7
 10
4.34503735E+02
 20
-3.15029494E+02
  0
VERTEX
  8
0
 62
7
 10
4.34582048E+02
 20
-3.14521840E+02
  0
VERTEX
  8
0
 62
7
 10
4.34621363E+02
 20
-3.14007972E+02
  0
VERTEX
  8
0
 62
7
 10
4.34621363E+02
 20
-3.13492028E+02
  0
VERTEX
  8
0
 62
7
 10
4.34582048E+02
 20
-3.12978160E+02
  0
VERTEX
  8
0
 62
7
 10
4.34503735E+02
 20
-3.12470506E+02
  0
VERTEX
  8
0
 62
7
 10
4.34387054E+02
 20
-3.11973155E+02
  0
VERTEX
  8
0
 62
7
 10
4.34232944E+02
 20
-3.11490109E+02
  0
VERTEX
  8
0
 62
7
 10
4.34042647E+02
 20
-3.11025259E+02
  0
VERTEX
  8
0
 62
7
 10
4.33817694E+02
 20
-3.10582347E+02
  0
VERTEX
  8
0
 62
7
 10
4.33559897E+02
 20
-3.10164938E+02
  0
VERTEX
  8
0
 62
7
 10
4.33271331E+02
 20
-3.09776395E+02
  0
VERTEX
  8
0
 62
7
 10
4.32954321E+02
 20
-3.09419845E+02
  0
VERTEX
  8
0
 62
7
 10
4.32611417E+02
 20
-3.09098158E+02
  0
VERTEX
  8
0
 62
7
 10
4.32245381E+02
 20
-3.08813926E+02
  0
VERTEX
  8
0
 62
7
 10
4.31859160E+02
 20
-3.08569436E+02
  0
VERTEX
  8
0
 62
7
 10
4.31455864E+02
 20
-3.08366657E+02
  0
VERTEX
  8
0
 62
7
 10
4.31038740E+02
 20
-3.08207221E+02
  0
VERTEX
  8
0
 62
7
 10
4.30611146E+02
 20
-3.08092412E+02
  0
VERTEX
  8
0
 62
7
 10
4.30176525E+02
 20
-3.08023155E+02
  0
VERTEX
  8
0
 62
7
 10
4.29738376E+02
 20
-3.08000008E+02
  0
SEQEND
  8
0
  0
LINE
  8
0
 62
7
 10
4.17000018E+02
 20
-3.19500000E+02
 11
4.17000018E+02
 21
-2.95936752E+02
  0
ARC
  8
0
 62
4
 10
4.55299079E+02
 20
-3.03911545E+02
 40
9.20095253E+00
 50
3.25615743E+02
 51
3.43842738E+01
  0
ARC
  8
0
 62
4
 10
4.30107768E+02
 20
-3.19500000E+02
 40
3.43922653E+01
 50
0.00000000E+00
 51
1.75879507E+01
  0
ARC
  8
0
 62
4
 10
4.59700988E+02
 20
-3.03911545E+02
 40
9.20095253E+00
 50
1.45615762E+02
 51
2.14384293E+02
  0
ARC
  8
0
 62
4
 10
4.84892299E+02
 20
-3.19500000E+02
 40
3.43922653E+01
 50
1.62412085E+02
 51
1.80000000E+02
  0
LINE
  8
0
 62
4
 10
4.50500033E+02
 20
-3.01500000E+02
 11
4.50500033E+02
 21
-3.19500000E+02
  0
LINE
  8
0
 62
4
 10
4.50500033E+02
 20
-3.01499988E+02
 11
4.52107714E+02
 21
-2.98715366E+02
  0
LINE
  8
0
 62
4
 10
4.64500042E+02
 20
-3.01500001E+02
 11
4.62892364E+02
 21
-2.98715392E+02
  0
LINE
  8
0
 62
4
 10
4.62892337E+02
 20
-2.98715393E+02
 11
4.52107730E+02
 21
-2.98715393E+02
  0
LINE
  8
0
 62
4
 10
4.62892337E+02
 20
-3.09107697E+02
 11
4.52107730E+02
 21
-3.09107697E+02
  0
LINE
  8
0
 62
4
 10
4.64500033E+02
 20
-3.01500000E+02
 11
4.64500033E+02
 21
-3.19500000E+02
  0
LINE
  8
0
 62
7
 10
4.50500033E+02
 20
-3.08499977E+02
 11
4.39000003E+02
 21
-3.08499977E+02
  0
LINE
  8
0
 62
2
 10
4.50500033E+02
 20
-3.09319992E+02
 11
4.39000003E+02
 21
-3.09319992E+02
  0
LINE
  8
0
 62
2
 10
2.58688707E+02
 20
-3.26629114E+02
 11
2.97031095E+02
 21
-2.60218149E+02
  0
LINE
  8
0
 62
7
 10
3.19000033E+02
 20
-2.65999985E+02
 11
2.93692951E+02
 21
-2.65999985E+02
  0
LINE
  8
0
 62
7
 10
3.53500033E+02
 20
-2.72999969E+02
 11
3.65000033E+02
 21
-2.72999969E+02
  0
LINE
  8
0
 62
7
 10
3.53500033E+02
 20
-2.81999985E+02
 11
3.65000033E+02
 21
-2.81999985E+02
  0
LINE
  8
0
  6
CENTER
 62
2
 10
3.53500033E+02
 20
-2.77500000E+02
 11
4.03524508E+02
 21
-2.77500000E+02
  0
LINE
  8
0
 62
2
 10
-7.78902585E+01
 20
-2.00657174E+02
 11
-6.38120169E+00
 21
-7.67998545E+01
  0
LINE
  8
0
 62
7
 10
-8.29999820E+01
 20
-1.06119611E+02
 11
-8.29999820E+01
 21
-1.95500015E+02
  0
LINE
  8
0
  6
CENTER
 62
2
 10
-9.09999820E+01
 20
-9.74999695E+01
 11
-1.21524457E+02
 21
-9.74999695E+01
  0
LINE
  8
0
 62
7
 10
5.74500000E+02
 20
4.00500000E+02
 11
5.74500000E+02
 21
-4.00500000E+02
  0
LINE
  8
0
 62
7
 10
-5.64500000E+02
 20
4.00500000E+02
 11
5.74500000E+02
 21
4.00500000E+02
  0
LINE
  8
0
 62
7
 10
-5.64500000E+02
 20
-4.00500000E+02
 11
5.74500000E+02
 21
-4.00500000E+02
  0
LINE
  8
0
 62
7
 10
-5.64500000E+02
 20
4.00500000E+02
 11
-5.64500000E+02
 21
-4.00500000E+02
  0
LINE
  8
0
 62
7
 10
-5.64500000E+02
 20
3.70500000E+02
 11
-3.34500000E+02
 21
3.70500000E+02
  0
LINE
  8
0
 62
7
 10
3.44500000E+02
 20
3.70500000E+02
 11
5.74500000E+02
 21
3.70500000E+02
  0
LINE
  8
0
 62
7
 10
3.44500000E+02
 20
-3.70500000E+02
 11
5.74500000E+02
 21
-3.70500000E+02
  0
LINE
  8
0
 62
7
 10
3.44500000E+02
 20
-3.70500000E+02
 11
3.44500000E+02
 21
-4.00500000E+02
  0
LINE
  8
0
 62
7
 10
3.44500000E+02
 20
4.00500000E+02
 11
3.44500000E+02
 21
3.70500000E+02
  0
LINE
  8
0
 62
7
 10
-3.34500000E+02
 20
4.00500000E+02
 11
-3.34500000E+02
 21
3.70500000E+02
  0
TEXT
  8
0
 62
7
 10
-5.37179687E+02
 20
3.34250000E+02
 40
1.25000000E+01
  1
MODEL:DDAL100*75
 41
1.00000015E+00
  7
MONOTXT
  0
TEXT
  8
0
 62
7
 10
4.11285149E+02
 20
3.79250000E+02
 40
1.25000000E+01
  1
Ver. 1.0
 41
1.08108125E+00
  7
MONOTXT
  0
TEXT
  8
0
 62
7
 10
3.50070624E+02
 20
-3.94500000E+02
 40
1.80000000E+01
  1
KOGANEI CORP.
 41
1.04838710E+00
  7
MONOTXT
  0
TEXT
  8
0
 62
7
 10
-5.53964859E+02
 20
3.79250000E+02
 40
1.25000000E+01
  1
NEW DYNA CYLINDER
 41
1.07594953E+00
  7
MONOTXT
  0
ENDSEC
  0
EOF
