  0
SECTION
  2
HEADER
  9
$ACADVER
  1
AC1003
  9
$EXTMIN
 10
-3.99250000E+02
 20
-2.76750000E+02
  9
$EXTMAX
 10
3.99799805E+02
 20
2.76250000E+02
  9
$LIMMIN
 10
-3.99251000E+02
 20
-2.76751000E+02
  9
$LIMMAX
 10
3.99800805E+02
 20
2.76251000E+02
  9
$SNAPUNIT
 10
1
 20
1
  9
$SNAPBASE
 10
0
 20
0
  9
$GRIDMODE
 70
0
  9
$GRIDUNIT
 10
0
 20
0
  9
$LTSCALE
 40
1.33174967E+01
  9
$TEXTSIZE
 40
3.2
  9
$DIMTAD
 70
0
  9
$LUNITS
 70
2
  9
$LUPREC
 70
4
  9
$FILLETRAD
 40
0
  9
$AUNITS
 70
0
  9
$AUPREC
 70
0
  0
ENDSEC
  0
SECTION
  2
TABLES
  0
TABLE
  2
LTYPE
 70
2
  0
LTYPE
  2
CONTINUOUS
 70
64
  3
Solid-Line
 72
65
 73
0
 40
0
  0
LTYPE
  2
DASHED
 70
64
  3
DASHED
 72
65
 73
2
 40
.75
 49
.5
 49
-.25
  0
LTYPE
  2
HIDDEN
 70
64
  3
HIDDEN
 72
65
 73
2
 40
.375
 49
.25
 49
-.125
  0
LTYPE
  2
CENTER
 70
64
  3
CENTER
 72
65
 73
4
 40
2
 49
1.25
 49
-.25
 49
.25
 49
-.25
  0
LTYPE
  2
PHANTOM
 70
64
  3
PHANTOM
 72
65
 73
6
 40
2.5
 49
1.25
 49
-.25
 49
.25
 49
-.25
 49
.25
 49
-.25
  0
ENDTAB
  0
TABLE
  2
LAYER
 70
1
  0
LAYER
  2
1
 70
0
 62
7
  6
CONTINUOUS
 0
ENDTAB
  0
TABLE
  2
STYLE
 70
2
  0
STYLE
  2
MONOTXT
 70
0
 40
0
 41
1
 50
0
 71
0
 42
.2
  3
monotxt
  0
STYLE
  2
BIGFONT
 70
0
 40
0
 41
1
 50
0
 71
0
 42
.2
  3
txt
  4
bigfont
  0
ENDTAB
  0
ENDSEC
  0
SECTION
  2
ENTITIES
  0
LINE
  8
0
  6
PHANTOM
 10
-9.25000000E+00
 20
1.28684251E+02
 11
-9.25000000E+00
 21
2.71367846E+01
  0
LINE
  8
0
  6
CENTER
 62
2
 10
7.49770203E+01
 20
4.98694647E+01
 11
-9.73534241E+01
 21
4.98694647E+01
  0
LINE
  8
0
 62
7
 10
4.17500000E+01
 20
5.25194586E+01
 11
-6.42500000E+01
 21
5.25194586E+01
  0
LINE
  8
0
 62
7
 10
4.17499847E+01
 20
4.72194708E+01
 11
-6.42499695E+01
 21
4.72194708E+01
  0
LINE
  8
0
 62
7
 10
4.17500000E+01
 20
4.63694799E+01
 11
-6.42500000E+01
 21
4.63694799E+01
  0
LINE
  8
0
  6
CENTER
 62
2
 10
-1.47487213E+02
 20
6.83694647E+01
 11
7.90549469E+01
 21
6.83694647E+01
  0
LINE
  8
0
 62
7
 10
-1.10250000E+02
 20
5.38694647E+01
 11
-1.10250000E+02
 21
8.28694647E+01
  0
LINE
  8
0
 62
7
 10
-1.09750031E+02
 20
5.33694342E+01
 11
-1.05241058E+02
 21
5.33694342E+01
  0
LINE
  8
0
 62
7
 10
7.42500000E+01
 20
5.23694647E+01
 11
7.27500000E+01
 21
5.23694647E+01
  0
LINE
  8
0
 62
7
 10
4.17500000E+01
 20
9.33694647E+01
 11
4.17500000E+01
 21
4.33694647E+01
  0
LINE
  8
0
 62
7
 10
7.27500000E+01
 20
9.25838964E+01
 11
7.27500000E+01
 21
4.41550329E+01
  0
LINE
  8
0
 62
7
 10
6.77500000E+01
 20
4.33694647E+01
 11
4.17500000E+01
 21
4.33694647E+01
  0
LINE
  8
0
 62
7
 10
7.27500316E+01
 20
4.41550219E+01
 11
4.17499997E+01
 21
4.33432575E+01
  0
LINE
  8
0
 62
7
 10
-1.05008701E+02
 20
5.31110007E+01
 11
-9.72491175E+01
 21
5.28400301E+01
  0
LINE
  8
0
 62
7
 10
6.77500000E+01
 20
4.40240667E+01
 11
6.77500000E+01
 21
4.33694647E+01
  0
LINE
  8
0
  6
CENTER
 62
2
 10
5.47500000E+01
 20
9.51218298E+01
 11
5.47500000E+01
 21
8.39412268E+01
  0
LINE
  8
0
 62
7
 10
-9.72500000E+01
 20
8.38694647E+01
 11
-9.72500000E+01
 21
5.28400457E+01
  0
LINE
  8
0
 62
7
 10
-1.05250000E+02
 20
5.33694342E+01
 11
-1.05250000E+02
 21
8.33780706E+01
  0
LINE
  8
0
 62
7
 10
-9.67500000E+01
 20
5.23694647E+01
 11
-9.52500000E+01
 21
5.23694647E+01
  0
LINE
  8
0
 62
7
 10
-6.42500000E+01
 20
9.33694647E+01
 11
-6.42500000E+01
 21
4.33432653E+01
  0
LINE
  8
0
 62
7
 10
-9.52500000E+01
 20
9.25838964E+01
 11
-9.52500000E+01
 21
4.41550329E+01
  0
LINE
  8
0
 62
7
 10
-9.02500000E+01
 20
4.33694647E+01
 11
-6.42500000E+01
 21
4.33694647E+01
  0
LINE
  8
0
 62
7
 10
-9.52500745E+01
 20
4.41550268E+01
 11
-6.42500502E+01
 21
4.33432627E+01
  0
LINE
  8
0
 62
7
 10
-9.02500000E+01
 20
4.40240667E+01
 11
-9.02500000E+01
 21
4.33694647E+01
  0
LINE
  8
0
 62
7
 10
7.47500000E+01
 20
8.38694647E+01
 11
7.47500000E+01
 21
5.28400457E+01
  0
LINE
  8
0
  6
CENTER
 62
2
 10
7.49770203E+01
 20
8.68694647E+01
 11
-9.73534241E+01
 21
8.68694647E+01
  0
LINE
  8
0
 62
7
 10
4.17500000E+01
 20
8.42194708E+01
 11
2.02500000E+01
 21
8.42194708E+01
  0
LINE
  8
0
 62
7
 10
4.17499847E+01
 20
8.95194586E+01
 11
3.52500000E+01
 21
8.95194586E+01
  0
LINE
  8
0
 62
7
 10
4.17500000E+01
 20
9.03694494E+01
 11
3.52500000E+01
 21
9.03694494E+01
  0
LINE
  8
0
 62
7
 10
-1.09750031E+02
 20
8.33694952E+01
 11
-1.05241058E+02
 21
8.33694952E+01
  0
LINE
  8
0
 62
7
 10
7.42500000E+01
 20
8.43694647E+01
 11
7.27500000E+01
 21
8.43694647E+01
  0
LINE
  8
0
 62
7
 10
6.77500000E+01
 20
9.33694647E+01
 11
4.17500000E+01
 21
9.33694647E+01
  0
LINE
  8
0
 62
7
 10
7.27500217E+01
 20
9.25838952E+01
 11
4.17499897E+01
 21
9.33956596E+01
  0
LINE
  8
0
 62
7
 10
-1.05008727E+02
 20
8.36279475E+01
 11
-9.72491442E+01
 21
8.38989181E+01
  0
LINE
  8
0
 62
7
 10
6.77500000E+01
 20
9.27148626E+01
 11
6.77500000E+01
 21
9.33694647E+01
  0
LINE
  8
0
 62
7
 10
-9.67500000E+01
 20
8.43694647E+01
 11
-9.52500000E+01
 21
8.43694647E+01
  0
LINE
  8
0
 62
7
 10
-9.02500000E+01
 20
9.33694647E+01
 11
-6.42500000E+01
 21
9.33694647E+01
  0
LINE
  8
0
 62
7
 10
-9.52500645E+01
 20
9.25838903E+01
 11
-6.42500402E+01
 21
9.33956545E+01
  0
LINE
  8
0
 62
7
 10
-9.02500000E+01
 20
9.27148626E+01
 11
-9.02500000E+01
 21
9.33694647E+01
  0
LINE
  8
0
  6
CENTER
 62
2
 10
-7.72500000E+01
 20
9.51218298E+01
 11
-7.72500000E+01
 21
8.39412268E+01
  0
LINE
  8
0
 62
2
 10
-1.43949982E+02
 20
7.36694830E+01
 11
-1.37750000E+02
 21
7.36694830E+01
  0
LINE
  8
0
 62
7
 10
-1.44249840E+02
 20
7.33693996E+01
 11
-1.43249883E+02
 21
7.43693798E+01
  0
LINE
  8
0
 62
7
 10
-1.43250061E+02
 20
6.23694647E+01
 11
-1.43250061E+02
 21
7.43694647E+01
  0
LINE
  8
0
 62
7
 10
-1.43250061E+02
 20
7.43694647E+01
 11
-1.37750000E+02
 21
7.43694647E+01
  0
LINE
  8
0
 62
7
 10
-1.23250000E+02
 20
6.23694647E+01
 11
-1.23250000E+02
 21
7.43694647E+01
  0
LINE
  8
0
 62
7
 10
-1.44250000E+02
 20
6.33694647E+01
 11
-1.44250000E+02
 21
7.33694647E+01
  0
LINE
  8
0
 62
7
 10
-1.20250000E+02
 20
6.23694647E+01
 11
-1.20250000E+02
 21
7.43694647E+01
  0
LINE
  8
0
 62
7
 10
-1.43250061E+02
 20
6.23694647E+01
 11
-1.37750000E+02
 21
6.23694647E+01
  0
LINE
  8
0
 62
7
 10
-1.17502502E+02
 20
7.53694647E+01
 11
-1.10250000E+02
 21
7.53694647E+01
  0
LINE
  8
0
 62
7
 10
-1.17502502E+02
 20
6.13694647E+01
 11
-1.10250000E+02
 21
6.13694647E+01
  0
LINE
  8
0
 62
7
 10
-1.20249996E+02
 20
7.43694586E+01
 11
-1.17502494E+02
 21
7.53694602E+01
  0
LINE
  8
0
 62
7
 10
-1.20249997E+02
 20
6.23694567E+01
 11
-1.17502495E+02
 21
6.13694551E+01
  0
LINE
  8
0
 62
7
 10
-1.44249952E+02
 20
6.33694746E+01
 11
-1.43250005E+02
 21
6.23695052E+01
  0
LINE
  8
0
 62
2
 10
-1.43949982E+02
 20
6.30694464E+01
 11
-1.37750000E+02
 21
6.30694464E+01
  0
LINE
  8
0
 62
7
 10
-1.14480225E+02
 20
6.83694647E+01
 11
-1.10250000E+02
 21
6.83694647E+01
  0
LINE
  8
0
 62
7
 10
-1.23250000E+02
 20
7.36694830E+01
 11
-1.20250000E+02
 21
7.36694830E+01
  0
LINE
  8
0
 62
7
 10
-1.23250000E+02
 20
6.30694464E+01
 11
-1.20250000E+02
 21
6.30694464E+01
  0
ARC
  8
0
 62
7
 10
-1.09750031E+02
 20
5.38694647E+01
 40
5.00000000E-01
 50
1.79999981E+02
 51
2.69999963E+02
  0
ARC
  8
0
 62
7
 10
-9.67500000E+01
 20
5.28694647E+01
 40
5.00000000E-01
 50
1.79999981E+02
 51
2.69999963E+02
  0
ARC
  8
0
 62
7
 10
-1.05000000E+02
 20
5.33608587E+01
 40
2.50000000E-01
 50
1.79999981E+02
 51
2.67999203E+02
  0
ARC
  8
0
 62
7
 10
7.42500000E+01
 20
5.28694647E+01
 40
5.00000000E-01
 50
2.70000073E+02
 51
5.46415133E-05
  0
ARC
  8
0
 62
7
 10
7.42500000E+01
 20
8.38694647E+01
 40
5.00000000E-01
 50
5.46415133E-05
 51
9.00000369E+01
  0
ARC
  8
0
 62
7
 10
-1.05000000E+02
 20
8.33780706E+01
 40
2.50000000E-01
 50
9.20007356E+01
 51
1.79999964E+02
  0
ARC
  8
0
 62
7
 10
-9.67500000E+01
 20
8.38694647E+01
 40
5.00000000E-01
 50
8.99999818E+01
 51
1.79999964E+02
  0
ARC
  8
0
 62
7
 10
-1.09750031E+02
 20
8.28694647E+01
 40
5.00000000E-01
 50
8.99999818E+01
 51
1.79999964E+02
  0
POLYLINE
  8
0
 62
7
 66
1
  0
VERTEX
  8
0
 62
7
 10
-1.14480225E+02
 20
7.53694647E+01
  0
VERTEX
  8
0
 62
7
 10
-1.14751140E+02
 20
7.53553747E+01
  0
VERTEX
  8
0
 62
7
 10
-1.15019874E+02
 20
7.53132183E+01
  0
VERTEX
  8
0
 62
7
 10
-1.15284262E+02
 20
7.52433347E+01
  0
VERTEX
  8
0
 62
7
 10
-1.15542177E+02
 20
7.51462867E+01
  0
VERTEX
  8
0
 62
7
 10
-1.15791542E+02
 20
7.50228557E+01
  0
VERTEX
  8
0
 62
7
 10
-1.16030349E+02
 20
7.48740355E+01
  0
VERTEX
  8
0
 62
7
 10
-1.16256675E+02
 20
7.47010242E+01
  0
VERTEX
  8
0
 62
7
 10
-1.16468699E+02
 20
7.45052148E+01
  0
VERTEX
  8
0
 62
7
 10
-1.16664712E+02
 20
7.42881840E+01
  0
VERTEX
  8
0
 62
7
 10
-1.16843137E+02
 20
7.40516790E+01
  0
VERTEX
  8
0
 62
7
 10
-1.17002537E+02
 20
7.37976041E+01
  0
VERTEX
  8
0
 62
7
 10
-1.17141629E+02
 20
7.35280050E+01
  0
VERTEX
  8
0
 62
7
 10
-1.17259293E+02
 20
7.32450523E+01
  0
VERTEX
  8
0
 62
7
 10
-1.17354582E+02
 20
7.29510242E+01
  0
VERTEX
  8
0
 62
7
 10
-1.17426728E+02
 20
7.26482880E+01
  0
VERTEX
  8
0
 62
7
 10
-1.17475150E+02
 20
7.23392811E+01
  0
VERTEX
  8
0
 62
7
 10
-1.17499460E+02
 20
7.20264916E+01
  0
VERTEX
  8
0
 62
7
 10
-1.17499460E+02
 20
7.17124378E+01
  0
VERTEX
  8
0
 62
7
 10
-1.17475150E+02
 20
7.13996483E+01
  0
VERTEX
  8
0
 62
7
 10
-1.17426728E+02
 20
7.10906414E+01
  0
VERTEX
  8
0
 62
7
 10
-1.17354582E+02
 20
7.07879052E+01
  0
VERTEX
  8
0
 62
7
 10
-1.17259293E+02
 20
7.04938771E+01
  0
VERTEX
  8
0
 62
7
 10
-1.17141629E+02
 20
7.02109244E+01
  0
VERTEX
  8
0
 62
7
 10
-1.17002537E+02
 20
6.99413253E+01
  0
VERTEX
  8
0
 62
7
 10
-1.16843137E+02
 20
6.96872504E+01
  0
VERTEX
  8
0
 62
7
 10
-1.16664712E+02
 20
6.94507454E+01
  0
VERTEX
  8
0
 62
7
 10
-1.16468699E+02
 20
6.92337146E+01
  0
VERTEX
  8
0
 62
7
 10
-1.16256675E+02
 20
6.90379052E+01
  0
VERTEX
  8
0
 62
7
 10
-1.16030349E+02
 20
6.88648939E+01
  0
VERTEX
  8
0
 62
7
 10
-1.15791542E+02
 20
6.87160737E+01
  0
VERTEX
  8
0
 62
7
 10
-1.15542177E+02
 20
6.85926427E+01
  0
VERTEX
  8
0
 62
7
 10
-1.15284262E+02
 20
6.84955947E+01
  0
VERTEX
  8
0
 62
7
 10
-1.15019874E+02
 20
6.84257111E+01
  0
VERTEX
  8
0
 62
7
 10
-1.14751140E+02
 20
6.83835547E+01
  0
VERTEX
  8
0
 62
7
 10
-1.14480225E+02
 20
6.83694647E+01
  0
SEQEND
  8
0
  0
POLYLINE
  8
0
 62
7
 66
1
  0
VERTEX
  8
0
 62
7
 10
-1.14480225E+02
 20
6.83694647E+01
  0
VERTEX
  8
0
 62
7
 10
-1.14751140E+02
 20
6.83553747E+01
  0
VERTEX
  8
0
 62
7
 10
-1.15019874E+02
 20
6.83132183E+01
  0
VERTEX
  8
0
 62
7
 10
-1.15284262E+02
 20
6.82433347E+01
  0
VERTEX
  8
0
 62
7
 10
-1.15542177E+02
 20
6.81462867E+01
  0
VERTEX
  8
0
 62
7
 10
-1.15791542E+02
 20
6.80228557E+01
  0
VERTEX
  8
0
 62
7
 10
-1.16030349E+02
 20
6.78740355E+01
  0
VERTEX
  8
0
 62
7
 10
-1.16256675E+02
 20
6.77010242E+01
  0
VERTEX
  8
0
 62
7
 10
-1.16468699E+02
 20
6.75052148E+01
  0
VERTEX
  8
0
 62
7
 10
-1.16664712E+02
 20
6.72881840E+01
  0
VERTEX
  8
0
 62
7
 10
-1.16843137E+02
 20
6.70516790E+01
  0
VERTEX
  8
0
 62
7
 10
-1.17002537E+02
 20
6.67976041E+01
  0
VERTEX
  8
0
 62
7
 10
-1.17141629E+02
 20
6.65280050E+01
  0
VERTEX
  8
0
 62
7
 10
-1.17259293E+02
 20
6.62450523E+01
  0
VERTEX
  8
0
 62
7
 10
-1.17354582E+02
 20
6.59510242E+01
  0
VERTEX
  8
0
 62
7
 10
-1.17426728E+02
 20
6.56482880E+01
  0
VERTEX
  8
0
 62
7
 10
-1.17475150E+02
 20
6.53392811E+01
  0
VERTEX
  8
0
 62
7
 10
-1.17499460E+02
 20
6.50264916E+01
  0
VERTEX
  8
0
 62
7
 10
-1.17499460E+02
 20
6.47124378E+01
  0
VERTEX
  8
0
 62
7
 10
-1.17475150E+02
 20
6.43996483E+01
  0
VERTEX
  8
0
 62
7
 10
-1.17426728E+02
 20
6.40906414E+01
  0
VERTEX
  8
0
 62
7
 10
-1.17354582E+02
 20
6.37879052E+01
  0
VERTEX
  8
0
 62
7
 10
-1.17259293E+02
 20
6.34938771E+01
  0
VERTEX
  8
0
 62
7
 10
-1.17141629E+02
 20
6.32109244E+01
  0
VERTEX
  8
0
 62
7
 10
-1.17002537E+02
 20
6.29413253E+01
  0
VERTEX
  8
0
 62
7
 10
-1.16843137E+02
 20
6.26872504E+01
  0
VERTEX
  8
0
 62
7
 10
-1.16664712E+02
 20
6.24507454E+01
  0
VERTEX
  8
0
 62
7
 10
-1.16468699E+02
 20
6.22337146E+01
  0
VERTEX
  8
0
 62
7
 10
-1.16256675E+02
 20
6.20379052E+01
  0
VERTEX
  8
0
 62
7
 10
-1.16030349E+02
 20
6.18648939E+01
  0
VERTEX
  8
0
 62
7
 10
-1.15791542E+02
 20
6.17160737E+01
  0
VERTEX
  8
0
 62
7
 10
-1.15542177E+02
 20
6.15926427E+01
  0
VERTEX
  8
0
 62
7
 10
-1.15284262E+02
 20
6.14955947E+01
  0
VERTEX
  8
0
 62
7
 10
-1.15019874E+02
 20
6.14257111E+01
  0
VERTEX
  8
0
 62
7
 10
-1.14751140E+02
 20
6.13835547E+01
  0
VERTEX
  8
0
 62
7
 10
-1.14480225E+02
 20
6.13694647E+01
  0
SEQEND
  8
0
  0
LINE
  8
0
 62
7
 10
-1.29750000E+02
 20
6.23694647E+01
 11
-1.23250000E+02
 21
6.23694647E+01
  0
LINE
  8
0
 62
2
 10
-1.29750000E+02
 20
6.30694464E+01
 11
-1.23250000E+02
 21
6.30694464E+01
  0
LINE
  8
0
 62
2
 10
-1.29750000E+02
 20
7.36694830E+01
 11
-1.23250000E+02
 21
7.36694830E+01
  0
LINE
  8
0
 62
7
 10
-1.29750000E+02
 20
7.43694647E+01
 11
-1.23250000E+02
 21
7.43694647E+01
  0
LINE
  8
0
 62
4
 10
-1.36767520E+02
 20
8.10711706E+01
 11
-1.30732480E+02
 21
8.10711706E+01
  0
LINE
  8
0
 62
4
 10
-1.36767520E+02
 20
7.47203176E+01
 11
-1.30732480E+02
 21
7.47203176E+01
  0
LINE
  8
0
 62
4
 10
-1.36767520E+02
 20
6.20186117E+01
 11
-1.30732480E+02
 21
6.20186117E+01
  0
LINE
  8
0
 62
4
 10
-1.37750000E+02
 20
5.73694647E+01
 11
-1.37750000E+02
 21
7.93694647E+01
  0
LINE
  8
0
 62
4
 10
-1.29750000E+02
 20
5.73694647E+01
 11
-1.29750000E+02
 21
7.93694647E+01
  0
LINE
  8
0
 62
4
 10
-1.37750000E+02
 20
7.93694646E+01
 11
-1.36767520E+02
 21
8.10711705E+01
  0
LINE
  8
0
 62
4
 10
-1.29750000E+02
 20
7.93694647E+01
 11
-1.30732480E+02
 21
8.10711707E+01
  0
LINE
  8
0
 62
4
 10
-1.37750000E+02
 20
5.73694647E+01
 11
-1.36767520E+02
 21
5.56677588E+01
  0
LINE
  8
0
 62
4
 10
-1.29750000E+02
 20
5.73694647E+01
 11
-1.30732480E+02
 21
5.56677586E+01
  0
LINE
  8
0
 62
4
 10
-1.36767520E+02
 20
5.56677587E+01
 11
-1.30732480E+02
 21
5.56677587E+01
  0
ARC
  8
0
 62
4
 10
-1.32127190E+02
 20
7.78957441E+01
 40
5.62281003E+00
 50
1.45615752E+02
 51
2.14384247E+02
  0
ARC
  8
0
 62
4
 10
-1.16732480E+02
 20
6.83694646E+01
 40
2.10175199E+01
 50
1.62412046E+02
 51
1.97587953E+02
  0
ARC
  8
0
 62
4
 10
-1.32127190E+02
 20
5.88431852E+01
 40
5.62281017E+00
 50
1.45615753E+02
 51
2.14384247E+02
  0
ARC
  8
0
 62
4
 10
-1.35372810E+02
 20
7.78957441E+01
 40
5.62281003E+00
 50
3.25615753E+02
 51
3.43842476E+01
  0
ARC
  8
0
 62
4
 10
-1.50767520E+02
 20
6.83694646E+01
 40
2.10175199E+01
 50
3.42412047E+02
 51
1.75879537E+01
  0
ARC
  8
0
 62
4
 10
-1.35372810E+02
 20
5.88431852E+01
 40
5.62281017E+00
 50
3.25615753E+02
 51
3.43842467E+01
  0
LINE
  8
0
  6
CENTER
 62
6
 10
-5.87500000E+01
 20
9.38593157E+01
 11
-1.17500000E+01
 21
9.38593157E+01
  0
LINE
  8
0
 62
4
 10
-2.37500000E+01
 20
9.53593157E+01
 11
-2.37500000E+01
 21
1.06875902E+02
  0
LINE
  8
0
 62
6
 10
-1.54820508E+01
 20
9.08593156E+01
 11
-1.20179492E+01
 21
9.68593156E+01
  0
LINE
  8
0
 62
4
 10
-3.02500000E+01
 20
9.23593157E+01
 11
-1.46160254E+01
 21
9.23593157E+01
  0
LINE
  8
0
 62
4
 10
-3.02500000E+01
 20
9.53593157E+01
 11
-1.28839746E+01
 21
9.53593157E+01
  0
LINE
  8
0
 62
4
 10
-3.02500000E+01
 20
9.23593157E+01
 11
-2.37500000E+01
 21
9.23593157E+01
  0
LINE
  8
0
 62
4
 10
-3.02500000E+01
 20
9.53593157E+01
 11
-2.37500000E+01
 21
9.53593157E+01
  0
LINE
  8
0
 62
4
 10
-3.58127552E+01
 20
9.61762276E+01
 11
-3.02500000E+01
 21
9.61762276E+01
  0
LINE
  8
0
 62
4
 10
-3.54128770E+01
 20
9.66339018E+01
 11
-2.37500000E+01
 21
9.66339018E+01
  0
LINE
  8
0
  6
CENTER
 62
6
 10
-2.87500000E+01
 20
1.02444268E+02
 11
-3.37500000E+01
 21
1.02444268E+02
  0
LINE
  8
0
  6
CENTER
 62
6
 10
-3.12500000E+01
 20
1.04944268E+02
 11
-3.12500000E+01
 21
9.99442675E+01
  0
LINE
  8
0
  6
CENTER
 62
6
 10
-3.62500000E+01
 20
9.89974404E+01
 11
-4.12500000E+01
 21
9.89974404E+01
  0
LINE
  8
0
  6
CENTER
 62
6
 10
-3.87500000E+01
 20
1.01497440E+02
 11
-3.87500000E+01
 21
9.64974404E+01
  0
LINE
  8
0
  6
CENTER
 62
6
 10
-4.37500000E+01
 20
1.02444268E+02
 11
-4.87500000E+01
 21
1.02444268E+02
  0
LINE
  8
0
  6
CENTER
 62
6
 10
-4.62500000E+01
 20
1.04944268E+02
 11
-4.62500000E+01
 21
9.99442675E+01
  0
POLYLINE
  8
0
 62
4
 66
1
  0
VERTEX
  8
0
 62
4
 10
-4.29000000E+01
 20
9.90634267E+01
  0
VERTEX
  8
0
 62
4
 10
-4.28832933E+01
 20
9.86970751E+01
  0
VERTEX
  8
0
 62
4
 10
-4.28333078E+01
 20
9.83336732E+01
  0
VERTEX
  8
0
 62
4
 10
-4.27504459E+01
 20
9.79761468E+01
  0
VERTEX
  8
0
 62
4
 10
-4.26353747E+01
 20
9.76273746E+01
  0
VERTEX
  8
0
 62
4
 10
-4.24890208E+01
 20
9.72901646E+01
  0
VERTEX
  8
0
 62
4
 10
-4.23125625E+01
 20
9.69672319E+01
  0
VERTEX
  8
0
 62
4
 10
-4.21074205E+01
 20
9.66611765E+01
  0
VERTEX
  8
0
 62
4
 10
-4.18752466E+01
 20
9.63744626E+01
  0
VERTEX
  8
0
 62
4
 10
-4.16179100E+01
 20
9.61093987E+01
  0
VERTEX
  8
0
 62
4
 10
-4.13374827E+01
 20
9.58681188E+01
  0
VERTEX
  8
0
 62
4
 10
-4.10362225E+01
 20
9.56525657E+01
  0
VERTEX
  8
0
 62
4
 10
-4.07165550E+01
 20
9.54644749E+01
  0
VERTEX
  8
0
 62
4
 10
-4.03810539E+01
 20
9.53053607E+01
  0
VERTEX
  8
0
 62
4
 10
-4.00324205E+01
 20
9.51765042E+01
  0
VERTEX
  8
0
 62
4
 10
-3.96734619E+01
 20
9.50789429E+01
  0
VERTEX
  8
0
 62
4
 10
-3.93070681E+01
 20
9.50134624E+01
  0
VERTEX
  8
0
 62
4
 10
-3.89361891E+01
 20
9.49805898E+01
  0
VERTEX
  8
0
 62
4
 10
-3.85638110E+01
 20
9.49805898E+01
  0
VERTEX
  8
0
 62
4
 10
-3.81929320E+01
 20
9.50134624E+01
  0
VERTEX
  8
0
 62
4
 10
-3.78265381E+01
 20
9.50789429E+01
  0
VERTEX
  8
0
 62
4
 10
-3.74675795E+01
 20
9.51765042E+01
  0
VERTEX
  8
0
 62
4
 10
-3.71189461E+01
 20
9.53053607E+01
  0
VERTEX
  8
0
 62
4
 10
-3.67834451E+01
 20
9.54644749E+01
  0
VERTEX
  8
0
 62
4
 10
-3.64637775E+01
 20
9.56525657E+01
  0
VERTEX
  8
0
 62
4
 10
-3.61625173E+01
 20
9.58681188E+01
  0
VERTEX
  8
0
 62
4
 10
-3.58820900E+01
 20
9.61093986E+01
  0
VERTEX
  8
0
 62
4
 10
-3.56247534E+01
 20
9.63744626E+01
  0
VERTEX
  8
0
 62
4
 10
-3.53925795E+01
 20
9.66611765E+01
  0
VERTEX
  8
0
 62
4
 10
-3.51874375E+01
 20
9.69672319E+01
  0
VERTEX
  8
0
 62
4
 10
-3.50109792E+01
 20
9.72901646E+01
  0
VERTEX
  8
0
 62
4
 10
-3.48646253E+01
 20
9.76273746E+01
  0
VERTEX
  8
0
 62
4
 10
-3.47495541E+01
 20
9.79761468E+01
  0
VERTEX
  8
0
 62
4
 10
-3.46666922E+01
 20
9.83336732E+01
  0
VERTEX
  8
0
 62
4
 10
-3.46167067E+01
 20
9.86970751E+01
  0
VERTEX
  8
0
 62
4
 10
-3.46000000E+01
 20
9.90634267E+01
  0
SEQEND
  8
0
  0
POLYLINE
  8
0
 62
4
 66
1
  0
VERTEX
  8
0
 62
4
 10
-3.46000000E+01
 20
9.93690475E+01
  0
VERTEX
  8
0
 62
4
 10
-3.46157920E+01
 20
9.97252489E+01
  0
VERTEX
  8
0
 62
4
 10
-3.46630478E+01
 20
1.00078739E+02
  0
VERTEX
  8
0
 62
4
 10
-3.47414078E+01
 20
1.00426829E+02
  0
VERTEX
  8
0
 62
4
 10
-3.48502756E+01
 20
1.00766867E+02
  0
VERTEX
  8
0
 62
4
 10
-3.49888227E+01
 20
1.01096268E+02
  0
VERTEX
  8
0
 62
4
 10
-3.51559946E+01
 20
1.01412524E+02
  0
VERTEX
  8
0
 62
4
 10
-3.53505190E+01
 20
1.01713227E+02
  0
VERTEX
  8
0
 62
4
 10
-3.55709156E+01
 20
1.01996090E+02
  0
VERTEX
  8
0
 62
4
 10
-3.58155069E+01
 20
1.02258959E+02
  0
VERTEX
  8
0
 62
4
 10
-3.60824314E+01
 20
1.02499835E+02
  0
VERTEX
  8
0
 62
4
 10
-3.63696578E+01
 20
1.02716883E+02
  0
VERTEX
  8
0
 62
4
 10
-3.66750000E+01
 20
1.02908452E+02
  0
VERTEX
  8
0
 62
4
 10
-3.69961342E+01
 20
1.03073084E+02
  0
VERTEX
  8
0
 62
4
 10
-3.73306164E+01
 20
1.03209526E+02
  0
VERTEX
  8
0
 62
4
 10
-3.76759010E+01
 20
1.03316740E+02
  0
VERTEX
  8
0
 62
4
 10
-3.80293601E+01
 20
1.03393910E+02
  0
VERTEX
  8
0
 62
4
 10
-3.83883037E+01
 20
1.03440448E+02
  0
VERTEX
  8
0
 62
4
 10
-3.87500000E+01
 20
1.03456000E+02
  0
VERTEX
  8
0
 62
4
 10
-3.91116963E+01
 20
1.03440448E+02
  0
VERTEX
  8
0
 62
4
 10
-3.94706399E+01
 20
1.03393910E+02
  0
VERTEX
  8
0
 62
4
 10
-3.98240990E+01
 20
1.03316740E+02
  0
VERTEX
  8
0
 62
4
 10
-4.01693836E+01
 20
1.03209526E+02
  0
VERTEX
  8
0
 62
4
 10
-4.05038658E+01
 20
1.03073084E+02
  0
VERTEX
  8
0
 62
4
 10
-4.08250000E+01
 20
1.02908452E+02
  0
VERTEX
  8
0
 62
4
 10
-4.11303422E+01
 20
1.02716883E+02
  0
VERTEX
  8
0
 62
4
 10
-4.14175686E+01
 20
1.02499835E+02
  0
VERTEX
  8
0
 62
4
 10
-4.16844931E+01
 20
1.02258959E+02
  0
VERTEX
  8
0
 62
4
 10
-4.19290844E+01
 20
1.01996090E+02
  0
VERTEX
  8
0
 62
4
 10
-4.21494810E+01
 20
1.01713227E+02
  0
VERTEX
  8
0
 62
4
 10
-4.23440054E+01
 20
1.01412524E+02
  0
VERTEX
  8
0
 62
4
 10
-4.25111773E+01
 20
1.01096268E+02
  0
VERTEX
  8
0
 62
4
 10
-4.26497244E+01
 20
1.00766867E+02
  0
VERTEX
  8
0
 62
4
 10
-4.27585922E+01
 20
1.00426829E+02
  0
VERTEX
  8
0
 62
4
 10
-4.28369522E+01
 20
1.00078739E+02
  0
VERTEX
  8
0
 62
4
 10
-4.28842080E+01
 20
9.97252488E+01
  0
VERTEX
  8
0
 62
4
 10
-4.29000000E+01
 20
9.93690475E+01
  0
VERTEX
  8
0
 62
4
 10
-4.28842080E+01
 20
9.90128461E+01
  0
VERTEX
  8
0
 62
4
 10
-4.28369522E+01
 20
9.86593557E+01
  0
VERTEX
  8
0
 62
4
 10
-4.27585922E+01
 20
9.83112664E+01
  0
VERTEX
  8
0
 62
4
 10
-4.26497244E+01
 20
9.79712275E+01
  0
VERTEX
  8
0
 62
4
 10
-4.25111773E+01
 20
9.76418269E+01
  0
VERTEX
  8
0
 62
4
 10
-4.23440054E+01
 20
9.73255714E+01
  0
VERTEX
  8
0
 62
4
 10
-4.21494810E+01
 20
9.70248680E+01
  0
VERTEX
  8
0
 62
4
 10
-4.19290844E+01
 20
9.67420053E+01
  0
VERTEX
  8
0
 62
4
 10
-4.16844931E+01
 20
9.64791359E+01
  0
VERTEX
  8
0
 62
4
 10
-4.14175686E+01
 20
9.62382605E+01
  0
VERTEX
  8
0
 62
4
 10
-4.11303422E+01
 20
9.60212123E+01
  0
VERTEX
  8
0
 62
4
 10
-4.08250000E+01
 20
9.58296431E+01
  0
VERTEX
  8
0
 62
4
 10
-4.05038658E+01
 20
9.56650109E+01
  0
VERTEX
  8
0
 62
4
 10
-4.01693836E+01
 20
9.55285687E+01
  0
VERTEX
  8
0
 62
4
 10
-3.98240990E+01
 20
9.54213548E+01
  0
VERTEX
  8
0
 62
4
 10
-3.94706399E+01
 20
9.53441853E+01
  0
VERTEX
  8
0
 62
4
 10
-3.91116963E+01
 20
9.52976474E+01
  0
VERTEX
  8
0
 62
4
 10
-3.87500000E+01
 20
9.52820953E+01
  0
VERTEX
  8
0
 62
4
 10
-3.83883037E+01
 20
9.52976474E+01
  0
VERTEX
  8
0
 62
4
 10
-3.80293601E+01
 20
9.53441853E+01
  0
VERTEX
  8
0
 62
4
 10
-3.76759010E+01
 20
9.54213548E+01
  0
VERTEX
  8
0
 62
4
 10
-3.73306164E+01
 20
9.55285687E+01
  0
VERTEX
  8
0
 62
4
 10
-3.69961342E+01
 20
9.56650109E+01
  0
VERTEX
  8
0
 62
4
 10
-3.66750000E+01
 20
9.58296431E+01
  0
VERTEX
  8
0
 62
4
 10
-3.63696578E+01
 20
9.60212123E+01
  0
VERTEX
  8
0
 62
4
 10
-3.60824314E+01
 20
9.62382605E+01
  0
VERTEX
  8
0
 62
4
 10
-3.58155069E+01
 20
9.64791359E+01
  0
VERTEX
  8
0
 62
4
 10
-3.55709156E+01
 20
9.67420053E+01
  0
VERTEX
  8
0
 62
4
 10
-3.53505190E+01
 20
9.70248680E+01
  0
VERTEX
  8
0
 62
4
 10
-3.51559946E+01
 20
9.73255714E+01
  0
VERTEX
  8
0
 62
4
 10
-3.49888227E+01
 20
9.76418269E+01
  0
VERTEX
  8
0
 62
4
 10
-3.48502756E+01
 20
9.79712275E+01
  0
VERTEX
  8
0
 62
4
 10
-3.47414078E+01
 20
9.83112665E+01
  0
VERTEX
  8
0
 62
4
 10
-3.46630478E+01
 20
9.86593557E+01
  0
VERTEX
  8
0
 62
4
 10
-3.46157920E+01
 20
9.90128462E+01
  0
VERTEX
  8
0
 62
4
 10
-3.46000000E+01
 20
9.93690475E+01
  0
SEQEND
  8
0
  0
LINE
  8
0
 62
4
 10
-4.29000000E+01
 20
9.90634267E+01
 11
-4.29000000E+01
 21
9.93690475E+01
  0
LINE
  8
0
 62
4
 10
-3.46000000E+01
 20
9.90634267E+01
 11
-3.46000000E+01
 21
9.93690475E+01
  0
ARC
  8
0
 62
4
 10
9.36228232E+01
 20
-3.49304455E+01
 40
1.88658103E+02
 50
1.33811210E+02
 51
1.35318357E+02
  0
ARC
  8
0
 62
4
 10
-1.71122535E+02
 20
-3.49301524E+01
 40
1.88657692E+02
 50
4.46816411E+01
 51
4.61887918E+01
  0
LINE
  8
0
 62
4
 10
-3.50500000E+01
 20
1.02444268E+02
 11
-3.50500000E+01
 21
1.02617916E+02
  0
POLYLINE
  8
0
 62
4
 66
1
  0
VERTEX
  8
0
 62
4
 10
-3.50500000E+01
 20
1.02444268E+02
  0
VERTEX
  8
0
 62
4
 10
-3.50347023E+01
 20
1.02108814E+02
  0
VERTEX
  8
0
 62
4
 10
-3.49889325E+01
 20
1.01776060E+02
  0
VERTEX
  8
0
 62
4
 10
-3.49130589E+01
 20
1.01448686E+02
  0
VERTEX
  8
0
 62
4
 10
-3.48076925E+01
 20
1.01129329E+02
  0
VERTEX
  8
0
 62
4
 10
-3.46736817E+01
 20
1.00820558E+02
  0
VERTEX
  8
0
 62
4
 10
-3.45121054E+01
 20
1.00524861E+02
  0
VERTEX
  8
0
 62
4
 10
-3.43242646E+01
 20
1.00244617E+02
  0
VERTEX
  8
0
 62
4
 10
-3.41116716E+01
 20
9.99820840E+01
  0
VERTEX
  8
0
 62
4
 10
-3.38760381E+01
 20
9.97393749E+01
  0
VERTEX
  8
0
 62
4
 10
-3.36192613E+01
 20
9.95184439E+01
  0
VERTEX
  8
0
 62
4
 10
-3.33434086E+01
 20
9.93210700E+01
  0
VERTEX
  8
0
 62
4
 10
-3.30507009E+01
 20
9.91488422E+01
  0
VERTEX
  8
0
 62
4
 10
-3.27434951E+01
 20
9.90031473E+01
  0
VERTEX
  8
0
 62
4
 10
-3.24242646E+01
 20
9.88851583E+01
  0
VERTEX
  8
0
 62
4
 10
-3.20955796E+01
 20
9.87958251E+01
  0
VERTEX
  8
0
 62
4
 10
-3.17600864E+01
 20
9.87358670E+01
  0
VERTEX
  8
0
 62
4
 10
-3.14204864E+01
 20
9.87057668E+01
  0
VERTEX
  8
0
 62
4
 10
-3.10795137E+01
 20
9.87057668E+01
  0
VERTEX
  8
0
 62
4
 10
-3.07399136E+01
 20
9.87358670E+01
  0
VERTEX
  8
0
 62
4
 10
-3.04044205E+01
 20
9.87958250E+01
  0
VERTEX
  8
0
 62
4
 10
-3.00757354E+01
 20
9.88851582E+01
  0
VERTEX
  8
0
 62
4
 10
-2.97565049E+01
 20
9.90031473E+01
  0
VERTEX
  8
0
 62
4
 10
-2.94492991E+01
 20
9.91488422E+01
  0
VERTEX
  8
0
 62
4
 10
-2.91565915E+01
 20
9.93210700E+01
  0
VERTEX
  8
0
 62
4
 10
-2.88807388E+01
 20
9.95184439E+01
  0
VERTEX
  8
0
 62
4
 10
-2.86239619E+01
 20
9.97393748E+01
  0
VERTEX
  8
0
 62
4
 10
-2.83883284E+01
 20
9.99820840E+01
  0
VERTEX
  8
0
 62
4
 10
-2.81757354E+01
 20
1.00244617E+02
  0
VERTEX
  8
0
 62
4
 10
-2.79878946E+01
 20
1.00524861E+02
  0
VERTEX
  8
0
 62
4
 10
-2.78263183E+01
 20
1.00820558E+02
  0
VERTEX
  8
0
 62
4
 10
-2.76923075E+01
 20
1.01129329E+02
  0
VERTEX
  8
0
 62
4
 10
-2.75869411E+01
 20
1.01448686E+02
  0
VERTEX
  8
0
 62
4
 10
-2.75110675E+01
 20
1.01776060E+02
  0
VERTEX
  8
0
 62
4
 10
-2.74652977E+01
 20
1.02108814E+02
  0
VERTEX
  8
0
 62
4
 10
-2.74500000E+01
 20
1.02444268E+02
  0
SEQEND
  8
0
  0
POLYLINE
  8
0
 62
4
 66
1
  0
VERTEX
  8
0
 62
4
 10
-3.50500000E+01
 20
1.02617916E+02
  0
VERTEX
  8
0
 62
4
 10
-3.50355399E+01
 20
1.02291756E+02
  0
VERTEX
  8
0
 62
4
 10
-3.49922695E+01
 20
1.01968078E+02
  0
VERTEX
  8
0
 62
4
 10
-3.49205182E+01
 20
1.01649345E+02
  0
VERTEX
  8
0
 62
4
 10
-3.48208320E+01
 20
1.01337984E+02
  0
VERTEX
  8
0
 62
4
 10
-3.46939696E+01
 20
1.01036365E+02
  0
VERTEX
  8
0
 62
4
 10
-3.45408966E+01
 20
1.00746781E+02
  0
VERTEX
  8
0
 62
4
 10
-3.43627778E+01
 20
1.00471438E+02
  0
VERTEX
  8
0
 62
4
 10
-3.41609689E+01
 20
1.00212432E+02
  0
VERTEX
  8
0
 62
4
 10
-3.39370058E+01
 20
9.99717319E+01
  0
VERTEX
  8
0
 62
4
 10
-3.36925929E+01
 20
9.97511713E+01
  0
VERTEX
  8
0
 62
4
 10
-3.34295905E+01
 20
9.95524283E+01
  0
VERTEX
  8
0
 62
4
 10
-3.31500000E+01
 20
9.93770156E+01
  0
VERTEX
  8
0
 62
4
 10
-3.28559494E+01
 20
9.92262681E+01
  0
VERTEX
  8
0
 62
4
 10
-3.25496766E+01
 20
9.91013330E+01
  0
VERTEX
  8
0
 62
4
 10
-3.22335124E+01
 20
9.90031613E+01
  0
VERTEX
  8
0
 62
4
 10
-3.19098631E+01
 20
9.89325000E+01
  0
VERTEX
  8
0
 62
4
 10
-3.15811918E+01
 20
9.88898870E+01
  0
VERTEX
  8
0
 62
4
 10
-3.12500000E+01
 20
9.88756465E+01
  0
VERTEX
  8
0
 62
4
 10
-3.09188082E+01
 20
9.88898870E+01
  0
VERTEX
  8
0
 62
4
 10
-3.05901369E+01
 20
9.89325000E+01
  0
VERTEX
  8
0
 62
4
 10
-3.02664876E+01
 20
9.90031613E+01
  0
VERTEX
  8
0
 62
4
 10
-2.99503235E+01
 20
9.91013330E+01
  0
VERTEX
  8
0
 62
4
 10
-2.96440506E+01
 20
9.92262680E+01
  0
VERTEX
  8
0
 62
4
 10
-2.93500000E+01
 20
9.93770156E+01
  0
VERTEX
  8
0
 62
4
 10
-2.90704095E+01
 20
9.95524283E+01
  0
VERTEX
  8
0
 62
4
 10
-2.88074071E+01
 20
9.97511713E+01
  0
VERTEX
  8
0
 62
4
 10
-2.85629942E+01
 20
9.99717319E+01
  0
VERTEX
  8
0
 62
4
 10
-2.83390311E+01
 20
1.00212432E+02
  0
VERTEX
  8
0
 62
4
 10
-2.81372222E+01
 20
1.00471438E+02
  0
VERTEX
  8
0
 62
4
 10
-2.79591034E+01
 20
1.00746781E+02
  0
VERTEX
  8
0
 62
4
 10
-2.78060304E+01
 20
1.01036365E+02
  0
VERTEX
  8
0
 62
4
 10
-2.76791680E+01
 20
1.01337984E+02
  0
VERTEX
  8
0
 62
4
 10
-2.75794818E+01
 20
1.01649345E+02
  0
VERTEX
  8
0
 62
4
 10
-2.75077305E+01
 20
1.01968078E+02
  0
VERTEX
  8
0
 62
4
 10
-2.74644601E+01
 20
1.02291756E+02
  0
VERTEX
  8
0
 62
4
 10
-2.74500000E+01
 20
1.02617916E+02
  0
VERTEX
  8
0
 62
4
 10
-2.74644601E+01
 20
1.02944076E+02
  0
VERTEX
  8
0
 62
4
 10
-2.75077305E+01
 20
1.03267754E+02
  0
VERTEX
  8
0
 62
4
 10
-2.75794818E+01
 20
1.03586487E+02
  0
VERTEX
  8
0
 62
4
 10
-2.76791680E+01
 20
1.03897848E+02
  0
VERTEX
  8
0
 62
4
 10
-2.78060304E+01
 20
1.04199467E+02
  0
VERTEX
  8
0
 62
4
 10
-2.79591034E+01
 20
1.04489051E+02
  0
VERTEX
  8
0
 62
4
 10
-2.81372222E+01
 20
1.04764394E+02
  0
VERTEX
  8
0
 62
4
 10
-2.83390311E+01
 20
1.05023400E+02
  0
VERTEX
  8
0
 62
4
 10
-2.85629942E+01
 20
1.05264100E+02
  0
VERTEX
  8
0
 62
4
 10
-2.88074071E+01
 20
1.05484661E+02
  0
VERTEX
  8
0
 62
4
 10
-2.90704095E+01
 20
1.05683404E+02
  0
VERTEX
  8
0
 62
4
 10
-2.93500000E+01
 20
1.05858816E+02
  0
VERTEX
  8
0
 62
4
 10
-2.96440506E+01
 20
1.06009564E+02
  0
VERTEX
  8
0
 62
4
 10
-2.99503234E+01
 20
1.06134499E+02
  0
VERTEX
  8
0
 62
4
 10
-3.02664876E+01
 20
1.06232671E+02
  0
VERTEX
  8
0
 62
4
 10
-3.05901369E+01
 20
1.06303332E+02
  0
VERTEX
  8
0
 62
4
 10
-3.09188082E+01
 20
1.06345945E+02
  0
VERTEX
  8
0
 62
4
 10
-3.12500000E+01
 20
1.06360185E+02
  0
VERTEX
  8
0
 62
4
 10
-3.15811918E+01
 20
1.06345945E+02
  0
VERTEX
  8
0
 62
4
 10
-3.19098631E+01
 20
1.06303332E+02
  0
VERTEX
  8
0
 62
4
 10
-3.22335124E+01
 20
1.06232671E+02
  0
VERTEX
  8
0
 62
4
 10
-3.25496766E+01
 20
1.06134499E+02
  0
VERTEX
  8
0
 62
4
 10
-3.28559494E+01
 20
1.06009564E+02
  0
VERTEX
  8
0
 62
4
 10
-3.31500000E+01
 20
1.05858816E+02
  0
VERTEX
  8
0
 62
4
 10
-3.34295905E+01
 20
1.05683404E+02
  0
VERTEX
  8
0
 62
4
 10
-3.36925929E+01
 20
1.05484661E+02
  0
VERTEX
  8
0
 62
4
 10
-3.39370058E+01
 20
1.05264100E+02
  0
VERTEX
  8
0
 62
4
 10
-3.41609689E+01
 20
1.05023400E+02
  0
VERTEX
  8
0
 62
4
 10
-3.43627778E+01
 20
1.04764394E+02
  0
VERTEX
  8
0
 62
4
 10
-3.45408966E+01
 20
1.04489051E+02
  0
VERTEX
  8
0
 62
4
 10
-3.46939696E+01
 20
1.04199467E+02
  0
VERTEX
  8
0
 62
4
 10
-3.48208320E+01
 20
1.03897848E+02
  0
VERTEX
  8
0
 62
4
 10
-3.49205182E+01
 20
1.03586487E+02
  0
VERTEX
  8
0
 62
4
 10
-3.49922695E+01
 20
1.03267754E+02
  0
VERTEX
  8
0
 62
4
 10
-3.50355399E+01
 20
1.02944076E+02
  0
VERTEX
  8
0
 62
4
 10
-3.50500000E+01
 20
1.02617916E+02
  0
SEQEND
  8
0
  0
LINE
  8
0
 62
4
 10
-2.74500000E+01
 20
1.02444268E+02
 11
-2.74500000E+01
 21
1.02617916E+02
  0
LINE
  8
0
 62
4
 10
-3.46500000E+01
 20
1.02617916E+02
 11
-3.46500000E+01
 21
1.02814278E+02
  0
POLYLINE
  8
0
 62
4
 66
1
  0
VERTEX
  8
0
 62
4
 10
-3.46500000E+01
 20
1.02617916E+02
  0
VERTEX
  8
0
 62
4
 10
-3.46363126E+01
 20
1.02317773E+02
  0
VERTEX
  8
0
 62
4
 10
-3.45953606E+01
 20
1.02020046E+02
  0
VERTEX
  8
0
 62
4
 10
-3.45274738E+01
 20
1.01727133E+02
  0
VERTEX
  8
0
 62
4
 10
-3.44331986E+01
 20
1.01441391E+02
  0
VERTEX
  8
0
 62
4
 10
-3.43132942E+01
 20
1.01165123E+02
  0
VERTEX
  8
0
 62
4
 10
-3.41687259E+01
 20
1.00900552E+02
  0
VERTEX
  8
0
 62
4
 10
-3.40006578E+01
 20
1.00649807E+02
  0
VERTEX
  8
0
 62
4
 10
-3.38104430E+01
 20
1.00414909E+02
  0
VERTEX
  8
0
 62
4
 10
-3.35996130E+01
 20
1.00197748E+02
  0
VERTEX
  8
0
 62
4
 10
-3.33698654E+01
 20
1.00000073E+02
  0
VERTEX
  8
0
 62
4
 10
-3.31230498E+01
 20
9.98234757E+01
  0
VERTEX
  8
0
 62
4
 10
-3.28611535E+01
 20
9.96693772E+01
  0
VERTEX
  8
0
 62
4
 10
-3.25862851E+01
 20
9.95390185E+01
  0
VERTEX
  8
0
 62
4
 10
-3.23006578E+01
 20
9.94334494E+01
  0
VERTEX
  8
0
 62
4
 10
-3.20065712E+01
 20
9.93535197E+01
  0
VERTEX
  8
0
 62
4
 10
-3.17063931E+01
 20
9.92998730E+01
  0
VERTEX
  8
0
 62
4
 10
-3.14025404E+01
 20
9.92729412E+01
  0
VERTEX
  8
0
 62
4
 10
-3.10974596E+01
 20
9.92729412E+01
  0
VERTEX
  8
0
 62
4
 10
-3.07936069E+01
 20
9.92998730E+01
  0
VERTEX
  8
0
 62
4
 10
-3.04934288E+01
 20
9.93535197E+01
  0
VERTEX
  8
0
 62
4
 10
-3.01993422E+01
 20
9.94334494E+01
  0
VERTEX
  8
0
 62
4
 10
-2.99137149E+01
 20
9.95390185E+01
  0
VERTEX
  8
0
 62
4
 10
-2.96388466E+01
 20
9.96693771E+01
  0
VERTEX
  8
0
 62
4
 10
-2.93769503E+01
 20
9.98234757E+01
  0
VERTEX
  8
0
 62
4
 10
-2.91301347E+01
 20
1.00000073E+02
  0
VERTEX
  8
0
 62
4
 10
-2.89003870E+01
 20
1.00197748E+02
  0
VERTEX
  8
0
 62
4
 10
-2.86895570E+01
 20
1.00414909E+02
  0
VERTEX
  8
0
 62
4
 10
-2.84993422E+01
 20
1.00649807E+02
  0
VERTEX
  8
0
 62
4
 10
-2.83312741E+01
 20
1.00900552E+02
  0
VERTEX
  8
0
 62
4
 10
-2.81867058E+01
 20
1.01165123E+02
  0
VERTEX
  8
0
 62
4
 10
-2.80668014E+01
 20
1.01441391E+02
  0
VERTEX
  8
0
 62
4
 10
-2.79725263E+01
 20
1.01727132E+02
  0
VERTEX
  8
0
 62
4
 10
-2.79046394E+01
 20
1.02020046E+02
  0
VERTEX
  8
0
 62
4
 10
-2.78636874E+01
 20
1.02317773E+02
  0
VERTEX
  8
0
 62
4
 10
-2.78500000E+01
 20
1.02617916E+02
  0
SEQEND
  8
0
  0
POLYLINE
  8
0
 62
4
 66
1
  0
VERTEX
  8
0
 62
4
 10
-3.46500000E+01
 20
1.02814278E+02
  0
VERTEX
  8
0
 62
4
 10
-3.46370620E+01
 20
1.02522450E+02
  0
VERTEX
  8
0
 62
4
 10
-3.45983464E+01
 20
1.02232844E+02
  0
VERTEX
  8
0
 62
4
 10
-3.45341478E+01
 20
1.01947662E+02
  0
VERTEX
  8
0
 62
4
 10
-3.44449549E+01
 20
1.01669076E+02
  0
VERTEX
  8
0
 62
4
 10
-3.43314465E+01
 20
1.01399206E+02
  0
VERTEX
  8
0
 62
4
 10
-3.41944864E+01
 20
1.01140105E+02
  0
VERTEX
  8
0
 62
4
 10
-3.40351170E+01
 20
1.00893745E+02
  0
VERTEX
  8
0
 62
4
 10
-3.38545511E+01
 20
1.00662002E+02
  0
VERTEX
  8
0
 62
4
 10
-3.36541631E+01
 20
1.00446639E+02
  0
VERTEX
  8
0
 62
4
 10
-3.34354779E+01
 20
1.00249296E+02
  0
VERTEX
  8
0
 62
4
 10
-3.32001599E+01
 20
1.00071473E+02
  0
VERTEX
  8
0
 62
4
 10
-3.29500000E+01
 20
9.99145247E+01
  0
VERTEX
  8
0
 62
4
 10
-3.26869021E+01
 20
9.97796454E+01
  0
VERTEX
  8
0
 62
4
 10
-3.24128685E+01
 20
9.96678614E+01
  0
VERTEX
  8
0
 62
4
 10
-3.21299848E+01
 20
9.95800235E+01
  0
VERTEX
  8
0
 62
4
 10
-3.18404038E+01
 20
9.95168003E+01
  0
VERTEX
  8
0
 62
4
 10
-3.15463295E+01
 20
9.94786728E+01
  0
VERTEX
  8
0
 62
4
 10
-3.12500000E+01
 20
9.94659314E+01
  0
VERTEX
  8
0
 62
4
 10
-3.09536705E+01
 20
9.94786728E+01
  0
VERTEX
  8
0
 62
4
 10
-3.06595962E+01
 20
9.95168003E+01
  0
VERTEX
  8
0
 62
4
 10
-3.03700152E+01
 20
9.95800235E+01
  0
VERTEX
  8
0
 62
4
 10
-3.00871315E+01
 20
9.96678614E+01
  0
VERTEX
  8
0
 62
4
 10
-2.98130979E+01
 20
9.97796454E+01
  0
VERTEX
  8
0
 62
4
 10
-2.95500000E+01
 20
9.99145247E+01
  0
VERTEX
  8
0
 62
4
 10
-2.92998401E+01
 20
1.00071473E+02
  0
VERTEX
  8
0
 62
4
 10
-2.90645221E+01
 20
1.00249296E+02
  0
VERTEX
  8
0
 62
4
 10
-2.88458369E+01
 20
1.00446639E+02
  0
VERTEX
  8
0
 62
4
 10
-2.86454489E+01
 20
1.00662002E+02
  0
VERTEX
  8
0
 62
4
 10
-2.84648830E+01
 20
1.00893745E+02
  0
VERTEX
  8
0
 62
4
 10
-2.83055136E+01
 20
1.01140105E+02
  0
VERTEX
  8
0
 62
4
 10
-2.81685535E+01
 20
1.01399206E+02
  0
VERTEX
  8
0
 62
4
 10
-2.80550451E+01
 20
1.01669076E+02
  0
VERTEX
  8
0
 62
4
 10
-2.79658522E+01
 20
1.01947662E+02
  0
VERTEX
  8
0
 62
4
 10
-2.79016536E+01
 20
1.02232844E+02
  0
VERTEX
  8
0
 62
4
 10
-2.78629380E+01
 20
1.02522450E+02
  0
VERTEX
  8
0
 62
4
 10
-2.78500000E+01
 20
1.02814278E+02
  0
VERTEX
  8
0
 62
4
 10
-2.78629380E+01
 20
1.03106106E+02
  0
VERTEX
  8
0
 62
4
 10
-2.79016536E+01
 20
1.03395712E+02
  0
VERTEX
  8
0
 62
4
 10
-2.79658522E+01
 20
1.03680894E+02
  0
VERTEX
  8
0
 62
4
 10
-2.80550451E+01
 20
1.03959480E+02
  0
VERTEX
  8
0
 62
4
 10
-2.81685535E+01
 20
1.04229350E+02
  0
VERTEX
  8
0
 62
4
 10
-2.83055136E+01
 20
1.04488451E+02
  0
VERTEX
  8
0
 62
4
 10
-2.84648830E+01
 20
1.04734811E+02
  0
VERTEX
  8
0
 62
4
 10
-2.86454489E+01
 20
1.04966554E+02
  0
VERTEX
  8
0
 62
4
 10
-2.88458369E+01
 20
1.05181917E+02
  0
VERTEX
  8
0
 62
4
 10
-2.90645221E+01
 20
1.05379260E+02
  0
VERTEX
  8
0
 62
4
 10
-2.92998401E+01
 20
1.05557083E+02
  0
VERTEX
  8
0
 62
4
 10
-2.95500000E+01
 20
1.05714031E+02
  0
VERTEX
  8
0
 62
4
 10
-2.98130979E+01
 20
1.05848911E+02
  0
VERTEX
  8
0
 62
4
 10
-3.00871315E+01
 20
1.05960695E+02
  0
VERTEX
  8
0
 62
4
 10
-3.03700152E+01
 20
1.06048533E+02
  0
VERTEX
  8
0
 62
4
 10
-3.06595962E+01
 20
1.06111756E+02
  0
VERTEX
  8
0
 62
4
 10
-3.09536705E+01
 20
1.06149883E+02
  0
VERTEX
  8
0
 62
4
 10
-3.12500000E+01
 20
1.06162625E+02
  0
VERTEX
  8
0
 62
4
 10
-3.15463295E+01
 20
1.06149883E+02
  0
VERTEX
  8
0
 62
4
 10
-3.18404038E+01
 20
1.06111756E+02
  0
VERTEX
  8
0
 62
4
 10
-3.21299848E+01
 20
1.06048533E+02
  0
VERTEX
  8
0
 62
4
 10
-3.24128685E+01
 20
1.05960695E+02
  0
VERTEX
  8
0
 62
4
 10
-3.26869021E+01
 20
1.05848911E+02
  0
VERTEX
  8
0
 62
4
 10
-3.29500000E+01
 20
1.05714031E+02
  0
VERTEX
  8
0
 62
4
 10
-3.32001599E+01
 20
1.05557083E+02
  0
VERTEX
  8
0
 62
4
 10
-3.34354779E+01
 20
1.05379260E+02
  0
VERTEX
  8
0
 62
4
 10
-3.36541631E+01
 20
1.05181917E+02
  0
VERTEX
  8
0
 62
4
 10
-3.38545511E+01
 20
1.04966554E+02
  0
VERTEX
  8
0
 62
4
 10
-3.40351170E+01
 20
1.04734811E+02
  0
VERTEX
  8
0
 62
4
 10
-3.41944864E+01
 20
1.04488451E+02
  0
VERTEX
  8
0
 62
4
 10
-3.43314465E+01
 20
1.04229350E+02
  0
VERTEX
  8
0
 62
4
 10
-3.44449549E+01
 20
1.03959480E+02
  0
VERTEX
  8
0
 62
4
 10
-3.45341478E+01
 20
1.03680894E+02
  0
VERTEX
  8
0
 62
4
 10
-3.45983464E+01
 20
1.03395712E+02
  0
VERTEX
  8
0
 62
4
 10
-3.46370620E+01
 20
1.03106106E+02
  0
VERTEX
  8
0
 62
4
 10
-3.46500000E+01
 20
1.02814278E+02
  0
SEQEND
  8
0
  0
LINE
  8
0
 62
4
 10
-2.78500000E+01
 20
1.02617916E+02
 11
-2.78500000E+01
 21
1.02814278E+02
  0
ARC
  8
0
 62
4
 10
9.99314687E+01
 20
-3.01934850E+01
 40
1.86971513E+02
 50
1.33801123E+02
 51
1.35321779E+02
  0
ARC
  8
0
 62
4
 10
-1.62431469E+02
 20
-3.01934850E+01
 40
1.86971513E+02
 50
4.46782203E+01
 51
4.61988768E+01
  0
LINE
  8
0
 62
4
 10
-5.37500000E+01
 20
9.21037861E+01
 11
-5.37500000E+01
 21
9.03694494E+01
  0
LINE
  8
0
 62
4
 10
-5.37500000E+01
 20
9.61762276E+01
 11
-5.37500000E+01
 21
9.21037861E+01
  0
LINE
  8
0
 62
4
 10
-5.37500000E+01
 20
9.66339018E+01
 11
-4.20871230E+01
 21
9.66339018E+01
  0
LINE
  8
0
 62
4
 10
-5.37500000E+01
 20
9.22369965E+01
 11
-3.02500000E+01
 21
9.22369965E+01
  0
LINE
  8
0
 62
4
 10
-5.37500000E+01
 20
9.61762276E+01
 11
-4.16872448E+01
 21
9.61762276E+01
  0
LINE
  8
0
 62
4
 10
-5.52500000E+01
 20
9.25444682E+01
 11
-5.37500000E+01
 21
9.15424038E+01
  0
LINE
  8
0
 62
4
 10
-5.52500000E+01
 20
9.29377813E+01
 11
-5.37500000E+01
 21
9.22369965E+01
  0
LINE
  8
0
 62
4
 10
-5.52500000E+01
 20
9.51683709E+01
 11
-5.52500000E+01
 21
9.25444682E+01
  0
LINE
  8
0
 62
4
 10
-5.37500000E+01
 20
9.61762276E+01
 11
-5.52500000E+01
 21
9.51683709E+01
  0
LINE
  8
0
 62
4
 10
-5.37500000E+01
 20
9.21037861E+01
 11
-2.37500000E+01
 21
9.21037861E+01
  0
LINE
  8
0
 62
4
 10
-5.37500000E+01
 20
9.11189784E+01
 11
-2.37500000E+01
 21
9.11189784E+01
  0
LINE
  8
0
 62
4
 10
-5.37500000E+01
 20
1.06875902E+02
 11
-2.37500000E+01
 21
1.06875902E+02
  0
LINE
  8
0
 62
4
 10
-3.02500000E+01
 20
9.61762276E+01
 11
-3.02500000E+01
 21
9.21037861E+01
  0
LINE
  8
0
 62
4
 10
-5.37500000E+01
 20
1.06875902E+02
 11
-5.37500000E+01
 21
9.61762276E+01
  0
LINE
  8
0
 62
4
 10
-2.37500000E+01
 20
9.03694494E+01
 11
-2.37500000E+01
 21
9.23593157E+01
  0
LINE
  8
0
  6
CENTER
 62
6
 10
4.02500610E+01
 20
9.38593157E+01
 11
-6.74993896E+00
 21
9.38593157E+01
  0
LINE
  8
0
 62
6
 10
-3.01788813E+00
 20
9.68593157E+01
 11
-6.48198974E+00
 21
9.08593157E+01
  0
LINE
  8
0
 62
4
 10
5.25006105E+00
 20
9.53593157E+01
 11
-3.88391356E+00
 21
9.53593157E+01
  0
LINE
  8
0
 62
4
 10
5.25006104E+00
 20
9.23593157E+01
 11
-5.61596436E+00
 21
9.23593157E+01
  0
LINE
  8
0
 62
4
 10
3.67500000E+01
 20
9.51683709E+01
 11
3.67500000E+01
 21
9.25444682E+01
  0
LINE
  8
0
 62
4
 10
3.67500000E+01
 20
9.25444682E+01
 11
3.52500000E+01
 21
9.15424038E+01
  0
LINE
  8
0
 62
4
 10
3.67500000E+01
 20
9.29377813E+01
 11
3.52500000E+01
 21
9.22369965E+01
  0
LINE
  8
0
 62
4
 10
3.52500000E+01
 20
9.61762276E+01
 11
3.67500000E+01
 21
9.51683709E+01
  0
POLYLINE
  8
0
 62
4
 66
1
  0
VERTEX
  8
0
 62
4
 10
1.07500000E+01
 20
8.26996244E+01
  0
VERTEX
  8
0
 62
4
 10
1.07419486E+01
 20
8.28761794E+01
  0
VERTEX
  8
0
 62
4
 10
1.07178592E+01
 20
8.30513128E+01
  0
VERTEX
  8
0
 62
4
 10
1.06779257E+01
 20
8.32236147E+01
  0
VERTEX
  8
0
 62
4
 10
1.06224697E+01
 20
8.33916977E+01
  0
VERTEX
  8
0
 62
4
 10
1.05519377E+01
 20
8.35542085E+01
  0
VERTEX
  8
0
 62
4
 10
1.04668976E+01
 20
8.37098388E+01
  0
VERTEX
  8
0
 62
4
 10
1.03680340E+01
 20
8.38573353E+01
  0
VERTEX
  8
0
 62
4
 10
1.02561429E+01
 20
8.39955107E+01
  0
VERTEX
  8
0
 62
4
 10
1.01321253E+01
 20
8.41232524E+01
  0
VERTEX
  8
0
 62
4
 10
9.99697962E+00
 20
8.42395318E+01
  0
VERTEX
  8
0
 62
4
 10
9.85179398E+00
 20
8.43434128E+01
  0
VERTEX
  8
0
 62
4
 10
9.69773734E+00
 20
8.44340590E+01
  0
VERTEX
  8
0
 62
4
 10
9.53605008E+00
 20
8.45107406E+01
  0
VERTEX
  8
0
 62
4
 10
9.36803401E+00
 20
8.45728401E+01
  0
VERTEX
  8
0
 62
4
 10
9.19504188E+00
 20
8.46198575E+01
  0
VERTEX
  8
0
 62
4
 10
9.01846655E+00
 20
8.46514144E+01
  0
VERTEX
  8
0
 62
4
 10
8.83972968E+00
 20
8.46672566E+01
  0
VERTEX
  8
0
 62
4
 10
8.66027036E+00
 20
8.46672566E+01
  0
VERTEX
  8
0
 62
4
 10
8.48153349E+00
 20
8.46514144E+01
  0
VERTEX
  8
0
 62
4
 10
8.30495815E+00
 20
8.46198575E+01
  0
VERTEX
  8
0
 62
4
 10
8.13196603E+00
 20
8.45728401E+01
  0
VERTEX
  8
0
 62
4
 10
7.96394995E+00
 20
8.45107406E+01
  0
VERTEX
  8
0
 62
4
 10
7.80226269E+00
 20
8.44340590E+01
  0
VERTEX
  8
0
 62
4
 10
7.64820605E+00
 20
8.43434128E+01
  0
VERTEX
  8
0
 62
4
 10
7.50302041E+00
 20
8.42395318E+01
  0
VERTEX
  8
0
 62
4
 10
7.36787472E+00
 20
8.41232524E+01
  0
VERTEX
  8
0
 62
4
 10
7.24385708E+00
 20
8.39955107E+01
  0
VERTEX
  8
0
 62
4
 10
7.13196602E+00
 20
8.38573354E+01
  0
VERTEX
  8
0
 62
4
 10
7.03310242E+00
 20
8.37098388E+01
  0
VERTEX
  8
0
 62
4
 10
6.94806227E+00
 20
8.35542086E+01
  0
VERTEX
  8
0
 62
4
 10
6.87753027E+00
 20
8.33916977E+01
  0
VERTEX
  8
0
 62
4
 10
6.82207428E+00
 20
8.32236147E+01
  0
VERTEX
  8
0
 62
4
 10
6.78214083E+00
 20
8.30513128E+01
  0
VERTEX
  8
0
 62
4
 10
6.75805141E+00
 20
8.28761794E+01
  0
VERTEX
  8
0
 62
4
 10
6.75000000E+00
 20
8.26996244E+01
  0
SEQEND
  8
0
  0
POLYLINE
  8
0
 62
4
 66
1
  0
VERTEX
  8
0
 62
4
 10
6.75000000E+00
 20
8.21639850E+01
  0
VERTEX
  8
0
 62
4
 10
6.75761060E+00
 20
8.19923217E+01
  0
VERTEX
  8
0
 62
4
 10
6.78038449E+00
 20
8.18219649E+01
  0
VERTEX
  8
0
 62
4
 10
6.81814835E+00
 20
8.16542110E+01
  0
VERTEX
  8
0
 62
4
 10
6.87061476E+00
 20
8.14903368E+01
  0
VERTEX
  8
0
 62
4
 10
6.93738442E+00
 20
8.13315895E+01
  0
VERTEX
  8
0
 62
4
 10
7.01794919E+00
 20
8.11791773E+01
  0
VERTEX
  8
0
 62
4
 10
7.11169591E+00
 20
8.10342600E+01
  0
VERTEX
  8
0
 62
4
 10
7.21791111E+00
 20
8.08979406E+01
  0
VERTEX
  8
0
 62
4
 10
7.33578643E+00
 20
8.07712565E+01
  0
VERTEX
  8
0
 62
4
 10
7.46442478E+00
 20
8.06551720E+01
  0
VERTEX
  8
0
 62
4
 10
7.60284712E+00
 20
8.05505704E+01
  0
VERTEX
  8
0
 62
4
 10
7.74999999E+00
 20
8.04582479E+01
  0
VERTEX
  8
0
 62
4
 10
7.90476347E+00
 20
8.03789071E+01
  0
VERTEX
  8
0
 62
4
 10
8.06595971E+00
 20
8.03131518E+01
  0
VERTEX
  8
0
 62
4
 10
8.23236190E+00
 20
8.02614825E+01
  0
VERTEX
  8
0
 62
4
 10
8.40270364E+00
 20
8.02242924E+01
  0
VERTEX
  8
0
 62
4
 10
8.57568851E+00
 20
8.02018645E+01
  0
VERTEX
  8
0
 62
4
 10
8.74999999E+00
 20
8.01943695E+01
  0
VERTEX
  8
0
 62
4
 10
8.92431148E+00
 20
8.02018645E+01
  0
VERTEX
  8
0
 62
4
 10
9.09729635E+00
 20
8.02242924E+01
  0
VERTEX
  8
0
 62
4
 10
9.26763808E+00
 20
8.02614825E+01
  0
VERTEX
  8
0
 62
4
 10
9.43404028E+00
 20
8.03131518E+01
  0
VERTEX
  8
0
 62
4
 10
9.59523652E+00
 20
8.03789071E+01
  0
VERTEX
  8
0
 62
4
 10
9.75000000E+00
 20
8.04582479E+01
  0
VERTEX
  8
0
 62
4
 10
9.89715287E+00
 20
8.05505704E+01
  0
VERTEX
  8
0
 62
4
 10
1.00355752E+01
 20
8.06551720E+01
  0
VERTEX
  8
0
 62
4
 10
1.01642136E+01
 20
8.07712565E+01
  0
VERTEX
  8
0
 62
4
 10
1.02820889E+01
 20
8.08979406E+01
  0
VERTEX
  8
0
 62
4
 10
1.03883041E+01
 20
8.10342600E+01
  0
VERTEX
  8
0
 62
4
 10
1.04820508E+01
 20
8.11791772E+01
  0
VERTEX
  8
0
 62
4
 10
1.05626156E+01
 20
8.13315895E+01
  0
VERTEX
  8
0
 62
4
 10
1.06293852E+01
 20
8.14903368E+01
  0
VERTEX
  8
0
 62
4
 10
1.06818517E+01
 20
8.16542110E+01
  0
VERTEX
  8
0
 62
4
 10
1.07196155E+01
 20
8.18219649E+01
  0
VERTEX
  8
0
 62
4
 10
1.07423894E+01
 20
8.19923217E+01
  0
VERTEX
  8
0
 62
4
 10
1.07500000E+01
 20
8.21639850E+01
  0
VERTEX
  8
0
 62
4
 10
1.07423894E+01
 20
8.23356483E+01
  0
VERTEX
  8
0
 62
4
 10
1.07196155E+01
 20
8.25060051E+01
  0
VERTEX
  8
0
 62
4
 10
1.06818517E+01
 20
8.26737590E+01
  0
VERTEX
  8
0
 62
4
 10
1.06293852E+01
 20
8.28376332E+01
  0
VERTEX
  8
0
 62
4
 10
1.05626156E+01
 20
8.29963805E+01
  0
VERTEX
  8
0
 62
4
 10
1.04820508E+01
 20
8.31487928E+01
  0
VERTEX
  8
0
 62
4
 10
1.03883041E+01
 20
8.32937100E+01
  0
VERTEX
  8
0
 62
4
 10
1.02820889E+01
 20
8.34300294E+01
  0
VERTEX
  8
0
 62
4
 10
1.01642136E+01
 20
8.35567135E+01
  0
VERTEX
  8
0
 62
4
 10
1.00355752E+01
 20
8.36727980E+01
  0
VERTEX
  8
0
 62
4
 10
9.89715288E+00
 20
8.37773996E+01
  0
VERTEX
  8
0
 62
4
 10
9.75000000E+00
 20
8.38697221E+01
  0
VERTEX
  8
0
 62
4
 10
9.59523653E+00
 20
8.39490629E+01
  0
VERTEX
  8
0
 62
4
 10
9.43404029E+00
 20
8.40148182E+01
  0
VERTEX
  8
0
 62
4
 10
9.26763809E+00
 20
8.40664875E+01
  0
VERTEX
  8
0
 62
4
 10
9.09729636E+00
 20
8.41036776E+01
  0
VERTEX
  8
0
 62
4
 10
8.92431149E+00
 20
8.41261055E+01
  0
VERTEX
  8
0
 62
4
 10
8.75000000E+00
 20
8.41336005E+01
  0
VERTEX
  8
0
 62
4
 10
8.57568852E+00
 20
8.41261055E+01
  0
VERTEX
  8
0
 62
4
 10
8.40270365E+00
 20
8.41036776E+01
  0
VERTEX
  8
0
 62
4
 10
8.23236191E+00
 20
8.40664875E+01
  0
VERTEX
  8
0
 62
4
 10
8.06595972E+00
 20
8.40148182E+01
  0
VERTEX
  8
0
 62
4
 10
7.90476348E+00
 20
8.39490629E+01
  0
VERTEX
  8
0
 62
4
 10
7.75000000E+00
 20
8.38697221E+01
  0
VERTEX
  8
0
 62
4
 10
7.60284713E+00
 20
8.37773996E+01
  0
VERTEX
  8
0
 62
4
 10
7.46442478E+00
 20
8.36727980E+01
  0
VERTEX
  8
0
 62
4
 10
7.33578644E+00
 20
8.35567135E+01
  0
VERTEX
  8
0
 62
4
 10
7.21791112E+00
 20
8.34300294E+01
  0
VERTEX
  8
0
 62
4
 10
7.11169591E+00
 20
8.32937100E+01
  0
VERTEX
  8
0
 62
4
 10
7.01794919E+00
 20
8.31487928E+01
  0
VERTEX
  8
0
 62
4
 10
6.93738443E+00
 20
8.29963805E+01
  0
VERTEX
  8
0
 62
4
 10
6.87061476E+00
 20
8.28376332E+01
  0
VERTEX
  8
0
 62
4
 10
6.81814835E+00
 20
8.26737590E+01
  0
VERTEX
  8
0
 62
4
 10
6.78038449E+00
 20
8.25060051E+01
  0
VERTEX
  8
0
 62
4
 10
6.75761060E+00
 20
8.23356483E+01
  0
VERTEX
  8
0
 62
4
 10
6.75000000E+00
 20
8.21639850E+01
  0
SEQEND
  8
0
  0
LINE
  8
0
 62
4
 10
6.75000000E+00
 20
8.21639850E+01
 11
6.75000000E+00
 21
8.26996244E+01
  0
LINE
  8
0
 62
4
 10
1.07500000E+01
 20
8.21639850E+01
 11
1.07500000E+01
 21
8.26996244E+01
  0
POLYLINE
  8
0
 62
6
 66
1
  0
VERTEX
  8
0
 62
6
 10
1.02500000E+01
 20
8.21639850E+01
  0
VERTEX
  8
0
 62
6
 10
1.02442920E+01
 20
8.22927325E+01
  0
VERTEX
  8
0
 62
6
 10
1.02272116E+01
 20
8.24205001E+01
  0
VERTEX
  8
0
 62
6
 10
1.01988887E+01
 20
8.25463155E+01
  0
VERTEX
  8
0
 62
6
 10
1.01595389E+01
 20
8.26692211E+01
  0
VERTEX
  8
0
 62
6
 10
1.01094617E+01
 20
8.27882816E+01
  0
VERTEX
  8
0
 62
6
 10
1.00490381E+01
 20
8.29025908E+01
  0
VERTEX
  8
0
 62
6
 10
9.97872807E+00
 20
8.30112788E+01
  0
VERTEX
  8
0
 62
6
 10
9.89906666E+00
 20
8.31135183E+01
  0
VERTEX
  8
0
 62
6
 10
9.81066017E+00
 20
8.32085314E+01
  0
VERTEX
  8
0
 62
6
 10
9.71418141E+00
 20
8.32955948E+01
  0
VERTEX
  8
0
 62
6
 10
9.61036465E+00
 20
8.33740459E+01
  0
VERTEX
  8
0
 62
6
 10
9.50000000E+00
 20
8.34432878E+01
  0
VERTEX
  8
0
 62
6
 10
9.38392739E+00
 20
8.35027934E+01
  0
VERTEX
  8
0
 62
6
 10
9.26303021E+00
 20
8.35521099E+01
  0
VERTEX
  8
0
 62
6
 10
9.13822857E+00
 20
8.35908619E+01
  0
VERTEX
  8
0
 62
6
 10
9.01047227E+00
 20
8.36187545E+01
  0
VERTEX
  8
0
 62
6
 10
8.88073361E+00
 20
8.36355754E+01
  0
VERTEX
  8
0
 62
6
 10
8.75000000E+00
 20
8.36411966E+01
  0
VERTEX
  8
0
 62
6
 10
8.61926638E+00
 20
8.36355754E+01
  0
VERTEX
  8
0
 62
6
 10
8.48952773E+00
 20
8.36187545E+01
  0
VERTEX
  8
0
 62
6
 10
8.36177143E+00
 20
8.35908619E+01
  0
VERTEX
  8
0
 62
6
 10
8.23696978E+00
 20
8.35521099E+01
  0
VERTEX
  8
0
 62
6
 10
8.11607261E+00
 20
8.35027934E+01
  0
VERTEX
  8
0
 62
6
 10
8.00000000E+00
 20
8.34432878E+01
  0
VERTEX
  8
0
 62
6
 10
7.88963534E+00
 20
8.33740459E+01
  0
VERTEX
  8
0
 62
6
 10
7.78581858E+00
 20
8.32955948E+01
  0
VERTEX
  8
0
 62
6
 10
7.68933983E+00
 20
8.32085314E+01
  0
VERTEX
  8
0
 62
6
 10
7.60093333E+00
 20
8.31135183E+01
  0
VERTEX
  8
0
 62
6
 10
7.52127193E+00
 20
8.30112788E+01
  0
VERTEX
  8
0
 62
6
 10
7.45096189E+00
 20
8.29025908E+01
  0
VERTEX
  8
0
 62
6
 10
7.39053832E+00
 20
8.27882816E+01
  0
VERTEX
  8
0
 62
6
 10
7.34046107E+00
 20
8.26692211E+01
  0
VERTEX
  8
0
 62
6
 10
7.30111126E+00
 20
8.25463155E+01
  0
VERTEX
  8
0
 62
6
 10
7.27278837E+00
 20
8.24205001E+01
  0
VERTEX
  8
0
 62
6
 10
7.25570795E+00
 20
8.22927325E+01
  0
VERTEX
  8
0
 62
6
 10
7.25000000E+00
 20
8.21639850E+01
  0
VERTEX
  8
0
 62
6
 10
7.25570795E+00
 20
8.20352375E+01
  0
VERTEX
  8
0
 62
6
 10
7.27278837E+00
 20
8.19074699E+01
  0
VERTEX
  8
0
 62
6
 10
7.30111126E+00
 20
8.17816545E+01
  0
VERTEX
  8
0
 62
6
 10
7.34046107E+00
 20
8.16587489E+01
  0
VERTEX
  8
0
 62
6
 10
7.39053832E+00
 20
8.15396884E+01
  0
VERTEX
  8
0
 62
6
 10
7.45096190E+00
 20
8.14253792E+01
  0
VERTEX
  8
0
 62
6
 10
7.52127194E+00
 20
8.13166912E+01
  0
VERTEX
  8
0
 62
6
 10
7.60093334E+00
 20
8.12144517E+01
  0
VERTEX
  8
0
 62
6
 10
7.68933983E+00
 20
8.11194386E+01
  0
VERTEX
  8
0
 62
6
 10
7.78581859E+00
 20
8.10323752E+01
  0
VERTEX
  8
0
 62
6
 10
7.88963535E+00
 20
8.09539241E+01
  0
VERTEX
  8
0
 62
6
 10
8.00000000E+00
 20
8.08846822E+01
  0
VERTEX
  8
0
 62
6
 10
8.11607261E+00
 20
8.08251766E+01
  0
VERTEX
  8
0
 62
6
 10
8.23696979E+00
 20
8.07758601E+01
  0
VERTEX
  8
0
 62
6
 10
8.36177144E+00
 20
8.07371081E+01
  0
VERTEX
  8
0
 62
6
 10
8.48952774E+00
 20
8.07092155E+01
  0
VERTEX
  8
0
 62
6
 10
8.61926639E+00
 20
8.06923946E+01
  0
VERTEX
  8
0
 62
6
 10
8.75000000E+00
 20
8.06867734E+01
  0
VERTEX
  8
0
 62
6
 10
8.88073362E+00
 20
8.06923946E+01
  0
VERTEX
  8
0
 62
6
 10
9.01047227E+00
 20
8.07092155E+01
  0
VERTEX
  8
0
 62
6
 10
9.13822857E+00
 20
8.07371081E+01
  0
VERTEX
  8
0
 62
6
 10
9.26303022E+00
 20
8.07758601E+01
  0
VERTEX
  8
0
 62
6
 10
9.38392740E+00
 20
8.08251766E+01
  0
VERTEX
  8
0
 62
6
 10
9.50000000E+00
 20
8.08846822E+01
  0
VERTEX
  8
0
 62
6
 10
9.61036466E+00
 20
8.09539241E+01
  0
VERTEX
  8
0
 62
6
 10
9.71418142E+00
 20
8.10323752E+01
  0
VERTEX
  8
0
 62
6
 10
9.81066017E+00
 20
8.11194386E+01
  0
VERTEX
  8
0
 62
6
 10
9.89906667E+00
 20
8.12144517E+01
  0
VERTEX
  8
0
 62
6
 10
9.97872807E+00
 20
8.13166912E+01
  0
VERTEX
  8
0
 62
6
 10
1.00490381E+01
 20
8.14253792E+01
  0
VERTEX
  8
0
 62
6
 10
1.01094617E+01
 20
8.15396884E+01
  0
VERTEX
  8
0
 62
6
 10
1.01595389E+01
 20
8.16587489E+01
  0
VERTEX
  8
0
 62
6
 10
1.01988887E+01
 20
8.17816545E+01
  0
VERTEX
  8
0
 62
6
 10
1.02272116E+01
 20
8.19074699E+01
  0
VERTEX
  8
0
 62
6
 10
1.02442920E+01
 20
8.20352375E+01
  0
VERTEX
  8
0
 62
6
 10
1.02500000E+01
 20
8.21639850E+01
  0
SEQEND
  8
0
  0
LINE
  8
0
 62
4
 10
7.75000000E+00
 20
8.27351735E+01
 11
7.75000000E+00
 21
8.15927965E+01
  0
LINE
  8
0
 62
4
 10
9.75000000E+00
 20
8.27351735E+01
 11
9.75000000E+00
 21
8.15927965E+01
  0
LINE
  8
0
 62
4
 10
8.75000000E+00
 20
8.32965139E+01
 11
7.75000000E+00
 21
8.27351735E+01
  0
LINE
  8
0
 62
4
 10
8.75000000E+00
 20
8.32965139E+01
 11
9.75000000E+00
 21
8.27351735E+01
  0
LINE
  8
0
 62
4
 10
9.75000000E+00
 20
8.15927965E+01
 11
8.75000000E+00
 21
8.10216080E+01
  0
LINE
  8
0
 62
4
 10
7.75000000E+00
 20
8.15927965E+01
 11
8.75000000E+00
 21
8.10216080E+01
  0
LINE
  8
0
 62
4
 10
1.57500000E+01
 20
8.15927965E+01
 11
1.67500000E+01
 21
8.10216080E+01
  0
LINE
  8
0
 62
4
 10
1.77500000E+01
 20
8.15927965E+01
 11
1.67500000E+01
 21
8.10216080E+01
  0
LINE
  8
0
 62
4
 10
1.67500000E+01
 20
8.32965139E+01
 11
1.77500000E+01
 21
8.27351735E+01
  0
LINE
  8
0
 62
4
 10
1.67500000E+01
 20
8.32965139E+01
 11
1.57500000E+01
 21
8.27351735E+01
  0
LINE
  8
0
 62
4
 10
1.77500000E+01
 20
8.27351735E+01
 11
1.77500000E+01
 21
8.15927965E+01
  0
LINE
  8
0
 62
4
 10
1.57500000E+01
 20
8.27351735E+01
 11
1.57500000E+01
 21
8.15927965E+01
  0
POLYLINE
  8
0
 62
6
 66
1
  0
VERTEX
  8
0
 62
6
 10
1.82500000E+01
 20
8.21639850E+01
  0
VERTEX
  8
0
 62
6
 10
1.82442920E+01
 20
8.22927325E+01
  0
VERTEX
  8
0
 62
6
 10
1.82272116E+01
 20
8.24205001E+01
  0
VERTEX
  8
0
 62
6
 10
1.81988887E+01
 20
8.25463155E+01
  0
VERTEX
  8
0
 62
6
 10
1.81595389E+01
 20
8.26692211E+01
  0
VERTEX
  8
0
 62
6
 10
1.81094617E+01
 20
8.27882816E+01
  0
VERTEX
  8
0
 62
6
 10
1.80490381E+01
 20
8.29025908E+01
  0
VERTEX
  8
0
 62
6
 10
1.79787281E+01
 20
8.30112788E+01
  0
VERTEX
  8
0
 62
6
 10
1.78990667E+01
 20
8.31135183E+01
  0
VERTEX
  8
0
 62
6
 10
1.78106602E+01
 20
8.32085314E+01
  0
VERTEX
  8
0
 62
6
 10
1.77141814E+01
 20
8.32955948E+01
  0
VERTEX
  8
0
 62
6
 10
1.76103647E+01
 20
8.33740459E+01
  0
VERTEX
  8
0
 62
6
 10
1.75000000E+01
 20
8.34432878E+01
  0
VERTEX
  8
0
 62
6
 10
1.73839274E+01
 20
8.35027934E+01
  0
VERTEX
  8
0
 62
6
 10
1.72630302E+01
 20
8.35521099E+01
  0
VERTEX
  8
0
 62
6
 10
1.71382286E+01
 20
8.35908619E+01
  0
VERTEX
  8
0
 62
6
 10
1.70104723E+01
 20
8.36187545E+01
  0
VERTEX
  8
0
 62
6
 10
1.68807336E+01
 20
8.36355754E+01
  0
VERTEX
  8
0
 62
6
 10
1.67500000E+01
 20
8.36411966E+01
  0
VERTEX
  8
0
 62
6
 10
1.66192664E+01
 20
8.36355754E+01
  0
VERTEX
  8
0
 62
6
 10
1.64895277E+01
 20
8.36187545E+01
  0
VERTEX
  8
0
 62
6
 10
1.63617714E+01
 20
8.35908619E+01
  0
VERTEX
  8
0
 62
6
 10
1.62369698E+01
 20
8.35521099E+01
  0
VERTEX
  8
0
 62
6
 10
1.61160726E+01
 20
8.35027934E+01
  0
VERTEX
  8
0
 62
6
 10
1.60000000E+01
 20
8.34432878E+01
  0
VERTEX
  8
0
 62
6
 10
1.58896353E+01
 20
8.33740459E+01
  0
VERTEX
  8
0
 62
6
 10
1.57858186E+01
 20
8.32955948E+01
  0
VERTEX
  8
0
 62
6
 10
1.56893398E+01
 20
8.32085314E+01
  0
VERTEX
  8
0
 62
6
 10
1.56009333E+01
 20
8.31135183E+01
  0
VERTEX
  8
0
 62
6
 10
1.55212719E+01
 20
8.30112788E+01
  0
VERTEX
  8
0
 62
6
 10
1.54509619E+01
 20
8.29025908E+01
  0
VERTEX
  8
0
 62
6
 10
1.53905383E+01
 20
8.27882816E+01
  0
VERTEX
  8
0
 62
6
 10
1.53404611E+01
 20
8.26692211E+01
  0
VERTEX
  8
0
 62
6
 10
1.53011113E+01
 20
8.25463155E+01
  0
VERTEX
  8
0
 62
6
 10
1.52727884E+01
 20
8.24205001E+01
  0
VERTEX
  8
0
 62
6
 10
1.52557080E+01
 20
8.22927325E+01
  0
VERTEX
  8
0
 62
6
 10
1.52500000E+01
 20
8.21639850E+01
  0
VERTEX
  8
0
 62
6
 10
1.52557080E+01
 20
8.20352375E+01
  0
VERTEX
  8
0
 62
6
 10
1.52727884E+01
 20
8.19074699E+01
  0
VERTEX
  8
0
 62
6
 10
1.53011113E+01
 20
8.17816545E+01
  0
VERTEX
  8
0
 62
6
 10
1.53404611E+01
 20
8.16587489E+01
  0
VERTEX
  8
0
 62
6
 10
1.53905383E+01
 20
8.15396884E+01
  0
VERTEX
  8
0
 62
6
 10
1.54509619E+01
 20
8.14253792E+01
  0
VERTEX
  8
0
 62
6
 10
1.55212719E+01
 20
8.13166912E+01
  0
VERTEX
  8
0
 62
6
 10
1.56009333E+01
 20
8.12144517E+01
  0
VERTEX
  8
0
 62
6
 10
1.56893398E+01
 20
8.11194386E+01
  0
VERTEX
  8
0
 62
6
 10
1.57858186E+01
 20
8.10323752E+01
  0
VERTEX
  8
0
 62
6
 10
1.58896353E+01
 20
8.09539241E+01
  0
VERTEX
  8
0
 62
6
 10
1.60000000E+01
 20
8.08846822E+01
  0
VERTEX
  8
0
 62
6
 10
1.61160726E+01
 20
8.08251766E+01
  0
VERTEX
  8
0
 62
6
 10
1.62369698E+01
 20
8.07758601E+01
  0
VERTEX
  8
0
 62
6
 10
1.63617714E+01
 20
8.07371081E+01
  0
VERTEX
  8
0
 62
6
 10
1.64895277E+01
 20
8.07092155E+01
  0
VERTEX
  8
0
 62
6
 10
1.66192664E+01
 20
8.06923946E+01
  0
VERTEX
  8
0
 62
6
 10
1.67500000E+01
 20
8.06867734E+01
  0
VERTEX
  8
0
 62
6
 10
1.68807336E+01
 20
8.06923946E+01
  0
VERTEX
  8
0
 62
6
 10
1.70104723E+01
 20
8.07092155E+01
  0
VERTEX
  8
0
 62
6
 10
1.71382286E+01
 20
8.07371081E+01
  0
VERTEX
  8
0
 62
6
 10
1.72630302E+01
 20
8.07758601E+01
  0
VERTEX
  8
0
 62
6
 10
1.73839274E+01
 20
8.08251766E+01
  0
VERTEX
  8
0
 62
6
 10
1.75000000E+01
 20
8.08846822E+01
  0
VERTEX
  8
0
 62
6
 10
1.76103647E+01
 20
8.09539241E+01
  0
VERTEX
  8
0
 62
6
 10
1.77141814E+01
 20
8.10323752E+01
  0
VERTEX
  8
0
 62
6
 10
1.78106602E+01
 20
8.11194386E+01
  0
VERTEX
  8
0
 62
6
 10
1.78990667E+01
 20
8.12144517E+01
  0
VERTEX
  8
0
 62
6
 10
1.79787281E+01
 20
8.13166912E+01
  0
VERTEX
  8
0
 62
6
 10
1.80490381E+01
 20
8.14253792E+01
  0
VERTEX
  8
0
 62
6
 10
1.81094617E+01
 20
8.15396884E+01
  0
VERTEX
  8
0
 62
6
 10
1.81595389E+01
 20
8.16587489E+01
  0
VERTEX
  8
0
 62
6
 10
1.81988887E+01
 20
8.17816545E+01
  0
VERTEX
  8
0
 62
6
 10
1.82272116E+01
 20
8.19074699E+01
  0
VERTEX
  8
0
 62
6
 10
1.82442920E+01
 20
8.20352375E+01
  0
VERTEX
  8
0
 62
6
 10
1.82500000E+01
 20
8.21639850E+01
  0
SEQEND
  8
0
  0
LINE
  8
0
 62
4
 10
1.87500000E+01
 20
8.21639850E+01
 11
1.87500000E+01
 21
8.26996244E+01
  0
LINE
  8
0
 62
4
 10
1.47500000E+01
 20
8.21639850E+01
 11
1.47500000E+01
 21
8.26996244E+01
  0
POLYLINE
  8
0
 62
4
 66
1
  0
VERTEX
  8
0
 62
4
 10
1.47500000E+01
 20
8.21639850E+01
  0
VERTEX
  8
0
 62
4
 10
1.47576106E+01
 20
8.19923217E+01
  0
VERTEX
  8
0
 62
4
 10
1.47803845E+01
 20
8.18219649E+01
  0
VERTEX
  8
0
 62
4
 10
1.48181483E+01
 20
8.16542110E+01
  0
VERTEX
  8
0
 62
4
 10
1.48706148E+01
 20
8.14903368E+01
  0
VERTEX
  8
0
 62
4
 10
1.49373844E+01
 20
8.13315895E+01
  0
VERTEX
  8
0
 62
4
 10
1.50179492E+01
 20
8.11791773E+01
  0
VERTEX
  8
0
 62
4
 10
1.51116959E+01
 20
8.10342600E+01
  0
VERTEX
  8
0
 62
4
 10
1.52179111E+01
 20
8.08979406E+01
  0
VERTEX
  8
0
 62
4
 10
1.53357864E+01
 20
8.07712565E+01
  0
VERTEX
  8
0
 62
4
 10
1.54644248E+01
 20
8.06551720E+01
  0
VERTEX
  8
0
 62
4
 10
1.56028471E+01
 20
8.05505704E+01
  0
VERTEX
  8
0
 62
4
 10
1.57500000E+01
 20
8.04582479E+01
  0
VERTEX
  8
0
 62
4
 10
1.59047635E+01
 20
8.03789071E+01
  0
VERTEX
  8
0
 62
4
 10
1.60659597E+01
 20
8.03131518E+01
  0
VERTEX
  8
0
 62
4
 10
1.62323619E+01
 20
8.02614825E+01
  0
VERTEX
  8
0
 62
4
 10
1.64027036E+01
 20
8.02242924E+01
  0
VERTEX
  8
0
 62
4
 10
1.65756885E+01
 20
8.02018645E+01
  0
VERTEX
  8
0
 62
4
 10
1.67500000E+01
 20
8.01943695E+01
  0
VERTEX
  8
0
 62
4
 10
1.69243115E+01
 20
8.02018645E+01
  0
VERTEX
  8
0
 62
4
 10
1.70972963E+01
 20
8.02242924E+01
  0
VERTEX
  8
0
 62
4
 10
1.72676381E+01
 20
8.02614825E+01
  0
VERTEX
  8
0
 62
4
 10
1.74340403E+01
 20
8.03131518E+01
  0
VERTEX
  8
0
 62
4
 10
1.75952365E+01
 20
8.03789071E+01
  0
VERTEX
  8
0
 62
4
 10
1.77500000E+01
 20
8.04582479E+01
  0
VERTEX
  8
0
 62
4
 10
1.78971529E+01
 20
8.05505704E+01
  0
VERTEX
  8
0
 62
4
 10
1.80355752E+01
 20
8.06551720E+01
  0
VERTEX
  8
0
 62
4
 10
1.81642136E+01
 20
8.07712565E+01
  0
VERTEX
  8
0
 62
4
 10
1.82820889E+01
 20
8.08979406E+01
  0
VERTEX
  8
0
 62
4
 10
1.83883041E+01
 20
8.10342600E+01
  0
VERTEX
  8
0
 62
4
 10
1.84820508E+01
 20
8.11791772E+01
  0
VERTEX
  8
0
 62
4
 10
1.85626156E+01
 20
8.13315895E+01
  0
VERTEX
  8
0
 62
4
 10
1.86293852E+01
 20
8.14903368E+01
  0
VERTEX
  8
0
 62
4
 10
1.86818517E+01
 20
8.16542110E+01
  0
VERTEX
  8
0
 62
4
 10
1.87196155E+01
 20
8.18219649E+01
  0
VERTEX
  8
0
 62
4
 10
1.87423894E+01
 20
8.19923217E+01
  0
VERTEX
  8
0
 62
4
 10
1.87500000E+01
 20
8.21639850E+01
  0
VERTEX
  8
0
 62
4
 10
1.87423894E+01
 20
8.23356483E+01
  0
VERTEX
  8
0
 62
4
 10
1.87196155E+01
 20
8.25060051E+01
  0
VERTEX
  8
0
 62
4
 10
1.86818517E+01
 20
8.26737590E+01
  0
VERTEX
  8
0
 62
4
 10
1.86293852E+01
 20
8.28376332E+01
  0
VERTEX
  8
0
 62
4
 10
1.85626156E+01
 20
8.29963805E+01
  0
VERTEX
  8
0
 62
4
 10
1.84820508E+01
 20
8.31487928E+01
  0
VERTEX
  8
0
 62
4
 10
1.83883041E+01
 20
8.32937100E+01
  0
VERTEX
  8
0
 62
4
 10
1.82820889E+01
 20
8.34300294E+01
  0
VERTEX
  8
0
 62
4
 10
1.81642136E+01
 20
8.35567135E+01
  0
VERTEX
  8
0
 62
4
 10
1.80355752E+01
 20
8.36727980E+01
  0
VERTEX
  8
0
 62
4
 10
1.78971529E+01
 20
8.37773996E+01
  0
VERTEX
  8
0
 62
4
 10
1.77500000E+01
 20
8.38697221E+01
  0
VERTEX
  8
0
 62
4
 10
1.75952365E+01
 20
8.39490629E+01
  0
VERTEX
  8
0
 62
4
 10
1.74340403E+01
 20
8.40148182E+01
  0
VERTEX
  8
0
 62
4
 10
1.72676381E+01
 20
8.40664875E+01
  0
VERTEX
  8
0
 62
4
 10
1.70972964E+01
 20
8.41036776E+01
  0
VERTEX
  8
0
 62
4
 10
1.69243115E+01
 20
8.41261055E+01
  0
VERTEX
  8
0
 62
4
 10
1.67500000E+01
 20
8.41336005E+01
  0
VERTEX
  8
0
 62
4
 10
1.65756885E+01
 20
8.41261055E+01
  0
VERTEX
  8
0
 62
4
 10
1.64027036E+01
 20
8.41036776E+01
  0
VERTEX
  8
0
 62
4
 10
1.62323619E+01
 20
8.40664875E+01
  0
VERTEX
  8
0
 62
4
 10
1.60659597E+01
 20
8.40148182E+01
  0
VERTEX
  8
0
 62
4
 10
1.59047635E+01
 20
8.39490629E+01
  0
VERTEX
  8
0
 62
4
 10
1.57500000E+01
 20
8.38697221E+01
  0
VERTEX
  8
0
 62
4
 10
1.56028471E+01
 20
8.37773996E+01
  0
VERTEX
  8
0
 62
4
 10
1.54644248E+01
 20
8.36727980E+01
  0
VERTEX
  8
0
 62
4
 10
1.53357864E+01
 20
8.35567135E+01
  0
VERTEX
  8
0
 62
4
 10
1.52179111E+01
 20
8.34300294E+01
  0
VERTEX
  8
0
 62
4
 10
1.51116959E+01
 20
8.32937100E+01
  0
VERTEX
  8
0
 62
4
 10
1.50179492E+01
 20
8.31487928E+01
  0
VERTEX
  8
0
 62
4
 10
1.49373844E+01
 20
8.29963805E+01
  0
VERTEX
  8
0
 62
4
 10
1.48706148E+01
 20
8.28376332E+01
  0
VERTEX
  8
0
 62
4
 10
1.48181483E+01
 20
8.26737590E+01
  0
VERTEX
  8
0
 62
4
 10
1.47803845E+01
 20
8.25060051E+01
  0
VERTEX
  8
0
 62
4
 10
1.47576106E+01
 20
8.23356483E+01
  0
VERTEX
  8
0
 62
4
 10
1.47500000E+01
 20
8.21639850E+01
  0
SEQEND
  8
0
  0
POLYLINE
  8
0
 62
4
 66
1
  0
VERTEX
  8
0
 62
4
 10
1.87500000E+01
 20
8.26996244E+01
  0
VERTEX
  8
0
 62
4
 10
1.87419486E+01
 20
8.28761794E+01
  0
VERTEX
  8
0
 62
4
 10
1.87178592E+01
 20
8.30513128E+01
  0
VERTEX
  8
0
 62
4
 10
1.86779257E+01
 20
8.32236147E+01
  0
VERTEX
  8
0
 62
4
 10
1.86224697E+01
 20
8.33916977E+01
  0
VERTEX
  8
0
 62
4
 10
1.85519377E+01
 20
8.35542085E+01
  0
VERTEX
  8
0
 62
4
 10
1.84668976E+01
 20
8.37098388E+01
  0
VERTEX
  8
0
 62
4
 10
1.83680340E+01
 20
8.38573353E+01
  0
VERTEX
  8
0
 62
4
 10
1.82561429E+01
 20
8.39955107E+01
  0
VERTEX
  8
0
 62
4
 10
1.81321253E+01
 20
8.41232524E+01
  0
VERTEX
  8
0
 62
4
 10
1.79969796E+01
 20
8.42395318E+01
  0
VERTEX
  8
0
 62
4
 10
1.78517940E+01
 20
8.43434128E+01
  0
VERTEX
  8
0
 62
4
 10
1.76977373E+01
 20
8.44340590E+01
  0
VERTEX
  8
0
 62
4
 10
1.75360501E+01
 20
8.45107406E+01
  0
VERTEX
  8
0
 62
4
 10
1.73680340E+01
 20
8.45728401E+01
  0
VERTEX
  8
0
 62
4
 10
1.71950419E+01
 20
8.46198575E+01
  0
VERTEX
  8
0
 62
4
 10
1.70184665E+01
 20
8.46514144E+01
  0
VERTEX
  8
0
 62
4
 10
1.68397297E+01
 20
8.46672566E+01
  0
VERTEX
  8
0
 62
4
 10
1.66602704E+01
 20
8.46672566E+01
  0
VERTEX
  8
0
 62
4
 10
1.64815335E+01
 20
8.46514144E+01
  0
VERTEX
  8
0
 62
4
 10
1.63049581E+01
 20
8.46198575E+01
  0
VERTEX
  8
0
 62
4
 10
1.61319660E+01
 20
8.45728401E+01
  0
VERTEX
  8
0
 62
4
 10
1.59639500E+01
 20
8.45107406E+01
  0
VERTEX
  8
0
 62
4
 10
1.58022627E+01
 20
8.44340590E+01
  0
VERTEX
  8
0
 62
4
 10
1.56482061E+01
 20
8.43434128E+01
  0
VERTEX
  8
0
 62
4
 10
1.55030204E+01
 20
8.42395318E+01
  0
VERTEX
  8
0
 62
4
 10
1.53678747E+01
 20
8.41232524E+01
  0
VERTEX
  8
0
 62
4
 10
1.52438571E+01
 20
8.39955107E+01
  0
VERTEX
  8
0
 62
4
 10
1.51319660E+01
 20
8.38573354E+01
  0
VERTEX
  8
0
 62
4
 10
1.50331024E+01
 20
8.37098388E+01
  0
VERTEX
  8
0
 62
4
 10
1.49480623E+01
 20
8.35542086E+01
  0
VERTEX
  8
0
 62
4
 10
1.48775303E+01
 20
8.33916977E+01
  0
VERTEX
  8
0
 62
4
 10
1.48220743E+01
 20
8.32236147E+01
  0
VERTEX
  8
0
 62
4
 10
1.47821408E+01
 20
8.30513128E+01
  0
VERTEX
  8
0
 62
4
 10
1.47580514E+01
 20
8.28761794E+01
  0
VERTEX
  8
0
 62
4
 10
1.47500000E+01
 20
8.26996244E+01
  0
SEQEND
  8
0
  0
POLYLINE
  8
0
 62
4
 66
1
  0
VERTEX
  8
0
 62
4
 10
2.55000000E+01
 20
1.00655691E+02
  0
VERTEX
  8
0
 62
4
 10
2.55085619E+01
 20
1.00462570E+02
  0
VERTEX
  8
0
 62
4
 10
2.55341826E+01
 20
1.00270918E+02
  0
VERTEX
  8
0
 62
4
 10
2.55766669E+01
 20
1.00082195E+02
  0
VERTEX
  8
0
 62
4
 10
2.56356916E+01
 20
9.98978368E+01
  0
VERTEX
  8
0
 62
4
 10
2.57108075E+01
 20
9.97192461E+01
  0
VERTEX
  8
0
 62
4
 10
2.58014428E+01
 20
9.95477823E+01
  0
VERTEX
  8
0
 62
4
 10
2.59069079E+01
 20
9.93847503E+01
  0
VERTEX
  8
0
 62
4
 10
2.60264000E+01
 20
9.92313910E+01
  0
VERTEX
  8
0
 62
4
 10
2.61590097E+01
 20
9.90888715E+01
  0
VERTEX
  8
0
 62
4
 10
2.63037279E+01
 20
9.89582764E+01
  0
VERTEX
  8
0
 62
4
 10
2.64594530E+01
 20
9.88405996E+01
  0
VERTEX
  8
0
 62
4
 10
2.66250000E+01
 20
9.87367368E+01
  0
VERTEX
  8
0
 62
4
 10
2.67991089E+01
 20
9.86474784E+01
  0
VERTEX
  8
0
 62
4
 10
2.69804547E+01
 20
9.85735037E+01
  0
VERTEX
  8
0
 62
4
 10
2.71676571E+01
 20
9.85153757E+01
  0
VERTEX
  8
0
 62
4
 10
2.73592916E+01
 20
9.84735368E+01
  0
VERTEX
  8
0
 62
4
 10
2.75538996E+01
 20
9.84483054E+01
  0
VERTEX
  8
0
 62
4
 10
2.77500000E+01
 20
9.84398736E+01
  0
VERTEX
  8
0
 62
4
 10
2.79461004E+01
 20
9.84483054E+01
  0
VERTEX
  8
0
 62
4
 10
2.81407084E+01
 20
9.84735368E+01
  0
VERTEX
  8
0
 62
4
 10
2.83323428E+01
 20
9.85153757E+01
  0
VERTEX
  8
0
 62
4
 10
2.85195453E+01
 20
9.85735037E+01
  0
VERTEX
  8
0
 62
4
 10
2.87008911E+01
 20
9.86474784E+01
  0
VERTEX
  8
0
 62
4
 10
2.88750000E+01
 20
9.87367368E+01
  0
VERTEX
  8
0
 62
4
 10
2.90405470E+01
 20
9.88405996E+01
  0
VERTEX
  8
0
 62
4
 10
2.91962721E+01
 20
9.89582764E+01
  0
VERTEX
  8
0
 62
4
 10
2.93409903E+01
 20
9.90888715E+01
  0
VERTEX
  8
0
 62
4
 10
2.94736000E+01
 20
9.92313910E+01
  0
VERTEX
  8
0
 62
4
 10
2.95930921E+01
 20
9.93847503E+01
  0
VERTEX
  8
0
 62
4
 10
2.96985572E+01
 20
9.95477823E+01
  0
VERTEX
  8
0
 62
4
 10
2.97891925E+01
 20
9.97192461E+01
  0
VERTEX
  8
0
 62
4
 10
2.98643084E+01
 20
9.98978368E+01
  0
VERTEX
  8
0
 62
4
 10
2.99233331E+01
 20
1.00082195E+02
  0
VERTEX
  8
0
 62
4
 10
2.99658174E+01
 20
1.00270918E+02
  0
VERTEX
  8
0
 62
4
 10
2.99914381E+01
 20
1.00462570E+02
  0
VERTEX
  8
0
 62
4
 10
3.00000000E+01
 20
1.00655691E+02
  0
VERTEX
  8
0
 62
4
 10
2.99914381E+01
 20
1.00848812E+02
  0
VERTEX
  8
0
 62
4
 10
2.99658174E+01
 20
1.01040464E+02
  0
VERTEX
  8
0
 62
4
 10
2.99233331E+01
 20
1.01229187E+02
  0
VERTEX
  8
0
 62
4
 10
2.98643084E+01
 20
1.01413545E+02
  0
VERTEX
  8
0
 62
4
 10
2.97891925E+01
 20
1.01592136E+02
  0
VERTEX
  8
0
 62
4
 10
2.96985572E+01
 20
1.01763600E+02
  0
VERTEX
  8
0
 62
4
 10
2.95930921E+01
 20
1.01926632E+02
  0
VERTEX
  8
0
 62
4
 10
2.94736000E+01
 20
1.02079991E+02
  0
VERTEX
  8
0
 62
4
 10
2.93409903E+01
 20
1.02222511E+02
  0
VERTEX
  8
0
 62
4
 10
2.91962721E+01
 20
1.02353106E+02
  0
VERTEX
  8
0
 62
4
 10
2.90405470E+01
 20
1.02470782E+02
  0
VERTEX
  8
0
 62
4
 10
2.88750000E+01
 20
1.02574645E+02
  0
VERTEX
  8
0
 62
4
 10
2.87008911E+01
 20
1.02663904E+02
  0
VERTEX
  8
0
 62
4
 10
2.85195453E+01
 20
1.02737878E+02
  0
VERTEX
  8
0
 62
4
 10
2.83323429E+01
 20
1.02796006E+02
  0
VERTEX
  8
0
 62
4
 10
2.81407084E+01
 20
1.02837845E+02
  0
VERTEX
  8
0
 62
4
 10
2.79461004E+01
 20
1.02863077E+02
  0
VERTEX
  8
0
 62
4
 10
2.77500000E+01
 20
1.02871508E+02
  0
VERTEX
  8
0
 62
4
 10
2.75538996E+01
 20
1.02863077E+02
  0
VERTEX
  8
0
 62
4
 10
2.73592916E+01
 20
1.02837845E+02
  0
VERTEX
  8
0
 62
4
 10
2.71676572E+01
 20
1.02796006E+02
  0
VERTEX
  8
0
 62
4
 10
2.69804547E+01
 20
1.02737878E+02
  0
VERTEX
  8
0
 62
4
 10
2.67991089E+01
 20
1.02663904E+02
  0
VERTEX
  8
0
 62
4
 10
2.66250000E+01
 20
1.02574645E+02
  0
VERTEX
  8
0
 62
4
 10
2.64594530E+01
 20
1.02470782E+02
  0
VERTEX
  8
0
 62
4
 10
2.63037279E+01
 20
1.02353106E+02
  0
VERTEX
  8
0
 62
4
 10
2.61590097E+01
 20
1.02222511E+02
  0
VERTEX
  8
0
 62
4
 10
2.60264000E+01
 20
1.02079991E+02
  0
VERTEX
  8
0
 62
4
 10
2.59069079E+01
 20
1.01926632E+02
  0
VERTEX
  8
0
 62
4
 10
2.58014428E+01
 20
1.01763600E+02
  0
VERTEX
  8
0
 62
4
 10
2.57108075E+01
 20
1.01592136E+02
  0
VERTEX
  8
0
 62
4
 10
2.56356916E+01
 20
1.01413545E+02
  0
VERTEX
  8
0
 62
4
 10
2.55766669E+01
 20
1.01229187E+02
  0
VERTEX
  8
0
 62
4
 10
2.55341826E+01
 20
1.01040464E+02
  0
VERTEX
  8
0
 62
4
 10
2.55085619E+01
 20
1.00848812E+02
  0
VERTEX
  8
0
 62
4
 10
2.55000000E+01
 20
1.00655691E+02
  0
SEQEND
  8
0
  0
LINE
  8
0
 62
4
 10
2.02500000E+01
 20
9.66470010E+01
 11
3.52500000E+01
 21
9.66470010E+01
  0
LINE
  8
0
 62
4
 10
2.02500000E+01
 20
9.67164603E+01
 11
3.52500000E+01
 21
9.67164603E+01
  0
LINE
  8
0
 62
4
 10
2.02500000E+01
 20
8.92609429E+01
 11
3.52500000E+01
 21
8.92609429E+01
  0
LINE
  8
0
 62
4
 10
5.24999999E+00
 20
7.75208656E+01
 11
2.02500000E+01
 21
7.75208656E+01
  0
LINE
  8
0
 62
4
 10
6.41156398E+00
 20
8.78970144E+01
 11
1.89907473E+01
 21
8.78970144E+01
  0
LINE
  8
0
 62
4
 10
5.24999999E+00
 20
1.03871789E+02
 11
2.02500000E+01
 21
1.03871789E+02
  0
LINE
  8
0
 62
4
 10
5.24999999E+00
 20
1.05087326E+02
 11
3.52500000E+01
 21
1.05087326E+02
  0
LINE
  8
0
 62
4
 10
5.24999999E+00
 20
1.06875902E+02
 11
3.52500000E+01
 21
1.06875902E+02
  0
LINE
  8
0
  6
CENTER
 62
6
 10
3.13245969E+01
 20
1.00655691E+02
 11
2.41754031E+01
 21
1.00655691E+02
  0
LINE
  8
0
  6
CENTER
 62
6
 10
2.77500000E+01
 20
1.04230288E+02
 11
2.77500000E+01
 21
9.70810944E+01
  0
LINE
  8
0
 62
4
 10
3.52500000E+01
 20
1.06875902E+02
 11
3.52500000E+01
 21
8.92609429E+01
  0
LINE
  8
0
 62
4
 10
5.25000000E+00
 20
1.06875902E+02
 11
5.25000000E+00
 21
7.75208656E+01
  0
LINE
  8
0
 62
4
 10
2.02500000E+01
 20
1.05087326E+02
 11
2.02500000E+01
 21
7.75208656E+01
  0
LINE
  8
0
  6
CENTER
 62
6
 10
1.92500000E+01
 20
8.26996244E+01
 11
1.42500000E+01
 21
8.26996244E+01
  0
LINE
  8
0
  6
CENTER
 62
6
 10
1.67500000E+01
 20
8.51996244E+01
 11
1.67500000E+01
 21
8.01996244E+01
  0
LINE
  8
0
  6
CENTER
 62
6
 10
8.75000000E+00
 20
8.51996244E+01
 11
8.75000000E+00
 21
8.01996244E+01
  0
LINE
  8
0
  6
CENTER
 62
6
 10
1.12500000E+01
 20
8.26996244E+01
 11
6.25000000E+00
 21
8.26996244E+01
  0
LINE
  8
0
 62
7
 10
5.25000000E+00
 20
8.95194586E+01
 11
-6.42499695E+01
 21
8.95194586E+01
  0
LINE
  8
0
 62
7
 10
5.25000000E+00
 20
9.03694494E+01
 11
-6.42500000E+01
 21
9.03694494E+01
  0
LINE
  8
0
 62
7
 10
5.25000000E+00
 20
8.42194708E+01
 11
-6.42500000E+01
 21
8.42194708E+01
  0
CIRCLE
  8
0
 62
7
 10
-2.62250092E+02
 20
4.98694799E+01
 40
2.45850000E+00
  0
CIRCLE
  8
0
 62
7
 10
-2.25250031E+02
 20
4.98694799E+01
 40
2.45850000E+00
  0
CIRCLE
  8
0
 62
7
 10
-2.25249908E+02
 20
8.68695410E+01
 40
2.45850000E+00
  0
CIRCLE
  8
0
 62
7
 10
-2.62249969E+02
 20
8.68694647E+01
 40
2.45850000E+00
  0
LINE
  8
0
  6
CENTER
 62
2
 10
-2.25249908E+02
 20
9.53761175E+01
 11
-2.25249908E+02
 21
8.04549749E+01
  0
LINE
  8
0
 62
7
 10
-2.18749969E+02
 20
9.03694952E+01
 11
-2.18749969E+02
 21
4.63694494E+01
  0
LINE
  8
0
 62
7
 10
-2.65750031E+02
 20
9.33694952E+01
 11
-2.21749969E+02
 21
9.33694952E+01
  0
LINE
  8
0
 62
7
 10
-2.65749969E+02
 20
9.28694952E+01
 11
-2.21749969E+02
 21
9.28694342E+01
  0
LINE
  8
0
 62
7
 10
-2.19249969E+02
 20
9.03694342E+01
 11
-2.19249969E+02
 21
4.63694494E+01
  0
LINE
  8
0
 62
7
 10
-2.22749969E+02
 20
6.93694647E+01
 11
-2.26868011E+02
 21
6.93694647E+01
  0
LINE
  8
0
 62
7
 10
-2.30020171E+02
 20
8.06852728E+01
 11
-2.31105648E+02
 21
7.95997966E+01
  0
LINE
  8
0
 62
7
 10
-2.42749969E+02
 20
8.93694647E+01
 11
-2.42749969E+02
 21
8.52514074E+01
  0
LINE
  8
0
 62
7
 10
-2.31434331E+02
 20
8.20994541E+01
 11
-2.32519796E+02
 21
8.10139887E+01
  0
LINE
  8
0
 62
7
 10
-2.21749969E+02
 20
7.33694952E+01
 11
-2.21749969E+02
 21
6.33694342E+01
  0
LINE
  8
0
 62
7
 10
-2.48750031E+02
 20
9.03694952E+01
 11
-2.38749969E+02
 21
9.03694952E+01
  0
LINE
  8
0
  6
CENTER
 62
2
 10
-2.70839874E+02
 20
8.68695410E+01
 11
-2.56173004E+02
 21
8.68695410E+01
  0
LINE
  8
0
  6
CENTER
 62
2
 10
-2.62249969E+02
 20
9.52721136E+01
 11
-2.62249969E+02
 21
7.89851263E+01
  0
LINE
  8
0
 62
7
 10
-2.68750031E+02
 20
9.03694952E+01
 11
-2.68750031E+02
 21
4.63694494E+01
  0
LINE
  8
0
 62
7
 10
-2.68249969E+02
 20
9.03694952E+01
 11
-2.68249969E+02
 21
4.63694799E+01
  0
LINE
  8
0
  6
CENTER
 62
2
 10
-2.62250092E+02
 20
4.12464636E+01
 11
-2.62250092E+02
 21
5.78889654E+01
  0
LINE
  8
0
  6
CENTER
 62
2
 10
-2.70694672E+02
 20
4.98694799E+01
 11
-2.55882599E+02
 21
4.98694799E+01
  0
LINE
  8
0
 62
7
 10
-2.44749969E+02
 20
8.93694647E+01
 11
-2.44749969E+02
 21
8.52514227E+01
  0
LINE
  8
0
 62
7
 10
-2.64749969E+02
 20
6.93694799E+01
 11
-2.60631927E+02
 21
6.93694799E+01
  0
LINE
  8
0
 62
7
 10
-2.57479917E+02
 20
8.06851629E+01
 11
-2.56394440E+02
 21
7.95996869E+01
  0
LINE
  8
0
 62
7
 10
-2.56065746E+02
 20
8.20994200E+01
 11
-2.54980270E+02
 21
8.10139439E+01
  0
LINE
  8
0
 62
7
 10
-2.65749969E+02
 20
7.33694952E+01
 11
-2.65749969E+02
 21
6.33694342E+01
  0
LINE
  8
0
 62
7
 10
-2.64749969E+02
 20
6.73694799E+01
 11
-2.60631927E+02
 21
6.73694799E+01
  0
LINE
  8
0
 62
7
 10
-2.57480042E+02
 20
5.60538779E+01
 11
-2.56394566E+02
 21
5.71393543E+01
  0
LINE
  8
0
 62
7
 10
-2.44750031E+02
 20
4.73694952E+01
 11
-2.44750031E+02
 21
5.14875372E+01
  0
LINE
  8
0
 62
7
 10
-2.56065828E+02
 20
5.46397077E+01
 11
-2.54980363E+02
 21
5.57251733E+01
  0
LINE
  8
0
 62
7
 10
-2.65750031E+02
 20
4.33694494E+01
 11
-2.21749969E+02
 21
4.33694494E+01
  0
LINE
  8
0
 62
7
 10
-2.65750031E+02
 20
4.38694799E+01
 11
-2.21750031E+02
 21
4.38694494E+01
  0
LINE
  8
0
 62
7
 10
-2.42750031E+02
 20
4.73694952E+01
 11
-2.42750031E+02
 21
5.14875372E+01
  0
LINE
  8
0
 62
7
 10
-2.31434331E+02
 20
5.46394471E+01
 11
-2.32519807E+02
 21
5.57249233E+01
  0
LINE
  8
0
 62
7
 10
-2.22749969E+02
 20
6.73694494E+01
 11
-2.26868011E+02
 21
6.73694494E+01
  0
LINE
  8
0
 62
7
 10
-2.30020182E+02
 20
5.60537255E+01
 11
-2.31105615E+02
 21
5.71391586E+01
  0
LINE
  8
0
 62
7
 10
-2.48750031E+02
 20
4.63694342E+01
 11
-2.38749969E+02
 21
4.63694342E+01
  0
LINE
  8
0
  6
CENTER
 62
2
 10
-2.43749969E+02
 20
9.68644598E+01
 11
-2.43749969E+02
 21
3.90682104E+01
  0
LINE
  8
0
  6
CENTER
 62
2
 10
-2.25250031E+02
 20
4.14814108E+01
 11
-2.25250031E+02
 21
5.74458044E+01
  0
LINE
  8
0
 62
7
 10
-2.63749969E+02
 20
9.33694952E+01
 11
-2.63749969E+02
 21
9.28694952E+01
  0
LINE
  8
0
 62
7
 10
-2.23749969E+02
 20
9.33694952E+01
 11
-2.23749969E+02
 21
9.28694342E+01
  0
LINE
  8
0
 62
7
 10
-2.63749969E+02
 20
4.38694799E+01
 11
-2.63749969E+02
 21
4.33694494E+01
  0
LINE
  8
0
 62
7
 10
-2.23749969E+02
 20
4.38694494E+01
 11
-2.23749969E+02
 21
4.33694494E+01
  0
LINE
  8
0
 62
7
 10
-2.54463165E+02
 20
5.03694799E+01
 11
-2.52500031E+02
 21
5.03694799E+01
  0
LINE
  8
0
 62
7
 10
-2.33038055E+02
 20
5.03693884E+01
 11
-2.34999969E+02
 21
5.03693884E+01
  0
LINE
  8
0
 62
7
 10
-2.25750031E+02
 20
5.76568640E+01
 11
-2.25750031E+02
 21
5.96194342E+01
  0
LINE
  8
0
 62
7
 10
-2.25749908E+02
 20
7.90807684E+01
 11
-2.25749908E+02
 21
7.71194952E+01
  0
LINE
  8
0
 62
7
 10
-2.54461700E+02
 20
8.63695562E+01
 11
-2.52500031E+02
 21
8.63695562E+01
  0
LINE
  8
0
 62
7
 10
-2.61749969E+02
 20
7.90816229E+01
 11
-2.61749969E+02
 21
7.71194952E+01
  0
LINE
  8
0
 62
7
 10
-2.61749969E+02
 20
5.76573065E+01
 11
-2.61749969E+02
 21
5.96194342E+01
  0
LINE
  8
0
  6
CENTER
 62
2
 10
-2.31631378E+02
 20
4.98694799E+01
 11
-2.17109711E+02
 21
4.98694799E+01
  0
LINE
  8
0
  6
CENTER
 62
2
 10
-2.31631378E+02
 20
8.68695410E+01
 11
-2.17109711E+02
 21
8.68695410E+01
  0
LINE
  8
0
  6
CENTER
 62
2
 10
-2.14777649E+02
 20
6.83694647E+01
 11
-2.73453766E+02
 21
6.83694647E+01
  0
LINE
  8
0
 62
7
 10
-2.33136932E+02
 20
8.63986547E+01
 11
-2.35167023E+02
 21
8.63986547E+01
  0
LINE
  8
0
  6
CENTER
 62
2
 10
-2.47750031E+02
 20
9.51218603E+01
 11
-2.47750031E+02
 21
8.39412573E+01
  0
ARC
  8
0
 62
7
 10
-2.21749969E+02
 20
9.03694342E+01
 40
2.50000000E+00
 50
0.00000000E+00
 51
8.99999818E+01
  0
CIRCLE
  8
0
 62
7
 10
-2.25249908E+02
 20
8.68694647E+01
 40
5.00000000E+00
  0
CIRCLE
  8
0
 62
7
 10
-2.25249908E+02
 20
8.68694647E+01
 40
4.50000000E+00
  0
ARC
  8
0
 62
7
 10
-2.32141388E+02
 20
8.28064459E+01
 40
1.00000000E+00
 50
3.15000624E+02
 51
3.05224488E+01
  0
ARC
  8
0
 62
7
 10
-2.22749969E+02
 20
7.03694647E+01
 40
1.00000000E+00
 50
2.69999963E+02
 51
0.00000000E+00
  0
ARC
  8
0
 62
7
 10
-2.26868011E+02
 20
7.03694647E+01
 40
1.00000000E+00
 50
1.86756090E+02
 51
2.69999963E+02
  0
ARC
  8
0
 62
7
 10
-2.29312958E+02
 20
7.99780310E+01
 40
1.00000000E+00
 50
5.94777518E+01
 51
1.34999345E+02
  0
ARC
  8
0
 62
7
 10
-2.41749969E+02
 20
8.93694647E+01
 40
1.00000000E+00
 50
8.99999818E+01
 51
1.79999964E+02
  0
ARC
  8
0
 62
7
 10
-2.41749969E+02
 20
8.52514074E+01
 40
1.00000000E+00
 50
1.79999964E+02
 51
2.63243741E+02
  0
ARC
  8
0
 62
7
 10
-2.30398407E+02
 20
7.88925512E+01
 40
1.00000000E+00
 50
1.34999959E+02
 51
2.18243614E+02
  0
ARC
  8
0
 62
7
 10
-2.33226837E+02
 20
8.17209814E+01
 40
1.00000000E+00
 50
2.31755794E+02
 51
3.14999380E+02
  0
ARC
  8
0
 62
7
 10
-2.21749969E+02
 20
9.03694952E+01
 40
3.00000000E+00
 50
0.00000000E+00
 51
8.99999818E+01
  0
ARC
  8
0
 62
7
 10
-2.22749969E+02
 20
7.33694952E+01
 40
1.00000000E+00
 50
0.00000000E+00
 51
8.99999818E+01
  0
ARC
  8
0
 62
7
 10
-2.22749969E+02
 20
7.73694952E+01
 40
3.00000000E+00
 50
1.77973583E+02
 51
2.69999946E+02
  0
ARC
  8
0
 62
7
 10
-2.26747467E+02
 20
7.90109289E+01
 40
1.00000000E+00
 50
3.57973879E+02
 51
7.92109058E+01
  0
ARC
  8
0
 62
7
 10
-2.25249969E+02
 20
8.68695257E+01
 40
7.00000000E+00
 50
1.90788702E+02
 51
2.59211358E+02
  0
ARC
  8
0
 62
7
 10
-2.33108551E+02
 20
8.53720281E+01
 40
1.00000000E+00
 50
1.07884614E+01
 51
9.20251808E+01
  0
ARC
  8
0
 62
7
 10
-2.34749969E+02
 20
8.93695257E+01
 40
3.00000000E+00
 50
1.80000569E+02
 51
2.72025811E+02
  0
ARC
  8
0
 62
7
 10
-2.38749969E+02
 20
8.93694952E+01
 40
1.00000000E+00
 50
0.00000000E+00
 51
8.99999818E+01
  0
ARC
  8
0
 62
7
 10
-2.65750031E+02
 20
4.63694799E+01
 40
2.50000000E+00
 50
1.79999964E+02
 51
2.69999946E+02
  0
ARC
  8
0
 62
7
 10
-2.65749969E+02
 20
9.03694952E+01
 40
2.50000000E+00
 50
8.99999818E+01
 51
1.79999964E+02
  0
ARC
  8
0
 62
7
 10
-2.65750031E+02
 20
9.03694952E+01
 40
3.00000000E+00
 50
8.99999818E+01
 51
1.79999964E+02
  0
ARC
  8
0
 62
7
 10
-2.65750031E+02
 20
4.63694494E+01
 40
3.00000000E+00
 50
1.79999964E+02
 51
2.69999946E+02
  0
CIRCLE
  8
0
 62
7
 10
-2.62249969E+02
 20
8.68695257E+01
 40
4.50000000E+00
  0
CIRCLE
  8
0
 62
7
 10
-2.62249969E+02
 20
8.68695257E+01
 40
5.00000000E+00
  0
CIRCLE
  8
0
 62
7
 10
-2.62250031E+02
 20
4.98694647E+01
 40
4.50000000E+00
  0
CIRCLE
  8
0
 62
7
 10
-2.62250031E+02
 20
4.98694647E+01
 40
5.00000000E+00
  0
ARC
  8
0
 62
7
 10
-2.64749969E+02
 20
7.03694647E+01
 40
1.00000000E+00
 50
1.79999964E+02
 51
2.69999946E+02
  0
ARC
  8
0
 62
7
 10
-2.45749969E+02
 20
8.93694647E+01
 40
1.00000000E+00
 50
3.59999959E+02
 51
8.99999956E+01
  0
ARC
  8
0
 62
7
 10
-2.55358551E+02
 20
8.28065069E+01
 40
1.00000000E+00
 50
1.49477747E+02
 51
2.24999340E+02
  0
ARC
  8
0
 62
7
 10
-2.62249969E+02
 20
8.68695257E+01
 40
7.00000000E+00
 50
2.80788623E+02
 51
3.49211279E+02
  0
ARC
  8
0
 62
7
 10
-2.58186981E+02
 20
7.99780767E+01
 40
1.00000000E+00
 50
4.50006194E+01
 51
1.20522431E+02
  0
ARC
  8
0
 62
7
 10
-2.45749969E+02
 20
8.52514227E+01
 40
1.00000000E+00
 50
2.76756086E+02
 51
3.59999959E+02
  0
ARC
  8
0
 62
7
 10
-2.54273102E+02
 20
8.17210577E+01
 40
1.00000000E+00
 50
2.24999972E+02
 51
3.08243613E+02
  0
ARC
  8
0
 62
7
 10
-2.57101532E+02
 20
7.88926275E+01
 40
1.00000000E+00
 50
3.21755790E+02
 51
4.49993763E+01
  0
ARC
  8
0
 62
7
 10
-2.60631927E+02
 20
7.03694647E+01
 40
1.00000000E+00
 50
2.69999963E+02
 51
3.53243768E+02
  0
ARC
  8
0
 62
7
 10
-2.55358612E+02
 20
5.39324835E+01
 40
1.00000000E+00
 50
1.35000615E+02
 51
2.10522426E+02
  0
ARC
  8
0
 62
7
 10
-2.64749969E+02
 20
6.63694647E+01
 40
1.00000000E+00
 50
8.99999549E+01
 51
1.79999991E+02
  0
ARC
  8
0
 62
7
 10
-2.60631927E+02
 20
6.63694647E+01
 40
1.00000000E+00
 50
6.75608163E+00
 51
8.99999549E+01
  0
ARC
  8
0
 62
7
 10
-2.58187042E+02
 20
5.67608831E+01
 40
1.00000000E+00
 50
2.39477760E+02
 51
3.14999353E+02
  0
ARC
  8
0
 62
7
 10
-2.45749969E+02
 20
4.73694647E+01
 40
1.00000000E+00
 50
2.69999991E+02
 51
3.59999973E+02
  0
ARC
  8
0
 62
7
 10
-2.45749969E+02
 20
5.14875067E+01
 40
1.00000000E+00
 50
3.59999973E+02
 51
8.32437569E+01
  0
ARC
  8
0
 62
7
 10
-2.57101593E+02
 20
5.78463629E+01
 40
1.00000000E+00
 50
3.14999968E+02
 51
3.82436225E+01
  0
ARC
  8
0
 62
7
 10
-2.54273163E+02
 20
5.50179327E+01
 40
1.00000000E+00
 50
5.17557857E+01
 51
1.34999372E+02
  0
ARC
  8
0
 62
7
 10
-2.64749969E+02
 20
7.73694952E+01
 40
3.00000000E+00
 50
2.70000018E+02
 51
0.00000000E+00
  0
ARC
  8
0
 62
7
 10
-2.52750031E+02
 20
8.93695257E+01
 40
3.00000000E+00
 50
2.67974177E+02
 51
3.59999417E+02
  0
ARC
  8
0
 62
7
 10
-2.64749969E+02
 20
7.33694952E+01
 40
1.00000000E+00
 50
8.99999818E+01
 51
1.79999964E+02
  0
ARC
  8
0
 62
7
 10
-2.60752472E+02
 20
7.90109289E+01
 40
1.00000000E+00
 50
1.00789058E+02
 51
1.82026085E+02
  0
ARC
  8
0
 62
7
 10
-2.48750031E+02
 20
8.93694952E+01
 40
1.00000000E+00
 50
8.99999818E+01
 51
1.79999964E+02
  0
ARC
  8
0
 62
7
 10
-2.54391388E+02
 20
8.53720281E+01
 40
1.00000000E+00
 50
8.79747829E+01
 51
1.69211502E+02
  0
ARC
  8
0
 62
7
 10
-2.60752472E+02
 20
5.77280004E+01
 40
1.00000000E+00
 50
1.77973898E+02
 51
2.59210925E+02
  0
ARC
  8
0
 62
7
 10
-2.62249969E+02
 20
4.98694036E+01
 40
7.00000000E+00
 50
1.07887209E+01
 51
7.92113774E+01
  0
ARC
  8
0
 62
7
 10
-2.54391388E+02
 20
5.13669012E+01
 40
1.00000000E+00
 50
1.90788497E+02
 51
2.72025217E+02
  0
ARC
  8
0
 62
7
 10
-2.52750031E+02
 20
4.73694036E+01
 40
3.00000000E+00
 50
5.82842824E-04
 51
9.20258231E+01
  0
ARC
  8
0
 62
7
 10
-2.48750031E+02
 20
4.73694342E+01
 40
1.00000000E+00
 50
1.80000036E+02
 51
2.70000018E+02
  0
ARC
  8
0
 62
7
 10
-2.21750031E+02
 20
4.63694494E+01
 40
2.50000000E+00
 50
2.69999963E+02
 51
0.00000000E+00
  0
ARC
  8
0
 62
7
 10
-2.21749969E+02
 20
4.63694494E+01
 40
3.00000000E+00
 50
2.69999963E+02
 51
0.00000000E+00
  0
CIRCLE
  8
0
 62
7
 10
-2.25249969E+02
 20
4.98694036E+01
 40
4.50000000E+00
  0
CIRCLE
  8
0
 62
7
 10
-2.25249969E+02
 20
4.98694036E+01
 40
5.00000000E+00
  0
ARC
  8
0
 62
7
 10
-2.29313019E+02
 20
5.67608526E+01
 40
1.00000000E+00
 50
2.25000628E+02
 51
3.00522440E+02
  0
ARC
  8
0
 62
7
 10
-2.41749969E+02
 20
4.73694647E+01
 40
1.00000000E+00
 50
1.79999951E+02
 51
2.70000001E+02
  0
ARC
  8
0
 62
7
 10
-2.41749969E+02
 20
5.14875067E+01
 40
1.00000000E+00
 50
9.67560773E+01
 51
1.79999951E+02
  0
ARC
  8
0
 62
7
 10
-2.32141388E+02
 20
5.39324224E+01
 40
1.00000000E+00
 50
3.29477756E+02
 51
4.49993490E+01
  0
ARC
  8
0
 62
7
 10
-2.22749969E+02
 20
6.63694647E+01
 40
1.00000000E+00
 50
3.59999986E+02
 51
8.99999681E+01
  0
ARC
  8
0
 62
7
 10
-2.26868011E+02
 20
6.63694647E+01
 40
1.00000000E+00
 50
8.99999681E+01
 51
1.73243759E+02
  0
ARC
  8
0
 62
7
 10
-2.33226898E+02
 20
5.50178717E+01
 40
1.00000000E+00
 50
4.49999637E+01
 51
1.28243618E+02
  0
ARC
  8
0
 62
7
 10
-2.30398468E+02
 20
5.78463018E+01
 40
1.00000000E+00
 50
1.41755781E+02
 51
2.24999368E+02
  0
ARC
  8
0
 62
7
 10
-2.38749969E+02
 20
4.73694342E+01
 40
1.00000000E+00
 50
2.70000018E+02
 51
0.00000000E+00
  0
ARC
  8
0
 62
7
 10
-2.34749969E+02
 20
4.73694036E+01
 40
3.00000000E+00
 50
8.79741887E+01
 51
1.79999431E+02
  0
ARC
  8
0
 62
7
 10
-2.33108551E+02
 20
5.13669012E+01
 40
1.00000000E+00
 50
2.67974819E+02
 51
3.49211538E+02
  0
ARC
  8
0
 62
7
 10
-2.25249969E+02
 20
4.98694036E+01
 40
7.00000000E+00
 50
1.00788641E+02
 51
1.69211298E+02
  0
ARC
  8
0
 62
7
 10
-2.26747467E+02
 20
5.77280004E+01
 40
1.00000000E+00
 50
2.80789094E+02
 51
2.02612098E+00
  0
ARC
  8
0
 62
7
 10
-2.22749969E+02
 20
5.93694342E+01
 40
3.00000000E+00
 50
9.00000369E+01
 51
1.82026399E+02
  0
ARC
  8
0
 62
7
 10
-2.22749969E+02
 20
6.33694342E+01
 40
1.00000000E+00
 50
2.70000018E+02
 51
0.00000000E+00
  0
CIRCLE
  8
0
 62
7
 10
-2.43749969E+02
 20
6.83694647E+01
 40
1.60000000E+01
  0
CIRCLE
  8
0
 62
7
 10
-2.43749969E+02
 20
6.83694647E+01
 40
1.55000010E+01
  0
CIRCLE
  8
0
 62
7
 10
-2.43749969E+02
 20
6.83694647E+01
 40
1.50000000E+01
  0
ARC
  8
0
 62
7
 10
-2.64749969E+02
 20
5.93694342E+01
 40
3.00000000E+00
 50
3.57973625E+02
 51
8.99999818E+01
  0
ARC
  8
0
 62
7
 10
-2.64749969E+02
 20
6.33694342E+01
 40
1.00000000E+00
 50
1.79999981E+02
 51
2.70000018E+02
  0
CIRCLE
  8
0
 62
2
 10
-2.62249969E+02
 20
8.68695410E+01
 40
3.00000000E+00
  0
CIRCLE
  8
0
 62
2
 10
-2.62250092E+02
 20
4.98694799E+01
 40
3.00000000E+00
  0
CIRCLE
  8
0
 62
2
 10
-2.25250031E+02
 20
4.98694799E+01
 40
3.00000000E+00
  0
CIRCLE
  8
0
 62
2
 10
-2.25249908E+02
 20
8.68695410E+01
 40
3.00000000E+00
  0
CIRCLE
  8
0
 62
4
 10
-2.43749969E+02
 20
6.83694647E+01
 40
1.10000000E+01
  0
LINE
  8
0
 62
4
 10
-2.43749969E+02
 20
8.10711706E+01
 11
-2.54749969E+02
 21
7.47203176E+01
  0
LINE
  8
0
 62
4
 10
-2.54749969E+02
 20
7.47203176E+01
 11
-2.54749969E+02
 21
6.20186117E+01
  0
LINE
  8
0
 62
4
 10
-2.54749969E+02
 20
6.20186117E+01
 11
-2.43749969E+02
 21
5.56677587E+01
  0
LINE
  8
0
 62
4
 10
-2.43749969E+02
 20
5.56677587E+01
 11
-2.32749969E+02
 21
6.20186117E+01
  0
LINE
  8
0
 62
4
 10
-2.32749969E+02
 20
6.20186117E+01
 11
-2.32749969E+02
 21
7.47203176E+01
  0
LINE
  8
0
 62
4
 10
-2.32749969E+02
 20
7.47203176E+01
 11
-2.43749969E+02
 21
8.10711706E+01
  0
CIRCLE
  8
0
 62
7
 10
-2.43749969E+02
 20
6.83694647E+01
 40
6.00000000E+00
  0
CIRCLE
  8
0
 62
2
 10
-2.43749969E+02
 20
6.83694647E+01
 40
5.30001831E+00
  0
LINE
  8
0
  6
DASHED
 62
4
 10
-2.43749939E+02
 20
9.52087285E+01
 11
-2.44166455E+02
 21
9.52821716E+01
  0
LINE
  8
0
  6
DASHED
 62
4
 10
-2.43305871E+02
 20
9.94459906E+01
 11
-2.43418602E+02
 21
9.94658681E+01
  0
ARC
  8
0
 62
4
 10
-2.32448905E+02
 20
1.00984065E+02
 40
1.18100000E+01
 50
1.57172490E+02
 51
1.63117791E+02
  0
LINE
  8
0
 62
4
 10
-2.42433194E+02
 20
9.49765508E+01
 11
-2.43749939E+02
 21
9.52087285E+01
  0
ARC
  8
0
  6
DASHED
 62
4
 10
-2.32552758E+02
 20
9.74562415E+01
 40
1.18100000E+01
 50
1.67900933E+02
 51
1.70000000E+02
  0
ARC
  8
0
  6
DASHED
 62
4
 10
-2.32555445E+02
 20
9.74410000E+01
 40
1.18100000E+01
 50
1.70000000E+02
 51
1.90532699E+02
  0
ARC
  8
0
  6
DASHED
 62
4
 10
-2.43245745E+02
 20
1.00450815E+02
 40
1.00000000E+00
 50
1.82827510E+02
 51
2.60000000E+02
  0
LINE
  8
0
 62
4
 10
-2.42305770E+02
 20
9.92696456E+01
 11
-2.43305871E+02
 21
9.94459906E+01
  0
ARC
  8
0
  6
DASHED
 62
4
 10
-2.32448905E+02
 20
1.00984065E+02
 40
1.18100000E+01
 50
1.63117791E+02
 51
1.82827510E+02
  0
LINE
  8
0
 62
4
 10
-2.41124962E+02
 20
1.05966338E+02
 11
-2.42237795E+02
 21
1.06162561E+02
  0
ARC
  8
0
 62
4
 10
-2.42412233E+02
 20
1.05177893E+02
 40
1.00000000E+00
 50
7.99999999E+01
 51
1.57172490E+02
  0
LINE
  8
0
 62
4
 10
-2.15323600E+02
 20
8.01944458E+01
 11
-2.14629007E+02
 21
8.41336768E+01
  0
LINE
  8
0
 62
6
 10
-2.15236775E+02
 20
8.06868497E+01
 11
-2.18274537E+02
 21
8.12224890E+01
  0
LINE
  8
0
 62
6
 10
-2.14715831E+02
 20
8.36412730E+01
 11
-2.17753593E+02
 21
8.41769123E+01
  0
LINE
  8
0
 62
4
 10
-2.15323600E+02
 20
8.01944458E+01
 11
-2.18361361E+02
 21
8.07300852E+01
  0
LINE
  8
0
 62
4
 10
-2.14629007E+02
 20
8.41336768E+01
 11
-2.17666769E+02
 21
8.46693162E+01
  0
LINE
  8
0
  6
CENTER
 62
6
 10
-2.37462126E+02
 20
9.33384475E+01
 11
-2.43370972E+02
 21
9.43803365E+01
  0
LINE
  8
0
  6
CENTER
 62
6
 10
-2.39895604E+02
 20
9.68138152E+01
 11
-2.40937493E+02
 21
9.09049687E+01
  0
LINE
  8
0
 62
4
 10
-2.42038868E+02
 20
9.61763038E+01
 11
-2.42533784E+02
 21
9.33694952E+01
  0
LINE
  8
0
 62
4
 10
-2.38099637E+02
 20
9.54817111E+01
 11
-2.42038868E+02
 21
9.61763038E+01
  0
LINE
  8
0
 62
4
 10
-2.30887708E+02
 20
9.66470773E+01
 11
-2.31465634E+02
 21
9.33694952E+01
  0
LINE
  8
0
 62
4
 10
-2.39949141E+02
 20
1.06875979E+02
 11
-2.29805622E+02
 21
1.05087402E+02
  0
LINE
  8
0
 62
4
 10
-2.29805622E+02
 20
1.05087402E+02
 11
-2.31281631E+02
 21
9.67165366E+01
  0
LINE
  8
0
 62
4
 10
-2.38082272E+02
 20
9.55801919E+01
 11
-2.38574676E+02
 21
9.56670160E+01
  0
LINE
  8
0
 62
4
 10
-2.38082272E+02
 20
9.55801919E+01
 11
-2.38472078E+02
 21
9.33694952E+01
  0
LINE
  8
0
 62
4
 10
-2.38899140E+02
 20
9.61303984E+01
 11
-2.41755082E+02
 21
9.66339781E+01
  0
LINE
  8
0
 62
4
 10
-2.38574676E+02
 20
9.56670160E+01
 11
-2.38899140E+02
 21
9.61303984E+01
  0
LINE
  8
0
  6
CENTER
 62
6
 10
-2.19814732E+02
 20
9.87563194E+01
 11
-2.41899105E+02
 21
1.02650390E+02
  0
LINE
  8
0
  6
CENTER
 62
6
 10
-2.29656368E+02
 20
9.69376722E+01
 11
-2.42506873E+02
 21
9.92035630E+01
  0
LINE
  8
0
  6
CENTER
 62
6
 10
-2.23681960E+02
 20
8.36991035E+01
 11
-2.16215956E+02
 21
8.23826456E+01
  0
ARC
  8
0
 62
4
 10
-2.30876051E+02
 20
9.61373086E+01
 40
5.00000000E-01
 50
3.50000000E+02
 51
7.99999999E+01
  0
LINE
  8
0
 62
4
 10
-2.30383647E+02
 20
9.60504845E+01
 11
-2.30856378E+02
 21
9.33694952E+01
  0
LINE
  8
0
 62
4
 10
-2.31281631E+02
 20
9.67165366E+01
 11
-2.30789227E+02
 21
9.66297125E+01
  0
ARC
  8
0
 62
4
 10
-2.20185869E+02
 20
7.90209419E+01
 40
1.50000000E+00
 50
3.43189498E+02
 51
3.50000000E+02
  0
LINE
  8
0
 62
4
 10
-2.22911967E+02
 20
1.03871865E+02
 11
-2.17097625E+02
 21
8.78970907E+01
  0
LINE
  8
0
 62
4
 10
-2.29805622E+02
 20
1.05087402E+02
 11
-2.22911967E+02
 21
1.03871865E+02
  0
LINE
  8
0
 62
4
 10
-2.17097625E+02
 20
8.78970907E+01
 11
-2.18708658E+02
 21
7.87604697E+01
  0
ARC
  8
0
 62
4
 10
-2.40416549E+02
 20
9.38593920E+01
 40
1.50000000E+00
 50
3.40937591E+02
 51
1.99062409E+02
  0
ARC
  8
0
 62
4
 10
-2.40546785E+02
 20
9.31207862E+01
 40
3.00000000E-01
 50
5.59992305E+01
 51
1.24000769E+02
  0
CIRCLE
  8
0
 62
4
 10
-2.40286313E+02
 20
9.45979978E+01
 40
3.00000000E-01
  0
CIRCLE
  8
0
 62
4
 10
-2.40286313E+02
 20
9.45979978E+01
 40
5.00000000E-01
  0
ARC
  8
0
 62
4
 10
-2.40546785E+02
 20
9.31207862E+01
 40
5.00000000E-01
 50
2.98293252E+01
 51
1.50170675E+02
  0
LINE
  8
0
 62
4
 10
-2.41390421E+02
 20
9.87020744E+01
 11
-2.42375229E+02
 21
9.88757225E+01
  0
LINE
  8
0
 62
4
 10
-2.40070695E+02
 20
1.06186613E+02
 11
-2.41055503E+02
 21
1.06360261E+02
  0
LINE
  8
0
 62
4
 10
-2.42375229E+02
 20
9.88757225E+01
 11
-2.41055503E+02
 21
1.06360261E+02
  0
LINE
  8
0
 62
4
 10
-2.42433194E+02
 20
9.49765508E+01
 11
-2.41764648E+02
 21
9.87680607E+01
  0
LINE
  8
0
 62
4
 10
-2.42032919E+02
 20
9.50582857E+01
 11
-2.42407146E+02
 21
9.51242720E+01
  0
LINE
  8
0
 62
4
 10
-2.42032920E+02
 20
9.50582857E+01
 11
-2.39949141E+02
 21
1.06875979E+02
  0
LINE
  8
0
 62
4
 10
-2.45657971E+02
 20
9.61415742E+01
 11
-2.47550737E+02
 21
1.06875979E+02
  0
ARC
  8
0
 62
4
 10
-2.54944433E+02
 20
9.74410000E+01
 40
1.18100000E+01
 50
3.49467301E+02
 51
9.99999999E+00
  0
ARC
  8
0
 62
4
 10
-2.54947120E+02
 20
9.74562415E+01
 40
1.18100000E+01
 50
9.99999999E+00
 51
3.05326991E+01
  0
LINE
  8
0
 62
4
 10
-2.45066684E+02
 20
9.49765508E+01
 11
-2.43333423E+02
 21
9.52821716E+01
  0
LINE
  8
0
 62
4
 10
-2.46507964E+02
 20
1.03150455E+02
 11
-2.44774702E+02
 21
1.03456076E+02
  0
LINE
  8
0
 62
4
 10
-2.45269997E+02
 20
9.50930153E+01
 11
-2.45092731E+02
 21
9.51242720E+01
  0
LINE
  8
0
 62
4
 10
-2.46856144E+02
 20
1.02936748E+02
 11
-2.46481917E+02
 21
1.03002734E+02
  0
LINE
  8
0
 62
4
 10
-2.45066684E+02
 20
9.49765508E+01
 11
-2.46507964E+02
 21
1.03150455E+02
  0
LINE
  8
0
 62
4
 10
-2.45897383E+02
 20
1.03258117E+02
 11
-2.46444375E+02
 21
1.06360261E+02
  0
LINE
  8
0
 62
4
 10
-2.46374916E+02
 20
1.05966338E+02
 11
-2.45262083E+02
 21
1.06162561E+02
  0
ARC
  8
0
 62
4
 10
-2.55050973E+02
 20
1.00984065E+02
 40
1.18100000E+01
 50
3.57172490E+02
 51
2.28275100E+01
  0
ARC
  8
0
 62
4
 10
-2.45087645E+02
 20
1.05177893E+02
 40
1.00000000E+00
 50
2.28275100E+01
 51
9.99999999E+01
  0
ARC
  8
0
 62
4
 10
-2.44254133E+02
 20
1.00450815E+02
 40
1.00000000E+00
 50
3.28723662E+02
 51
3.57172490E+02
  0
LINE
  8
0
 62
4
 10
-2.47429183E+02
 20
1.06186613E+02
 11
-2.46444375E+02
 21
1.06360261E+02
  0
LINE
  8
0
  6
CENTER
 62
6
 10
-2.50037752E+02
 20
9.33384475E+01
 11
-2.44128906E+02
 21
9.43803365E+01
  0
LINE
  8
0
  6
CENTER
 62
6
 10
-2.47604274E+02
 20
9.68138152E+01
 11
-2.46562384E+02
 21
9.09049687E+01
  0
LINE
  8
0
 62
4
 10
-2.45461010E+02
 20
9.61763038E+01
 11
-2.44966094E+02
 21
9.33694952E+01
  0
LINE
  8
0
 62
4
 10
-2.49400241E+02
 20
9.54817111E+01
 11
-2.45461010E+02
 21
9.61763038E+01
  0
LINE
  8
0
 62
4
 10
-2.48397308E+02
 20
9.47751341E+01
 11
-2.46166719E+02
 21
9.51684472E+01
  0
LINE
  8
0
 62
4
 10
-2.49400241E+02
 20
9.54817111E+01
 11
-2.48397308E+02
 21
9.47751341E+01
  0
LINE
  8
0
 62
4
 10
-2.45461010E+02
 20
9.61763038E+01
 11
-2.46166719E+02
 21
9.51684472E+01
  0
LINE
  8
0
 62
4
 10
-2.48149456E+02
 20
9.33694952E+01
 11
-2.48397308E+02
 21
9.47751341E+01
  0
LINE
  8
0
 62
4
 10
-2.46166719E+02
 20
9.51684472E+01
 11
-2.45849515E+02
 21
9.33694952E+01
  0
LINE
  8
0
 62
4
 10
-2.56612170E+02
 20
9.66470773E+01
 11
-2.56034244E+02
 21
9.33694952E+01
  0
LINE
  8
0
 62
4
 10
-2.47550737E+02
 20
1.06875979E+02
 11
-2.57694256E+02
 21
1.05087402E+02
  0
LINE
  8
0
 62
4
 10
-2.57694256E+02
 20
1.05087402E+02
 11
-2.56218247E+02
 21
9.67165366E+01
  0
LINE
  8
0
 62
4
 10
-2.49417606E+02
 20
9.55801919E+01
 11
-2.48925202E+02
 21
9.56670160E+01
  0
LINE
  8
0
 62
4
 10
-2.49417606E+02
 20
9.55801919E+01
 11
-2.49027800E+02
 21
9.33694952E+01
  0
LINE
  8
0
 62
4
 10
-2.48600738E+02
 20
9.61303984E+01
 11
-2.45744796E+02
 21
9.66339781E+01
  0
LINE
  8
0
 62
4
 10
-2.48925202E+02
 20
9.56670160E+01
 11
-2.48600738E+02
 21
9.61303984E+01
  0
LINE
  8
0
  6
CENTER
 62
6
 10
-2.67685146E+02
 20
9.87563194E+01
 11
-2.45600773E+02
 21
1.02650390E+02
  0
LINE
  8
0
  6
CENTER
 62
6
 10
-2.57843510E+02
 20
9.69376722E+01
 11
-2.44993005E+02
 21
9.92035630E+01
  0
LINE
  8
0
  6
CENTER
 62
6
 10
-2.63408852E+02
 20
8.37712328E+01
 11
-2.70874857E+02
 21
8.24547748E+01
  0
ARC
  8
0
 62
4
 10
-2.56623827E+02
 20
9.61373086E+01
 40
5.00000000E-01
 50
9.99999999E+01
 51
1.90000000E+02
  0
LINE
  8
0
 62
4
 10
-2.57116231E+02
 20
9.60504845E+01
 11
-2.56643500E+02
 21
9.33694952E+01
  0
LINE
  8
0
 62
4
 10
-2.56218247E+02
 20
9.67165366E+01
 11
-2.56710651E+02
 21
9.66297125E+01
  0
ARC
  8
0
 62
4
 10
-2.67314009E+02
 20
7.90209419E+01
 40
1.50000000E+00
 50
1.90000000E+02
 51
1.96794373E+02
  0
LINE
  8
0
 62
4
 10
-2.64587911E+02
 20
1.03871865E+02
 11
-2.70402253E+02
 21
8.78970907E+01
  0
LINE
  8
0
 62
4
 10
-2.57694256E+02
 20
1.05087402E+02
 11
-2.64587911E+02
 21
1.03871865E+02
  0
LINE
  8
0
 62
4
 10
-2.70402253E+02
 20
8.78970907E+01
 11
-2.68791220E+02
 21
7.87604697E+01
  0
LINE
  8
0
 62
4
 10
-2.72870871E+02
 20
8.41336768E+01
 11
-2.69833109E+02
 21
8.46693162E+01
  0
LINE
  8
0
 62
4
 10
-2.72176278E+02
 20
8.01944458E+01
 11
-2.69138517E+02
 21
8.07300852E+01
  0
LINE
  8
0
 62
4
 10
-2.72176278E+02
 20
8.01944458E+01
 11
-2.72870871E+02
 21
8.41336768E+01
  0
LINE
  8
0
 62
6
 10
-2.72784047E+02
 20
8.36412730E+01
 11
-2.69746285E+02
 21
8.41769123E+01
  0
LINE
  8
0
 62
6
 10
-2.72263102E+02
 20
8.06868497E+01
 11
-2.69225341E+02
 21
8.12224890E+01
  0
CIRCLE
  8
0
 62
7
 10
1.77094452E+02
 20
4.98694799E+01
 40
2.45850000E+00
  0
CIRCLE
  8
0
 62
7
 10
2.14094513E+02
 20
4.98694799E+01
 40
2.45850000E+00
  0
CIRCLE
  8
0
 62
7
 10
2.14094391E+02
 20
8.68695410E+01
 40
2.45850000E+00
  0
CIRCLE
  8
0
 62
7
 10
1.77094330E+02
 20
8.68695410E+01
 40
2.45850000E+00
  0
LINE
  8
0
  6
CENTER
 62
2
 10
1.99594452E+02
 20
9.51218603E+01
 11
1.99594452E+02
 21
8.39412573E+01
  0
LINE
  8
0
  6
CENTER
 62
2
 10
1.77094330E+02
 20
9.53761175E+01
 11
1.77094330E+02
 21
8.04549749E+01
  0
LINE
  8
0
 62
7
 10
1.70594391E+02
 20
9.03694952E+01
 11
1.70594391E+02
 21
4.63694494E+01
  0
LINE
  8
0
 62
7
 10
1.73594391E+02
 20
9.28694342E+01
 11
2.17594391E+02
 21
9.28694952E+01
  0
LINE
  8
0
 62
7
 10
1.71094391E+02
 20
9.03694342E+01
 11
1.71094391E+02
 21
4.63694494E+01
  0
LINE
  8
0
 62
7
 10
1.74594391E+02
 20
6.93694647E+01
 11
1.78712433E+02
 21
6.93694647E+01
  0
LINE
  8
0
 62
7
 10
1.81864582E+02
 20
8.06852736E+01
 11
1.82950059E+02
 21
7.95997974E+01
  0
LINE
  8
0
 62
7
 10
1.94594391E+02
 20
8.93694647E+01
 11
1.94594391E+02
 21
8.52514074E+01
  0
LINE
  8
0
 62
7
 10
1.83278742E+02
 20
8.20994549E+01
 11
1.84364208E+02
 21
8.10139894E+01
  0
LINE
  8
0
 62
7
 10
1.73594391E+02
 20
7.33694952E+01
 11
1.73594391E+02
 21
6.33694342E+01
  0
LINE
  8
0
  6
CENTER
 62
2
 10
2.22684296E+02
 20
8.68695410E+01
 11
2.08017426E+02
 21
8.68695410E+01
  0
LINE
  8
0
  6
CENTER
 62
2
 10
2.14094391E+02
 20
9.52721136E+01
 11
2.14094391E+02
 21
7.89851263E+01
  0
LINE
  8
0
 62
7
 10
1.73594391E+02
 20
9.33694952E+01
 11
2.17594452E+02
 21
9.33694952E+01
  0
LINE
  8
0
 62
7
 10
2.20594452E+02
 20
9.03694952E+01
 11
2.20594452E+02
 21
4.63694494E+01
  0
LINE
  8
0
 62
7
 10
2.20094391E+02
 20
9.03694952E+01
 11
2.20094391E+02
 21
4.63694799E+01
  0
LINE
  8
0
  6
CENTER
 62
2
 10
2.14094513E+02
 20
4.12464636E+01
 11
2.14094513E+02
 21
5.78889654E+01
  0
LINE
  8
0
  6
CENTER
 62
2
 10
2.22539093E+02
 20
4.98694799E+01
 11
2.07727020E+02
 21
4.98694799E+01
  0
LINE
  8
0
 62
7
 10
1.73594391E+02
 20
4.33694494E+01
 11
2.17594452E+02
 21
4.33694494E+01
  0
LINE
  8
0
 62
7
 10
1.73594452E+02
 20
4.38694494E+01
 11
2.17594452E+02
 21
4.38694799E+01
  0
LINE
  8
0
 62
7
 10
1.96594391E+02
 20
8.93694647E+01
 11
1.96594391E+02
 21
8.52514227E+01
  0
LINE
  8
0
 62
7
 10
2.16594391E+02
 20
6.93694799E+01
 11
2.12476349E+02
 21
6.93694799E+01
  0
LINE
  8
0
 62
7
 10
2.09324328E+02
 20
8.06851591E+01
 11
2.08238851E+02
 21
7.95996831E+01
  0
LINE
  8
0
 62
7
 10
2.07910158E+02
 20
8.20994162E+01
 11
2.06824681E+02
 21
8.10139401E+01
  0
LINE
  8
0
 62
7
 10
1.90594391E+02
 20
9.03694952E+01
 11
2.00594452E+02
 21
9.03694952E+01
  0
LINE
  8
0
 62
7
 10
2.17594391E+02
 20
7.33694952E+01
 11
2.17594391E+02
 21
6.33694342E+01
  0
LINE
  8
0
 62
7
 10
2.16594391E+02
 20
6.73694799E+01
 11
2.12476349E+02
 21
6.73694799E+01
  0
LINE
  8
0
 62
7
 10
2.09324453E+02
 20
5.60538756E+01
 11
2.08238977E+02
 21
5.71393520E+01
  0
LINE
  8
0
 62
7
 10
1.96594452E+02
 20
4.73694952E+01
 11
1.96594452E+02
 21
5.14875372E+01
  0
LINE
  8
0
 62
7
 10
2.07910239E+02
 20
5.46397054E+01
 11
2.06824774E+02
 21
5.57251710E+01
  0
LINE
  8
0
 62
7
 10
1.90594391E+02
 20
4.63694342E+01
 11
2.00594452E+02
 21
4.63694342E+01
  0
LINE
  8
0
 62
7
 10
1.94594452E+02
 20
4.73694952E+01
 11
1.94594452E+02
 21
5.14875372E+01
  0
LINE
  8
0
 62
7
 10
1.83278742E+02
 20
5.46394463E+01
 11
1.84364218E+02
 21
5.57249226E+01
  0
LINE
  8
0
 62
7
 10
1.74594391E+02
 20
6.73694494E+01
 11
1.78712433E+02
 21
6.73694494E+01
  0
LINE
  8
0
 62
7
 10
1.81864593E+02
 20
5.60537247E+01
 11
1.82950026E+02
 21
5.71391578E+01
  0
LINE
  8
0
  6
CENTER
 62
2
 10
1.95594391E+02
 20
9.68644598E+01
 11
1.95594391E+02
 21
3.90682104E+01
  0
LINE
  8
0
  6
CENTER
 62
2
 10
1.77094452E+02
 20
4.14814108E+01
 11
1.77094452E+02
 21
5.74458044E+01
  0
LINE
  8
0
 62
7
 10
2.15594391E+02
 20
9.33694952E+01
 11
2.15594391E+02
 21
9.28694952E+01
  0
LINE
  8
0
 62
7
 10
1.75594391E+02
 20
9.33694952E+01
 11
1.75594391E+02
 21
9.28694342E+01
  0
LINE
  8
0
 62
7
 10
2.15594391E+02
 20
4.38694799E+01
 11
2.15594391E+02
 21
4.33694494E+01
  0
LINE
  8
0
 62
7
 10
1.75594391E+02
 20
4.38694494E+01
 11
1.75594391E+02
 21
4.33694494E+01
  0
LINE
  8
0
 62
7
 10
2.06307587E+02
 20
5.03694799E+01
 11
2.04344452E+02
 21
5.03694799E+01
  0
LINE
  8
0
 62
7
 10
1.84882477E+02
 20
5.03693884E+01
 11
1.86844391E+02
 21
5.03693884E+01
  0
LINE
  8
0
 62
7
 10
1.77594452E+02
 20
5.76568640E+01
 11
1.77594452E+02
 21
5.96194342E+01
  0
LINE
  8
0
 62
7
 10
1.77594330E+02
 20
7.90807684E+01
 11
1.77594330E+02
 21
7.71194952E+01
  0
LINE
  8
0
 62
7
 10
2.06306122E+02
 20
8.63695562E+01
 11
2.04344452E+02
 21
8.63695562E+01
  0
LINE
  8
0
 62
7
 10
2.13594391E+02
 20
7.90816229E+01
 11
2.13594391E+02
 21
7.71194952E+01
  0
LINE
  8
0
 62
7
 10
2.13594391E+02
 20
5.76573065E+01
 11
2.13594391E+02
 21
5.96194342E+01
  0
LINE
  8
0
  6
CENTER
 62
2
 10
1.83475800E+02
 20
4.98694799E+01
 11
1.68954132E+02
 21
4.98694799E+01
  0
LINE
  8
0
  6
CENTER
 62
2
 10
1.83475800E+02
 20
8.68695410E+01
 11
1.68954132E+02
 21
8.68695410E+01
  0
LINE
  8
0
  6
CENTER
 62
2
 10
1.66622070E+02
 20
6.83694647E+01
 11
2.25298187E+02
 21
6.83694647E+01
  0
LINE
  8
0
 62
7
 10
1.84981354E+02
 20
8.63986547E+01
 11
1.87011444E+02
 21
8.63986547E+01
  0
LINE
  8
0
 62
7
 10
1.77094328E+02
 20
9.03336419E+01
 11
1.74094329E+02
 21
8.86015919E+01
  0
LINE
  8
0
 62
7
 10
1.74094330E+02
 20
8.86015966E+01
 11
1.74094330E+02
 21
8.51374853E+01
  0
LINE
  8
0
 62
7
 10
1.77094332E+02
 20
8.34054399E+01
 11
1.74094330E+02
 21
8.51374917E+01
  0
LINE
  8
0
 62
7
 10
1.80094328E+02
 20
8.51374895E+01
 11
1.77094329E+02
 21
8.34054396E+01
  0
LINE
  8
0
 62
7
 10
1.80094330E+02
 20
8.86015966E+01
 11
1.80094330E+02
 21
8.51374853E+01
  0
LINE
  8
0
 62
7
 10
1.77094330E+02
 20
9.03336440E+01
 11
1.80094332E+02
 21
8.86015922E+01
  0
LINE
  8
0
 62
7
 10
2.14094387E+02
 20
9.03336416E+01
 11
2.11094386E+02
 21
8.86015897E+01
  0
LINE
  8
0
 62
7
 10
2.11094391E+02
 20
8.86015966E+01
 11
2.11094391E+02
 21
8.51374853E+01
  0
LINE
  8
0
 62
7
 10
2.14094392E+02
 20
8.34054402E+01
 11
2.11094390E+02
 21
8.51374920E+01
  0
LINE
  8
0
 62
7
 10
2.17094387E+02
 20
8.51374892E+01
 11
2.14094386E+02
 21
8.34054374E+01
  0
LINE
  8
0
 62
7
 10
2.17094391E+02
 20
8.86015966E+01
 11
2.17094391E+02
 21
8.51374853E+01
  0
LINE
  8
0
 62
7
 10
2.14094390E+02
 20
9.03336443E+01
 11
2.17094392E+02
 21
8.86015925E+01
  0
LINE
  8
0
 62
7
 10
2.14094510E+02
 20
5.33335826E+01
 11
2.11094512E+02
 21
5.16015326E+01
  0
LINE
  8
0
 62
7
 10
2.11094513E+02
 20
5.16015280E+01
 11
2.11094513E+02
 21
4.81374319E+01
  0
LINE
  8
0
 62
7
 10
2.14094515E+02
 20
4.64053801E+01
 11
2.11094517E+02
 21
4.81374300E+01
  0
LINE
  8
0
 62
7
 10
2.17094510E+02
 20
4.81374303E+01
 11
2.14094512E+02
 21
4.64053803E+01
  0
LINE
  8
0
 62
7
 10
2.17094513E+02
 20
5.16015280E+01
 11
2.17094513E+02
 21
4.81374319E+01
  0
LINE
  8
0
 62
7
 10
2.14094517E+02
 20
5.33335824E+01
 11
2.17094515E+02
 21
5.16015324E+01
  0
LINE
  8
0
 62
7
 10
1.77094451E+02
 20
5.33335829E+01
 11
1.74094450E+02
 21
5.16015320E+01
  0
LINE
  8
0
 62
7
 10
1.74094452E+02
 20
5.16015280E+01
 11
1.74094452E+02
 21
4.81374319E+01
  0
LINE
  8
0
 62
7
 10
1.77094456E+02
 20
4.64053798E+01
 11
1.74094454E+02
 21
4.81374316E+01
  0
LINE
  8
0
 62
7
 10
1.80094451E+02
 20
4.81374305E+01
 11
1.77094450E+02
 21
4.64053797E+01
  0
LINE
  8
0
 62
7
 10
1.80094452E+02
 20
5.16015280E+01
 11
1.80094452E+02
 21
4.81374319E+01
  0
LINE
  8
0
 62
7
 10
1.77094454E+02
 20
5.33335840E+01
 11
1.80094456E+02
 21
5.16015321E+01
  0
CIRCLE
  8
0
 62
2
 10
2.14094391E+02
 20
8.68695410E+01
 40
3.00000000E+00
  0
ARC
  8
0
 62
7
 10
1.73594391E+02
 20
9.03694342E+01
 40
2.50000000E+00
 50
9.00000162E+01
 51
1.80000005E+02
  0
CIRCLE
  8
0
 62
7
 10
1.77094330E+02
 20
8.68694647E+01
 40
5.00000000E+00
  0
CIRCLE
  8
0
 62
7
 10
1.77094330E+02
 20
8.68694647E+01
 40
4.50000000E+00
  0
ARC
  8
0
 62
7
 10
1.83985809E+02
 20
8.28064459E+01
 40
1.00000000E+00
 50
1.49477556E+02
 51
2.24999381E+02
  0
ARC
  8
0
 62
7
 10
1.74594391E+02
 20
7.03694647E+01
 40
1.00000000E+00
 50
1.79999995E+02
 51
2.70000038E+02
  0
ARC
  8
0
 62
7
 10
1.78712433E+02
 20
7.03694647E+01
 40
1.00000000E+00
 50
2.70000038E+02
 51
3.53243910E+02
  0
ARC
  8
0
 62
7
 10
1.81157379E+02
 20
7.99780310E+01
 40
1.00000000E+00
 50
4.50006569E+01
 51
1.20522253E+02
  0
ARC
  8
0
 62
7
 10
1.93594391E+02
 20
8.93694647E+01
 40
1.00000000E+00
 50
3.59721781E-05
 51
9.00000162E+01
  0
ARC
  8
0
 62
7
 10
1.93594391E+02
 20
8.52514074E+01
 40
1.00000000E+00
 50
2.76756256E+02
 51
3.59721781E-05
  0
ARC
  8
0
 62
7
 10
1.82242828E+02
 20
7.88925512E+01
 40
1.00000000E+00
 50
3.21756388E+02
 51
4.50000423E+01
  0
ARC
  8
0
 62
7
 10
1.85071259E+02
 20
8.17209814E+01
 40
1.00000000E+00
 50
2.25000614E+02
 51
3.08244204E+02
  0
ARC
  8
0
 62
7
 10
1.73594391E+02
 20
9.03694952E+01
 40
3.00000000E+00
 50
9.00000162E+01
 51
1.80000005E+02
  0
ARC
  8
0
 62
7
 10
1.74594391E+02
 20
7.33694952E+01
 40
1.00000000E+00
 50
9.00000162E+01
 51
1.80000005E+02
  0
ARC
  8
0
 62
7
 10
1.74594391E+02
 20
7.73694952E+01
 40
3.00000000E+00
 50
2.70000052E+02
 51
2.02641660E+00
  0
ARC
  8
0
 62
7
 10
1.78591888E+02
 20
7.90109289E+01
 40
1.00000000E+00
 50
1.00789092E+02
 51
1.82026126E+02
  0
ARC
  8
0
 62
7
 10
1.77094391E+02
 20
8.68695257E+01
 40
7.00000000E+00
 50
2.80788643E+02
 51
3.49211298E+02
  0
ARC
  8
0
 62
7
 10
1.84952972E+02
 20
8.53720281E+01
 40
1.00000000E+00
 50
8.79748173E+01
 51
1.69211544E+02
  0
ARC
  8
0
 62
7
 10
1.86594391E+02
 20
8.93695257E+01
 40
3.00000000E+00
 50
2.67974191E+02
 51
3.59999431E+02
  0
ARC
  8
0
 62
7
 10
1.90594391E+02
 20
8.93694952E+01
 40
1.00000000E+00
 50
9.00000162E+01
 51
1.80000005E+02
  0
ARC
  8
0
 62
7
 10
2.17594452E+02
 20
4.63694799E+01
 40
2.50000000E+00
 50
2.70000052E+02
 51
3.59721781E-05
  0
ARC
  8
0
 62
7
 10
2.17594391E+02
 20
9.03694952E+01
 40
2.50000000E+00
 50
3.59721781E-05
 51
9.00000162E+01
  0
ARC
  8
0
 62
7
 10
2.17594452E+02
 20
9.03694952E+01
 40
3.00000000E+00
 50
3.59721781E-05
 51
9.00000162E+01
  0
ARC
  8
0
 62
7
 10
2.17594452E+02
 20
4.63694494E+01
 40
3.00000000E+00
 50
2.70000052E+02
 51
3.59721781E-05
  0
CIRCLE
  8
0
 62
7
 10
2.14094391E+02
 20
8.68695257E+01
 40
4.50000000E+00
  0
CIRCLE
  8
0
 62
7
 10
2.14094391E+02
 20
8.68695257E+01
 40
5.00000000E+00
  0
CIRCLE
  8
0
 62
7
 10
2.14094452E+02
 20
4.98694647E+01
 40
4.50000000E+00
  0
CIRCLE
  8
0
 62
7
 10
2.14094452E+02
 20
4.98694647E+01
 40
5.00000000E+00
  0
ARC
  8
0
 62
7
 10
2.16594391E+02
 20
7.03694647E+01
 40
1.00000000E+00
 50
2.70000052E+02
 51
3.59721781E-05
  0
ARC
  8
0
 62
7
 10
1.97594391E+02
 20
8.93694647E+01
 40
1.00000000E+00
 50
9.00000025E+01
 51
1.80000046E+02
  0
ARC
  8
0
 62
7
 10
2.07202972E+02
 20
8.28065069E+01
 40
1.00000000E+00
 50
3.15000662E+02
 51
3.05222541E+01
  0
ARC
  8
0
 62
7
 10
2.14094391E+02
 20
8.68695257E+01
 40
7.00000000E+00
 50
1.90788716E+02
 51
2.59211379E+02
  0
ARC
  8
0
 62
7
 10
2.10031403E+02
 20
7.99780767E+01
 40
1.00000000E+00
 50
5.94775673E+01
 51
1.34999386E+02
  0
ARC
  8
0
 62
7
 10
1.97594391E+02
 20
8.52514227E+01
 40
1.00000000E+00
 50
1.80000036E+02
 51
2.63243916E+02
  0
ARC
  8
0
 62
7
 10
2.06117523E+02
 20
8.17210577E+01
 40
1.00000000E+00
 50
2.31756382E+02
 51
3.15000026E+02
  0
ARC
  8
0
 62
7
 10
2.08945953E+02
 20
7.88926275E+01
 40
1.00000000E+00
 50
1.35000629E+02
 51
2.18244215E+02
  0
ARC
  8
0
 62
7
 10
2.12476349E+02
 20
7.03694647E+01
 40
1.00000000E+00
 50
1.86756227E+02
 51
2.70000038E+02
  0
ARC
  8
0
 62
7
 10
2.07203033E+02
 20
5.39324835E+01
 40
1.00000000E+00
 50
3.29477575E+02
 51
4.49993865E+01
  0
ARC
  8
0
 62
7
 10
2.16594391E+02
 20
6.63694647E+01
 40
1.00000000E+00
 50
8.65142224E-06
 51
9.00000437E+01
  0
ARC
  8
0
 62
7
 10
2.12476349E+02
 20
6.63694647E+01
 40
1.00000000E+00
 50
9.00000437E+01
 51
1.73243923E+02
  0
ARC
  8
0
 62
7
 10
2.10031464E+02
 20
5.67608831E+01
 40
1.00000000E+00
 50
2.25000642E+02
 51
3.00522242E+02
  0
ARC
  8
0
 62
7
 10
1.97594391E+02
 20
4.73694647E+01
 40
1.00000000E+00
 50
1.80000022E+02
 51
2.70000011E+02
  0
ARC
  8
0
 62
7
 10
1.97594391E+02
 20
5.14875067E+01
 40
1.00000000E+00
 50
9.67562412E+01
 51
1.80000032E+02
  0
ARC
  8
0
 62
7
 10
2.08946014E+02
 20
5.78463629E+01
 40
1.00000000E+00
 50
1.41756382E+02
 51
2.25000037E+02
  0
ARC
  8
0
 62
7
 10
2.06117584E+02
 20
5.50179327E+01
 40
1.00000000E+00
 50
4.50006297E+01
 51
1.28244219E+02
  0
ARC
  8
0
 62
7
 10
2.16594391E+02
 20
7.73694952E+01
 40
3.00000000E+00
 50
1.79999995E+02
 51
2.69999984E+02
  0
ARC
  8
0
 62
7
 10
2.04594452E+02
 20
8.93695257E+01
 40
3.00000000E+00
 50
1.80000582E+02
 51
2.72025825E+02
  0
ARC
  8
0
 62
7
 10
2.16594391E+02
 20
7.33694952E+01
 40
1.00000000E+00
 50
3.59721781E-05
 51
9.00000162E+01
  0
ARC
  8
0
 62
7
 10
2.12596893E+02
 20
7.90109289E+01
 40
1.00000000E+00
 50
3.57973915E+02
 51
7.92109402E+01
  0
ARC
  8
0
 62
7
 10
2.00594452E+02
 20
8.93694952E+01
 40
1.00000000E+00
 50
3.59721781E-05
 51
9.00000162E+01
  0
ARC
  8
0
 62
7
 10
2.06235809E+02
 20
8.53720281E+01
 40
1.00000000E+00
 50
1.07884972E+01
 51
9.20252152E+01
  0
ARC
  8
0
 62
7
 10
2.12596893E+02
 20
5.77280004E+01
 40
1.00000000E+00
 50
2.80789074E+02
 51
2.02610241E+00
  0
ARC
  8
0
 62
7
 10
2.14094391E+02
 20
4.98694036E+01
 40
7.00000000E+00
 50
1.00788621E+02
 51
1.69211284E+02
  0
ARC
  8
0
 62
7
 10
2.06235809E+02
 20
5.13669012E+01
 40
1.00000000E+00
 50
2.67974785E+02
 51
3.49211503E+02
  0
ARC
  8
0
 62
7
 10
2.04594452E+02
 20
4.73694036E+01
 40
3.00000000E+00
 50
8.79741750E+01
 51
1.79999418E+02
  0
ARC
  8
0
 62
7
 10
2.00594452E+02
 20
4.73694342E+01
 40
1.00000000E+00
 50
2.69999984E+02
 51
3.59999964E+02
  0
ARC
  8
0
 62
7
 10
1.73594452E+02
 20
4.63694494E+01
 40
2.50000000E+00
 50
1.79999995E+02
 51
2.70000038E+02
  0
ARC
  8
0
 62
7
 10
1.73594391E+02
 20
4.63694494E+01
 40
3.00000000E+00
 50
1.79999995E+02
 51
2.70000038E+02
  0
CIRCLE
  8
0
 62
7
 10
1.77094391E+02
 20
4.98694036E+01
 40
4.50000000E+00
  0
CIRCLE
  8
0
 62
7
 10
1.77094391E+02
 20
4.98694036E+01
 40
5.00000000E+00
  0
ARC
  8
0
 62
7
 10
1.81157440E+02
 20
5.67608526E+01
 40
1.00000000E+00
 50
2.39477556E+02
 51
3.14999370E+02
  0
ARC
  8
0
 62
7
 10
1.93594391E+02
 20
4.73694647E+01
 40
1.00000000E+00
 50
2.69999998E+02
 51
4.96325564E-05
  0
ARC
  8
0
 62
7
 10
1.93594391E+02
 20
5.14875067E+01
 40
1.00000000E+00
 50
4.96325564E-05
 51
8.32439208E+01
  0
ARC
  8
0
 62
7
 10
1.83985809E+02
 20
5.39324224E+01
 40
1.00000000E+00
 50
1.35000656E+02
 51
2.10522249E+02
  0
ARC
  8
0
 62
7
 10
1.74594391E+02
 20
6.63694647E+01
 40
1.00000000E+00
 50
9.00000300E+01
 51
1.80000019E+02
  0
ARC
  8
0
 62
7
 10
1.78712433E+02
 20
6.63694647E+01
 40
1.00000000E+00
 50
6.75624040E+00
 51
9.00000300E+01
  0
ARC
  8
0
 62
7
 10
1.85071320E+02
 20
5.50178717E+01
 40
1.00000000E+00
 50
5.17563834E+01
 51
1.35000041E+02
  0
ARC
  8
0
 62
7
 10
1.82242889E+02
 20
5.78463018E+01
 40
1.00000000E+00
 50
3.15000634E+02
 51
3.82442202E+01
  0
ARC
  8
0
 62
7
 10
1.90594391E+02
 20
4.73694342E+01
 40
1.00000000E+00
 50
1.79999995E+02
 51
2.69999984E+02
  0
ARC
  8
0
 62
7
 10
1.86594391E+02
 20
4.73694036E+01
 40
3.00000000E+00
 50
5.68726953E-04
 51
9.20258094E+01
  0
ARC
  8
0
 62
7
 10
1.84952972E+02
 20
5.13669012E+01
 40
1.00000000E+00
 50
1.90788456E+02
 51
2.72025183E+02
  0
ARC
  8
0
 62
7
 10
1.77094391E+02
 20
4.98694036E+01
 40
7.00000000E+00
 50
1.07887021E+01
 51
7.92113567E+01
  0
ARC
  8
0
 62
7
 10
1.78591888E+02
 20
5.77280004E+01
 40
1.00000000E+00
 50
1.77973884E+02
 51
2.59210897E+02
  0
ARC
  8
0
 62
7
 10
1.74594391E+02
 20
5.93694342E+01
 40
3.00000000E+00
 50
3.57973601E+02
 51
8.99999618E+01
  0
ARC
  8
0
 62
7
 10
1.74594391E+02
 20
6.33694342E+01
 40
1.00000000E+00
 50
1.79999995E+02
 51
2.69999984E+02
  0
CIRCLE
  8
0
 62
7
 10
1.95594391E+02
 20
6.83694647E+01
 40
1.60000000E+01
  0
ARC
  8
0
 62
7
 10
2.16594391E+02
 20
5.93694342E+01
 40
3.00000000E+00
 50
9.00000162E+01
 51
1.82026372E+02
  0
ARC
  8
0
 62
7
 10
2.16594391E+02
 20
6.33694342E+01
 40
1.00000000E+00
 50
2.69999984E+02
 51
1.86693353E-05
  0
CIRCLE
  8
0
 62
2
 10
2.14094513E+02
 20
4.98694799E+01
 40
3.00000000E+00
  0
CIRCLE
  8
0
 62
2
 10
1.77094452E+02
 20
4.98694799E+01
 40
3.00000000E+00
  0
CIRCLE
  8
0
 62
2
 10
1.77094330E+02
 20
8.68695410E+01
 40
3.00000000E+00
  0
LINE
  8
0
  6
DASHED
 62
4
 10
1.95594421E+02
 20
9.52087285E+01
 11
1.95177905E+02
 21
9.52821716E+01
  0
LINE
  8
0
  6
DASHED
 62
4
 10
1.96038489E+02
 20
9.94459906E+01
 11
1.95925758E+02
 21
9.94658681E+01
  0
ARC
  8
0
 62
4
 10
2.06895455E+02
 20
1.00984065E+02
 40
1.18100000E+01
 50
1.57172490E+02
 51
1.63117791E+02
  0
LINE
  8
0
 62
4
 10
1.96911167E+02
 20
9.49765508E+01
 11
1.95594421E+02
 21
9.52087285E+01
  0
ARC
  8
0
  6
DASHED
 62
4
 10
2.06791603E+02
 20
9.74562415E+01
 40
1.18100000E+01
 50
1.67900933E+02
 51
1.70000000E+02
  0
ARC
  8
0
  6
DASHED
 62
4
 10
2.06788915E+02
 20
9.74410000E+01
 40
1.18100000E+01
 50
1.70000000E+02
 51
1.90532699E+02
  0
ARC
  8
0
  6
DASHED
 62
4
 10
1.96098616E+02
 20
1.00450815E+02
 40
1.00000000E+00
 50
1.82827510E+02
 51
2.60000000E+02
  0
LINE
  8
0
 62
4
 10
1.97038591E+02
 20
9.92696456E+01
 11
1.96038489E+02
 21
9.94459906E+01
  0
ARC
  8
0
  6
DASHED
 62
4
 10
2.06895455E+02
 20
1.00984065E+02
 40
1.18100000E+01
 50
1.63117791E+02
 51
1.82827510E+02
  0
LINE
  8
0
 62
4
 10
1.98219398E+02
 20
1.05966338E+02
 11
1.97106565E+02
 21
1.06162561E+02
  0
ARC
  8
0
 62
4
 10
1.96932127E+02
 20
1.05177893E+02
 40
1.00000000E+00
 50
7.99999999E+01
 51
1.57172490E+02
  0
LINE
  8
0
 62
4
 10
2.24020761E+02
 20
8.01944458E+01
 11
2.24715354E+02
 21
8.41336768E+01
  0
LINE
  8
0
 62
6
 10
2.24107585E+02
 20
8.06868497E+01
 11
2.21069823E+02
 21
8.12224890E+01
  0
LINE
  8
0
 62
6
 10
2.24628529E+02
 20
8.36412730E+01
 11
2.21590768E+02
 21
8.41769123E+01
  0
LINE
  8
0
 62
4
 10
2.24020761E+02
 20
8.01944458E+01
 11
2.20982999E+02
 21
8.07300852E+01
  0
LINE
  8
0
 62
4
 10
2.24715353E+02
 20
8.41336768E+01
 11
2.21677592E+02
 21
8.46693162E+01
  0
LINE
  8
0
  6
CENTER
 62
6
 10
2.01882235E+02
 20
9.33384475E+01
 11
1.95973388E+02
 21
9.43803365E+01
  0
LINE
  8
0
  6
CENTER
 62
6
 10
1.99448756E+02
 20
9.68138152E+01
 11
1.98406867E+02
 21
9.09049687E+01
  0
LINE
  8
0
 62
4
 10
1.97305492E+02
 20
9.61763038E+01
 11
1.96810576E+02
 21
9.33694952E+01
  0
LINE
  8
0
 62
4
 10
2.01244723E+02
 20
9.54817111E+01
 11
1.97305492E+02
 21
9.61763038E+01
  0
LINE
  8
0
 62
4
 10
2.08456652E+02
 20
9.66470773E+01
 11
2.07878726E+02
 21
9.33694952E+01
  0
LINE
  8
0
 62
4
 10
1.99395219E+02
 20
1.06875979E+02
 11
2.09538739E+02
 21
1.05087402E+02
  0
LINE
  8
0
 62
4
 10
2.09538739E+02
 20
1.05087402E+02
 11
2.08062729E+02
 21
9.67165366E+01
  0
LINE
  8
0
 62
4
 10
2.01262088E+02
 20
9.55801919E+01
 11
2.00769684E+02
 21
9.56670160E+01
  0
LINE
  8
0
 62
4
 10
2.01262088E+02
 20
9.55801919E+01
 11
2.00872283E+02
 21
9.33694952E+01
  0
LINE
  8
0
 62
4
 10
2.00445220E+02
 20
9.61303984E+01
 11
1.97589278E+02
 21
9.66339781E+01
  0
LINE
  8
0
 62
4
 10
2.00769684E+02
 20
9.56670160E+01
 11
2.00445220E+02
 21
9.61303984E+01
  0
LINE
  8
0
  6
CENTER
 62
6
 10
2.19529628E+02
 20
9.87563194E+01
 11
1.97445256E+02
 21
1.02650390E+02
  0
LINE
  8
0
  6
CENTER
 62
6
 10
2.09687992E+02
 20
9.69376722E+01
 11
1.96837487E+02
 21
9.92035630E+01
  0
LINE
  8
0
  6
CENTER
 62
6
 10
2.15662400E+02
 20
8.36991035E+01
 11
2.23128404E+02
 21
8.23826456E+01
  0
ARC
  8
0
 62
4
 10
2.08468309E+02
 20
9.61373086E+01
 40
5.00000000E-01
 50
3.50000000E+02
 51
7.99999999E+01
  0
LINE
  8
0
 62
4
 10
2.08960713E+02
 20
9.60504845E+01
 11
2.08487982E+02
 21
9.33694952E+01
  0
LINE
  8
0
 62
4
 10
2.08062729E+02
 20
9.67165366E+01
 11
2.08555133E+02
 21
9.66297125E+01
  0
ARC
  8
0
 62
4
 10
2.19158491E+02
 20
7.90209419E+01
 40
1.50000000E+00
 50
3.43189498E+02
 51
3.50000000E+02
  0
LINE
  8
0
 62
4
 10
2.16432393E+02
 20
1.03871865E+02
 11
2.22246736E+02
 21
8.78970907E+01
  0
LINE
  8
0
 62
4
 10
2.09538739E+02
 20
1.05087402E+02
 11
2.16432393E+02
 21
1.03871865E+02
  0
LINE
  8
0
 62
4
 10
2.22246736E+02
 20
8.78970907E+01
 11
2.20635703E+02
 21
7.87604697E+01
  0
ARC
  8
0
 62
4
 10
1.98927811E+02
 20
9.38593920E+01
 40
1.50000000E+00
 50
3.40937591E+02
 51
1.99062409E+02
  0
ARC
  8
0
 62
4
 10
1.98797575E+02
 20
9.31207862E+01
 40
3.00000000E-01
 50
5.59992305E+01
 51
1.24000769E+02
  0
CIRCLE
  8
0
 62
4
 10
1.99058048E+02
 20
9.45979978E+01
 40
3.00000000E-01
  0
CIRCLE
  8
0
 62
4
 10
1.99058048E+02
 20
9.45979978E+01
 40
5.00000000E-01
  0
ARC
  8
0
 62
4
 10
1.98797575E+02
 20
9.31207862E+01
 40
5.00000000E-01
 50
2.98293252E+01
 51
1.50170675E+02
  0
LINE
  8
0
 62
4
 10
1.97953939E+02
 20
9.87020744E+01
 11
1.96969131E+02
 21
9.88757225E+01
  0
LINE
  8
0
 62
4
 10
1.99273665E+02
 20
1.06186613E+02
 11
1.98288858E+02
 21
1.06360261E+02
  0
LINE
  8
0
 62
4
 10
1.96969131E+02
 20
9.88757225E+01
 11
1.98288858E+02
 21
1.06360261E+02
  0
LINE
  8
0
 62
4
 10
1.96911167E+02
 20
9.49765508E+01
 11
1.97579712E+02
 21
9.87680607E+01
  0
LINE
  8
0
 62
4
 10
1.97311441E+02
 20
9.50582857E+01
 11
1.96937214E+02
 21
9.51242720E+01
  0
LINE
  8
0
 62
4
 10
1.97311441E+02
 20
9.50582857E+01
 11
1.99395219E+02
 21
1.06875979E+02
  0
LINE
  8
0
 62
4
 10
1.93686389E+02
 20
9.61415742E+01
 11
1.91793624E+02
 21
1.06875979E+02
  0
ARC
  8
0
 62
4
 10
1.84399927E+02
 20
9.74410000E+01
 40
1.18100000E+01
 50
3.49467301E+02
 51
9.99999999E+00
  0
ARC
  8
0
 62
4
 10
1.84397240E+02
 20
9.74562415E+01
 40
1.18100000E+01
 50
9.99999999E+00
 51
3.05326991E+01
  0
LINE
  8
0
 62
4
 10
1.94277676E+02
 20
9.49765508E+01
 11
1.96010938E+02
 21
9.52821716E+01
  0
LINE
  8
0
 62
4
 10
1.92836396E+02
 20
1.03150455E+02
 11
1.94569658E+02
 21
1.03456076E+02
  0
LINE
  8
0
 62
4
 10
1.94074363E+02
 20
9.50930153E+01
 11
1.94251629E+02
 21
9.51242720E+01
  0
LINE
  8
0
 62
4
 10
1.92488216E+02
 20
1.02936748E+02
 11
1.92862443E+02
 21
1.03002734E+02
  0
LINE
  8
0
 62
4
 10
1.94277676E+02
 20
9.49765508E+01
 11
1.92836396E+02
 21
1.03150455E+02
  0
LINE
  8
0
 62
4
 10
1.93446977E+02
 20
1.03258117E+02
 11
1.92899985E+02
 21
1.06360261E+02
  0
LINE
  8
0
 62
4
 10
1.92969445E+02
 20
1.05966338E+02
 11
1.94082277E+02
 21
1.06162561E+02
  0
ARC
  8
0
 62
4
 10
1.84293387E+02
 20
1.00984065E+02
 40
1.18100000E+01
 50
3.57172490E+02
 51
2.28275100E+01
  0
ARC
  8
0
 62
4
 10
1.94256716E+02
 20
1.05177893E+02
 40
1.00000000E+00
 50
2.28275100E+01
 51
9.99999999E+01
  0
ARC
  8
0
 62
4
 10
1.95090227E+02
 20
1.00450815E+02
 40
1.00000000E+00
 50
3.28723662E+02
 51
3.57172490E+02
  0
LINE
  8
0
 62
4
 10
1.91915178E+02
 20
1.06186613E+02
 11
1.92899985E+02
 21
1.06360261E+02
  0
LINE
  8
0
  6
CENTER
 62
6
 10
1.89306608E+02
 20
9.33384475E+01
 11
1.95215455E+02
 21
9.43803365E+01
  0
LINE
  8
0
  6
CENTER
 62
6
 10
1.91740087E+02
 20
9.68138152E+01
 11
1.92781976E+02
 21
9.09049687E+01
  0
LINE
  8
0
 62
4
 10
1.93883350E+02
 20
9.61763038E+01
 11
1.94378267E+02
 21
9.33694952E+01
  0
LINE
  8
0
 62
4
 10
1.89944119E+02
 20
9.54817111E+01
 11
1.93883350E+02
 21
9.61763038E+01
  0
LINE
  8
0
 62
4
 10
1.90947052E+02
 20
9.47751341E+01
 11
1.93177642E+02
 21
9.51684472E+01
  0
LINE
  8
0
 62
4
 10
1.89944119E+02
 20
9.54817111E+01
 11
1.90947052E+02
 21
9.47751341E+01
  0
LINE
  8
0
 62
4
 10
1.93883350E+02
 20
9.61763038E+01
 11
1.93177642E+02
 21
9.51684472E+01
  0
LINE
  8
0
 62
4
 10
1.91194904E+02
 20
9.33694952E+01
 11
1.90947052E+02
 21
9.47751341E+01
  0
LINE
  8
0
 62
4
 10
1.93177642E+02
 20
9.51684472E+01
 11
1.93494845E+02
 21
9.33694952E+01
  0
LINE
  8
0
 62
4
 10
1.82732190E+02
 20
9.66470773E+01
 11
1.83310117E+02
 21
9.33694952E+01
  0
LINE
  8
0
 62
4
 10
1.91793624E+02
 20
1.06875979E+02
 11
1.81650104E+02
 21
1.05087402E+02
  0
LINE
  8
0
 62
4
 10
1.81650104E+02
 20
1.05087402E+02
 11
1.83126113E+02
 21
9.67165366E+01
  0
LINE
  8
0
 62
4
 10
1.89926755E+02
 20
9.55801919E+01
 11
1.90419159E+02
 21
9.56670160E+01
  0
LINE
  8
0
 62
4
 10
1.89926755E+02
 20
9.55801919E+01
 11
1.90316560E+02
 21
9.33694952E+01
  0
LINE
  8
0
 62
4
 10
1.90743622E+02
 20
9.61303984E+01
 11
1.93599565E+02
 21
9.66339781E+01
  0
LINE
  8
0
 62
4
 10
1.90419159E+02
 20
9.56670160E+01
 11
1.90743622E+02
 21
9.61303984E+01
  0
LINE
  8
0
  6
CENTER
 62
6
 10
1.71659215E+02
 20
9.87563194E+01
 11
1.93743587E+02
 21
1.02650390E+02
  0
LINE
  8
0
  6
CENTER
 62
6
 10
1.81500850E+02
 20
9.69376722E+01
 11
1.94351356E+02
 21
9.92035630E+01
  0
LINE
  8
0
  6
CENTER
 62
6
 10
1.75935508E+02
 20
8.37712328E+01
 11
1.68469504E+02
 21
8.24547748E+01
  0
ARC
  8
0
 62
4
 10
1.82720534E+02
 20
9.61373086E+01
 40
5.00000000E-01
 50
9.99999999E+01
 51
1.90000000E+02
  0
LINE
  8
0
 62
4
 10
1.82228130E+02
 20
9.60504845E+01
 11
1.82700861E+02
 21
9.33694952E+01
  0
LINE
  8
0
 62
4
 10
1.83126113E+02
 20
9.67165366E+01
 11
1.82633710E+02
 21
9.66297125E+01
  0
ARC
  8
0
 62
4
 10
1.72030352E+02
 20
7.90209419E+01
 40
1.50000000E+00
 50
1.90000000E+02
 51
1.96794373E+02
  0
LINE
  8
0
 62
4
 10
1.74756450E+02
 20
1.03871865E+02
 11
1.68942107E+02
 21
8.78970907E+01
  0
LINE
  8
0
 62
4
 10
1.81650104E+02
 20
1.05087402E+02
 11
1.74756450E+02
 21
1.03871865E+02
  0
LINE
  8
0
 62
4
 10
1.68942107E+02
 20
8.78970907E+01
 11
1.70553140E+02
 21
7.87604697E+01
  0
LINE
  8
0
 62
4
 10
1.66473489E+02
 20
8.41336768E+01
 11
1.69511251E+02
 21
8.46693162E+01
  0
LINE
  8
0
 62
4
 10
1.67168082E+02
 20
8.01944458E+01
 11
1.70205844E+02
 21
8.07300852E+01
  0
LINE
  8
0
 62
4
 10
1.67168082E+02
 20
8.01944458E+01
 11
1.66473489E+02
 21
8.41336768E+01
  0
LINE
  8
0
 62
6
 10
1.66560313E+02
 20
8.36412730E+01
 11
1.69598075E+02
 21
8.41769123E+01
  0
LINE
  8
0
 62
6
 10
1.67081258E+02
 20
8.06868497E+01
 11
1.70119020E+02
 21
8.12224890E+01
  0
LINE
  8
0
  6
PHANTOM
 10
-9.25000000E+00
 20
2.27628397E+02
 11
-9.25000000E+00
 21
1.28684251E+02
  0
LINE
  8
0
  6
CENTER
 62
2
 10
-1.47883850E+02
 20
1.88369465E+02
 11
7.86960907E+01
 21
1.88369465E+02
  0
LINE
  8
0
  6
CENTER
 62
2
 10
-7.72500000E+01
 20
1.82353596E+02
 11
-7.72500000E+01
 21
2.02513630E+02
  0
LINE
  8
0
  6
CENTER
 62
2
 10
-8.73667145E+01
 20
1.92369404E+02
 11
-6.73015594E+01
 21
1.92369404E+02
  0
LINE
  8
0
  6
CENTER
 62
2
 10
-6.97499847E+01
 20
1.72449756E+02
 11
-6.97499847E+01
 21
1.83974384E+02
  0
LINE
  8
0
 62
7
 10
-1.09750031E+02
 20
1.73369465E+02
 11
-1.05241058E+02
 21
1.73369465E+02
  0
LINE
  8
0
 62
7
 10
-9.67500000E+01
 20
1.72369495E+02
 11
-9.52500000E+01
 21
1.72369495E+02
  0
LINE
  8
0
 62
7
 10
-1.05008766E+02
 20
1.73111105E+02
 11
-9.72491832E+01
 21
1.72840133E+02
  0
LINE
  8
0
 62
7
 10
-1.10249954E+02
 20
1.73869465E+02
 11
-1.10249954E+02
 21
2.02869465E+02
  0
LINE
  8
0
 62
7
 10
-1.09750031E+02
 20
2.03369526E+02
 11
-1.05241058E+02
 21
2.03369526E+02
  0
LINE
  8
0
 62
7
 10
-9.67500000E+01
 20
2.04369495E+02
 11
-9.52500000E+01
 21
2.04369495E+02
  0
LINE
  8
0
 62
7
 10
-6.42499542E+01
 20
1.63369465E+02
 11
-6.42499542E+01
 21
2.13369465E+02
  0
LINE
  8
0
 62
7
 10
-9.52499542E+01
 20
1.64401935E+02
 11
-9.52499542E+01
 21
2.12336994E+02
  0
LINE
  8
0
 62
7
 10
-1.05008731E+02
 20
2.03628014E+02
 11
-9.72491479E+01
 21
2.03898984E+02
  0
LINE
  8
0
 62
7
 10
-1.05249954E+02
 20
2.03369495E+02
 11
-1.05249954E+02
 21
1.73369434E+02
  0
LINE
  8
0
 62
7
 10
-9.72499542E+01
 20
2.03869465E+02
 11
-9.72499542E+01
 21
1.72840046E+02
  0
LINE
  8
0
 62
7
 10
-6.42500219E+01
 20
2.13369534E+02
 11
-9.47587418E+01
 21
2.12837007E+02
  0
LINE
  8
0
 62
7
 10
-6.42499481E+01
 20
1.63369596E+02
 11
-9.47586984E+01
 21
1.63902133E+02
  0
LINE
  8
0
  6
CENTER
 62
2
 10
-7.54465942E+01
 20
1.78369465E+02
 11
-6.38311005E+01
 21
1.78369465E+02
  0
LINE
  8
0
 62
7
 10
-8.82499542E+01
 20
2.08369465E+02
 11
-6.42499542E+01
 21
2.08369465E+02
  0
LINE
  8
0
 62
7
 10
-8.82499542E+01
 20
1.68369465E+02
 11
-6.42499542E+01
 21
1.68369465E+02
  0
LINE
  8
0
 62
7
 10
-9.02499542E+01
 20
2.06369465E+02
 11
-9.02499542E+01
 21
1.70369465E+02
  0
LINE
  8
0
  6
CENTER
 62
2
 10
5.47500000E+01
 20
1.82353596E+02
 11
5.47500000E+01
 21
2.02513630E+02
  0
LINE
  8
0
  6
CENTER
 62
2
 10
6.48667145E+01
 20
1.92369404E+02
 11
4.48015594E+01
 21
1.92369404E+02
  0
LINE
  8
0
  6
CENTER
 62
2
 10
4.72499847E+01
 20
1.72449756E+02
 11
4.72499847E+01
 21
1.83974384E+02
  0
LINE
  8
0
 62
7
 10
7.42500000E+01
 20
1.72369495E+02
 11
7.27500000E+01
 21
1.72369495E+02
  0
LINE
  8
0
 62
7
 10
7.42500000E+01
 20
2.04369495E+02
 11
7.27500000E+01
 21
2.04369495E+02
  0
LINE
  8
0
 62
7
 10
4.17499542E+01
 20
1.63369465E+02
 11
4.17499542E+01
 21
2.13369465E+02
  0
LINE
  8
0
 62
7
 10
7.27499542E+01
 20
1.64401935E+02
 11
7.27499542E+01
 21
2.12336994E+02
  0
LINE
  8
0
 62
7
 10
7.47499542E+01
 20
2.03869465E+02
 11
7.47499542E+01
 21
1.72840046E+02
  0
LINE
  8
0
 62
7
 10
4.17500189E+01
 20
2.13369538E+02
 11
7.22587234E+01
 21
2.12837011E+02
  0
LINE
  8
0
 62
7
 10
4.17499265E+01
 20
1.63369587E+02
 11
7.22586921E+01
 21
1.63902124E+02
  0
LINE
  8
0
  6
CENTER
 62
2
 10
5.29465942E+01
 20
1.78369465E+02
 11
4.13311005E+01
 21
1.78369465E+02
  0
LINE
  8
0
 62
7
 10
6.57499542E+01
 20
2.08369465E+02
 11
4.17499542E+01
 21
2.08369465E+02
  0
LINE
  8
0
 62
7
 10
6.57499542E+01
 20
1.68369465E+02
 11
4.17499542E+01
 21
1.68369465E+02
  0
LINE
  8
0
 62
7
 10
6.77499542E+01
 20
2.06369465E+02
 11
6.77499542E+01
 21
1.70369465E+02
  0
LINE
  8
0
 62
7
 10
-6.83066211E+01
 20
1.78369558E+02
 11
-6.90282938E+01
 21
1.79619548E+02
  0
LINE
  8
0
 62
7
 10
-6.90282898E+01
 20
1.79619526E+02
 11
-7.04716797E+01
 21
1.79619526E+02
  0
LINE
  8
0
 62
7
 10
-7.11932780E+01
 20
1.78369477E+02
 11
-7.04715901E+01
 21
1.79619493E+02
  0
LINE
  8
0
 62
7
 10
-7.04716458E+01
 20
1.77119491E+02
 11
-7.11933490E+01
 21
1.78369534E+02
  0
LINE
  8
0
 62
7
 10
-6.90282898E+01
 20
1.77119495E+02
 11
-7.04716797E+01
 21
1.77119495E+02
  0
LINE
  8
0
 62
7
 10
-6.83064896E+01
 20
1.78369435E+02
 11
-6.90281776E+01
 21
1.77119419E+02
  0
LINE
  8
0
 62
7
 10
4.86933533E+01
 20
1.78369540E+02
 11
4.79716730E+01
 21
1.79619543E+02
  0
LINE
  8
0
 62
7
 10
4.79716721E+01
 20
1.79619526E+02
 11
4.65282974E+01
 21
1.79619526E+02
  0
LINE
  8
0
 62
7
 10
4.58066813E+01
 20
1.78369477E+02
 11
4.65283692E+01
 21
1.79619493E+02
  0
LINE
  8
0
 62
7
 10
4.65283210E+01
 20
1.77119486E+02
 11
4.58066178E+01
 21
1.78369529E+02
  0
LINE
  8
0
 62
7
 10
4.79716721E+01
 20
1.77119495E+02
 11
4.65282974E+01
 21
1.77119495E+02
  0
LINE
  8
0
 62
7
 10
4.86934697E+01
 20
1.78369435E+02
 11
4.79717817E+01
 21
1.77119419E+02
  0
LINE
  8
0
  6
CENTER
 62
2
 10
-9.74769745E+01
 20
1.69869465E+02
 11
7.48534698E+01
 21
1.69869465E+02
  0
LINE
  8
0
 62
7
 10
-6.42499542E+01
 20
1.72519459E+02
 11
5.24995422E+00
 21
1.72519459E+02
  0
LINE
  8
0
 62
7
 10
-6.42499542E+01
 20
1.67219471E+02
 11
5.24995422E+00
 21
1.67219471E+02
  0
LINE
  8
0
 62
7
 10
-6.42499542E+01
 20
1.66369480E+02
 11
5.24995422E+00
 21
1.66369480E+02
  0
LINE
  8
0
  6
CENTER
 62
2
 10
-9.74769745E+01
 20
2.06869465E+02
 11
7.48534698E+01
 21
2.06869465E+02
  0
LINE
  8
0
 62
7
 10
-6.42499542E+01
 20
2.04219471E+02
 11
-3.87499542E+01
 21
2.04219471E+02
  0
LINE
  8
0
 62
7
 10
-6.42499542E+01
 20
2.09519459E+02
 11
-3.87499542E+01
 21
2.09519459E+02
  0
LINE
  8
0
 62
7
 10
-6.42499542E+01
 20
2.10369449E+02
 11
-3.87499542E+01
 21
2.10369449E+02
  0
LINE
  8
0
 62
7
 10
-1.44250000E+02
 20
1.83369434E+02
 11
-1.44250000E+02
 21
1.93369434E+02
  0
LINE
  8
0
 62
7
 10
-1.43250061E+02
 20
1.94369465E+02
 11
-1.37750000E+02
 21
1.94369465E+02
  0
LINE
  8
0
 62
2
 10
-1.43949982E+02
 20
1.93669452E+02
 11
-1.37750000E+02
 21
1.93669452E+02
  0
LINE
  8
0
 62
7
 10
-1.44249901E+02
 20
1.93369301E+02
 11
-1.43249954E+02
 21
1.94369270E+02
  0
LINE
  8
0
 62
7
 10
-1.23250000E+02
 20
1.82369434E+02
 11
-1.23250000E+02
 21
1.94369465E+02
  0
LINE
  8
0
 62
7
 10
-1.43250061E+02
 20
1.82369434E+02
 11
-1.43250061E+02
 21
1.94369465E+02
  0
LINE
  8
0
 62
7
 10
-1.44249967E+02
 20
1.83369516E+02
 11
-1.43249999E+02
 21
1.82369525E+02
  0
LINE
  8
0
 62
7
 10
-1.43250061E+02
 20
1.82369434E+02
 11
-1.37750000E+02
 21
1.82369434E+02
  0
LINE
  8
0
 62
2
 10
-1.43949982E+02
 20
1.83069431E+02
 11
-1.37750000E+02
 21
1.83069431E+02
  0
LINE
  8
0
 62
7
 10
-1.14480255E+02
 20
1.96469471E+02
 11
-1.10249954E+02
 21
1.96469471E+02
  0
LINE
  8
0
 62
7
 10
-1.14480255E+02
 20
1.80269459E+02
 11
-1.10249954E+02
 21
1.80269459E+02
  0
LINE
  8
0
 62
7
 10
-1.14480255E+02
 20
1.92419468E+02
 11
-1.10249954E+02
 21
1.92419468E+02
  0
LINE
  8
0
 62
7
 10
-1.14480255E+02
 20
1.84319462E+02
 11
-1.10249954E+02
 21
1.84319462E+02
  0
LINE
  8
0
 62
7
 10
-1.20249969E+02
 20
1.94369465E+02
 11
-1.20249969E+02
 21
1.82369465E+02
  0
LINE
  8
0
 62
7
 10
-1.20249975E+02
 20
1.94369462E+02
 11
-1.14480263E+02
 21
1.96469466E+02
  0
LINE
  8
0
 62
7
 10
-1.20249965E+02
 20
1.82369470E+02
 11
-1.14480239E+02
 21
1.80269461E+02
  0
LINE
  8
0
 62
7
 10
-1.23250000E+02
 20
1.93669452E+02
 11
-1.20249969E+02
 21
1.93669452E+02
  0
LINE
  8
0
 62
7
 10
-1.23250000E+02
 20
1.83069431E+02
 11
-1.20249969E+02
 21
1.83069431E+02
  0
CIRCLE
  8
0
 62
7
 10
-6.97499847E+01
 20
1.78369465E+02
 40
4.00000000E+00
  0
ARC
  8
0
 62
7
 10
-1.09750031E+02
 20
1.73869465E+02
 40
5.00000000E-01
 50
1.80000005E+02
 51
2.70000001E+02
  0
ARC
  8
0
 62
7
 10
-9.67500000E+01
 20
1.72869465E+02
 40
5.00000000E-01
 50
1.80000005E+02
 51
2.70000001E+02
  0
ARC
  8
0
 62
7
 10
-1.05000000E+02
 20
1.73360859E+02
 40
2.50000000E-01
 50
1.80000005E+02
 51
2.67999220E+02
  0
ARC
  8
0
 62
7
 10
-1.09750031E+02
 20
2.02869465E+02
 40
5.00000000E-01
 50
9.00000231E+01
 51
1.80000005E+02
  0
ARC
  8
0
 62
7
 10
-9.67500000E+01
 20
2.03869465E+02
 40
5.00000000E-01
 50
9.00000231E+01
 51
1.80000005E+02
  0
ARC
  8
0
 62
7
 10
-1.05000000E+02
 20
2.03378071E+02
 40
2.50000000E-01
 50
9.20007768E+01
 51
1.79999991E+02
  0
ARC
  8
0
 62
7
 10
-9.47500000E+01
 20
2.12336994E+02
 40
5.00000000E-01
 50
9.10002155E+01
 51
1.80000005E+02
  0
ARC
  8
0
 62
7
 10
-9.47500000E+01
 20
1.64401935E+02
 40
5.00000000E-01
 50
1.80000005E+02
 51
2.68999788E+02
  0
CIRCLE
  8
0
 62
7
 10
-7.72500000E+01
 20
1.92369404E+02
 40
7.00000000E+00
  0
ARC
  8
0
 62
7
 10
-8.82499542E+01
 20
2.06369465E+02
 40
2.00000000E+00
 50
8.99999818E+01
 51
1.79999964E+02
  0
ARC
  8
0
 62
7
 10
-8.82499542E+01
 20
1.70369465E+02
 40
2.00000000E+00
 50
1.79999981E+02
 51
2.70000018E+02
  0
CIRCLE
  8
0
 62
7
 10
-7.72500000E+01
 20
1.92369404E+02
 40
5.65999985E+00
  0
CIRCLE
  8
0
 62
2
 10
-7.72500000E+01
 20
1.92369404E+02
 40
6.57849979E+00
  0
CIRCLE
  8
0
 62
7
 10
4.72499847E+01
 20
1.78369465E+02
 40
4.00000000E+00
  0
ARC
  8
0
 62
7
 10
7.42500000E+01
 20
1.72869465E+02
 40
5.00000000E-01
 50
2.70000018E+02
 51
1.36603783E-05
  0
ARC
  8
0
 62
7
 10
7.42500000E+01
 20
2.03869465E+02
 40
5.00000000E-01
 50
0.00000000E+00
 51
8.99999818E+01
  0
ARC
  8
0
 62
7
 10
7.22500000E+01
 20
2.12336994E+02
 40
5.00000000E-01
 50
0.00000000E+00
 51
8.89997895E+01
  0
ARC
  8
0
 62
7
 10
7.22500000E+01
 20
1.64401935E+02
 40
5.00000000E-01
 50
2.71000231E+02
 51
1.36603783E-05
  0
CIRCLE
  8
0
 62
7
 10
5.47500000E+01
 20
1.92369404E+02
 40
7.00000000E+00
  0
ARC
  8
0
 62
7
 10
6.57499542E+01
 20
2.06369465E+02
 40
2.00000000E+00
 50
5.46415133E-05
 51
9.00000369E+01
  0
ARC
  8
0
 62
7
 10
6.57499542E+01
 20
1.70369465E+02
 40
2.00000000E+00
 50
2.70000018E+02
 51
5.46415133E-05
  0
CIRCLE
  8
0
 62
7
 10
5.47500000E+01
 20
1.92369404E+02
 40
5.65999985E+00
  0
CIRCLE
  8
0
 62
2
 10
5.47500000E+01
 20
1.92369404E+02
 40
6.57849979E+00
  0
CIRCLE
  8
0
 62
7
 10
-6.97499847E+01
 20
1.78369465E+02
 40
2.09999990E+00
  0
CIRCLE
  8
0
 62
7
 10
4.72499847E+01
 20
1.78369465E+02
 40
2.09999990E+00
  0
POLYLINE
  8
0
 62
7
 66
1
  0
VERTEX
  8
0
 62
7
 10
-1.14480255E+02
 20
1.92419468E+02
  0
VERTEX
  8
0
 62
7
 10
-1.14751167E+02
 20
1.92403164E+02
  0
VERTEX
  8
0
 62
7
 10
-1.15019898E+02
 20
1.92354383E+02
  0
VERTEX
  8
0
 62
7
 10
-1.15284284E+02
 20
1.92273518E+02
  0
VERTEX
  8
0
 62
7
 10
-1.15542197E+02
 20
1.92161219E+02
  0
VERTEX
  8
0
 62
7
 10
-1.15791559E+02
 20
1.92018392E+02
  0
VERTEX
  8
0
 62
7
 10
-1.16030363E+02
 20
1.91846185E+02
  0
VERTEX
  8
0
 62
7
 10
-1.16256687E+02
 20
1.91645986E+02
  0
VERTEX
  8
0
 62
7
 10
-1.16468709E+02
 20
1.91419407E+02
  0
VERTEX
  8
0
 62
7
 10
-1.16664720E+02
 20
1.91168271E+02
  0
VERTEX
  8
0
 62
7
 10
-1.16843143E+02
 20
1.90894601E+02
  0
VERTEX
  8
0
 62
7
 10
-1.17002542E+02
 20
1.90600599E+02
  0
VERTEX
  8
0
 62
7
 10
-1.17141632E+02
 20
1.90288635E+02
  0
VERTEX
  8
0
 62
7
 10
-1.17259295E+02
 20
1.89961218E+02
  0
VERTEX
  8
0
 62
7
 10
-1.17354583E+02
 20
1.89620985E+02
  0
VERTEX
  8
0
 62
7
 10
-1.17426728E+02
 20
1.89270675E+02
  0
VERTEX
  8
0
 62
7
 10
-1.17475150E+02
 20
1.88913110E+02
  0
VERTEX
  8
0
 62
7
 10
-1.17499459E+02
 20
1.88551168E+02
  0
VERTEX
  8
0
 62
7
 10
-1.17499459E+02
 20
1.88187762E+02
  0
VERTEX
  8
0
 62
7
 10
-1.17475150E+02
 20
1.87825820E+02
  0
VERTEX
  8
0
 62
7
 10
-1.17426728E+02
 20
1.87468255E+02
  0
VERTEX
  8
0
 62
7
 10
-1.17354583E+02
 20
1.87117945E+02
  0
VERTEX
  8
0
 62
7
 10
-1.17259295E+02
 20
1.86777712E+02
  0
VERTEX
  8
0
 62
7
 10
-1.17141632E+02
 20
1.86450295E+02
  0
VERTEX
  8
0
 62
7
 10
-1.17002542E+02
 20
1.86138331E+02
  0
VERTEX
  8
0
 62
7
 10
-1.16843143E+02
 20
1.85844329E+02
  0
VERTEX
  8
0
 62
7
 10
-1.16664720E+02
 20
1.85570659E+02
  0
VERTEX
  8
0
 62
7
 10
-1.16468709E+02
 20
1.85319523E+02
  0
VERTEX
  8
0
 62
7
 10
-1.16256687E+02
 20
1.85092944E+02
  0
VERTEX
  8
0
 62
7
 10
-1.16030363E+02
 20
1.84892745E+02
  0
VERTEX
  8
0
 62
7
 10
-1.15791559E+02
 20
1.84720538E+02
  0
VERTEX
  8
0
 62
7
 10
-1.15542197E+02
 20
1.84577711E+02
  0
VERTEX
  8
0
 62
7
 10
-1.15284284E+02
 20
1.84465412E+02
  0
VERTEX
  8
0
 62
7
 10
-1.15019898E+02
 20
1.84384547E+02
  0
VERTEX
  8
0
 62
7
 10
-1.14751167E+02
 20
1.84335766E+02
  0
VERTEX
  8
0
 62
7
 10
-1.14480255E+02
 20
1.84319462E+02
  0
SEQEND
  8
0
  0
POLYLINE
  8
0
 62
7
 66
1
  0
VERTEX
  8
0
 62
7
 10
-1.15984214E+02
 20
1.95920824E+02
  0
VERTEX
  8
0
 62
7
 10
-1.16207193E+02
 20
1.95833216E+02
  0
VERTEX
  8
0
 62
7
 10
-1.16417001E+02
 20
1.95733874E+02
  0
VERTEX
  8
0
 62
7
 10
-1.16612039E+02
 20
1.95623553E+02
  0
VERTEX
  8
0
 62
7
 10
-1.16790819E+02
 20
1.95503096E+02
  0
VERTEX
  8
0
 62
7
 10
-1.16951977E+02
 20
1.95373422E+02
  0
VERTEX
  8
0
 62
7
 10
-1.17094285E+02
 20
1.95235519E+02
  0
VERTEX
  8
0
 62
7
 10
-1.17216657E+02
 20
1.95090439E+02
  0
VERTEX
  8
0
 62
7
 10
-1.17318159E+02
 20
1.94939289E+02
  0
VERTEX
  8
0
 62
7
 10
-1.17398019E+02
 20
1.94783221E+02
  0
VERTEX
  8
0
 62
7
 10
-1.17455626E+02
 20
1.94623425E+02
  0
VERTEX
  8
0
 62
7
 10
-1.17490541E+02
 20
1.94461121E+02
  0
VERTEX
  8
0
 62
7
 10
-1.17502498E+02
 20
1.94297545E+02
  0
VERTEX
  8
0
 62
7
 10
-1.17491406E+02
 20
1.94133946E+02
  0
VERTEX
  8
0
 62
7
 10
-1.17457350E+02
 20
1.93971572E+02
  0
VERTEX
  8
0
 62
7
 10
-1.17400589E+02
 20
1.93811660E+02
  0
VERTEX
  8
0
 62
7
 10
-1.17321556E+02
 20
1.93655430E+02
  0
VERTEX
  8
0
 62
7
 10
-1.17220853E+02
 20
1.93504074E+02
  0
VERTEX
  8
0
 62
7
 10
-1.17099250E+02
 20
1.93358745E+02
  0
VERTEX
  8
0
 62
7
 10
-1.16957672E+02
 20
1.93220553E+02
  0
VERTEX
  8
0
 62
7
 10
-1.16797201E+02
 20
1.93090551E+02
  0
VERTEX
  8
0
 62
7
 10
-1.16619060E+02
 20
1.92969731E+02
  0
VERTEX
  8
0
 62
7
 10
-1.16424606E+02
 20
1.92859014E+02
  0
VERTEX
  8
0
 62
7
 10
-1.16215325E+02
 20
1.92759245E+02
  0
VERTEX
  8
0
 62
7
 10
-1.15992810E+02
 20
1.92671183E+02
  0
VERTEX
  8
0
 62
7
 10
-1.15758761E+02
 20
1.92595502E+02
  0
VERTEX
  8
0
 62
7
 10
-1.15514960E+02
 20
1.92532778E+02
  0
VERTEX
  8
0
 62
7
 10
-1.15263269E+02
 20
1.92483490E+02
  0
VERTEX
  8
0
 62
7
 10
-1.15005605E+02
 20
1.92448013E+02
  0
VERTEX
  8
0
 62
7
 10
-1.14743936E+02
 20
1.92426618E+02
  0
VERTEX
  8
0
 62
7
 10
-1.14480255E+02
 20
1.92419468E+02
  0
SEQEND
  8
0
  0
POLYLINE
  8
0
 62
7
 66
1
  0
VERTEX
  8
0
 62
7
 10
-1.14480255E+02
 20
1.84319462E+02
  0
VERTEX
  8
0
 62
7
 10
-1.14743936E+02
 20
1.84312312E+02
  0
VERTEX
  8
0
 62
7
 10
-1.15005605E+02
 20
1.84290917E+02
  0
VERTEX
  8
0
 62
7
 10
-1.15263269E+02
 20
1.84255440E+02
  0
VERTEX
  8
0
 62
7
 10
-1.15514960E+02
 20
1.84206152E+02
  0
VERTEX
  8
0
 62
7
 10
-1.15758761E+02
 20
1.84143428E+02
  0
VERTEX
  8
0
 62
7
 10
-1.15992810E+02
 20
1.84067747E+02
  0
VERTEX
  8
0
 62
7
 10
-1.16215325E+02
 20
1.83979685E+02
  0
VERTEX
  8
0
 62
7
 10
-1.16424606E+02
 20
1.83879916E+02
  0
VERTEX
  8
0
 62
7
 10
-1.16619060E+02
 20
1.83769199E+02
  0
VERTEX
  8
0
 62
7
 10
-1.16797201E+02
 20
1.83648379E+02
  0
VERTEX
  8
0
 62
7
 10
-1.16957672E+02
 20
1.83518377E+02
  0
VERTEX
  8
0
 62
7
 10
-1.17099250E+02
 20
1.83380185E+02
  0
VERTEX
  8
0
 62
7
 10
-1.17220853E+02
 20
1.83234856E+02
  0
VERTEX
  8
0
 62
7
 10
-1.17321556E+02
 20
1.83083500E+02
  0
VERTEX
  8
0
 62
7
 10
-1.17400589E+02
 20
1.82927270E+02
  0
VERTEX
  8
0
 62
7
 10
-1.17457350E+02
 20
1.82767358E+02
  0
VERTEX
  8
0
 62
7
 10
-1.17491406E+02
 20
1.82604984E+02
  0
VERTEX
  8
0
 62
7
 10
-1.17502498E+02
 20
1.82441385E+02
  0
VERTEX
  8
0
 62
7
 10
-1.17490541E+02
 20
1.82277809E+02
  0
VERTEX
  8
0
 62
7
 10
-1.17455626E+02
 20
1.82115505E+02
  0
VERTEX
  8
0
 62
7
 10
-1.17398019E+02
 20
1.81955709E+02
  0
VERTEX
  8
0
 62
7
 10
-1.17318159E+02
 20
1.81799641E+02
  0
VERTEX
  8
0
 62
7
 10
-1.17216657E+02
 20
1.81648491E+02
  0
VERTEX
  8
0
 62
7
 10
-1.17094285E+02
 20
1.81503411E+02
  0
VERTEX
  8
0
 62
7
 10
-1.16951977E+02
 20
1.81365508E+02
  0
VERTEX
  8
0
 62
7
 10
-1.16790819E+02
 20
1.81235834E+02
  0
VERTEX
  8
0
 62
7
 10
-1.16612039E+02
 20
1.81115377E+02
  0
VERTEX
  8
0
 62
7
 10
-1.16417001E+02
 20
1.81005056E+02
  0
VERTEX
  8
0
 62
7
 10
-1.16207193E+02
 20
1.80905714E+02
  0
VERTEX
  8
0
 62
7
 10
-1.15984214E+02
 20
1.80818106E+02
  0
SEQEND
  8
0
  0
LINE
  8
0
 62
7
 10
-1.29750000E+02
 20
1.94369465E+02
 11
-1.23250000E+02
 21
1.94369465E+02
  0
LINE
  8
0
 62
2
 10
-1.29750000E+02
 20
1.93669452E+02
 11
-1.23250000E+02
 21
1.93669452E+02
  0
LINE
  8
0
 62
7
 10
-1.29750000E+02
 20
1.82369434E+02
 11
-1.23250000E+02
 21
1.82369434E+02
  0
LINE
  8
0
 62
2
 10
-1.29750000E+02
 20
1.83069431E+02
 11
-1.23250000E+02
 21
1.83069431E+02
  0
LINE
  8
0
 62
4
 10
-1.29750000E+02
 20
1.77369465E+02
 11
-1.29750000E+02
 21
1.99369465E+02
  0
LINE
  8
0
 62
4
 10
-1.37750000E+02
 20
1.77369465E+02
 11
-1.37750000E+02
 21
1.99369465E+02
  0
LINE
  8
0
 62
4
 10
-1.36767520E+02
 20
1.88369465E+02
 11
-1.30732480E+02
 21
1.88369465E+02
  0
LINE
  8
0
 62
4
 10
-1.37750000E+02
 20
1.99369465E+02
 11
-1.29750000E+02
 21
1.99369465E+02
  0
LINE
  8
0
 62
4
 10
-1.37750000E+02
 20
1.77369465E+02
 11
-1.29750000E+02
 21
1.77369465E+02
  0
ARC
  8
0
 62
4
 10
-1.45635950E+02
 20
1.82869465E+02
 40
1.58859499E+01
 50
3.39743842E+02
 51
2.02561578E+01
  0
ARC
  8
0
 62
4
 10
-1.45635950E+02
 20
1.93869465E+02
 40
1.58859499E+01
 50
3.39743842E+02
 51
2.02561578E+01
  0
ARC
  8
0
 62
4
 10
-1.21864053E+02
 20
1.93869465E+02
 40
1.58859474E+01
 50
1.59743839E+02
 51
2.00256161E+02
  0
ARC
  8
0
 62
4
 10
-1.21864053E+02
 20
1.82869465E+02
 40
1.58859473E+01
 50
1.59743839E+02
 51
2.00256161E+02
  0
LINE
  8
0
  6
CENTER
 62
6
 10
-3.52499542E+01
 20
2.20485044E+02
 11
-3.52499542E+01
 21
2.10219465E+02
  0
LINE
  8
0
  6
CENTER
 62
6
 10
-2.72499542E+01
 20
2.20485044E+02
 11
-2.72499542E+01
 21
2.10219465E+02
  0
LINE
  8
0
  6
CENTER
 62
6
 10
-5.87499542E+01
 20
1.91702824E+02
 11
-1.17499542E+01
 21
1.91702824E+02
  0
LINE
  8
0
 62
6
 10
-1.54820051E+01
 20
1.88702824E+02
 11
-1.20179034E+01
 21
1.94702824E+02
  0
LINE
  8
0
 62
4
 10
-2.37499542E+01
 20
1.90202824E+02
 11
-1.46159796E+01
 21
1.90202824E+02
  0
LINE
  8
0
 62
4
 10
-2.37499542E+01
 20
1.93202824E+02
 11
-1.28839288E+01
 21
1.93202824E+02
  0
LINE
  8
0
 62
6
 10
-2.87499542E+01
 20
2.17372785E+02
 11
-2.87499542E+01
 21
2.15021748E+02
  0
LINE
  8
0
 62
6
 10
-2.57499542E+01
 20
2.17372785E+02
 11
-2.57499542E+01
 21
2.15021748E+02
  0
LINE
  8
0
 62
4
 10
-2.92499542E+01
 20
2.17143070E+02
 11
-2.92499542E+01
 21
2.15021748E+02
  0
LINE
  8
0
 62
4
 10
-2.52499542E+01
 20
2.17143070E+02
 11
-2.52499542E+01
 21
2.15021748E+02
  0
LINE
  8
0
 62
4
 10
-3.87499542E+01
 20
2.15021748E+02
 11
-3.87499542E+01
 21
2.02313752E+02
  0
LINE
  8
0
 62
4
 10
-2.37499542E+01
 20
2.15021748E+02
 11
-2.37499542E+01
 21
1.89391861E+02
  0
LINE
  8
0
 62
4
 10
-5.37499542E+01
 20
2.02313752E+02
 11
-5.37499542E+01
 21
1.90364291E+02
  0
LINE
  8
0
  6
CENTER
 62
6
 10
-3.87499542E+01
 20
1.93281046E+02
 11
-3.87499542E+01
 21
1.88281046E+02
  0
LINE
  8
0
 62
4
 10
-3.87499542E+01
 20
2.15021748E+02
 11
-2.37499542E+01
 21
2.15021748E+02
  0
LINE
  8
0
 62
4
 10
-3.87499542E+01
 20
2.09207406E+02
 11
-2.37499542E+01
 21
2.09207406E+02
  0
LINE
  8
0
 62
4
 10
-5.37499542E+01
 20
2.02313752E+02
 11
-2.37499542E+01
 21
2.02313752E+02
  0
LINE
  8
0
 62
4
 10
-5.37499542E+01
 20
1.92170232E+02
 11
-2.37499542E+01
 21
1.92170232E+02
  0
LINE
  8
0
 62
4
 10
-2.78499542E+01
 20
1.89391861E+02
 11
-2.37499542E+01
 21
1.89391861E+02
  0
LINE
  8
0
 62
4
 10
-2.78499542E+01
 20
1.89565509E+02
 11
-2.37499542E+01
 21
1.89565509E+02
  0
LINE
  8
0
 62
4
 10
-5.37499542E+01
 20
1.90364291E+02
 11
-4.28999542E+01
 21
1.90364291E+02
  0
POLYLINE
  8
0
 62
4
 66
1
  0
VERTEX
  8
0
 62
4
 10
-2.52499542E+01
 20
2.17143070E+02
  0
VERTEX
  8
0
 62
4
 10
-2.52580056E+01
 20
2.17174201E+02
  0
VERTEX
  8
0
 62
4
 10
-2.52820950E+01
 20
2.17205082E+02
  0
VERTEX
  8
0
 62
4
 10
-2.53220285E+01
 20
2.17235464E+02
  0
VERTEX
  8
0
 62
4
 10
-2.53774845E+01
 20
2.17265101E+02
  0
VERTEX
  8
0
 62
4
 10
-2.54480165E+01
 20
2.17293756E+02
  0
VERTEX
  8
0
 62
4
 10
-2.55330566E+01
 20
2.17321198E+02
  0
VERTEX
  8
0
 62
4
 10
-2.56319202E+01
 20
2.17347206E+02
  0
VERTEX
  8
0
 62
4
 10
-2.57438113E+01
 20
2.17371570E+02
  0
VERTEX
  8
0
 62
4
 10
-2.58678289E+01
 20
2.17394094E+02
  0
VERTEX
  8
0
 62
4
 10
-2.60029746E+01
 20
2.17414597E+02
  0
VERTEX
  8
0
 62
4
 10
-2.61481602E+01
 20
2.17432914E+02
  0
VERTEX
  8
0
 62
4
 10
-2.63022169E+01
 20
2.17448898E+02
  0
VERTEX
  8
0
 62
4
 10
-2.64639041E+01
 20
2.17462419E+02
  0
VERTEX
  8
0
 62
4
 10
-2.66319202E+01
 20
2.17473368E+02
  0
VERTEX
  8
0
 62
4
 10
-2.68049123E+01
 20
2.17481659E+02
  0
VERTEX
  8
0
 62
4
 10
-2.69814877E+01
 20
2.17487223E+02
  0
VERTEX
  8
0
 62
4
 10
-2.71602245E+01
 20
2.17490017E+02
  0
VERTEX
  8
0
 62
4
 10
-2.73396838E+01
 20
2.17490017E+02
  0
VERTEX
  8
0
 62
4
 10
-2.75184207E+01
 20
2.17487223E+02
  0
VERTEX
  8
0
 62
4
 10
-2.76949961E+01
 20
2.17481659E+02
  0
VERTEX
  8
0
 62
4
 10
-2.78679882E+01
 20
2.17473368E+02
  0
VERTEX
  8
0
 62
4
 10
-2.80360043E+01
 20
2.17462419E+02
  0
VERTEX
  8
0
 62
4
 10
-2.81976915E+01
 20
2.17448898E+02
  0
VERTEX
  8
0
 62
4
 10
-2.83517482E+01
 20
2.17432914E+02
  0
VERTEX
  8
0
 62
4
 10
-2.84969338E+01
 20
2.17414597E+02
  0
VERTEX
  8
0
 62
4
 10
-2.86320795E+01
 20
2.17394094E+02
  0
VERTEX
  8
0
 62
4
 10
-2.87560971E+01
 20
2.17371570E+02
  0
VERTEX
  8
0
 62
4
 10
-2.88679882E+01
 20
2.17347206E+02
  0
VERTEX
  8
0
 62
4
 10
-2.89668518E+01
 20
2.17321198E+02
  0
VERTEX
  8
0
 62
4
 10
-2.90518919E+01
 20
2.17293756E+02
  0
VERTEX
  8
0
 62
4
 10
-2.91224239E+01
 20
2.17265101E+02
  0
VERTEX
  8
0
 62
4
 10
-2.91778799E+01
 20
2.17235464E+02
  0
VERTEX
  8
0
 62
4
 10
-2.92178134E+01
 20
2.17205082E+02
  0
VERTEX
  8
0
 62
4
 10
-2.92419028E+01
 20
2.17174201E+02
  0
VERTEX
  8
0
 62
4
 10
-2.92499542E+01
 20
2.17143070E+02
  0
SEQEND
  8
0
  0
LINE
  8
0
 62
6
 10
-3.67499542E+01
 20
2.17372785E+02
 11
-3.67499542E+01
 21
2.15021748E+02
  0
LINE
  8
0
 62
6
 10
-3.37499542E+01
 20
2.17372785E+02
 11
-3.37499542E+01
 21
2.15021748E+02
  0
LINE
  8
0
 62
4
 10
-3.72499542E+01
 20
2.17143070E+02
 11
-3.72499542E+01
 21
2.15021748E+02
  0
LINE
  8
0
 62
4
 10
-3.32499542E+01
 20
2.17143070E+02
 11
-3.32499542E+01
 21
2.15021748E+02
  0
POLYLINE
  8
0
 62
4
 66
1
  0
VERTEX
  8
0
 62
4
 10
-3.32499542E+01
 20
2.17143070E+02
  0
VERTEX
  8
0
 62
4
 10
-3.32580056E+01
 20
2.17174201E+02
  0
VERTEX
  8
0
 62
4
 10
-3.32820950E+01
 20
2.17205082E+02
  0
VERTEX
  8
0
 62
4
 10
-3.33220285E+01
 20
2.17235464E+02
  0
VERTEX
  8
0
 62
4
 10
-3.33774845E+01
 20
2.17265101E+02
  0
VERTEX
  8
0
 62
4
 10
-3.34480165E+01
 20
2.17293756E+02
  0
VERTEX
  8
0
 62
4
 10
-3.35330566E+01
 20
2.17321198E+02
  0
VERTEX
  8
0
 62
4
 10
-3.36319202E+01
 20
2.17347206E+02
  0
VERTEX
  8
0
 62
4
 10
-3.37438113E+01
 20
2.17371570E+02
  0
VERTEX
  8
0
 62
4
 10
-3.38678289E+01
 20
2.17394094E+02
  0
VERTEX
  8
0
 62
4
 10
-3.40029746E+01
 20
2.17414597E+02
  0
VERTEX
  8
0
 62
4
 10
-3.41481602E+01
 20
2.17432914E+02
  0
VERTEX
  8
0
 62
4
 10
-3.43022169E+01
 20
2.17448898E+02
  0
VERTEX
  8
0
 62
4
 10
-3.44639041E+01
 20
2.17462419E+02
  0
VERTEX
  8
0
 62
4
 10
-3.46319202E+01
 20
2.17473368E+02
  0
VERTEX
  8
0
 62
4
 10
-3.48049123E+01
 20
2.17481659E+02
  0
VERTEX
  8
0
 62
4
 10
-3.49814877E+01
 20
2.17487223E+02
  0
VERTEX
  8
0
 62
4
 10
-3.51602245E+01
 20
2.17490017E+02
  0
VERTEX
  8
0
 62
4
 10
-3.53396838E+01
 20
2.17490017E+02
  0
VERTEX
  8
0
 62
4
 10
-3.55184207E+01
 20
2.17487223E+02
  0
VERTEX
  8
0
 62
4
 10
-3.56949961E+01
 20
2.17481659E+02
  0
VERTEX
  8
0
 62
4
 10
-3.58679882E+01
 20
2.17473368E+02
  0
VERTEX
  8
0
 62
4
 10
-3.60360043E+01
 20
2.17462419E+02
  0
VERTEX
  8
0
 62
4
 10
-3.61976915E+01
 20
2.17448898E+02
  0
VERTEX
  8
0
 62
4
 10
-3.63517482E+01
 20
2.17432914E+02
  0
VERTEX
  8
0
 62
4
 10
-3.64969338E+01
 20
2.17414597E+02
  0
VERTEX
  8
0
 62
4
 10
-3.66320795E+01
 20
2.17394094E+02
  0
VERTEX
  8
0
 62
4
 10
-3.67560971E+01
 20
2.17371570E+02
  0
VERTEX
  8
0
 62
4
 10
-3.68679882E+01
 20
2.17347206E+02
  0
VERTEX
  8
0
 62
4
 10
-3.69668518E+01
 20
2.17321198E+02
  0
VERTEX
  8
0
 62
4
 10
-3.70518919E+01
 20
2.17293756E+02
  0
VERTEX
  8
0
 62
4
 10
-3.71224239E+01
 20
2.17265101E+02
  0
VERTEX
  8
0
 62
4
 10
-3.71778799E+01
 20
2.17235464E+02
  0
VERTEX
  8
0
 62
4
 10
-3.72178134E+01
 20
2.17205082E+02
  0
VERTEX
  8
0
 62
4
 10
-3.72419028E+01
 20
2.17174201E+02
  0
VERTEX
  8
0
 62
4
 10
-3.72499542E+01
 20
2.17143070E+02
  0
SEQEND
  8
0
  0
LINE
  8
0
 62
4
 10
-5.37499542E+01
 20
1.94019736E+02
 11
-5.52499542E+01
 21
1.93016803E+02
  0
LINE
  8
0
 62
4
 10
-5.52499542E+01
 20
1.93016803E+02
 11
-5.52499542E+01
 21
1.90392901E+02
  0
LINE
  8
0
 62
4
 10
-5.52499542E+01
 20
1.90786214E+02
 11
-5.37499542E+01
 21
1.90080505E+02
  0
LINE
  8
0
 62
4
 10
-5.52499542E+01
 20
1.90392901E+02
 11
-5.37499542E+01
 21
1.89385912E+02
  0
LINE
  8
0
 62
4
 10
-5.37499542E+01
 20
1.89385912E+02
 11
-4.28999542E+01
 21
1.89385912E+02
  0
LINE
  8
0
 62
4
 10
-5.37499542E+01
 20
1.90080505E+02
 11
-4.28999542E+01
 21
1.90080505E+02
  0
LINE
  8
0
 62
4
 10
-5.37499542E+01
 20
1.90364291E+02
 11
-5.37499542E+01
 21
1.89391861E+02
  0
POLYLINE
  8
0
 62
4
 66
1
  0
VERTEX
  8
0
 62
4
 10
-3.50499542E+01
 20
1.90733190E+02
  0
VERTEX
  8
0
 62
4
 10
-3.52317692E+01
 20
1.90789037E+02
  0
VERTEX
  8
0
 62
4
 10
-3.54414664E+01
 20
1.90841856E+02
  0
VERTEX
  8
0
 62
4
 10
-3.56773841E+01
 20
1.90891226E+02
  0
VERTEX
  8
0
 62
4
 10
-3.59376524E+01
 20
1.90936758E+02
  0
VERTEX
  8
0
 62
4
 10
-3.62202087E+01
 20
1.90978089E+02
  0
VERTEX
  8
0
 62
4
 10
-3.65228138E+01
 20
1.91014894E+02
  0
VERTEX
  8
0
 62
4
 10
-3.68430693E+01
 20
1.91046879E+02
  0
VERTEX
  8
0
 62
4
 10
-3.71784373E+01
 20
1.91073792E+02
  0
VERTEX
  8
0
 62
4
 10
-3.75262598E+01
 20
1.91095418E+02
  0
VERTEX
  8
0
 62
4
 10
-3.78837804E+01
 20
1.91111588E+02
  0
VERTEX
  8
0
 62
4
 10
-3.82481655E+01
 20
1.91122172E+02
  0
VERTEX
  8
0
 62
4
 10
-3.86165274E+01
 20
1.91127086E+02
  0
VERTEX
  8
0
 62
4
 10
-3.89859467E+01
 20
1.91126293E+02
  0
VERTEX
  8
0
 62
4
 10
-3.93534958E+01
 20
1.91119797E+02
  0
VERTEX
  8
0
 62
4
 10
-3.97162616E+01
 20
1.91107651E+02
  0
VERTEX
  8
0
 62
4
 10
-4.00713693E+01
 20
1.91089951E+02
  0
VERTEX
  8
0
 62
4
 10
-4.04160046E+01
 20
1.91066837E+02
  0
VERTEX
  8
0
 62
4
 10
-4.07474360E+01
 20
1.91038492E+02
  0
VERTEX
  8
0
 62
4
 10
-4.10630371E+01
 20
1.91005141E+02
  0
VERTEX
  8
0
 62
4
 10
-4.13603065E+01
 20
1.90967048E+02
  0
VERTEX
  8
0
 62
4
 10
-4.16368885E+01
 20
1.90924515E+02
  0
VERTEX
  8
0
 62
4
 10
-4.18905909E+01
 20
1.90877880E+02
  0
VERTEX
  8
0
 62
4
 10
-4.21194032E+01
 20
1.90827511E+02
  0
VERTEX
  8
0
 62
4
 10
-4.23215120E+01
 20
1.90773808E+02
  0
VERTEX
  8
0
 62
4
 10
-4.24953155E+01
 20
1.90717196E+02
  0
VERTEX
  8
0
 62
4
 10
-4.26394363E+01
 20
1.90658125E+02
  0
VERTEX
  8
0
 62
4
 10
-4.27527323E+01
 20
1.90597062E+02
  0
VERTEX
  8
0
 62
4
 10
-4.28343055E+01
 20
1.90534492E+02
  0
VERTEX
  8
0
 62
4
 10
-4.28835094E+01
 20
1.90470909E+02
  0
VERTEX
  8
0
 62
4
 10
-4.28999542E+01
 20
1.90406819E+02
  0
SEQEND
  8
0
  0
ARC
  8
0
 62
4
 10
-3.87422159E+01
 20
1.99563926E+02
 40
1.18100000E+01
 50
2.69962458E+02
 51
2.89675999E+02
  0
ARC
  8
0
 62
4
 10
-3.87576925E+01
 20
1.99563926E+02
 40
1.18100000E+01
 50
2.50324001E+02
 51
2.70037542E+02
  0
LINE
  8
0
 62
4
 10
-4.28999542E+01
 20
1.88678895E+02
 11
-4.28999542E+01
 21
1.90406819E+02
  0
LINE
  8
0
 62
4
 10
-3.45999542E+01
 20
1.88678895E+02
 11
-3.45999542E+01
 21
1.88818004E+02
  0
LINE
  8
0
 62
4
 10
-4.27499542E+01
 20
1.90781046E+02
 11
-4.27499542E+01
 21
1.90598816E+02
  0
POLYLINE
  8
0
 62
4
 66
1
  0
VERTEX
  8
0
 62
4
 10
-3.50499542E+01
 20
1.91044968E+02
  0
VERTEX
  8
0
 62
4
 10
-3.51992622E+01
 20
1.91100888E+02
  0
VERTEX
  8
0
 62
4
 10
-3.53765309E+01
 20
1.91154289E+02
  0
VERTEX
  8
0
 62
4
 10
-3.55803643E+01
 20
1.91204751E+02
  0
VERTEX
  8
0
 62
4
 10
-3.58091574E+01
 20
1.91251876E+02
  0
VERTEX
  8
0
 62
4
 10
-3.60611084E+01
 20
1.91295294E+02
  0
VERTEX
  8
0
 62
4
 10
-3.63342334E+01
 20
1.91334662E+02
  0
VERTEX
  8
0
 62
4
 10
-3.66263815E+01
 20
1.91369671E+02
  0
VERTEX
  8
0
 62
4
 10
-3.69352521E+01
 20
1.91400044E+02
  0
VERTEX
  8
0
 62
4
 10
-3.72584130E+01
 20
1.91425543E+02
  0
VERTEX
  8
0
 62
4
 10
-3.75933194E+01
 20
1.91445967E+02
  0
VERTEX
  8
0
 62
4
 10
-3.79373340E+01
 20
1.91461154E+02
  0
VERTEX
  8
0
 62
4
 10
-3.82877477E+01
 20
1.91470986E+02
  0
VERTEX
  8
0
 62
4
 10
-3.86418011E+01
 20
1.91475385E+02
  0
VERTEX
  8
0
 62
4
 10
-3.89967063E+01
 20
1.91474316E+02
  0
VERTEX
  8
0
 62
4
 10
-3.93496683E+01
 20
1.91467788E+02
  0
VERTEX
  8
0
 62
4
 10
-3.96979078E+01
 20
1.91455852E+02
  0
VERTEX
  8
0
 62
4
 10
-4.00386823E+01
 20
1.91438601E+02
  0
VERTEX
  8
0
 62
4
 10
-4.03693085E+01
 20
1.91416173E+02
  0
VERTEX
  8
0
 62
4
 10
-4.06871828E+01
 20
1.91388744E+02
  0
VERTEX
  8
0
 62
4
 10
-4.09898019E+01
 20
1.91356529E+02
  0
VERTEX
  8
0
 62
4
 10
-4.12747828E+01
 20
1.91319782E+02
  0
VERTEX
  8
0
 62
4
 10
-4.15398814E+01
 20
1.91278793E+02
  0
VERTEX
  8
0
 62
4
 10
-4.17830101E+01
 20
1.91233884E+02
  0
VERTEX
  8
0
 62
4
 10
-4.20022544E+01
 20
1.91185409E+02
  0
VERTEX
  8
0
 62
4
 10
-4.21958876E+01
 20
1.91133750E+02
  0
VERTEX
  8
0
 62
4
 10
-4.23623851E+01
 20
1.91079314E+02
  0
VERTEX
  8
0
 62
4
 10
-4.25004358E+01
 20
1.91022529E+02
  0
VERTEX
  8
0
 62
4
 10
-4.26089524E+01
 20
1.90963842E+02
  0
VERTEX
  8
0
 62
4
 10
-4.26870804E+01
 20
1.90903716E+02
  0
VERTEX
  8
0
 62
4
 10
-4.27342048E+01
 20
1.90842623E+02
  0
VERTEX
  8
0
 62
4
 10
-4.27499542E+01
 20
1.90781046E+02
  0
SEQEND
  8
0
  0
ARC
  8
0
 62
4
 10
-4.08685598E+01
 20
2.00265135E+02
 40
1.25124521E+01
 50
2.74941635E+02
 51
2.88095416E+02
  0
ARC
  8
0
 62
4
 10
-3.66313484E+01
 20
2.00265138E+02
 40
1.25124547E+01
 50
2.51904586E+02
 51
2.65058365E+02
  0
POLYLINE
  8
0
 62
4
 66
1
  0
VERTEX
  8
0
 62
4
 10
-3.45999542E+01
 20
1.88673558E+02
  0
VERTEX
  8
0
 62
4
 10
-3.46166609E+01
 20
1.88738156E+02
  0
VERTEX
  8
0
 62
4
 10
-3.46666464E+01
 20
1.88802233E+02
  0
VERTEX
  8
0
 62
4
 10
-3.47495083E+01
 20
1.88865275E+02
  0
VERTEX
  8
0
 62
4
 10
-3.48645795E+01
 20
1.88926773E+02
  0
VERTEX
  8
0
 62
4
 10
-3.50109334E+01
 20
1.88986232E+02
  0
VERTEX
  8
0
 62
4
 10
-3.51873917E+01
 20
1.89043174E+02
  0
VERTEX
  8
0
 62
4
 10
-3.53925337E+01
 20
1.89097140E+02
  0
VERTEX
  8
0
 62
4
 10
-3.56247076E+01
 20
1.89147695E+02
  0
VERTEX
  8
0
 62
4
 10
-3.58820442E+01
 20
1.89194433E+02
  0
VERTEX
  8
0
 62
4
 10
-3.61624715E+01
 20
1.89236977E+02
  0
VERTEX
  8
0
 62
4
 10
-3.64637317E+01
 20
1.89274985E+02
  0
VERTEX
  8
0
 62
4
 10
-3.67833992E+01
 20
1.89308150E+02
  0
VERTEX
  8
0
 62
4
 10
-3.71189003E+01
 20
1.89336206E+02
  0
VERTEX
  8
0
 62
4
 10
-3.74675336E+01
 20
1.89358927E+02
  0
VERTEX
  8
0
 62
4
 10
-3.78264923E+01
 20
1.89376130E+02
  0
VERTEX
  8
0
 62
4
 10
-3.81928861E+01
 20
1.89387676E+02
  0
VERTEX
  8
0
 62
4
 10
-3.85637651E+01
 20
1.89393472E+02
  0
VERTEX
  8
0
 62
4
 10
-3.89361432E+01
 20
1.89393472E+02
  0
VERTEX
  8
0
 62
4
 10
-3.93070222E+01
 20
1.89387676E+02
  0
VERTEX
  8
0
 62
4
 10
-3.96734161E+01
 20
1.89376130E+02
  0
VERTEX
  8
0
 62
4
 10
-4.00323747E+01
 20
1.89358927E+02
  0
VERTEX
  8
0
 62
4
 10
-4.03810081E+01
 20
1.89336206E+02
  0
VERTEX
  8
0
 62
4
 10
-4.07165091E+01
 20
1.89308150E+02
  0
VERTEX
  8
0
 62
4
 10
-4.10361767E+01
 20
1.89274985E+02
  0
VERTEX
  8
0
 62
4
 10
-4.13374369E+01
 20
1.89236977E+02
  0
VERTEX
  8
0
 62
4
 10
-4.16178642E+01
 20
1.89194433E+02
  0
VERTEX
  8
0
 62
4
 10
-4.18752008E+01
 20
1.89147695E+02
  0
VERTEX
  8
0
 62
4
 10
-4.21073747E+01
 20
1.89097140E+02
  0
VERTEX
  8
0
 62
4
 10
-4.23125167E+01
 20
1.89043174E+02
  0
VERTEX
  8
0
 62
4
 10
-4.24889750E+01
 20
1.88986232E+02
  0
VERTEX
  8
0
 62
4
 10
-4.26353289E+01
 20
1.88926773E+02
  0
VERTEX
  8
0
 62
4
 10
-4.27504001E+01
 20
1.88865275E+02
  0
VERTEX
  8
0
 62
4
 10
-4.28332620E+01
 20
1.88802233E+02
  0
VERTEX
  8
0
 62
4
 10
-4.28832475E+01
 20
1.88738156E+02
  0
VERTEX
  8
0
 62
4
 10
-4.28999542E+01
 20
1.88673558E+02
  0
SEQEND
  8
0
  0
ARC
  8
0
 62
4
 10
-4.26499542E+01
 20
1.88678895E+02
 40
2.50000000E-01
 50
1.80000000E+02
 51
2.50324001E+02
  0
ARC
  8
0
 62
4
 10
-3.48499542E+01
 20
1.88678895E+02
 40
2.50000000E-01
 50
2.89675999E+02
 51
0.00000000E+00
  0
LINE
  8
0
 62
4
 10
-3.50499542E+01
 20
1.90404007E+02
 11
-3.50499542E+01
 21
1.91388815E+02
  0
LINE
  8
0
 62
4
 10
-2.74499542E+01
 20
1.90404007E+02
 11
-2.74499542E+01
 21
1.91388815E+02
  0
POLYLINE
  8
0
 62
4
 66
1
  0
VERTEX
  8
0
 62
4
 10
-2.74499542E+01
 20
1.91388815E+02
  0
VERTEX
  8
0
 62
4
 10
-2.74652519E+01
 20
1.91447965E+02
  0
VERTEX
  8
0
 62
4
 10
-2.75110218E+01
 20
1.91506638E+02
  0
VERTEX
  8
0
 62
4
 10
-2.75868953E+01
 20
1.91564363E+02
  0
VERTEX
  8
0
 62
4
 10
-2.76922617E+01
 20
1.91620674E+02
  0
VERTEX
  8
0
 62
4
 10
-2.78262725E+01
 20
1.91675119E+02
  0
VERTEX
  8
0
 62
4
 10
-2.79878488E+01
 20
1.91727258E+02
  0
VERTEX
  8
0
 62
4
 10
-2.81756896E+01
 20
1.91776673E+02
  0
VERTEX
  8
0
 62
4
 10
-2.83882826E+01
 20
1.91822964E+02
  0
VERTEX
  8
0
 62
4
 10
-2.86239161E+01
 20
1.91865761E+02
  0
VERTEX
  8
0
 62
4
 10
-2.88806929E+01
 20
1.91904717E+02
  0
VERTEX
  8
0
 62
4
 10
-2.91565457E+01
 20
1.91939519E+02
  0
VERTEX
  8
0
 62
4
 10
-2.94492533E+01
 20
1.91969887E+02
  0
VERTEX
  8
0
 62
4
 10
-2.97564591E+01
 20
1.91995577E+02
  0
VERTEX
  8
0
 62
4
 10
-3.00756896E+01
 20
1.92016382E+02
  0
VERTEX
  8
0
 62
4
 10
-3.04043746E+01
 20
1.92032134E+02
  0
VERTEX
  8
0
 62
4
 10
-3.07398678E+01
 20
1.92042706E+02
  0
VERTEX
  8
0
 62
4
 10
-3.10794678E+01
 20
1.92048014E+02
  0
VERTEX
  8
0
 62
4
 10
-3.14204405E+01
 20
1.92048014E+02
  0
VERTEX
  8
0
 62
4
 10
-3.17600406E+01
 20
1.92042706E+02
  0
VERTEX
  8
0
 62
4
 10
-3.20955337E+01
 20
1.92032134E+02
  0
VERTEX
  8
0
 62
4
 10
-3.24242188E+01
 20
1.92016382E+02
  0
VERTEX
  8
0
 62
4
 10
-3.27434493E+01
 20
1.91995577E+02
  0
VERTEX
  8
0
 62
4
 10
-3.30506551E+01
 20
1.91969887E+02
  0
VERTEX
  8
0
 62
4
 10
-3.33433627E+01
 20
1.91939519E+02
  0
VERTEX
  8
0
 62
4
 10
-3.36192154E+01
 20
1.91904717E+02
  0
VERTEX
  8
0
 62
4
 10
-3.38759922E+01
 20
1.91865761E+02
  0
VERTEX
  8
0
 62
4
 10
-3.41116258E+01
 20
1.91822964E+02
  0
VERTEX
  8
0
 62
4
 10
-3.43242188E+01
 20
1.91776673E+02
  0
VERTEX
  8
0
 62
4
 10
-3.45120596E+01
 20
1.91727258E+02
  0
VERTEX
  8
0
 62
4
 10
-3.46736359E+01
 20
1.91675119E+02
  0
VERTEX
  8
0
 62
4
 10
-3.48076467E+01
 20
1.91620674E+02
  0
VERTEX
  8
0
 62
4
 10
-3.49130131E+01
 20
1.91564363E+02
  0
VERTEX
  8
0
 62
4
 10
-3.49888866E+01
 20
1.91506638E+02
  0
VERTEX
  8
0
 62
4
 10
-3.50346565E+01
 20
1.91447965E+02
  0
VERTEX
  8
0
 62
4
 10
-3.50499542E+01
 20
1.91388815E+02
  0
SEQEND
  8
0
  0
POLYLINE
  8
0
 62
4
 66
1
  0
VERTEX
  8
0
 62
4
 10
-2.78499542E+01
 20
1.90109316E+02
  0
VERTEX
  8
0
 62
4
 10
-2.77133725E+01
 20
1.90162605E+02
  0
VERTEX
  8
0
 62
4
 10
-2.76044247E+01
 20
1.90217781E+02
  0
VERTEX
  8
0
 62
4
 10
-2.75239619E+01
 20
1.90274411E+02
  0
VERTEX
  8
0
 62
4
 10
-2.74726129E+01
 20
1.90332054E+02
  0
VERTEX
  8
0
 62
4
 10
-2.74507789E+01
 20
1.90390260E+02
  0
VERTEX
  8
0
 62
4
 10
-2.74586306E+01
 20
1.90448573E+02
  0
VERTEX
  8
0
 62
4
 10
-2.74961066E+01
 20
1.90506537E+02
  0
VERTEX
  8
0
 62
4
 10
-2.75629140E+01
 20
1.90563700E+02
  0
VERTEX
  8
0
 62
4
 10
-2.76585308E+01
 20
1.90619616E+02
  0
VERTEX
  8
0
 62
4
 10
-2.77822100E+01
 20
1.90673847E+02
  0
VERTEX
  8
0
 62
4
 10
-2.79329851E+01
 20
1.90725969E+02
  0
VERTEX
  8
0
 62
4
 10
-2.81096780E+01
 20
1.90775576E+02
  0
VERTEX
  8
0
 62
4
 10
-2.83109080E+01
 20
1.90822280E+02
  0
VERTEX
  8
0
 62
4
 10
-2.85351030E+01
 20
1.90865715E+02
  0
VERTEX
  8
0
 62
4
 10
-2.87805109E+01
 20
1.90905542E+02
  0
VERTEX
  8
0
 62
4
 10
-2.90452144E+01
 20
1.90941451E+02
  0
VERTEX
  8
0
 62
4
 10
-2.93271450E+01
 20
1.90973160E+02
  0
VERTEX
  8
0
 62
4
 10
-2.96240999E+01
 20
1.91000422E+02
  0
VERTEX
  8
0
 62
4
 10
-2.99337588E+01
 20
1.91023024E+02
  0
VERTEX
  8
0
 62
4
 10
-3.02537020E+01
 20
1.91040789E+02
  0
VERTEX
  8
0
 62
4
 10
-3.05814296E+01
 20
1.91053578E+02
  0
VERTEX
  8
0
 62
4
 10
-3.09143809E+01
 20
1.91061292E+02
  0
VERTEX
  8
0
 62
4
 10
-3.12499542E+01
 20
1.91063870E+02
  0
VERTEX
  8
0
 62
4
 10
-3.15855276E+01
 20
1.91061292E+02
  0
VERTEX
  8
0
 62
4
 10
-3.19184788E+01
 20
1.91053578E+02
  0
VERTEX
  8
0
 62
4
 10
-3.22462065E+01
 20
1.91040789E+02
  0
VERTEX
  8
0
 62
4
 10
-3.25661497E+01
 20
1.91023024E+02
  0
VERTEX
  8
0
 62
4
 10
-3.28758085E+01
 20
1.91000422E+02
  0
VERTEX
  8
0
 62
4
 10
-3.31727634E+01
 20
1.90973160E+02
  0
VERTEX
  8
0
 62
4
 10
-3.34546941E+01
 20
1.90941451E+02
  0
VERTEX
  8
0
 62
4
 10
-3.37193975E+01
 20
1.90905542E+02
  0
VERTEX
  8
0
 62
4
 10
-3.39648055E+01
 20
1.90865715E+02
  0
VERTEX
  8
0
 62
4
 10
-3.41890004E+01
 20
1.90822280E+02
  0
VERTEX
  8
0
 62
4
 10
-3.43902305E+01
 20
1.90775576E+02
  0
VERTEX
  8
0
 62
4
 10
-3.45669234E+01
 20
1.90725969E+02
  0
VERTEX
  8
0
 62
4
 10
-3.47176984E+01
 20
1.90673847E+02
  0
VERTEX
  8
0
 62
4
 10
-3.48413776E+01
 20
1.90619616E+02
  0
VERTEX
  8
0
 62
4
 10
-3.49369944E+01
 20
1.90563701E+02
  0
VERTEX
  8
0
 62
4
 10
-3.50038018E+01
 20
1.90506537E+02
  0
VERTEX
  8
0
 62
4
 10
-3.50412778E+01
 20
1.90448573E+02
  0
VERTEX
  8
0
 62
4
 10
-3.50491295E+01
 20
1.90390260E+02
  0
VERTEX
  8
0
 62
4
 10
-3.50272955E+01
 20
1.90332054E+02
  0
VERTEX
  8
0
 62
4
 10
-3.49759465E+01
 20
1.90274411E+02
  0
VERTEX
  8
0
 62
4
 10
-3.48954837E+01
 20
1.90217781E+02
  0
VERTEX
  8
0
 62
4
 10
-3.47865359E+01
 20
1.90162605E+02
  0
VERTEX
  8
0
 62
4
 10
-3.46499542E+01
 20
1.90109316E+02
  0
SEQEND
  8
0
  0
LINE
  8
0
 62
4
 10
-3.46499542E+01
 20
1.89130255E+02
 11
-3.46499542E+01
 21
1.90404007E+02
  0
LINE
  8
0
 62
4
 10
-2.78499542E+01
 20
1.89130255E+02
 11
-2.78499542E+01
 21
1.90404007E+02
  0
POLYLINE
  8
0
 62
4
 66
1
  0
VERTEX
  8
0
 62
4
 10
-2.78499542E+01
 20
1.90404007E+02
  0
VERTEX
  8
0
 62
4
 10
-2.78636416E+01
 20
1.90456930E+02
  0
VERTEX
  8
0
 62
4
 10
-2.79045936E+01
 20
1.90509428E+02
  0
VERTEX
  8
0
 62
4
 10
-2.79724805E+01
 20
1.90561076E+02
  0
VERTEX
  8
0
 62
4
 10
-2.80667556E+01
 20
1.90611460E+02
  0
VERTEX
  8
0
 62
4
 10
-2.81866600E+01
 20
1.90660174E+02
  0
VERTEX
  8
0
 62
4
 10
-2.83312283E+01
 20
1.90706825E+02
  0
VERTEX
  8
0
 62
4
 10
-2.84992964E+01
 20
1.90751038E+02
  0
VERTEX
  8
0
 62
4
 10
-2.86895112E+01
 20
1.90792457E+02
  0
VERTEX
  8
0
 62
4
 10
-2.89003412E+01
 20
1.90830748E+02
  0
VERTEX
  8
0
 62
4
 10
-2.91300889E+01
 20
1.90865603E+02
  0
VERTEX
  8
0
 62
4
 10
-2.93769044E+01
 20
1.90896742E+02
  0
VERTEX
  8
0
 62
4
 10
-2.96388007E+01
 20
1.90923914E+02
  0
VERTEX
  8
0
 62
4
 10
-2.99136691E+01
 20
1.90946900E+02
  0
VERTEX
  8
0
 62
4
 10
-3.01992964E+01
 20
1.90965514E+02
  0
VERTEX
  8
0
 62
4
 10
-3.04933830E+01
 20
1.90979608E+02
  0
VERTEX
  8
0
 62
4
 10
-3.07935611E+01
 20
1.90989068E+02
  0
VERTEX
  8
0
 62
4
 10
-3.10974138E+01
 20
1.90993816E+02
  0
VERTEX
  8
0
 62
4
 10
-3.14024946E+01
 20
1.90993816E+02
  0
VERTEX
  8
0
 62
4
 10
-3.17063473E+01
 20
1.90989068E+02
  0
VERTEX
  8
0
 62
4
 10
-3.20065254E+01
 20
1.90979608E+02
  0
VERTEX
  8
0
 62
4
 10
-3.23006120E+01
 20
1.90965514E+02
  0
VERTEX
  8
0
 62
4
 10
-3.25862393E+01
 20
1.90946900E+02
  0
VERTEX
  8
0
 62
4
 10
-3.28611076E+01
 20
1.90923914E+02
  0
VERTEX
  8
0
 62
4
 10
-3.31230039E+01
 20
1.90896742E+02
  0
VERTEX
  8
0
 62
4
 10
-3.33698195E+01
 20
1.90865603E+02
  0
VERTEX
  8
0
 62
4
 10
-3.35995672E+01
 20
1.90830748E+02
  0
VERTEX
  8
0
 62
4
 10
-3.38103972E+01
 20
1.90792457E+02
  0
VERTEX
  8
0
 62
4
 10
-3.40006120E+01
 20
1.90751038E+02
  0
VERTEX
  8
0
 62
4
 10
-3.41686801E+01
 20
1.90706825E+02
  0
VERTEX
  8
0
 62
4
 10
-3.43132483E+01
 20
1.90660174E+02
  0
VERTEX
  8
0
 62
4
 10
-3.44331528E+01
 20
1.90611460E+02
  0
VERTEX
  8
0
 62
4
 10
-3.45274279E+01
 20
1.90561076E+02
  0
VERTEX
  8
0
 62
4
 10
-3.45953148E+01
 20
1.90509428E+02
  0
VERTEX
  8
0
 62
4
 10
-3.46362668E+01
 20
1.90456930E+02
  0
VERTEX
  8
0
 62
4
 10
-3.46499542E+01
 20
1.90404007E+02
  0
SEQEND
  8
0
  0
ARC
  8
0
 62
4
 10
-3.12499542E+01
 20
1.99670468E+02
 40
1.18100000E+01
 50
2.57172490E+02
 51
2.82827510E+02
  0
ARC
  8
0
 62
4
 10
-2.88499539E+01
 20
1.89130255E+02
 40
1.00000000E+00
 50
2.82827510E+02
 51
5.08888749E-14
  0
ARC
  8
0
 62
4
 10
-3.36499545E+01
 20
1.89130255E+02
 40
1.00000000E+00
 50
1.80000000E+02
 51
2.57172490E+02
  0
ARC
  8
0
 62
4
 10
-3.33717078E+01
 20
2.00389611E+02
 40
1.25306621E+01
 50
2.74968660E+02
 51
2.88083352E+02
  0
ARC
  8
0
 62
4
 10
-2.91282006E+01
 20
2.00389612E+02
 40
1.25306626E+01
 50
2.51916648E+02
 51
2.65031340E+02
  0
LINE
  8
0
  6
CENTER
 62
6
 10
-4.12499542E+01
 20
1.90781046E+02
 11
-3.62499542E+01
 21
1.90781046E+02
  0
LINE
  8
0
  6
CENTER
 62
6
 10
-3.12499542E+01
 20
1.93888815E+02
 11
-3.12499542E+01
 21
1.88888815E+02
  0
LINE
  8
0
  6
CENTER
 62
6
 10
-3.37499542E+01
 20
1.91388815E+02
 11
-2.87499542E+01
 21
1.91388815E+02
  0
LINE
  8
0
  6
CENTER
 62
6
 10
-4.62499542E+01
 20
1.93888815E+02
 11
-4.62499542E+01
 21
1.88888815E+02
  0
LINE
  8
0
  6
CENTER
 62
6
 10
-4.87499542E+01
 20
1.91388815E+02
 11
-4.37499542E+01
 21
1.91388815E+02
  0
LINE
  8
0
 62
4
 10
-2.74568436E+01
 20
1.90364291E+02
 11
-2.37499542E+01
 21
1.90364291E+02
  0
LINE
  8
0
 62
7
 10
2.02499542E+01
 20
1.72519459E+02
 11
4.17499542E+01
 21
1.72519459E+02
  0
LINE
  8
0
  6
CENTER
 62
6
 10
4.02499542E+01
 20
1.85036105E+02
 11
-6.75004578E+00
 21
1.85036105E+02
  0
LINE
  8
0
 62
6
 10
-3.01799494E+00
 20
1.88036105E+02
 11
-6.48209656E+00
 21
1.82036105E+02
  0
LINE
  8
0
 62
4
 10
5.24995422E+00
 20
1.86536105E+02
 11
-3.88402038E+00
 21
1.86536105E+02
  0
LINE
  8
0
 62
4
 10
5.24995422E+00
 20
1.83536105E+02
 11
-5.61607118E+00
 21
1.83536105E+02
  0
LINE
  8
0
 62
6
 10
1.02499542E+01
 20
1.59366144E+02
 11
1.02499542E+01
 21
1.61717181E+02
  0
LINE
  8
0
 62
6
 10
7.24995420E+00
 20
1.59366144E+02
 11
7.24995420E+00
 21
1.61717181E+02
  0
LINE
  8
0
 62
4
 10
1.07499542E+01
 20
1.59595859E+02
 11
1.07499542E+01
 21
1.61717181E+02
  0
LINE
  8
0
 62
4
 10
6.74995420E+00
 20
1.59595859E+02
 11
6.74995420E+00
 21
1.61717181E+02
  0
LINE
  8
0
 62
4
 10
2.02499542E+01
 20
1.61717181E+02
 11
2.02499542E+01
 21
1.74425178E+02
  0
LINE
  8
0
 62
4
 10
5.24995422E+00
 20
1.61717181E+02
 11
5.24995422E+00
 21
1.87347068E+02
  0
LINE
  8
0
 62
4
 10
3.52499542E+01
 20
1.74425178E+02
 11
3.52499542E+01
 21
1.86374639E+02
  0
LINE
  8
0
  6
CENTER
 62
6
 10
8.74995419E+00
 20
1.56253886E+02
 11
8.74995419E+00
 21
1.66519465E+02
  0
LINE
  8
0
  6
CENTER
 62
6
 10
1.67499542E+01
 20
1.56253886E+02
 11
1.67499542E+01
 21
1.66519465E+02
  0
LINE
  8
0
  6
CENTER
 62
6
 10
2.02499542E+01
 20
1.83457883E+02
 11
2.02499542E+01
 21
1.88457883E+02
  0
LINE
  8
0
 62
4
 10
2.02499542E+01
 20
1.61717181E+02
 11
5.24995423E+00
 21
1.61717181E+02
  0
LINE
  8
0
 62
4
 10
2.02499542E+01
 20
1.67531523E+02
 11
5.24995423E+00
 21
1.67531523E+02
  0
LINE
  8
0
 62
4
 10
3.52499542E+01
 20
1.74425178E+02
 11
5.24995423E+00
 21
1.74425178E+02
  0
LINE
  8
0
 62
4
 10
3.52499542E+01
 20
1.84568698E+02
 11
5.24995423E+00
 21
1.84568698E+02
  0
LINE
  8
0
 62
4
 10
9.34995422E+00
 20
1.87347068E+02
 11
5.24995422E+00
 21
1.87347068E+02
  0
LINE
  8
0
 62
4
 10
9.34995422E+00
 20
1.87173420E+02
 11
5.24995422E+00
 21
1.87173420E+02
  0
LINE
  8
0
 62
4
 10
3.52499542E+01
 20
1.86374639E+02
 11
2.43999542E+01
 21
1.86374639E+02
  0
POLYLINE
  8
0
 62
4
 66
1
  0
VERTEX
  8
0
 62
4
 10
6.74995419E+00
 20
1.59595859E+02
  0
VERTEX
  8
0
 62
4
 10
6.75800560E+00
 20
1.59564728E+02
  0
VERTEX
  8
0
 62
4
 10
6.78209501E+00
 20
1.59533847E+02
  0
VERTEX
  8
0
 62
4
 10
6.82202847E+00
 20
1.59503465E+02
  0
VERTEX
  8
0
 62
4
 10
6.87748445E+00
 20
1.59473828E+02
  0
VERTEX
  8
0
 62
4
 10
6.94801645E+00
 20
1.59445173E+02
  0
VERTEX
  8
0
 62
4
 10
7.03305660E+00
 20
1.59417731E+02
  0
VERTEX
  8
0
 62
4
 10
7.13192020E+00
 20
1.59391723E+02
  0
VERTEX
  8
0
 62
4
 10
7.24381125E+00
 20
1.59367359E+02
  0
VERTEX
  8
0
 62
4
 10
7.36782889E+00
 20
1.59344835E+02
  0
VERTEX
  8
0
 62
4
 10
7.50297458E+00
 20
1.59324332E+02
  0
VERTEX
  8
0
 62
4
 10
7.64816022E+00
 20
1.59306015E+02
  0
VERTEX
  8
0
 62
4
 10
7.80221686E+00
 20
1.59290031E+02
  0
VERTEX
  8
0
 62
4
 10
7.96390412E+00
 20
1.59276510E+02
  0
VERTEX
  8
0
 62
4
 10
8.13192019E+00
 20
1.59265561E+02
  0
VERTEX
  8
0
 62
4
 10
8.30491231E+00
 20
1.59257270E+02
  0
VERTEX
  8
0
 62
4
 10
8.48148765E+00
 20
1.59251706E+02
  0
VERTEX
  8
0
 62
4
 10
8.66022452E+00
 20
1.59248912E+02
  0
VERTEX
  8
0
 62
4
 10
8.83968384E+00
 20
1.59248912E+02
  0
VERTEX
  8
0
 62
4
 10
9.01842071E+00
 20
1.59251706E+02
  0
VERTEX
  8
0
 62
4
 10
9.19499605E+00
 20
1.59257270E+02
  0
VERTEX
  8
0
 62
4
 10
9.36798817E+00
 20
1.59265561E+02
  0
VERTEX
  8
0
 62
4
 10
9.53600424E+00
 20
1.59276510E+02
  0
VERTEX
  8
0
 62
4
 10
9.69769150E+00
 20
1.59290031E+02
  0
VERTEX
  8
0
 62
4
 10
9.85174814E+00
 20
1.59306015E+02
  0
VERTEX
  8
0
 62
4
 10
9.99693378E+00
 20
1.59324332E+02
  0
VERTEX
  8
0
 62
4
 10
1.01320795E+01
 20
1.59344835E+02
  0
VERTEX
  8
0
 62
4
 10
1.02560971E+01
 20
1.59367359E+02
  0
VERTEX
  8
0
 62
4
 10
1.03679882E+01
 20
1.59391723E+02
  0
VERTEX
  8
0
 62
4
 10
1.04668518E+01
 20
1.59417731E+02
  0
VERTEX
  8
0
 62
4
 10
1.05518919E+01
 20
1.59445173E+02
  0
VERTEX
  8
0
 62
4
 10
1.06224239E+01
 20
1.59473828E+02
  0
VERTEX
  8
0
 62
4
 10
1.06778799E+01
 20
1.59503465E+02
  0
VERTEX
  8
0
 62
4
 10
1.07178134E+01
 20
1.59533847E+02
  0
VERTEX
  8
0
 62
4
 10
1.07419028E+01
 20
1.59564728E+02
  0
VERTEX
  8
0
 62
4
 10
1.07499542E+01
 20
1.59595859E+02
  0
SEQEND
  8
0
  0
LINE
  8
0
 62
6
 10
1.82499542E+01
 20
1.59366144E+02
 11
1.82499542E+01
 21
1.61717181E+02
  0
LINE
  8
0
 62
6
 10
1.52499542E+01
 20
1.59366144E+02
 11
1.52499542E+01
 21
1.61717181E+02
  0
LINE
  8
0
 62
4
 10
1.87499542E+01
 20
1.59595859E+02
 11
1.87499542E+01
 21
1.61717181E+02
  0
LINE
  8
0
 62
4
 10
1.47499542E+01
 20
1.59595859E+02
 11
1.47499542E+01
 21
1.61717181E+02
  0
POLYLINE
  8
0
 62
4
 66
1
  0
VERTEX
  8
0
 62
4
 10
1.47499542E+01
 20
1.59595859E+02
  0
VERTEX
  8
0
 62
4
 10
1.47580056E+01
 20
1.59564728E+02
  0
VERTEX
  8
0
 62
4
 10
1.47820950E+01
 20
1.59533847E+02
  0
VERTEX
  8
0
 62
4
 10
1.48220285E+01
 20
1.59503465E+02
  0
VERTEX
  8
0
 62
4
 10
1.48774845E+01
 20
1.59473828E+02
  0
VERTEX
  8
0
 62
4
 10
1.49480165E+01
 20
1.59445173E+02
  0
VERTEX
  8
0
 62
4
 10
1.50330566E+01
 20
1.59417731E+02
  0
VERTEX
  8
0
 62
4
 10
1.51319202E+01
 20
1.59391723E+02
  0
VERTEX
  8
0
 62
4
 10
1.52438113E+01
 20
1.59367359E+02
  0
VERTEX
  8
0
 62
4
 10
1.53678289E+01
 20
1.59344835E+02
  0
VERTEX
  8
0
 62
4
 10
1.55029746E+01
 20
1.59324332E+02
  0
VERTEX
  8
0
 62
4
 10
1.56481602E+01
 20
1.59306015E+02
  0
VERTEX
  8
0
 62
4
 10
1.58022169E+01
 20
1.59290031E+02
  0
VERTEX
  8
0
 62
4
 10
1.59639041E+01
 20
1.59276510E+02
  0
VERTEX
  8
0
 62
4
 10
1.61319202E+01
 20
1.59265561E+02
  0
VERTEX
  8
0
 62
4
 10
1.63049123E+01
 20
1.59257270E+02
  0
VERTEX
  8
0
 62
4
 10
1.64814877E+01
 20
1.59251706E+02
  0
VERTEX
  8
0
 62
4
 10
1.66602245E+01
 20
1.59248912E+02
  0
VERTEX
  8
0
 62
4
 10
1.68396838E+01
 20
1.59248912E+02
  0
VERTEX
  8
0
 62
4
 10
1.70184207E+01
 20
1.59251706E+02
  0
VERTEX
  8
0
 62
4
 10
1.71949961E+01
 20
1.59257270E+02
  0
VERTEX
  8
0
 62
4
 10
1.73679882E+01
 20
1.59265561E+02
  0
VERTEX
  8
0
 62
4
 10
1.75360043E+01
 20
1.59276510E+02
  0
VERTEX
  8
0
 62
4
 10
1.76976915E+01
 20
1.59290031E+02
  0
VERTEX
  8
0
 62
4
 10
1.78517482E+01
 20
1.59306015E+02
  0
VERTEX
  8
0
 62
4
 10
1.79969338E+01
 20
1.59324332E+02
  0
VERTEX
  8
0
 62
4
 10
1.81320795E+01
 20
1.59344835E+02
  0
VERTEX
  8
0
 62
4
 10
1.82560971E+01
 20
1.59367359E+02
  0
VERTEX
  8
0
 62
4
 10
1.83679882E+01
 20
1.59391723E+02
  0
VERTEX
  8
0
 62
4
 10
1.84668518E+01
 20
1.59417731E+02
  0
VERTEX
  8
0
 62
4
 10
1.85518919E+01
 20
1.59445173E+02
  0
VERTEX
  8
0
 62
4
 10
1.86224239E+01
 20
1.59473828E+02
  0
VERTEX
  8
0
 62
4
 10
1.86778799E+01
 20
1.59503465E+02
  0
VERTEX
  8
0
 62
4
 10
1.87178134E+01
 20
1.59533847E+02
  0
VERTEX
  8
0
 62
4
 10
1.87419028E+01
 20
1.59564728E+02
  0
VERTEX
  8
0
 62
4
 10
1.87499542E+01
 20
1.59595859E+02
  0
SEQEND
  8
0
  0
LINE
  8
0
 62
4
 10
3.52499542E+01
 20
1.82719193E+02
 11
3.67499542E+01
 21
1.83722126E+02
  0
LINE
  8
0
 62
4
 10
3.67499542E+01
 20
1.83722126E+02
 11
3.67499542E+01
 21
1.86346029E+02
  0
LINE
  8
0
 62
4
 10
3.67499542E+01
 20
1.85952715E+02
 11
3.52499542E+01
 21
1.86658424E+02
  0
LINE
  8
0
 62
4
 10
3.67499542E+01
 20
1.86346029E+02
 11
3.52499542E+01
 21
1.87353017E+02
  0
LINE
  8
0
 62
4
 10
3.52499542E+01
 20
1.87353017E+02
 11
2.43999542E+01
 21
1.87353017E+02
  0
LINE
  8
0
 62
4
 10
3.52499542E+01
 20
1.86658424E+02
 11
2.43999542E+01
 21
1.86658424E+02
  0
LINE
  8
0
 62
4
 10
3.52499542E+01
 20
1.86374639E+02
 11
3.52499542E+01
 21
1.87347068E+02
  0
POLYLINE
  8
0
 62
4
 66
1
  0
VERTEX
  8
0
 62
4
 10
1.65499542E+01
 20
1.86005739E+02
  0
VERTEX
  8
0
 62
4
 10
1.67317692E+01
 20
1.85949892E+02
  0
VERTEX
  8
0
 62
4
 10
1.69414664E+01
 20
1.85897073E+02
  0
VERTEX
  8
0
 62
4
 10
1.71773841E+01
 20
1.85847703E+02
  0
VERTEX
  8
0
 62
4
 10
1.74376524E+01
 20
1.85802171E+02
  0
VERTEX
  8
0
 62
4
 10
1.77202087E+01
 20
1.85760840E+02
  0
VERTEX
  8
0
 62
4
 10
1.80228138E+01
 20
1.85724035E+02
  0
VERTEX
  8
0
 62
4
 10
1.83430693E+01
 20
1.85692050E+02
  0
VERTEX
  8
0
 62
4
 10
1.86784373E+01
 20
1.85665137E+02
  0
VERTEX
  8
0
 62
4
 10
1.90262598E+01
 20
1.85643511E+02
  0
VERTEX
  8
0
 62
4
 10
1.93837804E+01
 20
1.85627341E+02
  0
VERTEX
  8
0
 62
4
 10
1.97481655E+01
 20
1.85616757E+02
  0
VERTEX
  8
0
 62
4
 10
2.01165274E+01
 20
1.85611843E+02
  0
VERTEX
  8
0
 62
4
 10
2.04859467E+01
 20
1.85612636E+02
  0
VERTEX
  8
0
 62
4
 10
2.08534958E+01
 20
1.85619132E+02
  0
VERTEX
  8
0
 62
4
 10
2.12162616E+01
 20
1.85631278E+02
  0
VERTEX
  8
0
 62
4
 10
2.15713693E+01
 20
1.85648978E+02
  0
VERTEX
  8
0
 62
4
 10
2.19160046E+01
 20
1.85672092E+02
  0
VERTEX
  8
0
 62
4
 10
2.22474360E+01
 20
1.85700437E+02
  0
VERTEX
  8
0
 62
4
 10
2.25630371E+01
 20
1.85733788E+02
  0
VERTEX
  8
0
 62
4
 10
2.28603065E+01
 20
1.85771881E+02
  0
VERTEX
  8
0
 62
4
 10
2.31368885E+01
 20
1.85814414E+02
  0
VERTEX
  8
0
 62
4
 10
2.33905909E+01
 20
1.85861049E+02
  0
VERTEX
  8
0
 62
4
 10
2.36194032E+01
 20
1.85911418E+02
  0
VERTEX
  8
0
 62
4
 10
2.38215120E+01
 20
1.85965121E+02
  0
VERTEX
  8
0
 62
4
 10
2.39953155E+01
 20
1.86021733E+02
  0
VERTEX
  8
0
 62
4
 10
2.41394363E+01
 20
1.86080804E+02
  0
VERTEX
  8
0
 62
4
 10
2.42527323E+01
 20
1.86141867E+02
  0
VERTEX
  8
0
 62
4
 10
2.43343055E+01
 20
1.86204437E+02
  0
VERTEX
  8
0
 62
4
 10
2.43835094E+01
 20
1.86268020E+02
  0
VERTEX
  8
0
 62
4
 10
2.43999542E+01
 20
1.86332110E+02
  0
SEQEND
  8
0
  0
ARC
  8
0
 62
4
 10
2.02422159E+01
 20
1.77175004E+02
 40
1.18100000E+01
 50
8.99624577E+01
 51
1.09675998E+02
  0
ARC
  8
0
 62
4
 10
2.02576925E+01
 20
1.77175004E+02
 40
1.18100000E+01
 50
7.03240015E+01
 51
9.00375421E+01
  0
LINE
  8
0
 62
4
 10
2.43999542E+01
 20
1.88060035E+02
 11
2.43999542E+01
 21
1.86332110E+02
  0
LINE
  8
0
 62
4
 10
1.60999542E+01
 20
1.88060035E+02
 11
1.60999542E+01
 21
1.87920926E+02
  0
LINE
  8
0
 62
4
 10
2.42499542E+01
 20
1.85957883E+02
 11
2.42499542E+01
 21
1.86140113E+02
  0
POLYLINE
  8
0
 62
4
 66
1
  0
VERTEX
  8
0
 62
4
 10
1.65499542E+01
 20
1.85693961E+02
  0
VERTEX
  8
0
 62
4
 10
1.66992622E+01
 20
1.85638041E+02
  0
VERTEX
  8
0
 62
4
 10
1.68765309E+01
 20
1.85584640E+02
  0
VERTEX
  8
0
 62
4
 10
1.70803643E+01
 20
1.85534178E+02
  0
VERTEX
  8
0
 62
4
 10
1.73091574E+01
 20
1.85487053E+02
  0
VERTEX
  8
0
 62
4
 10
1.75611084E+01
 20
1.85443635E+02
  0
VERTEX
  8
0
 62
4
 10
1.78342334E+01
 20
1.85404267E+02
  0
VERTEX
  8
0
 62
4
 10
1.81263815E+01
 20
1.85369258E+02
  0
VERTEX
  8
0
 62
4
 10
1.84352521E+01
 20
1.85338885E+02
  0
VERTEX
  8
0
 62
4
 10
1.87584130E+01
 20
1.85313386E+02
  0
VERTEX
  8
0
 62
4
 10
1.90933194E+01
 20
1.85292962E+02
  0
VERTEX
  8
0
 62
4
 10
1.94373340E+01
 20
1.85277775E+02
  0
VERTEX
  8
0
 62
4
 10
1.97877477E+01
 20
1.85267943E+02
  0
VERTEX
  8
0
 62
4
 10
2.01418011E+01
 20
1.85263544E+02
  0
VERTEX
  8
0
 62
4
 10
2.04967063E+01
 20
1.85264613E+02
  0
VERTEX
  8
0
 62
4
 10
2.08496683E+01
 20
1.85271141E+02
  0
VERTEX
  8
0
 62
4
 10
2.11979078E+01
 20
1.85283077E+02
  0
VERTEX
  8
0
 62
4
 10
2.15386823E+01
 20
1.85300328E+02
  0
VERTEX
  8
0
 62
4
 10
2.18693086E+01
 20
1.85322756E+02
  0
VERTEX
  8
0
 62
4
 10
2.21871828E+01
 20
1.85350185E+02
  0
VERTEX
  8
0
 62
4
 10
2.24898019E+01
 20
1.85382400E+02
  0
VERTEX
  8
0
 62
4
 10
2.27747828E+01
 20
1.85419147E+02
  0
VERTEX
  8
0
 62
4
 10
2.30398814E+01
 20
1.85460136E+02
  0
VERTEX
  8
0
 62
4
 10
2.32830101E+01
 20
1.85505045E+02
  0
VERTEX
  8
0
 62
4
 10
2.35022544E+01
 20
1.85553520E+02
  0
VERTEX
  8
0
 62
4
 10
2.36958876E+01
 20
1.85605179E+02
  0
VERTEX
  8
0
 62
4
 10
2.38623851E+01
 20
1.85659615E+02
  0
VERTEX
  8
0
 62
4
 10
2.40004358E+01
 20
1.85716400E+02
  0
VERTEX
  8
0
 62
4
 10
2.41089524E+01
 20
1.85775087E+02
  0
VERTEX
  8
0
 62
4
 10
2.41870805E+01
 20
1.85835214E+02
  0
VERTEX
  8
0
 62
4
 10
2.42342048E+01
 20
1.85896306E+02
  0
VERTEX
  8
0
 62
4
 10
2.42499542E+01
 20
1.85957883E+02
  0
SEQEND
  8
0
  0
ARC
  8
0
 62
4
 10
2.23685598E+01
 20
1.76473794E+02
 40
1.25124521E+01
 50
9.49416351E+01
 51
1.08095416E+02
  0
ARC
  8
0
 62
4
 10
1.81313484E+01
 20
1.76473791E+02
 40
1.25124547E+01
 50
7.19045858E+01
 51
8.50583647E+01
  0
POLYLINE
  8
0
 62
4
 66
1
  0
VERTEX
  8
0
 62
4
 10
1.60999542E+01
 20
1.88065372E+02
  0
VERTEX
  8
0
 62
4
 10
1.61166609E+01
 20
1.88000774E+02
  0
VERTEX
  8
0
 62
4
 10
1.61666464E+01
 20
1.87936697E+02
  0
VERTEX
  8
0
 62
4
 10
1.62495083E+01
 20
1.87873655E+02
  0
VERTEX
  8
0
 62
4
 10
1.63645795E+01
 20
1.87812157E+02
  0
VERTEX
  8
0
 62
4
 10
1.65109334E+01
 20
1.87752698E+02
  0
VERTEX
  8
0
 62
4
 10
1.66873917E+01
 20
1.87695756E+02
  0
VERTEX
  8
0
 62
4
 10
1.68925337E+01
 20
1.87641790E+02
  0
VERTEX
  8
0
 62
4
 10
1.71247076E+01
 20
1.87591235E+02
  0
VERTEX
  8
0
 62
4
 10
1.73820442E+01
 20
1.87544497E+02
  0
VERTEX
  8
0
 62
4
 10
1.76624715E+01
 20
1.87501953E+02
  0
VERTEX
  8
0
 62
4
 10
1.79637317E+01
 20
1.87463945E+02
  0
VERTEX
  8
0
 62
4
 10
1.82833992E+01
 20
1.87430780E+02
  0
VERTEX
  8
0
 62
4
 10
1.86189003E+01
 20
1.87402724E+02
  0
VERTEX
  8
0
 62
4
 10
1.89675337E+01
 20
1.87380003E+02
  0
VERTEX
  8
0
 62
4
 10
1.93264923E+01
 20
1.87362800E+02
  0
VERTEX
  8
0
 62
4
 10
1.96928861E+01
 20
1.87351254E+02
  0
VERTEX
  8
0
 62
4
 10
2.00637651E+01
 20
1.87345458E+02
  0
VERTEX
  8
0
 62
4
 10
2.04361432E+01
 20
1.87345458E+02
  0
VERTEX
  8
0
 62
4
 10
2.08070222E+01
 20
1.87351254E+02
  0
VERTEX
  8
0
 62
4
 10
2.11734161E+01
 20
1.87362800E+02
  0
VERTEX
  8
0
 62
4
 10
2.15323747E+01
 20
1.87380003E+02
  0
VERTEX
  8
0
 62
4
 10
2.18810081E+01
 20
1.87402724E+02
  0
VERTEX
  8
0
 62
4
 10
2.22165091E+01
 20
1.87430780E+02
  0
VERTEX
  8
0
 62
4
 10
2.25361767E+01
 20
1.87463945E+02
  0
VERTEX
  8
0
 62
4
 10
2.28374369E+01
 20
1.87501953E+02
  0
VERTEX
  8
0
 62
4
 10
2.31178642E+01
 20
1.87544497E+02
  0
VERTEX
  8
0
 62
4
 10
2.33752008E+01
 20
1.87591235E+02
  0
VERTEX
  8
0
 62
4
 10
2.36073747E+01
 20
1.87641790E+02
  0
VERTEX
  8
0
 62
4
 10
2.38125167E+01
 20
1.87695756E+02
  0
VERTEX
  8
0
 62
4
 10
2.39889750E+01
 20
1.87752698E+02
  0
VERTEX
  8
0
 62
4
 10
2.41353289E+01
 20
1.87812157E+02
  0
VERTEX
  8
0
 62
4
 10
2.42504001E+01
 20
1.87873655E+02
  0
VERTEX
  8
0
 62
4
 10
2.43332620E+01
 20
1.87936697E+02
  0
VERTEX
  8
0
 62
4
 10
2.43832475E+01
 20
1.88000774E+02
  0
VERTEX
  8
0
 62
4
 10
2.43999542E+01
 20
1.88065372E+02
  0
SEQEND
  8
0
  0
ARC
  8
0
 62
4
 10
2.41499542E+01
 20
1.88060035E+02
 40
2.50000000E-01
 50
0.00000000E+00
 51
7.03240015E+01
  0
ARC
  8
0
 62
4
 10
1.63499542E+01
 20
1.88060035E+02
 40
2.50000000E-01
 50
1.09675998E+02
 51
1.80000000E+02
  0
LINE
  8
0
 62
4
 10
1.65499542E+01
 20
1.86334922E+02
 11
1.65499542E+01
 21
1.85350114E+02
  0
LINE
  8
0
 62
4
 10
8.94995422E+00
 20
1.86334922E+02
 11
8.94995422E+00
 21
1.85350114E+02
  0
POLYLINE
  8
0
 62
4
 66
1
  0
VERTEX
  8
0
 62
4
 10
8.94995420E+00
 20
1.85350114E+02
  0
VERTEX
  8
0
 62
4
 10
8.96525188E+00
 20
1.85290964E+02
  0
VERTEX
  8
0
 62
4
 10
9.01102176E+00
 20
1.85232291E+02
  0
VERTEX
  8
0
 62
4
 10
9.08689533E+00
 20
1.85174566E+02
  0
VERTEX
  8
0
 62
4
 10
9.19226169E+00
 20
1.85118255E+02
  0
VERTEX
  8
0
 62
4
 10
9.32627250E+00
 20
1.85063810E+02
  0
VERTEX
  8
0
 62
4
 10
9.48784878E+00
 20
1.85011671E+02
  0
VERTEX
  8
0
 62
4
 10
9.67568961E+00
 20
1.84962256E+02
  0
VERTEX
  8
0
 62
4
 10
9.88828262E+00
 20
1.84915965E+02
  0
VERTEX
  8
0
 62
4
 10
1.01239161E+01
 20
1.84873168E+02
  0
VERTEX
  8
0
 62
4
 10
1.03806929E+01
 20
1.84834212E+02
  0
VERTEX
  8
0
 62
4
 10
1.06565457E+01
 20
1.84799410E+02
  0
VERTEX
  8
0
 62
4
 10
1.09492533E+01
 20
1.84769042E+02
  0
VERTEX
  8
0
 62
4
 10
1.12564591E+01
 20
1.84743352E+02
  0
VERTEX
  8
0
 62
4
 10
1.15756896E+01
 20
1.84722547E+02
  0
VERTEX
  8
0
 62
4
 10
1.19043746E+01
 20
1.84706795E+02
  0
VERTEX
  8
0
 62
4
 10
1.22398678E+01
 20
1.84696223E+02
  0
VERTEX
  8
0
 62
4
 10
1.25794678E+01
 20
1.84690915E+02
  0
VERTEX
  8
0
 62
4
 10
1.29204405E+01
 20
1.84690915E+02
  0
VERTEX
  8
0
 62
4
 10
1.32600406E+01
 20
1.84696223E+02
  0
VERTEX
  8
0
 62
4
 10
1.35955337E+01
 20
1.84706795E+02
  0
VERTEX
  8
0
 62
4
 10
1.39242188E+01
 20
1.84722547E+02
  0
VERTEX
  8
0
 62
4
 10
1.42434493E+01
 20
1.84743352E+02
  0
VERTEX
  8
0
 62
4
 10
1.45506551E+01
 20
1.84769042E+02
  0
VERTEX
  8
0
 62
4
 10
1.48433627E+01
 20
1.84799410E+02
  0
VERTEX
  8
0
 62
4
 10
1.51192154E+01
 20
1.84834212E+02
  0
VERTEX
  8
0
 62
4
 10
1.53759922E+01
 20
1.84873168E+02
  0
VERTEX
  8
0
 62
4
 10
1.56116258E+01
 20
1.84915965E+02
  0
VERTEX
  8
0
 62
4
 10
1.58242188E+01
 20
1.84962256E+02
  0
VERTEX
  8
0
 62
4
 10
1.60120596E+01
 20
1.85011671E+02
  0
VERTEX
  8
0
 62
4
 10
1.61736359E+01
 20
1.85063810E+02
  0
VERTEX
  8
0
 62
4
 10
1.63076467E+01
 20
1.85118255E+02
  0
VERTEX
  8
0
 62
4
 10
1.64130131E+01
 20
1.85174566E+02
  0
VERTEX
  8
0
 62
4
 10
1.64888866E+01
 20
1.85232291E+02
  0
VERTEX
  8
0
 62
4
 10
1.65346565E+01
 20
1.85290964E+02
  0
VERTEX
  8
0
 62
4
 10
1.65499542E+01
 20
1.85350114E+02
  0
SEQEND
  8
0
  0
POLYLINE
  8
0
 62
4
 66
1
  0
VERTEX
  8
0
 62
4
 10
9.34995419E+00
 20
1.86629613E+02
  0
VERTEX
  8
0
 62
4
 10
9.21337253E+00
 20
1.86576324E+02
  0
VERTEX
  8
0
 62
4
 10
9.10442466E+00
 20
1.86521148E+02
  0
VERTEX
  8
0
 62
4
 10
9.02396188E+00
 20
1.86464518E+02
  0
VERTEX
  8
0
 62
4
 10
8.97261290E+00
 20
1.86406875E+02
  0
VERTEX
  8
0
 62
4
 10
8.95077895E+00
 20
1.86348669E+02
  0
VERTEX
  8
0
 62
4
 10
8.95863062E+00
 20
1.86290356E+02
  0
VERTEX
  8
0
 62
4
 10
8.99610657E+00
 20
1.86232392E+02
  0
VERTEX
  8
0
 62
4
 10
9.06291398E+00
 20
1.86175229E+02
  0
VERTEX
  8
0
 62
4
 10
9.15853082E+00
 20
1.86119313E+02
  0
VERTEX
  8
0
 62
4
 10
9.28220998E+00
 20
1.86065082E+02
  0
VERTEX
  8
0
 62
4
 10
9.43298506E+00
 20
1.86012960E+02
  0
VERTEX
  8
0
 62
4
 10
9.60967796E+00
 20
1.85963353E+02
  0
VERTEX
  8
0
 62
4
 10
9.81090804E+00
 20
1.85916649E+02
  0
VERTEX
  8
0
 62
4
 10
1.00351030E+01
 20
1.85873214E+02
  0
VERTEX
  8
0
 62
4
 10
1.02805109E+01
 20
1.85833387E+02
  0
VERTEX
  8
0
 62
4
 10
1.05452144E+01
 20
1.85797478E+02
  0
VERTEX
  8
0
 62
4
 10
1.08271450E+01
 20
1.85765769E+02
  0
VERTEX
  8
0
 62
4
 10
1.11240999E+01
 20
1.85738507E+02
  0
VERTEX
  8
0
 62
4
 10
1.14337588E+01
 20
1.85715905E+02
  0
VERTEX
  8
0
 62
4
 10
1.17537020E+01
 20
1.85698140E+02
  0
VERTEX
  8
0
 62
4
 10
1.20814296E+01
 20
1.85685351E+02
  0
VERTEX
  8
0
 62
4
 10
1.24143809E+01
 20
1.85677637E+02
  0
VERTEX
  8
0
 62
4
 10
1.27499542E+01
 20
1.85675059E+02
  0
VERTEX
  8
0
 62
4
 10
1.30855276E+01
 20
1.85677637E+02
  0
VERTEX
  8
0
 62
4
 10
1.34184788E+01
 20
1.85685351E+02
  0
VERTEX
  8
0
 62
4
 10
1.37462065E+01
 20
1.85698140E+02
  0
VERTEX
  8
0
 62
4
 10
1.40661497E+01
 20
1.85715905E+02
  0
VERTEX
  8
0
 62
4
 10
1.43758085E+01
 20
1.85738507E+02
  0
VERTEX
  8
0
 62
4
 10
1.46727634E+01
 20
1.85765769E+02
  0
VERTEX
  8
0
 62
4
 10
1.49546941E+01
 20
1.85797478E+02
  0
VERTEX
  8
0
 62
4
 10
1.52193975E+01
 20
1.85833387E+02
  0
VERTEX
  8
0
 62
4
 10
1.54648055E+01
 20
1.85873214E+02
  0
VERTEX
  8
0
 62
4
 10
1.56890004E+01
 20
1.85916649E+02
  0
VERTEX
  8
0
 62
4
 10
1.58902305E+01
 20
1.85963353E+02
  0
VERTEX
  8
0
 62
4
 10
1.60669234E+01
 20
1.86012960E+02
  0
VERTEX
  8
0
 62
4
 10
1.62176984E+01
 20
1.86065082E+02
  0
VERTEX
  8
0
 62
4
 10
1.63413776E+01
 20
1.86119313E+02
  0
VERTEX
  8
0
 62
4
 10
1.64369944E+01
 20
1.86175229E+02
  0
VERTEX
  8
0
 62
4
 10
1.65038018E+01
 20
1.86232392E+02
  0
VERTEX
  8
0
 62
4
 10
1.65412778E+01
 20
1.86290356E+02
  0
VERTEX
  8
0
 62
4
 10
1.65491294E+01
 20
1.86348669E+02
  0
VERTEX
  8
0
 62
4
 10
1.65272955E+01
 20
1.86406875E+02
  0
VERTEX
  8
0
 62
4
 10
1.64759465E+01
 20
1.86464518E+02
  0
VERTEX
  8
0
 62
4
 10
1.63954837E+01
 20
1.86521148E+02
  0
VERTEX
  8
0
 62
4
 10
1.62865359E+01
 20
1.86576324E+02
  0
VERTEX
  8
0
 62
4
 10
1.61499542E+01
 20
1.86629613E+02
  0
SEQEND
  8
0
  0
LINE
  8
0
 62
4
 10
1.61499542E+01
 20
1.87608675E+02
 11
1.61499542E+01
 21
1.86334922E+02
  0
LINE
  8
0
 62
4
 10
9.34995422E+00
 20
1.87608675E+02
 11
9.34995422E+00
 21
1.86334922E+02
  0
POLYLINE
  8
0
 62
4
 66
1
  0
VERTEX
  8
0
 62
4
 10
9.34995420E+00
 20
1.86334922E+02
  0
VERTEX
  8
0
 62
4
 10
9.36364160E+00
 20
1.86281999E+02
  0
VERTEX
  8
0
 62
4
 10
9.40459360E+00
 20
1.86229501E+02
  0
VERTEX
  8
0
 62
4
 10
9.47248047E+00
 20
1.86177853E+02
  0
VERTEX
  8
0
 62
4
 10
9.56675564E+00
 20
1.86127469E+02
  0
VERTEX
  8
0
 62
4
 10
9.68666004E+00
 20
1.86078755E+02
  0
VERTEX
  8
0
 62
4
 10
9.83122829E+00
 20
1.86032104E+02
  0
VERTEX
  8
0
 62
4
 10
9.99929641E+00
 20
1.85987891E+02
  0
VERTEX
  8
0
 62
4
 10
1.01895112E+01
 20
1.85946472E+02
  0
VERTEX
  8
0
 62
4
 10
1.04003412E+01
 20
1.85908181E+02
  0
VERTEX
  8
0
 62
4
 10
1.06300889E+01
 20
1.85873326E+02
  0
VERTEX
  8
0
 62
4
 10
1.08769044E+01
 20
1.85842187E+02
  0
VERTEX
  8
0
 62
4
 10
1.11388007E+01
 20
1.85815015E+02
  0
VERTEX
  8
0
 62
4
 10
1.14136691E+01
 20
1.85792029E+02
  0
VERTEX
  8
0
 62
4
 10
1.16992964E+01
 20
1.85773415E+02
  0
VERTEX
  8
0
 62
4
 10
1.19933830E+01
 20
1.85759321E+02
  0
VERTEX
  8
0
 62
4
 10
1.22935611E+01
 20
1.85749861E+02
  0
VERTEX
  8
0
 62
4
 10
1.25974138E+01
 20
1.85745113E+02
  0
VERTEX
  8
0
 62
4
 10
1.29024946E+01
 20
1.85745113E+02
  0
VERTEX
  8
0
 62
4
 10
1.32063473E+01
 20
1.85749861E+02
  0
VERTEX
  8
0
 62
4
 10
1.35065254E+01
 20
1.85759321E+02
  0
VERTEX
  8
0
 62
4
 10
1.38006120E+01
 20
1.85773415E+02
  0
VERTEX
  8
0
 62
4
 10
1.40862393E+01
 20
1.85792029E+02
  0
VERTEX
  8
0
 62
4
 10
1.43611076E+01
 20
1.85815015E+02
  0
VERTEX
  8
0
 62
4
 10
1.46230039E+01
 20
1.85842187E+02
  0
VERTEX
  8
0
 62
4
 10
1.48698195E+01
 20
1.85873326E+02
  0
VERTEX
  8
0
 62
4
 10
1.50995672E+01
 20
1.85908181E+02
  0
VERTEX
  8
0
 62
4
 10
1.53103972E+01
 20
1.85946472E+02
  0
VERTEX
  8
0
 62
4
 10
1.55006120E+01
 20
1.85987891E+02
  0
VERTEX
  8
0
 62
4
 10
1.56686801E+01
 20
1.86032104E+02
  0
VERTEX
  8
0
 62
4
 10
1.58132483E+01
 20
1.86078755E+02
  0
VERTEX
  8
0
 62
4
 10
1.59331528E+01
 20
1.86127469E+02
  0
VERTEX
  8
0
 62
4
 10
1.60274279E+01
 20
1.86177853E+02
  0
VERTEX
  8
0
 62
4
 10
1.60953148E+01
 20
1.86229501E+02
  0
VERTEX
  8
0
 62
4
 10
1.61362668E+01
 20
1.86281999E+02
  0
VERTEX
  8
0
 62
4
 10
1.61499542E+01
 20
1.86334922E+02
  0
SEQEND
  8
0
  0
ARC
  8
0
 62
4
 10
1.27499542E+01
 20
1.77068461E+02
 40
1.18100000E+01
 50
7.71724899E+01
 51
1.02827510E+02
  0
ARC
  8
0
 62
4
 10
1.03499539E+01
 20
1.87608675E+02
 40
1.00000000E+00
 50
1.02827510E+02
 51
1.80000000E+02
  0
ARC
  8
0
 62
4
 10
1.51499545E+01
 20
1.87608675E+02
 40
1.00000000E+00
 50
3.60000000E+02
 51
7.71724899E+01
  0
ARC
  8
0
 62
4
 10
1.48717078E+01
 20
1.76349318E+02
 40
1.25306621E+01
 50
9.49686598E+01
 51
1.08083352E+02
  0
ARC
  8
0
 62
4
 10
1.06282006E+01
 20
1.76349317E+02
 40
1.25306626E+01
 50
7.19166483E+01
 51
8.50313400E+01
  0
LINE
  8
0
  6
CENTER
 62
6
 10
2.27499542E+01
 20
1.85957883E+02
 11
1.77499542E+01
 21
1.85957883E+02
  0
LINE
  8
0
  6
CENTER
 62
6
 10
1.27499542E+01
 20
1.82850114E+02
 11
1.27499542E+01
 21
1.87850114E+02
  0
LINE
  8
0
  6
CENTER
 62
6
 10
1.52499542E+01
 20
1.85350114E+02
 11
1.02499542E+01
 21
1.85350114E+02
  0
LINE
  8
0
  6
CENTER
 62
6
 10
2.77499542E+01
 20
1.82850114E+02
 11
2.77499542E+01
 21
1.87850114E+02
  0
LINE
  8
0
  6
CENTER
 62
6
 10
3.02499542E+01
 20
1.85350114E+02
 11
2.52499542E+01
 21
1.85350114E+02
  0
LINE
  8
0
 62
4
 10
8.95684363E+00
 20
1.86374639E+02
 11
5.24995422E+00
 21
1.86374639E+02
  0
LINE
  8
0
 62
7
 10
-2.37499542E+01
 20
2.09519459E+02
 11
4.17499542E+01
 21
2.09519459E+02
  0
LINE
  8
0
 62
7
 10
-2.37499542E+01
 20
2.10369449E+02
 11
4.17499542E+01
 21
2.10369449E+02
  0
LINE
  8
0
 62
7
 10
-2.37499542E+01
 20
2.04219471E+02
 11
4.17499542E+01
 21
2.04219471E+02
  0
LINE
  8
0
 62
7
 10
2.02499542E+01
 20
1.67219471E+02
 11
4.17499542E+01
 21
1.67219471E+02
  0
LINE
  8
0
 62
7
 10
2.02499542E+01
 20
1.66369480E+02
 11
4.17499542E+01
 21
1.66369480E+02
  0
LINE
  8
0
 62
7
 10
2.02499542E+01
 20
1.72519459E+02
 11
4.17499542E+01
 21
1.72519459E+02
  0
LINE
  8
0
 62
6
 10
-5.04649494E+01
 20
-1.88377284E+02
 11
-4.70350797E+01
 21
-1.84947409E+02
  0
LINE
  8
0
 62
6
 10
-4.70350773E+01
 20
-1.88377282E+02
 11
-5.04649519E+01
 21
-1.84947412E+02
  0
POLYLINE
  8
0
 62
4
 66
1
  0
VERTEX
  8
0
 62
4
 10
-5.27500143E+01
 20
-1.87021491E+02
  0
VERTEX
  8
0
 62
4
 10
-5.27347985E+01
 20
-1.87362496E+02
  0
VERTEX
  8
0
 62
4
 10
-5.26892561E+01
 20
-1.87700906E+02
  0
VERTEX
  8
0
 62
4
 10
-5.26137336E+01
 20
-1.88034146E+02
  0
VERTEX
  8
0
 62
4
 10
-5.25088059E+01
 20
-1.88359679E+02
  0
VERTEX
  8
0
 62
4
 10
-5.23752716E+01
 20
-1.88675029E+02
  0
VERTEX
  8
0
 62
4
 10
-5.22141469E+01
 20
-1.88977794E+02
  0
VERTEX
  8
0
 62
4
 10
-5.20266580E+01
 20
-1.89265672E+02
  0
VERTEX
  8
0
 62
4
 10
-5.18142318E+01
 20
-1.89536470E+02
  0
VERTEX
  8
0
 62
4
 10
-5.15784852E+01
 20
-1.89788128E+02
  0
VERTEX
  8
0
 62
4
 10
-5.13212121E+01
 20
-1.90018731E+02
  0
VERTEX
  8
0
 62
4
 10
-5.10443707E+01
 20
-1.90226524E+02
  0
VERTEX
  8
0
 62
4
 10
-5.07500679E+01
 20
-1.90409925E+02
  0
VERTEX
  8
0
 62
4
 10
-5.04405434E+01
 20
-1.90567538E+02
  0
VERTEX
  8
0
 62
4
 10
-5.01181530E+01
 20
-1.90698165E+02
  0
VERTEX
  8
0
 62
4
 10
-4.97853502E+01
 20
-1.90800810E+02
  0
VERTEX
  8
0
 62
4
 10
-4.94446679E+01
 20
-1.90874692E+02
  0
VERTEX
  8
0
 62
4
 10
-4.90986989E+01
 20
-1.90919250E+02
  0
VERTEX
  8
0
 62
4
 10
-4.87500762E+01
 20
-1.90934144E+02
  0
VERTEX
  8
0
 62
4
 10
-4.84014530E+01
 20
-1.90919261E+02
  0
VERTEX
  8
0
 62
4
 10
-4.80554825E+01
 20
-1.90874714E+02
  0
VERTEX
  8
0
 62
4
 10
-4.77147979E+01
 20
-1.90800842E+02
  0
VERTEX
  8
0
 62
4
 10
-4.73819919E+01
 20
-1.90698208E+02
  0
VERTEX
  8
0
 62
4
 10
-4.70595973E+01
 20
-1.90567592E+02
  0
VERTEX
  8
0
 62
4
 10
-4.67500679E+01
 20
-1.90409988E+02
  0
VERTEX
  8
0
 62
4
 10
-4.64557592E+01
 20
-1.90226597E+02
  0
VERTEX
  8
0
 62
4
 10
-4.61789113E+01
 20
-1.90018813E+02
  0
VERTEX
  8
0
 62
4
 10
-4.59216309E+01
 20
-1.89788218E+02
  0
VERTEX
  8
0
 62
4
 10
-4.56858763E+01
 20
-1.89536567E+02
  0
VERTEX
  8
0
 62
4
 10
-4.54734416E+01
 20
-1.89265775E+02
  0
VERTEX
  8
0
 62
4
 10
-4.52859436E+01
 20
-1.88977904E+02
  0
VERTEX
  8
0
 62
4
 10
-4.51248093E+01
 20
-1.88675143E+02
  0
VERTEX
  8
0
 62
4
 10
-4.49912650E+01
 20
-1.88359798E+02
  0
VERTEX
  8
0
 62
4
 10
-4.48863270E+01
 20
-1.88034268E+02
  0
VERTEX
  8
0
 62
4
 10
-4.48107940E+01
 20
-1.87701030E+02
  0
VERTEX
  8
0
 62
4
 10
-4.47652409E+01
 20
-1.87362622E+02
  0
VERTEX
  8
0
 62
4
 10
-4.47500143E+01
 20
-1.87021617E+02
  0
VERTEX
  8
0
 62
4
 10
-4.47652301E+01
 20
-1.86680612E+02
  0
VERTEX
  8
0
 62
4
 10
-4.48107725E+01
 20
-1.86342202E+02
  0
VERTEX
  8
0
 62
4
 10
-4.48862950E+01
 20
-1.86008962E+02
  0
VERTEX
  8
0
 62
4
 10
-4.49912227E+01
 20
-1.85683429E+02
  0
VERTEX
  8
0
 62
4
 10
-4.51247570E+01
 20
-1.85368079E+02
  0
VERTEX
  8
0
 62
4
 10
-4.52858818E+01
 20
-1.85065314E+02
  0
VERTEX
  8
0
 62
4
 10
-4.54733706E+01
 20
-1.84777436E+02
  0
VERTEX
  8
0
 62
4
 10
-4.56857968E+01
 20
-1.84506638E+02
  0
VERTEX
  8
0
 62
4
 10
-4.59215434E+01
 20
-1.84254980E+02
  0
VERTEX
  8
0
 62
4
 10
-4.61788165E+01
 20
-1.84024377E+02
  0
VERTEX
  8
0
 62
4
 10
-4.64556579E+01
 20
-1.83816584E+02
  0
VERTEX
  8
0
 62
4
 10
-4.67499607E+01
 20
-1.83633183E+02
  0
VERTEX
  8
0
 62
4
 10
-4.70594852E+01
 20
-1.83475570E+02
  0
VERTEX
  8
0
 62
4
 10
-4.73818756E+01
 20
-1.83344943E+02
  0
VERTEX
  8
0
 62
4
 10
-4.77146784E+01
 20
-1.83242298E+02
  0
VERTEX
  8
0
 62
4
 10
-4.80553607E+01
 20
-1.83168416E+02
  0
VERTEX
  8
0
 62
4
 10
-4.84013297E+01
 20
-1.83123858E+02
  0
VERTEX
  8
0
 62
4
 10
-4.87499524E+01
 20
-1.83108964E+02
  0
VERTEX
  8
0
 62
4
 10
-4.90985756E+01
 20
-1.83123847E+02
  0
VERTEX
  8
0
 62
4
 10
-4.94445461E+01
 20
-1.83168394E+02
  0
VERTEX
  8
0
 62
4
 10
-4.97852307E+01
 20
-1.83242266E+02
  0
VERTEX
  8
0
 62
4
 10
-5.01180367E+01
 20
-1.83344900E+02
  0
VERTEX
  8
0
 62
4
 10
-5.04404313E+01
 20
-1.83475516E+02
  0
VERTEX
  8
0
 62
4
 10
-5.07499607E+01
 20
-1.83633120E+02
  0
VERTEX
  8
0
 62
4
 10
-5.10442694E+01
 20
-1.83816511E+02
  0
VERTEX
  8
0
 62
4
 10
-5.13211173E+01
 20
-1.84024295E+02
  0
VERTEX
  8
0
 62
4
 10
-5.15783977E+01
 20
-1.84254890E+02
  0
VERTEX
  8
0
 62
4
 10
-5.18141523E+01
 20
-1.84506541E+02
  0
VERTEX
  8
0
 62
4
 10
-5.20265870E+01
 20
-1.84777333E+02
  0
VERTEX
  8
0
 62
4
 10
-5.22140850E+01
 20
-1.85065204E+02
  0
VERTEX
  8
0
 62
4
 10
-5.23752193E+01
 20
-1.85367965E+02
  0
VERTEX
  8
0
 62
4
 10
-5.25087636E+01
 20
-1.85683310E+02
  0
VERTEX
  8
0
 62
4
 10
-5.26137016E+01
 20
-1.86008840E+02
  0
VERTEX
  8
0
 62
4
 10
-5.26892346E+01
 20
-1.86342078E+02
  0
VERTEX
  8
0
 62
4
 10
-5.27347877E+01
 20
-1.86680486E+02
  0
VERTEX
  8
0
 62
4
 10
-5.27500143E+01
 20
-1.87021491E+02
  0
SEQEND
  8
0
  0
POLYLINE
  8
0
 62
4
 66
1
  0
VERTEX
  8
0
 62
4
 10
-5.21489871E+01
 20
-1.86744636E+02
  0
VERTEX
  8
0
 62
4
 10
-5.21430432E+01
 20
-1.87056121E+02
  0
VERTEX
  8
0
 62
4
 10
-5.21104623E+01
 20
-1.87365839E+02
  0
VERTEX
  8
0
 62
4
 10
-5.20515000E+01
 20
-1.87671358E+02
  0
VERTEX
  8
0
 62
4
 10
-5.19666192E+01
 20
-1.87970281E+02
  0
VERTEX
  8
0
 62
4
 10
-5.18564864E+01
 20
-1.88260261E+02
  0
VERTEX
  8
0
 62
4
 10
-5.17219660E+01
 20
-1.88539021E+02
  0
VERTEX
  8
0
 62
4
 10
-5.15641143E+01
 20
-1.88804372E+02
  0
VERTEX
  8
0
 62
4
 10
-5.13841703E+01
 20
-1.89054232E+02
  0
VERTEX
  8
0
 62
4
 10
-5.11835467E+01
 20
-1.89286639E+02
  0
VERTEX
  8
0
 62
4
 10
-5.09638186E+01
 20
-1.89499769E+02
  0
VERTEX
  8
0
 62
4
 10
-5.07267110E+01
 20
-1.89691947E+02
  0
VERTEX
  8
0
 62
4
 10
-5.04740851E+01
 20
-1.89861667E+02
  0
VERTEX
  8
0
 62
4
 10
-5.02079244E+01
 20
-1.90007594E+02
  0
VERTEX
  8
0
 62
4
 10
-4.99303184E+01
 20
-1.90128584E+02
  0
VERTEX
  8
0
 62
4
 10
-4.96434463E+01
 20
-1.90223687E+02
  0
VERTEX
  8
0
 62
4
 10
-4.93495602E+01
 20
-1.90292156E+02
  0
VERTEX
  8
0
 62
4
 10
-4.90509674E+01
 20
-1.90333453E+02
  0
VERTEX
  8
0
 62
4
 10
-4.87500120E+01
 20
-1.90347255E+02
  0
VERTEX
  8
0
 62
4
 10
-4.84490566E+01
 20
-1.90333453E+02
  0
VERTEX
  8
0
 62
4
 10
-4.81504638E+01
 20
-1.90292156E+02
  0
VERTEX
  8
0
 62
4
 10
-4.78565779E+01
 20
-1.90223687E+02
  0
VERTEX
  8
0
 62
4
 10
-4.75697059E+01
 20
-1.90128584E+02
  0
VERTEX
  8
0
 62
4
 10
-4.72921000E+01
 20
-1.90007594E+02
  0
VERTEX
  8
0
 62
4
 10
-4.70259395E+01
 20
-1.89861667E+02
  0
VERTEX
  8
0
 62
4
 10
-4.67733139E+01
 20
-1.89691947E+02
  0
VERTEX
  8
0
 62
4
 10
-4.65362066E+01
 20
-1.89499769E+02
  0
VERTEX
  8
0
 62
4
 10
-4.63164788E+01
 20
-1.89286639E+02
  0
VERTEX
  8
0
 62
4
 10
-4.61158556E+01
 20
-1.89054232E+02
  0
VERTEX
  8
0
 62
4
 10
-4.59359119E+01
 20
-1.88804372E+02
  0
VERTEX
  8
0
 62
4
 10
-4.57780605E+01
 20
-1.88539021E+02
  0
VERTEX
  8
0
 62
4
 10
-4.56435406E+01
 20
-1.88260261E+02
  0
VERTEX
  8
0
 62
4
 10
-4.55334081E+01
 20
-1.87970281E+02
  0
VERTEX
  8
0
 62
4
 10
-4.54485278E+01
 20
-1.87671358E+02
  0
VERTEX
  8
0
 62
4
 10
-4.53895659E+01
 20
-1.87365839E+02
  0
VERTEX
  8
0
 62
4
 10
-4.53569854E+01
 20
-1.87056121E+02
  0
VERTEX
  8
0
 62
4
 10
-4.53510420E+01
 20
-1.86744636E+02
  0
SEQEND
  8
0
  0
POLYLINE
  8
0
 62
4
 66
1
  0
VERTEX
  8
0
 62
4
 10
-5.21500146E+01
 20
-1.86662270E+02
  0
VERTEX
  8
0
 62
4
 10
-5.21370832E+01
 20
-1.86954021E+02
  0
VERTEX
  8
0
 62
4
 10
-5.20983741E+01
 20
-1.87243551E+02
  0
VERTEX
  8
0
 62
4
 10
-5.20341820E+01
 20
-1.87528658E+02
  0
VERTEX
  8
0
 62
4
 10
-5.19449954E+01
 20
-1.87807172E+02
  0
VERTEX
  8
0
 62
4
 10
-5.18314930E+01
 20
-1.88076974E+02
  0
VERTEX
  8
0
 62
4
 10
-5.16945388E+01
 20
-1.88336009E+02
  0
VERTEX
  8
0
 62
4
 10
-5.15351749E+01
 20
-1.88582306E+02
  0
VERTEX
  8
0
 62
4
 10
-5.13546143E+01
 20
-1.88813992E+02
  0
VERTEX
  8
0
 62
4
 10
-5.11542311E+01
 20
-1.89029302E+02
  0
VERTEX
  8
0
 62
4
 10
-5.09355504E+01
 20
-1.89226598E+02
  0
VERTEX
  8
0
 62
4
 10
-5.07002364E+01
 20
-1.89404379E+02
  0
VERTEX
  8
0
 62
4
 10
-5.04500800E+01
 20
-1.89561291E+02
  0
VERTEX
  8
0
 62
4
 10
-5.01869852E+01
 20
-1.89696140E+02
  0
VERTEX
  8
0
 62
4
 10
-4.99129541E+01
 20
-1.89807901E+02
  0
VERTEX
  8
0
 62
4
 10
-4.96300723E+01
 20
-1.89895721E+02
  0
VERTEX
  8
0
 62
4
 10
-4.93404928E+01
 20
-1.89958934E+02
  0
VERTEX
  8
0
 62
4
 10
-4.90464194E+01
 20
-1.89997058E+02
  0
VERTEX
  8
0
 62
4
 10
-4.87500902E+01
 20
-1.90009803E+02
  0
VERTEX
  8
0
 62
4
 10
-4.84537603E+01
 20
-1.89997072E+02
  0
VERTEX
  8
0
 62
4
 10
-4.81596852E+01
 20
-1.89958961E+02
  0
VERTEX
  8
0
 62
4
 10
-4.78701028E+01
 20
-1.89895761E+02
  0
VERTEX
  8
0
 62
4
 10
-4.75872171E+01
 20
-1.89807953E+02
  0
VERTEX
  8
0
 62
4
 10
-4.73131810E+01
 20
-1.89696205E+02
  0
VERTEX
  8
0
 62
4
 10
-4.70500800E+01
 20
-1.89561367E+02
  0
VERTEX
  8
0
 62
4
 10
-4.67999166E+01
 20
-1.89404467E+02
  0
VERTEX
  8
0
 62
4
 10
-4.65645946E+01
 20
-1.89226696E+02
  0
VERTEX
  8
0
 62
4
 10
-4.63459050E+01
 20
-1.89029410E+02
  0
VERTEX
  8
0
 62
4
 10
-4.61455121E+01
 20
-1.88814109E+02
  0
VERTEX
  8
0
 62
4
 10
-4.59649410E+01
 20
-1.88582432E+02
  0
VERTEX
  8
0
 62
4
 10
-4.58055660E+01
 20
-1.88336142E+02
  0
VERTEX
  8
0
 62
4
 10
-4.56686001E+01
 20
-1.88077113E+02
  0
VERTEX
  8
0
 62
4
 10
-4.55550855E+01
 20
-1.87807317E+02
  0
VERTEX
  8
0
 62
4
 10
-4.54658863E+01
 20
-1.87528807E+02
  0
VERTEX
  8
0
 62
4
 10
-4.54016814E+01
 20
-1.87243702E+02
  0
VERTEX
  8
0
 62
4
 10
-4.53629592E+01
 20
-1.86954173E+02
  0
VERTEX
  8
0
 62
4
 10
-4.53500146E+01
 20
-1.86662424E+02
  0
VERTEX
  8
0
 62
4
 10
-4.53629460E+01
 20
-1.86370673E+02
  0
VERTEX
  8
0
 62
4
 10
-4.54016551E+01
 20
-1.86081143E+02
  0
VERTEX
  8
0
 62
4
 10
-4.54658472E+01
 20
-1.85796036E+02
  0
VERTEX
  8
0
 62
4
 10
-4.55550338E+01
 20
-1.85517522E+02
  0
VERTEX
  8
0
 62
4
 10
-4.56685362E+01
 20
-1.85247720E+02
  0
VERTEX
  8
0
 62
4
 10
-4.58054904E+01
 20
-1.84988685E+02
  0
VERTEX
  8
0
 62
4
 10
-4.59648543E+01
 20
-1.84742388E+02
  0
VERTEX
  8
0
 62
4
 10
-4.61454149E+01
 20
-1.84510702E+02
  0
VERTEX
  8
0
 62
4
 10
-4.63457981E+01
 20
-1.84295392E+02
  0
VERTEX
  8
0
 62
4
 10
-4.65644788E+01
 20
-1.84098096E+02
  0
VERTEX
  8
0
 62
4
 10
-4.67997928E+01
 20
-1.83920315E+02
  0
VERTEX
  8
0
 62
4
 10
-4.70499492E+01
 20
-1.83763403E+02
  0
VERTEX
  8
0
 62
4
 10
-4.73130440E+01
 20
-1.83628554E+02
  0
VERTEX
  8
0
 62
4
 10
-4.75870751E+01
 20
-1.83516793E+02
  0
VERTEX
  8
0
 62
4
 10
-4.78699569E+01
 20
-1.83428973E+02
  0
VERTEX
  8
0
 62
4
 10
-4.81595364E+01
 20
-1.83365760E+02
  0
VERTEX
  8
0
 62
4
 10
-4.84536098E+01
 20
-1.83327636E+02
  0
VERTEX
  8
0
 62
4
 10
-4.87499390E+01
 20
-1.83314891E+02
  0
VERTEX
  8
0
 62
4
 10
-4.90462689E+01
 20
-1.83327622E+02
  0
VERTEX
  8
0
 62
4
 10
-4.93403440E+01
 20
-1.83365733E+02
  0
VERTEX
  8
0
 62
4
 10
-4.96299264E+01
 20
-1.83428933E+02
  0
VERTEX
  8
0
 62
4
 10
-4.99128121E+01
 20
-1.83516741E+02
  0
VERTEX
  8
0
 62
4
 10
-5.01868482E+01
 20
-1.83628489E+02
  0
VERTEX
  8
0
 62
4
 10
-5.04499492E+01
 20
-1.83763327E+02
  0
VERTEX
  8
0
 62
4
 10
-5.07001126E+01
 20
-1.83920227E+02
  0
VERTEX
  8
0
 62
4
 10
-5.09354346E+01
 20
-1.84097998E+02
  0
VERTEX
  8
0
 62
4
 10
-5.11541242E+01
 20
-1.84295284E+02
  0
VERTEX
  8
0
 62
4
 10
-5.13545171E+01
 20
-1.84510585E+02
  0
VERTEX
  8
0
 62
4
 10
-5.15350882E+01
 20
-1.84742262E+02
  0
VERTEX
  8
0
 62
4
 10
-5.16944632E+01
 20
-1.84988552E+02
  0
VERTEX
  8
0
 62
4
 10
-5.18314291E+01
 20
-1.85247581E+02
  0
VERTEX
  8
0
 62
4
 10
-5.19449437E+01
 20
-1.85517377E+02
  0
VERTEX
  8
0
 62
4
 10
-5.20341429E+01
 20
-1.85795887E+02
  0
VERTEX
  8
0
 62
4
 10
-5.20983478E+01
 20
-1.86080992E+02
  0
VERTEX
  8
0
 62
4
 10
-5.21370700E+01
 20
-1.86370521E+02
  0
VERTEX
  8
0
 62
4
 10
-5.21500146E+01
 20
-1.86662270E+02
  0
SEQEND
  8
0
  0
LINE
  8
0
 62
4
 10
-5.77500015E+01
 20
-2.02740352E+02
 11
-2.43747233E+01
 21
-2.02740329E+02
  0
LINE
  8
0
 62
4
 10
-5.77500015E+01
 20
-2.01804750E+02
 11
-2.43747233E+01
 21
-2.01804726E+02
  0
LINE
  8
0
 62
4
 10
-5.77500015E+01
 20
-1.99933545E+02
 11
-2.43747233E+01
 21
-1.99933521E+02
  0
LINE
  8
0
 62
4
 10
-5.77500015E+01
 20
-1.98997942E+02
 11
-2.43747233E+01
 21
-1.98997918E+02
  0
LINE
  8
0
 62
4
 10
-2.43747233E+01
 20
-1.98997942E+02
 11
-2.17500090E+01
 21
-1.94461589E+02
  0
LINE
  8
0
 62
4
 10
-5.77500015E+01
 20
-1.98997942E+02
 11
-6.07500090E+01
 21
-1.94461617E+02
  0
LINE
  8
0
 62
4
 10
-2.43747233E+01
 20
-2.03557721E+02
 11
-2.43747233E+01
 21
-1.98997942E+02
  0
LINE
  8
0
 62
4
 10
-5.77500015E+01
 20
-2.03557721E+02
 11
-5.77500015E+01
 21
-1.98997942E+02
  0
LINE
  8
0
  6
CENTER
 62
6
 10
-4.87500102E+01
 20
-1.92801216E+02
 11
-4.87500193E+01
 21
-1.80001216E+02
  0
LINE
  8
0
  6
CENTER
 62
6
 10
-5.51500148E+01
 20
-1.86397512E+02
 11
-4.23500148E+01
 21
-1.86397503E+02
  0
LINE
  8
0
 62
4
 10
-5.62500358E+01
 20
-1.52358725E+02
 11
-4.12500358E+01
 21
-1.52358714E+02
  0
LINE
  8
0
 62
4
 10
-5.82500180E+01
 20
-1.76396605E+02
 11
-3.92500180E+01
 21
-1.76396591E+02
  0
LINE
  8
0
 62
4
 10
-6.07500181E+01
 20
-1.81754378E+02
 11
-6.07500090E+01
 21
-1.94461617E+02
  0
LINE
  8
0
 62
4
 10
-5.82500180E+01
 20
-1.76396591E+02
 11
-5.82500152E+01
 21
-1.80258075E+02
  0
LINE
  8
0
 62
4
 10
-4.12500358E+01
 20
-1.52358725E+02
 11
-4.12500187E+01
 21
-1.76396593E+02
  0
LINE
  8
0
 62
4
 10
-5.62500358E+01
 20
-1.52358725E+02
 11
-5.62500187E+01
 21
-1.76396603E+02
  0
LINE
  8
0
 62
4
 10
-3.92500180E+01
 20
-1.76396591E+02
 11
-3.92500152E+01
 21
-1.80258075E+02
  0
LINE
  8
0
 62
4
 10
-5.62500191E+01
 20
-1.75834267E+02
 11
-4.12500191E+01
 21
-1.75834256E+02
  0
LINE
  8
0
 62
4
 10
-2.17500181E+01
 20
-1.81754350E+02
 11
-2.17500090E+01
 21
-1.94461592E+02
  0
LINE
  8
0
 62
4
 10
-6.07500090E+01
 20
-1.94461617E+02
 11
-2.17500090E+01
 21
-1.94461589E+02
  0
LINE
  8
0
 62
4
 10
-6.07500100E+01
 20
-1.92994395E+02
 11
-2.17500100E+01
 21
-1.92994367E+02
  0
LINE
  8
0
 62
4
 10
-5.92500151E+01
 20
-1.80254377E+02
 11
-2.32500151E+01
 21
-1.80254351E+02
  0
LINE
  8
0
 62
4
 10
-7.57500369E+01
 20
-1.52454549E+02
 11
-7.07500369E+01
 21
-1.52454545E+02
  0
LINE
  8
0
 62
4
 10
-7.57500363E+01
 20
-1.54771177E+02
 11
-7.07500363E+01
 21
-1.54771173E+02
  0
LINE
  8
0
 62
4
 10
-7.57500289E+01
 20
-1.62117065E+02
 11
-7.07500289E+01
 21
-1.62117061E+02
  0
LINE
  8
0
 62
4
 10
-7.57500264E+01
 20
-1.67136548E+02
 11
-7.07500264E+01
 21
-1.67136545E+02
  0
LINE
  8
0
 62
4
 10
-6.52500205E+01
 20
-1.66789492E+02
 11
-5.67500205E+01
 21
-1.66789486E+02
  0
LINE
  8
0
 62
4
 10
-5.62500305E+01
 20
-1.52789485E+02
 11
-6.52500305E+01
 21
-1.52789492E+02
  0
LINE
  8
0
 62
4
 10
-6.57500302E+01
 20
-1.53289492E+02
 11
-6.57500209E+01
 21
-1.66289492E+02
  0
LINE
  8
0
 62
4
 10
-7.57500369E+01
 20
-1.52454549E+02
 11
-7.57500264E+01
 21
-1.67136548E+02
  0
LINE
  8
0
 62
4
 10
-7.07500369E+01
 20
-1.52454545E+02
 11
-7.07500264E+01
 21
-1.67136545E+02
  0
LINE
  8
0
 62
4
 10
-7.07500300E+01
 20
-1.53535781E+02
 11
-6.57500300E+01
 21
-1.53535777E+02
  0
LINE
  8
0
 62
4
 10
-7.07500211E+01
 20
-1.66035781E+02
 11
-6.57500211E+01
 21
-1.66035777E+02
  0
LINE
  8
0
 62
4
 10
-6.92500300E+01
 20
-1.53535780E+02
 11
-6.92500211E+01
 21
-1.66035780E+02
  0
LINE
  8
0
 62
4
 10
-6.92500296E+01
 20
-1.54035780E+02
 11
-6.57500296E+01
 21
-1.54035777E+02
  0
LINE
  8
0
 62
4
 10
-6.92500214E+01
 20
-1.65535780E+02
 11
-6.57500214E+01
 21
-1.65535777E+02
  0
ARC
  8
0
 62
4
 10
-6.52505222E+01
 20
-1.53289000E+02
 40
4.99508251E-01
 50
8.99436074E+01
 51
1.80056475E+02
  0
ARC
  8
0
 62
4
 10
-5.67495129E+01
 20
-1.67288978E+02
 40
4.99492993E-01
 50
3.59941854E+02
 51
9.00582282E+01
  0
ARC
  8
0
 62
4
 10
-2.32495066E+01
 20
-1.81753844E+02
 40
1.49949266E+00
 50
3.59980652E+02
 51
9.00194298E+01
  0
ARC
  8
0
 62
4
 10
-6.52495131E+01
 20
-1.66288984E+02
 40
5.00508007E-01
 50
1.80058166E+02
 51
2.69941916E+02
  0
ARC
  8
0
 62
4
 10
-5.92505062E+01
 20
-1.81753885E+02
 40
1.49950792E+00
 50
8.99812358E+01
 51
1.80018846E+02
  0
LINE
  8
0
 62
4
 10
-2.65389221E+02
 20
-1.89169416E+02
 11
-2.70633742E+02
 21
-2.05323396E+02
  0
ARC
  8
0
 62
4
 10
-2.52207897E+02
 20
-1.59785777E+02
 40
7.00000000E+00
 50
1.10107658E+02
 51
1.33018360E+02
  0
LINE
  8
0
 62
4
 10
-2.65389221E+02
 20
-1.89169416E+02
 11
-2.58540738E+02
 21
-1.87713726E+02
  0
LINE
  8
0
 62
4
 10
-2.57262562E+02
 20
-1.96131936E+02
 11
-2.56773488E+02
 21
-1.96027980E+02
  0
LINE
  8
0
 62
4
 10
-2.57647680E+02
 20
-1.96724966E+02
 11
-2.56833012E+02
 21
-2.00557675E+02
  0
LINE
  8
0
 62
4
 10
-2.60792247E+02
 20
-1.55477400E+02
 11
-2.56009106E+02
 21
-1.54460712E+02
  0
LINE
  8
0
 62
4
 10
-2.46120033E+02
 20
-1.52358725E+02
 11
-2.40922241E+02
 21
-1.76812415E+02
  0
LINE
  8
0
 62
4
 10
-2.60792247E+02
 20
-1.55477400E+02
 11
-2.55594455E+02
 21
-1.79931090E+02
  0
LINE
  8
0
 62
4
 10
-2.57550750E+02
 20
-1.80346913E+02
 11
-2.38965946E+02
 21
-1.76396591E+02
  0
LINE
  8
0
 62
4
 10
-2.55802367E+02
 20
-1.78952942E+02
 11
-2.41130153E+02
 21
-1.75834267E+02
  0
LINE
  8
0
 62
4
 10
-2.38965946E+02
 20
-1.76396591E+02
 11
-2.38134299E+02
 21
-1.80309182E+02
  0
LINE
  8
0
 62
4
 10
-2.57550750E+02
 20
-1.80346913E+02
 11
-2.56719104E+02
 21
-1.84259504E+02
  0
LINE
  8
0
 62
4
 10
-2.56719104E+02
 20
-1.84259504E+02
 11
-2.38134299E+02
 21
-1.80309182E+02
  0
LINE
  8
0
 62
4
 10
-2.56045797E+02
 20
-1.99451497E+02
 11
-2.32570255E+02
 21
-1.94461617E+02
  0
LINE
  8
0
 62
4
 10
-2.35169151E+02
 20
-1.82234771E+02
 11
-2.32570255E+02
 21
-1.94461617E+02
  0
LINE
  8
0
 62
4
 10
-2.58644693E+02
 20
-1.87224652E+02
 11
-2.56045797E+02
 21
-1.99451497E+02
  0
LINE
  8
0
 62
4
 10
-2.56045797E+02
 20
-1.99451497E+02
 11
-2.54779106E+02
 21
-2.00557675E+02
  0
LINE
  8
0
 62
4
 10
-2.32570255E+02
 20
-1.94461617E+02
 11
-2.34673051E+02
 21
-1.98997942E+02
  0
LINE
  8
0
 62
4
 10
-2.39074715E+02
 20
-1.99933545E+02
 11
-2.34673051E+02
 21
-1.98997942E+02
  0
LINE
  8
0
 62
4
 10
-2.56357665E+02
 20
-1.97984276E+02
 11
-2.32882122E+02
 21
-1.92994395E+02
  0
LINE
  8
0
 62
4
 10
-2.47719703E+02
 20
-1.90525347E+02
 11
-2.43807113E+02
 21
-1.89693700E+02
  0
LINE
  8
0
 62
4
 10
-2.47199924E+02
 20
-1.92970716E+02
 11
-2.43287333E+02
 21
-1.92139069E+02
  0
LINE
  8
0
 62
4
 10
-2.47719703E+02
 20
-1.90525347E+02
 11
-2.47199924E+02
 21
-1.92970716E+02
  0
LINE
  8
0
 62
4
 10
-2.43807113E+02
 20
-1.89693700E+02
 11
-2.43287333E+02
 21
-1.92139069E+02
  0
LINE
  8
0
 62
4
 10
-2.50647253E+02
 20
-1.67132836E+02
 11
-2.45068963E+02
 21
-1.62113357E+02
  0
LINE
  8
0
 62
4
 10
-2.59346299E+02
 20
-1.57470320E+02
 11
-2.53768008E+02
 21
-1.52450841E+02
  0
LINE
  8
0
 62
4
 10
-2.59346299E+02
 20
-1.57470320E+02
 11
-2.57784882E+02
 21
-1.64816209E+02
  0
LINE
  8
0
 62
4
 10
-2.46630380E+02
 20
-1.54767468E+02
 11
-2.45068963E+02
 21
-1.62113357E+02
  0
LINE
  8
0
 62
4
 10
-2.57784882E+02
 20
-1.64816209E+02
 11
-2.50647253E+02
 21
-1.67132836E+02
  0
LINE
  8
0
 62
4
 10
-2.53768008E+02
 20
-1.52450841E+02
 11
-2.46630380E+02
 21
-1.54767468E+02
  0
LINE
  8
0
 62
4
 10
-2.50912957E+02
 20
-1.53377492E+02
 11
-2.46120033E+02
 21
-1.52358725E+02
  0
LINE
  8
0
 62
4
 10
-2.34961239E+02
 20
-1.83212919E+02
 11
-2.34472165E+02
 21
-1.83108963E+02
  0
LINE
  8
0
 62
4
 10
-2.33297946E+02
 20
-1.91038100E+02
 11
-2.32808872E+02
 21
-1.90934144E+02
  0
LINE
  8
0
 62
4
 10
-2.34347418E+02
 20
-1.83695852E+02
 11
-2.32655223E+02
 21
-1.83336165E+02
  0
LINE
  8
0
 62
4
 10
-2.31241424E+02
 20
-1.89987568E+02
 11
-2.32933619E+02
 21
-1.90347255E+02
  0
LINE
  8
0
  6
CENTER
 62
6
 10
-2.64872772E+02
 20
-1.93660174E+02
 11
-2.27771633E+02
 21
-1.85774084E+02
  0
LINE
  8
0
 62
4
 10
-2.34472165E+02
 20
-1.83108963E+02
 11
-2.32808872E+02
 21
-1.90934144E+02
  0
ARC
  8
0
 62
4
 10
-2.57158605E+02
 20
-1.96621011E+02
 40
5.00000533E-01
 50
1.02000061E+02
 51
1.91999939E+02
  0
ARC
  8
0
 62
4
 10
-2.42258764E+02
 20
-1.88831622E+02
 40
1.18077645E+01
 50
3.59024145E+02
 51
2.47266957E+01
  0
ARC
  8
0
 62
4
 10
-2.56199303E+02
 20
-1.86704887E+02
 40
2.50001831E+00
 50
1.02000420E+02
 51
1.91999580E+02
  0
ARC
  8
0
 62
4
 10
-2.37613762E+02
 20
-1.82753383E+02
 40
2.49901570E+00
 50
1.19774281E+01
 51
1.02022572E+02
  0
ARC
  8
0
 62
4
 10
-2.41475434E+02
 20
-2.10282857E+02
 40
1.06241099E+01
 50
7.69401406E+01
 51
1.13739125E+02
  0
CIRCLE
  8
0
 62
4
 10
-2.52207897E+02
 20
-1.59785777E+02
 40
3.75000000E+00
  0
ARC
  8
0
 62
4
 10
-2.31450965E+02
 20
-1.89011322E+02
 40
9.98481423E-01
 50
2.82114125E+02
 51
3.58771982E+02
  0
ARC
  8
0
 62
4
 10
-2.32450455E+02
 20
-1.84311003E+02
 40
9.96112687E-01
 50
2.45301420E+01
 51
1.01862685E+02
  0
ARC
  8
0
 62
4
 10
-2.52207897E+02
 20
-1.59785777E+02
 40
7.00000000E+00
 50
7.09816396E+01
 51
9.39142840E+01
  0
LINE
  8
0
 62
4
 10
-2.70633742E+02
 20
-2.05323396E+02
 11
-2.68750031E+02
 21
-2.14185564E+02
  0
LINE
  8
0
  6
CENTER
 62
6
 10
-2.72852010E+02
 20
-2.11192269E+02
 11
-2.68750031E+02
 21
-2.10320367E+02
  0
LINE
  8
0
 62
6
 10
-2.71334433E+02
 20
-2.12403209E+02
 11
-2.69224222E+02
 21
-2.11954670E+02
  0
LINE
  8
0
 62
4
 10
-2.71081897E+02
 20
-2.08781562E+02
 11
-2.69949833E+02
 21
-2.08540935E+02
  0
LINE
  8
0
 62
4
 10
-2.70252329E+02
 20
-2.12684371E+02
 11
-2.69120266E+02
 21
-2.12443744E+02
  0
LINE
  8
0
 62
4
 10
-2.72005988E+02
 20
-2.09243792E+02
 11
-2.71284534E+02
 21
-2.12637965E+02
  0
LINE
  8
0
 62
4
 10
-2.71081897E+02
 20
-2.08781562E+02
 11
-2.72005988E+02
 21
-2.09243792E+02
  0
LINE
  8
0
 62
4
 10
-2.70252329E+02
 20
-2.12684371E+02
 11
-2.71284534E+02
 21
-2.12637965E+02
  0
LINE
  8
0
 62
6
 10
-2.71958168E+02
 20
-2.09468766E+02
 11
-2.69847957E+02
 21
-2.09020227E+02
  0
LINE
  8
0
 62
4
 10
1.07233642E+02
 20
-1.89169416E+02
 11
1.12478164E+02
 21
-2.05323396E+02
  0
LINE
  8
0
 62
4
 10
7.70135723E+01
 20
-1.82234771E+02
 11
7.44146762E+01
 21
-1.94461617E+02
  0
LINE
  8
0
 62
4
 10
1.00489115E+02
 20
-1.87224652E+02
 11
9.78902186E+01
 21
-1.99451497E+02
  0
LINE
  8
0
 62
4
 10
8.90443452E+01
 20
-1.92970716E+02
 11
8.51317548E+01
 21
-1.92139069E+02
  0
LINE
  8
0
 62
4
 10
8.95641245E+01
 20
-1.90525347E+02
 11
8.90443452E+01
 21
-1.92970716E+02
  0
LINE
  8
0
  6
CENTER
 62
6
 10
1.06717193E+02
 20
-1.93660174E+02
 11
6.96160545E+01
 21
-1.85774084E+02
  0
LINE
  8
0
 62
4
 10
8.64076513E+01
 20
-1.80653353E+02
 11
9.25504183E+01
 21
-1.81959038E+02
  0
LINE
  8
0
  6
CENTER
 62
6
 10
8.98298354E+01
 20
-1.79655808E+02
 11
8.89613347E+01
 21
-1.83741783E+02
  0
LINE
  8
0
 62
4
 10
8.58476065E+01
 20
-1.81556652E+02
 11
8.64076513E+01
 21
-1.80653353E+02
  0
LINE
  8
0
 62
4
 10
9.25504183E+01
 20
-1.81959038E+02
 11
9.26946397E+01
 21
-1.83012034E+02
  0
ARC
  8
0
 62
4
 10
7.42948767E+01
 20
-1.84311003E+02
 40
9.96112687E-01
 50
7.81373153E+01
 51
1.55469858E+02
  0
ARC
  8
0
 62
4
 10
7.32953859E+01
 20
-1.89011322E+02
 40
9.98481423E-01
 50
1.81228019E+02
 51
2.57885875E+02
  0
ARC
  8
0
 62
4
 10
7.94581830E+01
 20
-1.82753383E+02
 40
2.49901570E+00
 50
7.79774280E+01
 51
1.68022572E+02
  0
ARC
  8
0
 62
4
 10
9.80437240E+01
 20
-1.86704887E+02
 40
2.50001831E+00
 50
3.48000420E+02
 51
7.79995802E+01
  0
ARC
  8
0
 62
4
 10
8.41031857E+01
 20
-1.88831622E+02
 40
1.18077645E+01
 50
1.55273304E+02
 51
1.80975855E+02
  0
LINE
  8
0
 62
4
 10
7.63165868E+01
 20
-1.83108963E+02
 11
7.46532933E+01
 21
-1.90934144E+02
  0
LINE
  8
0
 62
4
 10
7.30858450E+01
 20
-1.89987568E+02
 11
7.47780403E+01
 21
-1.90347255E+02
  0
LINE
  8
0
 62
4
 10
7.61918398E+01
 20
-1.83695852E+02
 11
7.44996445E+01
 21
-1.83336165E+02
  0
LINE
  8
0
 62
4
 10
7.51423671E+01
 20
-1.91038100E+02
 11
7.46532933E+01
 21
-1.90934144E+02
  0
LINE
  8
0
 62
4
 10
7.68056606E+01
 20
-1.83212919E+02
 11
7.63165868E+01
 21
-1.83108963E+02
  0
LINE
  8
0
 62
4
 10
9.56124293E+01
 20
-1.52450841E+02
 11
9.45301911E+01
 21
-1.52802098E+02
  0
LINE
  8
0
 62
4
 10
9.64582694E+01
 20
-1.53211948E+02
 11
9.56124293E+01
 21
-1.52450841E+02
  0
LINE
  8
0
 62
4
 10
8.56515340E+01
 20
-1.89693700E+02
 11
8.51317548E+01
 21
-1.92139069E+02
  0
LINE
  8
0
 62
4
 10
8.95641245E+01
 20
-1.90525347E+02
 11
8.56515340E+01
 21
-1.89693700E+02
  0
LINE
  8
0
 62
4
 10
9.85635250E+01
 20
-1.84259504E+02
 11
7.99787206E+01
 21
-1.80309182E+02
  0
LINE
  8
0
 62
4
 10
9.93951717E+01
 20
-1.80346913E+02
 11
9.85635250E+01
 21
-1.84259504E+02
  0
LINE
  8
0
 62
4
 10
8.08103673E+01
 20
-1.76396591E+02
 11
7.99787206E+01
 21
-1.80309182E+02
  0
LINE
  8
0
 62
4
 10
9.76467882E+01
 20
-1.78952942E+02
 11
8.29745742E+01
 21
-1.75834267E+02
  0
LINE
  8
0
 62
4
 10
9.93951717E+01
 20
-1.80346913E+02
 11
8.08103673E+01
 21
-1.76396591E+02
  0
LINE
  8
0
 62
4
 10
1.02636669E+02
 20
-1.55477400E+02
 11
9.74388765E+01
 21
-1.79931090E+02
  0
LINE
  8
0
 62
4
 10
8.79644548E+01
 20
-1.52358725E+02
 11
8.27666625E+01
 21
-1.76812415E+02
  0
LINE
  8
0
 62
4
 10
8.79644548E+01
 20
-1.52358725E+02
 11
1.02636669E+02
 21
-1.55477400E+02
  0
LINE
  8
0
 62
4
 10
1.07233642E+02
 20
-1.89169416E+02
 11
1.00385159E+02
 21
-1.87713726E+02
  0
ARC
  8
0
 62
4
 10
9.40532643E+01
 20
-1.59785832E+02
 40
7.00000000E+00
 50
4.69793705E+01
 51
1.09020630E+02
  0
LINE
  8
0
 62
4
 10
9.78902186E+01
 20
-1.99451497E+02
 11
7.44146762E+01
 21
-1.94461617E+02
  0
LINE
  8
0
 62
4
 10
9.82020862E+01
 20
-1.97984276E+02
 11
7.47265437E+01
 21
-1.92994395E+02
  0
LINE
  8
0
 62
4
 10
9.94921013E+01
 20
-1.96724966E+02
 11
9.86774338E+01
 21
-2.00557675E+02
  0
LINE
  8
0
 62
4
 10
9.78902186E+01
 20
-1.99451497E+02
 11
9.66235271E+01
 21
-2.00557675E+02
  0
ARC
  8
0
 62
4
 10
9.90030269E+01
 20
-1.96621011E+02
 40
5.00000533E-01
 50
3.48000061E+02
 51
7.79999389E+01
  0
LINE
  8
0
 62
4
 10
9.91069833E+01
 20
-1.96131936E+02
 11
9.86179095E+01
 21
-1.96027980E+02
  0
LINE
  8
0
 62
4
 10
7.44146762E+01
 20
-1.94461617E+02
 11
7.65174722E+01
 21
-1.98997942E+02
  0
ARC
  8
0
 62
4
 10
8.33198549E+01
 20
-2.10282857E+02
 40
1.06241099E+01
 50
6.62608748E+01
 51
1.03059860E+02
  0
LINE
  8
0
 62
4
 10
8.09191364E+01
 20
-1.99933545E+02
 11
7.65174722E+01
 21
-1.98997942E+02
  0
LINE
  8
0
  6
CENTER
 62
6
 10
1.14696431E+02
 20
-2.11192269E+02
 11
1.10594452E+02
 21
-2.10320367E+02
  0
LINE
  8
0
 62
6
 10
1.13178854E+02
 20
-2.12403209E+02
 11
1.11068643E+02
 21
-2.11954670E+02
  0
LINE
  8
0
 62
4
 10
1.12926318E+02
 20
-2.08781562E+02
 11
1.13850409E+02
 21
-2.09243792E+02
  0
LINE
  8
0
 62
4
 10
1.12096751E+02
 20
-2.12684371E+02
 11
1.13128955E+02
 21
-2.12637965E+02
  0
LINE
  8
0
 62
6
 10
1.13802589E+02
 20
-2.09468766E+02
 11
1.11692378E+02
 21
-2.09020227E+02
  0
LINE
  8
0
 62
4
 10
1.13850409E+02
 20
-2.09243792E+02
 11
1.13128955E+02
 21
-2.12637965E+02
  0
LINE
  8
0
 62
4
 10
1.12478164E+02
 20
-2.05323396E+02
 11
1.10548864E+02
 21
-2.14400039E+02
  0
LINE
  8
0
 62
4
 10
1.12096751E+02
 20
-2.12684371E+02
 11
1.10964687E+02
 21
-2.12443744E+02
  0
LINE
  8
0
 62
4
 10
1.12926318E+02
 20
-2.08781562E+02
 11
1.11794255E+02
 21
-2.08540935E+02
  0
LINE
  8
0
 62
4
 10
-5.92499487E+01
 20
-1.03618745E+02
 11
-2.32499487E+01
 21
-1.03618745E+02
  0
LINE
  8
0
  6
CENTER
 62
6
 10
-4.87499487E+01
 20
-6.14742264E+01
 11
-4.87499487E+01
 21
-1.15191746E+02
  0
LINE
  8
0
 62
4
 10
-4.12499487E+01
 20
-8.06083541E+01
 11
-2.32499487E+01
 21
-8.06083541E+01
  0
LINE
  8
0
 62
4
 10
-4.53499487E+01
 20
-1.06737420E+02
 11
-2.32499487E+01
 21
-1.06737420E+02
  0
LINE
  8
0
 62
4
 10
-5.82499487E+01
 20
-1.01173376E+02
 11
-3.92499487E+01
 21
-1.01173376E+02
  0
ARC
  8
0
 62
4
 10
-4.45143537E+01
 20
-9.71864754E+01
 40
1.21769740E+01
 50
2.40462101E+02
 51
2.53021762E+02
  0
ARC
  8
0
 62
4
 10
-5.29855437E+01
 20
-9.71864754E+01
 40
1.21769740E+01
 50
2.86978238E+02
 51
2.99537899E+02
  0
POLYLINE
  8
0
 62
4
 66
1
  0
VERTEX
  8
0
 62
4
 10
-4.53499487E+01
 20
-1.07753707E+02
  0
VERTEX
  8
0
 62
4
 10
-4.53628867E+01
 20
-1.07657726E+02
  0
VERTEX
  8
0
 62
4
 10
-4.54016023E+01
 20
-1.07562476E+02
  0
VERTEX
  8
0
 62
4
 10
-4.54658009E+01
 20
-1.07468681E+02
  0
VERTEX
  8
0
 62
4
 10
-4.55549938E+01
 20
-1.07377055E+02
  0
VERTEX
  8
0
 62
4
 10
-4.56685022E+01
 20
-1.07288296E+02
  0
VERTEX
  8
0
 62
4
 10
-4.58054623E+01
 20
-1.07203079E+02
  0
VERTEX
  8
0
 62
4
 10
-4.59648317E+01
 20
-1.07122053E+02
  0
VERTEX
  8
0
 62
4
 10
-4.61453976E+01
 20
-1.07045834E+02
  0
VERTEX
  8
0
 62
4
 10
-4.63457856E+01
 20
-1.06975002E+02
  0
VERTEX
  8
0
 62
4
 10
-4.65644708E+01
 20
-1.06910096E+02
  0
VERTEX
  8
0
 62
4
 10
-4.67997888E+01
 20
-1.06851611E+02
  0
VERTEX
  8
0
 62
4
 10
-4.70499487E+01
 20
-1.06799992E+02
  0
VERTEX
  8
0
 62
4
 10
-4.73130466E+01
 20
-1.06755631E+02
  0
VERTEX
  8
0
 62
4
 10
-4.75870802E+01
 20
-1.06718865E+02
  0
VERTEX
  8
0
 62
4
 10
-4.78699639E+01
 20
-1.06689976E+02
  0
VERTEX
  8
0
 62
4
 10
-4.81595449E+01
 20
-1.06669182E+02
  0
VERTEX
  8
0
 62
4
 10
-4.84536192E+01
 20
-1.06656642E+02
  0
VERTEX
  8
0
 62
4
 10
-4.87499487E+01
 20
-1.06652452E+02
  0
VERTEX
  8
0
 62
4
 10
-4.90462782E+01
 20
-1.06656642E+02
  0
VERTEX
  8
0
 62
4
 10
-4.93403525E+01
 20
-1.06669182E+02
  0
VERTEX
  8
0
 62
4
 10
-4.96299335E+01
 20
-1.06689976E+02
  0
VERTEX
  8
0
 62
4
 10
-4.99128172E+01
 20
-1.06718865E+02
  0
VERTEX
  8
0
 62
4
 10
-5.01868508E+01
 20
-1.06755631E+02
  0
VERTEX
  8
0
 62
4
 10
-5.04499487E+01
 20
-1.06799992E+02
  0
VERTEX
  8
0
 62
4
 10
-5.07001086E+01
 20
-1.06851611E+02
  0
VERTEX
  8
0
 62
4
 10
-5.09354266E+01
 20
-1.06910096E+02
  0
VERTEX
  8
0
 62
4
 10
-5.11541118E+01
 20
-1.06975002E+02
  0
VERTEX
  8
0
 62
4
 10
-5.13544998E+01
 20
-1.07045834E+02
  0
VERTEX
  8
0
 62
4
 10
-5.15350657E+01
 20
-1.07122053E+02
  0
VERTEX
  8
0
 62
4
 10
-5.16944351E+01
 20
-1.07203079E+02
  0
VERTEX
  8
0
 62
4
 10
-5.18313952E+01
 20
-1.07288296E+02
  0
VERTEX
  8
0
 62
4
 10
-5.19449036E+01
 20
-1.07377055E+02
  0
VERTEX
  8
0
 62
4
 10
-5.20340965E+01
 20
-1.07468681E+02
  0
VERTEX
  8
0
 62
4
 10
-5.20982951E+01
 20
-1.07562476E+02
  0
VERTEX
  8
0
 62
4
 10
-5.21370107E+01
 20
-1.07657726E+02
  0
VERTEX
  8
0
 62
4
 10
-5.21499487E+01
 20
-1.07753707E+02
  0
VERTEX
  8
0
 62
4
 10
-5.21370107E+01
 20
-1.07849688E+02
  0
VERTEX
  8
0
 62
4
 10
-5.20982951E+01
 20
-1.07944938E+02
  0
VERTEX
  8
0
 62
4
 10
-5.20340965E+01
 20
-1.08038733E+02
  0
VERTEX
  8
0
 62
4
 10
-5.19449036E+01
 20
-1.08130359E+02
  0
VERTEX
  8
0
 62
4
 10
-5.18313952E+01
 20
-1.08219118E+02
  0
VERTEX
  8
0
 62
4
 10
-5.16944351E+01
 20
-1.08304335E+02
  0
VERTEX
  8
0
 62
4
 10
-5.15350656E+01
 20
-1.08385361E+02
  0
VERTEX
  8
0
 62
4
 10
-5.13544998E+01
 20
-1.08461580E+02
  0
VERTEX
  8
0
 62
4
 10
-5.11541118E+01
 20
-1.08532412E+02
  0
VERTEX
  8
0
 62
4
 10
-5.09354266E+01
 20
-1.08597318E+02
  0
VERTEX
  8
0
 62
4
 10
-5.07001086E+01
 20
-1.08655803E+02
  0
VERTEX
  8
0
 62
4
 10
-5.04499487E+01
 20
-1.08707422E+02
  0
VERTEX
  8
0
 62
4
 10
-5.01868508E+01
 20
-1.08751783E+02
  0
VERTEX
  8
0
 62
4
 10
-4.99128172E+01
 20
-1.08788549E+02
  0
VERTEX
  8
0
 62
4
 10
-4.96299334E+01
 20
-1.08817438E+02
  0
VERTEX
  8
0
 62
4
 10
-4.93403525E+01
 20
-1.08838232E+02
  0
VERTEX
  8
0
 62
4
 10
-4.90462782E+01
 20
-1.08850772E+02
  0
VERTEX
  8
0
 62
4
 10
-4.87499487E+01
 20
-1.08854962E+02
  0
VERTEX
  8
0
 62
4
 10
-4.84536192E+01
 20
-1.08850772E+02
  0
VERTEX
  8
0
 62
4
 10
-4.81595449E+01
 20
-1.08838232E+02
  0
VERTEX
  8
0
 62
4
 10
-4.78699639E+01
 20
-1.08817438E+02
  0
VERTEX
  8
0
 62
4
 10
-4.75870802E+01
 20
-1.08788549E+02
  0
VERTEX
  8
0
 62
4
 10
-4.73130466E+01
 20
-1.08751783E+02
  0
VERTEX
  8
0
 62
4
 10
-4.70499487E+01
 20
-1.08707422E+02
  0
VERTEX
  8
0
 62
4
 10
-4.67997888E+01
 20
-1.08655803E+02
  0
VERTEX
  8
0
 62
4
 10
-4.65644708E+01
 20
-1.08597318E+02
  0
VERTEX
  8
0
 62
4
 10
-4.63457856E+01
 20
-1.08532412E+02
  0
VERTEX
  8
0
 62
4
 10
-4.61453976E+01
 20
-1.08461580E+02
  0
VERTEX
  8
0
 62
4
 10
-4.59648317E+01
 20
-1.08385361E+02
  0
VERTEX
  8
0
 62
4
 10
-4.58054623E+01
 20
-1.08304335E+02
  0
VERTEX
  8
0
 62
4
 10
-4.56685022E+01
 20
-1.08219118E+02
  0
VERTEX
  8
0
 62
4
 10
-4.55549938E+01
 20
-1.08130359E+02
  0
VERTEX
  8
0
 62
4
 10
-4.54658009E+01
 20
-1.08038733E+02
  0
VERTEX
  8
0
 62
4
 10
-4.54016023E+01
 20
-1.07944938E+02
  0
VERTEX
  8
0
 62
4
 10
-4.53628867E+01
 20
-1.07849688E+02
  0
VERTEX
  8
0
 62
4
 10
-4.53499487E+01
 20
-1.07753707E+02
  0
SEQEND
  8
0
  0
POLYLINE
  8
0
 62
4
 66
1
  0
VERTEX
  8
0
 62
4
 10
-4.47499487E+01
 20
-1.05178083E+02
  0
VERTEX
  8
0
 62
4
 10
-4.47660515E+01
 20
-1.05103535E+02
  0
VERTEX
  8
0
 62
4
 10
-4.48142303E+01
 20
-1.05029587E+02
  0
VERTEX
  8
0
 62
4
 10
-4.48940973E+01
 20
-1.04956834E+02
  0
VERTEX
  8
0
 62
4
 10
-4.50050092E+01
 20
-1.04885863E+02
  0
VERTEX
  8
0
 62
4
 10
-4.51460732E+01
 20
-1.04817245E+02
  0
VERTEX
  8
0
 62
4
 10
-4.53161535E+01
 20
-1.04751532E+02
  0
VERTEX
  8
0
 62
4
 10
-4.55138807E+01
 20
-1.04689253E+02
  0
VERTEX
  8
0
 62
4
 10
-4.57376628E+01
 20
-1.04630910E+02
  0
VERTEX
  8
0
 62
4
 10
-4.59856981E+01
 20
-1.04576973E+02
  0
VERTEX
  8
0
 62
4
 10
-4.62559895E+01
 20
-1.04527875E+02
  0
VERTEX
  8
0
 62
4
 10
-4.65463608E+01
 20
-1.04484013E+02
  0
VERTEX
  8
0
 62
4
 10
-4.68544740E+01
 20
-1.04445739E+02
  0
VERTEX
  8
0
 62
4
 10
-4.71778486E+01
 20
-1.04413361E+02
  0
VERTEX
  8
0
 62
4
 10
-4.75138807E+01
 20
-1.04387140E+02
  0
VERTEX
  8
0
 62
4
 10
-4.78598650E+01
 20
-1.04367287E+02
  0
VERTEX
  8
0
 62
4
 10
-4.82130156E+01
 20
-1.04353963E+02
  0
VERTEX
  8
0
 62
4
 10
-4.85704894E+01
 20
-1.04347274E+02
  0
VERTEX
  8
0
 62
4
 10
-4.89294080E+01
 20
-1.04347274E+02
  0
VERTEX
  8
0
 62
4
 10
-4.92868818E+01
 20
-1.04353963E+02
  0
VERTEX
  8
0
 62
4
 10
-4.96400324E+01
 20
-1.04367287E+02
  0
VERTEX
  8
0
 62
4
 10
-4.99860167E+01
 20
-1.04387140E+02
  0
VERTEX
  8
0
 62
4
 10
-5.03220488E+01
 20
-1.04413361E+02
  0
VERTEX
  8
0
 62
4
 10
-5.06454233E+01
 20
-1.04445739E+02
  0
VERTEX
  8
0
 62
4
 10
-5.09535366E+01
 20
-1.04484013E+02
  0
VERTEX
  8
0
 62
4
 10
-5.12439079E+01
 20
-1.04527875E+02
  0
VERTEX
  8
0
 62
4
 10
-5.15141993E+01
 20
-1.04576973E+02
  0
VERTEX
  8
0
 62
4
 10
-5.17622346E+01
 20
-1.04630910E+02
  0
VERTEX
  8
0
 62
4
 10
-5.19860167E+01
 20
-1.04689253E+02
  0
VERTEX
  8
0
 62
4
 10
-5.21837439E+01
 20
-1.04751532E+02
  0
VERTEX
  8
0
 62
4
 10
-5.23538242E+01
 20
-1.04817245E+02
  0
VERTEX
  8
0
 62
4
 10
-5.24948882E+01
 20
-1.04885863E+02
  0
VERTEX
  8
0
 62
4
 10
-5.26058001E+01
 20
-1.04956834E+02
  0
VERTEX
  8
0
 62
4
 10
-5.26856671E+01
 20
-1.05029587E+02
  0
VERTEX
  8
0
 62
4
 10
-5.27338459E+01
 20
-1.05103535E+02
  0
VERTEX
  8
0
 62
4
 10
-5.27499487E+01
 20
-1.05178083E+02
  0
SEQEND
  8
0
  0
ARC
  8
0
 62
4
 10
-5.92504523E+01
 20
-1.05237924E+02
 40
1.49949647E+00
 50
1.79980757E+02
 51
2.70019243E+02
  0
LINE
  8
0
 62
4
 10
-5.92499487E+01
 20
-1.06737420E+02
 11
-5.21499487E+01
 21
-1.06737420E+02
  0
POLYLINE
  8
0
 62
4
 66
1
  0
VERTEX
  8
0
 62
4
 10
-4.53499487E+01
 20
-1.05667148E+02
  0
VERTEX
  8
0
 62
4
 10
-4.53636396E+01
 20
-1.05603782E+02
  0
VERTEX
  8
0
 62
4
 10
-4.54045950E+01
 20
-1.05540926E+02
  0
VERTEX
  8
0
 62
4
 10
-4.54724849E+01
 20
-1.05479087E+02
  0
VERTEX
  8
0
 62
4
 10
-4.55667628E+01
 20
-1.05418762E+02
  0
VERTEX
  8
0
 62
4
 10
-4.56866697E+01
 20
-1.05360437E+02
  0
VERTEX
  8
0
 62
4
 10
-4.58312401E+01
 20
-1.05304582E+02
  0
VERTEX
  8
0
 62
4
 10
-4.59993101E+01
 20
-1.05251645E+02
  0
VERTEX
  8
0
 62
4
 10
-4.61895264E+01
 20
-1.05202054E+02
  0
VERTEX
  8
0
 62
4
 10
-4.64003576E+01
 20
-1.05156208E+02
  0
VERTEX
  8
0
 62
4
 10
-4.66301061E+01
 20
-1.05114476E+02
  0
VERTEX
  8
0
 62
4
 10
-4.68769223E+01
 20
-1.05077193E+02
  0
VERTEX
  8
0
 62
4
 10
-4.71388188E+01
 20
-1.05044661E+02
  0
VERTEX
  8
0
 62
4
 10
-4.74136871E+01
 20
-1.05017140E+02
  0
VERTEX
  8
0
 62
4
 10
-4.76993142E+01
 20
-1.04994853E+02
  0
VERTEX
  8
0
 62
4
 10
-4.79934002E+01
 20
-1.04977979E+02
  0
VERTEX
  8
0
 62
4
 10
-4.82935775E+01
 20
-1.04966653E+02
  0
VERTEX
  8
0
 62
4
 10
-4.85974292E+01
 20
-1.04960968E+02
  0
VERTEX
  8
0
 62
4
 10
-4.89025089E+01
 20
-1.04960968E+02
  0
VERTEX
  8
0
 62
4
 10
-4.92063603E+01
 20
-1.04966654E+02
  0
VERTEX
  8
0
 62
4
 10
-4.95065369E+01
 20
-1.04977981E+02
  0
VERTEX
  8
0
 62
4
 10
-4.98006220E+01
 20
-1.04994855E+02
  0
VERTEX
  8
0
 62
4
 10
-5.00862477E+01
 20
-1.05017143E+02
  0
VERTEX
  8
0
 62
4
 10
-5.03611145E+01
 20
-1.05044665E+02
  0
VERTEX
  8
0
 62
4
 10
-5.06230091E+01
 20
-1.05077198E+02
  0
VERTEX
  8
0
 62
4
 10
-5.08698231E+01
 20
-1.05114481E+02
  0
VERTEX
  8
0
 62
4
 10
-5.10995693E+01
 20
-1.05156214E+02
  0
VERTEX
  8
0
 62
4
 10
-5.13103978E+01
 20
-1.05202061E+02
  0
VERTEX
  8
0
 62
4
 10
-5.15006113E+01
 20
-1.05251652E+02
  0
VERTEX
  8
0
 62
4
 10
-5.16686782E+01
 20
-1.05304589E+02
  0
VERTEX
  8
0
 62
4
 10
-5.18132454E+01
 20
-1.05360445E+02
  0
VERTEX
  8
0
 62
4
 10
-5.19331489E+01
 20
-1.05418770E+02
  0
VERTEX
  8
0
 62
4
 10
-5.20274234E+01
 20
-1.05479095E+02
  0
VERTEX
  8
0
 62
4
 10
-5.20953097E+01
 20
-1.05540935E+02
  0
VERTEX
  8
0
 62
4
 10
-5.21362614E+01
 20
-1.05603790E+02
  0
VERTEX
  8
0
 62
4
 10
-5.21499487E+01
 20
-1.05667156E+02
  0
SEQEND
  8
0
  0
POLYLINE
  8
0
 62
4
 66
1
  0
VERTEX
  8
0
 62
4
 10
-4.53499487E+01
 20
-1.06105253E+02
  0
VERTEX
  8
0
 62
4
 10
-4.51768967E+01
 20
-1.06041010E+02
  0
VERTEX
  8
0
 62
4
 10
-4.50318537E+01
 20
-1.05973836E+02
  0
VERTEX
  8
0
 62
4
 10
-4.49159569E+01
 20
-1.05904258E+02
  0
VERTEX
  8
0
 62
4
 10
-4.48301146E+01
 20
-1.05832821E+02
  0
VERTEX
  8
0
 62
4
 10
-4.47749998E+01
 20
-1.05760086E+02
  0
VERTEX
  8
0
 62
4
 10
-4.47510446E+01
 20
-1.05686622E+02
  0
VERTEX
  8
0
 62
4
 10
-4.47584368E+01
 20
-1.05613006E+02
  0
VERTEX
  8
0
 62
4
 10
-4.47971183E+01
 20
-1.05539814E+02
  0
VERTEX
  8
0
 62
4
 10
-4.48667860E+01
 20
-1.05467621E+02
  0
VERTEX
  8
0
 62
4
 10
-4.49668937E+01
 20
-1.05396991E+02
  0
VERTEX
  8
0
 62
4
 10
-4.50966568E+01
 20
-1.05328480E+02
  0
VERTEX
  8
0
 62
4
 10
-4.52550579E+01
 20
-1.05262623E+02
  0
VERTEX
  8
0
 62
4
 10
-4.54408554E+01
 20
-1.05199937E+02
  0
VERTEX
  8
0
 62
4
 10
-4.56525929E+01
 20
-1.05140914E+02
  0
VERTEX
  8
0
 62
4
 10
-4.58886105E+01
 20
-1.05086016E+02
  0
VERTEX
  8
0
 62
4
 10
-4.61470580E+01
 20
-1.05035674E+02
  0
VERTEX
  8
0
 62
4
 10
-4.64259096E+01
 20
-1.04990282E+02
  0
VERTEX
  8
0
 62
4
 10
-4.67229792E+01
 20
-1.04950195E+02
  0
VERTEX
  8
0
 62
4
 10
-4.70359383E+01
 20
-1.04915729E+02
  0
VERTEX
  8
0
 62
4
 10
-4.73623334E+01
 20
-1.04887154E+02
  0
VERTEX
  8
0
 62
4
 10
-4.76996061E+01
 20
-1.04864693E+02
  0
VERTEX
  8
0
 62
4
 10
-4.80451123E+01
 20
-1.04848522E+02
  0
VERTEX
  8
0
 62
4
 10
-4.83961438E+01
 20
-1.04838769E+02
  0
VERTEX
  8
0
 62
4
 10
-4.87499487E+01
 20
-1.04835509E+02
  0
VERTEX
  8
0
 62
4
 10
-4.91037536E+01
 20
-1.04838769E+02
  0
VERTEX
  8
0
 62
4
 10
-4.94547851E+01
 20
-1.04848522E+02
  0
VERTEX
  8
0
 62
4
 10
-4.98002913E+01
 20
-1.04864693E+02
  0
VERTEX
  8
0
 62
4
 10
-5.01375639E+01
 20
-1.04887154E+02
  0
VERTEX
  8
0
 62
4
 10
-5.04639591E+01
 20
-1.04915729E+02
  0
VERTEX
  8
0
 62
4
 10
-5.07769181E+01
 20
-1.04950195E+02
  0
VERTEX
  8
0
 62
4
 10
-5.10739878E+01
 20
-1.04990282E+02
  0
VERTEX
  8
0
 62
4
 10
-5.13528394E+01
 20
-1.05035674E+02
  0
VERTEX
  8
0
 62
4
 10
-5.16112869E+01
 20
-1.05086016E+02
  0
VERTEX
  8
0
 62
4
 10
-5.18473045E+01
 20
-1.05140914E+02
  0
VERTEX
  8
0
 62
4
 10
-5.20590419E+01
 20
-1.05199937E+02
  0
VERTEX
  8
0
 62
4
 10
-5.22448395E+01
 20
-1.05262623E+02
  0
VERTEX
  8
0
 62
4
 10
-5.24032406E+01
 20
-1.05328480E+02
  0
VERTEX
  8
0
 62
4
 10
-5.25330037E+01
 20
-1.05396991E+02
  0
VERTEX
  8
0
 62
4
 10
-5.26331114E+01
 20
-1.05467621E+02
  0
VERTEX
  8
0
 62
4
 10
-5.27027791E+01
 20
-1.05539814E+02
  0
VERTEX
  8
0
 62
4
 10
-5.27414606E+01
 20
-1.05613006E+02
  0
VERTEX
  8
0
 62
4
 10
-5.27488528E+01
 20
-1.05686622E+02
  0
VERTEX
  8
0
 62
4
 10
-5.27248976E+01
 20
-1.05760086E+02
  0
VERTEX
  8
0
 62
4
 10
-5.26697828E+01
 20
-1.05832821E+02
  0
VERTEX
  8
0
 62
4
 10
-5.25839405E+01
 20
-1.05904258E+02
  0
VERTEX
  8
0
 62
4
 10
-5.24680437E+01
 20
-1.05973836E+02
  0
VERTEX
  8
0
 62
4
 10
-5.23230007E+01
 20
-1.06041010E+02
  0
VERTEX
  8
0
 62
4
 10
-5.21499487E+01
 20
-1.06105253E+02
  0
SEQEND
  8
0
  0
LINE
  8
0
  6
CENTER
 62
6
 10
-5.37990337E+01
 20
-8.58515346E+01
 11
-4.37008639E+01
 21
-8.58515346E+01
  0
POLYLINE
  8
0
 62
4
 66
1
  0
VERTEX
  8
0
 62
4
 10
-4.57499487E+01
 20
-8.58515346E+01
  0
VERTEX
  8
0
 62
4
 10
-4.57613646E+01
 20
-8.55957811E+01
  0
VERTEX
  8
0
 62
4
 10
-4.57955254E+01
 20
-8.53419740E+01
  0
VERTEX
  8
0
 62
4
 10
-4.58521712E+01
 20
-8.50920449E+01
  0
VERTEX
  8
0
 62
4
 10
-4.59308708E+01
 20
-8.48478961E+01
  0
VERTEX
  8
0
 62
4
 10
-4.60310253E+01
 20
-8.46113855E+01
  0
VERTEX
  8
0
 62
4
 10
-4.61518725E+01
 20
-8.43843132E+01
  0
VERTEX
  8
0
 62
4
 10
-4.62924926E+01
 20
-8.41684074E+01
  0
VERTEX
  8
0
 62
4
 10
-4.64518154E+01
 20
-8.39653111E+01
  0
VERTEX
  8
0
 62
4
 10
-4.66286284E+01
 20
-8.37765702E+01
  0
VERTEX
  8
0
 62
4
 10
-4.68215859E+01
 20
-8.36036210E+01
  0
VERTEX
  8
0
 62
4
 10
-4.70292194E+01
 20
-8.34477798E+01
  0
VERTEX
  8
0
 62
4
 10
-4.72499487E+01
 20
-8.33102326E+01
  0
VERTEX
  8
0
 62
4
 10
-4.74820939E+01
 20
-8.31920262E+01
  0
VERTEX
  8
0
 62
4
 10
-4.77238883E+01
 20
-8.30940604E+01
  0
VERTEX
  8
0
 62
4
 10
-4.79734916E+01
 20
-8.30170805E+01
  0
VERTEX
  8
0
 62
4
 10
-4.82290042E+01
 20
-8.29616726E+01
  0
VERTEX
  8
0
 62
4
 10
-4.84884815E+01
 20
-8.29282582E+01
  0
VERTEX
  8
0
 62
4
 10
-4.87499487E+01
 20
-8.29170918E+01
  0
VERTEX
  8
0
 62
4
 10
-4.90114159E+01
 20
-8.29282582E+01
  0
VERTEX
  8
0
 62
4
 10
-4.92708932E+01
 20
-8.29616726E+01
  0
VERTEX
  8
0
 62
4
 10
-4.95264058E+01
 20
-8.30170805E+01
  0
VERTEX
  8
0
 62
4
 10
-4.97760091E+01
 20
-8.30940604E+01
  0
VERTEX
  8
0
 62
4
 10
-5.00178035E+01
 20
-8.31920262E+01
  0
VERTEX
  8
0
 62
4
 10
-5.02499487E+01
 20
-8.33102326E+01
  0
VERTEX
  8
0
 62
4
 10
-5.04706780E+01
 20
-8.34477798E+01
  0
VERTEX
  8
0
 62
4
 10
-5.06783115E+01
 20
-8.36036210E+01
  0
VERTEX
  8
0
 62
4
 10
-5.08712690E+01
 20
-8.37765702E+01
  0
VERTEX
  8
0
 62
4
 10
-5.10480820E+01
 20
-8.39653111E+01
  0
VERTEX
  8
0
 62
4
 10
-5.12074048E+01
 20
-8.41684074E+01
  0
VERTEX
  8
0
 62
4
 10
-5.13480249E+01
 20
-8.43843132E+01
  0
VERTEX
  8
0
 62
4
 10
-5.14688721E+01
 20
-8.46113855E+01
  0
VERTEX
  8
0
 62
4
 10
-5.15690266E+01
 20
-8.48478961E+01
  0
VERTEX
  8
0
 62
4
 10
-5.16477262E+01
 20
-8.50920449E+01
  0
VERTEX
  8
0
 62
4
 10
-5.17043720E+01
 20
-8.53419740E+01
  0
VERTEX
  8
0
 62
4
 10
-5.17385328E+01
 20
-8.55957811E+01
  0
VERTEX
  8
0
 62
4
 10
-5.17499487E+01
 20
-8.58515346E+01
  0
VERTEX
  8
0
 62
4
 10
-5.17385328E+01
 20
-8.61072881E+01
  0
VERTEX
  8
0
 62
4
 10
-5.17043720E+01
 20
-8.63610952E+01
  0
VERTEX
  8
0
 62
4
 10
-5.16477262E+01
 20
-8.66110243E+01
  0
VERTEX
  8
0
 62
4
 10
-5.15690266E+01
 20
-8.68551732E+01
  0
VERTEX
  8
0
 62
4
 10
-5.14688721E+01
 20
-8.70916837E+01
  0
VERTEX
  8
0
 62
4
 10
-5.13480249E+01
 20
-8.73187560E+01
  0
VERTEX
  8
0
 62
4
 10
-5.12074048E+01
 20
-8.75346618E+01
  0
VERTEX
  8
0
 62
4
 10
-5.10480820E+01
 20
-8.77377581E+01
  0
VERTEX
  8
0
 62
4
 10
-5.08712690E+01
 20
-8.79264990E+01
  0
VERTEX
  8
0
 62
4
 10
-5.06783115E+01
 20
-8.80994482E+01
  0
VERTEX
  8
0
 62
4
 10
-5.04706780E+01
 20
-8.82552894E+01
  0
VERTEX
  8
0
 62
4
 10
-5.02499487E+01
 20
-8.83928366E+01
  0
VERTEX
  8
0
 62
4
 10
-5.00178035E+01
 20
-8.85110430E+01
  0
VERTEX
  8
0
 62
4
 10
-4.97760091E+01
 20
-8.86090088E+01
  0
VERTEX
  8
0
 62
4
 10
-4.95264058E+01
 20
-8.86859887E+01
  0
VERTEX
  8
0
 62
4
 10
-4.92708932E+01
 20
-8.87413966E+01
  0
VERTEX
  8
0
 62
4
 10
-4.90114159E+01
 20
-8.87748110E+01
  0
VERTEX
  8
0
 62
4
 10
-4.87499487E+01
 20
-8.87859774E+01
  0
VERTEX
  8
0
 62
4
 10
-4.84884815E+01
 20
-8.87748110E+01
  0
VERTEX
  8
0
 62
4
 10
-4.82290042E+01
 20
-8.87413966E+01
  0
VERTEX
  8
0
 62
4
 10
-4.79734916E+01
 20
-8.86859887E+01
  0
VERTEX
  8
0
 62
4
 10
-4.77238883E+01
 20
-8.86090088E+01
  0
VERTEX
  8
0
 62
4
 10
-4.74820939E+01
 20
-8.85110430E+01
  0
VERTEX
  8
0
 62
4
 10
-4.72499487E+01
 20
-8.83928366E+01
  0
VERTEX
  8
0
 62
4
 10
-4.70292194E+01
 20
-8.82552894E+01
  0
VERTEX
  8
0
 62
4
 10
-4.68215859E+01
 20
-8.80994482E+01
  0
VERTEX
  8
0
 62
4
 10
-4.66286284E+01
 20
-8.79264990E+01
  0
VERTEX
  8
0
 62
4
 10
-4.64518154E+01
 20
-8.77377581E+01
  0
VERTEX
  8
0
 62
4
 10
-4.62924926E+01
 20
-8.75346618E+01
  0
VERTEX
  8
0
 62
4
 10
-4.61518725E+01
 20
-8.73187560E+01
  0
VERTEX
  8
0
 62
4
 10
-4.60310253E+01
 20
-8.70916837E+01
  0
VERTEX
  8
0
 62
4
 10
-4.59308708E+01
 20
-8.68551731E+01
  0
VERTEX
  8
0
 62
4
 10
-4.58521712E+01
 20
-8.66110243E+01
  0
VERTEX
  8
0
 62
4
 10
-4.57955254E+01
 20
-8.63610952E+01
  0
VERTEX
  8
0
 62
4
 10
-4.57613646E+01
 20
-8.61072881E+01
  0
VERTEX
  8
0
 62
4
 10
-4.57499487E+01
 20
-8.58515346E+01
  0
SEQEND
  8
0
  0
LINE
  8
0
 62
4
 10
-5.62499488E+01
 20
-9.83854339E+01
 11
-4.12499488E+01
 21
-9.83854339E+01
  0
LINE
  8
0
 62
4
 10
-7.57499488E+01
 20
-9.42387121E+01
 11
-7.07499488E+01
 21
-9.42387121E+01
  0
LINE
  8
0
 62
4
 10
-6.57499487E+01
 20
-8.05997780E+01
 11
-6.57499487E+01
 21
-9.35997780E+01
  0
ARC
  8
0
 62
4
 10
-6.52494486E+01
 20
-8.06002781E+01
 40
5.00500378E-01
 50
9.00572530E+01
 51
1.79942747E+02
  0
LINE
  8
0
 62
4
 10
-5.62499487E+01
 20
-8.00997780E+01
 11
-6.52499487E+01
 21
-8.00997780E+01
  0
LINE
  8
0
 62
4
 10
-7.57499487E+01
 20
-9.26772953E+01
 11
-7.07499487E+01
 21
-9.26772953E+01
  0
LINE
  8
0
 62
4
 10
-7.57499487E+01
 20
-8.55396671E+01
 11
-7.07499487E+01
 21
-8.55396671E+01
  0
LINE
  8
0
  6
CENTER
 62
6
 10
-4.47499487E+01
 20
-6.60416875E+01
 11
-4.47499487E+01
 21
-7.65416875E+01
  0
LINE
  8
0
 62
4
 10
-4.27499487E+01
 20
-6.83016875E+01
 11
-4.27499487E+01
 21
-6.86739326E+01
  0
LINE
  8
0
 62
4
 10
-4.67499487E+01
 20
-6.83016875E+01
 11
-4.67499487E+01
 21
-6.86739326E+01
  0
LINE
  8
0
 62
4
 10
-4.30199487E+01
 20
-6.73016875E+01
 11
-4.64899487E+01
 21
-6.73016875E+01
  0
LINE
  8
0
 62
4
 10
-4.27499487E+01
 20
-6.83016875E+01
 11
-4.30199487E+01
 21
-6.73016875E+01
  0
LINE
  8
0
 62
4
 10
-4.67499487E+01
 20
-6.83016875E+01
 11
-4.64899487E+01
 21
-6.73016875E+01
  0
LINE
  8
0
 62
6
 10
-4.32499487E+01
 20
-6.73016875E+01
 11
-4.32499487E+01
 21
-6.86739326E+01
  0
LINE
  8
0
 62
6
 10
-4.62499487E+01
 20
-6.73016875E+01
 11
-4.62499487E+01
 21
-6.86739326E+01
  0
LINE
  8
0
 62
4
 10
-4.22499487E+01
 20
-7.39184541E+01
 11
-5.52499487E+01
 21
-7.39184541E+01
  0
LINE
  8
0
 62
4
 10
-4.12499487E+01
 20
-6.86739326E+01
 11
-5.62499487E+01
 21
-6.86739326E+01
  0
LINE
  8
0
  6
CENTER
 62
6
 10
-5.27499487E+01
 20
-6.60416875E+01
 11
-5.27499487E+01
 21
-7.65416875E+01
  0
LINE
  8
0
 62
6
 10
-5.42499487E+01
 20
-6.73016875E+01
 11
-5.42499487E+01
 21
-6.86739326E+01
  0
LINE
  8
0
 62
4
 10
-5.07499487E+01
 20
-6.83016875E+01
 11
-5.07499487E+01
 21
-6.86739326E+01
  0
LINE
  8
0
 62
4
 10
-5.47499487E+01
 20
-6.83016875E+01
 11
-5.47499487E+01
 21
-6.86739326E+01
  0
LINE
  8
0
 62
4
 10
-5.10199487E+01
 20
-6.73016875E+01
 11
-5.44899487E+01
 21
-6.73016875E+01
  0
LINE
  8
0
 62
4
 10
-5.07499487E+01
 20
-6.83016875E+01
 11
-5.10199487E+01
 21
-6.73016875E+01
  0
LINE
  8
0
 62
4
 10
-5.47499487E+01
 20
-6.83016875E+01
 11
-5.44899487E+01
 21
-6.73016875E+01
  0
LINE
  8
0
 62
6
 10
-5.12499487E+01
 20
-6.73016875E+01
 11
-5.12499487E+01
 21
-6.86739326E+01
  0
LINE
  8
0
 62
4
 10
-4.47499487E+01
 20
-1.05178083E+02
 11
-4.47499487E+01
 21
-1.05667156E+02
  0
LINE
  8
0
 62
4
 10
-5.27499487E+01
 20
-1.05667156E+02
 11
-5.27499487E+01
 21
-1.05178083E+02
  0
LINE
  8
0
 62
4
 10
-4.53499487E+01
 20
-1.05667156E+02
 11
-4.53499487E+01
 21
-1.07591113E+02
  0
LINE
  8
0
 62
4
 10
-5.21499487E+01
 20
-1.07591113E+02
 11
-5.21499487E+01
 21
-1.05667156E+02
  0
LINE
  8
0
 62
4
 10
-6.52499487E+01
 20
-9.40997780E+01
 11
-5.62499487E+01
 21
-9.40997780E+01
  0
LINE
  8
0
 62
4
 10
-7.57499487E+01
 20
-7.99613765E+01
 11
-7.57499487E+01
 21
-9.42387121E+01
  0
LINE
  8
0
 62
4
 10
-7.07499487E+01
 20
-7.99613765E+01
 11
-7.07499487E+01
 21
-9.42387121E+01
  0
LINE
  8
0
 62
4
 10
-7.07499487E+01
 20
-8.08497780E+01
 11
-6.57499487E+01
 21
-8.08497780E+01
  0
LINE
  8
0
 62
4
 10
-7.07499487E+01
 20
-9.33497780E+01
 11
-6.57499487E+01
 21
-9.33497780E+01
  0
LINE
  8
0
 62
4
 10
-6.92499487E+01
 20
-8.08497780E+01
 11
-6.92499487E+01
 21
-9.33497780E+01
  0
LINE
  8
0
 62
4
 10
-6.92499487E+01
 20
-8.13497780E+01
 11
-6.57499487E+01
 21
-8.13497780E+01
  0
LINE
  8
0
 62
4
 10
-6.92499487E+01
 20
-9.28497780E+01
 11
-6.57499487E+01
 21
-9.28497780E+01
  0
LINE
  8
0
 62
4
 10
-4.12499487E+01
 20
-9.83854339E+01
 11
-4.12499487E+01
 21
-6.86739326E+01
  0
LINE
  8
0
 62
4
 10
-5.62499487E+01
 20
-7.85154276E+01
 11
-4.12499487E+01
 21
-7.85154276E+01
  0
LINE
  8
0
 62
4
 10
-5.62499487E+01
 20
-9.31876416E+01
 11
-4.12499487E+01
 21
-9.31876416E+01
  0
LINE
  8
0
 62
4
 10
-7.57499487E+01
 20
-7.99613765E+01
 11
-7.07499487E+01
 21
-7.99613765E+01
  0
LINE
  8
0
 62
4
 10
-3.92499487E+01
 20
-8.17569247E+01
 11
-3.92499487E+01
 21
-1.01173376E+02
  0
LINE
  8
0
 62
4
 10
-6.07499487E+01
 20
-1.05237420E+02
 11
-6.07499487E+01
 21
-9.40997780E+01
  0
LINE
  8
0
 62
4
 10
-5.82499487E+01
 20
-9.40997780E+01
 11
-5.82499487E+01
 21
-1.01173376E+02
  0
LINE
  8
0
 62
4
 10
-5.62499487E+01
 20
-6.86739326E+01
 11
-5.62499487E+01
 21
-9.83854339E+01
  0
LINE
  8
0
 62
4
 10
-5.82499487E+01
 20
-1.00341729E+02
 11
-3.92499487E+01
 21
-1.00341729E+02
  0
LINE
  8
0
 62
4
 10
-3.92499487E+01
 20
-8.17569247E+01
 11
-4.12499487E+01
 21
-8.17569247E+01
  0
ARC
  8
0
 62
4
 10
-6.52504484E+01
 20
-9.36002776E+01
 40
4.99500622E-01
 50
1.79942690E+02
 51
2.70057311E+02
  0
ARC
  8
0
 62
4
 10
-5.92504523E+01
 20
-1.02119248E+02
 40
1.49949647E+00
 50
1.79980757E+02
 51
2.70019243E+02
  0
POLYLINE
  8
0
 62
4
 66
1
  0
VERTEX
  8
0
 62
4
 10
-2.96099487E+01
 20
-9.16730616E+01
  0
VERTEX
  8
0
 62
4
 10
-2.96218973E+01
 20
-9.14053729E+01
  0
VERTEX
  8
0
 62
4
 10
-2.96576524E+01
 20
-9.11397215E+01
  0
VERTEX
  8
0
 62
4
 10
-2.97169416E+01
 20
-9.08781291E+01
  0
VERTEX
  8
0
 62
4
 10
-2.97993139E+01
 20
-9.06225866E+01
  0
VERTEX
  8
0
 62
4
 10
-2.99041422E+01
 20
-9.03750389E+01
  0
VERTEX
  8
0
 62
4
 10
-3.00306289E+01
 20
-9.01373699E+01
  0
VERTEX
  8
0
 62
4
 10
-3.01778113E+01
 20
-8.99113884E+01
  0
VERTEX
  8
0
 62
4
 10
-3.03445691E+01
 20
-8.96988144E+01
  0
VERTEX
  8
0
 62
4
 10
-3.05296334E+01
 20
-8.95012655E+01
  0
VERTEX
  8
0
 62
4
 10
-3.07315956E+01
 20
-8.93202454E+01
  0
VERTEX
  8
0
 62
4
 10
-3.09489187E+01
 20
-8.91571316E+01
  0
VERTEX
  8
0
 62
4
 10
-3.11799487E+01
 20
-8.90131655E+01
  0
VERTEX
  8
0
 62
4
 10
-3.14229274E+01
 20
-8.88894428E+01
  0
VERTEX
  8
0
 62
4
 10
-3.16760055E+01
 20
-8.87869052E+01
  0
VERTEX
  8
0
 62
4
 10
-3.19372569E+01
 20
-8.87063330E+01
  0
VERTEX
  8
0
 62
4
 10
-3.22046934E+01
 20
-8.86483393E+01
  0
VERTEX
  8
0
 62
4
 10
-3.24762797E+01
 20
-8.86133657E+01
  0
VERTEX
  8
0
 62
4
 10
-3.27499487E+01
 20
-8.86016781E+01
  0
VERTEX
  8
0
 62
4
 10
-3.30236177E+01
 20
-8.86133657E+01
  0
VERTEX
  8
0
 62
4
 10
-3.32952040E+01
 20
-8.86483393E+01
  0
VERTEX
  8
0
 62
4
 10
-3.35626405E+01
 20
-8.87063330E+01
  0
VERTEX
  8
0
 62
4
 10
-3.38238920E+01
 20
-8.87869052E+01
  0
VERTEX
  8
0
 62
4
 10
-3.40769700E+01
 20
-8.88894428E+01
  0
VERTEX
  8
0
 62
4
 10
-3.43199487E+01
 20
-8.90131655E+01
  0
VERTEX
  8
0
 62
4
 10
-3.45509787E+01
 20
-8.91571316E+01
  0
VERTEX
  8
0
 62
4
 10
-3.47683018E+01
 20
-8.93202454E+01
  0
VERTEX
  8
0
 62
4
 10
-3.49702640E+01
 20
-8.95012655E+01
  0
VERTEX
  8
0
 62
4
 10
-3.51553283E+01
 20
-8.96988144E+01
  0
VERTEX
  8
0
 62
4
 10
-3.53220861E+01
 20
-8.99113884E+01
  0
VERTEX
  8
0
 62
4
 10
-3.54692685E+01
 20
-9.01373699E+01
  0
VERTEX
  8
0
 62
4
 10
-3.55957552E+01
 20
-9.03750389E+01
  0
VERTEX
  8
0
 62
4
 10
-3.57005835E+01
 20
-9.06225866E+01
  0
VERTEX
  8
0
 62
4
 10
-3.57829558E+01
 20
-9.08781291E+01
  0
VERTEX
  8
0
 62
4
 10
-3.58422450E+01
 20
-9.11397215E+01
  0
VERTEX
  8
0
 62
4
 10
-3.58780001E+01
 20
-9.14053729E+01
  0
VERTEX
  8
0
 62
4
 10
-3.58899487E+01
 20
-9.16730616E+01
  0
VERTEX
  8
0
 62
4
 10
-3.58780001E+01
 20
-9.19407503E+01
  0
VERTEX
  8
0
 62
4
 10
-3.58422450E+01
 20
-9.22064017E+01
  0
VERTEX
  8
0
 62
4
 10
-3.57829558E+01
 20
-9.24679941E+01
  0
VERTEX
  8
0
 62
4
 10
-3.57005835E+01
 20
-9.27235366E+01
  0
VERTEX
  8
0
 62
4
 10
-3.55957551E+01
 20
-9.29710843E+01
  0
VERTEX
  8
0
 62
4
 10
-3.54692685E+01
 20
-9.32087533E+01
  0
VERTEX
  8
0
 62
4
 10
-3.53220861E+01
 20
-9.34347348E+01
  0
VERTEX
  8
0
 62
4
 10
-3.51553282E+01
 20
-9.36473088E+01
  0
VERTEX
  8
0
 62
4
 10
-3.49702640E+01
 20
-9.38448577E+01
  0
VERTEX
  8
0
 62
4
 10
-3.47683018E+01
 20
-9.40258778E+01
  0
VERTEX
  8
0
 62
4
 10
-3.45509787E+01
 20
-9.41889917E+01
  0
VERTEX
  8
0
 62
4
 10
-3.43199487E+01
 20
-9.43329577E+01
  0
VERTEX
  8
0
 62
4
 10
-3.40769700E+01
 20
-9.44566804E+01
  0
VERTEX
  8
0
 62
4
 10
-3.38238919E+01
 20
-9.45592180E+01
  0
VERTEX
  8
0
 62
4
 10
-3.35626405E+01
 20
-9.46397902E+01
  0
VERTEX
  8
0
 62
4
 10
-3.32952040E+01
 20
-9.46977839E+01
  0
VERTEX
  8
0
 62
4
 10
-3.30236177E+01
 20
-9.47327575E+01
  0
VERTEX
  8
0
 62
4
 10
-3.27499487E+01
 20
-9.47444451E+01
  0
VERTEX
  8
0
 62
4
 10
-3.24762797E+01
 20
-9.47327575E+01
  0
VERTEX
  8
0
 62
4
 10
-3.22046934E+01
 20
-9.46977839E+01
  0
VERTEX
  8
0
 62
4
 10
-3.19372569E+01
 20
-9.46397902E+01
  0
VERTEX
  8
0
 62
4
 10
-3.16760054E+01
 20
-9.45592180E+01
  0
VERTEX
  8
0
 62
4
 10
-3.14229274E+01
 20
-9.44566804E+01
  0
VERTEX
  8
0
 62
4
 10
-3.11799487E+01
 20
-9.43329577E+01
  0
VERTEX
  8
0
 62
4
 10
-3.09489187E+01
 20
-9.41889916E+01
  0
VERTEX
  8
0
 62
4
 10
-3.07315956E+01
 20
-9.40258778E+01
  0
VERTEX
  8
0
 62
4
 10
-3.05296334E+01
 20
-9.38448577E+01
  0
VERTEX
  8
0
 62
4
 10
-3.03445691E+01
 20
-9.36473088E+01
  0
VERTEX
  8
0
 62
4
 10
-3.01778113E+01
 20
-9.34347348E+01
  0
VERTEX
  8
0
 62
4
 10
-3.00306289E+01
 20
-9.32087533E+01
  0
VERTEX
  8
0
 62
4
 10
-2.99041422E+01
 20
-9.29710843E+01
  0
VERTEX
  8
0
 62
4
 10
-2.97993139E+01
 20
-9.27235366E+01
  0
VERTEX
  8
0
 62
4
 10
-2.97169416E+01
 20
-9.24679941E+01
  0
VERTEX
  8
0
 62
4
 10
-2.96576524E+01
 20
-9.22064017E+01
  0
VERTEX
  8
0
 62
4
 10
-2.96218973E+01
 20
-9.19407503E+01
  0
VERTEX
  8
0
 62
4
 10
-2.96099487E+01
 20
-9.16730616E+01
  0
SEQEND
  8
0
  0
POLYLINE
  8
0
 62
4
 66
1
  0
VERTEX
  8
0
 62
4
 10
-2.92499487E+01
 20
-9.18809733E+01
  0
VERTEX
  8
0
 62
4
 10
-2.92632673E+01
 20
-9.15825942E+01
  0
VERTEX
  8
0
 62
4
 10
-2.93031216E+01
 20
-9.12864859E+01
  0
VERTEX
  8
0
 62
4
 10
-2.93692083E+01
 20
-9.09949020E+01
  0
VERTEX
  8
0
 62
4
 10
-2.94610245E+01
 20
-9.07100617E+01
  0
VERTEX
  8
0
 62
4
 10
-2.95778714E+01
 20
-9.04341327E+01
  0
VERTEX
  8
0
 62
4
 10
-2.97188598E+01
 20
-9.01692150E+01
  0
VERTEX
  8
0
 62
4
 10
-2.98829165E+01
 20
-8.99173248E+01
  0
VERTEX
  8
0
 62
4
 10
-3.00687931E+01
 20
-8.96803792E+01
  0
VERTEX
  8
0
 62
4
 10
-3.02750750E+01
 20
-8.94601815E+01
  0
VERTEX
  8
0
 62
4
 10
-3.05001921E+01
 20
-8.92584074E+01
  0
VERTEX
  8
0
 62
4
 10
-3.07424312E+01
 20
-8.90765927E+01
  0
VERTEX
  8
0
 62
4
 10
-3.09999487E+01
 20
-8.89161210E+01
  0
VERTEX
  8
0
 62
4
 10
-3.12707848E+01
 20
-8.87782135E+01
  0
VERTEX
  8
0
 62
4
 10
-3.15528782E+01
 20
-8.86639200E+01
  0
VERTEX
  8
0
 62
4
 10
-3.18440820E+01
 20
-8.85741102E+01
  0
VERTEX
  8
0
 62
4
 10
-3.21421801E+01
 20
-8.85094676E+01
  0
VERTEX
  8
0
 62
4
 10
-3.24449036E+01
 20
-8.84704842E+01
  0
VERTEX
  8
0
 62
4
 10
-3.27499487E+01
 20
-8.84574567E+01
  0
VERTEX
  8
0
 62
4
 10
-3.30549938E+01
 20
-8.84704842E+01
  0
VERTEX
  8
0
 62
4
 10
-3.33577173E+01
 20
-8.85094676E+01
  0
VERTEX
  8
0
 62
4
 10
-3.36558154E+01
 20
-8.85741102E+01
  0
VERTEX
  8
0
 62
4
 10
-3.39470192E+01
 20
-8.86639200E+01
  0
VERTEX
  8
0
 62
4
 10
-3.42291126E+01
 20
-8.87782135E+01
  0
VERTEX
  8
0
 62
4
 10
-3.44999487E+01
 20
-8.89161210E+01
  0
VERTEX
  8
0
 62
4
 10
-3.47574662E+01
 20
-8.90765927E+01
  0
VERTEX
  8
0
 62
4
 10
-3.49997053E+01
 20
-8.92584074E+01
  0
VERTEX
  8
0
 62
4
 10
-3.52248224E+01
 20
-8.94601815E+01
  0
VERTEX
  8
0
 62
4
 10
-3.54311043E+01
 20
-8.96803793E+01
  0
VERTEX
  8
0
 62
4
 10
-3.56169809E+01
 20
-8.99173249E+01
  0
VERTEX
  8
0
 62
4
 10
-3.57810376E+01
 20
-9.01692150E+01
  0
VERTEX
  8
0
 62
4
 10
-3.59220260E+01
 20
-9.04341327E+01
  0
VERTEX
  8
0
 62
4
 10
-3.60388729E+01
 20
-9.07100617E+01
  0
VERTEX
  8
0
 62
4
 10
-3.61306891E+01
 20
-9.09949020E+01
  0
VERTEX
  8
0
 62
4
 10
-3.61967758E+01
 20
-9.12864859E+01
  0
VERTEX
  8
0
 62
4
 10
-3.62366301E+01
 20
-9.15825942E+01
  0
VERTEX
  8
0
 62
4
 10
-3.62499487E+01
 20
-9.18809733E+01
  0
VERTEX
  8
0
 62
4
 10
-3.62366301E+01
 20
-9.21793524E+01
  0
VERTEX
  8
0
 62
4
 10
-3.61967758E+01
 20
-9.24754607E+01
  0
VERTEX
  8
0
 62
4
 10
-3.61306891E+01
 20
-9.27670446E+01
  0
VERTEX
  8
0
 62
4
 10
-3.60388729E+01
 20
-9.30518849E+01
  0
VERTEX
  8
0
 62
4
 10
-3.59220260E+01
 20
-9.33278139E+01
  0
VERTEX
  8
0
 62
4
 10
-3.57810376E+01
 20
-9.35927316E+01
  0
VERTEX
  8
0
 62
4
 10
-3.56169809E+01
 20
-9.38446218E+01
  0
VERTEX
  8
0
 62
4
 10
-3.54311042E+01
 20
-9.40815674E+01
  0
VERTEX
  8
0
 62
4
 10
-3.52248224E+01
 20
-9.43017651E+01
  0
VERTEX
  8
0
 62
4
 10
-3.49997053E+01
 20
-9.45035392E+01
  0
VERTEX
  8
0
 62
4
 10
-3.47574662E+01
 20
-9.46853539E+01
  0
VERTEX
  8
0
 62
4
 10
-3.44999487E+01
 20
-9.48458256E+01
  0
VERTEX
  8
0
 62
4
 10
-3.42291126E+01
 20
-9.49837331E+01
  0
VERTEX
  8
0
 62
4
 10
-3.39470192E+01
 20
-9.50980266E+01
  0
VERTEX
  8
0
 62
4
 10
-3.36558154E+01
 20
-9.51878364E+01
  0
VERTEX
  8
0
 62
4
 10
-3.33577173E+01
 20
-9.52524790E+01
  0
VERTEX
  8
0
 62
4
 10
-3.30549938E+01
 20
-9.52914624E+01
  0
VERTEX
  8
0
 62
4
 10
-3.27499487E+01
 20
-9.53044899E+01
  0
VERTEX
  8
0
 62
4
 10
-3.24449036E+01
 20
-9.52914624E+01
  0
VERTEX
  8
0
 62
4
 10
-3.21421801E+01
 20
-9.52524790E+01
  0
VERTEX
  8
0
 62
4
 10
-3.18440820E+01
 20
-9.51878364E+01
  0
VERTEX
  8
0
 62
4
 10
-3.15528782E+01
 20
-9.50980266E+01
  0
VERTEX
  8
0
 62
4
 10
-3.12707848E+01
 20
-9.49837331E+01
  0
VERTEX
  8
0
 62
4
 10
-3.09999487E+01
 20
-9.48458256E+01
  0
VERTEX
  8
0
 62
4
 10
-3.07424312E+01
 20
-9.46853539E+01
  0
VERTEX
  8
0
 62
4
 10
-3.05001921E+01
 20
-9.45035392E+01
  0
VERTEX
  8
0
 62
4
 10
-3.02750750E+01
 20
-9.43017651E+01
  0
VERTEX
  8
0
 62
4
 10
-3.00687931E+01
 20
-9.40815673E+01
  0
VERTEX
  8
0
 62
4
 10
-2.98829165E+01
 20
-9.38446217E+01
  0
VERTEX
  8
0
 62
4
 10
-2.97188598E+01
 20
-9.35927316E+01
  0
VERTEX
  8
0
 62
4
 10
-2.95778714E+01
 20
-9.33278139E+01
  0
VERTEX
  8
0
 62
4
 10
-2.94610245E+01
 20
-9.30518849E+01
  0
VERTEX
  8
0
 62
4
 10
-2.93692083E+01
 20
-9.27670446E+01
  0
VERTEX
  8
0
 62
4
 10
-2.93031216E+01
 20
-9.24754607E+01
  0
VERTEX
  8
0
 62
4
 10
-2.92632673E+01
 20
-9.21793524E+01
  0
VERTEX
  8
0
 62
4
 10
-2.92499487E+01
 20
-9.18809733E+01
  0
SEQEND
  8
0
  0
ARC
  8
0
 62
4
 10
-2.32494489E+01
 20
-1.05237920E+02
 40
1.49950029E+00
 50
2.69980903E+02
 51
1.90971113E-02
  0
LINE
  8
0
  6
CENTER
 62
6
 10
-3.27499487E+01
 20
-8.67237131E+01
 11
-3.27499487E+01
 21
-9.66224102E+01
  0
LINE
  8
0
  6
CENTER
 62
6
 10
-3.76992973E+01
 20
-9.16730616E+01
 11
-2.78006002E+01
 21
-9.16730616E+01
  0
LINE
  8
0
 62
4
 10
-2.17499487E+01
 20
-8.21088579E+01
 11
-2.17499487E+01
 21
-1.05237420E+02
  0
ARC
  8
0
 62
4
 10
-2.32504525E+01
 20
-8.21088579E+01
 40
1.50050386E+00
 50
1.92364101E-02
 51
8.99807637E+01
  0
ARC
  8
0
 62
4
 10
-2.32494489E+01
 20
-1.02119245E+02
 40
1.49950029E+00
 50
2.69980903E+02
 51
1.90971113E-02
  0
LINE
  8
0
 62
4
 10
2.68938782E+02
 20
-2.02740352E+02
 11
2.71938782E+02
 21
-1.99451497E+02
  0
LINE
  8
0
 62
4
 10
2.35938782E+02
 20
-2.02740352E+02
 11
2.32938782E+02
 21
-1.99451497E+02
  0
LINE
  8
0
 62
4
 10
2.52438782E+02
 20
-2.02740352E+02
 11
2.35938782E+02
 21
-2.02740352E+02
  0
LINE
  8
0
 62
4
 10
2.68938782E+02
 20
-2.02740352E+02
 11
2.67438782E+02
 21
-2.02740352E+02
  0
POLYLINE
  8
0
 62
6
 66
1
  0
VERTEX
  8
0
 62
6
 10
2.65438782E+02
 20
-2.10935988E+02
  0
VERTEX
  8
0
 62
6
 10
2.65433074E+02
 20
-2.10808111E+02
  0
VERTEX
  8
0
 62
6
 10
2.65415994E+02
 20
-2.10681208E+02
  0
VERTEX
  8
0
 62
6
 10
2.65387671E+02
 20
-2.10556243E+02
  0
VERTEX
  8
0
 62
6
 10
2.65348321E+02
 20
-2.10434169E+02
  0
VERTEX
  8
0
 62
6
 10
2.65298244E+02
 20
-2.10315913E+02
  0
VERTEX
  8
0
 62
6
 10
2.65237820E+02
 20
-2.10202377E+02
  0
VERTEX
  8
0
 62
6
 10
2.65167510E+02
 20
-2.10094424E+02
  0
VERTEX
  8
0
 62
6
 10
2.65087849E+02
 20
-2.09992876E+02
  0
VERTEX
  8
0
 62
6
 10
2.64999442E+02
 20
-2.09898506E+02
  0
VERTEX
  8
0
 62
6
 10
2.64902963E+02
 20
-2.09812031E+02
  0
VERTEX
  8
0
 62
6
 10
2.64799147E+02
 20
-2.09734111E+02
  0
VERTEX
  8
0
 62
6
 10
2.64688782E+02
 20
-2.09665337E+02
  0
VERTEX
  8
0
 62
6
 10
2.64572709E+02
 20
-2.09606234E+02
  0
VERTEX
  8
0
 62
6
 10
2.64451812E+02
 20
-2.09557251E+02
  0
VERTEX
  8
0
 62
6
 10
2.64327011E+02
 20
-2.09518761E+02
  0
VERTEX
  8
0
 62
6
 10
2.64199254E+02
 20
-2.09491057E+02
  0
VERTEX
  8
0
 62
6
 10
2.64069516E+02
 20
-2.09474350E+02
  0
VERTEX
  8
0
 62
6
 10
2.63938782E+02
 20
-2.09468767E+02
  0
VERTEX
  8
0
 62
6
 10
2.63808048E+02
 20
-2.09474350E+02
  0
VERTEX
  8
0
 62
6
 10
2.63678310E+02
 20
-2.09491057E+02
  0
VERTEX
  8
0
 62
6
 10
2.63550553E+02
 20
-2.09518761E+02
  0
VERTEX
  8
0
 62
6
 10
2.63425752E+02
 20
-2.09557251E+02
  0
VERTEX
  8
0
 62
6
 10
2.63304855E+02
 20
-2.09606234E+02
  0
VERTEX
  8
0
 62
6
 10
2.63188782E+02
 20
-2.09665337E+02
  0
VERTEX
  8
0
 62
6
 10
2.63078417E+02
 20
-2.09734111E+02
  0
VERTEX
  8
0
 62
6
 10
2.62974601E+02
 20
-2.09812031E+02
  0
VERTEX
  8
0
 62
6
 10
2.62878122E+02
 20
-2.09898506E+02
  0
VERTEX
  8
0
 62
6
 10
2.62789715E+02
 20
-2.09992876E+02
  0
VERTEX
  8
0
 62
6
 10
2.62710054E+02
 20
-2.10094424E+02
  0
VERTEX
  8
0
 62
6
 10
2.62639744E+02
 20
-2.10202377E+02
  0
VERTEX
  8
0
 62
6
 10
2.62579320E+02
 20
-2.10315913E+02
  0
VERTEX
  8
0
 62
6
 10
2.62529243E+02
 20
-2.10434169E+02
  0
VERTEX
  8
0
 62
6
 10
2.62489893E+02
 20
-2.10556243E+02
  0
VERTEX
  8
0
 62
6
 10
2.62461570E+02
 20
-2.10681208E+02
  0
VERTEX
  8
0
 62
6
 10
2.62444490E+02
 20
-2.10808111E+02
  0
VERTEX
  8
0
 62
6
 10
2.62438782E+02
 20
-2.10935988E+02
  0
VERTEX
  8
0
 62
6
 10
2.62444490E+02
 20
-2.11063865E+02
  0
VERTEX
  8
0
 62
6
 10
2.62461570E+02
 20
-2.11190768E+02
  0
VERTEX
  8
0
 62
6
 10
2.62489893E+02
 20
-2.11315733E+02
  0
VERTEX
  8
0
 62
6
 10
2.62529243E+02
 20
-2.11437807E+02
  0
VERTEX
  8
0
 62
6
 10
2.62579320E+02
 20
-2.11556063E+02
  0
VERTEX
  8
0
 62
6
 10
2.62639744E+02
 20
-2.11669599E+02
  0
VERTEX
  8
0
 62
6
 10
2.62710054E+02
 20
-2.11777552E+02
  0
VERTEX
  8
0
 62
6
 10
2.62789715E+02
 20
-2.11879100E+02
  0
VERTEX
  8
0
 62
6
 10
2.62878122E+02
 20
-2.11973470E+02
  0
VERTEX
  8
0
 62
6
 10
2.62974601E+02
 20
-2.12059945E+02
  0
VERTEX
  8
0
 62
6
 10
2.63078417E+02
 20
-2.12137865E+02
  0
VERTEX
  8
0
 62
6
 10
2.63188782E+02
 20
-2.12206639E+02
  0
VERTEX
  8
0
 62
6
 10
2.63304855E+02
 20
-2.12265742E+02
  0
VERTEX
  8
0
 62
6
 10
2.63425752E+02
 20
-2.12314725E+02
  0
VERTEX
  8
0
 62
6
 10
2.63550553E+02
 20
-2.12353215E+02
  0
VERTEX
  8
0
 62
6
 10
2.63678310E+02
 20
-2.12380919E+02
  0
VERTEX
  8
0
 62
6
 10
2.63808048E+02
 20
-2.12397626E+02
  0
VERTEX
  8
0
 62
6
 10
2.63938782E+02
 20
-2.12403209E+02
  0
VERTEX
  8
0
 62
6
 10
2.64069516E+02
 20
-2.12397626E+02
  0
VERTEX
  8
0
 62
6
 10
2.64199254E+02
 20
-2.12380919E+02
  0
VERTEX
  8
0
 62
6
 10
2.64327011E+02
 20
-2.12353215E+02
  0
VERTEX
  8
0
 62
6
 10
2.64451812E+02
 20
-2.12314725E+02
  0
VERTEX
  8
0
 62
6
 10
2.64572709E+02
 20
-2.12265742E+02
  0
VERTEX
  8
0
 62
6
 10
2.64688782E+02
 20
-2.12206639E+02
  0
VERTEX
  8
0
 62
6
 10
2.64799147E+02
 20
-2.12137865E+02
  0
VERTEX
  8
0
 62
6
 10
2.64902963E+02
 20
-2.12059945E+02
  0
VERTEX
  8
0
 62
6
 10
2.64999442E+02
 20
-2.11973470E+02
  0
VERTEX
  8
0
 62
6
 10
2.65087849E+02
 20
-2.11879100E+02
  0
VERTEX
  8
0
 62
6
 10
2.65167510E+02
 20
-2.11777552E+02
  0
VERTEX
  8
0
 62
6
 10
2.65237820E+02
 20
-2.11669599E+02
  0
VERTEX
  8
0
 62
6
 10
2.65298244E+02
 20
-2.11556063E+02
  0
VERTEX
  8
0
 62
6
 10
2.65348321E+02
 20
-2.11437807E+02
  0
VERTEX
  8
0
 62
6
 10
2.65387671E+02
 20
-2.11315733E+02
  0
VERTEX
  8
0
 62
6
 10
2.65415994E+02
 20
-2.11190768E+02
  0
VERTEX
  8
0
 62
6
 10
2.65433074E+02
 20
-2.11063865E+02
  0
VERTEX
  8
0
 62
6
 10
2.65438782E+02
 20
-2.10935988E+02
  0
SEQEND
  8
0
  0
POLYLINE
  8
0
 62
4
 66
1
  0
VERTEX
  8
0
 62
4
 10
2.65673782E+02
 20
-2.10940878E+02
  0
VERTEX
  8
0
 62
4
 10
2.65667180E+02
 20
-2.10792967E+02
  0
VERTEX
  8
0
 62
4
 10
2.65647423E+02
 20
-2.10646182E+02
  0
VERTEX
  8
0
 62
4
 10
2.65614663E+02
 20
-2.10501640E+02
  0
VERTEX
  8
0
 62
4
 10
2.65569149E+02
 20
-2.10360440E+02
  0
VERTEX
  8
0
 62
4
 10
2.65511226E+02
 20
-2.10223658E+02
  0
VERTEX
  8
0
 62
4
 10
2.65441336E+02
 20
-2.10092335E+02
  0
VERTEX
  8
0
 62
4
 10
2.65360011E+02
 20
-2.09967469E+02
  0
VERTEX
  8
0
 62
4
 10
2.65267869E+02
 20
-2.09850012E+02
  0
VERTEX
  8
0
 62
4
 10
2.65165612E+02
 20
-2.09740857E+02
  0
VERTEX
  8
0
 62
4
 10
2.65054019E+02
 20
-2.09640835E+02
  0
VERTEX
  8
0
 62
4
 10
2.64933937E+02
 20
-2.09550706E+02
  0
VERTEX
  8
0
 62
4
 10
2.64806282E+02
 20
-2.09471158E+02
  0
VERTEX
  8
0
 62
4
 10
2.64672025E+02
 20
-2.09402796E+02
  0
VERTEX
  8
0
 62
4
 10
2.64532187E+02
 20
-2.09346139E+02
  0
VERTEX
  8
0
 62
4
 10
2.64387833E+02
 20
-2.09301619E+02
  0
VERTEX
  8
0
 62
4
 10
2.64240062E+02
 20
-2.09269574E+02
  0
VERTEX
  8
0
 62
4
 10
2.64089997E+02
 20
-2.09250250E+02
  0
VERTEX
  8
0
 62
4
 10
2.63938782E+02
 20
-2.09243792E+02
  0
VERTEX
  8
0
 62
4
 10
2.63787567E+02
 20
-2.09250250E+02
  0
VERTEX
  8
0
 62
4
 10
2.63637502E+02
 20
-2.09269574E+02
  0
VERTEX
  8
0
 62
4
 10
2.63489731E+02
 20
-2.09301619E+02
  0
VERTEX
  8
0
 62
4
 10
2.63345377E+02
 20
-2.09346139E+02
  0
VERTEX
  8
0
 62
4
 10
2.63205539E+02
 20
-2.09402796E+02
  0
VERTEX
  8
0
 62
4
 10
2.63071282E+02
 20
-2.09471158E+02
  0
VERTEX
  8
0
 62
4
 10
2.62943627E+02
 20
-2.09550706E+02
  0
VERTEX
  8
0
 62
4
 10
2.62823545E+02
 20
-2.09640835E+02
  0
VERTEX
  8
0
 62
4
 10
2.62711952E+02
 20
-2.09740857E+02
  0
VERTEX
  8
0
 62
4
 10
2.62609695E+02
 20
-2.09850012E+02
  0
VERTEX
  8
0
 62
4
 10
2.62517553E+02
 20
-2.09967469E+02
  0
VERTEX
  8
0
 62
4
 10
2.62436228E+02
 20
-2.10092335E+02
  0
VERTEX
  8
0
 62
4
 10
2.62366338E+02
 20
-2.10223658E+02
  0
VERTEX
  8
0
 62
4
 10
2.62308415E+02
 20
-2.10360440E+02
  0
VERTEX
  8
0
 62
4
 10
2.62262901E+02
 20
-2.10501640E+02
  0
VERTEX
  8
0
 62
4
 10
2.62230141E+02
 20
-2.10646182E+02
  0
VERTEX
  8
0
 62
4
 10
2.62210384E+02
 20
-2.10792967E+02
  0
VERTEX
  8
0
 62
4
 10
2.62203782E+02
 20
-2.10940878E+02
  0
VERTEX
  8
0
 62
4
 10
2.62210384E+02
 20
-2.11088789E+02
  0
VERTEX
  8
0
 62
4
 10
2.62230141E+02
 20
-2.11235574E+02
  0
VERTEX
  8
0
 62
4
 10
2.62262901E+02
 20
-2.11380116E+02
  0
VERTEX
  8
0
 62
4
 10
2.62308415E+02
 20
-2.11521316E+02
  0
VERTEX
  8
0
 62
4
 10
2.62366338E+02
 20
-2.11658098E+02
  0
VERTEX
  8
0
 62
4
 10
2.62436228E+02
 20
-2.11789421E+02
  0
VERTEX
  8
0
 62
4
 10
2.62517553E+02
 20
-2.11914287E+02
  0
VERTEX
  8
0
 62
4
 10
2.62609695E+02
 20
-2.12031744E+02
  0
VERTEX
  8
0
 62
4
 10
2.62711952E+02
 20
-2.12140899E+02
  0
VERTEX
  8
0
 62
4
 10
2.62823545E+02
 20
-2.12240921E+02
  0
VERTEX
  8
0
 62
4
 10
2.62943627E+02
 20
-2.12331050E+02
  0
VERTEX
  8
0
 62
4
 10
2.63071282E+02
 20
-2.12410598E+02
  0
VERTEX
  8
0
 62
4
 10
2.63205539E+02
 20
-2.12478960E+02
  0
VERTEX
  8
0
 62
4
 10
2.63345377E+02
 20
-2.12535617E+02
  0
VERTEX
  8
0
 62
4
 10
2.63489731E+02
 20
-2.12580137E+02
  0
VERTEX
  8
0
 62
4
 10
2.63637502E+02
 20
-2.12612182E+02
  0
VERTEX
  8
0
 62
4
 10
2.63787567E+02
 20
-2.12631506E+02
  0
VERTEX
  8
0
 62
4
 10
2.63938782E+02
 20
-2.12637964E+02
  0
VERTEX
  8
0
 62
4
 10
2.64089997E+02
 20
-2.12631506E+02
  0
VERTEX
  8
0
 62
4
 10
2.64240062E+02
 20
-2.12612182E+02
  0
VERTEX
  8
0
 62
4
 10
2.64387833E+02
 20
-2.12580137E+02
  0
VERTEX
  8
0
 62
4
 10
2.64532187E+02
 20
-2.12535617E+02
  0
VERTEX
  8
0
 62
4
 10
2.64672025E+02
 20
-2.12478960E+02
  0
VERTEX
  8
0
 62
4
 10
2.64806282E+02
 20
-2.12410598E+02
  0
VERTEX
  8
0
 62
4
 10
2.64933937E+02
 20
-2.12331050E+02
  0
VERTEX
  8
0
 62
4
 10
2.65054019E+02
 20
-2.12240921E+02
  0
VERTEX
  8
0
 62
4
 10
2.65165612E+02
 20
-2.12140899E+02
  0
VERTEX
  8
0
 62
4
 10
2.65267869E+02
 20
-2.12031744E+02
  0
VERTEX
  8
0
 62
4
 10
2.65360011E+02
 20
-2.11914287E+02
  0
VERTEX
  8
0
 62
4
 10
2.65441336E+02
 20
-2.11789421E+02
  0
VERTEX
  8
0
 62
4
 10
2.65511226E+02
 20
-2.11658098E+02
  0
VERTEX
  8
0
 62
4
 10
2.65569149E+02
 20
-2.11521316E+02
  0
VERTEX
  8
0
 62
4
 10
2.65614663E+02
 20
-2.11380116E+02
  0
VERTEX
  8
0
 62
4
 10
2.65647423E+02
 20
-2.11235574E+02
  0
VERTEX
  8
0
 62
4
 10
2.65667180E+02
 20
-2.11088789E+02
  0
VERTEX
  8
0
 62
4
 10
2.65673782E+02
 20
-2.10940878E+02
  0
SEQEND
  8
0
  0
POLYLINE
  8
0
 62
4
 66
1
  0
VERTEX
  8
0
 62
4
 10
2.63938782E+02
 20
-2.12684371E+02
  0
VERTEX
  8
0
 62
4
 10
2.64113093E+02
 20
-2.12676488E+02
  0
VERTEX
  8
0
 62
4
 10
2.64286078E+02
 20
-2.12652897E+02
  0
VERTEX
  8
0
 62
4
 10
2.64456420E+02
 20
-2.12613779E+02
  0
VERTEX
  8
0
 62
4
 10
2.64622822E+02
 20
-2.12559431E+02
  0
VERTEX
  8
0
 62
4
 10
2.64784019E+02
 20
-2.12490267E+02
  0
VERTEX
  8
0
 62
4
 10
2.64938782E+02
 20
-2.12406814E+02
  0
VERTEX
  8
0
 62
4
 10
2.65085935E+02
 20
-2.12309705E+02
  0
VERTEX
  8
0
 62
4
 10
2.65224357E+02
 20
-2.12199681E+02
  0
VERTEX
  8
0
 62
4
 10
2.65352996E+02
 20
-2.12077579E+02
  0
VERTEX
  8
0
 62
4
 10
2.65470871E+02
 20
-2.11944328E+02
  0
VERTEX
  8
0
 62
4
 10
2.65577086E+02
 20
-2.11800942E+02
  0
VERTEX
  8
0
 62
4
 10
2.65670833E+02
 20
-2.11648512E+02
  0
VERTEX
  8
0
 62
4
 10
2.65751398E+02
 20
-2.11488199E+02
  0
VERTEX
  8
0
 62
4
 10
2.65818167E+02
 20
-2.11321222E+02
  0
VERTEX
  8
0
 62
4
 10
2.65870634E+02
 20
-2.11148853E+02
  0
VERTEX
  8
0
 62
4
 10
2.65908398E+02
 20
-2.10972403E+02
  0
VERTEX
  8
0
 62
4
 10
2.65931171E+02
 20
-2.10793215E+02
  0
VERTEX
  8
0
 62
4
 10
2.65938782E+02
 20
-2.10612653E+02
  0
VERTEX
  8
0
 62
4
 10
2.65931171E+02
 20
-2.10432091E+02
  0
VERTEX
  8
0
 62
4
 10
2.65908398E+02
 20
-2.10252903E+02
  0
VERTEX
  8
0
 62
4
 10
2.65870634E+02
 20
-2.10076453E+02
  0
VERTEX
  8
0
 62
4
 10
2.65818167E+02
 20
-2.09904084E+02
  0
VERTEX
  8
0
 62
4
 10
2.65751398E+02
 20
-2.09737107E+02
  0
VERTEX
  8
0
 62
4
 10
2.65670833E+02
 20
-2.09576794E+02
  0
VERTEX
  8
0
 62
4
 10
2.65577086E+02
 20
-2.09424364E+02
  0
VERTEX
  8
0
 62
4
 10
2.65470871E+02
 20
-2.09280978E+02
  0
VERTEX
  8
0
 62
4
 10
2.65352996E+02
 20
-2.09147727E+02
  0
VERTEX
  8
0
 62
4
 10
2.65224357E+02
 20
-2.09025625E+02
  0
VERTEX
  8
0
 62
4
 10
2.65085935E+02
 20
-2.08915601E+02
  0
VERTEX
  8
0
 62
4
 10
2.64938782E+02
 20
-2.08818492E+02
  0
VERTEX
  8
0
 62
4
 10
2.64784019E+02
 20
-2.08735039E+02
  0
VERTEX
  8
0
 62
4
 10
2.64622822E+02
 20
-2.08665875E+02
  0
VERTEX
  8
0
 62
4
 10
2.64456420E+02
 20
-2.08611527E+02
  0
VERTEX
  8
0
 62
4
 10
2.64286078E+02
 20
-2.08572409E+02
  0
VERTEX
  8
0
 62
4
 10
2.64113093E+02
 20
-2.08548818E+02
  0
VERTEX
  8
0
 62
4
 10
2.63938782E+02
 20
-2.08540935E+02
  0
VERTEX
  8
0
 62
4
 10
2.63764471E+02
 20
-2.08548818E+02
  0
VERTEX
  8
0
 62
4
 10
2.63591486E+02
 20
-2.08572409E+02
  0
VERTEX
  8
0
 62
4
 10
2.63421144E+02
 20
-2.08611527E+02
  0
VERTEX
  8
0
 62
4
 10
2.63254742E+02
 20
-2.08665875E+02
  0
VERTEX
  8
0
 62
4
 10
2.63093545E+02
 20
-2.08735039E+02
  0
VERTEX
  8
0
 62
4
 10
2.62938782E+02
 20
-2.08818492E+02
  0
VERTEX
  8
0
 62
4
 10
2.62791629E+02
 20
-2.08915601E+02
  0
VERTEX
  8
0
 62
4
 10
2.62653207E+02
 20
-2.09025625E+02
  0
VERTEX
  8
0
 62
4
 10
2.62524568E+02
 20
-2.09147727E+02
  0
VERTEX
  8
0
 62
4
 10
2.62406693E+02
 20
-2.09280978E+02
  0
VERTEX
  8
0
 62
4
 10
2.62300478E+02
 20
-2.09424364E+02
  0
VERTEX
  8
0
 62
4
 10
2.62206731E+02
 20
-2.09576794E+02
  0
VERTEX
  8
0
 62
4
 10
2.62126166E+02
 20
-2.09737107E+02
  0
VERTEX
  8
0
 62
4
 10
2.62059397E+02
 20
-2.09904084E+02
  0
VERTEX
  8
0
 62
4
 10
2.62006930E+02
 20
-2.10076453E+02
  0
VERTEX
  8
0
 62
4
 10
2.61969166E+02
 20
-2.10252903E+02
  0
VERTEX
  8
0
 62
4
 10
2.61946393E+02
 20
-2.10432091E+02
  0
VERTEX
  8
0
 62
4
 10
2.61938782E+02
 20
-2.10612653E+02
  0
VERTEX
  8
0
 62
4
 10
2.61946393E+02
 20
-2.10793215E+02
  0
VERTEX
  8
0
 62
4
 10
2.61969166E+02
 20
-2.10972403E+02
  0
VERTEX
  8
0
 62
4
 10
2.62006930E+02
 20
-2.11148853E+02
  0
VERTEX
  8
0
 62
4
 10
2.62059397E+02
 20
-2.11321222E+02
  0
VERTEX
  8
0
 62
4
 10
2.62126166E+02
 20
-2.11488199E+02
  0
VERTEX
  8
0
 62
4
 10
2.62206731E+02
 20
-2.11648512E+02
  0
VERTEX
  8
0
 62
4
 10
2.62300478E+02
 20
-2.11800942E+02
  0
VERTEX
  8
0
 62
4
 10
2.62406693E+02
 20
-2.11944328E+02
  0
VERTEX
  8
0
 62
4
 10
2.62524568E+02
 20
-2.12077579E+02
  0
VERTEX
  8
0
 62
4
 10
2.62653207E+02
 20
-2.12199681E+02
  0
VERTEX
  8
0
 62
4
 10
2.62791629E+02
 20
-2.12309705E+02
  0
VERTEX
  8
0
 62
4
 10
2.62938782E+02
 20
-2.12406814E+02
  0
VERTEX
  8
0
 62
4
 10
2.63093545E+02
 20
-2.12490267E+02
  0
VERTEX
  8
0
 62
4
 10
2.63254742E+02
 20
-2.12559431E+02
  0
VERTEX
  8
0
 62
4
 10
2.63421144E+02
 20
-2.12613779E+02
  0
VERTEX
  8
0
 62
4
 10
2.63591486E+02
 20
-2.12652897E+02
  0
VERTEX
  8
0
 62
4
 10
2.63764471E+02
 20
-2.12676488E+02
  0
VERTEX
  8
0
 62
4
 10
2.63938782E+02
 20
-2.12684371E+02
  0
SEQEND
  8
0
  0
LINE
  8
0
  6
CENTER
 62
6
 10
2.63938782E+02
 20
-2.08013720E+02
 11
2.63938782E+02
 21
-2.13858255E+02
  0
LINE
  8
0
  6
CENTER
 62
6
 10
2.53016514E+02
 20
-2.10935988E+02
 11
2.66861049E+02
 21
-2.10935988E+02
  0
POLYLINE
  8
0
 62
6
 66
1
  0
VERTEX
  8
0
 62
6
 10
2.57438782E+02
 20
-2.10935988E+02
  0
VERTEX
  8
0
 62
6
 10
2.57433074E+02
 20
-2.10808111E+02
  0
VERTEX
  8
0
 62
6
 10
2.57415994E+02
 20
-2.10681208E+02
  0
VERTEX
  8
0
 62
6
 10
2.57387671E+02
 20
-2.10556243E+02
  0
VERTEX
  8
0
 62
6
 10
2.57348321E+02
 20
-2.10434169E+02
  0
VERTEX
  8
0
 62
6
 10
2.57298244E+02
 20
-2.10315913E+02
  0
VERTEX
  8
0
 62
6
 10
2.57237820E+02
 20
-2.10202377E+02
  0
VERTEX
  8
0
 62
6
 10
2.57167510E+02
 20
-2.10094424E+02
  0
VERTEX
  8
0
 62
6
 10
2.57087849E+02
 20
-2.09992876E+02
  0
VERTEX
  8
0
 62
6
 10
2.56999442E+02
 20
-2.09898506E+02
  0
VERTEX
  8
0
 62
6
 10
2.56902963E+02
 20
-2.09812031E+02
  0
VERTEX
  8
0
 62
6
 10
2.56799147E+02
 20
-2.09734111E+02
  0
VERTEX
  8
0
 62
6
 10
2.56688782E+02
 20
-2.09665337E+02
  0
VERTEX
  8
0
 62
6
 10
2.56572709E+02
 20
-2.09606234E+02
  0
VERTEX
  8
0
 62
6
 10
2.56451812E+02
 20
-2.09557251E+02
  0
VERTEX
  8
0
 62
6
 10
2.56327011E+02
 20
-2.09518761E+02
  0
VERTEX
  8
0
 62
6
 10
2.56199254E+02
 20
-2.09491057E+02
  0
VERTEX
  8
0
 62
6
 10
2.56069516E+02
 20
-2.09474350E+02
  0
VERTEX
  8
0
 62
6
 10
2.55938782E+02
 20
-2.09468767E+02
  0
VERTEX
  8
0
 62
6
 10
2.55808048E+02
 20
-2.09474350E+02
  0
VERTEX
  8
0
 62
6
 10
2.55678310E+02
 20
-2.09491057E+02
  0
VERTEX
  8
0
 62
6
 10
2.55550553E+02
 20
-2.09518761E+02
  0
VERTEX
  8
0
 62
6
 10
2.55425752E+02
 20
-2.09557251E+02
  0
VERTEX
  8
0
 62
6
 10
2.55304855E+02
 20
-2.09606234E+02
  0
VERTEX
  8
0
 62
6
 10
2.55188782E+02
 20
-2.09665337E+02
  0
VERTEX
  8
0
 62
6
 10
2.55078417E+02
 20
-2.09734111E+02
  0
VERTEX
  8
0
 62
6
 10
2.54974601E+02
 20
-2.09812031E+02
  0
VERTEX
  8
0
 62
6
 10
2.54878122E+02
 20
-2.09898506E+02
  0
VERTEX
  8
0
 62
6
 10
2.54789715E+02
 20
-2.09992876E+02
  0
VERTEX
  8
0
 62
6
 10
2.54710054E+02
 20
-2.10094424E+02
  0
VERTEX
  8
0
 62
6
 10
2.54639744E+02
 20
-2.10202377E+02
  0
VERTEX
  8
0
 62
6
 10
2.54579320E+02
 20
-2.10315913E+02
  0
VERTEX
  8
0
 62
6
 10
2.54529243E+02
 20
-2.10434169E+02
  0
VERTEX
  8
0
 62
6
 10
2.54489893E+02
 20
-2.10556243E+02
  0
VERTEX
  8
0
 62
6
 10
2.54461570E+02
 20
-2.10681208E+02
  0
VERTEX
  8
0
 62
6
 10
2.54444490E+02
 20
-2.10808111E+02
  0
VERTEX
  8
0
 62
6
 10
2.54438782E+02
 20
-2.10935988E+02
  0
VERTEX
  8
0
 62
6
 10
2.54444490E+02
 20
-2.11063865E+02
  0
VERTEX
  8
0
 62
6
 10
2.54461570E+02
 20
-2.11190768E+02
  0
VERTEX
  8
0
 62
6
 10
2.54489893E+02
 20
-2.11315733E+02
  0
VERTEX
  8
0
 62
6
 10
2.54529243E+02
 20
-2.11437807E+02
  0
VERTEX
  8
0
 62
6
 10
2.54579320E+02
 20
-2.11556063E+02
  0
VERTEX
  8
0
 62
6
 10
2.54639744E+02
 20
-2.11669599E+02
  0
VERTEX
  8
0
 62
6
 10
2.54710054E+02
 20
-2.11777552E+02
  0
VERTEX
  8
0
 62
6
 10
2.54789715E+02
 20
-2.11879100E+02
  0
VERTEX
  8
0
 62
6
 10
2.54878122E+02
 20
-2.11973470E+02
  0
VERTEX
  8
0
 62
6
 10
2.54974601E+02
 20
-2.12059945E+02
  0
VERTEX
  8
0
 62
6
 10
2.55078417E+02
 20
-2.12137865E+02
  0
VERTEX
  8
0
 62
6
 10
2.55188782E+02
 20
-2.12206639E+02
  0
VERTEX
  8
0
 62
6
 10
2.55304855E+02
 20
-2.12265742E+02
  0
VERTEX
  8
0
 62
6
 10
2.55425752E+02
 20
-2.12314725E+02
  0
VERTEX
  8
0
 62
6
 10
2.55550553E+02
 20
-2.12353215E+02
  0
VERTEX
  8
0
 62
6
 10
2.55678310E+02
 20
-2.12380919E+02
  0
VERTEX
  8
0
 62
6
 10
2.55808048E+02
 20
-2.12397626E+02
  0
VERTEX
  8
0
 62
6
 10
2.55938782E+02
 20
-2.12403209E+02
  0
VERTEX
  8
0
 62
6
 10
2.56069516E+02
 20
-2.12397626E+02
  0
VERTEX
  8
0
 62
6
 10
2.56199254E+02
 20
-2.12380919E+02
  0
VERTEX
  8
0
 62
6
 10
2.56327011E+02
 20
-2.12353215E+02
  0
VERTEX
  8
0
 62
6
 10
2.56451812E+02
 20
-2.12314725E+02
  0
VERTEX
  8
0
 62
6
 10
2.56572709E+02
 20
-2.12265742E+02
  0
VERTEX
  8
0
 62
6
 10
2.56688782E+02
 20
-2.12206639E+02
  0
VERTEX
  8
0
 62
6
 10
2.56799147E+02
 20
-2.12137865E+02
  0
VERTEX
  8
0
 62
6
 10
2.56902963E+02
 20
-2.12059945E+02
  0
VERTEX
  8
0
 62
6
 10
2.56999442E+02
 20
-2.11973470E+02
  0
VERTEX
  8
0
 62
6
 10
2.57087849E+02
 20
-2.11879100E+02
  0
VERTEX
  8
0
 62
6
 10
2.57167510E+02
 20
-2.11777552E+02
  0
VERTEX
  8
0
 62
6
 10
2.57237820E+02
 20
-2.11669599E+02
  0
VERTEX
  8
0
 62
6
 10
2.57298244E+02
 20
-2.11556063E+02
  0
VERTEX
  8
0
 62
6
 10
2.57348321E+02
 20
-2.11437807E+02
  0
VERTEX
  8
0
 62
6
 10
2.57387671E+02
 20
-2.11315733E+02
  0
VERTEX
  8
0
 62
6
 10
2.57415994E+02
 20
-2.11190768E+02
  0
VERTEX
  8
0
 62
6
 10
2.57433074E+02
 20
-2.11063865E+02
  0
VERTEX
  8
0
 62
6
 10
2.57438782E+02
 20
-2.10935988E+02
  0
SEQEND
  8
0
  0
POLYLINE
  8
0
 62
4
 66
1
  0
VERTEX
  8
0
 62
4
 10
2.57673782E+02
 20
-2.10940878E+02
  0
VERTEX
  8
0
 62
4
 10
2.57667180E+02
 20
-2.10792967E+02
  0
VERTEX
  8
0
 62
4
 10
2.57647423E+02
 20
-2.10646182E+02
  0
VERTEX
  8
0
 62
4
 10
2.57614663E+02
 20
-2.10501640E+02
  0
VERTEX
  8
0
 62
4
 10
2.57569149E+02
 20
-2.10360440E+02
  0
VERTEX
  8
0
 62
4
 10
2.57511226E+02
 20
-2.10223658E+02
  0
VERTEX
  8
0
 62
4
 10
2.57441336E+02
 20
-2.10092335E+02
  0
VERTEX
  8
0
 62
4
 10
2.57360011E+02
 20
-2.09967469E+02
  0
VERTEX
  8
0
 62
4
 10
2.57267869E+02
 20
-2.09850012E+02
  0
VERTEX
  8
0
 62
4
 10
2.57165612E+02
 20
-2.09740857E+02
  0
VERTEX
  8
0
 62
4
 10
2.57054019E+02
 20
-2.09640835E+02
  0
VERTEX
  8
0
 62
4
 10
2.56933937E+02
 20
-2.09550706E+02
  0
VERTEX
  8
0
 62
4
 10
2.56806282E+02
 20
-2.09471158E+02
  0
VERTEX
  8
0
 62
4
 10
2.56672025E+02
 20
-2.09402796E+02
  0
VERTEX
  8
0
 62
4
 10
2.56532187E+02
 20
-2.09346139E+02
  0
VERTEX
  8
0
 62
4
 10
2.56387833E+02
 20
-2.09301619E+02
  0
VERTEX
  8
0
 62
4
 10
2.56240062E+02
 20
-2.09269574E+02
  0
VERTEX
  8
0
 62
4
 10
2.56089997E+02
 20
-2.09250250E+02
  0
VERTEX
  8
0
 62
4
 10
2.55938782E+02
 20
-2.09243792E+02
  0
VERTEX
  8
0
 62
4
 10
2.55787567E+02
 20
-2.09250250E+02
  0
VERTEX
  8
0
 62
4
 10
2.55637502E+02
 20
-2.09269574E+02
  0
VERTEX
  8
0
 62
4
 10
2.55489731E+02
 20
-2.09301619E+02
  0
VERTEX
  8
0
 62
4
 10
2.55345377E+02
 20
-2.09346139E+02
  0
VERTEX
  8
0
 62
4
 10
2.55205539E+02
 20
-2.09402796E+02
  0
VERTEX
  8
0
 62
4
 10
2.55071282E+02
 20
-2.09471158E+02
  0
VERTEX
  8
0
 62
4
 10
2.54943627E+02
 20
-2.09550706E+02
  0
VERTEX
  8
0
 62
4
 10
2.54823545E+02
 20
-2.09640835E+02
  0
VERTEX
  8
0
 62
4
 10
2.54711952E+02
 20
-2.09740857E+02
  0
VERTEX
  8
0
 62
4
 10
2.54609695E+02
 20
-2.09850012E+02
  0
VERTEX
  8
0
 62
4
 10
2.54517553E+02
 20
-2.09967469E+02
  0
VERTEX
  8
0
 62
4
 10
2.54436228E+02
 20
-2.10092335E+02
  0
VERTEX
  8
0
 62
4
 10
2.54366338E+02
 20
-2.10223658E+02
  0
VERTEX
  8
0
 62
4
 10
2.54308415E+02
 20
-2.10360440E+02
  0
VERTEX
  8
0
 62
4
 10
2.54262901E+02
 20
-2.10501640E+02
  0
VERTEX
  8
0
 62
4
 10
2.54230141E+02
 20
-2.10646182E+02
  0
VERTEX
  8
0
 62
4
 10
2.54210384E+02
 20
-2.10792967E+02
  0
VERTEX
  8
0
 62
4
 10
2.54203782E+02
 20
-2.10940878E+02
  0
VERTEX
  8
0
 62
4
 10
2.54210384E+02
 20
-2.11088789E+02
  0
VERTEX
  8
0
 62
4
 10
2.54230141E+02
 20
-2.11235574E+02
  0
VERTEX
  8
0
 62
4
 10
2.54262901E+02
 20
-2.11380116E+02
  0
VERTEX
  8
0
 62
4
 10
2.54308415E+02
 20
-2.11521316E+02
  0
VERTEX
  8
0
 62
4
 10
2.54366338E+02
 20
-2.11658098E+02
  0
VERTEX
  8
0
 62
4
 10
2.54436228E+02
 20
-2.11789421E+02
  0
VERTEX
  8
0
 62
4
 10
2.54517553E+02
 20
-2.11914287E+02
  0
VERTEX
  8
0
 62
4
 10
2.54609695E+02
 20
-2.12031744E+02
  0
VERTEX
  8
0
 62
4
 10
2.54711952E+02
 20
-2.12140899E+02
  0
VERTEX
  8
0
 62
4
 10
2.54823545E+02
 20
-2.12240921E+02
  0
VERTEX
  8
0
 62
4
 10
2.54943627E+02
 20
-2.12331050E+02
  0
VERTEX
  8
0
 62
4
 10
2.55071282E+02
 20
-2.12410598E+02
  0
VERTEX
  8
0
 62
4
 10
2.55205539E+02
 20
-2.12478960E+02
  0
VERTEX
  8
0
 62
4
 10
2.55345377E+02
 20
-2.12535617E+02
  0
VERTEX
  8
0
 62
4
 10
2.55489731E+02
 20
-2.12580137E+02
  0
VERTEX
  8
0
 62
4
 10
2.55637502E+02
 20
-2.12612182E+02
  0
VERTEX
  8
0
 62
4
 10
2.55787567E+02
 20
-2.12631506E+02
  0
VERTEX
  8
0
 62
4
 10
2.55938782E+02
 20
-2.12637964E+02
  0
VERTEX
  8
0
 62
4
 10
2.56089997E+02
 20
-2.12631506E+02
  0
VERTEX
  8
0
 62
4
 10
2.56240062E+02
 20
-2.12612182E+02
  0
VERTEX
  8
0
 62
4
 10
2.56387833E+02
 20
-2.12580137E+02
  0
VERTEX
  8
0
 62
4
 10
2.56532187E+02
 20
-2.12535617E+02
  0
VERTEX
  8
0
 62
4
 10
2.56672025E+02
 20
-2.12478960E+02
  0
VERTEX
  8
0
 62
4
 10
2.56806282E+02
 20
-2.12410598E+02
  0
VERTEX
  8
0
 62
4
 10
2.56933937E+02
 20
-2.12331050E+02
  0
VERTEX
  8
0
 62
4
 10
2.57054019E+02
 20
-2.12240921E+02
  0
VERTEX
  8
0
 62
4
 10
2.57165612E+02
 20
-2.12140899E+02
  0
VERTEX
  8
0
 62
4
 10
2.57267869E+02
 20
-2.12031744E+02
  0
VERTEX
  8
0
 62
4
 10
2.57360011E+02
 20
-2.11914287E+02
  0
VERTEX
  8
0
 62
4
 10
2.57441336E+02
 20
-2.11789421E+02
  0
VERTEX
  8
0
 62
4
 10
2.57511226E+02
 20
-2.11658098E+02
  0
VERTEX
  8
0
 62
4
 10
2.57569149E+02
 20
-2.11521316E+02
  0
VERTEX
  8
0
 62
4
 10
2.57614663E+02
 20
-2.11380116E+02
  0
VERTEX
  8
0
 62
4
 10
2.57647423E+02
 20
-2.11235574E+02
  0
VERTEX
  8
0
 62
4
 10
2.57667180E+02
 20
-2.11088789E+02
  0
VERTEX
  8
0
 62
4
 10
2.57673782E+02
 20
-2.10940878E+02
  0
SEQEND
  8
0
  0
POLYLINE
  8
0
 62
4
 66
1
  0
VERTEX
  8
0
 62
4
 10
2.55938782E+02
 20
-2.12684371E+02
  0
VERTEX
  8
0
 62
4
 10
2.56113093E+02
 20
-2.12676488E+02
  0
VERTEX
  8
0
 62
4
 10
2.56286078E+02
 20
-2.12652897E+02
  0
VERTEX
  8
0
 62
4
 10
2.56456420E+02
 20
-2.12613779E+02
  0
VERTEX
  8
0
 62
4
 10
2.56622822E+02
 20
-2.12559431E+02
  0
VERTEX
  8
0
 62
4
 10
2.56784019E+02
 20
-2.12490267E+02
  0
VERTEX
  8
0
 62
4
 10
2.56938782E+02
 20
-2.12406814E+02
  0
VERTEX
  8
0
 62
4
 10
2.57085935E+02
 20
-2.12309705E+02
  0
VERTEX
  8
0
 62
4
 10
2.57224357E+02
 20
-2.12199681E+02
  0
VERTEX
  8
0
 62
4
 10
2.57352996E+02
 20
-2.12077579E+02
  0
VERTEX
  8
0
 62
4
 10
2.57470871E+02
 20
-2.11944328E+02
  0
VERTEX
  8
0
 62
4
 10
2.57577086E+02
 20
-2.11800942E+02
  0
VERTEX
  8
0
 62
4
 10
2.57670833E+02
 20
-2.11648512E+02
  0
VERTEX
  8
0
 62
4
 10
2.57751398E+02
 20
-2.11488199E+02
  0
VERTEX
  8
0
 62
4
 10
2.57818167E+02
 20
-2.11321222E+02
  0
VERTEX
  8
0
 62
4
 10
2.57870634E+02
 20
-2.11148853E+02
  0
VERTEX
  8
0
 62
4
 10
2.57908398E+02
 20
-2.10972403E+02
  0
VERTEX
  8
0
 62
4
 10
2.57931171E+02
 20
-2.10793215E+02
  0
VERTEX
  8
0
 62
4
 10
2.57938782E+02
 20
-2.10612653E+02
  0
VERTEX
  8
0
 62
4
 10
2.57931171E+02
 20
-2.10432091E+02
  0
VERTEX
  8
0
 62
4
 10
2.57908398E+02
 20
-2.10252903E+02
  0
VERTEX
  8
0
 62
4
 10
2.57870634E+02
 20
-2.10076453E+02
  0
VERTEX
  8
0
 62
4
 10
2.57818167E+02
 20
-2.09904084E+02
  0
VERTEX
  8
0
 62
4
 10
2.57751398E+02
 20
-2.09737107E+02
  0
VERTEX
  8
0
 62
4
 10
2.57670833E+02
 20
-2.09576794E+02
  0
VERTEX
  8
0
 62
4
 10
2.57577086E+02
 20
-2.09424364E+02
  0
VERTEX
  8
0
 62
4
 10
2.57470871E+02
 20
-2.09280978E+02
  0
VERTEX
  8
0
 62
4
 10
2.57352996E+02
 20
-2.09147727E+02
  0
VERTEX
  8
0
 62
4
 10
2.57224357E+02
 20
-2.09025625E+02
  0
VERTEX
  8
0
 62
4
 10
2.57085935E+02
 20
-2.08915601E+02
  0
VERTEX
  8
0
 62
4
 10
2.56938782E+02
 20
-2.08818492E+02
  0
VERTEX
  8
0
 62
4
 10
2.56784019E+02
 20
-2.08735039E+02
  0
VERTEX
  8
0
 62
4
 10
2.56622822E+02
 20
-2.08665875E+02
  0
VERTEX
  8
0
 62
4
 10
2.56456420E+02
 20
-2.08611527E+02
  0
VERTEX
  8
0
 62
4
 10
2.56286078E+02
 20
-2.08572409E+02
  0
VERTEX
  8
0
 62
4
 10
2.56113093E+02
 20
-2.08548818E+02
  0
VERTEX
  8
0
 62
4
 10
2.55938782E+02
 20
-2.08540935E+02
  0
VERTEX
  8
0
 62
4
 10
2.55764471E+02
 20
-2.08548818E+02
  0
VERTEX
  8
0
 62
4
 10
2.55591486E+02
 20
-2.08572409E+02
  0
VERTEX
  8
0
 62
4
 10
2.55421144E+02
 20
-2.08611527E+02
  0
VERTEX
  8
0
 62
4
 10
2.55254742E+02
 20
-2.08665875E+02
  0
VERTEX
  8
0
 62
4
 10
2.55093545E+02
 20
-2.08735039E+02
  0
VERTEX
  8
0
 62
4
 10
2.54938782E+02
 20
-2.08818492E+02
  0
VERTEX
  8
0
 62
4
 10
2.54791629E+02
 20
-2.08915601E+02
  0
VERTEX
  8
0
 62
4
 10
2.54653207E+02
 20
-2.09025625E+02
  0
VERTEX
  8
0
 62
4
 10
2.54524568E+02
 20
-2.09147727E+02
  0
VERTEX
  8
0
 62
4
 10
2.54406693E+02
 20
-2.09280978E+02
  0
VERTEX
  8
0
 62
4
 10
2.54300478E+02
 20
-2.09424364E+02
  0
VERTEX
  8
0
 62
4
 10
2.54206731E+02
 20
-2.09576794E+02
  0
VERTEX
  8
0
 62
4
 10
2.54126166E+02
 20
-2.09737107E+02
  0
VERTEX
  8
0
 62
4
 10
2.54059397E+02
 20
-2.09904084E+02
  0
VERTEX
  8
0
 62
4
 10
2.54006930E+02
 20
-2.10076453E+02
  0
VERTEX
  8
0
 62
4
 10
2.53969166E+02
 20
-2.10252903E+02
  0
VERTEX
  8
0
 62
4
 10
2.53946393E+02
 20
-2.10432091E+02
  0
VERTEX
  8
0
 62
4
 10
2.53938782E+02
 20
-2.10612653E+02
  0
VERTEX
  8
0
 62
4
 10
2.53946393E+02
 20
-2.10793215E+02
  0
VERTEX
  8
0
 62
4
 10
2.53969166E+02
 20
-2.10972403E+02
  0
VERTEX
  8
0
 62
4
 10
2.54006930E+02
 20
-2.11148853E+02
  0
VERTEX
  8
0
 62
4
 10
2.54059397E+02
 20
-2.11321222E+02
  0
VERTEX
  8
0
 62
4
 10
2.54126166E+02
 20
-2.11488199E+02
  0
VERTEX
  8
0
 62
4
 10
2.54206731E+02
 20
-2.11648512E+02
  0
VERTEX
  8
0
 62
4
 10
2.54300478E+02
 20
-2.11800942E+02
  0
VERTEX
  8
0
 62
4
 10
2.54406693E+02
 20
-2.11944328E+02
  0
VERTEX
  8
0
 62
4
 10
2.54524568E+02
 20
-2.12077579E+02
  0
VERTEX
  8
0
 62
4
 10
2.54653207E+02
 20
-2.12199681E+02
  0
VERTEX
  8
0
 62
4
 10
2.54791629E+02
 20
-2.12309705E+02
  0
VERTEX
  8
0
 62
4
 10
2.54938782E+02
 20
-2.12406814E+02
  0
VERTEX
  8
0
 62
4
 10
2.55093545E+02
 20
-2.12490267E+02
  0
VERTEX
  8
0
 62
4
 10
2.55254742E+02
 20
-2.12559431E+02
  0
VERTEX
  8
0
 62
4
 10
2.55421144E+02
 20
-2.12613779E+02
  0
VERTEX
  8
0
 62
4
 10
2.55591486E+02
 20
-2.12652897E+02
  0
VERTEX
  8
0
 62
4
 10
2.55764471E+02
 20
-2.12676488E+02
  0
VERTEX
  8
0
 62
4
 10
2.55938782E+02
 20
-2.12684371E+02
  0
SEQEND
  8
0
  0
LINE
  8
0
 62
4
 10
2.68938782E+02
 20
-2.04407712E+02
 11
2.68938782E+02
 21
-2.02740352E+02
  0
LINE
  8
0
 62
4
 10
2.35938782E+02
 20
-2.04407712E+02
 11
2.35938782E+02
 21
-2.02740352E+02
  0
LINE
  8
0
 62
4
 10
2.86938782E+02
 20
-1.52450841E+02
 11
2.81938782E+02
 21
-1.52450841E+02
  0
LINE
  8
0
 62
4
 10
2.67438782E+02
 20
-1.55477400E+02
 11
2.52438782E+02
 21
-1.55477400E+02
  0
LINE
  8
0
 62
4
 10
2.52438782E+02
 20
-1.89169416E+02
 11
2.67438782E+02
 21
-1.89169416E+02
  0
LINE
  8
0
 62
4
 10
2.52438782E+02
 20
-2.15589872E+02
 11
2.67438782E+02
 21
-2.15589872E+02
  0
LINE
  8
0
 62
4
 10
2.67438782E+02
 20
-1.89169416E+02
 11
2.67438782E+02
 21
-2.15589872E+02
  0
LINE
  8
0
 62
4
 10
2.52438782E+02
 20
-1.89169416E+02
 11
2.52438782E+02
 21
-2.15589872E+02
  0
LINE
  8
0
  6
CENTER
 62
6
 10
2.55938782E+02
 20
-2.08013720E+02
 11
2.55938782E+02
 21
-2.13858255E+02
  0
LINE
  8
0
 62
4
 10
2.80438782E+02
 20
-1.54035832E+02
 11
2.76938782E+02
 21
-1.54035832E+02
  0
LINE
  8
0
 62
4
 10
2.70438782E+02
 20
-1.84259504E+02
 11
2.34438782E+02
 21
-1.84259504E+02
  0
LINE
  8
0
 62
4
 10
2.86938782E+02
 20
-1.57470320E+02
 11
2.81938782E+02
 21
-1.57470320E+02
  0
LINE
  8
0
 62
4
 10
2.86938782E+02
 20
-1.57474029E+02
 11
2.81938782E+02
 21
-1.57474029E+02
  0
LINE
  8
0
 62
4
 10
2.86938782E+02
 20
-1.64816209E+02
 11
2.81938782E+02
 21
-1.64816209E+02
  0
LINE
  8
0
 62
4
 10
2.67438782E+02
 20
-1.52785832E+02
 11
2.76438782E+02
 21
-1.52785832E+02
  0
LINE
  8
0
 62
4
 10
2.76938782E+02
 20
-1.53285832E+02
 11
2.76938782E+02
 21
-1.66285832E+02
  0
LINE
  8
0
 62
4
 10
2.86938782E+02
 20
-1.52450841E+02
 11
2.86938782E+02
 21
-1.67132836E+02
  0
LINE
  8
0
 62
4
 10
2.81938782E+02
 20
-1.52450841E+02
 11
2.81938782E+02
 21
-1.67132836E+02
  0
LINE
  8
0
 62
4
 10
2.81938782E+02
 20
-1.53535832E+02
 11
2.76938782E+02
 21
-1.53535832E+02
  0
LINE
  8
0
 62
4
 10
2.81938782E+02
 20
-1.66035832E+02
 11
2.76938782E+02
 21
-1.66035832E+02
  0
LINE
  8
0
 62
4
 10
2.80438782E+02
 20
-1.53535832E+02
 11
2.80438782E+02
 21
-1.66035832E+02
  0
LINE
  8
0
 62
4
 10
2.80438782E+02
 20
-1.65535832E+02
 11
2.76938782E+02
 21
-1.65535832E+02
  0
LINE
  8
0
 62
4
 10
2.76438782E+02
 20
-1.66785832E+02
 11
2.67938782E+02
 21
-1.66785832E+02
  0
LINE
  8
0
 62
4
 10
2.86938782E+02
 20
-1.67132836E+02
 11
2.81938782E+02
 21
-1.67132836E+02
  0
LINE
  8
0
 62
4
 10
2.52438782E+02
 20
-1.99451497E+02
 11
2.32938782E+02
 21
-1.99451497E+02
  0
LINE
  8
0
 62
4
 10
2.52438782E+02
 20
-1.97984276E+02
 11
2.32938782E+02
 21
-1.97984276E+02
  0
LINE
  8
0
 62
4
 10
2.67438782E+02
 20
-1.52358725E+02
 11
2.52438782E+02
 21
-1.52358725E+02
  0
LINE
  8
0
 62
4
 10
2.69438782E+02
 20
-1.80346913E+02
 11
2.50438782E+02
 21
-1.80346913E+02
  0
LINE
  8
0
 62
4
 10
2.71938782E+02
 20
-1.81754367E+02
 11
2.71938782E+02
 21
-1.99451497E+02
  0
LINE
  8
0
 62
4
 10
2.71938782E+02
 20
-1.99451497E+02
 11
2.67438782E+02
 21
-1.99451497E+02
  0
LINE
  8
0
 62
4
 10
2.71938782E+02
 20
-1.97984276E+02
 11
2.67438782E+02
 21
-1.97984276E+02
  0
LINE
  8
0
 62
4
 10
2.69438782E+02
 20
-1.80346913E+02
 11
2.69438782E+02
 21
-1.84259504E+02
  0
LINE
  8
0
 62
4
 10
2.52438782E+02
 20
-1.52358725E+02
 11
2.52438782E+02
 21
-1.80346913E+02
  0
LINE
  8
0
 62
4
 10
2.67438782E+02
 20
-1.52358725E+02
 11
2.67438782E+02
 21
-1.80346913E+02
  0
LINE
  8
0
 62
4
 10
2.50438782E+02
 20
-1.80346913E+02
 11
2.50438782E+02
 21
-1.84259504E+02
  0
LINE
  8
0
 62
4
 10
2.67438782E+02
 20
-1.78952942E+02
 11
2.52438782E+02
 21
-1.78952942E+02
  0
LINE
  8
0
 62
4
 10
2.32938782E+02
 20
-1.81754367E+02
 11
2.32938782E+02
 21
-1.99451497E+02
  0
ARC
  8
0
 62
4
 10
2.76439281E+02
 20
-1.53285332E+02
 40
4.99500622E-01
 50
3.59942689E+02
 51
9.00573103E+01
  0
ARC
  8
0
 62
4
 10
2.67938282E+02
 20
-1.67285332E+02
 40
4.99500622E-01
 50
8.99426895E+01
 51
1.80057310E+02
  0
ARC
  8
0
 62
4
 10
2.34438282E+02
 20
-1.85759004E+02
 40
1.49950029E+00
 50
8.99809029E+01
 51
1.80019097E+02
  0
ARC
  8
0
 62
4
 10
2.76438282E+02
 20
-1.66285332E+02
 40
5.00500378E-01
 50
2.70057253E+02
 51
3.59942747E+02
  0
ARC
  8
0
 62
4
 10
2.70439282E+02
 20
-1.85759004E+02
 40
1.49950029E+00
 50
3.59980903E+02
 51
9.00190969E+01
  0
LINE
  8
0
 62
4
 10
2.53438782E+02
 20
-2.05323396E+02
 11
2.66438782E+02
 21
-2.05323396E+02
  0
LINE
  8
0
 62
4
 10
2.52438782E+02
 20
-1.80254367E+02
 11
2.34438782E+02
 21
-1.80254367E+02
  0
ARC
  8
0
 62
4
 10
2.70439282E+02
 20
-1.81753868E+02
 40
1.49950029E+00
 50
3.59980903E+02
 51
9.00190969E+01
  0
ARC
  8
0
 62
4
 10
2.34438282E+02
 20
-1.81753868E+02
 40
1.49950029E+00
 50
8.99809029E+01
 51
1.80019097E+02
  0
LINE
  8
0
  6
CENTER
 62
6
 10
2.43938782E+02
 20
-1.79223230E+02
 11
2.43938782E+02
 21
-1.81306195E+02
  0
POLYLINE
  8
0
 62
4
 66
1
  0
VERTEX
  8
0
 62
4
 10
2.47078782E+02
 20
-1.81306195E+02
  0
VERTEX
  8
0
 62
4
 10
2.47066833E+02
 20
-1.81249296E+02
  0
VERTEX
  8
0
 62
4
 10
2.47031078E+02
 20
-1.81192830E+02
  0
VERTEX
  8
0
 62
4
 10
2.46971789E+02
 20
-1.81137227E+02
  0
VERTEX
  8
0
 62
4
 10
2.46889417E+02
 20
-1.81082910E+02
  0
VERTEX
  8
0
 62
4
 10
2.46784588E+02
 20
-1.81030292E+02
  0
VERTEX
  8
0
 62
4
 10
2.46658102E+02
 20
-1.80979774E+02
  0
VERTEX
  8
0
 62
4
 10
2.46510919E+02
 20
-1.80931740E+02
  0
VERTEX
  8
0
 62
4
 10
2.46344162E+02
 20
-1.80886556E+02
  0
VERTEX
  8
0
 62
4
 10
2.46159097E+02
 20
-1.80844565E+02
  0
VERTEX
  8
0
 62
4
 10
2.45957135E+02
 20
-1.80806088E+02
  0
VERTEX
  8
0
 62
4
 10
2.45739812E+02
 20
-1.80771418E+02
  0
VERTEX
  8
0
 62
4
 10
2.45508782E+02
 20
-1.80740817E+02
  0
VERTEX
  8
0
 62
4
 10
2.45265803E+02
 20
-1.80714519E+02
  0
VERTEX
  8
0
 62
4
 10
2.45012725E+02
 20
-1.80692724E+02
  0
VERTEX
  8
0
 62
4
 10
2.44751474E+02
 20
-1.80675597E+02
  0
VERTEX
  8
0
 62
4
 10
2.44484037E+02
 20
-1.80663270E+02
  0
VERTEX
  8
0
 62
4
 10
2.44212451E+02
 20
-1.80655837E+02
  0
VERTEX
  8
0
 62
4
 10
2.43938782E+02
 20
-1.80653352E+02
  0
VERTEX
  8
0
 62
4
 10
2.43665113E+02
 20
-1.80655837E+02
  0
VERTEX
  8
0
 62
4
 10
2.43393527E+02
 20
-1.80663270E+02
  0
VERTEX
  8
0
 62
4
 10
2.43126090E+02
 20
-1.80675597E+02
  0
VERTEX
  8
0
 62
4
 10
2.42864839E+02
 20
-1.80692724E+02
  0
VERTEX
  8
0
 62
4
 10
2.42611761E+02
 20
-1.80714519E+02
  0
VERTEX
  8
0
 62
4
 10
2.42368782E+02
 20
-1.80740817E+02
  0
VERTEX
  8
0
 62
4
 10
2.42137752E+02
 20
-1.80771418E+02
  0
VERTEX
  8
0
 62
4
 10
2.41920429E+02
 20
-1.80806088E+02
  0
VERTEX
  8
0
 62
4
 10
2.41718467E+02
 20
-1.80844565E+02
  0
VERTEX
  8
0
 62
4
 10
2.41533402E+02
 20
-1.80886556E+02
  0
VERTEX
  8
0
 62
4
 10
2.41366645E+02
 20
-1.80931740E+02
  0
VERTEX
  8
0
 62
4
 10
2.41219462E+02
 20
-1.80979774E+02
  0
VERTEX
  8
0
 62
4
 10
2.41092976E+02
 20
-1.81030292E+02
  0
VERTEX
  8
0
 62
4
 10
2.40988147E+02
 20
-1.81082910E+02
  0
VERTEX
  8
0
 62
4
 10
2.40905775E+02
 20
-1.81137227E+02
  0
VERTEX
  8
0
 62
4
 10
2.40846486E+02
 20
-1.81192830E+02
  0
VERTEX
  8
0
 62
4
 10
2.40810731E+02
 20
-1.81249296E+02
  0
VERTEX
  8
0
 62
4
 10
2.40798782E+02
 20
-1.81306195E+02
  0
VERTEX
  8
0
 62
4
 10
2.40810731E+02
 20
-1.81363094E+02
  0
VERTEX
  8
0
 62
4
 10
2.40846486E+02
 20
-1.81419560E+02
  0
VERTEX
  8
0
 62
4
 10
2.40905775E+02
 20
-1.81475163E+02
  0
VERTEX
  8
0
 62
4
 10
2.40988147E+02
 20
-1.81529480E+02
  0
VERTEX
  8
0
 62
4
 10
2.41092976E+02
 20
-1.81582098E+02
  0
VERTEX
  8
0
 62
4
 10
2.41219462E+02
 20
-1.81632616E+02
  0
VERTEX
  8
0
 62
4
 10
2.41366645E+02
 20
-1.81680650E+02
  0
VERTEX
  8
0
 62
4
 10
2.41533402E+02
 20
-1.81725834E+02
  0
VERTEX
  8
0
 62
4
 10
2.41718467E+02
 20
-1.81767825E+02
  0
VERTEX
  8
0
 62
4
 10
2.41920429E+02
 20
-1.81806302E+02
  0
VERTEX
  8
0
 62
4
 10
2.42137752E+02
 20
-1.81840972E+02
  0
VERTEX
  8
0
 62
4
 10
2.42368782E+02
 20
-1.81871573E+02
  0
VERTEX
  8
0
 62
4
 10
2.42611761E+02
 20
-1.81897871E+02
  0
VERTEX
  8
0
 62
4
 10
2.42864839E+02
 20
-1.81919666E+02
  0
VERTEX
  8
0
 62
4
 10
2.43126090E+02
 20
-1.81936793E+02
  0
VERTEX
  8
0
 62
4
 10
2.43393527E+02
 20
-1.81949120E+02
  0
VERTEX
  8
0
 62
4
 10
2.43665113E+02
 20
-1.81956553E+02
  0
VERTEX
  8
0
 62
4
 10
2.43938782E+02
 20
-1.81959038E+02
  0
VERTEX
  8
0
 62
4
 10
2.44212451E+02
 20
-1.81956553E+02
  0
VERTEX
  8
0
 62
4
 10
2.44484037E+02
 20
-1.81949120E+02
  0
VERTEX
  8
0
 62
4
 10
2.44751474E+02
 20
-1.81936793E+02
  0
VERTEX
  8
0
 62
4
 10
2.45012725E+02
 20
-1.81919666E+02
  0
VERTEX
  8
0
 62
4
 10
2.45265803E+02
 20
-1.81897871E+02
  0
VERTEX
  8
0
 62
4
 10
2.45508782E+02
 20
-1.81871573E+02
  0
VERTEX
  8
0
 62
4
 10
2.45739812E+02
 20
-1.81840972E+02
  0
VERTEX
  8
0
 62
4
 10
2.45957135E+02
 20
-1.81806302E+02
  0
VERTEX
  8
0
 62
4
 10
2.46159097E+02
 20
-1.81767825E+02
  0
VERTEX
  8
0
 62
4
 10
2.46344162E+02
 20
-1.81725834E+02
  0
VERTEX
  8
0
 62
4
 10
2.46510919E+02
 20
-1.81680650E+02
  0
VERTEX
  8
0
 62
4
 10
2.46658102E+02
 20
-1.81632616E+02
  0
VERTEX
  8
0
 62
4
 10
2.46784588E+02
 20
-1.81582098E+02
  0
VERTEX
  8
0
 62
4
 10
2.46889417E+02
 20
-1.81529480E+02
  0
VERTEX
  8
0
 62
4
 10
2.46971789E+02
 20
-1.81475163E+02
  0
VERTEX
  8
0
 62
4
 10
2.47031078E+02
 20
-1.81419560E+02
  0
VERTEX
  8
0
 62
4
 10
2.47066833E+02
 20
-1.81363094E+02
  0
VERTEX
  8
0
 62
4
 10
2.47078782E+02
 20
-1.81306195E+02
  0
SEQEND
  8
0
  0
POLYLINE
  8
0
 62
4
 66
1
  0
VERTEX
  8
0
 62
4
 10
2.40479531E+02
 20
-1.82173625E+02
  0
VERTEX
  8
0
 62
4
 10
2.40445882E+02
 20
-1.82238015E+02
  0
VERTEX
  8
0
 62
4
 10
2.40439905E+02
 20
-1.82302773E+02
  0
VERTEX
  8
0
 62
4
 10
2.40461646E+02
 20
-1.82367384E+02
  0
VERTEX
  8
0
 62
4
 10
2.40510934E+02
 20
-1.82431338E+02
  0
VERTEX
  8
0
 62
4
 10
2.40587378E+02
 20
-1.82494127E+02
  0
VERTEX
  8
0
 62
4
 10
2.40690372E+02
 20
-1.82555254E+02
  0
VERTEX
  8
0
 62
4
 10
2.40819101E+02
 20
-1.82614235E+02
  0
VERTEX
  8
0
 62
4
 10
2.40972545E+02
 20
-1.82670602E+02
  0
VERTEX
  8
0
 62
4
 10
2.41149488E+02
 20
-1.82723910E+02
  0
VERTEX
  8
0
 62
4
 10
2.41348528E+02
 20
-1.82773735E+02
  0
VERTEX
  8
0
 62
4
 10
2.41568088E+02
 20
-1.82819683E+02
  0
VERTEX
  8
0
 62
4
 10
2.41806430E+02
 20
-1.82861390E+02
  0
VERTEX
  8
0
 62
4
 10
2.42061664E+02
 20
-1.82898525E+02
  0
VERTEX
  8
0
 62
4
 10
2.42331770E+02
 20
-1.82930795E+02
  0
VERTEX
  8
0
 62
4
 10
2.42614606E+02
 20
-1.82957943E+02
  0
VERTEX
  8
0
 62
4
 10
2.42907933E+02
 20
-1.82979756E+02
  0
VERTEX
  8
0
 62
4
 10
2.43209427E+02
 20
-1.82996058E+02
  0
VERTEX
  8
0
 62
4
 10
2.43516698E+02
 20
-1.83006723E+02
  0
VERTEX
  8
0
 62
4
 10
2.43827314E+02
 20
-1.83011665E+02
  0
VERTEX
  8
0
 62
4
 10
2.44138812E+02
 20
-1.83010845E+02
  0
VERTEX
  8
0
 62
4
 10
2.44448726E+02
 20
-1.83004269E+02
  0
VERTEX
  8
0
 62
4
 10
2.44754600E+02
 20
-1.82991990E+02
  0
VERTEX
  8
0
 62
4
 10
2.45054011E+02
 20
-1.82974104E+02
  0
VERTEX
  8
0
 62
4
 10
2.45344586E+02
 20
-1.82950755E+02
  0
VERTEX
  8
0
 62
4
 10
2.45624025E+02
 20
-1.82922126E+02
  0
VERTEX
  8
0
 62
4
 10
2.45890113E+02
 20
-1.82888444E+02
  0
VERTEX
  8
0
 62
4
 10
2.46140742E+02
 20
-1.82849976E+02
  0
VERTEX
  8
0
 62
4
 10
2.46373927E+02
 20
-1.82807028E+02
  0
VERTEX
  8
0
 62
4
 10
2.46587820E+02
 20
-1.82759938E+02
  0
VERTEX
  8
0
 62
4
 10
2.46780727E+02
 20
-1.82709081E+02
  0
VERTEX
  8
0
 62
4
 10
2.46951119E+02
 20
-1.82654859E+02
  0
VERTEX
  8
0
 62
4
 10
2.47097647E+02
 20
-1.82597702E+02
  0
VERTEX
  8
0
 62
4
 10
2.47219150E+02
 20
-1.82538062E+02
  0
VERTEX
  8
0
 62
4
 10
2.47314666E+02
 20
-1.82476412E+02
  0
VERTEX
  8
0
 62
4
 10
2.47383436E+02
 20
-1.82413241E+02
  0
VERTEX
  8
0
 62
4
 10
2.47424918E+02
 20
-1.82349048E+02
  0
VERTEX
  8
0
 62
4
 10
2.47438782E+02
 20
-1.82284343E+02
  0
SEQEND
  8
0
  0
LINE
  8
0
 62
4
 10
2.40798782E+02
 20
-1.81306195E+02
 11
2.40438782E+02
 21
-1.82284343E+02
  0
LINE
  8
0
 62
4
 10
2.47078782E+02
 20
-1.81306195E+02
 11
2.47438782E+02
 21
-1.82284343E+02
  0
LINE
  8
0
 62
4
 10
2.70438782E+02
 20
-1.80254367E+02
 11
2.67438782E+02
 21
-1.80254367E+02
  0
CIRCLE
  8
0
 62
7
 10
1.04094391E+02
 20
-2.07057629E+02
 40
2.45850000E+00
  0
CIRCLE
  8
0
 62
7
 10
6.70943298E+01
 20
-2.07057629E+02
 40
2.45850000E+00
  0
CIRCLE
  8
0
 62
7
 10
-2.25249908E+02
 20
-2.07057629E+02
 40
2.45850000E+00
  0
CIRCLE
  8
0
 62
7
 10
-2.62249969E+02
 20
-2.07057629E+02
 40
2.45850000E+00
  0
LINE
  8
0
 62
2
 10
-1.37669105E+01
 20
-2.29839387E+02
 11
4.67612730E+00
 21
-1.97895109E+02
  0
TEXT
  8
0
 62
7
 10
5.34390622E+01
 20
3.59999990E+00
 40
6.30000019E+00
  1
(mm)
 41
1.00000000E+00
  7
MONOTXT
  0
LINE
  8
0
 62
7
 10
-4.12499487E+01
 20
-7.97076995E+01
 11
-2.14382943E+00
 21
-7.97076995E+01
  0
LINE
  8
0
 62
7
 10
-4.12499487E+01
 20
-7.35577208E+01
 11
1.40686239E+00
 21
-7.35577208E+01
  0
LINE
  8
0
 62
7
 10
-4.12499487E+01
 20
-7.44077117E+01
 11
9.16119948E-01
 21
-7.44077117E+01
  0
LINE
  8
0
 62
7
 10
-2.14387517E+00
 20
-2.09707699E+02
 11
-6.42500000E+01
 21
-2.09707699E+02
  0
LINE
  8
0
 62
7
 10
1.40681666E+00
 20
-2.03557721E+02
 11
-6.42500000E+01
 21
-2.03557721E+02
  0
LINE
  8
0
 62
7
 10
9.16074213E-01
 20
-2.04407712E+02
 11
-6.42499695E+01
 21
-2.04407712E+02
  0
ARC
  8
0
 62
2
 10
-2.43749969E+02
 20
-2.25557706E+02
 40
5.30001831E+00
 50
0.00000000E+00
 51
1.80000000E+02
  0
ARC
  8
0
 62
7
 10
-2.43749969E+02
 20
-2.25557706E+02
 40
6.00000000E+00
 50
0.00000000E+00
 51
1.80000000E+02
  0
ARC
  8
0
 62
4
 10
-1.50767520E+02
 20
-2.25557706E+02
 40
2.10175199E+01
 50
1.22042718E-07
 51
1.75879537E+01
  0
ARC
  8
0
 62
4
 10
-1.35372810E+02
 20
-2.16031426E+02
 40
5.62281003E+00
 50
3.25615753E+02
 51
3.43842476E+01
  0
ARC
  8
0
 62
4
 10
-1.16732480E+02
 20
-2.25557706E+02
 40
2.10175199E+01
 50
1.62412046E+02
 51
1.80000000E+02
  0
ARC
  8
0
 62
4
 10
-1.32127190E+02
 20
-2.16031426E+02
 40
5.62281003E+00
 50
1.45615752E+02
 51
2.14384247E+02
  0
LINE
  8
0
 62
4
 10
-1.29750000E+02
 20
-2.14557706E+02
 11
-1.30732480E+02
 21
-2.12856000E+02
  0
LINE
  8
0
 62
4
 10
-1.37750000E+02
 20
-2.14557706E+02
 11
-1.36767520E+02
 21
-2.12856000E+02
  0
LINE
  8
0
 62
4
 10
-1.29750000E+02
 20
-2.25557706E+02
 11
-1.29750000E+02
 21
-2.14557706E+02
  0
LINE
  8
0
 62
4
 10
-1.37750000E+02
 20
-2.25557706E+02
 11
-1.37750000E+02
 21
-2.14557706E+02
  0
LINE
  8
0
 62
4
 10
-1.36767520E+02
 20
-2.19206853E+02
 11
-1.30732480E+02
 21
-2.19206853E+02
  0
LINE
  8
0
 62
4
 10
-1.36767520E+02
 20
-2.12856000E+02
 11
-1.30732480E+02
 21
-2.12856000E+02
  0
ARC
  8
0
 62
4
 10
-1.21864053E+02
 20
-1.01057706E+02
 40
1.58859473E+01
 50
1.59743839E+02
 51
2.00256161E+02
  0
ARC
  8
0
 62
4
 10
-1.21864053E+02
 20
-9.00577056E+01
 40
1.58859474E+01
 50
1.59743839E+02
 51
2.00256161E+02
  0
ARC
  8
0
 62
4
 10
-1.45635950E+02
 20
-9.00577056E+01
 40
1.58859499E+01
 50
3.39743842E+02
 51
2.02561578E+01
  0
ARC
  8
0
 62
4
 10
-1.45635950E+02
 20
-1.01057706E+02
 40
1.58859499E+01
 50
3.39743842E+02
 51
2.02561578E+01
  0
LINE
  8
0
 62
4
 10
-1.37750000E+02
 20
-1.06557706E+02
 11
-1.29750000E+02
 21
-1.06557706E+02
  0
LINE
  8
0
 62
4
 10
-1.37750000E+02
 20
-8.45577056E+01
 11
-1.29750000E+02
 21
-8.45577056E+01
  0
LINE
  8
0
 62
4
 10
-1.36767520E+02
 20
-9.55577056E+01
 11
-1.30732480E+02
 21
-9.55577056E+01
  0
LINE
  8
0
 62
4
 10
-1.37750000E+02
 20
-1.06557706E+02
 11
-1.37750000E+02
 21
-8.45577056E+01
  0
LINE
  8
0
 62
4
 10
-1.29750000E+02
 20
-1.06557706E+02
 11
-1.29750000E+02
 21
-8.45577056E+01
  0
LINE
  8
0
 62
4
 10
-2.32749969E+02
 20
-2.19206853E+02
 11
-2.43749969E+02
 21
-2.12856000E+02
  0
LINE
  8
0
 62
4
 10
-2.32749969E+02
 20
-2.25557706E+02
 11
-2.32749969E+02
 21
-2.19206853E+02
  0
LINE
  8
0
 62
4
 10
-2.54749969E+02
 20
-2.19206853E+02
 11
-2.54749969E+02
 21
-2.25557706E+02
  0
LINE
  8
0
 62
4
 10
-2.43749969E+02
 20
-2.12856000E+02
 11
-2.54749969E+02
 21
-2.19206853E+02
  0
ARC
  8
0
 62
4
 10
-2.43749969E+02
 20
-2.25557706E+02
 40
1.10000000E+01
 50
0.00000000E+00
 51
1.80000000E+02
  0
LINE
  8
0
 62
7
 10
-1.29750000E+02
 20
-2.19557706E+02
 11
-1.23250000E+02
 21
-2.19557706E+02
  0
LINE
  8
0
 62
2
 10
-1.29750000E+02
 20
-2.20257687E+02
 11
-1.23250000E+02
 21
-2.20257687E+02
  0
LINE
  8
0
 62
2
 10
-1.29750000E+02
 20
-1.00857739E+02
 11
-1.23250000E+02
 21
-1.00857739E+02
  0
LINE
  8
0
 62
7
 10
-1.29750000E+02
 20
-1.01557736E+02
 11
-1.23250000E+02
 21
-1.01557736E+02
  0
LINE
  8
0
 62
2
 10
-1.29750000E+02
 20
-9.02577178E+01
 11
-1.23250000E+02
 21
-9.02577178E+01
  0
LINE
  8
0
 62
7
 10
-1.29750000E+02
 20
-8.95577056E+01
 11
-1.23250000E+02
 21
-8.95577056E+01
  0
POLYLINE
  8
0
 62
7
 66
1
  0
VERTEX
  8
0
 62
7
 10
-1.14480255E+02
 20
-9.96077090E+01
  0
VERTEX
  8
0
 62
7
 10
-1.14743936E+02
 20
-9.96148588E+01
  0
VERTEX
  8
0
 62
7
 10
-1.15005605E+02
 20
-9.96362539E+01
  0
VERTEX
  8
0
 62
7
 10
-1.15263269E+02
 20
-9.96717309E+01
  0
VERTEX
  8
0
 62
7
 10
-1.15514960E+02
 20
-9.97210193E+01
  0
VERTEX
  8
0
 62
7
 10
-1.15758761E+02
 20
-9.97837433E+01
  0
VERTEX
  8
0
 62
7
 10
-1.15992810E+02
 20
-9.98594245E+01
  0
VERTEX
  8
0
 62
7
 10
-1.16215325E+02
 20
-9.99474856E+01
  0
VERTEX
  8
0
 62
7
 10
-1.16424606E+02
 20
-1.00047255E+02
  0
VERTEX
  8
0
 62
7
 10
-1.16619060E+02
 20
-1.00157972E+02
  0
VERTEX
  8
0
 62
7
 10
-1.16797201E+02
 20
-1.00278792E+02
  0
VERTEX
  8
0
 62
7
 10
-1.16957672E+02
 20
-1.00408794E+02
  0
VERTEX
  8
0
 62
7
 10
-1.17099250E+02
 20
-1.00546986E+02
  0
VERTEX
  8
0
 62
7
 10
-1.17220853E+02
 20
-1.00692315E+02
  0
VERTEX
  8
0
 62
7
 10
-1.17321556E+02
 20
-1.00843671E+02
  0
VERTEX
  8
0
 62
7
 10
-1.17400589E+02
 20
-1.00999901E+02
  0
VERTEX
  8
0
 62
7
 10
-1.17457350E+02
 20
-1.01159813E+02
  0
VERTEX
  8
0
 62
7
 10
-1.17491406E+02
 20
-1.01322187E+02
  0
VERTEX
  8
0
 62
7
 10
-1.17502498E+02
 20
-1.01485786E+02
  0
VERTEX
  8
0
 62
7
 10
-1.17490541E+02
 20
-1.01649362E+02
  0
VERTEX
  8
0
 62
7
 10
-1.17455626E+02
 20
-1.01811666E+02
  0
VERTEX
  8
0
 62
7
 10
-1.17398019E+02
 20
-1.01971462E+02
  0
VERTEX
  8
0
 62
7
 10
-1.17318159E+02
 20
-1.02127530E+02
  0
VERTEX
  8
0
 62
7
 10
-1.17216657E+02
 20
-1.02278680E+02
  0
VERTEX
  8
0
 62
7
 10
-1.17094285E+02
 20
-1.02423760E+02
  0
VERTEX
  8
0
 62
7
 10
-1.16951977E+02
 20
-1.02561663E+02
  0
VERTEX
  8
0
 62
7
 10
-1.16790819E+02
 20
-1.02691337E+02
  0
VERTEX
  8
0
 62
7
 10
-1.16612039E+02
 20
-1.02811794E+02
  0
VERTEX
  8
0
 62
7
 10
-1.16417001E+02
 20
-1.02922115E+02
  0
VERTEX
  8
0
 62
7
 10
-1.16207193E+02
 20
-1.03021457E+02
  0
VERTEX
  8
0
 62
7
 10
-1.15984214E+02
 20
-1.03109065E+02
  0
SEQEND
  8
0
  0
POLYLINE
  8
0
 62
7
 66
1
  0
VERTEX
  8
0
 62
7
 10
-1.15984214E+02
 20
-8.80063465E+01
  0
VERTEX
  8
0
 62
7
 10
-1.16207193E+02
 20
-8.80939541E+01
  0
VERTEX
  8
0
 62
7
 10
-1.16417001E+02
 20
-8.81932969E+01
  0
VERTEX
  8
0
 62
7
 10
-1.16612039E+02
 20
-8.83036173E+01
  0
VERTEX
  8
0
 62
7
 10
-1.16790819E+02
 20
-8.84240741E+01
  0
VERTEX
  8
0
 62
7
 10
-1.16951977E+02
 20
-8.85537484E+01
  0
VERTEX
  8
0
 62
7
 10
-1.17094285E+02
 20
-8.86916514E+01
  0
VERTEX
  8
0
 62
7
 10
-1.17216657E+02
 20
-8.88367313E+01
  0
VERTEX
  8
0
 62
7
 10
-1.17318159E+02
 20
-8.89878817E+01
  0
VERTEX
  8
0
 62
7
 10
-1.17398019E+02
 20
-8.91439498E+01
  0
VERTEX
  8
0
 62
7
 10
-1.17455626E+02
 20
-8.93037454E+01
  0
VERTEX
  8
0
 62
7
 10
-1.17490541E+02
 20
-8.94660498E+01
  0
VERTEX
  8
0
 62
7
 10
-1.17502498E+02
 20
-8.96296252E+01
  0
VERTEX
  8
0
 62
7
 10
-1.17491406E+02
 20
-8.97932240E+01
  0
VERTEX
  8
0
 62
7
 10
-1.17457350E+02
 20
-8.99555987E+01
  0
VERTEX
  8
0
 62
7
 10
-1.17400589E+02
 20
-9.01155107E+01
  0
VERTEX
  8
0
 62
7
 10
-1.17321556E+02
 20
-9.02717406E+01
  0
VERTEX
  8
0
 62
7
 10
-1.17220853E+02
 20
-9.04230969E+01
  0
VERTEX
  8
0
 62
7
 10
-1.17099250E+02
 20
-9.05684253E+01
  0
VERTEX
  8
0
 62
7
 10
-1.16957672E+02
 20
-9.07066173E+01
  0
VERTEX
  8
0
 62
7
 10
-1.16797201E+02
 20
-9.08366191E+01
  0
VERTEX
  8
0
 62
7
 10
-1.16619060E+02
 20
-9.09574393E+01
  0
VERTEX
  8
0
 62
7
 10
-1.16424606E+02
 20
-9.10681563E+01
  0
VERTEX
  8
0
 62
7
 10
-1.16215325E+02
 20
-9.11679259E+01
  0
VERTEX
  8
0
 62
7
 10
-1.15992810E+02
 20
-9.12559870E+01
  0
VERTEX
  8
0
 62
7
 10
-1.15758761E+02
 20
-9.13316682E+01
  0
VERTEX
  8
0
 62
7
 10
-1.15514960E+02
 20
-9.13943922E+01
  0
VERTEX
  8
0
 62
7
 10
-1.15263269E+02
 20
-9.14436806E+01
  0
VERTEX
  8
0
 62
7
 10
-1.15005605E+02
 20
-9.14791576E+01
  0
VERTEX
  8
0
 62
7
 10
-1.14743936E+02
 20
-9.15005527E+01
  0
VERTEX
  8
0
 62
7
 10
-1.14480255E+02
 20
-9.15077025E+01
  0
SEQEND
  8
0
  0
POLYLINE
  8
0
 62
7
 66
1
  0
VERTEX
  8
0
 62
7
 10
-1.14480255E+02
 20
-9.15077026E+01
  0
VERTEX
  8
0
 62
7
 10
-1.14751167E+02
 20
-9.15240067E+01
  0
VERTEX
  8
0
 62
7
 10
-1.15019898E+02
 20
-9.15727878E+01
  0
VERTEX
  8
0
 62
7
 10
-1.15284284E+02
 20
-9.16536531E+01
  0
VERTEX
  8
0
 62
7
 10
-1.15542197E+02
 20
-9.17659515E+01
  0
VERTEX
  8
0
 62
7
 10
-1.15791559E+02
 20
-9.19087789E+01
  0
VERTEX
  8
0
 62
7
 10
-1.16030363E+02
 20
-9.20809854E+01
  0
VERTEX
  8
0
 62
7
 10
-1.16256687E+02
 20
-9.22811843E+01
  0
VERTEX
  8
0
 62
7
 10
-1.16468709E+02
 20
-9.25077639E+01
  0
VERTEX
  8
0
 62
7
 10
-1.16664720E+02
 20
-9.27588998E+01
  0
VERTEX
  8
0
 62
7
 10
-1.16843143E+02
 20
-9.30325700E+01
  0
VERTEX
  8
0
 62
7
 10
-1.17002542E+02
 20
-9.33265711E+01
  0
VERTEX
  8
0
 62
7
 10
-1.17141632E+02
 20
-9.36385361E+01
  0
VERTEX
  8
0
 62
7
 10
-1.17259295E+02
 20
-9.39659530E+01
  0
VERTEX
  8
0
 62
7
 10
-1.17354583E+02
 20
-9.43061858E+01
  0
VERTEX
  8
0
 62
7
 10
-1.17426728E+02
 20
-9.46564951E+01
  0
VERTEX
  8
0
 62
7
 10
-1.17475150E+02
 20
-9.50140605E+01
  0
VERTEX
  8
0
 62
7
 10
-1.17499459E+02
 20
-9.53760029E+01
  0
VERTEX
  8
0
 62
7
 10
-1.17499459E+02
 20
-9.57394083E+01
  0
VERTEX
  8
0
 62
7
 10
-1.17475150E+02
 20
-9.61013507E+01
  0
VERTEX
  8
0
 62
7
 10
-1.17426728E+02
 20
-9.64589161E+01
  0
VERTEX
  8
0
 62
7
 10
-1.17354583E+02
 20
-9.68092254E+01
  0
VERTEX
  8
0
 62
7
 10
-1.17259295E+02
 20
-9.71494582E+01
  0
VERTEX
  8
0
 62
7
 10
-1.17141632E+02
 20
-9.74768751E+01
  0
VERTEX
  8
0
 62
7
 10
-1.17002542E+02
 20
-9.77888401E+01
  0
VERTEX
  8
0
 62
7
 10
-1.16843143E+02
 20
-9.80828412E+01
  0
VERTEX
  8
0
 62
7
 10
-1.16664720E+02
 20
-9.83565114E+01
  0
VERTEX
  8
0
 62
7
 10
-1.16468709E+02
 20
-9.86076473E+01
  0
VERTEX
  8
0
 62
7
 10
-1.16256687E+02
 20
-9.88342269E+01
  0
VERTEX
  8
0
 62
7
 10
-1.16030363E+02
 20
-9.90344258E+01
  0
VERTEX
  8
0
 62
7
 10
-1.15791559E+02
 20
-9.92066323E+01
  0
VERTEX
  8
0
 62
7
 10
-1.15542197E+02
 20
-9.93494597E+01
  0
VERTEX
  8
0
 62
7
 10
-1.15284284E+02
 20
-9.94617581E+01
  0
VERTEX
  8
0
 62
7
 10
-1.15019898E+02
 20
-9.95426234E+01
  0
VERTEX
  8
0
 62
7
 10
-1.14751167E+02
 20
-9.95914045E+01
  0
VERTEX
  8
0
 62
7
 10
-1.14480255E+02
 20
-9.96077087E+01
  0
SEQEND
  8
0
  0
POLYLINE
  8
0
 62
7
 66
1
  0
VERTEX
  8
0
 62
7
 10
-1.14480225E+02
 20
-2.18557706E+02
  0
VERTEX
  8
0
 62
7
 10
-1.14751140E+02
 20
-2.18571796E+02
  0
VERTEX
  8
0
 62
7
 10
-1.15019874E+02
 20
-2.18613952E+02
  0
VERTEX
  8
0
 62
7
 10
-1.15284262E+02
 20
-2.18683836E+02
  0
VERTEX
  8
0
 62
7
 10
-1.15542177E+02
 20
-2.18780884E+02
  0
VERTEX
  8
0
 62
7
 10
-1.15791542E+02
 20
-2.18904315E+02
  0
VERTEX
  8
0
 62
7
 10
-1.16030349E+02
 20
-2.19053135E+02
  0
VERTEX
  8
0
 62
7
 10
-1.16256675E+02
 20
-2.19226147E+02
  0
VERTEX
  8
0
 62
7
 10
-1.16468699E+02
 20
-2.19421956E+02
  0
VERTEX
  8
0
 62
7
 10
-1.16664712E+02
 20
-2.19638987E+02
  0
VERTEX
  8
0
 62
7
 10
-1.16843137E+02
 20
-2.19875492E+02
  0
VERTEX
  8
0
 62
7
 10
-1.17002537E+02
 20
-2.20129567E+02
  0
VERTEX
  8
0
 62
7
 10
-1.17141629E+02
 20
-2.20399166E+02
  0
VERTEX
  8
0
 62
7
 10
-1.17259293E+02
 20
-2.20682118E+02
  0
VERTEX
  8
0
 62
7
 10
-1.17354582E+02
 20
-2.20976147E+02
  0
VERTEX
  8
0
 62
7
 10
-1.17426728E+02
 20
-2.21278883E+02
  0
VERTEX
  8
0
 62
7
 10
-1.17475150E+02
 20
-2.21587890E+02
  0
VERTEX
  8
0
 62
7
 10
-1.17499460E+02
 20
-2.21900679E+02
  0
VERTEX
  8
0
 62
7
 10
-1.17499460E+02
 20
-2.22214733E+02
  0
VERTEX
  8
0
 62
7
 10
-1.17475150E+02
 20
-2.22527522E+02
  0
VERTEX
  8
0
 62
7
 10
-1.17426728E+02
 20
-2.22836529E+02
  0
VERTEX
  8
0
 62
7
 10
-1.17354582E+02
 20
-2.23139265E+02
  0
VERTEX
  8
0
 62
7
 10
-1.17259293E+02
 20
-2.23433294E+02
  0
VERTEX
  8
0
 62
7
 10
-1.17141629E+02
 20
-2.23716246E+02
  0
VERTEX
  8
0
 62
7
 10
-1.17002537E+02
 20
-2.23985845E+02
  0
VERTEX
  8
0
 62
7
 10
-1.16843137E+02
 20
-2.24239920E+02
  0
VERTEX
  8
0
 62
7
 10
-1.16664712E+02
 20
-2.24476425E+02
  0
VERTEX
  8
0
 62
7
 10
-1.16468699E+02
 20
-2.24693456E+02
  0
VERTEX
  8
0
 62
7
 10
-1.16256675E+02
 20
-2.24889265E+02
  0
VERTEX
  8
0
 62
7
 10
-1.16030349E+02
 20
-2.25062277E+02
  0
VERTEX
  8
0
 62
7
 10
-1.15791542E+02
 20
-2.25211097E+02
  0
VERTEX
  8
0
 62
7
 10
-1.15542177E+02
 20
-2.25334528E+02
  0
VERTEX
  8
0
 62
7
 10
-1.15284262E+02
 20
-2.25431576E+02
  0
VERTEX
  8
0
 62
7
 10
-1.15019874E+02
 20
-2.25501460E+02
  0
VERTEX
  8
0
 62
7
 10
-1.14751140E+02
 20
-2.25543616E+02
  0
VERTEX
  8
0
 62
7
 10
-1.14480225E+02
 20
-2.25557706E+02
  0
SEQEND
  8
0
  0
CIRCLE
  8
0
 62
2
 10
6.70943298E+01
 20
-2.07057629E+02
 40
3.00000000E+00
  0
ARC
  8
0
 62
7
 10
8.55943909E+01
 20
-2.25557706E+02
 40
1.60000000E+01
 50
0.00000000E+00
 51
1.80000000E+02
  0
ARC
  8
0
 62
7
 10
9.62358093E+01
 20
-2.08555142E+02
 40
1.00000000E+00
 50
1.07884972E+01
 51
9.20252152E+01
  0
ARC
  8
0
 62
7
 10
9.05944519E+01
 20
-2.04557675E+02
 40
1.00000000E+00
 50
3.59721781E-05
 51
9.00000162E+01
  0
ARC
  8
0
 62
7
 10
1.02596893E+02
 20
-2.14916241E+02
 40
1.00000000E+00
 50
3.57973915E+02
 51
7.92109402E+01
  0
ARC
  8
0
 62
7
 10
1.06594391E+02
 20
-2.20557675E+02
 40
1.00000000E+00
 50
3.59721781E-05
 51
9.00000162E+01
  0
ARC
  8
0
 62
7
 10
9.45944519E+01
 20
-2.04557645E+02
 40
3.00000000E+00
 50
1.80000582E+02
 51
2.72025825E+02
  0
ARC
  8
0
 62
7
 10
1.06594391E+02
 20
-2.16557675E+02
 40
3.00000000E+00
 50
1.79999995E+02
 51
2.69999984E+02
  0
ARC
  8
0
 62
7
 10
1.02476349E+02
 20
-2.23557706E+02
 40
1.00000000E+00
 50
1.86756227E+02
 51
2.70000038E+02
  0
ARC
  8
0
 62
7
 10
9.89459534E+01
 20
-2.15034543E+02
 40
1.00000000E+00
 50
1.35000629E+02
 51
2.18244215E+02
  0
ARC
  8
0
 62
7
 10
9.61175232E+01
 20
-2.12206113E+02
 40
1.00000000E+00
 50
2.31756382E+02
 51
3.15000026E+02
  0
ARC
  8
0
 62
7
 10
8.75943909E+01
 20
-2.08675748E+02
 40
1.00000000E+00
 50
1.80000036E+02
 51
2.63243916E+02
  0
ARC
  8
0
 62
7
 10
1.00031403E+02
 20
-2.13949093E+02
 40
1.00000000E+00
 50
5.94775673E+01
 51
1.34999386E+02
  0
ARC
  8
0
 62
7
 10
1.04094391E+02
 20
-2.07057645E+02
 40
7.00000000E+00
 50
1.90788716E+02
 51
2.59211379E+02
  0
ARC
  8
0
 62
7
 10
9.72029724E+01
 20
-2.11120663E+02
 40
1.00000000E+00
 50
3.15000662E+02
 51
3.05222541E+01
  0
ARC
  8
0
 62
7
 10
8.75943909E+01
 20
-2.04557706E+02
 40
1.00000000E+00
 50
9.00000025E+01
 51
1.80000046E+02
  0
ARC
  8
0
 62
7
 10
1.06594391E+02
 20
-2.23557706E+02
 40
1.00000000E+00
 50
2.70000052E+02
 51
3.59721781E-05
  0
CIRCLE
  8
0
 62
7
 10
1.04094391E+02
 20
-2.07057645E+02
 40
5.00000000E+00
  0
CIRCLE
  8
0
 62
7
 10
1.04094391E+02
 20
-2.07057645E+02
 40
4.50000000E+00
  0
ARC
  8
0
 62
7
 10
1.07594452E+02
 20
-2.03557675E+02
 40
3.00000000E+00
 50
3.59721781E-05
 51
9.00000162E+01
  0
ARC
  8
0
 62
7
 10
1.07594391E+02
 20
-2.03557675E+02
 40
2.50000000E+00
 50
3.59721781E-05
 51
9.00000162E+01
  0
ARC
  8
0
 62
7
 10
8.05943909E+01
 20
-2.04557675E+02
 40
1.00000000E+00
 50
9.00000162E+01
 51
1.80000005E+02
  0
ARC
  8
0
 62
7
 10
7.65943909E+01
 20
-2.04557645E+02
 40
3.00000000E+00
 50
2.67974191E+02
 51
3.59999431E+02
  0
ARC
  8
0
 62
7
 10
7.49529724E+01
 20
-2.08555142E+02
 40
1.00000000E+00
 50
8.79748173E+01
 51
1.69211544E+02
  0
ARC
  8
0
 62
7
 10
6.70943909E+01
 20
-2.07057645E+02
 40
7.00000000E+00
 50
2.80788643E+02
 51
3.49211298E+02
  0
ARC
  8
0
 62
7
 10
6.85918884E+01
 20
-2.14916241E+02
 40
1.00000000E+00
 50
1.00789092E+02
 51
1.82026126E+02
  0
ARC
  8
0
 62
7
 10
6.45943909E+01
 20
-2.16557675E+02
 40
3.00000000E+00
 50
2.70000052E+02
 51
2.02641660E+00
  0
ARC
  8
0
 62
7
 10
6.45943909E+01
 20
-2.20557675E+02
 40
1.00000000E+00
 50
9.00000162E+01
 51
1.80000005E+02
  0
ARC
  8
0
 62
7
 10
6.35943909E+01
 20
-2.03557675E+02
 40
3.00000000E+00
 50
9.00000162E+01
 51
1.80000005E+02
  0
ARC
  8
0
 62
7
 10
7.50712585E+01
 20
-2.12206189E+02
 40
1.00000000E+00
 50
2.25000614E+02
 51
3.08244204E+02
  0
ARC
  8
0
 62
7
 10
7.22428284E+01
 20
-2.15034619E+02
 40
1.00000000E+00
 50
3.21756388E+02
 51
4.50000423E+01
  0
ARC
  8
0
 62
7
 10
8.35943909E+01
 20
-2.08675763E+02
 40
1.00000000E+00
 50
2.76756256E+02
 51
3.59721781E-05
  0
ARC
  8
0
 62
7
 10
8.35943909E+01
 20
-2.04557706E+02
 40
1.00000000E+00
 50
3.59721781E-05
 51
9.00000162E+01
  0
ARC
  8
0
 62
7
 10
7.11573792E+01
 20
-2.13949139E+02
 40
1.00000000E+00
 50
4.50006569E+01
 51
1.20522253E+02
  0
ARC
  8
0
 62
7
 10
6.87124329E+01
 20
-2.23557706E+02
 40
1.00000000E+00
 50
2.70000038E+02
 51
3.53243910E+02
  0
ARC
  8
0
 62
7
 10
6.45943909E+01
 20
-2.23557706E+02
 40
1.00000000E+00
 50
1.79999995E+02
 51
2.70000038E+02
  0
ARC
  8
0
 62
7
 10
7.39858093E+01
 20
-2.11120724E+02
 40
1.00000000E+00
 50
1.49477556E+02
 51
2.24999381E+02
  0
CIRCLE
  8
0
 62
7
 10
6.70943298E+01
 20
-2.07057706E+02
 40
4.50000000E+00
  0
CIRCLE
  8
0
 62
7
 10
6.70943298E+01
 20
-2.07057706E+02
 40
5.00000000E+00
  0
ARC
  8
0
 62
7
 10
6.35943909E+01
 20
-2.03557736E+02
 40
2.50000000E+00
 50
9.00000162E+01
 51
1.80000005E+02
  0
CIRCLE
  8
0
 62
2
 10
1.04094391E+02
 20
-2.07057629E+02
 40
3.00000000E+00
  0
ARC
  8
0
 62
7
 10
-1.09750031E+02
 20
-2.11057706E+02
 40
5.00000000E-01
 50
8.99999818E+01
 51
1.79999964E+02
  0
ARC
  8
0
 62
7
 10
-9.67500000E+01
 20
-2.10057706E+02
 40
5.00000000E-01
 50
8.99999818E+01
 51
1.79999964E+02
  0
ARC
  8
0
 62
7
 10
-1.05000000E+02
 20
-2.10549100E+02
 40
2.50000000E-01
 50
9.20007356E+01
 51
1.79999964E+02
  0
CIRCLE
  8
0
 62
7
 10
-6.97499847E+01
 20
-1.05557706E+02
 40
2.09999990E+00
  0
CIRCLE
  8
0
 62
2
 10
-2.25249908E+02
 20
-2.07057629E+02
 40
3.00000000E+00
  0
CIRCLE
  8
0
 62
2
 10
-2.62249969E+02
 20
-2.07057629E+02
 40
3.00000000E+00
  0
ARC
  8
0
 62
2
 10
-7.72500000E+01
 20
-9.15577666E+01
 40
6.57849979E+00
 50
7.68192768E+01
 51
3.35950142E+02
  0
ARC
  8
0
 62
7
 10
-2.43749969E+02
 20
-2.25557706E+02
 40
1.50000000E+01
 50
0.00000000E+00
 51
1.80000000E+02
  0
ARC
  8
0
 62
7
 10
-2.43749969E+02
 20
-2.25557706E+02
 40
1.55000010E+01
 50
0.00000000E+00
 51
1.80000000E+02
  0
ARC
  8
0
 62
7
 10
-2.43749969E+02
 20
-2.25557706E+02
 40
1.60000000E+01
 50
0.00000000E+00
 51
1.80000000E+02
  0
ARC
  8
0
 62
7
 10
-2.54391388E+02
 20
-2.08555142E+02
 40
1.00000000E+00
 50
8.79747829E+01
 51
1.69211502E+02
  0
ARC
  8
0
 62
7
 10
-2.48750031E+02
 20
-2.04557675E+02
 40
1.00000000E+00
 50
8.99999818E+01
 51
1.79999964E+02
  0
ARC
  8
0
 62
7
 10
-2.60752472E+02
 20
-2.14916241E+02
 40
1.00000000E+00
 50
1.00789058E+02
 51
1.82026085E+02
  0
ARC
  8
0
 62
7
 10
-2.64749969E+02
 20
-2.20557675E+02
 40
1.00000000E+00
 50
8.99999818E+01
 51
1.79999964E+02
  0
ARC
  8
0
 62
7
 10
-2.52750031E+02
 20
-2.04557645E+02
 40
3.00000000E+00
 50
2.67974177E+02
 51
3.59999417E+02
  0
ARC
  8
0
 62
7
 10
-2.64749969E+02
 20
-2.16557675E+02
 40
3.00000000E+00
 50
2.70000018E+02
 51
0.00000000E+00
  0
ARC
  8
0
 62
7
 10
-2.60631927E+02
 20
-2.23557706E+02
 40
1.00000000E+00
 50
2.69999963E+02
 51
3.53243768E+02
  0
ARC
  8
0
 62
7
 10
-2.57101532E+02
 20
-2.15034543E+02
 40
1.00000000E+00
 50
3.21755790E+02
 51
4.49993763E+01
  0
ARC
  8
0
 62
7
 10
-2.54273102E+02
 20
-2.12206113E+02
 40
1.00000000E+00
 50
2.24999972E+02
 51
3.08243613E+02
  0
ARC
  8
0
 62
7
 10
-2.45749969E+02
 20
-2.08675748E+02
 40
1.00000000E+00
 50
2.76756086E+02
 51
3.59999959E+02
  0
ARC
  8
0
 62
7
 10
-2.58186981E+02
 20
-2.13949093E+02
 40
1.00000000E+00
 50
4.50006194E+01
 51
1.20522431E+02
  0
ARC
  8
0
 62
7
 10
-2.62249969E+02
 20
-2.07057645E+02
 40
7.00000000E+00
 50
2.80788623E+02
 51
3.49211279E+02
  0
ARC
  8
0
 62
7
 10
-2.55358551E+02
 20
-2.11120663E+02
 40
1.00000000E+00
 50
1.49477747E+02
 51
2.24999340E+02
  0
ARC
  8
0
 62
7
 10
-2.45749969E+02
 20
-2.04557706E+02
 40
1.00000000E+00
 50
3.59999959E+02
 51
8.99999956E+01
  0
ARC
  8
0
 62
7
 10
-2.64749969E+02
 20
-2.23557706E+02
 40
1.00000000E+00
 50
1.79999964E+02
 51
2.69999946E+02
  0
CIRCLE
  8
0
 62
7
 10
-2.62249969E+02
 20
-2.07057645E+02
 40
5.00000000E+00
  0
CIRCLE
  8
0
 62
7
 10
-2.62249969E+02
 20
-2.07057645E+02
 40
4.50000000E+00
  0
ARC
  8
0
 62
7
 10
-2.65750031E+02
 20
-2.03557675E+02
 40
3.00000000E+00
 50
8.99999818E+01
 51
1.79999964E+02
  0
ARC
  8
0
 62
7
 10
-2.65749969E+02
 20
-2.03557675E+02
 40
2.50000000E+00
 50
8.99999818E+01
 51
1.79999964E+02
  0
ARC
  8
0
 62
7
 10
-2.38749969E+02
 20
-2.04557675E+02
 40
1.00000000E+00
 50
0.00000000E+00
 51
8.99999818E+01
  0
ARC
  8
0
 62
7
 10
-2.34749969E+02
 20
-2.04557645E+02
 40
3.00000000E+00
 50
1.80000569E+02
 51
2.72025811E+02
  0
ARC
  8
0
 62
7
 10
-2.33108551E+02
 20
-2.08555142E+02
 40
1.00000000E+00
 50
1.07884614E+01
 51
9.20251808E+01
  0
ARC
  8
0
 62
7
 10
-2.25249969E+02
 20
-2.07057645E+02
 40
7.00000000E+00
 50
1.90788702E+02
 51
2.59211358E+02
  0
ARC
  8
0
 62
7
 10
-2.26747467E+02
 20
-2.14916241E+02
 40
1.00000000E+00
 50
3.57973879E+02
 51
7.92109058E+01
  0
ARC
  8
0
 62
7
 10
-2.22749969E+02
 20
-2.16557675E+02
 40
3.00000000E+00
 50
1.77973583E+02
 51
2.69999946E+02
  0
ARC
  8
0
 62
7
 10
-2.22749969E+02
 20
-2.20557675E+02
 40
1.00000000E+00
 50
0.00000000E+00
 51
8.99999818E+01
  0
ARC
  8
0
 62
7
 10
-2.21749969E+02
 20
-2.03557675E+02
 40
3.00000000E+00
 50
0.00000000E+00
 51
8.99999818E+01
  0
ARC
  8
0
 62
7
 10
-2.33226837E+02
 20
-2.12206189E+02
 40
1.00000000E+00
 50
2.31755794E+02
 51
3.14999380E+02
  0
ARC
  8
0
 62
7
 10
-2.30398407E+02
 20
-2.15034619E+02
 40
1.00000000E+00
 50
1.34999959E+02
 51
2.18243614E+02
  0
ARC
  8
0
 62
7
 10
-2.41749969E+02
 20
-2.08675763E+02
 40
1.00000000E+00
 50
1.79999964E+02
 51
2.63243741E+02
  0
ARC
  8
0
 62
7
 10
-2.41749969E+02
 20
-2.04557706E+02
 40
1.00000000E+00
 50
8.99999818E+01
 51
1.79999964E+02
  0
ARC
  8
0
 62
7
 10
-2.29312958E+02
 20
-2.13949139E+02
 40
1.00000000E+00
 50
5.94777518E+01
 51
1.34999345E+02
  0
ARC
  8
0
 62
7
 10
-2.26868011E+02
 20
-2.23557706E+02
 40
1.00000000E+00
 50
1.86756090E+02
 51
2.69999963E+02
  0
ARC
  8
0
 62
7
 10
-2.22749969E+02
 20
-2.23557706E+02
 40
1.00000000E+00
 50
2.69999963E+02
 51
0.00000000E+00
  0
ARC
  8
0
 62
7
 10
-2.32141388E+02
 20
-2.11120724E+02
 40
1.00000000E+00
 50
3.15000624E+02
 51
3.05224488E+01
  0
CIRCLE
  8
0
 62
7
 10
-2.25249908E+02
 20
-2.07057706E+02
 40
4.50000000E+00
  0
CIRCLE
  8
0
 62
7
 10
-2.25249908E+02
 20
-2.07057706E+02
 40
5.00000000E+00
  0
ARC
  8
0
 62
7
 10
-2.21749969E+02
 20
-2.03557736E+02
 40
2.50000000E+00
 50
0.00000000E+00
 51
8.99999818E+01
  0
ARC
  8
0
 62
7
 10
-7.72500000E+01
 20
-9.15577666E+01
 40
5.65999985E+00
 50
7.46314587E+01
 51
3.31727516E+02
  0
ARC
  8
0
 62
7
 10
-8.82499542E+01
 20
-1.13557706E+02
 40
2.00000000E+00
 50
1.79999981E+02
 51
2.70000018E+02
  0
ARC
  8
0
 62
7
 10
-8.82499542E+01
 20
-7.75577056E+01
 40
2.00000000E+00
 50
8.99999818E+01
 51
1.79999964E+02
  0
ARC
  8
0
 62
7
 10
-7.72500000E+01
 20
-9.15577666E+01
 40
7.00000000E+00
 50
7.76259453E+01
 51
3.45167056E+02
  0
ARC
  8
0
 62
7
 10
-9.47500000E+01
 20
-1.19525235E+02
 40
5.00000000E-01
 50
1.80000005E+02
 51
2.68999788E+02
  0
ARC
  8
0
 62
7
 10
-9.47500000E+01
 20
-7.15901763E+01
 40
5.00000000E-01
 50
9.10002155E+01
 51
1.80000005E+02
  0
ARC
  8
0
 62
7
 10
-1.05000000E+02
 20
-8.05490996E+01
 40
2.50000000E-01
 50
9.20007768E+01
 51
1.79999991E+02
  0
ARC
  8
0
 62
7
 10
-9.67500000E+01
 20
-8.00577056E+01
 40
5.00000000E-01
 50
9.00000231E+01
 51
1.80000005E+02
  0
ARC
  8
0
 62
7
 10
-1.09750031E+02
 20
-8.10577056E+01
 40
5.00000000E-01
 50
9.00000231E+01
 51
1.80000005E+02
  0
ARC
  8
0
 62
7
 10
-1.05000000E+02
 20
-1.10566312E+02
 40
2.50000000E-01
 50
1.80000005E+02
 51
2.67999220E+02
  0
ARC
  8
0
 62
7
 10
-9.67500000E+01
 20
-1.11057706E+02
 40
5.00000000E-01
 50
1.80000005E+02
 51
2.70000001E+02
  0
ARC
  8
0
 62
7
 10
-1.09750031E+02
 20
-1.10057706E+02
 40
5.00000000E-01
 50
1.80000005E+02
 51
2.70000001E+02
  0
CIRCLE
  8
0
 62
7
 10
-6.97499847E+01
 20
-1.05557706E+02
 40
4.00000000E+00
  0
LINE
  8
0
 62
7
 10
-1.23250000E+02
 20
-2.20257687E+02
 11
-1.20250000E+02
 21
-2.20257687E+02
  0
LINE
  8
0
 62
7
 10
-1.23250000E+02
 20
-1.00857739E+02
 11
-1.20249969E+02
 21
-1.00857739E+02
  0
LINE
  8
0
 62
7
 10
-1.23250000E+02
 20
-9.02577178E+01
 11
-1.20249969E+02
 21
-9.02577178E+01
  0
LINE
  8
0
 62
7
 10
-1.20249965E+02
 20
-1.01557700E+02
 11
-1.14480239E+02
 21
-1.03657709E+02
  0
LINE
  8
0
 62
7
 10
-1.20249975E+02
 20
-8.95577080E+01
 11
-1.14480263E+02
 21
-8.74577046E+01
  0
LINE
  8
0
 62
7
 10
-1.20249969E+02
 20
-8.95577056E+01
 11
-1.20249969E+02
 21
-1.01557706E+02
  0
LINE
  8
0
 62
7
 10
-1.14480255E+02
 20
-9.96077086E+01
 11
-1.10249954E+02
 21
-9.96077086E+01
  0
LINE
  8
0
 62
7
 10
-1.14480255E+02
 20
-9.15077025E+01
 11
-1.10249954E+02
 21
-9.15077025E+01
  0
LINE
  8
0
 62
7
 10
-1.14480255E+02
 20
-1.03657712E+02
 11
-1.10249954E+02
 21
-1.03657712E+02
  0
LINE
  8
0
 62
7
 10
-1.14480255E+02
 20
-8.74576995E+01
 11
-1.10249954E+02
 21
-8.74576995E+01
  0
LINE
  8
0
 62
7
 10
-1.14480225E+02
 20
-2.25557706E+02
 11
-1.10250000E+02
 21
-2.25557706E+02
  0
LINE
  8
0
 62
2
 10
-1.43949982E+02
 20
-1.00857739E+02
 11
-1.37750000E+02
 21
-1.00857739E+02
  0
LINE
  8
0
 62
7
 10
-1.43250061E+02
 20
-1.01557736E+02
 11
-1.37750000E+02
 21
-1.01557736E+02
  0
LINE
  8
0
 62
7
 10
-1.44249967E+02
 20
-1.00557654E+02
 11
-1.43249999E+02
 21
-1.01557645E+02
  0
LINE
  8
0
 62
7
 10
-1.43250061E+02
 20
-1.01557736E+02
 11
-1.43250061E+02
 21
-8.95577056E+01
  0
LINE
  8
0
 62
7
 10
-1.23250000E+02
 20
-1.01557736E+02
 11
-1.23250000E+02
 21
-8.95577056E+01
  0
LINE
  8
0
 62
7
 10
-1.44249901E+02
 20
-9.05578693E+01
 11
-1.43249954E+02
 21
-8.95578999E+01
  0
LINE
  8
0
 62
2
 10
-1.43949982E+02
 20
-9.02577178E+01
 11
-1.37750000E+02
 21
-9.02577178E+01
  0
LINE
  8
0
 62
7
 10
-1.20249996E+02
 20
-2.19557712E+02
 11
-1.17502494E+02
 21
-2.18557710E+02
  0
LINE
  8
0
 62
7
 10
-1.17502502E+02
 20
-2.18557706E+02
 11
-1.10250000E+02
 21
-2.18557706E+02
  0
LINE
  8
0
 62
7
 10
-1.20250000E+02
 20
-2.25557706E+02
 11
-1.20250000E+02
 21
-2.19557706E+02
  0
LINE
  8
0
 62
7
 10
-1.43250061E+02
 20
-8.95577056E+01
 11
-1.37750000E+02
 21
-8.95577056E+01
  0
LINE
  8
0
 62
7
 10
-1.44250000E+02
 20
-2.25557706E+02
 11
-1.44250000E+02
 21
-2.20557706E+02
  0
LINE
  8
0
 62
7
 10
-1.44250000E+02
 20
-1.00557736E+02
 11
-1.44250000E+02
 21
-9.05577361E+01
  0
LINE
  8
0
 62
7
 10
-1.23250000E+02
 20
-2.25557706E+02
 11
-1.23250000E+02
 21
-2.19557706E+02
  0
LINE
  8
0
 62
7
 10
-1.43250061E+02
 20
-2.19557706E+02
 11
-1.37750000E+02
 21
-2.19557706E+02
  0
LINE
  8
0
 62
7
 10
-1.43250061E+02
 20
-2.25557706E+02
 11
-1.43250061E+02
 21
-2.19557706E+02
  0
LINE
  8
0
 62
7
 10
-1.44249840E+02
 20
-2.20557771E+02
 11
-1.43249883E+02
 21
-2.19557790E+02
  0
LINE
  8
0
 62
2
 10
-1.43949982E+02
 20
-2.20257687E+02
 11
-1.37750000E+02
 21
-2.20257687E+02
  0
LINE
  8
0
 62
7
 10
1.04094390E+02
 20
-2.03593526E+02
 11
1.07094392E+02
 21
-2.05325578E+02
  0
LINE
  8
0
 62
7
 10
1.07094391E+02
 20
-2.05325574E+02
 11
1.07094391E+02
 21
-2.08789685E+02
  0
LINE
  8
0
 62
7
 10
1.07094387E+02
 20
-2.08789681E+02
 11
1.04094386E+02
 21
-2.10521733E+02
  0
LINE
  8
0
 62
7
 10
1.04094392E+02
 20
-2.10521730E+02
 11
1.01094390E+02
 21
-2.08789678E+02
  0
LINE
  8
0
 62
7
 10
1.01094391E+02
 20
-2.05325574E+02
 11
1.01094391E+02
 21
-2.08789685E+02
  0
LINE
  8
0
 62
7
 10
1.04094387E+02
 20
-2.03593529E+02
 11
1.01094386E+02
 21
-2.05325581E+02
  0
LINE
  8
0
 62
7
 10
6.70943305E+01
 20
-2.03593526E+02
 11
7.00943322E+01
 21
-2.05325578E+02
  0
LINE
  8
0
 62
7
 10
7.00943298E+01
 20
-2.05325574E+02
 11
7.00943298E+01
 21
-2.08789685E+02
  0
LINE
  8
0
 62
7
 10
7.00943278E+01
 20
-2.08789681E+02
 11
6.70943293E+01
 21
-2.10521731E+02
  0
LINE
  8
0
 62
7
 10
6.70943322E+01
 20
-2.10521730E+02
 11
6.40943305E+01
 21
-2.08789679E+02
  0
LINE
  8
0
 62
7
 10
6.40943298E+01
 20
-2.05325574E+02
 11
6.40943298E+01
 21
-2.08789685E+02
  0
LINE
  8
0
 62
7
 10
6.70943278E+01
 20
-2.03593528E+02
 11
6.40943293E+01
 21
-2.05325578E+02
  0
LINE
  8
0
 62
7
 10
7.49813538E+01
 20
-2.07528515E+02
 11
7.70114441E+01
 21
-2.07528515E+02
  0
LINE
  8
0
  6
CENTER
 62
2
 10
5.66220703E+01
 20
-2.25557706E+02
 11
1.15298187E+02
 21
-2.25557706E+02
  0
LINE
  8
0
  6
CENTER
 62
2
 10
7.34757996E+01
 20
-2.07057629E+02
 11
5.89541321E+01
 21
-2.07057629E+02
  0
LINE
  8
0
 62
7
 10
1.03594391E+02
 20
-2.14845547E+02
 11
1.03594391E+02
 21
-2.16807675E+02
  0
LINE
  8
0
 62
7
 10
9.63061218E+01
 20
-2.07557614E+02
 11
9.43444519E+01
 21
-2.07557614E+02
  0
LINE
  8
0
 62
7
 10
6.75943298E+01
 20
-2.14846402E+02
 11
6.75943298E+01
 21
-2.16807675E+02
  0
LINE
  8
0
 62
7
 10
6.55943909E+01
 20
-2.00557675E+02
 11
6.55943909E+01
 21
-2.01057736E+02
  0
LINE
  8
0
 62
7
 10
1.05594391E+02
 20
-2.00557675E+02
 11
1.05594391E+02
 21
-2.01057675E+02
  0
LINE
  8
0
  6
CENTER
 62
2
 10
8.55943909E+01
 20
-1.97062710E+02
 11
8.55943909E+01
 21
-2.25557706E+02
  0
LINE
  8
0
 62
7
 10
1.07594391E+02
 20
-2.20557675E+02
 11
1.07594391E+02
 21
-2.25557706E+02
  0
LINE
  8
0
 62
7
 10
8.05943909E+01
 20
-2.03557675E+02
 11
9.05944519E+01
 21
-2.03557675E+02
  0
LINE
  8
0
 62
7
 10
9.79101577E+01
 20
-2.11827754E+02
 11
9.68246812E+01
 21
-2.12913230E+02
  0
LINE
  8
0
 62
7
 10
9.93243279E+01
 20
-2.13242011E+02
 11
9.82388514E+01
 21
-2.14327487E+02
  0
LINE
  8
0
 62
7
 10
1.06594391E+02
 20
-2.24557690E+02
 11
1.02476349E+02
 21
-2.24557690E+02
  0
LINE
  8
0
 62
7
 10
8.65943909E+01
 20
-2.04557706E+02
 11
8.65943909E+01
 21
-2.08675748E+02
  0
LINE
  8
0
 62
7
 10
1.10094391E+02
 20
-2.03557675E+02
 11
1.10094391E+02
 21
-2.25557706E+02
  0
LINE
  8
0
 62
7
 10
1.10594452E+02
 20
-2.03557675E+02
 11
1.10594452E+02
 21
-2.25557706E+02
  0
LINE
  8
0
 62
7
 10
6.35943909E+01
 20
-2.00557675E+02
 11
1.07594452E+02
 21
-2.00557675E+02
  0
LINE
  8
0
  6
CENTER
 62
2
 10
1.04094391E+02
 20
-1.98655057E+02
 11
1.04094391E+02
 21
-2.14942044E+02
  0
LINE
  8
0
  6
CENTER
 62
2
 10
1.12684296E+02
 20
-2.07057629E+02
 11
9.80174255E+01
 21
-2.07057629E+02
  0
LINE
  8
0
 62
7
 10
6.35943909E+01
 20
-2.20557675E+02
 11
6.35943909E+01
 21
-2.25557706E+02
  0
LINE
  8
0
 62
7
 10
7.32787421E+01
 20
-2.11827715E+02
 11
7.43642076E+01
 21
-2.12913181E+02
  0
LINE
  8
0
 62
7
 10
8.45943909E+01
 20
-2.04557706E+02
 11
8.45943909E+01
 21
-2.08675763E+02
  0
LINE
  8
0
 62
7
 10
7.18645825E+01
 20
-2.13241897E+02
 11
7.29500588E+01
 21
-2.14327373E+02
  0
LINE
  8
0
 62
7
 10
6.45943909E+01
 20
-2.24557706E+02
 11
6.87124329E+01
 21
-2.24557706E+02
  0
LINE
  8
0
 62
7
 10
6.10943909E+01
 20
-2.03557736E+02
 11
6.10943909E+01
 21
-2.25557706E+02
  0
LINE
  8
0
 62
7
 10
6.35943909E+01
 20
-2.01057736E+02
 11
1.07594391E+02
 21
-2.01057675E+02
  0
LINE
  8
0
 62
7
 10
6.05943909E+01
 20
-2.03557675E+02
 11
6.05943909E+01
 21
-2.25557706E+02
  0
LINE
  8
0
  6
CENTER
 62
2
 10
6.70943298E+01
 20
-1.98551053E+02
 11
6.70943298E+01
 21
-2.13472195E+02
  0
LINE
  8
0
  6
CENTER
 62
2
 10
8.95944519E+01
 20
-1.98805310E+02
 11
8.95944519E+01
 21
-2.09985913E+02
  0
LINE
  8
0
  6
CENTER
 62
2
 10
-7.72500000E+01
 20
-1.98805340E+02
 11
-7.72500000E+01
 21
-2.09985943E+02
  0
LINE
  8
0
  6
CENTER
 62
2
 10
-2.47750031E+02
 20
-1.98805310E+02
 11
-2.47750031E+02
 21
-2.09985913E+02
  0
LINE
  8
0
 62
7
 10
-9.02500000E+01
 20
-2.01212308E+02
 11
-9.02500000E+01
 21
-2.00557706E+02
  0
LINE
  8
0
 62
7
 10
-9.52500645E+01
 20
-2.01343280E+02
 11
-6.42500402E+01
 21
-2.00531516E+02
  0
LINE
  8
0
 62
7
 10
-9.02500000E+01
 20
-2.00557706E+02
 11
-6.42500000E+01
 21
-2.00557706E+02
  0
LINE
  8
0
 62
7
 10
-9.67500000E+01
 20
-2.09557706E+02
 11
-9.52500000E+01
 21
-2.09557706E+02
  0
LINE
  8
0
 62
7
 10
-1.05008727E+02
 20
-2.10299223E+02
 11
-9.72491442E+01
 21
-2.10028252E+02
  0
LINE
  8
0
 62
7
 10
-1.09750031E+02
 20
-2.10557675E+02
 11
-1.05241058E+02
 21
-2.10557675E+02
  0
LINE
  8
0
  6
CENTER
 62
2
 10
-6.13900477E-01
 20
-2.07057706E+02
 11
-9.73534241E+01
 21
-2.07057706E+02
  0
LINE
  8
0
 62
7
 10
-6.42499542E+01
 20
-7.35577208E+01
 11
-5.62499487E+01
 21
-7.35577208E+01
  0
LINE
  8
0
 62
7
 10
-6.42499542E+01
 20
-7.44077117E+01
 11
-5.62499487E+01
 21
-7.44077117E+01
  0
LINE
  8
0
 62
7
 10
-6.42499542E+01
 20
-7.97076995E+01
 11
-5.62499487E+01
 21
-7.97076995E+01
  0
LINE
  8
0
  6
CENTER
 62
2
 10
-9.74769745E+01
 20
-7.70577056E+01
 11
-5.62499487E+01
 21
-7.70577056E+01
  0
LINE
  8
0
 62
7
 10
-6.42499542E+01
 20
-1.17557690E+02
 11
-2.39965318E+01
 21
-1.17557690E+02
  0
LINE
  8
0
 62
7
 10
-6.42499542E+01
 20
-1.16707699E+02
 11
-2.35057894E+01
 21
-1.16707699E+02
  0
LINE
  8
0
 62
7
 10
-6.42499542E+01
 20
-1.11407712E+02
 11
-2.04458400E+01
 21
-1.11407712E+02
  0
LINE
  8
0
  6
CENTER
 62
2
 10
-9.74769745E+01
 20
-1.14057706E+02
 11
-2.19758147E+01
 21
-1.14057706E+02
  0
LINE
  8
0
 62
7
 10
-6.83064896E+01
 20
-1.05557735E+02
 11
-6.90281776E+01
 21
-1.06807752E+02
  0
LINE
  8
0
 62
7
 10
-6.90282898E+01
 20
-1.06807675E+02
 11
-7.04716797E+01
 21
-1.06807675E+02
  0
LINE
  8
0
 62
7
 10
-7.04716458E+01
 20
-1.06807679E+02
 11
-7.11933490E+01
 21
-1.05557636E+02
  0
LINE
  8
0
 62
7
 10
-7.11932780E+01
 20
-1.05557694E+02
 11
-7.04715901E+01
 21
-1.04307677E+02
  0
LINE
  8
0
 62
7
 10
-6.90282898E+01
 20
-1.04307645E+02
 11
-7.04716797E+01
 21
-1.04307645E+02
  0
LINE
  8
0
 62
7
 10
-6.83066211E+01
 20
-1.05557612E+02
 11
-6.90282938E+01
 21
-1.04307622E+02
  0
LINE
  8
0
 62
7
 10
-2.33136932E+02
 20
-2.07528515E+02
 11
-2.35167023E+02
 21
-2.07528515E+02
  0
LINE
  8
0
 62
7
 10
-9.52500000E+01
 20
-2.01343274E+02
 11
-9.52500000E+01
 21
-2.25557706E+02
  0
LINE
  8
0
 62
7
 10
-6.42500000E+01
 20
-2.00557706E+02
 11
-6.42500000E+01
 21
-2.25557706E+02
  0
LINE
  8
0
 62
7
 10
-1.05250000E+02
 20
-2.25557706E+02
 11
-1.05250000E+02
 21
-2.10549100E+02
  0
LINE
  8
0
 62
7
 10
-9.72500000E+01
 20
-2.10057706E+02
 11
-9.72500000E+01
 21
-2.25557706E+02
  0
LINE
  8
0
  6
CENTER
 62
2
 10
-2.14777649E+02
 20
-2.25557706E+02
 11
-2.73453766E+02
 21
-2.25557706E+02
  0
LINE
  8
0
  6
CENTER
 62
2
 10
-2.31631378E+02
 20
-2.07057629E+02
 11
-2.17109711E+02
 21
-2.07057629E+02
  0
LINE
  8
0
 62
7
 10
-2.61749969E+02
 20
-2.14845547E+02
 11
-2.61749969E+02
 21
-2.16807675E+02
  0
LINE
  8
0
 62
7
 10
-2.54461700E+02
 20
-2.07557614E+02
 11
-2.52500031E+02
 21
-2.07557614E+02
  0
LINE
  8
0
 62
7
 10
-2.25749908E+02
 20
-2.14846402E+02
 11
-2.25749908E+02
 21
-2.16807675E+02
  0
LINE
  8
0
 62
7
 10
-2.23749969E+02
 20
-2.00557675E+02
 11
-2.23749969E+02
 21
-2.01057736E+02
  0
LINE
  8
0
 62
7
 10
-2.63749969E+02
 20
-2.00557675E+02
 11
-2.63749969E+02
 21
-2.01057675E+02
  0
LINE
  8
0
  6
CENTER
 62
2
 10
-2.43749969E+02
 20
-1.97062710E+02
 11
-2.43749969E+02
 21
-2.25557706E+02
  0
LINE
  8
0
 62
7
 10
-2.65749969E+02
 20
-2.20557675E+02
 11
-2.65749969E+02
 21
-2.25557706E+02
  0
LINE
  8
0
 62
7
 10
-2.56065746E+02
 20
-2.11827750E+02
 11
-2.54980270E+02
 21
-2.12913226E+02
  0
LINE
  8
0
 62
7
 10
-2.57479917E+02
 20
-2.13242007E+02
 11
-2.56394440E+02
 21
-2.14327483E+02
  0
LINE
  8
0
 62
7
 10
-2.64749969E+02
 20
-2.24557690E+02
 11
-2.60631927E+02
 21
-2.24557690E+02
  0
LINE
  8
0
 62
7
 10
-2.44749969E+02
 20
-2.04557706E+02
 11
-2.44749969E+02
 21
-2.08675748E+02
  0
LINE
  8
0
 62
7
 10
-2.68249969E+02
 20
-2.03557675E+02
 11
-2.68249969E+02
 21
-2.25557706E+02
  0
LINE
  8
0
 62
7
 10
-2.68750031E+02
 20
-2.03557675E+02
 11
-2.68750031E+02
 21
-2.25557706E+02
  0
LINE
  8
0
  6
CENTER
 62
2
 10
-2.62249969E+02
 20
-1.98655057E+02
 11
-2.62249969E+02
 21
-2.14942044E+02
  0
LINE
  8
0
  6
CENTER
 62
2
 10
-2.70839874E+02
 20
-2.07057629E+02
 11
-2.56173004E+02
 21
-2.07057629E+02
  0
LINE
  8
0
 62
7
 10
-2.48750031E+02
 20
-2.03557675E+02
 11
-2.38749969E+02
 21
-2.03557675E+02
  0
LINE
  8
0
 62
7
 10
-2.21749969E+02
 20
-2.20557675E+02
 11
-2.21749969E+02
 21
-2.25557706E+02
  0
LINE
  8
0
 62
7
 10
-2.31434331E+02
 20
-2.11827716E+02
 11
-2.32519796E+02
 21
-2.12913182E+02
  0
LINE
  8
0
 62
7
 10
-2.42749969E+02
 20
-2.04557706E+02
 11
-2.42749969E+02
 21
-2.08675763E+02
  0
LINE
  8
0
 62
7
 10
-2.30020171E+02
 20
-2.13241897E+02
 11
-2.31105648E+02
 21
-2.14327374E+02
  0
LINE
  8
0
 62
7
 10
-2.22749969E+02
 20
-2.24557706E+02
 11
-2.26868011E+02
 21
-2.24557706E+02
  0
LINE
  8
0
 62
7
 10
-2.19249969E+02
 20
-2.03557736E+02
 11
-2.19249969E+02
 21
-2.25557706E+02
  0
LINE
  8
0
 62
7
 10
-2.65749969E+02
 20
-2.01057675E+02
 11
-2.21749969E+02
 21
-2.01057736E+02
  0
LINE
  8
0
 62
7
 10
-2.65750031E+02
 20
-2.00557675E+02
 11
-2.21749969E+02
 21
-2.00557675E+02
  0
LINE
  8
0
 62
7
 10
-2.18749969E+02
 20
-2.03557675E+02
 11
-2.18749969E+02
 21
-2.25557706E+02
  0
LINE
  8
0
  6
CENTER
 62
2
 10
-2.25249908E+02
 20
-1.98551053E+02
 11
-2.25249908E+02
 21
-2.13472195E+02
  0
LINE
  8
0
 62
7
 10
-1.10250000E+02
 20
-2.25557706E+02
 11
-1.10250000E+02
 21
-2.11057706E+02
  0
LINE
  8
0
  6
CENTER
 62
2
 10
-1.47487213E+02
 20
-2.25557706E+02
 11
-1.12948805E+01
 21
-2.25557706E+02
  0
LINE
  8
0
 62
7
 10
-9.02499542E+01
 20
-7.75577056E+01
 11
-9.02499542E+01
 21
-1.13557706E+02
  0
LINE
  8
0
 62
7
 10
-8.82499542E+01
 20
-1.15557706E+02
 11
-6.42499542E+01
 21
-1.15557706E+02
  0
LINE
  8
0
 62
7
 10
-8.82499542E+01
 20
-7.55577056E+01
 11
-6.42499542E+01
 21
-7.55577056E+01
  0
LINE
  8
0
  6
CENTER
 62
2
 10
-7.54465942E+01
 20
-1.05557706E+02
 11
-6.38311005E+01
 21
-1.05557706E+02
  0
LINE
  8
0
 62
7
 10
-6.42499481E+01
 20
-1.20557574E+02
 11
-9.47586984E+01
 21
-1.20025038E+02
  0
LINE
  8
0
 62
7
 10
-6.42500219E+01
 20
-7.05576358E+01
 11
-9.47587418E+01
 21
-7.10901628E+01
  0
LINE
  8
0
 62
7
 10
-9.72499542E+01
 20
-8.00577056E+01
 11
-9.72499542E+01
 21
-1.11087125E+02
  0
LINE
  8
0
 62
7
 10
-1.05249954E+02
 20
-8.05576750E+01
 11
-1.05249954E+02
 21
-1.10557736E+02
  0
LINE
  8
0
 62
7
 10
-1.05008731E+02
 20
-8.02991560E+01
 11
-9.72491479E+01
 21
-8.00281866E+01
  0
LINE
  8
0
 62
7
 10
-9.52499542E+01
 20
-1.19525235E+02
 11
-9.52499542E+01
 21
-7.15901763E+01
  0
LINE
  8
0
 62
7
 10
-6.42499542E+01
 20
-1.20557706E+02
 11
-6.42499542E+01
 21
-9.40997780E+01
  0
LINE
  8
0
 62
7
 10
-9.67500000E+01
 20
-7.95576750E+01
 11
-9.52500000E+01
 21
-7.95576750E+01
  0
LINE
  8
0
 62
7
 10
-1.09750031E+02
 20
-8.05576445E+01
 11
-1.05241058E+02
 21
-8.05576445E+01
  0
LINE
  8
0
 62
7
 10
-1.10249954E+02
 20
-1.10057706E+02
 11
-1.10249954E+02
 21
-8.10577056E+01
  0
LINE
  8
0
 62
7
 10
-1.05008766E+02
 20
-1.10816065E+02
 11
-9.72491832E+01
 21
-1.11087037E+02
  0
LINE
  8
0
 62
7
 10
-9.67500000E+01
 20
-1.11557675E+02
 11
-9.52500000E+01
 21
-1.11557675E+02
  0
LINE
  8
0
 62
7
 10
-1.09750031E+02
 20
-1.10557706E+02
 11
-1.05241058E+02
 21
-1.10557706E+02
  0
LINE
  8
0
  6
CENTER
 62
2
 10
-6.97499847E+01
 20
-1.11477414E+02
 11
-6.97499847E+01
 21
-9.99527861E+01
  0
LINE
  8
0
  6
CENTER
 62
2
 10
-8.73667145E+01
 20
-9.15577666E+01
 11
-6.73015594E+01
 21
-9.15577666E+01
  0
LINE
  8
0
  6
CENTER
 62
2
 10
-7.72500000E+01
 20
-1.01573575E+02
 11
-7.72500000E+01
 21
-8.14135405E+01
  0
LINE
  8
0
  6
CENTER
 62
2
 10
-1.47883850E+02
 20
-9.55577056E+01
 11
-6.07499487E+01
 21
-9.55577056E+01
  0
LINE
  8
0
 62
2
 10
-2.59065967E+01
 20
-1.20866020E+02
 11
4.67617308E+00
 21
-6.78951087E+01
  0
LINE
  8
0
  6
CENTER
 62
2
 10
3.58675995E+02
 20
-2.25557706E+02
 11
1.97080268E+02
 21
-2.25557706E+02
  0
LINE
  8
0
 62
7
 10
3.21438782E+02
 20
-2.25557706E+02
 11
3.21438782E+02
 21
-2.11057706E+02
  0
LINE
  8
0
 62
7
 10
3.08438782E+02
 20
-2.10057706E+02
 11
3.08438782E+02
 21
-2.25557706E+02
  0
LINE
  8
0
 62
7
 10
3.16438782E+02
 20
-2.25557706E+02
 11
3.16438782E+02
 21
-2.10549100E+02
  0
LINE
  8
0
 62
7
 10
2.75438782E+02
 20
-2.00557706E+02
 11
2.75438782E+02
 21
-2.25557706E+02
  0
LINE
  8
0
 62
7
 10
3.06438782E+02
 20
-2.01343274E+02
 11
3.06438782E+02
 21
-2.25557706E+02
  0
LINE
  8
0
  6
CENTER
 62
2
 10
2.07761248E+02
 20
-2.07057706E+02
 11
3.08542206E+02
 21
-2.07057706E+02
  0
LINE
  8
0
 62
7
 10
3.20938812E+02
 20
-2.10557675E+02
 11
3.16429840E+02
 21
-2.10557675E+02
  0
LINE
  8
0
 62
7
 10
3.16197509E+02
 20
-2.10299223E+02
 11
3.08437926E+02
 21
-2.10028252E+02
  0
LINE
  8
0
 62
7
 10
3.07938782E+02
 20
-2.09557706E+02
 11
3.06438782E+02
 21
-2.09557706E+02
  0
LINE
  8
0
 62
7
 10
3.01438782E+02
 20
-2.00557706E+02
 11
2.75438782E+02
 21
-2.00557706E+02
  0
LINE
  8
0
 62
7
 10
3.06438846E+02
 20
-2.01343280E+02
 11
2.75438822E+02
 21
-2.00531516E+02
  0
LINE
  8
0
 62
7
 10
3.01438782E+02
 20
-2.01212308E+02
 11
3.01438782E+02
 21
-2.00557706E+02
  0
LINE
  8
0
  6
CENTER
 62
2
 10
2.88438782E+02
 20
-1.98805340E+02
 11
2.88438782E+02
 21
-2.09985943E+02
  0
LINE
  8
0
 62
2
 10
3.55138763E+02
 20
-2.20257687E+02
 11
3.48938782E+02
 21
-2.20257687E+02
  0
LINE
  8
0
 62
7
 10
3.55438622E+02
 20
-2.20557771E+02
 11
3.54438664E+02
 21
-2.19557790E+02
  0
LINE
  8
0
 62
7
 10
3.54438843E+02
 20
-2.25557706E+02
 11
3.54438843E+02
 21
-2.19557706E+02
  0
LINE
  8
0
 62
7
 10
3.54438843E+02
 20
-2.19557706E+02
 11
3.48938782E+02
 21
-2.19557706E+02
  0
LINE
  8
0
 62
7
 10
3.34438782E+02
 20
-2.25557706E+02
 11
3.34438782E+02
 21
-2.19557706E+02
  0
LINE
  8
0
 62
7
 10
3.55438782E+02
 20
-2.25557706E+02
 11
3.55438782E+02
 21
-2.20557706E+02
  0
LINE
  8
0
 62
7
 10
3.31438782E+02
 20
-2.25557706E+02
 11
3.31438782E+02
 21
-2.19557706E+02
  0
LINE
  8
0
 62
7
 10
3.28691284E+02
 20
-2.18557706E+02
 11
3.21438782E+02
 21
-2.18557706E+02
  0
LINE
  8
0
 62
7
 10
3.31438778E+02
 20
-2.19557712E+02
 11
3.28691276E+02
 21
-2.18557710E+02
  0
LINE
  8
0
 62
7
 10
3.25669006E+02
 20
-2.25557706E+02
 11
3.21438782E+02
 21
-2.25557706E+02
  0
LINE
  8
0
 62
7
 10
3.34438782E+02
 20
-2.20257687E+02
 11
3.31438782E+02
 21
-2.20257687E+02
  0
ARC
  8
0
 62
7
 10
3.16188782E+02
 20
-2.10549100E+02
 40
2.50000000E-01
 50
3.59721787E-05
 51
8.79992642E+01
  0
ARC
  8
0
 62
7
 10
3.07938782E+02
 20
-2.10057706E+02
 40
5.00000000E-01
 50
3.59721787E-05
 51
9.00000179E+01
  0
ARC
  8
0
 62
7
 10
3.20938812E+02
 20
-2.11057706E+02
 40
5.00000000E-01
 50
3.59721787E-05
 51
9.00000179E+01
  0
POLYLINE
  8
0
 62
7
 66
1
  0
VERTEX
  8
0
 62
7
 10
3.25669006E+02
 20
-2.25557706E+02
  0
VERTEX
  8
0
 62
7
 10
3.25939921E+02
 20
-2.25543616E+02
  0
VERTEX
  8
0
 62
7
 10
3.26208655E+02
 20
-2.25501460E+02
  0
VERTEX
  8
0
 62
7
 10
3.26473043E+02
 20
-2.25431576E+02
  0
VERTEX
  8
0
 62
7
 10
3.26730958E+02
 20
-2.25334528E+02
  0
VERTEX
  8
0
 62
7
 10
3.26980323E+02
 20
-2.25211097E+02
  0
VERTEX
  8
0
 62
7
 10
3.27219130E+02
 20
-2.25062277E+02
  0
VERTEX
  8
0
 62
7
 10
3.27445456E+02
 20
-2.24889265E+02
  0
VERTEX
  8
0
 62
7
 10
3.27657480E+02
 20
-2.24693456E+02
  0
VERTEX
  8
0
 62
7
 10
3.27853493E+02
 20
-2.24476425E+02
  0
VERTEX
  8
0
 62
7
 10
3.28031918E+02
 20
-2.24239920E+02
  0
VERTEX
  8
0
 62
7
 10
3.28191318E+02
 20
-2.23985845E+02
  0
VERTEX
  8
0
 62
7
 10
3.28330410E+02
 20
-2.23716246E+02
  0
VERTEX
  8
0
 62
7
 10
3.28448074E+02
 20
-2.23433294E+02
  0
VERTEX
  8
0
 62
7
 10
3.28543363E+02
 20
-2.23139265E+02
  0
VERTEX
  8
0
 62
7
 10
3.28615509E+02
 20
-2.22836529E+02
  0
VERTEX
  8
0
 62
7
 10
3.28663931E+02
 20
-2.22527522E+02
  0
VERTEX
  8
0
 62
7
 10
3.28688241E+02
 20
-2.22214733E+02
  0
VERTEX
  8
0
 62
7
 10
3.28688241E+02
 20
-2.21900679E+02
  0
VERTEX
  8
0
 62
7
 10
3.28663931E+02
 20
-2.21587890E+02
  0
VERTEX
  8
0
 62
7
 10
3.28615509E+02
 20
-2.21278883E+02
  0
VERTEX
  8
0
 62
7
 10
3.28543363E+02
 20
-2.20976147E+02
  0
VERTEX
  8
0
 62
7
 10
3.28448074E+02
 20
-2.20682118E+02
  0
VERTEX
  8
0
 62
7
 10
3.28330410E+02
 20
-2.20399166E+02
  0
VERTEX
  8
0
 62
7
 10
3.28191318E+02
 20
-2.20129567E+02
  0
VERTEX
  8
0
 62
7
 10
3.28031918E+02
 20
-2.19875492E+02
  0
VERTEX
  8
0
 62
7
 10
3.27853493E+02
 20
-2.19638987E+02
  0
VERTEX
  8
0
 62
7
 10
3.27657480E+02
 20
-2.19421956E+02
  0
VERTEX
  8
0
 62
7
 10
3.27445456E+02
 20
-2.19226147E+02
  0
VERTEX
  8
0
 62
7
 10
3.27219130E+02
 20
-2.19053135E+02
  0
VERTEX
  8
0
 62
7
 10
3.26980323E+02
 20
-2.18904315E+02
  0
VERTEX
  8
0
 62
7
 10
3.26730958E+02
 20
-2.18780884E+02
  0
VERTEX
  8
0
 62
7
 10
3.26473043E+02
 20
-2.18683836E+02
  0
VERTEX
  8
0
 62
7
 10
3.26208655E+02
 20
-2.18613952E+02
  0
VERTEX
  8
0
 62
7
 10
3.25939921E+02
 20
-2.18571796E+02
  0
VERTEX
  8
0
 62
7
 10
3.25669006E+02
 20
-2.18557706E+02
  0
SEQEND
  8
0
  0
LINE
  8
0
 62
2
 10
3.40938782E+02
 20
-2.20257687E+02
 11
3.34438782E+02
 21
-2.20257687E+02
  0
LINE
  8
0
 62
7
 10
3.40938782E+02
 20
-2.19557706E+02
 11
3.34438782E+02
 21
-2.19557706E+02
  0
LINE
  8
0
 62
4
 10
3.47956301E+02
 20
-2.12856000E+02
 11
3.41921262E+02
 21
-2.12856000E+02
  0
LINE
  8
0
 62
4
 10
3.47956301E+02
 20
-2.19206853E+02
 11
3.41921262E+02
 21
-2.19206853E+02
  0
LINE
  8
0
 62
4
 10
3.48938782E+02
 20
-2.25557706E+02
 11
3.48938782E+02
 21
-2.14557706E+02
  0
LINE
  8
0
 62
4
 10
3.40938782E+02
 20
-2.25557706E+02
 11
3.40938782E+02
 21
-2.14557706E+02
  0
LINE
  8
0
 62
4
 10
3.48938782E+02
 20
-2.14557706E+02
 11
3.47956301E+02
 21
-2.12856000E+02
  0
LINE
  8
0
 62
4
 10
3.40938782E+02
 20
-2.14557706E+02
 11
3.41921262E+02
 21
-2.12856000E+02
  0
ARC
  8
0
 62
4
 10
3.43315972E+02
 20
-2.16031426E+02
 40
5.62281003E+00
 50
3.25615753E+02
 51
3.43842476E+01
  0
ARC
  8
0
 62
4
 10
3.27921262E+02
 20
-2.25557706E+02
 40
2.10175199E+01
 50
1.22042718E-07
 51
1.75879537E+01
  0
ARC
  8
0
 62
4
 10
3.46561592E+02
 20
-2.16031426E+02
 40
5.62281003E+00
 50
1.45615752E+02
 51
2.14384247E+02
  0
ARC
  8
0
 62
4
 10
3.61956302E+02
 20
-2.25557706E+02
 40
2.10175199E+01
 50
1.62412046E+02
 51
1.80000000E+02
  0
LINE
  8
0
 62
7
 10
2.09291223E+02
 20
-2.04407712E+02
 11
2.52438782E+02
 21
-2.04407712E+02
  0
LINE
  8
0
 62
7
 10
2.09781965E+02
 20
-2.03557721E+02
 11
2.35938782E+02
 21
-2.03557721E+02
  0
LINE
  8
0
 62
7
 10
2.06231273E+02
 20
-2.09707699E+02
 11
2.52438782E+02
 21
-2.09707699E+02
  0
LINE
  8
0
 62
7
 10
2.68938782E+02
 20
-2.03557721E+02
 11
2.75438782E+02
 21
-2.03557721E+02
  0
LINE
  8
0
 62
7
 10
2.67438782E+02
 20
-2.04407712E+02
 11
2.75438751E+02
 21
-2.04407712E+02
  0
LINE
  8
0
 62
7
 10
2.67438782E+02
 20
-2.09707699E+02
 11
2.75438782E+02
 21
-2.09707699E+02
  0
LINE
  8
0
 62
7
 10
-6.42499542E+01
 20
-8.00997780E+01
 11
-6.42499542E+01
 21
-7.05577056E+01
  0
LINE
  8
0
  6
CENTER
 62
2
 10
-4.12499487E+01
 20
-7.70577056E+01
 11
-6.13854742E-01
 21
-7.70577056E+01
  0
LINE
  8
0
  6
CENTER
 62
2
 10
-2.17499487E+01
 20
-9.55577056E+01
 11
-1.12948347E+01
 21
-9.55577056E+01
  0
LINE
  8
0
 62
2
 10
1.94350803E+02
 20
-2.30285278E+02
 11
2.12838268E+02
 21
-1.98264049E+02
  0
TEXT
  8
0
 10
-4.61502877E+01
 20
2.29478397E+02
 40
6.30000019E+00
  1
STRETCH LINE
 41
1.05263174E+00
  7
MONOTXT
  0
TEXT
  8
0
 62
7
 10
-1.22560938E+02
 20
3.59999990E+00
 40
6.30000019E+00
  1
STRETCH LIST
 41
1.05263158E+00
  7
MONOTXT
  0
TEXT
  8
0
 62
7
 10
5.69890623E+01
 20
-1.84000001E+01
 40
6.30000019E+00
  1
425
 41
1.00000000E+00
  7
MONOTXT
  0
TEXT
  8
0
 62
7
 10
5.69890623E+01
 20
-8.40000009E+00
 40
6.30000019E+00
  1
500
 41
1.00000000E+00
  7
MONOTXT
  0
TEXT
  8
0
 62
7
 10
3.17890623E+01
 20
-1.84000001E+01
 40
6.30000019E+00
  1
375
 41
1.00000000E+00
  7
MONOTXT
  0
TEXT
  8
0
 62
7
 10
3.17890623E+01
 20
-8.40000009E+00
 40
6.30000019E+00
  1
450
 41
1.00000000E+00
  7
MONOTXT
  0
TEXT
  8
0
 62
7
 10
6.58906231E+00
 20
-1.84000001E+01
 40
6.30000019E+00
  1
325
 41
1.00000000E+00
  7
MONOTXT
  0
TEXT
  8
0
 62
7
 10
6.58906231E+00
 20
-8.40000009E+00
 40
6.30000019E+00
  1
400
 41
1.00000000E+00
  7
MONOTXT
  0
TEXT
  8
0
 62
7
 10
-1.86109377E+01
 20
-1.84000001E+01
 40
6.30000019E+00
  1
275
 41
1.00000000E+00
  7
MONOTXT
  0
TEXT
  8
0
 62
7
 10
-1.86109377E+01
 20
-8.40000009E+00
 40
6.30000019E+00
  1
350
 41
1.00000000E+00
  7
MONOTXT
  0
TEXT
  8
0
 62
7
 10
-4.38109377E+01
 20
-1.84000001E+01
 40
6.30000019E+00
  1
225
 41
1.00000000E+00
  7
MONOTXT
  0
TEXT
  8
0
 62
7
 10
-4.38109377E+01
 20
-8.40000009E+00
 40
6.30000019E+00
  1
300
 41
1.00000000E+00
  7
MONOTXT
  0
TEXT
  8
0
 62
7
 10
-6.90109377E+01
 20
-1.84000001E+01
 40
6.30000019E+00
  1
175
 41
1.00000000E+00
  7
MONOTXT
  0
TEXT
  8
0
 62
7
 10
-6.90109377E+01
 20
-8.40000009E+00
 40
6.30000019E+00
  1
250
 41
1.00000000E+00
  7
MONOTXT
  0
TEXT
  8
0
 62
7
 10
-9.42109377E+01
 20
-1.84000001E+01
 40
6.30000019E+00
  1
125
 41
1.00000000E+00
  7
MONOTXT
  0
TEXT
  8
0
 62
7
 10
-9.42109377E+01
 20
-8.40000009E+00
 40
6.30000019E+00
  1
200
 41
1.00000000E+00
  7
MONOTXT
  0
TEXT
  8
0
 62
7
 10
-1.16260937E+02
 20
-1.84000001E+01
 40
6.30000019E+00
  1
75
 41
1.00000000E+00
  7
MONOTXT
  0
TEXT
  8
0
 62
7
 10
-1.19410937E+02
 20
-8.40000009E+00
 40
6.30000019E+00
  1
150
 41
1.00000000E+00
  7
MONOTXT
  0
TEXT
  8
0
 62
7
 10
-1.41460937E+02
 20
-1.84000001E+01
 40
6.30000019E+00
  1
25
 41
1.00000000E+00
  7
MONOTXT
  0
TEXT
  8
0
 62
7
 10
-1.44610937E+02
 20
-8.40000009E+00
 40
6.30000019E+00
  1
100
 41
1.00000000E+00
  7
MONOTXT
  0
TEXT
  8
0
 62
7
 10
-1.63510937E+02
 20
-1.84000001E+01
 40
6.30000019E+00
  1
0
 41
1.00000000E+00
  7
MONOTXT
  0
TEXT
  8
0
 62
7
 10
-1.66660937E+02
 20
-8.40000009E+00
 40
6.30000019E+00
  1
75
 41
1.00000000E+00
  7
MONOTXT
  0
TEXT
  8
0
 62
7
 10
-2.45410938E+02
 20
-1.84000001E+01
 40
6.30000019E+00
  1
STRETCH
 41
1.00000000E+00
  7
MONOTXT
  0
TEXT
  8
0
 62
7
 10
-2.42260938E+02
 20
-8.40000009E+00
 40
6.30000019E+00
  1
STROKE
 41
1.00000000E+00
  7
MONOTXT
  0
TEXT
  8
0
 62
7
 10
-1.95010937E+02
 20
-1.84000001E+01
 40
6.30000019E+00
  1
-25
 41
1.00000000E+00
  7
MONOTXT
  0
TEXT
  8
0
 62
7
 10
-1.91860937E+02
 20
-8.40000009E+00
 40
6.30000019E+00
  1
50
 41
1.00000000E+00
  7
MONOTXT
  0
LINE
  8
0
 62
7
 10
7.83500000E+01
 20
-2.02500000E+01
 11
7.83500000E+01
 21
-2.50000009E-01
  0
LINE
  8
0
 62
7
 10
5.31500000E+01
 20
-2.02500000E+01
 11
5.31500000E+01
 21
-2.50000009E-01
  0
LINE
  8
0
 62
7
 10
2.79500000E+01
 20
-2.02500000E+01
 11
2.79500000E+01
 21
-2.50000009E-01
  0
LINE
  8
0
 62
7
 10
2.75000000E+00
 20
-2.02500000E+01
 11
2.75000000E+00
 21
-2.50000009E-01
  0
LINE
  8
0
 62
7
 10
-2.24500000E+01
 20
-2.02500000E+01
 11
-2.24500000E+01
 21
-2.50000009E-01
  0
LINE
  8
0
 62
7
 10
-4.76500000E+01
 20
-2.02500000E+01
 11
-4.76500000E+01
 21
-2.50000009E-01
  0
LINE
  8
0
 62
7
 10
-7.28500000E+01
 20
-2.02500000E+01
 11
-7.28500000E+01
 21
-2.50000009E-01
  0
LINE
  8
0
 62
7
 10
-9.80500000E+01
 20
-2.02500000E+01
 11
-9.80500000E+01
 21
-2.50000009E-01
  0
LINE
  8
0
 62
7
 10
-1.23250000E+02
 20
-2.02500000E+01
 11
-1.23250000E+02
 21
-2.50000009E-01
  0
LINE
  8
0
 62
7
 10
-1.48450000E+02
 20
-2.02500000E+01
 11
-1.48450000E+02
 21
-2.50000009E-01
  0
LINE
  8
0
 62
7
 10
-1.73650000E+02
 20
-2.02500000E+01
 11
-1.73650000E+02
 21
-2.50000009E-01
  0
LINE
  8
0
 62
7
 10
-1.98850000E+02
 20
-2.02500000E+01
 11
-1.98850000E+02
 21
-2.50000009E-01
  0
LINE
  8
0
 62
7
 10
-2.49250000E+02
 20
-2.02500000E+01
 11
7.83500000E+01
 21
-2.02500000E+01
  0
LINE
  8
0
 62
7
 10
-2.49250000E+02
 20
-2.50000000E-01
 11
7.83500000E+01
 21
-2.50000000E-01
  0
LINE
  8
0
 62
7
 10
-2.49250000E+02
 20
-2.02500000E+01
 11
-2.49250000E+02
 21
-2.50000009E-01
  0
LINE
  8
0
 62
7
 10
-2.49250000E+02
 20
-1.02500000E+01
 11
7.83500000E+01
 21
-1.02500000E+01
  0
LINE
  8
0
 62
7
 10
2.79799927E+02
 20
-2.56750000E+02
 11
3.99799805E+02
 21
-2.56750000E+02
  0
LINE
  8
0
 62
7
 10
2.79799927E+02
 20
-2.56750000E+02
 11
2.79799927E+02
 21
-2.76750000E+02
  0
TEXT
  8
0
 62
7
 10
2.87585240E+02
 20
-2.71250000E+02
 40
9.00000000E+00
  1
KOGANEI CORP.
 41
1.04838710E+00
  7
MONOTXT
  0
TEXT
  8
0
 62
7
 10
3.15499641E+02
 20
2.63100000E+02
 40
6.30000019E+00
  1
Ver. 1.0
 41
1.08108124E+00
  7
MONOTXT
  0
LINE
  8
0
 62
7
 10
2.79799927E+02
 20
2.56250000E+02
 11
3.99799805E+02
 21
2.56250000E+02
  0
LINE
  8
0
 62
7
 10
2.79799927E+02
 20
2.76250000E+02
 11
2.79799927E+02
 21
2.56250000E+02
  0
TEXT
  8
0
 62
7
 10
-3.85600562E+02
 20
2.38100000E+02
 40
6.30000019E+00
  1
MODEL:DDAL40*75
 41
1.00000015E+00
  7
MONOTXT
  0
LINE
  8
0
 62
7
 10
-3.99250000E+02
 20
2.56250000E+02
 11
-2.79250000E+02
 21
2.56250000E+02
  0
LINE
  8
0
 62
7
 10
-2.79250000E+02
 20
2.76250000E+02
 11
-2.79250000E+02
 21
2.56250000E+02
  0
TEXT
  8
0
 62
7
 10
-3.91900291E+02
 20
2.63100000E+02
 40
6.30000019E+00
  1
NEW DYNA CYLINDER
 41
1.07594953E+00
  7
MONOTXT
  0
LINE
  8
0
 62
7
 10
-3.99250000E+02
 20
-2.76750000E+02
 11
3.99799805E+02
 21
-2.76750000E+02
  0
LINE
  8
0
 62
7
 10
-3.99250000E+02
 20
2.76250000E+02
 11
3.99799805E+02
 21
2.76250000E+02
  0
LINE
  8
0
 62
7
 10
-3.99250000E+02
 20
2.76250000E+02
 11
-3.99250000E+02
 21
-2.76750000E+02
  0
LINE
  8
0
 62
7
 10
3.99799805E+02
 20
2.76250000E+02
 11
3.99799805E+02
 21
-2.76750000E+02
  0
ENDSEC
  0
EOF
