  0
SECTION
  2
HEADER
  9
$ACADVER
  1
AC1003
  9
$EXTMIN
 10
-5.64500000E+02
 20
-4.00500000E+02
  9
$EXTMAX
 10
5.74500000E+02
 20
4.00500000E+02
  9
$LIMMIN
 10
-5.64501000E+02
 20
-4.00501000E+02
  9
$LIMMAX
 10
5.74501000E+02
 20
4.00501000E+02
  9
$SNAPUNIT
 10
1
 20
1
  9
$SNAPBASE
 10
0
 20
0
  9
$GRIDMODE
 70
0
  9
$GRIDUNIT
 10
0
 20
0
  9
$LTSCALE
 40
1.89833333E+01
  9
$TEXTSIZE
 40
3.2
  9
$DIMTAD
 70
0
  9
$LUNITS
 70
2
  9
$LUPREC
 70
4
  9
$FILLETRAD
 40
0
  9
$AUNITS
 70
0
  9
$AUPREC
 70
0
  0
ENDSEC
  0
SECTION
  2
TABLES
  0
TABLE
  2
LTYPE
 70
2
  0
LTYPE
  2
CONTINUOUS
 70
64
  3
Solid-Line
 72
65
 73
0
 40
0
  0
LTYPE
  2
DASHED
 70
64
  3
DASHED
 72
65
 73
2
 40
.75
 49
.5
 49
-.25
  0
LTYPE
  2
HIDDEN
 70
64
  3
HIDDEN
 72
65
 73
2
 40
.375
 49
.25
 49
-.125
  0
LTYPE
  2
CENTER
 70
64
  3
CENTER
 72
65
 73
4
 40
2
 49
1.25
 49
-.25
 49
.25
 49
-.25
  0
LTYPE
  2
PHANTOM
 70
64
  3
PHANTOM
 72
65
 73
6
 40
2.5
 49
1.25
 49
-.25
 49
.25
 49
-.25
 49
.25
 49
-.25
  0
ENDTAB
  0
TABLE
  2
LAYER
 70
1
  0
LAYER
  2
1
 70
0
 62
7
  6
CONTINUOUS
 0
ENDTAB
  0
TABLE
  2
STYLE
 70
2
  0
STYLE
  2
MONOTXT
 70
0
 40
0
 41
1
 50
0
 71
0
 42
.2
  3
monotxt
  0
STYLE
  2
BIGFONT
 70
0
 40
0
 41
1
 50
0
 71
0
 42
.2
  3
txt
  4
bigfont
  0
ENDTAB
  0
ENDSEC
  0
SECTION
  2
ENTITIES
  0
LINE
  8
0
  6
PHANTOM
 10
-2.45000000E+01
 20
2.81313474E+01
 11
-2.45000000E+01
 21
1.94632131E+02
  0
LINE
  8
0
  6
CENTER
 62
2
 10
-2.02243382E+02
 20
1.00500000E+02
 11
7.24326820E+01
 21
1.00500000E+02
  0
LINE
  8
0
 62
7
 10
-1.40000004E+02
 20
8.15000000E+01
 11
-1.40000004E+02
 21
1.19500000E+02
  0
LINE
  8
0
 62
7
 10
-1.39500034E+02
 20
8.10000000E+01
 11
-1.35000034E+02
 21
8.10000000E+01
  0
LINE
  8
0
 62
7
 10
-1.15000034E+02
 20
5.34999924E+01
 11
-8.30000343E+01
 21
5.34999924E+01
  0
LINE
  8
0
 62
7
 10
-1.18508747E+02
 20
5.41198004E+01
 11
-8.30000256E+01
 21
5.34999934E+01
  0
LINE
  8
0
 62
7
 10
-1.15000004E+02
 20
5.40585480E+01
 11
-1.15000004E+02
 21
5.34999924E+01
  0
LINE
  8
0
 62
7
 10
-1.20500034E+02
 20
7.85000000E+01
 11
-1.19000034E+02
 21
7.85000000E+01
  0
LINE
  8
0
 62
7
 10
-1.35000019E+02
 20
7.99717331E+01
 11
-1.35000019E+02
 21
1.21028259E+02
  0
LINE
  8
0
 62
7
 10
-1.34517534E+02
 20
7.94720949E+01
 11
-1.21000062E+02
 21
7.90000544E+01
  0
LINE
  8
0
 62
7
 10
-1.21000004E+02
 20
1.21999954E+02
 11
-1.21000004E+02
 21
7.90000153E+01
  0
LINE
  8
0
 62
7
 10
5.99999695E+01
 20
5.34999924E+01
 11
2.79999657E+01
 21
5.34999924E+01
  0
LINE
  8
0
 62
7
 10
6.35087110E+01
 20
5.41198392E+01
 11
2.79999746E+01
 21
5.35000319E+01
  0
LINE
  8
0
 62
7
 10
5.99999809E+01
 20
5.40585480E+01
 11
5.99999809E+01
 21
5.34999924E+01
  0
LINE
  8
0
 62
7
 10
6.54999657E+01
 20
7.85000000E+01
 11
6.39999657E+01
 21
7.85000000E+01
  0
LINE
  8
0
 62
7
 10
6.59999809E+01
 20
1.22000000E+02
 11
6.59999809E+01
 21
7.90000153E+01
  0
LINE
  8
0
 62
7
 10
2.79999886E+01
 20
5.69999847E+01
 11
-8.30000191E+01
 21
5.69999847E+01
  0
LINE
  8
0
  6
CENTER
 62
2
 10
6.67791653E+01
 20
6.54999847E+01
 11
-1.21524509E+02
 21
6.54999847E+01
  0
LINE
  8
0
 62
7
 10
2.79999886E+01
 20
6.99999847E+01
 11
-8.30000191E+01
 21
6.99999847E+01
  0
LINE
  8
0
 62
7
 10
2.79999886E+01
 20
6.09999847E+01
 11
-8.30000191E+01
 21
6.09999847E+01
  0
LINE
  8
0
 62
7
 10
-1.39500034E+02
 20
1.19999985E+02
 11
-1.35000034E+02
 21
1.19999985E+02
  0
LINE
  8
0
 62
7
 10
-1.34517550E+02
 20
1.21527927E+02
 11
-1.21000079E+02
 21
1.21999967E+02
  0
LINE
  8
0
 62
7
 10
-1.20500034E+02
 20
1.22500000E+02
 11
-1.19000034E+02
 21
1.22500000E+02
  0
LINE
  8
0
  6
CENTER
 62
2
 10
4.39999733E+01
 20
1.34800049E+02
 11
4.39999733E+01
 21
1.49952652E+02
  0
LINE
  8
0
 62
7
 10
-1.19000019E+02
 20
5.46197205E+01
 11
-1.19000019E+02
 21
1.46380280E+02
  0
LINE
  8
0
 62
7
 10
-8.30000191E+01
 20
5.34999924E+01
 11
-8.30000191E+01
 21
1.47500000E+02
  0
LINE
  8
0
 62
7
 10
-1.15000034E+02
 20
1.47500000E+02
 11
-8.30000343E+01
 21
1.47500000E+02
  0
LINE
  8
0
 62
7
 10
-1.18508792E+02
 20
1.46880208E+02
 11
-8.30000405E+01
 21
1.47500015E+02
  0
LINE
  8
0
 62
7
 10
-1.15000004E+02
 20
1.46941452E+02
 11
-1.15000004E+02
 21
1.47500000E+02
  0
LINE
  8
0
 62
7
 10
6.39999886E+01
 20
5.46197205E+01
 11
6.39999886E+01
 21
1.46380280E+02
  0
LINE
  8
0
 62
7
 10
2.79999886E+01
 20
5.34999924E+01
 11
2.79999886E+01
 21
1.47500000E+02
  0
LINE
  8
0
 62
7
 10
5.99999695E+01
 20
1.47500000E+02
 11
2.79999657E+01
 21
1.47500000E+02
  0
LINE
  8
0
 62
7
 10
6.35086805E+01
 20
1.46880189E+02
 11
2.79999517E+01
 21
1.47499996E+02
  0
LINE
  8
0
 62
7
 10
5.99999809E+01
 20
1.46941452E+02
 11
5.99999809E+01
 21
1.47500000E+02
  0
LINE
  8
0
 62
7
 10
6.54999657E+01
 20
1.22500000E+02
 11
6.39999657E+01
 21
1.22500000E+02
  0
LINE
  8
0
 62
7
 10
2.79999886E+01
 20
1.44000000E+02
 11
2.14999886E+01
 21
1.44000000E+02
  0
LINE
  8
0
 62
7
 10
2.79999886E+01
 20
1.31000000E+02
 11
4.99998856E+00
 21
1.31000000E+02
  0
LINE
  8
0
 62
7
 10
2.79999886E+01
 20
1.40000015E+02
 11
1.99999886E+01
 21
1.40000015E+02
  0
LINE
  8
0
  6
CENTER
 62
2
 10
-9.90000038E+01
 20
1.34800049E+02
 11
-9.90000038E+01
 21
1.49952652E+02
  0
LINE
  8
0
 62
7
 10
-1.52626270E+02
 20
1.11999992E+02
 11
-1.40000004E+02
 21
1.11999992E+02
  0
LINE
  8
0
 62
7
 10
-1.52626270E+02
 20
8.90000076E+01
 11
-1.40000004E+02
 21
8.90000076E+01
  0
LINE
  8
0
 62
7
 10
-1.47738361E+02
 20
1.00500000E+02
 11
-1.40000004E+02
 21
1.00500000E+02
  0
LINE
  8
0
 62
7
 10
-1.53999988E+02
 20
1.11500002E+02
 11
-1.52626267E+02
 21
1.11999996E+02
  0
LINE
  8
0
 62
7
 10
-1.53999989E+02
 20
8.94999771E+01
 11
-1.53999989E+02
 21
1.11500023E+02
  0
LINE
  8
0
 62
7
 10
-1.94000004E+02
 20
1.10000046E+02
 11
-1.94000004E+02
 21
9.09999542E+01
  0
LINE
  8
0
 62
7
 10
-1.56999989E+02
 20
1.11500023E+02
 11
-1.56999989E+02
 21
8.94999847E+01
  0
LINE
  8
0
 62
7
 10
-1.92500034E+02
 20
8.94999771E+01
 11
-1.83000034E+02
 21
8.94999771E+01
  0
LINE
  8
0
 62
7
 10
-1.92500004E+02
 20
1.11500023E+02
 11
-1.92500004E+02
 21
8.94999847E+01
  0
LINE
  8
0
 62
7
 10
-1.94000080E+02
 20
9.10000158E+01
 11
-1.92500067E+02
 21
8.95000035E+01
  0
LINE
  8
0
 62
2
 10
-1.93320072E+02
 20
9.03199921E+01
 11
-1.83000034E+02
 21
9.03199921E+01
  0
LINE
  8
0
 62
2
 10
-1.93320072E+02
 20
1.10680008E+02
 11
-1.83000034E+02
 21
1.10680008E+02
  0
LINE
  8
0
 62
7
 10
-1.94000042E+02
 20
1.09999966E+02
 11
-1.92500024E+02
 21
1.11499984E+02
  0
LINE
  8
0
 62
7
 10
-1.92500034E+02
 20
1.11500023E+02
 11
-1.83000034E+02
 21
1.11500023E+02
  0
LINE
  8
0
 62
7
 10
-1.53999978E+02
 20
8.94999891E+01
 11
-1.52626271E+02
 21
8.90000008E+01
  0
LINE
  8
0
 62
7
 10
-1.56999989E+02
 20
1.10680008E+02
 11
-1.53999989E+02
 21
1.10680008E+02
  0
LINE
  8
0
 62
7
 10
-1.56999989E+02
 20
9.03199921E+01
 11
-1.53999989E+02
 21
9.03199921E+01
  0
ARC
  8
0
 62
7
 10
-1.39500019E+02
 20
8.15000000E+01
 40
5.00000000E-01
 50
1.79999977E+02
 51
2.69999974E+02
  0
ARC
  8
0
 62
7
 10
-1.18500019E+02
 20
5.46197205E+01
 40
5.00000000E-01
 50
1.79999977E+02
 51
2.68999679E+02
  0
ARC
  8
0
 62
7
 10
-1.20500019E+02
 20
7.89999924E+01
 40
5.00000000E-01
 50
1.79999977E+02
 51
2.69999974E+02
  0
ARC
  8
0
 62
7
 10
-1.34500004E+02
 20
7.99717331E+01
 40
5.00000000E-01
 50
1.79999977E+02
 51
2.67999192E+02
  0
ARC
  8
0
 62
7
 10
6.34999962E+01
 20
5.46197205E+01
 40
5.00000000E-01
 50
2.71000347E+02
 51
5.46415133E-05
  0
ARC
  8
0
 62
7
 10
6.54999886E+01
 20
7.89999924E+01
 40
5.00000000E-01
 50
2.70000073E+02
 51
5.46415133E-05
  0
ARC
  8
0
 62
7
 10
6.54999886E+01
 20
1.22000000E+02
 40
5.00000000E-01
 50
5.46415133E-05
 51
9.00000369E+01
  0
ARC
  8
0
 62
7
 10
-1.39500019E+02
 20
1.19500000E+02
 40
5.00000000E-01
 50
8.99999818E+01
 51
1.79999964E+02
  0
ARC
  8
0
 62
7
 10
-1.34500004E+02
 20
1.21028259E+02
 40
5.00000000E-01
 50
9.20007356E+01
 51
1.79999964E+02
  0
ARC
  8
0
 62
7
 10
-1.20500019E+02
 20
1.22000000E+02
 40
5.00000000E-01
 50
8.99999818E+01
 51
1.79999964E+02
  0
ARC
  8
0
 62
7
 10
6.34999962E+01
 20
1.46380280E+02
 40
5.00000000E-01
 50
3.59999891E+02
 51
8.89995981E+01
  0
ARC
  8
0
 62
7
 10
-1.18500019E+02
 20
1.46380280E+02
 40
5.00000000E-01
 50
9.10002493E+01
 51
1.79999964E+02
  0
POLYLINE
  8
0
 62
7
 66
1
  0
VERTEX
  8
0
 62
7
 10
-1.47738361E+02
 20
1.11999992E+02
  0
VERTEX
  8
0
 62
7
 10
-1.48176510E+02
 20
1.11976845E+02
  0
VERTEX
  8
0
 62
7
 10
-1.48611131E+02
 20
1.11907588E+02
  0
VERTEX
  8
0
 62
7
 10
-1.49038725E+02
 20
1.11792779E+02
  0
VERTEX
  8
0
 62
7
 10
-1.49455849E+02
 20
1.11633343E+02
  0
VERTEX
  8
0
 62
7
 10
-1.49859145E+02
 20
1.11430564E+02
  0
VERTEX
  8
0
 62
7
 10
-1.50245366E+02
 20
1.11186074E+02
  0
VERTEX
  8
0
 62
7
 10
-1.50611402E+02
 20
1.10901842E+02
  0
VERTEX
  8
0
 62
7
 10
-1.50954306E+02
 20
1.10580155E+02
  0
VERTEX
  8
0
 62
7
 10
-1.51271316E+02
 20
1.10223605E+02
  0
VERTEX
  8
0
 62
7
 10
-1.51559882E+02
 20
1.09835062E+02
  0
VERTEX
  8
0
 62
7
 10
-1.51817679E+02
 20
1.09417653E+02
  0
VERTEX
  8
0
 62
7
 10
-1.52042632E+02
 20
1.08974741E+02
  0
VERTEX
  8
0
 62
7
 10
-1.52232929E+02
 20
1.08509891E+02
  0
VERTEX
  8
0
 62
7
 10
-1.52387039E+02
 20
1.08026845E+02
  0
VERTEX
  8
0
 62
7
 10
-1.52503720E+02
 20
1.07529494E+02
  0
VERTEX
  8
0
 62
7
 10
-1.52582033E+02
 20
1.07021840E+02
  0
VERTEX
  8
0
 62
7
 10
-1.52621348E+02
 20
1.06507972E+02
  0
VERTEX
  8
0
 62
7
 10
-1.52621348E+02
 20
1.05992028E+02
  0
VERTEX
  8
0
 62
7
 10
-1.52582033E+02
 20
1.05478160E+02
  0
VERTEX
  8
0
 62
7
 10
-1.52503720E+02
 20
1.04970506E+02
  0
VERTEX
  8
0
 62
7
 10
-1.52387039E+02
 20
1.04473155E+02
  0
VERTEX
  8
0
 62
7
 10
-1.52232929E+02
 20
1.03990109E+02
  0
VERTEX
  8
0
 62
7
 10
-1.52042632E+02
 20
1.03525259E+02
  0
VERTEX
  8
0
 62
7
 10
-1.51817679E+02
 20
1.03082347E+02
  0
VERTEX
  8
0
 62
7
 10
-1.51559882E+02
 20
1.02664938E+02
  0
VERTEX
  8
0
 62
7
 10
-1.51271316E+02
 20
1.02276395E+02
  0
VERTEX
  8
0
 62
7
 10
-1.50954306E+02
 20
1.01919845E+02
  0
VERTEX
  8
0
 62
7
 10
-1.50611402E+02
 20
1.01598158E+02
  0
VERTEX
  8
0
 62
7
 10
-1.50245366E+02
 20
1.01313926E+02
  0
VERTEX
  8
0
 62
7
 10
-1.49859145E+02
 20
1.01069436E+02
  0
VERTEX
  8
0
 62
7
 10
-1.49455849E+02
 20
1.00866657E+02
  0
VERTEX
  8
0
 62
7
 10
-1.49038725E+02
 20
1.00707221E+02
  0
VERTEX
  8
0
 62
7
 10
-1.48611131E+02
 20
1.00592412E+02
  0
VERTEX
  8
0
 62
7
 10
-1.48176510E+02
 20
1.00523155E+02
  0
VERTEX
  8
0
 62
7
 10
-1.47738361E+02
 20
1.00500008E+02
  0
SEQEND
  8
0
  0
POLYLINE
  8
0
 62
7
 66
1
  0
VERTEX
  8
0
 62
7
 10
-1.47738361E+02
 20
1.00500004E+02
  0
VERTEX
  8
0
 62
7
 10
-1.48176510E+02
 20
1.00476856E+02
  0
VERTEX
  8
0
 62
7
 10
-1.48611131E+02
 20
1.00407599E+02
  0
VERTEX
  8
0
 62
7
 10
-1.49038725E+02
 20
1.00292790E+02
  0
VERTEX
  8
0
 62
7
 10
-1.49455849E+02
 20
1.00133354E+02
  0
VERTEX
  8
0
 62
7
 10
-1.49859145E+02
 20
9.99305744E+01
  0
VERTEX
  8
0
 62
7
 10
-1.50245366E+02
 20
9.96860838E+01
  0
VERTEX
  8
0
 62
7
 10
-1.50611402E+02
 20
9.94018508E+01
  0
VERTEX
  8
0
 62
7
 10
-1.50954306E+02
 20
9.90801638E+01
  0
VERTEX
  8
0
 62
7
 10
-1.51271316E+02
 20
9.87236129E+01
  0
VERTEX
  8
0
 62
7
 10
-1.51559882E+02
 20
9.83350687E+01
  0
VERTEX
  8
0
 62
7
 10
-1.51817679E+02
 20
9.79176597E+01
  0
VERTEX
  8
0
 62
7
 10
-1.52042632E+02
 20
9.74747466E+01
  0
VERTEX
  8
0
 62
7
 10
-1.52232929E+02
 20
9.70098954E+01
  0
VERTEX
  8
0
 62
7
 10
-1.52387039E+02
 20
9.65268489E+01
  0
VERTEX
  8
0
 62
7
 10
-1.52503720E+02
 20
9.60294962E+01
  0
VERTEX
  8
0
 62
7
 10
-1.52582033E+02
 20
9.55218418E+01
  0
VERTEX
  8
0
 62
7
 10
-1.52621348E+02
 20
9.50079729E+01
  0
VERTEX
  8
0
 62
7
 10
-1.52621348E+02
 20
9.44920270E+01
  0
VERTEX
  8
0
 62
7
 10
-1.52582033E+02
 20
9.39781582E+01
  0
VERTEX
  8
0
 62
7
 10
-1.52503720E+02
 20
9.34705038E+01
  0
VERTEX
  8
0
 62
7
 10
-1.52387039E+02
 20
9.29731511E+01
  0
VERTEX
  8
0
 62
7
 10
-1.52232929E+02
 20
9.24901046E+01
  0
VERTEX
  8
0
 62
7
 10
-1.52042632E+02
 20
9.20252534E+01
  0
VERTEX
  8
0
 62
7
 10
-1.51817679E+02
 20
9.15823403E+01
  0
VERTEX
  8
0
 62
7
 10
-1.51559882E+02
 20
9.11649313E+01
  0
VERTEX
  8
0
 62
7
 10
-1.51271316E+02
 20
9.07763871E+01
  0
VERTEX
  8
0
 62
7
 10
-1.50954306E+02
 20
9.04198362E+01
  0
VERTEX
  8
0
 62
7
 10
-1.50611402E+02
 20
9.00981492E+01
  0
VERTEX
  8
0
 62
7
 10
-1.50245366E+02
 20
8.98139162E+01
  0
VERTEX
  8
0
 62
7
 10
-1.49859145E+02
 20
8.95694256E+01
  0
VERTEX
  8
0
 62
7
 10
-1.49455849E+02
 20
8.93666459E+01
  0
VERTEX
  8
0
 62
7
 10
-1.49038725E+02
 20
8.92072099E+01
  0
VERTEX
  8
0
 62
7
 10
-1.48611131E+02
 20
8.90924011E+01
  0
VERTEX
  8
0
 62
7
 10
-1.48176510E+02
 20
8.90231440E+01
  0
VERTEX
  8
0
 62
7
 10
-1.47738361E+02
 20
8.89999962E+01
  0
SEQEND
  8
0
  0
ARC
  8
0
 62
4
 10
-1.74437432E+02
 20
1.14220553E+02
 40
8.56342793E+00
 50
1.46410665E+02
 51
2.13589318E+02
  0
ARC
  8
0
 62
4
 10
-1.53945234E+02
 20
1.00482943E+02
 40
2.90548000E+01
 50
1.61955287E+02
 51
1.98044695E+02
  0
ARC
  8
0
 62
4
 10
-1.74437432E+02
 20
8.67453331E+01
 40
8.56342793E+00
 50
1.46410624E+02
 51
2.13589277E+02
  0
ARC
  8
0
 62
4
 10
-1.78562637E+02
 20
1.14220553E+02
 40
8.56342793E+00
 50
3.26410605E+02
 51
3.35892584E+01
  0
ARC
  8
0
 62
4
 10
-1.99054829E+02
 20
1.00482943E+02
 40
2.90548000E+01
 50
3.41955269E+02
 51
1.80446768E+01
  0
ARC
  8
0
 62
4
 10
-1.78562637E+02
 20
8.67453331E+01
 40
8.56342793E+00
 50
3.26410646E+02
 51
3.35892994E+01
  0
LINE
  8
0
 62
4
 10
-1.81570972E+02
 20
1.09482943E+02
 11
-1.71429096E+02
 21
1.09482943E+02
  0
LINE
  8
0
 62
4
 10
-1.81570972E+02
 20
9.14829430E+01
 11
-1.71429096E+02
 21
9.14829430E+01
  0
LINE
  8
0
 62
4
 10
-1.71429114E+02
 20
1.18958119E+02
 11
-1.70000042E+02
 21
1.16482931E+02
  0
LINE
  8
0
 62
4
 10
-1.82999997E+02
 20
8.44829893E+01
 11
-1.81570943E+02
 21
8.20077994E+01
  0
LINE
  8
0
 62
4
 10
-1.71429070E+02
 20
8.20077861E+01
 11
-1.70000023E+02
 21
8.44829145E+01
  0
LINE
  8
0
 62
4
 10
-1.83000051E+02
 20
1.16482946E+02
 11
-1.81570967E+02
 21
1.18958163E+02
  0
LINE
  8
0
 62
4
 10
-1.70000034E+02
 20
1.16482947E+02
 11
-1.70000034E+02
 21
8.44829430E+01
  0
LINE
  8
0
 62
4
 10
-1.83000034E+02
 20
1.16482947E+02
 11
-1.83000034E+02
 21
8.44829430E+01
  0
LINE
  8
0
 62
4
 10
-1.81570972E+02
 20
1.18958167E+02
 11
-1.71429096E+02
 21
1.18958167E+02
  0
LINE
  8
0
 62
4
 10
-1.81570972E+02
 20
8.20077251E+01
 11
-1.71429096E+02
 21
8.20077251E+01
  0
LINE
  8
0
 62
2
 10
-1.70000034E+02
 20
1.10680008E+02
 11
-1.56999989E+02
 21
1.10680008E+02
  0
LINE
  8
0
 62
7
 10
-1.70000034E+02
 20
1.11500023E+02
 11
-1.56999989E+02
 21
1.11500023E+02
  0
LINE
  8
0
 62
7
 10
-1.70000034E+02
 20
8.94999771E+01
 11
-1.56999989E+02
 21
8.94999771E+01
  0
LINE
  8
0
 62
2
 10
-1.70000034E+02
 20
9.03199921E+01
 11
-1.56999989E+02
 21
9.03199921E+01
  0
LINE
  8
0
 62
6
 10
-3.07320394E+01
 20
1.40726428E+02
 11
-2.72679378E+01
 21
1.46726428E+02
  0
LINE
  8
0
 62
4
 10
-4.54999885E+01
 20
1.45226428E+02
 11
-2.81339631E+01
 21
1.45226428E+02
  0
LINE
  8
0
 62
4
 10
-6.89999886E+01
 20
1.44000000E+02
 11
-6.89999886E+01
 21
1.56361392E+02
  0
LINE
  8
0
 62
4
 10
-3.89999886E+01
 20
1.45226428E+02
 11
-3.89999886E+01
 21
1.56361392E+02
  0
LINE
  8
0
 62
4
 10
-7.04999886E+01
 20
1.45197451E+02
 11
-7.04999886E+01
 21
1.44000000E+02
  0
LINE
  8
0
 62
4
 10
-4.54999886E+01
 20
1.46330009E+02
 11
-4.54999886E+01
 21
1.44000000E+02
  0
LINE
  8
0
  6
CENTER
 62
6
 10
-4.93499886E+01
 20
1.48943921E+02
 11
-5.86499886E+01
 21
1.48943921E+02
  0
LINE
  8
0
  6
CENTER
 62
6
 10
-5.39999886E+01
 20
1.53593921E+02
 11
-5.39999886E+01
 21
1.44293921E+02
  0
LINE
  8
0
  6
CENTER
 62
6
 10
-5.79253917E+01
 20
1.52189064E+02
 11
-6.50745854E+01
 21
1.52189064E+02
  0
LINE
  8
0
  6
CENTER
 62
6
 10
-6.14999886E+01
 20
1.55763661E+02
 11
-6.14999886E+01
 21
1.48614467E+02
  0
LINE
  8
0
  6
CENTER
 62
6
 10
-4.16999886E+01
 20
1.52189064E+02
 11
-5.12999886E+01
 21
1.52189064E+02
  0
LINE
  8
0
  6
CENTER
 62
6
 10
-4.64999886E+01
 20
1.56989064E+02
 11
-4.64999886E+01
 21
1.47389064E+02
  0
LINE
  8
0
 62
4
 10
-6.89999886E+01
 20
1.56361392E+02
 11
-3.89999886E+01
 21
1.56361392E+02
  0
LINE
  8
0
 62
4
 10
-6.89999886E+01
 20
1.46718680E+02
 11
-5.72713774E+01
 21
1.46718680E+02
  0
LINE
  8
0
 62
4
 10
-6.89999886E+01
 20
1.46330009E+02
 11
-5.68957454E+01
 21
1.46330009E+02
  0
LINE
  8
0
 62
4
 10
-6.89999886E+01
 20
1.46330009E+02
 11
-7.04999886E+01
 21
1.45197451E+02
  0
LINE
  8
0
 62
4
 10
-5.81499886E+01
 20
1.49086271E+02
 11
-5.81499886E+01
 21
1.49745579E+02
  0
POLYLINE
  8
0
 62
4
 66
1
  0
VERTEX
  8
0
 62
4
 10
-5.81499886E+01
 20
1.49086271E+02
  0
VERTEX
  8
0
 62
4
 10
-5.81332819E+01
 20
1.48741356E+02
  0
VERTEX
  8
0
 62
4
 10
-5.80832964E+01
 20
1.48399217E+02
  0
VERTEX
  8
0
 62
4
 10
-5.80004345E+01
 20
1.48062611E+02
  0
VERTEX
  8
0
 62
4
 10
-5.78853633E+01
 20
1.47734246E+02
  0
VERTEX
  8
0
 62
4
 10
-5.77390094E+01
 20
1.47416768E+02
  0
VERTEX
  8
0
 62
4
 10
-5.75625511E+01
 20
1.47112731E+02
  0
VERTEX
  8
0
 62
4
 10
-5.73574091E+01
 20
1.46824583E+02
  0
VERTEX
  8
0
 62
4
 10
-5.71252352E+01
 20
1.46554646E+02
  0
VERTEX
  8
0
 62
4
 10
-5.68678986E+01
 20
1.46305092E+02
  0
VERTEX
  8
0
 62
4
 10
-5.65874713E+01
 20
1.46077930E+02
  0
VERTEX
  8
0
 62
4
 10
-5.62862111E+01
 20
1.45874989E+02
  0
VERTEX
  8
0
 62
4
 10
-5.59665436E+01
 20
1.45697904E+02
  0
VERTEX
  8
0
 62
4
 10
-5.56310425E+01
 20
1.45548100E+02
  0
VERTEX
  8
0
 62
4
 10
-5.52824091E+01
 20
1.45426783E+02
  0
VERTEX
  8
0
 62
4
 10
-5.49234505E+01
 20
1.45334931E+02
  0
VERTEX
  8
0
 62
4
 10
-5.45570567E+01
 20
1.45273282E+02
  0
VERTEX
  8
0
 62
4
 10
-5.41861777E+01
 20
1.45242332E+02
  0
VERTEX
  8
0
 62
4
 10
-5.38137996E+01
 20
1.45242332E+02
  0
VERTEX
  8
0
 62
4
 10
-5.34429206E+01
 20
1.45273282E+02
  0
VERTEX
  8
0
 62
4
 10
-5.30765267E+01
 20
1.45334931E+02
  0
VERTEX
  8
0
 62
4
 10
-5.27175681E+01
 20
1.45426783E+02
  0
VERTEX
  8
0
 62
4
 10
-5.23689347E+01
 20
1.45548100E+02
  0
VERTEX
  8
0
 62
4
 10
-5.20334337E+01
 20
1.45697904E+02
  0
VERTEX
  8
0
 62
4
 10
-5.17137661E+01
 20
1.45874989E+02
  0
VERTEX
  8
0
 62
4
 10
-5.14125059E+01
 20
1.46077930E+02
  0
VERTEX
  8
0
 62
4
 10
-5.11320786E+01
 20
1.46305092E+02
  0
VERTEX
  8
0
 62
4
 10
-5.08747420E+01
 20
1.46554646E+02
  0
VERTEX
  8
0
 62
4
 10
-5.06425681E+01
 20
1.46824583E+02
  0
VERTEX
  8
0
 62
4
 10
-5.04374261E+01
 20
1.47112730E+02
  0
VERTEX
  8
0
 62
4
 10
-5.02609678E+01
 20
1.47416767E+02
  0
VERTEX
  8
0
 62
4
 10
-5.01146139E+01
 20
1.47734246E+02
  0
VERTEX
  8
0
 62
4
 10
-4.99995427E+01
 20
1.48062611E+02
  0
VERTEX
  8
0
 62
4
 10
-4.99166808E+01
 20
1.48399217E+02
  0
VERTEX
  8
0
 62
4
 10
-4.98666953E+01
 20
1.48741356E+02
  0
VERTEX
  8
0
 62
4
 10
-4.98499886E+01
 20
1.49086271E+02
  0
SEQEND
  8
0
  0
POLYLINE
  8
0
 62
4
 66
1
  0
VERTEX
  8
0
 62
4
 10
-5.81499886E+01
 20
1.49745579E+02
  0
VERTEX
  8
0
 62
4
 10
-5.81341966E+01
 20
1.49410220E+02
  0
VERTEX
  8
0
 62
4
 10
-5.80869408E+01
 20
1.49077413E+02
  0
VERTEX
  8
0
 62
4
 10
-5.80085808E+01
 20
1.48749692E+02
  0
VERTEX
  8
0
 62
4
 10
-5.78997130E+01
 20
1.48429549E+02
  0
VERTEX
  8
0
 62
4
 10
-5.77611659E+01
 20
1.48119423E+02
  0
VERTEX
  8
0
 62
4
 10
-5.75939940E+01
 20
1.47821673E+02
  0
VERTEX
  8
0
 62
4
 10
-5.73994696E+01
 20
1.47538564E+02
  0
VERTEX
  8
0
 62
4
 10
-5.71790730E+01
 20
1.47272252E+02
  0
VERTEX
  8
0
 62
4
 10
-5.69344818E+01
 20
1.47024764E+02
  0
VERTEX
  8
0
 62
4
 10
-5.66675572E+01
 20
1.46797983E+02
  0
VERTEX
  8
0
 62
4
 10
-5.63803308E+01
 20
1.46593635E+02
  0
VERTEX
  8
0
 62
4
 10
-5.60749886E+01
 20
1.46413275E+02
  0
VERTEX
  8
0
 62
4
 10
-5.57538544E+01
 20
1.46258276E+02
  0
VERTEX
  8
0
 62
4
 10
-5.54193722E+01
 20
1.46129818E+02
  0
VERTEX
  8
0
 62
4
 10
-5.50740876E+01
 20
1.46028877E+02
  0
VERTEX
  8
0
 62
4
 10
-5.47206285E+01
 20
1.45956223E+02
  0
VERTEX
  8
0
 62
4
 10
-5.43616849E+01
 20
1.45912408E+02
  0
VERTEX
  8
0
 62
4
 10
-5.39999886E+01
 20
1.45897766E+02
  0
VERTEX
  8
0
 62
4
 10
-5.36382923E+01
 20
1.45912408E+02
  0
VERTEX
  8
0
 62
4
 10
-5.32793487E+01
 20
1.45956223E+02
  0
VERTEX
  8
0
 62
4
 10
-5.29258896E+01
 20
1.46028877E+02
  0
VERTEX
  8
0
 62
4
 10
-5.25806050E+01
 20
1.46129818E+02
  0
VERTEX
  8
0
 62
4
 10
-5.22461228E+01
 20
1.46258276E+02
  0
VERTEX
  8
0
 62
4
 10
-5.19249886E+01
 20
1.46413275E+02
  0
VERTEX
  8
0
 62
4
 10
-5.16196464E+01
 20
1.46593635E+02
  0
VERTEX
  8
0
 62
4
 10
-5.13324200E+01
 20
1.46797983E+02
  0
VERTEX
  8
0
 62
4
 10
-5.10654955E+01
 20
1.47024764E+02
  0
VERTEX
  8
0
 62
4
 10
-5.08209042E+01
 20
1.47272252E+02
  0
VERTEX
  8
0
 62
4
 10
-5.06005076E+01
 20
1.47538564E+02
  0
VERTEX
  8
0
 62
4
 10
-5.04059832E+01
 20
1.47821672E+02
  0
VERTEX
  8
0
 62
4
 10
-5.02388113E+01
 20
1.48119423E+02
  0
VERTEX
  8
0
 62
4
 10
-5.01002642E+01
 20
1.48429549E+02
  0
VERTEX
  8
0
 62
4
 10
-4.99913964E+01
 20
1.48749692E+02
  0
VERTEX
  8
0
 62
4
 10
-4.99130364E+01
 20
1.49077413E+02
  0
VERTEX
  8
0
 62
4
 10
-4.98657806E+01
 20
1.49410220E+02
  0
VERTEX
  8
0
 62
4
 10
-4.98499886E+01
 20
1.49745579E+02
  0
VERTEX
  8
0
 62
4
 10
-4.98657806E+01
 20
1.50080938E+02
  0
VERTEX
  8
0
 62
4
 10
-4.99130364E+01
 20
1.50413745E+02
  0
VERTEX
  8
0
 62
4
 10
-4.99913964E+01
 20
1.50741466E+02
  0
VERTEX
  8
0
 62
4
 10
-5.01002642E+01
 20
1.51061609E+02
  0
VERTEX
  8
0
 62
4
 10
-5.02388113E+01
 20
1.51371735E+02
  0
VERTEX
  8
0
 62
4
 10
-5.04059832E+01
 20
1.51669485E+02
  0
VERTEX
  8
0
 62
4
 10
-5.06005076E+01
 20
1.51952594E+02
  0
VERTEX
  8
0
 62
4
 10
-5.08209042E+01
 20
1.52218906E+02
  0
VERTEX
  8
0
 62
4
 10
-5.10654955E+01
 20
1.52466394E+02
  0
VERTEX
  8
0
 62
4
 10
-5.13324200E+01
 20
1.52693175E+02
  0
VERTEX
  8
0
 62
4
 10
-5.16196464E+01
 20
1.52897523E+02
  0
VERTEX
  8
0
 62
4
 10
-5.19249886E+01
 20
1.53077883E+02
  0
VERTEX
  8
0
 62
4
 10
-5.22461228E+01
 20
1.53232882E+02
  0
VERTEX
  8
0
 62
4
 10
-5.25806050E+01
 20
1.53361340E+02
  0
VERTEX
  8
0
 62
4
 10
-5.29258896E+01
 20
1.53462281E+02
  0
VERTEX
  8
0
 62
4
 10
-5.32793487E+01
 20
1.53534935E+02
  0
VERTEX
  8
0
 62
4
 10
-5.36382923E+01
 20
1.53578750E+02
  0
VERTEX
  8
0
 62
4
 10
-5.39999886E+01
 20
1.53593392E+02
  0
VERTEX
  8
0
 62
4
 10
-5.43616849E+01
 20
1.53578750E+02
  0
VERTEX
  8
0
 62
4
 10
-5.47206285E+01
 20
1.53534935E+02
  0
VERTEX
  8
0
 62
4
 10
-5.50740876E+01
 20
1.53462281E+02
  0
VERTEX
  8
0
 62
4
 10
-5.54193722E+01
 20
1.53361340E+02
  0
VERTEX
  8
0
 62
4
 10
-5.57538544E+01
 20
1.53232882E+02
  0
VERTEX
  8
0
 62
4
 10
-5.60749886E+01
 20
1.53077883E+02
  0
VERTEX
  8
0
 62
4
 10
-5.63803308E+01
 20
1.52897523E+02
  0
VERTEX
  8
0
 62
4
 10
-5.66675572E+01
 20
1.52693175E+02
  0
VERTEX
  8
0
 62
4
 10
-5.69344817E+01
 20
1.52466394E+02
  0
VERTEX
  8
0
 62
4
 10
-5.71790730E+01
 20
1.52218906E+02
  0
VERTEX
  8
0
 62
4
 10
-5.73994696E+01
 20
1.51952594E+02
  0
VERTEX
  8
0
 62
4
 10
-5.75939940E+01
 20
1.51669486E+02
  0
VERTEX
  8
0
 62
4
 10
-5.77611659E+01
 20
1.51371735E+02
  0
VERTEX
  8
0
 62
4
 10
-5.78997130E+01
 20
1.51061609E+02
  0
VERTEX
  8
0
 62
4
 10
-5.80085808E+01
 20
1.50741466E+02
  0
VERTEX
  8
0
 62
4
 10
-5.80869408E+01
 20
1.50413745E+02
  0
VERTEX
  8
0
 62
4
 10
-5.81341966E+01
 20
1.50080938E+02
  0
VERTEX
  8
0
 62
4
 10
-5.81499886E+01
 20
1.49745579E+02
  0
SEQEND
  8
0
  0
LINE
  8
0
 62
4
 10
-4.98499886E+01
 20
1.49086271E+02
 11
-4.98499886E+01
 21
1.49745579E+02
  0
ARC
  8
0
 62
4
 10
5.36593596E-01
 20
9.11661273E+01
 40
8.02368575E+01
 50
1.31121885E+02
 51
1.34565706E+02
  0
ARC
  8
0
 62
4
 10
-1.08536439E+02
 20
9.11662695E+01
 40
8.02366638E+01
 50
4.54342898E+01
 51
4.88781190E+01
  0
POLYLINE
  8
0
 62
4
 66
1
  0
VERTEX
  8
0
 62
4
 10
-5.02999886E+01
 20
1.52189064E+02
  0
VERTEX
  8
0
 62
4
 10
-5.02846909E+01
 20
1.51873238E+02
  0
VERTEX
  8
0
 62
4
 10
-5.02389211E+01
 20
1.51559955E+02
  0
VERTEX
  8
0
 62
4
 10
-5.01630475E+01
 20
1.51251737E+02
  0
VERTEX
  8
0
 62
4
 10
-5.00576811E+01
 20
1.50951066E+02
  0
VERTEX
  8
0
 62
4
 10
-4.99236703E+01
 20
1.50660362E+02
  0
VERTEX
  8
0
 62
4
 10
-4.97620940E+01
 20
1.50381967E+02
  0
VERTEX
  8
0
 62
4
 10
-4.95742532E+01
 20
1.50118121E+02
  0
VERTEX
  8
0
 62
4
 10
-4.93616602E+01
 20
1.49870949E+02
  0
VERTEX
  8
0
 62
4
 10
-4.91260267E+01
 20
1.49642442E+02
  0
VERTEX
  8
0
 62
4
 10
-4.88692499E+01
 20
1.49434438E+02
  0
VERTEX
  8
0
 62
4
 10
-4.85933972E+01
 20
1.49248613E+02
  0
VERTEX
  8
0
 62
4
 10
-4.83006895E+01
 20
1.49086463E+02
  0
VERTEX
  8
0
 62
4
 10
-4.79934837E+01
 20
1.48949293E+02
  0
VERTEX
  8
0
 62
4
 10
-4.76742532E+01
 20
1.48838208E+02
  0
VERTEX
  8
0
 62
4
 10
-4.73455682E+01
 20
1.48754102E+02
  0
VERTEX
  8
0
 62
4
 10
-4.70100750E+01
 20
1.48697652E+02
  0
VERTEX
  8
0
 62
4
 10
-4.66704750E+01
 20
1.48669313E+02
  0
VERTEX
  8
0
 62
4
 10
-4.63295023E+01
 20
1.48669313E+02
  0
VERTEX
  8
0
 62
4
 10
-4.59899022E+01
 20
1.48697652E+02
  0
VERTEX
  8
0
 62
4
 10
-4.56544091E+01
 20
1.48754102E+02
  0
VERTEX
  8
0
 62
4
 10
-4.53257240E+01
 20
1.48838208E+02
  0
VERTEX
  8
0
 62
4
 10
-4.50064935E+01
 20
1.48949293E+02
  0
VERTEX
  8
0
 62
4
 10
-4.46992877E+01
 20
1.49086463E+02
  0
VERTEX
  8
0
 62
4
 10
-4.44065801E+01
 20
1.49248613E+02
  0
VERTEX
  8
0
 62
4
 10
-4.41307274E+01
 20
1.49434438E+02
  0
VERTEX
  8
0
 62
4
 10
-4.38739505E+01
 20
1.49642442E+02
  0
VERTEX
  8
0
 62
4
 10
-4.36383170E+01
 20
1.49870949E+02
  0
VERTEX
  8
0
 62
4
 10
-4.34257240E+01
 20
1.50118121E+02
  0
VERTEX
  8
0
 62
4
 10
-4.32378832E+01
 20
1.50381967E+02
  0
VERTEX
  8
0
 62
4
 10
-4.30763069E+01
 20
1.50660362E+02
  0
VERTEX
  8
0
 62
4
 10
-4.29422961E+01
 20
1.50951066E+02
  0
VERTEX
  8
0
 62
4
 10
-4.28369297E+01
 20
1.51251737E+02
  0
VERTEX
  8
0
 62
4
 10
-4.27610561E+01
 20
1.51559955E+02
  0
VERTEX
  8
0
 62
4
 10
-4.27152863E+01
 20
1.51873238E+02
  0
VERTEX
  8
0
 62
4
 10
-4.26999886E+01
 20
1.52189064E+02
  0
SEQEND
  8
0
  0
POLYLINE
  8
0
 62
4
 66
1
  0
VERTEX
  8
0
 62
4
 10
-4.88863552E+01
 20
1.55305574E+02
  0
VERTEX
  8
0
 62
4
 10
-4.91368878E+01
 20
1.55100627E+02
  0
VERTEX
  8
0
 62
4
 10
-4.93670362E+01
 20
1.54876068E+02
  0
VERTEX
  8
0
 62
4
 10
-4.95750213E+01
 20
1.54633633E+02
  0
VERTEX
  8
0
 62
4
 10
-4.97592352E+01
 20
1.54375197E+02
  0
VERTEX
  8
0
 62
4
 10
-4.99182540E+01
 20
1.54102758E+02
  0
VERTEX
  8
0
 62
4
 10
-5.00508484E+01
 20
1.53818420E+02
  0
VERTEX
  8
0
 62
4
 10
-5.01559933E+01
 20
1.53524383E+02
  0
VERTEX
  8
0
 62
4
 10
-5.02328760E+01
 20
1.53222919E+02
  0
VERTEX
  8
0
 62
4
 10
-5.02809021E+01
 20
1.52916359E+02
  0
VERTEX
  8
0
 62
4
 10
-5.02997003E+01
 20
1.52607072E+02
  0
VERTEX
  8
0
 62
4
 10
-5.02891254E+01
 20
1.52297450E+02
  0
VERTEX
  8
0
 62
4
 10
-5.02492591E+01
 20
1.51989886E+02
  0
VERTEX
  8
0
 62
4
 10
-5.01804095E+01
 20
1.51686758E+02
  0
VERTEX
  8
0
 62
4
 10
-5.00831090E+01
 20
1.51390408E+02
  0
VERTEX
  8
0
 62
4
 10
-4.99581096E+01
 20
1.51103129E+02
  0
VERTEX
  8
0
 62
4
 10
-4.98063777E+01
 20
1.50827139E+02
  0
VERTEX
  8
0
 62
4
 10
-4.96290862E+01
 20
1.50564574E+02
  0
VERTEX
  8
0
 62
4
 10
-4.94276057E+01
 20
1.50317462E+02
  0
VERTEX
  8
0
 62
4
 10
-4.92034936E+01
 20
1.50087715E+02
  0
VERTEX
  8
0
 62
4
 10
-4.89584824E+01
 20
1.49877107E+02
  0
VERTEX
  8
0
 62
4
 10
-4.86944661E+01
 20
1.49687268E+02
  0
VERTEX
  8
0
 62
4
 10
-4.84134858E+01
 20
1.49519664E+02
  0
VERTEX
  8
0
 62
4
 10
-4.81177134E+01
 20
1.49375592E+02
  0
VERTEX
  8
0
 62
4
 10
-4.78094354E+01
 20
1.49256164E+02
  0
VERTEX
  8
0
 62
4
 10
-4.74910349E+01
 20
1.49162305E+02
  0
VERTEX
  8
0
 62
4
 10
-4.71649733E+01
 20
1.49094740E+02
  0
VERTEX
  8
0
 62
4
 10
-4.68337711E+01
 20
1.49053991E+02
  0
VERTEX
  8
0
 62
4
 10
-4.64999886E+01
 20
1.49040372E+02
  0
VERTEX
  8
0
 62
4
 10
-4.61662061E+01
 20
1.49053991E+02
  0
VERTEX
  8
0
 62
4
 10
-4.58350039E+01
 20
1.49094740E+02
  0
VERTEX
  8
0
 62
4
 10
-4.55089423E+01
 20
1.49162305E+02
  0
VERTEX
  8
0
 62
4
 10
-4.51905418E+01
 20
1.49256164E+02
  0
VERTEX
  8
0
 62
4
 10
-4.48822638E+01
 20
1.49375592E+02
  0
VERTEX
  8
0
 62
4
 10
-4.45864914E+01
 20
1.49519664E+02
  0
VERTEX
  8
0
 62
4
 10
-4.43055111E+01
 20
1.49687268E+02
  0
VERTEX
  8
0
 62
4
 10
-4.40414948E+01
 20
1.49877107E+02
  0
VERTEX
  8
0
 62
4
 10
-4.37964836E+01
 20
1.50087715E+02
  0
VERTEX
  8
0
 62
4
 10
-4.35723715E+01
 20
1.50317462E+02
  0
VERTEX
  8
0
 62
4
 10
-4.33708910E+01
 20
1.50564574E+02
  0
VERTEX
  8
0
 62
4
 10
-4.31935995E+01
 20
1.50827139E+02
  0
VERTEX
  8
0
 62
4
 10
-4.30418676E+01
 20
1.51103129E+02
  0
VERTEX
  8
0
 62
4
 10
-4.29168682E+01
 20
1.51390408E+02
  0
VERTEX
  8
0
 62
4
 10
-4.28195677E+01
 20
1.51686758E+02
  0
VERTEX
  8
0
 62
4
 10
-4.27507181E+01
 20
1.51989886E+02
  0
VERTEX
  8
0
 62
4
 10
-4.27108518E+01
 20
1.52297450E+02
  0
VERTEX
  8
0
 62
4
 10
-4.27002769E+01
 20
1.52607072E+02
  0
VERTEX
  8
0
 62
4
 10
-4.27190751E+01
 20
1.52916359E+02
  0
VERTEX
  8
0
 62
4
 10
-4.27671012E+01
 20
1.53222919E+02
  0
VERTEX
  8
0
 62
4
 10
-4.28439839E+01
 20
1.53524383E+02
  0
VERTEX
  8
0
 62
4
 10
-4.29491288E+01
 20
1.53818420E+02
  0
VERTEX
  8
0
 62
4
 10
-4.30817232E+01
 20
1.54102758E+02
  0
VERTEX
  8
0
 62
4
 10
-4.32407420E+01
 20
1.54375197E+02
  0
VERTEX
  8
0
 62
4
 10
-4.34249559E+01
 20
1.54633633E+02
  0
VERTEX
  8
0
 62
4
 10
-4.36329410E+01
 20
1.54876068E+02
  0
VERTEX
  8
0
 62
4
 10
-4.38630894E+01
 20
1.55100627E+02
  0
VERTEX
  8
0
 62
4
 10
-4.41136220E+01
 20
1.55305574E+02
  0
SEQEND
  8
0
  0
LINE
  8
0
 62
4
 10
-5.02999886E+01
 20
1.52189064E+02
 11
-5.02999886E+01
 21
1.52563671E+02
  0
LINE
  8
0
 62
4
 10
-4.26999886E+01
 20
1.52563671E+02
 11
-4.26999886E+01
 21
1.52189064E+02
  0
LINE
  8
0
 62
4
 10
-4.98999886E+01
 20
1.52563671E+02
 11
-4.98999886E+01
 21
1.53060093E+02
  0
POLYLINE
  8
0
 62
4
 66
1
  0
VERTEX
  8
0
 62
4
 10
-4.98999886E+01
 20
1.52563671E+02
  0
VERTEX
  8
0
 62
4
 10
-4.98863012E+01
 20
1.52281090E+02
  0
VERTEX
  8
0
 62
4
 10
-4.98453492E+01
 20
1.52000784E+02
  0
VERTEX
  8
0
 62
4
 10
-4.97774624E+01
 20
1.51725010E+02
  0
VERTEX
  8
0
 62
4
 10
-4.96831872E+01
 20
1.51455988E+02
  0
VERTEX
  8
0
 62
4
 10
-4.95632828E+01
 20
1.51195885E+02
  0
VERTEX
  8
0
 62
4
 10
-4.94187145E+01
 20
1.50946794E+02
  0
VERTEX
  8
0
 62
4
 10
-4.92506464E+01
 20
1.50710722E+02
  0
VERTEX
  8
0
 62
4
 10
-4.90604316E+01
 20
1.50489568E+02
  0
VERTEX
  8
0
 62
4
 10
-4.88496016E+01
 20
1.50285114E+02
  0
VERTEX
  8
0
 62
4
 10
-4.86198540E+01
 20
1.50099006E+02
  0
VERTEX
  8
0
 62
4
 10
-4.83730384E+01
 20
1.49932741E+02
  0
VERTEX
  8
0
 62
4
 10
-4.81111421E+01
 20
1.49787660E+02
  0
VERTEX
  8
0
 62
4
 10
-4.78362737E+01
 20
1.49664929E+02
  0
VERTEX
  8
0
 62
4
 10
-4.75506464E+01
 20
1.49565537E+02
  0
VERTEX
  8
0
 62
4
 10
-4.72565598E+01
 20
1.49490284E+02
  0
VERTEX
  8
0
 62
4
 10
-4.69563817E+01
 20
1.49439776E+02
  0
VERTEX
  8
0
 62
4
 10
-4.66525290E+01
 20
1.49414420E+02
  0
VERTEX
  8
0
 62
4
 10
-4.63474482E+01
 20
1.49414420E+02
  0
VERTEX
  8
0
 62
4
 10
-4.60435955E+01
 20
1.49439776E+02
  0
VERTEX
  8
0
 62
4
 10
-4.57434174E+01
 20
1.49490284E+02
  0
VERTEX
  8
0
 62
4
 10
-4.54493308E+01
 20
1.49565537E+02
  0
VERTEX
  8
0
 62
4
 10
-4.51637035E+01
 20
1.49664929E+02
  0
VERTEX
  8
0
 62
4
 10
-4.48888352E+01
 20
1.49787660E+02
  0
VERTEX
  8
0
 62
4
 10
-4.46269389E+01
 20
1.49932741E+02
  0
VERTEX
  8
0
 62
4
 10
-4.43801233E+01
 20
1.50099006E+02
  0
VERTEX
  8
0
 62
4
 10
-4.41503756E+01
 20
1.50285114E+02
  0
VERTEX
  8
0
 62
4
 10
-4.39395456E+01
 20
1.50489568E+02
  0
VERTEX
  8
0
 62
4
 10
-4.37493308E+01
 20
1.50710722E+02
  0
VERTEX
  8
0
 62
4
 10
-4.35812627E+01
 20
1.50946794E+02
  0
VERTEX
  8
0
 62
4
 10
-4.34366944E+01
 20
1.51195885E+02
  0
VERTEX
  8
0
 62
4
 10
-4.33167900E+01
 20
1.51455988E+02
  0
VERTEX
  8
0
 62
4
 10
-4.32225149E+01
 20
1.51725010E+02
  0
VERTEX
  8
0
 62
4
 10
-4.31546280E+01
 20
1.52000784E+02
  0
VERTEX
  8
0
 62
4
 10
-4.31136760E+01
 20
1.52281090E+02
  0
VERTEX
  8
0
 62
4
 10
-4.30999886E+01
 20
1.52563671E+02
  0
SEQEND
  8
0
  0
LINE
  8
0
 62
4
 10
-4.30999885E+01
 20
1.52563671E+02
 11
-4.30999885E+01
 21
1.53060093E+02
  0
POLYLINE
  8
0
 62
4
 66
1
  0
VERTEX
  8
0
 62
4
 10
-4.98999886E+01
 20
1.53060093E+02
  0
VERTEX
  8
0
 62
4
 10
-4.98870506E+01
 20
1.52785341E+02
  0
VERTEX
  8
0
 62
4
 10
-4.98483350E+01
 20
1.52512680E+02
  0
VERTEX
  8
0
 62
4
 10
-4.97841364E+01
 20
1.52244185E+02
  0
VERTEX
  8
0
 62
4
 10
-4.96949435E+01
 20
1.51981900E+02
  0
VERTEX
  8
0
 62
4
 10
-4.95814351E+01
 20
1.51727821E+02
  0
VERTEX
  8
0
 62
4
 10
-4.94444750E+01
 20
1.51483880E+02
  0
VERTEX
  8
0
 62
4
 10
-4.92851056E+01
 20
1.51251936E+02
  0
VERTEX
  8
0
 62
4
 10
-4.91045397E+01
 20
1.51033753E+02
  0
VERTEX
  8
0
 62
4
 10
-4.89041517E+01
 20
1.50830992E+02
  0
VERTEX
  8
0
 62
4
 10
-4.86854665E+01
 20
1.50645195E+02
  0
VERTEX
  8
0
 62
4
 10
-4.84501485E+01
 20
1.50477778E+02
  0
VERTEX
  8
0
 62
4
 10
-4.81999886E+01
 20
1.50330013E+02
  0
VERTEX
  8
0
 62
4
 10
-4.79368907E+01
 20
1.50203026E+02
  0
VERTEX
  8
0
 62
4
 10
-4.76628571E+01
 20
1.50097782E+02
  0
VERTEX
  8
0
 62
4
 10
-4.73799734E+01
 20
1.50015084E+02
  0
VERTEX
  8
0
 62
4
 10
-4.70903924E+01
 20
1.49955560E+02
  0
VERTEX
  8
0
 62
4
 10
-4.67963181E+01
 20
1.49919664E+02
  0
VERTEX
  8
0
 62
4
 10
-4.64999886E+01
 20
1.49907668E+02
  0
VERTEX
  8
0
 62
4
 10
-4.62036591E+01
 20
1.49919664E+02
  0
VERTEX
  8
0
 62
4
 10
-4.59095848E+01
 20
1.49955560E+02
  0
VERTEX
  8
0
 62
4
 10
-4.56200038E+01
 20
1.50015084E+02
  0
VERTEX
  8
0
 62
4
 10
-4.53371201E+01
 20
1.50097782E+02
  0
VERTEX
  8
0
 62
4
 10
-4.50630865E+01
 20
1.50203026E+02
  0
VERTEX
  8
0
 62
4
 10
-4.47999886E+01
 20
1.50330013E+02
  0
VERTEX
  8
0
 62
4
 10
-4.45498287E+01
 20
1.50477778E+02
  0
VERTEX
  8
0
 62
4
 10
-4.43145107E+01
 20
1.50645195E+02
  0
VERTEX
  8
0
 62
4
 10
-4.40958255E+01
 20
1.50830992E+02
  0
VERTEX
  8
0
 62
4
 10
-4.38954375E+01
 20
1.51033753E+02
  0
VERTEX
  8
0
 62
4
 10
-4.37148716E+01
 20
1.51251936E+02
  0
VERTEX
  8
0
 62
4
 10
-4.35555022E+01
 20
1.51483880E+02
  0
VERTEX
  8
0
 62
4
 10
-4.34185421E+01
 20
1.51727821E+02
  0
VERTEX
  8
0
 62
4
 10
-4.33050337E+01
 20
1.51981900E+02
  0
VERTEX
  8
0
 62
4
 10
-4.32158408E+01
 20
1.52244185E+02
  0
VERTEX
  8
0
 62
4
 10
-4.31516422E+01
 20
1.52512680E+02
  0
VERTEX
  8
0
 62
4
 10
-4.31129266E+01
 20
1.52785341E+02
  0
VERTEX
  8
0
 62
4
 10
-4.30999886E+01
 20
1.53060093E+02
  0
VERTEX
  8
0
 62
4
 10
-4.31129266E+01
 20
1.53334845E+02
  0
VERTEX
  8
0
 62
4
 10
-4.31516422E+01
 20
1.53607506E+02
  0
VERTEX
  8
0
 62
4
 10
-4.32158408E+01
 20
1.53876001E+02
  0
VERTEX
  8
0
 62
4
 10
-4.33050337E+01
 20
1.54138286E+02
  0
VERTEX
  8
0
 62
4
 10
-4.34185421E+01
 20
1.54392365E+02
  0
VERTEX
  8
0
 62
4
 10
-4.35555022E+01
 20
1.54636306E+02
  0
VERTEX
  8
0
 62
4
 10
-4.37148716E+01
 20
1.54868250E+02
  0
VERTEX
  8
0
 62
4
 10
-4.38954375E+01
 20
1.55086433E+02
  0
VERTEX
  8
0
 62
4
 10
-4.40958255E+01
 20
1.55289194E+02
  0
VERTEX
  8
0
 62
4
 10
-4.43145107E+01
 20
1.55474991E+02
  0
VERTEX
  8
0
 62
4
 10
-4.45498287E+01
 20
1.55642408E+02
  0
VERTEX
  8
0
 62
4
 10
-4.47999886E+01
 20
1.55790173E+02
  0
VERTEX
  8
0
 62
4
 10
-4.50630865E+01
 20
1.55917160E+02
  0
VERTEX
  8
0
 62
4
 10
-4.53371201E+01
 20
1.56022404E+02
  0
VERTEX
  8
0
 62
4
 10
-4.56200038E+01
 20
1.56105102E+02
  0
VERTEX
  8
0
 62
4
 10
-4.59095848E+01
 20
1.56164626E+02
  0
VERTEX
  8
0
 62
4
 10
-4.62036591E+01
 20
1.56200522E+02
  0
VERTEX
  8
0
 62
4
 10
-4.64999886E+01
 20
1.56212518E+02
  0
VERTEX
  8
0
 62
4
 10
-4.67963181E+01
 20
1.56200522E+02
  0
VERTEX
  8
0
 62
4
 10
-4.70903924E+01
 20
1.56164626E+02
  0
VERTEX
  8
0
 62
4
 10
-4.73799734E+01
 20
1.56105102E+02
  0
VERTEX
  8
0
 62
4
 10
-4.76628571E+01
 20
1.56022404E+02
  0
VERTEX
  8
0
 62
4
 10
-4.79368907E+01
 20
1.55917160E+02
  0
VERTEX
  8
0
 62
4
 10
-4.81999886E+01
 20
1.55790173E+02
  0
VERTEX
  8
0
 62
4
 10
-4.84501485E+01
 20
1.55642408E+02
  0
VERTEX
  8
0
 62
4
 10
-4.86854665E+01
 20
1.55474991E+02
  0
VERTEX
  8
0
 62
4
 10
-4.89041517E+01
 20
1.55289194E+02
  0
VERTEX
  8
0
 62
4
 10
-4.91045397E+01
 20
1.55086433E+02
  0
VERTEX
  8
0
 62
4
 10
-4.92851056E+01
 20
1.54868250E+02
  0
VERTEX
  8
0
 62
4
 10
-4.94444750E+01
 20
1.54636306E+02
  0
VERTEX
  8
0
 62
4
 10
-4.95814351E+01
 20
1.54392365E+02
  0
VERTEX
  8
0
 62
4
 10
-4.96949435E+01
 20
1.54138286E+02
  0
VERTEX
  8
0
 62
4
 10
-4.97841364E+01
 20
1.53876001E+02
  0
VERTEX
  8
0
 62
4
 10
-4.98483350E+01
 20
1.53607506E+02
  0
VERTEX
  8
0
 62
4
 10
-4.98870506E+01
 20
1.53334845E+02
  0
VERTEX
  8
0
 62
4
 10
-4.98999886E+01
 20
1.53060093E+02
  0
SEQEND
  8
0
  0
ARC
  8
0
 62
4
 10
7.53028844E+00
 20
9.51395741E+01
 40
7.95040043E+01
 50
1.31098609E+02
 51
1.34573756E+02
  0
ARC
  8
0
 62
4
 10
-1.00530266E+02
 20
9.51395741E+01
 40
7.95040043E+01
 50
4.54262442E+01
 51
4.89013908E+01
  0
LINE
  8
0
 62
4
 10
-5.07285997E+01
 20
1.46718680E+02
 11
-3.89999886E+01
 21
1.46718680E+02
  0
LINE
  8
0
 62
4
 10
-5.11042317E+01
 20
1.46330009E+02
 11
-4.54999886E+01
 21
1.46330009E+02
  0
LINE
  8
0
 62
6
 10
-1.82678767E+01
 20
1.46726428E+02
 11
-2.17319783E+01
 21
1.40726428E+02
  0
LINE
  8
0
 62
4
 10
-9.99992751E+00
 20
1.45226428E+02
 11
-1.91339021E+01
 21
1.45226428E+02
  0
LINE
  8
0
  6
CENTER
 62
6
 10
2.50000725E+01
 20
1.43726428E+02
 11
-2.19999275E+01
 21
1.43726428E+02
  0
LINE
  8
0
 62
4
 10
-9.99992751E+00
 20
1.42226428E+02
 11
-2.08659529E+01
 21
1.42226428E+02
  0
LINE
  8
0
 62
4
 10
2.14999886E+01
 20
1.42248896E+02
 11
1.99999886E+01
 21
1.41122847E+02
  0
LINE
  8
0
 62
4
 10
2.14999886E+01
 20
1.43097380E+02
 11
1.99999886E+01
 21
1.42621274E+02
  0
LINE
  8
0
 62
4
 10
2.14999886E+01
 20
1.45197451E+02
 11
2.14999886E+01
 21
1.42248896E+02
  0
LINE
  8
0
 62
4
 10
1.99999886E+01
 20
1.46330009E+02
 11
2.14999886E+01
 21
1.45197451E+02
  0
LINE
  8
0
 62
4
 10
-1.00000114E+01
 20
1.24976467E+02
 11
-1.00000114E+01
 21
1.56361392E+02
  0
LINE
  8
0
  6
CENTER
 62
6
 10
1.60745854E+01
 20
1.48330616E+02
 11
8.92539167E+00
 21
1.48330616E+02
  0
LINE
  8
0
  6
CENTER
 62
6
 10
1.24999886E+01
 20
1.51905213E+02
 11
1.24999886E+01
 21
1.44756020E+02
  0
LINE
  8
0
 62
4
 10
1.99999886E+01
 20
1.56361392E+02
 11
1.99999886E+01
 21
1.37518159E+02
  0
LINE
  8
0
 62
4
 10
4.99998856E+00
 20
1.24976467E+02
 11
4.99998856E+00
 21
1.56361392E+02
  0
LINE
  8
0
  6
CENTER
 62
6
 10
-1.00000114E+01
 20
1.29159701E+02
 11
-3.00001144E+00
 21
1.29159701E+02
  0
LINE
  8
0
  6
CENTER
 62
6
 10
-6.50001144E+00
 20
1.25659701E+02
 11
-6.50001144E+00
 21
1.32659701E+02
  0
LINE
  8
0
  6
CENTER
 62
6
 10
-2.00001144E+00
 20
1.29159701E+02
 11
4.99998856E+00
 21
1.29159701E+02
  0
LINE
  8
0
  6
CENTER
 62
6
 10
1.49998856E+00
 20
1.25659701E+02
 11
1.49998856E+00
 21
1.32659701E+02
  0
LINE
  8
0
 62
4
 10
-1.00000114E+01
 20
1.56361392E+02
 11
1.99999885E+01
 21
1.56361392E+02
  0
LINE
  8
0
 62
4
 10
-1.00000114E+01
 20
1.24976467E+02
 11
4.99998856E+00
 21
1.24976467E+02
  0
LINE
  8
0
 62
4
 10
-1.00000115E+01
 20
1.52502944E+02
 11
1.99999885E+01
 21
1.52502944E+02
  0
LINE
  8
0
 62
4
 10
-1.00000115E+01
 20
1.49880698E+02
 11
4.99998855E+00
 21
1.49880698E+02
  0
LINE
  8
0
 62
4
 10
-9.00001145E+00
 20
1.36049423E+02
 11
3.99998855E+00
 21
1.36049423E+02
  0
LINE
  8
0
 62
4
 10
4.99998855E+00
 20
1.37518159E+02
 11
1.99999885E+01
 21
1.37518159E+02
  0
LINE
  8
0
 62
4
 10
4.99998855E+00
 20
1.44621881E+02
 11
1.99999885E+01
 21
1.44621881E+02
  0
LINE
  8
0
 62
4
 10
4.99998855E+00
 20
1.44472038E+02
 11
1.99999885E+01
 21
1.44472038E+02
  0
POLYLINE
  8
0
 62
4
 66
1
  0
VERTEX
  8
0
 62
4
 10
1.02499886E+01
 20
1.48330616E+02
  0
VERTEX
  8
0
 62
4
 10
1.02585505E+01
 20
1.48148795E+02
  0
VERTEX
  8
0
 62
4
 10
1.02841712E+01
 20
1.47968357E+02
  0
VERTEX
  8
0
 62
4
 10
1.03266555E+01
 20
1.47790677E+02
  0
VERTEX
  8
0
 62
4
 10
1.03856802E+01
 20
1.47617106E+02
  0
VERTEX
  8
0
 62
4
 10
1.04607961E+01
 20
1.47448965E+02
  0
VERTEX
  8
0
 62
4
 10
1.05514314E+01
 20
1.47287534E+02
  0
VERTEX
  8
0
 62
4
 10
1.06568965E+01
 20
1.47134042E+02
  0
VERTEX
  8
0
 62
4
 10
1.07763886E+01
 20
1.46989656E+02
  0
VERTEX
  8
0
 62
4
 10
1.09089983E+01
 20
1.46855476E+02
  0
VERTEX
  8
0
 62
4
 10
1.10537165E+01
 20
1.46732522E+02
  0
VERTEX
  8
0
 62
4
 10
1.12094416E+01
 20
1.46621731E+02
  0
VERTEX
  8
0
 62
4
 10
1.13749886E+01
 20
1.46523945E+02
  0
VERTEX
  8
0
 62
4
 10
1.15490975E+01
 20
1.46439910E+02
  0
VERTEX
  8
0
 62
4
 10
1.17304433E+01
 20
1.46370263E+02
  0
VERTEX
  8
0
 62
4
 10
1.19176457E+01
 20
1.46315537E+02
  0
VERTEX
  8
0
 62
4
 10
1.21092802E+01
 20
1.46276146E+02
  0
VERTEX
  8
0
 62
4
 10
1.23038882E+01
 20
1.46252391E+02
  0
VERTEX
  8
0
 62
4
 10
1.24999886E+01
 20
1.46244452E+02
  0
VERTEX
  8
0
 62
4
 10
1.26960890E+01
 20
1.46252391E+02
  0
VERTEX
  8
0
 62
4
 10
1.28906970E+01
 20
1.46276146E+02
  0
VERTEX
  8
0
 62
4
 10
1.30823314E+01
 20
1.46315537E+02
  0
VERTEX
  8
0
 62
4
 10
1.32695339E+01
 20
1.46370263E+02
  0
VERTEX
  8
0
 62
4
 10
1.34508797E+01
 20
1.46439910E+02
  0
VERTEX
  8
0
 62
4
 10
1.36249886E+01
 20
1.46523945E+02
  0
VERTEX
  8
0
 62
4
 10
1.37905356E+01
 20
1.46621731E+02
  0
VERTEX
  8
0
 62
4
 10
1.39462607E+01
 20
1.46732522E+02
  0
VERTEX
  8
0
 62
4
 10
1.40909789E+01
 20
1.46855476E+02
  0
VERTEX
  8
0
 62
4
 10
1.42235886E+01
 20
1.46989656E+02
  0
VERTEX
  8
0
 62
4
 10
1.43430807E+01
 20
1.47134042E+02
  0
VERTEX
  8
0
 62
4
 10
1.44485458E+01
 20
1.47287534E+02
  0
VERTEX
  8
0
 62
4
 10
1.45391811E+01
 20
1.47448965E+02
  0
VERTEX
  8
0
 62
4
 10
1.46142970E+01
 20
1.47617106E+02
  0
VERTEX
  8
0
 62
4
 10
1.46733217E+01
 20
1.47790677E+02
  0
VERTEX
  8
0
 62
4
 10
1.47158060E+01
 20
1.47968357E+02
  0
VERTEX
  8
0
 62
4
 10
1.47414267E+01
 20
1.48148795E+02
  0
VERTEX
  8
0
 62
4
 10
1.47499886E+01
 20
1.48330616E+02
  0
VERTEX
  8
0
 62
4
 10
1.47414267E+01
 20
1.48512437E+02
  0
VERTEX
  8
0
 62
4
 10
1.47158060E+01
 20
1.48692875E+02
  0
VERTEX
  8
0
 62
4
 10
1.46733217E+01
 20
1.48870555E+02
  0
VERTEX
  8
0
 62
4
 10
1.46142970E+01
 20
1.49044126E+02
  0
VERTEX
  8
0
 62
4
 10
1.45391811E+01
 20
1.49212267E+02
  0
VERTEX
  8
0
 62
4
 10
1.44485458E+01
 20
1.49373698E+02
  0
VERTEX
  8
0
 62
4
 10
1.43430807E+01
 20
1.49527190E+02
  0
VERTEX
  8
0
 62
4
 10
1.42235886E+01
 20
1.49671576E+02
  0
VERTEX
  8
0
 62
4
 10
1.40909789E+01
 20
1.49805756E+02
  0
VERTEX
  8
0
 62
4
 10
1.39462607E+01
 20
1.49928710E+02
  0
VERTEX
  8
0
 62
4
 10
1.37905356E+01
 20
1.50039501E+02
  0
VERTEX
  8
0
 62
4
 10
1.36249886E+01
 20
1.50137287E+02
  0
VERTEX
  8
0
 62
4
 10
1.34508797E+01
 20
1.50221322E+02
  0
VERTEX
  8
0
 62
4
 10
1.32695339E+01
 20
1.50290969E+02
  0
VERTEX
  8
0
 62
4
 10
1.30823315E+01
 20
1.50345695E+02
  0
VERTEX
  8
0
 62
4
 10
1.28906970E+01
 20
1.50385086E+02
  0
VERTEX
  8
0
 62
4
 10
1.26960890E+01
 20
1.50408841E+02
  0
VERTEX
  8
0
 62
4
 10
1.24999886E+01
 20
1.50416780E+02
  0
VERTEX
  8
0
 62
4
 10
1.23038882E+01
 20
1.50408841E+02
  0
VERTEX
  8
0
 62
4
 10
1.21092802E+01
 20
1.50385086E+02
  0
VERTEX
  8
0
 62
4
 10
1.19176458E+01
 20
1.50345695E+02
  0
VERTEX
  8
0
 62
4
 10
1.17304433E+01
 20
1.50290969E+02
  0
VERTEX
  8
0
 62
4
 10
1.15490975E+01
 20
1.50221322E+02
  0
VERTEX
  8
0
 62
4
 10
1.13749886E+01
 20
1.50137287E+02
  0
VERTEX
  8
0
 62
4
 10
1.12094416E+01
 20
1.50039501E+02
  0
VERTEX
  8
0
 62
4
 10
1.10537165E+01
 20
1.49928710E+02
  0
VERTEX
  8
0
 62
4
 10
1.09089983E+01
 20
1.49805756E+02
  0
VERTEX
  8
0
 62
4
 10
1.07763886E+01
 20
1.49671576E+02
  0
VERTEX
  8
0
 62
4
 10
1.06568965E+01
 20
1.49527190E+02
  0
VERTEX
  8
0
 62
4
 10
1.05514314E+01
 20
1.49373698E+02
  0
VERTEX
  8
0
 62
4
 10
1.04607961E+01
 20
1.49212267E+02
  0
VERTEX
  8
0
 62
4
 10
1.03856802E+01
 20
1.49044126E+02
  0
VERTEX
  8
0
 62
4
 10
1.03266555E+01
 20
1.48870555E+02
  0
VERTEX
  8
0
 62
4
 10
1.02841712E+01
 20
1.48692875E+02
  0
VERTEX
  8
0
 62
4
 10
1.02585505E+01
 20
1.48512437E+02
  0
VERTEX
  8
0
 62
4
 10
1.02499886E+01
 20
1.48330616E+02
  0
SEQEND
  8
0
  0
POLYLINE
  8
0
 62
4
 66
1
  0
VERTEX
  8
0
 62
4
 10
3.49998856E+00
 20
1.29159701E+02
  0
VERTEX
  8
0
 62
4
 10
3.49193715E+00
 20
1.29325925E+02
  0
VERTEX
  8
0
 62
4
 10
3.46784774E+00
 20
1.29490811E+02
  0
VERTEX
  8
0
 62
4
 10
3.42791429E+00
 20
1.29653031E+02
  0
VERTEX
  8
0
 62
4
 10
3.37245831E+00
 20
1.29811279E+02
  0
VERTEX
  8
0
 62
4
 10
3.30192630E+00
 20
1.29964281E+02
  0
VERTEX
  8
0
 62
4
 10
3.21688615E+00
 20
1.30110805E+02
  0
VERTEX
  8
0
 62
4
 10
3.11802256E+00
 20
1.30249671E+02
  0
VERTEX
  8
0
 62
4
 10
3.00613150E+00
 20
1.30379761E+02
  0
VERTEX
  8
0
 62
4
 10
2.88211387E+00
 20
1.30500028E+02
  0
VERTEX
  8
0
 62
4
 10
2.74696818E+00
 20
1.30609504E+02
  0
VERTEX
  8
0
 62
4
 10
2.60178254E+00
 20
1.30707307E+02
  0
VERTEX
  8
0
 62
4
 10
2.44772590E+00
 20
1.30792649E+02
  0
VERTEX
  8
0
 62
4
 10
2.28603864E+00
 20
1.30864844E+02
  0
VERTEX
  8
0
 62
4
 10
2.11802256E+00
 20
1.30923309E+02
  0
VERTEX
  8
0
 62
4
 10
1.94503044E+00
 20
1.30967576E+02
  0
VERTEX
  8
0
 62
4
 10
1.76845511E+00
 20
1.30997286E+02
  0
VERTEX
  8
0
 62
4
 10
1.58971824E+00
 20
1.31012201E+02
  0
VERTEX
  8
0
 62
4
 10
1.41025892E+00
 20
1.31012201E+02
  0
VERTEX
  8
0
 62
4
 10
1.23152205E+00
 20
1.30997286E+02
  0
VERTEX
  8
0
 62
4
 10
1.05494671E+00
 20
1.30967576E+02
  0
VERTEX
  8
0
 62
4
 10
8.81954589E-01
 20
1.30923309E+02
  0
VERTEX
  8
0
 62
4
 10
7.13938514E-01
 20
1.30864844E+02
  0
VERTEX
  8
0
 62
4
 10
5.52251251E-01
 20
1.30792649E+02
  0
VERTEX
  8
0
 62
4
 10
3.98194613E-01
 20
1.30707307E+02
  0
VERTEX
  8
0
 62
4
 10
2.53008971E-01
 20
1.30609504E+02
  0
VERTEX
  8
0
 62
4
 10
1.17863276E-01
 20
1.30500028E+02
  0
VERTEX
  8
0
 62
4
 10
-6.15435926E-03
 20
1.30379761E+02
  0
VERTEX
  8
0
 62
4
 10
-1.18045417E-01
 20
1.30249671E+02
  0
VERTEX
  8
0
 62
4
 10
-2.16909017E-01
 20
1.30110805E+02
  0
VERTEX
  8
0
 62
4
 10
-3.01949167E-01
 20
1.29964281E+02
  0
VERTEX
  8
0
 62
4
 10
-3.72481174E-01
 20
1.29811279E+02
  0
VERTEX
  8
0
 62
4
 10
-4.27937156E-01
 20
1.29653031E+02
  0
VERTEX
  8
0
 62
4
 10
-4.67870614E-01
 20
1.29490811E+02
  0
VERTEX
  8
0
 62
4
 10
-4.91960026E-01
 20
1.29325925E+02
  0
VERTEX
  8
0
 62
4
 10
-5.00011440E-01
 20
1.29159701E+02
  0
SEQEND
  8
0
  0
LINE
  8
0
 62
4
 10
-5.00011444E-01
 20
1.27682824E+02
 11
-5.00011444E-01
 21
1.29159701E+02
  0
LINE
  8
0
 62
4
 10
3.49998856E+00
 20
1.27682824E+02
 11
3.49998856E+00
 21
1.29159701E+02
  0
POLYLINE
  8
0
 62
4
 66
1
  0
VERTEX
  8
0
 62
4
 10
-5.00011440E-01
 20
1.27682824E+02
  0
VERTEX
  8
0
 62
4
 10
-4.92400837E-01
 20
1.27521205E+02
  0
VERTEX
  8
0
 62
4
 10
-4.69626947E-01
 20
1.27360816E+02
  0
VERTEX
  8
0
 62
4
 10
-4.31863094E-01
 20
1.27202878E+02
  0
VERTEX
  8
0
 62
4
 10
-3.79396684E-01
 20
1.27048593E+02
  0
VERTEX
  8
0
 62
4
 10
-3.12627017E-01
 20
1.26899134E+02
  0
VERTEX
  8
0
 62
4
 10
-2.32062251E-01
 20
1.26755640E+02
  0
VERTEX
  8
0
 62
4
 10
-1.38315532E-01
 20
1.26619202E+02
  0
VERTEX
  8
0
 62
4
 10
-3.21003301E-02
 20
1.26490859E+02
  0
VERTEX
  8
0
 62
4
 10
8.57749934E-02
 20
1.26371588E+02
  0
VERTEX
  8
0
 62
4
 10
2.14413336E-01
 20
1.26262296E+02
  0
VERTEX
  8
0
 62
4
 10
3.52835683E-01
 20
1.26163815E+02
  0
VERTEX
  8
0
 62
4
 10
4.99988555E-01
 20
1.26076894E+02
  0
VERTEX
  8
0
 62
4
 10
6.54752031E-01
 20
1.26002196E+02
  0
VERTEX
  8
0
 62
4
 10
8.15948268E-01
 20
1.25940288E+02
  0
VERTEX
  8
0
 62
4
 10
9.82350465E-01
 20
1.25891642E+02
  0
VERTEX
  8
0
 62
4
 10
1.15269220E+00
 20
1.25856628E+02
  0
VERTEX
  8
0
 62
4
 10
1.32567707E+00
 20
1.25835513E+02
  0
VERTEX
  8
0
 62
4
 10
1.49998855E+00
 20
1.25828456E+02
  0
VERTEX
  8
0
 62
4
 10
1.67430004E+00
 20
1.25835513E+02
  0
VERTEX
  8
0
 62
4
 10
1.84728491E+00
 20
1.25856628E+02
  0
VERTEX
  8
0
 62
4
 10
2.01762665E+00
 20
1.25891642E+02
  0
VERTEX
  8
0
 62
4
 10
2.18402884E+00
 20
1.25940288E+02
  0
VERTEX
  8
0
 62
4
 10
2.34522508E+00
 20
1.26002196E+02
  0
VERTEX
  8
0
 62
4
 10
2.49998856E+00
 20
1.26076894E+02
  0
VERTEX
  8
0
 62
4
 10
2.64714143E+00
 20
1.26163815E+02
  0
VERTEX
  8
0
 62
4
 10
2.78556378E+00
 20
1.26262296E+02
  0
VERTEX
  8
0
 62
4
 10
2.91420212E+00
 20
1.26371588E+02
  0
VERTEX
  8
0
 62
4
 10
3.03207744E+00
 20
1.26490859E+02
  0
VERTEX
  8
0
 62
4
 10
3.13829265E+00
 20
1.26619202E+02
  0
VERTEX
  8
0
 62
4
 10
3.23203937E+00
 20
1.26755640E+02
  0
VERTEX
  8
0
 62
4
 10
3.31260413E+00
 20
1.26899134E+02
  0
VERTEX
  8
0
 62
4
 10
3.37937380E+00
 20
1.27048593E+02
  0
VERTEX
  8
0
 62
4
 10
3.43184021E+00
 20
1.27202878E+02
  0
VERTEX
  8
0
 62
4
 10
3.46960407E+00
 20
1.27360816E+02
  0
VERTEX
  8
0
 62
4
 10
3.49237796E+00
 20
1.27521205E+02
  0
VERTEX
  8
0
 62
4
 10
3.49998856E+00
 20
1.27682824E+02
  0
VERTEX
  8
0
 62
4
 10
3.49237796E+00
 20
1.27844443E+02
  0
VERTEX
  8
0
 62
4
 10
3.46960407E+00
 20
1.28004832E+02
  0
VERTEX
  8
0
 62
4
 10
3.43184021E+00
 20
1.28162770E+02
  0
VERTEX
  8
0
 62
4
 10
3.37937380E+00
 20
1.28317055E+02
  0
VERTEX
  8
0
 62
4
 10
3.31260414E+00
 20
1.28466514E+02
  0
VERTEX
  8
0
 62
4
 10
3.23203937E+00
 20
1.28610008E+02
  0
VERTEX
  8
0
 62
4
 10
3.13829265E+00
 20
1.28746446E+02
  0
VERTEX
  8
0
 62
4
 10
3.03207745E+00
 20
1.28874789E+02
  0
VERTEX
  8
0
 62
4
 10
2.91420212E+00
 20
1.28994060E+02
  0
VERTEX
  8
0
 62
4
 10
2.78556378E+00
 20
1.29103352E+02
  0
VERTEX
  8
0
 62
4
 10
2.64714144E+00
 20
1.29201833E+02
  0
VERTEX
  8
0
 62
4
 10
2.49998856E+00
 20
1.29288754E+02
  0
VERTEX
  8
0
 62
4
 10
2.34522509E+00
 20
1.29363452E+02
  0
VERTEX
  8
0
 62
4
 10
2.18402885E+00
 20
1.29425360E+02
  0
VERTEX
  8
0
 62
4
 10
2.01762665E+00
 20
1.29474006E+02
  0
VERTEX
  8
0
 62
4
 10
1.84728492E+00
 20
1.29509020E+02
  0
VERTEX
  8
0
 62
4
 10
1.67430005E+00
 20
1.29530135E+02
  0
VERTEX
  8
0
 62
4
 10
1.49998856E+00
 20
1.29537192E+02
  0
VERTEX
  8
0
 62
4
 10
1.32567708E+00
 20
1.29530135E+02
  0
VERTEX
  8
0
 62
4
 10
1.15269221E+00
 20
1.29509020E+02
  0
VERTEX
  8
0
 62
4
 10
9.82350472E-01
 20
1.29474006E+02
  0
VERTEX
  8
0
 62
4
 10
8.15948275E-01
 20
1.29425360E+02
  0
VERTEX
  8
0
 62
4
 10
6.54752038E-01
 20
1.29363452E+02
  0
VERTEX
  8
0
 62
4
 10
4.99988562E-01
 20
1.29288754E+02
  0
VERTEX
  8
0
 62
4
 10
3.52835689E-01
 20
1.29201833E+02
  0
VERTEX
  8
0
 62
4
 10
2.14413342E-01
 20
1.29103352E+02
  0
VERTEX
  8
0
 62
4
 10
8.57749988E-02
 20
1.28994060E+02
  0
VERTEX
  8
0
 62
4
 10
-3.21003252E-02
 20
1.28874789E+02
  0
VERTEX
  8
0
 62
4
 10
-1.38315528E-01
 20
1.28746446E+02
  0
VERTEX
  8
0
 62
4
 10
-2.32062247E-01
 20
1.28610008E+02
  0
VERTEX
  8
0
 62
4
 10
-3.12627013E-01
 20
1.28466514E+02
  0
VERTEX
  8
0
 62
4
 10
-3.79396681E-01
 20
1.28317055E+02
  0
VERTEX
  8
0
 62
4
 10
-4.31863092E-01
 20
1.28162770E+02
  0
VERTEX
  8
0
 62
4
 10
-4.69626946E-01
 20
1.28004832E+02
  0
VERTEX
  8
0
 62
4
 10
-4.92400836E-01
 20
1.27844443E+02
  0
VERTEX
  8
0
 62
4
 10
-5.00011440E-01
 20
1.27682824E+02
  0
SEQEND
  8
0
  0
POLYLINE
  8
0
 62
6
 66
1
  0
VERTEX
  8
0
 62
6
 10
-1.14400000E-05
 20
1.27682824E+02
  0
VERTEX
  8
0
 62
6
 10
5.69651243E-03
 20
1.27561610E+02
  0
VERTEX
  8
0
 62
6
 10
2.27769296E-02
 20
1.27441318E+02
  0
VERTEX
  8
0
 62
6
 10
5.10998193E-02
 20
1.27322865E+02
  0
VERTEX
  8
0
 62
6
 10
9.04496272E-02
 20
1.27207151E+02
  0
VERTEX
  8
0
 62
6
 10
1.40526877E-01
 20
1.27095057E+02
  0
VERTEX
  8
0
 62
6
 10
2.00950452E-01
 20
1.26987436E+02
  0
VERTEX
  8
0
 62
6
 10
2.71260491E-01
 20
1.26885108E+02
  0
VERTEX
  8
0
 62
6
 10
3.50921892E-01
 20
1.26788851E+02
  0
VERTEX
  8
0
 62
6
 10
4.39328385E-01
 20
1.26699397E+02
  0
VERTEX
  8
0
 62
6
 10
5.35807142E-01
 20
1.26617428E+02
  0
VERTEX
  8
0
 62
6
 10
6.39623902E-01
 20
1.26543567E+02
  0
VERTEX
  8
0
 62
6
 10
7.49988556E-01
 20
1.26478377E+02
  0
VERTEX
  8
0
 62
6
 10
8.66061164E-01
 20
1.26422353E+02
  0
VERTEX
  8
0
 62
6
 10
9.86958341E-01
 20
1.26375922E+02
  0
VERTEX
  8
0
 62
6
 10
1.11175999E+00
 20
1.26339438E+02
  0
VERTEX
  8
0
 62
6
 10
1.23951629E+00
 20
1.26313177E+02
  0
VERTEX
  8
0
 62
6
 10
1.36925494E+00
 20
1.26297341E+02
  0
VERTEX
  8
0
 62
6
 10
1.49998856E+00
 20
1.26292048E+02
  0
VERTEX
  8
0
 62
6
 10
1.63072217E+00
 20
1.26297341E+02
  0
VERTEX
  8
0
 62
6
 10
1.76046082E+00
 20
1.26313177E+02
  0
VERTEX
  8
0
 62
6
 10
1.88821712E+00
 20
1.26339438E+02
  0
VERTEX
  8
0
 62
6
 10
2.01301877E+00
 20
1.26375922E+02
  0
VERTEX
  8
0
 62
6
 10
2.13391595E+00
 20
1.26422353E+02
  0
VERTEX
  8
0
 62
6
 10
2.24998856E+00
 20
1.26478377E+02
  0
VERTEX
  8
0
 62
6
 10
2.36035321E+00
 20
1.26543567E+02
  0
VERTEX
  8
0
 62
6
 10
2.46416997E+00
 20
1.26617428E+02
  0
VERTEX
  8
0
 62
6
 10
2.56064873E+00
 20
1.26699397E+02
  0
VERTEX
  8
0
 62
6
 10
2.64905522E+00
 20
1.26788851E+02
  0
VERTEX
  8
0
 62
6
 10
2.72871662E+00
 20
1.26885108E+02
  0
VERTEX
  8
0
 62
6
 10
2.79902666E+00
 20
1.26987436E+02
  0
VERTEX
  8
0
 62
6
 10
2.85945024E+00
 20
1.27095057E+02
  0
VERTEX
  8
0
 62
6
 10
2.90952749E+00
 20
1.27207151E+02
  0
VERTEX
  8
0
 62
6
 10
2.94887730E+00
 20
1.27322865E+02
  0
VERTEX
  8
0
 62
6
 10
2.97720019E+00
 20
1.27441318E+02
  0
VERTEX
  8
0
 62
6
 10
2.99428061E+00
 20
1.27561610E+02
  0
VERTEX
  8
0
 62
6
 10
2.99998856E+00
 20
1.27682824E+02
  0
VERTEX
  8
0
 62
6
 10
2.99428061E+00
 20
1.27804038E+02
  0
VERTEX
  8
0
 62
6
 10
2.97720019E+00
 20
1.27924330E+02
  0
VERTEX
  8
0
 62
6
 10
2.94887730E+00
 20
1.28042783E+02
  0
VERTEX
  8
0
 62
6
 10
2.90952749E+00
 20
1.28158497E+02
  0
VERTEX
  8
0
 62
6
 10
2.85945024E+00
 20
1.28270591E+02
  0
VERTEX
  8
0
 62
6
 10
2.79902667E+00
 20
1.28378212E+02
  0
VERTEX
  8
0
 62
6
 10
2.72871663E+00
 20
1.28480540E+02
  0
VERTEX
  8
0
 62
6
 10
2.64905523E+00
 20
1.28576797E+02
  0
VERTEX
  8
0
 62
6
 10
2.56064873E+00
 20
1.28666251E+02
  0
VERTEX
  8
0
 62
6
 10
2.46416998E+00
 20
1.28748220E+02
  0
VERTEX
  8
0
 62
6
 10
2.36035322E+00
 20
1.28822081E+02
  0
VERTEX
  8
0
 62
6
 10
2.24998856E+00
 20
1.28887271E+02
  0
VERTEX
  8
0
 62
6
 10
2.13391595E+00
 20
1.28943295E+02
  0
VERTEX
  8
0
 62
6
 10
2.01301878E+00
 20
1.28989726E+02
  0
VERTEX
  8
0
 62
6
 10
1.88821713E+00
 20
1.29026210E+02
  0
VERTEX
  8
0
 62
6
 10
1.76046083E+00
 20
1.29052471E+02
  0
VERTEX
  8
0
 62
6
 10
1.63072218E+00
 20
1.29068307E+02
  0
VERTEX
  8
0
 62
6
 10
1.49998856E+00
 20
1.29073600E+02
  0
VERTEX
  8
0
 62
6
 10
1.36925495E+00
 20
1.29068307E+02
  0
VERTEX
  8
0
 62
6
 10
1.23951630E+00
 20
1.29052471E+02
  0
VERTEX
  8
0
 62
6
 10
1.11175999E+00
 20
1.29026210E+02
  0
VERTEX
  8
0
 62
6
 10
9.86958347E-01
 20
1.28989726E+02
  0
VERTEX
  8
0
 62
6
 10
8.66061169E-01
 20
1.28943295E+02
  0
VERTEX
  8
0
 62
6
 10
7.49988561E-01
 20
1.28887271E+02
  0
VERTEX
  8
0
 62
6
 10
6.39623907E-01
 20
1.28822081E+02
  0
VERTEX
  8
0
 62
6
 10
5.35807147E-01
 20
1.28748220E+02
  0
VERTEX
  8
0
 62
6
 10
4.39328389E-01
 20
1.28666251E+02
  0
VERTEX
  8
0
 62
6
 10
3.50921896E-01
 20
1.28576797E+02
  0
VERTEX
  8
0
 62
6
 10
2.71260494E-01
 20
1.28480540E+02
  0
VERTEX
  8
0
 62
6
 10
2.00950455E-01
 20
1.28378212E+02
  0
VERTEX
  8
0
 62
6
 10
1.40526880E-01
 20
1.28270591E+02
  0
VERTEX
  8
0
 62
6
 10
9.04496292E-02
 20
1.28158497E+02
  0
VERTEX
  8
0
 62
6
 10
5.10998208E-02
 20
1.28042783E+02
  0
VERTEX
  8
0
 62
6
 10
2.27769306E-02
 20
1.27924330E+02
  0
VERTEX
  8
0
 62
6
 10
5.69651293E-03
 20
1.27804038E+02
  0
VERTEX
  8
0
 62
6
 10
-1.14400000E-05
 20
1.27682824E+02
  0
SEQEND
  8
0
  0
LINE
  8
0
 62
4
 10
1.49998856E+00
 20
1.28749086E+02
 11
4.99988556E-01
 21
1.28220591E+02
  0
LINE
  8
0
 62
4
 10
4.99988556E-01
 20
1.28220591E+02
 11
4.99988556E-01
 21
1.27145058E+02
  0
LINE
  8
0
 62
4
 10
4.99988556E-01
 20
1.27145058E+02
 11
1.49998856E+00
 21
1.26607291E+02
  0
LINE
  8
0
 62
4
 10
1.49998856E+00
 20
1.26607291E+02
 11
2.49998856E+00
 21
1.27145058E+02
  0
LINE
  8
0
 62
4
 10
2.49998856E+00
 20
1.27145058E+02
 11
2.49998856E+00
 21
1.28220591E+02
  0
LINE
  8
0
 62
4
 10
2.49998856E+00
 20
1.28220591E+02
 11
1.49998856E+00
 21
1.28749086E+02
  0
LINE
  8
0
 62
4
 10
-5.50001144E+00
 20
1.28220591E+02
 11
-6.50001144E+00
 21
1.28749086E+02
  0
LINE
  8
0
 62
4
 10
-5.50001144E+00
 20
1.27145058E+02
 11
-5.50001144E+00
 21
1.28220591E+02
  0
LINE
  8
0
 62
4
 10
-6.50001144E+00
 20
1.26607291E+02
 11
-5.50001144E+00
 21
1.27145058E+02
  0
LINE
  8
0
 62
4
 10
-7.50001144E+00
 20
1.27145058E+02
 11
-6.50001144E+00
 21
1.26607291E+02
  0
LINE
  8
0
 62
4
 10
-7.50001144E+00
 20
1.28220591E+02
 11
-7.50001144E+00
 21
1.27145058E+02
  0
LINE
  8
0
 62
4
 10
-6.50001144E+00
 20
1.28749086E+02
 11
-7.50001144E+00
 21
1.28220591E+02
  0
POLYLINE
  8
0
 62
6
 66
1
  0
VERTEX
  8
0
 62
6
 10
-8.00001144E+00
 20
1.27682824E+02
  0
VERTEX
  8
0
 62
6
 10
-7.99430349E+00
 20
1.27561610E+02
  0
VERTEX
  8
0
 62
6
 10
-7.97722307E+00
 20
1.27441318E+02
  0
VERTEX
  8
0
 62
6
 10
-7.94890018E+00
 20
1.27322865E+02
  0
VERTEX
  8
0
 62
6
 10
-7.90955037E+00
 20
1.27207151E+02
  0
VERTEX
  8
0
 62
6
 10
-7.85947312E+00
 20
1.27095057E+02
  0
VERTEX
  8
0
 62
6
 10
-7.79904955E+00
 20
1.26987436E+02
  0
VERTEX
  8
0
 62
6
 10
-7.72873951E+00
 20
1.26885108E+02
  0
VERTEX
  8
0
 62
6
 10
-7.64907811E+00
 20
1.26788851E+02
  0
VERTEX
  8
0
 62
6
 10
-7.56067161E+00
 20
1.26699397E+02
  0
VERTEX
  8
0
 62
6
 10
-7.46419286E+00
 20
1.26617428E+02
  0
VERTEX
  8
0
 62
6
 10
-7.36037610E+00
 20
1.26543567E+02
  0
VERTEX
  8
0
 62
6
 10
-7.25001144E+00
 20
1.26478377E+02
  0
VERTEX
  8
0
 62
6
 10
-7.13393884E+00
 20
1.26422353E+02
  0
VERTEX
  8
0
 62
6
 10
-7.01304166E+00
 20
1.26375922E+02
  0
VERTEX
  8
0
 62
6
 10
-6.88824001E+00
 20
1.26339438E+02
  0
VERTEX
  8
0
 62
6
 10
-6.76048371E+00
 20
1.26313177E+02
  0
VERTEX
  8
0
 62
6
 10
-6.63074506E+00
 20
1.26297341E+02
  0
VERTEX
  8
0
 62
6
 10
-6.50001144E+00
 20
1.26292048E+02
  0
VERTEX
  8
0
 62
6
 10
-6.36927783E+00
 20
1.26297341E+02
  0
VERTEX
  8
0
 62
6
 10
-6.23953918E+00
 20
1.26313177E+02
  0
VERTEX
  8
0
 62
6
 10
-6.11178288E+00
 20
1.26339438E+02
  0
VERTEX
  8
0
 62
6
 10
-5.98698123E+00
 20
1.26375922E+02
  0
VERTEX
  8
0
 62
6
 10
-5.86608405E+00
 20
1.26422353E+02
  0
VERTEX
  8
0
 62
6
 10
-5.75001144E+00
 20
1.26478377E+02
  0
VERTEX
  8
0
 62
6
 10
-5.63964679E+00
 20
1.26543567E+02
  0
VERTEX
  8
0
 62
6
 10
-5.53583003E+00
 20
1.26617428E+02
  0
VERTEX
  8
0
 62
6
 10
-5.43935127E+00
 20
1.26699397E+02
  0
VERTEX
  8
0
 62
6
 10
-5.35094478E+00
 20
1.26788851E+02
  0
VERTEX
  8
0
 62
6
 10
-5.27128338E+00
 20
1.26885108E+02
  0
VERTEX
  8
0
 62
6
 10
-5.20097334E+00
 20
1.26987436E+02
  0
VERTEX
  8
0
 62
6
 10
-5.14054976E+00
 20
1.27095057E+02
  0
VERTEX
  8
0
 62
6
 10
-5.09047251E+00
 20
1.27207151E+02
  0
VERTEX
  8
0
 62
6
 10
-5.05112270E+00
 20
1.27322865E+02
  0
VERTEX
  8
0
 62
6
 10
-5.02279981E+00
 20
1.27441318E+02
  0
VERTEX
  8
0
 62
6
 10
-5.00571939E+00
 20
1.27561610E+02
  0
VERTEX
  8
0
 62
6
 10
-5.00001144E+00
 20
1.27682824E+02
  0
VERTEX
  8
0
 62
6
 10
-5.00571939E+00
 20
1.27804038E+02
  0
VERTEX
  8
0
 62
6
 10
-5.02279981E+00
 20
1.27924330E+02
  0
VERTEX
  8
0
 62
6
 10
-5.05112270E+00
 20
1.28042783E+02
  0
VERTEX
  8
0
 62
6
 10
-5.09047251E+00
 20
1.28158497E+02
  0
VERTEX
  8
0
 62
6
 10
-5.14054976E+00
 20
1.28270591E+02
  0
VERTEX
  8
0
 62
6
 10
-5.20097333E+00
 20
1.28378212E+02
  0
VERTEX
  8
0
 62
6
 10
-5.27128337E+00
 20
1.28480540E+02
  0
VERTEX
  8
0
 62
6
 10
-5.35094477E+00
 20
1.28576797E+02
  0
VERTEX
  8
0
 62
6
 10
-5.43935127E+00
 20
1.28666251E+02
  0
VERTEX
  8
0
 62
6
 10
-5.53583002E+00
 20
1.28748220E+02
  0
VERTEX
  8
0
 62
6
 10
-5.63964678E+00
 20
1.28822081E+02
  0
VERTEX
  8
0
 62
6
 10
-5.75001144E+00
 20
1.28887271E+02
  0
VERTEX
  8
0
 62
6
 10
-5.86608405E+00
 20
1.28943295E+02
  0
VERTEX
  8
0
 62
6
 10
-5.98698122E+00
 20
1.28989726E+02
  0
VERTEX
  8
0
 62
6
 10
-6.11178287E+00
 20
1.29026210E+02
  0
VERTEX
  8
0
 62
6
 10
-6.23953917E+00
 20
1.29052471E+02
  0
VERTEX
  8
0
 62
6
 10
-6.36927782E+00
 20
1.29068307E+02
  0
VERTEX
  8
0
 62
6
 10
-6.50001144E+00
 20
1.29073600E+02
  0
VERTEX
  8
0
 62
6
 10
-6.63074505E+00
 20
1.29068307E+02
  0
VERTEX
  8
0
 62
6
 10
-6.76048370E+00
 20
1.29052471E+02
  0
VERTEX
  8
0
 62
6
 10
-6.88824001E+00
 20
1.29026210E+02
  0
VERTEX
  8
0
 62
6
 10
-7.01304165E+00
 20
1.28989726E+02
  0
VERTEX
  8
0
 62
6
 10
-7.13393883E+00
 20
1.28943295E+02
  0
VERTEX
  8
0
 62
6
 10
-7.25001144E+00
 20
1.28887271E+02
  0
VERTEX
  8
0
 62
6
 10
-7.36037609E+00
 20
1.28822081E+02
  0
VERTEX
  8
0
 62
6
 10
-7.46419285E+00
 20
1.28748220E+02
  0
VERTEX
  8
0
 62
6
 10
-7.56067161E+00
 20
1.28666251E+02
  0
VERTEX
  8
0
 62
6
 10
-7.64907810E+00
 20
1.28576797E+02
  0
VERTEX
  8
0
 62
6
 10
-7.72873951E+00
 20
1.28480540E+02
  0
VERTEX
  8
0
 62
6
 10
-7.79904955E+00
 20
1.28378212E+02
  0
VERTEX
  8
0
 62
6
 10
-7.85947312E+00
 20
1.28270591E+02
  0
VERTEX
  8
0
 62
6
 10
-7.90955037E+00
 20
1.28158497E+02
  0
VERTEX
  8
0
 62
6
 10
-7.94890018E+00
 20
1.28042783E+02
  0
VERTEX
  8
0
 62
6
 10
-7.97722307E+00
 20
1.27924330E+02
  0
VERTEX
  8
0
 62
6
 10
-7.99430349E+00
 20
1.27804038E+02
  0
VERTEX
  8
0
 62
6
 10
-8.00001144E+00
 20
1.27682824E+02
  0
SEQEND
  8
0
  0
POLYLINE
  8
0
 62
4
 66
1
  0
VERTEX
  8
0
 62
4
 10
-8.50001144E+00
 20
1.27682824E+02
  0
VERTEX
  8
0
 62
4
 10
-8.49240084E+00
 20
1.27521205E+02
  0
VERTEX
  8
0
 62
4
 10
-8.46962695E+00
 20
1.27360816E+02
  0
VERTEX
  8
0
 62
4
 10
-8.43186309E+00
 20
1.27202878E+02
  0
VERTEX
  8
0
 62
4
 10
-8.37939668E+00
 20
1.27048593E+02
  0
VERTEX
  8
0
 62
4
 10
-8.31262702E+00
 20
1.26899134E+02
  0
VERTEX
  8
0
 62
4
 10
-8.23206225E+00
 20
1.26755640E+02
  0
VERTEX
  8
0
 62
4
 10
-8.13831553E+00
 20
1.26619202E+02
  0
VERTEX
  8
0
 62
4
 10
-8.03210033E+00
 20
1.26490859E+02
  0
VERTEX
  8
0
 62
4
 10
-7.91422501E+00
 20
1.26371588E+02
  0
VERTEX
  8
0
 62
4
 10
-7.78558666E+00
 20
1.26262296E+02
  0
VERTEX
  8
0
 62
4
 10
-7.64716432E+00
 20
1.26163815E+02
  0
VERTEX
  8
0
 62
4
 10
-7.50001144E+00
 20
1.26076894E+02
  0
VERTEX
  8
0
 62
4
 10
-7.34524797E+00
 20
1.26002196E+02
  0
VERTEX
  8
0
 62
4
 10
-7.18405173E+00
 20
1.25940288E+02
  0
VERTEX
  8
0
 62
4
 10
-7.01764954E+00
 20
1.25891642E+02
  0
VERTEX
  8
0
 62
4
 10
-6.84730780E+00
 20
1.25856628E+02
  0
VERTEX
  8
0
 62
4
 10
-6.67432293E+00
 20
1.25835513E+02
  0
VERTEX
  8
0
 62
4
 10
-6.50001145E+00
 20
1.25828456E+02
  0
VERTEX
  8
0
 62
4
 10
-6.32569996E+00
 20
1.25835513E+02
  0
VERTEX
  8
0
 62
4
 10
-6.15271509E+00
 20
1.25856628E+02
  0
VERTEX
  8
0
 62
4
 10
-5.98237335E+00
 20
1.25891642E+02
  0
VERTEX
  8
0
 62
4
 10
-5.81597116E+00
 20
1.25940288E+02
  0
VERTEX
  8
0
 62
4
 10
-5.65477492E+00
 20
1.26002196E+02
  0
VERTEX
  8
0
 62
4
 10
-5.50001144E+00
 20
1.26076894E+02
  0
VERTEX
  8
0
 62
4
 10
-5.35285857E+00
 20
1.26163815E+02
  0
VERTEX
  8
0
 62
4
 10
-5.21443622E+00
 20
1.26262296E+02
  0
VERTEX
  8
0
 62
4
 10
-5.08579788E+00
 20
1.26371588E+02
  0
VERTEX
  8
0
 62
4
 10
-4.96792256E+00
 20
1.26490859E+02
  0
VERTEX
  8
0
 62
4
 10
-4.86170735E+00
 20
1.26619202E+02
  0
VERTEX
  8
0
 62
4
 10
-4.76796063E+00
 20
1.26755640E+02
  0
VERTEX
  8
0
 62
4
 10
-4.68739587E+00
 20
1.26899134E+02
  0
VERTEX
  8
0
 62
4
 10
-4.62062620E+00
 20
1.27048593E+02
  0
VERTEX
  8
0
 62
4
 10
-4.56815979E+00
 20
1.27202878E+02
  0
VERTEX
  8
0
 62
4
 10
-4.53039593E+00
 20
1.27360816E+02
  0
VERTEX
  8
0
 62
4
 10
-4.50762204E+00
 20
1.27521205E+02
  0
VERTEX
  8
0
 62
4
 10
-4.50001144E+00
 20
1.27682824E+02
  0
VERTEX
  8
0
 62
4
 10
-4.50762204E+00
 20
1.27844443E+02
  0
VERTEX
  8
0
 62
4
 10
-4.53039593E+00
 20
1.28004832E+02
  0
VERTEX
  8
0
 62
4
 10
-4.56815979E+00
 20
1.28162770E+02
  0
VERTEX
  8
0
 62
4
 10
-4.62062620E+00
 20
1.28317055E+02
  0
VERTEX
  8
0
 62
4
 10
-4.68739586E+00
 20
1.28466514E+02
  0
VERTEX
  8
0
 62
4
 10
-4.76796063E+00
 20
1.28610008E+02
  0
VERTEX
  8
0
 62
4
 10
-4.86170735E+00
 20
1.28746446E+02
  0
VERTEX
  8
0
 62
4
 10
-4.96792255E+00
 20
1.28874789E+02
  0
VERTEX
  8
0
 62
4
 10
-5.08579788E+00
 20
1.28994060E+02
  0
VERTEX
  8
0
 62
4
 10
-5.21443622E+00
 20
1.29103352E+02
  0
VERTEX
  8
0
 62
4
 10
-5.35285856E+00
 20
1.29201833E+02
  0
VERTEX
  8
0
 62
4
 10
-5.50001144E+00
 20
1.29288754E+02
  0
VERTEX
  8
0
 62
4
 10
-5.65477491E+00
 20
1.29363452E+02
  0
VERTEX
  8
0
 62
4
 10
-5.81597115E+00
 20
1.29425360E+02
  0
VERTEX
  8
0
 62
4
 10
-5.98237335E+00
 20
1.29474006E+02
  0
VERTEX
  8
0
 62
4
 10
-6.15271508E+00
 20
1.29509020E+02
  0
VERTEX
  8
0
 62
4
 10
-6.32569995E+00
 20
1.29530135E+02
  0
VERTEX
  8
0
 62
4
 10
-6.50001144E+00
 20
1.29537192E+02
  0
VERTEX
  8
0
 62
4
 10
-6.67432292E+00
 20
1.29530135E+02
  0
VERTEX
  8
0
 62
4
 10
-6.84730779E+00
 20
1.29509020E+02
  0
VERTEX
  8
0
 62
4
 10
-7.01764953E+00
 20
1.29474006E+02
  0
VERTEX
  8
0
 62
4
 10
-7.18405172E+00
 20
1.29425360E+02
  0
VERTEX
  8
0
 62
4
 10
-7.34524796E+00
 20
1.29363452E+02
  0
VERTEX
  8
0
 62
4
 10
-7.50001144E+00
 20
1.29288754E+02
  0
VERTEX
  8
0
 62
4
 10
-7.64716431E+00
 20
1.29201833E+02
  0
VERTEX
  8
0
 62
4
 10
-7.78558666E+00
 20
1.29103352E+02
  0
VERTEX
  8
0
 62
4
 10
-7.91422500E+00
 20
1.28994060E+02
  0
VERTEX
  8
0
 62
4
 10
-8.03210033E+00
 20
1.28874789E+02
  0
VERTEX
  8
0
 62
4
 10
-8.13831553E+00
 20
1.28746446E+02
  0
VERTEX
  8
0
 62
4
 10
-8.23206225E+00
 20
1.28610008E+02
  0
VERTEX
  8
0
 62
4
 10
-8.31262701E+00
 20
1.28466514E+02
  0
VERTEX
  8
0
 62
4
 10
-8.37939668E+00
 20
1.28317055E+02
  0
VERTEX
  8
0
 62
4
 10
-8.43186309E+00
 20
1.28162770E+02
  0
VERTEX
  8
0
 62
4
 10
-8.46962695E+00
 20
1.28004832E+02
  0
VERTEX
  8
0
 62
4
 10
-8.49240084E+00
 20
1.27844443E+02
  0
VERTEX
  8
0
 62
4
 10
-8.50001144E+00
 20
1.27682824E+02
  0
SEQEND
  8
0
  0
LINE
  8
0
 62
4
 10
-4.50001144E+00
 20
1.27682824E+02
 11
-4.50001144E+00
 21
1.29159701E+02
  0
LINE
  8
0
 62
4
 10
-8.50001144E+00
 20
1.27682824E+02
 11
-8.50001144E+00
 21
1.29159701E+02
  0
POLYLINE
  8
0
 62
4
 66
1
  0
VERTEX
  8
0
 62
4
 10
-4.50001144E+00
 20
1.29159701E+02
  0
VERTEX
  8
0
 62
4
 10
-4.50806285E+00
 20
1.29325925E+02
  0
VERTEX
  8
0
 62
4
 10
-4.53215226E+00
 20
1.29490811E+02
  0
VERTEX
  8
0
 62
4
 10
-4.57208571E+00
 20
1.29653031E+02
  0
VERTEX
  8
0
 62
4
 10
-4.62754169E+00
 20
1.29811279E+02
  0
VERTEX
  8
0
 62
4
 10
-4.69807370E+00
 20
1.29964281E+02
  0
VERTEX
  8
0
 62
4
 10
-4.78311385E+00
 20
1.30110805E+02
  0
VERTEX
  8
0
 62
4
 10
-4.88197744E+00
 20
1.30249671E+02
  0
VERTEX
  8
0
 62
4
 10
-4.99386850E+00
 20
1.30379761E+02
  0
VERTEX
  8
0
 62
4
 10
-5.11788613E+00
 20
1.30500028E+02
  0
VERTEX
  8
0
 62
4
 10
-5.25303182E+00
 20
1.30609504E+02
  0
VERTEX
  8
0
 62
4
 10
-5.39821746E+00
 20
1.30707307E+02
  0
VERTEX
  8
0
 62
4
 10
-5.55227410E+00
 20
1.30792649E+02
  0
VERTEX
  8
0
 62
4
 10
-5.71396136E+00
 20
1.30864844E+02
  0
VERTEX
  8
0
 62
4
 10
-5.88197744E+00
 20
1.30923309E+02
  0
VERTEX
  8
0
 62
4
 10
-6.05496956E+00
 20
1.30967576E+02
  0
VERTEX
  8
0
 62
4
 10
-6.23154489E+00
 20
1.30997286E+02
  0
VERTEX
  8
0
 62
4
 10
-6.41028176E+00
 20
1.31012201E+02
  0
VERTEX
  8
0
 62
4
 10
-6.58974108E+00
 20
1.31012201E+02
  0
VERTEX
  8
0
 62
4
 10
-6.76847795E+00
 20
1.30997286E+02
  0
VERTEX
  8
0
 62
4
 10
-6.94505329E+00
 20
1.30967576E+02
  0
VERTEX
  8
0
 62
4
 10
-7.11804541E+00
 20
1.30923309E+02
  0
VERTEX
  8
0
 62
4
 10
-7.28606149E+00
 20
1.30864844E+02
  0
VERTEX
  8
0
 62
4
 10
-7.44774875E+00
 20
1.30792649E+02
  0
VERTEX
  8
0
 62
4
 10
-7.60180539E+00
 20
1.30707307E+02
  0
VERTEX
  8
0
 62
4
 10
-7.74699103E+00
 20
1.30609504E+02
  0
VERTEX
  8
0
 62
4
 10
-7.88213672E+00
 20
1.30500028E+02
  0
VERTEX
  8
0
 62
4
 10
-8.00615436E+00
 20
1.30379761E+02
  0
VERTEX
  8
0
 62
4
 10
-8.11804542E+00
 20
1.30249671E+02
  0
VERTEX
  8
0
 62
4
 10
-8.21690902E+00
 20
1.30110805E+02
  0
VERTEX
  8
0
 62
4
 10
-8.30194917E+00
 20
1.29964281E+02
  0
VERTEX
  8
0
 62
4
 10
-8.37248117E+00
 20
1.29811279E+02
  0
VERTEX
  8
0
 62
4
 10
-8.42793716E+00
 20
1.29653031E+02
  0
VERTEX
  8
0
 62
4
 10
-8.46787061E+00
 20
1.29490811E+02
  0
VERTEX
  8
0
 62
4
 10
-8.49196003E+00
 20
1.29325925E+02
  0
VERTEX
  8
0
 62
4
 10
-8.50001144E+00
 20
1.29159701E+02
  0
SEQEND
  8
0
  0
LINE
  8
0
  6
CENTER
 62
2
 10
6.67791653E+01
 20
1.35500015E+02
 11
-1.21524509E+02
 21
1.35500015E+02
  0
LINE
  8
0
 62
7
 10
-1.98419807E+01
 20
1.44000000E+02
 11
-8.30000191E+01
 21
1.44000000E+02
  0
LINE
  8
0
 62
7
 10
-1.00000114E+01
 20
1.31000000E+02
 11
-8.30000191E+01
 21
1.31000000E+02
  0
LINE
  8
0
 62
7
 10
-1.00000114E+01
 20
1.40000015E+02
 11
-8.30000191E+01
 21
1.40000015E+02
  0
LINE
  8
0
 62
7
 10
-4.05400043E+02
 20
5.75000229E+01
 11
-4.05400043E+02
 21
1.43499985E+02
  0
LINE
  8
0
 62
7
 10
-4.02400043E+02
 20
8.24987946E+01
 11
-4.02400043E+02
 21
1.18501083E+02
  0
LINE
  8
0
 62
7
 10
-4.01999958E+02
 20
1.47500000E+02
 11
-3.15999989E+02
 21
1.47499969E+02
  0
LINE
  8
0
  6
CENTER
 62
2
 10
-3.94000019E+02
 20
1.49685333E+02
 11
-3.94000019E+02
 21
1.20961639E+02
  0
LINE
  8
0
  6
CENTER
 62
2
 10
-3.94000019E+02
 20
5.07628784E+01
 11
-3.94000019E+02
 21
8.09070358E+01
  0
LINE
  8
0
 62
7
 10
-4.06000019E+02
 20
5.75000229E+01
 11
-4.06000019E+02
 21
1.43499985E+02
  0
LINE
  8
0
 62
7
 10
-4.01999989E+02
 20
5.35000305E+01
 11
-3.15999989E+02
 21
5.34999924E+01
  0
LINE
  8
0
 62
7
 10
-3.76069455E+02
 20
1.15801561E+02
 11
-3.86189511E+02
 21
1.25921617E+02
  0
LINE
  8
0
 62
7
 10
-3.74301580E+02
 20
1.17569350E+02
 11
-3.84421615E+02
 21
1.27689384E+02
  0
LINE
  8
0
 62
7
 10
-3.60250019E+02
 20
1.42899994E+02
 11
-3.60250019E+02
 21
1.23389679E+02
  0
LINE
  8
0
 62
7
 10
-4.01399952E+02
 20
1.01750000E+02
 11
-3.81889698E+02
 21
1.01750000E+02
  0
LINE
  8
0
 62
7
 10
-3.76069499E+02
 20
8.51986725E+01
 11
-3.86189534E+02
 21
7.50786384E+01
  0
LINE
  8
0
 62
7
 10
-3.74301711E+02
 20
8.34307544E+01
 11
-3.84421767E+02
 21
7.33106987E+01
  0
LINE
  8
0
 62
7
 10
-3.16599964E+02
 20
1.01749977E+02
 11
-3.36110279E+02
 21
1.01749977E+02
  0
LINE
  8
0
 62
7
 10
-3.60250019E+02
 20
5.81000366E+01
 11
-3.60250019E+02
 21
7.76102600E+01
  0
LINE
  8
0
 62
7
 10
-4.01399952E+02
 20
9.92500305E+01
 11
-3.81889668E+02
 21
9.92500305E+01
  0
LINE
  8
0
 62
7
 10
-4.01999989E+02
 20
5.41000290E+01
 11
-3.15999989E+02
 21
5.40999756E+01
  0
LINE
  8
0
 62
7
 10
-3.12600025E+02
 20
5.75000000E+01
 11
-3.12600025E+02
 21
1.43499969E+02
  0
LINE
  8
0
 62
7
 10
-3.15600025E+02
 20
8.24988861E+01
 11
-3.15600025E+02
 21
1.18501175E+02
  0
LINE
  8
0
 62
7
 10
-3.40998829E+02
 20
5.70999756E+01
 11
-3.77001118E+02
 21
5.70999756E+01
  0
LINE
  8
0
 62
7
 10
-3.11999989E+02
 20
5.75000000E+01
 11
-3.11999989E+02
 21
1.43499969E+02
  0
LINE
  8
0
  6
CENTER
 62
2
 10
-4.08555500E+02
 20
6.55000153E+01
 11
-3.80134876E+02
 21
6.55000153E+01
  0
LINE
  8
0
 62
7
 10
-3.43698434E+02
 20
8.34306228E+01
 11
-3.33578401E+02
 21
7.33105870E+01
  0
LINE
  8
0
 62
7
 10
-3.41930646E+02
 20
8.51984112E+01
 11
-3.31810612E+02
 21
7.50783754E+01
  0
LINE
  8
0
 62
7
 10
-3.16600025E+02
 20
9.92499924E+01
 11
-3.36110218E+02
 21
9.92499924E+01
  0
LINE
  8
0
 62
7
 10
-3.57749989E+02
 20
5.81000061E+01
 11
-3.57749989E+02
 21
7.76103134E+01
  0
LINE
  8
0
  6
CENTER
 62
2
 10
-3.59000019E+02
 20
1.51355759E+02
 11
-3.59000019E+02
 21
4.95240784E+01
  0
LINE
  8
0
 62
7
 10
-4.01999958E+02
 20
1.46900024E+02
 11
-3.15999989E+02
 21
1.46899963E+02
  0
LINE
  8
0
  6
CENTER
 62
2
 10
-3.23999989E+02
 20
1.49872681E+02
 11
-3.23999989E+02
 21
1.20135757E+02
  0
LINE
  8
0
  6
CENTER
 62
2
 10
-4.08555500E+02
 20
1.35500000E+02
 11
-3.79309010E+02
 21
1.35500000E+02
  0
LINE
  8
0
 62
7
 10
-3.41930674E+02
 20
1.15801657E+02
 11
-3.31810605E+02
 21
1.25921722E+02
  0
LINE
  8
0
 62
7
 10
-3.43698570E+02
 20
1.17569511E+02
 11
-3.33578512E+02
 21
1.27689565E+02
  0
LINE
  8
0
 62
7
 10
-3.57749989E+02
 20
1.42899948E+02
 11
-3.57749989E+02
 21
1.23389725E+02
  0
LINE
  8
0
 62
7
 10
-3.40998920E+02
 20
1.43899963E+02
 11
-3.77001148E+02
 21
1.43899963E+02
  0
LINE
  8
0
 62
7
 10
-3.29000019E+02
 20
1.47499969E+02
 11
-3.29000019E+02
 21
1.46899963E+02
  0
LINE
  8
0
 62
7
 10
-3.89000019E+02
 20
1.47500000E+02
 11
-3.89000019E+02
 21
1.46900024E+02
  0
LINE
  8
0
 62
7
 10
-3.89000019E+02
 20
5.41000290E+01
 11
-3.89000019E+02
 21
5.35000305E+01
  0
LINE
  8
0
 62
7
 10
-3.29000019E+02
 20
5.40999756E+01
 11
-3.29000019E+02
 21
5.34999924E+01
  0
LINE
  8
0
 62
7
 10
-3.98000019E+02
 20
1.23365311E+02
 11
-3.98000019E+02
 21
1.22999969E+02
  0
LINE
  8
0
 62
7
 10
-3.81865345E+02
 20
1.39500046E+02
 11
-3.81500050E+02
 21
1.39500046E+02
  0
LINE
  8
0
 62
7
 10
-3.36134632E+02
 20
1.39499954E+02
 11
-3.36500019E+02
 21
1.39499954E+02
  0
LINE
  8
0
 62
7
 10
-3.19999928E+02
 20
1.23365326E+02
 11
-3.19999928E+02
 21
1.23000061E+02
  0
LINE
  8
0
 62
7
 10
-3.98000050E+02
 20
7.76346436E+01
 11
-3.98000050E+02
 21
7.79999084E+01
  0
LINE
  8
0
 62
7
 10
-3.20000019E+02
 20
7.76346664E+01
 11
-3.20000019E+02
 21
7.80000000E+01
  0
LINE
  8
0
 62
7
 10
-3.36134632E+02
 20
6.14999390E+01
 11
-3.36499928E+02
 21
6.14999390E+01
  0
LINE
  8
0
 62
7
 10
-3.81865314E+02
 20
6.15000305E+01
 11
-3.81500019E+02
 21
6.15000305E+01
  0
LINE
  8
0
  6
CENTER
 62
2
 10
-3.37809132E+02
 20
6.55000153E+01
 11
-3.09012257E+02
 21
6.55000153E+01
  0
LINE
  8
0
  6
CENTER
 62
2
 10
-3.38222126E+02
 20
1.35500000E+02
 11
-3.09012257E+02
 21
1.35500000E+02
  0
LINE
  8
0
  6
CENTER
 62
2
 10
-3.23999989E+02
 20
5.08976555E+01
 11
-3.23999989E+02
 21
7.95789261E+01
  0
LINE
  8
0
  6
CENTER
 62
2
 10
-3.07465199E+02
 20
1.00500000E+02
 11
-4.09465443E+02
 21
1.00500000E+02
  0
LINE
  8
0
  6
CENTER
 62
2
 10
-3.70000080E+02
 20
1.34800034E+02
 11
-3.70000080E+02
 21
1.49952621E+02
  0
CIRCLE
  8
0
 62
7
 10
-3.94000019E+02
 20
1.35499969E+02
 40
8.69999981E+00
  0
CIRCLE
  8
0
 62
7
 10
-3.94000019E+02
 20
6.54999924E+01
 40
8.69999981E+00
  0
ARC
  8
0
 62
7
 10
-3.83714527E+02
 20
1.28396545E+02
 40
1.00000000E+00
 50
1.45369634E+02
 51
2.24999955E+02
  0
ARC
  8
0
 62
7
 10
-3.86896534E+02
 20
1.25214508E+02
 40
1.00000000E+00
 50
4.49999910E+01
 51
1.24630380E+02
  0
ARC
  8
0
 62
7
 10
-3.61250019E+02
 20
1.42899994E+02
 40
1.00000000E+00
 50
3.59999959E+02
 51
8.99999956E+01
  0
ARC
  8
0
 62
7
 10
-3.94000019E+02
 20
1.35499969E+02
 40
1.15000000E+01
 50
2.56113404E+02
 51
1.38868930E+01
  0
ARC
  8
0
 62
7
 10
-4.01399952E+02
 20
1.02750000E+02
 40
1.00000000E+00
 50
1.79999964E+02
 51
2.69999946E+02
  0
ARC
  8
0
 62
7
 10
-3.86896534E+02
 20
7.57854767E+01
 40
1.00000000E+00
 50
2.35369648E+02
 51
3.14999968E+02
  0
ARC
  8
0
 62
7
 10
-3.83714527E+02
 20
7.26034698E+01
 40
1.00000000E+00
 50
1.34999987E+02
 51
2.14630376E+02
  0
ARC
  8
0
 62
7
 10
-4.01999989E+02
 20
1.43499985E+02
 40
3.40000033E+00
 50
9.00000231E+01
 51
1.79999977E+02
  0
ARC
  8
0
 62
7
 10
-3.61250019E+02
 20
5.81000366E+01
 40
1.00000000E+00
 50
2.69999991E+02
 51
3.59999973E+02
  0
ARC
  8
0
 62
7
 10
-4.01400043E+02
 20
9.82500076E+01
 40
1.00000000E+00
 50
8.99999549E+01
 51
1.79999991E+02
  0
ARC
  8
0
 62
7
 10
-4.01999989E+02
 20
5.75000000E+01
 40
3.40000033E+00
 50
1.80000036E+02
 51
2.69999991E+02
  0
ARC
  8
0
 62
7
 10
-3.94000019E+02
 20
6.54999924E+01
 40
1.15000000E+01
 50
3.46113659E+02
 51
1.03886911E+02
  0
ARC
  8
0
 62
7
 10
-4.01999989E+02
 20
1.43499985E+02
 40
4.00000000E+00
 50
9.00000231E+01
 51
1.79999977E+02
  0
CIRCLE
  8
0
 62
7
 10
-3.94000019E+02
 20
1.35499969E+02
 40
8.00000000E+00
  0
CIRCLE
  8
0
 62
7
 10
-3.94000019E+02
 20
6.54999924E+01
 40
8.00000000E+00
  0
ARC
  8
0
 62
7
 10
-4.01999989E+02
 20
5.75000000E+01
 40
4.00000000E+00
 50
1.80000036E+02
 51
2.69999991E+02
  0
ARC
  8
0
 62
7
 10
-3.81500050E+02
 20
1.43000000E+02
 40
3.50000024E+00
 50
2.70000018E+02
 51
3.58726970E+02
  0
ARC
  8
0
 62
7
 10
-4.01500080E+02
 20
1.22999969E+02
 40
3.50000024E+00
 50
2.71274531E+02
 51
4.99579573E-04
  0
ARC
  8
0
 62
7
 10
-4.01399952E+02
 20
1.18501083E+02
 40
1.00000000E+00
 50
9.12747958E+01
 51
1.79999964E+02
  0
ARC
  8
0
 62
7
 10
-3.77001148E+02
 20
1.42900024E+02
 40
1.00000000E+00
 50
8.99999818E+01
 51
1.78726994E+02
  0
ARC
  8
0
 62
7
 10
-4.01500019E+02
 20
7.79999084E+01
 40
3.50000024E+00
 50
0.00000000E+00
 51
8.87269647E+01
  0
ARC
  8
0
 62
7
 10
-3.81500019E+02
 20
5.79999390E+01
 40
3.50000024E+00
 50
1.27452835E+00
 51
8.99999818E+01
  0
ARC
  8
0
 62
7
 10
-4.01400043E+02
 20
8.24987946E+01
 40
1.00000000E+00
 50
1.79999977E+02
 51
2.68726963E+02
  0
ARC
  8
0
 62
7
 10
-3.77001118E+02
 20
5.81000366E+01
 40
1.00000000E+00
 50
1.81274754E+02
 51
2.70000018E+02
  0
ARC
  8
0
 62
7
 10
-3.73594471E+02
 20
1.18276489E+02
 40
1.00000000E+00
 50
2.24999972E+02
 51
3.09385511E+02
  0
ARC
  8
0
 62
7
 10
-3.76776478E+02
 20
1.15094475E+02
 40
1.00000000E+00
 50
3.20613837E+02
 51
4.49999910E+01
  0
ARC
  8
0
 62
7
 10
-3.61250019E+02
 20
1.23389679E+02
 40
1.00000000E+00
 50
2.75613832E+02
 51
3.59999959E+02
  0
ARC
  8
0
 62
7
 10
-3.81889698E+02
 20
1.02750000E+02
 40
1.00000000E+00
 50
2.69999963E+02
 51
3.54386117E+02
  0
ARC
  8
0
 62
7
 10
-3.76776478E+02
 20
8.59055328E+01
 40
1.00000000E+00
 50
3.14999968E+02
 51
3.93854936E+01
  0
ARC
  8
0
 62
7
 10
-3.73594471E+02
 20
8.27235107E+01
 40
1.00000000E+00
 50
5.06138328E+01
 51
1.34999987E+02
  0
ARC
  8
0
 62
7
 10
-3.81889668E+02
 20
9.82500076E+01
 40
1.00000000E+00
 50
5.61382810E+00
 51
8.99999549E+01
  0
ARC
  8
0
 62
7
 10
-3.61250019E+02
 20
7.76102600E+01
 40
1.00000000E+00
 50
3.59999973E+02
 51
8.43861127E+01
  0
CIRCLE
  8
0
 62
7
 10
-3.23999989E+02
 20
6.54999924E+01
 40
8.69999981E+00
  0
ARC
  8
0
 62
7
 10
-3.34285480E+02
 20
7.26034546E+01
 40
1.00000000E+00
 50
3.25369629E+02
 51
4.49999637E+01
  0
ARC
  8
0
 62
7
 10
-3.31103474E+02
 20
7.57854767E+01
 40
1.00000000E+00
 50
2.25000000E+02
 51
3.04630388E+02
  0
ARC
  8
0
 62
7
 10
-3.16600025E+02
 20
9.82500000E+01
 40
1.00000000E+00
 50
3.59999986E+02
 51
8.99999681E+01
  0
ARC
  8
0
 62
7
 10
-3.56750019E+02
 20
5.80999908E+01
 40
1.00000000E+00
 50
1.79999951E+02
 51
2.70000001E+02
  0
ARC
  8
0
 62
7
 10
-3.15999989E+02
 20
5.75000000E+01
 40
3.40000033E+00
 50
2.70000018E+02
 51
3.59999986E+02
  0
ARC
  8
0
 62
7
 10
-3.23999989E+02
 20
6.54999924E+01
 40
1.15000000E+01
 50
7.61135653E+01
 51
1.93886777E+02
  0
ARC
  8
0
 62
7
 10
-3.15999989E+02
 20
5.75000000E+01
 40
4.00000000E+00
 50
2.70000018E+02
 51
3.59999986E+02
  0
CIRCLE
  8
0
 62
7
 10
-3.23999989E+02
 20
6.54999924E+01
 40
8.00000000E+00
  0
ARC
  8
0
 62
7
 10
-3.16499958E+02
 20
7.80000000E+01
 40
3.50000024E+00
 50
9.12745500E+01
 51
1.79999964E+02
  0
ARC
  8
0
 62
7
 10
-3.36499958E+02
 20
5.79999924E+01
 40
3.50000024E+00
 50
8.99999818E+01
 51
1.78726994E+02
  0
ARC
  8
0
 62
7
 10
-3.16600025E+02
 20
8.24988861E+01
 40
1.00000000E+00
 50
2.71274777E+02
 51
0.00000000E+00
  0
ARC
  8
0
 62
7
 10
-3.44405537E+02
 20
8.27235107E+01
 40
1.00000000E+00
 50
4.49999637E+01
 51
1.29385489E+02
  0
ARC
  8
0
 62
7
 10
-3.41223530E+02
 20
8.59055176E+01
 40
1.00000000E+00
 50
1.40613828E+02
 51
2.24999982E+02
  0
ARC
  8
0
 62
7
 10
-3.56750019E+02
 20
7.76103134E+01
 40
1.00000000E+00
 50
9.56138240E+01
 51
1.79999951E+02
  0
ARC
  8
0
 62
7
 10
-3.36110218E+02
 20
9.82500000E+01
 40
1.00000000E+00
 50
8.99999681E+01
 51
1.74386108E+02
  0
ARC
  8
0
 62
7
 10
-3.40998859E+02
 20
5.80999680E+01
 40
1.00000000E+00
 50
2.70000018E+02
 51
3.58726970E+02
  0
CIRCLE
  8
0
 62
7
 10
-3.23999989E+02
 20
1.35499969E+02
 40
8.69999981E+00
  0
ARC
  8
0
 62
7
 10
-3.31103474E+02
 20
1.25214508E+02
 40
1.00000000E+00
 50
5.53696252E+01
 51
1.34999959E+02
  0
ARC
  8
0
 62
7
 10
-3.34285480E+02
 20
1.28396515E+02
 40
1.00000000E+00
 50
3.14999995E+02
 51
3.46303842E+01
  0
ARC
  8
0
 62
7
 10
-3.56750019E+02
 20
1.42899948E+02
 40
1.00000000E+00
 50
8.99999818E+01
 51
1.79999964E+02
  0
ARC
  8
0
 62
7
 10
-3.16599964E+02
 20
1.02749985E+02
 40
1.00000000E+00
 50
2.69999963E+02
 51
0.00000000E+00
  0
ARC
  8
0
 62
7
 10
-3.15999989E+02
 20
1.43499969E+02
 40
3.40000033E+00
 50
0.00000000E+00
 51
8.99999818E+01
  0
ARC
  8
0
 62
7
 10
-3.23999989E+02
 20
1.35499969E+02
 40
1.15000000E+01
 50
1.66113425E+02
 51
2.83886868E+02
  0
ARC
  8
0
 62
7
 10
-3.15999989E+02
 20
1.43499969E+02
 40
4.00000000E+00
 50
0.00000000E+00
 51
8.99999818E+01
  0
CIRCLE
  8
0
 62
7
 10
-3.23999989E+02
 20
1.35499969E+02
 40
8.00000000E+00
  0
ARC
  8
0
 62
7
 10
-3.16499989E+02
 20
1.23000061E+02
 40
3.50000024E+00
 50
1.79999977E+02
 51
2.68726963E+02
  0
ARC
  8
0
 62
7
 10
-3.36500019E+02
 20
1.43000061E+02
 40
3.50000024E+00
 50
1.81274508E+02
 51
2.70000018E+02
  0
ARC
  8
0
 62
7
 10
-3.16599964E+02
 20
1.18501175E+02
 40
1.00000000E+00
 50
0.00000000E+00
 51
8.87269716E+01
  0
ARC
  8
0
 62
7
 10
-3.40998920E+02
 20
1.42899948E+02
 40
1.00000000E+00
 50
1.27477808E+00
 51
8.99999818E+01
  0
ARC
  8
0
 62
7
 10
-3.41223530E+02
 20
1.15094452E+02
 40
1.00000000E+00
 50
1.34999959E+02
 51
2.19385485E+02
  0
ARC
  8
0
 62
7
 10
-3.44405537E+02
 20
1.18276489E+02
 40
1.00000000E+00
 50
2.30613841E+02
 51
3.14999995E+02
  0
ARC
  8
0
 62
7
 10
-3.36110310E+02
 20
1.02749985E+02
 40
1.00000000E+00
 50
1.85613837E+02
 51
2.69999963E+02
  0
ARC
  8
0
 62
7
 10
-3.56750019E+02
 20
1.23389725E+02
 40
1.00000000E+00
 50
1.79999964E+02
 51
2.64386104E+02
  0
CIRCLE
  8
0
 62
7
 10
-3.59000019E+02
 20
1.00500076E+02
 40
2.20000000E+01
  0
CIRCLE
  8
0
 62
7
 10
-3.59000019E+02
 20
1.00500076E+02
 40
1.95000000E+01
  0
CIRCLE
  8
0
 62
7
 10
-3.59000019E+02
 20
1.00500000E+02
 40
2.10111084E+01
  0
ARC
  8
0
 62
7
 10
-3.20999958E+02
 20
1.23365326E+02
 40
1.00000000E+00
 50
0.00000000E+00
 51
1.03886139E+02
  0
ARC
  8
0
 62
7
 10
-3.36134663E+02
 20
1.38499969E+02
 40
1.00000000E+00
 50
3.46114302E+02
 51
8.99999818E+01
  0
ARC
  8
0
 62
7
 10
-3.81865345E+02
 20
1.38500061E+02
 40
1.00000000E+00
 50
8.99999818E+01
 51
1.93887774E+02
  0
ARC
  8
0
 62
7
 10
-3.97000019E+02
 20
1.23365311E+02
 40
1.00000000E+00
 50
7.61138799E+01
 51
1.79999964E+02
  0
ARC
  8
0
 62
7
 10
-3.97000080E+02
 20
7.76346436E+01
 40
1.00000000E+00
 50
1.79999977E+02
 51
2.83886131E+02
  0
ARC
  8
0
 62
7
 10
-3.81865314E+02
 20
6.25000305E+01
 40
1.00000000E+00
 50
1.66113056E+02
 51
2.70000001E+02
  0
ARC
  8
0
 62
7
 10
-3.36134663E+02
 20
6.24999390E+01
 40
1.00000000E+00
 50
2.70000018E+02
 51
1.38869656E+01
  0
ARC
  8
0
 62
7
 10
-3.20999989E+02
 20
7.76346664E+01
 40
1.00000000E+00
 50
2.56114073E+02
 51
0.00000000E+00
  0
CIRCLE
  8
0
 62
2
 10
-3.94000019E+02
 20
1.35500000E+02
 40
5.00000000E+00
  0
CIRCLE
  8
0
 62
2
 10
-3.23999989E+02
 20
1.35500000E+02
 40
5.00000000E+00
  0
CIRCLE
  8
0
 62
2
 10
-3.23999989E+02
 20
6.55000153E+01
 40
5.00000000E+00
  0
CIRCLE
  8
0
 62
2
 10
-3.94000019E+02
 20
6.55000153E+01
 40
5.00000000E+00
  0
CIRCLE
  8
0
 62
7
 10
-3.94000019E+02
 20
6.55000153E+01
 40
4.18000031E+00
  0
CIRCLE
  8
0
 62
7
 10
-3.94000019E+02
 20
1.35500000E+02
 40
4.18000031E+00
  0
CIRCLE
  8
0
 62
7
 10
-3.23999989E+02
 20
1.35500000E+02
 40
4.18000031E+00
  0
CIRCLE
  8
0
 62
7
 10
-3.23999989E+02
 20
6.55000153E+01
 40
4.18000031E+00
  0
CIRCLE
  8
0
 62
4
 10
-3.59000019E+02
 20
1.00500000E+02
 40
1.60000000E+01
  0
CIRCLE
  8
0
 62
7
 10
-3.59000019E+02
 20
1.00500000E+02
 40
1.10000000E+01
  0
LINE
  8
0
 62
4
 10
-3.43000019E+02
 20
1.09737610E+02
 11
-3.43000019E+02
 21
9.12623901E+01
  0
LINE
  8
0
 62
4
 10
-3.75000019E+02
 20
1.09737610E+02
 11
-3.75000019E+02
 21
9.12623901E+01
  0
LINE
  8
0
 62
4
 10
-3.58999958E+02
 20
1.18975222E+02
 11
-3.42999985E+02
 21
1.09737641E+02
  0
LINE
  8
0
 62
4
 10
-3.74999862E+02
 20
9.12624957E+01
 11
-3.58999834E+02
 21
8.20249178E+01
  0
LINE
  8
0
 62
4
 10
-3.58999899E+02
 20
8.20248469E+01
 11
-3.43000020E+02
 21
9.12623953E+01
  0
LINE
  8
0
 62
4
 10
-3.75000053E+02
 20
1.09737581E+02
 11
-3.58999991E+02
 21
1.18975223E+02
  0
CIRCLE
  8
0
 62
2
 10
-3.59000019E+02
 20
1.00500000E+02
 40
1.01800079E+01
  0
LINE
  8
0
 62
4
 10
-3.11999989E+02
 20
1.29316799E+02
 11
-3.11910950E+02
 21
1.29537177E+02
  0
LINE
  8
0
 62
4
 10
-3.40506671E+02
 20
1.47499978E+02
 11
-3.36926433E+02
 21
1.56361376E+02
  0
ARC
  8
0
 62
4
 10
-3.31655949E+02
 20
1.45595339E+02
 40
1.18100000E+01
 50
1.58000000E+02
 51
1.70719176E+02
  0
ARC
  8
0
 62
4
 10
-3.31650152E+02
 20
1.45609688E+02
 40
1.18100000E+01
 50
1.55900933E+02
 51
1.58000000E+02
  0
LINE
  8
0
 62
4
 10
-3.40916514E+02
 20
1.47499978E+02
 11
-3.40387998E+02
 21
1.48808101E+02
  0
ARC
  8
0
 62
4
 10
-3.30815093E+02
 20
1.49038828E+02
 40
1.18100000E+01
 50
1.45172490E+02
 51
1.70827510E+02
  0
LINE
  8
0
 62
4
 10
-3.40962852E+02
 20
1.49040357E+02
 11
-3.38115842E+02
 21
1.56086954E+02
  0
LINE
  8
0
 62
4
 10
-3.38265684E+02
 20
1.55716081E+02
 11
-3.39313402E+02
 21
1.56139386E+02
  0
LINE
  8
0
 62
4
 10
-3.40813009E+02
 20
1.49411231E+02
 11
-3.41860727E+02
 21
1.49834536E+02
  0
ARC
  8
0
 62
4
 10
-3.39688753E+02
 20
1.55212503E+02
 40
1.00000000E+00
 50
6.79999999E+01
 51
1.45172490E+02
  0
ARC
  8
0
 62
4
 10
-3.41486864E+02
 20
1.50762020E+02
 40
1.00000000E+00
 50
1.70827510E+02
 51
2.48000000E+02
  0
LINE
  8
0
 62
4
 10
-3.37188658E+02
 20
1.55712348E+02
 11
-3.38115842E+02
 21
1.56086954E+02
  0
LINE
  8
0
 62
4
 10
-3.40035668E+02
 20
1.48665750E+02
 11
-3.40962852E+02
 21
1.49040357E+02
  0
LINE
  8
0
 62
4
 10
-3.19620306E+02
 20
1.47499971E+02
 11
-3.20886153E+02
 21
1.49880682E+02
  0
LINE
  8
0
 62
4
 10
-3.29397764E+02
 20
1.47499974E+02
 11
-3.27376440E+02
 21
1.52502929E+02
  0
LINE
  8
0
 62
4
 10
-3.20886153E+02
 20
1.49880682E+02
 11
-3.27376440E+02
 21
1.52502929E+02
  0
LINE
  8
0
 62
4
 10
-3.36926433E+02
 20
1.56361376E+02
 11
-3.27376440E+02
 21
1.52502929E+02
  0
LINE
  8
0
  6
CENTER
 62
6
 10
-3.18920181E+02
 20
1.44232972E+02
 11
-3.39712334E+02
 21
1.52633547E+02
  0
LINE
  8
0
  6
CENTER
 62
6
 10
-3.28924872E+02
 20
1.44500258E+02
 11
-3.41023458E+02
 21
1.49388404E+02
  0
LINE
  8
0
 62
4
 10
-3.11910950E+02
 20
1.29537177E+02
 11
-3.11999989E+02
 21
1.29573151E+02
  0
LINE
  8
0
 62
4
 10
-3.77493342E+02
 20
1.47499991E+02
 11
-3.81073574E+02
 21
1.56361376E+02
  0
ARC
  8
0
 62
4
 10
-3.86344058E+02
 20
1.45595339E+02
 40
1.18100000E+01
 50
9.28087917E+00
 51
2.20000000E+01
  0
ARC
  8
0
 62
4
 10
-3.86349856E+02
 20
1.45609688E+02
 40
1.18100000E+01
 50
2.20000000E+01
 51
4.25326990E+01
  0
LINE
  8
0
 62
4
 10
-3.79279009E+02
 20
1.52934069E+02
 11
-3.77647166E+02
 21
1.53593377E+02
  0
LINE
  8
0
 62
4
 10
-3.79575148E+02
 20
1.52652641E+02
 11
-3.79222818E+02
 21
1.52794992E+02
  0
LINE
  8
0
 62
4
 10
-3.77083499E+02
 20
1.47499991E+02
 11
-3.79279009E+02
 21
1.52934069E+02
  0
LINE
  8
0
 62
4
 10
-3.78704155E+02
 20
1.53166325E+02
 11
-3.79884166E+02
 21
1.56086954E+02
  0
LINE
  8
0
 62
4
 10
-3.79734323E+02
 20
1.55716081E+02
 11
-3.78686605E+02
 21
1.56139386E+02
  0
ARC
  8
0
 62
4
 10
-3.87184915E+02
 20
1.49038828E+02
 40
1.18100000E+01
 50
9.17248994E+00
 51
3.48275100E+01
  0
ARC
  8
0
 62
4
 10
-3.78311255E+02
 20
1.55212503E+02
 40
1.00000000E+00
 50
3.48275100E+01
 51
1.12000000E+02
  0
ARC
  8
0
 62
4
 10
-3.76513143E+02
 20
1.50762020E+02
 40
1.00000000E+00
 50
3.40723662E+02
 51
9.17248994E+00
  0
LINE
  8
0
 62
4
 10
-3.80811350E+02
 20
1.55712348E+02
 11
-3.79884166E+02
 21
1.56086954E+02
  0
LINE
  8
0
 62
4
 10
-3.98379687E+02
 20
1.47499999E+02
 11
-3.97113855E+02
 21
1.49880682E+02
  0
LINE
  8
0
 62
4
 10
-3.88602252E+02
 20
1.47499995E+02
 11
-3.90623568E+02
 21
1.52502929E+02
  0
LINE
  8
0
 62
4
 10
-3.97113855E+02
 20
1.49880682E+02
 11
-3.90623568E+02
 21
1.52502929E+02
  0
LINE
  8
0
  6
CENTER
 62
6
 10
-3.89075136E+02
 20
1.44500258E+02
 11
-3.76976550E+02
 21
1.49388404E+02
  0
LINE
  8
0
  6
CENTER
 62
6
 10
-3.99079826E+02
 20
1.44232972E+02
 11
-3.78287673E+02
 21
1.52633547E+02
  0
LINE
  8
0
 62
4
 10
-3.81073574E+02
 20
1.56361376E+02
 11
-3.90623568E+02
 21
1.52502929E+02
  0
LINE
  8
0
 62
4
 10
-4.06089057E+02
 20
1.29537177E+02
 11
-4.06000019E+02
 21
1.29573151E+02
  0
LINE
  8
0
 62
4
 10
-4.06000019E+02
 20
1.29316799E+02
 11
-4.06089057E+02
 21
1.29537177E+02
  0
LINE
  8
0
 62
7
 10
2.57400013E+02
 20
5.75000229E+01
 11
2.57400013E+02
 21
1.43499985E+02
  0
LINE
  8
0
 62
7
 10
1.67999954E+02
 20
5.40999756E+01
 11
2.53999966E+02
 21
5.41000290E+01
  0
LINE
  8
0
 62
7
 10
2.54400005E+02
 20
8.24987946E+01
 11
2.54400005E+02
 21
1.18501083E+02
  0
LINE
  8
0
 62
7
 10
1.67999954E+02
 20
1.47499969E+02
 11
2.53999920E+02
 21
1.47500000E+02
  0
LINE
  8
0
  6
CENTER
 62
2
 10
2.45999996E+02
 20
1.49685333E+02
 11
2.45999996E+02
 21
1.20961639E+02
  0
LINE
  8
0
  6
CENTER
 62
2
 10
2.45999996E+02
 20
5.07628784E+01
 11
2.45999996E+02
 21
8.09070358E+01
  0
LINE
  8
0
 62
7
 10
2.58000004E+02
 20
5.75000229E+01
 11
2.58000004E+02
 21
1.43499985E+02
  0
LINE
  8
0
 62
7
 10
2.28069420E+02
 20
1.15801565E+02
 11
2.38189487E+02
 21
1.25921631E+02
  0
LINE
  8
0
 62
7
 10
2.26301550E+02
 20
1.17569370E+02
 11
2.36421585E+02
 21
1.27689404E+02
  0
LINE
  8
0
 62
7
 10
2.12249996E+02
 20
1.42899994E+02
 11
2.12249996E+02
 21
1.23389679E+02
  0
LINE
  8
0
 62
7
 10
2.53399929E+02
 20
1.01750000E+02
 11
2.33889675E+02
 21
1.01750000E+02
  0
LINE
  8
0
 62
7
 10
2.28069465E+02
 20
8.51986705E+01
 11
2.38189500E+02
 21
7.50786363E+01
  0
LINE
  8
0
 62
7
 10
2.26301677E+02
 20
8.34307524E+01
 11
2.36421728E+02
 21
7.33107020E+01
  0
LINE
  8
0
 62
7
 10
1.68599945E+02
 20
1.01749977E+02
 11
1.88110245E+02
 21
1.01749977E+02
  0
LINE
  8
0
 62
7
 10
2.12249996E+02
 20
5.81000366E+01
 11
2.12249996E+02
 21
7.76102600E+01
  0
LINE
  8
0
 62
7
 10
2.53399929E+02
 20
9.92500305E+01
 11
2.33889629E+02
 21
9.92500305E+01
  0
LINE
  8
0
 62
7
 10
1.64600006E+02
 20
5.75000000E+01
 11
1.64600006E+02
 21
1.43499969E+02
  0
LINE
  8
0
 62
7
 10
1.67600006E+02
 20
8.24988861E+01
 11
1.67600006E+02
 21
1.18501175E+02
  0
LINE
  8
0
 62
7
 10
1.92998791E+02
 20
5.70999756E+01
 11
2.29001080E+02
 21
5.70999756E+01
  0
LINE
  8
0
 62
7
 10
1.63999969E+02
 20
5.75000000E+01
 11
1.63999969E+02
 21
1.43499969E+02
  0
LINE
  8
0
  6
CENTER
 62
2
 10
2.60555470E+02
 20
6.55000153E+01
 11
2.32134838E+02
 21
6.55000153E+01
  0
LINE
  8
0
 62
7
 10
1.67999954E+02
 20
5.34999924E+01
 11
2.53999966E+02
 21
5.35000305E+01
  0
LINE
  8
0
 62
7
 10
1.95698391E+02
 20
8.34306151E+01
 11
1.85578358E+02
 21
7.33105794E+01
  0
LINE
  8
0
 62
7
 10
1.93930602E+02
 20
8.51984035E+01
 11
1.83810569E+02
 21
7.50783677E+01
  0
LINE
  8
0
 62
7
 10
1.68599991E+02
 20
9.92499924E+01
 11
1.88110199E+02
 21
9.92499924E+01
  0
LINE
  8
0
 62
7
 10
2.09749966E+02
 20
5.81000061E+01
 11
2.09749966E+02
 21
7.76103134E+01
  0
LINE
  8
0
  6
CENTER
 62
2
 10
2.10999981E+02
 20
1.51355759E+02
 11
2.10999981E+02
 21
4.95240784E+01
  0
LINE
  8
0
 62
7
 10
1.67999954E+02
 20
1.46899963E+02
 11
2.53999920E+02
 21
1.46900024E+02
  0
LINE
  8
0
  6
CENTER
 62
2
 10
1.75999969E+02
 20
1.49872681E+02
 11
1.75999969E+02
 21
1.20135757E+02
  0
LINE
  8
0
  6
CENTER
 62
2
 10
2.60555470E+02
 20
1.35500000E+02
 11
2.31308987E+02
 21
1.35500000E+02
  0
LINE
  8
0
 62
7
 10
1.93930632E+02
 20
1.15801655E+02
 11
1.83810563E+02
 21
1.25921719E+02
  0
LINE
  8
0
 62
7
 10
1.95698534E+02
 20
1.17569525E+02
 11
1.85578481E+02
 21
1.27689573E+02
  0
LINE
  8
0
 62
7
 10
2.09749966E+02
 20
1.42899948E+02
 11
2.09749966E+02
 21
1.23389725E+02
  0
LINE
  8
0
 62
7
 10
1.92998882E+02
 20
1.43899963E+02
 11
2.29001125E+02
 21
1.43899963E+02
  0
LINE
  8
0
 62
7
 10
1.80999985E+02
 20
1.47499969E+02
 11
1.80999985E+02
 21
1.46899963E+02
  0
LINE
  8
0
 62
7
 10
2.40999981E+02
 20
1.47500000E+02
 11
2.40999981E+02
 21
1.46900024E+02
  0
LINE
  8
0
 62
7
 10
2.40999981E+02
 20
5.41000290E+01
 11
2.40999981E+02
 21
5.35000305E+01
  0
LINE
  8
0
 62
7
 10
1.80999985E+02
 20
5.40999756E+01
 11
1.80999985E+02
 21
5.34999924E+01
  0
LINE
  8
0
 62
7
 10
2.49999981E+02
 20
1.23365311E+02
 11
2.49999981E+02
 21
1.22999969E+02
  0
LINE
  8
0
 62
7
 10
2.33865322E+02
 20
1.39500046E+02
 11
2.33500027E+02
 21
1.39500046E+02
  0
LINE
  8
0
 62
7
 10
1.88134598E+02
 20
1.39499954E+02
 11
1.88499985E+02
 21
1.39499954E+02
  0
LINE
  8
0
 62
7
 10
1.71999893E+02
 20
1.23365326E+02
 11
1.71999893E+02
 21
1.23000061E+02
  0
LINE
  8
0
 62
7
 10
2.50000027E+02
 20
7.76346436E+01
 11
2.50000027E+02
 21
7.79999084E+01
  0
LINE
  8
0
 62
7
 10
1.71999985E+02
 20
7.76346664E+01
 11
1.71999985E+02
 21
7.80000000E+01
  0
LINE
  8
0
 62
7
 10
1.88134598E+02
 20
6.14999390E+01
 11
1.88499893E+02
 21
6.14999390E+01
  0
LINE
  8
0
 62
7
 10
2.33865276E+02
 20
6.15000305E+01
 11
2.33499981E+02
 21
6.15000305E+01
  0
LINE
  8
0
  6
CENTER
 62
2
 10
1.89809097E+02
 20
6.55000153E+01
 11
1.61012238E+02
 21
6.55000153E+01
  0
LINE
  8
0
  6
CENTER
 62
2
 10
1.90222092E+02
 20
1.35500000E+02
 11
1.61012238E+02
 21
1.35500000E+02
  0
LINE
  8
0
  6
CENTER
 62
2
 10
1.75999969E+02
 20
5.08976555E+01
 11
1.75999969E+02
 21
7.95789261E+01
  0
LINE
  8
0
  6
CENTER
 62
2
 10
1.59465179E+02
 20
1.00500000E+02
 11
2.61465412E+02
 21
1.00500000E+02
  0
LINE
  8
0
  6
CENTER
 62
2
 10
2.22000042E+02
 20
1.34800034E+02
 11
2.22000042E+02
 21
1.49952621E+02
  0
LINE
  8
0
 62
7
 10
2.45999992E+02
 20
1.41273497E+02
 11
2.40999995E+02
 21
1.38386748E+02
  0
LINE
  8
0
 62
7
 10
2.40999996E+02
 20
1.38386749E+02
 11
2.40999996E+02
 21
1.32613251E+02
  0
LINE
  8
0
 62
7
 10
2.45999995E+02
 20
1.29726492E+02
 11
2.40999995E+02
 21
1.32613243E+02
  0
LINE
  8
0
 62
7
 10
2.50999990E+02
 20
1.32613247E+02
 11
2.45999993E+02
 21
1.29726498E+02
  0
LINE
  8
0
 62
7
 10
2.50999996E+02
 20
1.38386749E+02
 11
2.50999996E+02
 21
1.32613251E+02
  0
LINE
  8
0
 62
7
 10
2.45999995E+02
 20
1.41273497E+02
 11
2.50999995E+02
 21
1.38386746E+02
  0
LINE
  8
0
 62
7
 10
2.45999997E+02
 20
7.12735207E+01
 11
2.41000001E+02
 21
6.83867714E+01
  0
LINE
  8
0
 62
7
 10
2.40999996E+02
 20
6.83867722E+01
 11
2.40999996E+02
 21
6.26132660E+01
  0
LINE
  8
0
 62
7
 10
2.45999994E+02
 20
5.97265167E+01
 11
2.40999998E+02
 21
6.26132660E+01
  0
LINE
  8
0
 62
7
 10
2.50999997E+02
 20
6.26132668E+01
 11
2.46000001E+02
 21
5.97265175E+01
  0
LINE
  8
0
 62
7
 10
2.50999996E+02
 20
6.83867722E+01
 11
2.50999996E+02
 21
6.26132660E+01
  0
LINE
  8
0
 62
7
 10
2.45999994E+02
 20
7.12735132E+01
 11
2.50999991E+02
 21
6.83867640E+01
  0
LINE
  8
0
 62
7
 10
1.75999969E+02
 20
7.12735209E+01
 11
1.70999966E+02
 21
6.83867678E+01
  0
LINE
  8
0
 62
7
 10
1.70999969E+02
 20
6.83867722E+01
 11
1.70999969E+02
 21
6.26132660E+01
  0
LINE
  8
0
 62
7
 10
1.75999969E+02
 20
5.97265146E+01
 11
1.70999969E+02
 21
6.26132660E+01
  0
LINE
  8
0
 62
7
 10
1.80999969E+02
 20
6.26132670E+01
 11
1.75999966E+02
 21
5.97265139E+01
  0
LINE
  8
0
 62
7
 10
1.80999969E+02
 20
6.83867722E+01
 11
1.80999969E+02
 21
6.26132660E+01
  0
LINE
  8
0
 62
7
 10
1.75999969E+02
 20
7.12735199E+01
 11
1.80999969E+02
 21
6.83867685E+01
  0
LINE
  8
0
 62
7
 10
1.75999970E+02
 20
1.41273501E+02
 11
1.70999967E+02
 21
1.38386748E+02
  0
LINE
  8
0
 62
7
 10
1.70999969E+02
 20
1.38386749E+02
 11
1.70999969E+02
 21
1.32613251E+02
  0
LINE
  8
0
 62
7
 10
1.75999968E+02
 20
1.29726491E+02
 11
1.70999967E+02
 21
1.32613243E+02
  0
LINE
  8
0
 62
7
 10
1.80999970E+02
 20
1.32613248E+02
 11
1.75999967E+02
 21
1.29726494E+02
  0
LINE
  8
0
 62
7
 10
1.80999969E+02
 20
1.38386749E+02
 11
1.80999969E+02
 21
1.32613251E+02
  0
LINE
  8
0
 62
7
 10
1.75999967E+02
 20
1.41273497E+02
 11
1.80999968E+02
 21
1.38386745E+02
  0
CIRCLE
  8
0
 62
2
 10
1.75999969E+02
 20
6.55000153E+01
 40
5.00000000E+00
  0
CIRCLE
  8
0
 62
2
 10
2.45999996E+02
 20
6.55000153E+01
 40
5.00000000E+00
  0
CIRCLE
  8
0
 62
7
 10
2.45999996E+02
 20
6.55000153E+01
 40
4.18000031E+00
  0
CIRCLE
  8
0
 62
7
 10
2.45999996E+02
 20
1.35500000E+02
 40
4.18000031E+00
  0
CIRCLE
  8
0
 62
7
 10
1.75999969E+02
 20
1.35500000E+02
 40
4.18000031E+00
  0
CIRCLE
  8
0
 62
7
 10
1.75999969E+02
 20
6.55000153E+01
 40
4.18000031E+00
  0
CIRCLE
  8
0
 62
7
 10
2.45999996E+02
 20
1.35499969E+02
 40
8.69999981E+00
  0
CIRCLE
  8
0
 62
7
 10
2.45999996E+02
 20
6.54999924E+01
 40
8.69999981E+00
  0
ARC
  8
0
 62
7
 10
2.35714504E+02
 20
1.28396545E+02
 40
1.00000000E+00
 50
3.15000047E+02
 51
3.46303671E+01
  0
ARC
  8
0
 62
7
 10
2.38896511E+02
 20
1.25214508E+02
 40
1.00000000E+00
 50
5.53696217E+01
 51
1.35000014E+02
  0
ARC
  8
0
 62
7
 10
2.13249981E+02
 20
1.42899994E+02
 40
1.00000000E+00
 50
9.00000025E+01
 51
1.80000046E+02
  0
ARC
  8
0
 62
7
 10
2.45999996E+02
 20
1.35499969E+02
 40
1.15000000E+01
 50
1.66113111E+02
 51
2.83886595E+02
  0
ARC
  8
0
 62
7
 10
2.53399929E+02
 20
1.02750000E+02
 40
1.00000000E+00
 50
2.70000052E+02
 51
3.59721781E-05
  0
ARC
  8
0
 62
7
 10
2.38896511E+02
 20
7.57854767E+01
 40
1.00000000E+00
 50
2.25000027E+02
 51
3.04630351E+02
  0
ARC
  8
0
 62
7
 10
2.35714504E+02
 20
7.26034698E+01
 40
1.00000000E+00
 50
3.25369626E+02
 51
4.50000149E+01
  0
ARC
  8
0
 62
7
 10
2.53999966E+02
 20
1.43499985E+02
 40
3.40000033E+00
 50
2.23117997E-05
 51
8.99999750E+01
  0
ARC
  8
0
 62
7
 10
2.13249981E+02
 20
5.81000366E+01
 40
1.00000000E+00
 50
1.80000022E+02
 51
2.70000011E+02
  0
ARC
  8
0
 62
7
 10
2.53400021E+02
 20
9.82500076E+01
 40
1.00000000E+00
 50
8.65142224E-06
 51
9.00000437E+01
  0
ARC
  8
0
 62
7
 10
2.53999966E+02
 20
5.75000000E+01
 40
3.40000033E+00
 50
2.70000011E+02
 51
3.59999964E+02
  0
ARC
  8
0
 62
7
 10
2.45999996E+02
 20
6.54999924E+01
 40
1.15000000E+01
 50
7.61130875E+01
 51
1.93886340E+02
  0
ARC
  8
0
 62
7
 10
2.53999966E+02
 20
1.43499985E+02
 40
4.00000000E+00
 50
2.23117997E-05
 51
8.99999750E+01
  0
CIRCLE
  8
0
 62
7
 10
2.45999996E+02
 20
1.35499969E+02
 40
8.00000000E+00
  0
CIRCLE
  8
0
 62
2
 10
1.75999969E+02
 20
1.35500000E+02
 40
5.00000000E+00
  0
CIRCLE
  8
0
 62
7
 10
2.45999996E+02
 20
6.54999924E+01
 40
8.00000000E+00
  0
ARC
  8
0
 62
7
 10
2.53999966E+02
 20
5.75000000E+01
 40
4.00000000E+00
 50
2.70000011E+02
 51
3.59999964E+02
  0
ARC
  8
0
 62
7
 10
2.33500027E+02
 20
1.43000000E+02
 40
3.50000024E+00
 50
1.81273033E+02
 51
2.69999984E+02
  0
ARC
  8
0
 62
7
 10
2.53500042E+02
 20
1.22999969E+02
 40
3.50000024E+00
 50
1.79999500E+02
 51
2.68725460E+02
  0
ARC
  8
0
 62
7
 10
2.53399929E+02
 20
1.18501083E+02
 40
1.00000000E+00
 50
3.59721781E-05
 51
8.87252023E+01
  0
ARC
  8
0
 62
7
 10
2.29001125E+02
 20
1.42900024E+02
 40
1.00000000E+00
 50
1.27300564E+00
 51
9.00000162E+01
  0
ARC
  8
0
 62
7
 10
2.53499996E+02
 20
7.79999084E+01
 40
3.50000024E+00
 50
9.12730339E+01
 51
1.80000005E+02
  0
ARC
  8
0
 62
7
 10
2.33499981E+02
 20
5.79999390E+01
 40
3.50000024E+00
 50
9.00000162E+01
 51
1.78725478E+02
  0
ARC
  8
0
 62
7
 10
2.53400021E+02
 20
8.24987946E+01
 40
1.00000000E+00
 50
2.71273049E+02
 51
1.86693353E-05
  0
ARC
  8
0
 62
7
 10
2.29001080E+02
 20
5.81000366E+01
 40
1.00000000E+00
 50
2.69999984E+02
 51
3.58725246E+02
  0
ARC
  8
0
 62
7
 10
2.25594448E+02
 20
1.18276489E+02
 40
1.00000000E+00
 50
2.30614484E+02
 51
3.15000026E+02
  0
ARC
  8
0
 62
7
 10
2.28776455E+02
 20
1.15094475E+02
 40
1.00000000E+00
 50
1.35000014E+02
 51
2.19386168E+02
  0
ARC
  8
0
 62
7
 10
2.13249981E+02
 20
1.23389679E+02
 40
1.00000000E+00
 50
1.80000036E+02
 51
2.64386169E+02
  0
ARC
  8
0
 62
7
 10
2.33889675E+02
 20
1.02750000E+02
 40
1.00000000E+00
 50
1.85613878E+02
 51
2.70000038E+02
  0
ARC
  8
0
 62
7
 10
2.28776455E+02
 20
8.59055328E+01
 40
1.00000000E+00
 50
1.40614511E+02
 51
2.25000037E+02
  0
ARC
  8
0
 62
7
 10
2.25594448E+02
 20
8.27235107E+01
 40
1.00000000E+00
 50
4.50000149E+01
 51
1.29386172E+02
  0
ARC
  8
0
 62
7
 10
2.33889629E+02
 20
9.82500076E+01
 40
1.00000000E+00
 50
9.00000437E+01
 51
1.74386177E+02
  0
ARC
  8
0
 62
7
 10
2.13249981E+02
 20
7.76102600E+01
 40
1.00000000E+00
 50
9.56138854E+01
 51
1.80000032E+02
  0
CIRCLE
  8
0
 62
7
 10
1.75999969E+02
 20
6.54999924E+01
 40
8.69999981E+00
  0
ARC
  8
0
 62
7
 10
1.86285461E+02
 20
7.26034546E+01
 40
1.00000000E+00
 50
1.35000041E+02
 51
2.14630376E+02
  0
ARC
  8
0
 62
7
 10
1.83103455E+02
 20
7.57854767E+01
 40
1.00000000E+00
 50
2.35369606E+02
 51
3.14999999E+02
  0
ARC
  8
0
 62
7
 10
1.68599991E+02
 20
9.82500000E+01
 40
1.00000000E+00
 50
9.00000300E+01
 51
1.80000019E+02
  0
ARC
  8
0
 62
7
 10
2.08749981E+02
 20
5.80999908E+01
 40
1.00000000E+00
 50
2.69999998E+02
 51
4.96325564E-05
  0
ARC
  8
0
 62
7
 10
1.67999954E+02
 20
5.75000000E+01
 40
3.40000033E+00
 50
1.80000008E+02
 51
2.69999984E+02
  0
ARC
  8
0
 62
7
 10
1.75999969E+02
 20
6.54999924E+01
 40
1.15000000E+01
 50
3.46113223E+02
 51
1.03886433E+02
  0
ARC
  8
0
 62
7
 10
1.67999954E+02
 20
5.75000000E+01
 40
4.00000000E+00
 50
1.80000008E+02
 51
2.69999984E+02
  0
CIRCLE
  8
0
 62
7
 10
1.75999969E+02
 20
6.54999924E+01
 40
8.00000000E+00
  0
CIRCLE
  8
0
 62
2
 10
2.45999996E+02
 20
1.35500000E+02
 40
5.00000000E+00
  0
ARC
  8
0
 62
7
 10
1.68499924E+02
 20
7.80000000E+01
 40
3.50000024E+00
 50
3.59721781E-05
 51
8.87254481E+01
  0
ARC
  8
0
 62
7
 10
1.88499939E+02
 20
5.79999924E+01
 40
3.50000024E+00
 50
1.27300564E+00
 51
9.00000162E+01
  0
ARC
  8
0
 62
7
 10
1.68599991E+02
 20
8.24988861E+01
 40
1.00000000E+00
 50
1.79999995E+02
 51
2.68725224E+02
  0
ARC
  8
0
 62
7
 10
1.96405514E+02
 20
8.27235107E+01
 40
1.00000000E+00
 50
5.06145124E+01
 51
1.35000041E+02
  0
ARC
  8
0
 62
7
 10
1.93223507E+02
 20
8.59055176E+01
 40
1.00000000E+00
 50
3.15000019E+02
 51
3.93861731E+01
  0
ARC
  8
0
 62
7
 10
2.08749981E+02
 20
7.76103134E+01
 40
1.00000000E+00
 50
4.96325564E-05
 51
8.43861746E+01
  0
ARC
  8
0
 62
7
 10
1.88110199E+02
 20
9.82500000E+01
 40
1.00000000E+00
 50
5.61389128E+00
 51
9.00000300E+01
  0
ARC
  8
0
 62
7
 10
1.92998837E+02
 20
5.80999680E+01
 40
1.00000000E+00
 50
1.81273033E+02
 51
2.69999984E+02
  0
CIRCLE
  8
0
 62
7
 10
1.75999969E+02
 20
1.35499969E+02
 40
8.69999981E+00
  0
ARC
  8
0
 62
7
 10
1.83103455E+02
 20
1.25214508E+02
 40
1.00000000E+00
 50
4.50000423E+01
 51
1.24630380E+02
  0
ARC
  8
0
 62
7
 10
1.86285461E+02
 20
1.28396515E+02
 40
1.00000000E+00
 50
1.45369621E+02
 51
2.25000010E+02
  0
ARC
  8
0
 62
7
 10
2.08749981E+02
 20
1.42899948E+02
 40
1.00000000E+00
 50
3.59721781E-05
 51
9.00000162E+01
  0
ARC
  8
0
 62
7
 10
1.68599945E+02
 20
1.02749985E+02
 40
1.00000000E+00
 50
1.79999995E+02
 51
2.70000038E+02
  0
ARC
  8
0
 62
7
 10
1.67999954E+02
 20
1.43499969E+02
 40
3.40000033E+00
 50
9.00000162E+01
 51
1.80000005E+02
  0
ARC
  8
0
 62
7
 10
1.75999969E+02
 20
1.35499969E+02
 40
1.15000000E+01
 50
2.56113130E+02
 51
1.38865754E+01
  0
ARC
  8
0
 62
7
 10
1.67999954E+02
 20
1.43499969E+02
 40
4.00000000E+00
 50
9.00000162E+01
 51
1.80000005E+02
  0
CIRCLE
  8
0
 62
7
 10
1.75999969E+02
 20
1.35499969E+02
 40
8.00000000E+00
  0
ARC
  8
0
 62
7
 10
1.68499969E+02
 20
1.23000061E+02
 40
3.50000024E+00
 50
2.71273049E+02
 51
1.86693353E-05
  0
ARC
  8
0
 62
7
 10
1.88499985E+02
 20
1.43000061E+02
 40
3.50000024E+00
 50
2.69999984E+02
 51
3.58725492E+02
  0
ARC
  8
0
 62
7
 10
1.68599945E+02
 20
1.18501175E+02
 40
1.00000000E+00
 50
9.12730270E+01
 51
1.80000005E+02
  0
ARC
  8
0
 62
7
 10
1.92998882E+02
 20
1.42899948E+02
 40
1.00000000E+00
 50
9.00000162E+01
 51
1.78725219E+02
  0
ARC
  8
0
 62
7
 10
1.93223507E+02
 20
1.15094452E+02
 40
1.00000000E+00
 50
3.20614517E+02
 51
4.50000423E+01
  0
ARC
  8
0
 62
7
 10
1.96405514E+02
 20
1.18276489E+02
 40
1.00000000E+00
 50
2.25000000E+02
 51
3.09386157E+02
  0
ARC
  8
0
 62
7
 10
1.88110291E+02
 20
1.02749985E+02
 40
1.00000000E+00
 50
2.70000038E+02
 51
3.54386163E+02
  0
ARC
  8
0
 62
7
 10
2.08749981E+02
 20
1.23389725E+02
 40
1.00000000E+00
 50
2.75613894E+02
 51
3.59721781E-05
  0
CIRCLE
  8
0
 62
7
 10
2.10999981E+02
 20
1.00500076E+02
 40
2.20000000E+01
  0
ARC
  8
0
 62
7
 10
1.72999924E+02
 20
1.23365326E+02
 40
1.00000000E+00
 50
7.61138592E+01
 51
1.80000005E+02
  0
ARC
  8
0
 62
7
 10
1.88134644E+02
 20
1.38499969E+02
 40
1.00000000E+00
 50
9.00000162E+01
 51
1.93885698E+02
  0
ARC
  8
0
 62
7
 10
2.33865322E+02
 20
1.38500061E+02
 40
1.00000000E+00
 50
3.46112226E+02
 51
9.00000162E+01
  0
ARC
  8
0
 62
7
 10
2.48999996E+02
 20
1.23365311E+02
 40
1.00000000E+00
 50
3.59721781E-05
 51
1.03886119E+02
  0
ARC
  8
0
 62
7
 10
2.49000042E+02
 20
7.76346436E+01
 40
1.00000000E+00
 50
2.56113881E+02
 51
1.86693353E-05
  0
ARC
  8
0
 62
7
 10
2.33865276E+02
 20
6.25000305E+01
 40
1.00000000E+00
 50
2.69999998E+02
 51
1.38869442E+01
  0
ARC
  8
0
 62
7
 10
1.88134644E+02
 20
6.24999390E+01
 40
1.00000000E+00
 50
1.66113028E+02
 51
2.69999974E+02
  0
ARC
  8
0
 62
7
 10
1.72999969E+02
 20
7.76346664E+01
 40
1.00000000E+00
 50
1.79999995E+02
 51
2.83885929E+02
  0
LINE
  8
0
 62
4
 10
2.58000011E+02
 20
1.29316799E+02
 11
2.58089050E+02
 21
1.29537177E+02
  0
LINE
  8
0
 62
4
 10
2.29493329E+02
 20
1.47499978E+02
 11
2.33073567E+02
 21
1.56361376E+02
  0
ARC
  8
0
 62
4
 10
2.38344051E+02
 20
1.45595339E+02
 40
1.18100000E+01
 50
1.58000000E+02
 51
1.70719176E+02
  0
ARC
  8
0
 62
4
 10
2.38349848E+02
 20
1.45609688E+02
 40
1.18100000E+01
 50
1.55900933E+02
 51
1.58000000E+02
  0
LINE
  8
0
 62
4
 10
2.29083486E+02
 20
1.47499978E+02
 11
2.29612002E+02
 21
1.48808101E+02
  0
ARC
  8
0
 62
4
 10
2.39184907E+02
 20
1.49038828E+02
 40
1.18100000E+01
 50
1.45172490E+02
 51
1.70827510E+02
  0
LINE
  8
0
 62
4
 10
2.29037148E+02
 20
1.49040357E+02
 11
2.31884158E+02
 21
1.56086954E+02
  0
LINE
  8
0
 62
4
 10
2.31734316E+02
 20
1.55716081E+02
 11
2.30686598E+02
 21
1.56139386E+02
  0
LINE
  8
0
 62
4
 10
2.29186991E+02
 20
1.49411231E+02
 11
2.28139273E+02
 21
1.49834536E+02
  0
ARC
  8
0
 62
4
 10
2.30311247E+02
 20
1.55212503E+02
 40
1.00000000E+00
 50
6.79999999E+01
 51
1.45172490E+02
  0
ARC
  8
0
 62
4
 10
2.28513136E+02
 20
1.50762020E+02
 40
1.00000000E+00
 50
1.70827510E+02
 51
2.48000000E+02
  0
LINE
  8
0
 62
4
 10
2.32811342E+02
 20
1.55712348E+02
 11
2.31884158E+02
 21
1.56086954E+02
  0
LINE
  8
0
 62
4
 10
2.29964332E+02
 20
1.48665750E+02
 11
2.29037148E+02
 21
1.49040357E+02
  0
LINE
  8
0
 62
4
 10
2.50379694E+02
 20
1.47499971E+02
 11
2.49113847E+02
 21
1.49880682E+02
  0
LINE
  8
0
 62
4
 10
2.40602236E+02
 20
1.47499974E+02
 11
2.42623560E+02
 21
1.52502929E+02
  0
LINE
  8
0
 62
4
 10
2.49113847E+02
 20
1.49880682E+02
 11
2.42623560E+02
 21
1.52502929E+02
  0
LINE
  8
0
 62
4
 10
2.33073567E+02
 20
1.56361376E+02
 11
2.42623560E+02
 21
1.52502929E+02
  0
LINE
  8
0
  6
CENTER
 62
6
 10
2.51079819E+02
 20
1.44232972E+02
 11
2.30287666E+02
 21
1.52633547E+02
  0
LINE
  8
0
  6
CENTER
 62
6
 10
2.41075128E+02
 20
1.44500258E+02
 11
2.28976542E+02
 21
1.49388404E+02
  0
LINE
  8
0
 62
4
 10
2.58089050E+02
 20
1.29537177E+02
 11
2.58000011E+02
 21
1.29573151E+02
  0
LINE
  8
0
 62
4
 10
1.92506658E+02
 20
1.47499991E+02
 11
1.88926426E+02
 21
1.56361376E+02
  0
ARC
  8
0
 62
4
 10
1.83655942E+02
 20
1.45595339E+02
 40
1.18100000E+01
 50
9.28087917E+00
 51
2.20000000E+01
  0
ARC
  8
0
 62
4
 10
1.83650144E+02
 20
1.45609688E+02
 40
1.18100000E+01
 50
2.20000000E+01
 51
4.25326990E+01
  0
LINE
  8
0
 62
4
 10
1.90720991E+02
 20
1.52934069E+02
 11
1.92352834E+02
 21
1.53593377E+02
  0
LINE
  8
0
 62
4
 10
1.90424852E+02
 20
1.52652641E+02
 11
1.90777182E+02
 21
1.52794992E+02
  0
LINE
  8
0
 62
4
 10
1.92916501E+02
 20
1.47499991E+02
 11
1.90720991E+02
 21
1.52934069E+02
  0
LINE
  8
0
 62
4
 10
1.91295845E+02
 20
1.53166325E+02
 11
1.90115834E+02
 21
1.56086954E+02
  0
LINE
  8
0
 62
4
 10
1.90265677E+02
 20
1.55716081E+02
 11
1.91313395E+02
 21
1.56139386E+02
  0
ARC
  8
0
 62
4
 10
1.82815085E+02
 20
1.49038828E+02
 40
1.18100000E+01
 50
9.17248994E+00
 51
3.48275100E+01
  0
ARC
  8
0
 62
4
 10
1.91688745E+02
 20
1.55212503E+02
 40
1.00000000E+00
 50
3.48275100E+01
 51
1.12000000E+02
  0
ARC
  8
0
 62
4
 10
1.93486857E+02
 20
1.50762020E+02
 40
1.00000000E+00
 50
3.40723662E+02
 51
9.17248994E+00
  0
LINE
  8
0
 62
4
 10
1.89188650E+02
 20
1.55712348E+02
 11
1.90115834E+02
 21
1.56086954E+02
  0
LINE
  8
0
 62
4
 10
1.71620313E+02
 20
1.47499999E+02
 11
1.72886145E+02
 21
1.49880682E+02
  0
LINE
  8
0
 62
4
 10
1.81397748E+02
 20
1.47499995E+02
 11
1.79376432E+02
 21
1.52502929E+02
  0
LINE
  8
0
 62
4
 10
1.72886145E+02
 20
1.49880682E+02
 11
1.79376432E+02
 21
1.52502929E+02
  0
LINE
  8
0
  6
CENTER
 62
6
 10
1.80924864E+02
 20
1.44500258E+02
 11
1.93023450E+02
 21
1.49388404E+02
  0
LINE
  8
0
  6
CENTER
 62
6
 10
1.70920174E+02
 20
1.44232972E+02
 11
1.91712327E+02
 21
1.52633547E+02
  0
LINE
  8
0
 62
4
 10
1.88926426E+02
 20
1.56361376E+02
 11
1.79376432E+02
 21
1.52502929E+02
  0
LINE
  8
0
 62
4
 10
1.63910943E+02
 20
1.29537177E+02
 11
1.63999981E+02
 21
1.29573151E+02
  0
LINE
  8
0
 62
4
 10
1.63999981E+02
 20
1.29316799E+02
 11
1.63910943E+02
 21
1.29537177E+02
  0
LINE
  8
0
  6
PHANTOM
 10
-2.45000000E+01
 20
1.94632131E+02
 11
-2.45000000E+01
 21
3.53816712E+02
  0
LINE
  8
0
  6
CENTER
 62
2
 10
-2.02798344E+02
 20
2.80500000E+02
 11
7.18777351E+01
 21
2.80500000E+02
  0
LINE
  8
0
 62
7
 10
-1.18508697E+02
 20
3.26880416E+02
 11
-8.29999757E+01
 21
3.27500223E+02
  0
LINE
  8
0
 62
7
 10
-1.18999989E+02
 20
3.26380280E+02
 11
-1.18999989E+02
 21
2.34619720E+02
  0
LINE
  8
0
 62
7
 10
-8.29999886E+01
 20
3.27500000E+02
 11
-8.29999886E+01
 21
2.33500031E+02
  0
LINE
  8
0
 62
7
 10
-1.18508767E+02
 20
2.34119935E+02
 11
-8.30000459E+01
 21
2.33500128E+02
  0
LINE
  8
0
 62
7
 10
-1.14999989E+02
 20
3.08500031E+02
 11
-1.14999989E+02
 21
2.52500015E+02
  0
LINE
  8
0
 62
7
 10
-1.12999989E+02
 20
3.10499969E+02
 11
-8.29999886E+01
 21
3.10499969E+02
  0
LINE
  8
0
 62
7
 10
-1.12999989E+02
 20
2.50499969E+02
 11
-8.29999886E+01
 21
2.50499969E+02
  0
LINE
  8
0
 62
7
 10
-1.39499973E+02
 20
2.99999969E+02
 11
-1.34999973E+02
 21
2.99999969E+02
  0
LINE
  8
0
 62
7
 10
-1.34999989E+02
 20
3.01063232E+02
 11
-1.34999989E+02
 21
2.59971771E+02
  0
LINE
  8
0
 62
7
 10
-1.39999989E+02
 20
2.99500031E+02
 11
-1.39999989E+02
 21
2.61500015E+02
  0
LINE
  8
0
 62
7
 10
-1.39499973E+02
 20
2.60999969E+02
 11
-1.34999973E+02
 21
2.60999969E+02
  0
LINE
  8
0
 62
7
 10
-1.20499989E+02
 20
2.58499939E+02
 11
-1.18999989E+02
 21
2.58499939E+02
  0
LINE
  8
0
 62
7
 10
-1.34517463E+02
 20
2.59472242E+02
 11
-1.21000022E+02
 21
2.59000203E+02
  0
LINE
  8
0
 62
7
 10
-1.20499989E+02
 20
3.02499969E+02
 11
-1.18999989E+02
 21
3.02499969E+02
  0
LINE
  8
0
 62
7
 10
-1.34517469E+02
 20
3.01528117E+02
 11
-1.21000013E+02
 21
3.02000157E+02
  0
LINE
  8
0
 62
7
 10
-1.20999989E+02
 20
2.59000031E+02
 11
-1.20999989E+02
 21
3.02000000E+02
  0
LINE
  8
0
 62
7
 10
6.35086292E+01
 20
2.34119652E+02
 11
2.79998947E+01
 21
2.33499850E+02
  0
LINE
  8
0
 62
7
 10
6.39999886E+01
 20
2.34619690E+02
 11
6.39999886E+01
 21
3.26380249E+02
  0
LINE
  8
0
 62
7
 10
2.79999886E+01
 20
2.33499939E+02
 11
2.79999886E+01
 21
3.27499939E+02
  0
LINE
  8
0
 62
7
 10
6.35086912E+01
 20
3.26880158E+02
 11
2.79999815E+01
 21
3.27499971E+02
  0
LINE
  8
0
  6
CENTER
 62
2
 10
5.78009071E+01
 20
2.91500000E+02
 11
2.97883949E+01
 21
2.91500000E+02
  0
LINE
  8
0
  6
CENTER
 62
2
 10
4.39999733E+01
 20
2.78242966E+02
 11
4.39999733E+01
 21
3.06501221E+02
  0
LINE
  8
0
 62
7
 10
5.99999809E+01
 20
2.52499939E+02
 11
5.99999809E+01
 21
3.08499939E+02
  0
LINE
  8
0
 62
7
 10
5.79999428E+01
 20
2.50499969E+02
 11
2.79999428E+01
 21
2.50499969E+02
  0
LINE
  8
0
 62
7
 10
5.79999428E+01
 20
3.10499969E+02
 11
2.79999428E+01
 21
3.10499969E+02
  0
LINE
  8
0
 62
7
 10
6.54999428E+01
 20
3.02499969E+02
 11
6.39999428E+01
 21
3.02499969E+02
  0
LINE
  8
0
 62
7
 10
6.54999428E+01
 20
2.58499985E+02
 11
6.39999428E+01
 21
2.58499985E+02
  0
LINE
  8
0
 62
7
 10
6.59999809E+01
 20
3.01999939E+02
 11
6.59999809E+01
 21
2.58999939E+02
  0
LINE
  8
0
 62
7
 10
2.79999886E+01
 20
2.36999969E+02
 11
4.99998856E+00
 21
2.36999969E+02
  0
LINE
  8
0
  6
CENTER
 62
2
 10
6.67791653E+01
 20
2.45499985E+02
 11
-1.21524509E+02
 21
2.45499985E+02
  0
LINE
  8
0
 62
7
 10
2.79999886E+01
 20
2.40999985E+02
 11
4.99998856E+00
 21
2.40999985E+02
  0
LINE
  8
0
  6
CENTER
 62
2
 10
3.49999771E+01
 20
2.72047775E+02
 11
3.49999771E+01
 21
2.57434387E+02
  0
LINE
  8
0
  6
CENTER
 62
2
 10
2.68054008E+01
 20
2.64499985E+02
 11
4.30744095E+01
 21
2.64499985E+02
  0
LINE
  8
0
 62
7
 10
3.67320987E+01
 20
2.64499833E+02
 11
3.58660672E+01
 21
2.65999853E+02
  0
LINE
  8
0
 62
7
 10
3.58660088E+01
 20
2.65999985E+02
 11
3.41339226E+01
 21
2.65999985E+02
  0
LINE
  8
0
 62
7
 10
3.32681864E+01
 20
2.64499759E+02
 11
3.41342027E+01
 21
2.65999752E+02
  0
LINE
  8
0
 62
7
 10
3.41339543E+01
 20
2.62999944E+02
 11
3.32678922E+01
 21
2.64500016E+02
  0
LINE
  8
0
 62
7
 10
3.58660088E+01
 20
2.62999969E+02
 11
3.41339226E+01
 21
2.62999969E+02
  0
LINE
  8
0
 62
7
 10
3.67322361E+01
 20
2.64499891E+02
 11
3.58661969E+01
 21
2.62999859E+02
  0
LINE
  8
0
  6
CENTER
 62
2
 10
-9.00000038E+01
 20
2.72047729E+02
 11
-9.00000038E+01
 21
2.57434341E+02
  0
LINE
  8
0
  6
CENTER
 62
2
 10
-9.81945839E+01
 20
2.64499939E+02
 11
-8.19255714E+01
 21
2.64499939E+02
  0
LINE
  8
0
 62
7
 10
-8.82678799E+01
 20
2.64499859E+02
 11
-8.91339190E+01
 21
2.65999892E+02
  0
LINE
  8
0
 62
7
 10
-8.91339760E+01
 20
2.65999939E+02
 11
-9.08660622E+01
 21
2.65999939E+02
  0
LINE
  8
0
 62
7
 10
-9.17318123E+01
 20
2.64499709E+02
 11
-9.08657961E+01
 21
2.65999702E+02
  0
LINE
  8
0
 62
7
 10
-9.08659653E+01
 20
2.62999898E+02
 11
-9.17320350E+01
 21
2.64499984E+02
  0
LINE
  8
0
 62
7
 10
-8.91339760E+01
 20
2.62999924E+02
 11
-9.08660622E+01
 21
2.62999924E+02
  0
LINE
  8
0
 62
7
 10
-8.82677759E+01
 20
2.64499849E+02
 11
-8.91338151E+01
 21
2.62999817E+02
  0
LINE
  8
0
 62
7
 10
2.79999886E+01
 20
3.11000000E+02
 11
-3.89999886E+01
 21
3.11000000E+02
  0
LINE
  8
0
  6
CENTER
 62
2
 10
6.67791653E+01
 20
3.15500000E+02
 11
-1.21524509E+02
 21
3.15500000E+02
  0
LINE
  8
0
 62
7
 10
2.79999886E+01
 20
3.20000000E+02
 11
-3.89999886E+01
 21
3.20000000E+02
  0
LINE
  8
0
 62
7
 10
2.79999886E+01
 20
3.24000031E+02
 11
-3.89999886E+01
 21
3.24000031E+02
  0
LINE
  8
0
  6
CENTER
 62
2
 10
-9.90000038E+01
 20
2.77394135E+02
 11
-9.90000038E+01
 21
3.05323242E+02
  0
LINE
  8
0
  6
CENTER
 62
2
 10
-8.52976723E+01
 20
2.91499939E+02
 11
-1.13094929E+02
 21
2.91499939E+02
  0
LINE
  8
0
 62
7
 10
-1.47738361E+02
 20
2.73860474E+02
 11
-1.39999989E+02
 21
2.73860474E+02
  0
LINE
  8
0
 62
7
 10
-1.47738361E+02
 20
2.67220963E+02
 11
-1.39999989E+02
 21
2.67220963E+02
  0
LINE
  8
0
 62
7
 10
-1.47738316E+02
 20
2.93779022E+02
 11
-1.39999989E+02
 21
2.93779022E+02
  0
LINE
  8
0
 62
7
 10
-1.53999989E+02
 20
2.69500000E+02
 11
-1.53999989E+02
 21
2.91500000E+02
  0
LINE
  8
0
 62
7
 10
-1.94000034E+02
 20
2.71000122E+02
 11
-1.94000034E+02
 21
2.89999939E+02
  0
LINE
  8
0
 62
7
 10
-1.56999989E+02
 20
2.69500000E+02
 11
-1.56999989E+02
 21
2.91500031E+02
  0
LINE
  8
0
 62
7
 10
-1.92500034E+02
 20
2.91500031E+02
 11
-1.83000034E+02
 21
2.91500031E+02
  0
LINE
  8
0
 62
7
 10
-1.92500034E+02
 20
2.69500000E+02
 11
-1.92500034E+02
 21
2.91500031E+02
  0
LINE
  8
0
 62
7
 10
-1.93999986E+02
 20
2.89999912E+02
 11
-1.92499951E+02
 21
2.91499946E+02
  0
LINE
  8
0
 62
2
 10
-1.93320042E+02
 20
2.90680023E+02
 11
-1.83000034E+02
 21
2.90680023E+02
  0
LINE
  8
0
 62
7
 10
-1.92500034E+02
 20
2.69500000E+02
 11
-1.83000034E+02
 21
2.69500000E+02
  0
LINE
  8
0
 62
7
 10
-1.93999997E+02
 20
2.71000074E+02
 11
-1.92500006E+02
 21
2.69500083E+02
  0
LINE
  8
0
 62
2
 10
-1.93320042E+02
 20
2.70320023E+02
 11
-1.83000034E+02
 21
2.70320023E+02
  0
LINE
  8
0
 62
7
 10
-1.47738361E+02
 20
2.87139526E+02
 11
-1.39999989E+02
 21
2.87139526E+02
  0
LINE
  8
0
 62
7
 10
-1.53999998E+02
 20
2.91499990E+02
 11
-1.47738358E+02
 21
2.93779041E+02
  0
LINE
  8
0
 62
7
 10
-1.53999972E+02
 20
2.69499990E+02
 11
-1.47738346E+02
 21
2.67220945E+02
  0
LINE
  8
0
 62
7
 10
-1.56999989E+02
 20
2.90680023E+02
 11
-1.53999989E+02
 21
2.90680023E+02
  0
LINE
  8
0
 62
7
 10
-1.56999989E+02
 20
2.70320023E+02
 11
-1.53999989E+02
 21
2.70320023E+02
  0
ARC
  8
0
 62
7
 10
-1.18499973E+02
 20
3.26380280E+02
 40
5.00000000E-01
 50
9.10002493E+01
 51
1.79999951E+02
  0
ARC
  8
0
 62
7
 10
-1.18499973E+02
 20
2.34619720E+02
 40
5.00000000E-01
 50
1.79999977E+02
 51
2.68999679E+02
  0
ARC
  8
0
 62
7
 10
-1.12999989E+02
 20
3.08500031E+02
 40
2.00000000E+00
 50
8.99999818E+01
 51
1.79999951E+02
  0
ARC
  8
0
 62
7
 10
-1.12999989E+02
 20
2.52500061E+02
 40
2.00000000E+00
 50
1.79999977E+02
 51
2.70000028E+02
  0
ARC
  8
0
 62
7
 10
-1.20499989E+02
 20
3.02000061E+02
 40
5.00000000E-01
 50
8.99999818E+01
 51
1.79999951E+02
  0
ARC
  8
0
 62
7
 10
-1.39499973E+02
 20
2.99500031E+02
 40
5.00000000E-01
 50
8.99999818E+01
 51
1.79999951E+02
  0
ARC
  8
0
 62
7
 10
-1.39499973E+02
 20
2.61500061E+02
 40
5.00000000E-01
 50
1.79999977E+02
 51
2.69999974E+02
  0
ARC
  8
0
 62
7
 10
-1.20499989E+02
 20
2.59000031E+02
 40
5.00000000E-01
 50
1.79999977E+02
 51
2.69999974E+02
  0
ARC
  8
0
 62
7
 10
-1.34499973E+02
 20
2.59971771E+02
 40
5.00000000E-01
 50
1.79999977E+02
 51
2.67999192E+02
  0
ARC
  8
0
 62
7
 10
-1.34499973E+02
 20
3.01028320E+02
 40
5.00000000E-01
 50
9.20007356E+01
 51
1.79999951E+02
  0
ARC
  8
0
 62
7
 10
6.34999504E+01
 20
2.34619690E+02
 40
5.00000000E-01
 50
2.71000272E+02
 51
3.59999959E+02
  0
ARC
  8
0
 62
7
 10
6.34999733E+01
 20
3.26380249E+02
 40
5.00000000E-01
 50
3.59999973E+02
 51
8.89996800E+01
  0
ARC
  8
0
 62
7
 10
5.79999657E+01
 20
2.52499939E+02
 40
2.00000000E+00
 50
2.69999991E+02
 51
3.59999945E+02
  0
ARC
  8
0
 62
7
 10
5.79999657E+01
 20
3.08499939E+02
 40
2.00000000E+00
 50
3.59999973E+02
 51
9.00000094E+01
  0
ARC
  8
0
 62
7
 10
6.54999657E+01
 20
2.58999939E+02
 40
5.00000000E-01
 50
2.69999991E+02
 51
3.59999945E+02
  0
ARC
  8
0
 62
7
 10
6.54999657E+01
 20
3.01999939E+02
 40
5.00000000E-01
 50
3.59999973E+02
 51
8.99999549E+01
  0
CIRCLE
  8
0
 62
7
 10
3.49999771E+01
 20
2.64499985E+02
 40
5.00000000E+00
  0
CIRCLE
  8
0
 62
7
 10
-9.00000038E+01
 20
2.64499939E+02
 40
5.00000000E+00
  0
CIRCLE
  8
0
 62
7
 10
-9.89999733E+01
 20
2.91500031E+02
 40
9.25000000E+00
  0
CIRCLE
  8
0
 62
2
 10
-9.90000038E+01
 20
2.91499969E+02
 40
1.04775009E+01
  0
CIRCLE
  8
0
 62
7
 10
-9.89999733E+01
 20
2.91499969E+02
 40
1.10000000E+01
  0
CIRCLE
  8
0
 62
7
 10
4.39999733E+01
 20
2.91500031E+02
 40
9.25000000E+00
  0
CIRCLE
  8
0
 62
2
 10
4.39999962E+01
 20
2.91499969E+02
 40
1.04775009E+01
  0
CIRCLE
  8
0
 62
7
 10
4.39999733E+01
 20
2.91499969E+02
 40
1.10000000E+01
  0
CIRCLE
  8
0
 62
7
 10
-9.00000038E+01
 20
2.64499939E+02
 40
2.59999990E+00
  0
CIRCLE
  8
0
 62
7
 10
3.49999771E+01
 20
2.64499985E+02
 40
2.59999990E+00
  0
POLYLINE
  8
0
 62
7
 66
1
  0
VERTEX
  8
0
 62
7
 10
-1.50306809E+02
 20
2.92821084E+02
  0
VERTEX
  8
0
 62
7
 10
-1.50667267E+02
 20
2.92666909E+02
  0
VERTEX
  8
0
 62
7
 10
-1.51004409E+02
 20
2.92493169E+02
  0
VERTEX
  8
0
 62
7
 10
-1.51315550E+02
 20
2.92301248E+02
  0
VERTEX
  8
0
 62
7
 10
-1.51598215E+02
 20
2.92092674E+02
  0
VERTEX
  8
0
 62
7
 10
-1.51850153E+02
 20
2.91869106E+02
  0
VERTEX
  8
0
 62
7
 10
-1.52069357E+02
 20
2.91632325E+02
  0
VERTEX
  8
0
 62
7
 10
-1.52254084E+02
 20
2.91384215E+02
  0
VERTEX
  8
0
 62
7
 10
-1.52402862E+02
 20
2.91126752E+02
  0
VERTEX
  8
0
 62
7
 10
-1.52514507E+02
 20
2.90861986E+02
  0
VERTEX
  8
0
 62
7
 10
-1.52588131E+02
 20
2.90592024E+02
  0
VERTEX
  8
0
 62
7
 10
-1.52623147E+02
 20
2.90319014E+02
  0
VERTEX
  8
0
 62
7
 10
-1.52619276E+02
 20
2.90045132E+02
  0
VERTEX
  8
0
 62
7
 10
-1.52576550E+02
 20
2.89772556E+02
  0
VERTEX
  8
0
 62
7
 10
-1.52495309E+02
 20
2.89503456E+02
  0
VERTEX
  8
0
 62
7
 10
-1.52376198E+02
 20
2.89239976E+02
  0
VERTEX
  8
0
 62
7
 10
-1.52220167E+02
 20
2.88984212E+02
  0
VERTEX
  8
0
 62
7
 10
-1.52028457E+02
 20
2.88738201E+02
  0
VERTEX
  8
0
 62
7
 10
-1.51802596E+02
 20
2.88503901E+02
  0
VERTEX
  8
0
 62
7
 10
-1.51544379E+02
 20
2.88283177E+02
  0
VERTEX
  8
0
 62
7
 10
-1.51255865E+02
 20
2.88077786E+02
  0
VERTEX
  8
0
 62
7
 10
-1.50939348E+02
 20
2.87889364E+02
  0
VERTEX
  8
0
 62
7
 10
-1.50597349E+02
 20
2.87719410E+02
  0
VERTEX
  8
0
 62
7
 10
-1.50232590E+02
 20
2.87569277E+02
  0
VERTEX
  8
0
 62
7
 10
-1.49847976E+02
 20
2.87440160E+02
  0
VERTEX
  8
0
 62
7
 10
-1.49446568E+02
 20
2.87333088E+02
  0
VERTEX
  8
0
 62
7
 10
-1.49031561E+02
 20
2.87248913E+02
  0
VERTEX
  8
0
 62
7
 10
-1.48606259E+02
 20
2.87188305E+02
  0
VERTEX
  8
0
 62
7
 10
-1.48174048E+02
 20
2.87151746E+02
  0
VERTEX
  8
0
 62
7
 10
-1.47738369E+02
 20
2.87139527E+02
  0
SEQEND
  8
0
  0
POLYLINE
  8
0
 62
7
 66
1
  0
VERTEX
  8
0
 62
7
 10
-1.47738369E+02
 20
2.73860466E+02
  0
VERTEX
  8
0
 62
7
 10
-1.48174048E+02
 20
2.73848247E+02
  0
VERTEX
  8
0
 62
7
 10
-1.48606259E+02
 20
2.73811688E+02
  0
VERTEX
  8
0
 62
7
 10
-1.49031561E+02
 20
2.73751079E+02
  0
VERTEX
  8
0
 62
7
 10
-1.49446568E+02
 20
2.73666904E+02
  0
VERTEX
  8
0
 62
7
 10
-1.49847976E+02
 20
2.73559833E+02
  0
VERTEX
  8
0
 62
7
 10
-1.50232590E+02
 20
2.73430717E+02
  0
VERTEX
  8
0
 62
7
 10
-1.50597349E+02
 20
2.73280584E+02
  0
VERTEX
  8
0
 62
7
 10
-1.50939348E+02
 20
2.73110631E+02
  0
VERTEX
  8
0
 62
7
 10
-1.51255865E+02
 20
2.72922209E+02
  0
VERTEX
  8
0
 62
7
 10
-1.51544379E+02
 20
2.72716818E+02
  0
VERTEX
  8
0
 62
7
 10
-1.51802596E+02
 20
2.72496095E+02
  0
VERTEX
  8
0
 62
7
 10
-1.52028457E+02
 20
2.72261795E+02
  0
VERTEX
  8
0
 62
7
 10
-1.52220167E+02
 20
2.72015784E+02
  0
VERTEX
  8
0
 62
7
 10
-1.52376198E+02
 20
2.71760021E+02
  0
VERTEX
  8
0
 62
7
 10
-1.52495309E+02
 20
2.71496542E+02
  0
VERTEX
  8
0
 62
7
 10
-1.52576550E+02
 20
2.71227443E+02
  0
VERTEX
  8
0
 62
7
 10
-1.52619276E+02
 20
2.70954868E+02
  0
VERTEX
  8
0
 62
7
 10
-1.52623147E+02
 20
2.70680986E+02
  0
VERTEX
  8
0
 62
7
 10
-1.52588131E+02
 20
2.70407977E+02
  0
VERTEX
  8
0
 62
7
 10
-1.52514507E+02
 20
2.70138016E+02
  0
VERTEX
  8
0
 62
7
 10
-1.52402862E+02
 20
2.69873250E+02
  0
VERTEX
  8
0
 62
7
 10
-1.52254084E+02
 20
2.69615788E+02
  0
VERTEX
  8
0
 62
7
 10
-1.52069357E+02
 20
2.69367679E+02
  0
VERTEX
  8
0
 62
7
 10
-1.51850153E+02
 20
2.69130898E+02
  0
VERTEX
  8
0
 62
7
 10
-1.51598215E+02
 20
2.68907331E+02
  0
VERTEX
  8
0
 62
7
 10
-1.51315550E+02
 20
2.68698757E+02
  0
VERTEX
  8
0
 62
7
 10
-1.51004409E+02
 20
2.68506837E+02
  0
VERTEX
  8
0
 62
7
 10
-1.50667267E+02
 20
2.68333097E+02
  0
VERTEX
  8
0
 62
7
 10
-1.50306809E+02
 20
2.68178923E+02
  0
SEQEND
  8
0
  0
POLYLINE
  8
0
 62
7
 66
1
  0
VERTEX
  8
0
 62
7
 10
-1.47738361E+02
 20
2.87139526E+02
  0
VERTEX
  8
0
 62
7
 10
-1.48176509E+02
 20
2.87112798E+02
  0
VERTEX
  8
0
 62
7
 10
-1.48611129E+02
 20
2.87032826E+02
  0
VERTEX
  8
0
 62
7
 10
-1.49038723E+02
 20
2.86900257E+02
  0
VERTEX
  8
0
 62
7
 10
-1.49455846E+02
 20
2.86716156E+02
  0
VERTEX
  8
0
 62
7
 10
-1.49859142E+02
 20
2.86482007E+02
  0
VERTEX
  8
0
 62
7
 10
-1.50245362E+02
 20
2.86199693E+02
  0
VERTEX
  8
0
 62
7
 10
-1.50611397E+02
 20
2.85871490E+02
  0
VERTEX
  8
0
 62
7
 10
-1.50954301E+02
 20
2.85500038E+02
  0
VERTEX
  8
0
 62
7
 10
-1.51271311E+02
 20
2.85088329E+02
  0
VERTEX
  8
0
 62
7
 10
-1.51559876E+02
 20
2.84639677E+02
  0
VERTEX
  8
0
 62
7
 10
-1.51817673E+02
 20
2.84157695E+02
  0
VERTEX
  8
0
 62
7
 10
-1.52042625E+02
 20
2.83646264E+02
  0
VERTEX
  8
0
 62
7
 10
-1.52232922E+02
 20
2.83109500E+02
  0
VERTEX
  8
0
 62
7
 10
-1.52387031E+02
 20
2.82551727E+02
  0
VERTEX
  8
0
 62
7
 10
-1.52503712E+02
 20
2.81977434E+02
  0
VERTEX
  8
0
 62
7
 10
-1.52582026E+02
 20
2.81391245E+02
  0
VERTEX
  8
0
 62
7
 10
-1.52621341E+02
 20
2.80797881E+02
  0
VERTEX
  8
0
 62
7
 10
-1.52621341E+02
 20
2.80202119E+02
  0
VERTEX
  8
0
 62
7
 10
-1.52582026E+02
 20
2.79608755E+02
  0
VERTEX
  8
0
 62
7
 10
-1.52503712E+02
 20
2.79022566E+02
  0
VERTEX
  8
0
 62
7
 10
-1.52387031E+02
 20
2.78448274E+02
  0
VERTEX
  8
0
 62
7
 10
-1.52232922E+02
 20
2.77890500E+02
  0
VERTEX
  8
0
 62
7
 10
-1.52042625E+02
 20
2.77353737E+02
  0
VERTEX
  8
0
 62
7
 10
-1.51817673E+02
 20
2.76842305E+02
  0
VERTEX
  8
0
 62
7
 10
-1.51559876E+02
 20
2.76360323E+02
  0
VERTEX
  8
0
 62
7
 10
-1.51271311E+02
 20
2.75911671E+02
  0
VERTEX
  8
0
 62
7
 10
-1.50954301E+02
 20
2.75499962E+02
  0
VERTEX
  8
0
 62
7
 10
-1.50611397E+02
 20
2.75128510E+02
  0
VERTEX
  8
0
 62
7
 10
-1.50245362E+02
 20
2.74800307E+02
  0
VERTEX
  8
0
 62
7
 10
-1.49859142E+02
 20
2.74517993E+02
  0
VERTEX
  8
0
 62
7
 10
-1.49455846E+02
 20
2.74283844E+02
  0
VERTEX
  8
0
 62
7
 10
-1.49038723E+02
 20
2.74099743E+02
  0
VERTEX
  8
0
 62
7
 10
-1.48611130E+02
 20
2.73967174E+02
  0
VERTEX
  8
0
 62
7
 10
-1.48176509E+02
 20
2.73887202E+02
  0
VERTEX
  8
0
 62
7
 10
-1.47738361E+02
 20
2.73860474E+02
  0
SEQEND
  8
0
  0
LINE
  8
0
 62
4
 10
-1.81570969E+02
 20
2.80500000E+02
 11
-1.71429100E+02
 21
2.80500000E+02
  0
ARC
  8
0
 62
4
 10
-1.93106821E+02
 20
2.72500000E+02
 40
2.31067870E+01
 50
3.39743797E+02
 51
2.02562028E+01
  0
ARC
  8
0
 62
4
 10
-1.93106821E+02
 20
2.88500000E+02
 40
2.31067870E+01
 50
3.39743797E+02
 51
2.02562028E+01
  0
ARC
  8
0
 62
4
 10
-1.59893247E+02
 20
2.72500000E+02
 40
2.31067870E+01
 50
1.59743797E+02
 51
2.00256203E+02
  0
ARC
  8
0
 62
4
 10
-1.59893247E+02
 20
2.88500000E+02
 40
2.31067870E+01
 50
1.59743797E+02
 51
2.00256203E+02
  0
LINE
  8
0
 62
4
 10
-1.70000034E+02
 20
2.96500000E+02
 11
-1.70000034E+02
 21
2.64500000E+02
  0
LINE
  8
0
 62
4
 10
-1.83000034E+02
 20
2.96500000E+02
 11
-1.83000034E+02
 21
2.64500000E+02
  0
LINE
  8
0
 62
4
 10
-1.83000034E+02
 20
2.96500000E+02
 11
-1.70000034E+02
 21
2.96500000E+02
  0
LINE
  8
0
 62
4
 10
-1.83000034E+02
 20
2.64500000E+02
 11
-1.70000034E+02
 21
2.64500000E+02
  0
LINE
  8
0
 62
7
 10
-1.70000034E+02
 20
2.91500031E+02
 11
-1.56999989E+02
 21
2.91500031E+02
  0
LINE
  8
0
 62
2
 10
-1.70000034E+02
 20
2.90680023E+02
 11
-1.56999989E+02
 21
2.90680023E+02
  0
LINE
  8
0
 62
7
 10
-1.70000034E+02
 20
2.69500000E+02
 11
-1.56999989E+02
 21
2.69500000E+02
  0
LINE
  8
0
 62
2
 10
-1.70000034E+02
 20
2.70320023E+02
 11
-1.56999989E+02
 21
2.70320023E+02
  0
LINE
  8
0
 62
6
 10
-3.07320394E+01
 20
2.96410061E+02
 11
-2.72679378E+01
 21
3.02410061E+02
  0
LINE
  8
0
 62
4
 10
-3.89999885E+01
 20
2.97910061E+02
 11
-2.98660139E+01
 21
2.97910061E+02
  0
LINE
  8
0
  6
CENTER
 62
6
 10
-7.39999885E+01
 20
2.99410061E+02
 11
-2.69999885E+01
 21
2.99410061E+02
  0
LINE
  8
0
 62
4
 10
-3.89999885E+01
 20
3.00910061E+02
 11
-2.81339631E+01
 21
3.00910061E+02
  0
LINE
  8
0
 62
6
 10
-5.19999885E+01
 20
3.27335383E+02
 11
-5.19999885E+01
 21
3.25968055E+02
  0
LINE
  8
0
 62
6
 10
-4.89999885E+01
 20
3.27335383E+02
 11
-4.89999885E+01
 21
3.25968055E+02
  0
LINE
  8
0
 62
4
 10
-5.24999885E+01
 20
3.26839825E+02
 11
-5.24999885E+01
 21
3.25968055E+02
  0
LINE
  8
0
 62
4
 10
-4.84999885E+01
 20
3.26839825E+02
 11
-4.84999885E+01
 21
3.25968055E+02
  0
LINE
  8
0
 62
4
 10
-5.39999886E+01
 20
3.25968055E+02
 11
-5.39999886E+01
 21
3.12123549E+02
  0
LINE
  8
0
 62
4
 10
-3.89999886E+01
 20
3.25968055E+02
 11
-3.89999886E+01
 21
2.96579850E+02
  0
LINE
  8
0
  6
CENTER
 62
6
 10
-4.24999885E+01
 20
3.30765579E+02
 11
-4.24999885E+01
 21
3.20500000E+02
  0
LINE
  8
0
  6
CENTER
 62
6
 10
-5.04999885E+01
 20
3.30765579E+02
 11
-5.04999885E+01
 21
3.20500000E+02
  0
LINE
  8
0
  6
CENTER
 62
6
 10
-6.14999886E+01
 20
3.03387826E+02
 11
-6.14999886E+01
 21
2.98387826E+02
  0
LINE
  8
0
 62
4
 10
-4.39999886E+01
 20
2.96806480E+02
 11
-4.39999886E+01
 21
2.97450388E+02
  0
LINE
  8
0
 62
4
 10
-6.89999886E+01
 20
3.12123549E+02
 11
-6.89999886E+01
 21
2.98677647E+02
  0
LINE
  8
0
 62
4
 10
-4.54999886E+01
 20
2.96806480E+02
 11
-4.54999886E+01
 21
2.97081325E+02
  0
LINE
  8
0
 62
4
 10
-7.04999886E+01
 20
3.00885720E+02
 11
-7.04999886E+01
 21
2.97937165E+02
  0
LINE
  8
0
 62
4
 10
-5.39999886E+01
 20
3.25968055E+02
 11
-3.89999886E+01
 21
3.25968055E+02
  0
LINE
  8
0
 62
4
 10
-5.39999886E+01
 20
3.18613836E+02
 11
-3.89999886E+01
 21
3.18613836E+02
  0
LINE
  8
0
 62
4
 10
-6.89999886E+01
 20
3.12123549E+02
 11
-3.89999886E+01
 21
3.12123549E+02
  0
LINE
  8
0
 62
4
 10
-6.89999886E+01
 20
3.02573555E+02
 11
-3.89999886E+01
 21
3.02573555E+02
  0
LINE
  8
0
 62
4
 10
-6.89999886E+01
 20
2.96579850E+02
 11
-5.71487332E+01
 21
2.96579850E+02
  0
POLYLINE
  8
0
 62
4
 66
1
  0
VERTEX
  8
0
 62
4
 10
-4.84999885E+01
 20
3.26839825E+02
  0
VERTEX
  8
0
 62
4
 10
-4.85080399E+01
 20
3.26906984E+02
  0
VERTEX
  8
0
 62
4
 10
-4.85321293E+01
 20
3.26973602E+02
  0
VERTEX
  8
0
 62
4
 10
-4.85720628E+01
 20
3.27039143E+02
  0
VERTEX
  8
0
 62
4
 10
-4.86275188E+01
 20
3.27103080E+02
  0
VERTEX
  8
0
 62
4
 10
-4.86980508E+01
 20
3.27164896E+02
  0
VERTEX
  8
0
 62
4
 10
-4.87830909E+01
 20
3.27224096E+02
  0
VERTEX
  8
0
 62
4
 10
-4.88819545E+01
 20
3.27280201E+02
  0
VERTEX
  8
0
 62
4
 10
-4.89938456E+01
 20
3.27332761E+02
  0
VERTEX
  8
0
 62
4
 10
-4.91178632E+01
 20
3.27381352E+02
  0
VERTEX
  8
0
 62
4
 10
-4.92530089E+01
 20
3.27425583E+02
  0
VERTEX
  8
0
 62
4
 10
-4.93981945E+01
 20
3.27465098E+02
  0
VERTEX
  8
0
 62
4
 10
-4.95522512E+01
 20
3.27499579E+02
  0
VERTEX
  8
0
 62
4
 10
-4.97139384E+01
 20
3.27528747E+02
  0
VERTEX
  8
0
 62
4
 10
-4.98819545E+01
 20
3.27552369E+02
  0
VERTEX
  8
0
 62
4
 10
-5.00549466E+01
 20
3.27570254E+02
  0
VERTEX
  8
0
 62
4
 10
-5.02315220E+01
 20
3.27582258E+02
  0
VERTEX
  8
0
 62
4
 10
-5.04102588E+01
 20
3.27588284E+02
  0
VERTEX
  8
0
 62
4
 10
-5.05897181E+01
 20
3.27588284E+02
  0
VERTEX
  8
0
 62
4
 10
-5.07684550E+01
 20
3.27582258E+02
  0
VERTEX
  8
0
 62
4
 10
-5.09450304E+01
 20
3.27570254E+02
  0
VERTEX
  8
0
 62
4
 10
-5.11180225E+01
 20
3.27552369E+02
  0
VERTEX
  8
0
 62
4
 10
-5.12860386E+01
 20
3.27528747E+02
  0
VERTEX
  8
0
 62
4
 10
-5.14477258E+01
 20
3.27499579E+02
  0
VERTEX
  8
0
 62
4
 10
-5.16017825E+01
 20
3.27465098E+02
  0
VERTEX
  8
0
 62
4
 10
-5.17469681E+01
 20
3.27425583E+02
  0
VERTEX
  8
0
 62
4
 10
-5.18821138E+01
 20
3.27381352E+02
  0
VERTEX
  8
0
 62
4
 10
-5.20061314E+01
 20
3.27332761E+02
  0
VERTEX
  8
0
 62
4
 10
-5.21180225E+01
 20
3.27280201E+02
  0
VERTEX
  8
0
 62
4
 10
-5.22168861E+01
 20
3.27224096E+02
  0
VERTEX
  8
0
 62
4
 10
-5.23019262E+01
 20
3.27164896E+02
  0
VERTEX
  8
0
 62
4
 10
-5.23724582E+01
 20
3.27103080E+02
  0
VERTEX
  8
0
 62
4
 10
-5.24279142E+01
 20
3.27039143E+02
  0
VERTEX
  8
0
 62
4
 10
-5.24678477E+01
 20
3.26973602E+02
  0
VERTEX
  8
0
 62
4
 10
-5.24919371E+01
 20
3.26906984E+02
  0
VERTEX
  8
0
 62
4
 10
-5.24999885E+01
 20
3.26839825E+02
  0
SEQEND
  8
0
  0
LINE
  8
0
 62
6
 10
-4.09999885E+01
 20
3.27335383E+02
 11
-4.09999885E+01
 21
3.25968055E+02
  0
LINE
  8
0
 62
4
 10
-4.04999885E+01
 20
3.26839825E+02
 11
-4.04999885E+01
 21
3.25968055E+02
  0
POLYLINE
  8
0
 62
4
 66
1
  0
VERTEX
  8
0
 62
4
 10
-4.04999885E+01
 20
3.26839825E+02
  0
VERTEX
  8
0
 62
4
 10
-4.05080399E+01
 20
3.26906984E+02
  0
VERTEX
  8
0
 62
4
 10
-4.05321293E+01
 20
3.26973602E+02
  0
VERTEX
  8
0
 62
4
 10
-4.05720628E+01
 20
3.27039143E+02
  0
VERTEX
  8
0
 62
4
 10
-4.06275188E+01
 20
3.27103080E+02
  0
VERTEX
  8
0
 62
4
 10
-4.06980508E+01
 20
3.27164896E+02
  0
VERTEX
  8
0
 62
4
 10
-4.07830909E+01
 20
3.27224096E+02
  0
VERTEX
  8
0
 62
4
 10
-4.08819545E+01
 20
3.27280201E+02
  0
VERTEX
  8
0
 62
4
 10
-4.09938456E+01
 20
3.27332761E+02
  0
VERTEX
  8
0
 62
4
 10
-4.11178632E+01
 20
3.27381352E+02
  0
VERTEX
  8
0
 62
4
 10
-4.12530089E+01
 20
3.27425583E+02
  0
VERTEX
  8
0
 62
4
 10
-4.13981945E+01
 20
3.27465098E+02
  0
VERTEX
  8
0
 62
4
 10
-4.15522512E+01
 20
3.27499579E+02
  0
VERTEX
  8
0
 62
4
 10
-4.17139384E+01
 20
3.27528747E+02
  0
VERTEX
  8
0
 62
4
 10
-4.18819545E+01
 20
3.27552369E+02
  0
VERTEX
  8
0
 62
4
 10
-4.20549466E+01
 20
3.27570254E+02
  0
VERTEX
  8
0
 62
4
 10
-4.22315220E+01
 20
3.27582258E+02
  0
VERTEX
  8
0
 62
4
 10
-4.24102588E+01
 20
3.27588284E+02
  0
VERTEX
  8
0
 62
4
 10
-4.25897181E+01
 20
3.27588284E+02
  0
VERTEX
  8
0
 62
4
 10
-4.27684550E+01
 20
3.27582258E+02
  0
VERTEX
  8
0
 62
4
 10
-4.29450304E+01
 20
3.27570254E+02
  0
VERTEX
  8
0
 62
4
 10
-4.31180225E+01
 20
3.27552369E+02
  0
VERTEX
  8
0
 62
4
 10
-4.32860386E+01
 20
3.27528747E+02
  0
VERTEX
  8
0
 62
4
 10
-4.34477258E+01
 20
3.27499579E+02
  0
VERTEX
  8
0
 62
4
 10
-4.36017825E+01
 20
3.27465098E+02
  0
VERTEX
  8
0
 62
4
 10
-4.37469681E+01
 20
3.27425583E+02
  0
VERTEX
  8
0
 62
4
 10
-4.38821138E+01
 20
3.27381352E+02
  0
VERTEX
  8
0
 62
4
 10
-4.40061314E+01
 20
3.27332761E+02
  0
VERTEX
  8
0
 62
4
 10
-4.41180225E+01
 20
3.27280201E+02
  0
VERTEX
  8
0
 62
4
 10
-4.42168861E+01
 20
3.27224096E+02
  0
VERTEX
  8
0
 62
4
 10
-4.43019262E+01
 20
3.27164896E+02
  0
VERTEX
  8
0
 62
4
 10
-4.43724582E+01
 20
3.27103080E+02
  0
VERTEX
  8
0
 62
4
 10
-4.44279142E+01
 20
3.27039143E+02
  0
VERTEX
  8
0
 62
4
 10
-4.44678477E+01
 20
3.26973602E+02
  0
VERTEX
  8
0
 62
4
 10
-4.44919371E+01
 20
3.26906984E+02
  0
VERTEX
  8
0
 62
4
 10
-4.44999885E+01
 20
3.26839825E+02
  0
SEQEND
  8
0
  0
LINE
  8
0
 62
6
 10
-4.39999885E+01
 20
3.27335383E+02
 11
-4.39999885E+01
 21
3.25968055E+02
  0
LINE
  8
0
 62
4
 10
-4.44999885E+01
 20
3.26839825E+02
 11
-4.44999885E+01
 21
3.25968055E+02
  0
LINE
  8
0
 62
4
 10
-4.98499886E+01
 20
2.98170660E+02
 11
-4.98499886E+01
 21
2.97592529E+02
  0
LINE
  8
0
 62
4
 10
-5.81499886E+01
 20
2.99224373E+02
 11
-5.81499886E+01
 21
2.97592529E+02
  0
POLYLINE
  8
0
 62
4
 66
1
  0
VERTEX
  8
0
 62
4
 10
-5.02989705E+01
 20
2.99927693E+02
  0
VERTEX
  8
0
 62
4
 10
-5.04806509E+01
 20
3.00048232E+02
  0
VERTEX
  8
0
 62
4
 10
-5.06902340E+01
 20
3.00162239E+02
  0
VERTEX
  8
0
 62
4
 10
-5.09260581E+01
 20
3.00268810E+02
  0
VERTEX
  8
0
 62
4
 10
-5.11862536E+01
 20
3.00367101E+02
  0
VERTEX
  8
0
 62
4
 10
-5.14687576E+01
 20
3.00456332E+02
  0
VERTEX
  8
0
 62
4
 10
-5.17713301E+01
 20
3.00535795E+02
  0
VERTEX
  8
0
 62
4
 10
-5.20915723E+01
 20
3.00604860E+02
  0
VERTEX
  8
0
 62
4
 10
-5.24269452E+01
 20
3.00662981E+02
  0
VERTEX
  8
0
 62
4
 10
-5.27747899E+01
 20
3.00709696E+02
  0
VERTEX
  8
0
 62
4
 10
-5.31323484E+01
 20
3.00744634E+02
  0
VERTEX
  8
0
 62
4
 10
-5.34967859E+01
 20
3.00767520E+02
  0
VERTEX
  8
0
 62
4
 10
-5.38652130E+01
 20
3.00778170E+02
  0
VERTEX
  8
0
 62
4
 10
-5.42347086E+01
 20
3.00776502E+02
  0
VERTEX
  8
0
 62
4
 10
-5.46023433E+01
 20
3.00762527E+02
  0
VERTEX
  8
0
 62
4
 10
-5.49652023E+01
 20
3.00736358E+02
  0
VERTEX
  8
0
 62
4
 10
-5.53204087E+01
 20
3.00698201E+02
  0
VERTEX
  8
0
 62
4
 10
-5.56651462E+01
 20
3.00648359E+02
  0
VERTEX
  8
0
 62
4
 10
-5.59966818E+01
 20
3.00587226E+02
  0
VERTEX
  8
0
 62
4
 10
-5.63123867E+01
 20
3.00515289E+02
  0
VERTEX
  8
0
 62
4
 10
-5.66097580E+01
 20
3.00433117E+02
  0
VERTEX
  8
0
 62
4
 10
-5.68864381E+01
 20
3.00341361E+02
  0
VERTEX
  8
0
 62
4
 10
-5.71402332E+01
 20
3.00240749E+02
  0
VERTEX
  8
0
 62
4
 10
-5.73691312E+01
 20
3.00132080E+02
  0
VERTEX
  8
0
 62
4
 10
-5.75713173E+01
 20
3.00016213E+02
  0
VERTEX
  8
0
 62
4
 10
-5.77451884E+01
 20
2.99894068E+02
  0
VERTEX
  8
0
 62
4
 10
-5.78893661E+01
 20
2.99766614E+02
  0
VERTEX
  8
0
 62
4
 10
-5.80027073E+01
 20
2.99634861E+02
  0
VERTEX
  8
0
 62
4
 10
-5.80843133E+01
 20
2.99499853E+02
  0
VERTEX
  8
0
 62
4
 10
-5.81335372E+01
 20
2.99362661E+02
  0
VERTEX
  8
0
 62
4
 10
-5.81499886E+01
 20
2.99224373E+02
  0
SEQEND
  8
0
  0
POLYLINE
  8
0
 62
4
 66
1
  0
VERTEX
  8
0
 62
4
 10
-5.81499886E+01
 20
2.97592529E+02
  0
VERTEX
  8
0
 62
4
 10
-5.81341966E+01
 20
2.97457035E+02
  0
VERTEX
  8
0
 62
4
 10
-5.80869408E+01
 20
2.97322573E+02
  0
VERTEX
  8
0
 62
4
 10
-5.80085808E+01
 20
2.97190164E+02
  0
VERTEX
  8
0
 62
4
 10
-5.78997130E+01
 20
2.97060819E+02
  0
VERTEX
  8
0
 62
4
 10
-5.77611659E+01
 20
2.96935519E+02
  0
VERTEX
  8
0
 62
4
 10
-5.75939940E+01
 20
2.96815220E+02
  0
VERTEX
  8
0
 62
4
 10
-5.73994696E+01
 20
2.96700837E+02
  0
VERTEX
  8
0
 62
4
 10
-5.71790730E+01
 20
2.96593240E+02
  0
VERTEX
  8
0
 62
4
 10
-5.69344817E+01
 20
2.96493249E+02
  0
VERTEX
  8
0
 62
4
 10
-5.66675572E+01
 20
2.96401623E+02
  0
VERTEX
  8
0
 62
4
 10
-5.63803308E+01
 20
2.96319061E+02
  0
VERTEX
  8
0
 62
4
 10
-5.60749886E+01
 20
2.96246191E+02
  0
VERTEX
  8
0
 62
4
 10
-5.57538544E+01
 20
2.96183567E+02
  0
VERTEX
  8
0
 62
4
 10
-5.54193722E+01
 20
2.96131667E+02
  0
VERTEX
  8
0
 62
4
 10
-5.50740876E+01
 20
2.96090884E+02
  0
VERTEX
  8
0
 62
4
 10
-5.47206285E+01
 20
2.96061530E+02
  0
VERTEX
  8
0
 62
4
 10
-5.43616849E+01
 20
2.96043827E+02
  0
VERTEX
  8
0
 62
4
 10
-5.39999886E+01
 20
2.96037912E+02
  0
VERTEX
  8
0
 62
4
 10
-5.36382923E+01
 20
2.96043827E+02
  0
VERTEX
  8
0
 62
4
 10
-5.32793487E+01
 20
2.96061530E+02
  0
VERTEX
  8
0
 62
4
 10
-5.29258896E+01
 20
2.96090884E+02
  0
VERTEX
  8
0
 62
4
 10
-5.25806050E+01
 20
2.96131667E+02
  0
VERTEX
  8
0
 62
4
 10
-5.22461228E+01
 20
2.96183567E+02
  0
VERTEX
  8
0
 62
4
 10
-5.19249886E+01
 20
2.96246191E+02
  0
VERTEX
  8
0
 62
4
 10
-5.16196464E+01
 20
2.96319061E+02
  0
VERTEX
  8
0
 62
4
 10
-5.13324200E+01
 20
2.96401623E+02
  0
VERTEX
  8
0
 62
4
 10
-5.10654955E+01
 20
2.96493249E+02
  0
VERTEX
  8
0
 62
4
 10
-5.08209042E+01
 20
2.96593240E+02
  0
VERTEX
  8
0
 62
4
 10
-5.06005076E+01
 20
2.96700837E+02
  0
VERTEX
  8
0
 62
4
 10
-5.04059832E+01
 20
2.96815220E+02
  0
VERTEX
  8
0
 62
4
 10
-5.02388113E+01
 20
2.96935519E+02
  0
VERTEX
  8
0
 62
4
 10
-5.01002642E+01
 20
2.97060819E+02
  0
VERTEX
  8
0
 62
4
 10
-4.99913964E+01
 20
2.97190164E+02
  0
VERTEX
  8
0
 62
4
 10
-4.99130364E+01
 20
2.97322573E+02
  0
VERTEX
  8
0
 62
4
 10
-4.98657806E+01
 20
2.97457035E+02
  0
VERTEX
  8
0
 62
4
 10
-4.98499886E+01
 20
2.97592529E+02
  0
VERTEX
  8
0
 62
4
 10
-4.98657806E+01
 20
2.97728023E+02
  0
VERTEX
  8
0
 62
4
 10
-4.99130364E+01
 20
2.97862485E+02
  0
VERTEX
  8
0
 62
4
 10
-4.99913964E+01
 20
2.97994894E+02
  0
VERTEX
  8
0
 62
4
 10
-5.01002642E+01
 20
2.98124239E+02
  0
VERTEX
  8
0
 62
4
 10
-5.02388113E+01
 20
2.98249539E+02
  0
VERTEX
  8
0
 62
4
 10
-5.04059832E+01
 20
2.98369838E+02
  0
VERTEX
  8
0
 62
4
 10
-5.06005076E+01
 20
2.98484221E+02
  0
VERTEX
  8
0
 62
4
 10
-5.08209042E+01
 20
2.98591818E+02
  0
VERTEX
  8
0
 62
4
 10
-5.10654955E+01
 20
2.98691809E+02
  0
VERTEX
  8
0
 62
4
 10
-5.13324200E+01
 20
2.98783435E+02
  0
VERTEX
  8
0
 62
4
 10
-5.16196464E+01
 20
2.98865997E+02
  0
VERTEX
  8
0
 62
4
 10
-5.19249886E+01
 20
2.98938867E+02
  0
VERTEX
  8
0
 62
4
 10
-5.22461228E+01
 20
2.99001491E+02
  0
VERTEX
  8
0
 62
4
 10
-5.25806050E+01
 20
2.99053391E+02
  0
VERTEX
  8
0
 62
4
 10
-5.29258896E+01
 20
2.99094174E+02
  0
VERTEX
  8
0
 62
4
 10
-5.32793487E+01
 20
2.99123528E+02
  0
VERTEX
  8
0
 62
4
 10
-5.36382923E+01
 20
2.99141231E+02
  0
VERTEX
  8
0
 62
4
 10
-5.39999886E+01
 20
2.99147146E+02
  0
VERTEX
  8
0
 62
4
 10
-5.43616849E+01
 20
2.99141231E+02
  0
VERTEX
  8
0
 62
4
 10
-5.47206285E+01
 20
2.99123528E+02
  0
VERTEX
  8
0
 62
4
 10
-5.50740876E+01
 20
2.99094174E+02
  0
VERTEX
  8
0
 62
4
 10
-5.54193722E+01
 20
2.99053391E+02
  0
VERTEX
  8
0
 62
4
 10
-5.57538544E+01
 20
2.99001491E+02
  0
VERTEX
  8
0
 62
4
 10
-5.60749886E+01
 20
2.98938867E+02
  0
VERTEX
  8
0
 62
4
 10
-5.63803308E+01
 20
2.98865997E+02
  0
VERTEX
  8
0
 62
4
 10
-5.66675572E+01
 20
2.98783435E+02
  0
VERTEX
  8
0
 62
4
 10
-5.69344817E+01
 20
2.98691809E+02
  0
VERTEX
  8
0
 62
4
 10
-5.71790730E+01
 20
2.98591818E+02
  0
VERTEX
  8
0
 62
4
 10
-5.73994696E+01
 20
2.98484221E+02
  0
VERTEX
  8
0
 62
4
 10
-5.75939940E+01
 20
2.98369838E+02
  0
VERTEX
  8
0
 62
4
 10
-5.77611659E+01
 20
2.98249539E+02
  0
VERTEX
  8
0
 62
4
 10
-5.78997130E+01
 20
2.98124239E+02
  0
VERTEX
  8
0
 62
4
 10
-5.80085808E+01
 20
2.97994894E+02
  0
VERTEX
  8
0
 62
4
 10
-5.80869408E+01
 20
2.97862485E+02
  0
VERTEX
  8
0
 62
4
 10
-5.81341966E+01
 20
2.97728023E+02
  0
VERTEX
  8
0
 62
4
 10
-5.81499886E+01
 20
2.97592529E+02
  0
SEQEND
  8
0
  0
ARC
  8
0
 62
4
 10
-5.96166958E+01
 20
3.12012670E+02
 40
1.61228529E+01
 50
2.83811345E+02
 51
2.97258956E+02
  0
ARC
  8
0
 62
4
 10
-4.83832787E+01
 20
3.12012678E+02
 40
1.61228609E+01
 50
2.42741048E+02
 51
2.56188651E+02
  0
POLYLINE
  8
0
 62
4
 66
1
  0
VERTEX
  8
0
 62
4
 10
-5.02999886E+01
 20
3.00146056E+02
  0
VERTEX
  8
0
 62
4
 10
-5.04466312E+01
 20
3.00264762E+02
  0
VERTEX
  8
0
 62
4
 10
-5.06203499E+01
 20
3.00378225E+02
  0
VERTEX
  8
0
 62
4
 10
-5.08198210E+01
 20
3.00485580E+02
  0
VERTEX
  8
0
 62
4
 10
-5.10435246E+01
 20
3.00586010E+02
  0
VERTEX
  8
0
 62
4
 10
-5.12897562E+01
 20
3.00678750E+02
  0
VERTEX
  8
0
 62
4
 10
-5.15566393E+01
 20
3.00763091E+02
  0
VERTEX
  8
0
 62
4
 10
-5.18421405E+01
 20
3.00838393E+02
  0
VERTEX
  8
0
 62
4
 10
-5.21440842E+01
 20
3.00904081E+02
  0
VERTEX
  8
0
 62
4
 10
-5.24601697E+01
 20
3.00959654E+02
  0
VERTEX
  8
0
 62
4
 10
-5.27879884E+01
 20
3.01004689E+02
  0
VERTEX
  8
0
 62
4
 10
-5.31250424E+01
 20
3.01038843E+02
  0
VERTEX
  8
0
 62
4
 10
-5.34687634E+01
 20
3.01061856E+02
  0
VERTEX
  8
0
 62
4
 10
-5.38165323E+01
 20
3.01073553E+02
  0
VERTEX
  8
0
 62
4
 10
-5.41656991E+01
 20
3.01073843E+02
  0
VERTEX
  8
0
 62
4
 10
-5.45136032E+01
 20
3.01062725E+02
  0
VERTEX
  8
0
 62
4
 10
-5.48575936E+01
 20
3.01040284E+02
  0
VERTEX
  8
0
 62
4
 10
-5.51950491E+01
 20
3.01006691E+02
  0
VERTEX
  8
0
 62
4
 10
-5.55233985E+01
 20
3.00962202E+02
  0
VERTEX
  8
0
 62
4
 10
-5.58401396E+01
 20
3.00907155E+02
  0
VERTEX
  8
0
 62
4
 10
-5.61428590E+01
 20
3.00841970E+02
  0
VERTEX
  8
0
 62
4
 10
-5.64292500E+01
 20
3.00767144E+02
  0
VERTEX
  8
0
 62
4
 10
-5.66971304E+01
 20
3.00683247E+02
  0
VERTEX
  8
0
 62
4
 10
-5.69444588E+01
 20
3.00590918E+02
  0
VERTEX
  8
0
 62
4
 10
-5.71693508E+01
 20
3.00490862E+02
  0
VERTEX
  8
0
 62
4
 10
-5.73700926E+01
 20
3.00383839E+02
  0
VERTEX
  8
0
 62
4
 10
-5.75451546E+01
 20
3.00270666E+02
  0
VERTEX
  8
0
 62
4
 10
-5.76932029E+01
 20
3.00152205E+02
  0
VERTEX
  8
0
 62
4
 10
-5.78131093E+01
 20
3.00029359E+02
  0
VERTEX
  8
0
 62
4
 10
-5.79039602E+01
 20
2.99903064E+02
  0
VERTEX
  8
0
 62
4
 10
-5.79650634E+01
 20
2.99774282E+02
  0
VERTEX
  8
0
 62
4
 10
-5.79959532E+01
 20
2.99643994E+02
  0
SEQEND
  8
0
  0
LINE
  8
0
 62
4
 10
-4.98999886E+01
 20
2.99960642E+02
 11
-4.98999886E+01
 21
2.98482911E+02
  0
POLYLINE
  8
0
 62
4
 66
1
  0
VERTEX
  8
0
 62
4
 10
-4.30999886E+01
 20
2.99960642E+02
  0
VERTEX
  8
0
 62
4
 10
-4.31136760E+01
 20
3.00074812E+02
  0
VERTEX
  8
0
 62
4
 10
-4.31546280E+01
 20
3.00188063E+02
  0
VERTEX
  8
0
 62
4
 10
-4.32225149E+01
 20
3.00299483E+02
  0
VERTEX
  8
0
 62
4
 10
-4.33167900E+01
 20
3.00408175E+02
  0
VERTEX
  8
0
 62
4
 10
-4.34366944E+01
 20
3.00513263E+02
  0
VERTEX
  8
0
 62
4
 10
-4.35812627E+01
 20
3.00613903E+02
  0
VERTEX
  8
0
 62
4
 10
-4.37493308E+01
 20
3.00709282E+02
  0
VERTEX
  8
0
 62
4
 10
-4.39395456E+01
 20
3.00798634E+02
  0
VERTEX
  8
0
 62
4
 10
-4.41503756E+01
 20
3.00881239E+02
  0
VERTEX
  8
0
 62
4
 10
-4.43801233E+01
 20
3.00956431E+02
  0
VERTEX
  8
0
 62
4
 10
-4.46269388E+01
 20
3.01023607E+02
  0
VERTEX
  8
0
 62
4
 10
-4.48888351E+01
 20
3.01082223E+02
  0
VERTEX
  8
0
 62
4
 10
-4.51637035E+01
 20
3.01131810E+02
  0
VERTEX
  8
0
 62
4
 10
-4.54493308E+01
 20
3.01171967E+02
  0
VERTEX
  8
0
 62
4
 10
-4.57434174E+01
 20
3.01202371E+02
  0
VERTEX
  8
0
 62
4
 10
-4.60435955E+01
 20
3.01222777E+02
  0
VERTEX
  8
0
 62
4
 10
-4.63474482E+01
 20
3.01233022E+02
  0
VERTEX
  8
0
 62
4
 10
-4.66525290E+01
 20
3.01233022E+02
  0
VERTEX
  8
0
 62
4
 10
-4.69563817E+01
 20
3.01222777E+02
  0
VERTEX
  8
0
 62
4
 10
-4.72565598E+01
 20
3.01202371E+02
  0
VERTEX
  8
0
 62
4
 10
-4.75506464E+01
 20
3.01171967E+02
  0
VERTEX
  8
0
 62
4
 10
-4.78362737E+01
 20
3.01131810E+02
  0
VERTEX
  8
0
 62
4
 10
-4.81111420E+01
 20
3.01082223E+02
  0
VERTEX
  8
0
 62
4
 10
-4.83730383E+01
 20
3.01023607E+02
  0
VERTEX
  8
0
 62
4
 10
-4.86198539E+01
 20
3.00956431E+02
  0
VERTEX
  8
0
 62
4
 10
-4.88496016E+01
 20
3.00881239E+02
  0
VERTEX
  8
0
 62
4
 10
-4.90604316E+01
 20
3.00798634E+02
  0
VERTEX
  8
0
 62
4
 10
-4.92506464E+01
 20
3.00709282E+02
  0
VERTEX
  8
0
 62
4
 10
-4.94187145E+01
 20
3.00613903E+02
  0
VERTEX
  8
0
 62
4
 10
-4.95632827E+01
 20
3.00513263E+02
  0
VERTEX
  8
0
 62
4
 10
-4.96831872E+01
 20
3.00408175E+02
  0
VERTEX
  8
0
 62
4
 10
-4.97774623E+01
 20
3.00299483E+02
  0
VERTEX
  8
0
 62
4
 10
-4.98453492E+01
 20
3.00188063E+02
  0
VERTEX
  8
0
 62
4
 10
-4.98863012E+01
 20
3.00074812E+02
  0
VERTEX
  8
0
 62
4
 10
-4.98999886E+01
 20
2.99960642E+02
  0
SEQEND
  8
0
  0
POLYLINE
  8
0
 62
4
 66
1
  0
VERTEX
  8
0
 62
4
 10
-4.30999886E+01
 20
2.98912924E+02
  0
VERTEX
  8
0
 62
4
 10
-4.31136760E+01
 20
2.99027094E+02
  0
VERTEX
  8
0
 62
4
 10
-4.31546280E+01
 20
2.99140345E+02
  0
VERTEX
  8
0
 62
4
 10
-4.32225149E+01
 20
2.99251765E+02
  0
VERTEX
  8
0
 62
4
 10
-4.33167900E+01
 20
2.99360457E+02
  0
VERTEX
  8
0
 62
4
 10
-4.34366944E+01
 20
2.99465545E+02
  0
VERTEX
  8
0
 62
4
 10
-4.35812627E+01
 20
2.99566185E+02
  0
VERTEX
  8
0
 62
4
 10
-4.37493308E+01
 20
2.99661564E+02
  0
VERTEX
  8
0
 62
4
 10
-4.39395456E+01
 20
2.99750916E+02
  0
VERTEX
  8
0
 62
4
 10
-4.41503756E+01
 20
2.99833521E+02
  0
VERTEX
  8
0
 62
4
 10
-4.43801233E+01
 20
2.99908713E+02
  0
VERTEX
  8
0
 62
4
 10
-4.46269388E+01
 20
2.99975889E+02
  0
VERTEX
  8
0
 62
4
 10
-4.48888351E+01
 20
3.00034505E+02
  0
VERTEX
  8
0
 62
4
 10
-4.51637035E+01
 20
3.00084092E+02
  0
VERTEX
  8
0
 62
4
 10
-4.54493308E+01
 20
3.00124249E+02
  0
VERTEX
  8
0
 62
4
 10
-4.57434174E+01
 20
3.00154653E+02
  0
VERTEX
  8
0
 62
4
 10
-4.60435955E+01
 20
3.00175059E+02
  0
VERTEX
  8
0
 62
4
 10
-4.63474482E+01
 20
3.00185304E+02
  0
VERTEX
  8
0
 62
4
 10
-4.66525290E+01
 20
3.00185304E+02
  0
VERTEX
  8
0
 62
4
 10
-4.69563817E+01
 20
3.00175059E+02
  0
VERTEX
  8
0
 62
4
 10
-4.72565598E+01
 20
3.00154653E+02
  0
VERTEX
  8
0
 62
4
 10
-4.75506464E+01
 20
3.00124249E+02
  0
VERTEX
  8
0
 62
4
 10
-4.78362737E+01
 20
3.00084092E+02
  0
VERTEX
  8
0
 62
4
 10
-4.81111420E+01
 20
3.00034505E+02
  0
VERTEX
  8
0
 62
4
 10
-4.83730383E+01
 20
2.99975889E+02
  0
VERTEX
  8
0
 62
4
 10
-4.86198539E+01
 20
2.99908713E+02
  0
VERTEX
  8
0
 62
4
 10
-4.88496016E+01
 20
2.99833521E+02
  0
VERTEX
  8
0
 62
4
 10
-4.90604316E+01
 20
2.99750916E+02
  0
VERTEX
  8
0
 62
4
 10
-4.92506464E+01
 20
2.99661564E+02
  0
VERTEX
  8
0
 62
4
 10
-4.94187145E+01
 20
2.99566185E+02
  0
VERTEX
  8
0
 62
4
 10
-4.95632827E+01
 20
2.99465545E+02
  0
VERTEX
  8
0
 62
4
 10
-4.96831872E+01
 20
2.99360457E+02
  0
VERTEX
  8
0
 62
4
 10
-4.97774623E+01
 20
2.99251765E+02
  0
VERTEX
  8
0
 62
4
 10
-4.98453492E+01
 20
2.99140345E+02
  0
VERTEX
  8
0
 62
4
 10
-4.98863012E+01
 20
2.99027094E+02
  0
VERTEX
  8
0
 62
4
 10
-4.98999886E+01
 20
2.98912924E+02
  0
SEQEND
  8
0
  0
LINE
  8
0
 62
4
 10
-4.30999886E+01
 20
2.98482911E+02
 11
-4.30999886E+01
 21
2.99960642E+02
  0
ARC
  8
0
 62
4
 10
-4.40999882E+01
 20
2.98482911E+02
 40
1.00000000E+00
 50
2.82827510E+02
 51
0.00000000E+00
  0
ARC
  8
0
 62
4
 10
-4.88999889E+01
 20
2.98482911E+02
 40
1.00000000E+00
 50
1.80000000E+02
 51
2.57172490E+02
  0
ARC
  8
0
 62
4
 10
-5.18873734E+01
 20
3.12239665E+02
 40
1.54729912E+01
 50
2.83783165E+02
 51
2.97543924E+02
  0
ARC
  8
0
 62
4
 10
-4.11126033E+01
 20
3.12239667E+02
 40
1.54729926E+01
 50
2.42456077E+02
 51
2.56216834E+02
  0
LINE
  8
0
 62
4
 10
-4.26999886E+01
 20
3.00887826E+02
 11
-4.26999886E+01
 21
2.99960642E+02
  0
LINE
  8
0
 62
4
 10
-5.02999886E+01
 20
3.00887826E+02
 11
-5.02999886E+01
 21
2.99960642E+02
  0
POLYLINE
  8
0
 62
4
 66
1
  0
VERTEX
  8
0
 62
4
 10
-4.26999886E+01
 20
3.00887826E+02
  0
VERTEX
  8
0
 62
4
 10
-4.27152863E+01
 20
3.01015428E+02
  0
VERTEX
  8
0
 62
4
 10
-4.27610562E+01
 20
3.01142003E+02
  0
VERTEX
  8
0
 62
4
 10
-4.28369297E+01
 20
3.01266531E+02
  0
VERTEX
  8
0
 62
4
 10
-4.29422961E+01
 20
3.01388010E+02
  0
VERTEX
  8
0
 62
4
 10
-4.30763069E+01
 20
3.01505462E+02
  0
VERTEX
  8
0
 62
4
 10
-4.32378832E+01
 20
3.01617941E+02
  0
VERTEX
  8
0
 62
4
 10
-4.34257240E+01
 20
3.01724541E+02
  0
VERTEX
  8
0
 62
4
 10
-4.36383170E+01
 20
3.01824405E+02
  0
VERTEX
  8
0
 62
4
 10
-4.38739505E+01
 20
3.01916728E+02
  0
VERTEX
  8
0
 62
4
 10
-4.41307273E+01
 20
3.02000767E+02
  0
VERTEX
  8
0
 62
4
 10
-4.44065801E+01
 20
3.02075845E+02
  0
VERTEX
  8
0
 62
4
 10
-4.46992877E+01
 20
3.02141358E+02
  0
VERTEX
  8
0
 62
4
 10
-4.50064935E+01
 20
3.02196778E+02
  0
VERTEX
  8
0
 62
4
 10
-4.53257240E+01
 20
3.02241660E+02
  0
VERTEX
  8
0
 62
4
 10
-4.56544090E+01
 20
3.02275641E+02
  0
VERTEX
  8
0
 62
4
 10
-4.59899022E+01
 20
3.02298448E+02
  0
VERTEX
  8
0
 62
4
 10
-4.63295022E+01
 20
3.02309898E+02
  0
VERTEX
  8
0
 62
4
 10
-4.66704749E+01
 20
3.02309898E+02
  0
VERTEX
  8
0
 62
4
 10
-4.70100750E+01
 20
3.02298448E+02
  0
VERTEX
  8
0
 62
4
 10
-4.73455681E+01
 20
3.02275641E+02
  0
VERTEX
  8
0
 62
4
 10
-4.76742532E+01
 20
3.02241660E+02
  0
VERTEX
  8
0
 62
4
 10
-4.79934837E+01
 20
3.02196778E+02
  0
VERTEX
  8
0
 62
4
 10
-4.83006895E+01
 20
3.02141358E+02
  0
VERTEX
  8
0
 62
4
 10
-4.85933971E+01
 20
3.02075845E+02
  0
VERTEX
  8
0
 62
4
 10
-4.88692498E+01
 20
3.02000767E+02
  0
VERTEX
  8
0
 62
4
 10
-4.91260266E+01
 20
3.01916728E+02
  0
VERTEX
  8
0
 62
4
 10
-4.93616602E+01
 20
3.01824405E+02
  0
VERTEX
  8
0
 62
4
 10
-4.95742532E+01
 20
3.01724541E+02
  0
VERTEX
  8
0
 62
4
 10
-4.97620940E+01
 20
3.01617941E+02
  0
VERTEX
  8
0
 62
4
 10
-4.99236703E+01
 20
3.01505462E+02
  0
VERTEX
  8
0
 62
4
 10
-5.00576811E+01
 20
3.01388010E+02
  0
VERTEX
  8
0
 62
4
 10
-5.01630475E+01
 20
3.01266531E+02
  0
VERTEX
  8
0
 62
4
 10
-5.02389210E+01
 20
3.01142003E+02
  0
VERTEX
  8
0
 62
4
 10
-5.02846909E+01
 20
3.01015428E+02
  0
VERTEX
  8
0
 62
4
 10
-5.02999886E+01
 20
3.00887826E+02
  0
SEQEND
  8
0
  0
POLYLINE
  8
0
 62
4
 66
1
  0
VERTEX
  8
0
 62
4
 10
-4.30999886E+01
 20
2.99324914E+02
  0
VERTEX
  8
0
 62
4
 10
-4.29634069E+01
 20
2.99439873E+02
  0
VERTEX
  8
0
 62
4
 10
-4.28544591E+01
 20
2.99558901E+02
  0
VERTEX
  8
0
 62
4
 10
-4.27739963E+01
 20
2.99681069E+02
  0
VERTEX
  8
0
 62
4
 10
-4.27226473E+01
 20
2.99805421E+02
  0
VERTEX
  8
0
 62
4
 10
-4.27008133E+01
 20
2.99930986E+02
  0
VERTEX
  8
0
 62
4
 10
-4.27086650E+01
 20
3.00056782E+02
  0
VERTEX
  8
0
 62
4
 10
-4.27461410E+01
 20
3.00181827E+02
  0
VERTEX
  8
0
 62
4
 10
-4.28129484E+01
 20
3.00305145E+02
  0
VERTEX
  8
0
 62
4
 10
-4.29085652E+01
 20
3.00425770E+02
  0
VERTEX
  8
0
 62
4
 10
-4.30322444E+01
 20
3.00542761E+02
  0
VERTEX
  8
0
 62
4
 10
-4.31830195E+01
 20
3.00655203E+02
  0
VERTEX
  8
0
 62
4
 10
-4.33597124E+01
 20
3.00762218E+02
  0
VERTEX
  8
0
 62
4
 10
-4.35609424E+01
 20
3.00862970E+02
  0
VERTEX
  8
0
 62
4
 10
-4.37851374E+01
 20
3.00956672E+02
  0
VERTEX
  8
0
 62
4
 10
-4.40305453E+01
 20
3.01042591E+02
  0
VERTEX
  8
0
 62
4
 10
-4.42952488E+01
 20
3.01120055E+02
  0
VERTEX
  8
0
 62
4
 10
-4.45771794E+01
 20
3.01188461E+02
  0
VERTEX
  8
0
 62
4
 10
-4.48741343E+01
 20
3.01247272E+02
  0
VERTEX
  8
0
 62
4
 10
-4.51837932E+01
 20
3.01296031E+02
  0
VERTEX
  8
0
 62
4
 10
-4.55037364E+01
 20
3.01334355E+02
  0
VERTEX
  8
0
 62
4
 10
-4.58314640E+01
 20
3.01361945E+02
  0
VERTEX
  8
0
 62
4
 10
-4.61644153E+01
 20
3.01378586E+02
  0
VERTEX
  8
0
 62
4
 10
-4.64999886E+01
 20
3.01384147E+02
  0
VERTEX
  8
0
 62
4
 10
-4.68355620E+01
 20
3.01378586E+02
  0
VERTEX
  8
0
 62
4
 10
-4.71685132E+01
 20
3.01361945E+02
  0
VERTEX
  8
0
 62
4
 10
-4.74962409E+01
 20
3.01334355E+02
  0
VERTEX
  8
0
 62
4
 10
-4.78161841E+01
 20
3.01296031E+02
  0
VERTEX
  8
0
 62
4
 10
-4.81258429E+01
 20
3.01247272E+02
  0
VERTEX
  8
0
 62
4
 10
-4.84227978E+01
 20
3.01188461E+02
  0
VERTEX
  8
0
 62
4
 10
-4.87047284E+01
 20
3.01120055E+02
  0
VERTEX
  8
0
 62
4
 10
-4.89694319E+01
 20
3.01042591E+02
  0
VERTEX
  8
0
 62
4
 10
-4.92148399E+01
 20
3.00956672E+02
  0
VERTEX
  8
0
 62
4
 10
-4.94390348E+01
 20
3.00862970E+02
  0
VERTEX
  8
0
 62
4
 10
-4.96402649E+01
 20
3.00762218E+02
  0
VERTEX
  8
0
 62
4
 10
-4.98169578E+01
 20
3.00655203E+02
  0
VERTEX
  8
0
 62
4
 10
-4.99677328E+01
 20
3.00542761E+02
  0
VERTEX
  8
0
 62
4
 10
-5.00914120E+01
 20
3.00425770E+02
  0
VERTEX
  8
0
 62
4
 10
-5.01870288E+01
 20
3.00305145E+02
  0
VERTEX
  8
0
 62
4
 10
-5.02538362E+01
 20
3.00181827E+02
  0
VERTEX
  8
0
 62
4
 10
-5.02913122E+01
 20
3.00056782E+02
  0
VERTEX
  8
0
 62
4
 10
-5.02991639E+01
 20
2.99930986E+02
  0
VERTEX
  8
0
 62
4
 10
-5.02773299E+01
 20
2.99805421E+02
  0
VERTEX
  8
0
 62
4
 10
-5.02259809E+01
 20
2.99681069E+02
  0
VERTEX
  8
0
 62
4
 10
-5.01455181E+01
 20
2.99558901E+02
  0
VERTEX
  8
0
 62
4
 10
-5.00365703E+01
 20
2.99439873E+02
  0
VERTEX
  8
0
 62
4
 10
-4.98999886E+01
 20
2.99324914E+02
  0
SEQEND
  8
0
  0
ARC
  8
0
 62
4
 10
-4.64999886E+01
 20
3.04378462E+02
 40
7.36533796E+00
 50
2.47849417E+02
 51
2.92150583E+02
  0
LINE
  8
0
  6
CENTER
 62
6
 10
-6.39999886E+01
 20
3.00887826E+02
 11
-5.89999886E+01
 21
3.00887826E+02
  0
LINE
  8
0
  6
CENTER
 62
6
 10
-5.39999886E+01
 20
3.02076703E+02
 11
-5.39999886E+01
 21
2.97076703E+02
  0
LINE
  8
0
  6
CENTER
 62
6
 10
-5.64999886E+01
 20
2.99576703E+02
 11
-5.14999886E+01
 21
2.99576703E+02
  0
LINE
  8
0
  6
CENTER
 62
6
 10
-4.64999886E+01
 20
3.03387826E+02
 11
-4.64999886E+01
 21
2.98387826E+02
  0
LINE
  8
0
  6
CENTER
 62
6
 10
-4.89999886E+01
 20
3.00887826E+02
 11
-4.39999886E+01
 21
3.00887826E+02
  0
LINE
  8
0
 62
4
 10
-5.08512439E+01
 20
2.96579850E+02
 11
-3.89999886E+01
 21
2.96579850E+02
  0
LINE
  8
0
 62
4
 10
-6.89999886E+01
 20
3.02013642E+02
 11
-7.04999886E+01
 21
3.00885720E+02
  0
LINE
  8
0
 62
4
 10
-7.04999886E+01
 20
2.98785649E+02
 11
-6.89999886E+01
 21
2.98304907E+02
  0
LINE
  8
0
 62
4
 10
-7.04999886E+01
 20
2.97937165E+02
 11
-6.89999886E+01
 21
2.96806480E+02
  0
LINE
  8
0
 62
4
 10
-6.89999886E+01
 20
2.98304907E+02
 11
-5.81499886E+01
 21
2.98304907E+02
  0
LINE
  8
0
 62
4
 10
-6.89999886E+01
 20
2.96806480E+02
 11
-5.75804222E+01
 21
2.96806480E+02
  0
LINE
  8
0
 62
4
 10
-6.89999886E+01
 20
2.98677647E+02
 11
-5.81499886E+01
 21
2.98677647E+02
  0
LINE
  8
0
 62
4
 10
-4.39999886E+01
 20
2.96954456E+02
 11
-3.89999886E+01
 21
2.96954456E+02
  0
LINE
  8
0
 62
4
 10
-4.30999886E+01
 20
2.98677647E+02
 11
-3.89999886E+01
 21
2.98677647E+02
  0
LINE
  8
0
 62
4
 10
-5.04195549E+01
 20
2.96806480E+02
 11
-4.39999886E+01
 21
2.96806480E+02
  0
LINE
  8
0
 62
4
 10
-6.89999886E+01
 20
2.96806480E+02
 11
-6.89999886E+01
 21
2.96579850E+02
  0
LINE
  8
0
 62
4
 10
-6.89999886E+01
 20
2.98677647E+02
 11
-6.89999886E+01
 21
2.96806480E+02
  0
LINE
  8
0
 62
7
 10
2.79999886E+01
 20
2.49999985E+02
 11
1.99999886E+01
 21
2.49999985E+02
  0
LINE
  8
0
  6
CENTER
 62
6
 10
1.49998853E+00
 20
2.30234406E+02
 11
1.49998853E+00
 21
2.40499985E+02
  0
LINE
  8
0
  6
CENTER
 62
6
 10
-6.50001147E+00
 20
2.30234406E+02
 11
-6.50001147E+00
 21
2.40499985E+02
  0
LINE
  8
0
  6
CENTER
 62
6
 10
2.49999885E+01
 20
2.61589924E+02
 11
-2.20000115E+01
 21
2.61589924E+02
  0
LINE
  8
0
 62
6
 10
-1.82679606E+01
 20
2.64589924E+02
 11
-2.17320622E+01
 21
2.58589924E+02
  0
LINE
  8
0
 62
4
 10
-1.00000115E+01
 20
2.63089924E+02
 11
-1.91339861E+01
 21
2.63089924E+02
  0
LINE
  8
0
 62
4
 10
-1.00000115E+01
 20
2.60089924E+02
 11
-2.08660369E+01
 21
2.60089924E+02
  0
LINE
  8
0
 62
6
 10
2.99998853E+00
 20
2.33664602E+02
 11
2.99998853E+00
 21
2.35031930E+02
  0
LINE
  8
0
 62
6
 10
-1.14734737E-05
 20
2.33664602E+02
 11
-1.14734737E-05
 21
2.35031930E+02
  0
LINE
  8
0
 62
4
 10
3.49998853E+00
 20
2.34160160E+02
 11
3.49998853E+00
 21
2.35031930E+02
  0
LINE
  8
0
 62
4
 10
-5.00011473E-01
 20
2.34160160E+02
 11
-5.00011473E-01
 21
2.35031930E+02
  0
LINE
  8
0
 62
4
 10
4.99998856E+00
 20
2.35031930E+02
 11
4.99998856E+00
 21
2.48876436E+02
  0
LINE
  8
0
 62
4
 10
-1.00000114E+01
 20
2.35031930E+02
 11
-1.00000114E+01
 21
2.64420135E+02
  0
LINE
  8
0
  6
CENTER
 62
6
 10
1.24999886E+01
 20
2.57612159E+02
 11
1.24999886E+01
 21
2.62612159E+02
  0
LINE
  8
0
 62
4
 10
-5.00001144E+00
 20
2.64193504E+02
 11
-5.00001144E+00
 21
2.63549596E+02
  0
LINE
  8
0
 62
4
 10
1.99999886E+01
 20
2.48876436E+02
 11
1.99999886E+01
 21
2.62322338E+02
  0
LINE
  8
0
 62
4
 10
-3.50001144E+00
 20
2.64193504E+02
 11
-3.50001144E+00
 21
2.63918659E+02
  0
LINE
  8
0
 62
4
 10
2.14999886E+01
 20
2.60114264E+02
 11
2.14999886E+01
 21
2.63062820E+02
  0
LINE
  8
0
 62
4
 10
4.99998856E+00
 20
2.35031930E+02
 11
-1.00000114E+01
 21
2.35031930E+02
  0
LINE
  8
0
 62
4
 10
4.99998856E+00
 20
2.42386149E+02
 11
-1.00000114E+01
 21
2.42386149E+02
  0
LINE
  8
0
 62
4
 10
1.99999886E+01
 20
2.48876436E+02
 11
-1.00000114E+01
 21
2.48876436E+02
  0
LINE
  8
0
 62
4
 10
1.99999886E+01
 20
2.58426429E+02
 11
-1.00000114E+01
 21
2.58426429E+02
  0
LINE
  8
0
 62
4
 10
1.99999886E+01
 20
2.64420135E+02
 11
8.14873318E+00
 21
2.64420135E+02
  0
POLYLINE
  8
0
 62
4
 66
1
  0
VERTEX
  8
0
 62
4
 10
-5.00011470E-01
 20
2.34160160E+02
  0
VERTEX
  8
0
 62
4
 10
-4.91960059E-01
 20
2.34093001E+02
  0
VERTEX
  8
0
 62
4
 10
-4.67870649E-01
 20
2.34026383E+02
  0
VERTEX
  8
0
 62
4
 10
-4.27937193E-01
 20
2.33960842E+02
  0
VERTEX
  8
0
 62
4
 10
-3.72481214E-01
 20
2.33896905E+02
  0
VERTEX
  8
0
 62
4
 10
-3.01949209E-01
 20
2.33835089E+02
  0
VERTEX
  8
0
 62
4
 10
-2.16909062E-01
 20
2.33775889E+02
  0
VERTEX
  8
0
 62
4
 10
-1.18045464E-01
 20
2.33719784E+02
  0
VERTEX
  8
0
 62
4
 10
-6.15440781E-03
 20
2.33667224E+02
  0
VERTEX
  8
0
 62
4
 10
1.17863226E-01
 20
2.33618633E+02
  0
VERTEX
  8
0
 62
4
 10
2.53008919E-01
 20
2.33574402E+02
  0
VERTEX
  8
0
 62
4
 10
3.98194559E-01
 20
2.33534887E+02
  0
VERTEX
  8
0
 62
4
 10
5.52251197E-01
 20
2.33500406E+02
  0
VERTEX
  8
0
 62
4
 10
7.13938458E-01
 20
2.33471238E+02
  0
VERTEX
  8
0
 62
4
 10
8.81954532E-01
 20
2.33447616E+02
  0
VERTEX
  8
0
 62
4
 10
1.05494665E+00
 20
2.33429731E+02
  0
VERTEX
  8
0
 62
4
 10
1.23152199E+00
 20
2.33417727E+02
  0
VERTEX
  8
0
 62
4
 10
1.41025886E+00
 20
2.33411701E+02
  0
VERTEX
  8
0
 62
4
 10
1.58971818E+00
 20
2.33411701E+02
  0
VERTEX
  8
0
 62
4
 10
1.76845505E+00
 20
2.33417727E+02
  0
VERTEX
  8
0
 62
4
 10
1.94503039E+00
 20
2.33429731E+02
  0
VERTEX
  8
0
 62
4
 10
2.11802251E+00
 20
2.33447616E+02
  0
VERTEX
  8
0
 62
4
 10
2.28603858E+00
 20
2.33471238E+02
  0
VERTEX
  8
0
 62
4
 10
2.44772584E+00
 20
2.33500406E+02
  0
VERTEX
  8
0
 62
4
 10
2.60178248E+00
 20
2.33534887E+02
  0
VERTEX
  8
0
 62
4
 10
2.74696812E+00
 20
2.33574402E+02
  0
VERTEX
  8
0
 62
4
 10
2.88211382E+00
 20
2.33618633E+02
  0
VERTEX
  8
0
 62
4
 10
3.00613145E+00
 20
2.33667224E+02
  0
VERTEX
  8
0
 62
4
 10
3.11802251E+00
 20
2.33719784E+02
  0
VERTEX
  8
0
 62
4
 10
3.21688611E+00
 20
2.33775889E+02
  0
VERTEX
  8
0
 62
4
 10
3.30192626E+00
 20
2.33835089E+02
  0
VERTEX
  8
0
 62
4
 10
3.37245827E+00
 20
2.33896905E+02
  0
VERTEX
  8
0
 62
4
 10
3.42791425E+00
 20
2.33960842E+02
  0
VERTEX
  8
0
 62
4
 10
3.46784770E+00
 20
2.34026383E+02
  0
VERTEX
  8
0
 62
4
 10
3.49193712E+00
 20
2.34093001E+02
  0
VERTEX
  8
0
 62
4
 10
3.49998853E+00
 20
2.34160160E+02
  0
SEQEND
  8
0
  0
LINE
  8
0
 62
6
 10
-8.00001147E+00
 20
2.33664602E+02
 11
-8.00001147E+00
 21
2.35031930E+02
  0
LINE
  8
0
 62
4
 10
-8.50001147E+00
 20
2.34160160E+02
 11
-8.50001147E+00
 21
2.35031930E+02
  0
POLYLINE
  8
0
 62
4
 66
1
  0
VERTEX
  8
0
 62
4
 10
-8.50001147E+00
 20
2.34160160E+02
  0
VERTEX
  8
0
 62
4
 10
-8.49196006E+00
 20
2.34093001E+02
  0
VERTEX
  8
0
 62
4
 10
-8.46787065E+00
 20
2.34026383E+02
  0
VERTEX
  8
0
 62
4
 10
-8.42793719E+00
 20
2.33960842E+02
  0
VERTEX
  8
0
 62
4
 10
-8.37248121E+00
 20
2.33896905E+02
  0
VERTEX
  8
0
 62
4
 10
-8.30194921E+00
 20
2.33835089E+02
  0
VERTEX
  8
0
 62
4
 10
-8.21690906E+00
 20
2.33775889E+02
  0
VERTEX
  8
0
 62
4
 10
-8.11804546E+00
 20
2.33719784E+02
  0
VERTEX
  8
0
 62
4
 10
-8.00615441E+00
 20
2.33667224E+02
  0
VERTEX
  8
0
 62
4
 10
-7.88213677E+00
 20
2.33618633E+02
  0
VERTEX
  8
0
 62
4
 10
-7.74699108E+00
 20
2.33574402E+02
  0
VERTEX
  8
0
 62
4
 10
-7.60180544E+00
 20
2.33534887E+02
  0
VERTEX
  8
0
 62
4
 10
-7.44774880E+00
 20
2.33500406E+02
  0
VERTEX
  8
0
 62
4
 10
-7.28606154E+00
 20
2.33471238E+02
  0
VERTEX
  8
0
 62
4
 10
-7.11804547E+00
 20
2.33447616E+02
  0
VERTEX
  8
0
 62
4
 10
-6.94505335E+00
 20
2.33429731E+02
  0
VERTEX
  8
0
 62
4
 10
-6.76847801E+00
 20
2.33417727E+02
  0
VERTEX
  8
0
 62
4
 10
-6.58974114E+00
 20
2.33411701E+02
  0
VERTEX
  8
0
 62
4
 10
-6.41028182E+00
 20
2.33411701E+02
  0
VERTEX
  8
0
 62
4
 10
-6.23154495E+00
 20
2.33417727E+02
  0
VERTEX
  8
0
 62
4
 10
-6.05496961E+00
 20
2.33429731E+02
  0
VERTEX
  8
0
 62
4
 10
-5.88197749E+00
 20
2.33447616E+02
  0
VERTEX
  8
0
 62
4
 10
-5.71396142E+00
 20
2.33471238E+02
  0
VERTEX
  8
0
 62
4
 10
-5.55227416E+00
 20
2.33500406E+02
  0
VERTEX
  8
0
 62
4
 10
-5.39821752E+00
 20
2.33534887E+02
  0
VERTEX
  8
0
 62
4
 10
-5.25303188E+00
 20
2.33574402E+02
  0
VERTEX
  8
0
 62
4
 10
-5.11788618E+00
 20
2.33618633E+02
  0
VERTEX
  8
0
 62
4
 10
-4.99386855E+00
 20
2.33667224E+02
  0
VERTEX
  8
0
 62
4
 10
-4.88197749E+00
 20
2.33719784E+02
  0
VERTEX
  8
0
 62
4
 10
-4.78311389E+00
 20
2.33775889E+02
  0
VERTEX
  8
0
 62
4
 10
-4.69807374E+00
 20
2.33835089E+02
  0
VERTEX
  8
0
 62
4
 10
-4.62754173E+00
 20
2.33896905E+02
  0
VERTEX
  8
0
 62
4
 10
-4.57208575E+00
 20
2.33960842E+02
  0
VERTEX
  8
0
 62
4
 10
-4.53215230E+00
 20
2.34026383E+02
  0
VERTEX
  8
0
 62
4
 10
-4.50806288E+00
 20
2.34093001E+02
  0
VERTEX
  8
0
 62
4
 10
-4.50001147E+00
 20
2.34160160E+02
  0
SEQEND
  8
0
  0
LINE
  8
0
 62
6
 10
-5.00001147E+00
 20
2.33664602E+02
 11
-5.00001147E+00
 21
2.35031930E+02
  0
LINE
  8
0
 62
4
 10
-4.50001147E+00
 20
2.34160160E+02
 11
-4.50001147E+00
 21
2.35031930E+02
  0
LINE
  8
0
 62
4
 10
8.49988556E-01
 20
2.62829325E+02
 11
8.49988556E-01
 21
2.63407456E+02
  0
LINE
  8
0
 62
4
 10
9.14998856E+00
 20
2.61775612E+02
 11
9.14998856E+00
 21
2.63407456E+02
  0
POLYLINE
  8
0
 62
4
 66
1
  0
VERTEX
  8
0
 62
4
 10
1.29897047E+00
 20
2.61072292E+02
  0
VERTEX
  8
0
 62
4
 10
1.48065085E+00
 20
2.60951753E+02
  0
VERTEX
  8
0
 62
4
 10
1.69023394E+00
 20
2.60837746E+02
  0
VERTEX
  8
0
 62
4
 10
1.92605810E+00
 20
2.60731175E+02
  0
VERTEX
  8
0
 62
4
 10
2.18625360E+00
 20
2.60632884E+02
  0
VERTEX
  8
0
 62
4
 10
2.46875752E+00
 20
2.60543653E+02
  0
VERTEX
  8
0
 62
4
 10
2.77133006E+00
 20
2.60464190E+02
  0
VERTEX
  8
0
 62
4
 10
3.09157229E+00
 20
2.60395125E+02
  0
VERTEX
  8
0
 62
4
 10
3.42694520E+00
 20
2.60337004E+02
  0
VERTEX
  8
0
 62
4
 10
3.77478984E+00
 20
2.60290289E+02
  0
VERTEX
  8
0
 62
4
 10
4.13234834E+00
 20
2.60255351E+02
  0
VERTEX
  8
0
 62
4
 10
4.49678584E+00
 20
2.60232465E+02
  0
VERTEX
  8
0
 62
4
 10
4.86521293E+00
 20
2.60221815E+02
  0
VERTEX
  8
0
 62
4
 10
5.23470858E+00
 20
2.60223483E+02
  0
VERTEX
  8
0
 62
4
 10
5.60234327E+00
 20
2.60237458E+02
  0
VERTEX
  8
0
 62
4
 10
5.96520226E+00
 20
2.60263627E+02
  0
VERTEX
  8
0
 62
4
 10
6.32040864E+00
 20
2.60301784E+02
  0
VERTEX
  8
0
 62
4
 10
6.66514620E+00
 20
2.60351626E+02
  0
VERTEX
  8
0
 62
4
 10
6.99668173E+00
 20
2.60412759E+02
  0
VERTEX
  8
0
 62
4
 10
7.31238668E+00
 20
2.60484696E+02
  0
VERTEX
  8
0
 62
4
 10
7.60975801E+00
 20
2.60566868E+02
  0
VERTEX
  8
0
 62
4
 10
7.88643804E+00
 20
2.60658624E+02
  0
VERTEX
  8
0
 62
4
 10
8.14023314E+00
 20
2.60759236E+02
  0
VERTEX
  8
0
 62
4
 10
8.36913113E+00
 20
2.60867905E+02
  0
VERTEX
  8
0
 62
4
 10
8.57131721E+00
 20
2.60983772E+02
  0
VERTEX
  8
0
 62
4
 10
8.74518837E+00
 20
2.61105917E+02
  0
VERTEX
  8
0
 62
4
 10
8.88936608E+00
 20
2.61233371E+02
  0
VERTEX
  8
0
 62
4
 10
9.00270726E+00
 20
2.61365124E+02
  0
VERTEX
  8
0
 62
4
 10
9.08431327E+00
 20
2.61500132E+02
  0
VERTEX
  8
0
 62
4
 10
9.13353713E+00
 20
2.61637324E+02
  0
VERTEX
  8
0
 62
4
 10
9.14998856E+00
 20
2.61775612E+02
  0
SEQEND
  8
0
  0
POLYLINE
  8
0
 62
4
 66
1
  0
VERTEX
  8
0
 62
4
 10
9.14998856E+00
 20
2.63407456E+02
  0
VERTEX
  8
0
 62
4
 10
9.13419656E+00
 20
2.63542950E+02
  0
VERTEX
  8
0
 62
4
 10
9.08694073E+00
 20
2.63677412E+02
  0
VERTEX
  8
0
 62
4
 10
9.00858074E+00
 20
2.63809821E+02
  0
VERTEX
  8
0
 62
4
 10
8.89971294E+00
 20
2.63939166E+02
  0
VERTEX
  8
0
 62
4
 10
8.76116588E+00
 20
2.64064466E+02
  0
VERTEX
  8
0
 62
4
 10
8.59399399E+00
 20
2.64184765E+02
  0
VERTEX
  8
0
 62
4
 10
8.39946954E+00
 20
2.64299148E+02
  0
VERTEX
  8
0
 62
4
 10
8.17907300E+00
 20
2.64406745E+02
  0
VERTEX
  8
0
 62
4
 10
7.93448170E+00
 20
2.64506736E+02
  0
VERTEX
  8
0
 62
4
 10
7.66755714E+00
 20
2.64598362E+02
  0
VERTEX
  8
0
 62
4
 10
7.38033077E+00
 20
2.64680924E+02
  0
VERTEX
  8
0
 62
4
 10
7.07498856E+00
 20
2.64753794E+02
  0
VERTEX
  8
0
 62
4
 10
6.75385434E+00
 20
2.64816418E+02
  0
VERTEX
  8
0
 62
4
 10
6.41937215E+00
 20
2.64868318E+02
  0
VERTEX
  8
0
 62
4
 10
6.07408759E+00
 20
2.64909101E+02
  0
VERTEX
  8
0
 62
4
 10
5.72062849E+00
 20
2.64938455E+02
  0
VERTEX
  8
0
 62
4
 10
5.36168489E+00
 20
2.64956158E+02
  0
VERTEX
  8
0
 62
4
 10
4.99998856E+00
 20
2.64962073E+02
  0
VERTEX
  8
0
 62
4
 10
4.63829222E+00
 20
2.64956158E+02
  0
VERTEX
  8
0
 62
4
 10
4.27934862E+00
 20
2.64938455E+02
  0
VERTEX
  8
0
 62
4
 10
3.92588952E+00
 20
2.64909101E+02
  0
VERTEX
  8
0
 62
4
 10
3.58060496E+00
 20
2.64868318E+02
  0
VERTEX
  8
0
 62
4
 10
3.24612277E+00
 20
2.64816418E+02
  0
VERTEX
  8
0
 62
4
 10
2.92498856E+00
 20
2.64753794E+02
  0
VERTEX
  8
0
 62
4
 10
2.61964635E+00
 20
2.64680924E+02
  0
VERTEX
  8
0
 62
4
 10
2.33241998E+00
 20
2.64598362E+02
  0
VERTEX
  8
0
 62
4
 10
2.06549541E+00
 20
2.64506736E+02
  0
VERTEX
  8
0
 62
4
 10
1.82090412E+00
 20
2.64406745E+02
  0
VERTEX
  8
0
 62
4
 10
1.60050757E+00
 20
2.64299148E+02
  0
VERTEX
  8
0
 62
4
 10
1.40598313E+00
 20
2.64184765E+02
  0
VERTEX
  8
0
 62
4
 10
1.23881124E+00
 20
2.64064466E+02
  0
VERTEX
  8
0
 62
4
 10
1.10026418E+00
 20
2.63939166E+02
  0
VERTEX
  8
0
 62
4
 10
9.91396380E-01
 20
2.63809821E+02
  0
VERTEX
  8
0
 62
4
 10
9.13036384E-01
 20
2.63677412E+02
  0
VERTEX
  8
0
 62
4
 10
8.65780562E-01
 20
2.63542950E+02
  0
VERTEX
  8
0
 62
4
 10
8.49988560E-01
 20
2.63407456E+02
  0
VERTEX
  8
0
 62
4
 10
8.65780563E-01
 20
2.63271962E+02
  0
VERTEX
  8
0
 62
4
 10
9.13036386E-01
 20
2.63137500E+02
  0
VERTEX
  8
0
 62
4
 10
9.91396383E-01
 20
2.63005091E+02
  0
VERTEX
  8
0
 62
4
 10
1.10026419E+00
 20
2.62875746E+02
  0
VERTEX
  8
0
 62
4
 10
1.23881125E+00
 20
2.62750446E+02
  0
VERTEX
  8
0
 62
4
 10
1.40598314E+00
 20
2.62630147E+02
  0
VERTEX
  8
0
 62
4
 10
1.60050758E+00
 20
2.62515764E+02
  0
VERTEX
  8
0
 62
4
 10
1.82090413E+00
 20
2.62408167E+02
  0
VERTEX
  8
0
 62
4
 10
2.06549542E+00
 20
2.62308176E+02
  0
VERTEX
  8
0
 62
4
 10
2.33241999E+00
 20
2.62216550E+02
  0
VERTEX
  8
0
 62
4
 10
2.61964636E+00
 20
2.62133988E+02
  0
VERTEX
  8
0
 62
4
 10
2.92498857E+00
 20
2.62061118E+02
  0
VERTEX
  8
0
 62
4
 10
3.24612278E+00
 20
2.61998494E+02
  0
VERTEX
  8
0
 62
4
 10
3.58060497E+00
 20
2.61946594E+02
  0
VERTEX
  8
0
 62
4
 10
3.92588953E+00
 20
2.61905811E+02
  0
VERTEX
  8
0
 62
4
 10
4.27934863E+00
 20
2.61876457E+02
  0
VERTEX
  8
0
 62
4
 10
4.63829224E+00
 20
2.61858754E+02
  0
VERTEX
  8
0
 62
4
 10
4.99998857E+00
 20
2.61852839E+02
  0
VERTEX
  8
0
 62
4
 10
5.36168490E+00
 20
2.61858754E+02
  0
VERTEX
  8
0
 62
4
 10
5.72062851E+00
 20
2.61876457E+02
  0
VERTEX
  8
0
 62
4
 10
6.07408761E+00
 20
2.61905811E+02
  0
VERTEX
  8
0
 62
4
 10
6.41937216E+00
 20
2.61946594E+02
  0
VERTEX
  8
0
 62
4
 10
6.75385435E+00
 20
2.61998494E+02
  0
VERTEX
  8
0
 62
4
 10
7.07498857E+00
 20
2.62061118E+02
  0
VERTEX
  8
0
 62
4
 10
7.38033078E+00
 20
2.62133988E+02
  0
VERTEX
  8
0
 62
4
 10
7.66755715E+00
 20
2.62216550E+02
  0
VERTEX
  8
0
 62
4
 10
7.93448171E+00
 20
2.62308176E+02
  0
VERTEX
  8
0
 62
4
 10
8.17907301E+00
 20
2.62408167E+02
  0
VERTEX
  8
0
 62
4
 10
8.39946955E+00
 20
2.62515764E+02
  0
VERTEX
  8
0
 62
4
 10
8.59399399E+00
 20
2.62630147E+02
  0
VERTEX
  8
0
 62
4
 10
8.76116588E+00
 20
2.62750446E+02
  0
VERTEX
  8
0
 62
4
 10
8.89971294E+00
 20
2.62875746E+02
  0
VERTEX
  8
0
 62
4
 10
9.00858074E+00
 20
2.63005091E+02
  0
VERTEX
  8
0
 62
4
 10
9.08694074E+00
 20
2.63137500E+02
  0
VERTEX
  8
0
 62
4
 10
9.13419656E+00
 20
2.63271962E+02
  0
VERTEX
  8
0
 62
4
 10
9.14998856E+00
 20
2.63407456E+02
  0
SEQEND
  8
0
  0
ARC
  8
0
 62
4
 10
1.06166958E+01
 20
2.48987314E+02
 40
1.61228529E+01
 50
1.03811346E+02
 51
1.17258955E+02
  0
ARC
  8
0
 62
4
 10
-6.16721300E-01
 20
2.48987307E+02
 40
1.61228609E+01
 50
6.27410478E+01
 51
7.61886514E+01
  0
POLYLINE
  8
0
 62
4
 66
1
  0
VERTEX
  8
0
 62
4
 10
1.29998857E+00
 20
2.60853929E+02
  0
VERTEX
  8
0
 62
4
 10
1.44663113E+00
 20
2.60735223E+02
  0
VERTEX
  8
0
 62
4
 10
1.62034984E+00
 20
2.60621760E+02
  0
VERTEX
  8
0
 62
4
 10
1.81982098E+00
 20
2.60514405E+02
  0
VERTEX
  8
0
 62
4
 10
2.04352461E+00
 20
2.60413975E+02
  0
VERTEX
  8
0
 62
4
 10
2.28975613E+00
 20
2.60321235E+02
  0
VERTEX
  8
0
 62
4
 10
2.55663929E+00
 20
2.60236894E+02
  0
VERTEX
  8
0
 62
4
 10
2.84214048E+00
 20
2.60161592E+02
  0
VERTEX
  8
0
 62
4
 10
3.14408420E+00
 20
2.60095904E+02
  0
VERTEX
  8
0
 62
4
 10
3.46016968E+00
 20
2.60040331E+02
  0
VERTEX
  8
0
 62
4
 10
3.78798840E+00
 20
2.59995296E+02
  0
VERTEX
  8
0
 62
4
 10
4.12504241E+00
 20
2.59961142E+02
  0
VERTEX
  8
0
 62
4
 10
4.46876340E+00
 20
2.59938129E+02
  0
VERTEX
  8
0
 62
4
 10
4.81653226E+00
 20
2.59926432E+02
  0
VERTEX
  8
0
 62
4
 10
5.16569904E+00
 20
2.59926142E+02
  0
VERTEX
  8
0
 62
4
 10
5.51360312E+00
 20
2.59937260E+02
  0
VERTEX
  8
0
 62
4
 10
5.85759352E+00
 20
2.59959701E+02
  0
VERTEX
  8
0
 62
4
 10
6.19504908E+00
 20
2.59993294E+02
  0
VERTEX
  8
0
 62
4
 10
6.52339842E+00
 20
2.60037783E+02
  0
VERTEX
  8
0
 62
4
 10
6.84013957E+00
 20
2.60092830E+02
  0
VERTEX
  8
0
 62
4
 10
7.14285899E+00
 20
2.60158015E+02
  0
VERTEX
  8
0
 62
4
 10
7.42925000E+00
 20
2.60232841E+02
  0
VERTEX
  8
0
 62
4
 10
7.69713034E+00
 20
2.60316738E+02
  0
VERTEX
  8
0
 62
4
 10
7.94445879E+00
 20
2.60409067E+02
  0
VERTEX
  8
0
 62
4
 10
8.16935073E+00
 20
2.60509123E+02
  0
VERTEX
  8
0
 62
4
 10
8.37009253E+00
 20
2.60616146E+02
  0
VERTEX
  8
0
 62
4
 10
8.54515454E+00
 20
2.60729319E+02
  0
VERTEX
  8
0
 62
4
 10
8.69320283E+00
 20
2.60847780E+02
  0
VERTEX
  8
0
 62
4
 10
8.81310927E+00
 20
2.60970626E+02
  0
VERTEX
  8
0
 62
4
 10
8.90396021E+00
 20
2.61096921E+02
  0
VERTEX
  8
0
 62
4
 10
8.96506335E+00
 20
2.61225703E+02
  0
VERTEX
  8
0
 62
4
 10
8.99595312E+00
 20
2.61355991E+02
  0
SEQEND
  8
0
  0
LINE
  8
0
 62
4
 10
8.99988556E-01
 20
2.61039343E+02
 11
8.99988556E-01
 21
2.62517074E+02
  0
POLYLINE
  8
0
 62
4
 66
1
  0
VERTEX
  8
0
 62
4
 10
-5.90001144E+00
 20
2.61039343E+02
  0
VERTEX
  8
0
 62
4
 10
-5.88632404E+00
 20
2.60925173E+02
  0
VERTEX
  8
0
 62
4
 10
-5.84537204E+00
 20
2.60811922E+02
  0
VERTEX
  8
0
 62
4
 10
-5.77748517E+00
 20
2.60700502E+02
  0
VERTEX
  8
0
 62
4
 10
-5.68321000E+00
 20
2.60591810E+02
  0
VERTEX
  8
0
 62
4
 10
-5.56330560E+00
 20
2.60486722E+02
  0
VERTEX
  8
0
 62
4
 10
-5.41873735E+00
 20
2.60386082E+02
  0
VERTEX
  8
0
 62
4
 10
-5.25066923E+00
 20
2.60290703E+02
  0
VERTEX
  8
0
 62
4
 10
-5.06045443E+00
 20
2.60201351E+02
  0
VERTEX
  8
0
 62
4
 10
-4.84962446E+00
 20
2.60118746E+02
  0
VERTEX
  8
0
 62
4
 10
-4.61987678E+00
 20
2.60043554E+02
  0
VERTEX
  8
0
 62
4
 10
-4.37306119E+00
 20
2.59976378E+02
  0
VERTEX
  8
0
 62
4
 10
-4.11116491E+00
 20
2.59917762E+02
  0
VERTEX
  8
0
 62
4
 10
-3.83629656E+00
 20
2.59868175E+02
  0
VERTEX
  8
0
 62
4
 10
-3.55066924E+00
 20
2.59828018E+02
  0
VERTEX
  8
0
 62
4
 10
-3.25658263E+00
 20
2.59797614E+02
  0
VERTEX
  8
0
 62
4
 10
-2.95640456E+00
 20
2.59777208E+02
  0
VERTEX
  8
0
 62
4
 10
-2.65255188E+00
 20
2.59766963E+02
  0
VERTEX
  8
0
 62
4
 10
-2.34747104E+00
 20
2.59766963E+02
  0
VERTEX
  8
0
 62
4
 10
-2.04361835E+00
 20
2.59777208E+02
  0
VERTEX
  8
0
 62
4
 10
-1.74344028E+00
 20
2.59797614E+02
  0
VERTEX
  8
0
 62
4
 10
-1.44935368E+00
 20
2.59828018E+02
  0
VERTEX
  8
0
 62
4
 10
-1.16372635E+00
 20
2.59868175E+02
  0
VERTEX
  8
0
 62
4
 10
-8.88858005E-01
 20
2.59917762E+02
  0
VERTEX
  8
0
 62
4
 10
-6.26961720E-01
 20
2.59976378E+02
  0
VERTEX
  8
0
 62
4
 10
-3.80146130E-01
 20
2.60043554E+02
  0
VERTEX
  8
0
 62
4
 10
-1.50398449E-01
 20
2.60118746E+02
  0
VERTEX
  8
0
 62
4
 10
6.04315302E-02
 20
2.60201351E+02
  0
VERTEX
  8
0
 62
4
 10
2.50646328E-01
 20
2.60290703E+02
  0
VERTEX
  8
0
 62
4
 10
4.18714447E-01
 20
2.60386082E+02
  0
VERTEX
  8
0
 62
4
 10
5.63282701E-01
 20
2.60486722E+02
  0
VERTEX
  8
0
 62
4
 10
6.83187112E-01
 20
2.60591810E+02
  0
VERTEX
  8
0
 62
4
 10
7.77462280E-01
 20
2.60700502E+02
  0
VERTEX
  8
0
 62
4
 10
8.45349157E-01
 20
2.60811922E+02
  0
VERTEX
  8
0
 62
4
 10
8.86301157E-01
 20
2.60925173E+02
  0
VERTEX
  8
0
 62
4
 10
8.99988560E-01
 20
2.61039343E+02
  0
SEQEND
  8
0
  0
POLYLINE
  8
0
 62
4
 66
1
  0
VERTEX
  8
0
 62
4
 10
-5.90001144E+00
 20
2.62087061E+02
  0
VERTEX
  8
0
 62
4
 10
-5.88632404E+00
 20
2.61972891E+02
  0
VERTEX
  8
0
 62
4
 10
-5.84537204E+00
 20
2.61859640E+02
  0
VERTEX
  8
0
 62
4
 10
-5.77748517E+00
 20
2.61748220E+02
  0
VERTEX
  8
0
 62
4
 10
-5.68321000E+00
 20
2.61639528E+02
  0
VERTEX
  8
0
 62
4
 10
-5.56330560E+00
 20
2.61534440E+02
  0
VERTEX
  8
0
 62
4
 10
-5.41873735E+00
 20
2.61433800E+02
  0
VERTEX
  8
0
 62
4
 10
-5.25066923E+00
 20
2.61338421E+02
  0
VERTEX
  8
0
 62
4
 10
-5.06045443E+00
 20
2.61249069E+02
  0
VERTEX
  8
0
 62
4
 10
-4.84962446E+00
 20
2.61166464E+02
  0
VERTEX
  8
0
 62
4
 10
-4.61987678E+00
 20
2.61091272E+02
  0
VERTEX
  8
0
 62
4
 10
-4.37306119E+00
 20
2.61024096E+02
  0
VERTEX
  8
0
 62
4
 10
-4.11116491E+00
 20
2.60965480E+02
  0
VERTEX
  8
0
 62
4
 10
-3.83629656E+00
 20
2.60915893E+02
  0
VERTEX
  8
0
 62
4
 10
-3.55066924E+00
 20
2.60875736E+02
  0
VERTEX
  8
0
 62
4
 10
-3.25658263E+00
 20
2.60845332E+02
  0
VERTEX
  8
0
 62
4
 10
-2.95640456E+00
 20
2.60824926E+02
  0
VERTEX
  8
0
 62
4
 10
-2.65255188E+00
 20
2.60814681E+02
  0
VERTEX
  8
0
 62
4
 10
-2.34747104E+00
 20
2.60814681E+02
  0
VERTEX
  8
0
 62
4
 10
-2.04361835E+00
 20
2.60824926E+02
  0
VERTEX
  8
0
 62
4
 10
-1.74344028E+00
 20
2.60845332E+02
  0
VERTEX
  8
0
 62
4
 10
-1.44935368E+00
 20
2.60875736E+02
  0
VERTEX
  8
0
 62
4
 10
-1.16372635E+00
 20
2.60915893E+02
  0
VERTEX
  8
0
 62
4
 10
-8.88858005E-01
 20
2.60965480E+02
  0
VERTEX
  8
0
 62
4
 10
-6.26961720E-01
 20
2.61024096E+02
  0
VERTEX
  8
0
 62
4
 10
-3.80146130E-01
 20
2.61091272E+02
  0
VERTEX
  8
0
 62
4
 10
-1.50398449E-01
 20
2.61166464E+02
  0
VERTEX
  8
0
 62
4
 10
6.04315302E-02
 20
2.61249069E+02
  0
VERTEX
  8
0
 62
4
 10
2.50646328E-01
 20
2.61338421E+02
  0
VERTEX
  8
0
 62
4
 10
4.18714447E-01
 20
2.61433800E+02
  0
VERTEX
  8
0
 62
4
 10
5.63282701E-01
 20
2.61534440E+02
  0
VERTEX
  8
0
 62
4
 10
6.83187112E-01
 20
2.61639528E+02
  0
VERTEX
  8
0
 62
4
 10
7.77462280E-01
 20
2.61748220E+02
  0
VERTEX
  8
0
 62
4
 10
8.45349157E-01
 20
2.61859640E+02
  0
VERTEX
  8
0
 62
4
 10
8.86301157E-01
 20
2.61972891E+02
  0
VERTEX
  8
0
 62
4
 10
8.99988560E-01
 20
2.62087061E+02
  0
SEQEND
  8
0
  0
LINE
  8
0
 62
4
 10
-5.90001144E+00
 20
2.62517074E+02
 11
-5.90001144E+00
 21
2.61039343E+02
  0
ARC
  8
0
 62
4
 10
-4.90001177E+00
 20
2.62517074E+02
 40
1.00000000E+00
 50
1.02827510E+02
 51
1.80000000E+02
  0
ARC
  8
0
 62
4
 10
-1.00011122E-01
 20
2.62517074E+02
 40
1.00000000E+00
 50
3.60000000E+02
 51
7.71724899E+01
  0
ARC
  8
0
 62
4
 10
2.88737336E+00
 20
2.48760319E+02
 40
1.54729912E+01
 50
1.03783165E+02
 51
1.17543924E+02
  0
ARC
  8
0
 62
4
 10
-7.88739670E+00
 20
2.48760318E+02
 40
1.54729926E+01
 50
6.24560769E+01
 51
7.62168346E+01
  0
LINE
  8
0
 62
4
 10
-6.30001144E+00
 20
2.60112159E+02
 11
-6.30001144E+00
 21
2.61039343E+02
  0
LINE
  8
0
 62
4
 10
1.29998856E+00
 20
2.60112159E+02
 11
1.29998856E+00
 21
2.61039343E+02
  0
POLYLINE
  8
0
 62
4
 66
1
  0
VERTEX
  8
0
 62
4
 10
-6.30001144E+00
 20
2.60112159E+02
  0
VERTEX
  8
0
 62
4
 10
-6.28471376E+00
 20
2.59984557E+02
  0
VERTEX
  8
0
 62
4
 10
-6.23894388E+00
 20
2.59857982E+02
  0
VERTEX
  8
0
 62
4
 10
-6.16307031E+00
 20
2.59733454E+02
  0
VERTEX
  8
0
 62
4
 10
-6.05770395E+00
 20
2.59611975E+02
  0
VERTEX
  8
0
 62
4
 10
-5.92369314E+00
 20
2.59494523E+02
  0
VERTEX
  8
0
 62
4
 10
-5.76211686E+00
 20
2.59382044E+02
  0
VERTEX
  8
0
 62
4
 10
-5.57427603E+00
 20
2.59275444E+02
  0
VERTEX
  8
0
 62
4
 10
-5.36168302E+00
 20
2.59175580E+02
  0
VERTEX
  8
0
 62
4
 10
-5.12604952E+00
 20
2.59083257E+02
  0
VERTEX
  8
0
 62
4
 10
-4.86927270E+00
 20
2.58999218E+02
  0
VERTEX
  8
0
 62
4
 10
-4.59341998E+00
 20
2.58924140E+02
  0
VERTEX
  8
0
 62
4
 10
-4.30071237E+00
 20
2.58858627E+02
  0
VERTEX
  8
0
 62
4
 10
-3.99350658E+00
 20
2.58803207E+02
  0
VERTEX
  8
0
 62
4
 10
-3.67427604E+00
 20
2.58758325E+02
  0
VERTEX
  8
0
 62
4
 10
-3.34559101E+00
 20
2.58724344E+02
  0
VERTEX
  8
0
 62
4
 10
-3.01009787E+00
 20
2.58701537E+02
  0
VERTEX
  8
0
 62
4
 10
-2.67049782E+00
 20
2.58690087E+02
  0
VERTEX
  8
0
 62
4
 10
-2.32952511E+00
 20
2.58690087E+02
  0
VERTEX
  8
0
 62
4
 10
-1.98992505E+00
 20
2.58701537E+02
  0
VERTEX
  8
0
 62
4
 10
-1.65443191E+00
 20
2.58724344E+02
  0
VERTEX
  8
0
 62
4
 10
-1.32574688E+00
 20
2.58758325E+02
  0
VERTEX
  8
0
 62
4
 10
-1.00651634E+00
 20
2.58803207E+02
  0
VERTEX
  8
0
 62
4
 10
-6.99310543E-01
 20
2.58858627E+02
  0
VERTEX
  8
0
 62
4
 10
-4.06602930E-01
 20
2.58924140E+02
  0
VERTEX
  8
0
 62
4
 10
-1.30750211E-01
 20
2.58999218E+02
  0
VERTEX
  8
0
 62
4
 10
1.26026609E-01
 20
2.59083257E+02
  0
VERTEX
  8
0
 62
4
 10
3.61660115E-01
 20
2.59175580E+02
  0
VERTEX
  8
0
 62
4
 10
5.74253124E-01
 20
2.59275444E+02
  0
VERTEX
  8
0
 62
4
 10
7.62093963E-01
 20
2.59382044E+02
  0
VERTEX
  8
0
 62
4
 10
9.23670247E-01
 20
2.59494523E+02
  0
VERTEX
  8
0
 62
4
 10
1.05768106E+00
 20
2.59611975E+02
  0
VERTEX
  8
0
 62
4
 10
1.16304742E+00
 20
2.59733454E+02
  0
VERTEX
  8
0
 62
4
 10
1.23892099E+00
 20
2.59857982E+02
  0
VERTEX
  8
0
 62
4
 10
1.28469087E+00
 20
2.59984557E+02
  0
VERTEX
  8
0
 62
4
 10
1.29998856E+00
 20
2.60112159E+02
  0
SEQEND
  8
0
  0
POLYLINE
  8
0
 62
4
 66
1
  0
VERTEX
  8
0
 62
4
 10
-5.90001145E+00
 20
2.61675071E+02
  0
VERTEX
  8
0
 62
4
 10
-6.03659311E+00
 20
2.61560112E+02
  0
VERTEX
  8
0
 62
4
 10
-6.14554098E+00
 20
2.61441084E+02
  0
VERTEX
  8
0
 62
4
 10
-6.22600376E+00
 20
2.61318916E+02
  0
VERTEX
  8
0
 62
4
 10
-6.27735274E+00
 20
2.61194564E+02
  0
VERTEX
  8
0
 62
4
 10
-6.29918669E+00
 20
2.61068999E+02
  0
VERTEX
  8
0
 62
4
 10
-6.29133502E+00
 20
2.60943203E+02
  0
VERTEX
  8
0
 62
4
 10
-6.25385907E+00
 20
2.60818158E+02
  0
VERTEX
  8
0
 62
4
 10
-6.18705166E+00
 20
2.60694840E+02
  0
VERTEX
  8
0
 62
4
 10
-6.09143482E+00
 20
2.60574215E+02
  0
VERTEX
  8
0
 62
4
 10
-5.96775566E+00
 20
2.60457224E+02
  0
VERTEX
  8
0
 62
4
 10
-5.81698058E+00
 20
2.60344782E+02
  0
VERTEX
  8
0
 62
4
 10
-5.64028768E+00
 20
2.60237767E+02
  0
VERTEX
  8
0
 62
4
 10
-5.43905760E+00
 20
2.60137015E+02
  0
VERTEX
  8
0
 62
4
 10
-5.21486268E+00
 20
2.60043313E+02
  0
VERTEX
  8
0
 62
4
 10
-4.96945472E+00
 20
2.59957394E+02
  0
VERTEX
  8
0
 62
4
 10
-4.70475126E+00
 20
2.59879930E+02
  0
VERTEX
  8
0
 62
4
 10
-4.42282062E+00
 20
2.59811524E+02
  0
VERTEX
  8
0
 62
4
 10
-4.12586572E+00
 20
2.59752713E+02
  0
VERTEX
  8
0
 62
4
 10
-3.81620688E+00
 20
2.59703954E+02
  0
VERTEX
  8
0
 62
4
 10
-3.49626367E+00
 20
2.59665630E+02
  0
VERTEX
  8
0
 62
4
 10
-3.16853605E+00
 20
2.59638040E+02
  0
VERTEX
  8
0
 62
4
 10
-2.83558477E+00
 20
2.59621399E+02
  0
VERTEX
  8
0
 62
4
 10
-2.50001142E+00
 20
2.59615838E+02
  0
VERTEX
  8
0
 62
4
 10
-2.16443807E+00
 20
2.59621399E+02
  0
VERTEX
  8
0
 62
4
 10
-1.83148680E+00
 20
2.59638040E+02
  0
VERTEX
  8
0
 62
4
 10
-1.50375917E+00
 20
2.59665630E+02
  0
VERTEX
  8
0
 62
4
 10
-1.18381597E+00
 20
2.59703954E+02
  0
VERTEX
  8
0
 62
4
 10
-8.74157126E-01
 20
2.59752713E+02
  0
VERTEX
  8
0
 62
4
 10
-5.77202226E-01
 20
2.59811524E+02
  0
VERTEX
  8
0
 62
4
 10
-2.95271587E-01
 20
2.59879930E+02
  0
VERTEX
  8
0
 62
4
 10
-3.05681309E-02
 20
2.59957394E+02
  0
VERTEX
  8
0
 62
4
 10
2.14839827E-01
 20
2.60043313E+02
  0
VERTEX
  8
0
 62
4
 10
4.39034743E-01
 20
2.60137015E+02
  0
VERTEX
  8
0
 62
4
 10
6.40264824E-01
 20
2.60237767E+02
  0
VERTEX
  8
0
 62
4
 10
8.16957718E-01
 20
2.60344782E+02
  0
VERTEX
  8
0
 62
4
 10
9.67732798E-01
 20
2.60457224E+02
  0
VERTEX
  8
0
 62
4
 10
1.09141195E+00
 20
2.60574215E+02
  0
VERTEX
  8
0
 62
4
 10
1.18702879E+00
 20
2.60694840E+02
  0
VERTEX
  8
0
 62
4
 10
1.25383619E+00
 20
2.60818158E+02
  0
VERTEX
  8
0
 62
4
 10
1.29131214E+00
 20
2.60943203E+02
  0
VERTEX
  8
0
 62
4
 10
1.29916381E+00
 20
2.61068999E+02
  0
VERTEX
  8
0
 62
4
 10
1.27732985E+00
 20
2.61194564E+02
  0
VERTEX
  8
0
 62
4
 10
1.22598087E+00
 20
2.61318916E+02
  0
VERTEX
  8
0
 62
4
 10
1.14551809E+00
 20
2.61441084E+02
  0
VERTEX
  8
0
 62
4
 10
1.03657022E+00
 20
2.61560112E+02
  0
VERTEX
  8
0
 62
4
 10
8.99988552E-01
 20
2.61675071E+02
  0
SEQEND
  8
0
  0
ARC
  8
0
 62
4
 10
-2.50001144E+00
 20
2.56621523E+02
 40
7.36533796E+00
 50
6.78494174E+01
 51
1.12150583E+02
  0
LINE
  8
0
  6
CENTER
 62
6
 10
1.49999886E+01
 20
2.60112159E+02
 11
9.99998856E+00
 21
2.60112159E+02
  0
LINE
  8
0
  6
CENTER
 62
6
 10
4.99998856E+00
 20
2.58923282E+02
 11
4.99998856E+00
 21
2.63923282E+02
  0
LINE
  8
0
  6
CENTER
 62
6
 10
7.49998856E+00
 20
2.61423282E+02
 11
2.49998856E+00
 21
2.61423282E+02
  0
LINE
  8
0
  6
CENTER
 62
6
 10
-2.50001144E+00
 20
2.57612159E+02
 11
-2.50001144E+00
 21
2.62612159E+02
  0
LINE
  8
0
  6
CENTER
 62
6
 10
-1.14370513E-05
 20
2.60112159E+02
 11
-5.00001144E+00
 21
2.60112159E+02
  0
LINE
  8
0
 62
4
 10
1.85124393E+00
 20
2.64420135E+02
 11
-1.00000114E+01
 21
2.64420135E+02
  0
LINE
  8
0
 62
4
 10
1.99999886E+01
 20
2.58986343E+02
 11
2.14999886E+01
 21
2.60114264E+02
  0
LINE
  8
0
 62
4
 10
2.14999886E+01
 20
2.62214336E+02
 11
1.99999886E+01
 21
2.62695078E+02
  0
LINE
  8
0
 62
4
 10
2.14999886E+01
 20
2.63062820E+02
 11
1.99999886E+01
 21
2.64193504E+02
  0
LINE
  8
0
 62
4
 10
1.99999886E+01
 20
2.62695078E+02
 11
9.14998856E+00
 21
2.62695078E+02
  0
LINE
  8
0
 62
4
 10
1.99999886E+01
 20
2.64193504E+02
 11
8.58042217E+00
 21
2.64193504E+02
  0
LINE
  8
0
 62
4
 10
1.99999886E+01
 20
2.62322338E+02
 11
9.14998856E+00
 21
2.62322338E+02
  0
LINE
  8
0
 62
4
 10
-5.00001144E+00
 20
2.64045528E+02
 11
-1.00000114E+01
 21
2.64045528E+02
  0
LINE
  8
0
 62
4
 10
-5.90001144E+00
 20
2.62322338E+02
 11
-1.00000114E+01
 21
2.62322338E+02
  0
LINE
  8
0
 62
4
 10
1.41955494E+00
 20
2.64193504E+02
 11
-5.00001144E+00
 21
2.64193504E+02
  0
LINE
  8
0
 62
4
 10
1.99999886E+01
 20
2.64193504E+02
 11
1.99999886E+01
 21
2.64420135E+02
  0
LINE
  8
0
 62
4
 10
1.99999886E+01
 20
2.62322338E+02
 11
1.99999886E+01
 21
2.64193504E+02
  0
LINE
  8
0
 62
7
 10
-5.39999886E+01
 20
3.20000000E+02
 11
-8.29999886E+01
 21
3.20000000E+02
  0
LINE
  8
0
 62
7
 10
-5.39999886E+01
 20
3.24000031E+02
 11
-8.29999886E+01
 21
3.24000031E+02
  0
LINE
  8
0
 62
7
 10
-6.89999886E+01
 20
3.11000000E+02
 11
-8.29999886E+01
 21
3.11000000E+02
  0
LINE
  8
0
 62
7
 10
-1.00000114E+01
 20
2.49999985E+02
 11
-8.29999886E+01
 21
2.49999985E+02
  0
LINE
  8
0
 62
7
 10
-1.00000114E+01
 20
2.36999969E+02
 11
-8.29999886E+01
 21
2.36999969E+02
  0
LINE
  8
0
 62
7
 10
-1.00000114E+01
 20
2.40999985E+02
 11
-8.29999886E+01
 21
2.40999985E+02
  0
LINE
  8
0
 62
4
 10
-8.09999886E+01
 20
-2.32318859E+02
 11
-8.09999886E+01
 21
-2.45318859E+02
  0
ARC
  8
0
 62
4
 10
-8.04999843E+01
 20
-2.32318864E+02
 40
5.00004272E-01
 50
9.00004895E+01
 51
1.79999510E+02
  0
LINE
  8
0
 62
4
 10
-7.14999886E+01
 20
-2.31818859E+02
 11
-8.04999886E+01
 21
-2.31818859E+02
  0
LINE
  8
0
 62
4
 10
-9.09999886E+01
 20
-2.45731826E+02
 11
-8.59999886E+01
 21
-2.45731826E+02
  0
LINE
  8
0
 62
4
 10
-9.09999886E+01
 20
-2.32827189E+02
 11
-8.59999886E+01
 21
-2.32827189E+02
  0
LINE
  8
0
 62
4
 10
-9.09999886E+01
 20
-2.39740180E+02
 11
-8.59999886E+01
 21
-2.39740180E+02
  0
POLYLINE
  8
0
 62
4
 66
1
  0
VERTEX
  8
0
 62
4
 10
-6.05999886E+01
 20
-2.61335177E+02
  0
VERTEX
  8
0
 62
4
 10
-6.06129266E+01
 20
-2.61055514E+02
  0
VERTEX
  8
0
 62
4
 10
-6.06516422E+01
 20
-2.60777980E+02
  0
VERTEX
  8
0
 62
4
 10
-6.07158408E+01
 20
-2.60504687E+02
  0
VERTEX
  8
0
 62
4
 10
-6.08050337E+01
 20
-2.60237714E+02
  0
VERTEX
  8
0
 62
4
 10
-6.09185421E+01
 20
-2.59979093E+02
  0
VERTEX
  8
0
 62
4
 10
-6.10555022E+01
 20
-2.59730793E+02
  0
VERTEX
  8
0
 62
4
 10
-6.12148716E+01
 20
-2.59494704E+02
  0
VERTEX
  8
0
 62
4
 10
-6.13954375E+01
 20
-2.59272621E+02
  0
VERTEX
  8
0
 62
4
 10
-6.15958255E+01
 20
-2.59066236E+02
  0
VERTEX
  8
0
 62
4
 10
-6.18145107E+01
 20
-2.58877119E+02
  0
VERTEX
  8
0
 62
4
 10
-6.20498287E+01
 20
-2.58706709E+02
  0
VERTEX
  8
0
 62
4
 10
-6.22999886E+01
 20
-2.58556303E+02
  0
VERTEX
  8
0
 62
4
 10
-6.25630865E+01
 20
-2.58427046E+02
  0
VERTEX
  8
0
 62
4
 10
-6.28371201E+01
 20
-2.58319922E+02
  0
VERTEX
  8
0
 62
4
 10
-6.31200038E+01
 20
-2.58235746E+02
  0
VERTEX
  8
0
 62
4
 10
-6.34095848E+01
 20
-2.58175158E+02
  0
VERTEX
  8
0
 62
4
 10
-6.37036591E+01
 20
-2.58138620E+02
  0
VERTEX
  8
0
 62
4
 10
-6.39999886E+01
 20
-2.58126410E+02
  0
VERTEX
  8
0
 62
4
 10
-6.42963181E+01
 20
-2.58138620E+02
  0
VERTEX
  8
0
 62
4
 10
-6.45903924E+01
 20
-2.58175158E+02
  0
VERTEX
  8
0
 62
4
 10
-6.48799734E+01
 20
-2.58235746E+02
  0
VERTEX
  8
0
 62
4
 10
-6.51628571E+01
 20
-2.58319922E+02
  0
VERTEX
  8
0
 62
4
 10
-6.54368907E+01
 20
-2.58427046E+02
  0
VERTEX
  8
0
 62
4
 10
-6.56999886E+01
 20
-2.58556303E+02
  0
VERTEX
  8
0
 62
4
 10
-6.59501485E+01
 20
-2.58706709E+02
  0
VERTEX
  8
0
 62
4
 10
-6.61854665E+01
 20
-2.58877119E+02
  0
VERTEX
  8
0
 62
4
 10
-6.64041517E+01
 20
-2.59066236E+02
  0
VERTEX
  8
0
 62
4
 10
-6.66045397E+01
 20
-2.59272621E+02
  0
VERTEX
  8
0
 62
4
 10
-6.67851056E+01
 20
-2.59494704E+02
  0
VERTEX
  8
0
 62
4
 10
-6.69444750E+01
 20
-2.59730793E+02
  0
VERTEX
  8
0
 62
4
 10
-6.70814351E+01
 20
-2.59979093E+02
  0
VERTEX
  8
0
 62
4
 10
-6.71949435E+01
 20
-2.60237714E+02
  0
VERTEX
  8
0
 62
4
 10
-6.72841364E+01
 20
-2.60504687E+02
  0
VERTEX
  8
0
 62
4
 10
-6.73483350E+01
 20
-2.60777980E+02
  0
VERTEX
  8
0
 62
4
 10
-6.73870506E+01
 20
-2.61055514E+02
  0
VERTEX
  8
0
 62
4
 10
-6.73999886E+01
 20
-2.61335177E+02
  0
VERTEX
  8
0
 62
4
 10
-6.73870506E+01
 20
-2.61614840E+02
  0
VERTEX
  8
0
 62
4
 10
-6.73483350E+01
 20
-2.61892374E+02
  0
VERTEX
  8
0
 62
4
 10
-6.72841364E+01
 20
-2.62165667E+02
  0
VERTEX
  8
0
 62
4
 10
-6.71949435E+01
 20
-2.62432640E+02
  0
VERTEX
  8
0
 62
4
 10
-6.70814351E+01
 20
-2.62691261E+02
  0
VERTEX
  8
0
 62
4
 10
-6.69444750E+01
 20
-2.62939561E+02
  0
VERTEX
  8
0
 62
4
 10
-6.67851055E+01
 20
-2.63175650E+02
  0
VERTEX
  8
0
 62
4
 10
-6.66045397E+01
 20
-2.63397733E+02
  0
VERTEX
  8
0
 62
4
 10
-6.64041517E+01
 20
-2.63604118E+02
  0
VERTEX
  8
0
 62
4
 10
-6.61854665E+01
 20
-2.63793235E+02
  0
VERTEX
  8
0
 62
4
 10
-6.59501485E+01
 20
-2.63963645E+02
  0
VERTEX
  8
0
 62
4
 10
-6.56999886E+01
 20
-2.64114051E+02
  0
VERTEX
  8
0
 62
4
 10
-6.54368907E+01
 20
-2.64243308E+02
  0
VERTEX
  8
0
 62
4
 10
-6.51628571E+01
 20
-2.64350432E+02
  0
VERTEX
  8
0
 62
4
 10
-6.48799733E+01
 20
-2.64434608E+02
  0
VERTEX
  8
0
 62
4
 10
-6.45903924E+01
 20
-2.64495196E+02
  0
VERTEX
  8
0
 62
4
 10
-6.42963181E+01
 20
-2.64531734E+02
  0
VERTEX
  8
0
 62
4
 10
-6.39999886E+01
 20
-2.64543944E+02
  0
VERTEX
  8
0
 62
4
 10
-6.37036591E+01
 20
-2.64531734E+02
  0
VERTEX
  8
0
 62
4
 10
-6.34095848E+01
 20
-2.64495196E+02
  0
VERTEX
  8
0
 62
4
 10
-6.31200038E+01
 20
-2.64434608E+02
  0
VERTEX
  8
0
 62
4
 10
-6.28371201E+01
 20
-2.64350432E+02
  0
VERTEX
  8
0
 62
4
 10
-6.25630865E+01
 20
-2.64243308E+02
  0
VERTEX
  8
0
 62
4
 10
-6.22999886E+01
 20
-2.64114051E+02
  0
VERTEX
  8
0
 62
4
 10
-6.20498287E+01
 20
-2.63963645E+02
  0
VERTEX
  8
0
 62
4
 10
-6.18145107E+01
 20
-2.63793235E+02
  0
VERTEX
  8
0
 62
4
 10
-6.15958255E+01
 20
-2.63604118E+02
  0
VERTEX
  8
0
 62
4
 10
-6.13954375E+01
 20
-2.63397733E+02
  0
VERTEX
  8
0
 62
4
 10
-6.12148716E+01
 20
-2.63175650E+02
  0
VERTEX
  8
0
 62
4
 10
-6.10555022E+01
 20
-2.62939561E+02
  0
VERTEX
  8
0
 62
4
 10
-6.09185421E+01
 20
-2.62691261E+02
  0
VERTEX
  8
0
 62
4
 10
-6.08050337E+01
 20
-2.62432640E+02
  0
VERTEX
  8
0
 62
4
 10
-6.07158408E+01
 20
-2.62165667E+02
  0
VERTEX
  8
0
 62
4
 10
-6.06516422E+01
 20
-2.61892374E+02
  0
VERTEX
  8
0
 62
4
 10
-6.06129266E+01
 20
-2.61614839E+02
  0
VERTEX
  8
0
 62
4
 10
-6.05999886E+01
 20
-2.61335177E+02
  0
SEQEND
  8
0
  0
POLYLINE
  8
0
 62
4
 66
1
  0
VERTEX
  8
0
 62
4
 10
-6.73806586E+01
 20
-2.61676837E+02
  0
VERTEX
  8
0
 62
4
 10
-6.73994134E+01
 20
-2.61952525E+02
  0
VERTEX
  8
0
 62
4
 10
-6.73916874E+01
 20
-2.62228661E+02
  0
VERTEX
  8
0
 62
4
 10
-6.73575408E+01
 20
-2.62503095E+02
  0
VERTEX
  8
0
 62
4
 10
-6.72972396E+01
 20
-2.62773688E+02
  0
VERTEX
  8
0
 62
4
 10
-6.72112535E+01
 20
-2.63038333E+02
  0
VERTEX
  8
0
 62
4
 10
-6.71002524E+01
 20
-2.63294969E+02
  0
VERTEX
  8
0
 62
4
 10
-6.69651009E+01
 20
-2.63541595E+02
  0
VERTEX
  8
0
 62
4
 10
-6.68068518E+01
 20
-2.63776292E+02
  0
VERTEX
  8
0
 62
4
 10
-6.66267379E+01
 20
-2.63997230E+02
  0
VERTEX
  8
0
 62
4
 10
-6.64261621E+01
 20
-2.64202689E+02
  0
VERTEX
  8
0
 62
4
 10
-6.62066870E+01
 20
-2.64391068E+02
  0
VERTEX
  8
0
 62
4
 10
-6.59700222E+01
 20
-2.64560899E+02
  0
VERTEX
  8
0
 62
4
 10
-6.57180113E+01
 20
-2.64710861E+02
  0
VERTEX
  8
0
 62
4
 10
-6.54526173E+01
 20
-2.64839784E+02
  0
VERTEX
  8
0
 62
4
 10
-6.51759077E+01
 20
-2.64946664E+02
  0
VERTEX
  8
0
 62
4
 10
-6.48900380E+01
 20
-2.65030669E+02
  0
VERTEX
  8
0
 62
4
 10
-6.45972349E+01
 20
-2.65091145E+02
  0
VERTEX
  8
0
 62
4
 10
-6.42997794E+01
 20
-2.65127620E+02
  0
VERTEX
  8
0
 62
4
 10
-6.39999886E+01
 20
-2.65139809E+02
  0
VERTEX
  8
0
 62
4
 10
-6.37001978E+01
 20
-2.65127620E+02
  0
VERTEX
  8
0
 62
4
 10
-6.34027423E+01
 20
-2.65091145E+02
  0
VERTEX
  8
0
 62
4
 10
-6.31099393E+01
 20
-2.65030669E+02
  0
VERTEX
  8
0
 62
4
 10
-6.28240695E+01
 20
-2.64946664E+02
  0
VERTEX
  8
0
 62
4
 10
-6.25473599E+01
 20
-2.64839784E+02
  0
VERTEX
  8
0
 62
4
 10
-6.22819659E+01
 20
-2.64710861E+02
  0
VERTEX
  8
0
 62
4
 10
-6.20299550E+01
 20
-2.64560899E+02
  0
VERTEX
  8
0
 62
4
 10
-6.17932902E+01
 20
-2.64391068E+02
  0
VERTEX
  8
0
 62
4
 10
-6.15738151E+01
 20
-2.64202689E+02
  0
VERTEX
  8
0
 62
4
 10
-6.13732393E+01
 20
-2.63997230E+02
  0
VERTEX
  8
0
 62
4
 10
-6.11931254E+01
 20
-2.63776292E+02
  0
VERTEX
  8
0
 62
4
 10
-6.10348763E+01
 20
-2.63541595E+02
  0
VERTEX
  8
0
 62
4
 10
-6.08997248E+01
 20
-2.63294969E+02
  0
VERTEX
  8
0
 62
4
 10
-6.07887237E+01
 20
-2.63038333E+02
  0
VERTEX
  8
0
 62
4
 10
-6.07027376E+01
 20
-2.62773688E+02
  0
VERTEX
  8
0
 62
4
 10
-6.06424364E+01
 20
-2.62503095E+02
  0
VERTEX
  8
0
 62
4
 10
-6.06082898E+01
 20
-2.62228661E+02
  0
VERTEX
  8
0
 62
4
 10
-6.06005638E+01
 20
-2.61952525E+02
  0
VERTEX
  8
0
 62
4
 10
-6.06193186E+01
 20
-2.61676837E+02
  0
SEQEND
  8
0
  0
POLYLINE
  8
0
 62
4
 66
1
  0
VERTEX
  8
0
 62
4
 10
-6.79985807E+01
 20
-2.62107775E+02
  0
VERTEX
  8
0
 62
4
 10
-6.79922516E+01
 20
-2.62434360E+02
  0
VERTEX
  8
0
 62
4
 10
-6.79545045E+01
 20
-2.62759144E+02
  0
VERTEX
  8
0
 62
4
 10
-6.78856365E+01
 20
-2.63079571E+02
  0
VERTEX
  8
0
 62
4
 10
-6.77861896E+01
 20
-2.63393118E+02
  0
VERTEX
  8
0
 62
4
 10
-6.76569463E+01
 20
-2.63697319E+02
  0
VERTEX
  8
0
 62
4
 10
-6.74989239E+01
 20
-2.63989779E+02
  0
VERTEX
  8
0
 62
4
 10
-6.73133658E+01
 20
-2.64268198E+02
  0
VERTEX
  8
0
 62
4
 10
-6.71017324E+01
 20
-2.64530383E+02
  0
VERTEX
  8
0
 62
4
 10
-6.68656892E+01
 20
-2.64774271E+02
  0
VERTEX
  8
0
 62
4
 10
-6.66070937E+01
 20
-2.64997944E+02
  0
VERTEX
  8
0
 62
4
 10
-6.63279810E+01
 20
-2.65199641E+02
  0
VERTEX
  8
0
 62
4
 10
-6.60305477E+01
 20
-2.65377774E+02
  0
VERTEX
  8
0
 62
4
 10
-6.57171345E+01
 20
-2.65530942E+02
  0
VERTEX
  8
0
 62
4
 10
-6.53902079E+01
 20
-2.65657940E+02
  0
VERTEX
  8
0
 62
4
 10
-6.50523406E+01
 20
-2.65757768E+02
  0
VERTEX
  8
0
 62
4
 10
-6.47061916E+01
 20
-2.65829640E+02
  0
VERTEX
  8
0
 62
4
 10
-6.43544850E+01
 20
-2.65872990E+02
  0
VERTEX
  8
0
 62
4
 10
-6.39999886E+01
 20
-2.65887478E+02
  0
VERTEX
  8
0
 62
4
 10
-6.36454922E+01
 20
-2.65872990E+02
  0
VERTEX
  8
0
 62
4
 10
-6.32937856E+01
 20
-2.65829640E+02
  0
VERTEX
  8
0
 62
4
 10
-6.29476366E+01
 20
-2.65757768E+02
  0
VERTEX
  8
0
 62
4
 10
-6.26097693E+01
 20
-2.65657940E+02
  0
VERTEX
  8
0
 62
4
 10
-6.22828427E+01
 20
-2.65530942E+02
  0
VERTEX
  8
0
 62
4
 10
-6.19694295E+01
 20
-2.65377774E+02
  0
VERTEX
  8
0
 62
4
 10
-6.16719962E+01
 20
-2.65199641E+02
  0
VERTEX
  8
0
 62
4
 10
-6.13928835E+01
 20
-2.64997944E+02
  0
VERTEX
  8
0
 62
4
 10
-6.11342880E+01
 20
-2.64774271E+02
  0
VERTEX
  8
0
 62
4
 10
-6.08982448E+01
 20
-2.64530383E+02
  0
VERTEX
  8
0
 62
4
 10
-6.06866114E+01
 20
-2.64268198E+02
  0
VERTEX
  8
0
 62
4
 10
-6.05010533E+01
 20
-2.63989779E+02
  0
VERTEX
  8
0
 62
4
 10
-6.03430309E+01
 20
-2.63697319E+02
  0
VERTEX
  8
0
 62
4
 10
-6.02137876E+01
 20
-2.63393118E+02
  0
VERTEX
  8
0
 62
4
 10
-6.01143407E+01
 20
-2.63079571E+02
  0
VERTEX
  8
0
 62
4
 10
-6.00454727E+01
 20
-2.62759144E+02
  0
VERTEX
  8
0
 62
4
 10
-6.00077256E+01
 20
-2.62434360E+02
  0
VERTEX
  8
0
 62
4
 10
-6.00013965E+01
 20
-2.62107775E+02
  0
SEQEND
  8
0
  0
POLYLINE
  8
0
 62
4
 66
1
  0
VERTEX
  8
0
 62
4
 10
-6.64085825E+01
 20
-2.59070427E+02
  0
VERTEX
  8
0
 62
4
 10
-6.66786183E+01
 20
-2.59275567E+02
  0
VERTEX
  8
0
 62
4
 10
-6.69281318E+01
 20
-2.59501658E+02
  0
VERTEX
  8
0
 62
4
 10
-6.71552113E+01
 20
-2.59746967E+02
  0
VERTEX
  8
0
 62
4
 10
-6.73581170E+01
 20
-2.60009615E+02
  0
VERTEX
  8
0
 62
4
 10
-6.75352944E+01
 20
-2.60287589E+02
  0
VERTEX
  8
0
 62
4
 10
-6.76853860E+01
 20
-2.60578761E+02
  0
VERTEX
  8
0
 62
4
 10
-6.78072419E+01
 20
-2.60880899E+02
  0
VERTEX
  8
0
 62
4
 10
-6.78999285E+01
 20
-2.61191688E+02
  0
VERTEX
  8
0
 62
4
 10
-6.79627357E+01
 20
-2.61508747E+02
  0
VERTEX
  8
0
 62
4
 10
-6.79951823E+01
 20
-2.61829648E+02
  0
VERTEX
  8
0
 62
4
 10
-6.79970197E+01
 20
-2.62151930E+02
  0
VERTEX
  8
0
 62
4
 10
-6.79682337E+01
 20
-2.62473127E+02
  0
VERTEX
  8
0
 62
4
 10
-6.79090451E+01
 20
-2.62790775E+02
  0
VERTEX
  8
0
 62
4
 10
-6.78199071E+01
 20
-2.63102443E+02
  0
VERTEX
  8
0
 62
4
 10
-6.77015029E+01
 20
-2.63405741E+02
  0
VERTEX
  8
0
 62
4
 10
-6.75547394E+01
 20
-2.63698347E+02
  0
VERTEX
  8
0
 62
4
 10
-6.73807412E+01
 20
-2.63978018E+02
  0
VERTEX
  8
0
 62
4
 10
-6.71808413E+01
 20
-2.64242612E+02
  0
VERTEX
  8
0
 62
4
 10
-6.69565713E+01
 20
-2.64490101E+02
  0
VERTEX
  8
0
 62
4
 10
-6.67096494E+01
 20
-2.64718590E+02
  0
VERTEX
  8
0
 62
4
 10
-6.64419675E+01
 20
-2.64926327E+02
  0
VERTEX
  8
0
 62
4
 10
-6.61555763E+01
 20
-2.65111722E+02
  0
VERTEX
  8
0
 62
4
 10
-6.58526700E+01
 20
-2.65273354E+02
  0
VERTEX
  8
0
 62
4
 10
-6.55355694E+01
 20
-2.65409984E+02
  0
VERTEX
  8
0
 62
4
 10
-6.52067039E+01
 20
-2.65520566E+02
  0
VERTEX
  8
0
 62
4
 10
-6.48685932E+01
 20
-2.65604252E+02
  0
VERTEX
  8
0
 62
4
 10
-6.45238277E+01
 20
-2.65660402E+02
  0
VERTEX
  8
0
 62
4
 10
-6.41750487E+01
 20
-2.65688584E+02
  0
VERTEX
  8
0
 62
4
 10
-6.38249285E+01
 20
-2.65688584E+02
  0
VERTEX
  8
0
 62
4
 10
-6.34761496E+01
 20
-2.65660402E+02
  0
VERTEX
  8
0
 62
4
 10
-6.31313840E+01
 20
-2.65604252E+02
  0
VERTEX
  8
0
 62
4
 10
-6.27932733E+01
 20
-2.65520566E+02
  0
VERTEX
  8
0
 62
4
 10
-6.24644078E+01
 20
-2.65409984E+02
  0
VERTEX
  8
0
 62
4
 10
-6.21473072E+01
 20
-2.65273354E+02
  0
VERTEX
  8
0
 62
4
 10
-6.18444010E+01
 20
-2.65111722E+02
  0
VERTEX
  8
0
 62
4
 10
-6.15580098E+01
 20
-2.64926327E+02
  0
VERTEX
  8
0
 62
4
 10
-6.12903278E+01
 20
-2.64718590E+02
  0
VERTEX
  8
0
 62
4
 10
-6.10434059E+01
 20
-2.64490101E+02
  0
VERTEX
  8
0
 62
4
 10
-6.08191359E+01
 20
-2.64242612E+02
  0
VERTEX
  8
0
 62
4
 10
-6.06192360E+01
 20
-2.63978018E+02
  0
VERTEX
  8
0
 62
4
 10
-6.04452378E+01
 20
-2.63698347E+02
  0
VERTEX
  8
0
 62
4
 10
-6.02984743E+01
 20
-2.63405741E+02
  0
VERTEX
  8
0
 62
4
 10
-6.01800701E+01
 20
-2.63102443E+02
  0
VERTEX
  8
0
 62
4
 10
-6.00909321E+01
 20
-2.62790775E+02
  0
VERTEX
  8
0
 62
4
 10
-6.00317435E+01
 20
-2.62473127E+02
  0
VERTEX
  8
0
 62
4
 10
-6.00029575E+01
 20
-2.62151930E+02
  0
VERTEX
  8
0
 62
4
 10
-6.00047949E+01
 20
-2.61829648E+02
  0
VERTEX
  8
0
 62
4
 10
-6.00372415E+01
 20
-2.61508747E+02
  0
VERTEX
  8
0
 62
4
 10
-6.01000487E+01
 20
-2.61191688E+02
  0
VERTEX
  8
0
 62
4
 10
-6.01927353E+01
 20
-2.60880899E+02
  0
VERTEX
  8
0
 62
4
 10
-6.03145912E+01
 20
-2.60578761E+02
  0
VERTEX
  8
0
 62
4
 10
-6.04646828E+01
 20
-2.60287589E+02
  0
VERTEX
  8
0
 62
4
 10
-6.06418602E+01
 20
-2.60009615E+02
  0
VERTEX
  8
0
 62
4
 10
-6.08447659E+01
 20
-2.59746967E+02
  0
VERTEX
  8
0
 62
4
 10
-6.10718454E+01
 20
-2.59501658E+02
  0
VERTEX
  8
0
 62
4
 10
-6.13213589E+01
 20
-2.59275567E+02
  0
VERTEX
  8
0
 62
4
 10
-6.15913947E+01
 20
-2.59070427E+02
  0
SEQEND
  8
0
  0
LINE
  8
0
 62
4
 10
-3.99999886E+01
 20
-2.76000000E+02
 11
-3.99999886E+01
 21
-2.73963458E+02
  0
LINE
  8
0
 62
4
 10
-7.29999886E+01
 20
-2.76000000E+02
 11
-7.29999886E+01
 21
-2.73963458E+02
  0
LINE
  8
0
 62
4
 10
-3.99999886E+01
 20
-2.73963458E+02
 11
-3.69999886E+01
 21
-2.69109245E+02
  0
LINE
  8
0
 62
4
 10
-7.59999886E+01
 20
-2.69109245E+02
 11
-7.29999886E+01
 21
-2.73963458E+02
  0
LINE
  8
0
 62
4
 10
-7.14999886E+01
 20
-2.52457438E+02
 11
-5.64999886E+01
 21
-2.52457438E+02
  0
LINE
  8
0
 62
4
 10
-7.14999886E+01
 20
-2.30365322E+02
 11
-5.64999886E+01
 21
-2.30365322E+02
  0
LINE
  8
0
 62
6
 10
-6.57149234E+01
 20
-2.62557058E+02
 11
-6.22850537E+01
 21
-2.59127183E+02
  0
LINE
  8
0
 62
6
 10
-6.22850513E+01
 20
-2.62557056E+02
 11
-6.57149259E+01
 21
-2.59127186E+02
  0
ARC
  8
0
 62
4
 10
-7.44999857E+01
 20
-2.57579770E+02
 40
1.50000284E+00
 50
9.00001085E+01
 51
1.79999892E+02
  0
ARC
  8
0
 62
4
 10
-8.04999928E+01
 20
-2.45318864E+02
 40
4.99995728E-01
 50
1.79999510E+02
 51
2.70000490E+02
  0
ARC
  8
0
 62
4
 10
-3.84999914E+01
 20
-2.57579770E+02
 40
1.50000284E+00
 50
1.08554370E-04
 51
8.99998913E+01
  0
ARC
  8
0
 62
4
 10
-7.19999928E+01
 20
-2.46318864E+02
 40
5.00004272E-01
 50
4.89585868E-04
 51
8.99995103E+01
  0
LINE
  8
0
 62
4
 10
-8.44999886E+01
 20
-2.44568859E+02
 11
-8.09999886E+01
 21
-2.44568859E+02
  0
LINE
  8
0
 62
4
 10
-8.44999886E+01
 20
-2.33068859E+02
 11
-8.09999886E+01
 21
-2.33068859E+02
  0
LINE
  8
0
 62
4
 10
-8.44999886E+01
 20
-2.32568859E+02
 11
-8.44999886E+01
 21
-2.45068859E+02
  0
LINE
  8
0
 62
4
 10
-8.59999886E+01
 20
-2.45068859E+02
 11
-8.09999886E+01
 21
-2.45068859E+02
  0
LINE
  8
0
 62
4
 10
-8.59999886E+01
 20
-2.32568859E+02
 11
-8.09999886E+01
 21
-2.32568859E+02
  0
LINE
  8
0
 62
4
 10
-8.59999886E+01
 20
-2.31915048E+02
 11
-8.59999886E+01
 21
-2.45731826E+02
  0
LINE
  8
0
 62
4
 10
-9.09999886E+01
 20
-2.31915048E+02
 11
-9.09999886E+01
 21
-2.45731826E+02
  0
LINE
  8
0
 62
4
 10
-8.04999886E+01
 20
-2.45818859E+02
 11
-7.19999886E+01
 21
-2.45818859E+02
  0
LINE
  8
0
 62
4
 10
-9.09999886E+01
 20
-2.31915048E+02
 11
-8.59999886E+01
 21
-2.31915048E+02
  0
LINE
  8
0
 62
4
 10
-7.44999886E+01
 20
-2.56079767E+02
 11
-3.84999886E+01
 21
-2.56079767E+02
  0
LINE
  8
0
 62
4
 10
-7.59999886E+01
 20
-2.67728488E+02
 11
-3.69999886E+01
 21
-2.67728488E+02
  0
LINE
  8
0
 62
4
 10
-7.59999886E+01
 20
-2.69109245E+02
 11
-3.69999886E+01
 21
-2.69109245E+02
  0
LINE
  8
0
 62
4
 10
-7.29999886E+01
 20
-2.73963458E+02
 11
-3.99999886E+01
 21
-2.73963458E+02
  0
LINE
  8
0
 62
4
 10
-3.69999886E+01
 20
-2.57579767E+02
 11
-3.69999886E+01
 21
-2.69109245E+02
  0
LINE
  8
0
 62
4
 10
-5.44999886E+01
 20
-2.52596481E+02
 11
-5.44999886E+01
 21
-2.56079767E+02
  0
LINE
  8
0
 62
4
 10
-7.14999886E+01
 20
-2.30365322E+02
 11
-7.14999886E+01
 21
-2.52596481E+02
  0
LINE
  8
0
 62
4
 10
-5.64999886E+01
 20
-2.30365322E+02
 11
-5.64999886E+01
 21
-2.52596481E+02
  0
LINE
  8
0
 62
4
 10
-7.34999886E+01
 20
-2.52596481E+02
 11
-7.34999886E+01
 21
-2.56079767E+02
  0
LINE
  8
0
 62
4
 10
-7.59999886E+01
 20
-2.57579767E+02
 11
-7.59999886E+01
 21
-2.69109245E+02
  0
LINE
  8
0
 62
4
 10
-7.34999886E+01
 20
-2.52596481E+02
 11
-5.44999886E+01
 21
-2.52596481E+02
  0
LINE
  8
0
  6
CENTER
 62
6
 10
-7.03999886E+01
 20
-2.60842121E+02
 11
-5.75999886E+01
 21
-2.60842121E+02
  0
LINE
  8
0
  6
CENTER
 62
6
 10
-6.39999886E+01
 20
-2.67242121E+02
 11
-6.39999886E+01
 21
-2.54442121E+02
  0
ARC
  8
0
 62
4
 10
-3.90033774E+02
 20
-2.38818859E+02
 40
7.00000000E+00
 50
1.21115777E+02
 51
1.44002341E+02
  0
ARC
  8
0
 62
4
 10
-3.90033774E+02
 20
-2.38818859E+02
 40
7.00000000E+00
 50
8.19976591E+01
 51
1.04884035E+02
  0
ARC
  8
0
 62
4
 10
-3.71325344E+02
 20
-2.58579783E+02
 40
2.50001570E+00
 50
2.30003598E+01
 51
1.12999640E+02
  0
ARC
  8
0
 62
4
 10
-3.88814912E+02
 20
-2.66003660E+02
 40
2.50001192E+00
 50
1.13000273E+02
 51
2.02999727E+02
  0
ARC
  8
0
 62
4
 10
-3.74710970E+02
 20
-2.65484496E+02
 40
1.18036308E+01
 50
1.02898056E+01
 51
3.59747793E+01
  0
CIRCLE
  8
0
 62
4
 10
-3.90033774E+02
 20
-2.38818859E+02
 40
3.75000000E+00
  0
ARC
  8
0
 62
4
 10
-3.65959546E+02
 20
-2.59123619E+02
 40
9.97209177E-01
 50
3.55805360E+01
 51
1.12812291E+02
  0
ARC
  8
0
 62
4
 10
-3.64081021E+02
 20
-2.63545600E+02
 40
9.98345090E-01
 50
2.93107940E+02
 51
9.77816763E+00
  0
LINE
  8
0
 62
4
 10
-3.68173090E+02
 20
-2.58328074E+02
 11
-3.65047241E+02
 21
-2.65692113E+02
  0
LINE
  8
0
  6
CENTER
 62
6
 10
-3.91322846E+02
 20
-2.72500004E+02
 11
-3.61087136E+02
 21
-2.59665706E+02
  0
LINE
  8
0
 62
4
 10
-3.63689206E+02
 20
-2.64463845E+02
 11
-3.65281680E+02
 21
-2.65139810E+02
  0
LINE
  8
0
 62
4
 10
-3.67938651E+02
 20
-2.58880377E+02
 11
-3.66346178E+02
 21
-2.58204412E+02
  0
LINE
  8
0
 62
4
 10
-3.65507493E+02
 20
-2.65887478E+02
 11
-3.65047241E+02
 21
-2.65692113E+02
  0
LINE
  8
0
 62
4
 10
-3.68633342E+02
 20
-2.58523439E+02
 11
-3.68173090E+02
 21
-2.58328074E+02
  0
LINE
  8
0
 62
4
 10
-3.89984850E+02
 20
-2.32279904E+02
 11
-3.85474376E+02
 21
-2.30365322E+02
  0
LINE
  8
0
 62
4
 10
-3.92964259E+02
 20
-2.31915048E+02
 11
-3.85515736E+02
 21
-2.32827189E+02
  0
LINE
  8
0
 62
4
 10
-3.94547908E+02
 20
-2.44819685E+02
 11
-3.87099385E+02
 21
-2.45731826E+02
  0
LINE
  8
0
 62
4
 10
-3.85515736E+02
 20
-2.32827189E+02
 11
-3.82581345E+02
 21
-2.39740180E+02
  0
LINE
  8
0
 62
4
 10
-3.97482299E+02
 20
-2.37906693E+02
 11
-3.94547908E+02
 21
-2.44819685E+02
  0
LINE
  8
0
 62
4
 10
-3.97482299E+02
 20
-2.37906693E+02
 11
-3.92964259E+02
 21
-2.31915048E+02
  0
LINE
  8
0
 62
4
 10
-3.87099385E+02
 20
-2.45731826E+02
 11
-3.82581345E+02
 21
-2.39740180E+02
  0
LINE
  8
0
 62
4
 10
-3.76080101E+02
 20
-2.66573022E+02
 11
-3.75103273E+02
 21
-2.68874285E+02
  0
LINE
  8
0
 62
4
 10
-3.79762120E+02
 20
-2.68135947E+02
 11
-3.78785292E+02
 21
-2.70437209E+02
  0
LINE
  8
0
 62
4
 10
-3.78785292E+02
 20
-2.70437209E+02
 11
-3.75103273E+02
 21
-2.68874285E+02
  0
LINE
  8
0
 62
4
 10
-3.79762120E+02
 20
-2.68135947E+02
 11
-3.76080101E+02
 21
-2.66573022E+02
  0
LINE
  8
0
 62
4
 10
-3.75967031E+02
 20
-2.72500009E+02
 11
-3.64726031E+02
 21
-2.67728488E+02
  0
LINE
  8
0
 62
4
 10
-3.64139934E+02
 20
-2.69109245E+02
 11
-3.64977174E+02
 21
-2.72500013E+02
  0
LINE
  8
0
 62
4
 10
-3.91116190E+02
 20
-2.66980481E+02
 11
-3.88773291E+02
 21
-2.72500005E+02
  0
LINE
  8
0
 62
4
 10
-3.69024073E+02
 20
-2.57602934E+02
 11
-3.64139934E+02
 21
-2.69109245E+02
  0
LINE
  8
0
 62
4
 10
-3.72128077E+02
 20
-2.72500011E+02
 11
-3.64139934E+02
 21
-2.69109245E+02
  0
LINE
  8
0
 62
4
 10
-3.89791756E+02
 20
-2.63702392E+02
 11
-3.72302163E+02
 21
-2.56278500E+02
  0
LINE
  8
0
 62
4
 10
-3.91354680E+02
 20
-2.60020372E+02
 11
-3.89791756E+02
 21
-2.63702392E+02
  0
LINE
  8
0
 62
4
 10
-3.73865088E+02
 20
-2.52596481E+02
 11
-3.72302163E+02
 21
-2.56278500E+02
  0
LINE
  8
0
 62
4
 10
-3.89904402E+02
 20
-2.58318405E+02
 11
-3.76096829E+02
 21
-2.52457438E+02
  0
LINE
  8
0
 62
4
 10
-3.91354680E+02
 20
-2.60020372E+02
 11
-3.73865088E+02
 21
-2.52596481E+02
  0
LINE
  8
0
 62
4
 10
-3.99281949E+02
 20
-2.36226289E+02
 11
-3.89513670E+02
 21
-2.59238910E+02
  0
LINE
  8
0
 62
4
 10
-3.85474376E+02
 20
-2.30365322E+02
 11
-3.75706098E+02
 21
-2.53377943E+02
  0
LINE
  8
0
 62
4
 10
-3.99281949E+02
 20
-2.36226289E+02
 11
-3.94780680E+02
 21
-2.34315613E+02
  0
LINE
  8
0
 62
4
 10
-3.97358813E+02
 20
-2.70173498E+02
 11
-3.98544241E+02
 21
-2.72500001E+02
  0
LINE
  8
0
 62
4
 10
-3.97358813E+02
 20
-2.70173498E+02
 11
-3.90920824E+02
 21
-2.67440734E+02
  0
LINE
  8
0
 62
4
 10
1.40547282E+02
 20
-2.57843045E+02
 11
1.46328053E+02
 21
-2.60296837E+02
  0
LINE
  8
0
 62
4
 10
1.46328053E+02
 20
-2.60296837E+02
 11
1.46268704E+02
 21
-2.61358005E+02
  0
LINE
  8
0
 62
4
 10
1.39825170E+02
 20
-2.58622887E+02
 11
1.40547282E+02
 21
-2.57843045E+02
  0
LINE
  8
0
  6
CENTER
 62
6
 10
1.44288238E+02
 20
-2.57066122E+02
 11
1.42464747E+02
 21
-2.61361998E+02
  0
ARC
  8
0
 62
4
 10
1.52033743E+02
 20
-2.38818856E+02
 40
7.00000000E+00
 50
3.59976591E+01
 51
9.80023407E+01
  0
LINE
  8
0
 62
4
 10
1.59358790E+02
 20
-2.70173498E+02
 11
1.52920801E+02
 21
-2.67440734E+02
  0
LINE
  8
0
 62
4
 10
1.59358790E+02
 20
-2.70173498E+02
 11
1.60544218E+02
 21
-2.72500001E+02
  0
LINE
  8
0
 62
4
 10
1.47474353E+02
 20
-2.30365322E+02
 11
1.61281926E+02
 21
-2.36226289E+02
  0
LINE
  8
0
 62
4
 10
1.47474353E+02
 20
-2.30365322E+02
 11
1.37706075E+02
 21
-2.53377943E+02
  0
LINE
  8
0
 62
4
 10
1.61281926E+02
 20
-2.36226289E+02
 11
1.51513647E+02
 21
-2.59238910E+02
  0
LINE
  8
0
 62
4
 10
1.53354657E+02
 20
-2.60020372E+02
 11
1.35865065E+02
 21
-2.52596481E+02
  0
LINE
  8
0
 62
4
 10
1.51904379E+02
 20
-2.58318405E+02
 11
1.38096806E+02
 21
-2.52457438E+02
  0
LINE
  8
0
 62
4
 10
1.35865065E+02
 20
-2.52596481E+02
 11
1.34302140E+02
 21
-2.56278500E+02
  0
LINE
  8
0
 62
4
 10
1.53354657E+02
 20
-2.60020372E+02
 11
1.51791733E+02
 21
-2.63702392E+02
  0
LINE
  8
0
 62
4
 10
1.51791733E+02
 20
-2.63702392E+02
 11
1.34302140E+02
 21
-2.56278500E+02
  0
LINE
  8
0
 62
4
 10
1.34128054E+02
 20
-2.72500011E+02
 11
1.26139911E+02
 21
-2.69109245E+02
  0
LINE
  8
0
 62
4
 10
1.31024051E+02
 20
-2.57602934E+02
 11
1.26139911E+02
 21
-2.69109245E+02
  0
LINE
  8
0
 62
4
 10
1.53116167E+02
 20
-2.66980481E+02
 11
1.50773268E+02
 21
-2.72500005E+02
  0
LINE
  8
0
 62
4
 10
1.26139911E+02
 20
-2.69109245E+02
 11
1.26977151E+02
 21
-2.72500013E+02
  0
LINE
  8
0
 62
4
 10
1.37967008E+02
 20
-2.72500009E+02
 11
1.26726008E+02
 21
-2.67728488E+02
  0
LINE
  8
0
 62
4
 10
1.41762097E+02
 20
-2.68135947E+02
 11
1.38080078E+02
 21
-2.66573022E+02
  0
LINE
  8
0
 62
4
 10
1.40785269E+02
 20
-2.70437209E+02
 11
1.37103250E+02
 21
-2.68874285E+02
  0
LINE
  8
0
 62
4
 10
1.41762097E+02
 20
-2.68135947E+02
 11
1.40785269E+02
 21
-2.70437209E+02
  0
LINE
  8
0
 62
4
 10
1.38080078E+02
 20
-2.66573022E+02
 11
1.37103250E+02
 21
-2.68874285E+02
  0
LINE
  8
0
 62
4
 10
1.55651137E+02
 20
-2.32825988E+02
 11
1.54964236E+02
 21
-2.31915048E+02
  0
LINE
  8
0
 62
4
 10
1.54964236E+02
 20
-2.31915048E+02
 11
1.53831799E+02
 21
-2.32053725E+02
  0
LINE
  8
0
 62
4
 10
1.30633319E+02
 20
-2.58523439E+02
 11
1.30173067E+02
 21
-2.58328074E+02
  0
LINE
  8
0
 62
4
 10
1.27507470E+02
 20
-2.65887478E+02
 11
1.27047218E+02
 21
-2.65692113E+02
  0
LINE
  8
0
 62
4
 10
1.29938628E+02
 20
-2.58880377E+02
 11
1.28346155E+02
 21
-2.58204412E+02
  0
LINE
  8
0
 62
4
 10
1.25689183E+02
 20
-2.64463845E+02
 11
1.27281657E+02
 21
-2.65139810E+02
  0
LINE
  8
0
  6
CENTER
 62
6
 10
1.53322823E+02
 20
-2.72500004E+02
 11
1.23087113E+02
 21
-2.59665706E+02
  0
LINE
  8
0
 62
4
 10
1.30173067E+02
 20
-2.58328074E+02
 11
1.27047218E+02
 21
-2.65692113E+02
  0
ARC
  8
0
 62
4
 10
1.26080998E+02
 20
-2.63545600E+02
 40
9.98345090E-01
 50
1.70221832E+02
 51
2.46892060E+02
  0
ARC
  8
0
 62
4
 10
1.27959524E+02
 20
-2.59123619E+02
 40
9.97209177E-01
 50
6.71877091E+01
 51
1.44419464E+02
  0
ARC
  8
0
 62
4
 10
1.36710948E+02
 20
-2.65484496E+02
 40
1.18036308E+01
 50
1.44025221E+02
 51
1.69710195E+02
  0
ARC
  8
0
 62
4
 10
1.50814889E+02
 20
-2.66003660E+02
 40
2.50001192E+00
 50
3.37000273E+02
 51
6.69997268E+01
  0
ARC
  8
0
 62
4
 10
1.33325321E+02
 20
-2.58579783E+02
 40
2.50001570E+00
 50
6.70003599E+01
 51
1.56999640E+02
  0
LINE
  8
0
 62
4
 10
-7.44999580E+01
 20
-1.28499118E+02
 11
-3.84999580E+01
 21
-1.28499118E+02
  0
LINE
  8
0
 62
4
 10
-5.44999580E+01
 20
-1.07185095E+02
 11
-3.84999580E+01
 21
-1.07185095E+02
  0
LINE
  8
0
 62
4
 10
-6.08176492E+01
 20
-1.34360085E+02
 11
-3.84999547E+01
 21
-1.34360085E+02
  0
LINE
  8
0
  6
CENTER
 62
6
 10
-5.41663523E+01
 20
-1.17062332E+02
 11
-4.18335638E+01
 21
-1.17062332E+02
  0
LINE
  8
0
 62
4
 10
-7.34999580E+01
 20
-1.26197841E+02
 11
-5.44999580E+01
 21
-1.26197841E+02
  0
POLYLINE
  8
0
 62
4
 66
1
  0
VERTEX
  8
0
 62
4
 10
-6.05999580E+01
 20
-1.33785592E+02
  0
VERTEX
  8
0
 62
4
 10
-6.06128960E+01
 20
-1.33643376E+02
  0
VERTEX
  8
0
 62
4
 10
-6.06516116E+01
 20
-1.33502241E+02
  0
VERTEX
  8
0
 62
4
 10
-6.07158102E+01
 20
-1.33363264E+02
  0
VERTEX
  8
0
 62
4
 10
-6.08050031E+01
 20
-1.33227500E+02
  0
VERTEX
  8
0
 62
4
 10
-6.09185115E+01
 20
-1.33095984E+02
  0
VERTEX
  8
0
 62
4
 10
-6.10554716E+01
 20
-1.32969717E+02
  0
VERTEX
  8
0
 62
4
 10
-6.12148410E+01
 20
-1.32849658E+02
  0
VERTEX
  8
0
 62
4
 10
-6.13954069E+01
 20
-1.32736723E+02
  0
VERTEX
  8
0
 62
4
 10
-6.15957949E+01
 20
-1.32631770E+02
  0
VERTEX
  8
0
 62
4
 10
-6.18144801E+01
 20
-1.32535598E+02
  0
VERTEX
  8
0
 62
4
 10
-6.20497981E+01
 20
-1.32448940E+02
  0
VERTEX
  8
0
 62
4
 10
-6.22999580E+01
 20
-1.32372454E+02
  0
VERTEX
  8
0
 62
4
 10
-6.25630559E+01
 20
-1.32306724E+02
  0
VERTEX
  8
0
 62
4
 10
-6.28370895E+01
 20
-1.32252248E+02
  0
VERTEX
  8
0
 62
4
 10
-6.31199732E+01
 20
-1.32209442E+02
  0
VERTEX
  8
0
 62
4
 10
-6.34095542E+01
 20
-1.32178631E+02
  0
VERTEX
  8
0
 62
4
 10
-6.37036285E+01
 20
-1.32160050E+02
  0
VERTEX
  8
0
 62
4
 10
-6.39999580E+01
 20
-1.32153841E+02
  0
VERTEX
  8
0
 62
4
 10
-6.42962875E+01
 20
-1.32160050E+02
  0
VERTEX
  8
0
 62
4
 10
-6.45903618E+01
 20
-1.32178631E+02
  0
VERTEX
  8
0
 62
4
 10
-6.48799428E+01
 20
-1.32209442E+02
  0
VERTEX
  8
0
 62
4
 10
-6.51628265E+01
 20
-1.32252248E+02
  0
VERTEX
  8
0
 62
4
 10
-6.54368601E+01
 20
-1.32306724E+02
  0
VERTEX
  8
0
 62
4
 10
-6.56999580E+01
 20
-1.32372454E+02
  0
VERTEX
  8
0
 62
4
 10
-6.59501179E+01
 20
-1.32448940E+02
  0
VERTEX
  8
0
 62
4
 10
-6.61854359E+01
 20
-1.32535598E+02
  0
VERTEX
  8
0
 62
4
 10
-6.64041211E+01
 20
-1.32631770E+02
  0
VERTEX
  8
0
 62
4
 10
-6.66045091E+01
 20
-1.32736723E+02
  0
VERTEX
  8
0
 62
4
 10
-6.67850750E+01
 20
-1.32849658E+02
  0
VERTEX
  8
0
 62
4
 10
-6.69444444E+01
 20
-1.32969717E+02
  0
VERTEX
  8
0
 62
4
 10
-6.70814045E+01
 20
-1.33095984E+02
  0
VERTEX
  8
0
 62
4
 10
-6.71949129E+01
 20
-1.33227500E+02
  0
VERTEX
  8
0
 62
4
 10
-6.72841058E+01
 20
-1.33363264E+02
  0
VERTEX
  8
0
 62
4
 10
-6.73483044E+01
 20
-1.33502241E+02
  0
VERTEX
  8
0
 62
4
 10
-6.73870200E+01
 20
-1.33643376E+02
  0
VERTEX
  8
0
 62
4
 10
-6.73999580E+01
 20
-1.33785592E+02
  0
VERTEX
  8
0
 62
4
 10
-6.73870200E+01
 20
-1.33927808E+02
  0
VERTEX
  8
0
 62
4
 10
-6.73483044E+01
 20
-1.34068943E+02
  0
VERTEX
  8
0
 62
4
 10
-6.72841058E+01
 20
-1.34207920E+02
  0
VERTEX
  8
0
 62
4
 10
-6.71949129E+01
 20
-1.34343684E+02
  0
VERTEX
  8
0
 62
4
 10
-6.70814045E+01
 20
-1.34475200E+02
  0
VERTEX
  8
0
 62
4
 10
-6.69444444E+01
 20
-1.34601467E+02
  0
VERTEX
  8
0
 62
4
 10
-6.67850749E+01
 20
-1.34721526E+02
  0
VERTEX
  8
0
 62
4
 10
-6.66045091E+01
 20
-1.34834461E+02
  0
VERTEX
  8
0
 62
4
 10
-6.64041211E+01
 20
-1.34939414E+02
  0
VERTEX
  8
0
 62
4
 10
-6.61854359E+01
 20
-1.35035586E+02
  0
VERTEX
  8
0
 62
4
 10
-6.59501179E+01
 20
-1.35122244E+02
  0
VERTEX
  8
0
 62
4
 10
-6.56999580E+01
 20
-1.35198730E+02
  0
VERTEX
  8
0
 62
4
 10
-6.54368601E+01
 20
-1.35264460E+02
  0
VERTEX
  8
0
 62
4
 10
-6.51628265E+01
 20
-1.35318936E+02
  0
VERTEX
  8
0
 62
4
 10
-6.48799427E+01
 20
-1.35361742E+02
  0
VERTEX
  8
0
 62
4
 10
-6.45903618E+01
 20
-1.35392553E+02
  0
VERTEX
  8
0
 62
4
 10
-6.42962875E+01
 20
-1.35411134E+02
  0
VERTEX
  8
0
 62
4
 10
-6.39999580E+01
 20
-1.35417343E+02
  0
VERTEX
  8
0
 62
4
 10
-6.37036285E+01
 20
-1.35411134E+02
  0
VERTEX
  8
0
 62
4
 10
-6.34095542E+01
 20
-1.35392553E+02
  0
VERTEX
  8
0
 62
4
 10
-6.31199732E+01
 20
-1.35361742E+02
  0
VERTEX
  8
0
 62
4
 10
-6.28370895E+01
 20
-1.35318936E+02
  0
VERTEX
  8
0
 62
4
 10
-6.25630559E+01
 20
-1.35264460E+02
  0
VERTEX
  8
0
 62
4
 10
-6.22999580E+01
 20
-1.35198730E+02
  0
VERTEX
  8
0
 62
4
 10
-6.20497981E+01
 20
-1.35122244E+02
  0
VERTEX
  8
0
 62
4
 10
-6.18144801E+01
 20
-1.35035586E+02
  0
VERTEX
  8
0
 62
4
 10
-6.15957949E+01
 20
-1.34939414E+02
  0
VERTEX
  8
0
 62
4
 10
-6.13954069E+01
 20
-1.34834461E+02
  0
VERTEX
  8
0
 62
4
 10
-6.12148410E+01
 20
-1.34721526E+02
  0
VERTEX
  8
0
 62
4
 10
-6.10554716E+01
 20
-1.34601467E+02
  0
VERTEX
  8
0
 62
4
 10
-6.09185115E+01
 20
-1.34475200E+02
  0
VERTEX
  8
0
 62
4
 10
-6.08050031E+01
 20
-1.34343684E+02
  0
VERTEX
  8
0
 62
4
 10
-6.07158102E+01
 20
-1.34207920E+02
  0
VERTEX
  8
0
 62
4
 10
-6.06516116E+01
 20
-1.34068943E+02
  0
VERTEX
  8
0
 62
4
 10
-6.06128960E+01
 20
-1.33927808E+02
  0
VERTEX
  8
0
 62
4
 10
-6.05999580E+01
 20
-1.33785592E+02
  0
SEQEND
  8
0
  0
LINE
  8
0
 62
4
 10
-7.44999576E+01
 20
-1.34360085E+02
 11
-6.71822669E+01
 21
-1.34360085E+02
  0
ARC
  8
0
 62
4
 10
-5.97643630E+01
 20
-1.23224838E+02
 40
1.21769740E+01
 50
2.40462101E+02
 51
2.58262147E+02
  0
ARC
  8
0
 62
4
 10
-6.82355530E+01
 20
-1.23224838E+02
 40
1.21769740E+01
 50
2.81737853E+02
 51
2.99537899E+02
  0
POLYLINE
  8
0
 62
4
 66
1
  0
VERTEX
  8
0
 62
4
 10
-6.05999580E+01
 20
-1.31889854E+02
  0
VERTEX
  8
0
 62
4
 10
-6.06136454E+01
 20
-1.31770769E+02
  0
VERTEX
  8
0
 62
4
 10
-6.06545974E+01
 20
-1.31652644E+02
  0
VERTEX
  8
0
 62
4
 10
-6.07224843E+01
 20
-1.31536428E+02
  0
VERTEX
  8
0
 62
4
 10
-6.08167594E+01
 20
-1.31423058E+02
  0
VERTEX
  8
0
 62
4
 10
-6.09366638E+01
 20
-1.31313446E+02
  0
VERTEX
  8
0
 62
4
 10
-6.10812321E+01
 20
-1.31208475E+02
  0
VERTEX
  8
0
 62
4
 10
-6.12493002E+01
 20
-1.31108990E+02
  0
VERTEX
  8
0
 62
4
 10
-6.14395150E+01
 20
-1.31015792E+02
  0
VERTEX
  8
0
 62
4
 10
-6.16503450E+01
 20
-1.30929631E+02
  0
VERTEX
  8
0
 62
4
 10
-6.18800927E+01
 20
-1.30851202E+02
  0
VERTEX
  8
0
 62
4
 10
-6.21269083E+01
 20
-1.30781135E+02
  0
VERTEX
  8
0
 62
4
 10
-6.23888045E+01
 20
-1.30719995E+02
  0
VERTEX
  8
0
 62
4
 10
-6.26636729E+01
 20
-1.30668274E+02
  0
VERTEX
  8
0
 62
4
 10
-6.29493002E+01
 20
-1.30626389E+02
  0
VERTEX
  8
0
 62
4
 10
-6.32433868E+01
 20
-1.30594676E+02
  0
VERTEX
  8
0
 62
4
 10
-6.35435649E+01
 20
-1.30573391E+02
  0
VERTEX
  8
0
 62
4
 10
-6.38474176E+01
 20
-1.30562706E+02
  0
VERTEX
  8
0
 62
4
 10
-6.41524984E+01
 20
-1.30562706E+02
  0
VERTEX
  8
0
 62
4
 10
-6.44563511E+01
 20
-1.30573391E+02
  0
VERTEX
  8
0
 62
4
 10
-6.47565292E+01
 20
-1.30594676E+02
  0
VERTEX
  8
0
 62
4
 10
-6.50506158E+01
 20
-1.30626389E+02
  0
VERTEX
  8
0
 62
4
 10
-6.53362431E+01
 20
-1.30668274E+02
  0
VERTEX
  8
0
 62
4
 10
-6.56111114E+01
 20
-1.30719995E+02
  0
VERTEX
  8
0
 62
4
 10
-6.58730077E+01
 20
-1.30781135E+02
  0
VERTEX
  8
0
 62
4
 10
-6.61198233E+01
 20
-1.30851202E+02
  0
VERTEX
  8
0
 62
4
 10
-6.63495710E+01
 20
-1.30929631E+02
  0
VERTEX
  8
0
 62
4
 10
-6.65604010E+01
 20
-1.31015792E+02
  0
VERTEX
  8
0
 62
4
 10
-6.67506158E+01
 20
-1.31108990E+02
  0
VERTEX
  8
0
 62
4
 10
-6.69186839E+01
 20
-1.31208475E+02
  0
VERTEX
  8
0
 62
4
 10
-6.70632521E+01
 20
-1.31313446E+02
  0
VERTEX
  8
0
 62
4
 10
-6.71831566E+01
 20
-1.31423058E+02
  0
VERTEX
  8
0
 62
4
 10
-6.72774317E+01
 20
-1.31536428E+02
  0
VERTEX
  8
0
 62
4
 10
-6.73453186E+01
 20
-1.31652644E+02
  0
VERTEX
  8
0
 62
4
 10
-6.73862706E+01
 20
-1.31770769E+02
  0
VERTEX
  8
0
 62
4
 10
-6.73999580E+01
 20
-1.31889854E+02
  0
SEQEND
  8
0
  0
LINE
  8
0
 62
4
 10
-6.79999580E+01
 20
-1.31429601E+02
 11
-6.79999580E+01
 21
-1.31889854E+02
  0
LINE
  8
0
 62
4
 10
-5.99999580E+01
 20
-1.31429601E+02
 11
-5.99999580E+01
 21
-1.31889854E+02
  0
POLYLINE
  8
0
 62
4
 66
1
  0
VERTEX
  8
0
 62
4
 10
-6.05999580E+01
 20
-1.32713176E+02
  0
VERTEX
  8
0
 62
4
 10
-6.04269060E+01
 20
-1.32592442E+02
  0
VERTEX
  8
0
 62
4
 10
-6.02818630E+01
 20
-1.32466202E+02
  0
VERTEX
  8
0
 62
4
 10
-6.01659662E+01
 20
-1.32335443E+02
  0
VERTEX
  8
0
 62
4
 10
-6.00801239E+01
 20
-1.32201191E+02
  0
VERTEX
  8
0
 62
4
 10
-6.00250091E+01
 20
-1.32064499E+02
  0
VERTEX
  8
0
 62
4
 10
-6.00010539E+01
 20
-1.31926437E+02
  0
VERTEX
  8
0
 62
4
 10
-6.00084461E+01
 20
-1.31788089E+02
  0
VERTEX
  8
0
 62
4
 10
-6.00471276E+01
 20
-1.31650539E+02
  0
VERTEX
  8
0
 62
4
 10
-6.01167953E+01
 20
-1.31514865E+02
  0
VERTEX
  8
0
 62
4
 10
-6.02169030E+01
 20
-1.31382130E+02
  0
VERTEX
  8
0
 62
4
 10
-6.03466661E+01
 20
-1.31253375E+02
  0
VERTEX
  8
0
 62
4
 10
-6.05050672E+01
 20
-1.31129609E+02
  0
VERTEX
  8
0
 62
4
 10
-6.06908647E+01
 20
-1.31011804E+02
  0
VERTEX
  8
0
 62
4
 10
-6.09026022E+01
 20
-1.30900881E+02
  0
VERTEX
  8
0
 62
4
 10
-6.11386198E+01
 20
-1.30797710E+02
  0
VERTEX
  8
0
 62
4
 10
-6.13970673E+01
 20
-1.30703101E+02
  0
VERTEX
  8
0
 62
4
 10
-6.16759189E+01
 20
-1.30617795E+02
  0
VERTEX
  8
0
 62
4
 10
-6.19729885E+01
 20
-1.30542461E+02
  0
VERTEX
  8
0
 62
4
 10
-6.22859476E+01
 20
-1.30477688E+02
  0
VERTEX
  8
0
 62
4
 10
-6.26123427E+01
 20
-1.30423986E+02
  0
VERTEX
  8
0
 62
4
 10
-6.29496154E+01
 20
-1.30381775E+02
  0
VERTEX
  8
0
 62
4
 10
-6.32951216E+01
 20
-1.30351385E+02
  0
VERTEX
  8
0
 62
4
 10
-6.36461531E+01
 20
-1.30333055E+02
  0
VERTEX
  8
0
 62
4
 10
-6.39999580E+01
 20
-1.30326929E+02
  0
VERTEX
  8
0
 62
4
 10
-6.43537629E+01
 20
-1.30333055E+02
  0
VERTEX
  8
0
 62
4
 10
-6.47047944E+01
 20
-1.30351385E+02
  0
VERTEX
  8
0
 62
4
 10
-6.50503006E+01
 20
-1.30381775E+02
  0
VERTEX
  8
0
 62
4
 10
-6.53875732E+01
 20
-1.30423986E+02
  0
VERTEX
  8
0
 62
4
 10
-6.57139684E+01
 20
-1.30477688E+02
  0
VERTEX
  8
0
 62
4
 10
-6.60269274E+01
 20
-1.30542461E+02
  0
VERTEX
  8
0
 62
4
 10
-6.63239971E+01
 20
-1.30617795E+02
  0
VERTEX
  8
0
 62
4
 10
-6.66028487E+01
 20
-1.30703101E+02
  0
VERTEX
  8
0
 62
4
 10
-6.68612962E+01
 20
-1.30797710E+02
  0
VERTEX
  8
0
 62
4
 10
-6.70973138E+01
 20
-1.30900881E+02
  0
VERTEX
  8
0
 62
4
 10
-6.73090512E+01
 20
-1.31011804E+02
  0
VERTEX
  8
0
 62
4
 10
-6.74948488E+01
 20
-1.31129609E+02
  0
VERTEX
  8
0
 62
4
 10
-6.76532499E+01
 20
-1.31253375E+02
  0
VERTEX
  8
0
 62
4
 10
-6.77830130E+01
 20
-1.31382130E+02
  0
VERTEX
  8
0
 62
4
 10
-6.78831207E+01
 20
-1.31514865E+02
  0
VERTEX
  8
0
 62
4
 10
-6.79527884E+01
 20
-1.31650539E+02
  0
VERTEX
  8
0
 62
4
 10
-6.79914699E+01
 20
-1.31788089E+02
  0
VERTEX
  8
0
 62
4
 10
-6.79988621E+01
 20
-1.31926437E+02
  0
VERTEX
  8
0
 62
4
 10
-6.79749069E+01
 20
-1.32064499E+02
  0
VERTEX
  8
0
 62
4
 10
-6.79197921E+01
 20
-1.32201191E+02
  0
VERTEX
  8
0
 62
4
 10
-6.78339498E+01
 20
-1.32335443E+02
  0
VERTEX
  8
0
 62
4
 10
-6.77180530E+01
 20
-1.32466202E+02
  0
VERTEX
  8
0
 62
4
 10
-6.75730100E+01
 20
-1.32592442E+02
  0
VERTEX
  8
0
 62
4
 10
-6.73999580E+01
 20
-1.32713176E+02
  0
SEQEND
  8
0
  0
POLYLINE
  8
0
 62
4
 66
1
  0
VERTEX
  8
0
 62
4
 10
-5.99999580E+01
 20
-1.31429601E+02
  0
VERTEX
  8
0
 62
4
 10
-6.00160608E+01
 20
-1.31289502E+02
  0
VERTEX
  8
0
 62
4
 10
-6.00642396E+01
 20
-1.31150530E+02
  0
VERTEX
  8
0
 62
4
 10
-6.01441066E+01
 20
-1.31013805E+02
  0
VERTEX
  8
0
 62
4
 10
-6.02550185E+01
 20
-1.30880429E+02
  0
VERTEX
  8
0
 62
4
 10
-6.03960825E+01
 20
-1.30751473E+02
  0
VERTEX
  8
0
 62
4
 10
-6.05661628E+01
 20
-1.30627978E+02
  0
VERTEX
  8
0
 62
4
 10
-6.07638900E+01
 20
-1.30510937E+02
  0
VERTEX
  8
0
 62
4
 10
-6.09876721E+01
 20
-1.30401292E+02
  0
VERTEX
  8
0
 62
4
 10
-6.12357074E+01
 20
-1.30299927E+02
  0
VERTEX
  8
0
 62
4
 10
-6.15059988E+01
 20
-1.30207657E+02
  0
VERTEX
  8
0
 62
4
 10
-6.17963701E+01
 20
-1.30125226E+02
  0
VERTEX
  8
0
 62
4
 10
-6.21044833E+01
 20
-1.30053297E+02
  0
VERTEX
  8
0
 62
4
 10
-6.24278579E+01
 20
-1.29992449E+02
  0
VERTEX
  8
0
 62
4
 10
-6.27638900E+01
 20
-1.29943171E+02
  0
VERTEX
  8
0
 62
4
 10
-6.31098743E+01
 20
-1.29905862E+02
  0
VERTEX
  8
0
 62
4
 10
-6.34630249E+01
 20
-1.29880821E+02
  0
VERTEX
  8
0
 62
4
 10
-6.38204987E+01
 20
-1.29868250E+02
  0
VERTEX
  8
0
 62
4
 10
-6.41794173E+01
 20
-1.29868250E+02
  0
VERTEX
  8
0
 62
4
 10
-6.45368911E+01
 20
-1.29880821E+02
  0
VERTEX
  8
0
 62
4
 10
-6.48900417E+01
 20
-1.29905862E+02
  0
VERTEX
  8
0
 62
4
 10
-6.52360260E+01
 20
-1.29943171E+02
  0
VERTEX
  8
0
 62
4
 10
-6.55720581E+01
 20
-1.29992449E+02
  0
VERTEX
  8
0
 62
4
 10
-6.58954326E+01
 20
-1.30053297E+02
  0
VERTEX
  8
0
 62
4
 10
-6.62035459E+01
 20
-1.30125226E+02
  0
VERTEX
  8
0
 62
4
 10
-6.64939172E+01
 20
-1.30207657E+02
  0
VERTEX
  8
0
 62
4
 10
-6.67642086E+01
 20
-1.30299927E+02
  0
VERTEX
  8
0
 62
4
 10
-6.70122439E+01
 20
-1.30401292E+02
  0
VERTEX
  8
0
 62
4
 10
-6.72360260E+01
 20
-1.30510937E+02
  0
VERTEX
  8
0
 62
4
 10
-6.74337532E+01
 20
-1.30627978E+02
  0
VERTEX
  8
0
 62
4
 10
-6.76038335E+01
 20
-1.30751473E+02
  0
VERTEX
  8
0
 62
4
 10
-6.77448975E+01
 20
-1.30880429E+02
  0
VERTEX
  8
0
 62
4
 10
-6.78558094E+01
 20
-1.31013805E+02
  0
VERTEX
  8
0
 62
4
 10
-6.79356764E+01
 20
-1.31150530E+02
  0
VERTEX
  8
0
 62
4
 10
-6.79838552E+01
 20
-1.31289502E+02
  0
VERTEX
  8
0
 62
4
 10
-6.79999580E+01
 20
-1.31429601E+02
  0
SEQEND
  8
0
  0
POLYLINE
  8
0
 62
4
 66
1
  0
VERTEX
  8
0
 62
4
 10
-6.09999580E+01
 20
-1.06121857E+02
  0
VERTEX
  8
0
 62
4
 10
-6.10113739E+01
 20
-1.05881175E+02
  0
VERTEX
  8
0
 62
4
 10
-6.10455347E+01
 20
-1.05642325E+02
  0
VERTEX
  8
0
 62
4
 10
-6.11021805E+01
 20
-1.05407124E+02
  0
VERTEX
  8
0
 62
4
 10
-6.11808801E+01
 20
-1.05177363E+02
  0
VERTEX
  8
0
 62
4
 10
-6.12810346E+01
 20
-1.04954791E+02
  0
VERTEX
  8
0
 62
4
 10
-6.14018818E+01
 20
-1.04741100E+02
  0
VERTEX
  8
0
 62
4
 10
-6.15425019E+01
 20
-1.04537917E+02
  0
VERTEX
  8
0
 62
4
 10
-6.17018247E+01
 20
-1.04346790E+02
  0
VERTEX
  8
0
 62
4
 10
-6.18786377E+01
 20
-1.04169171E+02
  0
VERTEX
  8
0
 62
4
 10
-6.20715952E+01
 20
-1.04006414E+02
  0
VERTEX
  8
0
 62
4
 10
-6.22792287E+01
 20
-1.03859757E+02
  0
VERTEX
  8
0
 62
4
 10
-6.24999580E+01
 20
-1.03730315E+02
  0
VERTEX
  8
0
 62
4
 10
-6.27321032E+01
 20
-1.03619075E+02
  0
VERTEX
  8
0
 62
4
 10
-6.29738976E+01
 20
-1.03526882E+02
  0
VERTEX
  8
0
 62
4
 10
-6.32235009E+01
 20
-1.03454439E+02
  0
VERTEX
  8
0
 62
4
 10
-6.34790135E+01
 20
-1.03402296E+02
  0
VERTEX
  8
0
 62
4
 10
-6.37384908E+01
 20
-1.03370851E+02
  0
VERTEX
  8
0
 62
4
 10
-6.39999580E+01
 20
-1.03360342E+02
  0
VERTEX
  8
0
 62
4
 10
-6.42614252E+01
 20
-1.03370851E+02
  0
VERTEX
  8
0
 62
4
 10
-6.45209025E+01
 20
-1.03402296E+02
  0
VERTEX
  8
0
 62
4
 10
-6.47764151E+01
 20
-1.03454439E+02
  0
VERTEX
  8
0
 62
4
 10
-6.50260184E+01
 20
-1.03526882E+02
  0
VERTEX
  8
0
 62
4
 10
-6.52678128E+01
 20
-1.03619075E+02
  0
VERTEX
  8
0
 62
4
 10
-6.54999580E+01
 20
-1.03730315E+02
  0
VERTEX
  8
0
 62
4
 10
-6.57206873E+01
 20
-1.03859757E+02
  0
VERTEX
  8
0
 62
4
 10
-6.59283208E+01
 20
-1.04006414E+02
  0
VERTEX
  8
0
 62
4
 10
-6.61212783E+01
 20
-1.04169171E+02
  0
VERTEX
  8
0
 62
4
 10
-6.62980913E+01
 20
-1.04346790E+02
  0
VERTEX
  8
0
 62
4
 10
-6.64574141E+01
 20
-1.04537917E+02
  0
VERTEX
  8
0
 62
4
 10
-6.65980342E+01
 20
-1.04741100E+02
  0
VERTEX
  8
0
 62
4
 10
-6.67188814E+01
 20
-1.04954791E+02
  0
VERTEX
  8
0
 62
4
 10
-6.68190359E+01
 20
-1.05177363E+02
  0
VERTEX
  8
0
 62
4
 10
-6.68977355E+01
 20
-1.05407124E+02
  0
VERTEX
  8
0
 62
4
 10
-6.69543813E+01
 20
-1.05642325E+02
  0
VERTEX
  8
0
 62
4
 10
-6.69885421E+01
 20
-1.05881175E+02
  0
VERTEX
  8
0
 62
4
 10
-6.69999580E+01
 20
-1.06121857E+02
  0
VERTEX
  8
0
 62
4
 10
-6.69885421E+01
 20
-1.06362539E+02
  0
VERTEX
  8
0
 62
4
 10
-6.69543813E+01
 20
-1.06601389E+02
  0
VERTEX
  8
0
 62
4
 10
-6.68977355E+01
 20
-1.06836590E+02
  0
VERTEX
  8
0
 62
4
 10
-6.68190359E+01
 20
-1.07066351E+02
  0
VERTEX
  8
0
 62
4
 10
-6.67188814E+01
 20
-1.07288923E+02
  0
VERTEX
  8
0
 62
4
 10
-6.65980342E+01
 20
-1.07502614E+02
  0
VERTEX
  8
0
 62
4
 10
-6.64574141E+01
 20
-1.07705797E+02
  0
VERTEX
  8
0
 62
4
 10
-6.62980913E+01
 20
-1.07896924E+02
  0
VERTEX
  8
0
 62
4
 10
-6.61212783E+01
 20
-1.08074543E+02
  0
VERTEX
  8
0
 62
4
 10
-6.59283208E+01
 20
-1.08237300E+02
  0
VERTEX
  8
0
 62
4
 10
-6.57206873E+01
 20
-1.08383957E+02
  0
VERTEX
  8
0
 62
4
 10
-6.54999580E+01
 20
-1.08513399E+02
  0
VERTEX
  8
0
 62
4
 10
-6.52678128E+01
 20
-1.08624639E+02
  0
VERTEX
  8
0
 62
4
 10
-6.50260184E+01
 20
-1.08716832E+02
  0
VERTEX
  8
0
 62
4
 10
-6.47764151E+01
 20
-1.08789275E+02
  0
VERTEX
  8
0
 62
4
 10
-6.45209025E+01
 20
-1.08841418E+02
  0
VERTEX
  8
0
 62
4
 10
-6.42614252E+01
 20
-1.08872863E+02
  0
VERTEX
  8
0
 62
4
 10
-6.39999580E+01
 20
-1.08883372E+02
  0
VERTEX
  8
0
 62
4
 10
-6.37384908E+01
 20
-1.08872863E+02
  0
VERTEX
  8
0
 62
4
 10
-6.34790135E+01
 20
-1.08841418E+02
  0
VERTEX
  8
0
 62
4
 10
-6.32235009E+01
 20
-1.08789275E+02
  0
VERTEX
  8
0
 62
4
 10
-6.29738976E+01
 20
-1.08716832E+02
  0
VERTEX
  8
0
 62
4
 10
-6.27321032E+01
 20
-1.08624639E+02
  0
VERTEX
  8
0
 62
4
 10
-6.24999580E+01
 20
-1.08513399E+02
  0
VERTEX
  8
0
 62
4
 10
-6.22792287E+01
 20
-1.08383957E+02
  0
VERTEX
  8
0
 62
4
 10
-6.20715952E+01
 20
-1.08237300E+02
  0
VERTEX
  8
0
 62
4
 10
-6.18786377E+01
 20
-1.08074543E+02
  0
VERTEX
  8
0
 62
4
 10
-6.17018247E+01
 20
-1.07896924E+02
  0
VERTEX
  8
0
 62
4
 10
-6.15425019E+01
 20
-1.07705797E+02
  0
VERTEX
  8
0
 62
4
 10
-6.14018818E+01
 20
-1.07502614E+02
  0
VERTEX
  8
0
 62
4
 10
-6.12810346E+01
 20
-1.07288923E+02
  0
VERTEX
  8
0
 62
4
 10
-6.11808801E+01
 20
-1.07066351E+02
  0
VERTEX
  8
0
 62
4
 10
-6.11021805E+01
 20
-1.06836590E+02
  0
VERTEX
  8
0
 62
4
 10
-6.10455347E+01
 20
-1.06601389E+02
  0
VERTEX
  8
0
 62
4
 10
-6.10113739E+01
 20
-1.06362539E+02
  0
VERTEX
  8
0
 62
4
 10
-6.09999580E+01
 20
-1.06121857E+02
  0
SEQEND
  8
0
  0
LINE
  8
0
  6
CENTER
 62
6
 10
-6.84684369E+01
 20
-1.06121857E+02
 11
-5.95314792E+01
 21
-1.06121857E+02
  0
LINE
  8
0
 62
4
 10
-8.09999580E+01
 20
-1.01966245E+02
 11
-8.09999580E+01
 21
-1.14966245E+02
  0
ARC
  8
0
 62
4
 10
-8.04999585E+01
 20
-1.01966245E+02
 40
4.99999542E-01
 50
8.99999475E+01
 51
1.80000053E+02
  0
LINE
  8
0
 62
4
 10
-7.14999580E+01
 20
-1.01466245E+02
 11
-8.04999580E+01
 21
-1.01466245E+02
  0
LINE
  8
0
 62
4
 10
-9.09999580E+01
 20
-1.15918674E+02
 11
-8.59999580E+01
 21
-1.15918674E+02
  0
LINE
  8
0
 62
4
 10
-9.09999580E+01
 20
-1.12984283E+02
 11
-8.59999580E+01
 21
-1.12984283E+02
  0
LINE
  8
0
 62
4
 10
-9.09999580E+01
 20
-1.05535760E+02
 11
-8.59999580E+01
 21
-1.05535760E+02
  0
ARC
  8
0
 62
4
 10
-7.44999576E+01
 20
-1.32860084E+02
 40
1.50000046E+00
 50
1.80000018E+02
 51
2.69999983E+02
  0
LINE
  8
0
 62
4
 10
-5.64999580E+01
 20
-1.07145339E+02
 11
-5.44999580E+01
 21
-1.07145339E+02
  0
LINE
  8
0
 62
4
 10
-5.44999580E+01
 20
-1.07145339E+02
 11
-5.44999580E+01
 21
-1.26197841E+02
  0
LINE
  8
0
 62
4
 10
-7.14999580E+01
 20
-1.22793921E+02
 11
-5.64999580E+01
 21
-1.22793921E+02
  0
LINE
  8
0
 62
4
 10
-7.14999580E+01
 20
-1.13025643E+02
 11
-5.64999580E+01
 21
-1.13025643E+02
  0
ARC
  8
0
 62
4
 10
-8.04999538E+01
 20
-1.14966241E+02
 40
5.00004272E-01
 50
1.80000490E+02
 51
2.69999511E+02
  0
LINE
  8
0
 62
4
 10
-7.34999580E+01
 20
-1.24634931E+02
 11
-5.44999580E+01
 21
-1.24634931E+02
  0
LINE
  8
0
 62
4
 10
-7.59999580E+01
 20
-1.15466245E+02
 11
-7.59999580E+01
 21
-1.32860085E+02
  0
LINE
  8
0
 62
4
 10
-7.34999580E+01
 20
-1.15466245E+02
 11
-7.34999580E+01
 21
-1.26197841E+02
  0
LINE
  8
0
 62
4
 10
-9.09999580E+01
 20
-1.01017720E+02
 11
-8.59999580E+01
 21
-1.01017720E+02
  0
LINE
  8
0
 62
4
 10
-7.14999580E+01
 20
-9.92180705E+01
 11
-5.64999580E+01
 21
-9.92180705E+01
  0
LINE
  8
0
 62
4
 10
-8.44999580E+01
 20
-1.14216245E+02
 11
-8.09999580E+01
 21
-1.14216245E+02
  0
LINE
  8
0
 62
4
 10
-8.44999580E+01
 20
-1.02716245E+02
 11
-8.09999580E+01
 21
-1.02716245E+02
  0
LINE
  8
0
 62
4
 10
-8.44999580E+01
 20
-1.02216245E+02
 11
-8.44999580E+01
 21
-1.14716245E+02
  0
LINE
  8
0
 62
4
 10
-8.59999580E+01
 20
-1.14716245E+02
 11
-8.09999580E+01
 21
-1.14716245E+02
  0
LINE
  8
0
 62
4
 10
-8.59999580E+01
 20
-1.02216245E+02
 11
-8.09999580E+01
 21
-1.02216245E+02
  0
LINE
  8
0
 62
4
 10
-8.59999580E+01
 20
-1.15918674E+02
 11
-8.59999580E+01
 21
-1.01017720E+02
  0
LINE
  8
0
 62
4
 10
-9.09999580E+01
 20
-1.01017720E+02
 11
-9.09999580E+01
 21
-1.15918674E+02
  0
LINE
  8
0
 62
4
 10
-8.04999580E+01
 20
-1.15466245E+02
 11
-7.14999580E+01
 21
-1.15466245E+02
  0
LINE
  8
0
  6
CENTER
 62
6
 10
-6.39999580E+01
 20
-9.21051662E+01
 11
-6.39999580E+01
 21
-1.44500000E+02
  0
LINE
  8
0
 62
4
 10
-6.73999580E+01
 20
-1.33785592E+02
 11
-6.73999580E+01
 21
-1.31889854E+02
  0
LINE
  8
0
 62
4
 10
-6.05999580E+01
 20
-1.31889854E+02
 11
-6.05999580E+01
 21
-1.33785592E+02
  0
LINE
  8
0
  6
CENTER
 62
6
 10
-6.79999580E+01
 20
-9.03458848E+01
 11
-6.79999580E+01
 21
-1.00845885E+02
  0
LINE
  8
0
 62
4
 10
-5.64999580E+01
 20
-9.40258848E+01
 11
-7.14999580E+01
 21
-9.40258848E+01
  0
LINE
  8
0
 62
4
 10
-5.64999580E+01
 20
-9.40258848E+01
 11
-5.64999580E+01
 21
-1.22793921E+02
  0
LINE
  8
0
 62
4
 10
-7.14999580E+01
 20
-9.40258848E+01
 11
-7.14999580E+01
 21
-1.22793921E+02
  0
LINE
  8
0
  6
CENTER
 62
6
 10
-5.99999580E+01
 20
-9.03458848E+01
 11
-5.99999580E+01
 21
-1.00845885E+02
  0
ARC
  8
0
 62
4
 10
-7.44999580E+01
 20
-1.26999117E+02
 40
1.50000046E+00
 50
1.80000018E+02
 51
2.69999983E+02
  0
POLYLINE
  8
0
 62
4
 66
1
  0
VERTEX
  8
0
 62
4
 10
-4.48599580E+01
 20
-1.17062332E+02
  0
VERTEX
  8
0
 62
4
 10
-4.48719066E+01
 20
-1.16810418E+02
  0
VERTEX
  8
0
 62
4
 10
-4.49076617E+01
 20
-1.16560422E+02
  0
VERTEX
  8
0
 62
4
 10
-4.49669509E+01
 20
-1.16314245E+02
  0
VERTEX
  8
0
 62
4
 10
-4.50493232E+01
 20
-1.16073762E+02
  0
VERTEX
  8
0
 62
4
 10
-4.51541515E+01
 20
-1.15840802E+02
  0
VERTEX
  8
0
 62
4
 10
-4.52806382E+01
 20
-1.15617139E+02
  0
VERTEX
  8
0
 62
4
 10
-4.54278206E+01
 20
-1.15404475E+02
  0
VERTEX
  8
0
 62
4
 10
-4.55945784E+01
 20
-1.15204428E+02
  0
VERTEX
  8
0
 62
4
 10
-4.57796427E+01
 20
-1.15018521E+02
  0
VERTEX
  8
0
 62
4
 10
-4.59816049E+01
 20
-1.14848168E+02
  0
VERTEX
  8
0
 62
4
 10
-4.61989280E+01
 20
-1.14694667E+02
  0
VERTEX
  8
0
 62
4
 10
-4.64299580E+01
 20
-1.14559185E+02
  0
VERTEX
  8
0
 62
4
 10
-4.66729367E+01
 20
-1.14442753E+02
  0
VERTEX
  8
0
 62
4
 10
-4.69260148E+01
 20
-1.14346258E+02
  0
VERTEX
  8
0
 62
4
 10
-4.71872662E+01
 20
-1.14270434E+02
  0
VERTEX
  8
0
 62
4
 10
-4.74547027E+01
 20
-1.14215858E+02
  0
VERTEX
  8
0
 62
4
 10
-4.77262890E+01
 20
-1.14182946E+02
  0
VERTEX
  8
0
 62
4
 10
-4.79999580E+01
 20
-1.14171947E+02
  0
VERTEX
  8
0
 62
4
 10
-4.82736270E+01
 20
-1.14182946E+02
  0
VERTEX
  8
0
 62
4
 10
-4.85452133E+01
 20
-1.14215858E+02
  0
VERTEX
  8
0
 62
4
 10
-4.88126498E+01
 20
-1.14270434E+02
  0
VERTEX
  8
0
 62
4
 10
-4.90739013E+01
 20
-1.14346258E+02
  0
VERTEX
  8
0
 62
4
 10
-4.93269793E+01
 20
-1.14442753E+02
  0
VERTEX
  8
0
 62
4
 10
-4.95699580E+01
 20
-1.14559185E+02
  0
VERTEX
  8
0
 62
4
 10
-4.98009880E+01
 20
-1.14694667E+02
  0
VERTEX
  8
0
 62
4
 10
-5.00183111E+01
 20
-1.14848168E+02
  0
VERTEX
  8
0
 62
4
 10
-5.02202733E+01
 20
-1.15018521E+02
  0
VERTEX
  8
0
 62
4
 10
-5.04053376E+01
 20
-1.15204428E+02
  0
VERTEX
  8
0
 62
4
 10
-5.05720954E+01
 20
-1.15404475E+02
  0
VERTEX
  8
0
 62
4
 10
-5.07192778E+01
 20
-1.15617139E+02
  0
VERTEX
  8
0
 62
4
 10
-5.08457645E+01
 20
-1.15840802E+02
  0
VERTEX
  8
0
 62
4
 10
-5.09505928E+01
 20
-1.16073762E+02
  0
VERTEX
  8
0
 62
4
 10
-5.10329651E+01
 20
-1.16314245E+02
  0
VERTEX
  8
0
 62
4
 10
-5.10922543E+01
 20
-1.16560422E+02
  0
VERTEX
  8
0
 62
4
 10
-5.11280094E+01
 20
-1.16810418E+02
  0
VERTEX
  8
0
 62
4
 10
-5.11399580E+01
 20
-1.17062332E+02
  0
VERTEX
  8
0
 62
4
 10
-5.11280094E+01
 20
-1.17314246E+02
  0
VERTEX
  8
0
 62
4
 10
-5.10922543E+01
 20
-1.17564242E+02
  0
VERTEX
  8
0
 62
4
 10
-5.10329651E+01
 20
-1.17810419E+02
  0
VERTEX
  8
0
 62
4
 10
-5.09505928E+01
 20
-1.18050902E+02
  0
VERTEX
  8
0
 62
4
 10
-5.08457644E+01
 20
-1.18283862E+02
  0
VERTEX
  8
0
 62
4
 10
-5.07192778E+01
 20
-1.18507525E+02
  0
VERTEX
  8
0
 62
4
 10
-5.05720954E+01
 20
-1.18720189E+02
  0
VERTEX
  8
0
 62
4
 10
-5.04053375E+01
 20
-1.18920236E+02
  0
VERTEX
  8
0
 62
4
 10
-5.02202733E+01
 20
-1.19106143E+02
  0
VERTEX
  8
0
 62
4
 10
-5.00183111E+01
 20
-1.19276496E+02
  0
VERTEX
  8
0
 62
4
 10
-4.98009880E+01
 20
-1.19429997E+02
  0
VERTEX
  8
0
 62
4
 10
-4.95699580E+01
 20
-1.19565479E+02
  0
VERTEX
  8
0
 62
4
 10
-4.93269793E+01
 20
-1.19681911E+02
  0
VERTEX
  8
0
 62
4
 10
-4.90739012E+01
 20
-1.19778406E+02
  0
VERTEX
  8
0
 62
4
 10
-4.88126498E+01
 20
-1.19854230E+02
  0
VERTEX
  8
0
 62
4
 10
-4.85452133E+01
 20
-1.19908806E+02
  0
VERTEX
  8
0
 62
4
 10
-4.82736270E+01
 20
-1.19941718E+02
  0
VERTEX
  8
0
 62
4
 10
-4.79999580E+01
 20
-1.19952717E+02
  0
VERTEX
  8
0
 62
4
 10
-4.77262890E+01
 20
-1.19941718E+02
  0
VERTEX
  8
0
 62
4
 10
-4.74547027E+01
 20
-1.19908806E+02
  0
VERTEX
  8
0
 62
4
 10
-4.71872662E+01
 20
-1.19854230E+02
  0
VERTEX
  8
0
 62
4
 10
-4.69260147E+01
 20
-1.19778406E+02
  0
VERTEX
  8
0
 62
4
 10
-4.66729367E+01
 20
-1.19681911E+02
  0
VERTEX
  8
0
 62
4
 10
-4.64299580E+01
 20
-1.19565479E+02
  0
VERTEX
  8
0
 62
4
 10
-4.61989280E+01
 20
-1.19429997E+02
  0
VERTEX
  8
0
 62
4
 10
-4.59816049E+01
 20
-1.19276496E+02
  0
VERTEX
  8
0
 62
4
 10
-4.57796427E+01
 20
-1.19106143E+02
  0
VERTEX
  8
0
 62
4
 10
-4.55945784E+01
 20
-1.18920236E+02
  0
VERTEX
  8
0
 62
4
 10
-4.54278206E+01
 20
-1.18720189E+02
  0
VERTEX
  8
0
 62
4
 10
-4.52806382E+01
 20
-1.18507525E+02
  0
VERTEX
  8
0
 62
4
 10
-4.51541515E+01
 20
-1.18283862E+02
  0
VERTEX
  8
0
 62
4
 10
-4.50493232E+01
 20
-1.18050902E+02
  0
VERTEX
  8
0
 62
4
 10
-4.49669509E+01
 20
-1.17810419E+02
  0
VERTEX
  8
0
 62
4
 10
-4.49076617E+01
 20
-1.17564242E+02
  0
VERTEX
  8
0
 62
4
 10
-4.48719066E+01
 20
-1.17314246E+02
  0
VERTEX
  8
0
 62
4
 10
-4.48599580E+01
 20
-1.17062332E+02
  0
SEQEND
  8
0
  0
POLYLINE
  8
0
 62
4
 66
1
  0
VERTEX
  8
0
 62
4
 10
-4.97553789E+01
 20
-1.14665818E+02
  0
VERTEX
  8
0
 62
4
 10
-5.00166620E+01
 20
-1.14819887E+02
  0
VERTEX
  8
0
 62
4
 10
-5.02620941E+01
 20
-1.14994653E+02
  0
VERTEX
  8
0
 62
4
 10
-5.04897462E+01
 20
-1.15188742E+02
  0
VERTEX
  8
0
 62
4
 10
-5.06978289E+01
 20
-1.15400628E+02
  0
VERTEX
  8
0
 62
4
 10
-5.08847067E+01
 20
-1.15628645E+02
  0
VERTEX
  8
0
 62
4
 10
-5.10489108E+01
 20
-1.15871003E+02
  0
VERTEX
  8
0
 62
4
 10
-5.11891505E+01
 20
-1.16125795E+02
  0
VERTEX
  8
0
 62
4
 10
-5.13043237E+01
 20
-1.16391019E+02
  0
VERTEX
  8
0
 62
4
 10
-5.13935250E+01
 20
-1.16664591E+02
  0
VERTEX
  8
0
 62
4
 10
-5.14560533E+01
 20
-1.16944360E+02
  0
VERTEX
  8
0
 62
4
 10
-5.14914172E+01
 20
-1.17228127E+02
  0
VERTEX
  8
0
 62
4
 10
-5.14993388E+01
 20
-1.17513663E+02
  0
VERTEX
  8
0
 62
4
 10
-5.14797557E+01
 20
-1.17798722E+02
  0
VERTEX
  8
0
 62
4
 10
-5.14328219E+01
 20
-1.18081064E+02
  0
VERTEX
  8
0
 62
4
 10
-5.13589063E+01
 20
-1.18358470E+02
  0
VERTEX
  8
0
 62
4
 10
-5.12585898E+01
 20
-1.18628760E+02
  0
VERTEX
  8
0
 62
4
 10
-5.11326610E+01
 20
-1.18889809E+02
  0
VERTEX
  8
0
 62
4
 10
-5.09821095E+01
 20
-1.19139566E+02
  0
VERTEX
  8
0
 62
4
 10
-5.08081188E+01
 20
-1.19376066E+02
  0
VERTEX
  8
0
 62
4
 10
-5.06120563E+01
 20
-1.19597453E+02
  0
VERTEX
  8
0
 62
4
 10
-5.03954631E+01
 20
-1.19801984E+02
  0
VERTEX
  8
0
 62
4
 10
-5.01600416E+01
 20
-1.19988054E+02
  0
VERTEX
  8
0
 62
4
 10
-4.99076421E+01
 20
-1.20154198E+02
  0
VERTEX
  8
0
 62
4
 10
-4.96402485E+01
 20
-1.20299113E+02
  0
VERTEX
  8
0
 62
4
 10
-4.93599624E+01
 20
-1.20421657E+02
  0
VERTEX
  8
0
 62
4
 10
-4.90689869E+01
 20
-1.20520869E+02
  0
VERTEX
  8
0
 62
4
 10
-4.87696090E+01
 20
-1.20595969E+02
  0
VERTEX
  8
0
 62
4
 10
-4.84641817E+01
 20
-1.20646365E+02
  0
VERTEX
  8
0
 62
4
 10
-4.81551057E+01
 20
-1.20671663E+02
  0
VERTEX
  8
0
 62
4
 10
-4.78448103E+01
 20
-1.20671663E+02
  0
VERTEX
  8
0
 62
4
 10
-4.75357343E+01
 20
-1.20646365E+02
  0
VERTEX
  8
0
 62
4
 10
-4.72303070E+01
 20
-1.20595969E+02
  0
VERTEX
  8
0
 62
4
 10
-4.69309291E+01
 20
-1.20520869E+02
  0
VERTEX
  8
0
 62
4
 10
-4.66399536E+01
 20
-1.20421657E+02
  0
VERTEX
  8
0
 62
4
 10
-4.63596675E+01
 20
-1.20299113E+02
  0
VERTEX
  8
0
 62
4
 10
-4.60922739E+01
 20
-1.20154198E+02
  0
VERTEX
  8
0
 62
4
 10
-4.58398744E+01
 20
-1.19988054E+02
  0
VERTEX
  8
0
 62
4
 10
-4.56044529E+01
 20
-1.19801984E+02
  0
VERTEX
  8
0
 62
4
 10
-4.53878597E+01
 20
-1.19597453E+02
  0
VERTEX
  8
0
 62
4
 10
-4.51917972E+01
 20
-1.19376066E+02
  0
VERTEX
  8
0
 62
4
 10
-4.50178065E+01
 20
-1.19139566E+02
  0
VERTEX
  8
0
 62
4
 10
-4.48672550E+01
 20
-1.18889809E+02
  0
VERTEX
  8
0
 62
4
 10
-4.47413262E+01
 20
-1.18628760E+02
  0
VERTEX
  8
0
 62
4
 10
-4.46410097E+01
 20
-1.18358470E+02
  0
VERTEX
  8
0
 62
4
 10
-4.45670941E+01
 20
-1.18081064E+02
  0
VERTEX
  8
0
 62
4
 10
-4.45201603E+01
 20
-1.17798722E+02
  0
VERTEX
  8
0
 62
4
 10
-4.45005772E+01
 20
-1.17513663E+02
  0
VERTEX
  8
0
 62
4
 10
-4.45084988E+01
 20
-1.17228127E+02
  0
VERTEX
  8
0
 62
4
 10
-4.45438627E+01
 20
-1.16944360E+02
  0
VERTEX
  8
0
 62
4
 10
-4.46063910E+01
 20
-1.16664591E+02
  0
VERTEX
  8
0
 62
4
 10
-4.46955923E+01
 20
-1.16391019E+02
  0
VERTEX
  8
0
 62
4
 10
-4.48107655E+01
 20
-1.16125795E+02
  0
VERTEX
  8
0
 62
4
 10
-4.49510052E+01
 20
-1.15871003E+02
  0
VERTEX
  8
0
 62
4
 10
-4.51152093E+01
 20
-1.15628645E+02
  0
VERTEX
  8
0
 62
4
 10
-4.53020871E+01
 20
-1.15400628E+02
  0
VERTEX
  8
0
 62
4
 10
-4.55101698E+01
 20
-1.15188742E+02
  0
VERTEX
  8
0
 62
4
 10
-4.57378219E+01
 20
-1.14994653E+02
  0
VERTEX
  8
0
 62
4
 10
-4.59832540E+01
 20
-1.14819887E+02
  0
VERTEX
  8
0
 62
4
 10
-4.62445371E+01
 20
-1.14665818E+02
  0
SEQEND
  8
0
  0
LINE
  8
0
  6
CENTER
 62
6
 10
-4.79999580E+01
 20
-1.10895938E+02
 11
-4.79999580E+01
 21
-1.23228727E+02
  0
ARC
  8
0
 62
4
 10
-3.84999547E+01
 20
-1.32860088E+02
 40
1.49999664E+00
 50
2.69999872E+02
 51
1.28225561E-04
  0
ARC
  8
0
 62
4
 10
-3.84999614E+01
 20
-1.08685098E+02
 40
1.50000336E+00
 50
1.28225275E-04
 51
8.99998718E+01
  0
LINE
  8
0
 62
4
 10
-3.69999580E+01
 20
-1.08685095E+02
 11
-3.69999580E+01
 21
-1.32860085E+02
  0
ARC
  8
0
 62
4
 10
-3.84999551E+01
 20
-1.26999121E+02
 40
1.49999664E+00
 50
2.69999872E+02
 51
1.28225561E-04
  0
LINE
  8
0
 62
4
 10
3.62999950E+02
 20
-2.45731826E+02
 11
3.57999950E+02
 21
-2.45731826E+02
  0
LINE
  8
0
 62
4
 10
3.62999950E+02
 20
-2.44819685E+02
 11
3.57999950E+02
 21
-2.44819685E+02
  0
LINE
  8
0
 62
4
 10
3.62999950E+02
 20
-2.37906693E+02
 11
3.57999950E+02
 21
-2.37906693E+02
  0
LINE
  8
0
 62
4
 10
3.46499950E+02
 20
-2.62422316E+02
 11
3.46499950E+02
 21
-2.57381862E+02
  0
LINE
  8
0
 62
4
 10
3.10499959E+02
 20
-2.62422316E+02
 11
3.10499959E+02
 21
-2.57381862E+02
  0
POLYLINE
  8
0
 62
4
 66
1
  0
VERTEX
  8
0
 62
4
 10
3.41734950E+02
 20
-2.91735521E+02
  0
VERTEX
  8
0
 62
4
 10
3.41728348E+02
 20
-2.91596327E+02
  0
VERTEX
  8
0
 62
4
 10
3.41708591E+02
 20
-2.91458192E+02
  0
VERTEX
  8
0
 62
4
 10
3.41675831E+02
 20
-2.91322167E+02
  0
VERTEX
  8
0
 62
4
 10
3.41630317E+02
 20
-2.91189289E+02
  0
VERTEX
  8
0
 62
4
 10
3.41572394E+02
 20
-2.91060568E+02
  0
VERTEX
  8
0
 62
4
 10
3.41502504E+02
 20
-2.90936983E+02
  0
VERTEX
  8
0
 62
4
 10
3.41421179E+02
 20
-2.90819476E+02
  0
VERTEX
  8
0
 62
4
 10
3.41329037E+02
 20
-2.90708940E+02
  0
VERTEX
  8
0
 62
4
 10
3.41226780E+02
 20
-2.90606218E+02
  0
VERTEX
  8
0
 62
4
 10
3.41115187E+02
 20
-2.90512090E+02
  0
VERTEX
  8
0
 62
4
 10
3.40995105E+02
 20
-2.90427273E+02
  0
VERTEX
  8
0
 62
4
 10
3.40867450E+02
 20
-2.90352413E+02
  0
VERTEX
  8
0
 62
4
 10
3.40733193E+02
 20
-2.90288079E+02
  0
VERTEX
  8
0
 62
4
 10
3.40593355E+02
 20
-2.90234761E+02
  0
VERTEX
  8
0
 62
4
 10
3.40449001E+02
 20
-2.90192864E+02
  0
VERTEX
  8
0
 62
4
 10
3.40301230E+02
 20
-2.90162708E+02
  0
VERTEX
  8
0
 62
4
 10
3.40151165E+02
 20
-2.90144522E+02
  0
VERTEX
  8
0
 62
4
 10
3.39999950E+02
 20
-2.90138445E+02
  0
VERTEX
  8
0
 62
4
 10
3.39848735E+02
 20
-2.90144522E+02
  0
VERTEX
  8
0
 62
4
 10
3.39698670E+02
 20
-2.90162708E+02
  0
VERTEX
  8
0
 62
4
 10
3.39550899E+02
 20
-2.90192864E+02
  0
VERTEX
  8
0
 62
4
 10
3.39406545E+02
 20
-2.90234761E+02
  0
VERTEX
  8
0
 62
4
 10
3.39266707E+02
 20
-2.90288079E+02
  0
VERTEX
  8
0
 62
4
 10
3.39132450E+02
 20
-2.90352413E+02
  0
VERTEX
  8
0
 62
4
 10
3.39004795E+02
 20
-2.90427273E+02
  0
VERTEX
  8
0
 62
4
 10
3.38884713E+02
 20
-2.90512090E+02
  0
VERTEX
  8
0
 62
4
 10
3.38773120E+02
 20
-2.90606218E+02
  0
VERTEX
  8
0
 62
4
 10
3.38670863E+02
 20
-2.90708940E+02
  0
VERTEX
  8
0
 62
4
 10
3.38578721E+02
 20
-2.90819476E+02
  0
VERTEX
  8
0
 62
4
 10
3.38497396E+02
 20
-2.90936983E+02
  0
VERTEX
  8
0
 62
4
 10
3.38427506E+02
 20
-2.91060568E+02
  0
VERTEX
  8
0
 62
4
 10
3.38369583E+02
 20
-2.91189289E+02
  0
VERTEX
  8
0
 62
4
 10
3.38324069E+02
 20
-2.91322167E+02
  0
VERTEX
  8
0
 62
4
 10
3.38291309E+02
 20
-2.91458192E+02
  0
VERTEX
  8
0
 62
4
 10
3.38271552E+02
 20
-2.91596327E+02
  0
VERTEX
  8
0
 62
4
 10
3.38264950E+02
 20
-2.91735521E+02
  0
VERTEX
  8
0
 62
4
 10
3.38271552E+02
 20
-2.91874715E+02
  0
VERTEX
  8
0
 62
4
 10
3.38291309E+02
 20
-2.92012850E+02
  0
VERTEX
  8
0
 62
4
 10
3.38324069E+02
 20
-2.92148875E+02
  0
VERTEX
  8
0
 62
4
 10
3.38369583E+02
 20
-2.92281753E+02
  0
VERTEX
  8
0
 62
4
 10
3.38427506E+02
 20
-2.92410474E+02
  0
VERTEX
  8
0
 62
4
 10
3.38497396E+02
 20
-2.92534059E+02
  0
VERTEX
  8
0
 62
4
 10
3.38578721E+02
 20
-2.92651566E+02
  0
VERTEX
  8
0
 62
4
 10
3.38670863E+02
 20
-2.92762102E+02
  0
VERTEX
  8
0
 62
4
 10
3.38773120E+02
 20
-2.92864824E+02
  0
VERTEX
  8
0
 62
4
 10
3.38884713E+02
 20
-2.92958952E+02
  0
VERTEX
  8
0
 62
4
 10
3.39004795E+02
 20
-2.93043769E+02
  0
VERTEX
  8
0
 62
4
 10
3.39132450E+02
 20
-2.93118629E+02
  0
VERTEX
  8
0
 62
4
 10
3.39266707E+02
 20
-2.93182963E+02
  0
VERTEX
  8
0
 62
4
 10
3.39406545E+02
 20
-2.93236281E+02
  0
VERTEX
  8
0
 62
4
 10
3.39550899E+02
 20
-2.93278178E+02
  0
VERTEX
  8
0
 62
4
 10
3.39698670E+02
 20
-2.93308334E+02
  0
VERTEX
  8
0
 62
4
 10
3.39848735E+02
 20
-2.93326520E+02
  0
VERTEX
  8
0
 62
4
 10
3.39999950E+02
 20
-2.93332597E+02
  0
VERTEX
  8
0
 62
4
 10
3.40151165E+02
 20
-2.93326520E+02
  0
VERTEX
  8
0
 62
4
 10
3.40301230E+02
 20
-2.93308334E+02
  0
VERTEX
  8
0
 62
4
 10
3.40449001E+02
 20
-2.93278178E+02
  0
VERTEX
  8
0
 62
4
 10
3.40593355E+02
 20
-2.93236281E+02
  0
VERTEX
  8
0
 62
4
 10
3.40733193E+02
 20
-2.93182963E+02
  0
VERTEX
  8
0
 62
4
 10
3.40867450E+02
 20
-2.93118629E+02
  0
VERTEX
  8
0
 62
4
 10
3.40995105E+02
 20
-2.93043769E+02
  0
VERTEX
  8
0
 62
4
 10
3.41115187E+02
 20
-2.92958952E+02
  0
VERTEX
  8
0
 62
4
 10
3.41226780E+02
 20
-2.92864824E+02
  0
VERTEX
  8
0
 62
4
 10
3.41329037E+02
 20
-2.92762102E+02
  0
VERTEX
  8
0
 62
4
 10
3.41421179E+02
 20
-2.92651566E+02
  0
VERTEX
  8
0
 62
4
 10
3.41502504E+02
 20
-2.92534059E+02
  0
VERTEX
  8
0
 62
4
 10
3.41572394E+02
 20
-2.92410474E+02
  0
VERTEX
  8
0
 62
4
 10
3.41630317E+02
 20
-2.92281753E+02
  0
VERTEX
  8
0
 62
4
 10
3.41675831E+02
 20
-2.92148875E+02
  0
VERTEX
  8
0
 62
4
 10
3.41708591E+02
 20
-2.92012850E+02
  0
VERTEX
  8
0
 62
4
 10
3.41728348E+02
 20
-2.91874715E+02
  0
VERTEX
  8
0
 62
4
 10
3.41734950E+02
 20
-2.91735521E+02
  0
SEQEND
  8
0
  0
POLYLINE
  8
0
 62
6
 66
1
  0
VERTEX
  8
0
 62
6
 10
3.41499950E+02
 20
-2.91740123E+02
  0
VERTEX
  8
0
 62
6
 10
3.41494242E+02
 20
-2.91619782E+02
  0
VERTEX
  8
0
 62
6
 10
3.41477162E+02
 20
-2.91500357E+02
  0
VERTEX
  8
0
 62
6
 10
3.41448839E+02
 20
-2.91382757E+02
  0
VERTEX
  8
0
 62
6
 10
3.41409489E+02
 20
-2.91267876E+02
  0
VERTEX
  8
0
 62
6
 10
3.41359412E+02
 20
-2.91156590E+02
  0
VERTEX
  8
0
 62
6
 10
3.41298988E+02
 20
-2.91049744E+02
  0
VERTEX
  8
0
 62
6
 10
3.41228678E+02
 20
-2.90948153E+02
  0
VERTEX
  8
0
 62
6
 10
3.41149017E+02
 20
-2.90852589E+02
  0
VERTEX
  8
0
 62
6
 10
3.41060610E+02
 20
-2.90763780E+02
  0
VERTEX
  8
0
 62
6
 10
3.40964131E+02
 20
-2.90682402E+02
  0
VERTEX
  8
0
 62
6
 10
3.40860315E+02
 20
-2.90609073E+02
  0
VERTEX
  8
0
 62
6
 10
3.40749950E+02
 20
-2.90544352E+02
  0
VERTEX
  8
0
 62
6
 10
3.40633877E+02
 20
-2.90488732E+02
  0
VERTEX
  8
0
 62
6
 10
3.40512980E+02
 20
-2.90442636E+02
  0
VERTEX
  8
0
 62
6
 10
3.40388179E+02
 20
-2.90406414E+02
  0
VERTEX
  8
0
 62
6
 10
3.40260422E+02
 20
-2.90380343E+02
  0
VERTEX
  8
0
 62
6
 10
3.40130684E+02
 20
-2.90364620E+02
  0
VERTEX
  8
0
 62
6
 10
3.39999950E+02
 20
-2.90359366E+02
  0
VERTEX
  8
0
 62
6
 10
3.39869216E+02
 20
-2.90364620E+02
  0
VERTEX
  8
0
 62
6
 10
3.39739478E+02
 20
-2.90380343E+02
  0
VERTEX
  8
0
 62
6
 10
3.39611721E+02
 20
-2.90406414E+02
  0
VERTEX
  8
0
 62
6
 10
3.39486920E+02
 20
-2.90442636E+02
  0
VERTEX
  8
0
 62
6
 10
3.39366023E+02
 20
-2.90488732E+02
  0
VERTEX
  8
0
 62
6
 10
3.39249950E+02
 20
-2.90544352E+02
  0
VERTEX
  8
0
 62
6
 10
3.39139585E+02
 20
-2.90609073E+02
  0
VERTEX
  8
0
 62
6
 10
3.39035769E+02
 20
-2.90682402E+02
  0
VERTEX
  8
0
 62
6
 10
3.38939290E+02
 20
-2.90763780E+02
  0
VERTEX
  8
0
 62
6
 10
3.38850883E+02
 20
-2.90852589E+02
  0
VERTEX
  8
0
 62
6
 10
3.38771222E+02
 20
-2.90948153E+02
  0
VERTEX
  8
0
 62
6
 10
3.38700912E+02
 20
-2.91049744E+02
  0
VERTEX
  8
0
 62
6
 10
3.38640488E+02
 20
-2.91156590E+02
  0
VERTEX
  8
0
 62
6
 10
3.38590411E+02
 20
-2.91267876E+02
  0
VERTEX
  8
0
 62
6
 10
3.38551061E+02
 20
-2.91382757E+02
  0
VERTEX
  8
0
 62
6
 10
3.38522738E+02
 20
-2.91500357E+02
  0
VERTEX
  8
0
 62
6
 10
3.38505658E+02
 20
-2.91619782E+02
  0
VERTEX
  8
0
 62
6
 10
3.38499950E+02
 20
-2.91740123E+02
  0
VERTEX
  8
0
 62
6
 10
3.38505658E+02
 20
-2.91860464E+02
  0
VERTEX
  8
0
 62
6
 10
3.38522738E+02
 20
-2.91979889E+02
  0
VERTEX
  8
0
 62
6
 10
3.38551061E+02
 20
-2.92097489E+02
  0
VERTEX
  8
0
 62
6
 10
3.38590411E+02
 20
-2.92212370E+02
  0
VERTEX
  8
0
 62
6
 10
3.38640488E+02
 20
-2.92323656E+02
  0
VERTEX
  8
0
 62
6
 10
3.38700912E+02
 20
-2.92430502E+02
  0
VERTEX
  8
0
 62
6
 10
3.38771222E+02
 20
-2.92532093E+02
  0
VERTEX
  8
0
 62
6
 10
3.38850883E+02
 20
-2.92627657E+02
  0
VERTEX
  8
0
 62
6
 10
3.38939290E+02
 20
-2.92716466E+02
  0
VERTEX
  8
0
 62
6
 10
3.39035769E+02
 20
-2.92797844E+02
  0
VERTEX
  8
0
 62
6
 10
3.39139585E+02
 20
-2.92871173E+02
  0
VERTEX
  8
0
 62
6
 10
3.39249950E+02
 20
-2.92935894E+02
  0
VERTEX
  8
0
 62
6
 10
3.39366023E+02
 20
-2.92991514E+02
  0
VERTEX
  8
0
 62
6
 10
3.39486920E+02
 20
-2.93037610E+02
  0
VERTEX
  8
0
 62
6
 10
3.39611721E+02
 20
-2.93073832E+02
  0
VERTEX
  8
0
 62
6
 10
3.39739478E+02
 20
-2.93099903E+02
  0
VERTEX
  8
0
 62
6
 10
3.39869216E+02
 20
-2.93115626E+02
  0
VERTEX
  8
0
 62
6
 10
3.39999950E+02
 20
-2.93120880E+02
  0
VERTEX
  8
0
 62
6
 10
3.40130684E+02
 20
-2.93115626E+02
  0
VERTEX
  8
0
 62
6
 10
3.40260422E+02
 20
-2.93099903E+02
  0
VERTEX
  8
0
 62
6
 10
3.40388179E+02
 20
-2.93073832E+02
  0
VERTEX
  8
0
 62
6
 10
3.40512980E+02
 20
-2.93037610E+02
  0
VERTEX
  8
0
 62
6
 10
3.40633877E+02
 20
-2.92991514E+02
  0
VERTEX
  8
0
 62
6
 10
3.40749950E+02
 20
-2.92935894E+02
  0
VERTEX
  8
0
 62
6
 10
3.40860315E+02
 20
-2.92871173E+02
  0
VERTEX
  8
0
 62
6
 10
3.40964131E+02
 20
-2.92797844E+02
  0
VERTEX
  8
0
 62
6
 10
3.41060610E+02
 20
-2.92716466E+02
  0
VERTEX
  8
0
 62
6
 10
3.41149017E+02
 20
-2.92627657E+02
  0
VERTEX
  8
0
 62
6
 10
3.41228678E+02
 20
-2.92532093E+02
  0
VERTEX
  8
0
 62
6
 10
3.41298988E+02
 20
-2.92430502E+02
  0
VERTEX
  8
0
 62
6
 10
3.41359412E+02
 20
-2.92323656E+02
  0
VERTEX
  8
0
 62
6
 10
3.41409489E+02
 20
-2.92212370E+02
  0
VERTEX
  8
0
 62
6
 10
3.41448839E+02
 20
-2.92097489E+02
  0
VERTEX
  8
0
 62
6
 10
3.41477162E+02
 20
-2.91979889E+02
  0
VERTEX
  8
0
 62
6
 10
3.41494242E+02
 20
-2.91860464E+02
  0
VERTEX
  8
0
 62
6
 10
3.41499950E+02
 20
-2.91740123E+02
  0
SEQEND
  8
0
  0
POLYLINE
  8
0
 62
4
 66
1
  0
VERTEX
  8
0
 62
4
 10
3.41725182E+02
 20
-2.91904752E+02
  0
VERTEX
  8
0
 62
4
 10
3.41807036E+02
 20
-2.91762327E+02
  0
VERTEX
  8
0
 62
4
 10
3.41875048E+02
 20
-2.91613860E+02
  0
VERTEX
  8
0
 62
4
 10
3.41928697E+02
 20
-2.91460488E+02
  0
VERTEX
  8
0
 62
4
 10
3.41967572E+02
 20
-2.91303385E+02
  0
VERTEX
  8
0
 62
4
 10
3.41991375E+02
 20
-2.91143755E+02
  0
VERTEX
  8
0
 62
4
 10
3.41999924E+02
 20
-2.90982820E+02
  0
VERTEX
  8
0
 62
4
 10
3.41993153E+02
 20
-2.90821814E+02
  0
VERTEX
  8
0
 62
4
 10
3.41971115E+02
 20
-2.90661969E+02
  0
VERTEX
  8
0
 62
4
 10
3.41933977E+02
 20
-2.90504510E+02
  0
VERTEX
  8
0
 62
4
 10
3.41882026E+02
 20
-2.90350644E+02
  0
VERTEX
  8
0
 62
4
 10
3.41815657E+02
 20
-2.90201548E+02
  0
VERTEX
  8
0
 62
4
 10
3.41735380E+02
 20
-2.90058365E+02
  0
VERTEX
  8
0
 62
4
 10
3.41641810E+02
 20
-2.89922191E+02
  0
VERTEX
  8
0
 62
4
 10
3.41535664E+02
 20
-2.89794070E+02
  0
VERTEX
  8
0
 62
4
 10
3.41417754E+02
 20
-2.89674983E+02
  0
VERTEX
  8
0
 62
4
 10
3.41288984E+02
 20
-2.89565842E+02
  0
VERTEX
  8
0
 62
4
 10
3.41150340E+02
 20
-2.89467484E+02
  0
VERTEX
  8
0
 62
4
 10
3.41002884E+02
 20
-2.89380661E+02
  0
VERTEX
  8
0
 62
4
 10
3.40847746E+02
 20
-2.89306039E+02
  0
VERTEX
  8
0
 62
4
 10
3.40686113E+02
 20
-2.89244189E+02
  0
VERTEX
  8
0
 62
4
 10
3.40519225E+02
 20
-2.89195586E+02
  0
VERTEX
  8
0
 62
4
 10
3.40348359E+02
 20
-2.89160600E+02
  0
VERTEX
  8
0
 62
4
 10
3.40174824E+02
 20
-2.89139501E+02
  0
VERTEX
  8
0
 62
4
 10
3.39999950E+02
 20
-2.89132450E+02
  0
VERTEX
  8
0
 62
4
 10
3.39825076E+02
 20
-2.89139501E+02
  0
VERTEX
  8
0
 62
4
 10
3.39651541E+02
 20
-2.89160600E+02
  0
VERTEX
  8
0
 62
4
 10
3.39480675E+02
 20
-2.89195586E+02
  0
VERTEX
  8
0
 62
4
 10
3.39313787E+02
 20
-2.89244189E+02
  0
VERTEX
  8
0
 62
4
 10
3.39152154E+02
 20
-2.89306039E+02
  0
VERTEX
  8
0
 62
4
 10
3.38997016E+02
 20
-2.89380661E+02
  0
VERTEX
  8
0
 62
4
 10
3.38849560E+02
 20
-2.89467484E+02
  0
VERTEX
  8
0
 62
4
 10
3.38710916E+02
 20
-2.89565842E+02
  0
VERTEX
  8
0
 62
4
 10
3.38582146E+02
 20
-2.89674983E+02
  0
VERTEX
  8
0
 62
4
 10
3.38464236E+02
 20
-2.89794070E+02
  0
VERTEX
  8
0
 62
4
 10
3.38358090E+02
 20
-2.89922191E+02
  0
VERTEX
  8
0
 62
4
 10
3.38264520E+02
 20
-2.90058365E+02
  0
VERTEX
  8
0
 62
4
 10
3.38184243E+02
 20
-2.90201548E+02
  0
VERTEX
  8
0
 62
4
 10
3.38117874E+02
 20
-2.90350644E+02
  0
VERTEX
  8
0
 62
4
 10
3.38065923E+02
 20
-2.90504510E+02
  0
VERTEX
  8
0
 62
4
 10
3.38028785E+02
 20
-2.90661969E+02
  0
VERTEX
  8
0
 62
4
 10
3.38006747E+02
 20
-2.90821814E+02
  0
VERTEX
  8
0
 62
4
 10
3.37999976E+02
 20
-2.90982820E+02
  0
VERTEX
  8
0
 62
4
 10
3.38008525E+02
 20
-2.91143755E+02
  0
VERTEX
  8
0
 62
4
 10
3.38032328E+02
 20
-2.91303385E+02
  0
VERTEX
  8
0
 62
4
 10
3.38071203E+02
 20
-2.91460488E+02
  0
VERTEX
  8
0
 62
4
 10
3.38124852E+02
 20
-2.91613860E+02
  0
VERTEX
  8
0
 62
4
 10
3.38192864E+02
 20
-2.91762327E+02
  0
VERTEX
  8
0
 62
4
 10
3.38274718E+02
 20
-2.91904752E+02
  0
SEQEND
  8
0
  0
POLYLINE
  8
0
 62
4
 66
1
  0
VERTEX
  8
0
 62
4
 10
3.33734950E+02
 20
-2.91735521E+02
  0
VERTEX
  8
0
 62
4
 10
3.33728348E+02
 20
-2.91596327E+02
  0
VERTEX
  8
0
 62
4
 10
3.33708591E+02
 20
-2.91458192E+02
  0
VERTEX
  8
0
 62
4
 10
3.33675831E+02
 20
-2.91322167E+02
  0
VERTEX
  8
0
 62
4
 10
3.33630317E+02
 20
-2.91189289E+02
  0
VERTEX
  8
0
 62
4
 10
3.33572394E+02
 20
-2.91060568E+02
  0
VERTEX
  8
0
 62
4
 10
3.33502504E+02
 20
-2.90936983E+02
  0
VERTEX
  8
0
 62
4
 10
3.33421179E+02
 20
-2.90819476E+02
  0
VERTEX
  8
0
 62
4
 10
3.33329037E+02
 20
-2.90708940E+02
  0
VERTEX
  8
0
 62
4
 10
3.33226780E+02
 20
-2.90606218E+02
  0
VERTEX
  8
0
 62
4
 10
3.33115187E+02
 20
-2.90512090E+02
  0
VERTEX
  8
0
 62
4
 10
3.32995105E+02
 20
-2.90427273E+02
  0
VERTEX
  8
0
 62
4
 10
3.32867450E+02
 20
-2.90352413E+02
  0
VERTEX
  8
0
 62
4
 10
3.32733193E+02
 20
-2.90288079E+02
  0
VERTEX
  8
0
 62
4
 10
3.32593355E+02
 20
-2.90234761E+02
  0
VERTEX
  8
0
 62
4
 10
3.32449001E+02
 20
-2.90192864E+02
  0
VERTEX
  8
0
 62
4
 10
3.32301230E+02
 20
-2.90162708E+02
  0
VERTEX
  8
0
 62
4
 10
3.32151165E+02
 20
-2.90144522E+02
  0
VERTEX
  8
0
 62
4
 10
3.31999950E+02
 20
-2.90138445E+02
  0
VERTEX
  8
0
 62
4
 10
3.31848735E+02
 20
-2.90144522E+02
  0
VERTEX
  8
0
 62
4
 10
3.31698670E+02
 20
-2.90162708E+02
  0
VERTEX
  8
0
 62
4
 10
3.31550899E+02
 20
-2.90192864E+02
  0
VERTEX
  8
0
 62
4
 10
3.31406545E+02
 20
-2.90234761E+02
  0
VERTEX
  8
0
 62
4
 10
3.31266707E+02
 20
-2.90288079E+02
  0
VERTEX
  8
0
 62
4
 10
3.31132450E+02
 20
-2.90352413E+02
  0
VERTEX
  8
0
 62
4
 10
3.31004795E+02
 20
-2.90427273E+02
  0
VERTEX
  8
0
 62
4
 10
3.30884713E+02
 20
-2.90512090E+02
  0
VERTEX
  8
0
 62
4
 10
3.30773120E+02
 20
-2.90606218E+02
  0
VERTEX
  8
0
 62
4
 10
3.30670863E+02
 20
-2.90708940E+02
  0
VERTEX
  8
0
 62
4
 10
3.30578721E+02
 20
-2.90819476E+02
  0
VERTEX
  8
0
 62
4
 10
3.30497396E+02
 20
-2.90936983E+02
  0
VERTEX
  8
0
 62
4
 10
3.30427506E+02
 20
-2.91060568E+02
  0
VERTEX
  8
0
 62
4
 10
3.30369583E+02
 20
-2.91189289E+02
  0
VERTEX
  8
0
 62
4
 10
3.30324069E+02
 20
-2.91322167E+02
  0
VERTEX
  8
0
 62
4
 10
3.30291309E+02
 20
-2.91458192E+02
  0
VERTEX
  8
0
 62
4
 10
3.30271552E+02
 20
-2.91596327E+02
  0
VERTEX
  8
0
 62
4
 10
3.30264950E+02
 20
-2.91735521E+02
  0
VERTEX
  8
0
 62
4
 10
3.30271552E+02
 20
-2.91874715E+02
  0
VERTEX
  8
0
 62
4
 10
3.30291309E+02
 20
-2.92012850E+02
  0
VERTEX
  8
0
 62
4
 10
3.30324069E+02
 20
-2.92148875E+02
  0
VERTEX
  8
0
 62
4
 10
3.30369583E+02
 20
-2.92281753E+02
  0
VERTEX
  8
0
 62
4
 10
3.30427506E+02
 20
-2.92410474E+02
  0
VERTEX
  8
0
 62
4
 10
3.30497396E+02
 20
-2.92534059E+02
  0
VERTEX
  8
0
 62
4
 10
3.30578721E+02
 20
-2.92651566E+02
  0
VERTEX
  8
0
 62
4
 10
3.30670863E+02
 20
-2.92762102E+02
  0
VERTEX
  8
0
 62
4
 10
3.30773120E+02
 20
-2.92864824E+02
  0
VERTEX
  8
0
 62
4
 10
3.30884713E+02
 20
-2.92958952E+02
  0
VERTEX
  8
0
 62
4
 10
3.31004795E+02
 20
-2.93043769E+02
  0
VERTEX
  8
0
 62
4
 10
3.31132450E+02
 20
-2.93118629E+02
  0
VERTEX
  8
0
 62
4
 10
3.31266707E+02
 20
-2.93182963E+02
  0
VERTEX
  8
0
 62
4
 10
3.31406545E+02
 20
-2.93236281E+02
  0
VERTEX
  8
0
 62
4
 10
3.31550899E+02
 20
-2.93278178E+02
  0
VERTEX
  8
0
 62
4
 10
3.31698670E+02
 20
-2.93308334E+02
  0
VERTEX
  8
0
 62
4
 10
3.31848735E+02
 20
-2.93326520E+02
  0
VERTEX
  8
0
 62
4
 10
3.31999950E+02
 20
-2.93332597E+02
  0
VERTEX
  8
0
 62
4
 10
3.32151165E+02
 20
-2.93326520E+02
  0
VERTEX
  8
0
 62
4
 10
3.32301230E+02
 20
-2.93308334E+02
  0
VERTEX
  8
0
 62
4
 10
3.32449001E+02
 20
-2.93278178E+02
  0
VERTEX
  8
0
 62
4
 10
3.32593355E+02
 20
-2.93236281E+02
  0
VERTEX
  8
0
 62
4
 10
3.32733193E+02
 20
-2.93182963E+02
  0
VERTEX
  8
0
 62
4
 10
3.32867450E+02
 20
-2.93118629E+02
  0
VERTEX
  8
0
 62
4
 10
3.32995105E+02
 20
-2.93043769E+02
  0
VERTEX
  8
0
 62
4
 10
3.33115187E+02
 20
-2.92958952E+02
  0
VERTEX
  8
0
 62
4
 10
3.33226780E+02
 20
-2.92864824E+02
  0
VERTEX
  8
0
 62
4
 10
3.33329037E+02
 20
-2.92762102E+02
  0
VERTEX
  8
0
 62
4
 10
3.33421179E+02
 20
-2.92651566E+02
  0
VERTEX
  8
0
 62
4
 10
3.33502504E+02
 20
-2.92534059E+02
  0
VERTEX
  8
0
 62
4
 10
3.33572394E+02
 20
-2.92410474E+02
  0
VERTEX
  8
0
 62
4
 10
3.33630317E+02
 20
-2.92281753E+02
  0
VERTEX
  8
0
 62
4
 10
3.33675831E+02
 20
-2.92148875E+02
  0
VERTEX
  8
0
 62
4
 10
3.33708591E+02
 20
-2.92012850E+02
  0
VERTEX
  8
0
 62
4
 10
3.33728348E+02
 20
-2.91874715E+02
  0
VERTEX
  8
0
 62
4
 10
3.33734950E+02
 20
-2.91735521E+02
  0
SEQEND
  8
0
  0
POLYLINE
  8
0
 62
6
 66
1
  0
VERTEX
  8
0
 62
6
 10
3.33499950E+02
 20
-2.91740123E+02
  0
VERTEX
  8
0
 62
6
 10
3.33494242E+02
 20
-2.91619782E+02
  0
VERTEX
  8
0
 62
6
 10
3.33477162E+02
 20
-2.91500357E+02
  0
VERTEX
  8
0
 62
6
 10
3.33448839E+02
 20
-2.91382757E+02
  0
VERTEX
  8
0
 62
6
 10
3.33409489E+02
 20
-2.91267876E+02
  0
VERTEX
  8
0
 62
6
 10
3.33359412E+02
 20
-2.91156590E+02
  0
VERTEX
  8
0
 62
6
 10
3.33298988E+02
 20
-2.91049744E+02
  0
VERTEX
  8
0
 62
6
 10
3.33228678E+02
 20
-2.90948153E+02
  0
VERTEX
  8
0
 62
6
 10
3.33149017E+02
 20
-2.90852589E+02
  0
VERTEX
  8
0
 62
6
 10
3.33060610E+02
 20
-2.90763780E+02
  0
VERTEX
  8
0
 62
6
 10
3.32964131E+02
 20
-2.90682402E+02
  0
VERTEX
  8
0
 62
6
 10
3.32860315E+02
 20
-2.90609073E+02
  0
VERTEX
  8
0
 62
6
 10
3.32749950E+02
 20
-2.90544352E+02
  0
VERTEX
  8
0
 62
6
 10
3.32633877E+02
 20
-2.90488732E+02
  0
VERTEX
  8
0
 62
6
 10
3.32512980E+02
 20
-2.90442636E+02
  0
VERTEX
  8
0
 62
6
 10
3.32388179E+02
 20
-2.90406414E+02
  0
VERTEX
  8
0
 62
6
 10
3.32260422E+02
 20
-2.90380343E+02
  0
VERTEX
  8
0
 62
6
 10
3.32130684E+02
 20
-2.90364620E+02
  0
VERTEX
  8
0
 62
6
 10
3.31999950E+02
 20
-2.90359366E+02
  0
VERTEX
  8
0
 62
6
 10
3.31869216E+02
 20
-2.90364620E+02
  0
VERTEX
  8
0
 62
6
 10
3.31739478E+02
 20
-2.90380343E+02
  0
VERTEX
  8
0
 62
6
 10
3.31611721E+02
 20
-2.90406414E+02
  0
VERTEX
  8
0
 62
6
 10
3.31486920E+02
 20
-2.90442636E+02
  0
VERTEX
  8
0
 62
6
 10
3.31366023E+02
 20
-2.90488732E+02
  0
VERTEX
  8
0
 62
6
 10
3.31249950E+02
 20
-2.90544352E+02
  0
VERTEX
  8
0
 62
6
 10
3.31139585E+02
 20
-2.90609073E+02
  0
VERTEX
  8
0
 62
6
 10
3.31035769E+02
 20
-2.90682402E+02
  0
VERTEX
  8
0
 62
6
 10
3.30939290E+02
 20
-2.90763780E+02
  0
VERTEX
  8
0
 62
6
 10
3.30850883E+02
 20
-2.90852589E+02
  0
VERTEX
  8
0
 62
6
 10
3.30771222E+02
 20
-2.90948153E+02
  0
VERTEX
  8
0
 62
6
 10
3.30700912E+02
 20
-2.91049744E+02
  0
VERTEX
  8
0
 62
6
 10
3.30640488E+02
 20
-2.91156590E+02
  0
VERTEX
  8
0
 62
6
 10
3.30590411E+02
 20
-2.91267876E+02
  0
VERTEX
  8
0
 62
6
 10
3.30551061E+02
 20
-2.91382757E+02
  0
VERTEX
  8
0
 62
6
 10
3.30522738E+02
 20
-2.91500357E+02
  0
VERTEX
  8
0
 62
6
 10
3.30505658E+02
 20
-2.91619782E+02
  0
VERTEX
  8
0
 62
6
 10
3.30499950E+02
 20
-2.91740123E+02
  0
VERTEX
  8
0
 62
6
 10
3.30505658E+02
 20
-2.91860464E+02
  0
VERTEX
  8
0
 62
6
 10
3.30522738E+02
 20
-2.91979889E+02
  0
VERTEX
  8
0
 62
6
 10
3.30551061E+02
 20
-2.92097489E+02
  0
VERTEX
  8
0
 62
6
 10
3.30590411E+02
 20
-2.92212370E+02
  0
VERTEX
  8
0
 62
6
 10
3.30640488E+02
 20
-2.92323656E+02
  0
VERTEX
  8
0
 62
6
 10
3.30700912E+02
 20
-2.92430502E+02
  0
VERTEX
  8
0
 62
6
 10
3.30771222E+02
 20
-2.92532093E+02
  0
VERTEX
  8
0
 62
6
 10
3.30850883E+02
 20
-2.92627657E+02
  0
VERTEX
  8
0
 62
6
 10
3.30939290E+02
 20
-2.92716466E+02
  0
VERTEX
  8
0
 62
6
 10
3.31035769E+02
 20
-2.92797844E+02
  0
VERTEX
  8
0
 62
6
 10
3.31139585E+02
 20
-2.92871173E+02
  0
VERTEX
  8
0
 62
6
 10
3.31249950E+02
 20
-2.92935894E+02
  0
VERTEX
  8
0
 62
6
 10
3.31366023E+02
 20
-2.92991514E+02
  0
VERTEX
  8
0
 62
6
 10
3.31486920E+02
 20
-2.93037610E+02
  0
VERTEX
  8
0
 62
6
 10
3.31611721E+02
 20
-2.93073832E+02
  0
VERTEX
  8
0
 62
6
 10
3.31739478E+02
 20
-2.93099903E+02
  0
VERTEX
  8
0
 62
6
 10
3.31869216E+02
 20
-2.93115626E+02
  0
VERTEX
  8
0
 62
6
 10
3.31999950E+02
 20
-2.93120880E+02
  0
VERTEX
  8
0
 62
6
 10
3.32130684E+02
 20
-2.93115626E+02
  0
VERTEX
  8
0
 62
6
 10
3.32260422E+02
 20
-2.93099903E+02
  0
VERTEX
  8
0
 62
6
 10
3.32388179E+02
 20
-2.93073832E+02
  0
VERTEX
  8
0
 62
6
 10
3.32512980E+02
 20
-2.93037610E+02
  0
VERTEX
  8
0
 62
6
 10
3.32633877E+02
 20
-2.92991514E+02
  0
VERTEX
  8
0
 62
6
 10
3.32749950E+02
 20
-2.92935894E+02
  0
VERTEX
  8
0
 62
6
 10
3.32860315E+02
 20
-2.92871173E+02
  0
VERTEX
  8
0
 62
6
 10
3.32964131E+02
 20
-2.92797844E+02
  0
VERTEX
  8
0
 62
6
 10
3.33060610E+02
 20
-2.92716466E+02
  0
VERTEX
  8
0
 62
6
 10
3.33149017E+02
 20
-2.92627657E+02
  0
VERTEX
  8
0
 62
6
 10
3.33228678E+02
 20
-2.92532093E+02
  0
VERTEX
  8
0
 62
6
 10
3.33298988E+02
 20
-2.92430502E+02
  0
VERTEX
  8
0
 62
6
 10
3.33359412E+02
 20
-2.92323656E+02
  0
VERTEX
  8
0
 62
6
 10
3.33409489E+02
 20
-2.92212370E+02
  0
VERTEX
  8
0
 62
6
 10
3.33448839E+02
 20
-2.92097489E+02
  0
VERTEX
  8
0
 62
6
 10
3.33477162E+02
 20
-2.91979889E+02
  0
VERTEX
  8
0
 62
6
 10
3.33494242E+02
 20
-2.91860464E+02
  0
VERTEX
  8
0
 62
6
 10
3.33499950E+02
 20
-2.91740123E+02
  0
SEQEND
  8
0
  0
POLYLINE
  8
0
 62
4
 66
1
  0
VERTEX
  8
0
 62
4
 10
3.33725182E+02
 20
-2.91904752E+02
  0
VERTEX
  8
0
 62
4
 10
3.33807036E+02
 20
-2.91762327E+02
  0
VERTEX
  8
0
 62
4
 10
3.33875048E+02
 20
-2.91613860E+02
  0
VERTEX
  8
0
 62
4
 10
3.33928697E+02
 20
-2.91460488E+02
  0
VERTEX
  8
0
 62
4
 10
3.33967572E+02
 20
-2.91303385E+02
  0
VERTEX
  8
0
 62
4
 10
3.33991375E+02
 20
-2.91143755E+02
  0
VERTEX
  8
0
 62
4
 10
3.33999924E+02
 20
-2.90982820E+02
  0
VERTEX
  8
0
 62
4
 10
3.33993153E+02
 20
-2.90821814E+02
  0
VERTEX
  8
0
 62
4
 10
3.33971115E+02
 20
-2.90661969E+02
  0
VERTEX
  8
0
 62
4
 10
3.33933977E+02
 20
-2.90504510E+02
  0
VERTEX
  8
0
 62
4
 10
3.33882026E+02
 20
-2.90350644E+02
  0
VERTEX
  8
0
 62
4
 10
3.33815657E+02
 20
-2.90201548E+02
  0
VERTEX
  8
0
 62
4
 10
3.33735380E+02
 20
-2.90058365E+02
  0
VERTEX
  8
0
 62
4
 10
3.33641810E+02
 20
-2.89922191E+02
  0
VERTEX
  8
0
 62
4
 10
3.33535664E+02
 20
-2.89794070E+02
  0
VERTEX
  8
0
 62
4
 10
3.33417754E+02
 20
-2.89674983E+02
  0
VERTEX
  8
0
 62
4
 10
3.33288984E+02
 20
-2.89565842E+02
  0
VERTEX
  8
0
 62
4
 10
3.33150340E+02
 20
-2.89467484E+02
  0
VERTEX
  8
0
 62
4
 10
3.33002884E+02
 20
-2.89380661E+02
  0
VERTEX
  8
0
 62
4
 10
3.32847746E+02
 20
-2.89306039E+02
  0
VERTEX
  8
0
 62
4
 10
3.32686113E+02
 20
-2.89244189E+02
  0
VERTEX
  8
0
 62
4
 10
3.32519225E+02
 20
-2.89195586E+02
  0
VERTEX
  8
0
 62
4
 10
3.32348359E+02
 20
-2.89160600E+02
  0
VERTEX
  8
0
 62
4
 10
3.32174824E+02
 20
-2.89139501E+02
  0
VERTEX
  8
0
 62
4
 10
3.31999950E+02
 20
-2.89132450E+02
  0
VERTEX
  8
0
 62
4
 10
3.31825076E+02
 20
-2.89139501E+02
  0
VERTEX
  8
0
 62
4
 10
3.31651541E+02
 20
-2.89160600E+02
  0
VERTEX
  8
0
 62
4
 10
3.31480675E+02
 20
-2.89195586E+02
  0
VERTEX
  8
0
 62
4
 10
3.31313787E+02
 20
-2.89244189E+02
  0
VERTEX
  8
0
 62
4
 10
3.31152154E+02
 20
-2.89306039E+02
  0
VERTEX
  8
0
 62
4
 10
3.30997016E+02
 20
-2.89380661E+02
  0
VERTEX
  8
0
 62
4
 10
3.30849560E+02
 20
-2.89467484E+02
  0
VERTEX
  8
0
 62
4
 10
3.30710916E+02
 20
-2.89565842E+02
  0
VERTEX
  8
0
 62
4
 10
3.30582146E+02
 20
-2.89674983E+02
  0
VERTEX
  8
0
 62
4
 10
3.30464236E+02
 20
-2.89794070E+02
  0
VERTEX
  8
0
 62
4
 10
3.30358090E+02
 20
-2.89922191E+02
  0
VERTEX
  8
0
 62
4
 10
3.30264520E+02
 20
-2.90058365E+02
  0
VERTEX
  8
0
 62
4
 10
3.30184243E+02
 20
-2.90201548E+02
  0
VERTEX
  8
0
 62
4
 10
3.30117874E+02
 20
-2.90350644E+02
  0
VERTEX
  8
0
 62
4
 10
3.30065923E+02
 20
-2.90504510E+02
  0
VERTEX
  8
0
 62
4
 10
3.30028785E+02
 20
-2.90661969E+02
  0
VERTEX
  8
0
 62
4
 10
3.30006747E+02
 20
-2.90821814E+02
  0
VERTEX
  8
0
 62
4
 10
3.29999976E+02
 20
-2.90982820E+02
  0
VERTEX
  8
0
 62
4
 10
3.30008525E+02
 20
-2.91143755E+02
  0
VERTEX
  8
0
 62
4
 10
3.30032328E+02
 20
-2.91303385E+02
  0
VERTEX
  8
0
 62
4
 10
3.30071203E+02
 20
-2.91460488E+02
  0
VERTEX
  8
0
 62
4
 10
3.30124852E+02
 20
-2.91613860E+02
  0
VERTEX
  8
0
 62
4
 10
3.30192864E+02
 20
-2.91762327E+02
  0
VERTEX
  8
0
 62
4
 10
3.30274718E+02
 20
-2.91904752E+02
  0
SEQEND
  8
0
  0
LINE
  8
0
 62
4
 10
3.28499950E+02
 20
-2.67440734E+02
 11
3.43499950E+02
 21
-2.67440734E+02
  0
LINE
  8
0
 62
4
 10
3.46191228E+02
 20
-2.79999985E+02
 11
3.47999950E+02
 21
-2.78486792E+02
  0
LINE
  8
0
 62
4
 10
3.08999950E+02
 20
-2.78486792E+02
 11
3.10808673E+02
 21
-2.79999985E+02
  0
LINE
  8
0
 62
4
 10
3.47999950E+02
 20
-2.77106035E+02
 11
3.43499950E+02
 21
-2.77106035E+02
  0
LINE
  8
0
 62
4
 10
3.28499950E+02
 20
-2.77106035E+02
 11
3.08999950E+02
 21
-2.77106035E+02
  0
LINE
  8
0
 62
4
 10
3.28499950E+02
 20
-2.56079767E+02
 11
3.10499950E+02
 21
-2.56079767E+02
  0
ARC
  8
0
 62
4
 10
3.10499959E+02
 20
-2.57579776E+02
 40
1.50000856E+00
 50
9.00003273E+01
 51
1.79999673E+02
  0
LINE
  8
0
 62
4
 10
3.46499950E+02
 20
-2.56079767E+02
 11
3.43499950E+02
 21
-2.56079767E+02
  0
ARC
  8
0
 62
4
 10
3.46499942E+02
 20
-2.57579776E+02
 40
1.50000856E+00
 50
3.27119593E-04
 51
8.99996730E+01
  0
LINE
  8
0
 62
4
 10
3.43499950E+02
 20
-2.30365322E+02
 11
3.28499950E+02
 21
-2.30365322E+02
  0
ARC
  8
0
 62
4
 10
3.10499959E+02
 20
-2.65003657E+02
 40
1.50000856E+00
 50
9.00003273E+01
 51
1.79999673E+02
  0
ARC
  8
0
 62
4
 10
3.43999964E+02
 20
-2.46318870E+02
 40
5.00013809E-01
 50
9.00015821E+01
 51
1.79998418E+02
  0
ARC
  8
0
 62
4
 10
3.52499939E+02
 20
-2.32318868E+02
 40
5.00011902E-01
 50
1.36383594E-03
 51
8.99986360E+01
  0
ARC
  8
0
 62
4
 10
3.52499962E+02
 20
-2.45318868E+02
 40
4.99988098E-01
 50
2.69998636E+02
 51
1.36386840E-03
  0
ARC
  8
0
 62
4
 10
3.46499942E+02
 20
-2.65003657E+02
 40
1.50000856E+00
 50
3.27119593E-04
 51
8.99996730E+01
  0
LINE
  8
0
 62
4
 10
3.08999950E+02
 20
-2.57579767E+02
 11
3.08999950E+02
 21
-2.78503648E+02
  0
LINE
  8
0
 62
4
 10
3.43499950E+02
 20
-2.58318405E+02
 11
3.28499950E+02
 21
-2.58318405E+02
  0
LINE
  8
0
 62
4
 10
3.26499950E+02
 20
-2.60020372E+02
 11
3.26499950E+02
 21
-2.63503648E+02
  0
LINE
  8
0
 62
4
 10
3.43499950E+02
 20
-2.30365322E+02
 11
3.43499950E+02
 21
-2.60020372E+02
  0
LINE
  8
0
 62
4
 10
3.28499950E+02
 20
-2.30365322E+02
 11
3.28499950E+02
 21
-2.60020372E+02
  0
LINE
  8
0
 62
4
 10
3.45499950E+02
 20
-2.60020372E+02
 11
3.45499950E+02
 21
-2.63503648E+02
  0
LINE
  8
0
 62
4
 10
3.47999950E+02
 20
-2.78486792E+02
 11
3.43499950E+02
 21
-2.78486792E+02
  0
LINE
  8
0
 62
4
 10
3.47999950E+02
 20
-2.57579767E+02
 11
3.47999950E+02
 21
-2.78503648E+02
  0
LINE
  8
0
 62
4
 10
3.45499950E+02
 20
-2.60020372E+02
 11
3.26499950E+02
 21
-2.60020372E+02
  0
LINE
  8
0
 62
4
 10
3.43499950E+02
 20
-2.36226289E+02
 11
3.28499950E+02
 21
-2.36226289E+02
  0
LINE
  8
0
 62
4
 10
3.28499950E+02
 20
-2.78486792E+02
 11
3.08999950E+02
 21
-2.78486792E+02
  0
LINE
  8
0
 62
4
 10
3.52499950E+02
 20
-2.45818856E+02
 11
3.43999950E+02
 21
-2.45818856E+02
  0
LINE
  8
0
 62
4
 10
3.56499950E+02
 20
-2.44568856E+02
 11
3.52999950E+02
 21
-2.44568856E+02
  0
LINE
  8
0
 62
4
 10
3.56499950E+02
 20
-2.32568856E+02
 11
3.56499950E+02
 21
-2.45068856E+02
  0
LINE
  8
0
 62
4
 10
3.57999950E+02
 20
-2.45068856E+02
 11
3.52999950E+02
 21
-2.45068856E+02
  0
LINE
  8
0
 62
4
 10
3.57999950E+02
 20
-2.32568856E+02
 11
3.52999950E+02
 21
-2.32568856E+02
  0
LINE
  8
0
 62
4
 10
3.57999950E+02
 20
-2.31915048E+02
 11
3.57999950E+02
 21
-2.45731826E+02
  0
LINE
  8
0
 62
4
 10
3.62999950E+02
 20
-2.31915048E+02
 11
3.62999950E+02
 21
-2.45731826E+02
  0
LINE
  8
0
 62
4
 10
3.52999950E+02
 20
-2.32318856E+02
 11
3.52999950E+02
 21
-2.45318856E+02
  0
LINE
  8
0
 62
4
 10
3.43499950E+02
 20
-2.31818856E+02
 11
3.52499950E+02
 21
-2.31818856E+02
  0
LINE
  8
0
 62
4
 10
3.62999950E+02
 20
-2.31915048E+02
 11
3.57999950E+02
 21
-2.31915048E+02
  0
LINE
  8
0
 62
4
 10
3.46499950E+02
 20
-2.63503648E+02
 11
3.10499950E+02
 21
-2.63503648E+02
  0
LINE
  8
0
 62
4
 10
3.56499950E+02
 20
-2.33068856E+02
 11
3.52999950E+02
 21
-2.33068856E+02
  0
LINE
  8
0
  6
CENTER
 62
6
 10
3.26999950E+02
 20
-2.91740123E+02
 11
3.44999950E+02
 21
-2.91740123E+02
  0
LINE
  8
0
  6
CENTER
 62
6
 10
3.31999950E+02
 20
-2.86740123E+02
 11
3.31999950E+02
 21
-2.96740123E+02
  0
LINE
  8
0
  6
CENTER
 62
6
 10
3.39999950E+02
 20
-2.86740123E+02
 11
3.39999950E+02
 21
-2.96740123E+02
  0
LINE
  8
0
 62
4
 10
3.28499950E+02
 20
-2.67440734E+02
 11
3.28499950E+02
 21
-2.95109131E+02
  0
LINE
  8
0
 62
4
 10
3.43499950E+02
 20
-2.67440734E+02
 11
3.43499950E+02
 21
-2.95109131E+02
  0
LINE
  8
0
 62
4
 10
3.29499950E+02
 20
-2.84137925E+02
 11
3.42499950E+02
 21
-2.84137925E+02
  0
LINE
  8
0
 62
4
 10
3.28499950E+02
 20
-2.95109131E+02
 11
3.43499950E+02
 21
-2.95109131E+02
  0
LINE
  8
0
 62
4
 10
3.28499950E+02
 20
-2.70173498E+02
 11
3.43499950E+02
 21
-2.70173498E+02
  0
LINE
  8
0
  6
CENTER
 62
6
 10
3.19999950E+02
 20
-2.55236745E+02
 11
3.19999950E+02
 21
-2.59069941E+02
  0
POLYLINE
  8
0
 62
4
 66
1
  0
VERTEX
  8
0
 62
4
 10
3.23139950E+02
 20
-2.59069941E+02
  0
VERTEX
  8
0
 62
4
 10
3.23128001E+02
 20
-2.58963010E+02
  0
VERTEX
  8
0
 62
4
 10
3.23092246E+02
 20
-2.58856893E+02
  0
VERTEX
  8
0
 62
4
 10
3.23032957E+02
 20
-2.58752397E+02
  0
VERTEX
  8
0
 62
4
 10
3.22950585E+02
 20
-2.58650318E+02
  0
VERTEX
  8
0
 62
4
 10
3.22845756E+02
 20
-2.58551432E+02
  0
VERTEX
  8
0
 62
4
 10
3.22719270E+02
 20
-2.58456493E+02
  0
VERTEX
  8
0
 62
4
 10
3.22572087E+02
 20
-2.58366223E+02
  0
VERTEX
  8
0
 62
4
 10
3.22405330E+02
 20
-2.58281308E+02
  0
VERTEX
  8
0
 62
4
 10
3.22220265E+02
 20
-2.58202395E+02
  0
VERTEX
  8
0
 62
4
 10
3.22018303E+02
 20
-2.58130084E+02
  0
VERTEX
  8
0
 62
4
 10
3.21800980E+02
 20
-2.58064927E+02
  0
VERTEX
  8
0
 62
4
 10
3.21569950E+02
 20
-2.58007418E+02
  0
VERTEX
  8
0
 62
4
 10
3.21326971E+02
 20
-2.57957996E+02
  0
VERTEX
  8
0
 62
4
 10
3.21073893E+02
 20
-2.57917036E+02
  0
VERTEX
  8
0
 62
4
 10
3.20812642E+02
 20
-2.57884851E+02
  0
VERTEX
  8
0
 62
4
 10
3.20545205E+02
 20
-2.57861685E+02
  0
VERTEX
  8
0
 62
4
 10
3.20273619E+02
 20
-2.57847714E+02
  0
VERTEX
  8
0
 62
4
 10
3.19999950E+02
 20
-2.57843045E+02
  0
VERTEX
  8
0
 62
4
 10
3.19726281E+02
 20
-2.57847714E+02
  0
VERTEX
  8
0
 62
4
 10
3.19454695E+02
 20
-2.57861685E+02
  0
VERTEX
  8
0
 62
4
 10
3.19187258E+02
 20
-2.57884851E+02
  0
VERTEX
  8
0
 62
4
 10
3.18926007E+02
 20
-2.57917036E+02
  0
VERTEX
  8
0
 62
4
 10
3.18672929E+02
 20
-2.57957996E+02
  0
VERTEX
  8
0
 62
4
 10
3.18429950E+02
 20
-2.58007418E+02
  0
VERTEX
  8
0
 62
4
 10
3.18198920E+02
 20
-2.58064927E+02
  0
VERTEX
  8
0
 62
4
 10
3.17981597E+02
 20
-2.58130084E+02
  0
VERTEX
  8
0
 62
4
 10
3.17779635E+02
 20
-2.58202395E+02
  0
VERTEX
  8
0
 62
4
 10
3.17594570E+02
 20
-2.58281308E+02
  0
VERTEX
  8
0
 62
4
 10
3.17427813E+02
 20
-2.58366223E+02
  0
VERTEX
  8
0
 62
4
 10
3.17280630E+02
 20
-2.58456493E+02
  0
VERTEX
  8
0
 62
4
 10
3.17154144E+02
 20
-2.58551432E+02
  0
VERTEX
  8
0
 62
4
 10
3.17049315E+02
 20
-2.58650318E+02
  0
VERTEX
  8
0
 62
4
 10
3.16966943E+02
 20
-2.58752397E+02
  0
VERTEX
  8
0
 62
4
 10
3.16907654E+02
 20
-2.58856893E+02
  0
VERTEX
  8
0
 62
4
 10
3.16871899E+02
 20
-2.58963010E+02
  0
VERTEX
  8
0
 62
4
 10
3.16859950E+02
 20
-2.59069941E+02
  0
VERTEX
  8
0
 62
4
 10
3.16871899E+02
 20
-2.59176872E+02
  0
VERTEX
  8
0
 62
4
 10
3.16907654E+02
 20
-2.59282989E+02
  0
VERTEX
  8
0
 62
4
 10
3.16966943E+02
 20
-2.59387485E+02
  0
VERTEX
  8
0
 62
4
 10
3.17049315E+02
 20
-2.59489564E+02
  0
VERTEX
  8
0
 62
4
 10
3.17154144E+02
 20
-2.59588450E+02
  0
VERTEX
  8
0
 62
4
 10
3.17280630E+02
 20
-2.59683389E+02
  0
VERTEX
  8
0
 62
4
 10
3.17427813E+02
 20
-2.59773659E+02
  0
VERTEX
  8
0
 62
4
 10
3.17594570E+02
 20
-2.59858574E+02
  0
VERTEX
  8
0
 62
4
 10
3.17779635E+02
 20
-2.59937487E+02
  0
VERTEX
  8
0
 62
4
 10
3.17981597E+02
 20
-2.60009798E+02
  0
VERTEX
  8
0
 62
4
 10
3.18198920E+02
 20
-2.60074955E+02
  0
VERTEX
  8
0
 62
4
 10
3.18429950E+02
 20
-2.60132464E+02
  0
VERTEX
  8
0
 62
4
 10
3.18672929E+02
 20
-2.60181886E+02
  0
VERTEX
  8
0
 62
4
 10
3.18926007E+02
 20
-2.60222846E+02
  0
VERTEX
  8
0
 62
4
 10
3.19187258E+02
 20
-2.60255031E+02
  0
VERTEX
  8
0
 62
4
 10
3.19454695E+02
 20
-2.60278197E+02
  0
VERTEX
  8
0
 62
4
 10
3.19726281E+02
 20
-2.60292168E+02
  0
VERTEX
  8
0
 62
4
 10
3.19999950E+02
 20
-2.60296837E+02
  0
VERTEX
  8
0
 62
4
 10
3.20273619E+02
 20
-2.60292168E+02
  0
VERTEX
  8
0
 62
4
 10
3.20545205E+02
 20
-2.60278197E+02
  0
VERTEX
  8
0
 62
4
 10
3.20812642E+02
 20
-2.60255031E+02
  0
VERTEX
  8
0
 62
4
 10
3.21073893E+02
 20
-2.60222846E+02
  0
VERTEX
  8
0
 62
4
 10
3.21326971E+02
 20
-2.60181886E+02
  0
VERTEX
  8
0
 62
4
 10
3.21569950E+02
 20
-2.60132464E+02
  0
VERTEX
  8
0
 62
4
 10
3.21800980E+02
 20
-2.60074955E+02
  0
VERTEX
  8
0
 62
4
 10
3.22018303E+02
 20
-2.60009798E+02
  0
VERTEX
  8
0
 62
4
 10
3.22220265E+02
 20
-2.59937487E+02
  0
VERTEX
  8
0
 62
4
 10
3.22405330E+02
 20
-2.59858574E+02
  0
VERTEX
  8
0
 62
4
 10
3.22572087E+02
 20
-2.59773659E+02
  0
VERTEX
  8
0
 62
4
 10
3.22719270E+02
 20
-2.59683389E+02
  0
VERTEX
  8
0
 62
4
 10
3.22845756E+02
 20
-2.59588450E+02
  0
VERTEX
  8
0
 62
4
 10
3.22950585E+02
 20
-2.59489564E+02
  0
VERTEX
  8
0
 62
4
 10
3.23032957E+02
 20
-2.59387485E+02
  0
VERTEX
  8
0
 62
4
 10
3.23092246E+02
 20
-2.59282989E+02
  0
VERTEX
  8
0
 62
4
 10
3.23128001E+02
 20
-2.59176872E+02
  0
VERTEX
  8
0
 62
4
 10
3.23139950E+02
 20
-2.59069941E+02
  0
SEQEND
  8
0
  0
POLYLINE
  8
0
 62
4
 66
1
  0
VERTEX
  8
0
 62
4
 10
3.16552650E+02
 20
-2.59754023E+02
  0
VERTEX
  8
0
 62
4
 10
3.16512376E+02
 20
-2.59875313E+02
  0
VERTEX
  8
0
 62
4
 10
3.16499997E+02
 20
-2.59997524E+02
  0
VERTEX
  8
0
 62
4
 10
3.16515612E+02
 20
-2.60119678E+02
  0
VERTEX
  8
0
 62
4
 10
3.16559097E+02
 20
-2.60240799E+02
  0
VERTEX
  8
0
 62
4
 10
3.16630104E+02
 20
-2.60359917E+02
  0
VERTEX
  8
0
 62
4
 10
3.16728064E+02
 20
-2.60476080E+02
  0
VERTEX
  8
0
 62
4
 10
3.16852194E+02
 20
-2.60588358E+02
  0
VERTEX
  8
0
 62
4
 10
3.17001502E+02
 20
-2.60695855E+02
  0
VERTEX
  8
0
 62
4
 10
3.17174792E+02
 20
-2.60797709E+02
  0
VERTEX
  8
0
 62
4
 10
3.17370680E+02
 20
-2.60893106E+02
  0
VERTEX
  8
0
 62
4
 10
3.17587598E+02
 20
-2.60981283E+02
  0
VERTEX
  8
0
 62
4
 10
3.17823810E+02
 20
-2.61061535E+02
  0
VERTEX
  8
0
 62
4
 10
3.18077429E+02
 20
-2.61133220E+02
  0
VERTEX
  8
0
 62
4
 10
3.18346425E+02
 20
-2.61195765E+02
  0
VERTEX
  8
0
 62
4
 10
3.18628647E+02
 20
-2.61248669E+02
  0
VERTEX
  8
0
 62
4
 10
3.18921837E+02
 20
-2.61291509E+02
  0
VERTEX
  8
0
 62
4
 10
3.19223650E+02
 20
-2.61323942E+02
  0
VERTEX
  8
0
 62
4
 10
3.19531672E+02
 20
-2.61345710E+02
  0
VERTEX
  8
0
 62
4
 10
3.19843440E+02
 20
-2.61356637E+02
  0
VERTEX
  8
0
 62
4
 10
3.20156460E+02
 20
-2.61356637E+02
  0
VERTEX
  8
0
 62
4
 10
3.20468228E+02
 20
-2.61345710E+02
  0
VERTEX
  8
0
 62
4
 10
3.20776250E+02
 20
-2.61323942E+02
  0
VERTEX
  8
0
 62
4
 10
3.21078063E+02
 20
-2.61291509E+02
  0
VERTEX
  8
0
 62
4
 10
3.21371253E+02
 20
-2.61248669E+02
  0
VERTEX
  8
0
 62
4
 10
3.21653475E+02
 20
-2.61195765E+02
  0
VERTEX
  8
0
 62
4
 10
3.21922471E+02
 20
-2.61133220E+02
  0
VERTEX
  8
0
 62
4
 10
3.22176089E+02
 20
-2.61061535E+02
  0
VERTEX
  8
0
 62
4
 10
3.22412302E+02
 20
-2.60981283E+02
  0
VERTEX
  8
0
 62
4
 10
3.22629220E+02
 20
-2.60893106E+02
  0
VERTEX
  8
0
 62
4
 10
3.22825108E+02
 20
-2.60797709E+02
  0
VERTEX
  8
0
 62
4
 10
3.22998398E+02
 20
-2.60695855E+02
  0
VERTEX
  8
0
 62
4
 10
3.23147706E+02
 20
-2.60588358E+02
  0
VERTEX
  8
0
 62
4
 10
3.23271836E+02
 20
-2.60476080E+02
  0
VERTEX
  8
0
 62
4
 10
3.23369796E+02
 20
-2.60359917E+02
  0
VERTEX
  8
0
 62
4
 10
3.23440803E+02
 20
-2.60240799E+02
  0
VERTEX
  8
0
 62
4
 10
3.23484288E+02
 20
-2.60119678E+02
  0
VERTEX
  8
0
 62
4
 10
3.23499903E+02
 20
-2.59997524E+02
  0
VERTEX
  8
0
 62
4
 10
3.23487524E+02
 20
-2.59875313E+02
  0
VERTEX
  8
0
 62
4
 10
3.23447250E+02
 20
-2.59754023E+02
  0
SEQEND
  8
0
  0
LINE
  8
0
 62
4
 10
3.16859950E+02
 20
-2.59069941E+02
 11
3.16552650E+02
 21
-2.59754023E+02
  0
LINE
  8
0
 62
4
 10
3.23139950E+02
 20
-2.59069941E+02
 11
3.23447251E+02
 21
-2.59754023E+02
  0
LINE
  8
0
 62
2
 10
-4.05840300E+01
 20
-3.28350186E+02
 11
-7.46327847E+00
 21
-2.70983362E+02
  0
LINE
  8
0
 62
7
 10
-1.79717049E+02
 20
-3.81373770E+01
 11
-1.79717049E+02
 21
-8.13737705E+00
  0
LINE
  8
0
 62
7
 10
-2.51717049E+02
 20
-2.31373770E+01
 11
2.16282951E+02
 21
-2.31373770E+01
  0
TEXT
  8
0
 62
7
 10
-2.45931736E+02
 20
-3.51373770E+01
 40
9.00000000E+00
  1
STRETCH
 41
1.00000000E+00
  7
MONOTXT
  0
TEXT
  8
0
 62
7
 10
-2.41431736E+02
 20
-2.01373770E+01
 40
9.00000000E+00
  1
STROKE
 41
1.00000000E+00
  7
MONOTXT
  0
LINE
  8
0
 62
7
 10
-2.51717049E+02
 20
-3.81373770E+01
 11
-2.51717049E+02
 21
-8.13737705E+00
  0
LINE
  8
0
 62
7
 10
-2.51717049E+02
 20
-3.81373770E+01
 11
2.16282951E+02
 21
-3.81373770E+01
  0
LINE
  8
0
 62
7
 10
-2.51717049E+02
 20
-8.13737705E+00
 11
2.16282951E+02
 21
-8.13737705E+00
  0
LINE
  8
0
 62
7
 10
-1.43717049E+02
 20
-3.81373770E+01
 11
-1.43717049E+02
 21
-8.13737705E+00
  0
LINE
  8
0
 62
7
 10
-1.07717049E+02
 20
-3.81373770E+01
 11
-1.07717049E+02
 21
-8.13737705E+00
  0
LINE
  8
0
 62
7
 10
-7.17170492E+01
 20
-3.81373770E+01
 11
-7.17170492E+01
 21
-8.13737705E+00
  0
LINE
  8
0
 62
7
 10
-3.57170492E+01
 20
-3.81373770E+01
 11
-3.57170492E+01
 21
-8.13737705E+00
  0
LINE
  8
0
 62
7
 10
2.82950820E-01
 20
-3.81373770E+01
 11
2.82950820E-01
 21
-8.13737705E+00
  0
LINE
  8
0
 62
7
 10
3.62829508E+01
 20
-3.81373770E+01
 11
3.62829508E+01
 21
-8.13737705E+00
  0
LINE
  8
0
 62
7
 10
7.22829508E+01
 20
-3.81373770E+01
 11
7.22829508E+01
 21
-8.13737705E+00
  0
LINE
  8
0
 62
7
 10
1.08282951E+02
 20
-3.81373770E+01
 11
1.08282951E+02
 21
-8.13737705E+00
  0
LINE
  8
0
 62
7
 10
1.44282951E+02
 20
-3.81373770E+01
 11
1.44282951E+02
 21
-8.13737705E+00
  0
LINE
  8
0
 62
7
 10
1.80282951E+02
 20
-3.81373770E+01
 11
1.80282951E+02
 21
-8.13737705E+00
  0
LINE
  8
0
 62
7
 10
2.16282951E+02
 20
-3.81373770E+01
 11
2.16282951E+02
 21
-8.13737705E+00
  0
TEXT
  8
0
 62
7
 10
-1.69732674E+02
 20
-2.01373770E+01
 40
9.00000000E+00
  1
50
 41
1.00000000E+00
  7
MONOTXT
  0
TEXT
  8
0
 62
7
 10
-1.33732674E+02
 20
-2.01373770E+01
 40
9.00000000E+00
  1
75
 41
1.00000000E+00
  7
MONOTXT
  0
TEXT
  8
0
 62
7
 10
-1.02232674E+02
 20
-2.01373770E+01
 40
9.00000000E+00
  1
100
 41
1.00000000E+00
  7
MONOTXT
  0
TEXT
  8
0
 62
7
 10
-6.62326742E+01
 20
-2.01373770E+01
 40
9.00000000E+00
  1
150
 41
1.00000000E+00
  7
MONOTXT
  0
TEXT
  8
0
 62
7
 10
-3.02326742E+01
 20
-2.01373770E+01
 40
9.00000000E+00
  1
200
 41
1.00000000E+00
  7
MONOTXT
  0
TEXT
  8
0
 62
7
 10
5.76732582E+00
 20
-2.01373770E+01
 40
9.00000000E+00
  1
250
 41
1.00000000E+00
  7
MONOTXT
  0
TEXT
  8
0
 62
7
 10
4.17673258E+01
 20
-2.01373770E+01
 40
9.00000000E+00
  1
300
 41
1.00000000E+00
  7
MONOTXT
  0
TEXT
  8
0
 62
7
 10
7.77673258E+01
 20
-2.01373770E+01
 40
9.00000000E+00
  1
350
 41
1.00000000E+00
  7
MONOTXT
  0
TEXT
  8
0
 62
7
 10
1.13767326E+02
 20
-2.01373770E+01
 40
9.00000000E+00
  1
400
 41
1.00000000E+00
  7
MONOTXT
  0
TEXT
  8
0
 62
7
 10
1.49767326E+02
 20
-2.01373770E+01
 40
9.00000000E+00
  1
450
 41
1.00000000E+00
  7
MONOTXT
  0
TEXT
  8
0
 62
7
 10
1.85767326E+02
 20
-2.01373770E+01
 40
9.00000000E+00
  1
500
 41
1.00000000E+00
  7
MONOTXT
  0
TEXT
  8
0
 62
7
 10
-1.74232674E+02
 20
-3.51373770E+01
 40
9.00000000E+00
  1
-25
 41
1.00000000E+00
  7
MONOTXT
  0
TEXT
  8
0
 62
7
 10
-1.29232674E+02
 20
-3.51373770E+01
 40
9.00000000E+00
  1
0
 41
1.00000000E+00
  7
MONOTXT
  0
TEXT
  8
0
 62
7
 10
-9.77326742E+01
 20
-3.51373770E+01
 40
9.00000000E+00
  1
25
 41
1.00000000E+00
  7
MONOTXT
  0
TEXT
  8
0
 62
7
 10
-6.17326742E+01
 20
-3.51373770E+01
 40
9.00000000E+00
  1
75
 41
1.00000000E+00
  7
MONOTXT
  0
TEXT
  8
0
 62
7
 10
-3.02326742E+01
 20
-3.51373770E+01
 40
9.00000000E+00
  1
125
 41
1.00000000E+00
  7
MONOTXT
  0
TEXT
  8
0
 62
7
 10
5.76732582E+00
 20
-3.51373770E+01
 40
9.00000000E+00
  1
175
 41
1.00000000E+00
  7
MONOTXT
  0
TEXT
  8
0
 62
7
 10
4.17673258E+01
 20
-3.51373770E+01
 40
9.00000000E+00
  1
225
 41
1.00000000E+00
  7
MONOTXT
  0
TEXT
  8
0
 62
7
 10
7.77673258E+01
 20
-3.51373770E+01
 40
9.00000000E+00
  1
275
 41
1.00000000E+00
  7
MONOTXT
  0
TEXT
  8
0
 62
7
 10
1.13767326E+02
 20
-3.51373770E+01
 40
9.00000000E+00
  1
325
 41
1.00000000E+00
  7
MONOTXT
  0
TEXT
  8
0
 62
7
 10
1.49767326E+02
 20
-3.51373770E+01
 40
9.00000000E+00
  1
375
 41
1.00000000E+00
  7
MONOTXT
  0
TEXT
  8
0
 62
7
 10
1.85767326E+02
 20
-3.51373770E+01
 40
9.00000000E+00
  1
425
 41
1.00000000E+00
  7
MONOTXT
  0
TEXT
  8
0
 62
7
 10
1.82267326E+02
 20
-2.63737705E+00
 40
9.00000000E+00
  1
(mm)
 41
1.00000000E+00
  7
MONOTXT
  0
TEXT
  8
0
 62
7
 10
-7.07326742E+01
 20
-2.63737705E+00
 40
9.00000000E+00
  1
STRETCH LIST
 41
1.05263158E+00
  7
MONOTXT
  0
LINE
  8
0
 62
7
 10
-1.78651895E+01
 20
-2.89000000E+02
 11
-8.30000191E+01
 21
-2.89000000E+02
  0
LINE
  8
0
 62
7
 10
-1.03596360E+01
 20
-2.76000000E+02
 11
-8.30000191E+01
 21
-2.76000000E+02
  0
LINE
  8
0
 62
7
 10
-5.82796561E+01
 20
-1.79000015E+02
 11
-8.29999580E+01
 21
-1.79000015E+02
  0
LINE
  8
0
 62
7
 10
-6.05890660E+01
 20
-1.83000031E+02
 11
-8.29999580E+01
 21
-1.83000031E+02
  0
LINE
  8
0
 62
7
 10
-5.30835037E+01
 20
-1.70000015E+02
 11
-8.29999580E+01
 21
-1.70000015E+02
  0
LINE
  8
0
 62
7
 10
-7.14999580E+01
 20
-9.59999695E+01
 11
-8.29999580E+01
 21
-9.59999695E+01
  0
LINE
  8
0
 62
7
 10
-7.14999580E+01
 20
-1.00000000E+02
 11
-8.29999580E+01
 21
-1.00000000E+02
  0
LINE
  8
0
 62
7
 10
-1.26690283E+01
 20
-2.79999985E+02
 11
-8.30000191E+01
 21
-2.79999985E+02
  0
LINE
  8
0
 62
4
 10
7.39999809E+01
 20
-2.90683201E+02
 11
7.39109426E+01
 21
-2.90462823E+02
  0
LINE
  8
0
 62
4
 10
7.39109426E+01
 20
-2.90462823E+02
 11
7.39999809E+01
 21
-2.90426849E+02
  0
ARC
  8
0
 62
2
 10
-3.59000019E+02
 20
-3.19500000E+02
 40
1.01800079E+01
 50
0.00000000E+00
 51
1.80000000E+02
  0
LINE
  8
0
 62
2
 10
-1.70000004E+02
 20
-1.49679977E+02
 11
-1.56999958E+02
 21
-1.49679977E+02
  0
LINE
  8
0
 62
7
 10
-1.70000004E+02
 20
-1.50500000E+02
 11
-1.56999958E+02
 21
-1.50500000E+02
  0
LINE
  8
0
 62
2
 10
-1.70000004E+02
 20
-1.29319977E+02
 11
-1.56999958E+02
 21
-1.29319977E+02
  0
LINE
  8
0
 62
7
 10
-1.70000004E+02
 20
-1.28499969E+02
 11
-1.56999958E+02
 21
-1.28499969E+02
  0
LINE
  8
0
 62
7
 10
-1.70000034E+02
 20
-3.08499977E+02
 11
-1.56999989E+02
 21
-3.08499977E+02
  0
LINE
  8
0
 62
2
 10
-1.70000034E+02
 20
-3.09319992E+02
 11
-1.56999989E+02
 21
-3.09319992E+02
  0
LINE
  8
0
 62
4
 10
-3.75000053E+02
 20
-3.10262419E+02
 11
-3.58999991E+02
 21
-3.01024777E+02
  0
LINE
  8
0
 62
4
 10
-3.58999958E+02
 20
-3.01024778E+02
 11
-3.42999985E+02
 21
-3.10262359E+02
  0
LINE
  8
0
 62
4
 10
-3.75000019E+02
 20
-3.10262390E+02
 11
-3.75000019E+02
 21
-3.19500000E+02
  0
LINE
  8
0
 62
4
 10
-3.43000019E+02
 20
-3.10262390E+02
 11
-3.43000019E+02
 21
-3.19500000E+02
  0
ARC
  8
0
 62
7
 10
-3.59000019E+02
 20
-3.19500000E+02
 40
1.10000000E+01
 50
0.00000000E+00
 51
1.80000000E+02
  0
ARC
  8
0
 62
4
 10
-3.59000019E+02
 20
-3.19500000E+02
 40
1.60000000E+01
 50
0.00000000E+00
 51
1.80000000E+02
  0
LINE
  8
0
 62
4
 10
-1.81570972E+02
 20
-3.01041833E+02
 11
-1.71429096E+02
 21
-3.01041833E+02
  0
LINE
  8
0
 62
4
 10
-1.83000034E+02
 20
-3.03517053E+02
 11
-1.83000034E+02
 21
-3.19500000E+02
  0
LINE
  8
0
 62
4
 10
-1.70000034E+02
 20
-3.03517053E+02
 11
-1.70000034E+02
 21
-3.19500000E+02
  0
LINE
  8
0
 62
4
 10
-1.83000051E+02
 20
-3.03517054E+02
 11
-1.81570967E+02
 21
-3.01041837E+02
  0
LINE
  8
0
 62
4
 10
-1.71429114E+02
 20
-3.01041881E+02
 11
-1.70000042E+02
 21
-3.03517069E+02
  0
LINE
  8
0
 62
4
 10
-1.81570972E+02
 20
-3.10517057E+02
 11
-1.71429096E+02
 21
-3.10517057E+02
  0
ARC
  8
0
 62
4
 10
-1.99054829E+02
 20
-3.19517057E+02
 40
2.90548000E+01
 50
3.36363131E-02
 51
1.80446768E+01
  0
ARC
  8
0
 62
4
 10
-1.78562637E+02
 20
-3.05779447E+02
 40
8.56342793E+00
 50
3.26410605E+02
 51
3.35892584E+01
  0
ARC
  8
0
 62
4
 10
-1.53945234E+02
 20
-3.19517057E+02
 40
2.90548000E+01
 50
1.61955287E+02
 51
1.79966364E+02
  0
ARC
  8
0
 62
4
 10
-1.74437432E+02
 20
-3.05779447E+02
 40
8.56342793E+00
 50
1.46410665E+02
 51
2.13589318E+02
  0
LINE
  8
0
 62
4
 10
-1.83000004E+02
 20
-1.55500000E+02
 11
-1.70000004E+02
 21
-1.55500000E+02
  0
LINE
  8
0
 62
4
 10
-1.83000004E+02
 20
-1.23500000E+02
 11
-1.70000004E+02
 21
-1.23500000E+02
  0
LINE
  8
0
 62
4
 10
-1.83000004E+02
 20
-1.23500000E+02
 11
-1.83000004E+02
 21
-1.55500000E+02
  0
LINE
  8
0
 62
4
 10
-1.70000004E+02
 20
-1.23500000E+02
 11
-1.70000004E+02
 21
-1.55500000E+02
  0
ARC
  8
0
 62
4
 10
-1.59893217E+02
 20
-1.31500000E+02
 40
2.31067870E+01
 50
1.59743797E+02
 51
2.00256203E+02
  0
ARC
  8
0
 62
4
 10
-1.59893217E+02
 20
-1.47500000E+02
 40
2.31067870E+01
 50
1.59743797E+02
 51
2.00256203E+02
  0
ARC
  8
0
 62
4
 10
-1.93106791E+02
 20
-1.31500000E+02
 40
2.31067870E+01
 50
3.39743797E+02
 51
2.02562028E+01
  0
ARC
  8
0
 62
4
 10
-1.93106791E+02
 20
-1.47500000E+02
 40
2.31067870E+01
 50
3.39743797E+02
 51
2.02562028E+01
  0
LINE
  8
0
 62
4
 10
-1.81570938E+02
 20
-1.39500000E+02
 11
-1.71429069E+02
 21
-1.39500000E+02
  0
POLYLINE
  8
0
 62
7
 66
1
  0
VERTEX
  8
0
 62
7
 10
-1.47738331E+02
 20
-1.32860474E+02
  0
VERTEX
  8
0
 62
7
 10
-1.48176479E+02
 20
-1.32887202E+02
  0
VERTEX
  8
0
 62
7
 10
-1.48611099E+02
 20
-1.32967174E+02
  0
VERTEX
  8
0
 62
7
 10
-1.49038693E+02
 20
-1.33099743E+02
  0
VERTEX
  8
0
 62
7
 10
-1.49455816E+02
 20
-1.33283844E+02
  0
VERTEX
  8
0
 62
7
 10
-1.49859112E+02
 20
-1.33517993E+02
  0
VERTEX
  8
0
 62
7
 10
-1.50245332E+02
 20
-1.33800307E+02
  0
VERTEX
  8
0
 62
7
 10
-1.50611367E+02
 20
-1.34128510E+02
  0
VERTEX
  8
0
 62
7
 10
-1.50954271E+02
 20
-1.34499962E+02
  0
VERTEX
  8
0
 62
7
 10
-1.51271281E+02
 20
-1.34911671E+02
  0
VERTEX
  8
0
 62
7
 10
-1.51559846E+02
 20
-1.35360323E+02
  0
VERTEX
  8
0
 62
7
 10
-1.51817643E+02
 20
-1.35842305E+02
  0
VERTEX
  8
0
 62
7
 10
-1.52042595E+02
 20
-1.36353736E+02
  0
VERTEX
  8
0
 62
7
 10
-1.52232892E+02
 20
-1.36890500E+02
  0
VERTEX
  8
0
 62
7
 10
-1.52387001E+02
 20
-1.37448273E+02
  0
VERTEX
  8
0
 62
7
 10
-1.52503682E+02
 20
-1.38022566E+02
  0
VERTEX
  8
0
 62
7
 10
-1.52581996E+02
 20
-1.38608755E+02
  0
VERTEX
  8
0
 62
7
 10
-1.52621311E+02
 20
-1.39202119E+02
  0
VERTEX
  8
0
 62
7
 10
-1.52621311E+02
 20
-1.39797881E+02
  0
VERTEX
  8
0
 62
7
 10
-1.52581996E+02
 20
-1.40391245E+02
  0
VERTEX
  8
0
 62
7
 10
-1.52503682E+02
 20
-1.40977434E+02
  0
VERTEX
  8
0
 62
7
 10
-1.52387001E+02
 20
-1.41551726E+02
  0
VERTEX
  8
0
 62
7
 10
-1.52232892E+02
 20
-1.42109500E+02
  0
VERTEX
  8
0
 62
7
 10
-1.52042595E+02
 20
-1.42646263E+02
  0
VERTEX
  8
0
 62
7
 10
-1.51817643E+02
 20
-1.43157695E+02
  0
VERTEX
  8
0
 62
7
 10
-1.51559846E+02
 20
-1.43639677E+02
  0
VERTEX
  8
0
 62
7
 10
-1.51271281E+02
 20
-1.44088329E+02
  0
VERTEX
  8
0
 62
7
 10
-1.50954271E+02
 20
-1.44500038E+02
  0
VERTEX
  8
0
 62
7
 10
-1.50611367E+02
 20
-1.44871490E+02
  0
VERTEX
  8
0
 62
7
 10
-1.50245332E+02
 20
-1.45199693E+02
  0
VERTEX
  8
0
 62
7
 10
-1.49859112E+02
 20
-1.45482007E+02
  0
VERTEX
  8
0
 62
7
 10
-1.49455816E+02
 20
-1.45716156E+02
  0
VERTEX
  8
0
 62
7
 10
-1.49038693E+02
 20
-1.45900257E+02
  0
VERTEX
  8
0
 62
7
 10
-1.48611100E+02
 20
-1.46032826E+02
  0
VERTEX
  8
0
 62
7
 10
-1.48176479E+02
 20
-1.46112798E+02
  0
VERTEX
  8
0
 62
7
 10
-1.47738331E+02
 20
-1.46139526E+02
  0
SEQEND
  8
0
  0
POLYLINE
  8
0
 62
7
 66
1
  0
VERTEX
  8
0
 62
7
 10
-1.47738338E+02
 20
-1.46139534E+02
  0
VERTEX
  8
0
 62
7
 10
-1.48174017E+02
 20
-1.46151753E+02
  0
VERTEX
  8
0
 62
7
 10
-1.48606228E+02
 20
-1.46188312E+02
  0
VERTEX
  8
0
 62
7
 10
-1.49031530E+02
 20
-1.46248921E+02
  0
VERTEX
  8
0
 62
7
 10
-1.49446537E+02
 20
-1.46333096E+02
  0
VERTEX
  8
0
 62
7
 10
-1.49847945E+02
 20
-1.46440167E+02
  0
VERTEX
  8
0
 62
7
 10
-1.50232559E+02
 20
-1.46569283E+02
  0
VERTEX
  8
0
 62
7
 10
-1.50597318E+02
 20
-1.46719416E+02
  0
VERTEX
  8
0
 62
7
 10
-1.50939317E+02
 20
-1.46889369E+02
  0
VERTEX
  8
0
 62
7
 10
-1.51255834E+02
 20
-1.47077791E+02
  0
VERTEX
  8
0
 62
7
 10
-1.51544348E+02
 20
-1.47283182E+02
  0
VERTEX
  8
0
 62
7
 10
-1.51802565E+02
 20
-1.47503905E+02
  0
VERTEX
  8
0
 62
7
 10
-1.52028426E+02
 20
-1.47738205E+02
  0
VERTEX
  8
0
 62
7
 10
-1.52220136E+02
 20
-1.47984216E+02
  0
VERTEX
  8
0
 62
7
 10
-1.52376167E+02
 20
-1.48239979E+02
  0
VERTEX
  8
0
 62
7
 10
-1.52495278E+02
 20
-1.48503458E+02
  0
VERTEX
  8
0
 62
7
 10
-1.52576519E+02
 20
-1.48772557E+02
  0
VERTEX
  8
0
 62
7
 10
-1.52619245E+02
 20
-1.49045132E+02
  0
VERTEX
  8
0
 62
7
 10
-1.52623116E+02
 20
-1.49319014E+02
  0
VERTEX
  8
0
 62
7
 10
-1.52588100E+02
 20
-1.49592023E+02
  0
VERTEX
  8
0
 62
7
 10
-1.52514476E+02
 20
-1.49861984E+02
  0
VERTEX
  8
0
 62
7
 10
-1.52402831E+02
 20
-1.50126750E+02
  0
VERTEX
  8
0
 62
7
 10
-1.52254053E+02
 20
-1.50384212E+02
  0
VERTEX
  8
0
 62
7
 10
-1.52069326E+02
 20
-1.50632321E+02
  0
VERTEX
  8
0
 62
7
 10
-1.51850122E+02
 20
-1.50869102E+02
  0
VERTEX
  8
0
 62
7
 10
-1.51598184E+02
 20
-1.51092669E+02
  0
VERTEX
  8
0
 62
7
 10
-1.51315519E+02
 20
-1.51301243E+02
  0
VERTEX
  8
0
 62
7
 10
-1.51004378E+02
 20
-1.51493163E+02
  0
VERTEX
  8
0
 62
7
 10
-1.50667236E+02
 20
-1.51666903E+02
  0
VERTEX
  8
0
 62
7
 10
-1.50306778E+02
 20
-1.51821077E+02
  0
SEQEND
  8
0
  0
POLYLINE
  8
0
 62
7
 66
1
  0
VERTEX
  8
0
 62
7
 10
-1.50306778E+02
 20
-1.27178916E+02
  0
VERTEX
  8
0
 62
7
 10
-1.50667236E+02
 20
-1.27333091E+02
  0
VERTEX
  8
0
 62
7
 10
-1.51004378E+02
 20
-1.27506831E+02
  0
VERTEX
  8
0
 62
7
 10
-1.51315519E+02
 20
-1.27698752E+02
  0
VERTEX
  8
0
 62
7
 10
-1.51598184E+02
 20
-1.27907326E+02
  0
VERTEX
  8
0
 62
7
 10
-1.51850122E+02
 20
-1.28130894E+02
  0
VERTEX
  8
0
 62
7
 10
-1.52069326E+02
 20
-1.28367675E+02
  0
VERTEX
  8
0
 62
7
 10
-1.52254053E+02
 20
-1.28615785E+02
  0
VERTEX
  8
0
 62
7
 10
-1.52402831E+02
 20
-1.28873248E+02
  0
VERTEX
  8
0
 62
7
 10
-1.52514476E+02
 20
-1.29138014E+02
  0
VERTEX
  8
0
 62
7
 10
-1.52588100E+02
 20
-1.29407976E+02
  0
VERTEX
  8
0
 62
7
 10
-1.52623116E+02
 20
-1.29680986E+02
  0
VERTEX
  8
0
 62
7
 10
-1.52619245E+02
 20
-1.29954868E+02
  0
VERTEX
  8
0
 62
7
 10
-1.52576519E+02
 20
-1.30227444E+02
  0
VERTEX
  8
0
 62
7
 10
-1.52495278E+02
 20
-1.30496544E+02
  0
VERTEX
  8
0
 62
7
 10
-1.52376167E+02
 20
-1.30760024E+02
  0
VERTEX
  8
0
 62
7
 10
-1.52220136E+02
 20
-1.31015788E+02
  0
VERTEX
  8
0
 62
7
 10
-1.52028426E+02
 20
-1.31261799E+02
  0
VERTEX
  8
0
 62
7
 10
-1.51802565E+02
 20
-1.31496099E+02
  0
VERTEX
  8
0
 62
7
 10
-1.51544348E+02
 20
-1.31716823E+02
  0
VERTEX
  8
0
 62
7
 10
-1.51255834E+02
 20
-1.31922214E+02
  0
VERTEX
  8
0
 62
7
 10
-1.50939317E+02
 20
-1.32110636E+02
  0
VERTEX
  8
0
 62
7
 10
-1.50597318E+02
 20
-1.32280590E+02
  0
VERTEX
  8
0
 62
7
 10
-1.50232559E+02
 20
-1.32430723E+02
  0
VERTEX
  8
0
 62
7
 10
-1.49847945E+02
 20
-1.32559840E+02
  0
VERTEX
  8
0
 62
7
 10
-1.49446537E+02
 20
-1.32666912E+02
  0
VERTEX
  8
0
 62
7
 10
-1.49031530E+02
 20
-1.32751087E+02
  0
VERTEX
  8
0
 62
7
 10
-1.48606228E+02
 20
-1.32811695E+02
  0
VERTEX
  8
0
 62
7
 10
-1.48174017E+02
 20
-1.32848254E+02
  0
VERTEX
  8
0
 62
7
 10
-1.47738338E+02
 20
-1.32860473E+02
  0
SEQEND
  8
0
  0
POLYLINE
  8
0
 62
7
 66
1
  0
VERTEX
  8
0
 62
7
 10
-1.47738361E+02
 20
-3.19499996E+02
  0
VERTEX
  8
0
 62
7
 10
-1.47739769E+02
 20
-3.19499996E+02
  0
VERTEX
  8
0
 62
7
 10
-1.47741176E+02
 20
-3.19499997E+02
  0
VERTEX
  8
0
 62
7
 10
-1.47742584E+02
 20
-3.19499998E+02
  0
VERTEX
  8
0
 62
7
 10
-1.47743991E+02
 20
-3.19500000E+02
  0
SEQEND
  8
0
  0
POLYLINE
  8
0
 62
7
 66
1
  0
VERTEX
  8
0
 62
7
 10
-1.47738361E+02
 20
-3.08000008E+02
  0
VERTEX
  8
0
 62
7
 10
-1.48176510E+02
 20
-3.08023155E+02
  0
VERTEX
  8
0
 62
7
 10
-1.48611131E+02
 20
-3.08092412E+02
  0
VERTEX
  8
0
 62
7
 10
-1.49038725E+02
 20
-3.08207221E+02
  0
VERTEX
  8
0
 62
7
 10
-1.49455849E+02
 20
-3.08366657E+02
  0
VERTEX
  8
0
 62
7
 10
-1.49859145E+02
 20
-3.08569436E+02
  0
VERTEX
  8
0
 62
7
 10
-1.50245366E+02
 20
-3.08813926E+02
  0
VERTEX
  8
0
 62
7
 10
-1.50611402E+02
 20
-3.09098158E+02
  0
VERTEX
  8
0
 62
7
 10
-1.50954306E+02
 20
-3.09419845E+02
  0
VERTEX
  8
0
 62
7
 10
-1.51271316E+02
 20
-3.09776395E+02
  0
VERTEX
  8
0
 62
7
 10
-1.51559882E+02
 20
-3.10164938E+02
  0
VERTEX
  8
0
 62
7
 10
-1.51817679E+02
 20
-3.10582347E+02
  0
VERTEX
  8
0
 62
7
 10
-1.52042632E+02
 20
-3.11025259E+02
  0
VERTEX
  8
0
 62
7
 10
-1.52232929E+02
 20
-3.11490109E+02
  0
VERTEX
  8
0
 62
7
 10
-1.52387039E+02
 20
-3.11973155E+02
  0
VERTEX
  8
0
 62
7
 10
-1.52503720E+02
 20
-3.12470506E+02
  0
VERTEX
  8
0
 62
7
 10
-1.52582033E+02
 20
-3.12978160E+02
  0
VERTEX
  8
0
 62
7
 10
-1.52621348E+02
 20
-3.13492028E+02
  0
VERTEX
  8
0
 62
7
 10
-1.52621348E+02
 20
-3.14007972E+02
  0
VERTEX
  8
0
 62
7
 10
-1.52582033E+02
 20
-3.14521840E+02
  0
VERTEX
  8
0
 62
7
 10
-1.52503720E+02
 20
-3.15029494E+02
  0
VERTEX
  8
0
 62
7
 10
-1.52387039E+02
 20
-3.15526845E+02
  0
VERTEX
  8
0
 62
7
 10
-1.52232929E+02
 20
-3.16009891E+02
  0
VERTEX
  8
0
 62
7
 10
-1.52042632E+02
 20
-3.16474741E+02
  0
VERTEX
  8
0
 62
7
 10
-1.51817679E+02
 20
-3.16917653E+02
  0
VERTEX
  8
0
 62
7
 10
-1.51559882E+02
 20
-3.17335062E+02
  0
VERTEX
  8
0
 62
7
 10
-1.51271316E+02
 20
-3.17723605E+02
  0
VERTEX
  8
0
 62
7
 10
-1.50954306E+02
 20
-3.18080155E+02
  0
VERTEX
  8
0
 62
7
 10
-1.50611402E+02
 20
-3.18401842E+02
  0
VERTEX
  8
0
 62
7
 10
-1.50245366E+02
 20
-3.18686074E+02
  0
VERTEX
  8
0
 62
7
 10
-1.49859145E+02
 20
-3.18930564E+02
  0
VERTEX
  8
0
 62
7
 10
-1.49455849E+02
 20
-3.19133343E+02
  0
VERTEX
  8
0
 62
7
 10
-1.49038725E+02
 20
-3.19292779E+02
  0
VERTEX
  8
0
 62
7
 10
-1.48611131E+02
 20
-3.19407588E+02
  0
VERTEX
  8
0
 62
7
 10
-1.48176510E+02
 20
-3.19476845E+02
  0
VERTEX
  8
0
 62
7
 10
-1.47738361E+02
 20
-3.19499992E+02
  0
SEQEND
  8
0
  0
ARC
  8
0
 62
7
 10
1.58999996E+02
 20
-2.96634689E+02
 40
1.00000000E+00
 50
3.59721781E-05
 51
1.03886119E+02
  0
ARC
  8
0
 62
7
 10
1.43865322E+02
 20
-2.81499939E+02
 40
1.00000000E+00
 50
3.46112226E+02
 51
9.00000162E+01
  0
ARC
  8
0
 62
7
 10
9.81346436E+01
 20
-2.81500031E+02
 40
1.00000000E+00
 50
9.00000162E+01
 51
1.93885698E+02
  0
ARC
  8
0
 62
7
 10
8.29999237E+01
 20
-2.96634674E+02
 40
1.00000000E+00
 50
7.61138592E+01
 51
1.80000005E+02
  0
ARC
  8
0
 62
7
 10
1.20999981E+02
 20
-3.19499924E+02
 40
2.20000000E+01
 50
0.00000000E+00
 51
1.80000199E+02
  0
ARC
  8
0
 62
7
 10
1.18749981E+02
 20
-2.96610275E+02
 40
1.00000000E+00
 50
2.75613894E+02
 51
3.59721781E-05
  0
ARC
  8
0
 62
7
 10
9.81102905E+01
 20
-3.17250015E+02
 40
1.00000000E+00
 50
2.70000038E+02
 51
3.54386163E+02
  0
ARC
  8
0
 62
7
 10
1.06405514E+02
 20
-3.01723511E+02
 40
1.00000000E+00
 50
2.25000000E+02
 51
3.09386157E+02
  0
ARC
  8
0
 62
7
 10
1.03223507E+02
 20
-3.04905548E+02
 40
1.00000000E+00
 50
3.20614517E+02
 51
4.50000423E+01
  0
ARC
  8
0
 62
7
 10
1.02998882E+02
 20
-2.77100052E+02
 40
1.00000000E+00
 50
9.00000162E+01
 51
1.78725219E+02
  0
ARC
  8
0
 62
7
 10
7.85999451E+01
 20
-3.01498825E+02
 40
1.00000000E+00
 50
9.12730270E+01
 51
1.80000005E+02
  0
ARC
  8
0
 62
7
 10
9.84999847E+01
 20
-2.76999939E+02
 40
3.50000024E+00
 50
2.69999984E+02
 51
3.58725492E+02
  0
ARC
  8
0
 62
7
 10
7.84999695E+01
 20
-2.96999939E+02
 40
3.50000024E+00
 50
2.71273049E+02
 51
1.86693353E-05
  0
CIRCLE
  8
0
 62
7
 10
8.59999695E+01
 20
-2.84500031E+02
 40
8.00000000E+00
  0
ARC
  8
0
 62
7
 10
7.79999542E+01
 20
-2.76500031E+02
 40
4.00000000E+00
 50
9.00000162E+01
 51
1.80000005E+02
  0
ARC
  8
0
 62
7
 10
8.59999695E+01
 20
-2.84500031E+02
 40
1.15000000E+01
 50
2.56113130E+02
 51
1.38865754E+01
  0
ARC
  8
0
 62
7
 10
7.79999542E+01
 20
-2.76500031E+02
 40
3.40000033E+00
 50
9.00000162E+01
 51
1.80000005E+02
  0
ARC
  8
0
 62
7
 10
7.85999451E+01
 20
-3.17250015E+02
 40
1.00000000E+00
 50
1.79999995E+02
 51
2.70000038E+02
  0
ARC
  8
0
 62
7
 10
1.18749981E+02
 20
-2.77100052E+02
 40
1.00000000E+00
 50
3.59721781E-05
 51
9.00000162E+01
  0
ARC
  8
0
 62
7
 10
9.62854614E+01
 20
-2.91603485E+02
 40
1.00000000E+00
 50
1.45369621E+02
 51
2.25000010E+02
  0
ARC
  8
0
 62
7
 10
9.31034546E+01
 20
-2.94785492E+02
 40
1.00000000E+00
 50
4.50000423E+01
 51
1.24630380E+02
  0
CIRCLE
  8
0
 62
7
 10
8.59999695E+01
 20
-2.84500031E+02
 40
8.69999981E+00
  0
CIRCLE
  8
0
 62
2
 10
1.55999996E+02
 20
-2.84500000E+02
 40
5.00000000E+00
  0
ARC
  8
0
 62
7
 10
1.43889675E+02
 20
-3.17250000E+02
 40
1.00000000E+00
 50
1.85613878E+02
 51
2.70000038E+02
  0
ARC
  8
0
 62
7
 10
1.23249981E+02
 20
-2.96610321E+02
 40
1.00000000E+00
 50
1.80000036E+02
 51
2.64386169E+02
  0
ARC
  8
0
 62
7
 10
1.38776455E+02
 20
-3.04905525E+02
 40
1.00000000E+00
 50
1.35000014E+02
 51
2.19386168E+02
  0
ARC
  8
0
 62
7
 10
1.35594448E+02
 20
-3.01723511E+02
 40
1.00000000E+00
 50
2.30614484E+02
 51
3.15000026E+02
  0
ARC
  8
0
 62
7
 10
1.39001125E+02
 20
-2.77099976E+02
 40
1.00000000E+00
 50
1.27300564E+00
 51
9.00000162E+01
  0
ARC
  8
0
 62
7
 10
1.63399929E+02
 20
-3.01498917E+02
 40
1.00000000E+00
 50
3.59721781E-05
 51
8.87252023E+01
  0
ARC
  8
0
 62
7
 10
1.63500042E+02
 20
-2.97000031E+02
 40
3.50000024E+00
 50
1.79999500E+02
 51
2.68725460E+02
  0
ARC
  8
0
 62
7
 10
1.43500027E+02
 20
-2.77000000E+02
 40
3.50000024E+00
 50
1.81273033E+02
 51
2.69999984E+02
  0
CIRCLE
  8
0
 62
2
 10
8.59999695E+01
 20
-2.84500000E+02
 40
5.00000000E+00
  0
CIRCLE
  8
0
 62
7
 10
1.55999996E+02
 20
-2.84500031E+02
 40
8.00000000E+00
  0
ARC
  8
0
 62
7
 10
1.63999966E+02
 20
-2.76500015E+02
 40
4.00000000E+00
 50
2.23117997E-05
 51
8.99999750E+01
  0
ARC
  8
0
 62
7
 10
1.63999966E+02
 20
-2.76500015E+02
 40
3.40000033E+00
 50
2.23117997E-05
 51
8.99999750E+01
  0
ARC
  8
0
 62
7
 10
1.63399929E+02
 20
-3.17250000E+02
 40
1.00000000E+00
 50
2.70000052E+02
 51
3.59721781E-05
  0
ARC
  8
0
 62
7
 10
1.55999996E+02
 20
-2.84500031E+02
 40
1.15000000E+01
 50
1.66113111E+02
 51
2.83886595E+02
  0
ARC
  8
0
 62
7
 10
1.23249981E+02
 20
-2.77100006E+02
 40
1.00000000E+00
 50
9.00000025E+01
 51
1.80000046E+02
  0
ARC
  8
0
 62
7
 10
1.48896511E+02
 20
-2.94785492E+02
 40
1.00000000E+00
 50
5.53696217E+01
 51
1.35000014E+02
  0
ARC
  8
0
 62
7
 10
1.45714504E+02
 20
-2.91603455E+02
 40
1.00000000E+00
 50
3.15000047E+02
 51
3.46303671E+01
  0
CIRCLE
  8
0
 62
7
 10
1.55999996E+02
 20
-2.84500031E+02
 40
8.69999981E+00
  0
CIRCLE
  8
0
 62
7
 10
8.59999695E+01
 20
-2.84500000E+02
 40
4.18000031E+00
  0
CIRCLE
  8
0
 62
7
 10
1.55999996E+02
 20
-2.84500000E+02
 40
4.18000031E+00
  0
ARC
  8
0
 62
7
 10
-1.18500019E+02
 20
-2.73619720E+02
 40
5.00000000E-01
 50
9.10002493E+01
 51
1.79999964E+02
  0
CIRCLE
  8
0
 62
7
 10
-8.99999733E+01
 20
-1.55500061E+02
 40
2.59999990E+00
  0
CIRCLE
  8
0
 62
7
 10
-9.89999428E+01
 20
-1.28500031E+02
 40
1.10000000E+01
  0
CIRCLE
  8
0
 62
2
 10
-9.89999733E+01
 20
-1.28500031E+02
 40
1.04775009E+01
  0
CIRCLE
  8
0
 62
7
 10
-9.89999428E+01
 20
-1.28499969E+02
 40
9.25000000E+00
  0
ARC
  8
0
 62
7
 10
-1.20500019E+02
 20
-2.98000000E+02
 40
5.00000000E-01
 50
8.99999818E+01
 51
1.79999964E+02
  0
ARC
  8
0
 62
7
 10
-1.34500004E+02
 20
-2.98971741E+02
 40
5.00000000E-01
 50
9.20007356E+01
 51
1.79999964E+02
  0
ARC
  8
0
 62
7
 10
-1.39500019E+02
 20
-3.00500000E+02
 40
5.00000000E-01
 50
8.99999818E+01
 51
1.79999964E+02
  0
CIRCLE
  8
0
 62
7
 10
-3.23999989E+02
 20
-2.84500000E+02
 40
4.18000031E+00
  0
CIRCLE
  8
0
 62
7
 10
-3.94000019E+02
 20
-2.84500000E+02
 40
4.18000031E+00
  0
CIRCLE
  8
0
 62
2
 10
-3.23999989E+02
 20
-2.84500000E+02
 40
5.00000000E+00
  0
CIRCLE
  8
0
 62
2
 10
-3.94000019E+02
 20
-2.84500000E+02
 40
5.00000000E+00
  0
CIRCLE
  8
0
 62
7
 10
-8.99999733E+01
 20
-1.55500061E+02
 40
5.00000000E+00
  0
ARC
  8
0
 62
7
 10
-3.97000019E+02
 20
-2.96634689E+02
 40
1.00000000E+00
 50
7.61138799E+01
 51
1.79999964E+02
  0
ARC
  8
0
 62
7
 10
-3.81865345E+02
 20
-2.81499939E+02
 40
1.00000000E+00
 50
8.99999818E+01
 51
1.93887774E+02
  0
ARC
  8
0
 62
7
 10
-3.36134663E+02
 20
-2.81500031E+02
 40
1.00000000E+00
 50
3.46114302E+02
 51
8.99999818E+01
  0
ARC
  8
0
 62
7
 10
-3.20999958E+02
 20
-2.96634674E+02
 40
1.00000000E+00
 50
0.00000000E+00
 51
1.03886139E+02
  0
ARC
  8
0
 62
7
 10
-3.59000019E+02
 20
-3.19500000E+02
 40
2.10111084E+01
 50
0.00000000E+00
 51
1.80000000E+02
  0
ARC
  8
0
 62
7
 10
-3.59000019E+02
 20
-3.19499924E+02
 40
1.95000000E+01
 50
0.00000000E+00
 51
1.80000224E+02
  0
ARC
  8
0
 62
7
 10
-3.59000019E+02
 20
-3.19499924E+02
 40
2.20000000E+01
 50
0.00000000E+00
 51
1.80000199E+02
  0
ARC
  8
0
 62
7
 10
-3.56750019E+02
 20
-2.96610275E+02
 40
1.00000000E+00
 50
1.79999964E+02
 51
2.64386104E+02
  0
ARC
  8
0
 62
7
 10
-3.36110310E+02
 20
-3.17250015E+02
 40
1.00000000E+00
 50
1.85613837E+02
 51
2.69999963E+02
  0
ARC
  8
0
 62
7
 10
-3.44405537E+02
 20
-3.01723511E+02
 40
1.00000000E+00
 50
2.30613841E+02
 51
3.14999995E+02
  0
ARC
  8
0
 62
7
 10
-3.41223530E+02
 20
-3.04905548E+02
 40
1.00000000E+00
 50
1.34999959E+02
 51
2.19385485E+02
  0
ARC
  8
0
 62
7
 10
-3.40998920E+02
 20
-2.77100052E+02
 40
1.00000000E+00
 50
1.27477808E+00
 51
8.99999818E+01
  0
ARC
  8
0
 62
7
 10
-3.16599964E+02
 20
-3.01498825E+02
 40
1.00000000E+00
 50
0.00000000E+00
 51
8.87269716E+01
  0
ARC
  8
0
 62
7
 10
-3.36500019E+02
 20
-2.76999939E+02
 40
3.50000024E+00
 50
1.81274508E+02
 51
2.70000018E+02
  0
ARC
  8
0
 62
7
 10
-3.16499989E+02
 20
-2.96999939E+02
 40
3.50000024E+00
 50
1.79999977E+02
 51
2.68726963E+02
  0
CIRCLE
  8
0
 62
7
 10
-3.23999989E+02
 20
-2.84500031E+02
 40
8.00000000E+00
  0
ARC
  8
0
 62
7
 10
-3.15999989E+02
 20
-2.76500031E+02
 40
4.00000000E+00
 50
0.00000000E+00
 51
8.99999818E+01
  0
ARC
  8
0
 62
7
 10
-3.23999989E+02
 20
-2.84500031E+02
 40
1.15000000E+01
 50
1.66113425E+02
 51
2.83886868E+02
  0
ARC
  8
0
 62
7
 10
-3.15999989E+02
 20
-2.76500031E+02
 40
3.40000033E+00
 50
0.00000000E+00
 51
8.99999818E+01
  0
ARC
  8
0
 62
7
 10
-3.16599964E+02
 20
-3.17250015E+02
 40
1.00000000E+00
 50
2.69999963E+02
 51
0.00000000E+00
  0
ARC
  8
0
 62
7
 10
-3.56750019E+02
 20
-2.77100052E+02
 40
1.00000000E+00
 50
8.99999818E+01
 51
1.79999964E+02
  0
ARC
  8
0
 62
7
 10
-3.34285480E+02
 20
-2.91603485E+02
 40
1.00000000E+00
 50
3.14999995E+02
 51
3.46303842E+01
  0
ARC
  8
0
 62
7
 10
-3.31103474E+02
 20
-2.94785492E+02
 40
1.00000000E+00
 50
5.53696252E+01
 51
1.34999959E+02
  0
CIRCLE
  8
0
 62
7
 10
-3.23999989E+02
 20
-2.84500031E+02
 40
8.69999981E+00
  0
ARC
  8
0
 62
7
 10
-3.81889698E+02
 20
-3.17250000E+02
 40
1.00000000E+00
 50
2.69999963E+02
 51
3.54386117E+02
  0
ARC
  8
0
 62
7
 10
-3.61250019E+02
 20
-2.96610321E+02
 40
1.00000000E+00
 50
2.75613832E+02
 51
3.59999959E+02
  0
ARC
  8
0
 62
7
 10
-3.76776478E+02
 20
-3.04905525E+02
 40
1.00000000E+00
 50
3.20613837E+02
 51
4.49999910E+01
  0
ARC
  8
0
 62
7
 10
-3.73594471E+02
 20
-3.01723511E+02
 40
1.00000000E+00
 50
2.24999972E+02
 51
3.09385511E+02
  0
ARC
  8
0
 62
7
 10
-1.34499943E+02
 20
-1.18971680E+02
 40
5.00000000E-01
 50
9.20007356E+01
 51
1.79999951E+02
  0
ARC
  8
0
 62
7
 10
-1.34499943E+02
 20
-1.60028229E+02
 40
5.00000000E-01
 50
1.79999977E+02
 51
2.67999192E+02
  0
ARC
  8
0
 62
7
 10
-1.20499958E+02
 20
-1.60999969E+02
 40
5.00000000E-01
 50
1.79999977E+02
 51
2.69999974E+02
  0
ARC
  8
0
 62
7
 10
-1.39499943E+02
 20
-1.58499939E+02
 40
5.00000000E-01
 50
1.79999977E+02
 51
2.69999974E+02
  0
ARC
  8
0
 62
7
 10
-1.39499943E+02
 20
-1.20499969E+02
 40
5.00000000E-01
 50
8.99999818E+01
 51
1.79999951E+02
  0
ARC
  8
0
 62
7
 10
-1.20499958E+02
 20
-1.17999939E+02
 40
5.00000000E-01
 50
8.99999818E+01
 51
1.79999951E+02
  0
ARC
  8
0
 62
7
 10
-1.12999958E+02
 20
-1.67499939E+02
 40
2.00000000E+00
 50
1.79999977E+02
 51
2.70000028E+02
  0
ARC
  8
0
 62
7
 10
-1.12999958E+02
 20
-1.11499969E+02
 40
2.00000000E+00
 50
8.99999818E+01
 51
1.79999951E+02
  0
ARC
  8
0
 62
7
 10
-1.18499943E+02
 20
-1.85380280E+02
 40
5.00000000E-01
 50
1.79999977E+02
 51
2.68999679E+02
  0
ARC
  8
0
 62
7
 10
-1.18499943E+02
 20
-9.36197205E+01
 40
5.00000000E-01
 50
9.10002493E+01
 51
1.79999951E+02
  0
ARC
  8
0
 62
7
 10
-3.77001148E+02
 20
-2.77099976E+02
 40
1.00000000E+00
 50
8.99999818E+01
 51
1.78726994E+02
  0
ARC
  8
0
 62
7
 10
-4.01399952E+02
 20
-3.01498917E+02
 40
1.00000000E+00
 50
9.12747958E+01
 51
1.79999964E+02
  0
ARC
  8
0
 62
7
 10
-4.01500080E+02
 20
-2.97000031E+02
 40
3.50000024E+00
 50
2.71274531E+02
 51
4.99579573E-04
  0
ARC
  8
0
 62
7
 10
-3.81500050E+02
 20
-2.77000000E+02
 40
3.50000024E+00
 50
2.70000018E+02
 51
3.58726970E+02
  0
CIRCLE
  8
0
 62
7
 10
-3.94000019E+02
 20
-2.84500031E+02
 40
8.00000000E+00
  0
ARC
  8
0
 62
7
 10
-4.01999989E+02
 20
-2.76500015E+02
 40
4.00000000E+00
 50
9.00000231E+01
 51
1.79999977E+02
  0
ARC
  8
0
 62
7
 10
-4.01999989E+02
 20
-2.76500015E+02
 40
3.40000033E+00
 50
9.00000231E+01
 51
1.79999977E+02
  0
ARC
  8
0
 62
7
 10
-4.01399952E+02
 20
-3.17250000E+02
 40
1.00000000E+00
 50
1.79999964E+02
 51
2.69999946E+02
  0
ARC
  8
0
 62
7
 10
-3.94000019E+02
 20
-2.84500031E+02
 40
1.15000000E+01
 50
2.56113404E+02
 51
1.38868930E+01
  0
ARC
  8
0
 62
7
 10
-3.61250019E+02
 20
-2.77100006E+02
 40
1.00000000E+00
 50
3.59999959E+02
 51
8.99999956E+01
  0
ARC
  8
0
 62
7
 10
-3.86896534E+02
 20
-2.94785492E+02
 40
1.00000000E+00
 50
4.49999910E+01
 51
1.24630380E+02
  0
ARC
  8
0
 62
7
 10
-3.83714527E+02
 20
-2.91603455E+02
 40
1.00000000E+00
 50
1.45369634E+02
 51
2.24999955E+02
  0
CIRCLE
  8
0
 62
7
 10
-3.94000019E+02
 20
-2.84500031E+02
 40
8.69999981E+00
  0
LINE
  8
0
 62
7
 10
-1.56999989E+02
 20
-3.09319992E+02
 11
-1.53999989E+02
 21
-3.09319992E+02
  0
LINE
  8
0
 62
7
 10
-1.56999958E+02
 20
-1.49679977E+02
 11
-1.53999958E+02
 21
-1.49679977E+02
  0
LINE
  8
0
 62
7
 10
-1.56999958E+02
 20
-1.29319977E+02
 11
-1.53999958E+02
 21
-1.29319977E+02
  0
LINE
  8
0
 62
7
 10
-1.53999941E+02
 20
-1.50500010E+02
 11
-1.47738316E+02
 21
-1.52779055E+02
  0
LINE
  8
0
 62
7
 10
-1.53999967E+02
 20
-1.28500010E+02
 11
-1.47738328E+02
 21
-1.26220959E+02
  0
LINE
  8
0
 62
7
 10
-1.47738331E+02
 20
-1.32860474E+02
 11
-1.39999958E+02
 21
-1.32860474E+02
  0
LINE
  8
0
 62
7
 10
-1.92500034E+02
 20
-3.08499977E+02
 11
-1.83000034E+02
 21
-3.08499977E+02
  0
LINE
  8
0
 62
7
 10
-1.94000042E+02
 20
-3.10000034E+02
 11
-1.92500024E+02
 21
-3.08500016E+02
  0
LINE
  8
0
 62
2
 10
-1.93320011E+02
 20
-1.49679977E+02
 11
-1.83000004E+02
 21
-1.49679977E+02
  0
LINE
  8
0
 62
7
 10
-1.93999967E+02
 20
-1.48999926E+02
 11
-1.92499976E+02
 21
-1.50499917E+02
  0
LINE
  8
0
 62
7
 10
-1.92500004E+02
 20
-1.50500000E+02
 11
-1.83000004E+02
 21
-1.50500000E+02
  0
LINE
  8
0
 62
2
 10
-1.93320072E+02
 20
-3.09319992E+02
 11
-1.83000034E+02
 21
-3.09319992E+02
  0
LINE
  8
0
 62
2
 10
-1.93320011E+02
 20
-1.29319977E+02
 11
-1.83000004E+02
 21
-1.29319977E+02
  0
LINE
  8
0
 62
7
 10
-1.93999955E+02
 20
-1.30000088E+02
 11
-1.92499920E+02
 21
-1.28500054E+02
  0
LINE
  8
0
 62
7
 10
-1.92500004E+02
 20
-1.50500000E+02
 11
-1.92500004E+02
 21
-1.28499969E+02
  0
LINE
  8
0
 62
7
 10
-1.92500004E+02
 20
-1.28499969E+02
 11
-1.83000004E+02
 21
-1.28499969E+02
  0
LINE
  8
0
 62
7
 10
-1.56999958E+02
 20
-1.50500000E+02
 11
-1.56999958E+02
 21
-1.28499969E+02
  0
LINE
  8
0
 62
7
 10
-1.94000004E+02
 20
-1.48999878E+02
 11
-1.94000004E+02
 21
-1.30000061E+02
  0
LINE
  8
0
 62
7
 10
-1.53999958E+02
 20
-1.50500000E+02
 11
-1.53999958E+02
 21
-1.28500000E+02
  0
LINE
  8
0
 62
7
 10
-1.92500004E+02
 20
-3.08499977E+02
 11
-1.92500004E+02
 21
-3.19500000E+02
  0
LINE
  8
0
 62
7
 10
-1.56999989E+02
 20
-3.08499977E+02
 11
-1.56999989E+02
 21
-3.19500000E+02
  0
LINE
  8
0
 62
7
 10
-1.94000004E+02
 20
-3.09999954E+02
 11
-1.94000004E+02
 21
-3.19500000E+02
  0
LINE
  8
0
 62
7
 10
-1.53999989E+02
 20
-3.19500000E+02
 11
-1.53999989E+02
 21
-3.08499977E+02
  0
LINE
  8
0
 62
7
 10
-1.47738285E+02
 20
-1.26220978E+02
 11
-1.39999958E+02
 21
-1.26220978E+02
  0
LINE
  8
0
 62
7
 10
-1.53999988E+02
 20
-3.08499998E+02
 11
-1.52626267E+02
 21
-3.08000004E+02
  0
LINE
  8
0
 62
7
 10
-1.47738331E+02
 20
-1.52779037E+02
 11
-1.39999958E+02
 21
-1.52779037E+02
  0
LINE
  8
0
 62
7
 10
-1.47738331E+02
 20
-1.46139526E+02
 11
-1.39999958E+02
 21
-1.46139526E+02
  0
LINE
  8
0
 62
7
 10
-1.47738361E+02
 20
-3.19500000E+02
 11
-1.40000004E+02
 21
-3.19500000E+02
  0
LINE
  8
0
 62
7
 10
-1.52626270E+02
 20
-3.08000008E+02
 11
-1.40000004E+02
 21
-3.08000008E+02
  0
LINE
  8
0
 62
7
 10
8.59999666E+01
 20
-2.78726503E+02
 11
9.09999678E+01
 21
-2.81613255E+02
  0
LINE
  8
0
 62
7
 10
9.09999695E+01
 20
-2.81613251E+02
 11
9.09999695E+01
 21
-2.87386749E+02
  0
LINE
  8
0
 62
7
 10
9.09999699E+01
 20
-2.87386752E+02
 11
8.59999670E+01
 21
-2.90273506E+02
  0
LINE
  8
0
 62
7
 10
8.59999678E+01
 20
-2.90273509E+02
 11
8.09999666E+01
 21
-2.87386757E+02
  0
LINE
  8
0
 62
7
 10
8.09999695E+01
 20
-2.81613251E+02
 11
8.09999695E+01
 21
-2.87386749E+02
  0
LINE
  8
0
 62
7
 10
8.59999699E+01
 20
-2.78726499E+02
 11
8.09999670E+01
 21
-2.81613252E+02
  0
LINE
  8
0
 62
7
 10
1.55999995E+02
 20
-2.78726503E+02
 11
1.60999995E+02
 21
-2.81613254E+02
  0
LINE
  8
0
 62
7
 10
1.60999996E+02
 20
-2.81613251E+02
 11
1.60999996E+02
 21
-2.87386749E+02
  0
LINE
  8
0
 62
7
 10
1.60999990E+02
 20
-2.87386753E+02
 11
1.55999993E+02
 21
-2.90273502E+02
  0
LINE
  8
0
 62
7
 10
1.55999995E+02
 20
-2.90273508E+02
 11
1.50999995E+02
 21
-2.87386757E+02
  0
LINE
  8
0
 62
7
 10
1.50999996E+02
 20
-2.81613251E+02
 11
1.50999996E+02
 21
-2.87386749E+02
  0
LINE
  8
0
 62
7
 10
1.55999992E+02
 20
-2.78726503E+02
 11
1.50999995E+02
 21
-2.81613252E+02
  0
LINE
  8
0
  6
CENTER
 62
2
 10
1.32000042E+02
 20
-2.85199966E+02
 11
1.32000042E+02
 21
-2.70047379E+02
  0
LINE
  8
0
  6
CENTER
 62
2
 10
6.94651794E+01
 20
-3.19500000E+02
 11
1.71465412E+02
 21
-3.19500000E+02
  0
LINE
  8
0
  6
CENTER
 62
2
 10
1.00222092E+02
 20
-2.84500000E+02
 11
7.10122375E+01
 21
-2.84500000E+02
  0
LINE
  8
0
 62
7
 10
8.19998932E+01
 20
-2.96634674E+02
 11
8.19998932E+01
 21
-2.96999939E+02
  0
LINE
  8
0
 62
7
 10
9.81345978E+01
 20
-2.80500046E+02
 11
9.84999847E+01
 21
-2.80500046E+02
  0
LINE
  8
0
 62
7
 10
1.43865322E+02
 20
-2.80499954E+02
 11
1.43500027E+02
 21
-2.80499954E+02
  0
LINE
  8
0
 62
7
 10
1.59999981E+02
 20
-2.96634689E+02
 11
1.59999981E+02
 21
-2.97000031E+02
  0
LINE
  8
0
 62
7
 10
1.50999981E+02
 20
-2.72500000E+02
 11
1.50999981E+02
 21
-2.73099976E+02
  0
LINE
  8
0
 62
7
 10
9.09999847E+01
 20
-2.72500031E+02
 11
9.09999847E+01
 21
-2.73100037E+02
  0
LINE
  8
0
 62
7
 10
1.02998882E+02
 20
-2.76100037E+02
 11
1.39001125E+02
 21
-2.76100037E+02
  0
LINE
  8
0
 62
7
 10
1.19749966E+02
 20
-2.77100052E+02
 11
1.19749966E+02
 21
-2.96610275E+02
  0
LINE
  8
0
 62
7
 10
1.05698534E+02
 20
-3.02430475E+02
 11
9.55784809E+01
 21
-2.92310427E+02
  0
LINE
  8
0
 62
7
 10
1.03930632E+02
 20
-3.04198345E+02
 11
9.38105633E+01
 21
-2.94078281E+02
  0
LINE
  8
0
  6
CENTER
 62
2
 10
1.70555470E+02
 20
-2.84500000E+02
 11
1.41308987E+02
 21
-2.84500000E+02
  0
LINE
  8
0
  6
CENTER
 62
2
 10
8.59999695E+01
 20
-2.70127319E+02
 11
8.59999695E+01
 21
-2.99864243E+02
  0
LINE
  8
0
 62
7
 10
7.79999542E+01
 20
-2.73100037E+02
 11
1.63999920E+02
 21
-2.73099976E+02
  0
LINE
  8
0
  6
CENTER
 62
2
 10
1.20999981E+02
 20
-2.68644241E+02
 11
1.20999981E+02
 21
-3.19500000E+02
  0
LINE
  8
0
 62
7
 10
7.39999695E+01
 20
-3.19500000E+02
 11
7.39999695E+01
 21
-2.76500031E+02
  0
LINE
  8
0
 62
7
 10
7.76000061E+01
 20
-3.19500000E+02
 11
7.76000061E+01
 21
-3.01498825E+02
  0
LINE
  8
0
 62
7
 10
7.46000061E+01
 20
-3.19500000E+02
 11
7.46000061E+01
 21
-2.76500031E+02
  0
LINE
  8
0
 62
7
 10
7.85999451E+01
 20
-3.18250023E+02
 11
9.81102448E+01
 21
-3.18250023E+02
  0
LINE
  8
0
 62
7
 10
1.63399929E+02
 20
-3.18250000E+02
 11
1.43889675E+02
 21
-3.18250000E+02
  0
LINE
  8
0
 62
7
 10
1.22249996E+02
 20
-2.77100006E+02
 11
1.22249996E+02
 21
-2.96610321E+02
  0
LINE
  8
0
 62
7
 10
1.36301550E+02
 20
-3.02430630E+02
 11
1.46421585E+02
 21
-2.92310596E+02
  0
LINE
  8
0
 62
7
 10
1.38069420E+02
 20
-3.04198435E+02
 11
1.48189487E+02
 21
-2.94078369E+02
  0
LINE
  8
0
 62
7
 10
1.68000004E+02
 20
-3.19500000E+02
 11
1.68000004E+02
 21
-2.76500015E+02
  0
LINE
  8
0
  6
CENTER
 62
2
 10
1.55999996E+02
 20
-2.70314667E+02
 11
1.55999996E+02
 21
-2.99038361E+02
  0
LINE
  8
0
 62
7
 10
7.79999542E+01
 20
-2.72500031E+02
 11
1.63999920E+02
 21
-2.72500000E+02
  0
LINE
  8
0
 62
7
 10
1.64400005E+02
 20
-3.19500000E+02
 11
1.64400005E+02
 21
-3.01498917E+02
  0
LINE
  8
0
 62
7
 10
1.67400013E+02
 20
-3.19500000E+02
 11
1.67400013E+02
 21
-2.76500015E+02
  0
LINE
  8
0
  6
CENTER
 62
2
 10
-9.90000038E+01
 20
-2.85199951E+02
 11
-9.90000038E+01
 21
-2.70047348E+02
  0
LINE
  8
0
  6
CENTER
 62
2
 10
-3.70000080E+02
 20
-2.85199966E+02
 11
-3.70000080E+02
 21
-2.70047379E+02
  0
LINE
  8
0
  6
CENTER
 62
2
 10
-1.52671045E+01
 20
-2.84499985E+02
 11
-1.21524509E+02
 21
-2.84499985E+02
  0
LINE
  8
0
 62
7
 10
-1.15000004E+02
 20
-2.73058548E+02
 11
-1.15000004E+02
 21
-2.72500000E+02
  0
LINE
  8
0
 62
7
 10
-1.18508792E+02
 20
-2.73119792E+02
 11
-8.30000405E+01
 21
-2.72499985E+02
  0
LINE
  8
0
 62
7
 10
-1.15000034E+02
 20
-2.72500000E+02
 11
-8.30000343E+01
 21
-2.72500000E+02
  0
LINE
  8
0
 62
7
 10
-8.30000191E+01
 20
-3.19500000E+02
 11
-8.30000191E+01
 21
-2.72500000E+02
  0
LINE
  8
0
 62
7
 10
-1.19000019E+02
 20
-3.19500000E+02
 11
-1.19000019E+02
 21
-2.73619720E+02
  0
LINE
  8
0
  6
CENTER
 62
2
 10
-8.52976418E+01
 20
-1.28500061E+02
 11
-1.13094898E+02
 21
-1.28500061E+02
  0
LINE
  8
0
  6
CENTER
 62
2
 10
-9.89999733E+01
 20
-1.42605865E+02
 11
-9.89999733E+01
 21
-1.14676758E+02
  0
LINE
  8
0
 62
7
 10
-1.20500034E+02
 20
-2.97500000E+02
 11
-1.19000034E+02
 21
-2.97500000E+02
  0
LINE
  8
0
 62
7
 10
-1.34517550E+02
 20
-2.98472073E+02
 11
-1.21000079E+02
 21
-2.98000033E+02
  0
LINE
  8
0
 62
7
 10
-1.39500034E+02
 20
-3.00000015E+02
 11
-1.35000034E+02
 21
-3.00000015E+02
  0
LINE
  8
0
 62
7
 10
-1.03595574E+01
 20
-9.59999695E+01
 11
-5.64999580E+01
 21
-9.59999695E+01
  0
LINE
  8
0
 62
7
 10
-1.26689761E+01
 20
-1.00000000E+02
 11
-5.64999580E+01
 21
-1.00000000E+02
  0
LINE
  8
0
  6
CENTER
 62
2
 10
-1.52670523E+01
 20
-1.04500000E+02
 11
-5.64999580E+01
 21
-1.04500000E+02
  0
LINE
  8
0
 62
7
 10
-1.78651285E+01
 20
-1.09000000E+02
 11
-3.69999580E+01
 21
-1.09000000E+02
  0
LINE
  8
0
 62
7
 10
-8.82677454E+01
 20
-1.55500151E+02
 11
-8.91337845E+01
 21
-1.57000183E+02
  0
LINE
  8
0
 62
7
 10
-8.91339455E+01
 20
-1.57000076E+02
 11
-9.08660316E+01
 21
-1.57000076E+02
  0
LINE
  8
0
 62
7
 10
-9.08659348E+01
 20
-1.57000102E+02
 11
-9.17320045E+01
 21
-1.55500016E+02
  0
LINE
  8
0
 62
7
 10
-9.17317818E+01
 20
-1.55500291E+02
 11
-9.08657655E+01
 21
-1.54000298E+02
  0
LINE
  8
0
 62
7
 10
-8.91339455E+01
 20
-1.54000061E+02
 11
-9.08660316E+01
 21
-1.54000061E+02
  0
LINE
  8
0
 62
7
 10
-8.82678494E+01
 20
-1.55500141E+02
 11
-8.91338885E+01
 21
-1.54000108E+02
  0
LINE
  8
0
  6
CENTER
 62
2
 10
-9.81945534E+01
 20
-1.55500061E+02
 11
-8.19255409E+01
 21
-1.55500061E+02
  0
LINE
  8
0
  6
CENTER
 62
2
 10
-8.99999733E+01
 20
-1.47952271E+02
 11
-8.99999733E+01
 21
-1.62565659E+02
  0
LINE
  8
0
  6
CENTER
 62
2
 10
-5.56815799E+01
 20
-1.74500015E+02
 11
-1.21524479E+02
 21
-1.74500015E+02
  0
LINE
  8
0
 62
7
 10
-1.21000004E+02
 20
-2.98000046E+02
 11
-1.21000004E+02
 21
-3.19500000E+02
  0
LINE
  8
0
  6
CENTER
 62
2
 10
-3.07465199E+02
 20
-3.19500000E+02
 11
-4.09465443E+02
 21
-3.19500000E+02
  0
LINE
  8
0
  6
CENTER
 62
2
 10
-3.38222126E+02
 20
-2.84500000E+02
 11
-3.09012257E+02
 21
-2.84500000E+02
  0
LINE
  8
0
 62
7
 10
-3.19999928E+02
 20
-2.96634674E+02
 11
-3.19999928E+02
 21
-2.96999939E+02
  0
LINE
  8
0
 62
7
 10
-3.36134632E+02
 20
-2.80500046E+02
 11
-3.36500019E+02
 21
-2.80500046E+02
  0
LINE
  8
0
 62
7
 10
-3.81865345E+02
 20
-2.80499954E+02
 11
-3.81500050E+02
 21
-2.80499954E+02
  0
LINE
  8
0
 62
7
 10
-3.98000019E+02
 20
-2.96634689E+02
 11
-3.98000019E+02
 21
-2.97000031E+02
  0
LINE
  8
0
 62
7
 10
-3.89000019E+02
 20
-2.72500000E+02
 11
-3.89000019E+02
 21
-2.73099976E+02
  0
LINE
  8
0
 62
7
 10
-3.29000019E+02
 20
-2.72500031E+02
 11
-3.29000019E+02
 21
-2.73100037E+02
  0
LINE
  8
0
 62
7
 10
-3.40998920E+02
 20
-2.76100037E+02
 11
-3.77001148E+02
 21
-2.76100037E+02
  0
LINE
  8
0
 62
7
 10
-3.57749989E+02
 20
-2.77100052E+02
 11
-3.57749989E+02
 21
-2.96610275E+02
  0
LINE
  8
0
 62
7
 10
-3.43698570E+02
 20
-3.02430489E+02
 11
-3.33578512E+02
 21
-2.92310435E+02
  0
LINE
  8
0
 62
7
 10
-3.41930674E+02
 20
-3.04198343E+02
 11
-3.31810605E+02
 21
-2.94078278E+02
  0
LINE
  8
0
  6
CENTER
 62
2
 10
-4.08555500E+02
 20
-2.84500000E+02
 11
-3.79309010E+02
 21
-2.84500000E+02
  0
LINE
  8
0
  6
CENTER
 62
2
 10
-3.23999989E+02
 20
-2.70127319E+02
 11
-3.23999989E+02
 21
-2.99864243E+02
  0
LINE
  8
0
 62
7
 10
-4.01999958E+02
 20
-2.73099976E+02
 11
-3.15999989E+02
 21
-2.73100037E+02
  0
LINE
  8
0
  6
CENTER
 62
2
 10
-3.59000019E+02
 20
-2.68644241E+02
 11
-3.59000019E+02
 21
-3.19500000E+02
  0
LINE
  8
0
 62
7
 10
-3.11999989E+02
 20
-3.19500000E+02
 11
-3.11999989E+02
 21
-2.76500031E+02
  0
LINE
  8
0
 62
7
 10
-3.15600025E+02
 20
-3.19500000E+02
 11
-3.15600025E+02
 21
-3.01498825E+02
  0
LINE
  8
0
 62
7
 10
-3.12600025E+02
 20
-3.19500000E+02
 11
-3.12600025E+02
 21
-2.76500031E+02
  0
LINE
  8
0
 62
7
 10
-3.16599964E+02
 20
-3.18250023E+02
 11
-3.36110279E+02
 21
-3.18250023E+02
  0
LINE
  8
0
 62
7
 10
-4.01399952E+02
 20
-3.18250000E+02
 11
-3.81889698E+02
 21
-3.18250000E+02
  0
LINE
  8
0
 62
7
 10
-3.60250019E+02
 20
-2.77100006E+02
 11
-3.60250019E+02
 21
-2.96610321E+02
  0
LINE
  8
0
 62
7
 10
-3.74301580E+02
 20
-3.02430650E+02
 11
-3.84421615E+02
 21
-2.92310616E+02
  0
LINE
  8
0
 62
7
 10
-3.76069455E+02
 20
-3.04198439E+02
 11
-3.86189511E+02
 21
-2.94078383E+02
  0
LINE
  8
0
 62
7
 10
-1.20999958E+02
 20
-1.60999969E+02
 11
-1.20999958E+02
 21
-1.18000000E+02
  0
LINE
  8
0
 62
7
 10
-1.34517439E+02
 20
-1.18471883E+02
 11
-1.20999982E+02
 21
-1.17999843E+02
  0
LINE
  8
0
 62
7
 10
-1.20499958E+02
 20
-1.17500031E+02
 11
-1.18999958E+02
 21
-1.17500031E+02
  0
LINE
  8
0
 62
7
 10
-1.34517433E+02
 20
-1.60527758E+02
 11
-1.20999992E+02
 21
-1.60999797E+02
  0
LINE
  8
0
 62
7
 10
-1.20499958E+02
 20
-1.61500061E+02
 11
-1.18999958E+02
 21
-1.61500061E+02
  0
LINE
  8
0
 62
7
 10
-1.39499943E+02
 20
-1.59000031E+02
 11
-1.34999943E+02
 21
-1.59000031E+02
  0
LINE
  8
0
 62
7
 10
-1.39999958E+02
 20
-1.20499969E+02
 11
-1.39999958E+02
 21
-1.58499985E+02
  0
LINE
  8
0
 62
7
 10
-1.34999958E+02
 20
-1.18936768E+02
 11
-1.34999958E+02
 21
-1.60028229E+02
  0
LINE
  8
0
 62
7
 10
-1.39499943E+02
 20
-1.20000031E+02
 11
-1.34999943E+02
 21
-1.20000031E+02
  0
LINE
  8
0
 62
7
 10
-1.35000019E+02
 20
-3.19500000E+02
 11
-1.35000019E+02
 21
-2.98971741E+02
  0
LINE
  8
0
 62
7
 10
-1.12999958E+02
 20
-1.69500031E+02
 11
-8.29999580E+01
 21
-1.69500031E+02
  0
LINE
  8
0
 62
7
 10
-1.12999958E+02
 20
-1.09500031E+02
 11
-9.09999580E+01
 21
-1.09500031E+02
  0
LINE
  8
0
 62
7
 10
-1.14999958E+02
 20
-1.11499969E+02
 11
-1.14999958E+02
 21
-1.67499985E+02
  0
LINE
  8
0
 62
7
 10
-1.18508737E+02
 20
-1.85880065E+02
 11
-8.30000153E+01
 21
-1.86499872E+02
  0
LINE
  8
0
 62
7
 10
-8.29999580E+01
 20
-9.25000000E+01
 11
-8.29999580E+01
 21
-1.02216245E+02
  0
LINE
  8
0
 62
7
 10
-1.18999958E+02
 20
-9.36197205E+01
 11
-1.18999958E+02
 21
-1.85380280E+02
  0
LINE
  8
0
 62
7
 10
-1.18508666E+02
 20
-9.31195841E+01
 11
-8.29999452E+01
 21
-9.24997771E+01
  0
LINE
  8
0
 62
7
 10
-1.40000004E+02
 20
-3.19500000E+02
 11
-1.40000004E+02
 21
-3.00500000E+02
  0
LINE
  8
0
 62
7
 10
-4.06000019E+02
 20
-3.19500000E+02
 11
-4.06000019E+02
 21
-2.76500015E+02
  0
LINE
  8
0
  6
CENTER
 62
2
 10
-3.94000019E+02
 20
-2.70314667E+02
 11
-3.94000019E+02
 21
-2.99038361E+02
  0
LINE
  8
0
 62
7
 10
-4.01999958E+02
 20
-2.72500000E+02
 11
-3.15999989E+02
 21
-2.72500031E+02
  0
LINE
  8
0
 62
7
 10
-4.02400043E+02
 20
-3.19500000E+02
 11
-4.02400043E+02
 21
-3.01498917E+02
  0
LINE
  8
0
 62
7
 10
-4.05400043E+02
 20
-3.19500000E+02
 11
-4.05400043E+02
 21
-2.76500015E+02
  0
LINE
  8
0
  6
CENTER
 62
2
 10
-2.02798313E+02
 20
-1.39500000E+02
 11
-3.54743117E+01
 21
-1.39500000E+02
  0
LINE
  8
0
  6
CENTER
 62
2
 10
-2.02243382E+02
 20
-3.19500000E+02
 11
-3.54743727E+01
 21
-3.19500000E+02
  0
LINE
  8
0
 62
7
 10
2.80050206E+02
 20
-2.79999985E+02
 11
3.28499950E+02
 21
-2.79999985E+02
  0
LINE
  8
0
 62
7
 10
2.74854044E+02
 20
-2.89000000E+02
 11
3.28499950E+02
 21
-2.89000000E+02
  0
LINE
  8
0
 62
7
 10
2.82359598E+02
 20
-2.76000000E+02
 11
3.08999950E+02
 21
-2.76000000E+02
  0
LINE
  8
0
  6
CENTER
 62
2
 10
2.77452129E+02
 20
-2.84499985E+02
 11
3.28499950E+02
 21
-2.84499985E+02
  0
LINE
  8
0
  6
CENTER
 62
2
 10
4.74243343E+02
 20
-3.19500000E+02
 11
2.57244861E+02
 21
-3.19500000E+02
  0
LINE
  8
0
 62
7
 10
4.11999966E+02
 20
-3.19500000E+02
 11
4.11999966E+02
 21
-3.00500000E+02
  0
LINE
  8
0
 62
7
 10
4.06999981E+02
 20
-3.19500000E+02
 11
4.06999981E+02
 21
-2.98971741E+02
  0
LINE
  8
0
 62
7
 10
3.92999966E+02
 20
-2.98000046E+02
 11
3.92999966E+02
 21
-3.19500000E+02
  0
LINE
  8
0
 62
7
 10
4.11499996E+02
 20
-3.00000015E+02
 11
4.06999996E+02
 21
-3.00000015E+02
  0
LINE
  8
0
 62
7
 10
4.06517512E+02
 20
-2.98472073E+02
 11
3.93000040E+02
 21
-2.98000033E+02
  0
LINE
  8
0
 62
7
 10
3.92499996E+02
 20
-2.97500000E+02
 11
3.90999996E+02
 21
-2.97500000E+02
  0
LINE
  8
0
 62
7
 10
3.90999981E+02
 20
-3.19500000E+02
 11
3.90999981E+02
 21
-2.73619720E+02
  0
LINE
  8
0
 62
7
 10
3.54999981E+02
 20
-3.19500000E+02
 11
3.54999981E+02
 21
-2.72500000E+02
  0
LINE
  8
0
 62
7
 10
3.86999996E+02
 20
-2.72500000E+02
 11
3.54999996E+02
 21
-2.72500000E+02
  0
LINE
  8
0
 62
7
 10
3.90508754E+02
 20
-2.73119792E+02
 11
3.55000002E+02
 21
-2.72499985E+02
  0
LINE
  8
0
 62
7
 10
3.86999966E+02
 20
-2.73058548E+02
 11
3.86999966E+02
 21
-2.72500000E+02
  0
LINE
  8
0
  6
CENTER
 62
2
 10
3.70999966E+02
 20
-2.85199951E+02
 11
3.70999966E+02
 21
-2.70047348E+02
  0
LINE
  8
0
 62
7
 10
4.24626232E+02
 20
-3.08000008E+02
 11
4.11999966E+02
 21
-3.08000008E+02
  0
LINE
  8
0
 62
7
 10
4.19738323E+02
 20
-3.19500000E+02
 11
4.11999966E+02
 21
-3.19500000E+02
  0
LINE
  8
0
 62
7
 10
4.25999950E+02
 20
-3.08499998E+02
 11
4.24626229E+02
 21
-3.08000004E+02
  0
LINE
  8
0
 62
7
 10
4.25999950E+02
 20
-3.19500000E+02
 11
4.25999950E+02
 21
-3.08499977E+02
  0
LINE
  8
0
 62
7
 10
4.65999966E+02
 20
-3.09999954E+02
 11
4.65999966E+02
 21
-3.19500000E+02
  0
LINE
  8
0
 62
7
 10
4.28999950E+02
 20
-3.08499977E+02
 11
4.28999950E+02
 21
-3.19500000E+02
  0
LINE
  8
0
 62
7
 10
4.64499966E+02
 20
-3.08499977E+02
 11
4.64499966E+02
 21
-3.19500000E+02
  0
LINE
  8
0
 62
2
 10
4.65320034E+02
 20
-3.09319992E+02
 11
4.54999996E+02
 21
-3.09319992E+02
  0
LINE
  8
0
 62
7
 10
4.66000004E+02
 20
-3.10000034E+02
 11
4.64499986E+02
 21
-3.08500016E+02
  0
LINE
  8
0
 62
7
 10
4.64499996E+02
 20
-3.08499977E+02
 11
4.54999996E+02
 21
-3.08499977E+02
  0
LINE
  8
0
 62
7
 10
4.28999950E+02
 20
-3.09319992E+02
 11
4.25999950E+02
 21
-3.09319992E+02
  0
ARC
  8
0
 62
7
 10
4.11499981E+02
 20
-3.00500000E+02
 40
5.00000000E-01
 50
3.59721787E-05
 51
9.00000179E+01
  0
ARC
  8
0
 62
7
 10
4.06499966E+02
 20
-2.98971741E+02
 40
5.00000000E-01
 50
3.59721787E-05
 51
8.79992642E+01
  0
ARC
  8
0
 62
7
 10
3.92499981E+02
 20
-2.98000000E+02
 40
5.00000000E-01
 50
3.59721787E-05
 51
9.00000179E+01
  0
ARC
  8
0
 62
7
 10
3.90499981E+02
 20
-2.73619720E+02
 40
5.00000000E-01
 50
3.59721787E-05
 51
8.89997505E+01
  0
POLYLINE
  8
0
 62
7
 66
1
  0
VERTEX
  8
0
 62
7
 10
4.19738323E+02
 20
-3.19499992E+02
  0
VERTEX
  8
0
 62
7
 10
4.20176472E+02
 20
-3.19476845E+02
  0
VERTEX
  8
0
 62
7
 10
4.20611093E+02
 20
-3.19407588E+02
  0
VERTEX
  8
0
 62
7
 10
4.21038687E+02
 20
-3.19292779E+02
  0
VERTEX
  8
0
 62
7
 10
4.21455811E+02
 20
-3.19133343E+02
  0
VERTEX
  8
0
 62
7
 10
4.21859107E+02
 20
-3.18930564E+02
  0
VERTEX
  8
0
 62
7
 10
4.22245328E+02
 20
-3.18686074E+02
  0
VERTEX
  8
0
 62
7
 10
4.22611364E+02
 20
-3.18401842E+02
  0
VERTEX
  8
0
 62
7
 10
4.22954268E+02
 20
-3.18080155E+02
  0
VERTEX
  8
0
 62
7
 10
4.23271278E+02
 20
-3.17723605E+02
  0
VERTEX
  8
0
 62
7
 10
4.23559844E+02
 20
-3.17335062E+02
  0
VERTEX
  8
0
 62
7
 10
4.23817641E+02
 20
-3.16917653E+02
  0
VERTEX
  8
0
 62
7
 10
4.24042594E+02
 20
-3.16474741E+02
  0
VERTEX
  8
0
 62
7
 10
4.24232891E+02
 20
-3.16009891E+02
  0
VERTEX
  8
0
 62
7
 10
4.24387001E+02
 20
-3.15526845E+02
  0
VERTEX
  8
0
 62
7
 10
4.24503682E+02
 20
-3.15029494E+02
  0
VERTEX
  8
0
 62
7
 10
4.24581995E+02
 20
-3.14521840E+02
  0
VERTEX
  8
0
 62
7
 10
4.24621310E+02
 20
-3.14007972E+02
  0
VERTEX
  8
0
 62
7
 10
4.24621310E+02
 20
-3.13492028E+02
  0
VERTEX
  8
0
 62
7
 10
4.24581995E+02
 20
-3.12978160E+02
  0
VERTEX
  8
0
 62
7
 10
4.24503682E+02
 20
-3.12470506E+02
  0
VERTEX
  8
0
 62
7
 10
4.24387001E+02
 20
-3.11973155E+02
  0
VERTEX
  8
0
 62
7
 10
4.24232891E+02
 20
-3.11490109E+02
  0
VERTEX
  8
0
 62
7
 10
4.24042594E+02
 20
-3.11025259E+02
  0
VERTEX
  8
0
 62
7
 10
4.23817641E+02
 20
-3.10582347E+02
  0
VERTEX
  8
0
 62
7
 10
4.23559844E+02
 20
-3.10164938E+02
  0
VERTEX
  8
0
 62
7
 10
4.23271278E+02
 20
-3.09776395E+02
  0
VERTEX
  8
0
 62
7
 10
4.22954268E+02
 20
-3.09419845E+02
  0
VERTEX
  8
0
 62
7
 10
4.22611364E+02
 20
-3.09098158E+02
  0
VERTEX
  8
0
 62
7
 10
4.22245328E+02
 20
-3.08813926E+02
  0
VERTEX
  8
0
 62
7
 10
4.21859107E+02
 20
-3.08569436E+02
  0
VERTEX
  8
0
 62
7
 10
4.21455811E+02
 20
-3.08366657E+02
  0
VERTEX
  8
0
 62
7
 10
4.21038687E+02
 20
-3.08207221E+02
  0
VERTEX
  8
0
 62
7
 10
4.20611093E+02
 20
-3.08092412E+02
  0
VERTEX
  8
0
 62
7
 10
4.20176472E+02
 20
-3.08023155E+02
  0
VERTEX
  8
0
 62
7
 10
4.19738323E+02
 20
-3.08000008E+02
  0
SEQEND
  8
0
  0
POLYLINE
  8
0
 62
7
 66
1
  0
VERTEX
  8
0
 62
7
 10
4.19743953E+02
 20
-3.19500000E+02
  0
VERTEX
  8
0
 62
7
 10
4.19742546E+02
 20
-3.19499998E+02
  0
VERTEX
  8
0
 62
7
 10
4.19741138E+02
 20
-3.19499997E+02
  0
VERTEX
  8
0
 62
7
 10
4.19739731E+02
 20
-3.19499996E+02
  0
VERTEX
  8
0
 62
7
 10
4.19738323E+02
 20
-3.19499996E+02
  0
SEQEND
  8
0
  0
ARC
  8
0
 62
4
 10
4.46437393E+02
 20
-3.05779447E+02
 40
8.56342793E+00
 50
3.26410682E+02
 51
3.35893354E+01
  0
ARC
  8
0
 62
4
 10
4.25945196E+02
 20
-3.19517057E+02
 40
2.90548000E+01
 50
3.36363131E-02
 51
1.80447127E+01
  0
ARC
  8
0
 62
4
 10
4.50562599E+02
 20
-3.05779447E+02
 40
8.56342793E+00
 50
1.46410742E+02
 51
2.13589395E+02
  0
ARC
  8
0
 62
4
 10
4.71054791E+02
 20
-3.19517057E+02
 40
2.90548000E+01
 50
1.61955323E+02
 51
1.79966364E+02
  0
LINE
  8
0
 62
4
 10
4.53570934E+02
 20
-3.10517057E+02
 11
4.43429058E+02
 21
-3.10517057E+02
  0
LINE
  8
0
 62
4
 10
4.43429076E+02
 20
-3.01041881E+02
 11
4.42000003E+02
 21
-3.03517069E+02
  0
LINE
  8
0
 62
4
 10
4.55000013E+02
 20
-3.03517054E+02
 11
4.53570929E+02
 21
-3.01041837E+02
  0
LINE
  8
0
 62
4
 10
4.41999996E+02
 20
-3.03517053E+02
 11
4.41999996E+02
 21
-3.19500000E+02
  0
LINE
  8
0
 62
4
 10
4.54999996E+02
 20
-3.03517053E+02
 11
4.54999996E+02
 21
-3.19500000E+02
  0
LINE
  8
0
 62
4
 10
4.53570934E+02
 20
-3.01041833E+02
 11
4.43429058E+02
 21
-3.01041833E+02
  0
LINE
  8
0
 62
2
 10
4.41999996E+02
 20
-3.09319992E+02
 11
4.28999950E+02
 21
-3.09319992E+02
  0
LINE
  8
0
 62
7
 10
4.41999996E+02
 20
-3.08499977E+02
 11
4.28999950E+02
 21
-3.08499977E+02
  0
LINE
  8
0
 62
7
 10
-8.29999580E+01
 20
-1.14716245E+02
 11
-8.29999580E+01
 21
-1.86499969E+02
  0
LINE
  8
0
  6
CENTER
 62
2
 10
-9.09999580E+01
 20
-1.04500000E+02
 11
-1.21524479E+02
 21
-1.04500000E+02
  0
LINE
  8
0
 62
2
 10
-6.30350792E+01
 20
-1.87236650E+02
 11
-7.46321744E+00
 21
-9.09833616E+01
  0
LINE
  8
0
 62
2
 10
2.52897162E+02
 20
-3.27030436E+02
 11
2.86547551E+02
 21
-2.68746253E+02
  0
LINE
  8
0
 62
7
 10
3.47999950E+02
 20
-2.76000000E+02
 11
3.54999981E+02
 21
-2.76000000E+02
  0
LINE
  8
0
 62
7
 10
3.43499950E+02
 20
-2.79999985E+02
 11
3.54999981E+02
 21
-2.79999985E+02
  0
LINE
  8
0
 62
7
 10
3.43499950E+02
 20
-2.89000000E+02
 11
3.54999981E+02
 21
-2.89000000E+02
  0
LINE
  8
0
  6
CENTER
 62
2
 10
3.43499950E+02
 20
-2.84499985E+02
 11
3.93524471E+02
 21
-2.84499985E+02
  0
TEXT
  8
0
 10
-7.72146873E+01
 20
3.54316712E+02
 40
9.00000000E+00
  1
STRETCH LINE
 41
1.05263158E+00
  7
MONOTXT
  0
LINE
  8
0
 62
7
 10
5.74500000E+02
 20
4.00500000E+02
 11
5.74500000E+02
 21
-4.00500000E+02
  0
LINE
  8
0
 62
7
 10
-5.64500000E+02
 20
4.00500000E+02
 11
5.74500000E+02
 21
4.00500000E+02
  0
LINE
  8
0
 62
7
 10
-5.64500000E+02
 20
-4.00500000E+02
 11
5.74500000E+02
 21
-4.00500000E+02
  0
LINE
  8
0
 62
7
 10
-5.64500000E+02
 20
4.00500000E+02
 11
-5.64500000E+02
 21
-4.00500000E+02
  0
LINE
  8
0
 62
7
 10
-5.64500000E+02
 20
3.70500000E+02
 11
-3.34500000E+02
 21
3.70500000E+02
  0
LINE
  8
0
 62
7
 10
3.44500000E+02
 20
3.70500000E+02
 11
5.74500000E+02
 21
3.70500000E+02
  0
LINE
  8
0
 62
7
 10
3.44500000E+02
 20
-3.70500000E+02
 11
5.74500000E+02
 21
-3.70500000E+02
  0
LINE
  8
0
 62
7
 10
3.44500000E+02
 20
-3.70500000E+02
 11
3.44500000E+02
 21
-4.00500000E+02
  0
LINE
  8
0
 62
7
 10
3.44500000E+02
 20
4.00500000E+02
 11
3.44500000E+02
 21
3.70500000E+02
  0
LINE
  8
0
 62
7
 10
-3.34500000E+02
 20
4.00500000E+02
 11
-3.34500000E+02
 21
3.70500000E+02
  0
TEXT
  8
0
 62
7
 10
-5.37179687E+02
 20
3.34250000E+02
 40
1.25000000E+01
  1
MODEL:DDAL80*75
 41
1.00000015E+00
  7
MONOTXT
  0
TEXT
  8
0
 62
7
 10
4.11285149E+02
 20
3.79250000E+02
 40
1.25000000E+01
  1
Ver. 1.0
 41
1.08108125E+00
  7
MONOTXT
  0
TEXT
  8
0
 62
7
 10
3.50070624E+02
 20
-3.94500000E+02
 40
1.80000000E+01
  1
KOGANEI CORP.
 41
1.04838710E+00
  7
MONOTXT
  0
TEXT
  8
0
 62
7
 10
-5.53964859E+02
 20
3.79250000E+02
 40
1.25000000E+01
  1
NEW DYNA CYLINDER
 41
1.07594953E+00
  7
MONOTXT
  0
ENDSEC
  0
EOF
