  0
SECTION
  2
HEADER
  9
$ACADVER
  1
AC1003
  9
$EXTMIN
 10
-5.64500000E+02
 20
-4.00500000E+02
  9
$EXTMAX
 10
5.74500000E+02
 20
4.00500000E+02
  9
$LIMMIN
 10
-5.64501000E+02
 20
-4.00501000E+02
  9
$LIMMAX
 10
5.74501000E+02
 20
4.00501000E+02
  9
$SNAPUNIT
 10
1
 20
1
  9
$SNAPBASE
 10
0
 20
0
  9
$GRIDMODE
 70
0
  9
$GRIDUNIT
 10
0
 20
0
  9
$LTSCALE
 40
1.89833333E+01
  9
$TEXTSIZE
 40
3.2
  9
$DIMTAD
 70
0
  9
$LUNITS
 70
2
  9
$LUPREC
 70
4
  9
$FILLETRAD
 40
0
  9
$AUNITS
 70
0
  9
$AUPREC
 70
0
  0
ENDSEC
  0
SECTION
  2
TABLES
  0
TABLE
  2
LTYPE
 70
2
  0
LTYPE
  2
CONTINUOUS
 70
64
  3
Solid-Line
 72
65
 73
0
 40
0
  0
LTYPE
  2
DASHED
 70
64
  3
DASHED
 72
65
 73
2
 40
.75
 49
.5
 49
-.25
  0
LTYPE
  2
HIDDEN
 70
64
  3
HIDDEN
 72
65
 73
2
 40
.375
 49
.25
 49
-.125
  0
LTYPE
  2
CENTER
 70
64
  3
CENTER
 72
65
 73
4
 40
2
 49
1.25
 49
-.25
 49
.25
 49
-.25
  0
LTYPE
  2
PHANTOM
 70
64
  3
PHANTOM
 72
65
 73
6
 40
2.5
 49
1.25
 49
-.25
 49
.25
 49
-.25
 49
.25
 49
-.25
  0
ENDTAB
  0
TABLE
  2
LAYER
 70
1
  0
LAYER
  2
1
 70
0
 62
7
  6
CONTINUOUS
 0
ENDTAB
  0
TABLE
  2
STYLE
 70
2
  0
STYLE
  2
MONOTXT
 70
0
 40
0
 41
1
 50
0
 71
0
 42
.2
  3
monotxt
  0
STYLE
  2
BIGFONT
 70
0
 40
0
 41
1
 50
0
 71
0
 42
.2
  3
txt
  4
bigfont
  0
ENDTAB
  0
ENDSEC
  0
SECTION
  2
ENTITIES
  0
LINE
  8
0
  6
PHANTOM
 10
-2.45000000E+01
 20
2.81313474E+01
 11
-2.45000000E+01
 21
1.94632131E+02
  0
LINE
  8
0
  6
PHANTOM
 10
1.38499941E+02
 20
2.81313474E+01
 11
1.38499941E+02
 21
1.99892459E+02
  0
ARC
  8
0
 62
7
 10
-1.39499998E+02
 20
1.23000000E+02
 40
5.00000000E-01
 50
9.00000265E+01
 51
1.80000022E+02
  0
LINE
  8
0
  6
CENTER
 62
2
 10
-1.97886106E+02
 20
1.00500000E+02
 11
2.81004061E+02
 21
1.00500000E+02
  0
LINE
  8
0
 62
7
 10
-1.18999998E+02
 20
4.56197205E+01
 11
-1.18999998E+02
 21
1.55380280E+02
  0
LINE
  8
0
 62
7
 10
2.80000019E+01
 20
4.45000610E+01
 11
2.80000019E+01
 21
1.56499939E+02
  0
LINE
  8
0
 62
7
 10
-1.20499998E+02
 20
1.25500000E+02
 11
-1.18999998E+02
 21
1.25500000E+02
  0
LINE
  8
0
 62
7
 10
-1.14999998E+02
 20
1.56500000E+02
 11
-8.29999981E+01
 21
1.56500000E+02
  0
LINE
  8
0
 62
7
 10
-1.14999998E+02
 20
1.55941437E+02
 11
-1.14999998E+02
 21
1.56499985E+02
  0
LINE
  8
0
 62
7
 10
-1.18508707E+02
 20
1.55880167E+02
 11
-8.29999981E+01
 21
1.56499973E+02
  0
LINE
  8
0
 62
7
 10
-1.34517450E+02
 20
1.24527890E+02
 11
-1.20999993E+02
 21
1.24999930E+02
  0
LINE
  8
0
 62
7
 10
-1.39999998E+02
 20
7.80000000E+01
 11
-1.39999998E+02
 21
1.23000000E+02
  0
LINE
  8
0
 62
7
 10
-1.39500059E+02
 20
1.23500015E+02
 11
-1.34999998E+02
 21
1.23500015E+02
  0
LINE
  8
0
 62
7
 10
-1.20999998E+02
 20
7.60000153E+01
 11
-1.20999998E+02
 21
1.24999985E+02
  0
LINE
  8
0
 62
7
 10
5.99999714E+01
 20
1.56500000E+02
 11
2.79999714E+01
 21
1.56500000E+02
  0
LINE
  8
0
 62
7
 10
6.00000019E+01
 20
1.55941437E+02
 11
6.00000019E+01
 21
1.56499985E+02
  0
LINE
  8
0
 62
7
 10
6.35087116E+01
 20
1.55880133E+02
 11
2.79999599E+01
 21
1.56499940E+02
  0
LINE
  8
0
  6
CENTER
 62
2
 10
1.03879610E+02
 20
1.42500000E+02
 11
-1.24610350E+02
 21
1.42500000E+02
  0
LINE
  8
0
 62
7
 10
-8.29999981E+01
 20
1.54000031E+02
 11
-9.99997902E+00
 21
1.54000031E+02
  0
LINE
  8
0
 62
7
 10
2.77000002E+02
 20
9.20000000E+01
 11
2.77000002E+02
 21
1.09000000E+02
  0
LINE
  8
0
 62
7
 10
2.75500002E+02
 20
1.10499985E+02
 11
2.72000002E+02
 21
1.10499985E+02
  0
LINE
  8
0
 62
7
 10
2.75499971E+02
 20
9.05000000E+01
 11
2.75499971E+02
 21
1.10500000E+02
  0
LINE
  8
0
 62
7
 10
2.76999823E+02
 20
1.08999785E+02
 11
2.75499756E+02
 21
1.10499852E+02
  0
LINE
  8
0
 62
2
 10
2.76320009E+02
 20
1.09679977E+02
 11
2.72000002E+02
 21
1.09679977E+02
  0
LINE
  8
0
 62
7
 10
2.70787539E+02
 20
1.16099991E+02
 11
2.61212435E+02
 21
1.16099991E+02
  0
LINE
  8
0
 62
7
 10
2.72000395E+02
 20
1.13999952E+02
 11
2.70787931E+02
 21
1.16100000E+02
  0
LINE
  8
0
 62
7
 10
2.61212597E+02
 20
1.16100038E+02
 11
2.60000118E+02
 21
1.13999963E+02
  0
LINE
  8
0
 62
7
 10
2.70787539E+02
 20
1.08299988E+02
 11
2.61212435E+02
 21
1.08299988E+02
  0
LINE
  8
0
 62
7
 10
2.72000002E+02
 20
1.14000000E+02
 11
2.72000002E+02
 21
8.70000000E+01
  0
LINE
  8
0
 62
7
 10
2.60000002E+02
 20
1.25500000E+02
 11
2.60000002E+02
 21
7.55000000E+01
  0
LINE
  8
0
 62
7
 10
2.75500002E+02
 20
9.04999847E+01
 11
2.72000002E+02
 21
9.04999847E+01
  0
LINE
  8
0
 62
7
 10
2.76999974E+02
 20
9.19999398E+01
 11
2.75500005E+02
 21
9.04999706E+01
  0
LINE
  8
0
 62
2
 10
2.76320009E+02
 20
9.13199921E+01
 11
2.72000002E+02
 21
9.13199921E+01
  0
LINE
  8
0
 62
7
 10
2.70787539E+02
 20
9.26999969E+01
 11
2.61212435E+02
 21
9.26999969E+01
  0
LINE
  8
0
 62
7
 10
2.72000200E+02
 20
8.69999825E+01
 11
2.70787737E+02
 21
8.48999342E+01
  0
LINE
  8
0
 62
7
 10
2.70787539E+02
 20
8.48999634E+01
 11
2.61212435E+02
 21
8.48999634E+01
  0
LINE
  8
0
 62
7
 10
2.61212911E+02
 20
8.49000555E+01
 11
2.60000450E+02
 21
8.70001005E+01
  0
LINE
  8
0
 62
7
 10
1.76000002E+02
 20
1.15500031E+02
 11
1.01000002E+02
 21
1.15500031E+02
  0
LINE
  8
0
 62
7
 10
6.40000019E+01
 20
1.55500000E+02
 11
9.90000019E+01
 21
1.55500000E+02
  0
LINE
  8
0
 62
7
 10
1.01000002E+02
 20
7.60000000E+01
 11
1.01000002E+02
 21
1.25000000E+02
  0
LINE
  8
0
 62
7
 10
1.00500002E+02
 20
1.25500000E+02
 11
9.90000019E+01
 21
1.25500000E+02
  0
LINE
  8
0
 62
7
 10
1.76000002E+02
 20
1.25500000E+02
 11
2.60000002E+02
 21
1.25500000E+02
  0
LINE
  8
0
 62
7
 10
1.76000002E+02
 20
7.55000000E+01
 11
1.76000002E+02
 21
1.25500000E+02
  0
LINE
  8
0
 62
7
 10
1.81000002E+02
 20
7.55000000E+01
 11
1.81000002E+02
 21
1.25500000E+02
  0
LINE
  8
0
 62
7
 10
9.90000019E+01
 20
4.55000000E+01
 11
9.90000019E+01
 21
1.55500000E+02
  0
LINE
  8
0
 62
7
 10
2.40000002E+02
 20
1.00500000E+02
 11
2.40000002E+02
 21
1.10297958E+02
  0
LINE
  8
0
 62
7
 10
2.40000002E+02
 20
1.10297958E+02
 11
2.60000002E+02
 21
1.10297958E+02
  0
LINE
  8
0
 62
7
 10
6.40000019E+01
 20
4.56197510E+01
 11
6.40000019E+01
 21
1.55380249E+02
  0
LINE
  8
0
 62
2
 10
2.39999995E+02
 20
1.10297955E+02
 11
2.49999990E+02
 21
1.00500001E+02
  0
LINE
  8
0
 62
2
 10
2.49999987E+02
 20
1.00500002E+02
 11
2.59999987E+02
 21
1.10297961E+02
  0
LINE
  8
0
 62
7
 10
1.00500002E+02
 20
7.55000000E+01
 11
9.90000019E+01
 21
7.55000000E+01
  0
LINE
  8
0
 62
7
 10
6.40000019E+01
 20
4.55000000E+01
 11
9.90000019E+01
 21
4.55000000E+01
  0
LINE
  8
0
 62
7
 10
1.76000002E+02
 20
8.54999695E+01
 11
1.01000002E+02
 21
8.54999695E+01
  0
LINE
  8
0
 62
7
 10
-8.29999981E+01
 20
4.69999695E+01
 11
2.80000019E+01
 21
4.69999695E+01
  0
LINE
  8
0
 62
7
 10
6.35087141E+01
 20
4.51198703E+01
 11
2.79999624E+01
 21
4.45000628E+01
  0
LINE
  8
0
 62
7
 10
6.00000019E+01
 20
4.50585632E+01
 11
6.00000019E+01
 21
4.45000153E+01
  0
LINE
  8
0
 62
7
 10
5.99999714E+01
 20
4.45000000E+01
 11
2.79999714E+01
 21
4.45000000E+01
  0
LINE
  8
0
 62
7
 10
-1.39500059E+02
 20
7.74999847E+01
 11
-1.34999998E+02
 21
7.74999847E+01
  0
LINE
  8
0
 62
7
 10
-1.34517445E+02
 20
7.64721056E+01
 11
-1.20999992E+02
 21
7.60000657E+01
  0
LINE
  8
0
 62
7
 10
-1.20499998E+02
 20
7.55000000E+01
 11
-1.18999998E+02
 21
7.55000000E+01
  0
LINE
  8
0
 62
7
 10
-1.18508709E+02
 20
4.51198365E+01
 11
-8.29999977E+01
 21
4.45000297E+01
  0
LINE
  8
0
 62
7
 10
-1.14999998E+02
 20
4.50585632E+01
 11
-1.14999998E+02
 21
4.45000153E+01
  0
LINE
  8
0
 62
7
 10
-1.14999998E+02
 20
4.45000000E+01
 11
-8.29999981E+01
 21
4.45000000E+01
  0
LINE
  8
0
 62
7
 10
-8.29999981E+01
 20
4.45000305E+01
 11
-8.29999981E+01
 21
1.56499969E+02
  0
LINE
  8
0
 62
2
 10
2.49999990E+02
 20
1.00500001E+02
 11
2.59999990E+02
 21
9.07020424E+01
  0
LINE
  8
0
 62
2
 10
2.39999997E+02
 20
9.07020322E+01
 11
2.49999998E+02
 21
1.00499991E+02
  0
LINE
  8
0
 62
7
 10
2.40000002E+02
 20
9.07020416E+01
 11
2.60000002E+02
 21
9.07020416E+01
  0
LINE
  8
0
 62
7
 10
2.40000002E+02
 20
1.00500000E+02
 11
2.40000002E+02
 21
9.07020416E+01
  0
LINE
  8
0
 62
7
 10
1.76000002E+02
 20
7.55000000E+01
 11
2.60000002E+02
 21
7.55000000E+01
  0
LINE
  8
0
  6
CENTER
 62
2
 10
1.03879610E+02
 20
5.85000000E+01
 11
-1.24610350E+02
 21
5.85000000E+01
  0
LINE
  8
0
  6
CENTER
 62
2
 10
-9.89999981E+01
 20
1.58722809E+02
 11
-9.89999981E+01
 21
1.37769028E+02
  0
LINE
  8
0
  6
CENTER
 62
2
 10
4.39999409E+01
 20
1.58467819E+02
 11
4.39999409E+01
 21
1.37378021E+02
  0
LINE
  8
0
 62
7
 10
-1.53999998E+02
 20
8.74999847E+01
 11
-1.53999998E+02
 21
1.13499985E+02
  0
LINE
  8
0
 62
7
 10
-1.49999983E+02
 20
8.54999619E+01
 11
-1.39999998E+02
 21
8.54999619E+01
  0
LINE
  8
0
 62
7
 10
-1.94000013E+02
 20
8.89999237E+01
 11
-1.94000013E+02
 21
1.11999695E+02
  0
LINE
  8
0
 62
7
 10
-1.56999998E+02
 20
8.74999847E+01
 11
-1.56999998E+02
 21
1.13499985E+02
  0
LINE
  8
0
 62
7
 10
-1.92500059E+02
 20
1.13499985E+02
 11
-1.82500029E+02
 21
1.13499985E+02
  0
LINE
  8
0
 62
7
 10
-1.92499998E+02
 20
8.74999847E+01
 11
-1.92499998E+02
 21
1.13499985E+02
  0
LINE
  8
0
 62
7
 10
-1.93999879E+02
 20
1.11999811E+02
 11
-1.92499861E+02
 21
1.13499828E+02
  0
LINE
  8
0
 62
2
 10
-1.93320066E+02
 20
1.12679977E+02
 11
-1.82500029E+02
 21
1.12679977E+02
  0
LINE
  8
0
 62
7
 10
-1.92500059E+02
 20
8.74999847E+01
 11
-1.82500029E+02
 21
8.74999847E+01
  0
LINE
  8
0
 62
7
 10
-1.94000062E+02
 20
8.89999696E+01
 11
-1.92500061E+02
 21
8.74999681E+01
  0
LINE
  8
0
 62
2
 10
-1.93320066E+02
 20
8.83199921E+01
 11
-1.82500029E+02
 21
8.83199921E+01
  0
LINE
  8
0
 62
7
 10
-1.49999983E+02
 20
1.15500046E+02
 11
-1.39999998E+02
 21
1.15500046E+02
  0
LINE
  8
0
 62
7
 10
-1.49999983E+02
 20
9.30166550E+01
 11
-1.49999983E+02
 21
8.54999619E+01
  0
LINE
  8
0
 62
7
 10
-1.49999983E+02
 20
1.07983383E+02
 11
-1.49999983E+02
 21
1.15500046E+02
  0
LINE
  8
0
 62
7
 10
-1.53999982E+02
 20
8.74999764E+01
 11
-1.49999979E+02
 21
8.54999622E+01
  0
LINE
  8
0
 62
7
 10
-1.53999968E+02
 20
1.13499979E+02
 11
-1.49999954E+02
 21
1.15500024E+02
  0
LINE
  8
0
 62
7
 10
-1.43999998E+02
 20
9.30166550E+01
 11
-1.43999998E+02
 21
1.07983383E+02
  0
LINE
  8
0
 62
7
 10
-1.49999983E+02
 20
9.30166550E+01
 11
-1.43999998E+02
 21
9.30166550E+01
  0
LINE
  8
0
 62
7
 10
-1.49999983E+02
 20
1.07983383E+02
 11
-1.43999998E+02
 21
1.07983383E+02
  0
LINE
  8
0
 62
7
 10
-1.49999994E+02
 20
9.30166653E+01
 11
-1.54000001E+02
 21
1.00500004E+02
  0
LINE
  8
0
 62
7
 10
-1.53999967E+02
 20
1.00499998E+02
 11
-1.49999951E+02
 21
1.07983367E+02
  0
LINE
  8
0
 62
2
 10
-1.43999990E+02
 20
1.07983371E+02
 11
-1.51777768E+02
 21
9.63425860E+01
  0
LINE
  8
0
 62
2
 10
-1.43999967E+02
 20
9.30166473E+01
 11
-1.51777754E+02
 21
1.04657445E+02
  0
LINE
  8
0
 62
7
 10
-1.56999998E+02
 20
1.12679977E+02
 11
-1.53999998E+02
 21
1.12679977E+02
  0
LINE
  8
0
 62
7
 10
-1.56999998E+02
 20
8.83199921E+01
 11
-1.53999998E+02
 21
8.83199921E+01
  0
ARC
  8
0
 62
7
 10
-1.20499998E+02
 20
1.25000000E+02
 40
5.00000000E-01
 50
9.00000300E+01
 51
1.80000019E+02
  0
ARC
  8
0
 62
7
 10
-1.18499998E+02
 20
1.55380280E+02
 40
5.00000000E-01
 50
9.10003249E+01
 51
1.80000019E+02
  0
ARC
  8
0
 62
7
 10
-1.34499998E+02
 20
1.24028275E+02
 40
5.00000000E-01
 50
9.20008106E+01
 51
1.80000019E+02
  0
ARC
  8
0
 62
7
 10
-1.39499998E+02
 20
7.80000000E+01
 40
5.00000000E-01
 50
1.79999977E+02
 51
2.69999974E+02
  0
ARC
  8
0
 62
7
 10
6.35000019E+01
 20
1.55380249E+02
 40
5.00000000E-01
 50
0.00000000E+00
 51
8.89996531E+01
  0
ARC
  8
0
 62
7
 10
2.66878542E+02
 20
8.87999878E+01
 40
6.87861586E+00
 50
1.45460285E+02
 51
2.14539603E+02
  0
ARC
  8
0
 62
7
 10
2.65121340E+02
 20
1.12200012E+02
 40
6.87861586E+00
 50
3.25460266E+02
 51
3.45395836E+01
  0
ARC
  8
0
 62
7
 10
2.66878542E+02
 20
1.12200012E+02
 40
6.87861586E+00
 50
1.45460490E+02
 51
2.14539807E+02
  0
ARC
  8
0
 62
7
 10
2.46304415E+02
 20
1.00499985E+02
 40
2.56955719E+01
 50
3.42328866E+02
 51
1.76711884E+01
  0
ARC
  8
0
 62
7
 10
2.85695528E+02
 20
1.00499985E+02
 40
2.56955719E+01
 50
1.62328885E+02
 51
1.97671207E+02
  0
ARC
  8
0
 62
7
 10
2.65121340E+02
 20
8.87999878E+01
 40
6.87861586E+00
 50
3.25460471E+02
 51
3.45397885E+01
  0
ARC
  8
0
 62
7
 10
1.00500002E+02
 20
1.25000000E+02
 40
5.00000000E-01
 50
0.00000000E+00
 51
8.99999818E+01
  0
ARC
  8
0
 62
7
 10
2.63000002E+02
 20
1.00500000E+02
 40
2.50000000E+01
 50
1.56926096E+02
 51
1.80000019E+02
  0
ARC
  8
0
 62
7
 10
1.00500002E+02
 20
7.60000000E+01
 40
5.00000000E-01
 50
2.70000018E+02
 51
0.00000000E+00
  0
ARC
  8
0
 62
7
 10
6.35000019E+01
 20
4.56197205E+01
 40
5.00000000E-01
 50
2.71000347E+02
 51
5.46415133E-05
  0
ARC
  8
0
 62
7
 10
-1.34499998E+02
 20
7.69717255E+01
 40
5.00000000E-01
 50
1.79999977E+02
 51
2.67999192E+02
  0
ARC
  8
0
 62
7
 10
-1.18499998E+02
 20
4.56197205E+01
 40
5.00000000E-01
 50
1.79999977E+02
 51
2.68999679E+02
  0
ARC
  8
0
 62
7
 10
-1.20499998E+02
 20
7.60000000E+01
 40
5.00000000E-01
 50
1.79999977E+02
 51
2.69999974E+02
  0
ARC
  8
0
 62
7
 10
2.63000002E+02
 20
1.00500000E+02
 40
2.50000000E+01
 50
1.79999977E+02
 51
2.03073901E+02
  0
ARC
  8
0
 62
7
 10
-1.56999998E+02
 20
1.00500015E+02
 40
1.50000248E+01
 50
3.30073440E+02
 51
2.99266002E+01
  0
ARC
  8
0
 62
4
 10
-1.73299074E+02
 20
1.16088455E+02
 40
9.20095253E+00
 50
1.45615726E+02
 51
2.14384256E+02
  0
ARC
  8
0
 62
4
 10
-1.48107763E+02
 20
1.00500000E+02
 40
3.43922653E+01
 50
1.62412050E+02
 51
1.97587933E+02
  0
ARC
  8
0
 62
4
 10
-1.73299074E+02
 20
8.49115448E+01
 40
9.20095253E+00
 50
1.45615726E+02
 51
2.14384256E+02
  0
ARC
  8
0
 62
4
 10
-1.77700983E+02
 20
1.16088455E+02
 40
9.20095253E+00
 50
3.25615707E+02
 51
3.43842378E+01
  0
ARC
  8
0
 62
4
 10
-2.02892294E+02
 20
1.00500000E+02
 40
3.43922653E+01
 50
3.42412030E+02
 51
1.75879147E+01
  0
ARC
  8
0
 62
4
 10
-1.77700983E+02
 20
8.49115448E+01
 40
9.20095253E+00
 50
3.25615707E+02
 51
3.43842378E+01
  0
LINE
  8
0
 62
4
 10
-1.68500060E+02
 20
8.24999970E+01
 11
-1.70107752E+02
 21
7.97154066E+01
  0
LINE
  8
0
 62
4
 10
-1.68500029E+02
 20
1.18500000E+02
 11
-1.68500029E+02
 21
8.25000000E+01
  0
LINE
  8
0
 62
4
 10
-1.68500028E+02
 20
1.18500012E+02
 11
-1.70107709E+02
 21
1.21284634E+02
  0
LINE
  8
0
 62
4
 10
-1.82500051E+02
 20
8.25000896E+01
 11
-1.80892347E+02
 21
7.97154821E+01
  0
LINE
  8
0
 62
4
 10
-1.82500038E+02
 20
1.18499999E+02
 11
-1.80892359E+02
 21
1.21284608E+02
  0
LINE
  8
0
 62
4
 10
-1.80892332E+02
 20
1.21284607E+02
 11
-1.70107725E+02
 21
1.21284607E+02
  0
LINE
  8
0
 62
4
 10
-1.80892332E+02
 20
1.10892303E+02
 11
-1.70107725E+02
 21
1.10892303E+02
  0
LINE
  8
0
 62
4
 10
-1.80892332E+02
 20
9.01076965E+01
 11
-1.70107725E+02
 21
9.01076965E+01
  0
LINE
  8
0
 62
4
 10
-1.80892332E+02
 20
7.97153931E+01
 11
-1.70107725E+02
 21
7.97153931E+01
  0
LINE
  8
0
 62
4
 10
-1.82500029E+02
 20
1.18500000E+02
 11
-1.82500029E+02
 21
8.25000000E+01
  0
LINE
  8
0
 62
7
 10
-1.68500029E+02
 20
1.13499985E+02
 11
-1.56999998E+02
 21
1.13499985E+02
  0
LINE
  8
0
 62
2
 10
-1.68500029E+02
 20
1.12679977E+02
 11
-1.56999998E+02
 21
1.12679977E+02
  0
LINE
  8
0
 62
7
 10
-1.68500029E+02
 20
8.74999847E+01
 11
-1.56999998E+02
 21
8.74999847E+01
  0
LINE
  8
0
 62
2
 10
-1.68500029E+02
 20
8.83199921E+01
 11
-1.56999998E+02
 21
8.83199921E+01
  0
LINE
  8
0
 62
7
 10
-1.34999998E+02
 20
7.69367523E+01
 11
-1.34999998E+02
 21
1.24063248E+02
  0
LINE
  8
0
 62
7
 10
2.79999409E+01
 20
1.47000061E+02
 11
2.00000210E+01
 21
1.47000061E+02
  0
LINE
  8
0
 62
7
 10
2.79999409E+01
 20
1.38000000E+02
 11
5.00002098E+00
 21
1.38000000E+02
  0
LINE
  8
0
 62
7
 10
2.79999409E+01
 20
6.30000000E+01
 11
-8.30000286E+01
 21
6.30000000E+01
  0
LINE
  8
0
 62
7
 10
2.79999409E+01
 20
5.39999542E+01
 11
-8.30000286E+01
 21
5.39999542E+01
  0
LINE
  8
0
 62
4
 10
-9.99997900E+00
 20
1.52920416E+02
 11
-1.91339536E+01
 21
1.52920416E+02
  0
LINE
  8
0
 62
4
 10
-9.99997900E+00
 20
1.49920416E+02
 11
-2.08660044E+01
 21
1.49920416E+02
  0
LINE
  8
0
 62
6
 10
-1.82679282E+01
 20
1.54420416E+02
 11
-2.17320298E+01
 21
1.48420416E+02
  0
LINE
  8
0
  6
CENTER
 62
6
 10
-2.45000000E+01
 20
1.51420416E+02
 11
2.50000210E+01
 21
1.51420416E+02
  0
POLYLINE
  8
0
 62
4
 66
1
  0
VERTEX
  8
0
 62
4
 10
-5.24777176E+01
 20
1.54000012E+02
  0
VERTEX
  8
0
 62
4
 10
-5.21450090E+01
 20
1.54135027E+02
  0
VERTEX
  8
0
 62
4
 10
-5.18265942E+01
 20
1.54296071E+02
  0
VERTEX
  8
0
 62
4
 10
-5.15249269E+01
 20
1.54481906E+02
  0
VERTEX
  8
0
 62
4
 10
-5.12423315E+01
 20
1.54691097E+02
  0
VERTEX
  8
0
 62
4
 10
-5.09809856E+01
 20
1.54922034E+02
  0
VERTEX
  8
0
 62
4
 10
-5.07429030E+01
 20
1.55172937E+02
  0
VERTEX
  8
0
 62
4
 10
-5.05299183E+01
 20
1.55441872E+02
  0
VERTEX
  8
0
 62
4
 10
-5.03436727E+01
 20
1.55726768E+02
  0
VERTEX
  8
0
 62
4
 10
-5.01856013E+01
 20
1.56025428E+02
  0
VERTEX
  8
0
 62
4
 10
-5.00569222E+01
 20
1.56335552E+02
  0
VERTEX
  8
0
 62
4
 10
-4.99586268E+01
 20
1.56654750E+02
  0
VERTEX
  8
0
 62
4
 10
-4.98914727E+01
 20
1.56980562E+02
  0
VERTEX
  8
0
 62
4
 10
-4.98559773E+01
 20
1.57310478E+02
  0
VERTEX
  8
0
 62
4
 10
-4.98524140E+01
 20
1.57641955E+02
  0
VERTEX
  8
0
 62
4
 10
-4.98808105E+01
 20
1.57972440E+02
  0
VERTEX
  8
0
 62
4
 10
-4.99409477E+01
 20
1.58299385E+02
  0
VERTEX
  8
0
 62
4
 10
-5.00323625E+01
 20
1.58620271E+02
  0
VERTEX
  8
0
 62
4
 10
-5.01543503E+01
 20
1.58932626E+02
  0
VERTEX
  8
0
 62
4
 10
-5.03059711E+01
 20
1.59234043E+02
  0
VERTEX
  8
0
 62
4
 10
-5.04860567E+01
 20
1.59522199E+02
  0
VERTEX
  8
0
 62
4
 10
-5.06932193E+01
 20
1.59794874E+02
  0
VERTEX
  8
0
 62
4
 10
-5.09258627E+01
 20
1.60049967E+02
  0
VERTEX
  8
0
 62
4
 10
-5.11821941E+01
 20
1.60285512E+02
  0
VERTEX
  8
0
 62
4
 10
-5.14602385E+01
 20
1.60499694E+02
  0
VERTEX
  8
0
 62
4
 10
-5.17578532E+01
 20
1.60690862E+02
  0
VERTEX
  8
0
 62
4
 10
-5.20727450E+01
 20
1.60857544E+02
  0
VERTEX
  8
0
 62
4
 10
-5.24024875E+01
 20
1.60998455E+02
  0
VERTEX
  8
0
 62
4
 10
-5.27445398E+01
 20
1.61112509E+02
  0
VERTEX
  8
0
 62
4
 10
-5.30962661E+01
 20
1.61198828E+02
  0
VERTEX
  8
0
 62
4
 10
-5.34549563E+01
 20
1.61256747E+02
  0
VERTEX
  8
0
 62
4
 10
-5.38178463E+01
 20
1.61285818E+02
  0
VERTEX
  8
0
 62
4
 10
-5.41821400E+01
 20
1.61285818E+02
  0
VERTEX
  8
0
 62
4
 10
-5.45450301E+01
 20
1.61256748E+02
  0
VERTEX
  8
0
 62
4
 10
-5.49037204E+01
 20
1.61198830E+02
  0
VERTEX
  8
0
 62
4
 10
-5.52554470E+01
 20
1.61112512E+02
  0
VERTEX
  8
0
 62
4
 10
-5.55974995E+01
 20
1.60998458E+02
  0
VERTEX
  8
0
 62
4
 10
-5.59272424E+01
 20
1.60857548E+02
  0
VERTEX
  8
0
 62
4
 10
-5.62421347E+01
 20
1.60690867E+02
  0
VERTEX
  8
0
 62
4
 10
-5.65397499E+01
 20
1.60499699E+02
  0
VERTEX
  8
0
 62
4
 10
-5.68177948E+01
 20
1.60285518E+02
  0
VERTEX
  8
0
 62
4
 10
-5.70741269E+01
 20
1.60049974E+02
  0
VERTEX
  8
0
 62
4
 10
-5.73067709E+01
 20
1.59794882E+02
  0
VERTEX
  8
0
 62
4
 10
-5.75139343E+01
 20
1.59522207E+02
  0
VERTEX
  8
0
 62
4
 10
-5.76940206E+01
 20
1.59234051E+02
  0
VERTEX
  8
0
 62
4
 10
-5.78456422E+01
 20
1.58932635E+02
  0
VERTEX
  8
0
 62
4
 10
-5.79676308E+01
 20
1.58620280E+02
  0
VERTEX
  8
0
 62
4
 10
-5.80590464E+01
 20
1.58299393E+02
  0
VERTEX
  8
0
 62
4
 10
-5.81191845E+01
 20
1.57972449E+02
  0
VERTEX
  8
0
 62
4
 10
-5.81475818E+01
 20
1.57641964E+02
  0
VERTEX
  8
0
 62
4
 10
-5.81440195E+01
 20
1.57310487E+02
  0
VERTEX
  8
0
 62
4
 10
-5.81085249E+01
 20
1.56980571E+02
  0
VERTEX
  8
0
 62
4
 10
-5.80413716E+01
 20
1.56654759E+02
  0
VERTEX
  8
0
 62
4
 10
-5.79430771E+01
 20
1.56335561E+02
  0
VERTEX
  8
0
 62
4
 10
-5.78143988E+01
 20
1.56025436E+02
  0
VERTEX
  8
0
 62
4
 10
-5.76563282E+01
 20
1.55726776E+02
  0
VERTEX
  8
0
 62
4
 10
-5.74700833E+01
 20
1.55441880E+02
  0
VERTEX
  8
0
 62
4
 10
-5.72570994E+01
 20
1.55172944E+02
  0
VERTEX
  8
0
 62
4
 10
-5.70190174E+01
 20
1.54922041E+02
  0
VERTEX
  8
0
 62
4
 10
-5.67576721E+01
 20
1.54691103E+02
  0
VERTEX
  8
0
 62
4
 10
-5.64750773E+01
 20
1.54481911E+02
  0
VERTEX
  8
0
 62
4
 10
-5.61734104E+01
 20
1.54296076E+02
  0
VERTEX
  8
0
 62
4
 10
-5.58549961E+01
 20
1.54135031E+02
  0
VERTEX
  8
0
 62
4
 10
-5.55222879E+01
 20
1.54000015E+02
  0
SEQEND
  8
0
  0
POLYLINE
  8
0
 62
4
 66
1
  0
VERTEX
  8
0
 62
4
 10
-5.11951388E+01
 20
1.54000016E+02
  0
VERTEX
  8
0
 62
4
 10
-5.09258007E+01
 20
1.54246471E+02
  0
VERTEX
  8
0
 62
4
 10
-5.06825052E+01
 20
1.54514416E+02
  0
VERTEX
  8
0
 62
4
 10
-5.04673133E+01
 20
1.54801581E+02
  0
VERTEX
  8
0
 62
4
 10
-5.02820481E+01
 20
1.55105533E+02
  0
VERTEX
  8
0
 62
4
 10
-5.01282789E+01
 20
1.55423698E+02
  0
VERTEX
  8
0
 62
4
 10
-5.00073084E+01
 20
1.55753381E+02
  0
VERTEX
  8
0
 62
4
 10
-4.99201614E+01
 20
1.56091788E+02
  0
VERTEX
  8
0
 62
4
 10
-4.98675762E+01
 20
1.56436052E+02
  0
VERTEX
  8
0
 62
4
 10
-4.98499981E+01
 20
1.56783258E+02
  0
SEQEND
  8
0
  0
LINE
  8
0
 62
4
 10
-3.89999981E+01
 20
1.54000015E+02
 11
-3.89999981E+01
 21
1.63905365E+02
  0
LINE
  8
0
 62
4
 10
-4.54999981E+01
 20
1.54069725E+02
 11
-4.54999981E+01
 21
1.54000015E+02
  0
LINE
  8
0
 62
4
 10
-6.89999981E+01
 20
1.63905365E+02
 11
-6.89999981E+01
 21
1.54069725E+02
  0
LINE
  8
0
  6
CENTER
 62
6
 10
-4.93499981E+01
 20
1.56625674E+02
 11
-5.86499981E+01
 21
1.56625674E+02
  0
LINE
  8
0
  6
CENTER
 62
6
 10
-5.39999981E+01
 20
1.61275674E+02
 11
-5.39999981E+01
 21
1.51975674E+02
  0
LINE
  8
0
  6
CENTER
 62
6
 10
-5.79254012E+01
 20
1.59810539E+02
 11
-6.50745950E+01
 21
1.59810539E+02
  0
LINE
  8
0
  6
CENTER
 62
6
 10
-6.14999981E+01
 20
1.63385136E+02
 11
-6.14999981E+01
 21
1.56235942E+02
  0
LINE
  8
0
  6
CENTER
 62
6
 10
-4.16999981E+01
 20
1.59810539E+02
 11
-5.12999981E+01
 21
1.59810539E+02
  0
LINE
  8
0
  6
CENTER
 62
6
 10
-4.64999981E+01
 20
1.64610539E+02
 11
-4.64999981E+01
 21
1.55010539E+02
  0
LINE
  8
0
 62
4
 10
5.00002098E+00
 20
1.31767706E+02
 11
5.00002098E+00
 21
1.59634024E+02
  0
LINE
  8
0
 62
4
 10
-9.99997902E+00
 20
1.31767706E+02
 11
-9.99997902E+00
 21
1.63905365E+02
  0
LINE
  8
0
 62
4
 10
2.00000210E+01
 20
1.63905365E+02
 11
2.00000210E+01
 21
1.44908767E+02
  0
LINE
  8
0
  6
CENTER
 62
6
 10
1.50002098E+00
 20
1.32330530E+02
 11
1.50002098E+00
 21
1.39330530E+02
  0
LINE
  8
0
  6
CENTER
 62
6
 10
-9.99997902E+00
 20
1.35830530E+02
 11
-2.99997902E+00
 21
1.35830530E+02
  0
LINE
  8
0
  6
CENTER
 62
6
 10
-6.49997902E+00
 20
1.32330530E+02
 11
-6.49997902E+00
 21
1.39330530E+02
  0
LINE
  8
0
  6
CENTER
 62
6
 10
-1.99997902E+00
 20
1.35830530E+02
 11
5.00002098E+00
 21
1.35830530E+02
  0
LINE
  8
0
 62
4
 10
-6.89999981E+01
 20
1.63905365E+02
 11
-3.89999981E+01
 21
1.63905365E+02
  0
LINE
  8
0
 62
4
 10
-9.99997902E+00
 20
1.63905365E+02
 11
2.00000210E+01
 21
1.63905365E+02
  0
LINE
  8
0
 62
4
 10
-9.99997904E+00
 20
1.59634024E+02
 11
2.00000210E+01
 21
1.59634024E+02
  0
LINE
  8
0
 62
4
 10
-9.99997904E+00
 20
1.56731172E+02
 11
5.00002096E+00
 21
1.56731172E+02
  0
LINE
  8
0
 62
4
 10
-8.99997898E+00
 20
1.42592275E+02
 11
4.00002100E+00
 21
1.42592275E+02
  0
LINE
  8
0
 62
4
 10
5.00002096E+00
 20
1.44908767E+02
 11
2.00000210E+01
 21
1.44908767E+02
  0
LINE
  8
0
 62
4
 10
-9.99997904E+00
 20
1.31767706E+02
 11
5.00002096E+00
 21
1.31767706E+02
  0
LINE
  8
0
 62
4
 10
5.00002096E+00
 20
1.51899353E+02
 11
2.00000210E+01
 21
1.51899353E+02
  0
LINE
  8
0
 62
4
 10
5.00002096E+00
 20
1.51733476E+02
 11
2.00000210E+01
 21
1.51733476E+02
  0
LINE
  8
0
  6
CENTER
 62
6
 10
1.60746179E+01
 20
1.55539199E+02
 11
8.92542409E+00
 21
1.55539199E+02
  0
LINE
  8
0
  6
CENTER
 62
6
 10
1.25000210E+01
 20
1.59113795E+02
 11
1.25000210E+01
 21
1.51964602E+02
  0
POLYLINE
  8
0
 62
4
 66
1
  0
VERTEX
  8
0
 62
4
 10
1.47500210E+01
 20
1.55539199E+02
  0
VERTEX
  8
0
 62
4
 10
1.47414591E+01
 20
1.55717643E+02
  0
VERTEX
  8
0
 62
4
 10
1.47158384E+01
 20
1.55894729E+02
  0
VERTEX
  8
0
 62
4
 10
1.46733541E+01
 20
1.56069108E+02
  0
VERTEX
  8
0
 62
4
 10
1.46143294E+01
 20
1.56239455E+02
  0
VERTEX
  8
0
 62
4
 10
1.45392135E+01
 20
1.56404473E+02
  0
VERTEX
  8
0
 62
4
 10
1.44485782E+01
 20
1.56562905E+02
  0
VERTEX
  8
0
 62
4
 10
1.43431131E+01
 20
1.56713547E+02
  0
VERTEX
  8
0
 62
4
 10
1.42236210E+01
 20
1.56855251E+02
  0
VERTEX
  8
0
 62
4
 10
1.40910113E+01
 20
1.56986939E+02
  0
VERTEX
  8
0
 62
4
 10
1.39462931E+01
 20
1.57107608E+02
  0
VERTEX
  8
0
 62
4
 10
1.37905680E+01
 20
1.57216341E+02
  0
VERTEX
  8
0
 62
4
 10
1.36250210E+01
 20
1.57312311E+02
  0
VERTEX
  8
0
 62
4
 10
1.34509121E+01
 20
1.57394785E+02
  0
VERTEX
  8
0
 62
4
 10
1.32695663E+01
 20
1.57463138E+02
  0
VERTEX
  8
0
 62
4
 10
1.30823639E+01
 20
1.57516848E+02
  0
VERTEX
  8
0
 62
4
 10
1.28907294E+01
 20
1.57555507E+02
  0
VERTEX
  8
0
 62
4
 10
1.26961214E+01
 20
1.57578821E+02
  0
VERTEX
  8
0
 62
4
 10
1.25000210E+01
 20
1.57586612E+02
  0
VERTEX
  8
0
 62
4
 10
1.23039206E+01
 20
1.57578821E+02
  0
VERTEX
  8
0
 62
4
 10
1.21093126E+01
 20
1.57555507E+02
  0
VERTEX
  8
0
 62
4
 10
1.19176781E+01
 20
1.57516848E+02
  0
VERTEX
  8
0
 62
4
 10
1.17304757E+01
 20
1.57463138E+02
  0
VERTEX
  8
0
 62
4
 10
1.15491299E+01
 20
1.57394785E+02
  0
VERTEX
  8
0
 62
4
 10
1.13750210E+01
 20
1.57312311E+02
  0
VERTEX
  8
0
 62
4
 10
1.12094740E+01
 20
1.57216341E+02
  0
VERTEX
  8
0
 62
4
 10
1.10537489E+01
 20
1.57107608E+02
  0
VERTEX
  8
0
 62
4
 10
1.09090307E+01
 20
1.56986939E+02
  0
VERTEX
  8
0
 62
4
 10
1.07764210E+01
 20
1.56855251E+02
  0
VERTEX
  8
0
 62
4
 10
1.06569289E+01
 20
1.56713547E+02
  0
VERTEX
  8
0
 62
4
 10
1.05514638E+01
 20
1.56562905E+02
  0
VERTEX
  8
0
 62
4
 10
1.04608285E+01
 20
1.56404473E+02
  0
VERTEX
  8
0
 62
4
 10
1.03857126E+01
 20
1.56239455E+02
  0
VERTEX
  8
0
 62
4
 10
1.03266879E+01
 20
1.56069108E+02
  0
VERTEX
  8
0
 62
4
 10
1.02842036E+01
 20
1.55894729E+02
  0
VERTEX
  8
0
 62
4
 10
1.02585829E+01
 20
1.55717643E+02
  0
VERTEX
  8
0
 62
4
 10
1.02500210E+01
 20
1.55539199E+02
  0
VERTEX
  8
0
 62
4
 10
1.02585829E+01
 20
1.55360755E+02
  0
VERTEX
  8
0
 62
4
 10
1.02842036E+01
 20
1.55183669E+02
  0
VERTEX
  8
0
 62
4
 10
1.03266879E+01
 20
1.55009290E+02
  0
VERTEX
  8
0
 62
4
 10
1.03857126E+01
 20
1.54838943E+02
  0
VERTEX
  8
0
 62
4
 10
1.04608285E+01
 20
1.54673925E+02
  0
VERTEX
  8
0
 62
4
 10
1.05514638E+01
 20
1.54515493E+02
  0
VERTEX
  8
0
 62
4
 10
1.06569289E+01
 20
1.54364851E+02
  0
VERTEX
  8
0
 62
4
 10
1.07764210E+01
 20
1.54223147E+02
  0
VERTEX
  8
0
 62
4
 10
1.09090307E+01
 20
1.54091459E+02
  0
VERTEX
  8
0
 62
4
 10
1.10537489E+01
 20
1.53970790E+02
  0
VERTEX
  8
0
 62
4
 10
1.12094740E+01
 20
1.53862057E+02
  0
VERTEX
  8
0
 62
4
 10
1.13750210E+01
 20
1.53766087E+02
  0
VERTEX
  8
0
 62
4
 10
1.15491299E+01
 20
1.53683613E+02
  0
VERTEX
  8
0
 62
4
 10
1.17304757E+01
 20
1.53615260E+02
  0
VERTEX
  8
0
 62
4
 10
1.19176782E+01
 20
1.53561550E+02
  0
VERTEX
  8
0
 62
4
 10
1.21093126E+01
 20
1.53522891E+02
  0
VERTEX
  8
0
 62
4
 10
1.23039206E+01
 20
1.53499577E+02
  0
VERTEX
  8
0
 62
4
 10
1.25000210E+01
 20
1.53491786E+02
  0
VERTEX
  8
0
 62
4
 10
1.26961214E+01
 20
1.53499577E+02
  0
VERTEX
  8
0
 62
4
 10
1.28907294E+01
 20
1.53522891E+02
  0
VERTEX
  8
0
 62
4
 10
1.30823639E+01
 20
1.53561550E+02
  0
VERTEX
  8
0
 62
4
 10
1.32695663E+01
 20
1.53615260E+02
  0
VERTEX
  8
0
 62
4
 10
1.34509121E+01
 20
1.53683613E+02
  0
VERTEX
  8
0
 62
4
 10
1.36250210E+01
 20
1.53766087E+02
  0
VERTEX
  8
0
 62
4
 10
1.37905680E+01
 20
1.53862057E+02
  0
VERTEX
  8
0
 62
4
 10
1.39462931E+01
 20
1.53970790E+02
  0
VERTEX
  8
0
 62
4
 10
1.40910113E+01
 20
1.54091459E+02
  0
VERTEX
  8
0
 62
4
 10
1.42236210E+01
 20
1.54223147E+02
  0
VERTEX
  8
0
 62
4
 10
1.43431131E+01
 20
1.54364851E+02
  0
VERTEX
  8
0
 62
4
 10
1.44485782E+01
 20
1.54515493E+02
  0
VERTEX
  8
0
 62
4
 10
1.45392135E+01
 20
1.54673925E+02
  0
VERTEX
  8
0
 62
4
 10
1.46143294E+01
 20
1.54838943E+02
  0
VERTEX
  8
0
 62
4
 10
1.46733541E+01
 20
1.55009290E+02
  0
VERTEX
  8
0
 62
4
 10
1.47158384E+01
 20
1.55183669E+02
  0
VERTEX
  8
0
 62
4
 10
1.47414591E+01
 20
1.55360755E+02
  0
VERTEX
  8
0
 62
4
 10
1.47500210E+01
 20
1.55539199E+02
  0
SEQEND
  8
0
  0
POLYLINE
  8
0
 62
4
 66
1
  0
VERTEX
  8
0
 62
4
 10
3.50002098E+00
 20
1.35830530E+02
  0
VERTEX
  8
0
 62
4
 10
3.49196957E+00
 20
1.35993667E+02
  0
VERTEX
  8
0
 62
4
 10
3.46788016E+00
 20
1.36155490E+02
  0
VERTEX
  8
0
 62
4
 10
3.42794671E+00
 20
1.36314696E+02
  0
VERTEX
  8
0
 62
4
 10
3.37249073E+00
 20
1.36470005E+02
  0
VERTEX
  8
0
 62
4
 10
3.30195872E+00
 20
1.36620165E+02
  0
VERTEX
  8
0
 62
4
 10
3.21691857E+00
 20
1.36763967E+02
  0
VERTEX
  8
0
 62
4
 10
3.11805498E+00
 20
1.36900254E+02
  0
VERTEX
  8
0
 62
4
 10
3.00616392E+00
 20
1.37027927E+02
  0
VERTEX
  8
0
 62
4
 10
2.88214629E+00
 20
1.37145961E+02
  0
VERTEX
  8
0
 62
4
 10
2.74700060E+00
 20
1.37253403E+02
  0
VERTEX
  8
0
 62
4
 10
2.60181496E+00
 20
1.37349389E+02
  0
VERTEX
  8
0
 62
4
 10
2.44775832E+00
 20
1.37433146E+02
  0
VERTEX
  8
0
 62
4
 10
2.28607106E+00
 20
1.37503999E+02
  0
VERTEX
  8
0
 62
4
 10
2.11805498E+00
 20
1.37561379E+02
  0
VERTEX
  8
0
 62
4
 10
1.94506286E+00
 20
1.37604823E+02
  0
VERTEX
  8
0
 62
4
 10
1.76848753E+00
 20
1.37633982E+02
  0
VERTEX
  8
0
 62
4
 10
1.58975066E+00
 20
1.37648620E+02
  0
VERTEX
  8
0
 62
4
 10
1.41029134E+00
 20
1.37648620E+02
  0
VERTEX
  8
0
 62
4
 10
1.23155447E+00
 20
1.37633982E+02
  0
VERTEX
  8
0
 62
4
 10
1.05497913E+00
 20
1.37604823E+02
  0
VERTEX
  8
0
 62
4
 10
8.81987008E-01
 20
1.37561379E+02
  0
VERTEX
  8
0
 62
4
 10
7.13970933E-01
 20
1.37503999E+02
  0
VERTEX
  8
0
 62
4
 10
5.52283671E-01
 20
1.37433146E+02
  0
VERTEX
  8
0
 62
4
 10
3.98227033E-01
 20
1.37349389E+02
  0
VERTEX
  8
0
 62
4
 10
2.53041391E-01
 20
1.37253403E+02
  0
VERTEX
  8
0
 62
4
 10
1.17895696E-01
 20
1.37145961E+02
  0
VERTEX
  8
0
 62
4
 10
-6.12193934E-03
 20
1.37027927E+02
  0
VERTEX
  8
0
 62
4
 10
-1.18012997E-01
 20
1.36900254E+02
  0
VERTEX
  8
0
 62
4
 10
-2.16876597E-01
 20
1.36763967E+02
  0
VERTEX
  8
0
 62
4
 10
-3.01916747E-01
 20
1.36620165E+02
  0
VERTEX
  8
0
 62
4
 10
-3.72448754E-01
 20
1.36470005E+02
  0
VERTEX
  8
0
 62
4
 10
-4.27904736E-01
 20
1.36314696E+02
  0
VERTEX
  8
0
 62
4
 10
-4.67838194E-01
 20
1.36155490E+02
  0
VERTEX
  8
0
 62
4
 10
-4.91927606E-01
 20
1.35993667E+02
  0
VERTEX
  8
0
 62
4
 10
-4.99979020E-01
 20
1.35830530E+02
  0
SEQEND
  8
0
  0
LINE
  8
0
 62
4
 10
-4.99979019E-01
 20
1.34195613E+02
 11
-4.99979019E-01
 21
1.35830530E+02
  0
POLYLINE
  8
0
 62
4
 66
1
  0
VERTEX
  8
0
 62
4
 10
-4.99979020E-01
 20
1.34195613E+02
  0
VERTEX
  8
0
 62
4
 10
-4.92368417E-01
 20
1.34036996E+02
  0
VERTEX
  8
0
 62
4
 10
-4.69594527E-01
 20
1.33879587E+02
  0
VERTEX
  8
0
 62
4
 10
-4.31830674E-01
 20
1.33724582E+02
  0
VERTEX
  8
0
 62
4
 10
-3.79364264E-01
 20
1.33573163E+02
  0
VERTEX
  8
0
 62
4
 10
-3.12594597E-01
 20
1.33426481E+02
  0
VERTEX
  8
0
 62
4
 10
-2.32029831E-01
 20
1.33285652E+02
  0
VERTEX
  8
0
 62
4
 10
-1.38283112E-01
 20
1.33151748E+02
  0
VERTEX
  8
0
 62
4
 10
-3.20679100E-02
 20
1.33025789E+02
  0
VERTEX
  8
0
 62
4
 10
8.58074135E-02
 20
1.32908733E+02
  0
VERTEX
  8
0
 62
4
 10
2.14445756E-01
 20
1.32801472E+02
  0
VERTEX
  8
0
 62
4
 10
3.52868103E-01
 20
1.32704820E+02
  0
VERTEX
  8
0
 62
4
 10
5.00020975E-01
 20
1.32619514E+02
  0
VERTEX
  8
0
 62
4
 10
6.54784452E-01
 20
1.32546203E+02
  0
VERTEX
  8
0
 62
4
 10
8.15980688E-01
 20
1.32485445E+02
  0
VERTEX
  8
0
 62
4
 10
9.82382885E-01
 20
1.32437703E+02
  0
VERTEX
  8
0
 62
4
 10
1.15272462E+00
 20
1.32403339E+02
  0
VERTEX
  8
0
 62
4
 10
1.32570949E+00
 20
1.32382616E+02
  0
VERTEX
  8
0
 62
4
 10
1.50002097E+00
 20
1.32375691E+02
  0
VERTEX
  8
0
 62
4
 10
1.67433246E+00
 20
1.32382616E+02
  0
VERTEX
  8
0
 62
4
 10
1.84731733E+00
 20
1.32403339E+02
  0
VERTEX
  8
0
 62
4
 10
2.01765907E+00
 20
1.32437703E+02
  0
VERTEX
  8
0
 62
4
 10
2.18406126E+00
 20
1.32485445E+02
  0
VERTEX
  8
0
 62
4
 10
2.34525750E+00
 20
1.32546203E+02
  0
VERTEX
  8
0
 62
4
 10
2.50002098E+00
 20
1.32619514E+02
  0
VERTEX
  8
0
 62
4
 10
2.64717385E+00
 20
1.32704820E+02
  0
VERTEX
  8
0
 62
4
 10
2.78559620E+00
 20
1.32801471E+02
  0
VERTEX
  8
0
 62
4
 10
2.91423454E+00
 20
1.32908733E+02
  0
VERTEX
  8
0
 62
4
 10
3.03210986E+00
 20
1.33025789E+02
  0
VERTEX
  8
0
 62
4
 10
3.13832507E+00
 20
1.33151748E+02
  0
VERTEX
  8
0
 62
4
 10
3.23207179E+00
 20
1.33285652E+02
  0
VERTEX
  8
0
 62
4
 10
3.31263655E+00
 20
1.33426481E+02
  0
VERTEX
  8
0
 62
4
 10
3.37940622E+00
 20
1.33573163E+02
  0
VERTEX
  8
0
 62
4
 10
3.43187263E+00
 20
1.33724582E+02
  0
VERTEX
  8
0
 62
4
 10
3.46963649E+00
 20
1.33879587E+02
  0
VERTEX
  8
0
 62
4
 10
3.49241038E+00
 20
1.34036996E+02
  0
VERTEX
  8
0
 62
4
 10
3.50002098E+00
 20
1.34195613E+02
  0
VERTEX
  8
0
 62
4
 10
3.49241038E+00
 20
1.34354230E+02
  0
VERTEX
  8
0
 62
4
 10
3.46963649E+00
 20
1.34511639E+02
  0
VERTEX
  8
0
 62
4
 10
3.43187263E+00
 20
1.34666644E+02
  0
VERTEX
  8
0
 62
4
 10
3.37940622E+00
 20
1.34818063E+02
  0
VERTEX
  8
0
 62
4
 10
3.31263656E+00
 20
1.34964745E+02
  0
VERTEX
  8
0
 62
4
 10
3.23207179E+00
 20
1.35105574E+02
  0
VERTEX
  8
0
 62
4
 10
3.13832507E+00
 20
1.35239478E+02
  0
VERTEX
  8
0
 62
4
 10
3.03210987E+00
 20
1.35365437E+02
  0
VERTEX
  8
0
 62
4
 10
2.91423454E+00
 20
1.35482493E+02
  0
VERTEX
  8
0
 62
4
 10
2.78559620E+00
 20
1.35589755E+02
  0
VERTEX
  8
0
 62
4
 10
2.64717386E+00
 20
1.35686406E+02
  0
VERTEX
  8
0
 62
4
 10
2.50002098E+00
 20
1.35771712E+02
  0
VERTEX
  8
0
 62
4
 10
2.34525751E+00
 20
1.35845023E+02
  0
VERTEX
  8
0
 62
4
 10
2.18406127E+00
 20
1.35905781E+02
  0
VERTEX
  8
0
 62
4
 10
2.01765907E+00
 20
1.35953523E+02
  0
VERTEX
  8
0
 62
4
 10
1.84731734E+00
 20
1.35987887E+02
  0
VERTEX
  8
0
 62
4
 10
1.67433247E+00
 20
1.36008610E+02
  0
VERTEX
  8
0
 62
4
 10
1.50002098E+00
 20
1.36015535E+02
  0
VERTEX
  8
0
 62
4
 10
1.32570950E+00
 20
1.36008610E+02
  0
VERTEX
  8
0
 62
4
 10
1.15272463E+00
 20
1.35987887E+02
  0
VERTEX
  8
0
 62
4
 10
9.82382892E-01
 20
1.35953523E+02
  0
VERTEX
  8
0
 62
4
 10
8.15980695E-01
 20
1.35905781E+02
  0
VERTEX
  8
0
 62
4
 10
6.54784458E-01
 20
1.35845023E+02
  0
VERTEX
  8
0
 62
4
 10
5.00020982E-01
 20
1.35771712E+02
  0
VERTEX
  8
0
 62
4
 10
3.52868109E-01
 20
1.35686406E+02
  0
VERTEX
  8
0
 62
4
 10
2.14445762E-01
 20
1.35589755E+02
  0
VERTEX
  8
0
 62
4
 10
8.58074188E-02
 20
1.35482493E+02
  0
VERTEX
  8
0
 62
4
 10
-3.20679053E-02
 20
1.35365437E+02
  0
VERTEX
  8
0
 62
4
 10
-1.38283108E-01
 20
1.35239478E+02
  0
VERTEX
  8
0
 62
4
 10
-2.32029827E-01
 20
1.35105574E+02
  0
VERTEX
  8
0
 62
4
 10
-3.12594594E-01
 20
1.34964745E+02
  0
VERTEX
  8
0
 62
4
 10
-3.79364261E-01
 20
1.34818063E+02
  0
VERTEX
  8
0
 62
4
 10
-4.31830672E-01
 20
1.34666644E+02
  0
VERTEX
  8
0
 62
4
 10
-4.69594526E-01
 20
1.34511639E+02
  0
VERTEX
  8
0
 62
4
 10
-4.92368416E-01
 20
1.34354230E+02
  0
VERTEX
  8
0
 62
4
 10
-4.99979020E-01
 20
1.34195613E+02
  0
SEQEND
  8
0
  0
LINE
  8
0
 62
4
 10
3.50002098E+00
 20
1.34195613E+02
 11
3.50002098E+00
 21
1.35830530E+02
  0
POLYLINE
  8
0
 62
6
 66
1
  0
VERTEX
  8
0
 62
6
 10
2.09600000E-05
 20
1.34195613E+02
  0
VERTEX
  8
0
 62
6
 10
5.72891252E-03
 20
1.34076650E+02
  0
VERTEX
  8
0
 62
6
 10
2.28093300E-02
 20
1.33958593E+02
  0
VERTEX
  8
0
 62
6
 10
5.11322200E-02
 20
1.33842340E+02
  0
VERTEX
  8
0
 62
6
 10
9.04820284E-02
 20
1.33728775E+02
  0
VERTEX
  8
0
 62
6
 10
1.40559279E-01
 20
1.33618764E+02
  0
VERTEX
  8
0
 62
6
 10
2.00982855E-01
 20
1.33513142E+02
  0
VERTEX
  8
0
 62
6
 10
2.71292895E-01
 20
1.33412714E+02
  0
VERTEX
  8
0
 62
6
 10
3.50954297E-01
 20
1.33318245E+02
  0
VERTEX
  8
0
 62
6
 10
4.39360791E-01
 20
1.33230453E+02
  0
VERTEX
  8
0
 62
6
 10
5.35839549E-01
 20
1.33150007E+02
  0
VERTEX
  8
0
 62
6
 10
6.39656311E-01
 20
1.33077518E+02
  0
VERTEX
  8
0
 62
6
 10
7.50020966E-01
 20
1.33013539E+02
  0
VERTEX
  8
0
 62
6
 10
8.66093575E-01
 20
1.32958556E+02
  0
VERTEX
  8
0
 62
6
 10
9.86990754E-01
 20
1.32912987E+02
  0
VERTEX
  8
0
 62
6
 10
1.11179240E+00
 20
1.32877180E+02
  0
VERTEX
  8
0
 62
6
 10
1.23954871E+00
 20
1.32851408E+02
  0
VERTEX
  8
0
 62
6
 10
1.36928736E+00
 20
1.32835865E+02
  0
VERTEX
  8
0
 62
6
 10
1.50002098E+00
 20
1.32830671E+02
  0
VERTEX
  8
0
 62
6
 10
1.63075459E+00
 20
1.32835865E+02
  0
VERTEX
  8
0
 62
6
 10
1.76049325E+00
 20
1.32851408E+02
  0
VERTEX
  8
0
 62
6
 10
1.88824955E+00
 20
1.32877180E+02
  0
VERTEX
  8
0
 62
6
 10
2.01305120E+00
 20
1.32912987E+02
  0
VERTEX
  8
0
 62
6
 10
2.13394838E+00
 20
1.32958556E+02
  0
VERTEX
  8
0
 62
6
 10
2.25002099E+00
 20
1.33013539E+02
  0
VERTEX
  8
0
 62
6
 10
2.36038564E+00
 20
1.33077518E+02
  0
VERTEX
  8
0
 62
6
 10
2.46420240E+00
 20
1.33150007E+02
  0
VERTEX
  8
0
 62
6
 10
2.56068116E+00
 20
1.33230453E+02
  0
VERTEX
  8
0
 62
6
 10
2.64908766E+00
 20
1.33318245E+02
  0
VERTEX
  8
0
 62
6
 10
2.72874906E+00
 20
1.33412714E+02
  0
VERTEX
  8
0
 62
6
 10
2.79905910E+00
 20
1.33513142E+02
  0
VERTEX
  8
0
 62
6
 10
2.85948268E+00
 20
1.33618764E+02
  0
VERTEX
  8
0
 62
6
 10
2.90955993E+00
 20
1.33728775E+02
  0
VERTEX
  8
0
 62
6
 10
2.94890974E+00
 20
1.33842340E+02
  0
VERTEX
  8
0
 62
6
 10
2.97723263E+00
 20
1.33958593E+02
  0
VERTEX
  8
0
 62
6
 10
2.99431305E+00
 20
1.34076650E+02
  0
VERTEX
  8
0
 62
6
 10
3.00002100E+00
 20
1.34195613E+02
  0
VERTEX
  8
0
 62
6
 10
2.99431305E+00
 20
1.34314576E+02
  0
VERTEX
  8
0
 62
6
 10
2.97723263E+00
 20
1.34432633E+02
  0
VERTEX
  8
0
 62
6
 10
2.94890974E+00
 20
1.34548886E+02
  0
VERTEX
  8
0
 62
6
 10
2.90955993E+00
 20
1.34662451E+02
  0
VERTEX
  8
0
 62
6
 10
2.85948268E+00
 20
1.34772462E+02
  0
VERTEX
  8
0
 62
6
 10
2.79905910E+00
 20
1.34878084E+02
  0
VERTEX
  8
0
 62
6
 10
2.72874906E+00
 20
1.34978512E+02
  0
VERTEX
  8
0
 62
6
 10
2.64908766E+00
 20
1.35072981E+02
  0
VERTEX
  8
0
 62
6
 10
2.56068117E+00
 20
1.35160773E+02
  0
VERTEX
  8
0
 62
6
 10
2.46420241E+00
 20
1.35241219E+02
  0
VERTEX
  8
0
 62
6
 10
2.36038565E+00
 20
1.35313708E+02
  0
VERTEX
  8
0
 62
6
 10
2.25002099E+00
 20
1.35377687E+02
  0
VERTEX
  8
0
 62
6
 10
2.13394838E+00
 20
1.35432670E+02
  0
VERTEX
  8
0
 62
6
 10
2.01305120E+00
 20
1.35478239E+02
  0
VERTEX
  8
0
 62
6
 10
1.88824955E+00
 20
1.35514046E+02
  0
VERTEX
  8
0
 62
6
 10
1.76049325E+00
 20
1.35539818E+02
  0
VERTEX
  8
0
 62
6
 10
1.63075460E+00
 20
1.35555361E+02
  0
VERTEX
  8
0
 62
6
 10
1.50002098E+00
 20
1.35560555E+02
  0
VERTEX
  8
0
 62
6
 10
1.36928737E+00
 20
1.35555361E+02
  0
VERTEX
  8
0
 62
6
 10
1.23954871E+00
 20
1.35539818E+02
  0
VERTEX
  8
0
 62
6
 10
1.11179241E+00
 20
1.35514046E+02
  0
VERTEX
  8
0
 62
6
 10
9.86990760E-01
 20
1.35478239E+02
  0
VERTEX
  8
0
 62
6
 10
8.66093580E-01
 20
1.35432670E+02
  0
VERTEX
  8
0
 62
6
 10
7.50020971E-01
 20
1.35377687E+02
  0
VERTEX
  8
0
 62
6
 10
6.39656315E-01
 20
1.35313708E+02
  0
VERTEX
  8
0
 62
6
 10
5.35839554E-01
 20
1.35241219E+02
  0
VERTEX
  8
0
 62
6
 10
4.39360795E-01
 20
1.35160773E+02
  0
VERTEX
  8
0
 62
6
 10
3.50954301E-01
 20
1.35072981E+02
  0
VERTEX
  8
0
 62
6
 10
2.71292898E-01
 20
1.34978512E+02
  0
VERTEX
  8
0
 62
6
 10
2.00982858E-01
 20
1.34878084E+02
  0
VERTEX
  8
0
 62
6
 10
1.40559282E-01
 20
1.34772462E+02
  0
VERTEX
  8
0
 62
6
 10
9.04820303E-02
 20
1.34662451E+02
  0
VERTEX
  8
0
 62
6
 10
5.11322215E-02
 20
1.34548886E+02
  0
VERTEX
  8
0
 62
6
 10
2.28093309E-02
 20
1.34432633E+02
  0
VERTEX
  8
0
 62
6
 10
5.72891300E-03
 20
1.34314576E+02
  0
VERTEX
  8
0
 62
6
 10
2.09600000E-05
 20
1.34195613E+02
  0
SEQEND
  8
0
  0
LINE
  8
0
 62
4
 10
5.00020981E-01
 20
1.33667835E+02
 11
5.00020981E-01
 21
1.34723391E+02
  0
LINE
  8
0
 62
4
 10
1.50002098E+00
 20
1.35242068E+02
 11
5.00020981E-01
 21
1.34723391E+02
  0
LINE
  8
0
 62
4
 10
1.50002098E+00
 20
1.33140058E+02
 11
5.00020981E-01
 21
1.33667835E+02
  0
LINE
  8
0
 62
4
 10
1.50002098E+00
 20
1.35242068E+02
 11
2.50002098E+00
 21
1.34723391E+02
  0
LINE
  8
0
 62
4
 10
2.50002098E+00
 20
1.33667835E+02
 11
2.50002098E+00
 21
1.34723391E+02
  0
LINE
  8
0
 62
4
 10
1.50002098E+00
 20
1.33140058E+02
 11
2.50002098E+00
 21
1.33667835E+02
  0
LINE
  8
0
 62
4
 10
-6.49997902E+00
 20
1.33140058E+02
 11
-5.49997902E+00
 21
1.33667835E+02
  0
LINE
  8
0
 62
4
 10
-5.49997902E+00
 20
1.33667835E+02
 11
-5.49997902E+00
 21
1.34723391E+02
  0
LINE
  8
0
 62
4
 10
-6.49997902E+00
 20
1.35242068E+02
 11
-5.49997902E+00
 21
1.34723391E+02
  0
LINE
  8
0
 62
4
 10
-6.49997902E+00
 20
1.33140058E+02
 11
-7.49997902E+00
 21
1.33667835E+02
  0
LINE
  8
0
 62
4
 10
-6.49997902E+00
 20
1.35242068E+02
 11
-7.49997902E+00
 21
1.34723391E+02
  0
LINE
  8
0
 62
4
 10
-7.49997902E+00
 20
1.33667835E+02
 11
-7.49997902E+00
 21
1.34723391E+02
  0
POLYLINE
  8
0
 62
6
 66
1
  0
VERTEX
  8
0
 62
6
 10
-7.99997904E+00
 20
1.34195613E+02
  0
VERTEX
  8
0
 62
6
 10
-7.99427109E+00
 20
1.34076650E+02
  0
VERTEX
  8
0
 62
6
 10
-7.97719067E+00
 20
1.33958593E+02
  0
VERTEX
  8
0
 62
6
 10
-7.94886778E+00
 20
1.33842340E+02
  0
VERTEX
  8
0
 62
6
 10
-7.90951797E+00
 20
1.33728775E+02
  0
VERTEX
  8
0
 62
6
 10
-7.85944072E+00
 20
1.33618764E+02
  0
VERTEX
  8
0
 62
6
 10
-7.79901715E+00
 20
1.33513142E+02
  0
VERTEX
  8
0
 62
6
 10
-7.72870711E+00
 20
1.33412714E+02
  0
VERTEX
  8
0
 62
6
 10
-7.64904570E+00
 20
1.33318245E+02
  0
VERTEX
  8
0
 62
6
 10
-7.56063921E+00
 20
1.33230453E+02
  0
VERTEX
  8
0
 62
6
 10
-7.46416045E+00
 20
1.33150007E+02
  0
VERTEX
  8
0
 62
6
 10
-7.36034369E+00
 20
1.33077518E+02
  0
VERTEX
  8
0
 62
6
 10
-7.24997903E+00
 20
1.33013539E+02
  0
VERTEX
  8
0
 62
6
 10
-7.13390642E+00
 20
1.32958556E+02
  0
VERTEX
  8
0
 62
6
 10
-7.01300925E+00
 20
1.32912987E+02
  0
VERTEX
  8
0
 62
6
 10
-6.88820760E+00
 20
1.32877180E+02
  0
VERTEX
  8
0
 62
6
 10
-6.76045129E+00
 20
1.32851408E+02
  0
VERTEX
  8
0
 62
6
 10
-6.63071264E+00
 20
1.32835865E+02
  0
VERTEX
  8
0
 62
6
 10
-6.49997902E+00
 20
1.32830671E+02
  0
VERTEX
  8
0
 62
6
 10
-6.36924541E+00
 20
1.32835865E+02
  0
VERTEX
  8
0
 62
6
 10
-6.23950675E+00
 20
1.32851408E+02
  0
VERTEX
  8
0
 62
6
 10
-6.11175045E+00
 20
1.32877180E+02
  0
VERTEX
  8
0
 62
6
 10
-5.98694880E+00
 20
1.32912987E+02
  0
VERTEX
  8
0
 62
6
 10
-5.86605162E+00
 20
1.32958556E+02
  0
VERTEX
  8
0
 62
6
 10
-5.74997901E+00
 20
1.33013539E+02
  0
VERTEX
  8
0
 62
6
 10
-5.63961436E+00
 20
1.33077518E+02
  0
VERTEX
  8
0
 62
6
 10
-5.53579760E+00
 20
1.33150007E+02
  0
VERTEX
  8
0
 62
6
 10
-5.43931884E+00
 20
1.33230453E+02
  0
VERTEX
  8
0
 62
6
 10
-5.35091234E+00
 20
1.33318245E+02
  0
VERTEX
  8
0
 62
6
 10
-5.27125094E+00
 20
1.33412714E+02
  0
VERTEX
  8
0
 62
6
 10
-5.20094090E+00
 20
1.33513142E+02
  0
VERTEX
  8
0
 62
6
 10
-5.14051732E+00
 20
1.33618764E+02
  0
VERTEX
  8
0
 62
6
 10
-5.09044007E+00
 20
1.33728775E+02
  0
VERTEX
  8
0
 62
6
 10
-5.05109026E+00
 20
1.33842340E+02
  0
VERTEX
  8
0
 62
6
 10
-5.02276737E+00
 20
1.33958593E+02
  0
VERTEX
  8
0
 62
6
 10
-5.00568695E+00
 20
1.34076650E+02
  0
VERTEX
  8
0
 62
6
 10
-4.99997900E+00
 20
1.34195613E+02
  0
VERTEX
  8
0
 62
6
 10
-5.00568695E+00
 20
1.34314576E+02
  0
VERTEX
  8
0
 62
6
 10
-5.02276737E+00
 20
1.34432633E+02
  0
VERTEX
  8
0
 62
6
 10
-5.05109026E+00
 20
1.34548886E+02
  0
VERTEX
  8
0
 62
6
 10
-5.09044007E+00
 20
1.34662451E+02
  0
VERTEX
  8
0
 62
6
 10
-5.14051732E+00
 20
1.34772462E+02
  0
VERTEX
  8
0
 62
6
 10
-5.20094090E+00
 20
1.34878084E+02
  0
VERTEX
  8
0
 62
6
 10
-5.27125094E+00
 20
1.34978512E+02
  0
VERTEX
  8
0
 62
6
 10
-5.35091234E+00
 20
1.35072981E+02
  0
VERTEX
  8
0
 62
6
 10
-5.43931883E+00
 20
1.35160773E+02
  0
VERTEX
  8
0
 62
6
 10
-5.53579759E+00
 20
1.35241219E+02
  0
VERTEX
  8
0
 62
6
 10
-5.63961435E+00
 20
1.35313708E+02
  0
VERTEX
  8
0
 62
6
 10
-5.74997901E+00
 20
1.35377687E+02
  0
VERTEX
  8
0
 62
6
 10
-5.86605162E+00
 20
1.35432670E+02
  0
VERTEX
  8
0
 62
6
 10
-5.98694880E+00
 20
1.35478239E+02
  0
VERTEX
  8
0
 62
6
 10
-6.11175045E+00
 20
1.35514046E+02
  0
VERTEX
  8
0
 62
6
 10
-6.23950675E+00
 20
1.35539818E+02
  0
VERTEX
  8
0
 62
6
 10
-6.36924540E+00
 20
1.35555361E+02
  0
VERTEX
  8
0
 62
6
 10
-6.49997902E+00
 20
1.35560555E+02
  0
VERTEX
  8
0
 62
6
 10
-6.63071263E+00
 20
1.35555361E+02
  0
VERTEX
  8
0
 62
6
 10
-6.76045129E+00
 20
1.35539818E+02
  0
VERTEX
  8
0
 62
6
 10
-6.88820759E+00
 20
1.35514046E+02
  0
VERTEX
  8
0
 62
6
 10
-7.01300924E+00
 20
1.35478239E+02
  0
VERTEX
  8
0
 62
6
 10
-7.13390642E+00
 20
1.35432670E+02
  0
VERTEX
  8
0
 62
6
 10
-7.24997903E+00
 20
1.35377687E+02
  0
VERTEX
  8
0
 62
6
 10
-7.36034368E+00
 20
1.35313708E+02
  0
VERTEX
  8
0
 62
6
 10
-7.46416045E+00
 20
1.35241219E+02
  0
VERTEX
  8
0
 62
6
 10
-7.56063921E+00
 20
1.35160773E+02
  0
VERTEX
  8
0
 62
6
 10
-7.64904570E+00
 20
1.35072981E+02
  0
VERTEX
  8
0
 62
6
 10
-7.72870710E+00
 20
1.34978512E+02
  0
VERTEX
  8
0
 62
6
 10
-7.79901714E+00
 20
1.34878084E+02
  0
VERTEX
  8
0
 62
6
 10
-7.85944072E+00
 20
1.34772462E+02
  0
VERTEX
  8
0
 62
6
 10
-7.90951797E+00
 20
1.34662451E+02
  0
VERTEX
  8
0
 62
6
 10
-7.94886778E+00
 20
1.34548886E+02
  0
VERTEX
  8
0
 62
6
 10
-7.97719067E+00
 20
1.34432633E+02
  0
VERTEX
  8
0
 62
6
 10
-7.99427109E+00
 20
1.34314576E+02
  0
VERTEX
  8
0
 62
6
 10
-7.99997904E+00
 20
1.34195613E+02
  0
SEQEND
  8
0
  0
LINE
  8
0
 62
4
 10
-4.49997902E+00
 20
1.34195613E+02
 11
-4.49997902E+00
 21
1.35830530E+02
  0
POLYLINE
  8
0
 62
4
 66
1
  0
VERTEX
  8
0
 62
4
 10
-8.49997902E+00
 20
1.34195613E+02
  0
VERTEX
  8
0
 62
4
 10
-8.49236842E+00
 20
1.34036996E+02
  0
VERTEX
  8
0
 62
4
 10
-8.46959453E+00
 20
1.33879587E+02
  0
VERTEX
  8
0
 62
4
 10
-8.43183067E+00
 20
1.33724582E+02
  0
VERTEX
  8
0
 62
4
 10
-8.37936426E+00
 20
1.33573163E+02
  0
VERTEX
  8
0
 62
4
 10
-8.31259460E+00
 20
1.33426481E+02
  0
VERTEX
  8
0
 62
4
 10
-8.23202983E+00
 20
1.33285652E+02
  0
VERTEX
  8
0
 62
4
 10
-8.13828311E+00
 20
1.33151748E+02
  0
VERTEX
  8
0
 62
4
 10
-8.03206791E+00
 20
1.33025789E+02
  0
VERTEX
  8
0
 62
4
 10
-7.91419259E+00
 20
1.32908733E+02
  0
VERTEX
  8
0
 62
4
 10
-7.78555424E+00
 20
1.32801472E+02
  0
VERTEX
  8
0
 62
4
 10
-7.64713190E+00
 20
1.32704820E+02
  0
VERTEX
  8
0
 62
4
 10
-7.49997902E+00
 20
1.32619514E+02
  0
VERTEX
  8
0
 62
4
 10
-7.34521555E+00
 20
1.32546203E+02
  0
VERTEX
  8
0
 62
4
 10
-7.18401931E+00
 20
1.32485445E+02
  0
VERTEX
  8
0
 62
4
 10
-7.01761712E+00
 20
1.32437703E+02
  0
VERTEX
  8
0
 62
4
 10
-6.84727538E+00
 20
1.32403339E+02
  0
VERTEX
  8
0
 62
4
 10
-6.67429051E+00
 20
1.32382616E+02
  0
VERTEX
  8
0
 62
4
 10
-6.49997903E+00
 20
1.32375691E+02
  0
VERTEX
  8
0
 62
4
 10
-6.32566754E+00
 20
1.32382616E+02
  0
VERTEX
  8
0
 62
4
 10
-6.15268267E+00
 20
1.32403339E+02
  0
VERTEX
  8
0
 62
4
 10
-5.98234093E+00
 20
1.32437703E+02
  0
VERTEX
  8
0
 62
4
 10
-5.81593874E+00
 20
1.32485445E+02
  0
VERTEX
  8
0
 62
4
 10
-5.65474250E+00
 20
1.32546203E+02
  0
VERTEX
  8
0
 62
4
 10
-5.49997902E+00
 20
1.32619514E+02
  0
VERTEX
  8
0
 62
4
 10
-5.35282615E+00
 20
1.32704820E+02
  0
VERTEX
  8
0
 62
4
 10
-5.21440380E+00
 20
1.32801471E+02
  0
VERTEX
  8
0
 62
4
 10
-5.08576546E+00
 20
1.32908733E+02
  0
VERTEX
  8
0
 62
4
 10
-4.96789014E+00
 20
1.33025789E+02
  0
VERTEX
  8
0
 62
4
 10
-4.86167493E+00
 20
1.33151748E+02
  0
VERTEX
  8
0
 62
4
 10
-4.76792821E+00
 20
1.33285652E+02
  0
VERTEX
  8
0
 62
4
 10
-4.68736345E+00
 20
1.33426481E+02
  0
VERTEX
  8
0
 62
4
 10
-4.62059378E+00
 20
1.33573163E+02
  0
VERTEX
  8
0
 62
4
 10
-4.56812737E+00
 20
1.33724582E+02
  0
VERTEX
  8
0
 62
4
 10
-4.53036351E+00
 20
1.33879587E+02
  0
VERTEX
  8
0
 62
4
 10
-4.50758962E+00
 20
1.34036996E+02
  0
VERTEX
  8
0
 62
4
 10
-4.49997902E+00
 20
1.34195613E+02
  0
VERTEX
  8
0
 62
4
 10
-4.50758962E+00
 20
1.34354230E+02
  0
VERTEX
  8
0
 62
4
 10
-4.53036351E+00
 20
1.34511639E+02
  0
VERTEX
  8
0
 62
4
 10
-4.56812737E+00
 20
1.34666644E+02
  0
VERTEX
  8
0
 62
4
 10
-4.62059378E+00
 20
1.34818063E+02
  0
VERTEX
  8
0
 62
4
 10
-4.68736344E+00
 20
1.34964745E+02
  0
VERTEX
  8
0
 62
4
 10
-4.76792821E+00
 20
1.35105574E+02
  0
VERTEX
  8
0
 62
4
 10
-4.86167493E+00
 20
1.35239478E+02
  0
VERTEX
  8
0
 62
4
 10
-4.96789013E+00
 20
1.35365437E+02
  0
VERTEX
  8
0
 62
4
 10
-5.08576546E+00
 20
1.35482493E+02
  0
VERTEX
  8
0
 62
4
 10
-5.21440380E+00
 20
1.35589755E+02
  0
VERTEX
  8
0
 62
4
 10
-5.35282614E+00
 20
1.35686406E+02
  0
VERTEX
  8
0
 62
4
 10
-5.49997902E+00
 20
1.35771712E+02
  0
VERTEX
  8
0
 62
4
 10
-5.65474249E+00
 20
1.35845023E+02
  0
VERTEX
  8
0
 62
4
 10
-5.81593873E+00
 20
1.35905781E+02
  0
VERTEX
  8
0
 62
4
 10
-5.98234093E+00
 20
1.35953523E+02
  0
VERTEX
  8
0
 62
4
 10
-6.15268266E+00
 20
1.35987887E+02
  0
VERTEX
  8
0
 62
4
 10
-6.32566753E+00
 20
1.36008610E+02
  0
VERTEX
  8
0
 62
4
 10
-6.49997902E+00
 20
1.36015535E+02
  0
VERTEX
  8
0
 62
4
 10
-6.67429050E+00
 20
1.36008610E+02
  0
VERTEX
  8
0
 62
4
 10
-6.84727537E+00
 20
1.35987887E+02
  0
VERTEX
  8
0
 62
4
 10
-7.01761711E+00
 20
1.35953523E+02
  0
VERTEX
  8
0
 62
4
 10
-7.18401930E+00
 20
1.35905781E+02
  0
VERTEX
  8
0
 62
4
 10
-7.34521554E+00
 20
1.35845023E+02
  0
VERTEX
  8
0
 62
4
 10
-7.49997902E+00
 20
1.35771712E+02
  0
VERTEX
  8
0
 62
4
 10
-7.64713189E+00
 20
1.35686406E+02
  0
VERTEX
  8
0
 62
4
 10
-7.78555424E+00
 20
1.35589755E+02
  0
VERTEX
  8
0
 62
4
 10
-7.91419258E+00
 20
1.35482493E+02
  0
VERTEX
  8
0
 62
4
 10
-8.03206791E+00
 20
1.35365437E+02
  0
VERTEX
  8
0
 62
4
 10
-8.13828311E+00
 20
1.35239478E+02
  0
VERTEX
  8
0
 62
4
 10
-8.23202983E+00
 20
1.35105574E+02
  0
VERTEX
  8
0
 62
4
 10
-8.31259459E+00
 20
1.34964745E+02
  0
VERTEX
  8
0
 62
4
 10
-8.37936426E+00
 20
1.34818063E+02
  0
VERTEX
  8
0
 62
4
 10
-8.43183067E+00
 20
1.34666644E+02
  0
VERTEX
  8
0
 62
4
 10
-8.46959453E+00
 20
1.34511639E+02
  0
VERTEX
  8
0
 62
4
 10
-8.49236842E+00
 20
1.34354230E+02
  0
VERTEX
  8
0
 62
4
 10
-8.49997902E+00
 20
1.34195613E+02
  0
SEQEND
  8
0
  0
LINE
  8
0
 62
4
 10
-8.49997902E+00
 20
1.34195613E+02
 11
-8.49997902E+00
 21
1.35830530E+02
  0
POLYLINE
  8
0
 62
4
 66
1
  0
VERTEX
  8
0
 62
4
 10
-4.49997902E+00
 20
1.35830530E+02
  0
VERTEX
  8
0
 62
4
 10
-4.50803043E+00
 20
1.35993667E+02
  0
VERTEX
  8
0
 62
4
 10
-4.53211984E+00
 20
1.36155490E+02
  0
VERTEX
  8
0
 62
4
 10
-4.57205329E+00
 20
1.36314696E+02
  0
VERTEX
  8
0
 62
4
 10
-4.62750927E+00
 20
1.36470005E+02
  0
VERTEX
  8
0
 62
4
 10
-4.69804128E+00
 20
1.36620165E+02
  0
VERTEX
  8
0
 62
4
 10
-4.78308143E+00
 20
1.36763967E+02
  0
VERTEX
  8
0
 62
4
 10
-4.88194502E+00
 20
1.36900254E+02
  0
VERTEX
  8
0
 62
4
 10
-4.99383608E+00
 20
1.37027927E+02
  0
VERTEX
  8
0
 62
4
 10
-5.11785371E+00
 20
1.37145961E+02
  0
VERTEX
  8
0
 62
4
 10
-5.25299940E+00
 20
1.37253403E+02
  0
VERTEX
  8
0
 62
4
 10
-5.39818504E+00
 20
1.37349389E+02
  0
VERTEX
  8
0
 62
4
 10
-5.55224168E+00
 20
1.37433146E+02
  0
VERTEX
  8
0
 62
4
 10
-5.71392894E+00
 20
1.37503999E+02
  0
VERTEX
  8
0
 62
4
 10
-5.88194502E+00
 20
1.37561379E+02
  0
VERTEX
  8
0
 62
4
 10
-6.05493714E+00
 20
1.37604823E+02
  0
VERTEX
  8
0
 62
4
 10
-6.23151247E+00
 20
1.37633982E+02
  0
VERTEX
  8
0
 62
4
 10
-6.41024934E+00
 20
1.37648620E+02
  0
VERTEX
  8
0
 62
4
 10
-6.58970866E+00
 20
1.37648620E+02
  0
VERTEX
  8
0
 62
4
 10
-6.76844553E+00
 20
1.37633982E+02
  0
VERTEX
  8
0
 62
4
 10
-6.94502087E+00
 20
1.37604823E+02
  0
VERTEX
  8
0
 62
4
 10
-7.11801299E+00
 20
1.37561379E+02
  0
VERTEX
  8
0
 62
4
 10
-7.28602907E+00
 20
1.37503999E+02
  0
VERTEX
  8
0
 62
4
 10
-7.44771633E+00
 20
1.37433146E+02
  0
VERTEX
  8
0
 62
4
 10
-7.60177297E+00
 20
1.37349389E+02
  0
VERTEX
  8
0
 62
4
 10
-7.74695861E+00
 20
1.37253403E+02
  0
VERTEX
  8
0
 62
4
 10
-7.88210430E+00
 20
1.37145961E+02
  0
VERTEX
  8
0
 62
4
 10
-8.00612194E+00
 20
1.37027927E+02
  0
VERTEX
  8
0
 62
4
 10
-8.11801300E+00
 20
1.36900254E+02
  0
VERTEX
  8
0
 62
4
 10
-8.21687660E+00
 20
1.36763967E+02
  0
VERTEX
  8
0
 62
4
 10
-8.30191675E+00
 20
1.36620165E+02
  0
VERTEX
  8
0
 62
4
 10
-8.37244875E+00
 20
1.36470005E+02
  0
VERTEX
  8
0
 62
4
 10
-8.42790474E+00
 20
1.36314696E+02
  0
VERTEX
  8
0
 62
4
 10
-8.46783819E+00
 20
1.36155490E+02
  0
VERTEX
  8
0
 62
4
 10
-8.49192761E+00
 20
1.35993667E+02
  0
VERTEX
  8
0
 62
4
 10
-8.49997902E+00
 20
1.35830530E+02
  0
SEQEND
  8
0
  0
LINE
  8
0
 62
4
 10
-6.89999981E+01
 20
1.54069725E+02
 11
-6.90907311E+01
 21
1.54000015E+02
  0
LINE
  8
0
 62
4
 10
-6.89999981E+01
 20
1.54069725E+02
 11
-5.68861708E+01
 21
1.54069725E+02
  0
LINE
  8
0
 62
4
 10
-6.89999981E+01
 20
1.54069725E+02
 11
-6.89999981E+01
 21
1.54000015E+02
  0
POLYLINE
  8
0
 62
4
 66
1
  0
VERTEX
  8
0
 62
4
 10
-4.87639664E+01
 20
1.63002396E+02
  0
VERTEX
  8
0
 62
4
 10
-4.90229686E+01
 20
1.62810967E+02
  0
VERTEX
  8
0
 62
4
 10
-4.92625178E+01
 20
1.62599601E+02
  0
VERTEX
  8
0
 62
4
 10
-4.94807669E+01
 20
1.62369927E+02
  0
VERTEX
  8
0
 62
4
 10
-4.96760332E+01
 20
1.62123718E+02
  0
VERTEX
  8
0
 62
4
 10
-4.98468110E+01
 20
1.61862870E+02
  0
VERTEX
  8
0
 62
4
 10
-4.99917836E+01
 20
1.61589395E+02
  0
VERTEX
  8
0
 62
4
 10
-5.01098332E+01
 20
1.61305403E+02
  0
VERTEX
  8
0
 62
4
 10
-5.02000496E+01
 20
1.61013081E+02
  0
VERTEX
  8
0
 62
4
 10
-5.02617372E+01
 20
1.60714685E+02
  0
VERTEX
  8
0
 62
4
 10
-5.02944204E+01
 20
1.60412516E+02
  0
VERTEX
  8
0
 62
4
 10
-5.02978471E+01
 20
1.60108902E+02
  0
VERTEX
  8
0
 62
4
 10
-5.02719909E+01
 20
1.59806185E+02
  0
VERTEX
  8
0
 62
4
 10
-5.02170513E+01
 20
1.59506699E+02
  0
VERTEX
  8
0
 62
4
 10
-5.01334518E+01
 20
1.59212753E+02
  0
VERTEX
  8
0
 62
4
 10
-5.00218369E+01
 20
1.58926614E+02
  0
VERTEX
  8
0
 62
4
 10
-4.98830673E+01
 20
1.58650488E+02
  0
VERTEX
  8
0
 62
4
 10
-4.97182130E+01
 20
1.58386504E+02
  0
VERTEX
  8
0
 62
4
 10
-4.95285450E+01
 20
1.58136697E+02
  0
VERTEX
  8
0
 62
4
 10
-4.93155258E+01
 20
1.57902993E+02
  0
VERTEX
  8
0
 62
4
 10
-4.90807977E+01
 20
1.57687195E+02
  0
VERTEX
  8
0
 62
4
 10
-4.88261708E+01
 20
1.57490966E+02
  0
VERTEX
  8
0
 62
4
 10
-4.85536081E+01
 20
1.57315819E+02
  0
VERTEX
  8
0
 62
4
 10
-4.82652113E+01
 20
1.57163105E+02
  0
VERTEX
  8
0
 62
4
 10
-4.79632041E+01
 20
1.57034001E+02
  0
VERTEX
  8
0
 62
4
 10
-4.76499150E+01
 20
1.56929502E+02
  0
VERTEX
  8
0
 62
4
 10
-4.73277595E+01
 20
1.56850415E+02
  0
VERTEX
  8
0
 62
4
 10
-4.69992218E+01
 20
1.56797349E+02
  0
VERTEX
  8
0
 62
4
 10
-4.66668348E+01
 20
1.56770713E+02
  0
VERTEX
  8
0
 62
4
 10
-4.63331615E+01
 20
1.56770713E+02
  0
VERTEX
  8
0
 62
4
 10
-4.60007745E+01
 20
1.56797349E+02
  0
VERTEX
  8
0
 62
4
 10
-4.56722367E+01
 20
1.56850415E+02
  0
VERTEX
  8
0
 62
4
 10
-4.53500813E+01
 20
1.56929502E+02
  0
VERTEX
  8
0
 62
4
 10
-4.50367922E+01
 20
1.57034000E+02
  0
VERTEX
  8
0
 62
4
 10
-4.47347849E+01
 20
1.57163104E+02
  0
VERTEX
  8
0
 62
4
 10
-4.44463882E+01
 20
1.57315819E+02
  0
VERTEX
  8
0
 62
4
 10
-4.41738255E+01
 20
1.57490966E+02
  0
VERTEX
  8
0
 62
4
 10
-4.39191985E+01
 20
1.57687195E+02
  0
VERTEX
  8
0
 62
4
 10
-4.36844705E+01
 20
1.57902993E+02
  0
VERTEX
  8
0
 62
4
 10
-4.34714512E+01
 20
1.58136697E+02
  0
VERTEX
  8
0
 62
4
 10
-4.32817832E+01
 20
1.58386504E+02
  0
VERTEX
  8
0
 62
4
 10
-4.31169289E+01
 20
1.58650488E+02
  0
VERTEX
  8
0
 62
4
 10
-4.29781593E+01
 20
1.58926614E+02
  0
VERTEX
  8
0
 62
4
 10
-4.28665445E+01
 20
1.59212753E+02
  0
VERTEX
  8
0
 62
4
 10
-4.27829449E+01
 20
1.59506699E+02
  0
VERTEX
  8
0
 62
4
 10
-4.27280053E+01
 20
1.59806185E+02
  0
VERTEX
  8
0
 62
4
 10
-4.27021491E+01
 20
1.60108902E+02
  0
VERTEX
  8
0
 62
4
 10
-4.27055758E+01
 20
1.60412516E+02
  0
VERTEX
  8
0
 62
4
 10
-4.27382590E+01
 20
1.60714685E+02
  0
VERTEX
  8
0
 62
4
 10
-4.27999466E+01
 20
1.61013081E+02
  0
VERTEX
  8
0
 62
4
 10
-4.28901630E+01
 20
1.61305403E+02
  0
VERTEX
  8
0
 62
4
 10
-4.30082126E+01
 20
1.61589395E+02
  0
VERTEX
  8
0
 62
4
 10
-4.31531852E+01
 20
1.61862870E+02
  0
VERTEX
  8
0
 62
4
 10
-4.33239630E+01
 20
1.62123718E+02
  0
VERTEX
  8
0
 62
4
 10
-4.35192292E+01
 20
1.62369927E+02
  0
VERTEX
  8
0
 62
4
 10
-4.37374784E+01
 20
1.62599601E+02
  0
VERTEX
  8
0
 62
4
 10
-4.39770275E+01
 20
1.62810967E+02
  0
VERTEX
  8
0
 62
4
 10
-4.42360298E+01
 20
1.63002396E+02
  0
SEQEND
  8
0
  0
POLYLINE
  8
0
 62
4
 66
1
  0
VERTEX
  8
0
 62
4
 10
-4.98999981E+01
 20
1.60225232E+02
  0
VERTEX
  8
0
 62
4
 10
-4.98863107E+01
 20
1.59947900E+02
  0
VERTEX
  8
0
 62
4
 10
-4.98453587E+01
 20
1.59672800E+02
  0
VERTEX
  8
0
 62
4
 10
-4.97774719E+01
 20
1.59402149E+02
  0
VERTEX
  8
0
 62
4
 10
-4.96831967E+01
 20
1.59138125E+02
  0
VERTEX
  8
0
 62
4
 10
-4.95632923E+01
 20
1.58882853E+02
  0
VERTEX
  8
0
 62
4
 10
-4.94187240E+01
 20
1.58638389E+02
  0
VERTEX
  8
0
 62
4
 10
-4.92506559E+01
 20
1.58406702E+02
  0
VERTEX
  8
0
 62
4
 10
-4.90604411E+01
 20
1.58189656E+02
  0
VERTEX
  8
0
 62
4
 10
-4.88496111E+01
 20
1.57989000E+02
  0
VERTEX
  8
0
 62
4
 10
-4.86198635E+01
 20
1.57806348E+02
  0
VERTEX
  8
0
 62
4
 10
-4.83730479E+01
 20
1.57643172E+02
  0
VERTEX
  8
0
 62
4
 10
-4.81111516E+01
 20
1.57500785E+02
  0
VERTEX
  8
0
 62
4
 10
-4.78362832E+01
 20
1.57380334E+02
  0
VERTEX
  8
0
 62
4
 10
-4.75506559E+01
 20
1.57282788E+02
  0
VERTEX
  8
0
 62
4
 10
-4.72565693E+01
 20
1.57208933E+02
  0
VERTEX
  8
0
 62
4
 10
-4.69563912E+01
 20
1.57159364E+02
  0
VERTEX
  8
0
 62
4
 10
-4.66525385E+01
 20
1.57134479E+02
  0
VERTEX
  8
0
 62
4
 10
-4.63474577E+01
 20
1.57134479E+02
  0
VERTEX
  8
0
 62
4
 10
-4.60436050E+01
 20
1.57159364E+02
  0
VERTEX
  8
0
 62
4
 10
-4.57434269E+01
 20
1.57208933E+02
  0
VERTEX
  8
0
 62
4
 10
-4.54493403E+01
 20
1.57282788E+02
  0
VERTEX
  8
0
 62
4
 10
-4.51637130E+01
 20
1.57380334E+02
  0
VERTEX
  8
0
 62
4
 10
-4.48888447E+01
 20
1.57500785E+02
  0
VERTEX
  8
0
 62
4
 10
-4.46269484E+01
 20
1.57643172E+02
  0
VERTEX
  8
0
 62
4
 10
-4.43801328E+01
 20
1.57806348E+02
  0
VERTEX
  8
0
 62
4
 10
-4.41503851E+01
 20
1.57989000E+02
  0
VERTEX
  8
0
 62
4
 10
-4.39395551E+01
 20
1.58189656E+02
  0
VERTEX
  8
0
 62
4
 10
-4.37493403E+01
 20
1.58406702E+02
  0
VERTEX
  8
0
 62
4
 10
-4.35812722E+01
 20
1.58638389E+02
  0
VERTEX
  8
0
 62
4
 10
-4.34367039E+01
 20
1.58882853E+02
  0
VERTEX
  8
0
 62
4
 10
-4.33167995E+01
 20
1.59138125E+02
  0
VERTEX
  8
0
 62
4
 10
-4.32225244E+01
 20
1.59402149E+02
  0
VERTEX
  8
0
 62
4
 10
-4.31546375E+01
 20
1.59672800E+02
  0
VERTEX
  8
0
 62
4
 10
-4.31136855E+01
 20
1.59947900E+02
  0
VERTEX
  8
0
 62
4
 10
-4.30999981E+01
 20
1.60225232E+02
  0
SEQEND
  8
0
  0
POLYLINE
  8
0
 62
4
 66
1
  0
VERTEX
  8
0
 62
4
 10
-4.98999981E+01
 20
1.60694169E+02
  0
VERTEX
  8
0
 62
4
 10
-4.98870601E+01
 20
1.60424521E+02
  0
VERTEX
  8
0
 62
4
 10
-4.98483445E+01
 20
1.60156924E+02
  0
VERTEX
  8
0
 62
4
 10
-4.97841459E+01
 20
1.59893417E+02
  0
VERTEX
  8
0
 62
4
 10
-4.96949530E+01
 20
1.59636004E+02
  0
VERTEX
  8
0
 62
4
 10
-4.95814446E+01
 20
1.59386644E+02
  0
VERTEX
  8
0
 62
4
 10
-4.94444845E+01
 20
1.59147235E+02
  0
VERTEX
  8
0
 62
4
 10
-4.92851151E+01
 20
1.58919599E+02
  0
VERTEX
  8
0
 62
4
 10
-4.91045492E+01
 20
1.58705469E+02
  0
VERTEX
  8
0
 62
4
 10
-4.89041612E+01
 20
1.58506474E+02
  0
VERTEX
  8
0
 62
4
 10
-4.86854760E+01
 20
1.58324128E+02
  0
VERTEX
  8
0
 62
4
 10
-4.84501580E+01
 20
1.58159820E+02
  0
VERTEX
  8
0
 62
4
 10
-4.81999981E+01
 20
1.58014800E+02
  0
VERTEX
  8
0
 62
4
 10
-4.79369002E+01
 20
1.57890172E+02
  0
VERTEX
  8
0
 62
4
 10
-4.76628666E+01
 20
1.57786884E+02
  0
VERTEX
  8
0
 62
4
 10
-4.73799829E+01
 20
1.57705722E+02
  0
VERTEX
  8
0
 62
4
 10
-4.70904019E+01
 20
1.57647303E+02
  0
VERTEX
  8
0
 62
4
 10
-4.67963276E+01
 20
1.57612074E+02
  0
VERTEX
  8
0
 62
4
 10
-4.64999981E+01
 20
1.57600301E+02
  0
VERTEX
  8
0
 62
4
 10
-4.62036686E+01
 20
1.57612074E+02
  0
VERTEX
  8
0
 62
4
 10
-4.59095943E+01
 20
1.57647303E+02
  0
VERTEX
  8
0
 62
4
 10
-4.56200133E+01
 20
1.57705722E+02
  0
VERTEX
  8
0
 62
4
 10
-4.53371296E+01
 20
1.57786884E+02
  0
VERTEX
  8
0
 62
4
 10
-4.50630960E+01
 20
1.57890172E+02
  0
VERTEX
  8
0
 62
4
 10
-4.47999981E+01
 20
1.58014800E+02
  0
VERTEX
  8
0
 62
4
 10
-4.45498382E+01
 20
1.58159820E+02
  0
VERTEX
  8
0
 62
4
 10
-4.43145202E+01
 20
1.58324128E+02
  0
VERTEX
  8
0
 62
4
 10
-4.40958350E+01
 20
1.58506474E+02
  0
VERTEX
  8
0
 62
4
 10
-4.38954470E+01
 20
1.58705469E+02
  0
VERTEX
  8
0
 62
4
 10
-4.37148811E+01
 20
1.58919599E+02
  0
VERTEX
  8
0
 62
4
 10
-4.35555117E+01
 20
1.59147235E+02
  0
VERTEX
  8
0
 62
4
 10
-4.34185516E+01
 20
1.59386644E+02
  0
VERTEX
  8
0
 62
4
 10
-4.33050432E+01
 20
1.59636004E+02
  0
VERTEX
  8
0
 62
4
 10
-4.32158503E+01
 20
1.59893417E+02
  0
VERTEX
  8
0
 62
4
 10
-4.31516517E+01
 20
1.60156924E+02
  0
VERTEX
  8
0
 62
4
 10
-4.31129361E+01
 20
1.60424521E+02
  0
VERTEX
  8
0
 62
4
 10
-4.30999981E+01
 20
1.60694169E+02
  0
VERTEX
  8
0
 62
4
 10
-4.31129361E+01
 20
1.60963817E+02
  0
VERTEX
  8
0
 62
4
 10
-4.31516517E+01
 20
1.61231414E+02
  0
VERTEX
  8
0
 62
4
 10
-4.32158503E+01
 20
1.61494921E+02
  0
VERTEX
  8
0
 62
4
 10
-4.33050432E+01
 20
1.61752334E+02
  0
VERTEX
  8
0
 62
4
 10
-4.34185516E+01
 20
1.62001694E+02
  0
VERTEX
  8
0
 62
4
 10
-4.35555117E+01
 20
1.62241103E+02
  0
VERTEX
  8
0
 62
4
 10
-4.37148811E+01
 20
1.62468739E+02
  0
VERTEX
  8
0
 62
4
 10
-4.38954470E+01
 20
1.62682869E+02
  0
VERTEX
  8
0
 62
4
 10
-4.40958350E+01
 20
1.62881864E+02
  0
VERTEX
  8
0
 62
4
 10
-4.43145202E+01
 20
1.63064210E+02
  0
VERTEX
  8
0
 62
4
 10
-4.45498382E+01
 20
1.63228518E+02
  0
VERTEX
  8
0
 62
4
 10
-4.47999981E+01
 20
1.63373538E+02
  0
VERTEX
  8
0
 62
4
 10
-4.50630960E+01
 20
1.63498166E+02
  0
VERTEX
  8
0
 62
4
 10
-4.53371296E+01
 20
1.63601454E+02
  0
VERTEX
  8
0
 62
4
 10
-4.56200133E+01
 20
1.63682616E+02
  0
VERTEX
  8
0
 62
4
 10
-4.59095943E+01
 20
1.63741035E+02
  0
VERTEX
  8
0
 62
4
 10
-4.62036686E+01
 20
1.63776264E+02
  0
VERTEX
  8
0
 62
4
 10
-4.64999981E+01
 20
1.63788037E+02
  0
VERTEX
  8
0
 62
4
 10
-4.67963276E+01
 20
1.63776264E+02
  0
VERTEX
  8
0
 62
4
 10
-4.70904019E+01
 20
1.63741035E+02
  0
VERTEX
  8
0
 62
4
 10
-4.73799829E+01
 20
1.63682616E+02
  0
VERTEX
  8
0
 62
4
 10
-4.76628666E+01
 20
1.63601454E+02
  0
VERTEX
  8
0
 62
4
 10
-4.79369002E+01
 20
1.63498166E+02
  0
VERTEX
  8
0
 62
4
 10
-4.81999981E+01
 20
1.63373538E+02
  0
VERTEX
  8
0
 62
4
 10
-4.84501580E+01
 20
1.63228518E+02
  0
VERTEX
  8
0
 62
4
 10
-4.86854760E+01
 20
1.63064210E+02
  0
VERTEX
  8
0
 62
4
 10
-4.89041612E+01
 20
1.62881864E+02
  0
VERTEX
  8
0
 62
4
 10
-4.91045492E+01
 20
1.62682869E+02
  0
VERTEX
  8
0
 62
4
 10
-4.92851151E+01
 20
1.62468739E+02
  0
VERTEX
  8
0
 62
4
 10
-4.94444845E+01
 20
1.62241103E+02
  0
VERTEX
  8
0
 62
4
 10
-4.95814446E+01
 20
1.62001694E+02
  0
VERTEX
  8
0
 62
4
 10
-4.96949530E+01
 20
1.61752334E+02
  0
VERTEX
  8
0
 62
4
 10
-4.97841459E+01
 20
1.61494921E+02
  0
VERTEX
  8
0
 62
4
 10
-4.98483445E+01
 20
1.61231414E+02
  0
VERTEX
  8
0
 62
4
 10
-4.98870601E+01
 20
1.60963817E+02
  0
VERTEX
  8
0
 62
4
 10
-4.98999981E+01
 20
1.60694169E+02
  0
SEQEND
  8
0
  0
POLYLINE
  8
0
 62
4
 66
1
  0
VERTEX
  8
0
 62
4
 10
-4.99622041E+01
 20
1.58385315E+02
  0
VERTEX
  8
0
 62
4
 10
-4.98118311E+01
 20
1.58115039E+02
  0
VERTEX
  8
0
 62
4
 10
-4.96360385E+01
 20
1.57857776E+02
  0
VERTEX
  8
0
 62
4
 10
-4.94361756E+01
 20
1.57615502E+02
  0
VERTEX
  8
0
 62
4
 10
-4.92137763E+01
 20
1.57390075E+02
  0
VERTEX
  8
0
 62
4
 10
-4.89705478E+01
 20
1.57183226E+02
  0
VERTEX
  8
0
 62
4
 10
-4.87083568E+01
 20
1.56996543E+02
  0
VERTEX
  8
0
 62
4
 10
-4.84292158E+01
 20
1.56831459E+02
  0
VERTEX
  8
0
 62
4
 10
-4.81352673E+01
 20
1.56689240E+02
  0
VERTEX
  8
0
 62
4
 10
-4.78287674E+01
 20
1.56570978E+02
  0
VERTEX
  8
0
 62
4
 10
-4.75120688E+01
 20
1.56477581E+02
  0
VERTEX
  8
0
 62
4
 10
-4.71876021E+01
 20
1.56409766E+02
  0
VERTEX
  8
0
 62
4
 10
-4.68578577E+01
 20
1.56368054E+02
  0
VERTEX
  8
0
 62
4
 10
-4.65253667E+01
 20
1.56352763E+02
  0
VERTEX
  8
0
 62
4
 10
-4.61926809E+01
 20
1.56364013E+02
  0
VERTEX
  8
0
 62
4
 10
-4.58623539E+01
 20
1.56401716E+02
  0
VERTEX
  8
0
 62
4
 10
-4.55369211E+01
 20
1.56465582E+02
  0
VERTEX
  8
0
 62
4
 10
-4.52188803E+01
 20
1.56555123E+02
  0
VERTEX
  8
0
 62
4
 10
-4.49106726E+01
 20
1.56669651E+02
  0
VERTEX
  8
0
 62
4
 10
-4.46146635E+01
 20
1.56808285E+02
  0
VERTEX
  8
0
 62
4
 10
-4.43331252E+01
 20
1.56969964E+02
  0
VERTEX
  8
0
 62
4
 10
-4.40682184E+01
 20
1.57153445E+02
  0
VERTEX
  8
0
 62
4
 10
-4.38219765E+01
 20
1.57357320E+02
  0
VERTEX
  8
0
 62
4
 10
-4.35962894E+01
 20
1.57580024E+02
  0
VERTEX
  8
0
 62
4
 10
-4.33928895E+01
 20
1.57819849E+02
  0
VERTEX
  8
0
 62
4
 10
-4.32133378E+01
 20
1.58074953E+02
  0
VERTEX
  8
0
 62
4
 10
-4.30590125E+01
 20
1.58343378E+02
  0
VERTEX
  8
0
 62
4
 10
-4.29310982E+01
 20
1.58623064E+02
  0
VERTEX
  8
0
 62
4
 10
-4.28305765E+01
 20
1.58911865E+02
  0
VERTEX
  8
0
 62
4
 10
-4.27582191E+01
 20
1.59207563E+02
  0
VERTEX
  8
0
 62
4
 10
-4.27145813E+01
 20
1.59507890E+02
  0
VERTEX
  8
0
 62
4
 10
-4.26999981E+01
 20
1.59810539E+02
  0
SEQEND
  8
0
  0
ARC
  8
0
 62
4
 10
-9.35808403E+01
 20
1.09426173E+02
 40
6.99948777E+01
 50
4.57421700E+01
 51
4.96558689E+01
  0
ARC
  8
0
 62
4
 10
5.80844147E-01
 20
1.09426173E+02
 40
6.99948777E+01
 50
1.30344131E+02
 51
1.34257830E+02
  0
LINE
  8
0
 62
4
 10
-4.30999981E+01
 20
1.60225232E+02
 11
-4.30999981E+01
 21
1.60694169E+02
  0
LINE
  8
0
 62
4
 10
-4.26999981E+01
 20
1.59810539E+02
 11
-4.26999981E+01
 21
1.60225232E+02
  0
LINE
  8
0
 62
4
 10
-4.98999981E+01
 20
1.60225232E+02
 11
-4.98999981E+01
 21
1.60694169E+02
  0
LINE
  8
0
 62
4
 10
-5.02999981E+01
 20
1.59810539E+02
 11
-5.02999981E+01
 21
1.60225232E+02
  0
POLYLINE
  8
0
 62
4
 66
1
  0
VERTEX
  8
0
 62
4
 10
-5.02999981E+01
 20
1.59810539E+02
  0
VERTEX
  8
0
 62
4
 10
-5.02940094E+01
 20
1.59616483E+02
  0
VERTEX
  8
0
 62
4
 10
-5.02760620E+01
 20
1.59423039E+02
  0
VERTEX
  8
0
 62
4
 10
-5.02462125E+01
 20
1.59230816E+02
  0
VERTEX
  8
0
 62
4
 10
-5.02045551E+01
 20
1.59040421E+02
  0
SEQEND
  8
0
  0
ARC
  8
0
 62
4
 10
-9.17816884E+01
 20
1.16254885E+02
 40
5.61787639E+01
 50
4.52517517E+01
 51
5.01291401E+01
  0
ARC
  8
0
 62
4
 10
-1.62182435E+01
 20
1.16254814E+02
 40
5.61788594E+01
 50
1.29870864E+02
 51
1.34748244E+02
  0
LINE
  8
0
 62
4
 10
-4.98499981E+01
 20
1.56783258E+02
 11
-4.98499981E+01
 21
1.57513118E+02
  0
POLYLINE
  8
0
 62
4
 66
1
  0
VERTEX
  8
0
 62
4
 10
-5.81499981E+01
 20
1.56783258E+02
  0
VERTEX
  8
0
 62
4
 10
-5.81324200E+01
 20
1.56436052E+02
  0
VERTEX
  8
0
 62
4
 10
-5.80798348E+01
 20
1.56091788E+02
  0
VERTEX
  8
0
 62
4
 10
-5.79926878E+01
 20
1.55753381E+02
  0
VERTEX
  8
0
 62
4
 10
-5.78717173E+01
 20
1.55423698E+02
  0
VERTEX
  8
0
 62
4
 10
-5.77179481E+01
 20
1.55105533E+02
  0
VERTEX
  8
0
 62
4
 10
-5.75326829E+01
 20
1.54801581E+02
  0
VERTEX
  8
0
 62
4
 10
-5.73174910E+01
 20
1.54514416E+02
  0
VERTEX
  8
0
 62
4
 10
-5.70741955E+01
 20
1.54246471E+02
  0
VERTEX
  8
0
 62
4
 10
-5.68048574E+01
 20
1.54000016E+02
  0
SEQEND
  8
0
  0
LINE
  8
0
 62
4
 10
-5.81499981E+01
 20
1.56783258E+02
 11
-5.81499981E+01
 21
1.57513118E+02
  0
LINE
  8
0
 62
4
 10
-6.89999981E+01
 20
1.54441767E+02
 11
-5.72559565E+01
 21
1.54441767E+02
  0
LINE
  8
0
 62
4
 10
-5.07440396E+01
 20
1.54441767E+02
 11
-3.89999981E+01
 21
1.54441767E+02
  0
LINE
  8
0
 62
4
 10
-5.11138254E+01
 20
1.54069725E+02
 11
-4.54999981E+01
 21
1.54069725E+02
  0
LINE
  8
0
 62
4
 10
2.00000210E+01
 20
1.54069725E+02
 11
2.15000210E+01
 21
1.52917276E+02
  0
LINE
  8
0
 62
4
 10
2.15000210E+01
 20
1.50856214E+02
 11
2.00000210E+01
 21
1.50429880E+02
  0
LINE
  8
0
 62
4
 10
2.15000210E+01
 20
1.49916934E+02
 11
2.00000210E+01
 21
1.48771107E+02
  0
LINE
  8
0
 62
4
 10
2.15000210E+01
 20
1.52917276E+02
 11
2.15000210E+01
 21
1.49916934E+02
  0
LINE
  8
0
 62
7
 10
2.00907342E+01
 20
1.54000031E+02
 11
2.80000019E+01
 21
1.54000031E+02
  0
LINE
  8
0
 62
7
 10
-9.99997902E+00
 20
1.47000061E+02
 11
-8.30000286E+01
 21
1.47000061E+02
  0
LINE
  8
0
 62
7
 10
-9.99997902E+00
 20
1.38000000E+02
 11
-8.30000286E+01
 21
1.38000000E+02
  0
LINE
  8
0
 62
2
 10
-3.09916624E+02
 20
1.00464783E+02
 11
-3.09916624E+02
 21
1.00500076E+02
  0
LINE
  8
0
 62
7
 10
-3.03600035E+02
 20
1.51500000E+02
 11
-3.03600035E+02
 21
4.94999695E+01
  0
LINE
  8
0
 62
7
 10
-4.09999998E+02
 20
4.51000061E+01
 11
-3.08000059E+02
 21
4.51000061E+01
  0
LINE
  8
0
 62
7
 10
-3.06599974E+02
 20
1.25516174E+02
 11
-3.06599974E+02
 21
7.54840546E+01
  0
LINE
  8
0
 62
7
 10
-3.07600035E+02
 20
1.01750000E+02
 11
-3.33097532E+02
 21
1.01750000E+02
  0
LINE
  8
0
 62
7
 10
-3.39800321E+02
 20
8.30680880E+01
 11
-3.24810642E+02
 21
6.80784060E+01
  0
LINE
  8
0
 62
7
 10
-3.41568217E+02
 20
8.13001917E+01
 11
-3.26578582E+02
 21
6.63105529E+01
  0
LINE
  8
0
 62
7
 10
-3.07600035E+02
 20
9.92500000E+01
 11
-3.33097532E+02
 21
9.92500000E+01
  0
LINE
  8
0
 62
7
 10
-3.76432198E+02
 20
8.13004229E+01
 11
-3.91421878E+02
 21
6.63107434E+01
  0
LINE
  8
0
 62
7
 10
-3.78199943E+02
 20
8.30682115E+01
 11
-3.93189624E+02
 21
6.80785320E+01
  0
LINE
  8
0
 62
7
 10
-3.84015989E+02
 20
4.81000061E+01
 11
-3.33983824E+02
 21
4.81000061E+01
  0
LINE
  8
0
 62
7
 10
-3.60249998E+02
 20
4.90999756E+01
 11
-3.60249998E+02
 21
7.45974731E+01
  0
LINE
  8
0
 62
7
 10
-4.10400023E+02
 20
9.92500000E+01
 11
-3.84902586E+02
 21
9.92500000E+01
  0
LINE
  8
0
 62
7
 10
-3.03000059E+02
 20
1.51500000E+02
 11
-3.03000059E+02
 21
4.95000153E+01
  0
LINE
  8
0
  6
CENTER
 62
2
 10
-3.16999998E+02
 20
1.59392731E+02
 11
-3.16999998E+02
 21
1.27642197E+02
  0
LINE
  8
0
 62
7
 10
-4.09999998E+02
 20
4.45000000E+01
 11
-3.08000059E+02
 21
4.45000000E+01
  0
LINE
  8
0
  6
CENTER
 62
2
 10
-4.00999998E+02
 20
4.28217163E+01
 11
-4.00999998E+02
 21
7.28636627E+01
  0
LINE
  8
0
  6
CENTER
 62
2
 10
-4.17068602E+02
 20
5.85000000E+01
 11
-3.85503904E+02
 21
5.85000000E+01
  0
LINE
  8
0
 62
7
 10
-3.57749998E+02
 20
4.90999756E+01
 11
-3.57749998E+02
 21
7.45974731E+01
  0
LINE
  8
0
 62
7
 10
-3.57749998E+02
 20
1.51900024E+02
 11
-3.57749998E+02
 21
1.26402557E+02
  0
LINE
  8
0
  6
CENTER
 62
2
 10
-3.40999998E+02
 20
1.58286591E+02
 11
-3.40999998E+02
 21
1.13154877E+02
  0
LINE
  8
0
 62
7
 10
-3.41568254E+02
 20
1.19699996E+02
 11
-3.26578571E+02
 21
1.34689673E+02
  0
LINE
  8
0
 62
7
 10
-3.39800379E+02
 20
1.17932164E+02
 11
-3.24810696E+02
 21
1.32921841E+02
  0
LINE
  8
0
 62
7
 10
-3.23999998E+02
 20
1.56500000E+02
 11
-3.23999998E+02
 21
1.55900024E+02
  0
LINE
  8
0
 62
7
 10
-3.94000059E+02
 20
4.51000061E+01
 11
-3.94000059E+02
 21
4.45000153E+01
  0
LINE
  8
0
 62
7
 10
-3.23999998E+02
 20
4.51000061E+01
 11
-3.23999998E+02
 21
4.45000153E+01
  0
LINE
  8
0
 62
7
 10
-4.09999998E+02
 20
1.55900024E+02
 11
-3.08000059E+02
 21
1.55900024E+02
  0
LINE
  8
0
 62
7
 10
-4.14400023E+02
 20
1.51500031E+02
 11
-4.14400023E+02
 21
4.95000153E+01
  0
LINE
  8
0
 62
7
 10
-3.78199852E+02
 20
1.17931972E+02
 11
-3.93189489E+02
 21
1.32921609E+02
  0
LINE
  8
0
 62
7
 10
-3.76432192E+02
 20
1.19699718E+02
 11
-3.91421830E+02
 21
1.34689354E+02
  0
LINE
  8
0
 62
7
 10
-3.84016233E+02
 20
1.52900024E+02
 11
-3.33984007E+02
 21
1.52900024E+02
  0
LINE
  8
0
 62
7
 10
-4.11400023E+02
 20
1.25515961E+02
 11
-4.11400023E+02
 21
7.56844788E+01
  0
LINE
  8
0
 62
7
 10
-4.10400023E+02
 20
1.01750000E+02
 11
-3.84902586E+02
 21
1.01750000E+02
  0
LINE
  8
0
 62
7
 10
-3.60249998E+02
 20
1.51900024E+02
 11
-3.60249998E+02
 21
1.26402542E+02
  0
LINE
  8
0
 62
7
 10
-4.09999998E+02
 20
1.56500000E+02
 11
-3.08000059E+02
 21
1.56500000E+02
  0
LINE
  8
0
 62
7
 10
-4.14999998E+02
 20
1.51500000E+02
 11
-4.14999998E+02
 21
4.95000153E+01
  0
LINE
  8
0
  6
CENTER
 62
2
 10
-4.16963926E+02
 20
1.42500000E+02
 11
-3.85109007E+02
 21
1.42500000E+02
  0
LINE
  8
0
  6
CENTER
 62
2
 10
-4.00999998E+02
 20
1.58980774E+02
 11
-4.00999998E+02
 21
1.28073807E+02
  0
LINE
  8
0
 62
7
 10
-3.94000059E+02
 20
1.56500000E+02
 11
-3.94000059E+02
 21
1.55900024E+02
  0
LINE
  8
0
  6
CENTER
 62
2
 10
-3.58999998E+02
 20
1.59166321E+02
 11
-3.58999998E+02
 21
4.30072632E+01
  0
LINE
  8
0
  6
CENTER
 62
2
 10
-3.31806273E+02
 20
5.85000000E+01
 11
-3.00624388E+02
 21
5.85000000E+01
  0
LINE
  8
0
  6
CENTER
 62
2
 10
-3.31806273E+02
 20
1.42500000E+02
 11
-3.00716856E+02
 21
1.42500000E+02
  0
LINE
  8
0
  6
CENTER
 62
2
 10
-3.70999998E+02
 20
1.16543854E+02
 11
-3.70999998E+02
 21
1.58763611E+02
  0
LINE
  8
0
  6
CENTER
 62
2
 10
-3.16999998E+02
 20
4.29277039E+01
 11
-3.16999998E+02
 21
7.34962158E+01
  0
LINE
  8
0
  6
CENTER
 62
2
 10
-3.01139097E+02
 20
1.00500000E+02
 11
-4.16905027E+02
 21
1.00500000E+02
  0
CIRCLE
  8
0
 62
7
 10
-3.16999998E+02
 20
1.42500000E+02
 40
8.69999981E+00
  0
CIRCLE
  8
0
 62
7
 10
-3.16999998E+02
 20
5.85000000E+01
 40
8.69999981E+00
  0
CIRCLE
  8
0
 62
7
 10
-4.00999998E+02
 20
5.84999695E+01
 40
8.69999981E+00
  0
ARC
  8
0
 62
7
 10
-3.24103514E+02
 20
1.32214539E+02
 40
1.00000000E+00
 50
5.53696252E+01
 51
1.34999959E+02
  0
ARC
  8
0
 62
7
 10
-3.27285460E+02
 20
1.35396545E+02
 40
1.00000000E+00
 50
3.14999995E+02
 51
3.46303842E+01
  0
ARC
  8
0
 62
7
 10
-3.39093138E+02
 20
1.17224884E+02
 40
1.00000000E+00
 50
1.34999959E+02
 51
2.20035227E+02
  0
ARC
  8
0
 62
7
 10
-3.42275145E+02
 20
1.20406906E+02
 40
1.00000000E+00
 50
2.29964427E+02
 51
3.14999988E+02
  0
ARC
  8
0
 62
7
 10
-3.56749998E+02
 20
1.51899994E+02
 40
1.00000000E+00
 50
8.99999818E+01
 51
1.79999964E+02
  0
ARC
  8
0
 62
7
 10
-3.56749998E+02
 20
1.26402557E+02
 40
1.00000000E+00
 50
1.79999964E+02
 51
2.65035792E+02
  0
ARC
  8
0
 62
7
 10
-3.33097471E+02
 20
1.02750000E+02
 40
1.00000000E+00
 50
1.84964149E+02
 51
2.69999956E+02
  0
ARC
  8
0
 62
7
 10
-3.07599974E+02
 20
1.02750000E+02
 40
1.00000000E+00
 50
2.69999963E+02
 51
0.00000000E+00
  0
ARC
  8
0
 62
7
 10
-3.27285460E+02
 20
6.56034851E+01
 40
1.00000000E+00
 50
3.25369629E+02
 51
4.49999637E+01
  0
ARC
  8
0
 62
7
 10
-3.24103514E+02
 20
6.87854614E+01
 40
1.00000000E+00
 50
2.25000000E+02
 51
3.04630388E+02
  0
ARC
  8
0
 62
7
 10
-3.42275084E+02
 20
8.05931091E+01
 40
1.00000000E+00
 50
4.49999637E+01
 51
1.30035231E+02
  0
ARC
  8
0
 62
7
 10
-3.39093138E+02
 20
8.37751465E+01
 40
1.00000000E+00
 50
1.39964428E+02
 51
2.24999982E+02
  0
ARC
  8
0
 62
7
 10
-3.07599974E+02
 20
9.82500000E+01
 40
1.00000000E+00
 50
3.59999986E+02
 51
8.99999681E+01
  0
ARC
  8
0
 62
7
 10
-3.33097471E+02
 20
9.82500000E+01
 40
1.00000000E+00
 50
8.99999681E+01
 51
1.75035796E+02
  0
ARC
  8
0
 62
7
 10
-3.56749998E+02
 20
7.45974579E+01
 40
1.00000000E+00
 50
9.49641432E+01
 51
1.79999951E+02
  0
ARC
  8
0
 62
7
 10
-3.56749998E+02
 20
4.91000061E+01
 40
1.00000000E+00
 50
1.79999951E+02
 51
2.70000001E+02
  0
ARC
  8
0
 62
7
 10
-3.93896482E+02
 20
6.87854462E+01
 40
1.00000000E+00
 50
2.35369648E+02
 51
3.14999968E+02
  0
ARC
  8
0
 62
7
 10
-3.90714537E+02
 20
6.56034241E+01
 40
1.00000000E+00
 50
1.34999987E+02
 51
2.14630376E+02
  0
ARC
  8
0
 62
7
 10
-3.78906858E+02
 20
8.37750854E+01
 40
1.00000000E+00
 50
3.14999968E+02
 51
4.00352358E+01
  0
ARC
  8
0
 62
7
 10
-3.75724913E+02
 20
8.05930939E+01
 40
1.00000000E+00
 50
4.99644184E+01
 51
1.34999987E+02
  0
ARC
  8
0
 62
7
 10
-3.61249998E+02
 20
4.91000061E+01
 40
1.00000000E+00
 50
2.69999991E+02
 51
3.59999973E+02
  0
ARC
  8
0
 62
7
 10
-3.61249998E+02
 20
7.45974579E+01
 40
1.00000000E+00
 50
3.59999973E+02
 51
8.50358005E+01
  0
ARC
  8
0
 62
7
 10
-3.84902586E+02
 20
9.82500000E+01
 40
1.00000000E+00
 50
4.96415417E+00
 51
8.99999549E+01
  0
ARC
  8
0
 62
7
 10
-4.10400023E+02
 20
9.82500000E+01
 40
1.00000000E+00
 50
8.99999549E+01
 51
1.79999991E+02
  0
ARC
  8
0
 62
7
 10
-3.08000059E+02
 20
1.51500000E+02
 40
4.40000010E+00
 50
0.00000000E+00
 51
8.99999818E+01
  0
ARC
  8
0
 62
7
 10
-3.16999998E+02
 20
5.85000000E+01
 40
1.15000000E+01
 50
7.13249336E+01
 51
1.98674411E+02
  0
ARC
  8
0
 62
7
 10
-4.00999998E+02
 20
5.85000000E+01
 40
1.15000000E+01
 50
3.41325006E+02
 51
1.07701394E+02
  0
ARC
  8
0
 62
7
 10
-4.09999998E+02
 20
4.95000000E+01
 40
4.40000010E+00
 50
1.79999964E+02
 51
2.69999946E+02
  0
ARC
  8
0
 62
7
 10
-3.08000059E+02
 20
4.94999695E+01
 40
4.40000010E+00
 50
2.69999963E+02
 51
0.00000000E+00
  0
ARC
  8
0
 62
7
 10
-3.08000059E+02
 20
1.51500000E+02
 40
5.00000000E+00
 50
0.00000000E+00
 51
8.99999818E+01
  0
CIRCLE
  8
0
 62
7
 10
-3.16999998E+02
 20
1.42500000E+02
 40
8.00000000E+00
  0
ARC
  8
0
 62
7
 10
-4.09999998E+02
 20
4.95000000E+01
 40
5.00000000E+00
 50
1.79999964E+02
 51
2.69999946E+02
  0
CIRCLE
  8
0
 62
7
 10
-4.00999998E+02
 20
5.84999695E+01
 40
8.00000000E+00
  0
ARC
  8
0
 62
7
 10
-3.08000059E+02
 20
4.95000000E+01
 40
5.00000000E+00
 50
2.69999963E+02
 51
0.00000000E+00
  0
CIRCLE
  8
0
 62
7
 10
-3.16999998E+02
 20
5.85000000E+01
 40
8.00000000E+00
  0
ARC
  8
0
 62
7
 10
-3.07599974E+02
 20
1.25516159E+02
 40
1.00000000E+00
 50
0.00000000E+00
 51
9.45895548E+01
  0
ARC
  8
0
 62
7
 10
-3.33984007E+02
 20
1.51899994E+02
 40
1.00000000E+00
 50
3.55412204E+02
 51
8.99999818E+01
  0
ARC
  8
0
 62
7
 10
-4.09999876E+02
 20
7.04998627E+01
 40
4.19999981E+00
 50
3.58989755E+02
 51
9.44131721E+01
  0
ARC
  8
0
 62
7
 10
-3.88999937E+02
 20
4.95000000E+01
 40
4.00000000E+00
 50
3.55411551E+02
 51
9.18126662E+01
  0
ARC
  8
0
 62
7
 10
-3.28999876E+02
 20
4.95001221E+01
 40
4.00000000E+00
 50
8.81895309E+01
 51
1.84590151E+02
  0
ARC
  8
0
 62
7
 10
-3.08000059E+02
 20
7.05000610E+01
 40
4.00000000E+00
 50
8.54113313E+01
 51
1.81813065E+02
  0
ARC
  8
0
 62
7
 10
-4.10400023E+02
 20
7.56844635E+01
 40
1.00000000E+00
 50
1.79999977E+02
 51
2.74414133E+02
  0
ARC
  8
0
 62
7
 10
-3.84015928E+02
 20
4.91000061E+01
 40
1.00000000E+00
 50
1.75411348E+02
 51
2.70000001E+02
  0
ARC
  8
0
 62
7
 10
-3.33983885E+02
 20
4.90999756E+01
 40
1.00000000E+00
 50
2.70000018E+02
 51
4.59054965E+00
  0
ARC
  8
0
 62
7
 10
-3.07599974E+02
 20
7.54840393E+01
 40
1.00000000E+00
 50
2.65412187E+02
 51
0.00000000E+00
  0
ARC
  8
0
 62
7
 10
-3.28841856E+02
 20
1.46502502E+02
 40
1.00000000E+00
 50
3.41324803E+02
 51
9.18135474E+01
  0
ARC
  8
0
 62
7
 10
-3.12997618E+02
 20
1.30658081E+02
 40
1.00000000E+00
 50
3.58189936E+02
 51
1.08674388E+02
  0
ARC
  8
0
 62
7
 10
-4.04800657E+02
 20
7.04081726E+01
 40
1.00000000E+00
 50
1.78989315E+02
 51
2.87700627E+02
  0
ARC
  8
0
 62
7
 10
-3.89158140E+02
 20
5.44974976E+01
 40
1.00000000E+00
 50
1.61324820E+02
 51
2.71813498E+02
  0
ARC
  8
0
 62
7
 10
-3.28841917E+02
 20
5.44976196E+01
 40
1.00000000E+00
 50
2.68189943E+02
 51
1.86743690E+01
  0
ARC
  8
0
 62
7
 10
-3.12997557E+02
 20
7.03418579E+01
 40
1.00000000E+00
 50
2.51325332E+02
 51
1.81263018E+00
  0
ARC
  8
0
 62
7
 10
-3.16999998E+02
 20
1.42500000E+02
 40
1.15000000E+01
 50
1.61325025E+02
 51
2.88674421E+02
  0
ARC
  8
0
 62
7
 10
-3.29000120E+02
 20
1.51500000E+02
 40
4.00000000E+00
 50
1.75411348E+02
 51
2.71812624E+02
  0
ARC
  8
0
 62
7
 10
-3.08000120E+02
 20
1.30500122E+02
 40
4.00000000E+00
 50
1.78189554E+02
 51
2.74590407E+02
  0
CIRCLE
  8
0
 62
7
 10
-4.00999998E+02
 20
1.42499969E+02
 40
8.69999981E+00
  0
ARC
  8
0
 62
7
 10
-3.90714537E+02
 20
1.35396515E+02
 40
1.00000000E+00
 50
1.45369634E+02
 51
2.24999955E+02
  0
ARC
  8
0
 62
7
 10
-3.93896605E+02
 20
1.32214508E+02
 40
1.00000000E+00
 50
4.49999910E+01
 51
1.24630380E+02
  0
ARC
  8
0
 62
7
 10
-4.10400023E+02
 20
1.02749969E+02
 40
1.00000000E+00
 50
1.79999964E+02
 51
2.69999946E+02
  0
ARC
  8
0
 62
7
 10
-3.61249998E+02
 20
1.51899994E+02
 40
1.00000000E+00
 50
3.59999959E+02
 51
8.99999956E+01
  0
ARC
  8
0
 62
7
 10
-3.84902586E+02
 20
1.02750000E+02
 40
1.00000000E+00
 50
2.69999963E+02
 51
3.55035805E+02
  0
ARC
  8
0
 62
7
 10
-3.78906981E+02
 20
1.17224854E+02
 40
1.00000000E+00
 50
3.19964423E+02
 51
4.49999910E+01
  0
ARC
  8
0
 62
7
 10
-3.75724913E+02
 20
1.20406891E+02
 40
1.00000000E+00
 50
2.24999972E+02
 51
3.10035254E+02
  0
ARC
  8
0
 62
7
 10
-3.61249998E+02
 20
1.26402527E+02
 40
1.00000000E+00
 50
2.74964145E+02
 51
3.59999959E+02
  0
ARC
  8
0
 62
7
 10
-4.00999998E+02
 20
1.42500000E+02
 40
1.15000000E+01
 50
2.51324914E+02
 51
1.86744424E+01
  0
ARC
  8
0
 62
7
 10
-4.09999998E+02
 20
1.51500031E+02
 40
4.40000010E+00
 50
8.99999818E+01
 51
1.79999964E+02
  0
ARC
  8
0
 62
7
 10
-4.09999998E+02
 20
1.51500000E+02
 40
5.00000000E+00
 50
8.99999818E+01
 51
1.79999964E+02
  0
CIRCLE
  8
0
 62
7
 10
-4.00999998E+02
 20
1.42499969E+02
 40
8.00000000E+00
  0
ARC
  8
0
 62
7
 10
-4.09999998E+02
 20
1.30499939E+02
 40
4.00000000E+00
 50
2.65411312E+02
 51
1.81309463E+00
  0
ARC
  8
0
 62
7
 10
-3.89000120E+02
 20
1.51499878E+02
 40
4.00000000E+00
 50
2.68189512E+02
 51
4.59040963E+00
  0
ARC
  8
0
 62
7
 10
-4.10400023E+02
 20
1.25515961E+02
 40
1.00000000E+00
 50
8.54104639E+01
 51
1.79999964E+02
  0
ARC
  8
0
 62
7
 10
-3.84016233E+02
 20
1.51900024E+02
 40
1.00000000E+00
 50
8.99999818E+01
 51
1.84589646E+02
  0
ARC
  8
0
 62
7
 10
-4.05002501E+02
 20
1.30658127E+02
 40
1.00000000E+00
 50
7.13253501E+01
 51
1.81812600E+02
  0
ARC
  8
0
 62
7
 10
-3.89158140E+02
 20
1.46502380E+02
 40
1.00000000E+00
 50
8.81899612E+01
 51
1.98674330E+02
  0
CIRCLE
  8
0
 62
7
 10
-3.58999937E+02
 20
1.00500061E+02
 40
2.50000153E+01
  0
CIRCLE
  8
0
 62
7
 10
-3.58999937E+02
 20
1.00500061E+02
 40
2.35000153E+01
  0
CIRCLE
  8
0
 62
7
 10
-3.58999998E+02
 20
1.00500000E+02
 40
2.40000000E+01
  0
CIRCLE
  8
0
 62
2
 10
-4.00999998E+02
 20
5.85000000E+01
 40
5.00000000E+00
  0
CIRCLE
  8
0
 62
2
 10
-4.00999998E+02
 20
1.42500000E+02
 40
5.00000000E+00
  0
CIRCLE
  8
0
 62
2
 10
-3.16999998E+02
 20
1.42500000E+02
 40
5.00000000E+00
  0
CIRCLE
  8
0
 62
2
 10
-3.16999998E+02
 20
5.85000000E+01
 40
5.00000000E+00
  0
CIRCLE
  8
0
 62
7
 10
-4.00999998E+02
 20
5.85000000E+01
 40
4.17999983E+00
  0
CIRCLE
  8
0
 62
7
 10
-4.00999998E+02
 20
1.42500000E+02
 40
4.17999983E+00
  0
CIRCLE
  8
0
 62
7
 10
-3.16999998E+02
 20
1.42500000E+02
 40
4.17999983E+00
  0
CIRCLE
  8
0
 62
7
 10
-3.16999998E+02
 20
5.85000000E+01
 40
4.17999983E+00
  0
CIRCLE
  8
0
 62
2
 10
-3.58999998E+02
 20
1.00500000E+02
 40
1.21799841E+01
  0
CIRCLE
  8
0
 62
4
 10
-3.58999998E+02
 20
1.00500000E+02
 40
1.80000000E+01
  0
CIRCLE
  8
0
 62
7
 10
-3.58999998E+02
 20
1.00500000E+02
 40
1.30000000E+01
  0
LINE
  8
0
 62
4
 10
-3.77000006E+02
 20
1.10892303E+02
 11
-3.77000006E+02
 21
9.01076965E+01
  0
LINE
  8
0
 62
4
 10
-3.40999998E+02
 20
1.10892303E+02
 11
-3.40999998E+02
 21
9.01076965E+01
  0
LINE
  8
0
 62
4
 10
-3.77000063E+02
 20
1.10892269E+02
 11
-3.59000061E+02
 21
1.21284573E+02
  0
LINE
  8
0
 62
4
 10
-3.59000077E+02
 20
7.97153727E+01
 11
-3.41000075E+02
 21
9.01076769E+01
  0
LINE
  8
0
 62
4
 10
-3.59000141E+02
 20
1.21284608E+02
 11
-3.41000135E+02
 21
1.10892302E+02
  0
LINE
  8
0
 62
4
 10
-3.77000086E+02
 20
9.01077224E+01
 11
-3.59000094E+02
 21
7.97154240E+01
  0
LINE
  8
0
 62
4
 10
-3.29004149E+02
 20
1.63905365E+02
 11
-3.19631548E+02
 21
1.59634024E+02
  0
LINE
  8
0
 62
4
 10
-3.13261819E+02
 20
1.56731172E+02
 11
-3.19631548E+02
 21
1.59634024E+02
  0
LINE
  8
0
 62
4
 10
-3.29294434E+02
 20
1.63268392E+02
 11
-3.30204395E+02
 21
1.63683085E+02
  0
ARC
  8
0
 62
4
 10
-3.33804480E+02
 20
1.58510261E+02
 40
1.00000000E+00
 50
1.68327510E+02
 51
2.45500000E+02
  0
ARC
  8
0
 62
4
 10
-3.31813952E+02
 20
1.62878076E+02
 40
1.00000000E+00
 50
6.55000000E+01
 51
1.42672490E+02
  0
LINE
  8
0
 62
4
 10
-3.33190187E+02
 20
1.57131364E+02
 11
-3.34218443E+02
 21
1.57599967E+02
  0
LINE
  8
0
 62
4
 10
-3.30370273E+02
 20
1.63319100E+02
 11
-3.31398529E+02
 21
1.63787704E+02
  0
LINE
  8
0
 62
4
 10
-3.33356064E+02
 20
1.56767379E+02
 11
-3.30204395E+02
 21
1.63683085E+02
  0
ARC
  8
0
 62
4
 10
-3.23218030E+02
 20
1.56323213E+02
 40
1.18100000E+01
 50
1.42672490E+02
 51
1.68327510E+02
  0
ARC
  8
0
 62
4
 10
-3.24201871E+02
 20
1.52933762E+02
 40
1.18100000E+01
 50
1.53400933E+02
 51
1.55500000E+02
  0
ARC
  8
0
 62
4
 10
-3.24208289E+02
 20
1.52919679E+02
 40
1.18100000E+01
 50
1.55500000E+02
 51
1.62352491E+02
  0
LINE
  8
0
 62
4
 10
-3.21059805E+02
 20
1.56500000E+02
 11
-3.19631548E+02
 21
1.59634024E+02
  0
LINE
  8
0
 62
4
 10
-3.32378968E+02
 20
1.56500000E+02
 11
-3.29004149E+02
 21
1.63905365E+02
  0
LINE
  8
0
 62
4
 10
-3.32769354E+02
 20
1.56500000E+02
 11
-3.33356064E+02
 21
1.56767379E+02
  0
LINE
  8
0
 62
4
 10
-3.13151556E+02
 20
1.56500000E+02
 11
-3.13261819E+02
 21
1.56731172E+02
  0
LINE
  8
0
 62
4
 10
-3.32796568E+02
 20
1.56500000E+02
 11
-3.32791888E+02
 21
1.56510270E+02
  0
LINE
  8
0
  6
CENTER
 62
6
 10
-3.25626403E+02
 20
1.57420744E+02
 11
-3.34855201E+02
 21
1.61626550E+02
  0
LINE
  8
0
  6
CENTER
 62
6
 10
-3.27077829E+02
 20
1.54235880E+02
 11
-3.36306628E+02
 21
1.58441685E+02
  0
LINE
  8
0
 62
4
 10
-3.88995786E+02
 20
1.63905365E+02
 11
-3.98368388E+02
 21
1.59634024E+02
  0
LINE
  8
0
  6
CENTER
 62
6
 10
-3.92373593E+02
 20
1.57420744E+02
 11
-3.83144795E+02
 21
1.61626550E+02
  0
LINE
  8
0
  6
CENTER
 62
6
 10
-3.90922167E+02
 20
1.54235880E+02
 11
-3.81693369E+02
 21
1.58441685E+02
  0
LINE
  8
0
 62
4
 10
-4.04738116E+02
 20
1.56731172E+02
 11
-3.98368388E+02
 21
1.59634024E+02
  0
LINE
  8
0
 62
4
 10
-3.88705501E+02
 20
1.63268392E+02
 11
-3.87795540E+02
 21
1.63683085E+02
  0
ARC
  8
0
 62
4
 10
-3.84195455E+02
 20
1.58510261E+02
 40
1.00000000E+00
 50
3.43223662E+02
 51
1.16724900E+01
  0
ARC
  8
0
 62
4
 10
-3.86185983E+02
 20
1.62878076E+02
 40
1.00000000E+00
 50
3.73275101E+01
 51
1.14500000E+02
  0
ARC
  8
0
 62
4
 10
-3.94781905E+02
 20
1.56323213E+02
 40
1.18100000E+01
 50
1.16724900E+01
 51
3.73275101E+01
  0
LINE
  8
0
 62
4
 10
-3.87629663E+02
 20
1.63319100E+02
 11
-3.86601406E+02
 21
1.63787704E+02
  0
LINE
  8
0
 62
4
 10
-3.86489256E+02
 20
1.60816707E+02
 11
-3.87795540E+02
 21
1.63683085E+02
  0
LINE
  8
0
 62
4
 10
-3.87337013E+02
 20
1.60265520E+02
 11
-3.86991228E+02
 21
1.60423103E+02
  0
LINE
  8
0
 62
4
 10
-3.87053432E+02
 20
1.60559597E+02
 11
-3.85451900E+02
 21
1.61289457E+02
  0
ARC
  8
0
 62
4
 10
-3.93798064E+02
 20
1.52933762E+02
 40
1.18100000E+01
 50
2.45000000E+01
 51
4.50326991E+01
  0
ARC
  8
0
 62
4
 10
-3.93791646E+02
 20
1.52919679E+02
 40
1.18100000E+01
 50
1.76475088E+01
 51
2.45000000E+01
  0
LINE
  8
0
 62
4
 10
-4.04848380E+02
 20
1.56500000E+02
 11
-4.04738116E+02
 21
1.56731172E+02
  0
LINE
  8
0
 62
4
 10
-3.96940130E+02
 20
1.56500000E+02
 11
-3.98368388E+02
 21
1.59634024E+02
  0
LINE
  8
0
 62
4
 10
-3.85620967E+02
 20
1.56500000E+02
 11
-3.88995786E+02
 21
1.63905365E+02
  0
LINE
  8
0
 62
4
 10
-3.85203367E+02
 20
1.56500000E+02
 11
-3.87053432E+02
 21
1.60559597E+02
  0
LINE
  8
0
 62
7
 10
4.34500078E+02
 20
1.08294229E+02
 11
4.21000078E+02
 21
1.16088457E+02
  0
LINE
  8
0
 62
7
 10
4.34500078E+02
 20
9.27057714E+01
 11
4.34500078E+02
 21
1.08294229E+02
  0
LINE
  8
0
 62
7
 10
4.21000078E+02
 20
8.49115427E+01
 11
4.34500078E+02
 21
9.27057714E+01
  0
LINE
  8
0
 62
7
 10
4.07500078E+02
 20
9.27057714E+01
 11
4.21000078E+02
 21
8.49115427E+01
  0
LINE
  8
0
 62
7
 10
4.07500078E+02
 20
1.08294229E+02
 11
4.07500078E+02
 21
9.27057714E+01
  0
LINE
  8
0
 62
7
 10
4.21000078E+02
 20
1.16088457E+02
 11
4.07500078E+02
 21
1.08294229E+02
  0
CIRCLE
  8
0
 62
7
 10
4.21000078E+02
 20
1.00500000E+02
 40
1.35000000E+01
  0
CIRCLE
  8
0
 62
2
 10
4.21000078E+02
 20
1.00500000E+02
 40
9.17997742E+00
  0
CIRCLE
  8
0
 62
7
 10
4.21000078E+02
 20
1.00500000E+02
 40
9.99985153E+00
  0
CIRCLE
  8
0
 62
7
 10
4.21000078E+02
 20
1.00500000E+02
 40
8.50000000E+00
  0
LINE
  8
0
 62
7
 10
4.44000182E+02
 20
1.10297958E+02
 11
4.44000130E+02
 21
9.07020416E+01
  0
LINE
  8
0
 62
7
 10
3.98000096E+02
 20
1.10297958E+02
 11
3.98000148E+02
 21
9.07020416E+01
  0
ARC
  8
0
 62
7
 10
4.72000078E+02
 20
4.95000000E+01
 40
4.00000000E+00
 50
2.70000000E+02
 51
0.00000000E+00
  0
ARC
  8
0
 62
7
 10
3.70000078E+02
 20
4.95000000E+01
 40
4.00000000E+00
 50
1.80000000E+02
 51
2.70000000E+02
  0
ARC
  8
0
 62
7
 10
3.70000078E+02
 20
1.51500000E+02
 40
4.00000000E+00
 50
9.00000002E+01
 51
1.80000000E+02
  0
ARC
  8
0
 62
7
 10
4.72000078E+02
 20
1.51500000E+02
 40
4.00000000E+00
 50
0.00000000E+00
 51
9.00000002E+01
  0
LINE
  8
0
 62
7
 10
3.66000078E+02
 20
1.51500000E+02
 11
3.66000078E+02
 21
4.95000000E+01
  0
LINE
  8
0
 62
7
 10
4.76000078E+02
 20
1.51500000E+02
 11
4.76000078E+02
 21
4.95000000E+01
  0
LINE
  8
0
 62
7
 10
3.70000078E+02
 20
4.55000000E+01
 11
4.72000078E+02
 21
4.55000000E+01
  0
LINE
  8
0
 62
7
 10
3.70000078E+02
 20
1.55500000E+02
 11
4.72000078E+02
 21
1.55500000E+02
  0
LINE
  8
0
 62
4
 10
3.94796709E+02
 20
1.56500000E+02
 11
3.92946644E+02
 21
1.60559597E+02
  0
LINE
  8
0
 62
4
 10
3.94379109E+02
 20
1.56500000E+02
 11
3.91004290E+02
 21
1.63905365E+02
  0
LINE
  8
0
 62
4
 10
3.83059946E+02
 20
1.56500000E+02
 11
3.81631689E+02
 21
1.59634024E+02
  0
LINE
  8
0
 62
4
 10
3.75151697E+02
 20
1.56500000E+02
 11
3.75261960E+02
 21
1.56731172E+02
  0
ARC
  8
0
 62
4
 10
3.86208430E+02
 20
1.52919679E+02
 40
1.18100000E+01
 50
1.76475088E+01
 51
2.45000000E+01
  0
ARC
  8
0
 62
4
 10
3.86202012E+02
 20
1.52933762E+02
 40
1.18100000E+01
 50
2.45000000E+01
 51
4.50326991E+01
  0
LINE
  8
0
 62
4
 10
3.92946644E+02
 20
1.60559597E+02
 11
3.94548176E+02
 21
1.61289457E+02
  0
LINE
  8
0
 62
4
 10
3.92663063E+02
 20
1.60265520E+02
 11
3.93008848E+02
 21
1.60423103E+02
  0
LINE
  8
0
 62
4
 10
3.93510820E+02
 20
1.60816707E+02
 11
3.92204536E+02
 21
1.63683085E+02
  0
LINE
  8
0
 62
4
 10
3.92370414E+02
 20
1.63319100E+02
 11
3.93398670E+02
 21
1.63787704E+02
  0
ARC
  8
0
 62
4
 10
3.85218171E+02
 20
1.56323213E+02
 40
1.18100000E+01
 50
1.16724900E+01
 51
3.73275101E+01
  0
ARC
  8
0
 62
4
 10
3.93814093E+02
 20
1.62878076E+02
 40
1.00000000E+00
 50
3.73275101E+01
 51
1.14500000E+02
  0
ARC
  8
0
 62
4
 10
3.95804621E+02
 20
1.58510261E+02
 40
1.00000000E+00
 50
3.43223662E+02
 51
1.16724900E+01
  0
LINE
  8
0
 62
4
 10
3.91294575E+02
 20
1.63268392E+02
 11
3.92204536E+02
 21
1.63683085E+02
  0
LINE
  8
0
 62
4
 10
3.75261960E+02
 20
1.56731172E+02
 11
3.81631689E+02
 21
1.59634024E+02
  0
LINE
  8
0
  6
CENTER
 62
6
 10
3.89077909E+02
 20
1.54235880E+02
 11
3.98306708E+02
 21
1.58441685E+02
  0
LINE
  8
0
  6
CENTER
 62
6
 10
3.87626483E+02
 20
1.57420744E+02
 11
3.96855281E+02
 21
1.61626550E+02
  0
LINE
  8
0
 62
4
 10
3.91004290E+02
 20
1.63905365E+02
 11
3.81631689E+02
 21
1.59634024E+02
  0
LINE
  8
0
  6
CENTER
 62
6
 10
4.52922247E+02
 20
1.54235880E+02
 11
4.43693449E+02
 21
1.58441685E+02
  0
LINE
  8
0
  6
CENTER
 62
6
 10
4.54373673E+02
 20
1.57420744E+02
 11
4.45144875E+02
 21
1.61626550E+02
  0
LINE
  8
0
 62
4
 10
4.47203508E+02
 20
1.56500000E+02
 11
4.47208188E+02
 21
1.56510270E+02
  0
LINE
  8
0
 62
4
 10
4.66848521E+02
 20
1.56500000E+02
 11
4.66738258E+02
 21
1.56731172E+02
  0
LINE
  8
0
 62
4
 10
4.47230723E+02
 20
1.56500000E+02
 11
4.46644012E+02
 21
1.56767379E+02
  0
LINE
  8
0
 62
4
 10
4.47621108E+02
 20
1.56500000E+02
 11
4.50995928E+02
 21
1.63905365E+02
  0
LINE
  8
0
 62
4
 10
4.58940272E+02
 20
1.56500000E+02
 11
4.60368529E+02
 21
1.59634024E+02
  0
ARC
  8
0
 62
4
 10
4.55791787E+02
 20
1.52919679E+02
 40
1.18100000E+01
 50
1.55500000E+02
 51
1.62352491E+02
  0
ARC
  8
0
 62
4
 10
4.55798205E+02
 20
1.52933762E+02
 40
1.18100000E+01
 50
1.53400933E+02
 51
1.55500000E+02
  0
ARC
  8
0
 62
4
 10
4.56782046E+02
 20
1.56323213E+02
 40
1.18100000E+01
 50
1.42672490E+02
 51
1.68327510E+02
  0
LINE
  8
0
 62
4
 10
4.46644012E+02
 20
1.56767379E+02
 11
4.49795681E+02
 21
1.63683085E+02
  0
LINE
  8
0
 62
4
 10
4.49629804E+02
 20
1.63319100E+02
 11
4.48601548E+02
 21
1.63787704E+02
  0
LINE
  8
0
 62
4
 10
4.46809890E+02
 20
1.57131364E+02
 11
4.45781633E+02
 21
1.57599967E+02
  0
ARC
  8
0
 62
4
 10
4.48186124E+02
 20
1.62878076E+02
 40
1.00000000E+00
 50
6.55000000E+01
 51
1.42672490E+02
  0
ARC
  8
0
 62
4
 10
4.46195596E+02
 20
1.58510261E+02
 40
1.00000000E+00
 50
1.68327510E+02
 51
2.45500000E+02
  0
LINE
  8
0
 62
4
 10
4.50705642E+02
 20
1.63268392E+02
 11
4.49795681E+02
 21
1.63683085E+02
  0
LINE
  8
0
 62
4
 10
4.66738258E+02
 20
1.56731172E+02
 11
4.60368529E+02
 21
1.59634024E+02
  0
LINE
  8
0
 62
4
 10
4.50995928E+02
 20
1.63905365E+02
 11
4.60368529E+02
 21
1.59634024E+02
  0
CIRCLE
  8
0
 62
7
 10
4.63000078E+02
 20
5.85000000E+01
 40
4.17999983E+00
  0
CIRCLE
  8
0
 62
7
 10
4.63000078E+02
 20
1.42500000E+02
 40
4.17999983E+00
  0
CIRCLE
  8
0
 62
7
 10
3.79000078E+02
 20
1.42500000E+02
 40
4.17999983E+00
  0
CIRCLE
  8
0
 62
7
 10
3.79000078E+02
 20
5.85000000E+01
 40
4.17999983E+00
  0
CIRCLE
  8
0
 62
2
 10
4.63000078E+02
 20
5.85000000E+01
 40
5.00000000E+00
  0
CIRCLE
  8
0
 62
2
 10
4.63000078E+02
 20
1.42500000E+02
 40
5.00000000E+00
  0
CIRCLE
  8
0
 62
2
 10
3.79000078E+02
 20
1.42500000E+02
 40
5.00000000E+00
  0
CIRCLE
  8
0
 62
2
 10
3.79000078E+02
 20
5.85000000E+01
 40
5.00000000E+00
  0
CIRCLE
  8
0
 62
7
 10
4.21000139E+02
 20
1.00500061E+02
 40
2.50000153E+01
  0
CIRCLE
  8
0
 62
7
 10
3.79000078E+02
 20
1.42499969E+02
 40
8.00000000E+00
  0
ARC
  8
0
 62
7
 10
3.70000078E+02
 20
1.51500000E+02
 40
5.00000000E+00
 50
8.99999818E+01
 51
1.79999964E+02
  0
ARC
  8
0
 62
7
 10
3.70000078E+02
 20
1.51500031E+02
 40
4.40000010E+00
 50
8.99999818E+01
 51
1.79999964E+02
  0
CIRCLE
  8
0
 62
7
 10
3.79000078E+02
 20
1.42499969E+02
 40
8.69999981E+00
  0
CIRCLE
  8
0
 62
7
 10
4.63000078E+02
 20
5.85000000E+01
 40
8.00000000E+00
  0
ARC
  8
0
 62
7
 10
4.72000017E+02
 20
4.95000000E+01
 40
5.00000000E+00
 50
2.69999963E+02
 51
0.00000000E+00
  0
CIRCLE
  8
0
 62
7
 10
3.79000078E+02
 20
5.84999695E+01
 40
8.00000000E+00
  0
ARC
  8
0
 62
7
 10
3.70000078E+02
 20
4.95000000E+01
 40
5.00000000E+00
 50
1.79999964E+02
 51
2.69999946E+02
  0
CIRCLE
  8
0
 62
7
 10
4.63000078E+02
 20
1.42500000E+02
 40
8.00000000E+00
  0
ARC
  8
0
 62
7
 10
4.72000017E+02
 20
1.51500000E+02
 40
5.00000000E+00
 50
0.00000000E+00
 51
8.99999818E+01
  0
ARC
  8
0
 62
7
 10
4.72000017E+02
 20
4.94999695E+01
 40
4.40000010E+00
 50
2.69999963E+02
 51
0.00000000E+00
  0
ARC
  8
0
 62
7
 10
3.70000078E+02
 20
4.95000000E+01
 40
4.40000010E+00
 50
1.79999964E+02
 51
2.69999946E+02
  0
ARC
  8
0
 62
7
 10
4.72000017E+02
 20
1.51500000E+02
 40
4.40000010E+00
 50
0.00000000E+00
 51
8.99999818E+01
  0
CIRCLE
  8
0
 62
7
 10
3.79000078E+02
 20
5.84999695E+01
 40
8.69999981E+00
  0
CIRCLE
  8
0
 62
7
 10
4.63000078E+02
 20
5.85000000E+01
 40
8.69999981E+00
  0
CIRCLE
  8
0
 62
7
 10
4.63000078E+02
 20
1.42500000E+02
 40
8.69999981E+00
  0
LINE
  8
0
  6
CENTER
 62
2
 10
4.78860979E+02
 20
1.00500000E+02
 11
3.63095049E+02
 21
1.00500000E+02
  0
LINE
  8
0
  6
CENTER
 62
2
 10
4.63000078E+02
 20
4.29277039E+01
 11
4.63000078E+02
 21
7.34962158E+01
  0
LINE
  8
0
  6
CENTER
 62
2
 10
4.33000078E+02
 20
1.16543854E+02
 11
4.33000078E+02
 21
1.58763611E+02
  0
LINE
  8
0
  6
CENTER
 62
2
 10
4.48193804E+02
 20
1.42500000E+02
 11
4.79283220E+02
 21
1.42500000E+02
  0
LINE
  8
0
  6
CENTER
 62
2
 10
4.48193804E+02
 20
5.85000000E+01
 11
4.79375689E+02
 21
5.85000000E+01
  0
LINE
  8
0
  6
CENTER
 62
2
 10
4.21000078E+02
 20
1.59166321E+02
 11
4.21000078E+02
 21
4.30072632E+01
  0
LINE
  8
0
 62
7
 10
3.86000017E+02
 20
1.56500000E+02
 11
3.86000017E+02
 21
1.55900024E+02
  0
LINE
  8
0
  6
CENTER
 62
2
 10
3.79000078E+02
 20
1.58980774E+02
 11
3.79000078E+02
 21
1.28073807E+02
  0
LINE
  8
0
  6
CENTER
 62
2
 10
3.63036150E+02
 20
1.42500000E+02
 11
3.94891069E+02
 21
1.42500000E+02
  0
LINE
  8
0
 62
7
 10
3.65000078E+02
 20
1.51500000E+02
 11
3.65000078E+02
 21
4.95000153E+01
  0
LINE
  8
0
 62
7
 10
3.70000078E+02
 20
1.56500000E+02
 11
4.72000017E+02
 21
1.56500000E+02
  0
LINE
  8
0
 62
7
 10
3.65600054E+02
 20
1.51500031E+02
 11
3.65600054E+02
 21
4.95000153E+01
  0
LINE
  8
0
 62
7
 10
3.70000078E+02
 20
1.55900024E+02
 11
4.72000017E+02
 21
1.55900024E+02
  0
LINE
  8
0
 62
7
 10
4.56000078E+02
 20
4.51000061E+01
 11
4.56000078E+02
 21
4.45000153E+01
  0
LINE
  8
0
 62
7
 10
3.86000017E+02
 20
4.51000061E+01
 11
3.86000017E+02
 21
4.45000153E+01
  0
LINE
  8
0
 62
7
 10
4.56000078E+02
 20
1.56500000E+02
 11
4.56000078E+02
 21
1.55900024E+02
  0
LINE
  8
0
  6
CENTER
 62
2
 10
4.03000078E+02
 20
1.58286591E+02
 11
4.03000078E+02
 21
1.13154877E+02
  0
LINE
  8
0
  6
CENTER
 62
2
 10
3.62931475E+02
 20
5.85000000E+01
 11
3.94496172E+02
 21
5.85000000E+01
  0
LINE
  8
0
  6
CENTER
 62
2
 10
3.79000078E+02
 20
4.28217163E+01
 11
3.79000078E+02
 21
7.28636627E+01
  0
LINE
  8
0
 62
7
 10
3.70000078E+02
 20
4.45000000E+01
 11
4.72000017E+02
 21
4.45000000E+01
  0
LINE
  8
0
  6
CENTER
 62
2
 10
4.63000078E+02
 20
1.59392731E+02
 11
4.63000078E+02
 21
1.27642197E+02
  0
LINE
  8
0
 62
7
 10
4.77000017E+02
 20
1.51500000E+02
 11
4.77000017E+02
 21
4.95000153E+01
  0
LINE
  8
0
 62
7
 10
3.70000078E+02
 20
4.51000061E+01
 11
4.72000017E+02
 21
4.51000061E+01
  0
LINE
  8
0
 62
7
 10
4.76400042E+02
 20
1.51500000E+02
 11
4.76400042E+02
 21
4.94999695E+01
  0
LINE
  8
0
  6
PHANTOM
 10
-2.45000000E+01
 20
1.94632131E+02
 11
-2.45000000E+01
 21
3.53816712E+02
  0
LINE
  8
0
  6
PHANTOM
 10
1.38499941E+02
 20
1.99892459E+02
 11
1.38499941E+02
 21
3.53816712E+02
  0
ARC
  8
0
 62
7
 10
-1.39499998E+02
 20
3.02999939E+02
 40
5.00000000E-01
 50
9.00000265E+01
 51
1.80000022E+02
  0
LINE
  8
0
 62
7
 10
9.89999409E+01
 20
2.25499985E+02
 11
9.89999409E+01
 21
3.35500000E+02
  0
LINE
  8
0
 62
7
 10
2.38000001E+02
 20
2.55499991E+02
 11
2.40000003E+02
 21
2.57499993E+02
  0
LINE
  8
0
 62
7
 10
2.40000002E+02
 20
2.57500000E+02
 11
2.60000002E+02
 21
2.57500000E+02
  0
LINE
  8
0
 62
7
 10
1.00999941E+02
 20
2.56000000E+02
 11
1.00999941E+02
 21
3.05000000E+02
  0
LINE
  8
0
  6
CENTER
 62
2
 10
-2.02798399E+02
 20
2.80500000E+02
 11
2.80276003E+02
 21
2.80500000E+02
  0
LINE
  8
0
 62
7
 10
1.00499941E+02
 20
2.55500000E+02
 11
9.89999409E+01
 21
2.55500000E+02
  0
LINE
  8
0
 62
7
 10
6.39999409E+01
 20
3.35500000E+02
 11
9.89999409E+01
 21
3.35500000E+02
  0
LINE
  8
0
 62
7
 10
6.39999409E+01
 20
2.25499985E+02
 11
9.89999409E+01
 21
2.25499985E+02
  0
LINE
  8
0
  6
CENTER
 62
2
 10
3.49999409E+01
 20
2.70047729E+02
 11
3.49999409E+01
 21
2.55434357E+02
  0
LINE
  8
0
  6
CENTER
 62
2
 10
2.68053608E+01
 20
2.62500000E+02
 11
4.30743732E+01
 21
2.62500000E+02
  0
LINE
  8
0
 62
7
 10
3.67320636E+01
 20
2.62499866E+02
 11
3.58660397E+01
 21
2.63999872E+02
  0
LINE
  8
0
 62
7
 10
3.58659687E+01
 20
2.64000000E+02
 11
3.41338825E+01
 21
2.64000000E+02
  0
LINE
  8
0
 62
7
 10
3.32683115E+01
 20
2.62499737E+02
 11
3.41343201E+01
 21
2.63999717E+02
  0
LINE
  8
0
 62
7
 10
3.41339245E+01
 20
2.60999944E+02
 11
3.32678548E+01
 21
2.62500030E+02
  0
LINE
  8
0
 62
7
 10
3.58659687E+01
 20
2.60999939E+02
 11
3.41338825E+01
 21
2.60999939E+02
  0
LINE
  8
0
 62
7
 10
3.67323098E+01
 20
2.62499811E+02
 11
3.58662859E+01
 21
2.60999804E+02
  0
LINE
  8
0
  6
CENTER
 62
2
 10
-8.99999981E+01
 20
2.70047729E+02
 11
-8.99999981E+01
 21
2.55434357E+02
  0
LINE
  8
0
  6
CENTER
 62
2
 10
-9.81945782E+01
 20
2.62499969E+02
 11
-8.19255962E+01
 21
2.62499969E+02
  0
LINE
  8
0
 62
7
 10
-8.82679133E+01
 20
2.62499893E+02
 11
-8.91339372E+01
 21
2.63999899E+02
  0
LINE
  8
0
 62
7
 10
-8.91339703E+01
 20
2.63999969E+02
 11
-9.08660564E+01
 21
2.63999969E+02
  0
LINE
  8
0
 62
7
 10
-9.17317412E+01
 20
2.62499700E+02
 11
-9.08657325E+01
 21
2.63999681E+02
  0
LINE
  8
0
 62
7
 10
-9.08658745E+01
 20
2.60999968E+02
 11
-9.17319594E+01
 21
2.62500080E+02
  0
LINE
  8
0
 62
7
 10
-8.91339703E+01
 20
2.60999939E+02
 11
-9.08660564E+01
 21
2.60999939E+02
  0
LINE
  8
0
 62
7
 10
-8.82676595E+01
 20
2.62499797E+02
 11
-8.91337063E+01
 21
2.60999751E+02
  0
LINE
  8
0
  6
CENTER
 62
2
 10
1.04170839E+02
 20
2.38500000E+02
 11
-1.24610350E+02
 21
2.38500000E+02
  0
LINE
  8
0
 62
7
 10
2.79999409E+01
 20
2.43000000E+02
 11
1.99999981E+01
 21
2.43000000E+02
  0
LINE
  8
0
 62
7
 10
2.79999409E+01
 20
2.33999954E+02
 11
4.99999809E+00
 21
2.33999954E+02
  0
LINE
  8
0
 62
7
 10
-1.14999998E+02
 20
3.13500061E+02
 11
-1.14999998E+02
 21
2.47500061E+02
  0
LINE
  8
0
  6
CENTER
 62
2
 10
-8.52976665E+01
 20
2.92499969E+02
 11
-1.13094938E+02
 21
2.92499969E+02
  0
LINE
  8
0
 62
7
 10
-1.20499998E+02
 20
3.05499939E+02
 11
-1.18999937E+02
 21
3.05499939E+02
  0
LINE
  8
0
 62
7
 10
-1.18999998E+02
 20
2.25619736E+02
 11
-1.18999998E+02
 21
3.35380310E+02
  0
LINE
  8
0
 62
7
 10
-1.39999998E+02
 20
2.58000061E+02
 11
-1.39999998E+02
 21
3.03000061E+02
  0
LINE
  8
0
 62
7
 10
-1.18508697E+02
 20
3.35880548E+02
 11
-8.29999763E+01
 21
3.36500355E+02
  0
LINE
  8
0
 62
7
 10
-1.39499937E+02
 20
3.03499969E+02
 11
-1.34999998E+02
 21
3.03499969E+02
  0
LINE
  8
0
 62
7
 10
-1.34517382E+02
 20
3.04528227E+02
 11
-1.20999926E+02
 21
3.05000267E+02
  0
LINE
  8
0
 62
7
 10
-1.20499998E+02
 20
2.55499939E+02
 11
-1.18999937E+02
 21
2.55499939E+02
  0
LINE
  8
0
 62
7
 10
-1.18508662E+02
 20
2.25120026E+02
 11
-8.29999734E+01
 21
2.24500220E+02
  0
LINE
  8
0
 62
7
 10
-1.39499937E+02
 20
2.57499969E+02
 11
-1.34999998E+02
 21
2.57499969E+02
  0
LINE
  8
0
 62
7
 10
-1.34517407E+02
 20
2.56472369E+02
 11
-1.20999955E+02
 21
2.56000330E+02
  0
LINE
  8
0
 62
7
 10
-8.29999981E+01
 20
3.36500183E+02
 11
-8.29999981E+01
 21
2.24499985E+02
  0
LINE
  8
0
  6
CENTER
 62
2
 10
-9.89999981E+01
 20
2.78394165E+02
 11
-9.89999981E+01
 21
3.06323273E+02
  0
LINE
  8
0
 62
7
 10
-1.12999968E+02
 20
2.45499939E+02
 11
-8.29999676E+01
 21
2.45499939E+02
  0
LINE
  8
0
 62
7
 10
-1.12999968E+02
 20
3.15499939E+02
 11
-8.29999676E+01
 21
3.15499939E+02
  0
LINE
  8
0
 62
7
 10
-1.20999998E+02
 20
2.56000122E+02
 11
-1.20999998E+02
 21
3.05000061E+02
  0
LINE
  8
0
 62
7
 10
5.99999409E+01
 20
2.47499908E+02
 11
5.99999409E+01
 21
3.13499908E+02
  0
LINE
  8
0
  6
CENTER
 62
2
 10
3.02976093E+01
 20
2.92500000E+02
 11
5.80948811E+01
 21
2.92500000E+02
  0
LINE
  8
0
 62
7
 10
6.39999409E+01
 20
3.35380249E+02
 11
6.39999409E+01
 21
2.25619614E+02
  0
LINE
  8
0
 62
7
 10
6.35087142E+01
 20
2.25119590E+02
 11
2.79999930E+01
 21
2.24499777E+02
  0
LINE
  8
0
 62
7
 10
6.35087233E+01
 20
3.35880131E+02
 11
2.80000021E+01
 21
3.36499933E+02
  0
LINE
  8
0
 62
7
 10
1.00499941E+02
 20
3.05500000E+02
 11
9.89999409E+01
 21
3.05500000E+02
  0
LINE
  8
0
 62
7
 10
2.79999714E+01
 20
2.24499741E+02
 11
2.79999714E+01
 21
3.36499969E+02
  0
LINE
  8
0
  6
CENTER
 62
2
 10
4.39999409E+01
 20
2.78394165E+02
 11
4.39999409E+01
 21
3.06323273E+02
  0
LINE
  8
0
 62
7
 10
5.79999104E+01
 20
3.15500000E+02
 11
2.79999104E+01
 21
3.15500000E+02
  0
LINE
  8
0
 62
7
 10
5.79999104E+01
 20
2.45500000E+02
 11
2.79999104E+01
 21
2.45500000E+02
  0
LINE
  8
0
 62
7
 10
-8.29999981E+01
 20
2.26999985E+02
 11
-8.07357466E+00
 21
2.26999985E+02
  0
LINE
  8
0
  6
CENTER
 62
2
 10
1.04170839E+02
 20
3.22500000E+02
 11
-1.25350279E+02
 21
3.22500000E+02
  0
LINE
  8
0
 62
7
 10
2.79999409E+01
 20
3.18000000E+02
 11
-3.89999981E+01
 21
3.18000000E+02
  0
LINE
  8
0
 62
7
 10
2.79999409E+01
 20
3.27000061E+02
 11
-3.89999981E+01
 21
3.27000061E+02
  0
LINE
  8
0
 62
7
 10
-8.29999981E+01
 20
3.34000000E+02
 11
-5.20735131E+01
 21
3.34000000E+02
  0
LINE
  8
0
 62
7
 10
2.77000002E+02
 20
2.72000031E+02
 11
2.77000002E+02
 21
2.89000031E+02
  0
LINE
  8
0
 62
7
 10
2.75500002E+02
 20
2.90500031E+02
 11
2.72000002E+02
 21
2.90500031E+02
  0
LINE
  8
0
 62
7
 10
2.76999875E+02
 20
2.88999857E+02
 11
2.75499885E+02
 21
2.90499848E+02
  0
LINE
  8
0
 62
2
 10
2.76319979E+02
 20
2.89680023E+02
 11
2.72000002E+02
 21
2.89680023E+02
  0
LINE
  8
0
 62
7
 10
2.72000002E+02
 20
2.67000000E+02
 11
2.72000002E+02
 21
2.94000000E+02
  0
LINE
  8
0
 62
7
 10
2.60000002E+02
 20
2.57500000E+02
 11
2.60000002E+02
 21
3.03500000E+02
  0
LINE
  8
0
 62
7
 10
2.72000002E+02
 20
2.94000000E+02
 11
2.59999971E+02
 21
2.94000000E+02
  0
LINE
  8
0
 62
7
 10
2.70787539E+02
 20
2.80500031E+02
 11
2.61212435E+02
 21
2.80500031E+02
  0
LINE
  8
0
 62
7
 10
2.75500002E+02
 20
2.70500000E+02
 11
2.72000002E+02
 21
2.70500000E+02
  0
LINE
  8
0
 62
7
 10
2.75500032E+02
 20
2.70500000E+02
 11
2.75500032E+02
 21
2.90500000E+02
  0
LINE
  8
0
 62
7
 10
2.76999982E+02
 20
2.71999970E+02
 11
2.75499991E+02
 21
2.70499979E+02
  0
LINE
  8
0
 62
2
 10
2.76319979E+02
 20
2.71320038E+02
 11
2.72000002E+02
 21
2.71320038E+02
  0
LINE
  8
0
 62
7
 10
2.72000002E+02
 20
2.67000000E+02
 11
2.59999971E+02
 21
2.67000000E+02
  0
LINE
  8
0
 62
7
 10
1.75999941E+02
 20
2.95500061E+02
 11
1.00999941E+02
 21
2.95500061E+02
  0
LINE
  8
0
 62
7
 10
1.75999941E+02
 20
2.65499939E+02
 11
1.00999941E+02
 21
2.65499939E+02
  0
LINE
  8
0
 62
7
 10
1.75999941E+02
 20
2.55500000E+02
 11
2.38000002E+02
 21
2.55500000E+02
  0
LINE
  8
0
 62
7
 10
1.75999941E+02
 20
3.05500000E+02
 11
2.38000002E+02
 21
3.05500000E+02
  0
LINE
  8
0
 62
7
 10
2.37999986E+02
 20
3.05500013E+02
 11
2.39999988E+02
 21
3.03500011E+02
  0
LINE
  8
0
 62
7
 10
1.75999941E+02
 20
3.05500000E+02
 11
1.75999941E+02
 21
2.55500000E+02
  0
LINE
  8
0
 62
7
 10
1.80999941E+02
 20
3.05500000E+02
 11
1.80999941E+02
 21
2.55500000E+02
  0
LINE
  8
0
 62
7
 10
2.40000002E+02
 20
3.03500000E+02
 11
2.60000002E+02
 21
3.03500000E+02
  0
LINE
  8
0
 62
7
 10
-1.94000029E+02
 20
2.68999939E+02
 11
-1.94000029E+02
 21
2.91999695E+02
  0
LINE
  8
0
 62
7
 10
-1.57000013E+02
 20
2.67500000E+02
 11
-1.57000013E+02
 21
2.93500000E+02
  0
LINE
  8
0
 62
7
 10
-1.92500044E+02
 20
2.93499969E+02
 11
-1.82500029E+02
 21
2.93499969E+02
  0
LINE
  8
0
 62
7
 10
-1.92500013E+02
 20
2.67500000E+02
 11
-1.92500013E+02
 21
2.93500000E+02
  0
LINE
  8
0
 62
7
 10
-1.93999864E+02
 20
2.91999799E+02
 11
-1.92499851E+02
 21
2.93499812E+02
  0
LINE
  8
0
 62
2
 10
-1.93320051E+02
 20
2.92679962E+02
 11
-1.82500029E+02
 21
2.92679962E+02
  0
LINE
  8
0
 62
7
 10
-1.92500044E+02
 20
2.67500000E+02
 11
-1.82500029E+02
 21
2.67500000E+02
  0
LINE
  8
0
 62
7
 10
-1.94000052E+02
 20
2.68999953E+02
 11
-1.92500040E+02
 21
2.67499941E+02
  0
LINE
  8
0
 62
2
 10
-1.93320051E+02
 20
2.68320007E+02
 11
-1.82500029E+02
 21
2.68320007E+02
  0
LINE
  8
0
 62
7
 10
-1.54000013E+02
 20
2.67500000E+02
 11
-1.54000013E+02
 21
2.93500000E+02
  0
LINE
  8
0
 62
7
 10
-1.42000044E+02
 20
2.95500061E+02
 11
-1.39999998E+02
 21
2.95500061E+02
  0
LINE
  8
0
 62
7
 10
-1.50999998E+02
 20
2.67500000E+02
 11
-1.50999998E+02
 21
2.93500000E+02
  0
LINE
  8
0
 62
7
 10
-1.41999937E+02
 20
2.65499939E+02
 11
-1.40000013E+02
 21
2.65499939E+02
  0
LINE
  8
0
 62
7
 10
-1.54000013E+02
 20
2.93500000E+02
 11
-1.44000090E+02
 21
2.93500000E+02
  0
LINE
  8
0
 62
7
 10
-1.54000013E+02
 20
2.67500000E+02
 11
-1.43999983E+02
 21
2.67500000E+02
  0
LINE
  8
0
 62
7
 10
-1.43999998E+02
 20
2.67500009E+02
 11
-1.41999931E+02
 21
2.65499942E+02
  0
LINE
  8
0
 62
7
 10
-1.44000081E+02
 20
2.93500066E+02
 11
-1.42000057E+02
 21
2.95500089E+02
  0
LINE
  8
0
 62
7
 10
-1.57000013E+02
 20
2.92679962E+02
 11
-1.54000013E+02
 21
2.92679962E+02
  0
LINE
  8
0
 62
7
 10
-1.57000013E+02
 20
2.68320007E+02
 11
-1.54000013E+02
 21
2.68320007E+02
  0
ARC
  8
0
 62
7
 10
1.00499941E+02
 20
2.56000000E+02
 40
5.00000000E-01
 50
2.70000018E+02
 51
0.00000000E+00
  0
ARC
  8
0
 62
7
 10
1.00499941E+02
 20
3.05000000E+02
 40
5.00000000E-01
 50
0.00000000E+00
 51
8.99999818E+01
  0
ARC
  8
0
 62
7
 10
3.49999409E+01
 20
2.62500000E+02
 40
5.00000048E+00
 50
0.00000000E+00
 51
1.79999964E+02
  0
ARC
  8
0
 62
7
 10
3.49999409E+01
 20
2.62500000E+02
 40
5.00000048E+00
 50
1.79999977E+02
 51
1.00179127E-05
  0
ARC
  8
0
 62
7
 10
-8.99999981E+01
 20
2.62499969E+02
 40
5.00000048E+00
 50
0.00000000E+00
 51
1.79999964E+02
  0
ARC
  8
0
 62
7
 10
-8.99999981E+01
 20
2.62499969E+02
 40
5.00000048E+00
 50
1.79999977E+02
 51
1.00179127E-05
  0
ARC
  8
0
 62
7
 10
-1.18499998E+02
 20
3.35380310E+02
 40
5.00000000E-01
 50
9.10002493E+01
 51
1.79999951E+02
  0
ARC
  8
0
 62
7
 10
-1.34499998E+02
 20
3.04028320E+02
 40
5.00000000E-01
 50
9.20007356E+01
 51
1.79999951E+02
  0
ARC
  8
0
 62
7
 10
-1.20499937E+02
 20
3.05000061E+02
 40
5.00000000E-01
 50
8.99999818E+01
 51
1.79999951E+02
  0
ARC
  8
0
 62
7
 10
-1.34499998E+02
 20
2.56971802E+02
 40
5.00000000E-01
 50
1.79999977E+02
 51
2.67999192E+02
  0
ARC
  8
0
 62
7
 10
-1.20499937E+02
 20
2.56000061E+02
 40
5.00000000E-01
 50
1.79999977E+02
 51
2.69999974E+02
  0
ARC
  8
0
 62
7
 10
-1.39499998E+02
 20
2.58000061E+02
 40
5.00000000E-01
 50
1.79999977E+02
 51
2.69999974E+02
  0
ARC
  8
0
 62
7
 10
-1.18499998E+02
 20
2.25619736E+02
 40
5.00000000E-01
 50
1.79999977E+02
 51
2.68999679E+02
  0
CIRCLE
  8
0
 62
7
 10
-9.89999676E+01
 20
2.92500061E+02
 40
9.25000000E+00
  0
ARC
  8
0
 62
7
 10
-1.12999968E+02
 20
3.13500061E+02
 40
2.00000000E+00
 50
8.99999818E+01
 51
1.79999951E+02
  0
ARC
  8
0
 62
7
 10
-1.12999968E+02
 20
2.47500061E+02
 40
2.00000000E+00
 50
1.79999977E+02
 51
2.70000028E+02
  0
CIRCLE
  8
0
 62
7
 10
-9.89999676E+01
 20
2.92500000E+02
 40
1.10000000E+01
  0
CIRCLE
  8
0
 62
2
 10
-9.89999981E+01
 20
2.92500000E+02
 40
1.04775009E+01
  0
ARC
  8
0
 62
7
 10
6.34999409E+01
 20
2.25619675E+02
 40
5.00000000E-01
 50
2.71000258E+02
 51
3.59999959E+02
  0
ARC
  8
0
 62
7
 10
6.34999409E+01
 20
3.35380249E+02
 40
5.00000000E-01
 50
3.59999986E+02
 51
8.89996737E+01
  0
CIRCLE
  8
0
 62
7
 10
4.39999409E+01
 20
2.92500061E+02
 40
9.25000000E+00
  0
ARC
  8
0
 62
7
 10
5.79999409E+01
 20
2.47499939E+02
 40
2.00000000E+00
 50
2.69999991E+02
 51
3.59999959E+02
  0
ARC
  8
0
 62
7
 10
5.79999409E+01
 20
3.13499939E+02
 40
2.00000000E+00
 50
3.59999986E+02
 51
9.00000094E+01
  0
CIRCLE
  8
0
 62
7
 10
4.39999409E+01
 20
2.92500000E+02
 40
1.10000000E+01
  0
CIRCLE
  8
0
 62
2
 10
4.39999714E+01
 20
2.92500000E+02
 40
1.04775009E+01
  0
ARC
  8
0
 62
7
 10
2.52604555E+02
 20
2.87250031E+02
 40
1.93954582E+01
 50
3.39633865E+02
 51
2.03662991E+01
  0
ARC
  8
0
 62
7
 10
2.79395937E+02
 20
2.87250031E+02
 40
1.93959160E+01
 50
1.59634334E+02
 51
2.00365826E+02
  0
ARC
  8
0
 62
7
 10
2.52604555E+02
 20
2.73750031E+02
 40
1.93954582E+01
 50
3.39633810E+02
 51
2.03662444E+01
  0
ARC
  8
0
 62
7
 10
2.79395937E+02
 20
2.73750031E+02
 40
1.93959160E+01
 50
1.59634280E+02
 51
2.00365771E+02
  0
CIRCLE
  8
0
 62
7
 10
3.49999409E+01
 20
2.62500000E+02
 40
2.60000014E+00
  0
CIRCLE
  8
0
 62
7
 10
-8.99999981E+01
 20
2.62499969E+02
 40
2.60000014E+00
  0
ARC
  8
0
 62
4
 10
-1.94498060E+02
 20
2.71499924E+02
 40
2.59980309E+01
 50
3.39746143E+02
 51
2.02538569E+01
  0
ARC
  8
0
 62
4
 10
-1.94498060E+02
 20
2.89499931E+02
 40
2.59980309E+01
 50
3.39746143E+02
 51
2.02538569E+01
  0
ARC
  8
0
 62
4
 10
-1.56501998E+02
 20
2.89499931E+02
 40
2.59980309E+01
 50
1.59746143E+02
 51
2.00253857E+02
  0
ARC
  8
0
 62
4
 10
-1.56501998E+02
 20
2.71499924E+02
 40
2.59980309E+01
 50
1.59746143E+02
 51
2.00253857E+02
  0
LINE
  8
0
 62
4
 10
-1.80892519E+02
 20
2.80499928E+02
 11
-1.70107538E+02
 21
2.80499928E+02
  0
LINE
  8
0
 62
4
 10
-1.68500029E+02
 20
2.98499935E+02
 11
-1.68500029E+02
 21
2.62500065E+02
  0
LINE
  8
0
 62
4
 10
-1.82500029E+02
 20
2.98499935E+02
 11
-1.82500029E+02
 21
2.62500065E+02
  0
LINE
  8
0
 62
4
 10
-1.82500029E+02
 20
2.98499935E+02
 11
-1.68500029E+02
 21
2.98499935E+02
  0
LINE
  8
0
 62
4
 10
-1.82500029E+02
 20
2.62500065E+02
 11
-1.68500029E+02
 21
2.62500065E+02
  0
LINE
  8
0
 62
7
 10
-1.68500029E+02
 20
2.93499969E+02
 11
-1.57000013E+02
 21
2.93499969E+02
  0
LINE
  8
0
 62
2
 10
-1.68500029E+02
 20
2.92679962E+02
 11
-1.57000013E+02
 21
2.92679962E+02
  0
LINE
  8
0
 62
7
 10
-1.68500029E+02
 20
2.67500000E+02
 11
-1.57000013E+02
 21
2.67500000E+02
  0
LINE
  8
0
 62
2
 10
-1.68500029E+02
 20
2.68320007E+02
 11
-1.57000013E+02
 21
2.68320007E+02
  0
LINE
  8
0
 62
7
 10
-1.34999998E+02
 20
3.04063293E+02
 11
-1.34999998E+02
 21
2.56936768E+02
  0
LINE
  8
0
 62
4
 10
-1.00000019E+01
 20
2.55715748E+02
 11
-1.91339765E+01
 21
2.55715748E+02
  0
LINE
  8
0
 62
4
 10
-1.00000019E+01
 20
2.52715748E+02
 11
-2.08660273E+01
 21
2.52715748E+02
  0
LINE
  8
0
 62
6
 10
-1.82679511E+01
 20
2.57215748E+02
 11
-2.17320527E+01
 21
2.51215748E+02
  0
LINE
  8
0
  6
CENTER
 62
6
 10
2.49999981E+01
 20
2.54215748E+02
 11
-2.50000019E+01
 21
2.54215748E+02
  0
LINE
  8
0
 62
4
 10
-3.89999981E+01
 20
3.05284206E+02
 11
-2.98660235E+01
 21
3.05284206E+02
  0
LINE
  8
0
 62
4
 10
-3.89999981E+01
 20
3.08284206E+02
 11
-2.81339727E+01
 21
3.08284206E+02
  0
LINE
  8
0
 62
6
 10
-3.07320489E+01
 20
3.03784206E+02
 11
-2.72679473E+01
 21
3.09784206E+02
  0
LINE
  8
0
  6
CENTER
 62
6
 10
-7.39999981E+01
 20
3.06784206E+02
 11
-2.39999981E+01
 21
3.06784206E+02
  0
LINE
  8
0
 62
6
 10
2.99999813E+00
 20
2.26963316E+02
 11
2.99999813E+00
 21
2.28017897E+02
  0
LINE
  8
0
 62
6
 10
-1.87421404E-06
 20
2.26963316E+02
 11
-1.87421404E-06
 21
2.28017897E+02
  0
LINE
  8
0
 62
4
 10
3.49999813E+00
 20
2.27511903E+02
 11
3.49999813E+00
 21
2.28017897E+02
  0
LINE
  8
0
 62
4
 10
-5.00001874E-01
 20
2.27511903E+02
 11
-5.00001874E-01
 21
2.28017897E+02
  0
LINE
  8
0
 62
4
 10
4.99999809E+00
 20
2.28017897E+02
 11
4.99999809E+00
 21
2.41131534E+02
  0
LINE
  8
0
 62
4
 10
-1.00000019E+01
 20
2.28017897E+02
 11
-1.00000019E+01
 21
2.57139227E+02
  0
LINE
  8
0
 62
4
 10
1.99999981E+01
 20
2.41131534E+02
 11
1.99999981E+01
 21
2.54816945E+02
  0
LINE
  8
0
  6
CENTER
 62
6
 10
-6.50000194E+00
 20
2.23234375E+02
 11
-6.50000194E+00
 21
2.33499954E+02
  0
LINE
  8
0
  6
CENTER
 62
6
 10
1.49999806E+00
 20
2.23234375E+02
 11
1.49999806E+00
 21
2.33499954E+02
  0
LINE
  8
0
  6
CENTER
 62
6
 10
1.24999981E+01
 20
2.49870255E+02
 11
1.24999981E+01
 21
2.54870255E+02
  0
LINE
  8
0
 62
4
 10
-5.00000191E+00
 20
2.55264798E+02
 11
-5.00000191E+00
 21
2.56865057E+02
  0
LINE
  8
0
 62
4
 10
-3.50000191E+00
 20
2.55656796E+02
 11
-3.50000191E+00
 21
2.56865057E+02
  0
LINE
  8
0
 62
4
 10
2.14999981E+01
 20
2.52714339E+02
 11
2.14999981E+01
 21
2.55714681E+02
  0
POLYLINE
  8
0
 62
4
 66
1
  0
VERTEX
  8
0
 62
4
 10
-5.00002000E-01
 20
2.27511903E+02
  0
VERTEX
  8
0
 62
4
 10
-4.91950588E-01
 20
2.27437557E+02
  0
VERTEX
  8
0
 62
4
 10
-4.67861177E-01
 20
2.27363810E+02
  0
VERTEX
  8
0
 62
4
 10
-4.27927720E-01
 20
2.27291256E+02
  0
VERTEX
  8
0
 62
4
 10
-3.72471738E-01
 20
2.27220477E+02
  0
VERTEX
  8
0
 62
4
 10
-3.01939731E-01
 20
2.27152046E+02
  0
VERTEX
  8
0
 62
4
 10
-2.16899580E-01
 20
2.27086511E+02
  0
VERTEX
  8
0
 62
4
 10
-1.18035979E-01
 20
2.27024402E+02
  0
VERTEX
  8
0
 62
4
 10
-6.14491899E-03
 20
2.26966218E+02
  0
VERTEX
  8
0
 62
4
 10
1.17872718E-01
 20
2.26912427E+02
  0
VERTEX
  8
0
 62
4
 10
2.53018416E-01
 20
2.26863463E+02
  0
VERTEX
  8
0
 62
4
 10
3.98204061E-01
 20
2.26819719E+02
  0
VERTEX
  8
0
 62
4
 10
5.52260703E-01
 20
2.26781549E+02
  0
VERTEX
  8
0
 62
4
 10
7.13947970E-01
 20
2.26749259E+02
  0
VERTEX
  8
0
 62
4
 10
8.81964049E-01
 20
2.26723110E+02
  0
VERTEX
  8
0
 62
4
 10
1.05495617E+00
 20
2.26703311E+02
  0
VERTEX
  8
0
 62
4
 10
1.23153152E+00
 20
2.26690023E+02
  0
VERTEX
  8
0
 62
4
 10
1.41026839E+00
 20
2.26683352E+02
  0
VERTEX
  8
0
 62
4
 10
1.58972772E+00
 20
2.26683352E+02
  0
VERTEX
  8
0
 62
4
 10
1.76846459E+00
 20
2.26690023E+02
  0
VERTEX
  8
0
 62
4
 10
1.94503994E+00
 20
2.26703311E+02
  0
VERTEX
  8
0
 62
4
 10
2.11803206E+00
 20
2.26723110E+02
  0
VERTEX
  8
0
 62
4
 10
2.28604814E+00
 20
2.26749259E+02
  0
VERTEX
  8
0
 62
4
 10
2.44773541E+00
 20
2.26781549E+02
  0
VERTEX
  8
0
 62
4
 10
2.60179205E+00
 20
2.26819719E+02
  0
VERTEX
  8
0
 62
4
 10
2.74697770E+00
 20
2.26863463E+02
  0
VERTEX
  8
0
 62
4
 10
2.88212339E+00
 20
2.26912427E+02
  0
VERTEX
  8
0
 62
4
 10
3.00614103E+00
 20
2.26966218E+02
  0
VERTEX
  8
0
 62
4
 10
3.11803209E+00
 20
2.27024402E+02
  0
VERTEX
  8
0
 62
4
 10
3.21689570E+00
 20
2.27086511E+02
  0
VERTEX
  8
0
 62
4
 10
3.30193585E+00
 20
2.27152046E+02
  0
VERTEX
  8
0
 62
4
 10
3.37246785E+00
 20
2.27220477E+02
  0
VERTEX
  8
0
 62
4
 10
3.42792384E+00
 20
2.27291256E+02
  0
VERTEX
  8
0
 62
4
 10
3.46785729E+00
 20
2.27363810E+02
  0
VERTEX
  8
0
 62
4
 10
3.49194671E+00
 20
2.27437557E+02
  0
VERTEX
  8
0
 62
4
 10
3.49999812E+00
 20
2.27511903E+02
  0
SEQEND
  8
0
  0
LINE
  8
0
 62
6
 10
-8.00000187E+00
 20
2.26963316E+02
 11
-8.00000187E+00
 21
2.28017897E+02
  0
LINE
  8
0
 62
4
 10
-8.50000187E+00
 20
2.27511903E+02
 11
-8.50000187E+00
 21
2.28017897E+02
  0
POLYLINE
  8
0
 62
4
 66
1
  0
VERTEX
  8
0
 62
4
 10
-8.50000200E+00
 20
2.27511903E+02
  0
VERTEX
  8
0
 62
4
 10
-8.49195059E+00
 20
2.27437557E+02
  0
VERTEX
  8
0
 62
4
 10
-8.46786118E+00
 20
2.27363810E+02
  0
VERTEX
  8
0
 62
4
 10
-8.42792772E+00
 20
2.27291256E+02
  0
VERTEX
  8
0
 62
4
 10
-8.37247174E+00
 20
2.27220477E+02
  0
VERTEX
  8
0
 62
4
 10
-8.30193973E+00
 20
2.27152046E+02
  0
VERTEX
  8
0
 62
4
 10
-8.21689958E+00
 20
2.27086511E+02
  0
VERTEX
  8
0
 62
4
 10
-8.11803598E+00
 20
2.27024402E+02
  0
VERTEX
  8
0
 62
4
 10
-8.00614492E+00
 20
2.26966218E+02
  0
VERTEX
  8
0
 62
4
 10
-7.88212728E+00
 20
2.26912427E+02
  0
VERTEX
  8
0
 62
4
 10
-7.74698158E+00
 20
2.26863463E+02
  0
VERTEX
  8
0
 62
4
 10
-7.60179594E+00
 20
2.26819719E+02
  0
VERTEX
  8
0
 62
4
 10
-7.44773930E+00
 20
2.26781549E+02
  0
VERTEX
  8
0
 62
4
 10
-7.28605203E+00
 20
2.26749259E+02
  0
VERTEX
  8
0
 62
4
 10
-7.11803595E+00
 20
2.26723110E+02
  0
VERTEX
  8
0
 62
4
 10
-6.94504383E+00
 20
2.26703311E+02
  0
VERTEX
  8
0
 62
4
 10
-6.76846848E+00
 20
2.26690023E+02
  0
VERTEX
  8
0
 62
4
 10
-6.58973161E+00
 20
2.26683352E+02
  0
VERTEX
  8
0
 62
4
 10
-6.41027228E+00
 20
2.26683352E+02
  0
VERTEX
  8
0
 62
4
 10
-6.23153541E+00
 20
2.26690023E+02
  0
VERTEX
  8
0
 62
4
 10
-6.05496006E+00
 20
2.26703311E+02
  0
VERTEX
  8
0
 62
4
 10
-5.88196794E+00
 20
2.26723110E+02
  0
VERTEX
  8
0
 62
4
 10
-5.71395186E+00
 20
2.26749259E+02
  0
VERTEX
  8
0
 62
4
 10
-5.55226459E+00
 20
2.26781549E+02
  0
VERTEX
  8
0
 62
4
 10
-5.39820795E+00
 20
2.26819719E+02
  0
VERTEX
  8
0
 62
4
 10
-5.25302230E+00
 20
2.26863463E+02
  0
VERTEX
  8
0
 62
4
 10
-5.11787661E+00
 20
2.26912427E+02
  0
VERTEX
  8
0
 62
4
 10
-4.99385897E+00
 20
2.26966218E+02
  0
VERTEX
  8
0
 62
4
 10
-4.88196791E+00
 20
2.27024402E+02
  0
VERTEX
  8
0
 62
4
 10
-4.78310430E+00
 20
2.27086511E+02
  0
VERTEX
  8
0
 62
4
 10
-4.69806415E+00
 20
2.27152046E+02
  0
VERTEX
  8
0
 62
4
 10
-4.62753215E+00
 20
2.27220477E+02
  0
VERTEX
  8
0
 62
4
 10
-4.57207616E+00
 20
2.27291256E+02
  0
VERTEX
  8
0
 62
4
 10
-4.53214271E+00
 20
2.27363810E+02
  0
VERTEX
  8
0
 62
4
 10
-4.50805329E+00
 20
2.27437557E+02
  0
VERTEX
  8
0
 62
4
 10
-4.50000188E+00
 20
2.27511903E+02
  0
SEQEND
  8
0
  0
LINE
  8
0
 62
6
 10
-5.00000187E+00
 20
2.26963316E+02
 11
-5.00000187E+00
 21
2.28017897E+02
  0
LINE
  8
0
 62
4
 10
-4.50000187E+00
 20
2.27511903E+02
 11
-4.50000187E+00
 21
2.28017897E+02
  0
LINE
  8
0
 62
4
 10
4.99999811E+00
 20
2.28017897E+02
 11
-1.00000019E+01
 21
2.28017897E+02
  0
LINE
  8
0
 62
4
 10
4.99999811E+00
 20
2.34761805E+02
 11
-1.00000019E+01
 21
2.34761805E+02
  0
LINE
  8
0
 62
4
 10
1.99999981E+01
 20
2.41131534E+02
 11
-1.00000019E+01
 21
2.41131534E+02
  0
LINE
  8
0
 62
4
 10
1.99999981E+01
 20
2.50504135E+02
 11
-1.00000019E+01
 21
2.50504135E+02
  0
LINE
  8
0
 62
4
 10
1.99999981E+01
 20
2.57139227E+02
 11
7.51092849E+00
 21
2.57139227E+02
  0
LINE
  8
0
 62
4
 10
1.99999981E+01
 20
2.51566439E+02
 11
2.14999981E+01
 21
2.52714339E+02
  0
LINE
  8
0
 62
4
 10
1.99999981E+01
 20
2.55206284E+02
 11
9.14999809E+00
 21
2.55206284E+02
  0
LINE
  8
0
 62
4
 10
2.14999981E+01
 20
2.54775401E+02
 11
1.99999981E+01
 21
2.55206284E+02
  0
LINE
  8
0
 62
4
 10
1.99999981E+01
 20
2.56865057E+02
 11
8.19948890E+00
 21
2.56865057E+02
  0
LINE
  8
0
 62
4
 10
2.14999981E+01
 20
2.55714681E+02
 11
1.99999981E+01
 21
2.56865057E+02
  0
LINE
  8
0
 62
4
 10
1.99999981E+01
 20
2.54816945E+02
 11
9.14999809E+00
 21
2.54816945E+02
  0
LINE
  8
0
 62
4
 10
1.99999981E+01
 20
2.54816945E+02
 11
1.99999981E+01
 21
2.56865057E+02
  0
LINE
  8
0
 62
4
 10
1.99999981E+01
 20
2.56865057E+02
 11
1.99999981E+01
 21
2.57139227E+02
  0
LINE
  8
0
 62
4
 10
1.29999809E+00
 20
2.52370255E+02
 11
1.29999809E+00
 21
2.53280216E+02
  0
LINE
  8
0
 62
4
 10
-6.30000191E+00
 20
2.53280216E+02
 11
-6.30000191E+00
 21
2.52370255E+02
  0
LINE
  8
0
 62
4
 10
8.99998093E-01
 20
2.53280216E+02
 11
8.99998093E-01
 21
2.54309202E+02
  0
LINE
  8
0
 62
4
 10
-5.90000191E+00
 20
2.53280216E+02
 11
-5.90000191E+00
 21
2.54309202E+02
  0
LINE
  8
0
 62
4
 10
8.49998093E-01
 20
2.54550117E+02
 11
8.49998093E-01
 21
2.55768998E+02
  0
LINE
  8
0
 62
4
 10
9.14999809E+00
 20
2.55768998E+02
 11
9.14999809E+00
 21
2.54167467E+02
  0
POLYLINE
  8
0
 62
4
 66
1
  0
VERTEX
  8
0
 62
4
 10
1.29999810E+00
 20
2.53191402E+02
  0
VERTEX
  8
0
 62
4
 10
1.44989876E+00
 20
2.53057385E+02
  0
VERTEX
  8
0
 62
4
 10
1.62795832E+00
 20
2.52929430E+02
  0
VERTEX
  8
0
 62
4
 10
1.83276444E+00
 20
2.52808553E+02
  0
VERTEX
  8
0
 62
4
 10
2.06269261E+00
 20
2.52695712E+02
  0
VERTEX
  8
0
 62
4
 10
2.31591908E+00
 20
2.52591801E+02
  0
VERTEX
  8
0
 62
4
 10
2.59043529E+00
 20
2.52497646E+02
  0
VERTEX
  8
0
 62
4
 10
2.88406382E+00
 20
2.52413993E+02
  0
VERTEX
  8
0
 62
4
 10
3.19447565E+00
 20
2.52341506E+02
  0
VERTEX
  8
0
 62
4
 10
3.51920863E+00
 20
2.52280759E+02
  0
VERTEX
  8
0
 62
4
 10
3.85568703E+00
 20
2.52232234E+02
  0
VERTEX
  8
0
 62
4
 10
4.20124194E+00
 20
2.52196317E+02
  0
VERTEX
  8
0
 62
4
 10
4.55313248E+00
 20
2.52173292E+02
  0
VERTEX
  8
0
 62
4
 10
4.90856749E+00
 20
2.52163341E+02
  0
VERTEX
  8
0
 62
4
 10
5.26472772E+00
 20
2.52166545E+02
  0
VERTEX
  8
0
 62
4
 10
5.61878815E+00
 20
2.52182877E+02
  0
VERTEX
  8
0
 62
4
 10
5.96794042E+00
 20
2.52212207E+02
  0
VERTEX
  8
0
 62
4
 10
6.30941511E+00
 20
2.52254304E+02
  0
VERTEX
  8
0
 62
4
 10
6.64050368E+00
 20
2.52308832E+02
  0
VERTEX
  8
0
 62
4
 10
6.95857999E+00
 20
2.52375361E+02
  0
VERTEX
  8
0
 62
4
 10
7.26112110E+00
 20
2.52453362E+02
  0
VERTEX
  8
0
 62
4
 10
7.54572730E+00
 20
2.52542215E+02
  0
VERTEX
  8
0
 62
4
 10
7.81014113E+00
 20
2.52641218E+02
  0
VERTEX
  8
0
 62
4
 10
8.05226529E+00
 20
2.52749583E+02
  0
VERTEX
  8
0
 62
4
 10
8.27017929E+00
 20
2.52866453E+02
  0
VERTEX
  8
0
 62
4
 10
8.46215467E+00
 20
2.52990899E+02
  0
VERTEX
  8
0
 62
4
 10
8.62666870E+00
 20
2.53121935E+02
  0
VERTEX
  8
0
 62
4
 10
8.76241649E+00
 20
2.53258521E+02
  0
VERTEX
  8
0
 62
4
 10
8.86832129E+00
 20
2.53399574E+02
  0
VERTEX
  8
0
 62
4
 10
8.94354309E+00
 20
2.53543975E+02
  0
VERTEX
  8
0
 62
4
 10
8.98748524E+00
 20
2.53690579E+02
  0
SEQEND
  8
0
  0
POLYLINE
  8
0
 62
4
 66
1
  0
VERTEX
  8
0
 62
4
 10
1.28962358E+00
 20
2.53396581E+02
  0
VERTEX
  8
0
 62
4
 10
1.47005441E+00
 20
2.53262523E+02
  0
VERTEX
  8
0
 62
4
 10
1.67857699E+00
 20
2.53135667E+02
  0
VERTEX
  8
0
 62
4
 10
1.91353186E+00
 20
2.53017022E+02
  0
VERTEX
  8
0
 62
4
 10
2.17304922E+00
 20
2.52907532E+02
  0
VERTEX
  8
0
 62
4
 10
2.45506381E+00
 20
2.52808069E+02
  0
VERTEX
  8
0
 62
4
 10
2.75733130E+00
 20
2.52719425E+02
  0
VERTEX
  8
0
 62
4
 10
3.07744623E+00
 20
2.52642304E+02
  0
VERTEX
  8
0
 62
4
 10
3.41286106E+00
 20
2.52577320E+02
  0
VERTEX
  8
0
 62
4
 10
3.76090654E+00
 20
2.52524991E+02
  0
VERTEX
  8
0
 62
4
 10
4.11881287E+00
 20
2.52485733E+02
  0
VERTEX
  8
0
 62
4
 10
4.48373178E+00
 20
2.52459859E+02
  0
VERTEX
  8
0
 62
4
 10
4.85275920E+00
 20
2.52447574E+02
  0
VERTEX
  8
0
 62
4
 10
5.22295837E+00
 20
2.52448976E+02
  0
VERTEX
  8
0
 62
4
 10
5.59138319E+00
 20
2.52464054E+02
  0
VERTEX
  8
0
 62
4
 10
5.95510170E+00
 20
2.52492688E+02
  0
VERTEX
  8
0
 62
4
 10
6.31121936E+00
 20
2.52534650E+02
  0
VERTEX
  8
0
 62
4
 10
6.65690217E+00
 20
2.52589606E+02
  0
VERTEX
  8
0
 62
4
 10
6.98939911E+00
 20
2.52657119E+02
  0
VERTEX
  8
0
 62
4
 10
7.30606415E+00
 20
2.52736652E+02
  0
VERTEX
  8
0
 62
4
 10
7.60437723E+00
 20
2.52827571E+02
  0
VERTEX
  8
0
 62
4
 10
7.88196432E+00
 20
2.52929153E+02
  0
VERTEX
  8
0
 62
4
 10
8.13661635E+00
 20
2.53040590E+02
  0
VERTEX
  8
0
 62
4
 10
8.36630678E+00
 20
2.53160995E+02
  0
VERTEX
  8
0
 62
4
 10
8.56920769E+00
 20
2.53289409E+02
  0
VERTEX
  8
0
 62
4
 10
8.74370437E+00
 20
2.53424811E+02
  0
VERTEX
  8
0
 62
4
 10
8.88840816E+00
 20
2.53566124E+02
  0
VERTEX
  8
0
 62
4
 10
9.00216749E+00
 20
2.53712221E+02
  0
VERTEX
  8
0
 62
4
 10
9.08407705E+00
 20
2.53861942E+02
  0
VERTEX
  8
0
 62
4
 10
9.13348498E+00
 20
2.54014094E+02
  0
VERTEX
  8
0
 62
4
 10
9.14999809E+00
 20
2.54167467E+02
  0
SEQEND
  8
0
  0
POLYLINE
  8
0
 62
4
 66
1
  0
VERTEX
  8
0
 62
4
 10
9.14999809E+00
 20
2.55768998E+02
  0
VERTEX
  8
0
 62
4
 10
9.13420609E+00
 20
2.55918991E+02
  0
VERTEX
  8
0
 62
4
 10
9.08695026E+00
 20
2.56067843E+02
  0
VERTEX
  8
0
 62
4
 10
9.00859027E+00
 20
2.56214420E+02
  0
VERTEX
  8
0
 62
4
 10
8.89972247E+00
 20
2.56357607E+02
  0
VERTEX
  8
0
 62
4
 10
8.76117541E+00
 20
2.56496314E+02
  0
VERTEX
  8
0
 62
4
 10
8.59400352E+00
 20
2.56629486E+02
  0
VERTEX
  8
0
 62
4
 10
8.39947907E+00
 20
2.56756110E+02
  0
VERTEX
  8
0
 62
4
 10
8.17908253E+00
 20
2.56875221E+02
  0
VERTEX
  8
0
 62
4
 10
7.93449123E+00
 20
2.56985912E+02
  0
VERTEX
  8
0
 62
4
 10
7.66756667E+00
 20
2.57087343E+02
  0
VERTEX
  8
0
 62
4
 10
7.38034030E+00
 20
2.57178740E+02
  0
VERTEX
  8
0
 62
4
 10
7.07499809E+00
 20
2.57259408E+02
  0
VERTEX
  8
0
 62
4
 10
6.75386387E+00
 20
2.57328733E+02
  0
VERTEX
  8
0
 62
4
 10
6.41938168E+00
 20
2.57386187E+02
  0
VERTEX
  8
0
 62
4
 10
6.07409712E+00
 20
2.57431334E+02
  0
VERTEX
  8
0
 62
4
 10
5.72063802E+00
 20
2.57463829E+02
  0
VERTEX
  8
0
 62
4
 10
5.36169442E+00
 20
2.57483426E+02
  0
VERTEX
  8
0
 62
4
 10
4.99999809E+00
 20
2.57489975E+02
  0
VERTEX
  8
0
 62
4
 10
4.63830175E+00
 20
2.57483426E+02
  0
VERTEX
  8
0
 62
4
 10
4.27935815E+00
 20
2.57463829E+02
  0
VERTEX
  8
0
 62
4
 10
3.92589905E+00
 20
2.57431334E+02
  0
VERTEX
  8
0
 62
4
 10
3.58061449E+00
 20
2.57386187E+02
  0
VERTEX
  8
0
 62
4
 10
3.24613230E+00
 20
2.57328733E+02
  0
VERTEX
  8
0
 62
4
 10
2.92499809E+00
 20
2.57259408E+02
  0
VERTEX
  8
0
 62
4
 10
2.61965588E+00
 20
2.57178740E+02
  0
VERTEX
  8
0
 62
4
 10
2.33242951E+00
 20
2.57087343E+02
  0
VERTEX
  8
0
 62
4
 10
2.06550494E+00
 20
2.56985912E+02
  0
VERTEX
  8
0
 62
4
 10
1.82091365E+00
 20
2.56875221E+02
  0
VERTEX
  8
0
 62
4
 10
1.60051710E+00
 20
2.56756110E+02
  0
VERTEX
  8
0
 62
4
 10
1.40599266E+00
 20
2.56629486E+02
  0
VERTEX
  8
0
 62
4
 10
1.23882077E+00
 20
2.56496314E+02
  0
VERTEX
  8
0
 62
4
 10
1.10027371E+00
 20
2.56357607E+02
  0
VERTEX
  8
0
 62
4
 10
9.91405910E-01
 20
2.56214420E+02
  0
VERTEX
  8
0
 62
4
 10
9.13045914E-01
 20
2.56067843E+02
  0
VERTEX
  8
0
 62
4
 10
8.65790092E-01
 20
2.55918991E+02
  0
VERTEX
  8
0
 62
4
 10
8.49998090E-01
 20
2.55768998E+02
  0
VERTEX
  8
0
 62
4
 10
8.65790093E-01
 20
2.55619005E+02
  0
VERTEX
  8
0
 62
4
 10
9.13045916E-01
 20
2.55470153E+02
  0
VERTEX
  8
0
 62
4
 10
9.91405913E-01
 20
2.55323576E+02
  0
VERTEX
  8
0
 62
4
 10
1.10027372E+00
 20
2.55180389E+02
  0
VERTEX
  8
0
 62
4
 10
1.23882078E+00
 20
2.55041682E+02
  0
VERTEX
  8
0
 62
4
 10
1.40599267E+00
 20
2.54908510E+02
  0
VERTEX
  8
0
 62
4
 10
1.60051711E+00
 20
2.54781886E+02
  0
VERTEX
  8
0
 62
4
 10
1.82091366E+00
 20
2.54662775E+02
  0
VERTEX
  8
0
 62
4
 10
2.06550495E+00
 20
2.54552084E+02
  0
VERTEX
  8
0
 62
4
 10
2.33242952E+00
 20
2.54450653E+02
  0
VERTEX
  8
0
 62
4
 10
2.61965589E+00
 20
2.54359256E+02
  0
VERTEX
  8
0
 62
4
 10
2.92499810E+00
 20
2.54278588E+02
  0
VERTEX
  8
0
 62
4
 10
3.24613231E+00
 20
2.54209263E+02
  0
VERTEX
  8
0
 62
4
 10
3.58061450E+00
 20
2.54151809E+02
  0
VERTEX
  8
0
 62
4
 10
3.92589906E+00
 20
2.54106662E+02
  0
VERTEX
  8
0
 62
4
 10
4.27935816E+00
 20
2.54074167E+02
  0
VERTEX
  8
0
 62
4
 10
4.63830177E+00
 20
2.54054570E+02
  0
VERTEX
  8
0
 62
4
 10
4.99999810E+00
 20
2.54048021E+02
  0
VERTEX
  8
0
 62
4
 10
5.36169443E+00
 20
2.54054570E+02
  0
VERTEX
  8
0
 62
4
 10
5.72063804E+00
 20
2.54074167E+02
  0
VERTEX
  8
0
 62
4
 10
6.07409714E+00
 20
2.54106662E+02
  0
VERTEX
  8
0
 62
4
 10
6.41938169E+00
 20
2.54151809E+02
  0
VERTEX
  8
0
 62
4
 10
6.75386388E+00
 20
2.54209263E+02
  0
VERTEX
  8
0
 62
4
 10
7.07499810E+00
 20
2.54278588E+02
  0
VERTEX
  8
0
 62
4
 10
7.38034031E+00
 20
2.54359256E+02
  0
VERTEX
  8
0
 62
4
 10
7.66756668E+00
 20
2.54450653E+02
  0
VERTEX
  8
0
 62
4
 10
7.93449124E+00
 20
2.54552084E+02
  0
VERTEX
  8
0
 62
4
 10
8.17908254E+00
 20
2.54662775E+02
  0
VERTEX
  8
0
 62
4
 10
8.39947908E+00
 20
2.54781886E+02
  0
VERTEX
  8
0
 62
4
 10
8.59400352E+00
 20
2.54908510E+02
  0
VERTEX
  8
0
 62
4
 10
8.76117541E+00
 20
2.55041682E+02
  0
VERTEX
  8
0
 62
4
 10
8.89972247E+00
 20
2.55180389E+02
  0
VERTEX
  8
0
 62
4
 10
9.00859027E+00
 20
2.55323576E+02
  0
VERTEX
  8
0
 62
4
 10
9.08695027E+00
 20
2.55470153E+02
  0
VERTEX
  8
0
 62
4
 10
9.13420609E+00
 20
2.55619005E+02
  0
VERTEX
  8
0
 62
4
 10
9.14999809E+00
 20
2.55768998E+02
  0
SEQEND
  8
0
  0
ARC
  8
0
 62
4
 10
1.13695988E+01
 20
2.40984379E+02
 40
1.67245585E+01
 50
1.05971208E+02
 51
1.19114206E+02
  0
ARC
  8
0
 62
4
 10
-1.36960596E+00
 20
2.40984371E+02
 40
1.67245676E+01
 50
6.08857978E+01
 51
7.40287885E+01
  0
POLYLINE
  8
0
 62
4
 66
1
  0
VERTEX
  8
0
 62
4
 10
-6.30000191E+00
 20
2.52370255E+02
  0
VERTEX
  8
0
 62
4
 10
-6.28470423E+00
 20
2.52228998E+02
  0
VERTEX
  8
0
 62
4
 10
-6.23893435E+00
 20
2.52088879E+02
  0
VERTEX
  8
0
 62
4
 10
-6.16306078E+00
 20
2.51951025E+02
  0
VERTEX
  8
0
 62
4
 10
-6.05769442E+00
 20
2.51816546E+02
  0
VERTEX
  8
0
 62
4
 10
-5.92368361E+00
 20
2.51686526E+02
  0
VERTEX
  8
0
 62
4
 10
-5.76210733E+00
 20
2.51562011E+02
  0
VERTEX
  8
0
 62
4
 10
-5.57426650E+00
 20
2.51444003E+02
  0
VERTEX
  8
0
 62
4
 10
-5.36167349E+00
 20
2.51333453E+02
  0
VERTEX
  8
0
 62
4
 10
-5.12603999E+00
 20
2.51231250E+02
  0
VERTEX
  8
0
 62
4
 10
-4.86926317E+00
 20
2.51138218E+02
  0
VERTEX
  8
0
 62
4
 10
-4.59341045E+00
 20
2.51055106E+02
  0
VERTEX
  8
0
 62
4
 10
-4.30070284E+00
 20
2.50982582E+02
  0
VERTEX
  8
0
 62
4
 10
-3.99349705E+00
 20
2.50921232E+02
  0
VERTEX
  8
0
 62
4
 10
-3.67426651E+00
 20
2.50871548E+02
  0
VERTEX
  8
0
 62
4
 10
-3.34558148E+00
 20
2.50833930E+02
  0
VERTEX
  8
0
 62
4
 10
-3.01008834E+00
 20
2.50808682E+02
  0
VERTEX
  8
0
 62
4
 10
-2.67048829E+00
 20
2.50796007E+02
  0
VERTEX
  8
0
 62
4
 10
-2.32951558E+00
 20
2.50796007E+02
  0
VERTEX
  8
0
 62
4
 10
-1.98991552E+00
 20
2.50808682E+02
  0
VERTEX
  8
0
 62
4
 10
-1.65442238E+00
 20
2.50833930E+02
  0
VERTEX
  8
0
 62
4
 10
-1.32573735E+00
 20
2.50871547E+02
  0
VERTEX
  8
0
 62
4
 10
-1.00650681E+00
 20
2.50921232E+02
  0
VERTEX
  8
0
 62
4
 10
-6.99301013E-01
 20
2.50982582E+02
  0
VERTEX
  8
0
 62
4
 10
-4.06593400E-01
 20
2.51055106E+02
  0
VERTEX
  8
0
 62
4
 10
-1.30740681E-01
 20
2.51138218E+02
  0
VERTEX
  8
0
 62
4
 10
1.26036139E-01
 20
2.51231250E+02
  0
VERTEX
  8
0
 62
4
 10
3.61669645E-01
 20
2.51333453E+02
  0
VERTEX
  8
0
 62
4
 10
5.74262654E-01
 20
2.51444003E+02
  0
VERTEX
  8
0
 62
4
 10
7.62103493E-01
 20
2.51562011E+02
  0
VERTEX
  8
0
 62
4
 10
9.23679777E-01
 20
2.51686526E+02
  0
VERTEX
  8
0
 62
4
 10
1.05769059E+00
 20
2.51816546E+02
  0
VERTEX
  8
0
 62
4
 10
1.16305695E+00
 20
2.51951025E+02
  0
VERTEX
  8
0
 62
4
 10
1.23893052E+00
 20
2.52088879E+02
  0
VERTEX
  8
0
 62
4
 10
1.28470040E+00
 20
2.52228998E+02
  0
VERTEX
  8
0
 62
4
 10
1.29999809E+00
 20
2.52370255E+02
  0
SEQEND
  8
0
  0
POLYLINE
  8
0
 62
4
 66
1
  0
VERTEX
  8
0
 62
4
 10
-5.90000192E+00
 20
2.53983974E+02
  0
VERTEX
  8
0
 62
4
 10
-6.03658358E+00
 20
2.53856713E+02
  0
VERTEX
  8
0
 62
4
 10
-6.14553145E+00
 20
2.53724947E+02
  0
VERTEX
  8
0
 62
4
 10
-6.22599423E+00
 20
2.53589706E+02
  0
VERTEX
  8
0
 62
4
 10
-6.27734321E+00
 20
2.53452048E+02
  0
VERTEX
  8
0
 62
4
 10
-6.29917716E+00
 20
2.53313046E+02
  0
VERTEX
  8
0
 62
4
 10
-6.29132549E+00
 20
2.53173788E+02
  0
VERTEX
  8
0
 62
4
 10
-6.25384954E+00
 20
2.53035362E+02
  0
VERTEX
  8
0
 62
4
 10
-6.18704213E+00
 20
2.52898848E+02
  0
VERTEX
  8
0
 62
4
 10
-6.09142529E+00
 20
2.52765315E+02
  0
VERTEX
  8
0
 62
4
 10
-5.96774613E+00
 20
2.52635805E+02
  0
VERTEX
  8
0
 62
4
 10
-5.81697105E+00
 20
2.52511330E+02
  0
VERTEX
  8
0
 62
4
 10
-5.64027815E+00
 20
2.52392863E+02
  0
VERTEX
  8
0
 62
4
 10
-5.43904807E+00
 20
2.52281330E+02
  0
VERTEX
  8
0
 62
4
 10
-5.21485315E+00
 20
2.52177601E+02
  0
VERTEX
  8
0
 62
4
 10
-4.96944519E+00
 20
2.52082488E+02
  0
VERTEX
  8
0
 62
4
 10
-4.70474173E+00
 20
2.51996734E+02
  0
VERTEX
  8
0
 62
4
 10
-4.42281109E+00
 20
2.51921008E+02
  0
VERTEX
  8
0
 62
4
 10
-4.12585619E+00
 20
2.51855903E+02
  0
VERTEX
  8
0
 62
4
 10
-3.81619735E+00
 20
2.51801927E+02
  0
VERTEX
  8
0
 62
4
 10
-3.49625414E+00
 20
2.51759502E+02
  0
VERTEX
  8
0
 62
4
 10
-3.16852652E+00
 20
2.51728960E+02
  0
VERTEX
  8
0
 62
4
 10
-2.83557524E+00
 20
2.51710538E+02
  0
VERTEX
  8
0
 62
4
 10
-2.50000189E+00
 20
2.51704382E+02
  0
VERTEX
  8
0
 62
4
 10
-2.16442854E+00
 20
2.51710538E+02
  0
VERTEX
  8
0
 62
4
 10
-1.83147727E+00
 20
2.51728960E+02
  0
VERTEX
  8
0
 62
4
 10
-1.50374964E+00
 20
2.51759502E+02
  0
VERTEX
  8
0
 62
4
 10
-1.18380644E+00
 20
2.51801927E+02
  0
VERTEX
  8
0
 62
4
 10
-8.74147596E-01
 20
2.51855903E+02
  0
VERTEX
  8
0
 62
4
 10
-5.77192696E-01
 20
2.51921008E+02
  0
VERTEX
  8
0
 62
4
 10
-2.95262057E-01
 20
2.51996734E+02
  0
VERTEX
  8
0
 62
4
 10
-3.05586009E-02
 20
2.52082488E+02
  0
VERTEX
  8
0
 62
4
 10
2.14849357E-01
 20
2.52177601E+02
  0
VERTEX
  8
0
 62
4
 10
4.39044273E-01
 20
2.52281330E+02
  0
VERTEX
  8
0
 62
4
 10
6.40274354E-01
 20
2.52392863E+02
  0
VERTEX
  8
0
 62
4
 10
8.16967248E-01
 20
2.52511330E+02
  0
VERTEX
  8
0
 62
4
 10
9.67742328E-01
 20
2.52635805E+02
  0
VERTEX
  8
0
 62
4
 10
1.09142148E+00
 20
2.52765315E+02
  0
VERTEX
  8
0
 62
4
 10
1.18703832E+00
 20
2.52898848E+02
  0
VERTEX
  8
0
 62
4
 10
1.25384572E+00
 20
2.53035362E+02
  0
VERTEX
  8
0
 62
4
 10
1.29132167E+00
 20
2.53173788E+02
  0
VERTEX
  8
0
 62
4
 10
1.29917334E+00
 20
2.53313046E+02
  0
VERTEX
  8
0
 62
4
 10
1.27733938E+00
 20
2.53452048E+02
  0
VERTEX
  8
0
 62
4
 10
1.22599040E+00
 20
2.53589706E+02
  0
VERTEX
  8
0
 62
4
 10
1.14552762E+00
 20
2.53724947E+02
  0
VERTEX
  8
0
 62
4
 10
1.03657975E+00
 20
2.53856713E+02
  0
VERTEX
  8
0
 62
4
 10
8.99998082E-01
 20
2.53983974E+02
  0
SEQEND
  8
0
  0
POLYLINE
  8
0
 62
4
 66
1
  0
VERTEX
  8
0
 62
4
 10
-5.90000191E+00
 20
2.53280216E+02
  0
VERTEX
  8
0
 62
4
 10
-5.88631451E+00
 20
2.53153828E+02
  0
VERTEX
  8
0
 62
4
 10
-5.84536251E+00
 20
2.53028458E+02
  0
VERTEX
  8
0
 62
4
 10
-5.77747564E+00
 20
2.52905115E+02
  0
VERTEX
  8
0
 62
4
 10
-5.68320047E+00
 20
2.52784793E+02
  0
VERTEX
  8
0
 62
4
 10
-5.56329607E+00
 20
2.52668459E+02
  0
VERTEX
  8
0
 62
4
 10
-5.41872782E+00
 20
2.52557050E+02
  0
VERTEX
  8
0
 62
4
 10
-5.25065970E+00
 20
2.52451464E+02
  0
VERTEX
  8
0
 62
4
 10
-5.06044490E+00
 20
2.52352551E+02
  0
VERTEX
  8
0
 62
4
 10
-4.84961493E+00
 20
2.52261106E+02
  0
VERTEX
  8
0
 62
4
 10
-4.61986725E+00
 20
2.52177867E+02
  0
VERTEX
  8
0
 62
4
 10
-4.37305166E+00
 20
2.52103504E+02
  0
VERTEX
  8
0
 62
4
 10
-4.11115538E+00
 20
2.52038614E+02
  0
VERTEX
  8
0
 62
4
 10
-3.83628703E+00
 20
2.51983721E+02
  0
VERTEX
  8
0
 62
4
 10
-3.55065971E+00
 20
2.51939267E+02
  0
VERTEX
  8
0
 62
4
 10
-3.25657310E+00
 20
2.51905610E+02
  0
VERTEX
  8
0
 62
4
 10
-2.95639503E+00
 20
2.51883019E+02
  0
VERTEX
  8
0
 62
4
 10
-2.65254235E+00
 20
2.51871679E+02
  0
VERTEX
  8
0
 62
4
 10
-2.34746151E+00
 20
2.51871679E+02
  0
VERTEX
  8
0
 62
4
 10
-2.04360882E+00
 20
2.51883019E+02
  0
VERTEX
  8
0
 62
4
 10
-1.74343075E+00
 20
2.51905610E+02
  0
VERTEX
  8
0
 62
4
 10
-1.44934415E+00
 20
2.51939267E+02
  0
VERTEX
  8
0
 62
4
 10
-1.16371682E+00
 20
2.51983721E+02
  0
VERTEX
  8
0
 62
4
 10
-8.88848475E-01
 20
2.52038614E+02
  0
VERTEX
  8
0
 62
4
 10
-6.26952190E-01
 20
2.52103504E+02
  0
VERTEX
  8
0
 62
4
 10
-3.80136600E-01
 20
2.52177867E+02
  0
VERTEX
  8
0
 62
4
 10
-1.50388919E-01
 20
2.52261106E+02
  0
VERTEX
  8
0
 62
4
 10
6.04410602E-02
 20
2.52352551E+02
  0
VERTEX
  8
0
 62
4
 10
2.50655858E-01
 20
2.52451464E+02
  0
VERTEX
  8
0
 62
4
 10
4.18723977E-01
 20
2.52557050E+02
  0
VERTEX
  8
0
 62
4
 10
5.63292231E-01
 20
2.52668459E+02
  0
VERTEX
  8
0
 62
4
 10
6.83196642E-01
 20
2.52784793E+02
  0
VERTEX
  8
0
 62
4
 10
7.77471810E-01
 20
2.52905115E+02
  0
VERTEX
  8
0
 62
4
 10
8.45358687E-01
 20
2.53028458E+02
  0
VERTEX
  8
0
 62
4
 10
8.86310687E-01
 20
2.53153828E+02
  0
VERTEX
  8
0
 62
4
 10
8.99998090E-01
 20
2.53280216E+02
  0
SEQEND
  8
0
  0
POLYLINE
  8
0
 62
4
 66
1
  0
VERTEX
  8
0
 62
4
 10
8.99998090E-01
 20
2.54309202E+02
  0
VERTEX
  8
0
 62
4
 10
8.87060064E-01
 20
2.54432088E+02
  0
VERTEX
  8
0
 62
4
 10
8.48344450E-01
 20
2.54554038E+02
  0
VERTEX
  8
0
 62
4
 10
7.84145899E-01
 20
2.54674126E+02
  0
VERTEX
  8
0
 62
4
 10
6.94953000E-01
 20
2.54791436E+02
  0
VERTEX
  8
0
 62
4
 10
5.81444566E-01
 20
2.54905076E+02
  0
VERTEX
  8
0
 62
4
 10
4.44484462E-01
 20
2.55014181E+02
  0
VERTEX
  8
0
 62
4
 10
2.85115040E-01
 20
2.55117920E+02
  0
VERTEX
  8
0
 62
4
 10
1.04549196E-01
 20
2.55215505E+02
  0
VERTEX
  8
0
 62
4
 10
-9.58388548E-02
 20
2.55306192E+02
  0
VERTEX
  8
0
 62
4
 10
-3.14524038E-01
 20
2.55389292E+02
  0
VERTEX
  8
0
 62
4
 10
-5.49842028E-01
 20
2.55464171E+02
  0
VERTEX
  8
0
 62
4
 10
-8.00001911E-01
 20
2.55530261E+02
  0
VERTEX
  8
0
 62
4
 10
-1.06309982E+00
 20
2.55587057E+02
  0
VERTEX
  8
0
 62
4
 10
-1.33713342E+00
 20
2.55634128E+02
  0
VERTEX
  8
0
 62
4
 10
-1.62001716E+00
 20
2.55671116E+02
  0
VERTEX
  8
0
 62
4
 10
-1.90959811E+00
 20
2.55697739E+02
  0
VERTEX
  8
0
 62
4
 10
-2.20367239E+00
 20
2.55713794E+02
  0
VERTEX
  8
0
 62
4
 10
-2.50000191E+00
 20
2.55719159E+02
  0
VERTEX
  8
0
 62
4
 10
-2.79633144E+00
 20
2.55713794E+02
  0
VERTEX
  8
0
 62
4
 10
-3.09040572E+00
 20
2.55697739E+02
  0
VERTEX
  8
0
 62
4
 10
-3.37998667E+00
 20
2.55671116E+02
  0
VERTEX
  8
0
 62
4
 10
-3.66287040E+00
 20
2.55634128E+02
  0
VERTEX
  8
0
 62
4
 10
-3.93690400E+00
 20
2.55587057E+02
  0
VERTEX
  8
0
 62
4
 10
-4.20000191E+00
 20
2.55530261E+02
  0
VERTEX
  8
0
 62
4
 10
-4.45016180E+00
 20
2.55464171E+02
  0
VERTEX
  8
0
 62
4
 10
-4.68547979E+00
 20
2.55389292E+02
  0
VERTEX
  8
0
 62
4
 10
-4.90416497E+00
 20
2.55306192E+02
  0
VERTEX
  8
0
 62
4
 10
-5.10455302E+00
 20
2.55215505E+02
  0
VERTEX
  8
0
 62
4
 10
-5.28511886E+00
 20
2.55117920E+02
  0
VERTEX
  8
0
 62
4
 10
-5.44448828E+00
 20
2.55014181E+02
  0
VERTEX
  8
0
 62
4
 10
-5.58144839E+00
 20
2.54905076E+02
  0
VERTEX
  8
0
 62
4
 10
-5.69495682E+00
 20
2.54791436E+02
  0
VERTEX
  8
0
 62
4
 10
-5.78414972E+00
 20
2.54674126E+02
  0
VERTEX
  8
0
 62
4
 10
-5.84834827E+00
 20
2.54554038E+02
  0
VERTEX
  8
0
 62
4
 10
-5.88706388E+00
 20
2.54432088E+02
  0
VERTEX
  8
0
 62
4
 10
-5.90000191E+00
 20
2.54309202E+02
  0
VERTEX
  8
0
 62
4
 10
-5.88706388E+00
 20
2.54186316E+02
  0
VERTEX
  8
0
 62
4
 10
-5.84834827E+00
 20
2.54064366E+02
  0
VERTEX
  8
0
 62
4
 10
-5.78414972E+00
 20
2.53944278E+02
  0
VERTEX
  8
0
 62
4
 10
-5.69495682E+00
 20
2.53826968E+02
  0
VERTEX
  8
0
 62
4
 10
-5.58144838E+00
 20
2.53713328E+02
  0
VERTEX
  8
0
 62
4
 10
-5.44448828E+00
 20
2.53604223E+02
  0
VERTEX
  8
0
 62
4
 10
-5.28511886E+00
 20
2.53500484E+02
  0
VERTEX
  8
0
 62
4
 10
-5.10455301E+00
 20
2.53402899E+02
  0
VERTEX
  8
0
 62
4
 10
-4.90416496E+00
 20
2.53312212E+02
  0
VERTEX
  8
0
 62
4
 10
-4.68547978E+00
 20
2.53229112E+02
  0
VERTEX
  8
0
 62
4
 10
-4.45016179E+00
 20
2.53154233E+02
  0
VERTEX
  8
0
 62
4
 10
-4.20000190E+00
 20
2.53088143E+02
  0
VERTEX
  8
0
 62
4
 10
-3.93690399E+00
 20
2.53031347E+02
  0
VERTEX
  8
0
 62
4
 10
-3.66287039E+00
 20
2.52984276E+02
  0
VERTEX
  8
0
 62
4
 10
-3.37998666E+00
 20
2.52947288E+02
  0
VERTEX
  8
0
 62
4
 10
-3.09040571E+00
 20
2.52920665E+02
  0
VERTEX
  8
0
 62
4
 10
-2.79633143E+00
 20
2.52904610E+02
  0
VERTEX
  8
0
 62
4
 10
-2.50000190E+00
 20
2.52899245E+02
  0
VERTEX
  8
0
 62
4
 10
-2.20367238E+00
 20
2.52904610E+02
  0
VERTEX
  8
0
 62
4
 10
-1.90959810E+00
 20
2.52920665E+02
  0
VERTEX
  8
0
 62
4
 10
-1.62001715E+00
 20
2.52947288E+02
  0
VERTEX
  8
0
 62
4
 10
-1.33713342E+00
 20
2.52984276E+02
  0
VERTEX
  8
0
 62
4
 10
-1.06309981E+00
 20
2.53031347E+02
  0
VERTEX
  8
0
 62
4
 10
-8.00001903E-01
 20
2.53088143E+02
  0
VERTEX
  8
0
 62
4
 10
-5.49842020E-01
 20
2.53154233E+02
  0
VERTEX
  8
0
 62
4
 10
-3.14524031E-01
 20
2.53229112E+02
  0
VERTEX
  8
0
 62
4
 10
-9.58388480E-02
 20
2.53312212E+02
  0
VERTEX
  8
0
 62
4
 10
1.04549202E-01
 20
2.53402899E+02
  0
VERTEX
  8
0
 62
4
 10
2.85115046E-01
 20
2.53500484E+02
  0
VERTEX
  8
0
 62
4
 10
4.44484467E-01
 20
2.53604223E+02
  0
VERTEX
  8
0
 62
4
 10
5.81444570E-01
 20
2.53713328E+02
  0
VERTEX
  8
0
 62
4
 10
6.94953004E-01
 20
2.53826968E+02
  0
VERTEX
  8
0
 62
4
 10
7.84145902E-01
 20
2.53944278E+02
  0
VERTEX
  8
0
 62
4
 10
8.48344452E-01
 20
2.54064366E+02
  0
VERTEX
  8
0
 62
4
 10
8.87060064E-01
 20
2.54186316E+02
  0
VERTEX
  8
0
 62
4
 10
8.99998090E-01
 20
2.54309202E+02
  0
SEQEND
  8
0
  0
ARC
  8
0
 62
4
 10
3.74705630E+00
 20
2.40279299E+02
 40
1.64201370E+01
 50
1.10122188E+02
 51
1.19216401E+02
  0
ARC
  8
0
 62
4
 10
-8.74706072E+00
 20
2.40279298E+02
 40
1.64201386E+01
 50
6.07835994E+01
 51
6.98778124E+01
  0
LINE
  8
0
  6
CENTER
 62
6
 10
1.49999981E+01
 20
2.52370255E+02
 11
9.99999809E+00
 21
2.52370255E+02
  0
LINE
  8
0
 62
4
 10
-5.67189262E+00
 20
2.54816945E+02
 11
-1.00000019E+01
 21
2.54816945E+02
  0
LINE
  8
0
 62
4
 10
8.49998093E-01
 20
2.54816945E+02
 11
6.71888803E-01
 21
2.54816945E+02
  0
LINE
  8
0
 62
4
 10
8.49998093E-01
 20
2.55206284E+02
 11
1.23047414E-01
 21
2.55206284E+02
  0
LINE
  8
0
 62
4
 10
1.80050728E+00
 20
2.56865057E+02
 11
-5.00000191E+00
 21
2.56865057E+02
  0
LINE
  8
0
 62
4
 10
2.48906770E+00
 20
2.57139227E+02
 11
-1.00000019E+01
 21
2.57139227E+02
  0
LINE
  8
0
  6
CENTER
 62
6
 10
4.99999809E+00
 20
2.51321681E+02
 11
4.99999809E+00
 21
2.56321681E+02
  0
LINE
  8
0
  6
CENTER
 62
6
 10
7.49999809E+00
 20
2.53821681E+02
 11
2.49999809E+00
 21
2.53821681E+02
  0
LINE
  8
0
  6
CENTER
 62
6
 10
-2.50000191E+00
 20
2.49870255E+02
 11
-2.50000191E+00
 21
2.54870255E+02
  0
LINE
  8
0
  6
CENTER
 62
6
 10
-1.90734863E-06
 20
2.52370255E+02
 11
-5.00000191E+00
 21
2.52370255E+02
  0
LINE
  8
0
 62
4
 10
-5.00000189E+00
 20
2.55715748E+02
 11
-1.00000019E+01
 21
2.55715748E+02
  0
LINE
  8
0
 62
6
 10
-5.19999981E+01
 20
3.34036639E+02
 11
-5.19999981E+01
 21
3.32982057E+02
  0
LINE
  8
0
 62
6
 10
-4.89999981E+01
 20
3.34036639E+02
 11
-4.89999981E+01
 21
3.32982057E+02
  0
LINE
  8
0
 62
4
 10
-5.24999981E+01
 20
3.33488051E+02
 11
-5.24999981E+01
 21
3.32982057E+02
  0
LINE
  8
0
 62
4
 10
-4.84999981E+01
 20
3.33488051E+02
 11
-4.84999981E+01
 21
3.32982057E+02
  0
LINE
  8
0
 62
4
 10
-5.39999981E+01
 20
3.32982057E+02
 11
-5.39999981E+01
 21
3.19868420E+02
  0
LINE
  8
0
 62
4
 10
-3.89999981E+01
 20
3.32982057E+02
 11
-3.89999981E+01
 21
3.03860727E+02
  0
LINE
  8
0
 62
4
 10
-6.89999981E+01
 20
3.19868420E+02
 11
-6.89999981E+01
 21
3.06183009E+02
  0
LINE
  8
0
  6
CENTER
 62
6
 10
-4.24999981E+01
 20
3.37765579E+02
 11
-4.24999981E+01
 21
3.27500000E+02
  0
LINE
  8
0
  6
CENTER
 62
6
 10
-5.04999981E+01
 20
3.37765579E+02
 11
-5.04999981E+01
 21
3.27500000E+02
  0
LINE
  8
0
  6
CENTER
 62
6
 10
-6.14999981E+01
 20
3.11129699E+02
 11
-6.14999981E+01
 21
3.06129699E+02
  0
LINE
  8
0
 62
4
 10
-4.39999981E+01
 20
3.05735156E+02
 11
-4.39999981E+01
 21
3.04134897E+02
  0
LINE
  8
0
 62
4
 10
-4.54999981E+01
 20
3.05343158E+02
 11
-4.54999981E+01
 21
3.04134897E+02
  0
LINE
  8
0
 62
4
 10
-7.04999981E+01
 20
3.08285616E+02
 11
-7.04999981E+01
 21
3.05285273E+02
  0
POLYLINE
  8
0
 62
4
 66
1
  0
VERTEX
  8
0
 62
4
 10
-4.84999980E+01
 20
3.33488051E+02
  0
VERTEX
  8
0
 62
4
 10
-4.85080495E+01
 20
3.33562397E+02
  0
VERTEX
  8
0
 62
4
 10
-4.85321389E+01
 20
3.33636144E+02
  0
VERTEX
  8
0
 62
4
 10
-4.85720723E+01
 20
3.33708698E+02
  0
VERTEX
  8
0
 62
4
 10
-4.86275283E+01
 20
3.33779477E+02
  0
VERTEX
  8
0
 62
4
 10
-4.86980603E+01
 20
3.33847908E+02
  0
VERTEX
  8
0
 62
4
 10
-4.87831005E+01
 20
3.33913443E+02
  0
VERTEX
  8
0
 62
4
 10
-4.88819641E+01
 20
3.33975552E+02
  0
VERTEX
  8
0
 62
4
 10
-4.89938551E+01
 20
3.34033736E+02
  0
VERTEX
  8
0
 62
4
 10
-4.91178728E+01
 20
3.34087527E+02
  0
VERTEX
  8
0
 62
4
 10
-4.92530185E+01
 20
3.34136491E+02
  0
VERTEX
  8
0
 62
4
 10
-4.93982041E+01
 20
3.34180235E+02
  0
VERTEX
  8
0
 62
4
 10
-4.95522607E+01
 20
3.34218405E+02
  0
VERTEX
  8
0
 62
4
 10
-4.97139480E+01
 20
3.34250695E+02
  0
VERTEX
  8
0
 62
4
 10
-4.98819641E+01
 20
3.34276844E+02
  0
VERTEX
  8
0
 62
4
 10
-5.00549562E+01
 20
3.34296643E+02
  0
VERTEX
  8
0
 62
4
 10
-5.02315316E+01
 20
3.34309931E+02
  0
VERTEX
  8
0
 62
4
 10
-5.04102684E+01
 20
3.34316602E+02
  0
VERTEX
  8
0
 62
4
 10
-5.05897278E+01
 20
3.34316602E+02
  0
VERTEX
  8
0
 62
4
 10
-5.07684646E+01
 20
3.34309931E+02
  0
VERTEX
  8
0
 62
4
 10
-5.09450400E+01
 20
3.34296643E+02
  0
VERTEX
  8
0
 62
4
 10
-5.11180321E+01
 20
3.34276844E+02
  0
VERTEX
  8
0
 62
4
 10
-5.12860482E+01
 20
3.34250695E+02
  0
VERTEX
  8
0
 62
4
 10
-5.14477355E+01
 20
3.34218405E+02
  0
VERTEX
  8
0
 62
4
 10
-5.16017921E+01
 20
3.34180235E+02
  0
VERTEX
  8
0
 62
4
 10
-5.17469777E+01
 20
3.34136491E+02
  0
VERTEX
  8
0
 62
4
 10
-5.18821234E+01
 20
3.34087527E+02
  0
VERTEX
  8
0
 62
4
 10
-5.20061411E+01
 20
3.34033736E+02
  0
VERTEX
  8
0
 62
4
 10
-5.21180321E+01
 20
3.33975552E+02
  0
VERTEX
  8
0
 62
4
 10
-5.22168957E+01
 20
3.33913443E+02
  0
VERTEX
  8
0
 62
4
 10
-5.23019359E+01
 20
3.33847908E+02
  0
VERTEX
  8
0
 62
4
 10
-5.23724679E+01
 20
3.33779477E+02
  0
VERTEX
  8
0
 62
4
 10
-5.24279239E+01
 20
3.33708698E+02
  0
VERTEX
  8
0
 62
4
 10
-5.24678573E+01
 20
3.33636144E+02
  0
VERTEX
  8
0
 62
4
 10
-5.24919467E+01
 20
3.33562397E+02
  0
VERTEX
  8
0
 62
4
 10
-5.24999982E+01
 20
3.33488051E+02
  0
SEQEND
  8
0
  0
LINE
  8
0
 62
6
 10
-4.09999981E+01
 20
3.34036639E+02
 11
-4.09999981E+01
 21
3.32982057E+02
  0
LINE
  8
0
 62
4
 10
-4.04999981E+01
 20
3.33488051E+02
 11
-4.04999981E+01
 21
3.32982057E+02
  0
POLYLINE
  8
0
 62
4
 66
1
  0
VERTEX
  8
0
 62
4
 10
-4.04999980E+01
 20
3.33488051E+02
  0
VERTEX
  8
0
 62
4
 10
-4.05080495E+01
 20
3.33562397E+02
  0
VERTEX
  8
0
 62
4
 10
-4.05321389E+01
 20
3.33636144E+02
  0
VERTEX
  8
0
 62
4
 10
-4.05720723E+01
 20
3.33708698E+02
  0
VERTEX
  8
0
 62
4
 10
-4.06275283E+01
 20
3.33779477E+02
  0
VERTEX
  8
0
 62
4
 10
-4.06980603E+01
 20
3.33847908E+02
  0
VERTEX
  8
0
 62
4
 10
-4.07831005E+01
 20
3.33913443E+02
  0
VERTEX
  8
0
 62
4
 10
-4.08819641E+01
 20
3.33975552E+02
  0
VERTEX
  8
0
 62
4
 10
-4.09938551E+01
 20
3.34033736E+02
  0
VERTEX
  8
0
 62
4
 10
-4.11178728E+01
 20
3.34087527E+02
  0
VERTEX
  8
0
 62
4
 10
-4.12530185E+01
 20
3.34136491E+02
  0
VERTEX
  8
0
 62
4
 10
-4.13982041E+01
 20
3.34180235E+02
  0
VERTEX
  8
0
 62
4
 10
-4.15522607E+01
 20
3.34218405E+02
  0
VERTEX
  8
0
 62
4
 10
-4.17139480E+01
 20
3.34250695E+02
  0
VERTEX
  8
0
 62
4
 10
-4.18819641E+01
 20
3.34276844E+02
  0
VERTEX
  8
0
 62
4
 10
-4.20549562E+01
 20
3.34296643E+02
  0
VERTEX
  8
0
 62
4
 10
-4.22315316E+01
 20
3.34309931E+02
  0
VERTEX
  8
0
 62
4
 10
-4.24102684E+01
 20
3.34316602E+02
  0
VERTEX
  8
0
 62
4
 10
-4.25897278E+01
 20
3.34316602E+02
  0
VERTEX
  8
0
 62
4
 10
-4.27684646E+01
 20
3.34309931E+02
  0
VERTEX
  8
0
 62
4
 10
-4.29450400E+01
 20
3.34296643E+02
  0
VERTEX
  8
0
 62
4
 10
-4.31180321E+01
 20
3.34276844E+02
  0
VERTEX
  8
0
 62
4
 10
-4.32860482E+01
 20
3.34250695E+02
  0
VERTEX
  8
0
 62
4
 10
-4.34477355E+01
 20
3.34218405E+02
  0
VERTEX
  8
0
 62
4
 10
-4.36017921E+01
 20
3.34180235E+02
  0
VERTEX
  8
0
 62
4
 10
-4.37469777E+01
 20
3.34136491E+02
  0
VERTEX
  8
0
 62
4
 10
-4.38821234E+01
 20
3.34087527E+02
  0
VERTEX
  8
0
 62
4
 10
-4.40061411E+01
 20
3.34033736E+02
  0
VERTEX
  8
0
 62
4
 10
-4.41180321E+01
 20
3.33975552E+02
  0
VERTEX
  8
0
 62
4
 10
-4.42168957E+01
 20
3.33913443E+02
  0
VERTEX
  8
0
 62
4
 10
-4.43019359E+01
 20
3.33847908E+02
  0
VERTEX
  8
0
 62
4
 10
-4.43724679E+01
 20
3.33779477E+02
  0
VERTEX
  8
0
 62
4
 10
-4.44279239E+01
 20
3.33708698E+02
  0
VERTEX
  8
0
 62
4
 10
-4.44678573E+01
 20
3.33636144E+02
  0
VERTEX
  8
0
 62
4
 10
-4.44919467E+01
 20
3.33562397E+02
  0
VERTEX
  8
0
 62
4
 10
-4.44999982E+01
 20
3.33488051E+02
  0
SEQEND
  8
0
  0
LINE
  8
0
 62
6
 10
-4.39999981E+01
 20
3.34036639E+02
 11
-4.39999981E+01
 21
3.32982057E+02
  0
LINE
  8
0
 62
4
 10
-4.44999981E+01
 20
3.33488051E+02
 11
-4.44999981E+01
 21
3.32982057E+02
  0
LINE
  8
0
 62
4
 10
-5.39999981E+01
 20
3.32982057E+02
 11
-3.89999981E+01
 21
3.32982057E+02
  0
LINE
  8
0
 62
4
 10
-5.39999981E+01
 20
3.26238149E+02
 11
-3.89999981E+01
 21
3.26238149E+02
  0
LINE
  8
0
 62
4
 10
-6.89999981E+01
 20
3.19868420E+02
 11
-3.89999981E+01
 21
3.19868420E+02
  0
LINE
  8
0
 62
4
 10
-6.89999981E+01
 20
3.10495819E+02
 11
-3.89999981E+01
 21
3.10495819E+02
  0
LINE
  8
0
 62
4
 10
-6.89999981E+01
 20
3.03860727E+02
 11
-5.65109285E+01
 21
3.03860727E+02
  0
LINE
  8
0
 62
4
 10
-6.89999981E+01
 20
3.09433515E+02
 11
-7.04999981E+01
 21
3.08285616E+02
  0
LINE
  8
0
 62
4
 10
-6.89999981E+01
 20
3.05793670E+02
 11
-5.81499981E+01
 21
3.05793670E+02
  0
LINE
  8
0
 62
4
 10
-7.04999981E+01
 20
3.06224553E+02
 11
-6.89999981E+01
 21
3.05793670E+02
  0
LINE
  8
0
 62
4
 10
-6.89999981E+01
 20
3.04134897E+02
 11
-5.71994889E+01
 21
3.04134897E+02
  0
LINE
  8
0
 62
4
 10
-7.04999981E+01
 20
3.05285273E+02
 11
-6.89999981E+01
 21
3.04134897E+02
  0
LINE
  8
0
 62
4
 10
-6.89999981E+01
 20
3.06183009E+02
 11
-5.81499981E+01
 21
3.06183009E+02
  0
LINE
  8
0
 62
4
 10
-6.89999981E+01
 20
3.06183009E+02
 11
-6.89999981E+01
 21
3.04134897E+02
  0
LINE
  8
0
 62
4
 10
-6.89999981E+01
 20
3.04134897E+02
 11
-6.89999981E+01
 21
3.03860727E+02
  0
LINE
  8
0
 62
4
 10
-5.02999981E+01
 20
3.08629699E+02
 11
-5.02999981E+01
 21
3.07719738E+02
  0
LINE
  8
0
 62
4
 10
-4.26999981E+01
 20
3.07719738E+02
 11
-4.26999981E+01
 21
3.08629699E+02
  0
LINE
  8
0
 62
4
 10
-4.98999981E+01
 20
3.07719738E+02
 11
-4.98999981E+01
 21
3.06690752E+02
  0
LINE
  8
0
 62
4
 10
-4.30999981E+01
 20
3.07719738E+02
 11
-4.30999981E+01
 21
3.06690752E+02
  0
LINE
  8
0
 62
4
 10
-4.98499981E+01
 20
3.06449837E+02
 11
-4.98499981E+01
 21
3.05230956E+02
  0
LINE
  8
0
 62
4
 10
-5.81499981E+01
 20
3.05230956E+02
 11
-5.81499981E+01
 21
3.06832488E+02
  0
POLYLINE
  8
0
 62
4
 66
1
  0
VERTEX
  8
0
 62
4
 10
-5.02999981E+01
 20
3.07808552E+02
  0
VERTEX
  8
0
 62
4
 10
-5.04498988E+01
 20
3.07942569E+02
  0
VERTEX
  8
0
 62
4
 10
-5.06279583E+01
 20
3.08070524E+02
  0
VERTEX
  8
0
 62
4
 10
-5.08327644E+01
 20
3.08191401E+02
  0
VERTEX
  8
0
 62
4
 10
-5.10626926E+01
 20
3.08304242E+02
  0
VERTEX
  8
0
 62
4
 10
-5.13159191E+01
 20
3.08408153E+02
  0
VERTEX
  8
0
 62
4
 10
-5.15904353E+01
 20
3.08502308E+02
  0
VERTEX
  8
0
 62
4
 10
-5.18840638E+01
 20
3.08585961E+02
  0
VERTEX
  8
0
 62
4
 10
-5.21944757E+01
 20
3.08658448E+02
  0
VERTEX
  8
0
 62
4
 10
-5.25192086E+01
 20
3.08719195E+02
  0
VERTEX
  8
0
 62
4
 10
-5.28556870E+01
 20
3.08767720E+02
  0
VERTEX
  8
0
 62
4
 10
-5.32012419E+01
 20
3.08803637E+02
  0
VERTEX
  8
0
 62
4
 10
-5.35531325E+01
 20
3.08826662E+02
  0
VERTEX
  8
0
 62
4
 10
-5.39085675E+01
 20
3.08836613E+02
  0
VERTEX
  8
0
 62
4
 10
-5.42647277E+01
 20
3.08833409E+02
  0
VERTEX
  8
0
 62
4
 10
-5.46187882E+01
 20
3.08817077E+02
  0
VERTEX
  8
0
 62
4
 10
-5.49679404E+01
 20
3.08787747E+02
  0
VERTEX
  8
0
 62
4
 10
-5.53094151E+01
 20
3.08745650E+02
  0
VERTEX
  8
0
 62
4
 10
-5.56405037E+01
 20
3.08691122E+02
  0
VERTEX
  8
0
 62
4
 10
-5.59585800E+01
 20
3.08624593E+02
  0
VERTEX
  8
0
 62
4
 10
-5.62611211E+01
 20
3.08546592E+02
  0
VERTEX
  8
0
 62
4
 10
-5.65457273E+01
 20
3.08457739E+02
  0
VERTEX
  8
0
 62
4
 10
-5.68101411E+01
 20
3.08358736E+02
  0
VERTEX
  8
0
 62
4
 10
-5.70522653E+01
 20
3.08250371E+02
  0
VERTEX
  8
0
 62
4
 10
-5.72701793E+01
 20
3.08133501E+02
  0
VERTEX
  8
0
 62
4
 10
-5.74621547E+01
 20
3.08009055E+02
  0
VERTEX
  8
0
 62
4
 10
-5.76266687E+01
 20
3.07878019E+02
  0
VERTEX
  8
0
 62
4
 10
-5.77624165E+01
 20
3.07741433E+02
  0
VERTEX
  8
0
 62
4
 10
-5.78683213E+01
 20
3.07600380E+02
  0
VERTEX
  8
0
 62
4
 10
-5.79435431E+01
 20
3.07455979E+02
  0
VERTEX
  8
0
 62
4
 10
-5.79874853E+01
 20
3.07309375E+02
  0
SEQEND
  8
0
  0
POLYLINE
  8
0
 62
4
 66
1
  0
VERTEX
  8
0
 62
4
 10
-5.02896236E+01
 20
3.07603374E+02
  0
VERTEX
  8
0
 62
4
 10
-5.04700544E+01
 20
3.07737432E+02
  0
VERTEX
  8
0
 62
4
 10
-5.06785770E+01
 20
3.07864288E+02
  0
VERTEX
  8
0
 62
4
 10
-5.09135319E+01
 20
3.07982933E+02
  0
VERTEX
  8
0
 62
4
 10
-5.11730492E+01
 20
3.08092423E+02
  0
VERTEX
  8
0
 62
4
 10
-5.14550638E+01
 20
3.08191886E+02
  0
VERTEX
  8
0
 62
4
 10
-5.17573313E+01
 20
3.08280530E+02
  0
VERTEX
  8
0
 62
4
 10
-5.20774462E+01
 20
3.08357651E+02
  0
VERTEX
  8
0
 62
4
 10
-5.24128611E+01
 20
3.08422635E+02
  0
VERTEX
  8
0
 62
4
 10
-5.27609065E+01
 20
3.08474964E+02
  0
VERTEX
  8
0
 62
4
 10
-5.31188129E+01
 20
3.08514222E+02
  0
VERTEX
  8
0
 62
4
 10
-5.34837318E+01
 20
3.08540096E+02
  0
VERTEX
  8
0
 62
4
 10
-5.38527592E+01
 20
3.08552381E+02
  0
VERTEX
  8
0
 62
4
 10
-5.42229584E+01
 20
3.08550979E+02
  0
VERTEX
  8
0
 62
4
 10
-5.45913832E+01
 20
3.08535901E+02
  0
VERTEX
  8
0
 62
4
 10
-5.49551017E+01
 20
3.08507267E+02
  0
VERTEX
  8
0
 62
4
 10
-5.53112194E+01
 20
3.08465305E+02
  0
VERTEX
  8
0
 62
4
 10
-5.56569022E+01
 20
3.08410349E+02
  0
VERTEX
  8
0
 62
4
 10
-5.59893991E+01
 20
3.08342836E+02
  0
VERTEX
  8
0
 62
4
 10
-5.63060642E+01
 20
3.08263303E+02
  0
VERTEX
  8
0
 62
4
 10
-5.66043772E+01
 20
3.08172384E+02
  0
VERTEX
  8
0
 62
4
 10
-5.68819643E+01
 20
3.08070802E+02
  0
VERTEX
  8
0
 62
4
 10
-5.71366164E+01
 20
3.07959365E+02
  0
VERTEX
  8
0
 62
4
 10
-5.73663068E+01
 20
3.07838960E+02
  0
VERTEX
  8
0
 62
4
 10
-5.75692077E+01
 20
3.07710546E+02
  0
VERTEX
  8
0
 62
4
 10
-5.77437044E+01
 20
3.07575144E+02
  0
VERTEX
  8
0
 62
4
 10
-5.78884082E+01
 20
3.07433831E+02
  0
VERTEX
  8
0
 62
4
 10
-5.80021675E+01
 20
3.07287734E+02
  0
VERTEX
  8
0
 62
4
 10
-5.80840771E+01
 20
3.07138013E+02
  0
VERTEX
  8
0
 62
4
 10
-5.81334850E+01
 20
3.06985861E+02
  0
VERTEX
  8
0
 62
4
 10
-5.81499981E+01
 20
3.06832488E+02
  0
SEQEND
  8
0
  0
POLYLINE
  8
0
 62
4
 66
1
  0
VERTEX
  8
0
 62
4
 10
-5.81499981E+01
 20
3.05230956E+02
  0
VERTEX
  8
0
 62
4
 10
-5.81342061E+01
 20
3.05080963E+02
  0
VERTEX
  8
0
 62
4
 10
-5.80869503E+01
 20
3.04932112E+02
  0
VERTEX
  8
0
 62
4
 10
-5.80085903E+01
 20
3.04785534E+02
  0
VERTEX
  8
0
 62
4
 10
-5.78997225E+01
 20
3.04642347E+02
  0
VERTEX
  8
0
 62
4
 10
-5.77611754E+01
 20
3.04503640E+02
  0
VERTEX
  8
0
 62
4
 10
-5.75940035E+01
 20
3.04370468E+02
  0
VERTEX
  8
0
 62
4
 10
-5.73994791E+01
 20
3.04243844E+02
  0
VERTEX
  8
0
 62
4
 10
-5.71790825E+01
 20
3.04124733E+02
  0
VERTEX
  8
0
 62
4
 10
-5.69344912E+01
 20
3.04014042E+02
  0
VERTEX
  8
0
 62
4
 10
-5.66675667E+01
 20
3.03912611E+02
  0
VERTEX
  8
0
 62
4
 10
-5.63803403E+01
 20
3.03821214E+02
  0
VERTEX
  8
0
 62
4
 10
-5.60749981E+01
 20
3.03740546E+02
  0
VERTEX
  8
0
 62
4
 10
-5.57538639E+01
 20
3.03671221E+02
  0
VERTEX
  8
0
 62
4
 10
-5.54193817E+01
 20
3.03613767E+02
  0
VERTEX
  8
0
 62
4
 10
-5.50740971E+01
 20
3.03568620E+02
  0
VERTEX
  8
0
 62
4
 10
-5.47206380E+01
 20
3.03536125E+02
  0
VERTEX
  8
0
 62
4
 10
-5.43616944E+01
 20
3.03516528E+02
  0
VERTEX
  8
0
 62
4
 10
-5.39999981E+01
 20
3.03509979E+02
  0
VERTEX
  8
0
 62
4
 10
-5.36383018E+01
 20
3.03516528E+02
  0
VERTEX
  8
0
 62
4
 10
-5.32793582E+01
 20
3.03536125E+02
  0
VERTEX
  8
0
 62
4
 10
-5.29258991E+01
 20
3.03568620E+02
  0
VERTEX
  8
0
 62
4
 10
-5.25806145E+01
 20
3.03613767E+02
  0
VERTEX
  8
0
 62
4
 10
-5.22461323E+01
 20
3.03671221E+02
  0
VERTEX
  8
0
 62
4
 10
-5.19249981E+01
 20
3.03740546E+02
  0
VERTEX
  8
0
 62
4
 10
-5.16196559E+01
 20
3.03821214E+02
  0
VERTEX
  8
0
 62
4
 10
-5.13324295E+01
 20
3.03912611E+02
  0
VERTEX
  8
0
 62
4
 10
-5.10655050E+01
 20
3.04014042E+02
  0
VERTEX
  8
0
 62
4
 10
-5.08209137E+01
 20
3.04124733E+02
  0
VERTEX
  8
0
 62
4
 10
-5.06005171E+01
 20
3.04243844E+02
  0
VERTEX
  8
0
 62
4
 10
-5.04059927E+01
 20
3.04370468E+02
  0
VERTEX
  8
0
 62
4
 10
-5.02388208E+01
 20
3.04503640E+02
  0
VERTEX
  8
0
 62
4
 10
-5.01002737E+01
 20
3.04642347E+02
  0
VERTEX
  8
0
 62
4
 10
-4.99914059E+01
 20
3.04785534E+02
  0
VERTEX
  8
0
 62
4
 10
-4.99130459E+01
 20
3.04932111E+02
  0
VERTEX
  8
0
 62
4
 10
-4.98657901E+01
 20
3.05080963E+02
  0
VERTEX
  8
0
 62
4
 10
-4.98499981E+01
 20
3.05230956E+02
  0
VERTEX
  8
0
 62
4
 10
-4.98657901E+01
 20
3.05380949E+02
  0
VERTEX
  8
0
 62
4
 10
-4.99130459E+01
 20
3.05529800E+02
  0
VERTEX
  8
0
 62
4
 10
-4.99914059E+01
 20
3.05676378E+02
  0
VERTEX
  8
0
 62
4
 10
-5.01002737E+01
 20
3.05819565E+02
  0
VERTEX
  8
0
 62
4
 10
-5.02388208E+01
 20
3.05958272E+02
  0
VERTEX
  8
0
 62
4
 10
-5.04059927E+01
 20
3.06091444E+02
  0
VERTEX
  8
0
 62
4
 10
-5.06005171E+01
 20
3.06218068E+02
  0
VERTEX
  8
0
 62
4
 10
-5.08209137E+01
 20
3.06337179E+02
  0
VERTEX
  8
0
 62
4
 10
-5.10655050E+01
 20
3.06447870E+02
  0
VERTEX
  8
0
 62
4
 10
-5.13324295E+01
 20
3.06549301E+02
  0
VERTEX
  8
0
 62
4
 10
-5.16196559E+01
 20
3.06640698E+02
  0
VERTEX
  8
0
 62
4
 10
-5.19249981E+01
 20
3.06721366E+02
  0
VERTEX
  8
0
 62
4
 10
-5.22461323E+01
 20
3.06790691E+02
  0
VERTEX
  8
0
 62
4
 10
-5.25806145E+01
 20
3.06848145E+02
  0
VERTEX
  8
0
 62
4
 10
-5.29258991E+01
 20
3.06893292E+02
  0
VERTEX
  8
0
 62
4
 10
-5.32793582E+01
 20
3.06925787E+02
  0
VERTEX
  8
0
 62
4
 10
-5.36383018E+01
 20
3.06945384E+02
  0
VERTEX
  8
0
 62
4
 10
-5.39999981E+01
 20
3.06951933E+02
  0
VERTEX
  8
0
 62
4
 10
-5.43616944E+01
 20
3.06945384E+02
  0
VERTEX
  8
0
 62
4
 10
-5.47206380E+01
 20
3.06925787E+02
  0
VERTEX
  8
0
 62
4
 10
-5.50740971E+01
 20
3.06893292E+02
  0
VERTEX
  8
0
 62
4
 10
-5.54193817E+01
 20
3.06848145E+02
  0
VERTEX
  8
0
 62
4
 10
-5.57538639E+01
 20
3.06790691E+02
  0
VERTEX
  8
0
 62
4
 10
-5.60749981E+01
 20
3.06721366E+02
  0
VERTEX
  8
0
 62
4
 10
-5.63803403E+01
 20
3.06640698E+02
  0
VERTEX
  8
0
 62
4
 10
-5.66675667E+01
 20
3.06549301E+02
  0
VERTEX
  8
0
 62
4
 10
-5.69344912E+01
 20
3.06447870E+02
  0
VERTEX
  8
0
 62
4
 10
-5.71790825E+01
 20
3.06337179E+02
  0
VERTEX
  8
0
 62
4
 10
-5.73994791E+01
 20
3.06218068E+02
  0
VERTEX
  8
0
 62
4
 10
-5.75940035E+01
 20
3.06091444E+02
  0
VERTEX
  8
0
 62
4
 10
-5.77611754E+01
 20
3.05958272E+02
  0
VERTEX
  8
0
 62
4
 10
-5.78997225E+01
 20
3.05819565E+02
  0
VERTEX
  8
0
 62
4
 10
-5.80085903E+01
 20
3.05676378E+02
  0
VERTEX
  8
0
 62
4
 10
-5.80869503E+01
 20
3.05529801E+02
  0
VERTEX
  8
0
 62
4
 10
-5.81342061E+01
 20
3.05380949E+02
  0
VERTEX
  8
0
 62
4
 10
-5.81499981E+01
 20
3.05230956E+02
  0
SEQEND
  8
0
  0
ARC
  8
0
 62
4
 10
-6.03695988E+01
 20
3.20015575E+02
 40
1.67245585E+01
 50
2.85971208E+02
 51
2.99114206E+02
  0
ARC
  8
0
 62
4
 10
-4.76303940E+01
 20
3.20015584E+02
 40
1.67245676E+01
 50
2.40885798E+02
 51
2.54028789E+02
  0
POLYLINE
  8
0
 62
4
 66
1
  0
VERTEX
  8
0
 62
4
 10
-4.26999981E+01
 20
3.08629699E+02
  0
VERTEX
  8
0
 62
4
 10
-4.27152958E+01
 20
3.08770956E+02
  0
VERTEX
  8
0
 62
4
 10
-4.27610657E+01
 20
3.08911075E+02
  0
VERTEX
  8
0
 62
4
 10
-4.28369392E+01
 20
3.09048929E+02
  0
VERTEX
  8
0
 62
4
 10
-4.29423056E+01
 20
3.09183407E+02
  0
VERTEX
  8
0
 62
4
 10
-4.30763164E+01
 20
3.09313428E+02
  0
VERTEX
  8
0
 62
4
 10
-4.32378927E+01
 20
3.09437943E+02
  0
VERTEX
  8
0
 62
4
 10
-4.34257335E+01
 20
3.09555951E+02
  0
VERTEX
  8
0
 62
4
 10
-4.36383265E+01
 20
3.09666501E+02
  0
VERTEX
  8
0
 62
4
 10
-4.38739600E+01
 20
3.09768704E+02
  0
VERTEX
  8
0
 62
4
 10
-4.41307368E+01
 20
3.09861736E+02
  0
VERTEX
  8
0
 62
4
 10
-4.44065896E+01
 20
3.09944848E+02
  0
VERTEX
  8
0
 62
4
 10
-4.46992972E+01
 20
3.10017372E+02
  0
VERTEX
  8
0
 62
4
 10
-4.50065030E+01
 20
3.10078722E+02
  0
VERTEX
  8
0
 62
4
 10
-4.53257335E+01
 20
3.10128406E+02
  0
VERTEX
  8
0
 62
4
 10
-4.56544185E+01
 20
3.10166024E+02
  0
VERTEX
  8
0
 62
4
 10
-4.59899117E+01
 20
3.10191272E+02
  0
VERTEX
  8
0
 62
4
 10
-4.63295117E+01
 20
3.10203947E+02
  0
VERTEX
  8
0
 62
4
 10
-4.66704844E+01
 20
3.10203947E+02
  0
VERTEX
  8
0
 62
4
 10
-4.70100845E+01
 20
3.10191272E+02
  0
VERTEX
  8
0
 62
4
 10
-4.73455776E+01
 20
3.10166024E+02
  0
VERTEX
  8
0
 62
4
 10
-4.76742627E+01
 20
3.10128407E+02
  0
VERTEX
  8
0
 62
4
 10
-4.79934932E+01
 20
3.10078722E+02
  0
VERTEX
  8
0
 62
4
 10
-4.83006990E+01
 20
3.10017372E+02
  0
VERTEX
  8
0
 62
4
 10
-4.85934066E+01
 20
3.09944848E+02
  0
VERTEX
  8
0
 62
4
 10
-4.88692593E+01
 20
3.09861736E+02
  0
VERTEX
  8
0
 62
4
 10
-4.91260361E+01
 20
3.09768704E+02
  0
VERTEX
  8
0
 62
4
 10
-4.93616697E+01
 20
3.09666501E+02
  0
VERTEX
  8
0
 62
4
 10
-4.95742627E+01
 20
3.09555951E+02
  0
VERTEX
  8
0
 62
4
 10
-4.97621035E+01
 20
3.09437943E+02
  0
VERTEX
  8
0
 62
4
 10
-4.99236798E+01
 20
3.09313428E+02
  0
VERTEX
  8
0
 62
4
 10
-5.00576906E+01
 20
3.09183408E+02
  0
VERTEX
  8
0
 62
4
 10
-5.01630570E+01
 20
3.09048929E+02
  0
VERTEX
  8
0
 62
4
 10
-5.02389305E+01
 20
3.08911075E+02
  0
VERTEX
  8
0
 62
4
 10
-5.02847004E+01
 20
3.08770956E+02
  0
VERTEX
  8
0
 62
4
 10
-5.02999981E+01
 20
3.08629699E+02
  0
SEQEND
  8
0
  0
POLYLINE
  8
0
 62
4
 66
1
  0
VERTEX
  8
0
 62
4
 10
-4.30999981E+01
 20
3.07015980E+02
  0
VERTEX
  8
0
 62
4
 10
-4.29634164E+01
 20
3.07143241E+02
  0
VERTEX
  8
0
 62
4
 10
-4.28544686E+01
 20
3.07275007E+02
  0
VERTEX
  8
0
 62
4
 10
-4.27740058E+01
 20
3.07410248E+02
  0
VERTEX
  8
0
 62
4
 10
-4.27226568E+01
 20
3.07547906E+02
  0
VERTEX
  8
0
 62
4
 10
-4.27008228E+01
 20
3.07686908E+02
  0
VERTEX
  8
0
 62
4
 10
-4.27086745E+01
 20
3.07826166E+02
  0
VERTEX
  8
0
 62
4
 10
-4.27461505E+01
 20
3.07964592E+02
  0
VERTEX
  8
0
 62
4
 10
-4.28129579E+01
 20
3.08101106E+02
  0
VERTEX
  8
0
 62
4
 10
-4.29085747E+01
 20
3.08234639E+02
  0
VERTEX
  8
0
 62
4
 10
-4.30322539E+01
 20
3.08364149E+02
  0
VERTEX
  8
0
 62
4
 10
-4.31830290E+01
 20
3.08488624E+02
  0
VERTEX
  8
0
 62
4
 10
-4.33597219E+01
 20
3.08607091E+02
  0
VERTEX
  8
0
 62
4
 10
-4.35609519E+01
 20
3.08718624E+02
  0
VERTEX
  8
0
 62
4
 10
-4.37851469E+01
 20
3.08822353E+02
  0
VERTEX
  8
0
 62
4
 10
-4.40305548E+01
 20
3.08917466E+02
  0
VERTEX
  8
0
 62
4
 10
-4.42952583E+01
 20
3.09003220E+02
  0
VERTEX
  8
0
 62
4
 10
-4.45771889E+01
 20
3.09078946E+02
  0
VERTEX
  8
0
 62
4
 10
-4.48741438E+01
 20
3.09144051E+02
  0
VERTEX
  8
0
 62
4
 10
-4.51838027E+01
 20
3.09198027E+02
  0
VERTEX
  8
0
 62
4
 10
-4.55037459E+01
 20
3.09240452E+02
  0
VERTEX
  8
0
 62
4
 10
-4.58314735E+01
 20
3.09270994E+02
  0
VERTEX
  8
0
 62
4
 10
-4.61644248E+01
 20
3.09289416E+02
  0
VERTEX
  8
0
 62
4
 10
-4.64999981E+01
 20
3.09295572E+02
  0
VERTEX
  8
0
 62
4
 10
-4.68355715E+01
 20
3.09289416E+02
  0
VERTEX
  8
0
 62
4
 10
-4.71685227E+01
 20
3.09270994E+02
  0
VERTEX
  8
0
 62
4
 10
-4.74962504E+01
 20
3.09240452E+02
  0
VERTEX
  8
0
 62
4
 10
-4.78161936E+01
 20
3.09198027E+02
  0
VERTEX
  8
0
 62
4
 10
-4.81258524E+01
 20
3.09144051E+02
  0
VERTEX
  8
0
 62
4
 10
-4.84228073E+01
 20
3.09078946E+02
  0
VERTEX
  8
0
 62
4
 10
-4.87047379E+01
 20
3.09003220E+02
  0
VERTEX
  8
0
 62
4
 10
-4.89694414E+01
 20
3.08917466E+02
  0
VERTEX
  8
0
 62
4
 10
-4.92148494E+01
 20
3.08822353E+02
  0
VERTEX
  8
0
 62
4
 10
-4.94390443E+01
 20
3.08718624E+02
  0
VERTEX
  8
0
 62
4
 10
-4.96402744E+01
 20
3.08607091E+02
  0
VERTEX
  8
0
 62
4
 10
-4.98169673E+01
 20
3.08488624E+02
  0
VERTEX
  8
0
 62
4
 10
-4.99677423E+01
 20
3.08364149E+02
  0
VERTEX
  8
0
 62
4
 10
-5.00914215E+01
 20
3.08234639E+02
  0
VERTEX
  8
0
 62
4
 10
-5.01870383E+01
 20
3.08101106E+02
  0
VERTEX
  8
0
 62
4
 10
-5.02538457E+01
 20
3.07964592E+02
  0
VERTEX
  8
0
 62
4
 10
-5.02913217E+01
 20
3.07826166E+02
  0
VERTEX
  8
0
 62
4
 10
-5.02991734E+01
 20
3.07686908E+02
  0
VERTEX
  8
0
 62
4
 10
-5.02773394E+01
 20
3.07547906E+02
  0
VERTEX
  8
0
 62
4
 10
-5.02259904E+01
 20
3.07410248E+02
  0
VERTEX
  8
0
 62
4
 10
-5.01455276E+01
 20
3.07275007E+02
  0
VERTEX
  8
0
 62
4
 10
-5.00365798E+01
 20
3.07143241E+02
  0
VERTEX
  8
0
 62
4
 10
-4.98999981E+01
 20
3.07015980E+02
  0
SEQEND
  8
0
  0
POLYLINE
  8
0
 62
4
 66
1
  0
VERTEX
  8
0
 62
4
 10
-4.30999981E+01
 20
3.07719738E+02
  0
VERTEX
  8
0
 62
4
 10
-4.31136855E+01
 20
3.07846126E+02
  0
VERTEX
  8
0
 62
4
 10
-4.31546375E+01
 20
3.07971496E+02
  0
VERTEX
  8
0
 62
4
 10
-4.32225244E+01
 20
3.08094839E+02
  0
VERTEX
  8
0
 62
4
 10
-4.33167995E+01
 20
3.08215161E+02
  0
VERTEX
  8
0
 62
4
 10
-4.34367039E+01
 20
3.08331495E+02
  0
VERTEX
  8
0
 62
4
 10
-4.35812722E+01
 20
3.08442904E+02
  0
VERTEX
  8
0
 62
4
 10
-4.37493403E+01
 20
3.08548490E+02
  0
VERTEX
  8
0
 62
4
 10
-4.39395551E+01
 20
3.08647403E+02
  0
VERTEX
  8
0
 62
4
 10
-4.41503851E+01
 20
3.08738848E+02
  0
VERTEX
  8
0
 62
4
 10
-4.43801328E+01
 20
3.08822087E+02
  0
VERTEX
  8
0
 62
4
 10
-4.46269483E+01
 20
3.08896450E+02
  0
VERTEX
  8
0
 62
4
 10
-4.48888446E+01
 20
3.08961340E+02
  0
VERTEX
  8
0
 62
4
 10
-4.51637130E+01
 20
3.09016233E+02
  0
VERTEX
  8
0
 62
4
 10
-4.54493403E+01
 20
3.09060687E+02
  0
VERTEX
  8
0
 62
4
 10
-4.57434269E+01
 20
3.09094344E+02
  0
VERTEX
  8
0
 62
4
 10
-4.60436050E+01
 20
3.09116935E+02
  0
VERTEX
  8
0
 62
4
 10
-4.63474577E+01
 20
3.09128275E+02
  0
VERTEX
  8
0
 62
4
 10
-4.66525385E+01
 20
3.09128275E+02
  0
VERTEX
  8
0
 62
4
 10
-4.69563912E+01
 20
3.09116935E+02
  0
VERTEX
  8
0
 62
4
 10
-4.72565693E+01
 20
3.09094344E+02
  0
VERTEX
  8
0
 62
4
 10
-4.75506559E+01
 20
3.09060687E+02
  0
VERTEX
  8
0
 62
4
 10
-4.78362832E+01
 20
3.09016233E+02
  0
VERTEX
  8
0
 62
4
 10
-4.81111515E+01
 20
3.08961340E+02
  0
VERTEX
  8
0
 62
4
 10
-4.83730478E+01
 20
3.08896450E+02
  0
VERTEX
  8
0
 62
4
 10
-4.86198634E+01
 20
3.08822087E+02
  0
VERTEX
  8
0
 62
4
 10
-4.88496111E+01
 20
3.08738848E+02
  0
VERTEX
  8
0
 62
4
 10
-4.90604411E+01
 20
3.08647403E+02
  0
VERTEX
  8
0
 62
4
 10
-4.92506559E+01
 20
3.08548490E+02
  0
VERTEX
  8
0
 62
4
 10
-4.94187240E+01
 20
3.08442904E+02
  0
VERTEX
  8
0
 62
4
 10
-4.95632922E+01
 20
3.08331495E+02
  0
VERTEX
  8
0
 62
4
 10
-4.96831967E+01
 20
3.08215161E+02
  0
VERTEX
  8
0
 62
4
 10
-4.97774718E+01
 20
3.08094839E+02
  0
VERTEX
  8
0
 62
4
 10
-4.98453587E+01
 20
3.07971496E+02
  0
VERTEX
  8
0
 62
4
 10
-4.98863107E+01
 20
3.07846126E+02
  0
VERTEX
  8
0
 62
4
 10
-4.98999981E+01
 20
3.07719738E+02
  0
SEQEND
  8
0
  0
POLYLINE
  8
0
 62
4
 66
1
  0
VERTEX
  8
0
 62
4
 10
-4.98999981E+01
 20
3.06690752E+02
  0
VERTEX
  8
0
 62
4
 10
-4.98870601E+01
 20
3.06567866E+02
  0
VERTEX
  8
0
 62
4
 10
-4.98483445E+01
 20
3.06445916E+02
  0
VERTEX
  8
0
 62
4
 10
-4.97841459E+01
 20
3.06325828E+02
  0
VERTEX
  8
0
 62
4
 10
-4.96949530E+01
 20
3.06208518E+02
  0
VERTEX
  8
0
 62
4
 10
-4.95814446E+01
 20
3.06094878E+02
  0
VERTEX
  8
0
 62
4
 10
-4.94444845E+01
 20
3.05985773E+02
  0
VERTEX
  8
0
 62
4
 10
-4.92851151E+01
 20
3.05882034E+02
  0
VERTEX
  8
0
 62
4
 10
-4.91045492E+01
 20
3.05784449E+02
  0
VERTEX
  8
0
 62
4
 10
-4.89041612E+01
 20
3.05693762E+02
  0
VERTEX
  8
0
 62
4
 10
-4.86854760E+01
 20
3.05610662E+02
  0
VERTEX
  8
0
 62
4
 10
-4.84501580E+01
 20
3.05535783E+02
  0
VERTEX
  8
0
 62
4
 10
-4.81999981E+01
 20
3.05469693E+02
  0
VERTEX
  8
0
 62
4
 10
-4.79369002E+01
 20
3.05412897E+02
  0
VERTEX
  8
0
 62
4
 10
-4.76628666E+01
 20
3.05365826E+02
  0
VERTEX
  8
0
 62
4
 10
-4.73799829E+01
 20
3.05328838E+02
  0
VERTEX
  8
0
 62
4
 10
-4.70904019E+01
 20
3.05302215E+02
  0
VERTEX
  8
0
 62
4
 10
-4.67963276E+01
 20
3.05286160E+02
  0
VERTEX
  8
0
 62
4
 10
-4.64999981E+01
 20
3.05280795E+02
  0
VERTEX
  8
0
 62
4
 10
-4.62036686E+01
 20
3.05286160E+02
  0
VERTEX
  8
0
 62
4
 10
-4.59095943E+01
 20
3.05302215E+02
  0
VERTEX
  8
0
 62
4
 10
-4.56200133E+01
 20
3.05328838E+02
  0
VERTEX
  8
0
 62
4
 10
-4.53371296E+01
 20
3.05365826E+02
  0
VERTEX
  8
0
 62
4
 10
-4.50630960E+01
 20
3.05412897E+02
  0
VERTEX
  8
0
 62
4
 10
-4.47999981E+01
 20
3.05469693E+02
  0
VERTEX
  8
0
 62
4
 10
-4.45498382E+01
 20
3.05535783E+02
  0
VERTEX
  8
0
 62
4
 10
-4.43145202E+01
 20
3.05610662E+02
  0
VERTEX
  8
0
 62
4
 10
-4.40958350E+01
 20
3.05693762E+02
  0
VERTEX
  8
0
 62
4
 10
-4.38954470E+01
 20
3.05784449E+02
  0
VERTEX
  8
0
 62
4
 10
-4.37148812E+01
 20
3.05882034E+02
  0
VERTEX
  8
0
 62
4
 10
-4.35555117E+01
 20
3.05985773E+02
  0
VERTEX
  8
0
 62
4
 10
-4.34185516E+01
 20
3.06094878E+02
  0
VERTEX
  8
0
 62
4
 10
-4.33050432E+01
 20
3.06208518E+02
  0
VERTEX
  8
0
 62
4
 10
-4.32158503E+01
 20
3.06325828E+02
  0
VERTEX
  8
0
 62
4
 10
-4.31516517E+01
 20
3.06445916E+02
  0
VERTEX
  8
0
 62
4
 10
-4.31129361E+01
 20
3.06567866E+02
  0
VERTEX
  8
0
 62
4
 10
-4.30999981E+01
 20
3.06690752E+02
  0
VERTEX
  8
0
 62
4
 10
-4.31129361E+01
 20
3.06813638E+02
  0
VERTEX
  8
0
 62
4
 10
-4.31516517E+01
 20
3.06935588E+02
  0
VERTEX
  8
0
 62
4
 10
-4.32158503E+01
 20
3.07055676E+02
  0
VERTEX
  8
0
 62
4
 10
-4.33050432E+01
 20
3.07172986E+02
  0
VERTEX
  8
0
 62
4
 10
-4.34185516E+01
 20
3.07286626E+02
  0
VERTEX
  8
0
 62
4
 10
-4.35555117E+01
 20
3.07395731E+02
  0
VERTEX
  8
0
 62
4
 10
-4.37148811E+01
 20
3.07499470E+02
  0
VERTEX
  8
0
 62
4
 10
-4.38954470E+01
 20
3.07597055E+02
  0
VERTEX
  8
0
 62
4
 10
-4.40958350E+01
 20
3.07687742E+02
  0
VERTEX
  8
0
 62
4
 10
-4.43145202E+01
 20
3.07770842E+02
  0
VERTEX
  8
0
 62
4
 10
-4.45498382E+01
 20
3.07845721E+02
  0
VERTEX
  8
0
 62
4
 10
-4.47999981E+01
 20
3.07911811E+02
  0
VERTEX
  8
0
 62
4
 10
-4.50630960E+01
 20
3.07968607E+02
  0
VERTEX
  8
0
 62
4
 10
-4.53371296E+01
 20
3.08015678E+02
  0
VERTEX
  8
0
 62
4
 10
-4.56200133E+01
 20
3.08052666E+02
  0
VERTEX
  8
0
 62
4
 10
-4.59095943E+01
 20
3.08079289E+02
  0
VERTEX
  8
0
 62
4
 10
-4.62036686E+01
 20
3.08095344E+02
  0
VERTEX
  8
0
 62
4
 10
-4.64999981E+01
 20
3.08100709E+02
  0
VERTEX
  8
0
 62
4
 10
-4.67963276E+01
 20
3.08095344E+02
  0
VERTEX
  8
0
 62
4
 10
-4.70904019E+01
 20
3.08079289E+02
  0
VERTEX
  8
0
 62
4
 10
-4.73799829E+01
 20
3.08052666E+02
  0
VERTEX
  8
0
 62
4
 10
-4.76628666E+01
 20
3.08015678E+02
  0
VERTEX
  8
0
 62
4
 10
-4.79369002E+01
 20
3.07968607E+02
  0
VERTEX
  8
0
 62
4
 10
-4.81999981E+01
 20
3.07911811E+02
  0
VERTEX
  8
0
 62
4
 10
-4.84501580E+01
 20
3.07845721E+02
  0
VERTEX
  8
0
 62
4
 10
-4.86854760E+01
 20
3.07770842E+02
  0
VERTEX
  8
0
 62
4
 10
-4.89041612E+01
 20
3.07687742E+02
  0
VERTEX
  8
0
 62
4
 10
-4.91045492E+01
 20
3.07597055E+02
  0
VERTEX
  8
0
 62
4
 10
-4.92851151E+01
 20
3.07499470E+02
  0
VERTEX
  8
0
 62
4
 10
-4.94444845E+01
 20
3.07395731E+02
  0
VERTEX
  8
0
 62
4
 10
-4.95814446E+01
 20
3.07286626E+02
  0
VERTEX
  8
0
 62
4
 10
-4.96949530E+01
 20
3.07172986E+02
  0
VERTEX
  8
0
 62
4
 10
-4.97841459E+01
 20
3.07055676E+02
  0
VERTEX
  8
0
 62
4
 10
-4.98483445E+01
 20
3.06935588E+02
  0
VERTEX
  8
0
 62
4
 10
-4.98870601E+01
 20
3.06813638E+02
  0
VERTEX
  8
0
 62
4
 10
-4.98999981E+01
 20
3.06690752E+02
  0
SEQEND
  8
0
  0
ARC
  8
0
 62
4
 10
-5.27470563E+01
 20
3.20720655E+02
 40
1.64201370E+01
 50
2.90122188E+02
 51
2.99216401E+02
  0
ARC
  8
0
 62
4
 10
-4.02529393E+01
 20
3.20720657E+02
 40
1.64201386E+01
 50
2.40783600E+02
 51
2.49877812E+02
  0
LINE
  8
0
  6
CENTER
 62
6
 10
-6.39999981E+01
 20
3.08629699E+02
 11
-5.89999981E+01
 21
3.08629699E+02
  0
LINE
  8
0
 62
4
 10
-4.33281074E+01
 20
3.06183009E+02
 11
-3.89999981E+01
 21
3.06183009E+02
  0
LINE
  8
0
 62
4
 10
-4.98499981E+01
 20
3.06183009E+02
 11
-4.96718888E+01
 21
3.06183009E+02
  0
LINE
  8
0
 62
4
 10
-4.98499981E+01
 20
3.05793670E+02
 11
-4.91230474E+01
 21
3.05793670E+02
  0
LINE
  8
0
 62
4
 10
-5.08005073E+01
 20
3.04134897E+02
 11
-4.39999981E+01
 21
3.04134897E+02
  0
LINE
  8
0
 62
4
 10
-5.14890677E+01
 20
3.03860727E+02
 11
-3.89999981E+01
 21
3.03860727E+02
  0
LINE
  8
0
  6
CENTER
 62
6
 10
-5.39999981E+01
 20
3.09678273E+02
 11
-5.39999981E+01
 21
3.04678273E+02
  0
LINE
  8
0
  6
CENTER
 62
6
 10
-5.64999981E+01
 20
3.07178273E+02
 11
-5.14999981E+01
 21
3.07178273E+02
  0
LINE
  8
0
  6
CENTER
 62
6
 10
-4.64999981E+01
 20
3.11129699E+02
 11
-4.64999981E+01
 21
3.06129699E+02
  0
LINE
  8
0
  6
CENTER
 62
6
 10
-4.89999981E+01
 20
3.08629699E+02
 11
-4.39999981E+01
 21
3.08629699E+02
  0
LINE
  8
0
 62
4
 10
-4.39999981E+01
 20
3.05284206E+02
 11
-3.89999981E+01
 21
3.05284206E+02
  0
LINE
  8
0
 62
7
 10
-5.39999981E+01
 20
3.27000061E+02
 11
-8.30000286E+01
 21
3.27000061E+02
  0
LINE
  8
0
 62
7
 10
-6.89999981E+01
 20
3.18000000E+02
 11
-8.30000286E+01
 21
3.18000000E+02
  0
LINE
  8
0
 62
7
 10
-4.89264831E+01
 20
3.34000000E+02
 11
-4.40735131E+01
 21
3.34000000E+02
  0
LINE
  8
0
 62
7
 10
-4.09264831E+01
 20
3.34000000E+02
 11
2.79999714E+01
 21
3.34000000E+02
  0
LINE
  8
0
 62
7
 10
-1.00000019E+01
 20
2.43000000E+02
 11
-8.30000286E+01
 21
2.43000000E+02
  0
LINE
  8
0
 62
7
 10
-1.00000019E+01
 20
2.33999954E+02
 11
-8.30000286E+01
 21
2.33999954E+02
  0
LINE
  8
0
 62
7
 10
-4.92642921E+00
 20
2.26999985E+02
 11
-7.35746612E-02
 21
2.26999985E+02
  0
LINE
  8
0
 62
7
 10
3.07357079E+00
 20
2.26999985E+02
 11
2.79999714E+01
 21
2.26999985E+02
  0
LINE
  8
0
  6
CENTER
 62
6
 10
-4.79999981E+01
 20
-2.75639053E+02
 11
-4.79999981E+01
 21
-2.80212543E+02
  0
LINE
  8
0
 62
4
 10
-9.09999981E+01
 20
-2.68514613E+02
 11
-8.59999981E+01
 21
-2.68514613E+02
  0
LINE
  8
0
 62
4
 10
-9.09999981E+01
 20
-2.62368941E+02
 11
-8.59999981E+01
 21
-2.62368941E+02
  0
LINE
  8
0
 62
4
 10
-9.09999981E+01
 20
-2.55562569E+02
 11
-8.59999981E+01
 21
-2.55562569E+02
  0
LINE
  8
0
 62
6
 10
-6.57149329E+01
 20
-2.84519549E+02
 11
-6.22850632E+01
 21
-2.81089675E+02
  0
LINE
  8
0
 62
6
 10
-6.22850608E+01
 20
-2.84519547E+02
 11
-6.57149354E+01
 21
-2.81089677E+02
  0
POLYLINE
  8
0
 62
4
 66
1
  0
VERTEX
  8
0
 62
4
 10
-6.73767727E+01
 20
-2.83708343E+02
  0
VERTEX
  8
0
 62
4
 10
-6.73986537E+01
 20
-2.83981255E+02
  0
VERTEX
  8
0
 62
4
 10
-6.73937351E+01
 20
-2.84254850E+02
  0
VERTEX
  8
0
 62
4
 10
-6.73620555E+01
 20
-2.84526971E+02
  0
VERTEX
  8
0
 62
4
 10
-6.73038649E+01
 20
-2.84795471E+02
  0
VERTEX
  8
0
 62
4
 10
-6.72196221E+01
 20
-2.85058235E+02
  0
VERTEX
  8
0
 62
4
 10
-6.71099914E+01
 20
-2.85313190E+02
  0
VERTEX
  8
0
 62
4
 10
-6.69758372E+01
 20
-2.85558325E+02
  0
VERTEX
  8
0
 62
4
 10
-6.68182174E+01
 20
-2.85791707E+02
  0
VERTEX
  8
0
 62
4
 10
-6.66383749E+01
 20
-2.86011497E+02
  0
VERTEX
  8
0
 62
4
 10
-6.64377278E+01
 20
-2.86215960E+02
  0
VERTEX
  8
0
 62
4
 10
-6.62178583E+01
 20
-2.86403486E+02
  0
VERTEX
  8
0
 62
4
 10
-6.59805001E+01
 20
-2.86572594E+02
  0
VERTEX
  8
0
 62
4
 10
-6.57275250E+01
 20
-2.86721952E+02
  0
VERTEX
  8
0
 62
4
 10
-6.54609277E+01
 20
-2.86850382E+02
  0
VERTEX
  8
0
 62
4
 10
-6.51828104E+01
 20
-2.86956871E+02
  0
VERTEX
  8
0
 62
4
 10
-6.48953661E+01
 20
-2.87040579E+02
  0
VERTEX
  8
0
 62
4
 10
-6.46008616E+01
 20
-2.87100847E+02
  0
VERTEX
  8
0
 62
4
 10
-6.43016191E+01
 20
-2.87137198E+02
  0
VERTEX
  8
0
 62
4
 10
-6.39999981E+01
 20
-2.87149347E+02
  0
VERTEX
  8
0
 62
4
 10
-6.36983771E+01
 20
-2.87137198E+02
  0
VERTEX
  8
0
 62
4
 10
-6.33991346E+01
 20
-2.87100847E+02
  0
VERTEX
  8
0
 62
4
 10
-6.31046301E+01
 20
-2.87040579E+02
  0
VERTEX
  8
0
 62
4
 10
-6.28171858E+01
 20
-2.86956871E+02
  0
VERTEX
  8
0
 62
4
 10
-6.25390685E+01
 20
-2.86850382E+02
  0
VERTEX
  8
0
 62
4
 10
-6.22724712E+01
 20
-2.86721952E+02
  0
VERTEX
  8
0
 62
4
 10
-6.20194961E+01
 20
-2.86572594E+02
  0
VERTEX
  8
0
 62
4
 10
-6.17821379E+01
 20
-2.86403486E+02
  0
VERTEX
  8
0
 62
4
 10
-6.15622684E+01
 20
-2.86215960E+02
  0
VERTEX
  8
0
 62
4
 10
-6.13616213E+01
 20
-2.86011497E+02
  0
VERTEX
  8
0
 62
4
 10
-6.11817788E+01
 20
-2.85791707E+02
  0
VERTEX
  8
0
 62
4
 10
-6.10241590E+01
 20
-2.85558325E+02
  0
VERTEX
  8
0
 62
4
 10
-6.08900048E+01
 20
-2.85313190E+02
  0
VERTEX
  8
0
 62
4
 10
-6.07803741E+01
 20
-2.85058235E+02
  0
VERTEX
  8
0
 62
4
 10
-6.06961313E+01
 20
-2.84795471E+02
  0
VERTEX
  8
0
 62
4
 10
-6.06379407E+01
 20
-2.84526971E+02
  0
VERTEX
  8
0
 62
4
 10
-6.06062611E+01
 20
-2.84254850E+02
  0
VERTEX
  8
0
 62
4
 10
-6.06013425E+01
 20
-2.83981255E+02
  0
VERTEX
  8
0
 62
4
 10
-6.06232235E+01
 20
-2.83708343E+02
  0
SEQEND
  8
0
  0
POLYLINE
  8
0
 62
4
 66
1
  0
VERTEX
  8
0
 62
4
 10
-6.05999981E+01
 20
-2.83337911E+02
  0
VERTEX
  8
0
 62
4
 10
-6.06129361E+01
 20
-2.83061223E+02
  0
VERTEX
  8
0
 62
4
 10
-6.06516517E+01
 20
-2.82786640E+02
  0
VERTEX
  8
0
 62
4
 10
-6.07158503E+01
 20
-2.82516254E+02
  0
VERTEX
  8
0
 62
4
 10
-6.08050432E+01
 20
-2.82252120E+02
  0
VERTEX
  8
0
 62
4
 10
-6.09185516E+01
 20
-2.81996250E+02
  0
VERTEX
  8
0
 62
4
 10
-6.10555117E+01
 20
-2.81750591E+02
  0
VERTEX
  8
0
 62
4
 10
-6.12148811E+01
 20
-2.81517012E+02
  0
VERTEX
  8
0
 62
4
 10
-6.13954470E+01
 20
-2.81297291E+02
  0
VERTEX
  8
0
 62
4
 10
-6.15958350E+01
 20
-2.81093101E+02
  0
VERTEX
  8
0
 62
4
 10
-6.18145202E+01
 20
-2.80905995E+02
  0
VERTEX
  8
0
 62
4
 10
-6.20498382E+01
 20
-2.80737398E+02
  0
VERTEX
  8
0
 62
4
 10
-6.22999981E+01
 20
-2.80588591E+02
  0
VERTEX
  8
0
 62
4
 10
-6.25630960E+01
 20
-2.80460709E+02
  0
VERTEX
  8
0
 62
4
 10
-6.28371296E+01
 20
-2.80354725E+02
  0
VERTEX
  8
0
 62
4
 10
-6.31200133E+01
 20
-2.80271444E+02
  0
VERTEX
  8
0
 62
4
 10
-6.34095943E+01
 20
-2.80211500E+02
  0
VERTEX
  8
0
 62
4
 10
-6.37036686E+01
 20
-2.80175351E+02
  0
VERTEX
  8
0
 62
4
 10
-6.39999981E+01
 20
-2.80163270E+02
  0
VERTEX
  8
0
 62
4
 10
-6.42963276E+01
 20
-2.80175351E+02
  0
VERTEX
  8
0
 62
4
 10
-6.45904019E+01
 20
-2.80211500E+02
  0
VERTEX
  8
0
 62
4
 10
-6.48799829E+01
 20
-2.80271444E+02
  0
VERTEX
  8
0
 62
4
 10
-6.51628666E+01
 20
-2.80354725E+02
  0
VERTEX
  8
0
 62
4
 10
-6.54369002E+01
 20
-2.80460709E+02
  0
VERTEX
  8
0
 62
4
 10
-6.56999981E+01
 20
-2.80588591E+02
  0
VERTEX
  8
0
 62
4
 10
-6.59501580E+01
 20
-2.80737398E+02
  0
VERTEX
  8
0
 62
4
 10
-6.61854760E+01
 20
-2.80905995E+02
  0
VERTEX
  8
0
 62
4
 10
-6.64041612E+01
 20
-2.81093101E+02
  0
VERTEX
  8
0
 62
4
 10
-6.66045492E+01
 20
-2.81297291E+02
  0
VERTEX
  8
0
 62
4
 10
-6.67851151E+01
 20
-2.81517012E+02
  0
VERTEX
  8
0
 62
4
 10
-6.69444845E+01
 20
-2.81750591E+02
  0
VERTEX
  8
0
 62
4
 10
-6.70814446E+01
 20
-2.81996250E+02
  0
VERTEX
  8
0
 62
4
 10
-6.71949530E+01
 20
-2.82252120E+02
  0
VERTEX
  8
0
 62
4
 10
-6.72841459E+01
 20
-2.82516254E+02
  0
VERTEX
  8
0
 62
4
 10
-6.73483445E+01
 20
-2.82786640E+02
  0
VERTEX
  8
0
 62
4
 10
-6.73870601E+01
 20
-2.83061223E+02
  0
VERTEX
  8
0
 62
4
 10
-6.73999981E+01
 20
-2.83337911E+02
  0
VERTEX
  8
0
 62
4
 10
-6.73870601E+01
 20
-2.83614599E+02
  0
VERTEX
  8
0
 62
4
 10
-6.73483445E+01
 20
-2.83889182E+02
  0
VERTEX
  8
0
 62
4
 10
-6.72841459E+01
 20
-2.84159568E+02
  0
VERTEX
  8
0
 62
4
 10
-6.71949530E+01
 20
-2.84423702E+02
  0
VERTEX
  8
0
 62
4
 10
-6.70814446E+01
 20
-2.84679572E+02
  0
VERTEX
  8
0
 62
4
 10
-6.69444845E+01
 20
-2.84925231E+02
  0
VERTEX
  8
0
 62
4
 10
-6.67851150E+01
 20
-2.85158810E+02
  0
VERTEX
  8
0
 62
4
 10
-6.66045492E+01
 20
-2.85378531E+02
  0
VERTEX
  8
0
 62
4
 10
-6.64041612E+01
 20
-2.85582721E+02
  0
VERTEX
  8
0
 62
4
 10
-6.61854760E+01
 20
-2.85769827E+02
  0
VERTEX
  8
0
 62
4
 10
-6.59501580E+01
 20
-2.85938424E+02
  0
VERTEX
  8
0
 62
4
 10
-6.56999981E+01
 20
-2.86087231E+02
  0
VERTEX
  8
0
 62
4
 10
-6.54369002E+01
 20
-2.86215113E+02
  0
VERTEX
  8
0
 62
4
 10
-6.51628666E+01
 20
-2.86321097E+02
  0
VERTEX
  8
0
 62
4
 10
-6.48799828E+01
 20
-2.86404378E+02
  0
VERTEX
  8
0
 62
4
 10
-6.45904019E+01
 20
-2.86464322E+02
  0
VERTEX
  8
0
 62
4
 10
-6.42963276E+01
 20
-2.86500471E+02
  0
VERTEX
  8
0
 62
4
 10
-6.39999981E+01
 20
-2.86512552E+02
  0
VERTEX
  8
0
 62
4
 10
-6.37036686E+01
 20
-2.86500471E+02
  0
VERTEX
  8
0
 62
4
 10
-6.34095943E+01
 20
-2.86464322E+02
  0
VERTEX
  8
0
 62
4
 10
-6.31200133E+01
 20
-2.86404378E+02
  0
VERTEX
  8
0
 62
4
 10
-6.28371296E+01
 20
-2.86321097E+02
  0
VERTEX
  8
0
 62
4
 10
-6.25630960E+01
 20
-2.86215113E+02
  0
VERTEX
  8
0
 62
4
 10
-6.22999981E+01
 20
-2.86087231E+02
  0
VERTEX
  8
0
 62
4
 10
-6.20498382E+01
 20
-2.85938424E+02
  0
VERTEX
  8
0
 62
4
 10
-6.18145202E+01
 20
-2.85769827E+02
  0
VERTEX
  8
0
 62
4
 10
-6.15958350E+01
 20
-2.85582721E+02
  0
VERTEX
  8
0
 62
4
 10
-6.13954470E+01
 20
-2.85378531E+02
  0
VERTEX
  8
0
 62
4
 10
-6.12148811E+01
 20
-2.85158810E+02
  0
VERTEX
  8
0
 62
4
 10
-6.10555117E+01
 20
-2.84925231E+02
  0
VERTEX
  8
0
 62
4
 10
-6.09185516E+01
 20
-2.84679572E+02
  0
VERTEX
  8
0
 62
4
 10
-6.08050432E+01
 20
-2.84423702E+02
  0
VERTEX
  8
0
 62
4
 10
-6.07158503E+01
 20
-2.84159568E+02
  0
VERTEX
  8
0
 62
4
 10
-6.06516517E+01
 20
-2.83889182E+02
  0
VERTEX
  8
0
 62
4
 10
-6.06129361E+01
 20
-2.83614599E+02
  0
VERTEX
  8
0
 62
4
 10
-6.05999981E+01
 20
-2.83337911E+02
  0
SEQEND
  8
0
  0
POLYLINE
  8
0
 62
4
 66
1
  0
VERTEX
  8
0
 62
4
 10
-6.79999981E+01
 20
-2.84173556E+02
  0
VERTEX
  8
0
 62
4
 10
-6.79847769E+01
 20
-2.84480308E+02
  0
VERTEX
  8
0
 62
4
 10
-6.79392290E+01
 20
-2.84784725E+02
  0
VERTEX
  8
0
 62
4
 10
-6.78637012E+01
 20
-2.85084490E+02
  0
VERTEX
  8
0
 62
4
 10
-6.77587681E+01
 20
-2.85377323E+02
  0
VERTEX
  8
0
 62
4
 10
-6.76252286E+01
 20
-2.85660995E+02
  0
VERTEX
  8
0
 62
4
 10
-6.74640987E+01
 20
-2.85933346E+02
  0
VERTEX
  8
0
 62
4
 10
-6.72766049E+01
 20
-2.86192304E+02
  0
VERTEX
  8
0
 62
4
 10
-6.70641742E+01
 20
-2.86435898E+02
  0
VERTEX
  8
0
 62
4
 10
-6.68284231E+01
 20
-2.86662274E+02
  0
VERTEX
  8
0
 62
4
 10
-6.65711460E+01
 20
-2.86869710E+02
  0
VERTEX
  8
0
 62
4
 10
-6.62943009E+01
 20
-2.87056626E+02
  0
VERTEX
  8
0
 62
4
 10
-6.59999947E+01
 20
-2.87221600E+02
  0
VERTEX
  8
0
 62
4
 10
-6.56904672E+01
 20
-2.87363377E+02
  0
VERTEX
  8
0
 62
4
 10
-6.53680743E+01
 20
-2.87480878E+02
  0
VERTEX
  8
0
 62
4
 10
-6.50352695E+01
 20
-2.87573207E+02
  0
VERTEX
  8
0
 62
4
 10
-6.46945856E+01
 20
-2.87639663E+02
  0
VERTEX
  8
0
 62
4
 10
-6.43486154E+01
 20
-2.87679740E+02
  0
VERTEX
  8
0
 62
4
 10
-6.39999921E+01
 20
-2.87693133E+02
  0
VERTEX
  8
0
 62
4
 10
-6.36513688E+01
 20
-2.87679739E+02
  0
VERTEX
  8
0
 62
4
 10
-6.33053988E+01
 20
-2.87639661E+02
  0
VERTEX
  8
0
 62
4
 10
-6.29647152E+01
 20
-2.87573204E+02
  0
VERTEX
  8
0
 62
4
 10
-6.26319107E+01
 20
-2.87480874E+02
  0
VERTEX
  8
0
 62
4
 10
-6.23095181E+01
 20
-2.87363373E+02
  0
VERTEX
  8
0
 62
4
 10
-6.19999912E+01
 20
-2.87221595E+02
  0
VERTEX
  8
0
 62
4
 10
-6.17056855E+01
 20
-2.87056620E+02
  0
VERTEX
  8
0
 62
4
 10
-6.14288410E+01
 20
-2.86869703E+02
  0
VERTEX
  8
0
 62
4
 10
-6.11715646E+01
 20
-2.86662267E+02
  0
VERTEX
  8
0
 62
4
 10
-6.09358143E+01
 20
-2.86435890E+02
  0
VERTEX
  8
0
 62
4
 10
-6.07233844E+01
 20
-2.86192295E+02
  0
VERTEX
  8
0
 62
4
 10
-6.05358915E+01
 20
-2.85933337E+02
  0
VERTEX
  8
0
 62
4
 10
-6.03747626E+01
 20
-2.85660985E+02
  0
VERTEX
  8
0
 62
4
 10
-6.02412240E+01
 20
-2.85377313E+02
  0
VERTEX
  8
0
 62
4
 10
-6.01362920E+01
 20
-2.85084480E+02
  0
VERTEX
  8
0
 62
4
 10
-6.00607651E+01
 20
-2.84784714E+02
  0
VERTEX
  8
0
 62
4
 10
-6.00152183E+01
 20
-2.84480297E+02
  0
VERTEX
  8
0
 62
4
 10
-5.99999981E+01
 20
-2.84173545E+02
  0
SEQEND
  8
0
  0
POLYLINE
  8
0
 62
4
 66
1
  0
VERTEX
  8
0
 62
4
 10
-6.67327458E+01
 20
-2.81449101E+02
  0
VERTEX
  8
0
 62
4
 10
-6.69802174E+01
 20
-2.81685043E+02
  0
VERTEX
  8
0
 62
4
 10
-6.72043629E+01
 20
-2.81940463E+02
  0
VERTEX
  8
0
 62
4
 10
-6.74034279E+01
 20
-2.82213361E+02
  0
VERTEX
  8
0
 62
4
 10
-6.75758544E+01
 20
-2.82501602E+02
  0
VERTEX
  8
0
 62
4
 10
-6.77202927E+01
 20
-2.82802929E+02
  0
VERTEX
  8
0
 62
4
 10
-6.78356124E+01
 20
-2.83114984E+02
  0
VERTEX
  8
0
 62
4
 10
-6.79209108E+01
 20
-2.83435324E+02
  0
VERTEX
  8
0
 62
4
 10
-6.79755204E+01
 20
-2.83761442E+02
  0
VERTEX
  8
0
 62
4
 10
-6.79990136E+01
 20
-2.84090786E+02
  0
VERTEX
  8
0
 62
4
 10
-6.79912067E+01
 20
-2.84420778E+02
  0
VERTEX
  8
0
 62
4
 10
-6.79521607E+01
 20
-2.84748835E+02
  0
VERTEX
  8
0
 62
4
 10
-6.78821812E+01
 20
-2.85072389E+02
  0
VERTEX
  8
0
 62
4
 10
-6.77818159E+01
 20
-2.85388908E+02
  0
VERTEX
  8
0
 62
4
 10
-6.76518505E+01
 20
-2.85695915E+02
  0
VERTEX
  8
0
 62
4
 10
-6.74933021E+01
 20
-2.85991006E+02
  0
VERTEX
  8
0
 62
4
 10
-6.73074117E+01
 20
-2.86271871E+02
  0
VERTEX
  8
0
 62
4
 10
-6.70956343E+01
 20
-2.86536314E+02
  0
VERTEX
  8
0
 62
4
 10
-6.68596274E+01
 20
-2.86782263E+02
  0
VERTEX
  8
0
 62
4
 10
-6.66012383E+01
 20
-2.87007794E+02
  0
VERTEX
  8
0
 62
4
 10
-6.63224893E+01
 20
-2.87211141E+02
  0
VERTEX
  8
0
 62
4
 10
-6.60255623E+01
 20
-2.87390714E+02
  0
VERTEX
  8
0
 62
4
 10
-6.57127812E+01
 20
-2.87545105E+02
  0
VERTEX
  8
0
 62
4
 10
-6.53865942E+01
 20
-2.87673108E+02
  0
VERTEX
  8
0
 62
4
 10
-6.50495544E+01
 20
-2.87773720E+02
  0
VERTEX
  8
0
 62
4
 10
-6.47042997E+01
 20
-2.87846153E+02
  0
VERTEX
  8
0
 62
4
 10
-6.43535324E+01
 20
-2.87889841E+02
  0
VERTEX
  8
0
 62
4
 10
-6.39999981E+01
 20
-2.87904442E+02
  0
VERTEX
  8
0
 62
4
 10
-6.36464637E+01
 20
-2.87889841E+02
  0
VERTEX
  8
0
 62
4
 10
-6.32956965E+01
 20
-2.87846153E+02
  0
VERTEX
  8
0
 62
4
 10
-6.29504418E+01
 20
-2.87773720E+02
  0
VERTEX
  8
0
 62
4
 10
-6.26134020E+01
 20
-2.87673108E+02
  0
VERTEX
  8
0
 62
4
 10
-6.22872150E+01
 20
-2.87545105E+02
  0
VERTEX
  8
0
 62
4
 10
-6.19744339E+01
 20
-2.87390713E+02
  0
VERTEX
  8
0
 62
4
 10
-6.16775069E+01
 20
-2.87211141E+02
  0
VERTEX
  8
0
 62
4
 10
-6.13987579E+01
 20
-2.87007794E+02
  0
VERTEX
  8
0
 62
4
 10
-6.11403688E+01
 20
-2.86782263E+02
  0
VERTEX
  8
0
 62
4
 10
-6.09043619E+01
 20
-2.86536314E+02
  0
VERTEX
  8
0
 62
4
 10
-6.06925845E+01
 20
-2.86271871E+02
  0
VERTEX
  8
0
 62
4
 10
-6.05066941E+01
 20
-2.85991006E+02
  0
VERTEX
  8
0
 62
4
 10
-6.03481457E+01
 20
-2.85695915E+02
  0
VERTEX
  8
0
 62
4
 10
-6.02181803E+01
 20
-2.85388908E+02
  0
VERTEX
  8
0
 62
4
 10
-6.01178150E+01
 20
-2.85072389E+02
  0
VERTEX
  8
0
 62
4
 10
-6.00478355E+01
 20
-2.84748835E+02
  0
VERTEX
  8
0
 62
4
 10
-6.00087895E+01
 20
-2.84420778E+02
  0
VERTEX
  8
0
 62
4
 10
-6.00009826E+01
 20
-2.84090786E+02
  0
VERTEX
  8
0
 62
4
 10
-6.00244758E+01
 20
-2.83761442E+02
  0
VERTEX
  8
0
 62
4
 10
-6.00790854E+01
 20
-2.83435324E+02
  0
VERTEX
  8
0
 62
4
 10
-6.01643838E+01
 20
-2.83114984E+02
  0
VERTEX
  8
0
 62
4
 10
-6.02797035E+01
 20
-2.82802929E+02
  0
VERTEX
  8
0
 62
4
 10
-6.04241418E+01
 20
-2.82501602E+02
  0
VERTEX
  8
0
 62
4
 10
-6.05965683E+01
 20
-2.82213361E+02
  0
VERTEX
  8
0
 62
4
 10
-6.07956333E+01
 20
-2.81940463E+02
  0
VERTEX
  8
0
 62
4
 10
-6.10197788E+01
 20
-2.81685043E+02
  0
VERTEX
  8
0
 62
4
 10
-6.12672504E+01
 20
-2.81449101E+02
  0
SEQEND
  8
0
  0
LINE
  8
0
  6
CENTER
 62
6
 10
-6.39999981E+01
 20
-2.78201077E+02
 11
-6.39999981E+01
 21
-2.89168484E+02
  0
LINE
  8
0
  6
CENTER
 62
6
 10
-7.00640034E+01
 20
-2.82804612E+02
 11
-5.81177145E+01
 21
-2.82804612E+02
  0
LINE
  8
0
 62
4
 10
-7.59999981E+01
 20
-2.91076519E+02
 11
-7.29999981E+01
 21
-2.95969605E+02
  0
LINE
  8
0
 62
4
 10
-3.69999981E+01
 20
-2.91076519E+02
 11
-3.99999981E+01
 21
-2.95969605E+02
  0
ARC
  8
0
 62
4
 10
-7.44999953E+01
 20
-2.79804225E+02
 40
1.50000284E+00
 50
9.00001085E+01
 51
1.79999892E+02
  0
ARC
  8
0
 62
4
 10
-8.05000024E+01
 20
-2.68208271E+02
 40
4.99995728E-01
 50
1.79999510E+02
 51
2.70000490E+02
  0
ARC
  8
0
 62
4
 10
-3.85000009E+01
 20
-2.79804225E+02
 40
1.50000284E+00
 50
1.08554370E-04
 51
8.99998913E+01
  0
ARC
  8
0
 62
4
 10
-7.20000024E+01
 20
-2.69208271E+02
 40
5.00004272E-01
 50
4.89585868E-04
 51
8.99995103E+01
  0
ARC
  8
0
 62
4
 10
-8.04999938E+01
 20
-2.55208271E+02
 40
5.00004272E-01
 50
9.00004895E+01
 51
1.79999510E+02
  0
LINE
  8
0
 62
4
 10
-8.44999981E+01
 20
-2.67458267E+02
 11
-8.09999981E+01
 21
-2.67458267E+02
  0
LINE
  8
0
 62
4
 10
-8.44999981E+01
 20
-2.55958267E+02
 11
-8.09999981E+01
 21
-2.55958267E+02
  0
LINE
  8
0
 62
4
 10
-8.44999981E+01
 20
-2.55458267E+02
 11
-8.44999981E+01
 21
-2.67958267E+02
  0
LINE
  8
0
 62
4
 10
-8.59999981E+01
 20
-2.67958267E+02
 11
-8.09999981E+01
 21
-2.67958267E+02
  0
LINE
  8
0
 62
4
 10
-8.59999981E+01
 20
-2.55458267E+02
 11
-8.09999981E+01
 21
-2.55458267E+02
  0
LINE
  8
0
 62
4
 10
-8.59999981E+01
 20
-2.54910934E+02
 11
-8.59999981E+01
 21
-2.68514613E+02
  0
LINE
  8
0
 62
4
 10
-9.09999981E+01
 20
-2.54910934E+02
 11
-9.09999981E+01
 21
-2.68514613E+02
  0
LINE
  8
0
 62
4
 10
-8.09999981E+01
 20
-2.55208267E+02
 11
-8.09999981E+01
 21
-2.68208267E+02
  0
LINE
  8
0
 62
4
 10
-7.14999981E+01
 20
-2.54708267E+02
 11
-8.04999981E+01
 21
-2.54708267E+02
  0
LINE
  8
0
 62
4
 10
-8.04999981E+01
 20
-2.68708267E+02
 11
-7.19999981E+01
 21
-2.68708267E+02
  0
LINE
  8
0
 62
4
 10
-9.09999981E+01
 20
-2.54910934E+02
 11
-8.59999981E+01
 21
-2.54910934E+02
  0
LINE
  8
0
 62
4
 10
-7.44999981E+01
 20
-2.78304222E+02
 11
-3.84999981E+01
 21
-2.78304222E+02
  0
LINE
  8
0
 62
4
 10
-7.59999981E+01
 20
-2.89717057E+02
 11
-3.69999981E+01
 21
-2.89717057E+02
  0
LINE
  8
0
 62
4
 10
-7.59999981E+01
 20
-2.91076519E+02
 11
-3.69999981E+01
 21
-2.91076519E+02
  0
LINE
  8
0
 62
4
 10
-3.69999981E+01
 20
-2.79804222E+02
 11
-3.69999981E+01
 21
-2.91076519E+02
  0
LINE
  8
0
 62
4
 10
-7.14999981E+01
 20
-2.74852145E+02
 11
-5.64999981E+01
 21
-2.74852145E+02
  0
LINE
  8
0
 62
4
 10
-5.44999981E+01
 20
-2.74913216E+02
 11
-5.44999981E+01
 21
-2.78304222E+02
  0
LINE
  8
0
 62
4
 10
-7.14999981E+01
 20
-2.53100758E+02
 11
-7.14999981E+01
 21
-2.74913216E+02
  0
LINE
  8
0
 62
4
 10
-5.64999981E+01
 20
-2.53100758E+02
 11
-5.64999981E+01
 21
-2.74913216E+02
  0
LINE
  8
0
 62
4
 10
-7.34999981E+01
 20
-2.74913216E+02
 11
-7.34999981E+01
 21
-2.78304222E+02
  0
LINE
  8
0
 62
4
 10
-7.59999981E+01
 20
-2.79804222E+02
 11
-7.59999981E+01
 21
-2.91076519E+02
  0
LINE
  8
0
 62
4
 10
-7.34999981E+01
 20
-2.74913216E+02
 11
-5.44999981E+01
 21
-2.74913216E+02
  0
LINE
  8
0
 62
4
 10
-7.14999981E+01
 20
-2.53100758E+02
 11
-5.64999981E+01
 21
-2.53100758E+02
  0
ARC
  8
0
 62
4
 10
-3.98630418E+02
 20
-2.61708267E+02
 40
7.00000000E+00
 50
1.23115777E+02
 51
1.46002341E+02
  0
ARC
  8
0
 62
4
 10
-3.98630418E+02
 20
-2.61708267E+02
 40
7.00000000E+00
 50
8.39976594E+01
 51
1.06884035E+02
  0
ARC
  8
0
 62
4
 10
-3.79243738E+02
 20
-2.80804238E+02
 40
2.50001570E+00
 50
2.50003598E+01
 51
1.14999640E+02
  0
ARC
  8
0
 62
4
 10
-3.96463563E+02
 20
-2.88833970E+02
 40
2.50001192E+00
 50
1.15000273E+02
 51
2.04999727E+02
  0
ARC
  8
0
 62
4
 10
-3.82386331E+02
 20
-2.87822901E+02
 40
1.18036308E+01
 50
1.22898056E+01
 51
3.79747793E+01
  0
CIRCLE
  8
0
 62
4
 10
-3.98630418E+02
 20
-2.61708267E+02
 40
3.75000000E+00
  0
ARC
  8
0
 62
4
 10
-3.73862230E+02
 20
-2.81160479E+02
 40
9.97209177E-01
 50
3.75805360E+01
 51
1.14812291E+02
  0
ARC
  8
0
 62
4
 10
-3.71830524E+02
 20
-2.85514207E+02
 40
9.98345090E-01
 50
2.95107939E+02
 51
1.17781676E+01
  0
LINE
  8
0
 62
4
 10
-3.76102189E+02
 20
-2.80442670E+02
 11
-3.72721243E+02
 21
-2.87693132E+02
  0
LINE
  8
0
  6
CENTER
 62
6
 10
-3.94638917E+02
 20
-2.93500000E+02
 11
-3.68973869E+02
 21
-2.81532192E+02
  0
LINE
  8
0
 62
4
 10
-3.71406901E+02
 20
-2.86418218E+02
 11
-3.72974814E+02
 21
-2.87149348E+02
  0
LINE
  8
0
 62
4
 10
-3.75848618E+02
 20
-2.80986455E+02
 11
-3.74280706E+02
 21
-2.80255325E+02
  0
LINE
  8
0
 62
4
 10
-3.73174397E+02
 20
-2.87904442E+02
 11
-3.72721243E+02
 21
-2.87693132E+02
  0
LINE
  8
0
 62
4
 10
-3.76555343E+02
 20
-2.80653979E+02
 11
-3.76102189E+02
 21
-2.80442670E+02
  0
LINE
  8
0
 62
4
 10
-3.98809730E+02
 20
-2.55171588E+02
 11
-3.94368821E+02
 21
-2.53100758E+02
  0
LINE
  8
0
 62
4
 10
-4.01800057E+02
 20
-2.54910934E+02
 11
-3.94324238E+02
 21
-2.55562569E+02
  0
LINE
  8
0
 62
4
 10
-4.02932376E+02
 20
-2.67862978E+02
 11
-3.95456557E+02
 21
-2.68514613E+02
  0
LINE
  8
0
 62
4
 10
-3.94324238E+02
 20
-2.55562569E+02
 11
-3.91150375E+02
 21
-2.62368941E+02
  0
LINE
  8
0
 62
4
 10
-4.06106239E+02
 20
-2.61056606E+02
 11
-4.02932376E+02
 21
-2.67862978E+02
  0
LINE
  8
0
 62
4
 10
-4.06106239E+02
 20
-2.61056606E+02
 11
-4.01800057E+02
 21
-2.54910934E+02
  0
LINE
  8
0
 62
4
 10
-3.95456557E+02
 20
-2.68514613E+02
 11
-3.91150375E+02
 21
-2.62368941E+02
  0
LINE
  8
0
 62
4
 10
-3.83716639E+02
 20
-2.88958547E+02
 11
-3.82660093E+02
 21
-2.91224316E+02
  0
LINE
  8
0
 62
4
 10
-3.87341870E+02
 20
-2.90649020E+02
 11
-3.86285324E+02
 21
-2.92914789E+02
  0
LINE
  8
0
 62
4
 10
-3.86285324E+02
 20
-2.92914789E+02
 11
-3.82660093E+02
 21
-2.91224316E+02
  0
LINE
  8
0
 62
4
 10
-3.87341870E+02
 20
-2.90649020E+02
 11
-3.83716639E+02
 21
-2.88958547E+02
  0
LINE
  8
0
 62
4
 10
-3.80441708E+02
 20
-2.93500000E+02
 11
-3.72329160E+02
 21
-2.89717057E+02
  0
LINE
  8
0
 62
4
 10
-3.71695233E+02
 20
-2.91076519E+02
 11
-3.72204611E+02
 21
-2.93500000E+02
  0
LINE
  8
0
 62
4
 10
-3.98729348E+02
 20
-2.89890510E+02
 11
-3.97046215E+02
 21
-2.93500000E+02
  0
LINE
  8
0
 62
4
 10
-3.76977961E+02
 20
-2.79747671E+02
 11
-3.71695233E+02
 21
-2.91076519E+02
  0
LINE
  8
0
 62
4
 10
-3.76892405E+02
 20
-2.93500000E+02
 11
-3.71695233E+02
 21
-2.91076519E+02
  0
LINE
  8
0
 62
4
 10
-3.97520124E+02
 20
-2.86568195E+02
 11
-3.80300276E+02
 21
-2.78538448E+02
  0
LINE
  8
0
 62
4
 10
-3.99210597E+02
 20
-2.82942963E+02
 11
-3.97520124E+02
 21
-2.86568195E+02
  0
LINE
  8
0
 62
4
 10
-3.81990749E+02
 20
-2.74913216E+02
 11
-3.80300276E+02
 21
-2.78538448E+02
  0
LINE
  8
0
 62
4
 10
-3.97820600E+02
 20
-2.81191419E+02
 11
-3.84225983E+02
 21
-2.74852145E+02
  0
LINE
  8
0
 62
4
 10
-3.99210597E+02
 20
-2.82942963E+02
 11
-3.81990749E+02
 21
-2.74913216E+02
  0
LINE
  8
0
 62
4
 10
-4.07963438E+02
 20
-2.59440032E+02
 11
-3.97397982E+02
 21
-2.82097727E+02
  0
LINE
  8
0
 62
4
 10
-3.94368821E+02
 20
-2.53100758E+02
 11
-3.83803365E+02
 21
-2.75758453E+02
  0
LINE
  8
0
 62
4
 10
-4.07963438E+02
 20
-2.59440032E+02
 11
-4.03531593E+02
 21
-2.57373429E+02
  0
LINE
  8
0
 62
4
 10
-4.04856734E+02
 20
-2.93299446E+02
 11
-3.98518039E+02
 21
-2.90343664E+02
  0
LINE
  8
0
 62
4
 10
1.60729352E+02
 20
-2.89890510E+02
 11
1.59046219E+02
 21
-2.93500000E+02
  0
LINE
  8
0
 62
4
 10
1.66856738E+02
 20
-2.93299446E+02
 11
1.60518043E+02
 21
-2.90343664E+02
  0
LINE
  8
0
 62
4
 10
1.33695237E+02
 20
-2.91076519E+02
 11
1.34204615E+02
 21
-2.93500000E+02
  0
LINE
  8
0
 62
4
 10
1.45716642E+02
 20
-2.88958547E+02
 11
1.44660097E+02
 21
-2.91224316E+02
  0
LINE
  8
0
 62
4
 10
1.49341874E+02
 20
-2.90649020E+02
 11
1.45716642E+02
 21
-2.88958547E+02
  0
LINE
  8
0
 62
4
 10
1.38892409E+02
 20
-2.93500000E+02
 11
1.33695237E+02
 21
-2.91076519E+02
  0
LINE
  8
0
 62
4
 10
1.42441711E+02
 20
-2.93500000E+02
 11
1.34329164E+02
 21
-2.89717057E+02
  0
LINE
  8
0
 62
4
 10
1.48285328E+02
 20
-2.92914789E+02
 11
1.44660097E+02
 21
-2.91224316E+02
  0
LINE
  8
0
 62
4
 10
1.49341874E+02
 20
-2.90649020E+02
 11
1.48285328E+02
 21
-2.92914789E+02
  0
ARC
  8
0
 62
4
 10
1.41243742E+02
 20
-2.80804238E+02
 40
2.50001570E+00
 50
6.50003596E+01
 51
1.54999640E+02
  0
ARC
  8
0
 62
4
 10
1.44386335E+02
 20
-2.87822901E+02
 40
1.18036308E+01
 50
1.42025221E+02
 51
1.67710194E+02
  0
ARC
  8
0
 62
4
 10
1.35862234E+02
 20
-2.81160479E+02
 40
9.97209177E-01
 50
6.51877094E+01
 51
1.42419464E+02
  0
ARC
  8
0
 62
4
 10
1.33830528E+02
 20
-2.85514207E+02
 40
9.98345090E-01
 50
1.68221832E+02
 51
2.44892061E+02
  0
LINE
  8
0
 62
4
 10
1.38102193E+02
 20
-2.80442670E+02
 11
1.34721247E+02
 21
-2.87693132E+02
  0
LINE
  8
0
 62
4
 10
1.33406905E+02
 20
-2.86418218E+02
 11
1.34974818E+02
 21
-2.87149348E+02
  0
LINE
  8
0
 62
4
 10
1.37848622E+02
 20
-2.80986455E+02
 11
1.36280709E+02
 21
-2.80255325E+02
  0
LINE
  8
0
 62
4
 10
1.35174401E+02
 20
-2.87904442E+02
 11
1.34721247E+02
 21
-2.87693132E+02
  0
LINE
  8
0
 62
4
 10
1.38555347E+02
 20
-2.80653979E+02
 11
1.38102193E+02
 21
-2.80442670E+02
  0
LINE
  8
0
 62
4
 10
1.63800061E+02
 20
-2.54910934E+02
 11
1.62663474E+02
 21
-2.55010005E+02
  0
LINE
  8
0
 62
4
 10
1.64454752E+02
 20
-2.55845292E+02
 11
1.63800061E+02
 21
-2.54910934E+02
  0
LINE
  8
0
 62
4
 10
1.59520128E+02
 20
-2.86568195E+02
 11
1.42300280E+02
 21
-2.78538448E+02
  0
LINE
  8
0
 62
4
 10
1.61210601E+02
 20
-2.82942963E+02
 11
1.59520128E+02
 21
-2.86568195E+02
  0
LINE
  8
0
 62
4
 10
1.43990753E+02
 20
-2.74913216E+02
 11
1.42300280E+02
 21
-2.78538448E+02
  0
LINE
  8
0
 62
4
 10
1.59820604E+02
 20
-2.81191419E+02
 11
1.46225987E+02
 21
-2.74852145E+02
  0
LINE
  8
0
 62
4
 10
1.61210601E+02
 20
-2.82942963E+02
 11
1.43990753E+02
 21
-2.74913216E+02
  0
LINE
  8
0
 62
4
 10
1.69963442E+02
 20
-2.59440032E+02
 11
1.59397986E+02
 21
-2.82097727E+02
  0
LINE
  8
0
 62
4
 10
1.56368825E+02
 20
-2.53100758E+02
 11
1.45803369E+02
 21
-2.75758453E+02
  0
LINE
  8
0
 62
4
 10
1.56368825E+02
 20
-2.53100758E+02
 11
1.69963442E+02
 21
-2.59440032E+02
  0
ARC
  8
0
 62
4
 10
1.60630414E+02
 20
-2.61708264E+02
 40
7.00000000E+00
 50
3.39976591E+01
 51
9.60023410E+01
  0
LINE
  8
0
  6
CENTER
 62
6
 10
1.52281902E+02
 20
-2.79611705E+02
 11
1.50280503E+02
 21
-2.83903720E+02
  0
LINE
  8
0
 62
4
 10
1.47738127E+02
 20
-2.81074157E+02
 11
1.48487016E+02
 21
-2.80319992E+02
  0
LINE
  8
0
 62
4
 10
1.54178629E+02
 20
-2.82974035E+02
 11
1.54082281E+02
 21
-2.84032485E+02
  0
LINE
  8
0
 62
4
 10
1.48487016E+02
 20
-2.80319992E+02
 11
1.54178629E+02
 21
-2.82974035E+02
  0
LINE
  8
0
 62
4
 10
1.38977965E+02
 20
-2.79747671E+02
 11
1.33695237E+02
 21
-2.91076519E+02
  0
LINE
  8
0
  6
CENTER
 62
6
 10
1.56638921E+02
 20
-2.93500000E+02
 11
1.30973873E+02
 21
-2.81532192E+02
  0
ARC
  8
0
 62
4
 10
1.58463567E+02
 20
-2.88833970E+02
 40
2.50001192E+00
 50
3.35000273E+02
 51
6.49997271E+01
  0
ARC
  8
0
 62
4
 10
-7.44999857E+01
 20
-1.48965552E+02
 40
1.50000046E+00
 50
1.80000018E+02
 51
2.69999983E+02
  0
ARC
  8
0
 62
4
 10
-3.84999828E+01
 20
-1.48965556E+02
 40
1.49999664E+00
 50
2.69999872E+02
 51
1.28225561E-04
  0
LINE
  8
0
 62
4
 10
-7.34999828E+01
 20
-1.48199769E+02
 11
-5.44999828E+01
 21
-1.48199769E+02
  0
POLYLINE
  8
0
 62
4
 66
1
  0
VERTEX
  8
0
 62
4
 10
-4.48599828E+01
 20
-1.39167271E+02
  0
VERTEX
  8
0
 62
4
 10
-4.48719314E+01
 20
-1.38919243E+02
  0
VERTEX
  8
0
 62
4
 10
-4.49076865E+01
 20
-1.38673102E+02
  0
VERTEX
  8
0
 62
4
 10
-4.49669757E+01
 20
-1.38430722E+02
  0
VERTEX
  8
0
 62
4
 10
-4.50493480E+01
 20
-1.38193948E+02
  0
VERTEX
  8
0
 62
4
 10
-4.51541763E+01
 20
-1.37964581E+02
  0
VERTEX
  8
0
 62
4
 10
-4.52806630E+01
 20
-1.37744368E+02
  0
VERTEX
  8
0
 62
4
 10
-4.54278454E+01
 20
-1.37534983E+02
  0
VERTEX
  8
0
 62
4
 10
-4.55946032E+01
 20
-1.37338022E+02
  0
VERTEX
  8
0
 62
4
 10
-4.57796675E+01
 20
-1.37154982E+02
  0
VERTEX
  8
0
 62
4
 10
-4.59816297E+01
 20
-1.36987257E+02
  0
VERTEX
  8
0
 62
4
 10
-4.61989528E+01
 20
-1.36836123E+02
  0
VERTEX
  8
0
 62
4
 10
-4.64299828E+01
 20
-1.36702730E+02
  0
VERTEX
  8
0
 62
4
 10
-4.66729615E+01
 20
-1.36588094E+02
  0
VERTEX
  8
0
 62
4
 10
-4.69260396E+01
 20
-1.36493088E+02
  0
VERTEX
  8
0
 62
4
 10
-4.71872910E+01
 20
-1.36418433E+02
  0
VERTEX
  8
0
 62
4
 10
-4.74547275E+01
 20
-1.36364699E+02
  0
VERTEX
  8
0
 62
4
 10
-4.77263138E+01
 20
-1.36332294E+02
  0
VERTEX
  8
0
 62
4
 10
-4.79999828E+01
 20
-1.36321465E+02
  0
VERTEX
  8
0
 62
4
 10
-4.82736518E+01
 20
-1.36332294E+02
  0
VERTEX
  8
0
 62
4
 10
-4.85452381E+01
 20
-1.36364699E+02
  0
VERTEX
  8
0
 62
4
 10
-4.88126746E+01
 20
-1.36418433E+02
  0
VERTEX
  8
0
 62
4
 10
-4.90739261E+01
 20
-1.36493088E+02
  0
VERTEX
  8
0
 62
4
 10
-4.93270041E+01
 20
-1.36588094E+02
  0
VERTEX
  8
0
 62
4
 10
-4.95699828E+01
 20
-1.36702730E+02
  0
VERTEX
  8
0
 62
4
 10
-4.98010128E+01
 20
-1.36836123E+02
  0
VERTEX
  8
0
 62
4
 10
-5.00183359E+01
 20
-1.36987257E+02
  0
VERTEX
  8
0
 62
4
 10
-5.02202981E+01
 20
-1.37154982E+02
  0
VERTEX
  8
0
 62
4
 10
-5.04053624E+01
 20
-1.37338022E+02
  0
VERTEX
  8
0
 62
4
 10
-5.05721202E+01
 20
-1.37534983E+02
  0
VERTEX
  8
0
 62
4
 10
-5.07193026E+01
 20
-1.37744368E+02
  0
VERTEX
  8
0
 62
4
 10
-5.08457893E+01
 20
-1.37964581E+02
  0
VERTEX
  8
0
 62
4
 10
-5.09506176E+01
 20
-1.38193948E+02
  0
VERTEX
  8
0
 62
4
 10
-5.10329899E+01
 20
-1.38430722E+02
  0
VERTEX
  8
0
 62
4
 10
-5.10922791E+01
 20
-1.38673102E+02
  0
VERTEX
  8
0
 62
4
 10
-5.11280342E+01
 20
-1.38919243E+02
  0
VERTEX
  8
0
 62
4
 10
-5.11399828E+01
 20
-1.39167271E+02
  0
VERTEX
  8
0
 62
4
 10
-5.11280342E+01
 20
-1.39415299E+02
  0
VERTEX
  8
0
 62
4
 10
-5.10922791E+01
 20
-1.39661440E+02
  0
VERTEX
  8
0
 62
4
 10
-5.10329899E+01
 20
-1.39903820E+02
  0
VERTEX
  8
0
 62
4
 10
-5.09506176E+01
 20
-1.40140594E+02
  0
VERTEX
  8
0
 62
4
 10
-5.08457892E+01
 20
-1.40369961E+02
  0
VERTEX
  8
0
 62
4
 10
-5.07193026E+01
 20
-1.40590174E+02
  0
VERTEX
  8
0
 62
4
 10
-5.05721202E+01
 20
-1.40799559E+02
  0
VERTEX
  8
0
 62
4
 10
-5.04053623E+01
 20
-1.40996520E+02
  0
VERTEX
  8
0
 62
4
 10
-5.02202981E+01
 20
-1.41179560E+02
  0
VERTEX
  8
0
 62
4
 10
-5.00183359E+01
 20
-1.41347285E+02
  0
VERTEX
  8
0
 62
4
 10
-4.98010128E+01
 20
-1.41498419E+02
  0
VERTEX
  8
0
 62
4
 10
-4.95699828E+01
 20
-1.41631812E+02
  0
VERTEX
  8
0
 62
4
 10
-4.93270041E+01
 20
-1.41746448E+02
  0
VERTEX
  8
0
 62
4
 10
-4.90739260E+01
 20
-1.41841454E+02
  0
VERTEX
  8
0
 62
4
 10
-4.88126746E+01
 20
-1.41916109E+02
  0
VERTEX
  8
0
 62
4
 10
-4.85452381E+01
 20
-1.41969843E+02
  0
VERTEX
  8
0
 62
4
 10
-4.82736518E+01
 20
-1.42002248E+02
  0
VERTEX
  8
0
 62
4
 10
-4.79999828E+01
 20
-1.42013077E+02
  0
VERTEX
  8
0
 62
4
 10
-4.77263138E+01
 20
-1.42002248E+02
  0
VERTEX
  8
0
 62
4
 10
-4.74547275E+01
 20
-1.41969843E+02
  0
VERTEX
  8
0
 62
4
 10
-4.71872910E+01
 20
-1.41916109E+02
  0
VERTEX
  8
0
 62
4
 10
-4.69260395E+01
 20
-1.41841454E+02
  0
VERTEX
  8
0
 62
4
 10
-4.66729615E+01
 20
-1.41746448E+02
  0
VERTEX
  8
0
 62
4
 10
-4.64299828E+01
 20
-1.41631812E+02
  0
VERTEX
  8
0
 62
4
 10
-4.61989528E+01
 20
-1.41498419E+02
  0
VERTEX
  8
0
 62
4
 10
-4.59816297E+01
 20
-1.41347285E+02
  0
VERTEX
  8
0
 62
4
 10
-4.57796675E+01
 20
-1.41179560E+02
  0
VERTEX
  8
0
 62
4
 10
-4.55946032E+01
 20
-1.40996520E+02
  0
VERTEX
  8
0
 62
4
 10
-4.54278454E+01
 20
-1.40799559E+02
  0
VERTEX
  8
0
 62
4
 10
-4.52806630E+01
 20
-1.40590174E+02
  0
VERTEX
  8
0
 62
4
 10
-4.51541763E+01
 20
-1.40369961E+02
  0
VERTEX
  8
0
 62
4
 10
-4.50493480E+01
 20
-1.40140594E+02
  0
VERTEX
  8
0
 62
4
 10
-4.49669757E+01
 20
-1.39903820E+02
  0
VERTEX
  8
0
 62
4
 10
-4.49076865E+01
 20
-1.39661440E+02
  0
VERTEX
  8
0
 62
4
 10
-4.48719314E+01
 20
-1.39415299E+02
  0
VERTEX
  8
0
 62
4
 10
-4.48599828E+01
 20
-1.39167271E+02
  0
SEQEND
  8
0
  0
POLYLINE
  8
0
 62
4
 66
1
  0
VERTEX
  8
0
 62
4
 10
-5.01049407E+01
 20
-1.37055603E+02
  0
VERTEX
  8
0
 62
4
 10
-5.03414843E+01
 20
-1.37232204E+02
  0
VERTEX
  8
0
 62
4
 10
-5.05600753E+01
 20
-1.37426882E+02
  0
VERTEX
  8
0
 62
4
 10
-5.07590378E+01
 20
-1.37638144E+02
  0
VERTEX
  8
0
 62
4
 10
-5.09368462E+01
 20
-1.37864370E+02
  0
VERTEX
  8
0
 62
4
 10
-5.10921372E+01
 20
-1.38103826E+02
  0
VERTEX
  8
0
 62
4
 10
-5.12237203E+01
 20
-1.38354675E+02
  0
VERTEX
  8
0
 62
4
 10
-5.13305866E+01
 20
-1.38614995E+02
  0
VERTEX
  8
0
 62
4
 10
-5.14119167E+01
 20
-1.38882790E+02
  0
VERTEX
  8
0
 62
4
 10
-5.14670870E+01
 20
-1.39156007E+02
  0
VERTEX
  8
0
 62
4
 10
-5.14956746E+01
 20
-1.39432550E+02
  0
VERTEX
  8
0
 62
4
 10
-5.14974603E+01
 20
-1.39710299E+02
  0
VERTEX
  8
0
 62
4
 10
-5.14724303E+01
 20
-1.39987125E+02
  0
VERTEX
  8
0
 62
4
 10
-5.14207767E+01
 20
-1.40260906E+02
  0
VERTEX
  8
0
 62
4
 10
-5.13428953E+01
 20
-1.40529541E+02
  0
VERTEX
  8
0
 62
4
 10
-5.12393834E+01
 20
-1.40790972E+02
  0
VERTEX
  8
0
 62
4
 10
-5.11110345E+01
 20
-1.41043195E+02
  0
VERTEX
  8
0
 62
4
 10
-5.09588329E+01
 20
-1.41284274E+02
  0
VERTEX
  8
0
 62
4
 10
-5.07839453E+01
 20
-1.41512363E+02
  0
VERTEX
  8
0
 62
4
 10
-5.05877127E+01
 20
-1.41725712E+02
  0
VERTEX
  8
0
 62
4
 10
-5.03716396E+01
 20
-1.41922685E+02
  0
VERTEX
  8
0
 62
4
 10
-5.01373828E+01
 20
-1.42101772E+02
  0
VERTEX
  8
0
 62
4
 10
-4.98867382E+01
 20
-1.42261600E+02
  0
VERTEX
  8
0
 62
4
 10
-4.96216276E+01
 20
-1.42400944E+02
  0
VERTEX
  8
0
 62
4
 10
-4.93440836E+01
 20
-1.42518735E+02
  0
VERTEX
  8
0
 62
4
 10
-4.90562343E+01
 20
-1.42614071E+02
  0
VERTEX
  8
0
 62
4
 10
-4.87602865E+01
 20
-1.42686219E+02
  0
VERTEX
  8
0
 62
4
 10
-4.84585093E+01
 20
-1.42734628E+02
  0
VERTEX
  8
0
 62
4
 10
-4.81532166E+01
 20
-1.42758925E+02
  0
VERTEX
  8
0
 62
4
 10
-4.78467490E+01
 20
-1.42758925E+02
  0
VERTEX
  8
0
 62
4
 10
-4.75414563E+01
 20
-1.42734628E+02
  0
VERTEX
  8
0
 62
4
 10
-4.72396792E+01
 20
-1.42686219E+02
  0
VERTEX
  8
0
 62
4
 10
-4.69437314E+01
 20
-1.42614071E+02
  0
VERTEX
  8
0
 62
4
 10
-4.66558820E+01
 20
-1.42518735E+02
  0
VERTEX
  8
0
 62
4
 10
-4.63783381E+01
 20
-1.42400944E+02
  0
VERTEX
  8
0
 62
4
 10
-4.61132275E+01
 20
-1.42261600E+02
  0
VERTEX
  8
0
 62
4
 10
-4.58625829E+01
 20
-1.42101772E+02
  0
VERTEX
  8
0
 62
4
 10
-4.56283260E+01
 20
-1.41922685E+02
  0
VERTEX
  8
0
 62
4
 10
-4.54122529E+01
 20
-1.41725712E+02
  0
VERTEX
  8
0
 62
4
 10
-4.52160203E+01
 20
-1.41512363E+02
  0
VERTEX
  8
0
 62
4
 10
-4.50411328E+01
 20
-1.41284274E+02
  0
VERTEX
  8
0
 62
4
 10
-4.48889311E+01
 20
-1.41043195E+02
  0
VERTEX
  8
0
 62
4
 10
-4.47605822E+01
 20
-1.40790972E+02
  0
VERTEX
  8
0
 62
4
 10
-4.46570703E+01
 20
-1.40529541E+02
  0
VERTEX
  8
0
 62
4
 10
-4.45791890E+01
 20
-1.40260906E+02
  0
VERTEX
  8
0
 62
4
 10
-4.45275353E+01
 20
-1.39987125E+02
  0
VERTEX
  8
0
 62
4
 10
-4.45025053E+01
 20
-1.39710299E+02
  0
VERTEX
  8
0
 62
4
 10
-4.45042910E+01
 20
-1.39432550E+02
  0
VERTEX
  8
0
 62
4
 10
-4.45328786E+01
 20
-1.39156007E+02
  0
VERTEX
  8
0
 62
4
 10
-4.45880489E+01
 20
-1.38882790E+02
  0
VERTEX
  8
0
 62
4
 10
-4.46693790E+01
 20
-1.38614996E+02
  0
VERTEX
  8
0
 62
4
 10
-4.47762453E+01
 20
-1.38354675E+02
  0
VERTEX
  8
0
 62
4
 10
-4.49078284E+01
 20
-1.38103826E+02
  0
VERTEX
  8
0
 62
4
 10
-4.50631194E+01
 20
-1.37864370E+02
  0
VERTEX
  8
0
 62
4
 10
-4.52409278E+01
 20
-1.37638144E+02
  0
VERTEX
  8
0
 62
4
 10
-4.54398902E+01
 20
-1.37426882E+02
  0
VERTEX
  8
0
 62
4
 10
-4.56584812E+01
 20
-1.37232204E+02
  0
VERTEX
  8
0
 62
4
 10
-4.58950248E+01
 20
-1.37055603E+02
  0
SEQEND
  8
0
  0
LINE
  8
0
 62
4
 10
-6.09910223E+01
 20
-1.56804826E+02
 11
-3.84999828E+01
 21
-1.56804826E+02
  0
ARC
  8
0
 62
4
 10
-5.97643878E+01
 20
-1.45380890E+02
 40
1.21769740E+01
 50
2.40462101E+02
 51
2.58262147E+02
  0
ARC
  8
0
 62
4
 10
-6.82355778E+01
 20
-1.45380890E+02
 40
1.21769740E+01
 50
2.81737853E+02
 51
2.99537899E+02
  0
POLYLINE
  8
0
 62
4
 66
1
  0
VERTEX
  8
0
 62
4
 10
-6.05999828E+01
 20
-1.56052844E+02
  0
VERTEX
  8
0
 62
4
 10
-6.06129208E+01
 20
-1.55912084E+02
  0
VERTEX
  8
0
 62
4
 10
-6.06516364E+01
 20
-1.55772396E+02
  0
VERTEX
  8
0
 62
4
 10
-6.07158350E+01
 20
-1.55634842E+02
  0
VERTEX
  8
0
 62
4
 10
-6.08050279E+01
 20
-1.55500469E+02
  0
VERTEX
  8
0
 62
4
 10
-6.09185363E+01
 20
-1.55370300E+02
  0
VERTEX
  8
0
 62
4
 10
-6.10554964E+01
 20
-1.55245326E+02
  0
VERTEX
  8
0
 62
4
 10
-6.12148658E+01
 20
-1.55126498E+02
  0
VERTEX
  8
0
 62
4
 10
-6.13954317E+01
 20
-1.55014719E+02
  0
VERTEX
  8
0
 62
4
 10
-6.15958197E+01
 20
-1.54910841E+02
  0
VERTEX
  8
0
 62
4
 10
-6.18145049E+01
 20
-1.54815655E+02
  0
VERTEX
  8
0
 62
4
 10
-6.20498229E+01
 20
-1.54729884E+02
  0
VERTEX
  8
0
 62
4
 10
-6.22999828E+01
 20
-1.54654182E+02
  0
VERTEX
  8
0
 62
4
 10
-6.25630807E+01
 20
-1.54589125E+02
  0
VERTEX
  8
0
 62
4
 10
-6.28371143E+01
 20
-1.54535207E+02
  0
VERTEX
  8
0
 62
4
 10
-6.31199980E+01
 20
-1.54492839E+02
  0
VERTEX
  8
0
 62
4
 10
-6.34095790E+01
 20
-1.54462344E+02
  0
VERTEX
  8
0
 62
4
 10
-6.37036533E+01
 20
-1.54443954E+02
  0
VERTEX
  8
0
 62
4
 10
-6.39999828E+01
 20
-1.54437808E+02
  0
VERTEX
  8
0
 62
4
 10
-6.42963123E+01
 20
-1.54443954E+02
  0
VERTEX
  8
0
 62
4
 10
-6.45903866E+01
 20
-1.54462344E+02
  0
VERTEX
  8
0
 62
4
 10
-6.48799676E+01
 20
-1.54492839E+02
  0
VERTEX
  8
0
 62
4
 10
-6.51628513E+01
 20
-1.54535207E+02
  0
VERTEX
  8
0
 62
4
 10
-6.54368849E+01
 20
-1.54589125E+02
  0
VERTEX
  8
0
 62
4
 10
-6.56999828E+01
 20
-1.54654182E+02
  0
VERTEX
  8
0
 62
4
 10
-6.59501427E+01
 20
-1.54729884E+02
  0
VERTEX
  8
0
 62
4
 10
-6.61854607E+01
 20
-1.54815655E+02
  0
VERTEX
  8
0
 62
4
 10
-6.64041459E+01
 20
-1.54910841E+02
  0
VERTEX
  8
0
 62
4
 10
-6.66045339E+01
 20
-1.55014719E+02
  0
VERTEX
  8
0
 62
4
 10
-6.67850998E+01
 20
-1.55126498E+02
  0
VERTEX
  8
0
 62
4
 10
-6.69444692E+01
 20
-1.55245326E+02
  0
VERTEX
  8
0
 62
4
 10
-6.70814293E+01
 20
-1.55370300E+02
  0
VERTEX
  8
0
 62
4
 10
-6.71949377E+01
 20
-1.55500469E+02
  0
VERTEX
  8
0
 62
4
 10
-6.72841306E+01
 20
-1.55634842E+02
  0
VERTEX
  8
0
 62
4
 10
-6.73483292E+01
 20
-1.55772396E+02
  0
VERTEX
  8
0
 62
4
 10
-6.73870448E+01
 20
-1.55912084E+02
  0
VERTEX
  8
0
 62
4
 10
-6.73999828E+01
 20
-1.56052844E+02
  0
VERTEX
  8
0
 62
4
 10
-6.73870448E+01
 20
-1.56193604E+02
  0
VERTEX
  8
0
 62
4
 10
-6.73483292E+01
 20
-1.56333292E+02
  0
VERTEX
  8
0
 62
4
 10
-6.72841306E+01
 20
-1.56470846E+02
  0
VERTEX
  8
0
 62
4
 10
-6.71949377E+01
 20
-1.56605219E+02
  0
VERTEX
  8
0
 62
4
 10
-6.70814293E+01
 20
-1.56735388E+02
  0
VERTEX
  8
0
 62
4
 10
-6.69444692E+01
 20
-1.56860362E+02
  0
VERTEX
  8
0
 62
4
 10
-6.67850997E+01
 20
-1.56979190E+02
  0
VERTEX
  8
0
 62
4
 10
-6.66045339E+01
 20
-1.57090969E+02
  0
VERTEX
  8
0
 62
4
 10
-6.64041459E+01
 20
-1.57194847E+02
  0
VERTEX
  8
0
 62
4
 10
-6.61854607E+01
 20
-1.57290033E+02
  0
VERTEX
  8
0
 62
4
 10
-6.59501427E+01
 20
-1.57375804E+02
  0
VERTEX
  8
0
 62
4
 10
-6.56999828E+01
 20
-1.57451506E+02
  0
VERTEX
  8
0
 62
4
 10
-6.54368849E+01
 20
-1.57516563E+02
  0
VERTEX
  8
0
 62
4
 10
-6.51628513E+01
 20
-1.57570481E+02
  0
VERTEX
  8
0
 62
4
 10
-6.48799675E+01
 20
-1.57612849E+02
  0
VERTEX
  8
0
 62
4
 10
-6.45903866E+01
 20
-1.57643344E+02
  0
VERTEX
  8
0
 62
4
 10
-6.42963123E+01
 20
-1.57661734E+02
  0
VERTEX
  8
0
 62
4
 10
-6.39999828E+01
 20
-1.57667880E+02
  0
VERTEX
  8
0
 62
4
 10
-6.37036533E+01
 20
-1.57661734E+02
  0
VERTEX
  8
0
 62
4
 10
-6.34095790E+01
 20
-1.57643344E+02
  0
VERTEX
  8
0
 62
4
 10
-6.31199980E+01
 20
-1.57612849E+02
  0
VERTEX
  8
0
 62
4
 10
-6.28371143E+01
 20
-1.57570481E+02
  0
VERTEX
  8
0
 62
4
 10
-6.25630807E+01
 20
-1.57516563E+02
  0
VERTEX
  8
0
 62
4
 10
-6.22999828E+01
 20
-1.57451506E+02
  0
VERTEX
  8
0
 62
4
 10
-6.20498229E+01
 20
-1.57375804E+02
  0
VERTEX
  8
0
 62
4
 10
-6.18145049E+01
 20
-1.57290033E+02
  0
VERTEX
  8
0
 62
4
 10
-6.15958197E+01
 20
-1.57194847E+02
  0
VERTEX
  8
0
 62
4
 10
-6.13954317E+01
 20
-1.57090969E+02
  0
VERTEX
  8
0
 62
4
 10
-6.12148658E+01
 20
-1.56979190E+02
  0
VERTEX
  8
0
 62
4
 10
-6.10554964E+01
 20
-1.56860362E+02
  0
VERTEX
  8
0
 62
4
 10
-6.09185363E+01
 20
-1.56735388E+02
  0
VERTEX
  8
0
 62
4
 10
-6.08050279E+01
 20
-1.56605219E+02
  0
VERTEX
  8
0
 62
4
 10
-6.07158350E+01
 20
-1.56470846E+02
  0
VERTEX
  8
0
 62
4
 10
-6.06516364E+01
 20
-1.56333292E+02
  0
VERTEX
  8
0
 62
4
 10
-6.06129208E+01
 20
-1.56193604E+02
  0
VERTEX
  8
0
 62
4
 10
-6.05999828E+01
 20
-1.56052844E+02
  0
SEQEND
  8
0
  0
POLYLINE
  8
0
 62
4
 66
1
  0
VERTEX
  8
0
 62
4
 10
-6.05999828E+01
 20
-1.54088343E+02
  0
VERTEX
  8
0
 62
4
 10
-6.06136702E+01
 20
-1.53959540E+02
  0
VERTEX
  8
0
 62
4
 10
-6.06546222E+01
 20
-1.53831774E+02
  0
VERTEX
  8
0
 62
4
 10
-6.07225091E+01
 20
-1.53706074E+02
  0
VERTEX
  8
0
 62
4
 10
-6.08167842E+01
 20
-1.53583452E+02
  0
VERTEX
  8
0
 62
4
 10
-6.09366886E+01
 20
-1.53464895E+02
  0
VERTEX
  8
0
 62
4
 10
-6.10812569E+01
 20
-1.53351357E+02
  0
VERTEX
  8
0
 62
4
 10
-6.12493250E+01
 20
-1.53243753E+02
  0
VERTEX
  8
0
 62
4
 10
-6.14395398E+01
 20
-1.53142949E+02
  0
VERTEX
  8
0
 62
4
 10
-6.16503698E+01
 20
-1.53049758E+02
  0
VERTEX
  8
0
 62
4
 10
-6.18801175E+01
 20
-1.52964928E+02
  0
VERTEX
  8
0
 62
4
 10
-6.21269331E+01
 20
-1.52889143E+02
  0
VERTEX
  8
0
 62
4
 10
-6.23888293E+01
 20
-1.52823013E+02
  0
VERTEX
  8
0
 62
4
 10
-6.26636977E+01
 20
-1.52767072E+02
  0
VERTEX
  8
0
 62
4
 10
-6.29493250E+01
 20
-1.52721768E+02
  0
VERTEX
  8
0
 62
4
 10
-6.32434116E+01
 20
-1.52687467E+02
  0
VERTEX
  8
0
 62
4
 10
-6.35435897E+01
 20
-1.52664445E+02
  0
VERTEX
  8
0
 62
4
 10
-6.38474424E+01
 20
-1.52652888E+02
  0
VERTEX
  8
0
 62
4
 10
-6.41525232E+01
 20
-1.52652888E+02
  0
VERTEX
  8
0
 62
4
 10
-6.44563759E+01
 20
-1.52664445E+02
  0
VERTEX
  8
0
 62
4
 10
-6.47565540E+01
 20
-1.52687467E+02
  0
VERTEX
  8
0
 62
4
 10
-6.50506406E+01
 20
-1.52721768E+02
  0
VERTEX
  8
0
 62
4
 10
-6.53362679E+01
 20
-1.52767072E+02
  0
VERTEX
  8
0
 62
4
 10
-6.56111362E+01
 20
-1.52823013E+02
  0
VERTEX
  8
0
 62
4
 10
-6.58730325E+01
 20
-1.52889143E+02
  0
VERTEX
  8
0
 62
4
 10
-6.61198481E+01
 20
-1.52964928E+02
  0
VERTEX
  8
0
 62
4
 10
-6.63495958E+01
 20
-1.53049758E+02
  0
VERTEX
  8
0
 62
4
 10
-6.65604258E+01
 20
-1.53142949E+02
  0
VERTEX
  8
0
 62
4
 10
-6.67506406E+01
 20
-1.53243753E+02
  0
VERTEX
  8
0
 62
4
 10
-6.69187087E+01
 20
-1.53351357E+02
  0
VERTEX
  8
0
 62
4
 10
-6.70632769E+01
 20
-1.53464895E+02
  0
VERTEX
  8
0
 62
4
 10
-6.71831814E+01
 20
-1.53583452E+02
  0
VERTEX
  8
0
 62
4
 10
-6.72774565E+01
 20
-1.53706074E+02
  0
VERTEX
  8
0
 62
4
 10
-6.73453434E+01
 20
-1.53831774E+02
  0
VERTEX
  8
0
 62
4
 10
-6.73862954E+01
 20
-1.53959540E+02
  0
VERTEX
  8
0
 62
4
 10
-6.73999828E+01
 20
-1.54088343E+02
  0
SEQEND
  8
0
  0
LINE
  8
0
 62
4
 10
-6.73999828E+01
 20
-1.54088343E+02
 11
-6.73999828E+01
 21
-1.56052844E+02
  0
LINE
  8
0
 62
4
 10
-6.05999828E+01
 20
-1.54088343E+02
 11
-6.05999828E+01
 21
-1.56052844E+02
  0
LINE
  8
0
 62
4
 10
-6.79999828E+01
 20
-1.53635189E+02
 11
-6.79999828E+01
 21
-1.54088343E+02
  0
LINE
  8
0
 62
4
 10
-5.99999828E+01
 20
-1.53635189E+02
 11
-5.99999828E+01
 21
-1.54088343E+02
  0
POLYLINE
  8
0
 62
4
 66
1
  0
VERTEX
  8
0
 62
4
 10
-5.99999828E+01
 20
-1.53635189E+02
  0
VERTEX
  8
0
 62
4
 10
-6.00160856E+01
 20
-1.53483656E+02
  0
VERTEX
  8
0
 62
4
 10
-6.00642644E+01
 20
-1.53333343E+02
  0
VERTEX
  8
0
 62
4
 10
-6.01441314E+01
 20
-1.53185461E+02
  0
VERTEX
  8
0
 62
4
 10
-6.02550433E+01
 20
-1.53041199E+02
  0
VERTEX
  8
0
 62
4
 10
-6.03961073E+01
 20
-1.52901720E+02
  0
VERTEX
  8
0
 62
4
 10
-6.05661876E+01
 20
-1.52768147E+02
  0
VERTEX
  8
0
 62
4
 10
-6.07639148E+01
 20
-1.52641554E+02
  0
VERTEX
  8
0
 62
4
 10
-6.09876969E+01
 20
-1.52522961E+02
  0
VERTEX
  8
0
 62
4
 10
-6.12357322E+01
 20
-1.52413324E+02
  0
VERTEX
  8
0
 62
4
 10
-6.15060236E+01
 20
-1.52313524E+02
  0
VERTEX
  8
0
 62
4
 10
-6.17963949E+01
 20
-1.52224365E+02
  0
VERTEX
  8
0
 62
4
 10
-6.21045081E+01
 20
-1.52146566E+02
  0
VERTEX
  8
0
 62
4
 10
-6.24278827E+01
 20
-1.52080752E+02
  0
VERTEX
  8
0
 62
4
 10
-6.27639148E+01
 20
-1.52027454E+02
  0
VERTEX
  8
0
 62
4
 10
-6.31098991E+01
 20
-1.51987100E+02
  0
VERTEX
  8
0
 62
4
 10
-6.34630497E+01
 20
-1.51960015E+02
  0
VERTEX
  8
0
 62
4
 10
-6.38205235E+01
 20
-1.51946418E+02
  0
VERTEX
  8
0
 62
4
 10
-6.41794421E+01
 20
-1.51946418E+02
  0
VERTEX
  8
0
 62
4
 10
-6.45369159E+01
 20
-1.51960015E+02
  0
VERTEX
  8
0
 62
4
 10
-6.48900665E+01
 20
-1.51987100E+02
  0
VERTEX
  8
0
 62
4
 10
-6.52360508E+01
 20
-1.52027454E+02
  0
VERTEX
  8
0
 62
4
 10
-6.55720829E+01
 20
-1.52080752E+02
  0
VERTEX
  8
0
 62
4
 10
-6.58954574E+01
 20
-1.52146566E+02
  0
VERTEX
  8
0
 62
4
 10
-6.62035707E+01
 20
-1.52224365E+02
  0
VERTEX
  8
0
 62
4
 10
-6.64939420E+01
 20
-1.52313524E+02
  0
VERTEX
  8
0
 62
4
 10
-6.67642334E+01
 20
-1.52413324E+02
  0
VERTEX
  8
0
 62
4
 10
-6.70122687E+01
 20
-1.52522961E+02
  0
VERTEX
  8
0
 62
4
 10
-6.72360508E+01
 20
-1.52641554E+02
  0
VERTEX
  8
0
 62
4
 10
-6.74337780E+01
 20
-1.52768147E+02
  0
VERTEX
  8
0
 62
4
 10
-6.76038583E+01
 20
-1.52901720E+02
  0
VERTEX
  8
0
 62
4
 10
-6.77449223E+01
 20
-1.53041199E+02
  0
VERTEX
  8
0
 62
4
 10
-6.78558342E+01
 20
-1.53185461E+02
  0
VERTEX
  8
0
 62
4
 10
-6.79357012E+01
 20
-1.53333343E+02
  0
VERTEX
  8
0
 62
4
 10
-6.79838800E+01
 20
-1.53483656E+02
  0
VERTEX
  8
0
 62
4
 10
-6.79999828E+01
 20
-1.53635189E+02
  0
SEQEND
  8
0
  0
POLYLINE
  8
0
 62
4
 66
1
  0
VERTEX
  8
0
 62
4
 10
-6.05999828E+01
 20
-1.54978855E+02
  0
VERTEX
  8
0
 62
4
 10
-6.04269308E+01
 20
-1.54848269E+02
  0
VERTEX
  8
0
 62
4
 10
-6.02818878E+01
 20
-1.54711726E+02
  0
VERTEX
  8
0
 62
4
 10
-6.01659910E+01
 20
-1.54570296E+02
  0
VERTEX
  8
0
 62
4
 10
-6.00801487E+01
 20
-1.54425088E+02
  0
VERTEX
  8
0
 62
4
 10
-6.00250339E+01
 20
-1.54277240E+02
  0
VERTEX
  8
0
 62
4
 10
-6.00010787E+01
 20
-1.54127912E+02
  0
VERTEX
  8
0
 62
4
 10
-6.00084709E+01
 20
-1.53978273E+02
  0
VERTEX
  8
0
 62
4
 10
-6.00471524E+01
 20
-1.53829498E+02
  0
VERTEX
  8
0
 62
4
 10
-6.01168201E+01
 20
-1.53682751E+02
  0
VERTEX
  8
0
 62
4
 10
-6.02169278E+01
 20
-1.53539184E+02
  0
VERTEX
  8
0
 62
4
 10
-6.03466909E+01
 20
-1.53399922E+02
  0
VERTEX
  8
0
 62
4
 10
-6.05050920E+01
 20
-1.53266056E+02
  0
VERTEX
  8
0
 62
4
 10
-6.06908895E+01
 20
-1.53138636E+02
  0
VERTEX
  8
0
 62
4
 10
-6.09026270E+01
 20
-1.53018661E+02
  0
VERTEX
  8
0
 62
4
 10
-6.11386446E+01
 20
-1.52907071E+02
  0
VERTEX
  8
0
 62
4
 10
-6.13970921E+01
 20
-1.52804741E+02
  0
VERTEX
  8
0
 62
4
 10
-6.16759437E+01
 20
-1.52712473E+02
  0
VERTEX
  8
0
 62
4
 10
-6.19730133E+01
 20
-1.52630990E+02
  0
VERTEX
  8
0
 62
4
 10
-6.22859724E+01
 20
-1.52560932E+02
  0
VERTEX
  8
0
 62
4
 10
-6.26123675E+01
 20
-1.52502847E+02
  0
VERTEX
  8
0
 62
4
 10
-6.29496402E+01
 20
-1.52457191E+02
  0
VERTEX
  8
0
 62
4
 10
-6.32951464E+01
 20
-1.52424321E+02
  0
VERTEX
  8
0
 62
4
 10
-6.36461779E+01
 20
-1.52404496E+02
  0
VERTEX
  8
0
 62
4
 10
-6.39999828E+01
 20
-1.52397870E+02
  0
VERTEX
  8
0
 62
4
 10
-6.43537877E+01
 20
-1.52404496E+02
  0
VERTEX
  8
0
 62
4
 10
-6.47048192E+01
 20
-1.52424321E+02
  0
VERTEX
  8
0
 62
4
 10
-6.50503254E+01
 20
-1.52457191E+02
  0
VERTEX
  8
0
 62
4
 10
-6.53875980E+01
 20
-1.52502847E+02
  0
VERTEX
  8
0
 62
4
 10
-6.57139932E+01
 20
-1.52560932E+02
  0
VERTEX
  8
0
 62
4
 10
-6.60269522E+01
 20
-1.52630990E+02
  0
VERTEX
  8
0
 62
4
 10
-6.63240219E+01
 20
-1.52712473E+02
  0
VERTEX
  8
0
 62
4
 10
-6.66028735E+01
 20
-1.52804741E+02
  0
VERTEX
  8
0
 62
4
 10
-6.68613210E+01
 20
-1.52907071E+02
  0
VERTEX
  8
0
 62
4
 10
-6.70973386E+01
 20
-1.53018661E+02
  0
VERTEX
  8
0
 62
4
 10
-6.73090760E+01
 20
-1.53138636E+02
  0
VERTEX
  8
0
 62
4
 10
-6.74948736E+01
 20
-1.53266056E+02
  0
VERTEX
  8
0
 62
4
 10
-6.76532747E+01
 20
-1.53399922E+02
  0
VERTEX
  8
0
 62
4
 10
-6.77830378E+01
 20
-1.53539184E+02
  0
VERTEX
  8
0
 62
4
 10
-6.78831455E+01
 20
-1.53682751E+02
  0
VERTEX
  8
0
 62
4
 10
-6.79528132E+01
 20
-1.53829498E+02
  0
VERTEX
  8
0
 62
4
 10
-6.79914947E+01
 20
-1.53978273E+02
  0
VERTEX
  8
0
 62
4
 10
-6.79988869E+01
 20
-1.54127912E+02
  0
VERTEX
  8
0
 62
4
 10
-6.79749317E+01
 20
-1.54277240E+02
  0
VERTEX
  8
0
 62
4
 10
-6.79198169E+01
 20
-1.54425088E+02
  0
VERTEX
  8
0
 62
4
 10
-6.78339746E+01
 20
-1.54570296E+02
  0
VERTEX
  8
0
 62
4
 10
-6.77180778E+01
 20
-1.54711726E+02
  0
VERTEX
  8
0
 62
4
 10
-6.75730348E+01
 20
-1.54848269E+02
  0
VERTEX
  8
0
 62
4
 10
-6.73999828E+01
 20
-1.54978855E+02
  0
SEQEND
  8
0
  0
LINE
  8
0
  6
CENTER
 62
6
 10
-4.79999828E+01
 20
-1.33558254E+02
 11
-4.79999828E+01
 21
-1.44776288E+02
  0
LINE
  8
0
  6
CENTER
 62
6
 10
-5.36089996E+01
 20
-1.39167271E+02
 11
-4.23909660E+01
 21
-1.39167271E+02
  0
POLYLINE
  8
0
 62
4
 66
1
  0
VERTEX
  8
0
 62
4
 10
-6.09999828E+01
 20
-1.27333929E+02
  0
VERTEX
  8
0
 62
4
 10
-6.10113987E+01
 20
-1.27096959E+02
  0
VERTEX
  8
0
 62
4
 10
-6.10455595E+01
 20
-1.26861793E+02
  0
VERTEX
  8
0
 62
4
 10
-6.11022053E+01
 20
-1.26630220E+02
  0
VERTEX
  8
0
 62
4
 10
-6.11809049E+01
 20
-1.26404002E+02
  0
VERTEX
  8
0
 62
4
 10
-6.12810594E+01
 20
-1.26184862E+02
  0
VERTEX
  8
0
 62
4
 10
-6.14019066E+01
 20
-1.25974467E+02
  0
VERTEX
  8
0
 62
4
 10
-6.15425267E+01
 20
-1.25774419E+02
  0
VERTEX
  8
0
 62
4
 10
-6.17018495E+01
 20
-1.25586239E+02
  0
VERTEX
  8
0
 62
4
 10
-6.18786625E+01
 20
-1.25411360E+02
  0
VERTEX
  8
0
 62
4
 10
-6.20716200E+01
 20
-1.25251113E+02
  0
VERTEX
  8
0
 62
4
 10
-6.22792535E+01
 20
-1.25106717E+02
  0
VERTEX
  8
0
 62
4
 10
-6.24999828E+01
 20
-1.24979272E+02
  0
VERTEX
  8
0
 62
4
 10
-6.27321280E+01
 20
-1.24869748E+02
  0
VERTEX
  8
0
 62
4
 10
-6.29739224E+01
 20
-1.24778977E+02
  0
VERTEX
  8
0
 62
4
 10
-6.32235257E+01
 20
-1.24707651E+02
  0
VERTEX
  8
0
 62
4
 10
-6.34790383E+01
 20
-1.24656312E+02
  0
VERTEX
  8
0
 62
4
 10
-6.37385156E+01
 20
-1.24625352E+02
  0
VERTEX
  8
0
 62
4
 10
-6.39999828E+01
 20
-1.24615006E+02
  0
VERTEX
  8
0
 62
4
 10
-6.42614500E+01
 20
-1.24625352E+02
  0
VERTEX
  8
0
 62
4
 10
-6.45209273E+01
 20
-1.24656312E+02
  0
VERTEX
  8
0
 62
4
 10
-6.47764399E+01
 20
-1.24707651E+02
  0
VERTEX
  8
0
 62
4
 10
-6.50260432E+01
 20
-1.24778977E+02
  0
VERTEX
  8
0
 62
4
 10
-6.52678376E+01
 20
-1.24869748E+02
  0
VERTEX
  8
0
 62
4
 10
-6.54999828E+01
 20
-1.24979272E+02
  0
VERTEX
  8
0
 62
4
 10
-6.57207121E+01
 20
-1.25106717E+02
  0
VERTEX
  8
0
 62
4
 10
-6.59283456E+01
 20
-1.25251113E+02
  0
VERTEX
  8
0
 62
4
 10
-6.61213031E+01
 20
-1.25411360E+02
  0
VERTEX
  8
0
 62
4
 10
-6.62981161E+01
 20
-1.25586239E+02
  0
VERTEX
  8
0
 62
4
 10
-6.64574389E+01
 20
-1.25774419E+02
  0
VERTEX
  8
0
 62
4
 10
-6.65980590E+01
 20
-1.25974467E+02
  0
VERTEX
  8
0
 62
4
 10
-6.67189062E+01
 20
-1.26184862E+02
  0
VERTEX
  8
0
 62
4
 10
-6.68190607E+01
 20
-1.26404002E+02
  0
VERTEX
  8
0
 62
4
 10
-6.68977603E+01
 20
-1.26630220E+02
  0
VERTEX
  8
0
 62
4
 10
-6.69544061E+01
 20
-1.26861793E+02
  0
VERTEX
  8
0
 62
4
 10
-6.69885669E+01
 20
-1.27096959E+02
  0
VERTEX
  8
0
 62
4
 10
-6.69999828E+01
 20
-1.27333929E+02
  0
VERTEX
  8
0
 62
4
 10
-6.69885669E+01
 20
-1.27570899E+02
  0
VERTEX
  8
0
 62
4
 10
-6.69544061E+01
 20
-1.27806065E+02
  0
VERTEX
  8
0
 62
4
 10
-6.68977603E+01
 20
-1.28037638E+02
  0
VERTEX
  8
0
 62
4
 10
-6.68190607E+01
 20
-1.28263856E+02
  0
VERTEX
  8
0
 62
4
 10
-6.67189062E+01
 20
-1.28482996E+02
  0
VERTEX
  8
0
 62
4
 10
-6.65980590E+01
 20
-1.28693391E+02
  0
VERTEX
  8
0
 62
4
 10
-6.64574389E+01
 20
-1.28893439E+02
  0
VERTEX
  8
0
 62
4
 10
-6.62981161E+01
 20
-1.29081619E+02
  0
VERTEX
  8
0
 62
4
 10
-6.61213031E+01
 20
-1.29256498E+02
  0
VERTEX
  8
0
 62
4
 10
-6.59283456E+01
 20
-1.29416745E+02
  0
VERTEX
  8
0
 62
4
 10
-6.57207121E+01
 20
-1.29561141E+02
  0
VERTEX
  8
0
 62
4
 10
-6.54999828E+01
 20
-1.29688586E+02
  0
VERTEX
  8
0
 62
4
 10
-6.52678376E+01
 20
-1.29798110E+02
  0
VERTEX
  8
0
 62
4
 10
-6.50260432E+01
 20
-1.29888881E+02
  0
VERTEX
  8
0
 62
4
 10
-6.47764399E+01
 20
-1.29960207E+02
  0
VERTEX
  8
0
 62
4
 10
-6.45209273E+01
 20
-1.30011546E+02
  0
VERTEX
  8
0
 62
4
 10
-6.42614500E+01
 20
-1.30042506E+02
  0
VERTEX
  8
0
 62
4
 10
-6.39999828E+01
 20
-1.30052852E+02
  0
VERTEX
  8
0
 62
4
 10
-6.37385156E+01
 20
-1.30042506E+02
  0
VERTEX
  8
0
 62
4
 10
-6.34790383E+01
 20
-1.30011546E+02
  0
VERTEX
  8
0
 62
4
 10
-6.32235257E+01
 20
-1.29960207E+02
  0
VERTEX
  8
0
 62
4
 10
-6.29739224E+01
 20
-1.29888881E+02
  0
VERTEX
  8
0
 62
4
 10
-6.27321280E+01
 20
-1.29798110E+02
  0
VERTEX
  8
0
 62
4
 10
-6.24999828E+01
 20
-1.29688586E+02
  0
VERTEX
  8
0
 62
4
 10
-6.22792535E+01
 20
-1.29561141E+02
  0
VERTEX
  8
0
 62
4
 10
-6.20716200E+01
 20
-1.29416745E+02
  0
VERTEX
  8
0
 62
4
 10
-6.18786625E+01
 20
-1.29256498E+02
  0
VERTEX
  8
0
 62
4
 10
-6.17018495E+01
 20
-1.29081619E+02
  0
VERTEX
  8
0
 62
4
 10
-6.15425267E+01
 20
-1.28893439E+02
  0
VERTEX
  8
0
 62
4
 10
-6.14019066E+01
 20
-1.28693391E+02
  0
VERTEX
  8
0
 62
4
 10
-6.12810594E+01
 20
-1.28482996E+02
  0
VERTEX
  8
0
 62
4
 10
-6.11809049E+01
 20
-1.28263856E+02
  0
VERTEX
  8
0
 62
4
 10
-6.11022053E+01
 20
-1.28037638E+02
  0
VERTEX
  8
0
 62
4
 10
-6.10455595E+01
 20
-1.27806065E+02
  0
VERTEX
  8
0
 62
4
 10
-6.10113987E+01
 20
-1.27570899E+02
  0
VERTEX
  8
0
 62
4
 10
-6.09999828E+01
 20
-1.27333929E+02
  0
SEQEND
  8
0
  0
LINE
  8
0
  6
CENTER
 62
6
 10
-6.95009903E+01
 20
-1.27333929E+02
 11
-5.84989753E+01
 21
-1.27333929E+02
  0
LINE
  8
0
 62
4
 10
-9.09999828E+01
 20
-1.37349684E+02
 11
-8.59999828E+01
 21
-1.37349684E+02
  0
LINE
  8
0
 62
4
 10
-9.09999828E+01
 20
-1.34175821E+02
 11
-8.59999828E+01
 21
-1.34175821E+02
  0
LINE
  8
0
 62
4
 10
-9.09999828E+01
 20
-1.26700002E+02
 11
-8.59999828E+01
 21
-1.26700002E+02
  0
LINE
  8
0
 62
4
 10
-7.44999828E+01
 20
-1.50465552E+02
 11
-3.84999828E+01
 21
-1.50465552E+02
  0
LINE
  8
0
 62
4
 10
-5.44999828E+01
 20
-1.29536484E+02
 11
-3.84999828E+01
 21
-1.29536484E+02
  0
ARC
  8
0
 62
4
 10
-7.44999824E+01
 20
-1.55304826E+02
 40
1.50000046E+00
 50
1.80000018E+02
 51
2.69999983E+02
  0
ARC
  8
0
 62
4
 10
-8.04999833E+01
 20
-1.23369641E+02
 40
4.99999542E-01
 50
8.99999475E+01
 51
1.80000053E+02
  0
ARC
  8
0
 62
4
 10
-8.04999786E+01
 20
-1.36369637E+02
 40
5.00004272E-01
 50
1.80000490E+02
 51
2.69999511E+02
  0
ARC
  8
0
 62
4
 10
-3.84999795E+01
 20
-1.55304830E+02
 40
1.49999664E+00
 50
2.69999872E+02
 51
1.28225561E-04
  0
ARC
  8
0
 62
4
 10
-3.84999862E+01
 20
-1.31036488E+02
 40
1.50000336E+00
 50
1.28225275E-04
 51
8.99998718E+01
  0
LINE
  8
0
 62
4
 10
-5.44999828E+01
 20
-1.29289462E+02
 11
-5.64999828E+01
 21
-1.29289462E+02
  0
LINE
  8
0
 62
4
 10
-7.44999828E+01
 20
-1.56804826E+02
 11
-6.70089433E+01
 21
-1.56804826E+02
  0
LINE
  8
0
 62
4
 10
-7.34999828E+01
 20
-1.46509310E+02
 11
-5.44999828E+01
 21
-1.46509310E+02
  0
LINE
  8
0
 62
4
 10
-7.59999828E+01
 20
-1.36869641E+02
 11
-7.59999828E+01
 21
-1.55304826E+02
  0
LINE
  8
0
 62
4
 10
-5.44999828E+01
 20
-1.29289462E+02
 11
-5.44999828E+01
 21
-1.48199769E+02
  0
LINE
  8
0
 62
4
 10
-7.34999828E+01
 20
-1.36869641E+02
 11
-7.34999828E+01
 21
-1.48199769E+02
  0
LINE
  8
0
 62
4
 10
-3.69999828E+01
 20
-1.31036484E+02
 11
-3.69999828E+01
 21
-1.55304826E+02
  0
LINE
  8
0
 62
4
 10
-9.09999828E+01
 20
-1.22393820E+02
 11
-8.59999828E+01
 21
-1.22393820E+02
  0
LINE
  8
0
 62
4
 10
-7.14999828E+01
 20
-1.44696694E+02
 11
-5.64999828E+01
 21
-1.44696694E+02
  0
LINE
  8
0
 62
4
 10
-7.14999828E+01
 20
-1.34131238E+02
 11
-5.64999828E+01
 21
-1.34131238E+02
  0
LINE
  8
0
 62
4
 10
-8.44999828E+01
 20
-1.35619641E+02
 11
-8.09999828E+01
 21
-1.35619641E+02
  0
LINE
  8
0
 62
4
 10
-8.44999828E+01
 20
-1.24119641E+02
 11
-8.09999828E+01
 21
-1.24119641E+02
  0
LINE
  8
0
 62
4
 10
-8.44999828E+01
 20
-1.23619641E+02
 11
-8.44999828E+01
 21
-1.36119641E+02
  0
LINE
  8
0
 62
4
 10
-8.59999828E+01
 20
-1.36119641E+02
 11
-8.09999828E+01
 21
-1.36119641E+02
  0
LINE
  8
0
 62
4
 10
-8.59999828E+01
 20
-1.23619641E+02
 11
-8.09999828E+01
 21
-1.23619641E+02
  0
LINE
  8
0
 62
4
 10
-8.59999828E+01
 20
-1.22393820E+02
 11
-8.59999828E+01
 21
-1.37349684E+02
  0
LINE
  8
0
 62
4
 10
-9.09999828E+01
 20
-1.22393820E+02
 11
-9.09999828E+01
 21
-1.37349684E+02
  0
LINE
  8
0
 62
4
 10
-8.09999828E+01
 20
-1.23369641E+02
 11
-8.09999828E+01
 21
-1.36369641E+02
  0
LINE
  8
0
 62
4
 10
-7.14999828E+01
 20
-1.22869641E+02
 11
-8.04999828E+01
 21
-1.22869641E+02
  0
LINE
  8
0
 62
4
 10
-8.04999828E+01
 20
-1.36869641E+02
 11
-7.14999828E+01
 21
-1.36869641E+02
  0
LINE
  8
0
  6
CENTER
 62
6
 10
-6.39999828E+01
 20
-1.14931906E+02
 11
-6.39999828E+01
 21
-1.67500000E+02
  0
LINE
  8
0
  6
CENTER
 62
6
 10
-6.79999828E+01
 20
-1.14320000E+02
 11
-6.79999828E+01
 21
-1.24820000E+02
  0
LINE
  8
0
 62
4
 10
-5.64999828E+01
 20
-1.17019690E+02
 11
-7.14999828E+01
 21
-1.17019690E+02
  0
LINE
  8
0
 62
4
 10
-5.64999828E+01
 20
-1.20536621E+02
 11
-7.14999828E+01
 21
-1.20536621E+02
  0
LINE
  8
0
 62
4
 10
-5.64999828E+01
 20
-1.17019690E+02
 11
-5.64999828E+01
 21
-1.44696694E+02
  0
LINE
  8
0
 62
4
 10
-7.14999828E+01
 20
-1.17019690E+02
 11
-7.14999828E+01
 21
-1.44696694E+02
  0
LINE
  8
0
  6
CENTER
 62
6
 10
-5.99999828E+01
 20
-1.14320000E+02
 11
-5.99999828E+01
 21
-1.24820000E+02
  0
LINE
  8
0
 62
4
 10
3.53140002E+02
 20
-2.81647013E+02
 11
3.53431847E+02
 21
-2.82262839E+02
  0
LINE
  8
0
 62
4
 10
3.46860002E+02
 20
-2.81647013E+02
 11
3.46568156E+02
 21
-2.82262839E+02
  0
POLYLINE
  8
0
 62
4
 66
1
  0
VERTEX
  8
0
 62
4
 10
3.46568156E+02
 20
-2.82262839E+02
  0
VERTEX
  8
0
 62
4
 10
3.46520866E+02
 20
-2.82392052E+02
  0
VERTEX
  8
0
 62
4
 10
3.46500761E+02
 20
-2.82522525E+02
  0
VERTEX
  8
0
 62
4
 10
3.46507997E+02
 20
-2.82653239E+02
  0
VERTEX
  8
0
 62
4
 10
3.46542517E+02
 20
-2.82783173E+02
  0
VERTEX
  8
0
 62
4
 10
3.46604054E+02
 20
-2.82911310E+02
  0
VERTEX
  8
0
 62
4
 10
3.46692124E+02
 20
-2.83036650E+02
  0
VERTEX
  8
0
 62
4
 10
3.46806041E+02
 20
-2.83158214E+02
  0
VERTEX
  8
0
 62
4
 10
3.46944915E+02
 20
-2.83275051E+02
  0
VERTEX
  8
0
 62
4
 10
3.47107659E+02
 20
-2.83386249E+02
  0
VERTEX
  8
0
 62
4
 10
3.47293003E+02
 20
-2.83490939E+02
  0
VERTEX
  8
0
 62
4
 10
3.47499498E+02
 20
-2.83588303E+02
  0
VERTEX
  8
0
 62
4
 10
3.47725531E+02
 20
-2.83677579E+02
  0
VERTEX
  8
0
 62
4
 10
3.47969336E+02
 20
-2.83758072E+02
  0
VERTEX
  8
0
 62
4
 10
3.48229007E+02
 20
-2.83829151E+02
  0
VERTEX
  8
0
 62
4
 10
3.48502517E+02
 20
-2.83890261E+02
  0
VERTEX
  8
0
 62
4
 10
3.48787727E+02
 20
-2.83940925E+02
  0
VERTEX
  8
0
 62
4
 10
3.49082409E+02
 20
-2.83980747E+02
  0
VERTEX
  8
0
 62
4
 10
3.49384261E+02
 20
-2.84009415E+02
  0
VERTEX
  8
0
 62
4
 10
3.49690924E+02
 20
-2.84026706E+02
  0
VERTEX
  8
0
 62
4
 10
3.50000002E+02
 20
-2.84032485E+02
  0
VERTEX
  8
0
 62
4
 10
3.50309080E+02
 20
-2.84026706E+02
  0
VERTEX
  8
0
 62
4
 10
3.50615743E+02
 20
-2.84009415E+02
  0
VERTEX
  8
0
 62
4
 10
3.50917595E+02
 20
-2.83980747E+02
  0
VERTEX
  8
0
 62
4
 10
3.51212277E+02
 20
-2.83940925E+02
  0
VERTEX
  8
0
 62
4
 10
3.51497487E+02
 20
-2.83890261E+02
  0
VERTEX
  8
0
 62
4
 10
3.51770997E+02
 20
-2.83829151E+02
  0
VERTEX
  8
0
 62
4
 10
3.52030668E+02
 20
-2.83758072E+02
  0
VERTEX
  8
0
 62
4
 10
3.52274473E+02
 20
-2.83677579E+02
  0
VERTEX
  8
0
 62
4
 10
3.52500506E+02
 20
-2.83588303E+02
  0
VERTEX
  8
0
 62
4
 10
3.52707001E+02
 20
-2.83490939E+02
  0
VERTEX
  8
0
 62
4
 10
3.52892345E+02
 20
-2.83386249E+02
  0
VERTEX
  8
0
 62
4
 10
3.53055089E+02
 20
-2.83275051E+02
  0
VERTEX
  8
0
 62
4
 10
3.53193963E+02
 20
-2.83158214E+02
  0
VERTEX
  8
0
 62
4
 10
3.53307880E+02
 20
-2.83036650E+02
  0
VERTEX
  8
0
 62
4
 10
3.53395950E+02
 20
-2.82911310E+02
  0
VERTEX
  8
0
 62
4
 10
3.53457487E+02
 20
-2.82783173E+02
  0
VERTEX
  8
0
 62
4
 10
3.53492007E+02
 20
-2.82653239E+02
  0
VERTEX
  8
0
 62
4
 10
3.53499243E+02
 20
-2.82522525E+02
  0
VERTEX
  8
0
 62
4
 10
3.53479138E+02
 20
-2.82392052E+02
  0
VERTEX
  8
0
 62
4
 10
3.53431848E+02
 20
-2.82262839E+02
  0
SEQEND
  8
0
  0
POLYLINE
  8
0
 62
4
 66
1
  0
VERTEX
  8
0
 62
4
 10
3.53140002E+02
 20
-2.81647013E+02
  0
VERTEX
  8
0
 62
4
 10
3.53128053E+02
 20
-2.81531355E+02
  0
VERTEX
  8
0
 62
4
 10
3.53092298E+02
 20
-2.81416578E+02
  0
VERTEX
  8
0
 62
4
 10
3.53033009E+02
 20
-2.81303555E+02
  0
VERTEX
  8
0
 62
4
 10
3.52950637E+02
 20
-2.81193145E+02
  0
VERTEX
  8
0
 62
4
 10
3.52845808E+02
 20
-2.81086190E+02
  0
VERTEX
  8
0
 62
4
 10
3.52719322E+02
 20
-2.80983502E+02
  0
VERTEX
  8
0
 62
4
 10
3.52572139E+02
 20
-2.80885865E+02
  0
VERTEX
  8
0
 62
4
 10
3.52405382E+02
 20
-2.80794020E+02
  0
VERTEX
  8
0
 62
4
 10
3.52220317E+02
 20
-2.80708667E+02
  0
VERTEX
  8
0
 62
4
 10
3.52018355E+02
 20
-2.80630456E+02
  0
VERTEX
  8
0
 62
4
 10
3.51801032E+02
 20
-2.80559981E+02
  0
VERTEX
  8
0
 62
4
 10
3.51570002E+02
 20
-2.80497779E+02
  0
VERTEX
  8
0
 62
4
 10
3.51327023E+02
 20
-2.80444323E+02
  0
VERTEX
  8
0
 62
4
 10
3.51073945E+02
 20
-2.80400021E+02
  0
VERTEX
  8
0
 62
4
 10
3.50812694E+02
 20
-2.80365209E+02
  0
VERTEX
  8
0
 62
4
 10
3.50545257E+02
 20
-2.80340152E+02
  0
VERTEX
  8
0
 62
4
 10
3.50273671E+02
 20
-2.80325041E+02
  0
VERTEX
  8
0
 62
4
 10
3.50000002E+02
 20
-2.80319992E+02
  0
VERTEX
  8
0
 62
4
 10
3.49726333E+02
 20
-2.80325041E+02
  0
VERTEX
  8
0
 62
4
 10
3.49454747E+02
 20
-2.80340152E+02
  0
VERTEX
  8
0
 62
4
 10
3.49187310E+02
 20
-2.80365209E+02
  0
VERTEX
  8
0
 62
4
 10
3.48926059E+02
 20
-2.80400021E+02
  0
VERTEX
  8
0
 62
4
 10
3.48672981E+02
 20
-2.80444323E+02
  0
VERTEX
  8
0
 62
4
 10
3.48430002E+02
 20
-2.80497779E+02
  0
VERTEX
  8
0
 62
4
 10
3.48198972E+02
 20
-2.80559981E+02
  0
VERTEX
  8
0
 62
4
 10
3.47981649E+02
 20
-2.80630456E+02
  0
VERTEX
  8
0
 62
4
 10
3.47779687E+02
 20
-2.80708667E+02
  0
VERTEX
  8
0
 62
4
 10
3.47594622E+02
 20
-2.80794020E+02
  0
VERTEX
  8
0
 62
4
 10
3.47427865E+02
 20
-2.80885865E+02
  0
VERTEX
  8
0
 62
4
 10
3.47280682E+02
 20
-2.80983502E+02
  0
VERTEX
  8
0
 62
4
 10
3.47154196E+02
 20
-2.81086190E+02
  0
VERTEX
  8
0
 62
4
 10
3.47049367E+02
 20
-2.81193145E+02
  0
VERTEX
  8
0
 62
4
 10
3.46966995E+02
 20
-2.81303555E+02
  0
VERTEX
  8
0
 62
4
 10
3.46907706E+02
 20
-2.81416578E+02
  0
VERTEX
  8
0
 62
4
 10
3.46871951E+02
 20
-2.81531355E+02
  0
VERTEX
  8
0
 62
4
 10
3.46860002E+02
 20
-2.81647013E+02
  0
VERTEX
  8
0
 62
4
 10
3.46871951E+02
 20
-2.81762671E+02
  0
VERTEX
  8
0
 62
4
 10
3.46907706E+02
 20
-2.81877448E+02
  0
VERTEX
  8
0
 62
4
 10
3.46966995E+02
 20
-2.81990471E+02
  0
VERTEX
  8
0
 62
4
 10
3.47049367E+02
 20
-2.82100881E+02
  0
VERTEX
  8
0
 62
4
 10
3.47154196E+02
 20
-2.82207836E+02
  0
VERTEX
  8
0
 62
4
 10
3.47280682E+02
 20
-2.82310524E+02
  0
VERTEX
  8
0
 62
4
 10
3.47427865E+02
 20
-2.82408161E+02
  0
VERTEX
  8
0
 62
4
 10
3.47594622E+02
 20
-2.82500006E+02
  0
VERTEX
  8
0
 62
4
 10
3.47779687E+02
 20
-2.82585359E+02
  0
VERTEX
  8
0
 62
4
 10
3.47981649E+02
 20
-2.82663570E+02
  0
VERTEX
  8
0
 62
4
 10
3.48198972E+02
 20
-2.82734045E+02
  0
VERTEX
  8
0
 62
4
 10
3.48430002E+02
 20
-2.82796247E+02
  0
VERTEX
  8
0
 62
4
 10
3.48672981E+02
 20
-2.82849703E+02
  0
VERTEX
  8
0
 62
4
 10
3.48926059E+02
 20
-2.82894005E+02
  0
VERTEX
  8
0
 62
4
 10
3.49187310E+02
 20
-2.82928817E+02
  0
VERTEX
  8
0
 62
4
 10
3.49454747E+02
 20
-2.82953874E+02
  0
VERTEX
  8
0
 62
4
 10
3.49726333E+02
 20
-2.82968985E+02
  0
VERTEX
  8
0
 62
4
 10
3.50000002E+02
 20
-2.82974034E+02
  0
VERTEX
  8
0
 62
4
 10
3.50273671E+02
 20
-2.82968985E+02
  0
VERTEX
  8
0
 62
4
 10
3.50545257E+02
 20
-2.82953874E+02
  0
VERTEX
  8
0
 62
4
 10
3.50812694E+02
 20
-2.82928817E+02
  0
VERTEX
  8
0
 62
4
 10
3.51073945E+02
 20
-2.82894005E+02
  0
VERTEX
  8
0
 62
4
 10
3.51327023E+02
 20
-2.82849703E+02
  0
VERTEX
  8
0
 62
4
 10
3.51570002E+02
 20
-2.82796247E+02
  0
VERTEX
  8
0
 62
4
 10
3.51801032E+02
 20
-2.82734045E+02
  0
VERTEX
  8
0
 62
4
 10
3.52018355E+02
 20
-2.82663570E+02
  0
VERTEX
  8
0
 62
4
 10
3.52220317E+02
 20
-2.82585359E+02
  0
VERTEX
  8
0
 62
4
 10
3.52405382E+02
 20
-2.82500006E+02
  0
VERTEX
  8
0
 62
4
 10
3.52572139E+02
 20
-2.82408161E+02
  0
VERTEX
  8
0
 62
4
 10
3.52719322E+02
 20
-2.82310524E+02
  0
VERTEX
  8
0
 62
4
 10
3.52845808E+02
 20
-2.82207836E+02
  0
VERTEX
  8
0
 62
4
 10
3.52950637E+02
 20
-2.82100881E+02
  0
VERTEX
  8
0
 62
4
 10
3.53033009E+02
 20
-2.81990471E+02
  0
VERTEX
  8
0
 62
4
 10
3.53092298E+02
 20
-2.81877448E+02
  0
VERTEX
  8
0
 62
4
 10
3.53128053E+02
 20
-2.81762671E+02
  0
VERTEX
  8
0
 62
4
 10
3.53140002E+02
 20
-2.81647013E+02
  0
SEQEND
  8
0
  0
LINE
  8
0
  6
CENTER
 62
6
 10
3.50000002E+02
 20
-2.79804222E+02
 11
3.50000002E+02
 21
-2.81647013E+02
  0
LINE
  8
0
 62
4
 10
3.93000002E+02
 20
-2.68514613E+02
 11
3.88000002E+02
 21
-2.68514613E+02
  0
LINE
  8
0
 62
4
 10
3.93000002E+02
 20
-2.67862978E+02
 11
3.88000002E+02
 21
-2.67862978E+02
  0
LINE
  8
0
 62
4
 10
3.93000002E+02
 20
-2.61056606E+02
 11
3.88000002E+02
 21
-2.61056606E+02
  0
LINE
  8
0
 62
4
 10
3.76499993E+02
 20
-2.85148119E+02
 11
3.76499993E+02
 21
-2.79513089E+02
  0
LINE
  8
0
 62
4
 10
3.40500002E+02
 20
-2.85148119E+02
 11
3.40500002E+02
 21
-2.79513089E+02
  0
POLYLINE
  8
0
 62
4
 66
1
  0
VERTEX
  8
0
 62
4
 10
3.71732724E+02
 20
-3.15139051E+02
  0
VERTEX
  8
0
 62
4
 10
3.71814725E+02
 20
-3.14995733E+02
  0
VERTEX
  8
0
 62
4
 10
3.71882330E+02
 20
-3.14846371E+02
  0
VERTEX
  8
0
 62
4
 10
3.71935004E+02
 20
-3.14692150E+02
  0
VERTEX
  8
0
 62
4
 10
3.71972328E+02
 20
-3.14534292E+02
  0
VERTEX
  8
0
 62
4
 10
3.71994006E+02
 20
-3.14374051E+02
  0
VERTEX
  8
0
 62
4
 10
3.71999867E+02
 20
-3.14212698E+02
  0
VERTEX
  8
0
 62
4
 10
3.71989863E+02
 20
-3.14051512E+02
  0
VERTEX
  8
0
 62
4
 10
3.71964075E+02
 20
-3.13891772E+02
  0
VERTEX
  8
0
 62
4
 10
3.71922706E+02
 20
-3.13734745E+02
  0
VERTEX
  8
0
 62
4
 10
3.71866086E+02
 20
-3.13581677E+02
  0
VERTEX
  8
0
 62
4
 10
3.71794662E+02
 20
-3.13433781E+02
  0
VERTEX
  8
0
 62
4
 10
3.71709003E+02
 20
-3.13292232E+02
  0
VERTEX
  8
0
 62
4
 10
3.71609786E+02
 20
-3.13158152E+02
  0
VERTEX
  8
0
 62
4
 10
3.71497800E+02
 20
-3.13032605E+02
  0
VERTEX
  8
0
 62
4
 10
3.71373932E+02
 20
-3.12916587E+02
  0
VERTEX
  8
0
 62
4
 10
3.71239165E+02
 20
-3.12811017E+02
  0
VERTEX
  8
0
 62
4
 10
3.71094569E+02
 20
-3.12716733E+02
  0
VERTEX
  8
0
 62
4
 10
3.70941290E+02
 20
-3.12634484E+02
  0
VERTEX
  8
0
 62
4
 10
3.70780544E+02
 20
-3.12564922E+02
  0
VERTEX
  8
0
 62
4
 10
3.70613606E+02
 20
-3.12508598E+02
  0
VERTEX
  8
0
 62
4
 10
3.70441801E+02
 20
-3.12465959E+02
  0
VERTEX
  8
0
 62
4
 10
3.70266491E+02
 20
-3.12437344E+02
  0
VERTEX
  8
0
 62
4
 10
3.70089067E+02
 20
-3.12422980E+02
  0
VERTEX
  8
0
 62
4
 10
3.69910937E+02
 20
-3.12422980E+02
  0
VERTEX
  8
0
 62
4
 10
3.69733513E+02
 20
-3.12437344E+02
  0
VERTEX
  8
0
 62
4
 10
3.69558203E+02
 20
-3.12465959E+02
  0
VERTEX
  8
0
 62
4
 10
3.69386398E+02
 20
-3.12508598E+02
  0
VERTEX
  8
0
 62
4
 10
3.69219460E+02
 20
-3.12564922E+02
  0
VERTEX
  8
0
 62
4
 10
3.69058714E+02
 20
-3.12634484E+02
  0
VERTEX
  8
0
 62
4
 10
3.68905435E+02
 20
-3.12716733E+02
  0
VERTEX
  8
0
 62
4
 10
3.68760839E+02
 20
-3.12811017E+02
  0
VERTEX
  8
0
 62
4
 10
3.68626072E+02
 20
-3.12916587E+02
  0
VERTEX
  8
0
 62
4
 10
3.68502204E+02
 20
-3.13032605E+02
  0
VERTEX
  8
0
 62
4
 10
3.68390218E+02
 20
-3.13158152E+02
  0
VERTEX
  8
0
 62
4
 10
3.68291001E+02
 20
-3.13292232E+02
  0
VERTEX
  8
0
 62
4
 10
3.68205342E+02
 20
-3.13433781E+02
  0
VERTEX
  8
0
 62
4
 10
3.68133918E+02
 20
-3.13581677E+02
  0
VERTEX
  8
0
 62
4
 10
3.68077298E+02
 20
-3.13734745E+02
  0
VERTEX
  8
0
 62
4
 10
3.68035929E+02
 20
-3.13891772E+02
  0
VERTEX
  8
0
 62
4
 10
3.68010141E+02
 20
-3.14051512E+02
  0
VERTEX
  8
0
 62
4
 10
3.68000137E+02
 20
-3.14212698E+02
  0
VERTEX
  8
0
 62
4
 10
3.68005998E+02
 20
-3.14374052E+02
  0
VERTEX
  8
0
 62
4
 10
3.68027676E+02
 20
-3.14534292E+02
  0
VERTEX
  8
0
 62
4
 10
3.68065000E+02
 20
-3.14692150E+02
  0
VERTEX
  8
0
 62
4
 10
3.68117674E+02
 20
-3.14846371E+02
  0
VERTEX
  8
0
 62
4
 10
3.68185279E+02
 20
-3.14995733E+02
  0
VERTEX
  8
0
 62
4
 10
3.68267280E+02
 20
-3.15139051E+02
  0
SEQEND
  8
0
  0
POLYLINE
  8
0
 62
6
 66
1
  0
VERTEX
  8
0
 62
6
 10
3.71500002E+02
 20
-3.15063027E+02
  0
VERTEX
  8
0
 62
6
 10
3.71494294E+02
 20
-3.14944542E+02
  0
VERTEX
  8
0
 62
6
 10
3.71477214E+02
 20
-3.14826959E+02
  0
VERTEX
  8
0
 62
6
 10
3.71448891E+02
 20
-3.14711172E+02
  0
VERTEX
  8
0
 62
6
 10
3.71409541E+02
 20
-3.14598064E+02
  0
VERTEX
  8
0
 62
6
 10
3.71359464E+02
 20
-3.14488494E+02
  0
VERTEX
  8
0
 62
6
 10
3.71299040E+02
 20
-3.14383296E+02
  0
VERTEX
  8
0
 62
6
 10
3.71228730E+02
 20
-3.14283272E+02
  0
VERTEX
  8
0
 62
6
 10
3.71149069E+02
 20
-3.14189182E+02
  0
VERTEX
  8
0
 62
6
 10
3.71060662E+02
 20
-3.14101742E+02
  0
VERTEX
  8
0
 62
6
 10
3.70964183E+02
 20
-3.14021619E+02
  0
VERTEX
  8
0
 62
6
 10
3.70860367E+02
 20
-3.13949421E+02
  0
VERTEX
  8
0
 62
6
 10
3.70750002E+02
 20
-3.13885699E+02
  0
VERTEX
  8
0
 62
6
 10
3.70633929E+02
 20
-3.13830936E+02
  0
VERTEX
  8
0
 62
6
 10
3.70513032E+02
 20
-3.13785551E+02
  0
VERTEX
  8
0
 62
6
 10
3.70388231E+02
 20
-3.13749888E+02
  0
VERTEX
  8
0
 62
6
 10
3.70260474E+02
 20
-3.13724219E+02
  0
VERTEX
  8
0
 62
6
 10
3.70130736E+02
 20
-3.13708738E+02
  0
VERTEX
  8
0
 62
6
 10
3.70000002E+02
 20
-3.13703565E+02
  0
VERTEX
  8
0
 62
6
 10
3.69869268E+02
 20
-3.13708738E+02
  0
VERTEX
  8
0
 62
6
 10
3.69739530E+02
 20
-3.13724219E+02
  0
VERTEX
  8
0
 62
6
 10
3.69611773E+02
 20
-3.13749888E+02
  0
VERTEX
  8
0
 62
6
 10
3.69486972E+02
 20
-3.13785551E+02
  0
VERTEX
  8
0
 62
6
 10
3.69366075E+02
 20
-3.13830936E+02
  0
VERTEX
  8
0
 62
6
 10
3.69250002E+02
 20
-3.13885699E+02
  0
VERTEX
  8
0
 62
6
 10
3.69139637E+02
 20
-3.13949421E+02
  0
VERTEX
  8
0
 62
6
 10
3.69035821E+02
 20
-3.14021619E+02
  0
VERTEX
  8
0
 62
6
 10
3.68939342E+02
 20
-3.14101742E+02
  0
VERTEX
  8
0
 62
6
 10
3.68850935E+02
 20
-3.14189182E+02
  0
VERTEX
  8
0
 62
6
 10
3.68771274E+02
 20
-3.14283272E+02
  0
VERTEX
  8
0
 62
6
 10
3.68700964E+02
 20
-3.14383296E+02
  0
VERTEX
  8
0
 62
6
 10
3.68640540E+02
 20
-3.14488494E+02
  0
VERTEX
  8
0
 62
6
 10
3.68590463E+02
 20
-3.14598064E+02
  0
VERTEX
  8
0
 62
6
 10
3.68551113E+02
 20
-3.14711172E+02
  0
VERTEX
  8
0
 62
6
 10
3.68522790E+02
 20
-3.14826959E+02
  0
VERTEX
  8
0
 62
6
 10
3.68505710E+02
 20
-3.14944542E+02
  0
VERTEX
  8
0
 62
6
 10
3.68500002E+02
 20
-3.15063027E+02
  0
VERTEX
  8
0
 62
6
 10
3.68505710E+02
 20
-3.15181512E+02
  0
VERTEX
  8
0
 62
6
 10
3.68522790E+02
 20
-3.15299095E+02
  0
VERTEX
  8
0
 62
6
 10
3.68551113E+02
 20
-3.15414882E+02
  0
VERTEX
  8
0
 62
6
 10
3.68590463E+02
 20
-3.15527990E+02
  0
VERTEX
  8
0
 62
6
 10
3.68640540E+02
 20
-3.15637560E+02
  0
VERTEX
  8
0
 62
6
 10
3.68700964E+02
 20
-3.15742758E+02
  0
VERTEX
  8
0
 62
6
 10
3.68771274E+02
 20
-3.15842782E+02
  0
VERTEX
  8
0
 62
6
 10
3.68850935E+02
 20
-3.15936872E+02
  0
VERTEX
  8
0
 62
6
 10
3.68939342E+02
 20
-3.16024312E+02
  0
VERTEX
  8
0
 62
6
 10
3.69035821E+02
 20
-3.16104435E+02
  0
VERTEX
  8
0
 62
6
 10
3.69139637E+02
 20
-3.16176633E+02
  0
VERTEX
  8
0
 62
6
 10
3.69250002E+02
 20
-3.16240355E+02
  0
VERTEX
  8
0
 62
6
 10
3.69366075E+02
 20
-3.16295118E+02
  0
VERTEX
  8
0
 62
6
 10
3.69486972E+02
 20
-3.16340503E+02
  0
VERTEX
  8
0
 62
6
 10
3.69611773E+02
 20
-3.16376166E+02
  0
VERTEX
  8
0
 62
6
 10
3.69739530E+02
 20
-3.16401835E+02
  0
VERTEX
  8
0
 62
6
 10
3.69869268E+02
 20
-3.16417316E+02
  0
VERTEX
  8
0
 62
6
 10
3.70000002E+02
 20
-3.16422489E+02
  0
VERTEX
  8
0
 62
6
 10
3.70130736E+02
 20
-3.16417316E+02
  0
VERTEX
  8
0
 62
6
 10
3.70260474E+02
 20
-3.16401835E+02
  0
VERTEX
  8
0
 62
6
 10
3.70388231E+02
 20
-3.16376166E+02
  0
VERTEX
  8
0
 62
6
 10
3.70513032E+02
 20
-3.16340503E+02
  0
VERTEX
  8
0
 62
6
 10
3.70633929E+02
 20
-3.16295118E+02
  0
VERTEX
  8
0
 62
6
 10
3.70750002E+02
 20
-3.16240355E+02
  0
VERTEX
  8
0
 62
6
 10
3.70860367E+02
 20
-3.16176633E+02
  0
VERTEX
  8
0
 62
6
 10
3.70964183E+02
 20
-3.16104435E+02
  0
VERTEX
  8
0
 62
6
 10
3.71060662E+02
 20
-3.16024312E+02
  0
VERTEX
  8
0
 62
6
 10
3.71149069E+02
 20
-3.15936872E+02
  0
VERTEX
  8
0
 62
6
 10
3.71228730E+02
 20
-3.15842782E+02
  0
VERTEX
  8
0
 62
6
 10
3.71299040E+02
 20
-3.15742758E+02
  0
VERTEX
  8
0
 62
6
 10
3.71359464E+02
 20
-3.15637560E+02
  0
VERTEX
  8
0
 62
6
 10
3.71409541E+02
 20
-3.15527990E+02
  0
VERTEX
  8
0
 62
6
 10
3.71448891E+02
 20
-3.15414882E+02
  0
VERTEX
  8
0
 62
6
 10
3.71477214E+02
 20
-3.15299095E+02
  0
VERTEX
  8
0
 62
6
 10
3.71494294E+02
 20
-3.15181512E+02
  0
VERTEX
  8
0
 62
6
 10
3.71500002E+02
 20
-3.15063027E+02
  0
SEQEND
  8
0
  0
POLYLINE
  8
0
 62
4
 66
1
  0
VERTEX
  8
0
 62
4
 10
3.71735002E+02
 20
-3.15058495E+02
  0
VERTEX
  8
0
 62
4
 10
3.71728400E+02
 20
-3.14921447E+02
  0
VERTEX
  8
0
 62
4
 10
3.71708643E+02
 20
-3.14785443E+02
  0
VERTEX
  8
0
 62
4
 10
3.71675883E+02
 20
-3.14651517E+02
  0
VERTEX
  8
0
 62
4
 10
3.71630369E+02
 20
-3.14520687E+02
  0
VERTEX
  8
0
 62
4
 10
3.71572446E+02
 20
-3.14393951E+02
  0
VERTEX
  8
0
 62
4
 10
3.71502556E+02
 20
-3.14272273E+02
  0
VERTEX
  8
0
 62
4
 10
3.71421231E+02
 20
-3.14156578E+02
  0
VERTEX
  8
0
 62
4
 10
3.71329089E+02
 20
-3.14047747E+02
  0
VERTEX
  8
0
 62
4
 10
3.71226832E+02
 20
-3.13946609E+02
  0
VERTEX
  8
0
 62
4
 10
3.71115239E+02
 20
-3.13853933E+02
  0
VERTEX
  8
0
 62
4
 10
3.70995157E+02
 20
-3.13770424E+02
  0
VERTEX
  8
0
 62
4
 10
3.70867502E+02
 20
-3.13696719E+02
  0
VERTEX
  8
0
 62
4
 10
3.70733245E+02
 20
-3.13633377E+02
  0
VERTEX
  8
0
 62
4
 10
3.70593407E+02
 20
-3.13580881E+02
  0
VERTEX
  8
0
 62
4
 10
3.70449053E+02
 20
-3.13539631E+02
  0
VERTEX
  8
0
 62
4
 10
3.70301282E+02
 20
-3.13509940E+02
  0
VERTEX
  8
0
 62
4
 10
3.70151217E+02
 20
-3.13492035E+02
  0
VERTEX
  8
0
 62
4
 10
3.70000002E+02
 20
-3.13486051E+02
  0
VERTEX
  8
0
 62
4
 10
3.69848787E+02
 20
-3.13492035E+02
  0
VERTEX
  8
0
 62
4
 10
3.69698722E+02
 20
-3.13509940E+02
  0
VERTEX
  8
0
 62
4
 10
3.69550951E+02
 20
-3.13539631E+02
  0
VERTEX
  8
0
 62
4
 10
3.69406597E+02
 20
-3.13580881E+02
  0
VERTEX
  8
0
 62
4
 10
3.69266759E+02
 20
-3.13633377E+02
  0
VERTEX
  8
0
 62
4
 10
3.69132502E+02
 20
-3.13696719E+02
  0
VERTEX
  8
0
 62
4
 10
3.69004847E+02
 20
-3.13770424E+02
  0
VERTEX
  8
0
 62
4
 10
3.68884765E+02
 20
-3.13853933E+02
  0
VERTEX
  8
0
 62
4
 10
3.68773172E+02
 20
-3.13946609E+02
  0
VERTEX
  8
0
 62
4
 10
3.68670915E+02
 20
-3.14047747E+02
  0
VERTEX
  8
0
 62
4
 10
3.68578773E+02
 20
-3.14156578E+02
  0
VERTEX
  8
0
 62
4
 10
3.68497448E+02
 20
-3.14272273E+02
  0
VERTEX
  8
0
 62
4
 10
3.68427558E+02
 20
-3.14393951E+02
  0
VERTEX
  8
0
 62
4
 10
3.68369635E+02
 20
-3.14520687E+02
  0
VERTEX
  8
0
 62
4
 10
3.68324121E+02
 20
-3.14651517E+02
  0
VERTEX
  8
0
 62
4
 10
3.68291361E+02
 20
-3.14785443E+02
  0
VERTEX
  8
0
 62
4
 10
3.68271604E+02
 20
-3.14921447E+02
  0
VERTEX
  8
0
 62
4
 10
3.68265002E+02
 20
-3.15058495E+02
  0
VERTEX
  8
0
 62
4
 10
3.68271604E+02
 20
-3.15195543E+02
  0
VERTEX
  8
0
 62
4
 10
3.68291361E+02
 20
-3.15331547E+02
  0
VERTEX
  8
0
 62
4
 10
3.68324121E+02
 20
-3.15465473E+02
  0
VERTEX
  8
0
 62
4
 10
3.68369635E+02
 20
-3.15596303E+02
  0
VERTEX
  8
0
 62
4
 10
3.68427558E+02
 20
-3.15723039E+02
  0
VERTEX
  8
0
 62
4
 10
3.68497448E+02
 20
-3.15844717E+02
  0
VERTEX
  8
0
 62
4
 10
3.68578773E+02
 20
-3.15960412E+02
  0
VERTEX
  8
0
 62
4
 10
3.68670915E+02
 20
-3.16069243E+02
  0
VERTEX
  8
0
 62
4
 10
3.68773172E+02
 20
-3.16170381E+02
  0
VERTEX
  8
0
 62
4
 10
3.68884765E+02
 20
-3.16263057E+02
  0
VERTEX
  8
0
 62
4
 10
3.69004847E+02
 20
-3.16346566E+02
  0
VERTEX
  8
0
 62
4
 10
3.69132502E+02
 20
-3.16420271E+02
  0
VERTEX
  8
0
 62
4
 10
3.69266759E+02
 20
-3.16483613E+02
  0
VERTEX
  8
0
 62
4
 10
3.69406597E+02
 20
-3.16536109E+02
  0
VERTEX
  8
0
 62
4
 10
3.69550951E+02
 20
-3.16577359E+02
  0
VERTEX
  8
0
 62
4
 10
3.69698722E+02
 20
-3.16607050E+02
  0
VERTEX
  8
0
 62
4
 10
3.69848787E+02
 20
-3.16624955E+02
  0
VERTEX
  8
0
 62
4
 10
3.70000002E+02
 20
-3.16630939E+02
  0
VERTEX
  8
0
 62
4
 10
3.70151217E+02
 20
-3.16624955E+02
  0
VERTEX
  8
0
 62
4
 10
3.70301282E+02
 20
-3.16607050E+02
  0
VERTEX
  8
0
 62
4
 10
3.70449053E+02
 20
-3.16577359E+02
  0
VERTEX
  8
0
 62
4
 10
3.70593407E+02
 20
-3.16536109E+02
  0
VERTEX
  8
0
 62
4
 10
3.70733245E+02
 20
-3.16483613E+02
  0
VERTEX
  8
0
 62
4
 10
3.70867502E+02
 20
-3.16420271E+02
  0
VERTEX
  8
0
 62
4
 10
3.70995157E+02
 20
-3.16346566E+02
  0
VERTEX
  8
0
 62
4
 10
3.71115239E+02
 20
-3.16263057E+02
  0
VERTEX
  8
0
 62
4
 10
3.71226832E+02
 20
-3.16170381E+02
  0
VERTEX
  8
0
 62
4
 10
3.71329089E+02
 20
-3.16069243E+02
  0
VERTEX
  8
0
 62
4
 10
3.71421231E+02
 20
-3.15960412E+02
  0
VERTEX
  8
0
 62
4
 10
3.71502556E+02
 20
-3.15844717E+02
  0
VERTEX
  8
0
 62
4
 10
3.71572446E+02
 20
-3.15723039E+02
  0
VERTEX
  8
0
 62
4
 10
3.71630369E+02
 20
-3.15596303E+02
  0
VERTEX
  8
0
 62
4
 10
3.71675883E+02
 20
-3.15465473E+02
  0
VERTEX
  8
0
 62
4
 10
3.71708643E+02
 20
-3.15331547E+02
  0
VERTEX
  8
0
 62
4
 10
3.71728400E+02
 20
-3.15195543E+02
  0
VERTEX
  8
0
 62
4
 10
3.71735002E+02
 20
-3.15058495E+02
  0
SEQEND
  8
0
  0
POLYLINE
  8
0
 62
4
 66
1
  0
VERTEX
  8
0
 62
4
 10
3.63732724E+02
 20
-3.15139051E+02
  0
VERTEX
  8
0
 62
4
 10
3.63814725E+02
 20
-3.14995733E+02
  0
VERTEX
  8
0
 62
4
 10
3.63882330E+02
 20
-3.14846371E+02
  0
VERTEX
  8
0
 62
4
 10
3.63935004E+02
 20
-3.14692150E+02
  0
VERTEX
  8
0
 62
4
 10
3.63972328E+02
 20
-3.14534292E+02
  0
VERTEX
  8
0
 62
4
 10
3.63994006E+02
 20
-3.14374051E+02
  0
VERTEX
  8
0
 62
4
 10
3.63999867E+02
 20
-3.14212698E+02
  0
VERTEX
  8
0
 62
4
 10
3.63989863E+02
 20
-3.14051512E+02
  0
VERTEX
  8
0
 62
4
 10
3.63964075E+02
 20
-3.13891772E+02
  0
VERTEX
  8
0
 62
4
 10
3.63922706E+02
 20
-3.13734745E+02
  0
VERTEX
  8
0
 62
4
 10
3.63866086E+02
 20
-3.13581677E+02
  0
VERTEX
  8
0
 62
4
 10
3.63794662E+02
 20
-3.13433781E+02
  0
VERTEX
  8
0
 62
4
 10
3.63709003E+02
 20
-3.13292232E+02
  0
VERTEX
  8
0
 62
4
 10
3.63609786E+02
 20
-3.13158152E+02
  0
VERTEX
  8
0
 62
4
 10
3.63497800E+02
 20
-3.13032605E+02
  0
VERTEX
  8
0
 62
4
 10
3.63373932E+02
 20
-3.12916587E+02
  0
VERTEX
  8
0
 62
4
 10
3.63239165E+02
 20
-3.12811017E+02
  0
VERTEX
  8
0
 62
4
 10
3.63094569E+02
 20
-3.12716733E+02
  0
VERTEX
  8
0
 62
4
 10
3.62941290E+02
 20
-3.12634484E+02
  0
VERTEX
  8
0
 62
4
 10
3.62780544E+02
 20
-3.12564922E+02
  0
VERTEX
  8
0
 62
4
 10
3.62613606E+02
 20
-3.12508598E+02
  0
VERTEX
  8
0
 62
4
 10
3.62441801E+02
 20
-3.12465959E+02
  0
VERTEX
  8
0
 62
4
 10
3.62266491E+02
 20
-3.12437344E+02
  0
VERTEX
  8
0
 62
4
 10
3.62089067E+02
 20
-3.12422980E+02
  0
VERTEX
  8
0
 62
4
 10
3.61910937E+02
 20
-3.12422980E+02
  0
VERTEX
  8
0
 62
4
 10
3.61733513E+02
 20
-3.12437344E+02
  0
VERTEX
  8
0
 62
4
 10
3.61558203E+02
 20
-3.12465959E+02
  0
VERTEX
  8
0
 62
4
 10
3.61386398E+02
 20
-3.12508598E+02
  0
VERTEX
  8
0
 62
4
 10
3.61219460E+02
 20
-3.12564922E+02
  0
VERTEX
  8
0
 62
4
 10
3.61058714E+02
 20
-3.12634484E+02
  0
VERTEX
  8
0
 62
4
 10
3.60905435E+02
 20
-3.12716733E+02
  0
VERTEX
  8
0
 62
4
 10
3.60760839E+02
 20
-3.12811017E+02
  0
VERTEX
  8
0
 62
4
 10
3.60626072E+02
 20
-3.12916587E+02
  0
VERTEX
  8
0
 62
4
 10
3.60502204E+02
 20
-3.13032605E+02
  0
VERTEX
  8
0
 62
4
 10
3.60390218E+02
 20
-3.13158152E+02
  0
VERTEX
  8
0
 62
4
 10
3.60291001E+02
 20
-3.13292232E+02
  0
VERTEX
  8
0
 62
4
 10
3.60205342E+02
 20
-3.13433781E+02
  0
VERTEX
  8
0
 62
4
 10
3.60133918E+02
 20
-3.13581677E+02
  0
VERTEX
  8
0
 62
4
 10
3.60077298E+02
 20
-3.13734745E+02
  0
VERTEX
  8
0
 62
4
 10
3.60035929E+02
 20
-3.13891772E+02
  0
VERTEX
  8
0
 62
4
 10
3.60010141E+02
 20
-3.14051512E+02
  0
VERTEX
  8
0
 62
4
 10
3.60000137E+02
 20
-3.14212698E+02
  0
VERTEX
  8
0
 62
4
 10
3.60005998E+02
 20
-3.14374052E+02
  0
VERTEX
  8
0
 62
4
 10
3.60027676E+02
 20
-3.14534292E+02
  0
VERTEX
  8
0
 62
4
 10
3.60065000E+02
 20
-3.14692150E+02
  0
VERTEX
  8
0
 62
4
 10
3.60117674E+02
 20
-3.14846371E+02
  0
VERTEX
  8
0
 62
4
 10
3.60185279E+02
 20
-3.14995733E+02
  0
VERTEX
  8
0
 62
4
 10
3.60267280E+02
 20
-3.15139051E+02
  0
SEQEND
  8
0
  0
POLYLINE
  8
0
 62
6
 66
1
  0
VERTEX
  8
0
 62
6
 10
3.63500002E+02
 20
-3.15063027E+02
  0
VERTEX
  8
0
 62
6
 10
3.63494294E+02
 20
-3.14944542E+02
  0
VERTEX
  8
0
 62
6
 10
3.63477214E+02
 20
-3.14826959E+02
  0
VERTEX
  8
0
 62
6
 10
3.63448891E+02
 20
-3.14711172E+02
  0
VERTEX
  8
0
 62
6
 10
3.63409541E+02
 20
-3.14598064E+02
  0
VERTEX
  8
0
 62
6
 10
3.63359464E+02
 20
-3.14488494E+02
  0
VERTEX
  8
0
 62
6
 10
3.63299040E+02
 20
-3.14383296E+02
  0
VERTEX
  8
0
 62
6
 10
3.63228730E+02
 20
-3.14283272E+02
  0
VERTEX
  8
0
 62
6
 10
3.63149069E+02
 20
-3.14189182E+02
  0
VERTEX
  8
0
 62
6
 10
3.63060662E+02
 20
-3.14101742E+02
  0
VERTEX
  8
0
 62
6
 10
3.62964183E+02
 20
-3.14021619E+02
  0
VERTEX
  8
0
 62
6
 10
3.62860367E+02
 20
-3.13949421E+02
  0
VERTEX
  8
0
 62
6
 10
3.62750002E+02
 20
-3.13885699E+02
  0
VERTEX
  8
0
 62
6
 10
3.62633929E+02
 20
-3.13830936E+02
  0
VERTEX
  8
0
 62
6
 10
3.62513032E+02
 20
-3.13785551E+02
  0
VERTEX
  8
0
 62
6
 10
3.62388231E+02
 20
-3.13749888E+02
  0
VERTEX
  8
0
 62
6
 10
3.62260474E+02
 20
-3.13724219E+02
  0
VERTEX
  8
0
 62
6
 10
3.62130736E+02
 20
-3.13708738E+02
  0
VERTEX
  8
0
 62
6
 10
3.62000002E+02
 20
-3.13703565E+02
  0
VERTEX
  8
0
 62
6
 10
3.61869268E+02
 20
-3.13708738E+02
  0
VERTEX
  8
0
 62
6
 10
3.61739530E+02
 20
-3.13724219E+02
  0
VERTEX
  8
0
 62
6
 10
3.61611773E+02
 20
-3.13749888E+02
  0
VERTEX
  8
0
 62
6
 10
3.61486972E+02
 20
-3.13785551E+02
  0
VERTEX
  8
0
 62
6
 10
3.61366075E+02
 20
-3.13830936E+02
  0
VERTEX
  8
0
 62
6
 10
3.61250002E+02
 20
-3.13885699E+02
  0
VERTEX
  8
0
 62
6
 10
3.61139637E+02
 20
-3.13949421E+02
  0
VERTEX
  8
0
 62
6
 10
3.61035821E+02
 20
-3.14021619E+02
  0
VERTEX
  8
0
 62
6
 10
3.60939342E+02
 20
-3.14101742E+02
  0
VERTEX
  8
0
 62
6
 10
3.60850935E+02
 20
-3.14189182E+02
  0
VERTEX
  8
0
 62
6
 10
3.60771274E+02
 20
-3.14283272E+02
  0
VERTEX
  8
0
 62
6
 10
3.60700964E+02
 20
-3.14383296E+02
  0
VERTEX
  8
0
 62
6
 10
3.60640540E+02
 20
-3.14488494E+02
  0
VERTEX
  8
0
 62
6
 10
3.60590463E+02
 20
-3.14598064E+02
  0
VERTEX
  8
0
 62
6
 10
3.60551113E+02
 20
-3.14711172E+02
  0
VERTEX
  8
0
 62
6
 10
3.60522790E+02
 20
-3.14826959E+02
  0
VERTEX
  8
0
 62
6
 10
3.60505710E+02
 20
-3.14944542E+02
  0
VERTEX
  8
0
 62
6
 10
3.60500002E+02
 20
-3.15063027E+02
  0
VERTEX
  8
0
 62
6
 10
3.60505710E+02
 20
-3.15181512E+02
  0
VERTEX
  8
0
 62
6
 10
3.60522790E+02
 20
-3.15299095E+02
  0
VERTEX
  8
0
 62
6
 10
3.60551113E+02
 20
-3.15414882E+02
  0
VERTEX
  8
0
 62
6
 10
3.60590463E+02
 20
-3.15527990E+02
  0
VERTEX
  8
0
 62
6
 10
3.60640540E+02
 20
-3.15637560E+02
  0
VERTEX
  8
0
 62
6
 10
3.60700964E+02
 20
-3.15742758E+02
  0
VERTEX
  8
0
 62
6
 10
3.60771274E+02
 20
-3.15842782E+02
  0
VERTEX
  8
0
 62
6
 10
3.60850935E+02
 20
-3.15936872E+02
  0
VERTEX
  8
0
 62
6
 10
3.60939342E+02
 20
-3.16024312E+02
  0
VERTEX
  8
0
 62
6
 10
3.61035821E+02
 20
-3.16104435E+02
  0
VERTEX
  8
0
 62
6
 10
3.61139637E+02
 20
-3.16176633E+02
  0
VERTEX
  8
0
 62
6
 10
3.61250002E+02
 20
-3.16240355E+02
  0
VERTEX
  8
0
 62
6
 10
3.61366075E+02
 20
-3.16295118E+02
  0
VERTEX
  8
0
 62
6
 10
3.61486972E+02
 20
-3.16340503E+02
  0
VERTEX
  8
0
 62
6
 10
3.61611773E+02
 20
-3.16376166E+02
  0
VERTEX
  8
0
 62
6
 10
3.61739530E+02
 20
-3.16401835E+02
  0
VERTEX
  8
0
 62
6
 10
3.61869268E+02
 20
-3.16417316E+02
  0
VERTEX
  8
0
 62
6
 10
3.62000002E+02
 20
-3.16422489E+02
  0
VERTEX
  8
0
 62
6
 10
3.62130736E+02
 20
-3.16417316E+02
  0
VERTEX
  8
0
 62
6
 10
3.62260474E+02
 20
-3.16401835E+02
  0
VERTEX
  8
0
 62
6
 10
3.62388231E+02
 20
-3.16376166E+02
  0
VERTEX
  8
0
 62
6
 10
3.62513032E+02
 20
-3.16340503E+02
  0
VERTEX
  8
0
 62
6
 10
3.62633929E+02
 20
-3.16295118E+02
  0
VERTEX
  8
0
 62
6
 10
3.62750002E+02
 20
-3.16240355E+02
  0
VERTEX
  8
0
 62
6
 10
3.62860367E+02
 20
-3.16176633E+02
  0
VERTEX
  8
0
 62
6
 10
3.62964183E+02
 20
-3.16104435E+02
  0
VERTEX
  8
0
 62
6
 10
3.63060662E+02
 20
-3.16024312E+02
  0
VERTEX
  8
0
 62
6
 10
3.63149069E+02
 20
-3.15936872E+02
  0
VERTEX
  8
0
 62
6
 10
3.63228730E+02
 20
-3.15842782E+02
  0
VERTEX
  8
0
 62
6
 10
3.63299040E+02
 20
-3.15742758E+02
  0
VERTEX
  8
0
 62
6
 10
3.63359464E+02
 20
-3.15637560E+02
  0
VERTEX
  8
0
 62
6
 10
3.63409541E+02
 20
-3.15527990E+02
  0
VERTEX
  8
0
 62
6
 10
3.63448891E+02
 20
-3.15414882E+02
  0
VERTEX
  8
0
 62
6
 10
3.63477214E+02
 20
-3.15299095E+02
  0
VERTEX
  8
0
 62
6
 10
3.63494294E+02
 20
-3.15181512E+02
  0
VERTEX
  8
0
 62
6
 10
3.63500002E+02
 20
-3.15063027E+02
  0
SEQEND
  8
0
  0
POLYLINE
  8
0
 62
4
 66
1
  0
VERTEX
  8
0
 62
4
 10
3.63735002E+02
 20
-3.15058495E+02
  0
VERTEX
  8
0
 62
4
 10
3.63728400E+02
 20
-3.14921447E+02
  0
VERTEX
  8
0
 62
4
 10
3.63708643E+02
 20
-3.14785443E+02
  0
VERTEX
  8
0
 62
4
 10
3.63675883E+02
 20
-3.14651517E+02
  0
VERTEX
  8
0
 62
4
 10
3.63630369E+02
 20
-3.14520687E+02
  0
VERTEX
  8
0
 62
4
 10
3.63572446E+02
 20
-3.14393951E+02
  0
VERTEX
  8
0
 62
4
 10
3.63502556E+02
 20
-3.14272273E+02
  0
VERTEX
  8
0
 62
4
 10
3.63421231E+02
 20
-3.14156578E+02
  0
VERTEX
  8
0
 62
4
 10
3.63329089E+02
 20
-3.14047747E+02
  0
VERTEX
  8
0
 62
4
 10
3.63226832E+02
 20
-3.13946609E+02
  0
VERTEX
  8
0
 62
4
 10
3.63115239E+02
 20
-3.13853933E+02
  0
VERTEX
  8
0
 62
4
 10
3.62995157E+02
 20
-3.13770424E+02
  0
VERTEX
  8
0
 62
4
 10
3.62867502E+02
 20
-3.13696719E+02
  0
VERTEX
  8
0
 62
4
 10
3.62733245E+02
 20
-3.13633377E+02
  0
VERTEX
  8
0
 62
4
 10
3.62593407E+02
 20
-3.13580881E+02
  0
VERTEX
  8
0
 62
4
 10
3.62449053E+02
 20
-3.13539631E+02
  0
VERTEX
  8
0
 62
4
 10
3.62301282E+02
 20
-3.13509940E+02
  0
VERTEX
  8
0
 62
4
 10
3.62151217E+02
 20
-3.13492035E+02
  0
VERTEX
  8
0
 62
4
 10
3.62000002E+02
 20
-3.13486051E+02
  0
VERTEX
  8
0
 62
4
 10
3.61848787E+02
 20
-3.13492035E+02
  0
VERTEX
  8
0
 62
4
 10
3.61698722E+02
 20
-3.13509940E+02
  0
VERTEX
  8
0
 62
4
 10
3.61550951E+02
 20
-3.13539631E+02
  0
VERTEX
  8
0
 62
4
 10
3.61406597E+02
 20
-3.13580881E+02
  0
VERTEX
  8
0
 62
4
 10
3.61266759E+02
 20
-3.13633377E+02
  0
VERTEX
  8
0
 62
4
 10
3.61132502E+02
 20
-3.13696719E+02
  0
VERTEX
  8
0
 62
4
 10
3.61004847E+02
 20
-3.13770424E+02
  0
VERTEX
  8
0
 62
4
 10
3.60884765E+02
 20
-3.13853933E+02
  0
VERTEX
  8
0
 62
4
 10
3.60773172E+02
 20
-3.13946609E+02
  0
VERTEX
  8
0
 62
4
 10
3.60670915E+02
 20
-3.14047747E+02
  0
VERTEX
  8
0
 62
4
 10
3.60578773E+02
 20
-3.14156578E+02
  0
VERTEX
  8
0
 62
4
 10
3.60497448E+02
 20
-3.14272273E+02
  0
VERTEX
  8
0
 62
4
 10
3.60427558E+02
 20
-3.14393951E+02
  0
VERTEX
  8
0
 62
4
 10
3.60369635E+02
 20
-3.14520687E+02
  0
VERTEX
  8
0
 62
4
 10
3.60324121E+02
 20
-3.14651517E+02
  0
VERTEX
  8
0
 62
4
 10
3.60291361E+02
 20
-3.14785443E+02
  0
VERTEX
  8
0
 62
4
 10
3.60271604E+02
 20
-3.14921447E+02
  0
VERTEX
  8
0
 62
4
 10
3.60265002E+02
 20
-3.15058495E+02
  0
VERTEX
  8
0
 62
4
 10
3.60271604E+02
 20
-3.15195543E+02
  0
VERTEX
  8
0
 62
4
 10
3.60291361E+02
 20
-3.15331547E+02
  0
VERTEX
  8
0
 62
4
 10
3.60324121E+02
 20
-3.15465473E+02
  0
VERTEX
  8
0
 62
4
 10
3.60369635E+02
 20
-3.15596303E+02
  0
VERTEX
  8
0
 62
4
 10
3.60427558E+02
 20
-3.15723039E+02
  0
VERTEX
  8
0
 62
4
 10
3.60497448E+02
 20
-3.15844717E+02
  0
VERTEX
  8
0
 62
4
 10
3.60578773E+02
 20
-3.15960412E+02
  0
VERTEX
  8
0
 62
4
 10
3.60670915E+02
 20
-3.16069243E+02
  0
VERTEX
  8
0
 62
4
 10
3.60773172E+02
 20
-3.16170381E+02
  0
VERTEX
  8
0
 62
4
 10
3.60884765E+02
 20
-3.16263057E+02
  0
VERTEX
  8
0
 62
4
 10
3.61004847E+02
 20
-3.16346566E+02
  0
VERTEX
  8
0
 62
4
 10
3.61132502E+02
 20
-3.16420271E+02
  0
VERTEX
  8
0
 62
4
 10
3.61266759E+02
 20
-3.16483613E+02
  0
VERTEX
  8
0
 62
4
 10
3.61406597E+02
 20
-3.16536109E+02
  0
VERTEX
  8
0
 62
4
 10
3.61550951E+02
 20
-3.16577359E+02
  0
VERTEX
  8
0
 62
4
 10
3.61698722E+02
 20
-3.16607050E+02
  0
VERTEX
  8
0
 62
4
 10
3.61848787E+02
 20
-3.16624955E+02
  0
VERTEX
  8
0
 62
4
 10
3.62000002E+02
 20
-3.16630939E+02
  0
VERTEX
  8
0
 62
4
 10
3.62151217E+02
 20
-3.16624955E+02
  0
VERTEX
  8
0
 62
4
 10
3.62301282E+02
 20
-3.16607050E+02
  0
VERTEX
  8
0
 62
4
 10
3.62449053E+02
 20
-3.16577359E+02
  0
VERTEX
  8
0
 62
4
 10
3.62593407E+02
 20
-3.16536109E+02
  0
VERTEX
  8
0
 62
4
 10
3.62733245E+02
 20
-3.16483613E+02
  0
VERTEX
  8
0
 62
4
 10
3.62867502E+02
 20
-3.16420271E+02
  0
VERTEX
  8
0
 62
4
 10
3.62995157E+02
 20
-3.16346566E+02
  0
VERTEX
  8
0
 62
4
 10
3.63115239E+02
 20
-3.16263057E+02
  0
VERTEX
  8
0
 62
4
 10
3.63226832E+02
 20
-3.16170381E+02
  0
VERTEX
  8
0
 62
4
 10
3.63329089E+02
 20
-3.16069243E+02
  0
VERTEX
  8
0
 62
4
 10
3.63421231E+02
 20
-3.15960412E+02
  0
VERTEX
  8
0
 62
4
 10
3.63502556E+02
 20
-3.15844717E+02
  0
VERTEX
  8
0
 62
4
 10
3.63572446E+02
 20
-3.15723039E+02
  0
VERTEX
  8
0
 62
4
 10
3.63630369E+02
 20
-3.15596303E+02
  0
VERTEX
  8
0
 62
4
 10
3.63675883E+02
 20
-3.15465473E+02
  0
VERTEX
  8
0
 62
4
 10
3.63708643E+02
 20
-3.15331547E+02
  0
VERTEX
  8
0
 62
4
 10
3.63728400E+02
 20
-3.15195543E+02
  0
VERTEX
  8
0
 62
4
 10
3.63735002E+02
 20
-3.15058495E+02
  0
SEQEND
  8
0
  0
LINE
  8
0
  6
CENTER
 62
6
 10
3.70000002E+02
 20
-3.10063027E+02
 11
3.70000002E+02
 21
-3.20063027E+02
  0
LINE
  8
0
  6
CENTER
 62
6
 10
3.62000002E+02
 20
-3.10063027E+02
 11
3.62000002E+02
 21
-3.20063027E+02
  0
LINE
  8
0
  6
CENTER
 62
6
 10
3.57000002E+02
 20
-3.15063027E+02
 11
3.75000002E+02
 21
-3.15063027E+02
  0
LINE
  8
0
 62
4
 10
3.58500002E+02
 20
-2.90343664E+02
 11
3.73500002E+02
 21
-2.90343664E+02
  0
LINE
  8
0
 62
4
 10
3.58500002E+02
 20
-2.78304222E+02
 11
3.40500002E+02
 21
-2.78304222E+02
  0
ARC
  8
0
 62
4
 10
3.40500010E+02
 20
-2.79804231E+02
 40
1.50000856E+00
 50
9.00003273E+01
 51
1.79999673E+02
  0
LINE
  8
0
 62
4
 10
3.76500002E+02
 20
-2.78304222E+02
 11
3.73500002E+02
 21
-2.78304222E+02
  0
ARC
  8
0
 62
4
 10
3.76499993E+02
 20
-2.79804231E+02
 40
1.50000856E+00
 50
3.27119593E-04
 51
8.99996730E+01
  0
LINE
  8
0
 62
4
 10
3.73500002E+02
 20
-2.81191419E+02
 11
3.58500002E+02
 21
-2.81191419E+02
  0
LINE
  8
0
 62
4
 10
3.73500002E+02
 20
-2.53100758E+02
 11
3.58500002E+02
 21
-2.53100758E+02
  0
ARC
  8
0
 62
4
 10
3.40500010E+02
 20
-2.88068203E+02
 40
1.50000856E+00
 50
9.00003273E+01
 51
1.79999673E+02
  0
ARC
  8
0
 62
4
 10
3.74000016E+02
 20
-2.69208277E+02
 40
5.00013809E-01
 50
9.00015821E+01
 51
1.79998418E+02
  0
ARC
  8
0
 62
4
 10
3.82499990E+02
 20
-2.55208275E+02
 40
5.00011902E-01
 50
1.36383594E-03
 51
8.99986360E+01
  0
ARC
  8
0
 62
4
 10
3.82500014E+02
 20
-2.68208275E+02
 40
4.99988098E-01
 50
2.69998636E+02
 51
1.36386840E-03
  0
ARC
  8
0
 62
4
 10
3.76499993E+02
 20
-2.88068203E+02
 40
1.50000856E+00
 50
3.27119593E-04
 51
8.99996730E+01
  0
LINE
  8
0
 62
4
 10
3.39000002E+02
 20
-2.79804222E+02
 11
3.39000002E+02
 21
-3.02999969E+02
  0
LINE
  8
0
 62
4
 10
3.56500002E+02
 20
-2.82942963E+02
 11
3.56500002E+02
 21
-2.86568195E+02
  0
LINE
  8
0
 62
4
 10
3.73500002E+02
 20
-2.53100758E+02
 11
3.73500002E+02
 21
-2.82942963E+02
  0
LINE
  8
0
 62
4
 10
3.58500002E+02
 20
-2.53100758E+02
 11
3.58500002E+02
 21
-2.82942963E+02
  0
LINE
  8
0
 62
4
 10
3.75500002E+02
 20
-2.82942963E+02
 11
3.75500002E+02
 21
-2.86568195E+02
  0
LINE
  8
0
 62
4
 10
3.78000002E+02
 20
-2.79804222E+02
 11
3.78000002E+02
 21
-3.02999969E+02
  0
LINE
  8
0
 62
4
 10
3.75500002E+02
 20
-2.82942963E+02
 11
3.56500002E+02
 21
-2.82942963E+02
  0
LINE
  8
0
 62
4
 10
3.73500002E+02
 20
-2.59440032E+02
 11
3.58500002E+02
 21
-2.59440032E+02
  0
LINE
  8
0
 62
4
 10
3.82500002E+02
 20
-2.68708264E+02
 11
3.74000002E+02
 21
-2.68708264E+02
  0
LINE
  8
0
 62
4
 10
3.86500002E+02
 20
-2.67458264E+02
 11
3.83000002E+02
 21
-2.67458264E+02
  0
LINE
  8
0
 62
4
 10
3.86500002E+02
 20
-2.55458264E+02
 11
3.86500002E+02
 21
-2.67958264E+02
  0
LINE
  8
0
 62
4
 10
3.88000002E+02
 20
-2.67958264E+02
 11
3.83000002E+02
 21
-2.67958264E+02
  0
LINE
  8
0
 62
4
 10
3.88000002E+02
 20
-2.55458264E+02
 11
3.83000002E+02
 21
-2.55458264E+02
  0
LINE
  8
0
 62
4
 10
3.88000002E+02
 20
-2.54910934E+02
 11
3.88000002E+02
 21
-2.68514613E+02
  0
LINE
  8
0
 62
4
 10
3.93000002E+02
 20
-2.54910934E+02
 11
3.93000002E+02
 21
-2.68514613E+02
  0
LINE
  8
0
 62
4
 10
3.83000002E+02
 20
-2.55208264E+02
 11
3.83000002E+02
 21
-2.68208264E+02
  0
LINE
  8
0
 62
4
 10
3.73500002E+02
 20
-2.54708264E+02
 11
3.82500002E+02
 21
-2.54708264E+02
  0
LINE
  8
0
 62
4
 10
3.93000002E+02
 20
-2.54910934E+02
 11
3.88000002E+02
 21
-2.54910934E+02
  0
LINE
  8
0
 62
4
 10
3.76500002E+02
 20
-2.86568195E+02
 11
3.40500002E+02
 21
-2.86568195E+02
  0
LINE
  8
0
 62
4
 10
3.86500002E+02
 20
-2.55958264E+02
 11
3.83000002E+02
 21
-2.55958264E+02
  0
LINE
  8
0
 62
4
 10
3.58500002E+02
 20
-2.90343664E+02
 11
3.58500002E+02
 21
-3.18271947E+02
  0
LINE
  8
0
 62
4
 10
3.73500002E+02
 20
-2.90343664E+02
 11
3.73500002E+02
 21
-3.18271947E+02
  0
LINE
  8
0
 62
4
 10
3.59500002E+02
 20
-3.07503687E+02
 11
3.72500002E+02
 21
-3.07503687E+02
  0
LINE
  8
0
 62
4
 10
3.58500002E+02
 20
-3.18271947E+02
 11
3.73500002E+02
 21
-3.18271947E+02
  0
LINE
  8
0
 62
4
 10
3.58500002E+02
 20
-2.93299446E+02
 11
3.73500002E+02
 21
-2.93299446E+02
  0
LINE
  8
0
 62
7
 10
1.34500002E+02
 20
-3.49500000E+02
 11
1.34500002E+02
 21
-3.41705771E+02
  0
LINE
  8
0
 62
2
 10
1.70083376E+02
 20
-3.49535217E+02
 11
1.70083376E+02
 21
-3.49500000E+02
  0
LINE
  8
0
 62
7
 10
1.76399965E+02
 20
-2.98500000E+02
 11
1.76399965E+02
 21
-3.49500000E+02
  0
LINE
  8
0
 62
7
 10
1.76999941E+02
 20
-2.98500000E+02
 11
1.76999941E+02
 21
-3.49500000E+02
  0
LINE
  8
0
  6
CENTER
 62
2
 10
1.63000002E+02
 20
-2.90607269E+02
 11
1.63000002E+02
 21
-3.22357803E+02
  0
LINE
  8
0
  6
CENTER
 62
2
 10
1.03000002E+02
 20
-2.91713409E+02
 11
1.03000002E+02
 21
-3.36845123E+02
  0
LINE
  8
0
 62
7
 10
1.56000002E+02
 20
-2.93500000E+02
 11
1.56000002E+02
 21
-2.94099976E+02
  0
LINE
  8
0
 62
7
 10
7.00000019E+01
 20
-2.94099976E+02
 11
1.71999941E+02
 21
-2.94099976E+02
  0
LINE
  8
0
 62
7
 10
6.55999775E+01
 20
-2.98499969E+02
 11
6.55999775E+01
 21
-3.49500000E+02
  0
LINE
  8
0
 62
7
 10
7.00000019E+01
 20
-2.93500000E+02
 11
1.71999941E+02
 21
-2.93500000E+02
  0
LINE
  8
0
 62
7
 10
6.50000019E+01
 20
-2.98500000E+02
 11
6.50000019E+01
 21
-3.49500000E+02
  0
LINE
  8
0
  6
CENTER
 62
2
 10
6.30360737E+01
 20
-3.07500000E+02
 11
9.48909931E+01
 21
-3.07500000E+02
  0
LINE
  8
0
  6
CENTER
 62
2
 10
7.90000019E+01
 20
-2.91019226E+02
 11
7.90000019E+01
 21
-3.21926193E+02
  0
LINE
  8
0
 62
7
 10
8.59999409E+01
 20
-2.93500000E+02
 11
8.59999409E+01
 21
-2.94099976E+02
  0
LINE
  8
0
  6
CENTER
 62
2
 10
1.21000002E+02
 20
-2.90833679E+02
 11
1.21000002E+02
 21
-3.49500000E+02
  0
LINE
  8
0
  6
CENTER
 62
2
 10
1.48193727E+02
 20
-3.07500000E+02
 11
1.79283144E+02
 21
-3.07500000E+02
  0
LINE
  8
0
  6
CENTER
 62
2
 10
1.33000002E+02
 20
-3.33456146E+02
 11
1.33000002E+02
 21
-2.91236389E+02
  0
LINE
  8
0
  6
CENTER
 62
2
 10
1.78860903E+02
 20
-3.49500000E+02
 11
6.30949726E+01
 21
-3.49500000E+02
  0
CIRCLE
  8
0
 62
7
 10
1.63000002E+02
 20
-3.07500000E+02
 40
8.69999981E+00
  0
ARC
  8
0
 62
7
 10
1.71999941E+02
 20
-2.98500000E+02
 40
4.40000010E+00
 50
0.00000000E+00
 51
8.99999818E+01
  0
ARC
  8
0
 62
7
 10
1.71999941E+02
 20
-2.98500000E+02
 40
5.00000000E+00
 50
0.00000000E+00
 51
8.99999818E+01
  0
CIRCLE
  8
0
 62
7
 10
1.63000002E+02
 20
-3.07500000E+02
 40
8.00000000E+00
  0
CIRCLE
  8
0
 62
7
 10
7.90000019E+01
 20
-3.07500031E+02
 40
8.69999981E+00
  0
ARC
  8
0
 62
7
 10
7.00000019E+01
 20
-2.98499969E+02
 40
4.40000010E+00
 50
8.99999818E+01
 51
1.79999964E+02
  0
ARC
  8
0
 62
7
 10
7.00000019E+01
 20
-2.98500000E+02
 40
5.00000000E+00
 50
8.99999818E+01
 51
1.79999964E+02
  0
CIRCLE
  8
0
 62
7
 10
7.90000019E+01
 20
-3.07500031E+02
 40
8.00000000E+00
  0
ARC
  8
0
 62
7
 10
1.21000063E+02
 20
-3.49499939E+02
 40
2.50000153E+01
 50
3.59999860E+02
 51
1.80000000E+02
  0
CIRCLE
  8
0
 62
2
 10
7.90000019E+01
 20
-3.07500000E+02
 40
5.00000000E+00
  0
CIRCLE
  8
0
 62
2
 10
1.63000002E+02
 20
-3.07500000E+02
 40
5.00000000E+00
  0
CIRCLE
  8
0
 62
7
 10
7.90000019E+01
 20
-3.07500000E+02
 40
4.17999983E+00
  0
CIRCLE
  8
0
 62
7
 10
1.63000002E+02
 20
-3.07500000E+02
 40
4.17999983E+00
  0
LINE
  8
0
 62
7
 10
7.00000019E+01
 20
-2.94500000E+02
 11
1.72000002E+02
 21
-2.94500000E+02
  0
LINE
  8
0
 62
7
 10
1.76000002E+02
 20
-2.98500000E+02
 11
1.76000002E+02
 21
-3.49500000E+02
  0
LINE
  8
0
 62
7
 10
6.60000019E+01
 20
-2.98500000E+02
 11
6.60000019E+01
 21
-3.49500000E+02
  0
ARC
  8
0
 62
7
 10
1.72000002E+02
 20
-2.98500000E+02
 40
4.00000000E+00
 50
0.00000000E+00
 51
9.00000002E+01
  0
ARC
  8
0
 62
7
 10
7.00000019E+01
 20
-2.98500000E+02
 40
4.00000000E+00
 50
9.00000002E+01
 51
1.80000000E+02
  0
LINE
  8
0
 62
7
 10
9.80000201E+01
 20
-3.39702042E+02
 11
9.80000461E+01
 21
-3.49500000E+02
  0
LINE
  8
0
 62
7
 10
1.44000106E+02
 20
-3.39702042E+02
 11
1.44000080E+02
 21
-3.49500000E+02
  0
ARC
  8
0
 62
7
 10
1.21000002E+02
 20
-3.49500000E+02
 40
8.50000000E+00
 50
0.00000000E+00
 51
1.80000000E+02
  0
ARC
  8
0
 62
7
 10
1.21000002E+02
 20
-3.49500000E+02
 40
9.99985153E+00
 50
0.00000000E+00
 51
1.80000000E+02
  0
ARC
  8
0
 62
2
 10
1.21000002E+02
 20
-3.49500000E+02
 40
9.17997742E+00
 50
0.00000000E+00
 51
1.80000000E+02
  0
ARC
  8
0
 62
7
 10
1.21000002E+02
 20
-3.49500000E+02
 40
1.35000000E+01
 50
0.00000000E+00
 51
1.80000000E+02
  0
LINE
  8
0
 62
7
 10
1.21000002E+02
 20
-3.33911543E+02
 11
1.07500002E+02
 21
-3.41705771E+02
  0
LINE
  8
0
 62
7
 10
1.07500002E+02
 20
-3.41705771E+02
 11
1.07500002E+02
 21
-3.49500000E+02
  0
LINE
  8
0
 62
7
 10
1.34500002E+02
 20
-3.41705771E+02
 11
1.21000002E+02
 21
-3.33911543E+02
  0
TEXT
  8
0
 10
7.67852536E+01
 20
3.54316712E+02
 40
9.00000000E+00
  1
STRETCH LINE B
 41
1.09375000E+00
  7
MONOTXT
  0
TEXT
  8
0
 62
7
 10
-2.08793658E+02
 20
-7.58036888E+01
 40
9.00000000E+00
  1
0
 41
1.00000000E+00
  7
MONOTXT
  0
TEXT
  8
0
 62
7
 10
-1.77293658E+02
 20
-7.58036888E+01
 40
9.00000000E+00
  1
25
 41
1.00000000E+00
  7
MONOTXT
  0
TEXT
  8
0
 62
7
 10
-1.41293658E+02
 20
-7.58036888E+01
 40
9.00000000E+00
  1
75
 41
1.00000000E+00
  7
MONOTXT
  0
TEXT
  8
0
 62
7
 10
-1.09793658E+02
 20
-7.58036888E+01
 40
9.00000000E+00
  1
125
 41
1.00000000E+00
  7
MONOTXT
  0
TEXT
  8
0
 62
7
 10
-7.37936575E+01
 20
-7.58036888E+01
 40
9.00000000E+00
  1
175
 41
1.00000000E+00
  7
MONOTXT
  0
TEXT
  8
0
 62
7
 10
-3.77936575E+01
 20
-7.58036888E+01
 40
9.00000000E+00
  1
225
 41
1.00000000E+00
  7
MONOTXT
  0
TEXT
  8
0
 62
7
 10
-1.79365743E+00
 20
-7.58036888E+01
 40
9.00000000E+00
  1
275
 41
1.00000000E+00
  7
MONOTXT
  0
TEXT
  8
0
 62
7
 10
3.42063426E+01
 20
-7.58036888E+01
 40
9.00000000E+00
  1
325
 41
1.00000000E+00
  7
MONOTXT
  0
TEXT
  8
0
 62
7
 10
7.02063427E+01
 20
-7.58036888E+01
 40
9.00000000E+00
  1
375
 41
1.00000000E+00
  7
MONOTXT
  0
TEXT
  8
0
 62
7
 10
1.06206343E+02
 20
-7.58036888E+01
 40
9.00000000E+00
  1
425
 41
1.00000000E+00
  7
MONOTXT
  0
TEXT
  8
0
 62
7
 10
1.42206343E+02
 20
-7.58036888E+01
 40
9.00000000E+00
  1
525
 41
1.00000000E+00
  7
MONOTXT
  0
TEXT
  8
0
 62
7
 10
1.78206343E+02
 20
-7.58036888E+01
 40
9.00000000E+00
  1
625
 41
1.00000000E+00
  7
MONOTXT
  0
TEXT
  8
0
 62
7
 10
-2.53793658E+02
 20
-7.58036888E+01
 40
9.00000000E+00
  1
-25
 41
1.00000000E+00
  7
MONOTXT
  0
TEXT
  8
0
 62
7
 10
1.78206343E+02
 20
-6.15536883E+01
 40
9.00000000E+00
  1
625
 41
1.00000000E+00
  7
MONOTXT
  0
TEXT
  8
0
 62
7
 10
1.42206343E+02
 20
-6.15536883E+01
 40
9.00000000E+00
  1
525
 41
1.00000000E+00
  7
MONOTXT
  0
TEXT
  8
0
 62
7
 10
1.06206343E+02
 20
-6.15536883E+01
 40
9.00000000E+00
  1
425
 41
1.00000000E+00
  7
MONOTXT
  0
TEXT
  8
0
 62
7
 10
7.02063426E+01
 20
-6.15536883E+01
 40
9.00000000E+00
  1
375
 41
1.00000000E+00
  7
MONOTXT
  0
TEXT
  8
0
 62
7
 10
3.42063425E+01
 20
-6.15536883E+01
 40
9.00000000E+00
  1
325
 41
1.00000000E+00
  7
MONOTXT
  0
TEXT
  8
0
 62
7
 10
-1.79365752E+00
 20
-6.15536883E+01
 40
9.00000000E+00
  1
275
 41
1.00000000E+00
  7
MONOTXT
  0
TEXT
  8
0
 62
7
 10
-3.77936576E+01
 20
-6.15536883E+01
 40
9.00000000E+00
  1
225
 41
1.00000000E+00
  7
MONOTXT
  0
TEXT
  8
0
 62
7
 10
-7.37936576E+01
 20
-6.15536883E+01
 40
9.00000000E+00
  1
175
 41
1.00000000E+00
  7
MONOTXT
  0
TEXT
  8
0
 62
7
 10
-1.09793658E+02
 20
-6.15536883E+01
 40
9.00000000E+00
  1
125
 41
1.00000000E+00
  7
MONOTXT
  0
TEXT
  8
0
 62
7
 10
-1.41293658E+02
 20
-6.15536883E+01
 40
9.00000000E+00
  1
75
 41
1.00000000E+00
  7
MONOTXT
  0
TEXT
  8
0
 62
7
 10
-1.77293658E+02
 20
-6.15536883E+01
 40
9.00000000E+00
  1
25
 41
1.00000000E+00
  7
MONOTXT
  0
TEXT
  8
0
 62
7
 10
-2.08793658E+02
 20
-6.15536883E+01
 40
9.00000000E+00
  1
0
 41
1.00000000E+00
  7
MONOTXT
  0
TEXT
  8
0
 62
7
 10
-2.53793658E+02
 20
-6.15536883E+01
 40
9.00000000E+00
  1
-25
 41
1.00000000E+00
  7
MONOTXT
  0
TEXT
  8
0
 62
7
 10
1.78206342E+02
 20
-3.23036878E+01
 40
9.00000000E+00
  1
700
 41
1.00000000E+00
  7
MONOTXT
  0
TEXT
  8
0
 62
7
 10
1.42206342E+02
 20
-3.23036878E+01
 40
9.00000000E+00
  1
600
 41
1.00000000E+00
  7
MONOTXT
  0
TEXT
  8
0
 62
7
 10
1.06206342E+02
 20
-3.23036878E+01
 40
9.00000000E+00
  1
500
 41
1.00000000E+00
  7
MONOTXT
  0
TEXT
  8
0
 62
7
 10
7.02063422E+01
 20
-3.23036878E+01
 40
9.00000000E+00
  1
450
 41
1.00000000E+00
  7
MONOTXT
  0
TEXT
  8
0
 62
7
 10
3.42063422E+01
 20
-3.23036878E+01
 40
9.00000000E+00
  1
400
 41
1.00000000E+00
  7
MONOTXT
  0
TEXT
  8
0
 62
7
 10
-1.79365779E+00
 20
-3.23036878E+01
 40
9.00000000E+00
  1
350
 41
1.00000000E+00
  7
MONOTXT
  0
TEXT
  8
0
 62
7
 10
-3.77936578E+01
 20
-3.23036878E+01
 40
9.00000000E+00
  1
300
 41
1.00000000E+00
  7
MONOTXT
  0
TEXT
  8
0
 62
7
 10
-7.37936578E+01
 20
-3.23036878E+01
 40
9.00000000E+00
  1
250
 41
1.00000000E+00
  7
MONOTXT
  0
TEXT
  8
0
 62
7
 10
-1.09793658E+02
 20
-3.23036878E+01
 40
9.00000000E+00
  1
200
 41
1.00000000E+00
  7
MONOTXT
  0
TEXT
  8
0
 62
7
 10
-1.45793658E+02
 20
-3.23036878E+01
 40
9.00000000E+00
  1
150
 41
1.00000000E+00
  7
MONOTXT
  0
TEXT
  8
0
 62
7
 10
-1.81793658E+02
 20
-3.23036878E+01
 40
9.00000000E+00
  1
100
 41
1.00000000E+00
  7
MONOTXT
  0
TEXT
  8
0
 62
7
 10
-2.13293658E+02
 20
-3.23036878E+01
 40
9.00000000E+00
  1
75
 41
1.00000000E+00
  7
MONOTXT
  0
TEXT
  8
0
 62
7
 10
-2.49293658E+02
 20
-3.23036878E+01
 40
9.00000000E+00
  1
50
 41
1.00000000E+00
  7
MONOTXT
  0
LINE
  8
0
 62
7
 10
2.08721967E+02
 20
-7.91786885E+01
 11
2.08721967E+02
 21
-5.67868757E+00
  0
LINE
  8
0
 62
7
 10
1.72721967E+02
 20
-7.91786885E+01
 11
1.72721967E+02
 21
-5.67868757E+00
  0
LINE
  8
0
 62
7
 10
1.36721967E+02
 20
-7.91786885E+01
 11
1.36721967E+02
 21
-5.67868757E+00
  0
LINE
  8
0
 62
7
 10
1.00721967E+02
 20
-7.91786885E+01
 11
1.00721967E+02
 21
-5.67868757E+00
  0
LINE
  8
0
 62
7
 10
6.47219672E+01
 20
-7.91786885E+01
 11
6.47219672E+01
 21
-5.67868757E+00
  0
LINE
  8
0
 62
7
 10
2.87219672E+01
 20
-7.91786885E+01
 11
2.87219672E+01
 21
-5.67868757E+00
  0
LINE
  8
0
 62
7
 10
-7.27803279E+00
 20
-7.91786885E+01
 11
-7.27803279E+00
 21
-5.67868757E+00
  0
LINE
  8
0
 62
7
 10
-4.32780328E+01
 20
-7.91786885E+01
 11
-4.32780328E+01
 21
-5.67868757E+00
  0
LINE
  8
0
 62
7
 10
-7.92780328E+01
 20
-7.91786885E+01
 11
-7.92780328E+01
 21
-5.67868757E+00
  0
LINE
  8
0
 62
7
 10
-1.15278033E+02
 20
-7.91786885E+01
 11
-1.15278033E+02
 21
-5.67868757E+00
  0
LINE
  8
0
 62
7
 10
-1.51278033E+02
 20
-7.91786885E+01
 11
-1.51278033E+02
 21
-5.67868757E+00
  0
LINE
  8
0
 62
7
 10
-1.87278033E+02
 20
-7.91786885E+01
 11
-1.87278033E+02
 21
-5.67868757E+00
  0
LINE
  8
0
 62
7
 10
-2.23278033E+02
 20
-7.91786885E+01
 11
-2.23278033E+02
 21
-5.67868757E+00
  0
LINE
  8
0
 62
7
 10
-3.41278033E+02
 20
-4.99286880E+01
 11
2.80721967E+02
 21
-4.99286880E+01
  0
LINE
  8
0
 62
7
 10
-3.41278037E+02
 20
-5.67868757E+00
 11
2.80721967E+02
 21
-5.67868757E+00
  0
TEXT
  8
0
 62
7
 10
-3.30992724E+02
 20
-1.76786876E+01
 40
9.00000000E+00
  1
STROKE
 41
1.00000000E+00
  7
MONOTXT
  0
TEXT
  8
0
 62
7
 10
-3.35492720E+02
 20
-3.39286880E+01
 40
9.00000000E+00
  1
STRETCH
 41
1.00000000E+00
  7
MONOTXT
  0
LINE
  8
0
 62
7
 10
-3.41278033E+02
 20
-6.41786885E+01
 11
2.80721967E+02
 21
-6.41786885E+01
  0
LINE
  8
0
 62
7
 10
-3.41278033E+02
 20
-7.91786885E+01
 11
2.80721967E+02
 21
-7.91786885E+01
  0
LINE
  8
0
 62
7
 10
-3.41278033E+02
 20
-1.99286880E+01
 11
-2.76598541E+02
 21
-1.99286880E+01
  0
TEXT
  8
0
 62
7
 10
-3.35492720E+02
 20
-4.69286880E+01
 40
9.00000000E+00
  1
  PLACE
 41
1.20689655E+00
  7
MONOTXT
  0
LINE
  8
0
 62
7
 10
-2.59278033E+02
 20
-4.99286880E+01
 11
-2.76598541E+02
 21
-1.99286881E+01
  0
TEXT
  8
0
 62
7
 10
-3.03492720E+02
 20
-6.15536883E+01
 40
9.00000000E+00
  1
A
 41
1.00000000E+00
  7
MONOTXT
  0
TEXT
  8
0
 62
7
 10
-3.03492720E+02
 20
-7.61786885E+01
 40
9.00000000E+00
  1
B
 41
1.00000000E+00
  7
MONOTXT
  0
LINE
  8
0
 62
7
 10
-2.59278033E+02
 20
-7.91786885E+01
 11
-2.59278033E+02
 21
-5.67868757E+00
  0
LINE
  8
0
 62
7
 10
-3.41278033E+02
 20
-7.91786885E+01
 11
-3.41278033E+02
 21
-5.67868757E+00
  0
TEXT
  8
0
 62
7
 10
2.50007278E+02
 20
-1.78687570E-01
 40
9.00000000E+00
  1
(mm)
 41
1.00000000E+00
  7
MONOTXT
  0
TEXT
  8
0
 62
7
 10
-8.29927220E+01
 20
-1.78687570E-01
 40
9.00000000E+00
  1
STRETCH LIST
 41
1.05263158E+00
  7
MONOTXT
  0
TEXT
  8
0
 62
7
 10
2.14206342E+02
 20
-3.23036878E+01
 40
9.00000000E+00
  1
800
 41
1.00000000E+00
  7
MONOTXT
  0
TEXT
  8
0
 62
7
 10
2.14206343E+02
 20
-6.15536883E+01
 40
9.00000000E+00
  1
725
 41
1.00000000E+00
  7
MONOTXT
  0
TEXT
  8
0
 62
7
 10
2.14206343E+02
 20
-7.58036888E+01
 40
9.00000000E+00
  1
725
 41
1.00000000E+00
  7
MONOTXT
  0
LINE
  8
0
 62
7
 10
2.44721967E+02
 20
-7.91786885E+01
 11
2.44721967E+02
 21
-5.67868757E+00
  0
TEXT
  8
0
 62
7
 10
2.50206342E+02
 20
-3.23036878E+01
 40
9.00000000E+00
  1
900
 41
1.00000000E+00
  7
MONOTXT
  0
TEXT
  8
0
 62
7
 10
2.50206343E+02
 20
-6.15536883E+01
 40
9.00000000E+00
  1
825
 41
1.00000000E+00
  7
MONOTXT
  0
TEXT
  8
0
 62
7
 10
2.50206343E+02
 20
-7.58036888E+01
 40
9.00000000E+00
  1
825
 41
1.00000000E+00
  7
MONOTXT
  0
LINE
  8
0
 62
7
 10
2.80721967E+02
 20
-7.91786885E+01
 11
2.80721967E+02
 21
-5.67868757E+00
  0
LINE
  8
0
 62
7
 10
-1.43287800E+01
 20
-3.12000000E+02
 11
-8.30000286E+01
 21
-3.12000000E+02
  0
LINE
  8
0
 62
7
 10
-9.13259233E+00
 20
-3.02999939E+02
 11
-8.30000286E+01
 21
-3.02999939E+02
  0
LINE
  8
0
 62
7
 10
-6.28262138E+01
 20
-2.16000046E+02
 11
-8.30000134E+01
 21
-2.16000046E+02
  0
LINE
  8
0
 62
7
 10
-5.76300350E+01
 20
-2.07000000E+02
 11
-8.30000134E+01
 21
-2.07000000E+02
  0
LINE
  8
0
 62
7
 10
-8.29999828E+01
 20
-1.16000000E+02
 11
-5.09116046E+00
 21
-1.16000000E+02
  0
LINE
  8
0
 62
7
 10
-8.09999828E+01
 20
-1.22999939E+02
 11
-8.30000134E+01
 21
-1.22999939E+02
  0
LINE
  8
0
 62
7
 10
-1.34999983E+02
 20
-1.45936707E+02
 11
-1.34999983E+02
 21
-1.93063232E+02
  0
LINE
  8
0
 62
7
 10
-1.34999998E+02
 20
-3.49500000E+02
 11
-1.34999998E+02
 21
-3.25936752E+02
  0
LINE
  8
0
 62
2
 10
-1.68500013E+02
 20
-1.81679993E+02
 11
-1.56999998E+02
 21
-1.81679993E+02
  0
LINE
  8
0
 62
7
 10
-1.68500013E+02
 20
-1.82500000E+02
 11
-1.56999998E+02
 21
-1.82500000E+02
  0
LINE
  8
0
 62
2
 10
-1.68500013E+02
 20
-1.57320038E+02
 11
-1.56999998E+02
 21
-1.57320038E+02
  0
LINE
  8
0
 62
7
 10
-1.68500013E+02
 20
-1.56500031E+02
 11
-1.56999998E+02
 21
-1.56500031E+02
  0
LINE
  8
0
 62
2
 10
-1.68500029E+02
 20
-3.37320023E+02
 11
-1.56999998E+02
 21
-3.37320023E+02
  0
LINE
  8
0
 62
7
 10
-1.68500029E+02
 20
-3.36500015E+02
 11
-1.56999998E+02
 21
-3.36500015E+02
  0
LINE
  8
0
 62
4
 10
-3.59000141E+02
 20
-3.28715392E+02
 11
-3.41000135E+02
 21
-3.39107698E+02
  0
LINE
  8
0
 62
4
 10
-3.77000063E+02
 20
-3.39107731E+02
 11
-3.59000061E+02
 21
-3.28715427E+02
  0
LINE
  8
0
 62
4
 10
-3.40999998E+02
 20
-3.39107697E+02
 11
-3.40999998E+02
 21
-3.49500000E+02
  0
LINE
  8
0
 62
4
 10
-3.77000006E+02
 20
-3.39107697E+02
 11
-3.77000006E+02
 21
-3.49500000E+02
  0
ARC
  8
0
 62
7
 10
-3.58999998E+02
 20
-3.49500000E+02
 40
1.30000000E+01
 50
0.00000000E+00
 51
1.80000000E+02
  0
ARC
  8
0
 62
4
 10
-3.58999998E+02
 20
-3.49500000E+02
 40
1.80000000E+01
 50
0.00000000E+00
 51
1.80000000E+02
  0
LINE
  8
0
 62
4
 10
-1.82500029E+02
 20
-3.31500000E+02
 11
-1.82500029E+02
 21
-3.49500000E+02
  0
LINE
  8
0
 62
4
 10
-1.80892332E+02
 20
-3.39107697E+02
 11
-1.70107725E+02
 21
-3.39107697E+02
  0
LINE
  8
0
 62
4
 10
-1.80892332E+02
 20
-3.28715393E+02
 11
-1.70107725E+02
 21
-3.28715393E+02
  0
LINE
  8
0
 62
4
 10
-1.82500038E+02
 20
-3.31500001E+02
 11
-1.80892359E+02
 21
-3.28715392E+02
  0
LINE
  8
0
 62
4
 10
-1.68500028E+02
 20
-3.31499988E+02
 11
-1.70107709E+02
 21
-3.28715366E+02
  0
LINE
  8
0
 62
4
 10
-1.68500029E+02
 20
-3.31500000E+02
 11
-1.68500029E+02
 21
-3.49500000E+02
  0
ARC
  8
0
 62
4
 10
-2.02892294E+02
 20
-3.49500000E+02
 40
3.43922653E+01
 50
0.00000000E+00
 51
1.75879147E+01
  0
ARC
  8
0
 62
4
 10
-1.77700983E+02
 20
-3.33911545E+02
 40
9.20095253E+00
 50
3.25615707E+02
 51
3.43842378E+01
  0
ARC
  8
0
 62
4
 10
-1.48107763E+02
 20
-3.49500000E+02
 40
3.43922653E+01
 50
1.62412050E+02
 51
1.80000000E+02
  0
ARC
  8
0
 62
4
 10
-1.73299074E+02
 20
-3.33911545E+02
 40
9.20095253E+00
 50
1.45615726E+02
 51
2.14384256E+02
  0
LINE
  8
0
 62
4
 10
-1.82500013E+02
 20
-1.87499935E+02
 11
-1.68500013E+02
 21
-1.87499935E+02
  0
LINE
  8
0
 62
4
 10
-1.82500013E+02
 20
-1.51500065E+02
 11
-1.68500013E+02
 21
-1.51500065E+02
  0
LINE
  8
0
 62
4
 10
-1.82500013E+02
 20
-1.51500065E+02
 11
-1.82500013E+02
 21
-1.87499935E+02
  0
LINE
  8
0
 62
4
 10
-1.68500013E+02
 20
-1.51500065E+02
 11
-1.68500013E+02
 21
-1.87499935E+02
  0
LINE
  8
0
 62
4
 10
-1.80892504E+02
 20
-1.69500072E+02
 11
-1.70107523E+02
 21
-1.69500072E+02
  0
ARC
  8
0
 62
4
 10
-1.56501982E+02
 20
-1.78500076E+02
 40
2.59980309E+01
 50
1.59746143E+02
 51
2.00253857E+02
  0
ARC
  8
0
 62
4
 10
-1.56501982E+02
 20
-1.60500069E+02
 40
2.59980309E+01
 50
1.59746143E+02
 51
2.00253857E+02
  0
ARC
  8
0
 62
4
 10
-1.94498044E+02
 20
-1.60500069E+02
 40
2.59980309E+01
 50
3.39746143E+02
 51
2.02538569E+01
  0
ARC
  8
0
 62
4
 10
-1.94498044E+02
 20
-1.78500076E+02
 40
2.59980309E+01
 50
3.39746143E+02
 51
2.02538569E+01
  0
ARC
  8
0
 62
7
 10
-1.56999998E+02
 20
-3.49499985E+02
 40
1.50000248E+01
 50
3.59999942E+02
 51
2.99266002E+01
  0
ARC
  8
0
 62
2
 10
-3.58999998E+02
 20
-3.49500000E+02
 40
1.21799841E+01
 50
0.00000000E+00
 51
1.80000000E+02
  0
CIRCLE
  8
0
 62
7
 10
-8.99999828E+01
 20
-1.87500031E+02
 40
2.60000014E+00
  0
CIRCLE
  8
0
 62
7
 10
-3.16999998E+02
 20
-3.07500000E+02
 40
4.17999983E+00
  0
CIRCLE
  8
0
 62
7
 10
-4.00999998E+02
 20
-3.07500000E+02
 40
4.17999983E+00
  0
CIRCLE
  8
0
 62
2
 10
-3.16999998E+02
 20
-3.07500000E+02
 40
5.00000000E+00
  0
CIRCLE
  8
0
 62
2
 10
-4.00999998E+02
 20
-3.07500000E+02
 40
5.00000000E+00
  0
CIRCLE
  8
0
 62
2
 10
-9.89999828E+01
 20
-1.57500000E+02
 40
1.04775009E+01
  0
ARC
  8
0
 62
7
 10
-3.58999998E+02
 20
-3.49500000E+02
 40
2.40000000E+01
 50
0.00000000E+00
 51
1.80000000E+02
  0
ARC
  8
0
 62
7
 10
-3.58999937E+02
 20
-3.49499939E+02
 40
2.35000153E+01
 50
0.00000000E+00
 51
1.80000149E+02
  0
ARC
  8
0
 62
7
 10
-3.58999937E+02
 20
-3.49499939E+02
 40
2.50000153E+01
 50
0.00000000E+00
 51
1.80000140E+02
  0
ARC
  8
0
 62
7
 10
-3.89158140E+02
 20
-3.03497620E+02
 40
1.00000000E+00
 50
8.81899612E+01
 51
1.98674330E+02
  0
ARC
  8
0
 62
7
 10
-4.05002501E+02
 20
-3.19341873E+02
 40
1.00000000E+00
 50
7.13253501E+01
 51
1.81812600E+02
  0
ARC
  8
0
 62
7
 10
-3.84016233E+02
 20
-2.98099976E+02
 40
1.00000000E+00
 50
8.99999818E+01
 51
1.84589646E+02
  0
ARC
  8
0
 62
7
 10
-4.10400023E+02
 20
-3.24484039E+02
 40
1.00000000E+00
 50
8.54104639E+01
 51
1.79999964E+02
  0
ARC
  8
0
 62
7
 10
-3.89000120E+02
 20
-2.98500122E+02
 40
4.00000000E+00
 50
2.68189512E+02
 51
4.59040963E+00
  0
ARC
  8
0
 62
7
 10
-4.09999998E+02
 20
-3.19500061E+02
 40
4.00000000E+00
 50
2.65411312E+02
 51
1.81309463E+00
  0
CIRCLE
  8
0
 62
7
 10
-4.00999998E+02
 20
-3.07500031E+02
 40
8.00000000E+00
  0
ARC
  8
0
 62
7
 10
-4.09999998E+02
 20
-2.98500000E+02
 40
5.00000000E+00
 50
8.99999818E+01
 51
1.79999964E+02
  0
ARC
  8
0
 62
7
 10
-4.09999998E+02
 20
-2.98499969E+02
 40
4.40000010E+00
 50
8.99999818E+01
 51
1.79999964E+02
  0
ARC
  8
0
 62
7
 10
-4.00999998E+02
 20
-3.07500000E+02
 40
1.15000000E+01
 50
2.51324914E+02
 51
1.86744424E+01
  0
ARC
  8
0
 62
7
 10
-3.61249998E+02
 20
-3.23597473E+02
 40
1.00000000E+00
 50
2.74964145E+02
 51
3.59999959E+02
  0
ARC
  8
0
 62
7
 10
-3.75724913E+02
 20
-3.29593109E+02
 40
1.00000000E+00
 50
2.24999972E+02
 51
3.10035254E+02
  0
ARC
  8
0
 62
7
 10
-3.78906981E+02
 20
-3.32775146E+02
 40
1.00000000E+00
 50
3.19964423E+02
 51
4.49999910E+01
  0
ARC
  8
0
 62
7
 10
-3.84902586E+02
 20
-3.47250000E+02
 40
1.00000000E+00
 50
2.69999963E+02
 51
3.55035805E+02
  0
ARC
  8
0
 62
7
 10
-3.61249998E+02
 20
-2.98100006E+02
 40
1.00000000E+00
 50
3.59999959E+02
 51
8.99999956E+01
  0
ARC
  8
0
 62
7
 10
-4.10400023E+02
 20
-3.47250031E+02
 40
1.00000000E+00
 50
1.79999964E+02
 51
2.69999946E+02
  0
ARC
  8
0
 62
7
 10
-3.93896605E+02
 20
-3.17785492E+02
 40
1.00000000E+00
 50
4.49999910E+01
 51
1.24630380E+02
  0
ARC
  8
0
 62
7
 10
-3.90714537E+02
 20
-3.14603485E+02
 40
1.00000000E+00
 50
1.45369634E+02
 51
2.24999955E+02
  0
CIRCLE
  8
0
 62
7
 10
-4.00999998E+02
 20
-3.07500031E+02
 40
8.69999981E+00
  0
ARC
  8
0
 62
7
 10
-3.08000120E+02
 20
-3.19499878E+02
 40
4.00000000E+00
 50
1.78189554E+02
 51
2.74590407E+02
  0
ARC
  8
0
 62
7
 10
-3.29000120E+02
 20
-2.98500000E+02
 40
4.00000000E+00
 50
1.75411348E+02
 51
2.71812624E+02
  0
ARC
  8
0
 62
7
 10
-3.16999998E+02
 20
-3.07500000E+02
 40
1.15000000E+01
 50
1.61325025E+02
 51
2.88674421E+02
  0
CIRCLE
  8
0
 62
7
 10
-9.89999523E+01
 20
-1.57500000E+02
 40
1.10000000E+01
  0
ARC
  8
0
 62
7
 10
-1.12999952E+02
 20
-2.02499939E+02
 40
2.00000000E+00
 50
1.79999977E+02
 51
2.70000028E+02
  0
ARC
  8
0
 62
7
 10
-1.12999952E+02
 20
-1.36499939E+02
 40
2.00000000E+00
 50
8.99999818E+01
 51
1.79999951E+02
  0
ARC
  8
0
 62
7
 10
-3.12997618E+02
 20
-3.19341919E+02
 40
1.00000000E+00
 50
3.58189936E+02
 51
1.08674388E+02
  0
ARC
  8
0
 62
7
 10
-3.28841856E+02
 20
-3.03497498E+02
 40
1.00000000E+00
 50
3.41324803E+02
 51
9.18135474E+01
  0
CIRCLE
  8
0
 62
7
 10
-9.89999523E+01
 20
-1.57499939E+02
 40
9.25000000E+00
  0
ARC
  8
0
 62
7
 10
-1.34499998E+02
 20
-3.25971725E+02
 40
5.00000000E-01
 50
9.20008106E+01
 51
1.80000019E+02
  0
ARC
  8
0
 62
7
 10
-1.18499998E+02
 20
-2.94619720E+02
 40
5.00000000E-01
 50
9.10003249E+01
 51
1.80000019E+02
  0
ARC
  8
0
 62
7
 10
-1.20499998E+02
 20
-3.25000000E+02
 40
5.00000000E-01
 50
9.00000300E+01
 51
1.80000019E+02
  0
ARC
  8
0
 62
7
 10
-3.33984007E+02
 20
-2.98100006E+02
 40
1.00000000E+00
 50
3.55412204E+02
 51
8.99999818E+01
  0
ARC
  8
0
 62
7
 10
-3.07599974E+02
 20
-3.24483841E+02
 40
1.00000000E+00
 50
0.00000000E+00
 51
9.45895548E+01
  0
ARC
  8
0
 62
7
 10
-1.18499983E+02
 20
-2.24380264E+02
 40
5.00000000E-01
 50
1.79999977E+02
 51
2.68999679E+02
  0
ARC
  8
0
 62
7
 10
-1.39499983E+02
 20
-1.91999939E+02
 40
5.00000000E-01
 50
1.79999977E+02
 51
2.69999974E+02
  0
ARC
  8
0
 62
7
 10
-1.20499922E+02
 20
-1.93999939E+02
 40
5.00000000E-01
 50
1.79999977E+02
 51
2.69999974E+02
  0
ARC
  8
0
 62
7
 10
-1.34499983E+02
 20
-1.93028198E+02
 40
5.00000000E-01
 50
1.79999977E+02
 51
2.67999192E+02
  0
ARC
  8
0
 62
7
 10
-1.20499922E+02
 20
-1.44999939E+02
 40
5.00000000E-01
 50
8.99999818E+01
 51
1.79999951E+02
  0
ARC
  8
0
 62
7
 10
-1.34499983E+02
 20
-1.45971680E+02
 40
5.00000000E-01
 50
9.20007356E+01
 51
1.79999951E+02
  0
ARC
  8
0
 62
7
 10
-1.18499983E+02
 20
-1.14619690E+02
 40
5.00000000E-01
 50
9.10002493E+01
 51
1.79999951E+02
  0
CIRCLE
  8
0
 62
7
 10
-3.16999998E+02
 20
-3.07500000E+02
 40
8.00000000E+00
  0
ARC
  8
0
 62
7
 10
-3.08000059E+02
 20
-2.98500000E+02
 40
5.00000000E+00
 50
0.00000000E+00
 51
8.99999818E+01
  0
ARC
  8
0
 62
7
 10
-3.08000059E+02
 20
-2.98500000E+02
 40
4.40000010E+00
 50
0.00000000E+00
 51
8.99999818E+01
  0
ARC
  8
0
 62
7
 10
-3.07599974E+02
 20
-3.47250000E+02
 40
1.00000000E+00
 50
2.69999963E+02
 51
0.00000000E+00
  0
ARC
  8
0
 62
7
 10
-3.33097471E+02
 20
-3.47250000E+02
 40
1.00000000E+00
 50
1.84964149E+02
 51
2.69999956E+02
  0
ARC
  8
0
 62
7
 10
-3.56749998E+02
 20
-3.23597443E+02
 40
1.00000000E+00
 50
1.79999964E+02
 51
2.65035792E+02
  0
ARC
  8
0
 62
7
 10
-3.56749998E+02
 20
-2.98100006E+02
 40
1.00000000E+00
 50
8.99999818E+01
 51
1.79999964E+02
  0
ARC
  8
0
 62
7
 10
-3.42275145E+02
 20
-3.29593094E+02
 40
1.00000000E+00
 50
2.29964427E+02
 51
3.14999988E+02
  0
ARC
  8
0
 62
7
 10
-3.39093138E+02
 20
-3.32775116E+02
 40
1.00000000E+00
 50
1.34999959E+02
 51
2.20035227E+02
  0
ARC
  8
0
 62
7
 10
-3.27285460E+02
 20
-3.14603455E+02
 40
1.00000000E+00
 50
3.14999995E+02
 51
3.46303842E+01
  0
ARC
  8
0
 62
7
 10
-3.24103514E+02
 20
-3.17785461E+02
 40
1.00000000E+00
 50
5.53696252E+01
 51
1.34999959E+02
  0
CIRCLE
  8
0
 62
7
 10
-3.16999998E+02
 20
-3.07500000E+02
 40
8.69999981E+00
  0
ARC
  8
0
 62
7
 10
-8.99999828E+01
 20
-1.87500031E+02
 40
5.00000048E+00
 50
1.79999977E+02
 51
1.00179127E-05
  0
ARC
  8
0
 62
7
 10
-8.99999828E+01
 20
-1.87500031E+02
 40
5.00000048E+00
 50
0.00000000E+00
 51
1.79999964E+02
  0
LINE
  8
0
 62
7
 10
-1.56999998E+02
 20
-1.81679993E+02
 11
-1.53999998E+02
 21
-1.81679993E+02
  0
LINE
  8
0
 62
7
 10
-1.56999998E+02
 20
-1.57320038E+02
 11
-1.53999998E+02
 21
-1.57320038E+02
  0
LINE
  8
0
 62
7
 10
-1.44000066E+02
 20
-1.56499934E+02
 11
-1.42000042E+02
 21
-1.54499911E+02
  0
LINE
  8
0
 62
7
 10
-1.43999983E+02
 20
-1.82499991E+02
 11
-1.41999916E+02
 21
-1.84500058E+02
  0
LINE
  8
0
 62
7
 10
-1.53999998E+02
 20
-1.82500000E+02
 11
-1.43999968E+02
 21
-1.82500000E+02
  0
LINE
  8
0
 62
7
 10
-1.53999998E+02
 20
-1.56500000E+02
 11
-1.44000074E+02
 21
-1.56500000E+02
  0
LINE
  8
0
 62
7
 10
-1.41999922E+02
 20
-1.84500061E+02
 11
-1.39999998E+02
 21
-1.84500061E+02
  0
LINE
  8
0
 62
7
 10
-1.50999983E+02
 20
-1.82500000E+02
 11
-1.50999983E+02
 21
-1.56500000E+02
  0
LINE
  8
0
 62
7
 10
-1.42000029E+02
 20
-1.54499939E+02
 11
-1.39999983E+02
 21
-1.54499939E+02
  0
LINE
  8
0
 62
7
 10
-1.53999998E+02
 20
-1.82500000E+02
 11
-1.53999998E+02
 21
-1.56500000E+02
  0
LINE
  8
0
 62
2
 10
-1.93320036E+02
 20
-1.81679993E+02
 11
-1.82500013E+02
 21
-1.81679993E+02
  0
LINE
  8
0
 62
7
 10
-1.94000037E+02
 20
-1.81000047E+02
 11
-1.92500025E+02
 21
-1.82500059E+02
  0
LINE
  8
0
 62
7
 10
-1.92500029E+02
 20
-1.82500000E+02
 11
-1.82500013E+02
 21
-1.82500000E+02
  0
LINE
  8
0
 62
2
 10
-1.93320036E+02
 20
-1.57320038E+02
 11
-1.82500013E+02
 21
-1.57320038E+02
  0
LINE
  8
0
 62
7
 10
-1.93999848E+02
 20
-1.58000201E+02
 11
-1.92499836E+02
 21
-1.56500188E+02
  0
LINE
  8
0
 62
7
 10
-1.92499998E+02
 20
-1.82500000E+02
 11
-1.92499998E+02
 21
-1.56500000E+02
  0
LINE
  8
0
 62
7
 10
-1.92500029E+02
 20
-1.56500031E+02
 11
-1.82500013E+02
 21
-1.56500031E+02
  0
LINE
  8
0
 62
7
 10
-1.56999998E+02
 20
-1.82500000E+02
 11
-1.56999998E+02
 21
-1.56500000E+02
  0
LINE
  8
0
 62
7
 10
-1.94000013E+02
 20
-1.81000061E+02
 11
-1.94000013E+02
 21
-1.58000305E+02
  0
LINE
  8
0
 62
7
 10
-1.56999998E+02
 20
-3.37320023E+02
 11
-1.53999998E+02
 21
-3.37320023E+02
  0
LINE
  8
0
 62
2
 10
-1.48999961E+02
 20
-3.49500000E+02
 11
-1.51777754E+02
 21
-3.45342555E+02
  0
LINE
  8
0
 62
2
 10
-1.43999990E+02
 20
-3.42016629E+02
 11
-1.48999996E+02
 21
-3.49500000E+02
  0
LINE
  8
0
 62
7
 10
-1.53999967E+02
 20
-3.49500002E+02
 11
-1.49999951E+02
 21
-3.42016633E+02
  0
LINE
  8
0
 62
7
 10
-1.49999983E+02
 20
-3.42016617E+02
 11
-1.43999998E+02
 21
-3.42016617E+02
  0
LINE
  8
0
 62
7
 10
-1.43999998E+02
 20
-3.49500000E+02
 11
-1.43999998E+02
 21
-3.42016617E+02
  0
LINE
  8
0
 62
7
 10
-1.53999968E+02
 20
-3.36500021E+02
 11
-1.49999954E+02
 21
-3.34499976E+02
  0
LINE
  8
0
 62
7
 10
-1.49999983E+02
 20
-3.42016617E+02
 11
-1.49999983E+02
 21
-3.34499954E+02
  0
LINE
  8
0
 62
7
 10
-1.49999983E+02
 20
-3.34499954E+02
 11
-1.39999998E+02
 21
-3.34499954E+02
  0
LINE
  8
0
 62
2
 10
-1.93320066E+02
 20
-3.37320023E+02
 11
-1.82500029E+02
 21
-3.37320023E+02
  0
LINE
  8
0
 62
7
 10
-1.93999879E+02
 20
-3.38000189E+02
 11
-1.92499861E+02
 21
-3.36500172E+02
  0
LINE
  8
0
 62
7
 10
-1.92499998E+02
 20
-3.49500000E+02
 11
-1.92499998E+02
 21
-3.36500015E+02
  0
LINE
  8
0
 62
7
 10
-1.92500059E+02
 20
-3.36500015E+02
 11
-1.82500029E+02
 21
-3.36500015E+02
  0
LINE
  8
0
 62
7
 10
-1.56999998E+02
 20
-3.49500000E+02
 11
-1.56999998E+02
 21
-3.36500015E+02
  0
LINE
  8
0
 62
7
 10
-1.94000013E+02
 20
-3.49500000E+02
 11
-1.94000013E+02
 21
-3.38000305E+02
  0
LINE
  8
0
 62
7
 10
-1.53999998E+02
 20
-3.49500000E+02
 11
-1.53999998E+02
 21
-3.36500015E+02
  0
LINE
  8
0
  6
CENTER
 62
2
 10
-9.89999981E+01
 20
-2.91277191E+02
 11
-9.89999981E+01
 21
-3.12230972E+02
  0
LINE
  8
0
 62
7
 10
-8.29999981E+01
 20
-3.49500000E+02
 11
-8.29999981E+01
 21
-2.93500031E+02
  0
LINE
  8
0
 62
7
 10
-9.13257711E+00
 20
-1.22999939E+02
 11
-5.64999828E+01
 21
-1.22999939E+02
  0
LINE
  8
0
 62
7
 10
-1.43287648E+01
 20
-1.32000000E+02
 11
-3.69999828E+01
 21
-1.32000000E+02
  0
LINE
  8
0
  6
CENTER
 62
2
 10
-1.17306886E+01
 20
-1.27500000E+02
 11
-5.64999828E+01
 21
-1.27500000E+02
  0
LINE
  8
0
 62
7
 10
-8.29999981E+01
 20
-2.95999969E+02
 11
-5.09115807E+00
 21
-2.95999969E+02
  0
LINE
  8
0
  6
CENTER
 62
2
 10
-1.17307038E+01
 20
-3.07500000E+02
 11
-1.24610350E+02
 21
-3.07500000E+02
  0
LINE
  8
0
 62
7
 10
-8.29999828E+01
 20
-2.23000015E+02
 11
-6.68676481E+01
 21
-2.23000015E+02
  0
LINE
  8
0
 62
7
 10
-1.20999998E+02
 20
-3.49500000E+02
 11
-1.20999998E+02
 21
-3.25000015E+02
  0
LINE
  8
0
  6
CENTER
 62
2
 10
-3.01139097E+02
 20
-3.49500000E+02
 11
-4.16905027E+02
 21
-3.49500000E+02
  0
LINE
  8
0
  6
CENTER
 62
2
 10
-3.70999998E+02
 20
-3.33456146E+02
 11
-3.70999998E+02
 21
-2.91236389E+02
  0
LINE
  8
0
  6
CENTER
 62
2
 10
-3.31806273E+02
 20
-3.07500000E+02
 11
-3.00716856E+02
 21
-3.07500000E+02
  0
LINE
  8
0
  6
CENTER
 62
2
 10
-3.58999998E+02
 20
-2.90833679E+02
 11
-3.58999998E+02
 21
-3.49500000E+02
  0
LINE
  8
0
 62
7
 10
-3.94000059E+02
 20
-2.93500000E+02
 11
-3.94000059E+02
 21
-2.94099976E+02
  0
LINE
  8
0
  6
CENTER
 62
2
 10
-4.00999998E+02
 20
-2.91019226E+02
 11
-4.00999998E+02
 21
-3.21926193E+02
  0
LINE
  8
0
  6
CENTER
 62
2
 10
-4.16963926E+02
 20
-3.07500000E+02
 11
-3.85109007E+02
 21
-3.07500000E+02
  0
LINE
  8
0
 62
7
 10
-4.14999998E+02
 20
-2.98500000E+02
 11
-4.14999998E+02
 21
-3.49500000E+02
  0
LINE
  8
0
 62
7
 10
-4.09999998E+02
 20
-2.93500000E+02
 11
-3.08000059E+02
 21
-2.93500000E+02
  0
LINE
  8
0
 62
7
 10
-3.60249998E+02
 20
-2.98099976E+02
 11
-3.60249998E+02
 21
-3.23597458E+02
  0
LINE
  8
0
 62
7
 10
-4.10400023E+02
 20
-3.48250000E+02
 11
-3.84902586E+02
 21
-3.48250000E+02
  0
LINE
  8
0
 62
7
 10
-4.11400023E+02
 20
-3.24484039E+02
 11
-4.11400023E+02
 21
-3.49500000E+02
  0
LINE
  8
0
 62
7
 10
-3.84016233E+02
 20
-2.97099976E+02
 11
-3.33984007E+02
 21
-2.97099976E+02
  0
LINE
  8
0
 62
7
 10
-3.76432192E+02
 20
-3.30300282E+02
 11
-3.91421830E+02
 21
-3.15310646E+02
  0
LINE
  8
0
 62
7
 10
-3.78199852E+02
 20
-3.32068028E+02
 11
-3.93189489E+02
 21
-3.17078391E+02
  0
LINE
  8
0
 62
7
 10
-4.14400023E+02
 20
-2.98499969E+02
 11
-4.14400023E+02
 21
-3.49500000E+02
  0
LINE
  8
0
 62
7
 10
-4.09999998E+02
 20
-2.94099976E+02
 11
-3.08000059E+02
 21
-2.94099976E+02
  0
LINE
  8
0
 62
7
 10
-3.23999998E+02
 20
-2.93500000E+02
 11
-3.23999998E+02
 21
-2.94099976E+02
  0
LINE
  8
0
 62
7
 10
-3.39800379E+02
 20
-3.32067836E+02
 11
-3.24810696E+02
 21
-3.17078159E+02
  0
LINE
  8
0
 62
7
 10
-3.41568254E+02
 20
-3.30300004E+02
 11
-3.26578571E+02
 21
-3.15310327E+02
  0
LINE
  8
0
  6
CENTER
 62
2
 10
-3.40999998E+02
 20
-2.91713409E+02
 11
-3.40999998E+02
 21
-3.36845123E+02
  0
LINE
  8
0
 62
7
 10
-1.20999983E+02
 20
-1.93999878E+02
 11
-1.20999983E+02
 21
-1.44999939E+02
  0
LINE
  8
0
 62
7
 10
-1.12999952E+02
 20
-1.34500061E+02
 11
-9.09999828E+01
 21
-1.34500061E+02
  0
LINE
  8
0
 62
7
 10
-1.12999952E+02
 20
-2.04500061E+02
 11
-8.29999523E+01
 21
-2.04500061E+02
  0
LINE
  8
0
  6
CENTER
 62
2
 10
-9.89999828E+01
 20
-1.71605835E+02
 11
-9.89999828E+01
 21
-1.43676727E+02
  0
LINE
  8
0
 62
7
 10
-1.39500059E+02
 20
-3.26499985E+02
 11
-1.34999998E+02
 21
-3.26499985E+02
  0
LINE
  8
0
 62
7
 10
-1.39999998E+02
 20
-3.49500000E+02
 11
-1.39999998E+02
 21
-3.27000000E+02
  0
LINE
  8
0
 62
7
 10
-1.34517450E+02
 20
-3.25472110E+02
 11
-1.20999993E+02
 21
-3.25000070E+02
  0
LINE
  8
0
 62
7
 10
-1.18508707E+02
 20
-2.94119833E+02
 11
-8.29999981E+01
 21
-2.93500027E+02
  0
LINE
  8
0
 62
7
 10
-1.14999998E+02
 20
-2.94058563E+02
 11
-1.14999998E+02
 21
-2.93500015E+02
  0
LINE
  8
0
 62
7
 10
-1.14999998E+02
 20
-2.93500000E+02
 11
-8.29999981E+01
 21
-2.93500000E+02
  0
LINE
  8
0
 62
7
 10
-8.29999828E+01
 20
-1.13499817E+02
 11
-8.29999828E+01
 21
-1.23619641E+02
  0
LINE
  8
0
 62
7
 10
-1.20499998E+02
 20
-3.24500000E+02
 11
-1.18999998E+02
 21
-3.24500000E+02
  0
LINE
  8
0
 62
7
 10
-1.34517392E+02
 20
-1.93527631E+02
 11
-1.20999939E+02
 21
-1.93999670E+02
  0
LINE
  8
0
 62
7
 10
-1.39499922E+02
 20
-1.92500031E+02
 11
-1.34999983E+02
 21
-1.92500031E+02
  0
LINE
  8
0
 62
7
 10
-1.18508647E+02
 20
-2.24879974E+02
 11
-8.29999581E+01
 21
-2.25499780E+02
  0
LINE
  8
0
 62
7
 10
-1.20499983E+02
 20
-1.94500061E+02
 11
-1.18999922E+02
 21
-1.94500061E+02
  0
LINE
  8
0
 62
7
 10
-1.34517367E+02
 20
-1.45471773E+02
 11
-1.20999911E+02
 21
-1.44999733E+02
  0
LINE
  8
0
 62
7
 10
-1.39499922E+02
 20
-1.46500031E+02
 11
-1.34999983E+02
 21
-1.46500031E+02
  0
LINE
  8
0
 62
7
 10
-1.18508681E+02
 20
-1.14119452E+02
 11
-8.29999610E+01
 21
-1.13499645E+02
  0
LINE
  8
0
 62
7
 10
-1.39999983E+02
 20
-1.91999939E+02
 11
-1.39999983E+02
 21
-1.46999939E+02
  0
LINE
  8
0
 62
7
 10
-1.18999983E+02
 20
-2.24380264E+02
 11
-1.18999983E+02
 21
-1.14619690E+02
  0
LINE
  8
0
 62
7
 10
-1.20499983E+02
 20
-1.44500061E+02
 11
-1.18999922E+02
 21
-1.44500061E+02
  0
LINE
  8
0
  6
CENTER
 62
2
 10
-8.52976513E+01
 20
-1.57500031E+02
 11
-1.13094923E+02
 21
-1.57500031E+02
  0
LINE
  8
0
 62
7
 10
-3.57749998E+02
 20
-2.98099976E+02
 11
-3.57749998E+02
 21
-3.23597443E+02
  0
LINE
  8
0
  6
CENTER
 62
2
 10
-3.16999998E+02
 20
-2.90607269E+02
 11
-3.16999998E+02
 21
-3.22357803E+02
  0
LINE
  8
0
 62
7
 10
-3.03000059E+02
 20
-2.98500000E+02
 11
-3.03000059E+02
 21
-3.49500000E+02
  0
LINE
  8
0
 62
7
 10
-3.07600035E+02
 20
-3.48250000E+02
 11
-3.33097532E+02
 21
-3.48250000E+02
  0
LINE
  8
0
 62
7
 10
-3.06599974E+02
 20
-3.24483826E+02
 11
-3.06599974E+02
 21
-3.49500000E+02
  0
LINE
  8
0
 62
7
 10
-3.03600035E+02
 20
-2.98500000E+02
 11
-3.03600035E+02
 21
-3.49500000E+02
  0
LINE
  8
0
 62
2
 10
-3.09916624E+02
 20
-3.49535217E+02
 11
-3.09916624E+02
 21
-3.49499924E+02
  0
LINE
  8
0
 62
7
 10
-1.14999983E+02
 20
-1.36499939E+02
 11
-1.14999983E+02
 21
-2.02499939E+02
  0
LINE
  8
0
  6
CENTER
 62
2
 10
-6.02281112E+01
 20
-2.11500000E+02
 11
-1.24610334E+02
 21
-2.11500000E+02
  0
LINE
  8
0
 62
7
 10
-8.82676442E+01
 20
-1.87500203E+02
 11
-8.91336910E+01
 21
-1.89000249E+02
  0
LINE
  8
0
 62
7
 10
-8.91339550E+01
 20
-1.89000061E+02
 11
-9.08660412E+01
 21
-1.89000061E+02
  0
LINE
  8
0
 62
7
 10
-9.08658592E+01
 20
-1.89000032E+02
 11
-9.17319442E+01
 21
-1.87499920E+02
  0
LINE
  8
0
 62
7
 10
-9.17317259E+01
 20
-1.87500300E+02
 11
-9.08657172E+01
 21
-1.86000319E+02
  0
LINE
  8
0
 62
7
 10
-8.91339550E+01
 20
-1.86000031E+02
 11
-9.08660412E+01
 21
-1.86000031E+02
  0
LINE
  8
0
 62
7
 10
-8.82678980E+01
 20
-1.87500107E+02
 11
-8.91339219E+01
 21
-1.86000101E+02
  0
LINE
  8
0
  6
CENTER
 62
2
 10
-9.81945629E+01
 20
-1.87500031E+02
 11
-8.19255810E+01
 21
-1.87500031E+02
  0
LINE
  8
0
  6
CENTER
 62
2
 10
-8.99999828E+01
 20
-1.79952271E+02
 11
-8.99999828E+01
 21
-1.94565643E+02
  0
LINE
  8
0
 62
7
 10
-1.18999998E+02
 20
-3.49500000E+02
 11
-1.18999998E+02
 21
-2.94619720E+02
  0
LINE
  8
0
  6
CENTER
 62
2
 10
-2.02798384E+02
 20
-1.69500000E+02
 11
-3.59793999E+01
 21
-1.69500000E+02
  0
LINE
  8
0
  6
CENTER
 62
2
 10
-1.97886106E+02
 20
-3.49500000E+02
 11
-3.59794151E+01
 21
-3.49500000E+02
  0
LINE
  8
0
 62
2
 10
-7.23527258E+01
 20
-2.32500449E+02
 11
-6.11246509E-01
 21
-1.08240561E+02
  0
LINE
  8
0
 62
7
 10
-8.29999828E+01
 20
-1.36119641E+02
 11
-8.29999828E+01
 21
-2.25500015E+02
  0
LINE
  8
0
  6
CENTER
 62
2
 10
-9.09999828E+01
 20
-1.27500000E+02
 11
-1.25350264E+02
 21
-1.27500000E+02
  0
LINE
  8
0
 62
2
 10
-4.76385637E+01
 20
-3.69694238E+02
 11
-6.11261768E-01
 21
-2.88240561E+02
  0
LINE
  8
0
 62
7
 10
2.97853540E+02
 20
-3.12000000E+02
 11
3.58500002E+02
 21
-3.12000000E+02
  0
LINE
  8
0
 62
7
 10
3.03049728E+02
 20
-3.02999939E+02
 11
3.58500002E+02
 21
-3.02999939E+02
  0
LINE
  8
0
 62
7
 10
3.85000002E+02
 20
-2.95999969E+02
 11
3.78000002E+02
 21
-2.95999969E+02
  0
LINE
  8
0
  6
CENTER
 62
2
 10
3.00451616E+02
 20
-3.07500000E+02
 11
3.58500002E+02
 21
-3.07500000E+02
  0
LINE
  8
0
  6
CENTER
 62
2
 10
4.99886110E+02
 20
-3.49500000E+02
 11
2.76202905E+02
 21
-3.49500000E+02
  0
LINE
  8
0
 62
7
 10
4.21000002E+02
 20
-3.49500000E+02
 11
4.21000002E+02
 21
-2.94619720E+02
  0
LINE
  8
0
 62
7
 10
4.22500002E+02
 20
-3.24500000E+02
 11
4.21000002E+02
 21
-3.24500000E+02
  0
LINE
  8
0
 62
7
 10
4.17000002E+02
 20
-2.93500000E+02
 11
3.85000002E+02
 21
-2.93500000E+02
  0
LINE
  8
0
 62
7
 10
4.17000002E+02
 20
-2.94058563E+02
 11
4.17000002E+02
 21
-2.93500015E+02
  0
LINE
  8
0
 62
7
 10
4.20508711E+02
 20
-2.94119833E+02
 11
3.85000002E+02
 21
-2.93500027E+02
  0
LINE
  8
0
 62
7
 10
4.36517453E+02
 20
-3.25472110E+02
 11
4.22999997E+02
 21
-3.25000070E+02
  0
LINE
  8
0
 62
7
 10
4.42000002E+02
 20
-3.49500000E+02
 11
4.42000002E+02
 21
-3.27000000E+02
  0
LINE
  8
0
 62
7
 10
4.41500063E+02
 20
-3.26499985E+02
 11
4.37000002E+02
 21
-3.26499985E+02
  0
LINE
  8
0
 62
7
 10
4.23000002E+02
 20
-3.49500000E+02
 11
4.23000002E+02
 21
-3.25000015E+02
  0
LINE
  8
0
 62
7
 10
3.85000002E+02
 20
-3.49500000E+02
 11
3.85000002E+02
 21
-2.93500031E+02
  0
LINE
  8
0
  6
CENTER
 62
2
 10
4.01000002E+02
 20
-2.91277191E+02
 11
4.01000002E+02
 21
-3.12230972E+02
  0
LINE
  8
0
 62
7
 10
4.56000002E+02
 20
-3.49500000E+02
 11
4.56000002E+02
 21
-3.36500015E+02
  0
LINE
  8
0
 62
7
 10
4.96000017E+02
 20
-3.49500000E+02
 11
4.96000017E+02
 21
-3.38000305E+02
  0
LINE
  8
0
 62
7
 10
4.59000002E+02
 20
-3.49500000E+02
 11
4.59000002E+02
 21
-3.36500015E+02
  0
LINE
  8
0
 62
7
 10
4.94500063E+02
 20
-3.36500015E+02
 11
4.84500032E+02
 21
-3.36500015E+02
  0
LINE
  8
0
 62
7
 10
4.94500002E+02
 20
-3.49500000E+02
 11
4.94500002E+02
 21
-3.36500015E+02
  0
LINE
  8
0
 62
7
 10
4.95999883E+02
 20
-3.38000189E+02
 11
4.94499865E+02
 21
-3.36500172E+02
  0
LINE
  8
0
 62
2
 10
4.95320070E+02
 20
-3.37320023E+02
 11
4.84500032E+02
 21
-3.37320023E+02
  0
LINE
  8
0
 62
7
 10
4.51999987E+02
 20
-3.34499954E+02
 11
4.42000002E+02
 21
-3.34499954E+02
  0
LINE
  8
0
 62
7
 10
4.51999987E+02
 20
-3.42016617E+02
 11
4.51999987E+02
 21
-3.34499954E+02
  0
LINE
  8
0
 62
7
 10
4.55999972E+02
 20
-3.36500021E+02
 11
4.51999958E+02
 21
-3.34499976E+02
  0
LINE
  8
0
 62
7
 10
4.46000002E+02
 20
-3.49500000E+02
 11
4.46000002E+02
 21
-3.42016617E+02
  0
LINE
  8
0
 62
7
 10
4.51999987E+02
 20
-3.42016617E+02
 11
4.46000002E+02
 21
-3.42016617E+02
  0
LINE
  8
0
 62
7
 10
4.55999970E+02
 20
-3.49500002E+02
 11
4.51999955E+02
 21
-3.42016633E+02
  0
LINE
  8
0
 62
2
 10
4.45999994E+02
 20
-3.42016629E+02
 11
4.51000000E+02
 21
-3.49500000E+02
  0
LINE
  8
0
 62
2
 10
4.50999965E+02
 20
-3.49500000E+02
 11
4.53777758E+02
 21
-3.45342555E+02
  0
LINE
  8
0
 62
7
 10
4.59000002E+02
 20
-3.37320023E+02
 11
4.56000002E+02
 21
-3.37320023E+02
  0
ARC
  8
0
 62
7
 10
4.22500002E+02
 20
-3.25000000E+02
 40
5.00000000E-01
 50
3.59999981E+02
 51
8.99999704E+01
  0
ARC
  8
0
 62
7
 10
4.20500002E+02
 20
-2.94619720E+02
 40
5.00000000E-01
 50
3.59999981E+02
 51
8.89996755E+01
  0
ARC
  8
0
 62
7
 10
4.36500002E+02
 20
-3.25971725E+02
 40
5.00000000E-01
 50
3.59999981E+02
 51
8.79991892E+01
  0
ARC
  8
0
 62
7
 10
4.59000002E+02
 20
-3.49499985E+02
 40
1.50000248E+01
 50
1.50073400E+02
 51
1.80000058E+02
  0
ARC
  8
0
 62
4
 10
4.75299078E+02
 20
-3.33911545E+02
 40
9.20095253E+00
 50
3.25615743E+02
 51
3.43842738E+01
  0
ARC
  8
0
 62
4
 10
4.50107767E+02
 20
-3.49500000E+02
 40
3.43922653E+01
 50
0.00000000E+00
 51
1.75879507E+01
  0
ARC
  8
0
 62
4
 10
4.79700987E+02
 20
-3.33911545E+02
 40
9.20095253E+00
 50
1.45615762E+02
 51
2.14384293E+02
  0
ARC
  8
0
 62
4
 10
5.04892298E+02
 20
-3.49500000E+02
 40
3.43922653E+01
 50
1.62412085E+02
 51
1.80000000E+02
  0
LINE
  8
0
 62
4
 10
4.70500032E+02
 20
-3.31500000E+02
 11
4.70500032E+02
 21
-3.49500000E+02
  0
LINE
  8
0
 62
4
 10
4.70500032E+02
 20
-3.31499988E+02
 11
4.72107713E+02
 21
-3.28715366E+02
  0
LINE
  8
0
 62
4
 10
4.84500042E+02
 20
-3.31500001E+02
 11
4.82892363E+02
 21
-3.28715392E+02
  0
LINE
  8
0
 62
4
 10
4.82892336E+02
 20
-3.28715393E+02
 11
4.72107729E+02
 21
-3.28715393E+02
  0
LINE
  8
0
 62
4
 10
4.82892336E+02
 20
-3.39107697E+02
 11
4.72107729E+02
 21
-3.39107697E+02
  0
LINE
  8
0
 62
4
 10
4.84500032E+02
 20
-3.31500000E+02
 11
4.84500032E+02
 21
-3.49500000E+02
  0
LINE
  8
0
 62
7
 10
4.70500032E+02
 20
-3.36500015E+02
 11
4.59000002E+02
 21
-3.36500015E+02
  0
LINE
  8
0
 62
2
 10
4.70500032E+02
 20
-3.37320023E+02
 11
4.59000002E+02
 21
-3.37320023E+02
  0
LINE
  8
0
 62
7
 10
4.37000002E+02
 20
-3.49500000E+02
 11
4.37000002E+02
 21
-3.25936752E+02
  0
LINE
  8
0
 62
2
 10
2.64543756E+02
 20
-3.69694238E+02
 11
3.11571058E+02
 21
-2.88240561E+02
  0
LINE
  8
0
 62
7
 10
3.39000002E+02
 20
-2.95999969E+02
 11
3.07091162E+02
 21
-2.95999969E+02
  0
LINE
  8
0
 62
7
 10
3.73500002E+02
 20
-3.12000000E+02
 11
3.85000032E+02
 21
-3.12000000E+02
  0
LINE
  8
0
 62
7
 10
3.73500002E+02
 20
-3.02999939E+02
 11
3.85000032E+02
 21
-3.02999939E+02
  0
LINE
  8
0
  6
CENTER
 62
2
 10
3.73500002E+02
 20
-3.07500000E+02
 11
4.26610353E+02
 21
-3.07500000E+02
  0
TEXT
  8
0
 10
-8.62146873E+01
 20
3.54316712E+02
 40
9.00000000E+00
  1
STRETCH LINE A
 41
1.09375000E+00
  7
MONOTXT
  0
LINE
  8
0
 62
7
 10
5.74500000E+02
 20
4.00500000E+02
 11
5.74500000E+02
 21
-4.00500000E+02
  0
LINE
  8
0
 62
7
 10
-5.64500000E+02
 20
4.00500000E+02
 11
5.74500000E+02
 21
4.00500000E+02
  0
LINE
  8
0
 62
7
 10
-5.64500000E+02
 20
-4.00500000E+02
 11
5.74500000E+02
 21
-4.00500000E+02
  0
LINE
  8
0
 62
7
 10
-5.64500000E+02
 20
4.00500000E+02
 11
-5.64500000E+02
 21
-4.00500000E+02
  0
LINE
  8
0
 62
7
 10
-5.64500000E+02
 20
3.70500000E+02
 11
-3.34500000E+02
 21
3.70500000E+02
  0
LINE
  8
0
 62
7
 10
3.44500000E+02
 20
3.70500000E+02
 11
5.74500000E+02
 21
3.70500000E+02
  0
LINE
  8
0
 62
7
 10
3.44500000E+02
 20
-3.70500000E+02
 11
5.74500000E+02
 21
-3.70500000E+02
  0
LINE
  8
0
 62
7
 10
3.44500000E+02
 20
-3.70500000E+02
 11
3.44500000E+02
 21
-4.00500000E+02
  0
LINE
  8
0
 62
7
 10
3.44500000E+02
 20
4.00500000E+02
 11
3.44500000E+02
 21
3.70500000E+02
  0
LINE
  8
0
 62
7
 10
-3.34500000E+02
 20
4.00500000E+02
 11
-3.34500000E+02
 21
3.70500000E+02
  0
TEXT
  8
0
 62
7
 10
-5.37179687E+02
 20
3.34250000E+02
 40
1.25000000E+01
  1
MODEL:DDAP100*75
 41
1.00000015E+00
  7
MONOTXT
  0
TEXT
  8
0
 62
7
 10
4.11285149E+02
 20
3.79250000E+02
 40
1.25000000E+01
  1
Ver. 1.0
 41
1.08108125E+00
  7
MONOTXT
  0
TEXT
  8
0
 62
7
 10
3.50070624E+02
 20
-3.94500000E+02
 40
1.80000000E+01
  1
KOGANEI CORP.
 41
1.04838710E+00
  7
MONOTXT
  0
TEXT
  8
0
 62
7
 10
-5.53964859E+02
 20
3.79250000E+02
 40
1.25000000E+01
  1
NEW DYNA CYLINDER
 41
1.07594953E+00
  7
MONOTXT
  0
ENDSEC
  0
EOF
